  0
SECTION
  2
HEADER
  9
$ACADVER
  1
AC1015
  9
$ACADMAINTVER
 70
     6
  9
$DWGCODEPAGE
  3
ANSI_932
  9
$INSBASE
 10
0.0
 20
0.0
 30
0.0
  9
$EXTMIN
 10
23.283333
 20
26.811111
 30
1.000000E+20
  9
$EXTMAX
 10
198.966667
 20
276.930556
 30
-1.000000E+20
  9
$LIMMIN
 10
23.283333
 20
26.811111
  9
$LIMMAX
 10
198.966667
 20
276.930556
  9
$ORTHOMODE
 70
     0
  9
$REGENMODE
 70
     1
  9
$FILLMODE
 70
     1
  9
$QTEXTMODE
 70
     0
  9
$MIRRTEXT
 70
     1
  9
$LTSCALE
 40
1.0
  9
$ATTMODE
 70
     1
  9
$TEXTSIZE
 40
0.2
  9
$TRACEWID
 40
0.05
  9
$TEXTSTYLE
  7
Standard
  9
$CLAYER
  8
0
  9
$CELTYPE
  6
Continuous
  9
$CECOLOR
 62
   256
  9
$CELTSCALE
 40
1.0
  9
$DISPSILH
 70
     0
  9
$DIMSCALE
 40
1.0
  9
$DIMASZ
 40
0.18
  9
$DIMEXO
 40
0.0625
  9
$DIMDLI
 40
0.38
  9
$DIMRND
 40
0.0
  9
$DIMDLE
 40
0.0
  9
$DIMEXE
 40
0.18
  9
$DIMTP
 40
0.0
  9
$DIMTM
 40
0.0
  9
$DIMTXT
 40
0.18
  9
$DIMCEN
 40
0.09
  9
$DIMTSZ
 40
0.0
  9
$DIMTOL
 70
     0
  9
$DIMLIM
 70
     0
  9
$DIMTIH
 70
     1
  9
$DIMTOH
 70
     1
  9
$DIMSE1
 70
     0
  9
$DIMSE2
 70
     0
  9
$DIMTAD
 70
     0
  9
$DIMZIN
 70
     0
  9
$DIMBLK
  1

  9
$DIMASO
 70
     1
  9
$DIMSHO
 70
     1
  9
$DIMPOST
  1

  9
$DIMAPOST
  1

  9
$DIMALT
 70
     0
  9
$DIMALTD
 70
     2
  9
$DIMALTF
 40
25.4
  9
$DIMLFAC
 40
1.0
  9
$DIMTOFL
 70
     0
  9
$DIMTVP
 40
0.0
  9
$DIMTIX
 70
     0
  9
$DIMSOXD
 70
     0
  9
$DIMSAH
 70
     0
  9
$DIMBLK1
  1

  9
$DIMBLK2
  1

  9
$DIMSTYLE
  2
Standard
  9
$DIMCLRD
 70
     0
  9
$DIMCLRE
 70
     0
  9
$DIMCLRT
 70
     0
  9
$DIMTFAC
 40
1.0
  9
$DIMGAP
 40
0.09
  9
$DIMJUST
 70
     0
  9
$DIMSD1
 70
     0
  9
$DIMSD2
 70
     0
  9
$DIMTOLJ
 70
     1
  9
$DIMTZIN
 70
     0
  9
$DIMALTZ
 70
     0
  9
$DIMALTTZ
 70
     0
  9
$DIMUPT
 70
     0
  9
$DIMDEC
 70
     4
  9
$DIMTDEC
 70
     4
  9
$DIMALTU
 70
     2
  9
$DIMALTTD
 70
     2
  9
$DIMTXSTY
  7
Standard
  9
$DIMAUNIT
 70
     0
  9
$DIMADEC
 70
     0
  9
$DIMALTRND
 40
0.0
  9
$DIMAZIN
 70
     0
  9
$DIMDSEP
 70
     0
  9
$DIMATFIT
 70
     3
  9
$DIMFRAC
 70
     0
  9
$DIMLDRBLK
  1

  9
$DIMLUNIT
 70
     2
  9
$DIMLWD
 70
     0
  9
$DIMLWE
 70
     0
  9
$DIMTMOVE
 70
     0
  9
$LUNITS
 70
     2
  9
$LUPREC
 70
     4
  9
$SKETCHINC
 40
0.1
  9
$FILLETRAD
 40
0.0
  9
$AUNITS
 70
     0
  9
$AUPREC
 70
     0
  9
$MENU
  1
acad
  9
$ELEVATION
 40
0.0
  9
$PELEVATION
 40
0.0
  9
$THICKNESS
 40
0.0
  9
$LIMCHECK
 70
     0
  9
$CHAMFERA
 40
0.0
  9
$CHAMFERB
 40
0.0
  9
$CHAMFERC
 40
0.0
  9
$CHAMFERD
 40
0.0
  9
$SKPOLY
 70
     0
  9
$TDCREATE
 40
0.000000000
  9
$TDUCREATE
 40
0.000000000
  9
$TDUPDATE
 40
0.000000000
  9
$TDUUPDATE
 40
0.000000000
  9
$TDINDWG
 40
0.0000000000
  9
$TDUSRTIMER
 40
0.0000000000
  9
$USRTIMER
 70
     1
  9
$ANGBASE
 50
0.0
  9
$ANGDIR
 70
     0
  9
$PDMODE
 70
     0
  9
$PDSIZE
 40
0.0
  9
$PLINEWID
 40
0.0
  9
$SPLFRAME
 70
     0
  9
$SPLINETYPE
 70
     6
  9
$SPLINESEGS
 70
     8
  9
$HANDSEED
  5
9B3
  9
$SURFTAB1
 70
     6
  9
$SURFTAB2
 70
     6
  9
$SURFTYPE
 70
     6
  9
$SURFU
 70
     6
  9
$SURFV
 70
     6
  9
$UCSBASE
  2

  9
$UCSNAME
  2

  9
$UCSORG
 10
0.0
 20
0.0
 30
0.0
  9
$UCSXDIR
 10
1.0
 20
0.0
 30
0.0
  9
$UCSYDIR
 10
0.0
 20
1.0
 30
0.0
  9
$UCSORTHOREF
  2

  9
$UCSORTHOVIEW
 70
     0
  9
$UCSORGTOP
 10
0.0
 20
0.0
 30
0.0
  9
$UCSORGBOTTOM
 10
0.0
 20
0.0
 30
0.0
  9
$UCSORGLEFT
 10
0.0
 20
0.0
 30
0.0
  9
$UCSORGRIGHT
 10
0.0
 20
0.0
 30
0.0
  9
$UCSORGFRONT
 10
0.0
 20
0.0
 30
0.0
  9
$UCSORGBACK
 10
0.0
 20
0.0
 30
0.0
  9
$PUCSBASE
  2

  9
$PUCSNAME
  2

  9
$PUCSORG
 10
0.0
 20
0.0
 30
0.0
  9
$PUCSXDIR
 10
1.0
 20
0.0
 30
0.0
  9
$PUCSYDIR
 10
0.0
 20
1.0
 30
0.0
  9
$PUCSORTHOREF
  2

  9
$PUCSORTHOVIEW
 70
     0
  9
$PUCSORGTOP
 10
0.0
 20
0.0
 30
0.0
  9
$PUCSORGBOTTOM
 10
0.0
 20
0.0
 30
0.0
  9
$PUCSORGLEFT
 10
0.0
 20
0.0
 30
0.0
  9
$PUCSORGRIGHT
 10
0.0
 20
0.0
 30
0.0
  9
$PUCSORGFRONT
 10
0.0
 20
0.0
 30
0.0
  9
$PUCSORGBACK
 10
0.0
 20
0.0
 30
0.0
  9
$USERI1
 70
     0
  9
$USERI2
 70
     0
  9
$USERI3
 70
     0
  9
$USERI4
 70
     0
  9
$USERI5
 70
     0
  9
$USERR1
 40
0.0
  9
$USERR2
 40
0.0
  9
$USERR3
 40
0.0
  9
$USERR4
 40
0.0
  9
$USERR5
 40
0.0
  9
$WORLDVIEW
 70
     1
  9
$SHADEDGE
 70
     3
  9
$SHADEDIF
 70
    70
  9
$TILEMODE
 70
     1
  9
$MAXACTVP
 70
    16
  9
$PINSBASE
 10
0.0
 20
0.0
 30
0.0
  9
$PLIMCHECK
 70
     0
  9
$PEXTMIN
 10
1.000000E+20
 20
1.000000E+20
 30
1.000000E+20
  9
$PEXTMAX
 10
-1.000000E+20
 20
-1.000000E+20
 30
-1.000000E+20
  9
$PLIMMIN
 10
0.0
 20
0.0
  9
$PLIMMAX
 10
12.0
 20
9.0
  9
$UNITMODE
 70
     0
  9
$VISRETAIN
 70
     0
  9
$PLINEGEN
 70
     1
  9
$PSLTSCALE
 70
     0
  9
$TREEDEPTH
 70
  3020
  9
$CMLSTYLE
  2
Standard
  9
$CMLJUST
 70
     0
  9
$CMLSCALE
 40
1.0
  9
$PROXYGRAPHICS
 70
     0
  9
$MEASUREMENT
 70
     1
  9
$CELWEIGHT
370
     0
  9
$ENDCAPS
280
     0
  9
$JOINSTYLE
280
     0
  9
$LWDISPLAY
290
     0
  9
$INSUNITS
 70
     0
  9
$HYPERLINKBASE
  1

  9
$STYLESHEET
  1

  9
$XEDIT
290
     1
  9
$CEPSNTYPE
380
     0
  9
$PSTYLEMODE
290
     1
  9
$FINGERPRINTGUID
  2

  9
$VERSIONGUID
  2

  9
$EXTNAMES
290
     1
  9
$PSVPSCALE
 40
0.0
  0
ENDSEC
  0
SECTION
  2
CLASSES
  0
CLASS
  1
LWPOLYLINE
  2
AcDbPolyline
  3
AutoCAD 2000
 90
    32768
280
     0
281
     1
  0
CLASS
  1
IMAGE
  2
AcDbRasterImage
  3
ISM
 90
      127
280
     0
281
     1
  0
CLASS
  1
OLE2FRAME
  2
AcDbOle2Frame
  3
AutoCAD 2000
 90
    32768
280
     0
281
     1
  0
CLASS
  1
HATCH
  2
AcDbHatch
  3
AutoCAD 2000
 90
    32768
280
     0
281
     1
  0
CLASS
  1
DICTIONARYVAR
  2
AcDbDictionaryVar
  3
AutoCAD 2000
 90
    32768
280
     0
281
     0
  0
CLASS
  1
RASTERVARIABLES
  2
AcDbRasterVariables
  3
ISM
 90
    32768
280
     0
281
     0
  0
CLASS
  1
IMAGEDEF
  2
AcDbRasterImageDef
  3
ISM
 90
        0
280
     0
281
     0
  0
CLASS
  1
IMAGEDEF_REACTOR
  2
AcDbRasterImageDefReactor
  3
ISM
 90
        1
280
     0
281
     0
  0
CLASS
  1
IDBUFFER
  2
AcDbIdBuffer
  3
AutoCAD 2000
 90
    32768
280
     0
281
     0
  0
CLASS
  1
SPATIAL_FILTER
  2
AcDbSpatialFilter
  3
AutoCAD 2000
 90
    32768
280
     0
281
     0
  0
CLASS
  1
XRECORD
  2
AcDbXrecord
  3
AutoCAD 2000
 90
    32768
280
     0
281
     0
  0
CLASS
  1
SORTENTSTABLE
  2
AcDbSortentsTable
  3
AutoCAD 2000
 90
    32768
280
     0
281
     0
  0
CLASS
  1
LAYER_INDEX
  2
AcDbLayerIndex
  3
AutoCAD 2000
 90
    32768
280
     0
281
     0
  0
CLASS
  1
SPATIAL_INDEX
  2
AcDbSpatialIndex
  3
AutoCAD 2000
 90
    32768
280
     0
281
     0
  0
CLASS
  1
OBJECT_PTR
  2
CAseDLPNTableRecord
  3
"ASE-LPNTableRecord"
 90
    32769
280
     0
281
     0
  0
CLASS
  1
LAYOUT
  2
AcDbLayout
  3
AutoCAD 2000
 90
        0
280
     0
281
     0
  0
CLASS
  1
PLOTSETTINGS
  2
AcDbPlotSettings
  3
AutoCAD 2000
 90
    32768
280
     0
281
     0
  0
CLASS
  1
ACDBDICTIONARYWDFLT
  2
AcDbDictionaryWithDefault
  3
AutoCAD 2000
 90
        0
280
     0
281
     0
  0
CLASS
  1
ACDBPLACEHOLDER
  2
AcDbPlaceHolder
  3
AutoCAD 2000
 90
        0
280
     0
281
     0
  0
CLASS
  1
VBA_PROJECT
  2
AcDbVbaProject
  3
acadvba
 90
    32768
280
     0
281
     0
  0
CLASS
  1
WIPEOUT
  2
AcDbWipeout
  3
WipeOut|AutoCAD Express Tool|expresstools@autodesk.com
 90
    32895
280
     0
281
     1
  0
CLASS
  1
WIPEOUTVARIABLES
  2
AcDbWipeoutVariables
  3
WipeOut|AutoCAD Express Tool|expresstools@autodesk.com
 90
        0
280
     0
281
     0
  0
CLASS
  1
RTEXT
  2
RText
  3
RText|AutoCAD Express Tool|expresstools@autodesk.com
 90
    32768
280
     0
281
     1
  0
CLASS
  1
ARCALIGNEDTEXT
  2
AcDbArcAlignedText
  3
ATEXT|AutoCAD Express Tool|expresstools@autodesk.com
 90
    32768
280
     0
281
     1
  0
ENDSEC
  0
SECTION
  2
TABLES
  0
TABLE
  2
VPORT
  5
7
100
AcDbSymbolTable
 70
     1
  0
VPORT
  5
15
100
AcDbSymbolTableRecord
100
AcDbViewportTableRecord
  2
*ACTIVE
 70
     0
 10
0.0
 20
0.0
 11
1.0
 21
1.0
 12
6.591288
 22
4.579184
 13
0.0
 23
0.0
 14
1.0
 24
1.0
 15
0.0
 25
0.0
 16
0.0
 26
0.0
 36
1.0
 17
0.0
 27
0.0
 37
0.0
 40
9.158369
 41
0.688564
 42
50.0
 43
0.0
 44
0.0
 50
0.0
 51
0.0
 71
     0
 72
   100
 73
     1
 74
     1
 75
     0
 76
     0
 77
     0
 78
     0
281
     0
 65
     0
110
0.0
120
0.0
130
0.0
111
1.0
121
0.0
131
0.0
112
0.0
122
1.0
132
0.0
345
0
346
0
 79
     0
146
0.0
  0
ENDTAB
  0
TABLE
  2
LTYPE
  5
4
100
AcDbSymbolTable
 70
     3
  0
LTYPE
  5
11
100
AcDbSymbolTableRecord
100
AcDbLinetypeTableRecord
  2
ByBlock
 70
    64
  3

 72
    65
 73
     0
 40
0.0
  0
LTYPE
  5
12
100
AcDbSymbolTableRecord
100
AcDbLinetypeTableRecord
  2
ByLayer
 70
    64
  3

 72
    65
 73
     0
 40
0.0
  0
LTYPE
  5
13
100
AcDbSymbolTableRecord
100
AcDbLinetypeTableRecord
  2
Continuous
 70
    64
  3
Solid line
 72
    65
 73
     0
 40
0.0
  0
ENDTAB
  0
TABLE
  2
LAYER
  5
2
100
AcDbSymbolTable
 70
     3
  0
LAYER
  5
14
100
AcDbSymbolTableRecord
100
AcDbLayerTableRecord
  2
0
 70
     0
 62
     7
  6
Continuous
290
     1
370
    -3
390
1D
  0
LAYER
  5
28
100
AcDbSymbolTableRecord
100
AcDbLayerTableRecord
  2
レイヤー_2
 70
     0
 62
     1
  6
Continuous
290
     1
370
    -3
390
1D
  0
LAYER
  5
97B
100
AcDbSymbolTableRecord
100
AcDbLayerTableRecord
  2
レイヤー_1
 70
     0
 62
   160
  6
Continuous
290
     1
370
    -3
390
1D
  0
ENDTAB
  0
TABLE
  2
STYLE
  5
3
100
AcDbSymbolTable
 70
     5
  0
STYLE
  5
17
100
AcDbSymbolTableRecord
100
AcDbTextStyleTableRecord
  2
Standard
 70
     0
 40
0.0
 41
1.0
 50
0.0
 71
     0
 42
0.0
  3
txt
  4

  0
STYLE
  5
24
100
AcDbSymbolTableRecord
100
AcDbTextStyleTableRecord
  2
STD
 70
     0
 40
0.0
 41
1.0
 50
0.0
 71
     0
 42
0.0
  3
txt
  4

  0
STYLE
  5
25
100
AcDbSymbolTableRecord
100
AcDbTextStyleTableRecord
  2
TATESTD
 70
     4
 40
0.0
 41
1.0
 50
0.0
 71
     0
 42
0.0
  3
txt
  4

  0
STYLE
  5
26
100
AcDbSymbolTableRecord
100
AcDbTextStyleTableRecord
  2
KANJISTD
 70
     0
 40
0.0
 41
1.0
 50
0.0
 71
     0
 42
0.0
  3
txt
  4
extfont
  0
STYLE
  5
27
100
AcDbSymbolTableRecord
100
AcDbTextStyleTableRecord
  2
KANJITATE
 70
     4
 40
0.0
 41
1.0
 50
0.0
 71
     0
 42
0.0
  3
txt
  4
extfont
  0
ENDTAB
  0
TABLE
  2
VIEW
  5
5
100
AcDbSymbolTable
 70
     0
  0
ENDTAB
  0
TABLE
  2
UCS
  5
6
100
AcDbSymbolTable
 70
     0
  0
ENDTAB
  0
TABLE
  2
APPID
  5
8
100
AcDbSymbolTable
 70
     1
  0
APPID
  5
16
100
AcDbSymbolTableRecord
100
AcDbRegAppTableRecord
  2
ACAD
 70
     0
  0
ENDTAB
  0
TABLE
  2
DIMSTYLE
  5
9
100
AcDbSymbolTable
 70
     1
100
AcDbDimStyleTable
 71
     0
  0
DIMSTYLE
105
18
100
AcDbSymbolTableRecord
100
AcDbDimStyleTableRecord
  2
Standard
 70
     0
  3

  4

 40
1.0
 41
0.18
 42
0.0625
 43
0.38
 44
0.18
 45
0.0
 46
0.0
 47
0.0
 48
0.0
 71
     0
 72
     0
 73
     1
 74
     1
 75
     0
 76
     0
 77
     0
 78
     0
 79
     0
140
0.18
141
0.09
142
0.0
143
25.4
144
1.0
145
0.0
146
1.0
147
0.09
148
0.0
170
     0
171
     2
172
     0
173
     0
174
     0
175
     0
176
     0
177
     0
178
     0
179
     0
271
     4
272
     4
273
     2
274
     2
275
     0
276
     0
277
     2
278
    46
279
     0
280
     0
281
     0
282
     0
283
     1
284
     0
285
     0
286
     0
288
     0
340
17
341
0
342
0
343
0
344
0
371
    -2
372
    -2
  0
ENDTAB
  0
TABLE
  2
BLOCK_RECORD
  5
1
100
AcDbSymbolTable
 70
     2
  0
BLOCK_RECORD
  5
A
100
AcDbSymbolTableRecord
100
AcDbBlockTableRecord
  2
*MODEL_SPACE
340
20
  0
BLOCK_RECORD
  5
B
100
AcDbSymbolTableRecord
100
AcDbBlockTableRecord
  2
*PAPER_SPACE
340
21
  0
BLOCK_RECORD
  5
29
100
AcDbSymbolTableRecord
100
AcDbBlockTableRecord
  2
AI9-BLK1
340
0
102
{BLKREFS
331
2A
102
}
  0
BLOCK_RECORD
  5
726
100
AcDbSymbolTableRecord
100
AcDbBlockTableRecord
  2
AI9-BLK2
340
0
102
{BLKREFS
331
727
102
}
  0
ENDTAB
  0
ENDSEC
  0
SECTION
  2
BLOCKS
  0
BLOCK
  5
D
100
AcDbEntity
  8
0
100
AcDbBlockBegin
  2
*MODEL_SPACE
 70
     0
 10
0.0
 20
0.0
 30
0.0
  3
*MODEL_SPACE
  1

  0
ENDBLK
  5
E
100
AcDbEntity
  8
0
100
AcDbBlockEnd
  0
BLOCK
  5
F
100
AcDbEntity
 67
     1
  8
0
100
AcDbBlockBegin
  2
*PAPER_SPACE
 70
     0
 10
0.0
 20
0.0
 30
0.0
  3
*PAPER_SPACE
  1

  0
ENDBLK
  5
10
100
AcDbEntity
 67
     1
  8
0
100
AcDbBlockEnd
  0
BLOCK
  5
2B
100
AcDbEntity
  8
レイヤー_2
 62
     7
100
AcDbBlockBegin
  2
AI9-BLK1
 70
     0
 10
0.0
 20
0.0
 30
0.0
  3
AI9-BLK1
  1

  0
LINE
  5
290
100
AcDbEntity
  8
レイヤー_2
 62
     7
100
AcDbLine
 10
3.847138
 20
12.359797
 30
0.0
 11
2.221742
 21
12.414229
 31
0.0
  0
LINE
  5
28F
100
AcDbEntity
  8
レイヤー_2
 62
     7
100
AcDbLine
 10
2.221742
 20
7.02231
 30
0.0
 11
3.847138
 21
7.076398
 31
0.0
  0
POLYLINE
  5
289
100
AcDbEntity
  8
レイヤー_2
 62
     7
100
AcDb2dPolyline
 66
     1
 10
0.0
 20
0.0
 30
0.0
  0
VERTEX
  5
28A
100
AcDbEntity
  8
レイヤー_2
 62
     7
100
AcDbVertex
100
AcDb2dVertex
 10
1.679484
 20
7.320311
 30
0.0
  0
VERTEX
  5
28B
100
AcDbEntity
  8
レイヤー_2
 62
     7
100
AcDbVertex
100
AcDb2dVertex
 10
1.896181
 20
7.103615
 30
0.0
  0
VERTEX
  5
28C
100
AcDbEntity
  8
レイヤー_2
 62
     7
100
AcDbVertex
100
AcDb2dVertex
 10
2.194526
 20
7.02231
 30
0.0
  0
VERTEX
  5
28D
100
AcDbEntity
  8
レイヤー_2
 62
     7
100
AcDbVertex
100
AcDb2dVertex
 10
2.221742
 20
7.02231
 30
0.0
  0
SEQEND
  5
28E
100
AcDbEntity
  8
レイヤー_2
 62
     7
  0
POLYLINE
  5
283
100
AcDbEntity
  8
レイヤー_2
 62
     7
100
AcDb2dPolyline
 66
     1
 10
0.0
 20
0.0
 30
0.0
  0
VERTEX
  5
284
100
AcDbEntity
  8
レイヤー_2
 62
     7
100
AcDbVertex
100
AcDb2dVertex
 10
2.221742
 20
12.414229
 30
0.0
  0
VERTEX
  5
285
100
AcDbEntity
  8
レイヤー_2
 62
     7
100
AcDbVertex
100
AcDb2dVertex
 10
2.194526
 20
12.414229
 30
0.0
  0
VERTEX
  5
286
100
AcDbEntity
  8
レイヤー_2
 62
     7
100
AcDbVertex
100
AcDb2dVertex
 10
1.896181
 20
12.332925
 30
0.0
  0
VERTEX
  5
287
100
AcDbEntity
  8
レイヤー_2
 62
     7
100
AcDbVertex
100
AcDb2dVertex
 10
1.679484
 20
12.089012
 30
0.0
  0
SEQEND
  5
288
100
AcDbEntity
  8
レイヤー_2
 62
     7
  0
LINE
  5
282
100
AcDbEntity
  8
レイヤー_2
 62
     7
100
AcDbLine
 10
1.354612
 20
7.862225
 30
0.0
 11
1.679484
 21
7.320311
 31
0.0
  0
LINE
  5
281
100
AcDbEntity
  8
レイヤー_2
 62
     7
100
AcDbLine
 10
1.679484
 20
12.089012
 30
0.0
 11
1.354612
 21
11.573971
 31
0.0
  0
LINE
  5
280
100
AcDbEntity
  8
レイヤー_2
 62
     7
100
AcDbLine
 10
0.379305
 20
10.598664
 30
0.0
 11
-0.813043
 21
10.544576
 31
0.0
  0
LINE
  5
27F
100
AcDbEntity
  8
レイヤー_2
 62
     7
100
AcDbLine
 10
-0.813043
 20
8.891964
 30
0.0
 11
0.379305
 21
8.837876
 31
0.0
  0
LINE
  5
27E
100
AcDbEntity
  8
レイヤー_2
 62
     7
100
AcDbLine
 10
4.226099
 20
14.31041
 30
0.0
 11
4.226099
 21
17.399282
 31
0.0
  0
LINE
  5
27D
100
AcDbEntity
  8
レイヤー_2
 62
     7
100
AcDbLine
 10
0.162264
 20
17.399282
 30
0.0
 11
0.162264
 21
14.31041
 31
0.0
  0
POLYLINE
  5
277
100
AcDbEntity
  8
レイヤー_2
 62
     7
100
AcDb2dPolyline
 66
     1
 10
0.0
 20
0.0
 30
0.0
  0
VERTEX
  5
278
100
AcDbEntity
  8
レイヤー_2
 62
     7
100
AcDbVertex
100
AcDb2dVertex
 10
4.226099
 20
17.399282
 30
0.0
  0
VERTEX
  5
279
100
AcDbEntity
  8
レイヤー_2
 62
     7
100
AcDbVertex
100
AcDb2dVertex
 10
4.199571
 20
17.534675
 30
0.0
  0
VERTEX
  5
27A
100
AcDbEntity
  8
レイヤー_2
 62
     7
100
AcDbVertex
100
AcDb2dVertex
 10
4.091051
 20
17.642851
 30
0.0
  0
VERTEX
  5
27B
100
AcDbEntity
  8
レイヤー_2
 62
     7
100
AcDbVertex
100
AcDb2dVertex
 10
3.928442
 20
17.697283
 30
0.0
  0
SEQEND
  5
27C
100
AcDbEntity
  8
レイヤー_2
 62
     7
  0
POLYLINE
  5
271
100
AcDbEntity
  8
レイヤー_2
 62
     7
100
AcDb2dPolyline
 66
     1
 10
0.0
 20
0.0
 30
0.0
  0
VERTEX
  5
272
100
AcDbEntity
  8
レイヤー_2
 62
     7
100
AcDbVertex
100
AcDb2dVertex
 10
0.460265
 20
17.697283
 30
0.0
  0
VERTEX
  5
273
100
AcDbEntity
  8
レイヤー_2
 62
     7
100
AcDbVertex
100
AcDb2dVertex
 10
0.324873
 20
17.642851
 30
0.0
  0
VERTEX
  5
274
100
AcDbEntity
  8
レイヤー_2
 62
     7
100
AcDbVertex
100
AcDb2dVertex
 10
0.216697
 20
17.534675
 30
0.0
  0
VERTEX
  5
275
100
AcDbEntity
  8
レイヤー_2
 62
     7
100
AcDbVertex
100
AcDb2dVertex
 10
0.162264
 20
17.399282
 30
0.0
  0
SEQEND
  5
276
100
AcDbEntity
  8
レイヤー_2
 62
     7
  0
POLYLINE
  5
26C
100
AcDbEntity
  8
レイヤー_2
 62
     7
100
AcDb2dPolyline
 66
     1
 10
0.0
 20
0.0
 30
0.0
  0
VERTEX
  5
26D
100
AcDbEntity
  8
レイヤー_2
 62
     7
100
AcDbVertex
100
AcDb2dVertex
 10
0.162264
 20
14.31041
 30
0.0
  0
VERTEX
  5
26E
100
AcDbEntity
  8
レイヤー_2
 62
     7
100
AcDbVertex
100
AcDb2dVertex
 10
0.216697
 20
14.202234
 30
0.0
  0
VERTEX
  5
26F
100
AcDbEntity
  8
レイヤー_2
 62
     7
100
AcDbVertex
100
AcDb2dVertex
 10
0.243913
 20
14.175018
 30
0.0
  0
SEQEND
  5
270
100
AcDbEntity
  8
レイヤー_2
 62
     7
  0
POLYLINE
  5
267
100
AcDbEntity
  8
レイヤー_2
 62
     7
100
AcDb2dPolyline
 66
     1
 10
0.0
 20
0.0
 30
0.0
  0
VERTEX
  5
268
100
AcDbEntity
  8
レイヤー_2
 62
     7
100
AcDbVertex
100
AcDb2dVertex
 10
4.145139
 20
14.175018
 30
0.0
  0
VERTEX
  5
269
100
AcDbEntity
  8
レイヤー_2
 62
     7
100
AcDbVertex
100
AcDb2dVertex
 10
4.199571
 20
14.202234
 30
0.0
  0
VERTEX
  5
26A
100
AcDbEntity
  8
レイヤー_2
 62
     7
100
AcDbVertex
100
AcDb2dVertex
 10
4.226099
 20
14.31041
 30
0.0
  0
SEQEND
  5
26B
100
AcDbEntity
  8
レイヤー_2
 62
     7
  0
LINE
  5
266
100
AcDbEntity
  8
レイヤー_2
 62
     7
100
AcDbLine
 10
0.162264
 20
5.125785
 30
0.0
 11
0.162264
 21
2.199866
 31
0.0
  0
LINE
  5
265
100
AcDbEntity
  8
レイヤー_2
 62
     7
100
AcDbLine
 10
4.226099
 20
2.199866
 30
0.0
 11
4.226099
 21
5.125785
 31
0.0
  0
POLYLINE
  5
260
100
AcDbEntity
  8
レイヤー_2
 62
     7
100
AcDb2dPolyline
 66
     1
 10
0.0
 20
0.0
 30
0.0
  0
VERTEX
  5
261
100
AcDbEntity
  8
レイヤー_2
 62
     7
100
AcDbVertex
100
AcDb2dVertex
 10
4.226099
 20
5.125785
 30
0.0
  0
VERTEX
  5
262
100
AcDbEntity
  8
レイヤー_2
 62
     7
100
AcDbVertex
100
AcDb2dVertex
 10
4.199571
 20
5.234306
 30
0.0
  0
VERTEX
  5
263
100
AcDbEntity
  8
レイヤー_2
 62
     7
100
AcDbVertex
100
AcDb2dVertex
 10
4.145139
 20
5.261522
 30
0.0
  0
SEQEND
  5
264
100
AcDbEntity
  8
レイヤー_2
 62
     7
  0
POLYLINE
  5
25B
100
AcDbEntity
  8
レイヤー_2
 62
     7
100
AcDb2dPolyline
 66
     1
 10
0.0
 20
0.0
 30
0.0
  0
VERTEX
  5
25C
100
AcDbEntity
  8
レイヤー_2
 62
     7
100
AcDbVertex
100
AcDb2dVertex
 10
0.243913
 20
5.261522
 30
0.0
  0
VERTEX
  5
25D
100
AcDbEntity
  8
レイヤー_2
 62
     7
100
AcDbVertex
100
AcDb2dVertex
 10
0.216697
 20
5.234306
 30
0.0
  0
VERTEX
  5
25E
100
AcDbEntity
  8
レイヤー_2
 62
     7
100
AcDbVertex
100
AcDb2dVertex
 10
0.162264
 20
5.125785
 30
0.0
  0
SEQEND
  5
25F
100
AcDbEntity
  8
レイヤー_2
 62
     7
  0
LINE
  5
25A
100
AcDbEntity
  8
レイヤー_2
 62
     7
100
AcDbLine
 10
0.243913
 20
14.175018
 30
0.0
 11
1.002523
 21
13.74128
 31
0.0
  0
LINE
  5
259
100
AcDbEntity
  8
レイヤー_2
 62
     7
100
AcDbLine
 10
3.413745
 20
13.74128
 30
0.0
 11
4.145139
 21
14.175018
 31
0.0
  0
LINE
  5
258
100
AcDbEntity
  8
レイヤー_2
 62
     7
100
AcDbLine
 10
4.145139
 20
5.261522
 30
0.0
 11
3.413745
 21
5.667699
 31
0.0
  0
LINE
  5
257
100
AcDbEntity
  8
レイヤー_2
 62
     7
100
AcDbLine
 10
1.002523
 20
5.694915
 30
0.0
 11
0.243913
 21
5.261522
 31
0.0
  0
POLYLINE
  5
24E
100
AcDbEntity
  8
レイヤー_2
 62
     7
100
AcDb2dPolyline
 66
     1
 10
0.0
 20
0.0
 30
0.0
  0
VERTEX
  5
24F
100
AcDbEntity
  8
レイヤー_2
 62
     7
100
AcDbVertex
100
AcDb2dVertex
 10
1.137915
 20
13.497712
 30
0.0
  0
VERTEX
  5
250
100
AcDbEntity
  8
レイヤー_2
 62
     7
100
AcDbVertex
100
AcDb2dVertex
 10
1.137915
 20
13.579016
 30
0.0
  0
VERTEX
  5
251
100
AcDbEntity
  8
レイヤー_2
 62
     7
100
AcDbVertex
100
AcDb2dVertex
 10
1.110699
 20
13.606232
 30
0.0
  0
VERTEX
  5
252
100
AcDbEntity
  8
レイヤー_2
 62
     7
100
AcDbVertex
100
AcDb2dVertex
 10
1.110699
 20
13.633449
 30
0.0
  0
VERTEX
  5
253
100
AcDbEntity
  8
レイヤー_2
 62
     7
100
AcDbVertex
100
AcDb2dVertex
 10
1.083483
 20
13.687537
 30
0.0
  0
VERTEX
  5
254
100
AcDbEntity
  8
レイヤー_2
 62
     7
100
AcDbVertex
100
AcDb2dVertex
 10
1.02905
 20
13.74128
 30
0.0
  0
VERTEX
  5
255
100
AcDbEntity
  8
レイヤー_2
 62
     7
100
AcDbVertex
100
AcDb2dVertex
 10
1.002523
 20
13.74128
 30
0.0
  0
SEQEND
  5
256
100
AcDbEntity
  8
レイヤー_2
 62
     7
  0
POLYLINE
  5
246
100
AcDbEntity
  8
レイヤー_2
 62
     7
100
AcDb2dPolyline
 66
     1
 10
0.0
 20
0.0
 30
0.0
  0
VERTEX
  5
247
100
AcDbEntity
  8
レイヤー_2
 62
     7
100
AcDbVertex
100
AcDb2dVertex
 10
1.002523
 20
5.667699
 30
0.0
  0
VERTEX
  5
248
100
AcDbEntity
  8
レイヤー_2
 62
     7
100
AcDbVertex
100
AcDb2dVertex
 10
1.083483
 20
5.749003
 30
0.0
  0
VERTEX
  5
249
100
AcDbEntity
  8
レイヤー_2
 62
     7
100
AcDbVertex
100
AcDb2dVertex
 10
1.110699
 20
5.803436
 30
0.0
  0
VERTEX
  5
24A
100
AcDbEntity
  8
レイヤー_2
 62
     7
100
AcDbVertex
100
AcDb2dVertex
 10
1.110699
 20
5.830307
 30
0.0
  0
VERTEX
  5
24B
100
AcDbEntity
  8
レイヤー_2
 62
     7
100
AcDbVertex
100
AcDb2dVertex
 10
1.137915
 20
5.857524
 30
0.0
  0
VERTEX
  5
24C
100
AcDbEntity
  8
レイヤー_2
 62
     7
100
AcDbVertex
100
AcDb2dVertex
 10
1.137915
 20
5.938828
 30
0.0
  0
SEQEND
  5
24D
100
AcDbEntity
  8
レイヤー_2
 62
     7
  0
POLYLINE
  5
23E
100
AcDbEntity
  8
レイヤー_2
 62
     7
100
AcDb2dPolyline
 66
     1
 10
0.0
 20
0.0
 30
0.0
  0
VERTEX
  5
23F
100
AcDbEntity
  8
レイヤー_2
 62
     7
100
AcDbVertex
100
AcDb2dVertex
 10
3.413745
 20
13.74128
 30
0.0
  0
VERTEX
  5
240
100
AcDbEntity
  8
レイヤー_2
 62
     7
100
AcDbVertex
100
AcDb2dVertex
 10
3.359313
 20
13.74128
 30
0.0
  0
VERTEX
  5
241
100
AcDbEntity
  8
レイヤー_2
 62
     7
100
AcDbVertex
100
AcDb2dVertex
 10
3.305225
 20
13.687537
 30
0.0
  0
VERTEX
  5
242
100
AcDbEntity
  8
レイヤー_2
 62
     7
100
AcDbVertex
100
AcDb2dVertex
 10
3.305225
 20
13.633449
 30
0.0
  0
VERTEX
  5
243
100
AcDbEntity
  8
レイヤー_2
 62
     7
100
AcDbVertex
100
AcDb2dVertex
 10
3.250792
 20
13.579016
 30
0.0
  0
VERTEX
  5
244
100
AcDbEntity
  8
レイヤー_2
 62
     7
100
AcDbVertex
100
AcDb2dVertex
 10
3.250792
 20
13.497712
 30
0.0
  0
SEQEND
  5
245
100
AcDbEntity
  8
レイヤー_2
 62
     7
  0
POLYLINE
  5
234
100
AcDbEntity
  8
レイヤー_2
 62
     7
100
AcDb2dPolyline
 66
     1
 10
0.0
 20
0.0
 30
0.0
  0
VERTEX
  5
235
100
AcDbEntity
  8
レイヤー_2
 62
     7
100
AcDbVertex
100
AcDb2dVertex
 10
3.250792
 20
5.938828
 30
0.0
  0
VERTEX
  5
236
100
AcDbEntity
  8
レイヤー_2
 62
     7
100
AcDbVertex
100
AcDb2dVertex
 10
3.250792
 20
5.857524
 30
0.0
  0
VERTEX
  5
237
100
AcDbEntity
  8
レイヤー_2
 62
     7
100
AcDbVertex
100
AcDb2dVertex
 10
3.278008
 20
5.830307
 30
0.0
  0
VERTEX
  5
238
100
AcDbEntity
  8
レイヤー_2
 62
     7
100
AcDbVertex
100
AcDb2dVertex
 10
3.305225
 20
5.776219
 30
0.0
  0
VERTEX
  5
239
100
AcDbEntity
  8
レイヤー_2
 62
     7
100
AcDbVertex
100
AcDb2dVertex
 10
3.305225
 20
5.749003
 30
0.0
  0
VERTEX
  5
23A
100
AcDbEntity
  8
レイヤー_2
 62
     7
100
AcDbVertex
100
AcDb2dVertex
 10
3.332441
 20
5.721787
 30
0.0
  0
VERTEX
  5
23B
100
AcDbEntity
  8
レイヤー_2
 62
     7
100
AcDbVertex
100
AcDb2dVertex
 10
3.386873
 20
5.694915
 30
0.0
  0
VERTEX
  5
23C
100
AcDbEntity
  8
レイヤー_2
 62
     7
100
AcDbVertex
100
AcDb2dVertex
 10
3.413745
 20
5.667699
 30
0.0
  0
SEQEND
  5
23D
100
AcDbEntity
  8
レイヤー_2
 62
     7
  0
LINE
  5
233
100
AcDbEntity
  8
レイヤー_2
 62
     7
100
AcDbLine
 10
3.359313
 20
5.721787
 30
0.0
 11
3.847138
 21
5.721787
 31
0.0
  0
LINE
  5
232
100
AcDbEntity
  8
レイヤー_2
 62
     7
100
AcDbLine
 10
3.847138
 20
13.714408
 30
0.0
 11
3.359313
 21
13.714408
 31
0.0
  0
LINE
  5
231
100
AcDbEntity
  8
レイヤー_2
 62
     7
100
AcDbLine
 10
3.250792
 20
13.416063
 30
0.0
 11
3.250792
 21
13.416063
 31
0.0
  0
LINE
  5
230
100
AcDbEntity
  8
レイヤー_2
 62
     7
100
AcDbLine
 10
3.250792
 20
6.020132
 30
0.0
 11
3.250792
 21
6.020132
 31
0.0
  0
LINE
  5
22F
100
AcDbEntity
  8
レイヤー_2
 62
     7
100
AcDbLine
 10
0.487826
 20
8.620835
 30
0.0
 11
-0.813043
 21
8.593963
 31
0.0
  0
LINE
  5
22E
100
AcDbEntity
  8
レイヤー_2
 62
     7
100
AcDbLine
 10
-0.813043
 20
7.076398
 30
0.0
 11
1.137915
 21
7.02231
 31
0.0
  0
LINE
  5
22D
100
AcDbEntity
  8
レイヤー_2
 62
     7
100
AcDbLine
 10
1.137915
 20
12.414229
 30
0.0
 11
-0.813043
 21
12.359797
 31
0.0
  0
LINE
  5
22C
100
AcDbEntity
  8
レイヤー_2
 62
     7
100
AcDbLine
 10
-0.813043
 20
10.842577
 30
0.0
 11
0.487826
 21
10.788144
 31
0.0
  0
LINE
  5
22B
100
AcDbEntity
  8
レイヤー_2
 62
     7
100
AcDbLine
 10
-1.625741
 20
9.054572
 30
0.0
 11
-1.571308
 21
9.081444
 31
0.0
  0
LINE
  5
22A
100
AcDbEntity
  8
レイヤー_2
 62
     7
100
AcDbLine
 10
-1.571308
 20
10.354751
 30
0.0
 11
-1.625741
 21
10.381968
 31
0.0
  0
LINE
  5
229
100
AcDbEntity
  8
レイヤー_2
 62
     7
100
AcDbLine
 10
-1.625741
 20
7.158047
 30
0.0
 11
-1.571308
 21
7.212135
 31
0.0
  0
LINE
  5
228
100
AcDbEntity
  8
レイヤー_2
 62
     7
100
AcDbLine
 10
-1.571308
 20
8.458571
 30
0.0
 11
-1.625741
 21
8.512659
 31
0.0
  0
LINE
  5
227
100
AcDbEntity
  8
レイヤー_2
 62
     7
100
AcDbLine
 10
-1.625741
 20
10.923881
 30
0.0
 11
-1.571308
 21
10.978314
 31
0.0
  0
LINE
  5
226
100
AcDbEntity
  8
レイヤー_2
 62
     7
100
AcDbLine
 10
-1.571308
 20
12.224405
 30
0.0
 11
-1.625741
 21
12.251621
 31
0.0
  0
LINE
  5
225
100
AcDbEntity
  8
レイヤー_2
 62
     7
100
AcDbLine
 10
-1.246436
 20
6.860046
 30
0.0
 11
-0.813043
 21
6.860046
 31
0.0
  0
LINE
  5
224
100
AcDbEntity
  8
レイヤー_2
 62
     7
100
AcDbLine
 10
-1.246436
 20
8.729355
 30
0.0
 11
-0.813043
 21
8.729355
 31
0.0
  0
LINE
  5
223
100
AcDbEntity
  8
レイヤー_2
 62
     7
100
AcDbLine
 10
-0.813043
 20
10.70684
 30
0.0
 11
-1.246436
 21
10.70684
 31
0.0
  0
LINE
  5
222
100
AcDbEntity
  8
レイヤー_2
 62
     7
100
AcDbLine
 10
-0.813043
 20
12.576838
 30
0.0
 11
-1.246436
 21
12.576838
 31
0.0
  0
LINE
  5
221
100
AcDbEntity
  8
レイヤー_2
 62
     7
100
AcDbLine
 10
4.145139
 20
7.076398
 30
0.0
 11
10.052272
 21
7.178718
 31
0.0
  0
LINE
  5
220
100
AcDbEntity
  8
レイヤー_2
 62
     7
100
AcDbLine
 10
10.052272
 20
12.25765
 30
0.0
 11
4.145139
 21
12.359797
 31
0.0
  0
LINE
  5
21F
100
AcDbEntity
  8
レイヤー_2
 62
     7
100
AcDbLine
 10
4.307747
 20
5.749003
 30
0.0
 11
10.052272
 21
5.842021
 31
0.0
  0
LINE
  5
21E
100
AcDbEntity
  8
レイヤー_2
 62
     7
100
AcDbLine
 10
10.052272
 20
13.594519
 30
0.0
 11
4.307747
 21
13.687537
 31
0.0
  0
POLYLINE
  5
219
100
AcDbEntity
  8
レイヤー_2
 62
     7
100
AcDb2dPolyline
 66
     1
 10
0.0
 20
0.0
 30
0.0
  0
VERTEX
  5
21A
100
AcDbEntity
  8
レイヤー_2
 62
     7
100
AcDbVertex
100
AcDb2dVertex
 10
-2.167999
 20
14.012754
 30
0.0
  0
VERTEX
  5
21B
100
AcDbEntity
  8
レイヤー_2
 62
     7
100
AcDbVertex
100
AcDb2dVertex
 10
-2.113566
 20
13.849801
 30
0.0
  0
VERTEX
  5
21C
100
AcDbEntity
  8
レイヤー_2
 62
     7
100
AcDbVertex
100
AcDb2dVertex
 10
-2.08635
 20
13.795713
 30
0.0
  0
SEQEND
  5
21D
100
AcDbEntity
  8
レイヤー_2
 62
     7
  0
LINE
  5
218
100
AcDbEntity
  8
レイヤー_2
 62
     7
100
AcDbLine
 10
-1.43626
 20
13.145623
 30
0.0
 11
-2.08635
 21
13.795713
 31
0.0
  0
POLYLINE
  5
213
100
AcDbEntity
  8
レイヤー_2
 62
     7
100
AcDb2dPolyline
 66
     1
 10
0.0
 20
0.0
 30
0.0
  0
VERTEX
  5
214
100
AcDbEntity
  8
レイヤー_2
 62
     7
100
AcDbVertex
100
AcDb2dVertex
 10
-1.246436
 20
12.711886
 30
0.0
  0
VERTEX
  5
215
100
AcDbEntity
  8
レイヤー_2
 62
     7
100
AcDbVertex
100
AcDb2dVertex
 10
-1.32774
 20
13.037103
 30
0.0
  0
VERTEX
  5
216
100
AcDbEntity
  8
レイヤー_2
 62
     7
100
AcDbVertex
100
AcDb2dVertex
 10
-1.43626
 20
13.145623
 30
0.0
  0
SEQEND
  5
217
100
AcDbEntity
  8
レイヤー_2
 62
     7
  0
LINE
  5
212
100
AcDbEntity
  8
レイヤー_2
 62
     7
100
AcDbLine
 10
-1.246436
 20
6.697093
 30
0.0
 11
-1.246436
 21
12.711886
 31
0.0
  0
POLYLINE
  5
20D
100
AcDbEntity
  8
レイヤー_2
 62
     7
100
AcDb2dPolyline
 66
     1
 10
0.0
 20
0.0
 30
0.0
  0
VERTEX
  5
20E
100
AcDbEntity
  8
レイヤー_2
 62
     7
100
AcDbVertex
100
AcDb2dVertex
 10
-1.43626
 20
6.290917
 30
0.0
  0
VERTEX
  5
20F
100
AcDbEntity
  8
レイヤー_2
 62
     7
100
AcDbVertex
100
AcDb2dVertex
 10
-1.32774
 20
6.399093
 30
0.0
  0
VERTEX
  5
210
100
AcDbEntity
  8
レイヤー_2
 62
     7
100
AcDbVertex
100
AcDb2dVertex
 10
-1.246436
 20
6.697093
 30
0.0
  0
SEQEND
  5
211
100
AcDbEntity
  8
レイヤー_2
 62
     7
  0
LINE
  5
20C
100
AcDbEntity
  8
レイヤー_2
 62
     7
100
AcDbLine
 10
-2.08635
 20
5.640827
 30
0.0
 11
-1.43626
 21
6.290917
 31
0.0
  0
POLYLINE
  5
207
100
AcDbEntity
  8
レイヤー_2
 62
     7
100
AcDb2dPolyline
 66
     1
 10
0.0
 20
0.0
 30
0.0
  0
VERTEX
  5
208
100
AcDbEntity
  8
レイヤー_2
 62
     7
100
AcDbVertex
100
AcDb2dVertex
 10
-2.08635
 20
5.640827
 30
0.0
  0
VERTEX
  5
209
100
AcDbEntity
  8
レイヤー_2
 62
     7
100
AcDbVertex
100
AcDb2dVertex
 10
-2.113566
 20
5.586395
 30
0.0
  0
VERTEX
  5
20A
100
AcDbEntity
  8
レイヤー_2
 62
     7
100
AcDbVertex
100
AcDb2dVertex
 10
-2.167999
 20
5.423786
 30
0.0
  0
SEQEND
  5
20B
100
AcDbEntity
  8
レイヤー_2
 62
     7
  0
LINE
  5
206
100
AcDbEntity
  8
レイヤー_2
 62
     7
100
AcDbLine
 10
-2.167999
 20
1.441256
 30
0.0
 11
-2.167999
 21
5.423786
 31
0.0
  0
LINE
  5
205
100
AcDbEntity
  8
レイヤー_2
 62
     7
100
AcDbLine
 10
-2.465655
 20
5.423786
 30
0.0
 11
-2.465655
 21
1.441256
 31
0.0
  0
LINE
  5
204
100
AcDbEntity
  8
レイヤー_2
 62
     7
100
AcDbLine
 10
-1.652612
 20
6.507613
 30
0.0
 11
-2.27583
 21
5.857524
 31
0.0
  0
POLYLINE
  5
1FF
100
AcDbEntity
  8
レイヤー_2
 62
     7
100
AcDb2dPolyline
 66
     1
 10
0.0
 20
0.0
 30
0.0
  0
VERTEX
  5
200
100
AcDbEntity
  8
レイヤー_2
 62
     7
100
AcDbVertex
100
AcDb2dVertex
 10
-1.652612
 20
6.507613
 30
0.0
  0
VERTEX
  5
201
100
AcDbEntity
  8
レイヤー_2
 62
     7
100
AcDbVertex
100
AcDb2dVertex
 10
-1.598524
 20
6.561701
 30
0.0
  0
VERTEX
  5
202
100
AcDbEntity
  8
レイヤー_2
 62
     7
100
AcDbVertex
100
AcDb2dVertex
 10
-1.571308
 20
6.697093
 30
0.0
  0
SEQEND
  5
203
100
AcDbEntity
  8
レイヤー_2
 62
     7
  0
LINE
  5
1FE
100
AcDbEntity
  8
レイヤー_2
 62
     7
100
AcDbLine
 10
-1.571308
 20
12.711886
 30
0.0
 11
-1.571308
 21
6.697093
 31
0.0
  0
POLYLINE
  5
1F9
100
AcDbEntity
  8
レイヤー_2
 62
     7
100
AcDb2dPolyline
 66
     1
 10
0.0
 20
0.0
 30
0.0
  0
VERTEX
  5
1FA
100
AcDbEntity
  8
レイヤー_2
 62
     7
100
AcDbVertex
100
AcDb2dVertex
 10
-1.571308
 20
12.711886
 30
0.0
  0
VERTEX
  5
1FB
100
AcDbEntity
  8
レイヤー_2
 62
     7
100
AcDbVertex
100
AcDb2dVertex
 10
-1.598524
 20
12.874494
 30
0.0
  0
VERTEX
  5
1FC
100
AcDbEntity
  8
レイヤー_2
 62
     7
100
AcDbVertex
100
AcDb2dVertex
 10
-1.652612
 20
12.928927
 30
0.0
  0
SEQEND
  5
1FD
100
AcDbEntity
  8
レイヤー_2
 62
     7
  0
LINE
  5
1F8
100
AcDbEntity
  8
レイヤー_2
 62
     7
100
AcDbLine
 10
-2.27583
 20
13.579016
 30
0.0
 11
-1.652612
 21
12.928927
 31
0.0
  0
POLYLINE
  5
1F3
100
AcDbEntity
  8
レイヤー_2
 62
     7
100
AcDb2dPolyline
 66
     1
 10
0.0
 20
0.0
 30
0.0
  0
VERTEX
  5
1F4
100
AcDbEntity
  8
レイヤー_2
 62
     7
100
AcDbVertex
100
AcDb2dVertex
 10
-2.465655
 20
14.012754
 30
0.0
  0
VERTEX
  5
1F5
100
AcDbEntity
  8
レイヤー_2
 62
     7
100
AcDbVertex
100
AcDb2dVertex
 10
-2.384351
 20
13.687537
 30
0.0
  0
VERTEX
  5
1F6
100
AcDbEntity
  8
レイヤー_2
 62
     7
100
AcDbVertex
100
AcDb2dVertex
 10
-2.27583
 20
13.579016
 30
0.0
  0
SEQEND
  5
1F7
100
AcDbEntity
  8
レイヤー_2
 62
     7
  0
LINE
  5
1F2
100
AcDbEntity
  8
レイヤー_2
 62
     7
100
AcDbLine
 10
-2.465655
 20
17.995284
 30
0.0
 11
-2.465655
 21
14.012754
 31
0.0
  0
LINE
  5
1F1
100
AcDbEntity
  8
レイヤー_2
 62
     7
100
AcDbLine
 10
-2.167999
 20
14.012754
 30
0.0
 11
-2.167999
 21
17.995284
 31
0.0
  0
POLYLINE
  5
1EC
100
AcDbEntity
  8
レイヤー_2
 62
     7
100
AcDb2dPolyline
 66
     1
 10
0.0
 20
0.0
 30
0.0
  0
VERTEX
  5
1ED
100
AcDbEntity
  8
レイヤー_2
 62
     7
100
AcDbVertex
100
AcDb2dVertex
 10
-2.27583
 20
5.857524
 30
0.0
  0
VERTEX
  5
1EE
100
AcDbEntity
  8
レイヤー_2
 62
     7
100
AcDbVertex
100
AcDb2dVertex
 10
-2.384351
 20
5.721787
 30
0.0
  0
VERTEX
  5
1EF
100
AcDbEntity
  8
レイヤー_2
 62
     7
100
AcDbVertex
100
AcDb2dVertex
 10
-2.465655
 20
5.423786
 30
0.0
  0
SEQEND
  5
1F0
100
AcDbEntity
  8
レイヤー_2
 62
     7
  0
LINE
  5
1EB
100
AcDbEntity
  8
レイヤー_2
 62
     7
100
AcDbLine
 10
-2.167999
 20
1.441256
 30
0.0
 11
-2.167999
 21
0.682646
 31
0.0
  0
LINE
  5
1EA
100
AcDbEntity
  8
レイヤー_2
 62
     7
100
AcDbLine
 10
-2.167999
 20
0.682646
 30
0.0
 11
-2.465655
 21
0.682646
 31
0.0
  0
LINE
  5
1E9
100
AcDbEntity
  8
レイヤー_2
 62
     7
100
AcDbLine
 10
-2.465655
 20
0.682646
 30
0.0
 11
-2.465655
 21
1.441256
 31
0.0
  0
LINE
  5
1E8
100
AcDbEntity
  8
レイヤー_2
 62
     7
100
AcDbLine
 10
-2.465655
 20
18.753894
 30
0.0
 11
-2.167999
 21
18.753894
 31
0.0
  0
LINE
  5
1E7
100
AcDbEntity
  8
レイヤー_2
 62
     7
100
AcDbLine
 10
-2.167999
 20
18.753894
 30
0.0
 11
-2.167999
 21
17.995284
 31
0.0
  0
LINE
  5
1E6
100
AcDbEntity
  8
レイヤー_2
 62
     7
100
AcDbLine
 10
-2.465655
 20
17.995284
 30
0.0
 11
-2.465655
 21
18.753894
 31
0.0
  0
POLYLINE
  5
1CB
100
AcDbEntity
  8
レイヤー_2
 62
     7
100
AcDb2dPolyline
 66
     1
 10
0.0
 20
0.0
 30
0.0
  0
VERTEX
  5
1CC
100
AcDbEntity
  8
レイヤー_2
 62
     7
100
AcDbVertex
100
AcDb2dVertex
 10
3.847138
 20
9.704662
 30
0.0
  0
VERTEX
  5
1CD
100
AcDbEntity
  8
レイヤー_2
 62
     7
100
AcDbVertex
100
AcDb2dVertex
 10
3.79305
 20
10.138055
 30
0.0
  0
VERTEX
  5
1CE
100
AcDbEntity
  8
レイヤー_2
 62
     7
100
AcDbVertex
100
AcDb2dVertex
 10
3.630786
 20
10.544576
 30
0.0
  0
VERTEX
  5
1CF
100
AcDbEntity
  8
レイヤー_2
 62
     7
100
AcDbVertex
100
AcDb2dVertex
 10
3.359313
 20
10.869449
 30
0.0
  0
VERTEX
  5
1D0
100
AcDbEntity
  8
レイヤー_2
 62
     7
100
AcDbVertex
100
AcDb2dVertex
 10
3.007568
 20
11.140578
 30
0.0
  0
VERTEX
  5
1D1
100
AcDbEntity
  8
レイヤー_2
 62
     7
100
AcDbVertex
100
AcDb2dVertex
 10
2.627574
 20
11.303186
 30
0.0
  0
VERTEX
  5
1D2
100
AcDbEntity
  8
レイヤー_2
 62
     7
100
AcDbVertex
100
AcDb2dVertex
 10
2.194526
 20
11.357274
 30
0.0
  0
VERTEX
  5
1D3
100
AcDbEntity
  8
レイヤー_2
 62
     7
100
AcDbVertex
100
AcDb2dVertex
 10
1.788349
 20
11.303186
 30
0.0
  0
VERTEX
  5
1D4
100
AcDbEntity
  8
レイヤー_2
 62
     7
100
AcDbVertex
100
AcDb2dVertex
 10
1.381828
 20
11.140578
 30
0.0
  0
VERTEX
  5
1D5
100
AcDbEntity
  8
レイヤー_2
 62
     7
100
AcDbVertex
100
AcDb2dVertex
 10
1.02905
 20
10.869449
 30
0.0
  0
VERTEX
  5
1D6
100
AcDbEntity
  8
レイヤー_2
 62
     7
100
AcDbVertex
100
AcDb2dVertex
 10
0.785482
 20
10.544576
 30
0.0
  0
VERTEX
  5
1D7
100
AcDbEntity
  8
レイヤー_2
 62
     7
100
AcDbVertex
100
AcDb2dVertex
 10
0.623218
 20
10.138055
 30
0.0
  0
VERTEX
  5
1D8
100
AcDbEntity
  8
レイヤー_2
 62
     7
100
AcDbVertex
100
AcDb2dVertex
 10
0.568785
 20
9.704662
 30
0.0
  0
VERTEX
  5
1D9
100
AcDbEntity
  8
レイヤー_2
 62
     7
100
AcDbVertex
100
AcDb2dVertex
 10
0.623218
 20
9.298485
 30
0.0
  0
VERTEX
  5
1DA
100
AcDbEntity
  8
レイヤー_2
 62
     7
100
AcDbVertex
100
AcDb2dVertex
 10
0.785482
 20
8.891964
 30
0.0
  0
VERTEX
  5
1DB
100
AcDbEntity
  8
レイヤー_2
 62
     7
100
AcDbVertex
100
AcDb2dVertex
 10
1.02905
 20
8.566747
 30
0.0
  0
VERTEX
  5
1DC
100
AcDbEntity
  8
レイヤー_2
 62
     7
100
AcDbVertex
100
AcDb2dVertex
 10
1.381828
 20
8.295618
 30
0.0
  0
VERTEX
  5
1DD
100
AcDbEntity
  8
レイヤー_2
 62
     7
100
AcDbVertex
100
AcDb2dVertex
 10
1.788349
 20
8.133354
 30
0.0
  0
VERTEX
  5
1DE
100
AcDbEntity
  8
レイヤー_2
 62
     7
100
AcDbVertex
100
AcDb2dVertex
 10
2.194526
 20
8.078921
 30
0.0
  0
VERTEX
  5
1DF
100
AcDbEntity
  8
レイヤー_2
 62
     7
100
AcDbVertex
100
AcDb2dVertex
 10
2.627574
 20
8.133354
 30
0.0
  0
VERTEX
  5
1E0
100
AcDbEntity
  8
レイヤー_2
 62
     7
100
AcDbVertex
100
AcDb2dVertex
 10
3.007568
 20
8.295618
 30
0.0
  0
VERTEX
  5
1E1
100
AcDbEntity
  8
レイヤー_2
 62
     7
100
AcDbVertex
100
AcDb2dVertex
 10
3.359313
 20
8.566747
 30
0.0
  0
VERTEX
  5
1E2
100
AcDbEntity
  8
レイヤー_2
 62
     7
100
AcDbVertex
100
AcDb2dVertex
 10
3.630786
 20
8.891964
 30
0.0
  0
VERTEX
  5
1E3
100
AcDbEntity
  8
レイヤー_2
 62
     7
100
AcDbVertex
100
AcDb2dVertex
 10
3.79305
 20
9.298485
 30
0.0
  0
VERTEX
  5
1E4
100
AcDbEntity
  8
レイヤー_2
 62
     7
100
AcDbVertex
100
AcDb2dVertex
 10
3.847138
 20
9.704662
 30
0.0
  0
SEQEND
  5
1E5
100
AcDbEntity
  8
レイヤー_2
 62
     7
  0
POLYLINE
  5
1B0
100
AcDbEntity
  8
レイヤー_2
 62
     7
100
AcDb2dPolyline
 66
     1
 10
0.0
 20
0.0
 30
0.0
  0
VERTEX
  5
1B1
100
AcDbEntity
  8
レイヤー_2
 62
     7
100
AcDbVertex
100
AcDb2dVertex
 10
4.226099
 20
9.704662
 30
0.0
  0
VERTEX
  5
1B2
100
AcDbEntity
  8
レイヤー_2
 62
     7
100
AcDbVertex
100
AcDb2dVertex
 10
4.172355
 20
10.246575
 30
0.0
  0
VERTEX
  5
1B3
100
AcDbEntity
  8
レイヤー_2
 62
     7
100
AcDbVertex
100
AcDb2dVertex
 10
3.955659
 20
10.734401
 30
0.0
  0
VERTEX
  5
1B4
100
AcDbEntity
  8
レイヤー_2
 62
     7
100
AcDbVertex
100
AcDb2dVertex
 10
3.630786
 20
11.140578
 30
0.0
  0
VERTEX
  5
1B5
100
AcDbEntity
  8
レイヤー_2
 62
     7
100
AcDbVertex
100
AcDb2dVertex
 10
3.224265
 20
11.465795
 30
0.0
  0
VERTEX
  5
1B6
100
AcDbEntity
  8
レイヤー_2
 62
     7
100
AcDbVertex
100
AcDb2dVertex
 10
2.736439
 20
11.682491
 30
0.0
  0
VERTEX
  5
1B7
100
AcDbEntity
  8
レイヤー_2
 62
     7
100
AcDbVertex
100
AcDb2dVertex
 10
2.194526
 20
11.736579
 30
0.0
  0
VERTEX
  5
1B8
100
AcDbEntity
  8
レイヤー_2
 62
     7
100
AcDbVertex
100
AcDb2dVertex
 10
1.679484
 20
11.682491
 30
0.0
  0
VERTEX
  5
1B9
100
AcDbEntity
  8
レイヤー_2
 62
     7
100
AcDbVertex
100
AcDb2dVertex
 10
1.192003
 20
11.465795
 30
0.0
  0
VERTEX
  5
1BA
100
AcDbEntity
  8
レイヤー_2
 62
     7
100
AcDbVertex
100
AcDb2dVertex
 10
0.75861
 20
11.140578
 30
0.0
  0
VERTEX
  5
1BB
100
AcDbEntity
  8
レイヤー_2
 62
     7
100
AcDbVertex
100
AcDb2dVertex
 10
0.433738
 20
10.734401
 30
0.0
  0
VERTEX
  5
1BC
100
AcDbEntity
  8
レイヤー_2
 62
     7
100
AcDbVertex
100
AcDb2dVertex
 10
0.243913
 20
10.246575
 30
0.0
  0
VERTEX
  5
1BD
100
AcDbEntity
  8
レイヤー_2
 62
     7
100
AcDbVertex
100
AcDb2dVertex
 10
0.162264
 20
9.704662
 30
0.0
  0
VERTEX
  5
1BE
100
AcDbEntity
  8
レイヤー_2
 62
     7
100
AcDbVertex
100
AcDb2dVertex
 10
0.243913
 20
9.189964
 30
0.0
  0
VERTEX
  5
1BF
100
AcDbEntity
  8
レイヤー_2
 62
     7
100
AcDbVertex
100
AcDb2dVertex
 10
0.433738
 20
8.702139
 30
0.0
  0
VERTEX
  5
1C0
100
AcDbEntity
  8
レイヤー_2
 62
     7
100
AcDbVertex
100
AcDb2dVertex
 10
0.75861
 20
8.26909
 30
0.0
  0
VERTEX
  5
1C1
100
AcDbEntity
  8
レイヤー_2
 62
     7
100
AcDbVertex
100
AcDb2dVertex
 10
1.192003
 20
7.970745
 30
0.0
  0
VERTEX
  5
1C2
100
AcDbEntity
  8
レイヤー_2
 62
     7
100
AcDbVertex
100
AcDb2dVertex
 10
1.679484
 20
7.753704
 30
0.0
  0
VERTEX
  5
1C3
100
AcDbEntity
  8
レイヤー_2
 62
     7
100
AcDbVertex
100
AcDb2dVertex
 10
2.194526
 20
7.699961
 30
0.0
  0
VERTEX
  5
1C4
100
AcDbEntity
  8
レイヤー_2
 62
     7
100
AcDbVertex
100
AcDb2dVertex
 10
2.736439
 20
7.753704
 30
0.0
  0
VERTEX
  5
1C5
100
AcDbEntity
  8
レイヤー_2
 62
     7
100
AcDbVertex
100
AcDb2dVertex
 10
3.224265
 20
7.970745
 30
0.0
  0
VERTEX
  5
1C6
100
AcDbEntity
  8
レイヤー_2
 62
     7
100
AcDbVertex
100
AcDb2dVertex
 10
3.630786
 20
8.26909
 30
0.0
  0
VERTEX
  5
1C7
100
AcDbEntity
  8
レイヤー_2
 62
     7
100
AcDbVertex
100
AcDb2dVertex
 10
3.955659
 20
8.702139
 30
0.0
  0
VERTEX
  5
1C8
100
AcDbEntity
  8
レイヤー_2
 62
     7
100
AcDbVertex
100
AcDb2dVertex
 10
4.172355
 20
9.189964
 30
0.0
  0
VERTEX
  5
1C9
100
AcDbEntity
  8
レイヤー_2
 62
     7
100
AcDbVertex
100
AcDb2dVertex
 10
4.226099
 20
9.704662
 30
0.0
  0
SEQEND
  5
1CA
100
AcDbEntity
  8
レイヤー_2
 62
     7
  0
POLYLINE
  5
195
100
AcDbEntity
  8
レイヤー_2
 62
     7
100
AcDb2dPolyline
 66
     1
 10
0.0
 20
0.0
 30
0.0
  0
VERTEX
  5
196
100
AcDbEntity
  8
レイヤー_2
 62
     7
100
AcDbVertex
100
AcDb2dVertex
 10
3.603225
 20
9.704662
 30
0.0
  0
VERTEX
  5
197
100
AcDbEntity
  8
レイヤー_2
 62
     7
100
AcDbVertex
100
AcDb2dVertex
 10
3.576354
 20
10.083967
 30
0.0
  0
VERTEX
  5
198
100
AcDbEntity
  8
レイヤー_2
 62
     7
100
AcDbVertex
100
AcDb2dVertex
 10
3.413745
 20
10.4364
 30
0.0
  0
VERTEX
  5
199
100
AcDbEntity
  8
レイヤー_2
 62
     7
100
AcDbVertex
100
AcDb2dVertex
 10
3.197049
 20
10.70684
 30
0.0
  0
VERTEX
  5
19A
100
AcDbEntity
  8
レイヤー_2
 62
     7
100
AcDbVertex
100
AcDb2dVertex
 10
2.899048
 20
10.950753
 30
0.0
  0
VERTEX
  5
19B
100
AcDbEntity
  8
レイヤー_2
 62
     7
100
AcDbVertex
100
AcDb2dVertex
 10
2.573831
 20
11.08649
 30
0.0
  0
VERTEX
  5
19C
100
AcDbEntity
  8
レイヤー_2
 62
     7
100
AcDbVertex
100
AcDb2dVertex
 10
2.194526
 20
11.140578
 30
0.0
  0
VERTEX
  5
19D
100
AcDbEntity
  8
レイヤー_2
 62
     7
100
AcDbVertex
100
AcDb2dVertex
 10
1.842437
 20
11.08649
 30
0.0
  0
VERTEX
  5
19E
100
AcDbEntity
  8
レイヤー_2
 62
     7
100
AcDbVertex
100
AcDb2dVertex
 10
1.490004
 20
10.950753
 30
0.0
  0
VERTEX
  5
19F
100
AcDbEntity
  8
レイヤー_2
 62
     7
100
AcDbVertex
100
AcDb2dVertex
 10
1.192003
 20
10.70684
 30
0.0
  0
VERTEX
  5
1A0
100
AcDbEntity
  8
レイヤー_2
 62
     7
100
AcDbVertex
100
AcDb2dVertex
 10
0.975307
 20
10.4364
 30
0.0
  0
VERTEX
  5
1A1
100
AcDbEntity
  8
レイヤー_2
 62
     7
100
AcDbVertex
100
AcDb2dVertex
 10
0.83957
 20
10.083967
 30
0.0
  0
VERTEX
  5
1A2
100
AcDbEntity
  8
レイヤー_2
 62
     7
100
AcDbVertex
100
AcDb2dVertex
 10
0.785482
 20
9.704662
 30
0.0
  0
VERTEX
  5
1A3
100
AcDbEntity
  8
レイヤー_2
 62
     7
100
AcDbVertex
100
AcDb2dVertex
 10
0.83957
 20
9.352228
 30
0.0
  0
VERTEX
  5
1A4
100
AcDbEntity
  8
レイヤー_2
 62
     7
100
AcDbVertex
100
AcDb2dVertex
 10
0.975307
 20
9.00014
 30
0.0
  0
VERTEX
  5
1A5
100
AcDbEntity
  8
レイヤー_2
 62
     7
100
AcDbVertex
100
AcDb2dVertex
 10
1.192003
 20
8.729355
 30
0.0
  0
VERTEX
  5
1A6
100
AcDbEntity
  8
レイヤー_2
 62
     7
100
AcDbVertex
100
AcDb2dVertex
 10
1.490004
 20
8.485442
 30
0.0
  0
VERTEX
  5
1A7
100
AcDbEntity
  8
レイヤー_2
 62
     7
100
AcDbVertex
100
AcDb2dVertex
 10
1.842437
 20
8.35005
 30
0.0
  0
VERTEX
  5
1A8
100
AcDbEntity
  8
レイヤー_2
 62
     7
100
AcDbVertex
100
AcDb2dVertex
 10
2.194526
 20
8.295618
 30
0.0
  0
VERTEX
  5
1A9
100
AcDbEntity
  8
レイヤー_2
 62
     7
100
AcDbVertex
100
AcDb2dVertex
 10
2.573831
 20
8.35005
 30
0.0
  0
VERTEX
  5
1AA
100
AcDbEntity
  8
レイヤー_2
 62
     7
100
AcDbVertex
100
AcDb2dVertex
 10
2.899048
 20
8.485442
 30
0.0
  0
VERTEX
  5
1AB
100
AcDbEntity
  8
レイヤー_2
 62
     7
100
AcDbVertex
100
AcDb2dVertex
 10
3.197049
 20
8.729355
 30
0.0
  0
VERTEX
  5
1AC
100
AcDbEntity
  8
レイヤー_2
 62
     7
100
AcDbVertex
100
AcDb2dVertex
 10
3.413745
 20
9.00014
 30
0.0
  0
VERTEX
  5
1AD
100
AcDbEntity
  8
レイヤー_2
 62
     7
100
AcDbVertex
100
AcDb2dVertex
 10
3.576354
 20
9.352228
 30
0.0
  0
VERTEX
  5
1AE
100
AcDbEntity
  8
レイヤー_2
 62
     7
100
AcDbVertex
100
AcDb2dVertex
 10
3.603225
 20
9.704662
 30
0.0
  0
SEQEND
  5
1AF
100
AcDbEntity
  8
レイヤー_2
 62
     7
  0
POLYLINE
  5
17A
100
AcDbEntity
  8
レイヤー_2
 62
     7
100
AcDb2dPolyline
 66
     1
 10
0.0
 20
0.0
 30
0.0
  0
VERTEX
  5
17B
100
AcDbEntity
  8
レイヤー_2
 62
     7
100
AcDbVertex
100
AcDb2dVertex
 10
3.250792
 20
9.704662
 30
0.0
  0
VERTEX
  5
17C
100
AcDbEntity
  8
レイヤー_2
 62
     7
100
AcDbVertex
100
AcDb2dVertex
 10
3.224265
 20
10.002662
 30
0.0
  0
VERTEX
  5
17D
100
AcDbEntity
  8
レイヤー_2
 62
     7
100
AcDbVertex
100
AcDb2dVertex
 10
3.1154
 20
10.246575
 30
0.0
  0
VERTEX
  5
17E
100
AcDbEntity
  8
レイヤー_2
 62
     7
100
AcDbVertex
100
AcDb2dVertex
 10
2.953136
 20
10.462927
 30
0.0
  0
VERTEX
  5
17F
100
AcDbEntity
  8
レイヤー_2
 62
     7
100
AcDbVertex
100
AcDb2dVertex
 10
2.736439
 20
10.62588
 30
0.0
  0
VERTEX
  5
180
100
AcDbEntity
  8
レイヤー_2
 62
     7
100
AcDbVertex
100
AcDb2dVertex
 10
2.465655
 20
10.734401
 30
0.0
  0
VERTEX
  5
181
100
AcDbEntity
  8
レイヤー_2
 62
     7
100
AcDbVertex
100
AcDb2dVertex
 10
2.194526
 20
10.761273
 30
0.0
  0
VERTEX
  5
182
100
AcDbEntity
  8
レイヤー_2
 62
     7
100
AcDbVertex
100
AcDb2dVertex
 10
1.923397
 20
10.734401
 30
0.0
  0
VERTEX
  5
183
100
AcDbEntity
  8
レイヤー_2
 62
     7
100
AcDbVertex
100
AcDb2dVertex
 10
1.679484
 20
10.62588
 30
0.0
  0
VERTEX
  5
184
100
AcDbEntity
  8
レイヤー_2
 62
     7
100
AcDbVertex
100
AcDb2dVertex
 10
1.462788
 20
10.462927
 30
0.0
  0
VERTEX
  5
185
100
AcDbEntity
  8
レイヤー_2
 62
     7
100
AcDbVertex
100
AcDb2dVertex
 10
1.300524
 20
10.246575
 30
0.0
  0
VERTEX
  5
186
100
AcDbEntity
  8
レイヤー_2
 62
     7
100
AcDbVertex
100
AcDb2dVertex
 10
1.192003
 20
10.002662
 30
0.0
  0
VERTEX
  5
187
100
AcDbEntity
  8
レイヤー_2
 62
     7
100
AcDbVertex
100
AcDb2dVertex
 10
1.137915
 20
9.704662
 30
0.0
  0
VERTEX
  5
188
100
AcDbEntity
  8
レイヤー_2
 62
     7
100
AcDbVertex
100
AcDb2dVertex
 10
1.192003
 20
9.433533
 30
0.0
  0
VERTEX
  5
189
100
AcDbEntity
  8
レイヤー_2
 62
     7
100
AcDbVertex
100
AcDb2dVertex
 10
1.300524
 20
9.189964
 30
0.0
  0
VERTEX
  5
18A
100
AcDbEntity
  8
レイヤー_2
 62
     7
100
AcDbVertex
100
AcDb2dVertex
 10
1.462788
 20
8.973268
 30
0.0
  0
VERTEX
  5
18B
100
AcDbEntity
  8
レイヤー_2
 62
     7
100
AcDbVertex
100
AcDb2dVertex
 10
1.679484
 20
8.810659
 30
0.0
  0
VERTEX
  5
18C
100
AcDbEntity
  8
レイヤー_2
 62
     7
100
AcDbVertex
100
AcDb2dVertex
 10
1.923397
 20
8.702139
 30
0.0
  0
VERTEX
  5
18D
100
AcDbEntity
  8
レイヤー_2
 62
     7
100
AcDbVertex
100
AcDb2dVertex
 10
2.194526
 20
8.674923
 30
0.0
  0
VERTEX
  5
18E
100
AcDbEntity
  8
レイヤー_2
 62
     7
100
AcDbVertex
100
AcDb2dVertex
 10
2.465655
 20
8.702139
 30
0.0
  0
VERTEX
  5
18F
100
AcDbEntity
  8
レイヤー_2
 62
     7
100
AcDbVertex
100
AcDb2dVertex
 10
2.736439
 20
8.810659
 30
0.0
  0
VERTEX
  5
190
100
AcDbEntity
  8
レイヤー_2
 62
     7
100
AcDbVertex
100
AcDb2dVertex
 10
2.953136
 20
8.973268
 30
0.0
  0
VERTEX
  5
191
100
AcDbEntity
  8
レイヤー_2
 62
     7
100
AcDbVertex
100
AcDb2dVertex
 10
3.1154
 20
9.189964
 30
0.0
  0
VERTEX
  5
192
100
AcDbEntity
  8
レイヤー_2
 62
     7
100
AcDbVertex
100
AcDb2dVertex
 10
3.224265
 20
9.433533
 30
0.0
  0
VERTEX
  5
193
100
AcDbEntity
  8
レイヤー_2
 62
     7
100
AcDbVertex
100
AcDb2dVertex
 10
3.250792
 20
9.704662
 30
0.0
  0
SEQEND
  5
194
100
AcDbEntity
  8
レイヤー_2
 62
     7
  0
LINE
  5
179
100
AcDbEntity
  8
レイヤー_2
 62
     7
100
AcDbLine
 10
2.194526
 20
2.199866
 30
0.0
 11
4.226099
 21
2.199866
 31
0.0
  0
LINE
  5
178
100
AcDbEntity
  8
レイヤー_2
 62
     7
100
AcDbLine
 10
0.162264
 20
2.199866
 30
0.0
 11
2.194526
 21
2.199866
 31
0.0
  0
LINE
  5
177
100
AcDbEntity
  8
レイヤー_2
 62
     7
100
AcDbLine
 10
1.137915
 20
5.911612
 30
0.0
 11
1.137915
 21
7.970745
 31
0.0
  0
LINE
  5
176
100
AcDbEntity
  8
レイヤー_2
 62
     7
100
AcDbLine
 10
1.137915
 20
11.465795
 30
0.0
 11
1.137915
 21
13.497712
 31
0.0
  0
LINE
  5
175
100
AcDbEntity
  8
レイヤー_2
 62
     7
100
AcDbLine
 10
3.250792
 20
6.886918
 30
0.0
 11
3.250792
 21
5.911612
 31
0.0
  0
LINE
  5
174
100
AcDbEntity
  8
レイヤー_2
 62
     7
100
AcDbLine
 10
3.250792
 20
13.497712
 30
0.0
 11
3.250792
 21
12.522405
 31
0.0
  0
LINE
  5
173
100
AcDbEntity
  8
レイヤー_2
 62
     7
100
AcDbLine
 10
3.847138
 20
7.049527
 30
0.0
 11
3.847138
 21
6.561701
 31
0.0
  0
LINE
  5
172
100
AcDbEntity
  8
レイヤー_2
 62
     7
100
AcDbLine
 10
3.847138
 20
12.847278
 30
0.0
 11
3.847138
 21
12.386669
 31
0.0
  0
LINE
  5
171
100
AcDbEntity
  8
レイヤー_2
 62
     7
100
AcDbLine
 10
1.137915
 20
5.911612
 30
0.0
 11
1.137915
 21
7.02231
 31
0.0
  0
LINE
  5
170
100
AcDbEntity
  8
レイヤー_2
 62
     7
100
AcDbLine
 10
1.137915
 20
12.414229
 30
0.0
 11
1.137915
 21
13.497712
 31
0.0
  0
POLYLINE
  5
16B
100
AcDbEntity
  8
レイヤー_2
 62
     7
100
AcDb2dPolyline
 66
     1
 10
0.0
 20
0.0
 30
0.0
  0
VERTEX
  5
16C
100
AcDbEntity
  8
レイヤー_2
 62
     7
100
AcDbVertex
100
AcDb2dVertex
 10
-2.167999
 20
9.352228
 30
0.0
  0
VERTEX
  5
16D
100
AcDbEntity
  8
レイヤー_2
 62
     7
100
AcDbVertex
100
AcDb2dVertex
 10
-2.167999
 20
9.379789
 30
0.0
  0
VERTEX
  5
16E
100
AcDbEntity
  8
レイヤー_2
 62
     7
100
AcDbVertex
100
AcDb2dVertex
 10
-2.08635
 20
9.704662
 30
0.0
  0
SEQEND
  5
16F
100
AcDbEntity
  8
レイヤー_2
 62
     7
  0
LINE
  5
16A
100
AcDbEntity
  8
レイヤー_2
 62
     7
100
AcDbLine
 10
-2.08635
 20
9.704662
 30
0.0
 11
-1.625741
 21
9.704662
 31
0.0
  0
LINE
  5
169
100
AcDbEntity
  8
レイヤー_2
 62
     7
100
AcDbLine
 10
-1.625741
 20
9.00014
 30
0.0
 11
-1.625741
 21
9.704662
 31
0.0
  0
LINE
  5
168
100
AcDbEntity
  8
レイヤー_2
 62
     7
100
AcDbLine
 10
-2.08635
 20
9.00014
 30
0.0
 11
-1.625741
 21
9.00014
 31
0.0
  0
LINE
  5
167
100
AcDbEntity
  8
レイヤー_2
 62
     7
100
AcDbLine
 10
-2.08635
 20
9.00014
 30
0.0
 11
-2.167999
 21
9.352228
 31
0.0
  0
POLYLINE
  5
162
100
AcDbEntity
  8
レイヤー_2
 62
     7
100
AcDb2dPolyline
 66
     1
 10
0.0
 20
0.0
 30
0.0
  0
VERTEX
  5
163
100
AcDbEntity
  8
レイヤー_2
 62
     7
100
AcDbVertex
100
AcDb2dVertex
 10
-2.08635
 20
9.704662
 30
0.0
  0
VERTEX
  5
164
100
AcDbEntity
  8
レイヤー_2
 62
     7
100
AcDbVertex
100
AcDb2dVertex
 10
-2.167999
 20
10.002662
 30
0.0
  0
VERTEX
  5
165
100
AcDbEntity
  8
レイヤー_2
 62
     7
100
AcDbVertex
100
AcDb2dVertex
 10
-2.167999
 20
10.083967
 30
0.0
  0
SEQEND
  5
166
100
AcDbEntity
  8
レイヤー_2
 62
     7
  0
LINE
  5
161
100
AcDbEntity
  8
レイヤー_2
 62
     7
100
AcDbLine
 10
-2.167999
 20
9.352228
 30
0.0
 11
-2.167999
 21
10.083967
 31
0.0
  0
POLYLINE
  5
15C
100
AcDbEntity
  8
レイヤー_2
 62
     7
100
AcDb2dPolyline
 66
     1
 10
0.0
 20
0.0
 30
0.0
  0
VERTEX
  5
15D
100
AcDbEntity
  8
レイヤー_2
 62
     7
100
AcDbVertex
100
AcDb2dVertex
 10
-2.167999
 20
10.083967
 30
0.0
  0
VERTEX
  5
15E
100
AcDbEntity
  8
レイヤー_2
 62
     7
100
AcDbVertex
100
AcDb2dVertex
 10
-2.113566
 20
10.354751
 30
0.0
  0
VERTEX
  5
15F
100
AcDbEntity
  8
レイヤー_2
 62
     7
100
AcDbVertex
100
AcDb2dVertex
 10
-2.08635
 20
10.4364
 30
0.0
  0
SEQEND
  5
160
100
AcDbEntity
  8
レイヤー_2
 62
     7
  0
LINE
  5
15B
100
AcDbEntity
  8
レイヤー_2
 62
     7
100
AcDbLine
 10
-2.08635
 20
10.4364
 30
0.0
 11
-1.625741
 21
10.4364
 31
0.0
  0
LINE
  5
15A
100
AcDbEntity
  8
レイヤー_2
 62
     7
100
AcDbLine
 10
-1.625741
 20
9.704662
 30
0.0
 11
-1.625741
 21
10.4364
 31
0.0
  0
LINE
  5
159
100
AcDbEntity
  8
レイヤー_2
 62
     7
100
AcDbLine
 10
-2.08635
 20
9.00014
 30
0.0
 11
-2.167999
 21
9.00014
 31
0.0
  0
LINE
  5
158
100
AcDbEntity
  8
レイヤー_2
 62
     7
100
AcDbLine
 10
-2.167999
 20
9.00014
 30
0.0
 11
-2.167999
 21
9.352228
 31
0.0
  0
LINE
  5
157
100
AcDbEntity
  8
レイヤー_2
 62
     7
100
AcDbLine
 10
-2.167999
 20
10.4364
 30
0.0
 11
-2.08635
 21
10.4364
 31
0.0
  0
LINE
  5
156
100
AcDbEntity
  8
レイヤー_2
 62
     7
100
AcDbLine
 10
-2.167999
 20
10.083967
 30
0.0
 11
-2.167999
 21
10.4364
 31
0.0
  0
LINE
  5
155
100
AcDbEntity
  8
レイヤー_2
 62
     7
100
AcDbLine
 10
-1.625741
 20
8.566747
 30
0.0
 11
-1.625741
 21
7.835353
 31
0.0
  0
LINE
  5
154
100
AcDbEntity
  8
レイヤー_2
 62
     7
100
AcDbLine
 10
-2.08635
 20
7.835353
 30
0.0
 11
-1.625741
 21
7.835353
 31
0.0
  0
POLYLINE
  5
14F
100
AcDbEntity
  8
レイヤー_2
 62
     7
100
AcDb2dPolyline
 66
     1
 10
0.0
 20
0.0
 30
0.0
  0
VERTEX
  5
150
100
AcDbEntity
  8
レイヤー_2
 62
     7
100
AcDbVertex
100
AcDb2dVertex
 10
-2.167999
 20
8.187442
 30
0.0
  0
VERTEX
  5
151
100
AcDbEntity
  8
レイヤー_2
 62
     7
100
AcDbVertex
100
AcDb2dVertex
 10
-2.167999
 20
8.160225
 30
0.0
  0
VERTEX
  5
152
100
AcDbEntity
  8
レイヤー_2
 62
     7
100
AcDbVertex
100
AcDb2dVertex
 10
-2.08635
 20
7.835353
 30
0.0
  0
SEQEND
  5
153
100
AcDbEntity
  8
レイヤー_2
 62
     7
  0
LINE
  5
14E
100
AcDbEntity
  8
レイヤー_2
 62
     7
100
AcDbLine
 10
-2.08635
 20
8.566747
 30
0.0
 11
-2.167999
 21
8.187442
 31
0.0
  0
LINE
  5
14D
100
AcDbEntity
  8
レイヤー_2
 62
     7
100
AcDbLine
 10
-2.08635
 20
8.566747
 30
0.0
 11
-1.625741
 21
8.566747
 31
0.0
  0
POLYLINE
  5
148
100
AcDbEntity
  8
レイヤー_2
 62
     7
100
AcDb2dPolyline
 66
     1
 10
0.0
 20
0.0
 30
0.0
  0
VERTEX
  5
149
100
AcDbEntity
  8
レイヤー_2
 62
     7
100
AcDbVertex
100
AcDb2dVertex
 10
-2.167999
 20
7.48292
 30
0.0
  0
VERTEX
  5
14A
100
AcDbEntity
  8
レイヤー_2
 62
     7
100
AcDbVertex
100
AcDb2dVertex
 10
-2.113566
 20
7.753704
 30
0.0
  0
VERTEX
  5
14B
100
AcDbEntity
  8
レイヤー_2
 62
     7
100
AcDbVertex
100
AcDb2dVertex
 10
-2.08635
 20
7.835353
 30
0.0
  0
SEQEND
  5
14C
100
AcDbEntity
  8
レイヤー_2
 62
     7
  0
LINE
  5
147
100
AcDbEntity
  8
レイヤー_2
 62
     7
100
AcDbLine
 10
-2.167999
 20
7.48292
 30
0.0
 11
-2.167999
 21
8.187442
 31
0.0
  0
LINE
  5
146
100
AcDbEntity
  8
レイヤー_2
 62
     7
100
AcDbLine
 10
-2.08635
 20
7.130831
 30
0.0
 11
-1.625741
 21
7.130831
 31
0.0
  0
POLYLINE
  5
141
100
AcDbEntity
  8
レイヤー_2
 62
     7
100
AcDb2dPolyline
 66
     1
 10
0.0
 20
0.0
 30
0.0
  0
VERTEX
  5
142
100
AcDbEntity
  8
レイヤー_2
 62
     7
100
AcDbVertex
100
AcDb2dVertex
 10
-2.08635
 20
7.130831
 30
0.0
  0
VERTEX
  5
143
100
AcDbEntity
  8
レイヤー_2
 62
     7
100
AcDbVertex
100
AcDb2dVertex
 10
-2.167999
 20
7.401615
 30
0.0
  0
VERTEX
  5
144
100
AcDbEntity
  8
レイヤー_2
 62
     7
100
AcDbVertex
100
AcDb2dVertex
 10
-2.167999
 20
7.48292
 30
0.0
  0
SEQEND
  5
145
100
AcDbEntity
  8
レイヤー_2
 62
     7
  0
LINE
  5
140
100
AcDbEntity
  8
レイヤー_2
 62
     7
100
AcDbLine
 10
-1.625741
 20
7.130831
 30
0.0
 11
-1.625741
 21
7.835353
 31
0.0
  0
LINE
  5
13F
100
AcDbEntity
  8
レイヤー_2
 62
     7
100
AcDbLine
 10
-2.08635
 20
8.566747
 30
0.0
 11
-2.167999
 21
8.566747
 31
0.0
  0
LINE
  5
13E
100
AcDbEntity
  8
レイヤー_2
 62
     7
100
AcDbLine
 10
-2.167999
 20
8.187442
 30
0.0
 11
-2.167999
 21
8.566747
 31
0.0
  0
LINE
  5
13D
100
AcDbEntity
  8
レイヤー_2
 62
     7
100
AcDbLine
 10
-2.167999
 20
7.130831
 30
0.0
 11
-2.08635
 21
7.130831
 31
0.0
  0
LINE
  5
13C
100
AcDbEntity
  8
レイヤー_2
 62
     7
100
AcDbLine
 10
-2.167999
 20
7.130831
 30
0.0
 11
-2.167999
 21
7.48292
 31
0.0
  0
LINE
  5
13B
100
AcDbEntity
  8
レイヤー_2
 62
     7
100
AcDbLine
 10
-1.625741
 20
12.305364
 30
0.0
 11
-1.625741
 21
11.601187
 31
0.0
  0
LINE
  5
13A
100
AcDbEntity
  8
レイヤー_2
 62
     7
100
AcDbLine
 10
-2.08635
 20
11.601187
 30
0.0
 11
-1.625741
 21
11.601187
 31
0.0
  0
POLYLINE
  5
135
100
AcDbEntity
  8
レイヤー_2
 62
     7
100
AcDb2dPolyline
 66
     1
 10
0.0
 20
0.0
 30
0.0
  0
VERTEX
  5
136
100
AcDbEntity
  8
レイヤー_2
 62
     7
100
AcDbVertex
100
AcDb2dVertex
 10
-2.167999
 20
11.953276
 30
0.0
  0
VERTEX
  5
137
100
AcDbEntity
  8
レイヤー_2
 62
     7
100
AcDbVertex
100
AcDb2dVertex
 10
-2.167999
 20
11.926404
 30
0.0
  0
VERTEX
  5
138
100
AcDbEntity
  8
レイヤー_2
 62
     7
100
AcDbVertex
100
AcDb2dVertex
 10
-2.08635
 20
11.601187
 30
0.0
  0
SEQEND
  5
139
100
AcDbEntity
  8
レイヤー_2
 62
     7
  0
LINE
  5
134
100
AcDbEntity
  8
レイヤー_2
 62
     7
100
AcDbLine
 10
-2.08635
 20
12.305364
 30
0.0
 11
-2.167999
 21
11.953276
 31
0.0
  0
LINE
  5
133
100
AcDbEntity
  8
レイヤー_2
 62
     7
100
AcDbLine
 10
-2.08635
 20
12.305364
 30
0.0
 11
-1.625741
 21
12.305364
 31
0.0
  0
POLYLINE
  5
12E
100
AcDbEntity
  8
レイヤー_2
 62
     7
100
AcDb2dPolyline
 66
     1
 10
0.0
 20
0.0
 30
0.0
  0
VERTEX
  5
12F
100
AcDbEntity
  8
レイヤー_2
 62
     7
100
AcDbVertex
100
AcDb2dVertex
 10
-2.167999
 20
11.248754
 30
0.0
  0
VERTEX
  5
130
100
AcDbEntity
  8
レイヤー_2
 62
     7
100
AcDbVertex
100
AcDb2dVertex
 10
-2.113566
 20
11.519883
 30
0.0
  0
VERTEX
  5
131
100
AcDbEntity
  8
レイヤー_2
 62
     7
100
AcDbVertex
100
AcDb2dVertex
 10
-2.08635
 20
11.601187
 30
0.0
  0
SEQEND
  5
132
100
AcDbEntity
  8
レイヤー_2
 62
     7
  0
LINE
  5
12D
100
AcDbEntity
  8
レイヤー_2
 62
     7
100
AcDbLine
 10
-2.167999
 20
11.248754
 30
0.0
 11
-2.167999
 21
11.953276
 31
0.0
  0
LINE
  5
12C
100
AcDbEntity
  8
レイヤー_2
 62
     7
100
AcDbLine
 10
-2.08635
 20
10.869449
 30
0.0
 11
-1.625741
 21
10.869449
 31
0.0
  0
POLYLINE
  5
127
100
AcDbEntity
  8
レイヤー_2
 62
     7
100
AcDb2dPolyline
 66
     1
 10
0.0
 20
0.0
 30
0.0
  0
VERTEX
  5
128
100
AcDbEntity
  8
レイヤー_2
 62
     7
100
AcDbVertex
100
AcDb2dVertex
 10
-2.08635
 20
10.869449
 30
0.0
  0
VERTEX
  5
129
100
AcDbEntity
  8
レイヤー_2
 62
     7
100
AcDbVertex
100
AcDb2dVertex
 10
-2.167999
 20
11.167794
 30
0.0
  0
VERTEX
  5
12A
100
AcDbEntity
  8
レイヤー_2
 62
     7
100
AcDbVertex
100
AcDb2dVertex
 10
-2.167999
 20
11.248754
 30
0.0
  0
SEQEND
  5
12B
100
AcDbEntity
  8
レイヤー_2
 62
     7
  0
LINE
  5
126
100
AcDbEntity
  8
レイヤー_2
 62
     7
100
AcDbLine
 10
-1.625741
 20
10.869449
 30
0.0
 11
-1.625741
 21
11.601187
 31
0.0
  0
LINE
  5
125
100
AcDbEntity
  8
レイヤー_2
 62
     7
100
AcDbLine
 10
-2.08635
 20
12.305364
 30
0.0
 11
-2.167999
 21
12.305364
 31
0.0
  0
LINE
  5
124
100
AcDbEntity
  8
レイヤー_2
 62
     7
100
AcDbLine
 10
-2.167999
 20
11.953276
 30
0.0
 11
-2.167999
 21
12.305364
 31
0.0
  0
LINE
  5
123
100
AcDbEntity
  8
レイヤー_2
 62
     7
100
AcDbLine
 10
-2.167999
 20
10.869449
 30
0.0
 11
-2.08635
 21
10.869449
 31
0.0
  0
LINE
  5
122
100
AcDbEntity
  8
レイヤー_2
 62
     7
100
AcDbLine
 10
-2.167999
 20
10.869449
 30
0.0
 11
-2.167999
 21
11.248754
 31
0.0
  0
LINE
  5
121
100
AcDbEntity
  8
レイヤー_2
 62
     7
100
AcDbLine
 10
-0.813043
 20
6.860046
 30
0.0
 11
-0.813043
 21
8.729355
 31
0.0
  0
LINE
  5
120
100
AcDbEntity
  8
レイヤー_2
 62
     7
100
AcDbLine
 10
-0.813043
 20
8.729355
 30
0.0
 11
-0.813043
 21
10.70684
 31
0.0
  0
LINE
  5
11F
100
AcDbEntity
  8
レイヤー_2
 62
     7
100
AcDbLine
 10
-0.813043
 20
10.70684
 30
0.0
 11
-0.813043
 21
12.576838
 31
0.0
  0
LINE
  5
11E
100
AcDbEntity
  8
レイヤー_2
 62
     7
100
AcDbLine
 10
4.145139
 20
10.273447
 30
0.0
 11
4.145139
 21
12.495189
 31
0.0
  0
LINE
  5
11D
100
AcDbEntity
  8
レイヤー_2
 62
     7
100
AcDbLine
 10
3.847138
 20
10.897009
 30
0.0
 11
3.847138
 21
12.359797
 31
0.0
  0
LINE
  5
11C
100
AcDbEntity
  8
レイヤー_2
 62
     7
100
AcDbLine
 10
4.145139
 20
12.495189
 30
0.0
 11
3.847138
 21
12.359797
 31
0.0
  0
LINE
  5
11B
100
AcDbEntity
  8
レイヤー_2
 62
     7
100
AcDbLine
 10
4.145139
 20
6.941006
 30
0.0
 11
4.145139
 21
9.162748
 31
0.0
  0
LINE
  5
11A
100
AcDbEntity
  8
レイヤー_2
 62
     7
100
AcDbLine
 10
3.847138
 20
7.076398
 30
0.0
 11
4.145139
 21
6.941006
 31
0.0
  0
LINE
  5
119
100
AcDbEntity
  8
レイヤー_2
 62
     7
100
AcDbLine
 10
3.847138
 20
7.076398
 30
0.0
 11
3.847138
 21
8.53953
 31
0.0
  0
LINE
  5
118
100
AcDbEntity
  8
レイヤー_2
 62
     7
100
AcDbLine
 10
4.307747
 20
6.588917
 30
0.0
 11
4.334964
 21
6.588917
 31
0.0
  0
LINE
  5
117
100
AcDbEntity
  8
レイヤー_2
 62
     7
100
AcDbLine
 10
4.307747
 20
7.076398
 30
0.0
 11
4.307747
 21
6.588917
 31
0.0
  0
LINE
  5
116
100
AcDbEntity
  8
レイヤー_2
 62
     7
100
AcDbLine
 10
4.307747
 20
12.847278
 30
0.0
 11
4.307747
 21
12.359797
 31
0.0
  0
LINE
  5
115
100
AcDbEntity
  8
レイヤー_2
 62
     7
100
AcDbLine
 10
4.334964
 20
12.847278
 30
0.0
 11
4.307747
 21
12.847278
 31
0.0
  0
LINE
  5
114
100
AcDbEntity
  8
レイヤー_2
 62
     7
100
AcDbLine
 10
4.307747
 20
12.79319
 30
0.0
 11
3.847138
 21
12.79319
 31
0.0
  0
LINE
  5
113
100
AcDbEntity
  8
レイヤー_2
 62
     7
100
AcDbLine
 10
4.307747
 20
6.643005
 30
0.0
 11
3.847138
 21
6.643005
 31
0.0
  0
LINE
  5
112
100
AcDbEntity
  8
レイヤー_2
 62
     7
100
AcDbLine
 10
4.280531
 20
12.983015
 30
0.0
 11
3.874699
 21
12.983015
 31
0.0
  0
POLYLINE
  5
10D
100
AcDbEntity
  8
レイヤー_2
 62
     7
100
AcDb2dPolyline
 66
     1
 10
0.0
 20
0.0
 30
0.0
  0
VERTEX
  5
10E
100
AcDbEntity
  8
レイヤー_2
 62
     7
100
AcDbVertex
100
AcDb2dVertex
 10
4.307747
 20
12.955798
 30
0.0
  0
VERTEX
  5
10F
100
AcDbEntity
  8
レイヤー_2
 62
     7
100
AcDbVertex
100
AcDb2dVertex
 10
4.307747
 20
12.983015
 30
0.0
  0
VERTEX
  5
110
100
AcDbEntity
  8
レイヤー_2
 62
     7
100
AcDbVertex
100
AcDb2dVertex
 10
4.280531
 20
12.983015
 30
0.0
  0
SEQEND
  5
111
100
AcDbEntity
  8
レイヤー_2
 62
     7
  0
LINE
  5
10C
100
AcDbEntity
  8
レイヤー_2
 62
     7
100
AcDbLine
 10
4.307747
 20
12.874494
 30
0.0
 11
4.307747
 21
12.955798
 31
0.0
  0
POLYLINE
  5
107
100
AcDbEntity
  8
レイヤー_2
 62
     7
100
AcDb2dPolyline
 66
     1
 10
0.0
 20
0.0
 30
0.0
  0
VERTEX
  5
108
100
AcDbEntity
  8
レイヤー_2
 62
     7
100
AcDbVertex
100
AcDb2dVertex
 10
4.334964
 20
12.847278
 30
0.0
  0
VERTEX
  5
109
100
AcDbEntity
  8
レイヤー_2
 62
     7
100
AcDbVertex
100
AcDb2dVertex
 10
4.307747
 20
12.847278
 30
0.0
  0
VERTEX
  5
10A
100
AcDbEntity
  8
レイヤー_2
 62
     7
100
AcDbVertex
100
AcDb2dVertex
 10
4.307747
 20
12.874494
 30
0.0
  0
SEQEND
  5
10B
100
AcDbEntity
  8
レイヤー_2
 62
     7
  0
POLYLINE
  5
102
100
AcDbEntity
  8
レイヤー_2
 62
     7
100
AcDb2dPolyline
 66
     1
 10
0.0
 20
0.0
 30
0.0
  0
VERTEX
  5
103
100
AcDbEntity
  8
レイヤー_2
 62
     7
100
AcDbVertex
100
AcDb2dVertex
 10
3.874699
 20
12.983015
 30
0.0
  0
VERTEX
  5
104
100
AcDbEntity
  8
レイヤー_2
 62
     7
100
AcDbVertex
100
AcDb2dVertex
 10
3.847138
 20
12.983015
 30
0.0
  0
VERTEX
  5
105
100
AcDbEntity
  8
レイヤー_2
 62
     7
100
AcDbVertex
100
AcDb2dVertex
 10
3.847138
 20
12.955798
 30
0.0
  0
SEQEND
  5
106
100
AcDbEntity
  8
レイヤー_2
 62
     7
  0
LINE
  5
101
100
AcDbEntity
  8
レイヤー_2
 62
     7
100
AcDbLine
 10
3.847138
 20
12.955798
 30
0.0
 11
3.847138
 21
12.847278
 31
0.0
  0
POLYLINE
  5
FC
100
AcDbEntity
  8
レイヤー_2
 62
     7
100
AcDb2dPolyline
 66
     1
 10
0.0
 20
0.0
 30
0.0
  0
VERTEX
  5
FD
100
AcDbEntity
  8
レイヤー_2
 62
     7
100
AcDbVertex
100
AcDb2dVertex
 10
4.280531
 20
13.822929
 30
0.0
  0
VERTEX
  5
FE
100
AcDbEntity
  8
レイヤー_2
 62
     7
100
AcDbVertex
100
AcDb2dVertex
 10
4.307747
 20
13.822929
 30
0.0
  0
VERTEX
  5
FF
100
AcDbEntity
  8
レイヤー_2
 62
     7
100
AcDbVertex
100
AcDb2dVertex
 10
4.307747
 20
13.795713
 30
0.0
  0
SEQEND
  5
100
100
AcDbEntity
  8
レイヤー_2
 62
     7
  0
LINE
  5
FB
100
AcDbEntity
  8
レイヤー_2
 62
     7
100
AcDbLine
 10
4.307747
 20
13.795713
 30
0.0
 11
4.307747
 21
12.955798
 31
0.0
  0
LINE
  5
FA
100
AcDbEntity
  8
レイヤー_2
 62
     7
100
AcDbLine
 10
3.874699
 20
6.453181
 30
0.0
 11
4.280531
 21
6.453181
 31
0.0
  0
POLYLINE
  5
F5
100
AcDbEntity
  8
レイヤー_2
 62
     7
100
AcDb2dPolyline
 66
     1
 10
0.0
 20
0.0
 30
0.0
  0
VERTEX
  5
F6
100
AcDbEntity
  8
レイヤー_2
 62
     7
100
AcDbVertex
100
AcDb2dVertex
 10
3.847138
 20
6.480741
 30
0.0
  0
VERTEX
  5
F7
100
AcDbEntity
  8
レイヤー_2
 62
     7
100
AcDbVertex
100
AcDb2dVertex
 10
3.847138
 20
6.453181
 30
0.0
  0
VERTEX
  5
F8
100
AcDbEntity
  8
レイヤー_2
 62
     7
100
AcDbVertex
100
AcDb2dVertex
 10
3.874699
 20
6.453181
 30
0.0
  0
SEQEND
  5
F9
100
AcDbEntity
  8
レイヤー_2
 62
     7
  0
POLYLINE
  5
F0
100
AcDbEntity
  8
レイヤー_2
 62
     7
100
AcDb2dPolyline
 66
     1
 10
0.0
 20
0.0
 30
0.0
  0
VERTEX
  5
F1
100
AcDbEntity
  8
レイヤー_2
 62
     7
100
AcDbVertex
100
AcDb2dVertex
 10
4.307747
 20
6.561701
 30
0.0
  0
VERTEX
  5
F2
100
AcDbEntity
  8
レイヤー_2
 62
     7
100
AcDbVertex
100
AcDb2dVertex
 10
4.307747
 20
6.588917
 30
0.0
  0
VERTEX
  5
F3
100
AcDbEntity
  8
レイヤー_2
 62
     7
100
AcDbVertex
100
AcDb2dVertex
 10
4.334964
 20
6.588917
 30
0.0
  0
SEQEND
  5
F4
100
AcDbEntity
  8
レイヤー_2
 62
     7
  0
LINE
  5
EF
100
AcDbEntity
  8
レイヤー_2
 62
     7
100
AcDbLine
 10
4.307747
 20
6.480741
 30
0.0
 11
4.307747
 21
6.561701
 31
0.0
  0
POLYLINE
  5
EA
100
AcDbEntity
  8
レイヤー_2
 62
     7
100
AcDb2dPolyline
 66
     1
 10
0.0
 20
0.0
 30
0.0
  0
VERTEX
  5
EB
100
AcDbEntity
  8
レイヤー_2
 62
     7
100
AcDbVertex
100
AcDb2dVertex
 10
4.280531
 20
6.453181
 30
0.0
  0
VERTEX
  5
EC
100
AcDbEntity
  8
レイヤー_2
 62
     7
100
AcDbVertex
100
AcDb2dVertex
 10
4.307747
 20
6.453181
 30
0.0
  0
VERTEX
  5
ED
100
AcDbEntity
  8
レイヤー_2
 62
     7
100
AcDbVertex
100
AcDb2dVertex
 10
4.307747
 20
6.480741
 30
0.0
  0
SEQEND
  5
EE
100
AcDbEntity
  8
レイヤー_2
 62
     7
  0
LINE
  5
E9
100
AcDbEntity
  8
レイヤー_2
 62
     7
100
AcDbLine
 10
3.847138
 20
6.561701
 30
0.0
 11
3.847138
 21
6.480741
 31
0.0
  0
LINE
  5
E8
100
AcDbEntity
  8
レイヤー_2
 62
     7
100
AcDbLine
 10
4.307747
 20
6.480741
 30
0.0
 11
4.307747
 21
5.640827
 31
0.0
  0
POLYLINE
  5
E3
100
AcDbEntity
  8
レイヤー_2
 62
     7
100
AcDb2dPolyline
 66
     1
 10
0.0
 20
0.0
 30
0.0
  0
VERTEX
  5
E4
100
AcDbEntity
  8
レイヤー_2
 62
     7
100
AcDbVertex
100
AcDb2dVertex
 10
4.307747
 20
5.640827
 30
0.0
  0
VERTEX
  5
E5
100
AcDbEntity
  8
レイヤー_2
 62
     7
100
AcDbVertex
100
AcDb2dVertex
 10
4.307747
 20
5.613611
 30
0.0
  0
VERTEX
  5
E6
100
AcDbEntity
  8
レイヤー_2
 62
     7
100
AcDbVertex
100
AcDb2dVertex
 10
4.280531
 20
5.613611
 30
0.0
  0
SEQEND
  5
E7
100
AcDbEntity
  8
レイヤー_2
 62
     7
  0
LINE
  5
E2
100
AcDbEntity
  8
レイヤー_2
 62
     7
100
AcDbLine
 10
3.874699
 20
13.822929
 30
0.0
 11
4.280531
 21
13.822929
 31
0.0
  0
LINE
  5
E1
100
AcDbEntity
  8
レイヤー_2
 62
     7
100
AcDbLine
 10
4.280531
 20
5.613611
 30
0.0
 11
3.874699
 21
5.613611
 31
0.0
  0
LINE
  5
E0
100
AcDbEntity
  8
レイヤー_2
 62
     7
100
AcDbLine
 10
3.874699
 20
5.613611
 30
0.0
 11
3.847138
 21
5.640827
 31
0.0
  0
LINE
  5
DF
100
AcDbEntity
  8
レイヤー_2
 62
     7
100
AcDbLine
 10
3.847138
 20
5.640827
 30
0.0
 11
3.847138
 21
6.480741
 31
0.0
  0
LINE
  5
DE
100
AcDbEntity
  8
レイヤー_2
 62
     7
100
AcDbLine
 10
3.847138
 20
13.795713
 30
0.0
 11
3.874699
 21
13.822929
 31
0.0
  0
LINE
  5
DD
100
AcDbEntity
  8
レイヤー_2
 62
     7
100
AcDbLine
 10
3.847138
 20
12.955798
 30
0.0
 11
3.847138
 21
13.795713
 31
0.0
  0
LINE
  5
DC
100
AcDbEntity
  8
レイヤー_2
 62
     7
100
AcDbLine
 10
4.334964
 20
5.776219
 30
0.0
 11
4.307747
 21
5.749003
 31
0.0
  0
POLYLINE
  5
D7
100
AcDbEntity
  8
レイヤー_2
 62
     7
100
AcDb2dPolyline
 66
     1
 10
0.0
 20
0.0
 30
0.0
  0
VERTEX
  5
D8
100
AcDbEntity
  8
レイヤー_2
 62
     7
100
AcDbVertex
100
AcDb2dVertex
 10
4.307747
 20
13.687537
 30
0.0
  0
VERTEX
  5
D9
100
AcDbEntity
  8
レイヤー_2
 62
     7
100
AcDbVertex
100
AcDb2dVertex
 10
4.307747
 20
13.659976
 30
0.0
  0
VERTEX
  5
DA
100
AcDbEntity
  8
レイヤー_2
 62
     7
100
AcDbVertex
100
AcDb2dVertex
 10
4.334964
 20
13.659976
 30
0.0
  0
SEQEND
  5
DB
100
AcDbEntity
  8
レイヤー_2
 62
     7
  0
LINE
  5
D6
100
AcDbEntity
  8
レイヤー_2
 62
     7
100
AcDbLine
 10
3.847138
 20
13.795713
 30
0.0
 11
3.847138
 21
13.714408
 31
0.0
  0
LINE
  5
D5
100
AcDbEntity
  8
レイヤー_2
 62
     7
100
AcDbLine
 10
3.847138
 20
5.721787
 30
0.0
 11
3.847138
 21
5.640827
 31
0.0
  0
LINE
  5
D4
100
AcDbEntity
  8
レイヤー_2
 62
     7
100
AcDbLine
 10
-2.465655
 20
1.441256
 30
0.0
 11
-2.167999
 21
1.441256
 31
0.0
  0
LINE
  5
D3
100
AcDbEntity
  8
レイヤー_2
 62
     7
100
AcDbLine
 10
-2.167999
 20
17.995284
 30
0.0
 11
-2.465655
 21
17.995284
 31
0.0
  0
LINE
  5
D2
100
AcDbEntity
  8
レイヤー_2
 62
     7
100
AcDbLine
 10
0.162264
 20
14.31041
 30
0.0
 11
4.226099
 21
14.31041
 31
0.0
  0
LINE
  5
D1
100
AcDbEntity
  8
レイヤー_2
 62
     7
100
AcDbLine
 10
4.226099
 20
5.125785
 30
0.0
 11
0.162264
 21
5.125785
 31
0.0
  0
POLYLINE
  5
C9
100
AcDbEntity
  8
レイヤー_2
 62
     7
100
AcDb2dPolyline
 66
     1
 10
0.0
 20
0.0
 30
0.0
  0
VERTEX
  5
CA
100
AcDbEntity
  8
レイヤー_2
 62
     7
100
AcDbVertex
100
AcDb2dVertex
 10
2.790527
 20
14.012754
 30
0.0
  0
VERTEX
  5
CB
100
AcDbEntity
  8
レイヤー_2
 62
     7
100
AcDbVertex
100
AcDb2dVertex
 10
2.546615
 20
14.066497
 30
0.0
  0
VERTEX
  5
CC
100
AcDbEntity
  8
レイヤー_2
 62
     7
100
AcDbVertex
100
AcDb2dVertex
 10
2.248614
 20
14.093713
 30
0.0
  0
VERTEX
  5
CD
100
AcDbEntity
  8
レイヤー_2
 62
     7
100
AcDbVertex
100
AcDb2dVertex
 10
1.950613
 20
14.093713
 30
0.0
  0
VERTEX
  5
CE
100
AcDbEntity
  8
レイヤー_2
 62
     7
100
AcDbVertex
100
AcDb2dVertex
 10
1.679484
 20
14.039625
 30
0.0
  0
VERTEX
  5
CF
100
AcDbEntity
  8
レイヤー_2
 62
     7
100
AcDbVertex
100
AcDb2dVertex
 10
1.598524
 20
14.012754
 30
0.0
  0
SEQEND
  5
D0
100
AcDbEntity
  8
レイヤー_2
 62
     7
  0
POLYLINE
  5
C1
100
AcDbEntity
  8
レイヤー_2
 62
     7
100
AcDb2dPolyline
 66
     1
 10
0.0
 20
0.0
 30
0.0
  0
VERTEX
  5
C2
100
AcDbEntity
  8
レイヤー_2
 62
     7
100
AcDbVertex
100
AcDb2dVertex
 10
1.598524
 20
5.396914
 30
0.0
  0
VERTEX
  5
C3
100
AcDbEntity
  8
レイヤー_2
 62
     7
100
AcDbVertex
100
AcDb2dVertex
 10
1.869309
 20
5.342482
 30
0.0
  0
VERTEX
  5
C4
100
AcDbEntity
  8
レイヤー_2
 62
     7
100
AcDbVertex
100
AcDb2dVertex
 10
2.16731
 20
5.31561
 30
0.0
  0
VERTEX
  5
C5
100
AcDbEntity
  8
レイヤー_2
 62
     7
100
AcDbVertex
100
AcDb2dVertex
 10
2.438094
 20
5.342482
 30
0.0
  0
VERTEX
  5
C6
100
AcDbEntity
  8
レイヤー_2
 62
     7
100
AcDbVertex
100
AcDb2dVertex
 10
2.736439
 20
5.396914
 30
0.0
  0
VERTEX
  5
C7
100
AcDbEntity
  8
レイヤー_2
 62
     7
100
AcDbVertex
100
AcDb2dVertex
 10
2.790527
 20
5.396914
 30
0.0
  0
SEQEND
  5
C8
100
AcDbEntity
  8
レイヤー_2
 62
     7
  0
LINE
  5
C0
100
AcDbEntity
  8
レイヤー_2
 62
     7
100
AcDbLine
 10
1.598524
 20
14.012754
 30
0.0
 11
1.598524
 21
11.980492
 31
0.0
  0
LINE
  5
BF
100
AcDbEntity
  8
レイヤー_2
 62
     7
100
AcDbLine
 10
2.790527
 20
12.386669
 30
0.0
 11
2.790527
 21
14.012754
 31
0.0
  0
LINE
  5
BE
100
AcDbEntity
  8
レイヤー_2
 62
     7
100
AcDbLine
 10
1.598524
 20
7.456048
 30
0.0
 11
1.598524
 21
5.396914
 31
0.0
  0
LINE
  5
BD
100
AcDbEntity
  8
レイヤー_2
 62
     7
100
AcDbLine
 10
2.790527
 20
5.396914
 30
0.0
 11
2.790527
 21
7.049527
 31
0.0
  0
POLYLINE
  5
B6
100
AcDbEntity
  8
レイヤー_2
 62
     7
100
AcDb2dPolyline
 66
     1
 10
0.0
 20
0.0
 30
0.0
  0
VERTEX
  5
B7
100
AcDbEntity
  8
レイヤー_2
 62
     7
100
AcDbVertex
100
AcDb2dVertex
 10
1.598524
 20
14.012754
 30
0.0
  0
VERTEX
  5
B8
100
AcDbEntity
  8
レイヤー_2
 62
     7
100
AcDbVertex
100
AcDb2dVertex
 10
1.381828
 20
13.903889
 30
0.0
  0
VERTEX
  5
B9
100
AcDbEntity
  8
レイヤー_2
 62
     7
100
AcDbVertex
100
AcDb2dVertex
 10
1.272963
 20
13.768841
 30
0.0
  0
VERTEX
  5
BA
100
AcDbEntity
  8
レイヤー_2
 62
     7
100
AcDbVertex
100
AcDb2dVertex
 10
1.192003
 20
13.659976
 30
0.0
  0
VERTEX
  5
BB
100
AcDbEntity
  8
レイヤー_2
 62
     7
100
AcDbVertex
100
AcDb2dVertex
 10
1.137915
 20
13.497712
 30
0.0
  0
SEQEND
  5
BC
100
AcDbEntity
  8
レイヤー_2
 62
     7
  0
POLYLINE
  5
AF
100
AcDbEntity
  8
レイヤー_2
 62
     7
100
AcDb2dPolyline
 66
     1
 10
0.0
 20
0.0
 30
0.0
  0
VERTEX
  5
B0
100
AcDbEntity
  8
レイヤー_2
 62
     7
100
AcDbVertex
100
AcDb2dVertex
 10
1.137915
 20
5.911612
 30
0.0
  0
VERTEX
  5
B1
100
AcDbEntity
  8
レイヤー_2
 62
     7
100
AcDbVertex
100
AcDb2dVertex
 10
1.165131
 20
5.803436
 30
0.0
  0
VERTEX
  5
B2
100
AcDbEntity
  8
レイヤー_2
 62
     7
100
AcDbVertex
100
AcDb2dVertex
 10
1.246436
 20
5.667699
 30
0.0
  0
VERTEX
  5
B3
100
AcDbEntity
  8
レイヤー_2
 62
     7
100
AcDbVertex
100
AcDb2dVertex
 10
1.435916
 20
5.50509
 30
0.0
  0
VERTEX
  5
B4
100
AcDbEntity
  8
レイヤー_2
 62
     7
100
AcDbVertex
100
AcDb2dVertex
 10
1.598524
 20
5.396914
 30
0.0
  0
SEQEND
  5
B5
100
AcDbEntity
  8
レイヤー_2
 62
     7
  0
POLYLINE
  5
A7
100
AcDbEntity
  8
レイヤー_2
 62
     7
100
AcDb2dPolyline
 66
     1
 10
0.0
 20
0.0
 30
0.0
  0
VERTEX
  5
A8
100
AcDbEntity
  8
レイヤー_2
 62
     7
100
AcDbVertex
100
AcDb2dVertex
 10
2.790527
 20
5.396914
 30
0.0
  0
VERTEX
  5
A9
100
AcDbEntity
  8
レイヤー_2
 62
     7
100
AcDbVertex
100
AcDb2dVertex
 10
2.92592
 20
5.478219
 30
0.0
  0
VERTEX
  5
AA
100
AcDbEntity
  8
レイヤー_2
 62
     7
100
AcDbVertex
100
AcDb2dVertex
 10
3.007568
 20
5.532307
 30
0.0
  0
VERTEX
  5
AB
100
AcDbEntity
  8
レイヤー_2
 62
     7
100
AcDbVertex
100
AcDb2dVertex
 10
3.142961
 20
5.667699
 30
0.0
  0
VERTEX
  5
AC
100
AcDbEntity
  8
レイヤー_2
 62
     7
100
AcDbVertex
100
AcDb2dVertex
 10
3.224265
 20
5.776219
 30
0.0
  0
VERTEX
  5
AD
100
AcDbEntity
  8
レイヤー_2
 62
     7
100
AcDbVertex
100
AcDb2dVertex
 10
3.250792
 20
5.911612
 30
0.0
  0
SEQEND
  5
AE
100
AcDbEntity
  8
レイヤー_2
 62
     7
  0
POLYLINE
  5
A0
100
AcDbEntity
  8
レイヤー_2
 62
     7
100
AcDb2dPolyline
 66
     1
 10
0.0
 20
0.0
 30
0.0
  0
VERTEX
  5
A1
100
AcDbEntity
  8
レイヤー_2
 62
     7
100
AcDbVertex
100
AcDb2dVertex
 10
3.250792
 20
13.497712
 30
0.0
  0
VERTEX
  5
A2
100
AcDbEntity
  8
レイヤー_2
 62
     7
100
AcDbVertex
100
AcDb2dVertex
 10
3.224265
 20
13.633449
 30
0.0
  0
VERTEX
  5
A3
100
AcDbEntity
  8
レイヤー_2
 62
     7
100
AcDbVertex
100
AcDb2dVertex
 10
3.142961
 20
13.768841
 30
0.0
  0
VERTEX
  5
A4
100
AcDbEntity
  8
レイヤー_2
 62
     7
100
AcDbVertex
100
AcDb2dVertex
 10
2.980352
 20
13.931449
 30
0.0
  0
VERTEX
  5
A5
100
AcDbEntity
  8
レイヤー_2
 62
     7
100
AcDbVertex
100
AcDb2dVertex
 10
2.790527
 20
14.012754
 30
0.0
  0
SEQEND
  5
A6
100
AcDbEntity
  8
レイヤー_2
 62
     7
  0
LINE
  5
9F
100
AcDbEntity
  8
レイヤー_2
 62
     7
100
AcDbLine
 10
3.250792
 20
6.886918
 30
0.0
 11
3.224265
 21
7.049527
 31
0.0
  0
POLYLINE
  5
9A
100
AcDbEntity
  8
レイヤー_2
 62
     7
100
AcDb2dPolyline
 66
     1
 10
0.0
 20
0.0
 30
0.0
  0
VERTEX
  5
9B
100
AcDbEntity
  8
レイヤー_2
 62
     7
100
AcDbVertex
100
AcDb2dVertex
 10
3.224265
 20
12.386669
 30
0.0
  0
VERTEX
  5
9C
100
AcDbEntity
  8
レイヤー_2
 62
     7
100
AcDbVertex
100
AcDb2dVertex
 10
3.250792
 20
12.441101
 30
0.0
  0
VERTEX
  5
9D
100
AcDbEntity
  8
レイヤー_2
 62
     7
100
AcDbVertex
100
AcDb2dVertex
 10
3.250792
 20
12.522405
 30
0.0
  0
SEQEND
  5
9E
100
AcDbEntity
  8
レイヤー_2
 62
     7
  0
LINE
  5
99
100
AcDbEntity
  8
レイヤー_2
 62
     7
100
AcDbLine
 10
3.549137
 20
13.145623
 30
0.0
 11
3.549137
 21
12.359797
 31
0.0
  0
POLYLINE
  5
93
100
AcDbEntity
  8
レイヤー_2
 62
     7
100
AcDb2dPolyline
 66
     1
 10
0.0
 20
0.0
 30
0.0
  0
VERTEX
  5
94
100
AcDbEntity
  8
レイヤー_2
 62
     7
100
AcDbVertex
100
AcDb2dVertex
 10
3.250792
 20
13.470496
 30
0.0
  0
VERTEX
  5
95
100
AcDbEntity
  8
レイヤー_2
 62
     7
100
AcDbVertex
100
AcDb2dVertex
 10
3.440961
 20
13.36232
 30
0.0
  0
VERTEX
  5
96
100
AcDbEntity
  8
レイヤー_2
 62
     7
100
AcDbVertex
100
AcDb2dVertex
 10
3.521921
 20
13.226583
 30
0.0
  0
VERTEX
  5
97
100
AcDbEntity
  8
レイヤー_2
 62
     7
100
AcDbVertex
100
AcDb2dVertex
 10
3.549137
 20
13.145623
 30
0.0
  0
SEQEND
  5
98
100
AcDbEntity
  8
レイヤー_2
 62
     7
  0
POLYLINE
  5
8D
100
AcDbEntity
  8
レイヤー_2
 62
     7
100
AcDb2dPolyline
 66
     1
 10
0.0
 20
0.0
 30
0.0
  0
VERTEX
  5
8E
100
AcDbEntity
  8
レイヤー_2
 62
     7
100
AcDbVertex
100
AcDb2dVertex
 10
3.549137
 20
6.2637
 30
0.0
  0
VERTEX
  5
8F
100
AcDbEntity
  8
レイヤー_2
 62
     7
100
AcDbVertex
100
AcDb2dVertex
 10
3.494705
 20
6.128308
 30
0.0
  0
VERTEX
  5
90
100
AcDbEntity
  8
レイヤー_2
 62
     7
100
AcDbVertex
100
AcDb2dVertex
 10
3.332441
 20
5.992916
 30
0.0
  0
VERTEX
  5
91
100
AcDbEntity
  8
レイヤー_2
 62
     7
100
AcDbVertex
100
AcDb2dVertex
 10
3.224265
 20
5.9657
 30
0.0
  0
SEQEND
  5
92
100
AcDbEntity
  8
レイヤー_2
 62
     7
  0
LINE
  5
8C
100
AcDbEntity
  8
レイヤー_2
 62
     7
100
AcDbLine
 10
3.549137
 20
7.076398
 30
0.0
 11
3.549137
 21
6.2637
 31
0.0
  0
LINE
  5
8B
100
AcDbEntity
  8
レイヤー_2
 62
     7
100
AcDbLine
 10
0.867131
 20
7.537352
 30
0.0
 11
0.867131
 21
8.187442
 31
0.0
  0
LINE
  5
8A
100
AcDbEntity
  8
レイヤー_2
 62
     7
100
AcDbLine
 10
0.867131
 20
11.248754
 30
0.0
 11
0.867131
 21
11.899188
 31
0.0
  0
POLYLINE
  5
83
100
AcDbEntity
  8
レイヤー_2
 62
     7
100
AcDb2dPolyline
 66
     1
 10
0.0
 20
0.0
 30
0.0
  0
VERTEX
  5
84
100
AcDbEntity
  8
レイヤー_2
 62
     7
100
AcDbVertex
100
AcDb2dVertex
 10
0.867131
 20
11.899188
 30
0.0
  0
VERTEX
  5
85
100
AcDbEntity
  8
レイヤー_2
 62
     7
100
AcDbVertex
100
AcDb2dVertex
 10
0.894002
 20
12.061452
 30
0.0
  0
VERTEX
  5
86
100
AcDbEntity
  8
レイヤー_2
 62
     7
100
AcDbVertex
100
AcDb2dVertex
 10
0.94809
 20
12.197188
 30
0.0
  0
VERTEX
  5
87
100
AcDbEntity
  8
レイヤー_2
 62
     7
100
AcDbVertex
100
AcDb2dVertex
 10
1.110699
 20
12.305364
 30
0.0
  0
VERTEX
  5
88
100
AcDbEntity
  8
レイヤー_2
 62
     7
100
AcDbVertex
100
AcDb2dVertex
 10
1.137915
 20
12.305364
 30
0.0
  0
SEQEND
  5
89
100
AcDbEntity
  8
レイヤー_2
 62
     7
  0
POLYLINE
  5
7C
100
AcDbEntity
  8
レイヤー_2
 62
     7
100
AcDb2dPolyline
 66
     1
 10
0.0
 20
0.0
 30
0.0
  0
VERTEX
  5
7D
100
AcDbEntity
  8
レイヤー_2
 62
     7
100
AcDbVertex
100
AcDb2dVertex
 10
1.137915
 20
7.130831
 30
0.0
  0
VERTEX
  5
7E
100
AcDbEntity
  8
レイヤー_2
 62
     7
100
AcDbVertex
100
AcDb2dVertex
 10
0.975307
 20
7.212135
 30
0.0
  0
VERTEX
  5
7F
100
AcDbEntity
  8
レイヤー_2
 62
     7
100
AcDbVertex
100
AcDb2dVertex
 10
0.894002
 20
7.347527
 30
0.0
  0
VERTEX
  5
80
100
AcDbEntity
  8
レイヤー_2
 62
     7
100
AcDbVertex
100
AcDb2dVertex
 10
0.867131
 20
7.510136
 30
0.0
  0
VERTEX
  5
81
100
AcDbEntity
  8
レイヤー_2
 62
     7
100
AcDbVertex
100
AcDb2dVertex
 10
0.867131
 20
7.537352
 30
0.0
  0
SEQEND
  5
82
100
AcDbEntity
  8
レイヤー_2
 62
     7
  0
LINE
  5
7B
100
AcDbEntity
  8
レイヤー_2
 62
     7
100
AcDbLine
 10
4.334964
 20
6.588917
 30
0.0
 11
4.334964
 21
5.776219
 31
0.0
  0
LINE
  5
7A
100
AcDbEntity
  8
レイヤー_2
 62
     7
100
AcDbLine
 10
4.334964
 20
13.659976
 30
0.0
 11
4.334964
 21
12.847278
 31
0.0
  0
LINE
  5
79
100
AcDbEntity
  8
レイヤー_2
 62
     7
100
AcDbLine
 10
-2.140438
 20
17.236329
 30
0.0
 11
-2.140438
 21
16.342672
 31
0.0
  0
LINE
  5
78
100
AcDbEntity
  8
レイヤー_2
 62
     7
100
AcDbLine
 10
-2.140438
 20
18.130676
 30
0.0
 11
-2.140438
 21
17.236329
 31
0.0
  0
LINE
  5
77
100
AcDbEntity
  8
レイヤー_2
 62
     7
100
AcDbLine
 10
2.194526
 20
17.697283
 30
0.0
 11
3.928442
 21
17.697283
 31
0.0
  0
LINE
  5
76
100
AcDbEntity
  8
レイヤー_2
 62
     7
100
AcDbLine
 10
0.460265
 20
17.697283
 30
0.0
 11
2.194526
 21
17.697283
 31
0.0
  0
LINE
  5
75
100
AcDbEntity
  8
レイヤー_2
 62
     7
100
AcDbLine
 10
-2.167999
 20
0.682646
 30
0.0
 11
-2.167999
 21
2.497866
 31
0.0
  0
LINE
  5
74
100
AcDbEntity
  8
レイヤー_2
 62
     7
100
AcDbLine
 10
-2.167999
 20
4.313087
 30
0.0
 11
-2.167999
 21
6.101436
 31
0.0
  0
LINE
  5
73
100
AcDbEntity
  8
レイヤー_2
 62
     7
100
AcDbLine
 10
-2.167999
 20
7.916313
 30
0.0
 11
-2.167999
 21
9.704662
 31
0.0
  0
LINE
  5
72
100
AcDbEntity
  8
レイヤー_2
 62
     7
100
AcDbLine
 10
-2.167999
 20
11.519883
 30
0.0
 11
-2.167999
 21
13.335103
 31
0.0
  0
LINE
  5
71
100
AcDbEntity
  8
レイヤー_2
 62
     7
100
AcDbLine
 10
-2.167999
 20
15.123452
 30
0.0
 11
-2.167999
 21
16.938329
 31
0.0
  0
LINE
  5
70
100
AcDbEntity
  8
レイヤー_2
 62
     7
100
AcDbLine
 10
-2.167999
 20
18.753894
 30
0.0
 11
-2.167999
 21
18.130676
 31
0.0
  0
LINE
  5
6F
100
AcDbEntity
  8
レイヤー_2
 62
     7
100
AcDbLine
 10
4.903749
 20
1.441256
 30
0.0
 11
4.903749
 21
3.256132
 31
0.0
  0
LINE
  5
6E
100
AcDbEntity
  8
レイヤー_2
 62
     7
100
AcDbLine
 10
4.903749
 20
5.044481
 30
0.0
 11
4.903749
 21
6.860046
 31
0.0
  0
LINE
  5
6D
100
AcDbEntity
  8
レイヤー_2
 62
     7
100
AcDbLine
 10
4.903749
 20
8.674923
 30
0.0
 11
4.903749
 21
10.462927
 31
0.0
  0
LINE
  5
6C
100
AcDbEntity
  8
レイヤー_2
 62
     7
100
AcDbLine
 10
4.903749
 20
12.278493
 30
0.0
 11
4.903749
 21
14.066497
 31
0.0
  0
LINE
  5
6B
100
AcDbEntity
  8
レイヤー_2
 62
     7
100
AcDbLine
 10
4.903749
 20
15.881718
 30
0.0
 11
4.903749
 21
17.697283
 31
0.0
  0
LINE
  5
6A
100
AcDbEntity
  8
レイヤー_2
 62
     7
100
AcDbLine
 10
4.903749
 20
17.995284
 30
0.0
 11
4.903749
 21
17.399282
 31
0.0
  0
LINE
  5
69
100
AcDbEntity
  8
レイヤー_2
 62
     7
100
AcDbLine
 10
-2.167999
 20
17.995284
 30
0.0
 11
0.83957
 21
17.995284
 31
0.0
  0
LINE
  5
68
100
AcDbEntity
  8
レイヤー_2
 62
     7
100
AcDbLine
 10
1.435916
 20
17.995284
 30
0.0
 11
2.058789
 21
17.995284
 31
0.0
  0
LINE
  5
67
100
AcDbEntity
  8
レイヤー_2
 62
     7
100
AcDbLine
 10
2.655135
 20
17.995284
 30
0.0
 11
4.903749
 21
17.995284
 31
0.0
  0
LINE
  5
66
100
AcDbEntity
  8
レイヤー_2
 62
     7
100
AcDbLine
 10
4.903749
 20
17.995284
 30
0.0
 11
4.307747
 21
17.995284
 31
0.0
  0
LINE
  5
65
100
AcDbEntity
  8
レイヤー_2
 62
     7
100
AcDbLine
 10
-2.167999
 20
1.441256
 30
0.0
 11
0.83957
 21
1.441256
 31
0.0
  0
LINE
  5
64
100
AcDbEntity
  8
レイヤー_2
 62
     7
100
AcDbLine
 10
1.435916
 20
1.441256
 30
0.0
 11
2.058789
 21
1.441256
 31
0.0
  0
LINE
  5
63
100
AcDbEntity
  8
レイヤー_2
 62
     7
100
AcDbLine
 10
2.655135
 20
1.441256
 30
0.0
 11
4.903749
 21
1.441256
 31
0.0
  0
LINE
  5
62
100
AcDbEntity
  8
レイヤー_2
 62
     7
100
AcDbLine
 10
4.903749
 20
1.441256
 30
0.0
 11
4.307747
 21
1.441256
 31
0.0
  0
LINE
  5
61
100
AcDbEntity
  8
レイヤー_2
 62
     7
100
AcDbLine
 10
0.596002
 20
2.226737
 30
0.0
 11
0.596002
 21
4.015087
 31
0.0
  0
LINE
  5
60
100
AcDbEntity
  8
レイヤー_2
 62
     7
100
AcDbLine
 10
0.596002
 20
5.098569
 30
0.0
 11
0.596002
 21
4.502912
 31
0.0
  0
LINE
  5
5F
100
AcDbEntity
  8
レイヤー_2
 62
     7
100
AcDbLine
 10
3.738618
 20
2.226737
 30
0.0
 11
3.738618
 21
4.015087
 31
0.0
  0
LINE
  5
5E
100
AcDbEntity
  8
レイヤー_2
 62
     7
100
AcDbLine
 10
3.738618
 20
5.098569
 30
0.0
 11
3.738618
 21
4.502912
 31
0.0
  0
LINE
  5
5D
100
AcDbEntity
  8
レイヤー_2
 62
     7
100
AcDbLine
 10
2.194526
 20
17.724155
 30
0.0
 11
2.194526
 21
14.716931
 31
0.0
  0
LINE
  5
5C
100
AcDbEntity
  8
レイヤー_2
 62
     7
100
AcDbLine
 10
2.194526
 20
14.093713
 30
0.0
 11
2.194526
 21
13.497712
 31
0.0
  0
LINE
  5
5B
100
AcDbEntity
  8
レイヤー_2
 62
     7
100
AcDbLine
 10
2.194526
 20
12.90171
 30
0.0
 11
2.194526
 21
9.894142
 31
0.0
  0
LINE
  5
5A
100
AcDbEntity
  8
レイヤー_2
 62
     7
100
AcDbLine
 10
2.194526
 20
9.298485
 30
0.0
 11
2.194526
 21
8.702139
 31
0.0
  0
LINE
  5
59
100
AcDbEntity
  8
レイヤー_2
 62
     7
100
AcDbLine
 10
2.194526
 20
8.078921
 30
0.0
 11
2.194526
 21
5.072042
 31
0.0
  0
LINE
  5
58
100
AcDbEntity
  8
レイヤー_2
 62
     7
100
AcDbLine
 10
2.194526
 20
4.475351
 30
0.0
 11
2.194526
 21
3.879694
 31
0.0
  0
LINE
  5
57
100
AcDbEntity
  8
レイヤー_2
 62
     7
100
AcDbLine
 10
2.194526
 20
3.283693
 30
0.0
 11
2.194526
 21
1.251775
 31
0.0
  0
LINE
  5
56
100
AcDbEntity
  8
レイヤー_2
 62
     7
100
AcDbLine
 10
2.194526
 20
1.251775
 30
0.0
 11
2.194526
 21
1.874993
 31
0.0
  0
LINE
  5
55
100
AcDbEntity
  8
レイヤー_2
 62
     7
100
AcDbLine
 10
-2.655135
 20
9.704662
 30
0.0
 11
0.352089
 21
9.704662
 31
0.0
  0
LINE
  5
54
100
AcDbEntity
  8
レイヤー_2
 62
     7
100
AcDbLine
 10
0.94809
 20
9.704662
 30
0.0
 11
1.544436
 21
9.704662
 31
0.0
  0
LINE
  5
53
100
AcDbEntity
  8
レイヤー_2
 62
     7
100
AcDbLine
 10
2.140093
 20
9.704662
 30
0.0
 11
5.147662
 21
9.704662
 31
0.0
  0
LINE
  5
52
100
AcDbEntity
  8
レイヤー_2
 62
     7
100
AcDbLine
 10
5.770879
 20
9.704662
 30
0.0
 11
6.366881
 21
9.704662
 31
0.0
  0
LINE
  5
51
100
AcDbEntity
  8
レイヤー_2
 62
     7
100
AcDbLine
 10
6.962882
 20
9.704662
 30
0.0
 11
9.970451
 21
9.704662
 31
0.0
  0
LINE
  5
50
100
AcDbEntity
  8
レイヤー_2
 62
     7
100
AcDbLine
 10
10.566452
 20
9.704662
 30
0.0
 11
11.162454
 21
9.704662
 31
0.0
  0
LINE
  5
4F
100
AcDbEntity
  8
レイヤー_2
 62
     7
100
AcDbLine
 10
11.785672
 20
9.704662
 30
0.0
 11
14.792896
 21
9.704662
 31
0.0
  0
LINE
  5
4E
100
AcDbEntity
  8
レイヤー_2
 62
     7
100
AcDbLine
 10
15.389242
 20
9.704662
 30
0.0
 11
15.984899
 21
9.704662
 31
0.0
  0
LINE
  5
4D
100
AcDbEntity
  8
レイヤー_2
 62
     7
100
AcDbLine
 10
16.581245
 20
9.704662
 30
0.0
 11
19.588468
 21
9.704662
 31
0.0
  0
LINE
  5
4C
100
AcDbEntity
  8
レイヤー_2
 62
     7
100
AcDbLine
 10
20.211342
 20
9.704662
 30
0.0
 11
20.808032
 21
9.704662
 31
0.0
  0
LINE
  5
4B
100
AcDbEntity
  8
レイヤー_2
 62
     7
100
AcDbLine
 10
21.105688
 20
9.704662
 30
0.0
 11
20.482471
 21
9.704662
 31
0.0
  0
LINE
  5
4A
100
AcDbEntity
  8
レイヤー_2
 62
     7
100
AcDbLine
 10
-2.628263
 20
11.601187
 30
0.0
 11
-0.379305
 21
11.601187
 31
0.0
  0
LINE
  5
49
100
AcDbEntity
  8
レイヤー_2
 62
     7
100
AcDbLine
 10
-0.379305
 20
11.601187
 30
0.0
 11
-0.975307
 21
11.601187
 31
0.0
  0
LINE
  5
48
100
AcDbEntity
  8
レイヤー_2
 62
     7
100
AcDbLine
 10
-2.628263
 20
7.835353
 30
0.0
 11
-0.379305
 21
7.835353
 31
0.0
  0
LINE
  5
47
100
AcDbEntity
  8
レイヤー_2
 62
     7
100
AcDbLine
 10
-0.379305
 20
7.835353
 30
0.0
 11
-0.975307
 21
7.835353
 31
0.0
  0
LINE
  5
46
100
AcDbEntity
  8
レイヤー_2
 62
     7
100
AcDbLine
 10
-3.60357
 20
17.236329
 30
0.0
 11
-1.083827
 21
17.236329
 31
0.0
  0
LINE
  5
45
100
AcDbEntity
  8
レイヤー_2
 62
     7
100
AcDbLine
 10
-1.083827
 20
17.236329
 30
0.0
 11
-1.680173
 21
17.236329
 31
0.0
  0
LINE
  5
44
100
AcDbEntity
  8
レイヤー_2
 62
     7
100
AcDbLine
 10
-3.901571
 20
2.199866
 30
0.0
 11
-1.381828
 21
2.199866
 31
0.0
  0
LINE
  5
43
100
AcDbEntity
  8
レイヤー_2
 62
     7
100
AcDbLine
 10
-1.381828
 20
2.199866
 30
0.0
 11
-1.977829
 21
2.199866
 31
0.0
  0
LINE
  5
42
100
AcDbEntity
  8
レイヤー_2
 62
     7
100
AcDbLine
 10
-13.27602
 20
-11.915724
 30
0.0
 11
4.389052
 21
-11.915724
 31
0.0
  0
LINE
  5
41
100
AcDbEntity
  8
レイヤー_2
 62
     7
100
AcDbLine
 10
-9.10332
 20
18.618502
 30
0.0
 11
-7.613317
 21
17.290762
 31
0.0
  0
LINE
  5
40
100
AcDbEntity
  8
レイヤー_2
 62
     7
100
AcDbLine
 10
-9.10332
 20
2.118561
 30
0.0
 11
-7.613317
 21
0.818038
 31
0.0
  0
LINE
  5
3F
100
AcDbEntity
  8
レイヤー_2
 62
     7
100
AcDbLine
 10
-8.371927
 20
18.970591
 30
0.0
 11
-8.371927
 21
0.682646
 31
0.0
  0
LINE
  5
3E
100
AcDbEntity
  8
レイヤー_2
 62
     7
100
AcDbLine
 10
-2.465655
 20
17.995284
 30
0.0
 11
-9.266273
 21
17.995284
 31
0.0
  0
LINE
  5
3D
100
AcDbEntity
  8
レイヤー_2
 62
     7
100
AcDbLine
 10
-2.465655
 20
1.441256
 30
0.0
 11
-9.157408
 21
1.441256
 31
0.0
  0
LINE
  5
3C
100
AcDbEntity
  8
レイヤー_2
 62
     7
100
AcDbLine
 10
0.65009
 20
1.739256
 30
0.0
 11
0.65009
 21
-12.674334
 31
0.0
  0
LINE
  5
3B
100
AcDbEntity
  8
レイヤー_2
 62
     7
100
AcDbLine
 10
3.79305
 20
1.739256
 30
0.0
 11
3.79305
 21
-12.836943
 31
0.0
  0
LINE
  5
3A
100
AcDbEntity
  8
レイヤー_2
 62
     7
100
AcDbLine
 10
-15.998507
 20
-11.915724
 30
0.0
 11
4.389052
 21
-11.915724
 31
0.0
  0
LINE
  5
39
100
AcDbEntity
  8
レイヤー_2
 62
     7
100
AcDbLine
 10
4.524444
 20
-11.238418
 30
0.0
 11
3.061312
 21
-12.565814
 31
0.0
  0
LINE
  5
38
100
AcDbEntity
  8
レイヤー_2
 62
     7
100
AcDbLine
 10
10.052272
 20
-32.31689
 30
0.0
 11
10.052272
 21
-6.701744
 31
0.0
  0
LINE
  5
37
100
AcDbEntity
  8
レイヤー_2
 62
     7
100
AcDbLine
 10
10.84206
 20
-31.666801
 30
0.0
 11
-21.105688
 21
-31.666801
 31
0.0
  0
LINE
  5
36
100
AcDbEntity
  8
レイヤー_2
 62
     7
100
AcDbLine
 10
1.435916
 20
-11.18433
 30
0.0
 11
-0.027216
 21
-12.484854
 31
0.0
  0
LINE
  5
35
100
AcDbEntity
  8
レイヤー_2
 62
     7
100
AcDbLine
 10
-1.570275
 20
-31.018778
 30
0.0
 11
-3.032718
 21
-32.346174
 31
0.0
  0
LINE
  5
34
100
AcDbEntity
  8
レイヤー_2
 62
     7
100
AcDbLine
 10
10.844472
 20
-30.962279
 30
0.0
 11
9.381684
 21
-32.263147
 31
0.0
  0
LINE
  5
33
100
AcDbEntity
  8
レイヤー_2
 62
     7
100
AcDbLine
 10
-2.284271
 20
-32.31689
 30
0.0
 11
-2.284271
 21
0.015675
 31
0.0
  0
LINE
  5
32
100
AcDbEntity
  8
レイヤー_2
 62
     7
100
AcDbLine
 10
4.524444
 20
-11.238418
 30
0.0
 11
3.061312
 21
-12.565814
 31
0.0
  0
LINE
  5
31
100
AcDbEntity
  8
レイヤー_2
 62
     7
100
AcDbLine
 10
1.435916
 20
-11.18433
 30
0.0
 11
-0.027216
 21
-12.484854
 31
0.0
  0
LINE
  5
30
100
AcDbEntity
  8
レイヤー_2
 62
     7
100
AcDbLine
 10
-2.465655
 20
19.349896
 30
0.0
 11
-2.465655
 21
32.408875
 31
0.0
  0
LINE
  5
2F
100
AcDbEntity
  8
レイヤー_2
 62
     7
100
AcDbLine
 10
4.903749
 20
18.564414
 30
0.0
 11
4.903749
 21
32.408875
 31
0.0
  0
LINE
  5
2E
100
AcDbEntity
  8
レイヤー_2
 62
     7
100
AcDbLine
 10
-1.761133
 20
32.191833
 30
0.0
 11
-3.224265
 21
30.864783
 31
0.0
  0
LINE
  5
2D
100
AcDbEntity
  8
レイヤー_2
 62
     7
100
AcDbLine
 10
-3.332441
 20
31.514872
 30
0.0
 11
5.96036
 21
31.514872
 31
0.0
  0
LINE
  5
2C
100
AcDbEntity
  8
レイヤー_2
 62
     7
100
AcDbLine
 10
5.635143
 20
32.191833
 30
0.0
 11
4.145139
 21
30.864783
 31
0.0
  0
ENDBLK
  5
291
100
AcDbEntity
  8
レイヤー_2
100
AcDbBlockEnd
  0
BLOCK
  5
728
100
AcDbEntity
  8
レイヤー_2
 62
     7
100
AcDbBlockBegin
  2
AI9-BLK2
 70
     0
 10
0.0
 20
0.0
 30
0.0
  3
AI9-BLK2
  1

  0
POLYLINE
  5
838
100
AcDbEntity
  8
レイヤー_2
 62
     7
100
AcDb2dPolyline
 66
     1
 10
0.0
 20
0.0
 30
0.0
  0
VERTEX
  5
839
100
AcDbEntity
  8
レイヤー_2
 62
     7
100
AcDbVertex
100
AcDb2dVertex
 10
9.618362
 20
-4.362266
 30
0.0
  0
VERTEX
  5
83A
100
AcDbEntity
  8
レイヤー_2
 62
     7
100
AcDbVertex
100
AcDb2dVertex
 10
9.509497
 20
-3.441047
 30
0.0
  0
VERTEX
  5
83B
100
AcDbEntity
  8
レイヤー_2
 62
     7
100
AcDbVertex
100
AcDb2dVertex
 10
9.130537
 20
-2.628177
 30
0.0
  0
VERTEX
  5
83C
100
AcDbEntity
  8
レイヤー_2
 62
     7
100
AcDbVertex
100
AcDb2dVertex
 10
8.642711
 20
-1.923655
 30
0.0
  0
VERTEX
  5
83D
100
AcDbEntity
  8
レイヤー_2
 62
     7
100
AcDbVertex
100
AcDb2dVertex
 10
7.938189
 20
-1.381742
 30
0.0
  0
VERTEX
  5
83E
100
AcDbEntity
  8
レイヤー_2
 62
     7
100
AcDbVertex
100
AcDb2dVertex
 10
7.504796
 20
-1.219478
 30
0.0
  0
SEQEND
  5
83F
100
AcDbEntity
  8
レイヤー_2
 62
     7
  0
POLYLINE
  5
824
100
AcDbEntity
  8
レイヤー_2
 62
     7
100
AcDb2dPolyline
 66
     1
 10
0.0
 20
0.0
 30
0.0
  0
VERTEX
  5
825
100
AcDbEntity
  8
レイヤー_2
 62
     7
100
AcDbVertex
100
AcDb2dVertex
 10
4.958181
 20
-1.219478
 30
0.0
  0
VERTEX
  5
826
100
AcDbEntity
  8
レイヤー_2
 62
     7
100
AcDbVertex
100
AcDb2dVertex
 10
4.524444
 20
-1.381742
 30
0.0
  0
VERTEX
  5
827
100
AcDbEntity
  8
レイヤー_2
 62
     7
100
AcDbVertex
100
AcDb2dVertex
 10
3.819922
 20
-1.923655
 30
0.0
  0
VERTEX
  5
828
100
AcDbEntity
  8
レイヤー_2
 62
     7
100
AcDbVertex
100
AcDb2dVertex
 10
3.278008
 20
-2.628177
 30
0.0
  0
VERTEX
  5
829
100
AcDbEntity
  8
レイヤー_2
 62
     7
100
AcDbVertex
100
AcDb2dVertex
 10
2.953136
 20
-3.441047
 30
0.0
  0
VERTEX
  5
82A
100
AcDbEntity
  8
レイヤー_2
 62
     7
100
AcDbVertex
100
AcDb2dVertex
 10
2.84496
 20
-4.362266
 30
0.0
  0
VERTEX
  5
82B
100
AcDbEntity
  8
レイヤー_2
 62
     7
100
AcDbVertex
100
AcDb2dVertex
 10
2.953136
 20
-5.229224
 30
0.0
  0
VERTEX
  5
82C
100
AcDbEntity
  8
レイヤー_2
 62
     7
100
AcDbVertex
100
AcDb2dVertex
 10
3.278008
 20
-6.041922
 30
0.0
  0
VERTEX
  5
82D
100
AcDbEntity
  8
レイヤー_2
 62
     7
100
AcDbVertex
100
AcDb2dVertex
 10
3.819922
 20
-6.746444
 30
0.0
  0
VERTEX
  5
82E
100
AcDbEntity
  8
レイヤー_2
 62
     7
100
AcDbVertex
100
AcDb2dVertex
 10
4.524444
 20
-7.288186
 30
0.0
  0
VERTEX
  5
82F
100
AcDbEntity
  8
レイヤー_2
 62
     7
100
AcDbVertex
100
AcDb2dVertex
 10
5.337486
 20
-7.61323
 30
0.0
  0
VERTEX
  5
830
100
AcDbEntity
  8
レイヤー_2
 62
     7
100
AcDbVertex
100
AcDb2dVertex
 10
6.204617
 20
-7.721579
 30
0.0
  0
VERTEX
  5
831
100
AcDbEntity
  8
レイヤー_2
 62
     7
100
AcDbVertex
100
AcDb2dVertex
 10
7.125491
 20
-7.61323
 30
0.0
  0
VERTEX
  5
832
100
AcDbEntity
  8
レイヤー_2
 62
     7
100
AcDbVertex
100
AcDb2dVertex
 10
7.938189
 20
-7.288186
 30
0.0
  0
VERTEX
  5
833
100
AcDbEntity
  8
レイヤー_2
 62
     7
100
AcDbVertex
100
AcDb2dVertex
 10
8.642711
 20
-6.746444
 30
0.0
  0
VERTEX
  5
834
100
AcDbEntity
  8
レイヤー_2
 62
     7
100
AcDbVertex
100
AcDb2dVertex
 10
9.130537
 20
-6.041922
 30
0.0
  0
VERTEX
  5
835
100
AcDbEntity
  8
レイヤー_2
 62
     7
100
AcDbVertex
100
AcDb2dVertex
 10
9.509497
 20
-5.229224
 30
0.0
  0
VERTEX
  5
836
100
AcDbEntity
  8
レイヤー_2
 62
     7
100
AcDbVertex
100
AcDb2dVertex
 10
9.618362
 20
-4.362266
 30
0.0
  0
SEQEND
  5
837
100
AcDbEntity
  8
レイヤー_2
 62
     7
  0
POLYLINE
  5
81F
100
AcDbEntity
  8
レイヤー_2
 62
     7
100
AcDb2dPolyline
 66
     1
 10
0.0
 20
0.0
 30
0.0
  0
VERTEX
  5
820
100
AcDbEntity
  8
レイヤー_2
 62
     7
100
AcDbVertex
100
AcDb2dVertex
 10
-11.297846
 20
-10.160189
 30
0.0
  0
VERTEX
  5
821
100
AcDbEntity
  8
レイヤー_2
 62
     7
100
AcDbVertex
100
AcDb2dVertex
 10
-9.022361
 20
-10.21445
 30
0.0
  0
VERTEX
  5
822
100
AcDbEntity
  8
レイヤー_2
 62
     7
100
AcDbVertex
100
AcDb2dVertex
 10
-8.967928
 20
-10.21445
 30
0.0
  0
SEQEND
  5
823
100
AcDbEntity
  8
レイヤー_2
 62
     7
  0
LINE
  5
81E
100
AcDbEntity
  8
レイヤー_2
 62
     7
100
AcDbLine
 10
-8.426015
 20
-10.21445
 30
0.0
 11
-6.366881
 21
-10.160189
 31
0.0
  0
POLYLINE
  5
819
100
AcDbEntity
  8
レイヤー_2
 62
     7
100
AcDb2dPolyline
 66
     1
 10
0.0
 20
0.0
 30
0.0
  0
VERTEX
  5
81A
100
AcDbEntity
  8
レイヤー_2
 62
     7
100
AcDbVertex
100
AcDb2dVertex
 10
-11.243758
 20
-10.160189
 30
0.0
  0
VERTEX
  5
81B
100
AcDbEntity
  8
レイヤー_2
 62
     7
100
AcDbVertex
100
AcDb2dVertex
 10
-9.022361
 20
-10.21445
 30
0.0
  0
VERTEX
  5
81C
100
AcDbEntity
  8
レイヤー_2
 62
     7
100
AcDbVertex
100
AcDb2dVertex
 10
-6.366881
 20
-10.160189
 30
0.0
  0
SEQEND
  5
81D
100
AcDbEntity
  8
レイヤー_2
 62
     7
  0
LINE
  5
818
100
AcDbEntity
  8
レイヤー_2
 62
     7
100
AcDbLine
 10
-7.017315
 20
-1.381742
 30
0.0
 11
-7.017315
 21
-0.731824
 31
0.0
  0
LINE
  5
817
100
AcDbEntity
  8
レイヤー_2
 62
     7
100
AcDbLine
 10
-10.593324
 20
-0.731824
 30
0.0
 11
-10.593324
 21
-1.381742
 31
0.0
  0
LINE
  5
816
100
AcDbEntity
  8
レイヤー_2
 62
     7
100
AcDbLine
 10
-7.125491
 20
-1.977915
 30
0.0
 11
-7.071403
 21
-1.977915
 31
0.0
  0
LINE
  5
815
100
AcDbEntity
  8
レイヤー_2
 62
     7
100
AcDbLine
 10
-10.539236
 20
-1.977915
 30
0.0
 11
-10.485148
 21
-1.977915
 31
0.0
  0
POLYLINE
  5
810
100
AcDbEntity
  8
レイヤー_2
 62
     7
100
AcDb2dPolyline
 66
     1
 10
0.0
 20
0.0
 30
0.0
  0
VERTEX
  5
811
100
AcDbEntity
  8
レイヤー_2
 62
     7
100
AcDbVertex
100
AcDb2dVertex
 10
6.583922
 20
-7.830099
 30
0.0
  0
VERTEX
  5
812
100
AcDbEntity
  8
レイヤー_2
 62
     7
100
AcDbVertex
100
AcDb2dVertex
 10
6.637665
 20
-7.830099
 30
0.0
  0
VERTEX
  5
813
100
AcDbEntity
  8
レイヤー_2
 62
     7
100
AcDbVertex
100
AcDb2dVertex
 10
6.692098
 20
-7.775839
 30
0.0
  0
SEQEND
  5
814
100
AcDbEntity
  8
レイヤー_2
 62
     7
  0
POLYLINE
  5
80B
100
AcDbEntity
  8
レイヤー_2
 62
     7
100
AcDb2dPolyline
 66
     1
 10
0.0
 20
0.0
 30
0.0
  0
VERTEX
  5
80C
100
AcDbEntity
  8
レイヤー_2
 62
     7
100
AcDbVertex
100
AcDb2dVertex
 10
5.770879
 20
-7.775839
 30
0.0
  0
VERTEX
  5
80D
100
AcDbEntity
  8
レイヤー_2
 62
     7
100
AcDbVertex
100
AcDb2dVertex
 10
5.824967
 20
-7.830099
 30
0.0
  0
VERTEX
  5
80E
100
AcDbEntity
  8
レイヤー_2
 62
     7
100
AcDbVertex
100
AcDb2dVertex
 10
5.8794
 20
-7.830099
 30
0.0
  0
SEQEND
  5
80F
100
AcDbEntity
  8
レイヤー_2
 62
     7
  0
LINE
  5
80A
100
AcDbEntity
  8
レイヤー_2
 62
     7
100
AcDbLine
 10
6.692098
 20
-7.721579
 30
0.0
 11
6.637665
 21
-7.667318
 31
0.0
  0
LINE
  5
809
100
AcDbEntity
  8
レイヤー_2
 62
     7
100
AcDbLine
 10
5.770879
 20
-7.667318
 30
0.0
 11
5.770879
 21
-7.721579
 31
0.0
  0
LINE
  5
808
100
AcDbEntity
  8
レイヤー_2
 62
     7
100
AcDbLine
 10
6.692098
 20
-7.775839
 30
0.0
 11
6.692098
 21
-7.721579
 31
0.0
  0
LINE
  5
807
100
AcDbEntity
  8
レイヤー_2
 62
     7
100
AcDbLine
 10
5.770879
 20
-7.721579
 30
0.0
 11
5.770879
 21
-7.775839
 31
0.0
  0
POLYLINE
  5
802
100
AcDbEntity
  8
レイヤー_2
 62
     7
100
AcDb2dPolyline
 66
     1
 10
0.0
 20
0.0
 30
0.0
  0
VERTEX
  5
803
100
AcDbEntity
  8
レイヤー_2
 62
     7
100
AcDbVertex
100
AcDb2dVertex
 10
5.8794
 20
-7.830099
 30
0.0
  0
VERTEX
  5
804
100
AcDbEntity
  8
レイヤー_2
 62
     7
100
AcDbVertex
100
AcDb2dVertex
 10
6.204617
 20
-7.884359
 30
0.0
  0
VERTEX
  5
805
100
AcDbEntity
  8
レイヤー_2
 62
     7
100
AcDbVertex
100
AcDb2dVertex
 10
6.583922
 20
-7.830099
 30
0.0
  0
SEQEND
  5
806
100
AcDbEntity
  8
レイヤー_2
 62
     7
  0
POLYLINE
  5
7FD
100
AcDbEntity
  8
レイヤー_2
 62
     7
100
AcDb2dPolyline
 66
     1
 10
0.0
 20
0.0
 30
0.0
  0
VERTEX
  5
7FE
100
AcDbEntity
  8
レイヤー_2
 62
     7
100
AcDbVertex
100
AcDb2dVertex
 10
-12.110544
 20
1.544178
 30
0.0
  0
VERTEX
  5
7FF
100
AcDbEntity
  8
レイヤー_2
 62
     7
100
AcDbVertex
100
AcDb2dVertex
 10
-12.273153
 20
1.489918
 30
0.0
  0
VERTEX
  5
800
100
AcDbEntity
  8
レイヤー_2
 62
     7
100
AcDbVertex
100
AcDb2dVertex
 10
-12.327241
 20
1.327481
 30
0.0
  0
SEQEND
  5
801
100
AcDbEntity
  8
レイヤー_2
 62
     7
  0
LINE
  5
7FC
100
AcDbEntity
  8
レイヤー_2
 62
     7
100
AcDbLine
 10
-11.243758
 20
1.544178
 30
0.0
 11
-12.110544
 21
1.544178
 31
0.0
  0
LINE
  5
7FB
100
AcDbEntity
  8
レイヤー_2
 62
     7
100
AcDbLine
 10
-12.327241
 20
-0.514783
 30
0.0
 11
-12.327241
 21
1.327481
 31
0.0
  0
LINE
  5
7FA
100
AcDbEntity
  8
レイヤー_2
 62
     7
100
AcDbLine
 10
-6.366881
 20
-0.731824
 30
0.0
 11
-5.500095
 21
-0.731824
 31
0.0
  0
POLYLINE
  5
7F5
100
AcDbEntity
  8
レイヤー_2
 62
     7
100
AcDb2dPolyline
 66
     1
 10
0.0
 20
0.0
 30
0.0
  0
VERTEX
  5
7F6
100
AcDbEntity
  8
レイヤー_2
 62
     7
100
AcDbVertex
100
AcDb2dVertex
 10
-5.500095
 20
-0.731824
 30
0.0
  0
VERTEX
  5
7F7
100
AcDbEntity
  8
レイヤー_2
 62
     7
100
AcDbVertex
100
AcDb2dVertex
 10
-5.337486
 20
-0.677564
 30
0.0
  0
VERTEX
  5
7F8
100
AcDbEntity
  8
レイヤー_2
 62
     7
100
AcDbVertex
100
AcDb2dVertex
 10
-5.283398
 20
-0.514783
 30
0.0
  0
SEQEND
  5
7F9
100
AcDbEntity
  8
レイヤー_2
 62
     7
  0
LINE
  5
7F4
100
AcDbEntity
  8
レイヤー_2
 62
     7
100
AcDbLine
 10
-5.283398
 20
1.327481
 30
0.0
 11
-5.283398
 21
-0.514783
 31
0.0
  0
LINE
  5
7F3
100
AcDbEntity
  8
レイヤー_2
 62
     7
100
AcDbLine
 10
-5.500095
 20
1.544178
 30
0.0
 11
-6.366881
 21
1.544178
 31
0.0
  0
POLYLINE
  5
7EE
100
AcDbEntity
  8
レイヤー_2
 62
     7
100
AcDb2dPolyline
 66
     1
 10
0.0
 20
0.0
 30
0.0
  0
VERTEX
  5
7EF
100
AcDbEntity
  8
レイヤー_2
 62
     7
100
AcDbVertex
100
AcDb2dVertex
 10
-5.283398
 20
1.327481
 30
0.0
  0
VERTEX
  5
7F0
100
AcDbEntity
  8
レイヤー_2
 62
     7
100
AcDbVertex
100
AcDb2dVertex
 10
-5.337486
 20
1.489918
 30
0.0
  0
VERTEX
  5
7F1
100
AcDbEntity
  8
レイヤー_2
 62
     7
100
AcDbVertex
100
AcDb2dVertex
 10
-5.500095
 20
1.544178
 30
0.0
  0
SEQEND
  5
7F2
100
AcDbEntity
  8
レイヤー_2
 62
     7
  0
LINE
  5
7ED
100
AcDbEntity
  8
レイヤー_2
 62
     7
100
AcDbLine
 10
-12.110544
 20
-0.731824
 30
0.0
 11
-11.243758
 21
-0.731824
 31
0.0
  0
POLYLINE
  5
7E8
100
AcDbEntity
  8
レイヤー_2
 62
     7
100
AcDb2dPolyline
 66
     1
 10
0.0
 20
0.0
 30
0.0
  0
VERTEX
  5
7E9
100
AcDbEntity
  8
レイヤー_2
 62
     7
100
AcDbVertex
100
AcDb2dVertex
 10
-12.327241
 20
-0.514783
 30
0.0
  0
VERTEX
  5
7EA
100
AcDbEntity
  8
レイヤー_2
 62
     7
100
AcDbVertex
100
AcDb2dVertex
 10
-12.273153
 20
-0.677564
 30
0.0
  0
VERTEX
  5
7EB
100
AcDbEntity
  8
レイヤー_2
 62
     7
100
AcDbVertex
100
AcDb2dVertex
 10
-12.110544
 20
-0.731824
 30
0.0
  0
SEQEND
  5
7EC
100
AcDbEntity
  8
レイヤー_2
 62
     7
  0
POLYLINE
  5
7E3
100
AcDbEntity
  8
レイヤー_2
 62
     7
100
AcDb2dPolyline
 66
     1
 10
0.0
 20
0.0
 30
0.0
  0
VERTEX
  5
7E4
100
AcDbEntity
  8
レイヤー_2
 62
     7
100
AcDbVertex
100
AcDb2dVertex
 10
-11.243758
 20
1.544178
 30
0.0
  0
VERTEX
  5
7E5
100
AcDbEntity
  8
レイヤー_2
 62
     7
100
AcDbVertex
100
AcDb2dVertex
 10
-8.80532
 20
1.598266
 30
0.0
  0
VERTEX
  5
7E6
100
AcDbEntity
  8
レイヤー_2
 62
     7
100
AcDbVertex
100
AcDb2dVertex
 10
-6.366881
 20
1.544178
 30
0.0
  0
SEQEND
  5
7E7
100
AcDbEntity
  8
レイヤー_2
 62
     7
  0
POLYLINE
  5
7DE
100
AcDbEntity
  8
レイヤー_2
 62
     7
100
AcDb2dPolyline
 66
     1
 10
0.0
 20
0.0
 30
0.0
  0
VERTEX
  5
7DF
100
AcDbEntity
  8
レイヤー_2
 62
     7
100
AcDbVertex
100
AcDb2dVertex
 10
-6.366881
 20
-0.731824
 30
0.0
  0
VERTEX
  5
7E0
100
AcDbEntity
  8
レイヤー_2
 62
     7
100
AcDbVertex
100
AcDb2dVertex
 10
-8.80532
 20
-0.785912
 30
0.0
  0
VERTEX
  5
7E1
100
AcDbEntity
  8
レイヤー_2
 62
     7
100
AcDbVertex
100
AcDb2dVertex
 10
-11.243758
 20
-0.731824
 30
0.0
  0
SEQEND
  5
7E2
100
AcDbEntity
  8
レイヤー_2
 62
     7
  0
POLYLINE
  5
7D9
100
AcDbEntity
  8
レイヤー_2
 62
     7
100
AcDb2dPolyline
 66
     1
 10
0.0
 20
0.0
 30
0.0
  0
VERTEX
  5
7DA
100
AcDbEntity
  8
レイヤー_2
 62
     7
100
AcDbVertex
100
AcDb2dVertex
 10
-5.500095
 20
1.544178
 30
0.0
  0
VERTEX
  5
7DB
100
AcDbEntity
  8
レイヤー_2
 62
     7
100
AcDbVertex
100
AcDb2dVertex
 10
-8.80532
 20
1.598266
 30
0.0
  0
VERTEX
  5
7DC
100
AcDbEntity
  8
レイヤー_2
 62
     7
100
AcDbVertex
100
AcDb2dVertex
 10
-10.810365
 20
1.544178
 30
0.0
  0
SEQEND
  5
7DD
100
AcDbEntity
  8
レイヤー_2
 62
     7
  0
LINE
  5
7D8
100
AcDbEntity
  8
レイヤー_2
 62
     7
100
AcDbLine
 10
-11.135582
 20
1.544178
 30
0.0
 11
-12.110544
 21
1.544178
 31
0.0
  0
LINE
  5
7D7
100
AcDbEntity
  8
レイヤー_2
 62
     7
100
AcDbLine
 10
-12.327241
 20
-2.30296
 30
0.0
 11
-12.327241
 21
-0.514783
 31
0.0
  0
LINE
  5
7D6
100
AcDbEntity
  8
レイヤー_2
 62
     7
100
AcDbLine
 10
-12.327241
 20
-9.022102
 30
0.0
 11
-12.327241
 21
-2.30296
 31
0.0
  0
LINE
  5
7D5
100
AcDbEntity
  8
レイヤー_2
 62
     7
100
AcDbLine
 10
-5.283398
 20
-2.30296
 30
0.0
 11
-5.283398
 21
-9.022102
 31
0.0
  0
LINE
  5
7D4
100
AcDbEntity
  8
レイヤー_2
 62
     7
100
AcDbLine
 10
-5.283398
 20
-0.514783
 30
0.0
 11
-5.283398
 21
-2.30296
 31
0.0
  0
POLYLINE
  5
7CF
100
AcDbEntity
  8
レイヤー_2
 62
     7
100
AcDb2dPolyline
 66
     1
 10
0.0
 20
0.0
 30
0.0
  0
VERTEX
  5
7D0
100
AcDbEntity
  8
レイヤー_2
 62
     7
100
AcDbVertex
100
AcDb2dVertex
 10
-12.110544
 20
1.544178
 30
0.0
  0
VERTEX
  5
7D1
100
AcDbEntity
  8
レイヤー_2
 62
     7
100
AcDbVertex
100
AcDb2dVertex
 10
-12.273153
 20
1.489918
 30
0.0
  0
VERTEX
  5
7D2
100
AcDbEntity
  8
レイヤー_2
 62
     7
100
AcDbVertex
100
AcDb2dVertex
 10
-12.327241
 20
1.327481
 30
0.0
  0
SEQEND
  5
7D3
100
AcDbEntity
  8
レイヤー_2
 62
     7
  0
LINE
  5
7CE
100
AcDbEntity
  8
レイヤー_2
 62
     7
100
AcDbLine
 10
-11.243758
 20
1.544178
 30
0.0
 11
-12.110544
 21
1.544178
 31
0.0
  0
LINE
  5
7CD
100
AcDbEntity
  8
レイヤー_2
 62
     7
100
AcDbLine
 10
-12.327241
 20
-0.514783
 30
0.0
 11
-12.327241
 21
1.327481
 31
0.0
  0
LINE
  5
7CC
100
AcDbEntity
  8
レイヤー_2
 62
     7
100
AcDbLine
 10
-5.283398
 20
1.327481
 30
0.0
 11
-5.283398
 21
-0.514783
 31
0.0
  0
LINE
  5
7CB
100
AcDbEntity
  8
レイヤー_2
 62
     7
100
AcDbLine
 10
-6.366881
 20
-0.731824
 30
0.0
 11
-5.500095
 21
-0.731824
 31
0.0
  0
POLYLINE
  5
7C6
100
AcDbEntity
  8
レイヤー_2
 62
     7
100
AcDb2dPolyline
 66
     1
 10
0.0
 20
0.0
 30
0.0
  0
VERTEX
  5
7C7
100
AcDbEntity
  8
レイヤー_2
 62
     7
100
AcDbVertex
100
AcDb2dVertex
 10
-5.500095
 20
-0.731824
 30
0.0
  0
VERTEX
  5
7C8
100
AcDbEntity
  8
レイヤー_2
 62
     7
100
AcDbVertex
100
AcDb2dVertex
 10
-5.337486
 20
-0.677564
 30
0.0
  0
VERTEX
  5
7C9
100
AcDbEntity
  8
レイヤー_2
 62
     7
100
AcDbVertex
100
AcDb2dVertex
 10
-5.283398
 20
-0.514783
 30
0.0
  0
SEQEND
  5
7CA
100
AcDbEntity
  8
レイヤー_2
 62
     7
  0
LINE
  5
7C5
100
AcDbEntity
  8
レイヤー_2
 62
     7
100
AcDbLine
 10
-5.500095
 20
1.544178
 30
0.0
 11
-6.366881
 21
1.544178
 31
0.0
  0
POLYLINE
  5
7C0
100
AcDbEntity
  8
レイヤー_2
 62
     7
100
AcDb2dPolyline
 66
     1
 10
0.0
 20
0.0
 30
0.0
  0
VERTEX
  5
7C1
100
AcDbEntity
  8
レイヤー_2
 62
     7
100
AcDbVertex
100
AcDb2dVertex
 10
-5.283398
 20
1.327481
 30
0.0
  0
VERTEX
  5
7C2
100
AcDbEntity
  8
レイヤー_2
 62
     7
100
AcDbVertex
100
AcDb2dVertex
 10
-5.337486
 20
1.489918
 30
0.0
  0
VERTEX
  5
7C3
100
AcDbEntity
  8
レイヤー_2
 62
     7
100
AcDbVertex
100
AcDb2dVertex
 10
-5.500095
 20
1.544178
 30
0.0
  0
SEQEND
  5
7C4
100
AcDbEntity
  8
レイヤー_2
 62
     7
  0
LINE
  5
7BF
100
AcDbEntity
  8
レイヤー_2
 62
     7
100
AcDbLine
 10
-12.110544
 20
-0.731824
 30
0.0
 11
-11.243758
 21
-0.731824
 31
0.0
  0
POLYLINE
  5
7BA
100
AcDbEntity
  8
レイヤー_2
 62
     7
100
AcDb2dPolyline
 66
     1
 10
0.0
 20
0.0
 30
0.0
  0
VERTEX
  5
7BB
100
AcDbEntity
  8
レイヤー_2
 62
     7
100
AcDbVertex
100
AcDb2dVertex
 10
-12.327241
 20
-0.514783
 30
0.0
  0
VERTEX
  5
7BC
100
AcDbEntity
  8
レイヤー_2
 62
     7
100
AcDbVertex
100
AcDb2dVertex
 10
-12.273153
 20
-0.677564
 30
0.0
  0
VERTEX
  5
7BD
100
AcDbEntity
  8
レイヤー_2
 62
     7
100
AcDbVertex
100
AcDb2dVertex
 10
-12.110544
 20
-0.731824
 30
0.0
  0
SEQEND
  5
7BE
100
AcDbEntity
  8
レイヤー_2
 62
     7
  0
POLYLINE
  5
7B5
100
AcDbEntity
  8
レイヤー_2
 62
     7
100
AcDb2dPolyline
 66
     1
 10
0.0
 20
0.0
 30
0.0
  0
VERTEX
  5
7B6
100
AcDbEntity
  8
レイヤー_2
 62
     7
100
AcDbVertex
100
AcDb2dVertex
 10
-11.243758
 20
1.544178
 30
0.0
  0
VERTEX
  5
7B7
100
AcDbEntity
  8
レイヤー_2
 62
     7
100
AcDbVertex
100
AcDb2dVertex
 10
-8.80532
 20
1.598266
 30
0.0
  0
VERTEX
  5
7B8
100
AcDbEntity
  8
レイヤー_2
 62
     7
100
AcDbVertex
100
AcDb2dVertex
 10
-6.366881
 20
1.544178
 30
0.0
  0
SEQEND
  5
7B9
100
AcDbEntity
  8
レイヤー_2
 62
     7
  0
POLYLINE
  5
7B0
100
AcDbEntity
  8
レイヤー_2
 62
     7
100
AcDb2dPolyline
 66
     1
 10
0.0
 20
0.0
 30
0.0
  0
VERTEX
  5
7B1
100
AcDbEntity
  8
レイヤー_2
 62
     7
100
AcDbVertex
100
AcDb2dVertex
 10
-6.366881
 20
-0.731824
 30
0.0
  0
VERTEX
  5
7B2
100
AcDbEntity
  8
レイヤー_2
 62
     7
100
AcDbVertex
100
AcDb2dVertex
 10
-8.80532
 20
-0.785912
 30
0.0
  0
VERTEX
  5
7B3
100
AcDbEntity
  8
レイヤー_2
 62
     7
100
AcDbVertex
100
AcDb2dVertex
 10
-11.243758
 20
-0.731824
 30
0.0
  0
SEQEND
  5
7B4
100
AcDbEntity
  8
レイヤー_2
 62
     7
  0
LINE
  5
7AF
100
AcDbEntity
  8
レイヤー_2
 62
     7
100
AcDbLine
 10
-5.283398
 20
-0.514783
 30
0.0
 11
-5.283398
 21
-2.30296
 31
0.0
  0
LINE
  5
7AE
100
AcDbEntity
  8
レイヤー_2
 62
     7
100
AcDbLine
 10
-12.327241
 20
-2.30296
 30
0.0
 11
-12.327241
 21
-0.514783
 31
0.0
  0
LINE
  5
7AD
100
AcDbEntity
  8
レイヤー_2
 62
     7
100
AcDbLine
 10
-5.283398
 20
-2.30296
 30
0.0
 11
-5.283398
 21
-9.022102
 31
0.0
  0
LINE
  5
7AC
100
AcDbEntity
  8
レイヤー_2
 62
     7
100
AcDbLine
 10
-12.327241
 20
-9.022102
 30
0.0
 11
-12.327241
 21
-2.30296
 31
0.0
  0
LINE
  5
7AB
100
AcDbEntity
  8
レイヤー_2
 62
     7
100
AcDbLine
 10
-10.593324
 20
-1.923655
 30
0.0
 11
-10.593324
 21
-1.381742
 31
0.0
  0
LINE
  5
7AA
100
AcDbEntity
  8
レイヤー_2
 62
     7
100
AcDbLine
 10
-7.017315
 20
-1.381742
 30
0.0
 11
-7.017315
 21
-1.923655
 31
0.0
  0
LINE
  5
7A9
100
AcDbEntity
  8
レイヤー_2
 62
     7
100
AcDbLine
 10
-7.017315
 20
-1.923655
 30
0.0
 11
-10.214364
 21
-1.923655
 31
0.0
  0
LINE
  5
7A8
100
AcDbEntity
  8
レイヤー_2
 62
     7
100
AcDbLine
 10
-10.214364
 20
-1.381742
 30
0.0
 11
-10.214364
 21
-1.923655
 31
0.0
  0
LINE
  5
7A7
100
AcDbEntity
  8
レイヤー_2
 62
     7
100
AcDbLine
 10
-10.593324
 20
-1.381742
 30
0.0
 11
-10.214364
 21
-1.381742
 31
0.0
  0
LINE
  5
7A6
100
AcDbEntity
  8
レイヤー_2
 62
     7
100
AcDbLine
 10
-7.125491
 20
-1.977915
 30
0.0
 11
-10.43106
 21
-1.977915
 31
0.0
  0
LINE
  5
7A5
100
AcDbEntity
  8
レイヤー_2
 62
     7
100
AcDbLine
 10
-10.214364
 20
-1.923655
 30
0.0
 11
-10.43106
 21
-1.977915
 31
0.0
  0
LINE
  5
7A4
100
AcDbEntity
  8
レイヤー_2
 62
     7
100
AcDbLine
 10
-7.017315
 20
-1.923655
 30
0.0
 11
-7.125491
 21
-1.923655
 31
0.0
  0
LINE
  5
7A3
100
AcDbEntity
  8
レイヤー_2
 62
     7
100
AcDbLine
 10
-10.43106
 20
-1.977915
 30
0.0
 11
-10.593324
 21
-1.923655
 31
0.0
  0
LINE
  5
7A2
100
AcDbEntity
  8
レイヤー_2
 62
     7
100
AcDbLine
 10
-10.43106
 20
-1.977915
 30
0.0
 11
-10.485148
 21
-1.977915
 31
0.0
  0
POLYLINE
  5
79C
100
AcDbEntity
  8
レイヤー_2
 62
     7
100
AcDb2dPolyline
 66
     1
 10
0.0
 20
0.0
 30
0.0
  0
VERTEX
  5
79D
100
AcDbEntity
  8
レイヤー_2
 62
     7
100
AcDbVertex
100
AcDb2dVertex
 10
1.598524
 20
1.489918
 30
0.0
  0
VERTEX
  5
79E
100
AcDbEntity
  8
レイヤー_2
 62
     7
100
AcDbVertex
100
AcDb2dVertex
 10
1.002523
 20
1.327481
 30
0.0
  0
VERTEX
  5
79F
100
AcDbEntity
  8
レイヤー_2
 62
     7
100
AcDbVertex
100
AcDb2dVertex
 10
0.568785
 20
0.893916
 30
0.0
  0
VERTEX
  5
7A0
100
AcDbEntity
  8
レイヤー_2
 62
     7
100
AcDbVertex
100
AcDb2dVertex
 10
0.406177
 20
0.352003
 30
0.0
  0
SEQEND
  5
7A1
100
AcDbEntity
  8
レイヤー_2
 62
     7
  0
LINE
  5
79B
100
AcDbEntity
  8
レイヤー_2
 62
     7
100
AcDbLine
 10
12.056456
 20
0.352003
 30
0.0
 11
12.056456
 21
-9.022102
 31
0.0
  0
LINE
  5
79A
100
AcDbEntity
  8
レイヤー_2
 62
     7
100
AcDbLine
 10
0.406177
 20
-9.022102
 30
0.0
 11
0.406177
 21
0.352003
 31
0.0
  0
LINE
  5
799
100
AcDbEntity
  8
レイヤー_2
 62
     7
100
AcDbLine
 10
1.598524
 20
1.489918
 30
0.0
 11
5.770879
 21
1.489918
 31
0.0
  0
LINE
  5
798
100
AcDbEntity
  8
レイヤー_2
 62
     7
100
AcDbLine
 10
6.692098
 20
1.489918
 30
0.0
 11
10.918541
 21
1.489918
 31
0.0
  0
POLYLINE
  5
792
100
AcDbEntity
  8
レイヤー_2
 62
     7
100
AcDb2dPolyline
 66
     1
 10
0.0
 20
0.0
 30
0.0
  0
VERTEX
  5
793
100
AcDbEntity
  8
レイヤー_2
 62
     7
100
AcDbVertex
100
AcDb2dVertex
 10
0.406177
 20
-9.022102
 30
0.0
  0
VERTEX
  5
794
100
AcDbEntity
  8
レイヤー_2
 62
     7
100
AcDbVertex
100
AcDb2dVertex
 10
0.568785
 20
-9.564016
 30
0.0
  0
VERTEX
  5
795
100
AcDbEntity
  8
レイヤー_2
 62
     7
100
AcDbVertex
100
AcDb2dVertex
 10
1.002523
 20
-9.997409
 30
0.0
  0
VERTEX
  5
796
100
AcDbEntity
  8
レイヤー_2
 62
     7
100
AcDbVertex
100
AcDb2dVertex
 10
1.598524
 20
-10.160189
 30
0.0
  0
SEQEND
  5
797
100
AcDbEntity
  8
レイヤー_2
 62
     7
  0
LINE
  5
791
100
AcDbEntity
  8
レイヤー_2
 62
     7
100
AcDbLine
 10
10.918541
 20
-10.160189
 30
0.0
 11
1.598524
 21
-10.160189
 31
0.0
  0
POLYLINE
  5
78B
100
AcDbEntity
  8
レイヤー_2
 62
     7
100
AcDb2dPolyline
 66
     1
 10
0.0
 20
0.0
 30
0.0
  0
VERTEX
  5
78C
100
AcDbEntity
  8
レイヤー_2
 62
     7
100
AcDbVertex
100
AcDb2dVertex
 10
12.056456
 20
0.352003
 30
0.0
  0
VERTEX
  5
78D
100
AcDbEntity
  8
レイヤー_2
 62
     7
100
AcDbVertex
100
AcDb2dVertex
 10
11.893848
 20
0.893916
 30
0.0
  0
VERTEX
  5
78E
100
AcDbEntity
  8
レイヤー_2
 62
     7
100
AcDbVertex
100
AcDb2dVertex
 10
11.460455
 20
1.327481
 30
0.0
  0
VERTEX
  5
78F
100
AcDbEntity
  8
レイヤー_2
 62
     7
100
AcDbVertex
100
AcDb2dVertex
 10
10.918541
 20
1.489918
 30
0.0
  0
SEQEND
  5
790
100
AcDbEntity
  8
レイヤー_2
 62
     7
  0
POLYLINE
  5
785
100
AcDbEntity
  8
レイヤー_2
 62
     7
100
AcDb2dPolyline
 66
     1
 10
0.0
 20
0.0
 30
0.0
  0
VERTEX
  5
786
100
AcDbEntity
  8
レイヤー_2
 62
     7
100
AcDbVertex
100
AcDb2dVertex
 10
10.918541
 20
-10.160189
 30
0.0
  0
VERTEX
  5
787
100
AcDbEntity
  8
レイヤー_2
 62
     7
100
AcDbVertex
100
AcDb2dVertex
 10
11.460455
 20
-9.997409
 30
0.0
  0
VERTEX
  5
788
100
AcDbEntity
  8
レイヤー_2
 62
     7
100
AcDbVertex
100
AcDb2dVertex
 10
11.893848
 20
-9.564016
 30
0.0
  0
VERTEX
  5
789
100
AcDbEntity
  8
レイヤー_2
 62
     7
100
AcDbVertex
100
AcDb2dVertex
 10
12.056456
 20
-9.022102
 30
0.0
  0
SEQEND
  5
78A
100
AcDbEntity
  8
レイヤー_2
 62
     7
  0
LINE
  5
784
100
AcDbEntity
  8
レイヤー_2
 62
     7
100
AcDbLine
 10
6.692098
 20
8.425928
 30
0.0
 11
6.692098
 21
0.026958
 31
0.0
  0
LINE
  5
783
100
AcDbEntity
  8
レイヤー_2
 62
     7
100
AcDbLine
 10
5.770879
 20
0.026958
 30
0.0
 11
5.770879
 21
8.425928
 31
0.0
  0
POLYLINE
  5
77E
100
AcDbEntity
  8
レイヤー_2
 62
     7
100
AcDb2dPolyline
 66
     1
 10
0.0
 20
0.0
 30
0.0
  0
VERTEX
  5
77F
100
AcDbEntity
  8
レイヤー_2
 62
     7
100
AcDbVertex
100
AcDb2dVertex
 10
6.204617
 20
8.859321
 30
0.0
  0
VERTEX
  5
780
100
AcDbEntity
  8
レイヤー_2
 62
     7
100
AcDbVertex
100
AcDb2dVertex
 10
5.933488
 20
8.696885
 30
0.0
  0
VERTEX
  5
781
100
AcDbEntity
  8
レイヤー_2
 62
     7
100
AcDbVertex
100
AcDb2dVertex
 10
5.770879
 20
8.425928
 30
0.0
  0
SEQEND
  5
782
100
AcDbEntity
  8
レイヤー_2
 62
     7
  0
POLYLINE
  5
779
100
AcDbEntity
  8
レイヤー_2
 62
     7
100
AcDb2dPolyline
 66
     1
 10
0.0
 20
0.0
 30
0.0
  0
VERTEX
  5
77A
100
AcDbEntity
  8
レイヤー_2
 62
     7
100
AcDbVertex
100
AcDb2dVertex
 10
6.692098
 20
8.425928
 30
0.0
  0
VERTEX
  5
77B
100
AcDbEntity
  8
レイヤー_2
 62
     7
100
AcDbVertex
100
AcDb2dVertex
 10
6.529489
 20
8.696885
 30
0.0
  0
VERTEX
  5
77C
100
AcDbEntity
  8
レイヤー_2
 62
     7
100
AcDbVertex
100
AcDb2dVertex
 10
6.204617
 20
8.859321
 30
0.0
  0
SEQEND
  5
77D
100
AcDbEntity
  8
レイヤー_2
 62
     7
  0
POLYLINE
  5
773
100
AcDbEntity
  8
レイヤー_2
 62
     7
100
AcDb2dPolyline
 66
     1
 10
0.0
 20
0.0
 30
0.0
  0
VERTEX
  5
774
100
AcDbEntity
  8
レイヤー_2
 62
     7
100
AcDbVertex
100
AcDb2dVertex
 10
6.692098
 20
0.026958
 30
0.0
  0
VERTEX
  5
775
100
AcDbEntity
  8
レイヤー_2
 62
     7
100
AcDbVertex
100
AcDb2dVertex
 10
6.854362
 20
-0.623304
 30
0.0
  0
VERTEX
  5
776
100
AcDbEntity
  8
レイヤー_2
 62
     7
100
AcDbVertex
100
AcDb2dVertex
 10
7.342187
 20
-1.111129
 30
0.0
  0
VERTEX
  5
777
100
AcDbEntity
  8
レイヤー_2
 62
     7
100
AcDbVertex
100
AcDb2dVertex
 10
7.504796
 20
-1.219478
 30
0.0
  0
SEQEND
  5
778
100
AcDbEntity
  8
レイヤー_2
 62
     7
  0
POLYLINE
  5
76D
100
AcDbEntity
  8
レイヤー_2
 62
     7
100
AcDb2dPolyline
 66
     1
 10
0.0
 20
0.0
 30
0.0
  0
VERTEX
  5
76E
100
AcDbEntity
  8
レイヤー_2
 62
     7
100
AcDbVertex
100
AcDb2dVertex
 10
4.958181
 20
-1.219478
 30
0.0
  0
VERTEX
  5
76F
100
AcDbEntity
  8
レイヤー_2
 62
     7
100
AcDbVertex
100
AcDb2dVertex
 10
5.120445
 20
-1.111129
 30
0.0
  0
VERTEX
  5
770
100
AcDbEntity
  8
レイヤー_2
 62
     7
100
AcDbVertex
100
AcDb2dVertex
 10
5.608271
 20
-0.623304
 30
0.0
  0
VERTEX
  5
771
100
AcDbEntity
  8
レイヤー_2
 62
     7
100
AcDbVertex
100
AcDb2dVertex
 10
5.770879
 20
0.026958
 30
0.0
  0
SEQEND
  5
772
100
AcDbEntity
  8
レイヤー_2
 62
     7
  0
LINE
  5
76C
100
AcDbEntity
  8
レイヤー_2
 62
     7
100
AcDbLine
 10
5.933488
 20
-7.775839
 30
0.0
 11
5.770879
 21
-7.775839
 31
0.0
  0
LINE
  5
76B
100
AcDbEntity
  8
レイヤー_2
 62
     7
100
AcDbLine
 10
6.692098
 20
-7.775839
 30
0.0
 11
5.933488
 21
-7.775839
 31
0.0
  0
POLYLINE
  5
765
100
AcDbEntity
  8
レイヤー_2
 62
     7
100
AcDb2dPolyline
 66
     1
 10
0.0
 20
0.0
 30
0.0
  0
VERTEX
  5
766
100
AcDbEntity
  8
レイヤー_2
 62
     7
100
AcDbVertex
100
AcDb2dVertex
 10
-12.327241
 20
-9.022102
 30
0.0
  0
VERTEX
  5
767
100
AcDbEntity
  8
レイヤー_2
 62
     7
100
AcDbVertex
100
AcDb2dVertex
 10
-12.164632
 20
-9.618276
 30
0.0
  0
VERTEX
  5
768
100
AcDbEntity
  8
レイヤー_2
 62
     7
100
AcDbVertex
100
AcDb2dVertex
 10
-11.731584
 20
-10.051841
 30
0.0
  0
VERTEX
  5
769
100
AcDbEntity
  8
レイヤー_2
 62
     7
100
AcDbVertex
100
AcDb2dVertex
 10
-11.18967
 20
-10.160189
 30
0.0
  0
SEQEND
  5
76A
100
AcDbEntity
  8
レイヤー_2
 62
     7
  0
POLYLINE
  5
75F
100
AcDbEntity
  8
レイヤー_2
 62
     7
100
AcDb2dPolyline
 66
     1
 10
0.0
 20
0.0
 30
0.0
  0
VERTEX
  5
760
100
AcDbEntity
  8
レイヤー_2
 62
     7
100
AcDbVertex
100
AcDb2dVertex
 10
-6.475401
 20
-10.160189
 30
0.0
  0
VERTEX
  5
761
100
AcDbEntity
  8
レイヤー_2
 62
     7
100
AcDbVertex
100
AcDb2dVertex
 10
-5.879055
 20
-9.997409
 30
0.0
  0
VERTEX
  5
762
100
AcDbEntity
  8
レイヤー_2
 62
     7
100
AcDbVertex
100
AcDb2dVertex
 10
-5.446007
 20
-9.564016
 30
0.0
  0
VERTEX
  5
763
100
AcDbEntity
  8
レイヤー_2
 62
     7
100
AcDbVertex
100
AcDb2dVertex
 10
-5.283398
 20
-9.022102
 30
0.0
  0
SEQEND
  5
764
100
AcDbEntity
  8
レイヤー_2
 62
     7
  0
LINE
  5
75E
100
AcDbEntity
  8
レイヤー_2
 62
     7
100
AcDbLine
 10
6.204617
 20
9.401235
 30
0.0
 11
6.204617
 21
6.421055
 31
0.0
  0
LINE
  5
75D
100
AcDbEntity
  8
レイヤー_2
 62
     7
100
AcDbLine
 10
6.204617
 20
5.824881
 30
0.0
 11
6.204617
 21
5.22888
 31
0.0
  0
LINE
  5
75C
100
AcDbEntity
  8
レイヤー_2
 62
     7
100
AcDbLine
 10
6.204617
 20
4.632878
 30
0.0
 11
6.204617
 21
1.598266
 31
0.0
  0
LINE
  5
75B
100
AcDbEntity
  8
レイヤー_2
 62
     7
100
AcDbLine
 10
6.204617
 20
1.002264
 30
0.0
 11
6.204617
 21
0.406263
 31
0.0
  0
LINE
  5
75A
100
AcDbEntity
  8
レイヤー_2
 62
     7
100
AcDbLine
 10
6.204617
 20
-0.189911
 30
0.0
 11
6.204617
 21
-3.224179
 31
0.0
  0
LINE
  5
759
100
AcDbEntity
  8
レイヤー_2
 62
     7
100
AcDbLine
 10
6.204617
 20
-3.820353
 30
0.0
 11
6.204617
 21
-4.416354
 31
0.0
  0
LINE
  5
758
100
AcDbEntity
  8
レイヤー_2
 62
     7
100
AcDbLine
 10
6.204617
 20
-5.012356
 30
0.0
 11
6.204617
 21
-8.046968
 31
0.0
  0
LINE
  5
757
100
AcDbEntity
  8
レイヤー_2
 62
     7
100
AcDbLine
 10
6.204617
 20
-8.642797
 30
0.0
 11
6.204617
 21
-9.238971
 31
0.0
  0
LINE
  5
756
100
AcDbEntity
  8
レイヤー_2
 62
     7
100
AcDbLine
 10
6.204617
 20
-9.835145
 30
0.0
 11
6.204617
 21
-10.918627
 31
0.0
  0
LINE
  5
755
100
AcDbEntity
  8
レイヤー_2
 62
     7
100
AcDbLine
 10
6.204617
 20
-10.918627
 30
0.0
 11
6.204617
 21
-10.322453
 31
0.0
  0
LINE
  5
754
100
AcDbEntity
  8
レイヤー_2
 62
     7
100
AcDbLine
 10
-8.750887
 20
2.248528
 30
0.0
 11
-8.750887
 21
-0.731824
 31
0.0
  0
LINE
  5
753
100
AcDbEntity
  8
レイヤー_2
 62
     7
100
AcDbLine
 10
-8.750887
 20
-1.327654
 30
0.0
 11
-8.750887
 21
-1.977915
 31
0.0
  0
LINE
  5
752
100
AcDbEntity
  8
レイヤー_2
 62
     7
100
AcDbLine
 10
-8.750887
 20
-2.574089
 30
0.0
 11
-8.750887
 21
-5.554269
 31
0.0
  0
LINE
  5
751
100
AcDbEntity
  8
レイヤー_2
 62
     7
100
AcDbLine
 10
-8.750887
 20
-6.150443
 30
0.0
 11
-8.750887
 21
-6.746444
 31
0.0
  0
LINE
  5
750
100
AcDbEntity
  8
レイヤー_2
 62
     7
100
AcDbLine
 10
-8.750887
 20
-7.342446
 30
0.0
 11
-8.750887
 21
-10.376714
 31
0.0
  0
LINE
  5
74F
100
AcDbEntity
  8
レイヤー_2
 62
     7
100
AcDbLine
 10
-8.750887
 20
-10.972888
 30
0.0
 11
-8.750887
 21
-11.460713
 31
0.0
  0
LINE
  5
74E
100
AcDbEntity
  8
レイヤー_2
 62
     7
100
AcDbLine
 10
-8.750887
 20
-11.460713
 30
0.0
 11
-8.750887
 21
-10.810279
 31
0.0
  0
LINE
  5
74D
100
AcDbEntity
  8
レイヤー_2
 62
     7
100
AcDbLine
 10
-13.682197
 20
-4.362266
 30
0.0
 11
-10.647757
 21
-4.362266
 31
0.0
  0
LINE
  5
74C
100
AcDbEntity
  8
レイヤー_2
 62
     7
100
AcDbLine
 10
-10.051755
 20
-4.362266
 30
0.0
 11
-9.455409
 21
-4.362266
 31
0.0
  0
LINE
  5
74B
100
AcDbEntity
  8
レイヤー_2
 62
     7
100
AcDbLine
 10
-8.859752
 20
-4.362266
 30
0.0
 11
-5.879055
 21
-4.362266
 31
0.0
  0
LINE
  5
74A
100
AcDbEntity
  8
レイヤー_2
 62
     7
100
AcDbLine
 10
-5.228966
 20
-4.362266
 30
0.0
 11
-4.632964
 21
-4.362266
 31
0.0
  0
LINE
  5
749
100
AcDbEntity
  8
レイヤー_2
 62
     7
100
AcDbLine
 10
-4.036963
 20
-4.362266
 30
0.0
 11
-1.056611
 21
-4.362266
 31
0.0
  0
LINE
  5
748
100
AcDbEntity
  8
レイヤー_2
 62
     7
100
AcDbLine
 10
-0.460609
 20
-4.362266
 30
0.0
 11
0.135737
 21
-4.362266
 31
0.0
  0
LINE
  5
747
100
AcDbEntity
  8
レイヤー_2
 62
     7
100
AcDbLine
 10
0.785482
 20
-4.362266
 30
0.0
 11
3.765834
 21
-4.362266
 31
0.0
  0
LINE
  5
746
100
AcDbEntity
  8
レイヤー_2
 62
     7
100
AcDbLine
 10
4.361835
 20
-4.362266
 30
0.0
 11
4.958181
 21
-4.362266
 31
0.0
  0
LINE
  5
745
100
AcDbEntity
  8
レイヤー_2
 62
     7
100
AcDbLine
 10
5.554183
 20
-4.362266
 30
0.0
 11
8.588623
 21
-4.362266
 31
0.0
  0
LINE
  5
744
100
AcDbEntity
  8
レイヤー_2
 62
     7
100
AcDbLine
 10
9.18428
 20
-4.362266
 30
0.0
 11
9.780971
 21
-4.362266
 31
0.0
  0
LINE
  5
743
100
AcDbEntity
  8
レイヤー_2
 62
     7
100
AcDbLine
 10
10.376628
 20
-4.362266
 30
0.0
 11
13.085851
 21
-4.362266
 31
0.0
  0
LINE
  5
742
100
AcDbEntity
  8
レイヤー_2
 62
     7
100
AcDbLine
 10
13.085851
 20
-4.362266
 30
0.0
 11
12.490194
 21
-4.362266
 31
0.0
  0
LINE
  5
741
100
AcDbEntity
  8
レイヤー_2
 62
     7
100
AcDbLine
 10
21.647257
 20
9.509583
 30
0.0
 11
23.110734
 21
8.209232
 31
0.0
  0
LINE
  5
740
100
AcDbEntity
  8
レイヤー_2
 62
     7
100
AcDbLine
 10
21.702035
 20
-3.711832
 30
0.0
 11
23.164822
 21
-5.012356
 31
0.0
  0
LINE
  5
73F
100
AcDbEntity
  8
レイヤー_2
 62
     7
100
AcDbLine
 10
13.573676
 20
-4.362266
 30
0.0
 11
23.327431
 21
-4.362266
 31
0.0
  0
LINE
  5
73E
100
AcDbEntity
  8
レイヤー_2
 62
     7
100
AcDbLine
 10
22.4603
 20
-5.120704
 30
0.0
 11
22.4603
 21
9.617931
 31
0.0
  0
LINE
  5
73D
100
AcDbEntity
  8
レイヤー_2
 62
     7
100
AcDbLine
 10
-8.750887
 20
2.898962
 30
0.0
 11
-8.750887
 21
27.011874
 31
0.0
  0
LINE
  5
73C
100
AcDbEntity
  8
レイヤー_2
 62
     7
100
AcDbLine
 10
6.854362
 20
26.957786
 30
0.0
 11
5.554183
 21
25.494654
 31
0.0
  0
LINE
  5
73B
100
AcDbEntity
  8
レイヤー_2
 62
     7
100
AcDbLine
 10
6.204617
 20
9.78054
 30
0.0
 11
6.204617
 21
27.066134
 31
0.0
  0
LINE
  5
73A
100
AcDbEntity
  8
レイヤー_2
 62
     7
100
AcDbLine
 10
-7.992622
 20
27.066134
 30
0.0
 11
-9.292801
 21
25.603002
 31
0.0
  0
LINE
  5
739
100
AcDbEntity
  8
レイヤー_2
 62
     7
100
AcDbLine
 10
-9.292801
 20
26.199176
 30
0.0
 11
7.071403
 21
26.199176
 31
0.0
  0
LINE
  5
738
100
AcDbEntity
  8
レイヤー_2
 62
     7
100
AcDbLine
 10
6.962882
 20
8.859321
 30
0.0
 11
23.273343
 21
8.859321
 31
0.0
  0
LINE
  5
737
100
AcDbEntity
  8
レイヤー_2
 62
     7
100
AcDbLine
 10
-4.632964
 20
-25.495171
 30
0.0
 11
-5.933488
 21
-26.958131
 31
0.0
  0
LINE
  5
736
100
AcDbEntity
  8
レイヤー_2
 62
     7
100
AcDbLine
 10
-11.677496
 20
-25.386478
 30
0.0
 11
-12.977675
 21
-26.849438
 31
0.0
  0
LINE
  5
735
100
AcDbEntity
  8
レイヤー_2
 62
     7
100
AcDbLine
 10
-13.086195
 20
-26.253609
 30
0.0
 11
-4.524444
 21
-26.253609
 31
0.0
  0
LINE
  5
734
100
AcDbEntity
  8
レイヤー_2
 62
     7
100
AcDbLine
 10
12.706546
 20
-25.495171
 30
0.0
 11
11.406367
 21
-26.958131
 31
0.0
  0
LINE
  5
733
100
AcDbEntity
  8
レイヤー_2
 62
     7
100
AcDbLine
 10
1.110699
 20
-25.386478
 30
0.0
 11
-0.18948
 21
-26.849438
 31
0.0
  0
LINE
  5
732
100
AcDbEntity
  8
レイヤー_2
 62
     7
100
AcDbLine
 10
-0.352089
 20
-26.253609
 30
0.0
 11
12.760978
 21
-26.253609
 31
0.0
  0
LINE
  5
731
100
AcDbEntity
  8
レイヤー_2
 62
     7
100
AcDbLine
 10
-12.327241
 20
-26.849438
 30
0.0
 11
-12.327241
 21
-9.835145
 31
0.0
  0
LINE
  5
730
100
AcDbEntity
  8
レイヤー_2
 62
     7
100
AcDbLine
 10
-5.283398
 20
-27.066134
 30
0.0
 11
-5.283398
 21
-9.943148
 31
0.0
  0
LINE
  5
72F
100
AcDbEntity
  8
レイヤー_2
 62
     7
100
AcDbLine
 10
0.352433
 20
-26.740917
 30
0.0
 11
0.352433
 21
-10.051841
 31
0.0
  0
LINE
  5
72E
100
AcDbEntity
  8
レイヤー_2
 62
     7
100
AcDbLine
 10
12.110889
 20
-27.066134
 30
0.0
 11
12.110889
 21
-10.051841
 31
0.0
  0
LINE
  5
72D
100
AcDbEntity
  8
レイヤー_2
 62
     7
100
AcDbLine
 10
-23.327431
 20
1.544178
 30
0.0
 11
-12.815066
 21
1.544178
 31
0.0
  0
LINE
  5
72C
100
AcDbEntity
  8
レイヤー_2
 62
     7
100
AcDbLine
 10
-23.273343
 20
-10.21445
 30
0.0
 11
-12.760978
 21
-10.21445
 31
0.0
  0
LINE
  5
72B
100
AcDbEntity
  8
レイヤー_2
 62
     7
100
AcDbLine
 10
-23.273343
 20
2.248528
 30
0.0
 11
-21.755778
 21
0.948176
 31
0.0
  0
LINE
  5
72A
100
AcDbEntity
  8
レイヤー_2
 62
     7
100
AcDbLine
 10
-23.21891
 20
-9.618276
 30
0.0
 11
-21.755778
 21
-10.918627
 31
0.0
  0
LINE
  5
729
100
AcDbEntity
  8
レイヤー_2
 62
     7
100
AcDbLine
 10
-22.4603
 20
-11.135668
 30
0.0
 11
-22.4603
 21
2.357048
 31
0.0
  0
ENDBLK
  5
840
100
AcDbEntity
  8
レイヤー_2
100
AcDbBlockEnd
  0
ENDSEC
  0
SECTION
  2
ENTITIES
  0
MTEXT
  5
9B2
100
AcDbEntity
  8
レイヤー_1
 62
     7
100
AcDbMText
 10
47.801389
 20
55.180324
 30
0.0
 40
3.674768
 41
0.0
 71
     1
 72
     2
  1
\fOsaka|b0|i0|c128;\H3.6748;\C7;\U+0033\U+0036\U+002E\U+0038\U+0031\U+0032\U+002E\U+0037\U+0031\U+0030\U+002E\U+0058\U+0058\U+0020\U+002B\U+0020\U+0033\U+0035\U+002E\U+0038\U+0030\U+0036\U+002E\U+0039\U+0037\U+0030\U+002E\U+0039\U+0030
  7
STD
210
0.0
220
0.0
230
1.0
 73
     1
 44
1.0
  0
MTEXT
  5
9B1
100
AcDbEntity
  8
レイヤー_1
 62
     7
100
AcDbMText
 10
39.6875
 20
57.666567
 30
0.0
 40
1.574901
 41
0.0
 71
     1
 72
     2
  1
\fOsaka|b0|i0|c128;\H1.5749;\C7;\U+54C1\U+756A
  7
STD
210
0.0
220
0.0
230
1.0
 73
     1
 44
1.0
  0
MTEXT
  5
9B0
100
AcDbEntity
  8
レイヤー_1
 62
     7
100
AcDbMText
 10
47.801389
 20
34.017542
 30
0.0
 40
3.149486
 41
0.0
 71
     1
 72
     2
  1
\fOsaka|b0|i0|c128;\H3.1495;\C7;\U+58C1\U+57CB\U+8FBC\U+578B\U+30B7\U+30F3\U+30B0\U+30EB\U+30EC\U+30D0\U+30FC\U+6D17\U+9762\U+7528\U+6DF7\U+5408\U+6813
  7
STD
210
0.0
220
0.0
230
1.0
 73
     1
 44
1.0
  0
MTEXT
  5
9AF
100
AcDbEntity
  8
レイヤー_1
 62
     7
100
AcDbMText
 10
39.6875
 20
36.499901
 30
0.0
 40
1.574901
 41
0.0
 71
     1
 72
     2
  1
\fOsaka|b0|i0|c128;\H1.5749;\C7;\U+54C1
  7
STD
210
0.0
220
0.0
230
1.0
 73
     1
 44
1.0
  0
MTEXT
  5
9AE
100
AcDbEntity
  8
レイヤー_1
 62
     7
100
AcDbMText
 10
47.801389
 20
44.013142
 30
0.0
 40
3.149486
 41
0.0
 71
     1
 72
     2
  1
\fOsaka|b0|i0|c128;\H3.1495;\C7;\U+FF2C\U+FF35\U+FF2C\U+FF35
  7
STD
210
0.0
220
0.0
230
1.0
 73
     1
 44
1.0
  0
MTEXT
  5
9AD
100
AcDbEntity
  8
レイヤー_1
 62
     7
100
AcDbMText
 10
111.714111
 20
161.807502
 30
0.0
 40
3.149486
 41
0.0
 71
     1
 72
     2
  1
\fOsaka|b0|i0|c128;\H3.1495;\C7;\U+57CB\U+8FBC\U+90E8\U+8A73\U+7D30
  7
STD
210
0.0
220
0.0
230
1.0
 73
     1
 44
1.0
  0
POLYLINE
  5
9A7
100
AcDbEntity
  8
レイヤー_1
 62
     7
100
AcDb2dPolyline
 66
     1
 10
0.0
 20
0.0
 30
0.0
 70
     1
  0
VERTEX
  5
9A8
100
AcDbEntity
  8
レイヤー_1
 62
     7
100
AcDbVertex
100
AcDb2dVertex
 10
23.636111
 20
27.163889
 30
0.0
  0
VERTEX
  5
9A9
100
AcDbEntity
  8
レイヤー_1
 62
     7
100
AcDbVertex
100
AcDb2dVertex
 10
198.613889
 20
27.163889
 30
0.0
  0
VERTEX
  5
9AA
100
AcDbEntity
  8
レイヤー_1
 62
     7
100
AcDbVertex
100
AcDb2dVertex
 10
198.613889
 20
276.577778
 30
0.0
  0
VERTEX
  5
9AB
100
AcDbEntity
  8
レイヤー_1
 62
     7
100
AcDbVertex
100
AcDb2dVertex
 10
23.636111
 20
276.577778
 30
0.0
  0
SEQEND
  5
9AC
100
AcDbEntity
  8
レイヤー_1
 62
     7
  0
LINE
  5
9A6
100
AcDbEntity
  8
レイヤー_1
 62
     7
100
AcDbLine
 10
170.568056
 20
37.570833
 30
0.0
 11
27.693056
 21
37.570833
 31
0.0
  0
LINE
  5
9A5
100
AcDbEntity
  8
レイヤー_1
 62
     7
100
AcDbLine
 10
170.568056
 20
48.154167
 30
0.0
 11
27.693056
 21
48.154167
 31
0.0
  0
LINE
  5
9A4
100
AcDbEntity
  8
レイヤー_1
 62
     7
100
AcDbLine
 10
23.636111
 20
58.913889
 30
0.0
 11
198.261111
 21
58.913889
 31
0.0
  0
LINE
  5
9A3
100
AcDbEntity
  8
レイヤー_1
 62
     7
100
AcDbLine
 10
170.744444
 20
58.913889
 30
0.0
 11
170.744444
 21
27.516667
 31
0.0
  0
MTEXT
  5
9A2
100
AcDbEntity
  8
レイヤー_1
 62
     7
100
AcDbMText
 10
29.104167
 20
47.083234
 30
0.0
 40
1.574901
 41
0.0
 71
     1
 72
     2
  1
\fOsaka|b0|i0|c128;\H1.5749;\C7;\U+30BB\U+30EC\U+30AF\U+30B7\U+30E7\U+30F3
  7
STD
210
0.0
220
0.0
230
1.0
 73
     1
 44
1.0
  0
MTEXT
  5
9A1
100
AcDbEntity
  8
レイヤー_1
 62
     7
100
AcDbMText
 10
174.095833
 20
55.713375
 30
0.0
 40
3.149801
 41
0.0
 71
     1
 72
     2
  1
\fHeiseiKakuGothicCAN W9|b0|i0|c128;\H3.1498;\C253;\U+5BF8\U+6CD5\U+53C2\U+8003\U+56F3
  7
STD
210
0.0
220
0.0
230
1.0
 11
0.9999
 21
0.0
 31
0.0
 73
     1
 44
1.0
  0
LINE
  5
9A0
100
AcDbEntity
  8
レイヤー_1
 62
     7
100
AcDbLine
 10
27.516667
 20
58.913889
 30
0.0
 11
27.516667
 21
27.516667
 31
0.0
  0
IMAGE
  5
99D
100
AcDbEntity
  8
レイヤー_1
 62
     7
 92
        0
100
AcDbRasterImage
 90
        0
 10
172.155556
 20
29.633016
 30
0.0
 11
0.352531
 21
0.0
 31
0.0
 12
0.0
 22
0.352813
 32
0.0
 13
70.0
 23
9.0
340
99F
 70
     7
280
     0
281
    50
282
    50
283
     0
360
99E
 71
     1
 91
        2
 14
-0.5
 24
-0.5
 14
69.5
 24
8.5
  0
IMAGE
  5
99A
100
AcDbEntity
  8
レイヤー_1
 62
     7
 92
        0
100
AcDbRasterImage
 90
        0
 10
172.155556
 20
29.633016
 30
0.0
 11
0.352531
 21
0.0
 31
0.0
 12
0.0
 22
0.352813
 32
0.0
 13
70.0
 23
9.0
340
99C
 70
     7
280
     0
281
    50
282
    50
283
     0
360
99B
 71
     1
 91
        2
 14
-0.5
 24
-0.5
 14
69.5
 24
8.5
  0
MTEXT
  5
999
100
AcDbEntity
  8
レイヤー_1
 62
     7
100
AcDbMText
 10
113.418056
 20
47.083234
 30
0.0
 40
1.574901
 41
0.0
 71
     1
 72
     2
  1
\fOsaka|b0|i0|c128;\H1.5749;\C7;\U+4ED5\U+4E0A
  7
STD
210
0.0
220
0.0
230
1.0
 73
     1
 44
1.0
  0
MTEXT
  5
998
100
AcDbEntity
  8
レイヤー_1
 62
     7
100
AcDbMText
 10
124.765511
 20
42.026497
 30
0.0
 40
1.162842
 41
0.0
 71
     1
 72
     2
  1
\fOsaka|b0|i0|c128;\H1.1628;\W2.71;\C7;
  7
STD
210
0.0
220
0.0
230
1.0
 73
     1
 44
1.0
  0
MTEXT
  5
997
100
AcDbEntity
  8
レイヤー_1
 62
     7
100
AcDbMText
 10
35.467775
 20
194.622075
 30
0.0
 40
4.092275
 41
0.0
 71
     1
 72
     2
  1
\fMS PGothic|b0|i0|c128;\H4.0923;\C7;\U+0047\U+0031\U+002F\U+0032
  7
STD
210
0.0
220
0.0
230
1.0
 73
     1
 44
1.0
  0
MTEXT
  5
996
100
AcDbEntity
  8
レイヤー_1
 62
     7
100
AcDbMText
 10
30.293586
 20
174.984169
 30
0.0
 40
4.092275
 41
0.0
 71
     1
 72
     2
  1
\fMS PGothic|b0|i0|c128;\H4.0923;\C7;\U+0035\U+0039\U+FF5E\U+0037\U+0034
  7
STD
210
0.0
220
0.0
230
1.0
 73
     1
 44
1.0
  0
MTEXT
  5
995
100
AcDbEntity
  8
レイヤー_1
 62
     7
100
AcDbMText
 10
72.354068
 20
239.072247
 30
0.0
 40
4.092275
 41
0.0
 71
     1
 72
     2
  1
\fMS PGothic|b0|i0|c128;\H4.0923;\C7;\U+0035\U+0035\U+FF5E\U+0037\U+0030
  7
STD
210
0.0
220
0.0
230
1.0
 73
     1
 44
1.0
  0
MTEXT
  5
994
100
AcDbEntity
  8
レイヤー_1
 62
     7
100
AcDbMText
 10
49.80075
 20
238.170838
 30
0.0
 40
4.092275
 41
0.0
 71
     1
 72
     2
  1
\fMS PGothic|b0|i0|c128;\H4.0923;\C7;\U+0034\U+0039
  7
STD
210
0.0
220
0.0
230
1.0
 73
     1
 44
1.0
  0
MTEXT
  5
993
100
AcDbEntity
  8
レイヤー_1
 62
     7
100
AcDbMText
 10
151.172512
 20
246.617695
 30
0.0
 40
4.092275
 41
0.0
 71
     1
 72
     2
  1
\fMS PGothic|b0|i0|c128;\H4.0923;\C7;\U+0031\U+0030\U+0030
  7
STD
210
0.0
220
0.0
230
1.0
 73
     1
 44
1.0
  0
MTEXT
  5
992
100
AcDbEntity
  8
レイヤー_1
 62
     7
100
AcDbMText
 10
145.218698
 20
193.994895
 30
0.0
 40
4.092275
 41
0.0
 71
     1
 72
     2
  1
\fMS PGothic|b0|i0|c128;\H4.0923;\C7;\U+0034\U+0037
  7
STD
210
0.0
220
0.0
230
1.0
 73
     1
 44
1.0
  0
MTEXT
  5
991
100
AcDbEntity
  8
レイヤー_1
 62
     7
100
AcDbMText
 10
151.113946
 20
149.735409
 30
0.0
 40
4.092275
 41
0.0
 71
     1
 72
     2
  1
\fMS PGothic|b0|i0|c128;\H4.0923;\C7;\U+0032\U+0030\U+0030
  7
STD
210
0.0
220
0.0
230
1.0
 73
     1
 44
1.0
  0
MTEXT
  5
990
100
AcDbEntity
  8
レイヤー_1
 62
     7
100
AcDbMText
 10
131.946468
 20
86.470364
 30
0.0
 40
4.092275
 41
0.0
 71
     1
 72
     2
  1
\fMS PGothic|b0|i0|c128;\H4.0923;\C7;\U+0031\U+0030
  7
STD
210
0.0
220
0.0
230
1.0
 73
     1
 44
1.0
  0
MTEXT
  5
98F
100
AcDbEntity
  8
レイヤー_1
 62
     7
100
AcDbMText
 10
150.996468
 20
92.820364
 30
0.0
 40
4.092275
 41
0.0
 71
     1
 72
     2
  1
\fMS PGothic|b0|i0|c128;\H4.0923;\C7;\U+0031\U+0030\U+0030
  7
STD
210
0.0
220
0.0
230
1.0
 73
     1
 44
1.0
  0
MTEXT
  5
98E
100
AcDbEntity
  8
レイヤー_1
 62
     7
100
AcDbMText
 10
150.878646
 20
86.470364
 30
0.0
 40
4.092275
 41
0.0
 71
     1
 72
     2
  1
\fMS PGothic|b0|i0|c128;\H4.0923;\C7;\U+0031\U+0031\U+0031
  7
STD
210
0.0
220
0.0
230
1.0
 73
     1
 44
1.0
  0
MTEXT
  5
98D
100
AcDbEntity
  8
レイヤー_1
 62
     7
100
AcDbMText
 10
150.290913
 20
79.532286
 30
0.0
 40
4.092275
 41
0.0
 71
     1
 72
     2
  1
\fMS PGothic|b0|i0|c128;\H4.0923;\C7;\U+0031\U+0038\U+0032
  7
STD
210
0.0
220
0.0
230
1.0
 73
     1
 44
1.0
  0
MTEXT
  5
98C
100
AcDbEntity
  8
レイヤー_1
 62
     7
100
AcDbMText
 10
152.407235
 20
143.032286
 30
0.0
 40
4.092275
 41
0.0
 71
     1
 72
     2
  1
\fMS PGothic|b0|i0|c128;\H4.0923;\C7;\U+0031\U+0036\U+0030
  7
STD
210
0.0
220
0.0
230
1.0
 73
     1
 44
1.0
  0
MTEXT
  5
98B
100
AcDbEntity
  8
レイヤー_1
 62
     7
100
AcDbMText
 10
160.050868
 20
136.917586
 30
0.0
 40
4.092275
 41
0.0
 71
     1
 72
     2
  1
\fMS PGothic|b0|i0|c128;\H4.0923;\C7;\U+0035\U+0030
  7
STD
210
0.0
220
0.0
230
1.0
 73
     1
 44
1.0
  0
MTEXT
  5
98A
100
AcDbEntity
  8
レイヤー_1
 62
     7
100
AcDbMText
 10
157.169735
 20
193.994895
 30
0.0
 40
4.092275
 41
0.0
 71
     1
 72
     2
  1
\fMS PGothic|b0|i0|c128;\H4.0923;\C7;\U+25A1\U+0037\U+0038
  7
STD
210
0.0
220
0.0
230
1.0
 73
     1
 44
1.0
  0
MTEXT
  5
989
100
AcDbEntity
  8
レイヤー_1
 62
     7
100
AcDbMText
 10
73.116984
 20
246.284554
 30
0.0
 40
4.092275
 41
0.0
 71
     1
 72
     2
  1
\fMS PGothic|b0|i0|c128;\H4.0923;\C7;\U+0032\U+0030\U+0030
  7
STD
210
0.0
220
0.0
230
1.0
 73
     1
 44
1.0
  0
MTEXT
  5
988
100
AcDbEntity
  8
レイヤー_1
 62
     7
100
AcDbMText
 10
129.274951
 20
208.314072
 30
0.0
 40
4.092275
 41
0.0
 71
     1
 72
     2
  1
\fMS PGothic|b0|i0|c128;\H4.0923;\C7;\U+0037\U+0039
  7
STD
210
0.0
220
0.0
230
1.0
 11
0.0
 21
1.0
 31
0.0
 73
     1
 44
1.0
  0
MTEXT
  5
987
100
AcDbEntity
  8
レイヤー_1
 62
     7
100
AcDbMText
 10
174.007104
 20
214.746238
 30
0.0
 40
4.092275
 41
0.0
 71
     1
 72
     2
  1
\fMS PGothic|b0|i0|c128;\H4.0923;\C7;\U+0038\U+0038
  7
STD
210
0.0
220
0.0
230
1.0
 11
0.0
 21
1.0
 31
0.0
 73
     1
 44
1.0
  0
MTEXT
  5
986
100
AcDbEntity
  8
レイヤー_1
 62
     7
100
AcDbMText
 10
125.511873
 20
111.843302
 30
0.0
 40
4.092275
 41
0.0
 71
     1
 72
     2
  1
\fMS PGothic|b0|i0|c128;\H4.0923;\C7;\U+0031\U+0030\U+0030
  7
STD
210
0.0
220
0.0
230
1.0
 11
0.0
 21
1.0
 31
0.0
 73
     1
 44
1.0
  0
MTEXT
  5
985
100
AcDbEntity
  8
レイヤー_1
 62
     7
100
AcDbMText
 10
119.151538
 20
111.629706
 30
0.0
 40
4.092275
 41
0.0
 71
     1
 72
     2
  1
\fMS PGothic|b0|i0|c128;\H4.0923;\C7;\U+0031\U+0032\U+0030
  7
STD
210
0.0
220
0.0
230
1.0
 11
0.0
 21
1.0
 31
0.0
 73
     1
 44
1.0
  0
MTEXT
  5
984
100
AcDbEntity
  8
レイヤー_1
 62
     7
100
AcDbMText
 10
176.301193
 20
111.996265
 30
0.0
 40
4.092275
 41
0.0
 71
     1
 72
     2
  1
\fMS PGothic|b0|i0|c128;\H4.0923;\C7;\U+0031\U+0030\U+0033
  7
STD
210
0.0
220
0.0
230
1.0
 11
0.0
 21
1.0
 31
0.0
 73
     1
 44
1.0
  0
MTEXT
  5
983
100
AcDbEntity
  8
レイヤー_1
 62
     7
100
AcDbMText
 10
37.592347
 20
207.014065
 30
0.0
 40
4.092275
 41
0.0
 71
     1
 72
     2
  1
\fMS PGothic|b0|i0|c128;\H4.0923;\C7;\U+0031\U+0031\U+0030
  7
STD
210
0.0
220
0.0
230
1.0
 11
0.0
 21
1.0
 31
0.0
 73
     1
 44
1.0
  0
MTEXT
  5
982
100
AcDbEntity
  8
レイヤー_1
 62
     7
100
AcDbMText
 10
103.179042
 20
207.095542
 30
0.0
 40
4.092275
 41
0.0
 71
     1
 72
     2
  1
\fMS PGothic|b0|i0|c128;\H4.0923;\C7;\U+0032\U+0033
  7
STD
210
0.0
220
0.0
230
1.0
 11
0.0
 21
1.0
 31
0.0
 73
     1
 44
1.0
  0
POLYLINE
  5
97C
100
AcDbEntity
  8
レイヤー_1
 62
     7
100
AcDb2dPolyline
 66
     1
 10
0.0
 20
0.0
 30
0.0
 70
     1
  0
VERTEX
  5
97D
100
AcDbEntity
  8
レイヤー_1
 62
     7
100
AcDbVertex
100
AcDb2dVertex
 10
136.178768
 20
156.268325
 30
0.0
  0
VERTEX
  5
97E
100
AcDbEntity
  8
レイヤー_1
 62
     7
100
AcDbVertex
100
AcDb2dVertex
 10
108.414399
 20
156.268325
 30
0.0
  0
VERTEX
  5
97F
100
AcDbEntity
  8
レイヤー_1
 62
     7
100
AcDbVertex
100
AcDb2dVertex
 10
108.414399
 20
164.107123
 30
0.0
  0
VERTEX
  5
980
100
AcDbEntity
  8
レイヤー_1
 62
     7
100
AcDbVertex
100
AcDb2dVertex
 10
136.178768
 20
164.107123
 30
0.0
  0
SEQEND
  5
981
100
AcDbEntity
  8
レイヤー_1
 62
     7
  0
POLYLINE
  5
975
100
AcDbEntity
  8
レイヤー_2
 62
     7
100
AcDb2dPolyline
 66
     1
 10
0.0
 20
0.0
 30
0.0
  0
VERTEX
  5
976
100
AcDbEntity
  8
レイヤー_2
 62
     7
100
AcDbVertex
100
AcDb2dVertex
 10
66.097085
 20
214.738831
 30
0.0
  0
VERTEX
  5
977
100
AcDbEntity
  8
レイヤー_2
 62
     7
100
AcDbVertex
100
AcDb2dVertex
 10
65.338647
 20
214.521962
 30
0.0
  0
VERTEX
  5
978
100
AcDbEntity
  8
レイヤー_2
 62
     7
100
AcDbVertex
100
AcDb2dVertex
 10
64.742129
 20
213.980221
 30
0.0
  0
VERTEX
  5
979
100
AcDbEntity
  8
レイヤー_2
 62
     7
100
AcDbVertex
100
AcDb2dVertex
 10
64.525605
 20
213.16735
 30
0.0
  0
SEQEND
  5
97A
100
AcDbEntity
  8
レイヤー_2
 62
     7
  0
LINE
  5
974
100
AcDbEntity
  8
レイヤー_2
 62
     7
100
AcDbLine
 10
93.678347
 20
214.738831
 30
0.0
 11
95.032614
 21
214.738831
 31
0.0
  0
LINE
  5
973
100
AcDbEntity
  8
レイヤー_2
 62
     7
100
AcDbLine
 10
66.097085
 20
214.738831
 30
0.0
 11
89.993473
 21
214.738831
 31
0.0
  0
LINE
  5
972
100
AcDbEntity
  8
レイヤー_2
 62
     7
100
AcDbLine
 10
64.525605
 20
205.58125
 30
0.0
 11
64.525605
 21
213.16735
 31
0.0
  0
LINE
  5
971
100
AcDbEntity
  8
レイヤー_2
 62
     7
100
AcDbLine
 10
95.032614
 20
217.123009
 30
0.0
 11
61.328556
 21
217.123009
 31
0.0
  0
POLYLINE
  5
96C
100
AcDbEntity
  8
レイヤー_2
 62
     7
100
AcDb2dPolyline
 66
     1
 10
0.0
 20
0.0
 30
0.0
  0
VERTEX
  5
96D
100
AcDbEntity
  8
レイヤー_2
 62
     7
100
AcDbVertex
100
AcDb2dVertex
 10
95.249311
 20
214.955527
 30
0.0
  0
VERTEX
  5
96E
100
AcDbEntity
  8
レイヤー_2
 62
     7
100
AcDbVertex
100
AcDb2dVertex
 10
95.303054
 20
215.931006
 30
0.0
  0
VERTEX
  5
96F
100
AcDbEntity
  8
レイヤー_2
 62
     7
100
AcDbVertex
100
AcDb2dVertex
 10
95.249311
 20
216.90614
 30
0.0
  0
SEQEND
  5
970
100
AcDbEntity
  8
レイヤー_2
 62
     7
  0
POLYLINE
  5
967
100
AcDbEntity
  8
レイヤー_2
 62
     7
100
AcDb2dPolyline
 66
     1
 10
0.0
 20
0.0
 30
0.0
  0
VERTEX
  5
968
100
AcDbEntity
  8
レイヤー_2
 62
     7
100
AcDbVertex
100
AcDb2dVertex
 10
95.249311
 20
216.90614
 30
0.0
  0
VERTEX
  5
969
100
AcDbEntity
  8
レイヤー_2
 62
     7
100
AcDbVertex
100
AcDb2dVertex
 10
95.195223
 20
217.014661
 30
0.0
  0
VERTEX
  5
96A
100
AcDbEntity
  8
レイヤー_2
 62
     7
100
AcDbVertex
100
AcDb2dVertex
 10
95.032614
 20
217.123009
 30
0.0
  0
SEQEND
  5
96B
100
AcDbEntity
  8
レイヤー_2
 62
     7
  0
POLYLINE
  5
962
100
AcDbEntity
  8
レイヤー_2
 62
     7
100
AcDb2dPolyline
 66
     1
 10
0.0
 20
0.0
 30
0.0
  0
VERTEX
  5
963
100
AcDbEntity
  8
レイヤー_2
 62
     7
100
AcDbVertex
100
AcDb2dVertex
 10
95.032614
 20
214.738831
 30
0.0
  0
VERTEX
  5
964
100
AcDbEntity
  8
レイヤー_2
 62
     7
100
AcDbVertex
100
AcDb2dVertex
 10
95.195223
 20
214.793091
 30
0.0
  0
VERTEX
  5
965
100
AcDbEntity
  8
レイヤー_2
 62
     7
100
AcDbVertex
100
AcDb2dVertex
 10
95.249311
 20
214.955527
 30
0.0
  0
SEQEND
  5
966
100
AcDbEntity
  8
レイヤー_2
 62
     7
  0
POLYLINE
  5
95D
100
AcDbEntity
  8
レイヤー_2
 62
     7
100
AcDb2dPolyline
 66
     1
 10
0.0
 20
0.0
 30
0.0
  0
VERTEX
  5
95E
100
AcDbEntity
  8
レイヤー_2
 62
     7
100
AcDbVertex
100
AcDb2dVertex
 10
64.308908
 20
205.364726
 30
0.0
  0
VERTEX
  5
95F
100
AcDbEntity
  8
レイヤー_2
 62
     7
100
AcDbVertex
100
AcDb2dVertex
 10
64.471517
 20
205.418814
 30
0.0
  0
VERTEX
  5
960
100
AcDbEntity
  8
レイヤー_2
 62
     7
100
AcDbVertex
100
AcDb2dVertex
 10
64.525605
 20
205.58125
 30
0.0
  0
SEQEND
  5
961
100
AcDbEntity
  8
レイヤー_2
 62
     7
  0
LINE
  5
95C
100
AcDbEntity
  8
レイヤー_2
 62
     7
100
AcDbLine
 10
89.993473
 20
214.738831
 30
0.0
 11
90.047217
 21
214.738831
 31
0.0
  0
LINE
  5
95B
100
AcDbEntity
  8
レイヤー_2
 62
     7
100
AcDbLine
 10
93.678347
 20
214.738831
 30
0.0
 11
93.732091
 21
214.738831
 31
0.0
  0
POLYLINE
  5
955
100
AcDbEntity
  8
レイヤー_2
 62
     7
100
AcDb2dPolyline
 66
     1
 10
0.0
 20
0.0
 30
0.0
  0
VERTEX
  5
956
100
AcDbEntity
  8
レイヤー_2
 62
     7
100
AcDbVertex
100
AcDb2dVertex
 10
66.097085
 20
214.738831
 30
0.0
  0
VERTEX
  5
957
100
AcDbEntity
  8
レイヤー_2
 62
     7
100
AcDbVertex
100
AcDb2dVertex
 10
65.338647
 20
214.521962
 30
0.0
  0
VERTEX
  5
958
100
AcDbEntity
  8
レイヤー_2
 62
     7
100
AcDbVertex
100
AcDb2dVertex
 10
64.742129
 20
213.980221
 30
0.0
  0
VERTEX
  5
959
100
AcDbEntity
  8
レイヤー_2
 62
     7
100
AcDbVertex
100
AcDb2dVertex
 10
64.525605
 20
213.16735
 30
0.0
  0
SEQEND
  5
95A
100
AcDbEntity
  8
レイヤー_2
 62
     7
  0
LINE
  5
954
100
AcDbEntity
  8
レイヤー_2
 62
     7
100
AcDbLine
 10
93.678347
 20
214.738831
 30
0.0
 11
95.032614
 21
214.738831
 31
0.0
  0
LINE
  5
953
100
AcDbEntity
  8
レイヤー_2
 62
     7
100
AcDbLine
 10
66.097085
 20
214.738831
 30
0.0
 11
89.993473
 21
214.738831
 31
0.0
  0
LINE
  5
952
100
AcDbEntity
  8
レイヤー_2
 62
     7
100
AcDbLine
 10
64.525605
 20
205.58125
 30
0.0
 11
64.525605
 21
213.16735
 31
0.0
  0
LINE
  5
951
100
AcDbEntity
  8
レイヤー_2
 62
     7
100
AcDbLine
 10
95.032614
 20
217.123009
 30
0.0
 11
61.762294
 21
217.123009
 31
0.0
  0
POLYLINE
  5
94C
100
AcDbEntity
  8
レイヤー_2
 62
     7
100
AcDb2dPolyline
 66
     1
 10
0.0
 20
0.0
 30
0.0
  0
VERTEX
  5
94D
100
AcDbEntity
  8
レイヤー_2
 62
     7
100
AcDbVertex
100
AcDb2dVertex
 10
95.249311
 20
214.955527
 30
0.0
  0
VERTEX
  5
94E
100
AcDbEntity
  8
レイヤー_2
 62
     7
100
AcDbVertex
100
AcDb2dVertex
 10
95.303054
 20
215.931006
 30
0.0
  0
VERTEX
  5
94F
100
AcDbEntity
  8
レイヤー_2
 62
     7
100
AcDbVertex
100
AcDb2dVertex
 10
95.249311
 20
216.90614
 30
0.0
  0
SEQEND
  5
950
100
AcDbEntity
  8
レイヤー_2
 62
     7
  0
POLYLINE
  5
947
100
AcDbEntity
  8
レイヤー_2
 62
     7
100
AcDb2dPolyline
 66
     1
 10
0.0
 20
0.0
 30
0.0
  0
VERTEX
  5
948
100
AcDbEntity
  8
レイヤー_2
 62
     7
100
AcDbVertex
100
AcDb2dVertex
 10
95.249311
 20
216.90614
 30
0.0
  0
VERTEX
  5
949
100
AcDbEntity
  8
レイヤー_2
 62
     7
100
AcDbVertex
100
AcDb2dVertex
 10
95.195223
 20
217.014661
 30
0.0
  0
VERTEX
  5
94A
100
AcDbEntity
  8
レイヤー_2
 62
     7
100
AcDbVertex
100
AcDb2dVertex
 10
95.032614
 20
217.123009
 30
0.0
  0
SEQEND
  5
94B
100
AcDbEntity
  8
レイヤー_2
 62
     7
  0
POLYLINE
  5
942
100
AcDbEntity
  8
レイヤー_2
 62
     7
100
AcDb2dPolyline
 66
     1
 10
0.0
 20
0.0
 30
0.0
  0
VERTEX
  5
943
100
AcDbEntity
  8
レイヤー_2
 62
     7
100
AcDbVertex
100
AcDb2dVertex
 10
95.032614
 20
214.738831
 30
0.0
  0
VERTEX
  5
944
100
AcDbEntity
  8
レイヤー_2
 62
     7
100
AcDbVertex
100
AcDb2dVertex
 10
95.195223
 20
214.793091
 30
0.0
  0
VERTEX
  5
945
100
AcDbEntity
  8
レイヤー_2
 62
     7
100
AcDbVertex
100
AcDb2dVertex
 10
95.249311
 20
214.955527
 30
0.0
  0
SEQEND
  5
946
100
AcDbEntity
  8
レイヤー_2
 62
     7
  0
POLYLINE
  5
93D
100
AcDbEntity
  8
レイヤー_2
 62
     7
100
AcDb2dPolyline
 66
     1
 10
0.0
 20
0.0
 30
0.0
  0
VERTEX
  5
93E
100
AcDbEntity
  8
レイヤー_2
 62
     7
100
AcDbVertex
100
AcDb2dVertex
 10
64.308908
 20
205.364726
 30
0.0
  0
VERTEX
  5
93F
100
AcDbEntity
  8
レイヤー_2
 62
     7
100
AcDbVertex
100
AcDb2dVertex
 10
64.471517
 20
205.418814
 30
0.0
  0
VERTEX
  5
940
100
AcDbEntity
  8
レイヤー_2
 62
     7
100
AcDbVertex
100
AcDb2dVertex
 10
64.525605
 20
205.58125
 30
0.0
  0
SEQEND
  5
941
100
AcDbEntity
  8
レイヤー_2
 62
     7
  0
LINE
  5
93C
100
AcDbEntity
  8
レイヤー_2
 62
     7
100
AcDbLine
 10
93.678347
 20
213.600916
 30
0.0
 11
93.678347
 21
214.738831
 31
0.0
  0
LINE
  5
93B
100
AcDbEntity
  8
レイヤー_2
 62
     7
100
AcDbLine
 10
90.047217
 20
214.738831
 30
0.0
 11
90.047217
 21
213.600916
 31
0.0
  0
LINE
  5
93A
100
AcDbEntity
  8
レイヤー_2
 62
     7
100
AcDbLine
 10
90.047217
 20
213.600916
 30
0.0
 11
90.209825
 21
213.546655
 31
0.0
  0
LINE
  5
939
100
AcDbEntity
  8
レイヤー_2
 62
     7
100
AcDbLine
 10
93.51505
 20
213.546655
 30
0.0
 11
93.678347
 21
213.600916
 31
0.0
  0
LINE
  5
938
100
AcDbEntity
  8
レイヤー_2
 62
     7
100
AcDbLine
 10
59.053071
 20
212.787873
 30
0.0
 11
58.131508
 21
212.787873
 31
0.0
  0
LINE
  5
937
100
AcDbEntity
  8
レイヤー_2
 62
     7
100
AcDbLine
 10
58.131508
 20
209.590824
 30
0.0
 11
59.053071
 21
209.590824
 31
0.0
  0
LINE
  5
936
100
AcDbEntity
  8
レイヤー_2
 62
     7
100
AcDbLine
 10
57.860206
 20
212.787873
 30
0.0
 11
56.993765
 21
212.787873
 31
0.0
  0
LINE
  5
935
100
AcDbEntity
  8
レイヤー_2
 62
     7
100
AcDbLine
 10
56.993765
 20
209.590824
 30
0.0
 11
57.860206
 21
209.590824
 31
0.0
  0
LINE
  5
934
100
AcDbEntity
  8
レイヤー_2
 62
     7
100
AcDbLine
 10
60.244902
 20
212.787873
 30
0.0
 11
59.323683
 21
212.787873
 31
0.0
  0
LINE
  5
933
100
AcDbEntity
  8
レイヤー_2
 62
     7
100
AcDbLine
 10
59.323683
 20
209.590824
 30
0.0
 11
60.244902
 21
209.590824
 31
0.0
  0
LINE
  5
932
100
AcDbEntity
  8
レイヤー_2
 62
     7
100
AcDbLine
 10
61.328556
 20
212.787873
 30
0.0
 11
60.570119
 21
212.787873
 31
0.0
  0
LINE
  5
931
100
AcDbEntity
  8
レイヤー_2
 62
     7
100
AcDbLine
 10
60.570119
 20
209.590824
 30
0.0
 11
61.328556
 21
209.590824
 31
0.0
  0
LINE
  5
930
100
AcDbEntity
  8
レイヤー_2
 62
     7
100
AcDbLine
 10
56.993765
 20
212.787873
 30
0.0
 11
56.777068
 21
212.571349
 31
0.0
  0
LINE
  5
92F
100
AcDbEntity
  8
レイヤー_2
 62
     7
100
AcDbLine
 10
56.777068
 20
209.807865
 30
0.0
 11
56.993765
 21
209.590824
 31
0.0
  0
POLYLINE
  5
92A
100
AcDbEntity
  8
レイヤー_2
 62
     7
100
AcDb2dPolyline
 66
     1
 10
0.0
 20
0.0
 30
0.0
  0
VERTEX
  5
92B
100
AcDbEntity
  8
レイヤー_2
 62
     7
100
AcDbVertex
100
AcDb2dVertex
 10
57.860206
 20
212.625437
 30
0.0
  0
VERTEX
  5
92C
100
AcDbEntity
  8
レイヤー_2
 62
     7
100
AcDbVertex
100
AcDb2dVertex
 10
57.860206
 20
212.571349
 30
0.0
  0
VERTEX
  5
92D
100
AcDbEntity
  8
レイヤー_2
 62
     7
100
AcDbVertex
100
AcDb2dVertex
 10
57.914811
 20
212.517261
 30
0.0
  0
SEQEND
  5
92E
100
AcDbEntity
  8
レイヤー_2
 62
     7
  0
POLYLINE
  5
925
100
AcDbEntity
  8
レイヤー_2
 62
     7
100
AcDb2dPolyline
 66
     1
 10
0.0
 20
0.0
 30
0.0
  0
VERTEX
  5
926
100
AcDbEntity
  8
レイヤー_2
 62
     7
100
AcDbVertex
100
AcDb2dVertex
 10
57.914811
 20
209.807865
 30
0.0
  0
VERTEX
  5
927
100
AcDbEntity
  8
レイヤー_2
 62
     7
100
AcDbVertex
100
AcDb2dVertex
 10
57.860206
 20
209.807865
 30
0.0
  0
VERTEX
  5
928
100
AcDbEntity
  8
レイヤー_2
 62
     7
100
AcDbVertex
100
AcDb2dVertex
 10
57.860206
 20
209.753605
 30
0.0
  0
SEQEND
  5
929
100
AcDbEntity
  8
レイヤー_2
 62
     7
  0
POLYLINE
  5
920
100
AcDbEntity
  8
レイヤー_2
 62
     7
100
AcDb2dPolyline
 66
     1
 10
0.0
 20
0.0
 30
0.0
  0
VERTEX
  5
921
100
AcDbEntity
  8
レイヤー_2
 62
     7
100
AcDbVertex
100
AcDb2dVertex
 10
58.07742
 20
212.517261
 30
0.0
  0
VERTEX
  5
922
100
AcDbEntity
  8
レイヤー_2
 62
     7
100
AcDbVertex
100
AcDb2dVertex
 10
58.131508
 20
212.571349
 30
0.0
  0
VERTEX
  5
923
100
AcDbEntity
  8
レイヤー_2
 62
     7
100
AcDbVertex
100
AcDb2dVertex
 10
58.131508
 20
212.625437
 30
0.0
  0
SEQEND
  5
924
100
AcDbEntity
  8
レイヤー_2
 62
     7
  0
POLYLINE
  5
91B
100
AcDbEntity
  8
レイヤー_2
 62
     7
100
AcDb2dPolyline
 66
     1
 10
0.0
 20
0.0
 30
0.0
  0
VERTEX
  5
91C
100
AcDbEntity
  8
レイヤー_2
 62
     7
100
AcDbVertex
100
AcDb2dVertex
 10
58.131508
 20
209.753605
 30
0.0
  0
VERTEX
  5
91D
100
AcDbEntity
  8
レイヤー_2
 62
     7
100
AcDbVertex
100
AcDb2dVertex
 10
58.131508
 20
209.807865
 30
0.0
  0
VERTEX
  5
91E
100
AcDbEntity
  8
レイヤー_2
 62
     7
100
AcDbVertex
100
AcDb2dVertex
 10
58.07742
 20
209.807865
 30
0.0
  0
SEQEND
  5
91F
100
AcDbEntity
  8
レイヤー_2
 62
     7
  0
POLYLINE
  5
916
100
AcDbEntity
  8
レイヤー_2
 62
     7
100
AcDb2dPolyline
 66
     1
 10
0.0
 20
0.0
 30
0.0
  0
VERTEX
  5
917
100
AcDbEntity
  8
レイヤー_2
 62
     7
100
AcDbVertex
100
AcDb2dVertex
 10
59.053071
 20
212.625437
 30
0.0
  0
VERTEX
  5
918
100
AcDbEntity
  8
レイヤー_2
 62
     7
100
AcDbVertex
100
AcDb2dVertex
 10
59.053071
 20
212.571349
 30
0.0
  0
VERTEX
  5
919
100
AcDbEntity
  8
レイヤー_2
 62
     7
100
AcDbVertex
100
AcDb2dVertex
 10
59.106642
 20
212.517261
 30
0.0
  0
SEQEND
  5
91A
100
AcDbEntity
  8
レイヤー_2
 62
     7
  0
POLYLINE
  5
911
100
AcDbEntity
  8
レイヤー_2
 62
     7
100
AcDb2dPolyline
 66
     1
 10
0.0
 20
0.0
 30
0.0
  0
VERTEX
  5
912
100
AcDbEntity
  8
レイヤー_2
 62
     7
100
AcDbVertex
100
AcDb2dVertex
 10
59.106642
 20
209.807865
 30
0.0
  0
VERTEX
  5
913
100
AcDbEntity
  8
レイヤー_2
 62
     7
100
AcDbVertex
100
AcDb2dVertex
 10
59.053071
 20
209.807865
 30
0.0
  0
VERTEX
  5
914
100
AcDbEntity
  8
レイヤー_2
 62
     7
100
AcDbVertex
100
AcDb2dVertex
 10
59.053071
 20
209.753605
 30
0.0
  0
SEQEND
  5
915
100
AcDbEntity
  8
レイヤー_2
 62
     7
  0
POLYLINE
  5
90C
100
AcDbEntity
  8
レイヤー_2
 62
     7
100
AcDb2dPolyline
 66
     1
 10
0.0
 20
0.0
 30
0.0
  0
VERTEX
  5
90D
100
AcDbEntity
  8
レイヤー_2
 62
     7
100
AcDbVertex
100
AcDb2dVertex
 10
60.461426
 20
212.517261
 30
0.0
  0
VERTEX
  5
90E
100
AcDbEntity
  8
レイヤー_2
 62
     7
100
AcDbVertex
100
AcDb2dVertex
 10
60.515514
 20
212.571349
 30
0.0
  0
VERTEX
  5
90F
100
AcDbEntity
  8
レイヤー_2
 62
     7
100
AcDbVertex
100
AcDb2dVertex
 10
60.570119
 20
212.625437
 30
0.0
  0
SEQEND
  5
910
100
AcDbEntity
  8
レイヤー_2
 62
     7
  0
POLYLINE
  5
907
100
AcDbEntity
  8
レイヤー_2
 62
     7
100
AcDb2dPolyline
 66
     1
 10
0.0
 20
0.0
 30
0.0
  0
VERTEX
  5
908
100
AcDbEntity
  8
レイヤー_2
 62
     7
100
AcDbVertex
100
AcDb2dVertex
 10
60.570119
 20
209.753605
 30
0.0
  0
VERTEX
  5
909
100
AcDbEntity
  8
レイヤー_2
 62
     7
100
AcDbVertex
100
AcDb2dVertex
 10
60.515514
 20
209.807865
 30
0.0
  0
VERTEX
  5
90A
100
AcDbEntity
  8
レイヤー_2
 62
     7
100
AcDbVertex
100
AcDb2dVertex
 10
60.461426
 20
209.807865
 30
0.0
  0
SEQEND
  5
90B
100
AcDbEntity
  8
レイヤー_2
 62
     7
  0
POLYLINE
  5
902
100
AcDbEntity
  8
レイヤー_2
 62
     7
100
AcDb2dPolyline
 66
     1
 10
0.0
 20
0.0
 30
0.0
  0
VERTEX
  5
903
100
AcDbEntity
  8
レイヤー_2
 62
     7
100
AcDbVertex
100
AcDb2dVertex
 10
60.244902
 20
212.625437
 30
0.0
  0
VERTEX
  5
904
100
AcDbEntity
  8
レイヤー_2
 62
     7
100
AcDbVertex
100
AcDb2dVertex
 10
60.244902
 20
212.571349
 30
0.0
  0
VERTEX
  5
905
100
AcDbEntity
  8
レイヤー_2
 62
     7
100
AcDbVertex
100
AcDb2dVertex
 10
60.298817
 20
212.517261
 30
0.0
  0
SEQEND
  5
906
100
AcDbEntity
  8
レイヤー_2
 62
     7
  0
POLYLINE
  5
8FD
100
AcDbEntity
  8
レイヤー_2
 62
     7
100
AcDb2dPolyline
 66
     1
 10
0.0
 20
0.0
 30
0.0
  0
VERTEX
  5
8FE
100
AcDbEntity
  8
レイヤー_2
 62
     7
100
AcDbVertex
100
AcDb2dVertex
 10
60.298817
 20
209.807865
 30
0.0
  0
VERTEX
  5
8FF
100
AcDbEntity
  8
レイヤー_2
 62
     7
100
AcDbVertex
100
AcDb2dVertex
 10
60.244902
 20
209.807865
 30
0.0
  0
VERTEX
  5
900
100
AcDbEntity
  8
レイヤー_2
 62
     7
100
AcDbVertex
100
AcDb2dVertex
 10
60.244902
 20
209.753605
 30
0.0
  0
SEQEND
  5
901
100
AcDbEntity
  8
レイヤー_2
 62
     7
  0
POLYLINE
  5
8F8
100
AcDbEntity
  8
レイヤー_2
 62
     7
100
AcDb2dPolyline
 66
     1
 10
0.0
 20
0.0
 30
0.0
  0
VERTEX
  5
8F9
100
AcDbEntity
  8
レイヤー_2
 62
     7
100
AcDbVertex
100
AcDb2dVertex
 10
59.26925
 20
212.517261
 30
0.0
  0
VERTEX
  5
8FA
100
AcDbEntity
  8
レイヤー_2
 62
     7
100
AcDbVertex
100
AcDb2dVertex
 10
59.323683
 20
212.571349
 30
0.0
  0
VERTEX
  5
8FB
100
AcDbEntity
  8
レイヤー_2
 62
     7
100
AcDbVertex
100
AcDb2dVertex
 10
59.323683
 20
212.625437
 30
0.0
  0
SEQEND
  5
8FC
100
AcDbEntity
  8
レイヤー_2
 62
     7
  0
POLYLINE
  5
8F3
100
AcDbEntity
  8
レイヤー_2
 62
     7
100
AcDb2dPolyline
 66
     1
 10
0.0
 20
0.0
 30
0.0
  0
VERTEX
  5
8F4
100
AcDbEntity
  8
レイヤー_2
 62
     7
100
AcDbVertex
100
AcDb2dVertex
 10
59.323683
 20
209.753605
 30
0.0
  0
VERTEX
  5
8F5
100
AcDbEntity
  8
レイヤー_2
 62
     7
100
AcDbVertex
100
AcDb2dVertex
 10
59.323683
 20
209.807865
 30
0.0
  0
VERTEX
  5
8F6
100
AcDbEntity
  8
レイヤー_2
 62
     7
100
AcDbVertex
100
AcDb2dVertex
 10
59.26925
 20
209.807865
 30
0.0
  0
SEQEND
  5
8F7
100
AcDbEntity
  8
レイヤー_2
 62
     7
  0
LINE
  5
8F2
100
AcDbEntity
  8
レイヤー_2
 62
     7
100
AcDbLine
 10
58.07742
 20
212.517261
 30
0.0
 11
57.914811
 21
212.517261
 31
0.0
  0
LINE
  5
8F1
100
AcDbEntity
  8
レイヤー_2
 62
     7
100
AcDbLine
 10
57.914811
 20
209.807865
 30
0.0
 11
58.07742
 21
209.807865
 31
0.0
  0
LINE
  5
8F0
100
AcDbEntity
  8
レイヤー_2
 62
     7
100
AcDbLine
 10
60.461426
 20
212.517261
 30
0.0
 11
60.298817
 21
212.517261
 31
0.0
  0
LINE
  5
8EF
100
AcDbEntity
  8
レイヤー_2
 62
     7
100
AcDbLine
 10
60.298817
 20
209.807865
 30
0.0
 11
60.461426
 21
209.807865
 31
0.0
  0
LINE
  5
8EE
100
AcDbEntity
  8
レイヤー_2
 62
     7
100
AcDbLine
 10
59.26925
 20
212.517261
 30
0.0
 11
59.106642
 21
212.517261
 31
0.0
  0
LINE
  5
8ED
100
AcDbEntity
  8
レイヤー_2
 62
     7
100
AcDbLine
 10
59.106642
 20
209.807865
 30
0.0
 11
59.26925
 21
209.807865
 31
0.0
  0
LINE
  5
8EC
100
AcDbEntity
  8
レイヤー_2
 62
     7
100
AcDbLine
 10
64.525605
 20
207.802648
 30
0.0
 11
65.392563
 21
207.802648
 31
0.0
  0
POLYLINE
  5
8E7
100
AcDbEntity
  8
レイヤー_2
 62
     7
100
AcDb2dPolyline
 66
     1
 10
0.0
 20
0.0
 30
0.0
  0
VERTEX
  5
8E8
100
AcDbEntity
  8
レイヤー_2
 62
     7
100
AcDbVertex
100
AcDb2dVertex
 10
65.500739
 20
214.467874
 30
0.0
  0
VERTEX
  5
8E9
100
AcDbEntity
  8
レイヤー_2
 62
     7
100
AcDbVertex
100
AcDb2dVertex
 10
65.446651
 20
214.521962
 30
0.0
  0
VERTEX
  5
8EA
100
AcDbEntity
  8
レイヤー_2
 62
     7
100
AcDbVertex
100
AcDb2dVertex
 10
65.392563
 20
214.57605
 30
0.0
  0
SEQEND
  5
8EB
100
AcDbEntity
  8
レイヤー_2
 62
     7
  0
POLYLINE
  5
8E2
100
AcDbEntity
  8
レイヤー_2
 62
     7
100
AcDb2dPolyline
 66
     1
 10
0.0
 20
0.0
 30
0.0
  0
VERTEX
  5
8E3
100
AcDbEntity
  8
レイヤー_2
 62
     7
100
AcDbVertex
100
AcDb2dVertex
 10
65.392563
 20
207.802648
 30
0.0
  0
VERTEX
  5
8E4
100
AcDbEntity
  8
レイヤー_2
 62
     7
100
AcDbVertex
100
AcDb2dVertex
 10
65.446651
 20
207.85708
 30
0.0
  0
VERTEX
  5
8E5
100
AcDbEntity
  8
レイヤー_2
 62
     7
100
AcDbVertex
100
AcDb2dVertex
 10
65.500739
 20
207.91134
 30
0.0
  0
SEQEND
  5
8E6
100
AcDbEntity
  8
レイヤー_2
 62
     7
  0
POLYLINE
  5
8DD
100
AcDbEntity
  8
レイヤー_2
 62
     7
100
AcDb2dPolyline
 66
     1
 10
0.0
 20
0.0
 30
0.0
  0
VERTEX
  5
8DE
100
AcDbEntity
  8
レイヤー_2
 62
     7
100
AcDbVertex
100
AcDb2dVertex
 10
65.500739
 20
214.142657
 30
0.0
  0
VERTEX
  5
8DF
100
AcDbEntity
  8
レイヤー_2
 62
     7
100
AcDbVertex
100
AcDb2dVertex
 10
65.555172
 20
214.034309
 30
0.0
  0
VERTEX
  5
8E0
100
AcDbEntity
  8
レイヤー_2
 62
     7
100
AcDbVertex
100
AcDb2dVertex
 10
65.663348
 20
213.980221
 30
0.0
  0
SEQEND
  5
8E1
100
AcDbEntity
  8
レイヤー_2
 62
     7
  0
POLYLINE
  5
8D8
100
AcDbEntity
  8
レイヤー_2
 62
     7
100
AcDb2dPolyline
 66
     1
 10
0.0
 20
0.0
 30
0.0
  0
VERTEX
  5
8D9
100
AcDbEntity
  8
レイヤー_2
 62
     7
100
AcDbVertex
100
AcDb2dVertex
 10
65.663348
 20
208.398994
 30
0.0
  0
VERTEX
  5
8DA
100
AcDbEntity
  8
レイヤー_2
 62
     7
100
AcDbVertex
100
AcDb2dVertex
 10
65.555172
 20
208.344733
 30
0.0
  0
VERTEX
  5
8DB
100
AcDbEntity
  8
レイヤー_2
 62
     7
100
AcDbVertex
100
AcDb2dVertex
 10
65.500739
 20
208.236213
 30
0.0
  0
SEQEND
  5
8DC
100
AcDbEntity
  8
レイヤー_2
 62
     7
  0
LINE
  5
8D7
100
AcDbEntity
  8
レイヤー_2
 62
     7
100
AcDbLine
 10
65.663348
 20
208.398994
 30
0.0
 11
65.771868
 21
208.398994
 31
0.0
  0
LINE
  5
8D6
100
AcDbEntity
  8
レイヤー_2
 62
     7
100
AcDbLine
 10
65.71778
 20
213.980221
 30
0.0
 11
65.663348
 21
213.980221
 31
0.0
  0
POLYLINE
  5
8D1
100
AcDbEntity
  8
レイヤー_2
 62
     7
100
AcDb2dPolyline
 66
     1
 10
0.0
 20
0.0
 30
0.0
  0
VERTEX
  5
8D2
100
AcDbEntity
  8
レイヤー_2
 62
     7
100
AcDbVertex
100
AcDb2dVertex
 10
65.771868
 20
208.398994
 30
0.0
  0
VERTEX
  5
8D3
100
AcDbEntity
  8
レイヤー_2
 62
     7
100
AcDbVertex
100
AcDb2dVertex
 10
66.47639
 20
208.507514
 30
0.0
  0
VERTEX
  5
8D4
100
AcDbEntity
  8
レイヤー_2
 62
     7
100
AcDbVertex
100
AcDb2dVertex
 10
66.909611
 20
208.669778
 30
0.0
  0
SEQEND
  5
8D5
100
AcDbEntity
  8
レイヤー_2
 62
     7
  0
POLYLINE
  5
8CC
100
AcDbEntity
  8
レイヤー_2
 62
     7
100
AcDb2dPolyline
 66
     1
 10
0.0
 20
0.0
 30
0.0
  0
VERTEX
  5
8CD
100
AcDbEntity
  8
レイヤー_2
 62
     7
100
AcDbVertex
100
AcDb2dVertex
 10
69.889963
 20
207.802648
 30
0.0
  0
VERTEX
  5
8CE
100
AcDbEntity
  8
レイヤー_2
 62
     7
100
AcDbVertex
100
AcDb2dVertex
 10
69.997967
 20
207.85708
 30
0.0
  0
VERTEX
  5
8CF
100
AcDbEntity
  8
レイヤー_2
 62
     7
100
AcDbVertex
100
AcDb2dVertex
 10
69.997967
 20
207.965428
 30
0.0
  0
SEQEND
  5
8D0
100
AcDbEntity
  8
レイヤー_2
 62
     7
  0
LINE
  5
8CB
100
AcDbEntity
  8
レイヤー_2
 62
     7
100
AcDbLine
 10
67.61465
 20
214.57605
 30
0.0
 11
65.71778
 21
214.57605
 31
0.0
  0
LINE
  5
8CA
100
AcDbEntity
  8
レイヤー_2
 62
     7
100
AcDbLine
 10
68.697788
 20
207.802648
 30
0.0
 11
69.889963
 21
207.802648
 31
0.0
  0
LINE
  5
8C9
100
AcDbEntity
  8
レイヤー_2
 62
     7
100
AcDbLine
 10
67.288744
 20
207.802648
 30
0.0
 11
67.830657
 21
207.802648
 31
0.0
  0
POLYLINE
  5
8C4
100
AcDbEntity
  8
レイヤー_2
 62
     7
100
AcDb2dPolyline
 66
     1
 10
0.0
 20
0.0
 30
0.0
  0
VERTEX
  5
8C5
100
AcDbEntity
  8
レイヤー_2
 62
     7
100
AcDbVertex
100
AcDb2dVertex
 10
67.61465
 20
214.57605
 30
0.0
  0
VERTEX
  5
8C6
100
AcDbEntity
  8
レイヤー_2
 62
     7
100
AcDbVertex
100
AcDb2dVertex
 10
67.722654
 20
214.63031
 30
0.0
  0
VERTEX
  5
8C7
100
AcDbEntity
  8
レイヤー_2
 62
     7
100
AcDbVertex
100
AcDb2dVertex
 10
67.776569
 20
214.738831
 30
0.0
  0
SEQEND
  5
8C8
100
AcDbEntity
  8
レイヤー_2
 62
     7
  0
POLYLINE
  5
8BF
100
AcDbEntity
  8
レイヤー_2
 62
     7
100
AcDb2dPolyline
 66
     1
 10
0.0
 20
0.0
 30
0.0
  0
VERTEX
  5
8C0
100
AcDbEntity
  8
レイヤー_2
 62
     7
100
AcDbVertex
100
AcDb2dVertex
 10
68.6437
 20
207.694644
 30
0.0
  0
VERTEX
  5
8C1
100
AcDbEntity
  8
レイヤー_2
 62
     7
100
AcDbVertex
100
AcDb2dVertex
 10
68.697788
 20
207.694644
 30
0.0
  0
VERTEX
  5
8C2
100
AcDbEntity
  8
レイヤー_2
 62
     7
100
AcDbVertex
100
AcDb2dVertex
 10
68.697788
 20
207.74856
 30
0.0
  0
SEQEND
  5
8C3
100
AcDbEntity
  8
レイヤー_2
 62
     7
  0
POLYLINE
  5
8BA
100
AcDbEntity
  8
レイヤー_2
 62
     7
100
AcDb2dPolyline
 66
     1
 10
0.0
 20
0.0
 30
0.0
  0
VERTEX
  5
8BB
100
AcDbEntity
  8
レイヤー_2
 62
     7
100
AcDbVertex
100
AcDb2dVertex
 10
67.830657
 20
207.74856
 30
0.0
  0
VERTEX
  5
8BC
100
AcDbEntity
  8
レイヤー_2
 62
     7
100
AcDbVertex
100
AcDb2dVertex
 10
67.830657
 20
207.694644
 30
0.0
  0
VERTEX
  5
8BD
100
AcDbEntity
  8
レイヤー_2
 62
     7
100
AcDbVertex
100
AcDb2dVertex
 10
67.885262
 20
207.694644
 30
0.0
  0
SEQEND
  5
8BE
100
AcDbEntity
  8
レイヤー_2
 62
     7
  0
LINE
  5
8B9
100
AcDbEntity
  8
レイヤー_2
 62
     7
100
AcDbLine
 10
68.697788
 20
207.74856
 30
0.0
 11
68.697788
 21
207.802648
 31
0.0
  0
LINE
  5
8B8
100
AcDbEntity
  8
レイヤー_2
 62
     7
100
AcDbLine
 10
67.830657
 20
207.802648
 30
0.0
 11
67.830657
 21
207.74856
 31
0.0
  0
POLYLINE
  5
8B3
100
AcDbEntity
  8
レイヤー_2
 62
     7
100
AcDb2dPolyline
 66
     1
 10
0.0
 20
0.0
 30
0.0
  0
VERTEX
  5
8B4
100
AcDbEntity
  8
レイヤー_2
 62
     7
100
AcDbVertex
100
AcDb2dVertex
 10
67.885262
 20
207.694644
 30
0.0
  0
VERTEX
  5
8B5
100
AcDbEntity
  8
レイヤー_2
 62
     7
100
AcDbVertex
100
AcDb2dVertex
 10
68.264395
 20
207.640556
 30
0.0
  0
VERTEX
  5
8B6
100
AcDbEntity
  8
レイヤー_2
 62
     7
100
AcDbVertex
100
AcDb2dVertex
 10
68.6437
 20
207.694644
 30
0.0
  0
SEQEND
  5
8B7
100
AcDbEntity
  8
レイヤー_2
 62
     7
  0
LINE
  5
8B2
100
AcDbEntity
  8
レイヤー_2
 62
     7
100
AcDbLine
 10
61.328556
 20
216.852052
 30
0.0
 11
61.328556
 21
206.502469
 31
0.0
  0
POLYLINE
  5
8AB
100
AcDbEntity
  8
レイヤー_2
 62
     7
100
AcDb2dPolyline
 66
     1
 10
0.0
 20
0.0
 30
0.0
  0
VERTEX
  5
8AC
100
AcDbEntity
  8
レイヤー_2
 62
     7
100
AcDbVertex
100
AcDb2dVertex
 10
61.328556
 20
206.502469
 30
0.0
  0
VERTEX
  5
8AD
100
AcDbEntity
  8
レイヤー_2
 62
     7
100
AcDbVertex
100
AcDb2dVertex
 10
61.328556
 20
206.068903
 30
0.0
  0
VERTEX
  5
8AE
100
AcDbEntity
  8
レイヤー_2
 62
     7
100
AcDbVertex
100
AcDb2dVertex
 10
61.328556
 20
205.743859
 30
0.0
  0
VERTEX
  5
8AF
100
AcDbEntity
  8
レイヤー_2
 62
     7
100
AcDbVertex
100
AcDb2dVertex
 10
61.328556
 20
205.472729
 30
0.0
  0
VERTEX
  5
8B0
100
AcDbEntity
  8
レイヤー_2
 62
     7
100
AcDbVertex
100
AcDb2dVertex
 10
61.328556
 20
205.418814
 30
0.0
  0
SEQEND
  5
8B1
100
AcDbEntity
  8
レイヤー_2
 62
     7
  0
LINE
  5
8AA
100
AcDbEntity
  8
レイヤー_2
 62
     7
100
AcDbLine
 10
61.328556
 20
217.068749
 30
0.0
 11
61.328556
 21
216.852052
 31
0.0
  0
LINE
  5
8A9
100
AcDbEntity
  8
レイヤー_2
 62
     7
100
AcDbLine
 10
90.047217
 20
214.738831
 30
0.0
 11
93.678347
 21
214.738831
 31
0.0
  0
LINE
  5
8A8
100
AcDbEntity
  8
レイヤー_2
 62
     7
100
AcDbLine
 10
61.328556
 20
217.123009
 30
0.0
 11
61.328556
 21
217.068749
 31
0.0
  0
POLYLINE
  5
8A1
100
AcDbEntity
  8
レイヤー_2
 62
     7
100
AcDb2dPolyline
 66
     1
 10
0.0
 20
0.0
 30
0.0
  0
VERTEX
  5
8A2
100
AcDbEntity
  8
レイヤー_2
 62
     7
100
AcDbVertex
100
AcDb2dVertex
 10
61.328556
 20
205.418814
 30
0.0
  0
VERTEX
  5
8A3
100
AcDbEntity
  8
レイヤー_2
 62
     7
100
AcDbVertex
100
AcDb2dVertex
 10
61.328556
 20
205.472729
 30
0.0
  0
VERTEX
  5
8A4
100
AcDbEntity
  8
レイヤー_2
 62
     7
100
AcDbVertex
100
AcDb2dVertex
 10
61.328556
 20
205.743859
 30
0.0
  0
VERTEX
  5
8A5
100
AcDbEntity
  8
レイヤー_2
 62
     7
100
AcDbVertex
100
AcDb2dVertex
 10
61.328556
 20
206.068903
 30
0.0
  0
VERTEX
  5
8A6
100
AcDbEntity
  8
レイヤー_2
 62
     7
100
AcDbVertex
100
AcDb2dVertex
 10
61.328556
 20
206.502469
 30
0.0
  0
SEQEND
  5
8A7
100
AcDbEntity
  8
レイヤー_2
 62
     7
  0
LINE
  5
8A0
100
AcDbEntity
  8
レイヤー_2
 62
     7
100
AcDbLine
 10
90.047217
 20
214.738831
 30
0.0
 11
89.993473
 21
214.738831
 31
0.0
  0
LINE
  5
89F
100
AcDbEntity
  8
レイヤー_2
 62
     7
100
AcDbLine
 10
93.678347
 20
214.738831
 30
0.0
 11
90.047217
 21
214.738831
 31
0.0
  0
LINE
  5
89E
100
AcDbEntity
  8
レイヤー_2
 62
     7
100
AcDbLine
 10
91.185132
 20
213.600916
 30
0.0
 11
91.185132
 21
214.142657
 31
0.0
  0
LINE
  5
89D
100
AcDbEntity
  8
レイヤー_2
 62
     7
100
AcDbLine
 10
91.185132
 20
213.600916
 30
0.0
 11
90.047217
 21
213.600916
 31
0.0
  0
LINE
  5
89C
100
AcDbEntity
  8
レイヤー_2
 62
     7
100
AcDbLine
 10
93.678347
 20
213.600916
 30
0.0
 11
92.593831
 21
213.600916
 31
0.0
  0
LINE
  5
89B
100
AcDbEntity
  8
レイヤー_2
 62
     7
100
AcDbLine
 10
92.593831
 20
214.142657
 30
0.0
 11
92.593831
 21
213.600916
 31
0.0
  0
LINE
  5
89A
100
AcDbEntity
  8
レイヤー_2
 62
     7
100
AcDbLine
 10
91.185132
 20
214.142657
 30
0.0
 11
92.593831
 21
214.142657
 31
0.0
  0
POLYLINE
  5
895
100
AcDbEntity
  8
レイヤー_2
 62
     7
100
AcDb2dPolyline
 66
     1
 10
0.0
 20
0.0
 30
0.0
  0
VERTEX
  5
896
100
AcDbEntity
  8
レイヤー_2
 62
     7
100
AcDbVertex
100
AcDb2dVertex
 10
91.889998
 20
213.546655
 30
0.0
  0
VERTEX
  5
897
100
AcDbEntity
  8
レイヤー_2
 62
     7
100
AcDbVertex
100
AcDb2dVertex
 10
91.727045
 20
213.546655
 30
0.0
  0
VERTEX
  5
898
100
AcDbEntity
  8
レイヤー_2
 62
     7
100
AcDbVertex
100
AcDb2dVertex
 10
91.185132
 20
213.600916
 30
0.0
  0
SEQEND
  5
899
100
AcDbEntity
  8
レイヤー_2
 62
     7
  0
LINE
  5
894
100
AcDbEntity
  8
レイヤー_2
 62
     7
100
AcDbLine
 10
92.269303
 20
213.546655
 30
0.0
 11
90.209825
 21
213.546655
 31
0.0
  0
LINE
  5
893
100
AcDbEntity
  8
レイヤー_2
 62
     7
100
AcDbLine
 10
92.593831
 20
213.600916
 30
0.0
 11
91.889998
 21
213.546655
 31
0.0
  0
LINE
  5
892
100
AcDbEntity
  8
レイヤー_2
 62
     7
100
AcDbLine
 10
93.51505
 20
213.546655
 30
0.0
 11
92.269303
 21
213.546655
 31
0.0
  0
LINE
  5
891
100
AcDbEntity
  8
レイヤー_2
 62
     7
100
AcDbLine
 10
59.053071
 20
210.295519
 30
0.0
 11
59.053071
 21
209.590824
 31
0.0
  0
LINE
  5
890
100
AcDbEntity
  8
レイヤー_2
 62
     7
100
AcDbLine
 10
59.053071
 20
212.787873
 30
0.0
 11
59.053071
 21
210.295519
 31
0.0
  0
LINE
  5
88F
100
AcDbEntity
  8
レイヤー_2
 62
     7
100
AcDbLine
 10
58.131508
 20
210.295519
 30
0.0
 11
58.131508
 21
209.590824
 31
0.0
  0
LINE
  5
88E
100
AcDbEntity
  8
レイヤー_2
 62
     7
100
AcDbLine
 10
58.131508
 20
212.787873
 30
0.0
 11
58.131508
 21
210.295519
 31
0.0
  0
LINE
  5
88D
100
AcDbEntity
  8
レイヤー_2
 62
     7
100
AcDbLine
 10
56.993765
 20
210.295519
 30
0.0
 11
56.993765
 21
209.590824
 31
0.0
  0
LINE
  5
88C
100
AcDbEntity
  8
レイヤー_2
 62
     7
100
AcDbLine
 10
56.993765
 20
212.787873
 30
0.0
 11
56.993765
 21
210.295519
 31
0.0
  0
LINE
  5
88B
100
AcDbEntity
  8
レイヤー_2
 62
     7
100
AcDbLine
 10
57.860206
 20
210.295519
 30
0.0
 11
57.860206
 21
209.590824
 31
0.0
  0
LINE
  5
88A
100
AcDbEntity
  8
レイヤー_2
 62
     7
100
AcDbLine
 10
57.860206
 20
212.787873
 30
0.0
 11
57.860206
 21
210.295519
 31
0.0
  0
LINE
  5
889
100
AcDbEntity
  8
レイヤー_2
 62
     7
100
AcDbLine
 10
59.323683
 20
210.295519
 30
0.0
 11
59.323683
 21
209.590824
 31
0.0
  0
LINE
  5
888
100
AcDbEntity
  8
レイヤー_2
 62
     7
100
AcDbLine
 10
59.323683
 20
212.787873
 30
0.0
 11
59.323683
 21
210.295519
 31
0.0
  0
LINE
  5
887
100
AcDbEntity
  8
レイヤー_2
 62
     7
100
AcDbLine
 10
60.244902
 20
210.295519
 30
0.0
 11
60.244902
 21
209.590824
 31
0.0
  0
LINE
  5
886
100
AcDbEntity
  8
レイヤー_2
 62
     7
100
AcDbLine
 10
60.244902
 20
212.787873
 30
0.0
 11
60.244902
 21
210.295519
 31
0.0
  0
LINE
  5
885
100
AcDbEntity
  8
レイヤー_2
 62
     7
100
AcDbLine
 10
60.570119
 20
210.295519
 30
0.0
 11
60.570119
 21
209.590824
 31
0.0
  0
LINE
  5
884
100
AcDbEntity
  8
レイヤー_2
 62
     7
100
AcDbLine
 10
60.570119
 20
212.787873
 30
0.0
 11
60.570119
 21
210.295519
 31
0.0
  0
LINE
  5
883
100
AcDbEntity
  8
レイヤー_2
 62
     7
100
AcDbLine
 10
56.777068
 20
210.403867
 30
0.0
 11
56.777068
 21
209.807865
 31
0.0
  0
LINE
  5
882
100
AcDbEntity
  8
レイヤー_2
 62
     7
100
AcDbLine
 10
56.777068
 20
212.571349
 30
0.0
 11
56.777068
 21
210.403867
 31
0.0
  0
LINE
  5
881
100
AcDbEntity
  8
レイヤー_2
 62
     7
100
AcDbLine
 10
65.500739
 20
214.467874
 30
0.0
 11
65.500739
 21
207.91134
 31
0.0
  0
LINE
  5
880
100
AcDbEntity
  8
レイヤー_2
 62
     7
100
AcDbLine
 10
69.997967
 20
214.196745
 30
0.0
 11
69.997967
 21
207.965428
 31
0.0
  0
LINE
  5
87F
100
AcDbEntity
  8
レイヤー_2
 62
     7
100
AcDbLine
 10
67.288744
 20
207.802648
 30
0.0
 11
65.71778
 21
211.162477
 31
0.0
  0
LINE
  5
87E
100
AcDbEntity
  8
レイヤー_2
 62
     7
100
AcDbLine
 10
65.71778
 20
211.162477
 30
0.0
 11
65.71778
 21
214.57605
 31
0.0
  0
LINE
  5
87D
100
AcDbEntity
  8
レイヤー_2
 62
     7
100
AcDbLine
 10
69.997967
 20
214.738831
 30
0.0
 11
69.997967
 21
214.196745
 31
0.0
  0
LINE
  5
87C
100
AcDbEntity
  8
レイヤー_2
 62
     7
100
AcDbLine
 10
67.776569
 20
214.68457
 30
0.0
 11
67.776569
 21
214.738831
 31
0.0
  0
POLYLINE
  5
877
100
AcDbEntity
  8
レイヤー_2
 62
     7
100
AcDb2dPolyline
 66
     1
 10
0.0
 20
0.0
 30
0.0
  0
VERTEX
  5
878
100
AcDbEntity
  8
レイヤー_2
 62
     7
100
AcDbVertex
100
AcDb2dVertex
 10
69.997967
 20
224.221456
 30
0.0
  0
VERTEX
  5
879
100
AcDbEntity
  8
レイヤー_2
 62
     7
100
AcDbVertex
100
AcDb2dVertex
 10
69.997967
 20
224.329804
 30
0.0
  0
VERTEX
  5
87A
100
AcDbEntity
  8
レイヤー_2
 62
     7
100
AcDbVertex
100
AcDb2dVertex
 10
69.889963
 20
224.383892
 30
0.0
  0
SEQEND
  5
87B
100
AcDbEntity
  8
レイヤー_2
 62
     7
  0
LINE
  5
876
100
AcDbEntity
  8
レイヤー_2
 62
     7
100
AcDbLine
 10
69.997967
 20
224.221456
 30
0.0
 11
69.997967
 21
223.950499
 31
0.0
  0
LINE
  5
875
100
AcDbEntity
  8
レイヤー_2
 62
     7
100
AcDbLine
 10
67.885262
 20
224.383892
 30
0.0
 11
69.889963
 21
224.383892
 31
0.0
  0
POLYLINE
  5
870
100
AcDbEntity
  8
レイヤー_2
 62
     7
100
AcDb2dPolyline
 66
     1
 10
0.0
 20
0.0
 30
0.0
  0
VERTEX
  5
871
100
AcDbEntity
  8
レイヤー_2
 62
     7
100
AcDbVertex
100
AcDb2dVertex
 10
67.885262
 20
224.383892
 30
0.0
  0
VERTEX
  5
872
100
AcDbEntity
  8
レイヤー_2
 62
     7
100
AcDbVertex
100
AcDb2dVertex
 10
67.776569
 20
224.329804
 30
0.0
  0
VERTEX
  5
873
100
AcDbEntity
  8
レイヤー_2
 62
     7
100
AcDbVertex
100
AcDb2dVertex
 10
67.776569
 20
224.275716
 30
0.0
  0
SEQEND
  5
874
100
AcDbEntity
  8
レイヤー_2
 62
     7
  0
LINE
  5
86F
100
AcDbEntity
  8
レイヤー_2
 62
     7
100
AcDbLine
 10
67.776569
 20
223.950499
 30
0.0
 11
67.776569
 21
224.275716
 31
0.0
  0
LINE
  5
86E
100
AcDbEntity
  8
レイヤー_2
 62
     7
100
AcDbLine
 10
69.997967
 20
223.950499
 30
0.0
 11
69.997967
 21
217.123009
 31
0.0
  0
LINE
  5
86D
100
AcDbEntity
  8
レイヤー_2
 62
     7
100
AcDbLine
 10
67.776569
 20
217.123009
 30
0.0
 11
67.776569
 21
223.950499
 31
0.0
  0
LINE
  5
86C
100
AcDbEntity
  8
レイヤー_2
 62
     7
100
AcDbLine
 10
68.589095
 20
207.74856
 30
0.0
 11
67.830657
 21
207.74856
 31
0.0
  0
LINE
  5
86B
100
AcDbEntity
  8
レイヤー_2
 62
     7
100
AcDbLine
 10
68.697788
 20
207.74856
 30
0.0
 11
68.589095
 21
207.74856
 31
0.0
  0
POLYLINE
  5
861
100
AcDbEntity
  8
レイヤー_2
 62
     7
100
AcDb2dPolyline
 66
     1
 10
0.0
 20
0.0
 30
0.0
  0
VERTEX
  5
862
100
AcDbEntity
  8
レイヤー_2
 62
     7
100
AcDbVertex
100
AcDb2dVertex
 10
61.328556
 20
205.418814
 30
0.0
  0
VERTEX
  5
863
100
AcDbEntity
  8
レイヤー_2
 62
     7
100
AcDbVertex
100
AcDb2dVertex
 10
61.382472
 20
205.418814
 30
0.0
  0
VERTEX
  5
864
100
AcDbEntity
  8
レイヤー_2
 62
     7
100
AcDbVertex
100
AcDb2dVertex
 10
61.491165
 20
205.364726
 30
0.0
  0
VERTEX
  5
865
100
AcDbEntity
  8
レイヤー_2
 62
     7
100
AcDbVertex
100
AcDb2dVertex
 10
62.141599
 20
205.364726
 30
0.0
  0
VERTEX
  5
866
100
AcDbEntity
  8
レイヤー_2
 62
     7
100
AcDbVertex
100
AcDb2dVertex
 10
62.303691
 20
205.310465
 30
0.0
  0
VERTEX
  5
867
100
AcDbEntity
  8
レイヤー_2
 62
     7
100
AcDbVertex
100
AcDb2dVertex
 10
64.038296
 20
205.310465
 30
0.0
  0
VERTEX
  5
868
100
AcDbEntity
  8
レイヤー_2
 62
     7
100
AcDbVertex
100
AcDb2dVertex
 10
64.200388
 20
205.364726
 30
0.0
  0
VERTEX
  5
869
100
AcDbEntity
  8
レイヤー_2
 62
     7
100
AcDbVertex
100
AcDb2dVertex
 10
64.308908
 20
205.364726
 30
0.0
  0
SEQEND
  5
86A
100
AcDbEntity
  8
レイヤー_2
 62
     7
  0
LINE
  5
860
100
AcDbEntity
  8
レイヤー_2
 62
     7
100
AcDbLine
 10
56.777068
 20
212.517261
 30
0.0
 11
61.328556
 21
212.517261
 31
0.0
  0
LINE
  5
85F
100
AcDbEntity
  8
レイヤー_2
 62
     7
100
AcDbLine
 10
56.777068
 20
209.862126
 30
0.0
 11
61.328556
 21
209.862126
 31
0.0
  0
LINE
  5
85E
100
AcDbEntity
  8
レイヤー_2
 62
     7
100
AcDbLine
 10
55.801417
 20
211.216737
 30
0.0
 11
58.835857
 21
211.216737
 31
0.0
  0
LINE
  5
85D
100
AcDbEntity
  8
レイヤー_2
 62
     7
100
AcDbLine
 10
59.432376
 20
211.216737
 30
0.0
 11
60.027688
 21
211.216737
 31
0.0
  0
LINE
  5
85C
100
AcDbEntity
  8
レイヤー_2
 62
     7
100
AcDbLine
 10
60.624034
 20
211.216737
 30
0.0
 11
63.658474
 21
211.216737
 31
0.0
  0
LINE
  5
85B
100
AcDbEntity
  8
レイヤー_2
 62
     7
100
AcDbLine
 10
64.254304
 20
211.216737
 30
0.0
 11
64.850822
 21
211.216737
 31
0.0
  0
LINE
  5
85A
100
AcDbEntity
  8
レイヤー_2
 62
     7
100
AcDbLine
 10
65.446651
 20
211.216737
 30
0.0
 11
68.427003
 21
211.216737
 31
0.0
  0
LINE
  5
859
100
AcDbEntity
  8
レイヤー_2
 62
     7
100
AcDbLine
 10
69.076921
 20
211.216737
 30
0.0
 11
69.673439
 21
211.216737
 31
0.0
  0
LINE
  5
858
100
AcDbEntity
  8
レイヤー_2
 62
     7
100
AcDbLine
 10
70.269268
 20
211.216737
 30
0.0
 11
71.027706
 21
211.216737
 31
0.0
  0
LINE
  5
857
100
AcDbEntity
  8
レイヤー_2
 62
     7
100
AcDbLine
 10
71.027706
 20
211.216737
 30
0.0
 11
70.431877
 21
211.216737
 31
0.0
  0
LINE
  5
856
100
AcDbEntity
  8
レイヤー_2
 62
     7
100
AcDbLine
 10
91.944086
 20
215.659877
 30
0.0
 11
91.944086
 21
212.733785
 31
0.0
  0
LINE
  5
855
100
AcDbEntity
  8
レイヤー_2
 62
     7
100
AcDbLine
 10
91.944086
 20
212.733785
 30
0.0
 11
91.944086
 21
213.329959
 31
0.0
  0
LINE
  5
854
100
AcDbEntity
  8
レイヤー_2
 62
     7
100
AcDbLine
 10
61.328556
 20
242.048964
 30
0.0
 11
61.328556
 21
227.472765
 31
0.0
  0
LINE
  5
853
100
AcDbEntity
  8
レイヤー_2
 62
     7
100
AcDbLine
 10
91.944086
 20
241.994531
 30
0.0
 11
91.944086
 21
217.448226
 31
0.0
  0
LINE
  5
852
100
AcDbEntity
  8
レイヤー_2
 62
     7
100
AcDbLine
 10
61.328556
 20
241.181833
 30
0.0
 11
60.678122
 21
240.423223
 31
0.0
  0
LINE
  5
851
100
AcDbEntity
  8
レイヤー_2
 62
     7
100
AcDbLine
 10
61.97899
 20
241.886355
 30
0.0
 11
61.328556
 21
241.181833
 31
0.0
  0
LINE
  5
850
100
AcDbEntity
  8
レイヤー_2
 62
     7
100
AcDbLine
 10
91.944086
 20
241.181833
 30
0.0
 11
91.293652
 21
240.423223
 31
0.0
  0
LINE
  5
84F
100
AcDbEntity
  8
レイヤー_2
 62
     7
100
AcDbLine
 10
92.593831
 20
241.886355
 30
0.0
 11
91.944086
 21
241.181833
 31
0.0
  0
LINE
  5
84E
100
AcDbEntity
  8
レイヤー_2
 62
     7
100
AcDbLine
 10
60.570119
 20
241.181833
 30
0.0
 11
92.377479
 21
241.181833
 31
0.0
  0
LINE
  5
84D
100
AcDbEntity
  8
レイヤー_2
 62
     7
100
AcDbLine
 10
94.165484
 20
213.546655
 30
0.0
 11
109.0669
 21
213.546655
 31
0.0
  0
LINE
  5
84C
100
AcDbEntity
  8
レイヤー_2
 62
     7
100
AcDbLine
 10
108.416466
 20
217.935707
 30
0.0
 11
108.416466
 21
206.990122
 31
0.0
  0
LINE
  5
84B
100
AcDbEntity
  8
レイヤー_2
 62
     7
100
AcDbLine
 10
69.997967
 20
225.088414
 30
0.0
 11
69.997967
 21
235.004605
 31
0.0
  0
LINE
  5
84A
100
AcDbEntity
  8
レイヤー_2
 62
     7
100
AcDbLine
 10
69.997967
 20
234.191734
 30
0.0
 11
69.348222
 21
233.433124
 31
0.0
  0
LINE
  5
849
100
AcDbEntity
  8
レイヤー_2
 62
     7
100
AcDbLine
 10
70.648401
 20
234.950517
 30
0.0
 11
69.997967
 21
234.191734
 31
0.0
  0
LINE
  5
848
100
AcDbEntity
  8
レイヤー_2
 62
     7
100
AcDbLine
 10
96.008266
 20
217.123009
 30
0.0
 11
109.0669
 21
217.123009
 31
0.0
  0
LINE
  5
847
100
AcDbEntity
  8
レイヤー_2
 62
     7
100
AcDbLine
 10
60.559439
 20
234.191734
 30
0.0
 11
88.9
 21
234.191734
 31
0.0
  0
LINE
  5
846
100
AcDbEntity
  8
レイヤー_2
 62
     7
100
AcDbLine
 10
61.328556
 20
234.191734
 30
0.0
 11
60.678122
 21
233.433124
 31
0.0
  0
LINE
  5
845
100
AcDbEntity
  8
レイヤー_2
 62
     7
100
AcDbLine
 10
61.97899
 20
234.950517
 30
0.0
 11
61.328556
 21
234.191734
 31
0.0
  0
LINE
  5
844
100
AcDbEntity
  8
レイヤー_2
 62
     7
100
AcDbLine
 10
108.416466
 20
217.123009
 30
0.0
 11
109.175765
 21
216.418659
 31
0.0
  0
LINE
  5
843
100
AcDbEntity
  8
レイヤー_2
 62
     7
100
AcDbLine
 10
107.712288
 20
217.773271
 30
0.0
 11
108.416466
 21
217.123009
 31
0.0
  0
LINE
  5
842
100
AcDbEntity
  8
レイヤー_2
 62
     7
100
AcDbLine
 10
108.416466
 20
213.546655
 30
0.0
 11
109.175765
 21
212.896566
 31
0.0
  0
LINE
  5
841
100
AcDbEntity
  8
レイヤー_2
 62
     7
100
AcDbLine
 10
107.712288
 20
214.196745
 30
0.0
 11
108.416466
 21
213.546655
 31
0.0
  0
INSERT
  5
727
100
AcDbEntity
  8
レイヤー_2
 62
     7
100
AcDbBlockReference
  2
AI9-BLK2
 10
156.598538
 20
215.307874
 30
0.0
  0
LINE
  5
725
100
AcDbEntity
  8
レイヤー_2
 62
     7
100
AcDbLine
 10
61.328556
 20
226.659722
 30
0.0
 11
61.328556
 21
195.773408
 31
0.0
  0
LINE
  5
724
100
AcDbEntity
  8
レイヤー_2
 62
     7
100
AcDbLine
 10
164.916376
 20
108.608013
 30
0.0
 11
164.916376
 21
110.396362
 31
0.0
  0
LINE
  5
723
100
AcDbEntity
  8
レイヤー_2
 62
     7
100
AcDbLine
 10
164.916376
 20
111.479845
 30
0.0
 11
164.916376
 21
110.884188
 31
0.0
  0
LINE
  5
722
100
AcDbEntity
  8
レイヤー_2
 62
     7
100
AcDbLine
 10
168.032121
 20
108.608013
 30
0.0
 11
168.032121
 21
110.396362
 31
0.0
  0
LINE
  5
721
100
AcDbEntity
  8
レイヤー_2
 62
     7
100
AcDbLine
 10
168.032121
 20
111.479845
 30
0.0
 11
168.032121
 21
110.884188
 31
0.0
  0
LINE
  5
720
100
AcDbEntity
  8
レイヤー_2
 62
     7
100
AcDbLine
 10
161.01515
 20
120.637598
 30
0.0
 11
161.01515
 21
123.80743
 31
0.0
  0
LINE
  5
71F
100
AcDbEntity
  8
レイヤー_2
 62
     7
100
AcDbLine
 10
156.950971
 20
123.80743
 30
0.0
 11
156.950971
 21
120.718902
 31
0.0
  0
POLYLINE
  5
719
100
AcDbEntity
  8
レイヤー_2
 62
     7
100
AcDb2dPolyline
 66
     1
 10
0.0
 20
0.0
 30
0.0
  0
VERTEX
  5
71A
100
AcDbEntity
  8
レイヤー_2
 62
     7
100
AcDbVertex
100
AcDb2dVertex
 10
161.01515
 20
123.80743
 30
0.0
  0
VERTEX
  5
71B
100
AcDbEntity
  8
レイヤー_2
 62
     7
100
AcDbVertex
100
AcDb2dVertex
 10
160.960718
 20
123.942822
 30
0.0
  0
VERTEX
  5
71C
100
AcDbEntity
  8
レイヤー_2
 62
     7
100
AcDbVertex
100
AcDb2dVertex
 10
160.852542
 20
124.051343
 30
0.0
  0
VERTEX
  5
71D
100
AcDbEntity
  8
レイヤー_2
 62
     7
100
AcDbVertex
100
AcDb2dVertex
 10
160.689933
 20
124.105431
 30
0.0
  0
SEQEND
  5
71E
100
AcDbEntity
  8
レイヤー_2
 62
     7
  0
POLYLINE
  5
713
100
AcDbEntity
  8
レイヤー_2
 62
     7
100
AcDb2dPolyline
 66
     1
 10
0.0
 20
0.0
 30
0.0
  0
VERTEX
  5
714
100
AcDbEntity
  8
レイヤー_2
 62
     7
100
AcDbVertex
100
AcDb2dVertex
 10
157.248972
 20
124.105431
 30
0.0
  0
VERTEX
  5
715
100
AcDbEntity
  8
レイヤー_2
 62
     7
100
AcDbVertex
100
AcDb2dVertex
 10
157.086363
 20
124.051343
 30
0.0
  0
VERTEX
  5
716
100
AcDbEntity
  8
レイヤー_2
 62
     7
100
AcDbVertex
100
AcDb2dVertex
 10
156.978187
 20
123.942822
 30
0.0
  0
VERTEX
  5
717
100
AcDbEntity
  8
レイヤー_2
 62
     7
100
AcDbVertex
100
AcDb2dVertex
 10
156.950971
 20
123.80743
 30
0.0
  0
SEQEND
  5
718
100
AcDbEntity
  8
レイヤー_2
 62
     7
  0
POLYLINE
  5
70E
100
AcDbEntity
  8
レイヤー_2
 62
     7
100
AcDb2dPolyline
 66
     1
 10
0.0
 20
0.0
 30
0.0
  0
VERTEX
  5
70F
100
AcDbEntity
  8
レイヤー_2
 62
     7
100
AcDbVertex
100
AcDb2dVertex
 10
156.950971
 20
120.718902
 30
0.0
  0
VERTEX
  5
710
100
AcDbEntity
  8
レイヤー_2
 62
     7
100
AcDbVertex
100
AcDb2dVertex
 10
156.978187
 20
120.610381
 30
0.0
  0
VERTEX
  5
711
100
AcDbEntity
  8
レイヤー_2
 62
     7
100
AcDbVertex
100
AcDb2dVertex
 10
157.005059
 20
120.58351
 30
0.0
  0
SEQEND
  5
712
100
AcDbEntity
  8
レイヤー_2
 62
     7
  0
POLYLINE
  5
708
100
AcDbEntity
  8
レイヤー_2
 62
     7
100
AcDb2dPolyline
 66
     1
 10
0.0
 20
0.0
 30
0.0
  0
VERTEX
  5
709
100
AcDbEntity
  8
レイヤー_2
 62
     7
100
AcDbVertex
100
AcDb2dVertex
 10
168.519946
 20
123.80743
 30
0.0
  0
VERTEX
  5
70A
100
AcDbEntity
  8
レイヤー_2
 62
     7
100
AcDbVertex
100
AcDb2dVertex
 10
168.49273
 20
123.942822
 30
0.0
  0
VERTEX
  5
70B
100
AcDbEntity
  8
レイヤー_2
 62
     7
100
AcDbVertex
100
AcDb2dVertex
 10
168.38421
 20
124.051343
 30
0.0
  0
VERTEX
  5
70C
100
AcDbEntity
  8
レイヤー_2
 62
     7
100
AcDbVertex
100
AcDb2dVertex
 10
168.221601
 20
124.105431
 30
0.0
  0
SEQEND
  5
70D
100
AcDbEntity
  8
レイヤー_2
 62
     7
  0
POLYLINE
  5
702
100
AcDbEntity
  8
レイヤー_2
 62
     7
100
AcDb2dPolyline
 66
     1
 10
0.0
 20
0.0
 30
0.0
  0
VERTEX
  5
703
100
AcDbEntity
  8
レイヤー_2
 62
     7
100
AcDbVertex
100
AcDb2dVertex
 10
164.753768
 20
124.105431
 30
0.0
  0
VERTEX
  5
704
100
AcDbEntity
  8
レイヤー_2
 62
     7
100
AcDbVertex
100
AcDb2dVertex
 10
164.618376
 20
124.051343
 30
0.0
  0
VERTEX
  5
705
100
AcDbEntity
  8
レイヤー_2
 62
     7
100
AcDbVertex
100
AcDb2dVertex
 10
164.509855
 20
123.942822
 30
0.0
  0
VERTEX
  5
706
100
AcDbEntity
  8
レイヤー_2
 62
     7
100
AcDbVertex
100
AcDb2dVertex
 10
164.456112
 20
123.80743
 30
0.0
  0
SEQEND
  5
707
100
AcDbEntity
  8
レイヤー_2
 62
     7
  0
POLYLINE
  5
6FD
100
AcDbEntity
  8
レイヤー_2
 62
     7
100
AcDb2dPolyline
 66
     1
 10
0.0
 20
0.0
 30
0.0
  0
VERTEX
  5
6FE
100
AcDbEntity
  8
レイヤー_2
 62
     7
100
AcDbVertex
100
AcDb2dVertex
 10
168.438642
 20
120.58351
 30
0.0
  0
VERTEX
  5
6FF
100
AcDbEntity
  8
レイヤー_2
 62
     7
100
AcDbVertex
100
AcDb2dVertex
 10
168.465514
 20
120.610381
 30
0.0
  0
VERTEX
  5
700
100
AcDbEntity
  8
レイヤー_2
 62
     7
100
AcDbVertex
100
AcDb2dVertex
 10
168.519946
 20
120.718902
 30
0.0
  0
SEQEND
  5
701
100
AcDbEntity
  8
レイヤー_2
 62
     7
  0
LINE
  5
6FC
100
AcDbEntity
  8
レイヤー_2
 62
     7
100
AcDbLine
 10
168.519946
 20
120.718902
 30
0.0
 11
168.519946
 21
123.80743
 31
0.0
  0
LINE
  5
6FB
100
AcDbEntity
  8
レイヤー_2
 62
     7
100
AcDbLine
 10
164.456112
 20
123.80743
 30
0.0
 11
164.456112
 21
120.637598
 31
0.0
  0
LINE
  5
6FA
100
AcDbEntity
  8
レイヤー_2
 62
     7
100
AcDbLine
 10
156.950971
 20
111.534277
 30
0.0
 11
156.950971
 21
108.608013
 31
0.0
  0
LINE
  5
6F9
100
AcDbEntity
  8
レイヤー_2
 62
     7
100
AcDbLine
 10
161.01515
 20
108.608013
 30
0.0
 11
161.01515
 21
111.615582
 31
0.0
  0
POLYLINE
  5
6F4
100
AcDbEntity
  8
レイヤー_2
 62
     7
100
AcDb2dPolyline
 66
     1
 10
0.0
 20
0.0
 30
0.0
  0
VERTEX
  5
6F5
100
AcDbEntity
  8
レイヤー_2
 62
     7
100
AcDbVertex
100
AcDb2dVertex
 10
157.005059
 20
111.66967
 30
0.0
  0
VERTEX
  5
6F6
100
AcDbEntity
  8
レイヤー_2
 62
     7
100
AcDbVertex
100
AcDb2dVertex
 10
156.978187
 20
111.642798
 30
0.0
  0
VERTEX
  5
6F7
100
AcDbEntity
  8
レイヤー_2
 62
     7
100
AcDbVertex
100
AcDb2dVertex
 10
156.950971
 20
111.534277
 30
0.0
  0
SEQEND
  5
6F8
100
AcDbEntity
  8
レイヤー_2
 62
     7
  0
LINE
  5
6F3
100
AcDbEntity
  8
レイヤー_2
 62
     7
100
AcDbLine
 10
164.456112
 20
111.615582
 30
0.0
 11
164.456112
 21
108.608013
 31
0.0
  0
LINE
  5
6F2
100
AcDbEntity
  8
レイヤー_2
 62
     7
100
AcDbLine
 10
168.519946
 20
108.608013
 30
0.0
 11
168.519946
 21
111.534277
 31
0.0
  0
POLYLINE
  5
6ED
100
AcDbEntity
  8
レイヤー_2
 62
     7
100
AcDb2dPolyline
 66
     1
 10
0.0
 20
0.0
 30
0.0
  0
VERTEX
  5
6EE
100
AcDbEntity
  8
レイヤー_2
 62
     7
100
AcDbVertex
100
AcDb2dVertex
 10
168.519946
 20
111.534277
 30
0.0
  0
VERTEX
  5
6EF
100
AcDbEntity
  8
レイヤー_2
 62
     7
100
AcDbVertex
100
AcDb2dVertex
 10
168.465514
 20
111.642798
 30
0.0
  0
VERTEX
  5
6F0
100
AcDbEntity
  8
レイヤー_2
 62
     7
100
AcDbVertex
100
AcDb2dVertex
 10
168.438642
 20
111.66967
 30
0.0
  0
SEQEND
  5
6F1
100
AcDbEntity
  8
レイヤー_2
 62
     7
  0
LINE
  5
6EC
100
AcDbEntity
  8
レイヤー_2
 62
     7
100
AcDbLine
 10
144.000513
 20
118.145071
 30
0.0
 11
141.236857
 21
118.145071
 31
0.0
  0
LINE
  5
6EB
100
AcDbEntity
  8
レイヤー_2
 62
     7
100
AcDbLine
 10
141.236857
 20
114.108108
 30
0.0
 11
144.000513
 21
114.108108
 31
0.0
  0
POLYLINE
  5
6E6
100
AcDbEntity
  8
レイヤー_2
 62
     7
100
AcDb2dPolyline
 66
     1
 10
0.0
 20
0.0
 30
0.0
  0
VERTEX
  5
6E7
100
AcDbEntity
  8
レイヤー_2
 62
     7
100
AcDbVertex
100
AcDb2dVertex
 10
144.244425
 20
117.955246
 30
0.0
  0
VERTEX
  5
6E8
100
AcDbEntity
  8
レイヤー_2
 62
     7
100
AcDbVertex
100
AcDb2dVertex
 10
144.163121
 20
118.090983
 30
0.0
  0
VERTEX
  5
6E9
100
AcDbEntity
  8
レイヤー_2
 62
     7
100
AcDbVertex
100
AcDb2dVertex
 10
144.000513
 20
118.145071
 30
0.0
  0
SEQEND
  5
6EA
100
AcDbEntity
  8
レイヤー_2
 62
     7
  0
POLYLINE
  5
6E1
100
AcDbEntity
  8
レイヤー_2
 62
     7
100
AcDb2dPolyline
 66
     1
 10
0.0
 20
0.0
 30
0.0
  0
VERTEX
  5
6E2
100
AcDbEntity
  8
レイヤー_2
 62
     7
100
AcDbVertex
100
AcDb2dVertex
 10
144.000513
 20
114.108108
 30
0.0
  0
VERTEX
  5
6E3
100
AcDbEntity
  8
レイヤー_2
 62
     7
100
AcDbVertex
100
AcDb2dVertex
 10
144.163121
 20
114.162541
 30
0.0
  0
VERTEX
  5
6E4
100
AcDbEntity
  8
レイヤー_2
 62
     7
100
AcDbVertex
100
AcDb2dVertex
 10
144.244425
 20
114.270717
 30
0.0
  0
SEQEND
  5
6E5
100
AcDbEntity
  8
レイヤー_2
 62
     7
  0
POLYLINE
  5
6DC
100
AcDbEntity
  8
レイヤー_2
 62
     7
100
AcDb2dPolyline
 66
     1
 10
0.0
 20
0.0
 30
0.0
  0
VERTEX
  5
6DD
100
AcDbEntity
  8
レイヤー_2
 62
     7
100
AcDbVertex
100
AcDb2dVertex
 10
144.460777
 20
114.460197
 30
0.0
  0
VERTEX
  5
6DE
100
AcDbEntity
  8
レイヤー_2
 62
     7
100
AcDbVertex
100
AcDb2dVertex
 10
144.298169
 20
114.406453
 30
0.0
  0
VERTEX
  5
6DF
100
AcDbEntity
  8
レイヤー_2
 62
     7
100
AcDbVertex
100
AcDb2dVertex
 10
144.244425
 20
114.270717
 30
0.0
  0
SEQEND
  5
6E0
100
AcDbEntity
  8
レイヤー_2
 62
     7
  0
POLYLINE
  5
6D7
100
AcDbEntity
  8
レイヤー_2
 62
     7
100
AcDb2dPolyline
 66
     1
 10
0.0
 20
0.0
 30
0.0
  0
VERTEX
  5
6D8
100
AcDbEntity
  8
レイヤー_2
 62
     7
100
AcDbVertex
100
AcDb2dVertex
 10
144.244425
 20
117.955246
 30
0.0
  0
VERTEX
  5
6D9
100
AcDbEntity
  8
レイヤー_2
 62
     7
100
AcDbVertex
100
AcDb2dVertex
 10
144.298169
 20
117.84707
 30
0.0
  0
VERTEX
  5
6DA
100
AcDbEntity
  8
レイヤー_2
 62
     7
100
AcDbVertex
100
AcDb2dVertex
 10
144.460777
 20
117.792982
 30
0.0
  0
SEQEND
  5
6DB
100
AcDbEntity
  8
レイヤー_2
 62
     7
  0
LINE
  5
6D6
100
AcDbEntity
  8
レイヤー_2
 62
     7
100
AcDbLine
 10
157.926278
 20
117.792982
 30
0.0
 11
149.960872
 21
117.792982
 31
0.0
  0
LINE
  5
6D5
100
AcDbEntity
  8
レイヤー_2
 62
     7
100
AcDbLine
 10
149.960872
 20
114.460197
 30
0.0
 11
157.926278
 21
114.460197
 31
0.0
  0
POLYLINE
  5
6CF
100
AcDbEntity
  8
レイヤー_2
 62
     7
100
AcDb2dPolyline
 66
     1
 10
0.0
 20
0.0
 30
0.0
  0
VERTEX
  5
6D0
100
AcDbEntity
  8
レイヤー_2
 62
     7
100
AcDbVertex
100
AcDb2dVertex
 10
157.926278
 20
114.487413
 30
0.0
  0
VERTEX
  5
6D1
100
AcDbEntity
  8
レイヤー_2
 62
     7
100
AcDbVertex
100
AcDb2dVertex
 10
158.143319
 20
114.487413
 30
0.0
  0
VERTEX
  5
6D2
100
AcDbEntity
  8
レイヤー_2
 62
     7
100
AcDbVertex
100
AcDb2dVertex
 10
158.495407
 20
114.487413
 30
0.0
  0
VERTEX
  5
6D3
100
AcDbEntity
  8
レイヤー_2
 62
     7
100
AcDbVertex
100
AcDb2dVertex
 10
158.766192
 20
114.487413
 30
0.0
  0
SEQEND
  5
6D4
100
AcDbEntity
  8
レイヤー_2
 62
     7
  0
POLYLINE
  5
6C9
100
AcDbEntity
  8
レイヤー_2
 62
     7
100
AcDb2dPolyline
 66
     1
 10
0.0
 20
0.0
 30
0.0
  0
VERTEX
  5
6CA
100
AcDbEntity
  8
レイヤー_2
 62
     7
100
AcDbVertex
100
AcDb2dVertex
 10
158.766192
 20
117.765766
 30
0.0
  0
VERTEX
  5
6CB
100
AcDbEntity
  8
レイヤー_2
 62
     7
100
AcDbVertex
100
AcDb2dVertex
 10
158.495407
 20
117.765766
 30
0.0
  0
VERTEX
  5
6CC
100
AcDbEntity
  8
レイヤー_2
 62
     7
100
AcDbVertex
100
AcDb2dVertex
 10
158.143319
 20
117.765766
 30
0.0
  0
VERTEX
  5
6CD
100
AcDbEntity
  8
レイヤー_2
 62
     7
100
AcDbVertex
100
AcDb2dVertex
 10
157.926278
 20
117.765766
 30
0.0
  0
SEQEND
  5
6CE
100
AcDbEntity
  8
レイヤー_2
 62
     7
  0
LINE
  5
6C8
100
AcDbEntity
  8
レイヤー_2
 62
     7
100
AcDbLine
 10
145.436428
 20
117.792982
 30
0.0
 11
144.460777
 21
117.792982
 31
0.0
  0
LINE
  5
6C7
100
AcDbEntity
  8
レイヤー_2
 62
     7
100
AcDbLine
 10
144.460777
 20
114.460197
 30
0.0
 11
145.436428
 21
114.460197
 31
0.0
  0
POLYLINE
  5
6C1
100
AcDbEntity
  8
レイヤー_2
 62
     7
100
AcDb2dPolyline
 66
     1
 10
0.0
 20
0.0
 30
0.0
  0
VERTEX
  5
6C2
100
AcDbEntity
  8
レイヤー_2
 62
     7
100
AcDbVertex
100
AcDb2dVertex
 10
157.11358
 20
111.750974
 30
0.0
  0
VERTEX
  5
6C3
100
AcDbEntity
  8
レイヤー_2
 62
     7
100
AcDbVertex
100
AcDb2dVertex
 10
157.11358
 20
111.723758
 30
0.0
  0
VERTEX
  5
6C4
100
AcDbEntity
  8
レイヤー_2
 62
     7
100
AcDbVertex
100
AcDb2dVertex
 10
157.059492
 20
111.696886
 30
0.0
  0
VERTEX
  5
6C5
100
AcDbEntity
  8
レイヤー_2
 62
     7
100
AcDbVertex
100
AcDb2dVertex
 10
157.032275
 20
111.66967
 30
0.0
  0
SEQEND
  5
6C6
100
AcDbEntity
  8
レイヤー_2
 62
     7
  0
POLYLINE
  5
6BB
100
AcDbEntity
  8
レイヤー_2
 62
     7
100
AcDb2dPolyline
 66
     1
 10
0.0
 20
0.0
 30
0.0
  0
VERTEX
  5
6BC
100
AcDbEntity
  8
レイヤー_2
 62
     7
100
AcDbVertex
100
AcDb2dVertex
 10
157.005059
 20
120.610381
 30
0.0
  0
VERTEX
  5
6BD
100
AcDbEntity
  8
レイヤー_2
 62
     7
100
AcDbVertex
100
AcDb2dVertex
 10
157.059492
 20
120.556293
 30
0.0
  0
VERTEX
  5
6BE
100
AcDbEntity
  8
レイヤー_2
 62
     7
100
AcDbVertex
100
AcDb2dVertex
 10
157.11358
 20
120.529077
 30
0.0
  0
VERTEX
  5
6BF
100
AcDbEntity
  8
レイヤー_2
 62
     7
100
AcDbVertex
100
AcDb2dVertex
 10
157.11358
 20
120.502205
 30
0.0
  0
SEQEND
  5
6C0
100
AcDbEntity
  8
レイヤー_2
 62
     7
  0
POLYLINE
  5
6B5
100
AcDbEntity
  8
レイヤー_2
 62
     7
100
AcDb2dPolyline
 66
     1
 10
0.0
 20
0.0
 30
0.0
  0
VERTEX
  5
6B6
100
AcDbEntity
  8
レイヤー_2
 62
     7
100
AcDbVertex
100
AcDb2dVertex
 10
168.357338
 20
120.502205
 30
0.0
  0
VERTEX
  5
6B7
100
AcDbEntity
  8
レイヤー_2
 62
     7
100
AcDbVertex
100
AcDb2dVertex
 10
168.357338
 20
120.529077
 30
0.0
  0
VERTEX
  5
6B8
100
AcDbEntity
  8
レイヤー_2
 62
     7
100
AcDbVertex
100
AcDb2dVertex
 10
168.411426
 20
120.556293
 30
0.0
  0
VERTEX
  5
6B9
100
AcDbEntity
  8
レイヤー_2
 62
     7
100
AcDbVertex
100
AcDb2dVertex
 10
168.438642
 20
120.58351
 30
0.0
  0
SEQEND
  5
6BA
100
AcDbEntity
  8
レイヤー_2
 62
     7
  0
POLYLINE
  5
6AF
100
AcDbEntity
  8
レイヤー_2
 62
     7
100
AcDb2dPolyline
 66
     1
 10
0.0
 20
0.0
 30
0.0
  0
VERTEX
  5
6B0
100
AcDbEntity
  8
レイヤー_2
 62
     7
100
AcDbVertex
100
AcDb2dVertex
 10
168.465514
 20
111.642798
 30
0.0
  0
VERTEX
  5
6B1
100
AcDbEntity
  8
レイヤー_2
 62
     7
100
AcDbVertex
100
AcDb2dVertex
 10
168.38421
 20
111.696886
 30
0.0
  0
VERTEX
  5
6B2
100
AcDbEntity
  8
レイヤー_2
 62
     7
100
AcDbVertex
100
AcDb2dVertex
 10
168.357338
 20
111.723758
 30
0.0
  0
VERTEX
  5
6B3
100
AcDbEntity
  8
レイヤー_2
 62
     7
100
AcDbVertex
100
AcDb2dVertex
 10
168.357338
 20
111.750974
 30
0.0
  0
SEQEND
  5
6B4
100
AcDbEntity
  8
レイヤー_2
 62
     7
  0
POLYLINE
  5
6A9
100
AcDbEntity
  8
レイヤー_2
 62
     7
100
AcDb2dPolyline
 66
     1
 10
0.0
 20
0.0
 30
0.0
  0
VERTEX
  5
6AA
100
AcDbEntity
  8
レイヤー_2
 62
     7
100
AcDbVertex
100
AcDb2dVertex
 10
164.456112
 20
120.637598
 30
0.0
  0
VERTEX
  5
6AB
100
AcDbEntity
  8
レイヤー_2
 62
     7
100
AcDbVertex
100
AcDb2dVertex
 10
164.456112
 20
120.58351
 30
0.0
  0
VERTEX
  5
6AC
100
AcDbEntity
  8
レイヤー_2
 62
     7
100
AcDbVertex
100
AcDb2dVertex
 10
164.401679
 20
120.502205
 30
0.0
  0
VERTEX
  5
6AD
100
AcDbEntity
  8
レイヤー_2
 62
     7
100
AcDbVertex
100
AcDb2dVertex
 10
164.401679
 20
120.474989
 30
0.0
  0
SEQEND
  5
6AE
100
AcDbEntity
  8
レイヤー_2
 62
     7
  0
POLYLINE
  5
6A3
100
AcDbEntity
  8
レイヤー_2
 62
     7
100
AcDb2dPolyline
 66
     1
 10
0.0
 20
0.0
 30
0.0
  0
VERTEX
  5
6A4
100
AcDbEntity
  8
レイヤー_2
 62
     7
100
AcDbVertex
100
AcDb2dVertex
 10
161.01515
 20
111.615582
 30
0.0
  0
VERTEX
  5
6A5
100
AcDbEntity
  8
レイヤー_2
 62
     7
100
AcDbVertex
100
AcDb2dVertex
 10
161.01515
 20
111.66967
 30
0.0
  0
VERTEX
  5
6A6
100
AcDbEntity
  8
レイヤー_2
 62
     7
100
AcDbVertex
100
AcDb2dVertex
 10
161.042022
 20
111.750974
 30
0.0
  0
VERTEX
  5
6A7
100
AcDbEntity
  8
レイヤー_2
 62
     7
100
AcDbVertex
100
AcDb2dVertex
 10
161.069238
 20
111.77819
 30
0.0
  0
SEQEND
  5
6A8
100
AcDbEntity
  8
レイヤー_2
 62
     7
  0
POLYLINE
  5
69D
100
AcDbEntity
  8
レイヤー_2
 62
     7
100
AcDb2dPolyline
 66
     1
 10
0.0
 20
0.0
 30
0.0
  0
VERTEX
  5
69E
100
AcDbEntity
  8
レイヤー_2
 62
     7
100
AcDbVertex
100
AcDb2dVertex
 10
161.069238
 20
120.474989
 30
0.0
  0
VERTEX
  5
69F
100
AcDbEntity
  8
レイヤー_2
 62
     7
100
AcDbVertex
100
AcDb2dVertex
 10
161.042022
 20
120.529077
 30
0.0
  0
VERTEX
  5
6A0
100
AcDbEntity
  8
レイヤー_2
 62
     7
100
AcDbVertex
100
AcDb2dVertex
 10
161.01515
 20
120.610381
 30
0.0
  0
VERTEX
  5
6A1
100
AcDbEntity
  8
レイヤー_2
 62
     7
100
AcDbVertex
100
AcDb2dVertex
 10
161.01515
 20
120.637598
 30
0.0
  0
SEQEND
  5
6A2
100
AcDbEntity
  8
レイヤー_2
 62
     7
  0
POLYLINE
  5
697
100
AcDbEntity
  8
レイヤー_2
 62
     7
100
AcDb2dPolyline
 66
     1
 10
0.0
 20
0.0
 30
0.0
  0
VERTEX
  5
698
100
AcDbEntity
  8
レイヤー_2
 62
     7
100
AcDbVertex
100
AcDb2dVertex
 10
164.401679
 20
111.77819
 30
0.0
  0
VERTEX
  5
699
100
AcDbEntity
  8
レイヤー_2
 62
     7
100
AcDbVertex
100
AcDb2dVertex
 10
164.428551
 20
111.723758
 30
0.0
  0
VERTEX
  5
69A
100
AcDbEntity
  8
レイヤー_2
 62
     7
100
AcDbVertex
100
AcDb2dVertex
 10
164.456112
 20
111.642798
 30
0.0
  0
VERTEX
  5
69B
100
AcDbEntity
  8
レイヤー_2
 62
     7
100
AcDbVertex
100
AcDb2dVertex
 10
164.456112
 20
111.615582
 30
0.0
  0
SEQEND
  5
69C
100
AcDbEntity
  8
レイヤー_2
 62
     7
  0
LINE
  5
696
100
AcDbEntity
  8
レイヤー_2
 62
     7
100
AcDbLine
 10
161.367239
 20
120.122556
 30
0.0
 11
161.069238
 21
120.474989
 31
0.0
  0
LINE
  5
695
100
AcDbEntity
  8
レイヤー_2
 62
     7
100
AcDbLine
 10
159.010105
 20
113.999932
 30
0.0
 11
157.11358
 21
111.750974
 31
0.0
  0
LINE
  5
694
100
AcDbEntity
  8
レイヤー_2
 62
     7
100
AcDbLine
 10
164.401679
 20
120.474989
 30
0.0
 11
164.103678
 21
120.122556
 31
0.0
  0
LINE
  5
693
100
AcDbEntity
  8
レイヤー_2
 62
     7
100
AcDbLine
 10
166.406725
 20
118.198815
 30
0.0
 11
168.357338
 21
120.502205
 31
0.0
  0
LINE
  5
692
100
AcDbEntity
  8
レイヤー_2
 62
     7
100
AcDbLine
 10
161.069238
 20
111.77819
 30
0.0
 11
161.367239
 21
112.130279
 31
0.0
  0
LINE
  5
691
100
AcDbEntity
  8
レイヤー_2
 62
     7
100
AcDbLine
 10
157.11358
 20
120.502205
 30
0.0
 11
159.010105
 21
118.253247
 31
0.0
  0
LINE
  5
690
100
AcDbEntity
  8
レイヤー_2
 62
     7
100
AcDbLine
 10
164.103678
 20
112.130279
 30
0.0
 11
164.401679
 21
111.77819
 31
0.0
  0
LINE
  5
68F
100
AcDbEntity
  8
レイヤー_2
 62
     7
100
AcDbLine
 10
168.357338
 20
111.750974
 30
0.0
 11
166.406725
 21
114.053676
 31
0.0
  0
POLYLINE
  5
686
100
AcDbEntity
  8
レイヤー_2
 62
     7
100
AcDb2dPolyline
 66
     1
 10
0.0
 20
0.0
 30
0.0
  0
VERTEX
  5
687
100
AcDbEntity
  8
レイヤー_2
 62
     7
100
AcDbVertex
100
AcDb2dVertex
 10
158.766192
 20
114.487413
 30
0.0
  0
VERTEX
  5
688
100
AcDbEntity
  8
レイヤー_2
 62
     7
100
AcDbVertex
100
AcDb2dVertex
 10
158.847496
 20
114.487413
 30
0.0
  0
VERTEX
  5
689
100
AcDbEntity
  8
レイヤー_2
 62
     7
100
AcDbVertex
100
AcDb2dVertex
 10
159.010105
 20
114.378893
 30
0.0
  0
VERTEX
  5
68A
100
AcDbEntity
  8
レイヤー_2
 62
     7
100
AcDbVertex
100
AcDb2dVertex
 10
159.064193
 20
114.270717
 30
0.0
  0
VERTEX
  5
68B
100
AcDbEntity
  8
レイヤー_2
 62
     7
100
AcDbVertex
100
AcDb2dVertex
 10
159.064193
 20
114.108108
 30
0.0
  0
VERTEX
  5
68C
100
AcDbEntity
  8
レイヤー_2
 62
     7
100
AcDbVertex
100
AcDb2dVertex
 10
159.036976
 20
114.026804
 30
0.0
  0
VERTEX
  5
68D
100
AcDbEntity
  8
レイヤー_2
 62
     7
100
AcDbVertex
100
AcDb2dVertex
 10
159.010105
 20
113.999932
 30
0.0
  0
SEQEND
  5
68E
100
AcDbEntity
  8
レイヤー_2
 62
     7
  0
POLYLINE
  5
67B
100
AcDbEntity
  8
レイヤー_2
 62
     7
100
AcDb2dPolyline
 66
     1
 10
0.0
 20
0.0
 30
0.0
  0
VERTEX
  5
67C
100
AcDbEntity
  8
レイヤー_2
 62
     7
100
AcDbVertex
100
AcDb2dVertex
 10
159.010105
 20
118.253247
 30
0.0
  0
VERTEX
  5
67D
100
AcDbEntity
  8
レイヤー_2
 62
     7
100
AcDbVertex
100
AcDb2dVertex
 10
159.036976
 20
118.198815
 30
0.0
  0
VERTEX
  5
67E
100
AcDbEntity
  8
レイヤー_2
 62
     7
100
AcDbVertex
100
AcDb2dVertex
 10
159.064193
 20
118.117855
 30
0.0
  0
VERTEX
  5
67F
100
AcDbEntity
  8
レイヤー_2
 62
     7
100
AcDbVertex
100
AcDb2dVertex
 10
159.064193
 20
118.009334
 30
0.0
  0
VERTEX
  5
680
100
AcDbEntity
  8
レイヤー_2
 62
     7
100
AcDbVertex
100
AcDb2dVertex
 10
159.036976
 20
117.901158
 30
0.0
  0
VERTEX
  5
681
100
AcDbEntity
  8
レイヤー_2
 62
     7
100
AcDbVertex
100
AcDb2dVertex
 10
158.955672
 20
117.819854
 30
0.0
  0
VERTEX
  5
682
100
AcDbEntity
  8
レイヤー_2
 62
     7
100
AcDbVertex
100
AcDb2dVertex
 10
158.901929
 20
117.792982
 30
0.0
  0
VERTEX
  5
683
100
AcDbEntity
  8
レイヤー_2
 62
     7
100
AcDbVertex
100
AcDb2dVertex
 10
158.820624
 20
117.765766
 30
0.0
  0
VERTEX
  5
684
100
AcDbEntity
  8
レイヤー_2
 62
     7
100
AcDbVertex
100
AcDb2dVertex
 10
158.766192
 20
117.765766
 30
0.0
  0
SEQEND
  5
685
100
AcDbEntity
  8
レイヤー_2
 62
     7
  0
LINE
  5
67A
100
AcDbEntity
  8
レイヤー_2
 62
     7
100
AcDbLine
 10
149.717304
 20
117.873942
 30
0.0
 11
149.418959
 21
118.172287
 31
0.0
  0
POLYLINE
  5
675
100
AcDbEntity
  8
レイヤー_2
 62
     7
100
AcDb2dPolyline
 66
     1
 10
0.0
 20
0.0
 30
0.0
  0
VERTEX
  5
676
100
AcDbEntity
  8
レイヤー_2
 62
     7
100
AcDbVertex
100
AcDb2dVertex
 10
147.928955
 20
118.795505
 30
0.0
  0
VERTEX
  5
677
100
AcDbEntity
  8
レイヤー_2
 62
     7
100
AcDbVertex
100
AcDb2dVertex
 10
147.685042
 20
118.822377
 30
0.0
  0
VERTEX
  5
678
100
AcDbEntity
  8
レイヤー_2
 62
     7
100
AcDbVertex
100
AcDb2dVertex
 10
147.468346
 20
118.795505
 30
0.0
  0
SEQEND
  5
679
100
AcDbEntity
  8
レイヤー_2
 62
     7
  0
LINE
  5
674
100
AcDbEntity
  8
レイヤー_2
 62
     7
100
AcDbLine
 10
145.951126
 20
118.172287
 30
0.0
 11
145.653125
 21
117.873942
 31
0.0
  0
LINE
  5
673
100
AcDbEntity
  8
レイヤー_2
 62
     7
100
AcDbLine
 10
145.653125
 20
114.352021
 30
0.0
 11
145.951126
 21
114.081236
 31
0.0
  0
POLYLINE
  5
66E
100
AcDbEntity
  8
レイヤー_2
 62
     7
100
AcDb2dPolyline
 66
     1
 10
0.0
 20
0.0
 30
0.0
  0
VERTEX
  5
66F
100
AcDbEntity
  8
レイヤー_2
 62
     7
100
AcDbVertex
100
AcDb2dVertex
 10
147.468346
 20
113.430802
 30
0.0
  0
VERTEX
  5
670
100
AcDbEntity
  8
レイヤー_2
 62
     7
100
AcDbVertex
100
AcDb2dVertex
 10
147.685042
 20
113.430802
 30
0.0
  0
VERTEX
  5
671
100
AcDbEntity
  8
レイヤー_2
 62
     7
100
AcDbVertex
100
AcDb2dVertex
 10
147.928955
 20
113.430802
 30
0.0
  0
SEQEND
  5
672
100
AcDbEntity
  8
レイヤー_2
 62
     7
  0
LINE
  5
66D
100
AcDbEntity
  8
レイヤー_2
 62
     7
100
AcDbLine
 10
149.418959
 20
114.081236
 30
0.0
 11
149.717304
 21
114.378893
 31
0.0
  0
POLYLINE
  5
65E
100
AcDbEntity
  8
レイヤー_2
 62
     7
100
AcDb2dPolyline
 66
     1
 10
0.0
 20
0.0
 30
0.0
  0
VERTEX
  5
65F
100
AcDbEntity
  8
レイヤー_2
 62
     7
100
AcDbVertex
100
AcDb2dVertex
 10
163.29098
 20
108.608013
 30
0.0
  0
VERTEX
  5
660
100
AcDbEntity
  8
レイヤー_2
 62
     7
100
AcDbVertex
100
AcDb2dVertex
 10
163.236548
 20
108.825054
 30
0.0
  0
VERTEX
  5
661
100
AcDbEntity
  8
レイヤー_2
 62
     7
100
AcDbVertex
100
AcDb2dVertex
 10
163.073939
 20
108.987663
 30
0.0
  0
VERTEX
  5
662
100
AcDbEntity
  8
レイヤー_2
 62
     7
100
AcDbVertex
100
AcDb2dVertex
 10
162.857587
 20
109.068623
 30
0.0
  0
VERTEX
  5
663
100
AcDbEntity
  8
レイヤー_2
 62
     7
100
AcDbVertex
100
AcDb2dVertex
 10
162.640546
 20
108.987663
 30
0.0
  0
VERTEX
  5
664
100
AcDbEntity
  8
レイヤー_2
 62
     7
100
AcDbVertex
100
AcDb2dVertex
 10
162.451066
 20
108.825054
 30
0.0
  0
VERTEX
  5
665
100
AcDbEntity
  8
レイヤー_2
 62
     7
100
AcDbVertex
100
AcDb2dVertex
 10
162.396634
 20
108.608013
 30
0.0
  0
VERTEX
  5
666
100
AcDbEntity
  8
レイヤー_2
 62
     7
100
AcDbVertex
100
AcDb2dVertex
 10
162.451066
 20
108.391317
 30
0.0
  0
VERTEX
  5
667
100
AcDbEntity
  8
レイヤー_2
 62
     7
100
AcDbVertex
100
AcDb2dVertex
 10
162.640546
 20
108.201836
 30
0.0
  0
VERTEX
  5
668
100
AcDbEntity
  8
レイヤー_2
 62
     7
100
AcDbVertex
100
AcDb2dVertex
 10
162.857587
 20
108.147404
 30
0.0
  0
VERTEX
  5
669
100
AcDbEntity
  8
レイヤー_2
 62
     7
100
AcDbVertex
100
AcDb2dVertex
 10
163.073939
 20
108.201836
 30
0.0
  0
VERTEX
  5
66A
100
AcDbEntity
  8
レイヤー_2
 62
     7
100
AcDbVertex
100
AcDb2dVertex
 10
163.236548
 20
108.391317
 30
0.0
  0
VERTEX
  5
66B
100
AcDbEntity
  8
レイヤー_2
 62
     7
100
AcDbVertex
100
AcDb2dVertex
 10
163.29098
 20
108.608013
 30
0.0
  0
SEQEND
  5
66C
100
AcDbEntity
  8
レイヤー_2
 62
     7
  0
POLYLINE
  5
64F
100
AcDbEntity
  8
レイヤー_2
 62
     7
100
AcDb2dPolyline
 66
     1
 10
0.0
 20
0.0
 30
0.0
  0
VERTEX
  5
650
100
AcDbEntity
  8
レイヤー_2
 62
     7
100
AcDbVertex
100
AcDb2dVertex
 10
146.493039
 20
108.608013
 30
0.0
  0
VERTEX
  5
651
100
AcDbEntity
  8
レイヤー_2
 62
     7
100
AcDbVertex
100
AcDb2dVertex
 10
146.438951
 20
108.825054
 30
0.0
  0
VERTEX
  5
652
100
AcDbEntity
  8
レイヤー_2
 62
     7
100
AcDbVertex
100
AcDb2dVertex
 10
146.276343
 20
108.987663
 30
0.0
  0
VERTEX
  5
653
100
AcDbEntity
  8
レイヤー_2
 62
     7
100
AcDbVertex
100
AcDb2dVertex
 10
146.03243
 20
109.068623
 30
0.0
  0
VERTEX
  5
654
100
AcDbEntity
  8
レイヤー_2
 62
     7
100
AcDbVertex
100
AcDb2dVertex
 10
145.815734
 20
108.987663
 30
0.0
  0
VERTEX
  5
655
100
AcDbEntity
  8
レイヤー_2
 62
     7
100
AcDbVertex
100
AcDb2dVertex
 10
145.653125
 20
108.825054
 30
0.0
  0
VERTEX
  5
656
100
AcDbEntity
  8
レイヤー_2
 62
     7
100
AcDbVertex
100
AcDb2dVertex
 10
145.599037
 20
108.608013
 30
0.0
  0
VERTEX
  5
657
100
AcDbEntity
  8
レイヤー_2
 62
     7
100
AcDbVertex
100
AcDb2dVertex
 10
145.653125
 20
108.391317
 30
0.0
  0
VERTEX
  5
658
100
AcDbEntity
  8
レイヤー_2
 62
     7
100
AcDbVertex
100
AcDb2dVertex
 10
145.815734
 20
108.201836
 30
0.0
  0
VERTEX
  5
659
100
AcDbEntity
  8
レイヤー_2
 62
     7
100
AcDbVertex
100
AcDb2dVertex
 10
146.03243
 20
108.147404
 30
0.0
  0
VERTEX
  5
65A
100
AcDbEntity
  8
レイヤー_2
 62
     7
100
AcDbVertex
100
AcDb2dVertex
 10
146.276343
 20
108.201836
 30
0.0
  0
VERTEX
  5
65B
100
AcDbEntity
  8
レイヤー_2
 62
     7
100
AcDbVertex
100
AcDb2dVertex
 10
146.438951
 20
108.391317
 30
0.0
  0
VERTEX
  5
65C
100
AcDbEntity
  8
レイヤー_2
 62
     7
100
AcDbVertex
100
AcDb2dVertex
 10
146.493039
 20
108.608013
 30
0.0
  0
SEQEND
  5
65D
100
AcDbEntity
  8
レイヤー_2
 62
     7
  0
POLYLINE
  5
640
100
AcDbEntity
  8
レイヤー_2
 62
     7
100
AcDb2dPolyline
 66
     1
 10
0.0
 20
0.0
 30
0.0
  0
VERTEX
  5
641
100
AcDbEntity
  8
レイヤー_2
 62
     7
100
AcDbVertex
100
AcDb2dVertex
 10
146.493039
 20
123.644822
 30
0.0
  0
VERTEX
  5
642
100
AcDbEntity
  8
レイヤー_2
 62
     7
100
AcDbVertex
100
AcDb2dVertex
 10
146.438951
 20
123.861518
 30
0.0
  0
VERTEX
  5
643
100
AcDbEntity
  8
レイヤー_2
 62
     7
100
AcDbVertex
100
AcDb2dVertex
 10
146.276343
 20
124.024127
 30
0.0
  0
VERTEX
  5
644
100
AcDbEntity
  8
レイヤー_2
 62
     7
100
AcDbVertex
100
AcDb2dVertex
 10
146.03243
 20
124.105431
 30
0.0
  0
VERTEX
  5
645
100
AcDbEntity
  8
レイヤー_2
 62
     7
100
AcDbVertex
100
AcDb2dVertex
 10
145.815734
 20
124.024127
 30
0.0
  0
VERTEX
  5
646
100
AcDbEntity
  8
レイヤー_2
 62
     7
100
AcDbVertex
100
AcDb2dVertex
 10
145.653125
 20
123.861518
 30
0.0
  0
VERTEX
  5
647
100
AcDbEntity
  8
レイヤー_2
 62
     7
100
AcDbVertex
100
AcDb2dVertex
 10
145.599037
 20
123.644822
 30
0.0
  0
VERTEX
  5
648
100
AcDbEntity
  8
レイヤー_2
 62
     7
100
AcDbVertex
100
AcDb2dVertex
 10
145.653125
 20
123.428125
 30
0.0
  0
VERTEX
  5
649
100
AcDbEntity
  8
レイヤー_2
 62
     7
100
AcDbVertex
100
AcDb2dVertex
 10
145.815734
 20
123.265861
 30
0.0
  0
VERTEX
  5
64A
100
AcDbEntity
  8
レイヤー_2
 62
     7
100
AcDbVertex
100
AcDb2dVertex
 10
146.03243
 20
123.184212
 30
0.0
  0
VERTEX
  5
64B
100
AcDbEntity
  8
レイヤー_2
 62
     7
100
AcDbVertex
100
AcDb2dVertex
 10
146.276343
 20
123.265861
 30
0.0
  0
VERTEX
  5
64C
100
AcDbEntity
  8
レイヤー_2
 62
     7
100
AcDbVertex
100
AcDb2dVertex
 10
146.438951
 20
123.428125
 30
0.0
  0
VERTEX
  5
64D
100
AcDbEntity
  8
レイヤー_2
 62
     7
100
AcDbVertex
100
AcDb2dVertex
 10
146.493039
 20
123.644822
 30
0.0
  0
SEQEND
  5
64E
100
AcDbEntity
  8
レイヤー_2
 62
     7
  0
POLYLINE
  5
631
100
AcDbEntity
  8
レイヤー_2
 62
     7
100
AcDb2dPolyline
 66
     1
 10
0.0
 20
0.0
 30
0.0
  0
VERTEX
  5
632
100
AcDbEntity
  8
レイヤー_2
 62
     7
100
AcDbVertex
100
AcDb2dVertex
 10
163.29098
 20
123.644822
 30
0.0
  0
VERTEX
  5
633
100
AcDbEntity
  8
レイヤー_2
 62
     7
100
AcDbVertex
100
AcDb2dVertex
 10
163.236548
 20
123.861518
 30
0.0
  0
VERTEX
  5
634
100
AcDbEntity
  8
レイヤー_2
 62
     7
100
AcDbVertex
100
AcDb2dVertex
 10
163.073939
 20
124.024127
 30
0.0
  0
VERTEX
  5
635
100
AcDbEntity
  8
レイヤー_2
 62
     7
100
AcDbVertex
100
AcDb2dVertex
 10
162.857587
 20
124.105431
 30
0.0
  0
VERTEX
  5
636
100
AcDbEntity
  8
レイヤー_2
 62
     7
100
AcDbVertex
100
AcDb2dVertex
 10
162.640546
 20
124.024127
 30
0.0
  0
VERTEX
  5
637
100
AcDbEntity
  8
レイヤー_2
 62
     7
100
AcDbVertex
100
AcDb2dVertex
 10
162.451066
 20
123.861518
 30
0.0
  0
VERTEX
  5
638
100
AcDbEntity
  8
レイヤー_2
 62
     7
100
AcDbVertex
100
AcDb2dVertex
 10
162.396634
 20
123.644822
 30
0.0
  0
VERTEX
  5
639
100
AcDbEntity
  8
レイヤー_2
 62
     7
100
AcDbVertex
100
AcDb2dVertex
 10
162.451066
 20
123.428125
 30
0.0
  0
VERTEX
  5
63A
100
AcDbEntity
  8
レイヤー_2
 62
     7
100
AcDbVertex
100
AcDb2dVertex
 10
162.640546
 20
123.265861
 30
0.0
  0
VERTEX
  5
63B
100
AcDbEntity
  8
レイヤー_2
 62
     7
100
AcDbVertex
100
AcDb2dVertex
 10
162.857587
 20
123.184212
 30
0.0
  0
VERTEX
  5
63C
100
AcDbEntity
  8
レイヤー_2
 62
     7
100
AcDbVertex
100
AcDb2dVertex
 10
163.073939
 20
123.265861
 30
0.0
  0
VERTEX
  5
63D
100
AcDbEntity
  8
レイヤー_2
 62
     7
100
AcDbVertex
100
AcDb2dVertex
 10
163.236548
 20
123.428125
 30
0.0
  0
VERTEX
  5
63E
100
AcDbEntity
  8
レイヤー_2
 62
     7
100
AcDbVertex
100
AcDb2dVertex
 10
163.29098
 20
123.644822
 30
0.0
  0
SEQEND
  5
63F
100
AcDbEntity
  8
レイヤー_2
 62
     7
  0
LINE
  5
630
100
AcDbEntity
  8
レイヤー_2
 62
     7
100
AcDbLine
 10
144.542082
 20
113.105585
 30
0.0
 11
144.542082
 21
114.460197
 31
0.0
  0
LINE
  5
62F
100
AcDbEntity
  8
レイヤー_2
 62
     7
100
AcDbLine
 10
144.542082
 20
117.792982
 30
0.0
 11
144.542082
 21
119.120378
 31
0.0
  0
LINE
  5
62E
100
AcDbEntity
  8
レイヤー_2
 62
     7
100
AcDbLine
 10
168.601251
 20
113.105585
 30
0.0
 11
168.601251
 21
119.120378
 31
0.0
  0
LINE
  5
62D
100
AcDbEntity
  8
レイヤー_2
 62
     7
100
AcDbLine
 10
144.542082
 20
119.120378
 30
0.0
 11
144.542082
 21
119.553771
 31
0.0
  0
LINE
  5
62C
100
AcDbEntity
  8
レイヤー_2
 62
     7
100
AcDbLine
 10
168.601251
 20
119.120378
 30
0.0
 11
168.601251
 21
119.553771
 31
0.0
  0
LINE
  5
62B
100
AcDbEntity
  8
レイヤー_2
 62
     7
100
AcDbLine
 10
144.542082
 20
112.699064
 30
0.0
 11
144.542082
 21
113.105585
 31
0.0
  0
LINE
  5
62A
100
AcDbEntity
  8
レイヤー_2
 62
     7
100
AcDbLine
 10
168.601251
 20
112.699064
 30
0.0
 11
168.601251
 21
113.105585
 31
0.0
  0
LINE
  5
629
100
AcDbEntity
  8
レイヤー_2
 62
     7
100
AcDbLine
 10
144.542082
 20
119.553771
 30
0.0
 11
144.542082
 21
120.204205
 31
0.0
  0
LINE
  5
628
100
AcDbEntity
  8
レイヤー_2
 62
     7
100
AcDbLine
 10
168.601251
 20
119.553771
 30
0.0
 11
168.601251
 21
120.204205
 31
0.0
  0
LINE
  5
627
100
AcDbEntity
  8
レイヤー_2
 62
     7
100
AcDbLine
 10
144.542082
 20
112.048975
 30
0.0
 11
144.542082
 21
112.699064
 31
0.0
  0
LINE
  5
626
100
AcDbEntity
  8
レイヤー_2
 62
     7
100
AcDbLine
 10
168.601251
 20
112.048975
 30
0.0
 11
168.601251
 21
112.699064
 31
0.0
  0
LINE
  5
625
100
AcDbEntity
  8
レイヤー_2
 62
     7
100
AcDbLine
 10
144.542082
 20
120.204205
 30
0.0
 11
144.542082
 21
120.420901
 31
0.0
  0
LINE
  5
624
100
AcDbEntity
  8
レイヤー_2
 62
     7
100
AcDbLine
 10
168.601251
 20
120.204205
 30
0.0
 11
168.601251
 21
120.420901
 31
0.0
  0
LINE
  5
623
100
AcDbEntity
  8
レイヤー_2
 62
     7
100
AcDbLine
 10
144.542082
 20
111.832278
 30
0.0
 11
144.542082
 21
112.048975
 31
0.0
  0
LINE
  5
622
100
AcDbEntity
  8
レイヤー_2
 62
     7
100
AcDbLine
 10
168.601251
 20
111.832278
 30
0.0
 11
168.601251
 21
112.048975
 31
0.0
  0
POLYLINE
  5
61C
100
AcDbEntity
  8
レイヤー_2
 62
     7
100
AcDb2dPolyline
 66
     1
 10
0.0
 20
0.0
 30
0.0
  0
VERTEX
  5
61D
100
AcDbEntity
  8
レイヤー_2
 62
     7
100
AcDbVertex
100
AcDb2dVertex
 10
145.27382
 20
125.162042
 30
0.0
  0
VERTEX
  5
61E
100
AcDbEntity
  8
レイヤー_2
 62
     7
100
AcDbVertex
100
AcDb2dVertex
 10
144.921731
 20
125.053866
 30
0.0
  0
VERTEX
  5
61F
100
AcDbEntity
  8
レイヤー_2
 62
     7
100
AcDbVertex
100
AcDb2dVertex
 10
144.623386
 20
124.782737
 30
0.0
  0
VERTEX
  5
620
100
AcDbEntity
  8
レイヤー_2
 62
     7
100
AcDbVertex
100
AcDb2dVertex
 10
144.542082
 20
124.403432
 30
0.0
  0
SEQEND
  5
621
100
AcDbEntity
  8
レイヤー_2
 62
     7
  0
LINE
  5
61B
100
AcDbEntity
  8
レイヤー_2
 62
     7
100
AcDbLine
 10
145.27382
 20
125.162042
 30
0.0
 11
146.953649
 21
125.162042
 31
0.0
  0
POLYLINE
  5
615
100
AcDbEntity
  8
レイヤー_2
 62
     7
100
AcDb2dPolyline
 66
     1
 10
0.0
 20
0.0
 30
0.0
  0
VERTEX
  5
616
100
AcDbEntity
  8
レイヤー_2
 62
     7
100
AcDbVertex
100
AcDb2dVertex
 10
147.685042
 20
124.592912
 30
0.0
  0
VERTEX
  5
617
100
AcDbEntity
  8
レイヤー_2
 62
     7
100
AcDbVertex
100
AcDb2dVertex
 10
147.604083
 20
124.782737
 30
0.0
  0
VERTEX
  5
618
100
AcDbEntity
  8
レイヤー_2
 62
     7
100
AcDbVertex
100
AcDb2dVertex
 10
147.332609
 20
125.053866
 30
0.0
  0
VERTEX
  5
619
100
AcDbEntity
  8
レイヤー_2
 62
     7
100
AcDbVertex
100
AcDb2dVertex
 10
146.953649
 20
125.162042
 30
0.0
  0
SEQEND
  5
61A
100
AcDbEntity
  8
レイヤー_2
 62
     7
  0
LINE
  5
614
100
AcDbEntity
  8
レイヤー_2
 62
     7
100
AcDbLine
 10
147.685042
 20
124.592912
 30
0.0
 11
148.200084
 21
122.696731
 31
0.0
  0
POLYLINE
  5
60E
100
AcDbEntity
  8
レイヤー_2
 62
     7
100
AcDb2dPolyline
 66
     1
 10
0.0
 20
0.0
 30
0.0
  0
VERTEX
  5
60F
100
AcDbEntity
  8
レイヤー_2
 62
     7
100
AcDbVertex
100
AcDb2dVertex
 10
148.200084
 20
122.696731
 30
0.0
  0
VERTEX
  5
610
100
AcDbEntity
  8
レイヤー_2
 62
     7
100
AcDbVertex
100
AcDb2dVertex
 10
148.281388
 20
122.506906
 30
0.0
  0
VERTEX
  5
611
100
AcDbEntity
  8
レイヤー_2
 62
     7
100
AcDbVertex
100
AcDb2dVertex
 10
148.552173
 20
122.236122
 30
0.0
  0
VERTEX
  5
612
100
AcDbEntity
  8
レイヤー_2
 62
     7
100
AcDbVertex
100
AcDb2dVertex
 10
148.931133
 20
122.127601
 30
0.0
  0
SEQEND
  5
613
100
AcDbEntity
  8
レイヤー_2
 62
     7
  0
LINE
  5
60D
100
AcDbEntity
  8
レイヤー_2
 62
     7
100
AcDbLine
 10
148.931133
 20
122.127601
 30
0.0
 11
156.950971
 21
122.127601
 31
0.0
  0
LINE
  5
60C
100
AcDbEntity
  8
レイヤー_2
 62
     7
100
AcDbLine
 10
160.933846
 20
123.997255
 30
0.0
 11
161.069238
 21
124.592912
 31
0.0
  0
POLYLINE
  5
606
100
AcDbEntity
  8
レイヤー_2
 62
     7
100
AcDb2dPolyline
 66
     1
 10
0.0
 20
0.0
 30
0.0
  0
VERTEX
  5
607
100
AcDbEntity
  8
レイヤー_2
 62
     7
100
AcDbVertex
100
AcDb2dVertex
 10
161.800632
 20
125.162042
 30
0.0
  0
VERTEX
  5
608
100
AcDbEntity
  8
レイヤー_2
 62
     7
100
AcDbVertex
100
AcDb2dVertex
 10
161.421327
 20
125.053866
 30
0.0
  0
VERTEX
  5
609
100
AcDbEntity
  8
レイヤー_2
 62
     7
100
AcDbVertex
100
AcDb2dVertex
 10
161.150543
 20
124.782737
 30
0.0
  0
VERTEX
  5
60A
100
AcDbEntity
  8
レイヤー_2
 62
     7
100
AcDbVertex
100
AcDb2dVertex
 10
161.069238
 20
124.592912
 30
0.0
  0
SEQEND
  5
60B
100
AcDbEntity
  8
レイヤー_2
 62
     7
  0
LINE
  5
605
100
AcDbEntity
  8
レイヤー_2
 62
     7
100
AcDbLine
 10
161.800632
 20
125.162042
 30
0.0
 11
163.669941
 21
125.162042
 31
0.0
  0
POLYLINE
  5
5FF
100
AcDbEntity
  8
レイヤー_2
 62
     7
100
AcDb2dPolyline
 66
     1
 10
0.0
 20
0.0
 30
0.0
  0
VERTEX
  5
600
100
AcDbEntity
  8
レイヤー_2
 62
     7
100
AcDbVertex
100
AcDb2dVertex
 10
164.374807
 20
124.592912
 30
0.0
  0
VERTEX
  5
601
100
AcDbEntity
  8
レイヤー_2
 62
     7
100
AcDbVertex
100
AcDb2dVertex
 10
164.320375
 20
124.782737
 30
0.0
  0
VERTEX
  5
602
100
AcDbEntity
  8
レイヤー_2
 62
     7
100
AcDbVertex
100
AcDb2dVertex
 10
164.022374
 20
125.053866
 30
0.0
  0
VERTEX
  5
603
100
AcDbEntity
  8
レイヤー_2
 62
     7
100
AcDbVertex
100
AcDb2dVertex
 10
163.669941
 20
125.162042
 30
0.0
  0
SEQEND
  5
604
100
AcDbEntity
  8
レイヤー_2
 62
     7
  0
LINE
  5
5FE
100
AcDbEntity
  8
レイヤー_2
 62
     7
100
AcDbLine
 10
164.374807
 20
124.592912
 30
0.0
 11
164.537416
 21
123.997255
 31
0.0
  0
LINE
  5
5FD
100
AcDbEntity
  8
レイヤー_2
 62
     7
100
AcDbLine
 10
168.601251
 20
121.395863
 30
0.0
 11
168.519946
 21
121.72108
 31
0.0
  0
LINE
  5
5FC
100
AcDbEntity
  8
レイヤー_2
 62
     7
100
AcDbLine
 10
144.542082
 20
120.420901
 30
0.0
 11
144.542082
 21
124.403432
 31
0.0
  0
LINE
  5
5FB
100
AcDbEntity
  8
レイヤー_2
 62
     7
100
AcDbLine
 10
168.601251
 20
120.420901
 30
0.0
 11
168.601251
 21
121.395863
 31
0.0
  0
LINE
  5
5FA
100
AcDbEntity
  8
レイヤー_2
 62
     7
100
AcDbLine
 10
164.645592
 20
108.608013
 30
0.0
 11
164.374807
 21
107.659578
 31
0.0
  0
POLYLINE
  5
5F4
100
AcDbEntity
  8
レイヤー_2
 62
     7
100
AcDb2dPolyline
 66
     1
 10
0.0
 20
0.0
 30
0.0
  0
VERTEX
  5
5F5
100
AcDbEntity
  8
レイヤー_2
 62
     7
100
AcDbVertex
100
AcDb2dVertex
 10
163.669941
 20
107.090793
 30
0.0
  0
VERTEX
  5
5F6
100
AcDbEntity
  8
レイヤー_2
 62
     7
100
AcDbVertex
100
AcDb2dVertex
 10
164.022374
 20
107.199314
 30
0.0
  0
VERTEX
  5
5F7
100
AcDbEntity
  8
レイヤー_2
 62
     7
100
AcDbVertex
100
AcDb2dVertex
 10
164.320375
 20
107.470098
 30
0.0
  0
VERTEX
  5
5F8
100
AcDbEntity
  8
レイヤー_2
 62
     7
100
AcDbVertex
100
AcDb2dVertex
 10
164.374807
 20
107.659578
 30
0.0
  0
SEQEND
  5
5F9
100
AcDbEntity
  8
レイヤー_2
 62
     7
  0
LINE
  5
5F3
100
AcDbEntity
  8
レイヤー_2
 62
     7
100
AcDbLine
 10
161.800632
 20
107.090793
 30
0.0
 11
163.669941
 21
107.090793
 31
0.0
  0
POLYLINE
  5
5ED
100
AcDbEntity
  8
レイヤー_2
 62
     7
100
AcDb2dPolyline
 66
     1
 10
0.0
 20
0.0
 30
0.0
  0
VERTEX
  5
5EE
100
AcDbEntity
  8
レイヤー_2
 62
     7
100
AcDbVertex
100
AcDb2dVertex
 10
161.069238
 20
107.659578
 30
0.0
  0
VERTEX
  5
5EF
100
AcDbEntity
  8
レイヤー_2
 62
     7
100
AcDbVertex
100
AcDb2dVertex
 10
161.150543
 20
107.470098
 30
0.0
  0
VERTEX
  5
5F0
100
AcDbEntity
  8
レイヤー_2
 62
     7
100
AcDbVertex
100
AcDb2dVertex
 10
161.421327
 20
107.199314
 30
0.0
  0
VERTEX
  5
5F1
100
AcDbEntity
  8
レイヤー_2
 62
     7
100
AcDbVertex
100
AcDb2dVertex
 10
161.800632
 20
107.090793
 30
0.0
  0
SEQEND
  5
5F2
100
AcDbEntity
  8
レイヤー_2
 62
     7
  0
LINE
  5
5EC
100
AcDbEntity
  8
レイヤー_2
 62
     7
100
AcDbLine
 10
161.069238
 20
107.659578
 30
0.0
 11
160.825326
 21
108.608013
 31
0.0
  0
LINE
  5
5EB
100
AcDbEntity
  8
レイヤー_2
 62
     7
100
AcDbLine
 10
156.950971
 20
110.098362
 30
0.0
 11
148.931133
 21
110.098362
 31
0.0
  0
POLYLINE
  5
5E5
100
AcDbEntity
  8
レイヤー_2
 62
     7
100
AcDb2dPolyline
 66
     1
 10
0.0
 20
0.0
 30
0.0
  0
VERTEX
  5
5E6
100
AcDbEntity
  8
レイヤー_2
 62
     7
100
AcDbVertex
100
AcDb2dVertex
 10
148.931133
 20
110.098362
 30
0.0
  0
VERTEX
  5
5E7
100
AcDbEntity
  8
レイヤー_2
 62
     7
100
AcDbVertex
100
AcDb2dVertex
 10
148.552173
 20
110.017057
 30
0.0
  0
VERTEX
  5
5E8
100
AcDbEntity
  8
レイヤー_2
 62
     7
100
AcDbVertex
100
AcDb2dVertex
 10
148.281388
 20
109.745928
 30
0.0
  0
VERTEX
  5
5E9
100
AcDbEntity
  8
レイヤー_2
 62
     7
100
AcDbVertex
100
AcDb2dVertex
 10
148.200084
 20
109.556448
 30
0.0
  0
SEQEND
  5
5EA
100
AcDbEntity
  8
レイヤー_2
 62
     7
  0
LINE
  5
5E4
100
AcDbEntity
  8
レイヤー_2
 62
     7
100
AcDbLine
 10
148.200084
 20
109.556448
 30
0.0
 11
147.685042
 21
107.659578
 31
0.0
  0
POLYLINE
  5
5DE
100
AcDbEntity
  8
レイヤー_2
 62
     7
100
AcDb2dPolyline
 66
     1
 10
0.0
 20
0.0
 30
0.0
  0
VERTEX
  5
5DF
100
AcDbEntity
  8
レイヤー_2
 62
     7
100
AcDbVertex
100
AcDb2dVertex
 10
146.953649
 20
107.090793
 30
0.0
  0
VERTEX
  5
5E0
100
AcDbEntity
  8
レイヤー_2
 62
     7
100
AcDbVertex
100
AcDb2dVertex
 10
147.332609
 20
107.199314
 30
0.0
  0
VERTEX
  5
5E1
100
AcDbEntity
  8
レイヤー_2
 62
     7
100
AcDbVertex
100
AcDb2dVertex
 10
147.604083
 20
107.470098
 30
0.0
  0
VERTEX
  5
5E2
100
AcDbEntity
  8
レイヤー_2
 62
     7
100
AcDbVertex
100
AcDb2dVertex
 10
147.685042
 20
107.659578
 30
0.0
  0
SEQEND
  5
5E3
100
AcDbEntity
  8
レイヤー_2
 62
     7
  0
LINE
  5
5DD
100
AcDbEntity
  8
レイヤー_2
 62
     7
100
AcDbLine
 10
145.27382
 20
107.090793
 30
0.0
 11
146.953649
 21
107.090793
 31
0.0
  0
POLYLINE
  5
5D7
100
AcDbEntity
  8
レイヤー_2
 62
     7
100
AcDb2dPolyline
 66
     1
 10
0.0
 20
0.0
 30
0.0
  0
VERTEX
  5
5D8
100
AcDbEntity
  8
レイヤー_2
 62
     7
100
AcDbVertex
100
AcDb2dVertex
 10
144.542082
 20
107.849403
 30
0.0
  0
VERTEX
  5
5D9
100
AcDbEntity
  8
レイヤー_2
 62
     7
100
AcDbVertex
100
AcDb2dVertex
 10
144.623386
 20
107.470098
 30
0.0
  0
VERTEX
  5
5DA
100
AcDbEntity
  8
レイヤー_2
 62
     7
100
AcDbVertex
100
AcDb2dVertex
 10
144.921731
 20
107.199314
 30
0.0
  0
VERTEX
  5
5DB
100
AcDbEntity
  8
レイヤー_2
 62
     7
100
AcDbVertex
100
AcDb2dVertex
 10
145.27382
 20
107.090793
 30
0.0
  0
SEQEND
  5
5DC
100
AcDbEntity
  8
レイヤー_2
 62
     7
  0
LINE
  5
5D6
100
AcDbEntity
  8
レイヤー_2
 62
     7
100
AcDbLine
 10
168.519946
 20
110.531755
 30
0.0
 11
168.601251
 21
110.856627
 31
0.0
  0
LINE
  5
5D5
100
AcDbEntity
  8
レイヤー_2
 62
     7
100
AcDbLine
 10
144.542082
 20
107.849403
 30
0.0
 11
144.542082
 21
111.832278
 31
0.0
  0
LINE
  5
5D4
100
AcDbEntity
  8
レイヤー_2
 62
     7
100
AcDbLine
 10
168.601251
 20
110.856627
 30
0.0
 11
168.601251
 21
111.832278
 31
0.0
  0
LINE
  5
5D3
100
AcDbEntity
  8
レイヤー_2
 62
     7
100
AcDbLine
 10
164.753768
 20
124.105431
 30
0.0
 11
168.221601
 21
124.105431
 31
0.0
  0
LINE
  5
5D2
100
AcDbEntity
  8
レイヤー_2
 62
     7
100
AcDbLine
 10
156.950971
 20
108.608013
 30
0.0
 11
161.01515
 21
108.608013
 31
0.0
  0
LINE
  5
5D1
100
AcDbEntity
  8
レイヤー_2
 62
     7
100
AcDbLine
 10
141.236857
 20
114.108108
 30
0.0
 11
141.236857
 21
118.145071
 31
0.0
  0
LINE
  5
5D0
100
AcDbEntity
  8
レイヤー_2
 62
     7
100
AcDbLine
 10
157.926278
 20
114.460197
 30
0.0
 11
157.926278
 21
114.487413
 31
0.0
  0
POLYLINE
  5
5CB
100
AcDbEntity
  8
レイヤー_2
 62
     7
100
AcDb2dPolyline
 66
     1
 10
0.0
 20
0.0
 30
0.0
  0
VERTEX
  5
5CC
100
AcDbEntity
  8
レイヤー_2
 62
     7
100
AcDbVertex
100
AcDb2dVertex
 10
158.576712
 20
116.41081
 30
0.0
  0
VERTEX
  5
5CD
100
AcDbEntity
  8
レイヤー_2
 62
     7
100
AcDbVertex
100
AcDb2dVertex
 10
158.6308
 20
116.492459
 30
0.0
  0
VERTEX
  5
5CE
100
AcDbEntity
  8
レイヤー_2
 62
     7
100
AcDbVertex
100
AcDb2dVertex
 10
158.684888
 20
116.627851
 30
0.0
  0
SEQEND
  5
5CF
100
AcDbEntity
  8
レイヤー_2
 62
     7
  0
POLYLINE
  5
5C6
100
AcDbEntity
  8
レイヤー_2
 62
     7
100
AcDb2dPolyline
 66
     1
 10
0.0
 20
0.0
 30
0.0
  0
VERTEX
  5
5C7
100
AcDbEntity
  8
レイヤー_2
 62
     7
100
AcDbVertex
100
AcDb2dVertex
 10
158.684888
 20
115.625328
 30
0.0
  0
VERTEX
  5
5C8
100
AcDbEntity
  8
レイヤー_2
 62
     7
100
AcDbVertex
100
AcDb2dVertex
 10
158.6308
 20
115.761065
 30
0.0
  0
VERTEX
  5
5C9
100
AcDbEntity
  8
レイヤー_2
 62
     7
100
AcDbVertex
100
AcDb2dVertex
 10
158.576712
 20
115.842025
 30
0.0
  0
SEQEND
  5
5CA
100
AcDbEntity
  8
レイヤー_2
 62
     7
  0
POLYLINE
  5
5C1
100
AcDbEntity
  8
レイヤー_2
 62
     7
100
AcDb2dPolyline
 66
     1
 10
0.0
 20
0.0
 30
0.0
  0
VERTEX
  5
5C2
100
AcDbEntity
  8
レイヤー_2
 62
     7
100
AcDbVertex
100
AcDb2dVertex
 10
158.576712
 20
115.842025
 30
0.0
  0
VERTEX
  5
5C3
100
AcDbEntity
  8
レイヤー_2
 62
     7
100
AcDbVertex
100
AcDb2dVertex
 10
158.576712
 20
116.32985
 30
0.0
  0
VERTEX
  5
5C4
100
AcDbEntity
  8
レイヤー_2
 62
     7
100
AcDbVertex
100
AcDb2dVertex
 10
158.576712
 20
116.41081
 30
0.0
  0
SEQEND
  5
5C5
100
AcDbEntity
  8
レイヤー_2
 62
     7
  0
POLYLINE
  5
5BB
100
AcDbEntity
  8
レイヤー_2
 62
     7
100
AcDb2dPolyline
 66
     1
 10
0.0
 20
0.0
 30
0.0
  0
VERTEX
  5
5BC
100
AcDbEntity
  8
レイヤー_2
 62
     7
100
AcDbVertex
100
AcDb2dVertex
 10
159.606106
 20
113.674715
 30
0.0
  0
VERTEX
  5
5BD
100
AcDbEntity
  8
レイヤー_2
 62
     7
100
AcDbVertex
100
AcDb2dVertex
 10
159.68741
 20
113.566195
 30
0.0
  0
VERTEX
  5
5BE
100
AcDbEntity
  8
レイヤー_2
 62
     7
100
AcDbVertex
100
AcDb2dVertex
 10
160.175236
 20
113.078369
 30
0.0
  0
VERTEX
  5
5BF
100
AcDbEntity
  8
レイヤー_2
 62
     7
100
AcDbVertex
100
AcDb2dVertex
 10
160.283412
 20
112.997409
 30
0.0
  0
SEQEND
  5
5C0
100
AcDbEntity
  8
レイヤー_2
 62
     7
  0
POLYLINE
  5
5B6
100
AcDbEntity
  8
レイヤー_2
 62
     7
100
AcDb2dPolyline
 66
     1
 10
0.0
 20
0.0
 30
0.0
  0
VERTEX
  5
5B7
100
AcDbEntity
  8
レイヤー_2
 62
     7
100
AcDbVertex
100
AcDb2dVertex
 10
162.261241
 20
112.157495
 30
0.0
  0
VERTEX
  5
5B8
100
AcDbEntity
  8
レイヤー_2
 62
     7
100
AcDbVertex
100
AcDb2dVertex
 10
162.721851
 20
112.130279
 30
0.0
  0
VERTEX
  5
5B9
100
AcDbEntity
  8
レイヤー_2
 62
     7
100
AcDbVertex
100
AcDb2dVertex
 10
163.209676
 20
112.157495
 30
0.0
  0
SEQEND
  5
5BA
100
AcDbEntity
  8
レイヤー_2
 62
     7
  0
POLYLINE
  5
5B0
100
AcDbEntity
  8
レイヤー_2
 62
     7
100
AcDb2dPolyline
 66
     1
 10
0.0
 20
0.0
 30
0.0
  0
VERTEX
  5
5B1
100
AcDbEntity
  8
レイヤー_2
 62
     7
100
AcDbVertex
100
AcDb2dVertex
 10
165.187161
 20
112.997409
 30
0.0
  0
VERTEX
  5
5B2
100
AcDbEntity
  8
レイヤー_2
 62
     7
100
AcDbVertex
100
AcDb2dVertex
 10
165.295681
 20
113.078369
 30
0.0
  0
VERTEX
  5
5B3
100
AcDbEntity
  8
レイヤー_2
 62
     7
100
AcDbVertex
100
AcDb2dVertex
 10
165.783507
 20
113.566195
 30
0.0
  0
VERTEX
  5
5B4
100
AcDbEntity
  8
レイヤー_2
 62
     7
100
AcDbVertex
100
AcDb2dVertex
 10
165.864467
 20
113.674715
 30
0.0
  0
SEQEND
  5
5B5
100
AcDbEntity
  8
レイヤー_2
 62
     7
  0
LINE
  5
5AF
100
AcDbEntity
  8
レイヤー_2
 62
     7
100
AcDbLine
 10
166.731597
 20
116.113154
 30
0.0
 11
166.677509
 21
116.600635
 31
0.0
  0
LINE
  5
5AE
100
AcDbEntity
  8
レイヤー_2
 62
     7
100
AcDbLine
 10
166.677509
 20
115.6522
 30
0.0
 11
166.731597
 21
116.113154
 31
0.0
  0
POLYLINE
  5
5A8
100
AcDbEntity
  8
レイヤー_2
 62
     7
100
AcDb2dPolyline
 66
     1
 10
0.0
 20
0.0
 30
0.0
  0
VERTEX
  5
5A9
100
AcDbEntity
  8
レイヤー_2
 62
     7
100
AcDbVertex
100
AcDb2dVertex
 10
165.864467
 20
118.578464
 30
0.0
  0
VERTEX
  5
5AA
100
AcDbEntity
  8
レイヤー_2
 62
     7
100
AcDbVertex
100
AcDb2dVertex
 10
165.783507
 20
118.68664
 30
0.0
  0
VERTEX
  5
5AB
100
AcDbEntity
  8
レイヤー_2
 62
     7
100
AcDbVertex
100
AcDb2dVertex
 10
165.295681
 20
119.174466
 30
0.0
  0
VERTEX
  5
5AC
100
AcDbEntity
  8
レイヤー_2
 62
     7
100
AcDbVertex
100
AcDb2dVertex
 10
165.187161
 20
119.25577
 30
0.0
  0
SEQEND
  5
5AD
100
AcDbEntity
  8
レイヤー_2
 62
     7
  0
POLYLINE
  5
5A3
100
AcDbEntity
  8
レイヤー_2
 62
     7
100
AcDb2dPolyline
 66
     1
 10
0.0
 20
0.0
 30
0.0
  0
VERTEX
  5
5A4
100
AcDbEntity
  8
レイヤー_2
 62
     7
100
AcDbVertex
100
AcDb2dVertex
 10
163.209676
 20
120.095684
 30
0.0
  0
VERTEX
  5
5A5
100
AcDbEntity
  8
レイヤー_2
 62
     7
100
AcDbVertex
100
AcDb2dVertex
 10
162.721851
 20
120.122556
 30
0.0
  0
VERTEX
  5
5A6
100
AcDbEntity
  8
レイヤー_2
 62
     7
100
AcDbVertex
100
AcDb2dVertex
 10
162.261241
 20
120.095684
 30
0.0
  0
SEQEND
  5
5A7
100
AcDbEntity
  8
レイヤー_2
 62
     7
  0
POLYLINE
  5
59D
100
AcDbEntity
  8
レイヤー_2
 62
     7
100
AcDb2dPolyline
 66
     1
 10
0.0
 20
0.0
 30
0.0
  0
VERTEX
  5
59E
100
AcDbEntity
  8
レイヤー_2
 62
     7
100
AcDbVertex
100
AcDb2dVertex
 10
160.283412
 20
119.25577
 30
0.0
  0
VERTEX
  5
59F
100
AcDbEntity
  8
レイヤー_2
 62
     7
100
AcDbVertex
100
AcDb2dVertex
 10
160.175236
 20
119.174466
 30
0.0
  0
VERTEX
  5
5A0
100
AcDbEntity
  8
レイヤー_2
 62
     7
100
AcDbVertex
100
AcDb2dVertex
 10
159.68741
 20
118.68664
 30
0.0
  0
VERTEX
  5
5A1
100
AcDbEntity
  8
レイヤー_2
 62
     7
100
AcDbVertex
100
AcDb2dVertex
 10
159.606106
 20
118.578464
 30
0.0
  0
SEQEND
  5
5A2
100
AcDbEntity
  8
レイヤー_2
 62
     7
  0
LINE
  5
59C
100
AcDbEntity
  8
レイヤー_2
 62
     7
100
AcDbLine
 10
150.313306
 20
115.896113
 30
0.0
 11
150.340177
 21
116.113154
 31
0.0
  0
LINE
  5
59B
100
AcDbEntity
  8
レイヤー_2
 62
     7
100
AcDbLine
 10
150.340177
 20
116.113154
 30
0.0
 11
150.313306
 21
116.356722
 31
0.0
  0
LINE
  5
59A
100
AcDbEntity
  8
レイヤー_2
 62
     7
100
AcDbLine
 10
145.653125
 20
114.378893
 30
0.0
 11
145.625909
 21
114.378893
 31
0.0
  0
LINE
  5
599
100
AcDbEntity
  8
レイヤー_2
 62
     7
100
AcDbLine
 10
145.4633
 20
114.460197
 30
0.0
 11
145.436428
 21
114.460197
 31
0.0
  0
LINE
  5
598
100
AcDbEntity
  8
レイヤー_2
 62
     7
100
AcDbLine
 10
149.392087
 20
114.108108
 30
0.0
 11
149.717304
 21
114.432981
 31
0.0
  0
POLYLINE
  5
593
100
AcDbEntity
  8
レイヤー_2
 62
     7
100
AcDb2dPolyline
 66
     1
 10
0.0
 20
0.0
 30
0.0
  0
VERTEX
  5
594
100
AcDbEntity
  8
レイヤー_2
 62
     7
100
AcDbVertex
100
AcDb2dVertex
 10
147.468346
 20
113.512107
 30
0.0
  0
VERTEX
  5
595
100
AcDbEntity
  8
レイヤー_2
 62
     7
100
AcDbVertex
100
AcDb2dVertex
 10
147.685042
 20
113.48489
 30
0.0
  0
VERTEX
  5
596
100
AcDbEntity
  8
レイヤー_2
 62
     7
100
AcDbVertex
100
AcDb2dVertex
 10
147.928955
 20
113.512107
 30
0.0
  0
SEQEND
  5
597
100
AcDbEntity
  8
レイヤー_2
 62
     7
  0
LINE
  5
592
100
AcDbEntity
  8
レイヤー_2
 62
     7
100
AcDbLine
 10
145.680341
 20
114.432981
 30
0.0
 11
146.005558
 21
114.108108
 31
0.0
  0
LINE
  5
591
100
AcDbEntity
  8
レイヤー_2
 62
     7
100
AcDbLine
 10
146.005558
 20
118.145071
 30
0.0
 11
145.680341
 21
117.819854
 31
0.0
  0
POLYLINE
  5
58C
100
AcDbEntity
  8
レイヤー_2
 62
     7
100
AcDb2dPolyline
 66
     1
 10
0.0
 20
0.0
 30
0.0
  0
VERTEX
  5
58D
100
AcDbEntity
  8
レイヤー_2
 62
     7
100
AcDbVertex
100
AcDb2dVertex
 10
147.928955
 20
118.741073
 30
0.0
  0
VERTEX
  5
58E
100
AcDbEntity
  8
レイヤー_2
 62
     7
100
AcDbVertex
100
AcDb2dVertex
 10
147.685042
 20
118.767944
 30
0.0
  0
VERTEX
  5
58F
100
AcDbEntity
  8
レイヤー_2
 62
     7
100
AcDbVertex
100
AcDb2dVertex
 10
147.468346
 20
118.741073
 30
0.0
  0
SEQEND
  5
590
100
AcDbEntity
  8
レイヤー_2
 62
     7
  0
LINE
  5
58B
100
AcDbEntity
  8
レイヤー_2
 62
     7
100
AcDbLine
 10
149.717304
 20
117.819854
 30
0.0
 11
149.392087
 21
118.145071
 31
0.0
  0
LINE
  5
58A
100
AcDbEntity
  8
レイヤー_2
 62
     7
100
AcDbLine
 10
145.056779
 20
116.113154
 30
0.0
 11
145.056779
 21
115.896113
 31
0.0
  0
LINE
  5
589
100
AcDbEntity
  8
レイヤー_2
 62
     7
100
AcDbLine
 10
149.960872
 20
114.460197
 30
0.0
 11
149.933656
 21
114.460197
 31
0.0
  0
LINE
  5
588
100
AcDbEntity
  8
レイヤー_2
 62
     7
100
AcDbLine
 10
145.056779
 20
116.356722
 30
0.0
 11
145.056779
 21
116.113154
 31
0.0
  0
LINE
  5
587
100
AcDbEntity
  8
レイヤー_2
 62
     7
100
AcDbLine
 10
149.933656
 20
117.792982
 30
0.0
 11
149.960872
 21
117.765766
 31
0.0
  0
LINE
  5
586
100
AcDbEntity
  8
レイヤー_2
 62
     7
100
AcDbLine
 10
145.436428
 20
117.765766
 30
0.0
 11
145.4633
 21
117.792982
 31
0.0
  0
LINE
  5
585
100
AcDbEntity
  8
レイヤー_2
 62
     7
100
AcDbLine
 10
145.625909
 20
117.873942
 30
0.0
 11
145.653125
 21
117.873942
 31
0.0
  0
POLYLINE
  5
580
100
AcDbEntity
  8
レイヤー_2
 62
     7
100
AcDb2dPolyline
 66
     1
 10
0.0
 20
0.0
 30
0.0
  0
VERTEX
  5
581
100
AcDbEntity
  8
レイヤー_2
 62
     7
100
AcDbVertex
100
AcDb2dVertex
 10
161.367239
 20
112.130279
 30
0.0
  0
VERTEX
  5
582
100
AcDbEntity
  8
レイヤー_2
 62
     7
100
AcDbVertex
100
AcDb2dVertex
 10
161.394111
 20
112.157495
 30
0.0
  0
VERTEX
  5
583
100
AcDbEntity
  8
レイヤー_2
 62
     7
100
AcDbVertex
100
AcDb2dVertex
 10
161.421327
 20
112.184711
 30
0.0
  0
SEQEND
  5
584
100
AcDbEntity
  8
レイヤー_2
 62
     7
  0
POLYLINE
  5
57A
100
AcDbEntity
  8
レイヤー_2
 62
     7
100
AcDb2dPolyline
 66
     1
 10
0.0
 20
0.0
 30
0.0
  0
VERTEX
  5
57B
100
AcDbEntity
  8
レイヤー_2
 62
     7
100
AcDbVertex
100
AcDb2dVertex
 10
164.022374
 20
120.068812
 30
0.0
  0
VERTEX
  5
57C
100
AcDbEntity
  8
レイヤー_2
 62
     7
100
AcDbVertex
100
AcDb2dVertex
 10
164.04959
 20
120.068812
 30
0.0
  0
VERTEX
  5
57D
100
AcDbEntity
  8
レイヤー_2
 62
     7
100
AcDbVertex
100
AcDb2dVertex
 10
164.076462
 20
120.095684
 30
0.0
  0
VERTEX
  5
57E
100
AcDbEntity
  8
レイヤー_2
 62
     7
100
AcDbVertex
100
AcDb2dVertex
 10
164.103678
 20
120.122556
 30
0.0
  0
SEQEND
  5
57F
100
AcDbEntity
  8
レイヤー_2
 62
     7
  0
POLYLINE
  5
575
100
AcDbEntity
  8
レイヤー_2
 62
     7
100
AcDb2dPolyline
 66
     1
 10
0.0
 20
0.0
 30
0.0
  0
VERTEX
  5
576
100
AcDbEntity
  8
レイヤー_2
 62
     7
100
AcDbVertex
100
AcDb2dVertex
 10
166.379164
 20
118.117855
 30
0.0
  0
VERTEX
  5
577
100
AcDbEntity
  8
レイヤー_2
 62
     7
100
AcDbVertex
100
AcDb2dVertex
 10
166.379164
 20
118.172287
 30
0.0
  0
VERTEX
  5
578
100
AcDbEntity
  8
レイヤー_2
 62
     7
100
AcDbVertex
100
AcDb2dVertex
 10
166.406725
 20
118.198815
 30
0.0
  0
SEQEND
  5
579
100
AcDbEntity
  8
レイヤー_2
 62
     7
  0
POLYLINE
  5
570
100
AcDbEntity
  8
レイヤー_2
 62
     7
100
AcDb2dPolyline
 66
     1
 10
0.0
 20
0.0
 30
0.0
  0
VERTEX
  5
571
100
AcDbEntity
  8
レイヤー_2
 62
     7
100
AcDbVertex
100
AcDb2dVertex
 10
161.367239
 20
120.122556
 30
0.0
  0
VERTEX
  5
572
100
AcDbEntity
  8
レイヤー_2
 62
     7
100
AcDbVertex
100
AcDb2dVertex
 10
161.394111
 20
120.095684
 30
0.0
  0
VERTEX
  5
573
100
AcDbEntity
  8
レイヤー_2
 62
     7
100
AcDbVertex
100
AcDb2dVertex
 10
161.421327
 20
120.068812
 30
0.0
  0
SEQEND
  5
574
100
AcDbEntity
  8
レイヤー_2
 62
     7
  0
POLYLINE
  5
56A
100
AcDbEntity
  8
レイヤー_2
 62
     7
100
AcDb2dPolyline
 66
     1
 10
0.0
 20
0.0
 30
0.0
  0
VERTEX
  5
56B
100
AcDbEntity
  8
レイヤー_2
 62
     7
100
AcDbVertex
100
AcDb2dVertex
 10
164.022374
 20
112.184711
 30
0.0
  0
VERTEX
  5
56C
100
AcDbEntity
  8
レイヤー_2
 62
     7
100
AcDbVertex
100
AcDb2dVertex
 10
164.04959
 20
112.184711
 30
0.0
  0
VERTEX
  5
56D
100
AcDbEntity
  8
レイヤー_2
 62
     7
100
AcDbVertex
100
AcDb2dVertex
 10
164.076462
 20
112.157495
 30
0.0
  0
VERTEX
  5
56E
100
AcDbEntity
  8
レイヤー_2
 62
     7
100
AcDbVertex
100
AcDb2dVertex
 10
164.103678
 20
112.130279
 30
0.0
  0
SEQEND
  5
56F
100
AcDbEntity
  8
レイヤー_2
 62
     7
  0
POLYLINE
  5
565
100
AcDbEntity
  8
レイヤー_2
 62
     7
100
AcDb2dPolyline
 66
     1
 10
0.0
 20
0.0
 30
0.0
  0
VERTEX
  5
566
100
AcDbEntity
  8
レイヤー_2
 62
     7
100
AcDbVertex
100
AcDb2dVertex
 10
166.379164
 20
114.13498
 30
0.0
  0
VERTEX
  5
567
100
AcDbEntity
  8
レイヤー_2
 62
     7
100
AcDbVertex
100
AcDb2dVertex
 10
166.379164
 20
114.081236
 30
0.0
  0
VERTEX
  5
568
100
AcDbEntity
  8
レイヤー_2
 62
     7
100
AcDbVertex
100
AcDb2dVertex
 10
166.406725
 20
114.053676
 30
0.0
  0
SEQEND
  5
569
100
AcDbEntity
  8
レイヤー_2
 62
     7
  0
POLYLINE
  5
556
100
AcDbEntity
  8
レイヤー_2
 62
     7
100
AcDb2dPolyline
 66
     1
 10
0.0
 20
0.0
 30
0.0
  0
VERTEX
  5
557
100
AcDbEntity
  8
レイヤー_2
 62
     7
100
AcDbVertex
100
AcDb2dVertex
 10
148.064347
 20
116.113154
 30
0.0
  0
VERTEX
  5
558
100
AcDbEntity
  8
レイヤー_2
 62
     7
100
AcDbVertex
100
AcDb2dVertex
 10
148.009915
 20
116.302634
 30
0.0
  0
VERTEX
  5
559
100
AcDbEntity
  8
レイヤー_2
 62
     7
100
AcDbVertex
100
AcDb2dVertex
 10
147.874867
 20
116.438371
 30
0.0
  0
VERTEX
  5
55A
100
AcDbEntity
  8
レイヤー_2
 62
     7
100
AcDbVertex
100
AcDb2dVertex
 10
147.685042
 20
116.492459
 30
0.0
  0
VERTEX
  5
55B
100
AcDbEntity
  8
レイヤー_2
 62
     7
100
AcDbVertex
100
AcDb2dVertex
 10
147.495218
 20
116.438371
 30
0.0
  0
VERTEX
  5
55C
100
AcDbEntity
  8
レイヤー_2
 62
     7
100
AcDbVertex
100
AcDb2dVertex
 10
147.36017
 20
116.302634
 30
0.0
  0
VERTEX
  5
55D
100
AcDbEntity
  8
レイヤー_2
 62
     7
100
AcDbVertex
100
AcDb2dVertex
 10
147.305737
 20
116.113154
 30
0.0
  0
VERTEX
  5
55E
100
AcDbEntity
  8
レイヤー_2
 62
     7
100
AcDbVertex
100
AcDb2dVertex
 10
147.36017
 20
115.950545
 30
0.0
  0
VERTEX
  5
55F
100
AcDbEntity
  8
レイヤー_2
 62
     7
100
AcDbVertex
100
AcDb2dVertex
 10
147.495218
 20
115.787937
 30
0.0
  0
VERTEX
  5
560
100
AcDbEntity
  8
レイヤー_2
 62
     7
100
AcDbVertex
100
AcDb2dVertex
 10
147.685042
 20
115.761065
 30
0.0
  0
VERTEX
  5
561
100
AcDbEntity
  8
レイヤー_2
 62
     7
100
AcDbVertex
100
AcDb2dVertex
 10
147.874867
 20
115.787937
 30
0.0
  0
VERTEX
  5
562
100
AcDbEntity
  8
レイヤー_2
 62
     7
100
AcDbVertex
100
AcDb2dVertex
 10
148.009915
 20
115.950545
 30
0.0
  0
VERTEX
  5
563
100
AcDbEntity
  8
レイヤー_2
 62
     7
100
AcDbVertex
100
AcDb2dVertex
 10
148.064347
 20
116.113154
 30
0.0
  0
SEQEND
  5
564
100
AcDbEntity
  8
レイヤー_2
 62
     7
  0
POLYLINE
  5
54F
100
AcDbEntity
  8
レイヤー_2
 62
     7
100
AcDb2dPolyline
 66
     1
 10
0.0
 20
0.0
 30
0.0
  0
VERTEX
  5
550
100
AcDbEntity
  8
レイヤー_2
 62
     7
100
AcDbVertex
100
AcDb2dVertex
 10
147.928955
 20
113.512107
 30
0.0
  0
VERTEX
  5
551
100
AcDbEntity
  8
レイヤー_2
 62
     7
100
AcDbVertex
100
AcDb2dVertex
 10
148.145652
 20
113.539323
 30
0.0
  0
VERTEX
  5
552
100
AcDbEntity
  8
レイヤー_2
 62
     7
100
AcDbVertex
100
AcDb2dVertex
 10
148.579045
 20
113.647499
 30
0.0
  0
VERTEX
  5
553
100
AcDbEntity
  8
レイヤー_2
 62
     7
100
AcDbVertex
100
AcDb2dVertex
 10
149.012438
 20
113.837324
 30
0.0
  0
VERTEX
  5
554
100
AcDbEntity
  8
レイヤー_2
 62
     7
100
AcDbVertex
100
AcDb2dVertex
 10
149.392087
 20
114.108108
 30
0.0
  0
SEQEND
  5
555
100
AcDbEntity
  8
レイヤー_2
 62
     7
  0
POLYLINE
  5
548
100
AcDbEntity
  8
レイヤー_2
 62
     7
100
AcDb2dPolyline
 66
     1
 10
0.0
 20
0.0
 30
0.0
  0
VERTEX
  5
549
100
AcDbEntity
  8
レイヤー_2
 62
     7
100
AcDbVertex
100
AcDb2dVertex
 10
146.005558
 20
114.108108
 30
0.0
  0
VERTEX
  5
54A
100
AcDbEntity
  8
レイヤー_2
 62
     7
100
AcDbVertex
100
AcDb2dVertex
 10
146.384519
 20
113.837324
 30
0.0
  0
VERTEX
  5
54B
100
AcDbEntity
  8
レイヤー_2
 62
     7
100
AcDbVertex
100
AcDb2dVertex
 10
146.79104
 20
113.647499
 30
0.0
  0
VERTEX
  5
54C
100
AcDbEntity
  8
レイヤー_2
 62
     7
100
AcDbVertex
100
AcDb2dVertex
 10
147.224433
 20
113.539323
 30
0.0
  0
VERTEX
  5
54D
100
AcDbEntity
  8
レイヤー_2
 62
     7
100
AcDbVertex
100
AcDb2dVertex
 10
147.468346
 20
113.512107
 30
0.0
  0
SEQEND
  5
54E
100
AcDbEntity
  8
レイヤー_2
 62
     7
  0
POLYLINE
  5
541
100
AcDbEntity
  8
レイヤー_2
 62
     7
100
AcDb2dPolyline
 66
     1
 10
0.0
 20
0.0
 30
0.0
  0
VERTEX
  5
542
100
AcDbEntity
  8
レイヤー_2
 62
     7
100
AcDbVertex
100
AcDb2dVertex
 10
145.056779
 20
115.896113
 30
0.0
  0
VERTEX
  5
543
100
AcDbEntity
  8
レイヤー_2
 62
     7
100
AcDbVertex
100
AcDb2dVertex
 10
145.111211
 20
115.679761
 30
0.0
  0
VERTEX
  5
544
100
AcDbEntity
  8
レイヤー_2
 62
     7
100
AcDbVertex
100
AcDb2dVertex
 10
145.219387
 20
115.219151
 30
0.0
  0
VERTEX
  5
545
100
AcDbEntity
  8
レイヤー_2
 62
     7
100
AcDbVertex
100
AcDb2dVertex
 10
145.409212
 20
114.812286
 30
0.0
  0
VERTEX
  5
546
100
AcDbEntity
  8
レイヤー_2
 62
     7
100
AcDbVertex
100
AcDb2dVertex
 10
145.680341
 20
114.432981
 30
0.0
  0
SEQEND
  5
547
100
AcDbEntity
  8
レイヤー_2
 62
     7
  0
POLYLINE
  5
53A
100
AcDbEntity
  8
レイヤー_2
 62
     7
100
AcDb2dPolyline
 66
     1
 10
0.0
 20
0.0
 30
0.0
  0
VERTEX
  5
53B
100
AcDbEntity
  8
レイヤー_2
 62
     7
100
AcDbVertex
100
AcDb2dVertex
 10
145.680341
 20
117.819854
 30
0.0
  0
VERTEX
  5
53C
100
AcDbEntity
  8
レイヤー_2
 62
     7
100
AcDbVertex
100
AcDb2dVertex
 10
145.409212
 20
117.440549
 30
0.0
  0
VERTEX
  5
53D
100
AcDbEntity
  8
レイヤー_2
 62
     7
100
AcDbVertex
100
AcDb2dVertex
 10
145.219387
 20
117.034372
 30
0.0
  0
VERTEX
  5
53E
100
AcDbEntity
  8
レイヤー_2
 62
     7
100
AcDbVertex
100
AcDb2dVertex
 10
145.111211
 20
116.573763
 30
0.0
  0
VERTEX
  5
53F
100
AcDbEntity
  8
レイヤー_2
 62
     7
100
AcDbVertex
100
AcDb2dVertex
 10
145.056779
 20
116.356722
 30
0.0
  0
SEQEND
  5
540
100
AcDbEntity
  8
レイヤー_2
 62
     7
  0
POLYLINE
  5
533
100
AcDbEntity
  8
レイヤー_2
 62
     7
100
AcDb2dPolyline
 66
     1
 10
0.0
 20
0.0
 30
0.0
  0
VERTEX
  5
534
100
AcDbEntity
  8
レイヤー_2
 62
     7
100
AcDbVertex
100
AcDb2dVertex
 10
147.468346
 20
118.741073
 30
0.0
  0
VERTEX
  5
535
100
AcDbEntity
  8
レイヤー_2
 62
     7
100
AcDbVertex
100
AcDb2dVertex
 10
147.224433
 20
118.714201
 30
0.0
  0
VERTEX
  5
536
100
AcDbEntity
  8
レイヤー_2
 62
     7
100
AcDbVertex
100
AcDb2dVertex
 10
146.79104
 20
118.60568
 30
0.0
  0
VERTEX
  5
537
100
AcDbEntity
  8
レイヤー_2
 62
     7
100
AcDbVertex
100
AcDb2dVertex
 10
146.384519
 20
118.4162
 30
0.0
  0
VERTEX
  5
538
100
AcDbEntity
  8
レイヤー_2
 62
     7
100
AcDbVertex
100
AcDb2dVertex
 10
146.005558
 20
118.145071
 30
0.0
  0
SEQEND
  5
539
100
AcDbEntity
  8
レイヤー_2
 62
     7
  0
POLYLINE
  5
52C
100
AcDbEntity
  8
レイヤー_2
 62
     7
100
AcDb2dPolyline
 66
     1
 10
0.0
 20
0.0
 30
0.0
  0
VERTEX
  5
52D
100
AcDbEntity
  8
レイヤー_2
 62
     7
100
AcDbVertex
100
AcDb2dVertex
 10
149.392087
 20
118.145071
 30
0.0
  0
VERTEX
  5
52E
100
AcDbEntity
  8
レイヤー_2
 62
     7
100
AcDbVertex
100
AcDb2dVertex
 10
149.012438
 20
118.4162
 30
0.0
  0
VERTEX
  5
52F
100
AcDbEntity
  8
レイヤー_2
 62
     7
100
AcDbVertex
100
AcDb2dVertex
 10
148.579045
 20
118.60568
 30
0.0
  0
VERTEX
  5
530
100
AcDbEntity
  8
レイヤー_2
 62
     7
100
AcDbVertex
100
AcDb2dVertex
 10
148.145652
 20
118.714201
 30
0.0
  0
VERTEX
  5
531
100
AcDbEntity
  8
レイヤー_2
 62
     7
100
AcDbVertex
100
AcDb2dVertex
 10
147.928955
 20
118.741073
 30
0.0
  0
SEQEND
  5
532
100
AcDbEntity
  8
レイヤー_2
 62
     7
  0
POLYLINE
  5
525
100
AcDbEntity
  8
レイヤー_2
 62
     7
100
AcDb2dPolyline
 66
     1
 10
0.0
 20
0.0
 30
0.0
  0
VERTEX
  5
526
100
AcDbEntity
  8
レイヤー_2
 62
     7
100
AcDbVertex
100
AcDb2dVertex
 10
150.313306
 20
116.356722
 30
0.0
  0
VERTEX
  5
527
100
AcDbEntity
  8
レイヤー_2
 62
     7
100
AcDbVertex
100
AcDb2dVertex
 10
150.286089
 20
116.573763
 30
0.0
  0
VERTEX
  5
528
100
AcDbEntity
  8
レイヤー_2
 62
     7
100
AcDbVertex
100
AcDb2dVertex
 10
150.177569
 20
117.034372
 30
0.0
  0
VERTEX
  5
529
100
AcDbEntity
  8
レイヤー_2
 62
     7
100
AcDbVertex
100
AcDb2dVertex
 10
149.960872
 20
117.440549
 30
0.0
  0
VERTEX
  5
52A
100
AcDbEntity
  8
レイヤー_2
 62
     7
100
AcDbVertex
100
AcDb2dVertex
 10
149.717304
 20
117.819854
 30
0.0
  0
SEQEND
  5
52B
100
AcDbEntity
  8
レイヤー_2
 62
     7
  0
POLYLINE
  5
51E
100
AcDbEntity
  8
レイヤー_2
 62
     7
100
AcDb2dPolyline
 66
     1
 10
0.0
 20
0.0
 30
0.0
  0
VERTEX
  5
51F
100
AcDbEntity
  8
レイヤー_2
 62
     7
100
AcDbVertex
100
AcDb2dVertex
 10
149.717304
 20
114.432981
 30
0.0
  0
VERTEX
  5
520
100
AcDbEntity
  8
レイヤー_2
 62
     7
100
AcDbVertex
100
AcDb2dVertex
 10
149.960872
 20
114.812286
 30
0.0
  0
VERTEX
  5
521
100
AcDbEntity
  8
レイヤー_2
 62
     7
100
AcDbVertex
100
AcDb2dVertex
 10
150.177569
 20
115.219151
 30
0.0
  0
VERTEX
  5
522
100
AcDbEntity
  8
レイヤー_2
 62
     7
100
AcDbVertex
100
AcDb2dVertex
 10
150.286089
 20
115.679761
 30
0.0
  0
VERTEX
  5
523
100
AcDbEntity
  8
レイヤー_2
 62
     7
100
AcDbVertex
100
AcDb2dVertex
 10
150.313306
 20
115.896113
 30
0.0
  0
SEQEND
  5
524
100
AcDbEntity
  8
レイヤー_2
 62
     7
  0
LINE
  5
51D
100
AcDbEntity
  8
レイヤー_2
 62
     7
100
AcDbLine
 10
150.313306
 20
116.356722
 30
0.0
 11
150.475914
 21
116.356722
 31
0.0
  0
LINE
  5
51C
100
AcDbEntity
  8
レイヤー_2
 62
     7
100
AcDbLine
 10
149.717304
 20
117.819854
 30
0.0
 11
149.82548
 21
117.928375
 31
0.0
  0
POLYLINE
  5
515
100
AcDbEntity
  8
レイヤー_2
 62
     7
100
AcDb2dPolyline
 66
     1
 10
0.0
 20
0.0
 30
0.0
  0
VERTEX
  5
516
100
AcDbEntity
  8
レイヤー_2
 62
     7
100
AcDbVertex
100
AcDb2dVertex
 10
150.475914
 20
116.356722
 30
0.0
  0
VERTEX
  5
517
100
AcDbEntity
  8
レイヤー_2
 62
     7
100
AcDbVertex
100
AcDb2dVertex
 10
150.313306
 20
117.088116
 30
0.0
  0
VERTEX
  5
518
100
AcDbEntity
  8
レイヤー_2
 62
     7
100
AcDbVertex
100
AcDb2dVertex
 10
150.096265
 20
117.521853
 30
0.0
  0
VERTEX
  5
519
100
AcDbEntity
  8
レイヤー_2
 62
     7
100
AcDbVertex
100
AcDb2dVertex
 10
149.82548
 20
117.901158
 30
0.0
  0
VERTEX
  5
51A
100
AcDbEntity
  8
レイヤー_2
 62
     7
100
AcDbVertex
100
AcDb2dVertex
 10
149.82548
 20
117.928375
 30
0.0
  0
SEQEND
  5
51B
100
AcDbEntity
  8
レイヤー_2
 62
     7
  0
POLYLINE
  5
50E
100
AcDbEntity
  8
レイヤー_2
 62
     7
100
AcDb2dPolyline
 66
     1
 10
0.0
 20
0.0
 30
0.0
  0
VERTEX
  5
50F
100
AcDbEntity
  8
レイヤー_2
 62
     7
100
AcDbVertex
100
AcDb2dVertex
 10
147.468346
 20
118.903681
 30
0.0
  0
VERTEX
  5
510
100
AcDbEntity
  8
レイヤー_2
 62
     7
100
AcDbVertex
100
AcDb2dVertex
 10
147.197561
 20
118.876465
 30
0.0
  0
VERTEX
  5
511
100
AcDbEntity
  8
レイヤー_2
 62
     7
100
AcDbVertex
100
AcDb2dVertex
 10
146.736608
 20
118.741073
 30
0.0
  0
VERTEX
  5
512
100
AcDbEntity
  8
レイヤー_2
 62
     7
100
AcDbVertex
100
AcDb2dVertex
 10
146.303215
 20
118.524032
 30
0.0
  0
VERTEX
  5
513
100
AcDbEntity
  8
レイヤー_2
 62
     7
100
AcDbVertex
100
AcDb2dVertex
 10
145.896693
 20
118.253247
 30
0.0
  0
SEQEND
  5
514
100
AcDbEntity
  8
レイヤー_2
 62
     7
  0
LINE
  5
50D
100
AcDbEntity
  8
レイヤー_2
 62
     7
100
AcDbLine
 10
147.468346
 20
118.741073
 30
0.0
 11
147.468346
 21
118.903681
 31
0.0
  0
LINE
  5
50C
100
AcDbEntity
  8
レイヤー_2
 62
     7
100
AcDbLine
 10
146.005558
 20
118.145071
 30
0.0
 11
145.896693
 21
118.253247
 31
0.0
  0
LINE
  5
50B
100
AcDbEntity
  8
レイヤー_2
 62
     7
100
AcDbLine
 10
146.005558
 20
114.108108
 30
0.0
 11
145.896693
 21
113.999932
 31
0.0
  0
POLYLINE
  5
504
100
AcDbEntity
  8
レイヤー_2
 62
     7
100
AcDb2dPolyline
 66
     1
 10
0.0
 20
0.0
 30
0.0
  0
VERTEX
  5
505
100
AcDbEntity
  8
レイヤー_2
 62
     7
100
AcDbVertex
100
AcDb2dVertex
 10
145.896693
 20
113.999932
 30
0.0
  0
VERTEX
  5
506
100
AcDbEntity
  8
レイヤー_2
 62
     7
100
AcDbVertex
100
AcDb2dVertex
 10
146.303215
 20
113.728803
 30
0.0
  0
VERTEX
  5
507
100
AcDbEntity
  8
レイヤー_2
 62
     7
100
AcDbVertex
100
AcDb2dVertex
 10
146.736608
 20
113.512107
 30
0.0
  0
VERTEX
  5
508
100
AcDbEntity
  8
レイヤー_2
 62
     7
100
AcDbVertex
100
AcDb2dVertex
 10
147.197561
 20
113.376714
 30
0.0
  0
VERTEX
  5
509
100
AcDbEntity
  8
レイヤー_2
 62
     7
100
AcDbVertex
100
AcDb2dVertex
 10
147.468346
 20
113.349498
 30
0.0
  0
SEQEND
  5
50A
100
AcDbEntity
  8
レイヤー_2
 62
     7
  0
LINE
  5
503
100
AcDbEntity
  8
レイヤー_2
 62
     7
100
AcDbLine
 10
147.468346
 20
113.512107
 30
0.0
 11
147.468346
 21
113.349498
 31
0.0
  0
LINE
  5
502
100
AcDbEntity
  8
レイヤー_2
 62
     7
100
AcDbLine
 10
149.392087
 20
114.108108
 30
0.0
 11
149.500263
 21
113.999932
 31
0.0
  0
LINE
  5
501
100
AcDbEntity
  8
レイヤー_2
 62
     7
100
AcDbLine
 10
147.928955
 20
113.512107
 30
0.0
 11
147.928955
 21
113.349498
 31
0.0
  0
POLYLINE
  5
4F9
100
AcDbEntity
  8
レイヤー_2
 62
     7
100
AcDb2dPolyline
 66
     1
 10
0.0
 20
0.0
 30
0.0
  0
VERTEX
  5
4FA
100
AcDbEntity
  8
レイヤー_2
 62
     7
100
AcDbVertex
100
AcDb2dVertex
 10
147.928955
 20
113.349498
 30
0.0
  0
VERTEX
  5
4FB
100
AcDbEntity
  8
レイヤー_2
 62
     7
100
AcDbVertex
100
AcDb2dVertex
 10
148.172523
 20
113.376714
 30
0.0
  0
VERTEX
  5
4FC
100
AcDbEntity
  8
レイヤー_2
 62
     7
100
AcDbVertex
100
AcDb2dVertex
 10
148.633477
 20
113.512107
 30
0.0
  0
VERTEX
  5
4FD
100
AcDbEntity
  8
レイヤー_2
 62
     7
100
AcDbVertex
100
AcDb2dVertex
 10
149.093742
 20
113.728803
 30
0.0
  0
VERTEX
  5
4FE
100
AcDbEntity
  8
レイヤー_2
 62
     7
100
AcDbVertex
100
AcDb2dVertex
 10
149.473391
 20
113.999932
 30
0.0
  0
VERTEX
  5
4FF
100
AcDbEntity
  8
レイヤー_2
 62
     7
100
AcDbVertex
100
AcDb2dVertex
 10
149.500263
 20
113.999932
 30
0.0
  0
SEQEND
  5
500
100
AcDbEntity
  8
レイヤー_2
 62
     7
  0
LINE
  5
4F8
100
AcDbEntity
  8
レイヤー_2
 62
     7
100
AcDbLine
 10
145.056779
 20
115.896113
 30
0.0
 11
144.921731
 21
115.896113
 31
0.0
  0
POLYLINE
  5
4F1
100
AcDbEntity
  8
レイヤー_2
 62
     7
100
AcDb2dPolyline
 66
     1
 10
0.0
 20
0.0
 30
0.0
  0
VERTEX
  5
4F2
100
AcDbEntity
  8
レイヤー_2
 62
     7
100
AcDbVertex
100
AcDb2dVertex
 10
144.921731
 20
115.896113
 30
0.0
  0
VERTEX
  5
4F3
100
AcDbEntity
  8
レイヤー_2
 62
     7
100
AcDbVertex
100
AcDb2dVertex
 10
144.948603
 20
115.6522
 30
0.0
  0
VERTEX
  5
4F4
100
AcDbEntity
  8
レイヤー_2
 62
     7
100
AcDbVertex
100
AcDb2dVertex
 10
145.08434
 20
115.164719
 30
0.0
  0
VERTEX
  5
4F5
100
AcDbEntity
  8
レイヤー_2
 62
     7
100
AcDbVertex
100
AcDb2dVertex
 10
145.27382
 20
114.731326
 30
0.0
  0
VERTEX
  5
4F6
100
AcDbEntity
  8
レイヤー_2
 62
     7
100
AcDbVertex
100
AcDb2dVertex
 10
145.571821
 20
114.325149
 30
0.0
  0
SEQEND
  5
4F7
100
AcDbEntity
  8
レイヤー_2
 62
     7
  0
LINE
  5
4F0
100
AcDbEntity
  8
レイヤー_2
 62
     7
100
AcDbLine
 10
145.680341
 20
114.432981
 30
0.0
 11
145.571821
 21
114.325149
 31
0.0
  0
LINE
  5
4EF
100
AcDbEntity
  8
レイヤー_2
 62
     7
100
AcDbLine
 10
149.392087
 20
118.145071
 30
0.0
 11
149.500263
 21
118.253247
 31
0.0
  0
POLYLINE
  5
4E7
100
AcDbEntity
  8
レイヤー_2
 62
     7
100
AcDb2dPolyline
 66
     1
 10
0.0
 20
0.0
 30
0.0
  0
VERTEX
  5
4E8
100
AcDbEntity
  8
レイヤー_2
 62
     7
100
AcDbVertex
100
AcDb2dVertex
 10
149.500263
 20
118.253247
 30
0.0
  0
VERTEX
  5
4E9
100
AcDbEntity
  8
レイヤー_2
 62
     7
100
AcDbVertex
100
AcDb2dVertex
 10
149.473391
 20
118.253247
 30
0.0
  0
VERTEX
  5
4EA
100
AcDbEntity
  8
レイヤー_2
 62
     7
100
AcDbVertex
100
AcDb2dVertex
 10
149.093742
 20
118.524032
 30
0.0
  0
VERTEX
  5
4EB
100
AcDbEntity
  8
レイヤー_2
 62
     7
100
AcDbVertex
100
AcDb2dVertex
 10
148.633477
 20
118.741073
 30
0.0
  0
VERTEX
  5
4EC
100
AcDbEntity
  8
レイヤー_2
 62
     7
100
AcDbVertex
100
AcDb2dVertex
 10
148.172523
 20
118.876465
 30
0.0
  0
VERTEX
  5
4ED
100
AcDbEntity
  8
レイヤー_2
 62
     7
100
AcDbVertex
100
AcDb2dVertex
 10
147.928955
 20
118.903681
 30
0.0
  0
SEQEND
  5
4EE
100
AcDbEntity
  8
レイヤー_2
 62
     7
  0
LINE
  5
4E6
100
AcDbEntity
  8
レイヤー_2
 62
     7
100
AcDbLine
 10
147.928955
 20
118.741073
 30
0.0
 11
147.928955
 21
118.903681
 31
0.0
  0
POLYLINE
  5
4DE
100
AcDbEntity
  8
レイヤー_2
 62
     7
100
AcDb2dPolyline
 66
     1
 10
0.0
 20
0.0
 30
0.0
  0
VERTEX
  5
4DF
100
AcDbEntity
  8
レイヤー_2
 62
     7
100
AcDbVertex
100
AcDb2dVertex
 10
145.571821
 20
117.928375
 30
0.0
  0
VERTEX
  5
4E0
100
AcDbEntity
  8
レイヤー_2
 62
     7
100
AcDbVertex
100
AcDb2dVertex
 10
145.571821
 20
117.901158
 30
0.0
  0
VERTEX
  5
4E1
100
AcDbEntity
  8
レイヤー_2
 62
     7
100
AcDbVertex
100
AcDb2dVertex
 10
145.27382
 20
117.521853
 30
0.0
  0
VERTEX
  5
4E2
100
AcDbEntity
  8
レイヤー_2
 62
     7
100
AcDbVertex
100
AcDb2dVertex
 10
145.08434
 20
117.088116
 30
0.0
  0
VERTEX
  5
4E3
100
AcDbEntity
  8
レイヤー_2
 62
     7
100
AcDbVertex
100
AcDb2dVertex
 10
144.948603
 20
116.600635
 30
0.0
  0
VERTEX
  5
4E4
100
AcDbEntity
  8
レイヤー_2
 62
     7
100
AcDbVertex
100
AcDb2dVertex
 10
144.921731
 20
116.356722
 30
0.0
  0
SEQEND
  5
4E5
100
AcDbEntity
  8
レイヤー_2
 62
     7
  0
LINE
  5
4DD
100
AcDbEntity
  8
レイヤー_2
 62
     7
100
AcDbLine
 10
145.680341
 20
117.819854
 30
0.0
 11
145.571821
 21
117.928375
 31
0.0
  0
LINE
  5
4DC
100
AcDbEntity
  8
レイヤー_2
 62
     7
100
AcDbLine
 10
145.056779
 20
116.356722
 30
0.0
 11
144.921731
 21
116.356722
 31
0.0
  0
LINE
  5
4DB
100
AcDbEntity
  8
レイヤー_2
 62
     7
100
AcDbLine
 10
149.717304
 20
114.432981
 30
0.0
 11
149.82548
 21
114.325149
 31
0.0
  0
POLYLINE
  5
4D5
100
AcDbEntity
  8
レイヤー_2
 62
     7
100
AcDb2dPolyline
 66
     1
 10
0.0
 20
0.0
 30
0.0
  0
VERTEX
  5
4D6
100
AcDbEntity
  8
レイヤー_2
 62
     7
100
AcDbVertex
100
AcDb2dVertex
 10
149.82548
 20
114.325149
 30
0.0
  0
VERTEX
  5
4D7
100
AcDbEntity
  8
レイヤー_2
 62
     7
100
AcDbVertex
100
AcDb2dVertex
 10
150.096265
 20
114.731326
 30
0.0
  0
VERTEX
  5
4D8
100
AcDbEntity
  8
レイヤー_2
 62
     7
100
AcDbVertex
100
AcDb2dVertex
 10
150.313306
 20
115.164719
 30
0.0
  0
VERTEX
  5
4D9
100
AcDbEntity
  8
レイヤー_2
 62
     7
100
AcDbVertex
100
AcDb2dVertex
 10
150.475914
 20
115.896113
 30
0.0
  0
SEQEND
  5
4DA
100
AcDbEntity
  8
レイヤー_2
 62
     7
  0
LINE
  5
4D4
100
AcDbEntity
  8
レイヤー_2
 62
     7
100
AcDbLine
 10
150.313306
 20
115.896113
 30
0.0
 11
150.475914
 21
115.896113
 31
0.0
  0
POLYLINE
  5
4CD
100
AcDbEntity
  8
レイヤー_2
 62
     7
100
AcDb2dPolyline
 66
     1
 10
0.0
 20
0.0
 30
0.0
  0
VERTEX
  5
4CE
100
AcDbEntity
  8
レイヤー_2
 62
     7
100
AcDbVertex
100
AcDb2dVertex
 10
160.283412
 20
112.997409
 30
0.0
  0
VERTEX
  5
4CF
100
AcDbEntity
  8
レイヤー_2
 62
     7
100
AcDbVertex
100
AcDb2dVertex
 10
160.744021
 20
112.672192
 30
0.0
  0
VERTEX
  5
4D0
100
AcDbEntity
  8
レイヤー_2
 62
     7
100
AcDbVertex
100
AcDb2dVertex
 10
161.367239
 20
112.374192
 30
0.0
  0
VERTEX
  5
4D1
100
AcDbEntity
  8
レイヤー_2
 62
     7
100
AcDbVertex
100
AcDb2dVertex
 10
162.044545
 20
112.211583
 30
0.0
  0
VERTEX
  5
4D2
100
AcDbEntity
  8
レイヤー_2
 62
     7
100
AcDbVertex
100
AcDb2dVertex
 10
162.261241
 20
112.184711
 30
0.0
  0
SEQEND
  5
4D3
100
AcDbEntity
  8
レイヤー_2
 62
     7
  0
POLYLINE
  5
4C6
100
AcDbEntity
  8
レイヤー_2
 62
     7
100
AcDb2dPolyline
 66
     1
 10
0.0
 20
0.0
 30
0.0
  0
VERTEX
  5
4C7
100
AcDbEntity
  8
レイヤー_2
 62
     7
100
AcDbVertex
100
AcDb2dVertex
 10
158.793408
 20
115.6522
 30
0.0
  0
VERTEX
  5
4C8
100
AcDbEntity
  8
レイヤー_2
 62
     7
100
AcDbVertex
100
AcDb2dVertex
 10
158.820624
 20
115.435848
 30
0.0
  0
VERTEX
  5
4C9
100
AcDbEntity
  8
レイヤー_2
 62
     7
100
AcDbVertex
100
AcDb2dVertex
 10
158.983233
 20
114.758198
 30
0.0
  0
VERTEX
  5
4CA
100
AcDbEntity
  8
レイヤー_2
 62
     7
100
AcDbVertex
100
AcDb2dVertex
 10
159.280889
 20
114.13498
 30
0.0
  0
VERTEX
  5
4CB
100
AcDbEntity
  8
レイヤー_2
 62
     7
100
AcDbVertex
100
AcDb2dVertex
 10
159.606106
 20
113.674715
 30
0.0
  0
SEQEND
  5
4CC
100
AcDbEntity
  8
レイヤー_2
 62
     7
  0
POLYLINE
  5
4C1
100
AcDbEntity
  8
レイヤー_2
 62
     7
100
AcDb2dPolyline
 66
     1
 10
0.0
 20
0.0
 30
0.0
  0
VERTEX
  5
4C2
100
AcDbEntity
  8
レイヤー_2
 62
     7
100
AcDbVertex
100
AcDb2dVertex
 10
158.793408
 20
116.600635
 30
0.0
  0
VERTEX
  5
4C3
100
AcDbEntity
  8
レイヤー_2
 62
     7
100
AcDbVertex
100
AcDb2dVertex
 10
158.766192
 20
116.113154
 30
0.0
  0
VERTEX
  5
4C4
100
AcDbEntity
  8
レイヤー_2
 62
     7
100
AcDbVertex
100
AcDb2dVertex
 10
158.793408
 20
115.6522
 30
0.0
  0
SEQEND
  5
4C5
100
AcDbEntity
  8
レイヤー_2
 62
     7
  0
POLYLINE
  5
4BA
100
AcDbEntity
  8
レイヤー_2
 62
     7
100
AcDb2dPolyline
 66
     1
 10
0.0
 20
0.0
 30
0.0
  0
VERTEX
  5
4BB
100
AcDbEntity
  8
レイヤー_2
 62
     7
100
AcDbVertex
100
AcDb2dVertex
 10
159.606106
 20
118.578464
 30
0.0
  0
VERTEX
  5
4BC
100
AcDbEntity
  8
レイヤー_2
 62
     7
100
AcDbVertex
100
AcDb2dVertex
 10
159.280889
 20
118.117855
 30
0.0
  0
VERTEX
  5
4BD
100
AcDbEntity
  8
レイヤー_2
 62
     7
100
AcDbVertex
100
AcDb2dVertex
 10
158.983233
 20
117.494637
 30
0.0
  0
VERTEX
  5
4BE
100
AcDbEntity
  8
レイヤー_2
 62
     7
100
AcDbVertex
100
AcDb2dVertex
 10
158.820624
 20
116.817676
 30
0.0
  0
VERTEX
  5
4BF
100
AcDbEntity
  8
レイヤー_2
 62
     7
100
AcDbVertex
100
AcDb2dVertex
 10
158.793408
 20
116.600635
 30
0.0
  0
SEQEND
  5
4C0
100
AcDbEntity
  8
レイヤー_2
 62
     7
  0
POLYLINE
  5
4B3
100
AcDbEntity
  8
レイヤー_2
 62
     7
100
AcDb2dPolyline
 66
     1
 10
0.0
 20
0.0
 30
0.0
  0
VERTEX
  5
4B4
100
AcDbEntity
  8
レイヤー_2
 62
     7
100
AcDbVertex
100
AcDb2dVertex
 10
162.261241
 20
120.068812
 30
0.0
  0
VERTEX
  5
4B5
100
AcDbEntity
  8
レイヤー_2
 62
     7
100
AcDbVertex
100
AcDb2dVertex
 10
162.044545
 20
120.041252
 30
0.0
  0
VERTEX
  5
4B6
100
AcDbEntity
  8
レイヤー_2
 62
     7
100
AcDbVertex
100
AcDb2dVertex
 10
161.367239
 20
119.851771
 30
0.0
  0
VERTEX
  5
4B7
100
AcDbEntity
  8
レイヤー_2
 62
     7
100
AcDbVertex
100
AcDb2dVertex
 10
160.744021
 20
119.580987
 30
0.0
  0
VERTEX
  5
4B8
100
AcDbEntity
  8
レイヤー_2
 62
     7
100
AcDbVertex
100
AcDb2dVertex
 10
160.283412
 20
119.25577
 30
0.0
  0
SEQEND
  5
4B9
100
AcDbEntity
  8
レイヤー_2
 62
     7
  0
POLYLINE
  5
4AC
100
AcDbEntity
  8
レイヤー_2
 62
     7
100
AcDb2dPolyline
 66
     1
 10
0.0
 20
0.0
 30
0.0
  0
VERTEX
  5
4AD
100
AcDbEntity
  8
レイヤー_2
 62
     7
100
AcDbVertex
100
AcDb2dVertex
 10
165.187161
 20
119.25577
 30
0.0
  0
VERTEX
  5
4AE
100
AcDbEntity
  8
レイヤー_2
 62
     7
100
AcDbVertex
100
AcDb2dVertex
 10
164.726896
 20
119.580987
 30
0.0
  0
VERTEX
  5
4AF
100
AcDbEntity
  8
レイヤー_2
 62
     7
100
AcDbVertex
100
AcDb2dVertex
 10
164.103678
 20
119.851771
 30
0.0
  0
VERTEX
  5
4B0
100
AcDbEntity
  8
レイヤー_2
 62
     7
100
AcDbVertex
100
AcDb2dVertex
 10
163.426373
 20
120.041252
 30
0.0
  0
VERTEX
  5
4B1
100
AcDbEntity
  8
レイヤー_2
 62
     7
100
AcDbVertex
100
AcDb2dVertex
 10
163.209676
 20
120.068812
 30
0.0
  0
SEQEND
  5
4B2
100
AcDbEntity
  8
レイヤー_2
 62
     7
  0
POLYLINE
  5
4A5
100
AcDbEntity
  8
レイヤー_2
 62
     7
100
AcDb2dPolyline
 66
     1
 10
0.0
 20
0.0
 30
0.0
  0
VERTEX
  5
4A6
100
AcDbEntity
  8
レイヤー_2
 62
     7
100
AcDbVertex
100
AcDb2dVertex
 10
166.677509
 20
116.600635
 30
0.0
  0
VERTEX
  5
4A7
100
AcDbEntity
  8
レイヤー_2
 62
     7
100
AcDbVertex
100
AcDb2dVertex
 10
166.650637
 20
116.817676
 30
0.0
  0
VERTEX
  5
4A8
100
AcDbEntity
  8
レイヤー_2
 62
     7
100
AcDbVertex
100
AcDb2dVertex
 10
166.460813
 20
117.494637
 30
0.0
  0
VERTEX
  5
4A9
100
AcDbEntity
  8
レイヤー_2
 62
     7
100
AcDbVertex
100
AcDb2dVertex
 10
166.162812
 20
118.117855
 30
0.0
  0
VERTEX
  5
4AA
100
AcDbEntity
  8
レイヤー_2
 62
     7
100
AcDbVertex
100
AcDb2dVertex
 10
165.864467
 20
118.578464
 30
0.0
  0
SEQEND
  5
4AB
100
AcDbEntity
  8
レイヤー_2
 62
     7
  0
POLYLINE
  5
49E
100
AcDbEntity
  8
レイヤー_2
 62
     7
100
AcDb2dPolyline
 66
     1
 10
0.0
 20
0.0
 30
0.0
  0
VERTEX
  5
49F
100
AcDbEntity
  8
レイヤー_2
 62
     7
100
AcDbVertex
100
AcDb2dVertex
 10
165.864467
 20
113.674715
 30
0.0
  0
VERTEX
  5
4A0
100
AcDbEntity
  8
レイヤー_2
 62
     7
100
AcDbVertex
100
AcDb2dVertex
 10
166.162812
 20
114.13498
 30
0.0
  0
VERTEX
  5
4A1
100
AcDbEntity
  8
レイヤー_2
 62
     7
100
AcDbVertex
100
AcDb2dVertex
 10
166.460813
 20
114.758198
 30
0.0
  0
VERTEX
  5
4A2
100
AcDbEntity
  8
レイヤー_2
 62
     7
100
AcDbVertex
100
AcDb2dVertex
 10
166.650637
 20
115.435848
 30
0.0
  0
VERTEX
  5
4A3
100
AcDbEntity
  8
レイヤー_2
 62
     7
100
AcDbVertex
100
AcDb2dVertex
 10
166.677509
 20
115.6522
 30
0.0
  0
SEQEND
  5
4A4
100
AcDbEntity
  8
レイヤー_2
 62
     7
  0
POLYLINE
  5
498
100
AcDbEntity
  8
レイヤー_2
 62
     7
100
AcDb2dPolyline
 66
     1
 10
0.0
 20
0.0
 30
0.0
  0
VERTEX
  5
499
100
AcDbEntity
  8
レイヤー_2
 62
     7
100
AcDbVertex
100
AcDb2dVertex
 10
165.187161
 20
112.997409
 30
0.0
  0
VERTEX
  5
49A
100
AcDbEntity
  8
レイヤー_2
 62
     7
100
AcDbVertex
100
AcDb2dVertex
 10
165.295681
 20
113.078369
 30
0.0
  0
VERTEX
  5
49B
100
AcDbEntity
  8
レイヤー_2
 62
     7
100
AcDbVertex
100
AcDb2dVertex
 10
165.783507
 20
113.566195
 30
0.0
  0
VERTEX
  5
49C
100
AcDbEntity
  8
レイヤー_2
 62
     7
100
AcDbVertex
100
AcDb2dVertex
 10
165.864467
 20
113.674715
 30
0.0
  0
SEQEND
  5
49D
100
AcDbEntity
  8
レイヤー_2
 62
     7
  0
POLYLINE
  5
491
100
AcDbEntity
  8
レイヤー_2
 62
     7
100
AcDb2dPolyline
 66
     1
 10
0.0
 20
0.0
 30
0.0
  0
VERTEX
  5
492
100
AcDbEntity
  8
レイヤー_2
 62
     7
100
AcDbVertex
100
AcDb2dVertex
 10
163.209676
 20
112.184711
 30
0.0
  0
VERTEX
  5
493
100
AcDbEntity
  8
レイヤー_2
 62
     7
100
AcDbVertex
100
AcDb2dVertex
 10
163.426373
 20
112.211583
 30
0.0
  0
VERTEX
  5
494
100
AcDbEntity
  8
レイヤー_2
 62
     7
100
AcDbVertex
100
AcDb2dVertex
 10
164.103678
 20
112.401408
 30
0.0
  0
VERTEX
  5
495
100
AcDbEntity
  8
レイヤー_2
 62
     7
100
AcDbVertex
100
AcDb2dVertex
 10
164.726896
 20
112.672192
 30
0.0
  0
VERTEX
  5
496
100
AcDbEntity
  8
レイヤー_2
 62
     7
100
AcDbVertex
100
AcDb2dVertex
 10
165.187161
 20
112.997409
 30
0.0
  0
SEQEND
  5
497
100
AcDbEntity
  8
レイヤー_2
 62
     7
  0
LINE
  5
490
100
AcDbEntity
  8
レイヤー_2
 62
     7
100
AcDbLine
 10
166.677509
 20
115.6522
 30
0.0
 11
166.704381
 21
115.6522
 31
0.0
  0
LINE
  5
48F
100
AcDbEntity
  8
レイヤー_2
 62
     7
100
AcDbLine
 10
165.892027
 20
113.647499
 30
0.0
 11
165.864467
 21
113.674715
 31
0.0
  0
POLYLINE
  5
48A
100
AcDbEntity
  8
レイヤー_2
 62
     7
100
AcDb2dPolyline
 66
     1
 10
0.0
 20
0.0
 30
0.0
  0
VERTEX
  5
48B
100
AcDbEntity
  8
レイヤー_2
 62
     7
100
AcDbVertex
100
AcDb2dVertex
 10
162.261241
 20
112.184711
 30
0.0
  0
VERTEX
  5
48C
100
AcDbEntity
  8
レイヤー_2
 62
     7
100
AcDbVertex
100
AcDb2dVertex
 10
162.261241
 20
112.157495
 30
0.0
  0
VERTEX
  5
48D
100
AcDbEntity
  8
レイヤー_2
 62
     7
100
AcDbVertex
100
AcDb2dVertex
 10
162.234025
 20
112.157495
 30
0.0
  0
SEQEND
  5
48E
100
AcDbEntity
  8
レイヤー_2
 62
     7
  0
LINE
  5
489
100
AcDbEntity
  8
レイヤー_2
 62
     7
100
AcDbLine
 10
160.25654
 20
112.970193
 30
0.0
 11
160.283412
 21
112.997409
 31
0.0
  0
POLYLINE
  5
484
100
AcDbEntity
  8
レイヤー_2
 62
     7
100
AcDb2dPolyline
 66
     1
 10
0.0
 20
0.0
 30
0.0
  0
VERTEX
  5
485
100
AcDbEntity
  8
レイヤー_2
 62
     7
100
AcDbVertex
100
AcDb2dVertex
 10
165.864467
 20
118.578464
 30
0.0
  0
VERTEX
  5
486
100
AcDbEntity
  8
レイヤー_2
 62
     7
100
AcDbVertex
100
AcDb2dVertex
 10
165.892027
 20
118.578464
 30
0.0
  0
VERTEX
  5
487
100
AcDbEntity
  8
レイヤー_2
 62
     7
100
AcDbVertex
100
AcDb2dVertex
 10
165.892027
 20
118.60568
 30
0.0
  0
SEQEND
  5
488
100
AcDbEntity
  8
レイヤー_2
 62
     7
  0
LINE
  5
483
100
AcDbEntity
  8
レイヤー_2
 62
     7
100
AcDbLine
 10
166.704381
 20
116.600635
 30
0.0
 11
166.677509
 21
116.600635
 31
0.0
  0
POLYLINE
  5
47E
100
AcDbEntity
  8
レイヤー_2
 62
     7
100
AcDb2dPolyline
 66
     1
 10
0.0
 20
0.0
 30
0.0
  0
VERTEX
  5
47F
100
AcDbEntity
  8
レイヤー_2
 62
     7
100
AcDbVertex
100
AcDb2dVertex
 10
165.187161
 20
112.997409
 30
0.0
  0
VERTEX
  5
480
100
AcDbEntity
  8
レイヤー_2
 62
     7
100
AcDbVertex
100
AcDb2dVertex
 10
165.187161
 20
112.970193
 30
0.0
  0
VERTEX
  5
481
100
AcDbEntity
  8
レイヤー_2
 62
     7
100
AcDbVertex
100
AcDb2dVertex
 10
165.214722
 20
112.970193
 30
0.0
  0
SEQEND
  5
482
100
AcDbEntity
  8
レイヤー_2
 62
     7
  0
LINE
  5
47D
100
AcDbEntity
  8
レイヤー_2
 62
     7
100
AcDbLine
 10
163.209676
 20
112.157495
 30
0.0
 11
163.209676
 21
112.184711
 31
0.0
  0
LINE
  5
47C
100
AcDbEntity
  8
レイヤー_2
 62
     7
100
AcDbLine
 10
163.209676
 20
120.068812
 30
0.0
 11
163.209676
 21
120.095684
 31
0.0
  0
POLYLINE
  5
477
100
AcDbEntity
  8
レイヤー_2
 62
     7
100
AcDb2dPolyline
 66
     1
 10
0.0
 20
0.0
 30
0.0
  0
VERTEX
  5
478
100
AcDbEntity
  8
レイヤー_2
 62
     7
100
AcDbVertex
100
AcDb2dVertex
 10
165.214722
 20
119.282986
 30
0.0
  0
VERTEX
  5
479
100
AcDbEntity
  8
レイヤー_2
 62
     7
100
AcDbVertex
100
AcDb2dVertex
 10
165.187161
 20
119.282986
 30
0.0
  0
VERTEX
  5
47A
100
AcDbEntity
  8
レイヤー_2
 62
     7
100
AcDbVertex
100
AcDb2dVertex
 10
165.187161
 20
119.25577
 30
0.0
  0
SEQEND
  5
47B
100
AcDbEntity
  8
レイヤー_2
 62
     7
  0
POLYLINE
  5
472
100
AcDbEntity
  8
レイヤー_2
 62
     7
100
AcDb2dPolyline
 66
     1
 10
0.0
 20
0.0
 30
0.0
  0
VERTEX
  5
473
100
AcDbEntity
  8
レイヤー_2
 62
     7
100
AcDbVertex
100
AcDb2dVertex
 10
160.283412
 20
119.25577
 30
0.0
  0
VERTEX
  5
474
100
AcDbEntity
  8
レイヤー_2
 62
     7
100
AcDbVertex
100
AcDb2dVertex
 10
160.25654
 20
119.25577
 30
0.0
  0
VERTEX
  5
475
100
AcDbEntity
  8
レイヤー_2
 62
     7
100
AcDbVertex
100
AcDb2dVertex
 10
160.25654
 20
119.282986
 30
0.0
  0
SEQEND
  5
476
100
AcDbEntity
  8
レイヤー_2
 62
     7
  0
POLYLINE
  5
46D
100
AcDbEntity
  8
レイヤー_2
 62
     7
100
AcDb2dPolyline
 66
     1
 10
0.0
 20
0.0
 30
0.0
  0
VERTEX
  5
46E
100
AcDbEntity
  8
レイヤー_2
 62
     7
100
AcDbVertex
100
AcDb2dVertex
 10
162.234025
 20
120.095684
 30
0.0
  0
VERTEX
  5
46F
100
AcDbEntity
  8
レイヤー_2
 62
     7
100
AcDbVertex
100
AcDb2dVertex
 10
162.261241
 20
120.095684
 30
0.0
  0
VERTEX
  5
470
100
AcDbEntity
  8
レイヤー_2
 62
     7
100
AcDbVertex
100
AcDb2dVertex
 10
162.261241
 20
120.068812
 30
0.0
  0
SEQEND
  5
471
100
AcDbEntity
  8
レイヤー_2
 62
     7
  0
LINE
  5
46C
100
AcDbEntity
  8
レイヤー_2
 62
     7
100
AcDbLine
 10
158.793408
 20
116.600635
 30
0.0
 11
158.766192
 21
116.600635
 31
0.0
  0
POLYLINE
  5
467
100
AcDbEntity
  8
レイヤー_2
 62
     7
100
AcDb2dPolyline
 66
     1
 10
0.0
 20
0.0
 30
0.0
  0
VERTEX
  5
468
100
AcDbEntity
  8
レイヤー_2
 62
     7
100
AcDbVertex
100
AcDb2dVertex
 10
159.579234
 20
118.60568
 30
0.0
  0
VERTEX
  5
469
100
AcDbEntity
  8
レイヤー_2
 62
     7
100
AcDbVertex
100
AcDb2dVertex
 10
159.579234
 20
118.578464
 30
0.0
  0
VERTEX
  5
46A
100
AcDbEntity
  8
レイヤー_2
 62
     7
100
AcDbVertex
100
AcDb2dVertex
 10
159.606106
 20
118.578464
 30
0.0
  0
SEQEND
  5
46B
100
AcDbEntity
  8
レイヤー_2
 62
     7
  0
POLYLINE
  5
462
100
AcDbEntity
  8
レイヤー_2
 62
     7
100
AcDb2dPolyline
 66
     1
 10
0.0
 20
0.0
 30
0.0
  0
VERTEX
  5
463
100
AcDbEntity
  8
レイヤー_2
 62
     7
100
AcDbVertex
100
AcDb2dVertex
 10
159.606106
 20
113.674715
 30
0.0
  0
VERTEX
  5
464
100
AcDbEntity
  8
レイヤー_2
 62
     7
100
AcDbVertex
100
AcDb2dVertex
 10
159.579234
 20
113.674715
 30
0.0
  0
VERTEX
  5
465
100
AcDbEntity
  8
レイヤー_2
 62
     7
100
AcDbVertex
100
AcDb2dVertex
 10
159.579234
 20
113.647499
 30
0.0
  0
SEQEND
  5
466
100
AcDbEntity
  8
レイヤー_2
 62
     7
  0
LINE
  5
461
100
AcDbEntity
  8
レイヤー_2
 62
     7
100
AcDbLine
 10
158.766192
 20
115.6522
 30
0.0
 11
158.793408
 21
115.6522
 31
0.0
  0
POLYLINE
  5
45A
100
AcDbEntity
  8
レイヤー_2
 62
     7
100
AcDb2dPolyline
 66
     1
 10
0.0
 20
0.0
 30
0.0
  0
VERTEX
  5
45B
100
AcDbEntity
  8
レイヤー_2
 62
     7
100
AcDbVertex
100
AcDb2dVertex
 10
160.202108
 20
112.862017
 30
0.0
  0
VERTEX
  5
45C
100
AcDbEntity
  8
レイヤー_2
 62
     7
100
AcDbVertex
100
AcDb2dVertex
 10
160.662717
 20
112.5368
 30
0.0
  0
VERTEX
  5
45D
100
AcDbEntity
  8
レイヤー_2
 62
     7
100
AcDbVertex
100
AcDb2dVertex
 10
161.312807
 20
112.238799
 30
0.0
  0
VERTEX
  5
45E
100
AcDbEntity
  8
レイヤー_2
 62
     7
100
AcDbVertex
100
AcDb2dVertex
 10
162.017673
 20
112.048975
 30
0.0
  0
VERTEX
  5
45F
100
AcDbEntity
  8
レイヤー_2
 62
     7
100
AcDbVertex
100
AcDb2dVertex
 10
162.207153
 20
112.022103
 30
0.0
  0
SEQEND
  5
460
100
AcDbEntity
  8
レイヤー_2
 62
     7
  0
LINE
  5
459
100
AcDbEntity
  8
レイヤー_2
 62
     7
100
AcDbLine
 10
162.207153
 20
112.048975
 30
0.0
 11
162.207153
 21
112.022103
 31
0.0
  0
LINE
  5
458
100
AcDbEntity
  8
レイヤー_2
 62
     7
100
AcDbLine
 10
160.202108
 20
112.862017
 30
0.0
 11
160.202108
 21
112.888889
 31
0.0
  0
POLYLINE
  5
451
100
AcDbEntity
  8
レイヤー_2
 62
     7
100
AcDb2dPolyline
 66
     1
 10
0.0
 20
0.0
 30
0.0
  0
VERTEX
  5
452
100
AcDbEntity
  8
レイヤー_2
 62
     7
100
AcDbVertex
100
AcDb2dVertex
 10
162.207153
 20
120.231076
 30
0.0
  0
VERTEX
  5
453
100
AcDbEntity
  8
レイヤー_2
 62
     7
100
AcDbVertex
100
AcDb2dVertex
 10
162.017673
 20
120.204205
 30
0.0
  0
VERTEX
  5
454
100
AcDbEntity
  8
レイヤー_2
 62
     7
100
AcDbVertex
100
AcDb2dVertex
 10
161.312807
 20
120.014724
 30
0.0
  0
VERTEX
  5
455
100
AcDbEntity
  8
レイヤー_2
 62
     7
100
AcDbVertex
100
AcDb2dVertex
 10
160.662717
 20
119.716379
 30
0.0
  0
VERTEX
  5
456
100
AcDbEntity
  8
レイヤー_2
 62
     7
100
AcDbVertex
100
AcDb2dVertex
 10
160.202108
 20
119.391507
 30
0.0
  0
SEQEND
  5
457
100
AcDbEntity
  8
レイヤー_2
 62
     7
  0
LINE
  5
450
100
AcDbEntity
  8
レイヤー_2
 62
     7
100
AcDbLine
 10
160.202108
 20
119.36429
 30
0.0
 11
160.202108
 21
119.391507
 31
0.0
  0
LINE
  5
44F
100
AcDbEntity
  8
レイヤー_2
 62
     7
100
AcDbLine
 10
162.207153
 20
120.231076
 30
0.0
 11
162.207153
 21
120.204205
 31
0.0
  0
POLYLINE
  5
448
100
AcDbEntity
  8
レイヤー_2
 62
     7
100
AcDb2dPolyline
 66
     1
 10
0.0
 20
0.0
 30
0.0
  0
VERTEX
  5
449
100
AcDbEntity
  8
レイヤー_2
 62
     7
100
AcDbVertex
100
AcDb2dVertex
 10
163.263764
 20
112.022103
 30
0.0
  0
VERTEX
  5
44A
100
AcDbEntity
  8
レイヤー_2
 62
     7
100
AcDbVertex
100
AcDb2dVertex
 10
163.453589
 20
112.048975
 30
0.0
  0
VERTEX
  5
44B
100
AcDbEntity
  8
レイヤー_2
 62
     7
100
AcDbVertex
100
AcDb2dVertex
 10
164.157766
 20
112.238799
 30
0.0
  0
VERTEX
  5
44C
100
AcDbEntity
  8
レイヤー_2
 62
     7
100
AcDbVertex
100
AcDb2dVertex
 10
164.8082
 20
112.5368
 30
0.0
  0
VERTEX
  5
44D
100
AcDbEntity
  8
レイヤー_2
 62
     7
100
AcDbVertex
100
AcDb2dVertex
 10
165.268465
 20
112.862017
 30
0.0
  0
SEQEND
  5
44E
100
AcDbEntity
  8
レイヤー_2
 62
     7
  0
LINE
  5
447
100
AcDbEntity
  8
レイヤー_2
 62
     7
100
AcDbLine
 10
165.268465
 20
112.888889
 30
0.0
 11
165.268465
 21
112.862017
 31
0.0
  0
POLYLINE
  5
442
100
AcDbEntity
  8
レイヤー_2
 62
     7
100
AcDb2dPolyline
 66
     1
 10
0.0
 20
0.0
 30
0.0
  0
VERTEX
  5
443
100
AcDbEntity
  8
レイヤー_2
 62
     7
100
AcDbVertex
100
AcDb2dVertex
 10
163.263764
 20
112.022103
 30
0.0
  0
VERTEX
  5
444
100
AcDbEntity
  8
レイヤー_2
 62
     7
100
AcDbVertex
100
AcDb2dVertex
 10
163.236548
 20
112.022103
 30
0.0
  0
VERTEX
  5
445
100
AcDbEntity
  8
レイヤー_2
 62
     7
100
AcDbVertex
100
AcDb2dVertex
 10
163.236548
 20
112.048975
 30
0.0
  0
SEQEND
  5
446
100
AcDbEntity
  8
レイヤー_2
 62
     7
  0
POLYLINE
  5
43B
100
AcDbEntity
  8
レイヤー_2
 62
     7
100
AcDb2dPolyline
 66
     1
 10
0.0
 20
0.0
 30
0.0
  0
VERTEX
  5
43C
100
AcDbEntity
  8
レイヤー_2
 62
     7
100
AcDbVertex
100
AcDb2dVertex
 10
166.840118
 20
116.654723
 30
0.0
  0
VERTEX
  5
43D
100
AcDbEntity
  8
レイヤー_2
 62
     7
100
AcDbVertex
100
AcDb2dVertex
 10
166.813246
 20
116.844203
 30
0.0
  0
VERTEX
  5
43E
100
AcDbEntity
  8
レイヤー_2
 62
     7
100
AcDbVertex
100
AcDb2dVertex
 10
166.623077
 20
117.54907
 30
0.0
  0
VERTEX
  5
43F
100
AcDbEntity
  8
レイヤー_2
 62
     7
100
AcDbVertex
100
AcDb2dVertex
 10
166.32542
 20
118.198815
 30
0.0
  0
VERTEX
  5
440
100
AcDbEntity
  8
レイヤー_2
 62
     7
100
AcDbVertex
100
AcDb2dVertex
 10
166.000203
 20
118.659768
 30
0.0
  0
SEQEND
  5
441
100
AcDbEntity
  8
レイヤー_2
 62
     7
  0
LINE
  5
43A
100
AcDbEntity
  8
レイヤー_2
 62
     7
100
AcDbLine
 10
165.973332
 20
118.659768
 30
0.0
 11
166.000203
 21
118.659768
 31
0.0
  0
LINE
  5
439
100
AcDbEntity
  8
レイヤー_2
 62
     7
100
AcDbLine
 10
166.840118
 20
116.654723
 30
0.0
 11
166.813246
 21
116.627851
 31
0.0
  0
POLYLINE
  5
432
100
AcDbEntity
  8
レイヤー_2
 62
     7
100
AcDb2dPolyline
 66
     1
 10
0.0
 20
0.0
 30
0.0
  0
VERTEX
  5
433
100
AcDbEntity
  8
レイヤー_2
 62
     7
100
AcDbVertex
100
AcDb2dVertex
 10
165.268465
 20
119.391507
 30
0.0
  0
VERTEX
  5
434
100
AcDbEntity
  8
レイヤー_2
 62
     7
100
AcDbVertex
100
AcDb2dVertex
 10
164.8082
 20
119.716379
 30
0.0
  0
VERTEX
  5
435
100
AcDbEntity
  8
レイヤー_2
 62
     7
100
AcDbVertex
100
AcDb2dVertex
 10
164.157766
 20
120.014724
 30
0.0
  0
VERTEX
  5
436
100
AcDbEntity
  8
レイヤー_2
 62
     7
100
AcDbVertex
100
AcDb2dVertex
 10
163.453589
 20
120.204205
 30
0.0
  0
VERTEX
  5
437
100
AcDbEntity
  8
レイヤー_2
 62
     7
100
AcDbVertex
100
AcDb2dVertex
 10
163.263764
 20
120.231076
 30
0.0
  0
SEQEND
  5
438
100
AcDbEntity
  8
レイヤー_2
 62
     7
  0
POLYLINE
  5
42D
100
AcDbEntity
  8
レイヤー_2
 62
     7
100
AcDb2dPolyline
 66
     1
 10
0.0
 20
0.0
 30
0.0
  0
VERTEX
  5
42E
100
AcDbEntity
  8
レイヤー_2
 62
     7
100
AcDbVertex
100
AcDb2dVertex
 10
163.236548
 20
120.204205
 30
0.0
  0
VERTEX
  5
42F
100
AcDbEntity
  8
レイヤー_2
 62
     7
100
AcDbVertex
100
AcDb2dVertex
 10
163.236548
 20
120.231076
 30
0.0
  0
VERTEX
  5
430
100
AcDbEntity
  8
レイヤー_2
 62
     7
100
AcDbVertex
100
AcDb2dVertex
 10
163.263764
 20
120.231076
 30
0.0
  0
SEQEND
  5
431
100
AcDbEntity
  8
レイヤー_2
 62
     7
  0
LINE
  5
42C
100
AcDbEntity
  8
レイヤー_2
 62
     7
100
AcDbLine
 10
165.268465
 20
119.391507
 30
0.0
 11
165.268465
 21
119.36429
 31
0.0
  0
POLYLINE
  5
425
100
AcDbEntity
  8
レイヤー_2
 62
     7
100
AcDb2dPolyline
 66
     1
 10
0.0
 20
0.0
 30
0.0
  0
VERTEX
  5
426
100
AcDbEntity
  8
レイヤー_2
 62
     7
100
AcDbVertex
100
AcDb2dVertex
 10
166.000203
 20
113.593411
 30
0.0
  0
VERTEX
  5
427
100
AcDbEntity
  8
レイヤー_2
 62
     7
100
AcDbVertex
100
AcDb2dVertex
 10
166.32542
 20
114.053676
 30
0.0
  0
VERTEX
  5
428
100
AcDbEntity
  8
レイヤー_2
 62
     7
100
AcDbVertex
100
AcDb2dVertex
 10
166.623077
 20
114.70411
 30
0.0
  0
VERTEX
  5
429
100
AcDbEntity
  8
レイヤー_2
 62
     7
100
AcDbVertex
100
AcDb2dVertex
 10
166.813246
 20
115.408632
 30
0.0
  0
VERTEX
  5
42A
100
AcDbEntity
  8
レイヤー_2
 62
     7
100
AcDbVertex
100
AcDb2dVertex
 10
166.840118
 20
115.598456
 30
0.0
  0
SEQEND
  5
42B
100
AcDbEntity
  8
レイヤー_2
 62
     7
  0
POLYLINE
  5
420
100
AcDbEntity
  8
レイヤー_2
 62
     7
100
AcDb2dPolyline
 66
     1
 10
0.0
 20
0.0
 30
0.0
  0
VERTEX
  5
421
100
AcDbEntity
  8
レイヤー_2
 62
     7
100
AcDbVertex
100
AcDb2dVertex
 10
166.813246
 20
115.625328
 30
0.0
  0
VERTEX
  5
422
100
AcDbEntity
  8
レイヤー_2
 62
     7
100
AcDbVertex
100
AcDb2dVertex
 10
166.813246
 20
115.598456
 30
0.0
  0
VERTEX
  5
423
100
AcDbEntity
  8
レイヤー_2
 62
     7
100
AcDbVertex
100
AcDb2dVertex
 10
166.840118
 20
115.598456
 30
0.0
  0
SEQEND
  5
424
100
AcDbEntity
  8
レイヤー_2
 62
     7
  0
LINE
  5
41F
100
AcDbEntity
  8
レイヤー_2
 62
     7
100
AcDbLine
 10
166.000203
 20
113.593411
 30
0.0
 11
165.973332
 21
113.593411
 31
0.0
  0
POLYLINE
  5
418
100
AcDbEntity
  8
レイヤー_2
 62
     7
100
AcDb2dPolyline
 66
     1
 10
0.0
 20
0.0
 30
0.0
  0
VERTEX
  5
419
100
AcDbEntity
  8
レイヤー_2
 62
     7
100
AcDbVertex
100
AcDb2dVertex
 10
159.443498
 20
118.659768
 30
0.0
  0
VERTEX
  5
41A
100
AcDbEntity
  8
レイヤー_2
 62
     7
100
AcDbVertex
100
AcDb2dVertex
 10
159.145841
 20
118.198815
 30
0.0
  0
VERTEX
  5
41B
100
AcDbEntity
  8
レイヤー_2
 62
     7
100
AcDbVertex
100
AcDb2dVertex
 10
158.847496
 20
117.54907
 30
0.0
  0
VERTEX
  5
41C
100
AcDbEntity
  8
レイヤー_2
 62
     7
100
AcDbVertex
100
AcDb2dVertex
 10
158.658016
 20
116.844203
 30
0.0
  0
VERTEX
  5
41D
100
AcDbEntity
  8
レイヤー_2
 62
     7
100
AcDbVertex
100
AcDb2dVertex
 10
158.6308
 20
116.654723
 30
0.0
  0
SEQEND
  5
41E
100
AcDbEntity
  8
レイヤー_2
 62
     7
  0
POLYLINE
  5
413
100
AcDbEntity
  8
レイヤー_2
 62
     7
100
AcDb2dPolyline
 66
     1
 10
0.0
 20
0.0
 30
0.0
  0
VERTEX
  5
414
100
AcDbEntity
  8
レイヤー_2
 62
     7
100
AcDbVertex
100
AcDb2dVertex
 10
158.658016
 20
116.627851
 30
0.0
  0
VERTEX
  5
415
100
AcDbEntity
  8
レイヤー_2
 62
     7
100
AcDbVertex
100
AcDb2dVertex
 10
158.6308
 20
116.627851
 30
0.0
  0
VERTEX
  5
416
100
AcDbEntity
  8
レイヤー_2
 62
     7
100
AcDbVertex
100
AcDb2dVertex
 10
158.6308
 20
116.654723
 30
0.0
  0
SEQEND
  5
417
100
AcDbEntity
  8
レイヤー_2
 62
     7
  0
LINE
  5
412
100
AcDbEntity
  8
レイヤー_2
 62
     7
100
AcDbLine
 10
159.443498
 20
118.659768
 30
0.0
 11
159.470714
 21
118.659768
 31
0.0
  0
POLYLINE
  5
40B
100
AcDbEntity
  8
レイヤー_2
 62
     7
100
AcDb2dPolyline
 66
     1
 10
0.0
 20
0.0
 30
0.0
  0
VERTEX
  5
40C
100
AcDbEntity
  8
レイヤー_2
 62
     7
100
AcDbVertex
100
AcDb2dVertex
 10
158.6308
 20
115.598456
 30
0.0
  0
VERTEX
  5
40D
100
AcDbEntity
  8
レイヤー_2
 62
     7
100
AcDbVertex
100
AcDb2dVertex
 10
158.658016
 20
115.408632
 30
0.0
  0
VERTEX
  5
40E
100
AcDbEntity
  8
レイヤー_2
 62
     7
100
AcDbVertex
100
AcDb2dVertex
 10
158.847496
 20
114.70411
 30
0.0
  0
VERTEX
  5
40F
100
AcDbEntity
  8
レイヤー_2
 62
     7
100
AcDbVertex
100
AcDb2dVertex
 10
159.145841
 20
114.053676
 30
0.0
  0
VERTEX
  5
410
100
AcDbEntity
  8
レイヤー_2
 62
     7
100
AcDbVertex
100
AcDb2dVertex
 10
159.443498
 20
113.593411
 30
0.0
  0
SEQEND
  5
411
100
AcDbEntity
  8
レイヤー_2
 62
     7
  0
LINE
  5
40A
100
AcDbEntity
  8
レイヤー_2
 62
     7
100
AcDbLine
 10
159.470714
 20
113.593411
 30
0.0
 11
159.443498
 21
113.593411
 31
0.0
  0
LINE
  5
409
100
AcDbEntity
  8
レイヤー_2
 62
     7
100
AcDbLine
 10
158.6308
 20
115.598456
 30
0.0
 11
158.658016
 21
115.625328
 31
0.0
  0
LINE
  5
408
100
AcDbEntity
  8
レイヤー_2
 62
     7
100
AcDbLine
 10
166.704381
 20
115.6522
 30
0.0
 11
166.813246
 21
115.625328
 31
0.0
  0
LINE
  5
407
100
AcDbEntity
  8
レイヤー_2
 62
     7
100
AcDbLine
 10
165.973332
 20
113.593411
 30
0.0
 11
165.892027
 21
113.647499
 31
0.0
  0
LINE
  5
406
100
AcDbEntity
  8
レイヤー_2
 62
     7
100
AcDbLine
 10
158.766192
 20
116.600635
 30
0.0
 11
158.658016
 21
116.627851
 31
0.0
  0
LINE
  5
405
100
AcDbEntity
  8
レイヤー_2
 62
     7
100
AcDbLine
 10
159.470714
 20
118.659768
 30
0.0
 11
159.579234
 21
118.60568
 31
0.0
  0
LINE
  5
404
100
AcDbEntity
  8
レイヤー_2
 62
     7
100
AcDbLine
 10
165.892027
 20
118.60568
 30
0.0
 11
165.973332
 21
118.659768
 31
0.0
  0
LINE
  5
403
100
AcDbEntity
  8
レイヤー_2
 62
     7
100
AcDbLine
 10
166.813246
 20
116.627851
 30
0.0
 11
166.704381
 21
116.600635
 31
0.0
  0
LINE
  5
402
100
AcDbEntity
  8
レイヤー_2
 62
     7
100
AcDbLine
 10
165.214722
 20
112.970193
 30
0.0
 11
165.268465
 21
112.888889
 31
0.0
  0
LINE
  5
401
100
AcDbEntity
  8
レイヤー_2
 62
     7
100
AcDbLine
 10
163.236548
 20
112.048975
 30
0.0
 11
163.209676
 21
112.157495
 31
0.0
  0
LINE
  5
400
100
AcDbEntity
  8
レイヤー_2
 62
     7
100
AcDbLine
 10
163.209676
 20
120.095684
 30
0.0
 11
163.236548
 21
120.204205
 31
0.0
  0
LINE
  5
3FF
100
AcDbEntity
  8
レイヤー_2
 62
     7
100
AcDbLine
 10
165.268465
 20
119.36429
 30
0.0
 11
165.214722
 21
119.282986
 31
0.0
  0
LINE
  5
3FE
100
AcDbEntity
  8
レイヤー_2
 62
     7
100
AcDbLine
 10
162.234025
 20
112.157495
 30
0.0
 11
162.207153
 21
112.048975
 31
0.0
  0
LINE
  5
3FD
100
AcDbEntity
  8
レイヤー_2
 62
     7
100
AcDbLine
 10
160.202108
 20
112.888889
 30
0.0
 11
160.25654
 21
112.970193
 31
0.0
  0
LINE
  5
3FC
100
AcDbEntity
  8
レイヤー_2
 62
     7
100
AcDbLine
 10
159.579234
 20
113.647499
 30
0.0
 11
159.470714
 21
113.593411
 31
0.0
  0
LINE
  5
3FB
100
AcDbEntity
  8
レイヤー_2
 62
     7
100
AcDbLine
 10
158.658016
 20
115.625328
 30
0.0
 11
158.766192
 21
115.6522
 31
0.0
  0
LINE
  5
3FA
100
AcDbEntity
  8
レイヤー_2
 62
     7
100
AcDbLine
 10
160.25654
 20
119.282986
 30
0.0
 11
160.202108
 21
119.36429
 31
0.0
  0
LINE
  5
3F9
100
AcDbEntity
  8
レイヤー_2
 62
     7
100
AcDbLine
 10
162.207153
 20
120.204205
 30
0.0
 11
162.234025
 21
120.095684
 31
0.0
  0
LINE
  5
3F8
100
AcDbEntity
  8
レイヤー_2
 62
     7
100
AcDbLine
 10
158.983233
 20
124.105431
 30
0.0
 11
160.689933
 21
124.105431
 31
0.0
  0
LINE
  5
3F7
100
AcDbEntity
  8
レイヤー_2
 62
     7
100
AcDbLine
 10
157.248972
 20
124.105431
 30
0.0
 11
158.983233
 21
124.105431
 31
0.0
  0
LINE
  5
3F6
100
AcDbEntity
  8
レイヤー_2
 62
     7
100
AcDbLine
 10
164.456112
 20
108.608013
 30
0.0
 11
168.519946
 21
108.608013
 31
0.0
  0
LINE
  5
3F5
100
AcDbEntity
  8
レイヤー_2
 62
     7
100
AcDbLine
 10
156.761146
 20
111.805062
 30
0.0
 11
145.003035
 21
111.805062
 31
0.0
  0
LINE
  5
3F4
100
AcDbEntity
  8
レイヤー_2
 62
     7
100
AcDbLine
 10
156.761146
 20
120.394029
 30
0.0
 11
145.003035
 21
120.394029
 31
0.0
  0
LINE
  5
3F3
100
AcDbEntity
  8
レイヤー_2
 62
     7
100
AcDbLine
 10
168.601251
 20
119.282986
 30
0.0
 11
167.6256
 21
119.282986
 31
0.0
  0
LINE
  5
3F2
100
AcDbEntity
  8
レイヤー_2
 62
     7
100
AcDbLine
 10
157.818102
 20
119.282986
 30
0.0
 11
145.003035
 21
119.282986
 31
0.0
  0
LINE
  5
3F1
100
AcDbEntity
  8
レイヤー_2
 62
     7
100
AcDbLine
 10
168.601251
 20
112.834456
 30
0.0
 11
167.815424
 21
112.834456
 31
0.0
  0
LINE
  5
3F0
100
AcDbEntity
  8
レイヤー_2
 62
     7
100
AcDbLine
 10
157.492885
 20
112.834456
 30
0.0
 11
145.003035
 21
112.834456
 31
0.0
  0
LINE
  5
3EF
100
AcDbEntity
  8
レイヤー_2
 62
     7
100
AcDbLine
 10
157.330276
 20
120.637598
 30
0.0
 11
160.798109
 21
120.637598
 31
0.0
  0
LINE
  5
3EE
100
AcDbEntity
  8
レイヤー_2
 62
     7
100
AcDbLine
 10
164.69968
 20
120.637598
 30
0.0
 11
168.167858
 21
120.637598
 31
0.0
  0
LINE
  5
3ED
100
AcDbEntity
  8
レイヤー_2
 62
     7
100
AcDbLine
 10
157.330276
 20
111.479845
 30
0.0
 11
160.798109
 21
111.479845
 31
0.0
  0
LINE
  5
3EC
100
AcDbEntity
  8
レイヤー_2
 62
     7
100
AcDbLine
 10
164.69968
 20
111.479845
 30
0.0
 11
168.167858
 21
111.479845
 31
0.0
  0
POLYLINE
  5
3C5
100
AcDbEntity
  8
レイヤー_2
 62
     7
100
AcDb2dPolyline
 66
     1
 10
0.0
 20
0.0
 30
0.0
  0
VERTEX
  5
3C6
100
AcDbEntity
  8
レイヤー_2
 62
     7
100
AcDbVertex
100
AcDb2dVertex
 10
165.431074
 20
116.113154
 30
0.0
  0
VERTEX
  5
3C7
100
AcDbEntity
  8
レイヤー_2
 62
     7
100
AcDbVertex
100
AcDb2dVertex
 10
165.404202
 20
116.573763
 30
0.0
  0
VERTEX
  5
3C8
100
AcDbEntity
  8
レイヤー_2
 62
     7
100
AcDbVertex
100
AcDb2dVertex
 10
165.268465
 20
117.034372
 30
0.0
  0
VERTEX
  5
3C9
100
AcDbEntity
  8
レイヤー_2
 62
     7
100
AcDbVertex
100
AcDb2dVertex
 10
165.078985
 20
117.467765
 30
0.0
  0
VERTEX
  5
3CA
100
AcDbEntity
  8
レイヤー_2
 62
     7
100
AcDbVertex
100
AcDb2dVertex
 10
164.8082
 20
117.84707
 30
0.0
  0
VERTEX
  5
3CB
100
AcDbEntity
  8
レイヤー_2
 62
     7
100
AcDbVertex
100
AcDb2dVertex
 10
164.482983
 20
118.172287
 30
0.0
  0
VERTEX
  5
3CC
100
AcDbEntity
  8
レイヤー_2
 62
     7
100
AcDbVertex
100
AcDb2dVertex
 10
164.076462
 20
118.442727
 30
0.0
  0
VERTEX
  5
3CD
100
AcDbEntity
  8
レイヤー_2
 62
     7
100
AcDbVertex
100
AcDb2dVertex
 10
163.669941
 20
118.659768
 30
0.0
  0
VERTEX
  5
3CE
100
AcDbEntity
  8
レイヤー_2
 62
     7
100
AcDbVertex
100
AcDb2dVertex
 10
163.209676
 20
118.767944
 30
0.0
  0
VERTEX
  5
3CF
100
AcDbEntity
  8
レイヤー_2
 62
     7
100
AcDbVertex
100
AcDb2dVertex
 10
162.721851
 20
118.822377
 30
0.0
  0
VERTEX
  5
3D0
100
AcDbEntity
  8
レイヤー_2
 62
     7
100
AcDbVertex
100
AcDb2dVertex
 10
162.261241
 20
118.767944
 30
0.0
  0
VERTEX
  5
3D1
100
AcDbEntity
  8
レイヤー_2
 62
     7
100
AcDbVertex
100
AcDb2dVertex
 10
161.800632
 20
118.659768
 30
0.0
  0
VERTEX
  5
3D2
100
AcDbEntity
  8
レイヤー_2
 62
     7
100
AcDbVertex
100
AcDb2dVertex
 10
161.367239
 20
118.442727
 30
0.0
  0
VERTEX
  5
3D3
100
AcDbEntity
  8
レイヤー_2
 62
     7
100
AcDbVertex
100
AcDb2dVertex
 10
160.987934
 20
118.172287
 30
0.0
  0
VERTEX
  5
3D4
100
AcDbEntity
  8
レイヤー_2
 62
     7
100
AcDbVertex
100
AcDb2dVertex
 10
160.662717
 20
117.84707
 30
0.0
  0
VERTEX
  5
3D5
100
AcDbEntity
  8
レイヤー_2
 62
     7
100
AcDbVertex
100
AcDb2dVertex
 10
160.391933
 20
117.467765
 30
0.0
  0
VERTEX
  5
3D6
100
AcDbEntity
  8
レイヤー_2
 62
     7
100
AcDbVertex
100
AcDb2dVertex
 10
160.175236
 20
117.034372
 30
0.0
  0
VERTEX
  5
3D7
100
AcDbEntity
  8
レイヤー_2
 62
     7
100
AcDbVertex
100
AcDb2dVertex
 10
160.066715
 20
116.573763
 30
0.0
  0
VERTEX
  5
3D8
100
AcDbEntity
  8
レイヤー_2
 62
     7
100
AcDbVertex
100
AcDb2dVertex
 10
160.012627
 20
116.113154
 30
0.0
  0
VERTEX
  5
3D9
100
AcDbEntity
  8
レイヤー_2
 62
     7
100
AcDbVertex
100
AcDb2dVertex
 10
160.066715
 20
115.625328
 30
0.0
  0
VERTEX
  5
3DA
100
AcDbEntity
  8
レイヤー_2
 62
     7
100
AcDbVertex
100
AcDb2dVertex
 10
160.175236
 20
115.164719
 30
0.0
  0
VERTEX
  5
3DB
100
AcDbEntity
  8
レイヤー_2
 62
     7
100
AcDbVertex
100
AcDb2dVertex
 10
160.391933
 20
114.758198
 30
0.0
  0
VERTEX
  5
3DC
100
AcDbEntity
  8
レイヤー_2
 62
     7
100
AcDbVertex
100
AcDb2dVertex
 10
160.662717
 20
114.352021
 30
0.0
  0
VERTEX
  5
3DD
100
AcDbEntity
  8
レイヤー_2
 62
     7
100
AcDbVertex
100
AcDb2dVertex
 10
160.987934
 20
114.026804
 30
0.0
  0
VERTEX
  5
3DE
100
AcDbEntity
  8
レイヤー_2
 62
     7
100
AcDbVertex
100
AcDb2dVertex
 10
161.367239
 20
113.756019
 30
0.0
  0
VERTEX
  5
3DF
100
AcDbEntity
  8
レイヤー_2
 62
     7
100
AcDbVertex
100
AcDb2dVertex
 10
161.800632
 20
113.566195
 30
0.0
  0
VERTEX
  5
3E0
100
AcDbEntity
  8
レイヤー_2
 62
     7
100
AcDbVertex
100
AcDb2dVertex
 10
162.261241
 20
113.430802
 30
0.0
  0
VERTEX
  5
3E1
100
AcDbEntity
  8
レイヤー_2
 62
     7
100
AcDbVertex
100
AcDb2dVertex
 10
162.721851
 20
113.403586
 30
0.0
  0
VERTEX
  5
3E2
100
AcDbEntity
  8
レイヤー_2
 62
     7
100
AcDbVertex
100
AcDb2dVertex
 10
163.209676
 20
113.430802
 30
0.0
  0
VERTEX
  5
3E3
100
AcDbEntity
  8
レイヤー_2
 62
     7
100
AcDbVertex
100
AcDb2dVertex
 10
163.669941
 20
113.566195
 30
0.0
  0
VERTEX
  5
3E4
100
AcDbEntity
  8
レイヤー_2
 62
     7
100
AcDbVertex
100
AcDb2dVertex
 10
164.076462
 20
113.756019
 30
0.0
  0
VERTEX
  5
3E5
100
AcDbEntity
  8
レイヤー_2
 62
     7
100
AcDbVertex
100
AcDb2dVertex
 10
164.482983
 20
114.026804
 30
0.0
  0
VERTEX
  5
3E6
100
AcDbEntity
  8
レイヤー_2
 62
     7
100
AcDbVertex
100
AcDb2dVertex
 10
164.8082
 20
114.352021
 30
0.0
  0
VERTEX
  5
3E7
100
AcDbEntity
  8
レイヤー_2
 62
     7
100
AcDbVertex
100
AcDb2dVertex
 10
165.078985
 20
114.758198
 30
0.0
  0
VERTEX
  5
3E8
100
AcDbEntity
  8
レイヤー_2
 62
     7
100
AcDbVertex
100
AcDb2dVertex
 10
165.268465
 20
115.164719
 30
0.0
  0
VERTEX
  5
3E9
100
AcDbEntity
  8
レイヤー_2
 62
     7
100
AcDbVertex
100
AcDb2dVertex
 10
165.404202
 20
115.625328
 30
0.0
  0
VERTEX
  5
3EA
100
AcDbEntity
  8
レイヤー_2
 62
     7
100
AcDbVertex
100
AcDb2dVertex
 10
165.431074
 20
116.113154
 30
0.0
  0
SEQEND
  5
3EB
100
AcDbEntity
  8
レイヤー_2
 62
     7
  0
POLYLINE
  5
3AA
100
AcDbEntity
  8
レイヤー_2
 62
     7
100
AcDb2dPolyline
 66
     1
 10
0.0
 20
0.0
 30
0.0
  0
VERTEX
  5
3AB
100
AcDbEntity
  8
レイヤー_2
 62
     7
100
AcDbVertex
100
AcDb2dVertex
 10
149.473391
 20
116.058721
 30
0.0
  0
VERTEX
  5
3AC
100
AcDbEntity
  8
レイヤー_2
 62
     7
100
AcDbVertex
100
AcDb2dVertex
 10
149.418959
 20
116.519331
 30
0.0
  0
VERTEX
  5
3AD
100
AcDbEntity
  8
レイヤー_2
 62
     7
100
AcDbVertex
100
AcDb2dVertex
 10
149.229479
 20
116.953068
 30
0.0
  0
VERTEX
  5
3AE
100
AcDbEntity
  8
レイヤー_2
 62
     7
100
AcDbVertex
100
AcDb2dVertex
 10
148.958694
 20
117.332029
 30
0.0
  0
VERTEX
  5
3AF
100
AcDbEntity
  8
レイヤー_2
 62
     7
100
AcDbVertex
100
AcDb2dVertex
 10
148.579045
 20
117.603502
 30
0.0
  0
VERTEX
  5
3B0
100
AcDbEntity
  8
レイヤー_2
 62
     7
100
AcDbVertex
100
AcDb2dVertex
 10
148.145652
 20
117.792982
 30
0.0
  0
VERTEX
  5
3B1
100
AcDbEntity
  8
レイヤー_2
 62
     7
100
AcDbVertex
100
AcDb2dVertex
 10
147.685042
 20
117.84707
 30
0.0
  0
VERTEX
  5
3B2
100
AcDbEntity
  8
レイヤー_2
 62
     7
100
AcDbVertex
100
AcDb2dVertex
 10
147.224433
 20
117.792982
 30
0.0
  0
VERTEX
  5
3B3
100
AcDbEntity
  8
レイヤー_2
 62
     7
100
AcDbVertex
100
AcDb2dVertex
 10
146.79104
 20
117.603502
 30
0.0
  0
VERTEX
  5
3B4
100
AcDbEntity
  8
レイヤー_2
 62
     7
100
AcDbVertex
100
AcDb2dVertex
 10
146.438951
 20
117.332029
 30
0.0
  0
VERTEX
  5
3B5
100
AcDbEntity
  8
レイヤー_2
 62
     7
100
AcDbVertex
100
AcDb2dVertex
 10
146.140606
 20
116.953068
 30
0.0
  0
VERTEX
  5
3B6
100
AcDbEntity
  8
レイヤー_2
 62
     7
100
AcDbVertex
100
AcDb2dVertex
 10
145.951126
 20
116.519331
 30
0.0
  0
VERTEX
  5
3B7
100
AcDbEntity
  8
レイヤー_2
 62
     7
100
AcDbVertex
100
AcDb2dVertex
 10
145.896693
 20
116.058721
 30
0.0
  0
VERTEX
  5
3B8
100
AcDbEntity
  8
レイヤー_2
 62
     7
100
AcDbVertex
100
AcDb2dVertex
 10
145.951126
 20
115.598456
 30
0.0
  0
VERTEX
  5
3B9
100
AcDbEntity
  8
レイヤー_2
 62
     7
100
AcDbVertex
100
AcDb2dVertex
 10
146.140606
 20
115.164719
 30
0.0
  0
VERTEX
  5
3BA
100
AcDbEntity
  8
レイヤー_2
 62
     7
100
AcDbVertex
100
AcDb2dVertex
 10
146.438951
 20
114.785414
 30
0.0
  0
VERTEX
  5
3BB
100
AcDbEntity
  8
レイヤー_2
 62
     7
100
AcDbVertex
100
AcDb2dVertex
 10
146.79104
 20
114.514629
 30
0.0
  0
VERTEX
  5
3BC
100
AcDbEntity
  8
レイヤー_2
 62
     7
100
AcDbVertex
100
AcDb2dVertex
 10
147.224433
 20
114.325149
 30
0.0
  0
VERTEX
  5
3BD
100
AcDbEntity
  8
レイヤー_2
 62
     7
100
AcDbVertex
100
AcDb2dVertex
 10
147.685042
 20
114.270717
 30
0.0
  0
VERTEX
  5
3BE
100
AcDbEntity
  8
レイヤー_2
 62
     7
100
AcDbVertex
100
AcDb2dVertex
 10
148.145652
 20
114.325149
 30
0.0
  0
VERTEX
  5
3BF
100
AcDbEntity
  8
レイヤー_2
 62
     7
100
AcDbVertex
100
AcDb2dVertex
 10
148.579045
 20
114.514629
 30
0.0
  0
VERTEX
  5
3C0
100
AcDbEntity
  8
レイヤー_2
 62
     7
100
AcDbVertex
100
AcDb2dVertex
 10
148.958694
 20
114.785414
 30
0.0
  0
VERTEX
  5
3C1
100
AcDbEntity
  8
レイヤー_2
 62
     7
100
AcDbVertex
100
AcDb2dVertex
 10
149.229479
 20
115.164719
 30
0.0
  0
VERTEX
  5
3C2
100
AcDbEntity
  8
レイヤー_2
 62
     7
100
AcDbVertex
100
AcDb2dVertex
 10
149.418959
 20
115.598456
 30
0.0
  0
VERTEX
  5
3C3
100
AcDbEntity
  8
レイヤー_2
 62
     7
100
AcDbVertex
100
AcDb2dVertex
 10
149.473391
 20
116.058721
 30
0.0
  0
SEQEND
  5
3C4
100
AcDbEntity
  8
レイヤー_2
 62
     7
  0
LINE
  5
3A9
100
AcDbEntity
  8
レイヤー_2
 62
     7
100
AcDbLine
 10
144.244425
 20
117.982463
 30
0.0
 11
144.244425
 21
114.270717
 31
0.0
  0
LINE
  5
3A8
100
AcDbEntity
  8
レイヤー_2
 62
     7
100
AcDbLine
 10
157.384709
 20
108.608013
 30
0.0
 11
157.384709
 21
110.396362
 31
0.0
  0
LINE
  5
3A7
100
AcDbEntity
  8
レイヤー_2
 62
     7
100
AcDbLine
 10
157.384709
 20
111.479845
 30
0.0
 11
157.384709
 21
110.884188
 31
0.0
  0
LINE
  5
3A6
100
AcDbEntity
  8
レイヤー_2
 62
     7
100
AcDbLine
 10
160.527325
 20
108.608013
 30
0.0
 11
160.527325
 21
110.396362
 31
0.0
  0
LINE
  5
3A5
100
AcDbEntity
  8
レイヤー_2
 62
     7
100
AcDbLine
 10
160.527325
 20
111.479845
 30
0.0
 11
160.527325
 21
110.884188
 31
0.0
  0
LINE
  5
3A4
100
AcDbEntity
  8
レイヤー_2
 62
     7
100
AcDbLine
 10
141.236857
 20
117.765766
 30
0.0
 11
143.024862
 21
117.765766
 31
0.0
  0
LINE
  5
3A3
100
AcDbEntity
  8
レイヤー_2
 62
     7
100
AcDbLine
 10
144.244425
 20
117.765766
 30
0.0
 11
143.620863
 21
117.765766
 31
0.0
  0
LINE
  5
3A2
100
AcDbEntity
  8
レイヤー_2
 62
     7
100
AcDbLine
 10
141.236857
 20
114.595934
 30
0.0
 11
143.024862
 21
114.595934
 31
0.0
  0
LINE
  5
3A1
100
AcDbEntity
  8
レイヤー_2
 62
     7
100
AcDbLine
 10
144.244425
 20
114.595934
 30
0.0
 11
143.620863
 21
114.595934
 31
0.0
  0
LINE
  5
3A0
100
AcDbEntity
  8
レイヤー_2
 62
     7
100
AcDbLine
 10
140.776248
 20
114.595934
 30
0.0
 11
140.776248
 21
117.765766
 31
0.0
  0
POLYLINE
  5
39A
100
AcDbEntity
  8
レイヤー_2
 62
     7
100
AcDb2dPolyline
 66
     1
 10
0.0
 20
0.0
 30
0.0
  0
VERTEX
  5
39B
100
AcDbEntity
  8
レイヤー_2
 62
     7
100
AcDbVertex
100
AcDb2dVertex
 10
141.236857
 20
118.145071
 30
0.0
  0
VERTEX
  5
39C
100
AcDbEntity
  8
レイヤー_2
 62
     7
100
AcDbVertex
100
AcDb2dVertex
 10
140.992944
 20
118.090983
 30
0.0
  0
VERTEX
  5
39D
100
AcDbEntity
  8
レイヤー_2
 62
     7
100
AcDbVertex
100
AcDb2dVertex
 10
140.830336
 20
117.928375
 30
0.0
  0
VERTEX
  5
39E
100
AcDbEntity
  8
レイヤー_2
 62
     7
100
AcDbVertex
100
AcDb2dVertex
 10
140.776248
 20
117.73855
 30
0.0
  0
SEQEND
  5
39F
100
AcDbEntity
  8
レイヤー_2
 62
     7
  0
POLYLINE
  5
394
100
AcDbEntity
  8
レイヤー_2
 62
     7
100
AcDb2dPolyline
 66
     1
 10
0.0
 20
0.0
 30
0.0
  0
VERTEX
  5
395
100
AcDbEntity
  8
レイヤー_2
 62
     7
100
AcDbVertex
100
AcDb2dVertex
 10
140.776248
 20
117.73855
 30
0.0
  0
VERTEX
  5
396
100
AcDbEntity
  8
レイヤー_2
 62
     7
100
AcDbVertex
100
AcDb2dVertex
 10
140.830336
 20
117.928375
 30
0.0
  0
VERTEX
  5
397
100
AcDbEntity
  8
レイヤー_2
 62
     7
100
AcDbVertex
100
AcDb2dVertex
 10
140.992944
 20
118.090983
 30
0.0
  0
VERTEX
  5
398
100
AcDbEntity
  8
レイヤー_2
 62
     7
100
AcDbVertex
100
AcDb2dVertex
 10
141.182769
 20
118.145071
 30
0.0
  0
SEQEND
  5
399
100
AcDbEntity
  8
レイヤー_2
 62
     7
  0
POLYLINE
  5
38E
100
AcDbEntity
  8
レイヤー_2
 62
     7
100
AcDb2dPolyline
 66
     1
 10
0.0
 20
0.0
 30
0.0
  0
VERTEX
  5
38F
100
AcDbEntity
  8
レイヤー_2
 62
     7
100
AcDbVertex
100
AcDb2dVertex
 10
140.776248
 20
114.541501
 30
0.0
  0
VERTEX
  5
390
100
AcDbEntity
  8
レイヤー_2
 62
     7
100
AcDbVertex
100
AcDb2dVertex
 10
140.830336
 20
114.378893
 30
0.0
  0
VERTEX
  5
391
100
AcDbEntity
  8
レイヤー_2
 62
     7
100
AcDbVertex
100
AcDb2dVertex
 10
140.992944
 20
114.216629
 30
0.0
  0
VERTEX
  5
392
100
AcDbEntity
  8
レイヤー_2
 62
     7
100
AcDbVertex
100
AcDb2dVertex
 10
141.236857
 20
114.13498
 30
0.0
  0
SEQEND
  5
393
100
AcDbEntity
  8
レイヤー_2
 62
     7
  0
POLYLINE
  5
388
100
AcDbEntity
  8
レイヤー_2
 62
     7
100
AcDb2dPolyline
 66
     1
 10
0.0
 20
0.0
 30
0.0
  0
VERTEX
  5
389
100
AcDbEntity
  8
レイヤー_2
 62
     7
100
AcDbVertex
100
AcDb2dVertex
 10
141.236857
 20
114.13498
 30
0.0
  0
VERTEX
  5
38A
100
AcDbEntity
  8
レイヤー_2
 62
     7
100
AcDbVertex
100
AcDb2dVertex
 10
140.992944
 20
114.216629
 30
0.0
  0
VERTEX
  5
38B
100
AcDbEntity
  8
レイヤー_2
 62
     7
100
AcDbVertex
100
AcDb2dVertex
 10
140.830336
 20
114.378893
 30
0.0
  0
VERTEX
  5
38C
100
AcDbEntity
  8
レイヤー_2
 62
     7
100
AcDbVertex
100
AcDb2dVertex
 10
140.803464
 20
114.487413
 30
0.0
  0
SEQEND
  5
38D
100
AcDbEntity
  8
レイヤー_2
 62
     7
  0
LINE
  5
387
100
AcDbEntity
  8
レイヤー_2
 62
     7
100
AcDbLine
 10
147.820435
 20
122.886556
 30
0.0
 11
149.608439
 21
122.886556
 31
0.0
  0
LINE
  5
386
100
AcDbEntity
  8
レイヤー_2
 62
     7
100
AcDbLine
 10
151.424004
 20
122.886556
 30
0.0
 11
153.239225
 21
122.886556
 31
0.0
  0
LINE
  5
385
100
AcDbEntity
  8
レイヤー_2
 62
     7
100
AcDbLine
 10
155.027574
 20
122.886556
 30
0.0
 11
155.325231
 21
122.886556
 31
0.0
  0
LINE
  5
384
100
AcDbEntity
  8
レイヤー_2
 62
     7
100
AcDbLine
 10
155.325231
 20
122.886556
 30
0.0
 11
154.729229
 21
122.886556
 31
0.0
  0
LINE
  5
383
100
AcDbEntity
  8
レイヤー_2
 62
     7
100
AcDbLine
 10
163.832549
 20
124.403432
 30
0.0
 11
165.56681
 21
124.403432
 31
0.0
  0
LINE
  5
382
100
AcDbEntity
  8
レイヤー_2
 62
     7
100
AcDbLine
 10
165.56681
 20
124.403432
 30
0.0
 11
164.970809
 21
124.403432
 31
0.0
  0
LINE
  5
381
100
AcDbEntity
  8
レイヤー_2
 62
     7
100
AcDbLine
 10
163.832549
 20
123.644822
 30
0.0
 11
163.832549
 21
124.403432
 31
0.0
  0
LINE
  5
380
100
AcDbEntity
  8
レイヤー_2
 62
     7
100
AcDbLine
 10
163.832549
 20
124.403432
 30
0.0
 11
163.832549
 21
123.80743
 31
0.0
  0
LINE
  5
37F
100
AcDbEntity
  8
レイヤー_2
 62
     7
100
AcDbLine
 10
163.832549
 20
108.608013
 30
0.0
 11
163.832549
 21
107.849403
 31
0.0
  0
LINE
  5
37E
100
AcDbEntity
  8
レイヤー_2
 62
     7
100
AcDbLine
 10
163.832549
 20
107.849403
 30
0.0
 11
163.832549
 21
108.445749
 31
0.0
  0
LINE
  5
37D
100
AcDbEntity
  8
レイヤー_2
 62
     7
100
AcDbLine
 10
170.362383
 20
124.403432
 30
0.0
 11
170.362383
 21
122.588211
 31
0.0
  0
LINE
  5
37C
100
AcDbEntity
  8
レイヤー_2
 62
     7
100
AcDbLine
 10
170.362383
 20
120.800206
 30
0.0
 11
170.362383
 21
118.984985
 31
0.0
  0
LINE
  5
37B
100
AcDbEntity
  8
レイヤー_2
 62
     7
100
AcDbLine
 10
170.362383
 20
117.16942
 30
0.0
 11
170.362383
 21
115.381415
 31
0.0
  0
LINE
  5
37A
100
AcDbEntity
  8
レイヤー_2
 62
     7
100
AcDbLine
 10
170.362383
 20
113.566195
 30
0.0
 11
170.362383
 21
111.750974
 31
0.0
  0
LINE
  5
379
100
AcDbEntity
  8
レイヤー_2
 62
     7
100
AcDbLine
 10
170.362383
 20
109.962625
 30
0.0
 11
170.362383
 21
108.147404
 31
0.0
  0
LINE
  5
378
100
AcDbEntity
  8
レイヤー_2
 62
     7
100
AcDbLine
 10
170.362383
 20
107.849403
 30
0.0
 11
170.362383
 21
108.445749
 31
0.0
  0
LINE
  5
377
100
AcDbEntity
  8
レイヤー_2
 62
     7
100
AcDbLine
 10
140.288767
 20
119.662291
 30
0.0
 11
140.288767
 21
117.84707
 31
0.0
  0
LINE
  5
376
100
AcDbEntity
  8
レイヤー_2
 62
     7
100
AcDbLine
 10
140.288767
 20
116.058721
 30
0.0
 11
140.288767
 21
114.2435
 31
0.0
  0
LINE
  5
375
100
AcDbEntity
  8
レイヤー_2
 62
     7
100
AcDbLine
 10
140.288767
 20
112.590888
 30
0.0
 11
140.288767
 21
113.18689
 31
0.0
  0
LINE
  5
374
100
AcDbEntity
  8
レイヤー_2
 62
     7
100
AcDbLine
 10
155.325231
 20
124.403432
 30
0.0
 11
157.140796
 21
124.403432
 31
0.0
  0
LINE
  5
373
100
AcDbEntity
  8
レイヤー_2
 62
     7
100
AcDbLine
 10
158.034454
 20
124.403432
 30
0.0
 11
157.438452
 21
124.403432
 31
0.0
  0
LINE
  5
372
100
AcDbEntity
  8
レイヤー_2
 62
     7
100
AcDbLine
 10
147.820435
 20
109.366968
 30
0.0
 11
149.608439
 21
109.366968
 31
0.0
  0
LINE
  5
371
100
AcDbEntity
  8
レイヤー_2
 62
     7
100
AcDbLine
 10
151.424004
 20
109.366968
 30
0.0
 11
153.239225
 21
109.366968
 31
0.0
  0
LINE
  5
370
100
AcDbEntity
  8
レイヤー_2
 62
     7
100
AcDbLine
 10
155.027574
 20
109.366968
 30
0.0
 11
155.325231
 21
109.366968
 31
0.0
  0
LINE
  5
36F
100
AcDbEntity
  8
レイヤー_2
 62
     7
100
AcDbLine
 10
155.325231
 20
109.366968
 30
0.0
 11
154.729229
 21
109.366968
 31
0.0
  0
LINE
  5
36E
100
AcDbEntity
  8
レイヤー_2
 62
     7
100
AcDbLine
 10
163.832549
 20
107.849403
 30
0.0
 11
165.56681
 21
107.849403
 31
0.0
  0
LINE
  5
36D
100
AcDbEntity
  8
レイヤー_2
 62
     7
100
AcDbLine
 10
165.56681
 20
107.849403
 30
0.0
 11
164.970809
 21
107.849403
 31
0.0
  0
LINE
  5
36C
100
AcDbEntity
  8
レイヤー_2
 62
     7
100
AcDbLine
 10
140.288767
 20
112.590888
 30
0.0
 11
141.941035
 21
111.886366
 31
0.0
  0
LINE
  5
36B
100
AcDbEntity
  8
レイヤー_2
 62
     7
100
AcDbLine
 10
143.620863
 20
111.154972
 30
0.0
 11
145.27382
 21
110.45045
 31
0.0
  0
LINE
  5
36A
100
AcDbEntity
  8
レイヤー_2
 62
     7
100
AcDbLine
 10
146.926432
 20
109.745928
 30
0.0
 11
147.820435
 21
109.366968
 31
0.0
  0
LINE
  5
369
100
AcDbEntity
  8
レイヤー_2
 62
     7
100
AcDbLine
 10
147.820435
 20
109.366968
 30
0.0
 11
147.251649
 21
109.58332
 31
0.0
  0
LINE
  5
368
100
AcDbEntity
  8
レイヤー_2
 62
     7
100
AcDbLine
 10
147.820435
 20
122.886556
 30
0.0
 11
146.168167
 21
122.182034
 31
0.0
  0
LINE
  5
367
100
AcDbEntity
  8
レイヤー_2
 62
     7
100
AcDbLine
 10
144.487994
 20
121.477512
 30
0.0
 11
142.835381
 21
120.746118
 31
0.0
  0
LINE
  5
366
100
AcDbEntity
  8
レイヤー_2
 62
     7
100
AcDbLine
 10
141.182769
 20
120.041252
 30
0.0
 11
140.288767
 21
119.662291
 31
0.0
  0
LINE
  5
365
100
AcDbEntity
  8
レイヤー_2
 62
     7
100
AcDbLine
 10
140.288767
 20
119.662291
 30
0.0
 11
140.857552
 21
119.906204
 31
0.0
  0
LINE
  5
364
100
AcDbEntity
  8
レイヤー_2
 62
     7
100
AcDbLine
 10
155.325231
 20
122.886556
 30
0.0
 11
155.325231
 21
124.403432
 31
0.0
  0
LINE
  5
363
100
AcDbEntity
  8
レイヤー_2
 62
     7
100
AcDbLine
 10
155.325231
 20
124.403432
 30
0.0
 11
155.325231
 21
123.80743
 31
0.0
  0
LINE
  5
362
100
AcDbEntity
  8
レイヤー_2
 62
     7
100
AcDbLine
 10
155.325231
 20
109.366968
 30
0.0
 11
155.325231
 21
107.849403
 31
0.0
  0
LINE
  5
361
100
AcDbEntity
  8
レイヤー_2
 62
     7
100
AcDbLine
 10
155.325231
 20
107.849403
 30
0.0
 11
155.325231
 21
108.445749
 31
0.0
  0
LINE
  5
360
100
AcDbEntity
  8
レイヤー_2
 62
     7
100
AcDbLine
 10
155.325231
 20
107.849403
 30
0.0
 11
157.140796
 21
107.849403
 31
0.0
  0
LINE
  5
35F
100
AcDbEntity
  8
レイヤー_2
 62
     7
100
AcDbLine
 10
158.034454
 20
107.849403
 30
0.0
 11
157.438452
 21
107.849403
 31
0.0
  0
LINE
  5
35E
100
AcDbEntity
  8
レイヤー_2
 62
     7
100
AcDbLine
 10
158.034454
 20
124.403432
 30
0.0
 11
158.034454
 21
123.184212
 31
0.0
  0
LINE
  5
35D
100
AcDbEntity
  8
レイヤー_2
 62
     7
100
AcDbLine
 10
158.034454
 20
123.184212
 30
0.0
 11
158.034454
 21
123.80743
 31
0.0
  0
LINE
  5
35C
100
AcDbEntity
  8
レイヤー_2
 62
     7
100
AcDbLine
 10
160.14802
 20
124.403432
 30
0.0
 11
160.14802
 21
123.184212
 31
0.0
  0
LINE
  5
35B
100
AcDbEntity
  8
レイヤー_2
 62
     7
100
AcDbLine
 10
160.14802
 20
123.184212
 30
0.0
 11
160.14802
 21
123.80743
 31
0.0
  0
LINE
  5
35A
100
AcDbEntity
  8
レイヤー_2
 62
     7
100
AcDbLine
 10
165.56681
 20
124.403432
 30
0.0
 11
165.56681
 21
123.184212
 31
0.0
  0
LINE
  5
359
100
AcDbEntity
  8
レイヤー_2
 62
     7
100
AcDbLine
 10
165.56681
 20
123.184212
 30
0.0
 11
165.56681
 21
123.80743
 31
0.0
  0
LINE
  5
358
100
AcDbEntity
  8
レイヤー_2
 62
     7
100
AcDbLine
 10
167.652816
 20
124.403432
 30
0.0
 11
167.652816
 21
123.184212
 31
0.0
  0
LINE
  5
357
100
AcDbEntity
  8
レイヤー_2
 62
     7
100
AcDbLine
 10
167.652816
 20
123.184212
 30
0.0
 11
167.652816
 21
123.80743
 31
0.0
  0
LINE
  5
356
100
AcDbEntity
  8
レイヤー_2
 62
     7
100
AcDbLine
 10
158.034454
 20
107.849403
 30
0.0
 11
158.034454
 21
109.068623
 31
0.0
  0
LINE
  5
355
100
AcDbEntity
  8
レイヤー_2
 62
     7
100
AcDbLine
 10
158.034454
 20
109.068623
 30
0.0
 11
158.034454
 21
108.445749
 31
0.0
  0
LINE
  5
354
100
AcDbEntity
  8
レイヤー_2
 62
     7
100
AcDbLine
 10
160.14802
 20
107.849403
 30
0.0
 11
160.14802
 21
109.068623
 31
0.0
  0
LINE
  5
353
100
AcDbEntity
  8
レイヤー_2
 62
     7
100
AcDbLine
 10
160.14802
 20
109.068623
 30
0.0
 11
160.14802
 21
108.445749
 31
0.0
  0
LINE
  5
352
100
AcDbEntity
  8
レイヤー_2
 62
     7
100
AcDbLine
 10
167.652816
 20
107.849403
 30
0.0
 11
167.652816
 21
109.068623
 31
0.0
  0
LINE
  5
351
100
AcDbEntity
  8
レイヤー_2
 62
     7
100
AcDbLine
 10
167.652816
 20
109.068623
 30
0.0
 11
167.652816
 21
108.445749
 31
0.0
  0
LINE
  5
350
100
AcDbEntity
  8
レイヤー_2
 62
     7
100
AcDbLine
 10
165.56681
 20
107.849403
 30
0.0
 11
165.56681
 21
109.068623
 31
0.0
  0
LINE
  5
34F
100
AcDbEntity
  8
レイヤー_2
 62
     7
100
AcDbLine
 10
165.56681
 20
109.068623
 30
0.0
 11
165.56681
 21
108.445749
 31
0.0
  0
LINE
  5
34E
100
AcDbEntity
  8
レイヤー_2
 62
     7
100
AcDbLine
 10
167.652816
 20
124.403432
 30
0.0
 11
169.468037
 21
124.403432
 31
0.0
  0
LINE
  5
34D
100
AcDbEntity
  8
レイヤー_2
 62
     7
100
AcDbLine
 10
170.362383
 20
124.403432
 30
0.0
 11
169.766037
 21
124.403432
 31
0.0
  0
LINE
  5
34C
100
AcDbEntity
  8
レイヤー_2
 62
     7
100
AcDbLine
 10
167.652816
 20
107.849403
 30
0.0
 11
169.468037
 21
107.849403
 31
0.0
  0
LINE
  5
34B
100
AcDbEntity
  8
レイヤー_2
 62
     7
100
AcDbLine
 10
170.362383
 20
107.849403
 30
0.0
 11
169.766037
 21
107.849403
 31
0.0
  0
LINE
  5
34A
100
AcDbEntity
  8
レイヤー_2
 62
     7
100
AcDbLine
 10
160.14802
 20
107.849403
 30
0.0
 11
161.881936
 21
107.849403
 31
0.0
  0
LINE
  5
349
100
AcDbEntity
  8
レイヤー_2
 62
     7
100
AcDbLine
 10
161.881936
 20
107.849403
 30
0.0
 11
161.285935
 21
107.849403
 31
0.0
  0
LINE
  5
348
100
AcDbEntity
  8
レイヤー_2
 62
     7
100
AcDbLine
 10
161.881936
 20
123.644822
 30
0.0
 11
161.908808
 21
123.401253
 31
0.0
  0
LINE
  5
347
100
AcDbEntity
  8
レイヤー_2
 62
     7
100
AcDbLine
 10
161.908808
 20
123.401253
 30
0.0
 11
162.017673
 21
123.15734
 31
0.0
  0
LINE
  5
346
100
AcDbEntity
  8
レイヤー_2
 62
     7
100
AcDbLine
 10
162.017673
 20
123.15734
 30
0.0
 11
162.152721
 21
122.940644
 31
0.0
  0
LINE
  5
345
100
AcDbEntity
  8
レイヤー_2
 62
     7
100
AcDbLine
 10
162.152721
 20
122.940644
 30
0.0
 11
162.369762
 21
122.804907
 31
0.0
  0
LINE
  5
344
100
AcDbEntity
  8
レイヤー_2
 62
     7
100
AcDbLine
 10
162.369762
 20
122.804907
 30
0.0
 11
162.586458
 21
122.696731
 31
0.0
  0
LINE
  5
343
100
AcDbEntity
  8
レイヤー_2
 62
     7
100
AcDbLine
 10
162.586458
 20
122.696731
 30
0.0
 11
162.857587
 21
122.669515
 31
0.0
  0
LINE
  5
342
100
AcDbEntity
  8
レイヤー_2
 62
     7
100
AcDbLine
 10
162.857587
 20
122.669515
 30
0.0
 11
163.1015
 21
122.696731
 31
0.0
  0
LINE
  5
341
100
AcDbEntity
  8
レイヤー_2
 62
     7
100
AcDbLine
 10
163.1015
 20
122.696731
 30
0.0
 11
163.128372
 21
122.696731
 31
0.0
  0
LINE
  5
340
100
AcDbEntity
  8
レイヤー_2
 62
     7
100
AcDbLine
 10
163.832549
 20
123.644822
 30
0.0
 11
163.805678
 21
123.401253
 31
0.0
  0
LINE
  5
33F
100
AcDbEntity
  8
レイヤー_2
 62
     7
100
AcDbLine
 10
163.805678
 20
123.401253
 30
0.0
 11
163.697157
 21
123.15734
 31
0.0
  0
LINE
  5
33E
100
AcDbEntity
  8
レイヤー_2
 62
     7
100
AcDbLine
 10
163.697157
 20
123.15734
 30
0.0
 11
163.643069
 21
123.076036
 31
0.0
  0
LINE
  5
33D
100
AcDbEntity
  8
レイヤー_2
 62
     7
100
AcDbLine
 10
158.034454
 20
123.184212
 30
0.0
 11
158.088886
 21
122.913428
 31
0.0
  0
LINE
  5
33C
100
AcDbEntity
  8
レイヤー_2
 62
     7
100
AcDbLine
 10
158.088886
 20
122.913428
 30
0.0
 11
158.17019
 21
122.669515
 31
0.0
  0
LINE
  5
33B
100
AcDbEntity
  8
レイヤー_2
 62
     7
100
AcDbLine
 10
158.17019
 20
122.669515
 30
0.0
 11
158.359671
 21
122.452818
 31
0.0
  0
LINE
  5
33A
100
AcDbEntity
  8
レイヤー_2
 62
     7
100
AcDbLine
 10
158.359671
 20
122.452818
 30
0.0
 11
158.576712
 21
122.29021
 31
0.0
  0
LINE
  5
339
100
AcDbEntity
  8
レイヤー_2
 62
     7
100
AcDbLine
 10
158.576712
 20
122.29021
 30
0.0
 11
158.820624
 21
122.182034
 31
0.0
  0
LINE
  5
338
100
AcDbEntity
  8
レイヤー_2
 62
     7
100
AcDbLine
 10
158.820624
 20
122.182034
 30
0.0
 11
159.091409
 21
122.127601
 31
0.0
  0
LINE
  5
337
100
AcDbEntity
  8
レイヤー_2
 62
     7
100
AcDbLine
 10
159.091409
 20
122.127601
 30
0.0
 11
159.254017
 21
122.154818
 31
0.0
  0
LINE
  5
336
100
AcDbEntity
  8
レイヤー_2
 62
     7
100
AcDbLine
 10
160.14802
 20
123.184212
 30
0.0
 11
160.120803
 21
122.913428
 31
0.0
  0
LINE
  5
335
100
AcDbEntity
  8
レイヤー_2
 62
     7
100
AcDbLine
 10
160.120803
 20
122.913428
 30
0.0
 11
160.012627
 21
122.669515
 31
0.0
  0
LINE
  5
334
100
AcDbEntity
  8
レイヤー_2
 62
     7
100
AcDbLine
 10
160.012627
 20
122.669515
 30
0.0
 11
159.985411
 21
122.615427
 31
0.0
  0
LINE
  5
333
100
AcDbEntity
  8
レイヤー_2
 62
     7
100
AcDbLine
 10
165.56681
 20
123.184212
 30
0.0
 11
165.593682
 21
122.913428
 31
0.0
  0
LINE
  5
332
100
AcDbEntity
  8
レイヤー_2
 62
     7
100
AcDbLine
 10
165.593682
 20
122.913428
 30
0.0
 11
165.701858
 21
122.669515
 31
0.0
  0
LINE
  5
331
100
AcDbEntity
  8
レイヤー_2
 62
     7
100
AcDbLine
 10
165.701858
 20
122.669515
 30
0.0
 11
165.864467
 21
122.452818
 31
0.0
  0
LINE
  5
330
100
AcDbEntity
  8
レイヤー_2
 62
     7
100
AcDbLine
 10
165.864467
 20
122.452818
 30
0.0
 11
166.081508
 21
122.29021
 31
0.0
  0
LINE
  5
32F
100
AcDbEntity
  8
レイヤー_2
 62
     7
100
AcDbLine
 10
166.081508
 20
122.29021
 30
0.0
 11
166.352292
 21
122.182034
 31
0.0
  0
LINE
  5
32E
100
AcDbEntity
  8
レイヤー_2
 62
     7
100
AcDbLine
 10
166.352292
 20
122.182034
 30
0.0
 11
166.623077
 21
122.127601
 31
0.0
  0
LINE
  5
32D
100
AcDbEntity
  8
レイヤー_2
 62
     7
100
AcDbLine
 10
166.623077
 20
122.127601
 30
0.0
 11
166.758813
 21
122.154818
 31
0.0
  0
LINE
  5
32C
100
AcDbEntity
  8
レイヤー_2
 62
     7
100
AcDbLine
 10
167.652816
 20
123.184212
 30
0.0
 11
167.6256
 21
122.913428
 31
0.0
  0
LINE
  5
32B
100
AcDbEntity
  8
レイヤー_2
 62
     7
100
AcDbLine
 10
167.6256
 20
122.913428
 30
0.0
 11
167.517424
 21
122.669515
 31
0.0
  0
LINE
  5
32A
100
AcDbEntity
  8
レイヤー_2
 62
     7
100
AcDbLine
 10
167.517424
 20
122.669515
 30
0.0
 11
167.490552
 21
122.615427
 31
0.0
  0
LINE
  5
329
100
AcDbEntity
  8
レイヤー_2
 62
     7
100
AcDbLine
 10
163.832549
 20
108.608013
 30
0.0
 11
163.805678
 21
108.851926
 31
0.0
  0
LINE
  5
328
100
AcDbEntity
  8
レイヤー_2
 62
     7
100
AcDbLine
 10
163.805678
 20
108.851926
 30
0.0
 11
163.697157
 21
109.095839
 31
0.0
  0
LINE
  5
327
100
AcDbEntity
  8
レイヤー_2
 62
     7
100
AcDbLine
 10
163.697157
 20
109.095839
 30
0.0
 11
163.534893
 21
109.285664
 31
0.0
  0
LINE
  5
326
100
AcDbEntity
  8
レイヤー_2
 62
     7
100
AcDbLine
 10
163.534893
 20
109.285664
 30
0.0
 11
163.344724
 21
109.447928
 31
0.0
  0
LINE
  5
325
100
AcDbEntity
  8
レイヤー_2
 62
     7
100
AcDbLine
 10
163.344724
 20
109.447928
 30
0.0
 11
163.1015
 21
109.556448
 31
0.0
  0
LINE
  5
324
100
AcDbEntity
  8
レイヤー_2
 62
     7
100
AcDbLine
 10
163.1015
 20
109.556448
 30
0.0
 11
162.857587
 21
109.58332
 31
0.0
  0
LINE
  5
323
100
AcDbEntity
  8
レイヤー_2
 62
     7
100
AcDbLine
 10
162.857587
 20
109.58332
 30
0.0
 11
162.586458
 21
109.556448
 31
0.0
  0
LINE
  5
322
100
AcDbEntity
  8
レイヤー_2
 62
     7
100
AcDbLine
 10
162.586458
 20
109.556448
 30
0.0
 11
162.586458
 21
109.529576
 31
0.0
  0
LINE
  5
321
100
AcDbEntity
  8
レイヤー_2
 62
     7
100
AcDbLine
 10
161.881936
 20
108.608013
 30
0.0
 11
161.908808
 21
108.851926
 31
0.0
  0
LINE
  5
320
100
AcDbEntity
  8
レイヤー_2
 62
     7
100
AcDbLine
 10
161.908808
 20
108.851926
 30
0.0
 11
162.017673
 21
109.095839
 31
0.0
  0
LINE
  5
31F
100
AcDbEntity
  8
レイヤー_2
 62
     7
100
AcDbLine
 10
162.017673
 20
109.095839
 30
0.0
 11
162.071417
 21
109.177143
 31
0.0
  0
LINE
  5
31E
100
AcDbEntity
  8
レイヤー_2
 62
     7
100
AcDbLine
 10
167.652816
 20
109.068623
 30
0.0
 11
167.6256
 21
109.339752
 31
0.0
  0
LINE
  5
31D
100
AcDbEntity
  8
レイヤー_2
 62
     7
100
AcDbLine
 10
167.6256
 20
109.339752
 30
0.0
 11
167.517424
 21
109.58332
 31
0.0
  0
LINE
  5
31C
100
AcDbEntity
  8
レイヤー_2
 62
     7
100
AcDbLine
 10
167.517424
 20
109.58332
 30
0.0
 11
167.354815
 21
109.800361
 31
0.0
  0
LINE
  5
31B
100
AcDbEntity
  8
レイヤー_2
 62
     7
100
AcDbLine
 10
167.354815
 20
109.800361
 30
0.0
 11
167.138118
 21
109.962625
 31
0.0
  0
LINE
  5
31A
100
AcDbEntity
  8
レイヤー_2
 62
     7
100
AcDbLine
 10
167.138118
 20
109.962625
 30
0.0
 11
166.894206
 21
110.071145
 31
0.0
  0
LINE
  5
319
100
AcDbEntity
  8
レイヤー_2
 62
     7
100
AcDbLine
 10
166.894206
 20
110.071145
 30
0.0
 11
166.623077
 21
110.098362
 31
0.0
  0
LINE
  5
318
100
AcDbEntity
  8
レイヤー_2
 62
     7
100
AcDbLine
 10
166.623077
 20
110.098362
 30
0.0
 11
166.460813
 21
110.098362
 31
0.0
  0
LINE
  5
317
100
AcDbEntity
  8
レイヤー_2
 62
     7
100
AcDbLine
 10
165.56681
 20
109.068623
 30
0.0
 11
165.593682
 21
109.339752
 31
0.0
  0
LINE
  5
316
100
AcDbEntity
  8
レイヤー_2
 62
     7
100
AcDbLine
 10
165.593682
 20
109.339752
 30
0.0
 11
165.701858
 21
109.58332
 31
0.0
  0
LINE
  5
315
100
AcDbEntity
  8
レイヤー_2
 62
     7
100
AcDbLine
 10
165.701858
 20
109.58332
 30
0.0
 11
165.729419
 21
109.610881
 31
0.0
  0
LINE
  5
314
100
AcDbEntity
  8
レイヤー_2
 62
     7
100
AcDbLine
 10
160.14802
 20
109.068623
 30
0.0
 11
160.120803
 21
109.339752
 31
0.0
  0
LINE
  5
313
100
AcDbEntity
  8
レイヤー_2
 62
     7
100
AcDbLine
 10
160.120803
 20
109.339752
 30
0.0
 11
160.012627
 21
109.58332
 31
0.0
  0
LINE
  5
312
100
AcDbEntity
  8
レイヤー_2
 62
     7
100
AcDbLine
 10
160.012627
 20
109.58332
 30
0.0
 11
159.850019
 21
109.800361
 31
0.0
  0
LINE
  5
311
100
AcDbEntity
  8
レイヤー_2
 62
     7
100
AcDbLine
 10
159.850019
 20
109.800361
 30
0.0
 11
159.606106
 21
109.962625
 31
0.0
  0
LINE
  5
310
100
AcDbEntity
  8
レイヤー_2
 62
     7
100
AcDbLine
 10
159.606106
 20
109.962625
 30
0.0
 11
159.362193
 21
110.071145
 31
0.0
  0
LINE
  5
30F
100
AcDbEntity
  8
レイヤー_2
 62
     7
100
AcDbLine
 10
159.362193
 20
110.071145
 30
0.0
 11
159.091409
 21
110.098362
 31
0.0
  0
LINE
  5
30E
100
AcDbEntity
  8
レイヤー_2
 62
     7
100
AcDbLine
 10
159.091409
 20
110.098362
 30
0.0
 11
158.9288
 21
110.098362
 31
0.0
  0
LINE
  5
30D
100
AcDbEntity
  8
レイヤー_2
 62
     7
100
AcDbLine
 10
158.034454
 20
109.068623
 30
0.0
 11
158.088886
 21
109.339752
 31
0.0
  0
LINE
  5
30C
100
AcDbEntity
  8
レイヤー_2
 62
     7
100
AcDbLine
 10
158.088886
 20
109.339752
 30
0.0
 11
158.17019
 21
109.58332
 31
0.0
  0
LINE
  5
30B
100
AcDbEntity
  8
レイヤー_2
 62
     7
100
AcDbLine
 10
158.17019
 20
109.58332
 30
0.0
 11
158.224623
 21
109.610881
 31
0.0
  0
LINE
  5
30A
100
AcDbEntity
  8
レイヤー_2
 62
     7
100
AcDbLine
 10
161.881936
 20
123.644822
 30
0.0
 11
161.881936
 21
124.403432
 31
0.0
  0
LINE
  5
309
100
AcDbEntity
  8
レイヤー_2
 62
     7
100
AcDbLine
 10
161.881936
 20
124.403432
 30
0.0
 11
161.881936
 21
123.80743
 31
0.0
  0
LINE
  5
308
100
AcDbEntity
  8
レイヤー_2
 62
     7
100
AcDbLine
 10
160.14802
 20
124.403432
 30
0.0
 11
161.881936
 21
124.403432
 31
0.0
  0
LINE
  5
307
100
AcDbEntity
  8
レイヤー_2
 62
     7
100
AcDbLine
 10
161.881936
 20
124.403432
 30
0.0
 11
161.285935
 21
124.403432
 31
0.0
  0
LINE
  5
306
100
AcDbEntity
  8
レイヤー_2
 62
     7
100
AcDbLine
 10
143.94608
 20
123.644822
 30
0.0
 11
146.953649
 21
123.644822
 31
0.0
  0
LINE
  5
305
100
AcDbEntity
  8
レイヤー_2
 62
     7
100
AcDbLine
 10
147.576522
 20
123.644822
 30
0.0
 11
148.172523
 21
123.644822
 31
0.0
  0
LINE
  5
304
100
AcDbEntity
  8
レイヤー_2
 62
     7
100
AcDbLine
 10
148.416436
 20
123.644822
 30
0.0
 11
147.820435
 21
123.644822
 31
0.0
  0
LINE
  5
303
100
AcDbEntity
  8
レイヤー_2
 62
     7
100
AcDbLine
 10
160.581757
 20
123.644822
 30
0.0
 11
163.588637
 21
123.644822
 31
0.0
  0
LINE
  5
302
100
AcDbEntity
  8
レイヤー_2
 62
     7
100
AcDbLine
 10
164.212199
 20
123.644822
 30
0.0
 11
164.8082
 21
123.644822
 31
0.0
  0
LINE
  5
301
100
AcDbEntity
  8
レイヤー_2
 62
     7
100
AcDbLine
 10
165.268465
 20
123.644822
 30
0.0
 11
164.672464
 21
123.644822
 31
0.0
  0
LINE
  5
300
100
AcDbEntity
  8
レイヤー_2
 62
     7
100
AcDbLine
 10
140.126158
 20
116.113154
 30
0.0
 11
143.133382
 21
116.113154
 31
0.0
  0
LINE
  5
2FF
100
AcDbEntity
  8
レイヤー_2
 62
     7
100
AcDbLine
 10
143.7566
 20
116.113154
 30
0.0
 11
144.352601
 21
116.113154
 31
0.0
  0
LINE
  5
2FE
100
AcDbEntity
  8
レイヤー_2
 62
     7
100
AcDbLine
 10
144.948603
 20
116.113154
 30
0.0
 11
147.956171
 21
116.113154
 31
0.0
  0
LINE
  5
2FD
100
AcDbEntity
  8
レイヤー_2
 62
     7
100
AcDbLine
 10
148.552173
 20
116.113154
 30
0.0
 11
149.148174
 21
116.113154
 31
0.0
  0
LINE
  5
2FC
100
AcDbEntity
  8
レイヤー_2
 62
     7
100
AcDbLine
 10
149.771048
 20
116.113154
 30
0.0
 11
152.778616
 21
116.113154
 31
0.0
  0
LINE
  5
2FB
100
AcDbEntity
  8
レイヤー_2
 62
     7
100
AcDbLine
 10
153.374618
 20
116.113154
 30
0.0
 11
153.970619
 21
116.113154
 31
0.0
  0
LINE
  5
2FA
100
AcDbEntity
  8
レイヤー_2
 62
     7
100
AcDbLine
 10
154.566621
 20
116.113154
 30
0.0
 11
157.574189
 21
116.113154
 31
0.0
  0
LINE
  5
2F9
100
AcDbEntity
  8
レイヤー_2
 62
     7
100
AcDbLine
 10
158.17019
 20
116.113154
 30
0.0
 11
158.793408
 21
116.113154
 31
0.0
  0
LINE
  5
2F8
100
AcDbEntity
  8
レイヤー_2
 62
     7
100
AcDbLine
 10
159.38941
 20
116.113154
 30
0.0
 11
162.396634
 21
116.113154
 31
0.0
  0
LINE
  5
2F7
100
AcDbEntity
  8
レイヤー_2
 62
     7
100
AcDbLine
 10
162.992635
 20
116.113154
 30
0.0
 11
163.588637
 21
116.113154
 31
0.0
  0
LINE
  5
2F6
100
AcDbEntity
  8
レイヤー_2
 62
     7
100
AcDbLine
 10
164.212199
 20
116.113154
 30
0.0
 11
167.110902
 21
116.113154
 31
0.0
  0
LINE
  5
2F5
100
AcDbEntity
  8
レイヤー_2
 62
     7
100
AcDbLine
 10
167.110902
 20
116.113154
 30
0.0
 11
166.514901
 21
116.113154
 31
0.0
  0
LINE
  5
2F4
100
AcDbEntity
  8
レイヤー_2
 62
     7
100
AcDbLine
 10
144.027384
 20
108.608013
 30
0.0
 11
147.034953
 21
108.608013
 31
0.0
  0
LINE
  5
2F3
100
AcDbEntity
  8
レイヤー_2
 62
     7
100
AcDbLine
 10
147.630954
 20
108.608013
 30
0.0
 11
148.226956
 21
108.608013
 31
0.0
  0
LINE
  5
2F2
100
AcDbEntity
  8
レイヤー_2
 62
     7
100
AcDbLine
 10
148.443652
 20
108.608013
 30
0.0
 11
147.847651
 21
108.608013
 31
0.0
  0
LINE
  5
2F1
100
AcDbEntity
  8
レイヤー_2
 62
     7
100
AcDbLine
 10
161.340367
 20
108.608013
 30
0.0
 11
164.239071
 21
108.608013
 31
0.0
  0
LINE
  5
2F0
100
AcDbEntity
  8
レイヤー_2
 62
     7
100
AcDbLine
 10
164.239071
 20
108.608013
 30
0.0
 11
163.643069
 21
108.608013
 31
0.0
  0
LINE
  5
2EF
100
AcDbEntity
  8
レイヤー_2
 62
     7
100
AcDbLine
 10
146.03243
 20
106.792792
 30
0.0
 11
146.03243
 21
109.800361
 31
0.0
  0
LINE
  5
2EE
100
AcDbEntity
  8
レイヤー_2
 62
     7
100
AcDbLine
 10
146.03243
 20
110.233754
 30
0.0
 11
146.03243
 21
109.637408
 31
0.0
  0
LINE
  5
2ED
100
AcDbEntity
  8
レイヤー_2
 62
     7
100
AcDbLine
 10
146.03243
 20
122.236122
 30
0.0
 11
146.03243
 21
125.243346
 31
0.0
  0
LINE
  5
2EC
100
AcDbEntity
  8
レイヤー_2
 62
     7
100
AcDbLine
 10
146.03243
 20
125.487259
 30
0.0
 11
146.03243
 21
124.891257
 31
0.0
  0
LINE
  5
2EB
100
AcDbEntity
  8
レイヤー_2
 62
     7
100
AcDbLine
 10
162.857587
 20
106.901313
 30
0.0
 11
162.857587
 21
109.908537
 31
0.0
  0
LINE
  5
2EA
100
AcDbEntity
  8
レイヤー_2
 62
     7
100
AcDbLine
 10
162.857587
 20
110.125233
 30
0.0
 11
162.857587
 21
109.529576
 31
0.0
  0
LINE
  5
2E9
100
AcDbEntity
  8
レイヤー_2
 62
     7
100
AcDbLine
 10
162.857587
 20
122.29021
 30
0.0
 11
162.857587
 21
125.32465
 31
0.0
  0
LINE
  5
2E8
100
AcDbEntity
  8
レイヤー_2
 62
     7
100
AcDbLine
 10
162.857587
 20
125.487259
 30
0.0
 11
162.857587
 21
124.891257
 31
0.0
  0
LINE
  5
2E7
100
AcDbEntity
  8
レイヤー_2
 62
     7
100
AcDbLine
 10
147.685042
 20
119.36429
 30
0.0
 11
147.685042
 21
116.356722
 31
0.0
  0
LINE
  5
2E6
100
AcDbEntity
  8
レイヤー_2
 62
     7
100
AcDbLine
 10
147.685042
 20
115.761065
 30
0.0
 11
147.685042
 21
115.164719
 31
0.0
  0
LINE
  5
2E5
100
AcDbEntity
  8
レイヤー_2
 62
     7
100
AcDbLine
 10
147.685042
 20
114.568717
 30
0.0
 11
147.685042
 21
112.753497
 31
0.0
  0
LINE
  5
2E4
100
AcDbEntity
  8
レイヤー_2
 62
     7
100
AcDbLine
 10
147.685042
 20
112.753497
 30
0.0
 11
147.685042
 21
113.349498
 31
0.0
  0
LINE
  5
2E3
100
AcDbEntity
  8
レイヤー_2
 62
     7
100
AcDbLine
 10
162.721851
 20
120.637598
 30
0.0
 11
162.721851
 21
117.630029
 31
0.0
  0
LINE
  5
2E2
100
AcDbEntity
  8
レイヤー_2
 62
     7
100
AcDbLine
 10
162.721851
 20
117.034372
 30
0.0
 11
162.721851
 21
116.41081
 31
0.0
  0
LINE
  5
2E1
100
AcDbEntity
  8
レイヤー_2
 62
     7
100
AcDbLine
 10
162.721851
 20
115.814808
 30
0.0
 11
162.721851
 21
112.807929
 31
0.0
  0
LINE
  5
2E0
100
AcDbEntity
  8
レイヤー_2
 62
     7
100
AcDbLine
 10
162.721851
 20
112.211583
 30
0.0
 11
162.721851
 21
111.615582
 31
0.0
  0
LINE
  5
2DF
100
AcDbEntity
  8
レイヤー_2
 62
     7
100
AcDbLine
 10
162.721851
 20
111.561149
 30
0.0
 11
162.721851
 21
112.184711
 31
0.0
  0
LINE
  5
2DE
100
AcDbEntity
  8
レイヤー_2
 62
     7
100
AcDbLine
 10
158.983233
 20
124.566385
 30
0.0
 11
158.983233
 21
121.558816
 31
0.0
  0
LINE
  5
2DD
100
AcDbEntity
  8
レイヤー_2
 62
     7
100
AcDbLine
 10
158.983233
 20
120.962815
 30
0.0
 11
158.983233
 21
120.637598
 31
0.0
  0
LINE
  5
2DC
100
AcDbEntity
  8
レイヤー_2
 62
     7
100
AcDbLine
 10
158.983233
 20
120.637598
 30
0.0
 11
158.983233
 21
121.233599
 31
0.0
  0
LINE
  5
2DB
100
AcDbEntity
  8
レイヤー_2
 62
     7
100
AcDbLine
 10
158.983233
 20
111.507061
 30
0.0
 11
158.983233
 21
108.499837
 31
0.0
  0
LINE
  5
2DA
100
AcDbEntity
  8
レイヤー_2
 62
     7
100
AcDbLine
 10
158.983233
 20
108.093316
 30
0.0
 11
158.983233
 21
108.689317
 31
0.0
  0
LINE
  5
2D9
100
AcDbEntity
  8
レイヤー_2
 62
     7
100
AcDbLine
 10
158.983233
 20
107.957924
 30
0.0
 11
158.983233
 21
110.965492
 31
0.0
  0
LINE
  5
2D8
100
AcDbEntity
  8
レイヤー_2
 62
     7
100
AcDbLine
 10
158.983233
 20
111.561149
 30
0.0
 11
158.983233
 21
110.965492
 31
0.0
  0
LINE
  5
2D7
100
AcDbEntity
  8
レイヤー_2
 62
     7
100
AcDbLine
 10
166.488029
 20
120.637598
 30
0.0
 11
166.488029
 21
123.644822
 31
0.0
  0
LINE
  5
2D6
100
AcDbEntity
  8
レイヤー_2
 62
     7
100
AcDbLine
 10
166.488029
 20
124.241168
 30
0.0
 11
166.488029
 21
124.430648
 31
0.0
  0
LINE
  5
2D5
100
AcDbEntity
  8
レイヤー_2
 62
     7
100
AcDbLine
 10
166.488029
 20
124.430648
 30
0.0
 11
166.488029
 21
123.834646
 31
0.0
  0
LINE
  5
2D4
100
AcDbEntity
  8
レイヤー_2
 62
     7
100
AcDbLine
 10
158.983233
 20
120.637598
 30
0.0
 11
160.879414
 21
118.334551
 31
0.0
  0
LINE
  5
2D3
100
AcDbEntity
  8
レイヤー_2
 62
     7
100
AcDbLine
 10
161.285935
 20
117.84707
 30
0.0
 11
161.66524
 21
117.386461
 31
0.0
  0
LINE
  5
2D2
100
AcDbEntity
  8
レイヤー_2
 62
     7
100
AcDbLine
 10
162.044545
 20
116.925852
 30
0.0
 11
162.721851
 21
116.113154
 31
0.0
  0
LINE
  5
2D1
100
AcDbEntity
  8
レイヤー_2
 62
     7
100
AcDbLine
 10
162.721851
 20
116.113154
 30
0.0
 11
162.342546
 21
116.573763
 31
0.0
  0
LINE
  5
2D0
100
AcDbEntity
  8
レイヤー_2
 62
     7
100
AcDbLine
 10
166.488029
 20
120.637598
 30
0.0
 11
164.564288
 21
118.334551
 31
0.0
  0
LINE
  5
2CF
100
AcDbEntity
  8
レイヤー_2
 62
     7
100
AcDbLine
 10
164.184983
 20
117.84707
 30
0.0
 11
163.805678
 21
117.386461
 31
0.0
  0
LINE
  5
2CE
100
AcDbEntity
  8
レイヤー_2
 62
     7
100
AcDbLine
 10
163.426373
 20
116.925852
 30
0.0
 11
162.721851
 21
116.113154
 31
0.0
  0
LINE
  5
2CD
100
AcDbEntity
  8
レイヤー_2
 62
     7
100
AcDbLine
 10
162.721851
 20
116.113154
 30
0.0
 11
163.128372
 21
116.573763
 31
0.0
  0
LINE
  5
2CC
100
AcDbEntity
  8
レイヤー_2
 62
     7
100
AcDbLine
 10
158.983233
 20
111.561149
 30
0.0
 11
160.879414
 21
113.891412
 31
0.0
  0
LINE
  5
2CB
100
AcDbEntity
  8
レイヤー_2
 62
     7
100
AcDbLine
 10
161.285935
 20
114.352021
 30
0.0
 11
161.66524
 21
114.812286
 31
0.0
  0
LINE
  5
2CA
100
AcDbEntity
  8
レイヤー_2
 62
     7
100
AcDbLine
 10
162.044545
 20
115.273239
 30
0.0
 11
162.721851
 21
116.113154
 31
0.0
  0
LINE
  5
2C9
100
AcDbEntity
  8
レイヤー_2
 62
     7
100
AcDbLine
 10
162.721851
 20
116.113154
 30
0.0
 11
162.342546
 21
115.625328
 31
0.0
  0
LINE
  5
2C8
100
AcDbEntity
  8
レイヤー_2
 62
     7
100
AcDbLine
 10
166.488029
 20
111.561149
 30
0.0
 11
164.564288
 21
113.891412
 31
0.0
  0
LINE
  5
2C7
100
AcDbEntity
  8
レイヤー_2
 62
     7
100
AcDbLine
 10
164.184983
 20
114.352021
 30
0.0
 11
163.805678
 21
114.812286
 31
0.0
  0
LINE
  5
2C6
100
AcDbEntity
  8
レイヤー_2
 62
     7
100
AcDbLine
 10
163.426373
 20
115.273239
 30
0.0
 11
162.721851
 21
116.113154
 31
0.0
  0
LINE
  5
2C5
100
AcDbEntity
  8
レイヤー_2
 62
     7
100
AcDbLine
 10
162.721851
 20
116.113154
 30
0.0
 11
163.128372
 21
115.625328
 31
0.0
  0
LINE
  5
2C4
100
AcDbEntity
  8
レイヤー_2
 62
     7
100
AcDbLine
 10
166.488029
 20
107.957924
 30
0.0
 11
166.488029
 21
110.965492
 31
0.0
  0
LINE
  5
2C3
100
AcDbEntity
  8
レイヤー_2
 62
     7
100
AcDbLine
 10
166.488029
 20
111.561149
 30
0.0
 11
166.488029
 21
110.965492
 31
0.0
  0
LINE
  5
2C2
100
AcDbEntity
  8
レイヤー_2
 62
     7
100
AcDbLine
 10
147.685042
 20
112.753497
 30
0.0
 11
147.685042
 21
90.916414
 31
0.0
  0
LINE
  5
2C1
100
AcDbEntity
  8
レイヤー_2
 62
     7
100
AcDbLine
 10
147.685042
 20
92.514594
 30
0.0
 11
147.685042
 21
86.906323
 31
0.0
  0
LINE
  5
2C0
100
AcDbEntity
  8
レイヤー_2
 62
     7
100
AcDbLine
 10
143.973296
 20
125.13517
 30
0.0
 11
123.544914
 21
125.13517
 31
0.0
  0
LINE
  5
2BF
100
AcDbEntity
  8
レイヤー_2
 62
     7
100
AcDbLine
 10
144.298169
 20
107.063921
 30
0.0
 11
123.490481
 21
107.063921
 31
0.0
  0
LINE
  5
2BE
100
AcDbEntity
  8
レイヤー_2
 62
     7
100
AcDbLine
 10
124.330396
 20
125.677083
 30
0.0
 11
124.330396
 21
106.27844
 31
0.0
  0
LINE
  5
2BD
100
AcDbEntity
  8
レイヤー_2
 62
     7
100
AcDbLine
 10
123.734394
 20
125.677083
 30
0.0
 11
125.197526
 21
124.37656
 31
0.0
  0
LINE
  5
2BC
100
AcDbEntity
  8
レイヤー_2
 62
     7
100
AcDbLine
 10
123.571785
 20
107.768443
 30
0.0
 11
125.062134
 21
106.440704
 31
0.0
  0
LINE
  5
2BB
100
AcDbEntity
  8
レイヤー_2
 62
     7
100
AcDbLine
 10
130.345532
 20
124.457864
 30
0.0
 11
130.345532
 21
107.633051
 31
0.0
  0
LINE
  5
2BA
100
AcDbEntity
  8
レイヤー_2
 62
     7
100
AcDbLine
 10
129.749531
 20
124.186735
 30
0.0
 11
131.212318
 21
122.886556
 31
0.0
  0
LINE
  5
2B9
100
AcDbEntity
  8
レイヤー_2
 62
     7
100
AcDbLine
 10
129.586922
 20
109.258103
 30
0.0
 11
131.076581
 21
107.957924
 31
0.0
  0
LINE
  5
2B8
100
AcDbEntity
  8
レイヤー_2
 62
     7
100
AcDbLine
 10
143.729384
 20
123.617605
 30
0.0
 11
129.424314
 21
123.617605
 31
0.0
  0
LINE
  5
2B7
100
AcDbEntity
  8
レイヤー_2
 62
     7
100
AcDbLine
 10
143.56712
 20
108.581141
 30
0.0
 11
129.315793
 21
108.581141
 31
0.0
  0
LINE
  5
2B6
100
AcDbEntity
  8
レイヤー_2
 62
     7
100
AcDbLine
 10
169.468037
 20
138.194149
 30
0.0
 11
143.729384
 21
138.194149
 31
0.0
  0
LINE
  5
2B5
100
AcDbEntity
  8
レイヤー_2
 62
     7
100
AcDbLine
 10
169.17038
 20
138.79015
 30
0.0
 11
167.842641
 21
137.327363
 31
0.0
  0
LINE
  5
2B4
100
AcDbEntity
  8
レイヤー_2
 62
     7
100
AcDbLine
 10
145.219387
 20
138.952759
 30
0.0
 11
143.919208
 21
137.46241
 31
0.0
  0
LINE
  5
2B3
100
AcDbEntity
  8
レイヤー_2
 62
     7
100
AcDbLine
 10
168.601251
 20
124.864385
 30
0.0
 11
168.601251
 21
139.006847
 31
0.0
  0
LINE
  5
2B2
100
AcDbEntity
  8
レイヤー_2
 62
     7
100
AcDbLine
 10
168.601251
 20
144.832159
 30
0.0
 11
168.601251
 21
144.85903
 31
0.0
  0
LINE
  5
2B1
100
AcDbEntity
  8
レイヤー_2
 62
     7
100
AcDbLine
 10
144.569642
 20
125.866564
 30
0.0
 11
144.569642
 21
139.223543
 31
0.0
  0
LINE
  5
2B0
100
AcDbEntity
  8
レイヤー_2
 62
     7
100
AcDbLine
 10
169.413949
 20
74.741347
 30
0.0
 11
139.909117
 21
74.741347
 31
0.0
  0
LINE
  5
2AF
100
AcDbEntity
  8
レイヤー_2
 62
     7
100
AcDbLine
 10
167.138118
 20
132.639966
 30
0.0
 11
165.810723
 21
131.149962
 31
0.0
  0
LINE
  5
2AE
100
AcDbEntity
  8
レイヤー_2
 62
     7
100
AcDbLine
 10
141.345033
 20
75.473085
 30
0.0
 11
140.017638
 21
74.009953
 31
0.0
  0
LINE
  5
2AD
100
AcDbEntity
  8
レイヤー_2
 62
     7
100
AcDbLine
 10
159.606106
 20
132.639966
 30
0.0
 11
158.305927
 21
131.149962
 31
0.0
  0
LINE
  5
2AC
100
AcDbEntity
  8
レイヤー_2
 62
     7
100
AcDbLine
 10
167.138118
 20
131.908572
 30
0.0
 11
158.143319
 21
131.908572
 31
0.0
  0
LINE
  5
2AB
100
AcDbEntity
  8
レイヤー_2
 62
     7
100
AcDbLine
 10
169.14282
 20
75.445869
 30
0.0
 11
167.815424
 21
73.955865
 31
0.0
  0
LINE
  5
2AA
100
AcDbEntity
  8
レイヤー_2
 62
     7
100
AcDbLine
 10
163.399156
 20
88.694672
 30
0.0
 11
162.098633
 21
87.204324
 31
0.0
  0
LINE
  5
2A9
100
AcDbEntity
  8
レイヤー_2
 62
     7
100
AcDbLine
 10
148.281388
 20
88.694672
 30
0.0
 11
146.98052
 21
87.204324
 31
0.0
  0
LINE
  5
2A8
100
AcDbEntity
  8
レイヤー_2
 62
     7
100
AcDbLine
 10
163.616197
 20
87.936062
 30
0.0
 11
146.899216
 21
87.936062
 31
0.0
  0
LINE
  5
2A7
100
AcDbEntity
  8
レイヤー_2
 62
     7
100
AcDbLine
 10
169.603773
 20
124.105431
 30
0.0
 11
182.201799
 21
124.105431
 31
0.0
  0
LINE
  5
2A6
100
AcDbEntity
  8
レイヤー_2
 62
     7
100
AcDbLine
 10
169.441165
 20
108.608013
 30
0.0
 11
182.093278
 21
108.608013
 31
0.0
  0
LINE
  5
2A5
100
AcDbEntity
  8
レイヤー_2
 62
     7
100
AcDbLine
 10
180.603274
 20
124.701777
 30
0.0
 11
182.066751
 21
123.374037
 31
0.0
  0
LINE
  5
2A4
100
AcDbEntity
  8
レイヤー_2
 62
     7
100
AcDbLine
 10
180.603274
 20
109.339752
 30
0.0
 11
182.066751
 21
108.038883
 31
0.0
  0
LINE
  5
2A3
100
AcDbEntity
  8
レイヤー_2
 62
     7
100
AcDbLine
 10
181.335012
 20
124.728649
 30
0.0
 11
181.335012
 21
107.822531
 31
0.0
  0
LINE
  5
2A2
100
AcDbEntity
  8
レイヤー_2
 62
     7
100
AcDbLine
 10
163.453589
 20
81.325269
 30
0.0
 11
132.106665
 21
81.325269
 31
0.0
  0
LINE
  5
2A1
100
AcDbEntity
  8
レイヤー_2
 62
     7
100
AcDbLine
 10
163.453589
 20
82.083879
 30
0.0
 11
162.125849
 21
80.620747
 31
0.0
  0
LINE
  5
2A0
100
AcDbEntity
  8
レイヤー_2
 62
     7
100
AcDbLine
 10
145.219387
 20
82.246487
 30
0.0
 11
143.919208
 21
80.756139
 31
0.0
  0
LINE
  5
29F
100
AcDbEntity
  8
レイヤー_2
 62
     7
100
AcDbLine
 10
146.709736
 20
82.246487
 30
0.0
 11
145.409212
 21
80.756139
 31
0.0
  0
LINE
  5
29E
100
AcDbEntity
  8
レイヤー_2
 62
     7
100
AcDbLine
 10
140.694944
 20
114.108108
 30
0.0
 11
140.694944
 21
85.226495
 31
0.0
  0
LINE
  5
29D
100
AcDbEntity
  8
レイヤー_2
 62
     7
100
AcDbLine
 10
140.694944
 20
79.374655
 30
0.0
 11
140.694944
 21
74.009953
 31
0.0
  0
LINE
  5
29C
100
AcDbEntity
  8
レイヤー_2
 62
     7
100
AcDbLine
 10
168.519946
 20
107.849403
 30
0.0
 11
168.519946
 21
73.955865
 31
0.0
  0
LINE
  5
29B
100
AcDbEntity
  8
レイヤー_2
 62
     7
100
AcDbLine
 10
162.803155
 20
106.386271
 30
0.0
 11
162.803155
 21
80.268658
 31
0.0
  0
LINE
  5
29A
100
AcDbEntity
  8
レイヤー_2
 62
     7
100
AcDbLine
 10
158.983233
 20
132.613094
 30
0.0
 11
158.983233
 21
124.566385
 31
0.0
  0
LINE
  5
299
100
AcDbEntity
  8
レイヤー_2
 62
     7
100
AcDbLine
 10
166.488029
 20
132.639966
 30
0.0
 11
166.488029
 21
124.430648
 31
0.0
  0
LINE
  5
298
100
AcDbEntity
  8
レイヤー_2
 62
     7
100
AcDbLine
 10
140.884768
 20
145.536336
 30
0.0
 11
139.584245
 21
144.073204
 31
0.0
  0
LINE
  5
297
100
AcDbEntity
  8
レイヤー_2
 62
     7
100
AcDbLine
 10
140.234334
 20
145.807465
 30
0.0
 11
140.234334
 21
120.854294
 31
0.0
  0
LINE
  5
296
100
AcDbEntity
  8
レイヤー_2
 62
     7
100
AcDbLine
 10
170.958385
 20
145.536336
 30
0.0
 11
169.657517
 21
144.073204
 31
0.0
  0
LINE
  5
295
100
AcDbEntity
  8
レイヤー_2
 62
     7
100
AcDbLine
 10
170.334823
 20
145.590424
 30
0.0
 11
170.334823
 21
126.164909
 31
0.0
  0
LINE
  5
294
100
AcDbEntity
  8
レイヤー_2
 62
     7
100
AcDbLine
 10
139.448853
 20
144.832159
 30
0.0
 11
171.229169
 21
144.832159
 31
0.0
  0
LINE
  5
293
100
AcDbEntity
  8
レイヤー_2
 62
     7
100
AcDbLine
 10
146.03243
 20
106.792792
 30
0.0
 11
146.03243
 21
80.647963
 31
0.0
  0
LINE
  5
292
100
AcDbEntity
  8
レイヤー_2
 62
     7
100
AcDbLine
 10
144.542082
 20
107.389138
 30
0.0
 11
144.542082
 21
80.566314
 31
0.0
  0
INSERT
  5
2A
100
AcDbEntity
  8
レイヤー_2
 62
     7
100
AcDbBlockReference
  2
AI9-BLK1
 10
51.276284
 20
201.512075
 30
0.0
  0
ENDSEC
  0
SECTION
  2
OBJECTS
  0
DICTIONARY
  5
19
100
AcDbDictionary
280
     0
281
     1
  3
ACAD_GROUP
350
1A
  3
ACAD_MLINESTYLE
350
1B
  3
ACAD_LAYOUT
350
1E
  3
ACAD_PLOTSETTINGS
350
22
  3
ACAD_PLOTSTYLENAME
350
1F
  3
ACAD_WIPEOUT_VARS
350
23
  0
DICTIONARY
  5
1A
102
{ACAD_REACTORS
330
19
102
}
100
AcDbDictionary
280
     0
281
     1
  0
DICTIONARY
  5
1B
102
{ACAD_REACTORS
330
19
102
}
100
AcDbDictionary
280
     0
281
     1
  3
Standard
350
1C
  0
MLINESTYLE
  5
1C
102
{ACAD_REACTORS
330
1B
102
}
100
AcDbMlineStyle
  2
Standard
 70
     0
  3

 62
     0
 51
90.0
 52
90.0
 71
     2
 49
0.5
 62
   256
  6
ByLayer
 49
-0.5
 62
   256
  6
ByLayer
  0
ACDBDICTIONARYWDFLT
  5
1F
102
{ACAD_REACTORS
330
19
102
}
100
AcDbDictionary
281
     1
  3
Normal
350
1D
100
AcDbDictionaryWithDefault
340
1D
  0
ACDBPLACEHOLDER
  5
1D
102
{ACAD_REACTORS
330
1F
102
}
  0
LAYOUT
  5
20
102
{ACAD_REACTORS
330
1E
102
}
100
AcDbPlotSettings
  1

  2

  4

  6

 40
0.0
 41
0.0
 42
0.0
 43
0.0
 44
0.0
 45
0.0
 46
0.0
 47
0.0
 48
0.0
 49
0.0
140
0.0
141
0.0
142
1.0
143
1.0
 70
  1024
 72
     0
 73
     0
 74
     0
  7

 75
     0
147
1.0
148
0.0
149
0.0
100
AcDbLayout
  1
Model
 70
     0
 71
     0
 10
0.0
 20
0.0
 11
0.0
 21
0.0
 12
0.0
 22
0.0
 32
0.0
 14
0.0
 24
0.0
 34
0.0
 15
0.0
 25
0.0
 35
0.0
146
0.0
 13
0.0
 23
0.0
 33
0.0
 16
0.0
 26
0.0
 36
0.0
 17
0.0
 27
0.0
 37
0.0
 76
     0
330
A
331
0
345
0
346
0
  0
LAYOUT
  5
21
102
{ACAD_REACTORS
330
1E
102
}
100
AcDbPlotSettings
  1

  2

  4

  6

 40
0.0
 41
0.0
 42
0.0
 43
0.0
 44
0.0
 45
0.0
 46
0.0
 47
0.0
 48
0.0
 49
0.0
140
0.0
141
0.0
142
1.0
143
1.0
 70
     0
 72
     0
 73
     0
 74
     0
  7

 75
     0
147
1.0
148
0.0
149
0.0
100
AcDbLayout
  1
Layout1
 70
     0
 71
     0
 10
0.0
 20
0.0
 11
0.0
 21
0.0
 12
0.0
 22
0.0
 32
0.0
 14
0.0
 24
0.0
 34
0.0
 15
0.0
 25
0.0
 35
0.0
146
0.0
 13
0.0
 23
0.0
 33
0.0
 16
0.0
 26
0.0
 36
0.0
 17
0.0
 27
0.0
 37
0.0
 76
     0
330
B
331
0
345
0
346
0
  0
DICTIONARY
  5
1E
102
{ACAD_REACTORS
330
19
102
}
100
AcDbDictionary
280
     0
281
     1
  3
Layout1
350
21
  3
Model
350
20
  0
DICTIONARY
  5
22
102
{ACAD_REACTORS
330
19
102
}
100
AcDbDictionary
280
     0
281
     1
  0
WIPEOUTVARIABLES
  5
23
100
AcDbWipeoutVariables
 70
     1
  0
IMAGEDEF_REACTOR
  5
99B
100
AcDbRasterImageDefReactor
 90
        2
330
99A
  0
IMAGEDEF
  5
99C
100
AcDbRasterImageDef
 90
        0
  1
\\192.168.6.3\free(2009_04\一過性\DB_WEB用DXF_丸茂\LULU\36812710_1.bmp
 10
70.0
 20
9.0
 11
0.352778
 21
0.352778
280
     1
281
     0
  0
IMAGEDEF_REACTOR
  5
99E
100
AcDbRasterImageDefReactor
 90
        2
330
99D
  0
IMAGEDEF
  5
99F
100
AcDbRasterImageDef
 90
        0
  1
\\192.168.6.3\free(2009_04\一過性\DB_WEB用DXF_丸茂\LULU\36812710_2.bmp
 10
70.0
 20
9.0
 11
0.352778
 21
0.352778
280
     1
281
     0
  0
ENDSEC
  0
EOF
