  0
SECTION
  2
HEADER
  9
$ACADVER
  1
AC1015
  9
$ACADMAINTVER
 70
     6
  9
$DWGCODEPAGE
  3
ANSI_932
  9
$INSBASE
 10
0.0
 20
0.0
 30
0.0
  9
$EXTMIN
 10
23.283333
 20
25.752778
 30
1.000000E+20
  9
$EXTMAX
 10
198.966667
 20
276.930556
 30
-1.000000E+20
  9
$LIMMIN
 10
23.283333
 20
25.752778
  9
$LIMMAX
 10
198.966667
 20
276.930556
  9
$ORTHOMODE
 70
     0
  9
$REGENMODE
 70
     1
  9
$FILLMODE
 70
     1
  9
$QTEXTMODE
 70
     0
  9
$MIRRTEXT
 70
     1
  9
$LTSCALE
 40
1.0
  9
$ATTMODE
 70
     1
  9
$TEXTSIZE
 40
0.2
  9
$TRACEWID
 40
0.05
  9
$TEXTSTYLE
  7
Standard
  9
$CLAYER
  8
0
  9
$CELTYPE
  6
Continuous
  9
$CECOLOR
 62
   256
  9
$CELTSCALE
 40
1.0
  9
$DISPSILH
 70
     0
  9
$DIMSCALE
 40
1.0
  9
$DIMASZ
 40
0.18
  9
$DIMEXO
 40
0.0625
  9
$DIMDLI
 40
0.38
  9
$DIMRND
 40
0.0
  9
$DIMDLE
 40
0.0
  9
$DIMEXE
 40
0.18
  9
$DIMTP
 40
0.0
  9
$DIMTM
 40
0.0
  9
$DIMTXT
 40
0.18
  9
$DIMCEN
 40
0.09
  9
$DIMTSZ
 40
0.0
  9
$DIMTOL
 70
     0
  9
$DIMLIM
 70
     0
  9
$DIMTIH
 70
     1
  9
$DIMTOH
 70
     1
  9
$DIMSE1
 70
     0
  9
$DIMSE2
 70
     0
  9
$DIMTAD
 70
     0
  9
$DIMZIN
 70
     0
  9
$DIMBLK
  1

  9
$DIMASO
 70
     1
  9
$DIMSHO
 70
     1
  9
$DIMPOST
  1

  9
$DIMAPOST
  1

  9
$DIMALT
 70
     0
  9
$DIMALTD
 70
     2
  9
$DIMALTF
 40
25.4
  9
$DIMLFAC
 40
1.0
  9
$DIMTOFL
 70
     0
  9
$DIMTVP
 40
0.0
  9
$DIMTIX
 70
     0
  9
$DIMSOXD
 70
     0
  9
$DIMSAH
 70
     0
  9
$DIMBLK1
  1

  9
$DIMBLK2
  1

  9
$DIMSTYLE
  2
Standard
  9
$DIMCLRD
 70
     0
  9
$DIMCLRE
 70
     0
  9
$DIMCLRT
 70
     0
  9
$DIMTFAC
 40
1.0
  9
$DIMGAP
 40
0.09
  9
$DIMJUST
 70
     0
  9
$DIMSD1
 70
     0
  9
$DIMSD2
 70
     0
  9
$DIMTOLJ
 70
     1
  9
$DIMTZIN
 70
     0
  9
$DIMALTZ
 70
     0
  9
$DIMALTTZ
 70
     0
  9
$DIMUPT
 70
     0
  9
$DIMDEC
 70
     4
  9
$DIMTDEC
 70
     4
  9
$DIMALTU
 70
     2
  9
$DIMALTTD
 70
     2
  9
$DIMTXSTY
  7
Standard
  9
$DIMAUNIT
 70
     0
  9
$DIMADEC
 70
     0
  9
$DIMALTRND
 40
0.0
  9
$DIMAZIN
 70
     0
  9
$DIMDSEP
 70
     0
  9
$DIMATFIT
 70
     3
  9
$DIMFRAC
 70
     0
  9
$DIMLDRBLK
  1

  9
$DIMLUNIT
 70
     2
  9
$DIMLWD
 70
     0
  9
$DIMLWE
 70
     0
  9
$DIMTMOVE
 70
     0
  9
$LUNITS
 70
     2
  9
$LUPREC
 70
     4
  9
$SKETCHINC
 40
0.1
  9
$FILLETRAD
 40
0.0
  9
$AUNITS
 70
     0
  9
$AUPREC
 70
     0
  9
$MENU
  1
acad
  9
$ELEVATION
 40
0.0
  9
$PELEVATION
 40
0.0
  9
$THICKNESS
 40
0.0
  9
$LIMCHECK
 70
     0
  9
$CHAMFERA
 40
0.0
  9
$CHAMFERB
 40
0.0
  9
$CHAMFERC
 40
0.0
  9
$CHAMFERD
 40
0.0
  9
$SKPOLY
 70
     0
  9
$TDCREATE
 40
0.000000000
  9
$TDUCREATE
 40
0.000000000
  9
$TDUPDATE
 40
0.000000000
  9
$TDUUPDATE
 40
0.000000000
  9
$TDINDWG
 40
0.0000000000
  9
$TDUSRTIMER
 40
0.0000000000
  9
$USRTIMER
 70
     1
  9
$ANGBASE
 50
0.0
  9
$ANGDIR
 70
     0
  9
$PDMODE
 70
     0
  9
$PDSIZE
 40
0.0
  9
$PLINEWID
 40
0.0
  9
$SPLFRAME
 70
     0
  9
$SPLINETYPE
 70
     6
  9
$SPLINESEGS
 70
     8
  9
$HANDSEED
  5
420
  9
$SURFTAB1
 70
     6
  9
$SURFTAB2
 70
     6
  9
$SURFTYPE
 70
     6
  9
$SURFU
 70
     6
  9
$SURFV
 70
     6
  9
$UCSBASE
  2

  9
$UCSNAME
  2

  9
$UCSORG
 10
0.0
 20
0.0
 30
0.0
  9
$UCSXDIR
 10
1.0
 20
0.0
 30
0.0
  9
$UCSYDIR
 10
0.0
 20
1.0
 30
0.0
  9
$UCSORTHOREF
  2

  9
$UCSORTHOVIEW
 70
     0
  9
$UCSORGTOP
 10
0.0
 20
0.0
 30
0.0
  9
$UCSORGBOTTOM
 10
0.0
 20
0.0
 30
0.0
  9
$UCSORGLEFT
 10
0.0
 20
0.0
 30
0.0
  9
$UCSORGRIGHT
 10
0.0
 20
0.0
 30
0.0
  9
$UCSORGFRONT
 10
0.0
 20
0.0
 30
0.0
  9
$UCSORGBACK
 10
0.0
 20
0.0
 30
0.0
  9
$PUCSBASE
  2

  9
$PUCSNAME
  2

  9
$PUCSORG
 10
0.0
 20
0.0
 30
0.0
  9
$PUCSXDIR
 10
1.0
 20
0.0
 30
0.0
  9
$PUCSYDIR
 10
0.0
 20
1.0
 30
0.0
  9
$PUCSORTHOREF
  2

  9
$PUCSORTHOVIEW
 70
     0
  9
$PUCSORGTOP
 10
0.0
 20
0.0
 30
0.0
  9
$PUCSORGBOTTOM
 10
0.0
 20
0.0
 30
0.0
  9
$PUCSORGLEFT
 10
0.0
 20
0.0
 30
0.0
  9
$PUCSORGRIGHT
 10
0.0
 20
0.0
 30
0.0
  9
$PUCSORGFRONT
 10
0.0
 20
0.0
 30
0.0
  9
$PUCSORGBACK
 10
0.0
 20
0.0
 30
0.0
  9
$USERI1
 70
     0
  9
$USERI2
 70
     0
  9
$USERI3
 70
     0
  9
$USERI4
 70
     0
  9
$USERI5
 70
     0
  9
$USERR1
 40
0.0
  9
$USERR2
 40
0.0
  9
$USERR3
 40
0.0
  9
$USERR4
 40
0.0
  9
$USERR5
 40
0.0
  9
$WORLDVIEW
 70
     1
  9
$SHADEDGE
 70
     3
  9
$SHADEDIF
 70
    70
  9
$TILEMODE
 70
     1
  9
$MAXACTVP
 70
    16
  9
$PINSBASE
 10
0.0
 20
0.0
 30
0.0
  9
$PLIMCHECK
 70
     0
  9
$PEXTMIN
 10
1.000000E+20
 20
1.000000E+20
 30
1.000000E+20
  9
$PEXTMAX
 10
-1.000000E+20
 20
-1.000000E+20
 30
-1.000000E+20
  9
$PLIMMIN
 10
0.0
 20
0.0
  9
$PLIMMAX
 10
12.0
 20
9.0
  9
$UNITMODE
 70
     0
  9
$VISRETAIN
 70
     0
  9
$PLINEGEN
 70
     1
  9
$PSLTSCALE
 70
     0
  9
$TREEDEPTH
 70
  3020
  9
$CMLSTYLE
  2
Standard
  9
$CMLJUST
 70
     0
  9
$CMLSCALE
 40
1.0
  9
$PROXYGRAPHICS
 70
     0
  9
$MEASUREMENT
 70
     1
  9
$CELWEIGHT
370
     0
  9
$ENDCAPS
280
     0
  9
$JOINSTYLE
280
     0
  9
$LWDISPLAY
290
     0
  9
$INSUNITS
 70
     0
  9
$HYPERLINKBASE
  1

  9
$STYLESHEET
  1

  9
$XEDIT
290
     1
  9
$CEPSNTYPE
380
     0
  9
$PSTYLEMODE
290
     1
  9
$FINGERPRINTGUID
  2

  9
$VERSIONGUID
  2

  9
$EXTNAMES
290
     1
  9
$PSVPSCALE
 40
0.0
  0
ENDSEC
  0
SECTION
  2
CLASSES
  0
CLASS
  1
LWPOLYLINE
  2
AcDbPolyline
  3
AutoCAD 2000
 90
    32768
280
     0
281
     1
  0
CLASS
  1
IMAGE
  2
AcDbRasterImage
  3
ISM
 90
      127
280
     0
281
     1
  0
CLASS
  1
OLE2FRAME
  2
AcDbOle2Frame
  3
AutoCAD 2000
 90
    32768
280
     0
281
     1
  0
CLASS
  1
HATCH
  2
AcDbHatch
  3
AutoCAD 2000
 90
    32768
280
     0
281
     1
  0
CLASS
  1
DICTIONARYVAR
  2
AcDbDictionaryVar
  3
AutoCAD 2000
 90
    32768
280
     0
281
     0
  0
CLASS
  1
RASTERVARIABLES
  2
AcDbRasterVariables
  3
ISM
 90
    32768
280
     0
281
     0
  0
CLASS
  1
IMAGEDEF
  2
AcDbRasterImageDef
  3
ISM
 90
        0
280
     0
281
     0
  0
CLASS
  1
IMAGEDEF_REACTOR
  2
AcDbRasterImageDefReactor
  3
ISM
 90
        1
280
     0
281
     0
  0
CLASS
  1
IDBUFFER
  2
AcDbIdBuffer
  3
AutoCAD 2000
 90
    32768
280
     0
281
     0
  0
CLASS
  1
SPATIAL_FILTER
  2
AcDbSpatialFilter
  3
AutoCAD 2000
 90
    32768
280
     0
281
     0
  0
CLASS
  1
XRECORD
  2
AcDbXrecord
  3
AutoCAD 2000
 90
    32768
280
     0
281
     0
  0
CLASS
  1
SORTENTSTABLE
  2
AcDbSortentsTable
  3
AutoCAD 2000
 90
    32768
280
     0
281
     0
  0
CLASS
  1
LAYER_INDEX
  2
AcDbLayerIndex
  3
AutoCAD 2000
 90
    32768
280
     0
281
     0
  0
CLASS
  1
SPATIAL_INDEX
  2
AcDbSpatialIndex
  3
AutoCAD 2000
 90
    32768
280
     0
281
     0
  0
CLASS
  1
OBJECT_PTR
  2
CAseDLPNTableRecord
  3
"ASE-LPNTableRecord"
 90
    32769
280
     0
281
     0
  0
CLASS
  1
LAYOUT
  2
AcDbLayout
  3
AutoCAD 2000
 90
        0
280
     0
281
     0
  0
CLASS
  1
PLOTSETTINGS
  2
AcDbPlotSettings
  3
AutoCAD 2000
 90
    32768
280
     0
281
     0
  0
CLASS
  1
ACDBDICTIONARYWDFLT
  2
AcDbDictionaryWithDefault
  3
AutoCAD 2000
 90
        0
280
     0
281
     0
  0
CLASS
  1
ACDBPLACEHOLDER
  2
AcDbPlaceHolder
  3
AutoCAD 2000
 90
        0
280
     0
281
     0
  0
CLASS
  1
VBA_PROJECT
  2
AcDbVbaProject
  3
acadvba
 90
    32768
280
     0
281
     0
  0
CLASS
  1
WIPEOUT
  2
AcDbWipeout
  3
WipeOut|AutoCAD Express Tool|expresstools@autodesk.com
 90
    32895
280
     0
281
     1
  0
CLASS
  1
WIPEOUTVARIABLES
  2
AcDbWipeoutVariables
  3
WipeOut|AutoCAD Express Tool|expresstools@autodesk.com
 90
        0
280
     0
281
     0
  0
CLASS
  1
RTEXT
  2
RText
  3
RText|AutoCAD Express Tool|expresstools@autodesk.com
 90
    32768
280
     0
281
     1
  0
CLASS
  1
ARCALIGNEDTEXT
  2
AcDbArcAlignedText
  3
ATEXT|AutoCAD Express Tool|expresstools@autodesk.com
 90
    32768
280
     0
281
     1
  0
ENDSEC
  0
SECTION
  2
TABLES
  0
TABLE
  2
VPORT
  5
7
100
AcDbSymbolTable
 70
     1
  0
VPORT
  5
15
100
AcDbSymbolTableRecord
100
AcDbViewportTableRecord
  2
*ACTIVE
 70
     0
 10
0.0
 20
0.0
 11
1.0
 21
1.0
 12
6.591288
 22
4.579184
 13
0.0
 23
0.0
 14
1.0
 24
1.0
 15
0.0
 25
0.0
 16
0.0
 26
0.0
 36
1.0
 17
0.0
 27
0.0
 37
0.0
 40
9.158369
 41
0.688564
 42
50.0
 43
0.0
 44
0.0
 50
0.0
 51
0.0
 71
     0
 72
   100
 73
     1
 74
     1
 75
     0
 76
     0
 77
     0
 78
     0
281
     0
 65
     0
110
0.0
120
0.0
130
0.0
111
1.0
121
0.0
131
0.0
112
0.0
122
1.0
132
0.0
345
0
346
0
 79
     0
146
0.0
  0
ENDTAB
  0
TABLE
  2
LTYPE
  5
4
100
AcDbSymbolTable
 70
     7
  0
LTYPE
  5
11
100
AcDbSymbolTableRecord
100
AcDbLinetypeTableRecord
  2
ByBlock
 70
    64
  3

 72
    65
 73
     0
 40
0.0
  0
LTYPE
  5
12
100
AcDbSymbolTableRecord
100
AcDbLinetypeTableRecord
  2
ByLayer
 70
    64
  3

 72
    65
 73
     0
 40
0.0
  0
LTYPE
  5
13
100
AcDbSymbolTableRecord
100
AcDbLinetypeTableRecord
  2
Continuous
 70
    64
  3
Solid line
 72
    65
 73
     0
 40
0.0
  0
LTYPE
  5
40
100
AcDbSymbolTableRecord
100
AcDbLinetypeTableRecord
  2
AI9-LType1
 70
    64
  3
Illustrator Dash Style No.1
 72
    65
 73
     4
 40
3.999936
 49
0.999984
 74
     0
 49
-0.999984
 74
     0
 49
0.999984
 74
     0
 49
-0.999984
 74
     0
  0
LTYPE
  5
2A0
100
AcDbSymbolTableRecord
100
AcDbLinetypeTableRecord
  2
AI9-LType2
 70
    64
  3
Illustrator Dash Style No.2
 72
    65
 73
     4
 40
11.679625
 49
5.078095
 74
     0
 49
-2.539047
 74
     0
 49
1.523436
 74
     0
 49
-2.539047
 74
     0
  0
LTYPE
  5
303
100
AcDbSymbolTableRecord
100
AcDbLinetypeTableRecord
  2
AI9-LType3
 70
    64
  3
Illustrator Dash Style No.3
 72
    65
 73
     4
 40
6.999958
 49
4.000006
 74
     0
 49
-0.999984
 74
     0
 49
0.999984
 74
     0
 49
-0.999984
 74
     0
  0
LTYPE
  5
35D
100
AcDbSymbolTableRecord
100
AcDbLinetypeTableRecord
  2
AI9-LType4
 70
    64
  3
Illustrator Dash Style No.4
 72
    65
 73
     4
 40
8.000295
 49
4.99992
 74
     0
 49
-1.000125
 74
     0
 49
1.000125
 74
     0
 49
-1.000125
 74
     0
  0
ENDTAB
  0
TABLE
  2
LAYER
  5
2
100
AcDbSymbolTable
 70
     3
  0
LAYER
  5
14
100
AcDbSymbolTableRecord
100
AcDbLayerTableRecord
  2
0
 70
     0
 62
     7
  6
Continuous
290
     1
370
    -3
390
1D
  0
LAYER
  5
28
100
AcDbSymbolTableRecord
100
AcDbLayerTableRecord
  2
レイヤー_2
 70
     0
 62
     1
  6
Continuous
290
     1
370
    -3
390
1D
  0
LAYER
  5
405
100
AcDbSymbolTableRecord
100
AcDbLayerTableRecord
  2
レイヤー_1
 70
     0
 62
   160
  6
Continuous
290
     1
370
    -3
390
1D
  0
ENDTAB
  0
TABLE
  2
STYLE
  5
3
100
AcDbSymbolTable
 70
     5
  0
STYLE
  5
17
100
AcDbSymbolTableRecord
100
AcDbTextStyleTableRecord
  2
Standard
 70
     0
 40
0.0
 41
1.0
 50
0.0
 71
     0
 42
0.0
  3
txt
  4

  0
STYLE
  5
24
100
AcDbSymbolTableRecord
100
AcDbTextStyleTableRecord
  2
STD
 70
     0
 40
0.0
 41
1.0
 50
0.0
 71
     0
 42
0.0
  3
txt
  4

  0
STYLE
  5
25
100
AcDbSymbolTableRecord
100
AcDbTextStyleTableRecord
  2
TATESTD
 70
     4
 40
0.0
 41
1.0
 50
0.0
 71
     0
 42
0.0
  3
txt
  4

  0
STYLE
  5
26
100
AcDbSymbolTableRecord
100
AcDbTextStyleTableRecord
  2
KANJISTD
 70
     0
 40
0.0
 41
1.0
 50
0.0
 71
     0
 42
0.0
  3
txt
  4
extfont
  0
STYLE
  5
27
100
AcDbSymbolTableRecord
100
AcDbTextStyleTableRecord
  2
KANJITATE
 70
     4
 40
0.0
 41
1.0
 50
0.0
 71
     0
 42
0.0
  3
txt
  4
extfont
  0
ENDTAB
  0
TABLE
  2
VIEW
  5
5
100
AcDbSymbolTable
 70
     0
  0
ENDTAB
  0
TABLE
  2
UCS
  5
6
100
AcDbSymbolTable
 70
     0
  0
ENDTAB
  0
TABLE
  2
APPID
  5
8
100
AcDbSymbolTable
 70
     1
  0
APPID
  5
16
100
AcDbSymbolTableRecord
100
AcDbRegAppTableRecord
  2
ACAD
 70
     0
  0
ENDTAB
  0
TABLE
  2
DIMSTYLE
  5
9
100
AcDbSymbolTable
 70
     1
100
AcDbDimStyleTable
 71
     0
  0
DIMSTYLE
105
18
100
AcDbSymbolTableRecord
100
AcDbDimStyleTableRecord
  2
Standard
 70
     0
  3

  4

 40
1.0
 41
0.18
 42
0.0625
 43
0.38
 44
0.18
 45
0.0
 46
0.0
 47
0.0
 48
0.0
 71
     0
 72
     0
 73
     1
 74
     1
 75
     0
 76
     0
 77
     0
 78
     0
 79
     0
140
0.18
141
0.09
142
0.0
143
25.4
144
1.0
145
0.0
146
1.0
147
0.09
148
0.0
170
     0
171
     2
172
     0
173
     0
174
     0
175
     0
176
     0
177
     0
178
     0
179
     0
271
     4
272
     4
273
     2
274
     2
275
     0
276
     0
277
     2
278
    46
279
     0
280
     0
281
     0
282
     0
283
     1
284
     0
285
     0
286
     0
288
     0
340
17
341
0
342
0
343
0
344
0
371
    -2
372
    -2
  0
ENDTAB
  0
TABLE
  2
BLOCK_RECORD
  5
1
100
AcDbSymbolTable
 70
    61
  0
BLOCK_RECORD
  5
A
100
AcDbSymbolTableRecord
100
AcDbBlockTableRecord
  2
*MODEL_SPACE
340
20
  0
BLOCK_RECORD
  5
B
100
AcDbSymbolTableRecord
100
AcDbBlockTableRecord
  2
*PAPER_SPACE
340
21
  0
BLOCK_RECORD
  5
29
100
AcDbSymbolTableRecord
100
AcDbBlockTableRecord
  2
AI9-BLK1
340
0
102
{BLKREFS
331
2A
102
}
  0
BLOCK_RECORD
  5
33
100
AcDbSymbolTableRecord
100
AcDbBlockTableRecord
  2
AI9-BLK2
340
0
102
{BLKREFS
331
34
102
}
  0
BLOCK_RECORD
  5
3D
100
AcDbSymbolTableRecord
100
AcDbBlockTableRecord
  2
AI9-BLK3
340
0
102
{BLKREFS
331
3E
102
}
  0
BLOCK_RECORD
  5
D0
100
AcDbSymbolTableRecord
100
AcDbBlockTableRecord
  2
AI9-BLK4
340
0
102
{BLKREFS
331
D1
102
}
  0
BLOCK_RECORD
  5
DE
100
AcDbSymbolTableRecord
100
AcDbBlockTableRecord
  2
AI9-BLK5
340
0
102
{BLKREFS
331
DF
102
}
  0
BLOCK_RECORD
  5
E6
100
AcDbSymbolTableRecord
100
AcDbBlockTableRecord
  2
AI9-BLK6
340
0
102
{BLKREFS
331
E7
102
}
  0
BLOCK_RECORD
  5
EE
100
AcDbSymbolTableRecord
100
AcDbBlockTableRecord
  2
AI9-BLK7
340
0
102
{BLKREFS
331
EF
102
}
  0
BLOCK_RECORD
  5
F5
100
AcDbSymbolTableRecord
100
AcDbBlockTableRecord
  2
AI9-BLK8
340
0
102
{BLKREFS
331
F6
102
}
  0
BLOCK_RECORD
  5
FC
100
AcDbSymbolTableRecord
100
AcDbBlockTableRecord
  2
AI9-BLK9
340
0
102
{BLKREFS
331
FD
102
}
  0
BLOCK_RECORD
  5
102
100
AcDbSymbolTableRecord
100
AcDbBlockTableRecord
  2
AI9-BLK10
340
0
102
{BLKREFS
331
103
102
}
  0
BLOCK_RECORD
  5
10A
100
AcDbSymbolTableRecord
100
AcDbBlockTableRecord
  2
AI9-BLK11
340
0
102
{BLKREFS
331
10B
102
}
  0
BLOCK_RECORD
  5
113
100
AcDbSymbolTableRecord
100
AcDbBlockTableRecord
  2
AI9-BLK12
340
0
102
{BLKREFS
331
114
102
}
  0
BLOCK_RECORD
  5
11B
100
AcDbSymbolTableRecord
100
AcDbBlockTableRecord
  2
AI9-BLK13
340
0
102
{BLKREFS
331
11C
102
}
  0
BLOCK_RECORD
  5
123
100
AcDbSymbolTableRecord
100
AcDbBlockTableRecord
  2
AI9-BLK14
340
0
102
{BLKREFS
331
124
102
}
  0
BLOCK_RECORD
  5
12C
100
AcDbSymbolTableRecord
100
AcDbBlockTableRecord
  2
AI9-BLK15
340
0
102
{BLKREFS
331
12D
102
}
  0
BLOCK_RECORD
  5
135
100
AcDbSymbolTableRecord
100
AcDbBlockTableRecord
  2
AI9-BLK16
340
0
102
{BLKREFS
331
136
102
}
  0
BLOCK_RECORD
  5
13B
100
AcDbSymbolTableRecord
100
AcDbBlockTableRecord
  2
AI9-BLK17
340
0
102
{BLKREFS
331
13C
102
}
  0
BLOCK_RECORD
  5
141
100
AcDbSymbolTableRecord
100
AcDbBlockTableRecord
  2
AI9-BLK18
340
0
102
{BLKREFS
331
142
102
}
  0
BLOCK_RECORD
  5
147
100
AcDbSymbolTableRecord
100
AcDbBlockTableRecord
  2
AI9-BLK19
340
0
102
{BLKREFS
331
148
102
}
  0
BLOCK_RECORD
  5
14D
100
AcDbSymbolTableRecord
100
AcDbBlockTableRecord
  2
AI9-BLK20
340
0
102
{BLKREFS
331
14E
102
}
  0
BLOCK_RECORD
  5
153
100
AcDbSymbolTableRecord
100
AcDbBlockTableRecord
  2
AI9-BLK21
340
0
102
{BLKREFS
331
154
102
}
  0
BLOCK_RECORD
  5
159
100
AcDbSymbolTableRecord
100
AcDbBlockTableRecord
  2
AI9-BLK22
340
0
102
{BLKREFS
331
15A
102
}
  0
BLOCK_RECORD
  5
15F
100
AcDbSymbolTableRecord
100
AcDbBlockTableRecord
  2
AI9-BLK23
340
0
102
{BLKREFS
331
160
102
}
  0
BLOCK_RECORD
  5
165
100
AcDbSymbolTableRecord
100
AcDbBlockTableRecord
  2
AI9-BLK24
340
0
102
{BLKREFS
331
166
102
}
  0
BLOCK_RECORD
  5
16B
100
AcDbSymbolTableRecord
100
AcDbBlockTableRecord
  2
AI9-BLK25
340
0
102
{BLKREFS
331
16C
102
}
  0
BLOCK_RECORD
  5
171
100
AcDbSymbolTableRecord
100
AcDbBlockTableRecord
  2
AI9-BLK26
340
0
102
{BLKREFS
331
172
102
}
  0
BLOCK_RECORD
  5
177
100
AcDbSymbolTableRecord
100
AcDbBlockTableRecord
  2
AI9-BLK27
340
0
102
{BLKREFS
331
178
102
}
  0
BLOCK_RECORD
  5
17D
100
AcDbSymbolTableRecord
100
AcDbBlockTableRecord
  2
AI9-BLK28
340
0
102
{BLKREFS
331
17E
102
}
  0
BLOCK_RECORD
  5
183
100
AcDbSymbolTableRecord
100
AcDbBlockTableRecord
  2
AI9-BLK29
340
0
102
{BLKREFS
331
184
102
}
  0
BLOCK_RECORD
  5
189
100
AcDbSymbolTableRecord
100
AcDbBlockTableRecord
  2
AI9-BLK30
340
0
102
{BLKREFS
331
18A
102
}
  0
BLOCK_RECORD
  5
18F
100
AcDbSymbolTableRecord
100
AcDbBlockTableRecord
  2
AI9-BLK31
340
0
102
{BLKREFS
331
190
102
}
  0
BLOCK_RECORD
  5
195
100
AcDbSymbolTableRecord
100
AcDbBlockTableRecord
  2
AI9-BLK32
340
0
102
{BLKREFS
331
196
102
}
  0
BLOCK_RECORD
  5
19B
100
AcDbSymbolTableRecord
100
AcDbBlockTableRecord
  2
AI9-BLK33
340
0
102
{BLKREFS
331
19C
102
}
  0
BLOCK_RECORD
  5
1A1
100
AcDbSymbolTableRecord
100
AcDbBlockTableRecord
  2
AI9-BLK34
340
0
102
{BLKREFS
331
1A2
102
}
  0
BLOCK_RECORD
  5
1BD
100
AcDbSymbolTableRecord
100
AcDbBlockTableRecord
  2
AI9-BLK35
340
0
102
{BLKREFS
331
1BE
102
}
  0
BLOCK_RECORD
  5
1D9
100
AcDbSymbolTableRecord
100
AcDbBlockTableRecord
  2
AI9-BLK36
340
0
102
{BLKREFS
331
1DA
102
}
  0
BLOCK_RECORD
  5
1F5
100
AcDbSymbolTableRecord
100
AcDbBlockTableRecord
  2
AI9-BLK37
340
0
102
{BLKREFS
331
1F6
102
}
  0
BLOCK_RECORD
  5
211
100
AcDbSymbolTableRecord
100
AcDbBlockTableRecord
  2
AI9-BLK38
340
0
102
{BLKREFS
331
212
102
}
  0
BLOCK_RECORD
  5
217
100
AcDbSymbolTableRecord
100
AcDbBlockTableRecord
  2
AI9-BLK39
340
0
102
{BLKREFS
331
218
102
}
  0
BLOCK_RECORD
  5
21D
100
AcDbSymbolTableRecord
100
AcDbBlockTableRecord
  2
AI9-BLK40
340
0
102
{BLKREFS
331
21E
102
}
  0
BLOCK_RECORD
  5
223
100
AcDbSymbolTableRecord
100
AcDbBlockTableRecord
  2
AI9-BLK41
340
0
102
{BLKREFS
331
224
102
}
  0
BLOCK_RECORD
  5
229
100
AcDbSymbolTableRecord
100
AcDbBlockTableRecord
  2
AI9-BLK42
340
0
102
{BLKREFS
331
22A
102
}
  0
BLOCK_RECORD
  5
22F
100
AcDbSymbolTableRecord
100
AcDbBlockTableRecord
  2
AI9-BLK43
340
0
102
{BLKREFS
331
230
102
}
  0
BLOCK_RECORD
  5
235
100
AcDbSymbolTableRecord
100
AcDbBlockTableRecord
  2
AI9-BLK44
340
0
102
{BLKREFS
331
236
102
}
  0
BLOCK_RECORD
  5
23B
100
AcDbSymbolTableRecord
100
AcDbBlockTableRecord
  2
AI9-BLK45
340
0
102
{BLKREFS
331
23C
102
}
  0
BLOCK_RECORD
  5
241
100
AcDbSymbolTableRecord
100
AcDbBlockTableRecord
  2
AI9-BLK46
340
0
102
{BLKREFS
331
242
102
}
  0
BLOCK_RECORD
  5
24C
100
AcDbSymbolTableRecord
100
AcDbBlockTableRecord
  2
AI9-BLK47
340
0
102
{BLKREFS
331
24D
102
}
  0
BLOCK_RECORD
  5
255
100
AcDbSymbolTableRecord
100
AcDbBlockTableRecord
  2
AI9-BLK48
340
0
102
{BLKREFS
331
256
102
}
  0
BLOCK_RECORD
  5
25E
100
AcDbSymbolTableRecord
100
AcDbBlockTableRecord
  2
AI9-BLK49
340
0
102
{BLKREFS
331
25F
102
}
  0
BLOCK_RECORD
  5
268
100
AcDbSymbolTableRecord
100
AcDbBlockTableRecord
  2
AI9-BLK50
340
0
102
{BLKREFS
331
269
102
}
  0
BLOCK_RECORD
  5
26E
100
AcDbSymbolTableRecord
100
AcDbBlockTableRecord
  2
AI9-BLK51
340
0
102
{BLKREFS
331
26F
102
}
  0
BLOCK_RECORD
  5
274
100
AcDbSymbolTableRecord
100
AcDbBlockTableRecord
  2
AI9-BLK52
340
0
102
{BLKREFS
331
275
102
}
  0
BLOCK_RECORD
  5
27A
100
AcDbSymbolTableRecord
100
AcDbBlockTableRecord
  2
AI9-BLK53
340
0
102
{BLKREFS
331
27B
102
}
  0
BLOCK_RECORD
  5
280
100
AcDbSymbolTableRecord
100
AcDbBlockTableRecord
  2
AI9-BLK54
340
0
102
{BLKREFS
331
281
102
}
  0
BLOCK_RECORD
  5
287
100
AcDbSymbolTableRecord
100
AcDbBlockTableRecord
  2
AI9-BLK55
340
0
102
{BLKREFS
331
288
102
}
  0
BLOCK_RECORD
  5
28E
100
AcDbSymbolTableRecord
100
AcDbBlockTableRecord
  2
AI9-BLK56
340
0
102
{BLKREFS
331
28F
102
}
  0
BLOCK_RECORD
  5
295
100
AcDbSymbolTableRecord
100
AcDbBlockTableRecord
  2
AI9-BLK57
340
0
102
{BLKREFS
331
296
102
}
  0
BLOCK_RECORD
  5
2ED
100
AcDbSymbolTableRecord
100
AcDbBlockTableRecord
  2
AI9-BLK58
340
0
102
{BLKREFS
331
2EE
102
}
  0
BLOCK_RECORD
  5
2F2
100
AcDbSymbolTableRecord
100
AcDbBlockTableRecord
  2
AI9-BLK59
340
0
102
{BLKREFS
331
2F3
102
}
  0
BLOCK_RECORD
  5
359
100
AcDbSymbolTableRecord
100
AcDbBlockTableRecord
  2
AI9-BLK60
340
0
102
{BLKREFS
331
35A
102
}
  0
BLOCK_RECORD
  5
389
100
AcDbSymbolTableRecord
100
AcDbBlockTableRecord
  2
AI9-BLK61
340
0
102
{BLKREFS
331
38A
102
}
  0
ENDTAB
  0
ENDSEC
  0
SECTION
  2
BLOCKS
  0
BLOCK
  5
D
100
AcDbEntity
  8
0
100
AcDbBlockBegin
  2
*MODEL_SPACE
 70
     0
 10
0.0
 20
0.0
 30
0.0
  3
*MODEL_SPACE
  1

  0
ENDBLK
  5
E
100
AcDbEntity
  8
0
100
AcDbBlockEnd
  0
BLOCK
  5
F
100
AcDbEntity
 67
     1
  8
0
100
AcDbBlockBegin
  2
*PAPER_SPACE
 70
     0
 10
0.0
 20
0.0
 30
0.0
  3
*PAPER_SPACE
  1

  0
ENDBLK
  5
10
100
AcDbEntity
 67
     1
  8
0
100
AcDbBlockEnd
  0
BLOCK
  5
2B
100
AcDbEntity
  8
レイヤー_2
 62
     7
100
AcDbBlockBegin
  2
AI9-BLK1
 70
     0
 10
0.0
 20
0.0
 30
0.0
  3
AI9-BLK1
  1

  0
LINE
  5
31
100
AcDbEntity
  8
レイヤー_2
 62
     7
100
AcDbLine
 10
-7.167349
 20
8.284077
 30
0.0
 11
7.167349
 21
8.284077
 31
0.0
  0
LINE
  5
30
100
AcDbEntity
  8
レイヤー_2
 62
     7
100
AcDbLine
 10
7.008875
 20
9.476424
 30
0.0
 11
4.385779
 21
7.131692
 31
0.0
  0
LINE
  5
2F
100
AcDbEntity
  8
レイヤー_2
 62
     7
100
AcDbLine
 10
-4.186652
 20
9.476424
 30
0.0
 11
-6.849022
 21
7.131692
 31
0.0
  0
LINE
  5
2E
100
AcDbEntity
  8
レイヤー_2
 62
     7
100
AcDbLine
 10
5.736945
 20
-14.705046
 30
0.0
 11
5.736945
 21
9.794062
 31
0.0
  0
LINE
  5
2D
100
AcDbEntity
  8
レイヤー_2
 62
     7
100
AcDbLine
 10
-5.538508
 20
-4.855862
 30
0.0
 11
-5.538508
 21
9.516043
 31
0.0
  0
MTEXT
  5
2C
100
AcDbEntity
  8
レイヤー_2
 62
     7
100
AcDbMText
 10
-3.071475
 20
13.972717
 30
0.0
 40
4.724702
 41
0.0
 71
     1
 72
     2
  1
\fMS PGothic|b0|i0|c128;\H4.7247;\C7;\U+0034\U+0039
  7
STD
210
0.0
220
0.0
230
1.0
 73
     1
 44
1.0
  0
ENDBLK
  5
32
100
AcDbEntity
  8
レイヤー_2
100
AcDbBlockEnd
  0
BLOCK
  5
35
100
AcDbEntity
  8
レイヤー_2
 62
     7
100
AcDbBlockBegin
  2
AI9-BLK2
 70
     0
 10
0.0
 20
0.0
 30
0.0
  3
AI9-BLK2
  1

  0
LINE
  5
3B
100
AcDbEntity
  8
レイヤー_2
 62
     7
100
AcDbLine
 10
-2.722056
 20
-14.459152
 30
0.0
 11
-2.722056
 21
14.549586
 31
0.0
  0
LINE
  5
3A
100
AcDbEntity
  8
レイヤー_2
 62
     7
100
AcDbLine
 10
-3.914231
 20
14.416605
 30
0.0
 11
-1.569672
 21
11.793854
 31
0.0
  0
LINE
  5
39
100
AcDbEntity
  8
レイヤー_2
 62
     7
100
AcDbLine
 10
-3.561454
 20
-11.831233
 30
0.0
 11
-1.216894
 21
-14.493603
 31
0.0
  0
LINE
  5
38
100
AcDbEntity
  8
レイヤー_2
 62
     7
100
AcDbLine
 10
9.249995
 20
13.144331
 30
0.0
 11
-4.232041
 21
13.144331
 31
0.0
  0
LINE
  5
37
100
AcDbEntity
  8
レイヤー_2
 62
     7
100
AcDbLine
 10
9.249995
 20
-13.183089
 30
0.0
 11
-3.601244
 21
-13.183089
 31
0.0
  0
MTEXT
  5
36
100
AcDbEntity
  8
レイヤー_2
 62
     7
100
AcDbMText
 10
-8.517666
 20
-4.361577
 30
0.0
 40
4.724702
 41
0.0
 71
     1
 72
     2
  1
\fMS PGothic|b0|i0|c128;\H4.7247;\C7;\U+0031\U+0031\U+0030
  7
STD
210
0.0
220
0.0
230
1.0
 11
0.0
 21
1.0
 31
0.0
 73
     1
 44
1.0
  0
ENDBLK
  5
3C
100
AcDbEntity
  8
レイヤー_2
100
AcDbBlockEnd
  0
BLOCK
  5
3F
100
AcDbEntity
  8
レイヤー_2
 62
     7
100
AcDbBlockBegin
  2
AI9-BLK3
 70
     0
 10
0.0
 20
0.0
 30
0.0
  3
AI9-BLK3
  1

  0
LINE
  5
43
100
AcDbEntity
  8
レイヤー_2
  6
AI9-LType1
 62
     7
100
AcDbLine
 10
5.615678
 20
12.810932
 30
0.0
 11
5.615678
 21
-13.16371
 31
0.0
  0
LINE
  5
42
100
AcDbEntity
  8
レイヤー_2
  6
AI9-LType1
 62
     7
100
AcDbLine
 10
-5.659775
 20
13.16371
 30
0.0
 11
5.615678
 21
13.16371
 31
0.0
  0
LINE
  5
41
100
AcDbEntity
  8
レイヤー_2
  6
AI9-LType1
 62
     7
100
AcDbLine
 10
-5.659775
 20
-13.16371
 30
0.0
 11
5.615678
 21
-13.16371
 31
0.0
  0
ENDBLK
  5
44
100
AcDbEntity
  8
レイヤー_2
100
AcDbBlockEnd
  0
BLOCK
  5
D2
100
AcDbEntity
  8
レイヤー_2
 62
     7
100
AcDbBlockBegin
  2
AI9-BLK4
 70
     0
 10
0.0
 20
0.0
 30
0.0
  3
AI9-BLK4
  1

  0
LINE
  5
DC
100
AcDbEntity
  8
レイヤー_2
 62
     7
100
AcDbLine
 10
-4.645711
 20
11.63426
 30
0.0
 11
4.645711
 21
20.925682
 31
0.0
  0
LINE
  5
DB
100
AcDbEntity
  8
レイヤー_2
 62
     7
100
AcDbLine
 10
-4.645711
 20
6.504513
 30
0.0
 11
4.645711
 21
15.795935
 31
0.0
  0
LINE
  5
DA
100
AcDbEntity
  8
レイヤー_2
 62
     7
100
AcDbLine
 10
-4.645711
 20
1.374938
 30
0.0
 11
4.645711
 21
10.66636
 31
0.0
  0
LINE
  5
D9
100
AcDbEntity
  8
レイヤー_2
 62
     7
100
AcDbLine
 10
-4.645711
 20
-3.75481
 30
0.0
 11
4.645711
 21
5.536785
 31
0.0
  0
LINE
  5
D8
100
AcDbEntity
  8
レイヤー_2
 62
     7
100
AcDbLine
 10
-4.645711
 20
-8.884557
 30
0.0
 11
4.645711
 21
0.40721
 31
0.0
  0
LINE
  5
D7
100
AcDbEntity
  8
レイヤー_2
 62
     7
100
AcDbLine
 10
-4.645711
 20
-14.013959
 30
0.0
 11
4.645711
 21
-4.722192
 31
0.0
  0
LINE
  5
D6
100
AcDbEntity
  8
レイヤー_2
 62
     7
100
AcDbLine
 10
-4.645711
 20
-19.143879
 30
0.0
 11
4.645711
 21
-9.85194
 31
0.0
  0
LINE
  5
D5
100
AcDbEntity
  8
レイヤー_2
 62
     7
100
AcDbLine
 10
-4.645711
 20
16.763835
 30
0.0
 11
1.355645
 21
22.765363
 31
0.0
  0
LINE
  5
D4
100
AcDbEntity
  8
レイヤー_2
 62
     7
100
AcDbLine
 10
-3.138137
 20
-22.765363
 30
0.0
 11
4.645711
 21
-14.981687
 31
0.0
  0
LINE
  5
D3
100
AcDbEntity
  8
レイヤー_2
 62
     7
100
AcDbLine
 10
1.99161
 20
-22.765363
 30
0.0
 11
4.645711
 21
-20.111262
 31
0.0
  0
ENDBLK
  5
DD
100
AcDbEntity
  8
レイヤー_2
100
AcDbBlockEnd
  0
BLOCK
  5
E0
100
AcDbEntity
  8
レイヤー_2
 62
     7
100
AcDbBlockBegin
  2
AI9-BLK5
 70
     0
 10
0.0
 20
0.0
 30
0.0
  3
AI9-BLK5
  1

  0
LINE
  5
E4
100
AcDbEntity
  8
レイヤー_2
 62
     7
100
AcDbLine
 10
0.218075
 20
-0.326767
 30
0.0
 11
-0.043408
 21
-0.195854
 31
0.0
  0
LINE
  5
E3
100
AcDbEntity
  8
レイヤー_2
 62
     7
100
AcDbLine
 10
-0.043408
 20
-0.195854
 30
0.0
 11
-0.173977
 21
0.021876
 31
0.0
  0
LINE
  5
E2
100
AcDbEntity
  8
レイヤー_2
 62
     7
100
AcDbLine
 10
-0.173977
 20
0.021876
 30
0.0
 11
-0.218075
 21
0.283704
 31
0.0
  0
LINE
  5
E1
100
AcDbEntity
  8
レイヤー_2
 62
     7
100
AcDbLine
 10
-0.218075
 20
0.283704
 30
0.0
 11
-0.218075
 21
0.326767
 31
0.0
  0
ENDBLK
  5
E5
100
AcDbEntity
  8
レイヤー_2
100
AcDbBlockEnd
  0
BLOCK
  5
E8
100
AcDbEntity
  8
レイヤー_2
 62
     7
100
AcDbBlockBegin
  2
AI9-BLK6
 70
     0
 10
0.0
 20
0.0
 30
0.0
  3
AI9-BLK6
  1

  0
LINE
  5
EC
100
AcDbEntity
  8
レイヤー_2
 62
     7
100
AcDbLine
 10
-0.218075
 20
-0.326595
 30
0.0
 11
-0.173977
 21
-0.065457
 31
0.0
  0
LINE
  5
EB
100
AcDbEntity
  8
レイヤー_2
 62
     7
100
AcDbLine
 10
-0.173977
 20
-0.065457
 30
0.0
 11
-0.086472
 21
0.152273
 31
0.0
  0
LINE
  5
EA
100
AcDbEntity
  8
レイヤー_2
 62
     7
100
AcDbLine
 10
-0.086472
 20
0.152273
 30
0.0
 11
0.174322
 21
0.326595
 31
0.0
  0
LINE
  5
E9
100
AcDbEntity
  8
レイヤー_2
 62
     7
100
AcDbLine
 10
0.174322
 20
0.326595
 30
0.0
 11
0.218075
 21
0.326595
 31
0.0
  0
ENDBLK
  5
ED
100
AcDbEntity
  8
レイヤー_2
100
AcDbBlockEnd
  0
BLOCK
  5
F0
100
AcDbEntity
  8
レイヤー_2
 62
     7
100
AcDbBlockBegin
  2
AI9-BLK7
 70
     0
 10
0.0
 20
0.0
 30
0.0
  3
AI9-BLK7
  1

  0
LINE
  5
F3
100
AcDbEntity
  8
レイヤー_2
 62
     7
100
AcDbLine
 10
0.26131
 20
0.239434
 30
0.0
 11
0.17415
 21
0.021704
 31
0.0
  0
LINE
  5
F2
100
AcDbEntity
  8
レイヤー_2
 62
     7
100
AcDbLine
 10
0.17415
 20
0.021704
 30
0.0
 11
-0.087333
 21
-0.196026
 31
0.0
  0
LINE
  5
F1
100
AcDbEntity
  8
レイヤー_2
 62
     7
100
AcDbLine
 10
-0.087333
 20
-0.196026
 30
0.0
 11
-0.26131
 21
-0.239434
 31
0.0
  0
ENDBLK
  5
F4
100
AcDbEntity
  8
レイヤー_2
100
AcDbBlockEnd
  0
BLOCK
  5
F7
100
AcDbEntity
  8
レイヤー_2
 62
     7
100
AcDbBlockBegin
  2
AI9-BLK8
 70
     0
 10
0.0
 20
0.0
 30
0.0
  3
AI9-BLK8
  1

  0
LINE
  5
FA
100
AcDbEntity
  8
レイヤー_2
 62
     7
100
AcDbLine
 10
-0.239606
 20
0.261483
 30
0.0
 11
0.065285
 21
0.087161
 31
0.0
  0
LINE
  5
F9
100
AcDbEntity
  8
レイヤー_2
 62
     7
100
AcDbLine
 10
0.065285
 20
0.087161
 30
0.0
 11
0.195165
 21
-0.130741
 31
0.0
  0
LINE
  5
F8
100
AcDbEntity
  8
レイヤー_2
 62
     7
100
AcDbLine
 10
0.195165
 20
-0.130741
 30
0.0
 11
0.239606
 21
-0.261483
 31
0.0
  0
ENDBLK
  5
FB
100
AcDbEntity
  8
レイヤー_2
100
AcDbBlockEnd
  0
BLOCK
  5
FE
100
AcDbEntity
  8
レイヤー_2
 62
     7
100
AcDbBlockBegin
  2
AI9-BLK9
 70
     0
 10
0.0
 20
0.0
 30
0.0
  3
AI9-BLK9
  1

  0
LINE
  5
100
100
AcDbEntity
  8
レイヤー_2
 62
     7
100
AcDbLine
 10
-0.021704
 20
-0.109037
 30
0.0
 11
0.021704
 21
-0.021532
 31
0.0
  0
LINE
  5
FF
100
AcDbEntity
  8
レイヤー_2
 62
     7
100
AcDbLine
 10
0.021704
 20
-0.021532
 30
0.0
 11
0.021704
 21
0.109037
 31
0.0
  0
ENDBLK
  5
101
100
AcDbEntity
  8
レイヤー_2
100
AcDbBlockEnd
  0
BLOCK
  5
104
100
AcDbEntity
  8
レイヤー_2
 62
     7
100
AcDbBlockBegin
  2
AI9-BLK10
 70
     0
 10
0.0
 20
0.0
 30
0.0
  3
AI9-BLK10
  1

  0
LINE
  5
108
100
AcDbEntity
  8
レイヤー_2
 62
     7
100
AcDbLine
 10
0.370176
 20
-0.413842
 30
0.0
 11
0.326767
 21
-0.196112
 31
0.0
  0
LINE
  5
107
100
AcDbEntity
  8
レイヤー_2
 62
     7
100
AcDbLine
 10
0.326767
 20
-0.196112
 30
0.0
 11
0.195854
 21
0.021962
 31
0.0
  0
LINE
  5
106
100
AcDbEntity
  8
レイヤー_2
 62
     7
100
AcDbLine
 10
0.195854
 20
0.021962
 30
0.0
 11
-0.06494
 21
0.283273
 31
0.0
  0
LINE
  5
105
100
AcDbEntity
  8
レイヤー_2
 62
     7
100
AcDbLine
 10
-0.06494
 20
0.283273
 30
0.0
 11
-0.370176
 21
0.413842
 31
0.0
  0
ENDBLK
  5
109
100
AcDbEntity
  8
レイヤー_2
100
AcDbBlockEnd
  0
BLOCK
  5
10C
100
AcDbEntity
  8
レイヤー_2
 62
     7
100
AcDbBlockBegin
  2
AI9-BLK11
 70
     0
 10
0.0
 20
0.0
 30
0.0
  3
AI9-BLK11
  1

  0
LINE
  5
111
100
AcDbEntity
  8
レイヤー_2
 62
     7
100
AcDbLine
 10
-0.370176
 20
-0.413756
 30
0.0
 11
-0.152445
 21
-0.282842
 31
0.0
  0
LINE
  5
110
100
AcDbEntity
  8
レイヤー_2
 62
     7
100
AcDbLine
 10
-0.152445
 20
-0.282842
 30
0.0
 11
-0.021876
 21
-0.196026
 31
0.0
  0
LINE
  5
10F
100
AcDbEntity
  8
レイヤー_2
 62
     7
100
AcDbLine
 10
-0.021876
 20
-0.196026
 30
0.0
 11
0.195854
 21
0.021704
 31
0.0
  0
LINE
  5
10E
100
AcDbEntity
  8
レイヤー_2
 62
     7
100
AcDbLine
 10
0.195854
 20
0.021704
 30
0.0
 11
0.326767
 21
0.196026
 31
0.0
  0
LINE
  5
10D
100
AcDbEntity
  8
レイヤー_2
 62
     7
100
AcDbLine
 10
0.326767
 20
0.196026
 30
0.0
 11
0.370176
 21
0.413756
 31
0.0
  0
ENDBLK
  5
112
100
AcDbEntity
  8
レイヤー_2
100
AcDbBlockEnd
  0
BLOCK
  5
115
100
AcDbEntity
  8
レイヤー_2
 62
     7
100
AcDbBlockBegin
  2
AI9-BLK12
 70
     0
 10
0.0
 20
0.0
 30
0.0
  3
AI9-BLK12
  1

  0
LINE
  5
119
100
AcDbEntity
  8
レイヤー_2
 62
     7
100
AcDbLine
 10
-0.370176
 20
0.413756
 30
0.0
 11
-0.327112
 21
0.240123
 31
0.0
  0
LINE
  5
118
100
AcDbEntity
  8
レイヤー_2
 62
     7
100
AcDbLine
 10
-0.327112
 20
0.240123
 30
0.0
 11
-0.196198
 21
0.021704
 31
0.0
  0
LINE
  5
117
100
AcDbEntity
  8
レイヤー_2
 62
     7
100
AcDbLine
 10
-0.196198
 20
0.021704
 30
0.0
 11
0.109382
 21
-0.239434
 31
0.0
  0
LINE
  5
116
100
AcDbEntity
  8
レイヤー_2
 62
     7
100
AcDbLine
 10
0.109382
 20
-0.239434
 30
0.0
 11
0.370176
 21
-0.413756
 31
0.0
  0
ENDBLK
  5
11A
100
AcDbEntity
  8
レイヤー_2
100
AcDbBlockEnd
  0
BLOCK
  5
11D
100
AcDbEntity
  8
レイヤー_2
 62
     7
100
AcDbBlockBegin
  2
AI9-BLK13
 70
     0
 10
0.0
 20
0.0
 30
0.0
  3
AI9-BLK13
  1

  0
LINE
  5
121
100
AcDbEntity
  8
レイヤー_2
 62
     7
100
AcDbLine
 10
0.370176
 20
0.413842
 30
0.0
 11
0.022221
 21
0.239693
 31
0.0
  0
LINE
  5
120
100
AcDbEntity
  8
レイヤー_2
 62
     7
100
AcDbLine
 10
0.022221
 20
0.239693
 30
0.0
 11
-0.152101
 21
0.021962
 31
0.0
  0
LINE
  5
11F
100
AcDbEntity
  8
レイヤー_2
 62
     7
100
AcDbLine
 10
-0.152101
 20
0.021962
 30
0.0
 11
-0.283015
 21
-0.152532
 31
0.0
  0
LINE
  5
11E
100
AcDbEntity
  8
レイヤー_2
 62
     7
100
AcDbLine
 10
-0.283015
 20
-0.152532
 30
0.0
 11
-0.370176
 21
-0.413842
 31
0.0
  0
ENDBLK
  5
122
100
AcDbEntity
  8
レイヤー_2
100
AcDbBlockEnd
  0
BLOCK
  5
125
100
AcDbEntity
  8
レイヤー_2
 62
     7
100
AcDbBlockBegin
  2
AI9-BLK14
 70
     0
 10
0.0
 20
0.0
 30
0.0
  3
AI9-BLK14
  1

  0
LINE
  5
12A
100
AcDbEntity
  8
レイヤー_2
 62
     7
100
AcDbLine
 10
-0.958598
 20
0.065457
 30
0.0
 11
-0.522793
 21
-0.02136
 31
0.0
  0
LINE
  5
129
100
AcDbEntity
  8
レイヤー_2
 62
     7
100
AcDbLine
 10
-0.522793
 20
-0.02136
 30
0.0
 11
-0.044269
 21
-0.065457
 31
0.0
  0
LINE
  5
128
100
AcDbEntity
  8
レイヤー_2
 62
     7
100
AcDbLine
 10
-0.044269
 20
-0.065457
 30
0.0
 11
0.39188
 21
-0.02136
 31
0.0
  0
LINE
  5
127
100
AcDbEntity
  8
レイヤー_2
 62
     7
100
AcDbLine
 10
0.39188
 20
-0.02136
 30
0.0
 11
0.871437
 21
0.065457
 31
0.0
  0
LINE
  5
126
100
AcDbEntity
  8
レイヤー_2
 62
     7
100
AcDbLine
 10
0.871437
 20
0.065457
 30
0.0
 11
0.958598
 21
0.065457
 31
0.0
  0
ENDBLK
  5
12B
100
AcDbEntity
  8
レイヤー_2
100
AcDbBlockEnd
  0
BLOCK
  5
12E
100
AcDbEntity
  8
レイヤー_2
 62
     7
100
AcDbBlockBegin
  2
AI9-BLK15
 70
     0
 10
0.0
 20
0.0
 30
0.0
  3
AI9-BLK15
  1

  0
LINE
  5
133
100
AcDbEntity
  8
レイヤー_2
 62
     7
100
AcDbLine
 10
0.958598
 20
-0.065371
 30
0.0
 11
0.566546
 21
0.021962
 31
0.0
  0
LINE
  5
132
100
AcDbEntity
  8
レイヤー_2
 62
     7
100
AcDbLine
 10
0.566546
 20
0.021962
 30
0.0
 11
0.087333
 21
0.065371
 31
0.0
  0
LINE
  5
131
100
AcDbEntity
  8
レイヤー_2
 62
     7
100
AcDbLine
 10
0.087333
 20
0.065371
 30
0.0
 11
-0.39188
 21
0.065371
 31
0.0
  0
LINE
  5
130
100
AcDbEntity
  8
レイヤー_2
 62
     7
100
AcDbLine
 10
-0.39188
 20
0.065371
 30
0.0
 11
-0.828029
 21
-0.021618
 31
0.0
  0
LINE
  5
12F
100
AcDbEntity
  8
レイヤー_2
 62
     7
100
AcDbLine
 10
-0.828029
 20
-0.021618
 30
0.0
 11
-0.958598
 21
-0.065371
 31
0.0
  0
ENDBLK
  5
134
100
AcDbEntity
  8
レイヤー_2
100
AcDbBlockEnd
  0
BLOCK
  5
137
100
AcDbEntity
  8
レイヤー_2
 62
     7
100
AcDbBlockBegin
  2
AI9-BLK16
 70
     0
 10
0.0
 20
0.0
 30
0.0
  3
AI9-BLK16
  1

  0
LINE
  5
139
100
AcDbEntity
  8
レイヤー_2
 62
     7
100
AcDbLine
 10
-0.021876
 20
0.021876
 30
0.0
 11
-0.021876
 21
-0.021876
 31
0.0
  0
LINE
  5
138
100
AcDbEntity
  8
レイヤー_2
 62
     7
100
AcDbLine
 10
-0.021876
 20
-0.021876
 30
0.0
 11
0.021876
 21
-0.021876
 31
0.0
  0
ENDBLK
  5
13A
100
AcDbEntity
  8
レイヤー_2
100
AcDbBlockEnd
  0
BLOCK
  5
13D
100
AcDbEntity
  8
レイヤー_2
 62
     7
100
AcDbBlockBegin
  2
AI9-BLK17
 70
     0
 10
0.0
 20
0.0
 30
0.0
  3
AI9-BLK17
  1

  0
LINE
  5
13F
100
AcDbEntity
  8
レイヤー_2
 62
     7
100
AcDbLine
 10
0.021704
 20
0.021704
 30
0.0
 11
0.021704
 21
-0.021704
 31
0.0
  0
LINE
  5
13E
100
AcDbEntity
  8
レイヤー_2
 62
     7
100
AcDbLine
 10
0.021704
 20
-0.021704
 30
0.0
 11
-0.021704
 21
-0.021704
 31
0.0
  0
ENDBLK
  5
140
100
AcDbEntity
  8
レイヤー_2
100
AcDbBlockEnd
  0
BLOCK
  5
143
100
AcDbEntity
  8
レイヤー_2
 62
     7
100
AcDbBlockBegin
  2
AI9-BLK18
 70
     0
 10
0.0
 20
0.0
 30
0.0
  3
AI9-BLK18
  1

  0
LINE
  5
145
100
AcDbEntity
  8
レイヤー_2
 62
     7
100
AcDbLine
 10
-0.021704
 20
-0.021704
 30
0.0
 11
0.021704
 21
-0.021704
 31
0.0
  0
LINE
  5
144
100
AcDbEntity
  8
レイヤー_2
 62
     7
100
AcDbLine
 10
0.021704
 20
-0.021704
 30
0.0
 11
0.021704
 21
0.021704
 31
0.0
  0
ENDBLK
  5
146
100
AcDbEntity
  8
レイヤー_2
100
AcDbBlockEnd
  0
BLOCK
  5
149
100
AcDbEntity
  8
レイヤー_2
 62
     7
100
AcDbBlockBegin
  2
AI9-BLK19
 70
     0
 10
0.0
 20
0.0
 30
0.0
  3
AI9-BLK19
  1

  0
LINE
  5
14B
100
AcDbEntity
  8
レイヤー_2
 62
     7
100
AcDbLine
 10
-0.021876
 20
-0.021704
 30
0.0
 11
-0.021876
 21
0.021704
 31
0.0
  0
LINE
  5
14A
100
AcDbEntity
  8
レイヤー_2
 62
     7
100
AcDbLine
 10
-0.021876
 20
0.021704
 30
0.0
 11
0.021876
 21
0.021704
 31
0.0
  0
ENDBLK
  5
14C
100
AcDbEntity
  8
レイヤー_2
100
AcDbBlockEnd
  0
BLOCK
  5
14F
100
AcDbEntity
  8
レイヤー_2
 62
     7
100
AcDbBlockBegin
  2
AI9-BLK20
 70
     0
 10
0.0
 20
0.0
 30
0.0
  3
AI9-BLK20
  1

  0
LINE
  5
151
100
AcDbEntity
  8
レイヤー_2
 62
     7
100
AcDbLine
 10
-0.021532
 20
0.021704
 30
0.0
 11
-0.021532
 21
-0.021704
 31
0.0
  0
LINE
  5
150
100
AcDbEntity
  8
レイヤー_2
 62
     7
100
AcDbLine
 10
-0.021532
 20
-0.021704
 30
0.0
 11
0.021532
 21
-0.021704
 31
0.0
  0
ENDBLK
  5
152
100
AcDbEntity
  8
レイヤー_2
100
AcDbBlockEnd
  0
BLOCK
  5
155
100
AcDbEntity
  8
レイヤー_2
 62
     7
100
AcDbBlockBegin
  2
AI9-BLK21
 70
     0
 10
0.0
 20
0.0
 30
0.0
  3
AI9-BLK21
  1

  0
LINE
  5
157
100
AcDbEntity
  8
レイヤー_2
 62
     7
100
AcDbLine
 10
-0.021704
 20
0.02179
 30
0.0
 11
0.021704
 21
0.02179
 31
0.0
  0
LINE
  5
156
100
AcDbEntity
  8
レイヤー_2
 62
     7
100
AcDbLine
 10
0.021704
 20
0.02179
 30
0.0
 11
0.021704
 21
-0.02179
 31
0.0
  0
ENDBLK
  5
158
100
AcDbEntity
  8
レイヤー_2
100
AcDbBlockEnd
  0
BLOCK
  5
15B
100
AcDbEntity
  8
レイヤー_2
 62
     7
100
AcDbBlockBegin
  2
AI9-BLK22
 70
     0
 10
0.0
 20
0.0
 30
0.0
  3
AI9-BLK22
  1

  0
LINE
  5
15D
100
AcDbEntity
  8
レイヤー_2
 62
     7
100
AcDbLine
 10
0.021532
 20
0.021704
 30
0.0
 11
-0.021532
 21
0.021704
 31
0.0
  0
LINE
  5
15C
100
AcDbEntity
  8
レイヤー_2
 62
     7
100
AcDbLine
 10
-0.021532
 20
0.021704
 30
0.0
 11
-0.021532
 21
-0.021704
 31
0.0
  0
ENDBLK
  5
15E
100
AcDbEntity
  8
レイヤー_2
100
AcDbBlockEnd
  0
BLOCK
  5
161
100
AcDbEntity
  8
レイヤー_2
 62
     7
100
AcDbBlockBegin
  2
AI9-BLK23
 70
     0
 10
0.0
 20
0.0
 30
0.0
  3
AI9-BLK23
  1

  0
LINE
  5
163
100
AcDbEntity
  8
レイヤー_2
 62
     7
100
AcDbLine
 10
0.021876
 20
-0.022049
 30
0.0
 11
-0.021876
 21
-0.022049
 31
0.0
  0
LINE
  5
162
100
AcDbEntity
  8
レイヤー_2
 62
     7
100
AcDbLine
 10
-0.021876
 20
-0.022049
 30
0.0
 11
-0.021876
 21
0.022049
 31
0.0
  0
ENDBLK
  5
164
100
AcDbEntity
  8
レイヤー_2
100
AcDbBlockEnd
  0
BLOCK
  5
167
100
AcDbEntity
  8
レイヤー_2
 62
     7
100
AcDbBlockBegin
  2
AI9-BLK24
 70
     0
 10
0.0
 20
0.0
 30
0.0
  3
AI9-BLK24
  1

  0
LINE
  5
169
100
AcDbEntity
  8
レイヤー_2
 62
     7
100
AcDbLine
 10
0.021704
 20
-0.021704
 30
0.0
 11
0.021704
 21
0.021704
 31
0.0
  0
LINE
  5
168
100
AcDbEntity
  8
レイヤー_2
 62
     7
100
AcDbLine
 10
0.021704
 20
0.021704
 30
0.0
 11
-0.021704
 21
0.021704
 31
0.0
  0
ENDBLK
  5
16A
100
AcDbEntity
  8
レイヤー_2
100
AcDbBlockEnd
  0
BLOCK
  5
16D
100
AcDbEntity
  8
レイヤー_2
 62
     7
100
AcDbBlockBegin
  2
AI9-BLK25
 70
     0
 10
0.0
 20
0.0
 30
0.0
  3
AI9-BLK25
  1

  0
LINE
  5
16F
100
AcDbEntity
  8
レイヤー_2
 62
     7
100
AcDbLine
 10
0.065285
 20
-0.304891
 30
0.0
 11
-0.065285
 21
0.174666
 31
0.0
  0
LINE
  5
16E
100
AcDbEntity
  8
レイヤー_2
 62
     7
100
AcDbLine
 10
-0.065285
 20
0.174666
 30
0.0
 11
-0.065285
 21
0.304891
 31
0.0
  0
ENDBLK
  5
170
100
AcDbEntity
  8
レイヤー_2
100
AcDbBlockEnd
  0
BLOCK
  5
173
100
AcDbEntity
  8
レイヤー_2
 62
     7
100
AcDbBlockBegin
  2
AI9-BLK26
 70
     0
 10
0.0
 20
0.0
 30
0.0
  3
AI9-BLK26
  1

  0
LINE
  5
175
100
AcDbEntity
  8
レイヤー_2
 62
     7
100
AcDbLine
 10
-0.065285
 20
-0.283187
 30
0.0
 11
0.021876
 21
0.152273
 31
0.0
  0
LINE
  5
174
100
AcDbEntity
  8
レイヤー_2
 62
     7
100
AcDbLine
 10
0.021876
 20
0.152273
 30
0.0
 11
0.065285
 21
0.283187
 31
0.0
  0
ENDBLK
  5
176
100
AcDbEntity
  8
レイヤー_2
100
AcDbBlockEnd
  0
BLOCK
  5
179
100
AcDbEntity
  8
レイヤー_2
 62
     7
100
AcDbBlockBegin
  2
AI9-BLK27
 70
     0
 10
0.0
 20
0.0
 30
0.0
  3
AI9-BLK27
  1

  0
LINE
  5
17B
100
AcDbEntity
  8
レイヤー_2
 62
     7
100
AcDbLine
 10
-0.065285
 20
0.283187
 30
0.0
 11
-0.065285
 21
0.239779
 31
0.0
  0
LINE
  5
17A
100
AcDbEntity
  8
レイヤー_2
 62
     7
100
AcDbLine
 10
-0.065285
 20
0.239779
 30
0.0
 11
0.065285
 21
-0.283187
 31
0.0
  0
ENDBLK
  5
17C
100
AcDbEntity
  8
レイヤー_2
100
AcDbBlockEnd
  0
BLOCK
  5
17F
100
AcDbEntity
  8
レイヤー_2
 62
     7
100
AcDbBlockBegin
  2
AI9-BLK28
 70
     0
 10
0.0
 20
0.0
 30
0.0
  3
AI9-BLK28
  1

  0
LINE
  5
181
100
AcDbEntity
  8
レイヤー_2
 62
     7
100
AcDbLine
 10
0.065285
 20
-0.283187
 30
0.0
 11
-0.065285
 21
0.152618
 31
0.0
  0
LINE
  5
180
100
AcDbEntity
  8
レイヤー_2
 62
     7
100
AcDbLine
 10
-0.065285
 20
0.152618
 30
0.0
 11
-0.065285
 21
0.283187
 31
0.0
  0
ENDBLK
  5
182
100
AcDbEntity
  8
レイヤー_2
100
AcDbBlockEnd
  0
BLOCK
  5
185
100
AcDbEntity
  8
レイヤー_2
 62
     7
100
AcDbBlockBegin
  2
AI9-BLK29
 70
     0
 10
0.0
 20
0.0
 30
0.0
  3
AI9-BLK29
  1

  0
LINE
  5
187
100
AcDbEntity
  8
レイヤー_2
 62
     7
100
AcDbLine
 10
-0.065285
 20
-0.283187
 30
0.0
 11
0.021876
 21
0.152618
 31
0.0
  0
LINE
  5
186
100
AcDbEntity
  8
レイヤー_2
 62
     7
100
AcDbLine
 10
0.021876
 20
0.152618
 30
0.0
 11
0.065285
 21
0.283187
 31
0.0
  0
ENDBLK
  5
188
100
AcDbEntity
  8
レイヤー_2
100
AcDbBlockEnd
  0
BLOCK
  5
18B
100
AcDbEntity
  8
レイヤー_2
 62
     7
100
AcDbBlockBegin
  2
AI9-BLK30
 70
     0
 10
0.0
 20
0.0
 30
0.0
  3
AI9-BLK30
  1

  0
LINE
  5
18D
100
AcDbEntity
  8
レイヤー_2
 62
     7
100
AcDbLine
 10
-0.065285
 20
0.283187
 30
0.0
 11
-0.065285
 21
0.239779
 31
0.0
  0
LINE
  5
18C
100
AcDbEntity
  8
レイヤー_2
 62
     7
100
AcDbLine
 10
-0.065285
 20
0.239779
 30
0.0
 11
0.065285
 21
-0.283187
 31
0.0
  0
ENDBLK
  5
18E
100
AcDbEntity
  8
レイヤー_2
100
AcDbBlockEnd
  0
BLOCK
  5
191
100
AcDbEntity
  8
レイヤー_2
 62
     7
100
AcDbBlockBegin
  2
AI9-BLK31
 70
     0
 10
0.0
 20
0.0
 30
0.0
  3
AI9-BLK31
  1

  0
LINE
  5
193
100
AcDbEntity
  8
レイヤー_2
 62
     7
100
AcDbLine
 10
-0.065285
 20
-0.283187
 30
0.0
 11
0.021876
 21
0.152618
 31
0.0
  0
LINE
  5
192
100
AcDbEntity
  8
レイヤー_2
 62
     7
100
AcDbLine
 10
0.021876
 20
0.152618
 30
0.0
 11
0.065285
 21
0.283187
 31
0.0
  0
ENDBLK
  5
194
100
AcDbEntity
  8
レイヤー_2
100
AcDbBlockEnd
  0
BLOCK
  5
197
100
AcDbEntity
  8
レイヤー_2
 62
     7
100
AcDbBlockBegin
  2
AI9-BLK32
 70
     0
 10
0.0
 20
0.0
 30
0.0
  3
AI9-BLK32
  1

  0
LINE
  5
199
100
AcDbEntity
  8
レイヤー_2
 62
     7
100
AcDbLine
 10
0.065285
 20
-0.304719
 30
0.0
 11
-0.065285
 21
0.17415
 31
0.0
  0
LINE
  5
198
100
AcDbEntity
  8
レイヤー_2
 62
     7
100
AcDbLine
 10
-0.065285
 20
0.17415
 30
0.0
 11
-0.065285
 21
0.304719
 31
0.0
  0
ENDBLK
  5
19A
100
AcDbEntity
  8
レイヤー_2
100
AcDbBlockEnd
  0
BLOCK
  5
19D
100
AcDbEntity
  8
レイヤー_2
 62
     7
100
AcDbBlockBegin
  2
AI9-BLK33
 70
     0
 10
0.0
 20
0.0
 30
0.0
  3
AI9-BLK33
  1

  0
LINE
  5
19F
100
AcDbEntity
  8
レイヤー_2
 62
     7
100
AcDbLine
 10
-0.065285
 20
-0.283187
 30
0.0
 11
-0.065285
 21
-0.239779
 31
0.0
  0
LINE
  5
19E
100
AcDbEntity
  8
レイヤー_2
 62
     7
100
AcDbLine
 10
-0.065285
 20
-0.239779
 30
0.0
 11
0.065285
 21
0.283187
 31
0.0
  0
ENDBLK
  5
1A0
100
AcDbEntity
  8
レイヤー_2
100
AcDbBlockEnd
  0
BLOCK
  5
1A3
100
AcDbEntity
  8
レイヤー_2
 62
     7
100
AcDbBlockBegin
  2
AI9-BLK34
 70
     0
 10
0.0
 20
0.0
 30
0.0
  3
AI9-BLK34
  1

  0
LINE
  5
1BB
100
AcDbEntity
  8
レイヤー_2
 62
     7
100
AcDbLine
 10
1.698949
 20
-0.02136
 30
0.0
 11
1.655541
 21
0.457509
 31
0.0
  0
LINE
  5
1BA
100
AcDbEntity
  8
レイヤー_2
 62
     7
100
AcDbLine
 10
1.655541
 20
0.457509
 30
0.0
 11
1.481219
 21
0.849561
 31
0.0
  0
LINE
  5
1B9
100
AcDbEntity
  8
レイヤー_2
 62
     7
100
AcDbLine
 10
1.481219
 20
0.849561
 30
0.0
 11
1.219736
 21
1.198204
 31
0.0
  0
LINE
  5
1B8
100
AcDbEntity
  8
レイヤー_2
 62
     7
100
AcDbLine
 10
1.219736
 20
1.198204
 30
0.0
 11
0.871437
 21
1.459342
 31
0.0
  0
LINE
  5
1B7
100
AcDbEntity
  8
レイヤー_2
 62
     7
100
AcDbLine
 10
0.871437
 20
1.459342
 30
0.0
 11
0.435977
 21
1.633664
 31
0.0
  0
LINE
  5
1B6
100
AcDbEntity
  8
レイヤー_2
 62
     7
100
AcDbLine
 10
0.435977
 20
1.633664
 30
0.0
 11
-0.000172
 21
1.677072
 31
0.0
  0
LINE
  5
1B5
100
AcDbEntity
  8
レイヤー_2
 62
     7
100
AcDbLine
 10
-0.000172
 20
1.677072
 30
0.0
 11
-0.435977
 21
1.633664
 31
0.0
  0
LINE
  5
1B4
100
AcDbEntity
  8
レイヤー_2
 62
     7
100
AcDbLine
 10
-0.435977
 20
1.633664
 30
0.0
 11
-0.828029
 21
1.459342
 31
0.0
  0
LINE
  5
1B3
100
AcDbEntity
  8
レイヤー_2
 62
     7
100
AcDbLine
 10
-0.828029
 20
1.459342
 30
0.0
 11
-1.176328
 21
1.198204
 31
0.0
  0
LINE
  5
1B2
100
AcDbEntity
  8
レイヤー_2
 62
     7
100
AcDbLine
 10
-1.176328
 20
1.198204
 30
0.0
 11
-1.437811
 21
0.849561
 31
0.0
  0
LINE
  5
1B1
100
AcDbEntity
  8
レイヤー_2
 62
     7
100
AcDbLine
 10
-1.437811
 20
0.849561
 30
0.0
 11
-1.611788
 21
0.457509
 31
0.0
  0
LINE
  5
1B0
100
AcDbEntity
  8
レイヤー_2
 62
     7
100
AcDbLine
 10
-1.611788
 20
0.457509
 30
0.0
 11
-1.698949
 21
-0.02136
 31
0.0
  0
LINE
  5
1AF
100
AcDbEntity
  8
レイヤー_2
 62
     7
100
AcDbLine
 10
-1.698949
 20
-0.02136
 30
0.0
 11
-1.611788
 21
-0.457509
 31
0.0
  0
LINE
  5
1AE
100
AcDbEntity
  8
レイヤー_2
 62
     7
100
AcDbLine
 10
-1.611788
 20
-0.457509
 30
0.0
 11
-1.437811
 21
-0.849216
 31
0.0
  0
LINE
  5
1AD
100
AcDbEntity
  8
レイヤー_2
 62
     7
100
AcDbLine
 10
-1.437811
 20
-0.849216
 30
0.0
 11
-1.176328
 21
-1.19786
 31
0.0
  0
LINE
  5
1AC
100
AcDbEntity
  8
レイヤー_2
 62
     7
100
AcDbLine
 10
-1.176328
 20
-1.19786
 30
0.0
 11
-0.828029
 21
-1.459342
 31
0.0
  0
LINE
  5
1AB
100
AcDbEntity
  8
レイヤー_2
 62
     7
100
AcDbLine
 10
-0.828029
 20
-1.459342
 30
0.0
 11
-0.435977
 21
-1.63332
 31
0.0
  0
LINE
  5
1AA
100
AcDbEntity
  8
レイヤー_2
 62
     7
100
AcDbLine
 10
-0.435977
 20
-1.63332
 30
0.0
 11
-0.000172
 21
-1.677072
 31
0.0
  0
LINE
  5
1A9
100
AcDbEntity
  8
レイヤー_2
 62
     7
100
AcDbLine
 10
-0.000172
 20
-1.677072
 30
0.0
 11
0.435977
 21
-1.63332
 31
0.0
  0
LINE
  5
1A8
100
AcDbEntity
  8
レイヤー_2
 62
     7
100
AcDbLine
 10
0.435977
 20
-1.63332
 30
0.0
 11
0.871437
 21
-1.459342
 31
0.0
  0
LINE
  5
1A7
100
AcDbEntity
  8
レイヤー_2
 62
     7
100
AcDbLine
 10
0.871437
 20
-1.459342
 30
0.0
 11
1.219736
 21
-1.19786
 31
0.0
  0
LINE
  5
1A6
100
AcDbEntity
  8
レイヤー_2
 62
     7
100
AcDbLine
 10
1.219736
 20
-1.19786
 30
0.0
 11
1.481219
 21
-0.849216
 31
0.0
  0
LINE
  5
1A5
100
AcDbEntity
  8
レイヤー_2
 62
     7
100
AcDbLine
 10
1.481219
 20
-0.849216
 30
0.0
 11
1.655541
 21
-0.457509
 31
0.0
  0
LINE
  5
1A4
100
AcDbEntity
  8
レイヤー_2
 62
     7
100
AcDbLine
 10
1.655541
 20
-0.457509
 30
0.0
 11
1.698949
 21
-0.02136
 31
0.0
  0
ENDBLK
  5
1BC
100
AcDbEntity
  8
レイヤー_2
100
AcDbBlockEnd
  0
BLOCK
  5
1BF
100
AcDbEntity
  8
レイヤー_2
 62
     7
100
AcDbBlockBegin
  2
AI9-BLK35
 70
     0
 10
0.0
 20
0.0
 30
0.0
  3
AI9-BLK35
  1

  0
LINE
  5
1D7
100
AcDbEntity
  8
レイヤー_2
 62
     7
100
AcDbLine
 10
2.265323
 20
-0.021532
 30
0.0
 11
2.221225
 21
0.587906
 31
0.0
  0
LINE
  5
1D6
100
AcDbEntity
  8
レイヤー_2
 62
     7
100
AcDbLine
 10
2.221225
 20
0.587906
 30
0.0
 11
1.959743
 21
1.154279
 31
0.0
  0
LINE
  5
1D5
100
AcDbEntity
  8
レイヤー_2
 62
     7
100
AcDbLine
 10
1.959743
 20
1.154279
 30
0.0
 11
1.611099
 21
1.590084
 31
0.0
  0
LINE
  5
1D4
100
AcDbEntity
  8
レイヤー_2
 62
     7
100
AcDbLine
 10
1.611099
 20
1.590084
 30
0.0
 11
1.131886
 21
1.982136
 31
0.0
  0
LINE
  5
1D3
100
AcDbEntity
  8
レイヤー_2
 62
     7
100
AcDbLine
 10
1.131886
 20
1.982136
 30
0.0
 11
0.609265
 21
2.199866
 31
0.0
  0
LINE
  5
1D2
100
AcDbEntity
  8
レイヤー_2
 62
     7
100
AcDbLine
 10
0.609265
 20
2.199866
 30
0.0
 11
-0.000517
 21
2.287027
 31
0.0
  0
LINE
  5
1D1
100
AcDbEntity
  8
レイヤー_2
 62
     7
100
AcDbLine
 10
-0.000517
 20
2.287027
 30
0.0
 11
-0.567235
 21
2.199866
 31
0.0
  0
LINE
  5
1D0
100
AcDbEntity
  8
レイヤー_2
 62
     7
100
AcDbLine
 10
-0.567235
 20
2.199866
 30
0.0
 11
-1.133264
 21
1.982136
 31
0.0
  0
LINE
  5
1CF
100
AcDbEntity
  8
レイヤー_2
 62
     7
100
AcDbLine
 10
-1.133264
 20
1.982136
 30
0.0
 11
-1.612132
 21
1.590084
 31
0.0
  0
LINE
  5
1CE
100
AcDbEntity
  8
レイヤー_2
 62
     7
100
AcDbLine
 10
-1.612132
 20
1.590084
 30
0.0
 11
-1.960776
 21
1.154279
 31
0.0
  0
LINE
  5
1CD
100
AcDbEntity
  8
レイヤー_2
 62
     7
100
AcDbLine
 10
-1.960776
 20
1.154279
 30
0.0
 11
-2.178506
 21
0.587906
 31
0.0
  0
LINE
  5
1CC
100
AcDbEntity
  8
レイヤー_2
 62
     7
100
AcDbLine
 10
-2.178506
 20
0.587906
 30
0.0
 11
-2.265323
 21
-0.021532
 31
0.0
  0
LINE
  5
1CB
100
AcDbEntity
  8
レイヤー_2
 62
     7
100
AcDbLine
 10
-2.265323
 20
-0.021532
 30
0.0
 11
-2.178506
 21
-0.587906
 31
0.0
  0
LINE
  5
1CA
100
AcDbEntity
  8
レイヤー_2
 62
     7
100
AcDbLine
 10
-2.178506
 20
-0.587906
 30
0.0
 11
-1.960776
 21
-1.154279
 31
0.0
  0
LINE
  5
1C9
100
AcDbEntity
  8
レイヤー_2
 62
     7
100
AcDbLine
 10
-1.960776
 20
-1.154279
 30
0.0
 11
-1.612132
 21
-1.589739
 31
0.0
  0
LINE
  5
1C8
100
AcDbEntity
  8
レイヤー_2
 62
     7
100
AcDbLine
 10
-1.612132
 20
-1.589739
 30
0.0
 11
-1.133264
 21
-1.982136
 31
0.0
  0
LINE
  5
1C7
100
AcDbEntity
  8
レイヤー_2
 62
     7
100
AcDbLine
 10
-1.133264
 20
-1.982136
 30
0.0
 11
-0.567235
 21
-2.199866
 31
0.0
  0
LINE
  5
1C6
100
AcDbEntity
  8
レイヤー_2
 62
     7
100
AcDbLine
 10
-0.567235
 20
-2.199866
 30
0.0
 11
-0.000517
 21
-2.287027
 31
0.0
  0
LINE
  5
1C5
100
AcDbEntity
  8
レイヤー_2
 62
     7
100
AcDbLine
 10
-0.000517
 20
-2.287027
 30
0.0
 11
0.609265
 21
-2.199866
 31
0.0
  0
LINE
  5
1C4
100
AcDbEntity
  8
レイヤー_2
 62
     7
100
AcDbLine
 10
0.609265
 20
-2.199866
 30
0.0
 11
1.131886
 21
-1.982136
 31
0.0
  0
LINE
  5
1C3
100
AcDbEntity
  8
レイヤー_2
 62
     7
100
AcDbLine
 10
1.131886
 20
-1.982136
 30
0.0
 11
1.611099
 21
-1.589739
 31
0.0
  0
LINE
  5
1C2
100
AcDbEntity
  8
レイヤー_2
 62
     7
100
AcDbLine
 10
1.611099
 20
-1.589739
 30
0.0
 11
1.959743
 21
-1.154279
 31
0.0
  0
LINE
  5
1C1
100
AcDbEntity
  8
レイヤー_2
 62
     7
100
AcDbLine
 10
1.959743
 20
-1.154279
 30
0.0
 11
2.221225
 21
-0.587906
 31
0.0
  0
LINE
  5
1C0
100
AcDbEntity
  8
レイヤー_2
 62
     7
100
AcDbLine
 10
2.221225
 20
-0.587906
 30
0.0
 11
2.265323
 21
-0.021532
 31
0.0
  0
ENDBLK
  5
1D8
100
AcDbEntity
  8
レイヤー_2
100
AcDbBlockEnd
  0
BLOCK
  5
1DB
100
AcDbEntity
  8
レイヤー_2
 62
     7
100
AcDbBlockBegin
  2
AI9-BLK36
 70
     0
 10
0.0
 20
0.0
 30
0.0
  3
AI9-BLK36
  1

  0
LINE
  5
1F3
100
AcDbEntity
  8
レイヤー_2
 62
     7
100
AcDbLine
 10
3.267156
 20
-0.02136
 30
0.0
 11
3.179995
 21
0.849561
 31
0.0
  0
LINE
  5
1F2
100
AcDbEntity
  8
レイヤー_2
 62
     7
100
AcDbLine
 10
3.179995
 20
0.849561
 30
0.0
 11
2.831352
 21
1.633664
 31
0.0
  0
LINE
  5
1F1
100
AcDbEntity
  8
レイヤー_2
 62
     7
100
AcDbLine
 10
2.831352
 20
1.633664
 30
0.0
 11
2.308731
 21
2.287199
 31
0.0
  0
LINE
  5
1F0
100
AcDbEntity
  8
レイヤー_2
 62
     7
100
AcDbLine
 10
2.308731
 20
2.287199
 30
0.0
 11
1.655541
 21
2.80982
 31
0.0
  0
LINE
  5
1EF
100
AcDbEntity
  8
レイヤー_2
 62
     7
100
AcDbLine
 10
1.655541
 20
2.80982
 30
0.0
 11
0.871437
 21
3.158464
 31
0.0
  0
LINE
  5
1EE
100
AcDbEntity
  8
レイヤー_2
 62
     7
100
AcDbLine
 10
0.871437
 20
3.158464
 30
0.0
 11
-0.000172
 21
3.24528
 31
0.0
  0
LINE
  5
1ED
100
AcDbEntity
  8
レイヤー_2
 62
     7
100
AcDbLine
 10
-0.000172
 20
3.24528
 30
0.0
 11
-0.828029
 21
3.158464
 31
0.0
  0
LINE
  5
1EC
100
AcDbEntity
  8
レイヤー_2
 62
     7
100
AcDbLine
 10
-0.828029
 20
3.158464
 30
0.0
 11
-1.611788
 21
2.80982
 31
0.0
  0
LINE
  5
1EB
100
AcDbEntity
  8
レイヤー_2
 62
     7
100
AcDbLine
 10
-1.611788
 20
2.80982
 30
0.0
 11
-2.308731
 21
2.287199
 31
0.0
  0
LINE
  5
1EA
100
AcDbEntity
  8
レイヤー_2
 62
     7
100
AcDbLine
 10
-2.308731
 20
2.287199
 30
0.0
 11
-2.831352
 21
1.633664
 31
0.0
  0
LINE
  5
1E9
100
AcDbEntity
  8
レイヤー_2
 62
     7
100
AcDbLine
 10
-2.831352
 20
1.633664
 30
0.0
 11
-3.136587
 21
0.849561
 31
0.0
  0
LINE
  5
1E8
100
AcDbEntity
  8
レイヤー_2
 62
     7
100
AcDbLine
 10
-3.136587
 20
0.849561
 30
0.0
 11
-3.267156
 21
-0.02136
 31
0.0
  0
LINE
  5
1E7
100
AcDbEntity
  8
レイヤー_2
 62
     7
100
AcDbLine
 10
-3.267156
 20
-0.02136
 30
0.0
 11
-3.136587
 21
-0.849216
 31
0.0
  0
LINE
  5
1E6
100
AcDbEntity
  8
レイヤー_2
 62
     7
100
AcDbLine
 10
-3.136587
 20
-0.849216
 30
0.0
 11
-2.831352
 21
-1.63332
 31
0.0
  0
LINE
  5
1E5
100
AcDbEntity
  8
レイヤー_2
 62
     7
100
AcDbLine
 10
-2.831352
 20
-1.63332
 30
0.0
 11
-2.308731
 21
-2.330263
 31
0.0
  0
LINE
  5
1E4
100
AcDbEntity
  8
レイヤー_2
 62
     7
100
AcDbLine
 10
-2.308731
 20
-2.330263
 30
0.0
 11
-1.611788
 21
-2.80982
 31
0.0
  0
LINE
  5
1E3
100
AcDbEntity
  8
レイヤー_2
 62
     7
100
AcDbLine
 10
-1.611788
 20
-2.80982
 30
0.0
 11
-0.828029
 21
-3.158119
 31
0.0
  0
LINE
  5
1E2
100
AcDbEntity
  8
レイヤー_2
 62
     7
100
AcDbLine
 10
-0.828029
 20
-3.158119
 30
0.0
 11
-0.000172
 21
-3.24528
 31
0.0
  0
LINE
  5
1E1
100
AcDbEntity
  8
レイヤー_2
 62
     7
100
AcDbLine
 10
-0.000172
 20
-3.24528
 30
0.0
 11
0.871437
 21
-3.158119
 31
0.0
  0
LINE
  5
1E0
100
AcDbEntity
  8
レイヤー_2
 62
     7
100
AcDbLine
 10
0.871437
 20
-3.158119
 30
0.0
 11
1.655541
 21
-2.80982
 31
0.0
  0
LINE
  5
1DF
100
AcDbEntity
  8
レイヤー_2
 62
     7
100
AcDbLine
 10
1.655541
 20
-2.80982
 30
0.0
 11
2.308731
 21
-2.330263
 31
0.0
  0
LINE
  5
1DE
100
AcDbEntity
  8
レイヤー_2
 62
     7
100
AcDbLine
 10
2.308731
 20
-2.330263
 30
0.0
 11
2.831352
 21
-1.63332
 31
0.0
  0
LINE
  5
1DD
100
AcDbEntity
  8
レイヤー_2
 62
     7
100
AcDbLine
 10
2.831352
 20
-1.63332
 30
0.0
 11
3.179995
 21
-0.849216
 31
0.0
  0
LINE
  5
1DC
100
AcDbEntity
  8
レイヤー_2
 62
     7
100
AcDbLine
 10
3.179995
 20
-0.849216
 30
0.0
 11
3.267156
 21
-0.02136
 31
0.0
  0
ENDBLK
  5
1F4
100
AcDbEntity
  8
レイヤー_2
100
AcDbBlockEnd
  0
BLOCK
  5
1F7
100
AcDbEntity
  8
レイヤー_2
 62
     7
100
AcDbBlockBegin
  2
AI9-BLK37
 70
     0
 10
0.0
 20
0.0
 30
0.0
  3
AI9-BLK37
  1

  0
LINE
  5
20F
100
AcDbEntity
  8
レイヤー_2
 62
     7
100
AcDbLine
 10
2.63567
 20
-0.02136
 30
0.0
 11
2.548509
 21
0.675239
 31
0.0
  0
LINE
  5
20E
100
AcDbEntity
  8
レイヤー_2
 62
     7
100
AcDbLine
 10
2.548509
 20
0.675239
 30
0.0
 11
2.287027
 21
1.328773
 31
0.0
  0
LINE
  5
20D
100
AcDbEntity
  8
レイヤー_2
 62
     7
100
AcDbLine
 10
2.287027
 20
1.328773
 30
0.0
 11
1.851567
 21
1.851394
 31
0.0
  0
LINE
  5
20C
100
AcDbEntity
  8
レイヤー_2
 62
     7
100
AcDbLine
 10
1.851567
 20
1.851394
 30
0.0
 11
1.285193
 21
2.287199
 31
0.0
  0
LINE
  5
20B
100
AcDbEntity
  8
レイヤー_2
 62
     7
100
AcDbLine
 10
1.285193
 20
2.287199
 30
0.0
 11
0.675411
 21
2.548682
 31
0.0
  0
LINE
  5
20A
100
AcDbEntity
  8
レイヤー_2
 62
     7
100
AcDbLine
 10
0.675411
 20
2.548682
 30
0.0
 11
-0.021876
 21
2.635498
 31
0.0
  0
LINE
  5
209
100
AcDbEntity
  8
レイヤー_2
 62
     7
100
AcDbLine
 10
-0.021876
 20
2.635498
 30
0.0
 11
-0.675066
 21
2.548682
 31
0.0
  0
LINE
  5
208
100
AcDbEntity
  8
レイヤー_2
 62
     7
100
AcDbLine
 10
-0.675066
 20
2.548682
 30
0.0
 11
-1.328257
 21
2.287199
 31
0.0
  0
LINE
  5
207
100
AcDbEntity
  8
レイヤー_2
 62
     7
100
AcDbLine
 10
-1.328257
 20
2.287199
 30
0.0
 11
-1.894975
 21
1.851394
 31
0.0
  0
LINE
  5
206
100
AcDbEntity
  8
レイヤー_2
 62
     7
100
AcDbLine
 10
-1.894975
 20
1.851394
 30
0.0
 11
-2.286682
 21
1.328773
 31
0.0
  0
LINE
  5
205
100
AcDbEntity
  8
レイヤー_2
 62
     7
100
AcDbLine
 10
-2.286682
 20
1.328773
 30
0.0
 11
-2.548854
 21
0.675239
 31
0.0
  0
LINE
  5
204
100
AcDbEntity
  8
レイヤー_2
 62
     7
100
AcDbLine
 10
-2.548854
 20
0.675239
 30
0.0
 11
-2.63567
 21
-0.02136
 31
0.0
  0
LINE
  5
203
100
AcDbEntity
  8
レイヤー_2
 62
     7
100
AcDbLine
 10
-2.63567
 20
-0.02136
 30
0.0
 11
-2.548854
 21
-0.675239
 31
0.0
  0
LINE
  5
202
100
AcDbEntity
  8
レイヤー_2
 62
     7
100
AcDbLine
 10
-2.548854
 20
-0.675239
 30
0.0
 11
-2.286682
 21
-1.328429
 31
0.0
  0
LINE
  5
201
100
AcDbEntity
  8
レイヤー_2
 62
     7
100
AcDbLine
 10
-2.286682
 20
-1.328429
 30
0.0
 11
-1.894975
 21
-1.851394
 31
0.0
  0
LINE
  5
200
100
AcDbEntity
  8
レイヤー_2
 62
     7
100
AcDbLine
 10
-1.894975
 20
-1.851394
 30
0.0
 11
-1.328257
 21
-2.286854
 31
0.0
  0
LINE
  5
1FF
100
AcDbEntity
  8
レイヤー_2
 62
     7
100
AcDbLine
 10
-1.328257
 20
-2.286854
 30
0.0
 11
-0.675066
 21
-2.548682
 31
0.0
  0
LINE
  5
1FE
100
AcDbEntity
  8
レイヤー_2
 62
     7
100
AcDbLine
 10
-0.675066
 20
-2.548682
 30
0.0
 11
-0.021876
 21
-2.635498
 31
0.0
  0
LINE
  5
1FD
100
AcDbEntity
  8
レイヤー_2
 62
     7
100
AcDbLine
 10
-0.021876
 20
-2.635498
 30
0.0
 11
0.675411
 21
-2.548682
 31
0.0
  0
LINE
  5
1FC
100
AcDbEntity
  8
レイヤー_2
 62
     7
100
AcDbLine
 10
0.675411
 20
-2.548682
 30
0.0
 11
1.285193
 21
-2.286854
 31
0.0
  0
LINE
  5
1FB
100
AcDbEntity
  8
レイヤー_2
 62
     7
100
AcDbLine
 10
1.285193
 20
-2.286854
 30
0.0
 11
1.851567
 21
-1.851394
 31
0.0
  0
LINE
  5
1FA
100
AcDbEntity
  8
レイヤー_2
 62
     7
100
AcDbLine
 10
1.851567
 20
-1.851394
 30
0.0
 11
2.287027
 21
-1.328429
 31
0.0
  0
LINE
  5
1F9
100
AcDbEntity
  8
レイヤー_2
 62
     7
100
AcDbLine
 10
2.287027
 20
-1.328429
 30
0.0
 11
2.548509
 21
-0.675239
 31
0.0
  0
LINE
  5
1F8
100
AcDbEntity
  8
レイヤー_2
 62
     7
100
AcDbLine
 10
2.548509
 20
-0.675239
 30
0.0
 11
2.63567
 21
-0.02136
 31
0.0
  0
ENDBLK
  5
210
100
AcDbEntity
  8
レイヤー_2
100
AcDbBlockEnd
  0
BLOCK
  5
213
100
AcDbEntity
  8
レイヤー_2
 62
     7
100
AcDbBlockBegin
  2
AI9-BLK38
 70
     0
 10
0.0
 20
0.0
 30
0.0
  3
AI9-BLK38
  1

  0
LINE
  5
215
100
AcDbEntity
  8
レイヤー_2
 62
     7
100
AcDbLine
 10
0.152273
 20
0.348471
 30
0.0
 11
-0.022049
 21
0.130741
 31
0.0
  0
LINE
  5
214
100
AcDbEntity
  8
レイヤー_2
 62
     7
100
AcDbLine
 10
-0.022049
 20
0.130741
 30
0.0
 11
-0.152273
 21
-0.348471
 31
0.0
  0
ENDBLK
  5
216
100
AcDbEntity
  8
レイヤー_2
100
AcDbBlockEnd
  0
BLOCK
  5
219
100
AcDbEntity
  8
レイヤー_2
 62
     7
100
AcDbBlockBegin
  2
AI9-BLK39
 70
     0
 10
0.0
 20
0.0
 30
0.0
  3
AI9-BLK39
  1

  0
LINE
  5
21B
100
AcDbEntity
  8
レイヤー_2
 62
     7
100
AcDbLine
 10
-0.152273
 20
0.348385
 30
0.0
 11
-0.022049
 21
-0.174236
 31
0.0
  0
LINE
  5
21A
100
AcDbEntity
  8
レイヤー_2
 62
     7
100
AcDbLine
 10
-0.022049
 20
-0.174236
 30
0.0
 11
0.152273
 21
-0.348385
 31
0.0
  0
ENDBLK
  5
21C
100
AcDbEntity
  8
レイヤー_2
100
AcDbBlockEnd
  0
BLOCK
  5
21F
100
AcDbEntity
  8
レイヤー_2
 62
     7
100
AcDbBlockBegin
  2
AI9-BLK40
 70
     0
 10
0.0
 20
0.0
 30
0.0
  3
AI9-BLK40
  1

  0
LINE
  5
221
100
AcDbEntity
  8
レイヤー_2
 62
     7
100
AcDbLine
 10
0.065629
 20
-0.174494
 30
0.0
 11
0.021876
 21
0.087333
 31
0.0
  0
LINE
  5
220
100
AcDbEntity
  8
レイヤー_2
 62
     7
100
AcDbLine
 10
0.021876
 20
0.087333
 30
0.0
 11
-0.065629
 21
0.174494
 31
0.0
  0
ENDBLK
  5
222
100
AcDbEntity
  8
レイヤー_2
100
AcDbBlockEnd
  0
BLOCK
  5
225
100
AcDbEntity
  8
レイヤー_2
 62
     7
100
AcDbBlockBegin
  2
AI9-BLK41
 70
     0
 10
0.0
 20
0.0
 30
0.0
  3
AI9-BLK41
  1

  0
LINE
  5
227
100
AcDbEntity
  8
レイヤー_2
 62
     7
100
AcDbLine
 10
-0.065629
 20
-0.152618
 30
0.0
 11
0.021876
 21
-0.065112
 31
0.0
  0
LINE
  5
226
100
AcDbEntity
  8
レイヤー_2
 62
     7
100
AcDbLine
 10
0.021876
 20
-0.065112
 30
0.0
 11
0.065629
 21
0.152618
 31
0.0
  0
ENDBLK
  5
228
100
AcDbEntity
  8
レイヤー_2
100
AcDbBlockEnd
  0
BLOCK
  5
22B
100
AcDbEntity
  8
レイヤー_2
 62
     7
100
AcDbBlockBegin
  2
AI9-BLK42
 70
     0
 10
0.0
 20
0.0
 30
0.0
  3
AI9-BLK42
  1

  0
LINE
  5
22D
100
AcDbEntity
  8
レイヤー_2
 62
     7
100
AcDbLine
 10
0.065285
 20
0.174322
 30
0.0
 11
0.021876
 21
0.087505
 31
0.0
  0
LINE
  5
22C
100
AcDbEntity
  8
レイヤー_2
 62
     7
100
AcDbLine
 10
0.021876
 20
0.087505
 30
0.0
 11
-0.065285
 21
-0.174322
 31
0.0
  0
ENDBLK
  5
22E
100
AcDbEntity
  8
レイヤー_2
100
AcDbBlockEnd
  0
BLOCK
  5
231
100
AcDbEntity
  8
レイヤー_2
 62
     7
100
AcDbBlockBegin
  2
AI9-BLK43
 70
     0
 10
0.0
 20
0.0
 30
0.0
  3
AI9-BLK43
  1

  0
LINE
  5
233
100
AcDbEntity
  8
レイヤー_2
 62
     7
100
AcDbLine
 10
-0.152273
 20
-0.32694
 30
0.0
 11
0.022049
 21
-0.152618
 31
0.0
  0
LINE
  5
232
100
AcDbEntity
  8
レイヤー_2
 62
     7
100
AcDbLine
 10
0.022049
 20
-0.152618
 30
0.0
 11
0.152273
 21
0.32694
 31
0.0
  0
ENDBLK
  5
234
100
AcDbEntity
  8
レイヤー_2
100
AcDbBlockEnd
  0
BLOCK
  5
237
100
AcDbEntity
  8
レイヤー_2
 62
     7
100
AcDbBlockBegin
  2
AI9-BLK44
 70
     0
 10
0.0
 20
0.0
 30
0.0
  3
AI9-BLK44
  1

  0
LINE
  5
239
100
AcDbEntity
  8
レイヤー_2
 62
     7
100
AcDbLine
 10
0.152273
 20
-0.348558
 30
0.0
 11
0.022049
 21
0.174408
 31
0.0
  0
LINE
  5
238
100
AcDbEntity
  8
レイヤー_2
 62
     7
100
AcDbLine
 10
0.022049
 20
0.174408
 30
0.0
 11
-0.152273
 21
0.348558
 31
0.0
  0
ENDBLK
  5
23A
100
AcDbEntity
  8
レイヤー_2
100
AcDbBlockEnd
  0
BLOCK
  5
23D
100
AcDbEntity
  8
レイヤー_2
 62
     7
100
AcDbBlockBegin
  2
AI9-BLK45
 70
     0
 10
0.0
 20
0.0
 30
0.0
  3
AI9-BLK45
  1

  0
LINE
  5
23F
100
AcDbEntity
  8
レイヤー_2
 62
     7
100
AcDbLine
 10
-0.065285
 20
0.174236
 30
0.0
 11
0.021876
 21
-0.087075
 31
0.0
  0
LINE
  5
23E
100
AcDbEntity
  8
レイヤー_2
 62
     7
100
AcDbLine
 10
0.021876
 20
-0.087075
 30
0.0
 11
0.065285
 21
-0.174236
 31
0.0
  0
ENDBLK
  5
240
100
AcDbEntity
  8
レイヤー_2
100
AcDbBlockEnd
  0
BLOCK
  5
243
100
AcDbEntity
  8
レイヤー_2
 62
     7
100
AcDbBlockBegin
  2
AI9-BLK46
 70
     0
 10
0.0
 20
0.0
 30
0.0
  3
AI9-BLK46
  1

  0
LINE
  5
24A
100
AcDbEntity
  8
レイヤー_2
 62
     7
100
AcDbLine
 10
-0.130569
 20
0.21773
 30
0.0
 11
-0.130569
 21
0.087161
 31
0.0
  0
LINE
  5
249
100
AcDbEntity
  8
レイヤー_2
 62
     7
100
AcDbLine
 10
-0.130569
 20
0.087161
 30
0.0
 11
-0.087161
 21
0.043753
 31
0.0
  0
LINE
  5
248
100
AcDbEntity
  8
レイヤー_2
 62
     7
100
AcDbLine
 10
-0.087161
 20
0.043753
 30
0.0
 11
-0.043064
 21
-0.043408
 31
0.0
  0
LINE
  5
247
100
AcDbEntity
  8
レイヤー_2
 62
     7
100
AcDbLine
 10
-0.043064
 20
-0.043408
 30
0.0
 11
-0.043064
 21
-0.086816
 31
0.0
  0
LINE
  5
246
100
AcDbEntity
  8
レイヤー_2
 62
     7
100
AcDbLine
 10
-0.043064
 20
-0.086816
 30
0.0
 11
0.0
 21
-0.130569
 31
0.0
  0
LINE
  5
245
100
AcDbEntity
  8
レイヤー_2
 62
     7
100
AcDbLine
 10
0.0
 20
-0.130569
 30
0.0
 11
0.087161
 21
-0.173977
 31
0.0
  0
LINE
  5
244
100
AcDbEntity
  8
レイヤー_2
 62
     7
100
AcDbLine
 10
0.087161
 20
-0.173977
 30
0.0
 11
0.130569
 21
-0.21773
 31
0.0
  0
ENDBLK
  5
24B
100
AcDbEntity
  8
レイヤー_2
100
AcDbBlockEnd
  0
BLOCK
  5
24E
100
AcDbEntity
  8
レイヤー_2
 62
     7
100
AcDbBlockBegin
  2
AI9-BLK47
 70
     0
 10
0.0
 20
0.0
 30
0.0
  3
AI9-BLK47
  1

  0
LINE
  5
253
100
AcDbEntity
  8
レイヤー_2
 62
     7
100
AcDbLine
 10
0.130569
 20
0.196026
 30
0.0
 11
0.043753
 21
0.196026
 31
0.0
  0
LINE
  5
252
100
AcDbEntity
  8
レイヤー_2
 62
     7
100
AcDbLine
 10
0.043753
 20
0.196026
 30
0.0
 11
-0.043064
 21
0.109037
 31
0.0
  0
LINE
  5
251
100
AcDbEntity
  8
レイヤー_2
 62
     7
100
AcDbLine
 10
-0.043064
 20
0.109037
 30
0.0
 11
-0.043064
 21
0.021704
 31
0.0
  0
LINE
  5
250
100
AcDbEntity
  8
レイヤー_2
 62
     7
100
AcDbLine
 10
-0.043064
 20
0.021704
 30
0.0
 11
-0.130569
 21
-0.065112
 31
0.0
  0
LINE
  5
24F
100
AcDbEntity
  8
レイヤー_2
 62
     7
100
AcDbLine
 10
-0.130569
 20
-0.065112
 30
0.0
 11
-0.130569
 21
-0.196026
 31
0.0
  0
ENDBLK
  5
254
100
AcDbEntity
  8
レイヤー_2
100
AcDbBlockEnd
  0
BLOCK
  5
257
100
AcDbEntity
  8
レイヤー_2
 62
     7
100
AcDbBlockBegin
  2
AI9-BLK48
 70
     0
 10
0.0
 20
0.0
 30
0.0
  3
AI9-BLK48
  1

  0
LINE
  5
25C
100
AcDbEntity
  8
レイヤー_2
 62
     7
100
AcDbLine
 10
-0.10921
 20
-0.21773
 30
0.0
 11
0.022738
 21
-0.086816
 31
0.0
  0
LINE
  5
25B
100
AcDbEntity
  8
レイヤー_2
 62
     7
100
AcDbLine
 10
0.022738
 20
-0.086816
 30
0.0
 11
0.065457
 21
0.000689
 31
0.0
  0
LINE
  5
25A
100
AcDbEntity
  8
レイヤー_2
 62
     7
100
AcDbLine
 10
0.065457
 20
0.000689
 30
0.0
 11
0.065457
 21
0.043753
 31
0.0
  0
LINE
  5
259
100
AcDbEntity
  8
レイヤー_2
 62
     7
100
AcDbLine
 10
0.065457
 20
0.043753
 30
0.0
 11
0.10921
 21
0.087161
 31
0.0
  0
LINE
  5
258
100
AcDbEntity
  8
レイヤー_2
 62
     7
100
AcDbLine
 10
0.10921
 20
0.087161
 30
0.0
 11
0.10921
 21
0.21773
 31
0.0
  0
ENDBLK
  5
25D
100
AcDbEntity
  8
レイヤー_2
100
AcDbBlockEnd
  0
BLOCK
  5
260
100
AcDbEntity
  8
レイヤー_2
 62
     7
100
AcDbBlockBegin
  2
AI9-BLK49
 70
     0
 10
0.0
 20
0.0
 30
0.0
  3
AI9-BLK49
  1

  0
LINE
  5
266
100
AcDbEntity
  8
レイヤー_2
 62
     7
100
AcDbLine
 10
0.10921
 20
-0.196026
 30
0.0
 11
0.10921
 21
-0.065112
 31
0.0
  0
LINE
  5
265
100
AcDbEntity
  8
レイヤー_2
 62
     7
100
AcDbLine
 10
0.10921
 20
-0.065112
 30
0.0
 11
0.065457
 21
-0.021532
 31
0.0
  0
LINE
  5
264
100
AcDbEntity
  8
レイヤー_2
 62
     7
100
AcDbLine
 10
0.065457
 20
-0.021532
 30
0.0
 11
0.065457
 21
0.021704
 31
0.0
  0
LINE
  5
263
100
AcDbEntity
  8
レイヤー_2
 62
     7
100
AcDbLine
 10
0.065457
 20
0.021704
 30
0.0
 11
0.022738
 21
0.109037
 31
0.0
  0
LINE
  5
262
100
AcDbEntity
  8
レイヤー_2
 62
     7
100
AcDbLine
 10
0.022738
 20
0.109037
 30
0.0
 11
-0.065112
 21
0.196026
 31
0.0
  0
LINE
  5
261
100
AcDbEntity
  8
レイヤー_2
 62
     7
100
AcDbLine
 10
-0.065112
 20
0.196026
 30
0.0
 11
-0.10921
 21
0.196026
 31
0.0
  0
ENDBLK
  5
267
100
AcDbEntity
  8
レイヤー_2
100
AcDbBlockEnd
  0
BLOCK
  5
26A
100
AcDbEntity
  8
レイヤー_2
 62
     7
100
AcDbBlockBegin
  2
AI9-BLK50
 70
     0
 10
0.0
 20
0.0
 30
0.0
  3
AI9-BLK50
  1

  0
LINE
  5
26C
100
AcDbEntity
  8
レイヤー_2
 62
     7
100
AcDbLine
 10
0.065285
 20
0.108865
 30
0.0
 11
0.021876
 21
0.065112
 31
0.0
  0
LINE
  5
26B
100
AcDbEntity
  8
レイヤー_2
 62
     7
100
AcDbLine
 10
0.021876
 20
0.065112
 30
0.0
 11
-0.065285
 21
-0.108865
 31
0.0
  0
ENDBLK
  5
26D
100
AcDbEntity
  8
レイヤー_2
100
AcDbBlockEnd
  0
BLOCK
  5
270
100
AcDbEntity
  8
レイヤー_2
 62
     7
100
AcDbBlockBegin
  2
AI9-BLK51
 70
     0
 10
0.0
 20
0.0
 30
0.0
  3
AI9-BLK51
  1

  0
LINE
  5
272
100
AcDbEntity
  8
レイヤー_2
 62
     7
100
AcDbLine
 10
0.065112
 20
-0.108865
 30
0.0
 11
0.021015
 21
0.065112
 31
0.0
  0
LINE
  5
271
100
AcDbEntity
  8
レイヤー_2
 62
     7
100
AcDbLine
 10
0.021015
 20
0.065112
 30
0.0
 11
-0.065112
 21
0.108865
 31
0.0
  0
ENDBLK
  5
273
100
AcDbEntity
  8
レイヤー_2
100
AcDbBlockEnd
  0
BLOCK
  5
276
100
AcDbEntity
  8
レイヤー_2
 62
     7
100
AcDbBlockBegin
  2
AI9-BLK52
 70
     0
 10
0.0
 20
0.0
 30
0.0
  3
AI9-BLK52
  1

  0
LINE
  5
278
100
AcDbEntity
  8
レイヤー_2
 62
     7
100
AcDbLine
 10
-0.065112
 20
-0.108951
 30
0.0
 11
0.021015
 21
-0.065198
 31
0.0
  0
LINE
  5
277
100
AcDbEntity
  8
レイヤー_2
 62
     7
100
AcDbLine
 10
0.021015
 20
-0.065198
 30
0.0
 11
0.065112
 21
0.108951
 31
0.0
  0
ENDBLK
  5
279
100
AcDbEntity
  8
レイヤー_2
100
AcDbBlockEnd
  0
BLOCK
  5
27C
100
AcDbEntity
  8
レイヤー_2
 62
     7
100
AcDbBlockBegin
  2
AI9-BLK53
 70
     0
 10
0.0
 20
0.0
 30
0.0
  3
AI9-BLK53
  1

  0
LINE
  5
27E
100
AcDbEntity
  8
レイヤー_2
 62
     7
100
AcDbLine
 10
-0.065285
 20
0.108951
 30
0.0
 11
0.021876
 21
-0.065198
 31
0.0
  0
LINE
  5
27D
100
AcDbEntity
  8
レイヤー_2
 62
     7
100
AcDbLine
 10
0.021876
 20
-0.065198
 30
0.0
 11
0.065285
 21
-0.108951
 31
0.0
  0
ENDBLK
  5
27F
100
AcDbEntity
  8
レイヤー_2
100
AcDbBlockEnd
  0
BLOCK
  5
282
100
AcDbEntity
  8
レイヤー_2
 62
     7
100
AcDbBlockBegin
  2
AI9-BLK54
 70
     0
 10
0.0
 20
0.0
 30
0.0
  3
AI9-BLK54
  1

  0
LINE
  5
285
100
AcDbEntity
  8
レイヤー_2
 62
     7
100
AcDbLine
 10
0.239434
 20
0.239779
 30
0.0
 11
0.02136
 21
0.152445
 31
0.0
  0
LINE
  5
284
100
AcDbEntity
  8
レイヤー_2
 62
     7
100
AcDbLine
 10
0.02136
 20
0.152445
 30
0.0
 11
-0.152273
 21
-0.021704
 31
0.0
  0
LINE
  5
283
100
AcDbEntity
  8
レイヤー_2
 62
     7
100
AcDbLine
 10
-0.152273
 20
-0.021704
 30
0.0
 11
-0.239434
 21
-0.239779
 31
0.0
  0
ENDBLK
  5
286
100
AcDbEntity
  8
レイヤー_2
100
AcDbBlockEnd
  0
BLOCK
  5
289
100
AcDbEntity
  8
レイヤー_2
 62
     7
100
AcDbBlockBegin
  2
AI9-BLK55
 70
     0
 10
0.0
 20
0.0
 30
0.0
  3
AI9-BLK55
  1

  0
LINE
  5
28C
100
AcDbEntity
  8
レイヤー_2
 62
     7
100
AcDbLine
 10
0.239606
 20
-0.239779
 30
0.0
 11
0.195509
 21
-0.021704
 31
0.0
  0
LINE
  5
28B
100
AcDbEntity
  8
レイヤー_2
 62
     7
100
AcDbLine
 10
0.195509
 20
-0.021704
 30
0.0
 11
0.021876
 21
0.152445
 31
0.0
  0
LINE
  5
28A
100
AcDbEntity
  8
レイヤー_2
 62
     7
100
AcDbLine
 10
0.021876
 20
0.152445
 30
0.0
 11
-0.239606
 21
0.239779
 31
0.0
  0
ENDBLK
  5
28D
100
AcDbEntity
  8
レイヤー_2
100
AcDbBlockEnd
  0
BLOCK
  5
290
100
AcDbEntity
  8
レイヤー_2
 62
     7
100
AcDbBlockBegin
  2
AI9-BLK56
 70
     0
 10
0.0
 20
0.0
 30
0.0
  3
AI9-BLK56
  1

  0
LINE
  5
293
100
AcDbEntity
  8
レイヤー_2
 62
     7
100
AcDbLine
 10
0.435632
 20
0.261483
 30
0.0
 11
0.392224
 21
0.261483
 31
0.0
  0
LINE
  5
292
100
AcDbEntity
  8
レイヤー_2
 62
     7
100
AcDbLine
 10
0.392224
 20
0.261483
 30
0.0
 11
-0.086989
 21
0.130569
 31
0.0
  0
LINE
  5
291
100
AcDbEntity
  8
レイヤー_2
 62
     7
100
AcDbLine
 10
-0.086989
 20
0.130569
 30
0.0
 11
-0.435632
 21
-0.261483
 31
0.0
  0
ENDBLK
  5
294
100
AcDbEntity
  8
レイヤー_2
100
AcDbBlockEnd
  0
BLOCK
  5
297
100
AcDbEntity
  8
レイヤー_2
 62
     7
100
AcDbBlockBegin
  2
AI9-BLK57
 70
     0
 10
0.0
 20
0.0
 30
0.0
  3
AI9-BLK57
  1

  0
LINE
  5
29A
100
AcDbEntity
  8
レイヤー_2
 62
     7
100
AcDbLine
 10
-0.435632
 20
0.239779
 30
0.0
 11
-0.086989
 21
-0.108865
 31
0.0
  0
LINE
  5
299
100
AcDbEntity
  8
レイヤー_2
 62
     7
100
AcDbLine
 10
-0.086989
 20
-0.108865
 30
0.0
 11
0.392224
 21
-0.239779
 31
0.0
  0
LINE
  5
298
100
AcDbEntity
  8
レイヤー_2
 62
     7
100
AcDbLine
 10
0.392224
 20
-0.239779
 30
0.0
 11
0.435632
 21
-0.239779
 31
0.0
  0
ENDBLK
  5
29B
100
AcDbEntity
  8
レイヤー_2
100
AcDbBlockEnd
  0
BLOCK
  5
2EF
100
AcDbEntity
  8
レイヤー_2
 62
     7
100
AcDbBlockBegin
  2
AI9-BLK58
 70
     0
 10
0.0
 20
0.0
 30
0.0
  3
AI9-BLK58
  1

  0
CIRCLE
  5
2F0
100
AcDbEntity
  8
レイヤー_2
 62
     7
100
AcDbCircle
 10
0.0
 20
0.0
 30
0.0
 40
0.009991
  0
ENDBLK
  5
2F1
100
AcDbEntity
  8
レイヤー_2
100
AcDbBlockEnd
  0
BLOCK
  5
2F4
100
AcDbEntity
  8
レイヤー_2
 62
     7
100
AcDbBlockBegin
  2
AI9-BLK59
 70
     0
 10
0.0
 20
0.0
 30
0.0
  3
AI9-BLK59
  1

  0
ELLIPSE
  5
2F5
100
AcDbEntity
  8
レイヤー_2
 62
     7
100
AcDbEllipse
 10
0.0
 20
-0.000172
 30
0.0
 11
-0.0099907769097222
 21
0.0
 31
0.0
210
0.0
220
0.0
230
1.0
 40
0.982759
 41
0.0
 42
6.2831853071795862
  0
ENDBLK
  5
2F6
100
AcDbEntity
  8
レイヤー_2
100
AcDbBlockEnd
  0
BLOCK
  5
35B
100
AcDbEntity
  8
レイヤー_2
 62
     7
100
AcDbBlockBegin
  2
AI9-BLK60
 70
     0
 10
0.0
 20
0.0
 30
0.0
  3
AI9-BLK60
  1

  0
LINE
  5
387
100
AcDbEntity
  8
レイヤー_2
 62
     7
100
AcDbLine
 10
-18.000968
 20
20.285411
 30
0.0
 11
-18.000968
 21
4.835881
 31
0.0
  0
LINE
  5
386
100
AcDbEntity
  8
レイヤー_2
 62
     7
100
AcDbLine
 10
-14.723994
 20
4.835881
 30
0.0
 11
-14.723994
 21
20.285411
 31
0.0
  0
SPLINE
  5
385
100
AcDbEntity
  8
レイヤー_2
 62
     7
100
AcDbSpline
210
0.0
220
0.0
230
1.0
 70
     8
 71
     3
 72
     8
 73
     4
 74
     0
 42
0.00000001
 43
0.00000001
 40
0.0
 40
0.0
 40
0.0
 40
0.0
 40
1.0
 40
1.0
 40
1.0
 40
1.0
 10
-15.402677408854165
 20
4.8358805338541666
 30
0.0
 10
-15.418524848090277
 20
4.8145209418402777
 30
0.0
 10
-15.42575954861111
 20
4.7897162543402771
 30
0.0
 10
-15.42575954861111
 20
4.7649115668402775
 30
0.0
  0
SPLINE
  5
384
100
AcDbEntity
  8
レイヤー_2
 62
     7
100
AcDbSpline
210
0.0
220
0.0
230
1.0
 70
     8
 71
     3
 72
     8
 73
     4
 74
     0
 42
0.00000001
 43
0.00000001
 40
0.0
 40
0.0
 40
0.0
 40
0.0
 40
1.0
 40
1.0
 40
1.0
 40
1.0
 10
-17.29885796440972
 20
4.7649115668402775
 30
0.0
 10
-17.29885796440972
 20
4.7917833116319439
 30
0.0
 10
-17.307470703124999
 20
4.816243489583333
 30
0.0
 10
-17.321595594618053
 20
4.8358805338541666
 30
0.0
  0
LINE
  5
383
100
AcDbEntity
  8
レイヤー_2
 62
     7
100
AcDbLine
 10
-15.42576
 20
2.378149
 30
0.0
 11
-15.42576
 21
4.764912
 31
0.0
  0
LINE
  5
382
100
AcDbEntity
  8
レイヤー_2
 62
     7
100
AcDbLine
 10
-17.298858
 20
4.764912
 30
0.0
 11
-17.298858
 21
2.378149
 31
0.0
  0
LINE
  5
381
100
AcDbEntity
  8
レイヤー_2
 62
     7
100
AcDbLine
 10
18.908234
 20
-15.318962
 30
0.0
 11
19.046038
 21
-19.295808
 31
0.0
  0
LINE
  5
380
100
AcDbEntity
  8
レイヤー_2
 62
     7
100
AcDbLine
 10
24.450704
 20
-19.107705
 30
0.0
 11
24.312211
 21
-15.13017
 31
0.0
  0
LINE
  5
37F
100
AcDbEntity
  8
レイヤー_2
 62
     7
100
AcDbLine
 10
19.267902
 20
-15.23559
 30
0.0
 11
19.269969
 21
-15.306215
 31
0.0
  0
LINE
  5
37E
100
AcDbEntity
  8
レイヤー_2
 62
     7
100
AcDbLine
 10
-24.450532
 20
-5.581744
 30
0.0
 11
10.780737
 21
-5.581744
 31
0.0
  0
LINE
  5
37D
100
AcDbEntity
  8
レイヤー_2
 62
     7
100
AcDbLine
 10
10.780737
 20
-0.197059
 30
0.0
 11
-24.450532
 21
-0.197059
 31
0.0
  0
SPLINE
  5
37C
100
AcDbEntity
  8
レイヤー_2
 62
     7
100
AcDbSpline
210
0.0
220
0.0
230
1.0
 70
     8
 71
     3
 72
     8
 73
     4
 74
     0
 42
0.00000001
 43
0.00000001
 40
0.0
 40
0.0
 40
0.0
 40
0.0
 40
1.0
 40
1.0
 40
1.0
 40
1.0
 10
18.851734754774302
 20
-13.375238715277776
 30
0.0
 10
18.699461534288194
 20
-9.0175374348958321
 30
0.0
 10
15.120524088541666
 20
-5.5862223307291661
 30
0.0
 10
10.780737304687499
 20
-5.581743706597222
 30
0.0
  0
SPLINE
  5
37B
100
AcDbEntity
  8
レイヤー_2
 62
     7
100
AcDbSpline
210
0.0
220
0.0
230
1.0
 70
     8
 71
     3
 72
     8
 73
     4
 74
     0
 42
0.00000001
 43
0.00000001
 40
0.0
 40
0.0
 40
0.0
 40
0.0
 40
1.0
 40
1.0
 40
1.0
 40
1.0
 10
24.232973904079859
 20
-13.187825520833332
 30
0.0
 10
23.978725857204857
 20
-5.9238416883680554
 30
0.0
 10
18.013887532552083
 20
-0.204638671875
 30
0.0
 10
10.780737304687499
 20
-0.1970594618055555
 30
0.0
  0
LINE
  5
37A
100
AcDbEntity
  8
レイヤー_2
 62
     7
100
AcDbLine
 10
24.297742
 20
-15.060579
 30
0.0
 11
24.232974
 21
-13.187826
 31
0.0
  0
LINE
  5
379
100
AcDbEntity
  8
レイヤー_2
 62
     7
100
AcDbLine
 10
18.851735
 20
-13.375239
 30
0.0
 11
18.916503
 21
-15.247993
 31
0.0
  0
LINE
  5
378
100
AcDbEntity
  8
レイヤー_2
 62
     7
100
AcDbLine
 10
-17.839049
 20
-8.156608
 30
0.0
 11
-13.625008
 21
-8.156608
 31
0.0
  0
LINE
  5
377
100
AcDbEntity
  8
レイヤー_2
 62
     7
100
AcDbLine
 10
-17.298858
 20
2.378149
 30
0.0
 11
-20.294713
 21
2.378149
 31
0.0
  0
LINE
  5
376
100
AcDbEntity
  8
レイヤー_2
 62
     7
100
AcDbLine
 10
-13.625008
 20
2.378149
 30
0.0
 11
-15.416458
 21
2.378149
 31
0.0
  0
SPLINE
  5
375
100
AcDbEntity
  8
レイヤー_2
 62
     7
100
AcDbSpline
210
0.0
220
0.0
230
1.0
 70
     8
 71
     3
 72
     8
 73
     4
 74
     0
 42
0.00000001
 43
0.00000001
 40
0.0
 40
0.0
 40
0.0
 40
0.0
 40
1.0
 40
1.0
 40
1.0
 40
1.0
 10
-13.625008138020831
 20
-8.1555745442708325
 30
0.0
 10
-13.585045030381943
 20
-7.2512369791666664
 30
0.0
 10
-13.554039171006943
 20
-6.3479329427083329
 30
0.0
 10
-13.537502712673611
 20
-5.581743706597222
 30
0.0
  0
SPLINE
  5
374
100
AcDbEntity
  8
レイヤー_2
 62
     7
100
AcDbSpline
210
0.0
220
0.0
230
1.0
 70
     8
 71
     3
 72
     8
 73
     4
 74
     0
 42
0.00000001
 43
0.00000001
 40
0.0
 40
0.0
 40
0.0
 40
0.0
 40
1.0
 40
1.0
 40
1.0
 40
1.0
 10
-13.537502712673611
 20
-0.1970594618055555
 30
0.0
 10
-13.557828776041665
 20
0.7083116319444444
 30
0.0
 10
-13.589523654513888
 20
1.6109266493055554
 30
0.0
 10
-13.625008138020831
 20
2.3771158854166665
 30
0.0
  0
LINE
  5
373
100
AcDbEntity
  8
レイヤー_2
 62
     7
100
AcDbLine
 10
-24.450532
 20
-8.156608
 30
0.0
 11
-20.775304
 21
-8.156608
 31
0.0
  0
LINE
  5
372
100
AcDbEntity
  8
レイヤー_2
 62
     7
100
AcDbLine
 10
-20.775304
 20
2.378149
 30
0.0
 11
-24.450532
 21
2.378149
 31
0.0
  0
SPLINE
  5
371
100
AcDbEntity
  8
レイヤー_2
 62
     7
100
AcDbSpline
210
0.0
220
0.0
230
1.0
 70
     8
 71
     3
 72
     8
 73
     4
 74
     0
 42
0.00000001
 43
0.00000001
 40
0.0
 40
0.0
 40
0.0
 40
0.0
 40
1.0
 40
1.0
 40
1.0
 40
1.0
 10
-20.587890624999996
 20
2.1907362196180555
 30
0.0
 10
-20.587890624999996
 20
2.2940890842013886
 30
0.0
 10
-20.671261935763887
 20
2.3781494140624999
 30
0.0
 10
-20.775303819444442
 20
2.3781494140624999
 30
0.0
  0
SPLINE
  5
370
100
AcDbEntity
  8
レイヤー_2
 62
     7
100
AcDbSpline
210
0.0
220
0.0
230
1.0
 70
     8
 71
     3
 72
     8
 73
     4
 74
     0
 42
0.00000001
 43
0.00000001
 40
0.0
 40
0.0
 40
0.0
 40
0.0
 40
1.0
 40
1.0
 40
1.0
 40
1.0
 10
-20.775303819444442
 20
-8.1566080729166668
 30
0.0
 10
-20.671261935763887
 20
-8.1566080729166668
 30
0.0
 10
-20.587890624999996
 20
-8.0722032335069436
 30
0.0
 10
-20.587890624999996
 20
-7.9691948784722211
 30
0.0
  0
SPLINE
  5
36F
100
AcDbEntity
  8
レイヤー_2
 62
     7
100
AcDbSpline
210
0.0
220
0.0
230
1.0
 70
     8
 71
     3
 72
     8
 73
     4
 74
     0
 42
0.00000001
 43
0.00000001
 40
0.0
 40
0.0
 40
0.0
 40
0.0
 40
1.0
 40
1.0
 40
1.0
 40
1.0
 10
-20.587890624999996
 20
1.7342610677083332
 30
0.0
 10
-20.587890624999996
 20
1.6050699869791665
 30
0.0
 10
-20.482815212673611
 20
1.5003390842013888
 30
0.0
 10
-20.353279622395831
 20
1.5003390842013888
 30
0.0
  0
SPLINE
  5
36E
100
AcDbEntity
  8
レイヤー_2
 62
     7
100
AcDbSpline
210
0.0
220
0.0
230
1.0
 70
     8
 71
     3
 72
     8
 73
     4
 74
     0
 42
0.00000001
 43
0.00000001
 40
0.0
 40
0.0
 40
0.0
 40
0.0
 40
1.0
 40
1.0
 40
1.0
 40
1.0
 10
-20.353279622395831
 20
-7.2787977430555548
 30
0.0
 10
-20.482815212673611
 20
-7.2787977430555548
 30
0.0
 10
-20.587890624999996
 20
-7.3828396267361107
 30
0.0
 10
-20.587890624999996
 20
-7.5123752170138882
 30
0.0
  0
LINE
  5
36D
100
AcDbEntity
  8
レイヤー_2
 62
     7
100
AcDbLine
 10
-20.35328
 20
-7.278798
 30
0.0
 11
-20.119702
 21
-7.278798
 31
0.0
  0
LINE
  5
36C
100
AcDbEntity
  8
レイヤー_2
 62
     7
100
AcDbLine
 10
-20.294713
 20
1.500339
 30
0.0
 11
-20.35328
 21
1.500339
 31
0.0
  0
SPLINE
  5
36B
100
AcDbEntity
  8
レイヤー_2
 62
     7
100
AcDbSpline
210
0.0
220
0.0
230
1.0
 70
     8
 71
     3
 72
     8
 73
     4
 74
     0
 42
0.00000001
 43
0.00000001
 40
0.0
 40
0.0
 40
0.0
 40
0.0
 40
1.0
 40
1.0
 40
1.0
 40
1.0
 10
-20.119702148437497
 20
-7.2787977430555548
 30
0.0
 10
-19.502341037326389
 20
-7.2787977430555548
 30
0.0
 10
-18.914607747395831
 20
-7.1502956814236107
 30
0.0
 10
-18.410245768229164
 20
-6.9318766276041659
 30
0.0
  0
LINE
  5
36A
100
AcDbEntity
  8
レイヤー_2
 62
     7
100
AcDbLine
 10
-18.000968
 20
20.285411
 30
0.0
 11
-14.723994
 21
20.285411
 31
0.0
  0
LINE
  5
369
100
AcDbEntity
  8
レイヤー_2
 62
     7
100
AcDbLine
 10
-16.670128
 20
4.835881
 30
0.0
 11
-14.723994
 21
4.835881
 31
0.0
  0
LINE
  5
368
100
AcDbEntity
  8
レイヤー_2
 62
     7
100
AcDbLine
 10
-18.000968
 20
4.835881
 30
0.0
 11
-16.670128
 21
4.835881
 31
0.0
  0
LINE
  5
367
100
AcDbEntity
  8
レイヤー_2
 62
     7
100
AcDbLine
 10
18.908234
 20
-15.318962
 30
0.0
 11
24.312211
 21
-15.13017
 31
0.0
  0
LINE
  5
366
100
AcDbEntity
  8
レイヤー_2
 62
     7
100
AcDbLine
 10
19.046038
 20
-19.295808
 30
0.0
 11
24.450704
 21
-19.107705
 31
0.0
  0
LINE
  5
365
100
AcDbEntity
  8
レイヤー_2
 62
     7
100
AcDbLine
 10
24.297742
 20
-15.060579
 30
0.0
 11
18.916503
 21
-15.247993
 31
0.0
  0
SPLINE
  5
364
100
AcDbEntity
  8
レイヤー_2
 62
     7
100
AcDbSpline
210
0.0
220
0.0
230
1.0
 70
     8
 71
     3
 72
     8
 73
     4
 74
     0
 42
0.00000001
 43
0.00000001
 40
0.0
 40
0.0
 40
0.0
 40
0.0
 40
1.0
 40
1.0
 40
1.0
 40
1.0
 10
-17.29885796440972
 20
2.3760823567708331
 30
0.0
 10
-16.973640950520831
 20
2.3178602430555553
 30
0.0
 10
-16.648423936631943
 20
2.2899549696180554
 30
0.0
 10
-16.362825520833333
 20
2.2913330078124998
 30
0.0
  0
SPLINE
  5
363
100
AcDbEntity
  8
レイヤー_2
 62
     7
100
AcDbSpline
210
0.0
220
0.0
230
1.0
 70
     8
 71
     3
 72
     8
 73
     4
 74
     0
 42
0.00000001
 43
0.00000001
 40
0.0
 40
0.0
 40
0.0
 40
0.0
 40
1.0
 40
1.0
 40
1.0
 40
1.0
 10
-16.362825520833333
 20
2.2913330078124998
 30
0.0
 10
-16.02761773003472
 20
2.2927110460069442
 30
0.0
 10
-15.700333658854165
 20
2.3230278862847222
 30
0.0
 10
-15.41645779079861
 20
2.3771158854166665
 30
0.0
  0
LINE
  5
362
100
AcDbEntity
  8
レイヤー_2
 62
     7
100
AcDbLine
 10
-20.294713
 20
2.378149
 30
0.0
 11
-20.294713
 21
-0.197059
 31
0.0
  0
LINE
  5
361
100
AcDbEntity
  8
レイヤー_2
 62
     7
100
AcDbLine
 10
-19.040009
 20
-5.581744
 30
0.0
 11
-17.839049
 21
-8.156608
 31
0.0
  0
LINE
  5
360
100
AcDbEntity
  8
レイヤー_2
 62
     7
100
AcDbLine
 10
-20.587891
 20
-5.581744
 30
0.0
 11
-20.587891
 21
-7.969195
 31
0.0
  0
LINE
  5
35F
100
AcDbEntity
  8
レイヤー_2
 62
     7
100
AcDbLine
 10
-20.587891
 20
2.190736
 30
0.0
 11
-20.587891
 21
-0.197059
 31
0.0
  0
LINE
  5
35E
100
AcDbEntity
  8
レイヤー_2
  6
AI9-LType4
 62
     7
100
AcDbLine
 10
21.520306
 20
-13.845839
 30
0.0
 11
21.715298
 21
-19.435678
 31
0.0
  0
LINE
  5
35C
100
AcDbEntity
  8
レイヤー_2
 62
     7
100
AcDbLine
 10
21.715298
 20
-19.435678
 30
0.0
 11
21.748371
 21
-20.372055
 31
0.0
  0
ENDBLK
  5
388
100
AcDbEntity
  8
レイヤー_2
100
AcDbBlockEnd
  0
BLOCK
  5
38B
100
AcDbEntity
  8
レイヤー_2
 62
     7
100
AcDbBlockBegin
  2
AI9-BLK61
 70
     0
 10
0.0
 20
0.0
 30
0.0
  3
AI9-BLK61
  1

  0
LINE
  5
403
100
AcDbEntity
  8
レイヤー_2
 62
     7
100
AcDbLine
 10
10.280509
 20
19.808093
 30
0.0
 11
10.280509
 21
4.358218
 31
0.0
  0
LINE
  5
402
100
AcDbEntity
  8
レイヤー_2
 62
     7
100
AcDbLine
 10
13.557484
 20
4.358218
 30
0.0
 11
13.557484
 21
19.808093
 31
0.0
  0
SPLINE
  5
401
100
AcDbEntity
  8
レイヤー_2
 62
     7
100
AcDbSpline
210
0.0
220
0.0
230
1.0
 70
     8
 71
     3
 72
     8
 73
     4
 74
     0
 42
0.00000001
 43
0.00000001
 40
0.0
 40
0.0
 40
0.0
 40
0.0
 40
1.0
 40
1.0
 40
1.0
 40
1.0
 10
12.878111436631944
 20
4.3582180447048611
 30
0.0
 10
12.862953016493055
 20
4.337030707465277
 30
0.0
 10
12.855373806423611
 20
4.3117092556423611
 30
0.0
 10
12.855373806423611
 20
4.2879380967881939
 30
0.0
  0
SPLINE
  5
400
100
AcDbEntity
  8
レイヤー_2
 62
     7
100
AcDbSpline
210
0.0
220
0.0
230
1.0
 70
     8
 71
     3
 72
     8
 73
     4
 74
     0
 42
0.00000001
 43
0.00000001
 40
0.0
 40
0.0
 40
0.0
 40
0.0
 40
1.0
 40
1.0
 40
1.0
 40
1.0
 10
10.981930881076387
 20
4.2879380967881939
 30
0.0
 10
10.981930881076387
 20
4.3144653320312498
 30
0.0
 10
10.973662651909722
 20
4.3382364908854161
 30
0.0
 10
10.959193250868054
 20
4.3582180447048611
 30
0.0
  0
LINE
  5
3FF
100
AcDbEntity
  8
レイヤー_2
 62
     7
100
AcDbLine
 10
12.855374
 20
1.816427
 30
0.0
 11
12.855374
 21
4.287938
 31
0.0
  0
LINE
  5
3FE
100
AcDbEntity
  8
レイヤー_2
 62
     7
100
AcDbLine
 10
10.981931
 20
4.287938
 30
0.0
 11
10.981931
 21
1.816427
 31
0.0
  0
LINE
  5
3FD
100
AcDbEntity
  8
レイヤー_2
 62
     7
100
AcDbLine
 10
-14.170711
 20
-15.702228
 30
0.0
 11
-14.170711
 21
-19.678902
 31
0.0
  0
LINE
  5
3FC
100
AcDbEntity
  8
レイヤー_2
 62
     7
100
AcDbLine
 10
-8.763289
 20
-19.678902
 30
0.0
 11
-8.763289
 21
-15.702228
 31
0.0
  0
LINE
  5
3FB
100
AcDbEntity
  8
レイヤー_2
 62
     7
100
AcDbLine
 10
-8.774314
 20
-15.632638
 30
0.0
 11
-8.774314
 21
-13.759195
 31
0.0
  0
LINE
  5
3FA
100
AcDbEntity
  8
レイヤー_2
 62
     7
100
AcDbLine
 10
-14.158998
 20
-13.759195
 30
0.0
 11
-14.158998
 21
-15.632638
 31
0.0
  0
LINE
  5
3F9
100
AcDbEntity
  8
レイヤー_2
 62
     7
100
AcDbLine
 10
-14.158998
 20
-3.367064
 30
0.0
 11
-14.158998
 21
-13.759195
 31
0.0
  0
LINE
  5
3F8
100
AcDbEntity
  8
レイヤー_2
 62
     7
100
AcDbLine
 10
-8.774314
 20
-13.759195
 30
0.0
 11
-8.774314
 21
-3.367064
 31
0.0
  0
LINE
  5
3F7
100
AcDbEntity
  8
レイヤー_2
 62
     7
100
AcDbLine
 10
10.280509
 20
19.808093
 30
0.0
 11
13.557484
 21
19.808093
 31
0.0
  0
LINE
  5
3F6
100
AcDbEntity
  8
レイヤー_2
 62
     7
100
AcDbLine
 10
10.280509
 20
4.358218
 30
0.0
 11
13.557484
 21
4.358218
 31
0.0
  0
POLYLINE
  5
3F0
100
AcDbEntity
  8
レイヤー_2
 62
     7
100
AcDb2dPolyline
 66
     1
 10
0.0
 20
0.0
 30
0.0
  0
VERTEX
  5
3F1
100
AcDbEntity
  8
レイヤー_2
 62
     7
100
AcDbVertex
100
AcDb2dVertex
 10
-8.991699
 20
-15.664332
 30
0.0
  0
VERTEX
  5
3F2
100
AcDbEntity
  8
レイヤー_2
 62
     7
100
AcDbVertex
100
AcDb2dVertex
 10
-8.84046
 20
-15.679491
 30
0.0
  0
VERTEX
  5
3F3
100
AcDbEntity
  8
レイヤー_2
 62
     7
100
AcDbVertex
100
AcDb2dVertex
 10
-8.768457
 20
-15.696027
 30
0.0
  0
VERTEX
  5
3F4
100
AcDbEntity
  8
レイヤー_2
 62
     7
100
AcDbVertex
100
AcDb2dVertex
 10
-8.763289
 20
-15.702228
 30
0.0
  0
SEQEND
  5
3F5
100
AcDbEntity
  8
レイヤー_2
 62
     7
  0
POLYLINE
  5
3DD
100
AcDbEntity
  8
レイヤー_2
 62
     7
100
AcDb2dPolyline
 66
     1
 10
0.0
 20
0.0
 30
0.0
  0
VERTEX
  5
3DE
100
AcDbEntity
  8
レイヤー_2
 62
     7
100
AcDbVertex
100
AcDb2dVertex
 10
-14.170711
 20
-15.702228
 30
0.0
  0
VERTEX
  5
3DF
100
AcDbEntity
  8
レイヤー_2
 62
     7
100
AcDbVertex
100
AcDb2dVertex
 10
-14.154519
 20
-15.691893
 30
0.0
  0
VERTEX
  5
3E0
100
AcDbEntity
  8
レイヤー_2
 62
     7
100
AcDbVertex
100
AcDb2dVertex
 10
-14.062535
 20
-15.676046
 30
0.0
  0
VERTEX
  5
3E1
100
AcDbEntity
  8
レイヤー_2
 62
     7
100
AcDbVertex
100
AcDb2dVertex
 10
-13.892003
 20
-15.660198
 30
0.0
  0
VERTEX
  5
3E2
100
AcDbEntity
  8
レイヤー_2
 62
     7
100
AcDbVertex
100
AcDb2dVertex
 10
-13.647401
 20
-15.646418
 30
0.0
  0
VERTEX
  5
3E3
100
AcDbEntity
  8
レイヤー_2
 62
     7
100
AcDbVertex
100
AcDb2dVertex
 10
-13.336998
 20
-15.633671
 30
0.0
  0
VERTEX
  5
3E4
100
AcDbEntity
  8
レイヤー_2
 62
     7
100
AcDbVertex
100
AcDb2dVertex
 10
-12.968717
 20
-15.623336
 30
0.0
  0
VERTEX
  5
3E5
100
AcDbEntity
  8
レイヤー_2
 62
     7
100
AcDbVertex
100
AcDb2dVertex
 10
-12.555306
 20
-15.615412
 30
0.0
  0
VERTEX
  5
3E6
100
AcDbEntity
  8
レイヤー_2
 62
     7
100
AcDbVertex
100
AcDb2dVertex
 10
-12.109166
 20
-15.610244
 30
0.0
  0
VERTEX
  5
3E7
100
AcDbEntity
  8
レイヤー_2
 62
     7
100
AcDbVertex
100
AcDb2dVertex
 10
-11.643389
 20
-15.608522
 30
0.0
  0
VERTEX
  5
3E8
100
AcDbEntity
  8
レイヤー_2
 62
     7
100
AcDbVertex
100
AcDb2dVertex
 10
-11.1721
 20
-15.608522
 30
0.0
  0
VERTEX
  5
3E9
100
AcDbEntity
  8
レイヤー_2
 62
     7
100
AcDbVertex
100
AcDb2dVertex
 10
-10.710113
 20
-15.611278
 30
0.0
  0
VERTEX
  5
3EA
100
AcDbEntity
  8
レイヤー_2
 62
     7
100
AcDbVertex
100
AcDb2dVertex
 10
-10.270863
 20
-15.617824
 30
0.0
  0
VERTEX
  5
3EB
100
AcDbEntity
  8
レイヤー_2
 62
     7
100
AcDbVertex
100
AcDb2dVertex
 10
-9.868132
 20
-15.625747
 30
0.0
  0
VERTEX
  5
3EC
100
AcDbEntity
  8
レイヤー_2
 62
     7
100
AcDbVertex
100
AcDb2dVertex
 10
-9.513287
 20
-15.636427
 30
0.0
  0
VERTEX
  5
3ED
100
AcDbEntity
  8
レイヤー_2
 62
     7
100
AcDbVertex
100
AcDb2dVertex
 10
-9.218731
 20
-15.649863
 30
0.0
  0
VERTEX
  5
3EE
100
AcDbEntity
  8
レイヤー_2
 62
     7
100
AcDbVertex
100
AcDb2dVertex
 10
-8.991699
 20
-15.664332
 30
0.0
  0
SEQEND
  5
3EF
100
AcDbEntity
  8
レイヤー_2
 62
     7
  0
POLYLINE
  5
3B6
100
AcDbEntity
  8
レイヤー_2
 62
     7
100
AcDb2dPolyline
 66
     1
 10
0.0
 20
0.0
 30
0.0
  0
VERTEX
  5
3B7
100
AcDbEntity
  8
レイヤー_2
 62
     7
100
AcDbVertex
100
AcDb2dVertex
 10
-8.991699
 20
-19.641006
 30
0.0
  0
VERTEX
  5
3B8
100
AcDbEntity
  8
レイヤー_2
 62
     7
100
AcDbVertex
100
AcDb2dVertex
 10
-8.84046
 20
-19.656854
 30
0.0
  0
VERTEX
  5
3B9
100
AcDbEntity
  8
レイヤー_2
 62
     7
100
AcDbVertex
100
AcDb2dVertex
 10
-8.768457
 20
-19.672701
 30
0.0
  0
VERTEX
  5
3BA
100
AcDbEntity
  8
レイヤー_2
 62
     7
100
AcDbVertex
100
AcDb2dVertex
 10
-8.779137
 20
-19.689237
 30
0.0
  0
VERTEX
  5
3BB
100
AcDbEntity
  8
レイヤー_2
 62
     7
100
AcDbVertex
100
AcDb2dVertex
 10
-8.871121
 20
-19.705085
 30
0.0
  0
VERTEX
  5
3BC
100
AcDbEntity
  8
レイヤー_2
 62
     7
100
AcDbVertex
100
AcDb2dVertex
 10
-9.041653
 20
-19.720932
 30
0.0
  0
VERTEX
  5
3BD
100
AcDbEntity
  8
レイヤー_2
 62
     7
100
AcDbVertex
100
AcDb2dVertex
 10
-9.286599
 20
-19.734713
 30
0.0
  0
VERTEX
  5
3BE
100
AcDbEntity
  8
レイヤー_2
 62
     7
100
AcDbVertex
100
AcDb2dVertex
 10
-9.597002
 20
-19.747115
 30
0.0
  0
VERTEX
  5
3BF
100
AcDbEntity
  8
レイヤー_2
 62
     7
100
AcDbVertex
100
AcDb2dVertex
 10
-9.964939
 20
-19.75745
 30
0.0
  0
VERTEX
  5
3C0
100
AcDbEntity
  8
レイヤー_2
 62
     7
100
AcDbVertex
100
AcDb2dVertex
 10
-10.378006
 20
-19.76503
 30
0.0
  0
VERTEX
  5
3C1
100
AcDbEntity
  8
レイヤー_2
 62
     7
100
AcDbVertex
100
AcDb2dVertex
 10
-10.82449
 20
-19.770542
 30
0.0
  0
VERTEX
  5
3C2
100
AcDbEntity
  8
レイヤー_2
 62
     7
100
AcDbVertex
100
AcDb2dVertex
 10
-11.290267
 20
-19.773298
 30
0.0
  0
VERTEX
  5
3C3
100
AcDbEntity
  8
レイヤー_2
 62
     7
100
AcDbVertex
100
AcDb2dVertex
 10
-11.761211
 20
-19.772609
 30
0.0
  0
VERTEX
  5
3C4
100
AcDbEntity
  8
レイヤー_2
 62
     7
100
AcDbVertex
100
AcDb2dVertex
 10
-12.223543
 20
-19.769853
 30
0.0
  0
VERTEX
  5
3C5
100
AcDbEntity
  8
レイヤー_2
 62
     7
100
AcDbVertex
100
AcDb2dVertex
 10
-12.662793
 20
-19.763652
 30
0.0
  0
VERTEX
  5
3C6
100
AcDbEntity
  8
レイヤー_2
 62
     7
100
AcDbVertex
100
AcDb2dVertex
 10
-13.065525
 20
-19.754694
 30
0.0
  0
VERTEX
  5
3C7
100
AcDbEntity
  8
レイヤー_2
 62
     7
100
AcDbVertex
100
AcDb2dVertex
 10
-13.41968
 20
-19.744359
 30
0.0
  0
VERTEX
  5
3C8
100
AcDbEntity
  8
レイヤー_2
 62
     7
100
AcDbVertex
100
AcDb2dVertex
 10
-13.714925
 20
-19.731268
 30
0.0
  0
VERTEX
  5
3C9
100
AcDbEntity
  8
レイヤー_2
 62
     7
100
AcDbVertex
100
AcDb2dVertex
 10
-13.941268
 20
-19.717487
 30
0.0
  0
VERTEX
  5
3CA
100
AcDbEntity
  8
レイヤー_2
 62
     7
100
AcDbVertex
100
AcDb2dVertex
 10
-14.092852
 20
-19.700951
 30
0.0
  0
VERTEX
  5
3CB
100
AcDbEntity
  8
レイヤー_2
 62
     7
100
AcDbVertex
100
AcDb2dVertex
 10
-14.165199
 20
-19.685103
 30
0.0
  0
VERTEX
  5
3CC
100
AcDbEntity
  8
レイヤー_2
 62
     7
100
AcDbVertex
100
AcDb2dVertex
 10
-14.154519
 20
-19.668567
 30
0.0
  0
VERTEX
  5
3CD
100
AcDbEntity
  8
レイヤー_2
 62
     7
100
AcDbVertex
100
AcDb2dVertex
 10
-14.062535
 20
-19.652719
 30
0.0
  0
VERTEX
  5
3CE
100
AcDbEntity
  8
レイヤー_2
 62
     7
100
AcDbVertex
100
AcDb2dVertex
 10
-13.892003
 20
-19.636872
 30
0.0
  0
VERTEX
  5
3CF
100
AcDbEntity
  8
レイヤー_2
 62
     7
100
AcDbVertex
100
AcDb2dVertex
 10
-13.647401
 20
-19.623092
 30
0.0
  0
VERTEX
  5
3D0
100
AcDbEntity
  8
レイヤー_2
 62
     7
100
AcDbVertex
100
AcDb2dVertex
 10
-13.336998
 20
-19.610689
 30
0.0
  0
VERTEX
  5
3D1
100
AcDbEntity
  8
レイヤー_2
 62
     7
100
AcDbVertex
100
AcDb2dVertex
 10
-12.968717
 20
-19.600354
 30
0.0
  0
VERTEX
  5
3D2
100
AcDbEntity
  8
レイヤー_2
 62
     7
100
AcDbVertex
100
AcDb2dVertex
 10
-12.555306
 20
-19.592086
 30
0.0
  0
VERTEX
  5
3D3
100
AcDbEntity
  8
レイヤー_2
 62
     7
100
AcDbVertex
100
AcDb2dVertex
 10
-12.109166
 20
-19.587263
 30
0.0
  0
VERTEX
  5
3D4
100
AcDbEntity
  8
レイヤー_2
 62
     7
100
AcDbVertex
100
AcDb2dVertex
 10
-11.643389
 20
-19.584507
 30
0.0
  0
VERTEX
  5
3D5
100
AcDbEntity
  8
レイヤー_2
 62
     7
100
AcDbVertex
100
AcDb2dVertex
 10
-11.1721
 20
-19.585885
 30
0.0
  0
VERTEX
  5
3D6
100
AcDbEntity
  8
レイヤー_2
 62
     7
100
AcDbVertex
100
AcDb2dVertex
 10
-10.710113
 20
-19.587952
 30
0.0
  0
VERTEX
  5
3D7
100
AcDbEntity
  8
レイヤー_2
 62
     7
100
AcDbVertex
100
AcDb2dVertex
 10
-10.270863
 20
-19.594842
 30
0.0
  0
VERTEX
  5
3D8
100
AcDbEntity
  8
レイヤー_2
 62
     7
100
AcDbVertex
100
AcDb2dVertex
 10
-9.868132
 20
-19.60311
 30
0.0
  0
VERTEX
  5
3D9
100
AcDbEntity
  8
レイヤー_2
 62
     7
100
AcDbVertex
100
AcDb2dVertex
 10
-9.513287
 20
-19.613445
 30
0.0
  0
VERTEX
  5
3DA
100
AcDbEntity
  8
レイヤー_2
 62
     7
100
AcDbVertex
100
AcDb2dVertex
 10
-9.218731
 20
-19.626537
 30
0.0
  0
VERTEX
  5
3DB
100
AcDbEntity
  8
レイヤー_2
 62
     7
100
AcDbVertex
100
AcDb2dVertex
 10
-8.991699
 20
-19.641006
 30
0.0
  0
SEQEND
  5
3DC
100
AcDbEntity
  8
レイヤー_2
 62
     7
  0
POLYLINE
  5
39F
100
AcDbEntity
  8
レイヤー_2
 62
     7
100
AcDb2dPolyline
 66
     1
 10
0.0
 20
0.0
 30
0.0
  0
VERTEX
  5
3A0
100
AcDbEntity
  8
レイヤー_2
 62
     7
100
AcDbVertex
100
AcDb2dVertex
 10
-8.774314
 20
-15.632638
 30
0.0
  0
VERTEX
  5
3A1
100
AcDbEntity
  8
レイヤー_2
 62
     7
100
AcDbVertex
100
AcDb2dVertex
 10
-8.818411
 20
-15.615412
 30
0.0
  0
VERTEX
  5
3A2
100
AcDbEntity
  8
レイヤー_2
 62
     7
100
AcDbVertex
100
AcDb2dVertex
 10
-8.946913
 20
-15.598876
 30
0.0
  0
VERTEX
  5
3A3
100
AcDbEntity
  8
レイヤー_2
 62
     7
100
AcDbVertex
100
AcDb2dVertex
 10
-9.155341
 20
-15.583028
 30
0.0
  0
VERTEX
  5
3A4
100
AcDbEntity
  8
レイヤー_2
 62
     7
100
AcDbVertex
100
AcDb2dVertex
 10
-9.439562
 20
-15.570626
 30
0.0
  0
VERTEX
  5
3A5
100
AcDbEntity
  8
レイヤー_2
 62
     7
100
AcDbVertex
100
AcDb2dVertex
 10
-9.788205
 20
-15.558223
 30
0.0
  0
VERTEX
  5
3A6
100
AcDbEntity
  8
レイヤー_2
 62
     7
100
AcDbVertex
100
AcDb2dVertex
 10
-10.191281
 20
-15.549266
 30
0.0
  0
VERTEX
  5
3A7
100
AcDbEntity
  8
レイヤー_2
 62
     7
100
AcDbVertex
100
AcDb2dVertex
 10
-10.635354
 20
-15.542721
 30
0.0
  0
VERTEX
  5
3A8
100
AcDbEntity
  8
レイヤー_2
 62
     7
100
AcDbVertex
100
AcDb2dVertex
 10
-11.10561
 20
-15.539275
 30
0.0
  0
VERTEX
  5
3A9
100
AcDbEntity
  8
レイヤー_2
 62
     7
100
AcDbVertex
100
AcDb2dVertex
 10
-11.587234
 20
-15.538242
 30
0.0
  0
VERTEX
  5
3AA
100
AcDbEntity
  8
レイヤー_2
 62
     7
100
AcDbVertex
100
AcDb2dVertex
 10
-12.065413
 20
-15.540653
 30
0.0
  0
VERTEX
  5
3AB
100
AcDbEntity
  8
レイヤー_2
 62
     7
100
AcDbVertex
100
AcDb2dVertex
 10
-12.524645
 20
-15.545132
 30
0.0
  0
VERTEX
  5
3AC
100
AcDbEntity
  8
レイヤー_2
 62
     7
100
AcDbVertex
100
AcDb2dVertex
 10
-12.949769
 20
-15.5534
 30
0.0
  0
VERTEX
  5
3AD
100
AcDbEntity
  8
レイヤー_2
 62
     7
100
AcDbVertex
100
AcDb2dVertex
 10
-13.327352
 20
-15.563736
 30
0.0
  0
VERTEX
  5
3AE
100
AcDbEntity
  8
レイヤー_2
 62
     7
100
AcDbVertex
100
AcDb2dVertex
 10
-13.644645
 20
-15.576827
 30
0.0
  0
VERTEX
  5
3AF
100
AcDbEntity
  8
レイヤー_2
 62
     7
100
AcDbVertex
100
AcDb2dVertex
 10
-13.892348
 20
-15.591296
 30
0.0
  0
VERTEX
  5
3B0
100
AcDbEntity
  8
レイヤー_2
 62
     7
100
AcDbVertex
100
AcDb2dVertex
 10
-14.061846
 20
-15.607144
 30
0.0
  0
VERTEX
  5
3B1
100
AcDbEntity
  8
レイヤー_2
 62
     7
100
AcDbVertex
100
AcDb2dVertex
 10
-14.147974
 20
-15.623336
 30
0.0
  0
VERTEX
  5
3B2
100
AcDbEntity
  8
レイヤー_2
 62
     7
100
AcDbVertex
100
AcDb2dVertex
 10
-14.147974
 20
-15.640561
 30
0.0
  0
VERTEX
  5
3B3
100
AcDbEntity
  8
レイヤー_2
 62
     7
100
AcDbVertex
100
AcDb2dVertex
 10
-14.061846
 20
-15.656753
 30
0.0
  0
VERTEX
  5
3B4
100
AcDbEntity
  8
レイヤー_2
 62
     7
100
AcDbVertex
100
AcDb2dVertex
 10
-13.970551
 20
-15.666399
 30
0.0
  0
SEQEND
  5
3B5
100
AcDbEntity
  8
レイヤー_2
 62
     7
  0
SPLINE
  5
39E
100
AcDbEntity
  8
レイヤー_2
 62
     7
100
AcDbSpline
210
0.0
220
0.0
230
1.0
 70
     8
 71
     3
 72
     8
 73
     4
 74
     0
 42
0.00000001
 43
0.00000001
 40
0.0
 40
0.0
 40
0.0
 40
0.0
 40
1.0
 40
1.0
 40
1.0
 40
1.0
 10
-8.9631049262152764
 20
-15.666399468315971
 30
0.0
 10
-8.8955810546874989
 20
-15.671567111545137
 30
0.0
 10
-8.8304687499999996
 20
-15.659164767795138
 30
0.0
 10
-8.7743136935763886
 20
-15.632637532552081
 30
0.0
  0
SPLINE
  5
39D
100
AcDbEntity
  8
レイヤー_2
 62
     7
100
AcDbSpline
210
0.0
220
0.0
230
1.0
 70
     8
 71
     3
 72
    11
 73
     7
 74
     0
 42
0.00000001
 43
0.00000001
 40
0.0
 40
0.0
 40
0.0
 40
0.0
 40
1.0
 40
1.0
 40
1.0
 40
2.0
 40
2.0
 40
2.0
 40
2.0
 10
-8.7743136935763886
 20
-3.367064073350694
 30
0.0
 10
-8.7743136935763886
 20
-1.8798163519965276
 30
0.0
 10
-9.9800971137152761
 20
-0.6750664605034722
 30
0.0
 10
-11.466655815972221
 20
-0.6750664605034722
 30
0.0
 10
-12.953903537326388
 20
-0.6750664605034722
 30
0.0
 10
-14.158997938368055
 20
-1.8798163519965276
 30
0.0
 10
-14.158997938368055
 20
-3.367064073350694
 30
0.0
  0
LINE
  5
39C
100
AcDbEntity
  8
レイヤー_2
 62
     7
100
AcDbLine
 10
23.225456
 20
-12.496223
 30
0.0
 11
-8.774314
 21
-12.496223
 31
0.0
  0
LINE
  5
39B
100
AcDbEntity
  8
レイヤー_2
 62
     7
100
AcDbLine
 10
-14.158998
 20
-12.496223
 30
0.0
 11
-22.632555
 21
-12.496223
 31
0.0
  0
SPLINE
  5
39A
100
AcDbEntity
  8
レイヤー_2
 62
     7
100
AcDbSpline
210
0.0
220
0.0
230
1.0
 70
     8
 71
     3
 72
     8
 73
     4
 74
     0
 42
0.00000001
 43
0.00000001
 40
0.0
 40
0.0
 40
0.0
 40
0.0
 40
1.0
 40
1.0
 40
1.0
 40
1.0
 10
-22.632554796006943
 20
5.7620944552951388
 30
0.0
 10
-22.735907660590275
 20
5.7620944552951388
 30
0.0
 10
-22.820312499999996
 20
5.6790676540798604
 30
0.0
 10
-22.820312499999996
 20
5.5757147894965273
 30
0.0
  0
SPLINE
  5
399
100
AcDbEntity
  8
レイヤー_2
 62
     7
100
AcDbSpline
210
0.0
220
0.0
230
1.0
 70
     8
 71
     3
 72
     8
 73
     4
 74
     0
 42
0.00000001
 43
0.00000001
 40
0.0
 40
0.0
 40
0.0
 40
0.0
 40
1.0
 40
1.0
 40
1.0
 40
1.0
 10
23.412524414062499
 20
5.5757147894965273
 30
0.0
 10
23.412524414062499
 20
5.6790676540798604
 30
0.0
 10
23.328808593749997
 20
5.7620944552951388
 30
0.0
 10
23.225455729166665
 20
5.7620944552951388
 30
0.0
  0
LINE
  5
398
100
AcDbEntity
  8
レイヤー_2
 62
     7
100
AcDbLine
 10
-22.820312
 20
-12.308809
 30
0.0
 11
-22.820312
 21
5.575715
 31
0.0
  0
LINE
  5
397
100
AcDbEntity
  8
レイヤー_2
 62
     7
100
AcDbLine
 10
23.412524
 20
5.575715
 30
0.0
 11
23.412524
 21
-12.308809
 31
0.0
  0
LINE
  5
396
100
AcDbEntity
  8
レイヤー_2
 62
     7
100
AcDbLine
 10
-22.632555
 20
5.762094
 30
0.0
 11
10.280509
 21
5.762094
 31
0.0
  0
LINE
  5
395
100
AcDbEntity
  8
レイヤー_2
 62
     7
100
AcDbLine
 10
13.557484
 20
5.762094
 30
0.0
 11
23.225456
 21
5.762094
 31
0.0
  0
SPLINE
  5
394
100
AcDbEntity
  8
レイヤー_2
 62
     7
100
AcDbSpline
210
0.0
220
0.0
230
1.0
 70
     8
 71
     3
 72
     8
 73
     4
 74
     0
 42
0.00000001
 43
0.00000001
 40
0.0
 40
0.0
 40
0.0
 40
0.0
 40
1.0
 40
1.0
 40
1.0
 40
1.0
 10
23.225455729166665
 20
-12.496222601996527
 30
0.0
 10
23.328808593749997
 20
-12.496222601996527
 30
0.0
 10
23.412524414062499
 20
-12.412162272135415
 30
0.0
 10
23.412524414062499
 20
-12.308809407552083
 30
0.0
  0
SPLINE
  5
393
100
AcDbEntity
  8
レイヤー_2
 62
     7
100
AcDbSpline
210
0.0
220
0.0
230
1.0
 70
     8
 71
     3
 72
     8
 73
     4
 74
     0
 42
0.00000001
 43
0.00000001
 40
0.0
 40
0.0
 40
0.0
 40
0.0
 40
1.0
 40
1.0
 40
1.0
 40
1.0
 10
-22.820312499999996
 20
-12.308809407552083
 30
0.0
 10
-22.820312499999996
 20
-12.412162272135415
 30
0.0
 10
-22.735907660590275
 20
-12.496222601996527
 30
0.0
 10
-22.632554796006943
 20
-12.496222601996527
 30
0.0
  0
SPLINE
  5
392
100
AcDbEntity
  8
レイヤー_2
 62
     7
100
AcDbSpline
210
0.0
220
0.0
230
1.0
 70
     8
 71
     3
 72
    17
 73
    13
 74
     0
 42
0.00000001
 43
0.00000001
 40
0.0
 40
0.0
 40
0.0
 40
0.0
 40
1.0
 40
1.0
 40
1.0
 40
2.0
 40
2.0
 40
2.0
 40
3.0
 40
3.0
 40
3.0
 40
4.0
 40
4.0
 40
4.0
 40
4.0
 10
17.185514322916664
 20
-3.367064073350694
 30
0.0
 10
17.185514322916664
 20
-0.4580254448784722
 30
0.0
 10
14.827690972222221
 20
1.9001424153645832
 30
0.0
 10
11.91899685329861
 20
1.9001424153645832
 30
0.0
 10
9.0099582248263879
 20
1.9001424153645832
 30
0.0
 10
6.6517903645833325
 20
-0.4580254448784722
 30
0.0
 10
6.6517903645833325
 20
-3.367064073350694
 30
0.0
 10
6.6517903645833325
 20
-6.2759304470486104
 30
0.0
 10
9.0099582248263879
 20
-8.6340983072916657
 30
0.0
 10
11.91899685329861
 20
-8.6340983072916657
 30
0.0
 10
14.827690972222221
 20
-8.6340983072916657
 30
0.0
 10
17.185514322916664
 20
-6.2759304470486104
 30
0.0
 10
17.185514322916664
 20
-3.367064073350694
 30
0.0
  0
LINE
  5
391
100
AcDbEntity
  8
レイヤー_2
  6
AI9-LType4
 62
     7
100
AcDbLine
 10
11.918997
 20
21.237463
 30
0.0
 11
11.918997
 21
-8.957421
 31
0.0
  0
LINE
  5
390
100
AcDbEntity
  8
レイヤー_2
 62
     7
100
AcDbLine
 10
11.918997
 20
-8.957421
 30
0.0
 11
11.918997
 21
-9.893281
 31
0.0
  0
LINE
  5
38F
100
AcDbEntity
  8
レイヤー_2
  6
AI9-LType4
 62
     7
100
AcDbLine
 10
-11.412568
 20
1.168576
 30
0.0
 11
-11.412568
 21
-20.301086
 31
0.0
  0
LINE
  5
38E
100
AcDbEntity
  8
レイヤー_2
 62
     7
100
AcDbLine
 10
-11.412568
 20
-20.301086
 30
0.0
 11
-11.412568
 21
-21.237463
 31
0.0
  0
LINE
  5
38D
100
AcDbEntity
  8
レイヤー_2
  6
AI9-LType4
 62
     7
100
AcDbLine
 10
-24.909074
 20
-3.367064
 30
0.0
 11
23.973041
 21
-3.367064
 31
0.0
  0
LINE
  5
38C
100
AcDbEntity
  8
レイヤー_2
 62
     7
100
AcDbLine
 10
23.973041
 20
-3.367064
 30
0.0
 11
24.909074
 21
-3.367064
 31
0.0
  0
ENDBLK
  5
404
100
AcDbEntity
  8
レイヤー_2
100
AcDbBlockEnd
  0
ENDSEC
  0
SECTION
  2
ENTITIES
  0
MTEXT
  5
41F
100
AcDbEntity
  8
レイヤー_1
 62
     7
100
AcDbMText
 10
47.801389
 20
54.121991
 30
0.0
 40
3.674768
 41
0.0
 71
     1
 72
     2
  1
\fOsaka|b0|i0|c128;\H3.6748;\C7;\U+0033\U+0036\U+002E\U+0038\U+0032\U+0032\U+002E\U+0038\U+0038\U+0035\U+002E\U+0058\U+0058\U+0020\U+002B\U+0020\U+0033\U+0035\U+002E\U+0038\U+0030\U+0036\U+002E\U+0039\U+0037\U+0030\U+002E\U+0039\U+0030
  7
STD
210
0.0
220
0.0
230
1.0
 73
     1
 44
1.0
  0
MTEXT
  5
41E
100
AcDbEntity
  8
レイヤー_1
 62
     7
100
AcDbMText
 10
39.6875
 20
56.608234
 30
0.0
 40
1.574901
 41
0.0
 71
     1
 72
     2
  1
\fOsaka|b0|i0|c128;\H1.5749;\C7;\U+54C1\U+756A
  7
STD
210
0.0
220
0.0
230
1.0
 73
     1
 44
1.0
  0
MTEXT
  5
41D
100
AcDbEntity
  8
レイヤー_1
 62
     7
100
AcDbMText
 10
47.801389
 20
32.959209
 30
0.0
 40
3.149486
 41
0.0
 71
     1
 72
     2
  1
\fOsaka|b0|i0|c128;\H3.1495;\C7;\U+58C1\U+57CB\U+8FBC\U+578B\U+30B7\U+30F3\U+30B0\U+30EB\U+30EC\U+30D0\U+30FC\U+6D17\U+9762\U+7528\U+6DF7\U+5408\U+6813
  7
STD
210
0.0
220
0.0
230
1.0
 73
     1
 44
1.0
  0
MTEXT
  5
41C
100
AcDbEntity
  8
レイヤー_1
 62
     7
100
AcDbMText
 10
39.6875
 20
35.441567
 30
0.0
 40
1.574901
 41
0.0
 71
     1
 72
     2
  1
\fOsaka|b0|i0|c128;\H1.5749;\C7;\U+54C1
  7
STD
210
0.0
220
0.0
230
1.0
 73
     1
 44
1.0
  0
MTEXT
  5
41B
100
AcDbEntity
  8
レイヤー_1
 62
     7
100
AcDbMText
 10
47.801389
 20
42.954809
 30
0.0
 40
3.149486
 41
0.0
 71
     1
 72
     2
  1
\fOsaka|b0|i0|c128;\H3.1495;\C7;\U+0054\U+0041\U+0052\U+0041\U+002E\U+004C\U+004F\U+0047\U+0049\U+0043
  7
STD
210
0.0
220
0.0
230
1.0
 73
     1
 44
1.0
  0
POLYLINE
  5
415
100
AcDbEntity
  8
レイヤー_1
 62
     7
100
AcDb2dPolyline
 66
     1
 10
0.0
 20
0.0
 30
0.0
 70
     1
  0
VERTEX
  5
416
100
AcDbEntity
  8
レイヤー_1
 62
     7
100
AcDbVertex
100
AcDb2dVertex
 10
23.636111
 20
26.105556
 30
0.0
  0
VERTEX
  5
417
100
AcDbEntity
  8
レイヤー_1
 62
     7
100
AcDbVertex
100
AcDb2dVertex
 10
198.613889
 20
26.105556
 30
0.0
  0
VERTEX
  5
418
100
AcDbEntity
  8
レイヤー_1
 62
     7
100
AcDbVertex
100
AcDb2dVertex
 10
198.613889
 20
276.577778
 30
0.0
  0
VERTEX
  5
419
100
AcDbEntity
  8
レイヤー_1
 62
     7
100
AcDbVertex
100
AcDb2dVertex
 10
23.636111
 20
276.577778
 30
0.0
  0
SEQEND
  5
41A
100
AcDbEntity
  8
レイヤー_1
 62
     7
  0
LINE
  5
414
100
AcDbEntity
  8
レイヤー_1
 62
     7
100
AcDbLine
 10
170.568056
 20
36.5125
 30
0.0
 11
27.693056
 21
36.5125
 31
0.0
  0
LINE
  5
413
100
AcDbEntity
  8
レイヤー_1
 62
     7
100
AcDbLine
 10
170.568056
 20
47.095833
 30
0.0
 11
27.693056
 21
47.095833
 31
0.0
  0
LINE
  5
412
100
AcDbEntity
  8
レイヤー_1
 62
     7
100
AcDbLine
 10
23.636111
 20
57.855556
 30
0.0
 11
198.261111
 21
57.855556
 31
0.0
  0
LINE
  5
411
100
AcDbEntity
  8
レイヤー_1
 62
     7
100
AcDbLine
 10
170.744444
 20
57.855556
 30
0.0
 11
170.744444
 21
26.458333
 31
0.0
  0
MTEXT
  5
410
100
AcDbEntity
  8
レイヤー_1
 62
     7
100
AcDbMText
 10
33.3375
 20
46.024901
 30
0.0
 40
1.574901
 41
0.0
 71
     1
 72
     2
  1
\fOsaka|b0|i0|c128;\H1.5749;\C7;\U+30B7\U+30EA\U+30FC\U+30BA
  7
STD
210
0.0
220
0.0
230
1.0
 73
     1
 44
1.0
  0
MTEXT
  5
40F
100
AcDbEntity
  8
レイヤー_1
 62
     7
100
AcDbMText
 10
174.095833
 20
54.655042
 30
0.0
 40
3.149486
 41
0.0
 71
     1
 72
     2
  1
\fHeiseiKakuGothicCAN W9|b0|i0|c128;\H3.1495;\C253;\U+5BF8\U+6CD5\U+53C2\U+8003\U+56F3
  7
STD
210
0.0
220
0.0
230
1.0
 73
     1
 44
1.0
  0
LINE
  5
40E
100
AcDbEntity
  8
レイヤー_1
 62
     7
100
AcDbLine
 10
27.516667
 20
57.855556
 30
0.0
 11
27.516667
 21
26.458333
 31
0.0
  0
IMAGE
  5
40B
100
AcDbEntity
  8
レイヤー_1
 62
     7
 92
        0
100
AcDbRasterImage
 90
        0
 10
172.155556
 20
28.574682
 30
0.0
 11
0.352531
 21
0.0
 31
0.0
 12
0.0
 22
0.352813
 32
0.0
 13
70.0
 23
9.0
340
40D
 70
     7
280
     0
281
    50
282
    50
283
     0
360
40C
 71
     1
 91
        2
 14
-0.5
 24
-0.5
 14
69.5
 24
8.5
  0
IMAGE
  5
408
100
AcDbEntity
  8
レイヤー_1
 62
     7
 92
        0
100
AcDbRasterImage
 90
        0
 10
172.155556
 20
28.574682
 30
0.0
 11
0.352531
 21
0.0
 31
0.0
 12
0.0
 22
0.352813
 32
0.0
 13
70.0
 23
9.0
340
40A
 70
     7
280
     0
281
    50
282
    50
283
     0
360
409
 71
     1
 91
        2
 14
-0.5
 24
-0.5
 14
69.5
 24
8.5
  0
MTEXT
  5
407
100
AcDbEntity
  8
レイヤー_1
 62
     7
100
AcDbMText
 10
113.418056
 20
46.024901
 30
0.0
 40
1.574901
 41
0.0
 71
     1
 72
     2
  1
\fOsaka|b0|i0|c128;\H1.5749;\C7;\U+4ED5\U+4E0A
  7
STD
210
0.0
220
0.0
230
1.0
 73
     1
 44
1.0
  0
MTEXT
  5
406
100
AcDbEntity
  8
レイヤー_1
 62
     7
100
AcDbMText
 10
124.765511
 20
40.968164
 30
0.0
 40
1.162842
 41
0.0
 71
     1
 72
     2
  1
\fOsaka|b0|i0|c128;\H1.1628;\W2.71;\C7;
  7
STD
210
0.0
220
0.0
230
1.0
 73
     1
 44
1.0
  0
INSERT
  5
38A
100
AcDbEntity
  8
レイヤー_2
 62
     7
100
AcDbBlockReference
  2
AI9-BLK61
 10
162.739421
 20
166.521963
 30
0.0
  0
INSERT
  5
35A
100
AcDbEntity
  8
レイヤー_2
 62
     7
100
AcDbBlockReference
  2
AI9-BLK60
 10
87.977231
 20
165.825365
 30
0.0
  0
LINE
  5
358
100
AcDbEntity
  8
レイヤー_2
 62
     7
100
AcDbLine
 10
61.536812
 20
163.064465
 30
0.0
 11
61.536812
 21
172.596528
 31
0.0
  0
LINE
  5
357
100
AcDbEntity
  8
レイヤー_2
 62
     7
100
AcDbLine
 10
45.867485
 20
162.018534
 30
0.0
 11
45.954645
 21
162.061943
 31
0.0
  0
LINE
  5
356
100
AcDbEntity
  8
レイヤー_2
 62
     7
100
AcDbLine
 10
45.954645
 20
164.109707
 30
0.0
 11
45.867485
 21
164.153116
 31
0.0
  0
LINE
  5
355
100
AcDbEntity
  8
レイヤー_2
 62
     7
100
AcDbLine
 10
45.867485
 20
158.969625
 30
0.0
 11
45.954645
 21
159.056441
 31
0.0
  0
LINE
  5
354
100
AcDbEntity
  8
レイヤー_2
 62
     7
100
AcDbLine
 10
45.954645
 20
161.060109
 30
0.0
 11
45.867485
 21
161.147614
 31
0.0
  0
LINE
  5
353
100
AcDbEntity
  8
レイヤー_2
 62
     7
100
AcDbLine
 10
45.867485
 20
165.024725
 30
0.0
 11
45.954645
 21
165.111541
 31
0.0
  0
LINE
  5
352
100
AcDbEntity
  8
レイヤー_2
 62
     7
100
AcDbLine
 10
45.954645
 20
167.115209
 30
0.0
 11
45.867485
 21
167.159306
 31
0.0
  0
LINE
  5
351
100
AcDbEntity
  8
レイヤー_2
 62
     7
100
AcDbLine
 10
46.476922
 20
158.490068
 30
0.0
 11
47.174554
 21
158.490068
 31
0.0
  0
LINE
  5
350
100
AcDbEntity
  8
レイヤー_2
 62
     7
100
AcDbLine
 10
46.476922
 20
161.496258
 30
0.0
 11
47.174554
 21
161.496258
 31
0.0
  0
LINE
  5
34F
100
AcDbEntity
  8
レイヤー_2
 62
     7
100
AcDbLine
 10
47.174554
 20
164.676081
 30
0.0
 11
46.476922
 21
164.676081
 31
0.0
  0
LINE
  5
34E
100
AcDbEntity
  8
レイヤー_2
 62
     7
100
AcDbLine
 10
47.174554
 20
167.681582
 30
0.0
 11
46.476922
 21
167.681582
 31
0.0
  0
LINE
  5
34D
100
AcDbEntity
  8
レイヤー_2
 62
     7
100
AcDbLine
 10
46.172375
 20
168.596427
 30
0.0
 11
45.126444
 21
169.642014
 31
0.0
  0
LINE
  5
34C
100
AcDbEntity
  8
レイヤー_2
 62
     7
100
AcDbLine
 10
46.476922
 20
158.228929
 30
0.0
 11
46.476922
 21
167.899312
 31
0.0
  0
LINE
  5
34B
100
AcDbEntity
  8
レイヤー_2
 62
     7
100
AcDbLine
 10
45.126444
 20
156.529808
 30
0.0
 11
46.172375
 21
157.57505
 31
0.0
  0
LINE
  5
34A
100
AcDbEntity
  8
レイヤー_2
 62
     7
100
AcDbLine
 10
44.995875
 20
149.777766
 30
0.0
 11
44.995875
 21
156.181165
 31
0.0
  0
LINE
  5
349
100
AcDbEntity
  8
レイヤー_2
 62
     7
100
AcDbLine
 10
44.517007
 20
156.181165
 30
0.0
 11
44.517007
 21
149.777766
 31
0.0
  0
LINE
  5
348
100
AcDbEntity
  8
レイヤー_2
 62
     7
100
AcDbLine
 10
45.823387
 20
157.923694
 30
0.0
 11
44.821554
 21
156.878107
 31
0.0
  0
LINE
  5
347
100
AcDbEntity
  8
レイヤー_2
 62
     7
100
AcDbLine
 10
45.954645
 20
167.899312
 30
0.0
 11
45.954645
 21
158.228929
 31
0.0
  0
LINE
  5
346
100
AcDbEntity
  8
レイヤー_2
 62
     7
100
AcDbLine
 10
44.821554
 20
169.293715
 30
0.0
 11
45.823387
 21
168.248301
 31
0.0
  0
LINE
  5
345
100
AcDbEntity
  8
レイヤー_2
 62
     7
100
AcDbLine
 10
44.517007
 20
176.394229
 30
0.0
 11
44.517007
 21
169.990485
 31
0.0
  0
LINE
  5
344
100
AcDbEntity
  8
レイヤー_2
 62
     7
100
AcDbLine
 10
44.995875
 20
169.990485
 30
0.0
 11
44.995875
 21
176.394229
 31
0.0
  0
LINE
  5
343
100
AcDbEntity
  8
レイヤー_2
 62
     7
100
AcDbLine
 10
44.995875
 20
149.777766
 30
0.0
 11
44.995875
 21
148.557857
 31
0.0
  0
LINE
  5
342
100
AcDbEntity
  8
レイヤー_2
 62
     7
100
AcDbLine
 10
44.995875
 20
148.557857
 30
0.0
 11
44.517007
 21
148.557857
 31
0.0
  0
LINE
  5
341
100
AcDbEntity
  8
レイヤー_2
 62
     7
100
AcDbLine
 10
44.517007
 20
148.557857
 30
0.0
 11
44.517007
 21
149.777766
 31
0.0
  0
LINE
  5
340
100
AcDbEntity
  8
レイヤー_2
 62
     7
100
AcDbLine
 10
44.517007
 20
177.613965
 30
0.0
 11
44.995875
 21
177.613965
 31
0.0
  0
LINE
  5
33F
100
AcDbEntity
  8
レイヤー_2
 62
     7
100
AcDbLine
 10
44.995875
 20
177.613965
 30
0.0
 11
44.995875
 21
176.394229
 31
0.0
  0
LINE
  5
33E
100
AcDbEntity
  8
レイヤー_2
 62
     7
100
AcDbLine
 10
44.517007
 20
176.394229
 30
0.0
 11
44.517007
 21
177.613965
 31
0.0
  0
LINE
  5
33D
100
AcDbEntity
  8
レイヤー_2
 62
     7
100
AcDbLine
 10
45.126444
 20
163.064465
 30
0.0
 11
45.867485
 21
163.064465
 31
0.0
  0
LINE
  5
33C
100
AcDbEntity
  8
レイヤー_2
 62
     7
100
AcDbLine
 10
45.867485
 20
161.931718
 30
0.0
 11
45.867485
 21
163.064465
 31
0.0
  0
LINE
  5
33B
100
AcDbEntity
  8
レイヤー_2
 62
     7
100
AcDbLine
 10
45.126444
 20
161.931718
 30
0.0
 11
45.867485
 21
161.931718
 31
0.0
  0
LINE
  5
33A
100
AcDbEntity
  8
レイヤー_2
 62
     7
100
AcDbLine
 10
45.126444
 20
161.931718
 30
0.0
 11
44.995875
 21
162.498092
 31
0.0
  0
LINE
  5
339
100
AcDbEntity
  8
レイヤー_2
 62
     7
100
AcDbLine
 10
44.995875
 20
162.498092
 30
0.0
 11
44.995875
 21
163.673903
 31
0.0
  0
LINE
  5
338
100
AcDbEntity
  8
レイヤー_2
 62
     7
100
AcDbLine
 10
45.126444
 20
164.240276
 30
0.0
 11
45.867485
 21
164.240276
 31
0.0
  0
LINE
  5
337
100
AcDbEntity
  8
レイヤー_2
 62
     7
100
AcDbLine
 10
45.867485
 20
163.064465
 30
0.0
 11
45.867485
 21
164.240276
 31
0.0
  0
LINE
  5
336
100
AcDbEntity
  8
レイヤー_2
 62
     7
100
AcDbLine
 10
45.126444
 20
161.931718
 30
0.0
 11
44.995875
 21
161.931718
 31
0.0
  0
LINE
  5
335
100
AcDbEntity
  8
レイヤー_2
 62
     7
100
AcDbLine
 10
44.995875
 20
161.931718
 30
0.0
 11
44.995875
 21
162.498092
 31
0.0
  0
LINE
  5
334
100
AcDbEntity
  8
レイヤー_2
 62
     7
100
AcDbLine
 10
44.995875
 20
164.240276
 30
0.0
 11
45.126444
 21
164.240276
 31
0.0
  0
LINE
  5
333
100
AcDbEntity
  8
レイヤー_2
 62
     7
100
AcDbLine
 10
44.995875
 20
163.673903
 30
0.0
 11
44.995875
 21
164.240276
 31
0.0
  0
LINE
  5
332
100
AcDbEntity
  8
レイヤー_2
 62
     7
100
AcDbLine
 10
45.867485
 20
161.234431
 30
0.0
 11
45.867485
 21
160.058275
 31
0.0
  0
LINE
  5
331
100
AcDbEntity
  8
レイヤー_2
 62
     7
100
AcDbLine
 10
45.126444
 20
160.058275
 30
0.0
 11
45.867485
 21
160.058275
 31
0.0
  0
LINE
  5
330
100
AcDbEntity
  8
レイヤー_2
 62
     7
100
AcDbLine
 10
45.126444
 20
161.234431
 30
0.0
 11
44.995875
 21
160.624649
 31
0.0
  0
LINE
  5
32F
100
AcDbEntity
  8
レイヤー_2
 62
     7
100
AcDbLine
 10
45.126444
 20
161.234431
 30
0.0
 11
45.867485
 21
161.234431
 31
0.0
  0
LINE
  5
32E
100
AcDbEntity
  8
レイヤー_2
 62
     7
100
AcDbLine
 10
44.995875
 20
159.491901
 30
0.0
 11
44.995875
 21
160.624649
 31
0.0
  0
LINE
  5
32D
100
AcDbEntity
  8
レイヤー_2
 62
     7
100
AcDbLine
 10
45.126444
 20
158.925528
 30
0.0
 11
45.867485
 21
158.925528
 31
0.0
  0
LINE
  5
32C
100
AcDbEntity
  8
レイヤー_2
 62
     7
100
AcDbLine
 10
45.867485
 20
158.925528
 30
0.0
 11
45.867485
 21
160.058275
 31
0.0
  0
LINE
  5
32B
100
AcDbEntity
  8
レイヤー_2
 62
     7
100
AcDbLine
 10
45.126444
 20
161.234431
 30
0.0
 11
44.995875
 21
161.234431
 31
0.0
  0
LINE
  5
32A
100
AcDbEntity
  8
レイヤー_2
 62
     7
100
AcDbLine
 10
44.995875
 20
160.624649
 30
0.0
 11
44.995875
 21
161.234431
 31
0.0
  0
LINE
  5
329
100
AcDbEntity
  8
レイヤー_2
 62
     7
100
AcDbLine
 10
44.995875
 20
158.925528
 30
0.0
 11
45.126444
 21
158.925528
 31
0.0
  0
LINE
  5
328
100
AcDbEntity
  8
レイヤー_2
 62
     7
100
AcDbLine
 10
44.995875
 20
158.925528
 30
0.0
 11
44.995875
 21
159.491901
 31
0.0
  0
LINE
  5
327
100
AcDbEntity
  8
レイヤー_2
 62
     7
100
AcDbLine
 10
45.867485
 20
167.246122
 30
0.0
 11
45.867485
 21
166.113375
 31
0.0
  0
LINE
  5
326
100
AcDbEntity
  8
レイヤー_2
 62
     7
100
AcDbLine
 10
45.126444
 20
166.113375
 30
0.0
 11
45.867485
 21
166.113375
 31
0.0
  0
LINE
  5
325
100
AcDbEntity
  8
レイヤー_2
 62
     7
100
AcDbLine
 10
45.126444
 20
167.246122
 30
0.0
 11
44.995875
 21
166.679749
 31
0.0
  0
LINE
  5
324
100
AcDbEntity
  8
レイヤー_2
 62
     7
100
AcDbLine
 10
45.126444
 20
167.246122
 30
0.0
 11
45.867485
 21
167.246122
 31
0.0
  0
LINE
  5
323
100
AcDbEntity
  8
レイヤー_2
 62
     7
100
AcDbLine
 10
44.995875
 20
165.547001
 30
0.0
 11
44.995875
 21
166.679749
 31
0.0
  0
LINE
  5
322
100
AcDbEntity
  8
レイヤー_2
 62
     7
100
AcDbLine
 10
45.126444
 20
164.937219
 30
0.0
 11
45.867485
 21
164.937219
 31
0.0
  0
LINE
  5
321
100
AcDbEntity
  8
レイヤー_2
 62
     7
100
AcDbLine
 10
45.867485
 20
164.937219
 30
0.0
 11
45.867485
 21
166.113375
 31
0.0
  0
LINE
  5
320
100
AcDbEntity
  8
レイヤー_2
 62
     7
100
AcDbLine
 10
45.126444
 20
167.246122
 30
0.0
 11
44.995875
 21
167.246122
 31
0.0
  0
LINE
  5
31F
100
AcDbEntity
  8
レイヤー_2
 62
     7
100
AcDbLine
 10
44.995875
 20
166.679749
 30
0.0
 11
44.995875
 21
167.246122
 31
0.0
  0
LINE
  5
31E
100
AcDbEntity
  8
レイヤー_2
 62
     7
100
AcDbLine
 10
44.995875
 20
164.937219
 30
0.0
 11
45.126444
 21
164.937219
 31
0.0
  0
LINE
  5
31D
100
AcDbEntity
  8
レイヤー_2
 62
     7
100
AcDbLine
 10
44.995875
 20
164.937219
 30
0.0
 11
44.995875
 21
165.547001
 31
0.0
  0
LINE
  5
31C
100
AcDbEntity
  8
レイヤー_2
 62
     7
100
AcDbLine
 10
47.174554
 20
158.490068
 30
0.0
 11
47.174554
 21
161.496258
 31
0.0
  0
LINE
  5
31B
100
AcDbEntity
  8
レイヤー_2
 62
     7
100
AcDbLine
 10
47.174554
 20
161.496258
 30
0.0
 11
47.174554
 21
164.676081
 31
0.0
  0
LINE
  5
31A
100
AcDbEntity
  8
レイヤー_2
 62
     7
100
AcDbLine
 10
47.174554
 20
164.676081
 30
0.0
 11
47.174554
 21
167.681582
 31
0.0
  0
LINE
  5
319
100
AcDbEntity
  8
レイヤー_2
 62
     7
100
AcDbLine
 10
44.995875
 20
148.557857
 30
0.0
 11
44.995875
 21
151.476542
 31
0.0
  0
LINE
  5
318
100
AcDbEntity
  8
レイヤー_2
 62
     7
100
AcDbLine
 10
44.995875
 20
171.776423
 30
0.0
 11
44.995875
 21
174.69528
 31
0.0
  0
LINE
  5
317
100
AcDbEntity
  8
レイヤー_2
 62
     7
100
AcDbLine
 10
44.995875
 20
177.613965
 30
0.0
 11
44.995875
 21
176.612131
 31
0.0
  0
LINE
  5
316
100
AcDbEntity
  8
レイヤー_2
 62
     7
100
AcDbLine
 10
61.536812
 20
153.487789
 30
0.0
 11
61.536812
 21
157.855481
 31
0.0
  0
LINE
  5
315
100
AcDbEntity
  8
レイヤー_2
 62
     7
100
AcDbLine
 10
61.536812
 20
157.855481
 30
0.0
 11
61.536812
 21
163.064465
 31
0.0
  0
LINE
  5
314
100
AcDbEntity
  8
レイヤー_2
 62
     7
100
AcDbLine
 10
47.174554
 20
158.838711
 30
0.0
 11
47.653078
 21
158.825275
 31
0.0
  0
LINE
  5
313
100
AcDbEntity
  8
レイヤー_2
 62
     7
100
AcDbLine
 10
47.653078
 20
161.288174
 30
0.0
 11
47.174554
 21
161.277839
 31
0.0
  0
LINE
  5
312
100
AcDbEntity
  8
レイヤー_2
 62
     7
100
AcDbLine
 10
47.174554
 20
161.757396
 30
0.0
 11
47.653078
 21
161.735347
 31
0.0
  0
LINE
  5
311
100
AcDbEntity
  8
レイヤー_2
 62
     7
100
AcDbLine
 10
47.653078
 20
164.436302
 30
0.0
 11
47.174554
 21
164.414598
 31
0.0
  0
LINE
  5
310
100
AcDbEntity
  8
レイヤー_2
 62
     7
100
AcDbLine
 10
47.174554
 20
164.893811
 30
0.0
 11
47.653078
 21
164.873829
 31
0.0
  0
LINE
  5
30F
100
AcDbEntity
  8
レイヤー_2
 62
     7
100
AcDbLine
 10
47.653078
 20
167.346719
 30
0.0
 11
47.174554
 21
167.333628
 31
0.0
  0
LINE
  5
30E
100
AcDbEntity
  8
レイヤー_2
 62
     7
100
AcDbLine
 10
61.536812
 20
141.070459
 30
0.0
 11
61.536812
 21
186.527116
 31
0.0
  0
LINE
  5
30D
100
AcDbEntity
  8
レイヤー_2
 62
     7
100
AcDbLine
 10
56.365724
 20
156.719288
 30
0.0
 11
59.1187
 21
156.764075
 31
0.0
  0
LINE
  5
30C
100
AcDbEntity
  8
レイヤー_2
 62
     7
100
AcDbLine
 10
56.365724
 20
158.859726
 30
0.0
 11
59.1187
 21
158.907613
 31
0.0
  0
LINE
  5
30B
100
AcDbEntity
  8
レイヤー_2
 62
     7
100
AcDbLine
 10
56.365724
 20
167.312268
 30
0.0
 11
59.1187
 21
167.264726
 31
0.0
  0
LINE
  5
30A
100
AcDbEntity
  8
レイヤー_2
 62
     7
100
AcDbLine
 10
56.365724
 20
169.452189
 30
0.0
 11
59.1187
 21
169.407747
 31
0.0
  0
LINE
  5
309
100
AcDbEntity
  8
レイヤー_2
  6
AI9-LType3
 62
     7
100
AcDbLine
 10
52.009401
 20
177.925057
 30
0.0
 11
52.009401
 21
147.633366
 31
0.0
  0
LINE
  5
308
100
AcDbEntity
  8
レイヤー_2
  6
AI9-LType2
 62
     7
100
AcDbLine
 10
44.255869
 20
166.113375
 30
0.0
 11
47.870808
 21
166.113375
 31
0.0
  0
LINE
  5
307
100
AcDbEntity
  8
レイヤー_2
  6
AI9-LType2
 62
     7
100
AcDbLine
 10
44.255869
 20
160.058275
 30
0.0
 11
47.870808
 21
160.058275
 31
0.0
  0
LINE
  5
306
100
AcDbEntity
  8
レイヤー_2
  6
AI9-LType3
 62
     7
100
AcDbLine
 10
42.687317
 20
175.17432
 30
0.0
 11
46.739094
 21
175.17432
 31
0.0
  0
LINE
  5
305
100
AcDbEntity
  8
レイヤー_2
  6
AI9-LType3
 62
     7
100
AcDbLine
 10
42.208104
 20
150.997674
 30
0.0
 11
46.259536
 21
150.997674
 31
0.0
  0
LINE
  5
304
100
AcDbEntity
  8
レイヤー_2
  6
AI9-LType3
 62
     7
100
AcDbLine
 10
49.742872
 20
163.064465
 30
0.0
 11
98.302527
 21
163.064465
 31
0.0
  0
LINE
  5
302
100
AcDbEntity
  8
レイヤー_2
 62
     7
100
AcDbLine
 10
54.666947
 20
167.333628
 30
0.0
 11
52.052809
 21
167.420444
 31
0.0
  0
LINE
  5
301
100
AcDbEntity
  8
レイヤー_2
 62
     7
100
AcDbLine
 10
52.052809
 20
158.751206
 30
0.0
 11
54.666947
 21
158.838711
 31
0.0
  0
LINE
  5
300
100
AcDbEntity
  8
レイヤー_2
 62
     7
100
AcDbLine
 10
55.276729
 20
170.469698
 30
0.0
 11
55.276729
 21
175.435631
 31
0.0
  0
LINE
  5
2FF
100
AcDbEntity
  8
レイヤー_2
 62
     7
100
AcDbLine
 10
48.742417
 20
175.435631
 30
0.0
 11
48.742417
 21
170.469698
 31
0.0
  0
LINE
  5
2FE
100
AcDbEntity
  8
レイヤー_2
 62
     7
100
AcDbLine
 10
48.742417
 20
155.702296
 30
0.0
 11
48.742417
 21
150.997674
 31
0.0
  0
LINE
  5
2FD
100
AcDbEntity
  8
レイヤー_2
 62
     7
100
AcDbLine
 10
55.276729
 20
150.997674
 30
0.0
 11
55.276729
 21
155.702296
 31
0.0
  0
LINE
  5
2FC
100
AcDbEntity
  8
レイヤー_2
 62
     7
100
AcDbLine
 10
48.872986
 20
170.251796
 30
0.0
 11
50.092205
 21
169.554853
 31
0.0
  0
LINE
  5
2FB
100
AcDbEntity
  8
レイヤー_2
 62
     7
100
AcDbLine
 10
53.96966
 20
169.554853
 30
0.0
 11
55.146505
 21
170.251796
 31
0.0
  0
LINE
  5
2FA
100
AcDbEntity
  8
レイヤー_2
 62
     7
100
AcDbLine
 10
55.146505
 20
155.920026
 30
0.0
 11
53.96966
 21
156.573216
 31
0.0
  0
LINE
  5
2F9
100
AcDbEntity
  8
レイヤー_2
 62
     7
100
AcDbLine
 10
50.092205
 20
156.616969
 30
0.0
 11
48.872986
 21
155.920026
 31
0.0
  0
LINE
  5
2F8
100
AcDbEntity
  8
レイヤー_2
 62
     7
100
AcDbLine
 10
53.882844
 20
156.660377
 30
0.0
 11
54.666947
 21
156.660377
 31
0.0
  0
LINE
  5
2F7
100
AcDbEntity
  8
レイヤー_2
 62
     7
100
AcDbLine
 10
54.666947
 20
169.511445
 30
0.0
 11
53.882844
 21
169.511445
 31
0.0
  0
INSERT
  5
2F3
100
AcDbEntity
  8
レイヤー_2
 62
     7
100
AcDbBlockReference
  2
AI9-BLK59
 10
53.708522
 20
169.032232
 30
0.0
  0
INSERT
  5
2EE
100
AcDbEntity
  8
レイヤー_2
 62
     7
100
AcDbBlockReference
  2
AI9-BLK58
 10
53.708522
 20
157.13959
 30
0.0
  0
LINE
  5
2EC
100
AcDbEntity
  8
レイヤー_2
 62
     7
100
AcDbLine
 10
52.009401
 20
150.997674
 30
0.0
 11
55.276729
 21
150.997674
 31
0.0
  0
LINE
  5
2EB
100
AcDbEntity
  8
レイヤー_2
 62
     7
100
AcDbLine
 10
48.742417
 20
150.997674
 30
0.0
 11
52.009401
 21
150.997674
 31
0.0
  0
LINE
  5
2EA
100
AcDbEntity
  8
レイヤー_2
 62
     7
100
AcDbLine
 10
53.708522
 20
158.533476
 30
0.0
 11
53.708522
 21
156.965268
 31
0.0
  0
LINE
  5
2E9
100
AcDbEntity
  8
レイヤー_2
 62
     7
100
AcDbLine
 10
53.708522
 20
169.162801
 30
0.0
 11
53.708522
 21
167.594766
 31
0.0
  0
LINE
  5
2E8
100
AcDbEntity
  8
レイヤー_2
 62
     7
100
AcDbLine
 10
54.666947
 20
158.795303
 30
0.0
 11
54.666947
 21
158.011199
 31
0.0
  0
LINE
  5
2E7
100
AcDbEntity
  8
レイヤー_2
 62
     7
100
AcDbLine
 10
54.666947
 20
168.117042
 30
0.0
 11
54.666947
 21
167.376691
 31
0.0
  0
LINE
  5
2E6
100
AcDbEntity
  8
レイヤー_2
 62
     7
100
AcDbLine
 10
50.310624
 20
156.965268
 30
0.0
 11
50.310624
 21
158.751206
 31
0.0
  0
LINE
  5
2E5
100
AcDbEntity
  8
レイヤー_2
 62
     7
100
AcDbLine
 10
50.310624
 20
167.420444
 30
0.0
 11
50.310624
 21
169.162801
 31
0.0
  0
LINE
  5
2E4
100
AcDbEntity
  8
レイヤー_2
 62
     7
100
AcDbLine
 10
55.146505
 20
167.551358
 30
0.0
 11
54.666947
 21
167.333628
 31
0.0
  0
LINE
  5
2E3
100
AcDbEntity
  8
レイヤー_2
 62
     7
100
AcDbLine
 10
54.666947
 20
158.838711
 30
0.0
 11
55.146505
 21
158.620981
 31
0.0
  0
LINE
  5
2E2
100
AcDbEntity
  8
レイヤー_2
 62
     7
100
AcDbLine
 10
55.407643
 20
158.054607
 30
0.0
 11
55.451396
 21
158.054607
 31
0.0
  0
LINE
  5
2E1
100
AcDbEntity
  8
レイヤー_2
 62
     7
100
AcDbLine
 10
55.407643
 20
158.838711
 30
0.0
 11
55.407643
 21
158.054607
 31
0.0
  0
LINE
  5
2E0
100
AcDbEntity
  8
レイヤー_2
 62
     7
100
AcDbLine
 10
55.407643
 20
168.117042
 30
0.0
 11
55.407643
 21
167.333628
 31
0.0
  0
LINE
  5
2DF
100
AcDbEntity
  8
レイヤー_2
 62
     7
100
AcDbLine
 10
55.451396
 20
168.117042
 30
0.0
 11
55.407643
 21
168.117042
 31
0.0
  0
LINE
  5
2DE
100
AcDbEntity
  8
レイヤー_2
 62
     7
100
AcDbLine
 10
55.407643
 20
168.030226
 30
0.0
 11
54.666947
 21
168.030226
 31
0.0
  0
LINE
  5
2DD
100
AcDbEntity
  8
レイヤー_2
 62
     7
100
AcDbLine
 10
55.407643
 20
158.141424
 30
0.0
 11
54.666947
 21
158.141424
 31
0.0
  0
LINE
  5
2DC
100
AcDbEntity
  8
レイヤー_2
 62
     7
100
AcDbLine
 10
55.364235
 20
168.335117
 30
0.0
 11
54.710011
 21
168.335117
 31
0.0
  0
LINE
  5
2DB
100
AcDbEntity
  8
レイヤー_2
 62
     7
100
AcDbLine
 10
55.407643
 20
168.16114
 30
0.0
 11
55.407643
 21
168.291709
 31
0.0
  0
LINE
  5
2DA
100
AcDbEntity
  8
レイヤー_2
 62
     7
100
AcDbLine
 10
54.666947
 20
168.291709
 30
0.0
 11
54.666947
 21
168.117042
 31
0.0
  0
LINE
  5
2D9
100
AcDbEntity
  8
レイヤー_2
 62
     7
100
AcDbLine
 10
55.407643
 20
169.642014
 30
0.0
 11
55.407643
 21
168.291709
 31
0.0
  0
LINE
  5
2D8
100
AcDbEntity
  8
レイヤー_2
 62
     7
100
AcDbLine
 10
54.710011
 20
157.836877
 30
0.0
 11
55.364235
 21
157.836877
 31
0.0
  0
LINE
  5
2D7
100
AcDbEntity
  8
レイヤー_2
 62
     7
100
AcDbLine
 10
55.407643
 20
157.880286
 30
0.0
 11
55.407643
 21
158.011199
 31
0.0
  0
LINE
  5
2D6
100
AcDbEntity
  8
レイヤー_2
 62
     7
100
AcDbLine
 10
54.666947
 20
158.011199
 30
0.0
 11
54.666947
 21
157.880286
 31
0.0
  0
LINE
  5
2D5
100
AcDbEntity
  8
レイヤー_2
 62
     7
100
AcDbLine
 10
55.407643
 20
157.880286
 30
0.0
 11
55.407643
 21
156.529808
 31
0.0
  0
LINE
  5
2D4
100
AcDbEntity
  8
レイヤー_2
 62
     7
100
AcDbLine
 10
54.710011
 20
169.685594
 30
0.0
 11
55.364235
 21
169.685594
 31
0.0
  0
LINE
  5
2D3
100
AcDbEntity
  8
レイヤー_2
 62
     7
100
AcDbLine
 10
55.364235
 20
156.4864
 30
0.0
 11
54.710011
 21
156.4864
 31
0.0
  0
LINE
  5
2D2
100
AcDbEntity
  8
レイヤー_2
 62
     7
100
AcDbLine
 10
54.710011
 20
156.4864
 30
0.0
 11
54.666947
 21
156.529808
 31
0.0
  0
LINE
  5
2D1
100
AcDbEntity
  8
レイヤー_2
 62
     7
100
AcDbLine
 10
54.666947
 20
156.529808
 30
0.0
 11
54.666947
 21
157.880286
 31
0.0
  0
LINE
  5
2D0
100
AcDbEntity
  8
レイヤー_2
 62
     7
100
AcDbLine
 10
54.666947
 20
169.642014
 30
0.0
 11
54.710011
 21
169.685594
 31
0.0
  0
LINE
  5
2CF
100
AcDbEntity
  8
レイヤー_2
 62
     7
100
AcDbLine
 10
54.666947
 20
168.291709
 30
0.0
 11
54.666947
 21
169.642014
 31
0.0
  0
LINE
  5
2CE
100
AcDbEntity
  8
レイヤー_2
 62
     7
100
AcDbLine
 10
55.451396
 20
156.747538
 30
0.0
 11
55.407643
 21
156.70413
 31
0.0
  0
LINE
  5
2CD
100
AcDbEntity
  8
レイヤー_2
 62
     7
100
AcDbLine
 10
54.666947
 20
169.642014
 30
0.0
 11
54.666947
 21
169.511445
 31
0.0
  0
LINE
  5
2CC
100
AcDbEntity
  8
レイヤー_2
 62
     7
100
AcDbLine
 10
54.666947
 20
156.660377
 30
0.0
 11
54.666947
 21
156.529808
 31
0.0
  0
LINE
  5
2CB
100
AcDbEntity
  8
レイヤー_2
 62
     7
100
AcDbLine
 10
48.742417
 20
170.469698
 30
0.0
 11
55.276729
 21
170.469698
 31
0.0
  0
LINE
  5
2CA
100
AcDbEntity
  8
レイヤー_2
 62
     7
100
AcDbLine
 10
55.276729
 20
155.702296
 30
0.0
 11
48.742417
 21
155.702296
 31
0.0
  0
LINE
  5
2C9
100
AcDbEntity
  8
レイヤー_2
 62
     7
100
AcDbLine
 10
51.050975
 20
169.990485
 30
0.0
 11
51.050975
 21
166.723501
 31
0.0
  0
LINE
  5
2C8
100
AcDbEntity
  8
レイヤー_2
 62
     7
100
AcDbLine
 10
52.968171
 20
167.376691
 30
0.0
 11
52.968171
 21
169.990485
 31
0.0
  0
LINE
  5
2C7
100
AcDbEntity
  8
レイヤー_2
 62
     7
100
AcDbLine
 10
51.050975
 20
159.448493
 30
0.0
 11
51.050975
 21
156.137756
 31
0.0
  0
LINE
  5
2C6
100
AcDbEntity
  8
レイヤー_2
 62
     7
100
AcDbLine
 10
52.968171
 20
156.137756
 30
0.0
 11
52.968171
 21
158.795303
 31
0.0
  0
LINE
  5
2C5
100
AcDbEntity
  8
レイヤー_2
 62
     7
100
AcDbLine
 10
53.708522
 20
158.533476
 30
0.0
 11
53.665114
 21
158.795303
 31
0.0
  0
LINE
  5
2C4
100
AcDbEntity
  8
レイヤー_2
 62
     7
100
AcDbLine
 10
54.187735
 20
168.596427
 30
0.0
 11
54.187735
 21
167.333628
 31
0.0
  0
LINE
  5
2C3
100
AcDbEntity
  8
レイヤー_2
 62
     7
100
AcDbLine
 10
54.187735
 20
158.838711
 30
0.0
 11
54.187735
 21
157.531642
 31
0.0
  0
LINE
  5
2C2
100
AcDbEntity
  8
レイヤー_2
 62
     7
100
AcDbLine
 10
55.451396
 20
158.054607
 30
0.0
 11
55.451396
 21
156.747538
 31
0.0
  0
LINE
  5
2C1
100
AcDbEntity
  8
レイヤー_2
 62
     7
100
AcDbLine
 10
55.451396
 20
169.424112
 30
0.0
 11
55.451396
 21
168.117042
 31
0.0
  0
LINE
  5
2C0
100
AcDbEntity
  8
レイヤー_2
 62
     7
100
AcDbLine
 10
52.009401
 20
175.915188
 30
0.0
 11
54.797517
 21
175.915188
 31
0.0
  0
LINE
  5
2BF
100
AcDbEntity
  8
レイヤー_2
 62
     7
100
AcDbLine
 10
49.221285
 20
175.915188
 30
0.0
 11
52.009401
 21
175.915188
 31
0.0
  0
LINE
  5
2BE
100
AcDbEntity
  8
レイヤー_2
 62
     7
100
AcDbLine
 10
61.536812
 20
158.990984
 30
0.0
 11
62.262349
 21
159.003387
 31
0.0
  0
LINE
  5
2BD
100
AcDbEntity
  8
レイヤー_2
 62
     7
100
AcDbLine
 10
61.536812
 20
156.842623
 30
0.0
 11
62.262349
 21
156.854336
 31
0.0
  0
LINE
  5
2BC
100
AcDbEntity
  8
レイヤー_2
 62
     7
100
AcDbLine
 10
61.536812
 20
169.329544
 30
0.0
 11
62.262349
 21
169.31783
 31
0.0
  0
LINE
  5
2BB
100
AcDbEntity
  8
レイヤー_2
 62
     7
100
AcDbLine
 10
61.536812
 20
167.18101
 30
0.0
 11
62.262349
 21
167.168263
 31
0.0
  0
LINE
  5
2BA
100
AcDbEntity
  8
レイヤー_2
 62
     7
100
AcDbLine
 10
55.407643
 20
169.467864
 30
0.0
 11
56.365724
 21
169.452189
 31
0.0
  0
LINE
  5
2B9
100
AcDbEntity
  8
レイヤー_2
 62
     7
100
AcDbLine
 10
55.146505
 20
167.333628
 30
0.0
 11
56.365724
 21
167.312268
 31
0.0
  0
LINE
  5
2B8
100
AcDbEntity
  8
レイヤー_2
 62
     7
100
AcDbLine
 10
55.146505
 20
158.838711
 30
0.0
 11
56.365724
 21
158.859726
 31
0.0
  0
LINE
  5
2B7
100
AcDbEntity
  8
レイヤー_2
 62
     7
100
AcDbLine
 10
55.407643
 20
156.70413
 30
0.0
 11
56.365724
 21
156.719288
 31
0.0
  0
LINE
  5
2B6
100
AcDbEntity
  8
レイヤー_2
 62
     7
100
AcDbLine
 10
47.653078
 20
158.825275
 30
0.0
 11
50.310624
 21
158.751206
 31
0.0
  0
LINE
  5
2B5
100
AcDbEntity
  8
レイヤー_2
 62
     7
100
AcDbLine
 10
49.265038
 20
161.321936
 30
0.0
 11
47.653078
 21
161.288174
 31
0.0
  0
LINE
  5
2B4
100
AcDbEntity
  8
レイヤー_2
 62
     7
100
AcDbLine
 10
47.653078
 20
161.735347
 30
0.0
 11
49.090716
 21
161.670235
 31
0.0
  0
LINE
  5
2B3
100
AcDbEntity
  8
レイヤー_2
 62
     7
100
AcDbLine
 10
49.090716
 20
164.501759
 30
0.0
 11
47.653078
 21
164.436302
 31
0.0
  0
LINE
  5
2B2
100
AcDbEntity
  8
レイヤー_2
 62
     7
100
AcDbLine
 10
47.653078
 20
164.873829
 30
0.0
 11
49.265038
 21
164.806306
 31
0.0
  0
LINE
  5
2B1
100
AcDbEntity
  8
レイヤー_2
 62
     7
100
AcDbLine
 10
50.310624
 20
167.420444
 30
0.0
 11
47.653078
 21
167.346719
 31
0.0
  0
LINE
  5
2B0
100
AcDbEntity
  8
レイヤー_2
 62
     7
100
AcDbLine
 10
55.146505
 20
164.032537
 30
0.0
 11
55.146505
 21
167.551358
 31
0.0
  0
LINE
  5
2AF
100
AcDbEntity
  8
レイヤー_2
 62
     7
100
AcDbLine
 10
55.146505
 20
158.620981
 30
0.0
 11
55.146505
 21
162.139113
 31
0.0
  0
LINE
  5
2AE
100
AcDbEntity
  8
レイヤー_2
 62
     7
100
AcDbLine
 10
54.666947
 20
164.93653
 30
0.0
 11
54.666947
 21
167.333628
 31
0.0
  0
LINE
  5
2AD
100
AcDbEntity
  8
レイヤー_2
 62
     7
100
AcDbLine
 10
54.666947
 20
158.838711
 30
0.0
 11
54.666947
 21
161.22065
 31
0.0
  0
LINE
  5
2AC
100
AcDbEntity
  8
レイヤー_2
 62
     7
100
AcDbLine
 10
49.874475
 20
159.579062
 30
0.0
 11
49.874475
 21
160.636362
 31
0.0
  0
LINE
  5
2AB
100
AcDbEntity
  8
レイヤー_2
 62
     7
100
AcDbLine
 10
50.310624
 20
156.965268
 30
0.0
 11
50.310624
 21
160.33595
 31
0.0
  0
LINE
  5
2AA
100
AcDbEntity
  8
レイヤー_2
 62
     7
100
AcDbLine
 10
50.611381
 20
160.18092
 30
0.0
 11
51.181544
 21
159.230763
 31
0.0
  0
LINE
  5
2A9
100
AcDbEntity
  8
レイヤー_2
 62
     7
100
AcDbLine
 10
49.874475
 20
165.502904
 30
0.0
 11
49.874475
 21
166.592932
 31
0.0
  0
LINE
  5
2A8
100
AcDbEntity
  8
レイヤー_2
 62
     7
100
AcDbLine
 10
50.310624
 20
165.830188
 30
0.0
 11
50.310624
 21
169.162801
 31
0.0
  0
LINE
  5
2A7
100
AcDbEntity
  8
レイヤー_2
 62
     7
100
AcDbLine
 10
51.181544
 20
166.897479
 30
0.0
 11
50.607591
 21
165.989007
 31
0.0
  0
LINE
  5
2A6
100
AcDbEntity
  8
レイヤー_2
 62
     7
100
AcDbLine
 10
59.1187
 20
156.764075
 30
0.0
 11
61.536812
 21
156.803349
 31
0.0
  0
LINE
  5
2A5
100
AcDbEntity
  8
レイヤー_2
 62
     7
100
AcDbLine
 10
59.1187
 20
158.907613
 30
0.0
 11
61.536812
 21
158.948954
 31
0.0
  0
LINE
  5
2A4
100
AcDbEntity
  8
レイヤー_2
 62
     7
100
AcDbLine
 10
59.1187
 20
167.264726
 30
0.0
 11
61.536812
 21
167.222696
 31
0.0
  0
LINE
  5
2A3
100
AcDbEntity
  8
レイヤー_2
 62
     7
100
AcDbLine
 10
59.1187
 20
169.407747
 30
0.0
 11
61.536812
 21
169.368646
 31
0.0
  0
LINE
  5
2A2
100
AcDbEntity
  8
レイヤー_2
  6
AI9-LType2
 62
     7
100
AcDbLine
 10
47.653078
 20
168.771783
 30
0.0
 11
56.365724
 21
168.771783
 31
0.0
  0
LINE
  5
2A1
100
AcDbEntity
  8
レイヤー_2
  6
AI9-LType2
 62
     7
100
AcDbLine
 10
47.653078
 20
157.400039
 30
0.0
 11
56.365724
 21
157.400039
 31
0.0
  0
LINE
  5
29F
100
AcDbEntity
  8
レイヤー_2
 62
     7
100
AcDbLine
 10
44.517007
 20
141.056679
 30
0.0
 11
44.517007
 21
186.500761
 31
0.0
  0
LINE
  5
29E
100
AcDbEntity
  8
レイヤー_2
 62
     7
100
AcDbLine
 10
62.262349
 20
169.31783
 30
0.0
 11
62.262349
 21
167.168263
 31
0.0
  0
LINE
  5
29D
100
AcDbEntity
  8
レイヤー_2
 62
     7
100
AcDbLine
 10
62.262349
 20
159.003387
 30
0.0
 11
62.262349
 21
156.854336
 31
0.0
  0
LINE
  5
29C
100
AcDbEntity
  8
レイヤー_2
 62
     7
100
AcDbLine
 10
62.262349
 20
167.168263
 30
0.0
 11
62.262349
 21
159.003387
 31
0.0
  0
INSERT
  5
296
100
AcDbEntity
  8
レイヤー_2
 62
     7
100
AcDbBlockReference
  2
AI9-BLK57
 10
51.617177
 20
158.990984
 30
0.0
  0
INSERT
  5
28F
100
AcDbEntity
  8
レイヤー_2
 62
     7
100
AcDbBlockReference
  2
AI9-BLK56
 10
51.617177
 20
167.158961
 30
0.0
  0
INSERT
  5
288
100
AcDbEntity
  8
レイヤー_2
 62
     7
100
AcDbBlockReference
  2
AI9-BLK55
 10
55.037123
 20
175.67541
 30
0.0
  0
INSERT
  5
281
100
AcDbEntity
  8
レイヤー_2
 62
     7
100
AcDbBlockReference
  2
AI9-BLK54
 10
48.981851
 20
175.67541
 30
0.0
  0
INSERT
  5
27B
100
AcDbEntity
  8
レイヤー_2
 62
     7
100
AcDbBlockReference
  2
AI9-BLK53
 10
48.807701
 20
170.360747
 30
0.0
  0
INSERT
  5
275
100
AcDbEntity
  8
レイヤー_2
 62
     7
100
AcDbBlockReference
  2
AI9-BLK52
 10
55.211617
 20
170.360747
 30
0.0
  0
INSERT
  5
26F
100
AcDbEntity
  8
レイヤー_2
 62
     7
100
AcDbBlockReference
  2
AI9-BLK51
 10
55.211617
 20
155.811161
 30
0.0
  0
INSERT
  5
269
100
AcDbEntity
  8
レイヤー_2
 62
     7
100
AcDbBlockReference
  2
AI9-BLK50
 10
48.807701
 20
155.811161
 30
0.0
  0
INSERT
  5
25F
100
AcDbEntity
  8
レイヤー_2
 62
     7
100
AcDbBlockReference
  2
AI9-BLK49
 10
50.201415
 20
169.358827
 30
0.0
  0
INSERT
  5
256
100
AcDbEntity
  8
レイヤー_2
 62
     7
100
AcDbBlockReference
  2
AI9-BLK48
 10
50.201415
 20
156.790946
 30
0.0
  0
INSERT
  5
24D
100
AcDbEntity
  8
レイヤー_2
 62
     7
100
AcDbBlockReference
  2
AI9-BLK47
 10
53.839091
 20
169.358827
 30
0.0
  0
INSERT
  5
242
100
AcDbEntity
  8
レイヤー_2
 62
     7
100
AcDbBlockReference
  2
AI9-BLK46
 10
53.839091
 20
156.790946
 30
0.0
  0
INSERT
  5
23C
100
AcDbEntity
  8
レイヤー_2
 62
     7
100
AcDbBlockReference
  2
AI9-BLK45
 10
45.06116
 20
169.81625
 30
0.0
  0
INSERT
  5
236
100
AcDbEntity
  8
レイヤー_2
 62
     7
100
AcDbBlockReference
  2
AI9-BLK44
 10
46.324649
 20
168.24787
 30
0.0
  0
INSERT
  5
230
100
AcDbEntity
  8
レイヤー_2
 62
     7
100
AcDbBlockReference
  2
AI9-BLK43
 10
46.324649
 20
157.90199
 30
0.0
  0
INSERT
  5
22A
100
AcDbEntity
  8
レイヤー_2
 62
     7
100
AcDbBlockReference
  2
AI9-BLK42
 10
45.06116
 20
156.355486
 30
0.0
  0
INSERT
  5
224
100
AcDbEntity
  8
レイヤー_2
 62
     7
100
AcDbBlockReference
  2
AI9-BLK41
 10
45.889016
 20
158.076312
 30
0.0
  0
INSERT
  5
21E
100
AcDbEntity
  8
レイヤー_2
 62
     7
100
AcDbBlockReference
  2
AI9-BLK40
 10
45.889016
 20
168.073806
 30
0.0
  0
INSERT
  5
218
100
AcDbEntity
  8
レイヤー_2
 62
     7
100
AcDbBlockReference
  2
AI9-BLK39
 10
44.66928
 20
169.6421
 30
0.0
  0
INSERT
  5
212
100
AcDbEntity
  8
レイヤー_2
 62
     7
100
AcDbBlockReference
  2
AI9-BLK38
 10
44.66928
 20
156.529636
 30
0.0
  0
INSERT
  5
1F6
100
AcDbEntity
  8
レイヤー_2
 62
     7
100
AcDbBlockReference
  2
AI9-BLK37
 10
52.031277
 20
163.085825
 30
0.0
  0
INSERT
  5
1DA
100
AcDbEntity
  8
レイヤー_2
 62
     7
100
AcDbBlockReference
  2
AI9-BLK36
 10
52.009573
 20
163.085825
 30
0.0
  0
INSERT
  5
1BE
100
AcDbEntity
  8
レイヤー_2
 62
     7
100
AcDbBlockReference
  2
AI9-BLK35
 10
52.009918
 20
163.085997
 30
0.0
  0
INSERT
  5
1A2
100
AcDbEntity
  8
レイヤー_2
 62
     7
100
AcDbBlockReference
  2
AI9-BLK34
 10
52.009573
 20
163.085825
 30
0.0
  0
INSERT
  5
19C
100
AcDbEntity
  8
レイヤー_2
 62
     7
100
AcDbBlockReference
  2
AI9-BLK33
 10
45.06116
 20
162.781278
 30
0.0
  0
INSERT
  5
196
100
AcDbEntity
  8
レイヤー_2
 62
     7
100
AcDbBlockReference
  2
AI9-BLK32
 10
45.06116
 20
163.369184
 30
0.0
  0
INSERT
  5
190
100
AcDbEntity
  8
レイヤー_2
 62
     7
100
AcDbBlockReference
  2
AI9-BLK31
 10
45.06116
 20
163.95709
 30
0.0
  0
INSERT
  5
18A
100
AcDbEntity
  8
レイヤー_2
 62
     7
100
AcDbBlockReference
  2
AI9-BLK30
 10
45.06116
 20
160.341462
 30
0.0
  0
INSERT
  5
184
100
AcDbEntity
  8
レイヤー_2
 62
     7
100
AcDbBlockReference
  2
AI9-BLK29
 10
45.06116
 20
159.775088
 30
0.0
  0
INSERT
  5
17E
100
AcDbEntity
  8
レイヤー_2
 62
     7
100
AcDbBlockReference
  2
AI9-BLK28
 10
45.06116
 20
159.208714
 30
0.0
  0
INSERT
  5
178
100
AcDbEntity
  8
レイヤー_2
 62
     7
100
AcDbBlockReference
  2
AI9-BLK27
 10
45.06116
 20
166.396562
 30
0.0
  0
INSERT
  5
172
100
AcDbEntity
  8
レイヤー_2
 62
     7
100
AcDbBlockReference
  2
AI9-BLK26
 10
45.06116
 20
165.830188
 30
0.0
  0
INSERT
  5
16C
100
AcDbEntity
  8
レイヤー_2
 62
     7
100
AcDbBlockReference
  2
AI9-BLK25
 10
45.06116
 20
165.24211
 30
0.0
  0
INSERT
  5
166
100
AcDbEntity
  8
レイヤー_2
 62
     7
100
AcDbBlockReference
  2
AI9-BLK24
 10
55.385939
 20
168.313413
 30
0.0
  0
INSERT
  5
160
100
AcDbEntity
  8
レイヤー_2
 62
     7
100
AcDbBlockReference
  2
AI9-BLK23
 10
55.429519
 20
168.139091
 30
0.0
  0
INSERT
  5
15A
100
AcDbEntity
  8
レイヤー_2
 62
     7
100
AcDbBlockReference
  2
AI9-BLK22
 10
54.688479
 20
168.313413
 30
0.0
  0
INSERT
  5
154
100
AcDbEntity
  8
レイヤー_2
 62
     7
100
AcDbBlockReference
  2
AI9-BLK21
 10
55.385939
 20
169.663804
 30
0.0
  0
INSERT
  5
14E
100
AcDbEntity
  8
レイヤー_2
 62
     7
100
AcDbBlockReference
  2
AI9-BLK20
 10
54.688479
 20
157.858582
 30
0.0
  0
INSERT
  5
148
100
AcDbEntity
  8
レイヤー_2
 62
     7
100
AcDbBlockReference
  2
AI9-BLK19
 10
55.429519
 20
158.032903
 30
0.0
  0
INSERT
  5
142
100
AcDbEntity
  8
レイヤー_2
 62
     7
100
AcDbBlockReference
  2
AI9-BLK18
 10
55.385939
 20
157.858582
 30
0.0
  0
INSERT
  5
13C
100
AcDbEntity
  8
レイヤー_2
 62
     7
100
AcDbBlockReference
  2
AI9-BLK17
 10
55.385939
 20
156.508104
 30
0.0
  0
INSERT
  5
136
100
AcDbEntity
  8
レイヤー_2
 62
     7
100
AcDbBlockReference
  2
AI9-BLK16
 10
55.429519
 20
169.445988
 30
0.0
  0
INSERT
  5
12D
100
AcDbEntity
  8
レイヤー_2
 62
     7
100
AcDbBlockReference
  2
AI9-BLK15
 10
52.009573
 20
170.055856
 30
0.0
  0
INSERT
  5
124
100
AcDbEntity
  8
レイヤー_2
 62
     7
100
AcDbBlockReference
  2
AI9-BLK14
 10
52.009573
 20
156.0723
 30
0.0
  0
INSERT
  5
11C
100
AcDbEntity
  8
レイヤー_2
 62
     7
100
AcDbBlockReference
  2
AI9-BLK13
 10
50.6808
 20
169.576643
 30
0.0
  0
INSERT
  5
114
100
AcDbEntity
  8
レイヤー_2
 62
     7
100
AcDbBlockReference
  2
AI9-BLK12
 10
50.6808
 20
156.551512
 30
0.0
  0
INSERT
  5
10B
100
AcDbEntity
  8
レイヤー_2
 62
     7
100
AcDbBlockReference
  2
AI9-BLK11
 10
53.338346
 20
156.551512
 30
0.0
  0
INSERT
  5
103
100
AcDbEntity
  8
レイヤー_2
 62
     7
100
AcDbBlockReference
  2
AI9-BLK10
 10
53.338346
 20
169.576643
 30
0.0
  0
INSERT
  5
FD
100
AcDbEntity
  8
レイヤー_2
 62
     7
100
AcDbBlockReference
  2
AI9-BLK9
 10
53.686818
 20
167.485729
 30
0.0
  0
INSERT
  5
F6
100
AcDbEntity
  8
レイヤー_2
 62
     7
100
AcDbBlockReference
  2
AI9-BLK8
 10
53.948128
 20
168.85791
 30
0.0
  0
INSERT
  5
EF
100
AcDbEntity
  8
レイヤー_2
 62
     7
100
AcDbBlockReference
  2
AI9-BLK7
 10
53.926424
 20
157.292208
 30
0.0
  0
INSERT
  5
E7
100
AcDbEntity
  8
レイヤー_2
 62
     7
100
AcDbBlockReference
  2
AI9-BLK6
 10
50.09255
 20
166.919527
 30
0.0
  0
INSERT
  5
DF
100
AcDbEntity
  8
レイヤー_2
 62
     7
100
AcDbBlockReference
  2
AI9-BLK5
 10
50.09255
 20
159.252295
 30
0.0
  0
INSERT
  5
D1
100
AcDbEntity
  8
レイヤー_2
 62
     7
100
AcDbBlockReference
  2
AI9-BLK4
 10
39.871296
 20
163.822042
 30
0.0
  0
LINE
  5
CF
100
AcDbEntity
  8
レイヤー_2
 62
     7
100
AcDbLine
 10
54.001699
 20
165.134968
 30
0.0
 11
61.536812
 21
165.134968
 31
0.0
  0
LINE
  5
CE
100
AcDbEntity
  8
レイヤー_2
 62
     7
100
AcDbLine
 10
54.001699
 20
160.901634
 30
0.0
 11
61.494782
 21
160.901634
 31
0.0
  0
LINE
  5
CD
100
AcDbEntity
  8
レイヤー_2
 62
     7
100
AcDbLine
 10
55.652589
 20
165.473276
 30
0.0
 11
54.255259
 21
165.473276
 31
0.0
  0
LINE
  5
CC
100
AcDbEntity
  8
レイヤー_2
 62
     7
100
AcDbLine
 10
54.255259
 20
160.605356
 30
0.0
 11
55.652589
 21
160.605356
 31
0.0
  0
LINE
  5
CB
100
AcDbEntity
  8
レイヤー_2
 62
     7
100
AcDbLine
 10
54.255259
 20
165.473276
 30
0.0
 11
54.001699
 21
165.219717
 31
0.0
  0
LINE
  5
CA
100
AcDbEntity
  8
レイヤー_2
 62
     7
100
AcDbLine
 10
54.001699
 20
160.816885
 30
0.0
 11
54.255259
 21
160.605356
 31
0.0
  0
LINE
  5
C9
100
AcDbEntity
  8
レイヤー_2
 62
     7
100
AcDbLine
 10
55.652589
 20
160.605356
 30
0.0
 11
55.779369
 21
160.858915
 31
0.0
  0
LINE
  5
C8
100
AcDbEntity
  8
レイヤー_2
 62
     7
100
AcDbLine
 10
55.779369
 20
165.219717
 30
0.0
 11
55.652589
 21
165.473276
 31
0.0
  0
LINE
  5
C7
100
AcDbEntity
  8
レイヤー_2
 62
     7
100
AcDbLine
 10
56.160396
 20
165.473276
 30
0.0
 11
55.990898
 21
165.219717
 31
0.0
  0
LINE
  5
C6
100
AcDbEntity
  8
レイヤー_2
 62
     7
100
AcDbLine
 10
55.990898
 20
160.858915
 30
0.0
 11
56.160396
 21
160.605356
 31
0.0
  0
LINE
  5
C5
100
AcDbEntity
  8
レイヤー_2
 62
     7
100
AcDbLine
 10
59.420146
 20
165.473276
 30
0.0
 11
58.023504
 21
165.473276
 31
0.0
  0
LINE
  5
C4
100
AcDbEntity
  8
レイヤー_2
 62
     7
100
AcDbLine
 10
58.023504
 20
160.605356
 30
0.0
 11
59.420146
 21
160.605356
 31
0.0
  0
LINE
  5
C3
100
AcDbEntity
  8
レイヤー_2
 62
     7
100
AcDbLine
 10
57.515008
 20
165.473276
 30
0.0
 11
56.160396
 21
165.473276
 31
0.0
  0
LINE
  5
C2
100
AcDbEntity
  8
レイヤー_2
 62
     7
100
AcDbLine
 10
56.160396
 20
160.605356
 30
0.0
 11
57.515008
 21
160.605356
 31
0.0
  0
LINE
  5
C1
100
AcDbEntity
  8
レイヤー_2
 62
     7
100
AcDbLine
 10
59.420146
 20
160.605356
 30
0.0
 11
59.546925
 21
160.858915
 31
0.0
  0
LINE
  5
C0
100
AcDbEntity
  8
レイヤー_2
 62
     7
100
AcDbLine
 10
59.546925
 20
165.219717
 30
0.0
 11
59.420146
 21
165.473276
 31
0.0
  0
LINE
  5
BF
100
AcDbEntity
  8
レイヤー_2
 62
     7
100
AcDbLine
 10
57.515008
 20
160.605356
 30
0.0
 11
57.684507
 21
160.858915
 31
0.0
  0
LINE
  5
BE
100
AcDbEntity
  8
レイヤー_2
 62
     7
100
AcDbLine
 10
57.684507
 20
165.219717
 30
0.0
 11
57.515008
 21
165.473276
 31
0.0
  0
LINE
  5
BD
100
AcDbEntity
  8
レイヤー_2
 62
     7
100
AcDbLine
 10
59.927953
 20
165.473276
 30
0.0
 11
59.759143
 21
165.219717
 31
0.0
  0
LINE
  5
BC
100
AcDbEntity
  8
レイヤー_2
 62
     7
100
AcDbLine
 10
59.759143
 20
160.858915
 30
0.0
 11
59.927953
 21
160.605356
 31
0.0
  0
LINE
  5
BB
100
AcDbEntity
  8
レイヤー_2
 62
     7
100
AcDbLine
 10
58.023504
 20
165.473276
 30
0.0
 11
57.896035
 21
165.219717
 31
0.0
  0
LINE
  5
BA
100
AcDbEntity
  8
レイヤー_2
 62
     7
100
AcDbLine
 10
57.896035
 20
160.858915
 30
0.0
 11
58.023504
 21
160.605356
 31
0.0
  0
LINE
  5
B9
100
AcDbEntity
  8
レイヤー_2
 62
     7
100
AcDbLine
 10
61.536812
 20
165.473276
 30
0.0
 11
59.927953
 21
165.473276
 31
0.0
  0
LINE
  5
B8
100
AcDbEntity
  8
レイヤー_2
 62
     7
100
AcDbLine
 10
59.927953
 20
160.605356
 30
0.0
 11
61.536812
 21
160.605356
 31
0.0
  0
POLYLINE
  5
B1
100
AcDbEntity
  8
レイヤー_2
 62
     7
100
AcDb2dPolyline
 66
     1
 10
0.0
 20
0.0
 30
0.0
  0
VERTEX
  5
B2
100
AcDbEntity
  8
レイヤー_2
 62
     7
100
AcDbVertex
100
AcDb2dVertex
 10
55.779369
 20
165.219717
 30
0.0
  0
VERTEX
  5
B3
100
AcDbEntity
  8
レイヤー_2
 62
     7
100
AcDbVertex
100
AcDb2dVertex
 10
55.822088
 20
165.176998
 30
0.0
  0
VERTEX
  5
B4
100
AcDbEntity
  8
レイヤー_2
 62
     7
100
AcDbVertex
100
AcDb2dVertex
 10
55.906837
 20
165.134968
 30
0.0
  0
VERTEX
  5
B5
100
AcDbEntity
  8
レイヤー_2
 62
     7
100
AcDbVertex
100
AcDb2dVertex
 10
55.990898
 20
165.176998
 30
0.0
  0
VERTEX
  5
B6
100
AcDbEntity
  8
レイヤー_2
 62
     7
100
AcDbVertex
100
AcDb2dVertex
 10
55.990898
 20
165.219717
 30
0.0
  0
SEQEND
  5
B7
100
AcDbEntity
  8
レイヤー_2
 62
     7
  0
POLYLINE
  5
AB
100
AcDbEntity
  8
レイヤー_2
 62
     7
100
AcDb2dPolyline
 66
     1
 10
0.0
 20
0.0
 30
0.0
  0
VERTEX
  5
AC
100
AcDbEntity
  8
レイヤー_2
 62
     7
100
AcDbVertex
100
AcDb2dVertex
 10
55.990898
 20
160.858915
 30
0.0
  0
VERTEX
  5
AD
100
AcDbEntity
  8
レイヤー_2
 62
     7
100
AcDbVertex
100
AcDb2dVertex
 10
55.906837
 20
160.901634
 30
0.0
  0
VERTEX
  5
AE
100
AcDbEntity
  8
レイヤー_2
 62
     7
100
AcDbVertex
100
AcDb2dVertex
 10
55.822088
 20
160.858915
 30
0.0
  0
VERTEX
  5
AF
100
AcDbEntity
  8
レイヤー_2
 62
     7
100
AcDbVertex
100
AcDb2dVertex
 10
55.779369
 20
160.858915
 30
0.0
  0
SEQEND
  5
B0
100
AcDbEntity
  8
レイヤー_2
 62
     7
  0
POLYLINE
  5
A4
100
AcDbEntity
  8
レイヤー_2
 62
     7
100
AcDb2dPolyline
 66
     1
 10
0.0
 20
0.0
 30
0.0
  0
VERTEX
  5
A5
100
AcDbEntity
  8
レイヤー_2
 62
     7
100
AcDbVertex
100
AcDb2dVertex
 10
59.546925
 20
165.219717
 30
0.0
  0
VERTEX
  5
A6
100
AcDbEntity
  8
レイヤー_2
 62
     7
100
AcDbVertex
100
AcDb2dVertex
 10
59.589644
 20
165.176998
 30
0.0
  0
VERTEX
  5
A7
100
AcDbEntity
  8
レイヤー_2
 62
     7
100
AcDbVertex
100
AcDb2dVertex
 10
59.674394
 20
165.134968
 30
0.0
  0
VERTEX
  5
A8
100
AcDbEntity
  8
レイヤー_2
 62
     7
100
AcDbVertex
100
AcDb2dVertex
 10
59.759143
 20
165.176998
 30
0.0
  0
VERTEX
  5
A9
100
AcDbEntity
  8
レイヤー_2
 62
     7
100
AcDbVertex
100
AcDb2dVertex
 10
59.759143
 20
165.219717
 30
0.0
  0
SEQEND
  5
AA
100
AcDbEntity
  8
レイヤー_2
 62
     7
  0
POLYLINE
  5
9E
100
AcDbEntity
  8
レイヤー_2
 62
     7
100
AcDb2dPolyline
 66
     1
 10
0.0
 20
0.0
 30
0.0
  0
VERTEX
  5
9F
100
AcDbEntity
  8
レイヤー_2
 62
     7
100
AcDbVertex
100
AcDb2dVertex
 10
59.759143
 20
160.858915
 30
0.0
  0
VERTEX
  5
A0
100
AcDbEntity
  8
レイヤー_2
 62
     7
100
AcDbVertex
100
AcDb2dVertex
 10
59.674394
 20
160.901634
 30
0.0
  0
VERTEX
  5
A1
100
AcDbEntity
  8
レイヤー_2
 62
     7
100
AcDbVertex
100
AcDb2dVertex
 10
59.589644
 20
160.858915
 30
0.0
  0
VERTEX
  5
A2
100
AcDbEntity
  8
レイヤー_2
 62
     7
100
AcDbVertex
100
AcDb2dVertex
 10
59.546925
 20
160.858915
 30
0.0
  0
SEQEND
  5
A3
100
AcDbEntity
  8
レイヤー_2
 62
     7
  0
POLYLINE
  5
97
100
AcDbEntity
  8
レイヤー_2
 62
     7
100
AcDb2dPolyline
 66
     1
 10
0.0
 20
0.0
 30
0.0
  0
VERTEX
  5
98
100
AcDbEntity
  8
レイヤー_2
 62
     7
100
AcDbVertex
100
AcDb2dVertex
 10
57.684507
 20
165.219717
 30
0.0
  0
VERTEX
  5
99
100
AcDbEntity
  8
レイヤー_2
 62
     7
100
AcDbVertex
100
AcDb2dVertex
 10
57.684507
 20
165.176998
 30
0.0
  0
VERTEX
  5
9A
100
AcDbEntity
  8
レイヤー_2
 62
     7
100
AcDbVertex
100
AcDb2dVertex
 10
57.769256
 20
165.134968
 30
0.0
  0
VERTEX
  5
9B
100
AcDbEntity
  8
レイヤー_2
 62
     7
100
AcDbVertex
100
AcDb2dVertex
 10
57.854005
 20
165.176998
 30
0.0
  0
VERTEX
  5
9C
100
AcDbEntity
  8
レイヤー_2
 62
     7
100
AcDbVertex
100
AcDb2dVertex
 10
57.896035
 20
165.219717
 30
0.0
  0
SEQEND
  5
9D
100
AcDbEntity
  8
レイヤー_2
 62
     7
  0
POLYLINE
  5
91
100
AcDbEntity
  8
レイヤー_2
 62
     7
100
AcDb2dPolyline
 66
     1
 10
0.0
 20
0.0
 30
0.0
  0
VERTEX
  5
92
100
AcDbEntity
  8
レイヤー_2
 62
     7
100
AcDbVertex
100
AcDb2dVertex
 10
57.896035
 20
160.858915
 30
0.0
  0
VERTEX
  5
93
100
AcDbEntity
  8
レイヤー_2
 62
     7
100
AcDbVertex
100
AcDb2dVertex
 10
57.854005
 20
160.858915
 30
0.0
  0
VERTEX
  5
94
100
AcDbEntity
  8
レイヤー_2
 62
     7
100
AcDbVertex
100
AcDb2dVertex
 10
57.769256
 20
160.901634
 30
0.0
  0
VERTEX
  5
95
100
AcDbEntity
  8
レイヤー_2
 62
     7
100
AcDbVertex
100
AcDb2dVertex
 10
57.684507
 20
160.858915
 30
0.0
  0
SEQEND
  5
96
100
AcDbEntity
  8
レイヤー_2
 62
     7
  0
LINE
  5
90
100
AcDbEntity
  8
レイヤー_2
 62
     7
100
AcDbLine
 10
63.526699
 20
172.204131
 30
0.0
 11
61.536812
 21
172.204131
 31
0.0
  0
LINE
  5
8F
100
AcDbEntity
  8
レイヤー_2
 62
     7
100
AcDbLine
 10
63.526699
 20
172.204131
 30
0.0
 11
63.526699
 21
153.874329
 31
0.0
  0
LINE
  5
8E
100
AcDbEntity
  8
レイヤー_2
 62
     7
100
AcDbLine
 10
63.526699
 20
153.874329
 30
0.0
 11
61.536812
 21
153.874329
 31
0.0
  0
LINE
  5
8D
100
AcDbEntity
  8
レイヤー_2
 62
     7
100
AcDbLine
 10
61.536812
 20
172.204131
 30
0.0
 11
61.536812
 21
153.874329
 31
0.0
  0
LINE
  5
8C
100
AcDbEntity
  8
レイヤー_2
 62
     7
100
AcDbLine
 10
61.536812
 20
153.874329
 30
0.0
 11
63.526699
 21
153.874329
 31
0.0
  0
LINE
  5
8B
100
AcDbEntity
  8
レイヤー_2
 62
     7
100
AcDbLine
 10
61.536812
 20
172.204131
 30
0.0
 11
63.526699
 21
172.204131
 31
0.0
  0
LINE
  5
8A
100
AcDbEntity
  8
レイヤー_2
 62
     7
100
AcDbLine
 10
55.652589
 20
165.473276
 30
0.0
 11
55.652589
 21
160.605356
 31
0.0
  0
LINE
  5
89
100
AcDbEntity
  8
レイヤー_2
 62
     7
100
AcDbLine
 10
54.255259
 20
165.473276
 30
0.0
 11
54.255259
 21
160.605356
 31
0.0
  0
LINE
  5
88
100
AcDbEntity
  8
レイヤー_2
 62
     7
100
AcDbLine
 10
54.001699
 20
160.816885
 30
0.0
 11
54.001699
 21
165.219717
 31
0.0
  0
LINE
  5
87
100
AcDbEntity
  8
レイヤー_2
 62
     7
100
AcDbLine
 10
56.160396
 20
165.473276
 30
0.0
 11
56.160396
 21
160.605356
 31
0.0
  0
LINE
  5
86
100
AcDbEntity
  8
レイヤー_2
 62
     7
100
AcDbLine
 10
58.023504
 20
165.473276
 30
0.0
 11
58.023504
 21
160.605356
 31
0.0
  0
LINE
  5
85
100
AcDbEntity
  8
レイヤー_2
 62
     7
100
AcDbLine
 10
59.420146
 20
165.473276
 30
0.0
 11
59.420146
 21
160.605356
 31
0.0
  0
LINE
  5
84
100
AcDbEntity
  8
レイヤー_2
 62
     7
100
AcDbLine
 10
57.515008
 20
165.473276
 30
0.0
 11
57.515008
 21
160.605356
 31
0.0
  0
LINE
  5
83
100
AcDbEntity
  8
レイヤー_2
 62
     7
100
AcDbLine
 10
59.927953
 20
165.473276
 30
0.0
 11
59.927953
 21
160.605356
 31
0.0
  0
LINE
  5
82
100
AcDbEntity
  8
レイヤー_2
 62
     7
100
AcDbLine
 10
61.536812
 20
223.267164
 30
0.0
 11
61.536812
 21
189.180012
 31
0.0
  0
LINE
  5
81
100
AcDbEntity
  8
レイヤー_2
 62
     7
100
AcDbLine
 10
109.692529
 20
223.140213
 30
0.0
 11
109.692529
 21
155.222222
 31
0.0
  0
LINE
  5
80
100
AcDbEntity
  8
レイヤー_2
 62
     7
100
AcDbLine
 10
61.536812
 20
221.912553
 30
0.0
 11
60.520509
 21
220.769642
 31
0.0
  0
LINE
  5
7F
100
AcDbEntity
  8
レイヤー_2
 62
     7
100
AcDbLine
 10
62.553116
 20
223.055636
 30
0.0
 11
61.536812
 21
221.912553
 31
0.0
  0
LINE
  5
7E
100
AcDbEntity
  8
レイヤー_2
 62
     7
100
AcDbLine
 10
110.598589
 20
222.93144
 30
0.0
 11
108.908426
 21
221.030436
 31
0.0
  0
LINE
  5
7D
100
AcDbEntity
  8
レイヤー_2
 62
     7
100
AcDbLine
 10
60.351699
 20
221.912553
 30
0.0
 11
110.750863
 21
221.912553
 31
0.0
  0
LINE
  5
7C
100
AcDbEntity
  8
レイヤー_2
 62
     7
100
AcDbLine
 10
73.253238
 20
187.169109
 30
0.0
 11
73.253238
 21
212.387553
 31
0.0
  0
LINE
  5
7B
100
AcDbEntity
  8
レイヤー_2
 62
     7
100
AcDbLine
 10
61.536812
 20
210.990567
 30
0.0
 11
60.520509
 21
209.847656
 31
0.0
  0
LINE
  5
7A
100
AcDbEntity
  8
レイヤー_2
 62
     7
100
AcDbLine
 10
62.553116
 20
212.133649
 30
0.0
 11
61.536812
 21
210.990567
 31
0.0
  0
LINE
  5
79
100
AcDbEntity
  8
レイヤー_2
 62
     7
100
AcDbLine
 10
73.295957
 20
210.990567
 30
0.0
 11
72.237623
 21
209.847656
 31
0.0
  0
LINE
  5
78
100
AcDbEntity
  8
レイヤー_2
 62
     7
100
AcDbLine
 10
74.311571
 20
212.133649
 30
0.0
 11
73.295957
 21
210.990567
 31
0.0
  0
LINE
  5
77
100
AcDbEntity
  8
レイヤー_2
 62
     7
100
AcDbLine
 10
41.614686
 20
210.990567
 30
0.0
 11
74.226822
 21
210.990567
 31
0.0
  0
LINE
  5
76
100
AcDbEntity
  8
レイヤー_2
 62
     7
100
AcDbLine
 10
61.536812
 20
187.232671
 30
0.0
 11
61.536812
 21
138.930366
 31
0.0
  0
MTEXT
  5
75
100
AcDbEntity
  8
レイヤー_2
 62
     7
100
AcDbMText
 10
73.341604
 20
227.907462
 30
0.0
 40
4.724702
 41
0.0
 71
     1
 72
     2
  1
\fMS PGothic|b0|i0|c128;\H4.7247;\C7;\U+0031\U+0039\U+0030\U+FF5E\U+0032\U+0030\U+0035
  7
STD
210
0.0
220
0.0
230
1.0
 73
     1
 44
1.0
  0
MTEXT
  5
74
100
AcDbEntity
  8
レイヤー_2
 62
     7
100
AcDbMText
 10
41.553536
 20
216.618573
 30
0.0
 40
4.724702
 41
0.0
 71
     1
 72
     2
  1
\fMS PGothic|b0|i0|c128;\H4.7247;\C7;\U+0033\U+0035\U+FF5E\U+0035\U+0030
  7
STD
210
0.0
220
0.0
230
1.0
 73
     1
 44
1.0
  0
LINE
  5
73
100
AcDbEntity
  8
レイヤー_2
 62
     7
100
AcDbLine
 10
44.517007
 20
140.014882
 30
0.0
 11
44.517007
 21
118.470633
 31
0.0
  0
LINE
  5
72
100
AcDbEntity
  8
レイヤー_2
 62
     7
100
AcDbLine
 10
62.129369
 20
119.932042
 30
0.0
 11
60.859507
 21
118.70421
 31
0.0
  0
LINE
  5
71
100
AcDbEntity
  8
レイヤー_2
 62
     7
100
AcDbLine
 10
45.132301
 20
119.95478
 30
0.0
 11
43.904469
 21
118.726948
 31
0.0
  0
LINE
  5
70
100
AcDbEntity
  8
レイヤー_2
 62
     7
100
AcDbLine
 10
83.751477
 20
119.339486
 30
0.0
 11
43.533777
 21
119.339486
 31
0.0
  0
LINE
  5
6F
100
AcDbEntity
  8
レイヤー_2
 62
     7
100
AcDbLine
 10
61.536812
 20
137.872032
 30
0.0
 11
61.536812
 21
118.026904
 31
0.0
  0
MTEXT
  5
6E
100
AcDbEntity
  8
レイヤー_2
 62
     7
100
AcDbMText
 10
63.576137
 20
125.192801
 30
0.0
 40
4.724702
 41
0.0
 71
     1
 72
     2
  1
\fMS PGothic|b0|i0|c128;\H4.7247;\C7;\U+0035\U+0039\U+FF5E\U+0037\U+0034
  7
STD
210
0.0
220
0.0
230
1.0
 73
     1
 44
1.0
  0
LINE
  5
6D
100
AcDbEntity
  8
レイヤー_2
 62
     7
100
AcDbLine
 10
55.889612
 20
130.376883
 30
0.0
 11
54.61975
 21
129.149051
 31
0.0
  0
LINE
  5
6C
100
AcDbEntity
  8
レイヤー_2
 62
     7
100
AcDbLine
 10
49.397329
 20
130.434071
 30
0.0
 11
48.164674
 21
129.211062
 31
0.0
  0
LINE
  5
6B
100
AcDbEntity
  8
レイヤー_2
 62
     7
100
AcDbLine
 10
78.203323
 20
129.784326
 30
0.0
 11
48.014296
 21
129.784326
 31
0.0
  0
LINE
  5
6A
100
AcDbEntity
  8
レイヤー_2
 62
     7
100
AcDbLine
 10
55.276729
 20
149.627904
 30
0.0
 11
55.276729
 21
129.138715
 31
0.0
  0
LINE
  5
69
100
AcDbEntity
  8
レイヤー_2
 62
     7
100
AcDbLine
 10
48.742417
 20
149.627904
 30
0.0
 11
48.742417
 21
129.138715
 31
0.0
  0
MTEXT
  5
68
100
AcDbEntity
  8
レイヤー_2
 62
     7
100
AcDbMText
 10
63.576137
 20
135.637642
 30
0.0
 40
4.724702
 41
0.0
 71
     1
 72
     2
  1
\fMS PGothic|b0|i0|c128;\H4.7247;\C7;\U+0047\U+0031\U+002F\U+0032
  7
STD
210
0.0
220
0.0
230
1.0
 73
     1
 44
1.0
  0
LINE
  5
67
100
AcDbEntity
  8
レイヤー_2
 62
     7
100
AcDbLine
 10
113.676438
 20
146.71766
 30
0.0
 11
121.849927
 21
146.71766
 31
0.0
  0
LINE
  5
66
100
AcDbEntity
  8
レイヤー_2
 62
     7
100
AcDbLine
 10
120.57283
 20
163.657022
 30
0.0
 11
121.842692
 21
162.386815
 31
0.0
  0
LINE
  5
65
100
AcDbEntity
  8
レイヤー_2
 62
     7
100
AcDbLine
 10
120.495315
 20
147.394965
 30
0.0
 11
121.765866
 21
146.167133
 31
0.0
  0
LINE
  5
64
100
AcDbEntity
  8
レイヤー_2
 62
     7
100
AcDbLine
 10
121.165386
 20
163.868895
 30
0.0
 11
121.172621
 21
146.040354
 31
0.0
  0
LINE
  5
63
100
AcDbEntity
  8
レイヤー_2
 62
     7
100
AcDbLine
 10
100.088292
 20
163.064465
 30
0.0
 11
122.181689
 21
163.064465
 31
0.0
  0
MTEXT
  5
62
100
AcDbEntity
  8
レイヤー_2
 62
     7
100
AcDbMText
 10
115.5236
 20
151.548889
 30
0.0
 40
4.724702
 41
0.0
 71
     1
 72
     2
  1
\fMS PGothic|b0|i0|c128;\H4.7247;\C7;\U+0037\U+0030
  7
STD
210
0.0
220
0.0
230
1.0
 11
0.0
 21
1.0
 31
0.0
 73
     1
 44
1.0
  0
POLYLINE
  5
5D
100
AcDbEntity
  8
レイヤー_2
 62
     7
100
AcDb2dPolyline
 66
     1
 10
0.0
 20
0.0
 30
0.0
  0
VERTEX
  5
5E
100
AcDbEntity
  8
レイヤー_2
 62
     7
100
AcDbVertex
100
AcDb2dVertex
 10
139.919108
 20
154.05623
 30
0.0
  0
VERTEX
  5
5F
100
AcDbEntity
  8
レイヤー_2
 62
     7
100
AcDbVertex
100
AcDb2dVertex
 10
140.004546
 20
153.929106
 30
0.0
  0
VERTEX
  5
60
100
AcDbEntity
  8
レイヤー_2
 62
     7
100
AcDbVertex
100
AcDb2dVertex
 10
140.132704
 20
153.886731
 30
0.0
  0
SEQEND
  5
61
100
AcDbEntity
  8
レイヤー_2
 62
     7
  0
LINE
  5
5C
100
AcDbEntity
  8
レイヤー_2
 62
     7
100
AcDbLine
 10
193.223003
 20
187.349977
 30
0.0
 11
195.560156
 21
185.267761
 31
0.0
  0
LINE
  5
5B
100
AcDbEntity
  8
レイヤー_2
 62
     7
100
AcDbLine
 10
193.265723
 20
164.131928
 30
0.0
 11
195.602186
 21
162.092432
 31
0.0
  0
LINE
  5
5A
100
AcDbEntity
  8
レイヤー_2
 62
     7
100
AcDbLine
 10
188.706828
 20
163.154899
 30
0.0
 11
195.857812
 21
163.154899
 31
0.0
  0
LINE
  5
59
100
AcDbEntity
  8
レイヤー_2
 62
     7
100
AcDbLine
 10
194.498378
 20
161.624932
 30
0.0
 11
194.498378
 21
187.349977
 31
0.0
  0
LINE
  5
58
100
AcDbEntity
  8
レイヤー_2
 62
     7
100
AcDbLine
 10
151.326853
 20
168.748873
 30
0.0
 11
151.326853
 21
200.317833
 31
0.0
  0
LINE
  5
57
100
AcDbEntity
  8
レイヤー_2
 62
     7
100
AcDbLine
 10
175.678166
 20
200.275458
 30
0.0
 11
173.638669
 21
197.938822
 31
0.0
  0
LINE
  5
56
100
AcDbEntity
  8
レイヤー_2
 62
     7
100
AcDbLine
 10
174.658417
 20
188.81776
 30
0.0
 11
174.658417
 21
200.487849
 31
0.0
  0
LINE
  5
55
100
AcDbEntity
  8
レイヤー_2
 62
     7
100
AcDbLine
 10
152.516789
 20
200.445474
 30
0.0
 11
150.477292
 21
198.151213
 31
0.0
  0
LINE
  5
54
100
AcDbEntity
  8
レイヤー_2
 62
     7
100
AcDbLine
 10
150.477292
 20
199.128414
 30
0.0
 11
175.932414
 21
199.128414
 31
0.0
  0
LINE
  5
53
100
AcDbEntity
  8
レイヤー_2
 62
     7
100
AcDbLine
 10
177.474783
 20
186.330056
 30
0.0
 11
195.773063
 21
186.330056
 31
0.0
  0
LINE
  5
52
100
AcDbEntity
  8
レイヤー_2
 62
     7
100
AcDbLine
 10
140.982265
 20
132.915918
 30
0.0
 11
138.942768
 21
130.578765
 31
0.0
  0
LINE
  5
51
100
AcDbEntity
  8
レイヤー_2
 62
     7
100
AcDbLine
 10
138.900049
 20
131.555794
 30
0.0
 11
187.341881
 21
131.555794
 31
0.0
  0
LINE
  5
50
100
AcDbEntity
  8
レイヤー_2
 62
     7
100
AcDbLine
 10
187.086255
 20
132.7037
 30
0.0
 11
185.047447
 21
130.365858
 31
0.0
  0
LINE
  5
4F
100
AcDbEntity
  8
レイヤー_2
 62
     7
100
AcDbLine
 10
139.919108
 20
130.621484
 30
0.0
 11
139.919108
 21
153.334138
 31
0.0
  0
LINE
  5
4E
100
AcDbEntity
  8
レイヤー_2
 62
     7
100
AcDbLine
 10
186.151945
 20
130.281109
 30
0.0
 11
186.151945
 21
153.12192
 31
0.0
  0
LINE
  5
4D
100
AcDbEntity
  8
レイヤー_2
 62
     7
100
AcDbLine
 10
131.222309
 20
173.261087
 30
0.0
 11
133.516054
 21
171.221762
 31
0.0
  0
LINE
  5
4C
100
AcDbEntity
  8
レイヤー_2
 62
     7
100
AcDbLine
 10
131.264339
 20
154.949198
 30
0.0
 11
133.558773
 21
152.866983
 31
0.0
  0
LINE
  5
4B
100
AcDbEntity
  8
レイヤー_2
 62
     7
100
AcDbLine
 10
131.307058
 20
153.886731
 30
0.0
 11
139.069548
 21
153.886731
 31
0.0
  0
LINE
  5
4A
100
AcDbEntity
  8
レイヤー_2
 62
     7
100
AcDbLine
 10
132.496994
 20
152.782233
 30
0.0
 11
132.496994
 21
173.303806
 31
0.0
  0
LINE
  5
49
100
AcDbEntity
  8
レイヤー_2
 62
     7
100
AcDbLine
 10
131.17959
 20
172.284058
 30
0.0
 11
139.239735
 21
172.284058
 31
0.0
  0
MTEXT
  5
48
100
AcDbEntity
  8
レイヤー_2
  6
AI9-LType1
 62
     7
100
AcDbMText
 10
158.281123
 20
204.973806
 30
0.0
 40
4.724702
 41
0.0
 71
     1
 72
     2
  1
\fMS PGothic|b0|i0|c128;\H4.7247;\C7;\U+0031\U+0030\U+0030
  7
STD
210
0.0
220
0.0
230
1.0
 73
     1
 44
1.0
  0
MTEXT
  5
47
100
AcDbEntity
  8
レイヤー_2
  6
AI9-LType1
 62
     7
100
AcDbMText
 10
126.803531
 20
160.00591
 30
0.0
 40
4.724702
 41
0.0
 71
     1
 72
     2
  1
\fMS PGothic|b0|i0|c128;\H4.7247;\C7;\U+0037\U+0038
  7
STD
210
0.0
220
0.0
230
1.0
 11
0.0
 21
1.0
 31
0.0
 73
     1
 44
1.0
  0
MTEXT
  5
46
100
AcDbEntity
  8
レイヤー_2
  6
AI9-LType1
 62
     7
100
AcDbMText
 10
158.724506
 20
137.196203
 30
0.0
 40
4.724702
 41
0.0
 71
     1
 72
     2
  1
\fMS PGothic|b0|i0|c128;\H4.7247;\C7;\U+0031\U+0039\U+0038
  7
STD
210
0.0
220
0.0
230
1.0
 73
     1
 44
1.0
  0
MTEXT
  5
45
100
AcDbEntity
  8
レイヤー_2
  6
AI9-LType1
 62
     7
100
AcDbMText
 10
188.868305
 20
169.742611
 30
0.0
 40
4.724702
 41
0.0
 71
     1
 72
     2
  1
\fMS PGothic|b0|i0|c128;\H4.7247;\C7;\U+0031\U+0030\U+0030
  7
STD
210
0.0
220
0.0
230
1.0
 11
0.0
 21
1.0
 31
0.0
 73
     1
 44
1.0
  0
INSERT
  5
3E
100
AcDbEntity
  8
レイヤー_2
 62
     7
100
AcDbBlockReference
  2
AI9-BLK3
 10
50.176782
 20
163.502681
 30
0.0
  0
INSERT
  5
34
100
AcDbEntity
  8
レイヤー_2
 62
     7
100
AcDbBlockReference
  2
AI9-BLK2
 10
33.743935
 20
163.52206
 30
0.0
  0
INSERT
  5
2A
100
AcDbEntity
  8
レイヤー_2
 62
     7
100
AcDbBlockReference
  2
AI9-BLK1
 10
50.055515
 20
193.089851
 30
0.0
  0
ENDSEC
  0
SECTION
  2
OBJECTS
  0
DICTIONARY
  5
19
100
AcDbDictionary
280
     0
281
     1
  3
ACAD_GROUP
350
1A
  3
ACAD_MLINESTYLE
350
1B
  3
ACAD_LAYOUT
350
1E
  3
ACAD_PLOTSETTINGS
350
22
  3
ACAD_PLOTSTYLENAME
350
1F
  3
ACAD_WIPEOUT_VARS
350
23
  0
DICTIONARY
  5
1A
102
{ACAD_REACTORS
330
19
102
}
100
AcDbDictionary
280
     0
281
     1
  0
DICTIONARY
  5
1B
102
{ACAD_REACTORS
330
19
102
}
100
AcDbDictionary
280
     0
281
     1
  3
Standard
350
1C
  0
MLINESTYLE
  5
1C
102
{ACAD_REACTORS
330
1B
102
}
100
AcDbMlineStyle
  2
Standard
 70
     0
  3

 62
     0
 51
90.0
 52
90.0
 71
     2
 49
0.5
 62
   256
  6
ByLayer
 49
-0.5
 62
   256
  6
ByLayer
  0
ACDBDICTIONARYWDFLT
  5
1F
102
{ACAD_REACTORS
330
19
102
}
100
AcDbDictionary
281
     1
  3
Normal
350
1D
100
AcDbDictionaryWithDefault
340
1D
  0
ACDBPLACEHOLDER
  5
1D
102
{ACAD_REACTORS
330
1F
102
}
  0
LAYOUT
  5
20
102
{ACAD_REACTORS
330
1E
102
}
100
AcDbPlotSettings
  1

  2

  4

  6

 40
0.0
 41
0.0
 42
0.0
 43
0.0
 44
0.0
 45
0.0
 46
0.0
 47
0.0
 48
0.0
 49
0.0
140
0.0
141
0.0
142
1.0
143
1.0
 70
  1024
 72
     0
 73
     0
 74
     0
  7

 75
     0
147
1.0
148
0.0
149
0.0
100
AcDbLayout
  1
Model
 70
     0
 71
     0
 10
0.0
 20
0.0
 11
0.0
 21
0.0
 12
0.0
 22
0.0
 32
0.0
 14
0.0
 24
0.0
 34
0.0
 15
0.0
 25
0.0
 35
0.0
146
0.0
 13
0.0
 23
0.0
 33
0.0
 16
0.0
 26
0.0
 36
0.0
 17
0.0
 27
0.0
 37
0.0
 76
     0
330
A
331
0
345
0
346
0
  0
LAYOUT
  5
21
102
{ACAD_REACTORS
330
1E
102
}
100
AcDbPlotSettings
  1

  2

  4

  6

 40
0.0
 41
0.0
 42
0.0
 43
0.0
 44
0.0
 45
0.0
 46
0.0
 47
0.0
 48
0.0
 49
0.0
140
0.0
141
0.0
142
1.0
143
1.0
 70
     0
 72
     0
 73
     0
 74
     0
  7

 75
     0
147
1.0
148
0.0
149
0.0
100
AcDbLayout
  1
Layout1
 70
     0
 71
     0
 10
0.0
 20
0.0
 11
0.0
 21
0.0
 12
0.0
 22
0.0
 32
0.0
 14
0.0
 24
0.0
 34
0.0
 15
0.0
 25
0.0
 35
0.0
146
0.0
 13
0.0
 23
0.0
 33
0.0
 16
0.0
 26
0.0
 36
0.0
 17
0.0
 27
0.0
 37
0.0
 76
     0
330
B
331
0
345
0
346
0
  0
DICTIONARY
  5
1E
102
{ACAD_REACTORS
330
19
102
}
100
AcDbDictionary
280
     0
281
     1
  3
Layout1
350
21
  3
Model
350
20
  0
DICTIONARY
  5
22
102
{ACAD_REACTORS
330
19
102
}
100
AcDbDictionary
280
     0
281
     1
  0
WIPEOUTVARIABLES
  5
23
100
AcDbWipeoutVariables
 70
     1
  0
IMAGEDEF_REACTOR
  5
409
100
AcDbRasterImageDefReactor
 90
        2
330
408
  0
IMAGEDEF
  5
40A
100
AcDbRasterImageDef
 90
        0
  1
\\192.168.6.3\free(2009_04\一過性\DB_WEB用DXF_丸茂\TARA.LOGIC\36822885+35806970_1.bmp
 10
70.0
 20
9.0
 11
0.352778
 21
0.352778
280
     1
281
     0
  0
IMAGEDEF_REACTOR
  5
40C
100
AcDbRasterImageDefReactor
 90
        2
330
40B
  0
IMAGEDEF
  5
40D
100
AcDbRasterImageDef
 90
        0
  1
\\192.168.6.3\free(2009_04\一過性\DB_WEB用DXF_丸茂\TARA.LOGIC\36822885+35806970_2.bmp
 10
70.0
 20
9.0
 11
0.352778
 21
0.352778
280
     1
281
     0
  0
ENDSEC
  0
EOF
