  0
SECTION
  2
HEADER
  9
$ACADVER
  1
AC1009
  9
$INSBASE
 10
0.0
 20
0.0
 30
0.0
  9
$EXTMIN
 10
-0.2629228945668606
 20
-0.0998382359974066
 30
-0.0015258207003583
  9
$EXTMAX
 10
0.0365771805195014
 20
0.3726142699736576
 30
0.0000000349246037
  9
$LIMMIN
 10
0.0
 20
0.0
  9
$LIMMAX
 10
12.0
 20
9.0
  9
$ORTHOMODE
 70
     0
  9
$REGENMODE
 70
     1
  9
$FILLMODE
 70
     1
  9
$QTEXTMODE
 70
     0
  9
$MIRRTEXT
 70
     1
  9
$DRAGMODE
 70
     2
  9
$LTSCALE
 40
1.0
  9
$OSMODE
 70
   957
  9
$ATTMODE
 70
     1
  9
$TEXTSIZE
 40
0.2
  9
$TRACEWID
 40
0.05
  9
$TEXTSTYLE
  7
STANDARD
  9
$CLAYER
  8
0
  9
$CELTYPE
  6
BYBLOCK
  9
$CECOLOR
 62
   256
  9
$DIMSCALE
 40
1.0
  9
$DIMASZ
 40
0.18
  9
$DIMEXO
 40
0.0625
  9
$DIMDLI
 40
0.38
  9
$DIMRND
 40
0.0
  9
$DIMDLE
 40
0.0
  9
$DIMEXE
 40
0.18
  9
$DIMTP
 40
0.0
  9
$DIMTM
 40
0.0
  9
$DIMTXT
 40
0.18
  9
$DIMCEN
 40
0.09
  9
$DIMTSZ
 40
0.0
  9
$DIMTOL
 70
     0
  9
$DIMLIM
 70
     0
  9
$DIMTIH
 70
     1
  9
$DIMTOH
 70
     1
  9
$DIMSE1
 70
     0
  9
$DIMSE2
 70
     0
  9
$DIMTAD
 70
     0
  9
$DIMZIN
 70
     0
  9
$DIMBLK
  1

  9
$DIMASO
 70
     1
  9
$DIMSHO
 70
     1
  9
$DIMPOST
  1

  9
$DIMAPOST
  1

  9
$DIMALT
 70
     0
  9
$DIMALTD
 70
     2
  9
$DIMALTF
 40
25.399999999999999
  9
$DIMLFAC
 40
1.0
  9
$DIMTOFL
 70
     0
  9
$DIMTVP
 40
0.0
  9
$DIMTIX
 70
     0
  9
$DIMSOXD
 70
     0
  9
$DIMSAH
 70
     0
  9
$DIMBLK1
  1

  9
$DIMBLK2
  1

  9
$DIMSTYLE
  2
STANDARD
  9
$DIMCLRD
 70
     0
  9
$DIMCLRE
 70
     0
  9
$DIMCLRT
 70
     0
  9
$DIMTFAC
 40
1.0
  9
$DIMGAP
 40
0.09
  9
$LUNITS
 70
     2
  9
$LUPREC
 70
     4
  9
$SKETCHINC
 40
0.1
  9
$FILLETRAD
 40
0.5
  9
$AUNITS
 70
     0
  9
$AUPREC
 70
     0
  9
$MENU
  1
.
  9
$ELEVATION
 40
0.0
  9
$PELEVATION
 40
0.0
  9
$THICKNESS
 40
0.0
  9
$LIMCHECK
 70
     0
  9
$BLIPMODE
 70
     0
  9
$CHAMFERA
 40
0.5
  9
$CHAMFERB
 40
0.5
  9
$SKPOLY
 70
     0
  9
$TDCREATE
 40
2456793.907418842
  9
$TDUPDATE
 40
2457011.524026019
  9
$TDINDWG
 40
0.0022176505
  9
$TDUSRTIMER
 40
0.0022176505
  9
$USRTIMER
 70
     1
  9
$ANGBASE
 50
0.0
  9
$ANGDIR
 70
     0
  9
$PDMODE
 70
     0
  9
$PDSIZE
 40
0.0
  9
$PLINEWID
 40
0.0
  9
$COORDS
 70
     1
  9
$SPLFRAME
 70
     0
  9
$SPLINETYPE
 70
     6
  9
$SPLINESEGS
 70
     8
  9
$ATTDIA
 70
     1
  9
$ATTREQ
 70
     1
  9
$HANDLING
 70
     1
  9
$HANDSEED
  5
5A8
  9
$SURFTAB1
 70
     6
  9
$SURFTAB2
 70
     6
  9
$SURFTYPE
 70
     6
  9
$SURFU
 70
     6
  9
$SURFV
 70
     6
  9
$UCSNAME
  2

  9
$UCSORG
 10
0.0
 20
0.0
 30
0.0
  9
$UCSXDIR
 10
1.0
 20
0.0
 30
0.0
  9
$UCSYDIR
 10
0.0
 20
1.0
 30
0.0
  9
$PUCSNAME
  2

  9
$PUCSORG
 10
0.0
 20
0.0
 30
0.0
  9
$PUCSXDIR
 10
1.0
 20
0.0
 30
0.0
  9
$PUCSYDIR
 10
0.0
 20
1.0
 30
0.0
  9
$USERI1
 70
     0
  9
$USERI2
 70
     0
  9
$USERI3
 70
     0
  9
$USERI4
 70
     0
  9
$USERI5
 70
     0
  9
$USERR1
 40
0.0
  9
$USERR2
 40
0.0
  9
$USERR3
 40
0.0
  9
$USERR4
 40
0.0
  9
$USERR5
 40
0.0
  9
$WORLDVIEW
 70
     1
  9
$SHADEDGE
 70
     3
  9
$SHADEDIF
 70
    70
  9
$TILEMODE
 70
     1
  9
$MAXACTVP
 70
    64
  9
$PLIMCHECK
 70
     0
  9
$PEXTMIN
 10
1.0000000000000000E+020
 20
1.0000000000000000E+020
 30
1.0000000000000000E+020
  9
$PEXTMAX
 10
-1.0000000000000000E+020
 20
-1.0000000000000000E+020
 30
-1.0000000000000000E+020
  9
$PLIMMIN
 10
0.0
 20
0.0
  9
$PLIMMAX
 10
12.0
 20
9.0
  9
$UNITMODE
 70
     0
  9
$VISRETAIN
 70
     1
  9
$PLINEGEN
 70
     0
  9
$PSLTSCALE
 70
     1
  0
ENDSEC
  0
SECTION
  2
TABLES
  0
TABLE
  2
VPORT
 70
     1
  0
VPORT
  2
*ACTIVE
 70
     0
 10
0.0
 20
0.0
 11
1.0
 21
1.0
 12
0.0178610671048389
 22
-0.2052637271975306
 13
0.0
 23
0.0
 14
0.5
 24
0.5
 15
0.5
 25
0.5
 16
0.0
 26
0.0
 36
1.0
 17
0.0
 27
0.0
 37
0.0
 40
1.521128029420556
 41
1.681623931623931
 42
50.0
 43
0.0
 44
0.0
 50
0.0
 51
0.0
 71
     0
 72
   100
 73
     1
 74
     3
 75
     0
 76
     0
 77
     0
 78
     0
  0
ENDTAB
  0
TABLE
  2
LTYPE
 70
     9
  0
LTYPE
  2
CONTINUOUS
 70
     0
  3
Solid line
 72
    65
 73
     0
 40
0.0
  0
LTYPE
  2
PHANTOM2
 70
     0
  3
Phantom (.5x) ___ _ _ ___ _ _ ___ _ _ ___ _ _
 72
    65
 73
     6
 40
1.25
 49
0.625
 49
-0.125
 49
0.125
 49
-0.125
 49
0.125
 49
-0.125
  0
LTYPE
  2
HIDDEN
 70
     0
  3
Hidden __ __ __ __ __ __ __ __ __ __ __ __ __ _
 72
    65
 73
     2
 40
0.375
 49
0.25
 49
-0.125
  0
LTYPE
  2
CENTER
 70
     0
  3
Center ____ _ ____ _ ____ _ ____ _ ____ _ ____
 72
    65
 73
     4
 40
2.0
 49
1.25
 49
-0.25
 49
0.25
 49
-0.25
  0
LTYPE
  2
CENTER2
 70
     0
  3
Center (.5x) ___ _ ___ _ ___ _ ___ _ ___ _ ___
 72
    65
 73
     4
 40
1.125
 49
0.75
 49
-0.125
 49
0.125
 49
-0.125
  0
LTYPE
  2
HIDDEN2
 70
     0
  3
Hidden (.5x) _ _ _ _ _ _ _ _ _ _ _ _ _ _ _ _ _
 72
    65
 73
     2
 40
0.1875
 49
0.125
 49
-0.0625
  0
LTYPE
  2
ACANSTGB
 70
     0
  3
__ . . __ . .
 72
    65
 73
     6
 40
0.35433070866
 49
0.15748031496
 49
-0.03937007874
 49
0.03937007874
 49
-0.03937007874
 49
0.03937007874
 49
-0.03937007874
  0
LTYPE
  2
ACANSTGL
 70
     0
  3
_ _ _ _ _
 72
    65
 73
     2
 40
0.11811023622
 49
0.07874015748
 49
-0.03937007874
  0
ENDTAB
  0
TABLE
  2
LAYER
 70
     2
  0
LAYER
  2
0
 70
     0
 62
     7
  6
CONTINUOUS
  0
LAYER
  2
AM_CL
 70
     0
 62
     1
  6
CONTINUOUS
  0
ENDTAB
  0
TABLE
  2
STYLE
 70
     3
  0
STYLE
  2
STANDARD
 70
     0
 40
0.0
 41
1.0
 50
0.0
 71
     0
 42
0.2
  3
txt
  4

  0
STYLE
  2
ACANSTS
 70
     0
 40
1.0
 41
1.0
 50
0.0
 71
     0
 42
0.2
  3
romans.shx
  4
extfont.shx
  0
STYLE
  2
ACANSGDT
 70
     0
 40
0.0
 41
1.0
 50
0.0
 71
     0
 42
0.2
  3
amgdt.shx
  4

  0
ENDTAB
  0
TABLE
  2
VIEW
 70
     1
  0
ENDTAB
  0
TABLE
  2
UCS
 70
     0
  0
ENDTAB
  0
TABLE
  2
APPID
 70
    11
  0
APPID
  2
ACAD
 70
     0
  0
APPID
  2
MCAD_NO_VIS
 70
     0
  0
APPID
  2
ACAD_TEMP_GRAPHIC
 70
     0
  0
APPID
  2
ACATTRIBSERVICES
 70
     0
  0
APPID
  2
DESIGNERASSEMBLIES
 70
     0
  0
APPID
  2
ACAD_DSTYLE_DIMJAG
 70
     0
  0
APPID
  2
ACAD_DSTYLE_DIMBREAK
 70
     0
  0
APPID
  2
ACAD_NAV_VCDISPLAY
 70
     0
  0
APPID
  2
ACAECLAYERSTANDARD
 70
     0
  0
APPID
  2
ACAD_EXEMPT_FROM_CAD_STANDARDS
 70
     0
  0
APPID
  2
ACAD_MLEADERVER
 70
     0
  0
ENDTAB
  0
TABLE
  2
DIMSTYLE
 70
     8
  0
DIMSTYLE
  2
STANDARD
 70
     0
  3

  4

  5

  6

  7

 40
1.0
 41
0.18
 42
0.0625
 43
0.38
 44
0.18
 45
0.0
 46
0.0
 47
0.0
 48
0.0
140
0.18
141
0.09
142
0.0
143
25.399999999999999
144
1.0
145
0.0
146
1.0
147
0.09
 71
     0
 72
     0
 73
     1
 74
     1
 75
     0
 76
     0
 77
     0
 78
     0
170
     0
171
     2
172
     0
173
     0
174
     0
175
     0
176
     0
177
     0
178
     0
  0
DIMSTYLE
  2
AM_ANSI
 70
     0
  3

  4
mm
  5

  6

  7

 40
1.0
 41
0.12
 42
0.05
 43
0.5
 44
0.1
 45
0.0
 46
0.0
 47
0.1
 48
0.1
140
0.12
141
0.0
142
0.0
143
25.399999999999999
144
1.0
145
0.0
146
0.71
147
0.06
 71
     0
 72
     0
 73
     1
 74
     1
 75
     0
 76
     0
 77
     0
 78
     7
170
     0
171
     2
172
     0
173
     0
174
     0
175
     0
176
   256
177
   256
178
     2
  0
DIMSTYLE
  2
AM_ANSI$3
 70
     0
  3

  4
mm
  5

  6

  7

 40
1.0
 41
0.12
 42
0.05
 43
0.5
 44
0.1
 45
0.0
 46
0.0
 47
0.1
 48
0.1
140
0.12
141
0.0
142
0.0
143
25.399999999999999
144
1.0
145
0.0
146
0.71
147
0.06
 71
     0
 72
     0
 73
     1
 74
     1
 75
     0
 76
     0
 77
     0
 78
     7
170
     0
171
     2
172
     0
173
     0
174
     0
175
     0
176
   256
177
   256
178
     2
  0
DIMSTYLE
  2
AM_ANSI$4
 70
     0
  3

  4
mm
  5

  6

  7

 40
1.0
 41
0.12
 42
0.05
 43
0.5
 44
0.1
 45
0.0
 46
0.0
 47
0.1
 48
0.1
140
0.12
141
0.0
142
0.0
143
25.399999999999999
144
1.0
145
0.0
146
0.71
147
0.06
 71
     0
 72
     0
 73
     1
 74
     1
 75
     0
 76
     0
 77
     0
 78
     7
170
     0
171
     2
172
     0
173
     0
174
     0
175
     0
176
   256
177
   256
178
     2
  0
DIMSTYLE
  2
AM_ANSI$7
 70
     0
  3

  4
mm
  5

  6

  7

 40
1.0
 41
0.12
 42
0.05
 43
0.5
 44
0.1
 45
0.0
 46
0.0
 47
0.1
 48
0.1
140
0.12
141
0.0
142
0.0
143
25.399999999999999
144
1.0
145
0.0
146
0.71
147
0.06
 71
     0
 72
     0
 73
     1
 74
     1
 75
     0
 76
     0
 77
     0
 78
     7
170
     0
171
     2
172
     0
173
     0
174
     0
175
     0
176
   256
177
   256
178
     2
  0
DIMSTYLE
  2
AM_ANSI$SF
 70
     0
  3

  4
mm
  5

  6

  7

 40
1.0
 41
0.12
 42
0.05
 43
0.5
 44
0.1
 45
0.0
 46
0.0
 47
0.1
 48
0.1
140
0.12
141
0.0
142
0.0
143
25.399999999999999
144
1.0
145
0.0
146
0.71
147
0.06
 71
     0
 72
     0
 73
     1
 74
     1
 75
     1
 76
     1
 77
     0
 78
     7
170
     0
171
     2
172
     0
173
     0
174
     0
175
     0
176
   256
177
   256
178
     2
  0
DIMSTYLE
  2
AM_ANSI$SH
 70
     0
  3

  4
mm
  5

  6
GENAXEH
  7

 40
1.0
 41
0.12
 42
0.05
 43
0.5
 44
0.1
 45
0.0
 46
0.0
 47
0.1
 48
0.1
140
0.12
141
0.0
142
0.0
143
25.399999999999999
144
1.0
145
0.0
146
0.71
147
0.06
 71
     0
 72
     0
 73
     1
 74
     1
 75
     1
 76
     1
 77
     0
 78
     7
170
     0
171
     2
172
     0
173
     1
174
     0
175
     0
176
   256
177
   256
178
     2
  0
ENDTAB
  0
ENDSEC
  0
SECTION
  2
BLOCKS
  0
BLOCK
  8
0
  2
$MODEL_SPACE
 70
     0
 10
0.0
 20
0.0
 30
0.0
  3
$MODEL_SPACE
  1

  0
ENDBLK
  5
EC
  8
0
  0
BLOCK
 67
     1
  8
0
  2
$PAPER_SPACE
 70
     0
 10
0.0
 20
0.0
 30
0.0
  3
$PAPER_SPACE
  1

  0
ENDBLK
  5
EE
 67
     1
  8
0
  0
BLOCK
  8
0
  2
GENAXEH
 70
     0
 10
0.0
 20
0.0
 30
0.0
  3
GENAXEH
  1

  0
LINE
  5
191
  8
0
 10
-1.0
 20
0.0
 30
0.0
 11
1.0
 21
0.0
 31
0.0
  0
ENDBLK
  5
193
  8
0
  0
ENDSEC
  0
SECTION
  2
ENTITIES
  0
LINE
  5
22
  8
0
  6
CONTINUOUS
 10
0.027925
 20
-0.099747
 30
0.0
 11
0.029272
 21
-0.099747
 31
0.0
  0
LINE
  5
23
  8
0
  6
CONTINUOUS
 10
-0.030081
 20
-0.093305
 30
0.0
 11
-0.030235
 21
-0.099182
 31
0.0
  0
LINE
  5
24
  8
0
  6
CONTINUOUS
 10
0.030081
 20
-0.093305
 30
0.0
 11
0.030079
 21
-0.093234
 31
0.0
  0
LINE
  5
25
  8
0
  6
CONTINUOUS
 10
-0.030235
 20
-0.099182
 30
0.0
 11
-0.030237
 21
-0.099234
 31
0.0
  0
LINE
  5
26
  8
0
  6
CONTINUOUS
 10
-0.02025
 20
-0.099747
 30
0.0
 11
0.0
 21
-0.099747
 31
0.0
  0
LINE
  5
27
  8
0
  6
CONTINUOUS
 10
-0.023182
 20
-0.099747
 30
0.0
 11
-0.02025
 21
-0.099747
 31
0.0
  0
LINE
  5
28
  8
0
  6
CONTINUOUS
 10
0.030174
 20
-0.09949
 30
0.0
 11
0.030237
 21
-0.099234
 31
0.0
  0
LINE
  5
29
  8
0
  6
CONTINUOUS
 10
-0.029737
 20
-0.099747
 30
0.0
 11
-0.029272
 21
-0.099747
 31
0.0
  0
LINE
  5
2A
  8
0
  6
CONTINUOUS
 10
-0.029991
 20
-0.099678
 30
0.0
 11
-0.029737
 21
-0.099747
 31
0.0
  0
LINE
  5
2B
  8
0
  6
CONTINUOUS
 10
-0.030079
 20
-0.093234
 30
0.0
 11
-0.030081
 21
-0.093305
 31
0.0
  0
LINE
  5
2C
  8
0
  6
CONTINUOUS
 10
-0.029272
 20
-0.099747
 30
0.0
 11
-0.027925
 21
-0.099747
 31
0.0
  0
LINE
  5
2D
  8
0
  6
CONTINUOUS
 10
0.0
 20
-0.092747
 30
0.0
 11
-0.02025
 21
-0.092747
 31
0.0
  0
LINE
  5
2E
  8
0
  6
CONTINUOUS
 10
-0.02025
 20
-0.092747
 30
0.0
 11
-0.023133
 21
-0.092747
 31
0.0
  0
LINE
  5
2F
  8
0
  6
CONTINUOUS
 10
0.0
 20
-0.099747
 30
0.0
 11
0.02025
 21
-0.099747
 31
0.0
  0
LINE
  5
30
  8
0
  6
CONTINUOUS
 10
0.02025
 20
-0.092747
 30
0.0
 11
0.0
 21
-0.092747
 31
0.0
  0
LINE
  5
31
  8
0
  6
CONTINUOUS
 10
0.025826
 20
-0.099747
 30
0.0
 11
0.027925
 21
-0.099747
 31
0.0
  0
LINE
  5
32
  8
0
  6
CONTINUOUS
 10
-0.027798
 20
-0.092747
 30
0.0
 11
-0.029123
 21
-0.092747
 31
0.0
  0
LINE
  5
33
  8
0
  6
CONTINUOUS
 10
-0.025734
 20
-0.092747
 30
0.0
 11
-0.027798
 21
-0.092747
 31
0.0
  0
LINE
  5
34
  8
0
  6
CONTINUOUS
 10
-0.029826
 20
-0.092812
 30
0.0
 11
-0.030008
 21
-0.09299
 31
0.0
  0
LINE
  5
35
  8
0
  6
CONTINUOUS
 10
-0.023133
 20
-0.092747
 30
0.0
 11
-0.025734
 21
-0.092747
 31
0.0
  0
LINE
  5
36
  8
0
  6
CONTINUOUS
 10
0.027798
 20
-0.092747
 30
0.0
 11
0.025734
 21
-0.092747
 31
0.0
  0
LINE
  5
37
  8
0
  6
CONTINUOUS
 10
0.025734
 20
-0.092747
 30
0.0
 11
0.023133
 21
-0.092747
 31
0.0
  0
LINE
  5
38
  8
0
  6
CONTINUOUS
 10
0.02958
 20
-0.092747
 30
0.0
 11
0.029123
 21
-0.092747
 31
0.0
  0
LINE
  5
39
  8
0
  6
CONTINUOUS
 10
0.029826
 20
-0.092812
 30
0.0
 11
0.02958
 21
-0.092747
 31
0.0
  0
LINE
  5
3A
  8
0
  6
CONTINUOUS
 10
0.02999
 20
-0.099678
 30
0.0
 11
0.030174
 21
-0.09949
 31
0.0
  0
LINE
  5
3B
  8
0
  6
CONTINUOUS
 10
0.023182
 20
-0.099747
 30
0.0
 11
0.025826
 21
-0.099747
 31
0.0
  0
LINE
  5
3C
  8
0
  6
CONTINUOUS
 10
-0.025826
 20
-0.099747
 30
0.0
 11
-0.023182
 21
-0.099747
 31
0.0
  0
LINE
  5
3D
  8
0
  6
CONTINUOUS
 10
-0.027925
 20
-0.099747
 30
0.0
 11
-0.025826
 21
-0.099747
 31
0.0
  0
LINE
  5
3E
  8
0
  6
CONTINUOUS
 10
-0.030174
 20
-0.09949
 30
0.0
 11
-0.029991
 21
-0.099678
 31
0.0
  0
LINE
  5
3F
  8
0
  6
CONTINUOUS
 10
0.023133
 20
-0.092747
 30
0.0
 11
0.02025
 21
-0.092747
 31
0.0
  0
LINE
  5
40
  8
0
  6
CONTINUOUS
 10
0.029272
 20
-0.099747
 30
0.0
 11
0.029737
 21
-0.099747
 31
0.0
  0
LINE
  5
41
  8
0
  6
CONTINUOUS
 10
0.029737
 20
-0.099747
 30
0.0
 11
0.02999
 21
-0.099678
 31
0.0
  0
LINE
  5
42
  8
0
  6
CONTINUOUS
 10
-0.02958
 20
-0.092747
 30
0.0
 11
-0.029826
 21
-0.092812
 31
0.0
  0
LINE
  5
43
  8
0
  6
CONTINUOUS
 10
-0.029123
 20
-0.092747
 30
0.0
 11
-0.02958
 21
-0.092747
 31
0.0
  0
LINE
  5
44
  8
0
  6
CONTINUOUS
 10
0.030008
 20
-0.09299
 30
0.0
 11
0.029826
 21
-0.092812
 31
0.0
  0
LINE
  5
45
  8
0
  6
CONTINUOUS
 10
0.02025
 20
-0.099747
 30
0.0
 11
0.023182
 21
-0.099747
 31
0.0
  0
LINE
  5
46
  8
0
  6
CONTINUOUS
 10
-0.030237
 20
-0.099234
 30
0.0
 11
-0.030174
 21
-0.09949
 31
0.0
  0
LINE
  5
47
  8
0
  6
CONTINUOUS
 10
-0.030008
 20
-0.09299
 30
0.0
 11
-0.030079
 21
-0.093234
 31
0.0
  0
LINE
  5
48
  8
0
  6
CONTINUOUS
 10
0.030079
 20
-0.093234
 30
0.0
 11
0.030008
 21
-0.09299
 31
0.0
  0
LINE
  5
49
  8
0
  6
CONTINUOUS
 10
0.029123
 20
-0.092747
 30
0.0
 11
0.027798
 21
-0.092747
 31
0.0
  0
LINE
  5
4A
  8
0
  6
CONTINUOUS
 10
-0.005127
 20
0.017059
 30
0.0
 11
-0.005735
 21
0.016866
 31
0.0
  0
LINE
  5
4B
  8
0
  6
CONTINUOUS
 10
-0.00425
 20
0.017275
 30
0.0
 11
-0.005127
 21
0.017059
 31
0.0
  0
LINE
  5
4C
  8
0
  6
CONTINUOUS
 10
0.006422
 20
0.016866
 30
0.0
 11
0.005814
 21
0.017059
 31
0.0
  0
LINE
  5
4D
  8
0
  6
CONTINUOUS
 10
0.005814
 20
0.017059
 30
0.0
 11
0.00425
 21
0.017444
 31
0.0
  0
LINE
  5
4E
  8
0
  6
CONTINUOUS
 10
-0.00425
 20
0.021001
 30
0.0
 11
-0.00425
 21
0.017275
 31
0.0
  0
LINE
  5
4F
  8
0
  6
CONTINUOUS
 10
0.00425
 20
0.017444
 30
0.0
 11
0.00425
 21
0.021001
 31
0.0
  0
LINE
  5
50
  8
0
  6
CONTINUOUS
 10
-0.007206
 20
0.016181
 30
0.0
 11
-0.008903
 21
0.016181
 31
0.0
  0
LINE
  5
51
  8
0
  6
CONTINUOUS
 10
-0.008903
 20
0.016181
 30
0.0
 11
-0.00997
 21
0.016181
 31
0.0
  0
LINE
  5
52
  8
0
  6
CONTINUOUS
 10
-0.00997
 20
0.016181
 30
0.0
 11
-0.010333
 21
0.016181
 31
0.0
  0
LINE
  5
53
  8
0
  6
CONTINUOUS
 10
0.01102
 20
0.016181
 30
0.0
 11
0.010657
 21
0.016181
 31
0.0
  0
LINE
  5
54
  8
0
  6
CONTINUOUS
 10
0.010657
 20
0.016181
 30
0.0
 11
0.00959
 21
0.016181
 31
0.0
  0
LINE
  5
55
  8
0
  6
CONTINUOUS
 10
0.00959
 20
0.016181
 30
0.0
 11
0.007893
 21
0.016181
 31
0.0
  0
LINE
  5
56
  8
0
  6
CONTINUOUS
 10
-0.01038
 20
0.016178
 30
0.0
 11
-0.016863
 21
0.015299
 31
0.0
  0
LINE
  5
57
  8
0
  6
CONTINUOUS
 10
0.017551
 20
0.015299
 30
0.0
 11
0.011067
 21
0.016178
 31
0.0
  0
LINE
  5
58
  8
0
  6
CONTINUOUS
 10
0.007893
 20
0.016181
 30
0.0
 11
0.005682
 21
0.016181
 31
0.0
  0
LINE
  5
59
  8
0
  6
CONTINUOUS
 10
-0.00242
 20
0.016181
 30
0.0
 11
-0.004995
 21
0.016181
 31
0.0
  0
LINE
  5
5A
  8
0
  6
CONTINUOUS
 10
-0.010333
 20
0.016181
 30
0.0
 11
-0.01038
 21
0.016178
 31
0.0
  0
LINE
  5
5B
  8
0
  6
CONTINUOUS
 10
-0.00997
 20
0.016181
 30
0.0
 11
-0.010333
 21
0.016181
 31
0.0
  0
LINE
  5
5C
  8
0
  6
CONTINUOUS
 10
-0.008903
 20
0.016181
 30
0.0
 11
-0.00997
 21
0.016181
 31
0.0
  0
LINE
  5
5D
  8
0
  6
CONTINUOUS
 10
0.00959
 20
0.016181
 30
0.0
 11
0.007893
 21
0.016181
 31
0.0
  0
LINE
  5
5E
  8
0
  6
CONTINUOUS
 10
0.000344
 20
0.016181
 30
0.0
 11
-0.00242
 21
0.016181
 31
0.0
  0
LINE
  5
5F
  8
0
  6
CONTINUOUS
 10
0.010657
 20
0.016181
 30
0.0
 11
0.00959
 21
0.016181
 31
0.0
  0
LINE
  5
60
  8
0
  6
CONTINUOUS
 10
0.003107
 20
0.016181
 30
0.0
 11
0.000344
 21
0.016181
 31
0.0
  0
LINE
  5
61
  8
0
  6
CONTINUOUS
 10
-0.007206
 20
0.016181
 30
0.0
 11
-0.008903
 21
0.016181
 31
0.0
  0
LINE
  5
62
  8
0
  6
CONTINUOUS
 10
0.011067
 20
0.016178
 30
0.0
 11
0.01102
 21
0.016181
 31
0.0
  0
LINE
  5
63
  8
0
  6
CONTINUOUS
 10
0.01102
 20
0.016181
 30
0.0
 11
0.010657
 21
0.016181
 31
0.0
  0
LINE
  5
64
  8
0
  6
CONTINUOUS
 10
0.005682
 20
0.016181
 30
0.0
 11
0.003107
 21
0.016181
 31
0.0
  0
LINE
  5
65
  8
0
  6
CONTINUOUS
 10
-0.004995
 20
0.016181
 30
0.0
 11
-0.007206
 21
0.016181
 31
0.0
  0
LINE
  5
66
  8
0
  6
CONTINUOUS
 10
0.003036
 20
0.096566
 30
0.0
 11
0.003036
 21
0.096918
 31
0.0
  0
LINE
  5
67
  8
0
  6
CONTINUOUS
 10
0.003036
 20
0.097484
 30
0.0
 11
0.003036
 21
0.098063
 31
0.0
  0
LINE
  5
68
  8
0
  6
CONTINUOUS
 10
0.003036
 20
0.097229
 30
0.0
 11
0.003036
 21
0.097484
 31
0.0
  0
LINE
  5
69
  8
0
  6
CONTINUOUS
 10
0.003036
 20
0.094587
 30
0.0
 11
0.003036
 21
0.095369
 31
0.0
  0
LINE
  5
6A
  8
0
  6
CONTINUOUS
 10
0.003036
 20
0.096918
 30
0.0
 11
0.003036
 21
0.097229
 31
0.0
  0
LINE
  5
6B
  8
0
  6
CONTINUOUS
 10
0.003036
 20
0.096117
 30
0.0
 11
0.003036
 21
0.096566
 31
0.0
  0
LINE
  5
6C
  8
0
  6
CONTINUOUS
 10
0.002969
 20
0.099498
 30
0.0
 11
0.002786
 21
0.099681
 31
0.0
  0
LINE
  5
6D
  8
0
  6
CONTINUOUS
 10
0.003036
 20
0.099234
 30
0.0
 11
0.002969
 21
0.099498
 31
0.0
  0
LINE
  5
6E
  8
0
  6
CONTINUOUS
 10
0.003036
 20
0.095369
 30
0.0
 11
0.003036
 21
0.096117
 31
0.0
  0
LINE
  5
6F
  8
0
  6
CONTINUOUS
 10
0.002786
 20
0.099681
 30
0.0
 11
0.002536
 21
0.099747
 31
0.0
  0
LINE
  5
70
  8
0
  6
CONTINUOUS
 10
0.003036
 20
0.055195
 30
0.0
 11
0.003036
 21
0.094587
 31
0.0
  0
LINE
  5
71
  8
0
  6
CONTINUOUS
 10
0.002536
 20
0.099747
 30
0.0
 11
0.002479
 21
0.099747
 31
0.0
  0
LINE
  5
72
  8
0
  6
CONTINUOUS
 10
0.003635
 20
0.049347
 30
0.0
 11
0.003036
 21
0.056685
 31
0.0
  0
LINE
  5
73
  8
0
  6
CONTINUOUS
 10
0.004352
 20
0.044528
 30
0.0
 11
0.003635
 21
0.049347
 31
0.0
  0
LINE
  5
74
  8
0
  6
CONTINUOUS
 10
0.004864
 20
0.040075
 30
0.0
 11
0.004352
 21
0.044528
 31
0.0
  0
LINE
  5
75
  8
0
  6
CONTINUOUS
 10
0.004882
 20
0.039766
 30
0.0
 11
0.004864
 21
0.040075
 31
0.0
  0
LINE
  5
76
  8
0
  6
CONTINUOUS
 10
0.005025
 20
0.020449
 30
0.0
 11
0.005015
 21
0.035119
 31
0.0
  0
LINE
  5
77
  8
0
  6
CONTINUOUS
 10
0.005015
 20
0.035119
 30
0.0
 11
0.004882
 21
0.039766
 31
0.0
  0
LINE
  5
78
  8
0
  6
CONTINUOUS
 10
0.00484
 20
0.019803
 30
0.0
 11
0.005008
 21
0.020125
 31
0.0
  0
LINE
  5
79
  8
0
  6
CONTINUOUS
 10
0.005008
 20
0.020125
 30
0.0
 11
0.005025
 21
0.020449
 31
0.0
  0
LINE
  5
7A
  8
0
  6
CONTINUOUS
 10
0.000018
 20
0.018705
 30
0.0
 11
0.00265
 21
0.018705
 31
0.0
  0
LINE
  5
7B
  8
0
  6
CONTINUOUS
 10
0.002954
 20
0.018723
 30
0.0
 11
0.003043
 21
0.01874
 31
0.0
  0
LINE
  5
7C
  8
0
  6
CONTINUOUS
 10
0.002848
 20
0.018712
 30
0.0
 11
0.002954
 21
0.018723
 31
0.0
  0
LINE
  5
7D
  8
0
  6
CONTINUOUS
 10
0.002711
 20
0.018705
 30
0.0
 11
0.002848
 21
0.018712
 31
0.0
  0
LINE
  5
7E
  8
0
  6
CONTINUOUS
 10
0.003043
 20
0.01874
 30
0.0
 11
0.00374
 21
0.019017
 31
0.0
  0
LINE
  5
7F
  8
0
  6
CONTINUOUS
 10
0.004316
 20
0.019325
 30
0.0
 11
0.004692
 21
0.019641
 31
0.0
  0
LINE
  5
80
  8
0
  6
CONTINUOUS
 10
0.004692
 20
0.019641
 30
0.0
 11
0.00484
 21
0.019803
 31
0.0
  0
LINE
  5
81
  8
0
  6
CONTINUOUS
 10
0.00374
 20
0.019017
 30
0.0
 11
0.004316
 21
0.019325
 31
0.0
  0
LINE
  5
82
  8
0
  6
CONTINUOUS
 10
0.002479
 20
0.099747
 30
0.0
 11
0.000018
 21
0.099747
 31
0.0
  0
LINE
  5
83
  8
0
  6
CONTINUOUS
 10
0.00265
 20
0.018705
 30
0.0
 11
0.002711
 21
0.018705
 31
0.0
  0
LINE
  5
84
  8
0
  6
CONTINUOUS
 10
0.003036
 20
0.098642
 30
0.0
 11
0.003036
 21
0.099221
 31
0.0
  0
LINE
  5
85
  8
0
  6
CONTINUOUS
 10
0.003036
 20
0.098063
 30
0.0
 11
0.003036
 21
0.098642
 31
0.0
  0
LINE
  5
86
  8
0
  6
CONTINUOUS
 10
-0.003
 20
0.096918
 30
0.0
 11
-0.003
 21
0.096566
 31
0.0
  0
LINE
  5
87
  8
0
  6
CONTINUOUS
 10
-0.003
 20
0.098063
 30
0.0
 11
-0.003
 21
0.097484
 31
0.0
  0
LINE
  5
88
  8
0
  6
CONTINUOUS
 10
-0.003
 20
0.097484
 30
0.0
 11
-0.003
 21
0.097229
 31
0.0
  0
LINE
  5
89
  8
0
  6
CONTINUOUS
 10
-0.003
 20
0.095369
 30
0.0
 11
-0.003
 21
0.094587
 31
0.0
  0
LINE
  5
8A
  8
0
  6
CONTINUOUS
 10
-0.003
 20
0.097229
 30
0.0
 11
-0.003
 21
0.096918
 31
0.0
  0
LINE
  5
8B
  8
0
  6
CONTINUOUS
 10
-0.003
 20
0.096566
 30
0.0
 11
-0.003
 21
0.096117
 31
0.0
  0
LINE
  5
8C
  8
0
  6
CONTINUOUS
 10
-0.00275
 20
0.099681
 30
0.0
 11
-0.002933
 21
0.099498
 31
0.0
  0
LINE
  5
8D
  8
0
  6
CONTINUOUS
 10
-0.002933
 20
0.099498
 30
0.0
 11
-0.003
 21
0.099234
 31
0.0
  0
LINE
  5
8E
  8
0
  6
CONTINUOUS
 10
-0.003
 20
0.096117
 30
0.0
 11
-0.003
 21
0.095369
 31
0.0
  0
LINE
  5
8F
  8
0
  6
CONTINUOUS
 10
-0.0025
 20
0.099747
 30
0.0
 11
-0.00275
 21
0.099681
 31
0.0
  0
LINE
  5
90
  8
0
  6
CONTINUOUS
 10
-0.003
 20
0.094587
 30
0.0
 11
-0.003
 21
0.055195
 31
0.0
  0
LINE
  5
91
  8
0
  6
CONTINUOUS
 10
-0.002443
 20
0.099747
 30
0.0
 11
-0.0025
 21
0.099747
 31
0.0
  0
LINE
  5
92
  8
0
  6
CONTINUOUS
 10
-0.003
 20
0.056685
 30
0.0
 11
-0.003599
 21
0.049347
 31
0.0
  0
LINE
  5
93
  8
0
  6
CONTINUOUS
 10
-0.003599
 20
0.049347
 30
0.0
 11
-0.004316
 21
0.044528
 31
0.0
  0
LINE
  5
94
  8
0
  6
CONTINUOUS
 10
-0.004828
 20
0.040075
 30
0.0
 11
-0.004847
 21
0.039766
 31
0.0
  0
LINE
  5
95
  8
0
  6
CONTINUOUS
 10
-0.004316
 20
0.044528
 30
0.0
 11
-0.004828
 21
0.040075
 31
0.0
  0
LINE
  5
96
  8
0
  6
CONTINUOUS
 10
-0.004979
 20
0.035119
 30
0.0
 11
-0.004989
 21
0.020449
 31
0.0
  0
LINE
  5
97
  8
0
  6
CONTINUOUS
 10
-0.004847
 20
0.039766
 30
0.0
 11
-0.004979
 21
0.035119
 31
0.0
  0
LINE
  5
98
  8
0
  6
CONTINUOUS
 10
-0.004989
 20
0.020449
 30
0.0
 11
-0.004972
 21
0.020125
 31
0.0
  0
LINE
  5
99
  8
0
  6
CONTINUOUS
 10
-0.004972
 20
0.020125
 30
0.0
 11
-0.004804
 21
0.019803
 31
0.0
  0
LINE
  5
9A
  8
0
  6
CONTINUOUS
 10
-0.002614
 20
0.018705
 30
0.0
 11
0.000018
 21
0.018705
 31
0.0
  0
LINE
  5
9B
  8
0
  6
CONTINUOUS
 10
-0.003007
 20
0.01874
 30
0.0
 11
-0.002918
 21
0.018723
 31
0.0
  0
LINE
  5
9C
  8
0
  6
CONTINUOUS
 10
-0.002918
 20
0.018723
 30
0.0
 11
-0.002812
 21
0.018712
 31
0.0
  0
LINE
  5
9D
  8
0
  6
CONTINUOUS
 10
-0.002812
 20
0.018712
 30
0.0
 11
-0.002675
 21
0.018705
 31
0.0
  0
LINE
  5
9E
  8
0
  6
CONTINUOUS
 10
-0.003704
 20
0.019017
 30
0.0
 11
-0.003007
 21
0.01874
 31
0.0
  0
LINE
  5
9F
  8
0
  6
CONTINUOUS
 10
-0.004804
 20
0.019803
 30
0.0
 11
-0.004656
 21
0.019641
 31
0.0
  0
LINE
  5
A0
  8
0
  6
CONTINUOUS
 10
-0.004656
 20
0.019641
 30
0.0
 11
-0.00428
 21
0.019325
 31
0.0
  0
LINE
  5
A1
  8
0
  6
CONTINUOUS
 10
-0.00428
 20
0.019325
 30
0.0
 11
-0.003704
 21
0.019017
 31
0.0
  0
LINE
  5
A2
  8
0
  6
CONTINUOUS
 10
0.000018
 20
0.099747
 30
0.0
 11
-0.002443
 21
0.099747
 31
0.0
  0
LINE
  5
A3
  8
0
  6
CONTINUOUS
 10
-0.002675
 20
0.018705
 30
0.0
 11
-0.002614
 21
0.018705
 31
0.0
  0
LINE
  5
A4
  8
0
  6
CONTINUOUS
 10
-0.003
 20
0.099221
 30
0.0
 11
-0.003
 21
0.098642
 31
0.0
  0
LINE
  5
A5
  8
0
  6
CONTINUOUS
 10
-0.003
 20
0.098642
 30
0.0
 11
-0.003
 21
0.098063
 31
0.0
  0
LINE
  5
A6
  8
0
  6
CONTINUOUS
 10
-0.019
 20
-0.049747
 30
0.0
 11
-0.019
 21
-0.092747
 31
0.0
  0
LINE
  5
A7
  8
0
  6
CONTINUOUS
 10
-0.019
 20
-0.006269
 30
0.0
 11
-0.019
 21
-0.026875
 31
0.0
  0
LINE
  5
A8
  8
0
  6
CONTINUOUS
 10
-0.019
 20
-0.026875
 30
0.0
 11
-0.019
 21
-0.050648
 31
0.0
  0
LINE
  5
A9
  8
0
  6
CONTINUOUS
 10
-0.008402
 20
-0.011665
 30
0.0
 11
-0.005517
 21
-0.012535
 31
0.0
  0
LINE
  5
AA
  8
0
  6
CONTINUOUS
 10
-0.011874
 20
-0.008379
 30
0.0
 11
-0.011188
 21
-0.009582
 31
0.0
  0
LINE
  5
AB
  8
0
  6
CONTINUOUS
 10
-0.011188
 20
-0.009582
 30
0.0
 11
-0.010056
 21
-0.010724
 31
0.0
  0
LINE
  5
AC
  8
0
  6
CONTINUOUS
 10
-0.010056
 20
-0.010724
 30
0.0
 11
-0.008402
 21
-0.011665
 31
0.0
  0
LINE
  5
AD
  8
0
  6
CONTINUOUS
 10
-0.01297
 20
-0.004552
 30
0.0
 11
-0.012821
 21
-0.005783
 31
0.0
  0
LINE
  5
AE
  8
0
  6
CONTINUOUS
 10
-0.012382
 20
-0.007005
 30
0.0
 11
-0.011874
 21
-0.008379
 31
0.0
  0
LINE
  5
AF
  8
0
  6
CONTINUOUS
 10
-0.012821
 20
-0.005783
 30
0.0
 11
-0.012382
 21
-0.007005
 31
0.0
  0
LINE
  5
B0
  8
0
  6
CONTINUOUS
 10
-0.013751
 20
0.015248
 30
0.0
 11
-0.014392
 21
0.015218
 31
0.0
  0
LINE
  5
B1
  8
0
  6
CONTINUOUS
 10
-0.013083
 20
-0.003463
 30
0.0
 11
-0.013063
 21
-0.003657
 31
0.0
  0
LINE
  5
B2
  8
0
  6
CONTINUOUS
 10
-0.018823
 20
0.015253
 30
0.0
 11
-0.018994
 21
0.015253
 31
0.0
  0
LINE
  5
B3
  8
0
  6
CONTINUOUS
 10
-0.016954
 20
0.015253
 30
0.0
 11
-0.017849
 21
0.015253
 31
0.0
  0
LINE
  5
B4
  8
0
  6
CONTINUOUS
 10
-0.017849
 20
0.015253
 30
0.0
 11
-0.018823
 21
0.015253
 31
0.0
  0
LINE
  5
B5
  8
0
  6
CONTINUOUS
 10
0.0
 20
0.015253
 30
0.0
 11
-0.016433
 21
0.015253
 31
0.0
  0
LINE
  5
B6
  8
0
  6
CONTINUOUS
 10
0.0
 20
0.015248
 30
0.0
 11
-0.013329
 21
0.015248
 31
0.0
  0
LINE
  5
B7
  8
0
  6
CONTINUOUS
 10
-0.013282
 20
0.012481
 30
0.0
 11
-0.013265
 21
0.008963
 31
0.0
  0
LINE
  5
B8
  8
0
  6
CONTINUOUS
 10
-0.013265
 20
0.008963
 30
0.0
 11
-0.013201
 21
0.004294
 31
0.0
  0
LINE
  5
B9
  8
0
  6
CONTINUOUS
 10
-0.016433
 20
0.015253
 30
0.0
 11
-0.016954
 21
0.015253
 31
0.0
  0
LINE
  5
BA
  8
0
  6
CONTINUOUS
 10
-0.013201
 20
0.004294
 30
0.0
 11
-0.013083
 21
-0.003463
 31
0.0
  0
LINE
  5
BB
  8
0
  6
CONTINUOUS
 10
-0.013329
 20
0.015248
 30
0.0
 11
-0.013751
 21
0.015248
 31
0.0
  0
LINE
  5
BC
  8
0
  6
CONTINUOUS
 10
-0.013063
 20
-0.003657
 30
0.0
 11
-0.01297
 21
-0.004552
 31
0.0
  0
LINE
  5
BD
  8
0
  6
CONTINUOUS
 10
-0.019
 20
0.015253
 30
0.0
 11
-0.019
 21
0.015007
 31
0.0
  0
LINE
  5
BE
  8
0
  6
CONTINUOUS
 10
-0.019
 20
0.015007
 30
0.0
 11
-0.019
 21
0.01271
 31
0.0
  0
LINE
  5
BF
  8
0
  6
CONTINUOUS
 10
-0.019
 20
0.005429
 30
0.0
 11
-0.019
 21
-0.006269
 31
0.0
  0
LINE
  5
C0
  8
0
  6
CONTINUOUS
 10
-0.019
 20
0.01271
 30
0.0
 11
-0.019
 21
0.005429
 31
0.0
  0
LINE
  5
C1
  8
0
  6
CONTINUOUS
 10
0.019
 20
-0.092747
 30
0.0
 11
0.019
 21
-0.049747
 31
0.0
  0
LINE
  5
C2
  8
0
  6
CONTINUOUS
 10
0.019
 20
-0.026875
 30
0.0
 11
0.019
 21
-0.006269
 31
0.0
  0
LINE
  5
C3
  8
0
  6
CONTINUOUS
 10
0.019
 20
-0.050648
 30
0.0
 11
0.019
 21
-0.026875
 31
0.0
  0
LINE
  5
C4
  8
0
  6
CONTINUOUS
 10
0.005517
 20
-0.012535
 30
0.0
 11
0.008402
 21
-0.011665
 31
0.0
  0
LINE
  5
C5
  8
0
  6
CONTINUOUS
 10
0.011188
 20
-0.009582
 30
0.0
 11
0.011874
 21
-0.008379
 31
0.0
  0
LINE
  5
C6
  8
0
  6
CONTINUOUS
 10
0.010056
 20
-0.010724
 30
0.0
 11
0.011188
 21
-0.009582
 31
0.0
  0
LINE
  5
C7
  8
0
  6
CONTINUOUS
 10
0.008402
 20
-0.011665
 30
0.0
 11
0.010056
 21
-0.010724
 31
0.0
  0
LINE
  5
C8
  8
0
  6
CONTINUOUS
 10
0.012821
 20
-0.005783
 30
0.0
 11
0.01297
 21
-0.004552
 31
0.0
  0
LINE
  5
C9
  8
0
  6
CONTINUOUS
 10
0.012382
 20
-0.007005
 30
0.0
 11
0.012821
 21
-0.005783
 31
0.0
  0
LINE
  5
CA
  8
0
  6
CONTINUOUS
 10
0.011874
 20
-0.008379
 30
0.0
 11
0.012382
 21
-0.007005
 31
0.0
  0
LINE
  5
CB
  8
0
  6
CONTINUOUS
 10
0.014392
 20
0.015218
 30
0.0
 11
0.013751
 21
0.015248
 31
0.0
  0
LINE
  5
CC
  8
0
  6
CONTINUOUS
 10
0.013063
 20
-0.003657
 30
0.0
 11
0.013083
 21
-0.003463
 31
0.0
  0
LINE
  5
CD
  8
0
  6
CONTINUOUS
 10
0.018994
 20
0.015253
 30
0.0
 11
0.018823
 21
0.015253
 31
0.0
  0
LINE
  5
CE
  8
0
  6
CONTINUOUS
 10
0.017849
 20
0.015253
 30
0.0
 11
0.016954
 21
0.015253
 31
0.0
  0
LINE
  5
CF
  8
0
  6
CONTINUOUS
 10
0.018823
 20
0.015253
 30
0.0
 11
0.017849
 21
0.015253
 31
0.0
  0
LINE
  5
D0
  8
0
  6
CONTINUOUS
 10
0.016433
 20
0.015253
 30
0.0
 11
0.0
 21
0.015253
 31
0.0
  0
LINE
  5
D1
  8
0
  6
CONTINUOUS
 10
0.013329
 20
0.015248
 30
0.0
 11
0.0
 21
0.015248
 31
0.0
  0
LINE
  5
D2
  8
0
  6
CONTINUOUS
 10
0.013265
 20
0.008963
 30
0.0
 11
0.013281
 21
0.012481
 31
0.0
  0
LINE
  5
D3
  8
0
  6
CONTINUOUS
 10
0.013201
 20
0.004294
 30
0.0
 11
0.013265
 21
0.008963
 31
0.0
  0
LINE
  5
D4
  8
0
  6
CONTINUOUS
 10
0.016954
 20
0.015253
 30
0.0
 11
0.016433
 21
0.015253
 31
0.0
  0
LINE
  5
D5
  8
0
  6
CONTINUOUS
 10
0.013083
 20
-0.003463
 30
0.0
 11
0.013201
 21
0.004294
 31
0.0
  0
LINE
  5
D6
  8
0
  6
CONTINUOUS
 10
0.013751
 20
0.015248
 30
0.0
 11
0.013329
 21
0.015248
 31
0.0
  0
LINE
  5
D7
  8
0
  6
CONTINUOUS
 10
0.01297
 20
-0.004552
 30
0.0
 11
0.013063
 21
-0.003657
 31
0.0
  0
LINE
  5
D8
  8
0
  6
CONTINUOUS
 10
0.019
 20
0.015007
 30
0.0
 11
0.019
 21
0.015253
 31
0.0
  0
LINE
  5
D9
  8
0
  6
CONTINUOUS
 10
0.019
 20
0.01271
 30
0.0
 11
0.019
 21
0.015007
 31
0.0
  0
LINE
  5
DA
  8
0
  6
CONTINUOUS
 10
0.019
 20
-0.006269
 30
0.0
 11
0.019
 21
0.005429
 31
0.0
  0
LINE
  5
DB
  8
0
  6
CONTINUOUS
 10
0.019
 20
0.005429
 30
0.0
 11
0.019
 21
0.01271
 31
0.0
  0
LINE
  5
DC
  8
0
  6
CONTINUOUS
 10
-0.002976
 20
-0.012921
 30
0.0
 11
0.0
 21
-0.012995
 31
0.0
  0
LINE
  5
DD
  8
0
  6
CONTINUOUS
 10
-0.005517
 20
-0.012535
 30
0.0
 11
-0.002976
 21
-0.012921
 31
0.0
  0
LINE
  5
DE
  8
0
  6
CONTINUOUS
 10
0.0
 20
-0.012995
 30
0.0
 11
0.002976
 21
-0.012921
 31
0.0
  0
LINE
  5
DF
  8
0
  6
CONTINUOUS
 10
0.002976
 20
-0.012921
 30
0.0
 11
0.005517
 21
-0.012535
 31
0.0
  0
LINE
  5
E0
  8
0
  6
CONTINUOUS
 10
-0.008704
 20
-0.009715
 30
0.0
 11
-0.008278
 21
-0.008772
 31
0.0
  0
LINE
  5
E1
  8
0
  6
CONTINUOUS
 10
-0.008278
 20
-0.008772
 30
0.0
 11
-0.007042
 21
-0.007921
 31
0.0
  0
LINE
  5
E2
  8
0
  6
CONTINUOUS
 10
-0.007042
 20
-0.007921
 30
0.0
 11
-0.005116
 21
-0.007246
 31
0.0
  0
LINE
  5
E3
  8
0
  6
CONTINUOUS
 10
-0.005116
 20
-0.007246
 30
0.0
 11
-0.00269
 21
-0.006812
 31
0.0
  0
LINE
  5
E4
  8
0
  6
CONTINUOUS
 10
-0.00269
 20
-0.006812
 30
0.0
 11
0.0
 21
-0.006663
 31
0.0
  0
LINE
  5
E5
  8
0
  6
CONTINUOUS
 10
0.008278
 20
-0.008772
 30
0.0
 11
0.008704
 21
-0.009715
 31
0.0
  0
LINE
  5
E6
  8
0
  6
CONTINUOUS
 10
0.007042
 20
-0.007921
 30
0.0
 11
0.008278
 21
-0.008772
 31
0.0
  0
LINE
  5
E7
  8
0
  6
CONTINUOUS
 10
0.005116
 20
-0.007246
 30
0.0
 11
0.007042
 21
-0.007921
 31
0.0
  0
LINE
  5
E8
  8
0
  6
CONTINUOUS
 10
0.00269
 20
-0.006812
 30
0.0
 11
0.005116
 21
-0.007246
 31
0.0
  0
LINE
  5
E9
  8
0
  6
CONTINUOUS
 10
0.0
 20
-0.006663
 30
0.0
 11
0.00269
 21
-0.006812
 31
0.0
  0
LINE
  5
2B9
  8
0
  6
CONTINUOUS
 10
0.030237
 20
0.3423772699736575
 30
0.0
 11
0.030237
 21
0.3626272699736575
 31
0.0
  0
LINE
  5
2BA
  8
0
  6
CONTINUOUS
 10
-0.023336
 20
0.3721252699736575
 30
0.0
 11
-0.02612
 21
0.3707072699736575
 31
0.0
  0
LINE
  5
2BB
  8
0
  6
CONTINUOUS
 10
-0.02025
 20
0.3121412699736576
 30
0.0
 11
-0.017755
 21
0.3121412699736576
 31
0.0
  0
LINE
  5
2BC
  8
0
  6
CONTINUOUS
 10
-0.02025
 20
0.3726142699736576
 30
0.0
 11
-0.023336
 21
0.3721252699736575
 31
0.0
  0
LINE
  5
2BD
  8
0
  6
CONTINUOUS
 10
-0.030237
 20
0.3626272699736575
 30
0.0
 11
-0.030237
 21
0.3423772699736575
 31
0.0
  0
LINE
  5
2BE
  8
0
  6
CONTINUOUS
 10
0.029748
 20
0.3657132699736576
 30
0.0
 11
0.028329
 21
0.3684972699736575
 31
0.0
  0
LINE
  5
2BF
  8
0
  6
CONTINUOUS
 10
-0.028329
 20
0.3684972699736575
 30
0.0
 11
-0.029748
 21
0.3657132699736576
 31
0.0
  0
LINE
  5
2C0
  8
0
  6
CONTINUOUS
 10
0.02612
 20
0.3140482699736575
 30
0.0
 11
0.028329
 21
0.3162572699736575
 31
0.0
  0
LINE
  5
2C1
  8
0
  6
CONTINUOUS
 10
0.028329
 20
0.3684972699736575
 30
0.0
 11
0.02612
 21
0.3707072699736575
 31
0.0
  0
LINE
  5
2C2
  8
0
  6
CONTINUOUS
 10
0.02025
 20
0.3726142699736576
 30
0.0
 11
0.0
 21
0.3726142699736576
 31
0.0
  0
LINE
  5
2C3
  8
0
  6
CONTINUOUS
 10
0.017755
 20
0.3121412699736576
 30
0.0
 11
0.02025
 21
0.3121412699736576
 31
0.0
  0
LINE
  5
2C4
  8
0
  6
CONTINUOUS
 10
0.029748
 20
0.3190412699736576
 30
0.0
 11
0.030237
 21
0.3221272699736575
 31
0.0
  0
LINE
  5
2C5
  8
0
  6
CONTINUOUS
 10
0.023336
 20
0.3721252699736575
 30
0.0
 11
0.02025
 21
0.3726142699736576
 31
0.0
  0
LINE
  5
2C6
  8
0
  6
CONTINUOUS
 10
-0.02612
 20
0.3140482699736575
 30
0.0
 11
-0.023336
 21
0.3126302699736576
 31
0.0
  0
LINE
  5
2C7
  8
0
  6
CONTINUOUS
 10
-0.02612
 20
0.3707072699736575
 30
0.0
 11
-0.028329
 21
0.3684972699736575
 31
0.0
  0
LINE
  5
2C8
  8
0
  6
CONTINUOUS
 10
0.0
 20
0.3726142699736576
 30
0.0
 11
-0.02025
 21
0.3726142699736576
 31
0.0
  0
LINE
  5
2C9
  8
0
  6
CONTINUOUS
 10
-0.024849
 20
0.3318182699736575
 30
0.0
 11
-0.022312
 21
0.3271722699736576
 31
0.0
  0
LINE
  5
2CA
  8
0
  6
CONTINUOUS
 10
0.026528
 20
0.3373522699736575
 30
0.0
 11
0.026999
 21
0.3426242699736576
 31
0.0
  0
LINE
  5
2CB
  8
0
  6
CONTINUOUS
 10
-0.022312
 20
0.3271722699736576
 30
0.0
 11
-0.018917
 21
0.3231122699736575
 31
0.0
  0
LINE
  5
2CC
  8
0
  6
CONTINUOUS
 10
-0.022585
 20
0.3571732699736576
 30
0.0
 11
-0.025038
 21
0.3524822699736576
 31
0.0
  0
LINE
  5
2CD
  8
0
  6
CONTINUOUS
 10
-0.015205
 20
0.3646902699736576
 30
0.0
 11
-0.019266
 21
0.3612942699736576
 31
0.0
  0
LINE
  5
2CE
  8
0
  6
CONTINUOUS
 10
0.022586
 20
0.3275832699736576
 30
0.0
 11
0.025038
 21
0.3322732699736576
 31
0.0
  0
LINE
  5
2CF
  8
0
  6
CONTINUOUS
 10
0.025038
 20
0.3322732699736576
 30
0.0
 11
0.026528
 21
0.3373522699736575
 31
0.0
  0
LINE
  5
2D0
  8
0
  6
CONTINUOUS
 10
0.026432
 20
0.3478862699736576
 30
0.0
 11
0.024849
 21
0.3529372699736575
 31
0.0
  0
LINE
  5
2D1
  8
0
  6
CONTINUOUS
 10
0.026999
 20
0.3426242699736576
 30
0.0
 11
0.026432
 21
0.3478862699736576
 31
0.0
  0
LINE
  5
2D2
  8
0
  6
CONTINUOUS
 10
0.022312
 20
0.3575822699736575
 30
0.0
 11
0.018917
 21
0.3616432699736575
 31
0.0
  0
LINE
  5
2D3
  8
0
  6
CONTINUOUS
 10
0.018917
 20
0.3616432699736575
 30
0.0
 11
0.014795
 21
0.3649632699736575
 31
0.0
  0
LINE
  5
2D4
  8
0
  6
CONTINUOUS
 10
0.005026
 20
0.3689062699736576
 30
0.0
 11
-0.000247
 21
0.3693762699736575
 31
0.0
  0
LINE
  5
2D5
  8
0
  6
CONTINUOUS
 10
-0.010559
 20
0.3672262699736575
 30
0.0
 11
-0.015205
 21
0.3646902699736576
 31
0.0
  0
LINE
  5
2D6
  8
0
  6
CONTINUOUS
 10
-0.000247
 20
0.3693762699736575
 30
0.0
 11
-0.005509
 21
0.3688092699736575
 31
0.0
  0
LINE
  5
2D7
  8
0
  6
CONTINUOUS
 10
-0.026528
 20
0.3474032699736576
 30
0.0
 11
-0.026999
 21
0.3421312699736576
 31
0.0
  0
LINE
  5
2D8
  8
0
  6
CONTINUOUS
 10
-0.025038
 20
0.3524822699736576
 30
0.0
 11
-0.026528
 21
0.3474032699736576
 31
0.0
  0
LINE
  5
2D9
  8
0
  6
CONTINUOUS
 10
0.02612
 20
0.3707072699736575
 30
0.0
 11
0.023336
 21
0.3721252699736575
 31
0.0
  0
LINE
  5
2DA
  8
0
  6
CONTINUOUS
 10
-0.030237
 20
0.3221272699736575
 30
0.0
 11
-0.029748
 21
0.3190412699736576
 31
0.0
  0
LINE
  5
2DB
  8
0
  6
CONTINUOUS
 10
-0.030237
 20
0.3423772699736575
 30
0.0
 11
-0.030237
 21
0.3221272699736575
 31
0.0
  0
LINE
  5
2DC
  8
0
  6
CONTINUOUS
 10
0.023336
 20
0.3126302699736576
 30
0.0
 11
0.02612
 21
0.3140482699736575
 31
0.0
  0
LINE
  5
2DD
  8
0
  6
CONTINUOUS
 10
0.030237
 20
0.3626272699736575
 30
0.0
 11
0.029748
 21
0.3657132699736576
 31
0.0
  0
LINE
  5
2DE
  8
0
  6
CONTINUOUS
 10
-0.029748
 20
0.3657132699736576
 30
0.0
 11
-0.030237
 21
0.3626272699736575
 31
0.0
  0
LINE
  5
2DF
  8
0
  6
CONTINUOUS
 10
-0.029748
 20
0.3190412699736576
 30
0.0
 11
-0.028329
 21
0.3162572699736575
 31
0.0
  0
LINE
  5
2E0
  8
0
  6
CONTINUOUS
 10
0.02025
 20
0.3121412699736576
 30
0.0
 11
0.023336
 21
0.3126302699736576
 31
0.0
  0
LINE
  5
2E1
  8
0
  6
CONTINUOUS
 10
-0.028329
 20
0.3162572699736575
 30
0.0
 11
-0.02612
 21
0.3140482699736575
 31
0.0
  0
LINE
  5
2E2
  8
0
  6
CONTINUOUS
 10
-0.023336
 20
0.3126302699736576
 30
0.0
 11
-0.02025
 21
0.3121412699736576
 31
0.0
  0
LINE
  5
2E3
  8
0
  6
CONTINUOUS
 10
0.028329
 20
0.3162572699736575
 30
0.0
 11
0.029748
 21
0.3190412699736576
 31
0.0
  0
LINE
  5
2E4
  8
0
  6
CONTINUOUS
 10
0.030237
 20
0.3221272699736575
 30
0.0
 11
0.030237
 21
0.3423772699736575
 31
0.0
  0
LINE
  5
2E5
  8
0
  6
CONTINUOUS
 10
-0.002394
 20
0.3525602699736575
 30
0.0
 11
0.000344
 21
0.3529212699736575
 31
0.0
  0
LINE
  5
2E6
  8
0
  6
CONTINUOUS
 10
-0.004945
 20
0.3515042699736575
 30
0.0
 11
-0.002394
 21
0.3525602699736575
 31
0.0
  0
LINE
  5
2E7
  8
0
  6
CONTINUOUS
 10
-0.007135
 20
0.3498232699736575
 30
0.0
 11
-0.004945
 21
0.3515042699736575
 31
0.0
  0
LINE
  5
2E8
  8
0
  6
CONTINUOUS
 10
-0.008816
 20
0.3476322699736575
 30
0.0
 11
-0.007135
 21
0.3498232699736575
 31
0.0
  0
LINE
  5
2E9
  8
0
  6
CONTINUOUS
 10
-0.009873
 20
0.3450812699736575
 30
0.0
 11
-0.008816
 21
0.3476322699736575
 31
0.0
  0
LINE
  5
2EA
  8
0
  6
CONTINUOUS
 10
-0.010233
 20
0.3423442699736575
 30
0.0
 11
-0.009873
 21
0.3450812699736575
 31
0.0
  0
LINE
  5
2EB
  8
0
  6
CONTINUOUS
 10
-0.009873
 20
0.3396062699736575
 30
0.0
 11
-0.010233
 21
0.3423442699736575
 31
0.0
  0
LINE
  5
2EC
  8
0
  6
CONTINUOUS
 10
-0.008816
 20
0.3370552699736575
 30
0.0
 11
-0.009873
 21
0.3396062699736575
 31
0.0
  0
LINE
  5
2ED
  8
0
  6
CONTINUOUS
 10
-0.007135
 20
0.3348652699736575
 30
0.0
 11
-0.008816
 21
0.3370552699736575
 31
0.0
  0
LINE
  5
2EE
  8
0
  6
CONTINUOUS
 10
-0.004945
 20
0.3331842699736576
 30
0.0
 11
-0.007135
 21
0.3348652699736575
 31
0.0
  0
LINE
  5
2EF
  8
0
  6
CONTINUOUS
 10
0.005632
 20
0.3331842699736576
 30
0.0
 11
0.003081
 21
0.3321272699736575
 31
0.0
  0
LINE
  5
2F0
  8
0
  6
CONTINUOUS
 10
0.007822
 20
0.3348652699736575
 30
0.0
 11
0.005632
 21
0.3331842699736576
 31
0.0
  0
LINE
  5
2F1
  8
0
  6
CONTINUOUS
 10
0.009503
 20
0.3370552699736575
 30
0.0
 11
0.007822
 21
0.3348652699736575
 31
0.0
  0
LINE
  5
2F2
  8
0
  6
CONTINUOUS
 10
0.01056
 20
0.3396062699736575
 30
0.0
 11
0.009503
 21
0.3370552699736575
 31
0.0
  0
LINE
  5
2F3
  8
0
  6
CONTINUOUS
 10
0.01092
 20
0.3423442699736575
 30
0.0
 11
0.01056
 21
0.3396062699736575
 31
0.0
  0
LINE
  5
2F4
  8
0
  6
CONTINUOUS
 10
0.01056
 20
0.3450812699736575
 30
0.0
 11
0.01092
 21
0.3423442699736575
 31
0.0
  0
LINE
  5
2F5
  8
0
  6
CONTINUOUS
 10
0.009503
 20
0.3476322699736575
 30
0.0
 11
0.01056
 21
0.3450812699736575
 31
0.0
  0
LINE
  5
2F6
  8
0
  6
CONTINUOUS
 10
0.007822
 20
0.3498232699736575
 30
0.0
 11
0.009503
 21
0.3476322699736575
 31
0.0
  0
LINE
  5
2F7
  8
0
  6
CONTINUOUS
 10
0.005632
 20
0.3515042699736575
 30
0.0
 11
0.007822
 21
0.3498232699736575
 31
0.0
  0
LINE
  5
2F8
  8
0
  6
CONTINUOUS
 10
0.003081
 20
0.3525602699736575
 30
0.0
 11
0.005632
 21
0.3515042699736575
 31
0.0
  0
LINE
  5
2F9
  8
0
  6
CONTINUOUS
 10
0.000344
 20
0.3529212699736575
 30
0.0
 11
0.003081
 21
0.3525602699736575
 31
0.0
  0
LINE
  5
2FA
  8
0
  6
CONTINUOUS
 10
0.000344
 20
0.3525662699736575
 30
0.0
 11
-0.002302
 21
0.3522172699736576
 31
0.0
  0
LINE
  5
2FB
  8
0
  6
CONTINUOUS
 10
-0.002302
 20
0.3522172699736576
 30
0.0
 11
-0.004767
 21
0.3511962699736575
 31
0.0
  0
LINE
  5
2FC
  8
0
  6
CONTINUOUS
 10
-0.004767
 20
0.3511962699736575
 30
0.0
 11
-0.006884
 21
0.3495722699736575
 31
0.0
  0
LINE
  5
2FD
  8
0
  6
CONTINUOUS
 10
-0.006884
 20
0.3495722699736575
 30
0.0
 11
-0.008509
 21
0.3474552699736575
 31
0.0
  0
LINE
  5
2FE
  8
0
  6
CONTINUOUS
 10
-0.008509
 20
0.3474552699736575
 30
0.0
 11
-0.00953
 21
0.3449892699736575
 31
0.0
  0
LINE
  5
2FF
  8
0
  6
CONTINUOUS
 10
-0.00953
 20
0.3449892699736575
 30
0.0
 11
-0.009878
 21
0.3423442699736575
 31
0.0
  0
LINE
  5
300
  8
0
  6
CONTINUOUS
 10
-0.009878
 20
0.3423442699736575
 30
0.0
 11
-0.00953
 21
0.3396982699736575
 31
0.0
  0
LINE
  5
301
  8
0
  6
CONTINUOUS
 10
-0.00953
 20
0.3396982699736575
 30
0.0
 11
-0.008509
 21
0.3372332699736575
 31
0.0
  0
LINE
  5
302
  8
0
  6
CONTINUOUS
 10
-0.008509
 20
0.3372332699736575
 30
0.0
 11
-0.006884
 21
0.3351162699736575
 31
0.0
  0
LINE
  5
303
  8
0
  6
CONTINUOUS
 10
-0.006884
 20
0.3351162699736575
 30
0.0
 11
-0.004767
 21
0.3334922699736575
 31
0.0
  0
LINE
  5
304
  8
0
  6
CONTINUOUS
 10
0.005454
 20
0.3334922699736575
 30
0.0
 11
0.007571
 21
0.3351162699736575
 31
0.0
  0
LINE
  5
305
  8
0
  6
CONTINUOUS
 10
0.007571
 20
0.3351162699736575
 30
0.0
 11
0.009196
 21
0.3372332699736575
 31
0.0
  0
LINE
  5
306
  8
0
  6
CONTINUOUS
 10
0.009196
 20
0.3372332699736575
 30
0.0
 11
0.010217
 21
0.3396982699736575
 31
0.0
  0
LINE
  5
307
  8
0
  6
CONTINUOUS
 10
0.010217
 20
0.3396982699736575
 30
0.0
 11
0.010565
 21
0.3423442699736575
 31
0.0
  0
LINE
  5
308
  8
0
  6
CONTINUOUS
 10
0.010565
 20
0.3423442699736575
 30
0.0
 11
0.010217
 21
0.3449892699736575
 31
0.0
  0
LINE
  5
309
  8
0
  6
CONTINUOUS
 10
0.010217
 20
0.3449892699736575
 30
0.0
 11
0.009196
 21
0.3474552699736575
 31
0.0
  0
LINE
  5
30A
  8
0
  6
CONTINUOUS
 10
0.009196
 20
0.3474552699736575
 30
0.0
 11
0.007571
 21
0.3495722699736575
 31
0.0
  0
LINE
  5
30B
  8
0
  6
CONTINUOUS
 10
0.007571
 20
0.3495722699736575
 30
0.0
 11
0.005454
 21
0.3511962699736575
 31
0.0
  0
LINE
  5
30C
  8
0
  6
CONTINUOUS
 10
0.005454
 20
0.3511962699736575
 30
0.0
 11
0.002989
 21
0.3522172699736576
 31
0.0
  0
LINE
  5
30D
  8
0
  6
CONTINUOUS
 10
0.002989
 20
0.3522172699736576
 30
0.0
 11
0.000344
 21
0.3525662699736575
 31
0.0
  0
LINE
  5
30E
  8
0
  6
CONTINUOUS
 10
-0.002179
 20
0.3517572699736575
 30
0.0
 11
0.000344
 21
0.3520892699736575
 31
0.0
  0
LINE
  5
30F
  8
0
  6
CONTINUOUS
 10
-0.004529
 20
0.3507832699736575
 30
0.0
 11
-0.002179
 21
0.3517572699736575
 31
0.0
  0
LINE
  5
310
  8
0
  6
CONTINUOUS
 10
-0.006547
 20
0.3492342699736575
 30
0.0
 11
-0.004529
 21
0.3507832699736575
 31
0.0
  0
LINE
  5
311
  8
0
  6
CONTINUOUS
 10
-0.008096
 20
0.3472162699736575
 30
0.0
 11
-0.006547
 21
0.3492342699736575
 31
0.0
  0
LINE
  5
312
  8
0
  6
CONTINUOUS
 10
-0.009069
 20
0.3448662699736575
 30
0.0
 11
-0.008096
 21
0.3472162699736575
 31
0.0
  0
LINE
  5
313
  8
0
  6
CONTINUOUS
 10
-0.009401
 20
0.3423442699736575
 30
0.0
 11
-0.009069
 21
0.3448662699736575
 31
0.0
  0
LINE
  5
314
  8
0
  6
CONTINUOUS
 10
-0.009069
 20
0.3398222699736575
 30
0.0
 11
-0.009401
 21
0.3423442699736575
 31
0.0
  0
LINE
  5
315
  8
0
  6
CONTINUOUS
 10
-0.008096
 20
0.3374712699736575
 30
0.0
 11
-0.009069
 21
0.3398222699736575
 31
0.0
  0
LINE
  5
316
  8
0
  6
CONTINUOUS
 10
-0.006547
 20
0.3354532699736575
 30
0.0
 11
-0.008096
 21
0.3374712699736575
 31
0.0
  0
LINE
  5
317
  8
0
  6
CONTINUOUS
 10
-0.004529
 20
0.3339052699736575
 30
0.0
 11
-0.006547
 21
0.3354532699736575
 31
0.0
  0
LINE
  5
318
  8
0
  6
CONTINUOUS
 10
0.007234
 20
0.3354532699736575
 30
0.0
 11
0.005216
 21
0.3339052699736575
 31
0.0
  0
LINE
  5
319
  8
0
  6
CONTINUOUS
 10
0.008783
 20
0.3374712699736575
 30
0.0
 11
0.007234
 21
0.3354532699736575
 31
0.0
  0
LINE
  5
31A
  8
0
  6
CONTINUOUS
 10
0.009756
 20
0.3398222699736575
 30
0.0
 11
0.008783
 21
0.3374712699736575
 31
0.0
  0
LINE
  5
31B
  8
0
  6
CONTINUOUS
 10
0.010088
 20
0.3423442699736575
 30
0.0
 11
0.009756
 21
0.3398222699736575
 31
0.0
  0
LINE
  5
31C
  8
0
  6
CONTINUOUS
 10
0.009756
 20
0.3448662699736575
 30
0.0
 11
0.010088
 21
0.3423442699736575
 31
0.0
  0
LINE
  5
31D
  8
0
  6
CONTINUOUS
 10
0.008783
 20
0.3472162699736575
 30
0.0
 11
0.009756
 21
0.3448662699736575
 31
0.0
  0
LINE
  5
31E
  8
0
  6
CONTINUOUS
 10
0.007234
 20
0.3492342699736575
 30
0.0
 11
0.008783
 21
0.3472162699736575
 31
0.0
  0
LINE
  5
31F
  8
0
  6
CONTINUOUS
 10
0.005216
 20
0.3507832699736575
 30
0.0
 11
0.007234
 21
0.3492342699736575
 31
0.0
  0
LINE
  5
320
  8
0
  6
CONTINUOUS
 10
0.002866
 20
0.3517572699736575
 30
0.0
 11
0.005216
 21
0.3507832699736575
 31
0.0
  0
LINE
  5
321
  8
0
  6
CONTINUOUS
 10
0.000344
 20
0.3520892699736575
 30
0.0
 11
0.002866
 21
0.3517572699736575
 31
0.0
  0
LINE
  5
322
  8
0
  6
CONTINUOUS
 10
0.003036
 20
0.3208432699736575
 30
0.0
 11
0.003036
 21
0.3212202699736575
 31
0.0
  0
LINE
  5
323
  8
0
  6
CONTINUOUS
 10
0.002536
 20
0.3198252699736575
 30
0.0
 11
0.002786
 21
0.3198922699736575
 31
0.0
  0
LINE
  5
324
  8
0
  6
CONTINUOUS
 10
0.003036
 20
0.3330092699736575
 30
0.0
 11
0.003036
 21
0.3335102699736575
 31
0.0
  0
LINE
  5
325
  8
0
  6
CONTINUOUS
 10
0.003036
 20
0.3351232699736575
 30
0.0
 11
0.003036
 21
0.3420722699736575
 31
0.0
  0
LINE
  5
326
  8
0
  6
CONTINUOUS
 10
0.003036
 20
0.3223792699736575
 30
0.0
 11
0.003036
 21
0.3256622699736575
 31
0.0
  0
LINE
  5
327
  8
0
  6
CONTINUOUS
 10
0.003036
 20
0.3216392699736575
 30
0.0
 11
0.003036
 21
0.3223792699736575
 31
0.0
  0
LINE
  5
328
  8
0
  6
CONTINUOUS
 10
0.003036
 20
0.3212202699736575
 30
0.0
 11
0.003036
 21
0.3216392699736575
 31
0.0
  0
LINE
  5
329
  8
0
  6
CONTINUOUS
 10
0.003036
 20
0.3205662699736576
 30
0.0
 11
0.003036
 21
0.3208432699736575
 31
0.0
  0
LINE
  5
32A
  8
0
  6
CONTINUOUS
 10
0.002786
 20
0.3198922699736575
 30
0.0
 11
0.002969
 21
0.3200742699736575
 31
0.0
  0
LINE
  5
32B
  8
0
  6
CONTINUOUS
 10
0.003036
 20
0.3343982699736575
 30
0.0
 11
0.003036
 21
0.3348682699736575
 31
0.0
  0
LINE
  5
32C
  8
0
  6
CONTINUOUS
 10
0.003036
 20
0.3348682699736575
 30
0.0
 11
0.003036
 21
0.3351232699736575
 31
0.0
  0
LINE
  5
32D
  8
0
  6
CONTINUOUS
 10
0.003036
 20
0.3322272699736575
 30
0.0
 11
0.003036
 21
0.3330092699736575
 31
0.0
  0
LINE
  5
32E
  8
0
  6
CONTINUOUS
 10
0.003036
 20
0.3339842699736575
 30
0.0
 11
0.003036
 21
0.3343982699736575
 31
0.0
  0
LINE
  5
32F
  8
0
  6
CONTINUOUS
 10
0.002969
 20
0.3200742699736575
 30
0.0
 11
0.003036
 21
0.3203382699736576
 31
0.0
  0
LINE
  5
330
  8
0
  6
CONTINUOUS
 10
0.003036
 20
0.3203382699736576
 30
0.0
 11
0.003036
 21
0.3205662699736576
 31
0.0
  0
LINE
  5
331
  8
0
  6
CONTINUOUS
 10
0.002479
 20
0.3198252699736575
 30
0.0
 11
0.002536
 21
0.3198252699736575
 31
0.0
  0
LINE
  5
332
  8
0
  6
CONTINUOUS
 10
0.003036
 20
0.3335102699736575
 30
0.0
 11
0.003036
 21
0.3339842699736575
 31
0.0
  0
LINE
  5
333
  8
0
  6
CONTINUOUS
 10
0.003898
 20
0.3317082699736575
 30
0.0
 11
0.004396
 21
0.3333992699736576
 31
0.0
  0
LINE
  5
334
  8
0
  6
CONTINUOUS
 10
0.003664
 20
0.3310192699736576
 30
0.0
 11
0.003898
 21
0.3317082699736575
 31
0.0
  0
LINE
  5
335
  8
0
  6
CONTINUOUS
 10
0.004396
 20
0.3333992699736576
 30
0.0
 11
0.004723
 21
0.3351272699736576
 31
0.0
  0
LINE
  5
336
  8
0
  6
CONTINUOUS
 10
0.005025
 20
0.3403672699736575
 30
0.0
 11
0.00499
 21
0.3421922699736575
 31
0.0
  0
LINE
  5
337
  8
0
  6
CONTINUOUS
 10
0.005015
 20
0.3376662699736576
 30
0.0
 11
0.005025
 21
0.3403672699736575
 31
0.0
  0
LINE
  5
338
  8
0
  6
CONTINUOUS
 10
0.004753
 20
0.3440032699736575
 30
0.0
 11
0.004538
 21
0.3449622699736575
 31
0.0
  0
LINE
  5
339
  8
0
  6
CONTINUOUS
 10
0.003036
 20
0.3340532699736575
 30
0.0
 11
0.003036
 21
0.3323652699736575
 31
0.0
  0
LINE
  5
33A
  8
0
  6
CONTINUOUS
 10
0.004844
 20
0.3359062699736576
 30
0.0
 11
0.005015
 21
0.3376662699736576
 31
0.0
  0
LINE
  5
33B
  8
0
  6
CONTINUOUS
 10
0.004723
 20
0.3351272699736576
 30
0.0
 11
0.004844
 21
0.3359062699736576
 31
0.0
  0
LINE
  5
33C
  8
0
  6
CONTINUOUS
 10
0.00499
 20
0.3421922699736575
 30
0.0
 11
0.004753
 21
0.3440032699736575
 31
0.0
  0
LINE
  5
33D
  8
0
  6
CONTINUOUS
 10
0.003036
 20
0.3273012699736575
 30
0.0
 11
0.003319
 21
0.3302012699736575
 31
0.0
  0
LINE
  5
33E
  8
0
  6
CONTINUOUS
 10
0.003064
 20
0.3285132699736575
 30
0.0
 11
0.003664
 21
0.3310192699736576
 31
0.0
  0
LINE
  5
33F
  8
0
  6
CONTINUOUS
 10
0.004277
 20
0.3458332699736575
 30
0.0
 11
0.004058
 21
0.3464222699736576
 31
0.0
  0
LINE
  5
340
  8
0
  6
CONTINUOUS
 10
0.004058
 20
0.3464222699736576
 30
0.0
 11
0.003695
 21
0.3471862699736575
 31
0.0
  0
LINE
  5
341
  8
0
  6
CONTINUOUS
 10
0.003695
 20
0.3471862699736575
 30
0.0
 11
0.003444
 21
0.3476052699736575
 31
0.0
  0
LINE
  5
342
  8
0
  6
CONTINUOUS
 10
0.004538
 20
0.3449622699736575
 30
0.0
 11
0.004277
 21
0.3458332699736575
 31
0.0
  0
LINE
  5
343
  8
0
  6
CONTINUOUS
 10
0.003444
 20
0.3476052699736575
 30
0.0
 11
0.003258
 21
0.3478352699736575
 31
0.0
  0
LINE
  5
344
  8
0
  6
CONTINUOUS
 10
0.003179
 20
0.3479062699736575
 30
0.0
 11
0.003063
 21
0.3480412699736575
 31
0.0
  0
LINE
  5
345
  8
0
  6
CONTINUOUS
 10
0.003258
 20
0.3478352699736575
 30
0.0
 11
0.003179
 21
0.3479062699736575
 31
0.0
  0
LINE
  5
346
  8
0
  6
CONTINUOUS
 10
0.002756
 20
0.3481292699736576
 30
0.0
 11
0.002694
 21
0.3481292699736576
 31
0.0
  0
LINE
  5
347
  8
0
  6
CONTINUOUS
 10
0.000018
 20
0.3198252699736575
 30
0.0
 11
0.002479
 21
0.3198252699736575
 31
0.0
  0
LINE
  5
348
  8
0
  6
CONTINUOUS
 10
0.002694
 20
0.3481292699736576
 30
0.0
 11
0.000018
 21
0.3481292699736576
 31
0.0
  0
LINE
  5
349
  8
0
  6
CONTINUOUS
 10
0.003036
 20
0.3289442699736575
 30
0.0
 11
0.003036
 21
0.3322272699736575
 31
0.0
  0
LINE
  5
34A
  8
0
  6
CONTINUOUS
 10
0.003036
 20
0.3256622699736575
 30
0.0
 11
0.003036
 21
0.3289442699736575
 31
0.0
  0
LINE
  5
34B
  8
0
  6
CONTINUOUS
 10
-0.003
 20
0.3212202699736575
 30
0.0
 11
-0.003
 21
0.3208432699736575
 31
0.0
  0
LINE
  5
34C
  8
0
  6
CONTINUOUS
 10
-0.00275
 20
0.3198922699736575
 30
0.0
 11
-0.0025
 21
0.3198252699736575
 31
0.0
  0
LINE
  5
34D
  8
0
  6
CONTINUOUS
 10
-0.003
 20
0.3335102699736575
 30
0.0
 11
-0.003
 21
0.3330092699736575
 31
0.0
  0
LINE
  5
34E
  8
0
  6
CONTINUOUS
 10
-0.003
 20
0.3420722699736575
 30
0.0
 11
-0.003
 21
0.3351232699736575
 31
0.0
  0
LINE
  5
34F
  8
0
  6
CONTINUOUS
 10
-0.003
 20
0.3256622699736575
 30
0.0
 11
-0.003
 21
0.3223792699736575
 31
0.0
  0
LINE
  5
350
  8
0
  6
CONTINUOUS
 10
-0.003
 20
0.3223792699736575
 30
0.0
 11
-0.003
 21
0.3216392699736575
 31
0.0
  0
LINE
  5
351
  8
0
  6
CONTINUOUS
 10
-0.003
 20
0.3216392699736575
 30
0.0
 11
-0.003
 21
0.3212202699736575
 31
0.0
  0
LINE
  5
352
  8
0
  6
CONTINUOUS
 10
-0.003
 20
0.3208432699736575
 30
0.0
 11
-0.003
 21
0.3205662699736576
 31
0.0
  0
LINE
  5
353
  8
0
  6
CONTINUOUS
 10
-0.002933
 20
0.3200742699736575
 30
0.0
 11
-0.00275
 21
0.3198922699736575
 31
0.0
  0
LINE
  5
354
  8
0
  6
CONTINUOUS
 10
-0.003
 20
0.3348682699736575
 30
0.0
 11
-0.003
 21
0.3343982699736575
 31
0.0
  0
LINE
  5
355
  8
0
  6
CONTINUOUS
 10
-0.003
 20
0.3351232699736575
 30
0.0
 11
-0.003
 21
0.3348682699736575
 31
0.0
  0
LINE
  5
356
  8
0
  6
CONTINUOUS
 10
-0.003
 20
0.3330092699736575
 30
0.0
 11
-0.003
 21
0.3322272699736575
 31
0.0
  0
LINE
  5
357
  8
0
  6
CONTINUOUS
 10
-0.003
 20
0.3343982699736575
 30
0.0
 11
-0.003
 21
0.3339842699736575
 31
0.0
  0
LINE
  5
358
  8
0
  6
CONTINUOUS
 10
-0.003
 20
0.3205662699736576
 30
0.0
 11
-0.003
 21
0.3203382699736576
 31
0.0
  0
LINE
  5
359
  8
0
  6
CONTINUOUS
 10
-0.003
 20
0.3203382699736576
 30
0.0
 11
-0.002933
 21
0.3200742699736575
 31
0.0
  0
LINE
  5
35A
  8
0
  6
CONTINUOUS
 10
-0.0025
 20
0.3198252699736575
 30
0.0
 11
-0.002443
 21
0.3198252699736575
 31
0.0
  0
LINE
  5
35B
  8
0
  6
CONTINUOUS
 10
-0.003
 20
0.3339842699736575
 30
0.0
 11
-0.003
 21
0.3335102699736575
 31
0.0
  0
LINE
  5
35C
  8
0
  6
CONTINUOUS
 10
-0.003862
 20
0.3317082699736575
 30
0.0
 11
-0.003628
 21
0.3310192699736576
 31
0.0
  0
LINE
  5
35D
  8
0
  6
CONTINUOUS
 10
-0.00436
 20
0.3333992699736576
 30
0.0
 11
-0.003862
 21
0.3317082699736575
 31
0.0
  0
LINE
  5
35E
  8
0
  6
CONTINUOUS
 10
-0.004688
 20
0.3351272699736576
 30
0.0
 11
-0.00436
 21
0.3333992699736576
 31
0.0
  0
LINE
  5
35F
  8
0
  6
CONTINUOUS
 10
-0.004989
 20
0.3403672699736575
 30
0.0
 11
-0.004979
 21
0.3376662699736576
 31
0.0
  0
LINE
  5
360
  8
0
  6
CONTINUOUS
 10
-0.004954
 20
0.3421922699736575
 30
0.0
 11
-0.004989
 21
0.3403672699736575
 31
0.0
  0
LINE
  5
361
  8
0
  6
CONTINUOUS
 10
-0.004502
 20
0.3449622699736575
 30
0.0
 11
-0.004717
 21
0.3440032699736575
 31
0.0
  0
LINE
  5
362
  8
0
  6
CONTINUOUS
 10
-0.004808
 20
0.3359062699736576
 30
0.0
 11
-0.004688
 21
0.3351272699736576
 31
0.0
  0
LINE
  5
363
  8
0
  6
CONTINUOUS
 10
-0.004979
 20
0.3376662699736576
 30
0.0
 11
-0.004808
 21
0.3359062699736576
 31
0.0
  0
LINE
  5
364
  8
0
  6
CONTINUOUS
 10
-0.004717
 20
0.3440032699736575
 30
0.0
 11
-0.004954
 21
0.3421922699736575
 31
0.0
  0
LINE
  5
365
  8
0
  6
CONTINUOUS
 10
-0.003283
 20
0.3302012699736575
 30
0.0
 11
-0.003
 21
0.3273012699736575
 31
0.0
  0
LINE
  5
366
  8
0
  6
CONTINUOUS
 10
-0.003628
 20
0.3310192699736576
 30
0.0
 11
-0.003028
 21
0.3285132699736575
 31
0.0
  0
LINE
  5
367
  8
0
  6
CONTINUOUS
 10
-0.004022
 20
0.3464222699736576
 30
0.0
 11
-0.004242
 21
0.3458332699736575
 31
0.0
  0
LINE
  5
368
  8
0
  6
CONTINUOUS
 10
-0.003659
 20
0.3471862699736575
 30
0.0
 11
-0.004022
 21
0.3464222699736576
 31
0.0
  0
LINE
  5
369
  8
0
  6
CONTINUOUS
 10
-0.003408
 20
0.3476052699736575
 30
0.0
 11
-0.003659
 21
0.3471862699736575
 31
0.0
  0
LINE
  5
36A
  8
0
  6
CONTINUOUS
 10
-0.004242
 20
0.3458332699736575
 30
0.0
 11
-0.004502
 21
0.3449622699736575
 31
0.0
  0
LINE
  5
36B
  8
0
  6
CONTINUOUS
 10
-0.003222
 20
0.3478352699736575
 30
0.0
 11
-0.003408
 21
0.3476052699736575
 31
0.0
  0
LINE
  5
36C
  8
0
  6
CONTINUOUS
 10
-0.003027
 20
0.3480412699736575
 30
0.0
 11
-0.003143
 21
0.3479062699736575
 31
0.0
  0
LINE
  5
36D
  8
0
  6
CONTINUOUS
 10
-0.003143
 20
0.3479062699736575
 30
0.0
 11
-0.003222
 21
0.3478352699736575
 31
0.0
  0
LINE
  5
36E
  8
0
  6
CONTINUOUS
 10
-0.002659
 20
0.3481292699736576
 30
0.0
 11
-0.002721
 21
0.3481292699736576
 31
0.0
  0
LINE
  5
36F
  8
0
  6
CONTINUOUS
 10
-0.002443
 20
0.3198252699736575
 30
0.0
 11
0.000018
 21
0.3198252699736575
 31
0.0
  0
LINE
  5
370
  8
0
  6
CONTINUOUS
 10
0.000018
 20
0.3481292699736576
 30
0.0
 11
-0.002659
 21
0.3481292699736576
 31
0.0
  0
LINE
  5
371
  8
0
  6
CONTINUOUS
 10
-0.003
 20
0.3327602699736575
 30
0.0
 11
-0.003
 21
0.3332712699736575
 31
0.0
  0
LINE
  5
372
  8
0
  6
CONTINUOUS
 10
-0.003
 20
0.3322272699736575
 30
0.0
 11
-0.003
 21
0.3289442699736575
 31
0.0
  0
LINE
  5
373
  8
0
  6
CONTINUOUS
 10
-0.003
 20
0.3289442699736575
 30
0.0
 11
-0.003
 21
0.3256622699736575
 31
0.0
  0
LINE
  5
374
  8
0
  6
CONTINUOUS
 10
-0.018994
 20
0.3421472699736575
 30
0.0
 11
-0.018767
 21
0.3378802699736576
 31
0.0
  0
LINE
  5
375
  8
0
  6
CONTINUOUS
 10
-0.019
 20
0.3423772699736575
 30
0.0
 11
-0.018994
 21
0.3421472699736575
 31
0.0
  0
LINE
  5
376
  8
0
  6
CONTINUOUS
 10
-0.019
 20
0.3571312699736575
 30
0.0
 11
-0.019
 21
0.3423772699736575
 31
0.0
  0
LINE
  5
377
  8
0
  6
CONTINUOUS
 10
-0.009554
 20
0.1976622699736575
 30
0.0
 11
0.0
 21
0.1976622699736575
 31
0.0
  0
LINE
  5
378
  8
0
  6
CONTINUOUS
 10
-0.009857
 20
0.1976622699736575
 30
0.0
 11
-0.009554
 21
0.1976622699736575
 31
0.0
  0
LINE
  5
379
  8
0
  6
CONTINUOUS
 10
-0.01174
 20
0.1979122699736575
 30
0.0
 11
-0.009857
 21
0.1976622699736575
 31
0.0
  0
LINE
  5
37A
  8
0
  6
CONTINUOUS
 10
-0.013282
 20
0.2071892699736575
 30
0.0
 11
-0.013265
 21
0.2036862699736575
 31
0.0
  0
LINE
  5
37B
  8
0
  6
CONTINUOUS
 10
-0.017849
 20
0.3145082699736576
 30
0.0
 11
-0.016954
 21
0.2918492699736576
 31
0.0
  0
LINE
  5
37C
  8
0
  6
CONTINUOUS
 10
-0.013265
 20
0.2036862699736575
 30
0.0
 11
-0.013201
 21
0.2013172699736575
 31
0.0
  0
LINE
  5
37D
  8
0
  6
CONTINUOUS
 10
-0.014392
 20
0.2276142699736575
 30
0.0
 11
-0.013751
 21
0.2163092699736576
 31
0.0
  0
LINE
  5
37E
  8
0
  6
CONTINUOUS
 10
-0.016954
 20
0.2918492699736576
 30
0.0
 11
-0.014392
 21
0.2276142699736575
 31
0.0
  0
LINE
  5
37F
  8
0
  6
CONTINUOUS
 10
-0.013201
 20
0.2013172699736575
 30
0.0
 11
-0.013083
 21
0.1984942699736576
 31
0.0
  0
LINE
  5
380
  8
0
  6
CONTINUOUS
 10
-0.013751
 20
0.2163092699736576
 30
0.0
 11
-0.013472
 21
0.2112892699736575
 31
0.0
  0
LINE
  5
381
  8
0
  6
CONTINUOUS
 10
-0.013083
 20
0.1984942699736576
 30
0.0
 11
-0.01174
 21
0.1979122699736575
 31
0.0
  0
LINE
  5
382
  8
0
  6
CONTINUOUS
 10
-0.018823
 20
0.3371032699736575
 30
0.0
 11
-0.017849
 21
0.3145082699736576
 31
0.0
  0
LINE
  5
383
  8
0
  6
CONTINUOUS
 10
-0.013472
 20
0.2112892699736575
 30
0.0
 11
-0.013282
 21
0.2071892699736575
 31
0.0
  0
LINE
  5
384
  8
0
  6
CONTINUOUS
 10
-0.018963
 20
0.3485852699736576
 30
0.0
 11
-0.018823
 21
0.3371032699736575
 31
0.0
  0
LINE
  5
385
  8
0
  6
CONTINUOUS
 10
0.0
 20
0.3613772699736575
 30
0.0
 11
-0.018417
 21
0.3613772699736575
 31
0.0
  0
LINE
  5
386
  8
0
  6
CONTINUOUS
 10
-0.018417
 20
0.3613772699736575
 30
0.0
 11
-0.019
 21
0.3613772699736575
 31
0.0
  0
LINE
  5
387
  8
0
  6
CONTINUOUS
 10
-0.019
 20
0.3609662699736575
 30
0.0
 11
-0.019
 21
0.3571312699736575
 31
0.0
  0
LINE
  5
388
  8
0
  6
CONTINUOUS
 10
-0.019
 20
0.3571312699736575
 30
0.0
 11
-0.018963
 21
0.3485852699736576
 31
0.0
  0
LINE
  5
389
  8
0
  6
CONTINUOUS
 10
0.018767
 20
0.3378802699736576
 30
0.0
 11
0.018994
 21
0.3421472699736575
 31
0.0
  0
LINE
  5
38A
  8
0
  6
CONTINUOUS
 10
0.019
 20
0.3423772699736575
 30
0.0
 11
0.019
 21
0.3571312699736575
 31
0.0
  0
LINE
  5
38B
  8
0
  6
CONTINUOUS
 10
0.018994
 20
0.3421472699736575
 30
0.0
 11
0.019
 21
0.3423772699736575
 31
0.0
  0
LINE
  5
38C
  8
0
  6
CONTINUOUS
 10
0.0
 20
0.1976622699736575
 30
0.0
 11
0.009554
 21
0.1976622699736575
 31
0.0
  0
LINE
  5
38D
  8
0
  6
CONTINUOUS
 10
0.009857
 20
0.1976622699736575
 30
0.0
 11
0.01174
 21
0.1979122699736575
 31
0.0
  0
LINE
  5
38E
  8
0
  6
CONTINUOUS
 10
0.009554
 20
0.1976622699736575
 30
0.0
 11
0.009857
 21
0.1976622699736575
 31
0.0
  0
LINE
  5
38F
  8
0
  6
CONTINUOUS
 10
0.013265
 20
0.2036862699736575
 30
0.0
 11
0.013281
 21
0.2071892699736575
 31
0.0
  0
LINE
  5
390
  8
0
  6
CONTINUOUS
 10
0.016954
 20
0.2918492699736576
 30
0.0
 11
0.017849
 21
0.3145082699736576
 31
0.0
  0
LINE
  5
391
  8
0
  6
CONTINUOUS
 10
0.013201
 20
0.2013172699736575
 30
0.0
 11
0.013265
 21
0.2036862699736575
 31
0.0
  0
LINE
  5
392
  8
0
  6
CONTINUOUS
 10
0.013751
 20
0.2163092699736576
 30
0.0
 11
0.014392
 21
0.2276142699736575
 31
0.0
  0
LINE
  5
393
  8
0
  6
CONTINUOUS
 10
0.014392
 20
0.2276142699736575
 30
0.0
 11
0.016954
 21
0.2918492699736576
 31
0.0
  0
LINE
  5
394
  8
0
  6
CONTINUOUS
 10
0.013083
 20
0.1984942699736576
 30
0.0
 11
0.013201
 21
0.2013172699736575
 31
0.0
  0
LINE
  5
395
  8
0
  6
CONTINUOUS
 10
0.013472
 20
0.2112892699736575
 30
0.0
 11
0.013751
 21
0.2163092699736576
 31
0.0
  0
LINE
  5
396
  8
0
  6
CONTINUOUS
 10
0.01174
 20
0.1979122699736575
 30
0.0
 11
0.013083
 21
0.1984942699736576
 31
0.0
  0
LINE
  5
397
  8
0
  6
CONTINUOUS
 10
0.017849
 20
0.3145082699736576
 30
0.0
 11
0.018823
 21
0.3371032699736575
 31
0.0
  0
LINE
  5
398
  8
0
  6
CONTINUOUS
 10
0.013281
 20
0.2071892699736575
 30
0.0
 11
0.013472
 21
0.2112892699736575
 31
0.0
  0
LINE
  5
399
  8
0
  6
CONTINUOUS
 10
0.018823
 20
0.3371032699736575
 30
0.0
 11
0.018963
 21
0.3485852699736576
 31
0.0
  0
LINE
  5
39A
  8
0
  6
CONTINUOUS
 10
0.018417
 20
0.3613772699736575
 30
0.0
 11
0.0
 21
0.3613772699736575
 31
0.0
  0
LINE
  5
39B
  8
0
  6
CONTINUOUS
 10
0.019
 20
0.3613772699736575
 30
0.0
 11
0.018417
 21
0.3613772699736575
 31
0.0
  0
LINE
  5
39C
  8
0
  6
CONTINUOUS
 10
0.018963
 20
0.3485852699736576
 30
0.0
 11
0.019
 21
0.3571312699736575
 31
0.0
  0
LINE
  5
39D
  8
0
  6
CONTINUOUS
 10
0.019
 20
0.3571312699736575
 30
0.0
 11
0.019
 21
0.3609662699736575
 31
0.0
  0
LINE
  5
39E
  8
0
  6
CONTINUOUS
 10
-0.01606
 20
0.3371032699736575
 30
0.0
 11
-0.016375
 21
0.3378642699736575
 31
0.0
  0
LINE
  5
39F
  8
0
  6
CONTINUOUS
 10
-0.016375
 20
0.3378642699736575
 30
0.0
 11
-0.016965
 21
0.3423442699736575
 31
0.0
  0
LINE
  5
3A0
  8
0
  6
CONTINUOUS
 10
-0.016965
 20
0.3423442699736575
 30
0.0
 11
-0.016375
 21
0.3468242699736575
 31
0.0
  0
LINE
  5
3A1
  8
0
  6
CONTINUOUS
 10
-0.016375
 20
0.3468242699736575
 30
0.0
 11
-0.014646
 21
0.3509982699736576
 31
0.0
  0
LINE
  5
3A2
  8
0
  6
CONTINUOUS
 10
-0.014646
 20
0.3509982699736576
 30
0.0
 11
-0.011896
 21
0.3545832699736575
 31
0.0
  0
LINE
  5
3A3
  8
0
  6
CONTINUOUS
 10
-0.011896
 20
0.3545832699736575
 30
0.0
 11
-0.008311
 21
0.3573342699736575
 31
0.0
  0
LINE
  5
3A4
  8
0
  6
CONTINUOUS
 10
-0.008311
 20
0.3573342699736575
 30
0.0
 11
-0.004136
 21
0.3590632699736576
 31
0.0
  0
LINE
  5
3A5
  8
0
  6
CONTINUOUS
 10
-0.004136
 20
0.3590632699736576
 30
0.0
 11
0.0
 21
0.3596072699736576
 31
0.0
  0
LINE
  5
3A6
  8
0
  6
CONTINUOUS
 10
-0.007068
 20
0.3371032699736575
 30
0.0
 11
-0.007802
 21
0.3382672699736575
 31
0.0
  0
LINE
  5
3A7
  8
0
  6
CONTINUOUS
 10
-0.008206
 20
0.3457092699736575
 30
0.0
 11
-0.0072
 21
0.3475672699736576
 31
0.0
  0
LINE
  5
3A8
  8
0
  6
CONTINUOUS
 10
-0.008781
 20
0.3437472699736576
 30
0.0
 11
-0.008206
 21
0.3457092699736575
 31
0.0
  0
LINE
  5
3A9
  8
0
  6
CONTINUOUS
 10
-0.008898
 20
0.3417772699736576
 30
0.0
 11
-0.008911
 21
0.3421852699736576
 31
0.0
  0
LINE
  5
3AA
  8
0
  6
CONTINUOUS
 10
-0.008911
 20
0.3421852699736576
 30
0.0
 11
-0.008781
 21
0.3437472699736576
 31
0.0
  0
LINE
  5
3AB
  8
0
  6
CONTINUOUS
 10
-0.004136
 20
0.3256252699736575
 30
0.0
 11
-0.003
 21
0.3254752699736576
 31
0.0
  0
LINE
  5
3AC
  8
0
  6
CONTINUOUS
 10
-0.014646
 20
0.3336902699736575
 30
0.0
 11
-0.01606
 21
0.3371032699736575
 31
0.0
  0
LINE
  5
3AD
  8
0
  6
CONTINUOUS
 10
0.000344
 20
0.3596522699736575
 30
0.0
 11
0.004823
 21
0.3590632699736576
 31
0.0
  0
LINE
  5
3AE
  8
0
  6
CONTINUOUS
 10
0.004823
 20
0.3590632699736576
 30
0.0
 11
0.008998
 21
0.3573342699736575
 31
0.0
  0
LINE
  5
3AF
  8
0
  6
CONTINUOUS
 10
0.008998
 20
0.3573342699736575
 30
0.0
 11
0.012583
 21
0.3545832699736575
 31
0.0
  0
LINE
  5
3B0
  8
0
  6
CONTINUOUS
 10
0.015333
 20
0.3509982699736576
 30
0.0
 11
0.012583
 21
0.3545832699736575
 31
0.0
  0
LINE
  5
3B1
  8
0
  6
CONTINUOUS
 10
0.017062
 20
0.3468242699736575
 30
0.0
 11
0.015333
 21
0.3509982699736576
 31
0.0
  0
LINE
  5
3B2
  8
0
  6
CONTINUOUS
 10
0.017652
 20
0.3423442699736575
 30
0.0
 11
0.017062
 21
0.3468242699736575
 31
0.0
  0
LINE
  5
3B3
  8
0
  6
CONTINUOUS
 10
0.016747
 20
0.3371032699736575
 30
0.0
 11
0.017062
 21
0.3378642699736575
 31
0.0
  0
LINE
  5
3B4
  8
0
  6
CONTINUOUS
 10
0.0
 20
0.3596072699736576
 30
0.0
 11
0.000344
 21
0.3596522699736575
 31
0.0
  0
LINE
  5
3B5
  8
0
  6
CONTINUOUS
 10
0.004657
 20
0.3504802699736575
 30
0.0
 11
0.006458
 21
0.3491982699736575
 31
0.0
  0
LINE
  5
3B6
  8
0
  6
CONTINUOUS
 10
0.002576
 20
0.3513002699736575
 30
0.0
 11
0.004657
 21
0.3504802699736575
 31
0.0
  0
LINE
  5
3B7
  8
0
  6
CONTINUOUS
 10
0.000344
 20
0.3515822699736575
 30
0.0
 11
0.002576
 21
0.3513002699736575
 31
0.0
  0
LINE
  5
3B8
  8
0
  6
CONTINUOUS
 10
0.0
 20
0.3515392699736575
 30
0.0
 11
0.000344
 21
0.3515822699736575
 31
0.0
  0
LINE
  5
3B9
  8
0
  6
CONTINUOUS
 10
0.008998
 20
0.3273542699736576
 30
0.0
 11
0.012583
 21
0.3301052699736575
 31
0.0
  0
LINE
  5
3BA
  8
0
  6
CONTINUOUS
 10
0.004823
 20
0.3256252699736575
 30
0.0
 11
0.008998
 21
0.3273542699736576
 31
0.0
  0
LINE
  5
3BB
  8
0
  6
CONTINUOUS
 10
0.003036
 20
0.3253902699736575
 30
0.0
 11
0.004823
 21
0.3256252699736575
 31
0.0
  0
LINE
  5
3BC
  8
0
  6
CONTINUOUS
 10
0.00421
 20
0.3340402699736575
 30
0.0
 11
0.005425
 21
0.3347552699736576
 31
0.0
  0
LINE
  5
3BD
  8
0
  6
CONTINUOUS
 10
0.005425
 20
0.3347552699736576
 30
0.0
 11
0.006567
 21
0.3356922699736575
 31
0.0
  0
LINE
  5
3BE
  8
0
  6
CONTINUOUS
 10
0.006567
 20
0.3356922699736575
 30
0.0
 11
0.007603
 21
0.3368602699736575
 31
0.0
  0
LINE
  5
3BF
  8
0
  6
CONTINUOUS
 10
0.007603
 20
0.3368602699736575
 30
0.0
 11
0.007755
 21
0.3371032699736575
 31
0.0
  0
LINE
  5
46E
  8
0
  6
CONTINUOUS
 10
-0.2629218945668605
 20
-0.099182
 30
0.0
 11
-0.2629228945668606
 21
-0.099234
 31
0.0
  0
LINE
  5
46F
  8
0
  6
CONTINUOUS
 10
-0.2627678945668606
 20
-0.093305
 30
0.0
 11
-0.2629218945668605
 21
-0.099182
 31
0.0
  0
LINE
  5
470
  8
0
  6
CONTINUOUS
 10
-0.2627658945668605
 20
-0.093234
 30
0.0
 11
-0.2627678945668606
 21
-0.093305
 31
0.0
  0
LINE
  5
471
  8
0
  6
CONTINUOUS
 10
-0.2124358945668606
 20
-0.092747
 30
0.0
 11
-0.2326858945668606
 21
-0.092747
 31
0.0
  0
LINE
  5
472
  8
0
  6
CONTINUOUS
 10
-0.2584198945668606
 20
-0.092747
 30
0.0
 11
-0.2604838945668606
 21
-0.092747
 31
0.0
  0
LINE
  5
473
  8
0
  6
CONTINUOUS
 10
-0.2558198945668606
 20
-0.092747
 30
0.0
 11
-0.2584198945668606
 21
-0.092747
 31
0.0
  0
LINE
  5
474
  8
0
  6
CONTINUOUS
 10
-0.2585128945668606
 20
-0.099747
 30
0.0
 11
-0.2558678945668606
 21
-0.099747
 31
0.0
  0
LINE
  5
475
  8
0
  6
CONTINUOUS
 10
-0.2029498945668606
 20
-0.099747
 30
0.0
 11
-0.2026958945668606
 21
-0.099678
 31
0.0
  0
LINE
  5
476
  8
0
  6
CONTINUOUS
 10
-0.2034138945668606
 20
-0.099747
 30
0.0
 11
-0.2029498945668606
 21
-0.099747
 31
0.0
  0
LINE
  5
477
  8
0
  6
CONTINUOUS
 10
-0.2529358945668606
 20
-0.092747
 30
0.0
 11
-0.2558198945668606
 21
-0.092747
 31
0.0
  0
LINE
  5
478
  8
0
  6
CONTINUOUS
 10
-0.2124368945668606
 20
-0.099747
 30
0.0
 11
-0.2095048945668606
 21
-0.099747
 31
0.0
  0
LINE
  5
479
  8
0
  6
CONTINUOUS
 10
-0.2095048945668606
 20
-0.099747
 30
0.0
 11
-0.2068598945668606
 21
-0.099747
 31
0.0
  0
LINE
  5
47A
  8
0
  6
CONTINUOUS
 10
-0.2622658945668606
 20
-0.092747
 30
0.0
 11
-0.2625118945668606
 21
-0.092812
 31
0.0
  0
LINE
  5
47B
  8
0
  6
CONTINUOUS
 10
-0.2618088945668606
 20
-0.092747
 30
0.0
 11
-0.2622658945668606
 21
-0.092747
 31
0.0
  0
LINE
  5
47C
  8
0
  6
CONTINUOUS
 10
-0.2529358945668606
 20
-0.099747
 30
0.0
 11
-0.2326858945668606
 21
-0.099747
 31
0.0
  0
LINE
  5
47D
  8
0
  6
CONTINUOUS
 10
-0.2031068945668606
 20
-0.092747
 30
0.0
 11
-0.2035628945668606
 21
-0.092747
 31
0.0
  0
LINE
  5
47E
  8
0
  6
CONTINUOUS
 10
-0.2028598945668606
 20
-0.092812
 30
0.0
 11
-0.2031068945668606
 21
-0.092747
 31
0.0
  0
LINE
  5
47F
  8
0
  6
CONTINUOUS
 10
-0.2326858945668606
 20
-0.092747
 30
0.0
 11
-0.2529358945668606
 21
-0.092747
 31
0.0
  0
LINE
  5
480
  8
0
  6
CONTINUOUS
 10
-0.2069518945668606
 20
-0.092747
 30
0.0
 11
-0.2095528945668606
 21
-0.092747
 31
0.0
  0
LINE
  5
481
  8
0
  6
CONTINUOUS
 10
-0.2048888945668606
 20
-0.092747
 30
0.0
 11
-0.2069518945668606
 21
-0.092747
 31
0.0
  0
LINE
  5
482
  8
0
  6
CONTINUOUS
 10
-0.2326858945668606
 20
-0.099747
 30
0.0
 11
-0.2124368945668606
 21
-0.099747
 31
0.0
  0
LINE
  5
483
  8
0
  6
CONTINUOUS
 10
-0.2604838945668606
 20
-0.092747
 30
0.0
 11
-0.2618088945668606
 21
-0.092747
 31
0.0
  0
LINE
  5
484
  8
0
  6
CONTINUOUS
 10
-0.2026068945668606
 20
-0.093234
 30
0.0
 11
-0.2026778945668606
 21
-0.09299
 31
0.0
  0
LINE
  5
485
  8
0
  6
CONTINUOUS
 10
-0.2035628945668606
 20
-0.092747
 30
0.0
 11
-0.2048888945668606
 21
-0.092747
 31
0.0
  0
LINE
  5
486
  8
0
  6
CONTINUOUS
 10
-0.2047608945668606
 20
-0.099747
 30
0.0
 11
-0.2034138945668606
 21
-0.099747
 31
0.0
  0
LINE
  5
487
  8
0
  6
CONTINUOUS
 10
-0.2068598945668606
 20
-0.099747
 30
0.0
 11
-0.2047608945668606
 21
-0.099747
 31
0.0
  0
LINE
  5
488
  8
0
  6
CONTINUOUS
 10
-0.2558678945668606
 20
-0.099747
 30
0.0
 11
-0.2529358945668606
 21
-0.099747
 31
0.0
  0
LINE
  5
489
  8
0
  6
CONTINUOUS
 10
-0.2095528945668606
 20
-0.092747
 30
0.0
 11
-0.2124358945668606
 21
-0.092747
 31
0.0
  0
LINE
  5
48A
  8
0
  6
CONTINUOUS
 10
-0.2026778945668606
 20
-0.09299
 30
0.0
 11
-0.2028598945668606
 21
-0.092812
 31
0.0
  0
LINE
  5
48B
  8
0
  6
CONTINUOUS
 10
-0.2026958945668606
 20
-0.099678
 30
0.0
 11
-0.2025118945668606
 21
-0.09949
 31
0.0
  0
LINE
  5
48C
  8
0
  6
CONTINUOUS
 10
-0.2025118945668606
 20
-0.09949
 30
0.0
 11
-0.2024498945668606
 21
-0.099234
 31
0.0
  0
LINE
  5
48D
  8
0
  6
CONTINUOUS
 10
-0.2619588945668606
 20
-0.099747
 30
0.0
 11
-0.2606118945668606
 21
-0.099747
 31
0.0
  0
LINE
  5
48E
  8
0
  6
CONTINUOUS
 10
-0.2606118945668606
 20
-0.099747
 30
0.0
 11
-0.2585128945668606
 21
-0.099747
 31
0.0
  0
LINE
  5
48F
  8
0
  6
CONTINUOUS
 10
-0.2629228945668606
 20
-0.099234
 30
0.0
 11
-0.2628598945668606
 21
-0.09949
 31
0.0
  0
LINE
  5
490
  8
0
  6
CONTINUOUS
 10
-0.2625118945668606
 20
-0.092812
 30
0.0
 11
-0.2626948945668606
 21
-0.09299
 31
0.0
  0
LINE
  5
491
  8
0
  6
CONTINUOUS
 10
-0.2626948945668606
 20
-0.09299
 30
0.0
 11
-0.2627658945668605
 21
-0.093234
 31
0.0
  0
LINE
  5
492
  8
0
  6
CONTINUOUS
 10
-0.2628598945668606
 20
-0.09949
 30
0.0
 11
-0.2626768945668606
 21
-0.099678
 31
0.0
  0
LINE
  5
493
  8
0
  6
CONTINUOUS
 10
-0.2624228945668606
 20
-0.099747
 30
0.0
 11
-0.2619588945668606
 21
-0.099747
 31
0.0
  0
LINE
  5
494
  8
0
  6
CONTINUOUS
 10
-0.2626768945668606
 20
-0.099678
 30
0.0
 11
-0.2624228945668606
 21
-0.099747
 31
0.0
  0
LINE
  5
495
  8
0
  6
CONTINUOUS
 10
-0.2340268945668606
 20
0.017864
 30
0.0
 11
-0.2364998945668606
 21
0.017557
 31
0.0
  0
LINE
  5
496
  8
0
  6
CONTINUOUS
 10
-0.2364998945668606
 20
0.017557
 30
0.0
 11
-0.2396988945668606
 21
0.016497
 31
0.0
  0
LINE
  5
497
  8
0
  6
CONTINUOUS
 10
-0.2333438945668606
 20
0.021739
 30
0.0
 11
-0.2340268945668606
 21
0.017864
 31
0.0
  0
LINE
  5
498
  8
0
  6
CONTINUOUS
 10
-0.2256568945668606
 20
0.016385
 30
0.0
 11
-0.2249728945668606
 21
0.020262
 31
0.0
  0
LINE
  5
499
  8
0
  6
CONTINUOUS
 10
-0.2219758945668606
 20
0.016181
 30
0.0
 11
-0.2223398945668606
 21
0.016181
 31
0.0
  0
LINE
  5
49A
  8
0
  6
CONTINUOUS
 10
-0.2223398945668606
 20
0.016181
 30
0.0
 11
-0.2234058945668606
 21
0.016181
 31
0.0
  0
LINE
  5
49B
  8
0
  6
CONTINUOUS
 10
-0.2234058945668606
 20
0.016181
 30
0.0
 11
-0.2251028945668606
 21
0.016181
 31
0.0
  0
LINE
  5
49C
  8
0
  6
CONTINUOUS
 10
-0.2402018945668606
 20
0.016181
 30
0.0
 11
-0.2418988945668606
 21
0.016181
 31
0.0
  0
LINE
  5
49D
  8
0
  6
CONTINUOUS
 10
-0.2418988945668606
 20
0.016181
 30
0.0
 11
-0.2429658945668605
 21
0.016181
 31
0.0
  0
LINE
  5
49E
  8
0
  6
CONTINUOUS
 10
-0.2429658945668605
 20
0.016181
 30
0.0
 11
-0.2433298945668606
 21
0.016181
 31
0.0
  0
LINE
  5
49F
  8
0
  6
CONTINUOUS
 10
-0.2154458945668606
 20
0.015299
 30
0.0
 11
-0.2219288945668606
 21
0.016178
 31
0.0
  0
LINE
  5
4A0
  8
0
  6
CONTINUOUS
 10
-0.2433768945668606
 20
0.016178
 30
0.0
 11
-0.2498598945668606
 21
0.015299
 31
0.0
  0
LINE
  5
4A1
  8
0
  6
CONTINUOUS
 10
-0.2402028945668606
 20
0.016181
 30
0.0
 11
-0.2418988945668606
 21
0.016181
 31
0.0
  0
LINE
  5
4A2
  8
0
  6
CONTINUOUS
 10
-0.2223398945668606
 20
0.016181
 30
0.0
 11
-0.2234058945668606
 21
0.016181
 31
0.0
  0
LINE
  5
4A3
  8
0
  6
CONTINUOUS
 10
-0.2298888945668605
 20
0.016181
 30
0.0
 11
-0.2326528945668606
 21
0.016181
 31
0.0
  0
LINE
  5
4A4
  8
0
  6
CONTINUOUS
 10
-0.2273138945668606
 20
0.016181
 30
0.0
 11
-0.2298888945668605
 21
0.016181
 31
0.0
  0
LINE
  5
4A5
  8
0
  6
CONTINUOUS
 10
-0.2379908945668606
 20
0.016181
 30
0.0
 11
-0.2402028945668606
 21
0.016181
 31
0.0
  0
LINE
  5
4A6
  8
0
  6
CONTINUOUS
 10
-0.2219288945668606
 20
0.016178
 30
0.0
 11
-0.2219758945668606
 21
0.016181
 31
0.0
  0
LINE
  5
4A7
  8
0
  6
CONTINUOUS
 10
-0.2219758945668606
 20
0.016181
 30
0.0
 11
-0.2223398945668606
 21
0.016181
 31
0.0
  0
LINE
  5
4A8
  8
0
  6
CONTINUOUS
 10
-0.2251028945668606
 20
0.016181
 30
0.0
 11
-0.2273138945668606
 21
0.016181
 31
0.0
  0
LINE
  5
4A9
  8
0
  6
CONTINUOUS
 10
-0.2354158945668606
 20
0.016181
 30
0.0
 11
-0.2379908945668606
 21
0.016181
 31
0.0
  0
LINE
  5
4AA
  8
0
  6
CONTINUOUS
 10
-0.2234058945668606
 20
0.016181
 30
0.0
 11
-0.2251028945668606
 21
0.016181
 31
0.0
  0
LINE
  5
4AB
  8
0
  6
CONTINUOUS
 10
-0.2326528945668606
 20
0.016181
 30
0.0
 11
-0.2354158945668606
 21
0.016181
 31
0.0
  0
LINE
  5
4AC
  8
0
  6
CONTINUOUS
 10
-0.2418988945668606
 20
0.016181
 30
0.0
 11
-0.2429658945668605
 21
0.016181
 31
0.0
  0
LINE
  5
4AD
  8
0
  6
CONTINUOUS
 10
-0.2433298945668606
 20
0.016181
 30
0.0
 11
-0.2433768945668606
 21
0.016178
 31
0.0
  0
LINE
  5
4AE
  8
0
  6
CONTINUOUS
 10
-0.2429658945668605
 20
0.016181
 30
0.0
 11
-0.2433298945668606
 21
0.016181
 31
0.0
  0
LINE
  5
4AF
  8
0
  6
CONTINUOUS
 10
-0.2183728945668605
 20
0.047991
 30
0.0
 11
-0.2171168945668605
 21
0.055108
 31
0.0
  0
LINE
  5
4B0
  8
0
  6
CONTINUOUS
 10
-0.2171168945668605
 20
0.055108
 30
0.0
 11
-0.2183728945668605
 21
0.047991
 31
0.0
  0
LINE
  5
4B1
  8
0
  6
CONTINUOUS
 10
-0.2192418945668606
 20
0.043065
 30
0.0
 11
-0.2183728945668605
 21
0.047991
 31
0.0
  0
LINE
  5
4B2
  8
0
  6
CONTINUOUS
 10
-0.2183728945668605
 20
0.047991
 30
0.0
 11
-0.2192418945668606
 21
0.043065
 31
0.0
  0
LINE
  5
4B3
  8
0
  6
CONTINUOUS
 10
-0.2200418945668606
 20
0.038529
 30
0.0
 11
-0.2192418945668606
 21
0.043065
 31
0.0
  0
LINE
  5
4B4
  8
0
  6
CONTINUOUS
 10
-0.2192418945668606
 20
0.043065
 30
0.0
 11
-0.2200418945668606
 21
0.038529
 31
0.0
  0
LINE
  5
4B5
  8
0
  6
CONTINUOUS
 10
-0.2208658945668605
 20
0.033859
 30
0.0
 11
-0.2200418945668606
 21
0.038529
 31
0.0
  0
LINE
  5
4B6
  8
0
  6
CONTINUOUS
 10
-0.2200418945668606
 20
0.038529
 30
0.0
 11
-0.2208658945668605
 21
0.033859
 31
0.0
  0
LINE
  5
4B7
  8
0
  6
CONTINUOUS
 10
-0.2233898945668606
 20
0.019164
 30
0.0
 11
-0.2208658945668605
 21
0.033859
 31
0.0
  0
LINE
  5
4B8
  8
0
  6
CONTINUOUS
 10
-0.2208658945668605
 20
0.033859
 30
0.0
 11
-0.2233898945668606
 21
0.019164
 31
0.0
  0
LINE
  5
4B9
  8
0
  6
CONTINUOUS
 10
-0.2106648945668606
 20
0.096742
 30
0.0
 11
-0.2111938945668606
 21
0.09732
 31
0.0
  0
LINE
  5
4BA
  8
0
  6
CONTINUOUS
 10
-0.2126008945668606
 20
0.097976
 30
0.0
 11
-0.2158838945668606
 21
0.098555
 31
0.0
  0
LINE
  5
4BB
  8
0
  6
CONTINUOUS
 10
-0.2101338945668606
 20
0.095283
 30
0.0
 11
-0.2103028945668606
 21
0.096047
 31
0.0
  0
LINE
  5
4BC
  8
0
  6
CONTINUOUS
 10
-0.2171168945668605
 20
0.055108
 30
0.0
 11
-0.2101678945668606
 21
0.0945
 31
0.0
  0
LINE
  5
4BD
  8
0
  6
CONTINUOUS
 10
-0.2118538945668606
 20
0.09774
 30
0.0
 11
-0.2126008945668606
 21
0.097976
 31
0.0
  0
LINE
  5
4BE
  8
0
  6
CONTINUOUS
 10
-0.2256888945668606
 20
0.098027
 30
0.0
 11
-0.2259248945668606
 21
0.09728
 31
0.0
  0
LINE
  5
4BF
  8
0
  6
CONTINUOUS
 10
-0.2111938945668606
 20
0.09732
 30
0.0
 11
-0.2118538945668606
 21
0.09774
 31
0.0
  0
LINE
  5
4C0
  8
0
  6
CONTINUOUS
 10
-0.2101678945668606
 20
0.0945
 30
0.0
 11
-0.2101338945668606
 21
0.095283
 31
0.0
  0
LINE
  5
4C1
  8
0
  6
CONTINUOUS
 10
-0.2103028945668606
 20
0.096047
 30
0.0
 11
-0.2106648945668606
 21
0.096742
 31
0.0
  0
LINE
  5
4C2
  8
0
  6
CONTINUOUS
 10
-0.2252678945668606
 20
0.098687
 30
0.0
 11
-0.2256888945668606
 21
0.098027
 31
0.0
  0
LINE
  5
4C3
  8
0
  6
CONTINUOUS
 10
-0.2239958945668606
 20
0.099578
 30
0.0
 11
-0.2246908945668606
 21
0.099216
 31
0.0
  0
LINE
  5
4C4
  8
0
  6
CONTINUOUS
 10
-0.2232318945668606
 20
0.099747
 30
0.0
 11
-0.2239958945668606
 21
0.099578
 31
0.0
  0
LINE
  5
4C5
  8
0
  6
CONTINUOUS
 10
-0.2246908945668606
 20
0.099216
 30
0.0
 11
-0.2252678945668606
 21
0.098687
 31
0.0
  0
LINE
  5
4C6
  8
0
  6
CONTINUOUS
 10
-0.2224488945668606
 20
0.099713
 30
0.0
 11
-0.2232318945668606
 21
0.099747
 31
0.0
  0
LINE
  5
4C7
  8
0
  6
CONTINUOUS
 10
-0.2259248945668606
 20
0.09728
 30
0.0
 11
-0.2328738945668606
 21
0.057888
 31
0.0
  0
LINE
  5
4C8
  8
0
  6
CONTINUOUS
 10
-0.2183728945668605
 20
0.047991
 30
0.0
 11
-0.2171168945668605
 21
0.055108
 31
0.0
  0
LINE
  5
4C9
  8
0
  6
CONTINUOUS
 10
-0.2328738945668606
 20
0.057888
 30
0.0
 11
-0.2341288945668606
 21
0.050771
 31
0.0
  0
LINE
  5
4CA
  8
0
  6
CONTINUOUS
 10
-0.2192418945668606
 20
0.043065
 30
0.0
 11
-0.2183728945668605
 21
0.047991
 31
0.0
  0
LINE
  5
4CB
  8
0
  6
CONTINUOUS
 10
-0.2341288945668606
 20
0.050771
 30
0.0
 11
-0.2349978945668606
 21
0.045845
 31
0.0
  0
LINE
  5
4CC
  8
0
  6
CONTINUOUS
 10
-0.2200418945668606
 20
0.038529
 30
0.0
 11
-0.2192418945668606
 21
0.043065
 31
0.0
  0
LINE
  5
4CD
  8
0
  6
CONTINUOUS
 10
-0.2349978945668606
 20
0.045845
 30
0.0
 11
-0.2357988945668606
 21
0.041309
 31
0.0
  0
LINE
  5
4CE
  8
0
  6
CONTINUOUS
 10
-0.2208658945668605
 20
0.033859
 30
0.0
 11
-0.2200418945668606
 21
0.038529
 31
0.0
  0
LINE
  5
4CF
  8
0
  6
CONTINUOUS
 10
-0.2357988945668606
 20
0.041309
 30
0.0
 11
-0.2366228945668606
 21
0.036638
 31
0.0
  0
LINE
  5
4D0
  8
0
  6
CONTINUOUS
 10
-0.2366228945668606
 20
0.036638
 30
0.0
 11
-0.2383648945668606
 21
0.026375
 31
0.0
  0
LINE
  5
4D1
  8
0
  6
CONTINUOUS
 10
-0.2233898945668606
 20
0.019164
 30
0.0
 11
-0.2208648945668606
 21
0.033861
 31
0.0
  0
LINE
  5
4D2
  8
0
  6
CONTINUOUS
 10
-0.2208658945668605
 20
0.033859
 30
0.0
 11
-0.2233898945668606
 21
0.019164
 31
0.0
  0
LINE
  5
4D3
  8
0
  6
CONTINUOUS
 10
-0.2383648945668606
 20
0.026375
 30
0.0
 11
-0.2384258945668606
 21
0.025971
 31
0.0
  0
LINE
  5
4D4
  8
0
  6
CONTINUOUS
 10
-0.2239008945668606
 20
0.01874
 30
0.0
 11
-0.2238028945668606
 21
0.018723
 31
0.0
  0
LINE
  5
4D5
  8
0
  6
CONTINUOUS
 10
-0.2238028945668606
 20
0.018723
 30
0.0
 11
-0.2237368945668606
 21
0.018712
 31
0.0
  0
LINE
  5
4D6
  8
0
  6
CONTINUOUS
 10
-0.2254828945668606
 20
0.019017
 30
0.0
 11
-0.2239008945668606
 21
0.01874
 31
0.0
  0
LINE
  5
4D7
  8
0
  6
CONTINUOUS
 10
-0.2384378945668606
 20
0.025661
 30
0.0
 11
-0.2384238945668606
 21
0.025099
 31
0.0
  0
LINE
  5
4D8
  8
0
  6
CONTINUOUS
 10
-0.2353568945668606
 20
0.020878
 30
0.0
 11
-0.2343978945668606
 21
0.020603
 31
0.0
  0
LINE
  5
4D9
  8
0
  6
CONTINUOUS
 10
-0.2326558945668606
 20
0.020284
 30
0.0
 11
-0.2308298945668606
 21
0.019962
 31
0.0
  0
LINE
  5
4DA
  8
0
  6
CONTINUOUS
 10
-0.2290118945668606
 20
0.019641
 30
0.0
 11
-0.2272218945668606
 21
0.019325
 31
0.0
  0
LINE
  5
4DB
  8
0
  6
CONTINUOUS
 10
-0.2308298945668606
 20
0.019962
 30
0.0
 11
-0.2290118945668606
 21
0.019641
 31
0.0
  0
LINE
  5
4DC
  8
0
  6
CONTINUOUS
 10
-0.2343978945668606
 20
0.020603
 30
0.0
 11
-0.2326558945668606
 21
0.020284
 31
0.0
  0
LINE
  5
4DD
  8
0
  6
CONTINUOUS
 10
-0.2272218945668606
 20
0.019325
 30
0.0
 11
-0.2254828945668606
 21
0.019017
 31
0.0
  0
LINE
  5
4DE
  8
0
  6
CONTINUOUS
 10
-0.2362288945668606
 20
0.021336
 30
0.0
 11
-0.2353568945668606
 21
0.020878
 31
0.0
  0
LINE
  5
4DF
  8
0
  6
CONTINUOUS
 10
-0.2376388945668606
 20
0.022812
 30
0.0
 11
-0.2370778945668606
 21
0.022087
 31
0.0
  0
LINE
  5
4E0
  8
0
  6
CONTINUOUS
 10
-0.2380998945668606
 20
0.023726
 30
0.0
 11
-0.2376388945668606
 21
0.022812
 31
0.0
  0
LINE
  5
4E1
  8
0
  6
CONTINUOUS
 10
-0.2384258945668606
 20
0.025971
 30
0.0
 11
-0.2384378945668606
 21
0.025661
 31
0.0
  0
LINE
  5
4E2
  8
0
  6
CONTINUOUS
 10
-0.2370778945668606
 20
0.022087
 30
0.0
 11
-0.2362288945668606
 21
0.021336
 31
0.0
  0
LINE
  5
4E3
  8
0
  6
CONTINUOUS
 10
-0.2384238945668606
 20
0.025099
 30
0.0
 11
-0.2380998945668606
 21
0.023726
 31
0.0
  0
LINE
  5
4E4
  8
0
  6
CONTINUOUS
 10
-0.2183718945668605
 20
0.047995
 30
0.0
 11
-0.2171168945668605
 21
0.055108
 31
0.0
  0
LINE
  5
4E5
  8
0
  6
CONTINUOUS
 10
-0.2171168945668605
 20
0.055108
 30
0.0
 11
-0.2183728945668605
 21
0.047991
 31
0.0
  0
LINE
  5
4E6
  8
0
  6
CONTINUOUS
 10
-0.2192408945668606
 20
0.043068
 30
0.0
 11
-0.2183718945668605
 21
0.047995
 31
0.0
  0
LINE
  5
4E7
  8
0
  6
CONTINUOUS
 10
-0.2183728945668605
 20
0.047991
 30
0.0
 11
-0.2192418945668606
 21
0.043065
 31
0.0
  0
LINE
  5
4E8
  8
0
  6
CONTINUOUS
 10
-0.2191658945668606
 20
0.099134
 30
0.0
 11
-0.2224488945668606
 21
0.099713
 31
0.0
  0
LINE
  5
4E9
  8
0
  6
CONTINUOUS
 10
-0.2158838945668606
 20
0.098555
 30
0.0
 11
-0.2191658945668606
 21
0.099134
 31
0.0
  0
LINE
  5
4EA
  8
0
  6
CONTINUOUS
 10
-0.2233898945668606
 20
0.019164
 30
0.0
 11
-0.2208658945668605
 21
0.033859
 31
0.0
  0
LINE
  5
4EB
  8
0
  6
CONTINUOUS
 10
-0.2136858945668606
 20
-0.092747
 30
0.0
 11
-0.2136858945668606
 21
-0.049747
 31
0.0
  0
LINE
  5
4EC
  8
0
  6
CONTINUOUS
 10
-0.2125988945668606
 20
-0.040574
 30
0.0
 11
-0.2090468945668606
 21
-0.031116
 31
0.0
  0
LINE
  5
4ED
  8
0
  6
CONTINUOUS
 10
-0.2035898945668606
 20
-0.023214
 30
0.0
 11
-0.1963578945668606
 21
-0.016591
 31
0.0
  0
LINE
  5
4EE
  8
0
  6
CONTINUOUS
 10
-0.2090468945668606
 20
-0.031116
 30
0.0
 11
-0.2035898945668606
 21
-0.023214
 31
0.0
  0
LINE
  5
4EF
  8
0
  6
CONTINUOUS
 10
-0.2516858945668606
 20
0.014527
 30
0.0
 11
-0.2516858945668606
 21
-0.006269
 31
0.0
  0
LINE
  5
4F0
  8
0
  6
CONTINUOUS
 10
-0.1963578945668606
 20
-0.016591
 30
0.0
 11
-0.1879378945668606
 21
-0.011926
 31
0.0
  0
LINE
  5
4F1
  8
0
  6
CONTINUOUS
 10
-0.2136858945668606
 20
-0.049747
 30
0.0
 11
-0.2125988945668606
 21
-0.040574
 31
0.0
  0
LINE
  5
4F2
  8
0
  6
CONTINUOUS
 10
-0.1775068945668606
 20
-0.009457
 30
0.0
 11
-0.1201888945668606
 21
-0.000747
 31
0.0
  0
LINE
  5
4F3
  8
0
  6
CONTINUOUS
 10
-0.1089088945668606
 20
-0.00962
 30
0.0
 11
-0.1081508945668606
 21
-0.011704
 31
0.0
  0
LINE
  5
4F4
  8
0
  6
CONTINUOUS
 10
-0.1140498945668606
 20
-0.002037
 30
0.0
 11
-0.1116158945668606
 21
-0.003935
 31
0.0
  0
LINE
  5
4F5
  8
0
  6
CONTINUOUS
 10
-0.1201888945668606
 20
-0.000747
 30
0.0
 11
-0.1168868945668606
 21
-0.00083
 31
0.0
  0
LINE
  5
4F6
  8
0
  6
CONTINUOUS
 10
-0.1100228945668606
 20
-0.006609
 30
0.0
 11
-0.1089088945668606
 21
-0.00962
 31
0.0
  0
LINE
  5
4F7
  8
0
  6
CONTINUOUS
 10
-0.1116158945668606
 20
-0.003935
 30
0.0
 11
-0.1100228945668606
 21
-0.006609
 31
0.0
  0
LINE
  5
4F8
  8
0
  6
CONTINUOUS
 10
-0.1168868945668606
 20
-0.00083
 30
0.0
 11
-0.1140498945668606
 21
-0.002037
 31
0.0
  0
LINE
  5
4F9
  8
0
  6
CONTINUOUS
 10
-0.0927048945668606
 20
-0.007838
 30
0.0
 11
-0.0897378945668606
 21
-0.006749
 31
0.0
  0
LINE
  5
4FA
  8
0
  6
CONTINUOUS
 10
-0.1053488945668606
 20
-0.012535
 30
0.0
 11
-0.1034138945668606
 21
-0.011831
 31
0.0
  0
LINE
  5
4FB
  8
0
  6
CONTINUOUS
 10
-0.0955988945668606
 20
-0.008932
 30
0.0
 11
-0.0927048945668606
 21
-0.007838
 31
0.0
  0
LINE
  5
4FC
  8
0
  6
CONTINUOUS
 10
-0.0984288945668606
 20
-0.010016
 30
0.0
 11
-0.0955988945668606
 21
-0.008932
 31
0.0
  0
LINE
  5
4FD
  8
0
  6
CONTINUOUS
 10
-0.1077508945668606
 20
-0.012608
 30
0.0
 11
-0.1066128945668606
 21
-0.012995
 31
0.0
  0
LINE
  5
4FE
  8
0
  6
CONTINUOUS
 10
-0.1010928945668606
 20
-0.010986
 30
0.0
 11
-0.0984288945668606
 21
-0.010016
 31
0.0
  0
LINE
  5
4FF
  8
0
  6
CONTINUOUS
 10
-0.1034138945668606
 20
-0.011831
 30
0.0
 11
-0.1010928945668606
 21
-0.010986
 31
0.0
  0
LINE
  5
500
  8
0
  6
CONTINUOUS
 10
-0.1081508945668606
 20
-0.011704
 30
0.0
 11
-0.1077508945668606
 21
-0.012608
 31
0.0
  0
LINE
  5
501
  8
0
  6
CONTINUOUS
 10
-0.1015978945668606
 20
0.014486
 30
0.0
 11
-0.1066178945668606
 21
0.015248
 31
0.0
  0
LINE
  5
502
  8
0
  6
CONTINUOUS
 10
-0.0916258945668606
 20
0.004294
 30
0.0
 11
-0.0939948945668606
 21
0.008963
 31
0.0
  0
LINE
  5
503
  8
0
  6
CONTINUOUS
 10
-0.1066178945668606
 20
0.015248
 30
0.0
 11
-0.1179228945668606
 21
0.015218
 31
0.0
  0
LINE
  5
504
  8
0
  6
CONTINUOUS
 10
-0.0974978945668606
 20
0.012481
 30
0.0
 11
-0.1015978945668606
 21
0.014486
 31
0.0
  0
LINE
  5
505
  8
0
  6
CONTINUOUS
 10
-0.0939948945668606
 20
0.008963
 30
0.0
 11
-0.0974978945668606
 21
0.012481
 31
0.0
  0
LINE
  5
506
  8
0
  6
CONTINUOUS
 10
-0.1879378945668606
 20
-0.011926
 30
0.0
 11
-0.1775068945668606
 21
-0.009457
 31
0.0
  0
LINE
  5
507
  8
0
  6
CONTINUOUS
 10
-0.2274118945668606
 20
0.015253
 30
0.0
 11
-0.2508618945668606
 21
0.015253
 31
0.0
  0
LINE
  5
508
  8
0
  6
CONTINUOUS
 10
-0.1821578945668606
 20
0.015253
 30
0.0
 11
-0.2048168945668606
 21
0.015253
 31
0.0
  0
LINE
  5
509
  8
0
  6
CONTINUOUS
 10
-0.2048168945668606
 20
0.015253
 30
0.0
 11
-0.2274118945668606
 21
0.015253
 31
0.0
  0
LINE
  5
50A
  8
0
  6
CONTINUOUS
 10
-0.2516858945668606
 20
-0.006269
 30
0.0
 11
-0.2516858945668606
 21
-0.026875
 31
0.0
  0
LINE
  5
50B
  8
0
  6
CONTINUOUS
 10
-0.2516858945668606
 20
-0.050648
 30
0.0
 11
-0.2516858945668606
 21
-0.092747
 31
0.0
  0
LINE
  5
50C
  8
0
  6
CONTINUOUS
 10
-0.2516858945668606
 20
-0.026875
 30
0.0
 11
-0.2516858945668606
 21
-0.050648
 31
0.0
  0
LINE
  5
50D
  8
0
  6
CONTINUOUS
 10
-0.2516858945668606
 20
0.015253
 30
0.0
 11
-0.2516858945668606
 21
0.014527
 31
0.0
  0
LINE
  5
50E
  8
0
  6
CONTINUOUS
 10
-0.0879708945668606
 20
-0.005484
 30
0.0
 11
-0.0882208945668606
 21
-0.004806
 31
0.0
  0
LINE
  5
50F
  8
0
  6
CONTINUOUS
 10
-0.0879708945668606
 20
-0.005944
 30
0.0
 11
-0.0879708945668606
 21
-0.005484
 31
0.0
  0
LINE
  5
510
  8
0
  6
CONTINUOUS
 10
-0.0882208945668606
 20
-0.004806
 30
0.0
 11
-0.0888918945668606
 21
-0.003218
 31
0.0
  0
LINE
  5
511
  8
0
  6
CONTINUOUS
 10
-0.0897378945668606
 20
-0.006749
 30
0.0
 11
-0.0883788945668606
 21
-0.00613
 31
0.0
  0
LINE
  5
512
  8
0
  6
CONTINUOUS
 10
-0.1179228945668606
 20
0.015218
 30
0.0
 11
-0.1821578945668606
 21
0.015253
 31
0.0
  0
LINE
  5
513
  8
0
  6
CONTINUOUS
 10
-0.2508618945668606
 20
0.015253
 30
0.0
 11
-0.2516858945668606
 21
0.015253
 31
0.0
  0
LINE
  5
514
  8
0
  6
CONTINUOUS
 10
-0.1065178945668606
 20
-0.012964
 30
0.0
 11
-0.1060168945668606
 21
-0.012799
 31
0.0
  0
LINE
  5
515
  8
0
  6
CONTINUOUS
 10
-0.1059198945668606
 20
-0.012767
 30
0.0
 11
-0.1055208945668606
 21
-0.012618
 31
0.0
  0
LINE
  5
516
  8
0
  6
CONTINUOUS
 10
-0.1060168945668606
 20
-0.012799
 30
0.0
 11
-0.1059198945668606
 21
-0.012767
 31
0.0
  0
LINE
  5
520
  8
0
  6
CONTINUOUS
 10
0.030081
 20
-0.093305
 30
0.0
 11
0.030235
 21
-0.099182
 31
0.0
  0
LINE
  5
521
  8
0
  6
CONTINUOUS
 10
-0.0916258945668606
 20
0.004294
 30
0.0
 11
-0.0888918945668606
 21
-0.003218
 31
0.0
  0
LINE
  5
52F
  8
0
  6
CONTINUOUS
 10
-0.2026038945668605
 20
-0.093305
 30
0.0
 11
-0.2024498945668606
 21
-0.099182
 31
0.0
  0
ENDSEC
  0
EOF
