  0
SECTION
  2
HEADER
  9
$ACADVER
  1
AC1015
  9
$ACADMAINTVER
 70
    20
  9
$DWGCODEPAGE
  3
ANSI_932
  9
$INSBASE
 10
0.0
 20
0.0
 30
0.0
  9
$EXTMIN
 10
-104.7193324021361
 20
-104.7193324021361
 30
0.0
  9
$EXTMAX
 10
953.5139173739535
 20
684.9087803790841
 30
0.0
  9
$LIMMIN
 10
0.0
 20
0.0
  9
$LIMMAX
 10
420.0
 20
297.0
  9
$ORTHOMODE
 70
     1
  9
$REGENMODE
 70
     1
  9
$FILLMODE
 70
     1
  9
$QTEXTMODE
 70
     0
  9
$MIRRTEXT
 70
     1
  9
$LTSCALE
 40
1.0
  9
$ATTMODE
 70
     1
  9
$TEXTSIZE
 40
0.0
  9
$TRACEWID
 40
1.0
  9
$TEXTSTYLE
  7
STANDARD
  9
$CLAYER
  8
buhin
  9
$CELTYPE
  6
BYLAYER
  9
$CECOLOR
 62
   256
  9
$CELTSCALE
 40
1.0
  9
$DISPSILH
 70
     0
  9
$DIMSCALE
 40
1.0
  9
$DIMASZ
 40
2.5
  9
$DIMEXO
 40
2.0
  9
$DIMDLI
 40
3.75
  9
$DIMRND
 40
0.0
  9
$DIMDLE
 40
0.0
  9
$DIMEXE
 40
1.25
  9
$DIMTP
 40
0.0
  9
$DIMTM
 40
0.0
  9
$DIMTXT
 40
5.0
  9
$DIMCEN
 40
2.5
  9
$DIMTSZ
 40
0.0
  9
$DIMTOL
 70
     0
  9
$DIMLIM
 70
     0
  9
$DIMTIH
 70
     0
  9
$DIMTOH
 70
     0
  9
$DIMSE1
 70
     0
  9
$DIMSE2
 70
     0
  9
$DIMTAD
 70
     1
  9
$DIMZIN
 70
     8
  9
$DIMBLK
  1
Open30
  9
$DIMASO
 70
     1
  9
$DIMSHO
 70
     1
  9
$DIMPOST
  1

  9
$DIMAPOST
  1

  9
$DIMALT
 70
     0
  9
$DIMALTD
 70
     3
  9
$DIMALTF
 40
0.039370079
  9
$DIMLFAC
 40
1.0
  9
$DIMTOFL
 70
     1
  9
$DIMTVP
 40
0.0
  9
$DIMTIX
 70
     0
  9
$DIMSOXD
 70
     0
  9
$DIMSAH
 70
     0
  9
$DIMBLK1
  1

  9
$DIMBLK2
  1

  9
$DIMSTYLE
  2
STANDARD
  9
$DIMCLRD
 70
     0
  9
$DIMCLRE
 70
     0
  9
$DIMCLRT
 70
     0
  9
$DIMTFAC
 40
1.0
  9
$DIMGAP
 40
1.0
  9
$DIMJUST
 70
     0
  9
$DIMSD1
 70
     0
  9
$DIMSD2
 70
     0
  9
$DIMTOLJ
 70
     0
  9
$DIMTZIN
 70
     8
  9
$DIMALTZ
 70
     0
  9
$DIMALTTZ
 70
     0
  9
$DIMUPT
 70
     0
  9
$DIMDEC
 70
     0
  9
$DIMTDEC
 70
     0
  9
$DIMALTU
 70
     2
  9
$DIMALTTD
 70
     3
  9
$DIMTXSTY
  7
STANDARD
  9
$DIMAUNIT
 70
     0
  9
$DIMADEC
 70
     0
  9
$DIMALTRND
 40
0.0
  9
$DIMAZIN
 70
     0
  9
$DIMDSEP
 70
    46
  9
$DIMATFIT
 70
     0
  9
$DIMFRAC
 70
     0
  9
$DIMLDRBLK
  1
Open30
  9
$DIMLUNIT
 70
     2
  9
$DIMLWD
 70
    -2
  9
$DIMLWE
 70
    -2
  9
$DIMTMOVE
 70
     0
  9
$LUNITS
 70
     2
  9
$LUPREC
 70
     4
  9
$SKETCHINC
 40
1.0
  9
$FILLETRAD
 40
0.3
  9
$AUNITS
 70
     0
  9
$AUPREC
 70
     0
  9
$MENU
  1
.
  9
$ELEVATION
 40
0.0
  9
$PELEVATION
 40
0.0
  9
$THICKNESS
 40
0.0
  9
$LIMCHECK
 70
     0
  9
$CHAMFERA
 40
2.5
  9
$CHAMFERB
 40
2.5
  9
$CHAMFERC
 40
0.0
  9
$CHAMFERD
 40
0.0
  9
$SKPOLY
 70
     0
  9
$TDCREATE
 40
2444972.375000000
  9
$TDUCREATE
 40
2444972.000000000
  9
$TDUPDATE
 40
2453910.785901667
  9
$TDUUPDATE
 40
2453910.410901667
  9
$TDINDWG
 40
0.4214475810
  9
$TDUSRTIMER
 40
0.4214475810
  9
$USRTIMER
 70
     1
  9
$ANGBASE
 50
0.0
  9
$ANGDIR
 70
     0
  9
$PDMODE
 70
     0
  9
$PDSIZE
 40
0.0
  9
$PLINEWID
 40
0.0
  9
$SPLFRAME
 70
     0
  9
$SPLINETYPE
 70
     6
  9
$SPLINESEGS
 70
     8
  9
$HANDSEED
  5
A1FE
  9
$SURFTAB1
 70
     6
  9
$SURFTAB2
 70
     6
  9
$SURFTYPE
 70
     6
  9
$SURFU
 70
     6
  9
$SURFV
 70
     6
  9
$UCSBASE
  2

  9
$UCSNAME
  2

  9
$UCSORG
 10
0.0
 20
0.0
 30
0.0
  9
$UCSXDIR
 10
1.0
 20
0.0
 30
0.0
  9
$UCSYDIR
 10
0.0
 20
1.0
 30
0.0
  9
$UCSORTHOREF
  2

  9
$UCSORTHOVIEW
 70
     0
  9
$UCSORGTOP
 10
0.0
 20
0.0
 30
0.0
  9
$UCSORGBOTTOM
 10
0.0
 20
0.0
 30
0.0
  9
$UCSORGLEFT
 10
0.0
 20
0.0
 30
0.0
  9
$UCSORGRIGHT
 10
0.0
 20
0.0
 30
0.0
  9
$UCSORGFRONT
 10
0.0
 20
0.0
 30
0.0
  9
$UCSORGBACK
 10
0.0
 20
0.0
 30
0.0
  9
$PUCSBASE
  2

  9
$PUCSNAME
  2

  9
$PUCSORG
 10
0.0
 20
0.0
 30
0.0
  9
$PUCSXDIR
 10
1.0
 20
0.0
 30
0.0
  9
$PUCSYDIR
 10
0.0
 20
1.0
 30
0.0
  9
$PUCSORTHOREF
  2

  9
$PUCSORTHOVIEW
 70
     0
  9
$PUCSORGTOP
 10
0.0
 20
0.0
 30
0.0
  9
$PUCSORGBOTTOM
 10
0.0
 20
0.0
 30
0.0
  9
$PUCSORGLEFT
 10
0.0
 20
0.0
 30
0.0
  9
$PUCSORGRIGHT
 10
0.0
 20
0.0
 30
0.0
  9
$PUCSORGFRONT
 10
0.0
 20
0.0
 30
0.0
  9
$PUCSORGBACK
 10
0.0
 20
0.0
 30
0.0
  9
$USERI1
 70
     0
  9
$USERI2
 70
     0
  9
$USERI3
 70
     0
  9
$USERI4
 70
     0
  9
$USERI5
 70
     0
  9
$USERR1
 40
0.0
  9
$USERR2
 40
0.0
  9
$USERR3
 40
0.0
  9
$USERR4
 40
0.0
  9
$USERR5
 40
0.0
  9
$WORLDVIEW
 70
     1
  9
$SHADEDGE
 70
     3
  9
$SHADEDIF
 70
    70
  9
$TILEMODE
 70
     1
  9
$MAXACTVP
 70
    48
  9
$PINSBASE
 10
0.0
 20
0.0
 30
0.0
  9
$PLIMCHECK
 70
     0
  9
$PEXTMIN
 10
1.000000000000000E+20
 20
1.000000000000000E+20
 30
1.000000000000000E+20
  9
$PEXTMAX
 10
-1.000000000000000E+20
 20
-1.000000000000000E+20
 30
-1.000000000000000E+20
  9
$PLIMMIN
 10
0.0
 20
0.0
  9
$PLIMMAX
 10
420.0
 20
297.0
  9
$UNITMODE
 70
     0
  9
$VISRETAIN
 70
     0
  9
$PLINEGEN
 70
     0
  9
$PSLTSCALE
 70
     1
  9
$TREEDEPTH
 70
  3020
  9
$CMLSTYLE
  2
STANDARD
  9
$CMLJUST
 70
     0
  9
$CMLSCALE
 40
20.0
  9
$PROXYGRAPHICS
 70
     1
  9
$MEASUREMENT
 70
     1
  9
$CELWEIGHT
370
    -1
  9
$ENDCAPS
280
     0
  9
$JOINSTYLE
280
     0
  9
$LWDISPLAY
290
     0
  9
$INSUNITS
 70
     0
  9
$HYPERLINKBASE
  1

  9
$STYLESHEET
  1

  9
$XEDIT
290
     1
  9
$CEPSNTYPE
380
     0
  9
$PSTYLEMODE
290
     1
  9
$FINGERPRINTGUID
  2
{E99E91B1-DDD7-4B46-A7D1-4087DBA657CA}
  9
$VERSIONGUID
  2
{E70F8173-2C04-4759-85CC-665DA2C0AD64}
  9
$EXTNAMES
290
     1
  9
$PSVPSCALE
 40
0.0
  9
$OLESTARTUP
290
     0
  0
ENDSEC
  0
SECTION
  2
CLASSES
  0
CLASS
  1
IMAGE
  2
AcDbRasterImage
  3
ISM
 90
    32895
280
     0
281
     1
  0
CLASS
  1
DICTIONARYVAR
  2
AcDbDictionaryVar
  3
ObjectDBX Classes
 90
        0
280
     0
281
     0
  0
CLASS
  1
RASTERVARIABLES
  2
AcDbRasterVariables
  3
ISM
 90
    32768
280
     0
281
     0
  0
CLASS
  1
IMAGEDEF
  2
AcDbRasterImageDef
  3
ISM
 90
    32768
280
     0
281
     0
  0
CLASS
  1
IMAGEDEF_REACTOR
  2
AcDbRasterImageDefReactor
  3
ISM
 90
    32769
280
     0
281
     0
  0
CLASS
  1
IDBUFFER
  2
AcDbIdBuffer
  3
ObjectDBX Classes
 90
    32768
280
     0
281
     0
  0
CLASS
  1
SPATIAL_FILTER
  2
AcDbSpatialFilter
  3
ObjectDBX Classes
 90
    32768
280
     0
281
     0
  0
CLASS
  1
SORTENTSTABLE
  2
AcDbSortentsTable
  3
ObjectDBX Classes
 90
    32768
280
     0
281
     0
  0
CLASS
  1
LAYER_INDEX
  2
AcDbLayerIndex
  3
ObjectDBX Classes
 90
    32768
280
     0
281
     0
  0
CLASS
  1
SPATIAL_INDEX
  2
AcDbSpatialIndex
  3
ObjectDBX Classes
 90
    32768
280
     0
281
     0
  0
CLASS
  1
OBJECT_PTR
  2
CAseDLPNTableRecord
  3
"ASE-LPNTableRecord"
 90
    32769
280
     0
281
     0
  0
CLASS
  1
LAYOUT
  2
AcDbLayout
  3
ObjectDBX Classes
 90
        0
280
     0
281
     0
  0
CLASS
  1
PLOTSETTINGS
  2
AcDbPlotSettings
  3
ObjectDBX Classes
 90
    32768
280
     0
281
     0
  0
CLASS
  1
ACDBDICTIONARYWDFLT
  2
AcDbDictionaryWithDefault
  3
ObjectDBX Classes
 90
        0
280
     0
281
     0
  0
CLASS
  1
ACDBPLACEHOLDER
  2
AcDbPlaceHolder
  3
ObjectDBX Classes
 90
        0
280
     0
281
     0
  0
CLASS
  1
VBA_PROJECT
  2
AcDbVbaProject
  3
acad
 90
    32768
280
     0
281
     0
  0
CLASS
  1
WIPEOUT
  2
AcDbWipeout
  3
"WipeOut|Product Desc: Object Enabler for WipeOut entity^I^I^I^I^I^I|Company: Autodesk, Inc.^I^I^I^I^I^I|WEB Address: www.autodesk.com"
 90
    32895
280
     0
281
     1
  0
CLASS
  1
WIPEOUTVARIABLES
  2
AcDbWipeoutVariables
  3
"WipeOut|Product Desc:     WipeOut Dbx Application|Company:          Autodesk, Inc.|WEB Address:      www.autodesk.com"
 90
    32768
280
     0
281
     0
  0
CLASS
  1
RTEXT
  2
RText
  3
RText|AutoCAD Express Tool|expresstools@autodesk.com
 90
    32768
280
     0
281
     1
  0
CLASS
  1
ARCALIGNEDTEXT
  2
AcDbArcAlignedText
  3
ATEXT|AutoCAD Express Tool|expresstools@autodesk.com
 90
    32768
280
     0
281
     1
  0
ENDSEC
  0
SECTION
  2
TABLES
  0
TABLE
  2
VPORT
  5
7
330
0
100
AcDbSymbolTable
 70
     2
  0
VPORT
  5
A1F4
330
7
100
AcDbSymbolTableRecord
100
AcDbViewportTableRecord
  2
*Active
 70
     0
 10
0.0
 20
0.0
 11
1.0
 21
1.0
 12
718.4756480855196
 22
290.1075129468642
 13
0.0
 23
0.0
 14
1.0
 24
1.0
 15
0.0
 25
0.0
 16
0.0
 26
0.0
 36
1.0
 17
0.0
 27
0.0
 37
0.0
 40
799.72799022685
 41
2.070021881838074
 42
50.0
 43
0.0
 44
0.0
 50
0.0
 51
0.0
 71
     0
 72
   100
 73
     1
 74
     1
 75
     0
 76
     0
 77
     0
 78
     0
281
     0
 65
     1
110
0.0
120
0.0
130
0.0
111
1.0
121
0.0
131
0.0
112
0.0
122
1.0
132
0.0
 79
     0
146
0.0
  0
ENDTAB
  0
TABLE
  2
LTYPE
  5
4
330
0
100
AcDbSymbolTable
 70
     2
  0
LTYPE
  5
11
330
4
100
AcDbSymbolTableRecord
100
AcDbLinetypeTableRecord
  2
BYBLOCK
 70
     0
  3

 72
    65
 73
     0
 40
0.0
  0
LTYPE
  5
12
330
4
100
AcDbSymbolTableRecord
100
AcDbLinetypeTableRecord
  2
BYLAYER
 70
     0
  3

 72
    65
 73
     0
 40
0.0
  0
LTYPE
  5
13
330
4
100
AcDbSymbolTableRecord
100
AcDbLinetypeTableRecord
  2
CONTINUOUS
 70
     0
  3
Solid line
 72
    65
 73
     0
 40
0.0
  0
LTYPE
  5
1E
330
4
100
AcDbSymbolTableRecord
100
AcDbLinetypeTableRecord
  2
DASHDOT
 70
    32
  3
 __ . __ . __ . __ . __ . __ . __ . 
 72
    65
 73
     4
 40
18.5
 49
12.0
 74
     0
 49
-3.0
 74
     0
 49
0.5
 74
     0
 49
-3.0
 74
     0
  0
ENDTAB
  0
TABLE
  2
LAYER
  5
2
330
0
100
AcDbSymbolTable
 70
     3
  0
LAYER
  5
14
330
2
100
AcDbSymbolTableRecord
100
AcDbLayerTableRecord
  2
0
 70
     0
 62
     7
  6
CONTINUOUS
370
    -3
390
1F9F
  0
LAYER
  5
2D37
330
2
100
AcDbSymbolTableRecord
100
AcDbLayerTableRecord
  2
Defpoints
 70
     0
 62
     4
  6
CONTINUOUS
290
     0
370
    -3
390
1F9F
  0
LAYER
  5
3314
330
2
100
AcDbSymbolTableRecord
100
AcDbLayerTableRecord
  2
buhin
 70
     0
 62
     7
  6
CONTINUOUS
370
    -3
390
1F9F
  0
ENDTAB
  0
TABLE
  2
STYLE
  5
3
330
0
100
AcDbSymbolTable
 70
     1
  0
STYLE
  5
17
330
3
100
AcDbSymbolTableRecord
100
AcDbTextStyleTableRecord
  2
STANDARD
 70
     0
 40
0.0
 41
1.0
 50
0.0
 71
     0
 42
0.0
  3
MS Gothic.ttf
  4

1001
ACAD
1000
MS Gothic
1071
    32817
  0
ENDTAB
  0
TABLE
  2
VIEW
  5
5
330
0
100
AcDbSymbolTable
 70
     0
  0
ENDTAB
  0
TABLE
  2
UCS
  5
6
330
0
100
AcDbSymbolTable
 70
     0
  0
ENDTAB
  0
TABLE
  2
APPID
  5
8
330
0
100
AcDbSymbolTable
 70
     1
  0
APPID
  5
16
330
8
100
AcDbSymbolTableRecord
100
AcDbRegAppTableRecord
  2
ACAD
 70
     0
  0
ENDTAB
  0
TABLE
  2
DIMSTYLE
  5
9
330
0
100
AcDbSymbolTable
 70
     1
100
AcDbDimStyleTable
 71
     1
340
18
  0
DIMSTYLE
105
18
330
9
100
AcDbSymbolTableRecord
100
AcDbDimStyleTableRecord
  2
STANDARD
 70
     0
 41
2.5
 42
2.0
 43
3.75
 44
1.25
 73
     0
 74
     0
 77
     1
 78
     8
140
5.0
141
2.5
143
0.039370079
147
1.0
171
     3
172
     1
271
     0
272
     0
274
     3
283
     0
284
     8
289
     0
340
17
341
39B9
342
39B9
  0
ENDTAB
  0
TABLE
  2
BLOCK_RECORD
  5
1
330
0
100
AcDbSymbolTable
 70
    39
  0
BLOCK_RECORD
  5
A
330
1
100
AcDbSymbolTableRecord
100
AcDbBlockTableRecord
  2
*MODEL_SPACE
340
1FA4
  0
BLOCK_RECORD
  5
B
330
1
100
AcDbSymbolTableRecord
100
AcDbBlockTableRecord
  2
*PAPER_SPACE
340
1FA5
  0
BLOCK_RECORD
  5
2100
330
1
100
AcDbSymbolTableRecord
100
AcDbBlockTableRecord
  2
XH19
340
0
102
{BLKREFS
331
2477
331
31F8
102
}
  0
BLOCK_RECORD
  5
2103
330
1
100
AcDbSymbolTableRecord
100
AcDbBlockTableRecord
  2
XH21
340
0
102
{BLKREFS
331
2478
331
31F9
102
}
  0
BLOCK_RECORD
  5
2106
330
1
100
AcDbSymbolTableRecord
100
AcDbBlockTableRecord
  2
XH30
340
0
102
{BLKREFS
331
2479
331
31FA
102
}
  0
BLOCK_RECORD
  5
2109
330
1
100
AcDbSymbolTableRecord
100
AcDbBlockTableRecord
  2
XH32
340
0
102
{BLKREFS
331
247A
331
31FB
102
}
  0
BLOCK_RECORD
  5
210C
330
1
100
AcDbSymbolTableRecord
100
AcDbBlockTableRecord
  2
XH33
340
0
102
{BLKREFS
331
247B
331
31FC
102
}
  0
BLOCK_RECORD
  5
210F
330
1
100
AcDbSymbolTableRecord
100
AcDbBlockTableRecord
  2
XH39
340
0
102
{BLKREFS
331
247C
331
31FD
102
}
  0
BLOCK_RECORD
  5
2112
330
1
100
AcDbSymbolTableRecord
100
AcDbBlockTableRecord
  2
XH40
340
0
102
{BLKREFS
331
247D
331
31FE
102
}
  0
BLOCK_RECORD
  5
2115
330
1
100
AcDbSymbolTableRecord
100
AcDbBlockTableRecord
  2
XH42
340
0
102
{BLKREFS
331
247E
331
31FF
102
}
  0
BLOCK_RECORD
  5
2118
330
1
100
AcDbSymbolTableRecord
100
AcDbBlockTableRecord
  2
XH43
340
0
102
{BLKREFS
331
247F
331
3200
102
}
  0
BLOCK_RECORD
  5
211B
330
1
100
AcDbSymbolTableRecord
100
AcDbBlockTableRecord
  2
XH44
340
0
102
{BLKREFS
331
2480
331
3201
102
}
  0
BLOCK_RECORD
  5
211E
330
1
100
AcDbSymbolTableRecord
100
AcDbBlockTableRecord
  2
XH45
340
0
102
{BLKREFS
331
2481
331
3202
102
}
  0
BLOCK_RECORD
  5
2121
330
1
100
AcDbSymbolTableRecord
100
AcDbBlockTableRecord
  2
XH46
340
0
102
{BLKREFS
331
2482
331
3203
102
}
  0
BLOCK_RECORD
  5
2124
330
1
100
AcDbSymbolTableRecord
100
AcDbBlockTableRecord
  2
XH47
340
0
102
{BLKREFS
331
2483
331
3204
102
}
  0
BLOCK_RECORD
  5
2127
330
1
100
AcDbSymbolTableRecord
100
AcDbBlockTableRecord
  2
XH48
340
0
102
{BLKREFS
331
2484
331
3205
102
}
  0
BLOCK_RECORD
  5
212A
330
1
100
AcDbSymbolTableRecord
100
AcDbBlockTableRecord
  2
XH49
340
0
102
{BLKREFS
331
2485
331
3206
102
}
  0
BLOCK_RECORD
  5
212D
330
1
100
AcDbSymbolTableRecord
100
AcDbBlockTableRecord
  2
XH50
340
0
102
{BLKREFS
331
2486
331
3207
102
}
  0
BLOCK_RECORD
  5
2130
330
1
100
AcDbSymbolTableRecord
100
AcDbBlockTableRecord
  2
XH51
340
0
102
{BLKREFS
331
2487
331
3208
102
}
  0
BLOCK_RECORD
  5
2133
330
1
100
AcDbSymbolTableRecord
100
AcDbBlockTableRecord
  2
XH52
340
0
102
{BLKREFS
331
2488
331
3209
102
}
  0
BLOCK_RECORD
  5
2136
330
1
100
AcDbSymbolTableRecord
100
AcDbBlockTableRecord
  2
XH53
340
0
102
{BLKREFS
331
2489
331
320A
102
}
  0
BLOCK_RECORD
  5
2139
330
1
100
AcDbSymbolTableRecord
100
AcDbBlockTableRecord
  2
XH54
340
0
102
{BLKREFS
331
248A
331
320B
102
}
  0
BLOCK_RECORD
  5
213C
330
1
100
AcDbSymbolTableRecord
100
AcDbBlockTableRecord
  2
XH55
340
0
102
{BLKREFS
331
248B
331
320C
102
}
  0
BLOCK_RECORD
  5
213F
330
1
100
AcDbSymbolTableRecord
100
AcDbBlockTableRecord
  2
XH56
340
0
102
{BLKREFS
331
248C
331
320D
102
}
  0
BLOCK_RECORD
  5
2142
330
1
100
AcDbSymbolTableRecord
100
AcDbBlockTableRecord
  2
XH57
340
0
102
{BLKREFS
331
248D
331
320E
102
}
  0
BLOCK_RECORD
  5
2145
330
1
100
AcDbSymbolTableRecord
100
AcDbBlockTableRecord
  2
XH58
340
0
102
{BLKREFS
331
248E
331
320F
102
}
  0
BLOCK_RECORD
  5
2148
330
1
100
AcDbSymbolTableRecord
100
AcDbBlockTableRecord
  2
XH76
340
0
102
{BLKREFS
331
248F
331
3210
102
}
  0
BLOCK_RECORD
  5
214B
330
1
100
AcDbSymbolTableRecord
100
AcDbBlockTableRecord
  2
XH102
340
0
102
{BLKREFS
331
2490
331
3211
102
}
  0
BLOCK_RECORD
  5
214E
330
1
100
AcDbSymbolTableRecord
100
AcDbBlockTableRecord
  2
XH103
340
0
102
{BLKREFS
331
2491
331
3212
102
}
  0
BLOCK_RECORD
  5
2151
330
1
100
AcDbSymbolTableRecord
100
AcDbBlockTableRecord
  2
XH104
340
0
102
{BLKREFS
331
2492
331
3213
102
}
  0
BLOCK_RECORD
  5
2154
330
1
100
AcDbSymbolTableRecord
100
AcDbBlockTableRecord
  2
XH105
340
0
102
{BLKREFS
331
2493
331
3214
102
}
  0
BLOCK_RECORD
  5
2157
330
1
100
AcDbSymbolTableRecord
100
AcDbBlockTableRecord
  2
XH106
340
0
102
{BLKREFS
331
2494
331
3215
102
}
  0
BLOCK_RECORD
  5
215A
330
1
100
AcDbSymbolTableRecord
100
AcDbBlockTableRecord
  2
XH107
340
0
102
{BLKREFS
331
2495
331
3216
102
}
  0
BLOCK_RECORD
  5
215D
330
1
100
AcDbSymbolTableRecord
100
AcDbBlockTableRecord
  2
XH108
340
0
102
{BLKREFS
331
2496
331
3217
102
}
  0
BLOCK_RECORD
  5
2160
330
1
100
AcDbSymbolTableRecord
100
AcDbBlockTableRecord
  2
XH109
340
0
102
{BLKREFS
331
2497
331
3218
102
}
  0
BLOCK_RECORD
  5
2163
330
1
100
AcDbSymbolTableRecord
100
AcDbBlockTableRecord
  2
XH127
340
0
102
{BLKREFS
331
2498
331
3219
102
}
  0
BLOCK_RECORD
  5
2166
330
1
100
AcDbSymbolTableRecord
100
AcDbBlockTableRecord
  2
XH211
340
0
102
{BLKREFS
331
2499
331
321A
102
}
  0
BLOCK_RECORD
  5
2169
330
1
100
AcDbSymbolTableRecord
100
AcDbBlockTableRecord
  2
XH218
340
0
102
{BLKREFS
331
249A
331
321B
102
}
  0
BLOCK_RECORD
  5
216C
330
1
100
AcDbSymbolTableRecord
100
AcDbBlockTableRecord
  2
XH221
340
0
102
{BLKREFS
331
249B
331
321C
102
}
  0
BLOCK_RECORD
  5
216F
330
1
100
AcDbSymbolTableRecord
100
AcDbBlockTableRecord
  2
XH225
340
0
102
{BLKREFS
331
249C
331
321D
102
}
  0
BLOCK_RECORD
  5
39B9
330
1
100
AcDbSymbolTableRecord
100
AcDbBlockTableRecord
  2
_Open30
340
0
  0
ENDTAB
  0
ENDSEC
  0
SECTION
  2
BLOCKS
  0
BLOCK
  5
D
330
A
100
AcDbEntity
  8
0
100
AcDbBlockBegin
  2
*MODEL_SPACE
 70
     0
 10
0.0
 20
0.0
 30
0.0
  3
*MODEL_SPACE
  1

  0
ENDBLK
  5
E
330
A
100
AcDbEntity
  8
0
100
AcDbBlockEnd
  0
BLOCK
  5
F
330
B
100
AcDbEntity
 67
     1
  8
0
100
AcDbBlockBegin
  2
*PAPER_SPACE
 70
     0
 10
0.0
 20
0.0
 30
0.0
  3
*PAPER_SPACE
  1

  0
ENDBLK
  5
10
330
B
100
AcDbEntity
 67
     1
  8
0
100
AcDbBlockEnd
  0
BLOCK
  5
2101
330
2100
100
AcDbEntity
  8
0
  6
Continuous
 62
     7
100
AcDbBlockBegin
  2
XH19
 70
     0
 10
0.0
 20
0.0
 30
0.0
  3
XH19
  1

  0
ENDBLK
  5
2102
330
2100
100
AcDbEntity
  8
0
100
AcDbBlockEnd
  0
BLOCK
  5
2104
330
2103
100
AcDbEntity
  8
0
  6
Continuous
 62
     7
100
AcDbBlockBegin
  2
XH21
 70
     0
 10
0.0
 20
0.0
 30
0.0
  3
XH21
  1

  0
ENDBLK
  5
2105
330
2103
100
AcDbEntity
  8
0
100
AcDbBlockEnd
  0
BLOCK
  5
2107
330
2106
100
AcDbEntity
  8
0
  6
Continuous
 62
     7
100
AcDbBlockBegin
  2
XH30
 70
     0
 10
0.0
 20
0.0
 30
0.0
  3
XH30
  1

  0
ENDBLK
  5
2108
330
2106
100
AcDbEntity
  8
0
100
AcDbBlockEnd
  0
BLOCK
  5
210A
330
2109
100
AcDbEntity
  8
0
  6
Continuous
 62
     7
100
AcDbBlockBegin
  2
XH32
 70
     0
 10
0.0
 20
0.0
 30
0.0
  3
XH32
  1

  0
ENDBLK
  5
210B
330
2109
100
AcDbEntity
  8
0
100
AcDbBlockEnd
  0
BLOCK
  5
210D
330
210C
100
AcDbEntity
  8
0
  6
Continuous
 62
     7
100
AcDbBlockBegin
  2
XH33
 70
     0
 10
0.0
 20
0.0
 30
0.0
  3
XH33
  1

  0
ENDBLK
  5
210E
330
210C
100
AcDbEntity
  8
0
100
AcDbBlockEnd
  0
BLOCK
  5
2110
330
210F
100
AcDbEntity
  8
0
  6
Continuous
 62
     7
100
AcDbBlockBegin
  2
XH39
 70
     0
 10
0.0
 20
0.0
 30
0.0
  3
XH39
  1

  0
ENDBLK
  5
2111
330
210F
100
AcDbEntity
  8
0
100
AcDbBlockEnd
  0
BLOCK
  5
2113
330
2112
100
AcDbEntity
  8
0
  6
Continuous
 62
     7
100
AcDbBlockBegin
  2
XH40
 70
     0
 10
0.0
 20
0.0
 30
0.0
  3
XH40
  1

  0
ENDBLK
  5
2114
330
2112
100
AcDbEntity
  8
0
100
AcDbBlockEnd
  0
BLOCK
  5
2116
330
2115
100
AcDbEntity
  8
0
  6
Continuous
 62
     7
100
AcDbBlockBegin
  2
XH42
 70
     0
 10
0.0
 20
0.0
 30
0.0
  3
XH42
  1

  0
ENDBLK
  5
2117
330
2115
100
AcDbEntity
  8
0
100
AcDbBlockEnd
  0
BLOCK
  5
2119
330
2118
100
AcDbEntity
  8
0
  6
Continuous
 62
     7
100
AcDbBlockBegin
  2
XH43
 70
     0
 10
0.0
 20
0.0
 30
0.0
  3
XH43
  1

  0
ENDBLK
  5
211A
330
2118
100
AcDbEntity
  8
0
100
AcDbBlockEnd
  0
BLOCK
  5
211C
330
211B
100
AcDbEntity
  8
0
  6
Continuous
 62
     7
100
AcDbBlockBegin
  2
XH44
 70
     0
 10
0.0
 20
0.0
 30
0.0
  3
XH44
  1

  0
ENDBLK
  5
211D
330
211B
100
AcDbEntity
  8
0
100
AcDbBlockEnd
  0
BLOCK
  5
211F
330
211E
100
AcDbEntity
  8
0
  6
Continuous
 62
     7
100
AcDbBlockBegin
  2
XH45
 70
     0
 10
0.0
 20
0.0
 30
0.0
  3
XH45
  1

  0
ENDBLK
  5
2120
330
211E
100
AcDbEntity
  8
0
100
AcDbBlockEnd
  0
BLOCK
  5
2122
330
2121
100
AcDbEntity
  8
0
  6
Continuous
 62
     7
100
AcDbBlockBegin
  2
XH46
 70
     0
 10
0.0
 20
0.0
 30
0.0
  3
XH46
  1

  0
ENDBLK
  5
2123
330
2121
100
AcDbEntity
  8
0
100
AcDbBlockEnd
  0
BLOCK
  5
2125
330
2124
100
AcDbEntity
  8
0
  6
Continuous
 62
     7
100
AcDbBlockBegin
  2
XH47
 70
     0
 10
0.0
 20
0.0
 30
0.0
  3
XH47
  1

  0
ENDBLK
  5
2126
330
2124
100
AcDbEntity
  8
0
100
AcDbBlockEnd
  0
BLOCK
  5
2128
330
2127
100
AcDbEntity
  8
0
  6
Continuous
 62
     7
100
AcDbBlockBegin
  2
XH48
 70
     0
 10
0.0
 20
0.0
 30
0.0
  3
XH48
  1

  0
ENDBLK
  5
2129
330
2127
100
AcDbEntity
  8
0
100
AcDbBlockEnd
  0
BLOCK
  5
212B
330
212A
100
AcDbEntity
  8
0
  6
Continuous
 62
     7
100
AcDbBlockBegin
  2
XH49
 70
     0
 10
0.0
 20
0.0
 30
0.0
  3
XH49
  1

  0
ENDBLK
  5
212C
330
212A
100
AcDbEntity
  8
0
100
AcDbBlockEnd
  0
BLOCK
  5
212E
330
212D
100
AcDbEntity
  8
0
  6
Continuous
 62
     7
100
AcDbBlockBegin
  2
XH50
 70
     0
 10
0.0
 20
0.0
 30
0.0
  3
XH50
  1

  0
ENDBLK
  5
212F
330
212D
100
AcDbEntity
  8
0
100
AcDbBlockEnd
  0
BLOCK
  5
2131
330
2130
100
AcDbEntity
  8
0
  6
Continuous
 62
     7
100
AcDbBlockBegin
  2
XH51
 70
     0
 10
0.0
 20
0.0
 30
0.0
  3
XH51
  1

  0
ENDBLK
  5
2132
330
2130
100
AcDbEntity
  8
0
100
AcDbBlockEnd
  0
BLOCK
  5
2134
330
2133
100
AcDbEntity
  8
0
  6
Continuous
 62
     7
100
AcDbBlockBegin
  2
XH52
 70
     0
 10
0.0
 20
0.0
 30
0.0
  3
XH52
  1

  0
ENDBLK
  5
2135
330
2133
100
AcDbEntity
  8
0
100
AcDbBlockEnd
  0
BLOCK
  5
2137
330
2136
100
AcDbEntity
  8
0
  6
Continuous
 62
     7
100
AcDbBlockBegin
  2
XH53
 70
     0
 10
0.0
 20
0.0
 30
0.0
  3
XH53
  1

  0
ENDBLK
  5
2138
330
2136
100
AcDbEntity
  8
0
100
AcDbBlockEnd
  0
BLOCK
  5
213A
330
2139
100
AcDbEntity
  8
0
  6
Continuous
 62
     7
100
AcDbBlockBegin
  2
XH54
 70
     0
 10
0.0
 20
0.0
 30
0.0
  3
XH54
  1

  0
ENDBLK
  5
213B
330
2139
100
AcDbEntity
  8
0
100
AcDbBlockEnd
  0
BLOCK
  5
213D
330
213C
100
AcDbEntity
  8
0
  6
Continuous
 62
     7
100
AcDbBlockBegin
  2
XH55
 70
     0
 10
0.0
 20
0.0
 30
0.0
  3
XH55
  1

  0
ENDBLK
  5
213E
330
213C
100
AcDbEntity
  8
0
100
AcDbBlockEnd
  0
BLOCK
  5
2140
330
213F
100
AcDbEntity
  8
0
  6
Continuous
 62
     7
100
AcDbBlockBegin
  2
XH56
 70
     0
 10
0.0
 20
0.0
 30
0.0
  3
XH56
  1

  0
ENDBLK
  5
2141
330
213F
100
AcDbEntity
  8
0
100
AcDbBlockEnd
  0
BLOCK
  5
2143
330
2142
100
AcDbEntity
  8
0
  6
Continuous
 62
     7
100
AcDbBlockBegin
  2
XH57
 70
     0
 10
0.0
 20
0.0
 30
0.0
  3
XH57
  1

  0
ENDBLK
  5
2144
330
2142
100
AcDbEntity
  8
0
100
AcDbBlockEnd
  0
BLOCK
  5
2146
330
2145
100
AcDbEntity
  8
0
  6
Continuous
 62
     7
100
AcDbBlockBegin
  2
XH58
 70
     0
 10
0.0
 20
0.0
 30
0.0
  3
XH58
  1

  0
ENDBLK
  5
2147
330
2145
100
AcDbEntity
  8
0
100
AcDbBlockEnd
  0
BLOCK
  5
2149
330
2148
100
AcDbEntity
  8
0
  6
Continuous
 62
     7
100
AcDbBlockBegin
  2
XH76
 70
     0
 10
0.0
 20
0.0
 30
0.0
  3
XH76
  1

  0
ENDBLK
  5
214A
330
2148
100
AcDbEntity
  8
0
100
AcDbBlockEnd
  0
BLOCK
  5
214C
330
214B
100
AcDbEntity
  8
0
  6
Continuous
 62
     7
100
AcDbBlockBegin
  2
XH102
 70
     0
 10
0.0
 20
0.0
 30
0.0
  3
XH102
  1

  0
ENDBLK
  5
214D
330
214B
100
AcDbEntity
  8
0
100
AcDbBlockEnd
  0
BLOCK
  5
214F
330
214E
100
AcDbEntity
  8
0
  6
Continuous
 62
     7
100
AcDbBlockBegin
  2
XH103
 70
     0
 10
0.0
 20
0.0
 30
0.0
  3
XH103
  1

  0
ENDBLK
  5
2150
330
214E
100
AcDbEntity
  8
0
100
AcDbBlockEnd
  0
BLOCK
  5
2152
330
2151
100
AcDbEntity
  8
0
  6
Continuous
 62
     7
100
AcDbBlockBegin
  2
XH104
 70
     0
 10
0.0
 20
0.0
 30
0.0
  3
XH104
  1

  0
ENDBLK
  5
2153
330
2151
100
AcDbEntity
  8
0
100
AcDbBlockEnd
  0
BLOCK
  5
2155
330
2154
100
AcDbEntity
  8
0
  6
Continuous
 62
     7
100
AcDbBlockBegin
  2
XH105
 70
     0
 10
0.0
 20
0.0
 30
0.0
  3
XH105
  1

  0
ENDBLK
  5
2156
330
2154
100
AcDbEntity
  8
0
100
AcDbBlockEnd
  0
BLOCK
  5
2158
330
2157
100
AcDbEntity
  8
0
  6
Continuous
 62
     7
100
AcDbBlockBegin
  2
XH106
 70
     0
 10
0.0
 20
0.0
 30
0.0
  3
XH106
  1

  0
ENDBLK
  5
2159
330
2157
100
AcDbEntity
  8
0
100
AcDbBlockEnd
  0
BLOCK
  5
215B
330
215A
100
AcDbEntity
  8
0
  6
Continuous
 62
     7
100
AcDbBlockBegin
  2
XH107
 70
     0
 10
0.0
 20
0.0
 30
0.0
  3
XH107
  1

  0
ENDBLK
  5
215C
330
215A
100
AcDbEntity
  8
0
100
AcDbBlockEnd
  0
BLOCK
  5
215E
330
215D
100
AcDbEntity
  8
0
  6
Continuous
 62
     7
100
AcDbBlockBegin
  2
XH108
 70
     0
 10
0.0
 20
0.0
 30
0.0
  3
XH108
  1

  0
ENDBLK
  5
215F
330
215D
100
AcDbEntity
  8
0
100
AcDbBlockEnd
  0
BLOCK
  5
2161
330
2160
100
AcDbEntity
  8
0
  6
Continuous
 62
     7
100
AcDbBlockBegin
  2
XH109
 70
     0
 10
0.0
 20
0.0
 30
0.0
  3
XH109
  1

  0
ENDBLK
  5
2162
330
2160
100
AcDbEntity
  8
0
100
AcDbBlockEnd
  0
BLOCK
  5
2164
330
2163
100
AcDbEntity
  8
0
  6
Continuous
 62
     7
100
AcDbBlockBegin
  2
XH127
 70
     0
 10
0.0
 20
0.0
 30
0.0
  3
XH127
  1

  0
ENDBLK
  5
2165
330
2163
100
AcDbEntity
  8
0
100
AcDbBlockEnd
  0
BLOCK
  5
2167
330
2166
100
AcDbEntity
  8
0
  6
Continuous
 62
     7
100
AcDbBlockBegin
  2
XH211
 70
     0
 10
0.0
 20
0.0
 30
0.0
  3
XH211
  1

  0
ENDBLK
  5
2168
330
2166
100
AcDbEntity
  8
0
100
AcDbBlockEnd
  0
BLOCK
  5
216A
330
2169
100
AcDbEntity
  8
0
  6
Continuous
 62
     7
100
AcDbBlockBegin
  2
XH218
 70
     0
 10
0.0
 20
0.0
 30
0.0
  3
XH218
  1

  0
ENDBLK
  5
216B
330
2169
100
AcDbEntity
  8
0
100
AcDbBlockEnd
  0
BLOCK
  5
216D
330
216C
100
AcDbEntity
  8
0
  6
Continuous
 62
     7
100
AcDbBlockBegin
  2
XH221
 70
     0
 10
0.0
 20
0.0
 30
0.0
  3
XH221
  1

  0
ENDBLK
  5
216E
330
216C
100
AcDbEntity
  8
0
100
AcDbBlockEnd
  0
BLOCK
  5
2170
330
216F
100
AcDbEntity
  8
0
  6
Continuous
 62
     7
100
AcDbBlockBegin
  2
XH225
 70
     0
 10
0.0
 20
0.0
 30
0.0
  3
XH225
  1

  0
ENDBLK
  5
2171
330
216F
100
AcDbEntity
  8
0
100
AcDbBlockEnd
  0
BLOCK
  5
39BD
330
39B9
100
AcDbEntity
  8
0
100
AcDbBlockBegin
  2
_Open30
 70
     0
 10
0.0
 20
0.0
 30
0.0
  3
_Open30
  1

  0
LINE
  5
39BA
330
39B9
100
AcDbEntity
  8
0
  6
ByBlock
 62
     0
370
    -2
100
AcDbLine
 10
-1.0
 20
0.26794919
 30
0.0
 11
0.0
 21
0.0
 31
0.0
  0
LINE
  5
39BB
330
39B9
100
AcDbEntity
  8
0
  6
ByBlock
 62
     0
370
    -2
100
AcDbLine
 10
0.0
 20
0.0
 30
0.0
 11
-1.0
 21
-0.26794919
 31
0.0
  0
LINE
  5
39BC
330
39B9
100
AcDbEntity
  8
0
  6
ByBlock
 62
     0
370
    -2
100
AcDbLine
 10
0.0
 20
0.0
 30
0.0
 11
-1.0
 21
0.0
 31
0.0
  0
ENDBLK
  5
39BE
330
39B9
100
AcDbEntity
  8
0
100
AcDbBlockEnd
  0
ENDSEC
  0
SECTION
  2
ENTITIES
  0
TEXT
  5
2471
330
A
100
AcDbEntity
  8
0
  6
Continuous
 62
     7
100
AcDbText
 10
-77.67806799999998
 20
49.18654599999999
 30
0.0
 40
2.5
  1

 41
0.75
 11
-77.67806799999998
 21
50.43654599999999
 31
0.0
100
AcDbText
 73
     2
  0
TEXT
  5
2472
330
A
100
AcDbEntity
  8
0
  6
Continuous
 62
     7
100
AcDbText
 10
-77.67806799999998
 20
54.18654599999999
 30
0.0
 40
2.5
  1

 41
0.75
 11
-77.67806799999998
 21
55.43654599999999
 31
0.0
100
AcDbText
 73
     2
  0
TEXT
  5
2473
330
A
100
AcDbEntity
  8
0
  6
Continuous
 62
     7
100
AcDbText
 10
-77.67806799999998
 20
59.18654599999999
 30
0.0
 40
2.5
  1

 41
0.75
 11
-77.67806799999998
 21
60.43654599999999
 31
0.0
100
AcDbText
 73
     2
  0
TEXT
  5
2474
330
A
100
AcDbEntity
  8
0
  6
Continuous
 62
     7
100
AcDbText
 10
-77.67806799999998
 20
64.18654599999999
 30
0.0
 40
2.5
  1

 41
0.75
 11
-77.67806799999998
 21
65.43654599999999
 31
0.0
100
AcDbText
 73
     2
  0
TEXT
  5
2475
330
A
100
AcDbEntity
  8
0
  6
Continuous
 62
     7
100
AcDbText
 10
-77.67806799999998
 20
69.18654599999999
 30
0.0
 40
2.5
  1

 41
0.75
 11
-77.67806799999998
 21
70.43654599999999
 31
0.0
100
AcDbText
 73
     2
  0
TEXT
  5
2476
330
A
100
AcDbEntity
  8
0
  6
Continuous
 62
     7
100
AcDbText
 10
-77.67806799999998
 20
74.18654599999999
 30
0.0
 40
2.5
  1

 41
0.75
 11
-77.67806799999998
 21
75.43654599999999
 31
0.0
100
AcDbText
 73
     2
  0
INSERT
  5
2477
330
A
100
AcDbEntity
  8
0
 62
     7
100
AcDbBlockReference
  2
XH19
 10
0.0
 20
0.0
 30
0.0
  0
INSERT
  5
2478
330
A
100
AcDbEntity
  8
0
 62
     7
100
AcDbBlockReference
  2
XH21
 10
0.0
 20
0.0
 30
0.0
  0
INSERT
  5
2479
330
A
100
AcDbEntity
  8
0
 62
     7
100
AcDbBlockReference
  2
XH30
 10
0.0
 20
0.0
 30
0.0
  0
INSERT
  5
247A
330
A
100
AcDbEntity
  8
0
 62
     7
100
AcDbBlockReference
  2
XH32
 10
0.0
 20
0.0
 30
0.0
  0
INSERT
  5
247B
330
A
100
AcDbEntity
  8
0
 62
     7
100
AcDbBlockReference
  2
XH33
 10
0.0
 20
0.0
 30
0.0
  0
INSERT
  5
247C
330
A
100
AcDbEntity
  8
0
 62
     7
100
AcDbBlockReference
  2
XH39
 10
0.0
 20
0.0
 30
0.0
  0
INSERT
  5
247D
330
A
100
AcDbEntity
  8
0
 62
     7
100
AcDbBlockReference
  2
XH40
 10
0.0
 20
0.0
 30
0.0
  0
INSERT
  5
247E
330
A
100
AcDbEntity
  8
0
 62
     7
100
AcDbBlockReference
  2
XH42
 10
0.0
 20
0.0
 30
0.0
  0
INSERT
  5
247F
330
A
100
AcDbEntity
  8
0
 62
     7
100
AcDbBlockReference
  2
XH43
 10
0.0
 20
0.0
 30
0.0
  0
INSERT
  5
2480
330
A
100
AcDbEntity
  8
0
 62
     7
100
AcDbBlockReference
  2
XH44
 10
0.0
 20
0.0
 30
0.0
  0
INSERT
  5
2481
330
A
100
AcDbEntity
  8
0
 62
     7
100
AcDbBlockReference
  2
XH45
 10
0.0
 20
0.0
 30
0.0
  0
INSERT
  5
2482
330
A
100
AcDbEntity
  8
0
 62
     7
100
AcDbBlockReference
  2
XH46
 10
0.0
 20
0.0
 30
0.0
  0
INSERT
  5
2483
330
A
100
AcDbEntity
  8
0
 62
     7
100
AcDbBlockReference
  2
XH47
 10
0.0
 20
0.0
 30
0.0
  0
INSERT
  5
2484
330
A
100
AcDbEntity
  8
0
 62
     7
100
AcDbBlockReference
  2
XH48
 10
0.0
 20
0.0
 30
0.0
  0
INSERT
  5
2485
330
A
100
AcDbEntity
  8
0
 62
     7
100
AcDbBlockReference
  2
XH49
 10
0.0
 20
0.0
 30
0.0
  0
INSERT
  5
2486
330
A
100
AcDbEntity
  8
0
 62
     7
100
AcDbBlockReference
  2
XH50
 10
0.0
 20
0.0
 30
0.0
  0
INSERT
  5
2487
330
A
100
AcDbEntity
  8
0
 62
     7
100
AcDbBlockReference
  2
XH51
 10
0.0
 20
0.0
 30
0.0
  0
INSERT
  5
2488
330
A
100
AcDbEntity
  8
0
 62
     7
100
AcDbBlockReference
  2
XH52
 10
0.0
 20
0.0
 30
0.0
  0
INSERT
  5
2489
330
A
100
AcDbEntity
  8
0
 62
     7
100
AcDbBlockReference
  2
XH53
 10
0.0
 20
0.0
 30
0.0
  0
INSERT
  5
248A
330
A
100
AcDbEntity
  8
0
 62
     7
100
AcDbBlockReference
  2
XH54
 10
0.0
 20
0.0
 30
0.0
  0
INSERT
  5
248B
330
A
100
AcDbEntity
  8
0
 62
     7
100
AcDbBlockReference
  2
XH55
 10
0.0
 20
0.0
 30
0.0
  0
INSERT
  5
248C
330
A
100
AcDbEntity
  8
0
 62
     7
100
AcDbBlockReference
  2
XH56
 10
0.0
 20
0.0
 30
0.0
  0
INSERT
  5
248D
330
A
100
AcDbEntity
  8
0
 62
     7
100
AcDbBlockReference
  2
XH57
 10
0.0
 20
0.0
 30
0.0
  0
INSERT
  5
248E
330
A
100
AcDbEntity
  8
0
 62
     7
100
AcDbBlockReference
  2
XH58
 10
0.0
 20
0.0
 30
0.0
  0
INSERT
  5
248F
330
A
100
AcDbEntity
  8
0
 62
     7
100
AcDbBlockReference
  2
XH76
 10
0.0
 20
0.0
 30
0.0
  0
INSERT
  5
2490
330
A
100
AcDbEntity
  8
0
 62
     7
100
AcDbBlockReference
  2
XH102
 10
0.0
 20
0.0
 30
0.0
  0
INSERT
  5
2491
330
A
100
AcDbEntity
  8
0
 62
     7
100
AcDbBlockReference
  2
XH103
 10
0.0
 20
0.0
 30
0.0
  0
INSERT
  5
2492
330
A
100
AcDbEntity
  8
0
 62
     7
100
AcDbBlockReference
  2
XH104
 10
0.0
 20
0.0
 30
0.0
  0
INSERT
  5
2493
330
A
100
AcDbEntity
  8
0
 62
     7
100
AcDbBlockReference
  2
XH105
 10
0.0
 20
0.0
 30
0.0
  0
INSERT
  5
2494
330
A
100
AcDbEntity
  8
0
 62
     7
100
AcDbBlockReference
  2
XH106
 10
0.0
 20
0.0
 30
0.0
  0
INSERT
  5
2495
330
A
100
AcDbEntity
  8
0
 62
     7
100
AcDbBlockReference
  2
XH107
 10
0.0
 20
0.0
 30
0.0
  0
INSERT
  5
2496
330
A
100
AcDbEntity
  8
0
 62
     7
100
AcDbBlockReference
  2
XH108
 10
0.0
 20
0.0
 30
0.0
  0
INSERT
  5
2497
330
A
100
AcDbEntity
  8
0
 62
     7
100
AcDbBlockReference
  2
XH109
 10
0.0
 20
0.0
 30
0.0
  0
INSERT
  5
2498
330
A
100
AcDbEntity
  8
0
 62
     7
100
AcDbBlockReference
  2
XH127
 10
0.0
 20
0.0
 30
0.0
  0
INSERT
  5
2499
330
A
100
AcDbEntity
  8
0
 62
     7
100
AcDbBlockReference
  2
XH211
 10
0.0
 20
0.0
 30
0.0
  0
INSERT
  5
249A
330
A
100
AcDbEntity
  8
0
 62
     7
100
AcDbBlockReference
  2
XH218
 10
0.0
 20
0.0
 30
0.0
  0
INSERT
  5
249B
330
A
100
AcDbEntity
  8
0
 62
     7
100
AcDbBlockReference
  2
XH221
 10
0.0
 20
0.0
 30
0.0
  0
INSERT
  5
249C
330
A
100
AcDbEntity
  8
0
 62
     7
100
AcDbBlockReference
  2
XH225
 10
0.0
 20
0.0
 30
0.0
  0
TEXT
  5
31F2
330
A
100
AcDbEntity
  8
0
  6
Continuous
 62
     7
100
AcDbText
 10
-77.67806799999998
 20
49.18654599999999
 30
0.0
 40
2.5
  1

 11
-77.67806799999998
 21
50.43654599999999
 31
0.0
100
AcDbText
 73
     2
  0
TEXT
  5
31F3
330
A
100
AcDbEntity
  8
0
  6
Continuous
 62
     7
100
AcDbText
 10
-77.67806799999998
 20
54.18654599999999
 30
0.0
 40
2.5
  1

 11
-77.67806799999998
 21
55.43654599999999
 31
0.0
100
AcDbText
 73
     2
  0
TEXT
  5
31F4
330
A
100
AcDbEntity
  8
0
  6
Continuous
 62
     7
100
AcDbText
 10
-77.67806799999998
 20
59.18654599999999
 30
0.0
 40
2.5
  1

 11
-77.67806799999998
 21
60.43654599999999
 31
0.0
100
AcDbText
 73
     2
  0
TEXT
  5
31F5
330
A
100
AcDbEntity
  8
0
  6
Continuous
 62
     7
100
AcDbText
 10
-77.67806799999998
 20
64.18654599999999
 30
0.0
 40
2.5
  1

 11
-77.67806799999998
 21
65.43654599999999
 31
0.0
100
AcDbText
 73
     2
  0
TEXT
  5
31F6
330
A
100
AcDbEntity
  8
0
  6
Continuous
 62
     7
100
AcDbText
 10
-77.67806799999998
 20
69.18654599999999
 30
0.0
 40
2.5
  1

 11
-77.67806799999998
 21
70.43654599999999
 31
0.0
100
AcDbText
 73
     2
  0
TEXT
  5
31F7
330
A
100
AcDbEntity
  8
0
  6
Continuous
 62
     7
100
AcDbText
 10
-77.67806799999998
 20
74.18654599999999
 30
0.0
 40
2.5
  1

 11
-77.67806799999998
 21
75.43654599999999
 31
0.0
100
AcDbText
 73
     2
  0
INSERT
  5
31F8
330
A
100
AcDbEntity
  8
0
 62
     7
100
AcDbBlockReference
  2
XH19
 10
0.0
 20
0.0
 30
0.0
  0
INSERT
  5
31F9
330
A
100
AcDbEntity
  8
0
 62
     7
100
AcDbBlockReference
  2
XH21
 10
0.0
 20
0.0
 30
0.0
  0
INSERT
  5
31FA
330
A
100
AcDbEntity
  8
0
 62
     7
100
AcDbBlockReference
  2
XH30
 10
0.0
 20
0.0
 30
0.0
  0
INSERT
  5
31FB
330
A
100
AcDbEntity
  8
0
 62
     7
100
AcDbBlockReference
  2
XH32
 10
0.0
 20
0.0
 30
0.0
  0
INSERT
  5
31FC
330
A
100
AcDbEntity
  8
0
 62
     7
100
AcDbBlockReference
  2
XH33
 10
0.0
 20
0.0
 30
0.0
  0
INSERT
  5
31FD
330
A
100
AcDbEntity
  8
0
 62
     7
100
AcDbBlockReference
  2
XH39
 10
0.0
 20
0.0
 30
0.0
  0
INSERT
  5
31FE
330
A
100
AcDbEntity
  8
0
 62
     7
100
AcDbBlockReference
  2
XH40
 10
0.0
 20
0.0
 30
0.0
  0
INSERT
  5
31FF
330
A
100
AcDbEntity
  8
0
 62
     7
100
AcDbBlockReference
  2
XH42
 10
0.0
 20
0.0
 30
0.0
  0
INSERT
  5
3200
330
A
100
AcDbEntity
  8
0
 62
     7
100
AcDbBlockReference
  2
XH43
 10
0.0
 20
0.0
 30
0.0
  0
INSERT
  5
3201
330
A
100
AcDbEntity
  8
0
 62
     7
100
AcDbBlockReference
  2
XH44
 10
0.0
 20
0.0
 30
0.0
  0
INSERT
  5
3202
330
A
100
AcDbEntity
  8
0
 62
     7
100
AcDbBlockReference
  2
XH45
 10
0.0
 20
0.0
 30
0.0
  0
INSERT
  5
3203
330
A
100
AcDbEntity
  8
0
 62
     7
100
AcDbBlockReference
  2
XH46
 10
0.0
 20
0.0
 30
0.0
  0
INSERT
  5
3204
330
A
100
AcDbEntity
  8
0
 62
     7
100
AcDbBlockReference
  2
XH47
 10
0.0
 20
0.0
 30
0.0
  0
INSERT
  5
3205
330
A
100
AcDbEntity
  8
0
 62
     7
100
AcDbBlockReference
  2
XH48
 10
0.0
 20
0.0
 30
0.0
  0
INSERT
  5
3206
330
A
100
AcDbEntity
  8
0
 62
     7
100
AcDbBlockReference
  2
XH49
 10
0.0
 20
0.0
 30
0.0
  0
INSERT
  5
3207
330
A
100
AcDbEntity
  8
0
 62
     7
100
AcDbBlockReference
  2
XH50
 10
0.0
 20
0.0
 30
0.0
  0
INSERT
  5
3208
330
A
100
AcDbEntity
  8
0
 62
     7
100
AcDbBlockReference
  2
XH51
 10
0.0
 20
0.0
 30
0.0
  0
INSERT
  5
3209
330
A
100
AcDbEntity
  8
0
 62
     7
100
AcDbBlockReference
  2
XH52
 10
0.0
 20
0.0
 30
0.0
  0
INSERT
  5
320A
330
A
100
AcDbEntity
  8
0
 62
     7
100
AcDbBlockReference
  2
XH53
 10
0.0
 20
0.0
 30
0.0
  0
INSERT
  5
320B
330
A
100
AcDbEntity
  8
0
 62
     7
100
AcDbBlockReference
  2
XH54
 10
0.0
 20
0.0
 30
0.0
  0
INSERT
  5
320C
330
A
100
AcDbEntity
  8
0
 62
     7
100
AcDbBlockReference
  2
XH55
 10
0.0
 20
0.0
 30
0.0
  0
INSERT
  5
320D
330
A
100
AcDbEntity
  8
0
 62
     7
100
AcDbBlockReference
  2
XH56
 10
0.0
 20
0.0
 30
0.0
  0
INSERT
  5
320E
330
A
100
AcDbEntity
  8
0
 62
     7
100
AcDbBlockReference
  2
XH57
 10
0.0
 20
0.0
 30
0.0
  0
INSERT
  5
320F
330
A
100
AcDbEntity
  8
0
 62
     7
100
AcDbBlockReference
  2
XH58
 10
0.0
 20
0.0
 30
0.0
  0
INSERT
  5
3210
330
A
100
AcDbEntity
  8
0
 62
     7
100
AcDbBlockReference
  2
XH76
 10
0.0
 20
0.0
 30
0.0
  0
INSERT
  5
3211
330
A
100
AcDbEntity
  8
0
 62
     7
100
AcDbBlockReference
  2
XH102
 10
0.0
 20
0.0
 30
0.0
  0
INSERT
  5
3212
330
A
100
AcDbEntity
  8
0
 62
     7
100
AcDbBlockReference
  2
XH103
 10
0.0
 20
0.0
 30
0.0
  0
INSERT
  5
3213
330
A
100
AcDbEntity
  8
0
 62
     7
100
AcDbBlockReference
  2
XH104
 10
0.0
 20
0.0
 30
0.0
  0
INSERT
  5
3214
330
A
100
AcDbEntity
  8
0
 62
     7
100
AcDbBlockReference
  2
XH105
 10
0.0
 20
0.0
 30
0.0
  0
INSERT
  5
3215
330
A
100
AcDbEntity
  8
0
 62
     7
100
AcDbBlockReference
  2
XH106
 10
0.0
 20
0.0
 30
0.0
  0
INSERT
  5
3216
330
A
100
AcDbEntity
  8
0
 62
     7
100
AcDbBlockReference
  2
XH107
 10
0.0
 20
0.0
 30
0.0
  0
INSERT
  5
3217
330
A
100
AcDbEntity
  8
0
 62
     7
100
AcDbBlockReference
  2
XH108
 10
0.0
 20
0.0
 30
0.0
  0
INSERT
  5
3218
330
A
100
AcDbEntity
  8
0
 62
     7
100
AcDbBlockReference
  2
XH109
 10
0.0
 20
0.0
 30
0.0
  0
INSERT
  5
3219
330
A
100
AcDbEntity
  8
0
 62
     7
100
AcDbBlockReference
  2
XH127
 10
0.0
 20
0.0
 30
0.0
  0
INSERT
  5
321A
330
A
100
AcDbEntity
  8
0
 62
     7
100
AcDbBlockReference
  2
XH211
 10
0.0
 20
0.0
 30
0.0
  0
INSERT
  5
321B
330
A
100
AcDbEntity
  8
0
 62
     7
100
AcDbBlockReference
  2
XH218
 10
0.0
 20
0.0
 30
0.0
  0
INSERT
  5
321C
330
A
100
AcDbEntity
  8
0
 62
     7
100
AcDbBlockReference
  2
XH221
 10
0.0
 20
0.0
 30
0.0
  0
INSERT
  5
321D
330
A
100
AcDbEntity
  8
0
 62
     7
100
AcDbBlockReference
  2
XH225
 10
0.0
 20
0.0
 30
0.0
  0
CIRCLE
  5
3E53
330
A
100
AcDbEntity
  8
Defpoints
100
AcDbCircle
 10
0.0
 20
0.0
 30
0.0
 40
104.7193324021361
  0
LWPOLYLINE
  5
3E54
330
A
100
AcDbEntity
  8
0
100
AcDbPolyline
 90
        4
 70
     1
 43
0.0
 10
0.0
 20
0.0
 10
706.8473092130875
 20
0.0
 10
706.8473092130875
 20
684.9087803790841
 10
0.0
 20
684.9087803790841
  0
TEXT
  5
4E9B
330
A
100
AcDbEntity
  8
buhin
100
AcDbText
 10
658.4375906085679
 20
20.9441272791787
 30
0.0
 40
10.0
  1
39410
100
AcDbText
  0
LINE
  5
92C0
330
A
100
AcDbEntity
  8
buhin
  6
DASHDOT
100
AcDbLine
 10
229.7848199890941
 20
304.1430579368653
 30
0.0
 11
229.7848199890941
 21
170.3110198181875
 31
0.0
  0
LINE
  5
92D0
330
A
100
AcDbEntity
  8
buhin
  6
DASHDOT
100
AcDbLine
 10
179.7848199890941
 20
254.1430579368653
 30
0.0
 11
279.7848199890941
 21
254.1430579368653
 31
0.0
  0
ARC
  5
92D9
330
A
100
AcDbEntity
  8
buhin
100
AcDbCircle
 10
229.7848199890941
 20
254.1430579368653
 30
0.0
 40
30.0
100
AcDbArc
 50
300.603294608207
 51
239.396705391793
  0
LINE
  5
92E4
330
A
100
AcDbEntity
  8
buhin
100
AcDbLine
 10
215.7848199890941
 20
268.1430579368653
 30
0.0
 11
215.7848199890941
 21
197.6430579368653
 31
0.0
  0
LINE
  5
92E5
330
A
100
AcDbEntity
  8
buhin
100
AcDbLine
 10
215.7848199890941
 20
268.1430579368653
 30
0.0
 11
243.7848199890941
 21
268.1430579368653
 31
0.0
  0
LINE
  5
92E6
330
A
100
AcDbEntity
  8
buhin
100
AcDbLine
 10
243.7848199890941
 20
268.1430579368653
 30
0.0
 11
243.7848199890941
 21
197.6430579368653
 31
0.0
  0
LINE
  5
92E7
330
A
100
AcDbEntity
  8
Defpoints
  6
DASHDOT
100
AcDbLine
 10
66.39794742483445
 20
192.1430579368652
 30
0.0
 11
391.6246974076121
 21
192.1430579368652
 31
0.0
  0
LINE
  5
92E8
330
A
100
AcDbEntity
  8
buhin
100
AcDbLine
 10
215.7848199890941
 20
197.6430579368653
 30
0.0
 11
243.7848199890941
 21
197.6430579368653
 31
0.0
  0
ARC
  5
932D
330
A
100
AcDbEntity
  8
buhin
100
AcDbCircle
 10
238.4848169373363
 20
192.4430571739258
 30
0.0
 40
0.3000000119209289
100
AcDbArc
 50
270.0
 51
0.0000025044776653
  0
ARC
  5
932E
330
A
100
AcDbEntity
  8
buhin
100
AcDbCircle
 10
221.0848230408519
 20
192.4430571739258
 30
0.0
 40
0.3000000119209289
100
AcDbArc
 50
180.0000006832454
 51
270.0
  0
LINE
  5
932F
330
A
100
AcDbEntity
  8
buhin
 48
0.4349998474121094
100
AcDbLine
 10
221.0848230408519
 20
192.1430579368652
 30
0.0
 11
238.4848169373363
 21
192.1430579368652
 31
0.0
  0
LINE
  5
9342
330
A
100
AcDbEntity
  8
buhin
 48
0.122499942779541
100
AcDbLine
 10
217.7848199890941
 20
197.6430579368653
 30
0.0
 11
217.7848199890941
 21
196.0430594627441
 31
0.0
  0
LINE
  5
9343
330
A
100
AcDbEntity
  8
buhin
 48
0.122499942779541
100
AcDbLine
 10
241.7848199890941
 20
197.6430579368653
 30
0.0
 11
241.7848199890941
 21
196.0430594627441
 31
0.0
  0
LINE
  5
9345
330
A
100
AcDbEntity
  8
buhin
100
AcDbLine
 10
218.7848199890941
 20
193.0204077903809
 30
0.0
 11
224.9848179619564
 21
193.0204077903809
 31
0.0
  0
LINE
  5
9346
330
A
100
AcDbEntity
  8
buhin
100
AcDbLine
 10
218.7848199890941
 20
192.4430571739258
 30
0.0
 11
240.7848199890941
 21
192.4430571739258
 31
0.0
  0
LINE
  5
9347
330
A
100
AcDbEntity
  8
buhin
 48
0.025
100
AcDbLine
 10
240.7848199890941
 20
196.0430594627441
 30
0.0
 11
241.7848199890941
 21
196.0430594627441
 31
0.0
  0
LINE
  5
9348
330
A
100
AcDbEntity
  8
buhin
 48
0.075566291809082
100
AcDbLine
 10
240.7848199890941
 20
196.0430594627441
 30
0.0
 11
240.7848199890941
 21
193.0204077903809
 31
0.0
  0
LINE
  5
9349
330
A
100
AcDbEntity
  8
buhin
 48
0.014433765411377
100
AcDbLine
 10
240.7848199890941
 20
193.0204077903809
 30
0.0
 11
240.7848199890941
 21
192.4430571739258
 31
0.0
  0
LINE
  5
934A
330
A
100
AcDbEntity
  8
buhin
 48
0.075566291809082
100
AcDbLine
 10
218.7848199890941
 20
196.0430594627441
 30
0.0
 11
218.7848199890941
 21
193.0204077903809
 31
0.0
  0
LINE
  5
934B
330
A
100
AcDbEntity
  8
buhin
 48
0.014433765411377
100
AcDbLine
 10
218.7848199890941
 20
193.0204077903809
 30
0.0
 11
218.7848199890941
 21
192.4430571739258
 31
0.0
  0
LINE
  5
934C
330
A
100
AcDbEntity
  8
buhin
 48
0.025
100
AcDbLine
 10
217.7848199890941
 20
196.0430594627441
 30
0.0
 11
218.7848199890941
 21
196.0430594627441
 31
0.0
  0
LINE
  5
9351
330
A
100
AcDbEntity
  8
buhin
100
AcDbLine
 10
217.7848199890941
 20
197.6430579368653
 30
0.0
 11
241.7848199890941
 21
197.6430579368653
 31
0.0
  0
ARC
  5
936C
330
A
100
AcDbEntity
  8
buhin
  6
Continuous
100
AcDbCircle
 10
229.7848193319692
 20
212.6849571739258
 30
0.0
 40
20.2419
100
AcDbArc
 50
256.282678360027
 51
283.7173253600278
  0
LINE
  5
936D
330
A
100
AcDbEntity
  8
buhin
  6
Continuous
100
AcDbLine
 10
229.7848192201886
 20
197.0204070334605
 30
0.0
 11
224.9848197568526
 21
197.0204074028572
 31
0.0
  0
LINE
  5
936E
330
A
100
AcDbEntity
  8
buhin
  6
Continuous
100
AcDbLine
 10
234.5848194715354
 20
197.020407279725
 30
0.0
 11
229.7848192201886
 21
197.0204070334605
 31
0.0
  0
LINE
  5
936F
330
A
100
AcDbEntity
  8
buhin
  6
Continuous
100
AcDbLine
 10
234.5848194715354
 20
197.020407279725
 30
0.0
 11
234.5848193402003
 21
193.0204072303295
 31
0.0
  0
LINE
  5
9370
330
A
100
AcDbEntity
  8
buhin
  6
Continuous
100
AcDbLine
 10
224.9848197568526
 20
197.0204074028572
 30
0.0
 11
224.9848196255175
 21
193.0204073534619
 31
0.0
  0
POINT
  5
937D
330
A
100
AcDbEntity
  8
buhin
  6
Continuous
100
AcDbPoint
 10
229.7848122130254
 20
192.1430569936176
 30
0.0
  0
LINE
  5
937F
330
A
100
AcDbEntity
  8
buhin
100
AcDbLine
 10
234.5848207019818
 20
193.0204077903809
 30
0.0
 11
240.7848199890941
 21
193.0204077903809
 31
0.0
  0
LINE
  5
93EF
330
A
100
AcDbEntity
  8
buhin
100
AcDbLine
 10
215.7848199890941
 20
377.4227729822077
 30
0.0
 11
243.7848199890941
 21
377.4227729822078
 31
0.0
  0
LINE
  5
93F1
330
A
100
AcDbEntity
  8
buhin
100
AcDbLine
 10
243.7848199890941
 20
543.4227729822078
 30
0.0
 11
243.7848199890941
 21
377.4227729822078
 31
0.0
  0
LINE
  5
93F3
330
A
100
AcDbEntity
  8
buhin
100
AcDbLine
 10
215.7848199890941
 20
543.4227729822078
 30
0.0
 11
215.7848199890941
 21
377.4227729822077
 31
0.0
  0
LINE
  5
9400
330
A
100
AcDbEntity
  8
Defpoints
  6
DASHDOT
100
AcDbLine
 10
64.86226495735991
 20
553.4227729822077
 30
0.0
 11
394.7073750208283
 21
553.4227729822077
 31
0.0
  0
LINE
  5
9406
330
A
100
AcDbEntity
  8
buhin
  6
DASHDOT
100
AcDbLine
 10
229.7848199890941
 20
578.3521265001363
 30
0.0
 11
229.7848199890941
 21
349.4464021416834
 31
0.0
  0
LWPOLYLINE
  5
941F
330
A
100
AcDbEntity
  8
buhin
100
AcDbPolyline
 90
        8
 70
     1
 43
0.0
 10
200.0848199890941
 20
543.4227729822078
 10
259.484819989094
 20
543.4227729822079
 42
0.4142135623730951
 10
259.7848199890941
 20
543.7227729822078
 10
259.784819989094
 20
553.1227729822076
 42
0.4142135623730951
 10
259.484819989094
 20
553.4227729822077
 10
200.0848199890941
 20
553.4227729822078
 42
0.4142135623730951
 10
199.7848199890941
 20
553.1227729822079
 10
199.7848199890941
 20
543.7227729822077
 42
0.4142135623730951
  0
LWPOLYLINE
  5
9467
330
A
100
AcDbEntity
  8
buhin
100
AcDbPolyline
 90
        4
 70
     1
 43
0.0
 10
522.6892688455428
 20
284.1430579368653
 10
522.6892688455428
 20
224.1430579368653
 10
532.6892688455427
 20
224.1430579368653
 10
532.6892688455427
 20
284.1430579368653
  0
LINE
  5
9468
330
A
100
AcDbEntity
  8
buhin
  6
DASHDOT
100
AcDbLine
 10
564.0470218182872
 20
254.1430579368653
 30
0.0
 11
352.9562612067166
 21
254.1430579368653
 31
0.0
  0
LINE
  5
9471
330
A
100
AcDbEntity
  8
buhin
100
AcDbLine
 10
522.6892688455428
 20
268.1430579368653
 30
0.0
 11
404.6892688455426
 21
268.1430579368654
 31
0.0
  0
LINE
  5
9472
330
A
100
AcDbEntity
  8
buhin
100
AcDbLine
 10
522.6892688455428
 20
240.1430579368653
 30
0.0
 11
404.6892688455426
 21
240.1430579368653
 31
0.0
  0
LINE
  5
9473
330
A
100
AcDbEntity
  8
Defpoints
  6
DASHDOT
100
AcDbLine
 10
370.6892688455428
 20
284.1430579368653
 30
0.0
 11
370.6892688455428
 21
133.6304329907871
 31
0.0
  0
LINE
  5
9474
330
A
100
AcDbEntity
  8
buhin
100
AcDbLine
 10
384.6892688455426
 20
220.1430579368653
 30
0.0
 11
384.6892688455426
 21
197.6430579368653
 31
0.0
  0
LINE
  5
9475
330
A
100
AcDbEntity
  8
buhin
100
AcDbLine
 10
356.6892688455429
 20
220.1430579368653
 30
0.0
 11
356.6892688455427
 21
197.6430579368653
 31
0.0
  0
ARC
  5
9476
330
A
100
AcDbEntity
  8
buhin
100
AcDbCircle
 10
404.6892688455426
 20
220.1430579368653
 30
0.0
 40
20.0
100
AcDbArc
 50
90.0
 51
180.0
  0
ARC
  5
9477
330
A
100
AcDbEntity
  8
buhin
100
AcDbCircle
 10
404.6892688455426
 20
220.1430579368653
 30
0.0
 40
48.0
100
AcDbArc
 50
90.0
 51
180.0
  0
LINE
  5
947A
330
A
100
AcDbEntity
  8
buhin
100
AcDbLine
 10
375.4892695584305
 20
193.0204077903809
 30
0.0
 11
381.6892688455427
 21
193.0204077903809
 31
0.0
  0
POINT
  5
947B
330
A
100
AcDbEntity
  8
buhin
  6
Continuous
100
AcDbPoint
 10
370.689261069474
 20
192.1430569936176
 30
0.0
  0
LINE
  5
947C
330
A
100
AcDbEntity
  8
buhin
  6
Continuous
100
AcDbLine
 10
365.8892686133013
 20
197.0204074028572
 30
0.0
 11
365.8892684819662
 21
193.0204073534619
 31
0.0
  0
LINE
  5
947D
330
A
100
AcDbEntity
  8
buhin
  6
Continuous
100
AcDbLine
 10
375.4892683279841
 20
197.020407279725
 30
0.0
 11
375.4892681966489
 21
193.0204072303295
 31
0.0
  0
LINE
  5
947E
330
A
100
AcDbEntity
  8
buhin
  6
Continuous
100
AcDbLine
 10
375.4892683279841
 20
197.020407279725
 30
0.0
 11
370.6892680766373
 21
197.0204070334605
 31
0.0
  0
LINE
  5
947F
330
A
100
AcDbEntity
  8
buhin
  6
Continuous
100
AcDbLine
 10
370.6892680766373
 20
197.0204070334605
 30
0.0
 11
365.8892686133013
 21
197.0204074028572
 31
0.0
  0
ARC
  5
9480
330
A
100
AcDbEntity
  8
buhin
  6
Continuous
100
AcDbCircle
 10
370.6892681884178
 20
212.6849571739258
 30
0.0
 40
20.2419
100
AcDbArc
 50
256.282678360027
 51
283.7173253600278
  0
LINE
  5
9481
330
A
100
AcDbEntity
  8
buhin
100
AcDbLine
 10
358.6892688455427
 20
197.6430579368653
 30
0.0
 11
382.6892688455428
 21
197.6430579368653
 31
0.0
  0
LINE
  5
9482
330
A
100
AcDbEntity
  8
buhin
 48
0.025
100
AcDbLine
 10
358.6892688455427
 20
196.0430594627441
 30
0.0
 11
359.6892688455428
 21
196.0430594627441
 31
0.0
  0
LINE
  5
9483
330
A
100
AcDbEntity
  8
buhin
 48
0.014433765411377
100
AcDbLine
 10
359.6892688455428
 20
193.0204077903809
 30
0.0
 11
359.6892688455428
 21
192.4430571739258
 31
0.0
  0
LINE
  5
9484
330
A
100
AcDbEntity
  8
buhin
 48
0.075566291809082
100
AcDbLine
 10
359.6892688455428
 20
196.0430594627441
 30
0.0
 11
359.6892688455428
 21
193.0204077903809
 31
0.0
  0
LINE
  5
9485
330
A
100
AcDbEntity
  8
buhin
 48
0.014433765411377
100
AcDbLine
 10
381.6892688455427
 20
193.0204077903809
 30
0.0
 11
381.6892688455427
 21
192.4430571739258
 31
0.0
  0
LINE
  5
9486
330
A
100
AcDbEntity
  8
buhin
 48
0.075566291809082
100
AcDbLine
 10
381.6892688455427
 20
196.0430594627441
 30
0.0
 11
381.6892688455427
 21
193.0204077903809
 31
0.0
  0
LINE
  5
9487
330
A
100
AcDbEntity
  8
buhin
 48
0.025
100
AcDbLine
 10
381.6892688455427
 20
196.0430594627441
 30
0.0
 11
382.6892688455428
 21
196.0430594627441
 31
0.0
  0
LINE
  5
9488
330
A
100
AcDbEntity
  8
buhin
100
AcDbLine
 10
359.6892688455428
 20
192.4430571739258
 30
0.0
 11
381.6892688455427
 21
192.4430571739258
 31
0.0
  0
LINE
  5
9489
330
A
100
AcDbEntity
  8
buhin
100
AcDbLine
 10
359.6892688455428
 20
193.0204077903809
 30
0.0
 11
365.8892668184051
 21
193.0204077903809
 31
0.0
  0
LINE
  5
948A
330
A
100
AcDbEntity
  8
buhin
 48
0.122499942779541
100
AcDbLine
 10
382.6892688455428
 20
197.6430579368653
 30
0.0
 11
382.6892688455428
 21
196.0430594627441
 31
0.0
  0
LINE
  5
948B
330
A
100
AcDbEntity
  8
buhin
 48
0.122499942779541
100
AcDbLine
 10
358.6892688455427
 20
197.6430579368653
 30
0.0
 11
358.6892688455427
 21
196.0430594627441
 31
0.0
  0
LINE
  5
948C
330
A
100
AcDbEntity
  8
buhin
 48
0.4349998474121094
100
AcDbLine
 10
361.9892718973006
 20
192.1430579368652
 30
0.0
 11
379.389265793785
 21
192.1430579368652
 31
0.0
  0
ARC
  5
948D
330
A
100
AcDbEntity
  8
buhin
100
AcDbCircle
 10
361.9892718973006
 20
192.4430571739258
 30
0.0
 40
0.3000000119209289
100
AcDbArc
 50
180.0000006832454
 51
270.0
  0
ARC
  5
948E
330
A
100
AcDbEntity
  8
buhin
100
AcDbCircle
 10
379.389265793785
 20
192.4430571739258
 30
0.0
 40
0.3000000119209289
100
AcDbArc
 50
270.0
 51
0.0000025044776653
  0
LINE
  5
948F
330
A
100
AcDbEntity
  8
buhin
100
AcDbLine
 10
356.6892688455427
 20
197.6430579368653
 30
0.0
 11
384.6892688455428
 21
197.6430579368653
 31
0.0
  0
LINE
  5
94A9
330
A
100
AcDbEntity
  8
buhin
100
AcDbLine
 10
211.2113326407593
 20
556.4227729822073
 30
0.0
 11
255.7848207043501
 21
556.4227729822073
 31
0.0
  0
LINE
  5
94B6
330
A
100
AcDbEntity
  8
buhin
100
AcDbLine
 10
257.7848199890941
 20
554.4227738166726
 30
0.0
 11
257.7848199890941
 21
553.4227729822076
 31
0.0
  0
LINE
  5
94C1
330
A
100
AcDbEntity
  8
buhin
 48
0.1249999999980552
100
AcDbLine
 10
201.7848199890941
 20
554.4227738166723
 30
0.0
 11
201.7848199890941
 21
553.4227729822077
 31
0.0
  0
LINE
  5
94C2
330
A
100
AcDbEntity
  8
buhin
 48
0.0707106760113124
100
AcDbLine
 10
257.7848199890941
 20
554.4227738166726
 30
0.0
 11
255.7848199890941
 21
556.4227736974633
 31
0.0
  0
LINE
  5
94C3
330
A
100
AcDbEntity
  8
buhin
 48
0.0707106760113124
100
AcDbLine
 10
203.7848199890941
 20
556.4227736974633
 30
0.0
 11
201.7848199890941
 21
554.4227738166726
 31
0.0
  0
LINE
  5
94C4
330
A
100
AcDbEntity
  8
buhin
 48
0.1856627941131592
100
AcDbLine
 10
211.2113326407593
 20
556.4227729822073
 30
0.0
 11
203.7848218964427
 21
556.4227729822075
 31
0.0
  0
LINE
  5
9553
330
A
100
AcDbEntity
  8
buhin
 48
0.185662841796875
100
AcDbLine
 10
535.6892688455425
 20
272.7165471038347
 30
0.0
 11
535.6892688455425
 21
280.1430579368652
 31
0.0
  0
LINE
  5
9555
330
A
100
AcDbEntity
  8
buhin
 48
0.0707106760113124
100
AcDbLine
 10
535.6892695607982
 20
280.1430579368652
 30
0.0
 11
533.6892696800076
 21
282.1430579368652
 31
0.0
  0
LINE
  5
9556
330
A
100
AcDbEntity
  8
buhin
 48
0.0707106760113129
100
AcDbLine
 10
533.6892696800073
 20
226.1430579368653
 30
0.0
 11
535.689269560798
 21
228.1430579368652
 31
0.0
  0
LINE
  5
9577
330
A
100
AcDbEntity
  8
buhin
100
AcDbLine
 10
533.6892696800076
 20
282.1430579368652
 30
0.0
 11
532.6892688455427
 21
282.1430579368652
 31
0.0
  0
LINE
  5
9578
330
A
100
AcDbEntity
  8
buhin
100
AcDbLine
 10
533.6892696800073
 20
226.1430579368653
 30
0.0
 11
532.689268845542
 21
226.1430579368653
 31
0.0
  0
LINE
  5
957A
330
A
100
AcDbEntity
  8
buhin
100
AcDbLine
 10
535.6892688455425
 20
272.7165471038347
 30
0.0
 11
535.6892688455423
 21
228.1430572216095
 31
0.0
  0
LINE
  5
9580
330
A
100
AcDbEntity
  8
Defpoints
  6
DASHDOT
100
AcDbLine
 10
532.6892688455427
 20
354.6677799602521
 30
0.0
 11
532.6892688455427
 21
71.73809137071566
 31
0.0
  0
LINE
  5
95C3
330
A
100
AcDbEntity
  8
buhin
100
AcDbLine
 10
215.7848199890939
 20
425.4227729822076
 30
0.0
 11
243.7848199890939
 21
425.4227729822077
 31
0.0
  0
LINE
  5
9FDE
330
A
100
AcDbEntity
  8
Defpoints
  6
DASHDOT
100
AcDbLine
 10
64.86226495735991
 20
377.4227729822077
 30
0.0
 11
394.7073750208283
 21
377.4227729822078
 31
0.0
  0
LINE
  5
9FE7
330
A
100
AcDbEntity
  8
Defpoints
  6
DASHDOT
100
AcDbLine
 10
830.5524560457822
 20
390.9523140891238
 30
0.0
 11
830.5524560457822
 21
476.5462485549774
 31
0.0
  0
LINE
  5
9FE8
330
A
100
AcDbEntity
  8
Defpoints
  6
Continuous
100
AcDbLine
 10
813.6111450457821
 20
415.7951747545649
 30
0.0
 11
815.0524710457823
 21
415.7852777545649
 31
0.0
  0
LWPOLYLINE
  5
9FE9
330
A
100
AcDbEntity
  8
Defpoints
  6
Continuous
100
AcDbPolyline
 90
       11
 70
     0
 43
0.0
 10
836.5524560457823
 20
402.1506677545649
 10
836.5433780457822
 20
402.2678077545649
 10
836.5151570457824
 20
402.3793597545648
 10
836.4657150457825
 20
402.4827127545648
 10
836.3932070457824
 20
402.5747747545649
 10
836.2960160457824
 20
402.6519757545648
 10
836.1780340457823
 20
402.7078527545649
 10
836.0382460457824
 20
402.7406127545648
 10
835.8821450457824
 20
402.747226754565
 10
835.7175000457823
 20
402.7268627545648
 10
835.5524560457823
 20
402.6814247545648
  0
LWPOLYLINE
  5
9FEA
330
A
100
AcDbEntity
  8
Defpoints
  6
Continuous
100
AcDbPolyline
 90
        9
 70
     0
 43
0.0
 10
825.5524560457823
 20
402.6814247545648
 10
825.2887760457822
 20
402.7421457545649
 10
825.0383420457824
 20
402.7363477545649
 10
824.8566070457822
 20
402.6783987545648
 10
824.7184620457824
 20
402.5815537545648
 10
824.6428460457822
 20
402.4884847545648
 10
824.5913330457822
 20
402.3836517545649
 10
824.5618740457823
 20
402.2701577545649
 10
824.5524560457822
 20
402.1506677545649
  0
LINE
  5
9FEB
330
A
100
AcDbEntity
  8
Defpoints
  6
Continuous
100
AcDbLine
 10
824.5524560457822
 20
401.7852427545649
 30
0.0
 11
824.5524560457822
 21
402.1506677545649
 31
0.0
  0
LWPOLYLINE
  5
9FEC
330
A
100
AcDbEntity
  8
Defpoints
  6
Continuous
100
AcDbPolyline
 90
       17
 70
     0
 43
0.0
 10
835.5524560457823
 20
402.6814227545648
 10
834.8823480457824
 20
402.4626177545648
 10
834.2310430457823
 20
402.2774547545648
 10
833.5952980457824
 20
402.1239167545648
 10
832.9721420457824
 20
402.0003757545648
 10
832.3588190457824
 20
401.9055567545649
 10
831.7527360457823
 20
401.8384957545648
 10
831.1514140457823
 20
401.7985237545649
 10
830.5524560457822
 20
401.7852427545649
 10
829.9534980457822
 20
401.7985237545649
 10
829.3521770457823
 20
401.8384957545648
 10
828.7460930457823
 20
401.9055567545649
 10
828.1327700457822
 20
402.0003757545648
 10
827.5096140457824
 20
402.1239167545648
 10
826.8738690457823
 20
402.2774547545648
 10
826.2225640457822
 20
402.4626177545648
 10
825.5524560457823
 20
402.6814227545648
  0
LINE
  5
9FED
330
A
100
AcDbEntity
  8
Defpoints
  6
Continuous
100
AcDbLine
 10
836.5524560457823
 20
401.7852427545649
 30
0.0
 11
836.5524560457823
 21
402.1506677545649
 31
0.0
  0
LINE
  5
9FEE
330
A
100
AcDbEntity
  8
Defpoints
  6
Continuous
100
AcDbLine
 10
817.0524560457822
 20
401.7852427545649
 30
0.0
 11
824.5524560457822
 21
401.7852427545649
 31
0.0
  0
LINE
  5
9FEF
330
A
100
AcDbEntity
  8
Defpoints
  6
Continuous
100
AcDbLine
 10
836.5524560457823
 20
401.7852427545649
 30
0.0
 11
844.0524560457822
 21
401.7852427545649
 31
0.0
  0
LINE
  5
9FF0
330
A
100
AcDbEntity
  8
Defpoints
  6
Continuous
100
AcDbLine
 10
818.0524560457822
 20
400.7852427545649
 30
0.0
 11
843.0524560457822
 21
400.7852427545649
 31
0.0
  0
LINE
  5
9FF1
330
A
100
AcDbEntity
  8
Defpoints
  6
Continuous
100
AcDbLine
 10
817.0524560457822
 20
401.7852427545649
 30
0.0
 11
818.0524560457822
 21
400.7852427545649
 31
0.0
  0
LINE
  5
9FF2
330
A
100
AcDbEntity
  8
Defpoints
  6
Continuous
100
AcDbLine
 10
843.0524560457822
 20
400.7852427545649
 30
0.0
 11
844.0524560457822
 21
401.7852427545649
 31
0.0
  0
LWPOLYLINE
  5
9FF3
330
A
100
AcDbEntity
  8
Defpoints
  6
Continuous
100
AcDbPolyline
 90
       11
 70
     0
 43
0.0
 10
836.5524560457823
 20
461.4198177545648
 10
836.5433780457822
 20
461.3026777545648
 10
836.5151570457824
 20
461.1911257545648
 10
836.4657150457825
 20
461.0877727545648
 10
836.3932070457824
 20
460.9957107545649
 10
836.2960170457823
 20
460.9185097545648
 10
836.1780340457823
 20
460.8626327545648
 10
836.0382460457824
 20
460.8298727545649
 10
835.8821450457824
 20
460.8232587545649
 10
835.7175000457823
 20
460.8436227545649
 10
835.5524560457823
 20
460.8890607545649
  0
LWPOLYLINE
  5
9FF4
330
A
100
AcDbEntity
  8
Defpoints
  6
Continuous
100
AcDbPolyline
 90
        9
 70
     0
 43
0.0
 10
825.5524560457823
 20
460.8890607545649
 10
825.2887450457821
 20
460.8283367545649
 10
825.0382880457824
 20
460.8341477545648
 10
824.8566080457823
 20
460.8920867545648
 10
824.7184940457824
 20
460.9888997545648
 10
824.6428630457824
 20
461.0819737545648
 10
824.5913400457823
 20
461.1868137545648
 10
824.5618760457823
 20
461.3003167545648
 10
824.5524560457822
 20
461.4198177545648
  0
LINE
  5
9FF5
330
A
100
AcDbEntity
  8
Defpoints
  6
Continuous
100
AcDbLine
 10
824.5524560457822
 20
461.4198177545648
 30
0.0
 11
824.5524560457822
 21
461.7852427545649
 31
0.0
  0
LWPOLYLINE
  5
9FF6
330
A
100
AcDbEntity
  8
Defpoints
  6
Continuous
100
AcDbPolyline
 90
       17
 70
     0
 43
0.0
 10
825.5524560457823
 20
460.8890627545648
 10
826.2225650457823
 20
461.1078677545649
 10
826.8738700457822
 20
461.2930307545648
 10
827.5096150457823
 20
461.4465687545648
 10
828.1327700457822
 20
461.5701097545649
 10
828.7460930457823
 20
461.6649287545649
 10
829.3521770457823
 20
461.7319897545648
 10
829.9534980457822
 20
461.7719617545649
 10
830.5524570457823
 20
461.7852427545649
 10
831.1514150457824
 20
461.7719617545649
 10
831.7527360457823
 20
461.7319897545648
 10
832.3588200457823
 20
461.6649287545649
 10
832.9721430457823
 20
461.5701097545649
 10
833.5952990457824
 20
461.4465687545648
 10
834.2310440457824
 20
461.2930307545648
 10
834.8823480457824
 20
461.1078677545649
 10
835.5524570457824
 20
460.8890627545648
  0
LINE
  5
9FF7
330
A
100
AcDbEntity
  8
Defpoints
  6
Continuous
100
AcDbLine
 10
836.5524560457823
 20
461.4198177545648
 30
0.0
 11
836.5524560457823
 21
461.7852427545649
 31
0.0
  0
LINE
  5
9FF8
330
A
100
AcDbEntity
  8
Defpoints
  6
Continuous
100
AcDbLine
 10
817.0524560457822
 20
461.7852427545649
 30
0.0
 11
824.5524560457822
 21
461.7852427545649
 31
0.0
  0
LINE
  5
9FF9
330
A
100
AcDbEntity
  8
Defpoints
  6
Continuous
100
AcDbLine
 10
836.5524560457823
 20
461.7852427545649
 30
0.0
 11
844.0524560457822
 21
461.7852427545649
 31
0.0
  0
LINE
  5
9FFA
330
A
100
AcDbEntity
  8
Defpoints
  6
Continuous
100
AcDbLine
 10
818.0524560457822
 20
462.7852427545649
 30
0.0
 11
843.0524560457822
 21
462.7852427545649
 31
0.0
  0
LINE
  5
9FFB
330
A
100
AcDbEntity
  8
Defpoints
  6
Continuous
100
AcDbLine
 10
817.0524560457822
 20
461.7852427545649
 30
0.0
 11
818.0524560457822
 21
462.7852427545649
 31
0.0
  0
LINE
  5
9FFC
330
A
100
AcDbEntity
  8
Defpoints
  6
Continuous
100
AcDbLine
 10
843.0524560457822
 20
462.7852427545649
 30
0.0
 11
844.0524560457822
 21
461.7852427545649
 31
0.0
  0
ARC
  5
9FFD
330
A
100
AcDbEntity
  8
Defpoints
  6
Continuous
100
AcDbCircle
 10
829.5524470457824
 20
446.7852527545649
 30
0.0
 40
1.0
100
AcDbArc
 50
89.99943900000086
 51
180.0005609999991
  0
LINE
  5
9FFE
330
A
100
AcDbEntity
  8
Defpoints
  6
Continuous
100
AcDbLine
 10
828.5524560457822
 20
442.7852427545649
 30
0.0
 11
828.5524560457822
 21
446.7852427545649
 31
0.0
  0
LINE
  5
9FFF
330
A
100
AcDbEntity
  8
Defpoints
  6
Continuous
100
AcDbLine
 10
828.5524560457822
 20
420.7852427545649
 30
0.0
 11
828.5524560457822
 21
442.7852427545649
 31
0.0
  0
ARC
  5
A000
330
A
100
AcDbEntity
  8
Defpoints
  6
Continuous
100
AcDbCircle
 10
829.5524560457822
 20
416.7852427545649
 30
0.0
 40
1.0
100
AcDbArc
 50
180.0
 51
270.0
  0
LINE
  5
A001
330
A
100
AcDbEntity
  8
Defpoints
  6
Continuous
100
AcDbLine
 10
828.5524560457822
 20
416.7852427545649
 30
0.0
 11
828.5524560457822
 21
420.7852427545649
 31
0.0
  0
ARC
  5
A002
330
A
100
AcDbEntity
  8
Defpoints
  6
Continuous
100
AcDbCircle
 10
831.5524560457822
 20
446.7852427545649
 30
0.0
 40
1.0
100
AcDbArc
 50
0.0
 51
90.0
  0
LINE
  5
A003
330
A
100
AcDbEntity
  8
Defpoints
  6
Continuous
100
AcDbLine
 10
832.5524560457822
 20
442.7852427545649
 30
0.0
 11
832.5524560457822
 21
446.7852427545649
 31
0.0
  0
LINE
  5
A004
330
A
100
AcDbEntity
  8
Defpoints
  6
Continuous
100
AcDbLine
 10
832.5524560457822
 20
420.7852427545649
 30
0.0
 11
832.5524560457822
 21
442.7852427545649
 31
0.0
  0
ARC
  5
A005
330
A
100
AcDbEntity
  8
Defpoints
  6
Continuous
100
AcDbCircle
 10
831.5524660457825
 20
416.785232754565
 30
0.0
 40
1.0
100
AcDbArc
 50
269.9994390000008
 51
0.0005609999991484
  0
LINE
  5
A006
330
A
100
AcDbEntity
  8
Defpoints
  6
Continuous
100
AcDbLine
 10
832.5524560457822
 20
416.7852427545649
 30
0.0
 11
832.5524560457822
 21
420.7852427545649
 31
0.0
  0
LWPOLYLINE
  5
A007
330
A
100
AcDbEntity
  8
Defpoints
  6
Continuous
100
AcDbPolyline
 90
       10
 70
     0
 43
0.0
 10
826.8143320457822
 20
422.4032037545648
 10
826.0858690457823
 20
422.0892787545649
 10
825.2570880457822
 20
421.6809317545648
 10
824.5041820457823
 20
421.2664667545648
 10
823.4948810457824
 20
420.6535017545649
 10
822.5752490457823
 20
420.0494217545649
 10
821.4251670457823
 20
419.2398727545649
 10
820.1132180457824
 20
418.2560327545648
 10
818.6746600457823
 20
417.1176907545648
 10
817.1906680457823
 20
415.8931477545649
  0
LINE
  5
A008
330
A
100
AcDbEntity
  8
Defpoints
  6
Continuous
100
AcDbLine
 10
815.0524620457824
 20
415.7904367545649
 30
0.0
 11
815.0524710457823
 21
415.7852777545649
 31
0.0
  0
ARC
  5
A009
330
A
100
AcDbEntity
  8
Defpoints
  6
Continuous
100
AcDbCircle
 10
815.0560020457824
 20
413.7882507545648
 30
0.0
 40
2.002188999999999
100
AcDbArc
 50
359.9144419999998
 51
90.10130999999898
  0
LINE
  5
A00A
330
A
100
AcDbEntity
  8
Defpoints
  6
Continuous
100
AcDbLine
 10
817.0524650457823
 20
413.7852687545648
 30
0.0
 11
817.0581890457821
 21
413.7852607545648
 31
0.0
  0
LWPOLYLINE
  5
A00B
330
A
100
AcDbEntity
  8
Defpoints
  6
Continuous
100
AcDbPolyline
 90
       10
 70
     0
 43
0.0
 10
826.8143320457822
 20
441.1672817545649
 10
826.0858690457823
 20
441.4812067545649
 10
825.2570880457822
 20
441.8895537545648
 10
824.5041820457823
 20
442.3040187545648
 10
823.4948810457824
 20
442.9169837545648
 10
822.5752490457823
 20
443.5210637545649
 10
821.4251670457823
 20
444.3306127545648
 10
820.1132180457824
 20
445.3144527545648
 10
818.6746600457823
 20
446.4527947545649
 10
817.1906210457823
 20
447.6773767545648
  0
LINE
  5
A00C
330
A
100
AcDbEntity
  8
Defpoints
  6
Continuous
100
AcDbLine
 10
817.0524650457823
 20
449.7852167545649
 30
0.0
 11
817.0581890457821
 21
449.7852247545648
 31
0.0
  0
ARC
  5
A00D
330
A
100
AcDbEntity
  8
Defpoints
  6
Continuous
100
AcDbCircle
 10
815.0560020457824
 20
449.7822347545649
 30
0.0
 40
2.002188999999999
100
AcDbArc
 50
269.898690000001
 51
0.0855580000001856
  0
LINE
  5
A00E
330
A
100
AcDbEntity
  8
Defpoints
  6
Continuous
100
AcDbLine
 10
815.0524620457824
 20
447.7800487545648
 30
0.0
 11
815.0524710457823
 21
447.7852077545649
 31
0.0
  0
ARC
  5
A00F
330
A
100
AcDbEntity
  8
Defpoints
  6
Continuous
100
AcDbCircle
 10
825.5524470457825
 20
407.7852527545648
 30
0.0
 40
1.0
100
AcDbArc
 50
119.9997950000024
 51
180.0005609999991
  0
LINE
  5
A010
330
A
100
AcDbEntity
  8
Defpoints
  6
Continuous
100
AcDbLine
 10
825.3253350457823
 20
408.7583767545648
 30
0.0
 11
825.5524560457823
 21
408.7583767545648
 31
0.0
  0
ARC
  5
A011
330
A
100
AcDbEntity
  8
Defpoints
  6
Continuous
100
AcDbCircle
 10
825.5398890457822
 20
407.8923827545649
 30
0.0
 40
0.892159
100
AcDbArc
 50
89.19288600000447
 51
95.56078800000072
  0
LINE
  5
A012
330
A
100
AcDbEntity
  8
Defpoints
  6
Continuous
100
AcDbLine
 10
825.1989000457822
 20
408.7091647545649
 30
0.0
 11
825.4534400457824
 21
408.7803137545648
 31
0.0
  0
LINE
  5
A013
330
A
100
AcDbEntity
  8
Defpoints
  6
Continuous
100
AcDbLine
 10
825.0524560457822
 20
408.6512677545648
 30
0.0
 11
825.1989000457822
 21
408.7091647545649
 31
0.0
  0
LWPOLYLINE
  5
A014
330
A
100
AcDbEntity
  8
Defpoints
  6
Continuous
100
AcDbPolyline
 90
        7
 70
     0
 43
0.0
 10
830.5524560457822
 20
407.7852427545649
 10
829.2310040457824
 20
408.1394457545648
 10
827.9136340457823
 20
408.4583027545648
 10
827.3174320457824
 20
408.5802077545649
 10
826.7240860457823
 20
408.6803687545648
 10
826.1350910457824
 20
408.7517097545648
 10
825.5524560457823
 20
408.7844447545649
  0
LWPOLYLINE
  5
A015
330
A
100
AcDbEntity
  8
Defpoints
  6
Continuous
100
AcDbPolyline
 90
        7
 70
     0
 43
0.0
 10
830.5524560457822
 20
407.7852427545649
 10
831.8739060457824
 20
408.1394457545648
 10
833.1912740457823
 20
408.4583017545648
 10
833.7874770457823
 20
408.5802067545648
 10
834.3808240457821
 20
408.6803677545649
 10
834.9698200457824
 20
408.7517097545648
 10
835.5524560457823
 20
408.7844447545649
  0
LINE
  5
A016
330
A
100
AcDbEntity
  8
Defpoints
  6
Continuous
100
AcDbLine
 10
835.5524560457823
 20
408.7585757545648
 30
0.0
 11
835.7704100457825
 21
408.7585757545648
 31
0.0
  0
ARC
  5
A017
330
A
100
AcDbEntity
  8
Defpoints
  6
Continuous
100
AcDbCircle
 10
835.5524560457823
 20
407.7852427545649
 30
0.0
 40
1.0
100
AcDbArc
 50
0.0
 51
59.99999999999946
  0
ARC
  5
A018
330
A
100
AcDbEntity
  8
Defpoints
  6
Continuous
100
AcDbCircle
 10
835.5654360457823
 20
407.9030887545648
 30
0.0
 40
0.881461
100
AcDbArc
 50
84.39858000000132
 51
90.84375099999798
  0
LINE
  5
A019
330
A
100
AcDbEntity
  8
Defpoints
  6
Continuous
100
AcDbLine
 10
835.9060130457823
 20
408.7091647545649
 30
0.0
 11
836.0524560457822
 21
408.6512677545648
 31
0.0
  0
LINE
  5
A01A
330
A
100
AcDbEntity
  8
Defpoints
  6
Continuous
100
AcDbLine
 10
835.6514730457822
 20
408.7803357545649
 30
0.0
 11
835.9060130457823
 21
408.7091647545649
 31
0.0
  0
LINE
  5
A01B
330
A
100
AcDbEntity
  8
Defpoints
  6
Continuous
100
AcDbLine
 10
836.5524560457823
 20
402.1506677545649
 30
0.0
 11
836.5524560457823
 21
407.7852427545649
 31
0.0
  0
LINE
  5
A01C
330
A
100
AcDbEntity
  8
Defpoints
  6
Continuous
100
AcDbLine
 10
824.5524560457822
 20
402.1506677545649
 30
0.0
 11
824.5524560457822
 21
407.7852427545649
 31
0.0
  0
LINE
  5
A01D
330
A
100
AcDbEntity
  8
Defpoints
  6
Continuous
100
AcDbLine
 10
815.5524560457822
 20
450.2852427545649
 30
0.0
 11
817.0740010457823
 21
450.1521247545648
 31
0.0
  0
LINE
  5
A01E
330
A
100
AcDbEntity
  8
Defpoints
  6
Continuous
100
AcDbLine
 10
815.5524560457822
 20
455.2852427545649
 30
0.0
 11
817.2315110457823
 21
455.4321407545649
 31
0.0
  0
LINE
  5
A01F
330
A
100
AcDbEntity
  8
Defpoints
  6
Continuous
100
AcDbLine
 10
815.5524560457822
 20
450.2852427545649
 30
0.0
 11
815.5524560457822
 21
455.2852427545649
 31
0.0
  0
LWPOLYLINE
  5
A020
330
A
100
AcDbEntity
  8
Defpoints
  6
Continuous
100
AcDbPolyline
 90
        3
 70
     0
 43
0.0
 10
817.2315110457823
 20
455.4321407545649
 10
817.1337190457823
 20
452.8063987545648
 10
817.0740010457823
 20
450.1521247545648
  0
LINE
  5
A021
330
A
100
AcDbEntity
  8
Defpoints
  6
Continuous
100
AcDbLine
 10
815.5524560457822
 20
460.2852427545649
 30
0.0
 11
817.1002880457825
 21
460.4206607545648
 31
0.0
  0
LINE
  5
A022
330
A
100
AcDbEntity
  8
Defpoints
  6
Continuous
100
AcDbLine
 10
815.5524560457822
 20
455.2852427545649
 30
0.0
 11
815.5524560457822
 21
460.2852427545649
 31
0.0
  0
LINE
  5
A023
330
A
100
AcDbEntity
  8
Defpoints
  6
Continuous
100
AcDbLine
 10
817.1002880457825
 20
455.4206607545649
 30
0.0
 11
817.1002880457825
 21
460.4206607545648
 31
0.0
  0
ARC
  5
A024
330
A
100
AcDbEntity
  8
Defpoints
  6
Continuous
100
AcDbCircle
 10
825.5524470457825
 20
455.7852327545648
 30
0.0
 40
1.0
100
AcDbArc
 50
179.9994390000008
 51
240.0002049999975
  0
ARC
  5
A025
330
A
100
AcDbEntity
  8
Defpoints
  6
Continuous
100
AcDbCircle
 10
825.5394770457824
 20
455.6673967545648
 30
0.0
 40
0.881461
100
AcDbArc
 50
264.3985710000045
 51
270.8437489999998
  0
LINE
  5
A026
330
A
100
AcDbEntity
  8
Defpoints
  6
Continuous
100
AcDbLine
 10
825.0524560457822
 20
454.9192177545648
 30
0.0
 11
825.1989000457822
 21
454.8613207545648
 31
0.0
  0
LINE
  5
A027
330
A
100
AcDbEntity
  8
Defpoints
  6
Continuous
100
AcDbLine
 10
825.1989000457822
 20
454.8613207545648
 30
0.0
 11
825.4534400457824
 21
454.7901497545649
 31
0.0
  0
LWPOLYLINE
  5
A028
330
A
100
AcDbEntity
  8
Defpoints
  6
Continuous
100
AcDbPolyline
 90
        7
 70
     0
 43
0.0
 10
830.5524560457822
 20
455.7852427545649
 10
829.2310040457824
 20
455.4310397545648
 10
827.9136340457823
 20
455.1121827545649
 10
827.3174320457824
 20
454.9902777545648
 10
826.7240860457823
 20
454.8901167545649
 10
826.1350920457823
 20
454.8187757545648
 10
825.5524570457824
 20
454.7860407545648
  0
LWPOLYLINE
  5
A029
330
A
100
AcDbEntity
  8
Defpoints
  6
Continuous
100
AcDbPolyline
 90
        7
 70
     0
 43
0.0
 10
830.5524560457822
 20
455.7852427545649
 10
831.8739060457824
 20
455.4310397545648
 10
833.1912740457823
 20
455.1121837545649
 10
833.7874770457823
 20
454.9902787545648
 10
834.3808250457822
 20
454.8901177545649
 10
834.9698200457824
 20
454.8187757545648
 10
835.5524560457823
 20
454.7860407545648
  0
ARC
  5
A02A
330
A
100
AcDbEntity
  8
Defpoints
  6
Continuous
100
AcDbCircle
 10
835.5524560457823
 20
455.7852427545649
 30
0.0
 40
1.0
100
AcDbArc
 50
300.0000000000005
 51
0.0
  0
ARC
  5
A02B
330
A
100
AcDbEntity
  8
Defpoints
  6
Continuous
100
AcDbCircle
 10
835.5650240457823
 20
455.6781027545648
 30
0.0
 40
0.892159
100
AcDbArc
 50
269.1928819999993
 51
275.5607850000004
  0
LINE
  5
A02C
330
A
100
AcDbEntity
  8
Defpoints
  6
Continuous
100
AcDbLine
 10
835.6514720457823
 20
454.7901717545649
 30
0.0
 11
835.9060130457823
 21
454.8613207545648
 31
0.0
  0
LINE
  5
A02D
330
A
100
AcDbEntity
  8
Defpoints
  6
Continuous
100
AcDbLine
 10
835.9060130457823
 20
454.8613207545648
 30
0.0
 11
836.0524560457822
 21
454.9192177545648
 31
0.0
  0
LINE
  5
A02E
330
A
100
AcDbEntity
  8
Defpoints
  6
Continuous
100
AcDbLine
 10
836.5524560457823
 20
455.7852427545649
 30
0.0
 11
836.5524560457823
 21
461.4198177545648
 31
0.0
  0
LINE
  5
A02F
330
A
100
AcDbEntity
  8
Defpoints
  6
Continuous
100
AcDbLine
 10
824.5524560457822
 20
455.7852427545649
 30
0.0
 11
824.5524560457822
 21
461.4198177545648
 31
0.0
  0
LINE
  5
A030
330
A
100
AcDbEntity
  8
Defpoints
  6
Continuous
100
AcDbLine
 10
815.5524560457822
 20
413.2852427545649
 30
0.0
 11
817.0740010457823
 21
413.4183607545649
 31
0.0
  0
LINE
  5
A031
330
A
100
AcDbEntity
  8
Defpoints
  6
Continuous
100
AcDbLine
 10
815.5524560457822
 20
408.2852427545649
 30
0.0
 11
817.2315110457823
 21
408.1383447545648
 31
0.0
  0
LINE
  5
A032
330
A
100
AcDbEntity
  8
Defpoints
  6
Continuous
100
AcDbLine
 10
815.5524560457822
 20
408.2852427545649
 30
0.0
 11
815.5524560457822
 21
413.2852427545649
 31
0.0
  0
LWPOLYLINE
  5
A033
330
A
100
AcDbEntity
  8
Defpoints
  6
Continuous
100
AcDbPolyline
 90
        3
 70
     0
 43
0.0
 10
817.0740010457823
 20
413.4183607545649
 10
817.1337190457823
 20
410.7640867545649
 10
817.2315110457823
 20
408.1383447545648
  0
LINE
  5
A034
330
A
100
AcDbEntity
  8
Defpoints
  6
Continuous
100
AcDbLine
 10
815.5524560457822
 20
403.2852427545649
 30
0.0
 11
817.1002880457825
 21
403.1498247545648
 31
0.0
  0
LINE
  5
A035
330
A
100
AcDbEntity
  8
Defpoints
  6
Continuous
100
AcDbLine
 10
815.5524560457822
 20
403.2852427545649
 30
0.0
 11
815.5524560457822
 21
408.2852427545649
 31
0.0
  0
LINE
  5
A036
330
A
100
AcDbEntity
  8
Defpoints
  6
Continuous
100
AcDbLine
 10
817.1002880457825
 20
403.1498247545648
 30
0.0
 11
817.1002880457825
 21
408.1498247545648
 31
0.0
  0
LINE
  5
A037
330
A
100
AcDbEntity
  8
Defpoints
  6
Continuous
100
AcDbLine
 10
817.0524560457822
 20
449.7852167545649
 30
0.0
 11
817.0524560457822
 21
450.1540097545649
 31
0.0
  0
LINE
  5
A038
330
A
100
AcDbEntity
  8
Defpoints
  6
Continuous
100
AcDbLine
 10
817.0524560457822
 20
401.7852427545649
 30
0.0
 11
817.0524560457822
 21
403.1540097545648
 31
0.0
  0
LINE
  5
A039
330
A
100
AcDbEntity
  8
Defpoints
  6
Continuous
100
AcDbLine
 10
817.0524560457822
 20
460.4164757545649
 30
0.0
 11
817.0524560457822
 21
461.7852427545649
 31
0.0
  0
LINE
  5
A03A
330
A
100
AcDbEntity
  8
Defpoints
  6
Continuous
100
AcDbLine
 10
844.0524560457822
 20
431.7852427545649
 30
0.0
 11
844.0524560457822
 21
461.7852427545649
 31
0.0
  0
LINE
  5
A03B
330
A
100
AcDbEntity
  8
Defpoints
  6
Continuous
100
AcDbLine
 10
817.0524560457822
 20
413.4164757545648
 30
0.0
 11
817.0524560457822
 21
413.7852687545648
 31
0.0
  0
LINE
  5
A03C
330
A
100
AcDbEntity
  8
Defpoints
  6
Continuous
100
AcDbLine
 10
844.0524560457822
 20
401.7852427545649
 30
0.0
 11
844.0524560457822
 21
431.7852427545649
 31
0.0
  0
LINE
  5
A03D
330
A
100
AcDbEntity
  8
Defpoints
  6
Continuous
100
AcDbLine
 10
829.5524560457822
 20
415.7852427545649
 30
0.0
 11
831.5524560457822
 21
415.7852427545649
 31
0.0
  0
LINE
  5
A03E
330
A
100
AcDbEntity
  8
Defpoints
  6
Continuous
100
AcDbLine
 10
829.5524560457822
 20
447.7852427545649
 30
0.0
 11
831.5524560457822
 21
447.7852427545649
 31
0.0
  0
LINE
  5
A03F
330
A
100
AcDbEntity
  8
Defpoints
  6
Continuous
100
AcDbLine
 10
812.5171260457824
 20
449.1990537545648
 30
0.0
 11
812.8178970457822
 21
449.0256617545648
 31
0.0
  0
LINE
  5
A040
330
A
100
AcDbEntity
  8
Defpoints
  6
Continuous
100
AcDbLine
 10
812.1751060457823
 20
449.2852407545649
 30
0.0
 11
812.5171260457824
 21
449.1990537545648
 31
0.0
  0
LINE
  5
A041
330
A
100
AcDbEntity
  8
Defpoints
  6
Continuous
100
AcDbLine
 10
812.8178970457822
 20
449.0256617545648
 30
0.0
 11
813.0411320457822
 21
448.7586187545648
 31
0.0
  0
LINE
  5
A042
330
A
100
AcDbEntity
  8
Defpoints
  6
Continuous
100
AcDbLine
 10
812.5171260457824
 20
414.3714317545648
 30
0.0
 11
812.8178970457822
 21
414.5448237545649
 31
0.0
  0
LINE
  5
A043
330
A
100
AcDbEntity
  8
Defpoints
  6
Continuous
100
AcDbLine
 10
812.8178970457822
 20
414.5448237545649
 30
0.0
 11
813.0411320457822
 21
414.8118667545649
 31
0.0
  0
LINE
  5
A044
330
A
100
AcDbEntity
  8
Defpoints
  6
Continuous
100
AcDbLine
 10
812.1751060457823
 20
414.2852447545648
 30
0.0
 11
812.5171260457824
 21
414.3714317545648
 31
0.0
  0
LINE
  5
A045
330
A
100
AcDbEntity
  8
Defpoints
  6
Continuous
100
AcDbLine
 10
811.5524540457823
 20
447.7611757545648
 30
0.0
 11
811.5524540457823
 21
449.2826027545649
 31
0.0
  0
LINE
  5
A046
330
A
100
AcDbEntity
  8
Defpoints
  6
Continuous
100
AcDbLine
 10
811.5524540457823
 20
414.1979671503325
 30
0.0
 11
811.5524540457823
 21
447.7611756163732
 31
0.0
  0
LINE
  5
A047
330
A
100
AcDbEntity
  8
Defpoints
  6
Continuous
100
AcDbLine
 10
811.5524540457823
 20
415.8103965109113
 30
0.0
 11
815.0524710457823
 21
415.7852777545649
 31
0.0
  0
LINE
  5
A048
330
A
100
AcDbEntity
  8
Defpoints
  6
Continuous
100
AcDbLine
 10
811.5524540457823
 20
447.7611756163733
 30
0.0
 11
815.0524710457823
 21
447.7852077545649
 31
0.0
  0
LINE
  5
A049
330
A
100
AcDbEntity
  8
Defpoints
  6
Continuous
100
AcDbLine
 10
813.0411320457822
 20
448.7586187545648
 30
0.0
 11
813.6111450457821
 21
447.7753107545648
 31
0.0
  0
LINE
  5
A04A
330
A
100
AcDbEntity
  8
Defpoints
  6
Continuous
100
AcDbLine
 10
813.0411320457822
 20
414.8118667545649
 30
0.0
 11
813.6114040457822
 21
415.7956197545648
 31
0.0
  0
LINE
  5
A04B
330
A
100
AcDbEntity
  8
Defpoints
  6
Continuous
100
AcDbLine
 10
811.5524540457823
 20
449.2826027545649
 30
0.0
 11
812.1751060457823
 21
449.2852407545649
 31
0.0
  0
LINE
  5
A04C
330
A
100
AcDbEntity
  8
Defpoints
  6
Continuous
100
AcDbLine
 10
811.5524540457823
 20
414.2878827545648
 30
0.0
 11
812.1751060457823
 21
414.2852447545648
 31
0.0
  0
LINE
  5
A04D
330
A
100
AcDbEntity
  8
Defpoints
100
AcDbLine
 10
750.052456045782
 20
412.2852427545649
 30
0.0
 11
811.5524560457821
 21
414.1979672125349
 31
0.0
  0
LINE
  5
A04E
330
A
100
AcDbEntity
  8
Defpoints
100
AcDbLine
 10
811.5524560457821
 20
449.372518296595
 30
0.0
 11
750.0524560457822
 21
451.2852427545649
 31
0.0
  0
LINE
  5
A04F
330
A
100
AcDbEntity
  8
Defpoints
  6
DASHDOT
100
AcDbLine
 10
953.5139173739535
 20
431.7852427545649
 30
0.0
 11
771.1258600575693
 21
431.7852427545649
 31
0.0
  0
LINE
  5
A0EA
330
A
100
AcDbEntity
  8
buhin
  6
Continuous
100
AcDbLine
 10
536.4279127766498
 20
241.1430579368653
 30
0.0
 11
536.1269240647191
 21
241.1430579368653
 31
0.0
  0
LINE
  5
A0EB
330
A
100
AcDbEntity
  8
buhin
  6
Continuous
100
AcDbLine
 10
538.3828912150546
 20
241.1430579368653
 30
0.0
 11
538.0819025031239
 21
241.1430579368653
 31
0.0
  0
LINE
  5
A0EC
330
A
100
AcDbEntity
  8
buhin
  6
Continuous
100
AcDbLine
 10
540.3378696534595
 20
241.1430579368653
 30
0.0
 11
540.0368809415287
 21
241.1430579368653
 31
0.0
  0
LINE
  5
A0ED
330
A
100
AcDbEntity
  8
buhin
  6
Continuous
100
AcDbLine
 10
542.2928480918645
 20
241.1430579368653
 30
0.0
 11
541.9918593799336
 21
241.1430579368653
 31
0.0
  0
LINE
  5
A106
330
A
100
AcDbEntity
  8
buhin
  6
Continuous
100
AcDbLine
 10
536.1270544147771
 20
241.1430579368653
 30
0.0
 11
535.6892688455424
 21
241.8965031015599
 31
0.0
  0
LWPOLYLINE
  5
A108
330
A
100
AcDbEntity
  8
buhin
  6
Continuous
100
AcDbPolyline
 90
        5
 70
     0
 43
0.0
 10
536.1270544147771
 20
241.1430579368653
 10
536.0767054013734
 20
241.414421991114
 10
535.9866660988088
 20
243.2265393729502
 10
535.8540844478141
 20
248.6188827318762
 10
535.6892688455424
 20
252.2551847153944
  0
LWPOLYLINE
  5
A109
330
A
100
AcDbEntity
  8
buhin
  6
Continuous
100
AcDbPolyline
 90
        8
 70
     0
 43
0.0
 10
535.6892688455424
 20
260.989747679881
 10
535.7989789607938
 20
255.4514189784474
 10
536.1053315776111
 20
251.3203981119668
 10
536.2269638237337
 20
245.313549385105
 10
536.3076153151212
 20
242.6783821845372
 10
536.36118918896
 20
241.6210137980408
 10
536.4012262092751
 20
241.2197454829889
 10
536.4279127766498
 20
241.1430579368653
  0
LINE
  5
A10A
330
A
100
AcDbEntity
  8
buhin
  6
Continuous
100
AcDbLine
 10
536.3715585360739
 20
265.9838561745561
 30
0.0
 11
536.5078199692058
 21
266.0982331364505
 31
0.0
  0
LINE
  5
A10B
330
A
100
AcDbEntity
  8
buhin
  6
Continuous
100
AcDbLine
 10
536.1936802399234
 20
265.9838066415342
 30
0.0
 11
536.3715585360739
 21
265.9838561745561
 31
0.0
  0
LINE
  5
A10C
330
A
100
AcDbEntity
  8
buhin
  6
Continuous
100
AcDbLine
 10
536.1936802399234
 20
265.9838066415342
 30
0.0
 11
536.0574188067914
 21
266.0981106073961
 31
0.0
  0
LINE
  5
A10D
330
A
100
AcDbEntity
  8
buhin
  6
Continuous
100
AcDbLine
 10
536.0574188067914
 20
266.0981106073961
 30
0.0
 11
535.6892688455425
 21
266.7314356687924
 31
0.0
  0
LINE
  5
A10E
330
A
100
AcDbEntity
  8
buhin
  6
Continuous
100
AcDbLine
 10
536.5078199692058
 20
266.0982331364505
 30
0.0
 11
537.1023309417449
 21
267.1399634264881
 31
0.0
  0
LINE
  5
A10F
330
A
100
AcDbEntity
  8
buhin
  6
Continuous
100
AcDbLine
 10
537.4052853325503
 20
267.1430579368653
 30
0.0
 11
537.1046876707936
 21
267.1430579368653
 31
0.0
  0
LWPOLYLINE
  5
A110
330
A
100
AcDbEntity
  8
buhin
  6
Continuous
100
AcDbPolyline
 90
        2
 70
     0
 43
0.0
 10
537.1046876707936
 20
267.1430579368652
 10
537.1010248341637
 20
267.1416371212329
  0
LINE
  5
A111
330
A
100
AcDbEntity
  8
buhin
  6
Continuous
100
AcDbLine
 10
537.0200826621471
 20
242.1953309395943
 30
0.0
 11
537.156344095279
 21
242.3096948664827
 31
0.0
  0
LINE
  5
A112
330
A
100
AcDbEntity
  8
buhin
  6
Continuous
100
AcDbLine
 10
537.4704838245616
 20
242.1955564451946
 30
0.0
 11
537.3342223914295
 21
242.3097848080226
 31
0.0
  0
LINE
  5
A113
330
A
100
AcDbEntity
  8
buhin
  6
Continuous
100
AcDbLine
 10
537.156344095279
 20
242.3096948664827
 30
0.0
 11
537.3342223914295
 21
242.3097848080226
 31
0.0
  0
LINE
  5
A114
330
A
100
AcDbEntity
  8
buhin
  6
Continuous
100
AcDbLine
 10
538.082032853182
 20
241.1430579368653
 30
0.0
 11
537.4704838245616
 21
242.1955564451946
 31
0.0
  0
LINE
  5
A115
330
A
100
AcDbEntity
  8
buhin
  6
Continuous
100
AcDbLine
 10
536.4279127766498
 20
241.1430579368653
 30
0.0
 11
537.0200826621471
 21
242.1953309395943
 31
0.0
  0
LWPOLYLINE
  5
A116
330
A
100
AcDbEntity
  8
buhin
  6
Continuous
100
AcDbPolyline
 90
       10
 70
     0
 43
0.0
 10
538.082032853182
 20
241.1430579368653
 10
538.0316838397783
 20
241.414421991114
 10
537.9416445372137
 20
243.2265393729502
 10
537.8090628862189
 20
248.6188827318762
 10
537.4250555258473
 20
257.0911796925902
 10
537.3134719656961
 20
262.6451636409413
 10
537.2219388514667
 20
265.6826758480403
 10
537.169926571323
 20
266.688623743656
 10
537.1308710869445
 20
267.0702339664606
 10
537.1046876707936
 20
267.1430579368652
  0
LWPOLYLINE
  5
A117
330
A
100
AcDbEntity
  8
buhin
  6
Continuous
100
AcDbPolyline
 90
       11
 70
     0
 43
0.0
 10
537.4052853325504
 20
267.1430579368652
 10
537.4271619827847
 20
267.0925120948738
 10
537.4925273228702
 20
266.3384383128341
 10
537.6009303416062
 20
263.1764509248477
 10
537.7539573991986
 20
255.4514189784474
 10
538.060310016016
 20
251.3203981119668
 10
538.1819422621386
 20
245.313549385105
 10
538.262593753526
 20
242.6783821845372
 10
538.3161676273648
 20
241.6210137980408
 10
538.3562046476799
 20
241.2197454829889
 10
538.3828912150546
 20
241.1430579368653
  0
LINE
  5
A118
330
A
100
AcDbEntity
  8
buhin
  6
Continuous
100
AcDbLine
 10
538.3265369744788
 20
265.9838561745561
 30
0.0
 11
538.4627984076107
 21
266.0982331364505
 31
0.0
  0
LINE
  5
A119
330
A
100
AcDbEntity
  8
buhin
  6
Continuous
100
AcDbLine
 10
538.1486586783283
 20
265.9838066415342
 30
0.0
 11
538.3265369744788
 21
265.9838561745561
 31
0.0
  0
LINE
  5
A11A
330
A
100
AcDbEntity
  8
buhin
  6
Continuous
100
AcDbLine
 10
538.1486586783283
 20
265.9838066415342
 30
0.0
 11
538.0123972451963
 21
266.0981106073961
 31
0.0
  0
LINE
  5
A11B
330
A
100
AcDbEntity
  8
buhin
  6
Continuous
100
AcDbLine
 10
538.0123972451963
 20
266.0981106073961
 30
0.0
 11
537.404972492411
 21
267.1430579368653
 31
0.0
  0
LINE
  5
A11C
330
A
100
AcDbEntity
  8
buhin
  6
Continuous
100
AcDbLine
 10
538.4627984076107
 20
266.0982331364505
 30
0.0
 11
539.0573093801498
 21
267.1399634264881
 31
0.0
  0
LINE
  5
A11D
330
A
100
AcDbEntity
  8
buhin
  6
Continuous
100
AcDbLine
 10
539.3602637709551
 20
267.1430579368653
 30
0.0
 11
539.0596661091985
 21
267.1430579368653
 31
0.0
  0
LWPOLYLINE
  5
A11E
330
A
100
AcDbEntity
  8
buhin
  6
Continuous
100
AcDbPolyline
 90
        2
 70
     0
 43
0.0
 10
539.0596661091985
 20
267.1430579368652
 10
539.0560032725686
 20
267.1416371212329
  0
LINE
  5
A11F
330
A
100
AcDbEntity
  8
buhin
  6
Continuous
100
AcDbLine
 10
538.975061100552
 20
242.1953309395943
 30
0.0
 11
539.1113225336839
 21
242.3096948664827
 31
0.0
  0
LINE
  5
A120
330
A
100
AcDbEntity
  8
buhin
  6
Continuous
100
AcDbLine
 10
539.4254622629666
 20
242.1955564451946
 30
0.0
 11
539.2892008298344
 21
242.3097848080226
 31
0.0
  0
LINE
  5
A121
330
A
100
AcDbEntity
  8
buhin
  6
Continuous
100
AcDbLine
 10
539.1113225336839
 20
242.3096948664827
 30
0.0
 11
539.2892008298344
 21
242.3097848080226
 31
0.0
  0
LINE
  5
A122
330
A
100
AcDbEntity
  8
buhin
  6
Continuous
100
AcDbLine
 10
540.0370112915868
 20
241.1430579368653
 30
0.0
 11
539.4254622629666
 21
242.1955564451946
 31
0.0
  0
LINE
  5
A123
330
A
100
AcDbEntity
  8
buhin
  6
Continuous
100
AcDbLine
 10
538.3828912150546
 20
241.1430579368653
 30
0.0
 11
538.975061100552
 21
242.1953309395943
 31
0.0
  0
LWPOLYLINE
  5
A124
330
A
100
AcDbEntity
  8
buhin
  6
Continuous
100
AcDbPolyline
 90
       10
 70
     0
 43
0.0
 10
540.0370112915868
 20
241.1430579368653
 10
539.9866622781831
 20
241.414421991114
 10
539.8966229756186
 20
243.2265393729502
 10
539.7640413246238
 20
248.6188827318762
 10
539.3800339642523
 20
257.0911796925902
 10
539.268450404101
 20
262.6451636409413
 10
539.1769172898716
 20
265.6826758480403
 10
539.1249050097278
 20
266.688623743656
 10
539.0858495253493
 20
267.0702339664606
 10
539.0596661091985
 20
267.1430579368652
  0
LWPOLYLINE
  5
A125
330
A
100
AcDbEntity
  8
buhin
  6
Continuous
100
AcDbPolyline
 90
       11
 70
     0
 43
0.0
 10
539.3602637709553
 20
267.1430579368652
 10
539.3821404211896
 20
267.0925120948738
 10
539.4475057612752
 20
266.3384383128341
 10
539.5559087800111
 20
263.1764509248477
 10
539.7089358376034
 20
255.4514189784474
 10
540.0152884544208
 20
251.3203981119668
 10
540.1369207005435
 20
245.313549385105
 10
540.2175721919308
 20
242.6783821845372
 10
540.2711460657696
 20
241.6210137980408
 10
540.3111830860848
 20
241.2197454829889
 10
540.3378696534596
 20
241.1430579368653
  0
LINE
  5
A126
330
A
100
AcDbEntity
  8
buhin
  6
Continuous
100
AcDbLine
 10
540.2815154128837
 20
265.9838561745561
 30
0.0
 11
540.4177768460156
 21
266.0982331364505
 31
0.0
  0
LINE
  5
A127
330
A
100
AcDbEntity
  8
buhin
  6
Continuous
100
AcDbLine
 10
540.1036371167332
 20
265.9838066415342
 30
0.0
 11
540.2815154128837
 21
265.9838561745561
 31
0.0
  0
LINE
  5
A128
330
A
100
AcDbEntity
  8
buhin
  6
Continuous
100
AcDbLine
 10
540.1036371167332
 20
265.9838066415342
 30
0.0
 11
539.9673756836011
 21
266.0981106073961
 31
0.0
  0
LINE
  5
A129
330
A
100
AcDbEntity
  8
buhin
  6
Continuous
100
AcDbLine
 10
539.9673756836011
 20
266.0981106073961
 30
0.0
 11
539.359950930816
 21
267.1430579368653
 31
0.0
  0
LINE
  5
A12A
330
A
100
AcDbEntity
  8
buhin
  6
Continuous
100
AcDbLine
 10
540.4177768460156
 20
266.0982331364505
 30
0.0
 11
541.0122878185547
 21
267.1399634264881
 31
0.0
  0
LINE
  5
A12B
330
A
100
AcDbEntity
  8
buhin
  6
Continuous
100
AcDbLine
 10
541.31524220936
 20
267.1430579368653
 30
0.0
 11
541.0146445476033
 21
267.1430579368653
 31
0.0
  0
LWPOLYLINE
  5
A12C
330
A
100
AcDbEntity
  8
buhin
  6
Continuous
100
AcDbPolyline
 90
        2
 70
     0
 43
0.0
 10
541.0146445476033
 20
267.1430579368652
 10
541.0109817109734
 20
267.1416371212329
  0
LINE
  5
A12D
330
A
100
AcDbEntity
  8
buhin
  6
Continuous
100
AcDbLine
 10
540.9300395389569
 20
242.1953309395943
 30
0.0
 11
541.0663009720888
 21
242.3096948664827
 31
0.0
  0
LINE
  5
A12E
330
A
100
AcDbEntity
  8
buhin
  6
Continuous
100
AcDbLine
 10
541.3804407013714
 20
242.1955564451946
 30
0.0
 11
541.2441792682393
 21
242.3097848080226
 31
0.0
  0
LINE
  5
A12F
330
A
100
AcDbEntity
  8
buhin
  6
Continuous
100
AcDbLine
 10
541.0663009720888
 20
242.3096948664827
 30
0.0
 11
541.2441792682393
 21
242.3097848080226
 31
0.0
  0
LINE
  5
A130
330
A
100
AcDbEntity
  8
buhin
  6
Continuous
100
AcDbLine
 10
541.9919897299917
 20
241.1430579368653
 30
0.0
 11
541.3804407013714
 21
242.1955564451946
 31
0.0
  0
LINE
  5
A131
330
A
100
AcDbEntity
  8
buhin
  6
Continuous
100
AcDbLine
 10
540.3378696534595
 20
241.1430579368653
 30
0.0
 11
540.9300395389569
 21
242.1953309395943
 31
0.0
  0
LWPOLYLINE
  5
A132
330
A
100
AcDbEntity
  8
buhin
  6
Continuous
100
AcDbPolyline
 90
       10
 70
     0
 43
0.0
 10
541.9919897299917
 20
241.1430579368653
 10
541.9416407165881
 20
241.414421991114
 10
541.8516014140234
 20
243.2265393729502
 10
541.7190197630286
 20
248.6188827318762
 10
541.3350124026571
 20
257.0911796925902
 10
541.2234288425058
 20
262.6451636409413
 10
541.1318957282765
 20
265.6826758480403
 10
541.0798834481327
 20
266.688623743656
 10
541.0408279637541
 20
267.0702339664606
 10
541.0146445476033
 20
267.1430579368652
  0
LWPOLYLINE
  5
A133
330
A
100
AcDbEntity
  8
buhin
  6
Continuous
100
AcDbPolyline
 90
       11
 70
     0
 43
0.0
 10
541.3152422093601
 20
267.1430579368652
 10
541.3371188595944
 20
267.0925120948738
 10
541.40248419968
 20
266.3384383128341
 10
541.5108872184159
 20
263.1764509248477
 10
541.6639142760082
 20
255.4514189784474
 10
541.9702668928257
 20
251.3203981119668
 10
542.0918991389483
 20
245.313549385105
 10
542.1725506303357
 20
242.6783821845372
 10
542.2261245041745
 20
241.6210137980408
 10
542.2661615244897
 20
241.2197454829889
 10
542.2928480918645
 20
241.1430579368653
  0
LINE
  5
A134
330
A
100
AcDbEntity
  8
buhin
  6
Continuous
100
AcDbLine
 10
542.2364938512885
 20
265.9838561745561
 30
0.0
 11
542.3727552844204
 21
266.0982331364505
 31
0.0
  0
LINE
  5
A135
330
A
100
AcDbEntity
  8
buhin
  6
Continuous
100
AcDbLine
 10
542.058615555138
 20
265.9838066415342
 30
0.0
 11
542.2364938512885
 21
265.9838561745561
 31
0.0
  0
LINE
  5
A136
330
A
100
AcDbEntity
  8
buhin
  6
Continuous
100
AcDbLine
 10
542.058615555138
 20
265.9838066415342
 30
0.0
 11
541.922354122006
 21
266.0981106073961
 31
0.0
  0
LINE
  5
A137
330
A
100
AcDbEntity
  8
buhin
  6
Continuous
100
AcDbLine
 10
541.922354122006
 20
266.0981106073961
 30
0.0
 11
541.3149293692208
 21
267.1430579368653
 31
0.0
  0
LINE
  5
A138
330
A
100
AcDbEntity
  8
buhin
  6
Continuous
100
AcDbLine
 10
542.3727552844204
 20
266.0982331364505
 30
0.0
 11
542.9672662569596
 21
267.1399634264881
 31
0.0
  0
LINE
  5
A139
330
A
100
AcDbEntity
  8
buhin
  6
Continuous
100
AcDbLine
 10
543.2702206477649
 20
267.1430579368653
 30
0.0
 11
542.9696229860081
 21
267.1430579368653
 31
0.0
  0
LWPOLYLINE
  5
A13A
330
A
100
AcDbEntity
  8
buhin
  6
Continuous
100
AcDbPolyline
 90
        2
 70
     0
 43
0.0
 10
542.9696229860082
 20
267.1430579368652
 10
542.9659601493783
 20
267.1416371212329
  0
LINE
  5
A13B
330
A
100
AcDbEntity
  8
buhin
  6
Continuous
100
AcDbLine
 10
542.8850179773617
 20
242.1953309395943
 30
0.0
 11
543.0212794104936
 21
242.3096948664827
 31
0.0
  0
LINE
  5
A13C
330
A
100
AcDbEntity
  8
buhin
  6
Continuous
100
AcDbLine
 10
543.3354191397762
 20
242.1955564451946
 30
0.0
 11
543.1991577066441
 21
242.3097848080226
 31
0.0
  0
LINE
  5
A13D
330
A
100
AcDbEntity
  8
buhin
  6
Continuous
100
AcDbLine
 10
543.0212794104936
 20
242.3096948664827
 30
0.0
 11
543.1991577066441
 21
242.3097848080226
 31
0.0
  0
LINE
  5
A13E
330
A
100
AcDbEntity
  8
buhin
  6
Continuous
100
AcDbLine
 10
543.9469681683966
 20
241.1430579368653
 30
0.0
 11
543.3354191397762
 21
242.1955564451946
 31
0.0
  0
LINE
  5
A13F
330
A
100
AcDbEntity
  8
buhin
  6
Continuous
100
AcDbLine
 10
542.2928480918645
 20
241.1430579368653
 30
0.0
 11
542.8850179773617
 21
242.1953309395943
 31
0.0
  0
LWPOLYLINE
  5
A140
330
A
100
AcDbEntity
  8
buhin
  6
Continuous
100
AcDbPolyline
 90
       10
 70
     0
 43
0.0
 10
543.9469681683966
 20
241.1430579368653
 10
543.896619154993
 20
241.414421991114
 10
543.8065798524283
 20
243.2265393729502
 10
543.6739982014334
 20
248.6188827318762
 10
543.289990841062
 20
257.0911796925902
 10
543.1784072809107
 20
262.6451636409413
 10
543.0868741666813
 20
265.6826758480403
 10
543.0348618865375
 20
266.688623743656
 10
542.9958064021591
 20
267.0702339664606
 10
542.9696229860082
 20
267.1430579368652
  0
LWPOLYLINE
  5
A141
330
A
100
AcDbEntity
  8
buhin
  6
Continuous
100
AcDbPolyline
 90
       11
 70
     0
 43
0.0
 10
543.270220647765
 20
267.1430579368652
 10
543.2920972979993
 20
267.0925120948738
 10
543.3574626380849
 20
266.3384383128341
 10
543.4658656568208
 20
263.1764509248477
 10
543.6188927144132
 20
255.4514189784474
 10
543.9252453312305
 20
251.3203981119668
 10
544.0468775773532
 20
245.313549385105
 10
544.1275290687406
 20
242.6783821845372
 10
544.1811029425793
 20
241.6210137980408
 10
544.2211399628945
 20
241.2197454829889
 10
544.2478265302693
 20
241.1430579368653
  0
LINE
  5
A142
330
A
100
AcDbEntity
  8
buhin
  6
Continuous
100
AcDbLine
 10
549.6892688455427
 20
246.2267101989334
 30
0.0
 11
549.6892688455427
 21
261.8687171591425
 31
0.0
  0
LINE
  5
A143
330
A
100
AcDbEntity
  8
buhin
  6
Continuous
100
AcDbLine
 10
549.6892688455427
 20
261.8687171591425
 30
0.0
 11
549.6892688455427
 21
262.0594056747972
 31
0.0
  0
LINE
  5
A144
330
A
100
AcDbEntity
  8
buhin
  6
Continuous
100
AcDbLine
 10
549.6892688455427
 20
265.3181571248407
 30
0.0
 11
548.4795916302736
 21
266.5278343401098
 31
0.0
  0
LINE
  5
A145
330
A
100
AcDbEntity
  8
buhin
  6
Continuous
100
AcDbLine
 10
547.8643680335182
 20
241.1430579368653
 30
0.0
 11
548.55940888129
 21
241.8380987846372
 31
0.0
  0
LINE
  5
A146
330
A
100
AcDbEntity
  8
buhin
  6
Continuous
100
AcDbLine
 10
549.0322719656994
 20
242.3109618690465
 30
0.0
 11
549.6892688455427
 21
242.9679587488898
 31
0.0
  0
LWPOLYLINE
  5
A147
330
A
100
AcDbEntity
  8
buhin
  6
Continuous
100
AcDbPolyline
 90
        2
 70
     0
 43
0.0
 10
548.5793706891724
 20
241.8653562852656
 10
548.55940888129
 20
241.838098784637
  0
LINE
  5
A148
330
A
100
AcDbEntity
  8
buhin
  6
Continuous
100
AcDbLine
 10
549.6892688455427
 20
242.9679587488898
 30
0.0
 11
549.6892688455427
 21
265.3181571248407
 31
0.0
  0
LINE
  5
A149
330
A
100
AcDbEntity
  8
buhin
  6
Continuous
100
AcDbLine
 10
547.8642520219666
 20
241.1430579368653
 30
0.0
 11
547.8643654265172
 21
249.7137189390444
 31
0.0
  0
LWPOLYLINE
  5
A14A
330
A
100
AcDbEntity
  8
buhin
  6
Continuous
100
AcDbPolyline
 90
        9
 70
     0
 43
0.0
 10
547.8644162630396
 20
249.7127921501319
 10
548.0363688455534
 20
246.2952221894191
 10
548.1743339539434
 20
244.1839866189846
 10
548.2782972497041
 20
243.0170824717483
 10
548.3829839882862
 20
242.2362517333028
 10
548.4532687395609
 20
241.9394394372304
 10
548.4885610177648
 20
241.8595583146859
 10
548.52394584451
 20
241.8257324746344
 10
548.55940888129
 20
241.838098784637
  0
LWPOLYLINE
  5
A14B
330
A
100
AcDbEntity
  8
buhin
  6
Continuous
100
AcDbPolyline
 90
        6
 70
     0
 43
0.0
 10
548.9069781864475
 20
250.8363835800955
 10
548.6772270847153
 20
257.1534752888098
 10
548.5879099214721
 20
263.4893054025582
 10
548.5311972182366
 20
265.7976589377041
 10
548.4967535189102
 20
266.4348934452538
 10
548.4795916302736
 20
266.5278343401098
  0
LWPOLYLINE
  5
A14C
330
A
100
AcDbEntity
  8
buhin
  6
Continuous
100
AcDbPolyline
 90
        4
 70
     0
 43
0.0
 10
548.9064867667289
 20
250.8620820940302
 10
549.00465339541
 20
243.4227657432647
 10
549.0296779995452
 20
242.3318582868446
 10
549.0322719656994
 20
242.3109618690465
  0
LWPOLYLINE
  5
A14D
330
A
100
AcDbEntity
  8
buhin
  6
Continuous
100
AcDbPolyline
 90
       11
 70
     0
 43
0.0
 10
545.2251990861697
 20
267.1430579368652
 10
545.2470757364042
 20
267.0925120948738
 10
545.3124410764898
 20
266.3384383128341
 10
545.4208440952258
 20
263.1764509248477
 10
545.5738711528181
 20
255.4514189784474
 10
545.8802237696354
 20
251.3203981119668
 10
546.0018560157581
 20
245.313549385105
 10
546.0825075071454
 20
242.6783821845372
 10
546.1360813809842
 20
241.6210137980408
 10
546.1761184012994
 20
241.2197454829889
 10
546.2028049686741
 20
241.1430579368653
  0
LWPOLYLINE
  5
A14E
330
A
100
AcDbEntity
  8
buhin
  6
Continuous
100
AcDbPolyline
 90
        6
 70
     0
 43
0.0
 10
547.1806989248067
 20
267.1430579368652
 10
547.2348411248982
 20
266.828525853908
 10
547.3278067862652
 20
264.8587096684007
 10
547.4576002495192
 20
259.4632639780944
 10
547.8199186637397
 20
252.2189271317845
 10
547.8643654265172
 20
249.7156011938819
  0
LWPOLYLINE
  5
A14F
330
A
100
AcDbEntity
  8
buhin
  6
Continuous
100
AcDbPolyline
 90
       10
 70
     0
 43
0.0
 10
545.9019466068014
 20
241.1430579368653
 10
545.8515975933978
 20
241.414421991114
 10
545.7615582908331
 20
243.2265393729502
 10
545.6289766398383
 20
248.6188827318762
 10
545.2449692794669
 20
257.0911796925902
 10
545.1333857193155
 20
262.6451636409413
 10
545.0418526050863
 20
265.6826758480403
 10
544.9898403249424
 20
266.688623743656
 10
544.9507848405639
 20
267.0702339664606
 10
544.9246014244131
 20
267.1430579368652
  0
LWPOLYLINE
  5
A150
330
A
100
AcDbEntity
  8
buhin
  6
Continuous
100
AcDbPolyline
 90
       10
 70
     0
 43
0.0
 10
547.8574451419379
 20
241.1430579368653
 10
547.803666618508
 20
241.4494991917221
 10
547.7099488373065
 20
243.4234487775686
 10
547.5621475135394
 20
249.7977060884159
 10
547.2060037815665
 20
256.7461913185812
 10
547.0756980425846
 20
263.1740811607933
 10
546.9884013052401
 20
265.8896847751528
 10
546.9231193891917
 20
266.9408276428788
 10
546.9014499955497
 20
267.0924795073593
 10
546.8798223139258
 20
267.1430579368652
  0
LWPOLYLINE
  5
A151
330
A
100
AcDbEntity
  8
buhin
  6
Continuous
100
AcDbPolyline
 90
        2
 70
     0
 43
0.0
 10
544.9246014244131
 20
267.1430579368652
 10
544.9209385877832
 20
267.1416371212329
  0
LINE
  5
A152
330
A
100
AcDbEntity
  8
buhin
  6
Continuous
100
AcDbLine
 10
547.1806989248066
 20
267.1430579368653
 30
0.0
 11
546.8798223139258
 21
267.1430579368653
 31
0.0
  0
LINE
  5
A153
330
A
100
AcDbEntity
  8
buhin
  6
Continuous
100
AcDbLine
 10
546.2028049686741
 20
241.1430579368653
 30
0.0
 11
545.9019466068014
 21
241.1430579368653
 31
0.0
  0
LINE
  5
A154
330
A
100
AcDbEntity
  8
buhin
  6
Continuous
100
AcDbLine
 10
545.2251990861697
 20
267.1430579368653
 30
0.0
 11
544.9246014244131
 21
267.1430579368653
 31
0.0
  0
LINE
  5
A155
330
A
100
AcDbEntity
  8
buhin
  6
Continuous
100
AcDbLine
 10
547.8643680335182
 20
241.1430579368653
 30
0.0
 11
547.8574451419379
 21
241.1430579368653
 31
0.0
  0
LINE
  5
A156
330
A
100
AcDbEntity
  8
buhin
  6
Continuous
100
AcDbLine
 10
544.2478265302693
 20
241.1430579368653
 30
0.0
 11
543.9468378183386
 21
241.1430579368653
 31
0.0
  0
LINE
  5
A157
330
A
100
AcDbEntity
  8
buhin
  6
Continuous
100
AcDbLine
 10
547.7922166694131
 20
266.0908344671584
 30
0.0
 11
547.1806989248066
 21
267.1430579368653
 31
0.0
  0
LINE
  5
A158
330
A
100
AcDbEntity
  8
buhin
  6
Continuous
100
AcDbLine
 10
548.5784504177629
 20
241.8658881135025
 30
0.0
 11
548.760171433623
 21
242.1851818840782
 31
0.0
  0
LINE
  5
A159
330
A
100
AcDbEntity
  8
buhin
  6
Continuous
100
AcDbLine
 10
545.856333211005
 20
266.0149576983953
 30
0.0
 11
545.2394476510098
 21
267.119523233893
 31
0.0
  0
LINE
  5
A15A
330
A
100
AcDbEntity
  8
buhin
  6
Continuous
100
AcDbLine
 10
546.2028049686741
 20
241.1430579368653
 30
0.0
 11
546.8242944927178
 21
242.2240926798922
 31
0.0
  0
LINE
  5
A15B
330
A
100
AcDbEntity
  8
buhin
  6
Continuous
100
AcDbLine
 10
544.2478265302693
 20
241.1430579368653
 30
0.0
 11
544.8399964157665
 21
242.1953309395943
 31
0.0
  0
LINE
  5
A15C
330
A
100
AcDbEntity
  8
buhin
  6
Continuous
100
AcDbLine
 10
543.8773325604109
 20
266.0981106073961
 30
0.0
 11
543.2699078076256
 21
267.1430579368653
 31
0.0
  0
LINE
  5
A15D
330
A
100
AcDbEntity
  8
buhin
  6
Continuous
100
AcDbLine
 10
548.2426178318278
 20
266.0910599727586
 30
0.0
 11
548.4795916302736
 21
266.5278343401098
 31
0.0
  0
LINE
  5
A15E
330
A
100
AcDbEntity
  8
buhin
  6
Continuous
100
AcDbLine
 10
547.8519743500035
 20
241.1502454390637
 30
0.0
 11
547.226300589098
 21
242.271360217925
 31
0.0
  0
LINE
  5
A15F
330
A
100
AcDbEntity
  8
buhin
  6
Continuous
100
AcDbLine
 10
546.2583327898824
 20
266.0623751389948
 30
0.0
 11
546.8798223139258
 21
267.1430579368653
 31
0.0
  0
LINE
  5
A160
330
A
100
AcDbEntity
  8
buhin
  6
Continuous
100
AcDbLine
 10
545.9019466068014
 20
241.1430579368653
 30
0.0
 11
545.290397578181
 21
242.1955564451946
 31
0.0
  0
LINE
  5
A161
330
A
100
AcDbEntity
  8
buhin
  6
Continuous
100
AcDbLine
 10
544.3277337228254
 20
266.0982331364505
 30
0.0
 11
544.9222446953645
 21
267.1399634264881
 31
0.0
  0
LINE
  5
A162
330
A
100
AcDbEntity
  8
buhin
  6
Continuous
100
AcDbLine
 10
544.0135939935429
 20
265.9838066415342
 30
0.0
 11
543.8773325604109
 21
266.0981106073961
 31
0.0
  0
LINE
  5
A163
330
A
100
AcDbEntity
  8
buhin
  6
Continuous
100
AcDbLine
 10
547.9284781025453
 20
265.9766048008296
 30
0.0
 11
548.1063563986956
 21
265.9766934388691
 31
0.0
  0
LINE
  5
A164
330
A
100
AcDbEntity
  8
buhin
  6
Continuous
100
AcDbLine
 10
547.9284781025453
 20
265.9766048008296
 30
0.0
 11
547.7922166694131
 21
266.0908344671584
 31
0.0
  0
LINE
  5
A165
330
A
100
AcDbEntity
  8
buhin
  6
Continuous
100
AcDbLine
 10
547.2337878964295
 20
242.2579458934559
 30
0.0
 11
547.1384342220001
 21
242.3379091365373
 31
0.0
  0
LINE
  5
A166
330
A
100
AcDbEntity
  8
buhin
  6
Continuous
100
AcDbLine
 10
547.1384342220001
 20
242.3379091365373
 30
0.0
 11
546.9605559258497
 21
242.3380877161167
 31
0.0
  0
LINE
  5
A167
330
A
100
AcDbEntity
  8
buhin
  6
Continuous
100
AcDbLine
 10
544.0135939935429
 20
265.9838066415342
 30
0.0
 11
544.1914722896934
 21
265.9838561745561
 31
0.0
  0
LINE
  5
A168
330
A
100
AcDbEntity
  8
buhin
  6
Continuous
100
AcDbLine
 10
546.8242944927178
 20
242.2240926798922
 30
0.0
 11
546.9605559258497
 21
242.3380877161167
 31
0.0
  0
LINE
  5
A169
330
A
100
AcDbEntity
  8
buhin
  6
Continuous
100
AcDbLine
 10
546.1220700532495
 20
265.9483774957692
 30
0.0
 11
546.2583327898824
 21
266.0623751389948
 31
0.0
  0
LINE
  5
A16A
330
A
100
AcDbEntity
  8
buhin
  6
Continuous
100
AcDbLine
 10
546.1220700532495
 20
265.9483774957692
 30
0.0
 11
545.9441930605999
 21
265.9485560753487
 31
0.0
  0
LINE
  5
A16B
330
A
100
AcDbEntity
  8
buhin
  6
Continuous
100
AcDbLine
 10
545.9441930605999
 20
265.9485560753487
 30
0.0
 11
545.8486881801031
 21
266.0286470614867
 31
0.0
  0
LINE
  5
A16C
330
A
100
AcDbEntity
  8
buhin
  6
Continuous
100
AcDbLine
 10
544.1914722896934
 20
265.9838561745561
 30
0.0
 11
544.3277337228254
 21
266.0982331364505
 31
0.0
  0
LINE
  5
A16D
330
A
100
AcDbEntity
  8
buhin
  6
Continuous
100
AcDbLine
 10
544.9762578488985
 20
242.3096948664827
 30
0.0
 11
545.154136145049
 21
242.3097848080226
 31
0.0
  0
LINE
  5
A16E
330
A
100
AcDbEntity
  8
buhin
  6
Continuous
100
AcDbLine
 10
545.290397578181
 20
242.1955564451946
 30
0.0
 11
545.154136145049
 21
242.3097848080226
 31
0.0
  0
LINE
  5
A16F
330
A
100
AcDbEntity
  8
buhin
  6
Continuous
100
AcDbLine
 10
548.1063563986956
 20
265.9766934388691
 30
0.0
 11
548.2426178318278
 21
266.0910599727586
 31
0.0
  0
LINE
  5
A170
330
A
100
AcDbEntity
  8
buhin
  6
Continuous
100
AcDbLine
 10
544.8399964157665
 20
242.1953309395943
 30
0.0
 11
544.9762578488985
 21
242.3096948664827
 31
0.0
  0
LINE
  5
A171
330
A
100
AcDbEntity
  8
buhin
  6
Continuous
100
AcDbLine
 10
548.8964341702557
 20
242.2995392934638
 30
0.0
 11
549.0322719656994
 21
242.3109618690465
 31
0.0
  0
LINE
  5
A172
330
A
100
AcDbEntity
  8
buhin
  6
Continuous
100
AcDbLine
 10
548.760171433623
 20
242.1851818840782
 30
0.0
 11
548.8964341702557
 21
242.2995392934638
 31
0.0
  0
LINE
  5
A177
330
A
100
AcDbEntity
  8
buhin
  6
Continuous
100
AcDbLine
 10
241.7426960418812
 20
569.4936755702881
 30
0.0
 11
241.6283386324957
 21
569.6299383069209
 31
0.0
  0
LINE
  5
A178
330
A
100
AcDbEntity
  8
buhin
  6
Continuous
100
AcDbLine
 10
241.6283386324957
 20
569.6299383069209
 30
0.0
 11
241.616916056913
 21
569.7657761023645
 31
0.0
  0
LINE
  5
A179
330
A
100
AcDbEntity
  8
buhin
  6
Continuous
100
AcDbLine
 10
241.7325469863651
 20
565.5735005524316
 30
0.0
 11
241.6181830594768
 21
565.7097619855635
 31
0.0
  0
LINE
  5
A17A
330
A
100
AcDbEntity
  8
buhin
  6
Continuous
100
AcDbLine
 10
217.9511844870904
 20
568.8398605353606
 30
0.0
 11
217.8368179532009
 21
568.9761219684928
 31
0.0
  0
LINE
  5
A17B
330
A
100
AcDbEntity
  8
buhin
  6
Continuous
100
AcDbLine
 10
241.7323214807649
 20
566.0239017148462
 30
0.0
 11
241.6180931179368
 21
565.887640281714
 31
0.0
  0
LINE
  5
A17C
330
A
100
AcDbEntity
  8
buhin
  6
Continuous
100
AcDbLine
 10
241.6181830594768
 20
565.7097619855635
 30
0.0
 11
241.6180931179368
 21
565.887640281714
 31
0.0
  0
LINE
  5
A17D
330
A
100
AcDbEntity
  8
buhin
  6
Continuous
100
AcDbLine
 10
217.9440217514034
 20
564.9249764263584
 30
0.0
 11
217.8296447895089
 21
565.0612378594904
 31
0.0
  0
LINE
  5
A17E
330
A
100
AcDbEntity
  8
buhin
  6
Continuous
100
AcDbLine
 10
217.9793218506107
 20
566.6776971972649
 30
0.0
 11
217.8992308644728
 21
566.5821923167682
 31
0.0
  0
LINE
  5
A17F
330
A
100
AcDbEntity
  8
buhin
  6
Continuous
100
AcDbLine
 10
217.9795004301902
 20
566.8555741899146
 30
0.0
 11
217.9793218506107
 21
566.6776971972649
 31
0.0
  0
LINE
  5
A180
330
A
100
AcDbEntity
  8
buhin
  6
Continuous
100
AcDbLine
 10
217.9795004301902
 20
566.8555741899146
 30
0.0
 11
217.8655027869647
 21
566.9918369265474
 31
0.0
  0
LINE
  5
A181
330
A
100
AcDbEntity
  8
buhin
  6
Continuous
100
AcDbLine
 10
241.7037852460672
 20
567.5577986293829
 30
0.0
 11
241.5897902098428
 21
567.6940600625148
 31
0.0
  0
LINE
  5
A182
330
A
100
AcDbEntity
  8
buhin
  6
Continuous
100
AcDbLine
 10
217.9440712844253
 20
564.7470981302079
 30
0.0
 11
217.9440217514034
 21
564.9249764263584
 31
0.0
  0
LINE
  5
A183
330
A
100
AcDbEntity
  8
buhin
  6
Continuous
100
AcDbLine
 10
241.5899687894222
 20
567.8719383586651
 30
0.0
 11
241.5897902098428
 21
567.6940600625148
 31
0.0
  0
LINE
  5
A184
330
A
100
AcDbEntity
  8
buhin
  6
Continuous
100
AcDbLine
 10
241.6699320325035
 20
567.9672920330946
 30
0.0
 11
241.5899687894222
 21
567.8719383586651
 31
0.0
  0
LINE
  5
A185
330
A
100
AcDbEntity
  8
buhin
  6
Continuous
100
AcDbLine
 10
217.9512731251299
 20
568.6619822392104
 30
0.0
 11
217.8370434588011
 21
568.5257208060781
 31
0.0
  0
LINE
  5
A186
330
A
100
AcDbEntity
  8
buhin
  6
Continuous
100
AcDbLine
 10
217.9512731251299
 20
568.6619822392104
 30
0.0
 11
217.9511844870904
 21
568.8398605353606
 31
0.0
  0
LINE
  5
A187
330
A
100
AcDbEntity
  8
buhin
  6
Continuous
100
AcDbLine
 10
217.9440712844253
 20
564.7470981302079
 30
0.0
 11
217.8297673185634
 21
564.6108366970759
 31
0.0
  0
LINE
  5
A188
330
A
100
AcDbEntity
  8
buhin
  6
Continuous
100
AcDbLine
 10
217.8296447895089
 20
565.0612378594904
 30
0.0
 11
216.7879144994714
 21
565.6557488320295
 31
0.0
  0
LINE
  5
A189
330
A
100
AcDbEntity
  8
buhin
  6
Continuous
100
AcDbLine
 10
242.7848199890942
 20
566.6354507434664
 30
0.0
 11
241.7323214807649
 21
566.0239017148462
 31
0.0
  0
LINE
  5
A18A
330
A
100
AcDbEntity
  8
buhin
  6
Continuous
100
AcDbLine
 10
217.8655027869647
 20
566.9918369265474
 30
0.0
 11
216.7848199890942
 21
567.6133264505908
 31
0.0
  0
LINE
  5
A18B
330
A
100
AcDbEntity
  8
buhin
  6
Continuous
100
AcDbLine
 10
242.7776324868958
 20
568.5854784866685
 30
0.0
 11
241.6565177080345
 21
567.9598047257631
 31
0.0
  0
LINE
  5
A18C
330
A
100
AcDbEntity
  8
buhin
  6
Continuous
100
AcDbLine
 10
217.8368179532009
 20
568.9761219684928
 30
0.0
 11
217.4000435858498
 21
569.2130957669387
 31
0.0
  0
LINE
  5
A18D
330
A
100
AcDbEntity
  8
buhin
  6
Continuous
100
AcDbLine
 10
217.8297673185634
 20
564.6108366970759
 30
0.0
 11
216.7848199890942
 21
564.0034119442908
 31
0.0
  0
LINE
  5
A18E
330
A
100
AcDbEntity
  8
buhin
  6
Continuous
100
AcDbLine
 10
242.7848199890942
 20
564.9813306669343
 30
0.0
 11
241.7325469863651
 21
565.5735005524316
 31
0.0
  0
LINE
  5
A18F
330
A
100
AcDbEntity
  8
buhin
  6
Continuous
100
AcDbLine
 10
242.7848199890942
 20
566.9363091053392
 30
0.0
 11
241.7037852460672
 21
567.5577986293829
 31
0.0
  0
LINE
  5
A190
330
A
100
AcDbEntity
  8
buhin
  6
Continuous
100
AcDbLine
 10
217.9129202275642
 20
566.58983734767
 30
0.0
 11
216.8083546920665
 21
565.9729517876749
 31
0.0
  0
LINE
  5
A191
330
A
100
AcDbEntity
  8
buhin
  6
Continuous
100
AcDbLine
 10
242.061989812457
 20
569.311954554428
 30
0.0
 11
241.7426960418812
 21
569.4936755702881
 31
0.0
  0
LINE
  5
A192
330
A
100
AcDbEntity
  8
buhin
  6
Continuous
100
AcDbLine
 10
217.8370434588011
 20
568.5257208060781
 30
0.0
 11
216.7848199890942
 21
567.9142030614716
 31
0.0
  0
LINE
  5
A193
330
A
100
AcDbEntity
  8
buhin
  6
Continuous
100
AcDbLine
 10
242.7848199890942
 20
564.9813306669343
 30
0.0
 11
242.7848199890942
 21
564.6803419550036
 31
0.0
  0
LINE
  5
A194
330
A
100
AcDbEntity
  8
buhin
  6
Continuous
100
AcDbLine
 10
242.7848199890942
 20
568.5978721701833
 30
0.0
 11
242.7848199890942
 21
568.5909492786029
 31
0.0
  0
LINE
  5
A195
330
A
100
AcDbEntity
  8
buhin
  6
Continuous
100
AcDbLine
 10
216.7848199890942
 20
565.9587032228347
 30
0.0
 11
216.7848199890942
 21
565.6581055610781
 31
0.0
  0
LINE
  5
A196
330
A
100
AcDbEntity
  8
buhin
  6
Continuous
100
AcDbLine
 10
242.7848199890942
 20
566.9363091053392
 30
0.0
 11
242.7848199890942
 21
566.6354507434664
 31
0.0
  0
LINE
  5
A197
330
A
100
AcDbEntity
  8
buhin
  6
Continuous
100
AcDbLine
 10
216.7848199890942
 20
567.9142030614716
 30
0.0
 11
216.7848199890942
 21
567.6133264505908
 31
0.0
  0
LWPOLYLINE
  5
A198
330
A
100
AcDbEntity
  8
buhin
  6
Continuous
100
AcDbPolyline
 90
        2
 70
     0
 43
0.0
 10
216.7848199890944
 20
565.6581055610781
 10
216.7862408047266
 20
565.6544427244482
  0
LWPOLYLINE
  5
A199
330
A
100
AcDbEntity
  8
buhin
  6
Continuous
100
AcDbPolyline
 90
       10
 70
     0
 43
0.0
 10
242.7848199890942
 20
568.5909492786029
 10
242.4783787342374
 20
568.537170755173
 10
240.5044291483908
 20
568.4434529739716
 10
234.1301718375436
 20
568.2956516502044
 10
227.1816866073783
 20
567.9395079182316
 10
220.7537967651662
 20
567.8092021792496
 10
218.0381931508067
 20
567.7219054419051
 10
216.9870502830806
 20
567.6566235258567
 10
216.8353984186002
 20
567.6349541322147
 10
216.7848199890944
 20
567.6133264505908
  0
LWPOLYLINE
  5
A19A
330
A
100
AcDbEntity
  8
buhin
  6
Continuous
100
AcDbPolyline
 90
       10
 70
     0
 43
0.0
 10
242.7848199890942
 20
566.6354507434664
 10
242.5134559348455
 20
566.5851017300629
 10
240.7013385530092
 20
566.4950624274982
 10
235.3089951940833
 20
566.3624807765033
 10
226.8366982333692
 20
565.9784734161319
 10
221.2827142850182
 20
565.8668898559806
 10
218.2452020779192
 20
565.7753567417513
 10
217.2392541823035
 20
565.7233444616074
 10
216.8576439594989
 20
565.684288977229
 10
216.7848199890944
 20
565.6581055610781
  0
LWPOLYLINE
  5
A19B
330
A
100
AcDbEntity
  8
buhin
  6
Continuous
100
AcDbPolyline
 90
        6
 70
     0
 43
0.0
 10
216.7848199890944
 20
567.9142030614717
 10
217.0993520720515
 20
567.9683452615632
 10
219.0691682575588
 20
568.0613109229303
 10
224.464613947865
 20
568.1911043861843
 10
231.7089507941749
 20
568.5534228004047
 10
234.2122767320776
 20
568.5978695631822
  0
LWPOLYLINE
  5
A19C
330
A
100
AcDbEntity
  8
buhin
  6
Continuous
100
AcDbPolyline
 90
       11
 70
     0
 43
0.0
 10
216.7848199890944
 20
565.9587032228349
 10
216.8353658310857
 20
565.9805798730692
 10
217.5894396131254
 20
566.0459452131548
 10
220.7514270011118
 20
566.1543482318908
 10
228.476458947512
 20
566.3073752894831
 10
232.6074798139927
 20
566.6137279063004
 10
238.6143285408544
 20
566.7353601524231
 10
241.2494957414223
 20
566.8160116438104
 10
242.3068641279186
 20
566.8695855176492
 10
242.7081324429706
 20
566.9096225379644
 10
242.7848199890942
 20
566.9363091053392
  0
LWPOLYLINE
  5
A19D
330
A
100
AcDbEntity
  8
buhin
  6
Continuous
100
AcDbPolyline
 90
        4
 70
     0
 43
0.0
 10
233.0657958319292
 20
569.6399909033939
 10
240.5051121826948
 20
569.7381575320751
 10
241.5960196391148
 20
569.7631821362103
 10
241.616916056913
 20
569.7657761023645
  0
LWPOLYLINE
  5
A19E
330
A
100
AcDbEntity
  8
buhin
  6
Continuous
100
AcDbPolyline
 90
        6
 70
     0
 43
0.0
 10
233.091494345864
 20
569.6404823231126
 10
226.7744026371497
 20
569.4107312213803
 10
220.4385725234013
 20
569.3214140581371
 10
218.1302189882554
 20
569.2647013549017
 10
217.4929844807057
 20
569.2302576555753
 10
217.4000435858498
 20
569.2130957669387
  0
LWPOLYLINE
  5
A19F
330
A
100
AcDbEntity
  8
buhin
  6
Continuous
100
AcDbPolyline
 90
        9
 70
     0
 43
0.0
 10
234.2150857758276
 20
568.5979203997046
 10
237.6326557365404
 20
568.7698729822184
 10
239.7438913069749
 20
568.9078380906084
 10
240.9107954542112
 20
569.0118013863691
 10
241.6916261926567
 20
569.1164881249513
 10
241.9884384887291
 20
569.1867728762259
 10
242.0683196112737
 20
569.2220651544298
 10
242.1021454513251
 20
569.2574499811751
 10
242.0897791413224
 20
569.292913017955
  0
LINE
  5
A1A0
330
A
100
AcDbEntity
  8
buhin
  6
Continuous
100
AcDbLine
 10
242.7848199890942
 20
568.5977561586317
 30
0.0
 11
234.2141589869151
 21
568.5978695631822
 31
0.0
  0
LINE
  5
A1A1
330
A
100
AcDbEntity
  8
buhin
  6
Continuous
100
AcDbLine
 10
240.9599191770697
 20
570.4227729822077
 30
0.0
 11
218.6097208011188
 21
570.4227729822077
 31
0.0
  0
LWPOLYLINE
  5
A1A2
330
A
100
AcDbEntity
  8
buhin
  6
Continuous
100
AcDbPolyline
 90
        2
 70
     0
 43
0.0
 10
242.0625216406938
 20
569.3128748258375
 10
242.0897791413224
 20
569.292913017955
  0
LINE
  5
A1A3
330
A
100
AcDbEntity
  8
buhin
  6
Continuous
100
AcDbLine
 10
241.616916056913
 20
569.7657761023645
 30
0.0
 11
240.9599191770697
 21
570.4227729822077
 31
0.0
  0
LINE
  5
A1A4
330
A
100
AcDbEntity
  8
buhin
  6
Continuous
100
AcDbLine
 10
242.7848199890942
 20
568.5978721701833
 30
0.0
 11
242.0897791413223
 21
569.292913017955
 31
0.0
  0
LINE
  5
A1A5
330
A
100
AcDbEntity
  8
buhin
  6
Continuous
100
AcDbLine
 10
218.6097208011188
 20
570.4227729822077
 30
0.0
 11
217.4000435858498
 21
569.2130957669387
 31
0.0
  0
LINE
  5
A1A6
330
A
100
AcDbEntity
  8
buhin
  6
Continuous
100
AcDbLine
 10
222.0591607668169
 20
570.4227729822077
 30
0.0
 11
221.8684722511623
 21
570.4227729822077
 31
0.0
  0
LINE
  5
A1A7
330
A
100
AcDbEntity
  8
buhin
  6
Continuous
100
AcDbLine
 10
237.7011677270261
 20
570.4227729822077
 30
0.0
 11
222.0591607668169
 21
570.4227729822077
 31
0.0
  0
LWPOLYLINE
  5
A1A8
330
A
100
AcDbEntity
  8
buhin
  6
Continuous
100
AcDbPolyline
 90
       11
 70
     0
 43
0.0
 10
216.7848199890944
 20
564.00372478443
 10
216.8353658310857
 20
564.0256014346643
 10
217.5894396131254
 20
564.0909667747499
 10
220.7514270011118
 20
564.1993697934858
 10
228.476458947512
 20
564.3523968510783
 10
232.6074798139927
 20
564.6587494678956
 10
238.6143285408544
 20
564.7803817140182
 10
241.2494957414223
 20
564.8610332054056
 10
242.3068641279186
 20
564.9146070792444
 10
242.7081324429706
 20
564.9546440995595
 10
242.7848199890942
 20
564.9813306669343
  0
LWPOLYLINE
  5
A1A9
330
A
100
AcDbEntity
  8
buhin
  6
Continuous
100
AcDbPolyline
 90
       10
 70
     0
 43
0.0
 10
242.7848199890942
 20
564.6804723050616
 10
242.5134559348455
 20
564.630123291658
 10
240.7013385530092
 20
564.5400839890933
 10
235.3089951940833
 20
564.4075023380985
 10
226.8366982333692
 20
564.023494977727
 10
221.2827142850182
 20
563.9119114175757
 10
218.2452020779192
 20
563.8203783033463
 10
217.2392541823035
 20
563.7683660232026
 10
216.8576439594989
 20
563.7293105388241
 10
216.7848199890944
 20
563.7031271226732
  0
LINE
  5
A1AA
330
A
100
AcDbEntity
  8
buhin
  6
Continuous
100
AcDbLine
 10
242.7848199890942
 20
563.0263522285295
 30
0.0
 11
241.7325469863651
 21
563.6185221140267
 31
0.0
  0
LINE
  5
A1AB
330
A
100
AcDbEntity
  8
buhin
  6
Continuous
100
AcDbLine
 10
242.7848199890942
 20
564.6804723050616
 30
0.0
 11
241.7323214807649
 21
564.0689232764413
 31
0.0
  0
LINE
  5
A1AC
330
A
100
AcDbEntity
  8
buhin
  6
Continuous
100
AcDbLine
 10
241.6181830594768
 20
563.7547835471586
 30
0.0
 11
241.6180931179368
 21
563.9326618433092
 31
0.0
  0
LINE
  5
A1AD
330
A
100
AcDbEntity
  8
buhin
  6
Continuous
100
AcDbLine
 10
241.7323214807649
 20
564.0689232764413
 30
0.0
 11
241.6180931179368
 21
563.9326618433092
 31
0.0
  0
LINE
  5
A1AE
330
A
100
AcDbEntity
  8
buhin
  6
Continuous
100
AcDbLine
 10
241.7325469863651
 20
563.6185221140267
 30
0.0
 11
241.6181830594768
 21
563.7547835471586
 31
0.0
  0
LWPOLYLINE
  5
A1AF
330
A
100
AcDbEntity
  8
buhin
  6
Continuous
100
AcDbPolyline
 90
        2
 70
     0
 43
0.0
 10
216.7848199890944
 20
563.7031271226732
 10
216.7862408047266
 20
563.6994642860433
  0
LINE
  5
A1B0
330
A
100
AcDbEntity
  8
buhin
  6
Continuous
100
AcDbLine
 10
216.7848199890942
 20
564.0037247844299
 30
0.0
 11
216.7848199890942
 21
563.7031271226732
 31
0.0
  0
LINE
  5
A1B1
330
A
100
AcDbEntity
  8
buhin
  6
Continuous
100
AcDbLine
 10
217.8296447895089
 20
563.1062594210854
 30
0.0
 11
216.7879144994714
 21
563.7007703936246
 31
0.0
  0
LINE
  5
A1B2
330
A
100
AcDbEntity
  8
buhin
  6
Continuous
100
AcDbLine
 10
217.8297673185634
 20
562.655858258671
 30
0.0
 11
216.7848199890942
 21
562.0484335058859
 31
0.0
  0
LINE
  5
A1B3
330
A
100
AcDbEntity
  8
buhin
  6
Continuous
100
AcDbLine
 10
217.9440712844253
 20
562.792119691803
 30
0.0
 11
217.8297673185634
 21
562.655858258671
 31
0.0
  0
LINE
  5
A1B4
330
A
100
AcDbEntity
  8
buhin
  6
Continuous
100
AcDbLine
 10
217.9440712844253
 20
562.792119691803
 30
0.0
 11
217.9440217514034
 21
562.9699979879535
 31
0.0
  0
LINE
  5
A1B5
330
A
100
AcDbEntity
  8
buhin
  6
Continuous
100
AcDbLine
 10
217.9440217514034
 20
562.9699979879535
 30
0.0
 11
217.8296447895089
 21
563.1062594210854
 31
0.0
  0
LWPOLYLINE
  5
A1B6
330
A
100
AcDbEntity
  8
buhin
  6
Continuous
100
AcDbPolyline
 90
       11
 70
     0
 43
0.0
 10
216.7848199890944
 20
562.0487463460251
 10
216.8353658310857
 20
562.0706229962595
 10
217.5894396131254
 20
562.1359883363451
 10
220.7514270011118
 20
562.2443913550809
 10
228.476458947512
 20
562.3974184126733
 10
232.6074798139927
 20
562.7037710294907
 10
238.6143285408544
 20
562.8254032756134
 10
241.2494957414223
 20
562.9060547670007
 10
242.3068641279186
 20
562.9596286408395
 10
242.7081324429706
 20
562.9996656611547
 10
242.7848199890942
 20
563.0263522285295
  0
LWPOLYLINE
  5
A1B7
330
A
100
AcDbEntity
  8
buhin
  6
Continuous
100
AcDbPolyline
 90
       10
 70
     0
 43
0.0
 10
242.7848199890942
 20
562.7254938666567
 10
242.5134559348455
 20
562.6751448532531
 10
240.7013385530092
 20
562.5851055506884
 10
235.3089951940833
 20
562.4525238996937
 10
226.8366982333692
 20
562.0685165393222
 10
221.2827142850182
 20
561.9569329791708
 10
218.2452020779192
 20
561.8653998649415
 10
217.2392541823035
 20
561.8133875847977
 10
216.8576439594989
 20
561.7743321004192
 10
216.7848199890944
 20
561.7481486842684
  0
LINE
  5
A1B8
330
A
100
AcDbEntity
  8
buhin
  6
Continuous
100
AcDbLine
 10
242.7848199890942
 20
561.0713737901245
 30
0.0
 11
241.7325469863651
 21
561.6635436756219
 31
0.0
  0
LINE
  5
A1B9
330
A
100
AcDbEntity
  8
buhin
  6
Continuous
100
AcDbLine
 10
242.7848199890942
 20
562.7254938666567
 30
0.0
 11
241.7323214807649
 21
562.1139448380364
 31
0.0
  0
LINE
  5
A1BA
330
A
100
AcDbEntity
  8
buhin
  6
Continuous
100
AcDbLine
 10
241.6181830594768
 20
561.7998051087538
 30
0.0
 11
241.6180931179368
 21
561.9776834049043
 31
0.0
  0
LINE
  5
A1BB
330
A
100
AcDbEntity
  8
buhin
  6
Continuous
100
AcDbLine
 10
241.7323214807649
 20
562.1139448380364
 30
0.0
 11
241.6180931179368
 21
561.9776834049043
 31
0.0
  0
LINE
  5
A1BC
330
A
100
AcDbEntity
  8
buhin
  6
Continuous
100
AcDbLine
 10
241.7325469863651
 20
561.6635436756219
 30
0.0
 11
241.6181830594768
 21
561.7998051087538
 31
0.0
  0
LWPOLYLINE
  5
A1BD
330
A
100
AcDbEntity
  8
buhin
  6
Continuous
100
AcDbPolyline
 90
        2
 70
     0
 43
0.0
 10
216.7848199890944
 20
561.7481486842684
 10
216.7862408047266
 20
561.7444858476385
  0
LINE
  5
A1BE
330
A
100
AcDbEntity
  8
buhin
  6
Continuous
100
AcDbLine
 10
216.7848199890942
 20
562.048746346025
 30
0.0
 11
216.7848199890942
 21
561.7481486842684
 31
0.0
  0
LINE
  5
A1BF
330
A
100
AcDbEntity
  8
buhin
  6
Continuous
100
AcDbLine
 10
217.8296447895089
 20
561.1512809826806
 30
0.0
 11
216.7879144994714
 21
561.7457919552198
 31
0.0
  0
LINE
  5
A1C0
330
A
100
AcDbEntity
  8
buhin
  6
Continuous
100
AcDbLine
 10
217.8297673185634
 20
560.7008798202662
 30
0.0
 11
216.7848199890942
 21
560.093455067481
 31
0.0
  0
LINE
  5
A1C1
330
A
100
AcDbEntity
  8
buhin
  6
Continuous
100
AcDbLine
 10
217.9440712844253
 20
560.8371412533982
 30
0.0
 11
217.8297673185634
 21
560.7008798202662
 31
0.0
  0
LINE
  5
A1C2
330
A
100
AcDbEntity
  8
buhin
  6
Continuous
100
AcDbLine
 10
217.9440712844253
 20
560.8371412533982
 30
0.0
 11
217.9440217514034
 21
561.0150195495487
 31
0.0
  0
LINE
  5
A1C3
330
A
100
AcDbEntity
  8
buhin
  6
Continuous
100
AcDbLine
 10
217.9440217514034
 20
561.0150195495487
 30
0.0
 11
217.8296447895089
 21
561.1512809826806
 31
0.0
  0
LWPOLYLINE
  5
A1C4
330
A
100
AcDbEntity
  8
buhin
  6
Continuous
100
AcDbPolyline
 90
       11
 70
     0
 43
0.0
 10
216.7848199890944
 20
560.0937679076203
 10
216.8353658310857
 20
560.1156445578546
 10
217.5894396131254
 20
560.1810098979402
 10
220.7514270011118
 20
560.2894129166761
 10
228.476458947512
 20
560.4424399742685
 10
232.6074798139927
 20
560.7487925910858
 10
238.6143285408544
 20
560.8704248372085
 10
241.2494957414223
 20
560.9510763285959
 10
242.3068641279186
 20
561.0046502024347
 10
242.7081324429706
 20
561.0446872227498
 10
242.7848199890942
 20
561.0713737901246
  0
LWPOLYLINE
  5
A1C5
330
A
100
AcDbEntity
  8
buhin
  6
Continuous
100
AcDbPolyline
 90
       10
 70
     0
 43
0.0
 10
242.7848199890942
 20
560.7705154282519
 10
242.5134559348455
 20
560.7201664148482
 10
240.7013385530092
 20
560.6301271122836
 10
235.3089951940833
 20
560.4975454612888
 10
226.8366982333692
 20
560.1135381009173
 10
221.2827142850182
 20
560.001954540766
 10
218.2452020779192
 20
559.9104214265366
 10
217.2392541823035
 20
559.8584091463928
 10
216.8576439594989
 20
559.8193536620143
 10
216.7848199890944
 20
559.7931702458635
  0
LINE
  5
A1C6
330
A
100
AcDbEntity
  8
buhin
  6
Continuous
100
AcDbLine
 10
242.7848199890942
 20
559.1163953517196
 30
0.0
 11
241.7325469863651
 21
559.708565237217
 31
0.0
  0
LINE
  5
A1C7
330
A
100
AcDbEntity
  8
buhin
  6
Continuous
100
AcDbLine
 10
242.7848199890942
 20
560.7705154282519
 30
0.0
 11
241.7323214807649
 21
560.1589663996316
 31
0.0
  0
LINE
  5
A1C8
330
A
100
AcDbEntity
  8
buhin
  6
Continuous
100
AcDbLine
 10
241.6181830594768
 20
559.8448266703489
 30
0.0
 11
241.6180931179368
 21
560.0227049664995
 31
0.0
  0
LINE
  5
A1C9
330
A
100
AcDbEntity
  8
buhin
  6
Continuous
100
AcDbLine
 10
241.7323214807649
 20
560.1589663996316
 30
0.0
 11
241.6180931179368
 21
560.0227049664995
 31
0.0
  0
LINE
  5
A1CA
330
A
100
AcDbEntity
  8
buhin
  6
Continuous
100
AcDbLine
 10
241.7325469863651
 20
559.708565237217
 30
0.0
 11
241.6181830594768
 21
559.8448266703489
 31
0.0
  0
LWPOLYLINE
  5
A1CB
330
A
100
AcDbEntity
  8
buhin
  6
Continuous
100
AcDbPolyline
 90
        2
 70
     0
 43
0.0
 10
216.7848199890944
 20
559.7931702458635
 10
216.7862408047266
 20
559.7895074092336
  0
LINE
  5
A1CC
330
A
100
AcDbEntity
  8
buhin
  6
Continuous
100
AcDbLine
 10
216.7848199890942
 20
560.0937679076202
 30
0.0
 11
216.7848199890942
 21
559.7931702458635
 31
0.0
  0
LINE
  5
A1CD
330
A
100
AcDbEntity
  8
buhin
  6
Continuous
100
AcDbLine
 10
217.8296447895089
 20
559.1963025442757
 30
0.0
 11
216.7879144994714
 21
559.7908135168149
 31
0.0
  0
LINE
  5
A1CE
330
A
100
AcDbEntity
  8
buhin
  6
Continuous
100
AcDbLine
 10
217.8297673185634
 20
558.7459013818613
 30
0.0
 11
216.7848199890942
 21
558.138476629076
 31
0.0
  0
LINE
  5
A1CF
330
A
100
AcDbEntity
  8
buhin
  6
Continuous
100
AcDbLine
 10
217.9440712844253
 20
558.8821628149933
 30
0.0
 11
217.8297673185634
 21
558.7459013818613
 31
0.0
  0
LINE
  5
A1D0
330
A
100
AcDbEntity
  8
buhin
  6
Continuous
100
AcDbLine
 10
217.9440712844253
 20
558.8821628149933
 30
0.0
 11
217.9440217514034
 21
559.0600411111438
 31
0.0
  0
LINE
  5
A1D1
330
A
100
AcDbEntity
  8
buhin
  6
Continuous
100
AcDbLine
 10
217.9440217514034
 20
559.0600411111438
 30
0.0
 11
217.8296447895089
 21
559.1963025442757
 31
0.0
  0
LWPOLYLINE
  5
A1D2
330
A
100
AcDbEntity
  8
buhin
  6
Continuous
100
AcDbPolyline
 90
       11
 70
     0
 43
0.0
 10
216.7848199890944
 20
558.1387894692154
 10
216.8353658310857
 20
558.1606661194498
 10
217.5894396131254
 20
558.2260314595353
 10
220.7514270011118
 20
558.3344344782712
 10
228.476458947512
 20
558.4874615358636
 10
232.6074798139927
 20
558.7938141526811
 10
238.6143285408544
 20
558.9154463988036
 10
241.2494957414223
 20
558.9960978901911
 10
242.3068641279186
 20
559.0496717640299
 10
242.7081324429706
 20
559.089708784345
 10
242.7848199890942
 20
559.1163953517196
  0
LWPOLYLINE
  5
A1D3
330
A
100
AcDbEntity
  8
buhin
  6
Continuous
100
AcDbPolyline
 90
       10
 70
     0
 43
0.0
 10
242.7848199890942
 20
558.815536989847
 10
242.5134559348455
 20
558.7651879764433
 10
240.7013385530092
 20
558.6751486738787
 10
235.3089951940833
 20
558.542567022884
 10
226.8366982333692
 20
558.1585596625123
 10
221.2827142850182
 20
558.0469761023612
 10
218.2452020779192
 20
557.9554429881318
 10
217.2392541823035
 20
557.903430707988
 10
216.8576439594989
 20
557.8643752236095
 10
216.7848199890944
 20
557.8381918074586
  0
LINE
  5
A1D4
330
A
100
AcDbEntity
  8
buhin
  6
Continuous
100
AcDbLine
 10
242.7848199890942
 20
557.1614169133148
 30
0.0
 11
241.7325469863651
 21
557.7535867988122
 31
0.0
  0
LINE
  5
A1D5
330
A
100
AcDbEntity
  8
buhin
  6
Continuous
100
AcDbLine
 10
242.7848199890942
 20
558.815536989847
 30
0.0
 11
241.7323214807649
 21
558.2039879612266
 31
0.0
  0
LINE
  5
A1D6
330
A
100
AcDbEntity
  8
buhin
  6
Continuous
100
AcDbLine
 10
241.6181830594768
 20
557.8898482319441
 30
0.0
 11
241.6180931179368
 21
558.0677265280946
 31
0.0
  0
LINE
  5
A1D7
330
A
100
AcDbEntity
  8
buhin
  6
Continuous
100
AcDbLine
 10
241.7323214807649
 20
558.2039879612266
 30
0.0
 11
241.6180931179368
 21
558.0677265280946
 31
0.0
  0
LINE
  5
A1D8
330
A
100
AcDbEntity
  8
buhin
  6
Continuous
100
AcDbLine
 10
241.7325469863651
 20
557.7535867988122
 30
0.0
 11
241.6181830594768
 21
557.8898482319441
 31
0.0
  0
LWPOLYLINE
  5
A1D9
330
A
100
AcDbEntity
  8
buhin
  6
Continuous
100
AcDbPolyline
 90
        2
 70
     0
 43
0.0
 10
216.7848199890944
 20
557.8381918074586
 10
216.7862408047266
 20
557.8345289708288
  0
LINE
  5
A1DA
330
A
100
AcDbEntity
  8
buhin
  6
Continuous
100
AcDbLine
 10
216.7848199890942
 20
558.1387894692153
 30
0.0
 11
216.7848199890942
 21
557.8381918074586
 31
0.0
  0
LINE
  5
A1DB
330
A
100
AcDbEntity
  8
buhin
  6
Continuous
100
AcDbLine
 10
217.8296447895089
 20
557.2413241058709
 30
0.0
 11
216.7879144994714
 21
557.83583507841
 31
0.0
  0
LINE
  5
A1DC
330
A
100
AcDbEntity
  8
buhin
  6
Continuous
100
AcDbLine
 10
217.8297673185634
 20
556.7909229434564
 30
0.0
 11
217.196442257167
 21
556.4227729822075
 31
0.0
  0
LINE
  5
A1DD
330
A
100
AcDbEntity
  8
buhin
  6
Continuous
100
AcDbLine
 10
217.9440712844253
 20
556.9271843765884
 30
0.0
 11
217.8297673185634
 21
556.7909229434564
 31
0.0
  0
LINE
  5
A1DE
330
A
100
AcDbEntity
  8
buhin
  6
Continuous
100
AcDbLine
 10
217.9440712844253
 20
556.9271843765884
 30
0.0
 11
217.9440217514034
 21
557.105062672739
 31
0.0
  0
LINE
  5
A1DF
330
A
100
AcDbEntity
  8
buhin
  6
Continuous
100
AcDbLine
 10
217.9440217514034
 20
557.105062672739
 30
0.0
 11
217.8296447895089
 21
557.2413241058709
 31
0.0
  0
LWPOLYLINE
  5
A1E0
330
A
100
AcDbEntity
  8
buhin
  6
Continuous
100
AcDbPolyline
 90
        8
 70
     0
 43
0.0
 10
222.9381302460784
 20
556.4227729822074
 10
228.476458947512
 20
556.5324830974588
 10
232.6074798139927
 20
556.8388357142762
 10
238.6143285408544
 20
556.9604679603988
 10
241.2494957414223
 20
557.0411194517862
 10
242.3068641279186
 20
557.094693325625
 10
242.7081324429706
 20
557.1347303459401
 10
242.7848199890942
 20
557.1614169133148
  0
LWPOLYLINE
  5
A1E1
330
A
100
AcDbEntity
  8
buhin
  6
Continuous
100
AcDbPolyline
 90
        5
 70
     0
 43
0.0
 10
242.7848199890942
 20
556.8605585514421
 10
242.5134559348455
 20
556.8102095380385
 10
240.7013385530092
 20
556.7201702354739
 10
235.3089951940833
 20
556.5875885844791
 10
231.6726932105652
 20
556.4227729822074
  0
LINE
  5
A1E2
330
A
100
AcDbEntity
  8
buhin
  6
Continuous
100
AcDbLine
 10
242.7848199890942
 20
556.8605585514421
 30
0.0
 11
242.0313748243997
 21
556.4227729822074
 31
0.0
  0
LINE
  5
A1E3
330
A
100
AcDbEntity
  8
buhin
  6
Continuous
100
AcDbLine
 10
242.7848199890942
 20
563.0263522285295
 30
0.0
 11
242.7848199890942
 21
562.7253635165986
 31
0.0
  0
LINE
  5
A1E4
330
A
100
AcDbEntity
  8
buhin
  6
Continuous
100
AcDbLine
 10
242.7848199890942
 20
561.0713737901245
 30
0.0
 11
242.7848199890942
 21
560.7703850781938
 31
0.0
  0
LINE
  5
A1E5
330
A
100
AcDbEntity
  8
buhin
  6
Continuous
100
AcDbLine
 10
242.7848199890942
 20
559.1163953517196
 30
0.0
 11
242.7848199890942
 21
558.815406639789
 31
0.0
  0
LINE
  5
A1E6
330
A
100
AcDbEntity
  8
buhin
  6
Continuous
100
AcDbLine
 10
242.7848199890942
 20
557.1614169133148
 30
0.0
 11
242.7848199890942
 21
556.8604282013841
 31
0.0
  0
VIEWPORT
  5
E1E
102
{ACAD_XDICTIONARY
360
A1F8
102
}
330
B
100
AcDbEntity
 67
     1
  8
0
 62
     0
 48
0.0
100
AcDbViewport
 10
0.0
 20
0.0
 30
0.0
 40
1000.0
 41
1000.0
 68
     1
 69
     1
 12
0.0
 22
0.0
 13
0.0
 23
0.0
 14
1.0
 24
1.0
 15
1.0
 25
1.0
 16
0.0
 26
0.0
 36
1.0
 17
0.0
 27
0.0
 37
0.0
 42
50.0
 43
0.0
 44
0.0
 45
1000.0
 50
0.0
 51
0.0
 72
   100
 90
    32800
  1

281
     0
 71
     1
 74
     0
110
0.0
120
0.0
130
0.0
111
1.0
121
0.0
131
0.0
112
0.0
122
1.0
132
0.0
 79
     0
146
0.0
  0
ENDSEC
  0
SECTION
  2
OBJECTS
  0
DICTIONARY
  5
19
330
0
100
AcDbDictionary
281
     1
  3
ACAD_COLOR
350
1FA1
  3
ACAD_GROUP
350
1A
  3
ACAD_LAYOUT
350
1FA2
  3
ACAD_MATERIAL
350
1FA0
  3
ACAD_MLINESTYLE
350
1B
  3
ACAD_PLOTSETTINGS
350
1FA3
  3
ACAD_PLOTSTYLENAME
350
1F9E
  3
ACDBHEADERROUNDTRIPXREC
350
A1F5
  3
AcDbVariableDictionary
350
A1F1
  0
DICTIONARY
  5
A1F8
330
E1E
100
AcDbDictionary
280
     1
281
     1
  3
ACAD_XREC_ROUNDTRIP
360
A1F9
  0
DICTIONARY
  5
1FA1
102
{ACAD_REACTORS
330
19
102
}
330
19
100
AcDbDictionary
281
     1
  0
DICTIONARY
  5
1A
102
{ACAD_REACTORS
330
19
102
}
330
19
100
AcDbDictionary
281
     1
  0
DICTIONARY
  5
1FA2
102
{ACAD_REACTORS
330
19
102
}
330
19
100
AcDbDictionary
281
     1
  3
Model
350
1FA4
  3
レイアウト1
350
1FA5
  0
DICTIONARY
  5
1FA0
102
{ACAD_REACTORS
330
19
102
}
330
19
100
AcDbDictionary
281
     1
  0
DICTIONARY
  5
1B
102
{ACAD_REACTORS
330
19
102
}
330
19
100
AcDbDictionary
281
     1
  3
STANDARD
350
1C
  0
DICTIONARY
  5
1FA3
102
{ACAD_REACTORS
330
19
102
}
330
19
100
AcDbDictionary
281
     1
  0
ACDBDICTIONARYWDFLT
  5
1F9E
102
{ACAD_REACTORS
330
19
102
}
330
19
100
AcDbDictionary
281
     1
  3
Normal
350
1F9F
100
AcDbDictionaryWithDefault
340
1F9F
  0
DICTIONARY
  5
A1F5
102
{ACAD_REACTORS
330
19
102
}
330
19
100
AcDbDictionary
281
     1
  3
COLORDICT
350
A1F7
  3
MATERIALDICT
350
A1F6
  0
DICTIONARY
  5
A1F1
102
{ACAD_REACTORS
330
19
102
}
330
19
100
AcDbDictionary
281
     1
  3
DIMASSOC
350
A1F2
  3
PROJECTNAME
350
A1F3
  0
XRECORD
  5
A1F9
102
{ACAD_REACTORS
330
A1F8
102
}
330
A1F8
100
AcDbXrecord
280
     1
102
SHADEPLOT
 70
     0
  0
LAYOUT
  5
1FA4
102
{ACAD_XDICTIONARY
360
A1FA
102
}
102
{ACAD_REACTORS
330
1FA2
102
}
330
1FA2
100
AcDbPlotSettings
  1

  2
\\jptkysdoco01\Kyocera Mita KM-2531 PCL5e
  4
A3
  6

 40
7.143749713897705
 41
5.746753215789794
 42
7.18609619140625
 43
7.14373779296875
 44
296.9683227539062
 45
419.9889831542968
 46
0.0
 47
97.31000000000001
 48
0.0
 49
0.0
140
790.224837095749
141
1051.158713786217
142
1.0
143
3.719092762976071
 70
 11956
 72
     1
 73
     1
 74
     4
  7

 75
     0
147
0.2688827796808664
148
0.0
149
0.0
100
AcDbLayout
  1
Model
 70
     1
 71
     0
 10
0.0
 20
0.0
 11
12.0
 21
9.0
 12
0.0
 22
0.0
 32
0.0
 14
0.0
 24
0.0
 34
0.0
 15
0.0
 25
0.0
 35
0.0
146
0.0
 13
0.0
 23
0.0
 33
0.0
 16
1.0
 26
0.0
 36
0.0
 17
0.0
 27
1.0
 37
0.0
 76
     0
330
A
  0
LAYOUT
  5
1FA5
102
{ACAD_XDICTIONARY
360
A1FC
102
}
102
{ACAD_REACTORS
330
1FA2
102
}
330
1FA2
100
AcDbPlotSettings
  1

  2
\\jptkysdoco01\Kyocera Mita KM-2531 PCL5e
  4

  6

 40
0.0
 41
0.0
 42
0.0
 43
0.0
 44
0.0
 45
0.0
 46
0.0
 47
0.0
 48
0.0
 49
0.0
140
0.0
141
0.0
142
1.0
143
1.0
 70
   688
 72
     0
 73
     0
 74
     5
  7

 75
    16
147
1.0
148
0.0
149
0.0
100
AcDbLayout
  1
レイアウト1
 70
     1
 71
     1
 10
0.0
 20
0.0
 11
420.0
 21
297.0
 12
0.0
 22
0.0
 32
0.0
 14
1.000000000000000E+20
 24
1.000000000000000E+20
 34
1.000000000000000E+20
 15
-1.000000000000000E+20
 25
-1.000000000000000E+20
 35
-1.000000000000000E+20
146
0.0
 13
0.0
 23
0.0
 33
0.0
 16
1.0
 26
0.0
 36
0.0
 17
0.0
 27
1.0
 37
0.0
 76
     0
330
B
331
E1E
  0
MLINESTYLE
  5
1C
102
{ACAD_REACTORS
330
1B
102
}
330
1B
100
AcDbMlineStyle
  2
STANDARD
 70
     0
  3

 62
     0
 51
90.0
 52
90.0
 71
     2
 49
0.5
 62
   256
  6
BYLAYER
 49
-0.5
 62
   256
  6
BYLAYER
  0
ACDBPLACEHOLDER
  5
1F9F
102
{ACAD_REACTORS
330
1F9E
102
}
330
1F9E
  0
XRECORD
  5
A1F7
102
{ACAD_REACTORS
330
A1F5
102
}
330
A1F5
100
AcDbXrecord
280
     1
340
1FA1
  0
XRECORD
  5
A1F6
102
{ACAD_REACTORS
330
A1F5
102
}
330
A1F5
100
AcDbXrecord
280
     1
340
1FA0
  0
DICTIONARYVAR
  5
A1F2
102
{ACAD_REACTORS
330
A1F1
102
}
330
A1F1
100
DictionaryVariables
280
     0
  1
1
  0
DICTIONARYVAR
  5
A1F3
102
{ACAD_REACTORS
330
A1F1
102
}
330
A1F1
100
DictionaryVariables
280
     0
  1

  0
DICTIONARY
  5
A1FA
330
1FA4
100
AcDbDictionary
280
     1
281
     1
  3
ACAD_XREC_ROUNDTRIP
360
A1FB
  0
DICTIONARY
  5
A1FC
330
1FA5
100
AcDbDictionary
280
     1
281
     1
  3
ACAD_XREC_ROUNDTRIP
360
A1FD
  0
XRECORD
  5
A1FB
102
{ACAD_REACTORS
330
A1FA
102
}
330
A1FA
100
AcDbXrecord
280
     1
102
SHADEPLOT
 70
     0
102
SHADEPLOTRESLEVEL
 70
     2
102
SHADEPLOTCUSTOMDPI
 70
   300
  0
XRECORD
  5
A1FD
102
{ACAD_REACTORS
330
A1FC
102
}
330
A1FC
100
AcDbXrecord
280
     1
102
SHADEPLOT
 70
     0
102
SHADEPLOTRESLEVEL
 70
     2
102
SHADEPLOTCUSTOMDPI
 70
   300
  0
ENDSEC
  0
EOF
