  0
SECTION
  2
HEADER
  9
$ACADVER
  1
AC1015
  9
$ACADMAINTVER
 70
    20
  9
$DWGCODEPAGE
  3
ANSI_932
  9
$INSBASE
 10
0.0
 20
0.0
 30
0.0
  9
$EXTMIN
 10
-10.23891903131656
 20
-106.0622099316555
 30
0.0
  9
$EXTMAX
 10
775.5196560275816
 20
108.6004234735657
 30
0.0
  9
$LIMMIN
 10
0.0
 20
0.0
  9
$LIMMAX
 10
12.0
 20
9.0
  9
$ORTHOMODE
 70
     0
  9
$REGENMODE
 70
     1
  9
$FILLMODE
 70
     1
  9
$QTEXTMODE
 70
     0
  9
$MIRRTEXT
 70
     0
  9
$LTSCALE
 40
1.0
  9
$ATTMODE
 70
     1
  9
$TEXTSIZE
 40
0.2
  9
$TRACEWID
 40
0.05
  9
$TEXTSTYLE
  7
Standard
  9
$CLAYER
  8
0
  9
$CELTYPE
  6
Continuous
  9
$CECOLOR
 62
   256
  9
$CELTSCALE
 40
1.0
  9
$DISPSILH
 70
     0
  9
$DIMSCALE
 40
1.0
  9
$DIMASZ
 40
0.18
  9
$DIMEXO
 40
0.0625
  9
$DIMDLI
 40
0.38
  9
$DIMRND
 40
0.0
  9
$DIMDLE
 40
0.0
  9
$DIMEXE
 40
0.18
  9
$DIMTP
 40
0.0
  9
$DIMTM
 40
0.0
  9
$DIMTXT
 40
0.18
  9
$DIMCEN
 40
0.09
  9
$DIMTSZ
 40
0.0
  9
$DIMTOL
 70
     0
  9
$DIMLIM
 70
     0
  9
$DIMTIH
 70
     1
  9
$DIMTOH
 70
     1
  9
$DIMSE1
 70
     0
  9
$DIMSE2
 70
     0
  9
$DIMTAD
 70
     0
  9
$DIMZIN
 70
     0
  9
$DIMBLK
  1

  9
$DIMASO
 70
     1
  9
$DIMSHO
 70
     1
  9
$DIMPOST
  1

  9
$DIMAPOST
  1

  9
$DIMALT
 70
     0
  9
$DIMALTD
 70
     2
  9
$DIMALTF
 40
25.4
  9
$DIMLFAC
 40
1.0
  9
$DIMTOFL
 70
     0
  9
$DIMTVP
 40
0.0
  9
$DIMTIX
 70
     0
  9
$DIMSOXD
 70
     0
  9
$DIMSAH
 70
     0
  9
$DIMBLK1
  1

  9
$DIMBLK2
  1

  9
$DIMSTYLE
  2
Standard
  9
$DIMCLRD
 70
     0
  9
$DIMCLRE
 70
     0
  9
$DIMCLRT
 70
     0
  9
$DIMTFAC
 40
1.0
  9
$DIMGAP
 40
0.09
  9
$DIMJUST
 70
     0
  9
$DIMSD1
 70
     0
  9
$DIMSD2
 70
     0
  9
$DIMTOLJ
 70
     1
  9
$DIMTZIN
 70
     0
  9
$DIMALTZ
 70
     0
  9
$DIMALTTZ
 70
     0
  9
$DIMUPT
 70
     0
  9
$DIMDEC
 70
     4
  9
$DIMTDEC
 70
     4
  9
$DIMALTU
 70
     2
  9
$DIMALTTD
 70
     2
  9
$DIMTXSTY
  7
Standard
  9
$DIMAUNIT
 70
     0
  9
$DIMADEC
 70
     0
  9
$DIMALTRND
 40
0.0
  9
$DIMAZIN
 70
     0
  9
$DIMDSEP
 70
    46
  9
$DIMATFIT
 70
     3
  9
$DIMFRAC
 70
     0
  9
$DIMLDRBLK
  1

  9
$DIMLUNIT
 70
     2
  9
$DIMLWD
 70
    -2
  9
$DIMLWE
 70
    -2
  9
$DIMTMOVE
 70
     0
  9
$LUNITS
 70
     2
  9
$LUPREC
 70
     4
  9
$SKETCHINC
 40
0.1
  9
$FILLETRAD
 40
0.0
  9
$AUNITS
 70
     0
  9
$AUPREC
 70
     0
  9
$MENU
  1
.
  9
$ELEVATION
 40
0.0
  9
$PELEVATION
 40
0.0
  9
$THICKNESS
 40
0.0
  9
$LIMCHECK
 70
     0
  9
$CHAMFERA
 40
0.0
  9
$CHAMFERB
 40
0.0
  9
$CHAMFERC
 40
0.0
  9
$CHAMFERD
 40
0.0
  9
$SKPOLY
 70
     0
  9
$TDCREATE
 40
2457211.389930648
  9
$TDUCREATE
 40
2457211.014930649
  9
$TDUPDATE
 40
2457225.406716690
  9
$TDUUPDATE
 40
2457225.031716690
  9
$TDINDWG
 40
0.0024966319
  9
$TDUSRTIMER
 40
0.0024966319
  9
$USRTIMER
 70
     1
  9
$ANGBASE
 50
0.0
  9
$ANGDIR
 70
     0
  9
$PDMODE
 70
     0
  9
$PDSIZE
 40
0.0
  9
$PLINEWID
 40
0.0
  9
$SPLFRAME
 70
     0
  9
$SPLINETYPE
 70
     6
  9
$SPLINESEGS
 70
     8
  9
$HANDSEED
  5
5F7
  9
$SURFTAB1
 70
     6
  9
$SURFTAB2
 70
     6
  9
$SURFTYPE
 70
     6
  9
$SURFU
 70
     6
  9
$SURFV
 70
     6
  9
$UCSBASE
  2

  9
$UCSNAME
  2

  9
$UCSORG
 10
0.0
 20
0.0
 30
0.0
  9
$UCSXDIR
 10
1.0
 20
0.0
 30
0.0
  9
$UCSYDIR
 10
0.0
 20
1.0
 30
0.0
  9
$UCSORTHOREF
  2

  9
$UCSORTHOVIEW
 70
     0
  9
$UCSORGTOP
 10
0.0
 20
0.0
 30
0.0
  9
$UCSORGBOTTOM
 10
0.0
 20
0.0
 30
0.0
  9
$UCSORGLEFT
 10
0.0
 20
0.0
 30
0.0
  9
$UCSORGRIGHT
 10
0.0
 20
0.0
 30
0.0
  9
$UCSORGFRONT
 10
0.0
 20
0.0
 30
0.0
  9
$UCSORGBACK
 10
0.0
 20
0.0
 30
0.0
  9
$PUCSBASE
  2

  9
$PUCSNAME
  2

  9
$PUCSORG
 10
0.0
 20
0.0
 30
0.0
  9
$PUCSXDIR
 10
1.0
 20
0.0
 30
0.0
  9
$PUCSYDIR
 10
0.0
 20
1.0
 30
0.0
  9
$PUCSORTHOREF
  2

  9
$PUCSORTHOVIEW
 70
     0
  9
$PUCSORGTOP
 10
0.0
 20
0.0
 30
0.0
  9
$PUCSORGBOTTOM
 10
0.0
 20
0.0
 30
0.0
  9
$PUCSORGLEFT
 10
0.0
 20
0.0
 30
0.0
  9
$PUCSORGRIGHT
 10
0.0
 20
0.0
 30
0.0
  9
$PUCSORGFRONT
 10
0.0
 20
0.0
 30
0.0
  9
$PUCSORGBACK
 10
0.0
 20
0.0
 30
0.0
  9
$USERI1
 70
     0
  9
$USERI2
 70
     0
  9
$USERI3
 70
     0
  9
$USERI4
 70
     0
  9
$USERI5
 70
     0
  9
$USERR1
 40
0.0
  9
$USERR2
 40
0.0
  9
$USERR3
 40
0.0
  9
$USERR4
 40
0.0
  9
$USERR5
 40
0.0
  9
$WORLDVIEW
 70
     1
  9
$SHADEDGE
 70
     3
  9
$SHADEDIF
 70
    70
  9
$TILEMODE
 70
     1
  9
$MAXACTVP
 70
    64
  9
$PINSBASE
 10
0.0
 20
0.0
 30
0.0
  9
$PLIMCHECK
 70
     0
  9
$PEXTMIN
 10
1.000000000000000E+20
 20
1.000000000000000E+20
 30
1.000000000000000E+20
  9
$PEXTMAX
 10
-1.000000000000000E+20
 20
-1.000000000000000E+20
 30
-1.000000000000000E+20
  9
$PLIMMIN
 10
0.0
 20
0.0
  9
$PLIMMAX
 10
12.0
 20
9.0
  9
$UNITMODE
 70
     0
  9
$VISRETAIN
 70
     1
  9
$PLINEGEN
 70
     0
  9
$PSLTSCALE
 70
     1
  9
$TREEDEPTH
 70
  3020
  9
$CMLSTYLE
  2
Standard
  9
$CMLJUST
 70
     0
  9
$CMLSCALE
 40
1.0
  9
$PROXYGRAPHICS
 70
     1
  9
$MEASUREMENT
 70
     0
  9
$CELWEIGHT
370
    -1
  9
$ENDCAPS
280
     0
  9
$JOINSTYLE
280
     0
  9
$LWDISPLAY
290
     0
  9
$INSUNITS
 70
     0
  9
$HYPERLINKBASE
  1

  9
$STYLESHEET
  1

  9
$XEDIT
290
     1
  9
$CEPSNTYPE
380
     0
  9
$PSTYLEMODE
290
     1
  9
$FINGERPRINTGUID
  2
{7DCB5838-7226-4D7C-87D4-43AD8D4D7524}
  9
$VERSIONGUID
  2
{39F4938D-CC1C-4C74-8920-50A520FAD0B4}
  9
$EXTNAMES
290
     1
  9
$PSVPSCALE
 40
0.0
  9
$OLESTARTUP
290
     0
  0
ENDSEC
  0
SECTION
  2
CLASSES
  0
CLASS
  1
ACDBDICTIONARYWDFLT
  2
AcDbDictionaryWithDefault
  3
ObjectDBX Classes
 90
        0
280
     0
281
     0
  0
CLASS
  1
MATERIAL
  2
AcDbMaterial
  3
ObjectDBX Classes
 90
     1153
280
     0
281
     0
  0
CLASS
  1
VISUALSTYLE
  2
AcDbVisualStyle
  3
ObjectDBX Classes
 90
     4095
280
     0
281
     0
  0
CLASS
  1
SCALE
  2
AcDbScale
  3
ObjectDBX Classes
 90
     1153
280
     0
281
     0
  0
CLASS
  1
TABLESTYLE
  2
AcDbTableStyle
  3
ObjectDBX Classes
 90
     4095
280
     0
281
     0
  0
CLASS
  1
MLEADERSTYLE
  2
AcDbMLeaderStyle
  3
ACDB_MLEADERSTYLE_CLASS
 90
     4095
280
     0
281
     0
  0
CLASS
  1
ACDBSECTIONVIEWSTYLE
  2
AcDbSectionViewStyle
  3
ObjectDBX Classes
 90
     1025
280
     0
281
     0
  0
CLASS
  1
ACDBDETAILVIEWSTYLE
  2
AcDbDetailViewStyle
  3
ObjectDBX Classes
 90
     1025
280
     0
281
     0
  0
CLASS
  1
AMGSETTINGSOBJ
  2
AmgSettingsObj
  3
"AcadM|Product Description: AutoCAD Mechanical|Company: Autodesk, Inc."
 90
     1024
280
     0
281
     0
  0
CLASS
  1
ACME_DOCUMENT
  2
AcMeDbDoc
  3
AcMeServices
 90
     1024
280
     0
281
     0
  0
CLASS
  1
ACMESCOPE
  2
AcMeScope
  3
AcMeServices
 90
     1024
280
     0
281
     0
  0
CLASS
  1
ACMECOMMANDHISTORY
  2
AcMeCommandHistory
  3
AcMeServices
 90
     1024
280
     0
281
     0
  0
CLASS
  1
ACIMSYSVARMAN
  2
AcImSysVarManager
  3
AcMeServices
 90
     1024
280
     0
281
     0
  0
CLASS
  1
ACIMINTSYSVAR
  2
AcImIntSysVar
  3
AcMeServices
 90
     1024
280
     0
281
     0
  0
CLASS
  1
ACMESTATEMGR
  2
AcMeStateMgr
  3
AcMeServices
 90
     1024
280
     0
281
     0
  0
CLASS
  1
ACDBENTITYCACHE
  2
AcMeEntityCache
  3
AcMeServices
 90
     1024
280
     0
281
     0
  0
CLASS
  1
ACGREFMASTER
  2
AcGrefMaster
  3
AcAttribServices
 90
     1024
280
     0
281
     0
  0
CLASS
  1
ACME_DATABASE
  2
AcMeDbDatabase
  3
AcMeServices
 90
     1024
280
     0
281
     0
  0
CLASS
  1
ACRFINSADJUSTERMGR
  2
AcRfInsAdjusterMgr
  3
AcMeServices
 90
     1024
280
     0
281
     0
  0
CLASS
  1
ACGREFACADMASTER
  2
AcGrefacadMaster
  3
AcGrefServices
 90
     1024
280
     0
281
     0
  0
CLASS
  1
AMDTMENUSTATEMGR
  2
AmdtMenuStateMgr
  3
McadcomServices
 90
     1024
280
     0
281
     0
  0
CLASS
  1
AMDTMCOMMENUSTATE
  2
AmdtMcomMenuState
  3
McadcomServices
 90
     1024
280
     0
281
     0
  0
CLASS
  1
AMIMASTER
  2
AmiMaster
  3
AmiServices
 90
     1024
280
     0
281
     0
  0
CLASS
  1
MAPIAMMOUDLE
  2
MApiAmModule
  3
MApiAmServices
 90
     1024
280
     0
281
     0
  0
CLASS
  1
ACIMSTRSYSVAR
  2
AcImStrSysVar
  3
AcMeServices
 90
     1024
280
     0
281
     0
  0
CLASS
  1
AMDTAMMENUSTATE
  2
AmdtAmMenuState
  3
DesignerAssemblies
 90
     1024
280
     0
281
     0
  0
CLASS
  1
ACAMPROJECT
  2
AcAmProject
  3
DesignerAssemblies
 90
     1024
280
     0
281
     0
  0
CLASS
  1
ACAMGRCOMPDEF
  2
AcAmGrCompDef
  3
DesignerAssemblies
 90
     1024
280
     0
281
     0
  0
CLASS
  1
ACAMCOMPDEF
  2
AcAmCompDef
  3
DesignerAssemblies
 90
     1024
280
     0
281
     0
  0
CLASS
  1
ACAMCOMPDEFMGR
  2
AcAmCompDefMgr
  3
DesignerAssemblies
 90
     1024
280
     0
281
     0
  0
CLASS
  1
AMCONTEXTMGR
  2
AcAmContextMgr
  3
DesignerAssemblies
 90
     1024
280
     0
281
     0
  0
CLASS
  1
ACAMCONTEXTMODELER
  2
AcAmContextModeler
  3
DesignerAssemblies
 90
     1024
280
     0
281
     0
  0
CLASS
  1
ACMDATADICTIONARY
  2
AcmDataDictionary
  3
"AcmSymBB|Product Description: AutoCAD Mechanical|Company: Autodesk, Inc."
 90
     1024
280
     0
281
     0
  0
CLASS
  1
ACAMGRCOMPDEFSET
  2
AcAmGrCompDefSet
  3
DesignerAssemblies
 90
     1024
280
     0
281
     0
  0
CLASS
  1
AMDTBROWSERDBTAB
  2
AmdtBrowserDbTab
  3
McadcomServices
 90
     1024
280
     0
281
     0
  0
CLASS
  1
CBROWSERAPPOBJECT
  2
CBrowserAppObject
  3
McadcomServices
 90
     1024
280
     0
281
     0
  0
CLASS
  1
DM_PLACEHOLDER
  2
AcDmSelsetPlaceholder
  3
McadcomServices
 90
     1024
280
     0
281
     0
  0
CLASS
  1
ACMSTANDARDANSI
  2
AcmStandardANSI
  3
"Amdt_StdImp|Product Description: AutoCAD Mechanical|Company: Autodesk, Inc."
 90
     1024
280
     0
281
     0
  0
CLASS
  1
ACMSURFSTANDARDANSI
  2
AcmSurfTextStdANSI
  3
"Amdt_StdImp|Product Description: AutoCAD Mechanical|Company: Autodesk, Inc."
 90
     1024
280
     0
281
     0
  0
CLASS
  1
ACMFCFSTANDARDANSI
  2
AcmFCFStdANSI
  3
"Amdt_StdImp|Product Description: AutoCAD Mechanical|Company: Autodesk, Inc."
 90
     1024
280
     0
281
     0
  0
CLASS
  1
ACMWELDSTANDARDANSI
  2
AcmWeldingStdANSI
  3
"Amdt_StdImp|Product Description: AutoCAD Mechanical|Company: Autodesk, Inc."
 90
     1024
280
     0
281
     0
  0
CLASS
  1
ACMIDSTANDARDANSI
  2
AcmIdStdANSI
  3
"Amdt_StdImp|Product Description: AutoCAD Mechanical|Company: Autodesk, Inc."
 90
     1024
280
     0
281
     0
  0
CLASS
  1
ACMDATUMSTANDARDANSI
  2
AcmDatumStdANSI
  3
"Amdt_StdImp|Product Description: AutoCAD Mechanical|Company: Autodesk, Inc."
 90
     1024
280
     0
281
     0
  0
CLASS
  1
ACMBOMSTANDARDANSI
  2
AcmBOMStdANSI
  3
"Amdt_StdImp|Product Description: AutoCAD Mechanical|Company: Autodesk, Inc."
 90
     1024
280
     0
281
     0
  0
CLASS
  1
ACMDETAILSTANDARDANSI
  2
AmdtDetailSymStdANSI
  3
"Amdt_StdImp|Product Description: AutoCAD Mechanical|Company: Autodesk, Inc."
 90
     1024
280
     0
281
     0
  0
CLASS
  1
ACMSECTIONSTANDARDANSI
  2
AmdtSectionSymStdANSI
  3
"Amdt_StdImp|Product Description: AutoCAD Mechanical|Company: Autodesk, Inc."
 90
     1024
280
     0
281
     0
  0
CLASS
  1
ACMCENTERLINESTANDARDANSI
  2
AmdtCenterLineStdANSI
  3
"Amdt_StdImp|Product Description: AutoCAD Mechanical|Company: Autodesk, Inc."
 90
     1024
280
     0
281
     0
  0
CLASS
  1
ACMTHREADLINESTANDARDANSI
  2
AmdtThreadLineStdANSI
  3
"Amdt_StdImp|Product Description: AutoCAD Mechanical|Company: Autodesk, Inc."
 90
     1024
280
     0
281
     0
  0
CLASS
  1
ACMNOTESTANDARDANSI
  2
AmdtNoteStdANSI
  3
"Amdt_StdImp|Product Description: AutoCAD Mechanical|Company: Autodesk, Inc."
 90
     1024
280
     0
281
     0
  0
CLASS
  1
ACMTAPERSTANDARDANSI
  2
AcmTaperStdANSI
  3
"Amdt_StdImp|Product Description: AutoCAD Mechanical|Company: Autodesk, Inc."
 90
     1024
280
     0
281
     0
  0
CLASS
  1
ACMANOOTATIONVIEWSTANDARDANSI
  2
AmdtAnViewStdANSI
  3
"Amdt_StdImp|Product Description: AutoCAD Mechanical|Company: Autodesk, Inc."
 90
     1024
280
     0
281
     0
  0
CLASS
  1
ACAMGLAYSTD
  2
AcAmgLayStd
  3
"AmgLay|Product Description: AutoCAD Mechanical|Company: Autodesk, Inc."
 90
     1024
280
     0
281
     0
  0
CLASS
  1
ACAMGDIMSTD
  2
AcAmgDimStd
  3
"AmgDim|Product Description: AutoCAD Mechanical|Company: Autodesk, Inc."
 90
     1024
280
     0
281
     0
  0
CLASS
  1
AMGOBJPROPCFG
  2
AmgObjPropCfg
  3
"AmgLay|Product Description: AutoCAD Mechanical|Company: Autodesk, Inc."
 90
     1024
280
     0
281
     0
  0
CLASS
  1
ACAMGHOLECHARTSTDANSI
  2
AcAmgHoleChartStdANSI
  3
AmgDim|Product Description: AutoCAD Mechanical|Company: Autodesk, Inc.
 90
     1024
280
     0
281
     0
  0
CLASS
  1
ACAMGTITLESTD
  2
AcAmgTitleStd
  3
"AmgTitle|Product Description: AutoCAD Mechanical|Company: Autodesk, Inc."
 90
     1024
280
     0
281
     0
  0
CLASS
  1
AMDTNOTETEMPLATEDB
  2
AmdtNoteTemplateDB
  3
AcmSymBB|Product Description: AutoCAD Mechanical|Company: Autodesk, Inc.
 90
     1024
280
     0
281
     0
  0
CLASS
  1
ACAMGFILTERDAT
  2
AcAmgFilterDat
  3
"AcadM|Product Description: AutoCAD Mechanical|Company: Autodesk, Inc."
 90
    33792
280
     0
281
     0
  0
CLASS
  1
SORTENTSTABLE
  2
AcDbSortentsTable
  3
ObjectDBX Classes
 90
        0
280
     0
281
     0
  0
CLASS
  1
DICTIONARYVAR
  2
AcDbDictionaryVar
  3
ObjectDBX Classes
 90
        0
280
     0
281
     0
  0
CLASS
  1
CELLSTYLEMAP
  2
AcDbCellStyleMap
  3
ObjectDBX Classes
 90
     1152
280
     0
281
     0
  0
CLASS
  1
ACDBPLACEHOLDER
  2
AcDbPlaceHolder
  3
ObjectDBX Classes
 90
        0
280
     0
281
     0
  0
CLASS
  1
LAYOUT
  2
AcDbLayout
  3
ObjectDBX Classes
 90
        0
280
     0
281
     0
  0
ENDSEC
  0
SECTION
  2
TABLES
  0
TABLE
  2
VPORT
  5
8
330
0
100
AcDbSymbolTable
 70
     1
  0
VPORT
  5
75
330
8
100
AcDbSymbolTableRecord
100
AcDbViewportTableRecord
  2
*Active
 70
     0
 10
0.0
 20
0.0
 11
1.0
 21
1.0
 12
405.2184551455018
 22
-37.1380509078291
 13
0.0
 23
0.0
 14
1.0
 24
1.0
 15
0.0
 25
0.0
 16
0.0
 26
0.0
 36
1.0
 17
0.0
 27
0.0
 37
0.0
 40
752.6747992574167
 41
1.681623931623931
 42
50.0
 43
0.0
 44
0.0
 50
0.0
 51
0.0
 71
     0
 72
   100
 73
     1
 74
     1
 75
     0
 76
     0
 77
     0
 78
     0
281
     0
 65
     0
110
0.0
120
0.0
130
0.0
111
1.0
121
0.0
131
0.0
112
0.0
122
1.0
132
0.0
 79
     0
146
0.0
1001
ACAD_NAV_VCDISPLAY
1070
     3
  0
ENDTAB
  0
TABLE
  2
LTYPE
  5
5
330
0
100
AcDbSymbolTable
 70
     8
  0
LTYPE
  5
5A
330
5
100
AcDbSymbolTableRecord
100
AcDbLinetypeTableRecord
  2
ByBlock
 70
     0
  3

 72
    65
 73
     0
 40
0.0
  0
LTYPE
  5
5B
330
5
100
AcDbSymbolTableRecord
100
AcDbLinetypeTableRecord
  2
ByLayer
 70
     0
  3

 72
    65
 73
     0
 40
0.0
  0
LTYPE
  5
5C
330
5
100
AcDbSymbolTableRecord
100
AcDbLinetypeTableRecord
  2
Continuous
 70
     0
  3
Solid line
 72
    65
 73
     0
 40
0.0
  0
LTYPE
  5
68
330
5
100
AcDbSymbolTableRecord
100
AcDbLinetypeTableRecord
  2
PHANTOM2
 70
     0
  3
Phantom (.5x) ___ _ _ ___ _ _ ___ _ _ ___ _ _
 72
    65
 73
     6
 40
1.25
 49
0.625
 74
     0
 49
-0.125
 74
     0
 49
0.125
 74
     0
 49
-0.125
 74
     0
 49
0.125
 74
     0
 49
-0.125
 74
     0
  0
LTYPE
  5
CA
330
5
100
AcDbSymbolTableRecord
100
AcDbLinetypeTableRecord
  2
HIDDEN
 70
     0
  3
Hidden __ __ __ __ __ __ __ __ __ __ __ __ __ _
 72
    65
 73
     2
 40
0.375
 49
0.25
 74
     0
 49
-0.125
 74
     0
  0
LTYPE
  5
CB
330
5
100
AcDbSymbolTableRecord
100
AcDbLinetypeTableRecord
  2
CENTER
 70
     0
  3
Center ____ _ ____ _ ____ _ ____ _ ____ _ ____
 72
    65
 73
     4
 40
2.0
 49
1.25
 74
     0
 49
-0.25
 74
     0
 49
0.25
 74
     0
 49
-0.25
 74
     0
  0
LTYPE
  5
105
330
5
100
AcDbSymbolTableRecord
100
AcDbLinetypeTableRecord
  2
CENTER2
 70
     0
  3
Center (.5x) ___ _ ___ _ ___ _ ___ _ ___ _ ___
 72
    65
 73
     4
 40
1.125
 49
0.75
 74
     0
 49
-0.125
 74
     0
 49
0.125
 74
     0
 49
-0.125
 74
     0
  0
LTYPE
  5
106
330
5
100
AcDbSymbolTableRecord
100
AcDbLinetypeTableRecord
  2
HIDDEN2
 70
     0
  3
Hidden (.5x) _ _ _ _ _ _ _ _ _ _ _ _ _ _ _ _ _
 72
    65
 73
     2
 40
0.1875
 49
0.125
 74
     0
 49
-0.0625
 74
     0
  0
LTYPE
  5
114
330
5
100
AcDbSymbolTableRecord
100
AcDbLinetypeTableRecord
  2
ACANSTGB
 70
     0
  3
__ . . __ . .
 72
    65
 73
     6
 40
0.35433070866
 49
0.15748031496
 74
     0
 49
-0.03937007874
 74
     0
 49
0.03937007874
 74
     0
 49
-0.03937007874
 74
     0
 49
0.03937007874
 74
     0
 49
-0.03937007874
 74
     0
  0
LTYPE
  5
115
330
5
100
AcDbSymbolTableRecord
100
AcDbLinetypeTableRecord
  2
ACANSTGL
 70
     0
  3
_ _ _ _ _
 72
    65
 73
     2
 40
0.11811023622
 49
0.07874015748
 74
     0
 49
-0.03937007874
 74
     0
  0
ENDTAB
  0
TABLE
  2
LAYER
  5
2
330
0
100
AcDbSymbolTable
 70
     3
  0
LAYER
  5
54
102
{ACAD_XDICTIONARY
360
461
102
}
330
2
100
AcDbSymbolTableRecord
100
AcDbLayerTableRecord
  2
0
 70
     0
 62
     7
  6
Continuous
370
    -3
390
F
  0
LAYER
  5
450
102
{ACAD_XDICTIONARY
360
463
102
}
330
2
100
AcDbSymbolTableRecord
100
AcDbLayerTableRecord
  2
AM_CL
 70
     0
 62
     1
  6
Continuous
370
    15
390
F
1001
AcAecLayerStandard
1000

1000

  0
LAYER
  5
4FB
330
2
100
AcDbSymbolTableRecord
100
AcDbLayerTableRecord
  2
AM_5
 70
     0
 62
     3
  6
Continuous
370
    15
390
F
1001
AcAecLayerStandard
1000

1000

  0
ENDTAB
  0
TABLE
  2
STYLE
  5
3
330
0
100
AcDbSymbolTable
 70
     4
  0
STYLE
  5
55
330
3
100
AcDbSymbolTableRecord
100
AcDbTextStyleTableRecord
  2
Standard
 70
     0
 40
0.0
 41
1.0
 50
0.0
 71
     0
 42
0.2
  3
txt
  4

  0
STYLE
  5
59
330
3
100
AcDbSymbolTableRecord
100
AcDbTextStyleTableRecord
  2
Annotative
 70
     0
 40
0.0
 41
1.0
 50
0.0
 71
     0
 42
0.2
  3
txt
  4

1001
AcadAnnotative
1000
AnnotativeData
1002
{
1070
     1
1070
     1
1002
}
  0
STYLE
  5
112
330
3
100
AcDbSymbolTableRecord
100
AcDbTextStyleTableRecord
  2
ACANSTS
 70
     0
 40
1.0
 41
1.0
 50
0.0
 71
     0
 42
0.2
  3
romans.shx
  4
extfont.shx
  0
STYLE
  5
113
330
3
100
AcDbSymbolTableRecord
100
AcDbTextStyleTableRecord
  2
ACANSGDT
 70
     0
 40
0.0
 41
1.0
 50
0.0
 71
     0
 42
0.2
  3
amgdt.shx
  4

  0
ENDTAB
  0
TABLE
  2
VIEW
  5
6
330
0
100
AcDbSymbolTable
 70
     0
  0
ENDTAB
  0
TABLE
  2
UCS
  5
7
330
0
100
AcDbSymbolTable
 70
     0
  0
ENDTAB
  0
TABLE
  2
APPID
  5
9
330
0
100
AcDbSymbolTable
 70
    16
  0
APPID
  5
56
330
9
100
AcDbSymbolTableRecord
100
AcDbRegAppTableRecord
  2
ACAD
 70
     0
  0
APPID
  5
5D
330
9
100
AcDbSymbolTableRecord
100
AcDbRegAppTableRecord
  2
AcadAnnotative
 70
     0
  0
APPID
  5
C3
330
9
100
AcDbSymbolTableRecord
100
AcDbRegAppTableRecord
  2
MCAD_NO_VIS
 70
     0
  0
APPID
  5
C4
330
9
100
AcDbSymbolTableRecord
100
AcDbRegAppTableRecord
  2
ACAD_TEMP_GRAPHIC
 70
     0
  0
APPID
  5
D0
330
9
100
AcDbSymbolTableRecord
100
AcDbRegAppTableRecord
  2
ACATTRIBSERVICES
 70
     0
  0
APPID
  5
E8
330
9
100
AcDbSymbolTableRecord
100
AcDbRegAppTableRecord
  2
DESIGNERASSEMBLIES
 70
     0
  0
APPID
  5
102
330
9
100
AcDbSymbolTableRecord
100
AcDbRegAppTableRecord
  2
ACAD_DSTYLE_DIMJAG
 70
     0
  0
APPID
  5
103
330
9
100
AcDbSymbolTableRecord
100
AcDbRegAppTableRecord
  2
ACAD_DSTYLE_DIMBREAK
 70
     0
  0
APPID
  5
11D
330
9
100
AcDbSymbolTableRecord
100
AcDbRegAppTableRecord
  2
ACAD_NAV_VCDISPLAY
 70
     0
  0
APPID
  5
451
330
9
100
AcDbSymbolTableRecord
100
AcDbRegAppTableRecord
  2
AcAecLayerStandard
 70
     0
  0
APPID
  5
45A
330
9
100
AcDbSymbolTableRecord
100
AcDbRegAppTableRecord
  2
ACAD_EXEMPT_FROM_CAD_STANDARDS
 70
     0
  0
APPID
  5
4A7
330
9
100
AcDbSymbolTableRecord
100
AcDbRegAppTableRecord
  2
ACAD_MLEADERVER
 70
     0
  0
APPID
  5
4AC
330
9
100
AcDbSymbolTableRecord
100
AcDbRegAppTableRecord
  2
ACAD_DSTYLE_DIMARC_LENGTH_SYMBOL
 70
     0
  0
APPID
  5
4AD
330
9
100
AcDbSymbolTableRecord
100
AcDbRegAppTableRecord
  2
ACAD_DSTYLE_DIM_LINETYPE
 70
     0
  0
APPID
  5
4AE
330
9
100
AcDbSymbolTableRecord
100
AcDbRegAppTableRecord
  2
ACAD_DSTYLE_DIM_EXT1_LINETYPE
 70
     0
  0
APPID
  5
4AF
330
9
100
AcDbSymbolTableRecord
100
AcDbRegAppTableRecord
  2
ACAD_DSTYLE_DIM_EXT2_LINETYPE
 70
     0
  0
ENDTAB
  0
TABLE
  2
DIMSTYLE
  5
A
330
0
100
AcDbSymbolTable
 70
     8
100
AcDbDimStyleTable
 71
     1
340
57
  0
DIMSTYLE
105
57
330
A
100
AcDbSymbolTableRecord
100
AcDbDimStyleTableRecord
  2
Standard
 70
     0
340
55
  0
DIMSTYLE
105
58
330
A
100
AcDbSymbolTableRecord
100
AcDbDimStyleTableRecord
  2
Annotative
 70
     0
340
55
1001
AcadAnnotative
1000
AnnotativeData
1002
{
1070
     1
1070
     1
1002
}
  0
DIMSTYLE
105
101
102
{ACAD_REACTORS
330
4E1
102
}
330
A
100
AcDbSymbolTableRecord
100
AcDbDimStyleTableRecord
  2
AM_ANSI
 70
     0
  4
mm
 41
0.12
 42
0.05
 43
0.5
 44
0.1
 47
0.1
 48
0.1
 78
     7
 79
     2
140
0.12
141
0.0
146
0.71
147
0.06
176
   256
177
   256
178
     2
274
     4
284
     7
340
55
371
    -1
372
    -1
1001
ACAD_DSTYLE_DIMJAG
1070
   388
1040
1.5
1001
ACAD_DSTYLE_DIMBREAK
1070
   391
1040
0.125
1001
ACAD_DSTYLE_DIMARC_LENGTH_SYMBOL
1070
   379
1070
     1
1001
ACAD_DSTYLE_DIM_LINETYPE
1070
   380
1005
5A
1001
ACAD_DSTYLE_DIM_EXT1_LINETYPE
1070
   381
1005
5A
1001
ACAD_DSTYLE_DIM_EXT2_LINETYPE
1070
   382
1005
5A
  0
DIMSTYLE
105
107
330
A
100
AcDbSymbolTableRecord
100
AcDbDimStyleTableRecord
  2
AM_ANSI$3
 70
     0
  4
mm
 41
0.12
 42
0.05
 43
0.5
 44
0.1
 47
0.1
 48
0.1
 78
     7
 79
     2
140
0.12
141
0.0
146
0.71
147
0.06
176
   256
177
   256
178
     2
274
     4
284
     7
288
     1
289
     0
340
55
371
    -1
372
    -1
1001
ACAD_DSTYLE_DIMBREAK
1070
   391
1040
0.125
1001
ACAD_DSTYLE_DIMJAG
1070
   388
1040
1.5
1001
ACAD_DSTYLE_DIMARC_LENGTH_SYMBOL
1070
   379
1070
     1
1001
ACAD_DSTYLE_DIM_LINETYPE
1070
   380
1005
5A
1001
ACAD_DSTYLE_DIM_EXT1_LINETYPE
1070
   381
1005
5A
1001
ACAD_DSTYLE_DIM_EXT2_LINETYPE
1070
   382
1005
5A
  0
DIMSTYLE
105
108
330
A
100
AcDbSymbolTableRecord
100
AcDbDimStyleTableRecord
  2
AM_ANSI$4
 70
     0
  4
mm
 41
0.12
 42
0.05
 43
0.5
 44
0.1
 47
0.1
 48
0.1
 78
     7
 79
     2
140
0.12
141
0.0
146
0.71
147
0.06
176
   256
177
   256
178
     2
274
     4
284
     7
288
     1
289
     0
340
55
371
    -1
372
    -1
1001
ACAD_DSTYLE_DIMBREAK
1070
   391
1040
0.125
1001
ACAD_DSTYLE_DIMJAG
1070
   388
1040
1.5
1001
ACAD_DSTYLE_DIMARC_LENGTH_SYMBOL
1070
   379
1070
     1
1001
ACAD_DSTYLE_DIM_LINETYPE
1070
   380
1005
5A
1001
ACAD_DSTYLE_DIM_EXT1_LINETYPE
1070
   381
1005
5A
1001
ACAD_DSTYLE_DIM_EXT2_LINETYPE
1070
   382
1005
5A
  0
DIMSTYLE
105
109
330
A
100
AcDbSymbolTableRecord
100
AcDbDimStyleTableRecord
  2
AM_ANSI$7
 70
     0
  4
mm
 41
0.12
 42
0.05
 43
0.5
 44
0.1
 47
0.1
 48
0.1
 78
     7
 79
     2
140
0.12
141
0.0
146
0.71
147
0.06
176
   256
177
   256
178
     2
274
     4
284
     7
340
55
371
    -1
372
    -1
1001
ACAD_DSTYLE_DIMBREAK
1070
   391
1040
0.125
1001
ACAD_DSTYLE_DIMJAG
1070
   388
1040
1.5
1001
ACAD_DSTYLE_DIMARC_LENGTH_SYMBOL
1070
   379
1070
     1
1001
ACAD_DSTYLE_DIM_LINETYPE
1070
   380
1005
5A
1001
ACAD_DSTYLE_DIM_EXT1_LINETYPE
1070
   381
1005
5A
1001
ACAD_DSTYLE_DIM_EXT2_LINETYPE
1070
   382
1005
5A
  0
DIMSTYLE
105
10A
330
A
100
AcDbSymbolTableRecord
100
AcDbDimStyleTableRecord
  2
AM_ANSI$SF
 70
     0
  4
mm
 41
0.12
 42
0.05
 43
0.5
 44
0.1
 47
0.1
 48
0.1
 75
     1
 76
     1
 78
     7
 79
     2
140
0.12
141
0.0
146
0.71
147
0.06
176
   256
177
   256
178
     2
274
     4
284
     7
340
55
371
    -1
372
    -1
1001
ACAD_DSTYLE_DIMBREAK
1070
   391
1040
0.125
1001
ACAD_DSTYLE_DIMJAG
1070
   388
1040
1.5
1001
ACAD_DSTYLE_DIMARC_LENGTH_SYMBOL
1070
   379
1070
     1
1001
ACAD_DSTYLE_DIM_LINETYPE
1070
   380
1005
5A
1001
ACAD_DSTYLE_DIM_EXT1_LINETYPE
1070
   381
1005
5A
1001
ACAD_DSTYLE_DIM_EXT2_LINETYPE
1070
   382
1005
5A
  0
DIMSTYLE
105
10F
330
A
100
AcDbSymbolTableRecord
100
AcDbDimStyleTableRecord
  2
AM_ANSI$SH
 70
     0
  4
mm
 41
0.12
 42
0.05
 43
0.5
 44
0.1
 47
0.1
 48
0.1
 75
     1
 76
     1
 78
     7
 79
     2
140
0.12
141
0.0
146
0.71
147
0.06
173
     1
176
   256
177
   256
178
     2
274
     4
284
     7
340
55
343
10B
371
    -1
372
    -1
1001
ACAD_DSTYLE_DIMBREAK
1070
   391
1040
0.125
1001
ACAD_DSTYLE_DIMJAG
1070
   388
1040
1.5
1001
ACAD_DSTYLE_DIMARC_LENGTH_SYMBOL
1070
   379
1070
     1
1001
ACAD_DSTYLE_DIM_LINETYPE
1070
   380
1005
5A
1001
ACAD_DSTYLE_DIM_EXT1_LINETYPE
1070
   381
1005
5A
1001
ACAD_DSTYLE_DIM_EXT2_LINETYPE
1070
   382
1005
5A
  0
ENDTAB
  0
TABLE
  2
BLOCK_RECORD
  5
1
330
0
100
AcDbSymbolTable
 70
     2
  0
BLOCK_RECORD
  5
70
102
{ACAD_XDICTIONARY
360
453
102
}
330
1
100
AcDbSymbolTableRecord
100
AcDbBlockTableRecord
  2
*Model_Space
340
73
  0
BLOCK_RECORD
  5
6C
330
1
100
AcDbSymbolTableRecord
100
AcDbBlockTableRecord
  2
*Paper_Space
340
6F
  0
BLOCK_RECORD
  5
10B
330
1
100
AcDbSymbolTableRecord
100
AcDbBlockTableRecord
  2
GENAXEH
340
0
  0
ENDTAB
  0
ENDSEC
  0
SECTION
  2
BLOCKS
  0
BLOCK
  5
71
330
70
100
AcDbEntity
  8
0
100
AcDbBlockBegin
  2
*Model_Space
 70
     0
 10
0.0
 20
0.0
 30
0.0
  3
*Model_Space
  1

  0
ENDBLK
  5
72
330
70
100
AcDbEntity
  8
0
100
AcDbBlockEnd
  0
BLOCK
  5
6D
330
6C
100
AcDbEntity
 67
     1
  8
0
100
AcDbBlockBegin
  2
*Paper_Space
 70
     0
 10
0.0
 20
0.0
 30
0.0
  3
*Paper_Space
  1

  0
ENDBLK
  5
6E
330
6C
100
AcDbEntity
 67
     1
  8
0
100
AcDbBlockEnd
  0
BLOCK
  5
10D
330
10B
100
AcDbEntity
  8
0
100
AcDbBlockBegin
  2
GENAXEH
 70
     0
 10
0.0
 20
0.0
 30
0.0
  3
GENAXEH
  1

  0
LINE
  5
10C
330
10B
100
AcDbEntity
  8
0
100
AcDbLine
 10
-1.0
 20
0.0
 30
0.0
 11
1.0
 21
0.0
 31
0.0
  0
ENDBLK
  5
10E
330
10B
100
AcDbEntity
  8
0
100
AcDbBlockEnd
  0
ENDSEC
  0
SECTION
  2
ENTITIES
  0
LINE
  5
76
330
70
100
AcDbEntity
  8
0
  6
Continuous
100
AcDbLine
 10
20.76108096868344
 20
25.68142347356563
 30
0.0
 11
20.76108096868344
 21
29.60042347356564
 31
0.0
  0
LINE
  5
77
330
70
100
AcDbEntity
  8
0
  6
Continuous
100
AcDbLine
 10
20.76108096868344
 20
25.40042347356564
 30
0.0
 11
20.76108096868344
 21
25.68142347356563
 31
0.0
  0
LINE
  5
78
330
70
100
AcDbEntity
  8
0
  6
Continuous
100
AcDbLine
 10
20.76108096868344
 20
32.77842347356564
 30
0.0
 11
20.76108096868344
 21
34.55942347356563
 31
0.0
  0
LINE
  5
79
330
70
100
AcDbEntity
  8
0
  6
Continuous
100
AcDbLine
 10
20.76108096868344
 20
30.46042347356564
 30
0.0
 11
20.76108096868344
 21
31.43142347356564
 31
0.0
  0
LINE
  5
7A
330
70
100
AcDbEntity
  8
0
  6
Continuous
100
AcDbLine
 10
20.76108096868344
 20
34.55942347356563
 30
0.0
 11
20.76108096868344
 21
36.93242347356564
 31
0.0
  0
LINE
  5
7B
330
70
100
AcDbEntity
  8
0
  6
Continuous
100
AcDbLine
 10
20.76108096868344
 20
29.79642347356564
 30
0.0
 11
20.76108096868344
 21
30.46042347356564
 31
0.0
  0
LINE
  5
7C
330
70
100
AcDbEntity
  8
0
  6
Continuous
100
AcDbLine
 10
20.76108096868344
 20
29.60042347356564
 30
0.0
 11
20.76108096868344
 21
29.79642347356564
 31
0.0
  0
LINE
  5
7D
330
70
100
AcDbEntity
  8
0
  6
Continuous
100
AcDbLine
 10
20.76108096868344
 20
36.93242347356564
 30
0.0
 11
20.76108096868344
 21
41.36742347356563
 31
0.0
  0
LINE
  5
7E
330
70
100
AcDbEntity
  8
0
  6
Continuous
100
AcDbLine
 10
20.76108096868344
 20
31.43142347356564
 30
0.0
 11
20.76108096868344
 21
32.77842347356564
 31
0.0
  0
LINE
  5
7F
330
70
100
AcDbEntity
  8
0
  6
Continuous
100
AcDbLine
 10
-10.23891903131656
 20
95.59342347356562
 30
0.0
 11
-10.23891903131656
 21
95.33942347356562
 31
0.0
  0
LINE
  5
80
330
70
100
AcDbEntity
  8
0
  6
Continuous
100
AcDbLine
 10
19.93408096868343
 20
104.3964234735656
 30
0.0
 11
19.38308096868343
 21
104.3964234735656
 31
0.0
  0
LINE
  5
81
330
70
100
AcDbEntity
  8
0
  6
Continuous
100
AcDbLine
 10
20.76108096868344
 20
64.49842347356564
 30
0.0
 11
20.76108096868344
 21
89.89542347356564
 31
0.0
  0
LINE
  5
82
330
70
100
AcDbEntity
  8
0
  6
Continuous
100
AcDbLine
 10
-10.23891903131656
 20
95.33942347356562
 30
0.0
 11
-10.23891903131656
 21
64.49842347356564
 31
0.0
  0
LINE
  5
83
330
70
100
AcDbEntity
  8
0
  6
Continuous
100
AcDbLine
 10
20.76108096868344
 20
39.10142347356563
 30
0.0
 11
20.76108096868344
 21
64.49842347356564
 31
0.0
  0
LINE
  5
84
330
70
100
AcDbEntity
  8
0
  6
Continuous
100
AcDbLine
 10
-8.861919031316563
 20
24.60042347356564
 30
0.0
 11
19.38308096868343
 21
24.60042347356564
 31
0.0
  0
LINE
  5
85
330
70
100
AcDbEntity
  8
0
  6
Continuous
100
AcDbLine
 10
-9.411919031316561
 20
104.3964234735656
 30
0.0
 11
-9.925919031316563
 21
104.1434234735656
 31
0.0
  0
LINE
  5
86
330
70
100
AcDbEntity
  8
0
  6
Continuous
100
AcDbLine
 10
20.49908096868344
 20
104.1434234735656
 30
0.0
 11
19.93408096868343
 21
104.3964234735656
 31
0.0
  0
LINE
  5
87
330
70
100
AcDbEntity
  8
0
  6
Continuous
100
AcDbLine
 10
-9.925919031316563
 20
104.1434234735656
 30
0.0
 11
-10.23891903131656
 21
103.5964234735656
 31
0.0
  0
LINE
  5
88
330
70
100
AcDbEntity
  8
0
  6
Continuous
100
AcDbLine
 10
20.76108096868344
 20
102.6544234735657
 30
0.0
 11
20.76108096868344
 21
103.5964234735656
 31
0.0
  0
LINE
  5
89
330
70
100
AcDbEntity
  8
0
  6
Continuous
100
AcDbLine
 10
20.76108096868344
 20
103.5964234735656
 30
0.0
 11
20.49908096868344
 21
104.1434234735656
 31
0.0
  0
LINE
  5
8A
330
70
100
AcDbEntity
  8
0
  6
Continuous
100
AcDbLine
 10
-10.23891903131656
 20
103.5964234735656
 30
0.0
 11
-10.23891903131656
 21
95.59342347356562
 31
0.0
  0
LINE
  5
8B
330
70
100
AcDbEntity
  8
0
  6
Continuous
100
AcDbLine
 10
20.76108096868344
 20
95.59342347356562
 30
0.0
 11
20.76108096868344
 21
102.6544234735657
 31
0.0
  0
LINE
  5
8C
330
70
100
AcDbEntity
  8
0
  6
Continuous
100
AcDbLine
 10
20.76108096868344
 20
89.89542347356564
 30
0.0
 11
20.76108096868344
 21
95.59342347356562
 31
0.0
  0
LINE
  5
8D
330
70
100
AcDbEntity
  8
0
  6
Continuous
100
AcDbLine
 10
-10.23891903131656
 20
30.66842347356564
 30
0.0
 11
-10.23891903131656
 21
28.57842347356564
 31
0.0
  0
LINE
  5
8E
330
70
100
AcDbEntity
  8
0
  6
Continuous
100
AcDbLine
 10
20.76108096868344
 20
28.57842347356564
 30
0.0
 11
20.76108096868344
 21
30.66842347356564
 31
0.0
  0
LINE
  5
8F
330
70
100
AcDbEntity
  8
0
  6
Continuous
100
AcDbLine
 10
-10.23891903131656
 20
26.89742347356564
 30
0.0
 11
-10.23891903131656
 21
25.81242347356564
 31
0.0
  0
LINE
  5
90
330
70
100
AcDbEntity
  8
0
  6
Continuous
100
AcDbLine
 10
20.76108096868344
 20
25.81242347356564
 30
0.0
 11
20.76108096868344
 21
26.89742347356564
 31
0.0
  0
LINE
  5
91
330
70
100
AcDbEntity
  8
0
  6
Continuous
100
AcDbLine
 10
-10.23891903131656
 20
33.40042347356564
 30
0.0
 11
-10.23891903131656
 21
30.66842347356564
 31
0.0
  0
LINE
  5
92
330
70
100
AcDbEntity
  8
0
  6
Continuous
100
AcDbLine
 10
20.76108096868344
 20
30.66842347356564
 30
0.0
 11
20.76108096868344
 21
33.40042347356564
 31
0.0
  0
LINE
  5
93
330
70
100
AcDbEntity
  8
0
  6
Continuous
100
AcDbLine
 10
-10.23891903131656
 20
25.81242347356564
 30
0.0
 11
-10.23891903131656
 21
25.43142347356563
 31
0.0
  0
LINE
  5
94
330
70
100
AcDbEntity
  8
0
  6
Continuous
100
AcDbLine
 10
20.76108096868344
 20
25.43142347356563
 30
0.0
 11
20.76108096868344
 21
25.81242347356564
 31
0.0
  0
LINE
  5
95
330
70
100
AcDbEntity
  8
0
  6
Continuous
100
AcDbLine
 10
-9.925919031316563
 20
24.85442347356564
 30
0.0
 11
-9.411919031316561
 21
24.60042347356564
 31
0.0
  0
LINE
  5
96
330
70
100
AcDbEntity
  8
0
  6
Continuous
100
AcDbLine
 10
-10.23891903131656
 20
25.40042347356564
 30
0.0
 11
-9.925919031316563
 21
24.85442347356564
 31
0.0
  0
LINE
  5
97
330
70
100
AcDbEntity
  8
0
  6
Continuous
100
AcDbLine
 10
20.49908096868344
 20
24.85442347356564
 30
0.0
 11
20.76108096868344
 21
25.40042347356564
 31
0.0
  0
LINE
  5
98
330
70
100
AcDbEntity
  8
0
  6
Continuous
100
AcDbLine
 10
-10.23891903131656
 20
39.10142347356563
 30
0.0
 11
-10.23891903131656
 21
33.40042347356564
 31
0.0
  0
LINE
  5
99
330
70
100
AcDbEntity
  8
0
  6
Continuous
100
AcDbLine
 10
20.76108096868344
 20
33.40042347356564
 30
0.0
 11
20.76108096868344
 21
39.10142347356563
 31
0.0
  0
LINE
  5
9A
330
70
100
AcDbEntity
  8
0
  6
Continuous
100
AcDbLine
 10
-10.23891903131656
 20
64.49842347356564
 30
0.0
 11
-10.23891903131656
 21
39.10142347356563
 31
0.0
  0
LINE
  5
9B
330
70
100
AcDbEntity
  8
0
  6
Continuous
100
AcDbLine
 10
19.38308096868343
 20
24.60042347356564
 30
0.0
 11
19.93408096868343
 21
24.60042347356564
 31
0.0
  0
LINE
  5
9C
330
70
100
AcDbEntity
  8
0
  6
Continuous
100
AcDbLine
 10
-10.23891903131656
 20
28.57842347356564
 30
0.0
 11
-10.23891903131656
 21
26.89742347356564
 31
0.0
  0
LINE
  5
9D
330
70
100
AcDbEntity
  8
0
  6
Continuous
100
AcDbLine
 10
20.76108096868344
 20
26.89742347356564
 30
0.0
 11
20.76108096868344
 21
28.57842347356564
 31
0.0
  0
LINE
  5
9E
330
70
100
AcDbEntity
  8
0
  6
Continuous
100
AcDbLine
 10
-9.411919031316561
 20
24.60042347356564
 30
0.0
 11
-8.861919031316563
 21
24.60042347356564
 31
0.0
  0
LINE
  5
9F
330
70
100
AcDbEntity
  8
0
  6
Continuous
100
AcDbLine
 10
20.76108096868344
 20
25.82042347356563
 30
0.0
 11
20.76108096868344
 21
29.60042347356564
 31
0.0
  0
LINE
  5
A0
330
70
100
AcDbEntity
  8
0
  6
Continuous
100
AcDbLine
 10
20.76108096868344
 20
25.40042347356564
 30
0.0
 11
20.76108096868344
 21
25.82042347356563
 31
0.0
  0
LINE
  5
A1
330
70
100
AcDbEntity
  8
0
  6
Continuous
100
AcDbLine
 10
-10.23891903131656
 20
25.40042347356564
 30
0.0
 11
-9.942919031316563
 21
24.85442347356564
 31
0.0
  0
LINE
  5
A2
330
70
100
AcDbEntity
  8
0
  6
Continuous
100
AcDbLine
 10
20.76108096868344
 20
99.39642347356562
 30
0.0
 11
20.76108096868344
 21
103.1764234735656
 31
0.0
  0
LINE
  5
A3
330
70
100
AcDbEntity
  8
0
  6
Continuous
100
AcDbLine
 10
20.76108096868344
 20
103.1764234735656
 30
0.0
 11
20.76108096868344
 21
103.5964234735656
 31
0.0
  0
LINE
  5
A4
330
70
100
AcDbEntity
  8
0
  6
Continuous
100
AcDbLine
 10
-9.942919031316563
 20
104.1434234735656
 30
0.0
 11
-10.23891903131656
 21
103.5964234735656
 31
0.0
  0
LINE
  5
A5
330
70
100
AcDbEntity
  8
0
  6
Continuous
100
AcDbLine
 10
20.76108096868344
 20
25.82042347356563
 30
0.0
 11
20.76108096868344
 21
29.60042347356564
 31
0.0
  0
LINE
  5
A6
330
70
100
AcDbEntity
  8
0
  6
Continuous
100
AcDbLine
 10
20.76108096868344
 20
25.40042347356564
 30
0.0
 11
20.76108096868344
 21
25.82042347356563
 31
0.0
  0
LINE
  5
A7
330
70
100
AcDbEntity
  8
0
  6
Continuous
100
AcDbLine
 10
20.76108096868344
 20
99.39642347356562
 30
0.0
 11
20.76108096868344
 21
103.1764234735656
 31
0.0
  0
LINE
  5
A8
330
70
100
AcDbEntity
  8
0
  6
Continuous
100
AcDbLine
 10
20.76108096868344
 20
103.1764234735656
 30
0.0
 11
20.76108096868344
 21
103.5964234735656
 31
0.0
  0
LINE
  5
A9
330
70
100
AcDbEntity
  8
0
  6
Continuous
100
AcDbLine
 10
20.76108096868344
 20
99.39642347356562
 30
0.0
 11
20.76108096868344
 21
103.1764234735656
 31
0.0
  0
LINE
  5
AA
330
70
100
AcDbEntity
  8
0
  6
Continuous
100
AcDbLine
 10
20.76108096868344
 20
103.1764234735656
 30
0.0
 11
20.76108096868344
 21
103.5964234735656
 31
0.0
  0
LINE
  5
AB
330
70
100
AcDbEntity
  8
0
  6
Continuous
100
AcDbLine
 10
20.76108096868344
 20
25.82042347356563
 30
0.0
 11
20.76108096868344
 21
29.60042347356564
 31
0.0
  0
LINE
  5
AC
330
70
100
AcDbEntity
  8
0
  6
Continuous
100
AcDbLine
 10
20.76108096868344
 20
25.40042347356564
 30
0.0
 11
20.76108096868344
 21
25.82042347356563
 31
0.0
  0
LINE
  5
AD
330
70
100
AcDbEntity
  8
0
  6
Continuous
100
AcDbLine
 10
20.76108096868344
 20
105.1744234735657
 30
0.0
 11
20.76108096868344
 21
108.0264234735656
 31
0.0
  0
LINE
  5
AE
330
70
100
AcDbEntity
  8
0
  6
Continuous
100
AcDbLine
 10
19.38308096868343
 20
108.6004234735656
 30
0.0
 11
-8.860919031316562
 21
108.6004234735656
 31
0.0
  0
LINE
  5
AF
330
70
100
AcDbEntity
  8
0
  6
Continuous
100
AcDbLine
 10
20.76108096868344
 20
108.6004234735656
 30
0.0
 11
19.38308096868343
 21
108.6004234735656
 31
0.0
  0
LINE
  5
B0
330
70
100
AcDbEntity
  8
0
  6
Continuous
100
AcDbLine
 10
20.76108096868344
 20
108.0264234735656
 30
0.0
 11
20.76108096868344
 21
108.6004234735656
 31
0.0
  0
LINE
  5
B1
330
70
100
AcDbEntity
  8
0
  6
Continuous
100
AcDbLine
 10
-8.860919031316562
 20
104.6004234735656
 30
0.0
 11
19.38308096868343
 21
104.6004234735656
 31
0.0
  0
LINE
  5
B2
330
70
100
AcDbEntity
  8
0
  6
Continuous
100
AcDbLine
 10
19.38308096868343
 20
104.6004234735656
 30
0.0
 11
20.76108096868344
 21
104.6004234735656
 31
0.0
  0
LINE
  5
B3
330
70
100
AcDbEntity
  8
0
  6
Continuous
100
AcDbLine
 10
20.76108096868344
 20
104.6004234735656
 30
0.0
 11
20.76108096868344
 21
105.1744234735657
 31
0.0
  0
LINE
  5
B4
330
70
100
AcDbEntity
  8
0
  6
Continuous
100
AcDbLine
 10
-10.23891903131656
 20
108.0264234735656
 30
0.0
 11
-10.23891903131656
 21
105.1744234735657
 31
0.0
  0
LINE
  5
B5
330
70
100
AcDbEntity
  8
0
  6
Continuous
100
AcDbLine
 10
-10.23891903131656
 20
108.6004234735656
 30
0.0
 11
-10.23891903131656
 21
108.0264234735656
 31
0.0
  0
LINE
  5
B6
330
70
100
AcDbEntity
  8
0
  6
Continuous
100
AcDbLine
 10
-8.860919031316562
 20
108.6004234735656
 30
0.0
 11
-10.23891903131656
 21
108.6004234735656
 31
0.0
  0
LINE
  5
B7
330
70
100
AcDbEntity
  8
0
  6
Continuous
100
AcDbLine
 10
-10.23891903131656
 20
104.6004234735656
 30
0.0
 11
-8.860919031316562
 21
104.6004234735656
 31
0.0
  0
LINE
  5
B8
330
70
100
AcDbEntity
  8
0
  6
Continuous
100
AcDbLine
 10
-10.23891903131656
 20
105.1744234735657
 30
0.0
 11
-10.23891903131656
 21
104.6004234735656
 31
0.0
  0
LINE
  5
B9
330
70
100
AcDbEntity
  8
0
  6
Continuous
100
AcDbLine
 10
20.76108096868344
 20
105.1744234735657
 30
0.0
 11
20.76108096868344
 21
108.0264234735656
 31
0.0
  0
LINE
  5
BA
330
70
100
AcDbEntity
  8
0
  6
Continuous
100
AcDbLine
 10
20.76108096868344
 20
108.0264234735656
 30
0.0
 11
20.76108096868344
 21
108.6004234735656
 31
0.0
  0
LINE
  5
BB
330
70
100
AcDbEntity
  8
0
  6
Continuous
100
AcDbLine
 10
20.76108096868344
 20
104.6004234735656
 30
0.0
 11
20.76108096868344
 21
105.1744234735657
 31
0.0
  0
LINE
  5
212
330
70
100
AcDbEntity
  8
0
  6
Continuous
100
AcDbLine
 10
740.2936560275817
 20
103.3164234735656
 30
0.0
 11
740.2936560275817
 21
99.39642347356562
 31
0.0
  0
LINE
  5
213
330
70
100
AcDbEntity
  8
0
  6
Continuous
100
AcDbLine
 10
740.2936560275817
 20
29.60042347356564
 30
0.0
 11
740.2936560275817
 21
25.68142347356563
 31
0.0
  0
LINE
  5
214
330
70
100
AcDbEntity
  8
0
  6
Continuous
100
AcDbLine
 10
760.2716560275817
 20
82.23342347356563
 30
0.0
 11
760.2716560275817
 21
64.49842347356564
 31
0.0
  0
LINE
  5
215
330
70
100
AcDbEntity
  8
0
  6
Continuous
100
AcDbLine
 10
760.2716560275817
 20
64.49842347356564
 30
0.0
 11
760.2716560275817
 21
46.76342347356563
 31
0.0
  0
LINE
  5
216
330
70
100
AcDbEntity
  8
0
  6
Continuous
100
AcDbLine
 10
775.5196560275816
 20
38.66942347356564
 30
0.0
 11
775.5196560275816
 21
64.49842347356564
 31
0.0
  0
LINE
  5
217
330
70
100
AcDbEntity
  8
0
  6
Continuous
100
AcDbLine
 10
740.2936560275817
 20
94.39642347356564
 30
0.0
 11
740.2936560275817
 21
90.73642347356562
 31
0.0
  0
LINE
  5
218
330
70
100
AcDbEntity
  8
0
  6
Continuous
100
AcDbLine
 10
740.2936560275817
 20
104.3964234735656
 30
0.0
 11
740.2936560275817
 21
104.1434234735656
 31
0.0
  0
LINE
  5
219
330
70
100
AcDbEntity
  8
0
  6
Continuous
100
AcDbLine
 10
740.5916560275816
 20
104.3964234735656
 30
0.0
 11
740.2936560275817
 21
104.3964234735656
 31
0.0
  0
LINE
  5
21A
330
70
100
AcDbEntity
  8
0
  6
Continuous
100
AcDbLine
 10
740.2936560275817
 20
99.39642347356562
 30
0.0
 11
740.2936560275817
 21
94.39642347356564
 31
0.0
  0
LINE
  5
21B
330
70
100
AcDbEntity
  8
0
  6
Continuous
100
AcDbLine
 10
740.2936560275817
 20
104.1434234735656
 30
0.0
 11
740.2936560275817
 21
103.5964234735656
 31
0.0
  0
LINE
  5
21C
330
70
100
AcDbEntity
  8
0
  6
Continuous
100
AcDbLine
 10
740.2936560275817
 20
90.73642347356562
 30
0.0
 11
740.2936560275817
 21
89.39642347356565
 31
0.0
  0
LINE
  5
21D
330
70
100
AcDbEntity
  8
0
  6
Continuous
100
AcDbLine
 10
740.2936560275817
 20
89.39642347356565
 30
0.0
 11
740.5916560275816
 21
89.39642347356565
 31
0.0
  0
LINE
  5
21E
330
70
100
AcDbEntity
  8
0
  6
Continuous
100
AcDbLine
 10
740.2936560275817
 20
103.5964234735656
 30
0.0
 11
740.2936560275817
 21
103.3164234735656
 31
0.0
  0
LINE
  5
21F
330
70
100
AcDbEntity
  8
0
  6
Continuous
100
AcDbLine
 10
775.5196560275816
 20
103.4164234735656
 30
0.0
 11
775.5196560275816
 21
104.3964234735656
 31
0.0
  0
LINE
  5
220
330
70
100
AcDbEntity
  8
0
  6
Continuous
100
AcDbLine
 10
758.7186560275816
 20
86.21842347356563
 30
0.0
 11
759.3996560275817
 21
85.17242347356562
 31
0.0
  0
LINE
  5
221
330
70
100
AcDbEntity
  8
0
  6
Continuous
100
AcDbLine
 10
774.6966560275815
 20
104.3964234735656
 30
0.0
 11
766.5996560275816
 21
104.3964234735656
 31
0.0
  0
LINE
  5
222
330
70
100
AcDbEntity
  8
0
  6
Continuous
100
AcDbLine
 10
757.3946560275817
 20
87.46842347356562
 30
0.0
 11
758.1776560275819
 21
86.76842347356563
 31
0.0
  0
LINE
  5
223
330
70
100
AcDbEntity
  8
0
  6
Continuous
100
AcDbLine
 10
775.5196560275816
 20
96.26942347356564
 30
0.0
 11
775.5196560275816
 21
103.4164234735656
 31
0.0
  0
LINE
  5
224
330
70
100
AcDbEntity
  8
0
  6
Continuous
100
AcDbLine
 10
759.3996560275817
 20
85.17242347356562
 30
0.0
 11
760.0496560275817
 21
83.65442347356562
 31
0.0
  0
LINE
  5
225
330
70
100
AcDbEntity
  8
0
  6
Continuous
100
AcDbLine
 10
766.5996560275816
 20
104.3964234735656
 30
0.0
 11
759.8136560275817
 21
104.3964234735656
 31
0.0
  0
LINE
  5
226
330
70
100
AcDbEntity
  8
0
  6
Continuous
100
AcDbLine
 10
754.9406560275818
 20
88.80742347356564
 30
0.0
 11
757.3946560275817
 21
87.46842347356562
 31
0.0
  0
LINE
  5
227
330
70
100
AcDbEntity
  8
0
  6
Continuous
100
AcDbLine
 10
759.8136560275817
 20
104.3964234735656
 30
0.0
 11
750.3916560275817
 21
104.3964234735656
 31
0.0
  0
LINE
  5
228
330
70
100
AcDbEntity
  8
0
  6
Continuous
100
AcDbLine
 10
750.3916560275817
 20
89.39642347356565
 30
0.0
 11
754.9406560275818
 21
88.80742347356564
 31
0.0
  0
LINE
  5
229
330
70
100
AcDbEntity
  8
0
  6
Continuous
100
AcDbLine
 10
775.5196560275816
 20
90.32742347356563
 30
0.0
 11
775.5196560275816
 21
96.26942347356564
 31
0.0
  0
LINE
  5
22A
330
70
100
AcDbEntity
  8
0
  6
Continuous
100
AcDbLine
 10
760.0496560275817
 20
83.65442347356562
 30
0.0
 11
760.2716560275817
 21
82.23342347356563
 31
0.0
  0
LINE
  5
22B
330
70
100
AcDbEntity
  8
0
  6
Continuous
100
AcDbLine
 10
775.5196560275816
 20
64.49842347356564
 30
0.0
 11
775.5196560275816
 21
90.32742347356563
 31
0.0
  0
LINE
  5
22C
330
70
100
AcDbEntity
  8
0
  6
Continuous
100
AcDbLine
 10
775.5196560275816
 20
104.3964234735656
 30
0.0
 11
774.6966560275815
 21
104.3964234735656
 31
0.0
  0
LINE
  5
22D
330
70
100
AcDbEntity
  8
0
  6
Continuous
100
AcDbLine
 10
758.1776560275819
 20
86.76842347356563
 30
0.0
 11
758.7186560275816
 21
86.21842347356563
 31
0.0
  0
LINE
  5
22E
330
70
100
AcDbEntity
  8
0
  6
Continuous
100
AcDbLine
 10
750.3916560275817
 20
104.3964234735656
 30
0.0
 11
740.5916560275816
 21
104.3964234735656
 31
0.0
  0
LINE
  5
22F
330
70
100
AcDbEntity
  8
0
  6
Continuous
100
AcDbLine
 10
740.5916560275816
 20
89.39642347356565
 30
0.0
 11
750.3916560275817
 21
89.39642347356565
 31
0.0
  0
LINE
  5
230
330
70
100
AcDbEntity
  8
0
  6
Continuous
100
AcDbLine
 10
740.2936560275817
 20
38.26042347356564
 30
0.0
 11
740.2936560275817
 21
34.60042347356564
 31
0.0
  0
LINE
  5
231
330
70
100
AcDbEntity
  8
0
  6
Continuous
100
AcDbLine
 10
740.2936560275817
 20
24.85442347356564
 30
0.0
 11
740.2936560275817
 21
24.60042347356564
 31
0.0
  0
LINE
  5
232
330
70
100
AcDbEntity
  8
0
  6
Continuous
100
AcDbLine
 10
740.2936560275817
 20
34.60042347356564
 30
0.0
 11
740.2936560275817
 21
29.60042347356564
 31
0.0
  0
LINE
  5
233
330
70
100
AcDbEntity
  8
0
  6
Continuous
100
AcDbLine
 10
740.2936560275817
 20
25.40042347356564
 30
0.0
 11
740.2936560275817
 21
24.85442347356564
 31
0.0
  0
LINE
  5
234
330
70
100
AcDbEntity
  8
0
  6
Continuous
100
AcDbLine
 10
740.5226560275817
 20
39.60042347356564
 30
0.0
 11
740.2936560275817
 21
39.60042347356564
 31
0.0
  0
LINE
  5
235
330
70
100
AcDbEntity
  8
0
  6
Continuous
100
AcDbLine
 10
740.2936560275817
 20
39.60042347356564
 30
0.0
 11
740.2936560275817
 21
38.26042347356564
 31
0.0
  0
LINE
  5
236
330
70
100
AcDbEntity
  8
0
  6
Continuous
100
AcDbLine
 10
740.2936560275817
 20
25.68142347356563
 30
0.0
 11
740.2936560275817
 21
25.40042347356564
 31
0.0
  0
LINE
  5
237
330
70
100
AcDbEntity
  8
0
  6
Continuous
100
AcDbLine
 10
759.3996560275817
 20
43.82442347356563
 30
0.0
 11
758.7186560275816
 21
42.77842347356563
 31
0.0
  0
LINE
  5
238
330
70
100
AcDbEntity
  8
0
  6
Continuous
100
AcDbLine
 10
758.1776560275819
 20
42.22842347356563
 30
0.0
 11
757.3946560275817
 21
41.52842347356563
 31
0.0
  0
LINE
  5
239
330
70
100
AcDbEntity
  8
0
  6
Continuous
100
AcDbLine
 10
760.0496560275817
 20
45.34242347356562
 30
0.0
 11
759.3996560275817
 21
43.82442347356563
 31
0.0
  0
LINE
  5
23A
330
70
100
AcDbEntity
  8
0
  6
Continuous
100
AcDbLine
 10
757.3946560275817
 20
41.52842347356563
 30
0.0
 11
754.9406560275818
 21
40.18942347356563
 31
0.0
  0
LINE
  5
23B
330
70
100
AcDbEntity
  8
0
  6
Continuous
100
AcDbLine
 10
754.9406560275818
 20
40.18942347356563
 30
0.0
 11
750.3916560275817
 21
39.60042347356564
 31
0.0
  0
LINE
  5
23C
330
70
100
AcDbEntity
  8
0
  6
Continuous
100
AcDbLine
 10
774.9655159838177
 20
24.60042347356564
 30
0.0
 11
775.5196560275816
 21
38.66942347356564
 31
0.0
  0
LINE
  5
23D
330
70
100
AcDbEntity
  8
0
  6
Continuous
100
AcDbLine
 10
760.2716560275817
 20
46.76342347356563
 30
0.0
 11
760.0496560275817
 21
45.34242347356562
 31
0.0
  0
LINE
  5
23E
330
70
100
AcDbEntity
  8
0
  6
Continuous
100
AcDbLine
 10
758.7186560275816
 20
42.77842347356563
 30
0.0
 11
758.1776560275819
 21
42.22842347356563
 31
0.0
  0
LINE
  5
23F
330
70
100
AcDbEntity
  8
0
  6
Continuous
100
AcDbLine
 10
750.3916560275817
 20
39.60042347356564
 30
0.0
 11
740.5226560275817
 21
39.60042347356564
 31
0.0
  0
LINE
  5
240
330
70
100
AcDbEntity
  8
0
  6
Continuous
100
AcDbLine
 10
116.7456560275816
 20
99.39642347356562
 30
0.0
 11
116.7456560275816
 21
103.3164234735656
 31
0.0
  0
LINE
  5
241
330
70
100
AcDbEntity
  8
0
  6
Continuous
100
AcDbLine
 10
116.7456560275816
 20
25.68142347356563
 30
0.0
 11
116.7456560275816
 21
29.60042347356564
 31
0.0
  0
LINE
  5
242
330
70
100
AcDbEntity
  8
0
  6
Continuous
100
AcDbLine
 10
96.76765602758166
 20
64.49842347356564
 30
0.0
 11
96.76765602758166
 21
82.23342347356563
 31
0.0
  0
LINE
  5
243
330
70
100
AcDbEntity
  8
0
  6
Continuous
100
AcDbLine
 10
96.76765602758166
 20
46.76342347356563
 30
0.0
 11
96.76765602758166
 21
64.49842347356564
 31
0.0
  0
LINE
  5
244
330
70
100
AcDbEntity
  8
0
  6
Continuous
100
AcDbLine
 10
81.51965602758165
 20
64.49842347356564
 30
0.0
 11
81.51965602758165
 21
38.66942347356564
 31
0.0
  0
LINE
  5
245
330
70
100
AcDbEntity
  8
0
  6
Continuous
100
AcDbLine
 10
116.7456560275816
 20
90.73642347356562
 30
0.0
 11
116.7456560275816
 21
94.39642347356564
 31
0.0
  0
LINE
  5
246
330
70
100
AcDbEntity
  8
0
  6
Continuous
100
AcDbLine
 10
116.7456560275816
 20
104.3964234735656
 30
0.0
 11
116.4476560275817
 21
104.3964234735656
 31
0.0
  0
LINE
  5
247
330
70
100
AcDbEntity
  8
0
  6
Continuous
100
AcDbLine
 10
116.7456560275816
 20
104.1434234735656
 30
0.0
 11
116.7456560275816
 21
104.3964234735656
 31
0.0
  0
LINE
  5
248
330
70
100
AcDbEntity
  8
0
  6
Continuous
100
AcDbLine
 10
116.7456560275816
 20
94.39642347356564
 30
0.0
 11
116.7456560275816
 21
99.39642347356562
 31
0.0
  0
LINE
  5
249
330
70
100
AcDbEntity
  8
0
  6
Continuous
100
AcDbLine
 10
116.7456560275816
 20
103.5964234735656
 30
0.0
 11
116.7456560275816
 21
104.1434234735656
 31
0.0
  0
LINE
  5
24A
330
70
100
AcDbEntity
  8
0
  6
Continuous
100
AcDbLine
 10
116.4476560275817
 20
89.39642347356565
 30
0.0
 11
116.7456560275816
 21
89.39642347356565
 31
0.0
  0
LINE
  5
24B
330
70
100
AcDbEntity
  8
0
  6
Continuous
100
AcDbLine
 10
116.7456560275816
 20
89.39642347356565
 30
0.0
 11
116.7456560275816
 21
90.73642347356562
 31
0.0
  0
LINE
  5
24C
330
70
100
AcDbEntity
  8
0
  6
Continuous
100
AcDbLine
 10
116.7456560275816
 20
103.3164234735656
 30
0.0
 11
116.7456560275816
 21
103.5964234735656
 31
0.0
  0
LINE
  5
24D
330
70
100
AcDbEntity
  8
0
  6
Continuous
100
AcDbLine
 10
81.51965602758165
 20
104.3964234735656
 30
0.0
 11
81.51965602758165
 21
103.4164234735656
 31
0.0
  0
LINE
  5
24E
330
70
100
AcDbEntity
  8
0
  6
Continuous
100
AcDbLine
 10
97.63965602758165
 20
85.17242347356562
 30
0.0
 11
98.32065602758175
 21
86.21842347356563
 31
0.0
  0
LINE
  5
24F
330
70
100
AcDbEntity
  8
0
  6
Continuous
100
AcDbLine
 10
90.43965602758166
 20
104.3964234735656
 30
0.0
 11
82.34265602758165
 21
104.3964234735656
 31
0.0
  0
LINE
  5
250
330
70
100
AcDbEntity
  8
0
  6
Continuous
100
AcDbLine
 10
98.86165602758163
 20
86.76842347356563
 30
0.0
 11
99.64465602758165
 21
87.46842347356562
 31
0.0
  0
LINE
  5
251
330
70
100
AcDbEntity
  8
0
  6
Continuous
100
AcDbLine
 10
81.51965602758165
 20
103.4164234735656
 30
0.0
 11
81.51965602758165
 21
96.26942347356564
 31
0.0
  0
LINE
  5
252
330
70
100
AcDbEntity
  8
0
  6
Continuous
100
AcDbLine
 10
96.98965602758164
 20
83.65442347356562
 30
0.0
 11
97.63965602758165
 21
85.17242347356562
 31
0.0
  0
LINE
  5
253
330
70
100
AcDbEntity
  8
0
  6
Continuous
100
AcDbLine
 10
97.22565602758164
 20
104.3964234735656
 30
0.0
 11
90.43965602758166
 21
104.3964234735656
 31
0.0
  0
LINE
  5
254
330
70
100
AcDbEntity
  8
0
  6
Continuous
100
AcDbLine
 10
99.64465602758165
 20
87.46842347356562
 30
0.0
 11
102.0986560275816
 21
88.80842347356562
 31
0.0
  0
LINE
  5
255
330
70
100
AcDbEntity
  8
0
  6
Continuous
100
AcDbLine
 10
106.6476560275816
 20
104.3964234735656
 30
0.0
 11
97.22565602758164
 21
104.3964234735656
 31
0.0
  0
LINE
  5
256
330
70
100
AcDbEntity
  8
0
  6
Continuous
100
AcDbLine
 10
102.0986560275816
 20
88.80842347356562
 30
0.0
 11
106.6476560275816
 21
89.39642347356565
 31
0.0
  0
LINE
  5
257
330
70
100
AcDbEntity
  8
0
  6
Continuous
100
AcDbLine
 10
81.51965602758165
 20
96.26942347356564
 30
0.0
 11
81.51965602758165
 21
90.32742347356563
 31
0.0
  0
LINE
  5
258
330
70
100
AcDbEntity
  8
0
  6
Continuous
100
AcDbLine
 10
96.76765602758166
 20
82.23342347356563
 30
0.0
 11
96.98965602758164
 21
83.65442347356562
 31
0.0
  0
LINE
  5
259
330
70
100
AcDbEntity
  8
0
  6
Continuous
100
AcDbLine
 10
81.51965602758165
 20
90.32742347356563
 30
0.0
 11
81.51965602758165
 21
64.49842347356564
 31
0.0
  0
LINE
  5
25A
330
70
100
AcDbEntity
  8
0
  6
Continuous
100
AcDbLine
 10
82.34265602758165
 20
104.3964234735656
 30
0.0
 11
81.51965602758165
 21
104.3964234735656
 31
0.0
  0
LINE
  5
25B
330
70
100
AcDbEntity
  8
0
  6
Continuous
100
AcDbLine
 10
98.32065602758175
 20
86.21842347356563
 30
0.0
 11
98.86165602758163
 21
86.76842347356563
 31
0.0
  0
LINE
  5
25C
330
70
100
AcDbEntity
  8
0
  6
Continuous
100
AcDbLine
 10
116.4476560275817
 20
104.3964234735656
 30
0.0
 11
106.6476560275816
 21
104.3964234735656
 31
0.0
  0
LINE
  5
25D
330
70
100
AcDbEntity
  8
0
  6
Continuous
100
AcDbLine
 10
106.6476560275816
 20
89.39642347356565
 30
0.0
 11
116.4476560275817
 21
89.39642347356565
 31
0.0
  0
LINE
  5
25E
330
70
100
AcDbEntity
  8
0
  6
Continuous
100
AcDbLine
 10
116.7456560275816
 20
34.60042347356564
 30
0.0
 11
116.7456560275816
 21
38.26042347356564
 31
0.0
  0
LINE
  5
25F
330
70
100
AcDbEntity
  8
0
  6
Continuous
100
AcDbLine
 10
116.7456560275816
 20
24.60042347356564
 30
0.0
 11
116.7456560275816
 21
24.85442347356564
 31
0.0
  0
LINE
  5
260
330
70
100
AcDbEntity
  8
0
  6
Continuous
100
AcDbLine
 10
116.7456560275816
 20
29.60042347356564
 30
0.0
 11
116.7456560275816
 21
34.60042347356564
 31
0.0
  0
LINE
  5
261
330
70
100
AcDbEntity
  8
0
  6
Continuous
100
AcDbLine
 10
116.7456560275816
 20
24.85442347356564
 30
0.0
 11
116.7456560275816
 21
25.40042347356564
 31
0.0
  0
LINE
  5
262
330
70
100
AcDbEntity
  8
0
  6
Continuous
100
AcDbLine
 10
116.7456560275816
 20
38.26042347356564
 30
0.0
 11
116.7456560275816
 21
39.60042347356564
 31
0.0
  0
LINE
  5
263
330
70
100
AcDbEntity
  8
0
  6
Continuous
100
AcDbLine
 10
116.7456560275816
 20
39.60042347356564
 30
0.0
 11
116.5166560275816
 21
39.60042347356564
 31
0.0
  0
LINE
  5
264
330
70
100
AcDbEntity
  8
0
  6
Continuous
100
AcDbLine
 10
116.7456560275816
 20
25.40042347356564
 30
0.0
 11
116.7456560275816
 21
25.68142347356563
 31
0.0
  0
LINE
  5
265
330
70
100
AcDbEntity
  8
0
  6
Continuous
100
AcDbLine
 10
98.32065602758175
 20
42.77842347356563
 30
0.0
 11
97.63965602758165
 21
43.82442347356563
 31
0.0
  0
LINE
  5
266
330
70
100
AcDbEntity
  8
0
  6
Continuous
100
AcDbLine
 10
99.64465602758165
 20
41.52842347356563
 30
0.0
 11
98.86165602758163
 21
42.22842347356563
 31
0.0
  0
LINE
  5
267
330
70
100
AcDbEntity
  8
0
  6
Continuous
100
AcDbLine
 10
97.63965602758165
 20
43.82442347356563
 30
0.0
 11
96.98965602758164
 21
45.34242347356562
 31
0.0
  0
LINE
  5
268
330
70
100
AcDbEntity
  8
0
  6
Continuous
100
AcDbLine
 10
102.0986560275816
 20
40.18942347356563
 30
0.0
 11
99.64465602758165
 21
41.52842347356563
 31
0.0
  0
LINE
  5
269
330
70
100
AcDbEntity
  8
0
  6
Continuous
100
AcDbLine
 10
106.6476560275816
 20
39.60042347356564
 30
0.0
 11
102.0986560275816
 21
40.18942347356563
 31
0.0
  0
LINE
  5
26A
330
70
100
AcDbEntity
  8
0
  6
Continuous
100
AcDbLine
 10
81.51965602758165
 20
38.66942347356564
 30
0.0
 11
82.07379607134544
 21
24.60042347356564
 31
0.0
  0
LINE
  5
26B
330
70
100
AcDbEntity
  8
0
  6
Continuous
100
AcDbLine
 10
96.98965602758164
 20
45.34242347356562
 30
0.0
 11
96.76765602758166
 21
46.76342347356563
 31
0.0
  0
LINE
  5
26C
330
70
100
AcDbEntity
  8
0
  6
Continuous
100
AcDbLine
 10
98.86165602758163
 20
42.22842347356563
 30
0.0
 11
98.32065602758175
 21
42.77842347356563
 31
0.0
  0
LINE
  5
26D
330
70
100
AcDbEntity
  8
0
  6
Continuous
100
AcDbLine
 10
116.5166560275816
 20
39.60042347356564
 30
0.0
 11
106.6476560275816
 21
39.60042347356564
 31
0.0
  0
LINE
  5
26E
330
70
100
AcDbEntity
  8
0
  6
Continuous
100
AcDbLine
 10
116.7456560275816
 20
39.60042347356564
 30
0.0
 11
116.7456560275816
 21
38.26042347356564
 31
0.0
  0
LINE
  5
26F
330
70
100
AcDbEntity
  8
0
  6
Continuous
100
AcDbLine
 10
116.7916560275816
 20
39.60042347356564
 30
0.0
 11
116.7456560275816
 21
39.60042347356564
 31
0.0
  0
LINE
  5
270
330
70
100
AcDbEntity
  8
0
  6
Continuous
100
AcDbLine
 10
116.7456560275816
 20
38.26042347356564
 30
0.0
 11
116.7456560275816
 21
34.60042347356564
 31
0.0
  0
LINE
  5
271
330
70
100
AcDbEntity
  8
0
  6
Continuous
100
AcDbLine
 10
116.7456560275816
 20
25.82042347356563
 30
0.0
 11
116.7456560275816
 21
25.40042347356564
 31
0.0
  0
LINE
  5
272
330
70
100
AcDbEntity
  8
0
  6
Continuous
100
AcDbLine
 10
116.7456560275816
 20
24.85442347356564
 30
0.0
 11
116.7456560275816
 21
24.60042347356564
 31
0.0
  0
LINE
  5
273
330
70
100
AcDbEntity
  8
0
  6
Continuous
100
AcDbLine
 10
116.7456560275816
 20
34.60042347356564
 30
0.0
 11
116.7456560275816
 21
29.60042347356564
 31
0.0
  0
LINE
  5
274
330
70
100
AcDbEntity
  8
0
  6
Continuous
100
AcDbLine
 10
116.7456560275816
 20
25.40042347356564
 30
0.0
 11
116.7456560275816
 21
24.85442347356564
 31
0.0
  0
LINE
  5
275
330
70
100
AcDbEntity
  8
0
  6
Continuous
100
AcDbLine
 10
116.7456560275816
 20
29.60042347356564
 30
0.0
 11
116.7456560275816
 21
25.82042347356563
 31
0.0
  0
LINE
  5
276
330
70
100
AcDbEntity
  8
0
  6
Continuous
100
AcDbLine
 10
117.7526560275816
 20
38.26042347356564
 30
0.0
 11
117.7526560275816
 21
39.60042347356564
 31
0.0
  0
LINE
  5
277
330
70
100
AcDbEntity
  8
0
  6
Continuous
100
AcDbLine
 10
117.7526560275816
 20
39.60042347356564
 30
0.0
 11
117.7066560275816
 21
39.60042347356564
 31
0.0
  0
LINE
  5
278
330
70
100
AcDbEntity
  8
0
  6
Continuous
100
AcDbLine
 10
117.7066560275816
 20
39.60042347356564
 30
0.0
 11
116.7916560275816
 21
39.60042347356564
 31
0.0
  0
LINE
  5
279
330
70
100
AcDbEntity
  8
0
  6
Continuous
100
AcDbLine
 10
117.7526560275816
 20
34.60042347356564
 30
0.0
 11
117.7526560275816
 21
38.26042347356564
 31
0.0
  0
LINE
  5
27A
330
70
100
AcDbEntity
  8
0
  6
Continuous
100
AcDbLine
 10
117.7526560275816
 20
25.40042347356564
 30
0.0
 11
117.7526560275816
 21
25.82042347356563
 31
0.0
  0
LINE
  5
27B
330
70
100
AcDbEntity
  8
0
  6
Continuous
100
AcDbLine
 10
117.7526560275816
 20
24.60042347356564
 30
0.0
 11
117.7526560275816
 21
24.85442347356564
 31
0.0
  0
LINE
  5
27C
330
70
100
AcDbEntity
  8
0
  6
Continuous
100
AcDbLine
 10
117.7526560275816
 20
29.60042347356564
 30
0.0
 11
117.7526560275816
 21
34.60042347356564
 31
0.0
  0
LINE
  5
27D
330
70
100
AcDbEntity
  8
0
  6
Continuous
100
AcDbLine
 10
117.7526560275816
 20
24.85442347356564
 30
0.0
 11
117.7526560275816
 21
25.40042347356564
 31
0.0
  0
LINE
  5
27E
330
70
100
AcDbEntity
  8
0
  6
Continuous
100
AcDbLine
 10
117.7526560275816
 20
25.82042347356563
 30
0.0
 11
117.7526560275816
 21
29.60042347356564
 31
0.0
  0
LINE
  5
27F
330
70
100
AcDbEntity
  8
0
  6
Continuous
100
AcDbLine
 10
116.7456560275816
 20
89.39642347356565
 30
0.0
 11
116.7916560275816
 21
89.39642347356565
 31
0.0
  0
LINE
  5
280
330
70
100
AcDbEntity
  8
0
  6
Continuous
100
AcDbLine
 10
116.7456560275816
 20
90.73642347356562
 30
0.0
 11
116.7456560275816
 21
89.39642347356565
 31
0.0
  0
LINE
  5
281
330
70
100
AcDbEntity
  8
0
  6
Continuous
100
AcDbLine
 10
116.7456560275816
 20
94.39642347356564
 30
0.0
 11
116.7456560275816
 21
90.73642347356562
 31
0.0
  0
LINE
  5
282
330
70
100
AcDbEntity
  8
0
  6
Continuous
100
AcDbLine
 10
116.7456560275816
 20
103.5964234735656
 30
0.0
 11
116.7456560275816
 21
103.1764234735656
 31
0.0
  0
LINE
  5
283
330
70
100
AcDbEntity
  8
0
  6
Continuous
100
AcDbLine
 10
116.7456560275816
 20
104.3964234735656
 30
0.0
 11
116.7456560275816
 21
104.1434234735656
 31
0.0
  0
LINE
  5
284
330
70
100
AcDbEntity
  8
0
  6
Continuous
100
AcDbLine
 10
116.7456560275816
 20
99.39642347356562
 30
0.0
 11
116.7456560275816
 21
94.39642347356564
 31
0.0
  0
LINE
  5
285
330
70
100
AcDbEntity
  8
0
  6
Continuous
100
AcDbLine
 10
116.7456560275816
 20
104.1434234735656
 30
0.0
 11
116.7456560275816
 21
103.5964234735656
 31
0.0
  0
LINE
  5
286
330
70
100
AcDbEntity
  8
0
  6
Continuous
100
AcDbLine
 10
117.7526560275816
 20
104.3964234735656
 30
0.0
 11
117.7066560275816
 21
104.3964234735656
 31
0.0
  0
LINE
  5
287
330
70
100
AcDbEntity
  8
0
  6
Continuous
100
AcDbLine
 10
116.7456560275816
 20
103.1764234735656
 30
0.0
 11
116.7456560275816
 21
99.39642347356562
 31
0.0
  0
LINE
  5
288
330
70
100
AcDbEntity
  8
0
  6
Continuous
100
AcDbLine
 10
117.7066560275816
 20
89.39642347356565
 30
0.0
 11
117.7526560275816
 21
89.39642347356565
 31
0.0
  0
LINE
  5
289
330
70
100
AcDbEntity
  8
0
  6
Continuous
100
AcDbLine
 10
117.7526560275816
 20
89.39642347356565
 30
0.0
 11
117.7526560275816
 21
90.73642347356562
 31
0.0
  0
LINE
  5
28A
330
70
100
AcDbEntity
  8
0
  6
Continuous
100
AcDbLine
 10
116.7916560275816
 20
89.39642347356565
 30
0.0
 11
117.7066560275816
 21
89.39642347356565
 31
0.0
  0
LINE
  5
28B
330
70
100
AcDbEntity
  8
0
  6
Continuous
100
AcDbLine
 10
117.7526560275816
 20
90.73642347356562
 30
0.0
 11
117.7526560275816
 21
94.39642347356564
 31
0.0
  0
LINE
  5
28C
330
70
100
AcDbEntity
  8
0
  6
Continuous
100
AcDbLine
 10
117.7526560275816
 20
103.1764234735656
 30
0.0
 11
117.7526560275816
 21
103.5964234735656
 31
0.0
  0
LINE
  5
28D
330
70
100
AcDbEntity
  8
0
  6
Continuous
100
AcDbLine
 10
117.7526560275816
 20
104.1434234735656
 30
0.0
 11
117.7526560275816
 21
104.3964234735656
 31
0.0
  0
LINE
  5
28E
330
70
100
AcDbEntity
  8
0
  6
Continuous
100
AcDbLine
 10
117.7526560275816
 20
94.39642347356564
 30
0.0
 11
117.7526560275816
 21
99.39642347356562
 31
0.0
  0
LINE
  5
28F
330
70
100
AcDbEntity
  8
0
  6
Continuous
100
AcDbLine
 10
117.7526560275816
 20
103.5964234735656
 30
0.0
 11
117.7526560275816
 21
104.1434234735656
 31
0.0
  0
LINE
  5
290
330
70
100
AcDbEntity
  8
0
  6
Continuous
100
AcDbLine
 10
116.7916560275816
 20
104.3964234735656
 30
0.0
 11
116.7456560275816
 21
104.3964234735656
 31
0.0
  0
LINE
  5
291
330
70
100
AcDbEntity
  8
0
  6
Continuous
100
AcDbLine
 10
117.7066560275816
 20
104.3964234735656
 30
0.0
 11
116.7916560275816
 21
104.3964234735656
 31
0.0
  0
LINE
  5
292
330
70
100
AcDbEntity
  8
0
  6
Continuous
100
AcDbLine
 10
117.7526560275816
 20
99.39642347356562
 30
0.0
 11
117.7526560275816
 21
103.1764234735656
 31
0.0
  0
LINE
  5
293
330
70
100
AcDbEntity
  8
0
  6
Continuous
100
AcDbLine
 10
420.2936560275817
 20
39.60042347356564
 30
0.0
 11
420.2476560275816
 21
39.60042347356564
 31
0.0
  0
LINE
  5
294
330
70
100
AcDbEntity
  8
0
  6
Continuous
100
AcDbLine
 10
420.2936560275817
 20
38.26042347356564
 30
0.0
 11
420.2936560275817
 21
39.60042347356564
 31
0.0
  0
LINE
  5
295
330
70
100
AcDbEntity
  8
0
  6
Continuous
100
AcDbLine
 10
420.2936560275817
 20
34.60042347356564
 30
0.0
 11
420.2936560275817
 21
38.26042347356564
 31
0.0
  0
LINE
  5
296
330
70
100
AcDbEntity
  8
0
  6
Continuous
100
AcDbLine
 10
420.2936560275817
 20
25.40042347356564
 30
0.0
 11
420.2936560275817
 21
25.82042347356563
 31
0.0
  0
LINE
  5
297
330
70
100
AcDbEntity
  8
0
  6
Continuous
100
AcDbLine
 10
420.2936560275817
 20
24.60042347356564
 30
0.0
 11
420.2936560275817
 21
24.85442347356564
 31
0.0
  0
LINE
  5
298
330
70
100
AcDbEntity
  8
0
  6
Continuous
100
AcDbLine
 10
420.2936560275817
 20
29.60042347356564
 30
0.0
 11
420.2936560275817
 21
34.60042347356564
 31
0.0
  0
LINE
  5
299
330
70
100
AcDbEntity
  8
0
  6
Continuous
100
AcDbLine
 10
420.2936560275817
 20
24.85442347356564
 30
0.0
 11
420.2936560275817
 21
25.40042347356564
 31
0.0
  0
LINE
  5
29A
330
70
100
AcDbEntity
  8
0
  6
Continuous
100
AcDbLine
 10
420.2936560275817
 20
25.82042347356563
 30
0.0
 11
420.2936560275817
 21
29.60042347356564
 31
0.0
  0
LINE
  5
29B
330
70
100
AcDbEntity
  8
0
  6
Continuous
100
AcDbLine
 10
419.3326560275817
 20
39.60042347356564
 30
0.0
 11
419.2866560275817
 21
39.60042347356564
 31
0.0
  0
LINE
  5
29C
330
70
100
AcDbEntity
  8
0
  6
Continuous
100
AcDbLine
 10
419.2866560275817
 20
39.60042347356564
 30
0.0
 11
419.2866560275817
 21
38.26042347356564
 31
0.0
  0
LINE
  5
29D
330
70
100
AcDbEntity
  8
0
  6
Continuous
100
AcDbLine
 10
420.2476560275816
 20
39.60042347356564
 30
0.0
 11
419.3326560275817
 21
39.60042347356564
 31
0.0
  0
LINE
  5
29E
330
70
100
AcDbEntity
  8
0
  6
Continuous
100
AcDbLine
 10
419.2866560275817
 20
38.26042347356564
 30
0.0
 11
419.2866560275817
 21
34.60042347356564
 31
0.0
  0
LINE
  5
29F
330
70
100
AcDbEntity
  8
0
  6
Continuous
100
AcDbLine
 10
419.2866560275817
 20
25.82042347356563
 30
0.0
 11
419.2866560275817
 21
25.40042347356564
 31
0.0
  0
LINE
  5
2A0
330
70
100
AcDbEntity
  8
0
  6
Continuous
100
AcDbLine
 10
419.2866560275817
 20
24.85442347356564
 30
0.0
 11
419.2866560275817
 21
24.60042347356564
 31
0.0
  0
LINE
  5
2A1
330
70
100
AcDbEntity
  8
0
  6
Continuous
100
AcDbLine
 10
419.2866560275817
 20
34.60042347356564
 30
0.0
 11
419.2866560275817
 21
29.60042347356564
 31
0.0
  0
LINE
  5
2A2
330
70
100
AcDbEntity
  8
0
  6
Continuous
100
AcDbLine
 10
419.2866560275817
 20
25.40042347356564
 30
0.0
 11
419.2866560275817
 21
24.85442347356564
 31
0.0
  0
LINE
  5
2A3
330
70
100
AcDbEntity
  8
0
  6
Continuous
100
AcDbLine
 10
419.2866560275817
 20
29.60042347356564
 30
0.0
 11
419.2866560275817
 21
25.82042347356563
 31
0.0
  0
LINE
  5
2A4
330
70
100
AcDbEntity
  8
0
  6
Continuous
100
AcDbLine
 10
420.2936560275817
 20
89.39642347356565
 30
0.0
 11
420.2936560275817
 21
90.73642347356562
 31
0.0
  0
LINE
  5
2A5
330
70
100
AcDbEntity
  8
0
  6
Continuous
100
AcDbLine
 10
420.2476560275816
 20
89.39642347356565
 30
0.0
 11
420.2936560275817
 21
89.39642347356565
 31
0.0
  0
LINE
  5
2A6
330
70
100
AcDbEntity
  8
0
  6
Continuous
100
AcDbLine
 10
420.2936560275817
 20
90.73642347356562
 30
0.0
 11
420.2936560275817
 21
94.39642347356564
 31
0.0
  0
LINE
  5
2A7
330
70
100
AcDbEntity
  8
0
  6
Continuous
100
AcDbLine
 10
420.2936560275817
 20
103.1764234735656
 30
0.0
 11
420.2936560275817
 21
103.5964234735656
 31
0.0
  0
LINE
  5
2A8
330
70
100
AcDbEntity
  8
0
  6
Continuous
100
AcDbLine
 10
420.2936560275817
 20
104.1434234735656
 30
0.0
 11
420.2936560275817
 21
104.3964234735656
 31
0.0
  0
LINE
  5
2A9
330
70
100
AcDbEntity
  8
0
  6
Continuous
100
AcDbLine
 10
420.2936560275817
 20
94.39642347356564
 30
0.0
 11
420.2936560275817
 21
99.39642347356562
 31
0.0
  0
LINE
  5
2AA
330
70
100
AcDbEntity
  8
0
  6
Continuous
100
AcDbLine
 10
420.2936560275817
 20
103.5964234735656
 30
0.0
 11
420.2936560275817
 21
104.1434234735656
 31
0.0
  0
LINE
  5
2AB
330
70
100
AcDbEntity
  8
0
  6
Continuous
100
AcDbLine
 10
419.3326560275817
 20
104.3964234735656
 30
0.0
 11
419.2866560275817
 21
104.3964234735656
 31
0.0
  0
LINE
  5
2AC
330
70
100
AcDbEntity
  8
0
  6
Continuous
100
AcDbLine
 10
420.2936560275817
 20
99.39642347356562
 30
0.0
 11
420.2936560275817
 21
103.1764234735656
 31
0.0
  0
LINE
  5
2AD
330
70
100
AcDbEntity
  8
0
  6
Continuous
100
AcDbLine
 10
419.2866560275817
 20
90.73642347356562
 30
0.0
 11
419.2866560275817
 21
89.39642347356565
 31
0.0
  0
LINE
  5
2AE
330
70
100
AcDbEntity
  8
0
  6
Continuous
100
AcDbLine
 10
419.2866560275817
 20
89.39642347356565
 30
0.0
 11
419.3326560275817
 21
89.39642347356565
 31
0.0
  0
LINE
  5
2AF
330
70
100
AcDbEntity
  8
0
  6
Continuous
100
AcDbLine
 10
419.3326560275817
 20
89.39642347356565
 30
0.0
 11
420.2476560275816
 21
89.39642347356565
 31
0.0
  0
LINE
  5
2B0
330
70
100
AcDbEntity
  8
0
  6
Continuous
100
AcDbLine
 10
419.2866560275817
 20
94.39642347356564
 30
0.0
 11
419.2866560275817
 21
90.73642347356562
 31
0.0
  0
LINE
  5
2B1
330
70
100
AcDbEntity
  8
0
  6
Continuous
100
AcDbLine
 10
419.2866560275817
 20
103.5964234735656
 30
0.0
 11
419.2866560275817
 21
103.1764234735656
 31
0.0
  0
LINE
  5
2B2
330
70
100
AcDbEntity
  8
0
  6
Continuous
100
AcDbLine
 10
419.2866560275817
 20
104.3964234735656
 30
0.0
 11
419.2866560275817
 21
104.1434234735656
 31
0.0
  0
LINE
  5
2B3
330
70
100
AcDbEntity
  8
0
  6
Continuous
100
AcDbLine
 10
419.2866560275817
 20
99.39642347356562
 30
0.0
 11
419.2866560275817
 21
94.39642347356564
 31
0.0
  0
LINE
  5
2B4
330
70
100
AcDbEntity
  8
0
  6
Continuous
100
AcDbLine
 10
419.2866560275817
 20
104.1434234735656
 30
0.0
 11
419.2866560275817
 21
103.5964234735656
 31
0.0
  0
LINE
  5
2B5
330
70
100
AcDbEntity
  8
0
  6
Continuous
100
AcDbLine
 10
420.2936560275817
 20
104.3964234735656
 30
0.0
 11
420.2476560275816
 21
104.3964234735656
 31
0.0
  0
LINE
  5
2B6
330
70
100
AcDbEntity
  8
0
  6
Continuous
100
AcDbLine
 10
420.2476560275816
 20
104.3964234735656
 30
0.0
 11
419.3326560275817
 21
104.3964234735656
 31
0.0
  0
LINE
  5
2B7
330
70
100
AcDbEntity
  8
0
  6
Continuous
100
AcDbLine
 10
419.2866560275817
 20
103.1764234735656
 30
0.0
 11
419.2866560275817
 21
99.39642347356562
 31
0.0
  0
LINE
  5
2B8
330
70
100
AcDbEntity
  8
0
  6
Continuous
100
AcDbLine
 10
739.2866560275816
 20
103.1764234735656
 30
0.0
 11
739.2866560275816
 21
103.5964234735656
 31
0.0
  0
LINE
  5
2B9
330
70
100
AcDbEntity
  8
0
  6
Continuous
100
AcDbLine
 10
739.2866560275816
 20
104.1434234735656
 30
0.0
 11
739.2866560275816
 21
104.3964234735656
 31
0.0
  0
LINE
  5
2BA
330
70
100
AcDbEntity
  8
0
  6
Continuous
100
AcDbLine
 10
268.5196560275816
 20
89.39642347356565
 30
0.0
 11
739.0056560275817
 21
89.39642347356565
 31
0.0
  0
LINE
  5
2BB
330
70
100
AcDbEntity
  8
0
  6
Continuous
100
AcDbLine
 10
739.2866560275816
 20
103.5964234735656
 30
0.0
 11
739.2866560275816
 21
104.1434234735656
 31
0.0
  0
LINE
  5
2BC
330
70
100
AcDbEntity
  8
0
  6
Continuous
100
AcDbLine
 10
739.2866560275816
 20
90.73642347356562
 30
0.0
 11
739.2866560275816
 21
94.39642347356564
 31
0.0
  0
LINE
  5
2BD
330
70
100
AcDbEntity
  8
0
  6
Continuous
100
AcDbLine
 10
739.2866560275816
 20
104.3964234735656
 30
0.0
 11
739.0056560275817
 21
104.3964234735656
 31
0.0
  0
LINE
  5
2BE
330
70
100
AcDbEntity
  8
0
  6
Continuous
100
AcDbLine
 10
739.2866560275816
 20
89.39642347356565
 30
0.0
 11
739.2866560275816
 21
90.73642347356562
 31
0.0
  0
LINE
  5
2BF
330
70
100
AcDbEntity
  8
0
  6
Continuous
100
AcDbLine
 10
739.0056560275817
 20
89.39642347356565
 30
0.0
 11
739.2866560275816
 21
89.39642347356565
 31
0.0
  0
LINE
  5
2C0
330
70
100
AcDbEntity
  8
0
  6
Continuous
100
AcDbLine
 10
739.2866560275816
 20
99.39642347356562
 30
0.0
 11
739.2866560275816
 21
103.1764234735656
 31
0.0
  0
LINE
  5
2C1
330
70
100
AcDbEntity
  8
0
  6
Continuous
100
AcDbLine
 10
739.2866560275816
 20
94.39642347356564
 30
0.0
 11
739.2866560275816
 21
99.39642347356562
 31
0.0
  0
LINE
  5
2C2
330
70
100
AcDbEntity
  8
0
  6
Continuous
100
AcDbLine
 10
117.7526560275816
 20
103.5964234735656
 30
0.0
 11
117.7526560275816
 21
103.1764234735656
 31
0.0
  0
LINE
  5
2C3
330
70
100
AcDbEntity
  8
0
  6
Continuous
100
AcDbLine
 10
698.0246560275816
 20
104.3964234735656
 30
0.0
 11
118.0336560275816
 21
104.3964234735656
 31
0.0
  0
LINE
  5
2C4
330
70
100
AcDbEntity
  8
0
  6
Continuous
100
AcDbLine
 10
117.7526560275816
 20
104.3964234735656
 30
0.0
 11
117.7526560275816
 21
104.1434234735656
 31
0.0
  0
LINE
  5
2C5
330
70
100
AcDbEntity
  8
0
  6
Continuous
100
AcDbLine
 10
118.0336560275816
 20
89.39642347356565
 30
0.0
 11
268.5196560275816
 21
89.39642347356565
 31
0.0
  0
LINE
  5
2C6
330
70
100
AcDbEntity
  8
0
  6
Continuous
100
AcDbLine
 10
117.7526560275816
 20
104.1434234735656
 30
0.0
 11
117.7526560275816
 21
103.5964234735656
 31
0.0
  0
LINE
  5
2C7
330
70
100
AcDbEntity
  8
0
  6
Continuous
100
AcDbLine
 10
117.7526560275816
 20
94.39642347356564
 30
0.0
 11
117.7526560275816
 21
90.73642347356562
 31
0.0
  0
LINE
  5
2C8
330
70
100
AcDbEntity
  8
0
  6
Continuous
100
AcDbLine
 10
118.0336560275816
 20
104.3964234735656
 30
0.0
 11
117.7526560275816
 21
104.3964234735656
 31
0.0
  0
LINE
  5
2C9
330
70
100
AcDbEntity
  8
0
  6
Continuous
100
AcDbLine
 10
117.7526560275816
 20
89.39642347356565
 30
0.0
 11
118.0336560275816
 21
89.39642347356565
 31
0.0
  0
LINE
  5
2CA
330
70
100
AcDbEntity
  8
0
  6
Continuous
100
AcDbLine
 10
117.7526560275816
 20
90.73642347356562
 30
0.0
 11
117.7526560275816
 21
89.39642347356565
 31
0.0
  0
LINE
  5
2CB
330
70
100
AcDbEntity
  8
0
  6
Continuous
100
AcDbLine
 10
117.7526560275816
 20
103.1764234735656
 30
0.0
 11
117.7526560275816
 21
99.39642347356562
 31
0.0
  0
LINE
  5
2CC
330
70
100
AcDbEntity
  8
0
  6
Continuous
100
AcDbLine
 10
117.7526560275816
 20
99.39642347356562
 30
0.0
 11
117.7526560275816
 21
94.39642347356564
 31
0.0
  0
LINE
  5
2CD
330
70
100
AcDbEntity
  8
0
  6
Continuous
100
AcDbLine
 10
739.2866560275816
 20
25.40042347356564
 30
0.0
 11
739.2866560275816
 21
25.82042347356563
 31
0.0
  0
LINE
  5
2CE
330
70
100
AcDbEntity
  8
0
  6
Continuous
100
AcDbLine
 10
739.2866560275816
 20
24.60042347356564
 30
0.0
 11
739.2866560275816
 21
24.85442347356564
 31
0.0
  0
LINE
  5
2CF
330
70
100
AcDbEntity
  8
0
  6
Continuous
100
AcDbLine
 10
739.0056560275817
 20
39.60042347356564
 30
0.0
 11
268.5196560275816
 21
39.60042347356564
 31
0.0
  0
LINE
  5
2D0
330
70
100
AcDbEntity
  8
0
  6
Continuous
100
AcDbLine
 10
739.2866560275816
 20
24.85442347356564
 30
0.0
 11
739.2866560275816
 21
25.40042347356564
 31
0.0
  0
LINE
  5
2D1
330
70
100
AcDbEntity
  8
0
  6
Continuous
100
AcDbLine
 10
739.2866560275816
 20
34.60042347356564
 30
0.0
 11
739.2866560275816
 21
38.26042347356564
 31
0.0
  0
LINE
  5
2D2
330
70
100
AcDbEntity
  8
0
  6
Continuous
100
AcDbLine
 10
739.2866560275816
 20
39.60042347356564
 30
0.0
 11
739.0056560275817
 21
39.60042347356564
 31
0.0
  0
LINE
  5
2D3
330
70
100
AcDbEntity
  8
0
  6
Continuous
100
AcDbLine
 10
739.2866560275816
 20
38.26042347356564
 30
0.0
 11
739.2866560275816
 21
39.60042347356564
 31
0.0
  0
LINE
  5
2D4
330
70
100
AcDbEntity
  8
0
  6
Continuous
100
AcDbLine
 10
739.2866560275816
 20
25.82042347356563
 30
0.0
 11
739.2866560275816
 21
29.60042347356564
 31
0.0
  0
LINE
  5
2D5
330
70
100
AcDbEntity
  8
0
  6
Continuous
100
AcDbLine
 10
739.2866560275816
 20
29.60042347356564
 30
0.0
 11
739.2866560275816
 21
34.60042347356564
 31
0.0
  0
LINE
  5
2D6
330
70
100
AcDbEntity
  8
0
  6
Continuous
100
AcDbLine
 10
117.7526560275816
 20
25.82042347356563
 30
0.0
 11
117.7526560275816
 21
25.40042347356564
 31
0.0
  0
LINE
  5
2D7
330
70
100
AcDbEntity
  8
0
  6
Continuous
100
AcDbLine
 10
117.7526560275816
 20
24.85442347356564
 30
0.0
 11
117.7526560275816
 21
24.60042347356564
 31
0.0
  0
LINE
  5
2D8
330
70
100
AcDbEntity
  8
0
  6
Continuous
100
AcDbLine
 10
268.5196560275816
 20
39.60042347356564
 30
0.0
 11
118.0336560275816
 21
39.60042347356564
 31
0.0
  0
LINE
  5
2D9
330
70
100
AcDbEntity
  8
0
  6
Continuous
100
AcDbLine
 10
117.7526560275816
 20
25.40042347356564
 30
0.0
 11
117.7526560275816
 21
24.85442347356564
 31
0.0
  0
LINE
  5
2DA
330
70
100
AcDbEntity
  8
0
  6
Continuous
100
AcDbLine
 10
117.7526560275816
 20
38.26042347356564
 30
0.0
 11
117.7526560275816
 21
34.60042347356564
 31
0.0
  0
LINE
  5
2DB
330
70
100
AcDbEntity
  8
0
  6
Continuous
100
AcDbLine
 10
117.7526560275816
 20
39.60042347356564
 30
0.0
 11
117.7526560275816
 21
38.26042347356564
 31
0.0
  0
LINE
  5
2DC
330
70
100
AcDbEntity
  8
0
  6
Continuous
100
AcDbLine
 10
118.0336560275816
 20
39.60042347356564
 30
0.0
 11
117.7526560275816
 21
39.60042347356564
 31
0.0
  0
LINE
  5
2DD
330
70
100
AcDbEntity
  8
0
  6
Continuous
100
AcDbLine
 10
117.7526560275816
 20
29.60042347356564
 30
0.0
 11
117.7526560275816
 21
25.82042347356563
 31
0.0
  0
LINE
  5
2DE
330
70
100
AcDbEntity
  8
0
  6
Continuous
100
AcDbLine
 10
117.7526560275816
 20
34.60042347356564
 30
0.0
 11
117.7526560275816
 21
29.60042347356564
 31
0.0
  0
LINE
  5
2DF
330
70
100
AcDbEntity
  8
0
  6
Continuous
100
AcDbLine
 10
159.0146560275816
 20
105.1744234735656
 30
0.0
 11
159.0146560275816
 21
108.0264234735656
 31
0.0
  0
LINE
  5
2E0
330
70
100
AcDbEntity
  8
0
  6
Continuous
100
AcDbLine
 10
157.6816560275816
 20
108.6004234735657
 30
0.0
 11
82.85265602758164
 21
108.6004234735657
 31
0.0
  0
LINE
  5
2E1
330
70
100
AcDbEntity
  8
0
  6
Continuous
100
AcDbLine
 10
159.0146560275816
 20
108.6004234735657
 30
0.0
 11
157.6816560275816
 21
108.6004234735657
 31
0.0
  0
LINE
  5
2E2
330
70
100
AcDbEntity
  8
0
  6
Continuous
100
AcDbLine
 10
159.0146560275816
 20
108.0264234735656
 30
0.0
 11
159.0146560275816
 21
108.6004234735657
 31
0.0
  0
LINE
  5
2E3
330
70
100
AcDbEntity
  8
0
  6
Continuous
100
AcDbLine
 10
82.85265602758164
 20
104.6004234735656
 30
0.0
 11
157.6816560275816
 21
104.6004234735656
 31
0.0
  0
LINE
  5
2E4
330
70
100
AcDbEntity
  8
0
  6
Continuous
100
AcDbLine
 10
157.6816560275816
 20
104.6004234735656
 30
0.0
 11
159.0146560275816
 21
104.6004234735656
 31
0.0
  0
LINE
  5
2E5
330
70
100
AcDbEntity
  8
0
  6
Continuous
100
AcDbLine
 10
159.0146560275816
 20
104.6004234735656
 30
0.0
 11
159.0146560275816
 21
105.1744234735656
 31
0.0
  0
LINE
  5
2E6
330
70
100
AcDbEntity
  8
0
  6
Continuous
100
AcDbLine
 10
81.51965602758165
 20
108.0264234735656
 30
0.0
 11
81.51965602758165
 21
105.1744234735656
 31
0.0
  0
LINE
  5
2E7
330
70
100
AcDbEntity
  8
0
  6
Continuous
100
AcDbLine
 10
81.51965602758165
 20
108.6004234735657
 30
0.0
 11
81.51965602758165
 21
108.0264234735656
 31
0.0
  0
LINE
  5
2E8
330
70
100
AcDbEntity
  8
0
  6
Continuous
100
AcDbLine
 10
82.85265602758164
 20
108.6004234735657
 30
0.0
 11
81.51965602758165
 21
108.6004234735657
 31
0.0
  0
LINE
  5
2E9
330
70
100
AcDbEntity
  8
0
  6
Continuous
100
AcDbLine
 10
81.51965602758165
 20
104.6004234735656
 30
0.0
 11
82.85265602758164
 21
104.6004234735656
 31
0.0
  0
LINE
  5
2EA
330
70
100
AcDbEntity
  8
0
  6
Continuous
100
AcDbLine
 10
81.51965602758165
 20
105.1744234735656
 30
0.0
 11
81.51965602758165
 21
104.6004234735656
 31
0.0
  0
LINE
  5
2EB
330
70
100
AcDbEntity
  8
0
  6
Continuous
100
AcDbLine
 10
698.0246560275818
 20
108.0264234735656
 30
0.0
 11
698.0246560275818
 21
105.1744234735656
 31
0.0
  0
LINE
  5
2EC
330
70
100
AcDbEntity
  8
0
  6
Continuous
100
AcDbLine
 10
774.1866560275816
 20
108.6004234735657
 30
0.0
 11
699.3576560275816
 21
108.6004234735657
 31
0.0
  0
LINE
  5
2ED
330
70
100
AcDbEntity
  8
0
  6
Continuous
100
AcDbLine
 10
698.0246560275818
 20
108.6004234735657
 30
0.0
 11
698.0246560275818
 21
108.0264234735656
 31
0.0
  0
LINE
  5
2EE
330
70
100
AcDbEntity
  8
0
  6
Continuous
100
AcDbLine
 10
699.3576560275816
 20
108.6004234735657
 30
0.0
 11
698.0246560275818
 21
108.6004234735657
 31
0.0
  0
LINE
  5
2EF
330
70
100
AcDbEntity
  8
0
  6
Continuous
100
AcDbLine
 10
699.3576560275816
 20
104.6004234735656
 30
0.0
 11
774.1866560275816
 21
104.6004234735656
 31
0.0
  0
LINE
  5
2F0
330
70
100
AcDbEntity
  8
0
  6
Continuous
100
AcDbLine
 10
698.0246560275818
 20
104.6004234735656
 30
0.0
 11
699.3576560275816
 21
104.6004234735656
 31
0.0
  0
LINE
  5
2F1
330
70
100
AcDbEntity
  8
0
  6
Continuous
100
AcDbLine
 10
698.0246560275818
 20
105.1744234735656
 30
0.0
 11
698.0246560275818
 21
104.6004234735656
 31
0.0
  0
LINE
  5
2F2
330
70
100
AcDbEntity
  8
0
  6
Continuous
100
AcDbLine
 10
775.5196560275816
 20
105.1744234735656
 30
0.0
 11
775.5196560275816
 21
108.0264234735656
 31
0.0
  0
LINE
  5
2F3
330
70
100
AcDbEntity
  8
0
  6
Continuous
100
AcDbLine
 10
775.5196560275816
 20
108.0264234735656
 30
0.0
 11
775.5196560275816
 21
108.6004234735657
 31
0.0
  0
LINE
  5
2F4
330
70
100
AcDbEntity
  8
0
  6
Continuous
100
AcDbLine
 10
775.5196560275816
 20
108.6004234735657
 30
0.0
 11
774.1866560275816
 21
108.6004234735657
 31
0.0
  0
LINE
  5
2F5
330
70
100
AcDbEntity
  8
0
  6
Continuous
100
AcDbLine
 10
775.5196560275816
 20
104.6004234735656
 30
0.0
 11
775.5196560275816
 21
105.1744234735656
 31
0.0
  0
LINE
  5
2F6
330
70
100
AcDbEntity
  8
0
  6
Continuous
100
AcDbLine
 10
774.1866560275816
 20
104.6004234735656
 30
0.0
 11
775.5196560275816
 21
104.6004234735656
 31
0.0
  0
LINE
  5
3A6
330
70
100
AcDbEntity
  8
0
  6
Continuous
100
AcDbLine
 10
774.5046560275816
 20
-106.0622099316555
 30
0.0
 11
774.7826560275817
 21
-106.0622099316555
 31
0.0
  0
LINE
  5
3A7
330
70
100
AcDbEntity
  8
0
  6
Continuous
100
AcDbLine
 10
740.2936560275817
 20
-76.44020993165554
 30
0.0
 11
740.2936560275817
 21
-104.6852099316554
 31
0.0
  0
LINE
  5
3A8
330
70
100
AcDbEntity
  8
0
  6
Continuous
100
AcDbLine
 10
740.2936560275817
 20
-75.88920993165555
 30
0.0
 11
740.2936560275817
 21
-76.44020993165554
 31
0.0
  0
LINE
  5
3A9
330
70
100
AcDbEntity
  8
0
  6
Continuous
100
AcDbLine
 10
740.2936560275817
 20
-104.6852099316554
 30
0.0
 11
740.2936560275817
 21
-105.2352099316554
 31
0.0
  0
LINE
  5
3AA
330
70
100
AcDbEntity
  8
0
  6
Continuous
100
AcDbLine
 10
775.2856560275814
 20
-105.7492099316555
 30
0.0
 11
775.5196560275816
 21
-105.2352099316554
 31
0.0
  0
LINE
  5
3AB
330
70
100
AcDbEntity
  8
0
  6
Continuous
100
AcDbLine
 10
775.5196560275816
 20
-75.88920993165555
 30
0.0
 11
775.2856560275814
 21
-75.32420993165558
 31
0.0
  0
LINE
  5
3AC
330
70
100
AcDbEntity
  8
0
  6
Continuous
100
AcDbLine
 10
774.7826560275817
 20
-106.0622099316555
 30
0.0
 11
775.2856560275814
 21
-105.7492099316555
 31
0.0
  0
LINE
  5
3AD
330
70
100
AcDbEntity
  8
0
  6
Continuous
100
AcDbLine
 10
775.2856560275814
 20
-75.32420993165558
 30
0.0
 11
774.7826560275817
 21
-75.06220993165545
 31
0.0
  0
LINE
  5
3AE
330
70
100
AcDbEntity
  8
0
  6
Continuous
100
AcDbLine
 10
774.7826560275817
 20
-75.06220993165545
 30
0.0
 11
774.6986560275817
 21
-75.06220993165545
 31
0.0
  0
LINE
  5
3AF
330
70
100
AcDbEntity
  8
0
  6
Continuous
100
AcDbLine
 10
775.5196560275816
 20
-75.88920993165555
 30
0.0
 11
775.2206560275817
 21
-75.32420993165558
 31
0.0
  0
LINE
  5
3B0
330
70
100
AcDbEntity
  8
0
  6
Continuous
100
AcDbLine
 10
774.6546560275816
 20
-106.0622099316555
 30
0.0
 11
774.6986560275817
 21
-106.0622099316555
 31
0.0
  0
LINE
  5
3B1
330
70
100
AcDbEntity
  8
0
  6
Continuous
100
AcDbLine
 10
774.6986560275817
 20
-75.06220993165545
 30
0.0
 11
774.6546560275816
 21
-75.06220993165545
 31
0.0
  0
LINE
  5
3B2
330
70
100
AcDbEntity
  8
0
  6
Continuous
100
AcDbLine
 10
775.5196560275816
 20
-104.6852099316554
 30
0.0
 11
775.5196560275816
 21
-76.44020993165554
 31
0.0
  0
LINE
  5
3B3
330
70
100
AcDbEntity
  8
0
  6
Continuous
100
AcDbLine
 10
775.1856560275816
 20
-105.7492099316555
 30
0.0
 11
775.5196560275816
 21
-105.2352099316554
 31
0.0
  0
LINE
  5
3B4
330
70
100
AcDbEntity
  8
0
  6
Continuous
100
AcDbLine
 10
775.5196560275816
 20
-75.88920993165555
 30
0.0
 11
775.1856560275816
 21
-75.32420993165558
 31
0.0
  0
LINE
  5
3B5
330
70
100
AcDbEntity
  8
0
  6
Continuous
100
AcDbLine
 10
774.5636560275817
 20
-75.06220993165545
 30
0.0
 11
775.1136560275816
 21
-75.32420993165558
 31
0.0
  0
LINE
  5
3B6
330
70
100
AcDbEntity
  8
0
  6
Continuous
100
AcDbLine
 10
774.6546560275816
 20
-75.06220993165545
 30
0.0
 11
774.5636560275817
 21
-75.06220993165545
 31
0.0
  0
LINE
  5
3B7
330
70
100
AcDbEntity
  8
0
  6
Continuous
100
AcDbLine
 10
775.5196560275816
 20
-76.44020993165554
 30
0.0
 11
775.5196560275816
 21
-75.88920993165555
 31
0.0
  0
LINE
  5
3B8
330
70
100
AcDbEntity
  8
0
  6
Continuous
100
AcDbLine
 10
740.2936560275817
 20
-105.2352099316554
 30
0.0
 11
740.2936560275817
 21
-105.7492099316555
 31
0.0
  0
LINE
  5
3B9
330
70
100
AcDbEntity
  8
0
  6
Continuous
100
AcDbLine
 10
740.2936560275817
 20
-75.32420993165558
 30
0.0
 11
740.2936560275817
 21
-75.88920993165555
 31
0.0
  0
LINE
  5
3BA
330
70
100
AcDbEntity
  8
0
  6
Continuous
100
AcDbLine
 10
740.2936560275817
 20
-106.0622099316555
 30
0.0
 11
740.5226560275817
 21
-106.0622099316555
 31
0.0
  0
LINE
  5
3BB
330
70
100
AcDbEntity
  8
0
  6
Continuous
100
AcDbLine
 10
740.2936560275817
 20
-105.7492099316555
 30
0.0
 11
740.2936560275817
 21
-106.0622099316555
 31
0.0
  0
LINE
  5
3BC
330
70
100
AcDbEntity
  8
0
  6
Continuous
100
AcDbLine
 10
740.5226560275817
 20
-75.06220993165545
 30
0.0
 11
740.2936560275817
 21
-75.06220993165545
 31
0.0
  0
LINE
  5
3BD
330
70
100
AcDbEntity
  8
0
  6
Continuous
100
AcDbLine
 10
740.2936560275817
 20
-75.06220993165545
 30
0.0
 11
740.2936560275817
 21
-75.32420993165558
 31
0.0
  0
LINE
  5
3BE
330
70
100
AcDbEntity
  8
0
  6
Continuous
100
AcDbLine
 10
771.8006560275816
 20
-106.0622099316555
 30
0.0
 11
773.3996560275816
 21
-106.0622099316555
 31
0.0
  0
LINE
  5
3BF
330
70
100
AcDbEntity
  8
0
  6
Continuous
100
AcDbLine
 10
773.3996560275816
 20
-75.06220993165545
 30
0.0
 11
771.8006560275816
 21
-75.06220993165545
 31
0.0
  0
LINE
  5
3C0
330
70
100
AcDbEntity
  8
0
  6
Continuous
100
AcDbLine
 10
766.1086560275816
 20
-106.0622099316555
 30
0.0
 11
769.5276560275816
 21
-106.0622099316555
 31
0.0
  0
LINE
  5
3C1
330
70
100
AcDbEntity
  8
0
  6
Continuous
100
AcDbLine
 10
769.5276560275816
 20
-75.06220993165545
 30
0.0
 11
766.1086560275816
 21
-75.06220993165545
 31
0.0
  0
LINE
  5
3C2
330
70
100
AcDbEntity
  8
0
  6
Continuous
100
AcDbLine
 10
773.3996560275816
 20
-106.0622099316555
 30
0.0
 11
774.4726560275815
 21
-106.0622099316555
 31
0.0
  0
LINE
  5
3C3
330
70
100
AcDbEntity
  8
0
  6
Continuous
100
AcDbLine
 10
774.4726560275815
 20
-75.06220993165545
 30
0.0
 11
773.3996560275816
 21
-75.06220993165545
 31
0.0
  0
LINE
  5
3C4
330
70
100
AcDbEntity
  8
0
  6
Continuous
100
AcDbLine
 10
759.5536560275817
 20
-106.0622099316555
 30
0.0
 11
766.1086560275816
 21
-106.0622099316555
 31
0.0
  0
LINE
  5
3C5
330
70
100
AcDbEntity
  8
0
  6
Continuous
100
AcDbLine
 10
766.1086560275816
 20
-75.06220993165545
 30
0.0
 11
759.5536560275817
 21
-75.06220993165545
 31
0.0
  0
LINE
  5
3C6
330
70
100
AcDbEntity
  8
0
  6
Continuous
100
AcDbLine
 10
775.5196560275816
 20
-105.2352099316554
 30
0.0
 11
775.5196560275816
 21
-104.6852099316554
 31
0.0
  0
LINE
  5
3C7
330
70
100
AcDbEntity
  8
0
  6
Continuous
100
AcDbLine
 10
750.3916560275817
 20
-106.0622099316555
 30
0.0
 11
759.5536560275817
 21
-106.0622099316555
 31
0.0
  0
LINE
  5
3C8
330
70
100
AcDbEntity
  8
0
  6
Continuous
100
AcDbLine
 10
759.5536560275817
 20
-75.06220993165545
 30
0.0
 11
750.3916560275817
 21
-75.06220993165545
 31
0.0
  0
LINE
  5
3C9
330
70
100
AcDbEntity
  8
0
  6
Continuous
100
AcDbLine
 10
775.1136560275816
 20
-105.7492099316555
 30
0.0
 11
775.5196560275816
 21
-105.2352099316554
 31
0.0
  0
LINE
  5
3CA
330
70
100
AcDbEntity
  8
0
  6
Continuous
100
AcDbLine
 10
775.5196560275816
 20
-75.88920993165555
 30
0.0
 11
775.1136560275816
 21
-75.32420993165558
 31
0.0
  0
LINE
  5
3CB
330
70
100
AcDbEntity
  8
0
  6
Continuous
100
AcDbLine
 10
774.5636560275817
 20
-106.0622099316555
 30
0.0
 11
775.1136560275816
 21
-105.7492099316555
 31
0.0
  0
LINE
  5
3CC
330
70
100
AcDbEntity
  8
0
  6
Continuous
100
AcDbLine
 10
774.4726560275815
 20
-106.0622099316555
 30
0.0
 11
774.5636560275817
 21
-106.0622099316555
 31
0.0
  0
LINE
  5
3CD
330
70
100
AcDbEntity
  8
0
  6
Continuous
100
AcDbLine
 10
774.5636560275817
 20
-75.06220993165545
 30
0.0
 11
774.4726560275815
 21
-75.06220993165545
 31
0.0
  0
LINE
  5
3CE
330
70
100
AcDbEntity
  8
0
  6
Continuous
100
AcDbLine
 10
775.1136560275816
 20
-75.32420993165558
 30
0.0
 11
774.5636560275817
 21
-75.06220993165545
 31
0.0
  0
LINE
  5
3CF
330
70
100
AcDbEntity
  8
0
  6
Continuous
100
AcDbLine
 10
769.5276560275816
 20
-106.0622099316555
 30
0.0
 11
771.8006560275816
 21
-106.0622099316555
 31
0.0
  0
LINE
  5
3D0
330
70
100
AcDbEntity
  8
0
  6
Continuous
100
AcDbLine
 10
771.8006560275816
 20
-75.06220993165545
 30
0.0
 11
769.5276560275816
 21
-75.06220993165545
 31
0.0
  0
LINE
  5
3D1
330
70
100
AcDbEntity
  8
0
  6
Continuous
100
AcDbLine
 10
740.5226560275817
 20
-106.0622099316555
 30
0.0
 11
750.3916560275817
 21
-106.0622099316555
 31
0.0
  0
LINE
  5
3D2
330
70
100
AcDbEntity
  8
0
  6
Continuous
100
AcDbLine
 10
750.3916560275817
 20
-75.06220993165545
 30
0.0
 11
740.5226560275817
 21
-75.06220993165545
 31
0.0
  0
LINE
  5
3D3
330
70
100
AcDbEntity
  8
0
  6
Continuous
100
AcDbLine
 10
82.25665602758164
 20
-106.0622099316555
 30
0.0
 11
82.53465602758163
 21
-106.0622099316555
 31
0.0
  0
LINE
  5
3D4
330
70
100
AcDbEntity
  8
0
  6
Continuous
100
AcDbLine
 10
116.7456560275816
 20
-104.6852099316554
 30
0.0
 11
116.7456560275816
 21
-76.44020993165554
 31
0.0
  0
LINE
  5
3D5
330
70
100
AcDbEntity
  8
0
  6
Continuous
100
AcDbLine
 10
116.7456560275816
 20
-76.44020993165554
 30
0.0
 11
116.7456560275816
 21
-75.88920993165555
 31
0.0
  0
LINE
  5
3D6
330
70
100
AcDbEntity
  8
0
  6
Continuous
100
AcDbLine
 10
116.7456560275816
 20
-105.2352099316554
 30
0.0
 11
116.7456560275816
 21
-104.6852099316554
 31
0.0
  0
LINE
  5
3D7
330
70
100
AcDbEntity
  8
0
  6
Continuous
100
AcDbLine
 10
81.51965602758165
 20
-105.2352099316554
 30
0.0
 11
81.75365602758175
 21
-105.7492099316555
 31
0.0
  0
LINE
  5
3D8
330
70
100
AcDbEntity
  8
0
  6
Continuous
100
AcDbLine
 10
81.75365602758175
 20
-75.32420993165558
 30
0.0
 11
81.51965602758165
 21
-75.88920993165555
 31
0.0
  0
LINE
  5
3D9
330
70
100
AcDbEntity
  8
0
  6
Continuous
100
AcDbLine
 10
81.75365602758175
 20
-105.7492099316555
 30
0.0
 11
82.25665602758164
 21
-106.0622099316555
 31
0.0
  0
LINE
  5
3DA
330
70
100
AcDbEntity
  8
0
  6
Continuous
100
AcDbLine
 10
82.34065602758164
 20
-75.06220993165545
 30
0.0
 11
82.25665602758164
 21
-75.06220993165545
 31
0.0
  0
LINE
  5
3DB
330
70
100
AcDbEntity
  8
0
  6
Continuous
100
AcDbLine
 10
82.25665602758164
 20
-75.06220993165545
 30
0.0
 11
81.75365602758175
 21
-75.32420993165558
 31
0.0
  0
LINE
  5
3DC
330
70
100
AcDbEntity
  8
0
  6
Continuous
100
AcDbLine
 10
81.81865602758163
 20
-75.32420993165558
 30
0.0
 11
81.51965602758165
 21
-75.88920993165555
 31
0.0
  0
LINE
  5
3DD
330
70
100
AcDbEntity
  8
0
  6
Continuous
100
AcDbLine
 10
82.34065602758164
 20
-106.0622099316555
 30
0.0
 11
82.38465602758173
 21
-106.0622099316555
 31
0.0
  0
LINE
  5
3DE
330
70
100
AcDbEntity
  8
0
  6
Continuous
100
AcDbLine
 10
82.38465602758173
 20
-75.06220993165545
 30
0.0
 11
82.34065602758164
 21
-75.06220993165545
 31
0.0
  0
LINE
  5
3DF
330
70
100
AcDbEntity
  8
0
  6
Continuous
100
AcDbLine
 10
81.51965602758165
 20
-76.44020993165554
 30
0.0
 11
81.51965602758165
 21
-104.6852099316554
 31
0.0
  0
LINE
  5
3E0
330
70
100
AcDbEntity
  8
0
  6
Continuous
100
AcDbLine
 10
81.51965602758165
 20
-105.2352099316554
 30
0.0
 11
81.85365602758173
 21
-105.7492099316555
 31
0.0
  0
LINE
  5
3E1
330
70
100
AcDbEntity
  8
0
  6
Continuous
100
AcDbLine
 10
81.85365602758173
 20
-75.32420993165558
 30
0.0
 11
81.51965602758165
 21
-75.88920993165555
 31
0.0
  0
LINE
  5
3E2
330
70
100
AcDbEntity
  8
0
  6
Continuous
100
AcDbLine
 10
82.47565602758163
 20
-75.06220993165545
 30
0.0
 11
82.38465602758173
 21
-75.06220993165545
 31
0.0
  0
LINE
  5
3E3
330
70
100
AcDbEntity
  8
0
  6
Continuous
100
AcDbLine
 10
81.92565602758165
 20
-75.32420993165558
 30
0.0
 11
82.47565602758163
 21
-75.06220993165545
 31
0.0
  0
LINE
  5
3E4
330
70
100
AcDbEntity
  8
0
  6
Continuous
100
AcDbLine
 10
81.51965602758165
 20
-75.88920993165555
 30
0.0
 11
81.51965602758165
 21
-76.44020993165554
 31
0.0
  0
LINE
  5
3E5
330
70
100
AcDbEntity
  8
0
  6
Continuous
100
AcDbLine
 10
116.7456560275816
 20
-105.7492099316555
 30
0.0
 11
116.7456560275816
 21
-105.2352099316554
 31
0.0
  0
LINE
  5
3E6
330
70
100
AcDbEntity
  8
0
  6
Continuous
100
AcDbLine
 10
116.7456560275816
 20
-75.88920993165555
 30
0.0
 11
116.7456560275816
 21
-75.32420993165558
 31
0.0
  0
LINE
  5
3E7
330
70
100
AcDbEntity
  8
0
  6
Continuous
100
AcDbLine
 10
116.7456560275816
 20
-106.0622099316555
 30
0.0
 11
116.7456560275816
 21
-105.7492099316555
 31
0.0
  0
LINE
  5
3E8
330
70
100
AcDbEntity
  8
0
  6
Continuous
100
AcDbLine
 10
116.5166560275816
 20
-106.0622099316555
 30
0.0
 11
116.7456560275816
 21
-106.0622099316555
 31
0.0
  0
LINE
  5
3E9
330
70
100
AcDbEntity
  8
0
  6
Continuous
100
AcDbLine
 10
116.7456560275816
 20
-75.32420993165558
 30
0.0
 11
116.7456560275816
 21
-75.06220993165545
 31
0.0
  0
LINE
  5
3EA
330
70
100
AcDbEntity
  8
0
  6
Continuous
100
AcDbLine
 10
116.7456560275816
 20
-75.06220993165545
 30
0.0
 11
116.5166560275816
 21
-75.06220993165545
 31
0.0
  0
LINE
  5
3EB
330
70
100
AcDbEntity
  8
0
  6
Continuous
100
AcDbLine
 10
83.63965602758161
 20
-106.0622099316555
 30
0.0
 11
85.23865602758164
 21
-106.0622099316555
 31
0.0
  0
LINE
  5
3EC
330
70
100
AcDbEntity
  8
0
  6
Continuous
100
AcDbLine
 10
85.23865602758164
 20
-75.06220993165545
 30
0.0
 11
83.63965602758161
 21
-75.06220993165545
 31
0.0
  0
LINE
  5
3ED
330
70
100
AcDbEntity
  8
0
  6
Continuous
100
AcDbLine
 10
87.51165602758163
 20
-106.0622099316555
 30
0.0
 11
90.93065602758176
 21
-106.0622099316555
 31
0.0
  0
LINE
  5
3EE
330
70
100
AcDbEntity
  8
0
  6
Continuous
100
AcDbLine
 10
90.93065602758176
 20
-75.06220993165545
 30
0.0
 11
87.51165602758163
 21
-75.06220993165545
 31
0.0
  0
LINE
  5
3EF
330
70
100
AcDbEntity
  8
0
  6
Continuous
100
AcDbLine
 10
82.56665602758165
 20
-106.0622099316555
 30
0.0
 11
83.63965602758161
 21
-106.0622099316555
 31
0.0
  0
LINE
  5
3F0
330
70
100
AcDbEntity
  8
0
  6
Continuous
100
AcDbLine
 10
83.63965602758161
 20
-75.06220993165545
 30
0.0
 11
82.56665602758165
 21
-75.06220993165545
 31
0.0
  0
LINE
  5
3F1
330
70
100
AcDbEntity
  8
0
  6
Continuous
100
AcDbLine
 10
90.93065602758176
 20
-106.0622099316555
 30
0.0
 11
97.48565602758166
 21
-106.0622099316555
 31
0.0
  0
LINE
  5
3F2
330
70
100
AcDbEntity
  8
0
  6
Continuous
100
AcDbLine
 10
97.48565602758166
 20
-75.06220993165545
 30
0.0
 11
90.93065602758176
 21
-75.06220993165545
 31
0.0
  0
LINE
  5
3F3
330
70
100
AcDbEntity
  8
0
  6
Continuous
100
AcDbLine
 10
81.51965602758165
 20
-104.6852099316554
 30
0.0
 11
81.51965602758165
 21
-105.2352099316554
 31
0.0
  0
LINE
  5
3F4
330
70
100
AcDbEntity
  8
0
  6
Continuous
100
AcDbLine
 10
97.48565602758166
 20
-106.0622099316555
 30
0.0
 11
106.6476560275816
 21
-106.0622099316555
 31
0.0
  0
LINE
  5
3F5
330
70
100
AcDbEntity
  8
0
  6
Continuous
100
AcDbLine
 10
106.6476560275816
 20
-75.06220993165545
 30
0.0
 11
97.48565602758166
 21
-75.06220993165545
 31
0.0
  0
LINE
  5
3F6
330
70
100
AcDbEntity
  8
0
  6
Continuous
100
AcDbLine
 10
81.51965602758165
 20
-105.2352099316554
 30
0.0
 11
81.92565602758165
 21
-105.7492099316555
 31
0.0
  0
LINE
  5
3F7
330
70
100
AcDbEntity
  8
0
  6
Continuous
100
AcDbLine
 10
81.92565602758165
 20
-75.32420993165558
 30
0.0
 11
81.51965602758165
 21
-75.88920993165555
 31
0.0
  0
LINE
  5
3F8
330
70
100
AcDbEntity
  8
0
  6
Continuous
100
AcDbLine
 10
82.47565602758163
 20
-106.0622099316555
 30
0.0
 11
82.56665602758165
 21
-106.0622099316555
 31
0.0
  0
LINE
  5
3F9
330
70
100
AcDbEntity
  8
0
  6
Continuous
100
AcDbLine
 10
81.92565602758165
 20
-105.7492099316555
 30
0.0
 11
82.47565602758163
 21
-106.0622099316555
 31
0.0
  0
LINE
  5
3FA
330
70
100
AcDbEntity
  8
0
  6
Continuous
100
AcDbLine
 10
82.47565602758163
 20
-75.06220993165545
 30
0.0
 11
81.92565602758165
 21
-75.32420993165558
 31
0.0
  0
LINE
  5
3FB
330
70
100
AcDbEntity
  8
0
  6
Continuous
100
AcDbLine
 10
82.56665602758165
 20
-75.06220993165545
 30
0.0
 11
82.47565602758163
 21
-75.06220993165545
 31
0.0
  0
LINE
  5
3FC
330
70
100
AcDbEntity
  8
0
  6
Continuous
100
AcDbLine
 10
85.23865602758164
 20
-106.0622099316555
 30
0.0
 11
87.51165602758163
 21
-106.0622099316555
 31
0.0
  0
LINE
  5
3FD
330
70
100
AcDbEntity
  8
0
  6
Continuous
100
AcDbLine
 10
87.51165602758163
 20
-75.06220993165545
 30
0.0
 11
85.23865602758164
 21
-75.06220993165545
 31
0.0
  0
LINE
  5
3FE
330
70
100
AcDbEntity
  8
0
  6
Continuous
100
AcDbLine
 10
106.6476560275816
 20
-106.0622099316555
 30
0.0
 11
116.5166560275816
 21
-106.0622099316555
 31
0.0
  0
LINE
  5
3FF
330
70
100
AcDbEntity
  8
0
  6
Continuous
100
AcDbLine
 10
116.5166560275816
 20
-75.06220993165545
 30
0.0
 11
106.6476560275816
 21
-75.06220993165545
 31
0.0
  0
LINE
  5
400
330
70
100
AcDbEntity
  8
0
  6
Continuous
100
AcDbLine
 10
116.7456560275816
 20
-75.32420993165558
 30
0.0
 11
116.7456560275816
 21
-75.88920993165555
 31
0.0
  0
LINE
  5
401
330
70
100
AcDbEntity
  8
0
  6
Continuous
100
AcDbLine
 10
117.7526560275816
 20
-104.8792099316556
 30
0.0
 11
117.7526560275816
 21
-76.24720993165556
 31
0.0
  0
LINE
  5
402
330
70
100
AcDbEntity
  8
0
  6
Continuous
100
AcDbLine
 10
116.7456560275816
 20
-106.0622099316555
 30
0.0
 11
116.7916560275816
 21
-106.0622099316555
 31
0.0
  0
LINE
  5
403
330
70
100
AcDbEntity
  8
0
  6
Continuous
100
AcDbLine
 10
116.7456560275816
 20
-105.7492099316555
 30
0.0
 11
116.7456560275816
 21
-106.0622099316555
 31
0.0
  0
LINE
  5
404
330
70
100
AcDbEntity
  8
0
  6
Continuous
100
AcDbLine
 10
116.7456560275816
 20
-75.06220993165545
 30
0.0
 11
116.7456560275816
 21
-75.32420993165558
 31
0.0
  0
LINE
  5
405
330
70
100
AcDbEntity
  8
0
  6
Continuous
100
AcDbLine
 10
116.7916560275816
 20
-75.06220993165545
 30
0.0
 11
116.7456560275816
 21
-75.06220993165545
 31
0.0
  0
LINE
  5
406
330
70
100
AcDbEntity
  8
0
  6
Continuous
100
AcDbLine
 10
116.7456560275816
 20
-105.2352099316554
 30
0.0
 11
116.7456560275816
 21
-105.7492099316555
 31
0.0
  0
LINE
  5
407
330
70
100
AcDbEntity
  8
0
  6
Continuous
100
AcDbLine
 10
117.7526560275816
 20
-76.24720993165556
 30
0.0
 11
117.7526560275816
 21
-75.88920993165555
 31
0.0
  0
LINE
  5
408
330
70
100
AcDbEntity
  8
0
  6
Continuous
100
AcDbLine
 10
117.7526560275816
 20
-105.2352099316554
 30
0.0
 11
117.7526560275816
 21
-104.8792099316556
 31
0.0
  0
LINE
  5
409
330
70
100
AcDbEntity
  8
0
  6
Continuous
100
AcDbLine
 10
117.7526560275816
 20
-75.88920993165555
 30
0.0
 11
117.7526560275816
 21
-75.32420993165558
 31
0.0
  0
LINE
  5
40A
330
70
100
AcDbEntity
  8
0
  6
Continuous
100
AcDbLine
 10
116.7456560275816
 20
-76.24720993165556
 30
0.0
 11
116.7456560275816
 21
-104.8792099316556
 31
0.0
  0
LINE
  5
40B
330
70
100
AcDbEntity
  8
0
  6
Continuous
100
AcDbLine
 10
117.7526560275816
 20
-106.0622099316555
 30
0.0
 11
117.7526560275816
 21
-105.7662099316555
 31
0.0
  0
LINE
  5
40C
330
70
100
AcDbEntity
  8
0
  6
Continuous
100
AcDbLine
 10
117.7066560275816
 20
-106.0622099316555
 30
0.0
 11
117.7526560275816
 21
-106.0622099316555
 31
0.0
  0
LINE
  5
40D
330
70
100
AcDbEntity
  8
0
  6
Continuous
100
AcDbLine
 10
116.7916560275816
 20
-106.0622099316555
 30
0.0
 11
117.7066560275816
 21
-106.0622099316555
 31
0.0
  0
LINE
  5
40E
330
70
100
AcDbEntity
  8
0
  6
Continuous
100
AcDbLine
 10
117.7526560275816
 20
-75.32420993165558
 30
0.0
 11
117.7526560275816
 21
-75.06220993165545
 31
0.0
  0
LINE
  5
40F
330
70
100
AcDbEntity
  8
0
  6
Continuous
100
AcDbLine
 10
117.7526560275816
 20
-75.06220993165545
 30
0.0
 11
117.7066560275816
 21
-75.06220993165545
 31
0.0
  0
LINE
  5
410
330
70
100
AcDbEntity
  8
0
  6
Continuous
100
AcDbLine
 10
117.7066560275816
 20
-75.06220993165545
 30
0.0
 11
116.7916560275816
 21
-75.06220993165545
 31
0.0
  0
LINE
  5
411
330
70
100
AcDbEntity
  8
0
  6
Continuous
100
AcDbLine
 10
117.7526560275816
 20
-105.7662099316555
 30
0.0
 11
117.7526560275816
 21
-105.2352099316554
 31
0.0
  0
LINE
  5
412
330
70
100
AcDbEntity
  8
0
  6
Continuous
100
AcDbLine
 10
116.7456560275816
 20
-75.88920993165555
 30
0.0
 11
116.7456560275816
 21
-76.24720993165556
 31
0.0
  0
LINE
  5
413
330
70
100
AcDbEntity
  8
0
  6
Continuous
100
AcDbLine
 10
116.7456560275816
 20
-104.8792099316556
 30
0.0
 11
116.7456560275816
 21
-105.2352099316554
 31
0.0
  0
LINE
  5
414
330
70
100
AcDbEntity
  8
0
  6
Continuous
100
AcDbLine
 10
116.7916560275816
 20
-75.06220993165545
 30
0.0
 11
116.7456560275816
 21
-75.06220993165545
 31
0.0
  0
LINE
  5
415
330
70
100
AcDbEntity
  8
0
  6
Continuous
100
AcDbLine
 10
117.7526560275816
 20
-75.06220993165545
 30
0.0
 11
117.7066560275816
 21
-75.06220993165545
 31
0.0
  0
LINE
  5
416
330
70
100
AcDbEntity
  8
0
  6
Continuous
100
AcDbLine
 10
117.7066560275816
 20
-75.06220993165545
 30
0.0
 11
116.7916560275816
 21
-75.06220993165545
 31
0.0
  0
LINE
  5
417
330
70
100
AcDbEntity
  8
0
  6
Continuous
100
AcDbLine
 10
420.2936560275817
 20
-75.88920993165555
 30
0.0
 11
420.2936560275817
 21
-75.32420993165558
 31
0.0
  0
LINE
  5
418
330
70
100
AcDbEntity
  8
0
  6
Continuous
100
AcDbLine
 10
419.2866560275817
 20
-76.24720993165556
 30
0.0
 11
419.2866560275817
 21
-104.8792099316556
 31
0.0
  0
LINE
  5
419
330
70
100
AcDbEntity
  8
0
  6
Continuous
100
AcDbLine
 10
420.2476560275816
 20
-106.0622099316555
 30
0.0
 11
420.2936560275817
 21
-106.0622099316555
 31
0.0
  0
LINE
  5
41A
330
70
100
AcDbEntity
  8
0
  6
Continuous
100
AcDbLine
 10
420.2936560275817
 20
-75.06220993165545
 30
0.0
 11
420.2476560275816
 21
-75.06220993165545
 31
0.0
  0
LINE
  5
41B
330
70
100
AcDbEntity
  8
0
  6
Continuous
100
AcDbLine
 10
420.2936560275817
 20
-75.32420993165558
 30
0.0
 11
420.2936560275817
 21
-75.06220993165545
 31
0.0
  0
LINE
  5
41C
330
70
100
AcDbEntity
  8
0
  6
Continuous
100
AcDbLine
 10
420.2936560275817
 20
-105.7492099316555
 30
0.0
 11
420.2936560275817
 21
-105.2352099316554
 31
0.0
  0
LINE
  5
41D
330
70
100
AcDbEntity
  8
0
  6
Continuous
100
AcDbLine
 10
419.2866560275817
 20
-75.88920993165555
 30
0.0
 11
419.2866560275817
 21
-76.24720993165556
 31
0.0
  0
LINE
  5
41E
330
70
100
AcDbEntity
  8
0
  6
Continuous
100
AcDbLine
 10
419.2866560275817
 20
-104.8792099316556
 30
0.0
 11
419.2866560275817
 21
-105.2352099316554
 31
0.0
  0
LINE
  5
41F
330
70
100
AcDbEntity
  8
0
  6
Continuous
100
AcDbLine
 10
419.2866560275817
 20
-75.32420993165558
 30
0.0
 11
419.2866560275817
 21
-75.88920993165555
 31
0.0
  0
LINE
  5
420
330
70
100
AcDbEntity
  8
0
  6
Continuous
100
AcDbLine
 10
420.2936560275817
 20
-104.8792099316556
 30
0.0
 11
420.2936560275817
 21
-76.24720993165556
 31
0.0
  0
LINE
  5
421
330
70
100
AcDbEntity
  8
0
  6
Continuous
100
AcDbLine
 10
419.2866560275817
 20
-106.0622099316555
 30
0.0
 11
419.3326560275817
 21
-106.0622099316555
 31
0.0
  0
LINE
  5
422
330
70
100
AcDbEntity
  8
0
  6
Continuous
100
AcDbLine
 10
419.2866560275817
 20
-105.7662099316555
 30
0.0
 11
419.2866560275817
 21
-106.0622099316555
 31
0.0
  0
LINE
  5
423
330
70
100
AcDbEntity
  8
0
  6
Continuous
100
AcDbLine
 10
419.3326560275817
 20
-106.0622099316555
 30
0.0
 11
420.2476560275816
 21
-106.0622099316555
 31
0.0
  0
LINE
  5
424
330
70
100
AcDbEntity
  8
0
  6
Continuous
100
AcDbLine
 10
419.3326560275817
 20
-75.06220993165545
 30
0.0
 11
419.2866560275817
 21
-75.06220993165545
 31
0.0
  0
LINE
  5
425
330
70
100
AcDbEntity
  8
0
  6
Continuous
100
AcDbLine
 10
419.2866560275817
 20
-75.06220993165545
 30
0.0
 11
419.2866560275817
 21
-75.32420993165558
 31
0.0
  0
LINE
  5
426
330
70
100
AcDbEntity
  8
0
  6
Continuous
100
AcDbLine
 10
420.2476560275816
 20
-75.06220993165545
 30
0.0
 11
419.3326560275817
 21
-75.06220993165545
 31
0.0
  0
LINE
  5
427
330
70
100
AcDbEntity
  8
0
  6
Continuous
100
AcDbLine
 10
419.2866560275817
 20
-105.2352099316554
 30
0.0
 11
419.2866560275817
 21
-105.7662099316555
 31
0.0
  0
LINE
  5
428
330
70
100
AcDbEntity
  8
0
  6
Continuous
100
AcDbLine
 10
420.2936560275817
 20
-76.24720993165556
 30
0.0
 11
420.2936560275817
 21
-75.88920993165555
 31
0.0
  0
LINE
  5
429
330
70
100
AcDbEntity
  8
0
  6
Continuous
100
AcDbLine
 10
420.2936560275817
 20
-105.2352099316554
 30
0.0
 11
420.2936560275817
 21
-104.8792099316556
 31
0.0
  0
LINE
  5
42A
330
70
100
AcDbEntity
  8
0
  6
Continuous
100
AcDbLine
 10
420.2936560275817
 20
-75.06220993165545
 30
0.0
 11
420.2476560275816
 21
-75.06220993165545
 31
0.0
  0
LINE
  5
42B
330
70
100
AcDbEntity
  8
0
  6
Continuous
100
AcDbLine
 10
419.3326560275817
 20
-75.06220993165545
 30
0.0
 11
419.2866560275817
 21
-75.06220993165545
 31
0.0
  0
LINE
  5
42C
330
70
100
AcDbEntity
  8
0
  6
Continuous
100
AcDbLine
 10
420.2476560275816
 20
-75.06220993165545
 30
0.0
 11
419.3326560275817
 21
-75.06220993165545
 31
0.0
  0
LINE
  5
42D
330
70
100
AcDbEntity
  8
0
  6
Continuous
100
AcDbLine
 10
739.0056560275817
 20
-75.06220993165545
 30
0.0
 11
268.5196560275816
 21
-75.06220993165545
 31
0.0
  0
LINE
  5
42E
330
70
100
AcDbEntity
  8
0
  6
Continuous
100
AcDbLine
 10
739.2866560275816
 20
-75.06220993165545
 30
0.0
 11
739.0056560275817
 21
-75.06220993165545
 31
0.0
  0
LINE
  5
42F
330
70
100
AcDbEntity
  8
0
  6
Continuous
100
AcDbLine
 10
268.5196560275816
 20
-75.06220993165545
 30
0.0
 11
118.0336560275816
 21
-75.06220993165545
 31
0.0
  0
LINE
  5
430
330
70
100
AcDbEntity
  8
0
  6
Continuous
100
AcDbLine
 10
118.0336560275816
 20
-75.06220993165545
 30
0.0
 11
117.7526560275816
 21
-75.06220993165545
 31
0.0
  0
LINE
  5
431
330
70
100
AcDbEntity
  8
0
  6
Continuous
100
AcDbLine
 10
739.2866560275816
 20
-75.88920993165555
 30
0.0
 11
739.2866560275816
 21
-75.32420993165558
 31
0.0
  0
LINE
  5
432
330
70
100
AcDbEntity
  8
0
  6
Continuous
100
AcDbLine
 10
739.2866560275816
 20
-104.8792099316556
 30
0.0
 11
739.2866560275816
 21
-76.24720993165556
 31
0.0
  0
LINE
  5
433
330
70
100
AcDbEntity
  8
0
  6
Continuous
100
AcDbLine
 10
739.2866560275816
 20
-75.06220993165545
 30
0.0
 11
739.0056560275817
 21
-75.06220993165545
 31
0.0
  0
LINE
  5
434
330
70
100
AcDbEntity
  8
0
  6
Continuous
100
AcDbLine
 10
739.2866560275816
 20
-75.32420993165558
 30
0.0
 11
739.2866560275816
 21
-75.06220993165545
 31
0.0
  0
LINE
  5
435
330
70
100
AcDbEntity
  8
0
  6
Continuous
100
AcDbLine
 10
739.0056560275817
 20
-75.06220993165545
 30
0.0
 11
268.5196560275816
 21
-75.06220993165545
 31
0.0
  0
LINE
  5
436
330
70
100
AcDbEntity
  8
0
  6
Continuous
100
AcDbLine
 10
739.2866560275816
 20
-105.2352099316554
 30
0.0
 11
739.2866560275816
 21
-104.8792099316556
 31
0.0
  0
LINE
  5
437
330
70
100
AcDbEntity
  8
0
  6
Continuous
100
AcDbLine
 10
739.2866560275816
 20
-76.24720993165556
 30
0.0
 11
739.2866560275816
 21
-75.88920993165555
 31
0.0
  0
LINE
  5
438
330
70
100
AcDbEntity
  8
0
  6
Continuous
100
AcDbLine
 10
268.5196560275816
 20
-106.0622099316555
 30
0.0
 11
739.0056560275817
 21
-106.0622099316555
 31
0.0
  0
LINE
  5
439
330
70
100
AcDbEntity
  8
0
  6
Continuous
100
AcDbLine
 10
739.2866560275816
 20
-105.7662099316555
 30
0.0
 11
739.2866560275816
 21
-105.2352099316554
 31
0.0
  0
LINE
  5
43A
330
70
100
AcDbEntity
  8
0
  6
Continuous
100
AcDbLine
 10
739.2866560275816
 20
-106.0622099316555
 30
0.0
 11
739.2866560275816
 21
-105.7662099316555
 31
0.0
  0
LINE
  5
43B
330
70
100
AcDbEntity
  8
0
  6
Continuous
100
AcDbLine
 10
739.0056560275817
 20
-106.0622099316555
 30
0.0
 11
739.2866560275816
 21
-106.0622099316555
 31
0.0
  0
LINE
  5
43C
330
70
100
AcDbEntity
  8
0
  6
Continuous
100
AcDbLine
 10
117.7526560275816
 20
-75.32420993165558
 30
0.0
 11
117.7526560275816
 21
-75.88920993165555
 31
0.0
  0
LINE
  5
43D
330
70
100
AcDbEntity
  8
0
  6
Continuous
100
AcDbLine
 10
117.7526560275816
 20
-76.24720993165556
 30
0.0
 11
117.7526560275816
 21
-104.8792099316556
 31
0.0
  0
LINE
  5
43E
330
70
100
AcDbEntity
  8
0
  6
Continuous
100
AcDbLine
 10
117.7526560275816
 20
-75.06220993165545
 30
0.0
 11
117.7526560275816
 21
-75.32420993165558
 31
0.0
  0
LINE
  5
43F
330
70
100
AcDbEntity
  8
0
  6
Continuous
100
AcDbLine
 10
118.0336560275816
 20
-75.06220993165545
 30
0.0
 11
117.7526560275816
 21
-75.06220993165545
 31
0.0
  0
LINE
  5
440
330
70
100
AcDbEntity
  8
0
  6
Continuous
100
AcDbLine
 10
268.5196560275816
 20
-75.06220993165545
 30
0.0
 11
118.0336560275816
 21
-75.06220993165545
 31
0.0
  0
LINE
  5
441
330
70
100
AcDbEntity
  8
0
  6
Continuous
100
AcDbLine
 10
117.7526560275816
 20
-104.8792099316556
 30
0.0
 11
117.7526560275816
 21
-105.2352099316554
 31
0.0
  0
LINE
  5
442
330
70
100
AcDbEntity
  8
0
  6
Continuous
100
AcDbLine
 10
117.7526560275816
 20
-75.88920993165555
 30
0.0
 11
117.7526560275816
 21
-76.24720993165556
 31
0.0
  0
LINE
  5
443
330
70
100
AcDbEntity
  8
0
  6
Continuous
100
AcDbLine
 10
118.0336560275816
 20
-106.0622099316555
 30
0.0
 11
268.5196560275816
 21
-106.0622099316555
 31
0.0
  0
LINE
  5
444
330
70
100
AcDbEntity
  8
0
  6
Continuous
100
AcDbLine
 10
117.7526560275816
 20
-105.2352099316554
 30
0.0
 11
117.7526560275816
 21
-105.7662099316555
 31
0.0
  0
LINE
  5
445
330
70
100
AcDbEntity
  8
0
  6
Continuous
100
AcDbLine
 10
117.7526560275816
 20
-106.0622099316555
 30
0.0
 11
118.0336560275816
 21
-106.0622099316555
 31
0.0
  0
LINE
  5
446
330
70
100
AcDbEntity
  8
0
  6
Continuous
100
AcDbLine
 10
117.7526560275816
 20
-105.7662099316555
 30
0.0
 11
117.7526560275816
 21
-106.0622099316555
 31
0.0
  0
LINE
  5
447
330
70
100
AcDbEntity
  8
0
  6
Continuous
100
AcDbLine
 10
81.51965602758165
 20
-75.06220993165545
 30
0.0
 11
81.51965602758165
 21
-76.44020993165554
 31
0.0
  0
LINE
  5
448
330
70
100
AcDbEntity
  8
0
  6
Continuous
100
AcDbLine
 10
82.85265602758164
 20
-75.06220993165545
 30
0.0
 11
81.51965602758165
 21
-75.06220993165545
 31
0.0
  0
LINE
  5
449
330
70
100
AcDbEntity
  8
0
  6
Continuous
100
AcDbLine
 10
81.51965602758165
 20
-106.0622099316555
 30
0.0
 11
82.85265602758164
 21
-106.0622099316555
 31
0.0
  0
LINE
  5
44A
330
70
100
AcDbEntity
  8
0
  6
Continuous
100
AcDbLine
 10
81.51965602758165
 20
-104.6842099316554
 30
0.0
 11
81.51965602758165
 21
-106.0622099316555
 31
0.0
  0
LINE
  5
44B
330
70
100
AcDbEntity
  8
0
  6
Continuous
100
AcDbLine
 10
740.2936560275817
 20
-75.06220993165545
 30
0.0
 11
739.2866560275816
 21
-75.06220993165545
 31
0.0
  0
LINE
  5
44C
330
70
100
AcDbEntity
  8
0
  6
Continuous
100
AcDbLine
 10
775.5196560275816
 20
-76.44020993165554
 30
0.0
 11
775.5196560275816
 21
-75.06220993165545
 31
0.0
  0
LINE
  5
44D
330
70
100
AcDbEntity
  8
0
  6
Continuous
100
AcDbLine
 10
775.5196560275816
 20
-75.06220993165545
 30
0.0
 11
774.1866560275816
 21
-75.06220993165545
 31
0.0
  0
LINE
  5
44E
330
70
100
AcDbEntity
  8
0
  6
Continuous
100
AcDbLine
 10
775.5196560275816
 20
-106.0622099316555
 30
0.0
 11
775.5196560275816
 21
-104.6842099316554
 31
0.0
  0
LINE
  5
44F
330
70
100
AcDbEntity
  8
0
  6
Continuous
100
AcDbLine
 10
774.1866560275816
 20
-106.0622099316555
 30
0.0
 11
775.5196560275816
 21
-106.0622099316555
 31
0.0
  0
LINE
  5
459
330
70
100
AcDbEntity
  8
0
  6
Continuous
100
AcDbLine
 10
774.9655159838177
 20
24.60042347356564
 30
0.0
 11
82.07379607134532
 21
24.60042347356564
 31
0.0
  0
ENDSEC
  0
SECTION
  2
OBJECTS
  0
DICTIONARY
  5
C
330
0
100
AcDbDictionary
281
     1
  3
ACAD_2007HEADERVARS_RT
350
5BD
  3
ACAD_CIP_PREVIOUS_PRODUCT_INFO
350
BD
  3
ACAD_COLOR
350
62
  3
ACAD_DETAILVIEWSTYLE
350
6A
  3
ACAD_GROUP
350
D
  3
ACAD_LAYOUT
350
61
  3
ACAD_MATERIAL
350
10
  3
ACAD_MLEADERSTYLE
350
65
  3
ACAD_MLINESTYLE
350
5E
  3
ACAD_PLOTSETTINGS
350
60
  3
ACAD_PLOTSTYLENAME
350
E
  3
ACAD_SCALELIST
350
42
  3
ACAD_SECTIONVIEWSTYLE
350
67
  3
ACAD_TABLESTYLE
350
63
  3
ACAD_VISUALSTYLE
350
29
  3
ACDB_RECOMPOSE_DATA
350
5BB
  3
AcDbVariableDictionary
350
465
  3
AcmDictionary
350
E9
  3
AMG
350
BE
  3
AMGSNAPSETTINGS
350
11E
  3
DWGPROPS
350
5BC
  0
DICTIONARY
  5
461
330
54
100
AcDbDictionary
280
     1
281
     1
  3
ADSK_XREC_LAYER_RECONCILED
360
462
  0
DICTIONARY
  5
463
330
450
100
AcDbDictionary
280
     1
281
     1
  3
ADSK_XREC_LAYER_RECONCILED
360
464
  0
DICTIONARY
  5
453
330
70
100
AcDbDictionary
280
     1
281
     1
  3
ACAD_SORTENTS
360
454
  0
DICTIONARY
  5
5BD
102
{ACAD_REACTORS
330
C
102
}
330
C
100
AcDbDictionary
281
     1
  3
DIMARCSYM
350
5BE
  3
DIMLTEX1
350
5C0
  3
DIMLTEX2
350
5C1
  3
DIMLTYPE
350
5BF
  0
XRECORD
  5
BD
102
{ACAD_REACTORS
330
C
102
}
330
C
100
AcDbXrecord
280
     1
300
AMECH_PP
300
2013
300
PDSS_F_S
  0
DICTIONARY
  5
62
102
{ACAD_REACTORS
330
C
102
}
330
C
100
AcDbDictionary
281
     1
  0
DICTIONARY
  5
6A
102
{ACAD_REACTORS
330
C
102
}
330
C
100
AcDbDictionary
281
     1
  3
Imperial24
350
6B
  0
DICTIONARY
  5
D
102
{ACAD_REACTORS
330
C
102
}
330
C
100
AcDbDictionary
281
     1
  0
DICTIONARY
  5
61
102
{ACAD_REACTORS
330
C
102
}
330
C
100
AcDbDictionary
281
     1
  3
Model
350
73
  3
レイアウト1
350
6F
  0
DICTIONARY
  5
10
102
{ACAD_REACTORS
330
C
102
}
330
C
100
AcDbDictionary
281
     1
  3
ByBlock
350
19
  3
ByLayer
350
11
  3
Global
350
21
  0
DICTIONARY
  5
65
102
{ACAD_REACTORS
330
C
102
}
330
C
100
AcDbDictionary
281
     1
  3
Standard
350
66
  0
DICTIONARY
  5
5E
102
{ACAD_REACTORS
330
C
102
}
330
C
100
AcDbDictionary
281
     1
  3
Standard
350
5F
  0
DICTIONARY
  5
60
102
{ACAD_REACTORS
330
C
102
}
330
C
100
AcDbDictionary
281
     1
  0
ACDBDICTIONARYWDFLT
  5
E
102
{ACAD_REACTORS
330
C
102
}
330
C
100
AcDbDictionary
281
     1
  3
Normal
350
F
100
AcDbDictionaryWithDefault
340
F
  0
DICTIONARY
  5
42
102
{ACAD_REACTORS
330
C
102
}
330
C
100
AcDbDictionary
281
     1
  3
A0
350
43
  3
A1
350
44
  3
A2
350
45
  3
A3
350
46
  3
A4
350
47
  3
A5
350
48
  3
A6
350
49
  3
A7
350
4A
  3
A8
350
4B
  3
A9
350
4C
  3
B0
350
4D
  3
B1
350
4E
  3
B2
350
4F
  3
B3
350
50
  3
B4
350
51
  3
B5
350
52
  3
B6
350
53
  0
DICTIONARY
  5
67
102
{ACAD_REACTORS
330
C
102
}
330
C
100
AcDbDictionary
281
     1
  3
Imperial24
350
69
  0
DICTIONARY
  5
63
102
{ACAD_REACTORS
330
C
102
}
330
C
100
AcDbDictionary
281
     1
  3
Standard
350
64
  0
DICTIONARY
  5
29
102
{ACAD_REACTORS
330
C
102
}
330
C
100
AcDbDictionary
281
     1
  3
2dWireframe
350
2F
  3
Basic
350
2E
  3
Brighten
350
35
  3
ColorChange
350
39
  3
Conceptual
350
32
  3
Dim
350
34
  3
EdgeColorOff
350
41
  3
Facepattern
350
38
  3
Flat
350
2A
  3
FlatWithEdges
350
2B
  3
Gouraud
350
2C
  3
GouraudWithEdges
350
2D
  3
Hidden
350
31
  3
JitterOff
350
3F
  3
Linepattern
350
37
  3
OverhangOff
350
40
  3
Realistic
350
33
  3
Shaded
350
3E
  3
Shaded with edges
350
3D
  3
Shades of Gray
350
3A
  3
Sketchy
350
3B
  3
Thicken
350
36
  3
Wireframe
350
30
  3
X-Ray
350
3C
  0
XRECORD
  5
5BB
102
{ACAD_REACTORS
330
C
102
}
330
C
100
AcDbXrecord
280
     1
 90
        1
330
64
  0
DICTIONARY
  5
465
102
{ACAD_REACTORS
330
C
102
}
330
C
100
AcDbDictionary
281
     1
  3
CANNOSCALE
350
46A
  3
CMLEADERSTYLE
350
467
  3
CTABLESTYLE
350
466
  3
CVIEWDETAILSTYLE
350
468
  3
CVIEWSECTIONSTYLE
350
469
  3
DIMASSOC
350
46D
  3
INDEXCTL
350
46C
  3
SORTENTS
350
46B
  3
XCLIPFRAME
350
5B9
  0
DICTIONARY
  5
E9
102
{ACAD_REACTORS
330
C
102
}
330
C
100
AcDbDictionary
281
     1
  3
AcmStdDictionary
350
F0
  0
DICTIONARY
  5
BE
102
{ACAD_REACTORS
330
C
102
}
330
C
100
AcDbDictionary
281
     1
  0
DICTIONARY
  5
11E
102
{ACAD_REACTORS
330
C
102
}
330
C
100
AcDbDictionary
281
     1
  0
XRECORD
  5
5BC
102
{ACAD_REACTORS
330
C
102
}
330
C
100
AcDbXrecord
280
     1
  1
DWGPROPS COOKIE
  2

  3

  4

  6

  7

  8
tomitais
  9

300
=
301
=
302
=
303
=
304
=
305
=
306
=
307
=
308
=
309
=
 40
0.002495787037037
 41
2457211.389930648
 42
2457225.40671669
  1

 90
        0
  0
XRECORD
  5
462
102
{ACAD_REACTORS
330
461
102
}
330
461
100
AcDbXrecord
280
     1
290
     1
  0
XRECORD
  5
464
102
{ACAD_REACTORS
330
463
102
}
330
463
100
AcDbXrecord
280
     1
290
     1
  0
SORTENTSTABLE
  5
454
102
{ACAD_REACTORS
330
453
102
}
330
453
100
AcDbSortentsTable
330
70
331
2CE
  5
2D3
331
254
  5
259
331
250
  5
255
331
28F
  5
294
331
2CA
  5
2CF
331
3AD
  5
3B2
331
24C
  5
251
331
28B
  5
290
331
2C6
  5
2CB
331
3A9
  5
3AE
331
248
  5
24D
331
3EC
  5
3F1
331
2C2
  5
2C7
331
3E8
  5
3ED
331
427
  5
42C
331
423
  5
428
331
3E4
  5
3E9
331
3E0
  5
3E5
331
8D
  5
92
331
89
  5
8E
331
85
  5
8A
331
214
  5
219
331
81
  5
86
331
287
  5
28C
331
283
  5
288
331
2BE
  5
2C3
331
244
  5
249
331
240
  5
245
331
27F
  5
284
331
2BA
  5
2BF
331
23C
  5
241
331
27B
  5
280
331
41F
  5
424
331
2B6
  5
2BB
331
2F5
  5
3A9
331
2F1
  5
2F6
331
238
  5
23D
331
3DC
  5
3E1
331
41B
  5
420
331
2B2
  5
2B7
331
3D8
  5
3DD
331
417
  5
41C
331
413
  5
418
331
44E
  5
457
331
3D4
  5
3D9
331
3D0
  5
3D5
331
44A
  5
44F
331
76
  5
7B
331
7D
  5
82
331
B8
  5
213
331
79
  5
7E
331
B4
  5
B9
331
B0
  5
B5
331
277
  5
27C
331
273
  5
278
331
2AE
  5
2B3
331
2ED
  5
2F2
331
234
  5
239
331
26F
  5
274
331
2AA
  5
2AF
331
2E9
  5
2EE
331
230
  5
235
331
22C
  5
231
331
26B
  5
270
331
40F
  5
414
331
2A6
  5
2AB
331
2E5
  5
2EA
331
2E1
  5
2E6
331
228
  5
22D
331
3CC
  5
3D1
331
40B
  5
410
331
446
  5
44B
331
2A2
  5
2A7
331
3C8
  5
3CD
331
407
  5
40C
331
442
  5
447
331
403
  5
408
331
43E
  5
443
331
3C4
  5
3C9
331
3C0
  5
3C5
331
43A
  5
43F
331
AC
  5
B1
331
A8
  5
AD
331
A4
  5
A9
331
A0
  5
A5
331
267
  5
26C
331
29E
  5
2A3
331
2DD
  5
2E2
331
224
  5
229
331
263
  5
268
331
25F
  5
264
331
29A
  5
29F
331
2D9
  5
2DE
331
220
  5
225
331
21C
  5
221
331
25B
  5
260
331
3FF
  5
404
331
296
  5
29B
331
2D5
  5
2DA
331
2D1
  5
2D6
331
218
  5
21D
331
3BC
  5
3C1
331
3FB
  5
400
331
436
  5
43B
331
292
  5
297
331
3B8
  5
3BD
331
3F7
  5
3FC
331
432
  5
437
331
3F3
  5
3F8
331
42E
  5
433
331
3B4
  5
3B9
331
42A
  5
42F
331
3B0
  5
3B5
331
9C
  5
A1
331
98
  5
9D
331
94
  5
99
331
90
  5
95
331
257
  5
25C
331
2CD
  5
2D2
331
253
  5
258
331
24F
  5
254
331
28E
  5
293
331
2C9
  5
2CE
331
3AC
  5
3B1
331
24B
  5
250
331
28A
  5
28F
331
3EF
  5
3F4
331
2C5
  5
2CA
331
2C1
  5
2C6
331
3A8
  5
3AD
331
3EB
  5
3F0
331
426
  5
42B
331
3E7
  5
3EC
331
422
  5
427
331
3E3
  5
3E8
331
8C
  5
91
331
217
  5
21C
331
88
  5
8D
331
84
  5
89
331
213
  5
218
331
80
  5
85
331
247
  5
24C
331
286
  5
28B
331
282
  5
287
331
2BD
  5
2C2
331
243
  5
248
331
23F
  5
244
331
27E
  5
283
331
2B9
  5
2BE
331
2F4
  5
3A8
331
23B
  5
240
331
27A
  5
27F
331
3DF
  5
3E4
331
41E
  5
423
331
2B5
  5
2BA
331
2F0
  5
2F5
331
3DB
  5
3E0
331
41A
  5
41F
331
2B1
  5
2B6
331
3D7
  5
3DC
331
416
  5
41B
331
412
  5
417
331
44D
  5
456
331
3D3
  5
3D8
331
449
  5
44E
331
7C
  5
81
331
BB
  5
216
331
B7
  5
212
331
78
  5
7D
331
B3
  5
B8
331
237
  5
23C
331
276
  5
27B
331
272
  5
277
331
2AD
  5
2B2
331
2EC
  5
2F1
331
233
  5
238
331
22F
  5
234
331
26E
  5
273
331
2A9
  5
2AE
331
2E8
  5
2ED
331
22B
  5
230
331
26A
  5
26F
331
3CF
  5
3D4
331
40E
  5
413
331
2A5
  5
2AA
331
2E4
  5
2E9
331
2E0
  5
2E5
331
3CB
  5
3D0
331
40A
  5
40F
331
445
  5
44A
331
2A1
  5
2A6
331
441
  5
446
331
3C7
  5
3CC
331
406
  5
40B
331
402
  5
407
331
43D
  5
442
331
3C3
  5
3C8
331
439
  5
43E
331
AF
  5
B4
331
AB
  5
B0
331
A7
  5
AC
331
A3
  5
A8
331
227
  5
22C
331
266
  5
26B
331
262
  5
267
331
29D
  5
2A2
331
2DC
  5
2E1
331
223
  5
228
331
25E
  5
263
331
299
  5
29E
331
2D8
  5
2DD
331
21F
  5
224
331
21B
  5
220
331
25A
  5
25F
331
3BF
  5
3C4
331
3FE
  5
403
331
295
  5
29A
331
2D4
  5
2D9
331
2D0
  5
2D5
331
3BB
  5
3C0
331
3FA
  5
3FF
331
435
  5
43A
331
291
  5
296
331
3B7
  5
3BC
331
3F6
  5
3FB
331
431
  5
436
331
3F2
  5
3F7
331
42D
  5
432
331
3B3
  5
3B8
331
429
  5
42E
331
9F
  5
A4
331
9B
  5
A0
331
97
  5
9C
331
93
  5
98
331
256
  5
25B
331
2CC
  5
2D1
331
252
  5
257
331
24E
  5
253
331
28D
  5
292
331
2C8
  5
2CD
331
3AF
  5
3B4
331
3AB
  5
3B0
331
24A
  5
24F
331
289
  5
28E
331
3EE
  5
3F3
331
2C4
  5
2C9
331
2C0
  5
2C5
331
3EA
  5
3EF
331
425
  5
42A
331
3E6
  5
3EB
331
3E2
  5
3E7
331
421
  5
426
331
8F
  5
94
331
8B
  5
90
331
87
  5
8C
331
216
  5
21B
331
83
  5
88
331
212
  5
217
331
3A7
  5
3AC
331
246
  5
24B
331
285
  5
28A
331
281
  5
286
331
2BC
  5
2C1
331
242
  5
247
331
23E
  5
243
331
27D
  5
282
331
2B8
  5
2BD
331
2F3
  5
3A7
331
23A
  5
23F
331
279
  5
27E
331
3DE
  5
3E3
331
41D
  5
422
331
2B4
  5
2B9
331
2B0
  5
2B5
331
3DA
  5
3DF
331
419
  5
41E
331
415
  5
41A
331
3D6
  5
3DB
331
411
  5
416
331
44C
  5
455
331
3D2
  5
3D7
331
448
  5
44D
331
7F
  5
84
331
BA
  5
215
331
7B
  5
80
331
B6
  5
BB
331
B2
  5
B7
331
2EF
  5
2F4
331
236
  5
23B
331
275
  5
27A
331
271
  5
276
331
2AC
  5
2B1
331
2EB
  5
2F0
331
232
  5
237
331
22E
  5
233
331
26D
  5
272
331
2A8
  5
2AD
331
2E7
  5
2EC
331
2E3
  5
2E8
331
22A
  5
22F
331
269
  5
26E
331
3CE
  5
3D3
331
40D
  5
412
331
2A4
  5
2A9
331
3CA
  5
3CF
331
409
  5
40E
331
444
  5
449
331
2A0
  5
2A5
331
440
  5
445
331
3C6
  5
3CB
331
405
  5
40A
331
401
  5
406
331
43C
  5
441
331
3C2
  5
3C7
331
438
  5
43D
331
AE
  5
B3
331
AA
  5
AF
331
A6
  5
AB
331
A2
  5
A7
331
2DF
  5
2E4
331
226
  5
22B
331
265
  5
26A
331
261
  5
266
331
29C
  5
2A1
331
2DB
  5
2E0
331
222
  5
227
331
21E
  5
223
331
25D
  5
262
331
298
  5
29D
331
2D7
  5
2DC
331
21A
  5
21F
331
259
  5
25E
331
3BE
  5
3C3
331
3FD
  5
402
331
294
  5
299
331
2D3
  5
2D8
331
3BA
  5
3BF
331
3F9
  5
3FE
331
434
  5
439
331
290
  5
295
331
430
  5
435
331
3B6
  5
3BB
331
3F5
  5
3FA
331
3F1
  5
3F6
331
42C
  5
431
331
3B2
  5
3B7
331
428
  5
42D
331
9E
  5
A3
331
9A
  5
9F
331
96
  5
9B
331
92
  5
97
331
2CF
  5
2D4
331
255
  5
25A
331
251
  5
256
331
2CB
  5
2D0
331
24D
  5
252
331
28C
  5
291
331
2C7
  5
2CC
331
3AE
  5
3B3
331
3AA
  5
3AF
331
249
  5
24E
331
288
  5
28D
331
3ED
  5
3F2
331
2C3
  5
2C8
331
3E9
  5
3EE
331
424
  5
429
331
3E5
  5
3EA
331
3E1
  5
3E6
331
420
  5
425
331
8E
  5
93
331
8A
  5
8F
331
86
  5
8B
331
215
  5
21A
331
82
  5
87
331
284
  5
289
331
2BF
  5
2C4
331
3A6
  5
3AB
331
245
  5
24A
331
280
  5
285
331
2BB
  5
2C0
331
241
  5
246
331
23D
  5
242
331
27C
  5
281
331
2B7
  5
2BC
331
2F6
  5
3AA
331
2F2
  5
3A6
331
239
  5
23E
331
278
  5
27D
331
3DD
  5
3E2
331
41C
  5
421
331
2B3
  5
2B8
331
3D9
  5
3DE
331
418
  5
41D
331
414
  5
419
331
44F
  5
458
331
3D5
  5
3DA
331
3D1
  5
3D6
331
410
  5
415
331
44B
  5
452
331
77
  5
7C
331
7E
  5
83
331
B9
  5
214
331
7A
  5
7F
331
B5
  5
BA
331
B1
  5
B6
331
2AF
  5
2B4
331
2EE
  5
2F3
331
235
  5
23A
331
274
  5
279
331
270
  5
275
331
2AB
  5
2B0
331
2EA
  5
2EF
331
231
  5
236
331
22D
  5
232
331
26C
  5
271
331
2A7
  5
2AC
331
2E6
  5
2EB
331
2E2
  5
2E7
331
229
  5
22E
331
268
  5
26D
331
3CD
  5
3D2
331
40C
  5
411
331
447
  5
44C
331
2A3
  5
2A8
331
3C9
  5
3CE
331
408
  5
40D
331
443
  5
448
331
404
  5
409
331
43F
  5
444
331
3C5
  5
3CA
331
400
  5
405
331
43B
  5
440
331
3C1
  5
3C6
331
AD
  5
B2
331
A9
  5
AE
331
A5
  5
AA
331
A1
  5
A6
331
29F
  5
2A4
331
2DE
  5
2E3
331
225
  5
22A
331
264
  5
269
331
260
  5
265
331
29B
  5
2A0
331
2DA
  5
2DF
331
221
  5
226
331
21D
  5
222
331
25C
  5
261
331
297
  5
29C
331
2D6
  5
2DB
331
2D2
  5
2D7
331
219
  5
21E
331
258
  5
25D
331
3BD
  5
3C2
331
3FC
  5
401
331
437
  5
43C
331
293
  5
298
331
3B9
  5
3BE
331
3F8
  5
3FD
331
433
  5
438
331
42F
  5
434
331
3B5
  5
3BA
331
3F4
  5
3F9
331
3F0
  5
3F5
331
42B
  5
430
331
3B1
  5
3B6
331
9D
  5
A2
331
99
  5
9E
331
95
  5
9A
331
91
  5
96
  0
XRECORD
  5
5BE
102
{ACAD_REACTORS
330
5BD
102
}
330
5BD
100
AcDbXrecord
280
     1
 70
     1
  0
XRECORD
  5
5C0
102
{ACAD_REACTORS
330
5BD
102
}
330
5BD
100
AcDbXrecord
280
     1
340
5A
  0
XRECORD
  5
5C1
102
{ACAD_REACTORS
330
5BD
102
}
330
5BD
100
AcDbXrecord
280
     1
340
5A
  0
XRECORD
  5
5BF
102
{ACAD_REACTORS
330
5BD
102
}
330
5BD
100
AcDbXrecord
280
     1
340
5A
  0
ACDBDETAILVIEWSTYLE
  5
6B
102
{ACAD_REACTORS
330
6A
102
}
330
6A
100
AcDbModelDocViewStyle
 70
     0
  3
Imperial24
290
     0
100
AcDbDetailViewStyle
 70
     0
 71
     0
 90
        3
 71
     1
340
55
 40
0.24
340
0
 40
0.24
300

 40
0.36
280
     3
 71
     2
340
5C
 90
       25
 71
     3
340
55
 40
0.24
 90
        1
 40
0.75
 90
        1
300
%<\AcVar ViewType \f "%tc1">% %<\AcVar ViewDetailId>%\PSCALE %<\AcVar ViewScale \f "%sn">%
 71
     4
340
5C
 90
       25
340
5C
 90
       25
280
     0
  0
LAYOUT
  5
73
102
{ACAD_XDICTIONARY
360
5F5
102
}
102
{ACAD_REACTORS
330
61
102
}
330
61
100
AcDbPlotSettings
  1

  2
Adobe PDF
  4

  6

 40
0.0
 41
0.0
 42
0.0
 43
0.0
 44
0.0
 45
0.0
 46
0.0
 47
0.0
 48
0.0
 49
0.0
140
0.0
141
0.0
142
1.0
143
1.0
 70
  1712
 72
     0
 73
     0
 74
     0
  7

 75
     0
147
1.0
148
0.0
149
0.0
100
AcDbLayout
  1
Model
 70
     1
 71
     0
 10
0.0
 20
0.0
 11
12.0
 21
9.0
 12
0.0
 22
0.0
 32
0.0
 14
0.0
 24
0.0
 34
0.0
 15
0.0
 25
0.0
 35
0.0
146
0.0
 13
0.0
 23
0.0
 33
0.0
 16
1.0
 26
0.0
 36
0.0
 17
0.0
 27
1.0
 37
0.0
 76
     0
330
70
331
75
  0
LAYOUT
  5
6F
102
{ACAD_XDICTIONARY
360
5F3
102
}
102
{ACAD_REACTORS
330
61
102
}
330
61
100
AcDbPlotSettings
  1

  2
Adobe PDF
  4

  6

 40
0.0
 41
0.0
 42
0.0
 43
0.0
 44
0.0
 45
0.0
 46
0.0
 47
0.0
 48
0.0
 49
0.0
140
0.0
141
0.0
142
1.0
143
1.0
 70
   688
 72
     0
 73
     0
 74
     5
  7

 75
    16
147
1.0
148
0.0
149
0.0
100
AcDbLayout
  1
レイアウト1
 70
     1
 71
     1
 10
0.0
 20
0.0
 11
12.0
 21
9.0
 12
0.0
 22
0.0
 32
0.0
 14
1.000000000000000E+20
 24
1.000000000000000E+20
 34
1.000000000000000E+20
 15
-1.000000000000000E+20
 25
-1.000000000000000E+20
 35
-1.000000000000000E+20
146
0.0
 13
0.0
 23
0.0
 33
0.0
 16
1.0
 26
0.0
 36
0.0
 17
0.0
 27
1.0
 37
0.0
 76
     0
330
6C
  0
MATERIAL
  5
19
102
{ACAD_XDICTIONARY
360
1A
102
}
102
{ACAD_REACTORS
330
10
102
}
330
10
100
AcDbMaterial
  1
ByBlock
 72
     0
 43
0.0208333333333333
 43
0.0
 43
0.0
 43
0.0
 43
0.0
 43
0.0208333333333333
 43
0.0
 43
0.0
 43
0.0
 43
0.0
 43
1.0
 43
0.0
 43
0.0
 43
0.0
 43
0.0
 43
1.0
 77
     0
 47
0.0208333333333333
 47
0.0
 47
0.0
 47
0.0
 47
0.0
 47
0.0208333333333333
 47
0.0
 47
0.0
 47
0.0
 47
0.0
 47
1.0
 47
0.0
 47
0.0
 47
0.0
 47
0.0
 47
1.0
171
     0
 49
0.0208333333333333
 49
0.0
 49
0.0
 49
0.0
 49
0.0
 49
0.0208333333333333
 49
0.0
 49
0.0
 49
0.0
 49
0.0
 49
1.0
 49
0.0
 49
0.0
 49
0.0
 49
0.0
 49
1.0
175
     0
142
0.0208333333333333
142
0.0
142
0.0
142
0.0
142
0.0
142
0.0208333333333333
142
0.0
142
0.0
142
0.0
142
0.0
142
1.0
142
0.0
142
0.0
142
0.0
142
0.0
142
1.0
179
     0
144
0.0208333333333333
144
0.0
144
0.0
144
0.0
144
0.0
144
0.0208333333333333
144
0.0
144
0.0
144
0.0
144
0.0
144
1.0
144
0.0
144
0.0
144
0.0
144
0.0
144
1.0
147
0.0208333333333333
147
0.0
147
0.0
147
0.0
147
0.0
147
0.0208333333333333
147
0.0
147
0.0
147
0.0
147
0.0
147
1.0
147
0.0
147
0.0
147
0.0
147
0.0
147
1.0
  0
MATERIAL
  5
11
102
{ACAD_XDICTIONARY
360
12
102
}
102
{ACAD_REACTORS
330
10
102
}
330
10
100
AcDbMaterial
  1
ByLayer
 72
     0
 43
0.0208333333333333
 43
0.0
 43
0.0
 43
0.0
 43
0.0
 43
0.0208333333333333
 43
0.0
 43
0.0
 43
0.0
 43
0.0
 43
1.0
 43
0.0
 43
0.0
 43
0.0
 43
0.0
 43
1.0
 77
     0
 47
0.0208333333333333
 47
0.0
 47
0.0
 47
0.0
 47
0.0
 47
0.0208333333333333
 47
0.0
 47
0.0
 47
0.0
 47
0.0
 47
1.0
 47
0.0
 47
0.0
 47
0.0
 47
0.0
 47
1.0
171
     0
 49
0.0208333333333333
 49
0.0
 49
0.0
 49
0.0
 49
0.0
 49
0.0208333333333333
 49
0.0
 49
0.0
 49
0.0
 49
0.0
 49
1.0
 49
0.0
 49
0.0
 49
0.0
 49
0.0
 49
1.0
175
     0
142
0.0208333333333333
142
0.0
142
0.0
142
0.0
142
0.0
142
0.0208333333333333
142
0.0
142
0.0
142
0.0
142
0.0
142
1.0
142
0.0
142
0.0
142
0.0
142
0.0
142
1.0
179
     0
144
0.0208333333333333
144
0.0
144
0.0
144
0.0
144
0.0
144
0.0208333333333333
144
0.0
144
0.0
144
0.0
144
0.0
144
1.0
144
0.0
144
0.0
144
0.0
144
0.0
144
1.0
147
0.0208333333333333
147
0.0
147
0.0
147
0.0
147
0.0
147
0.0208333333333333
147
0.0
147
0.0
147
0.0
147
0.0
147
1.0
147
0.0
147
0.0
147
0.0
147
0.0
147
1.0
  0
MATERIAL
  5
21
102
{ACAD_XDICTIONARY
360
22
102
}
102
{ACAD_REACTORS
330
10
102
}
330
10
100
AcDbMaterial
  1
Global
 72
     0
 43
0.0208333333333333
 43
0.0
 43
0.0
 43
0.0
 43
0.0
 43
0.0208333333333333
 43
0.0
 43
0.0
 43
0.0
 43
0.0
 43
1.0
 43
0.0
 43
0.0
 43
0.0
 43
0.0
 43
1.0
 77
     0
 47
0.0208333333333333
 47
0.0
 47
0.0
 47
0.0
 47
0.0
 47
0.0208333333333333
 47
0.0
 47
0.0
 47
0.0
 47
0.0
 47
1.0
 47
0.0
 47
0.0
 47
0.0
 47
0.0
 47
1.0
171
     0
 49
0.0208333333333333
 49
0.0
 49
0.0
 49
0.0
 49
0.0
 49
0.0208333333333333
 49
0.0
 49
0.0
 49
0.0
 49
0.0
 49
1.0
 49
0.0
 49
0.0
 49
0.0
 49
0.0
 49
1.0
175
     0
142
0.0208333333333333
142
0.0
142
0.0
142
0.0
142
0.0
142
0.0208333333333333
142
0.0
142
0.0
142
0.0
142
0.0
142
1.0
142
0.0
142
0.0
142
0.0
142
0.0
142
1.0
179
     0
144
0.0208333333333333
144
0.0
144
0.0
144
0.0
144
0.0
144
0.0208333333333333
144
0.0
144
0.0
144
0.0
144
0.0
144
1.0
144
0.0
144
0.0
144
0.0
144
0.0
144
1.0
147
0.0208333333333333
147
0.0
147
0.0
147
0.0
147
0.0
147
0.0208333333333333
147
0.0
147
0.0
147
0.0
147
0.0
147
1.0
147
0.0
147
0.0
147
0.0
147
0.0
147
1.0
  0
MLEADERSTYLE
  5
66
102
{ACAD_REACTORS
330
65
102
}
330
65
100
AcDbMLeaderStyle
170
     2
171
     1
172
     0
 90
        2
 40
0.0
 41
0.0
173
     1
 91
-1056964608
340
5A
 92
       -2
290
     1
 42
0.09
291
     1
 43
0.36
  3
Standard
 44
0.18
300

342
55
174
     1
178
     6
175
     1
176
     0
 93
-1056964608
 45
0.18
292
     0
297
     0
 46
0.18
 94
-1056964608
 47
1.0
 49
1.0
140
1.0
293
     1
141
0.0
294
     1
177
     0
142
1.0
295
     0
296
     0
143
0.125
1001
ACAD_MLEADERVER
1070
     2
  0
MLINESTYLE
  5
5F
102
{ACAD_REACTORS
330
5E
102
}
330
5E
100
AcDbMlineStyle
  2
STANDARD
 70
     0
  3

 62
   256
 51
90.0
 52
90.0
 71
     2
 49
0.5
 62
   256
  6
BYLAYER
 49
-0.5
 62
   256
  6
BYLAYER
  0
ACDBPLACEHOLDER
  5
F
102
{ACAD_REACTORS
330
E
102
}
330
E
  0
SCALE
  5
43
102
{ACAD_REACTORS
330
42
102
}
330
42
100
AcDbScale
 70
     0
300
1:1
140
1.0
141
1.0
290
     1
  0
SCALE
  5
44
102
{ACAD_REACTORS
330
42
102
}
330
42
100
AcDbScale
 70
     0
300
1/128" = 1'-0"
140
0.0078125
141
12.0
290
     0
  0
SCALE
  5
45
102
{ACAD_REACTORS
330
42
102
}
330
42
100
AcDbScale
 70
     0
300
1/64" = 1'-0"
140
0.015625
141
12.0
290
     0
  0
SCALE
  5
46
102
{ACAD_REACTORS
330
42
102
}
330
42
100
AcDbScale
 70
     0
300
1/32" = 1'-0"
140
0.03125
141
12.0
290
     0
  0
SCALE
  5
47
102
{ACAD_REACTORS
330
42
102
}
330
42
100
AcDbScale
 70
     0
300
1/16" = 1'-0"
140
0.0625
141
12.0
290
     0
  0
SCALE
  5
48
102
{ACAD_REACTORS
330
42
102
}
330
42
100
AcDbScale
 70
     0
300
3/32" = 1'-0"
140
0.09375
141
12.0
290
     0
  0
SCALE
  5
49
102
{ACAD_REACTORS
330
42
102
}
330
42
100
AcDbScale
 70
     0
300
1/8" = 1'-0"
140
0.125
141
12.0
290
     0
  0
SCALE
  5
4A
102
{ACAD_REACTORS
330
42
102
}
330
42
100
AcDbScale
 70
     0
300
3/16" = 1'-0"
140
0.1875
141
12.0
290
     0
  0
SCALE
  5
4B
102
{ACAD_REACTORS
330
42
102
}
330
42
100
AcDbScale
 70
     0
300
1/4" = 1'-0"
140
0.25
141
12.0
290
     0
  0
SCALE
  5
4C
102
{ACAD_REACTORS
330
42
102
}
330
42
100
AcDbScale
 70
     0
300
3/8" = 1'-0"
140
0.375
141
12.0
290
     0
  0
SCALE
  5
4D
102
{ACAD_REACTORS
330
42
102
}
330
42
100
AcDbScale
 70
     0
300
1/2" = 1'-0"
140
0.5
141
12.0
290
     0
  0
SCALE
  5
4E
102
{ACAD_REACTORS
330
42
102
}
330
42
100
AcDbScale
 70
     0
300
3/4" = 1'-0"
140
0.75
141
12.0
290
     0
  0
SCALE
  5
4F
102
{ACAD_REACTORS
330
42
102
}
330
42
100
AcDbScale
 70
     0
300
1" = 1'-0"
140
1.0
141
12.0
290
     0
  0
SCALE
  5
50
102
{ACAD_REACTORS
330
42
102
}
330
42
100
AcDbScale
 70
     0
300
1-1/2" = 1'-0"
140
1.5
141
12.0
290
     0
  0
SCALE
  5
51
102
{ACAD_REACTORS
330
42
102
}
330
42
100
AcDbScale
 70
     0
300
3" = 1'-0"
140
3.0
141
12.0
290
     0
  0
SCALE
  5
52
102
{ACAD_REACTORS
330
42
102
}
330
42
100
AcDbScale
 70
     0
300
6" = 1'-0"
140
6.0
141
12.0
290
     0
  0
SCALE
  5
53
102
{ACAD_REACTORS
330
42
102
}
330
42
100
AcDbScale
 70
     0
300
1'-0" = 1'-0"
140
12.0
141
12.0
290
     0
  0
ACDBSECTIONVIEWSTYLE
  5
69
102
{ACAD_REACTORS
330
67
102
}
330
67
100
AcDbModelDocViewStyle
 70
     0
  3
Imperial24
290
     0
100
AcDbSectionViewStyle
 70
     0
 71
     0
 90
       78
 71
     1
340
55
 40
0.24
340
0
340
0
 40
0.24
300
I, O, Q, S, X, Z
 40
0.48
 90
        3
 40
0.18
 90
        1
 71
     2
340
68
 90
       25
340
5C
 90
       50
 40
0.24
 40
0.0
 40
0.24
 71
     3
340
55
 40
0.24
 90
        1
 40
0.75
 90
        1
300
%<\AcVar ViewType \f "%tc1">% %<\AcVar ViewSectionStartId>%-%<\AcVar ViewSectionEndId>%\PSCALE %<\AcVar ViewScale \f "%sn">%
 71
     4
300
ANSI31
 40
1.0
 90
        0
290
     0
290
     0
 90
        6
 40
0.0
 40
1.570796326794896
 40
0.2617993877991494
 40
1.308996938995747
 40
-0.2617993877991494
 40
1.832595714594045
  0
TABLESTYLE
  5
64
102
{ACAD_XDICTIONARY
360
46F
102
}
102
{ACAD_REACTORS
330
63
102
}
330
63
100
AcDbTableStyle
  3
Standard
 70
     0
 71
     0
 40
0.06
 41
0.06
280
     0
281
     0
  7
Standard
140
0.18
170
     2
 62
     0
 63
     7
283
     0
274
    -2
284
     1
 64
     0
275
    -2
285
     1
 65
     0
276
    -2
286
     1
 66
     0
277
    -2
287
     1
 67
     0
278
    -2
288
     1
 68
     0
279
    -2
289
     1
 69
     0
  7
Standard
140
0.25
170
     5
 62
     0
 63
     7
283
     0
274
    -2
284
     1
 64
     0
275
    -2
285
     1
 65
     0
276
    -2
286
     1
 66
     0
277
    -2
287
     1
 67
     0
278
    -2
288
     1
 68
     0
279
    -2
289
     1
 69
     0
  7
Standard
140
0.18
170
     5
 62
     0
 63
     7
283
     0
274
    -2
284
     1
 64
     0
275
    -2
285
     1
 65
     0
276
    -2
286
     1
 66
     0
277
    -2
287
     1
 67
     0
278
    -2
288
     1
 68
     0
279
    -2
289
     1
 69
     0
  0
VISUALSTYLE
  5
2F
102
{ACAD_XDICTIONARY
360
5CC
102
}
102
{ACAD_REACTORS
330
29
102
}
330
29
100
AcDbVisualStyle
  2

 70
     4
 71
     0
 72
     2
 73
     0
 90
        0
 40
-0.6
 41
-30.0
 62
     5
 63
     7
 74
     1
 91
        4
 64
     7
 65
   257
 75
     1
175
     1
 42
1.0
 92
        0
 66
   257
 43
1.0
 76
     1
 77
     6
 78
     2
 67
     7
 79
     5
170
     0
171
     0
290
     0
174
     0
 93
        1
 44
0.0
173
     0
291
     0
 45
0.0
1001
ACAD
1000
AcDbSavedByObjectVersion
1070
     0
  0
VISUALSTYLE
  5
2E
102
{ACAD_XDICTIONARY
360
5CA
102
}
102
{ACAD_REACTORS
330
29
102
}
330
29
100
AcDbVisualStyle
  2

 70
     7
 71
     1
 72
     0
 73
     1
 90
        0
 40
-0.6
 41
-30.0
 62
     5
 63
     7
 74
     0
 91
        4
 64
     7
 65
   257
 75
     1
175
     1
 42
1.0
 92
        8
 66
     7
 43
1.0
 76
     1
 77
     6
 78
     2
 67
     7
 79
     5
170
     0
171
     0
290
     0
174
     0
 93
        1
 44
0.0
173
     0
291
     1
 45
0.0
1001
ACAD
1000
AcDbSavedByObjectVersion
1070
     0
  0
VISUALSTYLE
  5
35
102
{ACAD_XDICTIONARY
360
5D8
102
}
102
{ACAD_REACTORS
330
29
102
}
330
29
100
AcDbVisualStyle
  2

 70
    12
 71
     2
 72
     2
 73
     0
 90
        0
 40
-0.6
 41
-30.0
 62
     5
 63
     7
 74
     1
 91
        4
 64
     7
 65
   257
 75
     1
175
     1
 42
1.0
 92
        8
 66
     7
 43
1.0
 76
     1
 77
     6
 78
     2
 67
     7
 79
     5
170
     0
171
     0
290
     0
174
     0
 93
        1
 44
50.0
173
     0
291
     1
 45
0.0
1001
ACAD
1000
AcDbSavedByObjectVersion
1070
     0
  0
VISUALSTYLE
  5
39
102
{ACAD_XDICTIONARY
360
5E0
102
}
102
{ACAD_REACTORS
330
29
102
}
330
29
100
AcDbVisualStyle
  2

 70
    16
 71
     2
 72
     2
 73
     3
 90
        0
 40
-0.6
 41
-30.0
 62
     5
 63
     8
 74
     1
 91
        4
 64
     7
 65
   257
 75
     1
175
     1
 42
1.0
 92
        8
 66
     8
 43
1.0
 76
     1
 77
     6
 78
     2
 67
     7
 79
     5
170
     0
171
     0
290
     0
174
     0
 93
        1
 44
0.0
173
     0
291
     1
 45
0.0
1001
ACAD
1000
AcDbSavedByObjectVersion
1070
     0
  0
VISUALSTYLE
  5
32
102
{ACAD_XDICTIONARY
360
5D2
102
}
102
{ACAD_REACTORS
330
29
102
}
330
29
100
AcDbVisualStyle
  2

 70
     9
 71
     3
 72
     2
 73
     0
 90
        0
 40
-0.6
 41
-30.0
 62
     5
 63
     7
 74
     2
 91
        2
 64
     7
 65
   257
 75
     1
175
     1
 42
179.0
 92
        8
 66
     7
 43
1.0
 76
     1
 77
     6
 78
     2
 67
     7
 79
     3
170
     0
171
     0
290
     0
174
     0
 93
        1
 44
0.0
173
     0
291
     0
 45
0.0
1001
ACAD
1000
AcDbSavedByObjectVersion
1070
     0
  0
VISUALSTYLE
  5
34
102
{ACAD_XDICTIONARY
360
5D6
102
}
102
{ACAD_REACTORS
330
29
102
}
330
29
100
AcDbVisualStyle
  2

 70
    11
 71
     2
 72
     2
 73
     0
 90
        0
 40
-0.6
 41
-30.0
 62
     5
 63
     7
 74
     1
 91
        4
 64
     7
 65
   257
 75
     1
175
     1
 42
1.0
 92
        8
 66
     7
 43
1.0
 76
     1
 77
     6
 78
     2
 67
     7
 79
     5
170
     0
171
     0
290
     0
174
     0
 93
        1
 44
-50.0
173
     0
291
     1
 45
0.0
1001
ACAD
1000
AcDbSavedByObjectVersion
1070
     0
  0
VISUALSTYLE
  5
41
102
{ACAD_XDICTIONARY
360
5F0
102
}
102
{ACAD_REACTORS
330
29
102
}
330
29
100
AcDbVisualStyle
  2

 70
    22
 71
     2
 72
     2
 73
     0
 90
        0
 40
-0.6
 41
-30.0
 62
     5
 63
     7
 74
     1
 91
        4
 64
     7
 65
   257
 75
     1
175
     1
 42
1.0
 92
        8
 66
     7
 43
1.0
 76
     1
 77
     6
 78
     2
 67
     7
 79
     5
170
     0
171
     0
290
     0
174
     0
 93
        1
 44
0.0
173
     0
291
     1
 45
0.0
1001
ACAD
1000
AcDbSavedByObjectVersion
1070
     0
  0
VISUALSTYLE
  5
38
102
{ACAD_XDICTIONARY
360
5DE
102
}
102
{ACAD_REACTORS
330
29
102
}
330
29
100
AcDbVisualStyle
  2

 70
    15
 71
     2
 72
     2
 73
     0
 90
        0
 40
-0.6
 41
-30.0
 62
     5
 63
     7
 74
     1
 91
        4
 64
     7
 65
   257
 75
     1
175
     1
 42
1.0
 92
        8
 66
     7
 43
1.0
 76
     1
 77
     6
 78
     2
 67
     7
 79
     5
170
     0
171
     0
290
     0
174
     0
 93
        1
 44
0.0
173
     0
291
     1
 45
0.0
1001
ACAD
1000
AcDbSavedByObjectVersion
1070
     0
  0
VISUALSTYLE
  5
2A
102
{ACAD_XDICTIONARY
360
5C2
102
}
102
{ACAD_REACTORS
330
29
102
}
330
29
100
AcDbVisualStyle
  2

 70
     0
 71
     2
 72
     1
 73
     1
 90
        2
 40
-0.6
 41
30.0
 62
     5
 63
     7
 74
     0
 91
        0
 64
     7
 65
   257
 75
     1
175
     1
 42
1.0
 92
        8
 66
     7
 43
1.0
 76
     1
 77
     6
 78
     2
 67
     7
 79
     5
170
     0
171
     0
290
     0
174
     0
 93
       13
 44
0.0
173
     0
291
     1
 45
0.0
1001
ACAD
1000
AcDbSavedByObjectVersion
1070
     0
  0
VISUALSTYLE
  5
2B
102
{ACAD_XDICTIONARY
360
5C4
102
}
102
{ACAD_REACTORS
330
29
102
}
330
29
100
AcDbVisualStyle
  2

 70
     1
 71
     2
 72
     1
 73
     1
 90
        2
 40
-0.6
 41
30.0
 62
     5
 63
     7
 74
     1
 91
        0
 64
     7
 65
   257
 75
     1
175
     1
 42
1.0
 92
        0
 66
   257
 43
1.0
 76
     1
 77
     6
 78
     2
 67
     7
 79
     5
170
     0
171
     0
290
     0
174
     0
 93
       13
 44
0.0
173
     0
291
     1
 45
0.0
1001
ACAD
1000
AcDbSavedByObjectVersion
1070
     0
  0
VISUALSTYLE
  5
2C
102
{ACAD_XDICTIONARY
360
5C6
102
}
102
{ACAD_REACTORS
330
29
102
}
330
29
100
AcDbVisualStyle
  2

 70
     2
 71
     2
 72
     2
 73
     1
 90
        2
 40
-0.6
 41
30.0
 62
     5
 63
     7
 74
     0
 91
        0
 64
     7
 65
   257
 75
     1
175
     1
 42
1.0
 92
        0
 66
     7
 43
1.0
 76
     1
 77
     6
 78
     2
 67
     7
 79
     5
170
     0
171
     0
290
     0
174
     0
 93
       13
 44
0.0
173
     0
291
     1
 45
0.0
1001
ACAD
1000
AcDbSavedByObjectVersion
1070
     0
  0
VISUALSTYLE
  5
2D
102
{ACAD_XDICTIONARY
360
5C8
102
}
102
{ACAD_REACTORS
330
29
102
}
330
29
100
AcDbVisualStyle
  2

 70
     3
 71
     2
 72
     2
 73
     1
 90
        2
 40
-0.6
 41
30.0
 62
     5
 63
     7
 74
     1
 91
        0
 64
     7
 65
   257
 75
     1
175
     1
 42
1.0
 92
        0
 66
   257
 43
1.0
 76
     1
 77
     6
 78
     2
 67
     7
 79
     5
170
     0
171
     0
290
     0
174
     0
 93
       13
 44
0.0
173
     0
291
     1
 45
0.0
1001
ACAD
1000
AcDbSavedByObjectVersion
1070
     0
  0
VISUALSTYLE
  5
31
102
{ACAD_XDICTIONARY
360
5D0
102
}
102
{ACAD_REACTORS
330
29
102
}
330
29
100
AcDbVisualStyle
  2

 70
     6
 71
     1
 72
     2
 73
     2
 90
        0
 40
-0.6
 41
-30.0
 62
     5
 63
     7
 74
     2
 91
        2
 64
     7
 65
   257
 75
     2
175
     1
 42
40.0
 92
        0
 66
   257
 43
1.0
 76
     1
 77
     6
 78
     2
 67
     7
 79
     3
170
     0
171
     0
290
     0
174
     0
 93
        1
 44
0.0
173
     0
291
     0
 45
0.0
1001
ACAD
1000
AcDbSavedByObjectVersion
1070
     0
  0
VISUALSTYLE
  5
3F
102
{ACAD_XDICTIONARY
360
5EC
102
}
102
{ACAD_REACTORS
330
29
102
}
330
29
100
AcDbVisualStyle
  2

 70
    20
 71
     2
 72
     2
 73
     0
 90
        0
 40
-0.6
 41
-30.0
 62
     5
 63
     7
 74
     1
 91
        4
 64
     7
 65
   257
 75
     1
175
     1
 42
1.0
 92
       10
 66
     7
 43
1.0
 76
     1
 77
     6
 78
     2
 67
     7
 79
     5
170
     0
171
     0
290
     0
174
     0
 93
        1
 44
0.0
173
     0
291
     1
 45
0.0
1001
ACAD
1000
AcDbSavedByObjectVersion
1070
     0
  0
VISUALSTYLE
  5
37
102
{ACAD_XDICTIONARY
360
5DC
102
}
102
{ACAD_REACTORS
330
29
102
}
330
29
100
AcDbVisualStyle
  2

 70
    14
 71
     2
 72
     2
 73
     0
 90
        0
 40
-0.6
 41
-30.0
 62
     5
 63
     7
 74
     1
 91
        4
 64
     7
 65
   257
 75
     7
175
     7
 42
1.0
 92
        8
 66
     7
 43
1.0
 76
     1
 77
     6
 78
     2
 67
     7
 79
     5
170
     0
171
     0
290
     0
174
     0
 93
        1
 44
0.0
173
     0
291
     1
 45
0.0
1001
ACAD
1000
AcDbSavedByObjectVersion
1070
     0
  0
VISUALSTYLE
  5
40
102
{ACAD_XDICTIONARY
360
5EE
102
}
102
{ACAD_REACTORS
330
29
102
}
330
29
100
AcDbVisualStyle
  2

 70
    21
 71
     2
 72
     2
 73
     0
 90
        0
 40
-0.6
 41
-30.0
 62
     5
 63
     7
 74
     1
 91
        4
 64
     7
 65
   257
 75
     1
175
     1
 42
1.0
 92
        9
 66
     7
 43
1.0
 76
     1
 77
     6
 78
     2
 67
     7
 79
     5
170
     0
171
     0
290
     0
174
     0
 93
        1
 44
0.0
173
     0
291
     1
 45
0.0
1001
ACAD
1000
AcDbSavedByObjectVersion
1070
     0
  0
VISUALSTYLE
  5
33
102
{ACAD_XDICTIONARY
360
5D4
102
}
102
{ACAD_REACTORS
330
29
102
}
330
29
100
AcDbVisualStyle
  2

 70
     8
 71
     2
 72
     3
 73
     0
 90
        2
 40
-0.6
 41
30.0
 62
     5
 63
     7
 74
     0
 91
        0
 64
     7
 65
   257
 75
     1
175
     1
 42
1.0
 92
        8
 66
   257
 43
1.0
 76
     1
 77
     6
 78
     2
 67
     7
 79
     3
170
     0
171
     0
290
     0
174
     0
 93
       13
 44
0.0
173
     0
291
     0
 45
0.0
1001
ACAD
1000
AcDbSavedByObjectVersion
1070
     0
  0
VISUALSTYLE
  5
3E
102
{ACAD_XDICTIONARY
360
5EA
102
}
102
{ACAD_REACTORS
330
29
102
}
330
29
100
AcDbVisualStyle
  2

 70
    27
 71
     2
 72
     2
 73
     1
 90
        2
 40
-0.6
 41
30.0
 62
     5
 63
     7
 74
     0
 91
        4
 64
     7
 65
   257
 75
     1
175
     1
 42
1.0
 92
        8
 66
   257
 43
1.0
 76
     1
 77
     6
 78
     2
 67
     8
 79
     3
170
     0
171
     0
290
     0
174
     0
 93
        5
 44
0.0
173
     0
291
     0
 45
0.0
1001
ACAD
1000
AcDbSavedByObjectVersion
1070
     0
  0
VISUALSTYLE
  5
3D
102
{ACAD_XDICTIONARY
360
5E8
102
}
102
{ACAD_REACTORS
330
29
102
}
330
29
100
AcDbVisualStyle
  2

 70
    26
 71
     2
 72
     2
 73
     1
 90
        2
 40
-0.6
 41
30.0
 62
     5
 63
     7
 74
     1
 91
       10
 64
     7
 65
   257
 75
     2
175
     1
 42
1.0
 92
        8
 66
   257
 43
1.0
 76
     1
 77
     6
 78
     2
 67
     7
 79
     3
170
     0
171
     0
290
     0
174
     0
 93
        5
 44
0.0
173
     0
291
     0
 45
0.0
1001
ACAD
1000
AcDbSavedByObjectVersion
1070
     0
  0
VISUALSTYLE
  5
3A
102
{ACAD_XDICTIONARY
360
5E2
102
}
102
{ACAD_REACTORS
330
29
102
}
330
29
100
AcDbVisualStyle
  2

 70
    23
 71
     2
 72
     2
 73
     3
 90
        0
 40
-0.6
 41
-30.0
 62
     5
 63
     7
 74
     2
 91
        2
 64
     7
 65
     7
 75
     1
175
     1
 42
40.0
 92
        8
 66
     7
 43
1.0
 76
     1
 77
     6
 78
     2
 67
     7
 79
     3
170
     0
171
     0
290
     0
174
     0
 93
        1
 44
0.0
173
     0
291
     0
 45
0.0
1001
ACAD
1000
AcDbSavedByObjectVersion
1070
     0
  0
VISUALSTYLE
  5
3B
102
{ACAD_XDICTIONARY
360
5E4
102
}
102
{ACAD_REACTORS
330
29
102
}
330
29
100
AcDbVisualStyle
  2

 70
    24
 71
     1
 72
     2
 73
     2
 90
        0
 40
-0.6
 41
-30.0
 62
     5
 63
     7
 74
     2
 91
        2
 64
     7
 65
     7
 75
     1
175
     1
 42
40.0
 92
       11
 66
     7
 43
1.0
 76
     1
 77
     6
 78
     2
 67
     7
 79
     6
170
     0
171
     0
290
     0
174
     0
 93
        1
 44
0.0
173
     0
291
     0
 45
0.0
1001
ACAD
1000
AcDbSavedByObjectVersion
1070
     0
  0
VISUALSTYLE
  5
36
102
{ACAD_XDICTIONARY
360
5DA
102
}
102
{ACAD_REACTORS
330
29
102
}
330
29
100
AcDbVisualStyle
  2

 70
    13
 71
     2
 72
     2
 73
     0
 90
        0
 40
-0.6
 41
-30.0
 62
     5
 63
     7
 74
     1
 91
        4
 64
     7
 65
   257
 75
     1
175
     1
 42
1.0
 92
       12
 66
     7
 43
1.0
 76
     1
 77
     6
 78
     2
 67
     7
 79
     5
170
     0
171
     0
290
     0
174
     0
 93
        1
 44
0.0
173
     0
291
     1
 45
0.0
1001
ACAD
1000
AcDbSavedByObjectVersion
1070
     0
  0
VISUALSTYLE
  5
30
102
{ACAD_XDICTIONARY
360
5CE
102
}
102
{ACAD_REACTORS
330
29
102
}
330
29
100
AcDbVisualStyle
  2

 70
     5
 71
     0
 72
     2
 73
     0
 90
        0
 40
-0.6
 41
-30.0
 62
     5
 63
     7
 74
     1
 91
        4
 64
     7
 65
   257
 75
     1
175
     1
 42
1.0
 92
        0
 66
   257
 43
1.0
 76
     1
 77
     6
 78
     2
 67
     7
 79
     3
170
     0
171
     0
290
     0
174
     0
 93
        1
 44
0.0
173
     0
291
     0
 45
0.0
1001
ACAD
1000
AcDbSavedByObjectVersion
1070
     0
  0
VISUALSTYLE
  5
3C
102
{ACAD_XDICTIONARY
360
5E6
102
}
102
{ACAD_REACTORS
330
29
102
}
330
29
100
AcDbVisualStyle
  2

 70
    25
 71
     2
 72
     2
 73
     1
 90
        1
 40
0.5
 41
-30.0
 62
     5
 63
     7
 74
     1
 91
        0
 64
     7
 65
   257
 75
     1
175
     1
 42
1.0
 92
        8
 66
     7
 43
1.0
 76
     1
 77
     6
 78
     2
 67
     7
 79
     3
170
     0
171
     0
290
     0
174
     0
 93
       13
 44
0.0
173
     0
291
     0
 45
0.0
1001
ACAD
1000
AcDbSavedByObjectVersion
1070
     0
  0
DICTIONARYVAR
  5
46A
102
{ACAD_REACTORS
330
465
102
}
330
465
100
DictionaryVariables
280
     0
  1
1:1
  0
DICTIONARYVAR
  5
467
102
{ACAD_REACTORS
330
465
102
}
330
465
100
DictionaryVariables
280
     0
  1
STANDARD
  0
DICTIONARYVAR
  5
466
102
{ACAD_REACTORS
330
465
102
}
330
465
100
DictionaryVariables
280
     0
  1
STANDARD
  0
DICTIONARYVAR
  5
468
102
{ACAD_REACTORS
330
465
102
}
330
465
100
DictionaryVariables
280
     0
  1
Imperial24
  0
DICTIONARYVAR
  5
469
102
{ACAD_REACTORS
330
465
102
}
330
465
100
DictionaryVariables
280
     0
  1
Imperial24
  0
DICTIONARYVAR
  5
46D
102
{ACAD_REACTORS
330
465
102
}
330
465
100
DictionaryVariables
280
     0
  1
1
  0
DICTIONARYVAR
  5
46C
102
{ACAD_REACTORS
330
465
102
}
330
465
100
DictionaryVariables
280
     0
  1
0
  0
DICTIONARYVAR
  5
46B
102
{ACAD_REACTORS
330
465
102
}
330
465
100
DictionaryVariables
280
     0
  1
127
  0
DICTIONARYVAR
  5
5B9
102
{ACAD_REACTORS
330
465
102
}
330
465
100
DictionaryVariables
280
     0
  1
2
  0
DICTIONARY
  5
F0
102
{ACAD_REACTORS
330
E9
102
}
330
E9
100
AcDbDictionary
281
     1
  0
DICTIONARY
  5
5F5
330
73
100
AcDbDictionary
280
     1
281
     1
  3
ACAD_XREC_ROUNDTRIP
360
5F6
  0
DICTIONARY
  5
5F3
330
6F
100
AcDbDictionary
280
     1
281
     1
  3
ACAD_XREC_ROUNDTRIP
360
5F4
  0
DICTIONARY
  5
1A
330
19
100
AcDbDictionary
280
     1
281
     1
  3
ACAD_XREC_ROUNDTRIP
360
474
  3
BUMPTILE
360
1C
  3
DIFFUSETILE
360
1B
  3
OPACITYTILE
360
1F
  3
REFLECTIONTILE
360
1E
  3
REFRACTIONTILE
360
20
  3
SPECULARTILE
360
1D
  0
DICTIONARY
  5
12
330
11
100
AcDbDictionary
280
     1
281
     1
  3
ACAD_XREC_ROUNDTRIP
360
473
  3
BUMPTILE
360
14
  3
DIFFUSETILE
360
13
  3
OPACITYTILE
360
17
  3
REFLECTIONTILE
360
16
  3
REFRACTIONTILE
360
18
  3
SPECULARTILE
360
15
  0
DICTIONARY
  5
22
330
21
100
AcDbDictionary
280
     1
281
     1
  3
ACAD_XREC_ROUNDTRIP
360
475
  3
BUMPTILE
360
24
  3
DIFFUSETILE
360
23
  3
OPACITYTILE
360
27
  3
REFLECTIONTILE
360
26
  3
REFRACTIONTILE
360
28
  3
SPECULARTILE
360
25
  0
DICTIONARY
  5
46F
330
64
100
AcDbDictionary
280
     1
281
     1
  3
ACAD_ROUNDTRIP_2008_TABLESTYLE_CELLSTYLEMAP
360
5BA
  3
ACAD_XREC_ROUNDTRIP
360
5F2
  0
DICTIONARY
  5
5CC
330
2F
100
AcDbDictionary
280
     1
281
     1
  3
ACAD_XREC_ROUNDTRIP
360
5CD
  0
DICTIONARY
  5
5CA
330
2E
100
AcDbDictionary
280
     1
281
     1
  3
ACAD_XREC_ROUNDTRIP
360
5CB
  0
DICTIONARY
  5
5D8
330
35
100
AcDbDictionary
280
     1
281
     1
  3
ACAD_XREC_ROUNDTRIP
360
5D9
  0
DICTIONARY
  5
5E0
330
39
100
AcDbDictionary
280
     1
281
     1
  3
ACAD_XREC_ROUNDTRIP
360
5E1
  0
DICTIONARY
  5
5D2
330
32
100
AcDbDictionary
280
     1
281
     1
  3
ACAD_XREC_ROUNDTRIP
360
5D3
  0
DICTIONARY
  5
5D6
330
34
100
AcDbDictionary
280
     1
281
     1
  3
ACAD_XREC_ROUNDTRIP
360
5D7
  0
DICTIONARY
  5
5F0
330
41
100
AcDbDictionary
280
     1
281
     1
  3
ACAD_XREC_ROUNDTRIP
360
5F1
  0
DICTIONARY
  5
5DE
330
38
100
AcDbDictionary
280
     1
281
     1
  3
ACAD_XREC_ROUNDTRIP
360
5DF
  0
DICTIONARY
  5
5C2
330
2A
100
AcDbDictionary
280
     1
281
     1
  3
ACAD_XREC_ROUNDTRIP
360
5C3
  0
DICTIONARY
  5
5C4
330
2B
100
AcDbDictionary
280
     1
281
     1
  3
ACAD_XREC_ROUNDTRIP
360
5C5
  0
DICTIONARY
  5
5C6
330
2C
100
AcDbDictionary
280
     1
281
     1
  3
ACAD_XREC_ROUNDTRIP
360
5C7
  0
DICTIONARY
  5
5C8
330
2D
100
AcDbDictionary
280
     1
281
     1
  3
ACAD_XREC_ROUNDTRIP
360
5C9
  0
DICTIONARY
  5
5D0
330
31
100
AcDbDictionary
280
     1
281
     1
  3
ACAD_XREC_ROUNDTRIP
360
5D1
  0
DICTIONARY
  5
5EC
330
3F
100
AcDbDictionary
280
     1
281
     1
  3
ACAD_XREC_ROUNDTRIP
360
5ED
  0
DICTIONARY
  5
5DC
330
37
100
AcDbDictionary
280
     1
281
     1
  3
ACAD_XREC_ROUNDTRIP
360
5DD
  0
DICTIONARY
  5
5EE
330
40
100
AcDbDictionary
280
     1
281
     1
  3
ACAD_XREC_ROUNDTRIP
360
5EF
  0
DICTIONARY
  5
5D4
330
33
100
AcDbDictionary
280
     1
281
     1
  3
ACAD_XREC_ROUNDTRIP
360
5D5
  0
DICTIONARY
  5
5EA
330
3E
100
AcDbDictionary
280
     1
281
     1
  3
ACAD_XREC_ROUNDTRIP
360
5EB
  0
DICTIONARY
  5
5E8
330
3D
100
AcDbDictionary
280
     1
281
     1
  3
ACAD_XREC_ROUNDTRIP
360
5E9
  0
DICTIONARY
  5
5E2
330
3A
100
AcDbDictionary
280
     1
281
     1
  3
ACAD_XREC_ROUNDTRIP
360
5E3
  0
DICTIONARY
  5
5E4
330
3B
100
AcDbDictionary
280
     1
281
     1
  3
ACAD_XREC_ROUNDTRIP
360
5E5
  0
DICTIONARY
  5
5DA
330
36
100
AcDbDictionary
280
     1
281
     1
  3
ACAD_XREC_ROUNDTRIP
360
5DB
  0
DICTIONARY
  5
5CE
330
30
100
AcDbDictionary
280
     1
281
     1
  3
ACAD_XREC_ROUNDTRIP
360
5CF
  0
DICTIONARY
  5
5E6
330
3C
100
AcDbDictionary
280
     1
281
     1
  3
ACAD_XREC_ROUNDTRIP
360
5E7
  0
XRECORD
  5
5F6
102
{ACAD_REACTORS
330
5F5
102
}
330
5F5
100
AcDbXrecord
280
     1
102
SHADEPLOT
 70
     0
102
SHADEPLOTRESLEVEL
 70
     2
102
SHADEPLOTCUSTOMDPI
 70
   300
  0
XRECORD
  5
5F4
102
{ACAD_REACTORS
330
5F3
102
}
330
5F3
100
AcDbXrecord
280
     1
102
SHADEPLOT
 70
     0
102
SHADEPLOTRESLEVEL
 70
     2
102
SHADEPLOTCUSTOMDPI
 70
   300
  0
XRECORD
  5
474
102
{ACAD_REACTORS
330
1A
102
}
330
1A
100
AcDbXrecord
280
     1
102
MATERIAL
148
0.0
149
0.0
149
0.0
 93
        0
 94
      127
282
     0
 72
     0
 77
     0
171
     0
175
     0
179
     0
273
     0
  0
XRECORD
  5
1C
102
{ACAD_REACTORS
330
1A
102
}
330
1A
100
AcDbXrecord
280
     1
270
     1
271
     1
  0
XRECORD
  5
1B
102
{ACAD_REACTORS
330
1A
102
}
330
1A
100
AcDbXrecord
280
     1
270
     1
271
     1
  0
XRECORD
  5
1F
102
{ACAD_REACTORS
330
1A
102
}
330
1A
100
AcDbXrecord
280
     1
270
     1
271
     1
  0
XRECORD
  5
1E
102
{ACAD_REACTORS
330
1A
102
}
330
1A
100
AcDbXrecord
280
     1
270
     1
271
     1
  0
XRECORD
  5
20
102
{ACAD_REACTORS
330
1A
102
}
330
1A
100
AcDbXrecord
280
     1
270
     1
271
     1
  0
XRECORD
  5
1D
102
{ACAD_REACTORS
330
1A
102
}
330
1A
100
AcDbXrecord
280
     1
270
     1
271
     1
  0
XRECORD
  5
473
102
{ACAD_REACTORS
330
12
102
}
330
12
100
AcDbXrecord
280
     1
102
MATERIAL
148
0.0
149
0.0
149
0.0
 93
        0
 94
      127
282
     0
 72
     0
 77
     0
171
     0
175
     0
179
     0
273
     0
  0
XRECORD
  5
14
102
{ACAD_REACTORS
330
12
102
}
330
12
100
AcDbXrecord
280
     1
270
     1
271
     1
  0
XRECORD
  5
13
102
{ACAD_REACTORS
330
12
102
}
330
12
100
AcDbXrecord
280
     1
270
     1
271
     1
  0
XRECORD
  5
17
102
{ACAD_REACTORS
330
12
102
}
330
12
100
AcDbXrecord
280
     1
270
     1
271
     1
  0
XRECORD
  5
16
102
{ACAD_REACTORS
330
12
102
}
330
12
100
AcDbXrecord
280
     1
270
     1
271
     1
  0
XRECORD
  5
18
102
{ACAD_REACTORS
330
12
102
}
330
12
100
AcDbXrecord
280
     1
270
     1
271
     1
  0
XRECORD
  5
15
102
{ACAD_REACTORS
330
12
102
}
330
12
100
AcDbXrecord
280
     1
270
     1
271
     1
  0
XRECORD
  5
475
102
{ACAD_REACTORS
330
22
102
}
330
22
100
AcDbXrecord
280
     1
102
MATERIAL
148
0.0
149
0.0
149
0.0
 93
        0
 94
      127
282
     0
 72
     0
 77
     0
171
     0
175
     0
179
     0
273
     0
  0
XRECORD
  5
24
102
{ACAD_REACTORS
330
22
102
}
330
22
100
AcDbXrecord
280
     1
270
     1
271
     1
  0
XRECORD
  5
23
102
{ACAD_REACTORS
330
22
102
}
330
22
100
AcDbXrecord
280
     1
270
     1
271
     1
  0
XRECORD
  5
27
102
{ACAD_REACTORS
330
22
102
}
330
22
100
AcDbXrecord
280
     1
270
     1
271
     1
  0
XRECORD
  5
26
102
{ACAD_REACTORS
330
22
102
}
330
22
100
AcDbXrecord
280
     1
270
     1
271
     1
  0
XRECORD
  5
28
102
{ACAD_REACTORS
330
22
102
}
330
22
100
AcDbXrecord
280
     1
270
     1
271
     1
  0
XRECORD
  5
25
102
{ACAD_REACTORS
330
22
102
}
330
22
100
AcDbXrecord
280
     1
270
     1
271
     1
  0
CELLSTYLEMAP
  5
5BA
102
{ACAD_REACTORS
330
46F
102
}
330
46F
100
AcDbCellStyleMap
 90
        3
300
CELLSTYLE
  1
TABLEFORMAT_BEGIN
 90
        5
170
     1
 91
        0
 92
    32768
 62
   257
 93
        1
300
CONTENTFORMAT
  1
CONTENTFORMAT_BEGIN
 90
        0
 91
        0
 92
      512
 93
        0
300

 40
0.0
140
1.0
 94
        5
 62
     0
340
55
144
0.25
309
CONTENTFORMAT_END
171
     1
301
MARGIN
  1
CELLMARGIN_BEGIN
 40
0.06
 40
0.06
 40
0.06
 40
0.06
 40
0.18
 40
0.18
309
CELLMARGIN_END
 94
        6
 95
        1
302
GRIDFORMAT
  1
GRIDFORMAT_BEGIN
 90
        0
 91
        1
 62
     0
 92
       -2
340
0
 93
        0
 40
0.045
309
GRIDFORMAT_END
 95
        2
302
GRIDFORMAT
  1
GRIDFORMAT_BEGIN
 90
        0
 91
        1
 62
     0
 92
       -2
340
0
 93
        0
 40
0.045
309
GRIDFORMAT_END
 95
        4
302
GRIDFORMAT
  1
GRIDFORMAT_BEGIN
 90
        0
 91
        1
 62
     0
 92
       -2
340
0
 93
        0
 40
0.045
309
GRIDFORMAT_END
 95
        8
302
GRIDFORMAT
  1
GRIDFORMAT_BEGIN
 90
        0
 91
        1
 62
     0
 92
       -2
340
0
 93
        0
 40
0.045
309
GRIDFORMAT_END
 95
       16
302
GRIDFORMAT
  1
GRIDFORMAT_BEGIN
 90
        0
 91
        1
 62
     0
 92
       -2
340
0
 93
        0
 40
0.045
309
GRIDFORMAT_END
 95
       32
302
GRIDFORMAT
  1
GRIDFORMAT_BEGIN
 90
        0
 91
        1
 62
     0
 92
       -2
340
0
 93
        0
 40
0.045
309
GRIDFORMAT_END
309
TABLEFORMAT_END
  1
CELLSTYLE_BEGIN
 90
        1
 91
        1
300
_TITLE
309
CELLSTYLE_END
300
CELLSTYLE
  1
TABLEFORMAT_BEGIN
 90
        5
170
     1
 91
        0
 92
        0
 62
   257
 93
        1
300
CONTENTFORMAT
  1
CONTENTFORMAT_BEGIN
 90
        0
 91
        0
 92
      512
 93
        0
300

 40
0.0
140
1.0
 94
        5
 62
     0
340
55
144
0.18
309
CONTENTFORMAT_END
171
     1
301
MARGIN
  1
CELLMARGIN_BEGIN
 40
0.06
 40
0.06
 40
0.06
 40
0.06
 40
0.18
 40
0.18
309
CELLMARGIN_END
 94
        6
 95
        1
302
GRIDFORMAT
  1
GRIDFORMAT_BEGIN
 90
        0
 91
        1
 62
     0
 92
       -2
340
0
 93
        0
 40
0.045
309
GRIDFORMAT_END
 95
        2
302
GRIDFORMAT
  1
GRIDFORMAT_BEGIN
 90
        0
 91
        1
 62
     0
 92
       -2
340
0
 93
        0
 40
0.045
309
GRIDFORMAT_END
 95
        4
302
GRIDFORMAT
  1
GRIDFORMAT_BEGIN
 90
        0
 91
        1
 62
     0
 92
       -2
340
0
 93
        0
 40
0.045
309
GRIDFORMAT_END
 95
        8
302
GRIDFORMAT
  1
GRIDFORMAT_BEGIN
 90
        0
 91
        1
 62
     0
 92
       -2
340
0
 93
        0
 40
0.045
309
GRIDFORMAT_END
 95
       16
302
GRIDFORMAT
  1
GRIDFORMAT_BEGIN
 90
        0
 91
        1
 62
     0
 92
       -2
340
0
 93
        0
 40
0.045
309
GRIDFORMAT_END
 95
       32
302
GRIDFORMAT
  1
GRIDFORMAT_BEGIN
 90
        0
 91
        1
 62
     0
 92
       -2
340
0
 93
        0
 40
0.045
309
GRIDFORMAT_END
309
TABLEFORMAT_END
  1
CELLSTYLE_BEGIN
 90
        2
 91
        1
300
_HEADER
309
CELLSTYLE_END
300
CELLSTYLE
  1
TABLEFORMAT_BEGIN
 90
        5
170
     1
 91
        0
 92
        0
 62
   257
 93
        1
300
CONTENTFORMAT
  1
CONTENTFORMAT_BEGIN
 90
        0
 91
        0
 92
      512
 93
        0
300

 40
0.0
140
1.0
 94
        2
 62
     0
340
55
144
0.18
309
CONTENTFORMAT_END
171
     1
301
MARGIN
  1
CELLMARGIN_BEGIN
 40
0.06
 40
0.06
 40
0.06
 40
0.06
 40
0.18
 40
0.18
309
CELLMARGIN_END
 94
        6
 95
        1
302
GRIDFORMAT
  1
GRIDFORMAT_BEGIN
 90
        0
 91
        1
 62
     0
 92
       -2
340
0
 93
        0
 40
0.045
309
GRIDFORMAT_END
 95
        2
302
GRIDFORMAT
  1
GRIDFORMAT_BEGIN
 90
        0
 91
        1
 62
     0
 92
       -2
340
0
 93
        0
 40
0.045
309
GRIDFORMAT_END
 95
        4
302
GRIDFORMAT
  1
GRIDFORMAT_BEGIN
 90
        0
 91
        1
 62
     0
 92
       -2
340
0
 93
        0
 40
0.045
309
GRIDFORMAT_END
 95
        8
302
GRIDFORMAT
  1
GRIDFORMAT_BEGIN
 90
        0
 91
        1
 62
     0
 92
       -2
340
0
 93
        0
 40
0.045
309
GRIDFORMAT_END
 95
       16
302
GRIDFORMAT
  1
GRIDFORMAT_BEGIN
 90
        0
 91
        1
 62
     0
 92
       -2
340
0
 93
        0
 40
0.045
309
GRIDFORMAT_END
 95
       32
302
GRIDFORMAT
  1
GRIDFORMAT_BEGIN
 90
        0
 91
        1
 62
     0
 92
       -2
340
0
 93
        0
 40
0.045
309
GRIDFORMAT_END
309
TABLEFORMAT_END
  1
CELLSTYLE_BEGIN
 90
        3
 91
        2
300
_DATA
309
CELLSTYLE_END
  0
XRECORD
  5
5F2
102
{ACAD_REACTORS
330
46F
102
}
330
46F
100
AcDbXrecord
280
     1
102
ACAD_ROUNDTRIP_PRE2007_TABLESTYLE
 90
      512
 91
        0
  1

 92
      512
 93
        0
  2

 94
      512
 95
        0
  3

  0
XRECORD
  5
5CD
102
{ACAD_REACTORS
330
5CC
102
}
330
5CC
100
AcDbXrecord
280
     1
102
RTVSPost2010Prop28
280
     1
102
RTVSPost2010PropOp28
 70
     1
102
RTVSPost2010Prop29
280
     1
102
RTVSPost2010PropOp29
 70
     1
102
RTVSPost2010Prop30
280
     0
102
RTVSPost2010PropOp30
 70
     1
102
RTVSPost2010Prop31
280
     0
102
RTVSPost2010PropOp31
 70
     1
102
RTVSPost2010Prop32
280
     0
102
RTVSPost2010PropOp32
 70
     1
102
RTVSPost2010Prop33
280
     0
102
RTVSPost2010PropOp33
 70
     1
102
RTVSPost2010Prop34
280
     0
102
RTVSPost2010PropOp34
 70
     1
102
RTVSPost2010Prop35
280
     0
102
RTVSPost2010PropOp35
 70
     1
102
RTVSPost2010Prop36
280
     0
102
RTVSPost2010PropOp36
 70
     1
102
RTVSPost2010Prop37
 90
       50
102
RTVSPost2010PropOp37
 70
     1
102
RTVSPost2010Prop38
140
0.0
102
RTVSPost2010PropOp38
 70
     1
102
RTVSPost2010Prop39
140
1.0
102
RTVSPost2010PropOp39
 70
     1
102
RTVSPost2010Prop40
 90
        0
102
RTVSPost2010PropOp40
 70
     1
102
RTVSPost2010Prop41ColorIndex
 90
       18
102
RTVSPost2010Prop41ColorRGB
 90
        0
102
RTVSPost2010PropOp41
 70
     1
102
RTVSPost2010Prop42
 90
       50
102
RTVSPost2010PropOp42
 70
     1
102
RTVSPost2010Prop43
 90
        3
102
RTVSPost2010PropOp43
 70
     1
102
RTVSPost2010Prop44ColorIndex
 90
        5
102
RTVSPost2010Prop44ColorRGB
 90
      255
102
RTVSPost2010PropOp44
 70
     1
102
RTVSPost2010Prop45
280
     0
102
RTVSPost2010PropOp45
 70
     1
102
RTVSPost2010Prop46
 90
       50
102
RTVSPost2010PropOp46
 70
     1
102
RTVSPost2010Prop47
 90
       50
102
RTVSPost2010PropOp47
 70
     1
102
RTVSPost2010Prop48
 90
       50
102
RTVSPost2010PropOp48
 70
     1
102
RTVSPost2010Prop49
280
     0
102
RTVSPost2010PropOp49
 70
     1
102
RTVSPost2010Prop50
 90
       50
102
RTVSPost2010PropOp50
 70
     1
102
RTVSPost2010Prop51ColorIndex
 90
      256
102
RTVSPost2010Prop51ColorRGB
 90
-16777216
102
RTVSPost2010PropOp51
 70
     0
102
RTVSPost2010Prop52
140
1.0
102
RTVSPost2010PropOp52
 70
     0
102
RTVSPost2010Prop53
 90
        2
102
RTVSPost2010PropOp53
 70
     1
102
RTVSPost2010Prop54
  1
strokes_ogs.tif
102
RTVSPost2010PropOp54
 70
     1
102
RTVSPost2010Prop55
280
     0
102
RTVSPost2010PropOp55
 70
     1
102
RTVSPost2010Prop56
140
1.0
102
RTVSPost2010PropOp56
 70
     1
102
RTVSPost2010Prop57
140
1.0
102
RTVSPost2010PropOp57
 70
     1
102
RTVSPropertyOp0
 70
     1
102
RTVSPropertyOp1
 70
     1
102
RTVSPropertyOp2
 70
     1
102
RTVSPropertyOp3
 70
     1
102
RTVSPropertyOp4
 70
     1
102
RTVSPropertyOp5
 70
     1
102
RTVSPropertyOp6
 70
     1
102
RTVSPropertyOp7
 70
     1
102
RTVSPropertyOp8
 70
     1
102
RTVSPropertyOp9
 70
     1
102
RTVSPropertyOp10
 70
     1
102
RTVSPropertyOp11
 70
     1
102
RTVSPropertyOp12
 70
     1
102
RTVSPropertyOp13
 70
     1
102
RTVSPropertyOp14
 70
     1
102
RTVSPropertyOp15
 70
     1
102
RTVSPropertyOp16
 70
     1
102
RTVSPropertyOp17
 70
     1
102
RTVSPropertyOp18
 70
     1
102
RTVSPropertyOp19
 70
     1
102
RTVSPropertyOp20
 70
     1
102
RTVSPropertyOp21
 70
     1
102
RTVSPropertyOp22
 70
     1
102
RTVSPropertyOp23
 70
     1
102
RTVSPropertyOp24
 70
     1
102
RTVSPropertyOp25
 70
     1
102
RTVSPropertyOp26
 70
     1
102
RTVSPropertyOp27
 70
     1
102
RTVSPropertyOp28
 70
     1
102
RTVSPropertyOp29
 70
     1
102
RTVSPropertyOp30
 70
     1
102
RTVSPropertyOp31
 70
     1
102
RTVSPropertyOp32
 70
     1
102
RTVSPropertyOp33
 70
     1
102
RTVSPropertyOp34
 70
     1
102
RTVSPropertyOp35
 70
     1
102
RTVSPropertyOp36
 70
     1
102
RTVSPropertyOp37
 70
     1
102
RTVSPropertyOp38
 70
     1
102
RTVSPropertyOp39
 70
     1
102
RTVSPropertyOp40
 70
     1
102
RTVSPropertyOp41
 70
     1
102
RTVSPropertyOp42
 70
     1
102
RTVSPropertyOp43
 70
     1
102
RTVSPropertyOp44
 70
     1
102
RTVSPropertyOp45
 70
     1
102
RTVSPropertyOp46
 70
     1
102
RTVSPropertyOp47
 70
     1
102
RTVSPropertyOp48
 70
     1
102
RTVSPropertyOp49
 70
     1
102
RTVSPropertyOp50
 70
     1
102
RTVSPropertyOp51
 70
     0
102
RTVSPropertyOp52
 70
     0
102
RTVSPropertyOp53
 70
     1
102
RTVSPropertyOp54
 70
     1
102
RTVSPropertyOp55
 70
     1
102
RTVSPropertyOp56
 70
     1
102
RTVSPropertyOp57
 70
     1
102
RTVSPropertyOp58
 70
     1
102
RTVSPropertyOp59
 70
     1
102
RTVSPropertyOp60
 70
     1
102
RTVSPropertyOp61
 70
     1
102
RTVSPropertyOp62
 70
     1
  0
XRECORD
  5
5CB
102
{ACAD_REACTORS
330
5CA
102
}
330
5CA
100
AcDbXrecord
280
     1
102
RTVSPost2010Prop28
280
     0
102
RTVSPost2010PropOp28
 70
     1
102
RTVSPost2010Prop29
280
     1
102
RTVSPost2010PropOp29
 70
     1
102
RTVSPost2010Prop30
280
     1
102
RTVSPost2010PropOp30
 70
     1
102
RTVSPost2010Prop31
280
     0
102
RTVSPost2010PropOp31
 70
     1
102
RTVSPost2010Prop32
280
     0
102
RTVSPost2010PropOp32
 70
     1
102
RTVSPost2010Prop33
280
     0
102
RTVSPost2010PropOp33
 70
     1
102
RTVSPost2010Prop34
280
     0
102
RTVSPost2010PropOp34
 70
     1
102
RTVSPost2010Prop35
280
     0
102
RTVSPost2010PropOp35
 70
     1
102
RTVSPost2010Prop36
280
     0
102
RTVSPost2010PropOp36
 70
     1
102
RTVSPost2010Prop37
 90
       50
102
RTVSPost2010PropOp37
 70
     1
102
RTVSPost2010Prop38
140
0.0
102
RTVSPost2010PropOp38
 70
     1
102
RTVSPost2010Prop39
140
1.0
102
RTVSPost2010PropOp39
 70
     1
102
RTVSPost2010Prop40
 90
        0
102
RTVSPost2010PropOp40
 70
     1
102
RTVSPost2010Prop41ColorIndex
 90
       18
102
RTVSPost2010Prop41ColorRGB
 90
        0
102
RTVSPost2010PropOp41
 70
     1
102
RTVSPost2010Prop42
 90
       50
102
RTVSPost2010PropOp42
 70
     1
102
RTVSPost2010Prop43
 90
        3
102
RTVSPost2010PropOp43
 70
     1
102
RTVSPost2010Prop44ColorIndex
 90
        5
102
RTVSPost2010Prop44ColorRGB
 90
      255
102
RTVSPost2010PropOp44
 70
     1
102
RTVSPost2010Prop45
280
     0
102
RTVSPost2010PropOp45
 70
     1
102
RTVSPost2010Prop46
 90
       50
102
RTVSPost2010PropOp46
 70
     1
102
RTVSPost2010Prop47
 90
       50
102
RTVSPost2010PropOp47
 70
     1
102
RTVSPost2010Prop48
 90
       50
102
RTVSPost2010PropOp48
 70
     1
102
RTVSPost2010Prop49
280
     0
102
RTVSPost2010PropOp49
 70
     1
102
RTVSPost2010Prop50
 90
       50
102
RTVSPost2010PropOp50
 70
     1
102
RTVSPost2010Prop51ColorIndex
 90
      256
102
RTVSPost2010Prop51ColorRGB
 90
-16777216
102
RTVSPost2010PropOp51
 70
     0
102
RTVSPost2010Prop52
140
1.0
102
RTVSPost2010PropOp52
 70
     0
102
RTVSPost2010Prop53
 90
        2
102
RTVSPost2010PropOp53
 70
     1
102
RTVSPost2010Prop54
  1
strokes_ogs.tif
102
RTVSPost2010PropOp54
 70
     1
102
RTVSPost2010Prop55
280
     0
102
RTVSPost2010PropOp55
 70
     1
102
RTVSPost2010Prop56
140
1.0
102
RTVSPost2010PropOp56
 70
     1
102
RTVSPost2010Prop57
140
1.0
102
RTVSPost2010PropOp57
 70
     1
102
RTVSPropertyOp0
 70
     1
102
RTVSPropertyOp1
 70
     1
102
RTVSPropertyOp2
 70
     1
102
RTVSPropertyOp3
 70
     1
102
RTVSPropertyOp4
 70
     1
102
RTVSPropertyOp5
 70
     1
102
RTVSPropertyOp6
 70
     1
102
RTVSPropertyOp7
 70
     1
102
RTVSPropertyOp8
 70
     1
102
RTVSPropertyOp9
 70
     1
102
RTVSPropertyOp10
 70
     1
102
RTVSPropertyOp11
 70
     1
102
RTVSPropertyOp12
 70
     1
102
RTVSPropertyOp13
 70
     1
102
RTVSPropertyOp14
 70
     1
102
RTVSPropertyOp15
 70
     1
102
RTVSPropertyOp16
 70
     1
102
RTVSPropertyOp17
 70
     1
102
RTVSPropertyOp18
 70
     1
102
RTVSPropertyOp19
 70
     1
102
RTVSPropertyOp20
 70
     1
102
RTVSPropertyOp21
 70
     1
102
RTVSPropertyOp22
 70
     1
102
RTVSPropertyOp23
 70
     1
102
RTVSPropertyOp24
 70
     1
102
RTVSPropertyOp25
 70
     1
102
RTVSPropertyOp26
 70
     1
102
RTVSPropertyOp27
 70
     1
102
RTVSPropertyOp28
 70
     1
102
RTVSPropertyOp29
 70
     1
102
RTVSPropertyOp30
 70
     1
102
RTVSPropertyOp31
 70
     1
102
RTVSPropertyOp32
 70
     1
102
RTVSPropertyOp33
 70
     1
102
RTVSPropertyOp34
 70
     1
102
RTVSPropertyOp35
 70
     1
102
RTVSPropertyOp36
 70
     1
102
RTVSPropertyOp37
 70
     1
102
RTVSPropertyOp38
 70
     1
102
RTVSPropertyOp39
 70
     1
102
RTVSPropertyOp40
 70
     1
102
RTVSPropertyOp41
 70
     1
102
RTVSPropertyOp42
 70
     1
102
RTVSPropertyOp43
 70
     1
102
RTVSPropertyOp44
 70
     1
102
RTVSPropertyOp45
 70
     1
102
RTVSPropertyOp46
 70
     1
102
RTVSPropertyOp47
 70
     1
102
RTVSPropertyOp48
 70
     1
102
RTVSPropertyOp49
 70
     1
102
RTVSPropertyOp50
 70
     1
102
RTVSPropertyOp51
 70
     0
102
RTVSPropertyOp52
 70
     0
102
RTVSPropertyOp53
 70
     1
102
RTVSPropertyOp54
 70
     1
102
RTVSPropertyOp55
 70
     1
102
RTVSPropertyOp56
 70
     1
102
RTVSPropertyOp57
 70
     1
102
RTVSPropertyOp58
 70
     1
102
RTVSPropertyOp59
 70
     1
102
RTVSPropertyOp60
 70
     1
102
RTVSPropertyOp61
 70
     1
102
RTVSPropertyOp62
 70
     1
  0
XRECORD
  5
5D9
102
{ACAD_REACTORS
330
5D8
102
}
330
5D8
100
AcDbXrecord
280
     1
102
RTVSPost2010Prop28
280
     0
102
RTVSPost2010PropOp28
 70
     1
102
RTVSPost2010Prop29
280
     1
102
RTVSPost2010PropOp29
 70
     1
102
RTVSPost2010Prop30
280
     1
102
RTVSPost2010PropOp30
 70
     1
102
RTVSPost2010Prop31
280
     0
102
RTVSPost2010PropOp31
 70
     1
102
RTVSPost2010Prop32
280
     0
102
RTVSPost2010PropOp32
 70
     1
102
RTVSPost2010Prop33
280
     0
102
RTVSPost2010PropOp33
 70
     1
102
RTVSPost2010Prop34
280
     0
102
RTVSPost2010PropOp34
 70
     1
102
RTVSPost2010Prop35
280
     0
102
RTVSPost2010PropOp35
 70
     1
102
RTVSPost2010Prop36
280
     0
102
RTVSPost2010PropOp36
 70
     1
102
RTVSPost2010Prop37
 90
       50
102
RTVSPost2010PropOp37
 70
     1
102
RTVSPost2010Prop38
140
0.0
102
RTVSPost2010PropOp38
 70
     1
102
RTVSPost2010Prop39
140
1.0
102
RTVSPost2010PropOp39
 70
     1
102
RTVSPost2010Prop40
 90
        0
102
RTVSPost2010PropOp40
 70
     1
102
RTVSPost2010Prop41ColorIndex
 90
       18
102
RTVSPost2010Prop41ColorRGB
 90
        0
102
RTVSPost2010PropOp41
 70
     1
102
RTVSPost2010Prop42
 90
       50
102
RTVSPost2010PropOp42
 70
     1
102
RTVSPost2010Prop43
 90
        3
102
RTVSPost2010PropOp43
 70
     1
102
RTVSPost2010Prop44ColorIndex
 90
        5
102
RTVSPost2010Prop44ColorRGB
 90
      255
102
RTVSPost2010PropOp44
 70
     1
102
RTVSPost2010Prop45
280
     0
102
RTVSPost2010PropOp45
 70
     1
102
RTVSPost2010Prop46
 90
       50
102
RTVSPost2010PropOp46
 70
     1
102
RTVSPost2010Prop47
 90
       50
102
RTVSPost2010PropOp47
 70
     1
102
RTVSPost2010Prop48
 90
       50
102
RTVSPost2010PropOp48
 70
     1
102
RTVSPost2010Prop49
280
     0
102
RTVSPost2010PropOp49
 70
     1
102
RTVSPost2010Prop50
 90
       50
102
RTVSPost2010PropOp50
 70
     1
102
RTVSPost2010Prop51ColorIndex
 90
      256
102
RTVSPost2010Prop51ColorRGB
 90
-16777216
102
RTVSPost2010PropOp51
 70
     0
102
RTVSPost2010Prop52
140
1.0
102
RTVSPost2010PropOp52
 70
     0
102
RTVSPost2010Prop53
 90
        2
102
RTVSPost2010PropOp53
 70
     1
102
RTVSPost2010Prop54
  1
strokes_ogs.tif
102
RTVSPost2010PropOp54
 70
     1
102
RTVSPost2010Prop55
280
     0
102
RTVSPost2010PropOp55
 70
     1
102
RTVSPost2010Prop56
140
1.0
102
RTVSPost2010PropOp56
 70
     1
102
RTVSPost2010Prop57
140
1.0
102
RTVSPost2010PropOp57
 70
     1
102
RTVSPropertyOp0
 70
     1
102
RTVSPropertyOp1
 70
     1
102
RTVSPropertyOp2
 70
     1
102
RTVSPropertyOp3
 70
     1
102
RTVSPropertyOp4
 70
     1
102
RTVSPropertyOp5
 70
     1
102
RTVSPropertyOp6
 70
     1
102
RTVSPropertyOp7
 70
     1
102
RTVSPropertyOp8
 70
     1
102
RTVSPropertyOp9
 70
     1
102
RTVSPropertyOp10
 70
     1
102
RTVSPropertyOp11
 70
     1
102
RTVSPropertyOp12
 70
     1
102
RTVSPropertyOp13
 70
     1
102
RTVSPropertyOp14
 70
     1
102
RTVSPropertyOp15
 70
     1
102
RTVSPropertyOp16
 70
     1
102
RTVSPropertyOp17
 70
     1
102
RTVSPropertyOp18
 70
     1
102
RTVSPropertyOp19
 70
     1
102
RTVSPropertyOp20
 70
     1
102
RTVSPropertyOp21
 70
     1
102
RTVSPropertyOp22
 70
     1
102
RTVSPropertyOp23
 70
     1
102
RTVSPropertyOp24
 70
     1
102
RTVSPropertyOp25
 70
     1
102
RTVSPropertyOp26
 70
     1
102
RTVSPropertyOp27
 70
     1
102
RTVSPropertyOp28
 70
     1
102
RTVSPropertyOp29
 70
     1
102
RTVSPropertyOp30
 70
     1
102
RTVSPropertyOp31
 70
     1
102
RTVSPropertyOp32
 70
     1
102
RTVSPropertyOp33
 70
     1
102
RTVSPropertyOp34
 70
     1
102
RTVSPropertyOp35
 70
     1
102
RTVSPropertyOp36
 70
     1
102
RTVSPropertyOp37
 70
     1
102
RTVSPropertyOp38
 70
     1
102
RTVSPropertyOp39
 70
     1
102
RTVSPropertyOp40
 70
     1
102
RTVSPropertyOp41
 70
     1
102
RTVSPropertyOp42
 70
     1
102
RTVSPropertyOp43
 70
     1
102
RTVSPropertyOp44
 70
     1
102
RTVSPropertyOp45
 70
     1
102
RTVSPropertyOp46
 70
     1
102
RTVSPropertyOp47
 70
     1
102
RTVSPropertyOp48
 70
     1
102
RTVSPropertyOp49
 70
     1
102
RTVSPropertyOp50
 70
     1
102
RTVSPropertyOp51
 70
     0
102
RTVSPropertyOp52
 70
     0
102
RTVSPropertyOp53
 70
     1
102
RTVSPropertyOp54
 70
     1
102
RTVSPropertyOp55
 70
     1
102
RTVSPropertyOp56
 70
     1
102
RTVSPropertyOp57
 70
     1
102
RTVSPropertyOp58
 70
     1
102
RTVSPropertyOp59
 70
     1
102
RTVSPropertyOp60
 70
     1
102
RTVSPropertyOp61
 70
     1
102
RTVSPropertyOp62
 70
     1
  0
XRECORD
  5
5E1
102
{ACAD_REACTORS
330
5E0
102
}
330
5E0
100
AcDbXrecord
280
     1
102
RTVSPost2010Prop28
280
     0
102
RTVSPost2010PropOp28
 70
     1
102
RTVSPost2010Prop29
280
     1
102
RTVSPost2010PropOp29
 70
     1
102
RTVSPost2010Prop30
280
     1
102
RTVSPost2010PropOp30
 70
     1
102
RTVSPost2010Prop31
280
     0
102
RTVSPost2010PropOp31
 70
     1
102
RTVSPost2010Prop32
280
     0
102
RTVSPost2010PropOp32
 70
     1
102
RTVSPost2010Prop33
280
     0
102
RTVSPost2010PropOp33
 70
     1
102
RTVSPost2010Prop34
280
     0
102
RTVSPost2010PropOp34
 70
     1
102
RTVSPost2010Prop35
280
     0
102
RTVSPost2010PropOp35
 70
     1
102
RTVSPost2010Prop36
280
     0
102
RTVSPost2010PropOp36
 70
     1
102
RTVSPost2010Prop37
 90
       50
102
RTVSPost2010PropOp37
 70
     1
102
RTVSPost2010Prop38
140
0.0
102
RTVSPost2010PropOp38
 70
     1
102
RTVSPost2010Prop39
140
1.0
102
RTVSPost2010PropOp39
 70
     1
102
RTVSPost2010Prop40
 90
        0
102
RTVSPost2010PropOp40
 70
     1
102
RTVSPost2010Prop41ColorIndex
 90
       18
102
RTVSPost2010Prop41ColorRGB
 90
        0
102
RTVSPost2010PropOp41
 70
     1
102
RTVSPost2010Prop42
 90
       50
102
RTVSPost2010PropOp42
 70
     1
102
RTVSPost2010Prop43
 90
        3
102
RTVSPost2010PropOp43
 70
     1
102
RTVSPost2010Prop44ColorIndex
 90
        5
102
RTVSPost2010Prop44ColorRGB
 90
      255
102
RTVSPost2010PropOp44
 70
     1
102
RTVSPost2010Prop45
280
     0
102
RTVSPost2010PropOp45
 70
     1
102
RTVSPost2010Prop46
 90
       50
102
RTVSPost2010PropOp46
 70
     1
102
RTVSPost2010Prop47
 90
       50
102
RTVSPost2010PropOp47
 70
     1
102
RTVSPost2010Prop48
 90
       50
102
RTVSPost2010PropOp48
 70
     1
102
RTVSPost2010Prop49
280
     0
102
RTVSPost2010PropOp49
 70
     1
102
RTVSPost2010Prop50
 90
       50
102
RTVSPost2010PropOp50
 70
     1
102
RTVSPost2010Prop51ColorIndex
 90
      256
102
RTVSPost2010Prop51ColorRGB
 90
-16777216
102
RTVSPost2010PropOp51
 70
     0
102
RTVSPost2010Prop52
140
1.0
102
RTVSPost2010PropOp52
 70
     0
102
RTVSPost2010Prop53
 90
        2
102
RTVSPost2010PropOp53
 70
     1
102
RTVSPost2010Prop54
  1
strokes_ogs.tif
102
RTVSPost2010PropOp54
 70
     1
102
RTVSPost2010Prop55
280
     0
102
RTVSPost2010PropOp55
 70
     1
102
RTVSPost2010Prop56
140
1.0
102
RTVSPost2010PropOp56
 70
     1
102
RTVSPost2010Prop57
140
1.0
102
RTVSPost2010PropOp57
 70
     1
102
RTVSPropertyOp0
 70
     1
102
RTVSPropertyOp1
 70
     1
102
RTVSPropertyOp2
 70
     1
102
RTVSPropertyOp3
 70
     1
102
RTVSPropertyOp4
 70
     1
102
RTVSPropertyOp5
 70
     1
102
RTVSPropertyOp6
 70
     1
102
RTVSPropertyOp7
 70
     1
102
RTVSPropertyOp8
 70
     1
102
RTVSPropertyOp9
 70
     1
102
RTVSPropertyOp10
 70
     1
102
RTVSPropertyOp11
 70
     1
102
RTVSPropertyOp12
 70
     1
102
RTVSPropertyOp13
 70
     1
102
RTVSPropertyOp14
 70
     1
102
RTVSPropertyOp15
 70
     1
102
RTVSPropertyOp16
 70
     1
102
RTVSPropertyOp17
 70
     1
102
RTVSPropertyOp18
 70
     1
102
RTVSPropertyOp19
 70
     1
102
RTVSPropertyOp20
 70
     1
102
RTVSPropertyOp21
 70
     1
102
RTVSPropertyOp22
 70
     1
102
RTVSPropertyOp23
 70
     1
102
RTVSPropertyOp24
 70
     1
102
RTVSPropertyOp25
 70
     1
102
RTVSPropertyOp26
 70
     1
102
RTVSPropertyOp27
 70
     1
102
RTVSPropertyOp28
 70
     1
102
RTVSPropertyOp29
 70
     1
102
RTVSPropertyOp30
 70
     1
102
RTVSPropertyOp31
 70
     1
102
RTVSPropertyOp32
 70
     1
102
RTVSPropertyOp33
 70
     1
102
RTVSPropertyOp34
 70
     1
102
RTVSPropertyOp35
 70
     1
102
RTVSPropertyOp36
 70
     1
102
RTVSPropertyOp37
 70
     1
102
RTVSPropertyOp38
 70
     1
102
RTVSPropertyOp39
 70
     1
102
RTVSPropertyOp40
 70
     1
102
RTVSPropertyOp41
 70
     1
102
RTVSPropertyOp42
 70
     1
102
RTVSPropertyOp43
 70
     1
102
RTVSPropertyOp44
 70
     1
102
RTVSPropertyOp45
 70
     1
102
RTVSPropertyOp46
 70
     1
102
RTVSPropertyOp47
 70
     1
102
RTVSPropertyOp48
 70
     1
102
RTVSPropertyOp49
 70
     1
102
RTVSPropertyOp50
 70
     1
102
RTVSPropertyOp51
 70
     0
102
RTVSPropertyOp52
 70
     0
102
RTVSPropertyOp53
 70
     1
102
RTVSPropertyOp54
 70
     1
102
RTVSPropertyOp55
 70
     1
102
RTVSPropertyOp56
 70
     1
102
RTVSPropertyOp57
 70
     1
102
RTVSPropertyOp58
 70
     1
102
RTVSPropertyOp59
 70
     1
102
RTVSPropertyOp60
 70
     1
102
RTVSPropertyOp61
 70
     1
102
RTVSPropertyOp62
 70
     1
  0
XRECORD
  5
5D3
102
{ACAD_REACTORS
330
5D2
102
}
330
5D2
100
AcDbXrecord
280
     1
102
RTVSPost2010Prop28
280
     0
102
RTVSPost2010PropOp28
 70
     1
102
RTVSPost2010Prop29
280
     1
102
RTVSPost2010PropOp29
 70
     1
102
RTVSPost2010Prop30
280
     1
102
RTVSPost2010PropOp30
 70
     1
102
RTVSPost2010Prop31
280
     0
102
RTVSPost2010PropOp31
 70
     1
102
RTVSPost2010Prop32
280
     0
102
RTVSPost2010PropOp32
 70
     1
102
RTVSPost2010Prop33
280
     0
102
RTVSPost2010PropOp33
 70
     1
102
RTVSPost2010Prop34
280
     0
102
RTVSPost2010PropOp34
 70
     1
102
RTVSPost2010Prop35
280
     0
102
RTVSPost2010PropOp35
 70
     1
102
RTVSPost2010Prop36
280
     0
102
RTVSPost2010PropOp36
 70
     1
102
RTVSPost2010Prop37
 90
       50
102
RTVSPost2010PropOp37
 70
     1
102
RTVSPost2010Prop38
140
0.0
102
RTVSPost2010PropOp38
 70
     1
102
RTVSPost2010Prop39
140
1.0
102
RTVSPost2010PropOp39
 70
     1
102
RTVSPost2010Prop40
 90
        0
102
RTVSPost2010PropOp40
 70
     1
102
RTVSPost2010Prop41ColorIndex
 90
       18
102
RTVSPost2010Prop41ColorRGB
 90
        0
102
RTVSPost2010PropOp41
 70
     1
102
RTVSPost2010Prop42
 90
       50
102
RTVSPost2010PropOp42
 70
     1
102
RTVSPost2010Prop43
 90
        3
102
RTVSPost2010PropOp43
 70
     1
102
RTVSPost2010Prop44ColorIndex
 90
        5
102
RTVSPost2010Prop44ColorRGB
 90
      255
102
RTVSPost2010PropOp44
 70
     1
102
RTVSPost2010Prop45
280
     0
102
RTVSPost2010PropOp45
 70
     1
102
RTVSPost2010Prop46
 90
       50
102
RTVSPost2010PropOp46
 70
     1
102
RTVSPost2010Prop47
 90
       50
102
RTVSPost2010PropOp47
 70
     1
102
RTVSPost2010Prop48
 90
       50
102
RTVSPost2010PropOp48
 70
     1
102
RTVSPost2010Prop49
280
     0
102
RTVSPost2010PropOp49
 70
     1
102
RTVSPost2010Prop50
 90
       50
102
RTVSPost2010PropOp50
 70
     1
102
RTVSPost2010Prop51ColorIndex
 90
      256
102
RTVSPost2010Prop51ColorRGB
 90
-16777216
102
RTVSPost2010PropOp51
 70
     0
102
RTVSPost2010Prop52
140
1.0
102
RTVSPost2010PropOp52
 70
     0
102
RTVSPost2010Prop53
 90
        2
102
RTVSPost2010PropOp53
 70
     1
102
RTVSPost2010Prop54
  1
strokes_ogs.tif
102
RTVSPost2010PropOp54
 70
     1
102
RTVSPost2010Prop55
280
     0
102
RTVSPost2010PropOp55
 70
     1
102
RTVSPost2010Prop56
140
1.0
102
RTVSPost2010PropOp56
 70
     1
102
RTVSPost2010Prop57
140
1.0
102
RTVSPost2010PropOp57
 70
     1
102
RTVSPropertyOp0
 70
     1
102
RTVSPropertyOp1
 70
     1
102
RTVSPropertyOp2
 70
     1
102
RTVSPropertyOp3
 70
     1
102
RTVSPropertyOp4
 70
     1
102
RTVSPropertyOp5
 70
     1
102
RTVSPropertyOp6
 70
     1
102
RTVSPropertyOp7
 70
     1
102
RTVSPropertyOp8
 70
     1
102
RTVSPropertyOp9
 70
     1
102
RTVSPropertyOp10
 70
     1
102
RTVSPropertyOp11
 70
     1
102
RTVSPropertyOp12
 70
     1
102
RTVSPropertyOp13
 70
     1
102
RTVSPropertyOp14
 70
     1
102
RTVSPropertyOp15
 70
     1
102
RTVSPropertyOp16
 70
     1
102
RTVSPropertyOp17
 70
     1
102
RTVSPropertyOp18
 70
     1
102
RTVSPropertyOp19
 70
     1
102
RTVSPropertyOp20
 70
     1
102
RTVSPropertyOp21
 70
     1
102
RTVSPropertyOp22
 70
     1
102
RTVSPropertyOp23
 70
     1
102
RTVSPropertyOp24
 70
     1
102
RTVSPropertyOp25
 70
     1
102
RTVSPropertyOp26
 70
     1
102
RTVSPropertyOp27
 70
     1
102
RTVSPropertyOp28
 70
     1
102
RTVSPropertyOp29
 70
     1
102
RTVSPropertyOp30
 70
     1
102
RTVSPropertyOp31
 70
     1
102
RTVSPropertyOp32
 70
     1
102
RTVSPropertyOp33
 70
     1
102
RTVSPropertyOp34
 70
     1
102
RTVSPropertyOp35
 70
     1
102
RTVSPropertyOp36
 70
     1
102
RTVSPropertyOp37
 70
     1
102
RTVSPropertyOp38
 70
     1
102
RTVSPropertyOp39
 70
     1
102
RTVSPropertyOp40
 70
     1
102
RTVSPropertyOp41
 70
     1
102
RTVSPropertyOp42
 70
     1
102
RTVSPropertyOp43
 70
     1
102
RTVSPropertyOp44
 70
     1
102
RTVSPropertyOp45
 70
     1
102
RTVSPropertyOp46
 70
     1
102
RTVSPropertyOp47
 70
     1
102
RTVSPropertyOp48
 70
     1
102
RTVSPropertyOp49
 70
     1
102
RTVSPropertyOp50
 70
     1
102
RTVSPropertyOp51
 70
     0
102
RTVSPropertyOp52
 70
     0
102
RTVSPropertyOp53
 70
     1
102
RTVSPropertyOp54
 70
     1
102
RTVSPropertyOp55
 70
     1
102
RTVSPropertyOp56
 70
     1
102
RTVSPropertyOp57
 70
     1
102
RTVSPropertyOp58
 70
     1
102
RTVSPropertyOp59
 70
     1
102
RTVSPropertyOp60
 70
     1
102
RTVSPropertyOp61
 70
     1
102
RTVSPropertyOp62
 70
     1
  0
XRECORD
  5
5D7
102
{ACAD_REACTORS
330
5D6
102
}
330
5D6
100
AcDbXrecord
280
     1
102
RTVSPost2010Prop28
280
     0
102
RTVSPost2010PropOp28
 70
     1
102
RTVSPost2010Prop29
280
     1
102
RTVSPost2010PropOp29
 70
     1
102
RTVSPost2010Prop30
280
     1
102
RTVSPost2010PropOp30
 70
     1
102
RTVSPost2010Prop31
280
     0
102
RTVSPost2010PropOp31
 70
     1
102
RTVSPost2010Prop32
280
     0
102
RTVSPost2010PropOp32
 70
     1
102
RTVSPost2010Prop33
280
     0
102
RTVSPost2010PropOp33
 70
     1
102
RTVSPost2010Prop34
280
     0
102
RTVSPost2010PropOp34
 70
     1
102
RTVSPost2010Prop35
280
     0
102
RTVSPost2010PropOp35
 70
     1
102
RTVSPost2010Prop36
280
     0
102
RTVSPost2010PropOp36
 70
     1
102
RTVSPost2010Prop37
 90
       50
102
RTVSPost2010PropOp37
 70
     1
102
RTVSPost2010Prop38
140
0.0
102
RTVSPost2010PropOp38
 70
     1
102
RTVSPost2010Prop39
140
1.0
102
RTVSPost2010PropOp39
 70
     1
102
RTVSPost2010Prop40
 90
        0
102
RTVSPost2010PropOp40
 70
     1
102
RTVSPost2010Prop41ColorIndex
 90
       18
102
RTVSPost2010Prop41ColorRGB
 90
        0
102
RTVSPost2010PropOp41
 70
     1
102
RTVSPost2010Prop42
 90
       50
102
RTVSPost2010PropOp42
 70
     1
102
RTVSPost2010Prop43
 90
        3
102
RTVSPost2010PropOp43
 70
     1
102
RTVSPost2010Prop44ColorIndex
 90
        5
102
RTVSPost2010Prop44ColorRGB
 90
      255
102
RTVSPost2010PropOp44
 70
     1
102
RTVSPost2010Prop45
280
     0
102
RTVSPost2010PropOp45
 70
     1
102
RTVSPost2010Prop46
 90
       50
102
RTVSPost2010PropOp46
 70
     1
102
RTVSPost2010Prop47
 90
       50
102
RTVSPost2010PropOp47
 70
     1
102
RTVSPost2010Prop48
 90
       50
102
RTVSPost2010PropOp48
 70
     1
102
RTVSPost2010Prop49
280
     0
102
RTVSPost2010PropOp49
 70
     1
102
RTVSPost2010Prop50
 90
       50
102
RTVSPost2010PropOp50
 70
     1
102
RTVSPost2010Prop51ColorIndex
 90
      256
102
RTVSPost2010Prop51ColorRGB
 90
-16777216
102
RTVSPost2010PropOp51
 70
     0
102
RTVSPost2010Prop52
140
1.0
102
RTVSPost2010PropOp52
 70
     0
102
RTVSPost2010Prop53
 90
        2
102
RTVSPost2010PropOp53
 70
     1
102
RTVSPost2010Prop54
  1
strokes_ogs.tif
102
RTVSPost2010PropOp54
 70
     1
102
RTVSPost2010Prop55
280
     0
102
RTVSPost2010PropOp55
 70
     1
102
RTVSPost2010Prop56
140
1.0
102
RTVSPost2010PropOp56
 70
     1
102
RTVSPost2010Prop57
140
1.0
102
RTVSPost2010PropOp57
 70
     1
102
RTVSPropertyOp0
 70
     1
102
RTVSPropertyOp1
 70
     1
102
RTVSPropertyOp2
 70
     1
102
RTVSPropertyOp3
 70
     1
102
RTVSPropertyOp4
 70
     1
102
RTVSPropertyOp5
 70
     1
102
RTVSPropertyOp6
 70
     1
102
RTVSPropertyOp7
 70
     1
102
RTVSPropertyOp8
 70
     1
102
RTVSPropertyOp9
 70
     1
102
RTVSPropertyOp10
 70
     1
102
RTVSPropertyOp11
 70
     1
102
RTVSPropertyOp12
 70
     1
102
RTVSPropertyOp13
 70
     1
102
RTVSPropertyOp14
 70
     1
102
RTVSPropertyOp15
 70
     1
102
RTVSPropertyOp16
 70
     1
102
RTVSPropertyOp17
 70
     1
102
RTVSPropertyOp18
 70
     1
102
RTVSPropertyOp19
 70
     1
102
RTVSPropertyOp20
 70
     1
102
RTVSPropertyOp21
 70
     1
102
RTVSPropertyOp22
 70
     1
102
RTVSPropertyOp23
 70
     1
102
RTVSPropertyOp24
 70
     1
102
RTVSPropertyOp25
 70
     1
102
RTVSPropertyOp26
 70
     1
102
RTVSPropertyOp27
 70
     1
102
RTVSPropertyOp28
 70
     1
102
RTVSPropertyOp29
 70
     1
102
RTVSPropertyOp30
 70
     1
102
RTVSPropertyOp31
 70
     1
102
RTVSPropertyOp32
 70
     1
102
RTVSPropertyOp33
 70
     1
102
RTVSPropertyOp34
 70
     1
102
RTVSPropertyOp35
 70
     1
102
RTVSPropertyOp36
 70
     1
102
RTVSPropertyOp37
 70
     1
102
RTVSPropertyOp38
 70
     1
102
RTVSPropertyOp39
 70
     1
102
RTVSPropertyOp40
 70
     1
102
RTVSPropertyOp41
 70
     1
102
RTVSPropertyOp42
 70
     1
102
RTVSPropertyOp43
 70
     1
102
RTVSPropertyOp44
 70
     1
102
RTVSPropertyOp45
 70
     1
102
RTVSPropertyOp46
 70
     1
102
RTVSPropertyOp47
 70
     1
102
RTVSPropertyOp48
 70
     1
102
RTVSPropertyOp49
 70
     1
102
RTVSPropertyOp50
 70
     1
102
RTVSPropertyOp51
 70
     0
102
RTVSPropertyOp52
 70
     0
102
RTVSPropertyOp53
 70
     1
102
RTVSPropertyOp54
 70
     1
102
RTVSPropertyOp55
 70
     1
102
RTVSPropertyOp56
 70
     1
102
RTVSPropertyOp57
 70
     1
102
RTVSPropertyOp58
 70
     1
102
RTVSPropertyOp59
 70
     1
102
RTVSPropertyOp60
 70
     1
102
RTVSPropertyOp61
 70
     1
102
RTVSPropertyOp62
 70
     1
  0
XRECORD
  5
5F1
102
{ACAD_REACTORS
330
5F0
102
}
330
5F0
100
AcDbXrecord
280
     1
102
RTVSPost2010Prop28
280
     0
102
RTVSPost2010PropOp28
 70
     1
102
RTVSPost2010Prop29
280
     1
102
RTVSPost2010PropOp29
 70
     1
102
RTVSPost2010Prop30
280
     1
102
RTVSPost2010PropOp30
 70
     1
102
RTVSPost2010Prop31
280
     0
102
RTVSPost2010PropOp31
 70
     1
102
RTVSPost2010Prop32
280
     0
102
RTVSPost2010PropOp32
 70
     1
102
RTVSPost2010Prop33
280
     0
102
RTVSPost2010PropOp33
 70
     1
102
RTVSPost2010Prop34
280
     0
102
RTVSPost2010PropOp34
 70
     1
102
RTVSPost2010Prop35
280
     0
102
RTVSPost2010PropOp35
 70
     1
102
RTVSPost2010Prop36
280
     0
102
RTVSPost2010PropOp36
 70
     1
102
RTVSPost2010Prop37
 90
       50
102
RTVSPost2010PropOp37
 70
     0
102
RTVSPost2010Prop38
140
0.0
102
RTVSPost2010PropOp38
 70
     0
102
RTVSPost2010Prop39
140
1.0
102
RTVSPost2010PropOp39
 70
     0
102
RTVSPost2010Prop40
 90
        0
102
RTVSPost2010PropOp40
 70
     0
102
RTVSPost2010Prop41ColorIndex
 90
       18
102
RTVSPost2010Prop41ColorRGB
 90
        0
102
RTVSPost2010PropOp41
 70
     0
102
RTVSPost2010Prop42
 90
       50
102
RTVSPost2010PropOp42
 70
     0
102
RTVSPost2010Prop43
 90
        3
102
RTVSPost2010PropOp43
 70
     0
102
RTVSPost2010Prop44ColorIndex
 90
        5
102
RTVSPost2010Prop44ColorRGB
 90
      255
102
RTVSPost2010PropOp44
 70
     0
102
RTVSPost2010Prop45
280
     0
102
RTVSPost2010PropOp45
 70
     1
102
RTVSPost2010Prop46
 90
       50
102
RTVSPost2010PropOp46
 70
     0
102
RTVSPost2010Prop47
 90
       50
102
RTVSPost2010PropOp47
 70
     0
102
RTVSPost2010Prop48
 90
       50
102
RTVSPost2010PropOp48
 70
     0
102
RTVSPost2010Prop49
280
     0
102
RTVSPost2010PropOp49
 70
     1
102
RTVSPost2010Prop50
 90
       50
102
RTVSPost2010PropOp50
 70
     0
102
RTVSPost2010Prop51ColorIndex
 90
      256
102
RTVSPost2010Prop51ColorRGB
 90
-16777216
102
RTVSPost2010PropOp51
 70
     0
102
RTVSPost2010Prop52
140
1.0
102
RTVSPost2010PropOp52
 70
     0
102
RTVSPost2010Prop53
 90
        2
102
RTVSPost2010PropOp53
 70
     0
102
RTVSPost2010Prop54
  1
strokes_ogs.tif
102
RTVSPost2010PropOp54
 70
     0
102
RTVSPost2010Prop55
280
     0
102
RTVSPost2010PropOp55
 70
     1
102
RTVSPost2010Prop56
140
1.0
102
RTVSPost2010PropOp56
 70
     0
102
RTVSPost2010Prop57
140
1.0
102
RTVSPost2010PropOp57
 70
     0
102
RTVSPropertyOp0
 70
     0
102
RTVSPropertyOp1
 70
     0
102
RTVSPropertyOp2
 70
     0
102
RTVSPropertyOp3
 70
     0
102
RTVSPropertyOp4
 70
     0
102
RTVSPropertyOp5
 70
     0
102
RTVSPropertyOp6
 70
     0
102
RTVSPropertyOp7
 70
     0
102
RTVSPropertyOp8
 70
     0
102
RTVSPropertyOp9
 70
     0
102
RTVSPropertyOp10
 70
     0
102
RTVSPropertyOp11
 70
     0
102
RTVSPropertyOp12
 70
     0
102
RTVSPropertyOp13
 70
     0
102
RTVSPropertyOp14
 70
     2
102
RTVSPropertyOp15
 70
     0
102
RTVSPropertyOp16
 70
     0
102
RTVSPropertyOp17
 70
     0
102
RTVSPropertyOp18
 70
     0
102
RTVSPropertyOp19
 70
     0
102
RTVSPropertyOp20
 70
     0
102
RTVSPropertyOp21
 70
     0
102
RTVSPropertyOp22
 70
     0
102
RTVSPropertyOp23
 70
     0
102
RTVSPropertyOp24
 70
     0
102
RTVSPropertyOp25
 70
     0
102
RTVSPropertyOp26
 70
     0
102
RTVSPropertyOp27
 70
     0
102
RTVSPropertyOp28
 70
     1
102
RTVSPropertyOp29
 70
     1
102
RTVSPropertyOp30
 70
     1
102
RTVSPropertyOp31
 70
     1
102
RTVSPropertyOp32
 70
     1
102
RTVSPropertyOp33
 70
     1
102
RTVSPropertyOp34
 70
     1
102
RTVSPropertyOp35
 70
     1
102
RTVSPropertyOp36
 70
     1
102
RTVSPropertyOp37
 70
     0
102
RTVSPropertyOp38
 70
     0
102
RTVSPropertyOp39
 70
     0
102
RTVSPropertyOp40
 70
     0
102
RTVSPropertyOp41
 70
     0
102
RTVSPropertyOp42
 70
     0
102
RTVSPropertyOp43
 70
     0
102
RTVSPropertyOp44
 70
     0
102
RTVSPropertyOp45
 70
     1
102
RTVSPropertyOp46
 70
     0
102
RTVSPropertyOp47
 70
     0
102
RTVSPropertyOp48
 70
     0
102
RTVSPropertyOp49
 70
     1
102
RTVSPropertyOp50
 70
     0
102
RTVSPropertyOp51
 70
     0
102
RTVSPropertyOp52
 70
     0
102
RTVSPropertyOp53
 70
     0
102
RTVSPropertyOp54
 70
     0
102
RTVSPropertyOp55
 70
     1
102
RTVSPropertyOp56
 70
     0
102
RTVSPropertyOp57
 70
     0
102
RTVSPropertyOp58
 70
     0
102
RTVSPropertyOp59
 70
     0
102
RTVSPropertyOp60
 70
     0
102
RTVSPropertyOp61
 70
     0
102
RTVSPropertyOp62
 70
     0
  0
XRECORD
  5
5DF
102
{ACAD_REACTORS
330
5DE
102
}
330
5DE
100
AcDbXrecord
280
     1
102
RTVSPost2010Prop28
280
     0
102
RTVSPost2010PropOp28
 70
     1
102
RTVSPost2010Prop29
280
     1
102
RTVSPost2010PropOp29
 70
     1
102
RTVSPost2010Prop30
280
     1
102
RTVSPost2010PropOp30
 70
     1
102
RTVSPost2010Prop31
280
     0
102
RTVSPost2010PropOp31
 70
     1
102
RTVSPost2010Prop32
280
     0
102
RTVSPost2010PropOp32
 70
     1
102
RTVSPost2010Prop33
280
     0
102
RTVSPost2010PropOp33
 70
     1
102
RTVSPost2010Prop34
280
     0
102
RTVSPost2010PropOp34
 70
     1
102
RTVSPost2010Prop35
280
     0
102
RTVSPost2010PropOp35
 70
     1
102
RTVSPost2010Prop36
280
     0
102
RTVSPost2010PropOp36
 70
     1
102
RTVSPost2010Prop37
 90
       50
102
RTVSPost2010PropOp37
 70
     1
102
RTVSPost2010Prop38
140
0.0
102
RTVSPost2010PropOp38
 70
     1
102
RTVSPost2010Prop39
140
1.0
102
RTVSPost2010PropOp39
 70
     1
102
RTVSPost2010Prop40
 90
        0
102
RTVSPost2010PropOp40
 70
     1
102
RTVSPost2010Prop41ColorIndex
 90
       18
102
RTVSPost2010Prop41ColorRGB
 90
        0
102
RTVSPost2010PropOp41
 70
     1
102
RTVSPost2010Prop42
 90
       50
102
RTVSPost2010PropOp42
 70
     1
102
RTVSPost2010Prop43
 90
        3
102
RTVSPost2010PropOp43
 70
     1
102
RTVSPost2010Prop44ColorIndex
 90
        5
102
RTVSPost2010Prop44ColorRGB
 90
      255
102
RTVSPost2010PropOp44
 70
     1
102
RTVSPost2010Prop45
280
     0
102
RTVSPost2010PropOp45
 70
     1
102
RTVSPost2010Prop46
 90
       50
102
RTVSPost2010PropOp46
 70
     1
102
RTVSPost2010Prop47
 90
       50
102
RTVSPost2010PropOp47
 70
     1
102
RTVSPost2010Prop48
 90
       50
102
RTVSPost2010PropOp48
 70
     1
102
RTVSPost2010Prop49
280
     0
102
RTVSPost2010PropOp49
 70
     1
102
RTVSPost2010Prop50
 90
       50
102
RTVSPost2010PropOp50
 70
     1
102
RTVSPost2010Prop51ColorIndex
 90
      256
102
RTVSPost2010Prop51ColorRGB
 90
-16777216
102
RTVSPost2010PropOp51
 70
     0
102
RTVSPost2010Prop52
140
1.0
102
RTVSPost2010PropOp52
 70
     0
102
RTVSPost2010Prop53
 90
        2
102
RTVSPost2010PropOp53
 70
     1
102
RTVSPost2010Prop54
  1
strokes_ogs.tif
102
RTVSPost2010PropOp54
 70
     1
102
RTVSPost2010Prop55
280
     0
102
RTVSPost2010PropOp55
 70
     1
102
RTVSPost2010Prop56
140
1.0
102
RTVSPost2010PropOp56
 70
     1
102
RTVSPost2010Prop57
140
1.0
102
RTVSPost2010PropOp57
 70
     1
102
RTVSPropertyOp0
 70
     1
102
RTVSPropertyOp1
 70
     1
102
RTVSPropertyOp2
 70
     1
102
RTVSPropertyOp3
 70
     1
102
RTVSPropertyOp4
 70
     1
102
RTVSPropertyOp5
 70
     1
102
RTVSPropertyOp6
 70
     1
102
RTVSPropertyOp7
 70
     1
102
RTVSPropertyOp8
 70
     1
102
RTVSPropertyOp9
 70
     1
102
RTVSPropertyOp10
 70
     1
102
RTVSPropertyOp11
 70
     1
102
RTVSPropertyOp12
 70
     1
102
RTVSPropertyOp13
 70
     1
102
RTVSPropertyOp14
 70
     1
102
RTVSPropertyOp15
 70
     1
102
RTVSPropertyOp16
 70
     1
102
RTVSPropertyOp17
 70
     1
102
RTVSPropertyOp18
 70
     1
102
RTVSPropertyOp19
 70
     1
102
RTVSPropertyOp20
 70
     1
102
RTVSPropertyOp21
 70
     1
102
RTVSPropertyOp22
 70
     1
102
RTVSPropertyOp23
 70
     1
102
RTVSPropertyOp24
 70
     1
102
RTVSPropertyOp25
 70
     1
102
RTVSPropertyOp26
 70
     1
102
RTVSPropertyOp27
 70
     1
102
RTVSPropertyOp28
 70
     1
102
RTVSPropertyOp29
 70
     1
102
RTVSPropertyOp30
 70
     1
102
RTVSPropertyOp31
 70
     1
102
RTVSPropertyOp32
 70
     1
102
RTVSPropertyOp33
 70
     1
102
RTVSPropertyOp34
 70
     1
102
RTVSPropertyOp35
 70
     1
102
RTVSPropertyOp36
 70
     1
102
RTVSPropertyOp37
 70
     1
102
RTVSPropertyOp38
 70
     1
102
RTVSPropertyOp39
 70
     1
102
RTVSPropertyOp40
 70
     1
102
RTVSPropertyOp41
 70
     1
102
RTVSPropertyOp42
 70
     1
102
RTVSPropertyOp43
 70
     1
102
RTVSPropertyOp44
 70
     1
102
RTVSPropertyOp45
 70
     1
102
RTVSPropertyOp46
 70
     1
102
RTVSPropertyOp47
 70
     1
102
RTVSPropertyOp48
 70
     1
102
RTVSPropertyOp49
 70
     1
102
RTVSPropertyOp50
 70
     1
102
RTVSPropertyOp51
 70
     0
102
RTVSPropertyOp52
 70
     0
102
RTVSPropertyOp53
 70
     1
102
RTVSPropertyOp54
 70
     1
102
RTVSPropertyOp55
 70
     1
102
RTVSPropertyOp56
 70
     1
102
RTVSPropertyOp57
 70
     1
102
RTVSPropertyOp58
 70
     1
102
RTVSPropertyOp59
 70
     1
102
RTVSPropertyOp60
 70
     1
102
RTVSPropertyOp61
 70
     1
102
RTVSPropertyOp62
 70
     1
  0
XRECORD
  5
5C3
102
{ACAD_REACTORS
330
5C2
102
}
330
5C2
100
AcDbXrecord
280
     1
102
RTVSPost2010Prop28
280
     0
102
RTVSPost2010PropOp28
 70
     1
102
RTVSPost2010Prop29
280
     1
102
RTVSPost2010PropOp29
 70
     1
102
RTVSPost2010Prop30
280
     1
102
RTVSPost2010PropOp30
 70
     1
102
RTVSPost2010Prop31
280
     0
102
RTVSPost2010PropOp31
 70
     1
102
RTVSPost2010Prop32
280
     0
102
RTVSPost2010PropOp32
 70
     1
102
RTVSPost2010Prop33
280
     0
102
RTVSPost2010PropOp33
 70
     1
102
RTVSPost2010Prop34
280
     0
102
RTVSPost2010PropOp34
 70
     1
102
RTVSPost2010Prop35
280
     0
102
RTVSPost2010PropOp35
 70
     1
102
RTVSPost2010Prop36
280
     0
102
RTVSPost2010PropOp36
 70
     1
102
RTVSPost2010Prop37
 90
       50
102
RTVSPost2010PropOp37
 70
     1
102
RTVSPost2010Prop38
140
0.0
102
RTVSPost2010PropOp38
 70
     1
102
RTVSPost2010Prop39
140
1.0
102
RTVSPost2010PropOp39
 70
     1
102
RTVSPost2010Prop40
 90
        0
102
RTVSPost2010PropOp40
 70
     1
102
RTVSPost2010Prop41ColorIndex
 90
       18
102
RTVSPost2010Prop41ColorRGB
 90
        0
102
RTVSPost2010PropOp41
 70
     1
102
RTVSPost2010Prop42
 90
       50
102
RTVSPost2010PropOp42
 70
     1
102
RTVSPost2010Prop43
 90
        3
102
RTVSPost2010PropOp43
 70
     1
102
RTVSPost2010Prop44ColorIndex
 90
        5
102
RTVSPost2010Prop44ColorRGB
 90
      255
102
RTVSPost2010PropOp44
 70
     1
102
RTVSPost2010Prop45
280
     0
102
RTVSPost2010PropOp45
 70
     1
102
RTVSPost2010Prop46
 90
       50
102
RTVSPost2010PropOp46
 70
     1
102
RTVSPost2010Prop47
 90
       50
102
RTVSPost2010PropOp47
 70
     1
102
RTVSPost2010Prop48
 90
       50
102
RTVSPost2010PropOp48
 70
     1
102
RTVSPost2010Prop49
280
     0
102
RTVSPost2010PropOp49
 70
     1
102
RTVSPost2010Prop50
 90
       50
102
RTVSPost2010PropOp50
 70
     1
102
RTVSPost2010Prop51ColorIndex
 90
      256
102
RTVSPost2010Prop51ColorRGB
 90
-16777216
102
RTVSPost2010PropOp51
 70
     0
102
RTVSPost2010Prop52
140
1.0
102
RTVSPost2010PropOp52
 70
     0
102
RTVSPost2010Prop53
 90
        2
102
RTVSPost2010PropOp53
 70
     1
102
RTVSPost2010Prop54
  1
strokes_ogs.tif
102
RTVSPost2010PropOp54
 70
     1
102
RTVSPost2010Prop55
280
     0
102
RTVSPost2010PropOp55
 70
     1
102
RTVSPost2010Prop56
140
1.0
102
RTVSPost2010PropOp56
 70
     1
102
RTVSPost2010Prop57
140
1.0
102
RTVSPost2010PropOp57
 70
     1
102
RTVSPropertyOp0
 70
     1
102
RTVSPropertyOp1
 70
     1
102
RTVSPropertyOp2
 70
     1
102
RTVSPropertyOp3
 70
     1
102
RTVSPropertyOp4
 70
     1
102
RTVSPropertyOp5
 70
     1
102
RTVSPropertyOp6
 70
     1
102
RTVSPropertyOp7
 70
     1
102
RTVSPropertyOp8
 70
     1
102
RTVSPropertyOp9
 70
     1
102
RTVSPropertyOp10
 70
     1
102
RTVSPropertyOp11
 70
     1
102
RTVSPropertyOp12
 70
     1
102
RTVSPropertyOp13
 70
     1
102
RTVSPropertyOp14
 70
     1
102
RTVSPropertyOp15
 70
     1
102
RTVSPropertyOp16
 70
     1
102
RTVSPropertyOp17
 70
     1
102
RTVSPropertyOp18
 70
     1
102
RTVSPropertyOp19
 70
     1
102
RTVSPropertyOp20
 70
     1
102
RTVSPropertyOp21
 70
     1
102
RTVSPropertyOp22
 70
     1
102
RTVSPropertyOp23
 70
     1
102
RTVSPropertyOp24
 70
     1
102
RTVSPropertyOp25
 70
     1
102
RTVSPropertyOp26
 70
     1
102
RTVSPropertyOp27
 70
     1
102
RTVSPropertyOp28
 70
     1
102
RTVSPropertyOp29
 70
     1
102
RTVSPropertyOp30
 70
     1
102
RTVSPropertyOp31
 70
     1
102
RTVSPropertyOp32
 70
     1
102
RTVSPropertyOp33
 70
     1
102
RTVSPropertyOp34
 70
     1
102
RTVSPropertyOp35
 70
     1
102
RTVSPropertyOp36
 70
     1
102
RTVSPropertyOp37
 70
     1
102
RTVSPropertyOp38
 70
     1
102
RTVSPropertyOp39
 70
     1
102
RTVSPropertyOp40
 70
     1
102
RTVSPropertyOp41
 70
     1
102
RTVSPropertyOp42
 70
     1
102
RTVSPropertyOp43
 70
     1
102
RTVSPropertyOp44
 70
     1
102
RTVSPropertyOp45
 70
     1
102
RTVSPropertyOp46
 70
     1
102
RTVSPropertyOp47
 70
     1
102
RTVSPropertyOp48
 70
     1
102
RTVSPropertyOp49
 70
     1
102
RTVSPropertyOp50
 70
     1
102
RTVSPropertyOp51
 70
     0
102
RTVSPropertyOp52
 70
     0
102
RTVSPropertyOp53
 70
     1
102
RTVSPropertyOp54
 70
     1
102
RTVSPropertyOp55
 70
     1
102
RTVSPropertyOp56
 70
     1
102
RTVSPropertyOp57
 70
     1
102
RTVSPropertyOp58
 70
     1
102
RTVSPropertyOp59
 70
     1
102
RTVSPropertyOp60
 70
     1
102
RTVSPropertyOp61
 70
     1
102
RTVSPropertyOp62
 70
     1
  0
XRECORD
  5
5C5
102
{ACAD_REACTORS
330
5C4
102
}
330
5C4
100
AcDbXrecord
280
     1
102
RTVSPost2010Prop28
280
     0
102
RTVSPost2010PropOp28
 70
     1
102
RTVSPost2010Prop29
280
     1
102
RTVSPost2010PropOp29
 70
     1
102
RTVSPost2010Prop30
280
     1
102
RTVSPost2010PropOp30
 70
     1
102
RTVSPost2010Prop31
280
     0
102
RTVSPost2010PropOp31
 70
     1
102
RTVSPost2010Prop32
280
     0
102
RTVSPost2010PropOp32
 70
     1
102
RTVSPost2010Prop33
280
     0
102
RTVSPost2010PropOp33
 70
     1
102
RTVSPost2010Prop34
280
     0
102
RTVSPost2010PropOp34
 70
     1
102
RTVSPost2010Prop35
280
     0
102
RTVSPost2010PropOp35
 70
     1
102
RTVSPost2010Prop36
280
     0
102
RTVSPost2010PropOp36
 70
     1
102
RTVSPost2010Prop37
 90
       50
102
RTVSPost2010PropOp37
 70
     1
102
RTVSPost2010Prop38
140
0.0
102
RTVSPost2010PropOp38
 70
     1
102
RTVSPost2010Prop39
140
1.0
102
RTVSPost2010PropOp39
 70
     1
102
RTVSPost2010Prop40
 90
        0
102
RTVSPost2010PropOp40
 70
     1
102
RTVSPost2010Prop41ColorIndex
 90
       18
102
RTVSPost2010Prop41ColorRGB
 90
        0
102
RTVSPost2010PropOp41
 70
     1
102
RTVSPost2010Prop42
 90
       50
102
RTVSPost2010PropOp42
 70
     1
102
RTVSPost2010Prop43
 90
        3
102
RTVSPost2010PropOp43
 70
     1
102
RTVSPost2010Prop44ColorIndex
 90
        5
102
RTVSPost2010Prop44ColorRGB
 90
      255
102
RTVSPost2010PropOp44
 70
     1
102
RTVSPost2010Prop45
280
     0
102
RTVSPost2010PropOp45
 70
     1
102
RTVSPost2010Prop46
 90
       50
102
RTVSPost2010PropOp46
 70
     1
102
RTVSPost2010Prop47
 90
       50
102
RTVSPost2010PropOp47
 70
     1
102
RTVSPost2010Prop48
 90
       50
102
RTVSPost2010PropOp48
 70
     1
102
RTVSPost2010Prop49
280
     0
102
RTVSPost2010PropOp49
 70
     1
102
RTVSPost2010Prop50
 90
       50
102
RTVSPost2010PropOp50
 70
     1
102
RTVSPost2010Prop51ColorIndex
 90
      256
102
RTVSPost2010Prop51ColorRGB
 90
-16777216
102
RTVSPost2010PropOp51
 70
     0
102
RTVSPost2010Prop52
140
1.0
102
RTVSPost2010PropOp52
 70
     0
102
RTVSPost2010Prop53
 90
        2
102
RTVSPost2010PropOp53
 70
     1
102
RTVSPost2010Prop54
  1
strokes_ogs.tif
102
RTVSPost2010PropOp54
 70
     1
102
RTVSPost2010Prop55
280
     0
102
RTVSPost2010PropOp55
 70
     1
102
RTVSPost2010Prop56
140
1.0
102
RTVSPost2010PropOp56
 70
     1
102
RTVSPost2010Prop57
140
1.0
102
RTVSPost2010PropOp57
 70
     1
102
RTVSPropertyOp0
 70
     1
102
RTVSPropertyOp1
 70
     1
102
RTVSPropertyOp2
 70
     1
102
RTVSPropertyOp3
 70
     1
102
RTVSPropertyOp4
 70
     1
102
RTVSPropertyOp5
 70
     1
102
RTVSPropertyOp6
 70
     1
102
RTVSPropertyOp7
 70
     1
102
RTVSPropertyOp8
 70
     1
102
RTVSPropertyOp9
 70
     1
102
RTVSPropertyOp10
 70
     1
102
RTVSPropertyOp11
 70
     1
102
RTVSPropertyOp12
 70
     1
102
RTVSPropertyOp13
 70
     1
102
RTVSPropertyOp14
 70
     1
102
RTVSPropertyOp15
 70
     1
102
RTVSPropertyOp16
 70
     1
102
RTVSPropertyOp17
 70
     1
102
RTVSPropertyOp18
 70
     1
102
RTVSPropertyOp19
 70
     1
102
RTVSPropertyOp20
 70
     1
102
RTVSPropertyOp21
 70
     1
102
RTVSPropertyOp22
 70
     1
102
RTVSPropertyOp23
 70
     1
102
RTVSPropertyOp24
 70
     1
102
RTVSPropertyOp25
 70
     1
102
RTVSPropertyOp26
 70
     1
102
RTVSPropertyOp27
 70
     1
102
RTVSPropertyOp28
 70
     1
102
RTVSPropertyOp29
 70
     1
102
RTVSPropertyOp30
 70
     1
102
RTVSPropertyOp31
 70
     1
102
RTVSPropertyOp32
 70
     1
102
RTVSPropertyOp33
 70
     1
102
RTVSPropertyOp34
 70
     1
102
RTVSPropertyOp35
 70
     1
102
RTVSPropertyOp36
 70
     1
102
RTVSPropertyOp37
 70
     1
102
RTVSPropertyOp38
 70
     1
102
RTVSPropertyOp39
 70
     1
102
RTVSPropertyOp40
 70
     1
102
RTVSPropertyOp41
 70
     1
102
RTVSPropertyOp42
 70
     1
102
RTVSPropertyOp43
 70
     1
102
RTVSPropertyOp44
 70
     1
102
RTVSPropertyOp45
 70
     1
102
RTVSPropertyOp46
 70
     1
102
RTVSPropertyOp47
 70
     1
102
RTVSPropertyOp48
 70
     1
102
RTVSPropertyOp49
 70
     1
102
RTVSPropertyOp50
 70
     1
102
RTVSPropertyOp51
 70
     0
102
RTVSPropertyOp52
 70
     0
102
RTVSPropertyOp53
 70
     1
102
RTVSPropertyOp54
 70
     1
102
RTVSPropertyOp55
 70
     1
102
RTVSPropertyOp56
 70
     1
102
RTVSPropertyOp57
 70
     1
102
RTVSPropertyOp58
 70
     1
102
RTVSPropertyOp59
 70
     1
102
RTVSPropertyOp60
 70
     1
102
RTVSPropertyOp61
 70
     1
102
RTVSPropertyOp62
 70
     1
  0
XRECORD
  5
5C7
102
{ACAD_REACTORS
330
5C6
102
}
330
5C6
100
AcDbXrecord
280
     1
102
RTVSPost2010Prop28
280
     0
102
RTVSPost2010PropOp28
 70
     1
102
RTVSPost2010Prop29
280
     1
102
RTVSPost2010PropOp29
 70
     1
102
RTVSPost2010Prop30
280
     1
102
RTVSPost2010PropOp30
 70
     1
102
RTVSPost2010Prop31
280
     0
102
RTVSPost2010PropOp31
 70
     1
102
RTVSPost2010Prop32
280
     0
102
RTVSPost2010PropOp32
 70
     1
102
RTVSPost2010Prop33
280
     0
102
RTVSPost2010PropOp33
 70
     1
102
RTVSPost2010Prop34
280
     0
102
RTVSPost2010PropOp34
 70
     1
102
RTVSPost2010Prop35
280
     0
102
RTVSPost2010PropOp35
 70
     1
102
RTVSPost2010Prop36
280
     0
102
RTVSPost2010PropOp36
 70
     1
102
RTVSPost2010Prop37
 90
       50
102
RTVSPost2010PropOp37
 70
     1
102
RTVSPost2010Prop38
140
0.0
102
RTVSPost2010PropOp38
 70
     1
102
RTVSPost2010Prop39
140
1.0
102
RTVSPost2010PropOp39
 70
     1
102
RTVSPost2010Prop40
 90
        0
102
RTVSPost2010PropOp40
 70
     1
102
RTVSPost2010Prop41ColorIndex
 90
       18
102
RTVSPost2010Prop41ColorRGB
 90
        0
102
RTVSPost2010PropOp41
 70
     1
102
RTVSPost2010Prop42
 90
       50
102
RTVSPost2010PropOp42
 70
     1
102
RTVSPost2010Prop43
 90
        3
102
RTVSPost2010PropOp43
 70
     1
102
RTVSPost2010Prop44ColorIndex
 90
        5
102
RTVSPost2010Prop44ColorRGB
 90
      255
102
RTVSPost2010PropOp44
 70
     1
102
RTVSPost2010Prop45
280
     0
102
RTVSPost2010PropOp45
 70
     1
102
RTVSPost2010Prop46
 90
       50
102
RTVSPost2010PropOp46
 70
     1
102
RTVSPost2010Prop47
 90
       50
102
RTVSPost2010PropOp47
 70
     1
102
RTVSPost2010Prop48
 90
       50
102
RTVSPost2010PropOp48
 70
     1
102
RTVSPost2010Prop49
280
     0
102
RTVSPost2010PropOp49
 70
     1
102
RTVSPost2010Prop50
 90
       50
102
RTVSPost2010PropOp50
 70
     1
102
RTVSPost2010Prop51ColorIndex
 90
      256
102
RTVSPost2010Prop51ColorRGB
 90
-16777216
102
RTVSPost2010PropOp51
 70
     0
102
RTVSPost2010Prop52
140
1.0
102
RTVSPost2010PropOp52
 70
     0
102
RTVSPost2010Prop53
 90
        2
102
RTVSPost2010PropOp53
 70
     1
102
RTVSPost2010Prop54
  1
strokes_ogs.tif
102
RTVSPost2010PropOp54
 70
     1
102
RTVSPost2010Prop55
280
     0
102
RTVSPost2010PropOp55
 70
     1
102
RTVSPost2010Prop56
140
1.0
102
RTVSPost2010PropOp56
 70
     1
102
RTVSPost2010Prop57
140
1.0
102
RTVSPost2010PropOp57
 70
     1
102
RTVSPropertyOp0
 70
     1
102
RTVSPropertyOp1
 70
     1
102
RTVSPropertyOp2
 70
     1
102
RTVSPropertyOp3
 70
     1
102
RTVSPropertyOp4
 70
     1
102
RTVSPropertyOp5
 70
     1
102
RTVSPropertyOp6
 70
     1
102
RTVSPropertyOp7
 70
     1
102
RTVSPropertyOp8
 70
     1
102
RTVSPropertyOp9
 70
     1
102
RTVSPropertyOp10
 70
     1
102
RTVSPropertyOp11
 70
     1
102
RTVSPropertyOp12
 70
     1
102
RTVSPropertyOp13
 70
     1
102
RTVSPropertyOp14
 70
     1
102
RTVSPropertyOp15
 70
     1
102
RTVSPropertyOp16
 70
     1
102
RTVSPropertyOp17
 70
     1
102
RTVSPropertyOp18
 70
     1
102
RTVSPropertyOp19
 70
     1
102
RTVSPropertyOp20
 70
     1
102
RTVSPropertyOp21
 70
     1
102
RTVSPropertyOp22
 70
     1
102
RTVSPropertyOp23
 70
     1
102
RTVSPropertyOp24
 70
     1
102
RTVSPropertyOp25
 70
     1
102
RTVSPropertyOp26
 70
     1
102
RTVSPropertyOp27
 70
     1
102
RTVSPropertyOp28
 70
     1
102
RTVSPropertyOp29
 70
     1
102
RTVSPropertyOp30
 70
     1
102
RTVSPropertyOp31
 70
     1
102
RTVSPropertyOp32
 70
     1
102
RTVSPropertyOp33
 70
     1
102
RTVSPropertyOp34
 70
     1
102
RTVSPropertyOp35
 70
     1
102
RTVSPropertyOp36
 70
     1
102
RTVSPropertyOp37
 70
     1
102
RTVSPropertyOp38
 70
     1
102
RTVSPropertyOp39
 70
     1
102
RTVSPropertyOp40
 70
     1
102
RTVSPropertyOp41
 70
     1
102
RTVSPropertyOp42
 70
     1
102
RTVSPropertyOp43
 70
     1
102
RTVSPropertyOp44
 70
     1
102
RTVSPropertyOp45
 70
     1
102
RTVSPropertyOp46
 70
     1
102
RTVSPropertyOp47
 70
     1
102
RTVSPropertyOp48
 70
     1
102
RTVSPropertyOp49
 70
     1
102
RTVSPropertyOp50
 70
     1
102
RTVSPropertyOp51
 70
     0
102
RTVSPropertyOp52
 70
     0
102
RTVSPropertyOp53
 70
     1
102
RTVSPropertyOp54
 70
     1
102
RTVSPropertyOp55
 70
     1
102
RTVSPropertyOp56
 70
     1
102
RTVSPropertyOp57
 70
     1
102
RTVSPropertyOp58
 70
     1
102
RTVSPropertyOp59
 70
     1
102
RTVSPropertyOp60
 70
     1
102
RTVSPropertyOp61
 70
     1
102
RTVSPropertyOp62
 70
     1
  0
XRECORD
  5
5C9
102
{ACAD_REACTORS
330
5C8
102
}
330
5C8
100
AcDbXrecord
280
     1
102
RTVSPost2010Prop28
280
     0
102
RTVSPost2010PropOp28
 70
     1
102
RTVSPost2010Prop29
280
     1
102
RTVSPost2010PropOp29
 70
     1
102
RTVSPost2010Prop30
280
     1
102
RTVSPost2010PropOp30
 70
     1
102
RTVSPost2010Prop31
280
     0
102
RTVSPost2010PropOp31
 70
     1
102
RTVSPost2010Prop32
280
     0
102
RTVSPost2010PropOp32
 70
     1
102
RTVSPost2010Prop33
280
     0
102
RTVSPost2010PropOp33
 70
     1
102
RTVSPost2010Prop34
280
     0
102
RTVSPost2010PropOp34
 70
     1
102
RTVSPost2010Prop35
280
     0
102
RTVSPost2010PropOp35
 70
     1
102
RTVSPost2010Prop36
280
     0
102
RTVSPost2010PropOp36
 70
     1
102
RTVSPost2010Prop37
 90
       50
102
RTVSPost2010PropOp37
 70
     1
102
RTVSPost2010Prop38
140
0.0
102
RTVSPost2010PropOp38
 70
     1
102
RTVSPost2010Prop39
140
1.0
102
RTVSPost2010PropOp39
 70
     1
102
RTVSPost2010Prop40
 90
        0
102
RTVSPost2010PropOp40
 70
     1
102
RTVSPost2010Prop41ColorIndex
 90
       18
102
RTVSPost2010Prop41ColorRGB
 90
        0
102
RTVSPost2010PropOp41
 70
     1
102
RTVSPost2010Prop42
 90
       50
102
RTVSPost2010PropOp42
 70
     1
102
RTVSPost2010Prop43
 90
        3
102
RTVSPost2010PropOp43
 70
     1
102
RTVSPost2010Prop44ColorIndex
 90
        5
102
RTVSPost2010Prop44ColorRGB
 90
      255
102
RTVSPost2010PropOp44
 70
     1
102
RTVSPost2010Prop45
280
     0
102
RTVSPost2010PropOp45
 70
     1
102
RTVSPost2010Prop46
 90
       50
102
RTVSPost2010PropOp46
 70
     1
102
RTVSPost2010Prop47
 90
       50
102
RTVSPost2010PropOp47
 70
     1
102
RTVSPost2010Prop48
 90
       50
102
RTVSPost2010PropOp48
 70
     1
102
RTVSPost2010Prop49
280
     0
102
RTVSPost2010PropOp49
 70
     1
102
RTVSPost2010Prop50
 90
       50
102
RTVSPost2010PropOp50
 70
     1
102
RTVSPost2010Prop51ColorIndex
 90
      256
102
RTVSPost2010Prop51ColorRGB
 90
-16777216
102
RTVSPost2010PropOp51
 70
     0
102
RTVSPost2010Prop52
140
1.0
102
RTVSPost2010PropOp52
 70
     0
102
RTVSPost2010Prop53
 90
        2
102
RTVSPost2010PropOp53
 70
     1
102
RTVSPost2010Prop54
  1
strokes_ogs.tif
102
RTVSPost2010PropOp54
 70
     1
102
RTVSPost2010Prop55
280
     0
102
RTVSPost2010PropOp55
 70
     1
102
RTVSPost2010Prop56
140
1.0
102
RTVSPost2010PropOp56
 70
     1
102
RTVSPost2010Prop57
140
1.0
102
RTVSPost2010PropOp57
 70
     1
102
RTVSPropertyOp0
 70
     1
102
RTVSPropertyOp1
 70
     1
102
RTVSPropertyOp2
 70
     1
102
RTVSPropertyOp3
 70
     1
102
RTVSPropertyOp4
 70
     1
102
RTVSPropertyOp5
 70
     1
102
RTVSPropertyOp6
 70
     1
102
RTVSPropertyOp7
 70
     1
102
RTVSPropertyOp8
 70
     1
102
RTVSPropertyOp9
 70
     1
102
RTVSPropertyOp10
 70
     1
102
RTVSPropertyOp11
 70
     1
102
RTVSPropertyOp12
 70
     1
102
RTVSPropertyOp13
 70
     1
102
RTVSPropertyOp14
 70
     1
102
RTVSPropertyOp15
 70
     1
102
RTVSPropertyOp16
 70
     1
102
RTVSPropertyOp17
 70
     1
102
RTVSPropertyOp18
 70
     1
102
RTVSPropertyOp19
 70
     1
102
RTVSPropertyOp20
 70
     1
102
RTVSPropertyOp21
 70
     1
102
RTVSPropertyOp22
 70
     1
102
RTVSPropertyOp23
 70
     1
102
RTVSPropertyOp24
 70
     1
102
RTVSPropertyOp25
 70
     1
102
RTVSPropertyOp26
 70
     1
102
RTVSPropertyOp27
 70
     1
102
RTVSPropertyOp28
 70
     1
102
RTVSPropertyOp29
 70
     1
102
RTVSPropertyOp30
 70
     1
102
RTVSPropertyOp31
 70
     1
102
RTVSPropertyOp32
 70
     1
102
RTVSPropertyOp33
 70
     1
102
RTVSPropertyOp34
 70
     1
102
RTVSPropertyOp35
 70
     1
102
RTVSPropertyOp36
 70
     1
102
RTVSPropertyOp37
 70
     1
102
RTVSPropertyOp38
 70
     1
102
RTVSPropertyOp39
 70
     1
102
RTVSPropertyOp40
 70
     1
102
RTVSPropertyOp41
 70
     1
102
RTVSPropertyOp42
 70
     1
102
RTVSPropertyOp43
 70
     1
102
RTVSPropertyOp44
 70
     1
102
RTVSPropertyOp45
 70
     1
102
RTVSPropertyOp46
 70
     1
102
RTVSPropertyOp47
 70
     1
102
RTVSPropertyOp48
 70
     1
102
RTVSPropertyOp49
 70
     1
102
RTVSPropertyOp50
 70
     1
102
RTVSPropertyOp51
 70
     0
102
RTVSPropertyOp52
 70
     0
102
RTVSPropertyOp53
 70
     1
102
RTVSPropertyOp54
 70
     1
102
RTVSPropertyOp55
 70
     1
102
RTVSPropertyOp56
 70
     1
102
RTVSPropertyOp57
 70
     1
102
RTVSPropertyOp58
 70
     1
102
RTVSPropertyOp59
 70
     1
102
RTVSPropertyOp60
 70
     1
102
RTVSPropertyOp61
 70
     1
102
RTVSPropertyOp62
 70
     1
  0
XRECORD
  5
5D1
102
{ACAD_REACTORS
330
5D0
102
}
330
5D0
100
AcDbXrecord
280
     1
102
RTVSPost2010Prop28
280
     0
102
RTVSPost2010PropOp28
 70
     1
102
RTVSPost2010Prop29
280
     1
102
RTVSPost2010PropOp29
 70
     1
102
RTVSPost2010Prop30
280
     1
102
RTVSPost2010PropOp30
 70
     1
102
RTVSPost2010Prop31
280
     0
102
RTVSPost2010PropOp31
 70
     1
102
RTVSPost2010Prop32
280
     0
102
RTVSPost2010PropOp32
 70
     1
102
RTVSPost2010Prop33
280
     0
102
RTVSPost2010PropOp33
 70
     1
102
RTVSPost2010Prop34
280
     0
102
RTVSPost2010PropOp34
 70
     1
102
RTVSPost2010Prop35
280
     0
102
RTVSPost2010PropOp35
 70
     1
102
RTVSPost2010Prop36
280
     0
102
RTVSPost2010PropOp36
 70
     1
102
RTVSPost2010Prop37
 90
       50
102
RTVSPost2010PropOp37
 70
     1
102
RTVSPost2010Prop38
140
0.0
102
RTVSPost2010PropOp38
 70
     1
102
RTVSPost2010Prop39
140
1.0
102
RTVSPost2010PropOp39
 70
     1
102
RTVSPost2010Prop40
 90
        0
102
RTVSPost2010PropOp40
 70
     1
102
RTVSPost2010Prop41ColorIndex
 90
       18
102
RTVSPost2010Prop41ColorRGB
 90
        0
102
RTVSPost2010PropOp41
 70
     1
102
RTVSPost2010Prop42
 90
       50
102
RTVSPost2010PropOp42
 70
     1
102
RTVSPost2010Prop43
 90
        3
102
RTVSPost2010PropOp43
 70
     1
102
RTVSPost2010Prop44ColorIndex
 90
        5
102
RTVSPost2010Prop44ColorRGB
 90
      255
102
RTVSPost2010PropOp44
 70
     1
102
RTVSPost2010Prop45
280
     0
102
RTVSPost2010PropOp45
 70
     1
102
RTVSPost2010Prop46
 90
       50
102
RTVSPost2010PropOp46
 70
     1
102
RTVSPost2010Prop47
 90
       50
102
RTVSPost2010PropOp47
 70
     1
102
RTVSPost2010Prop48
 90
       50
102
RTVSPost2010PropOp48
 70
     1
102
RTVSPost2010Prop49
280
     0
102
RTVSPost2010PropOp49
 70
     1
102
RTVSPost2010Prop50
 90
       50
102
RTVSPost2010PropOp50
 70
     1
102
RTVSPost2010Prop51ColorIndex
 90
      256
102
RTVSPost2010Prop51ColorRGB
 90
-16777216
102
RTVSPost2010PropOp51
 70
     0
102
RTVSPost2010Prop52
140
1.0
102
RTVSPost2010PropOp52
 70
     0
102
RTVSPost2010Prop53
 90
        2
102
RTVSPost2010PropOp53
 70
     1
102
RTVSPost2010Prop54
  1
strokes_ogs.tif
102
RTVSPost2010PropOp54
 70
     1
102
RTVSPost2010Prop55
280
     0
102
RTVSPost2010PropOp55
 70
     1
102
RTVSPost2010Prop56
140
1.0
102
RTVSPost2010PropOp56
 70
     1
102
RTVSPost2010Prop57
140
1.0
102
RTVSPost2010PropOp57
 70
     1
102
RTVSPropertyOp0
 70
     1
102
RTVSPropertyOp1
 70
     1
102
RTVSPropertyOp2
 70
     1
102
RTVSPropertyOp3
 70
     1
102
RTVSPropertyOp4
 70
     1
102
RTVSPropertyOp5
 70
     1
102
RTVSPropertyOp6
 70
     1
102
RTVSPropertyOp7
 70
     1
102
RTVSPropertyOp8
 70
     1
102
RTVSPropertyOp9
 70
     1
102
RTVSPropertyOp10
 70
     1
102
RTVSPropertyOp11
 70
     1
102
RTVSPropertyOp12
 70
     1
102
RTVSPropertyOp13
 70
     1
102
RTVSPropertyOp14
 70
     1
102
RTVSPropertyOp15
 70
     1
102
RTVSPropertyOp16
 70
     1
102
RTVSPropertyOp17
 70
     1
102
RTVSPropertyOp18
 70
     1
102
RTVSPropertyOp19
 70
     1
102
RTVSPropertyOp20
 70
     1
102
RTVSPropertyOp21
 70
     1
102
RTVSPropertyOp22
 70
     1
102
RTVSPropertyOp23
 70
     1
102
RTVSPropertyOp24
 70
     1
102
RTVSPropertyOp25
 70
     1
102
RTVSPropertyOp26
 70
     1
102
RTVSPropertyOp27
 70
     1
102
RTVSPropertyOp28
 70
     1
102
RTVSPropertyOp29
 70
     1
102
RTVSPropertyOp30
 70
     1
102
RTVSPropertyOp31
 70
     1
102
RTVSPropertyOp32
 70
     1
102
RTVSPropertyOp33
 70
     1
102
RTVSPropertyOp34
 70
     1
102
RTVSPropertyOp35
 70
     1
102
RTVSPropertyOp36
 70
     1
102
RTVSPropertyOp37
 70
     1
102
RTVSPropertyOp38
 70
     1
102
RTVSPropertyOp39
 70
     1
102
RTVSPropertyOp40
 70
     1
102
RTVSPropertyOp41
 70
     1
102
RTVSPropertyOp42
 70
     1
102
RTVSPropertyOp43
 70
     1
102
RTVSPropertyOp44
 70
     1
102
RTVSPropertyOp45
 70
     1
102
RTVSPropertyOp46
 70
     1
102
RTVSPropertyOp47
 70
     1
102
RTVSPropertyOp48
 70
     1
102
RTVSPropertyOp49
 70
     1
102
RTVSPropertyOp50
 70
     1
102
RTVSPropertyOp51
 70
     0
102
RTVSPropertyOp52
 70
     0
102
RTVSPropertyOp53
 70
     1
102
RTVSPropertyOp54
 70
     1
102
RTVSPropertyOp55
 70
     1
102
RTVSPropertyOp56
 70
     1
102
RTVSPropertyOp57
 70
     1
102
RTVSPropertyOp58
 70
     1
102
RTVSPropertyOp59
 70
     1
102
RTVSPropertyOp60
 70
     1
102
RTVSPropertyOp61
 70
     1
102
RTVSPropertyOp62
 70
     1
  0
XRECORD
  5
5ED
102
{ACAD_REACTORS
330
5EC
102
}
330
5EC
100
AcDbXrecord
280
     1
102
RTVSPost2010Prop28
280
     0
102
RTVSPost2010PropOp28
 70
     1
102
RTVSPost2010Prop29
280
     1
102
RTVSPost2010PropOp29
 70
     1
102
RTVSPost2010Prop30
280
     1
102
RTVSPost2010PropOp30
 70
     1
102
RTVSPost2010Prop31
280
     0
102
RTVSPost2010PropOp31
 70
     1
102
RTVSPost2010Prop32
280
     0
102
RTVSPost2010PropOp32
 70
     1
102
RTVSPost2010Prop33
280
     0
102
RTVSPost2010PropOp33
 70
     1
102
RTVSPost2010Prop34
280
     0
102
RTVSPost2010PropOp34
 70
     1
102
RTVSPost2010Prop35
280
     0
102
RTVSPost2010PropOp35
 70
     1
102
RTVSPost2010Prop36
280
     0
102
RTVSPost2010PropOp36
 70
     1
102
RTVSPost2010Prop37
 90
       50
102
RTVSPost2010PropOp37
 70
     0
102
RTVSPost2010Prop38
140
0.0
102
RTVSPost2010PropOp38
 70
     0
102
RTVSPost2010Prop39
140
1.0
102
RTVSPost2010PropOp39
 70
     0
102
RTVSPost2010Prop40
 90
        0
102
RTVSPost2010PropOp40
 70
     0
102
RTVSPost2010Prop41ColorIndex
 90
       18
102
RTVSPost2010Prop41ColorRGB
 90
        0
102
RTVSPost2010PropOp41
 70
     0
102
RTVSPost2010Prop42
 90
       50
102
RTVSPost2010PropOp42
 70
     0
102
RTVSPost2010Prop43
 90
        3
102
RTVSPost2010PropOp43
 70
     0
102
RTVSPost2010Prop44ColorIndex
 90
        5
102
RTVSPost2010Prop44ColorRGB
 90
      255
102
RTVSPost2010PropOp44
 70
     0
102
RTVSPost2010Prop45
280
     0
102
RTVSPost2010PropOp45
 70
     1
102
RTVSPost2010Prop46
 90
       50
102
RTVSPost2010PropOp46
 70
     0
102
RTVSPost2010Prop47
 90
       50
102
RTVSPost2010PropOp47
 70
     0
102
RTVSPost2010Prop48
 90
       50
102
RTVSPost2010PropOp48
 70
     0
102
RTVSPost2010Prop49
280
     0
102
RTVSPost2010PropOp49
 70
     1
102
RTVSPost2010Prop50
 90
       50
102
RTVSPost2010PropOp50
 70
     0
102
RTVSPost2010Prop51ColorIndex
 90
      256
102
RTVSPost2010Prop51ColorRGB
 90
-16777216
102
RTVSPost2010PropOp51
 70
     0
102
RTVSPost2010Prop52
140
1.0
102
RTVSPost2010PropOp52
 70
     0
102
RTVSPost2010Prop53
 90
        2
102
RTVSPost2010PropOp53
 70
     0
102
RTVSPost2010Prop54
  1
strokes_ogs.tif
102
RTVSPost2010PropOp54
 70
     0
102
RTVSPost2010Prop55
280
     0
102
RTVSPost2010PropOp55
 70
     1
102
RTVSPost2010Prop56
140
1.0
102
RTVSPost2010PropOp56
 70
     0
102
RTVSPost2010Prop57
140
1.0
102
RTVSPost2010PropOp57
 70
     0
102
RTVSPropertyOp0
 70
     0
102
RTVSPropertyOp1
 70
     0
102
RTVSPropertyOp2
 70
     0
102
RTVSPropertyOp3
 70
     0
102
RTVSPropertyOp4
 70
     0
102
RTVSPropertyOp5
 70
     0
102
RTVSPropertyOp6
 70
     0
102
RTVSPropertyOp7
 70
     0
102
RTVSPropertyOp8
 70
     0
102
RTVSPropertyOp9
 70
     0
102
RTVSPropertyOp10
 70
     0
102
RTVSPropertyOp11
 70
     0
102
RTVSPropertyOp12
 70
     0
102
RTVSPropertyOp13
 70
     0
102
RTVSPropertyOp14
 70
     2
102
RTVSPropertyOp15
 70
     0
102
RTVSPropertyOp16
 70
     0
102
RTVSPropertyOp17
 70
     0
102
RTVSPropertyOp18
 70
     0
102
RTVSPropertyOp19
 70
     0
102
RTVSPropertyOp20
 70
     0
102
RTVSPropertyOp21
 70
     0
102
RTVSPropertyOp22
 70
     0
102
RTVSPropertyOp23
 70
     0
102
RTVSPropertyOp24
 70
     0
102
RTVSPropertyOp25
 70
     0
102
RTVSPropertyOp26
 70
     0
102
RTVSPropertyOp27
 70
     0
102
RTVSPropertyOp28
 70
     1
102
RTVSPropertyOp29
 70
     1
102
RTVSPropertyOp30
 70
     1
102
RTVSPropertyOp31
 70
     1
102
RTVSPropertyOp32
 70
     1
102
RTVSPropertyOp33
 70
     1
102
RTVSPropertyOp34
 70
     1
102
RTVSPropertyOp35
 70
     1
102
RTVSPropertyOp36
 70
     1
102
RTVSPropertyOp37
 70
     0
102
RTVSPropertyOp38
 70
     0
102
RTVSPropertyOp39
 70
     0
102
RTVSPropertyOp40
 70
     0
102
RTVSPropertyOp41
 70
     0
102
RTVSPropertyOp42
 70
     0
102
RTVSPropertyOp43
 70
     0
102
RTVSPropertyOp44
 70
     0
102
RTVSPropertyOp45
 70
     1
102
RTVSPropertyOp46
 70
     0
102
RTVSPropertyOp47
 70
     0
102
RTVSPropertyOp48
 70
     0
102
RTVSPropertyOp49
 70
     1
102
RTVSPropertyOp50
 70
     0
102
RTVSPropertyOp51
 70
     0
102
RTVSPropertyOp52
 70
     0
102
RTVSPropertyOp53
 70
     0
102
RTVSPropertyOp54
 70
     0
102
RTVSPropertyOp55
 70
     1
102
RTVSPropertyOp56
 70
     0
102
RTVSPropertyOp57
 70
     0
102
RTVSPropertyOp58
 70
     0
102
RTVSPropertyOp59
 70
     0
102
RTVSPropertyOp60
 70
     0
102
RTVSPropertyOp61
 70
     0
102
RTVSPropertyOp62
 70
     0
  0
XRECORD
  5
5DD
102
{ACAD_REACTORS
330
5DC
102
}
330
5DC
100
AcDbXrecord
280
     1
102
RTVSPost2010Prop28
280
     0
102
RTVSPost2010PropOp28
 70
     1
102
RTVSPost2010Prop29
280
     1
102
RTVSPost2010PropOp29
 70
     1
102
RTVSPost2010Prop30
280
     1
102
RTVSPost2010PropOp30
 70
     1
102
RTVSPost2010Prop31
280
     0
102
RTVSPost2010PropOp31
 70
     1
102
RTVSPost2010Prop32
280
     0
102
RTVSPost2010PropOp32
 70
     1
102
RTVSPost2010Prop33
280
     0
102
RTVSPost2010PropOp33
 70
     1
102
RTVSPost2010Prop34
280
     0
102
RTVSPost2010PropOp34
 70
     1
102
RTVSPost2010Prop35
280
     0
102
RTVSPost2010PropOp35
 70
     1
102
RTVSPost2010Prop36
280
     0
102
RTVSPost2010PropOp36
 70
     1
102
RTVSPost2010Prop37
 90
       50
102
RTVSPost2010PropOp37
 70
     1
102
RTVSPost2010Prop38
140
0.0
102
RTVSPost2010PropOp38
 70
     1
102
RTVSPost2010Prop39
140
1.0
102
RTVSPost2010PropOp39
 70
     1
102
RTVSPost2010Prop40
 90
        0
102
RTVSPost2010PropOp40
 70
     1
102
RTVSPost2010Prop41ColorIndex
 90
       18
102
RTVSPost2010Prop41ColorRGB
 90
        0
102
RTVSPost2010PropOp41
 70
     1
102
RTVSPost2010Prop42
 90
       50
102
RTVSPost2010PropOp42
 70
     1
102
RTVSPost2010Prop43
 90
        3
102
RTVSPost2010PropOp43
 70
     1
102
RTVSPost2010Prop44ColorIndex
 90
        5
102
RTVSPost2010Prop44ColorRGB
 90
      255
102
RTVSPost2010PropOp44
 70
     1
102
RTVSPost2010Prop45
280
     0
102
RTVSPost2010PropOp45
 70
     1
102
RTVSPost2010Prop46
 90
       50
102
RTVSPost2010PropOp46
 70
     1
102
RTVSPost2010Prop47
 90
       50
102
RTVSPost2010PropOp47
 70
     1
102
RTVSPost2010Prop48
 90
       50
102
RTVSPost2010PropOp48
 70
     1
102
RTVSPost2010Prop49
280
     0
102
RTVSPost2010PropOp49
 70
     1
102
RTVSPost2010Prop50
 90
       50
102
RTVSPost2010PropOp50
 70
     1
102
RTVSPost2010Prop51ColorIndex
 90
      256
102
RTVSPost2010Prop51ColorRGB
 90
-16777216
102
RTVSPost2010PropOp51
 70
     0
102
RTVSPost2010Prop52
140
1.0
102
RTVSPost2010PropOp52
 70
     0
102
RTVSPost2010Prop53
 90
        2
102
RTVSPost2010PropOp53
 70
     1
102
RTVSPost2010Prop54
  1
strokes_ogs.tif
102
RTVSPost2010PropOp54
 70
     1
102
RTVSPost2010Prop55
280
     0
102
RTVSPost2010PropOp55
 70
     1
102
RTVSPost2010Prop56
140
1.0
102
RTVSPost2010PropOp56
 70
     1
102
RTVSPost2010Prop57
140
1.0
102
RTVSPost2010PropOp57
 70
     1
102
RTVSPropertyOp0
 70
     1
102
RTVSPropertyOp1
 70
     1
102
RTVSPropertyOp2
 70
     1
102
RTVSPropertyOp3
 70
     1
102
RTVSPropertyOp4
 70
     1
102
RTVSPropertyOp5
 70
     1
102
RTVSPropertyOp6
 70
     1
102
RTVSPropertyOp7
 70
     1
102
RTVSPropertyOp8
 70
     1
102
RTVSPropertyOp9
 70
     1
102
RTVSPropertyOp10
 70
     1
102
RTVSPropertyOp11
 70
     1
102
RTVSPropertyOp12
 70
     1
102
RTVSPropertyOp13
 70
     1
102
RTVSPropertyOp14
 70
     1
102
RTVSPropertyOp15
 70
     1
102
RTVSPropertyOp16
 70
     1
102
RTVSPropertyOp17
 70
     1
102
RTVSPropertyOp18
 70
     1
102
RTVSPropertyOp19
 70
     1
102
RTVSPropertyOp20
 70
     1
102
RTVSPropertyOp21
 70
     1
102
RTVSPropertyOp22
 70
     1
102
RTVSPropertyOp23
 70
     1
102
RTVSPropertyOp24
 70
     1
102
RTVSPropertyOp25
 70
     1
102
RTVSPropertyOp26
 70
     1
102
RTVSPropertyOp27
 70
     1
102
RTVSPropertyOp28
 70
     1
102
RTVSPropertyOp29
 70
     1
102
RTVSPropertyOp30
 70
     1
102
RTVSPropertyOp31
 70
     1
102
RTVSPropertyOp32
 70
     1
102
RTVSPropertyOp33
 70
     1
102
RTVSPropertyOp34
 70
     1
102
RTVSPropertyOp35
 70
     1
102
RTVSPropertyOp36
 70
     1
102
RTVSPropertyOp37
 70
     1
102
RTVSPropertyOp38
 70
     1
102
RTVSPropertyOp39
 70
     1
102
RTVSPropertyOp40
 70
     1
102
RTVSPropertyOp41
 70
     1
102
RTVSPropertyOp42
 70
     1
102
RTVSPropertyOp43
 70
     1
102
RTVSPropertyOp44
 70
     1
102
RTVSPropertyOp45
 70
     1
102
RTVSPropertyOp46
 70
     1
102
RTVSPropertyOp47
 70
     1
102
RTVSPropertyOp48
 70
     1
102
RTVSPropertyOp49
 70
     1
102
RTVSPropertyOp50
 70
     1
102
RTVSPropertyOp51
 70
     0
102
RTVSPropertyOp52
 70
     0
102
RTVSPropertyOp53
 70
     1
102
RTVSPropertyOp54
 70
     1
102
RTVSPropertyOp55
 70
     1
102
RTVSPropertyOp56
 70
     1
102
RTVSPropertyOp57
 70
     1
102
RTVSPropertyOp58
 70
     1
102
RTVSPropertyOp59
 70
     1
102
RTVSPropertyOp60
 70
     1
102
RTVSPropertyOp61
 70
     1
102
RTVSPropertyOp62
 70
     1
  0
XRECORD
  5
5EF
102
{ACAD_REACTORS
330
5EE
102
}
330
5EE
100
AcDbXrecord
280
     1
102
RTVSPost2010Prop28
280
     0
102
RTVSPost2010PropOp28
 70
     1
102
RTVSPost2010Prop29
280
     1
102
RTVSPost2010PropOp29
 70
     1
102
RTVSPost2010Prop30
280
     1
102
RTVSPost2010PropOp30
 70
     1
102
RTVSPost2010Prop31
280
     0
102
RTVSPost2010PropOp31
 70
     1
102
RTVSPost2010Prop32
280
     0
102
RTVSPost2010PropOp32
 70
     1
102
RTVSPost2010Prop33
280
     0
102
RTVSPost2010PropOp33
 70
     1
102
RTVSPost2010Prop34
280
     0
102
RTVSPost2010PropOp34
 70
     1
102
RTVSPost2010Prop35
280
     0
102
RTVSPost2010PropOp35
 70
     1
102
RTVSPost2010Prop36
280
     0
102
RTVSPost2010PropOp36
 70
     1
102
RTVSPost2010Prop37
 90
       50
102
RTVSPost2010PropOp37
 70
     0
102
RTVSPost2010Prop38
140
0.0
102
RTVSPost2010PropOp38
 70
     0
102
RTVSPost2010Prop39
140
1.0
102
RTVSPost2010PropOp39
 70
     0
102
RTVSPost2010Prop40
 90
        0
102
RTVSPost2010PropOp40
 70
     0
102
RTVSPost2010Prop41ColorIndex
 90
       18
102
RTVSPost2010Prop41ColorRGB
 90
        0
102
RTVSPost2010PropOp41
 70
     0
102
RTVSPost2010Prop42
 90
       50
102
RTVSPost2010PropOp42
 70
     0
102
RTVSPost2010Prop43
 90
        3
102
RTVSPost2010PropOp43
 70
     0
102
RTVSPost2010Prop44ColorIndex
 90
        5
102
RTVSPost2010Prop44ColorRGB
 90
      255
102
RTVSPost2010PropOp44
 70
     0
102
RTVSPost2010Prop45
280
     0
102
RTVSPost2010PropOp45
 70
     1
102
RTVSPost2010Prop46
 90
       50
102
RTVSPost2010PropOp46
 70
     0
102
RTVSPost2010Prop47
 90
       50
102
RTVSPost2010PropOp47
 70
     0
102
RTVSPost2010Prop48
 90
       50
102
RTVSPost2010PropOp48
 70
     0
102
RTVSPost2010Prop49
280
     0
102
RTVSPost2010PropOp49
 70
     1
102
RTVSPost2010Prop50
 90
       50
102
RTVSPost2010PropOp50
 70
     0
102
RTVSPost2010Prop51ColorIndex
 90
      256
102
RTVSPost2010Prop51ColorRGB
 90
-16777216
102
RTVSPost2010PropOp51
 70
     0
102
RTVSPost2010Prop52
140
1.0
102
RTVSPost2010PropOp52
 70
     0
102
RTVSPost2010Prop53
 90
        2
102
RTVSPost2010PropOp53
 70
     0
102
RTVSPost2010Prop54
  1
strokes_ogs.tif
102
RTVSPost2010PropOp54
 70
     0
102
RTVSPost2010Prop55
280
     0
102
RTVSPost2010PropOp55
 70
     1
102
RTVSPost2010Prop56
140
1.0
102
RTVSPost2010PropOp56
 70
     0
102
RTVSPost2010Prop57
140
1.0
102
RTVSPost2010PropOp57
 70
     0
102
RTVSPropertyOp0
 70
     0
102
RTVSPropertyOp1
 70
     0
102
RTVSPropertyOp2
 70
     0
102
RTVSPropertyOp3
 70
     0
102
RTVSPropertyOp4
 70
     0
102
RTVSPropertyOp5
 70
     0
102
RTVSPropertyOp6
 70
     0
102
RTVSPropertyOp7
 70
     0
102
RTVSPropertyOp8
 70
     0
102
RTVSPropertyOp9
 70
     0
102
RTVSPropertyOp10
 70
     0
102
RTVSPropertyOp11
 70
     0
102
RTVSPropertyOp12
 70
     0
102
RTVSPropertyOp13
 70
     0
102
RTVSPropertyOp14
 70
     2
102
RTVSPropertyOp15
 70
     0
102
RTVSPropertyOp16
 70
     0
102
RTVSPropertyOp17
 70
     0
102
RTVSPropertyOp18
 70
     0
102
RTVSPropertyOp19
 70
     0
102
RTVSPropertyOp20
 70
     0
102
RTVSPropertyOp21
 70
     0
102
RTVSPropertyOp22
 70
     0
102
RTVSPropertyOp23
 70
     0
102
RTVSPropertyOp24
 70
     0
102
RTVSPropertyOp25
 70
     0
102
RTVSPropertyOp26
 70
     0
102
RTVSPropertyOp27
 70
     0
102
RTVSPropertyOp28
 70
     1
102
RTVSPropertyOp29
 70
     1
102
RTVSPropertyOp30
 70
     1
102
RTVSPropertyOp31
 70
     1
102
RTVSPropertyOp32
 70
     1
102
RTVSPropertyOp33
 70
     1
102
RTVSPropertyOp34
 70
     1
102
RTVSPropertyOp35
 70
     1
102
RTVSPropertyOp36
 70
     1
102
RTVSPropertyOp37
 70
     0
102
RTVSPropertyOp38
 70
     0
102
RTVSPropertyOp39
 70
     0
102
RTVSPropertyOp40
 70
     0
102
RTVSPropertyOp41
 70
     0
102
RTVSPropertyOp42
 70
     0
102
RTVSPropertyOp43
 70
     0
102
RTVSPropertyOp44
 70
     0
102
RTVSPropertyOp45
 70
     1
102
RTVSPropertyOp46
 70
     0
102
RTVSPropertyOp47
 70
     0
102
RTVSPropertyOp48
 70
     0
102
RTVSPropertyOp49
 70
     1
102
RTVSPropertyOp50
 70
     0
102
RTVSPropertyOp51
 70
     0
102
RTVSPropertyOp52
 70
     0
102
RTVSPropertyOp53
 70
     0
102
RTVSPropertyOp54
 70
     0
102
RTVSPropertyOp55
 70
     1
102
RTVSPropertyOp56
 70
     0
102
RTVSPropertyOp57
 70
     0
102
RTVSPropertyOp58
 70
     0
102
RTVSPropertyOp59
 70
     0
102
RTVSPropertyOp60
 70
     0
102
RTVSPropertyOp61
 70
     0
102
RTVSPropertyOp62
 70
     0
  0
XRECORD
  5
5D5
102
{ACAD_REACTORS
330
5D4
102
}
330
5D4
100
AcDbXrecord
280
     1
102
RTVSPost2010Prop28
280
     0
102
RTVSPost2010PropOp28
 70
     1
102
RTVSPost2010Prop29
280
     1
102
RTVSPost2010PropOp29
 70
     1
102
RTVSPost2010Prop30
280
     1
102
RTVSPost2010PropOp30
 70
     1
102
RTVSPost2010Prop31
280
     0
102
RTVSPost2010PropOp31
 70
     1
102
RTVSPost2010Prop32
280
     0
102
RTVSPost2010PropOp32
 70
     1
102
RTVSPost2010Prop33
280
     0
102
RTVSPost2010PropOp33
 70
     1
102
RTVSPost2010Prop34
280
     0
102
RTVSPost2010PropOp34
 70
     1
102
RTVSPost2010Prop35
280
     0
102
RTVSPost2010PropOp35
 70
     1
102
RTVSPost2010Prop36
280
     0
102
RTVSPost2010PropOp36
 70
     1
102
RTVSPost2010Prop37
 90
       50
102
RTVSPost2010PropOp37
 70
     1
102
RTVSPost2010Prop38
140
0.0
102
RTVSPost2010PropOp38
 70
     1
102
RTVSPost2010Prop39
140
1.0
102
RTVSPost2010PropOp39
 70
     1
102
RTVSPost2010Prop40
 90
        0
102
RTVSPost2010PropOp40
 70
     1
102
RTVSPost2010Prop41ColorIndex
 90
       18
102
RTVSPost2010Prop41ColorRGB
 90
        0
102
RTVSPost2010PropOp41
 70
     1
102
RTVSPost2010Prop42
 90
       50
102
RTVSPost2010PropOp42
 70
     1
102
RTVSPost2010Prop43
 90
        3
102
RTVSPost2010PropOp43
 70
     1
102
RTVSPost2010Prop44ColorIndex
 90
        5
102
RTVSPost2010Prop44ColorRGB
 90
      255
102
RTVSPost2010PropOp44
 70
     1
102
RTVSPost2010Prop45
280
     0
102
RTVSPost2010PropOp45
 70
     1
102
RTVSPost2010Prop46
 90
       50
102
RTVSPost2010PropOp46
 70
     1
102
RTVSPost2010Prop47
 90
       50
102
RTVSPost2010PropOp47
 70
     1
102
RTVSPost2010Prop48
 90
       50
102
RTVSPost2010PropOp48
 70
     1
102
RTVSPost2010Prop49
280
     0
102
RTVSPost2010PropOp49
 70
     1
102
RTVSPost2010Prop50
 90
       50
102
RTVSPost2010PropOp50
 70
     1
102
RTVSPost2010Prop51ColorIndex
 90
      256
102
RTVSPost2010Prop51ColorRGB
 90
-16777216
102
RTVSPost2010PropOp51
 70
     0
102
RTVSPost2010Prop52
140
1.0
102
RTVSPost2010PropOp52
 70
     0
102
RTVSPost2010Prop53
 90
        2
102
RTVSPost2010PropOp53
 70
     1
102
RTVSPost2010Prop54
  1
strokes_ogs.tif
102
RTVSPost2010PropOp54
 70
     1
102
RTVSPost2010Prop55
280
     0
102
RTVSPost2010PropOp55
 70
     1
102
RTVSPost2010Prop56
140
1.0
102
RTVSPost2010PropOp56
 70
     1
102
RTVSPost2010Prop57
140
1.0
102
RTVSPost2010PropOp57
 70
     1
102
RTVSPropertyOp0
 70
     1
102
RTVSPropertyOp1
 70
     1
102
RTVSPropertyOp2
 70
     1
102
RTVSPropertyOp3
 70
     1
102
RTVSPropertyOp4
 70
     1
102
RTVSPropertyOp5
 70
     1
102
RTVSPropertyOp6
 70
     1
102
RTVSPropertyOp7
 70
     1
102
RTVSPropertyOp8
 70
     1
102
RTVSPropertyOp9
 70
     1
102
RTVSPropertyOp10
 70
     1
102
RTVSPropertyOp11
 70
     1
102
RTVSPropertyOp12
 70
     1
102
RTVSPropertyOp13
 70
     1
102
RTVSPropertyOp14
 70
     1
102
RTVSPropertyOp15
 70
     1
102
RTVSPropertyOp16
 70
     1
102
RTVSPropertyOp17
 70
     1
102
RTVSPropertyOp18
 70
     1
102
RTVSPropertyOp19
 70
     1
102
RTVSPropertyOp20
 70
     1
102
RTVSPropertyOp21
 70
     1
102
RTVSPropertyOp22
 70
     1
102
RTVSPropertyOp23
 70
     1
102
RTVSPropertyOp24
 70
     1
102
RTVSPropertyOp25
 70
     1
102
RTVSPropertyOp26
 70
     1
102
RTVSPropertyOp27
 70
     1
102
RTVSPropertyOp28
 70
     1
102
RTVSPropertyOp29
 70
     1
102
RTVSPropertyOp30
 70
     1
102
RTVSPropertyOp31
 70
     1
102
RTVSPropertyOp32
 70
     1
102
RTVSPropertyOp33
 70
     1
102
RTVSPropertyOp34
 70
     1
102
RTVSPropertyOp35
 70
     1
102
RTVSPropertyOp36
 70
     1
102
RTVSPropertyOp37
 70
     1
102
RTVSPropertyOp38
 70
     1
102
RTVSPropertyOp39
 70
     1
102
RTVSPropertyOp40
 70
     1
102
RTVSPropertyOp41
 70
     1
102
RTVSPropertyOp42
 70
     1
102
RTVSPropertyOp43
 70
     1
102
RTVSPropertyOp44
 70
     1
102
RTVSPropertyOp45
 70
     1
102
RTVSPropertyOp46
 70
     1
102
RTVSPropertyOp47
 70
     1
102
RTVSPropertyOp48
 70
     1
102
RTVSPropertyOp49
 70
     1
102
RTVSPropertyOp50
 70
     1
102
RTVSPropertyOp51
 70
     0
102
RTVSPropertyOp52
 70
     0
102
RTVSPropertyOp53
 70
     1
102
RTVSPropertyOp54
 70
     1
102
RTVSPropertyOp55
 70
     1
102
RTVSPropertyOp56
 70
     1
102
RTVSPropertyOp57
 70
     1
102
RTVSPropertyOp58
 70
     1
102
RTVSPropertyOp59
 70
     1
102
RTVSPropertyOp60
 70
     1
102
RTVSPropertyOp61
 70
     1
102
RTVSPropertyOp62
 70
     1
  0
XRECORD
  5
5EB
102
{ACAD_REACTORS
330
5EA
102
}
330
5EA
100
AcDbXrecord
280
     1
102
RTVSPost2010Prop28
280
     0
102
RTVSPost2010PropOp28
 70
     1
102
RTVSPost2010Prop29
280
     1
102
RTVSPost2010PropOp29
 70
     1
102
RTVSPost2010Prop30
280
     1
102
RTVSPost2010PropOp30
 70
     1
102
RTVSPost2010Prop31
280
     0
102
RTVSPost2010PropOp31
 70
     1
102
RTVSPost2010Prop32
280
     0
102
RTVSPost2010PropOp32
 70
     1
102
RTVSPost2010Prop33
280
     0
102
RTVSPost2010PropOp33
 70
     1
102
RTVSPost2010Prop34
280
     0
102
RTVSPost2010PropOp34
 70
     1
102
RTVSPost2010Prop35
280
     0
102
RTVSPost2010PropOp35
 70
     1
102
RTVSPost2010Prop36
280
     0
102
RTVSPost2010PropOp36
 70
     1
102
RTVSPost2010Prop37
 90
       50
102
RTVSPost2010PropOp37
 70
     1
102
RTVSPost2010Prop38
140
0.0
102
RTVSPost2010PropOp38
 70
     1
102
RTVSPost2010Prop39
140
1.0
102
RTVSPost2010PropOp39
 70
     1
102
RTVSPost2010Prop40
 90
        0
102
RTVSPost2010PropOp40
 70
     1
102
RTVSPost2010Prop41ColorIndex
 90
       18
102
RTVSPost2010Prop41ColorRGB
 90
        0
102
RTVSPost2010PropOp41
 70
     1
102
RTVSPost2010Prop42
 90
       50
102
RTVSPost2010PropOp42
 70
     1
102
RTVSPost2010Prop43
 90
        3
102
RTVSPost2010PropOp43
 70
     1
102
RTVSPost2010Prop44ColorIndex
 90
        5
102
RTVSPost2010Prop44ColorRGB
 90
      255
102
RTVSPost2010PropOp44
 70
     1
102
RTVSPost2010Prop45
280
     0
102
RTVSPost2010PropOp45
 70
     1
102
RTVSPost2010Prop46
 90
       50
102
RTVSPost2010PropOp46
 70
     1
102
RTVSPost2010Prop47
 90
       50
102
RTVSPost2010PropOp47
 70
     1
102
RTVSPost2010Prop48
 90
       50
102
RTVSPost2010PropOp48
 70
     1
102
RTVSPost2010Prop49
280
     0
102
RTVSPost2010PropOp49
 70
     1
102
RTVSPost2010Prop50
 90
       50
102
RTVSPost2010PropOp50
 70
     1
102
RTVSPost2010Prop51ColorIndex
 90
      256
102
RTVSPost2010Prop51ColorRGB
 90
-16777216
102
RTVSPost2010PropOp51
 70
     0
102
RTVSPost2010Prop52
140
1.0
102
RTVSPost2010PropOp52
 70
     0
102
RTVSPost2010Prop53
 90
        2
102
RTVSPost2010PropOp53
 70
     1
102
RTVSPost2010Prop54
  1
strokes_ogs.tif
102
RTVSPost2010PropOp54
 70
     1
102
RTVSPost2010Prop55
280
     0
102
RTVSPost2010PropOp55
 70
     1
102
RTVSPost2010Prop56
140
1.0
102
RTVSPost2010PropOp56
 70
     1
102
RTVSPost2010Prop57
140
1.0
102
RTVSPost2010PropOp57
 70
     1
102
RTVSPropertyOp0
 70
     1
102
RTVSPropertyOp1
 70
     1
102
RTVSPropertyOp2
 70
     1
102
RTVSPropertyOp3
 70
     1
102
RTVSPropertyOp4
 70
     1
102
RTVSPropertyOp5
 70
     1
102
RTVSPropertyOp6
 70
     1
102
RTVSPropertyOp7
 70
     1
102
RTVSPropertyOp8
 70
     1
102
RTVSPropertyOp9
 70
     1
102
RTVSPropertyOp10
 70
     1
102
RTVSPropertyOp11
 70
     1
102
RTVSPropertyOp12
 70
     1
102
RTVSPropertyOp13
 70
     1
102
RTVSPropertyOp14
 70
     1
102
RTVSPropertyOp15
 70
     1
102
RTVSPropertyOp16
 70
     1
102
RTVSPropertyOp17
 70
     1
102
RTVSPropertyOp18
 70
     1
102
RTVSPropertyOp19
 70
     1
102
RTVSPropertyOp20
 70
     1
102
RTVSPropertyOp21
 70
     1
102
RTVSPropertyOp22
 70
     1
102
RTVSPropertyOp23
 70
     1
102
RTVSPropertyOp24
 70
     1
102
RTVSPropertyOp25
 70
     1
102
RTVSPropertyOp26
 70
     1
102
RTVSPropertyOp27
 70
     1
102
RTVSPropertyOp28
 70
     1
102
RTVSPropertyOp29
 70
     1
102
RTVSPropertyOp30
 70
     1
102
RTVSPropertyOp31
 70
     1
102
RTVSPropertyOp32
 70
     1
102
RTVSPropertyOp33
 70
     1
102
RTVSPropertyOp34
 70
     1
102
RTVSPropertyOp35
 70
     1
102
RTVSPropertyOp36
 70
     1
102
RTVSPropertyOp37
 70
     1
102
RTVSPropertyOp38
 70
     1
102
RTVSPropertyOp39
 70
     1
102
RTVSPropertyOp40
 70
     1
102
RTVSPropertyOp41
 70
     1
102
RTVSPropertyOp42
 70
     1
102
RTVSPropertyOp43
 70
     1
102
RTVSPropertyOp44
 70
     1
102
RTVSPropertyOp45
 70
     1
102
RTVSPropertyOp46
 70
     1
102
RTVSPropertyOp47
 70
     1
102
RTVSPropertyOp48
 70
     1
102
RTVSPropertyOp49
 70
     1
102
RTVSPropertyOp50
 70
     1
102
RTVSPropertyOp51
 70
     0
102
RTVSPropertyOp52
 70
     0
102
RTVSPropertyOp53
 70
     1
102
RTVSPropertyOp54
 70
     1
102
RTVSPropertyOp55
 70
     1
102
RTVSPropertyOp56
 70
     1
102
RTVSPropertyOp57
 70
     1
102
RTVSPropertyOp58
 70
     1
102
RTVSPropertyOp59
 70
     1
102
RTVSPropertyOp60
 70
     1
102
RTVSPropertyOp61
 70
     1
102
RTVSPropertyOp62
 70
     1
  0
XRECORD
  5
5E9
102
{ACAD_REACTORS
330
5E8
102
}
330
5E8
100
AcDbXrecord
280
     1
102
RTVSPost2010Prop28
280
     0
102
RTVSPost2010PropOp28
 70
     1
102
RTVSPost2010Prop29
280
     1
102
RTVSPost2010PropOp29
 70
     1
102
RTVSPost2010Prop30
280
     1
102
RTVSPost2010PropOp30
 70
     1
102
RTVSPost2010Prop31
280
     0
102
RTVSPost2010PropOp31
 70
     1
102
RTVSPost2010Prop32
280
     0
102
RTVSPost2010PropOp32
 70
     1
102
RTVSPost2010Prop33
280
     0
102
RTVSPost2010PropOp33
 70
     1
102
RTVSPost2010Prop34
280
     0
102
RTVSPost2010PropOp34
 70
     1
102
RTVSPost2010Prop35
280
     0
102
RTVSPost2010PropOp35
 70
     1
102
RTVSPost2010Prop36
280
     0
102
RTVSPost2010PropOp36
 70
     1
102
RTVSPost2010Prop37
 90
       50
102
RTVSPost2010PropOp37
 70
     1
102
RTVSPost2010Prop38
140
0.0
102
RTVSPost2010PropOp38
 70
     1
102
RTVSPost2010Prop39
140
1.0
102
RTVSPost2010PropOp39
 70
     1
102
RTVSPost2010Prop40
 90
        0
102
RTVSPost2010PropOp40
 70
     1
102
RTVSPost2010Prop41ColorIndex
 90
       18
102
RTVSPost2010Prop41ColorRGB
 90
        0
102
RTVSPost2010PropOp41
 70
     1
102
RTVSPost2010Prop42
 90
       50
102
RTVSPost2010PropOp42
 70
     1
102
RTVSPost2010Prop43
 90
        3
102
RTVSPost2010PropOp43
 70
     1
102
RTVSPost2010Prop44ColorIndex
 90
        5
102
RTVSPost2010Prop44ColorRGB
 90
      255
102
RTVSPost2010PropOp44
 70
     1
102
RTVSPost2010Prop45
280
     0
102
RTVSPost2010PropOp45
 70
     1
102
RTVSPost2010Prop46
 90
       50
102
RTVSPost2010PropOp46
 70
     1
102
RTVSPost2010Prop47
 90
       50
102
RTVSPost2010PropOp47
 70
     1
102
RTVSPost2010Prop48
 90
       50
102
RTVSPost2010PropOp48
 70
     1
102
RTVSPost2010Prop49
280
     0
102
RTVSPost2010PropOp49
 70
     1
102
RTVSPost2010Prop50
 90
       50
102
RTVSPost2010PropOp50
 70
     1
102
RTVSPost2010Prop51ColorIndex
 90
      256
102
RTVSPost2010Prop51ColorRGB
 90
-16777216
102
RTVSPost2010PropOp51
 70
     0
102
RTVSPost2010Prop52
140
1.0
102
RTVSPost2010PropOp52
 70
     0
102
RTVSPost2010Prop53
 90
        2
102
RTVSPost2010PropOp53
 70
     1
102
RTVSPost2010Prop54
  1
strokes_ogs.tif
102
RTVSPost2010PropOp54
 70
     1
102
RTVSPost2010Prop55
280
     0
102
RTVSPost2010PropOp55
 70
     1
102
RTVSPost2010Prop56
140
1.0
102
RTVSPost2010PropOp56
 70
     1
102
RTVSPost2010Prop57
140
1.0
102
RTVSPost2010PropOp57
 70
     1
102
RTVSPropertyOp0
 70
     1
102
RTVSPropertyOp1
 70
     1
102
RTVSPropertyOp2
 70
     1
102
RTVSPropertyOp3
 70
     1
102
RTVSPropertyOp4
 70
     1
102
RTVSPropertyOp5
 70
     1
102
RTVSPropertyOp6
 70
     1
102
RTVSPropertyOp7
 70
     1
102
RTVSPropertyOp8
 70
     1
102
RTVSPropertyOp9
 70
     1
102
RTVSPropertyOp10
 70
     1
102
RTVSPropertyOp11
 70
     1
102
RTVSPropertyOp12
 70
     1
102
RTVSPropertyOp13
 70
     1
102
RTVSPropertyOp14
 70
     1
102
RTVSPropertyOp15
 70
     1
102
RTVSPropertyOp16
 70
     1
102
RTVSPropertyOp17
 70
     1
102
RTVSPropertyOp18
 70
     1
102
RTVSPropertyOp19
 70
     1
102
RTVSPropertyOp20
 70
     1
102
RTVSPropertyOp21
 70
     1
102
RTVSPropertyOp22
 70
     1
102
RTVSPropertyOp23
 70
     1
102
RTVSPropertyOp24
 70
     1
102
RTVSPropertyOp25
 70
     1
102
RTVSPropertyOp26
 70
     1
102
RTVSPropertyOp27
 70
     1
102
RTVSPropertyOp28
 70
     1
102
RTVSPropertyOp29
 70
     1
102
RTVSPropertyOp30
 70
     1
102
RTVSPropertyOp31
 70
     1
102
RTVSPropertyOp32
 70
     1
102
RTVSPropertyOp33
 70
     1
102
RTVSPropertyOp34
 70
     1
102
RTVSPropertyOp35
 70
     1
102
RTVSPropertyOp36
 70
     1
102
RTVSPropertyOp37
 70
     1
102
RTVSPropertyOp38
 70
     1
102
RTVSPropertyOp39
 70
     1
102
RTVSPropertyOp40
 70
     1
102
RTVSPropertyOp41
 70
     1
102
RTVSPropertyOp42
 70
     1
102
RTVSPropertyOp43
 70
     1
102
RTVSPropertyOp44
 70
     1
102
RTVSPropertyOp45
 70
     1
102
RTVSPropertyOp46
 70
     1
102
RTVSPropertyOp47
 70
     1
102
RTVSPropertyOp48
 70
     1
102
RTVSPropertyOp49
 70
     1
102
RTVSPropertyOp50
 70
     1
102
RTVSPropertyOp51
 70
     0
102
RTVSPropertyOp52
 70
     0
102
RTVSPropertyOp53
 70
     1
102
RTVSPropertyOp54
 70
     1
102
RTVSPropertyOp55
 70
     1
102
RTVSPropertyOp56
 70
     1
102
RTVSPropertyOp57
 70
     1
102
RTVSPropertyOp58
 70
     1
102
RTVSPropertyOp59
 70
     1
102
RTVSPropertyOp60
 70
     1
102
RTVSPropertyOp61
 70
     1
102
RTVSPropertyOp62
 70
     1
  0
XRECORD
  5
5E3
102
{ACAD_REACTORS
330
5E2
102
}
330
5E2
100
AcDbXrecord
280
     1
102
RTVSPost2010Prop28
280
     0
102
RTVSPost2010PropOp28
 70
     1
102
RTVSPost2010Prop29
280
     1
102
RTVSPost2010PropOp29
 70
     1
102
RTVSPost2010Prop30
280
     1
102
RTVSPost2010PropOp30
 70
     1
102
RTVSPost2010Prop31
280
     0
102
RTVSPost2010PropOp31
 70
     1
102
RTVSPost2010Prop32
280
     0
102
RTVSPost2010PropOp32
 70
     1
102
RTVSPost2010Prop33
280
     0
102
RTVSPost2010PropOp33
 70
     1
102
RTVSPost2010Prop34
280
     0
102
RTVSPost2010PropOp34
 70
     1
102
RTVSPost2010Prop35
280
     0
102
RTVSPost2010PropOp35
 70
     1
102
RTVSPost2010Prop36
280
     0
102
RTVSPost2010PropOp36
 70
     1
102
RTVSPost2010Prop37
 90
       50
102
RTVSPost2010PropOp37
 70
     1
102
RTVSPost2010Prop38
140
0.0
102
RTVSPost2010PropOp38
 70
     1
102
RTVSPost2010Prop39
140
1.0
102
RTVSPost2010PropOp39
 70
     1
102
RTVSPost2010Prop40
 90
        0
102
RTVSPost2010PropOp40
 70
     1
102
RTVSPost2010Prop41ColorIndex
 90
       18
102
RTVSPost2010Prop41ColorRGB
 90
        0
102
RTVSPost2010PropOp41
 70
     1
102
RTVSPost2010Prop42
 90
       50
102
RTVSPost2010PropOp42
 70
     1
102
RTVSPost2010Prop43
 90
        3
102
RTVSPost2010PropOp43
 70
     1
102
RTVSPost2010Prop44ColorIndex
 90
        5
102
RTVSPost2010Prop44ColorRGB
 90
      255
102
RTVSPost2010PropOp44
 70
     1
102
RTVSPost2010Prop45
280
     0
102
RTVSPost2010PropOp45
 70
     1
102
RTVSPost2010Prop46
 90
       50
102
RTVSPost2010PropOp46
 70
     1
102
RTVSPost2010Prop47
 90
       50
102
RTVSPost2010PropOp47
 70
     1
102
RTVSPost2010Prop48
 90
       50
102
RTVSPost2010PropOp48
 70
     1
102
RTVSPost2010Prop49
280
     0
102
RTVSPost2010PropOp49
 70
     1
102
RTVSPost2010Prop50
 90
       50
102
RTVSPost2010PropOp50
 70
     1
102
RTVSPost2010Prop51ColorIndex
 90
      256
102
RTVSPost2010Prop51ColorRGB
 90
-16777216
102
RTVSPost2010PropOp51
 70
     0
102
RTVSPost2010Prop52
140
1.0
102
RTVSPost2010PropOp52
 70
     0
102
RTVSPost2010Prop53
 90
        2
102
RTVSPost2010PropOp53
 70
     1
102
RTVSPost2010Prop54
  1
strokes_ogs.tif
102
RTVSPost2010PropOp54
 70
     1
102
RTVSPost2010Prop55
280
     0
102
RTVSPost2010PropOp55
 70
     1
102
RTVSPost2010Prop56
140
1.0
102
RTVSPost2010PropOp56
 70
     1
102
RTVSPost2010Prop57
140
1.0
102
RTVSPost2010PropOp57
 70
     1
102
RTVSPropertyOp0
 70
     1
102
RTVSPropertyOp1
 70
     1
102
RTVSPropertyOp2
 70
     1
102
RTVSPropertyOp3
 70
     1
102
RTVSPropertyOp4
 70
     1
102
RTVSPropertyOp5
 70
     1
102
RTVSPropertyOp6
 70
     1
102
RTVSPropertyOp7
 70
     1
102
RTVSPropertyOp8
 70
     1
102
RTVSPropertyOp9
 70
     1
102
RTVSPropertyOp10
 70
     1
102
RTVSPropertyOp11
 70
     1
102
RTVSPropertyOp12
 70
     1
102
RTVSPropertyOp13
 70
     1
102
RTVSPropertyOp14
 70
     1
102
RTVSPropertyOp15
 70
     1
102
RTVSPropertyOp16
 70
     1
102
RTVSPropertyOp17
 70
     1
102
RTVSPropertyOp18
 70
     1
102
RTVSPropertyOp19
 70
     1
102
RTVSPropertyOp20
 70
     1
102
RTVSPropertyOp21
 70
     1
102
RTVSPropertyOp22
 70
     1
102
RTVSPropertyOp23
 70
     1
102
RTVSPropertyOp24
 70
     1
102
RTVSPropertyOp25
 70
     1
102
RTVSPropertyOp26
 70
     1
102
RTVSPropertyOp27
 70
     1
102
RTVSPropertyOp28
 70
     1
102
RTVSPropertyOp29
 70
     1
102
RTVSPropertyOp30
 70
     1
102
RTVSPropertyOp31
 70
     1
102
RTVSPropertyOp32
 70
     1
102
RTVSPropertyOp33
 70
     1
102
RTVSPropertyOp34
 70
     1
102
RTVSPropertyOp35
 70
     1
102
RTVSPropertyOp36
 70
     1
102
RTVSPropertyOp37
 70
     1
102
RTVSPropertyOp38
 70
     1
102
RTVSPropertyOp39
 70
     1
102
RTVSPropertyOp40
 70
     1
102
RTVSPropertyOp41
 70
     1
102
RTVSPropertyOp42
 70
     1
102
RTVSPropertyOp43
 70
     1
102
RTVSPropertyOp44
 70
     1
102
RTVSPropertyOp45
 70
     1
102
RTVSPropertyOp46
 70
     1
102
RTVSPropertyOp47
 70
     1
102
RTVSPropertyOp48
 70
     1
102
RTVSPropertyOp49
 70
     1
102
RTVSPropertyOp50
 70
     1
102
RTVSPropertyOp51
 70
     0
102
RTVSPropertyOp52
 70
     0
102
RTVSPropertyOp53
 70
     1
102
RTVSPropertyOp54
 70
     1
102
RTVSPropertyOp55
 70
     1
102
RTVSPropertyOp56
 70
     1
102
RTVSPropertyOp57
 70
     1
102
RTVSPropertyOp58
 70
     1
102
RTVSPropertyOp59
 70
     1
102
RTVSPropertyOp60
 70
     1
102
RTVSPropertyOp61
 70
     1
102
RTVSPropertyOp62
 70
     1
  0
XRECORD
  5
5E5
102
{ACAD_REACTORS
330
5E4
102
}
330
5E4
100
AcDbXrecord
280
     1
102
RTVSPost2010Prop28
280
     0
102
RTVSPost2010PropOp28
 70
     1
102
RTVSPost2010Prop29
280
     1
102
RTVSPost2010PropOp29
 70
     1
102
RTVSPost2010Prop30
280
     1
102
RTVSPost2010PropOp30
 70
     1
102
RTVSPost2010Prop31
280
     0
102
RTVSPost2010PropOp31
 70
     1
102
RTVSPost2010Prop32
280
     0
102
RTVSPost2010PropOp32
 70
     1
102
RTVSPost2010Prop33
280
     0
102
RTVSPost2010PropOp33
 70
     1
102
RTVSPost2010Prop34
280
     0
102
RTVSPost2010PropOp34
 70
     1
102
RTVSPost2010Prop35
280
     0
102
RTVSPost2010PropOp35
 70
     1
102
RTVSPost2010Prop36
280
     0
102
RTVSPost2010PropOp36
 70
     1
102
RTVSPost2010Prop37
 90
       50
102
RTVSPost2010PropOp37
 70
     1
102
RTVSPost2010Prop38
140
0.0
102
RTVSPost2010PropOp38
 70
     1
102
RTVSPost2010Prop39
140
1.0
102
RTVSPost2010PropOp39
 70
     1
102
RTVSPost2010Prop40
 90
        0
102
RTVSPost2010PropOp40
 70
     1
102
RTVSPost2010Prop41ColorIndex
 90
       18
102
RTVSPost2010Prop41ColorRGB
 90
        0
102
RTVSPost2010PropOp41
 70
     1
102
RTVSPost2010Prop42
 90
       50
102
RTVSPost2010PropOp42
 70
     1
102
RTVSPost2010Prop43
 90
        3
102
RTVSPost2010PropOp43
 70
     1
102
RTVSPost2010Prop44ColorIndex
 90
        5
102
RTVSPost2010Prop44ColorRGB
 90
      255
102
RTVSPost2010PropOp44
 70
     1
102
RTVSPost2010Prop45
280
     0
102
RTVSPost2010PropOp45
 70
     1
102
RTVSPost2010Prop46
 90
       50
102
RTVSPost2010PropOp46
 70
     1
102
RTVSPost2010Prop47
 90
       50
102
RTVSPost2010PropOp47
 70
     1
102
RTVSPost2010Prop48
 90
       50
102
RTVSPost2010PropOp48
 70
     1
102
RTVSPost2010Prop49
280
     0
102
RTVSPost2010PropOp49
 70
     1
102
RTVSPost2010Prop50
 90
       50
102
RTVSPost2010PropOp50
 70
     1
102
RTVSPost2010Prop51ColorIndex
 90
      256
102
RTVSPost2010Prop51ColorRGB
 90
-16777216
102
RTVSPost2010PropOp51
 70
     0
102
RTVSPost2010Prop52
140
1.0
102
RTVSPost2010PropOp52
 70
     0
102
RTVSPost2010Prop53
 90
        2
102
RTVSPost2010PropOp53
 70
     1
102
RTVSPost2010Prop54
  1
strokes_ogs.tif
102
RTVSPost2010PropOp54
 70
     1
102
RTVSPost2010Prop55
280
     0
102
RTVSPost2010PropOp55
 70
     1
102
RTVSPost2010Prop56
140
1.0
102
RTVSPost2010PropOp56
 70
     1
102
RTVSPost2010Prop57
140
1.0
102
RTVSPost2010PropOp57
 70
     1
102
RTVSPropertyOp0
 70
     1
102
RTVSPropertyOp1
 70
     1
102
RTVSPropertyOp2
 70
     1
102
RTVSPropertyOp3
 70
     1
102
RTVSPropertyOp4
 70
     1
102
RTVSPropertyOp5
 70
     1
102
RTVSPropertyOp6
 70
     1
102
RTVSPropertyOp7
 70
     1
102
RTVSPropertyOp8
 70
     1
102
RTVSPropertyOp9
 70
     1
102
RTVSPropertyOp10
 70
     1
102
RTVSPropertyOp11
 70
     1
102
RTVSPropertyOp12
 70
     1
102
RTVSPropertyOp13
 70
     1
102
RTVSPropertyOp14
 70
     1
102
RTVSPropertyOp15
 70
     1
102
RTVSPropertyOp16
 70
     1
102
RTVSPropertyOp17
 70
     1
102
RTVSPropertyOp18
 70
     1
102
RTVSPropertyOp19
 70
     1
102
RTVSPropertyOp20
 70
     1
102
RTVSPropertyOp21
 70
     1
102
RTVSPropertyOp22
 70
     1
102
RTVSPropertyOp23
 70
     1
102
RTVSPropertyOp24
 70
     1
102
RTVSPropertyOp25
 70
     1
102
RTVSPropertyOp26
 70
     1
102
RTVSPropertyOp27
 70
     1
102
RTVSPropertyOp28
 70
     1
102
RTVSPropertyOp29
 70
     1
102
RTVSPropertyOp30
 70
     1
102
RTVSPropertyOp31
 70
     1
102
RTVSPropertyOp32
 70
     1
102
RTVSPropertyOp33
 70
     1
102
RTVSPropertyOp34
 70
     1
102
RTVSPropertyOp35
 70
     1
102
RTVSPropertyOp36
 70
     1
102
RTVSPropertyOp37
 70
     1
102
RTVSPropertyOp38
 70
     1
102
RTVSPropertyOp39
 70
     1
102
RTVSPropertyOp40
 70
     1
102
RTVSPropertyOp41
 70
     1
102
RTVSPropertyOp42
 70
     1
102
RTVSPropertyOp43
 70
     1
102
RTVSPropertyOp44
 70
     1
102
RTVSPropertyOp45
 70
     1
102
RTVSPropertyOp46
 70
     1
102
RTVSPropertyOp47
 70
     1
102
RTVSPropertyOp48
 70
     1
102
RTVSPropertyOp49
 70
     1
102
RTVSPropertyOp50
 70
     1
102
RTVSPropertyOp51
 70
     0
102
RTVSPropertyOp52
 70
     0
102
RTVSPropertyOp53
 70
     1
102
RTVSPropertyOp54
 70
     1
102
RTVSPropertyOp55
 70
     1
102
RTVSPropertyOp56
 70
     1
102
RTVSPropertyOp57
 70
     1
102
RTVSPropertyOp58
 70
     1
102
RTVSPropertyOp59
 70
     1
102
RTVSPropertyOp60
 70
     1
102
RTVSPropertyOp61
 70
     1
102
RTVSPropertyOp62
 70
     1
  0
XRECORD
  5
5DB
102
{ACAD_REACTORS
330
5DA
102
}
330
5DA
100
AcDbXrecord
280
     1
102
RTVSPost2010Prop28
280
     0
102
RTVSPost2010PropOp28
 70
     1
102
RTVSPost2010Prop29
280
     1
102
RTVSPost2010PropOp29
 70
     1
102
RTVSPost2010Prop30
280
     1
102
RTVSPost2010PropOp30
 70
     1
102
RTVSPost2010Prop31
280
     0
102
RTVSPost2010PropOp31
 70
     1
102
RTVSPost2010Prop32
280
     0
102
RTVSPost2010PropOp32
 70
     1
102
RTVSPost2010Prop33
280
     0
102
RTVSPost2010PropOp33
 70
     1
102
RTVSPost2010Prop34
280
     0
102
RTVSPost2010PropOp34
 70
     1
102
RTVSPost2010Prop35
280
     0
102
RTVSPost2010PropOp35
 70
     1
102
RTVSPost2010Prop36
280
     0
102
RTVSPost2010PropOp36
 70
     1
102
RTVSPost2010Prop37
 90
       50
102
RTVSPost2010PropOp37
 70
     1
102
RTVSPost2010Prop38
140
0.0
102
RTVSPost2010PropOp38
 70
     1
102
RTVSPost2010Prop39
140
1.0
102
RTVSPost2010PropOp39
 70
     1
102
RTVSPost2010Prop40
 90
        0
102
RTVSPost2010PropOp40
 70
     1
102
RTVSPost2010Prop41ColorIndex
 90
       18
102
RTVSPost2010Prop41ColorRGB
 90
        0
102
RTVSPost2010PropOp41
 70
     1
102
RTVSPost2010Prop42
 90
       50
102
RTVSPost2010PropOp42
 70
     1
102
RTVSPost2010Prop43
 90
        3
102
RTVSPost2010PropOp43
 70
     1
102
RTVSPost2010Prop44ColorIndex
 90
        5
102
RTVSPost2010Prop44ColorRGB
 90
      255
102
RTVSPost2010PropOp44
 70
     1
102
RTVSPost2010Prop45
280
     0
102
RTVSPost2010PropOp45
 70
     1
102
RTVSPost2010Prop46
 90
       50
102
RTVSPost2010PropOp46
 70
     1
102
RTVSPost2010Prop47
 90
       50
102
RTVSPost2010PropOp47
 70
     1
102
RTVSPost2010Prop48
 90
       50
102
RTVSPost2010PropOp48
 70
     1
102
RTVSPost2010Prop49
280
     0
102
RTVSPost2010PropOp49
 70
     1
102
RTVSPost2010Prop50
 90
       50
102
RTVSPost2010PropOp50
 70
     1
102
RTVSPost2010Prop51ColorIndex
 90
      256
102
RTVSPost2010Prop51ColorRGB
 90
-16777216
102
RTVSPost2010PropOp51
 70
     0
102
RTVSPost2010Prop52
140
1.0
102
RTVSPost2010PropOp52
 70
     0
102
RTVSPost2010Prop53
 90
        2
102
RTVSPost2010PropOp53
 70
     1
102
RTVSPost2010Prop54
  1
strokes_ogs.tif
102
RTVSPost2010PropOp54
 70
     1
102
RTVSPost2010Prop55
280
     0
102
RTVSPost2010PropOp55
 70
     1
102
RTVSPost2010Prop56
140
1.0
102
RTVSPost2010PropOp56
 70
     1
102
RTVSPost2010Prop57
140
1.0
102
RTVSPost2010PropOp57
 70
     1
102
RTVSPropertyOp0
 70
     1
102
RTVSPropertyOp1
 70
     1
102
RTVSPropertyOp2
 70
     1
102
RTVSPropertyOp3
 70
     1
102
RTVSPropertyOp4
 70
     1
102
RTVSPropertyOp5
 70
     1
102
RTVSPropertyOp6
 70
     1
102
RTVSPropertyOp7
 70
     1
102
RTVSPropertyOp8
 70
     1
102
RTVSPropertyOp9
 70
     1
102
RTVSPropertyOp10
 70
     1
102
RTVSPropertyOp11
 70
     1
102
RTVSPropertyOp12
 70
     1
102
RTVSPropertyOp13
 70
     1
102
RTVSPropertyOp14
 70
     1
102
RTVSPropertyOp15
 70
     1
102
RTVSPropertyOp16
 70
     1
102
RTVSPropertyOp17
 70
     1
102
RTVSPropertyOp18
 70
     1
102
RTVSPropertyOp19
 70
     1
102
RTVSPropertyOp20
 70
     1
102
RTVSPropertyOp21
 70
     1
102
RTVSPropertyOp22
 70
     1
102
RTVSPropertyOp23
 70
     1
102
RTVSPropertyOp24
 70
     1
102
RTVSPropertyOp25
 70
     1
102
RTVSPropertyOp26
 70
     1
102
RTVSPropertyOp27
 70
     1
102
RTVSPropertyOp28
 70
     1
102
RTVSPropertyOp29
 70
     1
102
RTVSPropertyOp30
 70
     1
102
RTVSPropertyOp31
 70
     1
102
RTVSPropertyOp32
 70
     1
102
RTVSPropertyOp33
 70
     1
102
RTVSPropertyOp34
 70
     1
102
RTVSPropertyOp35
 70
     1
102
RTVSPropertyOp36
 70
     1
102
RTVSPropertyOp37
 70
     1
102
RTVSPropertyOp38
 70
     1
102
RTVSPropertyOp39
 70
     1
102
RTVSPropertyOp40
 70
     1
102
RTVSPropertyOp41
 70
     1
102
RTVSPropertyOp42
 70
     1
102
RTVSPropertyOp43
 70
     1
102
RTVSPropertyOp44
 70
     1
102
RTVSPropertyOp45
 70
     1
102
RTVSPropertyOp46
 70
     1
102
RTVSPropertyOp47
 70
     1
102
RTVSPropertyOp48
 70
     1
102
RTVSPropertyOp49
 70
     1
102
RTVSPropertyOp50
 70
     1
102
RTVSPropertyOp51
 70
     0
102
RTVSPropertyOp52
 70
     0
102
RTVSPropertyOp53
 70
     1
102
RTVSPropertyOp54
 70
     1
102
RTVSPropertyOp55
 70
     1
102
RTVSPropertyOp56
 70
     1
102
RTVSPropertyOp57
 70
     1
102
RTVSPropertyOp58
 70
     1
102
RTVSPropertyOp59
 70
     1
102
RTVSPropertyOp60
 70
     1
102
RTVSPropertyOp61
 70
     1
102
RTVSPropertyOp62
 70
     1
  0
XRECORD
  5
5CF
102
{ACAD_REACTORS
330
5CE
102
}
330
5CE
100
AcDbXrecord
280
     1
102
RTVSPost2010Prop28
280
     0
102
RTVSPost2010PropOp28
 70
     1
102
RTVSPost2010Prop29
280
     1
102
RTVSPost2010PropOp29
 70
     1
102
RTVSPost2010Prop30
280
     1
102
RTVSPost2010PropOp30
 70
     1
102
RTVSPost2010Prop31
280
     0
102
RTVSPost2010PropOp31
 70
     1
102
RTVSPost2010Prop32
280
     0
102
RTVSPost2010PropOp32
 70
     1
102
RTVSPost2010Prop33
280
     0
102
RTVSPost2010PropOp33
 70
     1
102
RTVSPost2010Prop34
280
     0
102
RTVSPost2010PropOp34
 70
     1
102
RTVSPost2010Prop35
280
     0
102
RTVSPost2010PropOp35
 70
     1
102
RTVSPost2010Prop36
280
     0
102
RTVSPost2010PropOp36
 70
     1
102
RTVSPost2010Prop37
 90
       50
102
RTVSPost2010PropOp37
 70
     1
102
RTVSPost2010Prop38
140
0.0
102
RTVSPost2010PropOp38
 70
     1
102
RTVSPost2010Prop39
140
1.0
102
RTVSPost2010PropOp39
 70
     1
102
RTVSPost2010Prop40
 90
        0
102
RTVSPost2010PropOp40
 70
     1
102
RTVSPost2010Prop41ColorIndex
 90
       18
102
RTVSPost2010Prop41ColorRGB
 90
        0
102
RTVSPost2010PropOp41
 70
     1
102
RTVSPost2010Prop42
 90
       50
102
RTVSPost2010PropOp42
 70
     1
102
RTVSPost2010Prop43
 90
        3
102
RTVSPost2010PropOp43
 70
     1
102
RTVSPost2010Prop44ColorIndex
 90
        5
102
RTVSPost2010Prop44ColorRGB
 90
      255
102
RTVSPost2010PropOp44
 70
     1
102
RTVSPost2010Prop45
280
     0
102
RTVSPost2010PropOp45
 70
     1
102
RTVSPost2010Prop46
 90
       50
102
RTVSPost2010PropOp46
 70
     1
102
RTVSPost2010Prop47
 90
       50
102
RTVSPost2010PropOp47
 70
     1
102
RTVSPost2010Prop48
 90
       50
102
RTVSPost2010PropOp48
 70
     1
102
RTVSPost2010Prop49
280
     0
102
RTVSPost2010PropOp49
 70
     1
102
RTVSPost2010Prop50
 90
       50
102
RTVSPost2010PropOp50
 70
     1
102
RTVSPost2010Prop51ColorIndex
 90
      256
102
RTVSPost2010Prop51ColorRGB
 90
-16777216
102
RTVSPost2010PropOp51
 70
     0
102
RTVSPost2010Prop52
140
1.0
102
RTVSPost2010PropOp52
 70
     0
102
RTVSPost2010Prop53
 90
        2
102
RTVSPost2010PropOp53
 70
     1
102
RTVSPost2010Prop54
  1
strokes_ogs.tif
102
RTVSPost2010PropOp54
 70
     1
102
RTVSPost2010Prop55
280
     0
102
RTVSPost2010PropOp55
 70
     1
102
RTVSPost2010Prop56
140
1.0
102
RTVSPost2010PropOp56
 70
     1
102
RTVSPost2010Prop57
140
1.0
102
RTVSPost2010PropOp57
 70
     1
102
RTVSPropertyOp0
 70
     1
102
RTVSPropertyOp1
 70
     1
102
RTVSPropertyOp2
 70
     1
102
RTVSPropertyOp3
 70
     1
102
RTVSPropertyOp4
 70
     1
102
RTVSPropertyOp5
 70
     1
102
RTVSPropertyOp6
 70
     1
102
RTVSPropertyOp7
 70
     1
102
RTVSPropertyOp8
 70
     1
102
RTVSPropertyOp9
 70
     1
102
RTVSPropertyOp10
 70
     1
102
RTVSPropertyOp11
 70
     1
102
RTVSPropertyOp12
 70
     1
102
RTVSPropertyOp13
 70
     1
102
RTVSPropertyOp14
 70
     1
102
RTVSPropertyOp15
 70
     1
102
RTVSPropertyOp16
 70
     1
102
RTVSPropertyOp17
 70
     1
102
RTVSPropertyOp18
 70
     1
102
RTVSPropertyOp19
 70
     1
102
RTVSPropertyOp20
 70
     1
102
RTVSPropertyOp21
 70
     1
102
RTVSPropertyOp22
 70
     1
102
RTVSPropertyOp23
 70
     1
102
RTVSPropertyOp24
 70
     1
102
RTVSPropertyOp25
 70
     1
102
RTVSPropertyOp26
 70
     1
102
RTVSPropertyOp27
 70
     1
102
RTVSPropertyOp28
 70
     1
102
RTVSPropertyOp29
 70
     1
102
RTVSPropertyOp30
 70
     1
102
RTVSPropertyOp31
 70
     1
102
RTVSPropertyOp32
 70
     1
102
RTVSPropertyOp33
 70
     1
102
RTVSPropertyOp34
 70
     1
102
RTVSPropertyOp35
 70
     1
102
RTVSPropertyOp36
 70
     1
102
RTVSPropertyOp37
 70
     1
102
RTVSPropertyOp38
 70
     1
102
RTVSPropertyOp39
 70
     1
102
RTVSPropertyOp40
 70
     1
102
RTVSPropertyOp41
 70
     1
102
RTVSPropertyOp42
 70
     1
102
RTVSPropertyOp43
 70
     1
102
RTVSPropertyOp44
 70
     1
102
RTVSPropertyOp45
 70
     1
102
RTVSPropertyOp46
 70
     1
102
RTVSPropertyOp47
 70
     1
102
RTVSPropertyOp48
 70
     1
102
RTVSPropertyOp49
 70
     1
102
RTVSPropertyOp50
 70
     1
102
RTVSPropertyOp51
 70
     0
102
RTVSPropertyOp52
 70
     0
102
RTVSPropertyOp53
 70
     1
102
RTVSPropertyOp54
 70
     1
102
RTVSPropertyOp55
 70
     1
102
RTVSPropertyOp56
 70
     1
102
RTVSPropertyOp57
 70
     1
102
RTVSPropertyOp58
 70
     1
102
RTVSPropertyOp59
 70
     1
102
RTVSPropertyOp60
 70
     1
102
RTVSPropertyOp61
 70
     1
102
RTVSPropertyOp62
 70
     1
  0
XRECORD
  5
5E7
102
{ACAD_REACTORS
330
5E6
102
}
330
5E6
100
AcDbXrecord
280
     1
102
RTVSPost2010Prop28
280
     0
102
RTVSPost2010PropOp28
 70
     1
102
RTVSPost2010Prop29
280
     1
102
RTVSPost2010PropOp29
 70
     1
102
RTVSPost2010Prop30
280
     1
102
RTVSPost2010PropOp30
 70
     1
102
RTVSPost2010Prop31
280
     0
102
RTVSPost2010PropOp31
 70
     1
102
RTVSPost2010Prop32
280
     0
102
RTVSPost2010PropOp32
 70
     1
102
RTVSPost2010Prop33
280
     0
102
RTVSPost2010PropOp33
 70
     1
102
RTVSPost2010Prop34
280
     0
102
RTVSPost2010PropOp34
 70
     1
102
RTVSPost2010Prop35
280
     0
102
RTVSPost2010PropOp35
 70
     1
102
RTVSPost2010Prop36
280
     0
102
RTVSPost2010PropOp36
 70
     1
102
RTVSPost2010Prop37
 90
       50
102
RTVSPost2010PropOp37
 70
     1
102
RTVSPost2010Prop38
140
0.0
102
RTVSPost2010PropOp38
 70
     1
102
RTVSPost2010Prop39
140
1.0
102
RTVSPost2010PropOp39
 70
     1
102
RTVSPost2010Prop40
 90
        0
102
RTVSPost2010PropOp40
 70
     1
102
RTVSPost2010Prop41ColorIndex
 90
       18
102
RTVSPost2010Prop41ColorRGB
 90
        0
102
RTVSPost2010PropOp41
 70
     1
102
RTVSPost2010Prop42
 90
       50
102
RTVSPost2010PropOp42
 70
     1
102
RTVSPost2010Prop43
 90
        3
102
RTVSPost2010PropOp43
 70
     1
102
RTVSPost2010Prop44ColorIndex
 90
        5
102
RTVSPost2010Prop44ColorRGB
 90
      255
102
RTVSPost2010PropOp44
 70
     1
102
RTVSPost2010Prop45
280
     0
102
RTVSPost2010PropOp45
 70
     1
102
RTVSPost2010Prop46
 90
       50
102
RTVSPost2010PropOp46
 70
     1
102
RTVSPost2010Prop47
 90
       50
102
RTVSPost2010PropOp47
 70
     1
102
RTVSPost2010Prop48
 90
       50
102
RTVSPost2010PropOp48
 70
     1
102
RTVSPost2010Prop49
280
     0
102
RTVSPost2010PropOp49
 70
     1
102
RTVSPost2010Prop50
 90
       50
102
RTVSPost2010PropOp50
 70
     1
102
RTVSPost2010Prop51ColorIndex
 90
      256
102
RTVSPost2010Prop51ColorRGB
 90
-16777216
102
RTVSPost2010PropOp51
 70
     0
102
RTVSPost2010Prop52
140
1.0
102
RTVSPost2010PropOp52
 70
     0
102
RTVSPost2010Prop53
 90
        2
102
RTVSPost2010PropOp53
 70
     1
102
RTVSPost2010Prop54
  1
strokes_ogs.tif
102
RTVSPost2010PropOp54
 70
     1
102
RTVSPost2010Prop55
280
     0
102
RTVSPost2010PropOp55
 70
     1
102
RTVSPost2010Prop56
140
1.0
102
RTVSPost2010PropOp56
 70
     1
102
RTVSPost2010Prop57
140
1.0
102
RTVSPost2010PropOp57
 70
     1
102
RTVSPropertyOp0
 70
     1
102
RTVSPropertyOp1
 70
     1
102
RTVSPropertyOp2
 70
     1
102
RTVSPropertyOp3
 70
     1
102
RTVSPropertyOp4
 70
     1
102
RTVSPropertyOp5
 70
     1
102
RTVSPropertyOp6
 70
     1
102
RTVSPropertyOp7
 70
     1
102
RTVSPropertyOp8
 70
     1
102
RTVSPropertyOp9
 70
     1
102
RTVSPropertyOp10
 70
     1
102
RTVSPropertyOp11
 70
     1
102
RTVSPropertyOp12
 70
     1
102
RTVSPropertyOp13
 70
     1
102
RTVSPropertyOp14
 70
     1
102
RTVSPropertyOp15
 70
     1
102
RTVSPropertyOp16
 70
     1
102
RTVSPropertyOp17
 70
     1
102
RTVSPropertyOp18
 70
     1
102
RTVSPropertyOp19
 70
     1
102
RTVSPropertyOp20
 70
     1
102
RTVSPropertyOp21
 70
     1
102
RTVSPropertyOp22
 70
     1
102
RTVSPropertyOp23
 70
     1
102
RTVSPropertyOp24
 70
     1
102
RTVSPropertyOp25
 70
     1
102
RTVSPropertyOp26
 70
     1
102
RTVSPropertyOp27
 70
     1
102
RTVSPropertyOp28
 70
     1
102
RTVSPropertyOp29
 70
     1
102
RTVSPropertyOp30
 70
     1
102
RTVSPropertyOp31
 70
     1
102
RTVSPropertyOp32
 70
     1
102
RTVSPropertyOp33
 70
     1
102
RTVSPropertyOp34
 70
     1
102
RTVSPropertyOp35
 70
     1
102
RTVSPropertyOp36
 70
     1
102
RTVSPropertyOp37
 70
     1
102
RTVSPropertyOp38
 70
     1
102
RTVSPropertyOp39
 70
     1
102
RTVSPropertyOp40
 70
     1
102
RTVSPropertyOp41
 70
     1
102
RTVSPropertyOp42
 70
     1
102
RTVSPropertyOp43
 70
     1
102
RTVSPropertyOp44
 70
     1
102
RTVSPropertyOp45
 70
     1
102
RTVSPropertyOp46
 70
     1
102
RTVSPropertyOp47
 70
     1
102
RTVSPropertyOp48
 70
     1
102
RTVSPropertyOp49
 70
     1
102
RTVSPropertyOp50
 70
     1
102
RTVSPropertyOp51
 70
     0
102
RTVSPropertyOp52
 70
     0
102
RTVSPropertyOp53
 70
     1
102
RTVSPropertyOp54
 70
     1
102
RTVSPropertyOp55
 70
     1
102
RTVSPropertyOp56
 70
     1
102
RTVSPropertyOp57
 70
     1
102
RTVSPropertyOp58
 70
     1
102
RTVSPropertyOp59
 70
     1
102
RTVSPropertyOp60
 70
     1
102
RTVSPropertyOp61
 70
     1
102
RTVSPropertyOp62
 70
     1
  0
ENDSEC
  0
EOF
