  0
SECTION
  2
HEADER
  9
$ACADVER
  1
AC1015
  9
$ACADMAINTVER
 70
    20
  9
$DWGCODEPAGE
  3
ANSI_932
  9
$INSBASE
 10
0.0
 20
0.0
 30
0.0
  9
$EXTMIN
 10
-29.82632000195878
 20
-226.1189068418243
 30
0.0
  9
$EXTMAX
 10
259.4241728390837
 20
92.89527783175646
 30
0.0
  9
$LIMMIN
 10
0.0
 20
0.0
  9
$LIMMAX
 10
12.0
 20
9.0
  9
$ORTHOMODE
 70
     0
  9
$REGENMODE
 70
     1
  9
$FILLMODE
 70
     1
  9
$QTEXTMODE
 70
     0
  9
$MIRRTEXT
 70
     0
  9
$LTSCALE
 40
1.0
  9
$ATTMODE
 70
     1
  9
$TEXTSIZE
 40
0.2
  9
$TRACEWID
 40
0.05
  9
$TEXTSTYLE
  7
Standard
  9
$CLAYER
  8
0
  9
$CELTYPE
  6
Continuous
  9
$CECOLOR
 62
   256
  9
$CELTSCALE
 40
1.0
  9
$DISPSILH
 70
     0
  9
$DIMSCALE
 40
1.0
  9
$DIMASZ
 40
0.18
  9
$DIMEXO
 40
0.0625
  9
$DIMDLI
 40
0.38
  9
$DIMRND
 40
0.0
  9
$DIMDLE
 40
0.0
  9
$DIMEXE
 40
0.18
  9
$DIMTP
 40
0.0
  9
$DIMTM
 40
0.0
  9
$DIMTXT
 40
0.18
  9
$DIMCEN
 40
0.09
  9
$DIMTSZ
 40
0.0
  9
$DIMTOL
 70
     0
  9
$DIMLIM
 70
     0
  9
$DIMTIH
 70
     1
  9
$DIMTOH
 70
     1
  9
$DIMSE1
 70
     0
  9
$DIMSE2
 70
     0
  9
$DIMTAD
 70
     0
  9
$DIMZIN
 70
     0
  9
$DIMBLK
  1

  9
$DIMASO
 70
     1
  9
$DIMSHO
 70
     1
  9
$DIMPOST
  1

  9
$DIMAPOST
  1

  9
$DIMALT
 70
     0
  9
$DIMALTD
 70
     2
  9
$DIMALTF
 40
25.4
  9
$DIMLFAC
 40
1.0
  9
$DIMTOFL
 70
     0
  9
$DIMTVP
 40
0.0
  9
$DIMTIX
 70
     0
  9
$DIMSOXD
 70
     0
  9
$DIMSAH
 70
     0
  9
$DIMBLK1
  1

  9
$DIMBLK2
  1

  9
$DIMSTYLE
  2
Standard
  9
$DIMCLRD
 70
     0
  9
$DIMCLRE
 70
     0
  9
$DIMCLRT
 70
     0
  9
$DIMTFAC
 40
1.0
  9
$DIMGAP
 40
0.09
  9
$DIMJUST
 70
     0
  9
$DIMSD1
 70
     0
  9
$DIMSD2
 70
     0
  9
$DIMTOLJ
 70
     1
  9
$DIMTZIN
 70
     0
  9
$DIMALTZ
 70
     0
  9
$DIMALTTZ
 70
     0
  9
$DIMUPT
 70
     0
  9
$DIMDEC
 70
     4
  9
$DIMTDEC
 70
     4
  9
$DIMALTU
 70
     2
  9
$DIMALTTD
 70
     2
  9
$DIMTXSTY
  7
Standard
  9
$DIMAUNIT
 70
     0
  9
$DIMADEC
 70
     0
  9
$DIMALTRND
 40
0.0
  9
$DIMAZIN
 70
     0
  9
$DIMDSEP
 70
    46
  9
$DIMATFIT
 70
     3
  9
$DIMFRAC
 70
     0
  9
$DIMLDRBLK
  1

  9
$DIMLUNIT
 70
     2
  9
$DIMLWD
 70
    -2
  9
$DIMLWE
 70
    -2
  9
$DIMTMOVE
 70
     0
  9
$LUNITS
 70
     2
  9
$LUPREC
 70
     4
  9
$SKETCHINC
 40
0.1
  9
$FILLETRAD
 40
0.0
  9
$AUNITS
 70
     0
  9
$AUPREC
 70
     0
  9
$MENU
  1
.
  9
$ELEVATION
 40
0.0
  9
$PELEVATION
 40
0.0
  9
$THICKNESS
 40
0.0
  9
$LIMCHECK
 70
     0
  9
$CHAMFERA
 40
0.0
  9
$CHAMFERB
 40
0.0
  9
$CHAMFERC
 40
0.0
  9
$CHAMFERD
 40
0.0
  9
$SKPOLY
 70
     0
  9
$TDCREATE
 40
2457211.399248333
  9
$TDUCREATE
 40
2457211.024248334
  9
$TDUPDATE
 40
2457225.411845625
  9
$TDUUPDATE
 40
2457225.036845625
  9
$TDINDWG
 40
0.0019377662
  9
$TDUSRTIMER
 40
0.0019375810
  9
$USRTIMER
 70
     1
  9
$ANGBASE
 50
0.0
  9
$ANGDIR
 70
     0
  9
$PDMODE
 70
     0
  9
$PDSIZE
 40
0.0
  9
$PLINEWID
 40
0.0
  9
$SPLFRAME
 70
     0
  9
$SPLINETYPE
 70
     6
  9
$SPLINESEGS
 70
     8
  9
$HANDSEED
  5
7EF
  9
$SURFTAB1
 70
     6
  9
$SURFTAB2
 70
     6
  9
$SURFTYPE
 70
     6
  9
$SURFU
 70
     6
  9
$SURFV
 70
     6
  9
$UCSBASE
  2

  9
$UCSNAME
  2

  9
$UCSORG
 10
0.0
 20
0.0
 30
0.0
  9
$UCSXDIR
 10
1.0
 20
0.0
 30
0.0
  9
$UCSYDIR
 10
0.0
 20
1.0
 30
0.0
  9
$UCSORTHOREF
  2

  9
$UCSORTHOVIEW
 70
     0
  9
$UCSORGTOP
 10
0.0
 20
0.0
 30
0.0
  9
$UCSORGBOTTOM
 10
0.0
 20
0.0
 30
0.0
  9
$UCSORGLEFT
 10
0.0
 20
0.0
 30
0.0
  9
$UCSORGRIGHT
 10
0.0
 20
0.0
 30
0.0
  9
$UCSORGFRONT
 10
0.0
 20
0.0
 30
0.0
  9
$UCSORGBACK
 10
0.0
 20
0.0
 30
0.0
  9
$PUCSBASE
  2

  9
$PUCSNAME
  2

  9
$PUCSORG
 10
0.0
 20
0.0
 30
0.0
  9
$PUCSXDIR
 10
1.0
 20
0.0
 30
0.0
  9
$PUCSYDIR
 10
0.0
 20
1.0
 30
0.0
  9
$PUCSORTHOREF
  2

  9
$PUCSORTHOVIEW
 70
     0
  9
$PUCSORGTOP
 10
0.0
 20
0.0
 30
0.0
  9
$PUCSORGBOTTOM
 10
0.0
 20
0.0
 30
0.0
  9
$PUCSORGLEFT
 10
0.0
 20
0.0
 30
0.0
  9
$PUCSORGRIGHT
 10
0.0
 20
0.0
 30
0.0
  9
$PUCSORGFRONT
 10
0.0
 20
0.0
 30
0.0
  9
$PUCSORGBACK
 10
0.0
 20
0.0
 30
0.0
  9
$USERI1
 70
     0
  9
$USERI2
 70
     0
  9
$USERI3
 70
     0
  9
$USERI4
 70
     0
  9
$USERI5
 70
     0
  9
$USERR1
 40
0.0
  9
$USERR2
 40
0.0
  9
$USERR3
 40
0.0
  9
$USERR4
 40
0.0
  9
$USERR5
 40
0.0
  9
$WORLDVIEW
 70
     1
  9
$SHADEDGE
 70
     3
  9
$SHADEDIF
 70
    70
  9
$TILEMODE
 70
     1
  9
$MAXACTVP
 70
    64
  9
$PINSBASE
 10
0.0
 20
0.0
 30
0.0
  9
$PLIMCHECK
 70
     0
  9
$PEXTMIN
 10
1.000000000000000E+20
 20
1.000000000000000E+20
 30
1.000000000000000E+20
  9
$PEXTMAX
 10
-1.000000000000000E+20
 20
-1.000000000000000E+20
 30
-1.000000000000000E+20
  9
$PLIMMIN
 10
0.0
 20
0.0
  9
$PLIMMAX
 10
12.0
 20
9.0
  9
$UNITMODE
 70
     0
  9
$VISRETAIN
 70
     1
  9
$PLINEGEN
 70
     0
  9
$PSLTSCALE
 70
     1
  9
$TREEDEPTH
 70
  3020
  9
$CMLSTYLE
  2
Standard
  9
$CMLJUST
 70
     0
  9
$CMLSCALE
 40
1.0
  9
$PROXYGRAPHICS
 70
     1
  9
$MEASUREMENT
 70
     0
  9
$CELWEIGHT
370
    -1
  9
$ENDCAPS
280
     0
  9
$JOINSTYLE
280
     0
  9
$LWDISPLAY
290
     0
  9
$INSUNITS
 70
     0
  9
$HYPERLINKBASE
  1

  9
$STYLESHEET
  1

  9
$XEDIT
290
     1
  9
$CEPSNTYPE
380
     0
  9
$PSTYLEMODE
290
     1
  9
$FINGERPRINTGUID
  2
{59885416-4E7C-4162-B2DB-98A775589682}
  9
$VERSIONGUID
  2
{B32AE645-EC2B-4311-B183-A6A2CF426422}
  9
$EXTNAMES
290
     1
  9
$PSVPSCALE
 40
0.0
  9
$OLESTARTUP
290
     0
  0
ENDSEC
  0
SECTION
  2
CLASSES
  0
CLASS
  1
ACDBDICTIONARYWDFLT
  2
AcDbDictionaryWithDefault
  3
ObjectDBX Classes
 90
        0
280
     0
281
     0
  0
CLASS
  1
MATERIAL
  2
AcDbMaterial
  3
ObjectDBX Classes
 90
     1153
280
     0
281
     0
  0
CLASS
  1
VISUALSTYLE
  2
AcDbVisualStyle
  3
ObjectDBX Classes
 90
     4095
280
     0
281
     0
  0
CLASS
  1
SCALE
  2
AcDbScale
  3
ObjectDBX Classes
 90
     1153
280
     0
281
     0
  0
CLASS
  1
TABLESTYLE
  2
AcDbTableStyle
  3
ObjectDBX Classes
 90
     4095
280
     0
281
     0
  0
CLASS
  1
MLEADERSTYLE
  2
AcDbMLeaderStyle
  3
ACDB_MLEADERSTYLE_CLASS
 90
     4095
280
     0
281
     0
  0
CLASS
  1
ACDBSECTIONVIEWSTYLE
  2
AcDbSectionViewStyle
  3
ObjectDBX Classes
 90
     1025
280
     0
281
     0
  0
CLASS
  1
ACDBDETAILVIEWSTYLE
  2
AcDbDetailViewStyle
  3
ObjectDBX Classes
 90
     1025
280
     0
281
     0
  0
CLASS
  1
AMGSETTINGSOBJ
  2
AmgSettingsObj
  3
"AcadM|Product Description: AutoCAD Mechanical|Company: Autodesk, Inc."
 90
     1024
280
     0
281
     0
  0
CLASS
  1
ACME_DOCUMENT
  2
AcMeDbDoc
  3
AcMeServices
 90
     1024
280
     0
281
     0
  0
CLASS
  1
ACMESCOPE
  2
AcMeScope
  3
AcMeServices
 90
     1024
280
     0
281
     0
  0
CLASS
  1
ACMECOMMANDHISTORY
  2
AcMeCommandHistory
  3
AcMeServices
 90
     1024
280
     0
281
     0
  0
CLASS
  1
ACIMSYSVARMAN
  2
AcImSysVarManager
  3
AcMeServices
 90
     1024
280
     0
281
     0
  0
CLASS
  1
ACIMINTSYSVAR
  2
AcImIntSysVar
  3
AcMeServices
 90
     1024
280
     0
281
     0
  0
CLASS
  1
ACMESTATEMGR
  2
AcMeStateMgr
  3
AcMeServices
 90
     1024
280
     0
281
     0
  0
CLASS
  1
ACDBENTITYCACHE
  2
AcMeEntityCache
  3
AcMeServices
 90
     1024
280
     0
281
     0
  0
CLASS
  1
ACGREFMASTER
  2
AcGrefMaster
  3
AcAttribServices
 90
     1024
280
     0
281
     0
  0
CLASS
  1
ACME_DATABASE
  2
AcMeDbDatabase
  3
AcMeServices
 90
     1024
280
     0
281
     0
  0
CLASS
  1
ACRFINSADJUSTERMGR
  2
AcRfInsAdjusterMgr
  3
AcMeServices
 90
     1024
280
     0
281
     0
  0
CLASS
  1
ACGREFACADMASTER
  2
AcGrefacadMaster
  3
AcGrefServices
 90
     1024
280
     0
281
     0
  0
CLASS
  1
AMDTMENUSTATEMGR
  2
AmdtMenuStateMgr
  3
McadcomServices
 90
     1024
280
     0
281
     0
  0
CLASS
  1
AMDTMCOMMENUSTATE
  2
AmdtMcomMenuState
  3
McadcomServices
 90
     1024
280
     0
281
     0
  0
CLASS
  1
AMIMASTER
  2
AmiMaster
  3
AmiServices
 90
     1024
280
     0
281
     0
  0
CLASS
  1
MAPIAMMOUDLE
  2
MApiAmModule
  3
MApiAmServices
 90
     1024
280
     0
281
     0
  0
CLASS
  1
ACIMSTRSYSVAR
  2
AcImStrSysVar
  3
AcMeServices
 90
     1024
280
     0
281
     0
  0
CLASS
  1
AMDTAMMENUSTATE
  2
AmdtAmMenuState
  3
DesignerAssemblies
 90
     1024
280
     0
281
     0
  0
CLASS
  1
ACAMPROJECT
  2
AcAmProject
  3
DesignerAssemblies
 90
     1024
280
     0
281
     0
  0
CLASS
  1
ACAMGRCOMPDEF
  2
AcAmGrCompDef
  3
DesignerAssemblies
 90
     1024
280
     0
281
     0
  0
CLASS
  1
ACAMCOMPDEF
  2
AcAmCompDef
  3
DesignerAssemblies
 90
     1024
280
     0
281
     0
  0
CLASS
  1
ACAMCOMPDEFMGR
  2
AcAmCompDefMgr
  3
DesignerAssemblies
 90
     1024
280
     0
281
     0
  0
CLASS
  1
AMCONTEXTMGR
  2
AcAmContextMgr
  3
DesignerAssemblies
 90
     1024
280
     0
281
     0
  0
CLASS
  1
ACAMCONTEXTMODELER
  2
AcAmContextModeler
  3
DesignerAssemblies
 90
     1024
280
     0
281
     0
  0
CLASS
  1
ACMDATADICTIONARY
  2
AcmDataDictionary
  3
"AcmSymBB|Product Description: AutoCAD Mechanical|Company: Autodesk, Inc."
 90
     1024
280
     0
281
     0
  0
CLASS
  1
ACAMGRCOMPDEFSET
  2
AcAmGrCompDefSet
  3
DesignerAssemblies
 90
     1024
280
     0
281
     0
  0
CLASS
  1
AMDTBROWSERDBTAB
  2
AmdtBrowserDbTab
  3
McadcomServices
 90
     1024
280
     0
281
     0
  0
CLASS
  1
CBROWSERAPPOBJECT
  2
CBrowserAppObject
  3
McadcomServices
 90
     1024
280
     0
281
     0
  0
CLASS
  1
DM_PLACEHOLDER
  2
AcDmSelsetPlaceholder
  3
McadcomServices
 90
     1024
280
     0
281
     0
  0
CLASS
  1
ACMSTANDARDANSI
  2
AcmStandardANSI
  3
"Amdt_StdImp|Product Description: AutoCAD Mechanical|Company: Autodesk, Inc."
 90
     1024
280
     0
281
     0
  0
CLASS
  1
ACMSURFSTANDARDANSI
  2
AcmSurfTextStdANSI
  3
"Amdt_StdImp|Product Description: AutoCAD Mechanical|Company: Autodesk, Inc."
 90
     1024
280
     0
281
     0
  0
CLASS
  1
ACMFCFSTANDARDANSI
  2
AcmFCFStdANSI
  3
"Amdt_StdImp|Product Description: AutoCAD Mechanical|Company: Autodesk, Inc."
 90
     1024
280
     0
281
     0
  0
CLASS
  1
ACMWELDSTANDARDANSI
  2
AcmWeldingStdANSI
  3
"Amdt_StdImp|Product Description: AutoCAD Mechanical|Company: Autodesk, Inc."
 90
     1024
280
     0
281
     0
  0
CLASS
  1
ACMIDSTANDARDANSI
  2
AcmIdStdANSI
  3
"Amdt_StdImp|Product Description: AutoCAD Mechanical|Company: Autodesk, Inc."
 90
     1024
280
     0
281
     0
  0
CLASS
  1
ACMDATUMSTANDARDANSI
  2
AcmDatumStdANSI
  3
"Amdt_StdImp|Product Description: AutoCAD Mechanical|Company: Autodesk, Inc."
 90
     1024
280
     0
281
     0
  0
CLASS
  1
ACMBOMSTANDARDANSI
  2
AcmBOMStdANSI
  3
"Amdt_StdImp|Product Description: AutoCAD Mechanical|Company: Autodesk, Inc."
 90
     1024
280
     0
281
     0
  0
CLASS
  1
ACMDETAILSTANDARDANSI
  2
AmdtDetailSymStdANSI
  3
"Amdt_StdImp|Product Description: AutoCAD Mechanical|Company: Autodesk, Inc."
 90
     1024
280
     0
281
     0
  0
CLASS
  1
ACMSECTIONSTANDARDANSI
  2
AmdtSectionSymStdANSI
  3
"Amdt_StdImp|Product Description: AutoCAD Mechanical|Company: Autodesk, Inc."
 90
     1024
280
     0
281
     0
  0
CLASS
  1
ACMCENTERLINESTANDARDANSI
  2
AmdtCenterLineStdANSI
  3
"Amdt_StdImp|Product Description: AutoCAD Mechanical|Company: Autodesk, Inc."
 90
     1024
280
     0
281
     0
  0
CLASS
  1
ACMTHREADLINESTANDARDANSI
  2
AmdtThreadLineStdANSI
  3
"Amdt_StdImp|Product Description: AutoCAD Mechanical|Company: Autodesk, Inc."
 90
     1024
280
     0
281
     0
  0
CLASS
  1
ACMNOTESTANDARDANSI
  2
AmdtNoteStdANSI
  3
"Amdt_StdImp|Product Description: AutoCAD Mechanical|Company: Autodesk, Inc."
 90
     1024
280
     0
281
     0
  0
CLASS
  1
ACMTAPERSTANDARDANSI
  2
AcmTaperStdANSI
  3
"Amdt_StdImp|Product Description: AutoCAD Mechanical|Company: Autodesk, Inc."
 90
     1024
280
     0
281
     0
  0
CLASS
  1
ACMANOOTATIONVIEWSTANDARDANSI
  2
AmdtAnViewStdANSI
  3
"Amdt_StdImp|Product Description: AutoCAD Mechanical|Company: Autodesk, Inc."
 90
     1024
280
     0
281
     0
  0
CLASS
  1
ACAMGLAYSTD
  2
AcAmgLayStd
  3
"AmgLay|Product Description: AutoCAD Mechanical|Company: Autodesk, Inc."
 90
     1024
280
     0
281
     0
  0
CLASS
  1
ACAMGDIMSTD
  2
AcAmgDimStd
  3
"AmgDim|Product Description: AutoCAD Mechanical|Company: Autodesk, Inc."
 90
     1024
280
     0
281
     0
  0
CLASS
  1
AMGOBJPROPCFG
  2
AmgObjPropCfg
  3
"AmgLay|Product Description: AutoCAD Mechanical|Company: Autodesk, Inc."
 90
     1024
280
     0
281
     0
  0
CLASS
  1
ACAMGHOLECHARTSTDANSI
  2
AcAmgHoleChartStdANSI
  3
AmgDim|Product Description: AutoCAD Mechanical|Company: Autodesk, Inc.
 90
     1024
280
     0
281
     0
  0
CLASS
  1
ACAMGTITLESTD
  2
AcAmgTitleStd
  3
"AmgTitle|Product Description: AutoCAD Mechanical|Company: Autodesk, Inc."
 90
     1024
280
     0
281
     0
  0
CLASS
  1
AMDTNOTETEMPLATEDB
  2
AmdtNoteTemplateDB
  3
AcmSymBB|Product Description: AutoCAD Mechanical|Company: Autodesk, Inc.
 90
     1024
280
     0
281
     0
  0
CLASS
  1
ACAMGFILTERDAT
  2
AcAmgFilterDat
  3
"AcadM|Product Description: AutoCAD Mechanical|Company: Autodesk, Inc."
 90
    33792
280
     0
281
     0
  0
CLASS
  1
SORTENTSTABLE
  2
AcDbSortentsTable
  3
ObjectDBX Classes
 90
        0
280
     0
281
     0
  0
CLASS
  1
DICTIONARYVAR
  2
AcDbDictionaryVar
  3
ObjectDBX Classes
 90
        0
280
     0
281
     0
  0
CLASS
  1
CELLSTYLEMAP
  2
AcDbCellStyleMap
  3
ObjectDBX Classes
 90
     1152
280
     0
281
     0
  0
CLASS
  1
ACDBPLACEHOLDER
  2
AcDbPlaceHolder
  3
ObjectDBX Classes
 90
        0
280
     0
281
     0
  0
CLASS
  1
LAYOUT
  2
AcDbLayout
  3
ObjectDBX Classes
 90
        0
280
     0
281
     0
  0
ENDSEC
  0
SECTION
  2
TABLES
  0
TABLE
  2
VPORT
  5
8
330
0
100
AcDbSymbolTable
 70
     1
  0
VPORT
  5
75
330
8
100
AcDbSymbolTableRecord
100
AcDbViewportTableRecord
  2
*Active
 70
     0
 10
0.0
 20
0.0
 11
1.0
 21
1.0
 12
127.3695355799606
 22
24.1723203664061
 13
0.0
 23
0.0
 14
1.0
 24
1.0
 15
0.0
 25
0.0
 16
0.0
 26
0.0
 36
1.0
 17
0.0
 27
0.0
 37
0.0
 40
41.94546468867748
 41
1.681623931623931
 42
50.0
 43
0.0
 44
0.0
 50
0.0
 51
0.0
 71
     0
 72
   100
 73
     1
 74
     1
 75
     0
 76
     0
 77
     0
 78
     0
281
     0
 65
     0
110
0.0
120
0.0
130
0.0
111
1.0
121
0.0
131
0.0
112
0.0
122
1.0
132
0.0
 79
     0
146
0.0
1001
ACAD_NAV_VCDISPLAY
1070
     3
  0
ENDTAB
  0
TABLE
  2
LTYPE
  5
5
330
0
100
AcDbSymbolTable
 70
     8
  0
LTYPE
  5
5A
330
5
100
AcDbSymbolTableRecord
100
AcDbLinetypeTableRecord
  2
ByBlock
 70
     0
  3

 72
    65
 73
     0
 40
0.0
  0
LTYPE
  5
5B
330
5
100
AcDbSymbolTableRecord
100
AcDbLinetypeTableRecord
  2
ByLayer
 70
     0
  3

 72
    65
 73
     0
 40
0.0
  0
LTYPE
  5
5C
330
5
100
AcDbSymbolTableRecord
100
AcDbLinetypeTableRecord
  2
Continuous
 70
     0
  3
Solid line
 72
    65
 73
     0
 40
0.0
  0
LTYPE
  5
68
330
5
100
AcDbSymbolTableRecord
100
AcDbLinetypeTableRecord
  2
PHANTOM2
 70
     0
  3
Phantom (.5x) ___ _ _ ___ _ _ ___ _ _ ___ _ _
 72
    65
 73
     6
 40
1.25
 49
0.625
 74
     0
 49
-0.125
 74
     0
 49
0.125
 74
     0
 49
-0.125
 74
     0
 49
0.125
 74
     0
 49
-0.125
 74
     0
  0
LTYPE
  5
19B
330
5
100
AcDbSymbolTableRecord
100
AcDbLinetypeTableRecord
  2
HIDDEN
 70
     0
  3
Hidden __ __ __ __ __ __ __ __ __ __ __ __ __ _
 72
    65
 73
     2
 40
0.375
 49
0.25
 74
     0
 49
-0.125
 74
     0
  0
LTYPE
  5
19C
330
5
100
AcDbSymbolTableRecord
100
AcDbLinetypeTableRecord
  2
CENTER
 70
     0
  3
Center ____ _ ____ _ ____ _ ____ _ ____ _ ____
 72
    65
 73
     4
 40
2.0
 49
1.25
 74
     0
 49
-0.25
 74
     0
 49
0.25
 74
     0
 49
-0.25
 74
     0
  0
LTYPE
  5
1D6
330
5
100
AcDbSymbolTableRecord
100
AcDbLinetypeTableRecord
  2
CENTER2
 70
     0
  3
Center (.5x) ___ _ ___ _ ___ _ ___ _ ___ _ ___
 72
    65
 73
     4
 40
1.125
 49
0.75
 74
     0
 49
-0.125
 74
     0
 49
0.125
 74
     0
 49
-0.125
 74
     0
  0
LTYPE
  5
1D7
330
5
100
AcDbSymbolTableRecord
100
AcDbLinetypeTableRecord
  2
HIDDEN2
 70
     0
  3
Hidden (.5x) _ _ _ _ _ _ _ _ _ _ _ _ _ _ _ _ _
 72
    65
 73
     2
 40
0.1875
 49
0.125
 74
     0
 49
-0.0625
 74
     0
  0
LTYPE
  5
1E5
330
5
100
AcDbSymbolTableRecord
100
AcDbLinetypeTableRecord
  2
ACANSTGB
 70
     0
  3
__ . . __ . .
 72
    65
 73
     6
 40
0.35433070866
 49
0.15748031496
 74
     0
 49
-0.03937007874
 74
     0
 49
0.03937007874
 74
     0
 49
-0.03937007874
 74
     0
 49
0.03937007874
 74
     0
 49
-0.03937007874
 74
     0
  0
LTYPE
  5
1E6
330
5
100
AcDbSymbolTableRecord
100
AcDbLinetypeTableRecord
  2
ACANSTGL
 70
     0
  3
_ _ _ _ _
 72
    65
 73
     2
 40
0.11811023622
 49
0.07874015748
 74
     0
 49
-0.03937007874
 74
     0
  0
ENDTAB
  0
TABLE
  2
LAYER
  5
2
330
0
100
AcDbSymbolTable
 70
     3
  0
LAYER
  5
54
102
{ACAD_XDICTIONARY
360
619
102
}
330
2
100
AcDbSymbolTableRecord
100
AcDbLayerTableRecord
  2
0
 70
     0
 62
     7
  6
Continuous
370
    -3
390
F
  0
LAYER
  5
60D
102
{ACAD_XDICTIONARY
360
61B
102
}
330
2
100
AcDbSymbolTableRecord
100
AcDbLayerTableRecord
  2
AM_CL
 70
     0
 62
     1
  6
Continuous
370
    15
390
F
1001
AcAecLayerStandard
1000

1000

  0
LAYER
  5
6B3
330
2
100
AcDbSymbolTableRecord
100
AcDbLayerTableRecord
  2
AM_5
 70
     0
 62
     3
  6
Continuous
370
    15
390
F
1001
AcAecLayerStandard
1000

1000

  0
ENDTAB
  0
TABLE
  2
STYLE
  5
3
330
0
100
AcDbSymbolTable
 70
     4
  0
STYLE
  5
55
330
3
100
AcDbSymbolTableRecord
100
AcDbTextStyleTableRecord
  2
Standard
 70
     0
 40
0.0
 41
1.0
 50
0.0
 71
     0
 42
0.2
  3
txt
  4

  0
STYLE
  5
59
330
3
100
AcDbSymbolTableRecord
100
AcDbTextStyleTableRecord
  2
Annotative
 70
     0
 40
0.0
 41
1.0
 50
0.0
 71
     0
 42
0.2
  3
txt
  4

1001
AcadAnnotative
1000
AnnotativeData
1002
{
1070
     1
1070
     1
1002
}
  0
STYLE
  5
1E3
330
3
100
AcDbSymbolTableRecord
100
AcDbTextStyleTableRecord
  2
ACANSTS
 70
     0
 40
1.0
 41
1.0
 50
0.0
 71
     0
 42
0.2
  3
romans.shx
  4
extfont.shx
  0
STYLE
  5
1E4
330
3
100
AcDbSymbolTableRecord
100
AcDbTextStyleTableRecord
  2
ACANSGDT
 70
     0
 40
0.0
 41
1.0
 50
0.0
 71
     0
 42
0.2
  3
amgdt.shx
  4

  0
ENDTAB
  0
TABLE
  2
VIEW
  5
6
330
0
100
AcDbSymbolTable
 70
     0
  0
ENDTAB
  0
TABLE
  2
UCS
  5
7
330
0
100
AcDbSymbolTable
 70
     0
  0
ENDTAB
  0
TABLE
  2
APPID
  5
9
330
0
100
AcDbSymbolTable
 70
    15
  0
APPID
  5
56
330
9
100
AcDbSymbolTableRecord
100
AcDbRegAppTableRecord
  2
ACAD
 70
     0
  0
APPID
  5
5D
330
9
100
AcDbSymbolTableRecord
100
AcDbRegAppTableRecord
  2
AcadAnnotative
 70
     0
  0
APPID
  5
194
330
9
100
AcDbSymbolTableRecord
100
AcDbRegAppTableRecord
  2
MCAD_NO_VIS
 70
     0
  0
APPID
  5
195
330
9
100
AcDbSymbolTableRecord
100
AcDbRegAppTableRecord
  2
ACAD_TEMP_GRAPHIC
 70
     0
  0
APPID
  5
1A1
330
9
100
AcDbSymbolTableRecord
100
AcDbRegAppTableRecord
  2
ACATTRIBSERVICES
 70
     0
  0
APPID
  5
1B9
330
9
100
AcDbSymbolTableRecord
100
AcDbRegAppTableRecord
  2
DESIGNERASSEMBLIES
 70
     0
  0
APPID
  5
1D3
330
9
100
AcDbSymbolTableRecord
100
AcDbRegAppTableRecord
  2
ACAD_DSTYLE_DIMJAG
 70
     0
  0
APPID
  5
1D4
330
9
100
AcDbSymbolTableRecord
100
AcDbRegAppTableRecord
  2
ACAD_DSTYLE_DIMBREAK
 70
     0
  0
APPID
  5
1EE
330
9
100
AcDbSymbolTableRecord
100
AcDbRegAppTableRecord
  2
ACAD_NAV_VCDISPLAY
 70
     0
  0
APPID
  5
60E
330
9
100
AcDbSymbolTableRecord
100
AcDbRegAppTableRecord
  2
AcAecLayerStandard
 70
     0
  0
APPID
  5
65F
330
9
100
AcDbSymbolTableRecord
100
AcDbRegAppTableRecord
  2
ACAD_MLEADERVER
 70
     0
  0
APPID
  5
664
330
9
100
AcDbSymbolTableRecord
100
AcDbRegAppTableRecord
  2
ACAD_DSTYLE_DIMARC_LENGTH_SYMBOL
 70
     0
  0
APPID
  5
665
330
9
100
AcDbSymbolTableRecord
100
AcDbRegAppTableRecord
  2
ACAD_DSTYLE_DIM_LINETYPE
 70
     0
  0
APPID
  5
666
330
9
100
AcDbSymbolTableRecord
100
AcDbRegAppTableRecord
  2
ACAD_DSTYLE_DIM_EXT1_LINETYPE
 70
     0
  0
APPID
  5
667
330
9
100
AcDbSymbolTableRecord
100
AcDbRegAppTableRecord
  2
ACAD_DSTYLE_DIM_EXT2_LINETYPE
 70
     0
  0
ENDTAB
  0
TABLE
  2
DIMSTYLE
  5
A
330
0
100
AcDbSymbolTable
 70
     8
100
AcDbDimStyleTable
 71
     0
  0
DIMSTYLE
105
57
330
A
100
AcDbSymbolTableRecord
100
AcDbDimStyleTableRecord
  2
Standard
 70
     0
340
55
  0
DIMSTYLE
105
58
330
A
100
AcDbSymbolTableRecord
100
AcDbDimStyleTableRecord
  2
Annotative
 70
     0
340
55
1001
AcadAnnotative
1000
AnnotativeData
1002
{
1070
     1
1070
     1
1002
}
  0
DIMSTYLE
105
1D2
102
{ACAD_REACTORS
330
699
102
}
330
A
100
AcDbSymbolTableRecord
100
AcDbDimStyleTableRecord
  2
AM_ANSI
 70
     0
  4
mm
 41
0.12
 42
0.05
 43
0.5
 44
0.1
 47
0.1
 48
0.1
 78
     7
 79
     2
140
0.12
141
0.0
146
0.71
147
0.06
176
   256
177
   256
178
     2
274
     4
284
     7
340
55
371
    -1
372
    -1
1001
ACAD_DSTYLE_DIMJAG
1070
   388
1040
1.5
1001
ACAD_DSTYLE_DIMBREAK
1070
   391
1040
0.125
1001
ACAD_DSTYLE_DIMARC_LENGTH_SYMBOL
1070
   379
1070
     1
1001
ACAD_DSTYLE_DIM_LINETYPE
1070
   380
1005
5A
1001
ACAD_DSTYLE_DIM_EXT1_LINETYPE
1070
   381
1005
5A
1001
ACAD_DSTYLE_DIM_EXT2_LINETYPE
1070
   382
1005
5A
  0
DIMSTYLE
105
1D8
330
A
100
AcDbSymbolTableRecord
100
AcDbDimStyleTableRecord
  2
AM_ANSI$3
 70
     0
  4
mm
 41
0.12
 42
0.05
 43
0.5
 44
0.1
 47
0.1
 48
0.1
 78
     7
 79
     2
140
0.12
141
0.0
146
0.71
147
0.06
176
   256
177
   256
178
     2
274
     4
284
     7
288
     1
289
     0
340
55
371
    -1
372
    -1
1001
ACAD_DSTYLE_DIMBREAK
1070
   391
1040
0.125
1001
ACAD_DSTYLE_DIMJAG
1070
   388
1040
1.5
1001
ACAD_DSTYLE_DIMARC_LENGTH_SYMBOL
1070
   379
1070
     1
1001
ACAD_DSTYLE_DIM_LINETYPE
1070
   380
1005
5A
1001
ACAD_DSTYLE_DIM_EXT1_LINETYPE
1070
   381
1005
5A
1001
ACAD_DSTYLE_DIM_EXT2_LINETYPE
1070
   382
1005
5A
  0
DIMSTYLE
105
1D9
330
A
100
AcDbSymbolTableRecord
100
AcDbDimStyleTableRecord
  2
AM_ANSI$4
 70
     0
  4
mm
 41
0.12
 42
0.05
 43
0.5
 44
0.1
 47
0.1
 48
0.1
 78
     7
 79
     2
140
0.12
141
0.0
146
0.71
147
0.06
176
   256
177
   256
178
     2
274
     4
284
     7
288
     1
289
     0
340
55
371
    -1
372
    -1
1001
ACAD_DSTYLE_DIMBREAK
1070
   391
1040
0.125
1001
ACAD_DSTYLE_DIMJAG
1070
   388
1040
1.5
1001
ACAD_DSTYLE_DIMARC_LENGTH_SYMBOL
1070
   379
1070
     1
1001
ACAD_DSTYLE_DIM_LINETYPE
1070
   380
1005
5A
1001
ACAD_DSTYLE_DIM_EXT1_LINETYPE
1070
   381
1005
5A
1001
ACAD_DSTYLE_DIM_EXT2_LINETYPE
1070
   382
1005
5A
  0
DIMSTYLE
105
1DA
330
A
100
AcDbSymbolTableRecord
100
AcDbDimStyleTableRecord
  2
AM_ANSI$7
 70
     0
  4
mm
 41
0.12
 42
0.05
 43
0.5
 44
0.1
 47
0.1
 48
0.1
 78
     7
 79
     2
140
0.12
141
0.0
146
0.71
147
0.06
176
   256
177
   256
178
     2
274
     4
284
     7
340
55
371
    -1
372
    -1
1001
ACAD_DSTYLE_DIMBREAK
1070
   391
1040
0.125
1001
ACAD_DSTYLE_DIMJAG
1070
   388
1040
1.5
1001
ACAD_DSTYLE_DIMARC_LENGTH_SYMBOL
1070
   379
1070
     1
1001
ACAD_DSTYLE_DIM_LINETYPE
1070
   380
1005
5A
1001
ACAD_DSTYLE_DIM_EXT1_LINETYPE
1070
   381
1005
5A
1001
ACAD_DSTYLE_DIM_EXT2_LINETYPE
1070
   382
1005
5A
  0
DIMSTYLE
105
1DB
330
A
100
AcDbSymbolTableRecord
100
AcDbDimStyleTableRecord
  2
AM_ANSI$SF
 70
     0
  4
mm
 41
0.12
 42
0.05
 43
0.5
 44
0.1
 47
0.1
 48
0.1
 75
     1
 76
     1
 78
     7
 79
     2
140
0.12
141
0.0
146
0.71
147
0.06
176
   256
177
   256
178
     2
274
     4
284
     7
340
55
371
    -1
372
    -1
1001
ACAD_DSTYLE_DIMBREAK
1070
   391
1040
0.125
1001
ACAD_DSTYLE_DIMJAG
1070
   388
1040
1.5
1001
ACAD_DSTYLE_DIMARC_LENGTH_SYMBOL
1070
   379
1070
     1
1001
ACAD_DSTYLE_DIM_LINETYPE
1070
   380
1005
5A
1001
ACAD_DSTYLE_DIM_EXT1_LINETYPE
1070
   381
1005
5A
1001
ACAD_DSTYLE_DIM_EXT2_LINETYPE
1070
   382
1005
5A
  0
DIMSTYLE
105
1E0
330
A
100
AcDbSymbolTableRecord
100
AcDbDimStyleTableRecord
  2
AM_ANSI$SH
 70
     0
  4
mm
 41
0.12
 42
0.05
 43
0.5
 44
0.1
 47
0.1
 48
0.1
 75
     1
 76
     1
 78
     7
 79
     2
140
0.12
141
0.0
146
0.71
147
0.06
173
     1
176
   256
177
   256
178
     2
274
     4
284
     7
340
55
343
1DC
371
    -1
372
    -1
1001
ACAD_DSTYLE_DIMBREAK
1070
   391
1040
0.125
1001
ACAD_DSTYLE_DIMJAG
1070
   388
1040
1.5
1001
ACAD_DSTYLE_DIMARC_LENGTH_SYMBOL
1070
   379
1070
     1
1001
ACAD_DSTYLE_DIM_LINETYPE
1070
   380
1005
5A
1001
ACAD_DSTYLE_DIM_EXT1_LINETYPE
1070
   381
1005
5A
1001
ACAD_DSTYLE_DIM_EXT2_LINETYPE
1070
   382
1005
5A
  0
ENDTAB
  0
TABLE
  2
BLOCK_RECORD
  5
1
330
0
100
AcDbSymbolTable
 70
     2
  0
BLOCK_RECORD
  5
70
102
{ACAD_XDICTIONARY
360
610
102
}
330
1
100
AcDbSymbolTableRecord
100
AcDbBlockTableRecord
  2
*Model_Space
340
73
  0
BLOCK_RECORD
  5
6C
330
1
100
AcDbSymbolTableRecord
100
AcDbBlockTableRecord
  2
*Paper_Space
340
6F
  0
BLOCK_RECORD
  5
1DC
330
1
100
AcDbSymbolTableRecord
100
AcDbBlockTableRecord
  2
GENAXEH
340
0
  0
ENDTAB
  0
ENDSEC
  0
SECTION
  2
BLOCKS
  0
BLOCK
  5
71
330
70
100
AcDbEntity
  8
0
100
AcDbBlockBegin
  2
*Model_Space
 70
     0
 10
0.0
 20
0.0
 30
0.0
  3
*Model_Space
  1

  0
ENDBLK
  5
72
330
70
100
AcDbEntity
  8
0
100
AcDbBlockEnd
  0
BLOCK
  5
6D
330
6C
100
AcDbEntity
 67
     1
  8
0
100
AcDbBlockBegin
  2
*Paper_Space
 70
     0
 10
0.0
 20
0.0
 30
0.0
  3
*Paper_Space
  1

  0
ENDBLK
  5
6E
330
6C
100
AcDbEntity
 67
     1
  8
0
100
AcDbBlockEnd
  0
BLOCK
  5
1DE
330
1DC
100
AcDbEntity
  8
0
100
AcDbBlockBegin
  2
GENAXEH
 70
     0
 10
0.0
 20
0.0
 30
0.0
  3
GENAXEH
  1

  0
LINE
  5
1DD
330
1DC
100
AcDbEntity
  8
0
100
AcDbLine
 10
-1.0
 20
0.0
 30
0.0
 11
1.0
 21
0.0
 31
0.0
  0
ENDBLK
  5
1DF
330
1DC
100
AcDbEntity
  8
0
100
AcDbBlockEnd
  0
ENDSEC
  0
SECTION
  2
ENTITIES
  0
LINE
  5
76
330
70
100
AcDbEntity
  8
0
  6
Continuous
100
AcDbLine
 10
249.0811728390837
 20
-183.5829068418243
 30
0.0
 11
249.4281728390837
 21
-183.5829068418243
 31
0.0
  0
LINE
  5
77
330
70
100
AcDbEntity
  8
0
  6
Continuous
100
AcDbLine
 10
249.4301728390837
 20
-172.2069068418243
 30
0.0
 11
249.0821728390837
 21
-172.2069068418243
 31
0.0
  0
LINE
  5
78
330
70
100
AcDbEntity
  8
0
  6
Continuous
100
AcDbLine
 10
134.4211728390837
 20
-183.5829068418243
 30
0.0
 11
134.8931728390837
 21
-183.5829068418243
 31
0.0
  0
LINE
  5
79
330
70
100
AcDbEntity
  8
0
  6
Continuous
100
AcDbLine
 10
134.8911728390837
 20
-172.1889068418243
 30
0.0
 11
134.4201728390837
 21
-172.1879068418243
 31
0.0
  0
LINE
  5
7A
330
70
100
AcDbEntity
  8
0
  6
Continuous
100
AcDbLine
 10
250.5461728390837
 20
-171.9839068418243
 30
0.0
 11
249.4301728390837
 21
-172.2069068418243
 31
0.0
  0
LINE
  5
7B
330
70
100
AcDbEntity
  8
0
  6
Continuous
100
AcDbLine
 10
249.4291728390837
 20
-183.5429068418243
 30
0.0
 11
251.5251728390837
 21
-183.3569068418243
 31
0.0
  0
LINE
  5
7C
330
70
100
AcDbEntity
  8
0
  6
Continuous
100
AcDbLine
 10
249.4291728390837
 20
-176.1059068418244
 30
0.0
 11
251.6771728390837
 21
-175.9129068418243
 31
0.0
  0
LINE
  5
7D
330
70
100
AcDbEntity
  8
0
  6
Continuous
100
AcDbLine
 10
251.5081728390837
 20
-171.4949068418243
 30
0.0
 11
250.5461728390837
 21
-171.9839068418243
 31
0.0
  0
LINE
  5
7E
330
70
100
AcDbEntity
  8
0
  6
Continuous
100
AcDbLine
 10
251.5251728390837
 20
-183.3569068418243
 30
0.0
 11
253.5941728390837
 21
-182.6389068418244
 31
0.0
  0
LINE
  5
7F
330
70
100
AcDbEntity
  8
0
  6
Continuous
100
AcDbLine
 10
251.6771728390837
 20
-175.9129068418243
 30
0.0
 11
253.4741728390837
 21
-175.2049068418243
 31
0.0
  0
LINE
  5
80
330
70
100
AcDbEntity
  8
0
  6
Continuous
100
AcDbLine
 10
251.7801728390837
 20
-171.1129068418243
 30
0.0
 11
251.2571728390837
 21
-171.6909068418243
 31
0.0
  0
LINE
  5
81
330
70
100
AcDbEntity
  8
0
  6
Continuous
100
AcDbLine
 10
256.0231728390837
 20
-181.0749068418243
 30
0.0
 11
256.2021728390837
 21
-180.8899068418243
 31
0.0
  0
LINE
  5
82
330
70
100
AcDbEntity
  8
0
  6
Continuous
100
AcDbLine
 10
253.5941728390837
 20
-182.6389068418244
 30
0.0
 11
256.0231728390837
 21
-181.0749068418243
 31
0.0
  0
LINE
  5
83
330
70
100
AcDbEntity
  8
0
  6
Continuous
100
AcDbLine
 10
253.4741728390837
 20
-175.2049068418243
 30
0.0
 11
255.9951728390837
 21
-173.6639068418243
 31
0.0
  0
LINE
  5
84
330
70
100
AcDbEntity
  8
0
  6
Continuous
100
AcDbLine
 10
256.2021728390837
 20
-180.8899068418243
 30
0.0
 11
258.1921728390837
 21
-178.5259068418243
 31
0.0
  0
LINE
  5
85
330
70
100
AcDbEntity
  8
0
  6
Continuous
100
AcDbLine
 10
252.0561728390837
 20
-170.5779068418243
 30
0.0
 11
251.7801728390837
 21
-171.1129068418243
 31
0.0
  0
LINE
  5
86
330
70
100
AcDbEntity
  8
0
  6
Continuous
100
AcDbLine
 10
255.9951728390837
 20
-173.6639068418243
 30
0.0
 11
257.9701728390837
 21
-171.2949068418244
 31
0.0
  0
LINE
  5
87
330
70
100
AcDbEntity
  8
0
  6
Continuous
100
AcDbLine
 10
259.1091728390837
 20
-175.6719068418243
 30
0.0
 11
259.1231728390837
 21
-175.4839068418243
 31
0.0
  0
LINE
  5
88
330
70
100
AcDbEntity
  8
0
  6
Continuous
100
AcDbLine
 10
258.1921728390837
 20
-178.5259068418243
 30
0.0
 11
259.1091728390837
 21
-175.6719068418243
 31
0.0
  0
LINE
  5
89
330
70
100
AcDbEntity
  8
0
  6
Continuous
100
AcDbLine
 10
257.9701728390837
 20
-171.2949068418244
 30
0.0
 11
258.7691728390837
 21
-168.6069068418243
 31
0.0
  0
LINE
  5
8A
330
70
100
AcDbEntity
  8
0
  6
Continuous
100
AcDbLine
 10
252.0751728390837
 20
-169.3939068418243
 30
0.0
 11
251.9821728390837
 21
-170.4989068418244
 31
0.0
  0
LINE
  5
8B
330
70
100
AcDbEntity
  8
0
  6
Continuous
100
AcDbLine
 10
252.2651728390837
 20
-168.6939068418243
 30
0.0
 11
252.0751728390837
 21
-169.3939068418243
 31
0.0
  0
LINE
  5
8C
330
70
100
AcDbEntity
  8
0
  6
Continuous
100
AcDbLine
 10
259.4181728390837
 20
-170.9409068418243
 30
0.0
 11
259.4221728390837
 21
-169.9619068418243
 31
0.0
  0
LINE
  5
8D
330
70
100
AcDbEntity
  8
0
  6
Continuous
100
AcDbLine
 10
258.7691728390837
 20
-168.6069068418243
 30
0.0
 11
258.9251728390837
 21
-166.8559068418244
 31
0.0
  0
LINE
  5
8E
330
70
100
AcDbEntity
  8
0
  6
Continuous
100
AcDbLine
 10
252.6141728390837
 20
-167.5119068418243
 30
0.0
 11
252.2881728390837
 21
-168.6109068418244
 31
0.0
  0
LINE
  5
8F
330
70
100
AcDbEntity
  8
0
  6
Continuous
100
AcDbLine
 10
259.4221728390837
 20
-169.9619068418243
 30
0.0
 11
259.4201728390837
 21
-168.7779068418244
 31
0.0
  0
LINE
  5
90
330
70
100
AcDbEntity
  8
0
  6
Continuous
100
AcDbLine
 10
258.9251728390837
 20
-166.8559068418244
 30
0.0
 11
258.9511728390837
 21
-165.7719068418243
 31
0.0
  0
LINE
  5
91
330
70
100
AcDbEntity
  8
0
  6
Continuous
100
AcDbLine
 10
255.4671728390837
 20
-164.6089068418243
 30
0.0
 11
254.6201728390837
 21
-165.1729068418243
 31
0.0
  0
LINE
  5
92
330
70
100
AcDbEntity
  8
0
  6
Continuous
100
AcDbLine
 10
256.3411728390837
 20
-164.2469068418243
 30
0.0
 11
255.4671728390837
 21
-164.6089068418243
 31
0.0
  0
LINE
  5
93
330
70
100
AcDbEntity
  8
0
  6
Continuous
100
AcDbLine
 10
253.4431728390837
 20
-166.3679068418244
 30
0.0
 11
252.6141728390837
 21
-167.5119068418243
 31
0.0
  0
LINE
  5
94
330
70
100
AcDbEntity
  8
0
  6
Continuous
100
AcDbLine
 10
253.8711728390837
 20
-165.7179068418243
 30
0.0
 11
253.1551728390837
 21
-166.7779068418244
 31
0.0
  0
LINE
  5
95
330
70
100
AcDbEntity
  8
0
  6
Continuous
100
AcDbLine
 10
254.6201728390837
 20
-165.1729068418243
 30
0.0
 11
253.8711728390837
 21
-165.7179068418243
 31
0.0
  0
LINE
  5
96
330
70
100
AcDbEntity
  8
0
  6
Continuous
100
AcDbLine
 10
259.4201728390837
 20
-168.7779068418244
 30
0.0
 11
259.4151728390837
 21
-167.8769068418243
 31
0.0
  0
LINE
  5
97
330
70
100
AcDbEntity
  8
0
  6
Continuous
100
AcDbLine
 10
258.9511728390837
 20
-165.7719068418243
 30
0.0
 11
258.9691728390838
 21
-164.8029068418243
 31
0.0
  0
LINE
  5
98
330
70
100
AcDbEntity
  8
0
  6
Continuous
100
AcDbLine
 10
257.5791728390838
 20
-164.0539068418243
 30
0.0
 11
257.3931728390837
 21
-164.0619068418244
 31
0.0
  0
LINE
  5
99
330
70
100
AcDbEntity
  8
0
  6
Continuous
100
AcDbLine
 10
259.2801728390837
 20
-164.9609068418243
 30
0.0
 11
258.9831728390838
 21
-164.3489068418243
 31
0.0
  0
LINE
  5
9A
330
70
100
AcDbEntity
  8
0
  6
Continuous
100
AcDbLine
 10
257.3931728390837
 20
-164.0619068418244
 30
0.0
 11
256.3411728390837
 21
-164.2469068418243
 31
0.0
  0
LINE
  5
9B
330
70
100
AcDbEntity
  8
0
  6
Continuous
100
AcDbLine
 10
259.4241728390837
 20
-166.5759068418243
 30
0.0
 11
259.3721728390837
 21
-165.8029068418243
 31
0.0
  0
LINE
  5
9C
330
70
100
AcDbEntity
  8
0
  6
Continuous
100
AcDbLine
 10
259.4151728390837
 20
-167.8769068418243
 30
0.0
 11
259.4241728390837
 21
-166.5759068418243
 31
0.0
  0
LINE
  5
9D
330
70
100
AcDbEntity
  8
0
  6
Continuous
100
AcDbLine
 10
258.9831728390838
 20
-164.3489068418243
 30
0.0
 11
258.3211728390837
 21
-164.0239068418243
 31
0.0
  0
LINE
  5
9E
330
70
100
AcDbEntity
  8
0
  6
Continuous
100
AcDbLine
 10
258.9691728390838
 20
-164.8029068418243
 30
0.0
 11
258.9831728390838
 21
-164.3489068418243
 31
0.0
  0
LINE
  5
9F
330
70
100
AcDbEntity
  8
0
  6
Continuous
100
AcDbLine
 10
259.3171728390837
 20
-165.1279068418243
 30
0.0
 11
259.2801728390837
 21
-164.9609068418243
 31
0.0
  0
LINE
  5
A0
330
70
100
AcDbEntity
  8
0
  6
Continuous
100
AcDbLine
 10
259.3231728390837
 20
-165.1999068418243
 30
0.0
 11
259.3171728390837
 21
-165.1279068418243
 31
0.0
  0
LINE
  5
A1
330
70
100
AcDbEntity
  8
0
  6
Continuous
100
AcDbLine
 10
134.4201728390837
 20
-172.1879068418243
 30
0.0
 11
133.3621728390837
 21
-172.0229068418243
 31
0.0
  0
LINE
  5
A2
330
70
100
AcDbEntity
  8
0
  6
Continuous
100
AcDbLine
 10
133.2711728390837
 20
-183.4799068418243
 30
0.0
 11
134.4211728390837
 21
-183.5429068418243
 31
0.0
  0
LINE
  5
A3
330
70
100
AcDbEntity
  8
0
  6
Continuous
100
AcDbLine
 10
133.2711728390837
 20
-176.0889068418243
 30
0.0
 11
134.4211728390837
 21
-176.1059068418244
 31
0.0
  0
LINE
  5
A4
330
70
100
AcDbEntity
  8
0
  6
Continuous
100
AcDbLine
 10
133.3621728390837
 20
-172.0229068418243
 30
0.0
 11
132.6761728390837
 21
-171.7119068418243
 31
0.0
  0
LINE
  5
A5
330
70
100
AcDbEntity
  8
0
  6
Continuous
100
AcDbLine
 10
130.8711728390837
 20
-182.8499068418244
 30
0.0
 11
133.2711728390837
 21
-183.4799068418243
 31
0.0
  0
LINE
  5
A6
330
70
100
AcDbEntity
  8
0
  6
Continuous
100
AcDbLine
 10
130.8671728390837
 20
-175.4139068418244
 30
0.0
 11
133.2711728390837
 21
-176.0889068418243
 31
0.0
  0
LINE
  5
A7
330
70
100
AcDbEntity
  8
0
  6
Continuous
100
AcDbLine
 10
132.6761728390837
 20
-171.7119068418243
 30
0.0
 11
132.0651728390837
 21
-171.2789068418243
 31
0.0
  0
LINE
  5
A8
330
70
100
AcDbEntity
  8
0
  6
Continuous
100
AcDbLine
 10
128.7481728390837
 20
-181.7709068418244
 30
0.0
 11
130.8711728390837
 21
-182.8499068418244
 31
0.0
  0
LINE
  5
A9
330
70
100
AcDbEntity
  8
0
  6
Continuous
100
AcDbLine
 10
128.5561728390837
 20
-181.6259068418243
 30
0.0
 11
128.7481728390837
 21
-181.7709068418244
 31
0.0
  0
LINE
  5
AA
330
70
100
AcDbEntity
  8
0
  6
Continuous
100
AcDbLine
 10
128.7561728390837
 20
-174.2429068418243
 30
0.0
 11
130.8671728390837
 21
-175.4139068418244
 31
0.0
  0
LINE
  5
AB
330
70
100
AcDbEntity
  8
0
  6
Continuous
100
AcDbLine
 10
126.7861728390837
 20
-180.1619068418243
 30
0.0
 11
128.5561728390837
 21
-181.6259068418243
 31
0.0
  0
LINE
  5
AC
330
70
100
AcDbEntity
  8
0
  6
Continuous
100
AcDbLine
 10
132.4301728390837
 20
-171.5799068418244
 30
0.0
 11
132.0361728390837
 21
-171.0739068418243
 31
0.0
  0
LINE
  5
AD
330
70
100
AcDbEntity
  8
0
  6
Continuous
100
AcDbLine
 10
127.0511728390837
 20
-172.8659068418243
 30
0.0
 11
128.7561728390837
 21
-174.2429068418243
 31
0.0
  0
LINE
  5
AE
330
70
100
AcDbEntity
  8
0
  6
Continuous
100
AcDbLine
 10
125.4221728390837
 20
-178.0839068418243
 30
0.0
 11
126.7861728390837
 21
-180.1619068418243
 31
0.0
  0
LINE
  5
AF
330
70
100
AcDbEntity
  8
0
  6
Continuous
100
AcDbLine
 10
132.0361728390837
 20
-171.0739068418243
 30
0.0
 11
131.7401728390837
 21
-170.3799068418244
 31
0.0
  0
LINE
  5
B0
330
70
100
AcDbEntity
  8
0
  6
Continuous
100
AcDbLine
 10
124.5431728390837
 20
-172.5649068418243
 30
0.0
 11
124.6701728390837
 21
-174.2679068418243
 31
0.0
  0
LINE
  5
B1
330
70
100
AcDbEntity
  8
0
  6
Continuous
100
AcDbLine
 10
125.7001728390837
 20
-170.7279068418243
 30
0.0
 11
127.0511728390837
 21
-172.8659068418243
 31
0.0
  0
LINE
  5
B2
330
70
100
AcDbEntity
  8
0
  6
Continuous
100
AcDbLine
 10
124.7631728390837
 20
-175.9729068418243
 30
0.0
 11
125.4221728390837
 21
-178.0839068418243
 31
0.0
  0
LINE
  5
B3
330
70
100
AcDbEntity
  8
0
  6
Continuous
100
AcDbLine
 10
125.1071728390837
 20
-168.6979068418243
 30
0.0
 11
125.7001728390837
 21
-170.7279068418243
 31
0.0
  0
LINE
  5
B4
330
70
100
AcDbEntity
  8
0
  6
Continuous
100
AcDbLine
 10
124.5861728390837
 20
-173.9749068418243
 30
0.0
 11
124.7631728390837
 21
-175.9729068418243
 31
0.0
  0
LINE
  5
B5
330
70
100
AcDbEntity
  8
0
  6
Continuous
100
AcDbLine
 10
125.0441728390837
 20
-166.7409068418243
 30
0.0
 11
125.1071728390837
 21
-168.6979068418243
 31
0.0
  0
LINE
  5
B6
330
70
100
AcDbEntity
  8
0
  6
Continuous
100
AcDbLine
 10
259.3151728390838
 20
-172.6419068418244
 30
0.0
 11
259.4181728390837
 21
-170.9409068418243
 31
0.0
  0
LINE
  5
B7
330
70
100
AcDbEntity
  8
0
  6
Continuous
100
AcDbLine
 10
259.2361728390837
 20
-173.9589068418243
 30
0.0
 11
259.3151728390838
 21
-172.6419068418244
 31
0.0
  0
LINE
  5
B8
330
70
100
AcDbEntity
  8
0
  6
Continuous
100
AcDbLine
 10
249.4281728390837
 20
-183.5829068418243
 30
0.0
 11
251.5121728390837
 21
-183.2499068418243
 31
0.0
  0
LINE
  5
B9
330
70
100
AcDbEntity
  8
0
  6
Continuous
100
AcDbLine
 10
124.5861728390837
 20
-170.5319068418243
 30
0.0
 11
124.5431728390837
 21
-172.5649068418243
 31
0.0
  0
LINE
  5
BA
330
70
100
AcDbEntity
  8
0
  6
Continuous
100
AcDbLine
 10
252.9251728390837
 20
-119.6709068418243
 30
0.0
 11
254.8571728390837
 21
-119.4209068418243
 31
0.0
  0
LINE
  5
BB
330
70
100
AcDbEntity
  8
0
  6
Continuous
100
AcDbLine
 10
256.1901728390838
 20
-108.5909068418243
 30
0.0
 11
254.5421728390837
 21
-108.2719068418243
 31
0.0
  0
LINE
  5
BC
330
70
100
AcDbEntity
  8
0
  6
Continuous
100
AcDbLine
 10
254.8571728390837
 20
-119.4209068418243
 30
0.0
 11
256.6541728390837
 21
-118.6029068418243
 31
0.0
  0
LINE
  5
BD
330
70
100
AcDbEntity
  8
0
  6
Continuous
100
AcDbLine
 10
257.5711728390837
 20
-109.1149068418243
 30
0.0
 11
256.1901728390838
 21
-108.5909068418243
 31
0.0
  0
LINE
  5
BE
330
70
100
AcDbEntity
  8
0
  6
Continuous
100
AcDbLine
 10
256.6541728390837
 20
-118.6029068418243
 30
0.0
 11
257.9571728390837
 21
-117.4099068418243
 31
0.0
  0
LINE
  5
BF
330
70
100
AcDbEntity
  8
0
  6
Continuous
100
AcDbLine
 10
258.5241728390837
 20
-109.8419068418244
 30
0.0
 11
257.5711728390837
 21
-109.1149068418243
 31
0.0
  0
LINE
  5
C0
330
70
100
AcDbEntity
  8
0
  6
Continuous
100
AcDbLine
 10
257.9571728390837
 20
-117.4099068418243
 30
0.0
 11
258.6781728390837
 21
-116.3219068418243
 31
0.0
  0
LINE
  5
C1
330
70
100
AcDbEntity
  8
0
  6
Continuous
100
AcDbLine
 10
136.1861728390837
 20
-108.1649068418244
 30
0.0
 11
133.1121728390837
 21
-108.2209068418243
 31
0.0
  0
LINE
  5
C2
330
70
100
AcDbEntity
  8
0
  6
Continuous
100
AcDbLine
 10
133.1121728390837
 20
-108.2209068418243
 30
0.0
 11
130.7111728390837
 21
-108.8479068418243
 31
0.0
  0
LINE
  5
C3
330
70
100
AcDbEntity
  8
0
  6
Continuous
100
AcDbLine
 10
259.4171728390837
 20
-112.3249068418243
 30
0.0
 11
259.2891728390837
 21
-111.2069068418243
 31
0.0
  0
LINE
  5
C4
330
70
100
AcDbEntity
  8
0
  6
Continuous
100
AcDbLine
 10
259.4161728390838
 20
-112.3779068418244
 30
0.0
 11
259.4171728390837
 21
-112.3249068418243
 31
0.0
  0
LINE
  5
C5
330
70
100
AcDbEntity
  8
0
  6
Continuous
100
AcDbLine
 10
130.7111728390837
 20
-108.8479068418243
 30
0.0
 11
128.5891728390837
 21
-109.9299068418243
 31
0.0
  0
LINE
  5
C6
330
70
100
AcDbEntity
  8
0
  6
Continuous
100
AcDbLine
 10
128.5891728390837
 20
-109.9299068418243
 30
0.0
 11
128.3971728390837
 21
-110.0749068418243
 31
0.0
  0
LINE
  5
C7
330
70
100
AcDbEntity
  8
0
  6
Continuous
100
AcDbLine
 10
126.8651728390837
 20
-111.3749068418243
 30
0.0
 11
128.5891728390837
 21
-109.9299068418243
 31
0.0
  0
LINE
  5
C8
330
70
100
AcDbEntity
  8
0
  6
Continuous
100
AcDbLine
 10
128.3971728390837
 20
-110.0749068418243
 30
0.0
 11
126.6191728390837
 21
-111.5349068418244
 31
0.0
  0
LINE
  5
C9
330
70
100
AcDbEntity
  8
0
  6
Continuous
100
AcDbLine
 10
125.5381728390837
 20
-113.3889068418243
 30
0.0
 11
126.8651728390837
 21
-111.3749068418243
 31
0.0
  0
LINE
  5
CA
330
70
100
AcDbEntity
  8
0
  6
Continuous
100
AcDbLine
 10
126.6191728390837
 20
-111.5349068418244
 30
0.0
 11
125.2521728390837
 21
-113.6139068418243
 31
0.0
  0
LINE
  5
CB
330
70
100
AcDbEntity
  8
0
  6
Continuous
100
AcDbLine
 10
124.9401728390837
 20
-115.3999068418243
 30
0.0
 11
125.5381728390837
 21
-113.3889068418243
 31
0.0
  0
LINE
  5
CC
330
70
100
AcDbEntity
  8
0
  6
Continuous
100
AcDbLine
 10
125.2521728390837
 20
-113.6139068418243
 30
0.0
 11
124.5921728390837
 21
-115.7279068418243
 31
0.0
  0
LINE
  5
CD
330
70
100
AcDbEntity
  8
0
  6
Continuous
100
AcDbLine
 10
124.7001728390837
 20
-117.2599068418243
 30
0.0
 11
124.9401728390837
 21
-115.3999068418243
 31
0.0
  0
LINE
  5
CE
330
70
100
AcDbEntity
  8
0
  6
Continuous
100
AcDbLine
 10
124.5921728390837
 20
-115.7279068418243
 30
0.0
 11
124.4691728390837
 21
-117.7259068418244
 31
0.0
  0
LINE
  5
CF
330
70
100
AcDbEntity
  8
0
  6
Continuous
100
AcDbLine
 10
251.0251728390837
 20
-108.2199068418243
 30
0.0
 11
249.7831728390837
 21
-108.2159068418243
 31
0.0
  0
LINE
  5
D0
330
70
100
AcDbEntity
  8
0
  6
Continuous
100
AcDbLine
 10
124.4691728390837
 20
-121.1689068418243
 30
0.0
 11
124.4681728390837
 21
-122.8839068418243
 31
0.0
  0
LINE
  5
D1
330
70
100
AcDbEntity
  8
0
  6
Continuous
100
AcDbLine
 10
259.1061728390837
 20
-115.1949068418243
 30
0.0
 11
259.2101728390837
 21
-114.7679068418243
 31
0.0
  0
LINE
  5
D2
330
70
100
AcDbEntity
  8
0
  6
Continuous
100
AcDbLine
 10
124.7001728390837
 20
-117.2599068418243
 30
0.0
 11
124.7071728390837
 21
-117.6059068418243
 31
0.0
  0
LINE
  5
D3
330
70
100
AcDbEntity
  8
0
  6
Continuous
100
AcDbLine
 10
258.6781728390837
 20
-116.3219068418243
 30
0.0
 11
258.7061728390837
 21
-116.2299068418243
 31
0.0
  0
LINE
  5
D4
330
70
100
AcDbEntity
  8
0
  6
Continuous
100
AcDbLine
 10
258.9591728390837
 20
-110.6209068418243
 30
0.0
 11
258.5701728390837
 21
-109.9249068418243
 31
0.0
  0
LINE
  5
D5
330
70
100
AcDbEntity
  8
0
  6
Continuous
100
AcDbLine
 10
259.2891728390837
 20
-111.2069068418243
 30
0.0
 11
258.9591728390837
 21
-110.6209068418243
 31
0.0
  0
LINE
  5
D6
330
70
100
AcDbEntity
  8
0
  6
Continuous
100
AcDbLine
 10
247.3631728390837
 20
-108.2099068418243
 30
0.0
 11
247.0571728390837
 21
-108.2019068418243
 31
0.0
  0
LINE
  5
D7
330
70
100
AcDbEntity
  8
0
  6
Continuous
100
AcDbLine
 10
124.4681728390837
 20
-122.8839068418243
 30
0.0
 11
124.4681728390837
 21
-124.3999068418243
 31
0.0
  0
LINE
  5
D8
330
70
100
AcDbEntity
  8
0
  6
Continuous
100
AcDbLine
 10
259.3151728390838
 20
-114.0429068418243
 30
0.0
 11
259.4071728390837
 21
-112.9929068418243
 31
0.0
  0
LINE
  5
D9
330
70
100
AcDbEntity
  8
0
  6
Continuous
100
AcDbLine
 10
259.2101728390837
 20
-114.7679068418243
 30
0.0
 11
259.3151728390838
 21
-114.0429068418243
 31
0.0
  0
LINE
  5
DA
330
70
100
AcDbEntity
  8
0
  6
Continuous
100
AcDbLine
 10
124.4691728390837
 20
-119.4539068418243
 30
0.0
 11
124.4691728390837
 21
-121.1689068418243
 31
0.0
  0
LINE
  5
DB
330
70
100
AcDbEntity
  8
0
  6
Continuous
100
AcDbLine
 10
124.7071728390837
 20
-117.6059068418243
 30
0.0
 11
125.0421728390837
 21
-166.3599068418244
 31
0.0
  0
LINE
  5
DC
330
70
100
AcDbEntity
  8
0
  6
Continuous
100
AcDbLine
 10
124.4691728390837
 20
-124.9319068418244
 30
0.0
 11
124.5851728390837
 21
-173.5949068418243
 31
0.0
  0
LINE
  5
DD
330
70
100
AcDbEntity
  8
0
  6
Continuous
100
AcDbLine
 10
131.9221728390837
 20
-170.4299068418244
 30
0.0
 11
131.9621728390837
 21
-159.6549068418243
 31
0.0
  0
LINE
  5
DE
330
70
100
AcDbEntity
  8
0
  6
Continuous
100
AcDbLine
 10
249.7831728390837
 20
-108.2159068418243
 30
0.0
 11
248.5321728390837
 21
-108.2139068418243
 31
0.0
  0
LINE
  5
DF
330
70
100
AcDbEntity
  8
0
  6
Continuous
100
AcDbLine
 10
136.5271728390837
 20
-108.1589068418244
 30
0.0
 11
136.1861728390837
 21
-108.1649068418244
 31
0.0
  0
LINE
  5
E0
330
70
100
AcDbEntity
  8
0
  6
Continuous
100
AcDbLine
 10
136.5271728390837
 20
-112.6409068418243
 30
0.0
 11
136.5271728390837
 21
-111.2959068418243
 31
0.0
  0
LINE
  5
E1
330
70
100
AcDbEntity
  8
0
  6
Continuous
100
AcDbLine
 10
136.5271728390837
 20
-111.2959068418243
 30
0.0
 11
136.5271728390837
 21
-110.0649068418243
 31
0.0
  0
LINE
  5
E2
330
70
100
AcDbEntity
  8
0
  6
Continuous
100
AcDbLine
 10
247.0571728390837
 20
-108.2019068418243
 30
0.0
 11
136.8281728390837
 21
-108.1689068418243
 31
0.0
  0
LINE
  5
E3
330
70
100
AcDbEntity
  8
0
  6
Continuous
100
AcDbLine
 10
247.0571728390837
 20
-109.7999068418243
 30
0.0
 11
136.8231728390837
 21
-110.0639068418243
 31
0.0
  0
LINE
  5
E4
330
70
100
AcDbEntity
  8
0
  6
Continuous
100
AcDbLine
 10
247.3631728390837
 20
-109.7989068418243
 30
0.0
 11
247.0571728390837
 21
-109.7999068418243
 31
0.0
  0
LINE
  5
E5
330
70
100
AcDbEntity
  8
0
  6
Continuous
100
AcDbLine
 10
247.3631728390837
 20
-109.7989068418243
 30
0.0
 11
247.3631728390837
 21
-111.4989068418243
 31
0.0
  0
LINE
  5
E6
330
70
100
AcDbEntity
  8
0
  6
Continuous
100
AcDbLine
 10
247.3631728390837
 20
-111.4989068418243
 30
0.0
 11
247.3631728390837
 21
-112.6409068418243
 31
0.0
  0
LINE
  5
E7
330
70
100
AcDbEntity
  8
0
  6
Continuous
100
AcDbLine
 10
247.5471728390837
 20
-108.2109068418243
 30
0.0
 11
247.3631728390837
 21
-108.2099068418243
 31
0.0
  0
LINE
  5
E8
330
70
100
AcDbEntity
  8
0
  6
Continuous
100
AcDbLine
 10
248.5321728390837
 20
-108.2139068418243
 30
0.0
 11
247.5501728390837
 21
-108.2119068418244
 31
0.0
  0
LINE
  5
E9
330
70
100
AcDbEntity
  8
0
  6
Continuous
100
AcDbLine
 10
125.0421728390837
 20
-166.3599068418244
 30
0.0
 11
125.0441728390837
 21
-166.7409068418243
 31
0.0
  0
LINE
  5
EA
330
70
100
AcDbEntity
  8
0
  6
Continuous
100
AcDbLine
 10
124.5851728390837
 20
-173.5949068418243
 30
0.0
 11
124.5861728390837
 21
-173.9749068418243
 31
0.0
  0
LINE
  5
EB
330
70
100
AcDbEntity
  8
0
  6
Continuous
100
AcDbLine
 10
131.9201728390837
 20
-170.8139068418244
 30
0.0
 11
131.9221728390837
 21
-170.4299068418244
 31
0.0
  0
LINE
  5
EC
330
70
100
AcDbEntity
  8
0
  6
Continuous
100
AcDbLine
 10
134.8931728390837
 20
-183.5829068418243
 30
0.0
 11
140.6161728390837
 21
-183.5829068418243
 31
0.0
  0
LINE
  5
ED
330
70
100
AcDbEntity
  8
0
  6
Continuous
100
AcDbLine
 10
243.1611728390837
 20
-183.5829068418243
 30
0.0
 11
249.0811728390837
 21
-183.5829068418243
 31
0.0
  0
LINE
  5
EE
330
70
100
AcDbEntity
  8
0
  6
Continuous
100
AcDbLine
 10
249.0821728390837
 20
-172.2069068418243
 30
0.0
 11
243.1611728390837
 21
-172.2059068418244
 31
0.0
  0
LINE
  5
EF
330
70
100
AcDbEntity
  8
0
  6
Continuous
100
AcDbLine
 10
140.6161728390837
 20
-172.1889068418243
 30
0.0
 11
134.8911728390837
 21
-172.1889068418243
 31
0.0
  0
LINE
  5
F0
330
70
100
AcDbEntity
  8
0
  6
Continuous
100
AcDbLine
 10
254.5421728390837
 20
-108.2719068418243
 30
0.0
 11
251.0251728390837
 21
-108.2199068418243
 31
0.0
  0
LINE
  5
F1
330
70
100
AcDbEntity
  8
0
  6
Continuous
100
AcDbLine
 10
252.2881728390837
 20
-168.6109068418244
 30
0.0
 11
252.2651728390837
 21
-168.6939068418243
 31
0.0
  0
LINE
  5
F2
330
70
100
AcDbEntity
  8
0
  6
Continuous
100
AcDbLine
 10
259.3721728390837
 20
-165.8029068418243
 30
0.0
 11
259.3231728390837
 21
-165.1999068418243
 31
0.0
  0
LINE
  5
F3
330
70
100
AcDbEntity
  8
0
  6
Continuous
100
AcDbLine
 10
131.8751728390837
 20
-169.5919068418243
 30
0.0
 11
132.0901728390837
 21
-144.9299068418243
 31
0.0
  0
LINE
  5
F4
330
70
100
AcDbEntity
  8
0
  6
Continuous
100
AcDbLine
 10
259.1231728390837
 20
-175.4839068418243
 30
0.0
 11
259.2361728390837
 21
-173.9589068418243
 31
0.0
  0
LINE
  5
F5
330
70
100
AcDbEntity
  8
0
  6
Continuous
100
AcDbLine
 10
133.2671728390837
 20
-183.4089068418244
 30
0.0
 11
134.4211728390837
 21
-183.5829068418243
 31
0.0
  0
LINE
  5
F6
330
70
100
AcDbEntity
  8
0
  6
Continuous
100
AcDbLine
 10
258.7291728390837
 20
-116.1559068418243
 30
0.0
 11
259.1061728390837
 21
-115.1949068418243
 31
0.0
  0
LINE
  5
F7
330
70
100
AcDbEntity
  8
0
  6
Continuous
100
AcDbLine
 10
124.4681728390837
 20
-124.3999068418243
 30
0.0
 11
124.4681728390837
 21
-124.5869068418244
 31
0.0
  0
LINE
  5
F8
330
70
100
AcDbEntity
  8
0
  6
Continuous
100
AcDbLine
 10
124.4681728390837
 20
-124.5869068418244
 30
0.0
 11
124.4691728390837
 21
-124.9319068418244
 31
0.0
  0
LINE
  5
F9
330
70
100
AcDbEntity
  8
0
  6
Continuous
100
AcDbLine
 10
258.2471728390837
 20
-164.0269068418243
 30
0.0
 11
257.5791728390838
 21
-164.0539068418243
 31
0.0
  0
LINE
  5
FA
330
70
100
AcDbEntity
  8
0
  6
Continuous
100
AcDbLine
 10
259.4071728390837
 20
-112.9929068418243
 30
0.0
 11
259.4091728390837
 21
-112.8589068418243
 31
0.0
  0
LINE
  5
FB
330
70
100
AcDbEntity
  8
0
  6
Continuous
100
AcDbLine
 10
136.5271728390837
 20
-110.0649068418243
 30
0.0
 11
136.8231728390837
 21
-110.0639068418243
 31
0.0
  0
LINE
  5
FC
330
70
100
AcDbEntity
  8
0
  6
Continuous
100
AcDbLine
 10
259.4091728390837
 20
-112.8589068418243
 30
0.0
 11
259.4161728390838
 21
-112.3779068418244
 31
0.0
  0
LINE
  5
FD
330
70
100
AcDbEntity
  8
0
  6
Continuous
100
AcDbLine
 10
258.3351728390837
 20
-165.4119068418243
 30
0.0
 11
258.3081728390837
 21
-164.4329068418244
 31
0.0
  0
LINE
  5
FE
330
70
100
AcDbEntity
  8
0
  6
Continuous
100
AcDbLine
 10
258.3211728390837
 20
-164.0239068418243
 30
0.0
 11
258.2471728390837
 21
-164.0269068418243
 31
0.0
  0
LINE
  5
FF
330
70
100
AcDbEntity
  8
0
  6
Continuous
100
AcDbLine
 10
247.3631728390837
 20
-112.1589068418243
 30
0.0
 11
234.4251728390837
 21
-112.1589068418243
 31
0.0
  0
LINE
  5
100
330
70
100
AcDbEntity
  8
0
  6
Continuous
100
AcDbLine
 10
149.4411728390837
 20
-112.1589068418243
 30
0.0
 11
136.5271728390837
 21
-112.1589068418243
 31
0.0
  0
LINE
  5
101
330
70
100
AcDbEntity
  8
0
  6
Continuous
100
AcDbLine
 10
222.6821728390837
 20
-146.7279068418243
 30
0.0
 11
224.1221728390837
 21
-146.7279068418243
 31
0.0
  0
LINE
  5
102
330
70
100
AcDbEntity
  8
0
  6
Continuous
100
AcDbLine
 10
224.1221728390837
 20
-146.4659068418243
 30
0.0
 11
222.6821728390837
 21
-146.4659068418243
 31
0.0
  0
LINE
  5
103
330
70
100
AcDbEntity
  8
0
  6
Continuous
100
AcDbLine
 10
232.7461728390837
 20
-111.0919068418243
 30
0.0
 11
224.1391728390837
 21
-111.0919068418243
 31
0.0
  0
LINE
  5
104
330
70
100
AcDbEntity
  8
0
  6
Continuous
100
AcDbLine
 10
224.1221728390837
 20
-146.7279068418243
 30
0.0
 11
232.6281728390837
 21
-146.7279068418243
 31
0.0
  0
LINE
  5
105
330
70
100
AcDbEntity
  8
0
  6
Continuous
100
AcDbLine
 10
234.2491728390837
 20
-111.0919068418243
 30
0.0
 11
232.7461728390837
 21
-111.0919068418243
 31
0.0
  0
LINE
  5
106
330
70
100
AcDbEntity
  8
0
  6
Continuous
100
AcDbLine
 10
232.6281728390837
 20
-146.4659068418243
 30
0.0
 11
224.1221728390837
 21
-146.4659068418243
 31
0.0
  0
LINE
  5
107
330
70
100
AcDbEntity
  8
0
  6
Continuous
100
AcDbLine
 10
249.0931728390837
 20
-146.5149068418243
 30
0.0
 11
250.2781728390837
 21
-145.9999068418243
 31
0.0
  0
LINE
  5
108
330
70
100
AcDbEntity
  8
0
  6
Continuous
100
AcDbLine
 10
222.4241728390837
 20
-146.7279068418243
 30
0.0
 11
222.6821728390837
 21
-146.7279068418243
 31
0.0
  0
LINE
  5
109
330
70
100
AcDbEntity
  8
0
  6
Continuous
100
AcDbLine
 10
191.9251728390837
 20
-146.7279068418243
 30
0.0
 11
222.4241728390837
 21
-146.7279068418243
 31
0.0
  0
LINE
  5
10A
330
70
100
AcDbEntity
  8
0
  6
Continuous
100
AcDbLine
 10
232.6281728390837
 20
-146.7279068418243
 30
0.0
 11
234.1131728390837
 21
-146.7279068418243
 31
0.0
  0
LINE
  5
10B
330
70
100
AcDbEntity
  8
0
  6
Continuous
100
AcDbLine
 10
234.1131728390837
 20
-146.7279068418243
 30
0.0
 11
235.4251728390837
 21
-146.7279068418243
 31
0.0
  0
LINE
  5
10C
330
70
100
AcDbEntity
  8
0
  6
Continuous
100
AcDbLine
 10
248.9121728390837
 20
-146.5939068418244
 30
0.0
 11
249.0931728390837
 21
-146.5149068418243
 31
0.0
  0
LINE
  5
10D
330
70
100
AcDbEntity
  8
0
  6
Continuous
100
AcDbLine
 10
235.4251728390837
 20
-146.7279068418243
 30
0.0
 11
247.9251728390837
 21
-146.7279068418243
 31
0.0
  0
LINE
  5
10E
330
70
100
AcDbEntity
  8
0
  6
Continuous
100
AcDbLine
 10
252.9251728390837
 20
-143.4919068418244
 30
0.0
 11
252.9251728390837
 21
-142.8399068418243
 31
0.0
  0
LINE
  5
10F
330
70
100
AcDbEntity
  8
0
  6
Continuous
100
AcDbLine
 10
248.3281728390837
 20
-146.4239068418243
 30
0.0
 11
248.6291728390837
 21
-146.3929068418243
 31
0.0
  0
LINE
  5
110
330
70
100
AcDbEntity
  8
0
  6
Continuous
100
AcDbLine
 10
248.8021728390837
 20
-146.2369068418243
 30
0.0
 11
250.0321728390837
 21
-145.7059068418244
 31
0.0
  0
LINE
  5
111
330
70
100
AcDbEntity
  8
0
  6
Continuous
100
AcDbLine
 10
250.0111728390837
 20
-112.7259068418243
 30
0.0
 11
248.9251728390837
 21
-112.6409068418243
 31
0.0
  0
LINE
  5
112
330
70
100
AcDbEntity
  8
0
  6
Continuous
100
AcDbLine
 10
247.9251728390837
 20
-146.7279068418243
 30
0.0
 11
248.4901728390837
 21
-146.6509068418243
 31
0.0
  0
LINE
  5
113
330
70
100
AcDbEntity
  8
0
  6
Continuous
100
AcDbLine
 10
251.2571728390837
 20
-113.0149068418244
 30
0.0
 11
250.2701728390837
 21
-112.7669068418243
 31
0.0
  0
LINE
  5
114
330
70
100
AcDbEntity
  8
0
  6
Continuous
100
AcDbLine
 10
234.3251728390837
 20
-111.0919068418243
 30
0.0
 11
234.2491728390837
 21
-111.0919068418243
 31
0.0
  0
LINE
  5
115
330
70
100
AcDbEntity
  8
0
  6
Continuous
100
AcDbLine
 10
252.6991728390837
 20
-113.9949068418243
 30
0.0
 11
252.1351728390837
 21
-113.4489068418243
 31
0.0
  0
LINE
  5
116
330
70
100
AcDbEntity
  8
0
  6
Continuous
100
AcDbLine
 10
250.2701728390837
 20
-112.7669068418243
 30
0.0
 11
250.1511728390837
 21
-112.7369068418243
 31
0.0
  0
LINE
  5
117
330
70
100
AcDbEntity
  8
0
  6
Continuous
100
AcDbLine
 10
247.9251728390837
 20
-146.4659068418243
 30
0.0
 11
248.3281728390837
 21
-146.4239068418243
 31
0.0
  0
LINE
  5
118
330
70
100
AcDbEntity
  8
0
  6
Continuous
100
AcDbLine
 10
224.1391728390837
 20
-111.0919068418243
 30
0.0
 11
222.6821728390837
 21
-111.0919068418243
 31
0.0
  0
LINE
  5
119
330
70
100
AcDbEntity
  8
0
  6
Continuous
100
AcDbLine
 10
222.6821728390837
 20
-146.4659068418243
 30
0.0
 11
222.4241728390837
 21
-146.4659068418243
 31
0.0
  0
LINE
  5
11A
330
70
100
AcDbEntity
  8
0
  6
Continuous
100
AcDbLine
 10
222.4241728390837
 20
-146.4659068418243
 30
0.0
 11
191.9251728390837
 21
-146.4659068418243
 31
0.0
  0
LINE
  5
11B
330
70
100
AcDbEntity
  8
0
  6
Continuous
100
AcDbLine
 10
222.6821728390837
 20
-111.0919068418243
 30
0.0
 11
222.4241728390837
 21
-111.0919068418243
 31
0.0
  0
LINE
  5
11C
330
70
100
AcDbEntity
  8
0
  6
Continuous
100
AcDbLine
 10
234.1131728390837
 20
-146.4659068418243
 30
0.0
 11
232.6281728390837
 21
-146.4659068418243
 31
0.0
  0
LINE
  5
11D
330
70
100
AcDbEntity
  8
0
  6
Continuous
100
AcDbLine
 10
235.4251728390837
 20
-146.4659068418243
 30
0.0
 11
234.1131728390837
 21
-146.4659068418243
 31
0.0
  0
LINE
  5
11E
330
70
100
AcDbEntity
  8
0
  6
Continuous
100
AcDbLine
 10
252.7311728390837
 20
-143.2819068418243
 30
0.0
 11
252.8931728390837
 21
-142.7559068418243
 31
0.0
  0
LINE
  5
11F
330
70
100
AcDbEntity
  8
0
  6
Continuous
100
AcDbLine
 10
234.4251728390837
 20
-111.1919068418243
 30
0.0
 11
234.3931728390837
 21
-111.1239068418244
 31
0.0
  0
LINE
  5
120
330
70
100
AcDbEntity
  8
0
  6
Continuous
100
AcDbLine
 10
234.4251728390837
 20
-111.4499068418243
 30
0.0
 11
234.4251728390837
 21
-111.1919068418243
 31
0.0
  0
LINE
  5
121
330
70
100
AcDbEntity
  8
0
  6
Continuous
100
AcDbLine
 10
235.4251728390837
 20
-112.6409068418243
 30
0.0
 11
234.9091728390837
 21
-112.5729068418243
 31
0.0
  0
LINE
  5
122
330
70
100
AcDbEntity
  8
0
  6
Continuous
100
AcDbLine
 10
234.3931728390837
 20
-111.1239068418244
 30
0.0
 11
234.3251728390837
 21
-111.0919068418243
 31
0.0
  0
LINE
  5
123
330
70
100
AcDbEntity
  8
0
  6
Continuous
100
AcDbLine
 10
234.3931728390837
 20
-111.3899068418243
 30
0.0
 11
234.3931728390837
 21
-111.1239068418244
 31
0.0
  0
LINE
  5
124
330
70
100
AcDbEntity
  8
0
  6
Continuous
100
AcDbLine
 10
234.5311728390837
 20
-112.3859068418244
 30
0.0
 11
234.4081728390837
 21
-112.1589068418243
 31
0.0
  0
LINE
  5
125
330
70
100
AcDbEntity
  8
0
  6
Continuous
100
AcDbLine
 10
252.9251728390837
 20
-114.6599068418243
 30
0.0
 11
252.7291728390837
 21
-114.0499068418243
 31
0.0
  0
LINE
  5
126
330
70
100
AcDbEntity
  8
0
  6
Continuous
100
AcDbLine
 10
250.1511728390837
 20
-112.7369068418243
 30
0.0
 11
250.0111728390837
 21
-112.7259068418243
 31
0.0
  0
LINE
  5
127
330
70
100
AcDbEntity
  8
0
  6
Continuous
100
AcDbLine
 10
250.2781728390837
 20
-145.9999068418243
 30
0.0
 11
251.2511728390837
 21
-145.3419068418243
 31
0.0
  0
LINE
  5
128
330
70
100
AcDbEntity
  8
0
  6
Continuous
100
AcDbLine
 10
247.9251728390837
 20
-146.4659068418243
 30
0.0
 11
235.4251728390837
 21
-146.4659068418243
 31
0.0
  0
LINE
  5
129
330
70
100
AcDbEntity
  8
0
  6
Continuous
100
AcDbLine
 10
222.4241728390837
 20
-111.0919068418243
 30
0.0
 11
191.9251728390837
 21
-111.0919068418243
 31
0.0
  0
LINE
  5
12A
330
70
100
AcDbEntity
  8
0
  6
Continuous
100
AcDbLine
 10
248.4901728390837
 20
-146.6509068418243
 30
0.0
 11
248.9121728390837
 21
-146.5939068418244
 31
0.0
  0
LINE
  5
12B
330
70
100
AcDbEntity
  8
0
  6
Continuous
100
AcDbLine
 10
252.8931728390837
 20
-114.6009068418243
 30
0.0
 11
252.6991728390837
 21
-113.9949068418243
 31
0.0
  0
LINE
  5
12C
330
70
100
AcDbEntity
  8
0
  6
Continuous
100
AcDbLine
 10
252.0621728390837
 20
-144.6879068418243
 30
0.0
 11
252.4781728390837
 21
-144.3289068418243
 31
0.0
  0
LINE
  5
12D
330
70
100
AcDbEntity
  8
0
  6
Continuous
100
AcDbLine
 10
234.9091728390837
 20
-112.5729068418243
 30
0.0
 11
234.5311728390837
 21
-112.3859068418244
 31
0.0
  0
LINE
  5
12E
330
70
100
AcDbEntity
  8
0
  6
Continuous
100
AcDbLine
 10
252.1351728390837
 20
-113.4489068418243
 30
0.0
 11
251.2571728390837
 21
-113.0149068418244
 31
0.0
  0
LINE
  5
12F
330
70
100
AcDbEntity
  8
0
  6
Continuous
100
AcDbLine
 10
234.3931728390837
 20
-111.3899068418243
 30
0.0
 11
234.3931728390837
 21
-112.1309068418243
 31
0.0
  0
LINE
  5
130
330
70
100
AcDbEntity
  8
0
  6
Continuous
100
AcDbLine
 10
234.4251728390837
 20
-112.1909068418243
 30
0.0
 11
234.4251728390837
 21
-111.4499068418243
 31
0.0
  0
LINE
  5
131
330
70
100
AcDbEntity
  8
0
  6
Continuous
100
AcDbLine
 10
248.9251728390837
 20
-112.6409068418243
 30
0.0
 11
235.4251728390837
 21
-112.6409068418243
 31
0.0
  0
LINE
  5
132
330
70
100
AcDbEntity
  8
0
  6
Continuous
100
AcDbLine
 10
252.8931728390837
 20
-114.6009068418243
 30
0.0
 11
252.8931728390837
 21
-142.7559068418243
 31
0.0
  0
LINE
  5
133
330
70
100
AcDbEntity
  8
0
  6
Continuous
100
AcDbLine
 10
252.9251728390837
 20
-142.8149068418243
 30
0.0
 11
252.9251728390837
 21
-114.6599068418243
 31
0.0
  0
LINE
  5
134
330
70
100
AcDbEntity
  8
0
  6
Continuous
100
AcDbLine
 10
252.5641728390837
 20
-143.5129068418243
 30
0.0
 11
252.7311728390837
 21
-143.2819068418243
 31
0.0
  0
LINE
  5
135
330
70
100
AcDbEntity
  8
0
  6
Continuous
100
AcDbLine
 10
251.4411728390837
 20
-144.7119068418244
 30
0.0
 11
250.1831728390837
 21
-145.6919068418243
 31
0.0
  0
LINE
  5
136
330
70
100
AcDbEntity
  8
0
  6
Continuous
100
AcDbLine
 10
251.3851728390837
 20
-144.6529068418243
 30
0.0
 11
252.0121728390837
 21
-144.0179068418243
 31
0.0
  0
LINE
  5
137
330
70
100
AcDbEntity
  8
0
  6
Continuous
100
AcDbLine
 10
248.6291728390837
 20
-146.3929068418243
 30
0.0
 11
248.8351728390837
 21
-146.2999068418243
 31
0.0
  0
LINE
  5
138
330
70
100
AcDbEntity
  8
0
  6
Continuous
100
AcDbLine
 10
252.7261728390837
 20
-144.0409068418244
 30
0.0
 11
252.9251728390837
 21
-143.5109068418243
 31
0.0
  0
LINE
  5
139
330
70
100
AcDbEntity
  8
0
  6
Continuous
100
AcDbLine
 10
252.6951728390837
 20
-144.1129068418244
 30
0.0
 11
252.7261728390837
 21
-144.0409068418244
 31
0.0
  0
LINE
  5
13A
330
70
100
AcDbEntity
  8
0
  6
Continuous
100
AcDbLine
 10
252.4781728390837
 20
-144.3289068418243
 30
0.0
 11
252.6951728390837
 21
-144.1129068418244
 31
0.0
  0
LINE
  5
13B
330
70
100
AcDbEntity
  8
0
  6
Continuous
100
AcDbLine
 10
159.7281728390837
 20
-146.7279068418243
 30
0.0
 11
161.1681728390837
 21
-146.7279068418243
 31
0.0
  0
LINE
  5
13C
330
70
100
AcDbEntity
  8
0
  6
Continuous
100
AcDbLine
 10
161.1681728390837
 20
-146.4659068418243
 30
0.0
 11
159.7281728390837
 21
-146.4659068418243
 31
0.0
  0
LINE
  5
13D
330
70
100
AcDbEntity
  8
0
  6
Continuous
100
AcDbLine
 10
159.7111728390837
 20
-111.0919068418243
 30
0.0
 11
151.1031728390837
 21
-111.0919068418243
 31
0.0
  0
LINE
  5
13E
330
70
100
AcDbEntity
  8
0
  6
Continuous
100
AcDbLine
 10
151.2221728390837
 20
-146.7279068418243
 30
0.0
 11
159.7281728390837
 21
-146.7279068418243
 31
0.0
  0
LINE
  5
13F
330
70
100
AcDbEntity
  8
0
  6
Continuous
100
AcDbLine
 10
151.1031728390837
 20
-111.0919068418243
 30
0.0
 11
149.6001728390837
 21
-111.0919068418243
 31
0.0
  0
LINE
  5
140
330
70
100
AcDbEntity
  8
0
  6
Continuous
100
AcDbLine
 10
159.7281728390837
 20
-146.4659068418243
 30
0.0
 11
151.2221728390837
 21
-146.4659068418243
 31
0.0
  0
LINE
  5
141
330
70
100
AcDbEntity
  8
0
  6
Continuous
100
AcDbLine
 10
133.5721728390837
 20
-145.9999068418243
 30
0.0
 11
134.7571728390837
 21
-146.5149068418243
 31
0.0
  0
LINE
  5
142
330
70
100
AcDbEntity
  8
0
  6
Continuous
100
AcDbLine
 10
161.1681728390837
 20
-146.7279068418243
 30
0.0
 11
161.4251728390837
 21
-146.7279068418243
 31
0.0
  0
LINE
  5
143
330
70
100
AcDbEntity
  8
0
  6
Continuous
100
AcDbLine
 10
161.4251728390837
 20
-146.7279068418243
 30
0.0
 11
191.9251728390837
 21
-146.7279068418243
 31
0.0
  0
LINE
  5
144
330
70
100
AcDbEntity
  8
0
  6
Continuous
100
AcDbLine
 10
149.7371728390837
 20
-146.7279068418243
 30
0.0
 11
151.2221728390837
 21
-146.7279068418243
 31
0.0
  0
LINE
  5
145
330
70
100
AcDbEntity
  8
0
  6
Continuous
100
AcDbLine
 10
148.4251728390837
 20
-146.7279068418243
 30
0.0
 11
149.7371728390837
 21
-146.7279068418243
 31
0.0
  0
LINE
  5
146
330
70
100
AcDbEntity
  8
0
  6
Continuous
100
AcDbLine
 10
134.7571728390837
 20
-146.5149068418243
 30
0.0
 11
134.9381728390837
 21
-146.5939068418244
 31
0.0
  0
LINE
  5
147
330
70
100
AcDbEntity
  8
0
  6
Continuous
100
AcDbLine
 10
135.9251728390837
 20
-146.7279068418243
 30
0.0
 11
148.4251728390837
 21
-146.7279068418243
 31
0.0
  0
LINE
  5
148
330
70
100
AcDbEntity
  8
0
  6
Continuous
100
AcDbLine
 10
130.9251728390837
 20
-142.8399068418243
 30
0.0
 11
130.9251728390837
 21
-143.4919068418244
 31
0.0
  0
LINE
  5
149
330
70
100
AcDbEntity
  8
0
  6
Continuous
100
AcDbLine
 10
135.2211728390837
 20
-146.3929068418243
 30
0.0
 11
135.5211728390837
 21
-146.4239068418243
 31
0.0
  0
LINE
  5
14A
330
70
100
AcDbEntity
  8
0
  6
Continuous
100
AcDbLine
 10
133.8171728390837
 20
-145.7059068418244
 30
0.0
 11
135.0481728390837
 21
-146.2369068418243
 31
0.0
  0
LINE
  5
14B
330
70
100
AcDbEntity
  8
0
  6
Continuous
100
AcDbLine
 10
134.9251728390837
 20
-112.6409068418243
 30
0.0
 11
133.8391728390837
 21
-112.7259068418243
 31
0.0
  0
LINE
  5
14C
330
70
100
AcDbEntity
  8
0
  6
Continuous
100
AcDbLine
 10
135.3591728390837
 20
-146.6509068418243
 30
0.0
 11
135.9251728390837
 21
-146.7279068418243
 31
0.0
  0
LINE
  5
14D
330
70
100
AcDbEntity
  8
0
  6
Continuous
100
AcDbLine
 10
133.5791728390837
 20
-112.7669068418243
 30
0.0
 11
132.5921728390837
 21
-113.0149068418244
 31
0.0
  0
LINE
  5
14E
330
70
100
AcDbEntity
  8
0
  6
Continuous
100
AcDbLine
 10
149.6001728390837
 20
-111.0919068418243
 30
0.0
 11
149.5251728390837
 21
-111.0919068418243
 31
0.0
  0
LINE
  5
14F
330
70
100
AcDbEntity
  8
0
  6
Continuous
100
AcDbLine
 10
131.7141728390837
 20
-113.4489068418243
 30
0.0
 11
131.1511728390837
 21
-113.9949068418243
 31
0.0
  0
LINE
  5
150
330
70
100
AcDbEntity
  8
0
  6
Continuous
100
AcDbLine
 10
133.6991728390837
 20
-112.7369068418243
 30
0.0
 11
133.5791728390837
 21
-112.7669068418243
 31
0.0
  0
LINE
  5
151
330
70
100
AcDbEntity
  8
0
  6
Continuous
100
AcDbLine
 10
135.5211728390837
 20
-146.4239068418243
 30
0.0
 11
135.9251728390837
 21
-146.4659068418243
 31
0.0
  0
LINE
  5
152
330
70
100
AcDbEntity
  8
0
  6
Continuous
100
AcDbLine
 10
131.7881728390837
 20
-144.6879068418243
 30
0.0
 11
132.0901728390837
 21
-144.9299068418243
 31
0.0
  0
LINE
  5
153
330
70
100
AcDbEntity
  8
0
  6
Continuous
100
AcDbLine
 10
161.1681728390837
 20
-111.0919068418243
 30
0.0
 11
159.7111728390837
 21
-111.0919068418243
 31
0.0
  0
LINE
  5
154
330
70
100
AcDbEntity
  8
0
  6
Continuous
100
AcDbLine
 10
161.4251728390837
 20
-146.4659068418243
 30
0.0
 11
161.1681728390837
 21
-146.4659068418243
 31
0.0
  0
LINE
  5
155
330
70
100
AcDbEntity
  8
0
  6
Continuous
100
AcDbLine
 10
191.9251728390837
 20
-146.4659068418243
 30
0.0
 11
161.4251728390837
 21
-146.4659068418243
 31
0.0
  0
LINE
  5
156
330
70
100
AcDbEntity
  8
0
  6
Continuous
100
AcDbLine
 10
161.4251728390837
 20
-111.0919068418243
 30
0.0
 11
161.1681728390837
 21
-111.0919068418243
 31
0.0
  0
LINE
  5
157
330
70
100
AcDbEntity
  8
0
  6
Continuous
100
AcDbLine
 10
151.2221728390837
 20
-146.4659068418243
 30
0.0
 11
149.7371728390837
 21
-146.4659068418243
 31
0.0
  0
LINE
  5
158
330
70
100
AcDbEntity
  8
0
  6
Continuous
100
AcDbLine
 10
149.7371728390837
 20
-146.4659068418243
 30
0.0
 11
148.4251728390837
 21
-146.4659068418243
 31
0.0
  0
LINE
  5
159
330
70
100
AcDbEntity
  8
0
  6
Continuous
100
AcDbLine
 10
130.9571728390837
 20
-142.7559068418243
 30
0.0
 11
131.1191728390837
 21
-143.2819068418243
 31
0.0
  0
LINE
  5
15A
330
70
100
AcDbEntity
  8
0
  6
Continuous
100
AcDbLine
 10
149.4251728390837
 20
-111.1919068418243
 30
0.0
 11
149.4251728390837
 21
-111.4499068418243
 31
0.0
  0
LINE
  5
15B
330
70
100
AcDbEntity
  8
0
  6
Continuous
100
AcDbLine
 10
149.4561728390837
 20
-111.1239068418244
 30
0.0
 11
149.4251728390837
 21
-111.1919068418243
 31
0.0
  0
LINE
  5
15C
330
70
100
AcDbEntity
  8
0
  6
Continuous
100
AcDbLine
 10
148.9411728390837
 20
-112.5729068418243
 30
0.0
 11
148.4251728390837
 21
-112.6409068418243
 31
0.0
  0
LINE
  5
15D
330
70
100
AcDbEntity
  8
0
  6
Continuous
100
AcDbLine
 10
149.4561728390837
 20
-111.1239068418244
 30
0.0
 11
149.4561728390837
 21
-111.3899068418243
 31
0.0
  0
LINE
  5
15E
330
70
100
AcDbEntity
  8
0
  6
Continuous
100
AcDbLine
 10
149.5251728390837
 20
-111.0919068418243
 30
0.0
 11
149.4561728390837
 21
-111.1239068418244
 31
0.0
  0
LINE
  5
15F
330
70
100
AcDbEntity
  8
0
  6
Continuous
100
AcDbLine
 10
149.4561728390837
 20
-112.1309068418243
 30
0.0
 11
149.3181728390837
 21
-112.3859068418244
 31
0.0
  0
LINE
  5
160
330
70
100
AcDbEntity
  8
0
  6
Continuous
100
AcDbLine
 10
131.1211728390837
 20
-114.0499068418243
 30
0.0
 11
130.9251728390837
 21
-114.6599068418243
 31
0.0
  0
LINE
  5
161
330
70
100
AcDbEntity
  8
0
  6
Continuous
100
AcDbLine
 10
133.8391728390837
 20
-112.7259068418243
 30
0.0
 11
133.6991728390837
 21
-112.7369068418243
 31
0.0
  0
LINE
  5
162
330
70
100
AcDbEntity
  8
0
  6
Continuous
100
AcDbLine
 10
132.5991728390837
 20
-145.3419068418243
 30
0.0
 11
133.5721728390837
 21
-145.9999068418243
 31
0.0
  0
LINE
  5
163
330
70
100
AcDbEntity
  8
0
  6
Continuous
100
AcDbLine
 10
148.4251728390837
 20
-146.4659068418243
 30
0.0
 11
135.9251728390837
 21
-146.4659068418243
 31
0.0
  0
LINE
  5
164
330
70
100
AcDbEntity
  8
0
  6
Continuous
100
AcDbLine
 10
191.9251728390837
 20
-111.0919068418243
 30
0.0
 11
161.4251728390837
 21
-111.0919068418243
 31
0.0
  0
LINE
  5
165
330
70
100
AcDbEntity
  8
0
  6
Continuous
100
AcDbLine
 10
134.9381728390837
 20
-146.5939068418244
 30
0.0
 11
135.3591728390837
 21
-146.6509068418243
 31
0.0
  0
LINE
  5
166
330
70
100
AcDbEntity
  8
0
  6
Continuous
100
AcDbLine
 10
131.1511728390837
 20
-113.9949068418243
 30
0.0
 11
130.9561728390837
 21
-114.6009068418243
 31
0.0
  0
LINE
  5
167
330
70
100
AcDbEntity
  8
0
  6
Continuous
100
AcDbLine
 10
131.3721728390837
 20
-144.3289068418243
 30
0.0
 11
131.7881728390837
 21
-144.6879068418243
 31
0.0
  0
LINE
  5
168
330
70
100
AcDbEntity
  8
0
  6
Continuous
100
AcDbLine
 10
149.3181728390837
 20
-112.3859068418244
 30
0.0
 11
148.9411728390837
 21
-112.5729068418243
 31
0.0
  0
LINE
  5
169
330
70
100
AcDbEntity
  8
0
  6
Continuous
100
AcDbLine
 10
132.5921728390837
 20
-113.0149068418244
 30
0.0
 11
131.7141728390837
 21
-113.4489068418243
 31
0.0
  0
LINE
  5
16A
330
70
100
AcDbEntity
  8
0
  6
Continuous
100
AcDbLine
 10
149.4251728390837
 20
-111.4499068418243
 30
0.0
 11
149.4251728390837
 21
-112.1589068418243
 31
0.0
  0
LINE
  5
16B
330
70
100
AcDbEntity
  8
0
  6
Continuous
100
AcDbLine
 10
149.4561728390837
 20
-112.1309068418243
 30
0.0
 11
149.4561728390837
 21
-111.3899068418243
 31
0.0
  0
LINE
  5
16C
330
70
100
AcDbEntity
  8
0
  6
Continuous
100
AcDbLine
 10
148.4251728390837
 20
-112.6409068418243
 30
0.0
 11
134.9251728390837
 21
-112.6409068418243
 31
0.0
  0
LINE
  5
16D
330
70
100
AcDbEntity
  8
0
  6
Continuous
100
AcDbLine
 10
130.9251728390837
 20
-114.6599068418243
 30
0.0
 11
130.9251728390837
 21
-142.8149068418243
 31
0.0
  0
LINE
  5
16E
330
70
100
AcDbEntity
  8
0
  6
Continuous
100
AcDbLine
 10
130.9571728390837
 20
-142.7559068418243
 30
0.0
 11
130.9561728390837
 21
-114.6009068418243
 31
0.0
  0
LINE
  5
16F
330
70
100
AcDbEntity
  8
0
  6
Continuous
100
AcDbLine
 10
131.1191728390837
 20
-143.2819068418243
 30
0.0
 11
131.2851728390837
 21
-143.5129068418243
 31
0.0
  0
LINE
  5
170
330
70
100
AcDbEntity
  8
0
  6
Continuous
100
AcDbLine
 10
133.6661728390837
 20
-145.6919068418243
 30
0.0
 11
132.4091728390837
 21
-144.7119068418244
 31
0.0
  0
LINE
  5
171
330
70
100
AcDbEntity
  8
0
  6
Continuous
100
AcDbLine
 10
131.8381728390837
 20
-144.0179068418243
 30
0.0
 11
132.4641728390837
 21
-144.6529068418243
 31
0.0
  0
LINE
  5
172
330
70
100
AcDbEntity
  8
0
  6
Continuous
100
AcDbLine
 10
135.0151728390837
 20
-146.2999068418243
 30
0.0
 11
135.2211728390837
 21
-146.3929068418243
 31
0.0
  0
LINE
  5
173
330
70
100
AcDbEntity
  8
0
  6
Continuous
100
AcDbLine
 10
130.9251728390837
 20
-143.5109068418243
 30
0.0
 11
131.1241728390837
 21
-144.0409068418244
 31
0.0
  0
LINE
  5
174
330
70
100
AcDbEntity
  8
0
  6
Continuous
100
AcDbLine
 10
131.1541728390837
 20
-144.1129068418244
 30
0.0
 11
131.3721728390837
 21
-144.3289068418243
 31
0.0
  0
LINE
  5
175
330
70
100
AcDbEntity
  8
0
  6
Continuous
100
AcDbLine
 10
131.1241728390837
 20
-144.0409068418244
 30
0.0
 11
131.1541728390837
 21
-144.1129068418244
 31
0.0
  0
LINE
  5
176
330
70
100
AcDbEntity
  8
0
  6
Continuous
100
AcDbLine
 10
243.1611728390837
 20
-153.8329068418243
 30
0.0
 11
243.1611728390837
 21
-146.7279068418243
 31
0.0
  0
LINE
  5
177
330
70
100
AcDbEntity
  8
0
  6
Continuous
100
AcDbLine
 10
243.1611728390837
 20
-216.0479068418243
 30
0.0
 11
243.1611728390837
 21
-207.4849068418244
 31
0.0
  0
LINE
  5
178
330
70
100
AcDbEntity
  8
0
  6
Continuous
100
AcDbLine
 10
140.6161728390837
 20
-163.5299068418243
 30
0.0
 11
140.6161728390837
 21
-174.4879068418243
 31
0.0
  0
LINE
  5
179
330
70
100
AcDbEntity
  8
0
  6
Continuous
100
AcDbLine
 10
140.6161728390837
 20
-222.1579068418244
 30
0.0
 11
140.6161728390837
 21
-225.7059068418243
 31
0.0
  0
LINE
  5
17A
330
70
100
AcDbEntity
  8
0
  6
Continuous
100
AcDbLine
 10
243.1611728390837
 20
-174.4879068418243
 30
0.0
 11
243.1611728390837
 21
-163.5299068418243
 31
0.0
  0
LINE
  5
17B
330
70
100
AcDbEntity
  8
0
  6
Continuous
100
AcDbLine
 10
140.6161728390837
 20
-197.1999068418243
 30
0.0
 11
140.6161728390837
 21
-207.4849068418244
 31
0.0
  0
LINE
  5
17C
330
70
100
AcDbEntity
  8
0
  6
Continuous
100
AcDbLine
 10
140.6161728390837
 20
-216.0479068418243
 30
0.0
 11
140.6161728390837
 21
-222.1579068418244
 31
0.0
  0
LINE
  5
17D
330
70
100
AcDbEntity
  8
0
  6
Continuous
100
AcDbLine
 10
140.6161728390837
 20
-226.1189068418243
 30
0.0
 11
141.5791728390837
 21
-226.1189068418243
 31
0.0
  0
LINE
  5
17E
330
70
100
AcDbEntity
  8
0
  6
Continuous
100
AcDbLine
 10
140.6161728390837
 20
-225.7059068418243
 30
0.0
 11
140.6161728390837
 21
-226.1189068418243
 31
0.0
  0
LINE
  5
17F
330
70
100
AcDbEntity
  8
0
  6
Continuous
100
AcDbLine
 10
243.1611728390837
 20
-225.7059068418243
 30
0.0
 11
243.1611728390837
 21
-222.1579068418244
 31
0.0
  0
LINE
  5
180
330
70
100
AcDbEntity
  8
0
  6
Continuous
100
AcDbLine
 10
243.1611728390837
 20
-185.9969068418243
 30
0.0
 11
243.1611728390837
 21
-174.4879068418243
 31
0.0
  0
LINE
  5
181
330
70
100
AcDbEntity
  8
0
  6
Continuous
100
AcDbLine
 10
140.6161728390837
 20
-174.4879068418243
 30
0.0
 11
140.6161728390837
 21
-185.9969068418243
 31
0.0
  0
LINE
  5
182
330
70
100
AcDbEntity
  8
0
  6
Continuous
100
AcDbLine
 10
140.6161728390837
 20
-153.8329068418243
 30
0.0
 11
140.6161728390837
 21
-163.5299068418243
 31
0.0
  0
LINE
  5
183
330
70
100
AcDbEntity
  8
0
  6
Continuous
100
AcDbLine
 10
243.1611728390837
 20
-226.1189068418243
 30
0.0
 11
243.1611728390837
 21
-225.7059068418243
 31
0.0
  0
LINE
  5
184
330
70
100
AcDbEntity
  8
0
  6
Continuous
100
AcDbLine
 10
242.1981728390837
 20
-226.1189068418243
 30
0.0
 11
243.1611728390837
 21
-226.1189068418243
 31
0.0
  0
LINE
  5
185
330
70
100
AcDbEntity
  8
0
  6
Continuous
100
AcDbLine
 10
140.6161728390837
 20
-185.9969068418243
 30
0.0
 11
140.6161728390837
 21
-197.1999068418243
 31
0.0
  0
LINE
  5
186
330
70
100
AcDbEntity
  8
0
  6
Continuous
100
AcDbLine
 10
140.6161728390837
 20
-207.4849068418244
 30
0.0
 11
140.6161728390837
 21
-216.0479068418243
 31
0.0
  0
LINE
  5
187
330
70
100
AcDbEntity
  8
0
  6
Continuous
100
AcDbLine
 10
243.1611728390837
 20
-163.5299068418243
 30
0.0
 11
243.1611728390837
 21
-153.8329068418243
 31
0.0
  0
LINE
  5
188
330
70
100
AcDbEntity
  8
0
  6
Continuous
100
AcDbLine
 10
243.1611728390837
 20
-207.4849068418244
 30
0.0
 11
243.1611728390837
 21
-197.1999068418243
 31
0.0
  0
LINE
  5
189
330
70
100
AcDbEntity
  8
0
  6
Continuous
100
AcDbLine
 10
243.1611728390837
 20
-197.1999068418243
 30
0.0
 11
243.1611728390837
 21
-185.9969068418243
 31
0.0
  0
LINE
  5
18A
330
70
100
AcDbEntity
  8
0
  6
Continuous
100
AcDbLine
 10
140.6161728390837
 20
-146.7279068418243
 30
0.0
 11
140.6161728390837
 21
-153.8329068418243
 31
0.0
  0
LINE
  5
18B
330
70
100
AcDbEntity
  8
0
  6
Continuous
100
AcDbLine
 10
243.1611728390837
 20
-222.1579068418244
 30
0.0
 11
243.1611728390837
 21
-216.0479068418243
 31
0.0
  0
LINE
  5
18C
330
70
100
AcDbEntity
  8
0
  6
Continuous
100
AcDbLine
 10
141.5791728390837
 20
-226.1189068418243
 30
0.0
 11
242.1981728390837
 21
-226.1189068418243
 31
0.0
  0
LINE
  5
2F5
330
70
100
AcDbEntity
  8
0
  6
Continuous
100
AcDbLine
 10
-17.71232000195877
 20
-133.0869068418244
 30
0.0
 11
-17.71232000195877
 21
-131.8929068418243
 31
0.0
  0
LINE
  5
2F6
330
70
100
AcDbEntity
  8
0
  6
Continuous
100
AcDbLine
 10
-17.71232000195877
 20
-135.6769068418243
 30
0.0
 11
-17.71232000195877
 21
-133.0869068418244
 31
0.0
  0
LINE
  5
2F7
330
70
100
AcDbEntity
  8
0
  6
Continuous
100
AcDbLine
 10
-17.71232000195877
 20
-138.2669068418243
 30
0.0
 11
-17.71232000195877
 21
-135.6769068418243
 31
0.0
  0
LINE
  5
2F8
330
70
100
AcDbEntity
  8
0
  6
Continuous
100
AcDbLine
 10
-17.71232000195877
 20
-140.6039068418244
 30
0.0
 11
-17.71232000195877
 21
-138.2669068418243
 31
0.0
  0
LINE
  5
2F9
330
70
100
AcDbEntity
  8
0
  6
Continuous
100
AcDbLine
 10
-17.71232000195877
 20
-142.4579068418243
 30
0.0
 11
-17.71232000195877
 21
-140.6039068418244
 31
0.0
  0
LINE
  5
2FA
330
70
100
AcDbEntity
  8
0
  6
Continuous
100
AcDbLine
 10
-17.71232000195877
 20
-143.6479068418243
 30
0.0
 11
-17.71232000195877
 21
-142.4579068418243
 31
0.0
  0
LINE
  5
2FB
330
70
100
AcDbEntity
  8
0
  6
Continuous
100
AcDbLine
 10
-17.71232000195877
 20
-144.0589068418243
 30
0.0
 11
-17.71232000195877
 21
-143.6479068418243
 31
0.0
  0
LINE
  5
2FC
330
70
100
AcDbEntity
  8
0
  6
Continuous
100
AcDbLine
 10
-17.84732000195879
 20
-144.0589068418243
 30
0.0
 11
-17.71232000195877
 21
-144.0589068418243
 31
0.0
  0
LINE
  5
2FD
330
70
100
AcDbEntity
  8
0
  6
Continuous
100
AcDbLine
 10
-21.12632000195876
 20
-146.9619068418244
 30
0.0
 11
-21.01232000195878
 21
-146.9619068418244
 31
0.0
  0
LINE
  5
2FE
330
70
100
AcDbEntity
  8
0
  6
Continuous
100
AcDbLine
 10
-21.26232000195878
 20
-146.9619068418244
 30
0.0
 11
-21.12632000195876
 21
-146.9619068418244
 31
0.0
  0
LINE
  5
2FF
330
70
100
AcDbEntity
  8
0
  6
Continuous
100
AcDbLine
 10
-17.82632000195877
 20
-145.9479068418243
 30
0.0
 11
-17.82632000195877
 21
-145.2699068418243
 31
0.0
  0
LINE
  5
300
330
70
100
AcDbEntity
  8
0
  6
Continuous
100
AcDbLine
 10
-17.96332000195878
 20
-146.4549068418243
 30
0.0
 11
-17.82632000195877
 21
-145.9479068418243
 31
0.0
  0
LINE
  5
301
330
70
100
AcDbEntity
  8
0
  6
Continuous
100
AcDbLine
 10
-18.33632000195879
 20
-146.8259068418243
 30
0.0
 11
-17.96332000195878
 21
-146.4549068418243
 31
0.0
  0
LINE
  5
302
330
70
100
AcDbEntity
  8
0
  6
Continuous
100
AcDbLine
 10
-18.84632000195878
 20
-146.9619068418244
 30
0.0
 11
-18.33632000195879
 21
-146.8259068418243
 31
0.0
  0
LINE
  5
303
330
70
100
AcDbEntity
  8
0
  6
Continuous
100
AcDbLine
 10
-17.82632000195877
 20
-145.2699068418243
 30
0.0
 11
-17.82632000195877
 21
-143.3929068418243
 31
0.0
  0
LINE
  5
304
330
70
100
AcDbEntity
  8
0
  6
Continuous
100
AcDbLine
 10
-17.82632000195877
 20
-143.3929068418243
 30
0.0
 11
-17.82632000195877
 21
-140.5849068418243
 31
0.0
  0
LINE
  5
305
330
70
100
AcDbEntity
  8
0
  6
Continuous
100
AcDbLine
 10
-17.82632000195877
 20
-140.5849068418243
 30
0.0
 11
-17.82632000195877
 21
-137.1719068418243
 31
0.0
  0
LINE
  5
306
330
70
100
AcDbEntity
  8
0
  6
Continuous
100
AcDbLine
 10
-29.82632000195878
 20
-126.8039068418243
 30
0.0
 11
-29.82632000195878
 21
-137.2719068418243
 31
0.0
  0
LINE
  5
307
330
70
100
AcDbEntity
  8
0
  6
Continuous
100
AcDbLine
 10
-17.82632000195877
 20
-137.1719068418243
 30
0.0
 11
-17.82632000195877
 21
-131.6949068418244
 31
0.0
  0
LINE
  5
308
330
70
100
AcDbEntity
  8
0
  6
Continuous
100
AcDbLine
 10
-29.62832000195877
 20
-146.9619068418244
 30
0.0
 11
-21.26232000195878
 21
-146.9619068418244
 31
0.0
  0
LINE
  5
309
330
70
100
AcDbEntity
  8
0
  6
Continuous
100
AcDbLine
 10
-21.26232000195878
 20
-126.6139068418243
 30
0.0
 11
-29.62832000195877
 21
-126.6139068418243
 31
0.0
  0
LINE
  5
30A
330
70
100
AcDbEntity
  8
0
  6
Continuous
100
AcDbLine
 10
-21.12632000195876
 20
-126.4169068418243
 30
0.0
 11
-21.12632000195876
 21
-126.6079068418243
 31
0.0
  0
LINE
  5
30B
330
70
100
AcDbEntity
  8
0
  6
Continuous
100
AcDbLine
 10
-21.12632000195876
 20
-125.9779068418243
 30
0.0
 11
-21.12632000195876
 21
-126.4169068418243
 31
0.0
  0
LINE
  5
30C
330
70
100
AcDbEntity
  8
0
  6
Continuous
100
AcDbLine
 10
-29.82632000195878
 20
-137.2719068418243
 30
0.0
 11
-29.82632000195878
 21
-140.9799068418243
 31
0.0
  0
LINE
  5
30D
330
70
100
AcDbEntity
  8
0
  6
Continuous
100
AcDbLine
 10
-29.82632000195878
 20
-140.9799068418243
 30
0.0
 11
-29.82632000195878
 21
-144.1239068418243
 31
0.0
  0
LINE
  5
30E
330
70
100
AcDbEntity
  8
0
  6
Continuous
100
AcDbLine
 10
-29.82632000195878
 20
-146.9619068418244
 30
0.0
 11
-29.62832000195877
 21
-146.9619068418244
 31
0.0
  0
LINE
  5
30F
330
70
100
AcDbEntity
  8
0
  6
Continuous
100
AcDbLine
 10
-29.82632000195878
 20
-146.2239068418243
 30
0.0
 11
-29.82632000195878
 21
-146.9619068418244
 31
0.0
  0
LINE
  5
310
330
70
100
AcDbEntity
  8
0
  6
Continuous
100
AcDbLine
 10
-29.82632000195878
 20
-146.2239068418243
 30
0.0
 11
-29.82632000195878
 21
-144.1239068418243
 31
0.0
  0
LINE
  5
311
330
70
100
AcDbEntity
  8
0
  6
Continuous
100
AcDbLine
 10
-29.82632000195878
 20
-126.6139068418243
 30
0.0
 11
-29.82632000195878
 21
-126.8039068418243
 31
0.0
  0
LINE
  5
312
330
70
100
AcDbEntity
  8
0
  6
Continuous
100
AcDbLine
 10
-29.62832000195877
 20
-126.6139068418243
 30
0.0
 11
-29.82632000195878
 21
-126.6139068418243
 31
0.0
  0
LINE
  5
313
330
70
100
AcDbEntity
  8
0
  6
Continuous
100
AcDbLine
 10
-21.12632000195876
 20
-126.6079068418243
 30
0.0
 11
-21.26232000195878
 21
-126.6139068418243
 31
0.0
  0
LINE
  5
314
330
70
100
AcDbEntity
  8
0
  6
Continuous
100
AcDbLine
 10
-21.01232000195878
 20
-146.9619068418244
 30
0.0
 11
-19.0633200019588
 21
-146.9619068418244
 31
0.0
  0
LINE
  5
315
330
70
100
AcDbEntity
  8
0
  6
Continuous
100
AcDbLine
 10
-19.0633200019588
 20
-146.9619068418244
 30
0.0
 11
-18.84632000195878
 21
-146.9619068418244
 31
0.0
  0
LINE
  5
316
330
70
100
AcDbEntity
  8
0
  6
Continuous
100
AcDbLine
 10
19.0976799980412
 20
-180.1909068418243
 30
0.0
 11
22.03567999804122
 21
-178.4949068418243
 31
0.0
  0
LINE
  5
317
330
70
100
AcDbEntity
  8
0
  6
Continuous
100
AcDbLine
 10
12.46367999804121
 20
-183.4799068418243
 30
0.0
 11
12.44667999804122
 21
-183.5429068418243
 31
0.0
  0
LINE
  5
318
330
70
100
AcDbEntity
  8
0
  6
Continuous
100
AcDbLine
 10
25.26467999804121
 20
-176.0889068418243
 30
0.0
 11
25.32667999804122
 21
-176.1059068418244
 31
0.0
  0
LINE
  5
319
330
70
100
AcDbEntity
  8
0
  6
Continuous
100
AcDbLine
 10
11.51567999804121
 20
-182.5109068418243
 30
0.0
 11
11.86267999804121
 21
-183.1039068418244
 31
0.0
  0
LINE
  5
31A
330
70
100
AcDbEntity
  8
0
  6
Continuous
100
AcDbLine
 10
12.01667999804121
 20
-182.8499068418244
 30
0.0
 11
12.46367999804121
 21
-183.4799068418243
 31
0.0
  0
LINE
  5
31B
330
70
100
AcDbEntity
  8
0
  6
Continuous
100
AcDbLine
 10
24.93567999804123
 20
-175.4139068418244
 30
0.0
 11
25.26467999804121
 21
-176.0889068418243
 31
0.0
  0
LINE
  5
31C
330
70
100
AcDbEntity
  8
0
  6
Continuous
100
AcDbLine
 10
25.23967999804123
 20
-175.3809068418243
 30
0.0
 11
24.89867999804122
 21
-174.7789068418243
 31
0.0
  0
LINE
  5
31D
330
70
100
AcDbEntity
  8
0
  6
Continuous
100
AcDbLine
 10
10.90667999804111
 20
-181.4739068418244
 30
0.0
 11
11.51567999804121
 21
-182.5109068418243
 31
0.0
  0
LINE
  5
31E
330
70
100
AcDbEntity
  8
0
  6
Continuous
100
AcDbLine
 10
11.39467999804122
 20
-181.7709068418244
 30
0.0
 11
12.01667999804121
 21
-182.8499068418244
 31
0.0
  0
LINE
  5
31F
330
70
100
AcDbEntity
  8
0
  6
Continuous
100
AcDbLine
 10
24.33167999804124
 20
-174.2429068418243
 30
0.0
 11
24.93567999804123
 21
-175.4139068418244
 31
0.0
  0
LINE
  5
320
330
70
100
AcDbEntity
  8
0
  6
Continuous
100
AcDbLine
 10
24.89867999804122
 20
-174.7789068418243
 30
0.0
 11
24.30667999804124
 21
-173.7589068418244
 31
0.0
  0
LINE
  5
321
330
70
100
AcDbEntity
  8
0
  6
Continuous
100
AcDbLine
 10
10.13867999804122
 20
-180.1209068418243
 30
0.0
 11
10.90667999804111
 21
-181.4739068418244
 31
0.0
  0
LINE
  5
322
330
70
100
AcDbEntity
  8
0
  6
Continuous
100
AcDbLine
 10
10.57767999804122
 20
-180.3199068418243
 30
0.0
 11
11.39467999804122
 21
-181.7709068418244
 31
0.0
  0
LINE
  5
323
330
70
100
AcDbEntity
  8
0
  6
Continuous
100
AcDbLine
 10
23.48567999804121
 20
-172.8659068418243
 30
0.0
 11
24.33167999804124
 21
-174.2429068418243
 31
0.0
  0
LINE
  5
324
330
70
100
AcDbEntity
  8
0
  6
Continuous
100
AcDbLine
 10
24.30667999804124
 20
-173.7589068418244
 30
0.0
 11
23.52367999804122
 21
-172.4079068418243
 31
0.0
  0
LINE
  5
325
330
70
100
AcDbEntity
  8
0
  6
Continuous
100
AcDbLine
 10
9.029679998041217
 20
-178.2179068418243
 30
0.0
 11
10.13867999804122
 21
-180.1209068418243
 31
0.0
  0
LINE
  5
326
330
70
100
AcDbEntity
  8
0
  6
Continuous
100
AcDbLine
 10
9.436679998041199
 20
-178.3089068418243
 30
0.0
 11
10.57767999804122
 21
-180.3199068418243
 31
0.0
  0
LINE
  5
327
330
70
100
AcDbEntity
  8
0
  6
Continuous
100
AcDbLine
 10
22.27167999804121
 20
-170.7279068418243
 30
0.0
 11
23.48567999804121
 21
-172.8659068418243
 31
0.0
  0
LINE
  5
328
330
70
100
AcDbEntity
  8
0
  6
Continuous
100
AcDbLine
 10
23.52367999804122
 20
-172.4079068418243
 30
0.0
 11
22.35967999804123
 21
-170.4019068418243
 31
0.0
  0
LINE
  5
329
330
70
100
AcDbEntity
  8
0
  6
Continuous
100
AcDbLine
 10
7.947679998041223
 20
-176.3459068418243
 30
0.0
 11
9.029679998041217
 21
-178.2179068418243
 31
0.0
  0
LINE
  5
32A
330
70
100
AcDbEntity
  8
0
  6
Continuous
100
AcDbLine
 10
8.236679998041239
 20
-176.2989068418243
 30
0.0
 11
9.436679998041199
 21
-178.3089068418243
 31
0.0
  0
LINE
  5
32B
330
70
100
AcDbEntity
  8
0
  6
Continuous
100
AcDbLine
 10
21.09467999804122
 20
-168.6979068418243
 30
0.0
 11
22.27167999804121
 21
-170.7279068418243
 31
0.0
  0
LINE
  5
32C
330
70
100
AcDbEntity
  8
0
  6
Continuous
100
AcDbLine
 10
22.35967999804123
 20
-170.4019068418243
 30
0.0
 11
21.2646799980412
 21
-168.4789068418244
 31
0.0
  0
LINE
  5
32D
330
70
100
AcDbEntity
  8
0
  6
Continuous
100
AcDbLine
 10
6.885679998041212
 20
-174.5059068418243
 30
0.0
 11
7.947679998041223
 21
-176.3459068418243
 31
0.0
  0
LINE
  5
32E
330
70
100
AcDbEntity
  8
0
  6
Continuous
100
AcDbLine
 10
7.09367999804121
 20
-174.3569068418243
 30
0.0
 11
8.236679998041239
 21
-176.2989068418243
 31
0.0
  0
LINE
  5
32F
330
70
100
AcDbEntity
  8
0
  6
Continuous
100
AcDbLine
 10
19.99267999804121
 20
-166.7409068418243
 30
0.0
 11
21.09467999804122
 21
-168.6979068418243
 31
0.0
  0
LINE
  5
330
330
70
100
AcDbEntity
  8
0
  6
Continuous
100
AcDbLine
 10
21.2646799980412
 20
-168.4789068418244
 30
0.0
 11
20.19967999804123
 21
-166.6389068418243
 31
0.0
  0
LINE
  5
331
330
70
100
AcDbEntity
  8
0
  6
Continuous
100
AcDbLine
 10
19.12267999804121
 20
-180.2329068418243
 30
0.0
 11
21.99667999804123
 21
-178.4299068418243
 31
0.0
  0
LINE
  5
332
330
70
100
AcDbEntity
  8
0
  6
Continuous
100
AcDbLine
 10
16.15967999804121
 20
-181.8869068418243
 30
0.0
 11
19.12267999804121
 21
-180.2329068418243
 31
0.0
  0
LINE
  5
333
330
70
100
AcDbEntity
  8
0
  6
Continuous
100
AcDbLine
 10
13.5446799980412
 20
-183.3969068418243
 30
0.0
 11
16.15967999804121
 21
-181.8869068418243
 31
0.0
  0
LINE
  5
334
330
70
100
AcDbEntity
  8
0
  6
Continuous
100
AcDbLine
 10
-20.52632000195879
 20
-111.5589068418243
 30
0.0
 11
-23.46532000195879
 21
-113.2549068418243
 31
0.0
  0
LINE
  5
335
330
70
100
AcDbEntity
  8
0
  6
Continuous
100
AcDbLine
 10
-26.07932000195879
 20
-114.7629068418243
 30
0.0
 11
-26.40332000195878
 21
-114.9499068418244
 31
0.0
  0
LINE
  5
336
330
70
100
AcDbEntity
  8
0
  6
Continuous
100
AcDbLine
 10
-13.91932000195879
 20
-108.2209068418243
 30
0.0
 11
-13.90432000195881
 21
-108.1649068418244
 31
0.0
  0
LINE
  5
337
330
70
100
AcDbEntity
  8
0
  6
Continuous
100
AcDbLine
 10
-26.72132000195879
 20
-115.6119068418244
 30
0.0
 11
-26.7773200019588
 21
-115.5969068418243
 31
0.0
  0
LINE
  5
338
330
70
100
AcDbEntity
  8
0
  6
Continuous
100
AcDbLine
 10
-12.17932000195878
 20
-110.5159068418243
 30
0.0
 11
-12.47332000195877
 21
-110.0079068418243
 31
0.0
  0
LINE
  5
339
330
70
100
AcDbEntity
  8
0
  6
Continuous
100
AcDbLine
 10
-13.47132000195879
 20
-108.8479068418243
 30
0.0
 11
-13.91932000195879
 21
-108.2209068418243
 31
0.0
  0
LINE
  5
33A
330
70
100
AcDbEntity
  8
0
  6
Continuous
100
AcDbLine
 10
-11.67832000195878
 20
-111.3839068418243
 30
0.0
 11
-12.17932000195878
 21
-110.5159068418243
 31
0.0
  0
LINE
  5
33B
330
70
100
AcDbEntity
  8
0
  6
Continuous
100
AcDbLine
 10
-25.5923200019588
 20
-118.2849068418243
 30
0.0
 11
-24.85432000195877
 21
-119.5629068418244
 31
0.0
  0
LINE
  5
33C
330
70
100
AcDbEntity
  8
0
  6
Continuous
100
AcDbLine
 10
-12.85132000195878
 20
-109.9299068418243
 30
0.0
 11
-13.47132000195879
 21
-108.8479068418243
 31
0.0
  0
LINE
  5
33D
330
70
100
AcDbEntity
  8
0
  6
Continuous
100
AcDbLine
 10
-12.17932000195878
 20
-110.5159068418243
 30
0.0
 11
-11.03232000195879
 21
-112.5899068418243
 31
0.0
  0
LINE
  5
33E
330
70
100
AcDbEntity
  8
0
  6
Continuous
100
AcDbLine
 10
-25.78832000195877
 20
-117.4579068418243
 30
0.0
 11
-26.39332000195878
 21
-116.2869068418243
 31
0.0
  0
LINE
  5
33F
330
70
100
AcDbEntity
  8
0
  6
Continuous
100
AcDbLine
 10
-11.02932000195878
 20
-112.5069068418243
 30
0.0
 11
-11.67832000195878
 21
-111.3839068418243
 31
0.0
  0
LINE
  5
340
330
70
100
AcDbEntity
  8
0
  6
Continuous
100
AcDbLine
 10
-12.02932000195878
 20
-111.3749068418243
 30
0.0
 11
-12.85132000195878
 21
-109.9299068418243
 31
0.0
  0
LINE
  5
341
330
70
100
AcDbEntity
  8
0
  6
Continuous
100
AcDbLine
 10
-24.94132000195879
 20
-118.8359068418243
 30
0.0
 11
-25.78832000195877
 21
-117.4579068418243
 31
0.0
  0
LINE
  5
342
330
70
100
AcDbEntity
  8
0
  6
Continuous
100
AcDbLine
 10
-23.78632000195878
 20
-121.3489068418243
 30
0.0
 11
-23.81532000195881
 21
-121.2989068418243
 31
0.0
  0
LINE
  5
343
330
70
100
AcDbEntity
  8
0
  6
Continuous
100
AcDbLine
 10
-10.88932000195876
 20
-113.3889068418243
 30
0.0
 11
-12.02932000195878
 21
-111.3749068418243
 31
0.0
  0
LINE
  5
344
330
70
100
AcDbEntity
  8
0
  6
Continuous
100
AcDbLine
 10
-23.7293200019588
 20
-120.9739068418244
 30
0.0
 11
-24.94132000195879
 21
-118.8359068418243
 31
0.0
  0
LINE
  5
345
330
70
100
AcDbEntity
  8
0
  6
Continuous
100
AcDbLine
 10
-9.40432000195878
 20
-115.3559068418243
 30
0.0
 11
-10.48432000195879
 21
-113.4819068418243
 31
0.0
  0
LINE
  5
346
330
70
100
AcDbEntity
  8
0
  6
Continuous
100
AcDbLine
 10
-9.68932000195889
 20
-115.3999068418243
 30
0.0
 11
-10.88932000195876
 21
-113.3889068418243
 31
0.0
  0
LINE
  5
347
330
70
100
AcDbEntity
  8
0
  6
Continuous
100
AcDbLine
 10
-22.55332000195878
 20
-123.0049068418243
 30
0.0
 11
-23.7293200019588
 21
-120.9739068418244
 31
0.0
  0
LINE
  5
348
330
70
100
AcDbEntity
  8
0
  6
Continuous
100
AcDbLine
 10
-23.81532000195881
 20
-121.2989068418243
 30
0.0
 11
-22.72132000195879
 21
-123.2219068418243
 31
0.0
  0
LINE
  5
349
330
70
100
AcDbEntity
  8
0
  6
Continuous
100
AcDbLine
 10
-8.341320001958791
 20
-117.1959068418243
 30
0.0
 11
-9.40432000195878
 21
-115.3559068418243
 31
0.0
  0
LINE
  5
34A
330
70
100
AcDbEntity
  8
0
  6
Continuous
100
AcDbLine
 10
-8.402320001958798
 20
-117.2599068418243
 30
0.0
 11
-9.68932000195889
 21
-115.3999068418243
 31
0.0
  0
LINE
  5
34B
330
70
100
AcDbEntity
  8
0
  6
Continuous
100
AcDbLine
 10
-21.44832000195879
 20
-124.9599068418243
 30
0.0
 11
-22.55332000195878
 21
-123.0049068418243
 31
0.0
  0
LINE
  5
34C
330
70
100
AcDbEntity
  8
0
  6
Continuous
100
AcDbLine
 10
-22.72132000195879
 20
-123.2219068418243
 30
0.0
 11
-21.65532000195879
 21
-125.0619068418243
 31
0.0
  0
LINE
  5
34D
330
70
100
AcDbEntity
  8
0
  6
Continuous
100
AcDbLine
 10
-17.58832000195878
 20
-109.8639068418243
 30
0.0
 11
-20.52632000195879
 21
-111.5589068418243
 31
0.0
  0
LINE
  5
34E
330
70
100
AcDbEntity
  8
0
  6
Continuous
100
AcDbLine
 10
-21.24832000195878
 20
-125.3049068418243
 30
0.0
 11
-21.44832000195879
 21
-124.9599068418243
 31
0.0
  0
LINE
  5
34F
330
70
100
AcDbEntity
  8
0
  6
Continuous
100
AcDbLine
 10
-21.65532000195879
 20
-125.0619068418243
 30
0.0
 11
-21.45532000195879
 21
-125.4069068418243
 31
0.0
  0
LINE
  5
350
330
70
100
AcDbEntity
  8
0
  6
Continuous
100
AcDbLine
 10
-8.142320001958779
 20
-117.5419068418243
 30
0.0
 11
-8.341320001958791
 21
-117.1959068418243
 31
0.0
  0
LINE
  5
351
330
70
100
AcDbEntity
  8
0
  6
Continuous
100
AcDbLine
 10
-8.402320001958798
 20
-117.2599068418243
 30
0.0
 11
-8.206320001958772
 21
-117.6059068418243
 31
0.0
  0
LINE
  5
352
330
70
100
AcDbEntity
  8
0
  6
Continuous
100
AcDbLine
 10
-14.96132000195879
 20
-108.3479068418244
 30
0.0
 11
-17.58832000195878
 21
-109.8639068418243
 31
0.0
  0
LINE
  5
353
330
70
100
AcDbEntity
  8
0
  6
Continuous
100
AcDbLine
 10
-8.206320001958772
 20
-117.6059068418243
 30
0.0
 11
19.77367999804122
 21
-166.3599068418244
 31
0.0
  0
LINE
  5
354
330
70
100
AcDbEntity
  8
0
  6
Continuous
100
AcDbLine
 10
19.9796799980412
 20
-166.2579068418243
 30
0.0
 11
-8.142320001958779
 21
-117.5419068418243
 31
0.0
  0
LINE
  5
355
330
70
100
AcDbEntity
  8
0
  6
Continuous
100
AcDbLine
 10
-21.45532000195879
 20
-125.4069068418243
 30
0.0
 11
6.665679998041213
 21
-174.1249068418243
 31
0.0
  0
LINE
  5
356
330
70
100
AcDbEntity
  8
0
  6
Continuous
100
AcDbLine
 10
6.873679998041211
 20
-173.9759068418243
 30
0.0
 11
-21.24832000195878
 21
-125.3049068418243
 31
0.0
  0
LINE
  5
357
330
70
100
AcDbEntity
  8
0
  6
Continuous
100
AcDbLine
 10
-13.30332000195878
 20
-108.5799068418243
 30
0.0
 11
-13.9033200019588
 21
-108.1589068418244
 31
0.0
  0
LINE
  5
358
330
70
100
AcDbEntity
  8
0
  6
Continuous
100
AcDbLine
 10
-13.23432000195879
 20
-108.6979068418243
 30
0.0
 11
-13.30332000195878
 21
-108.5799068418243
 31
0.0
  0
LINE
  5
359
330
70
100
AcDbEntity
  8
0
  6
Continuous
100
AcDbLine
 10
-26.40332000195878
 20
-114.9499068418244
 30
0.0
 11
-26.7833200019588
 21
-115.5949068418243
 31
0.0
  0
LINE
  5
35A
330
70
100
AcDbEntity
  8
0
  6
Continuous
100
AcDbLine
 10
-26.7833200019588
 20
-115.5949068418243
 30
0.0
 11
-26.71832000195877
 21
-116.3249068418243
 31
0.0
  0
LINE
  5
35B
330
70
100
AcDbEntity
  8
0
  6
Continuous
100
AcDbLine
 10
-12.44032000195878
 20
-110.0639068418243
 30
0.0
 11
-12.5933200019588
 21
-109.7999068418243
 31
0.0
  0
LINE
  5
35C
330
70
100
AcDbEntity
  8
0
  6
Continuous
100
AcDbLine
 10
19.77367999804122
 20
-166.3599068418244
 30
0.0
 11
19.99267999804121
 21
-166.7409068418243
 31
0.0
  0
LINE
  5
35D
330
70
100
AcDbEntity
  8
0
  6
Continuous
100
AcDbLine
 10
20.19967999804123
 20
-166.6389068418243
 30
0.0
 11
19.9796799980412
 21
-166.2579068418243
 31
0.0
  0
LINE
  5
35E
330
70
100
AcDbEntity
  8
0
  6
Continuous
100
AcDbLine
 10
6.665679998041213
 20
-174.1249068418243
 30
0.0
 11
6.885679998041212
 21
-174.5059068418243
 31
0.0
  0
LINE
  5
35F
330
70
100
AcDbEntity
  8
0
  6
Continuous
100
AcDbLine
 10
7.09367999804121
 20
-174.3569068418243
 30
0.0
 11
6.873679998041211
 21
-173.9759068418243
 31
0.0
  0
LINE
  5
360
330
70
100
AcDbEntity
  8
0
  6
Continuous
100
AcDbLine
 10
22.03567999804122
 20
-178.4949068418243
 30
0.0
 11
24.66267999804123
 21
-176.9789068418243
 31
0.0
  0
LINE
  5
361
330
70
100
AcDbEntity
  8
0
  6
Continuous
100
AcDbLine
 10
24.66267999804123
 20
-176.9789068418243
 30
0.0
 11
24.97367999804121
 21
-176.7989068418243
 31
0.0
  0
LINE
  5
362
330
70
100
AcDbEntity
  8
0
  6
Continuous
100
AcDbLine
 10
-14.65032000195879
 20
-108.1689068418243
 30
0.0
 11
-14.96132000195879
 21
-108.3479068418244
 31
0.0
  0
LINE
  5
363
330
70
100
AcDbEntity
  8
0
  6
Continuous
100
AcDbLine
 10
-23.46532000195879
 20
-113.2549068418243
 30
0.0
 11
-26.07932000195879
 21
-114.7629068418243
 31
0.0
  0
LINE
  5
364
330
70
100
AcDbEntity
  8
0
  6
Continuous
100
AcDbLine
 10
-12.47332000195877
 20
-110.0079068418243
 30
0.0
 11
-12.44332000195877
 21
-110.0589068418243
 31
0.0
  0
LINE
  5
365
330
70
100
AcDbEntity
  8
0
  6
Continuous
100
AcDbLine
 10
-25.8963200019588
 20
-117.7579068418243
 30
0.0
 11
-25.5923200019588
 21
-118.2849068418243
 31
0.0
  0
LINE
  5
366
330
70
100
AcDbEntity
  8
0
  6
Continuous
100
AcDbLine
 10
-25.10432000195877
 20
-119.1299068418244
 30
0.0
 11
-24.45332000195887
 21
-120.2569068418243
 31
0.0
  0
LINE
  5
367
330
70
100
AcDbEntity
  8
0
  6
Continuous
100
AcDbLine
 10
-24.45332000195887
 20
-120.2569068418243
 30
0.0
 11
-23.4443200019588
 21
-121.9249068418243
 31
0.0
  0
LINE
  5
368
330
70
100
AcDbEntity
  8
0
  6
Continuous
100
AcDbLine
 10
-12.44032000195878
 20
-110.0649068418243
 30
0.0
 11
-12.61232000195878
 21
-109.7679068418243
 31
0.0
  0
LINE
  5
369
330
70
100
AcDbEntity
  8
0
  6
Continuous
100
AcDbLine
 10
11.79167999804119
 20
-182.9949068418243
 30
0.0
 11
11.84667999804119
 21
-183.1219068418243
 31
0.0
  0
LINE
  5
36A
330
70
100
AcDbEntity
  8
0
  6
Continuous
100
AcDbLine
 10
-12.61232000195878
 20
-109.7679068418243
 30
0.0
 11
-13.23432000195879
 21
-108.6979068418243
 31
0.0
  0
LINE
  5
36B
330
70
100
AcDbEntity
  8
0
  6
Continuous
100
AcDbLine
 10
-10.48432000195879
 20
-113.4819068418243
 30
0.0
 11
-10.4563200019588
 21
-113.5329068418243
 31
0.0
  0
LINE
  5
36C
330
70
100
AcDbEntity
  8
0
  6
Continuous
100
AcDbLine
 10
-26.71832000195877
 20
-116.3249068418243
 30
0.0
 11
-26.65432000195878
 21
-116.4369068418243
 31
0.0
  0
LINE
  5
36D
330
70
100
AcDbEntity
  8
0
  6
Continuous
100
AcDbLine
 10
45.99567999804122
 20
-144.7739068418243
 30
0.0
 11
45.96767999804121
 21
-144.7359068418244
 31
0.0
  0
LINE
  5
36E
330
70
100
AcDbEntity
  8
0
  6
Continuous
100
AcDbLine
 10
45.8486799980412
 20
-146.6119068418243
 30
0.0
 11
45.72867999804123
 21
-146.2939068418243
 31
0.0
  0
LINE
  5
36F
330
70
100
AcDbEntity
  8
0
  6
Continuous
100
AcDbLine
 10
44.69567999804121
 20
-144.8559068418244
 30
0.0
 11
45.29867999804122
 21
-145.5359068418243
 31
0.0
  0
LINE
  5
370
330
70
100
AcDbEntity
  8
0
  6
Continuous
100
AcDbLine
 10
44.1816799980412
 20
-144.4589068418243
 30
0.0
 11
44.69567999804121
 21
-144.8559068418244
 31
0.0
  0
LINE
  5
371
330
70
100
AcDbEntity
  8
0
  6
Continuous
100
AcDbLine
 10
46.73267999804119
 20
-146.5229068418243
 30
0.0
 11
46.00967999804123
 21
-146.7219068418243
 31
0.0
  0
LINE
  5
372
330
70
100
AcDbEntity
  8
0
  6
Continuous
100
AcDbLine
 10
45.99567999804122
 20
-144.7739068418243
 30
0.0
 11
45.9686799980412
 21
-144.7359068418244
 31
0.0
  0
LINE
  5
373
330
70
100
AcDbEntity
  8
0
  6
Continuous
100
AcDbLine
 10
46.00967999804123
 20
-146.7219068418243
 30
0.0
 11
46.73267999804119
 21
-146.5229068418243
 31
0.0
  0
LINE
  5
374
330
70
100
AcDbEntity
  8
0
  6
Continuous
100
AcDbLine
 10
-9.899320001958784
 20
-112.7089068418243
 30
0.0
 11
-10.27032000195879
 21
-113.3609068418244
 31
0.0
  0
LINE
  5
375
330
70
100
AcDbEntity
  8
0
  6
Continuous
100
AcDbLine
 10
46.00967999804123
 20
-146.7219068418243
 30
0.0
 11
46.73267999804119
 21
-146.5229068418243
 31
0.0
  0
LINE
  5
376
330
70
100
AcDbEntity
  8
0
  6
Continuous
100
AcDbLine
 10
46.73267999804119
 20
-146.5229068418243
 30
0.0
 11
46.00967999804123
 21
-146.7219068418243
 31
0.0
  0
LINE
  5
377
330
70
100
AcDbEntity
  8
0
  6
Continuous
100
AcDbLine
 10
46.00967999804123
 20
-146.7219068418243
 30
0.0
 11
46.73267999804119
 21
-146.5229068418243
 31
0.0
  0
LINE
  5
378
330
70
100
AcDbEntity
  8
0
  6
Continuous
100
AcDbLine
 10
46.77467999804122
 20
-146.2369068418243
 30
0.0
 11
46.56367999804124
 21
-145.7059068418244
 31
0.0
  0
LINE
  5
379
330
70
100
AcDbEntity
  8
0
  6
Continuous
100
AcDbLine
 10
-10.28732000195879
 20
-113.4549068418243
 30
0.0
 11
-10.2433200019588
 21
-113.5159068418243
 31
0.0
  0
LINE
  5
37A
330
70
100
AcDbEntity
  8
0
  6
Continuous
100
AcDbLine
 10
45.63767999804122
 20
-146.0569068418243
 30
0.0
 11
45.83667999804123
 21
-146.5809068418243
 31
0.0
  0
LINE
  5
37B
330
70
100
AcDbEntity
  8
0
  6
Continuous
100
AcDbLine
 10
-9.749320001958778
 20
-112.6469068418243
 30
0.0
 11
-9.824320001958795
 21
-112.6409068418243
 31
0.0
  0
LINE
  5
37C
330
70
100
AcDbEntity
  8
0
  6
Continuous
100
AcDbLine
 10
44.55267999804121
 20
-144.7109068418243
 30
0.0
 11
45.19267999804123
 21
-145.3629068418243
 31
0.0
  0
LINE
  5
37D
330
70
100
AcDbEntity
  8
0
  6
Continuous
100
AcDbLine
 10
-9.675320001958795
 20
-112.7259068418243
 30
0.0
 11
-9.824320001958795
 21
-112.6409068418243
 31
0.0
  0
LINE
  5
37E
330
70
100
AcDbEntity
  8
0
  6
Continuous
100
AcDbLine
 10
-9.824320001958795
 20
-112.6409068418243
 30
0.0
 11
-9.885320001958774
 21
-112.6849068418243
 31
0.0
  0
LINE
  5
37F
330
70
100
AcDbEntity
  8
0
  6
Continuous
100
AcDbLine
 10
-9.102320001958787
 20
-113.0149068418244
 30
0.0
 11
-9.531320001958789
 21
-112.7709068418244
 31
0.0
  0
LINE
  5
380
330
70
100
AcDbEntity
  8
0
  6
Continuous
100
AcDbLine
 10
45.2886799980412
 20
-144.0179068418243
 30
0.0
 11
44.50667999804122
 21
-143.4689068418244
 31
0.0
  0
LINE
  5
381
330
70
100
AcDbEntity
  8
0
  6
Continuous
100
AcDbLine
 10
43.20267999804122
 20
-142.7279068418243
 30
0.0
 11
-6.358320001958787
 21
-114.5729068418243
 31
0.0
  0
LINE
  5
382
330
70
100
AcDbEntity
  8
0
  6
Continuous
100
AcDbLine
 10
-7.406320001958789
 20
-113.9779068418243
 30
0.0
 11
-8.351320001958782
 21
-113.4409068418243
 31
0.0
  0
LINE
  5
383
330
70
100
AcDbEntity
  8
0
  6
Continuous
100
AcDbLine
 10
-9.531320001958789
 20
-112.7709068418244
 30
0.0
 11
-9.583320001958782
 21
-112.7409068418243
 31
0.0
  0
LINE
  5
384
330
70
100
AcDbEntity
  8
0
  6
Continuous
100
AcDbLine
 10
-7.440320001958809
 20
-113.9949068418243
 30
0.0
 11
-8.402320001958798
 21
-113.4489068418243
 31
0.0
  0
LINE
  5
385
330
70
100
AcDbEntity
  8
0
  6
Continuous
100
AcDbLine
 10
46.76067999804121
 20
-146.5159068418244
 30
0.0
 11
46.8186799980412
 21
-146.4659068418243
 31
0.0
  0
LINE
  5
386
330
70
100
AcDbEntity
  8
0
  6
Continuous
100
AcDbLine
 10
46.82967999804122
 20
-146.3909068418244
 30
0.0
 11
46.81667999804119
 21
-146.3489068418243
 31
0.0
  0
LINE
  5
387
330
70
100
AcDbEntity
  8
0
  6
Continuous
100
AcDbLine
 10
46.8186799980412
 20
-146.4659068418243
 30
0.0
 11
46.82967999804122
 21
-146.3909068418244
 31
0.0
  0
LINE
  5
388
330
70
100
AcDbEntity
  8
0
  6
Continuous
100
AcDbLine
 10
46.80567999804122
 20
-146.4239068418243
 30
0.0
 11
46.8186799980412
 21
-146.4659068418243
 31
0.0
  0
LINE
  5
389
330
70
100
AcDbEntity
  8
0
  6
Continuous
100
AcDbLine
 10
-10.28732000195879
 20
-113.4549068418243
 30
0.0
 11
-10.13732000195878
 21
-113.5399068418243
 31
0.0
  0
LINE
  5
38A
330
70
100
AcDbEntity
  8
0
  6
Continuous
100
AcDbLine
 10
-10.28132000195879
 20
-113.3799068418243
 30
0.0
 11
-10.28732000195879
 21
-113.4549068418243
 31
0.0
  0
LINE
  5
38B
330
70
100
AcDbEntity
  8
0
  6
Continuous
100
AcDbLine
 10
42.72467999804121
 20
-143.5699068418244
 30
0.0
 11
43.62967999804121
 21
-144.1129068418244
 31
0.0
  0
LINE
  5
38C
330
70
100
AcDbEntity
  8
0
  6
Continuous
100
AcDbLine
 10
-9.602320001958787
 20
-112.7669068418243
 30
0.0
 11
-9.655320001958784
 21
-112.7369068418243
 31
0.0
  0
LINE
  5
38D
330
70
100
AcDbEntity
  8
0
  6
Continuous
100
AcDbLine
 10
45.29867999804122
 20
-145.5359068418243
 30
0.0
 11
45.67967999804119
 21
-146.1659068418244
 31
0.0
  0
LINE
  5
38E
330
70
100
AcDbEntity
  8
0
  6
Continuous
100
AcDbLine
 10
44.69567999804121
 20
-144.8559068418244
 30
0.0
 11
45.29867999804122
 21
-145.5359068418243
 31
0.0
  0
LINE
  5
38F
330
70
100
AcDbEntity
  8
0
  6
Continuous
100
AcDbLine
 10
44.1816799980412
 20
-144.4589068418243
 30
0.0
 11
44.69567999804121
 21
-144.8559068418244
 31
0.0
  0
LINE
  5
390
330
70
100
AcDbEntity
  8
0
  6
Continuous
100
AcDbLine
 10
45.42467999804123
 20
-145.7399068418243
 30
0.0
 11
45.72867999804123
 21
-146.2939068418243
 31
0.0
  0
LINE
  5
391
330
70
100
AcDbEntity
  8
0
  6
Continuous
100
AcDbLine
 10
44.86467999804122
 20
-145.0259068418243
 30
0.0
 11
45.42467999804123
 21
-145.7399068418243
 31
0.0
  0
LINE
  5
392
330
70
100
AcDbEntity
  8
0
  6
Continuous
100
AcDbLine
 10
44.69567999804121
 20
-144.8559068418244
 30
0.0
 11
44.35167999804122
 21
-144.5799068418244
 31
0.0
  0
LINE
  5
393
330
70
100
AcDbEntity
  8
0
  6
Continuous
100
AcDbLine
 10
44.86467999804122
 20
-145.0259068418243
 30
0.0
 11
44.69567999804121
 21
-144.8559068418244
 31
0.0
  0
LINE
  5
394
330
70
100
AcDbEntity
  8
0
  6
Continuous
100
AcDbLine
 10
44.35167999804122
 20
-144.5799068418244
 30
0.0
 11
44.86467999804122
 21
-145.0259068418243
 31
0.0
  0
LINE
  5
395
330
70
100
AcDbEntity
  8
0
  6
Continuous
100
AcDbLine
 10
43.80367999804121
 20
-144.2189068418244
 30
0.0
 11
44.35167999804122
 21
-144.5799068418244
 31
0.0
  0
LINE
  5
396
330
70
100
AcDbEntity
  8
0
  6
Continuous
100
AcDbLine
 10
45.42867999804118
 20
-144.1479068418243
 30
0.0
 11
45.35867999804122
 21
-144.0819068418243
 31
0.0
  0
LINE
  5
397
330
70
100
AcDbEntity
  8
0
  6
Continuous
100
AcDbLine
 10
45.9616799980412
 20
-144.7259068418243
 30
0.0
 11
45.91967999804123
 21
-144.6679068418243
 31
0.0
  0
LINE
  5
398
330
70
100
AcDbEntity
  8
0
  6
Continuous
100
AcDbLine
 10
45.19267999804123
 20
-145.3629068418243
 30
0.0
 11
44.62567999804119
 21
-144.7849068418243
 31
0.0
  0
LINE
  5
399
330
70
100
AcDbEntity
  8
0
  6
Continuous
100
AcDbLine
 10
44.62567999804119
 20
-144.7849068418243
 30
0.0
 11
44.55267999804121
 21
-144.7109068418243
 31
0.0
  0
LINE
  5
39A
330
70
100
AcDbEntity
  8
0
  6
Continuous
100
AcDbLine
 10
46.0976799980412
 20
-144.9169068418243
 30
0.0
 11
46.00167999804122
 21
-144.7819068418243
 31
0.0
  0
LINE
  5
39B
330
70
100
AcDbEntity
  8
0
  6
Continuous
100
AcDbLine
 10
46.57167999804122
 20
-145.7179068418243
 30
0.0
 11
46.0976799980412
 21
-144.9169068418243
 31
0.0
  0
LINE
  5
39C
330
70
100
AcDbEntity
  8
0
  6
Continuous
100
AcDbLine
 10
45.23067999804124
 20
-145.3579068418243
 30
0.0
 11
44.5676799980412
 21
-144.6879068418243
 31
0.0
  0
LINE
  5
39D
330
70
100
AcDbEntity
  8
0
  6
Continuous
100
AcDbLine
 10
45.91567999804121
 20
-146.7159068418243
 30
0.0
 11
45.98867999804122
 21
-146.7279068418243
 31
0.0
  0
LINE
  5
39E
330
70
100
AcDbEntity
  8
0
  6
Continuous
100
AcDbLine
 10
45.90267999804121
 20
-146.6439068418243
 30
0.0
 11
45.91567999804121
 21
-146.7159068418243
 31
0.0
  0
LINE
  5
39F
330
70
100
AcDbEntity
  8
0
  6
Continuous
100
AcDbLine
 10
43.18667999804119
 20
-142.7559068418243
 30
0.0
 11
44.1096799980412
 21
-143.2819068418243
 31
0.0
  0
LINE
  5
3A0
330
70
100
AcDbEntity
  8
0
  6
Continuous
100
AcDbLine
 10
-9.749320001958778
 20
-112.6469068418243
 30
0.0
 11
-9.877320001958793
 21
-112.5739068418244
 31
0.0
  0
LINE
  5
3A1
330
70
100
AcDbEntity
  8
0
  6
Continuous
100
AcDbLine
 10
-10.22732000195879
 20
-112.3749068418243
 30
0.0
 11
-10.7063200019588
 21
-112.1029068418243
 31
0.0
  0
LINE
  5
3A2
330
70
100
AcDbEntity
  8
0
  6
Continuous
100
AcDbLine
 10
45.9086799980412
 20
-144.6529068418243
 30
0.0
 11
45.2886799980412
 21
-144.0179068418243
 31
0.0
  0
LINE
  5
3A3
330
70
100
AcDbEntity
  8
0
  6
Continuous
100
AcDbLine
 10
-10.11832000195878
 20
-113.5509068418244
 30
0.0
 11
-10.06532000195878
 21
-113.5809068418244
 31
0.0
  0
LINE
  5
3A4
330
70
100
AcDbEntity
  8
0
  6
Continuous
100
AcDbLine
 10
-7.440320001958809
 20
-113.9949068418243
 30
0.0
 11
-6.374320001958778
 21
-114.6009068418243
 31
0.0
  0
LINE
  5
3A5
330
70
100
AcDbEntity
  8
0
  6
Continuous
100
AcDbLine
 10
-6.358320001958787
 20
-114.5729068418243
 30
0.0
 11
-7.406320001958789
 21
-113.9779068418243
 31
0.0
  0
LINE
  5
3A6
330
70
100
AcDbEntity
  8
0
  6
Continuous
100
AcDbLine
 10
44.05367999804122
 20
-144.3289068418243
 30
0.0
 11
44.5676799980412
 21
-144.6879068418243
 31
0.0
  0
LINE
  5
3A7
330
70
100
AcDbEntity
  8
0
  6
Continuous
100
AcDbLine
 10
-9.165320001958775
 20
-113.0149068418244
 30
0.0
 11
-9.602320001958787
 21
-112.7669068418243
 31
0.0
  0
LINE
  5
3A8
330
70
100
AcDbEntity
  8
0
  6
Continuous
100
AcDbLine
 10
-9.877320001958793
 20
-112.5739068418244
 30
0.0
 11
-10.22732000195879
 21
-112.3749068418243
 31
0.0
  0
LINE
  5
3A9
330
70
100
AcDbEntity
  8
0
  6
Continuous
100
AcDbLine
 10
-10.7063200019588
 20
-112.1029068418243
 30
0.0
 11
-12.01032000195877
 21
-111.3629068418243
 31
0.0
  0
LINE
  5
3AA
330
70
100
AcDbEntity
  8
0
  6
Continuous
100
AcDbLine
 10
-10.27332000195878
 20
-112.3859068418244
 30
0.0
 11
-10.72132000195878
 21
-112.1309068418243
 31
0.0
  0
LINE
  5
3AB
330
70
100
AcDbEntity
  8
0
  6
Continuous
100
AcDbLine
 10
-9.824320001958795
 20
-112.6409068418243
 30
0.0
 11
-9.944320001958772
 21
-112.5729068418243
 31
0.0
  0
LINE
  5
3AC
330
70
100
AcDbEntity
  8
0
  6
Continuous
100
AcDbLine
 10
-9.944320001958772
 20
-112.5729068418243
 30
0.0
 11
-10.27332000195878
 21
-112.3859068418244
 31
0.0
  0
LINE
  5
3AD
330
70
100
AcDbEntity
  8
0
  6
Continuous
100
AcDbLine
 10
-8.351320001958782
 20
-113.4409068418243
 30
0.0
 11
-9.102320001958787
 21
-113.0149068418244
 31
0.0
  0
LINE
  5
3AE
330
70
100
AcDbEntity
  8
0
  6
Continuous
100
AcDbLine
 10
-9.165320001958775
 20
-113.0149068418244
 30
0.0
 11
-8.402320001958798
 21
-113.4489068418243
 31
0.0
  0
LINE
  5
3AF
330
70
100
AcDbEntity
  8
0
  6
Continuous
100
AcDbLine
 10
-10.72132000195878
 20
-112.1309068418243
 30
0.0
 11
-12.02532000195876
 21
-111.3899068418243
 31
0.0
  0
LINE
  5
3B0
330
70
100
AcDbEntity
  8
0
  6
Continuous
100
AcDbLine
 10
43.18667999804119
 20
-142.7559068418243
 30
0.0
 11
-6.374320001958778
 21
-114.6009068418243
 31
0.0
  0
LINE
  5
3B1
330
70
100
AcDbEntity
  8
0
  6
Continuous
100
AcDbLine
 10
44.1096799980412
 20
-143.2819068418243
 30
0.0
 11
44.51367999804119
 21
-143.5129068418243
 31
0.0
  0
LINE
  5
3B2
330
70
100
AcDbEntity
  8
0
  6
Continuous
100
AcDbLine
 10
46.51167999804122
 20
-145.6919068418243
 30
0.0
 11
45.90967999804121
 21
-144.7119068418244
 31
0.0
  0
LINE
  5
3B3
330
70
100
AcDbEntity
  8
0
  6
Continuous
100
AcDbLine
 10
46.8076799980412
 20
-146.3179068418243
 30
0.0
 11
46.77467999804122
 21
-146.2369068418243
 31
0.0
  0
LINE
  5
3B4
330
70
100
AcDbEntity
  8
0
  6
Continuous
100
AcDbLine
 10
46.75867999804123
 20
-146.2999068418243
 30
0.0
 11
46.79667999804121
 21
-146.3929068418243
 31
0.0
  0
LINE
  5
3B5
330
70
100
AcDbEntity
  8
0
  6
Continuous
100
AcDbLine
 10
-10.28732000195879
 20
-113.4549068418243
 30
0.0
 11
-10.40732000195879
 21
-113.3869068418243
 31
0.0
  0
LINE
  5
3B6
330
70
100
AcDbEntity
  8
0
  6
Continuous
100
AcDbLine
 10
45.90267999804121
 20
-146.6439068418243
 30
0.0
 11
45.89267999804121
 21
-146.5899068418243
 31
0.0
  0
LINE
  5
3B7
330
70
100
AcDbEntity
  8
0
  6
Continuous
100
AcDbLine
 10
45.8616799980412
 20
-146.5159068418244
 30
0.0
 11
45.89267999804121
 21
-146.5899068418243
 31
0.0
  0
LINE
  5
3B8
330
70
100
AcDbEntity
  8
0
  6
Continuous
100
AcDbLine
 10
-7.900320001958789
 20
-114.8469068418243
 30
0.0
 11
-6.852320001958787
 21
-115.4429068418243
 31
0.0
  0
LINE
  5
3B9
330
70
100
AcDbEntity
  8
0
  6
Continuous
100
AcDbLine
 10
-8.845320001958782
 20
-114.3099068418244
 30
0.0
 11
-7.900320001958789
 21
-114.8469068418243
 31
0.0
  0
LINE
  5
3BA
330
70
100
AcDbEntity
  8
0
  6
Continuous
100
AcDbLine
 10
-7.903320001958775
 20
-114.8099068418243
 30
0.0
 11
-8.864320001958787
 21
-114.2629068418243
 31
0.0
  0
LINE
  5
3BB
330
70
100
AcDbEntity
  8
0
  6
Continuous
100
AcDbLine
 10
-9.596320001958787
 20
-113.8839068418243
 30
0.0
 11
-8.845320001958782
 21
-114.3099068418244
 31
0.0
  0
LINE
  5
3BC
330
70
100
AcDbEntity
  8
0
  6
Continuous
100
AcDbLine
 10
-8.864320001958787
 20
-114.2629068418243
 30
0.0
 11
-9.628320001958798
 21
-113.8299068418243
 31
0.0
  0
LINE
  5
3BD
330
70
100
AcDbEntity
  8
0
  6
Continuous
100
AcDbLine
 10
-7.903320001958775
 20
-114.8099068418243
 30
0.0
 11
-6.836320001958767
 21
-115.4149068418244
 31
0.0
  0
LINE
  5
3BE
330
70
100
AcDbEntity
  8
0
  6
Continuous
100
AcDbLine
 10
-10.40732000195879
 20
-113.3869068418243
 30
0.0
 11
-10.73532000195879
 21
-113.1999068418243
 31
0.0
  0
LINE
  5
3BF
330
70
100
AcDbEntity
  8
0
  6
Continuous
100
AcDbLine
 10
-9.628320001958798
 20
-113.8299068418243
 30
0.0
 11
-10.06532000195878
 21
-113.5809068418244
 31
0.0
  0
LINE
  5
3C0
330
70
100
AcDbEntity
  8
0
  6
Continuous
100
AcDbLine
 10
-6.852320001958787
 20
-115.4429068418243
 30
0.0
 11
42.70867999804119
 21
-143.5969068418243
 31
0.0
  0
LINE
  5
3C1
330
70
100
AcDbEntity
  8
0
  6
Continuous
100
AcDbLine
 10
42.72467999804121
 20
-143.5699068418244
 30
0.0
 11
-6.836320001958767
 21
-115.4149068418244
 31
0.0
  0
LINE
  5
3C2
330
70
100
AcDbEntity
  8
0
  6
Continuous
100
AcDbLine
 10
44.05367999804122
 20
-144.3289068418243
 30
0.0
 11
43.62967999804121
 21
-144.1129068418244
 31
0.0
  0
LINE
  5
3C3
330
70
100
AcDbEntity
  8
0
  6
Continuous
100
AcDbLine
 10
-24.14132000195881
 20
-178.3319068418244
 30
0.0
 11
-23.72832000195879
 21
-189.8419068418244
 31
0.0
  0
LINE
  5
3C4
330
70
100
AcDbEntity
  8
0
  6
Continuous
100
AcDbLine
 10
23.6456799980412
 20
-138.2099068418243
 30
0.0
 11
12.13567999804121
 21
-138.6239068418243
 31
0.0
  0
LINE
  5
3C5
330
70
100
AcDbEntity
  8
0
  6
Continuous
100
AcDbLine
 10
-14.0703200019588
 20
-210.4969068418244
 30
0.0
 11
-5.506320001958783
 21
-218.3249068418244
 31
0.0
  0
LINE
  5
3C6
330
70
100
AcDbEntity
  8
0
  6
Continuous
100
AcDbLine
 10
63.35467999804123
 20
-174.4879068418243
 30
0.0
 11
59.8066799980412
 21
-163.5299068418243
 31
0.0
  0
LINE
  5
3C7
330
70
100
AcDbEntity
  8
0
  6
Continuous
100
AcDbLine
 10
27.49067999804123
 20
-225.7059068418243
 30
0.0
 11
38.44767999804123
 21
-222.1579068418244
 31
0.0
  0
LINE
  5
3C8
330
70
100
AcDbEntity
  8
0
  6
Continuous
100
AcDbLine
 10
12.11767999804121
 20
-188.6289068418244
 30
0.0
 11
10.69967999804123
 21
-186.3759068418243
 31
0.0
  0
LINE
  5
3C9
330
70
100
AcDbEntity
  8
0
  6
Continuous
100
AcDbLine
 10
29.25567999804122
 20
-185.6069068418243
 30
0.0
 11
28.02867999804121
 21
-187.9169068418243
 31
0.0
  0
LINE
  5
3CA
330
70
100
AcDbEntity
  8
0
  6
Continuous
100
AcDbLine
 10
-16.34732000195879
 20
-156.8449068418243
 30
0.0
 11
-21.71732000195877
 21
-167.1299068418244
 31
0.0
  0
LINE
  5
3CB
330
70
100
AcDbEntity
  8
0
  6
Continuous
100
AcDbLine
 10
25.56567999804122
 20
-173.9499068418244
 30
0.0
 11
27.5086799980412
 21
-175.7009068418244
 31
0.0
  0
LINE
  5
3CC
330
70
100
AcDbEntity
  8
0
  6
Continuous
100
AcDbLine
 10
-8.323320001958791
 20
-148.1579068418243
 30
0.0
 11
-8.519320001958789
 21
-148.2819068418243
 31
0.0
  0
LINE
  5
3CD
330
70
100
AcDbEntity
  8
0
  6
Continuous
100
AcDbLine
 10
55.9736799980412
 20
-207.4849068418244
 30
0.0
 11
61.34367999804121
 21
-197.1999068418243
 31
0.0
  0
LINE
  5
3CE
330
70
100
AcDbEntity
  8
0
  6
Continuous
100
AcDbLine
 10
38.44767999804123
 20
-222.1579068418244
 30
0.0
 11
48.14567999804123
 21
-216.0479068418243
 31
0.0
  0
LINE
  5
3CF
330
70
100
AcDbEntity
  8
0
  6
Continuous
100
AcDbLine
 10
15.98067999804124
 20
-226.1189068418243
 30
0.0
 11
27.49067999804123
 21
-225.7059068418243
 31
0.0
  0
LINE
  5
3D0
330
70
100
AcDbEntity
  8
0
  6
Continuous
100
AcDbLine
 10
21.55967999804122
 20
-192.0709068418243
 30
0.0
 11
18.97267999804123
 21
-192.1699068418243
 31
0.0
  0
LINE
  5
3D1
330
70
100
AcDbEntity
  8
0
  6
Continuous
100
AcDbLine
 10
12.13567999804121
 20
-138.6239068418243
 30
0.0
 11
5.304679998041223
 21
-140.8359068418243
 31
0.0
  0
LINE
  5
3D2
330
70
100
AcDbEntity
  8
0
  6
Continuous
100
AcDbLine
 10
-5.506320001958783
 20
-218.3249068418244
 30
0.0
 11
4.778679998041212
 21
-223.6949068418244
 31
0.0
  0
LINE
  5
3D3
330
70
100
AcDbEntity
  8
0
  6
Continuous
100
AcDbLine
 10
23.25567999804122
 20
-172.7229068418243
 30
0.0
 11
25.56567999804122
 21
-173.9499068418244
 31
0.0
  0
LINE
  5
3D4
330
70
100
AcDbEntity
  8
0
  6
Continuous
100
AcDbLine
 10
29.71967999804121
 20
-180.4179068418243
 30
0.0
 11
29.81767999804123
 21
-183.0049068418243
 31
0.0
  0
LINE
  5
3D5
330
70
100
AcDbEntity
  8
0
  6
Continuous
100
AcDbLine
 10
63.76767999804122
 20
-185.9969068418243
 30
0.0
 11
63.35467999804123
 21
-174.4879068418243
 31
0.0
  0
LINE
  5
3D6
330
70
100
AcDbEntity
  8
0
  6
Continuous
100
AcDbLine
 10
59.8066799980412
 20
-163.5299068418243
 30
0.0
 11
53.69667999804121
 21
-153.8329068418243
 31
0.0
  0
LINE
  5
3D7
330
70
100
AcDbEntity
  8
0
  6
Continuous
100
AcDbLine
 10
-23.72832000195879
 20
-189.8419068418244
 30
0.0
 11
-20.17932000195878
 21
-200.7999068418244
 31
0.0
  0
LINE
  5
3D8
330
70
100
AcDbEntity
  8
0
  6
Continuous
100
AcDbLine
 10
18.97267999804123
 20
-192.1699068418243
 30
0.0
 11
16.3716799980412
 21
-191.6069068418243
 31
0.0
  0
LINE
  5
3D9
330
70
100
AcDbEntity
  8
0
  6
Continuous
100
AcDbLine
 10
61.34367999804121
 20
-197.1999068418243
 30
0.0
 11
63.76767999804122
 21
-185.9969068418243
 31
0.0
  0
LINE
  5
3DA
330
70
100
AcDbEntity
  8
0
  6
Continuous
100
AcDbLine
 10
-20.17932000195878
 20
-200.7999068418244
 30
0.0
 11
-14.0703200019588
 21
-210.4969068418244
 31
0.0
  0
LINE
  5
3DB
330
70
100
AcDbEntity
  8
0
  6
Continuous
100
AcDbLine
 10
-8.519320001958789
 20
-148.2819068418243
 30
0.0
 11
-16.34732000195879
 21
-156.8449068418243
 31
0.0
  0
LINE
  5
3DC
330
70
100
AcDbEntity
  8
0
  6
Continuous
100
AcDbLine
 10
14.06067999804122
 20
-190.3799068418243
 30
0.0
 11
12.11767999804121
 21
-188.6289068418244
 31
0.0
  0
LINE
  5
3DD
330
70
100
AcDbEntity
  8
0
  6
Continuous
100
AcDbLine
 10
48.14567999804123
 20
-216.0479068418243
 30
0.0
 11
55.9736799980412
 21
-207.4849068418244
 31
0.0
  0
LINE
  5
3DE
330
70
100
AcDbEntity
  8
0
  6
Continuous
100
AcDbLine
 10
34.84767999804123
 20
-140.6349068418244
 30
0.0
 11
23.6456799980412
 21
-138.2099068418243
 31
0.0
  0
LINE
  5
3DF
330
70
100
AcDbEntity
  8
0
  6
Continuous
100
AcDbLine
 10
24.02467999804122
 20
-191.2789068418243
 30
0.0
 11
21.55967999804122
 21
-192.0709068418243
 31
0.0
  0
LINE
  5
3E0
330
70
100
AcDbEntity
  8
0
  6
Continuous
100
AcDbLine
 10
27.5086799980412
 20
-175.7009068418244
 30
0.0
 11
28.92767999804121
 21
-177.9529068418243
 31
0.0
  0
LINE
  5
3E1
330
70
100
AcDbEntity
  8
0
  6
Continuous
100
AcDbLine
 10
29.81767999804123
 20
-183.0049068418243
 30
0.0
 11
29.25567999804122
 21
-185.6069068418243
 31
0.0
  0
LINE
  5
3E2
330
70
100
AcDbEntity
  8
0
  6
Continuous
100
AcDbLine
 10
4.778679998041212
 20
-223.6949068418244
 30
0.0
 11
15.98067999804124
 21
-226.1189068418243
 31
0.0
  0
LINE
  5
3E3
330
70
100
AcDbEntity
  8
0
  6
Continuous
100
AcDbLine
 10
-21.71732000195877
 20
-167.1299068418244
 30
0.0
 11
-24.14132000195881
 21
-178.3319068418244
 31
0.0
  0
LINE
  5
3E4
330
70
100
AcDbEntity
  8
0
  6
Continuous
100
AcDbLine
 10
45.13267999804122
 20
-146.0049068418244
 30
0.0
 11
34.84767999804123
 21
-140.6349068418244
 31
0.0
  0
LINE
  5
3E5
330
70
100
AcDbEntity
  8
0
  6
Continuous
100
AcDbLine
 10
10.69967999804123
 20
-186.3759068418243
 30
0.0
 11
9.907679998041203
 21
-183.9119068418243
 31
0.0
  0
LINE
  5
3E6
330
70
100
AcDbEntity
  8
0
  6
Continuous
100
AcDbLine
 10
16.3716799980412
 20
-191.6069068418243
 30
0.0
 11
14.06067999804122
 21
-190.3799068418243
 31
0.0
  0
LINE
  5
3E7
330
70
100
AcDbEntity
  8
0
  6
Continuous
100
AcDbLine
 10
53.69667999804121
 20
-153.8329068418243
 30
0.0
 11
45.13267999804122
 21
-146.0049068418244
 31
0.0
  0
LINE
  5
3E8
330
70
100
AcDbEntity
  8
0
  6
Continuous
100
AcDbLine
 10
28.92767999804121
 20
-177.9529068418243
 30
0.0
 11
29.71967999804121
 21
-180.4179068418243
 31
0.0
  0
LINE
  5
3E9
330
70
100
AcDbEntity
  8
0
  6
Continuous
100
AcDbLine
 10
26.27767999804124
 20
-189.8599068418243
 30
0.0
 11
24.02467999804122
 21
-191.2789068418243
 31
0.0
  0
LINE
  5
3EA
330
70
100
AcDbEntity
  8
0
  6
Continuous
100
AcDbLine
 10
9.907679998041203
 20
-183.9119068418243
 30
0.0
 11
9.808679998041213
 21
-181.3239068418243
 31
0.0
  0
LINE
  5
3EB
330
70
100
AcDbEntity
  8
0
  6
Continuous
100
AcDbLine
 10
28.02867999804121
 20
-187.9169068418243
 30
0.0
 11
26.27767999804124
 21
-189.8599068418243
 31
0.0
  0
LINE
  5
4FF
330
70
100
AcDbEntity
  8
0
  6
Continuous
100
AcDbLine
 10
226.9191728390837
 20
41.41015383021183
 30
0.0
 11
226.6811728390837
 21
41.41015383021183
 31
0.0
  0
LINE
  5
500
330
70
100
AcDbEntity
  8
0
  6
Continuous
100
AcDbLine
 10
226.9191728390837
 20
41.21215383021183
 30
0.0
 11
226.9191728390837
 21
41.41015383021183
 31
0.0
  0
LINE
  5
501
330
70
100
AcDbEntity
  8
0
  6
Continuous
100
AcDbLine
 10
211.9391728390837
 20
41.41015383021183
 30
0.0
 11
211.7941728390837
 21
41.41015383021183
 31
0.0
  0
LINE
  5
502
330
70
100
AcDbEntity
  8
0
  6
Continuous
100
AcDbLine
 10
212.0611728390837
 20
41.41015383021183
 30
0.0
 11
211.9391728390837
 21
41.41015383021183
 31
0.0
  0
LINE
  5
503
330
70
100
AcDbEntity
  8
0
  6
Continuous
100
AcDbLine
 10
222.0341728390837
 20
41.41015383021183
 30
0.0
 11
221.9111728390837
 21
41.41015383021183
 31
0.0
  0
LINE
  5
504
330
70
100
AcDbEntity
  8
0
  6
Continuous
100
AcDbLine
 10
226.9191728390837
 20
38.30215383021183
 30
0.0
 11
226.9191728390837
 21
41.21215383021183
 31
0.0
  0
LINE
  5
505
330
70
100
AcDbEntity
  8
0
  6
Continuous
100
AcDbLine
 10
221.9111728390837
 20
41.41015383021183
 30
0.0
 11
221.7661728390837
 21
41.41015383021183
 31
0.0
  0
LINE
  5
506
330
70
100
AcDbEntity
  8
0
  6
Continuous
100
AcDbLine
 10
226.6811728390837
 20
41.41015383021183
 30
0.0
 11
222.0341728390837
 21
41.41015383021183
 31
0.0
  0
LINE
  5
507
330
70
100
AcDbEntity
  8
0
  6
Continuous
100
AcDbLine
 10
211.7941728390837
 20
41.41015383021183
 30
0.0
 11
191.9251728390837
 21
41.41015383021183
 31
0.0
  0
LINE
  5
508
330
70
100
AcDbEntity
  8
0
  6
Continuous
100
AcDbLine
 10
221.7661728390837
 20
41.41015383021183
 30
0.0
 11
212.0611728390837
 21
41.41015383021183
 31
0.0
  0
LINE
  5
509
330
70
100
AcDbEntity
  8
0
  6
Continuous
100
AcDbLine
 10
156.9301728390837
 20
41.41015383021183
 30
0.0
 11
156.9301728390837
 21
41.21215383021183
 31
0.0
  0
LINE
  5
50A
330
70
100
AcDbEntity
  8
0
  6
Continuous
100
AcDbLine
 10
157.1691728390837
 20
41.41015383021183
 30
0.0
 11
156.9301728390837
 21
41.41015383021183
 31
0.0
  0
LINE
  5
50B
330
70
100
AcDbEntity
  8
0
  6
Continuous
100
AcDbLine
 10
172.0551728390837
 20
41.41015383021183
 30
0.0
 11
171.9111728390837
 21
41.41015383021183
 31
0.0
  0
LINE
  5
50C
330
70
100
AcDbEntity
  8
0
  6
Continuous
100
AcDbLine
 10
171.9111728390837
 20
41.41015383021183
 30
0.0
 11
171.7891728390837
 21
41.41015383021183
 31
0.0
  0
LINE
  5
50D
330
70
100
AcDbEntity
  8
0
  6
Continuous
100
AcDbLine
 10
161.9391728390837
 20
41.41015383021183
 30
0.0
 11
161.8161728390837
 21
41.41015383021183
 31
0.0
  0
LINE
  5
50E
330
70
100
AcDbEntity
  8
0
  6
Continuous
100
AcDbLine
 10
159.9201728390837
 20
41.41015383021183
 30
0.0
 11
162.9941728390837
 21
41.41015383021183
 31
0.0
  0
LINE
  5
50F
330
70
100
AcDbEntity
  8
0
  6
Continuous
100
AcDbLine
 10
162.9121728390837
 20
41.41015383021183
 30
0.0
 11
159.7681728390837
 21
41.41015383021183
 31
0.0
  0
LINE
  5
510
330
70
100
AcDbEntity
  8
0
  6
Continuous
100
AcDbLine
 10
156.9301728390837
 20
41.21215383021183
 30
0.0
 11
156.9301728390837
 21
38.33015383021186
 31
0.0
  0
LINE
  5
511
330
70
100
AcDbEntity
  8
0
  6
Continuous
100
AcDbLine
 10
162.0831728390837
 20
41.41015383021183
 30
0.0
 11
161.9391728390837
 21
41.41015383021183
 31
0.0
  0
LINE
  5
512
330
70
100
AcDbEntity
  8
0
  6
Continuous
100
AcDbLine
 10
161.8161728390837
 20
41.41015383021183
 30
0.0
 11
157.1691728390837
 21
41.41015383021183
 31
0.0
  0
LINE
  5
513
330
70
100
AcDbEntity
  8
0
  6
Continuous
100
AcDbLine
 10
191.9251728390837
 20
41.41015383021183
 30
0.0
 11
172.0551728390837
 21
41.41015383021183
 31
0.0
  0
LINE
  5
514
330
70
100
AcDbEntity
  8
0
  6
Continuous
100
AcDbLine
 10
171.7891728390837
 20
41.41015383021183
 30
0.0
 11
162.0831728390837
 21
41.41015383021183
 31
0.0
  0
LINE
  5
515
330
70
100
AcDbEntity
  8
0
  6
Continuous
100
AcDbLine
 10
137.4891728390837
 20
23.19315383021183
 30
0.0
 11
138.4981728390837
 21
23.59815383021183
 31
0.0
  0
LINE
  5
516
330
70
100
AcDbEntity
  8
0
  6
Continuous
100
AcDbLine
 10
135.2621728390837
 20
21.87115383021185
 30
0.0
 11
137.4891728390837
 21
23.19315383021183
 31
0.0
  0
LINE
  5
517
330
70
100
AcDbEntity
  8
0
  6
Continuous
100
AcDbLine
 10
253.4741728390837
 20
-13.26184616978818
 30
0.0
 11
255.9951728390837
 21
-12.31984616978815
 31
0.0
  0
LINE
  5
518
330
70
100
AcDbEntity
  8
0
  6
Continuous
100
AcDbLine
 10
255.9951728390837
 20
-12.31984616978815
 30
0.0
 11
257.9701728390837
 21
-10.93184616978814
 31
0.0
  0
LINE
  5
519
330
70
100
AcDbEntity
  8
0
  6
Continuous
100
AcDbLine
 10
257.9701728390837
 20
-10.93184616978814
 30
0.0
 11
258.7691728390837
 21
-9.435846169788163
 31
0.0
  0
LINE
  5
51A
330
70
100
AcDbEntity
  8
0
  6
Continuous
100
AcDbLine
 10
258.7691728390837
 20
-9.435846169788163
 30
0.0
 11
259.0971728390837
 21
-8.850846169788155
 31
0.0
  0
LINE
  5
51B
330
70
100
AcDbEntity
  8
0
  6
Continuous
100
AcDbLine
 10
259.0971728390837
 20
-8.850846169788155
 30
0.0
 11
259.1951728390837
 21
-7.878846169788147
 31
0.0
  0
LINE
  5
51C
330
70
100
AcDbEntity
  8
0
  6
Continuous
100
AcDbLine
 10
259.3011728390838
 20
-5.271846169788148
 30
0.0
 11
259.4181728390837
 21
-2.407846169788172
 31
0.0
  0
LINE
  5
51D
330
70
100
AcDbEntity
  8
0
  6
Continuous
100
AcDbLine
 10
259.4181728390837
 20
-2.407846169788172
 30
0.0
 11
259.4221728390837
 21
-1.694846169788149
 31
0.0
  0
LINE
  5
51E
330
70
100
AcDbEntity
  8
0
  6
Continuous
100
AcDbLine
 10
258.7691728390837
 20
-9.435846169788163
 30
0.0
 11
258.9251728390837
 21
-8.300846169788144
 31
0.0
  0
LINE
  5
51F
330
70
100
AcDbEntity
  8
0
  6
Continuous
100
AcDbLine
 10
259.1951728390837
 20
-7.878846169788147
 30
0.0
 11
259.2061728390837
 21
-7.602846169788165
 31
0.0
  0
LINE
  5
520
330
70
100
AcDbEntity
  8
0
  6
Continuous
100
AcDbLine
 10
253.0751728390837
 20
2.711153830211827
 30
0.0
 11
252.9251728390837
 21
2.378153830211829
 31
0.0
  0
LINE
  5
521
330
70
100
AcDbEntity
  8
0
  6
Continuous
100
AcDbLine
 10
259.4221728390837
 20
-1.694846169788149
 30
0.0
 11
259.4201728390837
 21
-0.7538461697881474
 31
0.0
  0
LINE
  5
522
330
70
100
AcDbEntity
  8
0
  6
Continuous
100
AcDbLine
 10
258.9251728390837
 20
-8.300846169788144
 30
0.0
 11
258.9511728390837
 21
-7.315846169788244
 31
0.0
  0
LINE
  5
523
330
70
100
AcDbEntity
  8
0
  6
Continuous
100
AcDbLine
 10
253.9771728390837
 20
3.758153830211824
 30
0.0
 11
253.0751728390837
 21
2.711153830211827
 31
0.0
  0
LINE
  5
524
330
70
100
AcDbEntity
  8
0
  6
Continuous
100
AcDbLine
 10
255.2641728390837
 20
4.579153830211851
 30
0.0
 11
253.9771728390837
 21
3.758153830211824
 31
0.0
  0
LINE
  5
525
330
70
100
AcDbEntity
  8
0
  6
Continuous
100
AcDbLine
 10
255.8301728390837
 20
4.865153830211738
 30
0.0
 11
255.2641728390837
 21
4.579153830211851
 31
0.0
  0
LINE
  5
526
330
70
100
AcDbEntity
  8
0
  6
Continuous
100
AcDbLine
 10
259.4201728390837
 20
-0.7538461697881474
 30
0.0
 11
259.4151728390837
 21
-0.0688461697881735
 31
0.0
  0
LINE
  5
527
330
70
100
AcDbEntity
  8
0
  6
Continuous
100
AcDbLine
 10
258.9511728390837
 20
-7.315846169788244
 30
0.0
 11
258.9691728390838
 21
-5.823846169788168
 31
0.0
  0
LINE
  5
528
330
70
100
AcDbEntity
  8
0
  6
Continuous
100
AcDbLine
 10
258.9311728390837
 20
5.015153830211829
 30
0.0
 11
258.2891728390837
 21
5.338153830211837
 31
0.0
  0
LINE
  5
529
330
70
100
AcDbEntity
  8
0
  6
Continuous
100
AcDbLine
 10
258.2891728390837
 20
5.338153830211837
 30
0.0
 11
258.2031728390837
 21
5.330153830211855
 31
0.0
  0
LINE
  5
52A
330
70
100
AcDbEntity
  8
0
  6
Continuous
100
AcDbLine
 10
259.4151728390837
 20
-0.0688461697881735
 30
0.0
 11
259.4241728390837
 21
0.3661538302118288
 31
0.0
  0
LINE
  5
52B
330
70
100
AcDbEntity
  8
0
  6
Continuous
100
AcDbLine
 10
259.1991728390837
 20
4.452153830211756
 30
0.0
 11
258.9311728390837
 21
5.015153830211829
 31
0.0
  0
LINE
  5
52C
330
70
100
AcDbEntity
  8
0
  6
Continuous
100
AcDbLine
 10
259.2481728390837
 20
4.153153830211834
 30
0.0
 11
259.1991728390837
 21
4.452153830211756
 31
0.0
  0
LINE
  5
52D
330
70
100
AcDbEntity
  8
0
  6
Continuous
100
AcDbLine
 10
258.9311728390837
 20
5.015153830211829
 30
0.0
 11
258.9321728390837
 21
4.715153830211846
 31
0.0
  0
LINE
  5
52E
330
70
100
AcDbEntity
  8
0
  6
Continuous
100
AcDbLine
 10
257.2091728390837
 20
5.232153830211842
 30
0.0
 11
255.8301728390837
 21
4.865153830211738
 31
0.0
  0
LINE
  5
52F
330
70
100
AcDbEntity
  8
0
  6
Continuous
100
AcDbLine
 10
258.9691728390838
 20
-5.823846169788168
 30
0.0
 11
258.9831728390838
 21
-3.798846169788163
 31
0.0
  0
LINE
  5
530
330
70
100
AcDbEntity
  8
0
  6
Continuous
100
AcDbLine
 10
259.3171728390837
 20
2.960153830211822
 30
0.0
 11
259.2481728390837
 21
4.153153830211834
 31
0.0
  0
LINE
  5
531
330
70
100
AcDbEntity
  8
0
  6
Continuous
100
AcDbLine
 10
258.9321728390837
 20
4.715153830211846
 30
0.0
 11
258.9991728390837
 21
3.623153830211833
 31
0.0
  0
LINE
  5
532
330
70
100
AcDbEntity
  8
0
  6
Continuous
100
AcDbLine
 10
258.9831728390838
 20
-3.798846169788163
 30
0.0
 11
258.9491728390837
 21
-2.686846169788168
 31
0.0
  0
LINE
  5
533
330
70
100
AcDbEntity
  8
0
  6
Continuous
100
AcDbLine
 10
130.8671728390837
 20
-13.35184616978816
 30
0.0
 11
130.9251728390837
 21
-13.35984616978817
 31
0.0
  0
LINE
  5
534
330
70
100
AcDbEntity
  8
0
  6
Continuous
100
AcDbLine
 10
259.4241728390837
 20
0.3661538302118288
 30
0.0
 11
259.3701728390837
 21
1.700153830211831
 31
0.0
  0
LINE
  5
535
330
70
100
AcDbEntity
  8
0
  6
Continuous
100
AcDbLine
 10
258.9961728390837
 20
2.308153830211807
 30
0.0
 11
259.0611728390837
 21
0.7951538302118309
 31
0.0
  0
LINE
  5
536
330
70
100
AcDbEntity
  8
0
  6
Continuous
100
AcDbLine
 10
128.7561728390837
 20
-12.74784616978817
 30
0.0
 11
130.8671728390837
 21
-13.35184616978816
 31
0.0
  0
LINE
  5
537
330
70
100
AcDbEntity
  8
0
  6
Continuous
100
AcDbLine
 10
127.0511728390837
 20
-11.90184616978817
 30
0.0
 11
128.7561728390837
 21
-12.74784616978817
 31
0.0
  0
LINE
  5
538
330
70
100
AcDbEntity
  8
0
  6
Continuous
100
AcDbLine
 10
125.7001728390837
 20
-10.68784616978814
 30
0.0
 11
127.0511728390837
 21
-11.90184616978817
 31
0.0
  0
LINE
  5
539
330
70
100
AcDbEntity
  8
0
  6
Continuous
100
AcDbLine
 10
125.3761728390837
 20
-10.13684616978816
 30
0.0
 11
125.7001728390837
 21
-10.68784616978814
 31
0.0
  0
LINE
  5
53A
330
70
100
AcDbEntity
  8
0
  6
Continuous
100
AcDbLine
 10
124.7531728390837
 20
-8.921846169788182
 30
0.0
 11
125.3761728390837
 21
-10.13684616978816
 31
0.0
  0
LINE
  5
53B
330
70
100
AcDbEntity
  8
0
  6
Continuous
100
AcDbLine
 10
125.1071728390837
 20
-9.51084616978818
 30
0.0
 11
125.7001728390837
 21
-10.68784616978814
 31
0.0
  0
LINE
  5
53C
330
70
100
AcDbEntity
  8
0
  6
Continuous
100
AcDbLine
 10
124.5861728390837
 20
-7.75284616978817
 30
0.0
 11
124.7531728390837
 21
-8.921846169788182
 31
0.0
  0
LINE
  5
53D
330
70
100
AcDbEntity
  8
0
  6
Continuous
100
AcDbLine
 10
125.0441728390837
 20
-8.408846169788148
 30
0.0
 11
125.1071728390837
 21
-9.51084616978818
 31
0.0
  0
LINE
  5
53E
330
70
100
AcDbEntity
  8
0
  6
Continuous
100
AcDbLine
 10
258.9491728390837
 20
-2.686846169788168
 30
0.0
 11
258.9551728390837
 21
-2.48484616978817
 31
0.0
  0
LINE
  5
53F
330
70
100
AcDbEntity
  8
0
  6
Continuous
100
AcDbLine
 10
259.3701728390837
 20
1.700153830211831
 30
0.0
 11
259.3231728390837
 21
2.822153830211846
 31
0.0
  0
LINE
  5
540
330
70
100
AcDbEntity
  8
0
  6
Continuous
100
AcDbLine
 10
258.9991728390837
 20
3.479153830211828
 30
0.0
 11
258.9961728390837
 21
2.308153830211807
 31
0.0
  0
LINE
  5
541
330
70
100
AcDbEntity
  8
0
  6
Continuous
100
AcDbLine
 10
259.0051728390837
 20
-0.7818461697881674
 30
0.0
 11
259.0611728390837
 21
0.7951538302118309
 31
0.0
  0
LINE
  5
542
330
70
100
AcDbEntity
  8
0
  6
Continuous
100
AcDbLine
 10
247.3631728390837
 20
38.29415383021183
 30
0.0
 11
247.0571728390837
 21
38.29415383021183
 31
0.0
  0
LINE
  5
543
330
70
100
AcDbEntity
  8
0
  6
Continuous
100
AcDbLine
 10
247.0571728390837
 20
24.17715383021181
 30
0.0
 11
247.3631728390837
 21
24.17715383021181
 31
0.0
  0
LINE
  5
544
330
70
100
AcDbEntity
  8
0
  6
Continuous
100
AcDbLine
 10
249.9091728390837
 20
23.20215383021184
 30
0.0
 11
251.3271728390837
 21
23.64615383021186
 31
0.0
  0
LINE
  5
545
330
70
100
AcDbEntity
  8
0
  6
Continuous
100
AcDbLine
 10
251.2071728390837
 20
38.29415383021183
 30
0.0
 11
249.8681728390837
 21
38.29415383021183
 31
0.0
  0
LINE
  5
546
330
70
100
AcDbEntity
  8
0
  6
Continuous
100
AcDbLine
 10
254.8431728390837
 20
38.12315383021184
 30
0.0
 11
251.2071728390837
 21
38.29415383021183
 31
0.0
  0
LINE
  5
547
330
70
100
AcDbEntity
  8
0
  6
Continuous
100
AcDbLine
 10
251.3271728390837
 20
23.64615383021186
 30
0.0
 11
254.2551728390837
 21
24.06815383021183
 31
0.0
  0
LINE
  5
548
330
70
100
AcDbEntity
  8
0
  6
Continuous
100
AcDbLine
 10
256.5651728390837
 20
37.43215383021183
 30
0.0
 11
254.8431728390837
 21
38.12315383021184
 31
0.0
  0
LINE
  5
549
330
70
100
AcDbEntity
  8
0
  6
Continuous
100
AcDbLine
 10
254.5421728390837
 20
25.63515383021183
 30
0.0
 11
256.1901728390838
 21
26.22615383021184
 31
0.0
  0
LINE
  5
54A
330
70
100
AcDbEntity
  8
0
  6
Continuous
100
AcDbLine
 10
254.2551728390837
 20
24.06815383021183
 30
0.0
 11
256.2221728390837
 21
24.69115383021185
 31
0.0
  0
LINE
  5
54B
330
70
100
AcDbEntity
  8
0
  6
Continuous
100
AcDbLine
 10
256.1901728390838
 20
26.22615383021184
 30
0.0
 11
257.5711728390837
 21
27.19815383021185
 31
0.0
  0
LINE
  5
54C
330
70
100
AcDbEntity
  8
0
  6
Continuous
100
AcDbLine
 10
256.2221728390837
 20
24.69115383021185
 30
0.0
 11
257.4711728390837
 21
25.58515383021185
 31
0.0
  0
LINE
  5
54D
330
70
100
AcDbEntity
  8
0
  6
Continuous
100
AcDbLine
 10
256.9081728390837
 20
37.27415383021185
 30
0.0
 11
256.5651728390837
 21
37.43215383021183
 31
0.0
  0
LINE
  5
54E
330
70
100
AcDbEntity
  8
0
  6
Continuous
100
AcDbLine
 10
258.3171728390837
 20
35.96615383021185
 30
0.0
 11
256.9081728390837
 21
37.27415383021185
 31
0.0
  0
LINE
  5
54F
330
70
100
AcDbEntity
  8
0
  6
Continuous
100
AcDbLine
 10
256.5651728390837
 20
37.43215383021183
 30
0.0
 11
258.1011728390837
 21
36.10815383021185
 31
0.0
  0
LINE
  5
550
330
70
100
AcDbEntity
  8
0
  6
Continuous
100
AcDbLine
 10
257.5711728390837
 20
27.19815383021185
 30
0.0
 11
258.5241728390837
 21
28.48515383021183
 31
0.0
  0
LINE
  5
551
330
70
100
AcDbEntity
  8
0
  6
Continuous
100
AcDbLine
 10
257.4711728390837
 20
25.58515383021185
 30
0.0
 11
258.5661728390837
 21
26.97015383021184
 31
0.0
  0
LINE
  5
552
330
70
100
AcDbEntity
  8
0
  6
Continuous
100
AcDbLine
 10
258.8871728390838
 20
35.05015383021186
 30
0.0
 11
258.3171728390837
 21
35.96615383021185
 31
0.0
  0
LINE
  5
553
330
70
100
AcDbEntity
  8
0
  6
Continuous
100
AcDbLine
 10
258.1011728390837
 20
36.10815383021185
 30
0.0
 11
258.6551728390837
 21
35.15815383021183
 31
0.0
  0
LINE
  5
554
330
70
100
AcDbEntity
  8
0
  6
Continuous
100
AcDbLine
 10
136.1861728390837
 20
38.36115383021184
 30
0.0
 11
133.1121728390837
 21
38.30515383021182
 31
0.0
  0
LINE
  5
555
330
70
100
AcDbEntity
  8
0
  6
Continuous
100
AcDbLine
 10
133.3101728390837
 20
22.58615383021183
 30
0.0
 11
136.2061728390837
 21
22.58715383021183
 31
0.0
  0
LINE
  5
556
330
70
100
AcDbEntity
  8
0
  6
Continuous
100
AcDbLine
 10
133.1121728390837
 20
25.50315383021183
 30
0.0
 11
136.1861728390837
 21
25.48815383021182
 31
0.0
  0
LINE
  5
557
330
70
100
AcDbEntity
  8
0
  6
Continuous
100
AcDbLine
 10
133.1121728390837
 20
38.30515383021182
 30
0.0
 11
130.7081728390837
 21
37.97715383021182
 31
0.0
  0
LINE
  5
558
330
70
100
AcDbEntity
  8
0
  6
Continuous
100
AcDbLine
 10
132.4211728390837
 20
22.57315383021182
 30
0.0
 11
133.3101728390837
 21
22.58615383021183
 31
0.0
  0
LINE
  5
559
330
70
100
AcDbEntity
  8
0
  6
Continuous
100
AcDbLine
 10
130.7111728390837
 20
25.05515383021185
 30
0.0
 11
133.1121728390837
 21
25.50315383021183
 31
0.0
  0
LINE
  5
55A
330
70
100
AcDbEntity
  8
0
  6
Continuous
100
AcDbLine
 10
130.7081728390837
 20
37.97715383021182
 30
0.0
 11
128.5971728390837
 21
37.37215383021183
 31
0.0
  0
LINE
  5
55B
330
70
100
AcDbEntity
  8
0
  6
Continuous
100
AcDbLine
 10
258.9591728390837
 20
29.93015383021182
 30
0.0
 11
259.0761728390837
 21
32.03615383021182
 31
0.0
  0
LINE
  5
55C
330
70
100
AcDbEntity
  8
0
  6
Continuous
100
AcDbLine
 10
131.6371728390837
 20
22.50315383021183
 30
0.0
 11
132.4211728390837
 21
22.57315383021182
 31
0.0
  0
LINE
  5
55D
330
70
100
AcDbEntity
  8
0
  6
Continuous
100
AcDbLine
 10
128.5891728390837
 20
24.43515383021182
 30
0.0
 11
130.7111728390837
 21
25.05515383021185
 31
0.0
  0
LINE
  5
55E
330
70
100
AcDbEntity
  8
0
  6
Continuous
100
AcDbLine
 10
128.5971728390837
 20
37.37215383021183
 30
0.0
 11
126.8921728390837
 21
36.52515383021185
 31
0.0
  0
LINE
  5
55F
330
70
100
AcDbEntity
  8
0
  6
Continuous
100
AcDbLine
 10
130.8931728390837
 20
22.32315383021182
 30
0.0
 11
131.6371728390837
 21
22.50315383021183
 31
0.0
  0
LINE
  5
560
330
70
100
AcDbEntity
  8
0
  6
Continuous
100
AcDbLine
 10
126.8651728390837
 20
23.61315383021184
 30
0.0
 11
128.5891728390837
 21
24.43515383021182
 31
0.0
  0
LINE
  5
561
330
70
100
AcDbEntity
  8
0
  6
Continuous
100
AcDbLine
 10
125.5401728390837
 20
35.31315383021183
 30
0.0
 11
125.2041728390837
 21
34.76415383021183
 31
0.0
  0
LINE
  5
562
330
70
100
AcDbEntity
  8
0
  6
Continuous
100
AcDbLine
 10
126.8921728390837
 20
36.52515383021185
 30
0.0
 11
125.5401728390837
 21
35.31315383021183
 31
0.0
  0
LINE
  5
563
330
70
100
AcDbEntity
  8
0
  6
Continuous
100
AcDbLine
 10
130.3851728390837
 20
22.12915383021183
 30
0.0
 11
130.8931728390837
 21
22.32315383021182
 31
0.0
  0
LINE
  5
564
330
70
100
AcDbEntity
  8
0
  6
Continuous
100
AcDbLine
 10
125.5381728390837
 20
22.47315383021183
 30
0.0
 11
126.8651728390837
 21
23.61315383021184
 31
0.0
  0
LINE
  5
565
330
70
100
AcDbEntity
  8
0
  6
Continuous
100
AcDbLine
 10
130.0781728390837
 20
21.87315383021184
 30
0.0
 11
130.3851728390837
 21
22.12915383021183
 31
0.0
  0
LINE
  5
566
330
70
100
AcDbEntity
  8
0
  6
Continuous
100
AcDbLine
 10
124.4691728390837
 20
26.58315383021184
 30
0.0
 11
124.4691728390837
 21
23.67915383021182
 31
0.0
  0
LINE
  5
567
330
70
100
AcDbEntity
  8
0
  6
Continuous
100
AcDbLine
 10
124.9401728390837
 20
21.27315383021184
 30
0.0
 11
125.5381728390837
 21
22.47315383021183
 31
0.0
  0
LINE
  5
568
330
70
100
AcDbEntity
  8
0
  6
Continuous
100
AcDbLine
 10
124.4691728390837
 20
21.07215383021182
 30
0.0
 11
124.4691728390837
 21
20.76315383021182
 31
0.0
  0
LINE
  5
569
330
70
100
AcDbEntity
  8
0
  6
Continuous
100
AcDbLine
 10
124.7001728390837
 20
19.98615383021183
 30
0.0
 11
124.9401728390837
 21
21.27315383021184
 31
0.0
  0
LINE
  5
56A
330
70
100
AcDbEntity
  8
0
  6
Continuous
100
AcDbLine
 10
124.4691728390837
 20
20.76315383021182
 30
0.0
 11
124.4691728390837
 21
20.56415383021183
 31
0.0
  0
LINE
  5
56B
330
70
100
AcDbEntity
  8
0
  6
Continuous
100
AcDbLine
 10
124.7001728390837
 20
19.98615383021183
 30
0.0
 11
124.7071728390837
 21
19.79015383021183
 31
0.0
  0
LINE
  5
56C
330
70
100
AcDbEntity
  8
0
  6
Continuous
100
AcDbLine
 10
258.6551728390837
 20
35.15815383021183
 30
0.0
 11
258.6921728390837
 21
34.99415383021184
 31
0.0
  0
LINE
  5
56D
330
70
100
AcDbEntity
  8
0
  6
Continuous
100
AcDbLine
 10
258.9371728390837
 20
34.86415383021182
 30
0.0
 11
258.8871728390838
 21
35.05015383021186
 31
0.0
  0
LINE
  5
56E
330
70
100
AcDbEntity
  8
0
  6
Continuous
100
AcDbLine
 10
259.1761728390837
 20
28.74615383021185
 30
0.0
 11
259.2631728390837
 21
29.14515383021182
 31
0.0
  0
LINE
  5
56F
330
70
100
AcDbEntity
  8
0
  6
Continuous
100
AcDbLine
 10
258.6311728390837
 20
27.15815383021183
 30
0.0
 11
259.1761728390837
 21
28.74615383021185
 31
0.0
  0
LINE
  5
570
330
70
100
AcDbEntity
  8
0
  6
Continuous
100
AcDbLine
 10
258.5701728390837
 20
28.63815383021185
 30
0.0
 11
258.9591728390837
 21
29.93015383021182
 31
0.0
  0
LINE
  5
571
330
70
100
AcDbEntity
  8
0
  6
Continuous
100
AcDbLine
 10
124.5661728390837
 20
33.23015383021183
 30
0.0
 11
124.4771728390837
 21
30.66315383021186
 31
0.0
  0
LINE
  5
572
330
70
100
AcDbEntity
  8
0
  6
Continuous
100
AcDbLine
 10
124.4681728390837
 20
32.05815383021184
 30
0.0
 11
124.4681728390837
 21
29.48615383021175
 31
0.0
  0
LINE
  5
573
330
70
100
AcDbEntity
  8
0
  6
Continuous
100
AcDbLine
 10
258.9971728390837
 20
33.67415383021182
 30
0.0
 11
259.0761728390837
 21
32.03615383021182
 31
0.0
  0
LINE
  5
574
330
70
100
AcDbEntity
  8
0
  6
Continuous
100
AcDbLine
 10
259.4171728390837
 20
31.68415383021184
 30
0.0
 11
259.3421728390837
 21
33.35515383021184
 31
0.0
  0
LINE
  5
575
330
70
100
AcDbEntity
  8
0
  6
Continuous
100
AcDbLine
 10
124.4681728390837
 20
29.48615383021175
 30
0.0
 11
124.4691728390837
 21
26.58315383021184
 31
0.0
  0
LINE
  5
576
330
70
100
AcDbEntity
  8
0
  6
Continuous
100
AcDbLine
 10
124.4691728390837
 20
20.56415383021183
 30
0.0
 11
124.5851728390837
 21
-7.532846169788172
 31
0.0
  0
LINE
  5
577
330
70
100
AcDbEntity
  8
0
  6
Continuous
100
AcDbLine
 10
124.7071728390837
 20
19.79015383021183
 30
0.0
 11
125.0421728390837
 21
-8.189846169788154
 31
0.0
  0
LINE
  5
578
330
70
100
AcDbEntity
  8
0
  6
Continuous
100
AcDbLine
 10
136.8261728390837
 20
38.33815383021184
 30
0.0
 11
136.5271728390837
 21
38.36715383021184
 31
0.0
  0
LINE
  5
579
330
70
100
AcDbEntity
  8
0
  6
Continuous
100
AcDbLine
 10
249.8681728390837
 20
38.29415383021183
 30
0.0
 11
248.5771728390837
 21
38.29415383021183
 31
0.0
  0
LINE
  5
57A
330
70
100
AcDbEntity
  8
0
  6
Continuous
100
AcDbLine
 10
248.6021728390837
 20
22.82015383021184
 30
0.0
 11
249.9091728390837
 21
23.20215383021184
 31
0.0
  0
LINE
  5
57B
330
70
100
AcDbEntity
  8
0
  6
Continuous
100
AcDbLine
 10
136.5271728390837
 20
38.36715383021184
 30
0.0
 11
136.1861728390837
 21
38.36115383021184
 31
0.0
  0
LINE
  5
57C
330
70
100
AcDbEntity
  8
0
  6
Continuous
100
AcDbLine
 10
136.2061728390837
 20
22.58715383021183
 30
0.0
 11
136.5271728390837
 21
22.58715383021183
 31
0.0
  0
LINE
  5
57D
330
70
100
AcDbEntity
  8
0
  6
Continuous
100
AcDbLine
 10
136.5271728390837
 20
22.58715383021183
 30
0.0
 11
136.5271728390837
 21
23.31315383021183
 31
0.0
  0
LINE
  5
57E
330
70
100
AcDbEntity
  8
0
  6
Continuous
100
AcDbLine
 10
136.1861728390837
 20
25.48815383021182
 30
0.0
 11
136.5271728390837
 21
25.48715383021184
 31
0.0
  0
LINE
  5
57F
330
70
100
AcDbEntity
  8
0
  6
Continuous
100
AcDbLine
 10
136.5271728390837
 20
23.31315383021183
 30
0.0
 11
136.5271728390837
 21
24.02415383021184
 31
0.0
  0
LINE
  5
580
330
70
100
AcDbEntity
  8
0
  6
Continuous
100
AcDbLine
 10
136.8231728390837
 20
24.02415383021184
 30
0.0
 11
247.0571728390837
 21
24.17715383021181
 31
0.0
  0
LINE
  5
581
330
70
100
AcDbEntity
  8
0
  6
Continuous
100
AcDbLine
 10
247.0571728390837
 20
38.29415383021183
 30
0.0
 11
136.8261728390837
 21
38.33815383021184
 31
0.0
  0
LINE
  5
582
330
70
100
AcDbEntity
  8
0
  6
Continuous
100
AcDbLine
 10
247.5581728390837
 20
38.29415383021183
 30
0.0
 11
247.3631728390837
 21
38.29415383021183
 31
0.0
  0
LINE
  5
583
330
70
100
AcDbEntity
  8
0
  6
Continuous
100
AcDbLine
 10
247.3631728390837
 20
24.17715383021181
 30
0.0
 11
247.3631728390837
 21
23.22415383021183
 31
0.0
  0
LINE
  5
584
330
70
100
AcDbEntity
  8
0
  6
Continuous
100
AcDbLine
 10
247.3631728390837
 20
23.22415383021183
 30
0.0
 11
247.3631728390837
 21
22.65215383021183
 31
0.0
  0
LINE
  5
585
330
70
100
AcDbEntity
  8
0
  6
Continuous
100
AcDbLine
 10
247.3631728390837
 20
22.65215383021183
 30
0.0
 11
247.5551728390837
 21
22.69315383021183
 31
0.0
  0
LINE
  5
586
330
70
100
AcDbEntity
  8
0
  6
Continuous
100
AcDbLine
 10
248.5771728390837
 20
38.29415383021183
 30
0.0
 11
247.5581728390837
 21
38.29415383021183
 31
0.0
  0
LINE
  5
587
330
70
100
AcDbEntity
  8
0
  6
Continuous
100
AcDbLine
 10
247.5551728390837
 20
22.69315383021183
 30
0.0
 11
248.6021728390837
 21
22.82015383021184
 31
0.0
  0
LINE
  5
588
330
70
100
AcDbEntity
  8
0
  6
Continuous
100
AcDbLine
 10
124.5851728390837
 20
-7.532846169788172
 30
0.0
 11
124.5861728390837
 21
-7.75284616978817
 31
0.0
  0
LINE
  5
589
330
70
100
AcDbEntity
  8
0
  6
Continuous
100
AcDbLine
 10
125.0421728390837
 20
-8.189846169788154
 30
0.0
 11
125.0441728390837
 21
-8.408846169788148
 31
0.0
  0
LINE
  5
58A
330
70
100
AcDbEntity
  8
0
  6
Continuous
100
AcDbLine
 10
254.5421728390837
 20
25.63515383021183
 30
0.0
 11
251.0251728390837
 21
25.50015383021185
 31
0.0
  0
LINE
  5
58B
330
70
100
AcDbEntity
  8
0
  6
Continuous
100
AcDbLine
 10
259.2061728390837
 20
-7.602846169788165
 30
0.0
 11
259.3011728390838
 21
-5.271846169788148
 31
0.0
  0
LINE
  5
58C
330
70
100
AcDbEntity
  8
0
  6
Continuous
100
AcDbLine
 10
124.4691728390837
 20
23.67915383021182
 30
0.0
 11
124.4691728390837
 21
21.07215383021182
 31
0.0
  0
LINE
  5
58D
330
70
100
AcDbEntity
  8
0
  6
Continuous
100
AcDbLine
 10
258.5661728390837
 20
26.97015383021184
 30
0.0
 11
258.6311728390837
 21
27.15815383021183
 31
0.0
  0
LINE
  5
58E
330
70
100
AcDbEntity
  8
0
  6
Continuous
100
AcDbLine
 10
258.5241728390837
 20
28.48515383021183
 30
0.0
 11
258.5701728390837
 21
28.63815383021185
 31
0.0
  0
LINE
  5
58F
330
70
100
AcDbEntity
  8
0
  6
Continuous
100
AcDbLine
 10
132.2481728390837
 20
20.91715383021185
 30
0.0
 11
132.2731728390837
 21
22.56015383021185
 31
0.0
  0
LINE
  5
590
330
70
100
AcDbEntity
  8
0
  6
Continuous
100
AcDbLine
 10
259.3231728390837
 20
2.822153830211846
 30
0.0
 11
259.3171728390837
 21
2.960153830211822
 31
0.0
  0
LINE
  5
591
330
70
100
AcDbEntity
  8
0
  6
Continuous
100
AcDbLine
 10
258.9991728390837
 20
3.623153830211833
 30
0.0
 11
258.9991728390837
 21
3.479153830211828
 31
0.0
  0
LINE
  5
592
330
70
100
AcDbEntity
  8
0
  6
Continuous
100
AcDbLine
 10
258.6921728390837
 20
34.99415383021184
 30
0.0
 11
258.9971728390837
 21
33.67415383021182
 31
0.0
  0
LINE
  5
593
330
70
100
AcDbEntity
  8
0
  6
Continuous
100
AcDbLine
 10
259.3421728390837
 20
33.35515383021184
 30
0.0
 11
258.9371728390837
 21
34.86415383021182
 31
0.0
  0
LINE
  5
594
330
70
100
AcDbEntity
  8
0
  6
Continuous
100
AcDbLine
 10
125.2041728390837
 20
34.76415383021183
 30
0.0
 11
124.5761728390837
 21
33.54715383021184
 31
0.0
  0
LINE
  5
595
330
70
100
AcDbEntity
  8
0
  6
Continuous
100
AcDbLine
 10
124.4681728390837
 20
32.37615383021182
 30
0.0
 11
124.4681728390837
 21
32.05815383021184
 31
0.0
  0
LINE
  5
596
330
70
100
AcDbEntity
  8
0
  6
Continuous
100
AcDbLine
 10
124.5761728390837
 20
33.54715383021184
 30
0.0
 11
124.4681728390837
 21
32.37615383021182
 31
0.0
  0
LINE
  5
597
330
70
100
AcDbEntity
  8
0
  6
Continuous
100
AcDbLine
 10
257.4251728390837
 20
5.253153830211829
 30
0.0
 11
257.2091728390837
 21
5.232153830211842
 31
0.0
  0
LINE
  5
598
330
70
100
AcDbEntity
  8
0
  6
Continuous
100
AcDbLine
 10
259.4071728390837
 20
31.28715383021182
 30
0.0
 11
259.4091728390837
 21
31.36615383021183
 31
0.0
  0
LINE
  5
599
330
70
100
AcDbEntity
  8
0
  6
Continuous
100
AcDbLine
 10
259.2631728390837
 20
29.14515383021182
 30
0.0
 11
259.4071728390837
 21
31.28715383021182
 31
0.0
  0
LINE
  5
59A
330
70
100
AcDbEntity
  8
0
  6
Continuous
100
AcDbLine
 10
136.5271728390837
 20
24.02415383021184
 30
0.0
 11
136.8231728390837
 21
24.02415383021184
 31
0.0
  0
LINE
  5
59B
330
70
100
AcDbEntity
  8
0
  6
Continuous
100
AcDbLine
 10
258.2031728390837
 20
5.330153830211855
 30
0.0
 11
257.4251728390837
 21
5.253153830211829
 31
0.0
  0
LINE
  5
59C
330
70
100
AcDbEntity
  8
0
  6
Continuous
100
AcDbLine
 10
259.4091728390837
 20
31.36615383021183
 30
0.0
 11
259.4161728390838
 21
31.65215383021183
 31
0.0
  0
LINE
  5
59D
330
70
100
AcDbEntity
  8
0
  6
Continuous
100
AcDbLine
 10
258.3351728390837
 20
-7.432846169788177
 30
0.0
 11
258.3081728390837
 21
-5.823846169788168
 31
0.0
  0
LINE
  5
59E
330
70
100
AcDbEntity
  8
0
  6
Continuous
100
AcDbLine
 10
136.5271728390837
 20
23.59815383021183
 30
0.0
 11
149.4251728390837
 21
23.59815383021183
 31
0.0
  0
LINE
  5
59F
330
70
100
AcDbEntity
  8
0
  6
Continuous
100
AcDbLine
 10
234.4251728390837
 20
23.59915383021183
 30
0.0
 11
247.3631728390837
 21
23.59915383021183
 31
0.0
  0
LINE
  5
5A0
330
70
100
AcDbEntity
  8
0
  6
Continuous
100
AcDbLine
 10
224.1221728390837
 20
-35.24584616978817
 30
0.0
 11
232.6281728390837
 21
-35.24584616978817
 31
0.0
  0
LINE
  5
5A1
330
70
100
AcDbEntity
  8
0
  6
Continuous
100
AcDbLine
 10
232.6281728390837
 20
-35.24584616978817
 30
0.0
 11
234.1131728390837
 21
-35.24584616978817
 31
0.0
  0
LINE
  5
5A2
330
70
100
AcDbEntity
  8
0
  6
Continuous
100
AcDbLine
 10
234.5591728390837
 20
22.29915383021182
 30
0.0
 11
234.4251728390837
 21
22.73415383021182
 31
0.0
  0
LINE
  5
5A3
330
70
100
AcDbEntity
  8
0
  6
Continuous
100
AcDbLine
 10
234.9251728390837
 20
21.98115383021184
 30
0.0
 11
234.5591728390837
 21
22.29915383021182
 31
0.0
  0
LINE
  5
5A4
330
70
100
AcDbEntity
  8
0
  6
Continuous
100
AcDbLine
 10
252.9251728390837
 20
18.00615383021184
 30
0.0
 11
252.9251728390837
 21
18.37615383021185
 31
0.0
  0
LINE
  5
5A5
330
70
100
AcDbEntity
  8
0
  6
Continuous
100
AcDbLine
 10
248.3191728390837
 20
-35.23284616978816
 30
0.0
 11
248.6131728390837
 21
-35.22384616978815
 31
0.0
  0
LINE
  5
5A6
330
70
100
AcDbEntity
  8
0
  6
Continuous
100
AcDbLine
 10
248.6131728390837
 20
-35.22384616978815
 30
0.0
 11
248.8021728390837
 21
-35.19084616978816
 31
0.0
  0
LINE
  5
5A7
330
70
100
AcDbEntity
  8
0
  6
Continuous
100
AcDbLine
 10
222.4241728390837
 20
-35.24584616978817
 30
0.0
 11
222.6821728390837
 21
-35.24584616978817
 31
0.0
  0
LINE
  5
5A8
330
70
100
AcDbEntity
  8
0
  6
Continuous
100
AcDbLine
 10
234.1131728390837
 20
-35.24584616978817
 30
0.0
 11
235.4251728390837
 21
-35.24584616978817
 31
0.0
  0
LINE
  5
5A9
330
70
100
AcDbEntity
  8
0
  6
Continuous
100
AcDbLine
 10
235.4251728390837
 20
-35.24584616978817
 30
0.0
 11
247.9251728390837
 21
-35.24584616978817
 31
0.0
  0
LINE
  5
5AA
330
70
100
AcDbEntity
  8
0
  6
Continuous
100
AcDbLine
 10
247.9251728390837
 20
-35.24584616978817
 30
0.0
 11
248.3191728390837
 21
-35.23284616978816
 31
0.0
  0
LINE
  5
5AB
330
70
100
AcDbEntity
  8
0
  6
Continuous
100
AcDbLine
 10
191.9251728390837
 20
-35.24584616978817
 30
0.0
 11
222.4241728390837
 21
-35.24584616978817
 31
0.0
  0
LINE
  5
5AC
330
70
100
AcDbEntity
  8
0
  6
Continuous
100
AcDbLine
 10
250.1511728390837
 20
21.70215383021184
 30
0.0
 11
250.0111728390837
 21
21.72115383021185
 31
0.0
  0
LINE
  5
5AD
330
70
100
AcDbEntity
  8
0
  6
Continuous
100
AcDbLine
 10
248.8021728390837
 20
-35.19084616978816
 30
0.0
 11
250.0321728390837
 21
-34.97984616978818
 31
0.0
  0
LINE
  5
5AE
330
70
100
AcDbEntity
  8
0
  6
Continuous
100
AcDbLine
 10
248.9251728390837
 20
21.40815383021183
 30
0.0
 11
250.0111728390837
 21
21.25915383021186
 31
0.0
  0
LINE
  5
5AF
330
70
100
AcDbEntity
  8
0
  6
Continuous
100
AcDbLine
 10
222.6821728390837
 20
-35.24584616978817
 30
0.0
 11
224.1221728390837
 21
-35.24584616978817
 31
0.0
  0
LINE
  5
5B0
330
70
100
AcDbEntity
  8
0
  6
Continuous
100
AcDbLine
 10
252.1351728390837
 20
19.98615383021183
 30
0.0
 11
252.6991728390837
 21
19.02415383021184
 31
0.0
  0
LINE
  5
5B1
330
70
100
AcDbEntity
  8
0
  6
Continuous
100
AcDbLine
 10
252.7601728390837
 20
-32.49884616978815
 30
0.0
 11
252.9251728390837
 21
-31.56984616978818
 31
0.0
  0
LINE
  5
5B2
330
70
100
AcDbEntity
  8
0
  6
Continuous
100
AcDbLine
 10
235.4251728390837
 20
21.87115383021185
 30
0.0
 11
234.9091728390837
 21
21.99115383021183
 31
0.0
  0
LINE
  5
5B3
330
70
100
AcDbEntity
  8
0
  6
Continuous
100
AcDbLine
 10
250.0111728390837
 20
21.72115383021185
 30
0.0
 11
248.9251728390837
 21
21.87115383021185
 31
0.0
  0
LINE
  5
5B4
330
70
100
AcDbEntity
  8
0
  6
Continuous
100
AcDbLine
 10
250.1511728390837
 20
21.23915383021182
 30
0.0
 11
250.2701728390837
 21
21.18715383021183
 31
0.0
  0
LINE
  5
5B5
330
70
100
AcDbEntity
  8
0
  6
Continuous
100
AcDbLine
 10
252.7311728390837
 20
-32.52584616978817
 30
0.0
 11
252.8931728390837
 21
-31.60284616978817
 31
0.0
  0
LINE
  5
5B6
330
70
100
AcDbEntity
  8
0
  6
Continuous
100
AcDbLine
 10
234.4251728390837
 20
23.64315383021184
 30
0.0
 11
234.4251728390837
 21
24.15915383021184
 31
0.0
  0
LINE
  5
5B7
330
70
100
AcDbEntity
  8
0
  6
Continuous
100
AcDbLine
 10
234.3931728390837
 20
23.61015383021183
 30
0.0
 11
234.3931728390837
 21
24.15915383021184
 31
0.0
  0
LINE
  5
5B8
330
70
100
AcDbEntity
  8
0
  6
Continuous
100
AcDbLine
 10
251.4411728390837
 20
-34.32584616978818
 30
0.0
 11
252.1031728390837
 21
-33.64084616978815
 31
0.0
  0
LINE
  5
5B9
330
70
100
AcDbEntity
  8
0
  6
Continuous
100
AcDbLine
 10
252.9251728390837
 20
18.38715383021184
 30
0.0
 11
252.7291728390837
 21
19.46115383021183
 31
0.0
  0
LINE
  5
5BA
330
70
100
AcDbEntity
  8
0
  6
Continuous
100
AcDbLine
 10
250.1831728390837
 20
-34.92784616978819
 30
0.0
 11
251.4411728390837
 21
-34.32584616978818
 31
0.0
  0
LINE
  5
5BB
330
70
100
AcDbEntity
  8
0
  6
Continuous
100
AcDbLine
 10
250.0321728390837
 20
-34.97984616978818
 30
0.0
 11
250.1831728390837
 21
-34.92784616978819
 31
0.0
  0
LINE
  5
5BC
330
70
100
AcDbEntity
  8
0
  6
Continuous
100
AcDbLine
 10
252.1611728390837
 20
20.43115383021183
 30
0.0
 11
251.2761728390837
 21
21.20015383021183
 31
0.0
  0
LINE
  5
5BD
330
70
100
AcDbEntity
  8
0
  6
Continuous
100
AcDbLine
 10
252.7291728390837
 20
19.46115383021183
 30
0.0
 11
252.1611728390837
 21
20.43115383021183
 31
0.0
  0
LINE
  5
5BE
330
70
100
AcDbEntity
  8
0
  6
Continuous
100
AcDbLine
 10
252.8931728390837
 20
17.95815383021184
 30
0.0
 11
252.6991728390837
 21
19.02415383021184
 31
0.0
  0
LINE
  5
5BF
330
70
100
AcDbEntity
  8
0
  6
Continuous
100
AcDbLine
 10
248.9251728390837
 20
21.87115383021185
 30
0.0
 11
235.4251728390837
 21
21.87115383021185
 31
0.0
  0
LINE
  5
5C0
330
70
100
AcDbEntity
  8
0
  6
Continuous
100
AcDbLine
 10
250.0111728390837
 20
21.25915383021186
 30
0.0
 11
250.1511728390837
 21
21.23915383021182
 31
0.0
  0
LINE
  5
5C1
330
70
100
AcDbEntity
  8
0
  6
Continuous
100
AcDbLine
 10
250.2701728390837
 20
21.18715383021183
 30
0.0
 11
251.2571728390837
 21
20.74915383021172
 31
0.0
  0
LINE
  5
5C2
330
70
100
AcDbEntity
  8
0
  6
Continuous
100
AcDbLine
 10
252.5911728390837
 20
-32.90284616978818
 30
0.0
 11
252.7601728390837
 21
-32.49884616978815
 31
0.0
  0
LINE
  5
5C3
330
70
100
AcDbEntity
  8
0
  6
Continuous
100
AcDbLine
 10
234.3931728390837
 20
22.30515383021185
 30
0.0
 11
234.5311728390837
 21
21.85715383021184
 31
0.0
  0
LINE
  5
5C4
330
70
100
AcDbEntity
  8
0
  6
Continuous
100
AcDbLine
 10
234.9091728390837
 20
21.52815383021184
 30
0.0
 11
235.4251728390837
 21
21.40815383021183
 31
0.0
  0
LINE
  5
5C5
330
70
100
AcDbEntity
  8
0
  6
Continuous
100
AcDbLine
 10
234.5311728390837
 20
21.85715383021184
 30
0.0
 11
234.9091728390837
 21
21.52815383021184
 31
0.0
  0
LINE
  5
5C6
330
70
100
AcDbEntity
  8
0
  6
Continuous
100
AcDbLine
 10
252.1351728390837
 20
19.98615383021183
 30
0.0
 11
251.2571728390837
 21
20.74915383021172
 31
0.0
  0
LINE
  5
5C7
330
70
100
AcDbEntity
  8
0
  6
Continuous
100
AcDbLine
 10
252.1571728390837
 20
-33.57384616978817
 30
0.0
 11
252.5911728390837
 21
-32.90284616978818
 31
0.0
  0
LINE
  5
5C8
330
70
100
AcDbEntity
  8
0
  6
Continuous
100
AcDbLine
 10
252.1031728390837
 20
-33.64084616978815
 30
0.0
 11
252.1571728390837
 21
-33.57384616978817
 31
0.0
  0
LINE
  5
5C9
330
70
100
AcDbEntity
  8
0
  6
Continuous
100
AcDbLine
 10
234.3931728390837
 20
23.61015383021183
 30
0.0
 11
234.3931728390837
 21
22.30515383021185
 31
0.0
  0
LINE
  5
5CA
330
70
100
AcDbEntity
  8
0
  6
Continuous
100
AcDbLine
 10
234.4251728390837
 20
22.33915383021184
 30
0.0
 11
234.4251728390837
 21
23.64315383021184
 31
0.0
  0
LINE
  5
5CB
330
70
100
AcDbEntity
  8
0
  6
Continuous
100
AcDbLine
 10
248.9251728390837
 20
21.40815383021183
 30
0.0
 11
235.4251728390837
 21
21.40815383021183
 31
0.0
  0
LINE
  5
5CC
330
70
100
AcDbEntity
  8
0
  6
Continuous
100
AcDbLine
 10
252.8931728390837
 20
17.95815383021184
 30
0.0
 11
252.8931728390837
 21
-31.60284616978817
 31
0.0
  0
LINE
  5
5CD
330
70
100
AcDbEntity
  8
0
  6
Continuous
100
AcDbLine
 10
252.9251728390837
 20
-31.56984616978818
 30
0.0
 11
252.9251728390837
 21
17.99215383021183
 31
0.0
  0
LINE
  5
5CE
330
70
100
AcDbEntity
  8
0
  6
Continuous
100
AcDbLine
 10
252.5641728390837
 20
-32.92984616978817
 30
0.0
 11
252.7311728390837
 21
-32.52584616978817
 31
0.0
  0
LINE
  5
5CF
330
70
100
AcDbEntity
  8
0
  6
Continuous
100
AcDbLine
 10
251.3851728390837
 20
-34.32484616978817
 30
0.0
 11
252.0121728390837
 21
-33.70484616978817
 31
0.0
  0
LINE
  5
5D0
330
70
100
AcDbEntity
  8
0
  6
Continuous
100
AcDbLine
 10
151.2221728390837
 20
-35.24584616978817
 30
0.0
 11
159.7281728390837
 21
-35.24584616978817
 31
0.0
  0
LINE
  5
5D1
330
70
100
AcDbEntity
  8
0
  6
Continuous
100
AcDbLine
 10
149.7371728390837
 20
-35.24584616978817
 30
0.0
 11
151.2221728390837
 21
-35.24584616978817
 31
0.0
  0
LINE
  5
5D2
330
70
100
AcDbEntity
  8
0
  6
Continuous
100
AcDbLine
 10
149.4251728390837
 20
22.73415383021182
 30
0.0
 11
149.2911728390837
 21
22.29915383021182
 31
0.0
  0
LINE
  5
5D3
330
70
100
AcDbEntity
  8
0
  6
Continuous
100
AcDbLine
 10
149.2911728390837
 20
22.29915383021182
 30
0.0
 11
148.9251728390837
 21
21.98115383021184
 31
0.0
  0
LINE
  5
5D4
330
70
100
AcDbEntity
  8
0
  6
Continuous
100
AcDbLine
 10
130.9251728390837
 20
18.37615383021185
 30
0.0
 11
130.9251728390837
 21
18.00515383021184
 31
0.0
  0
LINE
  5
5D5
330
70
100
AcDbEntity
  8
0
  6
Continuous
100
AcDbLine
 10
135.0481728390837
 20
-35.19084616978816
 30
0.0
 11
135.2371728390837
 21
-35.22384616978815
 31
0.0
  0
LINE
  5
5D6
330
70
100
AcDbEntity
  8
0
  6
Continuous
100
AcDbLine
 10
135.2371728390837
 20
-35.22384616978815
 30
0.0
 11
135.5301728390837
 21
-35.23284616978816
 31
0.0
  0
LINE
  5
5D7
330
70
100
AcDbEntity
  8
0
  6
Continuous
100
AcDbLine
 10
161.1681728390837
 20
-35.24584616978817
 30
0.0
 11
161.4251728390837
 21
-35.24584616978817
 31
0.0
  0
LINE
  5
5D8
330
70
100
AcDbEntity
  8
0
  6
Continuous
100
AcDbLine
 10
148.4251728390837
 20
-35.24584616978817
 30
0.0
 11
149.7371728390837
 21
-35.24584616978817
 31
0.0
  0
LINE
  5
5D9
330
70
100
AcDbEntity
  8
0
  6
Continuous
100
AcDbLine
 10
135.9251728390837
 20
-35.24584616978817
 30
0.0
 11
148.4251728390837
 21
-35.24584616978817
 31
0.0
  0
LINE
  5
5DA
330
70
100
AcDbEntity
  8
0
  6
Continuous
100
AcDbLine
 10
135.5301728390837
 20
-35.23284616978816
 30
0.0
 11
135.9251728390837
 21
-35.24584616978817
 31
0.0
  0
LINE
  5
5DB
330
70
100
AcDbEntity
  8
0
  6
Continuous
100
AcDbLine
 10
161.4251728390837
 20
-35.24584616978817
 30
0.0
 11
191.9251728390837
 21
-35.24584616978817
 31
0.0
  0
LINE
  5
5DC
330
70
100
AcDbEntity
  8
0
  6
Continuous
100
AcDbLine
 10
133.8391728390837
 20
21.72115383021185
 30
0.0
 11
133.6991728390837
 21
21.70215383021184
 31
0.0
  0
LINE
  5
5DD
330
70
100
AcDbEntity
  8
0
  6
Continuous
100
AcDbLine
 10
133.8171728390837
 20
-34.97984616978818
 30
0.0
 11
135.0481728390837
 21
-35.19084616978816
 31
0.0
  0
LINE
  5
5DE
330
70
100
AcDbEntity
  8
0
  6
Continuous
100
AcDbLine
 10
133.8391728390837
 20
21.25915383021186
 30
0.0
 11
134.9251728390837
 21
21.40815383021183
 31
0.0
  0
LINE
  5
5DF
330
70
100
AcDbEntity
  8
0
  6
Continuous
100
AcDbLine
 10
159.7281728390837
 20
-35.24584616978817
 30
0.0
 11
161.1681728390837
 21
-35.24584616978817
 31
0.0
  0
LINE
  5
5E0
330
70
100
AcDbEntity
  8
0
  6
Continuous
100
AcDbLine
 10
131.1511728390837
 20
19.02415383021184
 30
0.0
 11
131.7141728390837
 21
19.98615383021183
 31
0.0
  0
LINE
  5
5E1
330
70
100
AcDbEntity
  8
0
  6
Continuous
100
AcDbLine
 10
130.9251728390837
 20
-31.56984616978818
 30
0.0
 11
131.0901728390837
 21
-32.49884616978815
 31
0.0
  0
LINE
  5
5E2
330
70
100
AcDbEntity
  8
0
  6
Continuous
100
AcDbLine
 10
148.9411728390837
 20
21.99115383021183
 30
0.0
 11
148.4251728390837
 21
21.87115383021185
 31
0.0
  0
LINE
  5
5E3
330
70
100
AcDbEntity
  8
0
  6
Continuous
100
AcDbLine
 10
134.9251728390837
 20
21.87115383021185
 30
0.0
 11
133.8391728390837
 21
21.72115383021185
 31
0.0
  0
LINE
  5
5E4
330
70
100
AcDbEntity
  8
0
  6
Continuous
100
AcDbLine
 10
133.5791728390837
 20
21.18615383021182
 30
0.0
 11
133.6991728390837
 21
21.23915383021182
 31
0.0
  0
LINE
  5
5E5
330
70
100
AcDbEntity
  8
0
  6
Continuous
100
AcDbLine
 10
130.9571728390837
 20
-31.60284616978817
 30
0.0
 11
131.1191728390837
 21
-32.52584616978817
 31
0.0
  0
LINE
  5
5E6
330
70
100
AcDbEntity
  8
0
  6
Continuous
100
AcDbLine
 10
149.4251728390837
 20
24.04215383021182
 30
0.0
 11
149.4251728390837
 21
23.64315383021184
 31
0.0
  0
LINE
  5
5E7
330
70
100
AcDbEntity
  8
0
  6
Continuous
100
AcDbLine
 10
149.4561728390837
 20
24.04215383021182
 30
0.0
 11
149.4561728390837
 21
23.60915383021183
 31
0.0
  0
LINE
  5
5E8
330
70
100
AcDbEntity
  8
0
  6
Continuous
100
AcDbLine
 10
131.7461728390837
 20
-33.64084616978815
 30
0.0
 11
132.4091728390837
 21
-34.32584616978818
 31
0.0
  0
LINE
  5
5E9
330
70
100
AcDbEntity
  8
0
  6
Continuous
100
AcDbLine
 10
131.1211728390837
 20
19.46115383021183
 30
0.0
 11
130.9251728390837
 21
18.38715383021184
 31
0.0
  0
LINE
  5
5EA
330
70
100
AcDbEntity
  8
0
  6
Continuous
100
AcDbLine
 10
133.6661728390837
 20
-34.92784616978819
 30
0.0
 11
133.8171728390837
 21
-34.97984616978818
 31
0.0
  0
LINE
  5
5EB
330
70
100
AcDbEntity
  8
0
  6
Continuous
100
AcDbLine
 10
132.4091728390837
 20
-34.32584616978818
 30
0.0
 11
133.6661728390837
 21
-34.92784616978819
 31
0.0
  0
LINE
  5
5EC
330
70
100
AcDbEntity
  8
0
  6
Continuous
100
AcDbLine
 10
132.5741728390837
 20
21.20015383021183
 30
0.0
 11
131.6891728390837
 21
20.43115383021183
 31
0.0
  0
LINE
  5
5ED
330
70
100
AcDbEntity
  8
0
  6
Continuous
100
AcDbLine
 10
131.6891728390837
 20
20.43115383021183
 30
0.0
 11
131.1211728390837
 21
19.46115383021183
 31
0.0
  0
LINE
  5
5EE
330
70
100
AcDbEntity
  8
0
  6
Continuous
100
AcDbLine
 10
131.1511728390837
 20
19.02415383021184
 30
0.0
 11
130.9561728390837
 21
17.95815383021184
 31
0.0
  0
LINE
  5
5EF
330
70
100
AcDbEntity
  8
0
  6
Continuous
100
AcDbLine
 10
148.4251728390837
 20
21.87115383021185
 30
0.0
 11
134.9251728390837
 21
21.87115383021185
 31
0.0
  0
LINE
  5
5F0
330
70
100
AcDbEntity
  8
0
  6
Continuous
100
AcDbLine
 10
133.6991728390837
 20
21.23915383021182
 30
0.0
 11
133.8391728390837
 21
21.25915383021186
 31
0.0
  0
LINE
  5
5F1
330
70
100
AcDbEntity
  8
0
  6
Continuous
100
AcDbLine
 10
132.5921728390837
 20
20.74915383021172
 30
0.0
 11
133.5791728390837
 21
21.18615383021182
 31
0.0
  0
LINE
  5
5F2
330
70
100
AcDbEntity
  8
0
  6
Continuous
100
AcDbLine
 10
131.0901728390837
 20
-32.49884616978815
 30
0.0
 11
131.2591728390837
 21
-32.90284616978818
 31
0.0
  0
LINE
  5
5F3
330
70
100
AcDbEntity
  8
0
  6
Continuous
100
AcDbLine
 10
149.3181728390837
 20
21.85715383021184
 30
0.0
 11
149.4561728390837
 21
22.30515383021185
 31
0.0
  0
LINE
  5
5F4
330
70
100
AcDbEntity
  8
0
  6
Continuous
100
AcDbLine
 10
148.4251728390837
 20
21.40815383021183
 30
0.0
 11
148.9411728390837
 21
21.52815383021184
 31
0.0
  0
LINE
  5
5F5
330
70
100
AcDbEntity
  8
0
  6
Continuous
100
AcDbLine
 10
148.9411728390837
 20
21.52815383021184
 30
0.0
 11
149.3181728390837
 21
21.85715383021184
 31
0.0
  0
LINE
  5
5F6
330
70
100
AcDbEntity
  8
0
  6
Continuous
100
AcDbLine
 10
132.5921728390837
 20
20.74915383021172
 30
0.0
 11
131.7141728390837
 21
19.98615383021183
 31
0.0
  0
LINE
  5
5F7
330
70
100
AcDbEntity
  8
0
  6
Continuous
100
AcDbLine
 10
131.6931728390837
 20
-33.57384616978817
 30
0.0
 11
131.7461728390837
 21
-33.64084616978815
 31
0.0
  0
LINE
  5
5F8
330
70
100
AcDbEntity
  8
0
  6
Continuous
100
AcDbLine
 10
131.2591728390837
 20
-32.90284616978818
 30
0.0
 11
131.6931728390837
 21
-33.57384616978817
 31
0.0
  0
LINE
  5
5F9
330
70
100
AcDbEntity
  8
0
  6
Continuous
100
AcDbLine
 10
149.4251728390837
 20
23.64315383021184
 30
0.0
 11
149.4251728390837
 21
22.33915383021184
 31
0.0
  0
LINE
  5
5FA
330
70
100
AcDbEntity
  8
0
  6
Continuous
100
AcDbLine
 10
149.4561728390837
 20
22.30515383021185
 30
0.0
 11
149.4561728390837
 21
23.59815383021183
 31
0.0
  0
LINE
  5
5FB
330
70
100
AcDbEntity
  8
0
  6
Continuous
100
AcDbLine
 10
148.4251728390837
 20
21.40815383021183
 30
0.0
 11
134.9251728390837
 21
21.40815383021183
 31
0.0
  0
LINE
  5
5FC
330
70
100
AcDbEntity
  8
0
  6
Continuous
100
AcDbLine
 10
130.9251728390837
 20
17.99115383021183
 30
0.0
 11
130.9251728390837
 21
-31.56984616978818
 31
0.0
  0
LINE
  5
5FD
330
70
100
AcDbEntity
  8
0
  6
Continuous
100
AcDbLine
 10
130.9571728390837
 20
-31.60284616978817
 30
0.0
 11
130.9561728390837
 21
17.95815383021184
 31
0.0
  0
LINE
  5
5FE
330
70
100
AcDbEntity
  8
0
  6
Continuous
100
AcDbLine
 10
131.1191728390837
 20
-32.52584616978817
 30
0.0
 11
131.2851728390837
 21
-32.92984616978817
 31
0.0
  0
LINE
  5
5FF
330
70
100
AcDbEntity
  8
0
  6
Continuous
100
AcDbLine
 10
131.8381728390837
 20
-33.70484616978817
 30
0.0
 11
132.4641728390837
 21
-34.32484616978817
 31
0.0
  0
LINE
  5
600
330
70
100
AcDbEntity
  8
0
  6
Continuous
100
AcDbLine
 10
243.1611728390837
 20
-42.11284616978817
 30
0.0
 11
243.1611728390837
 21
-35.24584616978817
 31
0.0
  0
LINE
  5
601
330
70
100
AcDbEntity
  8
0
  6
Continuous
100
AcDbLine
 10
140.6161728390837
 20
-48.22284616978817
 30
0.0
 11
140.6161728390837
 21
-51.77084616978817
 31
0.0
  0
LINE
  5
602
330
70
100
AcDbEntity
  8
0
  6
Continuous
100
AcDbLine
 10
243.1611728390837
 20
-51.77084616978817
 30
0.0
 11
243.1611728390837
 21
-48.22284616978817
 31
0.0
  0
LINE
  5
603
330
70
100
AcDbEntity
  8
0
  6
Continuous
100
AcDbLine
 10
243.1611728390837
 20
21.87115383021185
 30
0.0
 11
243.1611728390837
 21
23.59915383021183
 31
0.0
  0
LINE
  5
604
330
70
100
AcDbEntity
  8
0
  6
Continuous
100
AcDbLine
 10
243.1611728390837
 20
-52.18384616978816
 30
0.0
 11
243.1611728390837
 21
-51.77084616978817
 31
0.0
  0
LINE
  5
605
330
70
100
AcDbEntity
  8
0
  6
Continuous
100
AcDbLine
 10
242.1981728390837
 20
-52.18384616978816
 30
0.0
 11
243.1611728390837
 21
-52.18384616978816
 31
0.0
  0
LINE
  5
606
330
70
100
AcDbEntity
  8
0
  6
Continuous
100
AcDbLine
 10
140.6161728390837
 20
-52.18384616978816
 30
0.0
 11
141.5791728390837
 21
-52.18384616978816
 31
0.0
  0
LINE
  5
607
330
70
100
AcDbEntity
  8
0
  6
Continuous
100
AcDbLine
 10
140.6161728390837
 20
-51.77084616978817
 30
0.0
 11
140.6161728390837
 21
-52.18384616978816
 31
0.0
  0
LINE
  5
608
330
70
100
AcDbEntity
  8
0
  6
Continuous
100
AcDbLine
 10
140.6161728390837
 20
-42.11284616978817
 30
0.0
 11
140.6161728390837
 21
-48.22284616978817
 31
0.0
  0
LINE
  5
609
330
70
100
AcDbEntity
  8
0
  6
Continuous
100
AcDbLine
 10
140.6161728390837
 20
23.59815383021183
 30
0.0
 11
140.6161728390837
 21
21.87115383021185
 31
0.0
  0
LINE
  5
60A
330
70
100
AcDbEntity
  8
0
  6
Continuous
100
AcDbLine
 10
243.1611728390837
 20
-48.22284616978817
 30
0.0
 11
243.1611728390837
 21
-42.11284616978817
 31
0.0
  0
LINE
  5
60B
330
70
100
AcDbEntity
  8
0
  6
Continuous
100
AcDbLine
 10
140.6161728390837
 20
-35.24584616978817
 30
0.0
 11
140.6161728390837
 21
-42.11284616978817
 31
0.0
  0
LINE
  5
60C
330
70
100
AcDbEntity
  8
0
  6
Continuous
100
AcDbLine
 10
141.5791728390837
 20
-52.18384616978816
 30
0.0
 11
242.1981728390837
 21
-52.18384616978816
 31
0.0
  0
ENDSEC
  0
SECTION
  2
OBJECTS
  0
DICTIONARY
  5
C
330
0
100
AcDbDictionary
281
     1
  3
ACAD_2007HEADERVARS_RT
350
7B5
  3
ACAD_CIP_PREVIOUS_PRODUCT_INFO
350
18E
  3
ACAD_COLOR
350
62
  3
ACAD_DETAILVIEWSTYLE
350
6A
  3
ACAD_GROUP
350
D
  3
ACAD_LAYOUT
350
61
  3
ACAD_MATERIAL
350
10
  3
ACAD_MLEADERSTYLE
350
65
  3
ACAD_MLINESTYLE
350
5E
  3
ACAD_PLOTSETTINGS
350
60
  3
ACAD_PLOTSTYLENAME
350
E
  3
ACAD_SCALELIST
350
42
  3
ACAD_SECTIONVIEWSTYLE
350
67
  3
ACAD_TABLESTYLE
350
63
  3
ACAD_VISUALSTYLE
350
29
  3
ACDB_RECOMPOSE_DATA
350
7B3
  3
AcDbVariableDictionary
350
61D
  3
AcmDictionary
350
1BA
  3
AMG
350
18F
  3
AMGSNAPSETTINGS
350
1EF
  3
DWGPROPS
350
7B4
  0
DICTIONARY
  5
619
330
54
100
AcDbDictionary
280
     1
281
     1
  3
ADSK_XREC_LAYER_RECONCILED
360
61A
  0
DICTIONARY
  5
61B
330
60D
100
AcDbDictionary
280
     1
281
     1
  3
ADSK_XREC_LAYER_RECONCILED
360
61C
  0
DICTIONARY
  5
610
330
70
100
AcDbDictionary
280
     1
281
     1
  3
ACAD_SORTENTS
360
611
  0
DICTIONARY
  5
7B5
102
{ACAD_REACTORS
330
C
102
}
330
C
100
AcDbDictionary
281
     1
  3
DIMARCSYM
350
7B6
  3
DIMLTEX1
350
7B8
  3
DIMLTEX2
350
7B9
  3
DIMLTYPE
350
7B7
  0
XRECORD
  5
18E
102
{ACAD_REACTORS
330
C
102
}
330
C
100
AcDbXrecord
280
     1
300
AMECH_PP
300
2013
300
PDSS_F_S
  0
DICTIONARY
  5
62
102
{ACAD_REACTORS
330
C
102
}
330
C
100
AcDbDictionary
281
     1
  0
DICTIONARY
  5
6A
102
{ACAD_REACTORS
330
C
102
}
330
C
100
AcDbDictionary
281
     1
  3
Imperial24
350
6B
  0
DICTIONARY
  5
D
102
{ACAD_REACTORS
330
C
102
}
330
C
100
AcDbDictionary
281
     1
  0
DICTIONARY
  5
61
102
{ACAD_REACTORS
330
C
102
}
330
C
100
AcDbDictionary
281
     1
  3
Model
350
73
  3
レイアウト1
350
6F
  0
DICTIONARY
  5
10
102
{ACAD_REACTORS
330
C
102
}
330
C
100
AcDbDictionary
281
     1
  3
ByBlock
350
19
  3
ByLayer
350
11
  3
Global
350
21
  0
DICTIONARY
  5
65
102
{ACAD_REACTORS
330
C
102
}
330
C
100
AcDbDictionary
281
     1
  3
Standard
350
66
  0
DICTIONARY
  5
5E
102
{ACAD_REACTORS
330
C
102
}
330
C
100
AcDbDictionary
281
     1
  3
Standard
350
5F
  0
DICTIONARY
  5
60
102
{ACAD_REACTORS
330
C
102
}
330
C
100
AcDbDictionary
281
     1
  0
ACDBDICTIONARYWDFLT
  5
E
102
{ACAD_REACTORS
330
C
102
}
330
C
100
AcDbDictionary
281
     1
  3
Normal
350
F
100
AcDbDictionaryWithDefault
340
F
  0
DICTIONARY
  5
42
102
{ACAD_REACTORS
330
C
102
}
330
C
100
AcDbDictionary
281
     1
  3
A0
350
43
  3
A1
350
44
  3
A2
350
45
  3
A3
350
46
  3
A4
350
47
  3
A5
350
48
  3
A6
350
49
  3
A7
350
4A
  3
A8
350
4B
  3
A9
350
4C
  3
B0
350
4D
  3
B1
350
4E
  3
B2
350
4F
  3
B3
350
50
  3
B4
350
51
  3
B5
350
52
  3
B6
350
53
  0
DICTIONARY
  5
67
102
{ACAD_REACTORS
330
C
102
}
330
C
100
AcDbDictionary
281
     1
  3
Imperial24
350
69
  0
DICTIONARY
  5
63
102
{ACAD_REACTORS
330
C
102
}
330
C
100
AcDbDictionary
281
     1
  3
Standard
350
64
  0
DICTIONARY
  5
29
102
{ACAD_REACTORS
330
C
102
}
330
C
100
AcDbDictionary
281
     1
  3
2dWireframe
350
2F
  3
Basic
350
2E
  3
Brighten
350
35
  3
ColorChange
350
39
  3
Conceptual
350
32
  3
Dim
350
34
  3
EdgeColorOff
350
41
  3
Facepattern
350
38
  3
Flat
350
2A
  3
FlatWithEdges
350
2B
  3
Gouraud
350
2C
  3
GouraudWithEdges
350
2D
  3
Hidden
350
31
  3
JitterOff
350
3F
  3
Linepattern
350
37
  3
OverhangOff
350
40
  3
Realistic
350
33
  3
Shaded
350
3E
  3
Shaded with edges
350
3D
  3
Shades of Gray
350
3A
  3
Sketchy
350
3B
  3
Thicken
350
36
  3
Wireframe
350
30
  3
X-Ray
350
3C
  0
XRECORD
  5
7B3
102
{ACAD_REACTORS
330
C
102
}
330
C
100
AcDbXrecord
280
     1
 90
        1
330
64
  0
DICTIONARY
  5
61D
102
{ACAD_REACTORS
330
C
102
}
330
C
100
AcDbDictionary
281
     1
  3
CANNOSCALE
350
622
  3
CMLEADERSTYLE
350
61F
  3
CTABLESTYLE
350
61E
  3
CVIEWDETAILSTYLE
350
620
  3
CVIEWSECTIONSTYLE
350
621
  3
DIMASSOC
350
625
  3
INDEXCTL
350
624
  3
SORTENTS
350
623
  3
XCLIPFRAME
350
7B1
  0
DICTIONARY
  5
1BA
102
{ACAD_REACTORS
330
C
102
}
330
C
100
AcDbDictionary
281
     1
  3
AcmStdDictionary
350
1C1
  0
DICTIONARY
  5
18F
102
{ACAD_REACTORS
330
C
102
}
330
C
100
AcDbDictionary
281
     1
  0
DICTIONARY
  5
1EF
102
{ACAD_REACTORS
330
C
102
}
330
C
100
AcDbDictionary
281
     1
  0
XRECORD
  5
7B4
102
{ACAD_REACTORS
330
C
102
}
330
C
100
AcDbXrecord
280
     1
  1
DWGPROPS COOKIE
  2

  3

  4

  6

  7

  8
tomitais
  9

300
=
301
=
302
=
303
=
304
=
305
=
306
=
307
=
308
=
309
=
 40
0.0019369328703704
 41
2457211.399248333
 42
2457225.411845625
  1

 90
        0
  0
XRECORD
  5
61A
102
{ACAD_REACTORS
330
619
102
}
330
619
100
AcDbXrecord
280
     1
290
     1
  0
XRECORD
  5
61C
102
{ACAD_REACTORS
330
61B
102
}
330
61B
100
AcDbXrecord
280
     1
290
     1
  0
SORTENTSTABLE
  5
611
102
{ACAD_REACTORS
330
610
102
}
330
610
100
AcDbSortentsTable
330
70
331
106
  5
10E
331
102
  5
10A
331
17C
  5
184
331
317
  5
31F
331
FE
  5
106
331
13D
  5
145
331
8C
  5
94
331
178
  5
180
331
174
  5
17C
331
313
  5
31B
331
FA
  5
102
331
88
  5
90
331
C7
  5
CF
331
139
  5
141
331
C3
  5
CB
331
170
  5
178
331
84
  5
8C
331
80
  5
88
331
3CF
  5
3D7
331
355
  5
35D
331
3CB
  5
3D3
331
351
  5
359
331
34D
  5
355
331
38C
  5
394
331
3C7
  5
3CF
331
50E
  5
516
331
50A
  5
512
331
349
  5
351
331
388
  5
390
331
3C3
  5
3CB
331
5C7
  5
5CF
331
54D
  5
555
331
549
  5
551
331
5C3
  5
5CB
331
545
  5
54D
331
584
  5
58C
331
5BF
  5
5C7
331
5FE
  5
606
331
5FA
  5
602
331
541
  5
549
331
580
  5
588
331
5BB
  5
5C3
331
135
  5
13D
331
30F
  5
317
331
F6
  5
FE
331
F2
  5
FA
331
131
  5
139
331
BF
  5
C7
331
16C
  5
174
331
30B
  5
313
331
307
  5
30F
331
EE
  5
F6
331
12D
  5
135
331
7C
  5
84
331
BB
  5
C3
331
168
  5
170
331
164
  5
16C
331
303
  5
30B
331
EA
  5
F2
331
78
  5
80
331
B7
  5
BF
331
129
  5
131
331
B3
  5
BB
331
160
  5
168
331
506
  5
50E
331
345
  5
34D
331
384
  5
38C
331
3BF
  5
3C7
331
380
  5
388
331
3BB
  5
3C3
331
502
  5
50A
331
341
  5
349
331
33D
  5
345
331
37C
  5
384
331
3B7
  5
3BF
331
339
  5
341
331
378
  5
380
331
57C
  5
584
331
3B3
  5
3BB
331
5B7
  5
5BF
331
5F6
  5
5FE
331
53D
  5
545
331
578
  5
580
331
5B3
  5
5BB
331
5F2
  5
5FA
331
539
  5
541
331
535
  5
53D
331
574
  5
57C
331
5AF
  5
5B7
331
5EE
  5
5F6
331
5EA
  5
5F2
331
531
  5
539
331
570
  5
578
331
5AB
  5
5B3
331
125
  5
12D
331
2FF
  5
307
331
E6
  5
EE
331
E2
  5
EA
331
121
  5
129
331
AF
  5
B7
331
15C
  5
164
331
2FB
  5
303
331
2F7
  5
2FF
331
DE
  5
E6
331
11D
  5
125
331
AB
  5
B3
331
158
  5
160
331
DA
  5
E2
331
119
  5
121
331
A7
  5
AF
331
154
  5
15C
331
A3
  5
AB
331
150
  5
158
331
335
  5
33D
331
374
  5
37C
331
3AF
  5
3B7
331
370
  5
378
331
3AB
  5
3B3
331
3EA
  5
505
331
331
  5
339
331
36C
  5
374
331
3A7
  5
3AF
331
3E6
  5
501
331
32D
  5
335
331
329
  5
331
331
368
  5
370
331
3A3
  5
3AB
331
3E2
  5
3EA
331
5A7
  5
5AF
331
5E6
  5
5EE
331
52D
  5
535
331
56C
  5
574
331
568
  5
570
331
5A3
  5
5AB
331
5E2
  5
5EA
331
529
  5
531
331
525
  5
52D
331
564
  5
56C
331
59F
  5
5A7
331
5DE
  5
5E6
331
5DA
  5
5E2
331
521
  5
529
331
560
  5
568
331
59B
  5
5A3
331
115
  5
11D
331
D6
  5
DE
331
D2
  5
DA
331
111
  5
119
331
9F
  5
A7
331
14C
  5
154
331
18B
  5
2FB
331
CE
  5
D6
331
10D
  5
115
331
9B
  5
A3
331
148
  5
150
331
187
  5
2F7
331
183
  5
18B
331
CA
  5
D2
331
109
  5
111
331
609
  5
615
331
97
  5
9F
331
144
  5
14C
331
93
  5
9B
331
140
  5
148
331
3DE
  5
3E6
331
325
  5
32D
331
364
  5
36C
331
39F
  5
3A7
331
607
  5
613
331
39B
  5
3A3
331
3DA
  5
3E2
331
321
  5
329
331
360
  5
368
331
603
  5
60B
331
35C
  5
364
331
397
  5
39F
331
3D6
  5
3DE
331
31D
  5
325
331
319
  5
321
331
358
  5
360
331
393
  5
39B
331
3D2
  5
3DA
331
597
  5
59F
331
5D6
  5
5DE
331
51D
  5
525
331
55C
  5
564
331
558
  5
560
331
593
  5
59B
331
5D2
  5
5DA
331
519
  5
521
331
515
  5
51D
331
554
  5
55C
331
58F
  5
597
331
5CE
  5
5D6
331
5CA
  5
5D2
331
511
  5
519
331
550
  5
558
331
58B
  5
593
331
105
  5
10D
331
17F
  5
187
331
101
  5
109
331
8F
  5
97
331
17B
  5
183
331
316
  5
31E
331
FD
  5
105
331
13C
  5
144
331
8B
  5
93
331
177
  5
17F
331
138
  5
140
331
C6
  5
CE
331
173
  5
17B
331
312
  5
31A
331
87
  5
8F
331
F9
  5
101
331
C2
  5
CA
331
83
  5
8B
331
3CE
  5
3D6
331
354
  5
35C
331
38F
  5
397
331
3CA
  5
3D2
331
350
  5
358
331
34C
  5
354
331
38B
  5
393
331
3C6
  5
3CE
331
50D
  5
515
331
509
  5
511
331
348
  5
350
331
3C2
  5
3CA
331
5C6
  5
5CE
331
54C
  5
554
331
548
  5
550
331
587
  5
58F
331
5C2
  5
5CA
331
5FD
  5
605
331
544
  5
54C
331
583
  5
58B
331
5BE
  5
5C6
331
5F9
  5
601
331
540
  5
548
331
5BA
  5
5C2
331
134
  5
13C
331
16F
  5
177
331
30E
  5
316
331
F5
  5
FD
331
F1
  5
F9
331
130
  5
138
331
7F
  5
87
331
BE
  5
C6
331
16B
  5
173
331
30A
  5
312
331
306
  5
30E
331
ED
  5
F5
331
12C
  5
134
331
7B
  5
83
331
BA
  5
C2
331
167
  5
16F
331
163
  5
16B
331
302
  5
30A
331
E9
  5
F1
331
B6
  5
BE
331
128
  5
130
331
B2
  5
BA
331
387
  5
38F
331
3BE
  5
3C6
331
505
  5
50D
331
344
  5
34C
331
383
  5
38B
331
37F
  5
387
331
3BA
  5
3C2
331
501
  5
509
331
340
  5
348
331
33C
  5
344
331
37B
  5
383
331
3B6
  5
3BE
331
57F
  5
587
331
338
  5
340
331
57B
  5
583
331
3B2
  5
3BA
331
5B6
  5
5BE
331
5F5
  5
5FD
331
53C
  5
544
331
538
  5
540
331
577
  5
57F
331
5B2
  5
5BA
331
5F1
  5
5F9
331
534
  5
53C
331
573
  5
57B
331
5AE
  5
5B6
331
5ED
  5
5F5
331
5E9
  5
5F1
331
530
  5
538
331
5AA
  5
5B2
331
124
  5
12C
331
15F
  5
167
331
2FE
  5
306
331
E5
  5
ED
331
E1
  5
E9
331
120
  5
128
331
AE
  5
B6
331
15B
  5
163
331
2FA
  5
302
331
2F6
  5
2FE
331
DD
  5
E5
331
11C
  5
124
331
AA
  5
B2
331
157
  5
15F
331
153
  5
15B
331
D9
  5
E1
331
A6
  5
AE
331
118
  5
120
331
A2
  5
AA
331
377
  5
37F
331
334
  5
33C
331
373
  5
37B
331
3AE
  5
3B6
331
36F
  5
377
331
3AA
  5
3B2
331
3E9
  5
504
331
330
  5
338
331
32C
  5
334
331
36B
  5
373
331
3A6
  5
3AE
331
3E5
  5
500
331
56F
  5
577
331
328
  5
330
331
56B
  5
573
331
3A2
  5
3AA
331
5A6
  5
5AE
331
5E5
  5
5ED
331
52C
  5
534
331
3E1
  5
3E9
331
567
  5
56F
331
5A2
  5
5AA
331
5E1
  5
5E9
331
528
  5
530
331
524
  5
52C
331
563
  5
56B
331
59E
  5
5A6
331
5DD
  5
5E5
331
5D9
  5
5E1
331
520
  5
528
331
59A
  5
5A2
331
114
  5
11C
331
14F
  5
157
331
D5
  5
DD
331
D1
  5
D9
331
110
  5
118
331
9E
  5
A6
331
14B
  5
153
331
18A
  5
2FA
331
186
  5
2F6
331
CD
  5
D5
331
10C
  5
114
331
60C
  5
618
331
9A
  5
A2
331
147
  5
14F
331
182
  5
18A
331
C9
  5
D1
331
108
  5
110
331
608
  5
614
331
96
  5
9E
331
143
  5
14B
331
92
  5
9A
331
367
  5
36F
331
3DD
  5
3E5
331
324
  5
32C
331
363
  5
36B
331
39E
  5
3A6
331
35F
  5
367
331
39A
  5
3A2
331
3D9
  5
3E1
331
320
  5
328
331
606
  5
612
331
602
  5
60A
331
35B
  5
363
331
396
  5
39E
331
3D5
  5
3DD
331
55F
  5
567
331
31C
  5
324
331
318
  5
320
331
392
  5
39A
331
3D1
  5
3D9
331
596
  5
59E
331
5D5
  5
5DD
331
51C
  5
524
331
55B
  5
563
331
557
  5
55F
331
592
  5
59A
331
5D1
  5
5D9
331
518
  5
520
331
514
  5
51C
331
553
  5
55B
331
58E
  5
596
331
5CD
  5
5D5
331
5C9
  5
5D1
331
510
  5
518
331
58A
  5
592
331
104
  5
10C
331
17E
  5
186
331
100
  5
108
331
13F
  5
147
331
8E
  5
96
331
17A
  5
182
331
315
  5
31D
331
FC
  5
104
331
13B
  5
143
331
8A
  5
92
331
176
  5
17E
331
C5
  5
CD
331
172
  5
17A
331
311
  5
319
331
86
  5
8E
331
F8
  5
100
331
82
  5
8A
331
C1
  5
C9
331
357
  5
35F
331
3CD
  5
3D5
331
353
  5
35B
331
38E
  5
396
331
3C9
  5
3D1
331
34F
  5
357
331
34B
  5
353
331
38A
  5
392
331
3C5
  5
3CD
331
54F
  5
557
331
50C
  5
514
331
508
  5
510
331
3C1
  5
3C9
331
5C5
  5
5CD
331
54B
  5
553
331
547
  5
54F
331
586
  5
58E
331
5C1
  5
5C9
331
5FC
  5
604
331
543
  5
54B
331
582
  5
58A
331
5BD
  5
5C5
331
5B9
  5
5C1
331
5F8
  5
600
331
137
  5
13F
331
F4
  5
FC
331
133
  5
13B
331
16E
  5
176
331
30D
  5
315
331
F0
  5
F8
331
12F
  5
137
331
7E
  5
86
331
BD
  5
C5
331
16A
  5
172
331
309
  5
311
331
305
  5
30D
331
EC
  5
F4
331
12B
  5
133
331
7A
  5
82
331
B9
  5
C1
331
166
  5
16E
331
B5
  5
BD
331
162
  5
16A
331
77
  5
7F
331
301
  5
309
331
E8
  5
F0
331
B1
  5
B9
331
347
  5
34F
331
386
  5
38E
331
3BD
  5
3C5
331
504
  5
50C
331
343
  5
34B
331
382
  5
38A
331
37E
  5
386
331
3B9
  5
3C1
331
500
  5
508
331
33F
  5
347
331
33B
  5
343
331
37A
  5
382
331
3B5
  5
3BD
331
53F
  5
547
331
57E
  5
586
331
57A
  5
582
331
3B1
  5
3B9
331
5B5
  5
5BD
331
5F4
  5
5FC
331
53B
  5
543
331
537
  5
53F
331
576
  5
57E
331
5B1
  5
5B9
331
5F0
  5
5F8
331
5EC
  5
5F4
331
533
  5
53B
331
572
  5
57A
331
5AD
  5
5B5
331
5E8
  5
5F0
331
5A9
  5
5B1
331
127
  5
12F
331
123
  5
12B
331
15E
  5
166
331
2FD
  5
305
331
E4
  5
EC
331
E0
  5
E8
331
11F
  5
127
331
AD
  5
B5
331
15A
  5
162
331
2F9
  5
301
331
2F5
  5
2FD
331
DC
  5
E4
331
11B
  5
123
331
A9
  5
B1
331
156
  5
15E
331
152
  5
15A
331
D8
  5
E0
331
A5
  5
AD
331
A1
  5
A9
331
337
  5
33F
331
376
  5
37E
331
3AD
  5
3B5
331
333
  5
33B
331
372
  5
37A
331
36E
  5
376
331
3A9
  5
3B1
331
3E8
  5
503
331
32F
  5
337
331
32B
  5
333
331
36A
  5
372
331
3A5
  5
3AD
331
3E4
  5
4FF
331
52F
  5
537
331
56E
  5
576
331
3E0
  5
3E8
331
56A
  5
572
331
3A1
  5
3A9
331
5A5
  5
5AD
331
5E4
  5
5EC
331
52B
  5
533
331
527
  5
52F
331
566
  5
56E
331
5A1
  5
5A9
331
5E0
  5
5E8
331
523
  5
52B
331
562
  5
56A
331
59D
  5
5A5
331
5DC
  5
5E4
331
5D8
  5
5E0
331
599
  5
5A1
331
117
  5
11F
331
113
  5
11B
331
14E
  5
156
331
D4
  5
DC
331
D0
  5
D8
331
10F
  5
117
331
9D
  5
A5
331
14A
  5
152
331
189
  5
2F9
331
185
  5
2F5
331
CC
  5
D4
331
10B
  5
113
331
60B
  5
617
331
99
  5
A1
331
146
  5
14E
331
142
  5
14A
331
181
  5
189
331
C8
  5
D0
331
95
  5
9D
331
91
  5
99
331
327
  5
32F
331
366
  5
36E
331
3DC
  5
3E4
331
323
  5
32B
331
362
  5
36A
331
39D
  5
3A5
331
35E
  5
366
331
399
  5
3A1
331
3D8
  5
3E0
331
31F
  5
327
331
605
  5
60F
331
601
  5
609
331
31B
  5
323
331
35A
  5
362
331
395
  5
39D
331
3D4
  5
3DC
331
51F
  5
527
331
55E
  5
566
331
55A
  5
562
331
391
  5
399
331
595
  5
59D
331
5D4
  5
5DC
331
51B
  5
523
331
3D0
  5
3D8
331
556
  5
55E
331
591
  5
599
331
5D0
  5
5D8
331
517
  5
51F
331
513
  5
51B
331
552
  5
55A
331
58D
  5
595
331
5CC
  5
5D4
331
5C8
  5
5D0
331
589
  5
591
331
107
  5
10F
331
103
  5
10B
331
17D
  5
185
331
FF
  5
107
331
13E
  5
146
331
8D
  5
95
331
179
  5
181
331
175
  5
17D
331
314
  5
31C
331
FB
  5
103
331
89
  5
91
331
13A
  5
142
331
C4
  5
CC
331
171
  5
179
331
310
  5
318
331
85
  5
8D
331
81
  5
89
331
C0
  5
C8
331
356
  5
35E
331
3CC
  5
3D4
331
352
  5
35A
331
34E
  5
356
331
38D
  5
395
331
3C8
  5
3D0
331
50F
  5
517
331
34A
  5
352
331
389
  5
391
331
3C4
  5
3CC
331
54E
  5
556
331
50B
  5
513
331
3C0
  5
3C8
331
5C4
  5
5CC
331
54A
  5
552
331
546
  5
54E
331
585
  5
58D
331
5C0
  5
5C8
331
5FF
  5
607
331
5FB
  5
603
331
542
  5
54A
331
581
  5
589
331
5BC
  5
5C4
331
5B8
  5
5C0
331
136
  5
13E
331
F7
  5
FF
331
F3
  5
FB
331
132
  5
13A
331
16D
  5
175
331
30C
  5
314
331
308
  5
310
331
EF
  5
F7
331
12E
  5
136
331
7D
  5
85
331
BC
  5
C4
331
169
  5
171
331
304
  5
30C
331
EB
  5
F3
331
12A
  5
132
331
79
  5
81
331
B8
  5
C0
331
165
  5
16D
331
B4
  5
BC
331
161
  5
169
331
76
  5
7E
331
300
  5
308
331
B0
  5
B8
331
507
  5
50F
331
346
  5
34E
331
385
  5
38D
331
381
  5
389
331
3BC
  5
3C4
331
503
  5
50B
331
342
  5
34A
331
37D
  5
385
331
3B8
  5
3C0
331
4FF
  5
507
331
33E
  5
346
331
33A
  5
342
331
379
  5
381
331
3B4
  5
3BC
331
5F7
  5
5FF
331
53E
  5
546
331
57D
  5
585
331
579
  5
581
331
3B0
  5
3B8
331
5B4
  5
5BC
331
5F3
  5
5FB
331
53A
  5
542
331
536
  5
53E
331
575
  5
57D
331
5B0
  5
5B8
331
5EF
  5
5F7
331
5EB
  5
5F3
331
532
  5
53A
331
571
  5
579
331
5AC
  5
5B4
331
5A8
  5
5B0
331
126
  5
12E
331
E7
  5
EF
331
E3
  5
EB
331
122
  5
12A
331
15D
  5
165
331
2FC
  5
304
331
DF
  5
E7
331
11E
  5
126
331
AC
  5
B4
331
159
  5
161
331
2F8
  5
300
331
DB
  5
E3
331
11A
  5
122
331
A8
  5
B0
331
155
  5
15D
331
A4
  5
AC
331
151
  5
159
331
A0
  5
A8
331
336
  5
33E
331
375
  5
37D
331
3AC
  5
3B4
331
3EB
  5
506
331
332
  5
33A
331
371
  5
379
331
36D
  5
375
331
3A8
  5
3B0
331
3E7
  5
502
331
32E
  5
336
331
32A
  5
332
331
369
  5
371
331
3A4
  5
3AC
331
3E3
  5
3EB
331
5E7
  5
5EF
331
52E
  5
536
331
56D
  5
575
331
569
  5
571
331
3A0
  5
3A8
331
5A4
  5
5AC
331
5E3
  5
5EB
331
52A
  5
532
331
526
  5
52E
331
565
  5
56D
331
5A0
  5
5A8
331
5DF
  5
5E7
331
5DB
  5
5E3
331
522
  5
52A
331
561
  5
569
331
59C
  5
5A4
331
598
  5
5A0
331
116
  5
11E
331
D7
  5
DF
331
112
  5
11A
331
14D
  5
155
331
18C
  5
2FC
331
D3
  5
DB
331
CF
  5
D7
331
10E
  5
116
331
9C
  5
A4
331
149
  5
151
331
188
  5
2F8
331
184
  5
18C
331
CB
  5
D3
331
10A
  5
112
331
60A
  5
616
331
98
  5
A0
331
145
  5
14D
331
141
  5
149
331
180
  5
188
331
94
  5
9C
331
90
  5
98
331
3DF
  5
3E7
331
326
  5
32E
331
365
  5
36D
331
39C
  5
3A4
331
3DB
  5
3E3
331
322
  5
32A
331
361
  5
369
331
35D
  5
365
331
398
  5
3A0
331
3D7
  5
3DF
331
31E
  5
326
331
604
  5
60C
331
600
  5
608
331
31A
  5
322
331
359
  5
361
331
394
  5
39C
331
3D3
  5
3DB
331
5D7
  5
5DF
331
51E
  5
526
331
55D
  5
565
331
559
  5
561
331
390
  5
398
331
594
  5
59C
331
5D3
  5
5DB
331
51A
  5
522
331
516
  5
51E
331
555
  5
55D
331
590
  5
598
331
5CF
  5
5D7
331
512
  5
51A
331
551
  5
559
331
58C
  5
594
331
5CB
  5
5D3
331
588
  5
590
  0
XRECORD
  5
7B6
102
{ACAD_REACTORS
330
7B5
102
}
330
7B5
100
AcDbXrecord
280
     1
 70
     1
  0
XRECORD
  5
7B8
102
{ACAD_REACTORS
330
7B5
102
}
330
7B5
100
AcDbXrecord
280
     1
340
5A
  0
XRECORD
  5
7B9
102
{ACAD_REACTORS
330
7B5
102
}
330
7B5
100
AcDbXrecord
280
     1
340
5A
  0
XRECORD
  5
7B7
102
{ACAD_REACTORS
330
7B5
102
}
330
7B5
100
AcDbXrecord
280
     1
340
5A
  0
ACDBDETAILVIEWSTYLE
  5
6B
102
{ACAD_REACTORS
330
6A
102
}
330
6A
100
AcDbModelDocViewStyle
 70
     0
  3
Imperial24
290
     0
100
AcDbDetailViewStyle
 70
     0
 71
     0
 90
        3
 71
     1
340
55
 40
0.24
340
0
 40
0.24
300

 40
0.36
280
     3
 71
     2
340
5C
 90
       25
 71
     3
340
55
 40
0.24
 90
        1
 40
0.75
 90
        1
300
%<\AcVar ViewType \f "%tc1">% %<\AcVar ViewDetailId>%\PSCALE %<\AcVar ViewScale \f "%sn">%
 71
     4
340
5C
 90
       25
340
5C
 90
       25
280
     0
  0
LAYOUT
  5
73
102
{ACAD_XDICTIONARY
360
7ED
102
}
102
{ACAD_REACTORS
330
61
102
}
330
61
100
AcDbPlotSettings
  1

  2
Adobe PDF
  4

  6

 40
0.0
 41
0.0
 42
0.0
 43
0.0
 44
0.0
 45
0.0
 46
0.0
 47
0.0
 48
0.0
 49
0.0
140
0.0
141
0.0
142
1.0
143
1.0
 70
  1712
 72
     0
 73
     0
 74
     0
  7

 75
     0
147
1.0
148
0.0
149
0.0
100
AcDbLayout
  1
Model
 70
     1
 71
     0
 10
0.0
 20
0.0
 11
12.0
 21
9.0
 12
0.0
 22
0.0
 32
0.0
 14
0.0
 24
0.0
 34
0.0
 15
0.0
 25
0.0
 35
0.0
146
0.0
 13
0.0
 23
0.0
 33
0.0
 16
1.0
 26
0.0
 36
0.0
 17
0.0
 27
1.0
 37
0.0
 76
     0
330
70
331
75
  0
LAYOUT
  5
6F
102
{ACAD_XDICTIONARY
360
7EB
102
}
102
{ACAD_REACTORS
330
61
102
}
330
61
100
AcDbPlotSettings
  1

  2
Adobe PDF
  4

  6

 40
0.0
 41
0.0
 42
0.0
 43
0.0
 44
0.0
 45
0.0
 46
0.0
 47
0.0
 48
0.0
 49
0.0
140
0.0
141
0.0
142
1.0
143
1.0
 70
   688
 72
     0
 73
     0
 74
     5
  7

 75
    16
147
1.0
148
0.0
149
0.0
100
AcDbLayout
  1
レイアウト1
 70
     1
 71
     1
 10
0.0
 20
0.0
 11
12.0
 21
9.0
 12
0.0
 22
0.0
 32
0.0
 14
1.000000000000000E+20
 24
1.000000000000000E+20
 34
1.000000000000000E+20
 15
-1.000000000000000E+20
 25
-1.000000000000000E+20
 35
-1.000000000000000E+20
146
0.0
 13
0.0
 23
0.0
 33
0.0
 16
1.0
 26
0.0
 36
0.0
 17
0.0
 27
1.0
 37
0.0
 76
     0
330
6C
  0
MATERIAL
  5
19
102
{ACAD_XDICTIONARY
360
1A
102
}
102
{ACAD_REACTORS
330
10
102
}
330
10
100
AcDbMaterial
  1
ByBlock
 72
     0
 43
0.0208333333333333
 43
0.0
 43
0.0
 43
0.0
 43
0.0
 43
0.0208333333333333
 43
0.0
 43
0.0
 43
0.0
 43
0.0
 43
1.0
 43
0.0
 43
0.0
 43
0.0
 43
0.0
 43
1.0
 77
     0
 47
0.0208333333333333
 47
0.0
 47
0.0
 47
0.0
 47
0.0
 47
0.0208333333333333
 47
0.0
 47
0.0
 47
0.0
 47
0.0
 47
1.0
 47
0.0
 47
0.0
 47
0.0
 47
0.0
 47
1.0
171
     0
 49
0.0208333333333333
 49
0.0
 49
0.0
 49
0.0
 49
0.0
 49
0.0208333333333333
 49
0.0
 49
0.0
 49
0.0
 49
0.0
 49
1.0
 49
0.0
 49
0.0
 49
0.0
 49
0.0
 49
1.0
175
     0
142
0.0208333333333333
142
0.0
142
0.0
142
0.0
142
0.0
142
0.0208333333333333
142
0.0
142
0.0
142
0.0
142
0.0
142
1.0
142
0.0
142
0.0
142
0.0
142
0.0
142
1.0
179
     0
144
0.0208333333333333
144
0.0
144
0.0
144
0.0
144
0.0
144
0.0208333333333333
144
0.0
144
0.0
144
0.0
144
0.0
144
1.0
144
0.0
144
0.0
144
0.0
144
0.0
144
1.0
147
0.0208333333333333
147
0.0
147
0.0
147
0.0
147
0.0
147
0.0208333333333333
147
0.0
147
0.0
147
0.0
147
0.0
147
1.0
147
0.0
147
0.0
147
0.0
147
0.0
147
1.0
  0
MATERIAL
  5
11
102
{ACAD_XDICTIONARY
360
12
102
}
102
{ACAD_REACTORS
330
10
102
}
330
10
100
AcDbMaterial
  1
ByLayer
 72
     0
 43
0.0208333333333333
 43
0.0
 43
0.0
 43
0.0
 43
0.0
 43
0.0208333333333333
 43
0.0
 43
0.0
 43
0.0
 43
0.0
 43
1.0
 43
0.0
 43
0.0
 43
0.0
 43
0.0
 43
1.0
 77
     0
 47
0.0208333333333333
 47
0.0
 47
0.0
 47
0.0
 47
0.0
 47
0.0208333333333333
 47
0.0
 47
0.0
 47
0.0
 47
0.0
 47
1.0
 47
0.0
 47
0.0
 47
0.0
 47
0.0
 47
1.0
171
     0
 49
0.0208333333333333
 49
0.0
 49
0.0
 49
0.0
 49
0.0
 49
0.0208333333333333
 49
0.0
 49
0.0
 49
0.0
 49
0.0
 49
1.0
 49
0.0
 49
0.0
 49
0.0
 49
0.0
 49
1.0
175
     0
142
0.0208333333333333
142
0.0
142
0.0
142
0.0
142
0.0
142
0.0208333333333333
142
0.0
142
0.0
142
0.0
142
0.0
142
1.0
142
0.0
142
0.0
142
0.0
142
0.0
142
1.0
179
     0
144
0.0208333333333333
144
0.0
144
0.0
144
0.0
144
0.0
144
0.0208333333333333
144
0.0
144
0.0
144
0.0
144
0.0
144
1.0
144
0.0
144
0.0
144
0.0
144
0.0
144
1.0
147
0.0208333333333333
147
0.0
147
0.0
147
0.0
147
0.0
147
0.0208333333333333
147
0.0
147
0.0
147
0.0
147
0.0
147
1.0
147
0.0
147
0.0
147
0.0
147
0.0
147
1.0
  0
MATERIAL
  5
21
102
{ACAD_XDICTIONARY
360
22
102
}
102
{ACAD_REACTORS
330
10
102
}
330
10
100
AcDbMaterial
  1
Global
 72
     0
 43
0.0208333333333333
 43
0.0
 43
0.0
 43
0.0
 43
0.0
 43
0.0208333333333333
 43
0.0
 43
0.0
 43
0.0
 43
0.0
 43
1.0
 43
0.0
 43
0.0
 43
0.0
 43
0.0
 43
1.0
 77
     0
 47
0.0208333333333333
 47
0.0
 47
0.0
 47
0.0
 47
0.0
 47
0.0208333333333333
 47
0.0
 47
0.0
 47
0.0
 47
0.0
 47
1.0
 47
0.0
 47
0.0
 47
0.0
 47
0.0
 47
1.0
171
     0
 49
0.0208333333333333
 49
0.0
 49
0.0
 49
0.0
 49
0.0
 49
0.0208333333333333
 49
0.0
 49
0.0
 49
0.0
 49
0.0
 49
1.0
 49
0.0
 49
0.0
 49
0.0
 49
0.0
 49
1.0
175
     0
142
0.0208333333333333
142
0.0
142
0.0
142
0.0
142
0.0
142
0.0208333333333333
142
0.0
142
0.0
142
0.0
142
0.0
142
1.0
142
0.0
142
0.0
142
0.0
142
0.0
142
1.0
179
     0
144
0.0208333333333333
144
0.0
144
0.0
144
0.0
144
0.0
144
0.0208333333333333
144
0.0
144
0.0
144
0.0
144
0.0
144
1.0
144
0.0
144
0.0
144
0.0
144
0.0
144
1.0
147
0.0208333333333333
147
0.0
147
0.0
147
0.0
147
0.0
147
0.0208333333333333
147
0.0
147
0.0
147
0.0
147
0.0
147
1.0
147
0.0
147
0.0
147
0.0
147
0.0
147
1.0
  0
MLEADERSTYLE
  5
66
102
{ACAD_REACTORS
330
65
102
}
330
65
100
AcDbMLeaderStyle
170
     2
171
     1
172
     0
 90
        2
 40
0.0
 41
0.0
173
     1
 91
-1056964608
340
5A
 92
       -2
290
     1
 42
0.09
291
     1
 43
0.36
  3
Standard
 44
0.18
300

342
55
174
     1
178
     6
175
     1
176
     0
 93
-1056964608
 45
0.18
292
     0
297
     0
 46
0.18
 94
-1056964608
 47
1.0
 49
1.0
140
1.0
293
     1
141
0.0
294
     1
177
     0
142
1.0
295
     0
296
     0
143
0.125
1001
ACAD_MLEADERVER
1070
     2
  0
MLINESTYLE
  5
5F
102
{ACAD_REACTORS
330
5E
102
}
330
5E
100
AcDbMlineStyle
  2
STANDARD
 70
     0
  3

 62
   256
 51
90.0
 52
90.0
 71
     2
 49
0.5
 62
   256
  6
BYLAYER
 49
-0.5
 62
   256
  6
BYLAYER
  0
ACDBPLACEHOLDER
  5
F
102
{ACAD_REACTORS
330
E
102
}
330
E
  0
SCALE
  5
43
102
{ACAD_REACTORS
330
42
102
}
330
42
100
AcDbScale
 70
     0
300
1:1
140
1.0
141
1.0
290
     1
  0
SCALE
  5
44
102
{ACAD_REACTORS
330
42
102
}
330
42
100
AcDbScale
 70
     0
300
1/128" = 1'-0"
140
0.0078125
141
12.0
290
     0
  0
SCALE
  5
45
102
{ACAD_REACTORS
330
42
102
}
330
42
100
AcDbScale
 70
     0
300
1/64" = 1'-0"
140
0.015625
141
12.0
290
     0
  0
SCALE
  5
46
102
{ACAD_REACTORS
330
42
102
}
330
42
100
AcDbScale
 70
     0
300
1/32" = 1'-0"
140
0.03125
141
12.0
290
     0
  0
SCALE
  5
47
102
{ACAD_REACTORS
330
42
102
}
330
42
100
AcDbScale
 70
     0
300
1/16" = 1'-0"
140
0.0625
141
12.0
290
     0
  0
SCALE
  5
48
102
{ACAD_REACTORS
330
42
102
}
330
42
100
AcDbScale
 70
     0
300
3/32" = 1'-0"
140
0.09375
141
12.0
290
     0
  0
SCALE
  5
49
102
{ACAD_REACTORS
330
42
102
}
330
42
100
AcDbScale
 70
     0
300
1/8" = 1'-0"
140
0.125
141
12.0
290
     0
  0
SCALE
  5
4A
102
{ACAD_REACTORS
330
42
102
}
330
42
100
AcDbScale
 70
     0
300
3/16" = 1'-0"
140
0.1875
141
12.0
290
     0
  0
SCALE
  5
4B
102
{ACAD_REACTORS
330
42
102
}
330
42
100
AcDbScale
 70
     0
300
1/4" = 1'-0"
140
0.25
141
12.0
290
     0
  0
SCALE
  5
4C
102
{ACAD_REACTORS
330
42
102
}
330
42
100
AcDbScale
 70
     0
300
3/8" = 1'-0"
140
0.375
141
12.0
290
     0
  0
SCALE
  5
4D
102
{ACAD_REACTORS
330
42
102
}
330
42
100
AcDbScale
 70
     0
300
1/2" = 1'-0"
140
0.5
141
12.0
290
     0
  0
SCALE
  5
4E
102
{ACAD_REACTORS
330
42
102
}
330
42
100
AcDbScale
 70
     0
300
3/4" = 1'-0"
140
0.75
141
12.0
290
     0
  0
SCALE
  5
4F
102
{ACAD_REACTORS
330
42
102
}
330
42
100
AcDbScale
 70
     0
300
1" = 1'-0"
140
1.0
141
12.0
290
     0
  0
SCALE
  5
50
102
{ACAD_REACTORS
330
42
102
}
330
42
100
AcDbScale
 70
     0
300
1-1/2" = 1'-0"
140
1.5
141
12.0
290
     0
  0
SCALE
  5
51
102
{ACAD_REACTORS
330
42
102
}
330
42
100
AcDbScale
 70
     0
300
3" = 1'-0"
140
3.0
141
12.0
290
     0
  0
SCALE
  5
52
102
{ACAD_REACTORS
330
42
102
}
330
42
100
AcDbScale
 70
     0
300
6" = 1'-0"
140
6.0
141
12.0
290
     0
  0
SCALE
  5
53
102
{ACAD_REACTORS
330
42
102
}
330
42
100
AcDbScale
 70
     0
300
1'-0" = 1'-0"
140
12.0
141
12.0
290
     0
  0
ACDBSECTIONVIEWSTYLE
  5
69
102
{ACAD_REACTORS
330
67
102
}
330
67
100
AcDbModelDocViewStyle
 70
     0
  3
Imperial24
290
     0
100
AcDbSectionViewStyle
 70
     0
 71
     0
 90
       78
 71
     1
340
55
 40
0.24
340
0
340
0
 40
0.24
300
I, O, Q, S, X, Z
 40
0.48
 90
        3
 40
0.18
 90
        1
 71
     2
340
68
 90
       25
340
5C
 90
       50
 40
0.24
 40
0.0
 40
0.24
 71
     3
340
55
 40
0.24
 90
        1
 40
0.75
 90
        1
300
%<\AcVar ViewType \f "%tc1">% %<\AcVar ViewSectionStartId>%-%<\AcVar ViewSectionEndId>%\PSCALE %<\AcVar ViewScale \f "%sn">%
 71
     4
300
ANSI31
 40
1.0
 90
        0
290
     0
290
     0
 90
        6
 40
0.0
 40
1.570796326794896
 40
0.2617993877991494
 40
1.308996938995747
 40
-0.2617993877991494
 40
1.832595714594045
  0
TABLESTYLE
  5
64
102
{ACAD_XDICTIONARY
360
627
102
}
102
{ACAD_REACTORS
330
63
102
}
330
63
100
AcDbTableStyle
  3
Standard
 70
     0
 71
     0
 40
0.06
 41
0.06
280
     0
281
     0
  7
Standard
140
0.18
170
     2
 62
     0
 63
     7
283
     0
274
    -2
284
     1
 64
     0
275
    -2
285
     1
 65
     0
276
    -2
286
     1
 66
     0
277
    -2
287
     1
 67
     0
278
    -2
288
     1
 68
     0
279
    -2
289
     1
 69
     0
  7
Standard
140
0.25
170
     5
 62
     0
 63
     7
283
     0
274
    -2
284
     1
 64
     0
275
    -2
285
     1
 65
     0
276
    -2
286
     1
 66
     0
277
    -2
287
     1
 67
     0
278
    -2
288
     1
 68
     0
279
    -2
289
     1
 69
     0
  7
Standard
140
0.18
170
     5
 62
     0
 63
     7
283
     0
274
    -2
284
     1
 64
     0
275
    -2
285
     1
 65
     0
276
    -2
286
     1
 66
     0
277
    -2
287
     1
 67
     0
278
    -2
288
     1
 68
     0
279
    -2
289
     1
 69
     0
  0
VISUALSTYLE
  5
2F
102
{ACAD_XDICTIONARY
360
7C4
102
}
102
{ACAD_REACTORS
330
29
102
}
330
29
100
AcDbVisualStyle
  2

 70
     4
 71
     0
 72
     2
 73
     0
 90
        0
 40
-0.6
 41
-30.0
 62
     5
 63
     7
 74
     1
 91
        4
 64
     7
 65
   257
 75
     1
175
     1
 42
1.0
 92
        0
 66
   257
 43
1.0
 76
     1
 77
     6
 78
     2
 67
     7
 79
     5
170
     0
171
     0
290
     0
174
     0
 93
        1
 44
0.0
173
     0
291
     0
 45
0.0
1001
ACAD
1000
AcDbSavedByObjectVersion
1070
     0
  0
VISUALSTYLE
  5
2E
102
{ACAD_XDICTIONARY
360
7C2
102
}
102
{ACAD_REACTORS
330
29
102
}
330
29
100
AcDbVisualStyle
  2

 70
     7
 71
     1
 72
     0
 73
     1
 90
        0
 40
-0.6
 41
-30.0
 62
     5
 63
     7
 74
     0
 91
        4
 64
     7
 65
   257
 75
     1
175
     1
 42
1.0
 92
        8
 66
     7
 43
1.0
 76
     1
 77
     6
 78
     2
 67
     7
 79
     5
170
     0
171
     0
290
     0
174
     0
 93
        1
 44
0.0
173
     0
291
     1
 45
0.0
1001
ACAD
1000
AcDbSavedByObjectVersion
1070
     0
  0
VISUALSTYLE
  5
35
102
{ACAD_XDICTIONARY
360
7D0
102
}
102
{ACAD_REACTORS
330
29
102
}
330
29
100
AcDbVisualStyle
  2

 70
    12
 71
     2
 72
     2
 73
     0
 90
        0
 40
-0.6
 41
-30.0
 62
     5
 63
     7
 74
     1
 91
        4
 64
     7
 65
   257
 75
     1
175
     1
 42
1.0
 92
        8
 66
     7
 43
1.0
 76
     1
 77
     6
 78
     2
 67
     7
 79
     5
170
     0
171
     0
290
     0
174
     0
 93
        1
 44
50.0
173
     0
291
     1
 45
0.0
1001
ACAD
1000
AcDbSavedByObjectVersion
1070
     0
  0
VISUALSTYLE
  5
39
102
{ACAD_XDICTIONARY
360
7D8
102
}
102
{ACAD_REACTORS
330
29
102
}
330
29
100
AcDbVisualStyle
  2

 70
    16
 71
     2
 72
     2
 73
     3
 90
        0
 40
-0.6
 41
-30.0
 62
     5
 63
     8
 74
     1
 91
        4
 64
     7
 65
   257
 75
     1
175
     1
 42
1.0
 92
        8
 66
     8
 43
1.0
 76
     1
 77
     6
 78
     2
 67
     7
 79
     5
170
     0
171
     0
290
     0
174
     0
 93
        1
 44
0.0
173
     0
291
     1
 45
0.0
1001
ACAD
1000
AcDbSavedByObjectVersion
1070
     0
  0
VISUALSTYLE
  5
32
102
{ACAD_XDICTIONARY
360
7CA
102
}
102
{ACAD_REACTORS
330
29
102
}
330
29
100
AcDbVisualStyle
  2

 70
     9
 71
     3
 72
     2
 73
     0
 90
        0
 40
-0.6
 41
-30.0
 62
     5
 63
     7
 74
     2
 91
        2
 64
     7
 65
   257
 75
     1
175
     1
 42
179.0
 92
        8
 66
     7
 43
1.0
 76
     1
 77
     6
 78
     2
 67
     7
 79
     3
170
     0
171
     0
290
     0
174
     0
 93
        1
 44
0.0
173
     0
291
     0
 45
0.0
1001
ACAD
1000
AcDbSavedByObjectVersion
1070
     0
  0
VISUALSTYLE
  5
34
102
{ACAD_XDICTIONARY
360
7CE
102
}
102
{ACAD_REACTORS
330
29
102
}
330
29
100
AcDbVisualStyle
  2

 70
    11
 71
     2
 72
     2
 73
     0
 90
        0
 40
-0.6
 41
-30.0
 62
     5
 63
     7
 74
     1
 91
        4
 64
     7
 65
   257
 75
     1
175
     1
 42
1.0
 92
        8
 66
     7
 43
1.0
 76
     1
 77
     6
 78
     2
 67
     7
 79
     5
170
     0
171
     0
290
     0
174
     0
 93
        1
 44
-50.0
173
     0
291
     1
 45
0.0
1001
ACAD
1000
AcDbSavedByObjectVersion
1070
     0
  0
VISUALSTYLE
  5
41
102
{ACAD_XDICTIONARY
360
7E8
102
}
102
{ACAD_REACTORS
330
29
102
}
330
29
100
AcDbVisualStyle
  2

 70
    22
 71
     2
 72
     2
 73
     0
 90
        0
 40
-0.6
 41
-30.0
 62
     5
 63
     7
 74
     1
 91
        4
 64
     7
 65
   257
 75
     1
175
     1
 42
1.0
 92
        8
 66
     7
 43
1.0
 76
     1
 77
     6
 78
     2
 67
     7
 79
     5
170
     0
171
     0
290
     0
174
     0
 93
        1
 44
0.0
173
     0
291
     1
 45
0.0
1001
ACAD
1000
AcDbSavedByObjectVersion
1070
     0
  0
VISUALSTYLE
  5
38
102
{ACAD_XDICTIONARY
360
7D6
102
}
102
{ACAD_REACTORS
330
29
102
}
330
29
100
AcDbVisualStyle
  2

 70
    15
 71
     2
 72
     2
 73
     0
 90
        0
 40
-0.6
 41
-30.0
 62
     5
 63
     7
 74
     1
 91
        4
 64
     7
 65
   257
 75
     1
175
     1
 42
1.0
 92
        8
 66
     7
 43
1.0
 76
     1
 77
     6
 78
     2
 67
     7
 79
     5
170
     0
171
     0
290
     0
174
     0
 93
        1
 44
0.0
173
     0
291
     1
 45
0.0
1001
ACAD
1000
AcDbSavedByObjectVersion
1070
     0
  0
VISUALSTYLE
  5
2A
102
{ACAD_XDICTIONARY
360
7BA
102
}
102
{ACAD_REACTORS
330
29
102
}
330
29
100
AcDbVisualStyle
  2

 70
     0
 71
     2
 72
     1
 73
     1
 90
        2
 40
-0.6
 41
30.0
 62
     5
 63
     7
 74
     0
 91
        0
 64
     7
 65
   257
 75
     1
175
     1
 42
1.0
 92
        8
 66
     7
 43
1.0
 76
     1
 77
     6
 78
     2
 67
     7
 79
     5
170
     0
171
     0
290
     0
174
     0
 93
       13
 44
0.0
173
     0
291
     1
 45
0.0
1001
ACAD
1000
AcDbSavedByObjectVersion
1070
     0
  0
VISUALSTYLE
  5
2B
102
{ACAD_XDICTIONARY
360
7BC
102
}
102
{ACAD_REACTORS
330
29
102
}
330
29
100
AcDbVisualStyle
  2

 70
     1
 71
     2
 72
     1
 73
     1
 90
        2
 40
-0.6
 41
30.0
 62
     5
 63
     7
 74
     1
 91
        0
 64
     7
 65
   257
 75
     1
175
     1
 42
1.0
 92
        0
 66
   257
 43
1.0
 76
     1
 77
     6
 78
     2
 67
     7
 79
     5
170
     0
171
     0
290
     0
174
     0
 93
       13
 44
0.0
173
     0
291
     1
 45
0.0
1001
ACAD
1000
AcDbSavedByObjectVersion
1070
     0
  0
VISUALSTYLE
  5
2C
102
{ACAD_XDICTIONARY
360
7BE
102
}
102
{ACAD_REACTORS
330
29
102
}
330
29
100
AcDbVisualStyle
  2

 70
     2
 71
     2
 72
     2
 73
     1
 90
        2
 40
-0.6
 41
30.0
 62
     5
 63
     7
 74
     0
 91
        0
 64
     7
 65
   257
 75
     1
175
     1
 42
1.0
 92
        0
 66
     7
 43
1.0
 76
     1
 77
     6
 78
     2
 67
     7
 79
     5
170
     0
171
     0
290
     0
174
     0
 93
       13
 44
0.0
173
     0
291
     1
 45
0.0
1001
ACAD
1000
AcDbSavedByObjectVersion
1070
     0
  0
VISUALSTYLE
  5
2D
102
{ACAD_XDICTIONARY
360
7C0
102
}
102
{ACAD_REACTORS
330
29
102
}
330
29
100
AcDbVisualStyle
  2

 70
     3
 71
     2
 72
     2
 73
     1
 90
        2
 40
-0.6
 41
30.0
 62
     5
 63
     7
 74
     1
 91
        0
 64
     7
 65
   257
 75
     1
175
     1
 42
1.0
 92
        0
 66
   257
 43
1.0
 76
     1
 77
     6
 78
     2
 67
     7
 79
     5
170
     0
171
     0
290
     0
174
     0
 93
       13
 44
0.0
173
     0
291
     1
 45
0.0
1001
ACAD
1000
AcDbSavedByObjectVersion
1070
     0
  0
VISUALSTYLE
  5
31
102
{ACAD_XDICTIONARY
360
7C8
102
}
102
{ACAD_REACTORS
330
29
102
}
330
29
100
AcDbVisualStyle
  2

 70
     6
 71
     1
 72
     2
 73
     2
 90
        0
 40
-0.6
 41
-30.0
 62
     5
 63
     7
 74
     2
 91
        2
 64
     7
 65
   257
 75
     2
175
     1
 42
40.0
 92
        0
 66
   257
 43
1.0
 76
     1
 77
     6
 78
     2
 67
     7
 79
     3
170
     0
171
     0
290
     0
174
     0
 93
        1
 44
0.0
173
     0
291
     0
 45
0.0
1001
ACAD
1000
AcDbSavedByObjectVersion
1070
     0
  0
VISUALSTYLE
  5
3F
102
{ACAD_XDICTIONARY
360
7E4
102
}
102
{ACAD_REACTORS
330
29
102
}
330
29
100
AcDbVisualStyle
  2

 70
    20
 71
     2
 72
     2
 73
     0
 90
        0
 40
-0.6
 41
-30.0
 62
     5
 63
     7
 74
     1
 91
        4
 64
     7
 65
   257
 75
     1
175
     1
 42
1.0
 92
       10
 66
     7
 43
1.0
 76
     1
 77
     6
 78
     2
 67
     7
 79
     5
170
     0
171
     0
290
     0
174
     0
 93
        1
 44
0.0
173
     0
291
     1
 45
0.0
1001
ACAD
1000
AcDbSavedByObjectVersion
1070
     0
  0
VISUALSTYLE
  5
37
102
{ACAD_XDICTIONARY
360
7D4
102
}
102
{ACAD_REACTORS
330
29
102
}
330
29
100
AcDbVisualStyle
  2

 70
    14
 71
     2
 72
     2
 73
     0
 90
        0
 40
-0.6
 41
-30.0
 62
     5
 63
     7
 74
     1
 91
        4
 64
     7
 65
   257
 75
     7
175
     7
 42
1.0
 92
        8
 66
     7
 43
1.0
 76
     1
 77
     6
 78
     2
 67
     7
 79
     5
170
     0
171
     0
290
     0
174
     0
 93
        1
 44
0.0
173
     0
291
     1
 45
0.0
1001
ACAD
1000
AcDbSavedByObjectVersion
1070
     0
  0
VISUALSTYLE
  5
40
102
{ACAD_XDICTIONARY
360
7E6
102
}
102
{ACAD_REACTORS
330
29
102
}
330
29
100
AcDbVisualStyle
  2

 70
    21
 71
     2
 72
     2
 73
     0
 90
        0
 40
-0.6
 41
-30.0
 62
     5
 63
     7
 74
     1
 91
        4
 64
     7
 65
   257
 75
     1
175
     1
 42
1.0
 92
        9
 66
     7
 43
1.0
 76
     1
 77
     6
 78
     2
 67
     7
 79
     5
170
     0
171
     0
290
     0
174
     0
 93
        1
 44
0.0
173
     0
291
     1
 45
0.0
1001
ACAD
1000
AcDbSavedByObjectVersion
1070
     0
  0
VISUALSTYLE
  5
33
102
{ACAD_XDICTIONARY
360
7CC
102
}
102
{ACAD_REACTORS
330
29
102
}
330
29
100
AcDbVisualStyle
  2

 70
     8
 71
     2
 72
     3
 73
     0
 90
        2
 40
-0.6
 41
30.0
 62
     5
 63
     7
 74
     0
 91
        0
 64
     7
 65
   257
 75
     1
175
     1
 42
1.0
 92
        8
 66
   257
 43
1.0
 76
     1
 77
     6
 78
     2
 67
     7
 79
     3
170
     0
171
     0
290
     0
174
     0
 93
       13
 44
0.0
173
     0
291
     0
 45
0.0
1001
ACAD
1000
AcDbSavedByObjectVersion
1070
     0
  0
VISUALSTYLE
  5
3E
102
{ACAD_XDICTIONARY
360
7E2
102
}
102
{ACAD_REACTORS
330
29
102
}
330
29
100
AcDbVisualStyle
  2

 70
    27
 71
     2
 72
     2
 73
     1
 90
        2
 40
-0.6
 41
30.0
 62
     5
 63
     7
 74
     0
 91
        4
 64
     7
 65
   257
 75
     1
175
     1
 42
1.0
 92
        8
 66
   257
 43
1.0
 76
     1
 77
     6
 78
     2
 67
     8
 79
     3
170
     0
171
     0
290
     0
174
     0
 93
        5
 44
0.0
173
     0
291
     0
 45
0.0
1001
ACAD
1000
AcDbSavedByObjectVersion
1070
     0
  0
VISUALSTYLE
  5
3D
102
{ACAD_XDICTIONARY
360
7E0
102
}
102
{ACAD_REACTORS
330
29
102
}
330
29
100
AcDbVisualStyle
  2

 70
    26
 71
     2
 72
     2
 73
     1
 90
        2
 40
-0.6
 41
30.0
 62
     5
 63
     7
 74
     1
 91
       10
 64
     7
 65
   257
 75
     2
175
     1
 42
1.0
 92
        8
 66
   257
 43
1.0
 76
     1
 77
     6
 78
     2
 67
     7
 79
     3
170
     0
171
     0
290
     0
174
     0
 93
        5
 44
0.0
173
     0
291
     0
 45
0.0
1001
ACAD
1000
AcDbSavedByObjectVersion
1070
     0
  0
VISUALSTYLE
  5
3A
102
{ACAD_XDICTIONARY
360
7DA
102
}
102
{ACAD_REACTORS
330
29
102
}
330
29
100
AcDbVisualStyle
  2

 70
    23
 71
     2
 72
     2
 73
     3
 90
        0
 40
-0.6
 41
-30.0
 62
     5
 63
     7
 74
     2
 91
        2
 64
     7
 65
     7
 75
     1
175
     1
 42
40.0
 92
        8
 66
     7
 43
1.0
 76
     1
 77
     6
 78
     2
 67
     7
 79
     3
170
     0
171
     0
290
     0
174
     0
 93
        1
 44
0.0
173
     0
291
     0
 45
0.0
1001
ACAD
1000
AcDbSavedByObjectVersion
1070
     0
  0
VISUALSTYLE
  5
3B
102
{ACAD_XDICTIONARY
360
7DC
102
}
102
{ACAD_REACTORS
330
29
102
}
330
29
100
AcDbVisualStyle
  2

 70
    24
 71
     1
 72
     2
 73
     2
 90
        0
 40
-0.6
 41
-30.0
 62
     5
 63
     7
 74
     2
 91
        2
 64
     7
 65
     7
 75
     1
175
     1
 42
40.0
 92
       11
 66
     7
 43
1.0
 76
     1
 77
     6
 78
     2
 67
     7
 79
     6
170
     0
171
     0
290
     0
174
     0
 93
        1
 44
0.0
173
     0
291
     0
 45
0.0
1001
ACAD
1000
AcDbSavedByObjectVersion
1070
     0
  0
VISUALSTYLE
  5
36
102
{ACAD_XDICTIONARY
360
7D2
102
}
102
{ACAD_REACTORS
330
29
102
}
330
29
100
AcDbVisualStyle
  2

 70
    13
 71
     2
 72
     2
 73
     0
 90
        0
 40
-0.6
 41
-30.0
 62
     5
 63
     7
 74
     1
 91
        4
 64
     7
 65
   257
 75
     1
175
     1
 42
1.0
 92
       12
 66
     7
 43
1.0
 76
     1
 77
     6
 78
     2
 67
     7
 79
     5
170
     0
171
     0
290
     0
174
     0
 93
        1
 44
0.0
173
     0
291
     1
 45
0.0
1001
ACAD
1000
AcDbSavedByObjectVersion
1070
     0
  0
VISUALSTYLE
  5
30
102
{ACAD_XDICTIONARY
360
7C6
102
}
102
{ACAD_REACTORS
330
29
102
}
330
29
100
AcDbVisualStyle
  2

 70
     5
 71
     0
 72
     2
 73
     0
 90
        0
 40
-0.6
 41
-30.0
 62
     5
 63
     7
 74
     1
 91
        4
 64
     7
 65
   257
 75
     1
175
     1
 42
1.0
 92
        0
 66
   257
 43
1.0
 76
     1
 77
     6
 78
     2
 67
     7
 79
     3
170
     0
171
     0
290
     0
174
     0
 93
        1
 44
0.0
173
     0
291
     0
 45
0.0
1001
ACAD
1000
AcDbSavedByObjectVersion
1070
     0
  0
VISUALSTYLE
  5
3C
102
{ACAD_XDICTIONARY
360
7DE
102
}
102
{ACAD_REACTORS
330
29
102
}
330
29
100
AcDbVisualStyle
  2

 70
    25
 71
     2
 72
     2
 73
     1
 90
        1
 40
0.5
 41
-30.0
 62
     5
 63
     7
 74
     1
 91
        0
 64
     7
 65
   257
 75
     1
175
     1
 42
1.0
 92
        8
 66
     7
 43
1.0
 76
     1
 77
     6
 78
     2
 67
     7
 79
     3
170
     0
171
     0
290
     0
174
     0
 93
       13
 44
0.0
173
     0
291
     0
 45
0.0
1001
ACAD
1000
AcDbSavedByObjectVersion
1070
     0
  0
DICTIONARYVAR
  5
622
102
{ACAD_REACTORS
330
61D
102
}
330
61D
100
DictionaryVariables
280
     0
  1
1:1
  0
DICTIONARYVAR
  5
61F
102
{ACAD_REACTORS
330
61D
102
}
330
61D
100
DictionaryVariables
280
     0
  1
STANDARD
  0
DICTIONARYVAR
  5
61E
102
{ACAD_REACTORS
330
61D
102
}
330
61D
100
DictionaryVariables
280
     0
  1
STANDARD
  0
DICTIONARYVAR
  5
620
102
{ACAD_REACTORS
330
61D
102
}
330
61D
100
DictionaryVariables
280
     0
  1
Imperial24
  0
DICTIONARYVAR
  5
621
102
{ACAD_REACTORS
330
61D
102
}
330
61D
100
DictionaryVariables
280
     0
  1
Imperial24
  0
DICTIONARYVAR
  5
625
102
{ACAD_REACTORS
330
61D
102
}
330
61D
100
DictionaryVariables
280
     0
  1
1
  0
DICTIONARYVAR
  5
624
102
{ACAD_REACTORS
330
61D
102
}
330
61D
100
DictionaryVariables
280
     0
  1
0
  0
DICTIONARYVAR
  5
623
102
{ACAD_REACTORS
330
61D
102
}
330
61D
100
DictionaryVariables
280
     0
  1
127
  0
DICTIONARYVAR
  5
7B1
102
{ACAD_REACTORS
330
61D
102
}
330
61D
100
DictionaryVariables
280
     0
  1
2
  0
DICTIONARY
  5
1C1
102
{ACAD_REACTORS
330
1BA
102
}
330
1BA
100
AcDbDictionary
281
     1
  0
DICTIONARY
  5
7ED
330
73
100
AcDbDictionary
280
     1
281
     1
  3
ACAD_XREC_ROUNDTRIP
360
7EE
  0
DICTIONARY
  5
7EB
330
6F
100
AcDbDictionary
280
     1
281
     1
  3
ACAD_XREC_ROUNDTRIP
360
7EC
  0
DICTIONARY
  5
1A
330
19
100
AcDbDictionary
280
     1
281
     1
  3
ACAD_XREC_ROUNDTRIP
360
62C
  3
BUMPTILE
360
1C
  3
DIFFUSETILE
360
1B
  3
OPACITYTILE
360
1F
  3
REFLECTIONTILE
360
1E
  3
REFRACTIONTILE
360
20
  3
SPECULARTILE
360
1D
  0
DICTIONARY
  5
12
330
11
100
AcDbDictionary
280
     1
281
     1
  3
ACAD_XREC_ROUNDTRIP
360
62B
  3
BUMPTILE
360
14
  3
DIFFUSETILE
360
13
  3
OPACITYTILE
360
17
  3
REFLECTIONTILE
360
16
  3
REFRACTIONTILE
360
18
  3
SPECULARTILE
360
15
  0
DICTIONARY
  5
22
330
21
100
AcDbDictionary
280
     1
281
     1
  3
ACAD_XREC_ROUNDTRIP
360
62D
  3
BUMPTILE
360
24
  3
DIFFUSETILE
360
23
  3
OPACITYTILE
360
27
  3
REFLECTIONTILE
360
26
  3
REFRACTIONTILE
360
28
  3
SPECULARTILE
360
25
  0
DICTIONARY
  5
627
330
64
100
AcDbDictionary
280
     1
281
     1
  3
ACAD_ROUNDTRIP_2008_TABLESTYLE_CELLSTYLEMAP
360
7B2
  3
ACAD_XREC_ROUNDTRIP
360
7EA
  0
DICTIONARY
  5
7C4
330
2F
100
AcDbDictionary
280
     1
281
     1
  3
ACAD_XREC_ROUNDTRIP
360
7C5
  0
DICTIONARY
  5
7C2
330
2E
100
AcDbDictionary
280
     1
281
     1
  3
ACAD_XREC_ROUNDTRIP
360
7C3
  0
DICTIONARY
  5
7D0
330
35
100
AcDbDictionary
280
     1
281
     1
  3
ACAD_XREC_ROUNDTRIP
360
7D1
  0
DICTIONARY
  5
7D8
330
39
100
AcDbDictionary
280
     1
281
     1
  3
ACAD_XREC_ROUNDTRIP
360
7D9
  0
DICTIONARY
  5
7CA
330
32
100
AcDbDictionary
280
     1
281
     1
  3
ACAD_XREC_ROUNDTRIP
360
7CB
  0
DICTIONARY
  5
7CE
330
34
100
AcDbDictionary
280
     1
281
     1
  3
ACAD_XREC_ROUNDTRIP
360
7CF
  0
DICTIONARY
  5
7E8
330
41
100
AcDbDictionary
280
     1
281
     1
  3
ACAD_XREC_ROUNDTRIP
360
7E9
  0
DICTIONARY
  5
7D6
330
38
100
AcDbDictionary
280
     1
281
     1
  3
ACAD_XREC_ROUNDTRIP
360
7D7
  0
DICTIONARY
  5
7BA
330
2A
100
AcDbDictionary
280
     1
281
     1
  3
ACAD_XREC_ROUNDTRIP
360
7BB
  0
DICTIONARY
  5
7BC
330
2B
100
AcDbDictionary
280
     1
281
     1
  3
ACAD_XREC_ROUNDTRIP
360
7BD
  0
DICTIONARY
  5
7BE
330
2C
100
AcDbDictionary
280
     1
281
     1
  3
ACAD_XREC_ROUNDTRIP
360
7BF
  0
DICTIONARY
  5
7C0
330
2D
100
AcDbDictionary
280
     1
281
     1
  3
ACAD_XREC_ROUNDTRIP
360
7C1
  0
DICTIONARY
  5
7C8
330
31
100
AcDbDictionary
280
     1
281
     1
  3
ACAD_XREC_ROUNDTRIP
360
7C9
  0
DICTIONARY
  5
7E4
330
3F
100
AcDbDictionary
280
     1
281
     1
  3
ACAD_XREC_ROUNDTRIP
360
7E5
  0
DICTIONARY
  5
7D4
330
37
100
AcDbDictionary
280
     1
281
     1
  3
ACAD_XREC_ROUNDTRIP
360
7D5
  0
DICTIONARY
  5
7E6
330
40
100
AcDbDictionary
280
     1
281
     1
  3
ACAD_XREC_ROUNDTRIP
360
7E7
  0
DICTIONARY
  5
7CC
330
33
100
AcDbDictionary
280
     1
281
     1
  3
ACAD_XREC_ROUNDTRIP
360
7CD
  0
DICTIONARY
  5
7E2
330
3E
100
AcDbDictionary
280
     1
281
     1
  3
ACAD_XREC_ROUNDTRIP
360
7E3
  0
DICTIONARY
  5
7E0
330
3D
100
AcDbDictionary
280
     1
281
     1
  3
ACAD_XREC_ROUNDTRIP
360
7E1
  0
DICTIONARY
  5
7DA
330
3A
100
AcDbDictionary
280
     1
281
     1
  3
ACAD_XREC_ROUNDTRIP
360
7DB
  0
DICTIONARY
  5
7DC
330
3B
100
AcDbDictionary
280
     1
281
     1
  3
ACAD_XREC_ROUNDTRIP
360
7DD
  0
DICTIONARY
  5
7D2
330
36
100
AcDbDictionary
280
     1
281
     1
  3
ACAD_XREC_ROUNDTRIP
360
7D3
  0
DICTIONARY
  5
7C6
330
30
100
AcDbDictionary
280
     1
281
     1
  3
ACAD_XREC_ROUNDTRIP
360
7C7
  0
DICTIONARY
  5
7DE
330
3C
100
AcDbDictionary
280
     1
281
     1
  3
ACAD_XREC_ROUNDTRIP
360
7DF
  0
XRECORD
  5
7EE
102
{ACAD_REACTORS
330
7ED
102
}
330
7ED
100
AcDbXrecord
280
     1
102
SHADEPLOT
 70
     0
102
SHADEPLOTRESLEVEL
 70
     2
102
SHADEPLOTCUSTOMDPI
 70
   300
  0
XRECORD
  5
7EC
102
{ACAD_REACTORS
330
7EB
102
}
330
7EB
100
AcDbXrecord
280
     1
102
SHADEPLOT
 70
     0
102
SHADEPLOTRESLEVEL
 70
     2
102
SHADEPLOTCUSTOMDPI
 70
   300
  0
XRECORD
  5
62C
102
{ACAD_REACTORS
330
1A
102
}
330
1A
100
AcDbXrecord
280
     1
102
MATERIAL
148
0.0
149
0.0
149
0.0
 93
        0
 94
      127
282
     0
 72
     0
 77
     0
171
     0
175
     0
179
     0
273
     0
  0
XRECORD
  5
1C
102
{ACAD_REACTORS
330
1A
102
}
330
1A
100
AcDbXrecord
280
     1
270
     1
271
     1
  0
XRECORD
  5
1B
102
{ACAD_REACTORS
330
1A
102
}
330
1A
100
AcDbXrecord
280
     1
270
     1
271
     1
  0
XRECORD
  5
1F
102
{ACAD_REACTORS
330
1A
102
}
330
1A
100
AcDbXrecord
280
     1
270
     1
271
     1
  0
XRECORD
  5
1E
102
{ACAD_REACTORS
330
1A
102
}
330
1A
100
AcDbXrecord
280
     1
270
     1
271
     1
  0
XRECORD
  5
20
102
{ACAD_REACTORS
330
1A
102
}
330
1A
100
AcDbXrecord
280
     1
270
     1
271
     1
  0
XRECORD
  5
1D
102
{ACAD_REACTORS
330
1A
102
}
330
1A
100
AcDbXrecord
280
     1
270
     1
271
     1
  0
XRECORD
  5
62B
102
{ACAD_REACTORS
330
12
102
}
330
12
100
AcDbXrecord
280
     1
102
MATERIAL
148
0.0
149
0.0
149
0.0
 93
        0
 94
      127
282
     0
 72
     0
 77
     0
171
     0
175
     0
179
     0
273
     0
  0
XRECORD
  5
14
102
{ACAD_REACTORS
330
12
102
}
330
12
100
AcDbXrecord
280
     1
270
     1
271
     1
  0
XRECORD
  5
13
102
{ACAD_REACTORS
330
12
102
}
330
12
100
AcDbXrecord
280
     1
270
     1
271
     1
  0
XRECORD
  5
17
102
{ACAD_REACTORS
330
12
102
}
330
12
100
AcDbXrecord
280
     1
270
     1
271
     1
  0
XRECORD
  5
16
102
{ACAD_REACTORS
330
12
102
}
330
12
100
AcDbXrecord
280
     1
270
     1
271
     1
  0
XRECORD
  5
18
102
{ACAD_REACTORS
330
12
102
}
330
12
100
AcDbXrecord
280
     1
270
     1
271
     1
  0
XRECORD
  5
15
102
{ACAD_REACTORS
330
12
102
}
330
12
100
AcDbXrecord
280
     1
270
     1
271
     1
  0
XRECORD
  5
62D
102
{ACAD_REACTORS
330
22
102
}
330
22
100
AcDbXrecord
280
     1
102
MATERIAL
148
0.0
149
0.0
149
0.0
 93
        0
 94
      127
282
     0
 72
     0
 77
     0
171
     0
175
     0
179
     0
273
     0
  0
XRECORD
  5
24
102
{ACAD_REACTORS
330
22
102
}
330
22
100
AcDbXrecord
280
     1
270
     1
271
     1
  0
XRECORD
  5
23
102
{ACAD_REACTORS
330
22
102
}
330
22
100
AcDbXrecord
280
     1
270
     1
271
     1
  0
XRECORD
  5
27
102
{ACAD_REACTORS
330
22
102
}
330
22
100
AcDbXrecord
280
     1
270
     1
271
     1
  0
XRECORD
  5
26
102
{ACAD_REACTORS
330
22
102
}
330
22
100
AcDbXrecord
280
     1
270
     1
271
     1
  0
XRECORD
  5
28
102
{ACAD_REACTORS
330
22
102
}
330
22
100
AcDbXrecord
280
     1
270
     1
271
     1
  0
XRECORD
  5
25
102
{ACAD_REACTORS
330
22
102
}
330
22
100
AcDbXrecord
280
     1
270
     1
271
     1
  0
CELLSTYLEMAP
  5
7B2
102
{ACAD_REACTORS
330
627
102
}
330
627
100
AcDbCellStyleMap
 90
        3
300
CELLSTYLE
  1
TABLEFORMAT_BEGIN
 90
        5
170
     1
 91
        0
 92
    32768
 62
   257
 93
        1
300
CONTENTFORMAT
  1
CONTENTFORMAT_BEGIN
 90
        0
 91
        0
 92
      512
 93
        0
300

 40
0.0
140
1.0
 94
        5
 62
     0
340
55
144
0.25
309
CONTENTFORMAT_END
171
     1
301
MARGIN
  1
CELLMARGIN_BEGIN
 40
0.06
 40
0.06
 40
0.06
 40
0.06
 40
0.18
 40
0.18
309
CELLMARGIN_END
 94
        6
 95
        1
302
GRIDFORMAT
  1
GRIDFORMAT_BEGIN
 90
        0
 91
        1
 62
     0
 92
       -2
340
0
 93
        0
 40
0.045
309
GRIDFORMAT_END
 95
        2
302
GRIDFORMAT
  1
GRIDFORMAT_BEGIN
 90
        0
 91
        1
 62
     0
 92
       -2
340
0
 93
        0
 40
0.045
309
GRIDFORMAT_END
 95
        4
302
GRIDFORMAT
  1
GRIDFORMAT_BEGIN
 90
        0
 91
        1
 62
     0
 92
       -2
340
0
 93
        0
 40
0.045
309
GRIDFORMAT_END
 95
        8
302
GRIDFORMAT
  1
GRIDFORMAT_BEGIN
 90
        0
 91
        1
 62
     0
 92
       -2
340
0
 93
        0
 40
0.045
309
GRIDFORMAT_END
 95
       16
302
GRIDFORMAT
  1
GRIDFORMAT_BEGIN
 90
        0
 91
        1
 62
     0
 92
       -2
340
0
 93
        0
 40
0.045
309
GRIDFORMAT_END
 95
       32
302
GRIDFORMAT
  1
GRIDFORMAT_BEGIN
 90
        0
 91
        1
 62
     0
 92
       -2
340
0
 93
        0
 40
0.045
309
GRIDFORMAT_END
309
TABLEFORMAT_END
  1
CELLSTYLE_BEGIN
 90
        1
 91
        1
300
_TITLE
309
CELLSTYLE_END
300
CELLSTYLE
  1
TABLEFORMAT_BEGIN
 90
        5
170
     1
 91
        0
 92
        0
 62
   257
 93
        1
300
CONTENTFORMAT
  1
CONTENTFORMAT_BEGIN
 90
        0
 91
        0
 92
      512
 93
        0
300

 40
0.0
140
1.0
 94
        5
 62
     0
340
55
144
0.18
309
CONTENTFORMAT_END
171
     1
301
MARGIN
  1
CELLMARGIN_BEGIN
 40
0.06
 40
0.06
 40
0.06
 40
0.06
 40
0.18
 40
0.18
309
CELLMARGIN_END
 94
        6
 95
        1
302
GRIDFORMAT
  1
GRIDFORMAT_BEGIN
 90
        0
 91
        1
 62
     0
 92
       -2
340
0
 93
        0
 40
0.045
309
GRIDFORMAT_END
 95
        2
302
GRIDFORMAT
  1
GRIDFORMAT_BEGIN
 90
        0
 91
        1
 62
     0
 92
       -2
340
0
 93
        0
 40
0.045
309
GRIDFORMAT_END
 95
        4
302
GRIDFORMAT
  1
GRIDFORMAT_BEGIN
 90
        0
 91
        1
 62
     0
 92
       -2
340
0
 93
        0
 40
0.045
309
GRIDFORMAT_END
 95
        8
302
GRIDFORMAT
  1
GRIDFORMAT_BEGIN
 90
        0
 91
        1
 62
     0
 92
       -2
340
0
 93
        0
 40
0.045
309
GRIDFORMAT_END
 95
       16
302
GRIDFORMAT
  1
GRIDFORMAT_BEGIN
 90
        0
 91
        1
 62
     0
 92
       -2
340
0
 93
        0
 40
0.045
309
GRIDFORMAT_END
 95
       32
302
GRIDFORMAT
  1
GRIDFORMAT_BEGIN
 90
        0
 91
        1
 62
     0
 92
       -2
340
0
 93
        0
 40
0.045
309
GRIDFORMAT_END
309
TABLEFORMAT_END
  1
CELLSTYLE_BEGIN
 90
        2
 91
        1
300
_HEADER
309
CELLSTYLE_END
300
CELLSTYLE
  1
TABLEFORMAT_BEGIN
 90
        5
170
     1
 91
        0
 92
        0
 62
   257
 93
        1
300
CONTENTFORMAT
  1
CONTENTFORMAT_BEGIN
 90
        0
 91
        0
 92
      512
 93
        0
300

 40
0.0
140
1.0
 94
        2
 62
     0
340
55
144
0.18
309
CONTENTFORMAT_END
171
     1
301
MARGIN
  1
CELLMARGIN_BEGIN
 40
0.06
 40
0.06
 40
0.06
 40
0.06
 40
0.18
 40
0.18
309
CELLMARGIN_END
 94
        6
 95
        1
302
GRIDFORMAT
  1
GRIDFORMAT_BEGIN
 90
        0
 91
        1
 62
     0
 92
       -2
340
0
 93
        0
 40
0.045
309
GRIDFORMAT_END
 95
        2
302
GRIDFORMAT
  1
GRIDFORMAT_BEGIN
 90
        0
 91
        1
 62
     0
 92
       -2
340
0
 93
        0
 40
0.045
309
GRIDFORMAT_END
 95
        4
302
GRIDFORMAT
  1
GRIDFORMAT_BEGIN
 90
        0
 91
        1
 62
     0
 92
       -2
340
0
 93
        0
 40
0.045
309
GRIDFORMAT_END
 95
        8
302
GRIDFORMAT
  1
GRIDFORMAT_BEGIN
 90
        0
 91
        1
 62
     0
 92
       -2
340
0
 93
        0
 40
0.045
309
GRIDFORMAT_END
 95
       16
302
GRIDFORMAT
  1
GRIDFORMAT_BEGIN
 90
        0
 91
        1
 62
     0
 92
       -2
340
0
 93
        0
 40
0.045
309
GRIDFORMAT_END
 95
       32
302
GRIDFORMAT
  1
GRIDFORMAT_BEGIN
 90
        0
 91
        1
 62
     0
 92
       -2
340
0
 93
        0
 40
0.045
309
GRIDFORMAT_END
309
TABLEFORMAT_END
  1
CELLSTYLE_BEGIN
 90
        3
 91
        2
300
_DATA
309
CELLSTYLE_END
  0
XRECORD
  5
7EA
102
{ACAD_REACTORS
330
627
102
}
330
627
100
AcDbXrecord
280
     1
102
ACAD_ROUNDTRIP_PRE2007_TABLESTYLE
 90
      512
 91
        0
  1

 92
      512
 93
        0
  2

 94
      512
 95
        0
  3

  0
XRECORD
  5
7C5
102
{ACAD_REACTORS
330
7C4
102
}
330
7C4
100
AcDbXrecord
280
     1
102
RTVSPost2010Prop28
280
     1
102
RTVSPost2010PropOp28
 70
     1
102
RTVSPost2010Prop29
280
     1
102
RTVSPost2010PropOp29
 70
     1
102
RTVSPost2010Prop30
280
     0
102
RTVSPost2010PropOp30
 70
     1
102
RTVSPost2010Prop31
280
     0
102
RTVSPost2010PropOp31
 70
     1
102
RTVSPost2010Prop32
280
     0
102
RTVSPost2010PropOp32
 70
     1
102
RTVSPost2010Prop33
280
     0
102
RTVSPost2010PropOp33
 70
     1
102
RTVSPost2010Prop34
280
     0
102
RTVSPost2010PropOp34
 70
     1
102
RTVSPost2010Prop35
280
     0
102
RTVSPost2010PropOp35
 70
     1
102
RTVSPost2010Prop36
280
     0
102
RTVSPost2010PropOp36
 70
     1
102
RTVSPost2010Prop37
 90
       50
102
RTVSPost2010PropOp37
 70
     1
102
RTVSPost2010Prop38
140
0.0
102
RTVSPost2010PropOp38
 70
     1
102
RTVSPost2010Prop39
140
1.0
102
RTVSPost2010PropOp39
 70
     1
102
RTVSPost2010Prop40
 90
        0
102
RTVSPost2010PropOp40
 70
     1
102
RTVSPost2010Prop41ColorIndex
 90
       18
102
RTVSPost2010Prop41ColorRGB
 90
        0
102
RTVSPost2010PropOp41
 70
     1
102
RTVSPost2010Prop42
 90
       50
102
RTVSPost2010PropOp42
 70
     1
102
RTVSPost2010Prop43
 90
        3
102
RTVSPost2010PropOp43
 70
     1
102
RTVSPost2010Prop44ColorIndex
 90
        5
102
RTVSPost2010Prop44ColorRGB
 90
      255
102
RTVSPost2010PropOp44
 70
     1
102
RTVSPost2010Prop45
280
     0
102
RTVSPost2010PropOp45
 70
     1
102
RTVSPost2010Prop46
 90
       50
102
RTVSPost2010PropOp46
 70
     1
102
RTVSPost2010Prop47
 90
       50
102
RTVSPost2010PropOp47
 70
     1
102
RTVSPost2010Prop48
 90
       50
102
RTVSPost2010PropOp48
 70
     1
102
RTVSPost2010Prop49
280
     0
102
RTVSPost2010PropOp49
 70
     1
102
RTVSPost2010Prop50
 90
       50
102
RTVSPost2010PropOp50
 70
     1
102
RTVSPost2010Prop51ColorIndex
 90
      256
102
RTVSPost2010Prop51ColorRGB
 90
-16777216
102
RTVSPost2010PropOp51
 70
     0
102
RTVSPost2010Prop52
140
1.0
102
RTVSPost2010PropOp52
 70
     0
102
RTVSPost2010Prop53
 90
        2
102
RTVSPost2010PropOp53
 70
     1
102
RTVSPost2010Prop54
  1
strokes_ogs.tif
102
RTVSPost2010PropOp54
 70
     1
102
RTVSPost2010Prop55
280
     0
102
RTVSPost2010PropOp55
 70
     1
102
RTVSPost2010Prop56
140
1.0
102
RTVSPost2010PropOp56
 70
     1
102
RTVSPost2010Prop57
140
1.0
102
RTVSPost2010PropOp57
 70
     1
102
RTVSPropertyOp0
 70
     1
102
RTVSPropertyOp1
 70
     1
102
RTVSPropertyOp2
 70
     1
102
RTVSPropertyOp3
 70
     1
102
RTVSPropertyOp4
 70
     1
102
RTVSPropertyOp5
 70
     1
102
RTVSPropertyOp6
 70
     1
102
RTVSPropertyOp7
 70
     1
102
RTVSPropertyOp8
 70
     1
102
RTVSPropertyOp9
 70
     1
102
RTVSPropertyOp10
 70
     1
102
RTVSPropertyOp11
 70
     1
102
RTVSPropertyOp12
 70
     1
102
RTVSPropertyOp13
 70
     1
102
RTVSPropertyOp14
 70
     1
102
RTVSPropertyOp15
 70
     1
102
RTVSPropertyOp16
 70
     1
102
RTVSPropertyOp17
 70
     1
102
RTVSPropertyOp18
 70
     1
102
RTVSPropertyOp19
 70
     1
102
RTVSPropertyOp20
 70
     1
102
RTVSPropertyOp21
 70
     1
102
RTVSPropertyOp22
 70
     1
102
RTVSPropertyOp23
 70
     1
102
RTVSPropertyOp24
 70
     1
102
RTVSPropertyOp25
 70
     1
102
RTVSPropertyOp26
 70
     1
102
RTVSPropertyOp27
 70
     1
102
RTVSPropertyOp28
 70
     1
102
RTVSPropertyOp29
 70
     1
102
RTVSPropertyOp30
 70
     1
102
RTVSPropertyOp31
 70
     1
102
RTVSPropertyOp32
 70
     1
102
RTVSPropertyOp33
 70
     1
102
RTVSPropertyOp34
 70
     1
102
RTVSPropertyOp35
 70
     1
102
RTVSPropertyOp36
 70
     1
102
RTVSPropertyOp37
 70
     1
102
RTVSPropertyOp38
 70
     1
102
RTVSPropertyOp39
 70
     1
102
RTVSPropertyOp40
 70
     1
102
RTVSPropertyOp41
 70
     1
102
RTVSPropertyOp42
 70
     1
102
RTVSPropertyOp43
 70
     1
102
RTVSPropertyOp44
 70
     1
102
RTVSPropertyOp45
 70
     1
102
RTVSPropertyOp46
 70
     1
102
RTVSPropertyOp47
 70
     1
102
RTVSPropertyOp48
 70
     1
102
RTVSPropertyOp49
 70
     1
102
RTVSPropertyOp50
 70
     1
102
RTVSPropertyOp51
 70
     0
102
RTVSPropertyOp52
 70
     0
102
RTVSPropertyOp53
 70
     1
102
RTVSPropertyOp54
 70
     1
102
RTVSPropertyOp55
 70
     1
102
RTVSPropertyOp56
 70
     1
102
RTVSPropertyOp57
 70
     1
102
RTVSPropertyOp58
 70
     1
102
RTVSPropertyOp59
 70
     1
102
RTVSPropertyOp60
 70
     1
102
RTVSPropertyOp61
 70
     1
102
RTVSPropertyOp62
 70
     1
  0
XRECORD
  5
7C3
102
{ACAD_REACTORS
330
7C2
102
}
330
7C2
100
AcDbXrecord
280
     1
102
RTVSPost2010Prop28
280
     0
102
RTVSPost2010PropOp28
 70
     1
102
RTVSPost2010Prop29
280
     1
102
RTVSPost2010PropOp29
 70
     1
102
RTVSPost2010Prop30
280
     1
102
RTVSPost2010PropOp30
 70
     1
102
RTVSPost2010Prop31
280
     0
102
RTVSPost2010PropOp31
 70
     1
102
RTVSPost2010Prop32
280
     0
102
RTVSPost2010PropOp32
 70
     1
102
RTVSPost2010Prop33
280
     0
102
RTVSPost2010PropOp33
 70
     1
102
RTVSPost2010Prop34
280
     0
102
RTVSPost2010PropOp34
 70
     1
102
RTVSPost2010Prop35
280
     0
102
RTVSPost2010PropOp35
 70
     1
102
RTVSPost2010Prop36
280
     0
102
RTVSPost2010PropOp36
 70
     1
102
RTVSPost2010Prop37
 90
       50
102
RTVSPost2010PropOp37
 70
     1
102
RTVSPost2010Prop38
140
0.0
102
RTVSPost2010PropOp38
 70
     1
102
RTVSPost2010Prop39
140
1.0
102
RTVSPost2010PropOp39
 70
     1
102
RTVSPost2010Prop40
 90
        0
102
RTVSPost2010PropOp40
 70
     1
102
RTVSPost2010Prop41ColorIndex
 90
       18
102
RTVSPost2010Prop41ColorRGB
 90
        0
102
RTVSPost2010PropOp41
 70
     1
102
RTVSPost2010Prop42
 90
       50
102
RTVSPost2010PropOp42
 70
     1
102
RTVSPost2010Prop43
 90
        3
102
RTVSPost2010PropOp43
 70
     1
102
RTVSPost2010Prop44ColorIndex
 90
        5
102
RTVSPost2010Prop44ColorRGB
 90
      255
102
RTVSPost2010PropOp44
 70
     1
102
RTVSPost2010Prop45
280
     0
102
RTVSPost2010PropOp45
 70
     1
102
RTVSPost2010Prop46
 90
       50
102
RTVSPost2010PropOp46
 70
     1
102
RTVSPost2010Prop47
 90
       50
102
RTVSPost2010PropOp47
 70
     1
102
RTVSPost2010Prop48
 90
       50
102
RTVSPost2010PropOp48
 70
     1
102
RTVSPost2010Prop49
280
     0
102
RTVSPost2010PropOp49
 70
     1
102
RTVSPost2010Prop50
 90
       50
102
RTVSPost2010PropOp50
 70
     1
102
RTVSPost2010Prop51ColorIndex
 90
      256
102
RTVSPost2010Prop51ColorRGB
 90
-16777216
102
RTVSPost2010PropOp51
 70
     0
102
RTVSPost2010Prop52
140
1.0
102
RTVSPost2010PropOp52
 70
     0
102
RTVSPost2010Prop53
 90
        2
102
RTVSPost2010PropOp53
 70
     1
102
RTVSPost2010Prop54
  1
strokes_ogs.tif
102
RTVSPost2010PropOp54
 70
     1
102
RTVSPost2010Prop55
280
     0
102
RTVSPost2010PropOp55
 70
     1
102
RTVSPost2010Prop56
140
1.0
102
RTVSPost2010PropOp56
 70
     1
102
RTVSPost2010Prop57
140
1.0
102
RTVSPost2010PropOp57
 70
     1
102
RTVSPropertyOp0
 70
     1
102
RTVSPropertyOp1
 70
     1
102
RTVSPropertyOp2
 70
     1
102
RTVSPropertyOp3
 70
     1
102
RTVSPropertyOp4
 70
     1
102
RTVSPropertyOp5
 70
     1
102
RTVSPropertyOp6
 70
     1
102
RTVSPropertyOp7
 70
     1
102
RTVSPropertyOp8
 70
     1
102
RTVSPropertyOp9
 70
     1
102
RTVSPropertyOp10
 70
     1
102
RTVSPropertyOp11
 70
     1
102
RTVSPropertyOp12
 70
     1
102
RTVSPropertyOp13
 70
     1
102
RTVSPropertyOp14
 70
     1
102
RTVSPropertyOp15
 70
     1
102
RTVSPropertyOp16
 70
     1
102
RTVSPropertyOp17
 70
     1
102
RTVSPropertyOp18
 70
     1
102
RTVSPropertyOp19
 70
     1
102
RTVSPropertyOp20
 70
     1
102
RTVSPropertyOp21
 70
     1
102
RTVSPropertyOp22
 70
     1
102
RTVSPropertyOp23
 70
     1
102
RTVSPropertyOp24
 70
     1
102
RTVSPropertyOp25
 70
     1
102
RTVSPropertyOp26
 70
     1
102
RTVSPropertyOp27
 70
     1
102
RTVSPropertyOp28
 70
     1
102
RTVSPropertyOp29
 70
     1
102
RTVSPropertyOp30
 70
     1
102
RTVSPropertyOp31
 70
     1
102
RTVSPropertyOp32
 70
     1
102
RTVSPropertyOp33
 70
     1
102
RTVSPropertyOp34
 70
     1
102
RTVSPropertyOp35
 70
     1
102
RTVSPropertyOp36
 70
     1
102
RTVSPropertyOp37
 70
     1
102
RTVSPropertyOp38
 70
     1
102
RTVSPropertyOp39
 70
     1
102
RTVSPropertyOp40
 70
     1
102
RTVSPropertyOp41
 70
     1
102
RTVSPropertyOp42
 70
     1
102
RTVSPropertyOp43
 70
     1
102
RTVSPropertyOp44
 70
     1
102
RTVSPropertyOp45
 70
     1
102
RTVSPropertyOp46
 70
     1
102
RTVSPropertyOp47
 70
     1
102
RTVSPropertyOp48
 70
     1
102
RTVSPropertyOp49
 70
     1
102
RTVSPropertyOp50
 70
     1
102
RTVSPropertyOp51
 70
     0
102
RTVSPropertyOp52
 70
     0
102
RTVSPropertyOp53
 70
     1
102
RTVSPropertyOp54
 70
     1
102
RTVSPropertyOp55
 70
     1
102
RTVSPropertyOp56
 70
     1
102
RTVSPropertyOp57
 70
     1
102
RTVSPropertyOp58
 70
     1
102
RTVSPropertyOp59
 70
     1
102
RTVSPropertyOp60
 70
     1
102
RTVSPropertyOp61
 70
     1
102
RTVSPropertyOp62
 70
     1
  0
XRECORD
  5
7D1
102
{ACAD_REACTORS
330
7D0
102
}
330
7D0
100
AcDbXrecord
280
     1
102
RTVSPost2010Prop28
280
     0
102
RTVSPost2010PropOp28
 70
     1
102
RTVSPost2010Prop29
280
     1
102
RTVSPost2010PropOp29
 70
     1
102
RTVSPost2010Prop30
280
     1
102
RTVSPost2010PropOp30
 70
     1
102
RTVSPost2010Prop31
280
     0
102
RTVSPost2010PropOp31
 70
     1
102
RTVSPost2010Prop32
280
     0
102
RTVSPost2010PropOp32
 70
     1
102
RTVSPost2010Prop33
280
     0
102
RTVSPost2010PropOp33
 70
     1
102
RTVSPost2010Prop34
280
     0
102
RTVSPost2010PropOp34
 70
     1
102
RTVSPost2010Prop35
280
     0
102
RTVSPost2010PropOp35
 70
     1
102
RTVSPost2010Prop36
280
     0
102
RTVSPost2010PropOp36
 70
     1
102
RTVSPost2010Prop37
 90
       50
102
RTVSPost2010PropOp37
 70
     1
102
RTVSPost2010Prop38
140
0.0
102
RTVSPost2010PropOp38
 70
     1
102
RTVSPost2010Prop39
140
1.0
102
RTVSPost2010PropOp39
 70
     1
102
RTVSPost2010Prop40
 90
        0
102
RTVSPost2010PropOp40
 70
     1
102
RTVSPost2010Prop41ColorIndex
 90
       18
102
RTVSPost2010Prop41ColorRGB
 90
        0
102
RTVSPost2010PropOp41
 70
     1
102
RTVSPost2010Prop42
 90
       50
102
RTVSPost2010PropOp42
 70
     1
102
RTVSPost2010Prop43
 90
        3
102
RTVSPost2010PropOp43
 70
     1
102
RTVSPost2010Prop44ColorIndex
 90
        5
102
RTVSPost2010Prop44ColorRGB
 90
      255
102
RTVSPost2010PropOp44
 70
     1
102
RTVSPost2010Prop45
280
     0
102
RTVSPost2010PropOp45
 70
     1
102
RTVSPost2010Prop46
 90
       50
102
RTVSPost2010PropOp46
 70
     1
102
RTVSPost2010Prop47
 90
       50
102
RTVSPost2010PropOp47
 70
     1
102
RTVSPost2010Prop48
 90
       50
102
RTVSPost2010PropOp48
 70
     1
102
RTVSPost2010Prop49
280
     0
102
RTVSPost2010PropOp49
 70
     1
102
RTVSPost2010Prop50
 90
       50
102
RTVSPost2010PropOp50
 70
     1
102
RTVSPost2010Prop51ColorIndex
 90
      256
102
RTVSPost2010Prop51ColorRGB
 90
-16777216
102
RTVSPost2010PropOp51
 70
     0
102
RTVSPost2010Prop52
140
1.0
102
RTVSPost2010PropOp52
 70
     0
102
RTVSPost2010Prop53
 90
        2
102
RTVSPost2010PropOp53
 70
     1
102
RTVSPost2010Prop54
  1
strokes_ogs.tif
102
RTVSPost2010PropOp54
 70
     1
102
RTVSPost2010Prop55
280
     0
102
RTVSPost2010PropOp55
 70
     1
102
RTVSPost2010Prop56
140
1.0
102
RTVSPost2010PropOp56
 70
     1
102
RTVSPost2010Prop57
140
1.0
102
RTVSPost2010PropOp57
 70
     1
102
RTVSPropertyOp0
 70
     1
102
RTVSPropertyOp1
 70
     1
102
RTVSPropertyOp2
 70
     1
102
RTVSPropertyOp3
 70
     1
102
RTVSPropertyOp4
 70
     1
102
RTVSPropertyOp5
 70
     1
102
RTVSPropertyOp6
 70
     1
102
RTVSPropertyOp7
 70
     1
102
RTVSPropertyOp8
 70
     1
102
RTVSPropertyOp9
 70
     1
102
RTVSPropertyOp10
 70
     1
102
RTVSPropertyOp11
 70
     1
102
RTVSPropertyOp12
 70
     1
102
RTVSPropertyOp13
 70
     1
102
RTVSPropertyOp14
 70
     1
102
RTVSPropertyOp15
 70
     1
102
RTVSPropertyOp16
 70
     1
102
RTVSPropertyOp17
 70
     1
102
RTVSPropertyOp18
 70
     1
102
RTVSPropertyOp19
 70
     1
102
RTVSPropertyOp20
 70
     1
102
RTVSPropertyOp21
 70
     1
102
RTVSPropertyOp22
 70
     1
102
RTVSPropertyOp23
 70
     1
102
RTVSPropertyOp24
 70
     1
102
RTVSPropertyOp25
 70
     1
102
RTVSPropertyOp26
 70
     1
102
RTVSPropertyOp27
 70
     1
102
RTVSPropertyOp28
 70
     1
102
RTVSPropertyOp29
 70
     1
102
RTVSPropertyOp30
 70
     1
102
RTVSPropertyOp31
 70
     1
102
RTVSPropertyOp32
 70
     1
102
RTVSPropertyOp33
 70
     1
102
RTVSPropertyOp34
 70
     1
102
RTVSPropertyOp35
 70
     1
102
RTVSPropertyOp36
 70
     1
102
RTVSPropertyOp37
 70
     1
102
RTVSPropertyOp38
 70
     1
102
RTVSPropertyOp39
 70
     1
102
RTVSPropertyOp40
 70
     1
102
RTVSPropertyOp41
 70
     1
102
RTVSPropertyOp42
 70
     1
102
RTVSPropertyOp43
 70
     1
102
RTVSPropertyOp44
 70
     1
102
RTVSPropertyOp45
 70
     1
102
RTVSPropertyOp46
 70
     1
102
RTVSPropertyOp47
 70
     1
102
RTVSPropertyOp48
 70
     1
102
RTVSPropertyOp49
 70
     1
102
RTVSPropertyOp50
 70
     1
102
RTVSPropertyOp51
 70
     0
102
RTVSPropertyOp52
 70
     0
102
RTVSPropertyOp53
 70
     1
102
RTVSPropertyOp54
 70
     1
102
RTVSPropertyOp55
 70
     1
102
RTVSPropertyOp56
 70
     1
102
RTVSPropertyOp57
 70
     1
102
RTVSPropertyOp58
 70
     1
102
RTVSPropertyOp59
 70
     1
102
RTVSPropertyOp60
 70
     1
102
RTVSPropertyOp61
 70
     1
102
RTVSPropertyOp62
 70
     1
  0
XRECORD
  5
7D9
102
{ACAD_REACTORS
330
7D8
102
}
330
7D8
100
AcDbXrecord
280
     1
102
RTVSPost2010Prop28
280
     0
102
RTVSPost2010PropOp28
 70
     1
102
RTVSPost2010Prop29
280
     1
102
RTVSPost2010PropOp29
 70
     1
102
RTVSPost2010Prop30
280
     1
102
RTVSPost2010PropOp30
 70
     1
102
RTVSPost2010Prop31
280
     0
102
RTVSPost2010PropOp31
 70
     1
102
RTVSPost2010Prop32
280
     0
102
RTVSPost2010PropOp32
 70
     1
102
RTVSPost2010Prop33
280
     0
102
RTVSPost2010PropOp33
 70
     1
102
RTVSPost2010Prop34
280
     0
102
RTVSPost2010PropOp34
 70
     1
102
RTVSPost2010Prop35
280
     0
102
RTVSPost2010PropOp35
 70
     1
102
RTVSPost2010Prop36
280
     0
102
RTVSPost2010PropOp36
 70
     1
102
RTVSPost2010Prop37
 90
       50
102
RTVSPost2010PropOp37
 70
     1
102
RTVSPost2010Prop38
140
0.0
102
RTVSPost2010PropOp38
 70
     1
102
RTVSPost2010Prop39
140
1.0
102
RTVSPost2010PropOp39
 70
     1
102
RTVSPost2010Prop40
 90
        0
102
RTVSPost2010PropOp40
 70
     1
102
RTVSPost2010Prop41ColorIndex
 90
       18
102
RTVSPost2010Prop41ColorRGB
 90
        0
102
RTVSPost2010PropOp41
 70
     1
102
RTVSPost2010Prop42
 90
       50
102
RTVSPost2010PropOp42
 70
     1
102
RTVSPost2010Prop43
 90
        3
102
RTVSPost2010PropOp43
 70
     1
102
RTVSPost2010Prop44ColorIndex
 90
        5
102
RTVSPost2010Prop44ColorRGB
 90
      255
102
RTVSPost2010PropOp44
 70
     1
102
RTVSPost2010Prop45
280
     0
102
RTVSPost2010PropOp45
 70
     1
102
RTVSPost2010Prop46
 90
       50
102
RTVSPost2010PropOp46
 70
     1
102
RTVSPost2010Prop47
 90
       50
102
RTVSPost2010PropOp47
 70
     1
102
RTVSPost2010Prop48
 90
       50
102
RTVSPost2010PropOp48
 70
     1
102
RTVSPost2010Prop49
280
     0
102
RTVSPost2010PropOp49
 70
     1
102
RTVSPost2010Prop50
 90
       50
102
RTVSPost2010PropOp50
 70
     1
102
RTVSPost2010Prop51ColorIndex
 90
      256
102
RTVSPost2010Prop51ColorRGB
 90
-16777216
102
RTVSPost2010PropOp51
 70
     0
102
RTVSPost2010Prop52
140
1.0
102
RTVSPost2010PropOp52
 70
     0
102
RTVSPost2010Prop53
 90
        2
102
RTVSPost2010PropOp53
 70
     1
102
RTVSPost2010Prop54
  1
strokes_ogs.tif
102
RTVSPost2010PropOp54
 70
     1
102
RTVSPost2010Prop55
280
     0
102
RTVSPost2010PropOp55
 70
     1
102
RTVSPost2010Prop56
140
1.0
102
RTVSPost2010PropOp56
 70
     1
102
RTVSPost2010Prop57
140
1.0
102
RTVSPost2010PropOp57
 70
     1
102
RTVSPropertyOp0
 70
     1
102
RTVSPropertyOp1
 70
     1
102
RTVSPropertyOp2
 70
     1
102
RTVSPropertyOp3
 70
     1
102
RTVSPropertyOp4
 70
     1
102
RTVSPropertyOp5
 70
     1
102
RTVSPropertyOp6
 70
     1
102
RTVSPropertyOp7
 70
     1
102
RTVSPropertyOp8
 70
     1
102
RTVSPropertyOp9
 70
     1
102
RTVSPropertyOp10
 70
     1
102
RTVSPropertyOp11
 70
     1
102
RTVSPropertyOp12
 70
     1
102
RTVSPropertyOp13
 70
     1
102
RTVSPropertyOp14
 70
     1
102
RTVSPropertyOp15
 70
     1
102
RTVSPropertyOp16
 70
     1
102
RTVSPropertyOp17
 70
     1
102
RTVSPropertyOp18
 70
     1
102
RTVSPropertyOp19
 70
     1
102
RTVSPropertyOp20
 70
     1
102
RTVSPropertyOp21
 70
     1
102
RTVSPropertyOp22
 70
     1
102
RTVSPropertyOp23
 70
     1
102
RTVSPropertyOp24
 70
     1
102
RTVSPropertyOp25
 70
     1
102
RTVSPropertyOp26
 70
     1
102
RTVSPropertyOp27
 70
     1
102
RTVSPropertyOp28
 70
     1
102
RTVSPropertyOp29
 70
     1
102
RTVSPropertyOp30
 70
     1
102
RTVSPropertyOp31
 70
     1
102
RTVSPropertyOp32
 70
     1
102
RTVSPropertyOp33
 70
     1
102
RTVSPropertyOp34
 70
     1
102
RTVSPropertyOp35
 70
     1
102
RTVSPropertyOp36
 70
     1
102
RTVSPropertyOp37
 70
     1
102
RTVSPropertyOp38
 70
     1
102
RTVSPropertyOp39
 70
     1
102
RTVSPropertyOp40
 70
     1
102
RTVSPropertyOp41
 70
     1
102
RTVSPropertyOp42
 70
     1
102
RTVSPropertyOp43
 70
     1
102
RTVSPropertyOp44
 70
     1
102
RTVSPropertyOp45
 70
     1
102
RTVSPropertyOp46
 70
     1
102
RTVSPropertyOp47
 70
     1
102
RTVSPropertyOp48
 70
     1
102
RTVSPropertyOp49
 70
     1
102
RTVSPropertyOp50
 70
     1
102
RTVSPropertyOp51
 70
     0
102
RTVSPropertyOp52
 70
     0
102
RTVSPropertyOp53
 70
     1
102
RTVSPropertyOp54
 70
     1
102
RTVSPropertyOp55
 70
     1
102
RTVSPropertyOp56
 70
     1
102
RTVSPropertyOp57
 70
     1
102
RTVSPropertyOp58
 70
     1
102
RTVSPropertyOp59
 70
     1
102
RTVSPropertyOp60
 70
     1
102
RTVSPropertyOp61
 70
     1
102
RTVSPropertyOp62
 70
     1
  0
XRECORD
  5
7CB
102
{ACAD_REACTORS
330
7CA
102
}
330
7CA
100
AcDbXrecord
280
     1
102
RTVSPost2010Prop28
280
     0
102
RTVSPost2010PropOp28
 70
     1
102
RTVSPost2010Prop29
280
     1
102
RTVSPost2010PropOp29
 70
     1
102
RTVSPost2010Prop30
280
     1
102
RTVSPost2010PropOp30
 70
     1
102
RTVSPost2010Prop31
280
     0
102
RTVSPost2010PropOp31
 70
     1
102
RTVSPost2010Prop32
280
     0
102
RTVSPost2010PropOp32
 70
     1
102
RTVSPost2010Prop33
280
     0
102
RTVSPost2010PropOp33
 70
     1
102
RTVSPost2010Prop34
280
     0
102
RTVSPost2010PropOp34
 70
     1
102
RTVSPost2010Prop35
280
     0
102
RTVSPost2010PropOp35
 70
     1
102
RTVSPost2010Prop36
280
     0
102
RTVSPost2010PropOp36
 70
     1
102
RTVSPost2010Prop37
 90
       50
102
RTVSPost2010PropOp37
 70
     1
102
RTVSPost2010Prop38
140
0.0
102
RTVSPost2010PropOp38
 70
     1
102
RTVSPost2010Prop39
140
1.0
102
RTVSPost2010PropOp39
 70
     1
102
RTVSPost2010Prop40
 90
        0
102
RTVSPost2010PropOp40
 70
     1
102
RTVSPost2010Prop41ColorIndex
 90
       18
102
RTVSPost2010Prop41ColorRGB
 90
        0
102
RTVSPost2010PropOp41
 70
     1
102
RTVSPost2010Prop42
 90
       50
102
RTVSPost2010PropOp42
 70
     1
102
RTVSPost2010Prop43
 90
        3
102
RTVSPost2010PropOp43
 70
     1
102
RTVSPost2010Prop44ColorIndex
 90
        5
102
RTVSPost2010Prop44ColorRGB
 90
      255
102
RTVSPost2010PropOp44
 70
     1
102
RTVSPost2010Prop45
280
     0
102
RTVSPost2010PropOp45
 70
     1
102
RTVSPost2010Prop46
 90
       50
102
RTVSPost2010PropOp46
 70
     1
102
RTVSPost2010Prop47
 90
       50
102
RTVSPost2010PropOp47
 70
     1
102
RTVSPost2010Prop48
 90
       50
102
RTVSPost2010PropOp48
 70
     1
102
RTVSPost2010Prop49
280
     0
102
RTVSPost2010PropOp49
 70
     1
102
RTVSPost2010Prop50
 90
       50
102
RTVSPost2010PropOp50
 70
     1
102
RTVSPost2010Prop51ColorIndex
 90
      256
102
RTVSPost2010Prop51ColorRGB
 90
-16777216
102
RTVSPost2010PropOp51
 70
     0
102
RTVSPost2010Prop52
140
1.0
102
RTVSPost2010PropOp52
 70
     0
102
RTVSPost2010Prop53
 90
        2
102
RTVSPost2010PropOp53
 70
     1
102
RTVSPost2010Prop54
  1
strokes_ogs.tif
102
RTVSPost2010PropOp54
 70
     1
102
RTVSPost2010Prop55
280
     0
102
RTVSPost2010PropOp55
 70
     1
102
RTVSPost2010Prop56
140
1.0
102
RTVSPost2010PropOp56
 70
     1
102
RTVSPost2010Prop57
140
1.0
102
RTVSPost2010PropOp57
 70
     1
102
RTVSPropertyOp0
 70
     1
102
RTVSPropertyOp1
 70
     1
102
RTVSPropertyOp2
 70
     1
102
RTVSPropertyOp3
 70
     1
102
RTVSPropertyOp4
 70
     1
102
RTVSPropertyOp5
 70
     1
102
RTVSPropertyOp6
 70
     1
102
RTVSPropertyOp7
 70
     1
102
RTVSPropertyOp8
 70
     1
102
RTVSPropertyOp9
 70
     1
102
RTVSPropertyOp10
 70
     1
102
RTVSPropertyOp11
 70
     1
102
RTVSPropertyOp12
 70
     1
102
RTVSPropertyOp13
 70
     1
102
RTVSPropertyOp14
 70
     1
102
RTVSPropertyOp15
 70
     1
102
RTVSPropertyOp16
 70
     1
102
RTVSPropertyOp17
 70
     1
102
RTVSPropertyOp18
 70
     1
102
RTVSPropertyOp19
 70
     1
102
RTVSPropertyOp20
 70
     1
102
RTVSPropertyOp21
 70
     1
102
RTVSPropertyOp22
 70
     1
102
RTVSPropertyOp23
 70
     1
102
RTVSPropertyOp24
 70
     1
102
RTVSPropertyOp25
 70
     1
102
RTVSPropertyOp26
 70
     1
102
RTVSPropertyOp27
 70
     1
102
RTVSPropertyOp28
 70
     1
102
RTVSPropertyOp29
 70
     1
102
RTVSPropertyOp30
 70
     1
102
RTVSPropertyOp31
 70
     1
102
RTVSPropertyOp32
 70
     1
102
RTVSPropertyOp33
 70
     1
102
RTVSPropertyOp34
 70
     1
102
RTVSPropertyOp35
 70
     1
102
RTVSPropertyOp36
 70
     1
102
RTVSPropertyOp37
 70
     1
102
RTVSPropertyOp38
 70
     1
102
RTVSPropertyOp39
 70
     1
102
RTVSPropertyOp40
 70
     1
102
RTVSPropertyOp41
 70
     1
102
RTVSPropertyOp42
 70
     1
102
RTVSPropertyOp43
 70
     1
102
RTVSPropertyOp44
 70
     1
102
RTVSPropertyOp45
 70
     1
102
RTVSPropertyOp46
 70
     1
102
RTVSPropertyOp47
 70
     1
102
RTVSPropertyOp48
 70
     1
102
RTVSPropertyOp49
 70
     1
102
RTVSPropertyOp50
 70
     1
102
RTVSPropertyOp51
 70
     0
102
RTVSPropertyOp52
 70
     0
102
RTVSPropertyOp53
 70
     1
102
RTVSPropertyOp54
 70
     1
102
RTVSPropertyOp55
 70
     1
102
RTVSPropertyOp56
 70
     1
102
RTVSPropertyOp57
 70
     1
102
RTVSPropertyOp58
 70
     1
102
RTVSPropertyOp59
 70
     1
102
RTVSPropertyOp60
 70
     1
102
RTVSPropertyOp61
 70
     1
102
RTVSPropertyOp62
 70
     1
  0
XRECORD
  5
7CF
102
{ACAD_REACTORS
330
7CE
102
}
330
7CE
100
AcDbXrecord
280
     1
102
RTVSPost2010Prop28
280
     0
102
RTVSPost2010PropOp28
 70
     1
102
RTVSPost2010Prop29
280
     1
102
RTVSPost2010PropOp29
 70
     1
102
RTVSPost2010Prop30
280
     1
102
RTVSPost2010PropOp30
 70
     1
102
RTVSPost2010Prop31
280
     0
102
RTVSPost2010PropOp31
 70
     1
102
RTVSPost2010Prop32
280
     0
102
RTVSPost2010PropOp32
 70
     1
102
RTVSPost2010Prop33
280
     0
102
RTVSPost2010PropOp33
 70
     1
102
RTVSPost2010Prop34
280
     0
102
RTVSPost2010PropOp34
 70
     1
102
RTVSPost2010Prop35
280
     0
102
RTVSPost2010PropOp35
 70
     1
102
RTVSPost2010Prop36
280
     0
102
RTVSPost2010PropOp36
 70
     1
102
RTVSPost2010Prop37
 90
       50
102
RTVSPost2010PropOp37
 70
     1
102
RTVSPost2010Prop38
140
0.0
102
RTVSPost2010PropOp38
 70
     1
102
RTVSPost2010Prop39
140
1.0
102
RTVSPost2010PropOp39
 70
     1
102
RTVSPost2010Prop40
 90
        0
102
RTVSPost2010PropOp40
 70
     1
102
RTVSPost2010Prop41ColorIndex
 90
       18
102
RTVSPost2010Prop41ColorRGB
 90
        0
102
RTVSPost2010PropOp41
 70
     1
102
RTVSPost2010Prop42
 90
       50
102
RTVSPost2010PropOp42
 70
     1
102
RTVSPost2010Prop43
 90
        3
102
RTVSPost2010PropOp43
 70
     1
102
RTVSPost2010Prop44ColorIndex
 90
        5
102
RTVSPost2010Prop44ColorRGB
 90
      255
102
RTVSPost2010PropOp44
 70
     1
102
RTVSPost2010Prop45
280
     0
102
RTVSPost2010PropOp45
 70
     1
102
RTVSPost2010Prop46
 90
       50
102
RTVSPost2010PropOp46
 70
     1
102
RTVSPost2010Prop47
 90
       50
102
RTVSPost2010PropOp47
 70
     1
102
RTVSPost2010Prop48
 90
       50
102
RTVSPost2010PropOp48
 70
     1
102
RTVSPost2010Prop49
280
     0
102
RTVSPost2010PropOp49
 70
     1
102
RTVSPost2010Prop50
 90
       50
102
RTVSPost2010PropOp50
 70
     1
102
RTVSPost2010Prop51ColorIndex
 90
      256
102
RTVSPost2010Prop51ColorRGB
 90
-16777216
102
RTVSPost2010PropOp51
 70
     0
102
RTVSPost2010Prop52
140
1.0
102
RTVSPost2010PropOp52
 70
     0
102
RTVSPost2010Prop53
 90
        2
102
RTVSPost2010PropOp53
 70
     1
102
RTVSPost2010Prop54
  1
strokes_ogs.tif
102
RTVSPost2010PropOp54
 70
     1
102
RTVSPost2010Prop55
280
     0
102
RTVSPost2010PropOp55
 70
     1
102
RTVSPost2010Prop56
140
1.0
102
RTVSPost2010PropOp56
 70
     1
102
RTVSPost2010Prop57
140
1.0
102
RTVSPost2010PropOp57
 70
     1
102
RTVSPropertyOp0
 70
     1
102
RTVSPropertyOp1
 70
     1
102
RTVSPropertyOp2
 70
     1
102
RTVSPropertyOp3
 70
     1
102
RTVSPropertyOp4
 70
     1
102
RTVSPropertyOp5
 70
     1
102
RTVSPropertyOp6
 70
     1
102
RTVSPropertyOp7
 70
     1
102
RTVSPropertyOp8
 70
     1
102
RTVSPropertyOp9
 70
     1
102
RTVSPropertyOp10
 70
     1
102
RTVSPropertyOp11
 70
     1
102
RTVSPropertyOp12
 70
     1
102
RTVSPropertyOp13
 70
     1
102
RTVSPropertyOp14
 70
     1
102
RTVSPropertyOp15
 70
     1
102
RTVSPropertyOp16
 70
     1
102
RTVSPropertyOp17
 70
     1
102
RTVSPropertyOp18
 70
     1
102
RTVSPropertyOp19
 70
     1
102
RTVSPropertyOp20
 70
     1
102
RTVSPropertyOp21
 70
     1
102
RTVSPropertyOp22
 70
     1
102
RTVSPropertyOp23
 70
     1
102
RTVSPropertyOp24
 70
     1
102
RTVSPropertyOp25
 70
     1
102
RTVSPropertyOp26
 70
     1
102
RTVSPropertyOp27
 70
     1
102
RTVSPropertyOp28
 70
     1
102
RTVSPropertyOp29
 70
     1
102
RTVSPropertyOp30
 70
     1
102
RTVSPropertyOp31
 70
     1
102
RTVSPropertyOp32
 70
     1
102
RTVSPropertyOp33
 70
     1
102
RTVSPropertyOp34
 70
     1
102
RTVSPropertyOp35
 70
     1
102
RTVSPropertyOp36
 70
     1
102
RTVSPropertyOp37
 70
     1
102
RTVSPropertyOp38
 70
     1
102
RTVSPropertyOp39
 70
     1
102
RTVSPropertyOp40
 70
     1
102
RTVSPropertyOp41
 70
     1
102
RTVSPropertyOp42
 70
     1
102
RTVSPropertyOp43
 70
     1
102
RTVSPropertyOp44
 70
     1
102
RTVSPropertyOp45
 70
     1
102
RTVSPropertyOp46
 70
     1
102
RTVSPropertyOp47
 70
     1
102
RTVSPropertyOp48
 70
     1
102
RTVSPropertyOp49
 70
     1
102
RTVSPropertyOp50
 70
     1
102
RTVSPropertyOp51
 70
     0
102
RTVSPropertyOp52
 70
     0
102
RTVSPropertyOp53
 70
     1
102
RTVSPropertyOp54
 70
     1
102
RTVSPropertyOp55
 70
     1
102
RTVSPropertyOp56
 70
     1
102
RTVSPropertyOp57
 70
     1
102
RTVSPropertyOp58
 70
     1
102
RTVSPropertyOp59
 70
     1
102
RTVSPropertyOp60
 70
     1
102
RTVSPropertyOp61
 70
     1
102
RTVSPropertyOp62
 70
     1
  0
XRECORD
  5
7E9
102
{ACAD_REACTORS
330
7E8
102
}
330
7E8
100
AcDbXrecord
280
     1
102
RTVSPost2010Prop28
280
     0
102
RTVSPost2010PropOp28
 70
     1
102
RTVSPost2010Prop29
280
     1
102
RTVSPost2010PropOp29
 70
     1
102
RTVSPost2010Prop30
280
     1
102
RTVSPost2010PropOp30
 70
     1
102
RTVSPost2010Prop31
280
     0
102
RTVSPost2010PropOp31
 70
     1
102
RTVSPost2010Prop32
280
     0
102
RTVSPost2010PropOp32
 70
     1
102
RTVSPost2010Prop33
280
     0
102
RTVSPost2010PropOp33
 70
     1
102
RTVSPost2010Prop34
280
     0
102
RTVSPost2010PropOp34
 70
     1
102
RTVSPost2010Prop35
280
     0
102
RTVSPost2010PropOp35
 70
     1
102
RTVSPost2010Prop36
280
     0
102
RTVSPost2010PropOp36
 70
     1
102
RTVSPost2010Prop37
 90
       50
102
RTVSPost2010PropOp37
 70
     0
102
RTVSPost2010Prop38
140
0.0
102
RTVSPost2010PropOp38
 70
     0
102
RTVSPost2010Prop39
140
1.0
102
RTVSPost2010PropOp39
 70
     0
102
RTVSPost2010Prop40
 90
        0
102
RTVSPost2010PropOp40
 70
     0
102
RTVSPost2010Prop41ColorIndex
 90
       18
102
RTVSPost2010Prop41ColorRGB
 90
        0
102
RTVSPost2010PropOp41
 70
     0
102
RTVSPost2010Prop42
 90
       50
102
RTVSPost2010PropOp42
 70
     0
102
RTVSPost2010Prop43
 90
        3
102
RTVSPost2010PropOp43
 70
     0
102
RTVSPost2010Prop44ColorIndex
 90
        5
102
RTVSPost2010Prop44ColorRGB
 90
      255
102
RTVSPost2010PropOp44
 70
     0
102
RTVSPost2010Prop45
280
     0
102
RTVSPost2010PropOp45
 70
     1
102
RTVSPost2010Prop46
 90
       50
102
RTVSPost2010PropOp46
 70
     0
102
RTVSPost2010Prop47
 90
       50
102
RTVSPost2010PropOp47
 70
     0
102
RTVSPost2010Prop48
 90
       50
102
RTVSPost2010PropOp48
 70
     0
102
RTVSPost2010Prop49
280
     0
102
RTVSPost2010PropOp49
 70
     1
102
RTVSPost2010Prop50
 90
       50
102
RTVSPost2010PropOp50
 70
     0
102
RTVSPost2010Prop51ColorIndex
 90
      256
102
RTVSPost2010Prop51ColorRGB
 90
-16777216
102
RTVSPost2010PropOp51
 70
     0
102
RTVSPost2010Prop52
140
1.0
102
RTVSPost2010PropOp52
 70
     0
102
RTVSPost2010Prop53
 90
        2
102
RTVSPost2010PropOp53
 70
     0
102
RTVSPost2010Prop54
  1
strokes_ogs.tif
102
RTVSPost2010PropOp54
 70
     0
102
RTVSPost2010Prop55
280
     0
102
RTVSPost2010PropOp55
 70
     1
102
RTVSPost2010Prop56
140
1.0
102
RTVSPost2010PropOp56
 70
     0
102
RTVSPost2010Prop57
140
1.0
102
RTVSPost2010PropOp57
 70
     0
102
RTVSPropertyOp0
 70
     0
102
RTVSPropertyOp1
 70
     0
102
RTVSPropertyOp2
 70
     0
102
RTVSPropertyOp3
 70
     0
102
RTVSPropertyOp4
 70
     0
102
RTVSPropertyOp5
 70
     0
102
RTVSPropertyOp6
 70
     0
102
RTVSPropertyOp7
 70
     0
102
RTVSPropertyOp8
 70
     0
102
RTVSPropertyOp9
 70
     0
102
RTVSPropertyOp10
 70
     0
102
RTVSPropertyOp11
 70
     0
102
RTVSPropertyOp12
 70
     0
102
RTVSPropertyOp13
 70
     0
102
RTVSPropertyOp14
 70
     2
102
RTVSPropertyOp15
 70
     0
102
RTVSPropertyOp16
 70
     0
102
RTVSPropertyOp17
 70
     0
102
RTVSPropertyOp18
 70
     0
102
RTVSPropertyOp19
 70
     0
102
RTVSPropertyOp20
 70
     0
102
RTVSPropertyOp21
 70
     0
102
RTVSPropertyOp22
 70
     0
102
RTVSPropertyOp23
 70
     0
102
RTVSPropertyOp24
 70
     0
102
RTVSPropertyOp25
 70
     0
102
RTVSPropertyOp26
 70
     0
102
RTVSPropertyOp27
 70
     0
102
RTVSPropertyOp28
 70
     1
102
RTVSPropertyOp29
 70
     1
102
RTVSPropertyOp30
 70
     1
102
RTVSPropertyOp31
 70
     1
102
RTVSPropertyOp32
 70
     1
102
RTVSPropertyOp33
 70
     1
102
RTVSPropertyOp34
 70
     1
102
RTVSPropertyOp35
 70
     1
102
RTVSPropertyOp36
 70
     1
102
RTVSPropertyOp37
 70
     0
102
RTVSPropertyOp38
 70
     0
102
RTVSPropertyOp39
 70
     0
102
RTVSPropertyOp40
 70
     0
102
RTVSPropertyOp41
 70
     0
102
RTVSPropertyOp42
 70
     0
102
RTVSPropertyOp43
 70
     0
102
RTVSPropertyOp44
 70
     0
102
RTVSPropertyOp45
 70
     1
102
RTVSPropertyOp46
 70
     0
102
RTVSPropertyOp47
 70
     0
102
RTVSPropertyOp48
 70
     0
102
RTVSPropertyOp49
 70
     1
102
RTVSPropertyOp50
 70
     0
102
RTVSPropertyOp51
 70
     0
102
RTVSPropertyOp52
 70
     0
102
RTVSPropertyOp53
 70
     0
102
RTVSPropertyOp54
 70
     0
102
RTVSPropertyOp55
 70
     1
102
RTVSPropertyOp56
 70
     0
102
RTVSPropertyOp57
 70
     0
102
RTVSPropertyOp58
 70
     0
102
RTVSPropertyOp59
 70
     0
102
RTVSPropertyOp60
 70
     0
102
RTVSPropertyOp61
 70
     0
102
RTVSPropertyOp62
 70
     0
  0
XRECORD
  5
7D7
102
{ACAD_REACTORS
330
7D6
102
}
330
7D6
100
AcDbXrecord
280
     1
102
RTVSPost2010Prop28
280
     0
102
RTVSPost2010PropOp28
 70
     1
102
RTVSPost2010Prop29
280
     1
102
RTVSPost2010PropOp29
 70
     1
102
RTVSPost2010Prop30
280
     1
102
RTVSPost2010PropOp30
 70
     1
102
RTVSPost2010Prop31
280
     0
102
RTVSPost2010PropOp31
 70
     1
102
RTVSPost2010Prop32
280
     0
102
RTVSPost2010PropOp32
 70
     1
102
RTVSPost2010Prop33
280
     0
102
RTVSPost2010PropOp33
 70
     1
102
RTVSPost2010Prop34
280
     0
102
RTVSPost2010PropOp34
 70
     1
102
RTVSPost2010Prop35
280
     0
102
RTVSPost2010PropOp35
 70
     1
102
RTVSPost2010Prop36
280
     0
102
RTVSPost2010PropOp36
 70
     1
102
RTVSPost2010Prop37
 90
       50
102
RTVSPost2010PropOp37
 70
     1
102
RTVSPost2010Prop38
140
0.0
102
RTVSPost2010PropOp38
 70
     1
102
RTVSPost2010Prop39
140
1.0
102
RTVSPost2010PropOp39
 70
     1
102
RTVSPost2010Prop40
 90
        0
102
RTVSPost2010PropOp40
 70
     1
102
RTVSPost2010Prop41ColorIndex
 90
       18
102
RTVSPost2010Prop41ColorRGB
 90
        0
102
RTVSPost2010PropOp41
 70
     1
102
RTVSPost2010Prop42
 90
       50
102
RTVSPost2010PropOp42
 70
     1
102
RTVSPost2010Prop43
 90
        3
102
RTVSPost2010PropOp43
 70
     1
102
RTVSPost2010Prop44ColorIndex
 90
        5
102
RTVSPost2010Prop44ColorRGB
 90
      255
102
RTVSPost2010PropOp44
 70
     1
102
RTVSPost2010Prop45
280
     0
102
RTVSPost2010PropOp45
 70
     1
102
RTVSPost2010Prop46
 90
       50
102
RTVSPost2010PropOp46
 70
     1
102
RTVSPost2010Prop47
 90
       50
102
RTVSPost2010PropOp47
 70
     1
102
RTVSPost2010Prop48
 90
       50
102
RTVSPost2010PropOp48
 70
     1
102
RTVSPost2010Prop49
280
     0
102
RTVSPost2010PropOp49
 70
     1
102
RTVSPost2010Prop50
 90
       50
102
RTVSPost2010PropOp50
 70
     1
102
RTVSPost2010Prop51ColorIndex
 90
      256
102
RTVSPost2010Prop51ColorRGB
 90
-16777216
102
RTVSPost2010PropOp51
 70
     0
102
RTVSPost2010Prop52
140
1.0
102
RTVSPost2010PropOp52
 70
     0
102
RTVSPost2010Prop53
 90
        2
102
RTVSPost2010PropOp53
 70
     1
102
RTVSPost2010Prop54
  1
strokes_ogs.tif
102
RTVSPost2010PropOp54
 70
     1
102
RTVSPost2010Prop55
280
     0
102
RTVSPost2010PropOp55
 70
     1
102
RTVSPost2010Prop56
140
1.0
102
RTVSPost2010PropOp56
 70
     1
102
RTVSPost2010Prop57
140
1.0
102
RTVSPost2010PropOp57
 70
     1
102
RTVSPropertyOp0
 70
     1
102
RTVSPropertyOp1
 70
     1
102
RTVSPropertyOp2
 70
     1
102
RTVSPropertyOp3
 70
     1
102
RTVSPropertyOp4
 70
     1
102
RTVSPropertyOp5
 70
     1
102
RTVSPropertyOp6
 70
     1
102
RTVSPropertyOp7
 70
     1
102
RTVSPropertyOp8
 70
     1
102
RTVSPropertyOp9
 70
     1
102
RTVSPropertyOp10
 70
     1
102
RTVSPropertyOp11
 70
     1
102
RTVSPropertyOp12
 70
     1
102
RTVSPropertyOp13
 70
     1
102
RTVSPropertyOp14
 70
     1
102
RTVSPropertyOp15
 70
     1
102
RTVSPropertyOp16
 70
     1
102
RTVSPropertyOp17
 70
     1
102
RTVSPropertyOp18
 70
     1
102
RTVSPropertyOp19
 70
     1
102
RTVSPropertyOp20
 70
     1
102
RTVSPropertyOp21
 70
     1
102
RTVSPropertyOp22
 70
     1
102
RTVSPropertyOp23
 70
     1
102
RTVSPropertyOp24
 70
     1
102
RTVSPropertyOp25
 70
     1
102
RTVSPropertyOp26
 70
     1
102
RTVSPropertyOp27
 70
     1
102
RTVSPropertyOp28
 70
     1
102
RTVSPropertyOp29
 70
     1
102
RTVSPropertyOp30
 70
     1
102
RTVSPropertyOp31
 70
     1
102
RTVSPropertyOp32
 70
     1
102
RTVSPropertyOp33
 70
     1
102
RTVSPropertyOp34
 70
     1
102
RTVSPropertyOp35
 70
     1
102
RTVSPropertyOp36
 70
     1
102
RTVSPropertyOp37
 70
     1
102
RTVSPropertyOp38
 70
     1
102
RTVSPropertyOp39
 70
     1
102
RTVSPropertyOp40
 70
     1
102
RTVSPropertyOp41
 70
     1
102
RTVSPropertyOp42
 70
     1
102
RTVSPropertyOp43
 70
     1
102
RTVSPropertyOp44
 70
     1
102
RTVSPropertyOp45
 70
     1
102
RTVSPropertyOp46
 70
     1
102
RTVSPropertyOp47
 70
     1
102
RTVSPropertyOp48
 70
     1
102
RTVSPropertyOp49
 70
     1
102
RTVSPropertyOp50
 70
     1
102
RTVSPropertyOp51
 70
     0
102
RTVSPropertyOp52
 70
     0
102
RTVSPropertyOp53
 70
     1
102
RTVSPropertyOp54
 70
     1
102
RTVSPropertyOp55
 70
     1
102
RTVSPropertyOp56
 70
     1
102
RTVSPropertyOp57
 70
     1
102
RTVSPropertyOp58
 70
     1
102
RTVSPropertyOp59
 70
     1
102
RTVSPropertyOp60
 70
     1
102
RTVSPropertyOp61
 70
     1
102
RTVSPropertyOp62
 70
     1
  0
XRECORD
  5
7BB
102
{ACAD_REACTORS
330
7BA
102
}
330
7BA
100
AcDbXrecord
280
     1
102
RTVSPost2010Prop28
280
     0
102
RTVSPost2010PropOp28
 70
     1
102
RTVSPost2010Prop29
280
     1
102
RTVSPost2010PropOp29
 70
     1
102
RTVSPost2010Prop30
280
     1
102
RTVSPost2010PropOp30
 70
     1
102
RTVSPost2010Prop31
280
     0
102
RTVSPost2010PropOp31
 70
     1
102
RTVSPost2010Prop32
280
     0
102
RTVSPost2010PropOp32
 70
     1
102
RTVSPost2010Prop33
280
     0
102
RTVSPost2010PropOp33
 70
     1
102
RTVSPost2010Prop34
280
     0
102
RTVSPost2010PropOp34
 70
     1
102
RTVSPost2010Prop35
280
     0
102
RTVSPost2010PropOp35
 70
     1
102
RTVSPost2010Prop36
280
     0
102
RTVSPost2010PropOp36
 70
     1
102
RTVSPost2010Prop37
 90
       50
102
RTVSPost2010PropOp37
 70
     1
102
RTVSPost2010Prop38
140
0.0
102
RTVSPost2010PropOp38
 70
     1
102
RTVSPost2010Prop39
140
1.0
102
RTVSPost2010PropOp39
 70
     1
102
RTVSPost2010Prop40
 90
        0
102
RTVSPost2010PropOp40
 70
     1
102
RTVSPost2010Prop41ColorIndex
 90
       18
102
RTVSPost2010Prop41ColorRGB
 90
        0
102
RTVSPost2010PropOp41
 70
     1
102
RTVSPost2010Prop42
 90
       50
102
RTVSPost2010PropOp42
 70
     1
102
RTVSPost2010Prop43
 90
        3
102
RTVSPost2010PropOp43
 70
     1
102
RTVSPost2010Prop44ColorIndex
 90
        5
102
RTVSPost2010Prop44ColorRGB
 90
      255
102
RTVSPost2010PropOp44
 70
     1
102
RTVSPost2010Prop45
280
     0
102
RTVSPost2010PropOp45
 70
     1
102
RTVSPost2010Prop46
 90
       50
102
RTVSPost2010PropOp46
 70
     1
102
RTVSPost2010Prop47
 90
       50
102
RTVSPost2010PropOp47
 70
     1
102
RTVSPost2010Prop48
 90
       50
102
RTVSPost2010PropOp48
 70
     1
102
RTVSPost2010Prop49
280
     0
102
RTVSPost2010PropOp49
 70
     1
102
RTVSPost2010Prop50
 90
       50
102
RTVSPost2010PropOp50
 70
     1
102
RTVSPost2010Prop51ColorIndex
 90
      256
102
RTVSPost2010Prop51ColorRGB
 90
-16777216
102
RTVSPost2010PropOp51
 70
     0
102
RTVSPost2010Prop52
140
1.0
102
RTVSPost2010PropOp52
 70
     0
102
RTVSPost2010Prop53
 90
        2
102
RTVSPost2010PropOp53
 70
     1
102
RTVSPost2010Prop54
  1
strokes_ogs.tif
102
RTVSPost2010PropOp54
 70
     1
102
RTVSPost2010Prop55
280
     0
102
RTVSPost2010PropOp55
 70
     1
102
RTVSPost2010Prop56
140
1.0
102
RTVSPost2010PropOp56
 70
     1
102
RTVSPost2010Prop57
140
1.0
102
RTVSPost2010PropOp57
 70
     1
102
RTVSPropertyOp0
 70
     1
102
RTVSPropertyOp1
 70
     1
102
RTVSPropertyOp2
 70
     1
102
RTVSPropertyOp3
 70
     1
102
RTVSPropertyOp4
 70
     1
102
RTVSPropertyOp5
 70
     1
102
RTVSPropertyOp6
 70
     1
102
RTVSPropertyOp7
 70
     1
102
RTVSPropertyOp8
 70
     1
102
RTVSPropertyOp9
 70
     1
102
RTVSPropertyOp10
 70
     1
102
RTVSPropertyOp11
 70
     1
102
RTVSPropertyOp12
 70
     1
102
RTVSPropertyOp13
 70
     1
102
RTVSPropertyOp14
 70
     1
102
RTVSPropertyOp15
 70
     1
102
RTVSPropertyOp16
 70
     1
102
RTVSPropertyOp17
 70
     1
102
RTVSPropertyOp18
 70
     1
102
RTVSPropertyOp19
 70
     1
102
RTVSPropertyOp20
 70
     1
102
RTVSPropertyOp21
 70
     1
102
RTVSPropertyOp22
 70
     1
102
RTVSPropertyOp23
 70
     1
102
RTVSPropertyOp24
 70
     1
102
RTVSPropertyOp25
 70
     1
102
RTVSPropertyOp26
 70
     1
102
RTVSPropertyOp27
 70
     1
102
RTVSPropertyOp28
 70
     1
102
RTVSPropertyOp29
 70
     1
102
RTVSPropertyOp30
 70
     1
102
RTVSPropertyOp31
 70
     1
102
RTVSPropertyOp32
 70
     1
102
RTVSPropertyOp33
 70
     1
102
RTVSPropertyOp34
 70
     1
102
RTVSPropertyOp35
 70
     1
102
RTVSPropertyOp36
 70
     1
102
RTVSPropertyOp37
 70
     1
102
RTVSPropertyOp38
 70
     1
102
RTVSPropertyOp39
 70
     1
102
RTVSPropertyOp40
 70
     1
102
RTVSPropertyOp41
 70
     1
102
RTVSPropertyOp42
 70
     1
102
RTVSPropertyOp43
 70
     1
102
RTVSPropertyOp44
 70
     1
102
RTVSPropertyOp45
 70
     1
102
RTVSPropertyOp46
 70
     1
102
RTVSPropertyOp47
 70
     1
102
RTVSPropertyOp48
 70
     1
102
RTVSPropertyOp49
 70
     1
102
RTVSPropertyOp50
 70
     1
102
RTVSPropertyOp51
 70
     0
102
RTVSPropertyOp52
 70
     0
102
RTVSPropertyOp53
 70
     1
102
RTVSPropertyOp54
 70
     1
102
RTVSPropertyOp55
 70
     1
102
RTVSPropertyOp56
 70
     1
102
RTVSPropertyOp57
 70
     1
102
RTVSPropertyOp58
 70
     1
102
RTVSPropertyOp59
 70
     1
102
RTVSPropertyOp60
 70
     1
102
RTVSPropertyOp61
 70
     1
102
RTVSPropertyOp62
 70
     1
  0
XRECORD
  5
7BD
102
{ACAD_REACTORS
330
7BC
102
}
330
7BC
100
AcDbXrecord
280
     1
102
RTVSPost2010Prop28
280
     0
102
RTVSPost2010PropOp28
 70
     1
102
RTVSPost2010Prop29
280
     1
102
RTVSPost2010PropOp29
 70
     1
102
RTVSPost2010Prop30
280
     1
102
RTVSPost2010PropOp30
 70
     1
102
RTVSPost2010Prop31
280
     0
102
RTVSPost2010PropOp31
 70
     1
102
RTVSPost2010Prop32
280
     0
102
RTVSPost2010PropOp32
 70
     1
102
RTVSPost2010Prop33
280
     0
102
RTVSPost2010PropOp33
 70
     1
102
RTVSPost2010Prop34
280
     0
102
RTVSPost2010PropOp34
 70
     1
102
RTVSPost2010Prop35
280
     0
102
RTVSPost2010PropOp35
 70
     1
102
RTVSPost2010Prop36
280
     0
102
RTVSPost2010PropOp36
 70
     1
102
RTVSPost2010Prop37
 90
       50
102
RTVSPost2010PropOp37
 70
     1
102
RTVSPost2010Prop38
140
0.0
102
RTVSPost2010PropOp38
 70
     1
102
RTVSPost2010Prop39
140
1.0
102
RTVSPost2010PropOp39
 70
     1
102
RTVSPost2010Prop40
 90
        0
102
RTVSPost2010PropOp40
 70
     1
102
RTVSPost2010Prop41ColorIndex
 90
       18
102
RTVSPost2010Prop41ColorRGB
 90
        0
102
RTVSPost2010PropOp41
 70
     1
102
RTVSPost2010Prop42
 90
       50
102
RTVSPost2010PropOp42
 70
     1
102
RTVSPost2010Prop43
 90
        3
102
RTVSPost2010PropOp43
 70
     1
102
RTVSPost2010Prop44ColorIndex
 90
        5
102
RTVSPost2010Prop44ColorRGB
 90
      255
102
RTVSPost2010PropOp44
 70
     1
102
RTVSPost2010Prop45
280
     0
102
RTVSPost2010PropOp45
 70
     1
102
RTVSPost2010Prop46
 90
       50
102
RTVSPost2010PropOp46
 70
     1
102
RTVSPost2010Prop47
 90
       50
102
RTVSPost2010PropOp47
 70
     1
102
RTVSPost2010Prop48
 90
       50
102
RTVSPost2010PropOp48
 70
     1
102
RTVSPost2010Prop49
280
     0
102
RTVSPost2010PropOp49
 70
     1
102
RTVSPost2010Prop50
 90
       50
102
RTVSPost2010PropOp50
 70
     1
102
RTVSPost2010Prop51ColorIndex
 90
      256
102
RTVSPost2010Prop51ColorRGB
 90
-16777216
102
RTVSPost2010PropOp51
 70
     0
102
RTVSPost2010Prop52
140
1.0
102
RTVSPost2010PropOp52
 70
     0
102
RTVSPost2010Prop53
 90
        2
102
RTVSPost2010PropOp53
 70
     1
102
RTVSPost2010Prop54
  1
strokes_ogs.tif
102
RTVSPost2010PropOp54
 70
     1
102
RTVSPost2010Prop55
280
     0
102
RTVSPost2010PropOp55
 70
     1
102
RTVSPost2010Prop56
140
1.0
102
RTVSPost2010PropOp56
 70
     1
102
RTVSPost2010Prop57
140
1.0
102
RTVSPost2010PropOp57
 70
     1
102
RTVSPropertyOp0
 70
     1
102
RTVSPropertyOp1
 70
     1
102
RTVSPropertyOp2
 70
     1
102
RTVSPropertyOp3
 70
     1
102
RTVSPropertyOp4
 70
     1
102
RTVSPropertyOp5
 70
     1
102
RTVSPropertyOp6
 70
     1
102
RTVSPropertyOp7
 70
     1
102
RTVSPropertyOp8
 70
     1
102
RTVSPropertyOp9
 70
     1
102
RTVSPropertyOp10
 70
     1
102
RTVSPropertyOp11
 70
     1
102
RTVSPropertyOp12
 70
     1
102
RTVSPropertyOp13
 70
     1
102
RTVSPropertyOp14
 70
     1
102
RTVSPropertyOp15
 70
     1
102
RTVSPropertyOp16
 70
     1
102
RTVSPropertyOp17
 70
     1
102
RTVSPropertyOp18
 70
     1
102
RTVSPropertyOp19
 70
     1
102
RTVSPropertyOp20
 70
     1
102
RTVSPropertyOp21
 70
     1
102
RTVSPropertyOp22
 70
     1
102
RTVSPropertyOp23
 70
     1
102
RTVSPropertyOp24
 70
     1
102
RTVSPropertyOp25
 70
     1
102
RTVSPropertyOp26
 70
     1
102
RTVSPropertyOp27
 70
     1
102
RTVSPropertyOp28
 70
     1
102
RTVSPropertyOp29
 70
     1
102
RTVSPropertyOp30
 70
     1
102
RTVSPropertyOp31
 70
     1
102
RTVSPropertyOp32
 70
     1
102
RTVSPropertyOp33
 70
     1
102
RTVSPropertyOp34
 70
     1
102
RTVSPropertyOp35
 70
     1
102
RTVSPropertyOp36
 70
     1
102
RTVSPropertyOp37
 70
     1
102
RTVSPropertyOp38
 70
     1
102
RTVSPropertyOp39
 70
     1
102
RTVSPropertyOp40
 70
     1
102
RTVSPropertyOp41
 70
     1
102
RTVSPropertyOp42
 70
     1
102
RTVSPropertyOp43
 70
     1
102
RTVSPropertyOp44
 70
     1
102
RTVSPropertyOp45
 70
     1
102
RTVSPropertyOp46
 70
     1
102
RTVSPropertyOp47
 70
     1
102
RTVSPropertyOp48
 70
     1
102
RTVSPropertyOp49
 70
     1
102
RTVSPropertyOp50
 70
     1
102
RTVSPropertyOp51
 70
     0
102
RTVSPropertyOp52
 70
     0
102
RTVSPropertyOp53
 70
     1
102
RTVSPropertyOp54
 70
     1
102
RTVSPropertyOp55
 70
     1
102
RTVSPropertyOp56
 70
     1
102
RTVSPropertyOp57
 70
     1
102
RTVSPropertyOp58
 70
     1
102
RTVSPropertyOp59
 70
     1
102
RTVSPropertyOp60
 70
     1
102
RTVSPropertyOp61
 70
     1
102
RTVSPropertyOp62
 70
     1
  0
XRECORD
  5
7BF
102
{ACAD_REACTORS
330
7BE
102
}
330
7BE
100
AcDbXrecord
280
     1
102
RTVSPost2010Prop28
280
     0
102
RTVSPost2010PropOp28
 70
     1
102
RTVSPost2010Prop29
280
     1
102
RTVSPost2010PropOp29
 70
     1
102
RTVSPost2010Prop30
280
     1
102
RTVSPost2010PropOp30
 70
     1
102
RTVSPost2010Prop31
280
     0
102
RTVSPost2010PropOp31
 70
     1
102
RTVSPost2010Prop32
280
     0
102
RTVSPost2010PropOp32
 70
     1
102
RTVSPost2010Prop33
280
     0
102
RTVSPost2010PropOp33
 70
     1
102
RTVSPost2010Prop34
280
     0
102
RTVSPost2010PropOp34
 70
     1
102
RTVSPost2010Prop35
280
     0
102
RTVSPost2010PropOp35
 70
     1
102
RTVSPost2010Prop36
280
     0
102
RTVSPost2010PropOp36
 70
     1
102
RTVSPost2010Prop37
 90
       50
102
RTVSPost2010PropOp37
 70
     1
102
RTVSPost2010Prop38
140
0.0
102
RTVSPost2010PropOp38
 70
     1
102
RTVSPost2010Prop39
140
1.0
102
RTVSPost2010PropOp39
 70
     1
102
RTVSPost2010Prop40
 90
        0
102
RTVSPost2010PropOp40
 70
     1
102
RTVSPost2010Prop41ColorIndex
 90
       18
102
RTVSPost2010Prop41ColorRGB
 90
        0
102
RTVSPost2010PropOp41
 70
     1
102
RTVSPost2010Prop42
 90
       50
102
RTVSPost2010PropOp42
 70
     1
102
RTVSPost2010Prop43
 90
        3
102
RTVSPost2010PropOp43
 70
     1
102
RTVSPost2010Prop44ColorIndex
 90
        5
102
RTVSPost2010Prop44ColorRGB
 90
      255
102
RTVSPost2010PropOp44
 70
     1
102
RTVSPost2010Prop45
280
     0
102
RTVSPost2010PropOp45
 70
     1
102
RTVSPost2010Prop46
 90
       50
102
RTVSPost2010PropOp46
 70
     1
102
RTVSPost2010Prop47
 90
       50
102
RTVSPost2010PropOp47
 70
     1
102
RTVSPost2010Prop48
 90
       50
102
RTVSPost2010PropOp48
 70
     1
102
RTVSPost2010Prop49
280
     0
102
RTVSPost2010PropOp49
 70
     1
102
RTVSPost2010Prop50
 90
       50
102
RTVSPost2010PropOp50
 70
     1
102
RTVSPost2010Prop51ColorIndex
 90
      256
102
RTVSPost2010Prop51ColorRGB
 90
-16777216
102
RTVSPost2010PropOp51
 70
     0
102
RTVSPost2010Prop52
140
1.0
102
RTVSPost2010PropOp52
 70
     0
102
RTVSPost2010Prop53
 90
        2
102
RTVSPost2010PropOp53
 70
     1
102
RTVSPost2010Prop54
  1
strokes_ogs.tif
102
RTVSPost2010PropOp54
 70
     1
102
RTVSPost2010Prop55
280
     0
102
RTVSPost2010PropOp55
 70
     1
102
RTVSPost2010Prop56
140
1.0
102
RTVSPost2010PropOp56
 70
     1
102
RTVSPost2010Prop57
140
1.0
102
RTVSPost2010PropOp57
 70
     1
102
RTVSPropertyOp0
 70
     1
102
RTVSPropertyOp1
 70
     1
102
RTVSPropertyOp2
 70
     1
102
RTVSPropertyOp3
 70
     1
102
RTVSPropertyOp4
 70
     1
102
RTVSPropertyOp5
 70
     1
102
RTVSPropertyOp6
 70
     1
102
RTVSPropertyOp7
 70
     1
102
RTVSPropertyOp8
 70
     1
102
RTVSPropertyOp9
 70
     1
102
RTVSPropertyOp10
 70
     1
102
RTVSPropertyOp11
 70
     1
102
RTVSPropertyOp12
 70
     1
102
RTVSPropertyOp13
 70
     1
102
RTVSPropertyOp14
 70
     1
102
RTVSPropertyOp15
 70
     1
102
RTVSPropertyOp16
 70
     1
102
RTVSPropertyOp17
 70
     1
102
RTVSPropertyOp18
 70
     1
102
RTVSPropertyOp19
 70
     1
102
RTVSPropertyOp20
 70
     1
102
RTVSPropertyOp21
 70
     1
102
RTVSPropertyOp22
 70
     1
102
RTVSPropertyOp23
 70
     1
102
RTVSPropertyOp24
 70
     1
102
RTVSPropertyOp25
 70
     1
102
RTVSPropertyOp26
 70
     1
102
RTVSPropertyOp27
 70
     1
102
RTVSPropertyOp28
 70
     1
102
RTVSPropertyOp29
 70
     1
102
RTVSPropertyOp30
 70
     1
102
RTVSPropertyOp31
 70
     1
102
RTVSPropertyOp32
 70
     1
102
RTVSPropertyOp33
 70
     1
102
RTVSPropertyOp34
 70
     1
102
RTVSPropertyOp35
 70
     1
102
RTVSPropertyOp36
 70
     1
102
RTVSPropertyOp37
 70
     1
102
RTVSPropertyOp38
 70
     1
102
RTVSPropertyOp39
 70
     1
102
RTVSPropertyOp40
 70
     1
102
RTVSPropertyOp41
 70
     1
102
RTVSPropertyOp42
 70
     1
102
RTVSPropertyOp43
 70
     1
102
RTVSPropertyOp44
 70
     1
102
RTVSPropertyOp45
 70
     1
102
RTVSPropertyOp46
 70
     1
102
RTVSPropertyOp47
 70
     1
102
RTVSPropertyOp48
 70
     1
102
RTVSPropertyOp49
 70
     1
102
RTVSPropertyOp50
 70
     1
102
RTVSPropertyOp51
 70
     0
102
RTVSPropertyOp52
 70
     0
102
RTVSPropertyOp53
 70
     1
102
RTVSPropertyOp54
 70
     1
102
RTVSPropertyOp55
 70
     1
102
RTVSPropertyOp56
 70
     1
102
RTVSPropertyOp57
 70
     1
102
RTVSPropertyOp58
 70
     1
102
RTVSPropertyOp59
 70
     1
102
RTVSPropertyOp60
 70
     1
102
RTVSPropertyOp61
 70
     1
102
RTVSPropertyOp62
 70
     1
  0
XRECORD
  5
7C1
102
{ACAD_REACTORS
330
7C0
102
}
330
7C0
100
AcDbXrecord
280
     1
102
RTVSPost2010Prop28
280
     0
102
RTVSPost2010PropOp28
 70
     1
102
RTVSPost2010Prop29
280
     1
102
RTVSPost2010PropOp29
 70
     1
102
RTVSPost2010Prop30
280
     1
102
RTVSPost2010PropOp30
 70
     1
102
RTVSPost2010Prop31
280
     0
102
RTVSPost2010PropOp31
 70
     1
102
RTVSPost2010Prop32
280
     0
102
RTVSPost2010PropOp32
 70
     1
102
RTVSPost2010Prop33
280
     0
102
RTVSPost2010PropOp33
 70
     1
102
RTVSPost2010Prop34
280
     0
102
RTVSPost2010PropOp34
 70
     1
102
RTVSPost2010Prop35
280
     0
102
RTVSPost2010PropOp35
 70
     1
102
RTVSPost2010Prop36
280
     0
102
RTVSPost2010PropOp36
 70
     1
102
RTVSPost2010Prop37
 90
       50
102
RTVSPost2010PropOp37
 70
     1
102
RTVSPost2010Prop38
140
0.0
102
RTVSPost2010PropOp38
 70
     1
102
RTVSPost2010Prop39
140
1.0
102
RTVSPost2010PropOp39
 70
     1
102
RTVSPost2010Prop40
 90
        0
102
RTVSPost2010PropOp40
 70
     1
102
RTVSPost2010Prop41ColorIndex
 90
       18
102
RTVSPost2010Prop41ColorRGB
 90
        0
102
RTVSPost2010PropOp41
 70
     1
102
RTVSPost2010Prop42
 90
       50
102
RTVSPost2010PropOp42
 70
     1
102
RTVSPost2010Prop43
 90
        3
102
RTVSPost2010PropOp43
 70
     1
102
RTVSPost2010Prop44ColorIndex
 90
        5
102
RTVSPost2010Prop44ColorRGB
 90
      255
102
RTVSPost2010PropOp44
 70
     1
102
RTVSPost2010Prop45
280
     0
102
RTVSPost2010PropOp45
 70
     1
102
RTVSPost2010Prop46
 90
       50
102
RTVSPost2010PropOp46
 70
     1
102
RTVSPost2010Prop47
 90
       50
102
RTVSPost2010PropOp47
 70
     1
102
RTVSPost2010Prop48
 90
       50
102
RTVSPost2010PropOp48
 70
     1
102
RTVSPost2010Prop49
280
     0
102
RTVSPost2010PropOp49
 70
     1
102
RTVSPost2010Prop50
 90
       50
102
RTVSPost2010PropOp50
 70
     1
102
RTVSPost2010Prop51ColorIndex
 90
      256
102
RTVSPost2010Prop51ColorRGB
 90
-16777216
102
RTVSPost2010PropOp51
 70
     0
102
RTVSPost2010Prop52
140
1.0
102
RTVSPost2010PropOp52
 70
     0
102
RTVSPost2010Prop53
 90
        2
102
RTVSPost2010PropOp53
 70
     1
102
RTVSPost2010Prop54
  1
strokes_ogs.tif
102
RTVSPost2010PropOp54
 70
     1
102
RTVSPost2010Prop55
280
     0
102
RTVSPost2010PropOp55
 70
     1
102
RTVSPost2010Prop56
140
1.0
102
RTVSPost2010PropOp56
 70
     1
102
RTVSPost2010Prop57
140
1.0
102
RTVSPost2010PropOp57
 70
     1
102
RTVSPropertyOp0
 70
     1
102
RTVSPropertyOp1
 70
     1
102
RTVSPropertyOp2
 70
     1
102
RTVSPropertyOp3
 70
     1
102
RTVSPropertyOp4
 70
     1
102
RTVSPropertyOp5
 70
     1
102
RTVSPropertyOp6
 70
     1
102
RTVSPropertyOp7
 70
     1
102
RTVSPropertyOp8
 70
     1
102
RTVSPropertyOp9
 70
     1
102
RTVSPropertyOp10
 70
     1
102
RTVSPropertyOp11
 70
     1
102
RTVSPropertyOp12
 70
     1
102
RTVSPropertyOp13
 70
     1
102
RTVSPropertyOp14
 70
     1
102
RTVSPropertyOp15
 70
     1
102
RTVSPropertyOp16
 70
     1
102
RTVSPropertyOp17
 70
     1
102
RTVSPropertyOp18
 70
     1
102
RTVSPropertyOp19
 70
     1
102
RTVSPropertyOp20
 70
     1
102
RTVSPropertyOp21
 70
     1
102
RTVSPropertyOp22
 70
     1
102
RTVSPropertyOp23
 70
     1
102
RTVSPropertyOp24
 70
     1
102
RTVSPropertyOp25
 70
     1
102
RTVSPropertyOp26
 70
     1
102
RTVSPropertyOp27
 70
     1
102
RTVSPropertyOp28
 70
     1
102
RTVSPropertyOp29
 70
     1
102
RTVSPropertyOp30
 70
     1
102
RTVSPropertyOp31
 70
     1
102
RTVSPropertyOp32
 70
     1
102
RTVSPropertyOp33
 70
     1
102
RTVSPropertyOp34
 70
     1
102
RTVSPropertyOp35
 70
     1
102
RTVSPropertyOp36
 70
     1
102
RTVSPropertyOp37
 70
     1
102
RTVSPropertyOp38
 70
     1
102
RTVSPropertyOp39
 70
     1
102
RTVSPropertyOp40
 70
     1
102
RTVSPropertyOp41
 70
     1
102
RTVSPropertyOp42
 70
     1
102
RTVSPropertyOp43
 70
     1
102
RTVSPropertyOp44
 70
     1
102
RTVSPropertyOp45
 70
     1
102
RTVSPropertyOp46
 70
     1
102
RTVSPropertyOp47
 70
     1
102
RTVSPropertyOp48
 70
     1
102
RTVSPropertyOp49
 70
     1
102
RTVSPropertyOp50
 70
     1
102
RTVSPropertyOp51
 70
     0
102
RTVSPropertyOp52
 70
     0
102
RTVSPropertyOp53
 70
     1
102
RTVSPropertyOp54
 70
     1
102
RTVSPropertyOp55
 70
     1
102
RTVSPropertyOp56
 70
     1
102
RTVSPropertyOp57
 70
     1
102
RTVSPropertyOp58
 70
     1
102
RTVSPropertyOp59
 70
     1
102
RTVSPropertyOp60
 70
     1
102
RTVSPropertyOp61
 70
     1
102
RTVSPropertyOp62
 70
     1
  0
XRECORD
  5
7C9
102
{ACAD_REACTORS
330
7C8
102
}
330
7C8
100
AcDbXrecord
280
     1
102
RTVSPost2010Prop28
280
     0
102
RTVSPost2010PropOp28
 70
     1
102
RTVSPost2010Prop29
280
     1
102
RTVSPost2010PropOp29
 70
     1
102
RTVSPost2010Prop30
280
     1
102
RTVSPost2010PropOp30
 70
     1
102
RTVSPost2010Prop31
280
     0
102
RTVSPost2010PropOp31
 70
     1
102
RTVSPost2010Prop32
280
     0
102
RTVSPost2010PropOp32
 70
     1
102
RTVSPost2010Prop33
280
     0
102
RTVSPost2010PropOp33
 70
     1
102
RTVSPost2010Prop34
280
     0
102
RTVSPost2010PropOp34
 70
     1
102
RTVSPost2010Prop35
280
     0
102
RTVSPost2010PropOp35
 70
     1
102
RTVSPost2010Prop36
280
     0
102
RTVSPost2010PropOp36
 70
     1
102
RTVSPost2010Prop37
 90
       50
102
RTVSPost2010PropOp37
 70
     1
102
RTVSPost2010Prop38
140
0.0
102
RTVSPost2010PropOp38
 70
     1
102
RTVSPost2010Prop39
140
1.0
102
RTVSPost2010PropOp39
 70
     1
102
RTVSPost2010Prop40
 90
        0
102
RTVSPost2010PropOp40
 70
     1
102
RTVSPost2010Prop41ColorIndex
 90
       18
102
RTVSPost2010Prop41ColorRGB
 90
        0
102
RTVSPost2010PropOp41
 70
     1
102
RTVSPost2010Prop42
 90
       50
102
RTVSPost2010PropOp42
 70
     1
102
RTVSPost2010Prop43
 90
        3
102
RTVSPost2010PropOp43
 70
     1
102
RTVSPost2010Prop44ColorIndex
 90
        5
102
RTVSPost2010Prop44ColorRGB
 90
      255
102
RTVSPost2010PropOp44
 70
     1
102
RTVSPost2010Prop45
280
     0
102
RTVSPost2010PropOp45
 70
     1
102
RTVSPost2010Prop46
 90
       50
102
RTVSPost2010PropOp46
 70
     1
102
RTVSPost2010Prop47
 90
       50
102
RTVSPost2010PropOp47
 70
     1
102
RTVSPost2010Prop48
 90
       50
102
RTVSPost2010PropOp48
 70
     1
102
RTVSPost2010Prop49
280
     0
102
RTVSPost2010PropOp49
 70
     1
102
RTVSPost2010Prop50
 90
       50
102
RTVSPost2010PropOp50
 70
     1
102
RTVSPost2010Prop51ColorIndex
 90
      256
102
RTVSPost2010Prop51ColorRGB
 90
-16777216
102
RTVSPost2010PropOp51
 70
     0
102
RTVSPost2010Prop52
140
1.0
102
RTVSPost2010PropOp52
 70
     0
102
RTVSPost2010Prop53
 90
        2
102
RTVSPost2010PropOp53
 70
     1
102
RTVSPost2010Prop54
  1
strokes_ogs.tif
102
RTVSPost2010PropOp54
 70
     1
102
RTVSPost2010Prop55
280
     0
102
RTVSPost2010PropOp55
 70
     1
102
RTVSPost2010Prop56
140
1.0
102
RTVSPost2010PropOp56
 70
     1
102
RTVSPost2010Prop57
140
1.0
102
RTVSPost2010PropOp57
 70
     1
102
RTVSPropertyOp0
 70
     1
102
RTVSPropertyOp1
 70
     1
102
RTVSPropertyOp2
 70
     1
102
RTVSPropertyOp3
 70
     1
102
RTVSPropertyOp4
 70
     1
102
RTVSPropertyOp5
 70
     1
102
RTVSPropertyOp6
 70
     1
102
RTVSPropertyOp7
 70
     1
102
RTVSPropertyOp8
 70
     1
102
RTVSPropertyOp9
 70
     1
102
RTVSPropertyOp10
 70
     1
102
RTVSPropertyOp11
 70
     1
102
RTVSPropertyOp12
 70
     1
102
RTVSPropertyOp13
 70
     1
102
RTVSPropertyOp14
 70
     1
102
RTVSPropertyOp15
 70
     1
102
RTVSPropertyOp16
 70
     1
102
RTVSPropertyOp17
 70
     1
102
RTVSPropertyOp18
 70
     1
102
RTVSPropertyOp19
 70
     1
102
RTVSPropertyOp20
 70
     1
102
RTVSPropertyOp21
 70
     1
102
RTVSPropertyOp22
 70
     1
102
RTVSPropertyOp23
 70
     1
102
RTVSPropertyOp24
 70
     1
102
RTVSPropertyOp25
 70
     1
102
RTVSPropertyOp26
 70
     1
102
RTVSPropertyOp27
 70
     1
102
RTVSPropertyOp28
 70
     1
102
RTVSPropertyOp29
 70
     1
102
RTVSPropertyOp30
 70
     1
102
RTVSPropertyOp31
 70
     1
102
RTVSPropertyOp32
 70
     1
102
RTVSPropertyOp33
 70
     1
102
RTVSPropertyOp34
 70
     1
102
RTVSPropertyOp35
 70
     1
102
RTVSPropertyOp36
 70
     1
102
RTVSPropertyOp37
 70
     1
102
RTVSPropertyOp38
 70
     1
102
RTVSPropertyOp39
 70
     1
102
RTVSPropertyOp40
 70
     1
102
RTVSPropertyOp41
 70
     1
102
RTVSPropertyOp42
 70
     1
102
RTVSPropertyOp43
 70
     1
102
RTVSPropertyOp44
 70
     1
102
RTVSPropertyOp45
 70
     1
102
RTVSPropertyOp46
 70
     1
102
RTVSPropertyOp47
 70
     1
102
RTVSPropertyOp48
 70
     1
102
RTVSPropertyOp49
 70
     1
102
RTVSPropertyOp50
 70
     1
102
RTVSPropertyOp51
 70
     0
102
RTVSPropertyOp52
 70
     0
102
RTVSPropertyOp53
 70
     1
102
RTVSPropertyOp54
 70
     1
102
RTVSPropertyOp55
 70
     1
102
RTVSPropertyOp56
 70
     1
102
RTVSPropertyOp57
 70
     1
102
RTVSPropertyOp58
 70
     1
102
RTVSPropertyOp59
 70
     1
102
RTVSPropertyOp60
 70
     1
102
RTVSPropertyOp61
 70
     1
102
RTVSPropertyOp62
 70
     1
  0
XRECORD
  5
7E5
102
{ACAD_REACTORS
330
7E4
102
}
330
7E4
100
AcDbXrecord
280
     1
102
RTVSPost2010Prop28
280
     0
102
RTVSPost2010PropOp28
 70
     1
102
RTVSPost2010Prop29
280
     1
102
RTVSPost2010PropOp29
 70
     1
102
RTVSPost2010Prop30
280
     1
102
RTVSPost2010PropOp30
 70
     1
102
RTVSPost2010Prop31
280
     0
102
RTVSPost2010PropOp31
 70
     1
102
RTVSPost2010Prop32
280
     0
102
RTVSPost2010PropOp32
 70
     1
102
RTVSPost2010Prop33
280
     0
102
RTVSPost2010PropOp33
 70
     1
102
RTVSPost2010Prop34
280
     0
102
RTVSPost2010PropOp34
 70
     1
102
RTVSPost2010Prop35
280
     0
102
RTVSPost2010PropOp35
 70
     1
102
RTVSPost2010Prop36
280
     0
102
RTVSPost2010PropOp36
 70
     1
102
RTVSPost2010Prop37
 90
       50
102
RTVSPost2010PropOp37
 70
     0
102
RTVSPost2010Prop38
140
0.0
102
RTVSPost2010PropOp38
 70
     0
102
RTVSPost2010Prop39
140
1.0
102
RTVSPost2010PropOp39
 70
     0
102
RTVSPost2010Prop40
 90
        0
102
RTVSPost2010PropOp40
 70
     0
102
RTVSPost2010Prop41ColorIndex
 90
       18
102
RTVSPost2010Prop41ColorRGB
 90
        0
102
RTVSPost2010PropOp41
 70
     0
102
RTVSPost2010Prop42
 90
       50
102
RTVSPost2010PropOp42
 70
     0
102
RTVSPost2010Prop43
 90
        3
102
RTVSPost2010PropOp43
 70
     0
102
RTVSPost2010Prop44ColorIndex
 90
        5
102
RTVSPost2010Prop44ColorRGB
 90
      255
102
RTVSPost2010PropOp44
 70
     0
102
RTVSPost2010Prop45
280
     0
102
RTVSPost2010PropOp45
 70
     1
102
RTVSPost2010Prop46
 90
       50
102
RTVSPost2010PropOp46
 70
     0
102
RTVSPost2010Prop47
 90
       50
102
RTVSPost2010PropOp47
 70
     0
102
RTVSPost2010Prop48
 90
       50
102
RTVSPost2010PropOp48
 70
     0
102
RTVSPost2010Prop49
280
     0
102
RTVSPost2010PropOp49
 70
     1
102
RTVSPost2010Prop50
 90
       50
102
RTVSPost2010PropOp50
 70
     0
102
RTVSPost2010Prop51ColorIndex
 90
      256
102
RTVSPost2010Prop51ColorRGB
 90
-16777216
102
RTVSPost2010PropOp51
 70
     0
102
RTVSPost2010Prop52
140
1.0
102
RTVSPost2010PropOp52
 70
     0
102
RTVSPost2010Prop53
 90
        2
102
RTVSPost2010PropOp53
 70
     0
102
RTVSPost2010Prop54
  1
strokes_ogs.tif
102
RTVSPost2010PropOp54
 70
     0
102
RTVSPost2010Prop55
280
     0
102
RTVSPost2010PropOp55
 70
     1
102
RTVSPost2010Prop56
140
1.0
102
RTVSPost2010PropOp56
 70
     0
102
RTVSPost2010Prop57
140
1.0
102
RTVSPost2010PropOp57
 70
     0
102
RTVSPropertyOp0
 70
     0
102
RTVSPropertyOp1
 70
     0
102
RTVSPropertyOp2
 70
     0
102
RTVSPropertyOp3
 70
     0
102
RTVSPropertyOp4
 70
     0
102
RTVSPropertyOp5
 70
     0
102
RTVSPropertyOp6
 70
     0
102
RTVSPropertyOp7
 70
     0
102
RTVSPropertyOp8
 70
     0
102
RTVSPropertyOp9
 70
     0
102
RTVSPropertyOp10
 70
     0
102
RTVSPropertyOp11
 70
     0
102
RTVSPropertyOp12
 70
     0
102
RTVSPropertyOp13
 70
     0
102
RTVSPropertyOp14
 70
     2
102
RTVSPropertyOp15
 70
     0
102
RTVSPropertyOp16
 70
     0
102
RTVSPropertyOp17
 70
     0
102
RTVSPropertyOp18
 70
     0
102
RTVSPropertyOp19
 70
     0
102
RTVSPropertyOp20
 70
     0
102
RTVSPropertyOp21
 70
     0
102
RTVSPropertyOp22
 70
     0
102
RTVSPropertyOp23
 70
     0
102
RTVSPropertyOp24
 70
     0
102
RTVSPropertyOp25
 70
     0
102
RTVSPropertyOp26
 70
     0
102
RTVSPropertyOp27
 70
     0
102
RTVSPropertyOp28
 70
     1
102
RTVSPropertyOp29
 70
     1
102
RTVSPropertyOp30
 70
     1
102
RTVSPropertyOp31
 70
     1
102
RTVSPropertyOp32
 70
     1
102
RTVSPropertyOp33
 70
     1
102
RTVSPropertyOp34
 70
     1
102
RTVSPropertyOp35
 70
     1
102
RTVSPropertyOp36
 70
     1
102
RTVSPropertyOp37
 70
     0
102
RTVSPropertyOp38
 70
     0
102
RTVSPropertyOp39
 70
     0
102
RTVSPropertyOp40
 70
     0
102
RTVSPropertyOp41
 70
     0
102
RTVSPropertyOp42
 70
     0
102
RTVSPropertyOp43
 70
     0
102
RTVSPropertyOp44
 70
     0
102
RTVSPropertyOp45
 70
     1
102
RTVSPropertyOp46
 70
     0
102
RTVSPropertyOp47
 70
     0
102
RTVSPropertyOp48
 70
     0
102
RTVSPropertyOp49
 70
     1
102
RTVSPropertyOp50
 70
     0
102
RTVSPropertyOp51
 70
     0
102
RTVSPropertyOp52
 70
     0
102
RTVSPropertyOp53
 70
     0
102
RTVSPropertyOp54
 70
     0
102
RTVSPropertyOp55
 70
     1
102
RTVSPropertyOp56
 70
     0
102
RTVSPropertyOp57
 70
     0
102
RTVSPropertyOp58
 70
     0
102
RTVSPropertyOp59
 70
     0
102
RTVSPropertyOp60
 70
     0
102
RTVSPropertyOp61
 70
     0
102
RTVSPropertyOp62
 70
     0
  0
XRECORD
  5
7D5
102
{ACAD_REACTORS
330
7D4
102
}
330
7D4
100
AcDbXrecord
280
     1
102
RTVSPost2010Prop28
280
     0
102
RTVSPost2010PropOp28
 70
     1
102
RTVSPost2010Prop29
280
     1
102
RTVSPost2010PropOp29
 70
     1
102
RTVSPost2010Prop30
280
     1
102
RTVSPost2010PropOp30
 70
     1
102
RTVSPost2010Prop31
280
     0
102
RTVSPost2010PropOp31
 70
     1
102
RTVSPost2010Prop32
280
     0
102
RTVSPost2010PropOp32
 70
     1
102
RTVSPost2010Prop33
280
     0
102
RTVSPost2010PropOp33
 70
     1
102
RTVSPost2010Prop34
280
     0
102
RTVSPost2010PropOp34
 70
     1
102
RTVSPost2010Prop35
280
     0
102
RTVSPost2010PropOp35
 70
     1
102
RTVSPost2010Prop36
280
     0
102
RTVSPost2010PropOp36
 70
     1
102
RTVSPost2010Prop37
 90
       50
102
RTVSPost2010PropOp37
 70
     1
102
RTVSPost2010Prop38
140
0.0
102
RTVSPost2010PropOp38
 70
     1
102
RTVSPost2010Prop39
140
1.0
102
RTVSPost2010PropOp39
 70
     1
102
RTVSPost2010Prop40
 90
        0
102
RTVSPost2010PropOp40
 70
     1
102
RTVSPost2010Prop41ColorIndex
 90
       18
102
RTVSPost2010Prop41ColorRGB
 90
        0
102
RTVSPost2010PropOp41
 70
     1
102
RTVSPost2010Prop42
 90
       50
102
RTVSPost2010PropOp42
 70
     1
102
RTVSPost2010Prop43
 90
        3
102
RTVSPost2010PropOp43
 70
     1
102
RTVSPost2010Prop44ColorIndex
 90
        5
102
RTVSPost2010Prop44ColorRGB
 90
      255
102
RTVSPost2010PropOp44
 70
     1
102
RTVSPost2010Prop45
280
     0
102
RTVSPost2010PropOp45
 70
     1
102
RTVSPost2010Prop46
 90
       50
102
RTVSPost2010PropOp46
 70
     1
102
RTVSPost2010Prop47
 90
       50
102
RTVSPost2010PropOp47
 70
     1
102
RTVSPost2010Prop48
 90
       50
102
RTVSPost2010PropOp48
 70
     1
102
RTVSPost2010Prop49
280
     0
102
RTVSPost2010PropOp49
 70
     1
102
RTVSPost2010Prop50
 90
       50
102
RTVSPost2010PropOp50
 70
     1
102
RTVSPost2010Prop51ColorIndex
 90
      256
102
RTVSPost2010Prop51ColorRGB
 90
-16777216
102
RTVSPost2010PropOp51
 70
     0
102
RTVSPost2010Prop52
140
1.0
102
RTVSPost2010PropOp52
 70
     0
102
RTVSPost2010Prop53
 90
        2
102
RTVSPost2010PropOp53
 70
     1
102
RTVSPost2010Prop54
  1
strokes_ogs.tif
102
RTVSPost2010PropOp54
 70
     1
102
RTVSPost2010Prop55
280
     0
102
RTVSPost2010PropOp55
 70
     1
102
RTVSPost2010Prop56
140
1.0
102
RTVSPost2010PropOp56
 70
     1
102
RTVSPost2010Prop57
140
1.0
102
RTVSPost2010PropOp57
 70
     1
102
RTVSPropertyOp0
 70
     1
102
RTVSPropertyOp1
 70
     1
102
RTVSPropertyOp2
 70
     1
102
RTVSPropertyOp3
 70
     1
102
RTVSPropertyOp4
 70
     1
102
RTVSPropertyOp5
 70
     1
102
RTVSPropertyOp6
 70
     1
102
RTVSPropertyOp7
 70
     1
102
RTVSPropertyOp8
 70
     1
102
RTVSPropertyOp9
 70
     1
102
RTVSPropertyOp10
 70
     1
102
RTVSPropertyOp11
 70
     1
102
RTVSPropertyOp12
 70
     1
102
RTVSPropertyOp13
 70
     1
102
RTVSPropertyOp14
 70
     1
102
RTVSPropertyOp15
 70
     1
102
RTVSPropertyOp16
 70
     1
102
RTVSPropertyOp17
 70
     1
102
RTVSPropertyOp18
 70
     1
102
RTVSPropertyOp19
 70
     1
102
RTVSPropertyOp20
 70
     1
102
RTVSPropertyOp21
 70
     1
102
RTVSPropertyOp22
 70
     1
102
RTVSPropertyOp23
 70
     1
102
RTVSPropertyOp24
 70
     1
102
RTVSPropertyOp25
 70
     1
102
RTVSPropertyOp26
 70
     1
102
RTVSPropertyOp27
 70
     1
102
RTVSPropertyOp28
 70
     1
102
RTVSPropertyOp29
 70
     1
102
RTVSPropertyOp30
 70
     1
102
RTVSPropertyOp31
 70
     1
102
RTVSPropertyOp32
 70
     1
102
RTVSPropertyOp33
 70
     1
102
RTVSPropertyOp34
 70
     1
102
RTVSPropertyOp35
 70
     1
102
RTVSPropertyOp36
 70
     1
102
RTVSPropertyOp37
 70
     1
102
RTVSPropertyOp38
 70
     1
102
RTVSPropertyOp39
 70
     1
102
RTVSPropertyOp40
 70
     1
102
RTVSPropertyOp41
 70
     1
102
RTVSPropertyOp42
 70
     1
102
RTVSPropertyOp43
 70
     1
102
RTVSPropertyOp44
 70
     1
102
RTVSPropertyOp45
 70
     1
102
RTVSPropertyOp46
 70
     1
102
RTVSPropertyOp47
 70
     1
102
RTVSPropertyOp48
 70
     1
102
RTVSPropertyOp49
 70
     1
102
RTVSPropertyOp50
 70
     1
102
RTVSPropertyOp51
 70
     0
102
RTVSPropertyOp52
 70
     0
102
RTVSPropertyOp53
 70
     1
102
RTVSPropertyOp54
 70
     1
102
RTVSPropertyOp55
 70
     1
102
RTVSPropertyOp56
 70
     1
102
RTVSPropertyOp57
 70
     1
102
RTVSPropertyOp58
 70
     1
102
RTVSPropertyOp59
 70
     1
102
RTVSPropertyOp60
 70
     1
102
RTVSPropertyOp61
 70
     1
102
RTVSPropertyOp62
 70
     1
  0
XRECORD
  5
7E7
102
{ACAD_REACTORS
330
7E6
102
}
330
7E6
100
AcDbXrecord
280
     1
102
RTVSPost2010Prop28
280
     0
102
RTVSPost2010PropOp28
 70
     1
102
RTVSPost2010Prop29
280
     1
102
RTVSPost2010PropOp29
 70
     1
102
RTVSPost2010Prop30
280
     1
102
RTVSPost2010PropOp30
 70
     1
102
RTVSPost2010Prop31
280
     0
102
RTVSPost2010PropOp31
 70
     1
102
RTVSPost2010Prop32
280
     0
102
RTVSPost2010PropOp32
 70
     1
102
RTVSPost2010Prop33
280
     0
102
RTVSPost2010PropOp33
 70
     1
102
RTVSPost2010Prop34
280
     0
102
RTVSPost2010PropOp34
 70
     1
102
RTVSPost2010Prop35
280
     0
102
RTVSPost2010PropOp35
 70
     1
102
RTVSPost2010Prop36
280
     0
102
RTVSPost2010PropOp36
 70
     1
102
RTVSPost2010Prop37
 90
       50
102
RTVSPost2010PropOp37
 70
     0
102
RTVSPost2010Prop38
140
0.0
102
RTVSPost2010PropOp38
 70
     0
102
RTVSPost2010Prop39
140
1.0
102
RTVSPost2010PropOp39
 70
     0
102
RTVSPost2010Prop40
 90
        0
102
RTVSPost2010PropOp40
 70
     0
102
RTVSPost2010Prop41ColorIndex
 90
       18
102
RTVSPost2010Prop41ColorRGB
 90
        0
102
RTVSPost2010PropOp41
 70
     0
102
RTVSPost2010Prop42
 90
       50
102
RTVSPost2010PropOp42
 70
     0
102
RTVSPost2010Prop43
 90
        3
102
RTVSPost2010PropOp43
 70
     0
102
RTVSPost2010Prop44ColorIndex
 90
        5
102
RTVSPost2010Prop44ColorRGB
 90
      255
102
RTVSPost2010PropOp44
 70
     0
102
RTVSPost2010Prop45
280
     0
102
RTVSPost2010PropOp45
 70
     1
102
RTVSPost2010Prop46
 90
       50
102
RTVSPost2010PropOp46
 70
     0
102
RTVSPost2010Prop47
 90
       50
102
RTVSPost2010PropOp47
 70
     0
102
RTVSPost2010Prop48
 90
       50
102
RTVSPost2010PropOp48
 70
     0
102
RTVSPost2010Prop49
280
     0
102
RTVSPost2010PropOp49
 70
     1
102
RTVSPost2010Prop50
 90
       50
102
RTVSPost2010PropOp50
 70
     0
102
RTVSPost2010Prop51ColorIndex
 90
      256
102
RTVSPost2010Prop51ColorRGB
 90
-16777216
102
RTVSPost2010PropOp51
 70
     0
102
RTVSPost2010Prop52
140
1.0
102
RTVSPost2010PropOp52
 70
     0
102
RTVSPost2010Prop53
 90
        2
102
RTVSPost2010PropOp53
 70
     0
102
RTVSPost2010Prop54
  1
strokes_ogs.tif
102
RTVSPost2010PropOp54
 70
     0
102
RTVSPost2010Prop55
280
     0
102
RTVSPost2010PropOp55
 70
     1
102
RTVSPost2010Prop56
140
1.0
102
RTVSPost2010PropOp56
 70
     0
102
RTVSPost2010Prop57
140
1.0
102
RTVSPost2010PropOp57
 70
     0
102
RTVSPropertyOp0
 70
     0
102
RTVSPropertyOp1
 70
     0
102
RTVSPropertyOp2
 70
     0
102
RTVSPropertyOp3
 70
     0
102
RTVSPropertyOp4
 70
     0
102
RTVSPropertyOp5
 70
     0
102
RTVSPropertyOp6
 70
     0
102
RTVSPropertyOp7
 70
     0
102
RTVSPropertyOp8
 70
     0
102
RTVSPropertyOp9
 70
     0
102
RTVSPropertyOp10
 70
     0
102
RTVSPropertyOp11
 70
     0
102
RTVSPropertyOp12
 70
     0
102
RTVSPropertyOp13
 70
     0
102
RTVSPropertyOp14
 70
     2
102
RTVSPropertyOp15
 70
     0
102
RTVSPropertyOp16
 70
     0
102
RTVSPropertyOp17
 70
     0
102
RTVSPropertyOp18
 70
     0
102
RTVSPropertyOp19
 70
     0
102
RTVSPropertyOp20
 70
     0
102
RTVSPropertyOp21
 70
     0
102
RTVSPropertyOp22
 70
     0
102
RTVSPropertyOp23
 70
     0
102
RTVSPropertyOp24
 70
     0
102
RTVSPropertyOp25
 70
     0
102
RTVSPropertyOp26
 70
     0
102
RTVSPropertyOp27
 70
     0
102
RTVSPropertyOp28
 70
     1
102
RTVSPropertyOp29
 70
     1
102
RTVSPropertyOp30
 70
     1
102
RTVSPropertyOp31
 70
     1
102
RTVSPropertyOp32
 70
     1
102
RTVSPropertyOp33
 70
     1
102
RTVSPropertyOp34
 70
     1
102
RTVSPropertyOp35
 70
     1
102
RTVSPropertyOp36
 70
     1
102
RTVSPropertyOp37
 70
     0
102
RTVSPropertyOp38
 70
     0
102
RTVSPropertyOp39
 70
     0
102
RTVSPropertyOp40
 70
     0
102
RTVSPropertyOp41
 70
     0
102
RTVSPropertyOp42
 70
     0
102
RTVSPropertyOp43
 70
     0
102
RTVSPropertyOp44
 70
     0
102
RTVSPropertyOp45
 70
     1
102
RTVSPropertyOp46
 70
     0
102
RTVSPropertyOp47
 70
     0
102
RTVSPropertyOp48
 70
     0
102
RTVSPropertyOp49
 70
     1
102
RTVSPropertyOp50
 70
     0
102
RTVSPropertyOp51
 70
     0
102
RTVSPropertyOp52
 70
     0
102
RTVSPropertyOp53
 70
     0
102
RTVSPropertyOp54
 70
     0
102
RTVSPropertyOp55
 70
     1
102
RTVSPropertyOp56
 70
     0
102
RTVSPropertyOp57
 70
     0
102
RTVSPropertyOp58
 70
     0
102
RTVSPropertyOp59
 70
     0
102
RTVSPropertyOp60
 70
     0
102
RTVSPropertyOp61
 70
     0
102
RTVSPropertyOp62
 70
     0
  0
XRECORD
  5
7CD
102
{ACAD_REACTORS
330
7CC
102
}
330
7CC
100
AcDbXrecord
280
     1
102
RTVSPost2010Prop28
280
     0
102
RTVSPost2010PropOp28
 70
     1
102
RTVSPost2010Prop29
280
     1
102
RTVSPost2010PropOp29
 70
     1
102
RTVSPost2010Prop30
280
     1
102
RTVSPost2010PropOp30
 70
     1
102
RTVSPost2010Prop31
280
     0
102
RTVSPost2010PropOp31
 70
     1
102
RTVSPost2010Prop32
280
     0
102
RTVSPost2010PropOp32
 70
     1
102
RTVSPost2010Prop33
280
     0
102
RTVSPost2010PropOp33
 70
     1
102
RTVSPost2010Prop34
280
     0
102
RTVSPost2010PropOp34
 70
     1
102
RTVSPost2010Prop35
280
     0
102
RTVSPost2010PropOp35
 70
     1
102
RTVSPost2010Prop36
280
     0
102
RTVSPost2010PropOp36
 70
     1
102
RTVSPost2010Prop37
 90
       50
102
RTVSPost2010PropOp37
 70
     1
102
RTVSPost2010Prop38
140
0.0
102
RTVSPost2010PropOp38
 70
     1
102
RTVSPost2010Prop39
140
1.0
102
RTVSPost2010PropOp39
 70
     1
102
RTVSPost2010Prop40
 90
        0
102
RTVSPost2010PropOp40
 70
     1
102
RTVSPost2010Prop41ColorIndex
 90
       18
102
RTVSPost2010Prop41ColorRGB
 90
        0
102
RTVSPost2010PropOp41
 70
     1
102
RTVSPost2010Prop42
 90
       50
102
RTVSPost2010PropOp42
 70
     1
102
RTVSPost2010Prop43
 90
        3
102
RTVSPost2010PropOp43
 70
     1
102
RTVSPost2010Prop44ColorIndex
 90
        5
102
RTVSPost2010Prop44ColorRGB
 90
      255
102
RTVSPost2010PropOp44
 70
     1
102
RTVSPost2010Prop45
280
     0
102
RTVSPost2010PropOp45
 70
     1
102
RTVSPost2010Prop46
 90
       50
102
RTVSPost2010PropOp46
 70
     1
102
RTVSPost2010Prop47
 90
       50
102
RTVSPost2010PropOp47
 70
     1
102
RTVSPost2010Prop48
 90
       50
102
RTVSPost2010PropOp48
 70
     1
102
RTVSPost2010Prop49
280
     0
102
RTVSPost2010PropOp49
 70
     1
102
RTVSPost2010Prop50
 90
       50
102
RTVSPost2010PropOp50
 70
     1
102
RTVSPost2010Prop51ColorIndex
 90
      256
102
RTVSPost2010Prop51ColorRGB
 90
-16777216
102
RTVSPost2010PropOp51
 70
     0
102
RTVSPost2010Prop52
140
1.0
102
RTVSPost2010PropOp52
 70
     0
102
RTVSPost2010Prop53
 90
        2
102
RTVSPost2010PropOp53
 70
     1
102
RTVSPost2010Prop54
  1
strokes_ogs.tif
102
RTVSPost2010PropOp54
 70
     1
102
RTVSPost2010Prop55
280
     0
102
RTVSPost2010PropOp55
 70
     1
102
RTVSPost2010Prop56
140
1.0
102
RTVSPost2010PropOp56
 70
     1
102
RTVSPost2010Prop57
140
1.0
102
RTVSPost2010PropOp57
 70
     1
102
RTVSPropertyOp0
 70
     1
102
RTVSPropertyOp1
 70
     1
102
RTVSPropertyOp2
 70
     1
102
RTVSPropertyOp3
 70
     1
102
RTVSPropertyOp4
 70
     1
102
RTVSPropertyOp5
 70
     1
102
RTVSPropertyOp6
 70
     1
102
RTVSPropertyOp7
 70
     1
102
RTVSPropertyOp8
 70
     1
102
RTVSPropertyOp9
 70
     1
102
RTVSPropertyOp10
 70
     1
102
RTVSPropertyOp11
 70
     1
102
RTVSPropertyOp12
 70
     1
102
RTVSPropertyOp13
 70
     1
102
RTVSPropertyOp14
 70
     1
102
RTVSPropertyOp15
 70
     1
102
RTVSPropertyOp16
 70
     1
102
RTVSPropertyOp17
 70
     1
102
RTVSPropertyOp18
 70
     1
102
RTVSPropertyOp19
 70
     1
102
RTVSPropertyOp20
 70
     1
102
RTVSPropertyOp21
 70
     1
102
RTVSPropertyOp22
 70
     1
102
RTVSPropertyOp23
 70
     1
102
RTVSPropertyOp24
 70
     1
102
RTVSPropertyOp25
 70
     1
102
RTVSPropertyOp26
 70
     1
102
RTVSPropertyOp27
 70
     1
102
RTVSPropertyOp28
 70
     1
102
RTVSPropertyOp29
 70
     1
102
RTVSPropertyOp30
 70
     1
102
RTVSPropertyOp31
 70
     1
102
RTVSPropertyOp32
 70
     1
102
RTVSPropertyOp33
 70
     1
102
RTVSPropertyOp34
 70
     1
102
RTVSPropertyOp35
 70
     1
102
RTVSPropertyOp36
 70
     1
102
RTVSPropertyOp37
 70
     1
102
RTVSPropertyOp38
 70
     1
102
RTVSPropertyOp39
 70
     1
102
RTVSPropertyOp40
 70
     1
102
RTVSPropertyOp41
 70
     1
102
RTVSPropertyOp42
 70
     1
102
RTVSPropertyOp43
 70
     1
102
RTVSPropertyOp44
 70
     1
102
RTVSPropertyOp45
 70
     1
102
RTVSPropertyOp46
 70
     1
102
RTVSPropertyOp47
 70
     1
102
RTVSPropertyOp48
 70
     1
102
RTVSPropertyOp49
 70
     1
102
RTVSPropertyOp50
 70
     1
102
RTVSPropertyOp51
 70
     0
102
RTVSPropertyOp52
 70
     0
102
RTVSPropertyOp53
 70
     1
102
RTVSPropertyOp54
 70
     1
102
RTVSPropertyOp55
 70
     1
102
RTVSPropertyOp56
 70
     1
102
RTVSPropertyOp57
 70
     1
102
RTVSPropertyOp58
 70
     1
102
RTVSPropertyOp59
 70
     1
102
RTVSPropertyOp60
 70
     1
102
RTVSPropertyOp61
 70
     1
102
RTVSPropertyOp62
 70
     1
  0
XRECORD
  5
7E3
102
{ACAD_REACTORS
330
7E2
102
}
330
7E2
100
AcDbXrecord
280
     1
102
RTVSPost2010Prop28
280
     0
102
RTVSPost2010PropOp28
 70
     1
102
RTVSPost2010Prop29
280
     1
102
RTVSPost2010PropOp29
 70
     1
102
RTVSPost2010Prop30
280
     1
102
RTVSPost2010PropOp30
 70
     1
102
RTVSPost2010Prop31
280
     0
102
RTVSPost2010PropOp31
 70
     1
102
RTVSPost2010Prop32
280
     0
102
RTVSPost2010PropOp32
 70
     1
102
RTVSPost2010Prop33
280
     0
102
RTVSPost2010PropOp33
 70
     1
102
RTVSPost2010Prop34
280
     0
102
RTVSPost2010PropOp34
 70
     1
102
RTVSPost2010Prop35
280
     0
102
RTVSPost2010PropOp35
 70
     1
102
RTVSPost2010Prop36
280
     0
102
RTVSPost2010PropOp36
 70
     1
102
RTVSPost2010Prop37
 90
       50
102
RTVSPost2010PropOp37
 70
     1
102
RTVSPost2010Prop38
140
0.0
102
RTVSPost2010PropOp38
 70
     1
102
RTVSPost2010Prop39
140
1.0
102
RTVSPost2010PropOp39
 70
     1
102
RTVSPost2010Prop40
 90
        0
102
RTVSPost2010PropOp40
 70
     1
102
RTVSPost2010Prop41ColorIndex
 90
       18
102
RTVSPost2010Prop41ColorRGB
 90
        0
102
RTVSPost2010PropOp41
 70
     1
102
RTVSPost2010Prop42
 90
       50
102
RTVSPost2010PropOp42
 70
     1
102
RTVSPost2010Prop43
 90
        3
102
RTVSPost2010PropOp43
 70
     1
102
RTVSPost2010Prop44ColorIndex
 90
        5
102
RTVSPost2010Prop44ColorRGB
 90
      255
102
RTVSPost2010PropOp44
 70
     1
102
RTVSPost2010Prop45
280
     0
102
RTVSPost2010PropOp45
 70
     1
102
RTVSPost2010Prop46
 90
       50
102
RTVSPost2010PropOp46
 70
     1
102
RTVSPost2010Prop47
 90
       50
102
RTVSPost2010PropOp47
 70
     1
102
RTVSPost2010Prop48
 90
       50
102
RTVSPost2010PropOp48
 70
     1
102
RTVSPost2010Prop49
280
     0
102
RTVSPost2010PropOp49
 70
     1
102
RTVSPost2010Prop50
 90
       50
102
RTVSPost2010PropOp50
 70
     1
102
RTVSPost2010Prop51ColorIndex
 90
      256
102
RTVSPost2010Prop51ColorRGB
 90
-16777216
102
RTVSPost2010PropOp51
 70
     0
102
RTVSPost2010Prop52
140
1.0
102
RTVSPost2010PropOp52
 70
     0
102
RTVSPost2010Prop53
 90
        2
102
RTVSPost2010PropOp53
 70
     1
102
RTVSPost2010Prop54
  1
strokes_ogs.tif
102
RTVSPost2010PropOp54
 70
     1
102
RTVSPost2010Prop55
280
     0
102
RTVSPost2010PropOp55
 70
     1
102
RTVSPost2010Prop56
140
1.0
102
RTVSPost2010PropOp56
 70
     1
102
RTVSPost2010Prop57
140
1.0
102
RTVSPost2010PropOp57
 70
     1
102
RTVSPropertyOp0
 70
     1
102
RTVSPropertyOp1
 70
     1
102
RTVSPropertyOp2
 70
     1
102
RTVSPropertyOp3
 70
     1
102
RTVSPropertyOp4
 70
     1
102
RTVSPropertyOp5
 70
     1
102
RTVSPropertyOp6
 70
     1
102
RTVSPropertyOp7
 70
     1
102
RTVSPropertyOp8
 70
     1
102
RTVSPropertyOp9
 70
     1
102
RTVSPropertyOp10
 70
     1
102
RTVSPropertyOp11
 70
     1
102
RTVSPropertyOp12
 70
     1
102
RTVSPropertyOp13
 70
     1
102
RTVSPropertyOp14
 70
     1
102
RTVSPropertyOp15
 70
     1
102
RTVSPropertyOp16
 70
     1
102
RTVSPropertyOp17
 70
     1
102
RTVSPropertyOp18
 70
     1
102
RTVSPropertyOp19
 70
     1
102
RTVSPropertyOp20
 70
     1
102
RTVSPropertyOp21
 70
     1
102
RTVSPropertyOp22
 70
     1
102
RTVSPropertyOp23
 70
     1
102
RTVSPropertyOp24
 70
     1
102
RTVSPropertyOp25
 70
     1
102
RTVSPropertyOp26
 70
     1
102
RTVSPropertyOp27
 70
     1
102
RTVSPropertyOp28
 70
     1
102
RTVSPropertyOp29
 70
     1
102
RTVSPropertyOp30
 70
     1
102
RTVSPropertyOp31
 70
     1
102
RTVSPropertyOp32
 70
     1
102
RTVSPropertyOp33
 70
     1
102
RTVSPropertyOp34
 70
     1
102
RTVSPropertyOp35
 70
     1
102
RTVSPropertyOp36
 70
     1
102
RTVSPropertyOp37
 70
     1
102
RTVSPropertyOp38
 70
     1
102
RTVSPropertyOp39
 70
     1
102
RTVSPropertyOp40
 70
     1
102
RTVSPropertyOp41
 70
     1
102
RTVSPropertyOp42
 70
     1
102
RTVSPropertyOp43
 70
     1
102
RTVSPropertyOp44
 70
     1
102
RTVSPropertyOp45
 70
     1
102
RTVSPropertyOp46
 70
     1
102
RTVSPropertyOp47
 70
     1
102
RTVSPropertyOp48
 70
     1
102
RTVSPropertyOp49
 70
     1
102
RTVSPropertyOp50
 70
     1
102
RTVSPropertyOp51
 70
     0
102
RTVSPropertyOp52
 70
     0
102
RTVSPropertyOp53
 70
     1
102
RTVSPropertyOp54
 70
     1
102
RTVSPropertyOp55
 70
     1
102
RTVSPropertyOp56
 70
     1
102
RTVSPropertyOp57
 70
     1
102
RTVSPropertyOp58
 70
     1
102
RTVSPropertyOp59
 70
     1
102
RTVSPropertyOp60
 70
     1
102
RTVSPropertyOp61
 70
     1
102
RTVSPropertyOp62
 70
     1
  0
XRECORD
  5
7E1
102
{ACAD_REACTORS
330
7E0
102
}
330
7E0
100
AcDbXrecord
280
     1
102
RTVSPost2010Prop28
280
     0
102
RTVSPost2010PropOp28
 70
     1
102
RTVSPost2010Prop29
280
     1
102
RTVSPost2010PropOp29
 70
     1
102
RTVSPost2010Prop30
280
     1
102
RTVSPost2010PropOp30
 70
     1
102
RTVSPost2010Prop31
280
     0
102
RTVSPost2010PropOp31
 70
     1
102
RTVSPost2010Prop32
280
     0
102
RTVSPost2010PropOp32
 70
     1
102
RTVSPost2010Prop33
280
     0
102
RTVSPost2010PropOp33
 70
     1
102
RTVSPost2010Prop34
280
     0
102
RTVSPost2010PropOp34
 70
     1
102
RTVSPost2010Prop35
280
     0
102
RTVSPost2010PropOp35
 70
     1
102
RTVSPost2010Prop36
280
     0
102
RTVSPost2010PropOp36
 70
     1
102
RTVSPost2010Prop37
 90
       50
102
RTVSPost2010PropOp37
 70
     1
102
RTVSPost2010Prop38
140
0.0
102
RTVSPost2010PropOp38
 70
     1
102
RTVSPost2010Prop39
140
1.0
102
RTVSPost2010PropOp39
 70
     1
102
RTVSPost2010Prop40
 90
        0
102
RTVSPost2010PropOp40
 70
     1
102
RTVSPost2010Prop41ColorIndex
 90
       18
102
RTVSPost2010Prop41ColorRGB
 90
        0
102
RTVSPost2010PropOp41
 70
     1
102
RTVSPost2010Prop42
 90
       50
102
RTVSPost2010PropOp42
 70
     1
102
RTVSPost2010Prop43
 90
        3
102
RTVSPost2010PropOp43
 70
     1
102
RTVSPost2010Prop44ColorIndex
 90
        5
102
RTVSPost2010Prop44ColorRGB
 90
      255
102
RTVSPost2010PropOp44
 70
     1
102
RTVSPost2010Prop45
280
     0
102
RTVSPost2010PropOp45
 70
     1
102
RTVSPost2010Prop46
 90
       50
102
RTVSPost2010PropOp46
 70
     1
102
RTVSPost2010Prop47
 90
       50
102
RTVSPost2010PropOp47
 70
     1
102
RTVSPost2010Prop48
 90
       50
102
RTVSPost2010PropOp48
 70
     1
102
RTVSPost2010Prop49
280
     0
102
RTVSPost2010PropOp49
 70
     1
102
RTVSPost2010Prop50
 90
       50
102
RTVSPost2010PropOp50
 70
     1
102
RTVSPost2010Prop51ColorIndex
 90
      256
102
RTVSPost2010Prop51ColorRGB
 90
-16777216
102
RTVSPost2010PropOp51
 70
     0
102
RTVSPost2010Prop52
140
1.0
102
RTVSPost2010PropOp52
 70
     0
102
RTVSPost2010Prop53
 90
        2
102
RTVSPost2010PropOp53
 70
     1
102
RTVSPost2010Prop54
  1
strokes_ogs.tif
102
RTVSPost2010PropOp54
 70
     1
102
RTVSPost2010Prop55
280
     0
102
RTVSPost2010PropOp55
 70
     1
102
RTVSPost2010Prop56
140
1.0
102
RTVSPost2010PropOp56
 70
     1
102
RTVSPost2010Prop57
140
1.0
102
RTVSPost2010PropOp57
 70
     1
102
RTVSPropertyOp0
 70
     1
102
RTVSPropertyOp1
 70
     1
102
RTVSPropertyOp2
 70
     1
102
RTVSPropertyOp3
 70
     1
102
RTVSPropertyOp4
 70
     1
102
RTVSPropertyOp5
 70
     1
102
RTVSPropertyOp6
 70
     1
102
RTVSPropertyOp7
 70
     1
102
RTVSPropertyOp8
 70
     1
102
RTVSPropertyOp9
 70
     1
102
RTVSPropertyOp10
 70
     1
102
RTVSPropertyOp11
 70
     1
102
RTVSPropertyOp12
 70
     1
102
RTVSPropertyOp13
 70
     1
102
RTVSPropertyOp14
 70
     1
102
RTVSPropertyOp15
 70
     1
102
RTVSPropertyOp16
 70
     1
102
RTVSPropertyOp17
 70
     1
102
RTVSPropertyOp18
 70
     1
102
RTVSPropertyOp19
 70
     1
102
RTVSPropertyOp20
 70
     1
102
RTVSPropertyOp21
 70
     1
102
RTVSPropertyOp22
 70
     1
102
RTVSPropertyOp23
 70
     1
102
RTVSPropertyOp24
 70
     1
102
RTVSPropertyOp25
 70
     1
102
RTVSPropertyOp26
 70
     1
102
RTVSPropertyOp27
 70
     1
102
RTVSPropertyOp28
 70
     1
102
RTVSPropertyOp29
 70
     1
102
RTVSPropertyOp30
 70
     1
102
RTVSPropertyOp31
 70
     1
102
RTVSPropertyOp32
 70
     1
102
RTVSPropertyOp33
 70
     1
102
RTVSPropertyOp34
 70
     1
102
RTVSPropertyOp35
 70
     1
102
RTVSPropertyOp36
 70
     1
102
RTVSPropertyOp37
 70
     1
102
RTVSPropertyOp38
 70
     1
102
RTVSPropertyOp39
 70
     1
102
RTVSPropertyOp40
 70
     1
102
RTVSPropertyOp41
 70
     1
102
RTVSPropertyOp42
 70
     1
102
RTVSPropertyOp43
 70
     1
102
RTVSPropertyOp44
 70
     1
102
RTVSPropertyOp45
 70
     1
102
RTVSPropertyOp46
 70
     1
102
RTVSPropertyOp47
 70
     1
102
RTVSPropertyOp48
 70
     1
102
RTVSPropertyOp49
 70
     1
102
RTVSPropertyOp50
 70
     1
102
RTVSPropertyOp51
 70
     0
102
RTVSPropertyOp52
 70
     0
102
RTVSPropertyOp53
 70
     1
102
RTVSPropertyOp54
 70
     1
102
RTVSPropertyOp55
 70
     1
102
RTVSPropertyOp56
 70
     1
102
RTVSPropertyOp57
 70
     1
102
RTVSPropertyOp58
 70
     1
102
RTVSPropertyOp59
 70
     1
102
RTVSPropertyOp60
 70
     1
102
RTVSPropertyOp61
 70
     1
102
RTVSPropertyOp62
 70
     1
  0
XRECORD
  5
7DB
102
{ACAD_REACTORS
330
7DA
102
}
330
7DA
100
AcDbXrecord
280
     1
102
RTVSPost2010Prop28
280
     0
102
RTVSPost2010PropOp28
 70
     1
102
RTVSPost2010Prop29
280
     1
102
RTVSPost2010PropOp29
 70
     1
102
RTVSPost2010Prop30
280
     1
102
RTVSPost2010PropOp30
 70
     1
102
RTVSPost2010Prop31
280
     0
102
RTVSPost2010PropOp31
 70
     1
102
RTVSPost2010Prop32
280
     0
102
RTVSPost2010PropOp32
 70
     1
102
RTVSPost2010Prop33
280
     0
102
RTVSPost2010PropOp33
 70
     1
102
RTVSPost2010Prop34
280
     0
102
RTVSPost2010PropOp34
 70
     1
102
RTVSPost2010Prop35
280
     0
102
RTVSPost2010PropOp35
 70
     1
102
RTVSPost2010Prop36
280
     0
102
RTVSPost2010PropOp36
 70
     1
102
RTVSPost2010Prop37
 90
       50
102
RTVSPost2010PropOp37
 70
     1
102
RTVSPost2010Prop38
140
0.0
102
RTVSPost2010PropOp38
 70
     1
102
RTVSPost2010Prop39
140
1.0
102
RTVSPost2010PropOp39
 70
     1
102
RTVSPost2010Prop40
 90
        0
102
RTVSPost2010PropOp40
 70
     1
102
RTVSPost2010Prop41ColorIndex
 90
       18
102
RTVSPost2010Prop41ColorRGB
 90
        0
102
RTVSPost2010PropOp41
 70
     1
102
RTVSPost2010Prop42
 90
       50
102
RTVSPost2010PropOp42
 70
     1
102
RTVSPost2010Prop43
 90
        3
102
RTVSPost2010PropOp43
 70
     1
102
RTVSPost2010Prop44ColorIndex
 90
        5
102
RTVSPost2010Prop44ColorRGB
 90
      255
102
RTVSPost2010PropOp44
 70
     1
102
RTVSPost2010Prop45
280
     0
102
RTVSPost2010PropOp45
 70
     1
102
RTVSPost2010Prop46
 90
       50
102
RTVSPost2010PropOp46
 70
     1
102
RTVSPost2010Prop47
 90
       50
102
RTVSPost2010PropOp47
 70
     1
102
RTVSPost2010Prop48
 90
       50
102
RTVSPost2010PropOp48
 70
     1
102
RTVSPost2010Prop49
280
     0
102
RTVSPost2010PropOp49
 70
     1
102
RTVSPost2010Prop50
 90
       50
102
RTVSPost2010PropOp50
 70
     1
102
RTVSPost2010Prop51ColorIndex
 90
      256
102
RTVSPost2010Prop51ColorRGB
 90
-16777216
102
RTVSPost2010PropOp51
 70
     0
102
RTVSPost2010Prop52
140
1.0
102
RTVSPost2010PropOp52
 70
     0
102
RTVSPost2010Prop53
 90
        2
102
RTVSPost2010PropOp53
 70
     1
102
RTVSPost2010Prop54
  1
strokes_ogs.tif
102
RTVSPost2010PropOp54
 70
     1
102
RTVSPost2010Prop55
280
     0
102
RTVSPost2010PropOp55
 70
     1
102
RTVSPost2010Prop56
140
1.0
102
RTVSPost2010PropOp56
 70
     1
102
RTVSPost2010Prop57
140
1.0
102
RTVSPost2010PropOp57
 70
     1
102
RTVSPropertyOp0
 70
     1
102
RTVSPropertyOp1
 70
     1
102
RTVSPropertyOp2
 70
     1
102
RTVSPropertyOp3
 70
     1
102
RTVSPropertyOp4
 70
     1
102
RTVSPropertyOp5
 70
     1
102
RTVSPropertyOp6
 70
     1
102
RTVSPropertyOp7
 70
     1
102
RTVSPropertyOp8
 70
     1
102
RTVSPropertyOp9
 70
     1
102
RTVSPropertyOp10
 70
     1
102
RTVSPropertyOp11
 70
     1
102
RTVSPropertyOp12
 70
     1
102
RTVSPropertyOp13
 70
     1
102
RTVSPropertyOp14
 70
     1
102
RTVSPropertyOp15
 70
     1
102
RTVSPropertyOp16
 70
     1
102
RTVSPropertyOp17
 70
     1
102
RTVSPropertyOp18
 70
     1
102
RTVSPropertyOp19
 70
     1
102
RTVSPropertyOp20
 70
     1
102
RTVSPropertyOp21
 70
     1
102
RTVSPropertyOp22
 70
     1
102
RTVSPropertyOp23
 70
     1
102
RTVSPropertyOp24
 70
     1
102
RTVSPropertyOp25
 70
     1
102
RTVSPropertyOp26
 70
     1
102
RTVSPropertyOp27
 70
     1
102
RTVSPropertyOp28
 70
     1
102
RTVSPropertyOp29
 70
     1
102
RTVSPropertyOp30
 70
     1
102
RTVSPropertyOp31
 70
     1
102
RTVSPropertyOp32
 70
     1
102
RTVSPropertyOp33
 70
     1
102
RTVSPropertyOp34
 70
     1
102
RTVSPropertyOp35
 70
     1
102
RTVSPropertyOp36
 70
     1
102
RTVSPropertyOp37
 70
     1
102
RTVSPropertyOp38
 70
     1
102
RTVSPropertyOp39
 70
     1
102
RTVSPropertyOp40
 70
     1
102
RTVSPropertyOp41
 70
     1
102
RTVSPropertyOp42
 70
     1
102
RTVSPropertyOp43
 70
     1
102
RTVSPropertyOp44
 70
     1
102
RTVSPropertyOp45
 70
     1
102
RTVSPropertyOp46
 70
     1
102
RTVSPropertyOp47
 70
     1
102
RTVSPropertyOp48
 70
     1
102
RTVSPropertyOp49
 70
     1
102
RTVSPropertyOp50
 70
     1
102
RTVSPropertyOp51
 70
     0
102
RTVSPropertyOp52
 70
     0
102
RTVSPropertyOp53
 70
     1
102
RTVSPropertyOp54
 70
     1
102
RTVSPropertyOp55
 70
     1
102
RTVSPropertyOp56
 70
     1
102
RTVSPropertyOp57
 70
     1
102
RTVSPropertyOp58
 70
     1
102
RTVSPropertyOp59
 70
     1
102
RTVSPropertyOp60
 70
     1
102
RTVSPropertyOp61
 70
     1
102
RTVSPropertyOp62
 70
     1
  0
XRECORD
  5
7DD
102
{ACAD_REACTORS
330
7DC
102
}
330
7DC
100
AcDbXrecord
280
     1
102
RTVSPost2010Prop28
280
     0
102
RTVSPost2010PropOp28
 70
     1
102
RTVSPost2010Prop29
280
     1
102
RTVSPost2010PropOp29
 70
     1
102
RTVSPost2010Prop30
280
     1
102
RTVSPost2010PropOp30
 70
     1
102
RTVSPost2010Prop31
280
     0
102
RTVSPost2010PropOp31
 70
     1
102
RTVSPost2010Prop32
280
     0
102
RTVSPost2010PropOp32
 70
     1
102
RTVSPost2010Prop33
280
     0
102
RTVSPost2010PropOp33
 70
     1
102
RTVSPost2010Prop34
280
     0
102
RTVSPost2010PropOp34
 70
     1
102
RTVSPost2010Prop35
280
     0
102
RTVSPost2010PropOp35
 70
     1
102
RTVSPost2010Prop36
280
     0
102
RTVSPost2010PropOp36
 70
     1
102
RTVSPost2010Prop37
 90
       50
102
RTVSPost2010PropOp37
 70
     1
102
RTVSPost2010Prop38
140
0.0
102
RTVSPost2010PropOp38
 70
     1
102
RTVSPost2010Prop39
140
1.0
102
RTVSPost2010PropOp39
 70
     1
102
RTVSPost2010Prop40
 90
        0
102
RTVSPost2010PropOp40
 70
     1
102
RTVSPost2010Prop41ColorIndex
 90
       18
102
RTVSPost2010Prop41ColorRGB
 90
        0
102
RTVSPost2010PropOp41
 70
     1
102
RTVSPost2010Prop42
 90
       50
102
RTVSPost2010PropOp42
 70
     1
102
RTVSPost2010Prop43
 90
        3
102
RTVSPost2010PropOp43
 70
     1
102
RTVSPost2010Prop44ColorIndex
 90
        5
102
RTVSPost2010Prop44ColorRGB
 90
      255
102
RTVSPost2010PropOp44
 70
     1
102
RTVSPost2010Prop45
280
     0
102
RTVSPost2010PropOp45
 70
     1
102
RTVSPost2010Prop46
 90
       50
102
RTVSPost2010PropOp46
 70
     1
102
RTVSPost2010Prop47
 90
       50
102
RTVSPost2010PropOp47
 70
     1
102
RTVSPost2010Prop48
 90
       50
102
RTVSPost2010PropOp48
 70
     1
102
RTVSPost2010Prop49
280
     0
102
RTVSPost2010PropOp49
 70
     1
102
RTVSPost2010Prop50
 90
       50
102
RTVSPost2010PropOp50
 70
     1
102
RTVSPost2010Prop51ColorIndex
 90
      256
102
RTVSPost2010Prop51ColorRGB
 90
-16777216
102
RTVSPost2010PropOp51
 70
     0
102
RTVSPost2010Prop52
140
1.0
102
RTVSPost2010PropOp52
 70
     0
102
RTVSPost2010Prop53
 90
        2
102
RTVSPost2010PropOp53
 70
     1
102
RTVSPost2010Prop54
  1
strokes_ogs.tif
102
RTVSPost2010PropOp54
 70
     1
102
RTVSPost2010Prop55
280
     0
102
RTVSPost2010PropOp55
 70
     1
102
RTVSPost2010Prop56
140
1.0
102
RTVSPost2010PropOp56
 70
     1
102
RTVSPost2010Prop57
140
1.0
102
RTVSPost2010PropOp57
 70
     1
102
RTVSPropertyOp0
 70
     1
102
RTVSPropertyOp1
 70
     1
102
RTVSPropertyOp2
 70
     1
102
RTVSPropertyOp3
 70
     1
102
RTVSPropertyOp4
 70
     1
102
RTVSPropertyOp5
 70
     1
102
RTVSPropertyOp6
 70
     1
102
RTVSPropertyOp7
 70
     1
102
RTVSPropertyOp8
 70
     1
102
RTVSPropertyOp9
 70
     1
102
RTVSPropertyOp10
 70
     1
102
RTVSPropertyOp11
 70
     1
102
RTVSPropertyOp12
 70
     1
102
RTVSPropertyOp13
 70
     1
102
RTVSPropertyOp14
 70
     1
102
RTVSPropertyOp15
 70
     1
102
RTVSPropertyOp16
 70
     1
102
RTVSPropertyOp17
 70
     1
102
RTVSPropertyOp18
 70
     1
102
RTVSPropertyOp19
 70
     1
102
RTVSPropertyOp20
 70
     1
102
RTVSPropertyOp21
 70
     1
102
RTVSPropertyOp22
 70
     1
102
RTVSPropertyOp23
 70
     1
102
RTVSPropertyOp24
 70
     1
102
RTVSPropertyOp25
 70
     1
102
RTVSPropertyOp26
 70
     1
102
RTVSPropertyOp27
 70
     1
102
RTVSPropertyOp28
 70
     1
102
RTVSPropertyOp29
 70
     1
102
RTVSPropertyOp30
 70
     1
102
RTVSPropertyOp31
 70
     1
102
RTVSPropertyOp32
 70
     1
102
RTVSPropertyOp33
 70
     1
102
RTVSPropertyOp34
 70
     1
102
RTVSPropertyOp35
 70
     1
102
RTVSPropertyOp36
 70
     1
102
RTVSPropertyOp37
 70
     1
102
RTVSPropertyOp38
 70
     1
102
RTVSPropertyOp39
 70
     1
102
RTVSPropertyOp40
 70
     1
102
RTVSPropertyOp41
 70
     1
102
RTVSPropertyOp42
 70
     1
102
RTVSPropertyOp43
 70
     1
102
RTVSPropertyOp44
 70
     1
102
RTVSPropertyOp45
 70
     1
102
RTVSPropertyOp46
 70
     1
102
RTVSPropertyOp47
 70
     1
102
RTVSPropertyOp48
 70
     1
102
RTVSPropertyOp49
 70
     1
102
RTVSPropertyOp50
 70
     1
102
RTVSPropertyOp51
 70
     0
102
RTVSPropertyOp52
 70
     0
102
RTVSPropertyOp53
 70
     1
102
RTVSPropertyOp54
 70
     1
102
RTVSPropertyOp55
 70
     1
102
RTVSPropertyOp56
 70
     1
102
RTVSPropertyOp57
 70
     1
102
RTVSPropertyOp58
 70
     1
102
RTVSPropertyOp59
 70
     1
102
RTVSPropertyOp60
 70
     1
102
RTVSPropertyOp61
 70
     1
102
RTVSPropertyOp62
 70
     1
  0
XRECORD
  5
7D3
102
{ACAD_REACTORS
330
7D2
102
}
330
7D2
100
AcDbXrecord
280
     1
102
RTVSPost2010Prop28
280
     0
102
RTVSPost2010PropOp28
 70
     1
102
RTVSPost2010Prop29
280
     1
102
RTVSPost2010PropOp29
 70
     1
102
RTVSPost2010Prop30
280
     1
102
RTVSPost2010PropOp30
 70
     1
102
RTVSPost2010Prop31
280
     0
102
RTVSPost2010PropOp31
 70
     1
102
RTVSPost2010Prop32
280
     0
102
RTVSPost2010PropOp32
 70
     1
102
RTVSPost2010Prop33
280
     0
102
RTVSPost2010PropOp33
 70
     1
102
RTVSPost2010Prop34
280
     0
102
RTVSPost2010PropOp34
 70
     1
102
RTVSPost2010Prop35
280
     0
102
RTVSPost2010PropOp35
 70
     1
102
RTVSPost2010Prop36
280
     0
102
RTVSPost2010PropOp36
 70
     1
102
RTVSPost2010Prop37
 90
       50
102
RTVSPost2010PropOp37
 70
     1
102
RTVSPost2010Prop38
140
0.0
102
RTVSPost2010PropOp38
 70
     1
102
RTVSPost2010Prop39
140
1.0
102
RTVSPost2010PropOp39
 70
     1
102
RTVSPost2010Prop40
 90
        0
102
RTVSPost2010PropOp40
 70
     1
102
RTVSPost2010Prop41ColorIndex
 90
       18
102
RTVSPost2010Prop41ColorRGB
 90
        0
102
RTVSPost2010PropOp41
 70
     1
102
RTVSPost2010Prop42
 90
       50
102
RTVSPost2010PropOp42
 70
     1
102
RTVSPost2010Prop43
 90
        3
102
RTVSPost2010PropOp43
 70
     1
102
RTVSPost2010Prop44ColorIndex
 90
        5
102
RTVSPost2010Prop44ColorRGB
 90
      255
102
RTVSPost2010PropOp44
 70
     1
102
RTVSPost2010Prop45
280
     0
102
RTVSPost2010PropOp45
 70
     1
102
RTVSPost2010Prop46
 90
       50
102
RTVSPost2010PropOp46
 70
     1
102
RTVSPost2010Prop47
 90
       50
102
RTVSPost2010PropOp47
 70
     1
102
RTVSPost2010Prop48
 90
       50
102
RTVSPost2010PropOp48
 70
     1
102
RTVSPost2010Prop49
280
     0
102
RTVSPost2010PropOp49
 70
     1
102
RTVSPost2010Prop50
 90
       50
102
RTVSPost2010PropOp50
 70
     1
102
RTVSPost2010Prop51ColorIndex
 90
      256
102
RTVSPost2010Prop51ColorRGB
 90
-16777216
102
RTVSPost2010PropOp51
 70
     0
102
RTVSPost2010Prop52
140
1.0
102
RTVSPost2010PropOp52
 70
     0
102
RTVSPost2010Prop53
 90
        2
102
RTVSPost2010PropOp53
 70
     1
102
RTVSPost2010Prop54
  1
strokes_ogs.tif
102
RTVSPost2010PropOp54
 70
     1
102
RTVSPost2010Prop55
280
     0
102
RTVSPost2010PropOp55
 70
     1
102
RTVSPost2010Prop56
140
1.0
102
RTVSPost2010PropOp56
 70
     1
102
RTVSPost2010Prop57
140
1.0
102
RTVSPost2010PropOp57
 70
     1
102
RTVSPropertyOp0
 70
     1
102
RTVSPropertyOp1
 70
     1
102
RTVSPropertyOp2
 70
     1
102
RTVSPropertyOp3
 70
     1
102
RTVSPropertyOp4
 70
     1
102
RTVSPropertyOp5
 70
     1
102
RTVSPropertyOp6
 70
     1
102
RTVSPropertyOp7
 70
     1
102
RTVSPropertyOp8
 70
     1
102
RTVSPropertyOp9
 70
     1
102
RTVSPropertyOp10
 70
     1
102
RTVSPropertyOp11
 70
     1
102
RTVSPropertyOp12
 70
     1
102
RTVSPropertyOp13
 70
     1
102
RTVSPropertyOp14
 70
     1
102
RTVSPropertyOp15
 70
     1
102
RTVSPropertyOp16
 70
     1
102
RTVSPropertyOp17
 70
     1
102
RTVSPropertyOp18
 70
     1
102
RTVSPropertyOp19
 70
     1
102
RTVSPropertyOp20
 70
     1
102
RTVSPropertyOp21
 70
     1
102
RTVSPropertyOp22
 70
     1
102
RTVSPropertyOp23
 70
     1
102
RTVSPropertyOp24
 70
     1
102
RTVSPropertyOp25
 70
     1
102
RTVSPropertyOp26
 70
     1
102
RTVSPropertyOp27
 70
     1
102
RTVSPropertyOp28
 70
     1
102
RTVSPropertyOp29
 70
     1
102
RTVSPropertyOp30
 70
     1
102
RTVSPropertyOp31
 70
     1
102
RTVSPropertyOp32
 70
     1
102
RTVSPropertyOp33
 70
     1
102
RTVSPropertyOp34
 70
     1
102
RTVSPropertyOp35
 70
     1
102
RTVSPropertyOp36
 70
     1
102
RTVSPropertyOp37
 70
     1
102
RTVSPropertyOp38
 70
     1
102
RTVSPropertyOp39
 70
     1
102
RTVSPropertyOp40
 70
     1
102
RTVSPropertyOp41
 70
     1
102
RTVSPropertyOp42
 70
     1
102
RTVSPropertyOp43
 70
     1
102
RTVSPropertyOp44
 70
     1
102
RTVSPropertyOp45
 70
     1
102
RTVSPropertyOp46
 70
     1
102
RTVSPropertyOp47
 70
     1
102
RTVSPropertyOp48
 70
     1
102
RTVSPropertyOp49
 70
     1
102
RTVSPropertyOp50
 70
     1
102
RTVSPropertyOp51
 70
     0
102
RTVSPropertyOp52
 70
     0
102
RTVSPropertyOp53
 70
     1
102
RTVSPropertyOp54
 70
     1
102
RTVSPropertyOp55
 70
     1
102
RTVSPropertyOp56
 70
     1
102
RTVSPropertyOp57
 70
     1
102
RTVSPropertyOp58
 70
     1
102
RTVSPropertyOp59
 70
     1
102
RTVSPropertyOp60
 70
     1
102
RTVSPropertyOp61
 70
     1
102
RTVSPropertyOp62
 70
     1
  0
XRECORD
  5
7C7
102
{ACAD_REACTORS
330
7C6
102
}
330
7C6
100
AcDbXrecord
280
     1
102
RTVSPost2010Prop28
280
     0
102
RTVSPost2010PropOp28
 70
     1
102
RTVSPost2010Prop29
280
     1
102
RTVSPost2010PropOp29
 70
     1
102
RTVSPost2010Prop30
280
     1
102
RTVSPost2010PropOp30
 70
     1
102
RTVSPost2010Prop31
280
     0
102
RTVSPost2010PropOp31
 70
     1
102
RTVSPost2010Prop32
280
     0
102
RTVSPost2010PropOp32
 70
     1
102
RTVSPost2010Prop33
280
     0
102
RTVSPost2010PropOp33
 70
     1
102
RTVSPost2010Prop34
280
     0
102
RTVSPost2010PropOp34
 70
     1
102
RTVSPost2010Prop35
280
     0
102
RTVSPost2010PropOp35
 70
     1
102
RTVSPost2010Prop36
280
     0
102
RTVSPost2010PropOp36
 70
     1
102
RTVSPost2010Prop37
 90
       50
102
RTVSPost2010PropOp37
 70
     1
102
RTVSPost2010Prop38
140
0.0
102
RTVSPost2010PropOp38
 70
     1
102
RTVSPost2010Prop39
140
1.0
102
RTVSPost2010PropOp39
 70
     1
102
RTVSPost2010Prop40
 90
        0
102
RTVSPost2010PropOp40
 70
     1
102
RTVSPost2010Prop41ColorIndex
 90
       18
102
RTVSPost2010Prop41ColorRGB
 90
        0
102
RTVSPost2010PropOp41
 70
     1
102
RTVSPost2010Prop42
 90
       50
102
RTVSPost2010PropOp42
 70
     1
102
RTVSPost2010Prop43
 90
        3
102
RTVSPost2010PropOp43
 70
     1
102
RTVSPost2010Prop44ColorIndex
 90
        5
102
RTVSPost2010Prop44ColorRGB
 90
      255
102
RTVSPost2010PropOp44
 70
     1
102
RTVSPost2010Prop45
280
     0
102
RTVSPost2010PropOp45
 70
     1
102
RTVSPost2010Prop46
 90
       50
102
RTVSPost2010PropOp46
 70
     1
102
RTVSPost2010Prop47
 90
       50
102
RTVSPost2010PropOp47
 70
     1
102
RTVSPost2010Prop48
 90
       50
102
RTVSPost2010PropOp48
 70
     1
102
RTVSPost2010Prop49
280
     0
102
RTVSPost2010PropOp49
 70
     1
102
RTVSPost2010Prop50
 90
       50
102
RTVSPost2010PropOp50
 70
     1
102
RTVSPost2010Prop51ColorIndex
 90
      256
102
RTVSPost2010Prop51ColorRGB
 90
-16777216
102
RTVSPost2010PropOp51
 70
     0
102
RTVSPost2010Prop52
140
1.0
102
RTVSPost2010PropOp52
 70
     0
102
RTVSPost2010Prop53
 90
        2
102
RTVSPost2010PropOp53
 70
     1
102
RTVSPost2010Prop54
  1
strokes_ogs.tif
102
RTVSPost2010PropOp54
 70
     1
102
RTVSPost2010Prop55
280
     0
102
RTVSPost2010PropOp55
 70
     1
102
RTVSPost2010Prop56
140
1.0
102
RTVSPost2010PropOp56
 70
     1
102
RTVSPost2010Prop57
140
1.0
102
RTVSPost2010PropOp57
 70
     1
102
RTVSPropertyOp0
 70
     1
102
RTVSPropertyOp1
 70
     1
102
RTVSPropertyOp2
 70
     1
102
RTVSPropertyOp3
 70
     1
102
RTVSPropertyOp4
 70
     1
102
RTVSPropertyOp5
 70
     1
102
RTVSPropertyOp6
 70
     1
102
RTVSPropertyOp7
 70
     1
102
RTVSPropertyOp8
 70
     1
102
RTVSPropertyOp9
 70
     1
102
RTVSPropertyOp10
 70
     1
102
RTVSPropertyOp11
 70
     1
102
RTVSPropertyOp12
 70
     1
102
RTVSPropertyOp13
 70
     1
102
RTVSPropertyOp14
 70
     1
102
RTVSPropertyOp15
 70
     1
102
RTVSPropertyOp16
 70
     1
102
RTVSPropertyOp17
 70
     1
102
RTVSPropertyOp18
 70
     1
102
RTVSPropertyOp19
 70
     1
102
RTVSPropertyOp20
 70
     1
102
RTVSPropertyOp21
 70
     1
102
RTVSPropertyOp22
 70
     1
102
RTVSPropertyOp23
 70
     1
102
RTVSPropertyOp24
 70
     1
102
RTVSPropertyOp25
 70
     1
102
RTVSPropertyOp26
 70
     1
102
RTVSPropertyOp27
 70
     1
102
RTVSPropertyOp28
 70
     1
102
RTVSPropertyOp29
 70
     1
102
RTVSPropertyOp30
 70
     1
102
RTVSPropertyOp31
 70
     1
102
RTVSPropertyOp32
 70
     1
102
RTVSPropertyOp33
 70
     1
102
RTVSPropertyOp34
 70
     1
102
RTVSPropertyOp35
 70
     1
102
RTVSPropertyOp36
 70
     1
102
RTVSPropertyOp37
 70
     1
102
RTVSPropertyOp38
 70
     1
102
RTVSPropertyOp39
 70
     1
102
RTVSPropertyOp40
 70
     1
102
RTVSPropertyOp41
 70
     1
102
RTVSPropertyOp42
 70
     1
102
RTVSPropertyOp43
 70
     1
102
RTVSPropertyOp44
 70
     1
102
RTVSPropertyOp45
 70
     1
102
RTVSPropertyOp46
 70
     1
102
RTVSPropertyOp47
 70
     1
102
RTVSPropertyOp48
 70
     1
102
RTVSPropertyOp49
 70
     1
102
RTVSPropertyOp50
 70
     1
102
RTVSPropertyOp51
 70
     0
102
RTVSPropertyOp52
 70
     0
102
RTVSPropertyOp53
 70
     1
102
RTVSPropertyOp54
 70
     1
102
RTVSPropertyOp55
 70
     1
102
RTVSPropertyOp56
 70
     1
102
RTVSPropertyOp57
 70
     1
102
RTVSPropertyOp58
 70
     1
102
RTVSPropertyOp59
 70
     1
102
RTVSPropertyOp60
 70
     1
102
RTVSPropertyOp61
 70
     1
102
RTVSPropertyOp62
 70
     1
  0
XRECORD
  5
7DF
102
{ACAD_REACTORS
330
7DE
102
}
330
7DE
100
AcDbXrecord
280
     1
102
RTVSPost2010Prop28
280
     0
102
RTVSPost2010PropOp28
 70
     1
102
RTVSPost2010Prop29
280
     1
102
RTVSPost2010PropOp29
 70
     1
102
RTVSPost2010Prop30
280
     1
102
RTVSPost2010PropOp30
 70
     1
102
RTVSPost2010Prop31
280
     0
102
RTVSPost2010PropOp31
 70
     1
102
RTVSPost2010Prop32
280
     0
102
RTVSPost2010PropOp32
 70
     1
102
RTVSPost2010Prop33
280
     0
102
RTVSPost2010PropOp33
 70
     1
102
RTVSPost2010Prop34
280
     0
102
RTVSPost2010PropOp34
 70
     1
102
RTVSPost2010Prop35
280
     0
102
RTVSPost2010PropOp35
 70
     1
102
RTVSPost2010Prop36
280
     0
102
RTVSPost2010PropOp36
 70
     1
102
RTVSPost2010Prop37
 90
       50
102
RTVSPost2010PropOp37
 70
     1
102
RTVSPost2010Prop38
140
0.0
102
RTVSPost2010PropOp38
 70
     1
102
RTVSPost2010Prop39
140
1.0
102
RTVSPost2010PropOp39
 70
     1
102
RTVSPost2010Prop40
 90
        0
102
RTVSPost2010PropOp40
 70
     1
102
RTVSPost2010Prop41ColorIndex
 90
       18
102
RTVSPost2010Prop41ColorRGB
 90
        0
102
RTVSPost2010PropOp41
 70
     1
102
RTVSPost2010Prop42
 90
       50
102
RTVSPost2010PropOp42
 70
     1
102
RTVSPost2010Prop43
 90
        3
102
RTVSPost2010PropOp43
 70
     1
102
RTVSPost2010Prop44ColorIndex
 90
        5
102
RTVSPost2010Prop44ColorRGB
 90
      255
102
RTVSPost2010PropOp44
 70
     1
102
RTVSPost2010Prop45
280
     0
102
RTVSPost2010PropOp45
 70
     1
102
RTVSPost2010Prop46
 90
       50
102
RTVSPost2010PropOp46
 70
     1
102
RTVSPost2010Prop47
 90
       50
102
RTVSPost2010PropOp47
 70
     1
102
RTVSPost2010Prop48
 90
       50
102
RTVSPost2010PropOp48
 70
     1
102
RTVSPost2010Prop49
280
     0
102
RTVSPost2010PropOp49
 70
     1
102
RTVSPost2010Prop50
 90
       50
102
RTVSPost2010PropOp50
 70
     1
102
RTVSPost2010Prop51ColorIndex
 90
      256
102
RTVSPost2010Prop51ColorRGB
 90
-16777216
102
RTVSPost2010PropOp51
 70
     0
102
RTVSPost2010Prop52
140
1.0
102
RTVSPost2010PropOp52
 70
     0
102
RTVSPost2010Prop53
 90
        2
102
RTVSPost2010PropOp53
 70
     1
102
RTVSPost2010Prop54
  1
strokes_ogs.tif
102
RTVSPost2010PropOp54
 70
     1
102
RTVSPost2010Prop55
280
     0
102
RTVSPost2010PropOp55
 70
     1
102
RTVSPost2010Prop56
140
1.0
102
RTVSPost2010PropOp56
 70
     1
102
RTVSPost2010Prop57
140
1.0
102
RTVSPost2010PropOp57
 70
     1
102
RTVSPropertyOp0
 70
     1
102
RTVSPropertyOp1
 70
     1
102
RTVSPropertyOp2
 70
     1
102
RTVSPropertyOp3
 70
     1
102
RTVSPropertyOp4
 70
     1
102
RTVSPropertyOp5
 70
     1
102
RTVSPropertyOp6
 70
     1
102
RTVSPropertyOp7
 70
     1
102
RTVSPropertyOp8
 70
     1
102
RTVSPropertyOp9
 70
     1
102
RTVSPropertyOp10
 70
     1
102
RTVSPropertyOp11
 70
     1
102
RTVSPropertyOp12
 70
     1
102
RTVSPropertyOp13
 70
     1
102
RTVSPropertyOp14
 70
     1
102
RTVSPropertyOp15
 70
     1
102
RTVSPropertyOp16
 70
     1
102
RTVSPropertyOp17
 70
     1
102
RTVSPropertyOp18
 70
     1
102
RTVSPropertyOp19
 70
     1
102
RTVSPropertyOp20
 70
     1
102
RTVSPropertyOp21
 70
     1
102
RTVSPropertyOp22
 70
     1
102
RTVSPropertyOp23
 70
     1
102
RTVSPropertyOp24
 70
     1
102
RTVSPropertyOp25
 70
     1
102
RTVSPropertyOp26
 70
     1
102
RTVSPropertyOp27
 70
     1
102
RTVSPropertyOp28
 70
     1
102
RTVSPropertyOp29
 70
     1
102
RTVSPropertyOp30
 70
     1
102
RTVSPropertyOp31
 70
     1
102
RTVSPropertyOp32
 70
     1
102
RTVSPropertyOp33
 70
     1
102
RTVSPropertyOp34
 70
     1
102
RTVSPropertyOp35
 70
     1
102
RTVSPropertyOp36
 70
     1
102
RTVSPropertyOp37
 70
     1
102
RTVSPropertyOp38
 70
     1
102
RTVSPropertyOp39
 70
     1
102
RTVSPropertyOp40
 70
     1
102
RTVSPropertyOp41
 70
     1
102
RTVSPropertyOp42
 70
     1
102
RTVSPropertyOp43
 70
     1
102
RTVSPropertyOp44
 70
     1
102
RTVSPropertyOp45
 70
     1
102
RTVSPropertyOp46
 70
     1
102
RTVSPropertyOp47
 70
     1
102
RTVSPropertyOp48
 70
     1
102
RTVSPropertyOp49
 70
     1
102
RTVSPropertyOp50
 70
     1
102
RTVSPropertyOp51
 70
     0
102
RTVSPropertyOp52
 70
     0
102
RTVSPropertyOp53
 70
     1
102
RTVSPropertyOp54
 70
     1
102
RTVSPropertyOp55
 70
     1
102
RTVSPropertyOp56
 70
     1
102
RTVSPropertyOp57
 70
     1
102
RTVSPropertyOp58
 70
     1
102
RTVSPropertyOp59
 70
     1
102
RTVSPropertyOp60
 70
     1
102
RTVSPropertyOp61
 70
     1
102
RTVSPropertyOp62
 70
     1
  0
ENDSEC
  0
EOF
