  0
SECTION
  2
HEADER
  9
$ACADVER
  1
AC1015
  9
$ACADMAINTVER
 70
    20
  9
$DWGCODEPAGE
  3
ANSI_932
  9
$INSBASE
 10
0.0
 20
0.0
 30
0.0
  9
$EXTMIN
 10
63.54721676869676
 20
-374.6712991353633
 30
0.0
  9
$EXTMAX
 10
531.2247424312228
 20
-146.4858798180065
 30
0.0
  9
$LIMMIN
 10
0.0
 20
0.0
  9
$LIMMAX
 10
12.0
 20
9.0
  9
$ORTHOMODE
 70
     0
  9
$REGENMODE
 70
     1
  9
$FILLMODE
 70
     1
  9
$QTEXTMODE
 70
     0
  9
$MIRRTEXT
 70
     0
  9
$LTSCALE
 40
1.0
  9
$ATTMODE
 70
     1
  9
$TEXTSIZE
 40
0.2
  9
$TRACEWID
 40
0.05
  9
$TEXTSTYLE
  7
Standard
  9
$CLAYER
  8
0
  9
$CELTYPE
  6
Continuous
  9
$CECOLOR
 62
   256
  9
$CELTSCALE
 40
1.0
  9
$DISPSILH
 70
     0
  9
$DIMSCALE
 40
1.0
  9
$DIMASZ
 40
0.18
  9
$DIMEXO
 40
0.0625
  9
$DIMDLI
 40
0.38
  9
$DIMRND
 40
0.0
  9
$DIMDLE
 40
0.0
  9
$DIMEXE
 40
0.18
  9
$DIMTP
 40
0.0
  9
$DIMTM
 40
0.0
  9
$DIMTXT
 40
0.18
  9
$DIMCEN
 40
0.09
  9
$DIMTSZ
 40
0.0
  9
$DIMTOL
 70
     0
  9
$DIMLIM
 70
     0
  9
$DIMTIH
 70
     1
  9
$DIMTOH
 70
     1
  9
$DIMSE1
 70
     0
  9
$DIMSE2
 70
     0
  9
$DIMTAD
 70
     0
  9
$DIMZIN
 70
     0
  9
$DIMBLK
  1

  9
$DIMASO
 70
     1
  9
$DIMSHO
 70
     1
  9
$DIMPOST
  1

  9
$DIMAPOST
  1

  9
$DIMALT
 70
     0
  9
$DIMALTD
 70
     2
  9
$DIMALTF
 40
25.4
  9
$DIMLFAC
 40
1.0
  9
$DIMTOFL
 70
     0
  9
$DIMTVP
 40
0.0
  9
$DIMTIX
 70
     0
  9
$DIMSOXD
 70
     0
  9
$DIMSAH
 70
     0
  9
$DIMBLK1
  1

  9
$DIMBLK2
  1

  9
$DIMSTYLE
  2
Standard
  9
$DIMCLRD
 70
     0
  9
$DIMCLRE
 70
     0
  9
$DIMCLRT
 70
     0
  9
$DIMTFAC
 40
1.0
  9
$DIMGAP
 40
0.09
  9
$DIMJUST
 70
     0
  9
$DIMSD1
 70
     0
  9
$DIMSD2
 70
     0
  9
$DIMTOLJ
 70
     1
  9
$DIMTZIN
 70
     0
  9
$DIMALTZ
 70
     0
  9
$DIMALTTZ
 70
     0
  9
$DIMUPT
 70
     0
  9
$DIMDEC
 70
     4
  9
$DIMTDEC
 70
     4
  9
$DIMALTU
 70
     2
  9
$DIMALTTD
 70
     2
  9
$DIMTXSTY
  7
Standard
  9
$DIMAUNIT
 70
     0
  9
$DIMADEC
 70
     0
  9
$DIMALTRND
 40
0.0
  9
$DIMAZIN
 70
     0
  9
$DIMDSEP
 70
    46
  9
$DIMATFIT
 70
     3
  9
$DIMFRAC
 70
     0
  9
$DIMLDRBLK
  1

  9
$DIMLUNIT
 70
     2
  9
$DIMLWD
 70
    -2
  9
$DIMLWE
 70
    -2
  9
$DIMTMOVE
 70
     0
  9
$LUNITS
 70
     2
  9
$LUPREC
 70
     4
  9
$SKETCHINC
 40
0.1
  9
$FILLETRAD
 40
0.0
  9
$AUNITS
 70
     0
  9
$AUPREC
 70
     0
  9
$MENU
  1
.
  9
$ELEVATION
 40
0.0
  9
$PELEVATION
 40
0.0
  9
$THICKNESS
 40
0.0
  9
$LIMCHECK
 70
     0
  9
$CHAMFERA
 40
0.0
  9
$CHAMFERB
 40
0.0
  9
$CHAMFERC
 40
0.0
  9
$CHAMFERD
 40
0.0
  9
$SKPOLY
 70
     0
  9
$TDCREATE
 40
2457211.392504375
  9
$TDUCREATE
 40
2457211.017504375
  9
$TDUPDATE
 40
2457225.407907361
  9
$TDUUPDATE
 40
2457225.032907361
  9
$TDINDWG
 40
0.0023111921
  9
$TDUSRTIMER
 40
0.0023111921
  9
$USRTIMER
 70
     1
  9
$ANGBASE
 50
0.0
  9
$ANGDIR
 70
     0
  9
$PDMODE
 70
     0
  9
$PDSIZE
 40
0.0
  9
$PLINEWID
 40
0.0
  9
$SPLFRAME
 70
     0
  9
$SPLINETYPE
 70
     6
  9
$SPLINESEGS
 70
     8
  9
$HANDSEED
  5
6DA
  9
$SURFTAB1
 70
     6
  9
$SURFTAB2
 70
     6
  9
$SURFTYPE
 70
     6
  9
$SURFU
 70
     6
  9
$SURFV
 70
     6
  9
$UCSBASE
  2

  9
$UCSNAME
  2

  9
$UCSORG
 10
0.0
 20
0.0
 30
0.0
  9
$UCSXDIR
 10
1.0
 20
0.0
 30
0.0
  9
$UCSYDIR
 10
0.0
 20
1.0
 30
0.0
  9
$UCSORTHOREF
  2

  9
$UCSORTHOVIEW
 70
     0
  9
$UCSORGTOP
 10
0.0
 20
0.0
 30
0.0
  9
$UCSORGBOTTOM
 10
0.0
 20
0.0
 30
0.0
  9
$UCSORGLEFT
 10
0.0
 20
0.0
 30
0.0
  9
$UCSORGRIGHT
 10
0.0
 20
0.0
 30
0.0
  9
$UCSORGFRONT
 10
0.0
 20
0.0
 30
0.0
  9
$UCSORGBACK
 10
0.0
 20
0.0
 30
0.0
  9
$PUCSBASE
  2

  9
$PUCSNAME
  2

  9
$PUCSORG
 10
0.0
 20
0.0
 30
0.0
  9
$PUCSXDIR
 10
1.0
 20
0.0
 30
0.0
  9
$PUCSYDIR
 10
0.0
 20
1.0
 30
0.0
  9
$PUCSORTHOREF
  2

  9
$PUCSORTHOVIEW
 70
     0
  9
$PUCSORGTOP
 10
0.0
 20
0.0
 30
0.0
  9
$PUCSORGBOTTOM
 10
0.0
 20
0.0
 30
0.0
  9
$PUCSORGLEFT
 10
0.0
 20
0.0
 30
0.0
  9
$PUCSORGRIGHT
 10
0.0
 20
0.0
 30
0.0
  9
$PUCSORGFRONT
 10
0.0
 20
0.0
 30
0.0
  9
$PUCSORGBACK
 10
0.0
 20
0.0
 30
0.0
  9
$USERI1
 70
     0
  9
$USERI2
 70
     0
  9
$USERI3
 70
     0
  9
$USERI4
 70
     0
  9
$USERI5
 70
     0
  9
$USERR1
 40
0.0
  9
$USERR2
 40
0.0
  9
$USERR3
 40
0.0
  9
$USERR4
 40
0.0
  9
$USERR5
 40
0.0
  9
$WORLDVIEW
 70
     1
  9
$SHADEDGE
 70
     3
  9
$SHADEDIF
 70
    70
  9
$TILEMODE
 70
     1
  9
$MAXACTVP
 70
    64
  9
$PINSBASE
 10
0.0
 20
0.0
 30
0.0
  9
$PLIMCHECK
 70
     0
  9
$PEXTMIN
 10
1.000000000000000E+20
 20
1.000000000000000E+20
 30
1.000000000000000E+20
  9
$PEXTMAX
 10
-1.000000000000000E+20
 20
-1.000000000000000E+20
 30
-1.000000000000000E+20
  9
$PLIMMIN
 10
0.0
 20
0.0
  9
$PLIMMAX
 10
12.0
 20
9.0
  9
$UNITMODE
 70
     0
  9
$VISRETAIN
 70
     1
  9
$PLINEGEN
 70
     0
  9
$PSLTSCALE
 70
     1
  9
$TREEDEPTH
 70
  3020
  9
$CMLSTYLE
  2
Standard
  9
$CMLJUST
 70
     0
  9
$CMLSCALE
 40
1.0
  9
$PROXYGRAPHICS
 70
     1
  9
$MEASUREMENT
 70
     0
  9
$CELWEIGHT
370
    -1
  9
$ENDCAPS
280
     0
  9
$JOINSTYLE
280
     0
  9
$LWDISPLAY
290
     0
  9
$INSUNITS
 70
     0
  9
$HYPERLINKBASE
  1

  9
$STYLESHEET
  1

  9
$XEDIT
290
     1
  9
$CEPSNTYPE
380
     0
  9
$PSTYLEMODE
290
     1
  9
$FINGERPRINTGUID
  2
{BD36D61B-26DC-40D3-ACDE-17B025952FD4}
  9
$VERSIONGUID
  2
{8B2E96BD-9F80-47CC-B74B-840F6F724004}
  9
$EXTNAMES
290
     1
  9
$PSVPSCALE
 40
0.0
  9
$OLESTARTUP
290
     0
  0
ENDSEC
  0
SECTION
  2
CLASSES
  0
CLASS
  1
ACDBDICTIONARYWDFLT
  2
AcDbDictionaryWithDefault
  3
ObjectDBX Classes
 90
        0
280
     0
281
     0
  0
CLASS
  1
MATERIAL
  2
AcDbMaterial
  3
ObjectDBX Classes
 90
     1153
280
     0
281
     0
  0
CLASS
  1
VISUALSTYLE
  2
AcDbVisualStyle
  3
ObjectDBX Classes
 90
     4095
280
     0
281
     0
  0
CLASS
  1
SCALE
  2
AcDbScale
  3
ObjectDBX Classes
 90
     1153
280
     0
281
     0
  0
CLASS
  1
TABLESTYLE
  2
AcDbTableStyle
  3
ObjectDBX Classes
 90
     4095
280
     0
281
     0
  0
CLASS
  1
MLEADERSTYLE
  2
AcDbMLeaderStyle
  3
ACDB_MLEADERSTYLE_CLASS
 90
     4095
280
     0
281
     0
  0
CLASS
  1
ACDBSECTIONVIEWSTYLE
  2
AcDbSectionViewStyle
  3
ObjectDBX Classes
 90
     1025
280
     0
281
     0
  0
CLASS
  1
ACDBDETAILVIEWSTYLE
  2
AcDbDetailViewStyle
  3
ObjectDBX Classes
 90
     1025
280
     0
281
     0
  0
CLASS
  1
AMGSETTINGSOBJ
  2
AmgSettingsObj
  3
"AcadM|Product Description: AutoCAD Mechanical|Company: Autodesk, Inc."
 90
     1024
280
     0
281
     0
  0
CLASS
  1
ACME_DOCUMENT
  2
AcMeDbDoc
  3
AcMeServices
 90
     1024
280
     0
281
     0
  0
CLASS
  1
ACMESCOPE
  2
AcMeScope
  3
AcMeServices
 90
     1024
280
     0
281
     0
  0
CLASS
  1
ACMECOMMANDHISTORY
  2
AcMeCommandHistory
  3
AcMeServices
 90
     1024
280
     0
281
     0
  0
CLASS
  1
ACIMSYSVARMAN
  2
AcImSysVarManager
  3
AcMeServices
 90
     1024
280
     0
281
     0
  0
CLASS
  1
ACIMINTSYSVAR
  2
AcImIntSysVar
  3
AcMeServices
 90
     1024
280
     0
281
     0
  0
CLASS
  1
ACMESTATEMGR
  2
AcMeStateMgr
  3
AcMeServices
 90
     1024
280
     0
281
     0
  0
CLASS
  1
ACDBENTITYCACHE
  2
AcMeEntityCache
  3
AcMeServices
 90
     1024
280
     0
281
     0
  0
CLASS
  1
ACGREFMASTER
  2
AcGrefMaster
  3
AcAttribServices
 90
     1024
280
     0
281
     0
  0
CLASS
  1
ACME_DATABASE
  2
AcMeDbDatabase
  3
AcMeServices
 90
     1024
280
     0
281
     0
  0
CLASS
  1
ACRFINSADJUSTERMGR
  2
AcRfInsAdjusterMgr
  3
AcMeServices
 90
     1024
280
     0
281
     0
  0
CLASS
  1
ACGREFACADMASTER
  2
AcGrefacadMaster
  3
AcGrefServices
 90
     1024
280
     0
281
     0
  0
CLASS
  1
AMDTMENUSTATEMGR
  2
AmdtMenuStateMgr
  3
McadcomServices
 90
     1024
280
     0
281
     0
  0
CLASS
  1
AMDTMCOMMENUSTATE
  2
AmdtMcomMenuState
  3
McadcomServices
 90
     1024
280
     0
281
     0
  0
CLASS
  1
AMIMASTER
  2
AmiMaster
  3
AmiServices
 90
     1024
280
     0
281
     0
  0
CLASS
  1
MAPIAMMOUDLE
  2
MApiAmModule
  3
MApiAmServices
 90
     1024
280
     0
281
     0
  0
CLASS
  1
ACIMSTRSYSVAR
  2
AcImStrSysVar
  3
AcMeServices
 90
     1024
280
     0
281
     0
  0
CLASS
  1
AMDTAMMENUSTATE
  2
AmdtAmMenuState
  3
DesignerAssemblies
 90
     1024
280
     0
281
     0
  0
CLASS
  1
ACAMPROJECT
  2
AcAmProject
  3
DesignerAssemblies
 90
     1024
280
     0
281
     0
  0
CLASS
  1
ACAMGRCOMPDEF
  2
AcAmGrCompDef
  3
DesignerAssemblies
 90
     1024
280
     0
281
     0
  0
CLASS
  1
ACAMCOMPDEF
  2
AcAmCompDef
  3
DesignerAssemblies
 90
     1024
280
     0
281
     0
  0
CLASS
  1
ACAMCOMPDEFMGR
  2
AcAmCompDefMgr
  3
DesignerAssemblies
 90
     1024
280
     0
281
     0
  0
CLASS
  1
AMCONTEXTMGR
  2
AcAmContextMgr
  3
DesignerAssemblies
 90
     1024
280
     0
281
     0
  0
CLASS
  1
ACAMCONTEXTMODELER
  2
AcAmContextModeler
  3
DesignerAssemblies
 90
     1024
280
     0
281
     0
  0
CLASS
  1
ACMDATADICTIONARY
  2
AcmDataDictionary
  3
"AcmSymBB|Product Description: AutoCAD Mechanical|Company: Autodesk, Inc."
 90
     1024
280
     0
281
     0
  0
CLASS
  1
ACAMGRCOMPDEFSET
  2
AcAmGrCompDefSet
  3
DesignerAssemblies
 90
     1024
280
     0
281
     0
  0
CLASS
  1
AMDTBROWSERDBTAB
  2
AmdtBrowserDbTab
  3
McadcomServices
 90
     1024
280
     0
281
     0
  0
CLASS
  1
CBROWSERAPPOBJECT
  2
CBrowserAppObject
  3
McadcomServices
 90
     1024
280
     0
281
     0
  0
CLASS
  1
DM_PLACEHOLDER
  2
AcDmSelsetPlaceholder
  3
McadcomServices
 90
     1024
280
     0
281
     0
  0
CLASS
  1
ACMSTANDARDANSI
  2
AcmStandardANSI
  3
"Amdt_StdImp|Product Description: AutoCAD Mechanical|Company: Autodesk, Inc."
 90
     1024
280
     0
281
     0
  0
CLASS
  1
ACMSURFSTANDARDANSI
  2
AcmSurfTextStdANSI
  3
"Amdt_StdImp|Product Description: AutoCAD Mechanical|Company: Autodesk, Inc."
 90
     1024
280
     0
281
     0
  0
CLASS
  1
ACMFCFSTANDARDANSI
  2
AcmFCFStdANSI
  3
"Amdt_StdImp|Product Description: AutoCAD Mechanical|Company: Autodesk, Inc."
 90
     1024
280
     0
281
     0
  0
CLASS
  1
ACMWELDSTANDARDANSI
  2
AcmWeldingStdANSI
  3
"Amdt_StdImp|Product Description: AutoCAD Mechanical|Company: Autodesk, Inc."
 90
     1024
280
     0
281
     0
  0
CLASS
  1
ACMIDSTANDARDANSI
  2
AcmIdStdANSI
  3
"Amdt_StdImp|Product Description: AutoCAD Mechanical|Company: Autodesk, Inc."
 90
     1024
280
     0
281
     0
  0
CLASS
  1
ACMDATUMSTANDARDANSI
  2
AcmDatumStdANSI
  3
"Amdt_StdImp|Product Description: AutoCAD Mechanical|Company: Autodesk, Inc."
 90
     1024
280
     0
281
     0
  0
CLASS
  1
ACMBOMSTANDARDANSI
  2
AcmBOMStdANSI
  3
"Amdt_StdImp|Product Description: AutoCAD Mechanical|Company: Autodesk, Inc."
 90
     1024
280
     0
281
     0
  0
CLASS
  1
ACMDETAILSTANDARDANSI
  2
AmdtDetailSymStdANSI
  3
"Amdt_StdImp|Product Description: AutoCAD Mechanical|Company: Autodesk, Inc."
 90
     1024
280
     0
281
     0
  0
CLASS
  1
ACMSECTIONSTANDARDANSI
  2
AmdtSectionSymStdANSI
  3
"Amdt_StdImp|Product Description: AutoCAD Mechanical|Company: Autodesk, Inc."
 90
     1024
280
     0
281
     0
  0
CLASS
  1
ACMCENTERLINESTANDARDANSI
  2
AmdtCenterLineStdANSI
  3
"Amdt_StdImp|Product Description: AutoCAD Mechanical|Company: Autodesk, Inc."
 90
     1024
280
     0
281
     0
  0
CLASS
  1
ACMTHREADLINESTANDARDANSI
  2
AmdtThreadLineStdANSI
  3
"Amdt_StdImp|Product Description: AutoCAD Mechanical|Company: Autodesk, Inc."
 90
     1024
280
     0
281
     0
  0
CLASS
  1
ACMNOTESTANDARDANSI
  2
AmdtNoteStdANSI
  3
"Amdt_StdImp|Product Description: AutoCAD Mechanical|Company: Autodesk, Inc."
 90
     1024
280
     0
281
     0
  0
CLASS
  1
ACMTAPERSTANDARDANSI
  2
AcmTaperStdANSI
  3
"Amdt_StdImp|Product Description: AutoCAD Mechanical|Company: Autodesk, Inc."
 90
     1024
280
     0
281
     0
  0
CLASS
  1
ACMANOOTATIONVIEWSTANDARDANSI
  2
AmdtAnViewStdANSI
  3
"Amdt_StdImp|Product Description: AutoCAD Mechanical|Company: Autodesk, Inc."
 90
     1024
280
     0
281
     0
  0
CLASS
  1
ACAMGLAYSTD
  2
AcAmgLayStd
  3
"AmgLay|Product Description: AutoCAD Mechanical|Company: Autodesk, Inc."
 90
     1024
280
     0
281
     0
  0
CLASS
  1
ACAMGDIMSTD
  2
AcAmgDimStd
  3
"AmgDim|Product Description: AutoCAD Mechanical|Company: Autodesk, Inc."
 90
     1024
280
     0
281
     0
  0
CLASS
  1
AMGOBJPROPCFG
  2
AmgObjPropCfg
  3
"AmgLay|Product Description: AutoCAD Mechanical|Company: Autodesk, Inc."
 90
     1024
280
     0
281
     0
  0
CLASS
  1
ACAMGHOLECHARTSTDANSI
  2
AcAmgHoleChartStdANSI
  3
AmgDim|Product Description: AutoCAD Mechanical|Company: Autodesk, Inc.
 90
     1024
280
     0
281
     0
  0
CLASS
  1
ACAMGTITLESTD
  2
AcAmgTitleStd
  3
"AmgTitle|Product Description: AutoCAD Mechanical|Company: Autodesk, Inc."
 90
     1024
280
     0
281
     0
  0
CLASS
  1
AMDTNOTETEMPLATEDB
  2
AmdtNoteTemplateDB
  3
AcmSymBB|Product Description: AutoCAD Mechanical|Company: Autodesk, Inc.
 90
     1024
280
     0
281
     0
  0
CLASS
  1
ACAMGFILTERDAT
  2
AcAmgFilterDat
  3
"AcadM|Product Description: AutoCAD Mechanical|Company: Autodesk, Inc."
 90
    33792
280
     0
281
     0
  0
CLASS
  1
SORTENTSTABLE
  2
AcDbSortentsTable
  3
ObjectDBX Classes
 90
        0
280
     0
281
     0
  0
CLASS
  1
DICTIONARYVAR
  2
AcDbDictionaryVar
  3
ObjectDBX Classes
 90
        0
280
     0
281
     0
  0
CLASS
  1
CELLSTYLEMAP
  2
AcDbCellStyleMap
  3
ObjectDBX Classes
 90
     1152
280
     0
281
     0
  0
CLASS
  1
ACDBPLACEHOLDER
  2
AcDbPlaceHolder
  3
ObjectDBX Classes
 90
        0
280
     0
281
     0
  0
CLASS
  1
LAYOUT
  2
AcDbLayout
  3
ObjectDBX Classes
 90
        0
280
     0
281
     0
  0
ENDSEC
  0
SECTION
  2
TABLES
  0
TABLE
  2
VPORT
  5
8
330
0
100
AcDbSymbolTable
 70
     1
  0
VPORT
  5
75
330
8
100
AcDbSymbolTableRecord
100
AcDbViewportTableRecord
  2
*Active
 70
     0
 10
0.0
 20
0.0
 11
1.0
 21
1.0
 12
408.4519924890351
 22
-316.3718483549859
 13
0.0
 23
0.0
 14
1.0
 24
1.0
 15
0.0
 25
0.0
 16
0.0
 26
0.0
 36
1.0
 17
0.0
 27
0.0
 37
0.0
 40
723.356399485204
 41
1.681623931623931
 42
50.0
 43
0.0
 44
0.0
 50
0.0
 51
0.0
 71
     0
 72
   100
 73
     1
 74
     1
 75
     0
 76
     0
 77
     0
 78
     0
281
     0
 65
     0
110
0.0
120
0.0
130
0.0
111
1.0
121
0.0
131
0.0
112
0.0
122
1.0
132
0.0
 79
     0
146
0.0
1001
ACAD_NAV_VCDISPLAY
1070
     3
  0
ENDTAB
  0
TABLE
  2
LTYPE
  5
5
330
0
100
AcDbSymbolTable
 70
     8
  0
LTYPE
  5
5A
330
5
100
AcDbSymbolTableRecord
100
AcDbLinetypeTableRecord
  2
ByBlock
 70
     0
  3

 72
    65
 73
     0
 40
0.0
  0
LTYPE
  5
5B
330
5
100
AcDbSymbolTableRecord
100
AcDbLinetypeTableRecord
  2
ByLayer
 70
     0
  3

 72
    65
 73
     0
 40
0.0
  0
LTYPE
  5
5C
330
5
100
AcDbSymbolTableRecord
100
AcDbLinetypeTableRecord
  2
Continuous
 70
     0
  3
Solid line
 72
    65
 73
     0
 40
0.0
  0
LTYPE
  5
68
330
5
100
AcDbSymbolTableRecord
100
AcDbLinetypeTableRecord
  2
PHANTOM2
 70
     0
  3
Phantom (.5x) ___ _ _ ___ _ _ ___ _ _ ___ _ _
 72
    65
 73
     6
 40
1.25
 49
0.625
 74
     0
 49
-0.125
 74
     0
 49
0.125
 74
     0
 49
-0.125
 74
     0
 49
0.125
 74
     0
 49
-0.125
 74
     0
  0
LTYPE
  5
D0
330
5
100
AcDbSymbolTableRecord
100
AcDbLinetypeTableRecord
  2
HIDDEN
 70
     0
  3
Hidden __ __ __ __ __ __ __ __ __ __ __ __ __ _
 72
    65
 73
     2
 40
0.375
 49
0.25
 74
     0
 49
-0.125
 74
     0
  0
LTYPE
  5
D1
330
5
100
AcDbSymbolTableRecord
100
AcDbLinetypeTableRecord
  2
CENTER
 70
     0
  3
Center ____ _ ____ _ ____ _ ____ _ ____ _ ____
 72
    65
 73
     4
 40
2.0
 49
1.25
 74
     0
 49
-0.25
 74
     0
 49
0.25
 74
     0
 49
-0.25
 74
     0
  0
LTYPE
  5
10B
330
5
100
AcDbSymbolTableRecord
100
AcDbLinetypeTableRecord
  2
CENTER2
 70
     0
  3
Center (.5x) ___ _ ___ _ ___ _ ___ _ ___ _ ___
 72
    65
 73
     4
 40
1.125
 49
0.75
 74
     0
 49
-0.125
 74
     0
 49
0.125
 74
     0
 49
-0.125
 74
     0
  0
LTYPE
  5
10C
330
5
100
AcDbSymbolTableRecord
100
AcDbLinetypeTableRecord
  2
HIDDEN2
 70
     0
  3
Hidden (.5x) _ _ _ _ _ _ _ _ _ _ _ _ _ _ _ _ _
 72
    65
 73
     2
 40
0.1875
 49
0.125
 74
     0
 49
-0.0625
 74
     0
  0
LTYPE
  5
11A
330
5
100
AcDbSymbolTableRecord
100
AcDbLinetypeTableRecord
  2
ACANSTGB
 70
     0
  3
__ . . __ . .
 72
    65
 73
     6
 40
0.35433070866
 49
0.15748031496
 74
     0
 49
-0.03937007874
 74
     0
 49
0.03937007874
 74
     0
 49
-0.03937007874
 74
     0
 49
0.03937007874
 74
     0
 49
-0.03937007874
 74
     0
  0
LTYPE
  5
11B
330
5
100
AcDbSymbolTableRecord
100
AcDbLinetypeTableRecord
  2
ACANSTGL
 70
     0
  3
_ _ _ _ _
 72
    65
 73
     2
 40
0.11811023622
 49
0.07874015748
 74
     0
 49
-0.03937007874
 74
     0
  0
ENDTAB
  0
TABLE
  2
LAYER
  5
2
330
0
100
AcDbSymbolTable
 70
     3
  0
LAYER
  5
54
102
{ACAD_XDICTIONARY
360
542
102
}
330
2
100
AcDbSymbolTableRecord
100
AcDbLayerTableRecord
  2
0
 70
     0
 62
     7
  6
Continuous
370
    -3
390
F
  0
LAYER
  5
536
102
{ACAD_XDICTIONARY
360
544
102
}
330
2
100
AcDbSymbolTableRecord
100
AcDbLayerTableRecord
  2
AM_CL
 70
     0
 62
     1
  6
Continuous
370
    15
390
F
1001
AcAecLayerStandard
1000

1000

  0
LAYER
  5
5DC
330
2
100
AcDbSymbolTableRecord
100
AcDbLayerTableRecord
  2
AM_5
 70
     0
 62
     3
  6
Continuous
370
    15
390
F
1001
AcAecLayerStandard
1000

1000

  0
ENDTAB
  0
TABLE
  2
STYLE
  5
3
330
0
100
AcDbSymbolTable
 70
     4
  0
STYLE
  5
55
330
3
100
AcDbSymbolTableRecord
100
AcDbTextStyleTableRecord
  2
Standard
 70
     0
 40
0.0
 41
1.0
 50
0.0
 71
     0
 42
0.2
  3
txt
  4

  0
STYLE
  5
59
330
3
100
AcDbSymbolTableRecord
100
AcDbTextStyleTableRecord
  2
Annotative
 70
     0
 40
0.0
 41
1.0
 50
0.0
 71
     0
 42
0.2
  3
txt
  4

1001
AcadAnnotative
1000
AnnotativeData
1002
{
1070
     1
1070
     1
1002
}
  0
STYLE
  5
118
330
3
100
AcDbSymbolTableRecord
100
AcDbTextStyleTableRecord
  2
ACANSTS
 70
     0
 40
1.0
 41
1.0
 50
0.0
 71
     0
 42
0.2
  3
romans.shx
  4
extfont.shx
  0
STYLE
  5
119
330
3
100
AcDbSymbolTableRecord
100
AcDbTextStyleTableRecord
  2
ACANSGDT
 70
     0
 40
0.0
 41
1.0
 50
0.0
 71
     0
 42
0.2
  3
amgdt.shx
  4

  0
ENDTAB
  0
TABLE
  2
VIEW
  5
6
330
0
100
AcDbSymbolTable
 70
     0
  0
ENDTAB
  0
TABLE
  2
UCS
  5
7
330
0
100
AcDbSymbolTable
 70
     0
  0
ENDTAB
  0
TABLE
  2
APPID
  5
9
330
0
100
AcDbSymbolTable
 70
    15
  0
APPID
  5
56
330
9
100
AcDbSymbolTableRecord
100
AcDbRegAppTableRecord
  2
ACAD
 70
     0
  0
APPID
  5
5D
330
9
100
AcDbSymbolTableRecord
100
AcDbRegAppTableRecord
  2
AcadAnnotative
 70
     0
  0
APPID
  5
C9
330
9
100
AcDbSymbolTableRecord
100
AcDbRegAppTableRecord
  2
MCAD_NO_VIS
 70
     0
  0
APPID
  5
CA
330
9
100
AcDbSymbolTableRecord
100
AcDbRegAppTableRecord
  2
ACAD_TEMP_GRAPHIC
 70
     0
  0
APPID
  5
D6
330
9
100
AcDbSymbolTableRecord
100
AcDbRegAppTableRecord
  2
ACATTRIBSERVICES
 70
     0
  0
APPID
  5
EE
330
9
100
AcDbSymbolTableRecord
100
AcDbRegAppTableRecord
  2
DESIGNERASSEMBLIES
 70
     0
  0
APPID
  5
108
330
9
100
AcDbSymbolTableRecord
100
AcDbRegAppTableRecord
  2
ACAD_DSTYLE_DIMJAG
 70
     0
  0
APPID
  5
109
330
9
100
AcDbSymbolTableRecord
100
AcDbRegAppTableRecord
  2
ACAD_DSTYLE_DIMBREAK
 70
     0
  0
APPID
  5
123
330
9
100
AcDbSymbolTableRecord
100
AcDbRegAppTableRecord
  2
ACAD_NAV_VCDISPLAY
 70
     0
  0
APPID
  5
537
330
9
100
AcDbSymbolTableRecord
100
AcDbRegAppTableRecord
  2
AcAecLayerStandard
 70
     0
  0
APPID
  5
588
330
9
100
AcDbSymbolTableRecord
100
AcDbRegAppTableRecord
  2
ACAD_MLEADERVER
 70
     0
  0
APPID
  5
58D
330
9
100
AcDbSymbolTableRecord
100
AcDbRegAppTableRecord
  2
ACAD_DSTYLE_DIMARC_LENGTH_SYMBOL
 70
     0
  0
APPID
  5
58E
330
9
100
AcDbSymbolTableRecord
100
AcDbRegAppTableRecord
  2
ACAD_DSTYLE_DIM_LINETYPE
 70
     0
  0
APPID
  5
58F
330
9
100
AcDbSymbolTableRecord
100
AcDbRegAppTableRecord
  2
ACAD_DSTYLE_DIM_EXT1_LINETYPE
 70
     0
  0
APPID
  5
590
330
9
100
AcDbSymbolTableRecord
100
AcDbRegAppTableRecord
  2
ACAD_DSTYLE_DIM_EXT2_LINETYPE
 70
     0
  0
ENDTAB
  0
TABLE
  2
DIMSTYLE
  5
A
330
0
100
AcDbSymbolTable
 70
     8
100
AcDbDimStyleTable
 71
     0
  0
DIMSTYLE
105
57
330
A
100
AcDbSymbolTableRecord
100
AcDbDimStyleTableRecord
  2
Standard
 70
     0
340
55
  0
DIMSTYLE
105
58
330
A
100
AcDbSymbolTableRecord
100
AcDbDimStyleTableRecord
  2
Annotative
 70
     0
340
55
1001
AcadAnnotative
1000
AnnotativeData
1002
{
1070
     1
1070
     1
1002
}
  0
DIMSTYLE
105
107
102
{ACAD_REACTORS
330
5C2
102
}
330
A
100
AcDbSymbolTableRecord
100
AcDbDimStyleTableRecord
  2
AM_ANSI
 70
     0
  4
mm
 41
0.12
 42
0.05
 43
0.5
 44
0.1
 47
0.1
 48
0.1
 78
     7
 79
     2
140
0.12
141
0.0
146
0.71
147
0.06
176
   256
177
   256
178
     2
274
     4
284
     7
340
55
371
    -1
372
    -1
1001
ACAD_DSTYLE_DIMJAG
1070
   388
1040
1.5
1001
ACAD_DSTYLE_DIMBREAK
1070
   391
1040
0.125
1001
ACAD_DSTYLE_DIMARC_LENGTH_SYMBOL
1070
   379
1070
     1
1001
ACAD_DSTYLE_DIM_LINETYPE
1070
   380
1005
5A
1001
ACAD_DSTYLE_DIM_EXT1_LINETYPE
1070
   381
1005
5A
1001
ACAD_DSTYLE_DIM_EXT2_LINETYPE
1070
   382
1005
5A
  0
DIMSTYLE
105
10D
330
A
100
AcDbSymbolTableRecord
100
AcDbDimStyleTableRecord
  2
AM_ANSI$3
 70
     0
  4
mm
 41
0.12
 42
0.05
 43
0.5
 44
0.1
 47
0.1
 48
0.1
 78
     7
 79
     2
140
0.12
141
0.0
146
0.71
147
0.06
176
   256
177
   256
178
     2
274
     4
284
     7
288
     1
289
     0
340
55
371
    -1
372
    -1
1001
ACAD_DSTYLE_DIMBREAK
1070
   391
1040
0.125
1001
ACAD_DSTYLE_DIMJAG
1070
   388
1040
1.5
1001
ACAD_DSTYLE_DIMARC_LENGTH_SYMBOL
1070
   379
1070
     1
1001
ACAD_DSTYLE_DIM_LINETYPE
1070
   380
1005
5A
1001
ACAD_DSTYLE_DIM_EXT1_LINETYPE
1070
   381
1005
5A
1001
ACAD_DSTYLE_DIM_EXT2_LINETYPE
1070
   382
1005
5A
  0
DIMSTYLE
105
10E
330
A
100
AcDbSymbolTableRecord
100
AcDbDimStyleTableRecord
  2
AM_ANSI$4
 70
     0
  4
mm
 41
0.12
 42
0.05
 43
0.5
 44
0.1
 47
0.1
 48
0.1
 78
     7
 79
     2
140
0.12
141
0.0
146
0.71
147
0.06
176
   256
177
   256
178
     2
274
     4
284
     7
288
     1
289
     0
340
55
371
    -1
372
    -1
1001
ACAD_DSTYLE_DIMBREAK
1070
   391
1040
0.125
1001
ACAD_DSTYLE_DIMJAG
1070
   388
1040
1.5
1001
ACAD_DSTYLE_DIMARC_LENGTH_SYMBOL
1070
   379
1070
     1
1001
ACAD_DSTYLE_DIM_LINETYPE
1070
   380
1005
5A
1001
ACAD_DSTYLE_DIM_EXT1_LINETYPE
1070
   381
1005
5A
1001
ACAD_DSTYLE_DIM_EXT2_LINETYPE
1070
   382
1005
5A
  0
DIMSTYLE
105
10F
330
A
100
AcDbSymbolTableRecord
100
AcDbDimStyleTableRecord
  2
AM_ANSI$7
 70
     0
  4
mm
 41
0.12
 42
0.05
 43
0.5
 44
0.1
 47
0.1
 48
0.1
 78
     7
 79
     2
140
0.12
141
0.0
146
0.71
147
0.06
176
   256
177
   256
178
     2
274
     4
284
     7
340
55
371
    -1
372
    -1
1001
ACAD_DSTYLE_DIMBREAK
1070
   391
1040
0.125
1001
ACAD_DSTYLE_DIMJAG
1070
   388
1040
1.5
1001
ACAD_DSTYLE_DIMARC_LENGTH_SYMBOL
1070
   379
1070
     1
1001
ACAD_DSTYLE_DIM_LINETYPE
1070
   380
1005
5A
1001
ACAD_DSTYLE_DIM_EXT1_LINETYPE
1070
   381
1005
5A
1001
ACAD_DSTYLE_DIM_EXT2_LINETYPE
1070
   382
1005
5A
  0
DIMSTYLE
105
110
330
A
100
AcDbSymbolTableRecord
100
AcDbDimStyleTableRecord
  2
AM_ANSI$SF
 70
     0
  4
mm
 41
0.12
 42
0.05
 43
0.5
 44
0.1
 47
0.1
 48
0.1
 75
     1
 76
     1
 78
     7
 79
     2
140
0.12
141
0.0
146
0.71
147
0.06
176
   256
177
   256
178
     2
274
     4
284
     7
340
55
371
    -1
372
    -1
1001
ACAD_DSTYLE_DIMBREAK
1070
   391
1040
0.125
1001
ACAD_DSTYLE_DIMJAG
1070
   388
1040
1.5
1001
ACAD_DSTYLE_DIMARC_LENGTH_SYMBOL
1070
   379
1070
     1
1001
ACAD_DSTYLE_DIM_LINETYPE
1070
   380
1005
5A
1001
ACAD_DSTYLE_DIM_EXT1_LINETYPE
1070
   381
1005
5A
1001
ACAD_DSTYLE_DIM_EXT2_LINETYPE
1070
   382
1005
5A
  0
DIMSTYLE
105
115
330
A
100
AcDbSymbolTableRecord
100
AcDbDimStyleTableRecord
  2
AM_ANSI$SH
 70
     0
  4
mm
 41
0.12
 42
0.05
 43
0.5
 44
0.1
 47
0.1
 48
0.1
 75
     1
 76
     1
 78
     7
 79
     2
140
0.12
141
0.0
146
0.71
147
0.06
173
     1
176
   256
177
   256
178
     2
274
     4
284
     7
340
55
343
111
371
    -1
372
    -1
1001
ACAD_DSTYLE_DIMBREAK
1070
   391
1040
0.125
1001
ACAD_DSTYLE_DIMJAG
1070
   388
1040
1.5
1001
ACAD_DSTYLE_DIMARC_LENGTH_SYMBOL
1070
   379
1070
     1
1001
ACAD_DSTYLE_DIM_LINETYPE
1070
   380
1005
5A
1001
ACAD_DSTYLE_DIM_EXT1_LINETYPE
1070
   381
1005
5A
1001
ACAD_DSTYLE_DIM_EXT2_LINETYPE
1070
   382
1005
5A
  0
ENDTAB
  0
TABLE
  2
BLOCK_RECORD
  5
1
330
0
100
AcDbSymbolTable
 70
     3
  0
BLOCK_RECORD
  5
70
102
{ACAD_XDICTIONARY
360
539
102
}
330
1
100
AcDbSymbolTableRecord
100
AcDbBlockTableRecord
  2
*Model_Space
340
73
  0
BLOCK_RECORD
  5
6C
330
1
100
AcDbSymbolTableRecord
100
AcDbBlockTableRecord
  2
*Paper_Space
340
6F
  0
BLOCK_RECORD
  5
111
330
1
100
AcDbSymbolTableRecord
100
AcDbBlockTableRecord
  2
GENAXEH
340
0
  0
BLOCK_RECORD
  5
244
330
1
100
AcDbSymbolTableRecord
100
AcDbBlockTableRecord
  2
A$C517C6B61
340
0
  0
ENDTAB
  0
ENDSEC
  0
SECTION
  2
BLOCKS
  0
BLOCK
  5
71
330
70
100
AcDbEntity
  8
0
100
AcDbBlockBegin
  2
*Model_Space
 70
     0
 10
0.0
 20
0.0
 30
0.0
  3
*Model_Space
  1

  0
ENDBLK
  5
72
330
70
100
AcDbEntity
  8
0
100
AcDbBlockEnd
  0
BLOCK
  5
6D
330
6C
100
AcDbEntity
 67
     1
  8
0
100
AcDbBlockBegin
  2
*Paper_Space
 70
     0
 10
0.0
 20
0.0
 30
0.0
  3
*Paper_Space
  1

  0
ENDBLK
  5
6E
330
6C
100
AcDbEntity
 67
     1
  8
0
100
AcDbBlockEnd
  0
BLOCK
  5
113
330
111
100
AcDbEntity
  8
0
100
AcDbBlockBegin
  2
GENAXEH
 70
     0
 10
0.0
 20
0.0
 30
0.0
  3
GENAXEH
  1

  0
LINE
  5
112
330
111
100
AcDbEntity
  8
0
100
AcDbLine
 10
-1.0
 20
0.0
 30
0.0
 11
1.0
 21
0.0
 31
0.0
  0
ENDBLK
  5
114
330
111
100
AcDbEntity
  8
0
100
AcDbBlockEnd
  0
BLOCK
  5
497
330
244
100
AcDbEntity
  8
0
100
AcDbBlockBegin
  2
A$C517C6B61
 70
     0
 10
0.0
 20
0.0
 30
0.0
  3
A$C517C6B61
  1

  0
LINE
  5
245
330
244
100
AcDbEntity
  8
0
  6
Continuous
100
AcDbLine
 10
-0.0000000047556308
 20
0.0002840079306976
 30
0.0
 11
0.0016289952443692
 21
0.0002840079306976
 31
0.0
  0
LINE
  5
246
330
244
100
AcDbEntity
  8
0
  6
Continuous
100
AcDbLine
 10
-0.0000000047556308
 20
0.0013450079306976
 30
0.0
 11
-0.0000000047556308
 21
0.0002840079306976
 31
0.0
  0
LINE
  5
247
330
244
100
AcDbEntity
  8
0
  6
Continuous
100
AcDbLine
 10
-0.0000000047556308
 20
0.0233990079306976
 30
0.0
 11
-0.0000000047556308
 21
0.0013450079306976
 31
0.0
  0
LINE
  5
248
330
244
100
AcDbEntity
  8
0
  6
Continuous
100
AcDbLine
 10
0.0999949952443692
 20
0.0002840079306976
 30
0.0
 11
0.1038219952443692
 21
0.0002840079306976
 31
0.0
  0
LINE
  5
249
330
244
100
AcDbEntity
  8
0
  6
Continuous
100
AcDbLine
 10
0.1038219952443692
 20
0.0002840079306976
 30
0.0
 11
0.1070669952443692
 21
0.0002840079306976
 31
0.0
  0
LINE
  5
24A
330
244
100
AcDbEntity
  8
0
  6
Continuous
100
AcDbLine
 10
0.1070669952443692
 20
0.0002840079306976
 30
0.0
 11
0.1092339952443692
 21
0.0002840079306976
 31
0.0
  0
LINE
  5
24B
330
244
100
AcDbEntity
  8
0
  6
Continuous
100
AcDbLine
 10
0.1099959952443692
 20
0.0002840079306976
 30
0.0
 11
0.1099919952443691
 21
0.0013450079306976
 31
0.0
  0
LINE
  5
24C
330
244
100
AcDbEntity
  8
0
  6
Continuous
100
AcDbLine
 10
0.1092339952443692
 20
0.0002840079306976
 30
0.0
 11
0.1099959952443692
 21
0.0002840079306976
 31
0.0
  0
LINE
  5
24D
330
244
100
AcDbEntity
  8
0
  6
Continuous
100
AcDbLine
 10
-0.0000000047556308
 20
0.0242840079306976
 30
0.0
 11
-0.0000000047556308
 21
0.0233990079306976
 31
0.0
  0
LINE
  5
24E
330
244
100
AcDbEntity
  8
0
  6
Continuous
100
AcDbLine
 10
0.0016289952443692
 20
0.0242840079306976
 30
0.0
 11
-0.0000000047556308
 21
0.0242840079306976
 31
0.0
  0
LINE
  5
24F
330
244
100
AcDbEntity
  8
0
  6
Continuous
100
AcDbLine
 10
0.1099919952443691
 20
0.0013450079306976
 30
0.0
 11
0.1099149952443692
 21
0.0233990079306976
 31
0.0
  0
LINE
  5
250
330
244
100
AcDbEntity
  8
0
  6
Continuous
100
AcDbLine
 10
0.0285649952443692
 20
0.0242840079306976
 30
0.0
 11
0.0016289952443692
 21
0.0242840079306976
 31
0.0
  0
LINE
  5
251
330
244
100
AcDbEntity
  8
0
  6
Continuous
100
AcDbLine
 10
0.1037389952443692
 20
0.0242840079306976
 30
0.0
 11
0.0999119952443692
 21
0.0242840079306976
 31
0.0
  0
LINE
  5
252
330
244
100
AcDbEntity
  8
0
  6
Continuous
100
AcDbLine
 10
0.1069829952443692
 20
0.0242840079306976
 30
0.0
 11
0.1037389952443692
 21
0.0242840079306976
 31
0.0
  0
LINE
  5
253
330
244
100
AcDbEntity
  8
0
  6
Continuous
100
AcDbLine
 10
0.1091509952443692
 20
0.0242840079306976
 30
0.0
 11
0.1069829952443692
 21
0.0242840079306976
 31
0.0
  0
LINE
  5
254
330
244
100
AcDbEntity
  8
0
  6
Continuous
100
AcDbLine
 10
0.1099149952443692
 20
0.0233990079306976
 30
0.0
 11
0.1099119952443692
 21
0.0242840079306976
 31
0.0
  0
LINE
  5
255
330
244
100
AcDbEntity
  8
0
  6
Continuous
100
AcDbLine
 10
0.1099119952443692
 20
0.0242840079306976
 30
0.0
 11
0.1082829952443691
 21
0.0242840079306976
 31
0.0
  0
LINE
  5
256
330
244
100
AcDbEntity
  8
0
  6
Continuous
100
AcDbLine
 10
0.1091509952443692
 20
0.0242840079306976
 30
0.0
 11
0.1099119952443692
 21
0.0242840079306976
 31
0.0
  0
LINE
  5
257
330
244
100
AcDbEntity
  8
0
  6
Continuous
100
AcDbLine
 10
0.1076159952443692
 20
0.0242840079306976
 30
0.0
 11
0.1091509952443692
 21
0.0242840079306976
 31
0.0
  0
LINE
  5
258
330
244
100
AcDbEntity
  8
0
  6
Continuous
100
AcDbLine
 10
0.0554999952443692
 20
0.0002840079306976
 30
0.0
 11
0.0999949952443692
 21
0.0002840079306976
 31
0.0
  0
LINE
  5
259
330
244
100
AcDbEntity
  8
0
  6
Continuous
100
AcDbLine
 10
0.0999119952443692
 20
0.0242840079306976
 30
0.0
 11
0.0554999952443692
 21
0.0242840079306976
 31
0.0
  0
LINE
  5
25A
330
244
100
AcDbEntity
  8
0
  6
Continuous
100
AcDbLine
 10
0.0420319952443692
 20
0.0002840079306976
 30
0.0
 11
0.0554999952443692
 21
0.0002840079306976
 31
0.0
  0
LINE
  5
25B
330
244
100
AcDbEntity
  8
0
  6
Continuous
100
AcDbLine
 10
0.0285649952443692
 20
0.0002840079306976
 30
0.0
 11
0.0420319952443692
 21
0.0002840079306976
 31
0.0
  0
LINE
  5
25C
330
244
100
AcDbEntity
  8
0
  6
Continuous
100
AcDbLine
 10
0.0554999952443692
 20
0.0242840079306976
 30
0.0
 11
0.0420319952443692
 21
0.0242840079306976
 31
0.0
  0
LINE
  5
25D
330
244
100
AcDbEntity
  8
0
  6
Continuous
100
AcDbLine
 10
0.0420319952443692
 20
0.0242840079306976
 30
0.0
 11
0.0285649952443692
 21
0.0242840079306976
 31
0.0
  0
LINE
  5
25E
330
244
100
AcDbEntity
  8
0
  6
Continuous
100
AcDbLine
 10
0.1082829952443691
 20
0.0242840079306976
 30
0.0
 11
0.1072629952443691
 21
0.0242840079306976
 31
0.0
  0
LINE
  5
25F
330
244
100
AcDbEntity
  8
0
  6
Continuous
100
AcDbLine
 10
0.1066559952443691
 20
0.0242840079306976
 30
0.0
 11
0.1076159952443692
 21
0.0242840079306976
 31
0.0
  0
LINE
  5
260
330
244
100
AcDbEntity
  8
0
  6
Continuous
100
AcDbLine
 10
0.1072629952443691
 20
0.0242840079306976
 30
0.0
 11
0.1066559952443691
 21
0.0242840079306976
 31
0.0
  0
LINE
  5
261
330
244
100
AcDbEntity
  8
0
  6
Continuous
100
AcDbLine
 10
-0.0000000047556308
 20
0.0002840079306976
 30
0.0
 11
0.0002899952443692
 21
0.0002070079306976
 31
0.0
  0
LINE
  5
262
330
244
100
AcDbEntity
  8
0
  6
Continuous
100
AcDbLine
 10
0.0016289952443692
 20
0.0002840079306976
 30
0.0
 11
0.0285649952443692
 21
0.0002840079306976
 31
0.0
  0
LINE
  5
263
330
244
100
AcDbEntity
  8
0
  6
Continuous
100
AcDbLine
 10
0.0002899952443692
 20
0.0002070079306976
 30
0.0
 11
0.0021999952443692
 21
0.0000300079306976
 31
0.0
  0
LINE
  5
264
330
244
100
AcDbEntity
  8
0
  6
Continuous
100
AcDbLine
 10
0.0024059952443692
 20
0.0000000079306976
 30
0.0
 11
0.0036899952443692
 21
0.0002840079306976
 31
0.0
  0
LINE
  5
265
330
244
100
AcDbEntity
  8
0
  6
Continuous
100
AcDbLine
 10
0.0021999952443692
 20
0.0000300079306976
 30
0.0
 11
0.0024059952443692
 21
0.0000000079306976
 31
0.0
  0
LINE
  5
266
330
244
100
AcDbEntity
  8
0
  6
Continuous
100
AcDbLine
 10
0.0026489952443692
 20
0.0242840079306976
 30
0.0
 11
0.0342639952443692
 21
0.0242840079306976
 31
0.0
  0
LINE
  5
267
330
244
100
AcDbEntity
  8
0
  6
Continuous
100
AcDbLine
 10
0.0043789952443692
 20
0.0242840079306976
 30
0.0
 11
0.0026489952443692
 21
0.0242840079306976
 31
0.0
  0
LINE
  5
268
330
244
100
AcDbEntity
  8
0
  6
Continuous
100
AcDbLine
 10
0.0365319952443692
 20
0.0242840079306976
 30
0.0
 11
0.0043789952443692
 21
0.0242840079306976
 31
0.0
  0
LINE
  5
269
330
244
100
AcDbEntity
  8
0
  6
Continuous
100
AcDbLine
 10
0.0328069952443692
 20
0.0242840079306976
 30
0.0
 11
0.0320069952443692
 21
0.0242840079306976
 31
0.0
  0
LINE
  5
26A
330
244
100
AcDbEntity
  8
0
  6
Continuous
100
AcDbLine
 10
0.0351539952443692
 20
0.0242840079306976
 30
0.0
 11
0.0328069952443692
 21
0.0242840079306976
 31
0.0
  0
LINE
  5
26B
330
244
100
AcDbEntity
  8
0
  6
Continuous
100
AcDbLine
 10
0.0437529952443692
 20
0.0242840079306976
 30
0.0
 11
0.0388879952443692
 21
0.0242840079306976
 31
0.0
  0
LINE
  5
26C
330
244
100
AcDbEntity
  8
0
  6
Continuous
100
AcDbLine
 10
0.0494189952443692
 20
0.0242840079306976
 30
0.0
 11
0.0437529952443692
 21
0.0242840079306976
 31
0.0
  0
LINE
  5
26D
330
244
100
AcDbEntity
  8
0
  6
Continuous
100
AcDbLine
 10
0.0554999952443692
 20
0.0242840079306976
 30
0.0
 11
0.0494189952443692
 21
0.0242840079306976
 31
0.0
  0
LINE
  5
26E
330
244
100
AcDbEntity
  8
0
  6
Continuous
100
AcDbLine
 10
0.0615799952443692
 20
0.0242840079306976
 30
0.0
 11
0.0554999952443692
 21
0.0242840079306976
 31
0.0
  0
LINE
  5
26F
330
244
100
AcDbEntity
  8
0
  6
Continuous
100
AcDbLine
 10
0.0672459952443692
 20
0.0242840079306976
 30
0.0
 11
0.0615799952443692
 21
0.0242840079306976
 31
0.0
  0
LINE
  5
270
330
244
100
AcDbEntity
  8
0
  6
Continuous
100
AcDbLine
 10
0.0789919952443692
 20
0.0242840079306976
 30
0.0
 11
0.0781919952443692
 21
0.0242840079306976
 31
0.0
  0
LINE
  5
271
330
244
100
AcDbEntity
  8
0
  6
Continuous
100
AcDbLine
 10
0.0721109952443692
 20
0.0242840079306976
 30
0.0
 11
0.0672459952443692
 21
0.0242840079306976
 31
0.0
  0
LINE
  5
272
330
244
100
AcDbEntity
  8
0
  6
Continuous
100
AcDbLine
 10
0.0781919952443692
 20
0.0242840079306976
 30
0.0
 11
0.0758449952443692
 21
0.0242840079306976
 31
0.0
  0
LINE
  5
273
330
244
100
AcDbEntity
  8
0
  6
Continuous
100
AcDbLine
 10
0.0758449952443692
 20
0.0242840079306976
 30
0.0
 11
0.0721109952443692
 21
0.0242840079306976
 31
0.0
  0
LINE
  5
274
330
244
100
AcDbEntity
  8
0
  6
Continuous
100
AcDbLine
 10
0.0388879952443692
 20
0.0242840079306976
 30
0.0
 11
0.0381609952443692
 21
0.0242840079306976
 31
0.0
  0
LINE
  5
275
330
244
100
AcDbEntity
  8
0
  6
Continuous
100
AcDbLine
 10
0.0351539952443692
 20
0.0242840079306976
 30
0.0
 11
0.0388879952443692
 21
0.0242840079306976
 31
0.0
  0
LINE
  5
276
330
244
100
AcDbEntity
  8
0
  6
Continuous
100
AcDbLine
 10
0.0342639952443692
 20
0.0242840079306976
 30
0.0
 11
0.0351539952443692
 21
0.0242840079306976
 31
0.0
  0
LINE
  5
277
330
244
100
AcDbEntity
  8
0
  6
Continuous
100
AcDbLine
 10
0.0378179952443692
 20
0.0290880079306976
 30
0.0
 11
0.0355219952443692
 21
0.0297800079306976
 31
0.0
  0
LINE
  5
278
330
244
100
AcDbEntity
  8
0
  6
Continuous
100
AcDbLine
 10
0.0371459952443692
 20
0.0290880079306976
 30
0.0
 11
0.0378179952443692
 21
0.0290880079306976
 31
0.0
  0
LINE
  5
279
330
244
100
AcDbEntity
  8
0
  6
Continuous
100
AcDbLine
 10
0.0355219952443692
 20
0.0290880079306976
 30
0.0
 11
0.0371459952443692
 21
0.0290880079306976
 31
0.0
  0
LINE
  5
27A
330
244
100
AcDbEntity
  8
0
  6
Continuous
100
AcDbLine
 10
0.0338979952443692
 20
0.0290880079306976
 30
0.0
 11
0.0355219952443692
 21
0.0290880079306976
 31
0.0
  0
LINE
  5
27B
330
244
100
AcDbEntity
  8
0
  6
Continuous
100
AcDbLine
 10
0.0332249952443692
 20
0.0290880079306976
 30
0.0
 11
0.0338979952443692
 21
0.0290880079306976
 31
0.0
  0
LINE
  5
27C
330
244
100
AcDbEntity
  8
0
  6
Continuous
100
AcDbLine
 10
0.0355219952443692
 20
0.0297800079306976
 30
0.0
 11
0.0332249952443692
 21
0.0290880079306976
 31
0.0
  0
LINE
  5
27D
330
244
100
AcDbEntity
  8
0
  6
Continuous
100
AcDbLine
 10
0.0378219952443692
 20
0.0290880079306976
 30
0.0
 11
0.0355249952443692
 21
0.0297800079306976
 31
0.0
  0
LINE
  5
27E
330
244
100
AcDbEntity
  8
0
  6
Continuous
100
AcDbLine
 10
0.0371489952443692
 20
0.0290880079306976
 30
0.0
 11
0.0378219952443692
 21
0.0290880079306976
 31
0.0
  0
LINE
  5
27F
330
244
100
AcDbEntity
  8
0
  6
Continuous
100
AcDbLine
 10
0.0355249952443692
 20
0.0290880079306976
 30
0.0
 11
0.0371489952443692
 21
0.0290880079306976
 31
0.0
  0
LINE
  5
280
330
244
100
AcDbEntity
  8
0
  6
Continuous
100
AcDbLine
 10
0.0339009952443692
 20
0.0290880079306976
 30
0.0
 11
0.0355249952443692
 21
0.0290880079306976
 31
0.0
  0
LINE
  5
281
330
244
100
AcDbEntity
  8
0
  6
Continuous
100
AcDbLine
 10
0.0332289952443692
 20
0.0290880079306976
 30
0.0
 11
0.0339009952443692
 21
0.0290880079306976
 31
0.0
  0
LINE
  5
282
330
244
100
AcDbEntity
  8
0
  6
Continuous
100
AcDbLine
 10
0.0355249952443692
 20
0.0297800079306976
 30
0.0
 11
0.0332289952443692
 21
0.0290880079306976
 31
0.0
  0
LINE
  5
283
330
244
100
AcDbEntity
  8
0
  6
Continuous
100
AcDbLine
 10
0.0378249952443692
 20
0.0290880079306976
 30
0.0
 11
0.0355279952443692
 21
0.0297800079306976
 31
0.0
  0
LINE
  5
284
330
244
100
AcDbEntity
  8
0
  6
Continuous
100
AcDbLine
 10
0.0371519952443692
 20
0.0290880079306976
 30
0.0
 11
0.0378249952443692
 21
0.0290880079306976
 31
0.0
  0
LINE
  5
285
330
244
100
AcDbEntity
  8
0
  6
Continuous
100
AcDbLine
 10
0.0355279952443692
 20
0.0290880079306976
 30
0.0
 11
0.0371519952443692
 21
0.0290880079306976
 31
0.0
  0
LINE
  5
286
330
244
100
AcDbEntity
  8
0
  6
Continuous
100
AcDbLine
 10
0.0339049952443692
 20
0.0290880079306976
 30
0.0
 11
0.0355279952443692
 21
0.0290880079306976
 31
0.0
  0
LINE
  5
287
330
244
100
AcDbEntity
  8
0
  6
Continuous
100
AcDbLine
 10
0.0332319952443692
 20
0.0290880079306976
 30
0.0
 11
0.0339049952443692
 21
0.0290880079306976
 31
0.0
  0
LINE
  5
288
330
244
100
AcDbEntity
  8
0
  6
Continuous
100
AcDbLine
 10
0.0355279952443692
 20
0.0297800079306976
 30
0.0
 11
0.0332319952443692
 21
0.0290880079306976
 31
0.0
  0
LINE
  5
289
330
244
100
AcDbEntity
  8
0
  6
Continuous
100
AcDbLine
 10
0.0378279952443692
 20
0.0290880079306976
 30
0.0
 11
0.0355319952443692
 21
0.0297800079306976
 31
0.0
  0
LINE
  5
28A
330
244
100
AcDbEntity
  8
0
  6
Continuous
100
AcDbLine
 10
0.0371559952443692
 20
0.0290880079306976
 30
0.0
 11
0.0378279952443692
 21
0.0290880079306976
 31
0.0
  0
LINE
  5
28B
330
244
100
AcDbEntity
  8
0
  6
Continuous
100
AcDbLine
 10
0.0355319952443692
 20
0.0290880079306976
 30
0.0
 11
0.0371559952443692
 21
0.0290880079306976
 31
0.0
  0
LINE
  5
28C
330
244
100
AcDbEntity
  8
0
  6
Continuous
100
AcDbLine
 10
0.0339079952443692
 20
0.0290880079306976
 30
0.0
 11
0.0355319952443692
 21
0.0290880079306976
 31
0.0
  0
LINE
  5
28D
330
244
100
AcDbEntity
  8
0
  6
Continuous
100
AcDbLine
 10
0.0332349952443692
 20
0.0290880079306976
 30
0.0
 11
0.0339079952443692
 21
0.0290880079306976
 31
0.0
  0
LINE
  5
28E
330
244
100
AcDbEntity
  8
0
  6
Continuous
100
AcDbLine
 10
0.0355319952443692
 20
0.0297800079306976
 30
0.0
 11
0.0332349952443692
 21
0.0290880079306976
 31
0.0
  0
LINE
  5
28F
330
244
100
AcDbEntity
  8
0
  6
Continuous
100
AcDbLine
 10
0.0378309952443692
 20
0.0290880079306976
 30
0.0
 11
0.0355349952443692
 21
0.0297800079306976
 31
0.0
  0
LINE
  5
290
330
244
100
AcDbEntity
  8
0
  6
Continuous
100
AcDbLine
 10
0.0371589952443692
 20
0.0290880079306976
 30
0.0
 11
0.0378309952443692
 21
0.0290880079306976
 31
0.0
  0
LINE
  5
291
330
244
100
AcDbEntity
  8
0
  6
Continuous
100
AcDbLine
 10
0.0355349952443692
 20
0.0290880079306976
 30
0.0
 11
0.0371589952443692
 21
0.0290880079306976
 31
0.0
  0
LINE
  5
292
330
244
100
AcDbEntity
  8
0
  6
Continuous
100
AcDbLine
 10
0.0339109952443692
 20
0.0290880079306976
 30
0.0
 11
0.0355349952443692
 21
0.0290880079306976
 31
0.0
  0
LINE
  5
293
330
244
100
AcDbEntity
  8
0
  6
Continuous
100
AcDbLine
 10
0.0332379952443692
 20
0.0290880079306976
 30
0.0
 11
0.0339109952443692
 21
0.0290880079306976
 31
0.0
  0
LINE
  5
294
330
244
100
AcDbEntity
  8
0
  6
Continuous
100
AcDbLine
 10
0.0355349952443692
 20
0.0297800079306976
 30
0.0
 11
0.0332379952443692
 21
0.0290880079306976
 31
0.0
  0
LINE
  5
295
330
244
100
AcDbEntity
  8
0
  6
Continuous
100
AcDbLine
 10
0.0378349952443692
 20
0.0290880079306976
 30
0.0
 11
0.0355379952443692
 21
0.0297800079306976
 31
0.0
  0
LINE
  5
296
330
244
100
AcDbEntity
  8
0
  6
Continuous
100
AcDbLine
 10
0.0371619952443692
 20
0.0290880079306976
 30
0.0
 11
0.0378349952443692
 21
0.0290880079306976
 31
0.0
  0
LINE
  5
297
330
244
100
AcDbEntity
  8
0
  6
Continuous
100
AcDbLine
 10
0.0355379952443692
 20
0.0290880079306976
 30
0.0
 11
0.0371619952443692
 21
0.0290880079306976
 31
0.0
  0
LINE
  5
298
330
244
100
AcDbEntity
  8
0
  6
Continuous
100
AcDbLine
 10
0.0339139952443692
 20
0.0290880079306976
 30
0.0
 11
0.0355379952443692
 21
0.0290880079306976
 31
0.0
  0
LINE
  5
299
330
244
100
AcDbEntity
  8
0
  6
Continuous
100
AcDbLine
 10
0.0332419952443692
 20
0.0290880079306976
 30
0.0
 11
0.0339139952443692
 21
0.0290880079306976
 31
0.0
  0
LINE
  5
29A
330
244
100
AcDbEntity
  8
0
  6
Continuous
100
AcDbLine
 10
0.0355379952443692
 20
0.0297800079306976
 30
0.0
 11
0.0332419952443692
 21
0.0290880079306976
 31
0.0
  0
LINE
  5
29B
330
244
100
AcDbEntity
  8
0
  6
Continuous
100
AcDbLine
 10
0.0378379952443692
 20
0.0290880079306976
 30
0.0
 11
0.0355409952443692
 21
0.0297800079306976
 31
0.0
  0
LINE
  5
29C
330
244
100
AcDbEntity
  8
0
  6
Continuous
100
AcDbLine
 10
0.0371649952443692
 20
0.0290880079306976
 30
0.0
 11
0.0378379952443692
 21
0.0290880079306976
 31
0.0
  0
LINE
  5
29D
330
244
100
AcDbEntity
  8
0
  6
Continuous
100
AcDbLine
 10
0.0355409952443692
 20
0.0290880079306976
 30
0.0
 11
0.0371649952443692
 21
0.0290880079306976
 31
0.0
  0
LINE
  5
29E
330
244
100
AcDbEntity
  8
0
  6
Continuous
100
AcDbLine
 10
0.0339179952443692
 20
0.0290880079306976
 30
0.0
 11
0.0355409952443692
 21
0.0290880079306976
 31
0.0
  0
LINE
  5
29F
330
244
100
AcDbEntity
  8
0
  6
Continuous
100
AcDbLine
 10
0.0332449952443692
 20
0.0290880079306976
 30
0.0
 11
0.0339179952443692
 21
0.0290880079306976
 31
0.0
  0
LINE
  5
2A0
330
244
100
AcDbEntity
  8
0
  6
Continuous
100
AcDbLine
 10
0.0355409952443692
 20
0.0297800079306976
 30
0.0
 11
0.0332449952443692
 21
0.0290880079306976
 31
0.0
  0
LINE
  5
2A1
330
244
100
AcDbEntity
  8
0
  6
Continuous
100
AcDbLine
 10
0.0378409952443692
 20
0.0290880079306976
 30
0.0
 11
0.0355449952443692
 21
0.0297800079306976
 31
0.0
  0
LINE
  5
2A2
330
244
100
AcDbEntity
  8
0
  6
Continuous
100
AcDbLine
 10
0.0371689952443692
 20
0.0290880079306976
 30
0.0
 11
0.0378409952443692
 21
0.0290880079306976
 31
0.0
  0
LINE
  5
2A3
330
244
100
AcDbEntity
  8
0
  6
Continuous
100
AcDbLine
 10
0.0355449952443692
 20
0.0290880079306976
 30
0.0
 11
0.0371689952443692
 21
0.0290880079306976
 31
0.0
  0
LINE
  5
2A4
330
244
100
AcDbEntity
  8
0
  6
Continuous
100
AcDbLine
 10
0.0339209952443692
 20
0.0290880079306976
 30
0.0
 11
0.0355449952443692
 21
0.0290880079306976
 31
0.0
  0
LINE
  5
2A5
330
244
100
AcDbEntity
  8
0
  6
Continuous
100
AcDbLine
 10
0.0332479952443692
 20
0.0290880079306976
 30
0.0
 11
0.0339209952443692
 21
0.0290880079306976
 31
0.0
  0
LINE
  5
2A6
330
244
100
AcDbEntity
  8
0
  6
Continuous
100
AcDbLine
 10
0.0355449952443692
 20
0.0297800079306976
 30
0.0
 11
0.0332479952443692
 21
0.0290880079306976
 31
0.0
  0
LINE
  5
2A7
330
244
100
AcDbEntity
  8
0
  6
Continuous
100
AcDbLine
 10
0.0378449952443692
 20
0.0290880079306976
 30
0.0
 11
0.0355479952443692
 21
0.0297800079306976
 31
0.0
  0
LINE
  5
2A8
330
244
100
AcDbEntity
  8
0
  6
Continuous
100
AcDbLine
 10
0.0371719952443692
 20
0.0290880079306976
 30
0.0
 11
0.0378449952443692
 21
0.0290880079306976
 31
0.0
  0
LINE
  5
2A9
330
244
100
AcDbEntity
  8
0
  6
Continuous
100
AcDbLine
 10
0.0355479952443692
 20
0.0290880079306976
 30
0.0
 11
0.0371719952443692
 21
0.0290880079306976
 31
0.0
  0
LINE
  5
2AA
330
244
100
AcDbEntity
  8
0
  6
Continuous
100
AcDbLine
 10
0.0339239952443692
 20
0.0290880079306976
 30
0.0
 11
0.0355479952443692
 21
0.0290880079306976
 31
0.0
  0
LINE
  5
2AB
330
244
100
AcDbEntity
  8
0
  6
Continuous
100
AcDbLine
 10
0.0332519952443692
 20
0.0290880079306976
 30
0.0
 11
0.0339239952443692
 21
0.0290880079306976
 31
0.0
  0
LINE
  5
2AC
330
244
100
AcDbEntity
  8
0
  6
Continuous
100
AcDbLine
 10
0.0355479952443692
 20
0.0297800079306976
 30
0.0
 11
0.0332519952443692
 21
0.0290880079306976
 31
0.0
  0
LINE
  5
2AD
330
244
100
AcDbEntity
  8
0
  6
Continuous
100
AcDbLine
 10
0.0378479952443692
 20
0.0290880079306976
 30
0.0
 11
0.0355509952443692
 21
0.0297800079306976
 31
0.0
  0
LINE
  5
2AE
330
244
100
AcDbEntity
  8
0
  6
Continuous
100
AcDbLine
 10
0.0371749952443692
 20
0.0290880079306976
 30
0.0
 11
0.0378479952443692
 21
0.0290880079306976
 31
0.0
  0
LINE
  5
2AF
330
244
100
AcDbEntity
  8
0
  6
Continuous
100
AcDbLine
 10
0.0355509952443692
 20
0.0290880079306976
 30
0.0
 11
0.0371749952443692
 21
0.0290880079306976
 31
0.0
  0
LINE
  5
2B0
330
244
100
AcDbEntity
  8
0
  6
Continuous
100
AcDbLine
 10
0.0339269952443692
 20
0.0290880079306976
 30
0.0
 11
0.0355509952443692
 21
0.0290880079306976
 31
0.0
  0
LINE
  5
2B1
330
244
100
AcDbEntity
  8
0
  6
Continuous
100
AcDbLine
 10
0.0332549952443692
 20
0.0290880079306976
 30
0.0
 11
0.0339269952443692
 21
0.0290880079306976
 31
0.0
  0
LINE
  5
2B2
330
244
100
AcDbEntity
  8
0
  6
Continuous
100
AcDbLine
 10
0.0355509952443692
 20
0.0297800079306976
 30
0.0
 11
0.0332549952443692
 21
0.0290880079306976
 31
0.0
  0
LINE
  5
2B3
330
244
100
AcDbEntity
  8
0
  6
Continuous
100
AcDbLine
 10
0.0378149952443692
 20
0.0290880079306976
 30
0.0
 11
0.0355189952443692
 21
0.0297800079306976
 31
0.0
  0
LINE
  5
2B4
330
244
100
AcDbEntity
  8
0
  6
Continuous
100
AcDbLine
 10
0.0371419952443692
 20
0.0290880079306976
 30
0.0
 11
0.0378149952443692
 21
0.0290880079306976
 31
0.0
  0
LINE
  5
2B5
330
244
100
AcDbEntity
  8
0
  6
Continuous
100
AcDbLine
 10
0.0355189952443692
 20
0.0290880079306976
 30
0.0
 11
0.0371419952443692
 21
0.0290880079306976
 31
0.0
  0
LINE
  5
2B6
330
244
100
AcDbEntity
  8
0
  6
Continuous
100
AcDbLine
 10
0.0338949952443692
 20
0.0290880079306976
 30
0.0
 11
0.0355189952443692
 21
0.0290880079306976
 31
0.0
  0
LINE
  5
2B7
330
244
100
AcDbEntity
  8
0
  6
Continuous
100
AcDbLine
 10
0.0332219952443692
 20
0.0290880079306976
 30
0.0
 11
0.0338949952443692
 21
0.0290880079306976
 31
0.0
  0
LINE
  5
2B8
330
244
100
AcDbEntity
  8
0
  6
Continuous
100
AcDbLine
 10
0.0355189952443692
 20
0.0297800079306976
 30
0.0
 11
0.0332219952443692
 21
0.0290880079306976
 31
0.0
  0
LINE
  5
2B9
330
244
100
AcDbEntity
  8
0
  6
Continuous
100
AcDbLine
 10
0.0478249952443692
 20
0.0290880079306976
 30
0.0
 11
0.0455279952443692
 21
0.0297800079306976
 31
0.0
  0
LINE
  5
2BA
330
244
100
AcDbEntity
  8
0
  6
Continuous
100
AcDbLine
 10
0.0471519952443692
 20
0.0290880079306976
 30
0.0
 11
0.0478249952443692
 21
0.0290880079306976
 31
0.0
  0
LINE
  5
2BB
330
244
100
AcDbEntity
  8
0
  6
Continuous
100
AcDbLine
 10
0.0455279952443692
 20
0.0290880079306976
 30
0.0
 11
0.0471519952443692
 21
0.0290880079306976
 31
0.0
  0
LINE
  5
2BC
330
244
100
AcDbEntity
  8
0
  6
Continuous
100
AcDbLine
 10
0.0439039952443692
 20
0.0290880079306976
 30
0.0
 11
0.0455279952443692
 21
0.0290880079306976
 31
0.0
  0
LINE
  5
2BD
330
244
100
AcDbEntity
  8
0
  6
Continuous
100
AcDbLine
 10
0.0432319952443692
 20
0.0290880079306976
 30
0.0
 11
0.0439039952443692
 21
0.0290880079306976
 31
0.0
  0
LINE
  5
2BE
330
244
100
AcDbEntity
  8
0
  6
Continuous
100
AcDbLine
 10
0.0455279952443692
 20
0.0297800079306976
 30
0.0
 11
0.0432319952443692
 21
0.0290880079306976
 31
0.0
  0
LINE
  5
2BF
330
244
100
AcDbEntity
  8
0
  6
Continuous
100
AcDbLine
 10
0.0478279952443692
 20
0.0290880079306976
 30
0.0
 11
0.0455319952443692
 21
0.0297800079306976
 31
0.0
  0
LINE
  5
2C0
330
244
100
AcDbEntity
  8
0
  6
Continuous
100
AcDbLine
 10
0.0471549952443692
 20
0.0290880079306976
 30
0.0
 11
0.0478279952443692
 21
0.0290880079306976
 31
0.0
  0
LINE
  5
2C1
330
244
100
AcDbEntity
  8
0
  6
Continuous
100
AcDbLine
 10
0.0455319952443692
 20
0.0290880079306976
 30
0.0
 11
0.0471549952443692
 21
0.0290880079306976
 31
0.0
  0
LINE
  5
2C2
330
244
100
AcDbEntity
  8
0
  6
Continuous
100
AcDbLine
 10
0.0439079952443692
 20
0.0290880079306976
 30
0.0
 11
0.0455319952443692
 21
0.0290880079306976
 31
0.0
  0
LINE
  5
2C3
330
244
100
AcDbEntity
  8
0
  6
Continuous
100
AcDbLine
 10
0.0432349952443692
 20
0.0290880079306976
 30
0.0
 11
0.0439079952443692
 21
0.0290880079306976
 31
0.0
  0
LINE
  5
2C4
330
244
100
AcDbEntity
  8
0
  6
Continuous
100
AcDbLine
 10
0.0455319952443692
 20
0.0297800079306976
 30
0.0
 11
0.0432349952443692
 21
0.0290880079306976
 31
0.0
  0
LINE
  5
2C5
330
244
100
AcDbEntity
  8
0
  6
Continuous
100
AcDbLine
 10
0.0478309952443692
 20
0.0290880079306976
 30
0.0
 11
0.0455349952443692
 21
0.0297800079306976
 31
0.0
  0
LINE
  5
2C6
330
244
100
AcDbEntity
  8
0
  6
Continuous
100
AcDbLine
 10
0.0471589952443692
 20
0.0290880079306976
 30
0.0
 11
0.0478309952443692
 21
0.0290880079306976
 31
0.0
  0
LINE
  5
2C7
330
244
100
AcDbEntity
  8
0
  6
Continuous
100
AcDbLine
 10
0.0455349952443692
 20
0.0290880079306976
 30
0.0
 11
0.0471589952443692
 21
0.0290880079306976
 31
0.0
  0
LINE
  5
2C8
330
244
100
AcDbEntity
  8
0
  6
Continuous
100
AcDbLine
 10
0.0439109952443692
 20
0.0290880079306976
 30
0.0
 11
0.0455349952443692
 21
0.0290880079306976
 31
0.0
  0
LINE
  5
2C9
330
244
100
AcDbEntity
  8
0
  6
Continuous
100
AcDbLine
 10
0.0432379952443692
 20
0.0290880079306976
 30
0.0
 11
0.0439109952443692
 21
0.0290880079306976
 31
0.0
  0
LINE
  5
2CA
330
244
100
AcDbEntity
  8
0
  6
Continuous
100
AcDbLine
 10
0.0455349952443692
 20
0.0297800079306976
 30
0.0
 11
0.0432379952443692
 21
0.0290880079306976
 31
0.0
  0
LINE
  5
2CB
330
244
100
AcDbEntity
  8
0
  6
Continuous
100
AcDbLine
 10
0.0478349952443692
 20
0.0290880079306976
 30
0.0
 11
0.0455379952443692
 21
0.0297800079306976
 31
0.0
  0
LINE
  5
2CC
330
244
100
AcDbEntity
  8
0
  6
Continuous
100
AcDbLine
 10
0.0471619952443692
 20
0.0290880079306976
 30
0.0
 11
0.0478349952443692
 21
0.0290880079306976
 31
0.0
  0
LINE
  5
2CD
330
244
100
AcDbEntity
  8
0
  6
Continuous
100
AcDbLine
 10
0.0455379952443692
 20
0.0290880079306976
 30
0.0
 11
0.0471619952443692
 21
0.0290880079306976
 31
0.0
  0
LINE
  5
2CE
330
244
100
AcDbEntity
  8
0
  6
Continuous
100
AcDbLine
 10
0.0439139952443692
 20
0.0290880079306976
 30
0.0
 11
0.0455379952443692
 21
0.0290880079306976
 31
0.0
  0
LINE
  5
2CF
330
244
100
AcDbEntity
  8
0
  6
Continuous
100
AcDbLine
 10
0.0432419952443692
 20
0.0290880079306976
 30
0.0
 11
0.0439139952443692
 21
0.0290880079306976
 31
0.0
  0
LINE
  5
2D0
330
244
100
AcDbEntity
  8
0
  6
Continuous
100
AcDbLine
 10
0.0455379952443692
 20
0.0297800079306976
 30
0.0
 11
0.0432419952443692
 21
0.0290880079306976
 31
0.0
  0
LINE
  5
2D1
330
244
100
AcDbEntity
  8
0
  6
Continuous
100
AcDbLine
 10
0.0478379952443692
 20
0.0290880079306976
 30
0.0
 11
0.0455409952443692
 21
0.0297800079306976
 31
0.0
  0
LINE
  5
2D2
330
244
100
AcDbEntity
  8
0
  6
Continuous
100
AcDbLine
 10
0.0471649952443692
 20
0.0290880079306976
 30
0.0
 11
0.0478379952443692
 21
0.0290880079306976
 31
0.0
  0
LINE
  5
2D3
330
244
100
AcDbEntity
  8
0
  6
Continuous
100
AcDbLine
 10
0.0455409952443692
 20
0.0290880079306976
 30
0.0
 11
0.0471649952443692
 21
0.0290880079306976
 31
0.0
  0
LINE
  5
2D4
330
244
100
AcDbEntity
  8
0
  6
Continuous
100
AcDbLine
 10
0.0439169952443692
 20
0.0290880079306976
 30
0.0
 11
0.0455409952443692
 21
0.0290880079306976
 31
0.0
  0
LINE
  5
2D5
330
244
100
AcDbEntity
  8
0
  6
Continuous
100
AcDbLine
 10
0.0432449952443692
 20
0.0290880079306976
 30
0.0
 11
0.0439169952443692
 21
0.0290880079306976
 31
0.0
  0
LINE
  5
2D6
330
244
100
AcDbEntity
  8
0
  6
Continuous
100
AcDbLine
 10
0.0455409952443692
 20
0.0297800079306976
 30
0.0
 11
0.0432449952443692
 21
0.0290880079306976
 31
0.0
  0
LINE
  5
2D7
330
244
100
AcDbEntity
  8
0
  6
Continuous
100
AcDbLine
 10
0.0478409952443692
 20
0.0290880079306976
 30
0.0
 11
0.0455449952443692
 21
0.0297800079306976
 31
0.0
  0
LINE
  5
2D8
330
244
100
AcDbEntity
  8
0
  6
Continuous
100
AcDbLine
 10
0.0471679952443692
 20
0.0290880079306976
 30
0.0
 11
0.0478409952443692
 21
0.0290880079306976
 31
0.0
  0
LINE
  5
2D9
330
244
100
AcDbEntity
  8
0
  6
Continuous
100
AcDbLine
 10
0.0455449952443692
 20
0.0290880079306976
 30
0.0
 11
0.0471679952443692
 21
0.0290880079306976
 31
0.0
  0
LINE
  5
2DA
330
244
100
AcDbEntity
  8
0
  6
Continuous
100
AcDbLine
 10
0.0439209952443692
 20
0.0290880079306976
 30
0.0
 11
0.0455449952443692
 21
0.0290880079306976
 31
0.0
  0
LINE
  5
2DB
330
244
100
AcDbEntity
  8
0
  6
Continuous
100
AcDbLine
 10
0.0432479952443692
 20
0.0290880079306976
 30
0.0
 11
0.0439209952443692
 21
0.0290880079306976
 31
0.0
  0
LINE
  5
2DC
330
244
100
AcDbEntity
  8
0
  6
Continuous
100
AcDbLine
 10
0.0455449952443692
 20
0.0297800079306976
 30
0.0
 11
0.0432479952443692
 21
0.0290880079306976
 31
0.0
  0
LINE
  5
2DD
330
244
100
AcDbEntity
  8
0
  6
Continuous
100
AcDbLine
 10
0.0478439952443692
 20
0.0290880079306976
 30
0.0
 11
0.0455479952443692
 21
0.0297800079306976
 31
0.0
  0
LINE
  5
2DE
330
244
100
AcDbEntity
  8
0
  6
Continuous
100
AcDbLine
 10
0.0471719952443692
 20
0.0290880079306976
 30
0.0
 11
0.0478439952443692
 21
0.0290880079306976
 31
0.0
  0
LINE
  5
2DF
330
244
100
AcDbEntity
  8
0
  6
Continuous
100
AcDbLine
 10
0.0455479952443692
 20
0.0290880079306976
 30
0.0
 11
0.0471719952443692
 21
0.0290880079306976
 31
0.0
  0
LINE
  5
2E0
330
244
100
AcDbEntity
  8
0
  6
Continuous
100
AcDbLine
 10
0.0439239952443692
 20
0.0290880079306976
 30
0.0
 11
0.0455479952443692
 21
0.0290880079306976
 31
0.0
  0
LINE
  5
2E1
330
244
100
AcDbEntity
  8
0
  6
Continuous
100
AcDbLine
 10
0.0432509952443692
 20
0.0290880079306976
 30
0.0
 11
0.0439239952443692
 21
0.0290880079306976
 31
0.0
  0
LINE
  5
2E2
330
244
100
AcDbEntity
  8
0
  6
Continuous
100
AcDbLine
 10
0.0455479952443692
 20
0.0297800079306976
 30
0.0
 11
0.0432509952443692
 21
0.0290880079306976
 31
0.0
  0
LINE
  5
2E3
330
244
100
AcDbEntity
  8
0
  6
Continuous
100
AcDbLine
 10
0.0478479952443692
 20
0.0290880079306976
 30
0.0
 11
0.0455509952443692
 21
0.0297800079306976
 31
0.0
  0
LINE
  5
2E4
330
244
100
AcDbEntity
  8
0
  6
Continuous
100
AcDbLine
 10
0.0471749952443692
 20
0.0290880079306976
 30
0.0
 11
0.0478479952443692
 21
0.0290880079306976
 31
0.0
  0
LINE
  5
2E5
330
244
100
AcDbEntity
  8
0
  6
Continuous
100
AcDbLine
 10
0.0455509952443692
 20
0.0290880079306976
 30
0.0
 11
0.0471749952443692
 21
0.0290880079306976
 31
0.0
  0
LINE
  5
2E6
330
244
100
AcDbEntity
  8
0
  6
Continuous
100
AcDbLine
 10
0.0439269952443692
 20
0.0290880079306976
 30
0.0
 11
0.0455509952443692
 21
0.0290880079306976
 31
0.0
  0
LINE
  5
2E7
330
244
100
AcDbEntity
  8
0
  6
Continuous
100
AcDbLine
 10
0.0432549952443692
 20
0.0290880079306976
 30
0.0
 11
0.0439269952443692
 21
0.0290880079306976
 31
0.0
  0
LINE
  5
2E8
330
244
100
AcDbEntity
  8
0
  6
Continuous
100
AcDbLine
 10
0.0455509952443692
 20
0.0297800079306976
 30
0.0
 11
0.0432549952443692
 21
0.0290880079306976
 31
0.0
  0
LINE
  5
2E9
330
244
100
AcDbEntity
  8
0
  6
Continuous
100
AcDbLine
 10
0.0478509952443692
 20
0.0290880079306976
 30
0.0
 11
0.0455539952443692
 21
0.0297800079306976
 31
0.0
  0
LINE
  5
2EA
330
244
100
AcDbEntity
  8
0
  6
Continuous
100
AcDbLine
 10
0.0471779952443692
 20
0.0290880079306976
 30
0.0
 11
0.0478509952443692
 21
0.0290880079306976
 31
0.0
  0
LINE
  5
2EB
330
244
100
AcDbEntity
  8
0
  6
Continuous
100
AcDbLine
 10
0.0455539952443692
 20
0.0290880079306976
 30
0.0
 11
0.0471779952443692
 21
0.0290880079306976
 31
0.0
  0
LINE
  5
2EC
330
244
100
AcDbEntity
  8
0
  6
Continuous
100
AcDbLine
 10
0.0439309952443692
 20
0.0290880079306976
 30
0.0
 11
0.0455539952443692
 21
0.0290880079306976
 31
0.0
  0
LINE
  5
2ED
330
244
100
AcDbEntity
  8
0
  6
Continuous
100
AcDbLine
 10
0.0432579952443692
 20
0.0290880079306976
 30
0.0
 11
0.0439309952443692
 21
0.0290880079306976
 31
0.0
  0
LINE
  5
2EE
330
244
100
AcDbEntity
  8
0
  6
Continuous
100
AcDbLine
 10
0.0455539952443692
 20
0.0297800079306976
 30
0.0
 11
0.0432579952443692
 21
0.0290880079306976
 31
0.0
  0
LINE
  5
2EF
330
244
100
AcDbEntity
  8
0
  6
Continuous
100
AcDbLine
 10
0.0478539952443692
 20
0.0290880079306976
 30
0.0
 11
0.0455579952443692
 21
0.0297800079306976
 31
0.0
  0
LINE
  5
2F0
330
244
100
AcDbEntity
  8
0
  6
Continuous
100
AcDbLine
 10
0.0471819952443692
 20
0.0290880079306976
 30
0.0
 11
0.0478539952443692
 21
0.0290880079306976
 31
0.0
  0
LINE
  5
2F1
330
244
100
AcDbEntity
  8
0
  6
Continuous
100
AcDbLine
 10
0.0455579952443692
 20
0.0290880079306976
 30
0.0
 11
0.0471819952443692
 21
0.0290880079306976
 31
0.0
  0
LINE
  5
2F2
330
244
100
AcDbEntity
  8
0
  6
Continuous
100
AcDbLine
 10
0.0439339952443692
 20
0.0290880079306976
 30
0.0
 11
0.0455579952443692
 21
0.0290880079306976
 31
0.0
  0
LINE
  5
2F3
330
244
100
AcDbEntity
  8
0
  6
Continuous
100
AcDbLine
 10
0.0432609952443692
 20
0.0290880079306976
 30
0.0
 11
0.0439339952443692
 21
0.0290880079306976
 31
0.0
  0
LINE
  5
2F4
330
244
100
AcDbEntity
  8
0
  6
Continuous
100
AcDbLine
 10
0.0455579952443692
 20
0.0297800079306976
 30
0.0
 11
0.0432609952443692
 21
0.0290880079306976
 31
0.0
  0
LINE
  5
2F5
330
244
100
AcDbEntity
  8
0
  6
Continuous
100
AcDbLine
 10
0.0478219952443692
 20
0.0290880079306976
 30
0.0
 11
0.0455249952443692
 21
0.0297800079306976
 31
0.0
  0
LINE
  5
2F6
330
244
100
AcDbEntity
  8
0
  6
Continuous
100
AcDbLine
 10
0.0471489952443692
 20
0.0290880079306976
 30
0.0
 11
0.0478219952443692
 21
0.0290880079306976
 31
0.0
  0
LINE
  5
2F7
330
244
100
AcDbEntity
  8
0
  6
Continuous
100
AcDbLine
 10
0.0455249952443692
 20
0.0290880079306976
 30
0.0
 11
0.0471489952443692
 21
0.0290880079306976
 31
0.0
  0
LINE
  5
2F8
330
244
100
AcDbEntity
  8
0
  6
Continuous
100
AcDbLine
 10
0.0439009952443692
 20
0.0290880079306976
 30
0.0
 11
0.0455249952443692
 21
0.0290880079306976
 31
0.0
  0
LINE
  5
2F9
330
244
100
AcDbEntity
  8
0
  6
Continuous
100
AcDbLine
 10
0.0432289952443692
 20
0.0290880079306976
 30
0.0
 11
0.0439009952443692
 21
0.0290880079306976
 31
0.0
  0
LINE
  5
2FA
330
244
100
AcDbEntity
  8
0
  6
Continuous
100
AcDbLine
 10
0.0455249952443692
 20
0.0297800079306976
 30
0.0
 11
0.0432289952443692
 21
0.0290880079306976
 31
0.0
  0
LINE
  5
2FB
330
244
100
AcDbEntity
  8
0
  6
Continuous
100
AcDbLine
 10
0.0578309952443692
 20
0.0290880079306976
 30
0.0
 11
0.0555349952443692
 21
0.0297800079306976
 31
0.0
  0
LINE
  5
2FC
330
244
100
AcDbEntity
  8
0
  6
Continuous
100
AcDbLine
 10
0.0571589952443692
 20
0.0290880079306976
 30
0.0
 11
0.0578309952443692
 21
0.0290880079306976
 31
0.0
  0
LINE
  5
2FD
330
244
100
AcDbEntity
  8
0
  6
Continuous
100
AcDbLine
 10
0.0555349952443692
 20
0.0290880079306976
 30
0.0
 11
0.0571589952443692
 21
0.0290880079306976
 31
0.0
  0
LINE
  5
2FE
330
244
100
AcDbEntity
  8
0
  6
Continuous
100
AcDbLine
 10
0.0539109952443692
 20
0.0290880079306976
 30
0.0
 11
0.0555349952443692
 21
0.0290880079306976
 31
0.0
  0
LINE
  5
2FF
330
244
100
AcDbEntity
  8
0
  6
Continuous
100
AcDbLine
 10
0.0532379952443692
 20
0.0290880079306976
 30
0.0
 11
0.0539109952443692
 21
0.0290880079306976
 31
0.0
  0
LINE
  5
300
330
244
100
AcDbEntity
  8
0
  6
Continuous
100
AcDbLine
 10
0.0555349952443692
 20
0.0297800079306976
 30
0.0
 11
0.0532379952443692
 21
0.0290880079306976
 31
0.0
  0
LINE
  5
301
330
244
100
AcDbEntity
  8
0
  6
Continuous
100
AcDbLine
 10
0.0578339952443692
 20
0.0290880079306976
 30
0.0
 11
0.0555379952443692
 21
0.0297800079306976
 31
0.0
  0
LINE
  5
302
330
244
100
AcDbEntity
  8
0
  6
Continuous
100
AcDbLine
 10
0.0571619952443692
 20
0.0290880079306976
 30
0.0
 11
0.0578339952443692
 21
0.0290880079306976
 31
0.0
  0
LINE
  5
303
330
244
100
AcDbEntity
  8
0
  6
Continuous
100
AcDbLine
 10
0.0555379952443692
 20
0.0290880079306976
 30
0.0
 11
0.0571619952443692
 21
0.0290880079306976
 31
0.0
  0
LINE
  5
304
330
244
100
AcDbEntity
  8
0
  6
Continuous
100
AcDbLine
 10
0.0539139952443692
 20
0.0290880079306976
 30
0.0
 11
0.0555379952443692
 21
0.0290880079306976
 31
0.0
  0
LINE
  5
305
330
244
100
AcDbEntity
  8
0
  6
Continuous
100
AcDbLine
 10
0.0532409952443692
 20
0.0290880079306976
 30
0.0
 11
0.0539139952443692
 21
0.0290880079306976
 31
0.0
  0
LINE
  5
306
330
244
100
AcDbEntity
  8
0
  6
Continuous
100
AcDbLine
 10
0.0555379952443692
 20
0.0297800079306976
 30
0.0
 11
0.0532409952443692
 21
0.0290880079306976
 31
0.0
  0
LINE
  5
307
330
244
100
AcDbEntity
  8
0
  6
Continuous
100
AcDbLine
 10
0.0578379952443692
 20
0.0290880079306976
 30
0.0
 11
0.0555409952443692
 21
0.0297800079306976
 31
0.0
  0
LINE
  5
308
330
244
100
AcDbEntity
  8
0
  6
Continuous
100
AcDbLine
 10
0.0571649952443692
 20
0.0290880079306976
 30
0.0
 11
0.0578379952443692
 21
0.0290880079306976
 31
0.0
  0
LINE
  5
309
330
244
100
AcDbEntity
  8
0
  6
Continuous
100
AcDbLine
 10
0.0555409952443692
 20
0.0290880079306976
 30
0.0
 11
0.0571649952443692
 21
0.0290880079306976
 31
0.0
  0
LINE
  5
30A
330
244
100
AcDbEntity
  8
0
  6
Continuous
100
AcDbLine
 10
0.0539169952443692
 20
0.0290880079306976
 30
0.0
 11
0.0555409952443692
 21
0.0290880079306976
 31
0.0
  0
LINE
  5
30B
330
244
100
AcDbEntity
  8
0
  6
Continuous
100
AcDbLine
 10
0.0532449952443692
 20
0.0290880079306976
 30
0.0
 11
0.0539169952443692
 21
0.0290880079306976
 31
0.0
  0
LINE
  5
30C
330
244
100
AcDbEntity
  8
0
  6
Continuous
100
AcDbLine
 10
0.0555409952443692
 20
0.0297800079306976
 30
0.0
 11
0.0532449952443692
 21
0.0290880079306976
 31
0.0
  0
LINE
  5
30D
330
244
100
AcDbEntity
  8
0
  6
Continuous
100
AcDbLine
 10
0.0578409952443692
 20
0.0290880079306976
 30
0.0
 11
0.0555439952443692
 21
0.0297800079306976
 31
0.0
  0
LINE
  5
30E
330
244
100
AcDbEntity
  8
0
  6
Continuous
100
AcDbLine
 10
0.0571679952443692
 20
0.0290880079306976
 30
0.0
 11
0.0578409952443692
 21
0.0290880079306976
 31
0.0
  0
LINE
  5
30F
330
244
100
AcDbEntity
  8
0
  6
Continuous
100
AcDbLine
 10
0.0555439952443692
 20
0.0290880079306976
 30
0.0
 11
0.0571679952443692
 21
0.0290880079306976
 31
0.0
  0
LINE
  5
310
330
244
100
AcDbEntity
  8
0
  6
Continuous
100
AcDbLine
 10
0.0539209952443692
 20
0.0290880079306976
 30
0.0
 11
0.0555439952443692
 21
0.0290880079306976
 31
0.0
  0
LINE
  5
311
330
244
100
AcDbEntity
  8
0
  6
Continuous
100
AcDbLine
 10
0.0532479952443692
 20
0.0290880079306976
 30
0.0
 11
0.0539209952443692
 21
0.0290880079306976
 31
0.0
  0
LINE
  5
312
330
244
100
AcDbEntity
  8
0
  6
Continuous
100
AcDbLine
 10
0.0555439952443692
 20
0.0297800079306976
 30
0.0
 11
0.0532479952443692
 21
0.0290880079306976
 31
0.0
  0
LINE
  5
313
330
244
100
AcDbEntity
  8
0
  6
Continuous
100
AcDbLine
 10
0.0578439952443692
 20
0.0290880079306976
 30
0.0
 11
0.0555479952443692
 21
0.0297800079306976
 31
0.0
  0
LINE
  5
314
330
244
100
AcDbEntity
  8
0
  6
Continuous
100
AcDbLine
 10
0.0571719952443692
 20
0.0290880079306976
 30
0.0
 11
0.0578439952443692
 21
0.0290880079306976
 31
0.0
  0
LINE
  5
315
330
244
100
AcDbEntity
  8
0
  6
Continuous
100
AcDbLine
 10
0.0555479952443692
 20
0.0290880079306976
 30
0.0
 11
0.0571719952443692
 21
0.0290880079306976
 31
0.0
  0
LINE
  5
316
330
244
100
AcDbEntity
  8
0
  6
Continuous
100
AcDbLine
 10
0.0539239952443692
 20
0.0290880079306976
 30
0.0
 11
0.0555479952443692
 21
0.0290880079306976
 31
0.0
  0
LINE
  5
317
330
244
100
AcDbEntity
  8
0
  6
Continuous
100
AcDbLine
 10
0.0532509952443692
 20
0.0290880079306976
 30
0.0
 11
0.0539239952443692
 21
0.0290880079306976
 31
0.0
  0
LINE
  5
318
330
244
100
AcDbEntity
  8
0
  6
Continuous
100
AcDbLine
 10
0.0555479952443692
 20
0.0297800079306976
 30
0.0
 11
0.0532509952443692
 21
0.0290880079306976
 31
0.0
  0
LINE
  5
319
330
244
100
AcDbEntity
  8
0
  6
Continuous
100
AcDbLine
 10
0.0578469952443692
 20
0.0290880079306976
 30
0.0
 11
0.0555509952443692
 21
0.0297800079306976
 31
0.0
  0
LINE
  5
31A
330
244
100
AcDbEntity
  8
0
  6
Continuous
100
AcDbLine
 10
0.0571749952443692
 20
0.0290880079306976
 30
0.0
 11
0.0578469952443692
 21
0.0290880079306976
 31
0.0
  0
LINE
  5
31B
330
244
100
AcDbEntity
  8
0
  6
Continuous
100
AcDbLine
 10
0.0555509952443692
 20
0.0290880079306976
 30
0.0
 11
0.0571749952443692
 21
0.0290880079306976
 31
0.0
  0
LINE
  5
31C
330
244
100
AcDbEntity
  8
0
  6
Continuous
100
AcDbLine
 10
0.0539269952443692
 20
0.0290880079306976
 30
0.0
 11
0.0555509952443692
 21
0.0290880079306976
 31
0.0
  0
LINE
  5
31D
330
244
100
AcDbEntity
  8
0
  6
Continuous
100
AcDbLine
 10
0.0532539952443692
 20
0.0290880079306976
 30
0.0
 11
0.0539269952443692
 21
0.0290880079306976
 31
0.0
  0
LINE
  5
31E
330
244
100
AcDbEntity
  8
0
  6
Continuous
100
AcDbLine
 10
0.0555509952443692
 20
0.0297800079306976
 30
0.0
 11
0.0532539952443692
 21
0.0290880079306976
 31
0.0
  0
LINE
  5
31F
330
244
100
AcDbEntity
  8
0
  6
Continuous
100
AcDbLine
 10
0.0578509952443692
 20
0.0290880079306976
 30
0.0
 11
0.0555539952443692
 21
0.0297800079306976
 31
0.0
  0
LINE
  5
320
330
244
100
AcDbEntity
  8
0
  6
Continuous
100
AcDbLine
 10
0.0571779952443692
 20
0.0290880079306976
 30
0.0
 11
0.0578509952443692
 21
0.0290880079306976
 31
0.0
  0
LINE
  5
321
330
244
100
AcDbEntity
  8
0
  6
Continuous
100
AcDbLine
 10
0.0555539952443692
 20
0.0290880079306976
 30
0.0
 11
0.0571779952443692
 21
0.0290880079306976
 31
0.0
  0
LINE
  5
322
330
244
100
AcDbEntity
  8
0
  6
Continuous
100
AcDbLine
 10
0.0539299952443692
 20
0.0290880079306976
 30
0.0
 11
0.0555539952443692
 21
0.0290880079306976
 31
0.0
  0
LINE
  5
323
330
244
100
AcDbEntity
  8
0
  6
Continuous
100
AcDbLine
 10
0.0532579952443692
 20
0.0290880079306976
 30
0.0
 11
0.0539299952443692
 21
0.0290880079306976
 31
0.0
  0
LINE
  5
324
330
244
100
AcDbEntity
  8
0
  6
Continuous
100
AcDbLine
 10
0.0555539952443692
 20
0.0297800079306976
 30
0.0
 11
0.0532579952443692
 21
0.0290880079306976
 31
0.0
  0
LINE
  5
325
330
244
100
AcDbEntity
  8
0
  6
Continuous
100
AcDbLine
 10
0.0578539952443692
 20
0.0290880079306976
 30
0.0
 11
0.0555579952443692
 21
0.0297800079306976
 31
0.0
  0
LINE
  5
326
330
244
100
AcDbEntity
  8
0
  6
Continuous
100
AcDbLine
 10
0.0571809952443692
 20
0.0290880079306976
 30
0.0
 11
0.0578539952443692
 21
0.0290880079306976
 31
0.0
  0
LINE
  5
327
330
244
100
AcDbEntity
  8
0
  6
Continuous
100
AcDbLine
 10
0.0555579952443692
 20
0.0290880079306976
 30
0.0
 11
0.0571809952443692
 21
0.0290880079306976
 31
0.0
  0
LINE
  5
328
330
244
100
AcDbEntity
  8
0
  6
Continuous
100
AcDbLine
 10
0.0539339952443692
 20
0.0290880079306976
 30
0.0
 11
0.0555579952443692
 21
0.0290880079306976
 31
0.0
  0
LINE
  5
329
330
244
100
AcDbEntity
  8
0
  6
Continuous
100
AcDbLine
 10
0.0532609952443692
 20
0.0290880079306976
 30
0.0
 11
0.0539339952443692
 21
0.0290880079306976
 31
0.0
  0
LINE
  5
32A
330
244
100
AcDbEntity
  8
0
  6
Continuous
100
AcDbLine
 10
0.0555579952443692
 20
0.0297800079306976
 30
0.0
 11
0.0532609952443692
 21
0.0290880079306976
 31
0.0
  0
LINE
  5
32B
330
244
100
AcDbEntity
  8
0
  6
Continuous
100
AcDbLine
 10
0.0578569952443692
 20
0.0290880079306976
 30
0.0
 11
0.0555609952443692
 21
0.0297800079306976
 31
0.0
  0
LINE
  5
32C
330
244
100
AcDbEntity
  8
0
  6
Continuous
100
AcDbLine
 10
0.0571849952443692
 20
0.0290880079306976
 30
0.0
 11
0.0578569952443692
 21
0.0290880079306976
 31
0.0
  0
LINE
  5
32D
330
244
100
AcDbEntity
  8
0
  6
Continuous
100
AcDbLine
 10
0.0555609952443692
 20
0.0290880079306976
 30
0.0
 11
0.0571849952443692
 21
0.0290880079306976
 31
0.0
  0
LINE
  5
32E
330
244
100
AcDbEntity
  8
0
  6
Continuous
100
AcDbLine
 10
0.0539369952443692
 20
0.0290880079306976
 30
0.0
 11
0.0555609952443692
 21
0.0290880079306976
 31
0.0
  0
LINE
  5
32F
330
244
100
AcDbEntity
  8
0
  6
Continuous
100
AcDbLine
 10
0.0532639952443692
 20
0.0290880079306976
 30
0.0
 11
0.0539369952443692
 21
0.0290880079306976
 31
0.0
  0
LINE
  5
330
330
244
100
AcDbEntity
  8
0
  6
Continuous
100
AcDbLine
 10
0.0555609952443692
 20
0.0297800079306976
 30
0.0
 11
0.0532639952443692
 21
0.0290880079306976
 31
0.0
  0
LINE
  5
331
330
244
100
AcDbEntity
  8
0
  6
Continuous
100
AcDbLine
 10
0.0578609952443692
 20
0.0290880079306976
 30
0.0
 11
0.0555639952443692
 21
0.0297800079306976
 31
0.0
  0
LINE
  5
332
330
244
100
AcDbEntity
  8
0
  6
Continuous
100
AcDbLine
 10
0.0571879952443692
 20
0.0290880079306976
 30
0.0
 11
0.0578609952443692
 21
0.0290880079306976
 31
0.0
  0
LINE
  5
333
330
244
100
AcDbEntity
  8
0
  6
Continuous
100
AcDbLine
 10
0.0555639952443692
 20
0.0290880079306976
 30
0.0
 11
0.0571879952443692
 21
0.0290880079306976
 31
0.0
  0
LINE
  5
334
330
244
100
AcDbEntity
  8
0
  6
Continuous
100
AcDbLine
 10
0.0539399952443692
 20
0.0290880079306976
 30
0.0
 11
0.0555639952443692
 21
0.0290880079306976
 31
0.0
  0
LINE
  5
335
330
244
100
AcDbEntity
  8
0
  6
Continuous
100
AcDbLine
 10
0.0532679952443692
 20
0.0290880079306976
 30
0.0
 11
0.0539399952443692
 21
0.0290880079306976
 31
0.0
  0
LINE
  5
336
330
244
100
AcDbEntity
  8
0
  6
Continuous
100
AcDbLine
 10
0.0555639952443692
 20
0.0297800079306976
 30
0.0
 11
0.0532679952443692
 21
0.0290880079306976
 31
0.0
  0
LINE
  5
337
330
244
100
AcDbEntity
  8
0
  6
Continuous
100
AcDbLine
 10
0.0578279952443692
 20
0.0290880079306976
 30
0.0
 11
0.0555309952443692
 21
0.0297800079306976
 31
0.0
  0
LINE
  5
338
330
244
100
AcDbEntity
  8
0
  6
Continuous
100
AcDbLine
 10
0.0571549952443692
 20
0.0290880079306976
 30
0.0
 11
0.0578279952443692
 21
0.0290880079306976
 31
0.0
  0
LINE
  5
339
330
244
100
AcDbEntity
  8
0
  6
Continuous
100
AcDbLine
 10
0.0555309952443692
 20
0.0290880079306976
 30
0.0
 11
0.0571549952443692
 21
0.0290880079306976
 31
0.0
  0
LINE
  5
33A
330
244
100
AcDbEntity
  8
0
  6
Continuous
100
AcDbLine
 10
0.0539079952443692
 20
0.0290880079306976
 30
0.0
 11
0.0555309952443692
 21
0.0290880079306976
 31
0.0
  0
LINE
  5
33B
330
244
100
AcDbEntity
  8
0
  6
Continuous
100
AcDbLine
 10
0.0532349952443692
 20
0.0290880079306976
 30
0.0
 11
0.0539079952443692
 21
0.0290880079306976
 31
0.0
  0
LINE
  5
33C
330
244
100
AcDbEntity
  8
0
  6
Continuous
100
AcDbLine
 10
0.0555309952443692
 20
0.0297800079306976
 30
0.0
 11
0.0532349952443692
 21
0.0290880079306976
 31
0.0
  0
LINE
  5
33D
330
244
100
AcDbEntity
  8
0
  6
Continuous
100
AcDbLine
 10
0.0678379952443692
 20
0.0290880079306976
 30
0.0
 11
0.0655409952443692
 21
0.0297800079306976
 31
0.0
  0
LINE
  5
33E
330
244
100
AcDbEntity
  8
0
  6
Continuous
100
AcDbLine
 10
0.0671649952443692
 20
0.0290880079306976
 30
0.0
 11
0.0678379952443692
 21
0.0290880079306976
 31
0.0
  0
LINE
  5
33F
330
244
100
AcDbEntity
  8
0
  6
Continuous
100
AcDbLine
 10
0.0655409952443692
 20
0.0290880079306976
 30
0.0
 11
0.0671649952443692
 21
0.0290880079306976
 31
0.0
  0
LINE
  5
340
330
244
100
AcDbEntity
  8
0
  6
Continuous
100
AcDbLine
 10
0.0639169952443692
 20
0.0290880079306976
 30
0.0
 11
0.0655409952443692
 21
0.0290880079306976
 31
0.0
  0
LINE
  5
341
330
244
100
AcDbEntity
  8
0
  6
Continuous
100
AcDbLine
 10
0.0632449952443692
 20
0.0290880079306976
 30
0.0
 11
0.0639169952443692
 21
0.0290880079306976
 31
0.0
  0
LINE
  5
342
330
244
100
AcDbEntity
  8
0
  6
Continuous
100
AcDbLine
 10
0.0655409952443692
 20
0.0297800079306976
 30
0.0
 11
0.0632449952443692
 21
0.0290880079306976
 31
0.0
  0
LINE
  5
343
330
244
100
AcDbEntity
  8
0
  6
Continuous
100
AcDbLine
 10
0.0678409952443692
 20
0.0290880079306976
 30
0.0
 11
0.0655439952443692
 21
0.0297800079306976
 31
0.0
  0
LINE
  5
344
330
244
100
AcDbEntity
  8
0
  6
Continuous
100
AcDbLine
 10
0.0671679952443692
 20
0.0290880079306976
 30
0.0
 11
0.0678409952443692
 21
0.0290880079306976
 31
0.0
  0
LINE
  5
345
330
244
100
AcDbEntity
  8
0
  6
Continuous
100
AcDbLine
 10
0.0655439952443692
 20
0.0290880079306976
 30
0.0
 11
0.0671679952443692
 21
0.0290880079306976
 31
0.0
  0
LINE
  5
346
330
244
100
AcDbEntity
  8
0
  6
Continuous
100
AcDbLine
 10
0.0639199952443692
 20
0.0290880079306976
 30
0.0
 11
0.0655439952443692
 21
0.0290880079306976
 31
0.0
  0
LINE
  5
347
330
244
100
AcDbEntity
  8
0
  6
Continuous
100
AcDbLine
 10
0.0632479952443692
 20
0.0290880079306976
 30
0.0
 11
0.0639199952443692
 21
0.0290880079306976
 31
0.0
  0
LINE
  5
348
330
244
100
AcDbEntity
  8
0
  6
Continuous
100
AcDbLine
 10
0.0655439952443692
 20
0.0297800079306976
 30
0.0
 11
0.0632479952443692
 21
0.0290880079306976
 31
0.0
  0
LINE
  5
349
330
244
100
AcDbEntity
  8
0
  6
Continuous
100
AcDbLine
 10
0.0678439952443692
 20
0.0290880079306976
 30
0.0
 11
0.0655479952443692
 21
0.0297800079306976
 31
0.0
  0
LINE
  5
34A
330
244
100
AcDbEntity
  8
0
  6
Continuous
100
AcDbLine
 10
0.0671709952443692
 20
0.0290880079306976
 30
0.0
 11
0.0678439952443692
 21
0.0290880079306976
 31
0.0
  0
LINE
  5
34B
330
244
100
AcDbEntity
  8
0
  6
Continuous
100
AcDbLine
 10
0.0655479952443692
 20
0.0290880079306976
 30
0.0
 11
0.0671709952443692
 21
0.0290880079306976
 31
0.0
  0
LINE
  5
34C
330
244
100
AcDbEntity
  8
0
  6
Continuous
100
AcDbLine
 10
0.0639239952443692
 20
0.0290880079306976
 30
0.0
 11
0.0655479952443692
 21
0.0290880079306976
 31
0.0
  0
LINE
  5
34D
330
244
100
AcDbEntity
  8
0
  6
Continuous
100
AcDbLine
 10
0.0632509952443692
 20
0.0290880079306976
 30
0.0
 11
0.0639239952443692
 21
0.0290880079306976
 31
0.0
  0
LINE
  5
34E
330
244
100
AcDbEntity
  8
0
  6
Continuous
100
AcDbLine
 10
0.0655479952443692
 20
0.0297800079306976
 30
0.0
 11
0.0632509952443692
 21
0.0290880079306976
 31
0.0
  0
LINE
  5
34F
330
244
100
AcDbEntity
  8
0
  6
Continuous
100
AcDbLine
 10
0.0678469952443692
 20
0.0290880079306976
 30
0.0
 11
0.0655509952443692
 21
0.0297800079306976
 31
0.0
  0
LINE
  5
350
330
244
100
AcDbEntity
  8
0
  6
Continuous
100
AcDbLine
 10
0.0671749952443692
 20
0.0290880079306976
 30
0.0
 11
0.0678469952443692
 21
0.0290880079306976
 31
0.0
  0
LINE
  5
351
330
244
100
AcDbEntity
  8
0
  6
Continuous
100
AcDbLine
 10
0.0655509952443692
 20
0.0290880079306976
 30
0.0
 11
0.0671749952443692
 21
0.0290880079306976
 31
0.0
  0
LINE
  5
352
330
244
100
AcDbEntity
  8
0
  6
Continuous
100
AcDbLine
 10
0.0639269952443692
 20
0.0290880079306976
 30
0.0
 11
0.0655509952443692
 21
0.0290880079306976
 31
0.0
  0
LINE
  5
353
330
244
100
AcDbEntity
  8
0
  6
Continuous
100
AcDbLine
 10
0.0632539952443692
 20
0.0290880079306976
 30
0.0
 11
0.0639269952443692
 21
0.0290880079306976
 31
0.0
  0
LINE
  5
354
330
244
100
AcDbEntity
  8
0
  6
Continuous
100
AcDbLine
 10
0.0655509952443692
 20
0.0297800079306976
 30
0.0
 11
0.0632539952443692
 21
0.0290880079306976
 31
0.0
  0
LINE
  5
355
330
244
100
AcDbEntity
  8
0
  6
Continuous
100
AcDbLine
 10
0.0678509952443692
 20
0.0290880079306976
 30
0.0
 11
0.0655539952443692
 21
0.0297800079306976
 31
0.0
  0
LINE
  5
356
330
244
100
AcDbEntity
  8
0
  6
Continuous
100
AcDbLine
 10
0.0671779952443692
 20
0.0290880079306976
 30
0.0
 11
0.0678509952443692
 21
0.0290880079306976
 31
0.0
  0
LINE
  5
357
330
244
100
AcDbEntity
  8
0
  6
Continuous
100
AcDbLine
 10
0.0655539952443692
 20
0.0290880079306976
 30
0.0
 11
0.0671779952443692
 21
0.0290880079306976
 31
0.0
  0
LINE
  5
358
330
244
100
AcDbEntity
  8
0
  6
Continuous
100
AcDbLine
 10
0.0639299952443692
 20
0.0290880079306976
 30
0.0
 11
0.0655539952443692
 21
0.0290880079306976
 31
0.0
  0
LINE
  5
359
330
244
100
AcDbEntity
  8
0
  6
Continuous
100
AcDbLine
 10
0.0632579952443692
 20
0.0290880079306976
 30
0.0
 11
0.0639299952443692
 21
0.0290880079306976
 31
0.0
  0
LINE
  5
35A
330
244
100
AcDbEntity
  8
0
  6
Continuous
100
AcDbLine
 10
0.0655539952443692
 20
0.0297800079306976
 30
0.0
 11
0.0632579952443692
 21
0.0290880079306976
 31
0.0
  0
LINE
  5
35B
330
244
100
AcDbEntity
  8
0
  6
Continuous
100
AcDbLine
 10
0.0678539952443692
 20
0.0290880079306976
 30
0.0
 11
0.0655569952443692
 21
0.0297800079306976
 31
0.0
  0
LINE
  5
35C
330
244
100
AcDbEntity
  8
0
  6
Continuous
100
AcDbLine
 10
0.0671809952443692
 20
0.0290880079306976
 30
0.0
 11
0.0678539952443692
 21
0.0290880079306976
 31
0.0
  0
LINE
  5
35D
330
244
100
AcDbEntity
  8
0
  6
Continuous
100
AcDbLine
 10
0.0655569952443692
 20
0.0290880079306976
 30
0.0
 11
0.0671809952443692
 21
0.0290880079306976
 31
0.0
  0
LINE
  5
35E
330
244
100
AcDbEntity
  8
0
  6
Continuous
100
AcDbLine
 10
0.0639339952443692
 20
0.0290880079306976
 30
0.0
 11
0.0655569952443692
 21
0.0290880079306976
 31
0.0
  0
LINE
  5
35F
330
244
100
AcDbEntity
  8
0
  6
Continuous
100
AcDbLine
 10
0.0632609952443692
 20
0.0290880079306976
 30
0.0
 11
0.0639339952443692
 21
0.0290880079306976
 31
0.0
  0
LINE
  5
360
330
244
100
AcDbEntity
  8
0
  6
Continuous
100
AcDbLine
 10
0.0655569952443692
 20
0.0297800079306976
 30
0.0
 11
0.0632609952443692
 21
0.0290880079306976
 31
0.0
  0
LINE
  5
361
330
244
100
AcDbEntity
  8
0
  6
Continuous
100
AcDbLine
 10
0.0678569952443692
 20
0.0290880079306976
 30
0.0
 11
0.0655609952443692
 21
0.0297800079306976
 31
0.0
  0
LINE
  5
362
330
244
100
AcDbEntity
  8
0
  6
Continuous
100
AcDbLine
 10
0.0671849952443692
 20
0.0290880079306976
 30
0.0
 11
0.0678569952443692
 21
0.0290880079306976
 31
0.0
  0
LINE
  5
363
330
244
100
AcDbEntity
  8
0
  6
Continuous
100
AcDbLine
 10
0.0655609952443692
 20
0.0290880079306976
 30
0.0
 11
0.0671849952443692
 21
0.0290880079306976
 31
0.0
  0
LINE
  5
364
330
244
100
AcDbEntity
  8
0
  6
Continuous
100
AcDbLine
 10
0.0639369952443692
 20
0.0290880079306976
 30
0.0
 11
0.0655609952443692
 21
0.0290880079306976
 31
0.0
  0
LINE
  5
365
330
244
100
AcDbEntity
  8
0
  6
Continuous
100
AcDbLine
 10
0.0632639952443692
 20
0.0290880079306976
 30
0.0
 11
0.0639369952443692
 21
0.0290880079306976
 31
0.0
  0
LINE
  5
366
330
244
100
AcDbEntity
  8
0
  6
Continuous
100
AcDbLine
 10
0.0655609952443692
 20
0.0297800079306976
 30
0.0
 11
0.0632639952443692
 21
0.0290880079306976
 31
0.0
  0
LINE
  5
367
330
244
100
AcDbEntity
  8
0
  6
Continuous
100
AcDbLine
 10
0.0678599952443692
 20
0.0290880079306976
 30
0.0
 11
0.0655639952443692
 21
0.0297800079306976
 31
0.0
  0
LINE
  5
368
330
244
100
AcDbEntity
  8
0
  6
Continuous
100
AcDbLine
 10
0.0671879952443692
 20
0.0290880079306976
 30
0.0
 11
0.0678599952443692
 21
0.0290880079306976
 31
0.0
  0
LINE
  5
369
330
244
100
AcDbEntity
  8
0
  6
Continuous
100
AcDbLine
 10
0.0655639952443692
 20
0.0290880079306976
 30
0.0
 11
0.0671879952443692
 21
0.0290880079306976
 31
0.0
  0
LINE
  5
36A
330
244
100
AcDbEntity
  8
0
  6
Continuous
100
AcDbLine
 10
0.0639399952443692
 20
0.0290880079306976
 30
0.0
 11
0.0655639952443692
 21
0.0290880079306976
 31
0.0
  0
LINE
  5
36B
330
244
100
AcDbEntity
  8
0
  6
Continuous
100
AcDbLine
 10
0.0632669952443692
 20
0.0290880079306976
 30
0.0
 11
0.0639399952443692
 21
0.0290880079306976
 31
0.0
  0
LINE
  5
36C
330
244
100
AcDbEntity
  8
0
  6
Continuous
100
AcDbLine
 10
0.0655639952443692
 20
0.0297800079306976
 30
0.0
 11
0.0632669952443692
 21
0.0290880079306976
 31
0.0
  0
LINE
  5
36D
330
244
100
AcDbEntity
  8
0
  6
Continuous
100
AcDbLine
 10
0.0678639952443692
 20
0.0290880079306976
 30
0.0
 11
0.0655669952443692
 21
0.0297800079306976
 31
0.0
  0
LINE
  5
36E
330
244
100
AcDbEntity
  8
0
  6
Continuous
100
AcDbLine
 10
0.0671909952443692
 20
0.0290880079306976
 30
0.0
 11
0.0678639952443692
 21
0.0290880079306976
 31
0.0
  0
LINE
  5
36F
330
244
100
AcDbEntity
  8
0
  6
Continuous
100
AcDbLine
 10
0.0655669952443692
 20
0.0290880079306976
 30
0.0
 11
0.0671909952443692
 21
0.0290880079306976
 31
0.0
  0
LINE
  5
370
330
244
100
AcDbEntity
  8
0
  6
Continuous
100
AcDbLine
 10
0.0639429952443692
 20
0.0290880079306976
 30
0.0
 11
0.0655669952443692
 21
0.0290880079306976
 31
0.0
  0
LINE
  5
371
330
244
100
AcDbEntity
  8
0
  6
Continuous
100
AcDbLine
 10
0.0632709952443692
 20
0.0290880079306976
 30
0.0
 11
0.0639429952443692
 21
0.0290880079306976
 31
0.0
  0
LINE
  5
372
330
244
100
AcDbEntity
  8
0
  6
Continuous
100
AcDbLine
 10
0.0655669952443692
 20
0.0297800079306976
 30
0.0
 11
0.0632709952443692
 21
0.0290880079306976
 31
0.0
  0
LINE
  5
373
330
244
100
AcDbEntity
  8
0
  6
Continuous
100
AcDbLine
 10
0.0678669952443692
 20
0.0290880079306976
 30
0.0
 11
0.0655699952443692
 21
0.0297800079306976
 31
0.0
  0
LINE
  5
374
330
244
100
AcDbEntity
  8
0
  6
Continuous
100
AcDbLine
 10
0.0671939952443692
 20
0.0290880079306976
 30
0.0
 11
0.0678669952443692
 21
0.0290880079306976
 31
0.0
  0
LINE
  5
375
330
244
100
AcDbEntity
  8
0
  6
Continuous
100
AcDbLine
 10
0.0655699952443692
 20
0.0290880079306976
 30
0.0
 11
0.0671939952443692
 21
0.0290880079306976
 31
0.0
  0
LINE
  5
376
330
244
100
AcDbEntity
  8
0
  6
Continuous
100
AcDbLine
 10
0.0639469952443692
 20
0.0290880079306976
 30
0.0
 11
0.0655699952443692
 21
0.0290880079306976
 31
0.0
  0
LINE
  5
377
330
244
100
AcDbEntity
  8
0
  6
Continuous
100
AcDbLine
 10
0.0632739952443692
 20
0.0290880079306976
 30
0.0
 11
0.0639469952443692
 21
0.0290880079306976
 31
0.0
  0
LINE
  5
378
330
244
100
AcDbEntity
  8
0
  6
Continuous
100
AcDbLine
 10
0.0655699952443692
 20
0.0297800079306976
 30
0.0
 11
0.0632739952443692
 21
0.0290880079306976
 31
0.0
  0
LINE
  5
379
330
244
100
AcDbEntity
  8
0
  6
Continuous
100
AcDbLine
 10
0.0678339952443692
 20
0.0290880079306976
 30
0.0
 11
0.0655379952443692
 21
0.0297800079306976
 31
0.0
  0
LINE
  5
37A
330
244
100
AcDbEntity
  8
0
  6
Continuous
100
AcDbLine
 10
0.0671619952443692
 20
0.0290880079306976
 30
0.0
 11
0.0678339952443692
 21
0.0290880079306976
 31
0.0
  0
LINE
  5
37B
330
244
100
AcDbEntity
  8
0
  6
Continuous
100
AcDbLine
 10
0.0655379952443692
 20
0.0290880079306976
 30
0.0
 11
0.0671619952443692
 21
0.0290880079306976
 31
0.0
  0
LINE
  5
37C
330
244
100
AcDbEntity
  8
0
  6
Continuous
100
AcDbLine
 10
0.0639139952443692
 20
0.0290880079306976
 30
0.0
 11
0.0655379952443692
 21
0.0290880079306976
 31
0.0
  0
LINE
  5
37D
330
244
100
AcDbEntity
  8
0
  6
Continuous
100
AcDbLine
 10
0.0632409952443692
 20
0.0290880079306976
 30
0.0
 11
0.0639139952443692
 21
0.0290880079306976
 31
0.0
  0
LINE
  5
37E
330
244
100
AcDbEntity
  8
0
  6
Continuous
100
AcDbLine
 10
0.0655379952443692
 20
0.0297800079306976
 30
0.0
 11
0.0632409952443692
 21
0.0290880079306976
 31
0.0
  0
LINE
  5
37F
330
244
100
AcDbEntity
  8
0
  6
Continuous
100
AcDbLine
 10
0.0778439952443692
 20
0.0290880079306976
 30
0.0
 11
0.0755469952443692
 21
0.0297800079306976
 31
0.0
  0
LINE
  5
380
330
244
100
AcDbEntity
  8
0
  6
Continuous
100
AcDbLine
 10
0.0771709952443692
 20
0.0290880079306976
 30
0.0
 11
0.0778439952443692
 21
0.0290880079306976
 31
0.0
  0
LINE
  5
381
330
244
100
AcDbEntity
  8
0
  6
Continuous
100
AcDbLine
 10
0.0755469952443692
 20
0.0290880079306976
 30
0.0
 11
0.0771709952443692
 21
0.0290880079306976
 31
0.0
  0
LINE
  5
382
330
244
100
AcDbEntity
  8
0
  6
Continuous
100
AcDbLine
 10
0.0739239952443692
 20
0.0290880079306976
 30
0.0
 11
0.0755469952443692
 21
0.0290880079306976
 31
0.0
  0
LINE
  5
383
330
244
100
AcDbEntity
  8
0
  6
Continuous
100
AcDbLine
 10
0.0732509952443692
 20
0.0290880079306976
 30
0.0
 11
0.0739239952443692
 21
0.0290880079306976
 31
0.0
  0
LINE
  5
384
330
244
100
AcDbEntity
  8
0
  6
Continuous
100
AcDbLine
 10
0.0755469952443692
 20
0.0297800079306976
 30
0.0
 11
0.0732509952443692
 21
0.0290880079306976
 31
0.0
  0
LINE
  5
385
330
244
100
AcDbEntity
  8
0
  6
Continuous
100
AcDbLine
 10
0.0778469952443692
 20
0.0290880079306976
 30
0.0
 11
0.0755509952443692
 21
0.0297800079306976
 31
0.0
  0
LINE
  5
386
330
244
100
AcDbEntity
  8
0
  6
Continuous
100
AcDbLine
 10
0.0771749952443692
 20
0.0290880079306976
 30
0.0
 11
0.0778469952443692
 21
0.0290880079306976
 31
0.0
  0
LINE
  5
387
330
244
100
AcDbEntity
  8
0
  6
Continuous
100
AcDbLine
 10
0.0755509952443692
 20
0.0290880079306976
 30
0.0
 11
0.0771749952443692
 21
0.0290880079306976
 31
0.0
  0
LINE
  5
388
330
244
100
AcDbEntity
  8
0
  6
Continuous
100
AcDbLine
 10
0.0739269952443692
 20
0.0290880079306976
 30
0.0
 11
0.0755509952443692
 21
0.0290880079306976
 31
0.0
  0
LINE
  5
389
330
244
100
AcDbEntity
  8
0
  6
Continuous
100
AcDbLine
 10
0.0732539952443692
 20
0.0290880079306976
 30
0.0
 11
0.0739269952443692
 21
0.0290880079306976
 31
0.0
  0
LINE
  5
38A
330
244
100
AcDbEntity
  8
0
  6
Continuous
100
AcDbLine
 10
0.0755509952443692
 20
0.0297800079306976
 30
0.0
 11
0.0732539952443692
 21
0.0290880079306976
 31
0.0
  0
LINE
  5
38B
330
244
100
AcDbEntity
  8
0
  6
Continuous
100
AcDbLine
 10
0.0778499952443692
 20
0.0290880079306976
 30
0.0
 11
0.0755539952443692
 21
0.0297800079306976
 31
0.0
  0
LINE
  5
38C
330
244
100
AcDbEntity
  8
0
  6
Continuous
100
AcDbLine
 10
0.0771779952443692
 20
0.0290880079306976
 30
0.0
 11
0.0778499952443692
 21
0.0290880079306976
 31
0.0
  0
LINE
  5
38D
330
244
100
AcDbEntity
  8
0
  6
Continuous
100
AcDbLine
 10
0.0755539952443692
 20
0.0290880079306976
 30
0.0
 11
0.0771779952443692
 21
0.0290880079306976
 31
0.0
  0
LINE
  5
38E
330
244
100
AcDbEntity
  8
0
  6
Continuous
100
AcDbLine
 10
0.0739299952443692
 20
0.0290880079306976
 30
0.0
 11
0.0755539952443692
 21
0.0290880079306976
 31
0.0
  0
LINE
  5
38F
330
244
100
AcDbEntity
  8
0
  6
Continuous
100
AcDbLine
 10
0.0732569952443692
 20
0.0290880079306976
 30
0.0
 11
0.0739299952443692
 21
0.0290880079306976
 31
0.0
  0
LINE
  5
390
330
244
100
AcDbEntity
  8
0
  6
Continuous
100
AcDbLine
 10
0.0755539952443692
 20
0.0297800079306976
 30
0.0
 11
0.0732569952443692
 21
0.0290880079306976
 31
0.0
  0
LINE
  5
391
330
244
100
AcDbEntity
  8
0
  6
Continuous
100
AcDbLine
 10
0.0778539952443692
 20
0.0290880079306976
 30
0.0
 11
0.0755569952443692
 21
0.0297800079306976
 31
0.0
  0
LINE
  5
392
330
244
100
AcDbEntity
  8
0
  6
Continuous
100
AcDbLine
 10
0.0771809952443692
 20
0.0290880079306976
 30
0.0
 11
0.0778539952443692
 21
0.0290880079306976
 31
0.0
  0
LINE
  5
393
330
244
100
AcDbEntity
  8
0
  6
Continuous
100
AcDbLine
 10
0.0755569952443692
 20
0.0290880079306976
 30
0.0
 11
0.0771809952443692
 21
0.0290880079306976
 31
0.0
  0
LINE
  5
394
330
244
100
AcDbEntity
  8
0
  6
Continuous
100
AcDbLine
 10
0.0739329952443692
 20
0.0290880079306976
 30
0.0
 11
0.0755569952443692
 21
0.0290880079306976
 31
0.0
  0
LINE
  5
395
330
244
100
AcDbEntity
  8
0
  6
Continuous
100
AcDbLine
 10
0.0732609952443692
 20
0.0290880079306976
 30
0.0
 11
0.0739329952443692
 21
0.0290880079306976
 31
0.0
  0
LINE
  5
396
330
244
100
AcDbEntity
  8
0
  6
Continuous
100
AcDbLine
 10
0.0755569952443692
 20
0.0297800079306976
 30
0.0
 11
0.0732609952443692
 21
0.0290880079306976
 31
0.0
  0
LINE
  5
397
330
244
100
AcDbEntity
  8
0
  6
Continuous
100
AcDbLine
 10
0.0778569952443692
 20
0.0290880079306976
 30
0.0
 11
0.0755609952443692
 21
0.0297800079306976
 31
0.0
  0
LINE
  5
398
330
244
100
AcDbEntity
  8
0
  6
Continuous
100
AcDbLine
 10
0.0771839952443692
 20
0.0290880079306976
 30
0.0
 11
0.0778569952443692
 21
0.0290880079306976
 31
0.0
  0
LINE
  5
399
330
244
100
AcDbEntity
  8
0
  6
Continuous
100
AcDbLine
 10
0.0755609952443692
 20
0.0290880079306976
 30
0.0
 11
0.0771839952443692
 21
0.0290880079306976
 31
0.0
  0
LINE
  5
39A
330
244
100
AcDbEntity
  8
0
  6
Continuous
100
AcDbLine
 10
0.0739369952443692
 20
0.0290880079306976
 30
0.0
 11
0.0755609952443692
 21
0.0290880079306976
 31
0.0
  0
LINE
  5
39B
330
244
100
AcDbEntity
  8
0
  6
Continuous
100
AcDbLine
 10
0.0732639952443692
 20
0.0290880079306976
 30
0.0
 11
0.0739369952443692
 21
0.0290880079306976
 31
0.0
  0
LINE
  5
39C
330
244
100
AcDbEntity
  8
0
  6
Continuous
100
AcDbLine
 10
0.0755609952443692
 20
0.0297800079306976
 30
0.0
 11
0.0732639952443692
 21
0.0290880079306976
 31
0.0
  0
LINE
  5
39D
330
244
100
AcDbEntity
  8
0
  6
Continuous
100
AcDbLine
 10
0.0778599952443692
 20
0.0290880079306976
 30
0.0
 11
0.0755639952443692
 21
0.0297800079306976
 31
0.0
  0
LINE
  5
39E
330
244
100
AcDbEntity
  8
0
  6
Continuous
100
AcDbLine
 10
0.0771879952443692
 20
0.0290880079306976
 30
0.0
 11
0.0778599952443692
 21
0.0290880079306976
 31
0.0
  0
LINE
  5
39F
330
244
100
AcDbEntity
  8
0
  6
Continuous
100
AcDbLine
 10
0.0755639952443692
 20
0.0290880079306976
 30
0.0
 11
0.0771879952443692
 21
0.0290880079306976
 31
0.0
  0
LINE
  5
3A0
330
244
100
AcDbEntity
  8
0
  6
Continuous
100
AcDbLine
 10
0.0739399952443692
 20
0.0290880079306976
 30
0.0
 11
0.0755639952443692
 21
0.0290880079306976
 31
0.0
  0
LINE
  5
3A1
330
244
100
AcDbEntity
  8
0
  6
Continuous
100
AcDbLine
 10
0.0732669952443692
 20
0.0290880079306976
 30
0.0
 11
0.0739399952443692
 21
0.0290880079306976
 31
0.0
  0
LINE
  5
3A2
330
244
100
AcDbEntity
  8
0
  6
Continuous
100
AcDbLine
 10
0.0755639952443692
 20
0.0297800079306976
 30
0.0
 11
0.0732669952443692
 21
0.0290880079306976
 31
0.0
  0
LINE
  5
3A3
330
244
100
AcDbEntity
  8
0
  6
Continuous
100
AcDbLine
 10
0.0778639952443692
 20
0.0290880079306976
 30
0.0
 11
0.0755669952443692
 21
0.0297800079306976
 31
0.0
  0
LINE
  5
3A4
330
244
100
AcDbEntity
  8
0
  6
Continuous
100
AcDbLine
 10
0.0771909952443692
 20
0.0290880079306976
 30
0.0
 11
0.0778639952443692
 21
0.0290880079306976
 31
0.0
  0
LINE
  5
3A5
330
244
100
AcDbEntity
  8
0
  6
Continuous
100
AcDbLine
 10
0.0755669952443692
 20
0.0290880079306976
 30
0.0
 11
0.0771909952443692
 21
0.0290880079306976
 31
0.0
  0
LINE
  5
3A6
330
244
100
AcDbEntity
  8
0
  6
Continuous
100
AcDbLine
 10
0.0739429952443692
 20
0.0290880079306976
 30
0.0
 11
0.0755669952443692
 21
0.0290880079306976
 31
0.0
  0
LINE
  5
3A7
330
244
100
AcDbEntity
  8
0
  6
Continuous
100
AcDbLine
 10
0.0732709952443692
 20
0.0290880079306976
 30
0.0
 11
0.0739429952443692
 21
0.0290880079306976
 31
0.0
  0
LINE
  5
3A8
330
244
100
AcDbEntity
  8
0
  6
Continuous
100
AcDbLine
 10
0.0755669952443692
 20
0.0297800079306976
 30
0.0
 11
0.0732709952443692
 21
0.0290880079306976
 31
0.0
  0
LINE
  5
3A9
330
244
100
AcDbEntity
  8
0
  6
Continuous
100
AcDbLine
 10
0.0778669952443692
 20
0.0290880079306976
 30
0.0
 11
0.0755699952443692
 21
0.0297800079306976
 31
0.0
  0
LINE
  5
3AA
330
244
100
AcDbEntity
  8
0
  6
Continuous
100
AcDbLine
 10
0.0771939952443692
 20
0.0290880079306976
 30
0.0
 11
0.0778669952443692
 21
0.0290880079306976
 31
0.0
  0
LINE
  5
3AB
330
244
100
AcDbEntity
  8
0
  6
Continuous
100
AcDbLine
 10
0.0755699952443692
 20
0.0290880079306976
 30
0.0
 11
0.0771939952443692
 21
0.0290880079306976
 31
0.0
  0
LINE
  5
3AC
330
244
100
AcDbEntity
  8
0
  6
Continuous
100
AcDbLine
 10
0.0739459952443692
 20
0.0290880079306976
 30
0.0
 11
0.0755699952443692
 21
0.0290880079306976
 31
0.0
  0
LINE
  5
3AD
330
244
100
AcDbEntity
  8
0
  6
Continuous
100
AcDbLine
 10
0.0732739952443692
 20
0.0290880079306976
 30
0.0
 11
0.0739459952443692
 21
0.0290880079306976
 31
0.0
  0
LINE
  5
3AE
330
244
100
AcDbEntity
  8
0
  6
Continuous
100
AcDbLine
 10
0.0755699952443692
 20
0.0297800079306976
 30
0.0
 11
0.0732739952443692
 21
0.0290880079306976
 31
0.0
  0
LINE
  5
3AF
330
244
100
AcDbEntity
  8
0
  6
Continuous
100
AcDbLine
 10
0.0778699952443692
 20
0.0290880079306976
 30
0.0
 11
0.0755739952443692
 21
0.0297800079306976
 31
0.0
  0
LINE
  5
3B0
330
244
100
AcDbEntity
  8
0
  6
Continuous
100
AcDbLine
 10
0.0771969952443692
 20
0.0290880079306976
 30
0.0
 11
0.0778699952443692
 21
0.0290880079306976
 31
0.0
  0
LINE
  5
3B1
330
244
100
AcDbEntity
  8
0
  6
Continuous
100
AcDbLine
 10
0.0755739952443692
 20
0.0290880079306976
 30
0.0
 11
0.0771969952443692
 21
0.0290880079306976
 31
0.0
  0
LINE
  5
3B2
330
244
100
AcDbEntity
  8
0
  6
Continuous
100
AcDbLine
 10
0.0739499952443692
 20
0.0290880079306976
 30
0.0
 11
0.0755739952443692
 21
0.0290880079306976
 31
0.0
  0
LINE
  5
3B3
330
244
100
AcDbEntity
  8
0
  6
Continuous
100
AcDbLine
 10
0.0732769952443692
 20
0.0290880079306976
 30
0.0
 11
0.0739499952443692
 21
0.0290880079306976
 31
0.0
  0
LINE
  5
3B4
330
244
100
AcDbEntity
  8
0
  6
Continuous
100
AcDbLine
 10
0.0755739952443692
 20
0.0297800079306976
 30
0.0
 11
0.0732769952443692
 21
0.0290880079306976
 31
0.0
  0
LINE
  5
3B5
330
244
100
AcDbEntity
  8
0
  6
Continuous
100
AcDbLine
 10
0.0778729952443692
 20
0.0290880079306976
 30
0.0
 11
0.0755769952443692
 21
0.0297800079306976
 31
0.0
  0
LINE
  5
3B6
330
244
100
AcDbEntity
  8
0
  6
Continuous
100
AcDbLine
 10
0.0772009952443692
 20
0.0290880079306976
 30
0.0
 11
0.0778729952443692
 21
0.0290880079306976
 31
0.0
  0
LINE
  5
3B7
330
244
100
AcDbEntity
  8
0
  6
Continuous
100
AcDbLine
 10
0.0755769952443692
 20
0.0290880079306976
 30
0.0
 11
0.0772009952443692
 21
0.0290880079306976
 31
0.0
  0
LINE
  5
3B8
330
244
100
AcDbEntity
  8
0
  6
Continuous
100
AcDbLine
 10
0.0739529952443692
 20
0.0290880079306976
 30
0.0
 11
0.0755769952443692
 21
0.0290880079306976
 31
0.0
  0
LINE
  5
3B9
330
244
100
AcDbEntity
  8
0
  6
Continuous
100
AcDbLine
 10
0.0732799952443692
 20
0.0290880079306976
 30
0.0
 11
0.0739529952443692
 21
0.0290880079306976
 31
0.0
  0
LINE
  5
3BA
330
244
100
AcDbEntity
  8
0
  6
Continuous
100
AcDbLine
 10
0.0755769952443692
 20
0.0297800079306976
 30
0.0
 11
0.0732799952443692
 21
0.0290880079306976
 31
0.0
  0
LINE
  5
3BB
330
244
100
AcDbEntity
  8
0
  6
Continuous
100
AcDbLine
 10
0.0778409952443692
 20
0.0290880079306976
 30
0.0
 11
0.0755439952443692
 21
0.0297800079306976
 31
0.0
  0
LINE
  5
3BC
330
244
100
AcDbEntity
  8
0
  6
Continuous
100
AcDbLine
 10
0.0771679952443692
 20
0.0290880079306976
 30
0.0
 11
0.0778409952443692
 21
0.0290880079306976
 31
0.0
  0
LINE
  5
3BD
330
244
100
AcDbEntity
  8
0
  6
Continuous
100
AcDbLine
 10
0.0755439952443692
 20
0.0290880079306976
 30
0.0
 11
0.0771679952443692
 21
0.0290880079306976
 31
0.0
  0
LINE
  5
3BE
330
244
100
AcDbEntity
  8
0
  6
Continuous
100
AcDbLine
 10
0.0739199952443692
 20
0.0290880079306976
 30
0.0
 11
0.0755439952443692
 21
0.0290880079306976
 31
0.0
  0
LINE
  5
3BF
330
244
100
AcDbEntity
  8
0
  6
Continuous
100
AcDbLine
 10
0.0732479952443692
 20
0.0290880079306976
 30
0.0
 11
0.0739199952443692
 21
0.0290880079306976
 31
0.0
  0
LINE
  5
3C0
330
244
100
AcDbEntity
  8
0
  6
Continuous
100
AcDbLine
 10
0.0755439952443692
 20
0.0297800079306976
 30
0.0
 11
0.0732479952443692
 21
0.0290880079306976
 31
0.0
  0
LINE
  5
3C1
330
244
100
AcDbEntity
  8
0
  6
Continuous
100
AcDbLine
 10
0.0878499952443692
 20
0.0290880079306976
 30
0.0
 11
0.0855539952443692
 21
0.0297800079306976
 31
0.0
  0
LINE
  5
3C2
330
244
100
AcDbEntity
  8
0
  6
Continuous
100
AcDbLine
 10
0.0871779952443692
 20
0.0290880079306976
 30
0.0
 11
0.0878499952443692
 21
0.0290880079306976
 31
0.0
  0
LINE
  5
3C3
330
244
100
AcDbEntity
  8
0
  6
Continuous
100
AcDbLine
 10
0.0855539952443692
 20
0.0290880079306976
 30
0.0
 11
0.0871779952443692
 21
0.0290880079306976
 31
0.0
  0
LINE
  5
3C4
330
244
100
AcDbEntity
  8
0
  6
Continuous
100
AcDbLine
 10
0.0839299952443692
 20
0.0290880079306976
 30
0.0
 11
0.0855539952443692
 21
0.0290880079306976
 31
0.0
  0
LINE
  5
3C5
330
244
100
AcDbEntity
  8
0
  6
Continuous
100
AcDbLine
 10
0.0832569952443692
 20
0.0290880079306976
 30
0.0
 11
0.0839299952443692
 21
0.0290880079306976
 31
0.0
  0
LINE
  5
3C6
330
244
100
AcDbEntity
  8
0
  6
Continuous
100
AcDbLine
 10
0.0855539952443692
 20
0.0297800079306976
 30
0.0
 11
0.0832569952443692
 21
0.0290880079306976
 31
0.0
  0
LINE
  5
3C7
330
244
100
AcDbEntity
  8
0
  6
Continuous
100
AcDbLine
 10
0.0878539952443692
 20
0.0290880079306976
 30
0.0
 11
0.0855569952443692
 21
0.0297800079306976
 31
0.0
  0
LINE
  5
3C8
330
244
100
AcDbEntity
  8
0
  6
Continuous
100
AcDbLine
 10
0.0871809952443692
 20
0.0290880079306976
 30
0.0
 11
0.0878539952443692
 21
0.0290880079306976
 31
0.0
  0
LINE
  5
3C9
330
244
100
AcDbEntity
  8
0
  6
Continuous
100
AcDbLine
 10
0.0855569952443692
 20
0.0290880079306976
 30
0.0
 11
0.0871809952443692
 21
0.0290880079306976
 31
0.0
  0
LINE
  5
3CA
330
244
100
AcDbEntity
  8
0
  6
Continuous
100
AcDbLine
 10
0.0839329952443692
 20
0.0290880079306976
 30
0.0
 11
0.0855569952443692
 21
0.0290880079306976
 31
0.0
  0
LINE
  5
3CB
330
244
100
AcDbEntity
  8
0
  6
Continuous
100
AcDbLine
 10
0.0832609952443692
 20
0.0290880079306976
 30
0.0
 11
0.0839329952443692
 21
0.0290880079306976
 31
0.0
  0
LINE
  5
3CC
330
244
100
AcDbEntity
  8
0
  6
Continuous
100
AcDbLine
 10
0.0855569952443692
 20
0.0297800079306976
 30
0.0
 11
0.0832609952443692
 21
0.0290880079306976
 31
0.0
  0
LINE
  5
3CD
330
244
100
AcDbEntity
  8
0
  6
Continuous
100
AcDbLine
 10
0.0878569952443692
 20
0.0290880079306976
 30
0.0
 11
0.0855599952443692
 21
0.0297800079306976
 31
0.0
  0
LINE
  5
3CE
330
244
100
AcDbEntity
  8
0
  6
Continuous
100
AcDbLine
 10
0.0871839952443692
 20
0.0290880079306976
 30
0.0
 11
0.0878569952443692
 21
0.0290880079306976
 31
0.0
  0
LINE
  5
3CF
330
244
100
AcDbEntity
  8
0
  6
Continuous
100
AcDbLine
 10
0.0855599952443692
 20
0.0290880079306976
 30
0.0
 11
0.0871839952443692
 21
0.0290880079306976
 31
0.0
  0
LINE
  5
3D0
330
244
100
AcDbEntity
  8
0
  6
Continuous
100
AcDbLine
 10
0.0839359952443692
 20
0.0290880079306976
 30
0.0
 11
0.0855599952443692
 21
0.0290880079306976
 31
0.0
  0
LINE
  5
3D1
330
244
100
AcDbEntity
  8
0
  6
Continuous
100
AcDbLine
 10
0.0832639952443692
 20
0.0290880079306976
 30
0.0
 11
0.0839359952443692
 21
0.0290880079306976
 31
0.0
  0
LINE
  5
3D2
330
244
100
AcDbEntity
  8
0
  6
Continuous
100
AcDbLine
 10
0.0855599952443692
 20
0.0297800079306976
 30
0.0
 11
0.0832639952443692
 21
0.0290880079306976
 31
0.0
  0
LINE
  5
3D3
330
244
100
AcDbEntity
  8
0
  6
Continuous
100
AcDbLine
 10
0.0878599952443692
 20
0.0290880079306976
 30
0.0
 11
0.0855639952443692
 21
0.0297800079306976
 31
0.0
  0
LINE
  5
3D4
330
244
100
AcDbEntity
  8
0
  6
Continuous
100
AcDbLine
 10
0.0871879952443692
 20
0.0290880079306976
 30
0.0
 11
0.0878599952443692
 21
0.0290880079306976
 31
0.0
  0
LINE
  5
3D5
330
244
100
AcDbEntity
  8
0
  6
Continuous
100
AcDbLine
 10
0.0855639952443692
 20
0.0290880079306976
 30
0.0
 11
0.0871879952443692
 21
0.0290880079306976
 31
0.0
  0
LINE
  5
3D6
330
244
100
AcDbEntity
  8
0
  6
Continuous
100
AcDbLine
 10
0.0839399952443692
 20
0.0290880079306976
 30
0.0
 11
0.0855639952443692
 21
0.0290880079306976
 31
0.0
  0
LINE
  5
3D7
330
244
100
AcDbEntity
  8
0
  6
Continuous
100
AcDbLine
 10
0.0832669952443692
 20
0.0290880079306976
 30
0.0
 11
0.0839399952443692
 21
0.0290880079306976
 31
0.0
  0
LINE
  5
3D8
330
244
100
AcDbEntity
  8
0
  6
Continuous
100
AcDbLine
 10
0.0855639952443692
 20
0.0297800079306976
 30
0.0
 11
0.0832669952443692
 21
0.0290880079306976
 31
0.0
  0
LINE
  5
3D9
330
244
100
AcDbEntity
  8
0
  6
Continuous
100
AcDbLine
 10
0.0878629952443692
 20
0.0290880079306976
 30
0.0
 11
0.0855669952443692
 21
0.0297800079306976
 31
0.0
  0
LINE
  5
3DA
330
244
100
AcDbEntity
  8
0
  6
Continuous
100
AcDbLine
 10
0.0871909952443692
 20
0.0290880079306976
 30
0.0
 11
0.0878629952443692
 21
0.0290880079306976
 31
0.0
  0
LINE
  5
3DB
330
244
100
AcDbEntity
  8
0
  6
Continuous
100
AcDbLine
 10
0.0855669952443692
 20
0.0290880079306976
 30
0.0
 11
0.0871909952443692
 21
0.0290880079306976
 31
0.0
  0
LINE
  5
3DC
330
244
100
AcDbEntity
  8
0
  6
Continuous
100
AcDbLine
 10
0.0839429952443692
 20
0.0290880079306976
 30
0.0
 11
0.0855669952443692
 21
0.0290880079306976
 31
0.0
  0
LINE
  5
3DD
330
244
100
AcDbEntity
  8
0
  6
Continuous
100
AcDbLine
 10
0.0832699952443692
 20
0.0290880079306976
 30
0.0
 11
0.0839429952443692
 21
0.0290880079306976
 31
0.0
  0
LINE
  5
3DE
330
244
100
AcDbEntity
  8
0
  6
Continuous
100
AcDbLine
 10
0.0855669952443692
 20
0.0297800079306976
 30
0.0
 11
0.0832699952443692
 21
0.0290880079306976
 31
0.0
  0
LINE
  5
3DF
330
244
100
AcDbEntity
  8
0
  6
Continuous
100
AcDbLine
 10
0.0878669952443692
 20
0.0290880079306976
 30
0.0
 11
0.0855699952443692
 21
0.0297800079306976
 31
0.0
  0
LINE
  5
3E0
330
244
100
AcDbEntity
  8
0
  6
Continuous
100
AcDbLine
 10
0.0871939952443692
 20
0.0290880079306976
 30
0.0
 11
0.0878669952443692
 21
0.0290880079306976
 31
0.0
  0
LINE
  5
3E1
330
244
100
AcDbEntity
  8
0
  6
Continuous
100
AcDbLine
 10
0.0855699952443692
 20
0.0290880079306976
 30
0.0
 11
0.0871939952443692
 21
0.0290880079306976
 31
0.0
  0
LINE
  5
3E2
330
244
100
AcDbEntity
  8
0
  6
Continuous
100
AcDbLine
 10
0.0839459952443692
 20
0.0290880079306976
 30
0.0
 11
0.0855699952443692
 21
0.0290880079306976
 31
0.0
  0
LINE
  5
3E3
330
244
100
AcDbEntity
  8
0
  6
Continuous
100
AcDbLine
 10
0.0832739952443692
 20
0.0290880079306976
 30
0.0
 11
0.0839459952443692
 21
0.0290880079306976
 31
0.0
  0
LINE
  5
3E4
330
244
100
AcDbEntity
  8
0
  6
Continuous
100
AcDbLine
 10
0.0855699952443692
 20
0.0297800079306976
 30
0.0
 11
0.0832739952443692
 21
0.0290880079306976
 31
0.0
  0
LINE
  5
3E5
330
244
100
AcDbEntity
  8
0
  6
Continuous
100
AcDbLine
 10
0.0878699952443692
 20
0.0290880079306976
 30
0.0
 11
0.0855729952443692
 21
0.0297800079306976
 31
0.0
  0
LINE
  5
3E6
330
244
100
AcDbEntity
  8
0
  6
Continuous
100
AcDbLine
 10
0.0871969952443692
 20
0.0290880079306976
 30
0.0
 11
0.0878699952443692
 21
0.0290880079306976
 31
0.0
  0
LINE
  5
3E7
330
244
100
AcDbEntity
  8
0
  6
Continuous
100
AcDbLine
 10
0.0855729952443692
 20
0.0290880079306976
 30
0.0
 11
0.0871969952443692
 21
0.0290880079306976
 31
0.0
  0
LINE
  5
3E8
330
244
100
AcDbEntity
  8
0
  6
Continuous
100
AcDbLine
 10
0.0839499952443692
 20
0.0290880079306976
 30
0.0
 11
0.0855729952443692
 21
0.0290880079306976
 31
0.0
  0
LINE
  5
3E9
330
244
100
AcDbEntity
  8
0
  6
Continuous
100
AcDbLine
 10
0.0832769952443692
 20
0.0290880079306976
 30
0.0
 11
0.0839499952443692
 21
0.0290880079306976
 31
0.0
  0
LINE
  5
3EA
330
244
100
AcDbEntity
  8
0
  6
Continuous
100
AcDbLine
 10
0.0855729952443692
 20
0.0297800079306976
 30
0.0
 11
0.0832769952443692
 21
0.0290880079306976
 31
0.0
  0
LINE
  5
3EB
330
244
100
AcDbEntity
  8
0
  6
Continuous
100
AcDbLine
 10
0.0878729952443692
 20
0.0290880079306976
 30
0.0
 11
0.0855769952443692
 21
0.0297800079306976
 31
0.0
  0
LINE
  5
3EC
330
244
100
AcDbEntity
  8
0
  6
Continuous
100
AcDbLine
 10
0.0872009952443692
 20
0.0290880079306976
 30
0.0
 11
0.0878729952443692
 21
0.0290880079306976
 31
0.0
  0
LINE
  5
3ED
330
244
100
AcDbEntity
  8
0
  6
Continuous
100
AcDbLine
 10
0.0855769952443692
 20
0.0290880079306976
 30
0.0
 11
0.0872009952443692
 21
0.0290880079306976
 31
0.0
  0
LINE
  5
3EE
330
244
100
AcDbEntity
  8
0
  6
Continuous
100
AcDbLine
 10
0.0839529952443692
 20
0.0290880079306976
 30
0.0
 11
0.0855769952443692
 21
0.0290880079306976
 31
0.0
  0
LINE
  5
3EF
330
244
100
AcDbEntity
  8
0
  6
Continuous
100
AcDbLine
 10
0.0832799952443692
 20
0.0290880079306976
 30
0.0
 11
0.0839529952443692
 21
0.0290880079306976
 31
0.0
  0
LINE
  5
3F0
330
244
100
AcDbEntity
  8
0
  6
Continuous
100
AcDbLine
 10
0.0855769952443692
 20
0.0297800079306976
 30
0.0
 11
0.0832799952443692
 21
0.0290880079306976
 31
0.0
  0
LINE
  5
3F1
330
244
100
AcDbEntity
  8
0
  6
Continuous
100
AcDbLine
 10
0.0878759952443692
 20
0.0290880079306976
 30
0.0
 11
0.0855799952443692
 21
0.0297800079306976
 31
0.0
  0
LINE
  5
3F2
330
244
100
AcDbEntity
  8
0
  6
Continuous
100
AcDbLine
 10
0.0872039952443692
 20
0.0290880079306976
 30
0.0
 11
0.0878759952443692
 21
0.0290880079306976
 31
0.0
  0
LINE
  5
3F3
330
244
100
AcDbEntity
  8
0
  6
Continuous
100
AcDbLine
 10
0.0855799952443692
 20
0.0290880079306976
 30
0.0
 11
0.0872039952443692
 21
0.0290880079306976
 31
0.0
  0
LINE
  5
3F4
330
244
100
AcDbEntity
  8
0
  6
Continuous
100
AcDbLine
 10
0.0839559952443692
 20
0.0290880079306976
 30
0.0
 11
0.0855799952443692
 21
0.0290880079306976
 31
0.0
  0
LINE
  5
3F5
330
244
100
AcDbEntity
  8
0
  6
Continuous
100
AcDbLine
 10
0.0832829952443692
 20
0.0290880079306976
 30
0.0
 11
0.0839559952443692
 21
0.0290880079306976
 31
0.0
  0
LINE
  5
3F6
330
244
100
AcDbEntity
  8
0
  6
Continuous
100
AcDbLine
 10
0.0855799952443692
 20
0.0297800079306976
 30
0.0
 11
0.0832829952443692
 21
0.0290880079306976
 31
0.0
  0
LINE
  5
3F7
330
244
100
AcDbEntity
  8
0
  6
Continuous
100
AcDbLine
 10
0.0878799952443692
 20
0.0290880079306976
 30
0.0
 11
0.0855829952443692
 21
0.0297800079306976
 31
0.0
  0
LINE
  5
3F8
330
244
100
AcDbEntity
  8
0
  6
Continuous
100
AcDbLine
 10
0.0872069952443692
 20
0.0290880079306976
 30
0.0
 11
0.0878799952443692
 21
0.0290880079306976
 31
0.0
  0
LINE
  5
3F9
330
244
100
AcDbEntity
  8
0
  6
Continuous
100
AcDbLine
 10
0.0855829952443692
 20
0.0290880079306976
 30
0.0
 11
0.0872069952443692
 21
0.0290880079306976
 31
0.0
  0
LINE
  5
3FA
330
244
100
AcDbEntity
  8
0
  6
Continuous
100
AcDbLine
 10
0.0839589952443692
 20
0.0290880079306976
 30
0.0
 11
0.0855829952443692
 21
0.0290880079306976
 31
0.0
  0
LINE
  5
3FB
330
244
100
AcDbEntity
  8
0
  6
Continuous
100
AcDbLine
 10
0.0832869952443692
 20
0.0290880079306976
 30
0.0
 11
0.0839589952443692
 21
0.0290880079306976
 31
0.0
  0
LINE
  5
3FC
330
244
100
AcDbEntity
  8
0
  6
Continuous
100
AcDbLine
 10
0.0855829952443692
 20
0.0297800079306976
 30
0.0
 11
0.0832869952443692
 21
0.0290880079306976
 31
0.0
  0
LINE
  5
3FD
330
244
100
AcDbEntity
  8
0
  6
Continuous
100
AcDbLine
 10
0.0878469952443692
 20
0.0290880079306976
 30
0.0
 11
0.0855509952443692
 21
0.0297800079306976
 31
0.0
  0
LINE
  5
3FE
330
244
100
AcDbEntity
  8
0
  6
Continuous
100
AcDbLine
 10
0.0871739952443692
 20
0.0290880079306976
 30
0.0
 11
0.0878469952443692
 21
0.0290880079306976
 31
0.0
  0
LINE
  5
3FF
330
244
100
AcDbEntity
  8
0
  6
Continuous
100
AcDbLine
 10
0.0855509952443692
 20
0.0290880079306976
 30
0.0
 11
0.0871739952443692
 21
0.0290880079306976
 31
0.0
  0
LINE
  5
400
330
244
100
AcDbEntity
  8
0
  6
Continuous
100
AcDbLine
 10
0.0839269952443692
 20
0.0290880079306976
 30
0.0
 11
0.0855509952443692
 21
0.0290880079306976
 31
0.0
  0
LINE
  5
401
330
244
100
AcDbEntity
  8
0
  6
Continuous
100
AcDbLine
 10
0.0832539952443692
 20
0.0290880079306976
 30
0.0
 11
0.0839269952443692
 21
0.0290880079306976
 31
0.0
  0
LINE
  5
402
330
244
100
AcDbEntity
  8
0
  6
Continuous
100
AcDbLine
 10
0.0855509952443692
 20
0.0297800079306976
 30
0.0
 11
0.0832539952443692
 21
0.0290880079306976
 31
0.0
  0
LINE
  5
403
330
244
100
AcDbEntity
  8
0
  6
Continuous
100
AcDbLine
 10
0.0278119952443692
 20
0.0290880079306976
 30
0.0
 11
0.0255159952443692
 21
0.0297800079306976
 31
0.0
  0
LINE
  5
404
330
244
100
AcDbEntity
  8
0
  6
Continuous
100
AcDbLine
 10
0.0271389952443692
 20
0.0290880079306976
 30
0.0
 11
0.0278119952443692
 21
0.0290880079306976
 31
0.0
  0
LINE
  5
405
330
244
100
AcDbEntity
  8
0
  6
Continuous
100
AcDbLine
 10
0.0255149952443692
 20
0.0290880079306976
 30
0.0
 11
0.0271389952443692
 21
0.0290880079306976
 31
0.0
  0
LINE
  5
406
330
244
100
AcDbEntity
  8
0
  6
Continuous
100
AcDbLine
 10
0.0238919952443692
 20
0.0290880079306976
 30
0.0
 11
0.0255149952443692
 21
0.0290880079306976
 31
0.0
  0
LINE
  5
407
330
244
100
AcDbEntity
  8
0
  6
Continuous
100
AcDbLine
 10
0.0232189952443692
 20
0.0290880079306976
 30
0.0
 11
0.0238919952443692
 21
0.0290880079306976
 31
0.0
  0
LINE
  5
408
330
244
100
AcDbEntity
  8
0
  6
Continuous
100
AcDbLine
 10
0.0255159952443692
 20
0.0297800079306976
 30
0.0
 11
0.0232189952443692
 21
0.0290880079306976
 31
0.0
  0
LINE
  5
409
330
244
100
AcDbEntity
  8
0
  6
Continuous
100
AcDbLine
 10
0.0278149952443692
 20
0.0290880079306976
 30
0.0
 11
0.0255189952443692
 21
0.0297800079306976
 31
0.0
  0
LINE
  5
40A
330
244
100
AcDbEntity
  8
0
  6
Continuous
100
AcDbLine
 10
0.0271429952443692
 20
0.0290880079306976
 30
0.0
 11
0.0278149952443692
 21
0.0290880079306976
 31
0.0
  0
LINE
  5
40B
330
244
100
AcDbEntity
  8
0
  6
Continuous
100
AcDbLine
 10
0.0255189952443692
 20
0.0290880079306976
 30
0.0
 11
0.0271429952443692
 21
0.0290880079306976
 31
0.0
  0
LINE
  5
40C
330
244
100
AcDbEntity
  8
0
  6
Continuous
100
AcDbLine
 10
0.0238949952443692
 20
0.0290880079306976
 30
0.0
 11
0.0255189952443692
 21
0.0290880079306976
 31
0.0
  0
LINE
  5
40D
330
244
100
AcDbEntity
  8
0
  6
Continuous
100
AcDbLine
 10
0.0232219952443692
 20
0.0290880079306976
 30
0.0
 11
0.0238949952443692
 21
0.0290880079306976
 31
0.0
  0
LINE
  5
40E
330
244
100
AcDbEntity
  8
0
  6
Continuous
100
AcDbLine
 10
0.0255189952443692
 20
0.0297800079306976
 30
0.0
 11
0.0232219952443692
 21
0.0290880079306976
 31
0.0
  0
LINE
  5
40F
330
244
100
AcDbEntity
  8
0
  6
Continuous
100
AcDbLine
 10
0.0278189952443692
 20
0.0290880079306976
 30
0.0
 11
0.0255219952443692
 21
0.0297800079306976
 31
0.0
  0
LINE
  5
410
330
244
100
AcDbEntity
  8
0
  6
Continuous
100
AcDbLine
 10
0.0271459952443692
 20
0.0290880079306976
 30
0.0
 11
0.0278189952443692
 21
0.0290880079306976
 31
0.0
  0
LINE
  5
411
330
244
100
AcDbEntity
  8
0
  6
Continuous
100
AcDbLine
 10
0.0255219952443692
 20
0.0290880079306976
 30
0.0
 11
0.0271459952443692
 21
0.0290880079306976
 31
0.0
  0
LINE
  5
412
330
244
100
AcDbEntity
  8
0
  6
Continuous
100
AcDbLine
 10
0.0238979952443692
 20
0.0290880079306976
 30
0.0
 11
0.0255219952443692
 21
0.0290880079306976
 31
0.0
  0
LINE
  5
413
330
244
100
AcDbEntity
  8
0
  6
Continuous
100
AcDbLine
 10
0.0232259952443692
 20
0.0290880079306976
 30
0.0
 11
0.0238979952443692
 21
0.0290880079306976
 31
0.0
  0
LINE
  5
414
330
244
100
AcDbEntity
  8
0
  6
Continuous
100
AcDbLine
 10
0.0255219952443692
 20
0.0297800079306976
 30
0.0
 11
0.0232259952443692
 21
0.0290880079306976
 31
0.0
  0
LINE
  5
415
330
244
100
AcDbEntity
  8
0
  6
Continuous
100
AcDbLine
 10
0.0278219952443692
 20
0.0290880079306976
 30
0.0
 11
0.0255249952443692
 21
0.0297800079306976
 31
0.0
  0
LINE
  5
416
330
244
100
AcDbEntity
  8
0
  6
Continuous
100
AcDbLine
 10
0.0271489952443692
 20
0.0290880079306976
 30
0.0
 11
0.0278219952443692
 21
0.0290880079306976
 31
0.0
  0
LINE
  5
417
330
244
100
AcDbEntity
  8
0
  6
Continuous
100
AcDbLine
 10
0.0255249952443692
 20
0.0290880079306976
 30
0.0
 11
0.0271489952443692
 21
0.0290880079306976
 31
0.0
  0
LINE
  5
418
330
244
100
AcDbEntity
  8
0
  6
Continuous
100
AcDbLine
 10
0.0239009952443692
 20
0.0290880079306976
 30
0.0
 11
0.0255249952443692
 21
0.0290880079306976
 31
0.0
  0
LINE
  5
419
330
244
100
AcDbEntity
  8
0
  6
Continuous
100
AcDbLine
 10
0.0232289952443692
 20
0.0290880079306976
 30
0.0
 11
0.0239009952443692
 21
0.0290880079306976
 31
0.0
  0
LINE
  5
41A
330
244
100
AcDbEntity
  8
0
  6
Continuous
100
AcDbLine
 10
0.0255249952443692
 20
0.0297800079306976
 30
0.0
 11
0.0232289952443692
 21
0.0290880079306976
 31
0.0
  0
LINE
  5
41B
330
244
100
AcDbEntity
  8
0
  6
Continuous
100
AcDbLine
 10
0.0278249952443692
 20
0.0290880079306976
 30
0.0
 11
0.0255289952443692
 21
0.0297800079306976
 31
0.0
  0
LINE
  5
41C
330
244
100
AcDbEntity
  8
0
  6
Continuous
100
AcDbLine
 10
0.0271519952443692
 20
0.0290880079306976
 30
0.0
 11
0.0278249952443692
 21
0.0290880079306976
 31
0.0
  0
LINE
  5
41D
330
244
100
AcDbEntity
  8
0
  6
Continuous
100
AcDbLine
 10
0.0255289952443692
 20
0.0290880079306976
 30
0.0
 11
0.0271519952443692
 21
0.0290880079306976
 31
0.0
  0
LINE
  5
41E
330
244
100
AcDbEntity
  8
0
  6
Continuous
100
AcDbLine
 10
0.0239049952443692
 20
0.0290880079306976
 30
0.0
 11
0.0255289952443692
 21
0.0290880079306976
 31
0.0
  0
LINE
  5
41F
330
244
100
AcDbEntity
  8
0
  6
Continuous
100
AcDbLine
 10
0.0232319952443692
 20
0.0290880079306976
 30
0.0
 11
0.0239049952443692
 21
0.0290880079306976
 31
0.0
  0
LINE
  5
420
330
244
100
AcDbEntity
  8
0
  6
Continuous
100
AcDbLine
 10
0.0255289952443692
 20
0.0297800079306976
 30
0.0
 11
0.0232319952443692
 21
0.0290880079306976
 31
0.0
  0
LINE
  5
421
330
244
100
AcDbEntity
  8
0
  6
Continuous
100
AcDbLine
 10
0.0278279952443692
 20
0.0290880079306976
 30
0.0
 11
0.0255319952443692
 21
0.0297800079306976
 31
0.0
  0
LINE
  5
422
330
244
100
AcDbEntity
  8
0
  6
Continuous
100
AcDbLine
 10
0.0271559952443692
 20
0.0290880079306976
 30
0.0
 11
0.0278279952443692
 21
0.0290880079306976
 31
0.0
  0
LINE
  5
423
330
244
100
AcDbEntity
  8
0
  6
Continuous
100
AcDbLine
 10
0.0255319952443692
 20
0.0290880079306976
 30
0.0
 11
0.0271559952443692
 21
0.0290880079306976
 31
0.0
  0
LINE
  5
424
330
244
100
AcDbEntity
  8
0
  6
Continuous
100
AcDbLine
 10
0.0239079952443692
 20
0.0290880079306976
 30
0.0
 11
0.0255319952443692
 21
0.0290880079306976
 31
0.0
  0
LINE
  5
425
330
244
100
AcDbEntity
  8
0
  6
Continuous
100
AcDbLine
 10
0.0232349952443692
 20
0.0290880079306976
 30
0.0
 11
0.0239079952443692
 21
0.0290880079306976
 31
0.0
  0
LINE
  5
426
330
244
100
AcDbEntity
  8
0
  6
Continuous
100
AcDbLine
 10
0.0255319952443692
 20
0.0297800079306976
 30
0.0
 11
0.0232349952443692
 21
0.0290880079306976
 31
0.0
  0
LINE
  5
427
330
244
100
AcDbEntity
  8
0
  6
Continuous
100
AcDbLine
 10
0.0278319952443692
 20
0.0290880079306976
 30
0.0
 11
0.0255349952443692
 21
0.0297800079306976
 31
0.0
  0
LINE
  5
428
330
244
100
AcDbEntity
  8
0
  6
Continuous
100
AcDbLine
 10
0.0271589952443692
 20
0.0290880079306976
 30
0.0
 11
0.0278319952443692
 21
0.0290880079306976
 31
0.0
  0
LINE
  5
429
330
244
100
AcDbEntity
  8
0
  6
Continuous
100
AcDbLine
 10
0.0255349952443692
 20
0.0290880079306976
 30
0.0
 11
0.0271589952443692
 21
0.0290880079306976
 31
0.0
  0
LINE
  5
42A
330
244
100
AcDbEntity
  8
0
  6
Continuous
100
AcDbLine
 10
0.0239109952443692
 20
0.0290880079306976
 30
0.0
 11
0.0255349952443692
 21
0.0290880079306976
 31
0.0
  0
LINE
  5
42B
330
244
100
AcDbEntity
  8
0
  6
Continuous
100
AcDbLine
 10
0.0232389952443692
 20
0.0290880079306976
 30
0.0
 11
0.0239109952443692
 21
0.0290880079306976
 31
0.0
  0
LINE
  5
42C
330
244
100
AcDbEntity
  8
0
  6
Continuous
100
AcDbLine
 10
0.0255349952443692
 20
0.0297800079306976
 30
0.0
 11
0.0232389952443692
 21
0.0290880079306976
 31
0.0
  0
LINE
  5
42D
330
244
100
AcDbEntity
  8
0
  6
Continuous
100
AcDbLine
 10
0.0278349952443692
 20
0.0290880079306976
 30
0.0
 11
0.0255379952443692
 21
0.0297800079306976
 31
0.0
  0
LINE
  5
42E
330
244
100
AcDbEntity
  8
0
  6
Continuous
100
AcDbLine
 10
0.0271619952443692
 20
0.0290880079306976
 30
0.0
 11
0.0278349952443692
 21
0.0290880079306976
 31
0.0
  0
LINE
  5
42F
330
244
100
AcDbEntity
  8
0
  6
Continuous
100
AcDbLine
 10
0.0255379952443692
 20
0.0290880079306976
 30
0.0
 11
0.0271619952443692
 21
0.0290880079306976
 31
0.0
  0
LINE
  5
430
330
244
100
AcDbEntity
  8
0
  6
Continuous
100
AcDbLine
 10
0.0239139952443692
 20
0.0290880079306976
 30
0.0
 11
0.0255379952443692
 21
0.0290880079306976
 31
0.0
  0
LINE
  5
431
330
244
100
AcDbEntity
  8
0
  6
Continuous
100
AcDbLine
 10
0.0232419952443692
 20
0.0290880079306976
 30
0.0
 11
0.0239139952443692
 21
0.0290880079306976
 31
0.0
  0
LINE
  5
432
330
244
100
AcDbEntity
  8
0
  6
Continuous
100
AcDbLine
 10
0.0255379952443692
 20
0.0297800079306976
 30
0.0
 11
0.0232419952443692
 21
0.0290880079306976
 31
0.0
  0
LINE
  5
433
330
244
100
AcDbEntity
  8
0
  6
Continuous
100
AcDbLine
 10
0.0278379952443692
 20
0.0290880079306976
 30
0.0
 11
0.0255419952443692
 21
0.0297800079306976
 31
0.0
  0
LINE
  5
434
330
244
100
AcDbEntity
  8
0
  6
Continuous
100
AcDbLine
 10
0.0271649952443692
 20
0.0290880079306976
 30
0.0
 11
0.0278379952443692
 21
0.0290880079306976
 31
0.0
  0
LINE
  5
435
330
244
100
AcDbEntity
  8
0
  6
Continuous
100
AcDbLine
 10
0.0255419952443692
 20
0.0290880079306976
 30
0.0
 11
0.0271649952443692
 21
0.0290880079306976
 31
0.0
  0
LINE
  5
436
330
244
100
AcDbEntity
  8
0
  6
Continuous
100
AcDbLine
 10
0.0239179952443692
 20
0.0290880079306976
 30
0.0
 11
0.0255419952443692
 21
0.0290880079306976
 31
0.0
  0
LINE
  5
437
330
244
100
AcDbEntity
  8
0
  6
Continuous
100
AcDbLine
 10
0.0232449952443692
 20
0.0290880079306976
 30
0.0
 11
0.0239179952443692
 21
0.0290880079306976
 31
0.0
  0
LINE
  5
438
330
244
100
AcDbEntity
  8
0
  6
Continuous
100
AcDbLine
 10
0.0255419952443692
 20
0.0297800079306976
 30
0.0
 11
0.0232449952443692
 21
0.0290880079306976
 31
0.0
  0
LINE
  5
439
330
244
100
AcDbEntity
  8
0
  6
Continuous
100
AcDbLine
 10
0.0278409952443692
 20
0.0290880079306976
 30
0.0
 11
0.0255449952443692
 21
0.0297800079306976
 31
0.0
  0
LINE
  5
43A
330
244
100
AcDbEntity
  8
0
  6
Continuous
100
AcDbLine
 10
0.0271689952443692
 20
0.0290880079306976
 30
0.0
 11
0.0278409952443692
 21
0.0290880079306976
 31
0.0
  0
LINE
  5
43B
330
244
100
AcDbEntity
  8
0
  6
Continuous
100
AcDbLine
 10
0.0255449952443692
 20
0.0290880079306976
 30
0.0
 11
0.0271689952443692
 21
0.0290880079306976
 31
0.0
  0
LINE
  5
43C
330
244
100
AcDbEntity
  8
0
  6
Continuous
100
AcDbLine
 10
0.0239209952443692
 20
0.0290880079306976
 30
0.0
 11
0.0255449952443692
 21
0.0290880079306976
 31
0.0
  0
LINE
  5
43D
330
244
100
AcDbEntity
  8
0
  6
Continuous
100
AcDbLine
 10
0.0232479952443692
 20
0.0290880079306976
 30
0.0
 11
0.0239209952443692
 21
0.0290880079306976
 31
0.0
  0
LINE
  5
43E
330
244
100
AcDbEntity
  8
0
  6
Continuous
100
AcDbLine
 10
0.0255449952443692
 20
0.0297800079306976
 30
0.0
 11
0.0232479952443692
 21
0.0290880079306976
 31
0.0
  0
LINE
  5
43F
330
244
100
AcDbEntity
  8
0
  6
Continuous
100
AcDbLine
 10
0.0278089952443692
 20
0.0290880079306976
 30
0.0
 11
0.0255119952443692
 21
0.0297800079306976
 31
0.0
  0
LINE
  5
440
330
244
100
AcDbEntity
  8
0
  6
Continuous
100
AcDbLine
 10
0.0271359952443692
 20
0.0290880079306976
 30
0.0
 11
0.0278089952443692
 21
0.0290880079306976
 31
0.0
  0
LINE
  5
441
330
244
100
AcDbEntity
  8
0
  6
Continuous
100
AcDbLine
 10
0.0255119952443692
 20
0.0290880079306976
 30
0.0
 11
0.0271359952443692
 21
0.0290880079306976
 31
0.0
  0
LINE
  5
442
330
244
100
AcDbEntity
  8
0
  6
Continuous
100
AcDbLine
 10
0.0238879952443692
 20
0.0290880079306976
 30
0.0
 11
0.0255119952443692
 21
0.0290880079306976
 31
0.0
  0
LINE
  5
443
330
244
100
AcDbEntity
  8
0
  6
Continuous
100
AcDbLine
 10
0.0232159952443692
 20
0.0290880079306976
 30
0.0
 11
0.0238879952443692
 21
0.0290880079306976
 31
0.0
  0
LINE
  5
444
330
244
100
AcDbEntity
  8
0
  6
Continuous
100
AcDbLine
 10
0.0255119952443692
 20
0.0297800079306976
 30
0.0
 11
0.0232159952443692
 21
0.0290880079306976
 31
0.0
  0
LINE
  5
445
330
244
100
AcDbEntity
  8
0
  6
Continuous
100
AcDbLine
 10
0.0060489952443692
 20
0.0311960079306976
 30
0.0
 11
0.0060489952443692
 21
0.0296410079306976
 31
0.0
  0
LINE
  5
446
330
244
100
AcDbEntity
  8
0
  6
Continuous
100
AcDbLine
 10
0.0060489952443692
 20
0.0291590079306976
 30
0.0
 11
0.0062959952443692
 21
0.0291590079306976
 31
0.0
  0
LINE
  5
447
330
244
100
AcDbEntity
  8
0
  6
Continuous
100
AcDbLine
 10
0.0060489952443692
 20
0.0296410079306976
 30
0.0
 11
0.0060489952443692
 21
0.0291590079306976
 31
0.0
  0
LINE
  5
448
330
244
100
AcDbEntity
  8
0
  6
Continuous
100
AcDbLine
 10
0.0062959952443692
 20
0.0291590079306976
 30
0.0
 11
0.0074669952443692
 21
0.0291590079306976
 31
0.0
  0
LINE
  5
449
330
244
100
AcDbEntity
  8
0
  6
Continuous
100
AcDbLine
 10
0.0074669952443692
 20
0.0291590079306976
 30
0.0
 11
0.0095619952443692
 21
0.0291590079306976
 31
0.0
  0
LINE
  5
44A
330
244
100
AcDbEntity
  8
0
  6
Continuous
100
AcDbLine
 10
0.0095619952443692
 20
0.0291590079306976
 30
0.0
 11
0.0119489952443692
 21
0.0291590079306976
 31
0.0
  0
LINE
  5
44B
330
244
100
AcDbEntity
  8
0
  6
Continuous
100
AcDbLine
 10
0.1053699952443692
 20
0.0296410079306976
 30
0.0
 11
0.1053699952443692
 21
0.0311960079306976
 31
0.0
  0
LINE
  5
44C
330
244
100
AcDbEntity
  8
0
  6
Continuous
100
AcDbLine
 10
0.1053699952443692
 20
0.0311960079306976
 30
0.0
 11
0.1053699952443692
 21
0.0316780079306976
 31
0.0
  0
LINE
  5
44D
330
244
100
AcDbEntity
  8
0
  6
Continuous
100
AcDbLine
 10
0.1053699952443692
 20
0.0316780079306976
 30
0.0
 11
0.1048779952443692
 21
0.0316780079306976
 31
0.0
  0
LINE
  5
44E
330
244
100
AcDbEntity
  8
0
  6
Continuous
100
AcDbLine
 10
0.1048779952443692
 20
0.0316780079306976
 30
0.0
 11
0.1037329952443692
 21
0.0316780079306976
 31
0.0
  0
LINE
  5
44F
330
244
100
AcDbEntity
  8
0
  6
Continuous
100
AcDbLine
 10
0.1037329952443692
 20
0.0316780079306976
 30
0.0
 11
0.1020199952443692
 21
0.0316780079306976
 31
0.0
  0
LINE
  5
450
330
244
100
AcDbEntity
  8
0
  6
Continuous
100
AcDbLine
 10
0.1020199952443692
 20
0.0316780079306976
 30
0.0
 11
0.0995429952443692
 21
0.0316780079306976
 31
0.0
  0
LINE
  5
451
330
244
100
AcDbEntity
  8
0
  6
Continuous
100
AcDbLine
 10
0.0995429952443692
 20
0.0316780079306976
 30
0.0
 11
0.0119489952443692
 21
0.0316780079306976
 31
0.0
  0
LINE
  5
452
330
244
100
AcDbEntity
  8
0
  6
Continuous
100
AcDbLine
 10
0.0060489952443692
 20
0.0316780079306976
 30
0.0
 11
0.0060489952443692
 21
0.0311960079306976
 31
0.0
  0
LINE
  5
453
330
244
100
AcDbEntity
  8
0
  6
Continuous
100
AcDbLine
 10
0.0062959952443692
 20
0.0316780079306976
 30
0.0
 11
0.0060489952443692
 21
0.0316780079306976
 31
0.0
  0
LINE
  5
454
330
244
100
AcDbEntity
  8
0
  6
Continuous
100
AcDbLine
 10
0.0074679952443692
 20
0.0316780079306976
 30
0.0
 11
0.0062959952443692
 21
0.0316780079306976
 31
0.0
  0
LINE
  5
455
330
244
100
AcDbEntity
  8
0
  6
Continuous
100
AcDbLine
 10
0.0095609952443692
 20
0.0316780079306976
 30
0.0
 11
0.0074679952443692
 21
0.0316780079306976
 31
0.0
  0
LINE
  5
456
330
244
100
AcDbEntity
  8
0
  6
Continuous
100
AcDbLine
 10
0.0119489952443692
 20
0.0316780079306976
 30
0.0
 11
0.0095609952443692
 21
0.0316780079306976
 31
0.0
  0
LINE
  5
457
330
244
100
AcDbEntity
  8
0
  6
Continuous
100
AcDbLine
 10
0.1053699952443692
 20
0.0291590079306976
 30
0.0
 11
0.1053699952443692
 21
0.0296410079306976
 31
0.0
  0
LINE
  5
458
330
244
100
AcDbEntity
  8
0
  6
Continuous
100
AcDbLine
 10
0.1048779952443692
 20
0.0291590079306976
 30
0.0
 11
0.1053699952443692
 21
0.0291590079306976
 31
0.0
  0
LINE
  5
459
330
244
100
AcDbEntity
  8
0
  6
Continuous
100
AcDbLine
 10
0.1037329952443692
 20
0.0291590079306976
 30
0.0
 11
0.1048779952443692
 21
0.0291590079306976
 31
0.0
  0
LINE
  5
45A
330
244
100
AcDbEntity
  8
0
  6
Continuous
100
AcDbLine
 10
0.1020199952443692
 20
0.0291590079306976
 30
0.0
 11
0.1037329952443692
 21
0.0291590079306976
 31
0.0
  0
LINE
  5
45B
330
244
100
AcDbEntity
  8
0
  6
Continuous
100
AcDbLine
 10
0.0995429952443692
 20
0.0291590079306976
 30
0.0
 11
0.1020199952443692
 21
0.0291590079306976
 31
0.0
  0
LINE
  5
45C
330
244
100
AcDbEntity
  8
0
  6
Continuous
100
AcDbLine
 10
0.0119489952443692
 20
0.0291590079306976
 30
0.0
 11
0.0995429952443692
 21
0.0291590079306976
 31
0.0
  0
LINE
  5
45D
330
244
100
AcDbEntity
  8
0
  6
Continuous
100
AcDbLine
 10
0.0064099952443692
 20
0.0316780079306976
 30
0.0
 11
0.0018729952443692
 21
0.0316780079306976
 31
0.0
  0
LINE
  5
45E
330
244
100
AcDbEntity
  8
0
  6
Continuous
100
AcDbLine
 10
0.0119489952443692
 20
0.0316780079306976
 30
0.0
 11
0.0095609952443692
 21
0.0316780079306976
 31
0.0
  0
LINE
  5
45F
330
244
100
AcDbEntity
  8
0
  6
Continuous
100
AcDbLine
 10
0.0087919952443692
 20
0.0316780079306976
 30
0.0
 11
0.0109409952443692
 21
0.0316780079306976
 31
0.0
  0
LINE
  5
460
330
244
100
AcDbEntity
  8
0
  6
Continuous
100
AcDbLine
 10
0.0095609952443692
 20
0.0316780079306976
 30
0.0
 11
0.0087919952443692
 21
0.0316780079306976
 31
0.0
  0
LINE
  5
461
330
244
100
AcDbEntity
  8
0
  6
Continuous
100
AcDbLine
 10
0.0064099952443692
 20
0.0251780079306976
 30
0.0
 11
0.0109479952443692
 21
0.0251780079306976
 31
0.0
  0
LINE
  5
462
330
244
100
AcDbEntity
  8
0
  6
Continuous
100
AcDbLine
 10
0.0109479952443692
 20
0.0316780079306976
 30
0.0
 11
0.0064099952443692
 21
0.0316780079306976
 31
0.0
  0
LINE
  5
463
330
244
100
AcDbEntity
  8
0
  6
Continuous
100
AcDbLine
 10
0.0995429952443692
 20
0.0316780079306976
 30
0.0
 11
0.0119489952443692
 21
0.0316780079306976
 31
0.0
  0
LINE
  5
464
330
244
100
AcDbEntity
  8
0
  6
Continuous
100
AcDbLine
 10
0.0995909952443692
 20
0.0316780079306976
 30
0.0
 11
0.0995429952443692
 21
0.0316780079306976
 31
0.0
  0
LINE
  5
465
330
244
100
AcDbEntity
  8
0
  6
Continuous
100
AcDbLine
 10
0.0109409952443692
 20
0.0316780079306976
 30
0.0
 11
0.0995909952443692
 21
0.0316780079306976
 31
0.0
  0
LINE
  5
466
330
244
100
AcDbEntity
  8
0
  6
Continuous
100
AcDbLine
 10
0.0018729952443692
 20
0.0251780079306976
 30
0.0
 11
0.0064099952443692
 21
0.0251780079306976
 31
0.0
  0
LINE
  5
467
330
244
100
AcDbEntity
  8
0
  6
Continuous
100
AcDbLine
 10
0.0009999952443692
 20
0.0254860079306976
 30
0.0
 11
0.0009999952443692
 21
0.0251780079306976
 31
0.0
  0
LINE
  5
468
330
244
100
AcDbEntity
  8
0
  6
Continuous
100
AcDbLine
 10
0.1099999952443691
 20
0.0254860079306976
 30
0.0
 11
0.1099999952443691
 21
0.0313530079306976
 31
0.0
  0
LINE
  5
469
330
244
100
AcDbEntity
  8
0
  6
Continuous
100
AcDbLine
 10
0.0009999952443692
 20
0.0313530079306976
 30
0.0
 11
0.0009999952443692
 21
0.0254860079306976
 31
0.0
  0
LINE
  5
46A
330
244
100
AcDbEntity
  8
0
  6
Continuous
100
AcDbLine
 10
0.0009999952443692
 20
0.0254860079306976
 30
0.0
 11
0.0009999952443692
 21
0.0313530079306976
 31
0.0
  0
LINE
  5
46B
330
244
100
AcDbEntity
  8
0
  6
Continuous
100
AcDbLine
 10
0.1099999952443691
 20
0.0316780079306976
 30
0.0
 11
0.1092389952443691
 21
0.0316780079306976
 31
0.0
  0
LINE
  5
46C
330
244
100
AcDbEntity
  8
0
  6
Continuous
100
AcDbLine
 10
0.1099999952443691
 20
0.0313530079306976
 30
0.0
 11
0.1099999952443691
 21
0.0316780079306976
 31
0.0
  0
LINE
  5
46D
330
244
100
AcDbEntity
  8
0
  6
Continuous
100
AcDbLine
 10
0.0018729952443692
 20
0.0316780079306976
 30
0.0
 11
0.0009999952443692
 21
0.0316780079306976
 31
0.0
  0
LINE
  5
46E
330
244
100
AcDbEntity
  8
0
  6
Continuous
100
AcDbLine
 10
0.0009999952443692
 20
0.0316780079306976
 30
0.0
 11
0.0009999952443692
 21
0.0313530079306976
 31
0.0
  0
LINE
  5
46F
330
244
100
AcDbEntity
  8
0
  6
Continuous
100
AcDbLine
 10
0.1092389952443691
 20
0.0316780079306976
 30
0.0
 11
0.1070709952443692
 21
0.0316780079306976
 31
0.0
  0
LINE
  5
470
330
244
100
AcDbEntity
  8
0
  6
Continuous
100
AcDbLine
 10
0.1070709952443692
 20
0.0316780079306976
 30
0.0
 11
0.1038269952443692
 21
0.0316780079306976
 31
0.0
  0
LINE
  5
471
330
244
100
AcDbEntity
  8
0
  6
Continuous
100
AcDbLine
 10
0.1038269952443692
 20
0.0316780079306976
 30
0.0
 11
0.0999999952443692
 21
0.0316780079306976
 31
0.0
  0
LINE
  5
472
330
244
100
AcDbEntity
  8
0
  6
Continuous
100
AcDbLine
 10
0.0999999952443692
 20
0.0316780079306976
 30
0.0
 11
0.0109479952443692
 21
0.0316780079306976
 31
0.0
  0
LINE
  5
473
330
244
100
AcDbEntity
  8
0
  6
Continuous
100
AcDbLine
 10
0.1099999952443691
 20
0.0251780079306976
 30
0.0
 11
0.1099999952443691
 21
0.0254860079306976
 31
0.0
  0
LINE
  5
474
330
244
100
AcDbEntity
  8
0
  6
Continuous
100
AcDbLine
 10
0.1092389952443691
 20
0.0251780079306976
 30
0.0
 11
0.1099999952443691
 21
0.0251780079306976
 31
0.0
  0
LINE
  5
475
330
244
100
AcDbEntity
  8
0
  6
Continuous
100
AcDbLine
 10
0.0009999952443692
 20
0.0251780079306976
 30
0.0
 11
0.0018729952443692
 21
0.0251780079306976
 31
0.0
  0
LINE
  5
476
330
244
100
AcDbEntity
  8
0
  6
Continuous
100
AcDbLine
 10
0.0009999952443692
 20
0.0254860079306976
 30
0.0
 11
0.0009999952443692
 21
0.0251780079306976
 31
0.0
  0
LINE
  5
477
330
244
100
AcDbEntity
  8
0
  6
Continuous
100
AcDbLine
 10
0.1070709952443692
 20
0.0251780079306976
 30
0.0
 11
0.1092389952443691
 21
0.0251780079306976
 31
0.0
  0
LINE
  5
478
330
244
100
AcDbEntity
  8
0
  6
Continuous
100
AcDbLine
 10
0.1038269952443692
 20
0.0251780079306976
 30
0.0
 11
0.1070709952443692
 21
0.0251780079306976
 31
0.0
  0
LINE
  5
479
330
244
100
AcDbEntity
  8
0
  6
Continuous
100
AcDbLine
 10
0.0999999952443692
 20
0.0251780079306976
 30
0.0
 11
0.1038269952443692
 21
0.0251780079306976
 31
0.0
  0
LINE
  5
47A
330
244
100
AcDbEntity
  8
0
  6
Continuous
100
AcDbLine
 10
0.0109479952443692
 20
0.0251780079306976
 30
0.0
 11
0.0999999952443692
 21
0.0251780079306976
 31
0.0
  0
LINE
  5
47B
330
244
100
AcDbEntity
  8
0
  6
Continuous
100
AcDbLine
 10
0.0744679952443692
 20
0.0250480079306976
 30
0.0
 11
0.0737839952443692
 21
0.0250480079306976
 31
0.0
  0
LINE
  5
47C
330
244
100
AcDbEntity
  8
0
  6
Continuous
100
AcDbLine
 10
0.0744679952443692
 20
0.0242840079306976
 30
0.0
 11
0.0744679952443692
 21
0.0250480079306976
 31
0.0
  0
LINE
  5
47D
330
244
100
AcDbEntity
  8
0
  6
Continuous
100
AcDbLine
 10
0.0737839952443692
 20
0.0250480079306976
 30
0.0
 11
0.0718929952443692
 21
0.0250480079306976
 31
0.0
  0
LINE
  5
47E
330
244
100
AcDbEntity
  8
0
  6
Continuous
100
AcDbLine
 10
0.0718929952443692
 20
0.0250480079306976
 30
0.0
 11
0.0688839952443692
 21
0.0250480079306976
 31
0.0
  0
LINE
  5
47F
330
244
100
AcDbEntity
  8
0
  6
Continuous
100
AcDbLine
 10
0.0688839952443692
 20
0.0250480079306976
 30
0.0
 11
0.0649639952443692
 21
0.0250480079306976
 31
0.0
  0
LINE
  5
480
330
244
100
AcDbEntity
  8
0
  6
Continuous
100
AcDbLine
 10
0.0649639952443692
 20
0.0250480079306976
 30
0.0
 11
0.0603989952443692
 21
0.0250480079306976
 31
0.0
  0
LINE
  5
481
330
244
100
AcDbEntity
  8
0
  6
Continuous
100
AcDbLine
 10
0.0603989952443692
 20
0.0250480079306976
 30
0.0
 11
0.0554999952443692
 21
0.0250480079306976
 31
0.0
  0
LINE
  5
482
330
244
100
AcDbEntity
  8
0
  6
Continuous
100
AcDbLine
 10
0.0554999952443692
 20
0.0250480079306976
 30
0.0
 11
0.0505999952443692
 21
0.0250480079306976
 31
0.0
  0
LINE
  5
483
330
244
100
AcDbEntity
  8
0
  6
Continuous
100
AcDbLine
 10
0.0505999952443692
 20
0.0250480079306976
 30
0.0
 11
0.0460349952443692
 21
0.0250480079306976
 31
0.0
  0
LINE
  5
484
330
244
100
AcDbEntity
  8
0
  6
Continuous
100
AcDbLine
 10
0.0460349952443692
 20
0.0250480079306976
 30
0.0
 11
0.0421149952443692
 21
0.0250480079306976
 31
0.0
  0
LINE
  5
485
330
244
100
AcDbEntity
  8
0
  6
Continuous
100
AcDbLine
 10
0.0421149952443692
 20
0.0250480079306976
 30
0.0
 11
0.0391069952443692
 21
0.0250480079306976
 31
0.0
  0
LINE
  5
486
330
244
100
AcDbEntity
  8
0
  6
Continuous
100
AcDbLine
 10
0.0391069952443692
 20
0.0250480079306976
 30
0.0
 11
0.0372159952443692
 21
0.0250480079306976
 31
0.0
  0
LINE
  5
487
330
244
100
AcDbEntity
  8
0
  6
Continuous
100
AcDbLine
 10
0.0365319952443692
 20
0.0250480079306976
 30
0.0
 11
0.0365319952443692
 21
0.0242840079306976
 31
0.0
  0
LINE
  5
488
330
244
100
AcDbEntity
  8
0
  6
Continuous
100
AcDbLine
 10
0.0372159952443692
 20
0.0250480079306976
 30
0.0
 11
0.0365319952443692
 21
0.0250480079306976
 31
0.0
  0
LINE
  5
489
330
244
100
AcDbEntity
  8
0
  6
Continuous
100
AcDbLine
 10
0.0320069952443692
 20
0.0250480079306976
 30
0.0
 11
0.0320069952443692
 21
0.0242840079306976
 31
0.0
  0
LINE
  5
48A
330
244
100
AcDbEntity
  8
0
  6
Continuous
100
AcDbLine
 10
0.0328069952443692
 20
0.0250480079306976
 30
0.0
 11
0.0320069952443692
 21
0.0250480079306976
 31
0.0
  0
LINE
  5
48B
330
244
100
AcDbEntity
  8
0
  6
Continuous
100
AcDbLine
 10
0.0351539952443692
 20
0.0250480079306976
 30
0.0
 11
0.0328069952443692
 21
0.0250480079306976
 31
0.0
  0
LINE
  5
48C
330
244
100
AcDbEntity
  8
0
  6
Continuous
100
AcDbLine
 10
0.0388879952443692
 20
0.0250480079306976
 30
0.0
 11
0.0351539952443692
 21
0.0250480079306976
 31
0.0
  0
LINE
  5
48D
330
244
100
AcDbEntity
  8
0
  6
Continuous
100
AcDbLine
 10
0.0437529952443692
 20
0.0250480079306976
 30
0.0
 11
0.0388879952443692
 21
0.0250480079306976
 31
0.0
  0
LINE
  5
48E
330
244
100
AcDbEntity
  8
0
  6
Continuous
100
AcDbLine
 10
0.0494189952443692
 20
0.0250480079306976
 30
0.0
 11
0.0437529952443692
 21
0.0250480079306976
 31
0.0
  0
LINE
  5
48F
330
244
100
AcDbEntity
  8
0
  6
Continuous
100
AcDbLine
 10
0.0554999952443692
 20
0.0250480079306976
 30
0.0
 11
0.0494189952443692
 21
0.0250480079306976
 31
0.0
  0
LINE
  5
490
330
244
100
AcDbEntity
  8
0
  6
Continuous
100
AcDbLine
 10
0.0615799952443692
 20
0.0250480079306976
 30
0.0
 11
0.0554999952443692
 21
0.0250480079306976
 31
0.0
  0
LINE
  5
491
330
244
100
AcDbEntity
  8
0
  6
Continuous
100
AcDbLine
 10
0.0672459952443692
 20
0.0250480079306976
 30
0.0
 11
0.0615799952443692
 21
0.0250480079306976
 31
0.0
  0
LINE
  5
492
330
244
100
AcDbEntity
  8
0
  6
Continuous
100
AcDbLine
 10
0.0789919952443692
 20
0.0242840079306976
 30
0.0
 11
0.0789919952443692
 21
0.0250480079306976
 31
0.0
  0
LINE
  5
493
330
244
100
AcDbEntity
  8
0
  6
Continuous
100
AcDbLine
 10
0.0789919952443692
 20
0.0250480079306976
 30
0.0
 11
0.0781919952443692
 21
0.0250480079306976
 31
0.0
  0
LINE
  5
494
330
244
100
AcDbEntity
  8
0
  6
Continuous
100
AcDbLine
 10
0.0721109952443692
 20
0.0250480079306976
 30
0.0
 11
0.0672459952443692
 21
0.0250480079306976
 31
0.0
  0
LINE
  5
495
330
244
100
AcDbEntity
  8
0
  6
Continuous
100
AcDbLine
 10
0.0781919952443692
 20
0.0250480079306976
 30
0.0
 11
0.0758449952443692
 21
0.0250480079306976
 31
0.0
  0
LINE
  5
496
330
244
100
AcDbEntity
  8
0
  6
Continuous
100
AcDbLine
 10
0.0758449952443692
 20
0.0250480079306976
 30
0.0
 11
0.0721109952443692
 21
0.0250480079306976
 31
0.0
  0
ENDBLK
  5
498
330
244
100
AcDbEntity
  8
0
100
AcDbBlockEnd
  0
ENDSEC
  0
SECTION
  2
ENTITIES
  0
LINE
  5
76
330
70
100
AcDbEntity
  8
0
  6
Continuous
100
AcDbLine
 10
63.83121676869675
 20
-169.2073860208871
 30
0.0
 11
63.83121676869675
 21
-170.8373860208871
 31
0.0
  0
LINE
  5
77
330
70
100
AcDbEntity
  8
0
  6
Continuous
100
AcDbLine
 10
64.89221676869675
 20
-169.2073860208871
 30
0.0
 11
63.83121676869675
 21
-169.2073860208871
 31
0.0
  0
LINE
  5
78
330
70
100
AcDbEntity
  8
0
  6
Continuous
100
AcDbLine
 10
86.94621676869676
 20
-169.2073860208871
 30
0.0
 11
64.89221676869675
 21
-169.2073860208871
 31
0.0
  0
LINE
  5
79
330
70
100
AcDbEntity
  8
0
  6
Continuous
100
AcDbLine
 10
63.83121676869665
 20
-269.2033860208871
 30
0.0
 11
63.83121676869665
 21
-273.0303860208871
 31
0.0
  0
LINE
  5
7A
330
70
100
AcDbEntity
  8
0
  6
Continuous
100
AcDbLine
 10
63.83121676869665
 20
-273.0303860208871
 30
0.0
 11
63.83121676869665
 21
-276.2743860208871
 31
0.0
  0
LINE
  5
7B
330
70
100
AcDbEntity
  8
0
  6
Continuous
100
AcDbLine
 10
63.83121676869665
 20
-276.2743860208871
 30
0.0
 11
63.83121676869665
 21
-278.4423860208871
 31
0.0
  0
LINE
  5
7C
330
70
100
AcDbEntity
  8
0
  6
Continuous
100
AcDbLine
 10
63.83121676869665
 20
-279.2033860208871
 30
0.0
 11
64.89221676869665
 21
-279.199386020887
 31
0.0
  0
LINE
  5
7D
330
70
100
AcDbEntity
  8
0
  6
Continuous
100
AcDbLine
 10
63.83121676869665
 20
-278.4423860208871
 30
0.0
 11
63.83121676869665
 21
-279.2033860208871
 31
0.0
  0
LINE
  5
7E
330
70
100
AcDbEntity
  8
0
  6
Continuous
100
AcDbLine
 10
87.83121676869674
 20
-169.2073860208871
 30
0.0
 11
86.94621676869676
 21
-169.2073860208871
 31
0.0
  0
LINE
  5
7F
330
70
100
AcDbEntity
  8
0
  6
Continuous
100
AcDbLine
 10
87.83121676869674
 20
-170.8373860208871
 30
0.0
 11
87.83121676869674
 21
-169.2073860208871
 31
0.0
  0
LINE
  5
80
330
70
100
AcDbEntity
  8
0
  6
Continuous
100
AcDbLine
 10
64.89221676869665
 20
-279.199386020887
 30
0.0
 11
86.94621676869664
 21
-279.1233860208871
 31
0.0
  0
LINE
  5
81
330
70
100
AcDbEntity
  8
0
  6
Continuous
100
AcDbLine
 10
87.83121676869674
 20
-185.6613860208871
 30
0.0
 11
87.83121676869674
 21
-170.8373860208871
 31
0.0
  0
LINE
  5
82
330
70
100
AcDbEntity
  8
0
  6
Continuous
100
AcDbLine
 10
87.83121676869667
 20
-272.9463860208871
 30
0.0
 11
87.83121676869667
 21
-269.1203860208871
 31
0.0
  0
LINE
  5
83
330
70
100
AcDbEntity
  8
0
  6
Continuous
100
AcDbLine
 10
87.83121676869667
 20
-276.1913860208871
 30
0.0
 11
87.83121676869667
 21
-272.9463860208871
 31
0.0
  0
LINE
  5
84
330
70
100
AcDbEntity
  8
0
  6
Continuous
100
AcDbLine
 10
87.83121676869667
 20
-278.3583860208871
 30
0.0
 11
87.83121676869667
 21
-276.1913860208871
 31
0.0
  0
LINE
  5
85
330
70
100
AcDbEntity
  8
0
  6
Continuous
100
AcDbLine
 10
86.94621676869664
 20
-279.1233860208871
 30
0.0
 11
87.83121676869667
 21
-279.1203860208871
 31
0.0
  0
LINE
  5
86
330
70
100
AcDbEntity
  8
0
  6
Continuous
100
AcDbLine
 10
87.83121676869667
 20
-279.1203860208871
 30
0.0
 11
87.83121676869667
 21
-277.490386020887
 31
0.0
  0
LINE
  5
87
330
70
100
AcDbEntity
  8
0
  6
Continuous
100
AcDbLine
 10
87.83121676869667
 20
-278.3583860208871
 30
0.0
 11
87.83121676869667
 21
-279.1203860208871
 31
0.0
  0
LINE
  5
88
330
70
100
AcDbEntity
  8
0
  6
Continuous
100
AcDbLine
 10
87.83121676869667
 20
-276.8233860208871
 30
0.0
 11
87.83121676869667
 21
-278.3583860208871
 31
0.0
  0
LINE
  5
89
330
70
100
AcDbEntity
  8
0
  6
Continuous
100
AcDbLine
 10
63.83121676869665
 20
-224.7073860208871
 30
0.0
 11
63.83121676869665
 21
-269.2033860208871
 31
0.0
  0
LINE
  5
8A
330
70
100
AcDbEntity
  8
0
  6
Continuous
100
AcDbLine
 10
87.83121676869667
 20
-269.1203860208871
 30
0.0
 11
87.83121676869667
 21
-224.7073860208871
 31
0.0
  0
LINE
  5
8B
330
70
100
AcDbEntity
  8
0
  6
Continuous
100
AcDbLine
 10
87.83121676869667
 20
-263.6843860208871
 30
0.0
 11
87.83121676869667
 21
-275.8633860208871
 31
0.0
  0
LINE
  5
8C
330
70
100
AcDbEntity
  8
0
  6
Continuous
100
AcDbLine
 10
87.83121676869667
 20
-264.8203860208871
 30
0.0
 11
87.83121676869667
 21
-263.6843860208871
 31
0.0
  0
LINE
  5
8D
330
70
100
AcDbEntity
  8
0
  6
Continuous
100
AcDbLine
 10
87.83121676869667
 20
-276.4713860208871
 30
0.0
 11
87.83121676869667
 21
-264.8203860208871
 31
0.0
  0
LINE
  5
8E
330
70
100
AcDbEntity
  8
0
  6
Continuous
100
AcDbLine
 10
63.83121676869665
 20
-197.2263860208871
 30
0.0
 11
63.83121676869665
 21
-224.7073860208871
 31
0.0
  0
LINE
  5
8F
330
70
100
AcDbEntity
  8
0
  6
Continuous
100
AcDbLine
 10
63.83121676869665
 20
-185.6613860208871
 30
0.0
 11
63.83121676869665
 21
-197.2263860208871
 31
0.0
  0
LINE
  5
90
330
70
100
AcDbEntity
  8
0
  6
Continuous
100
AcDbLine
 10
87.83121676869667
 20
-224.7073860208871
 30
0.0
 11
87.83121676869674
 21
-197.2263860208871
 31
0.0
  0
LINE
  5
91
330
70
100
AcDbEntity
  8
0
  6
Continuous
100
AcDbLine
 10
87.83121676869674
 20
-197.2263860208871
 30
0.0
 11
87.83121676869674
 21
-185.6613860208871
 31
0.0
  0
LINE
  5
92
330
70
100
AcDbEntity
  8
0
  6
Continuous
100
AcDbLine
 10
87.83121676869667
 20
-277.490386020887
 30
0.0
 11
87.83121676869667
 21
-276.4713860208871
 31
0.0
  0
LINE
  5
93
330
70
100
AcDbEntity
  8
0
  6
Continuous
100
AcDbLine
 10
87.83121676869667
 20
-275.8633860208871
 30
0.0
 11
87.83121676869667
 21
-276.8233860208871
 31
0.0
  0
LINE
  5
94
330
70
100
AcDbEntity
  8
0
  6
Continuous
100
AcDbLine
 10
63.83121676869675
 20
-169.2073860208871
 30
0.0
 11
63.75421676869675
 21
-169.497386020887
 31
0.0
  0
LINE
  5
95
330
70
100
AcDbEntity
  8
0
  6
Continuous
100
AcDbLine
 10
63.83121676869675
 20
-170.8373860208871
 30
0.0
 11
63.83121676869665
 21
-185.6613860208871
 31
0.0
  0
LINE
  5
96
330
70
100
AcDbEntity
  8
0
  6
Continuous
100
AcDbLine
 10
63.75421676869675
 20
-169.497386020887
 30
0.0
 11
63.57721676869676
 21
-171.4073860208871
 31
0.0
  0
LINE
  5
97
330
70
100
AcDbEntity
  8
0
  6
Continuous
100
AcDbLine
 10
63.54721676869676
 20
-171.614386020887
 30
0.0
 11
63.83121676869675
 21
-172.8973860208871
 31
0.0
  0
LINE
  5
98
330
70
100
AcDbEntity
  8
0
  6
Continuous
100
AcDbLine
 10
63.57721676869676
 20
-171.4073860208871
 30
0.0
 11
63.54721676869676
 21
-171.614386020887
 31
0.0
  0
LINE
  5
99
330
70
100
AcDbEntity
  8
0
  6
Continuous
100
AcDbLine
 10
87.83121676869674
 20
-189.5963860208871
 30
0.0
 11
87.83121676869674
 21
-189.1033860208871
 31
0.0
  0
LINE
  5
9A
330
70
100
AcDbEntity
  8
0
  6
Continuous
100
AcDbLine
 10
87.83121676869674
 20
-190.631386020887
 30
0.0
 11
87.83121676869674
 21
-189.5963860208871
 31
0.0
  0
LINE
  5
9B
330
70
100
AcDbEntity
  8
0
  6
Continuous
100
AcDbLine
 10
87.83121676869674
 20
-192.237386020887
 30
0.0
 11
87.83121676869674
 21
-190.631386020887
 31
0.0
  0
LINE
  5
9C
330
70
100
AcDbEntity
  8
0
  6
Continuous
100
AcDbLine
 10
87.83121676869674
 20
-194.254386020887
 30
0.0
 11
87.83121676869674
 21
-192.237386020887
 31
0.0
  0
LINE
  5
9D
330
70
100
AcDbEntity
  8
0
  6
Continuous
100
AcDbLine
 10
87.83121676869674
 20
-197.2263860208871
 30
0.0
 11
87.83121676869674
 21
-194.254386020887
 31
0.0
  0
LINE
  5
9E
330
70
100
AcDbEntity
  8
0
  6
Continuous
100
AcDbLine
 10
87.83121676869667
 20
-224.7073860208871
 30
0.0
 11
87.83121676869674
 21
-197.2263860208871
 31
0.0
  0
LINE
  5
9F
330
70
100
AcDbEntity
  8
0
  6
Continuous
100
AcDbLine
 10
87.83121676869667
 20
-256.9463860208871
 30
0.0
 11
87.83121676869667
 21
-224.7073860208871
 31
0.0
  0
LINE
  5
A0
330
70
100
AcDbEntity
  8
0
  6
Continuous
100
AcDbLine
 10
87.83121676869667
 20
-259.1703860208871
 30
0.0
 11
87.83121676869667
 21
-256.9463860208871
 31
0.0
  0
LINE
  5
A1
330
70
100
AcDbEntity
  8
0
  6
Continuous
100
AcDbLine
 10
87.83121676869667
 20
-264.1933860208871
 30
0.0
 11
87.83121676869667
 21
-263.8273860208871
 31
0.0
  0
LINE
  5
A2
330
70
100
AcDbEntity
  8
0
  6
Continuous
100
AcDbLine
 10
87.83121676869667
 20
-261.187386020887
 30
0.0
 11
87.83121676869667
 21
-259.1703860208871
 31
0.0
  0
LINE
  5
A3
330
70
100
AcDbEntity
  8
0
  6
Continuous
100
AcDbLine
 10
87.83121676869667
 20
-263.8273860208871
 30
0.0
 11
87.83121676869667
 21
-262.7943860208871
 31
0.0
  0
LINE
  5
A4
330
70
100
AcDbEntity
  8
0
  6
Continuous
100
AcDbLine
 10
87.83121676869667
 20
-262.7943860208871
 30
0.0
 11
87.83121676869667
 21
-261.187386020887
 31
0.0
  0
LINE
  5
A5
330
70
100
AcDbEntity
  8
0
  6
Continuous
100
AcDbLine
 10
90.53421676869666
 20
-279.6683860208871
 30
0.0
 11
90.67421676869665
 21
-279.7033860208871
 31
0.0
  0
LINE
  5
A6
330
70
100
AcDbEntity
  8
0
  6
Continuous
100
AcDbLine
 10
90.67421676869676
 20
-169.702386020887
 30
0.0
 11
90.53421676869675
 21
-169.7383860208871
 31
0.0
  0
LINE
  5
A7
330
70
100
AcDbEntity
  8
0
  6
Continuous
100
AcDbLine
 10
90.53421676869666
 20
-279.6683860208871
 30
0.0
 11
90.67421676869665
 21
-279.7033860208871
 31
0.0
  0
LINE
  5
A8
330
70
100
AcDbEntity
  8
0
  6
Continuous
100
AcDbLine
 10
90.67421676869665
 20
-279.7033860208871
 30
0.0
 11
90.53421676869666
 21
-279.6683860208871
 31
0.0
  0
LINE
  5
A9
330
70
100
AcDbEntity
  8
0
  6
Continuous
100
AcDbLine
 10
90.78521676869666
 20
-279.6753860208871
 30
0.0
 11
92.37521676869665
 21
-279.2823860208871
 31
0.0
  0
LINE
  5
AA
330
70
100
AcDbEntity
  8
0
  6
Continuous
100
AcDbLine
 10
92.37521676869675
 20
-170.1323860208871
 30
0.0
 11
90.78521676869675
 21
-169.7303860208871
 31
0.0
  0
LINE
  5
AB
330
70
100
AcDbEntity
  8
0
  6
Continuous
100
AcDbLine
 10
88.66621676869675
 20
-170.6323860208871
 30
0.0
 11
88.66621676869664
 21
-268.507386020887
 31
0.0
  0
LINE
  5
AC
330
70
100
AcDbEntity
  8
0
  6
Continuous
100
AcDbLine
 10
88.96721676869665
 20
-279.2823860208871
 30
0.0
 11
90.53421676869666
 21
-279.6683860208871
 31
0.0
  0
LINE
  5
AD
330
70
100
AcDbEntity
  8
0
  6
Continuous
100
AcDbLine
 10
90.53421676869675
 20
-169.7383860208871
 30
0.0
 11
88.96721676869674
 21
-170.1323860208871
 31
0.0
  0
LINE
  5
AE
330
70
100
AcDbEntity
  8
0
  6
Continuous
100
AcDbLine
 10
92.67521676869666
 20
-278.4463860208871
 30
0.0
 11
92.67521676869666
 21
-276.2793860208871
 31
0.0
  0
LINE
  5
AF
330
70
100
AcDbEntity
  8
0
  6
Continuous
100
AcDbLine
 10
92.67521676869666
 20
-279.2083860208871
 30
0.0
 11
92.67521676869666
 21
-278.4463860208871
 31
0.0
  0
LINE
  5
B0
330
70
100
AcDbEntity
  8
0
  6
Continuous
100
AcDbLine
 10
92.37521676869665
 20
-279.2823860208871
 30
0.0
 11
92.67521676869666
 21
-279.2083860208871
 31
0.0
  0
LINE
  5
B1
330
70
100
AcDbEntity
  8
0
  6
Continuous
100
AcDbLine
 10
92.67521676869666
 20
-268.507386020887
 30
0.0
 11
92.67521676869675
 21
-170.6323860208871
 31
0.0
  0
LINE
  5
B2
330
70
100
AcDbEntity
  8
0
  6
Continuous
100
AcDbLine
 10
92.67521676869666
 20
-273.0343860208871
 30
0.0
 11
92.67521676869666
 21
-269.2083860208871
 31
0.0
  0
LINE
  5
B3
330
70
100
AcDbEntity
  8
0
  6
Continuous
100
AcDbLine
 10
92.67521676869666
 20
-276.2793860208871
 30
0.0
 11
92.67521676869666
 21
-273.0343860208871
 31
0.0
  0
LINE
  5
B4
330
70
100
AcDbEntity
  8
0
  6
Continuous
100
AcDbLine
 10
92.67521676869675
 20
-170.6323860208871
 30
0.0
 11
92.67521676869675
 21
-170.2083860208871
 31
0.0
  0
LINE
  5
B5
330
70
100
AcDbEntity
  8
0
  6
Continuous
100
AcDbLine
 10
92.67521676869675
 20
-170.2083860208871
 30
0.0
 11
92.37521676869675
 21
-170.1323860208871
 31
0.0
  0
LINE
  5
B6
330
70
100
AcDbEntity
  8
0
  6
Continuous
100
AcDbLine
 10
92.67521676869666
 20
-269.2083860208871
 30
0.0
 11
92.67521676869666
 21
-268.507386020887
 31
0.0
  0
LINE
  5
B7
330
70
100
AcDbEntity
  8
0
  6
Continuous
100
AcDbLine
 10
90.67421676869665
 20
-279.7033860208871
 30
0.0
 11
90.78521676869666
 21
-279.6753860208871
 31
0.0
  0
LINE
  5
B8
330
70
100
AcDbEntity
  8
0
  6
Continuous
100
AcDbLine
 10
88.66621676869664
 20
-269.2083860208871
 30
0.0
 11
88.66621676869664
 21
-273.0343860208871
 31
0.0
  0
LINE
  5
B9
330
70
100
AcDbEntity
  8
0
  6
Continuous
100
AcDbLine
 10
90.78521676869675
 20
-169.7303860208871
 30
0.0
 11
90.67421676869676
 21
-169.702386020887
 31
0.0
  0
LINE
  5
BA
330
70
100
AcDbEntity
  8
0
  6
Continuous
100
AcDbLine
 10
88.66621676869664
 20
-268.507386020887
 30
0.0
 11
88.66621676869664
 21
-269.2083860208871
 31
0.0
  0
LINE
  5
BB
330
70
100
AcDbEntity
  8
0
  6
Continuous
100
AcDbLine
 10
88.96721676869674
 20
-170.1323860208871
 30
0.0
 11
88.66621676869675
 21
-170.2083860208871
 31
0.0
  0
LINE
  5
BC
330
70
100
AcDbEntity
  8
0
  6
Continuous
100
AcDbLine
 10
88.66621676869664
 20
-276.2793860208871
 30
0.0
 11
88.66621676869664
 21
-278.4463860208871
 31
0.0
  0
LINE
  5
BD
330
70
100
AcDbEntity
  8
0
  6
Continuous
100
AcDbLine
 10
88.66621676869664
 20
-279.2083860208871
 30
0.0
 11
88.96721676869665
 21
-279.2823860208871
 31
0.0
  0
LINE
  5
BE
330
70
100
AcDbEntity
  8
0
  6
Continuous
100
AcDbLine
 10
88.66621676869664
 20
-278.4463860208871
 30
0.0
 11
88.66621676869664
 21
-279.2083860208871
 31
0.0
  0
LINE
  5
BF
330
70
100
AcDbEntity
  8
0
  6
Continuous
100
AcDbLine
 10
88.66621676869675
 20
-170.2083860208871
 30
0.0
 11
88.66621676869675
 21
-170.6323860208871
 31
0.0
  0
LINE
  5
C0
330
70
100
AcDbEntity
  8
0
  6
Continuous
100
AcDbLine
 10
88.96721676869674
 20
-170.1323860208871
 30
0.0
 11
88.66621676869675
 21
-170.2083860208871
 31
0.0
  0
LINE
  5
C1
330
70
100
AcDbEntity
  8
0
  6
Continuous
100
AcDbLine
 10
88.66621676869664
 20
-273.0343860208871
 30
0.0
 11
88.66621676869664
 21
-276.2793860208871
 31
0.0
  0
LINE
  5
1BB
330
70
100
AcDbEntity
  8
0
  6
Continuous
100
AcDbLine
 10
230.7177424312226
 20
-169.2073860208871
 30
0.0
 11
230.7177424312226
 21
-170.8373860208871
 31
0.0
  0
LINE
  5
1BC
330
70
100
AcDbEntity
  8
0
  6
Continuous
100
AcDbLine
 10
231.0947424312226
 20
-169.2073860208871
 30
0.0
 11
230.7357424312226
 21
-169.2073860208871
 31
0.0
  0
LINE
  5
1BD
330
70
100
AcDbEntity
  8
0
  6
Continuous
100
AcDbLine
 10
230.7177424312226
 20
-269.2033860208871
 30
0.0
 11
231.4797424312226
 21
-273.0303860208871
 31
0.0
  0
LINE
  5
1BE
330
70
100
AcDbEntity
  8
0
  6
Continuous
100
AcDbLine
 10
231.4797424312226
 20
-273.0303860208871
 30
0.0
 11
233.6477424312227
 21
-276.2743860208871
 31
0.0
  0
LINE
  5
1BF
330
70
100
AcDbEntity
  8
0
  6
Continuous
100
AcDbLine
 10
233.6477424312227
 20
-276.2743860208871
 30
0.0
 11
236.8917424312226
 21
-278.4423860208871
 31
0.0
  0
LINE
  5
1C0
330
70
100
AcDbEntity
  8
0
  6
Continuous
100
AcDbLine
 10
236.8917424312226
 20
-278.4423860208871
 30
0.0
 11
240.7197424312226
 21
-279.2033860208871
 31
0.0
  0
LINE
  5
1C1
330
70
100
AcDbEntity
  8
0
  6
Continuous
100
AcDbLine
 10
240.7197424312226
 20
-279.2033860208871
 30
0.0
 11
252.7207424312226
 21
-279.2033860208871
 31
0.0
  0
LINE
  5
1C2
330
70
100
AcDbEntity
  8
0
  6
Continuous
100
AcDbLine
 10
231.1087424312226
 20
-170.8373860208871
 30
0.0
 11
231.1087424312226
 21
-169.2073860208871
 31
0.0
  0
LINE
  5
1C3
330
70
100
AcDbEntity
  8
0
  6
Continuous
100
AcDbLine
 10
231.1087424312226
 20
-269.1203860208871
 30
0.0
 11
231.8697424312226
 21
-272.9463860208871
 31
0.0
  0
LINE
  5
1C4
330
70
100
AcDbEntity
  8
0
  6
Continuous
100
AcDbLine
 10
231.8697424312226
 20
-272.9463860208871
 30
0.0
 11
234.0377424312226
 21
-276.1913860208871
 31
0.0
  0
LINE
  5
1C5
330
70
100
AcDbEntity
  8
0
  6
Continuous
100
AcDbLine
 10
234.0377424312226
 20
-276.1913860208871
 30
0.0
 11
237.2827424312226
 21
-278.3583860208871
 31
0.0
  0
LINE
  5
1C6
330
70
100
AcDbEntity
  8
0
  6
Continuous
100
AcDbLine
 10
237.2827424312226
 20
-278.3583860208871
 30
0.0
 11
241.1097424312226
 21
-279.1203860208871
 31
0.0
  0
LINE
  5
1C7
330
70
100
AcDbEntity
  8
0
  6
Continuous
100
AcDbLine
 10
230.7177424312226
 20
-224.7073860208871
 30
0.0
 11
230.7177424312226
 21
-269.2033860208871
 31
0.0
  0
LINE
  5
1C8
330
70
100
AcDbEntity
  8
0
  6
Continuous
100
AcDbLine
 10
231.1087424312226
 20
-269.1203860208871
 30
0.0
 11
231.1087424312226
 21
-224.7073860208871
 31
0.0
  0
LINE
  5
1C9
330
70
100
AcDbEntity
  8
0
  6
Continuous
100
AcDbLine
 10
252.7207424312226
 20
-279.2033860208871
 30
0.0
 11
380.7177424312227
 21
-279.2033860208871
 31
0.0
  0
LINE
  5
1CA
330
70
100
AcDbEntity
  8
0
  6
Continuous
100
AcDbLine
 10
380.7177424312227
 20
-279.1203860208871
 30
0.0
 11
252.7207424312226
 21
-279.1203860208871
 31
0.0
  0
LINE
  5
1CB
330
70
100
AcDbEntity
  8
0
  6
Continuous
100
AcDbLine
 10
241.1097424312226
 20
-279.1203860208871
 30
0.0
 11
252.7207424312226
 21
-279.1203860208871
 31
0.0
  0
LINE
  5
1CC
330
70
100
AcDbEntity
  8
0
  6
Continuous
100
AcDbLine
 10
252.7847424312227
 20
-169.2073860208871
 30
0.0
 11
232.6727424312227
 21
-169.2073860208871
 31
0.0
  0
LINE
  5
1CD
330
70
100
AcDbEntity
  8
0
  6
Continuous
100
AcDbLine
 10
380.7177424312227
 20
-169.2073860208871
 30
0.0
 11
252.7847424312227
 21
-169.2073860208871
 31
0.0
  0
LINE
  5
1CE
330
70
100
AcDbEntity
  8
0
  6
Continuous
100
AcDbLine
 10
231.1087424312226
 20
-170.8373860208871
 30
0.0
 11
231.1087424312226
 21
-185.6613860208871
 31
0.0
  0
LINE
  5
1CF
330
70
100
AcDbEntity
  8
0
  6
Continuous
100
AcDbLine
 10
230.7177424312226
 20
-197.2263860208871
 30
0.0
 11
230.7177424312226
 21
-224.7073860208871
 31
0.0
  0
LINE
  5
1D0
330
70
100
AcDbEntity
  8
0
  6
Continuous
100
AcDbLine
 10
230.7177424312226
 20
-185.6613860208871
 30
0.0
 11
230.7177424312226
 21
-197.2263860208871
 31
0.0
  0
LINE
  5
1D1
330
70
100
AcDbEntity
  8
0
  6
Continuous
100
AcDbLine
 10
232.6727424312227
 20
-169.2073860208871
 30
0.0
 11
231.1087424312226
 21
-169.2073860208871
 31
0.0
  0
LINE
  5
1D2
330
70
100
AcDbEntity
  8
0
  6
Continuous
100
AcDbLine
 10
231.1087424312226
 20
-224.7073860208871
 30
0.0
 11
231.1087424312226
 21
-197.2263860208871
 31
0.0
  0
LINE
  5
1D3
330
70
100
AcDbEntity
  8
0
  6
Continuous
100
AcDbLine
 10
231.1087424312226
 20
-185.6613860208871
 30
0.0
 11
231.1087424312226
 21
-197.2263860208871
 31
0.0
  0
LINE
  5
1D4
330
70
100
AcDbEntity
  8
0
  6
Continuous
100
AcDbLine
 10
252.7847424312227
 20
-189.1033860208871
 30
0.0
 11
380.7177424312227
 21
-189.1033860208871
 31
0.0
  0
LINE
  5
1D5
330
70
100
AcDbEntity
  8
0
  6
Continuous
100
AcDbLine
 10
250.5127424312227
 20
-189.5963860208871
 30
0.0
 11
252.7847424312227
 21
-189.1033860208871
 31
0.0
  0
LINE
  5
1D6
330
70
100
AcDbEntity
  8
0
  6
Continuous
100
AcDbLine
 10
248.5297424312226
 20
-190.631386020887
 30
0.0
 11
250.5127424312227
 21
-189.5963860208871
 31
0.0
  0
LINE
  5
1D7
330
70
100
AcDbEntity
  8
0
  6
Continuous
100
AcDbLine
 10
246.9737424312226
 20
-192.237386020887
 30
0.0
 11
248.5297424312226
 21
-190.631386020887
 31
0.0
  0
LINE
  5
1D8
330
70
100
AcDbEntity
  8
0
  6
Continuous
100
AcDbLine
 10
246.0007424312227
 20
-194.254386020887
 30
0.0
 11
246.9737424312226
 21
-192.237386020887
 31
0.0
  0
LINE
  5
1D9
330
70
100
AcDbEntity
  8
0
  6
Continuous
100
AcDbLine
 10
245.7047424312226
 20
-197.2263860208871
 30
0.0
 11
246.0007424312227
 21
-194.254386020887
 31
0.0
  0
LINE
  5
1DA
330
70
100
AcDbEntity
  8
0
  6
Continuous
100
AcDbLine
 10
245.6097424312226
 20
-224.7073860208871
 30
0.0
 11
245.7047424312226
 21
-197.2263860208871
 31
0.0
  0
LINE
  5
1DB
330
70
100
AcDbEntity
  8
0
  6
Continuous
100
AcDbLine
 10
245.7137424312227
 20
-256.9463860208871
 30
0.0
 11
245.6097424312226
 21
-224.7073860208871
 31
0.0
  0
LINE
  5
1DC
330
70
100
AcDbEntity
  8
0
  6
Continuous
100
AcDbLine
 10
380.7177424312227
 20
-264.2123860208871
 30
0.0
 11
252.7207424312226
 21
-264.1933860208871
 31
0.0
  0
LINE
  5
1DD
330
70
100
AcDbEntity
  8
0
  6
Continuous
100
AcDbLine
 10
246.0027424312226
 20
-259.1703860208871
 30
0.0
 11
245.7137424312227
 21
-256.9463860208871
 31
0.0
  0
LINE
  5
1DE
330
70
100
AcDbEntity
  8
0
  6
Continuous
100
AcDbLine
 10
252.7207424312226
 20
-264.1933860208871
 30
0.0
 11
250.5147424312226
 21
-263.8273860208871
 31
0.0
  0
LINE
  5
1DF
330
70
100
AcDbEntity
  8
0
  6
Continuous
100
AcDbLine
 10
246.9757424312227
 20
-261.187386020887
 30
0.0
 11
246.0027424312226
 21
-259.1703860208871
 31
0.0
  0
LINE
  5
1E0
330
70
100
AcDbEntity
  8
0
  6
Continuous
100
AcDbLine
 10
250.5147424312226
 20
-263.8273860208871
 30
0.0
 11
248.5327424312226
 21
-262.7943860208871
 31
0.0
  0
LINE
  5
1E1
330
70
100
AcDbEntity
  8
0
  6
Continuous
100
AcDbLine
 10
248.5327424312226
 20
-262.7943860208871
 30
0.0
 11
246.9757424312227
 21
-261.187386020887
 31
0.0
  0
LINE
  5
1E2
330
70
100
AcDbEntity
  8
0
  6
Continuous
100
AcDbLine
 10
230.7177424312226
 20
-170.8373860208871
 30
0.0
 11
230.7177424312226
 21
-185.6613860208871
 31
0.0
  0
LINE
  5
1E3
330
70
100
AcDbEntity
  8
0
  6
Continuous
100
AcDbLine
 10
530.7177424312227
 20
-170.8373860208871
 30
0.0
 11
530.7177424312227
 21
-169.2073860208871
 31
0.0
  0
LINE
  5
1E4
330
70
100
AcDbEntity
  8
0
  6
Continuous
100
AcDbLine
 10
530.6997424312226
 20
-169.2073860208871
 30
0.0
 11
530.3407424312228
 21
-169.2073860208871
 31
0.0
  0
LINE
  5
1E5
330
70
100
AcDbEntity
  8
0
  6
Continuous
100
AcDbLine
 10
529.9557424312227
 20
-273.0303860208871
 30
0.0
 11
530.7177424312227
 21
-269.2033860208871
 31
0.0
  0
LINE
  5
1E6
330
70
100
AcDbEntity
  8
0
  6
Continuous
100
AcDbLine
 10
527.7877424312227
 20
-276.2743860208871
 30
0.0
 11
529.9557424312227
 21
-273.0303860208871
 31
0.0
  0
LINE
  5
1E7
330
70
100
AcDbEntity
  8
0
  6
Continuous
100
AcDbLine
 10
524.5437424312227
 20
-278.4423860208871
 30
0.0
 11
527.7877424312227
 21
-276.2743860208871
 31
0.0
  0
LINE
  5
1E8
330
70
100
AcDbEntity
  8
0
  6
Continuous
100
AcDbLine
 10
520.7157424312227
 20
-279.2033860208871
 30
0.0
 11
524.5437424312227
 21
-278.4423860208871
 31
0.0
  0
LINE
  5
1E9
330
70
100
AcDbEntity
  8
0
  6
Continuous
100
AcDbLine
 10
508.7147424312226
 20
-279.2033860208871
 30
0.0
 11
520.7157424312227
 21
-279.2033860208871
 31
0.0
  0
LINE
  5
1EA
330
70
100
AcDbEntity
  8
0
  6
Continuous
100
AcDbLine
 10
530.3267424312227
 20
-169.2073860208871
 30
0.0
 11
530.3267424312227
 21
-170.8373860208871
 31
0.0
  0
LINE
  5
1EB
330
70
100
AcDbEntity
  8
0
  6
Continuous
100
AcDbLine
 10
529.5657424312228
 20
-272.9463860208871
 30
0.0
 11
530.3267424312227
 21
-269.1203860208871
 31
0.0
  0
LINE
  5
1EC
330
70
100
AcDbEntity
  8
0
  6
Continuous
100
AcDbLine
 10
527.3977424312228
 20
-276.1913860208871
 30
0.0
 11
529.5657424312228
 21
-272.9463860208871
 31
0.0
  0
LINE
  5
1ED
330
70
100
AcDbEntity
  8
0
  6
Continuous
100
AcDbLine
 10
524.1527424312228
 20
-278.3583860208871
 30
0.0
 11
527.3977424312228
 21
-276.1913860208871
 31
0.0
  0
LINE
  5
1EE
330
70
100
AcDbEntity
  8
0
  6
Continuous
100
AcDbLine
 10
520.3257424312227
 20
-279.1203860208871
 30
0.0
 11
524.1527424312228
 21
-278.3583860208871
 31
0.0
  0
LINE
  5
1EF
330
70
100
AcDbEntity
  8
0
  6
Continuous
100
AcDbLine
 10
530.7177424312227
 20
-269.2033860208871
 30
0.0
 11
530.7177424312227
 21
-224.7073860208871
 31
0.0
  0
LINE
  5
1F0
330
70
100
AcDbEntity
  8
0
  6
Continuous
100
AcDbLine
 10
530.3267424312227
 20
-224.7073860208871
 30
0.0
 11
530.3267424312227
 21
-269.1203860208871
 31
0.0
  0
LINE
  5
1F1
330
70
100
AcDbEntity
  8
0
  6
Continuous
100
AcDbLine
 10
380.7177424312227
 20
-279.2033860208871
 30
0.0
 11
508.7147424312226
 21
-279.2033860208871
 31
0.0
  0
LINE
  5
1F2
330
70
100
AcDbEntity
  8
0
  6
Continuous
100
AcDbLine
 10
508.7147424312226
 20
-279.1203860208871
 30
0.0
 11
380.7177424312227
 21
-279.1203860208871
 31
0.0
  0
LINE
  5
1F3
330
70
100
AcDbEntity
  8
0
  6
Continuous
100
AcDbLine
 10
508.7147424312226
 20
-279.1203860208871
 30
0.0
 11
520.3257424312227
 21
-279.1203860208871
 31
0.0
  0
LINE
  5
1F4
330
70
100
AcDbEntity
  8
0
  6
Continuous
100
AcDbLine
 10
528.7627424312228
 20
-169.2073860208871
 30
0.0
 11
508.6507424312226
 21
-169.2073860208871
 31
0.0
  0
LINE
  5
1F5
330
70
100
AcDbEntity
  8
0
  6
Continuous
100
AcDbLine
 10
508.6507424312226
 20
-169.2073860208871
 30
0.0
 11
380.7177424312227
 21
-169.2073860208871
 31
0.0
  0
LINE
  5
1F6
330
70
100
AcDbEntity
  8
0
  6
Continuous
100
AcDbLine
 10
530.3267424312227
 20
-185.6613860208871
 30
0.0
 11
530.3267424312227
 21
-170.8373860208871
 31
0.0
  0
LINE
  5
1F7
330
70
100
AcDbEntity
  8
0
  6
Continuous
100
AcDbLine
 10
530.7177424312227
 20
-224.7073860208871
 30
0.0
 11
530.7177424312227
 21
-197.2263860208871
 31
0.0
  0
LINE
  5
1F8
330
70
100
AcDbEntity
  8
0
  6
Continuous
100
AcDbLine
 10
530.7177424312227
 20
-197.2263860208871
 30
0.0
 11
530.7177424312227
 21
-185.6613860208871
 31
0.0
  0
LINE
  5
1F9
330
70
100
AcDbEntity
  8
0
  6
Continuous
100
AcDbLine
 10
530.3267424312227
 20
-169.2073860208871
 30
0.0
 11
528.7627424312228
 21
-169.2073860208871
 31
0.0
  0
LINE
  5
1FA
330
70
100
AcDbEntity
  8
0
  6
Continuous
100
AcDbLine
 10
530.3267424312227
 20
-197.2263860208871
 30
0.0
 11
530.3267424312227
 21
-224.7073860208871
 31
0.0
  0
LINE
  5
1FB
330
70
100
AcDbEntity
  8
0
  6
Continuous
100
AcDbLine
 10
530.3267424312227
 20
-197.2263860208871
 30
0.0
 11
530.3267424312227
 21
-185.6613860208871
 31
0.0
  0
LINE
  5
1FC
330
70
100
AcDbEntity
  8
0
  6
Continuous
100
AcDbLine
 10
380.7177424312227
 20
-189.1033860208871
 30
0.0
 11
508.6507424312226
 21
-189.1033860208871
 31
0.0
  0
LINE
  5
1FD
330
70
100
AcDbEntity
  8
0
  6
Continuous
100
AcDbLine
 10
508.6507424312226
 20
-189.1033860208871
 30
0.0
 11
510.9227424312225
 21
-189.5963860208871
 31
0.0
  0
LINE
  5
1FE
330
70
100
AcDbEntity
  8
0
  6
Continuous
100
AcDbLine
 10
510.9227424312225
 20
-189.5963860208871
 30
0.0
 11
512.9057424312227
 21
-190.631386020887
 31
0.0
  0
LINE
  5
1FF
330
70
100
AcDbEntity
  8
0
  6
Continuous
100
AcDbLine
 10
512.9057424312227
 20
-190.631386020887
 30
0.0
 11
514.4617424312228
 21
-192.237386020887
 31
0.0
  0
LINE
  5
200
330
70
100
AcDbEntity
  8
0
  6
Continuous
100
AcDbLine
 10
514.4617424312228
 20
-192.237386020887
 30
0.0
 11
515.4347424312228
 21
-194.254386020887
 31
0.0
  0
LINE
  5
201
330
70
100
AcDbEntity
  8
0
  6
Continuous
100
AcDbLine
 10
515.4347424312228
 20
-194.254386020887
 30
0.0
 11
515.7307424312228
 21
-197.2263860208871
 31
0.0
  0
LINE
  5
202
330
70
100
AcDbEntity
  8
0
  6
Continuous
100
AcDbLine
 10
515.7307424312228
 20
-197.2263860208871
 30
0.0
 11
515.8257424312227
 21
-224.7073860208871
 31
0.0
  0
LINE
  5
203
330
70
100
AcDbEntity
  8
0
  6
Continuous
100
AcDbLine
 10
515.8257424312227
 20
-224.7073860208871
 30
0.0
 11
515.7217424312228
 21
-256.9463860208871
 31
0.0
  0
LINE
  5
204
330
70
100
AcDbEntity
  8
0
  6
Continuous
100
AcDbLine
 10
508.7147424312226
 20
-264.1933860208871
 30
0.0
 11
380.7177424312227
 21
-264.2123860208871
 31
0.0
  0
LINE
  5
205
330
70
100
AcDbEntity
  8
0
  6
Continuous
100
AcDbLine
 10
515.7217424312228
 20
-256.9463860208871
 30
0.0
 11
515.4327424312227
 21
-259.1703860208871
 31
0.0
  0
LINE
  5
206
330
70
100
AcDbEntity
  8
0
  6
Continuous
100
AcDbLine
 10
510.9207424312227
 20
-263.8273860208871
 30
0.0
 11
508.7147424312226
 21
-264.1933860208871
 31
0.0
  0
LINE
  5
207
330
70
100
AcDbEntity
  8
0
  6
Continuous
100
AcDbLine
 10
515.4327424312227
 20
-259.1703860208871
 30
0.0
 11
514.4597424312227
 21
-261.187386020887
 31
0.0
  0
LINE
  5
208
330
70
100
AcDbEntity
  8
0
  6
Continuous
100
AcDbLine
 10
512.9027424312226
 20
-262.7943860208871
 30
0.0
 11
510.9207424312227
 21
-263.8273860208871
 31
0.0
  0
LINE
  5
209
330
70
100
AcDbEntity
  8
0
  6
Continuous
100
AcDbLine
 10
514.4597424312227
 20
-261.187386020887
 30
0.0
 11
512.9027424312226
 21
-262.7943860208871
 31
0.0
  0
LINE
  5
20A
330
70
100
AcDbEntity
  8
0
  6
Continuous
100
AcDbLine
 10
530.7177424312227
 20
-185.6613860208871
 30
0.0
 11
530.7177424312227
 21
-170.8373860208871
 31
0.0
  0
LINE
  5
20B
330
70
100
AcDbEntity
  8
0
  6
Continuous
100
AcDbLine
 10
531.2247424312228
 20
-269.0483860208871
 30
0.0
 11
531.2247424312228
 21
-268.3503860208871
 31
0.0
  0
LINE
  5
20C
330
70
100
AcDbEntity
  8
0
  6
Continuous
100
AcDbLine
 10
522.1747424312227
 20
-169.702386020887
 30
0.0
 11
521.4897424312226
 21
-169.702386020887
 31
0.0
  0
LINE
  5
20D
330
70
100
AcDbEntity
  8
0
  6
Continuous
100
AcDbLine
 10
521.4897424312226
 20
-169.702386020887
 30
0.0
 11
240.4187424312226
 21
-169.702386020887
 31
0.0
  0
LINE
  5
20E
330
70
100
AcDbEntity
  8
0
  6
Continuous
100
AcDbLine
 10
240.4187424312226
 20
-169.702386020887
 30
0.0
 11
239.2707424312226
 21
-169.702386020887
 31
0.0
  0
LINE
  5
20F
330
70
100
AcDbEntity
  8
0
  6
Continuous
100
AcDbLine
 10
526.2377424312226
 20
-169.702386020887
 30
0.0
 11
522.1747424312227
 21
-169.702386020887
 31
0.0
  0
LINE
  5
210
330
70
100
AcDbEntity
  8
0
  6
Continuous
100
AcDbLine
 10
530.3007424312227
 20
-169.702386020887
 30
0.0
 11
526.2377424312226
 21
-169.702386020887
 31
0.0
  0
LINE
  5
211
330
70
100
AcDbEntity
  8
0
  6
Continuous
100
AcDbLine
 10
530.4617424312227
 20
-273.1253860208871
 30
0.0
 11
531.2247424312228
 21
-269.0483860208871
 31
0.0
  0
LINE
  5
212
330
70
100
AcDbEntity
  8
0
  6
Continuous
100
AcDbLine
 10
531.2247424312228
 20
-169.702386020887
 30
0.0
 11
530.3007424312227
 21
-169.702386020887
 31
0.0
  0
LINE
  5
213
330
70
100
AcDbEntity
  8
0
  6
Continuous
100
AcDbLine
 10
239.2707424312226
 20
-169.702386020887
 30
0.0
 11
235.2077424312227
 21
-169.702386020887
 31
0.0
  0
LINE
  5
214
330
70
100
AcDbEntity
  8
0
  6
Continuous
100
AcDbLine
 10
531.2247424312228
 20
-268.3503860208871
 30
0.0
 11
531.2247424312228
 21
-170.1843860208871
 31
0.0
  0
LINE
  5
215
330
70
100
AcDbEntity
  8
0
  6
Continuous
100
AcDbLine
 10
230.2477424312227
 20
-169.7303860208871
 30
0.0
 11
230.6297424312226
 21
-170.1323860208871
 31
0.0
  0
LINE
  5
216
330
70
100
AcDbEntity
  8
0
  6
Continuous
100
AcDbLine
 10
241.3787424312227
 20
-279.7033860208871
 30
0.0
 11
520.5267424312227
 21
-279.7033860208871
 31
0.0
  0
LINE
  5
217
330
70
100
AcDbEntity
  8
0
  6
Continuous
100
AcDbLine
 10
240.2387424312227
 20
-279.7033860208871
 30
0.0
 11
241.3787424312227
 21
-279.7033860208871
 31
0.0
  0
LINE
  5
218
330
70
100
AcDbEntity
  8
0
  6
Continuous
100
AcDbLine
 10
240.8817424312227
 20
-170.2083860208871
 30
0.0
 11
521.0207424312227
 21
-170.2083860208871
 31
0.0
  0
LINE
  5
219
330
70
100
AcDbEntity
  8
0
  6
Continuous
100
AcDbLine
 10
241.8397424312226
 20
-279.2083860208871
 30
0.0
 11
520.0587424312227
 21
-279.2083860208871
 31
0.0
  0
LINE
  5
21A
330
70
100
AcDbEntity
  8
0
  6
Continuous
100
AcDbLine
 10
520.7357424312227
 20
-279.2083860208871
 30
0.0
 11
520.0587424312227
 21
-279.2083860208871
 31
0.0
  0
LINE
  5
21B
330
70
100
AcDbEntity
  8
0
  6
Continuous
100
AcDbLine
 10
230.6297424312226
 20
-170.1323860208871
 30
0.0
 11
230.7017424312226
 21
-170.2083860208871
 31
0.0
  0
LINE
  5
21C
330
70
100
AcDbEntity
  8
0
  6
Continuous
100
AcDbLine
 10
530.8107424312228
 20
-170.1323860208871
 30
0.0
 11
531.1977424312227
 21
-169.7303860208871
 31
0.0
  0
LINE
  5
21D
330
70
100
AcDbEntity
  8
0
  6
Continuous
100
AcDbLine
 10
528.2897424312227
 20
-276.5823860208871
 30
0.0
 11
530.4617424312227
 21
-273.1253860208871
 31
0.0
  0
LINE
  5
21E
330
70
100
AcDbEntity
  8
0
  6
Continuous
100
AcDbLine
 10
525.0397424312227
 20
-278.8923860208871
 30
0.0
 11
528.2897424312227
 21
-276.5823860208871
 31
0.0
  0
LINE
  5
21F
330
70
100
AcDbEntity
  8
0
  6
Continuous
100
AcDbLine
 10
233.1557424312226
 20
-276.5823860208871
 30
0.0
 11
236.4057424312226
 21
-278.8923860208871
 31
0.0
  0
LINE
  5
220
330
70
100
AcDbEntity
  8
0
  6
Continuous
100
AcDbLine
 10
236.4057424312226
 20
-278.8923860208871
 30
0.0
 11
240.2387424312227
 21
-279.7033860208871
 31
0.0
  0
LINE
  5
221
330
70
100
AcDbEntity
  8
0
  6
Continuous
100
AcDbLine
 10
230.2207424312226
 20
-170.1843860208871
 30
0.0
 11
230.2207424312226
 21
-268.3503860208871
 31
0.0
  0
LINE
  5
222
330
70
100
AcDbEntity
  8
0
  6
Continuous
100
AcDbLine
 10
520.5267424312227
 20
-279.7033860208871
 30
0.0
 11
521.2067424312228
 21
-279.7033860208871
 31
0.0
  0
LINE
  5
223
330
70
100
AcDbEntity
  8
0
  6
Continuous
100
AcDbLine
 10
230.2207424312226
 20
-269.0483860208871
 30
0.0
 11
230.9837424312227
 21
-273.1253860208871
 31
0.0
  0
LINE
  5
224
330
70
100
AcDbEntity
  8
0
  6
Continuous
100
AcDbLine
 10
521.2067424312228
 20
-279.7033860208871
 30
0.0
 11
525.0397424312227
 21
-278.8923860208871
 31
0.0
  0
LINE
  5
225
330
70
100
AcDbEntity
  8
0
  6
Continuous
100
AcDbLine
 10
239.7377424312227
 20
-170.2083860208871
 30
0.0
 11
240.8817424312227
 21
-170.2083860208871
 31
0.0
  0
LINE
  5
226
330
70
100
AcDbEntity
  8
0
  6
Continuous
100
AcDbLine
 10
521.7017424312226
 20
-170.2083860208871
 30
0.0
 11
525.7587424312227
 21
-170.2083860208871
 31
0.0
  0
LINE
  5
227
330
70
100
AcDbEntity
  8
0
  6
Continuous
100
AcDbLine
 10
525.7587424312227
 20
-170.2083860208871
 30
0.0
 11
529.8147424312228
 21
-170.2083860208871
 31
0.0
  0
LINE
  5
228
330
70
100
AcDbEntity
  8
0
  6
Continuous
100
AcDbLine
 10
230.9837424312227
 20
-273.1253860208871
 30
0.0
 11
233.1557424312226
 21
-276.5823860208871
 31
0.0
  0
LINE
  5
229
330
70
100
AcDbEntity
  8
0
  6
Continuous
100
AcDbLine
 10
530.7377424312227
 20
-170.6323860208871
 30
0.0
 11
530.7377424312227
 21
-170.2083860208871
 31
0.0
  0
LINE
  5
22A
330
70
100
AcDbEntity
  8
0
  6
Continuous
100
AcDbLine
 10
527.8077424312227
 20
-276.2793860208871
 30
0.0
 11
529.9757424312226
 21
-273.0343860208871
 31
0.0
  0
LINE
  5
22B
330
70
100
AcDbEntity
  8
0
  6
Continuous
100
AcDbLine
 10
524.5637424312227
 20
-278.4463860208871
 30
0.0
 11
527.8077424312227
 21
-276.2793860208871
 31
0.0
  0
LINE
  5
22C
330
70
100
AcDbEntity
  8
0
  6
Continuous
100
AcDbLine
 10
520.7357424312227
 20
-279.2083860208871
 30
0.0
 11
524.5637424312227
 21
-278.4463860208871
 31
0.0
  0
LINE
  5
22D
330
70
100
AcDbEntity
  8
0
  6
Continuous
100
AcDbLine
 10
230.2207424312226
 20
-169.702386020887
 30
0.0
 11
230.2207424312226
 21
-170.1843860208871
 31
0.0
  0
LINE
  5
22E
330
70
100
AcDbEntity
  8
0
  6
Continuous
100
AcDbLine
 10
530.7377424312227
 20
-269.2083860208871
 30
0.0
 11
530.7377424312227
 21
-268.507386020887
 31
0.0
  0
LINE
  5
22F
330
70
100
AcDbEntity
  8
0
  6
Continuous
100
AcDbLine
 10
230.7017424312226
 20
-170.6323860208871
 30
0.0
 11
230.7017424312226
 21
-268.507386020887
 31
0.0
  0
LINE
  5
230
330
70
100
AcDbEntity
  8
0
  6
Continuous
100
AcDbLine
 10
240.7037424312227
 20
-279.2083860208871
 30
0.0
 11
241.8397424312226
 21
-279.2083860208871
 31
0.0
  0
LINE
  5
231
330
70
100
AcDbEntity
  8
0
  6
Continuous
100
AcDbLine
 10
235.6807424312227
 20
-170.2083860208871
 30
0.0
 11
231.6247424312226
 21
-170.2083860208871
 31
0.0
  0
LINE
  5
232
330
70
100
AcDbEntity
  8
0
  6
Continuous
100
AcDbLine
 10
235.2077424312227
 20
-169.702386020887
 30
0.0
 11
231.1447424312226
 21
-169.702386020887
 31
0.0
  0
LINE
  5
233
330
70
100
AcDbEntity
  8
0
  6
Continuous
100
AcDbLine
 10
530.7377424312227
 20
-269.2083860208871
 30
0.0
 11
529.9757424312226
 21
-273.0343860208871
 31
0.0
  0
LINE
  5
234
330
70
100
AcDbEntity
  8
0
  6
Continuous
100
AcDbLine
 10
521.7017424312226
 20
-170.2083860208871
 30
0.0
 11
521.0207424312227
 21
-170.2083860208871
 31
0.0
  0
LINE
  5
235
330
70
100
AcDbEntity
  8
0
  6
Continuous
100
AcDbLine
 10
531.2247424312228
 20
-170.1843860208871
 30
0.0
 11
531.2247424312228
 21
-169.702386020887
 31
0.0
  0
LINE
  5
236
330
70
100
AcDbEntity
  8
0
  6
Continuous
100
AcDbLine
 10
231.1447424312226
 20
-169.702386020887
 30
0.0
 11
230.2207424312226
 21
-169.702386020887
 31
0.0
  0
LINE
  5
237
330
70
100
AcDbEntity
  8
0
  6
Continuous
100
AcDbLine
 10
230.2207424312226
 20
-268.3503860208871
 30
0.0
 11
230.2207424312226
 21
-269.0483860208871
 31
0.0
  0
LINE
  5
238
330
70
100
AcDbEntity
  8
0
  6
Continuous
100
AcDbLine
 10
530.7377424312227
 20
-170.6323860208871
 30
0.0
 11
530.7377424312227
 21
-268.507386020887
 31
0.0
  0
LINE
  5
239
330
70
100
AcDbEntity
  8
0
  6
Continuous
100
AcDbLine
 10
530.7377424312227
 20
-170.2083860208871
 30
0.0
 11
530.8107424312228
 21
-170.1323860208871
 31
0.0
  0
LINE
  5
23A
330
70
100
AcDbEntity
  8
0
  6
Continuous
100
AcDbLine
 10
529.8147424312228
 20
-170.2083860208871
 30
0.0
 11
530.7377424312227
 21
-170.2083860208871
 31
0.0
  0
LINE
  5
23B
330
70
100
AcDbEntity
  8
0
  6
Continuous
100
AcDbLine
 10
235.6807424312227
 20
-170.2083860208871
 30
0.0
 11
239.7377424312227
 21
-170.2083860208871
 31
0.0
  0
LINE
  5
23C
330
70
100
AcDbEntity
  8
0
  6
Continuous
100
AcDbLine
 10
231.6247424312226
 20
-170.2083860208871
 30
0.0
 11
230.7017424312226
 21
-170.2083860208871
 31
0.0
  0
LINE
  5
23D
330
70
100
AcDbEntity
  8
0
  6
Continuous
100
AcDbLine
 10
230.7017424312226
 20
-170.2083860208871
 30
0.0
 11
230.7017424312226
 21
-170.6323860208871
 31
0.0
  0
LINE
  5
23E
330
70
100
AcDbEntity
  8
0
  6
Continuous
100
AcDbLine
 10
230.7017424312226
 20
-269.2083860208871
 30
0.0
 11
231.4637424312226
 21
-273.0343860208871
 31
0.0
  0
LINE
  5
23F
330
70
100
AcDbEntity
  8
0
  6
Continuous
100
AcDbLine
 10
231.4637424312226
 20
-273.0343860208871
 30
0.0
 11
233.6317424312226
 21
-276.2793860208871
 31
0.0
  0
LINE
  5
240
330
70
100
AcDbEntity
  8
0
  6
Continuous
100
AcDbLine
 10
233.6317424312226
 20
-276.2793860208871
 30
0.0
 11
236.8757424312227
 21
-278.4463860208871
 31
0.0
  0
LINE
  5
241
330
70
100
AcDbEntity
  8
0
  6
Continuous
100
AcDbLine
 10
236.8757424312227
 20
-278.4463860208871
 30
0.0
 11
240.7037424312227
 21
-279.2083860208871
 31
0.0
  0
LINE
  5
242
330
70
100
AcDbEntity
  8
0
  6
Continuous
100
AcDbLine
 10
230.7017424312226
 20
-268.507386020887
 30
0.0
 11
230.7017424312226
 21
-269.2083860208871
 31
0.0
  0
LINE
  5
4EA
330
70
100
AcDbEntity
  8
0
  6
Continuous
100
AcDbLine
 10
230.7177424312226
 20
-374.3872991353633
 30
0.0
 11
231.4797424312226
 21
-374.3872991353633
 31
0.0
  0
LINE
  5
4EB
330
70
100
AcDbEntity
  8
0
  6
Continuous
100
AcDbLine
 10
230.7357424312226
 20
-373.3262991353632
 30
0.0
 11
230.7177424312226
 21
-374.3872991353633
 31
0.0
  0
LINE
  5
4EC
330
70
100
AcDbEntity
  8
0
  6
Continuous
100
AcDbLine
 10
231.4797424312226
 20
-374.3872991353633
 30
0.0
 11
233.6477424312227
 21
-374.3872991353633
 31
0.0
  0
LINE
  5
4ED
330
70
100
AcDbEntity
  8
0
  6
Continuous
100
AcDbLine
 10
233.6477424312227
 20
-374.3872991353633
 30
0.0
 11
236.8917424312226
 21
-374.3872991353633
 31
0.0
  0
LINE
  5
4EE
330
70
100
AcDbEntity
  8
0
  6
Continuous
100
AcDbLine
 10
236.8917424312226
 20
-374.3872991353633
 30
0.0
 11
240.7197424312226
 21
-374.3872991353633
 31
0.0
  0
LINE
  5
4EF
330
70
100
AcDbEntity
  8
0
  6
Continuous
100
AcDbLine
 10
240.7197424312226
 20
-374.3872991353633
 30
0.0
 11
252.7207424312226
 21
-374.3872991353633
 31
0.0
  0
LINE
  5
4F0
330
70
100
AcDbEntity
  8
0
  6
Continuous
100
AcDbLine
 10
231.0947424312226
 20
-351.2722991353633
 30
0.0
 11
230.7357424312226
 21
-373.3262991353632
 31
0.0
  0
LINE
  5
4F1
330
70
100
AcDbEntity
  8
0
  6
Continuous
100
AcDbLine
 10
231.1087424312226
 20
-350.3872991353633
 30
0.0
 11
231.0947424312226
 21
-351.2722991353633
 31
0.0
  0
LINE
  5
4F2
330
70
100
AcDbEntity
  8
0
  6
Continuous
100
AcDbLine
 10
231.8697424312226
 20
-350.3872991353633
 30
0.0
 11
231.1087424312226
 21
-350.3872991353633
 31
0.0
  0
LINE
  5
4F3
330
70
100
AcDbEntity
  8
0
  6
Continuous
100
AcDbLine
 10
234.0377424312226
 20
-350.3872991353633
 30
0.0
 11
231.8697424312226
 21
-350.3872991353633
 31
0.0
  0
LINE
  5
4F4
330
70
100
AcDbEntity
  8
0
  6
Continuous
100
AcDbLine
 10
237.2827424312226
 20
-350.3872991353633
 30
0.0
 11
234.0377424312226
 21
-350.3872991353633
 31
0.0
  0
LINE
  5
4F5
330
70
100
AcDbEntity
  8
0
  6
Continuous
100
AcDbLine
 10
241.1097424312226
 20
-350.3872991353633
 30
0.0
 11
237.2827424312226
 21
-350.3872991353633
 31
0.0
  0
LINE
  5
4F6
330
70
100
AcDbEntity
  8
0
  6
Continuous
100
AcDbLine
 10
252.7207424312226
 20
-350.3872991353633
 30
0.0
 11
241.1097424312226
 21
-350.3872991353633
 31
0.0
  0
LINE
  5
4F7
330
70
100
AcDbEntity
  8
0
  6
Continuous
100
AcDbLine
 10
252.7207424312226
 20
-374.3872991353633
 30
0.0
 11
380.7177424312227
 21
-374.3872991353633
 31
0.0
  0
LINE
  5
4F8
330
70
100
AcDbEntity
  8
0
  6
Continuous
100
AcDbLine
 10
380.7177424312227
 20
-350.3872991353633
 30
0.0
 11
252.7207424312226
 21
-350.3872991353633
 31
0.0
  0
LINE
  5
4F9
330
70
100
AcDbEntity
  8
0
  6
Continuous
100
AcDbLine
 10
233.0947424312226
 20
-374.6712991353633
 30
0.0
 11
234.2907424312226
 21
-374.3872991353633
 31
0.0
  0
LINE
  5
4FA
330
70
100
AcDbEntity
  8
0
  6
Continuous
100
AcDbLine
 10
380.7177424312227
 20
-350.3872991353633
 30
0.0
 11
252.7847424312227
 21
-350.3872991353633
 31
0.0
  0
LINE
  5
4FB
330
70
100
AcDbEntity
  8
0
  6
Continuous
100
AcDbLine
 10
230.7177424312226
 20
-374.3872991353633
 30
0.0
 11
231.0077424312226
 21
-374.4642991353633
 31
0.0
  0
LINE
  5
4FC
330
70
100
AcDbEntity
  8
0
  6
Continuous
100
AcDbLine
 10
231.0077424312226
 20
-374.4642991353633
 30
0.0
 11
232.8917424312226
 21
-374.6412991353633
 31
0.0
  0
LINE
  5
4FD
330
70
100
AcDbEntity
  8
0
  6
Continuous
100
AcDbLine
 10
233.0947424312226
 20
-374.6712991353633
 30
0.0
 11
232.3477424312227
 21
-374.3872991353633
 31
0.0
  0
LINE
  5
4FE
330
70
100
AcDbEntity
  8
0
  6
Continuous
100
AcDbLine
 10
232.8917424312226
 20
-374.6412991353633
 30
0.0
 11
233.0947424312226
 21
-374.6712991353633
 31
0.0
  0
LINE
  5
4FF
330
70
100
AcDbEntity
  8
0
  6
Continuous
100
AcDbLine
 10
530.7177424312227
 20
-374.3872991353633
 30
0.0
 11
530.6997424312226
 21
-373.3262991353632
 31
0.0
  0
LINE
  5
500
330
70
100
AcDbEntity
  8
0
  6
Continuous
100
AcDbLine
 10
529.9557424312227
 20
-374.3872991353633
 30
0.0
 11
530.7177424312227
 21
-374.3872991353633
 31
0.0
  0
LINE
  5
501
330
70
100
AcDbEntity
  8
0
  6
Continuous
100
AcDbLine
 10
527.7877424312227
 20
-374.3872991353633
 30
0.0
 11
529.9557424312227
 21
-374.3872991353633
 31
0.0
  0
LINE
  5
502
330
70
100
AcDbEntity
  8
0
  6
Continuous
100
AcDbLine
 10
524.5437424312227
 20
-374.3872991353633
 30
0.0
 11
527.7877424312227
 21
-374.3872991353633
 31
0.0
  0
LINE
  5
503
330
70
100
AcDbEntity
  8
0
  6
Continuous
100
AcDbLine
 10
520.7157424312227
 20
-374.3872991353633
 30
0.0
 11
524.5437424312227
 21
-374.3872991353633
 31
0.0
  0
LINE
  5
504
330
70
100
AcDbEntity
  8
0
  6
Continuous
100
AcDbLine
 10
508.7147424312226
 20
-374.3872991353633
 30
0.0
 11
520.7157424312227
 21
-374.3872991353633
 31
0.0
  0
LINE
  5
505
330
70
100
AcDbEntity
  8
0
  6
Continuous
100
AcDbLine
 10
530.6997424312226
 20
-373.3262991353632
 30
0.0
 11
530.3407424312228
 21
-351.2722991353633
 31
0.0
  0
LINE
  5
506
330
70
100
AcDbEntity
  8
0
  6
Continuous
100
AcDbLine
 10
530.3267424312227
 20
-350.3872991353633
 30
0.0
 11
529.5657424312228
 21
-350.3872991353633
 31
0.0
  0
LINE
  5
507
330
70
100
AcDbEntity
  8
0
  6
Continuous
100
AcDbLine
 10
530.3407424312228
 20
-351.2722991353633
 30
0.0
 11
530.3267424312227
 21
-350.3872991353633
 31
0.0
  0
LINE
  5
508
330
70
100
AcDbEntity
  8
0
  6
Continuous
100
AcDbLine
 10
529.5657424312228
 20
-350.3872991353633
 30
0.0
 11
527.3977424312228
 21
-350.3872991353633
 31
0.0
  0
LINE
  5
509
330
70
100
AcDbEntity
  8
0
  6
Continuous
100
AcDbLine
 10
527.3977424312228
 20
-350.3872991353633
 30
0.0
 11
524.1527424312228
 21
-350.3872991353633
 31
0.0
  0
LINE
  5
50A
330
70
100
AcDbEntity
  8
0
  6
Continuous
100
AcDbLine
 10
524.1527424312228
 20
-350.3872991353633
 30
0.0
 11
520.3257424312227
 21
-350.3872991353633
 31
0.0
  0
LINE
  5
50B
330
70
100
AcDbEntity
  8
0
  6
Continuous
100
AcDbLine
 10
520.3257424312227
 20
-350.3872991353633
 30
0.0
 11
508.7147424312226
 21
-350.3872991353633
 31
0.0
  0
LINE
  5
50C
330
70
100
AcDbEntity
  8
0
  6
Continuous
100
AcDbLine
 10
380.7177424312227
 20
-374.3872991353633
 30
0.0
 11
508.7147424312226
 21
-374.3872991353633
 31
0.0
  0
LINE
  5
50D
330
70
100
AcDbEntity
  8
0
  6
Continuous
100
AcDbLine
 10
508.7147424312226
 20
-350.3872991353633
 30
0.0
 11
380.7177424312227
 21
-350.3872991353633
 31
0.0
  0
LINE
  5
50E
330
70
100
AcDbEntity
  8
0
  6
Continuous
100
AcDbLine
 10
527.1447424312227
 20
-374.3872991353633
 30
0.0
 11
528.3407424312228
 21
-374.6712991353633
 31
0.0
  0
LINE
  5
50F
330
70
100
AcDbEntity
  8
0
  6
Continuous
100
AcDbLine
 10
508.6507424312226
 20
-350.3872991353633
 30
0.0
 11
380.7177424312227
 21
-350.3872991353633
 31
0.0
  0
LINE
  5
510
330
70
100
AcDbEntity
  8
0
  6
Continuous
100
AcDbLine
 10
530.4277424312227
 20
-374.4642991353633
 30
0.0
 11
530.7177424312227
 21
-374.3872991353633
 31
0.0
  0
LINE
  5
511
330
70
100
AcDbEntity
  8
0
  6
Continuous
100
AcDbLine
 10
528.5437424312227
 20
-374.6412991353633
 30
0.0
 11
530.4277424312227
 21
-374.4642991353633
 31
0.0
  0
LINE
  5
512
330
70
100
AcDbEntity
  8
0
  6
Continuous
100
AcDbLine
 10
528.3407424312228
 20
-374.6712991353633
 30
0.0
 11
528.5437424312227
 21
-374.6412991353633
 31
0.0
  0
LINE
  5
513
330
70
100
AcDbEntity
  8
0
  6
Continuous
100
AcDbLine
 10
529.0877424312226
 20
-374.3872991353633
 30
0.0
 11
528.3407424312228
 21
-374.6712991353633
 31
0.0
  0
LINE
  5
514
330
70
100
AcDbEntity
  8
0
  6
Continuous
100
AcDbLine
 10
230.2207424312226
 20
-347.5442991353633
 30
0.0
 11
230.2547424312226
 21
-347.6842991353633
 31
0.0
  0
LINE
  5
515
330
70
100
AcDbEntity
  8
0
  6
Continuous
100
AcDbLine
 10
530.8107424312228
 20
-349.2512991353633
 30
0.0
 11
531.1907424312228
 21
-347.6842991353633
 31
0.0
  0
LINE
  5
516
330
70
100
AcDbEntity
  8
0
  6
Continuous
100
AcDbLine
 10
531.2247424312228
 20
-347.5442991353633
 30
0.0
 11
531.1977424312227
 21
-347.4332991353632
 31
0.0
  0
LINE
  5
517
330
70
100
AcDbEntity
  8
0
  6
Continuous
100
AcDbLine
 10
230.6297424312226
 20
-345.8432991353633
 30
0.0
 11
230.2477424312227
 21
-347.4332991353632
 31
0.0
  0
LINE
  5
518
330
70
100
AcDbEntity
  8
0
  6
Continuous
100
AcDbLine
 10
530.7377424312227
 20
-349.5522991353633
 30
0.0
 11
530.8107424312228
 21
-349.2512991353633
 31
0.0
  0
LINE
  5
519
330
70
100
AcDbEntity
  8
0
  6
Continuous
100
AcDbLine
 10
530.8107424312228
 20
-345.8432991353633
 30
0.0
 11
530.7377424312227
 21
-345.5432991353633
 31
0.0
  0
LINE
  5
51A
330
70
100
AcDbEntity
  8
0
  6
Continuous
100
AcDbLine
 10
520.0587424312227
 20
-345.5432991353633
 30
0.0
 11
241.8397424312226
 21
-345.5432991353633
 31
0.0
  0
LINE
  5
51B
330
70
100
AcDbEntity
  8
0
  6
Continuous
100
AcDbLine
 10
241.8397424312226
 20
-349.5522991353633
 30
0.0
 11
520.0587424312227
 21
-349.5522991353633
 31
0.0
  0
LINE
  5
51C
330
70
100
AcDbEntity
  8
0
  6
Continuous
100
AcDbLine
 10
241.8397424312226
 20
-345.5432991353633
 30
0.0
 11
240.7037424312227
 21
-345.5432991353633
 31
0.0
  0
LINE
  5
51D
330
70
100
AcDbEntity
  8
0
  6
Continuous
100
AcDbLine
 10
240.7037424312227
 20
-349.5522991353633
 30
0.0
 11
241.8397424312226
 21
-349.5522991353633
 31
0.0
  0
LINE
  5
51E
330
70
100
AcDbEntity
  8
0
  6
Continuous
100
AcDbLine
 10
230.2547424312226
 20
-347.6842991353633
 30
0.0
 11
230.6297424312226
 21
-349.2512991353633
 31
0.0
  0
LINE
  5
51F
330
70
100
AcDbEntity
  8
0
  6
Continuous
100
AcDbLine
 10
529.9757424312226
 20
-349.5522991353633
 30
0.0
 11
530.7377424312227
 21
-349.5522991353633
 31
0.0
  0
LINE
  5
520
330
70
100
AcDbEntity
  8
0
  6
Continuous
100
AcDbLine
 10
529.9757424312226
 20
-345.5432991353633
 30
0.0
 11
527.8077424312227
 21
-345.5432991353633
 31
0.0
  0
LINE
  5
521
330
70
100
AcDbEntity
  8
0
  6
Continuous
100
AcDbLine
 10
527.8077424312227
 20
-345.5432991353633
 30
0.0
 11
524.5637424312227
 21
-345.5432991353633
 31
0.0
  0
LINE
  5
522
330
70
100
AcDbEntity
  8
0
  6
Continuous
100
AcDbLine
 10
236.8757424312227
 20
-345.5432991353633
 30
0.0
 11
233.6317424312226
 21
-345.5432991353633
 31
0.0
  0
LINE
  5
523
330
70
100
AcDbEntity
  8
0
  6
Continuous
100
AcDbLine
 10
240.7037424312227
 20
-345.5432991353633
 30
0.0
 11
236.8757424312227
 21
-345.5432991353633
 31
0.0
  0
LINE
  5
524
330
70
100
AcDbEntity
  8
0
  6
Continuous
100
AcDbLine
 10
520.7357424312227
 20
-345.5432991353633
 30
0.0
 11
520.0587424312227
 21
-345.5432991353633
 31
0.0
  0
LINE
  5
525
330
70
100
AcDbEntity
  8
0
  6
Continuous
100
AcDbLine
 10
231.4637424312226
 20
-345.5432991353633
 30
0.0
 11
230.7017424312226
 21
-345.5432991353633
 31
0.0
  0
LINE
  5
526
330
70
100
AcDbEntity
  8
0
  6
Continuous
100
AcDbLine
 10
524.5637424312227
 20
-345.5432991353633
 30
0.0
 11
520.7357424312227
 21
-345.5432991353633
 31
0.0
  0
LINE
  5
527
330
70
100
AcDbEntity
  8
0
  6
Continuous
100
AcDbLine
 10
233.6317424312226
 20
-345.5432991353633
 30
0.0
 11
231.4637424312226
 21
-345.5432991353633
 31
0.0
  0
LINE
  5
528
330
70
100
AcDbEntity
  8
0
  6
Continuous
100
AcDbLine
 10
531.1977424312227
 20
-347.4332991353632
 30
0.0
 11
530.8107424312228
 21
-345.8432991353633
 31
0.0
  0
LINE
  5
529
330
70
100
AcDbEntity
  8
0
  6
Continuous
100
AcDbLine
 10
230.7017424312226
 20
-345.5432991353633
 30
0.0
 11
230.6297424312226
 21
-345.8432991353633
 31
0.0
  0
LINE
  5
52A
330
70
100
AcDbEntity
  8
0
  6
Continuous
100
AcDbLine
 10
527.8077424312227
 20
-349.5522991353633
 30
0.0
 11
529.9757424312226
 21
-349.5522991353633
 31
0.0
  0
LINE
  5
52B
330
70
100
AcDbEntity
  8
0
  6
Continuous
100
AcDbLine
 10
230.2477424312227
 20
-347.4332991353632
 30
0.0
 11
230.2207424312226
 21
-347.5442991353633
 31
0.0
  0
LINE
  5
52C
330
70
100
AcDbEntity
  8
0
  6
Continuous
100
AcDbLine
 10
230.7017424312226
 20
-349.5522991353633
 30
0.0
 11
231.4637424312226
 21
-349.5522991353633
 31
0.0
  0
LINE
  5
52D
330
70
100
AcDbEntity
  8
0
  6
Continuous
100
AcDbLine
 10
520.7357424312227
 20
-349.5522991353633
 30
0.0
 11
524.5637424312227
 21
-349.5522991353633
 31
0.0
  0
LINE
  5
52E
330
70
100
AcDbEntity
  8
0
  6
Continuous
100
AcDbLine
 10
230.6297424312226
 20
-349.2512991353633
 30
0.0
 11
230.7017424312226
 21
-349.5522991353633
 31
0.0
  0
LINE
  5
52F
330
70
100
AcDbEntity
  8
0
  6
Continuous
100
AcDbLine
 10
531.1907424312228
 20
-347.6842991353633
 30
0.0
 11
531.2247424312228
 21
-347.5442991353633
 31
0.0
  0
LINE
  5
530
330
70
100
AcDbEntity
  8
0
  6
Continuous
100
AcDbLine
 10
530.7377424312227
 20
-345.5432991353633
 30
0.0
 11
529.9757424312226
 21
-345.5432991353633
 31
0.0
  0
LINE
  5
531
330
70
100
AcDbEntity
  8
0
  6
Continuous
100
AcDbLine
 10
233.6317424312226
 20
-349.5522991353633
 30
0.0
 11
236.8757424312227
 21
-349.5522991353633
 31
0.0
  0
LINE
  5
532
330
70
100
AcDbEntity
  8
0
  6
Continuous
100
AcDbLine
 10
236.8757424312227
 20
-349.5522991353633
 30
0.0
 11
240.7037424312227
 21
-349.5522991353633
 31
0.0
  0
LINE
  5
533
330
70
100
AcDbEntity
  8
0
  6
Continuous
100
AcDbLine
 10
524.5637424312227
 20
-349.5522991353633
 30
0.0
 11
527.8077424312227
 21
-349.5522991353633
 31
0.0
  0
LINE
  5
534
330
70
100
AcDbEntity
  8
0
  6
Continuous
100
AcDbLine
 10
520.0587424312227
 20
-349.5522991353633
 30
0.0
 11
520.7357424312227
 21
-349.5522991353633
 31
0.0
  0
LINE
  5
535
330
70
100
AcDbEntity
  8
0
  6
Continuous
100
AcDbLine
 10
231.4637424312226
 20
-349.5522991353633
 30
0.0
 11
233.6317424312226
 21
-349.5522991353633
 31
0.0
  0
ENDSEC
  0
SECTION
  2
OBJECTS
  0
DICTIONARY
  5
C
330
0
100
AcDbDictionary
281
     1
  3
ACAD_2007HEADERVARS_RT
350
6A0
  3
ACAD_CIP_PREVIOUS_PRODUCT_INFO
350
C3
  3
ACAD_COLOR
350
62
  3
ACAD_DETAILVIEWSTYLE
350
6A
  3
ACAD_GROUP
350
D
  3
ACAD_LAYOUT
350
61
  3
ACAD_MATERIAL
350
10
  3
ACAD_MLEADERSTYLE
350
65
  3
ACAD_MLINESTYLE
350
5E
  3
ACAD_PLOTSETTINGS
350
60
  3
ACAD_PLOTSTYLENAME
350
E
  3
ACAD_SCALELIST
350
42
  3
ACAD_SECTIONVIEWSTYLE
350
67
  3
ACAD_TABLESTYLE
350
63
  3
ACAD_VISUALSTYLE
350
29
  3
ACDB_RECOMPOSE_DATA
350
69E
  3
AcDbVariableDictionary
350
546
  3
AcmDictionary
350
EF
  3
AMG
350
C4
  3
AMGSNAPSETTINGS
350
124
  3
DWGPROPS
350
69F
  0
DICTIONARY
  5
542
330
54
100
AcDbDictionary
280
     1
281
     1
  3
ADSK_XREC_LAYER_RECONCILED
360
543
  0
DICTIONARY
  5
544
330
536
100
AcDbDictionary
280
     1
281
     1
  3
ADSK_XREC_LAYER_RECONCILED
360
545
  0
DICTIONARY
  5
539
330
70
100
AcDbDictionary
280
     1
281
     1
  3
ACAD_SORTENTS
360
53A
  0
DICTIONARY
  5
6A0
102
{ACAD_REACTORS
330
C
102
}
330
C
100
AcDbDictionary
281
     1
  3
DIMARCSYM
350
6A1
  3
DIMLTEX1
350
6A3
  3
DIMLTEX2
350
6A4
  3
DIMLTYPE
350
6A2
  0
XRECORD
  5
C3
102
{ACAD_REACTORS
330
C
102
}
330
C
100
AcDbXrecord
280
     1
300
AMECH_PP
300
2013
300
PDSS_F_S
  0
DICTIONARY
  5
62
102
{ACAD_REACTORS
330
C
102
}
330
C
100
AcDbDictionary
281
     1
  0
DICTIONARY
  5
6A
102
{ACAD_REACTORS
330
C
102
}
330
C
100
AcDbDictionary
281
     1
  3
Imperial24
350
6B
  0
DICTIONARY
  5
D
102
{ACAD_REACTORS
330
C
102
}
330
C
100
AcDbDictionary
281
     1
  0
DICTIONARY
  5
61
102
{ACAD_REACTORS
330
C
102
}
330
C
100
AcDbDictionary
281
     1
  3
Model
350
73
  3
レイアウト1
350
6F
  0
DICTIONARY
  5
10
102
{ACAD_REACTORS
330
C
102
}
330
C
100
AcDbDictionary
281
     1
  3
ByBlock
350
19
  3
ByLayer
350
11
  3
Global
350
21
  0
DICTIONARY
  5
65
102
{ACAD_REACTORS
330
C
102
}
330
C
100
AcDbDictionary
281
     1
  3
Standard
350
66
  0
DICTIONARY
  5
5E
102
{ACAD_REACTORS
330
C
102
}
330
C
100
AcDbDictionary
281
     1
  3
Standard
350
5F
  0
DICTIONARY
  5
60
102
{ACAD_REACTORS
330
C
102
}
330
C
100
AcDbDictionary
281
     1
  0
ACDBDICTIONARYWDFLT
  5
E
102
{ACAD_REACTORS
330
C
102
}
330
C
100
AcDbDictionary
281
     1
  3
Normal
350
F
100
AcDbDictionaryWithDefault
340
F
  0
DICTIONARY
  5
42
102
{ACAD_REACTORS
330
C
102
}
330
C
100
AcDbDictionary
281
     1
  3
A0
350
43
  3
A1
350
44
  3
A2
350
45
  3
A3
350
46
  3
A4
350
47
  3
A5
350
48
  3
A6
350
49
  3
A7
350
4A
  3
A8
350
4B
  3
A9
350
4C
  3
B0
350
4D
  3
B1
350
4E
  3
B2
350
4F
  3
B3
350
50
  3
B4
350
51
  3
B5
350
52
  3
B6
350
53
  0
DICTIONARY
  5
67
102
{ACAD_REACTORS
330
C
102
}
330
C
100
AcDbDictionary
281
     1
  3
Imperial24
350
69
  0
DICTIONARY
  5
63
102
{ACAD_REACTORS
330
C
102
}
330
C
100
AcDbDictionary
281
     1
  3
Standard
350
64
  0
DICTIONARY
  5
29
102
{ACAD_REACTORS
330
C
102
}
330
C
100
AcDbDictionary
281
     1
  3
2dWireframe
350
2F
  3
Basic
350
2E
  3
Brighten
350
35
  3
ColorChange
350
39
  3
Conceptual
350
32
  3
Dim
350
34
  3
EdgeColorOff
350
41
  3
Facepattern
350
38
  3
Flat
350
2A
  3
FlatWithEdges
350
2B
  3
Gouraud
350
2C
  3
GouraudWithEdges
350
2D
  3
Hidden
350
31
  3
JitterOff
350
3F
  3
Linepattern
350
37
  3
OverhangOff
350
40
  3
Realistic
350
33
  3
Shaded
350
3E
  3
Shaded with edges
350
3D
  3
Shades of Gray
350
3A
  3
Sketchy
350
3B
  3
Thicken
350
36
  3
Wireframe
350
30
  3
X-Ray
350
3C
  0
XRECORD
  5
69E
102
{ACAD_REACTORS
330
C
102
}
330
C
100
AcDbXrecord
280
     1
 90
        1
330
64
  0
DICTIONARY
  5
546
102
{ACAD_REACTORS
330
C
102
}
330
C
100
AcDbDictionary
281
     1
  3
CANNOSCALE
350
54B
  3
CMLEADERSTYLE
350
548
  3
CTABLESTYLE
350
547
  3
CVIEWDETAILSTYLE
350
549
  3
CVIEWSECTIONSTYLE
350
54A
  3
DIMASSOC
350
54E
  3
INDEXCTL
350
54D
  3
SORTENTS
350
54C
  3
XCLIPFRAME
350
69C
  0
DICTIONARY
  5
EF
102
{ACAD_REACTORS
330
C
102
}
330
C
100
AcDbDictionary
281
     1
  3
AcmStdDictionary
350
F6
  0
DICTIONARY
  5
C4
102
{ACAD_REACTORS
330
C
102
}
330
C
100
AcDbDictionary
281
     1
  0
DICTIONARY
  5
124
102
{ACAD_REACTORS
330
C
102
}
330
C
100
AcDbDictionary
281
     1
  0
XRECORD
  5
69F
102
{ACAD_REACTORS
330
C
102
}
330
C
100
AcDbXrecord
280
     1
  1
DWGPROPS COOKIE
  2

  3

  4

  6

  7

  8
tomitais
  9

300
=
301
=
302
=
303
=
304
=
305
=
306
=
307
=
308
=
309
=
 40
0.0023103240740741
 41
2457211.392504375
 42
2457225.407907361
  1

 90
        0
  0
XRECORD
  5
543
102
{ACAD_REACTORS
330
542
102
}
330
542
100
AcDbXrecord
280
     1
290
     1
  0
XRECORD
  5
545
102
{ACAD_REACTORS
330
544
102
}
330
544
100
AcDbXrecord
280
     1
290
     1
  0
SORTENTSTABLE
  5
53A
102
{ACAD_REACTORS
330
539
102
}
330
539
100
AcDbSortentsTable
330
70
331
517
  5
51F
331
513
  5
51B
331
B5
  5
BD
331
B1
  5
B9
331
50F
  5
517
331
50B
  5
513
331
AD
  5
B5
331
21D
  5
225
331
1DC
  5
1E4
331
A9
  5
B1
331
219
  5
221
331
1D8
  5
1E0
331
215
  5
21D
331
4FC
  5
504
331
211
  5
219
331
4F8
  5
500
331
240
  5
4EF
331
507
  5
50F
331
1D4
  5
1DC
331
503
  5
50B
331
A5
  5
AD
331
A1
  5
A9
331
1D0
  5
1D8
331
9D
  5
A5
331
1CC
  5
1D4
331
20D
  5
215
331
4F4
  5
4FC
331
4F0
  5
4F8
331
99
  5
A1
331
209
  5
211
331
1C8
  5
1D0
331
4EC
  5
4F4
331
205
  5
20D
331
201
  5
209
331
1C4
  5
1CC
331
95
  5
9D
331
91
  5
99
331
1C0
  5
1C8
331
52E
  5
538
331
52A
  5
532
331
8D
  5
95
331
1BC
  5
1C4
331
1FD
  5
205
331
23C
  5
4EB
331
89
  5
91
331
1F9
  5
201
331
238
  5
240
331
234
  5
23C
331
1F5
  5
1FD
331
1F1
  5
1F9
331
230
  5
238
331
535
  5
541
331
531
  5
53D
331
526
  5
52E
331
522
  5
52A
331
85
  5
8D
331
81
  5
89
331
C0
  5
1C1
331
51E
  5
526
331
51A
  5
522
331
7D
  5
85
331
BC
  5
1BD
331
1ED
  5
1F5
331
22C
  5
234
331
79
  5
81
331
B8
  5
C0
331
1E9
  5
1F1
331
228
  5
230
331
224
  5
22C
331
1E5
  5
1ED
331
1E1
  5
1E9
331
220
  5
228
331
516
  5
51E
331
B4
  5
BC
331
512
  5
51A
331
B0
  5
B8
331
1DF
  5
1E7
331
50E
  5
516
331
50A
  5
512
331
AC
  5
B4
331
21C
  5
224
331
1DB
  5
1E3
331
4FF
  5
507
331
A8
  5
B0
331
218
  5
220
331
214
  5
21C
331
4FB
  5
503
331
210
  5
218
331
1D7
  5
1DF
331
506
  5
50E
331
1D3
  5
1DB
331
502
  5
50A
331
A4
  5
AC
331
A0
  5
A8
331
1CF
  5
1D7
331
4F7
  5
4FF
331
9C
  5
A4
331
1CB
  5
1D3
331
20C
  5
214
331
4F3
  5
4FB
331
4EF
  5
4F7
331
98
  5
A0
331
208
  5
210
331
204
  5
20C
331
4EB
  5
4F3
331
200
  5
208
331
1C7
  5
1CF
331
1C3
  5
1CB
331
94
  5
9C
331
52D
  5
535
331
90
  5
98
331
1BF
  5
1C7
331
23F
  5
4EE
331
529
  5
531
331
8C
  5
94
331
1BB
  5
1C3
331
1FC
  5
204
331
23B
  5
4EA
331
237
  5
23F
331
88
  5
90
331
1F8
  5
200
331
233
  5
23B
331
1F4
  5
1FC
331
1F0
  5
1F8
331
534
  5
540
331
530
  5
53C
331
525
  5
52D
331
521
  5
529
331
84
  5
8C
331
80
  5
88
331
BF
  5
1C0
331
22F
  5
237
331
51D
  5
525
331
519
  5
521
331
7C
  5
84
331
BB
  5
1BC
331
1EC
  5
1F4
331
22B
  5
233
331
78
  5
80
331
1E8
  5
1F0
331
227
  5
22F
331
223
  5
22B
331
1E4
  5
1EC
331
1E0
  5
1E8
331
515
  5
51D
331
B7
  5
BF
331
B3
  5
BB
331
511
  5
519
331
AF
  5
B7
331
21F
  5
227
331
1DE
  5
1E6
331
50D
  5
515
331
509
  5
511
331
AB
  5
B3
331
21B
  5
223
331
1DA
  5
1E2
331
4FE
  5
506
331
217
  5
21F
331
213
  5
21B
331
4FA
  5
502
331
242
  5
4F1
331
1D6
  5
1DE
331
505
  5
50D
331
A7
  5
AF
331
A3
  5
AB
331
1D2
  5
1DA
331
501
  5
509
331
9F
  5
A7
331
1CE
  5
1D6
331
20F
  5
217
331
4F6
  5
4FE
331
9B
  5
A3
331
1CA
  5
1D2
331
20B
  5
213
331
4F2
  5
4FA
331
4EE
  5
4F6
331
207
  5
20F
331
203
  5
20B
331
4EA
  5
4F2
331
77
  5
7F
331
1C6
  5
1CE
331
97
  5
9F
331
1C2
  5
1CA
331
93
  5
9B
331
52C
  5
534
331
8F
  5
97
331
1BE
  5
1C6
331
1FF
  5
207
331
23E
  5
4ED
331
528
  5
530
331
8B
  5
93
331
1FB
  5
203
331
23A
  5
242
331
236
  5
23E
331
1F7
  5
1FF
331
1F3
  5
1FB
331
232
  5
23A
331
533
  5
53F
331
524
  5
52C
331
87
  5
8F
331
520
  5
528
331
83
  5
8B
331
51C
  5
524
331
7F
  5
87
331
BE
  5
1BF
331
1EF
  5
1F7
331
22E
  5
236
331
518
  5
520
331
7B
  5
83
331
BA
  5
1BB
331
1EB
  5
1F3
331
22A
  5
232
331
226
  5
22E
331
1E7
  5
1EF
331
222
  5
22A
331
1E3
  5
1EB
331
514
  5
51C
331
B6
  5
BE
331
B2
  5
BA
331
510
  5
518
331
AE
  5
B6
331
21E
  5
226
331
1DD
  5
1E5
331
50C
  5
514
331
508
  5
510
331
AA
  5
B2
331
21A
  5
222
331
1D9
  5
1E1
331
4FD
  5
505
331
216
  5
21E
331
212
  5
21A
331
4F9
  5
501
331
241
  5
4F0
331
1D5
  5
1DD
331
504
  5
50C
331
A6
  5
AE
331
A2
  5
AA
331
1D1
  5
1D9
331
500
  5
508
331
9E
  5
A6
331
1CD
  5
1D5
331
20E
  5
216
331
4F5
  5
4FD
331
9A
  5
A2
331
1C9
  5
1D1
331
20A
  5
212
331
4F1
  5
4F9
331
4ED
  5
4F5
331
206
  5
20E
331
202
  5
20A
331
76
  5
7E
331
1C5
  5
1CD
331
96
  5
9E
331
92
  5
9A
331
1C1
  5
1C9
331
52F
  5
53B
331
52B
  5
533
331
8E
  5
96
331
1BD
  5
1C5
331
1FE
  5
206
331
23D
  5
4EC
331
8A
  5
92
331
1FA
  5
202
331
239
  5
241
331
235
  5
23D
331
1F6
  5
1FE
331
1F2
  5
1FA
331
231
  5
239
331
532
  5
53E
331
527
  5
52F
331
523
  5
52B
331
86
  5
8E
331
C1
  5
1C2
331
51F
  5
527
331
82
  5
8A
331
51B
  5
523
331
7E
  5
86
331
BD
  5
1BE
331
1EE
  5
1F6
331
22D
  5
235
331
7A
  5
82
331
B9
  5
C1
331
1EA
  5
1F2
331
229
  5
231
331
225
  5
22D
331
1E6
  5
1EE
331
1E2
  5
1EA
331
221
  5
229
  0
XRECORD
  5
6A1
102
{ACAD_REACTORS
330
6A0
102
}
330
6A0
100
AcDbXrecord
280
     1
 70
     1
  0
XRECORD
  5
6A3
102
{ACAD_REACTORS
330
6A0
102
}
330
6A0
100
AcDbXrecord
280
     1
340
5A
  0
XRECORD
  5
6A4
102
{ACAD_REACTORS
330
6A0
102
}
330
6A0
100
AcDbXrecord
280
     1
340
5A
  0
XRECORD
  5
6A2
102
{ACAD_REACTORS
330
6A0
102
}
330
6A0
100
AcDbXrecord
280
     1
340
5A
  0
ACDBDETAILVIEWSTYLE
  5
6B
102
{ACAD_REACTORS
330
6A
102
}
330
6A
100
AcDbModelDocViewStyle
 70
     0
  3
Imperial24
290
     0
100
AcDbDetailViewStyle
 70
     0
 71
     0
 90
        3
 71
     1
340
55
 40
0.24
340
0
 40
0.24
300

 40
0.36
280
     3
 71
     2
340
5C
 90
       25
 71
     3
340
55
 40
0.24
 90
        1
 40
0.75
 90
        1
300
%<\AcVar ViewType \f "%tc1">% %<\AcVar ViewDetailId>%\PSCALE %<\AcVar ViewScale \f "%sn">%
 71
     4
340
5C
 90
       25
340
5C
 90
       25
280
     0
  0
LAYOUT
  5
73
102
{ACAD_XDICTIONARY
360
6D8
102
}
102
{ACAD_REACTORS
330
61
102
}
330
61
100
AcDbPlotSettings
  1

  2
Adobe PDF
  4

  6

 40
0.0
 41
0.0
 42
0.0
 43
0.0
 44
0.0
 45
0.0
 46
0.0
 47
0.0
 48
0.0
 49
0.0
140
0.0
141
0.0
142
1.0
143
1.0
 70
  1712
 72
     0
 73
     0
 74
     0
  7

 75
     0
147
1.0
148
0.0
149
0.0
100
AcDbLayout
  1
Model
 70
     1
 71
     0
 10
0.0
 20
0.0
 11
12.0
 21
9.0
 12
0.0
 22
0.0
 32
0.0
 14
0.0
 24
0.0
 34
0.0
 15
0.0
 25
0.0
 35
0.0
146
0.0
 13
0.0
 23
0.0
 33
0.0
 16
1.0
 26
0.0
 36
0.0
 17
0.0
 27
1.0
 37
0.0
 76
     0
330
70
331
75
  0
LAYOUT
  5
6F
102
{ACAD_XDICTIONARY
360
6D6
102
}
102
{ACAD_REACTORS
330
61
102
}
330
61
100
AcDbPlotSettings
  1

  2
Adobe PDF
  4

  6

 40
0.0
 41
0.0
 42
0.0
 43
0.0
 44
0.0
 45
0.0
 46
0.0
 47
0.0
 48
0.0
 49
0.0
140
0.0
141
0.0
142
1.0
143
1.0
 70
   688
 72
     0
 73
     0
 74
     5
  7

 75
    16
147
1.0
148
0.0
149
0.0
100
AcDbLayout
  1
レイアウト1
 70
     1
 71
     1
 10
0.0
 20
0.0
 11
12.0
 21
9.0
 12
0.0
 22
0.0
 32
0.0
 14
1.000000000000000E+20
 24
1.000000000000000E+20
 34
1.000000000000000E+20
 15
-1.000000000000000E+20
 25
-1.000000000000000E+20
 35
-1.000000000000000E+20
146
0.0
 13
0.0
 23
0.0
 33
0.0
 16
1.0
 26
0.0
 36
0.0
 17
0.0
 27
1.0
 37
0.0
 76
     0
330
6C
  0
MATERIAL
  5
19
102
{ACAD_XDICTIONARY
360
1A
102
}
102
{ACAD_REACTORS
330
10
102
}
330
10
100
AcDbMaterial
  1
ByBlock
 72
     0
 43
0.0208333333333333
 43
0.0
 43
0.0
 43
0.0
 43
0.0
 43
0.0208333333333333
 43
0.0
 43
0.0
 43
0.0
 43
0.0
 43
1.0
 43
0.0
 43
0.0
 43
0.0
 43
0.0
 43
1.0
 77
     0
 47
0.0208333333333333
 47
0.0
 47
0.0
 47
0.0
 47
0.0
 47
0.0208333333333333
 47
0.0
 47
0.0
 47
0.0
 47
0.0
 47
1.0
 47
0.0
 47
0.0
 47
0.0
 47
0.0
 47
1.0
171
     0
 49
0.0208333333333333
 49
0.0
 49
0.0
 49
0.0
 49
0.0
 49
0.0208333333333333
 49
0.0
 49
0.0
 49
0.0
 49
0.0
 49
1.0
 49
0.0
 49
0.0
 49
0.0
 49
0.0
 49
1.0
175
     0
142
0.0208333333333333
142
0.0
142
0.0
142
0.0
142
0.0
142
0.0208333333333333
142
0.0
142
0.0
142
0.0
142
0.0
142
1.0
142
0.0
142
0.0
142
0.0
142
0.0
142
1.0
179
     0
144
0.0208333333333333
144
0.0
144
0.0
144
0.0
144
0.0
144
0.0208333333333333
144
0.0
144
0.0
144
0.0
144
0.0
144
1.0
144
0.0
144
0.0
144
0.0
144
0.0
144
1.0
147
0.0208333333333333
147
0.0
147
0.0
147
0.0
147
0.0
147
0.0208333333333333
147
0.0
147
0.0
147
0.0
147
0.0
147
1.0
147
0.0
147
0.0
147
0.0
147
0.0
147
1.0
  0
MATERIAL
  5
11
102
{ACAD_XDICTIONARY
360
12
102
}
102
{ACAD_REACTORS
330
10
102
}
330
10
100
AcDbMaterial
  1
ByLayer
 72
     0
 43
0.0208333333333333
 43
0.0
 43
0.0
 43
0.0
 43
0.0
 43
0.0208333333333333
 43
0.0
 43
0.0
 43
0.0
 43
0.0
 43
1.0
 43
0.0
 43
0.0
 43
0.0
 43
0.0
 43
1.0
 77
     0
 47
0.0208333333333333
 47
0.0
 47
0.0
 47
0.0
 47
0.0
 47
0.0208333333333333
 47
0.0
 47
0.0
 47
0.0
 47
0.0
 47
1.0
 47
0.0
 47
0.0
 47
0.0
 47
0.0
 47
1.0
171
     0
 49
0.0208333333333333
 49
0.0
 49
0.0
 49
0.0
 49
0.0
 49
0.0208333333333333
 49
0.0
 49
0.0
 49
0.0
 49
0.0
 49
1.0
 49
0.0
 49
0.0
 49
0.0
 49
0.0
 49
1.0
175
     0
142
0.0208333333333333
142
0.0
142
0.0
142
0.0
142
0.0
142
0.0208333333333333
142
0.0
142
0.0
142
0.0
142
0.0
142
1.0
142
0.0
142
0.0
142
0.0
142
0.0
142
1.0
179
     0
144
0.0208333333333333
144
0.0
144
0.0
144
0.0
144
0.0
144
0.0208333333333333
144
0.0
144
0.0
144
0.0
144
0.0
144
1.0
144
0.0
144
0.0
144
0.0
144
0.0
144
1.0
147
0.0208333333333333
147
0.0
147
0.0
147
0.0
147
0.0
147
0.0208333333333333
147
0.0
147
0.0
147
0.0
147
0.0
147
1.0
147
0.0
147
0.0
147
0.0
147
0.0
147
1.0
  0
MATERIAL
  5
21
102
{ACAD_XDICTIONARY
360
22
102
}
102
{ACAD_REACTORS
330
10
102
}
330
10
100
AcDbMaterial
  1
Global
 72
     0
 43
0.0208333333333333
 43
0.0
 43
0.0
 43
0.0
 43
0.0
 43
0.0208333333333333
 43
0.0
 43
0.0
 43
0.0
 43
0.0
 43
1.0
 43
0.0
 43
0.0
 43
0.0
 43
0.0
 43
1.0
 77
     0
 47
0.0208333333333333
 47
0.0
 47
0.0
 47
0.0
 47
0.0
 47
0.0208333333333333
 47
0.0
 47
0.0
 47
0.0
 47
0.0
 47
1.0
 47
0.0
 47
0.0
 47
0.0
 47
0.0
 47
1.0
171
     0
 49
0.0208333333333333
 49
0.0
 49
0.0
 49
0.0
 49
0.0
 49
0.0208333333333333
 49
0.0
 49
0.0
 49
0.0
 49
0.0
 49
1.0
 49
0.0
 49
0.0
 49
0.0
 49
0.0
 49
1.0
175
     0
142
0.0208333333333333
142
0.0
142
0.0
142
0.0
142
0.0
142
0.0208333333333333
142
0.0
142
0.0
142
0.0
142
0.0
142
1.0
142
0.0
142
0.0
142
0.0
142
0.0
142
1.0
179
     0
144
0.0208333333333333
144
0.0
144
0.0
144
0.0
144
0.0
144
0.0208333333333333
144
0.0
144
0.0
144
0.0
144
0.0
144
1.0
144
0.0
144
0.0
144
0.0
144
0.0
144
1.0
147
0.0208333333333333
147
0.0
147
0.0
147
0.0
147
0.0
147
0.0208333333333333
147
0.0
147
0.0
147
0.0
147
0.0
147
1.0
147
0.0
147
0.0
147
0.0
147
0.0
147
1.0
  0
MLEADERSTYLE
  5
66
102
{ACAD_REACTORS
330
65
102
}
330
65
100
AcDbMLeaderStyle
170
     2
171
     1
172
     0
 90
        2
 40
0.0
 41
0.0
173
     1
 91
-1056964608
340
5A
 92
       -2
290
     1
 42
0.09
291
     1
 43
0.36
  3
Standard
 44
0.18
300

342
55
174
     1
178
     6
175
     1
176
     0
 93
-1056964608
 45
0.18
292
     0
297
     0
 46
0.18
 94
-1056964608
 47
1.0
 49
1.0
140
1.0
293
     1
141
0.0
294
     1
177
     0
142
1.0
295
     0
296
     0
143
0.125
1001
ACAD_MLEADERVER
1070
     2
  0
MLINESTYLE
  5
5F
102
{ACAD_REACTORS
330
5E
102
}
330
5E
100
AcDbMlineStyle
  2
STANDARD
 70
     0
  3

 62
   256
 51
90.0
 52
90.0
 71
     2
 49
0.5
 62
   256
  6
BYLAYER
 49
-0.5
 62
   256
  6
BYLAYER
  0
ACDBPLACEHOLDER
  5
F
102
{ACAD_REACTORS
330
E
102
}
330
E
  0
SCALE
  5
43
102
{ACAD_REACTORS
330
42
102
}
330
42
100
AcDbScale
 70
     0
300
1:1
140
1.0
141
1.0
290
     1
  0
SCALE
  5
44
102
{ACAD_REACTORS
330
42
102
}
330
42
100
AcDbScale
 70
     0
300
1/128" = 1'-0"
140
0.0078125
141
12.0
290
     0
  0
SCALE
  5
45
102
{ACAD_REACTORS
330
42
102
}
330
42
100
AcDbScale
 70
     0
300
1/64" = 1'-0"
140
0.015625
141
12.0
290
     0
  0
SCALE
  5
46
102
{ACAD_REACTORS
330
42
102
}
330
42
100
AcDbScale
 70
     0
300
1/32" = 1'-0"
140
0.03125
141
12.0
290
     0
  0
SCALE
  5
47
102
{ACAD_REACTORS
330
42
102
}
330
42
100
AcDbScale
 70
     0
300
1/16" = 1'-0"
140
0.0625
141
12.0
290
     0
  0
SCALE
  5
48
102
{ACAD_REACTORS
330
42
102
}
330
42
100
AcDbScale
 70
     0
300
3/32" = 1'-0"
140
0.09375
141
12.0
290
     0
  0
SCALE
  5
49
102
{ACAD_REACTORS
330
42
102
}
330
42
100
AcDbScale
 70
     0
300
1/8" = 1'-0"
140
0.125
141
12.0
290
     0
  0
SCALE
  5
4A
102
{ACAD_REACTORS
330
42
102
}
330
42
100
AcDbScale
 70
     0
300
3/16" = 1'-0"
140
0.1875
141
12.0
290
     0
  0
SCALE
  5
4B
102
{ACAD_REACTORS
330
42
102
}
330
42
100
AcDbScale
 70
     0
300
1/4" = 1'-0"
140
0.25
141
12.0
290
     0
  0
SCALE
  5
4C
102
{ACAD_REACTORS
330
42
102
}
330
42
100
AcDbScale
 70
     0
300
3/8" = 1'-0"
140
0.375
141
12.0
290
     0
  0
SCALE
  5
4D
102
{ACAD_REACTORS
330
42
102
}
330
42
100
AcDbScale
 70
     0
300
1/2" = 1'-0"
140
0.5
141
12.0
290
     0
  0
SCALE
  5
4E
102
{ACAD_REACTORS
330
42
102
}
330
42
100
AcDbScale
 70
     0
300
3/4" = 1'-0"
140
0.75
141
12.0
290
     0
  0
SCALE
  5
4F
102
{ACAD_REACTORS
330
42
102
}
330
42
100
AcDbScale
 70
     0
300
1" = 1'-0"
140
1.0
141
12.0
290
     0
  0
SCALE
  5
50
102
{ACAD_REACTORS
330
42
102
}
330
42
100
AcDbScale
 70
     0
300
1-1/2" = 1'-0"
140
1.5
141
12.0
290
     0
  0
SCALE
  5
51
102
{ACAD_REACTORS
330
42
102
}
330
42
100
AcDbScale
 70
     0
300
3" = 1'-0"
140
3.0
141
12.0
290
     0
  0
SCALE
  5
52
102
{ACAD_REACTORS
330
42
102
}
330
42
100
AcDbScale
 70
     0
300
6" = 1'-0"
140
6.0
141
12.0
290
     0
  0
SCALE
  5
53
102
{ACAD_REACTORS
330
42
102
}
330
42
100
AcDbScale
 70
     0
300
1'-0" = 1'-0"
140
12.0
141
12.0
290
     0
  0
ACDBSECTIONVIEWSTYLE
  5
69
102
{ACAD_REACTORS
330
67
102
}
330
67
100
AcDbModelDocViewStyle
 70
     0
  3
Imperial24
290
     0
100
AcDbSectionViewStyle
 70
     0
 71
     0
 90
       78
 71
     1
340
55
 40
0.24
340
0
340
0
 40
0.24
300
I, O, Q, S, X, Z
 40
0.48
 90
        3
 40
0.18
 90
        1
 71
     2
340
68
 90
       25
340
5C
 90
       50
 40
0.24
 40
0.0
 40
0.24
 71
     3
340
55
 40
0.24
 90
        1
 40
0.75
 90
        1
300
%<\AcVar ViewType \f "%tc1">% %<\AcVar ViewSectionStartId>%-%<\AcVar ViewSectionEndId>%\PSCALE %<\AcVar ViewScale \f "%sn">%
 71
     4
300
ANSI31
 40
1.0
 90
        0
290
     0
290
     0
 90
        6
 40
0.0
 40
1.570796326794896
 40
0.2617993877991494
 40
1.308996938995747
 40
-0.2617993877991494
 40
1.832595714594045
  0
TABLESTYLE
  5
64
102
{ACAD_XDICTIONARY
360
550
102
}
102
{ACAD_REACTORS
330
63
102
}
330
63
100
AcDbTableStyle
  3
Standard
 70
     0
 71
     0
 40
0.06
 41
0.06
280
     0
281
     0
  7
Standard
140
0.18
170
     2
 62
     0
 63
     7
283
     0
274
    -2
284
     1
 64
     0
275
    -2
285
     1
 65
     0
276
    -2
286
     1
 66
     0
277
    -2
287
     1
 67
     0
278
    -2
288
     1
 68
     0
279
    -2
289
     1
 69
     0
  7
Standard
140
0.25
170
     5
 62
     0
 63
     7
283
     0
274
    -2
284
     1
 64
     0
275
    -2
285
     1
 65
     0
276
    -2
286
     1
 66
     0
277
    -2
287
     1
 67
     0
278
    -2
288
     1
 68
     0
279
    -2
289
     1
 69
     0
  7
Standard
140
0.18
170
     5
 62
     0
 63
     7
283
     0
274
    -2
284
     1
 64
     0
275
    -2
285
     1
 65
     0
276
    -2
286
     1
 66
     0
277
    -2
287
     1
 67
     0
278
    -2
288
     1
 68
     0
279
    -2
289
     1
 69
     0
  0
VISUALSTYLE
  5
2F
102
{ACAD_XDICTIONARY
360
6AF
102
}
102
{ACAD_REACTORS
330
29
102
}
330
29
100
AcDbVisualStyle
  2

 70
     4
 71
     0
 72
     2
 73
     0
 90
        0
 40
-0.6
 41
-30.0
 62
     5
 63
     7
 74
     1
 91
        4
 64
     7
 65
   257
 75
     1
175
     1
 42
1.0
 92
        0
 66
   257
 43
1.0
 76
     1
 77
     6
 78
     2
 67
     7
 79
     5
170
     0
171
     0
290
     0
174
     0
 93
        1
 44
0.0
173
     0
291
     0
 45
0.0
1001
ACAD
1000
AcDbSavedByObjectVersion
1070
     0
  0
VISUALSTYLE
  5
2E
102
{ACAD_XDICTIONARY
360
6AD
102
}
102
{ACAD_REACTORS
330
29
102
}
330
29
100
AcDbVisualStyle
  2

 70
     7
 71
     1
 72
     0
 73
     1
 90
        0
 40
-0.6
 41
-30.0
 62
     5
 63
     7
 74
     0
 91
        4
 64
     7
 65
   257
 75
     1
175
     1
 42
1.0
 92
        8
 66
     7
 43
1.0
 76
     1
 77
     6
 78
     2
 67
     7
 79
     5
170
     0
171
     0
290
     0
174
     0
 93
        1
 44
0.0
173
     0
291
     1
 45
0.0
1001
ACAD
1000
AcDbSavedByObjectVersion
1070
     0
  0
VISUALSTYLE
  5
35
102
{ACAD_XDICTIONARY
360
6BB
102
}
102
{ACAD_REACTORS
330
29
102
}
330
29
100
AcDbVisualStyle
  2

 70
    12
 71
     2
 72
     2
 73
     0
 90
        0
 40
-0.6
 41
-30.0
 62
     5
 63
     7
 74
     1
 91
        4
 64
     7
 65
   257
 75
     1
175
     1
 42
1.0
 92
        8
 66
     7
 43
1.0
 76
     1
 77
     6
 78
     2
 67
     7
 79
     5
170
     0
171
     0
290
     0
174
     0
 93
        1
 44
50.0
173
     0
291
     1
 45
0.0
1001
ACAD
1000
AcDbSavedByObjectVersion
1070
     0
  0
VISUALSTYLE
  5
39
102
{ACAD_XDICTIONARY
360
6C3
102
}
102
{ACAD_REACTORS
330
29
102
}
330
29
100
AcDbVisualStyle
  2

 70
    16
 71
     2
 72
     2
 73
     3
 90
        0
 40
-0.6
 41
-30.0
 62
     5
 63
     8
 74
     1
 91
        4
 64
     7
 65
   257
 75
     1
175
     1
 42
1.0
 92
        8
 66
     8
 43
1.0
 76
     1
 77
     6
 78
     2
 67
     7
 79
     5
170
     0
171
     0
290
     0
174
     0
 93
        1
 44
0.0
173
     0
291
     1
 45
0.0
1001
ACAD
1000
AcDbSavedByObjectVersion
1070
     0
  0
VISUALSTYLE
  5
32
102
{ACAD_XDICTIONARY
360
6B5
102
}
102
{ACAD_REACTORS
330
29
102
}
330
29
100
AcDbVisualStyle
  2

 70
     9
 71
     3
 72
     2
 73
     0
 90
        0
 40
-0.6
 41
-30.0
 62
     5
 63
     7
 74
     2
 91
        2
 64
     7
 65
   257
 75
     1
175
     1
 42
179.0
 92
        8
 66
     7
 43
1.0
 76
     1
 77
     6
 78
     2
 67
     7
 79
     3
170
     0
171
     0
290
     0
174
     0
 93
        1
 44
0.0
173
     0
291
     0
 45
0.0
1001
ACAD
1000
AcDbSavedByObjectVersion
1070
     0
  0
VISUALSTYLE
  5
34
102
{ACAD_XDICTIONARY
360
6B9
102
}
102
{ACAD_REACTORS
330
29
102
}
330
29
100
AcDbVisualStyle
  2

 70
    11
 71
     2
 72
     2
 73
     0
 90
        0
 40
-0.6
 41
-30.0
 62
     5
 63
     7
 74
     1
 91
        4
 64
     7
 65
   257
 75
     1
175
     1
 42
1.0
 92
        8
 66
     7
 43
1.0
 76
     1
 77
     6
 78
     2
 67
     7
 79
     5
170
     0
171
     0
290
     0
174
     0
 93
        1
 44
-50.0
173
     0
291
     1
 45
0.0
1001
ACAD
1000
AcDbSavedByObjectVersion
1070
     0
  0
VISUALSTYLE
  5
41
102
{ACAD_XDICTIONARY
360
6D3
102
}
102
{ACAD_REACTORS
330
29
102
}
330
29
100
AcDbVisualStyle
  2

 70
    22
 71
     2
 72
     2
 73
     0
 90
        0
 40
-0.6
 41
-30.0
 62
     5
 63
     7
 74
     1
 91
        4
 64
     7
 65
   257
 75
     1
175
     1
 42
1.0
 92
        8
 66
     7
 43
1.0
 76
     1
 77
     6
 78
     2
 67
     7
 79
     5
170
     0
171
     0
290
     0
174
     0
 93
        1
 44
0.0
173
     0
291
     1
 45
0.0
1001
ACAD
1000
AcDbSavedByObjectVersion
1070
     0
  0
VISUALSTYLE
  5
38
102
{ACAD_XDICTIONARY
360
6C1
102
}
102
{ACAD_REACTORS
330
29
102
}
330
29
100
AcDbVisualStyle
  2

 70
    15
 71
     2
 72
     2
 73
     0
 90
        0
 40
-0.6
 41
-30.0
 62
     5
 63
     7
 74
     1
 91
        4
 64
     7
 65
   257
 75
     1
175
     1
 42
1.0
 92
        8
 66
     7
 43
1.0
 76
     1
 77
     6
 78
     2
 67
     7
 79
     5
170
     0
171
     0
290
     0
174
     0
 93
        1
 44
0.0
173
     0
291
     1
 45
0.0
1001
ACAD
1000
AcDbSavedByObjectVersion
1070
     0
  0
VISUALSTYLE
  5
2A
102
{ACAD_XDICTIONARY
360
6A5
102
}
102
{ACAD_REACTORS
330
29
102
}
330
29
100
AcDbVisualStyle
  2

 70
     0
 71
     2
 72
     1
 73
     1
 90
        2
 40
-0.6
 41
30.0
 62
     5
 63
     7
 74
     0
 91
        0
 64
     7
 65
   257
 75
     1
175
     1
 42
1.0
 92
        8
 66
     7
 43
1.0
 76
     1
 77
     6
 78
     2
 67
     7
 79
     5
170
     0
171
     0
290
     0
174
     0
 93
       13
 44
0.0
173
     0
291
     1
 45
0.0
1001
ACAD
1000
AcDbSavedByObjectVersion
1070
     0
  0
VISUALSTYLE
  5
2B
102
{ACAD_XDICTIONARY
360
6A7
102
}
102
{ACAD_REACTORS
330
29
102
}
330
29
100
AcDbVisualStyle
  2

 70
     1
 71
     2
 72
     1
 73
     1
 90
        2
 40
-0.6
 41
30.0
 62
     5
 63
     7
 74
     1
 91
        0
 64
     7
 65
   257
 75
     1
175
     1
 42
1.0
 92
        0
 66
   257
 43
1.0
 76
     1
 77
     6
 78
     2
 67
     7
 79
     5
170
     0
171
     0
290
     0
174
     0
 93
       13
 44
0.0
173
     0
291
     1
 45
0.0
1001
ACAD
1000
AcDbSavedByObjectVersion
1070
     0
  0
VISUALSTYLE
  5
2C
102
{ACAD_XDICTIONARY
360
6A9
102
}
102
{ACAD_REACTORS
330
29
102
}
330
29
100
AcDbVisualStyle
  2

 70
     2
 71
     2
 72
     2
 73
     1
 90
        2
 40
-0.6
 41
30.0
 62
     5
 63
     7
 74
     0
 91
        0
 64
     7
 65
   257
 75
     1
175
     1
 42
1.0
 92
        0
 66
     7
 43
1.0
 76
     1
 77
     6
 78
     2
 67
     7
 79
     5
170
     0
171
     0
290
     0
174
     0
 93
       13
 44
0.0
173
     0
291
     1
 45
0.0
1001
ACAD
1000
AcDbSavedByObjectVersion
1070
     0
  0
VISUALSTYLE
  5
2D
102
{ACAD_XDICTIONARY
360
6AB
102
}
102
{ACAD_REACTORS
330
29
102
}
330
29
100
AcDbVisualStyle
  2

 70
     3
 71
     2
 72
     2
 73
     1
 90
        2
 40
-0.6
 41
30.0
 62
     5
 63
     7
 74
     1
 91
        0
 64
     7
 65
   257
 75
     1
175
     1
 42
1.0
 92
        0
 66
   257
 43
1.0
 76
     1
 77
     6
 78
     2
 67
     7
 79
     5
170
     0
171
     0
290
     0
174
     0
 93
       13
 44
0.0
173
     0
291
     1
 45
0.0
1001
ACAD
1000
AcDbSavedByObjectVersion
1070
     0
  0
VISUALSTYLE
  5
31
102
{ACAD_XDICTIONARY
360
6B3
102
}
102
{ACAD_REACTORS
330
29
102
}
330
29
100
AcDbVisualStyle
  2

 70
     6
 71
     1
 72
     2
 73
     2
 90
        0
 40
-0.6
 41
-30.0
 62
     5
 63
     7
 74
     2
 91
        2
 64
     7
 65
   257
 75
     2
175
     1
 42
40.0
 92
        0
 66
   257
 43
1.0
 76
     1
 77
     6
 78
     2
 67
     7
 79
     3
170
     0
171
     0
290
     0
174
     0
 93
        1
 44
0.0
173
     0
291
     0
 45
0.0
1001
ACAD
1000
AcDbSavedByObjectVersion
1070
     0
  0
VISUALSTYLE
  5
3F
102
{ACAD_XDICTIONARY
360
6CF
102
}
102
{ACAD_REACTORS
330
29
102
}
330
29
100
AcDbVisualStyle
  2

 70
    20
 71
     2
 72
     2
 73
     0
 90
        0
 40
-0.6
 41
-30.0
 62
     5
 63
     7
 74
     1
 91
        4
 64
     7
 65
   257
 75
     1
175
     1
 42
1.0
 92
       10
 66
     7
 43
1.0
 76
     1
 77
     6
 78
     2
 67
     7
 79
     5
170
     0
171
     0
290
     0
174
     0
 93
        1
 44
0.0
173
     0
291
     1
 45
0.0
1001
ACAD
1000
AcDbSavedByObjectVersion
1070
     0
  0
VISUALSTYLE
  5
37
102
{ACAD_XDICTIONARY
360
6BF
102
}
102
{ACAD_REACTORS
330
29
102
}
330
29
100
AcDbVisualStyle
  2

 70
    14
 71
     2
 72
     2
 73
     0
 90
        0
 40
-0.6
 41
-30.0
 62
     5
 63
     7
 74
     1
 91
        4
 64
     7
 65
   257
 75
     7
175
     7
 42
1.0
 92
        8
 66
     7
 43
1.0
 76
     1
 77
     6
 78
     2
 67
     7
 79
     5
170
     0
171
     0
290
     0
174
     0
 93
        1
 44
0.0
173
     0
291
     1
 45
0.0
1001
ACAD
1000
AcDbSavedByObjectVersion
1070
     0
  0
VISUALSTYLE
  5
40
102
{ACAD_XDICTIONARY
360
6D1
102
}
102
{ACAD_REACTORS
330
29
102
}
330
29
100
AcDbVisualStyle
  2

 70
    21
 71
     2
 72
     2
 73
     0
 90
        0
 40
-0.6
 41
-30.0
 62
     5
 63
     7
 74
     1
 91
        4
 64
     7
 65
   257
 75
     1
175
     1
 42
1.0
 92
        9
 66
     7
 43
1.0
 76
     1
 77
     6
 78
     2
 67
     7
 79
     5
170
     0
171
     0
290
     0
174
     0
 93
        1
 44
0.0
173
     0
291
     1
 45
0.0
1001
ACAD
1000
AcDbSavedByObjectVersion
1070
     0
  0
VISUALSTYLE
  5
33
102
{ACAD_XDICTIONARY
360
6B7
102
}
102
{ACAD_REACTORS
330
29
102
}
330
29
100
AcDbVisualStyle
  2

 70
     8
 71
     2
 72
     3
 73
     0
 90
        2
 40
-0.6
 41
30.0
 62
     5
 63
     7
 74
     0
 91
        0
 64
     7
 65
   257
 75
     1
175
     1
 42
1.0
 92
        8
 66
   257
 43
1.0
 76
     1
 77
     6
 78
     2
 67
     7
 79
     3
170
     0
171
     0
290
     0
174
     0
 93
       13
 44
0.0
173
     0
291
     0
 45
0.0
1001
ACAD
1000
AcDbSavedByObjectVersion
1070
     0
  0
VISUALSTYLE
  5
3E
102
{ACAD_XDICTIONARY
360
6CD
102
}
102
{ACAD_REACTORS
330
29
102
}
330
29
100
AcDbVisualStyle
  2

 70
    27
 71
     2
 72
     2
 73
     1
 90
        2
 40
-0.6
 41
30.0
 62
     5
 63
     7
 74
     0
 91
        4
 64
     7
 65
   257
 75
     1
175
     1
 42
1.0
 92
        8
 66
   257
 43
1.0
 76
     1
 77
     6
 78
     2
 67
     8
 79
     3
170
     0
171
     0
290
     0
174
     0
 93
        5
 44
0.0
173
     0
291
     0
 45
0.0
1001
ACAD
1000
AcDbSavedByObjectVersion
1070
     0
  0
VISUALSTYLE
  5
3D
102
{ACAD_XDICTIONARY
360
6CB
102
}
102
{ACAD_REACTORS
330
29
102
}
330
29
100
AcDbVisualStyle
  2

 70
    26
 71
     2
 72
     2
 73
     1
 90
        2
 40
-0.6
 41
30.0
 62
     5
 63
     7
 74
     1
 91
       10
 64
     7
 65
   257
 75
     2
175
     1
 42
1.0
 92
        8
 66
   257
 43
1.0
 76
     1
 77
     6
 78
     2
 67
     7
 79
     3
170
     0
171
     0
290
     0
174
     0
 93
        5
 44
0.0
173
     0
291
     0
 45
0.0
1001
ACAD
1000
AcDbSavedByObjectVersion
1070
     0
  0
VISUALSTYLE
  5
3A
102
{ACAD_XDICTIONARY
360
6C5
102
}
102
{ACAD_REACTORS
330
29
102
}
330
29
100
AcDbVisualStyle
  2

 70
    23
 71
     2
 72
     2
 73
     3
 90
        0
 40
-0.6
 41
-30.0
 62
     5
 63
     7
 74
     2
 91
        2
 64
     7
 65
     7
 75
     1
175
     1
 42
40.0
 92
        8
 66
     7
 43
1.0
 76
     1
 77
     6
 78
     2
 67
     7
 79
     3
170
     0
171
     0
290
     0
174
     0
 93
        1
 44
0.0
173
     0
291
     0
 45
0.0
1001
ACAD
1000
AcDbSavedByObjectVersion
1070
     0
  0
VISUALSTYLE
  5
3B
102
{ACAD_XDICTIONARY
360
6C7
102
}
102
{ACAD_REACTORS
330
29
102
}
330
29
100
AcDbVisualStyle
  2

 70
    24
 71
     1
 72
     2
 73
     2
 90
        0
 40
-0.6
 41
-30.0
 62
     5
 63
     7
 74
     2
 91
        2
 64
     7
 65
     7
 75
     1
175
     1
 42
40.0
 92
       11
 66
     7
 43
1.0
 76
     1
 77
     6
 78
     2
 67
     7
 79
     6
170
     0
171
     0
290
     0
174
     0
 93
        1
 44
0.0
173
     0
291
     0
 45
0.0
1001
ACAD
1000
AcDbSavedByObjectVersion
1070
     0
  0
VISUALSTYLE
  5
36
102
{ACAD_XDICTIONARY
360
6BD
102
}
102
{ACAD_REACTORS
330
29
102
}
330
29
100
AcDbVisualStyle
  2

 70
    13
 71
     2
 72
     2
 73
     0
 90
        0
 40
-0.6
 41
-30.0
 62
     5
 63
     7
 74
     1
 91
        4
 64
     7
 65
   257
 75
     1
175
     1
 42
1.0
 92
       12
 66
     7
 43
1.0
 76
     1
 77
     6
 78
     2
 67
     7
 79
     5
170
     0
171
     0
290
     0
174
     0
 93
        1
 44
0.0
173
     0
291
     1
 45
0.0
1001
ACAD
1000
AcDbSavedByObjectVersion
1070
     0
  0
VISUALSTYLE
  5
30
102
{ACAD_XDICTIONARY
360
6B1
102
}
102
{ACAD_REACTORS
330
29
102
}
330
29
100
AcDbVisualStyle
  2

 70
     5
 71
     0
 72
     2
 73
     0
 90
        0
 40
-0.6
 41
-30.0
 62
     5
 63
     7
 74
     1
 91
        4
 64
     7
 65
   257
 75
     1
175
     1
 42
1.0
 92
        0
 66
   257
 43
1.0
 76
     1
 77
     6
 78
     2
 67
     7
 79
     3
170
     0
171
     0
290
     0
174
     0
 93
        1
 44
0.0
173
     0
291
     0
 45
0.0
1001
ACAD
1000
AcDbSavedByObjectVersion
1070
     0
  0
VISUALSTYLE
  5
3C
102
{ACAD_XDICTIONARY
360
6C9
102
}
102
{ACAD_REACTORS
330
29
102
}
330
29
100
AcDbVisualStyle
  2

 70
    25
 71
     2
 72
     2
 73
     1
 90
        1
 40
0.5
 41
-30.0
 62
     5
 63
     7
 74
     1
 91
        0
 64
     7
 65
   257
 75
     1
175
     1
 42
1.0
 92
        8
 66
     7
 43
1.0
 76
     1
 77
     6
 78
     2
 67
     7
 79
     3
170
     0
171
     0
290
     0
174
     0
 93
       13
 44
0.0
173
     0
291
     0
 45
0.0
1001
ACAD
1000
AcDbSavedByObjectVersion
1070
     0
  0
DICTIONARYVAR
  5
54B
102
{ACAD_REACTORS
330
546
102
}
330
546
100
DictionaryVariables
280
     0
  1
1:1
  0
DICTIONARYVAR
  5
548
102
{ACAD_REACTORS
330
546
102
}
330
546
100
DictionaryVariables
280
     0
  1
STANDARD
  0
DICTIONARYVAR
  5
547
102
{ACAD_REACTORS
330
546
102
}
330
546
100
DictionaryVariables
280
     0
  1
STANDARD
  0
DICTIONARYVAR
  5
549
102
{ACAD_REACTORS
330
546
102
}
330
546
100
DictionaryVariables
280
     0
  1
Imperial24
  0
DICTIONARYVAR
  5
54A
102
{ACAD_REACTORS
330
546
102
}
330
546
100
DictionaryVariables
280
     0
  1
Imperial24
  0
DICTIONARYVAR
  5
54E
102
{ACAD_REACTORS
330
546
102
}
330
546
100
DictionaryVariables
280
     0
  1
1
  0
DICTIONARYVAR
  5
54D
102
{ACAD_REACTORS
330
546
102
}
330
546
100
DictionaryVariables
280
     0
  1
0
  0
DICTIONARYVAR
  5
54C
102
{ACAD_REACTORS
330
546
102
}
330
546
100
DictionaryVariables
280
     0
  1
127
  0
DICTIONARYVAR
  5
69C
102
{ACAD_REACTORS
330
546
102
}
330
546
100
DictionaryVariables
280
     0
  1
2
  0
DICTIONARY
  5
F6
102
{ACAD_REACTORS
330
EF
102
}
330
EF
100
AcDbDictionary
281
     1
  0
DICTIONARY
  5
6D8
330
73
100
AcDbDictionary
280
     1
281
     1
  3
ACAD_XREC_ROUNDTRIP
360
6D9
  0
DICTIONARY
  5
6D6
330
6F
100
AcDbDictionary
280
     1
281
     1
  3
ACAD_XREC_ROUNDTRIP
360
6D7
  0
DICTIONARY
  5
1A
330
19
100
AcDbDictionary
280
     1
281
     1
  3
ACAD_XREC_ROUNDTRIP
360
555
  3
BUMPTILE
360
1C
  3
DIFFUSETILE
360
1B
  3
OPACITYTILE
360
1F
  3
REFLECTIONTILE
360
1E
  3
REFRACTIONTILE
360
20
  3
SPECULARTILE
360
1D
  0
DICTIONARY
  5
12
330
11
100
AcDbDictionary
280
     1
281
     1
  3
ACAD_XREC_ROUNDTRIP
360
554
  3
BUMPTILE
360
14
  3
DIFFUSETILE
360
13
  3
OPACITYTILE
360
17
  3
REFLECTIONTILE
360
16
  3
REFRACTIONTILE
360
18
  3
SPECULARTILE
360
15
  0
DICTIONARY
  5
22
330
21
100
AcDbDictionary
280
     1
281
     1
  3
ACAD_XREC_ROUNDTRIP
360
556
  3
BUMPTILE
360
24
  3
DIFFUSETILE
360
23
  3
OPACITYTILE
360
27
  3
REFLECTIONTILE
360
26
  3
REFRACTIONTILE
360
28
  3
SPECULARTILE
360
25
  0
DICTIONARY
  5
550
330
64
100
AcDbDictionary
280
     1
281
     1
  3
ACAD_ROUNDTRIP_2008_TABLESTYLE_CELLSTYLEMAP
360
69D
  3
ACAD_XREC_ROUNDTRIP
360
6D5
  0
DICTIONARY
  5
6AF
330
2F
100
AcDbDictionary
280
     1
281
     1
  3
ACAD_XREC_ROUNDTRIP
360
6B0
  0
DICTIONARY
  5
6AD
330
2E
100
AcDbDictionary
280
     1
281
     1
  3
ACAD_XREC_ROUNDTRIP
360
6AE
  0
DICTIONARY
  5
6BB
330
35
100
AcDbDictionary
280
     1
281
     1
  3
ACAD_XREC_ROUNDTRIP
360
6BC
  0
DICTIONARY
  5
6C3
330
39
100
AcDbDictionary
280
     1
281
     1
  3
ACAD_XREC_ROUNDTRIP
360
6C4
  0
DICTIONARY
  5
6B5
330
32
100
AcDbDictionary
280
     1
281
     1
  3
ACAD_XREC_ROUNDTRIP
360
6B6
  0
DICTIONARY
  5
6B9
330
34
100
AcDbDictionary
280
     1
281
     1
  3
ACAD_XREC_ROUNDTRIP
360
6BA
  0
DICTIONARY
  5
6D3
330
41
100
AcDbDictionary
280
     1
281
     1
  3
ACAD_XREC_ROUNDTRIP
360
6D4
  0
DICTIONARY
  5
6C1
330
38
100
AcDbDictionary
280
     1
281
     1
  3
ACAD_XREC_ROUNDTRIP
360
6C2
  0
DICTIONARY
  5
6A5
330
2A
100
AcDbDictionary
280
     1
281
     1
  3
ACAD_XREC_ROUNDTRIP
360
6A6
  0
DICTIONARY
  5
6A7
330
2B
100
AcDbDictionary
280
     1
281
     1
  3
ACAD_XREC_ROUNDTRIP
360
6A8
  0
DICTIONARY
  5
6A9
330
2C
100
AcDbDictionary
280
     1
281
     1
  3
ACAD_XREC_ROUNDTRIP
360
6AA
  0
DICTIONARY
  5
6AB
330
2D
100
AcDbDictionary
280
     1
281
     1
  3
ACAD_XREC_ROUNDTRIP
360
6AC
  0
DICTIONARY
  5
6B3
330
31
100
AcDbDictionary
280
     1
281
     1
  3
ACAD_XREC_ROUNDTRIP
360
6B4
  0
DICTIONARY
  5
6CF
330
3F
100
AcDbDictionary
280
     1
281
     1
  3
ACAD_XREC_ROUNDTRIP
360
6D0
  0
DICTIONARY
  5
6BF
330
37
100
AcDbDictionary
280
     1
281
     1
  3
ACAD_XREC_ROUNDTRIP
360
6C0
  0
DICTIONARY
  5
6D1
330
40
100
AcDbDictionary
280
     1
281
     1
  3
ACAD_XREC_ROUNDTRIP
360
6D2
  0
DICTIONARY
  5
6B7
330
33
100
AcDbDictionary
280
     1
281
     1
  3
ACAD_XREC_ROUNDTRIP
360
6B8
  0
DICTIONARY
  5
6CD
330
3E
100
AcDbDictionary
280
     1
281
     1
  3
ACAD_XREC_ROUNDTRIP
360
6CE
  0
DICTIONARY
  5
6CB
330
3D
100
AcDbDictionary
280
     1
281
     1
  3
ACAD_XREC_ROUNDTRIP
360
6CC
  0
DICTIONARY
  5
6C5
330
3A
100
AcDbDictionary
280
     1
281
     1
  3
ACAD_XREC_ROUNDTRIP
360
6C6
  0
DICTIONARY
  5
6C7
330
3B
100
AcDbDictionary
280
     1
281
     1
  3
ACAD_XREC_ROUNDTRIP
360
6C8
  0
DICTIONARY
  5
6BD
330
36
100
AcDbDictionary
280
     1
281
     1
  3
ACAD_XREC_ROUNDTRIP
360
6BE
  0
DICTIONARY
  5
6B1
330
30
100
AcDbDictionary
280
     1
281
     1
  3
ACAD_XREC_ROUNDTRIP
360
6B2
  0
DICTIONARY
  5
6C9
330
3C
100
AcDbDictionary
280
     1
281
     1
  3
ACAD_XREC_ROUNDTRIP
360
6CA
  0
XRECORD
  5
6D9
102
{ACAD_REACTORS
330
6D8
102
}
330
6D8
100
AcDbXrecord
280
     1
102
SHADEPLOT
 70
     0
102
SHADEPLOTRESLEVEL
 70
     2
102
SHADEPLOTCUSTOMDPI
 70
   300
  0
XRECORD
  5
6D7
102
{ACAD_REACTORS
330
6D6
102
}
330
6D6
100
AcDbXrecord
280
     1
102
SHADEPLOT
 70
     0
102
SHADEPLOTRESLEVEL
 70
     2
102
SHADEPLOTCUSTOMDPI
 70
   300
  0
XRECORD
  5
555
102
{ACAD_REACTORS
330
1A
102
}
330
1A
100
AcDbXrecord
280
     1
102
MATERIAL
148
0.0
149
0.0
149
0.0
 93
        0
 94
      127
282
     0
 72
     0
 77
     0
171
     0
175
     0
179
     0
273
     0
  0
XRECORD
  5
1C
102
{ACAD_REACTORS
330
1A
102
}
330
1A
100
AcDbXrecord
280
     1
270
     1
271
     1
  0
XRECORD
  5
1B
102
{ACAD_REACTORS
330
1A
102
}
330
1A
100
AcDbXrecord
280
     1
270
     1
271
     1
  0
XRECORD
  5
1F
102
{ACAD_REACTORS
330
1A
102
}
330
1A
100
AcDbXrecord
280
     1
270
     1
271
     1
  0
XRECORD
  5
1E
102
{ACAD_REACTORS
330
1A
102
}
330
1A
100
AcDbXrecord
280
     1
270
     1
271
     1
  0
XRECORD
  5
20
102
{ACAD_REACTORS
330
1A
102
}
330
1A
100
AcDbXrecord
280
     1
270
     1
271
     1
  0
XRECORD
  5
1D
102
{ACAD_REACTORS
330
1A
102
}
330
1A
100
AcDbXrecord
280
     1
270
     1
271
     1
  0
XRECORD
  5
554
102
{ACAD_REACTORS
330
12
102
}
330
12
100
AcDbXrecord
280
     1
102
MATERIAL
148
0.0
149
0.0
149
0.0
 93
        0
 94
      127
282
     0
 72
     0
 77
     0
171
     0
175
     0
179
     0
273
     0
  0
XRECORD
  5
14
102
{ACAD_REACTORS
330
12
102
}
330
12
100
AcDbXrecord
280
     1
270
     1
271
     1
  0
XRECORD
  5
13
102
{ACAD_REACTORS
330
12
102
}
330
12
100
AcDbXrecord
280
     1
270
     1
271
     1
  0
XRECORD
  5
17
102
{ACAD_REACTORS
330
12
102
}
330
12
100
AcDbXrecord
280
     1
270
     1
271
     1
  0
XRECORD
  5
16
102
{ACAD_REACTORS
330
12
102
}
330
12
100
AcDbXrecord
280
     1
270
     1
271
     1
  0
XRECORD
  5
18
102
{ACAD_REACTORS
330
12
102
}
330
12
100
AcDbXrecord
280
     1
270
     1
271
     1
  0
XRECORD
  5
15
102
{ACAD_REACTORS
330
12
102
}
330
12
100
AcDbXrecord
280
     1
270
     1
271
     1
  0
XRECORD
  5
556
102
{ACAD_REACTORS
330
22
102
}
330
22
100
AcDbXrecord
280
     1
102
MATERIAL
148
0.0
149
0.0
149
0.0
 93
        0
 94
      127
282
     0
 72
     0
 77
     0
171
     0
175
     0
179
     0
273
     0
  0
XRECORD
  5
24
102
{ACAD_REACTORS
330
22
102
}
330
22
100
AcDbXrecord
280
     1
270
     1
271
     1
  0
XRECORD
  5
23
102
{ACAD_REACTORS
330
22
102
}
330
22
100
AcDbXrecord
280
     1
270
     1
271
     1
  0
XRECORD
  5
27
102
{ACAD_REACTORS
330
22
102
}
330
22
100
AcDbXrecord
280
     1
270
     1
271
     1
  0
XRECORD
  5
26
102
{ACAD_REACTORS
330
22
102
}
330
22
100
AcDbXrecord
280
     1
270
     1
271
     1
  0
XRECORD
  5
28
102
{ACAD_REACTORS
330
22
102
}
330
22
100
AcDbXrecord
280
     1
270
     1
271
     1
  0
XRECORD
  5
25
102
{ACAD_REACTORS
330
22
102
}
330
22
100
AcDbXrecord
280
     1
270
     1
271
     1
  0
CELLSTYLEMAP
  5
69D
102
{ACAD_REACTORS
330
550
102
}
330
550
100
AcDbCellStyleMap
 90
        3
300
CELLSTYLE
  1
TABLEFORMAT_BEGIN
 90
        5
170
     1
 91
        0
 92
    32768
 62
   257
 93
        1
300
CONTENTFORMAT
  1
CONTENTFORMAT_BEGIN
 90
        0
 91
        0
 92
      512
 93
        0
300

 40
0.0
140
1.0
 94
        5
 62
     0
340
55
144
0.25
309
CONTENTFORMAT_END
171
     1
301
MARGIN
  1
CELLMARGIN_BEGIN
 40
0.06
 40
0.06
 40
0.06
 40
0.06
 40
0.18
 40
0.18
309
CELLMARGIN_END
 94
        6
 95
        1
302
GRIDFORMAT
  1
GRIDFORMAT_BEGIN
 90
        0
 91
        1
 62
     0
 92
       -2
340
0
 93
        0
 40
0.045
309
GRIDFORMAT_END
 95
        2
302
GRIDFORMAT
  1
GRIDFORMAT_BEGIN
 90
        0
 91
        1
 62
     0
 92
       -2
340
0
 93
        0
 40
0.045
309
GRIDFORMAT_END
 95
        4
302
GRIDFORMAT
  1
GRIDFORMAT_BEGIN
 90
        0
 91
        1
 62
     0
 92
       -2
340
0
 93
        0
 40
0.045
309
GRIDFORMAT_END
 95
        8
302
GRIDFORMAT
  1
GRIDFORMAT_BEGIN
 90
        0
 91
        1
 62
     0
 92
       -2
340
0
 93
        0
 40
0.045
309
GRIDFORMAT_END
 95
       16
302
GRIDFORMAT
  1
GRIDFORMAT_BEGIN
 90
        0
 91
        1
 62
     0
 92
       -2
340
0
 93
        0
 40
0.045
309
GRIDFORMAT_END
 95
       32
302
GRIDFORMAT
  1
GRIDFORMAT_BEGIN
 90
        0
 91
        1
 62
     0
 92
       -2
340
0
 93
        0
 40
0.045
309
GRIDFORMAT_END
309
TABLEFORMAT_END
  1
CELLSTYLE_BEGIN
 90
        1
 91
        1
300
_TITLE
309
CELLSTYLE_END
300
CELLSTYLE
  1
TABLEFORMAT_BEGIN
 90
        5
170
     1
 91
        0
 92
        0
 62
   257
 93
        1
300
CONTENTFORMAT
  1
CONTENTFORMAT_BEGIN
 90
        0
 91
        0
 92
      512
 93
        0
300

 40
0.0
140
1.0
 94
        5
 62
     0
340
55
144
0.18
309
CONTENTFORMAT_END
171
     1
301
MARGIN
  1
CELLMARGIN_BEGIN
 40
0.06
 40
0.06
 40
0.06
 40
0.06
 40
0.18
 40
0.18
309
CELLMARGIN_END
 94
        6
 95
        1
302
GRIDFORMAT
  1
GRIDFORMAT_BEGIN
 90
        0
 91
        1
 62
     0
 92
       -2
340
0
 93
        0
 40
0.045
309
GRIDFORMAT_END
 95
        2
302
GRIDFORMAT
  1
GRIDFORMAT_BEGIN
 90
        0
 91
        1
 62
     0
 92
       -2
340
0
 93
        0
 40
0.045
309
GRIDFORMAT_END
 95
        4
302
GRIDFORMAT
  1
GRIDFORMAT_BEGIN
 90
        0
 91
        1
 62
     0
 92
       -2
340
0
 93
        0
 40
0.045
309
GRIDFORMAT_END
 95
        8
302
GRIDFORMAT
  1
GRIDFORMAT_BEGIN
 90
        0
 91
        1
 62
     0
 92
       -2
340
0
 93
        0
 40
0.045
309
GRIDFORMAT_END
 95
       16
302
GRIDFORMAT
  1
GRIDFORMAT_BEGIN
 90
        0
 91
        1
 62
     0
 92
       -2
340
0
 93
        0
 40
0.045
309
GRIDFORMAT_END
 95
       32
302
GRIDFORMAT
  1
GRIDFORMAT_BEGIN
 90
        0
 91
        1
 62
     0
 92
       -2
340
0
 93
        0
 40
0.045
309
GRIDFORMAT_END
309
TABLEFORMAT_END
  1
CELLSTYLE_BEGIN
 90
        2
 91
        1
300
_HEADER
309
CELLSTYLE_END
300
CELLSTYLE
  1
TABLEFORMAT_BEGIN
 90
        5
170
     1
 91
        0
 92
        0
 62
   257
 93
        1
300
CONTENTFORMAT
  1
CONTENTFORMAT_BEGIN
 90
        0
 91
        0
 92
      512
 93
        0
300

 40
0.0
140
1.0
 94
        2
 62
     0
340
55
144
0.18
309
CONTENTFORMAT_END
171
     1
301
MARGIN
  1
CELLMARGIN_BEGIN
 40
0.06
 40
0.06
 40
0.06
 40
0.06
 40
0.18
 40
0.18
309
CELLMARGIN_END
 94
        6
 95
        1
302
GRIDFORMAT
  1
GRIDFORMAT_BEGIN
 90
        0
 91
        1
 62
     0
 92
       -2
340
0
 93
        0
 40
0.045
309
GRIDFORMAT_END
 95
        2
302
GRIDFORMAT
  1
GRIDFORMAT_BEGIN
 90
        0
 91
        1
 62
     0
 92
       -2
340
0
 93
        0
 40
0.045
309
GRIDFORMAT_END
 95
        4
302
GRIDFORMAT
  1
GRIDFORMAT_BEGIN
 90
        0
 91
        1
 62
     0
 92
       -2
340
0
 93
        0
 40
0.045
309
GRIDFORMAT_END
 95
        8
302
GRIDFORMAT
  1
GRIDFORMAT_BEGIN
 90
        0
 91
        1
 62
     0
 92
       -2
340
0
 93
        0
 40
0.045
309
GRIDFORMAT_END
 95
       16
302
GRIDFORMAT
  1
GRIDFORMAT_BEGIN
 90
        0
 91
        1
 62
     0
 92
       -2
340
0
 93
        0
 40
0.045
309
GRIDFORMAT_END
 95
       32
302
GRIDFORMAT
  1
GRIDFORMAT_BEGIN
 90
        0
 91
        1
 62
     0
 92
       -2
340
0
 93
        0
 40
0.045
309
GRIDFORMAT_END
309
TABLEFORMAT_END
  1
CELLSTYLE_BEGIN
 90
        3
 91
        2
300
_DATA
309
CELLSTYLE_END
  0
XRECORD
  5
6D5
102
{ACAD_REACTORS
330
550
102
}
330
550
100
AcDbXrecord
280
     1
102
ACAD_ROUNDTRIP_PRE2007_TABLESTYLE
 90
      512
 91
        0
  1

 92
      512
 93
        0
  2

 94
      512
 95
        0
  3

  0
XRECORD
  5
6B0
102
{ACAD_REACTORS
330
6AF
102
}
330
6AF
100
AcDbXrecord
280
     1
102
RTVSPost2010Prop28
280
     1
102
RTVSPost2010PropOp28
 70
     1
102
RTVSPost2010Prop29
280
     1
102
RTVSPost2010PropOp29
 70
     1
102
RTVSPost2010Prop30
280
     0
102
RTVSPost2010PropOp30
 70
     1
102
RTVSPost2010Prop31
280
     0
102
RTVSPost2010PropOp31
 70
     1
102
RTVSPost2010Prop32
280
     0
102
RTVSPost2010PropOp32
 70
     1
102
RTVSPost2010Prop33
280
     0
102
RTVSPost2010PropOp33
 70
     1
102
RTVSPost2010Prop34
280
     0
102
RTVSPost2010PropOp34
 70
     1
102
RTVSPost2010Prop35
280
     0
102
RTVSPost2010PropOp35
 70
     1
102
RTVSPost2010Prop36
280
     0
102
RTVSPost2010PropOp36
 70
     1
102
RTVSPost2010Prop37
 90
       50
102
RTVSPost2010PropOp37
 70
     1
102
RTVSPost2010Prop38
140
0.0
102
RTVSPost2010PropOp38
 70
     1
102
RTVSPost2010Prop39
140
1.0
102
RTVSPost2010PropOp39
 70
     1
102
RTVSPost2010Prop40
 90
        0
102
RTVSPost2010PropOp40
 70
     1
102
RTVSPost2010Prop41ColorIndex
 90
       18
102
RTVSPost2010Prop41ColorRGB
 90
        0
102
RTVSPost2010PropOp41
 70
     1
102
RTVSPost2010Prop42
 90
       50
102
RTVSPost2010PropOp42
 70
     1
102
RTVSPost2010Prop43
 90
        3
102
RTVSPost2010PropOp43
 70
     1
102
RTVSPost2010Prop44ColorIndex
 90
        5
102
RTVSPost2010Prop44ColorRGB
 90
      255
102
RTVSPost2010PropOp44
 70
     1
102
RTVSPost2010Prop45
280
     0
102
RTVSPost2010PropOp45
 70
     1
102
RTVSPost2010Prop46
 90
       50
102
RTVSPost2010PropOp46
 70
     1
102
RTVSPost2010Prop47
 90
       50
102
RTVSPost2010PropOp47
 70
     1
102
RTVSPost2010Prop48
 90
       50
102
RTVSPost2010PropOp48
 70
     1
102
RTVSPost2010Prop49
280
     0
102
RTVSPost2010PropOp49
 70
     1
102
RTVSPost2010Prop50
 90
       50
102
RTVSPost2010PropOp50
 70
     1
102
RTVSPost2010Prop51ColorIndex
 90
      256
102
RTVSPost2010Prop51ColorRGB
 90
-16777216
102
RTVSPost2010PropOp51
 70
     0
102
RTVSPost2010Prop52
140
1.0
102
RTVSPost2010PropOp52
 70
     0
102
RTVSPost2010Prop53
 90
        2
102
RTVSPost2010PropOp53
 70
     1
102
RTVSPost2010Prop54
  1
strokes_ogs.tif
102
RTVSPost2010PropOp54
 70
     1
102
RTVSPost2010Prop55
280
     0
102
RTVSPost2010PropOp55
 70
     1
102
RTVSPost2010Prop56
140
1.0
102
RTVSPost2010PropOp56
 70
     1
102
RTVSPost2010Prop57
140
1.0
102
RTVSPost2010PropOp57
 70
     1
102
RTVSPropertyOp0
 70
     1
102
RTVSPropertyOp1
 70
     1
102
RTVSPropertyOp2
 70
     1
102
RTVSPropertyOp3
 70
     1
102
RTVSPropertyOp4
 70
     1
102
RTVSPropertyOp5
 70
     1
102
RTVSPropertyOp6
 70
     1
102
RTVSPropertyOp7
 70
     1
102
RTVSPropertyOp8
 70
     1
102
RTVSPropertyOp9
 70
     1
102
RTVSPropertyOp10
 70
     1
102
RTVSPropertyOp11
 70
     1
102
RTVSPropertyOp12
 70
     1
102
RTVSPropertyOp13
 70
     1
102
RTVSPropertyOp14
 70
     1
102
RTVSPropertyOp15
 70
     1
102
RTVSPropertyOp16
 70
     1
102
RTVSPropertyOp17
 70
     1
102
RTVSPropertyOp18
 70
     1
102
RTVSPropertyOp19
 70
     1
102
RTVSPropertyOp20
 70
     1
102
RTVSPropertyOp21
 70
     1
102
RTVSPropertyOp22
 70
     1
102
RTVSPropertyOp23
 70
     1
102
RTVSPropertyOp24
 70
     1
102
RTVSPropertyOp25
 70
     1
102
RTVSPropertyOp26
 70
     1
102
RTVSPropertyOp27
 70
     1
102
RTVSPropertyOp28
 70
     1
102
RTVSPropertyOp29
 70
     1
102
RTVSPropertyOp30
 70
     1
102
RTVSPropertyOp31
 70
     1
102
RTVSPropertyOp32
 70
     1
102
RTVSPropertyOp33
 70
     1
102
RTVSPropertyOp34
 70
     1
102
RTVSPropertyOp35
 70
     1
102
RTVSPropertyOp36
 70
     1
102
RTVSPropertyOp37
 70
     1
102
RTVSPropertyOp38
 70
     1
102
RTVSPropertyOp39
 70
     1
102
RTVSPropertyOp40
 70
     1
102
RTVSPropertyOp41
 70
     1
102
RTVSPropertyOp42
 70
     1
102
RTVSPropertyOp43
 70
     1
102
RTVSPropertyOp44
 70
     1
102
RTVSPropertyOp45
 70
     1
102
RTVSPropertyOp46
 70
     1
102
RTVSPropertyOp47
 70
     1
102
RTVSPropertyOp48
 70
     1
102
RTVSPropertyOp49
 70
     1
102
RTVSPropertyOp50
 70
     1
102
RTVSPropertyOp51
 70
     0
102
RTVSPropertyOp52
 70
     0
102
RTVSPropertyOp53
 70
     1
102
RTVSPropertyOp54
 70
     1
102
RTVSPropertyOp55
 70
     1
102
RTVSPropertyOp56
 70
     1
102
RTVSPropertyOp57
 70
     1
102
RTVSPropertyOp58
 70
     1
102
RTVSPropertyOp59
 70
     1
102
RTVSPropertyOp60
 70
     1
102
RTVSPropertyOp61
 70
     1
102
RTVSPropertyOp62
 70
     1
  0
XRECORD
  5
6AE
102
{ACAD_REACTORS
330
6AD
102
}
330
6AD
100
AcDbXrecord
280
     1
102
RTVSPost2010Prop28
280
     0
102
RTVSPost2010PropOp28
 70
     1
102
RTVSPost2010Prop29
280
     1
102
RTVSPost2010PropOp29
 70
     1
102
RTVSPost2010Prop30
280
     1
102
RTVSPost2010PropOp30
 70
     1
102
RTVSPost2010Prop31
280
     0
102
RTVSPost2010PropOp31
 70
     1
102
RTVSPost2010Prop32
280
     0
102
RTVSPost2010PropOp32
 70
     1
102
RTVSPost2010Prop33
280
     0
102
RTVSPost2010PropOp33
 70
     1
102
RTVSPost2010Prop34
280
     0
102
RTVSPost2010PropOp34
 70
     1
102
RTVSPost2010Prop35
280
     0
102
RTVSPost2010PropOp35
 70
     1
102
RTVSPost2010Prop36
280
     0
102
RTVSPost2010PropOp36
 70
     1
102
RTVSPost2010Prop37
 90
       50
102
RTVSPost2010PropOp37
 70
     1
102
RTVSPost2010Prop38
140
0.0
102
RTVSPost2010PropOp38
 70
     1
102
RTVSPost2010Prop39
140
1.0
102
RTVSPost2010PropOp39
 70
     1
102
RTVSPost2010Prop40
 90
        0
102
RTVSPost2010PropOp40
 70
     1
102
RTVSPost2010Prop41ColorIndex
 90
       18
102
RTVSPost2010Prop41ColorRGB
 90
        0
102
RTVSPost2010PropOp41
 70
     1
102
RTVSPost2010Prop42
 90
       50
102
RTVSPost2010PropOp42
 70
     1
102
RTVSPost2010Prop43
 90
        3
102
RTVSPost2010PropOp43
 70
     1
102
RTVSPost2010Prop44ColorIndex
 90
        5
102
RTVSPost2010Prop44ColorRGB
 90
      255
102
RTVSPost2010PropOp44
 70
     1
102
RTVSPost2010Prop45
280
     0
102
RTVSPost2010PropOp45
 70
     1
102
RTVSPost2010Prop46
 90
       50
102
RTVSPost2010PropOp46
 70
     1
102
RTVSPost2010Prop47
 90
       50
102
RTVSPost2010PropOp47
 70
     1
102
RTVSPost2010Prop48
 90
       50
102
RTVSPost2010PropOp48
 70
     1
102
RTVSPost2010Prop49
280
     0
102
RTVSPost2010PropOp49
 70
     1
102
RTVSPost2010Prop50
 90
       50
102
RTVSPost2010PropOp50
 70
     1
102
RTVSPost2010Prop51ColorIndex
 90
      256
102
RTVSPost2010Prop51ColorRGB
 90
-16777216
102
RTVSPost2010PropOp51
 70
     0
102
RTVSPost2010Prop52
140
1.0
102
RTVSPost2010PropOp52
 70
     0
102
RTVSPost2010Prop53
 90
        2
102
RTVSPost2010PropOp53
 70
     1
102
RTVSPost2010Prop54
  1
strokes_ogs.tif
102
RTVSPost2010PropOp54
 70
     1
102
RTVSPost2010Prop55
280
     0
102
RTVSPost2010PropOp55
 70
     1
102
RTVSPost2010Prop56
140
1.0
102
RTVSPost2010PropOp56
 70
     1
102
RTVSPost2010Prop57
140
1.0
102
RTVSPost2010PropOp57
 70
     1
102
RTVSPropertyOp0
 70
     1
102
RTVSPropertyOp1
 70
     1
102
RTVSPropertyOp2
 70
     1
102
RTVSPropertyOp3
 70
     1
102
RTVSPropertyOp4
 70
     1
102
RTVSPropertyOp5
 70
     1
102
RTVSPropertyOp6
 70
     1
102
RTVSPropertyOp7
 70
     1
102
RTVSPropertyOp8
 70
     1
102
RTVSPropertyOp9
 70
     1
102
RTVSPropertyOp10
 70
     1
102
RTVSPropertyOp11
 70
     1
102
RTVSPropertyOp12
 70
     1
102
RTVSPropertyOp13
 70
     1
102
RTVSPropertyOp14
 70
     1
102
RTVSPropertyOp15
 70
     1
102
RTVSPropertyOp16
 70
     1
102
RTVSPropertyOp17
 70
     1
102
RTVSPropertyOp18
 70
     1
102
RTVSPropertyOp19
 70
     1
102
RTVSPropertyOp20
 70
     1
102
RTVSPropertyOp21
 70
     1
102
RTVSPropertyOp22
 70
     1
102
RTVSPropertyOp23
 70
     1
102
RTVSPropertyOp24
 70
     1
102
RTVSPropertyOp25
 70
     1
102
RTVSPropertyOp26
 70
     1
102
RTVSPropertyOp27
 70
     1
102
RTVSPropertyOp28
 70
     1
102
RTVSPropertyOp29
 70
     1
102
RTVSPropertyOp30
 70
     1
102
RTVSPropertyOp31
 70
     1
102
RTVSPropertyOp32
 70
     1
102
RTVSPropertyOp33
 70
     1
102
RTVSPropertyOp34
 70
     1
102
RTVSPropertyOp35
 70
     1
102
RTVSPropertyOp36
 70
     1
102
RTVSPropertyOp37
 70
     1
102
RTVSPropertyOp38
 70
     1
102
RTVSPropertyOp39
 70
     1
102
RTVSPropertyOp40
 70
     1
102
RTVSPropertyOp41
 70
     1
102
RTVSPropertyOp42
 70
     1
102
RTVSPropertyOp43
 70
     1
102
RTVSPropertyOp44
 70
     1
102
RTVSPropertyOp45
 70
     1
102
RTVSPropertyOp46
 70
     1
102
RTVSPropertyOp47
 70
     1
102
RTVSPropertyOp48
 70
     1
102
RTVSPropertyOp49
 70
     1
102
RTVSPropertyOp50
 70
     1
102
RTVSPropertyOp51
 70
     0
102
RTVSPropertyOp52
 70
     0
102
RTVSPropertyOp53
 70
     1
102
RTVSPropertyOp54
 70
     1
102
RTVSPropertyOp55
 70
     1
102
RTVSPropertyOp56
 70
     1
102
RTVSPropertyOp57
 70
     1
102
RTVSPropertyOp58
 70
     1
102
RTVSPropertyOp59
 70
     1
102
RTVSPropertyOp60
 70
     1
102
RTVSPropertyOp61
 70
     1
102
RTVSPropertyOp62
 70
     1
  0
XRECORD
  5
6BC
102
{ACAD_REACTORS
330
6BB
102
}
330
6BB
100
AcDbXrecord
280
     1
102
RTVSPost2010Prop28
280
     0
102
RTVSPost2010PropOp28
 70
     1
102
RTVSPost2010Prop29
280
     1
102
RTVSPost2010PropOp29
 70
     1
102
RTVSPost2010Prop30
280
     1
102
RTVSPost2010PropOp30
 70
     1
102
RTVSPost2010Prop31
280
     0
102
RTVSPost2010PropOp31
 70
     1
102
RTVSPost2010Prop32
280
     0
102
RTVSPost2010PropOp32
 70
     1
102
RTVSPost2010Prop33
280
     0
102
RTVSPost2010PropOp33
 70
     1
102
RTVSPost2010Prop34
280
     0
102
RTVSPost2010PropOp34
 70
     1
102
RTVSPost2010Prop35
280
     0
102
RTVSPost2010PropOp35
 70
     1
102
RTVSPost2010Prop36
280
     0
102
RTVSPost2010PropOp36
 70
     1
102
RTVSPost2010Prop37
 90
       50
102
RTVSPost2010PropOp37
 70
     1
102
RTVSPost2010Prop38
140
0.0
102
RTVSPost2010PropOp38
 70
     1
102
RTVSPost2010Prop39
140
1.0
102
RTVSPost2010PropOp39
 70
     1
102
RTVSPost2010Prop40
 90
        0
102
RTVSPost2010PropOp40
 70
     1
102
RTVSPost2010Prop41ColorIndex
 90
       18
102
RTVSPost2010Prop41ColorRGB
 90
        0
102
RTVSPost2010PropOp41
 70
     1
102
RTVSPost2010Prop42
 90
       50
102
RTVSPost2010PropOp42
 70
     1
102
RTVSPost2010Prop43
 90
        3
102
RTVSPost2010PropOp43
 70
     1
102
RTVSPost2010Prop44ColorIndex
 90
        5
102
RTVSPost2010Prop44ColorRGB
 90
      255
102
RTVSPost2010PropOp44
 70
     1
102
RTVSPost2010Prop45
280
     0
102
RTVSPost2010PropOp45
 70
     1
102
RTVSPost2010Prop46
 90
       50
102
RTVSPost2010PropOp46
 70
     1
102
RTVSPost2010Prop47
 90
       50
102
RTVSPost2010PropOp47
 70
     1
102
RTVSPost2010Prop48
 90
       50
102
RTVSPost2010PropOp48
 70
     1
102
RTVSPost2010Prop49
280
     0
102
RTVSPost2010PropOp49
 70
     1
102
RTVSPost2010Prop50
 90
       50
102
RTVSPost2010PropOp50
 70
     1
102
RTVSPost2010Prop51ColorIndex
 90
      256
102
RTVSPost2010Prop51ColorRGB
 90
-16777216
102
RTVSPost2010PropOp51
 70
     0
102
RTVSPost2010Prop52
140
1.0
102
RTVSPost2010PropOp52
 70
     0
102
RTVSPost2010Prop53
 90
        2
102
RTVSPost2010PropOp53
 70
     1
102
RTVSPost2010Prop54
  1
strokes_ogs.tif
102
RTVSPost2010PropOp54
 70
     1
102
RTVSPost2010Prop55
280
     0
102
RTVSPost2010PropOp55
 70
     1
102
RTVSPost2010Prop56
140
1.0
102
RTVSPost2010PropOp56
 70
     1
102
RTVSPost2010Prop57
140
1.0
102
RTVSPost2010PropOp57
 70
     1
102
RTVSPropertyOp0
 70
     1
102
RTVSPropertyOp1
 70
     1
102
RTVSPropertyOp2
 70
     1
102
RTVSPropertyOp3
 70
     1
102
RTVSPropertyOp4
 70
     1
102
RTVSPropertyOp5
 70
     1
102
RTVSPropertyOp6
 70
     1
102
RTVSPropertyOp7
 70
     1
102
RTVSPropertyOp8
 70
     1
102
RTVSPropertyOp9
 70
     1
102
RTVSPropertyOp10
 70
     1
102
RTVSPropertyOp11
 70
     1
102
RTVSPropertyOp12
 70
     1
102
RTVSPropertyOp13
 70
     1
102
RTVSPropertyOp14
 70
     1
102
RTVSPropertyOp15
 70
     1
102
RTVSPropertyOp16
 70
     1
102
RTVSPropertyOp17
 70
     1
102
RTVSPropertyOp18
 70
     1
102
RTVSPropertyOp19
 70
     1
102
RTVSPropertyOp20
 70
     1
102
RTVSPropertyOp21
 70
     1
102
RTVSPropertyOp22
 70
     1
102
RTVSPropertyOp23
 70
     1
102
RTVSPropertyOp24
 70
     1
102
RTVSPropertyOp25
 70
     1
102
RTVSPropertyOp26
 70
     1
102
RTVSPropertyOp27
 70
     1
102
RTVSPropertyOp28
 70
     1
102
RTVSPropertyOp29
 70
     1
102
RTVSPropertyOp30
 70
     1
102
RTVSPropertyOp31
 70
     1
102
RTVSPropertyOp32
 70
     1
102
RTVSPropertyOp33
 70
     1
102
RTVSPropertyOp34
 70
     1
102
RTVSPropertyOp35
 70
     1
102
RTVSPropertyOp36
 70
     1
102
RTVSPropertyOp37
 70
     1
102
RTVSPropertyOp38
 70
     1
102
RTVSPropertyOp39
 70
     1
102
RTVSPropertyOp40
 70
     1
102
RTVSPropertyOp41
 70
     1
102
RTVSPropertyOp42
 70
     1
102
RTVSPropertyOp43
 70
     1
102
RTVSPropertyOp44
 70
     1
102
RTVSPropertyOp45
 70
     1
102
RTVSPropertyOp46
 70
     1
102
RTVSPropertyOp47
 70
     1
102
RTVSPropertyOp48
 70
     1
102
RTVSPropertyOp49
 70
     1
102
RTVSPropertyOp50
 70
     1
102
RTVSPropertyOp51
 70
     0
102
RTVSPropertyOp52
 70
     0
102
RTVSPropertyOp53
 70
     1
102
RTVSPropertyOp54
 70
     1
102
RTVSPropertyOp55
 70
     1
102
RTVSPropertyOp56
 70
     1
102
RTVSPropertyOp57
 70
     1
102
RTVSPropertyOp58
 70
     1
102
RTVSPropertyOp59
 70
     1
102
RTVSPropertyOp60
 70
     1
102
RTVSPropertyOp61
 70
     1
102
RTVSPropertyOp62
 70
     1
  0
XRECORD
  5
6C4
102
{ACAD_REACTORS
330
6C3
102
}
330
6C3
100
AcDbXrecord
280
     1
102
RTVSPost2010Prop28
280
     0
102
RTVSPost2010PropOp28
 70
     1
102
RTVSPost2010Prop29
280
     1
102
RTVSPost2010PropOp29
 70
     1
102
RTVSPost2010Prop30
280
     1
102
RTVSPost2010PropOp30
 70
     1
102
RTVSPost2010Prop31
280
     0
102
RTVSPost2010PropOp31
 70
     1
102
RTVSPost2010Prop32
280
     0
102
RTVSPost2010PropOp32
 70
     1
102
RTVSPost2010Prop33
280
     0
102
RTVSPost2010PropOp33
 70
     1
102
RTVSPost2010Prop34
280
     0
102
RTVSPost2010PropOp34
 70
     1
102
RTVSPost2010Prop35
280
     0
102
RTVSPost2010PropOp35
 70
     1
102
RTVSPost2010Prop36
280
     0
102
RTVSPost2010PropOp36
 70
     1
102
RTVSPost2010Prop37
 90
       50
102
RTVSPost2010PropOp37
 70
     1
102
RTVSPost2010Prop38
140
0.0
102
RTVSPost2010PropOp38
 70
     1
102
RTVSPost2010Prop39
140
1.0
102
RTVSPost2010PropOp39
 70
     1
102
RTVSPost2010Prop40
 90
        0
102
RTVSPost2010PropOp40
 70
     1
102
RTVSPost2010Prop41ColorIndex
 90
       18
102
RTVSPost2010Prop41ColorRGB
 90
        0
102
RTVSPost2010PropOp41
 70
     1
102
RTVSPost2010Prop42
 90
       50
102
RTVSPost2010PropOp42
 70
     1
102
RTVSPost2010Prop43
 90
        3
102
RTVSPost2010PropOp43
 70
     1
102
RTVSPost2010Prop44ColorIndex
 90
        5
102
RTVSPost2010Prop44ColorRGB
 90
      255
102
RTVSPost2010PropOp44
 70
     1
102
RTVSPost2010Prop45
280
     0
102
RTVSPost2010PropOp45
 70
     1
102
RTVSPost2010Prop46
 90
       50
102
RTVSPost2010PropOp46
 70
     1
102
RTVSPost2010Prop47
 90
       50
102
RTVSPost2010PropOp47
 70
     1
102
RTVSPost2010Prop48
 90
       50
102
RTVSPost2010PropOp48
 70
     1
102
RTVSPost2010Prop49
280
     0
102
RTVSPost2010PropOp49
 70
     1
102
RTVSPost2010Prop50
 90
       50
102
RTVSPost2010PropOp50
 70
     1
102
RTVSPost2010Prop51ColorIndex
 90
      256
102
RTVSPost2010Prop51ColorRGB
 90
-16777216
102
RTVSPost2010PropOp51
 70
     0
102
RTVSPost2010Prop52
140
1.0
102
RTVSPost2010PropOp52
 70
     0
102
RTVSPost2010Prop53
 90
        2
102
RTVSPost2010PropOp53
 70
     1
102
RTVSPost2010Prop54
  1
strokes_ogs.tif
102
RTVSPost2010PropOp54
 70
     1
102
RTVSPost2010Prop55
280
     0
102
RTVSPost2010PropOp55
 70
     1
102
RTVSPost2010Prop56
140
1.0
102
RTVSPost2010PropOp56
 70
     1
102
RTVSPost2010Prop57
140
1.0
102
RTVSPost2010PropOp57
 70
     1
102
RTVSPropertyOp0
 70
     1
102
RTVSPropertyOp1
 70
     1
102
RTVSPropertyOp2
 70
     1
102
RTVSPropertyOp3
 70
     1
102
RTVSPropertyOp4
 70
     1
102
RTVSPropertyOp5
 70
     1
102
RTVSPropertyOp6
 70
     1
102
RTVSPropertyOp7
 70
     1
102
RTVSPropertyOp8
 70
     1
102
RTVSPropertyOp9
 70
     1
102
RTVSPropertyOp10
 70
     1
102
RTVSPropertyOp11
 70
     1
102
RTVSPropertyOp12
 70
     1
102
RTVSPropertyOp13
 70
     1
102
RTVSPropertyOp14
 70
     1
102
RTVSPropertyOp15
 70
     1
102
RTVSPropertyOp16
 70
     1
102
RTVSPropertyOp17
 70
     1
102
RTVSPropertyOp18
 70
     1
102
RTVSPropertyOp19
 70
     1
102
RTVSPropertyOp20
 70
     1
102
RTVSPropertyOp21
 70
     1
102
RTVSPropertyOp22
 70
     1
102
RTVSPropertyOp23
 70
     1
102
RTVSPropertyOp24
 70
     1
102
RTVSPropertyOp25
 70
     1
102
RTVSPropertyOp26
 70
     1
102
RTVSPropertyOp27
 70
     1
102
RTVSPropertyOp28
 70
     1
102
RTVSPropertyOp29
 70
     1
102
RTVSPropertyOp30
 70
     1
102
RTVSPropertyOp31
 70
     1
102
RTVSPropertyOp32
 70
     1
102
RTVSPropertyOp33
 70
     1
102
RTVSPropertyOp34
 70
     1
102
RTVSPropertyOp35
 70
     1
102
RTVSPropertyOp36
 70
     1
102
RTVSPropertyOp37
 70
     1
102
RTVSPropertyOp38
 70
     1
102
RTVSPropertyOp39
 70
     1
102
RTVSPropertyOp40
 70
     1
102
RTVSPropertyOp41
 70
     1
102
RTVSPropertyOp42
 70
     1
102
RTVSPropertyOp43
 70
     1
102
RTVSPropertyOp44
 70
     1
102
RTVSPropertyOp45
 70
     1
102
RTVSPropertyOp46
 70
     1
102
RTVSPropertyOp47
 70
     1
102
RTVSPropertyOp48
 70
     1
102
RTVSPropertyOp49
 70
     1
102
RTVSPropertyOp50
 70
     1
102
RTVSPropertyOp51
 70
     0
102
RTVSPropertyOp52
 70
     0
102
RTVSPropertyOp53
 70
     1
102
RTVSPropertyOp54
 70
     1
102
RTVSPropertyOp55
 70
     1
102
RTVSPropertyOp56
 70
     1
102
RTVSPropertyOp57
 70
     1
102
RTVSPropertyOp58
 70
     1
102
RTVSPropertyOp59
 70
     1
102
RTVSPropertyOp60
 70
     1
102
RTVSPropertyOp61
 70
     1
102
RTVSPropertyOp62
 70
     1
  0
XRECORD
  5
6B6
102
{ACAD_REACTORS
330
6B5
102
}
330
6B5
100
AcDbXrecord
280
     1
102
RTVSPost2010Prop28
280
     0
102
RTVSPost2010PropOp28
 70
     1
102
RTVSPost2010Prop29
280
     1
102
RTVSPost2010PropOp29
 70
     1
102
RTVSPost2010Prop30
280
     1
102
RTVSPost2010PropOp30
 70
     1
102
RTVSPost2010Prop31
280
     0
102
RTVSPost2010PropOp31
 70
     1
102
RTVSPost2010Prop32
280
     0
102
RTVSPost2010PropOp32
 70
     1
102
RTVSPost2010Prop33
280
     0
102
RTVSPost2010PropOp33
 70
     1
102
RTVSPost2010Prop34
280
     0
102
RTVSPost2010PropOp34
 70
     1
102
RTVSPost2010Prop35
280
     0
102
RTVSPost2010PropOp35
 70
     1
102
RTVSPost2010Prop36
280
     0
102
RTVSPost2010PropOp36
 70
     1
102
RTVSPost2010Prop37
 90
       50
102
RTVSPost2010PropOp37
 70
     1
102
RTVSPost2010Prop38
140
0.0
102
RTVSPost2010PropOp38
 70
     1
102
RTVSPost2010Prop39
140
1.0
102
RTVSPost2010PropOp39
 70
     1
102
RTVSPost2010Prop40
 90
        0
102
RTVSPost2010PropOp40
 70
     1
102
RTVSPost2010Prop41ColorIndex
 90
       18
102
RTVSPost2010Prop41ColorRGB
 90
        0
102
RTVSPost2010PropOp41
 70
     1
102
RTVSPost2010Prop42
 90
       50
102
RTVSPost2010PropOp42
 70
     1
102
RTVSPost2010Prop43
 90
        3
102
RTVSPost2010PropOp43
 70
     1
102
RTVSPost2010Prop44ColorIndex
 90
        5
102
RTVSPost2010Prop44ColorRGB
 90
      255
102
RTVSPost2010PropOp44
 70
     1
102
RTVSPost2010Prop45
280
     0
102
RTVSPost2010PropOp45
 70
     1
102
RTVSPost2010Prop46
 90
       50
102
RTVSPost2010PropOp46
 70
     1
102
RTVSPost2010Prop47
 90
       50
102
RTVSPost2010PropOp47
 70
     1
102
RTVSPost2010Prop48
 90
       50
102
RTVSPost2010PropOp48
 70
     1
102
RTVSPost2010Prop49
280
     0
102
RTVSPost2010PropOp49
 70
     1
102
RTVSPost2010Prop50
 90
       50
102
RTVSPost2010PropOp50
 70
     1
102
RTVSPost2010Prop51ColorIndex
 90
      256
102
RTVSPost2010Prop51ColorRGB
 90
-16777216
102
RTVSPost2010PropOp51
 70
     0
102
RTVSPost2010Prop52
140
1.0
102
RTVSPost2010PropOp52
 70
     0
102
RTVSPost2010Prop53
 90
        2
102
RTVSPost2010PropOp53
 70
     1
102
RTVSPost2010Prop54
  1
strokes_ogs.tif
102
RTVSPost2010PropOp54
 70
     1
102
RTVSPost2010Prop55
280
     0
102
RTVSPost2010PropOp55
 70
     1
102
RTVSPost2010Prop56
140
1.0
102
RTVSPost2010PropOp56
 70
     1
102
RTVSPost2010Prop57
140
1.0
102
RTVSPost2010PropOp57
 70
     1
102
RTVSPropertyOp0
 70
     1
102
RTVSPropertyOp1
 70
     1
102
RTVSPropertyOp2
 70
     1
102
RTVSPropertyOp3
 70
     1
102
RTVSPropertyOp4
 70
     1
102
RTVSPropertyOp5
 70
     1
102
RTVSPropertyOp6
 70
     1
102
RTVSPropertyOp7
 70
     1
102
RTVSPropertyOp8
 70
     1
102
RTVSPropertyOp9
 70
     1
102
RTVSPropertyOp10
 70
     1
102
RTVSPropertyOp11
 70
     1
102
RTVSPropertyOp12
 70
     1
102
RTVSPropertyOp13
 70
     1
102
RTVSPropertyOp14
 70
     1
102
RTVSPropertyOp15
 70
     1
102
RTVSPropertyOp16
 70
     1
102
RTVSPropertyOp17
 70
     1
102
RTVSPropertyOp18
 70
     1
102
RTVSPropertyOp19
 70
     1
102
RTVSPropertyOp20
 70
     1
102
RTVSPropertyOp21
 70
     1
102
RTVSPropertyOp22
 70
     1
102
RTVSPropertyOp23
 70
     1
102
RTVSPropertyOp24
 70
     1
102
RTVSPropertyOp25
 70
     1
102
RTVSPropertyOp26
 70
     1
102
RTVSPropertyOp27
 70
     1
102
RTVSPropertyOp28
 70
     1
102
RTVSPropertyOp29
 70
     1
102
RTVSPropertyOp30
 70
     1
102
RTVSPropertyOp31
 70
     1
102
RTVSPropertyOp32
 70
     1
102
RTVSPropertyOp33
 70
     1
102
RTVSPropertyOp34
 70
     1
102
RTVSPropertyOp35
 70
     1
102
RTVSPropertyOp36
 70
     1
102
RTVSPropertyOp37
 70
     1
102
RTVSPropertyOp38
 70
     1
102
RTVSPropertyOp39
 70
     1
102
RTVSPropertyOp40
 70
     1
102
RTVSPropertyOp41
 70
     1
102
RTVSPropertyOp42
 70
     1
102
RTVSPropertyOp43
 70
     1
102
RTVSPropertyOp44
 70
     1
102
RTVSPropertyOp45
 70
     1
102
RTVSPropertyOp46
 70
     1
102
RTVSPropertyOp47
 70
     1
102
RTVSPropertyOp48
 70
     1
102
RTVSPropertyOp49
 70
     1
102
RTVSPropertyOp50
 70
     1
102
RTVSPropertyOp51
 70
     0
102
RTVSPropertyOp52
 70
     0
102
RTVSPropertyOp53
 70
     1
102
RTVSPropertyOp54
 70
     1
102
RTVSPropertyOp55
 70
     1
102
RTVSPropertyOp56
 70
     1
102
RTVSPropertyOp57
 70
     1
102
RTVSPropertyOp58
 70
     1
102
RTVSPropertyOp59
 70
     1
102
RTVSPropertyOp60
 70
     1
102
RTVSPropertyOp61
 70
     1
102
RTVSPropertyOp62
 70
     1
  0
XRECORD
  5
6BA
102
{ACAD_REACTORS
330
6B9
102
}
330
6B9
100
AcDbXrecord
280
     1
102
RTVSPost2010Prop28
280
     0
102
RTVSPost2010PropOp28
 70
     1
102
RTVSPost2010Prop29
280
     1
102
RTVSPost2010PropOp29
 70
     1
102
RTVSPost2010Prop30
280
     1
102
RTVSPost2010PropOp30
 70
     1
102
RTVSPost2010Prop31
280
     0
102
RTVSPost2010PropOp31
 70
     1
102
RTVSPost2010Prop32
280
     0
102
RTVSPost2010PropOp32
 70
     1
102
RTVSPost2010Prop33
280
     0
102
RTVSPost2010PropOp33
 70
     1
102
RTVSPost2010Prop34
280
     0
102
RTVSPost2010PropOp34
 70
     1
102
RTVSPost2010Prop35
280
     0
102
RTVSPost2010PropOp35
 70
     1
102
RTVSPost2010Prop36
280
     0
102
RTVSPost2010PropOp36
 70
     1
102
RTVSPost2010Prop37
 90
       50
102
RTVSPost2010PropOp37
 70
     1
102
RTVSPost2010Prop38
140
0.0
102
RTVSPost2010PropOp38
 70
     1
102
RTVSPost2010Prop39
140
1.0
102
RTVSPost2010PropOp39
 70
     1
102
RTVSPost2010Prop40
 90
        0
102
RTVSPost2010PropOp40
 70
     1
102
RTVSPost2010Prop41ColorIndex
 90
       18
102
RTVSPost2010Prop41ColorRGB
 90
        0
102
RTVSPost2010PropOp41
 70
     1
102
RTVSPost2010Prop42
 90
       50
102
RTVSPost2010PropOp42
 70
     1
102
RTVSPost2010Prop43
 90
        3
102
RTVSPost2010PropOp43
 70
     1
102
RTVSPost2010Prop44ColorIndex
 90
        5
102
RTVSPost2010Prop44ColorRGB
 90
      255
102
RTVSPost2010PropOp44
 70
     1
102
RTVSPost2010Prop45
280
     0
102
RTVSPost2010PropOp45
 70
     1
102
RTVSPost2010Prop46
 90
       50
102
RTVSPost2010PropOp46
 70
     1
102
RTVSPost2010Prop47
 90
       50
102
RTVSPost2010PropOp47
 70
     1
102
RTVSPost2010Prop48
 90
       50
102
RTVSPost2010PropOp48
 70
     1
102
RTVSPost2010Prop49
280
     0
102
RTVSPost2010PropOp49
 70
     1
102
RTVSPost2010Prop50
 90
       50
102
RTVSPost2010PropOp50
 70
     1
102
RTVSPost2010Prop51ColorIndex
 90
      256
102
RTVSPost2010Prop51ColorRGB
 90
-16777216
102
RTVSPost2010PropOp51
 70
     0
102
RTVSPost2010Prop52
140
1.0
102
RTVSPost2010PropOp52
 70
     0
102
RTVSPost2010Prop53
 90
        2
102
RTVSPost2010PropOp53
 70
     1
102
RTVSPost2010Prop54
  1
strokes_ogs.tif
102
RTVSPost2010PropOp54
 70
     1
102
RTVSPost2010Prop55
280
     0
102
RTVSPost2010PropOp55
 70
     1
102
RTVSPost2010Prop56
140
1.0
102
RTVSPost2010PropOp56
 70
     1
102
RTVSPost2010Prop57
140
1.0
102
RTVSPost2010PropOp57
 70
     1
102
RTVSPropertyOp0
 70
     1
102
RTVSPropertyOp1
 70
     1
102
RTVSPropertyOp2
 70
     1
102
RTVSPropertyOp3
 70
     1
102
RTVSPropertyOp4
 70
     1
102
RTVSPropertyOp5
 70
     1
102
RTVSPropertyOp6
 70
     1
102
RTVSPropertyOp7
 70
     1
102
RTVSPropertyOp8
 70
     1
102
RTVSPropertyOp9
 70
     1
102
RTVSPropertyOp10
 70
     1
102
RTVSPropertyOp11
 70
     1
102
RTVSPropertyOp12
 70
     1
102
RTVSPropertyOp13
 70
     1
102
RTVSPropertyOp14
 70
     1
102
RTVSPropertyOp15
 70
     1
102
RTVSPropertyOp16
 70
     1
102
RTVSPropertyOp17
 70
     1
102
RTVSPropertyOp18
 70
     1
102
RTVSPropertyOp19
 70
     1
102
RTVSPropertyOp20
 70
     1
102
RTVSPropertyOp21
 70
     1
102
RTVSPropertyOp22
 70
     1
102
RTVSPropertyOp23
 70
     1
102
RTVSPropertyOp24
 70
     1
102
RTVSPropertyOp25
 70
     1
102
RTVSPropertyOp26
 70
     1
102
RTVSPropertyOp27
 70
     1
102
RTVSPropertyOp28
 70
     1
102
RTVSPropertyOp29
 70
     1
102
RTVSPropertyOp30
 70
     1
102
RTVSPropertyOp31
 70
     1
102
RTVSPropertyOp32
 70
     1
102
RTVSPropertyOp33
 70
     1
102
RTVSPropertyOp34
 70
     1
102
RTVSPropertyOp35
 70
     1
102
RTVSPropertyOp36
 70
     1
102
RTVSPropertyOp37
 70
     1
102
RTVSPropertyOp38
 70
     1
102
RTVSPropertyOp39
 70
     1
102
RTVSPropertyOp40
 70
     1
102
RTVSPropertyOp41
 70
     1
102
RTVSPropertyOp42
 70
     1
102
RTVSPropertyOp43
 70
     1
102
RTVSPropertyOp44
 70
     1
102
RTVSPropertyOp45
 70
     1
102
RTVSPropertyOp46
 70
     1
102
RTVSPropertyOp47
 70
     1
102
RTVSPropertyOp48
 70
     1
102
RTVSPropertyOp49
 70
     1
102
RTVSPropertyOp50
 70
     1
102
RTVSPropertyOp51
 70
     0
102
RTVSPropertyOp52
 70
     0
102
RTVSPropertyOp53
 70
     1
102
RTVSPropertyOp54
 70
     1
102
RTVSPropertyOp55
 70
     1
102
RTVSPropertyOp56
 70
     1
102
RTVSPropertyOp57
 70
     1
102
RTVSPropertyOp58
 70
     1
102
RTVSPropertyOp59
 70
     1
102
RTVSPropertyOp60
 70
     1
102
RTVSPropertyOp61
 70
     1
102
RTVSPropertyOp62
 70
     1
  0
XRECORD
  5
6D4
102
{ACAD_REACTORS
330
6D3
102
}
330
6D3
100
AcDbXrecord
280
     1
102
RTVSPost2010Prop28
280
     0
102
RTVSPost2010PropOp28
 70
     1
102
RTVSPost2010Prop29
280
     1
102
RTVSPost2010PropOp29
 70
     1
102
RTVSPost2010Prop30
280
     1
102
RTVSPost2010PropOp30
 70
     1
102
RTVSPost2010Prop31
280
     0
102
RTVSPost2010PropOp31
 70
     1
102
RTVSPost2010Prop32
280
     0
102
RTVSPost2010PropOp32
 70
     1
102
RTVSPost2010Prop33
280
     0
102
RTVSPost2010PropOp33
 70
     1
102
RTVSPost2010Prop34
280
     0
102
RTVSPost2010PropOp34
 70
     1
102
RTVSPost2010Prop35
280
     0
102
RTVSPost2010PropOp35
 70
     1
102
RTVSPost2010Prop36
280
     0
102
RTVSPost2010PropOp36
 70
     1
102
RTVSPost2010Prop37
 90
       50
102
RTVSPost2010PropOp37
 70
     0
102
RTVSPost2010Prop38
140
0.0
102
RTVSPost2010PropOp38
 70
     0
102
RTVSPost2010Prop39
140
1.0
102
RTVSPost2010PropOp39
 70
     0
102
RTVSPost2010Prop40
 90
        0
102
RTVSPost2010PropOp40
 70
     0
102
RTVSPost2010Prop41ColorIndex
 90
       18
102
RTVSPost2010Prop41ColorRGB
 90
        0
102
RTVSPost2010PropOp41
 70
     0
102
RTVSPost2010Prop42
 90
       50
102
RTVSPost2010PropOp42
 70
     0
102
RTVSPost2010Prop43
 90
        3
102
RTVSPost2010PropOp43
 70
     0
102
RTVSPost2010Prop44ColorIndex
 90
        5
102
RTVSPost2010Prop44ColorRGB
 90
      255
102
RTVSPost2010PropOp44
 70
     0
102
RTVSPost2010Prop45
280
     0
102
RTVSPost2010PropOp45
 70
     1
102
RTVSPost2010Prop46
 90
       50
102
RTVSPost2010PropOp46
 70
     0
102
RTVSPost2010Prop47
 90
       50
102
RTVSPost2010PropOp47
 70
     0
102
RTVSPost2010Prop48
 90
       50
102
RTVSPost2010PropOp48
 70
     0
102
RTVSPost2010Prop49
280
     0
102
RTVSPost2010PropOp49
 70
     1
102
RTVSPost2010Prop50
 90
       50
102
RTVSPost2010PropOp50
 70
     0
102
RTVSPost2010Prop51ColorIndex
 90
      256
102
RTVSPost2010Prop51ColorRGB
 90
-16777216
102
RTVSPost2010PropOp51
 70
     0
102
RTVSPost2010Prop52
140
1.0
102
RTVSPost2010PropOp52
 70
     0
102
RTVSPost2010Prop53
 90
        2
102
RTVSPost2010PropOp53
 70
     0
102
RTVSPost2010Prop54
  1
strokes_ogs.tif
102
RTVSPost2010PropOp54
 70
     0
102
RTVSPost2010Prop55
280
     0
102
RTVSPost2010PropOp55
 70
     1
102
RTVSPost2010Prop56
140
1.0
102
RTVSPost2010PropOp56
 70
     0
102
RTVSPost2010Prop57
140
1.0
102
RTVSPost2010PropOp57
 70
     0
102
RTVSPropertyOp0
 70
     0
102
RTVSPropertyOp1
 70
     0
102
RTVSPropertyOp2
 70
     0
102
RTVSPropertyOp3
 70
     0
102
RTVSPropertyOp4
 70
     0
102
RTVSPropertyOp5
 70
     0
102
RTVSPropertyOp6
 70
     0
102
RTVSPropertyOp7
 70
     0
102
RTVSPropertyOp8
 70
     0
102
RTVSPropertyOp9
 70
     0
102
RTVSPropertyOp10
 70
     0
102
RTVSPropertyOp11
 70
     0
102
RTVSPropertyOp12
 70
     0
102
RTVSPropertyOp13
 70
     0
102
RTVSPropertyOp14
 70
     2
102
RTVSPropertyOp15
 70
     0
102
RTVSPropertyOp16
 70
     0
102
RTVSPropertyOp17
 70
     0
102
RTVSPropertyOp18
 70
     0
102
RTVSPropertyOp19
 70
     0
102
RTVSPropertyOp20
 70
     0
102
RTVSPropertyOp21
 70
     0
102
RTVSPropertyOp22
 70
     0
102
RTVSPropertyOp23
 70
     0
102
RTVSPropertyOp24
 70
     0
102
RTVSPropertyOp25
 70
     0
102
RTVSPropertyOp26
 70
     0
102
RTVSPropertyOp27
 70
     0
102
RTVSPropertyOp28
 70
     1
102
RTVSPropertyOp29
 70
     1
102
RTVSPropertyOp30
 70
     1
102
RTVSPropertyOp31
 70
     1
102
RTVSPropertyOp32
 70
     1
102
RTVSPropertyOp33
 70
     1
102
RTVSPropertyOp34
 70
     1
102
RTVSPropertyOp35
 70
     1
102
RTVSPropertyOp36
 70
     1
102
RTVSPropertyOp37
 70
     0
102
RTVSPropertyOp38
 70
     0
102
RTVSPropertyOp39
 70
     0
102
RTVSPropertyOp40
 70
     0
102
RTVSPropertyOp41
 70
     0
102
RTVSPropertyOp42
 70
     0
102
RTVSPropertyOp43
 70
     0
102
RTVSPropertyOp44
 70
     0
102
RTVSPropertyOp45
 70
     1
102
RTVSPropertyOp46
 70
     0
102
RTVSPropertyOp47
 70
     0
102
RTVSPropertyOp48
 70
     0
102
RTVSPropertyOp49
 70
     1
102
RTVSPropertyOp50
 70
     0
102
RTVSPropertyOp51
 70
     0
102
RTVSPropertyOp52
 70
     0
102
RTVSPropertyOp53
 70
     0
102
RTVSPropertyOp54
 70
     0
102
RTVSPropertyOp55
 70
     1
102
RTVSPropertyOp56
 70
     0
102
RTVSPropertyOp57
 70
     0
102
RTVSPropertyOp58
 70
     0
102
RTVSPropertyOp59
 70
     0
102
RTVSPropertyOp60
 70
     0
102
RTVSPropertyOp61
 70
     0
102
RTVSPropertyOp62
 70
     0
  0
XRECORD
  5
6C2
102
{ACAD_REACTORS
330
6C1
102
}
330
6C1
100
AcDbXrecord
280
     1
102
RTVSPost2010Prop28
280
     0
102
RTVSPost2010PropOp28
 70
     1
102
RTVSPost2010Prop29
280
     1
102
RTVSPost2010PropOp29
 70
     1
102
RTVSPost2010Prop30
280
     1
102
RTVSPost2010PropOp30
 70
     1
102
RTVSPost2010Prop31
280
     0
102
RTVSPost2010PropOp31
 70
     1
102
RTVSPost2010Prop32
280
     0
102
RTVSPost2010PropOp32
 70
     1
102
RTVSPost2010Prop33
280
     0
102
RTVSPost2010PropOp33
 70
     1
102
RTVSPost2010Prop34
280
     0
102
RTVSPost2010PropOp34
 70
     1
102
RTVSPost2010Prop35
280
     0
102
RTVSPost2010PropOp35
 70
     1
102
RTVSPost2010Prop36
280
     0
102
RTVSPost2010PropOp36
 70
     1
102
RTVSPost2010Prop37
 90
       50
102
RTVSPost2010PropOp37
 70
     1
102
RTVSPost2010Prop38
140
0.0
102
RTVSPost2010PropOp38
 70
     1
102
RTVSPost2010Prop39
140
1.0
102
RTVSPost2010PropOp39
 70
     1
102
RTVSPost2010Prop40
 90
        0
102
RTVSPost2010PropOp40
 70
     1
102
RTVSPost2010Prop41ColorIndex
 90
       18
102
RTVSPost2010Prop41ColorRGB
 90
        0
102
RTVSPost2010PropOp41
 70
     1
102
RTVSPost2010Prop42
 90
       50
102
RTVSPost2010PropOp42
 70
     1
102
RTVSPost2010Prop43
 90
        3
102
RTVSPost2010PropOp43
 70
     1
102
RTVSPost2010Prop44ColorIndex
 90
        5
102
RTVSPost2010Prop44ColorRGB
 90
      255
102
RTVSPost2010PropOp44
 70
     1
102
RTVSPost2010Prop45
280
     0
102
RTVSPost2010PropOp45
 70
     1
102
RTVSPost2010Prop46
 90
       50
102
RTVSPost2010PropOp46
 70
     1
102
RTVSPost2010Prop47
 90
       50
102
RTVSPost2010PropOp47
 70
     1
102
RTVSPost2010Prop48
 90
       50
102
RTVSPost2010PropOp48
 70
     1
102
RTVSPost2010Prop49
280
     0
102
RTVSPost2010PropOp49
 70
     1
102
RTVSPost2010Prop50
 90
       50
102
RTVSPost2010PropOp50
 70
     1
102
RTVSPost2010Prop51ColorIndex
 90
      256
102
RTVSPost2010Prop51ColorRGB
 90
-16777216
102
RTVSPost2010PropOp51
 70
     0
102
RTVSPost2010Prop52
140
1.0
102
RTVSPost2010PropOp52
 70
     0
102
RTVSPost2010Prop53
 90
        2
102
RTVSPost2010PropOp53
 70
     1
102
RTVSPost2010Prop54
  1
strokes_ogs.tif
102
RTVSPost2010PropOp54
 70
     1
102
RTVSPost2010Prop55
280
     0
102
RTVSPost2010PropOp55
 70
     1
102
RTVSPost2010Prop56
140
1.0
102
RTVSPost2010PropOp56
 70
     1
102
RTVSPost2010Prop57
140
1.0
102
RTVSPost2010PropOp57
 70
     1
102
RTVSPropertyOp0
 70
     1
102
RTVSPropertyOp1
 70
     1
102
RTVSPropertyOp2
 70
     1
102
RTVSPropertyOp3
 70
     1
102
RTVSPropertyOp4
 70
     1
102
RTVSPropertyOp5
 70
     1
102
RTVSPropertyOp6
 70
     1
102
RTVSPropertyOp7
 70
     1
102
RTVSPropertyOp8
 70
     1
102
RTVSPropertyOp9
 70
     1
102
RTVSPropertyOp10
 70
     1
102
RTVSPropertyOp11
 70
     1
102
RTVSPropertyOp12
 70
     1
102
RTVSPropertyOp13
 70
     1
102
RTVSPropertyOp14
 70
     1
102
RTVSPropertyOp15
 70
     1
102
RTVSPropertyOp16
 70
     1
102
RTVSPropertyOp17
 70
     1
102
RTVSPropertyOp18
 70
     1
102
RTVSPropertyOp19
 70
     1
102
RTVSPropertyOp20
 70
     1
102
RTVSPropertyOp21
 70
     1
102
RTVSPropertyOp22
 70
     1
102
RTVSPropertyOp23
 70
     1
102
RTVSPropertyOp24
 70
     1
102
RTVSPropertyOp25
 70
     1
102
RTVSPropertyOp26
 70
     1
102
RTVSPropertyOp27
 70
     1
102
RTVSPropertyOp28
 70
     1
102
RTVSPropertyOp29
 70
     1
102
RTVSPropertyOp30
 70
     1
102
RTVSPropertyOp31
 70
     1
102
RTVSPropertyOp32
 70
     1
102
RTVSPropertyOp33
 70
     1
102
RTVSPropertyOp34
 70
     1
102
RTVSPropertyOp35
 70
     1
102
RTVSPropertyOp36
 70
     1
102
RTVSPropertyOp37
 70
     1
102
RTVSPropertyOp38
 70
     1
102
RTVSPropertyOp39
 70
     1
102
RTVSPropertyOp40
 70
     1
102
RTVSPropertyOp41
 70
     1
102
RTVSPropertyOp42
 70
     1
102
RTVSPropertyOp43
 70
     1
102
RTVSPropertyOp44
 70
     1
102
RTVSPropertyOp45
 70
     1
102
RTVSPropertyOp46
 70
     1
102
RTVSPropertyOp47
 70
     1
102
RTVSPropertyOp48
 70
     1
102
RTVSPropertyOp49
 70
     1
102
RTVSPropertyOp50
 70
     1
102
RTVSPropertyOp51
 70
     0
102
RTVSPropertyOp52
 70
     0
102
RTVSPropertyOp53
 70
     1
102
RTVSPropertyOp54
 70
     1
102
RTVSPropertyOp55
 70
     1
102
RTVSPropertyOp56
 70
     1
102
RTVSPropertyOp57
 70
     1
102
RTVSPropertyOp58
 70
     1
102
RTVSPropertyOp59
 70
     1
102
RTVSPropertyOp60
 70
     1
102
RTVSPropertyOp61
 70
     1
102
RTVSPropertyOp62
 70
     1
  0
XRECORD
  5
6A6
102
{ACAD_REACTORS
330
6A5
102
}
330
6A5
100
AcDbXrecord
280
     1
102
RTVSPost2010Prop28
280
     0
102
RTVSPost2010PropOp28
 70
     1
102
RTVSPost2010Prop29
280
     1
102
RTVSPost2010PropOp29
 70
     1
102
RTVSPost2010Prop30
280
     1
102
RTVSPost2010PropOp30
 70
     1
102
RTVSPost2010Prop31
280
     0
102
RTVSPost2010PropOp31
 70
     1
102
RTVSPost2010Prop32
280
     0
102
RTVSPost2010PropOp32
 70
     1
102
RTVSPost2010Prop33
280
     0
102
RTVSPost2010PropOp33
 70
     1
102
RTVSPost2010Prop34
280
     0
102
RTVSPost2010PropOp34
 70
     1
102
RTVSPost2010Prop35
280
     0
102
RTVSPost2010PropOp35
 70
     1
102
RTVSPost2010Prop36
280
     0
102
RTVSPost2010PropOp36
 70
     1
102
RTVSPost2010Prop37
 90
       50
102
RTVSPost2010PropOp37
 70
     1
102
RTVSPost2010Prop38
140
0.0
102
RTVSPost2010PropOp38
 70
     1
102
RTVSPost2010Prop39
140
1.0
102
RTVSPost2010PropOp39
 70
     1
102
RTVSPost2010Prop40
 90
        0
102
RTVSPost2010PropOp40
 70
     1
102
RTVSPost2010Prop41ColorIndex
 90
       18
102
RTVSPost2010Prop41ColorRGB
 90
        0
102
RTVSPost2010PropOp41
 70
     1
102
RTVSPost2010Prop42
 90
       50
102
RTVSPost2010PropOp42
 70
     1
102
RTVSPost2010Prop43
 90
        3
102
RTVSPost2010PropOp43
 70
     1
102
RTVSPost2010Prop44ColorIndex
 90
        5
102
RTVSPost2010Prop44ColorRGB
 90
      255
102
RTVSPost2010PropOp44
 70
     1
102
RTVSPost2010Prop45
280
     0
102
RTVSPost2010PropOp45
 70
     1
102
RTVSPost2010Prop46
 90
       50
102
RTVSPost2010PropOp46
 70
     1
102
RTVSPost2010Prop47
 90
       50
102
RTVSPost2010PropOp47
 70
     1
102
RTVSPost2010Prop48
 90
       50
102
RTVSPost2010PropOp48
 70
     1
102
RTVSPost2010Prop49
280
     0
102
RTVSPost2010PropOp49
 70
     1
102
RTVSPost2010Prop50
 90
       50
102
RTVSPost2010PropOp50
 70
     1
102
RTVSPost2010Prop51ColorIndex
 90
      256
102
RTVSPost2010Prop51ColorRGB
 90
-16777216
102
RTVSPost2010PropOp51
 70
     0
102
RTVSPost2010Prop52
140
1.0
102
RTVSPost2010PropOp52
 70
     0
102
RTVSPost2010Prop53
 90
        2
102
RTVSPost2010PropOp53
 70
     1
102
RTVSPost2010Prop54
  1
strokes_ogs.tif
102
RTVSPost2010PropOp54
 70
     1
102
RTVSPost2010Prop55
280
     0
102
RTVSPost2010PropOp55
 70
     1
102
RTVSPost2010Prop56
140
1.0
102
RTVSPost2010PropOp56
 70
     1
102
RTVSPost2010Prop57
140
1.0
102
RTVSPost2010PropOp57
 70
     1
102
RTVSPropertyOp0
 70
     1
102
RTVSPropertyOp1
 70
     1
102
RTVSPropertyOp2
 70
     1
102
RTVSPropertyOp3
 70
     1
102
RTVSPropertyOp4
 70
     1
102
RTVSPropertyOp5
 70
     1
102
RTVSPropertyOp6
 70
     1
102
RTVSPropertyOp7
 70
     1
102
RTVSPropertyOp8
 70
     1
102
RTVSPropertyOp9
 70
     1
102
RTVSPropertyOp10
 70
     1
102
RTVSPropertyOp11
 70
     1
102
RTVSPropertyOp12
 70
     1
102
RTVSPropertyOp13
 70
     1
102
RTVSPropertyOp14
 70
     1
102
RTVSPropertyOp15
 70
     1
102
RTVSPropertyOp16
 70
     1
102
RTVSPropertyOp17
 70
     1
102
RTVSPropertyOp18
 70
     1
102
RTVSPropertyOp19
 70
     1
102
RTVSPropertyOp20
 70
     1
102
RTVSPropertyOp21
 70
     1
102
RTVSPropertyOp22
 70
     1
102
RTVSPropertyOp23
 70
     1
102
RTVSPropertyOp24
 70
     1
102
RTVSPropertyOp25
 70
     1
102
RTVSPropertyOp26
 70
     1
102
RTVSPropertyOp27
 70
     1
102
RTVSPropertyOp28
 70
     1
102
RTVSPropertyOp29
 70
     1
102
RTVSPropertyOp30
 70
     1
102
RTVSPropertyOp31
 70
     1
102
RTVSPropertyOp32
 70
     1
102
RTVSPropertyOp33
 70
     1
102
RTVSPropertyOp34
 70
     1
102
RTVSPropertyOp35
 70
     1
102
RTVSPropertyOp36
 70
     1
102
RTVSPropertyOp37
 70
     1
102
RTVSPropertyOp38
 70
     1
102
RTVSPropertyOp39
 70
     1
102
RTVSPropertyOp40
 70
     1
102
RTVSPropertyOp41
 70
     1
102
RTVSPropertyOp42
 70
     1
102
RTVSPropertyOp43
 70
     1
102
RTVSPropertyOp44
 70
     1
102
RTVSPropertyOp45
 70
     1
102
RTVSPropertyOp46
 70
     1
102
RTVSPropertyOp47
 70
     1
102
RTVSPropertyOp48
 70
     1
102
RTVSPropertyOp49
 70
     1
102
RTVSPropertyOp50
 70
     1
102
RTVSPropertyOp51
 70
     0
102
RTVSPropertyOp52
 70
     0
102
RTVSPropertyOp53
 70
     1
102
RTVSPropertyOp54
 70
     1
102
RTVSPropertyOp55
 70
     1
102
RTVSPropertyOp56
 70
     1
102
RTVSPropertyOp57
 70
     1
102
RTVSPropertyOp58
 70
     1
102
RTVSPropertyOp59
 70
     1
102
RTVSPropertyOp60
 70
     1
102
RTVSPropertyOp61
 70
     1
102
RTVSPropertyOp62
 70
     1
  0
XRECORD
  5
6A8
102
{ACAD_REACTORS
330
6A7
102
}
330
6A7
100
AcDbXrecord
280
     1
102
RTVSPost2010Prop28
280
     0
102
RTVSPost2010PropOp28
 70
     1
102
RTVSPost2010Prop29
280
     1
102
RTVSPost2010PropOp29
 70
     1
102
RTVSPost2010Prop30
280
     1
102
RTVSPost2010PropOp30
 70
     1
102
RTVSPost2010Prop31
280
     0
102
RTVSPost2010PropOp31
 70
     1
102
RTVSPost2010Prop32
280
     0
102
RTVSPost2010PropOp32
 70
     1
102
RTVSPost2010Prop33
280
     0
102
RTVSPost2010PropOp33
 70
     1
102
RTVSPost2010Prop34
280
     0
102
RTVSPost2010PropOp34
 70
     1
102
RTVSPost2010Prop35
280
     0
102
RTVSPost2010PropOp35
 70
     1
102
RTVSPost2010Prop36
280
     0
102
RTVSPost2010PropOp36
 70
     1
102
RTVSPost2010Prop37
 90
       50
102
RTVSPost2010PropOp37
 70
     1
102
RTVSPost2010Prop38
140
0.0
102
RTVSPost2010PropOp38
 70
     1
102
RTVSPost2010Prop39
140
1.0
102
RTVSPost2010PropOp39
 70
     1
102
RTVSPost2010Prop40
 90
        0
102
RTVSPost2010PropOp40
 70
     1
102
RTVSPost2010Prop41ColorIndex
 90
       18
102
RTVSPost2010Prop41ColorRGB
 90
        0
102
RTVSPost2010PropOp41
 70
     1
102
RTVSPost2010Prop42
 90
       50
102
RTVSPost2010PropOp42
 70
     1
102
RTVSPost2010Prop43
 90
        3
102
RTVSPost2010PropOp43
 70
     1
102
RTVSPost2010Prop44ColorIndex
 90
        5
102
RTVSPost2010Prop44ColorRGB
 90
      255
102
RTVSPost2010PropOp44
 70
     1
102
RTVSPost2010Prop45
280
     0
102
RTVSPost2010PropOp45
 70
     1
102
RTVSPost2010Prop46
 90
       50
102
RTVSPost2010PropOp46
 70
     1
102
RTVSPost2010Prop47
 90
       50
102
RTVSPost2010PropOp47
 70
     1
102
RTVSPost2010Prop48
 90
       50
102
RTVSPost2010PropOp48
 70
     1
102
RTVSPost2010Prop49
280
     0
102
RTVSPost2010PropOp49
 70
     1
102
RTVSPost2010Prop50
 90
       50
102
RTVSPost2010PropOp50
 70
     1
102
RTVSPost2010Prop51ColorIndex
 90
      256
102
RTVSPost2010Prop51ColorRGB
 90
-16777216
102
RTVSPost2010PropOp51
 70
     0
102
RTVSPost2010Prop52
140
1.0
102
RTVSPost2010PropOp52
 70
     0
102
RTVSPost2010Prop53
 90
        2
102
RTVSPost2010PropOp53
 70
     1
102
RTVSPost2010Prop54
  1
strokes_ogs.tif
102
RTVSPost2010PropOp54
 70
     1
102
RTVSPost2010Prop55
280
     0
102
RTVSPost2010PropOp55
 70
     1
102
RTVSPost2010Prop56
140
1.0
102
RTVSPost2010PropOp56
 70
     1
102
RTVSPost2010Prop57
140
1.0
102
RTVSPost2010PropOp57
 70
     1
102
RTVSPropertyOp0
 70
     1
102
RTVSPropertyOp1
 70
     1
102
RTVSPropertyOp2
 70
     1
102
RTVSPropertyOp3
 70
     1
102
RTVSPropertyOp4
 70
     1
102
RTVSPropertyOp5
 70
     1
102
RTVSPropertyOp6
 70
     1
102
RTVSPropertyOp7
 70
     1
102
RTVSPropertyOp8
 70
     1
102
RTVSPropertyOp9
 70
     1
102
RTVSPropertyOp10
 70
     1
102
RTVSPropertyOp11
 70
     1
102
RTVSPropertyOp12
 70
     1
102
RTVSPropertyOp13
 70
     1
102
RTVSPropertyOp14
 70
     1
102
RTVSPropertyOp15
 70
     1
102
RTVSPropertyOp16
 70
     1
102
RTVSPropertyOp17
 70
     1
102
RTVSPropertyOp18
 70
     1
102
RTVSPropertyOp19
 70
     1
102
RTVSPropertyOp20
 70
     1
102
RTVSPropertyOp21
 70
     1
102
RTVSPropertyOp22
 70
     1
102
RTVSPropertyOp23
 70
     1
102
RTVSPropertyOp24
 70
     1
102
RTVSPropertyOp25
 70
     1
102
RTVSPropertyOp26
 70
     1
102
RTVSPropertyOp27
 70
     1
102
RTVSPropertyOp28
 70
     1
102
RTVSPropertyOp29
 70
     1
102
RTVSPropertyOp30
 70
     1
102
RTVSPropertyOp31
 70
     1
102
RTVSPropertyOp32
 70
     1
102
RTVSPropertyOp33
 70
     1
102
RTVSPropertyOp34
 70
     1
102
RTVSPropertyOp35
 70
     1
102
RTVSPropertyOp36
 70
     1
102
RTVSPropertyOp37
 70
     1
102
RTVSPropertyOp38
 70
     1
102
RTVSPropertyOp39
 70
     1
102
RTVSPropertyOp40
 70
     1
102
RTVSPropertyOp41
 70
     1
102
RTVSPropertyOp42
 70
     1
102
RTVSPropertyOp43
 70
     1
102
RTVSPropertyOp44
 70
     1
102
RTVSPropertyOp45
 70
     1
102
RTVSPropertyOp46
 70
     1
102
RTVSPropertyOp47
 70
     1
102
RTVSPropertyOp48
 70
     1
102
RTVSPropertyOp49
 70
     1
102
RTVSPropertyOp50
 70
     1
102
RTVSPropertyOp51
 70
     0
102
RTVSPropertyOp52
 70
     0
102
RTVSPropertyOp53
 70
     1
102
RTVSPropertyOp54
 70
     1
102
RTVSPropertyOp55
 70
     1
102
RTVSPropertyOp56
 70
     1
102
RTVSPropertyOp57
 70
     1
102
RTVSPropertyOp58
 70
     1
102
RTVSPropertyOp59
 70
     1
102
RTVSPropertyOp60
 70
     1
102
RTVSPropertyOp61
 70
     1
102
RTVSPropertyOp62
 70
     1
  0
XRECORD
  5
6AA
102
{ACAD_REACTORS
330
6A9
102
}
330
6A9
100
AcDbXrecord
280
     1
102
RTVSPost2010Prop28
280
     0
102
RTVSPost2010PropOp28
 70
     1
102
RTVSPost2010Prop29
280
     1
102
RTVSPost2010PropOp29
 70
     1
102
RTVSPost2010Prop30
280
     1
102
RTVSPost2010PropOp30
 70
     1
102
RTVSPost2010Prop31
280
     0
102
RTVSPost2010PropOp31
 70
     1
102
RTVSPost2010Prop32
280
     0
102
RTVSPost2010PropOp32
 70
     1
102
RTVSPost2010Prop33
280
     0
102
RTVSPost2010PropOp33
 70
     1
102
RTVSPost2010Prop34
280
     0
102
RTVSPost2010PropOp34
 70
     1
102
RTVSPost2010Prop35
280
     0
102
RTVSPost2010PropOp35
 70
     1
102
RTVSPost2010Prop36
280
     0
102
RTVSPost2010PropOp36
 70
     1
102
RTVSPost2010Prop37
 90
       50
102
RTVSPost2010PropOp37
 70
     1
102
RTVSPost2010Prop38
140
0.0
102
RTVSPost2010PropOp38
 70
     1
102
RTVSPost2010Prop39
140
1.0
102
RTVSPost2010PropOp39
 70
     1
102
RTVSPost2010Prop40
 90
        0
102
RTVSPost2010PropOp40
 70
     1
102
RTVSPost2010Prop41ColorIndex
 90
       18
102
RTVSPost2010Prop41ColorRGB
 90
        0
102
RTVSPost2010PropOp41
 70
     1
102
RTVSPost2010Prop42
 90
       50
102
RTVSPost2010PropOp42
 70
     1
102
RTVSPost2010Prop43
 90
        3
102
RTVSPost2010PropOp43
 70
     1
102
RTVSPost2010Prop44ColorIndex
 90
        5
102
RTVSPost2010Prop44ColorRGB
 90
      255
102
RTVSPost2010PropOp44
 70
     1
102
RTVSPost2010Prop45
280
     0
102
RTVSPost2010PropOp45
 70
     1
102
RTVSPost2010Prop46
 90
       50
102
RTVSPost2010PropOp46
 70
     1
102
RTVSPost2010Prop47
 90
       50
102
RTVSPost2010PropOp47
 70
     1
102
RTVSPost2010Prop48
 90
       50
102
RTVSPost2010PropOp48
 70
     1
102
RTVSPost2010Prop49
280
     0
102
RTVSPost2010PropOp49
 70
     1
102
RTVSPost2010Prop50
 90
       50
102
RTVSPost2010PropOp50
 70
     1
102
RTVSPost2010Prop51ColorIndex
 90
      256
102
RTVSPost2010Prop51ColorRGB
 90
-16777216
102
RTVSPost2010PropOp51
 70
     0
102
RTVSPost2010Prop52
140
1.0
102
RTVSPost2010PropOp52
 70
     0
102
RTVSPost2010Prop53
 90
        2
102
RTVSPost2010PropOp53
 70
     1
102
RTVSPost2010Prop54
  1
strokes_ogs.tif
102
RTVSPost2010PropOp54
 70
     1
102
RTVSPost2010Prop55
280
     0
102
RTVSPost2010PropOp55
 70
     1
102
RTVSPost2010Prop56
140
1.0
102
RTVSPost2010PropOp56
 70
     1
102
RTVSPost2010Prop57
140
1.0
102
RTVSPost2010PropOp57
 70
     1
102
RTVSPropertyOp0
 70
     1
102
RTVSPropertyOp1
 70
     1
102
RTVSPropertyOp2
 70
     1
102
RTVSPropertyOp3
 70
     1
102
RTVSPropertyOp4
 70
     1
102
RTVSPropertyOp5
 70
     1
102
RTVSPropertyOp6
 70
     1
102
RTVSPropertyOp7
 70
     1
102
RTVSPropertyOp8
 70
     1
102
RTVSPropertyOp9
 70
     1
102
RTVSPropertyOp10
 70
     1
102
RTVSPropertyOp11
 70
     1
102
RTVSPropertyOp12
 70
     1
102
RTVSPropertyOp13
 70
     1
102
RTVSPropertyOp14
 70
     1
102
RTVSPropertyOp15
 70
     1
102
RTVSPropertyOp16
 70
     1
102
RTVSPropertyOp17
 70
     1
102
RTVSPropertyOp18
 70
     1
102
RTVSPropertyOp19
 70
     1
102
RTVSPropertyOp20
 70
     1
102
RTVSPropertyOp21
 70
     1
102
RTVSPropertyOp22
 70
     1
102
RTVSPropertyOp23
 70
     1
102
RTVSPropertyOp24
 70
     1
102
RTVSPropertyOp25
 70
     1
102
RTVSPropertyOp26
 70
     1
102
RTVSPropertyOp27
 70
     1
102
RTVSPropertyOp28
 70
     1
102
RTVSPropertyOp29
 70
     1
102
RTVSPropertyOp30
 70
     1
102
RTVSPropertyOp31
 70
     1
102
RTVSPropertyOp32
 70
     1
102
RTVSPropertyOp33
 70
     1
102
RTVSPropertyOp34
 70
     1
102
RTVSPropertyOp35
 70
     1
102
RTVSPropertyOp36
 70
     1
102
RTVSPropertyOp37
 70
     1
102
RTVSPropertyOp38
 70
     1
102
RTVSPropertyOp39
 70
     1
102
RTVSPropertyOp40
 70
     1
102
RTVSPropertyOp41
 70
     1
102
RTVSPropertyOp42
 70
     1
102
RTVSPropertyOp43
 70
     1
102
RTVSPropertyOp44
 70
     1
102
RTVSPropertyOp45
 70
     1
102
RTVSPropertyOp46
 70
     1
102
RTVSPropertyOp47
 70
     1
102
RTVSPropertyOp48
 70
     1
102
RTVSPropertyOp49
 70
     1
102
RTVSPropertyOp50
 70
     1
102
RTVSPropertyOp51
 70
     0
102
RTVSPropertyOp52
 70
     0
102
RTVSPropertyOp53
 70
     1
102
RTVSPropertyOp54
 70
     1
102
RTVSPropertyOp55
 70
     1
102
RTVSPropertyOp56
 70
     1
102
RTVSPropertyOp57
 70
     1
102
RTVSPropertyOp58
 70
     1
102
RTVSPropertyOp59
 70
     1
102
RTVSPropertyOp60
 70
     1
102
RTVSPropertyOp61
 70
     1
102
RTVSPropertyOp62
 70
     1
  0
XRECORD
  5
6AC
102
{ACAD_REACTORS
330
6AB
102
}
330
6AB
100
AcDbXrecord
280
     1
102
RTVSPost2010Prop28
280
     0
102
RTVSPost2010PropOp28
 70
     1
102
RTVSPost2010Prop29
280
     1
102
RTVSPost2010PropOp29
 70
     1
102
RTVSPost2010Prop30
280
     1
102
RTVSPost2010PropOp30
 70
     1
102
RTVSPost2010Prop31
280
     0
102
RTVSPost2010PropOp31
 70
     1
102
RTVSPost2010Prop32
280
     0
102
RTVSPost2010PropOp32
 70
     1
102
RTVSPost2010Prop33
280
     0
102
RTVSPost2010PropOp33
 70
     1
102
RTVSPost2010Prop34
280
     0
102
RTVSPost2010PropOp34
 70
     1
102
RTVSPost2010Prop35
280
     0
102
RTVSPost2010PropOp35
 70
     1
102
RTVSPost2010Prop36
280
     0
102
RTVSPost2010PropOp36
 70
     1
102
RTVSPost2010Prop37
 90
       50
102
RTVSPost2010PropOp37
 70
     1
102
RTVSPost2010Prop38
140
0.0
102
RTVSPost2010PropOp38
 70
     1
102
RTVSPost2010Prop39
140
1.0
102
RTVSPost2010PropOp39
 70
     1
102
RTVSPost2010Prop40
 90
        0
102
RTVSPost2010PropOp40
 70
     1
102
RTVSPost2010Prop41ColorIndex
 90
       18
102
RTVSPost2010Prop41ColorRGB
 90
        0
102
RTVSPost2010PropOp41
 70
     1
102
RTVSPost2010Prop42
 90
       50
102
RTVSPost2010PropOp42
 70
     1
102
RTVSPost2010Prop43
 90
        3
102
RTVSPost2010PropOp43
 70
     1
102
RTVSPost2010Prop44ColorIndex
 90
        5
102
RTVSPost2010Prop44ColorRGB
 90
      255
102
RTVSPost2010PropOp44
 70
     1
102
RTVSPost2010Prop45
280
     0
102
RTVSPost2010PropOp45
 70
     1
102
RTVSPost2010Prop46
 90
       50
102
RTVSPost2010PropOp46
 70
     1
102
RTVSPost2010Prop47
 90
       50
102
RTVSPost2010PropOp47
 70
     1
102
RTVSPost2010Prop48
 90
       50
102
RTVSPost2010PropOp48
 70
     1
102
RTVSPost2010Prop49
280
     0
102
RTVSPost2010PropOp49
 70
     1
102
RTVSPost2010Prop50
 90
       50
102
RTVSPost2010PropOp50
 70
     1
102
RTVSPost2010Prop51ColorIndex
 90
      256
102
RTVSPost2010Prop51ColorRGB
 90
-16777216
102
RTVSPost2010PropOp51
 70
     0
102
RTVSPost2010Prop52
140
1.0
102
RTVSPost2010PropOp52
 70
     0
102
RTVSPost2010Prop53
 90
        2
102
RTVSPost2010PropOp53
 70
     1
102
RTVSPost2010Prop54
  1
strokes_ogs.tif
102
RTVSPost2010PropOp54
 70
     1
102
RTVSPost2010Prop55
280
     0
102
RTVSPost2010PropOp55
 70
     1
102
RTVSPost2010Prop56
140
1.0
102
RTVSPost2010PropOp56
 70
     1
102
RTVSPost2010Prop57
140
1.0
102
RTVSPost2010PropOp57
 70
     1
102
RTVSPropertyOp0
 70
     1
102
RTVSPropertyOp1
 70
     1
102
RTVSPropertyOp2
 70
     1
102
RTVSPropertyOp3
 70
     1
102
RTVSPropertyOp4
 70
     1
102
RTVSPropertyOp5
 70
     1
102
RTVSPropertyOp6
 70
     1
102
RTVSPropertyOp7
 70
     1
102
RTVSPropertyOp8
 70
     1
102
RTVSPropertyOp9
 70
     1
102
RTVSPropertyOp10
 70
     1
102
RTVSPropertyOp11
 70
     1
102
RTVSPropertyOp12
 70
     1
102
RTVSPropertyOp13
 70
     1
102
RTVSPropertyOp14
 70
     1
102
RTVSPropertyOp15
 70
     1
102
RTVSPropertyOp16
 70
     1
102
RTVSPropertyOp17
 70
     1
102
RTVSPropertyOp18
 70
     1
102
RTVSPropertyOp19
 70
     1
102
RTVSPropertyOp20
 70
     1
102
RTVSPropertyOp21
 70
     1
102
RTVSPropertyOp22
 70
     1
102
RTVSPropertyOp23
 70
     1
102
RTVSPropertyOp24
 70
     1
102
RTVSPropertyOp25
 70
     1
102
RTVSPropertyOp26
 70
     1
102
RTVSPropertyOp27
 70
     1
102
RTVSPropertyOp28
 70
     1
102
RTVSPropertyOp29
 70
     1
102
RTVSPropertyOp30
 70
     1
102
RTVSPropertyOp31
 70
     1
102
RTVSPropertyOp32
 70
     1
102
RTVSPropertyOp33
 70
     1
102
RTVSPropertyOp34
 70
     1
102
RTVSPropertyOp35
 70
     1
102
RTVSPropertyOp36
 70
     1
102
RTVSPropertyOp37
 70
     1
102
RTVSPropertyOp38
 70
     1
102
RTVSPropertyOp39
 70
     1
102
RTVSPropertyOp40
 70
     1
102
RTVSPropertyOp41
 70
     1
102
RTVSPropertyOp42
 70
     1
102
RTVSPropertyOp43
 70
     1
102
RTVSPropertyOp44
 70
     1
102
RTVSPropertyOp45
 70
     1
102
RTVSPropertyOp46
 70
     1
102
RTVSPropertyOp47
 70
     1
102
RTVSPropertyOp48
 70
     1
102
RTVSPropertyOp49
 70
     1
102
RTVSPropertyOp50
 70
     1
102
RTVSPropertyOp51
 70
     0
102
RTVSPropertyOp52
 70
     0
102
RTVSPropertyOp53
 70
     1
102
RTVSPropertyOp54
 70
     1
102
RTVSPropertyOp55
 70
     1
102
RTVSPropertyOp56
 70
     1
102
RTVSPropertyOp57
 70
     1
102
RTVSPropertyOp58
 70
     1
102
RTVSPropertyOp59
 70
     1
102
RTVSPropertyOp60
 70
     1
102
RTVSPropertyOp61
 70
     1
102
RTVSPropertyOp62
 70
     1
  0
XRECORD
  5
6B4
102
{ACAD_REACTORS
330
6B3
102
}
330
6B3
100
AcDbXrecord
280
     1
102
RTVSPost2010Prop28
280
     0
102
RTVSPost2010PropOp28
 70
     1
102
RTVSPost2010Prop29
280
     1
102
RTVSPost2010PropOp29
 70
     1
102
RTVSPost2010Prop30
280
     1
102
RTVSPost2010PropOp30
 70
     1
102
RTVSPost2010Prop31
280
     0
102
RTVSPost2010PropOp31
 70
     1
102
RTVSPost2010Prop32
280
     0
102
RTVSPost2010PropOp32
 70
     1
102
RTVSPost2010Prop33
280
     0
102
RTVSPost2010PropOp33
 70
     1
102
RTVSPost2010Prop34
280
     0
102
RTVSPost2010PropOp34
 70
     1
102
RTVSPost2010Prop35
280
     0
102
RTVSPost2010PropOp35
 70
     1
102
RTVSPost2010Prop36
280
     0
102
RTVSPost2010PropOp36
 70
     1
102
RTVSPost2010Prop37
 90
       50
102
RTVSPost2010PropOp37
 70
     1
102
RTVSPost2010Prop38
140
0.0
102
RTVSPost2010PropOp38
 70
     1
102
RTVSPost2010Prop39
140
1.0
102
RTVSPost2010PropOp39
 70
     1
102
RTVSPost2010Prop40
 90
        0
102
RTVSPost2010PropOp40
 70
     1
102
RTVSPost2010Prop41ColorIndex
 90
       18
102
RTVSPost2010Prop41ColorRGB
 90
        0
102
RTVSPost2010PropOp41
 70
     1
102
RTVSPost2010Prop42
 90
       50
102
RTVSPost2010PropOp42
 70
     1
102
RTVSPost2010Prop43
 90
        3
102
RTVSPost2010PropOp43
 70
     1
102
RTVSPost2010Prop44ColorIndex
 90
        5
102
RTVSPost2010Prop44ColorRGB
 90
      255
102
RTVSPost2010PropOp44
 70
     1
102
RTVSPost2010Prop45
280
     0
102
RTVSPost2010PropOp45
 70
     1
102
RTVSPost2010Prop46
 90
       50
102
RTVSPost2010PropOp46
 70
     1
102
RTVSPost2010Prop47
 90
       50
102
RTVSPost2010PropOp47
 70
     1
102
RTVSPost2010Prop48
 90
       50
102
RTVSPost2010PropOp48
 70
     1
102
RTVSPost2010Prop49
280
     0
102
RTVSPost2010PropOp49
 70
     1
102
RTVSPost2010Prop50
 90
       50
102
RTVSPost2010PropOp50
 70
     1
102
RTVSPost2010Prop51ColorIndex
 90
      256
102
RTVSPost2010Prop51ColorRGB
 90
-16777216
102
RTVSPost2010PropOp51
 70
     0
102
RTVSPost2010Prop52
140
1.0
102
RTVSPost2010PropOp52
 70
     0
102
RTVSPost2010Prop53
 90
        2
102
RTVSPost2010PropOp53
 70
     1
102
RTVSPost2010Prop54
  1
strokes_ogs.tif
102
RTVSPost2010PropOp54
 70
     1
102
RTVSPost2010Prop55
280
     0
102
RTVSPost2010PropOp55
 70
     1
102
RTVSPost2010Prop56
140
1.0
102
RTVSPost2010PropOp56
 70
     1
102
RTVSPost2010Prop57
140
1.0
102
RTVSPost2010PropOp57
 70
     1
102
RTVSPropertyOp0
 70
     1
102
RTVSPropertyOp1
 70
     1
102
RTVSPropertyOp2
 70
     1
102
RTVSPropertyOp3
 70
     1
102
RTVSPropertyOp4
 70
     1
102
RTVSPropertyOp5
 70
     1
102
RTVSPropertyOp6
 70
     1
102
RTVSPropertyOp7
 70
     1
102
RTVSPropertyOp8
 70
     1
102
RTVSPropertyOp9
 70
     1
102
RTVSPropertyOp10
 70
     1
102
RTVSPropertyOp11
 70
     1
102
RTVSPropertyOp12
 70
     1
102
RTVSPropertyOp13
 70
     1
102
RTVSPropertyOp14
 70
     1
102
RTVSPropertyOp15
 70
     1
102
RTVSPropertyOp16
 70
     1
102
RTVSPropertyOp17
 70
     1
102
RTVSPropertyOp18
 70
     1
102
RTVSPropertyOp19
 70
     1
102
RTVSPropertyOp20
 70
     1
102
RTVSPropertyOp21
 70
     1
102
RTVSPropertyOp22
 70
     1
102
RTVSPropertyOp23
 70
     1
102
RTVSPropertyOp24
 70
     1
102
RTVSPropertyOp25
 70
     1
102
RTVSPropertyOp26
 70
     1
102
RTVSPropertyOp27
 70
     1
102
RTVSPropertyOp28
 70
     1
102
RTVSPropertyOp29
 70
     1
102
RTVSPropertyOp30
 70
     1
102
RTVSPropertyOp31
 70
     1
102
RTVSPropertyOp32
 70
     1
102
RTVSPropertyOp33
 70
     1
102
RTVSPropertyOp34
 70
     1
102
RTVSPropertyOp35
 70
     1
102
RTVSPropertyOp36
 70
     1
102
RTVSPropertyOp37
 70
     1
102
RTVSPropertyOp38
 70
     1
102
RTVSPropertyOp39
 70
     1
102
RTVSPropertyOp40
 70
     1
102
RTVSPropertyOp41
 70
     1
102
RTVSPropertyOp42
 70
     1
102
RTVSPropertyOp43
 70
     1
102
RTVSPropertyOp44
 70
     1
102
RTVSPropertyOp45
 70
     1
102
RTVSPropertyOp46
 70
     1
102
RTVSPropertyOp47
 70
     1
102
RTVSPropertyOp48
 70
     1
102
RTVSPropertyOp49
 70
     1
102
RTVSPropertyOp50
 70
     1
102
RTVSPropertyOp51
 70
     0
102
RTVSPropertyOp52
 70
     0
102
RTVSPropertyOp53
 70
     1
102
RTVSPropertyOp54
 70
     1
102
RTVSPropertyOp55
 70
     1
102
RTVSPropertyOp56
 70
     1
102
RTVSPropertyOp57
 70
     1
102
RTVSPropertyOp58
 70
     1
102
RTVSPropertyOp59
 70
     1
102
RTVSPropertyOp60
 70
     1
102
RTVSPropertyOp61
 70
     1
102
RTVSPropertyOp62
 70
     1
  0
XRECORD
  5
6D0
102
{ACAD_REACTORS
330
6CF
102
}
330
6CF
100
AcDbXrecord
280
     1
102
RTVSPost2010Prop28
280
     0
102
RTVSPost2010PropOp28
 70
     1
102
RTVSPost2010Prop29
280
     1
102
RTVSPost2010PropOp29
 70
     1
102
RTVSPost2010Prop30
280
     1
102
RTVSPost2010PropOp30
 70
     1
102
RTVSPost2010Prop31
280
     0
102
RTVSPost2010PropOp31
 70
     1
102
RTVSPost2010Prop32
280
     0
102
RTVSPost2010PropOp32
 70
     1
102
RTVSPost2010Prop33
280
     0
102
RTVSPost2010PropOp33
 70
     1
102
RTVSPost2010Prop34
280
     0
102
RTVSPost2010PropOp34
 70
     1
102
RTVSPost2010Prop35
280
     0
102
RTVSPost2010PropOp35
 70
     1
102
RTVSPost2010Prop36
280
     0
102
RTVSPost2010PropOp36
 70
     1
102
RTVSPost2010Prop37
 90
       50
102
RTVSPost2010PropOp37
 70
     0
102
RTVSPost2010Prop38
140
0.0
102
RTVSPost2010PropOp38
 70
     0
102
RTVSPost2010Prop39
140
1.0
102
RTVSPost2010PropOp39
 70
     0
102
RTVSPost2010Prop40
 90
        0
102
RTVSPost2010PropOp40
 70
     0
102
RTVSPost2010Prop41ColorIndex
 90
       18
102
RTVSPost2010Prop41ColorRGB
 90
        0
102
RTVSPost2010PropOp41
 70
     0
102
RTVSPost2010Prop42
 90
       50
102
RTVSPost2010PropOp42
 70
     0
102
RTVSPost2010Prop43
 90
        3
102
RTVSPost2010PropOp43
 70
     0
102
RTVSPost2010Prop44ColorIndex
 90
        5
102
RTVSPost2010Prop44ColorRGB
 90
      255
102
RTVSPost2010PropOp44
 70
     0
102
RTVSPost2010Prop45
280
     0
102
RTVSPost2010PropOp45
 70
     1
102
RTVSPost2010Prop46
 90
       50
102
RTVSPost2010PropOp46
 70
     0
102
RTVSPost2010Prop47
 90
       50
102
RTVSPost2010PropOp47
 70
     0
102
RTVSPost2010Prop48
 90
       50
102
RTVSPost2010PropOp48
 70
     0
102
RTVSPost2010Prop49
280
     0
102
RTVSPost2010PropOp49
 70
     1
102
RTVSPost2010Prop50
 90
       50
102
RTVSPost2010PropOp50
 70
     0
102
RTVSPost2010Prop51ColorIndex
 90
      256
102
RTVSPost2010Prop51ColorRGB
 90
-16777216
102
RTVSPost2010PropOp51
 70
     0
102
RTVSPost2010Prop52
140
1.0
102
RTVSPost2010PropOp52
 70
     0
102
RTVSPost2010Prop53
 90
        2
102
RTVSPost2010PropOp53
 70
     0
102
RTVSPost2010Prop54
  1
strokes_ogs.tif
102
RTVSPost2010PropOp54
 70
     0
102
RTVSPost2010Prop55
280
     0
102
RTVSPost2010PropOp55
 70
     1
102
RTVSPost2010Prop56
140
1.0
102
RTVSPost2010PropOp56
 70
     0
102
RTVSPost2010Prop57
140
1.0
102
RTVSPost2010PropOp57
 70
     0
102
RTVSPropertyOp0
 70
     0
102
RTVSPropertyOp1
 70
     0
102
RTVSPropertyOp2
 70
     0
102
RTVSPropertyOp3
 70
     0
102
RTVSPropertyOp4
 70
     0
102
RTVSPropertyOp5
 70
     0
102
RTVSPropertyOp6
 70
     0
102
RTVSPropertyOp7
 70
     0
102
RTVSPropertyOp8
 70
     0
102
RTVSPropertyOp9
 70
     0
102
RTVSPropertyOp10
 70
     0
102
RTVSPropertyOp11
 70
     0
102
RTVSPropertyOp12
 70
     0
102
RTVSPropertyOp13
 70
     0
102
RTVSPropertyOp14
 70
     2
102
RTVSPropertyOp15
 70
     0
102
RTVSPropertyOp16
 70
     0
102
RTVSPropertyOp17
 70
     0
102
RTVSPropertyOp18
 70
     0
102
RTVSPropertyOp19
 70
     0
102
RTVSPropertyOp20
 70
     0
102
RTVSPropertyOp21
 70
     0
102
RTVSPropertyOp22
 70
     0
102
RTVSPropertyOp23
 70
     0
102
RTVSPropertyOp24
 70
     0
102
RTVSPropertyOp25
 70
     0
102
RTVSPropertyOp26
 70
     0
102
RTVSPropertyOp27
 70
     0
102
RTVSPropertyOp28
 70
     1
102
RTVSPropertyOp29
 70
     1
102
RTVSPropertyOp30
 70
     1
102
RTVSPropertyOp31
 70
     1
102
RTVSPropertyOp32
 70
     1
102
RTVSPropertyOp33
 70
     1
102
RTVSPropertyOp34
 70
     1
102
RTVSPropertyOp35
 70
     1
102
RTVSPropertyOp36
 70
     1
102
RTVSPropertyOp37
 70
     0
102
RTVSPropertyOp38
 70
     0
102
RTVSPropertyOp39
 70
     0
102
RTVSPropertyOp40
 70
     0
102
RTVSPropertyOp41
 70
     0
102
RTVSPropertyOp42
 70
     0
102
RTVSPropertyOp43
 70
     0
102
RTVSPropertyOp44
 70
     0
102
RTVSPropertyOp45
 70
     1
102
RTVSPropertyOp46
 70
     0
102
RTVSPropertyOp47
 70
     0
102
RTVSPropertyOp48
 70
     0
102
RTVSPropertyOp49
 70
     1
102
RTVSPropertyOp50
 70
     0
102
RTVSPropertyOp51
 70
     0
102
RTVSPropertyOp52
 70
     0
102
RTVSPropertyOp53
 70
     0
102
RTVSPropertyOp54
 70
     0
102
RTVSPropertyOp55
 70
     1
102
RTVSPropertyOp56
 70
     0
102
RTVSPropertyOp57
 70
     0
102
RTVSPropertyOp58
 70
     0
102
RTVSPropertyOp59
 70
     0
102
RTVSPropertyOp60
 70
     0
102
RTVSPropertyOp61
 70
     0
102
RTVSPropertyOp62
 70
     0
  0
XRECORD
  5
6C0
102
{ACAD_REACTORS
330
6BF
102
}
330
6BF
100
AcDbXrecord
280
     1
102
RTVSPost2010Prop28
280
     0
102
RTVSPost2010PropOp28
 70
     1
102
RTVSPost2010Prop29
280
     1
102
RTVSPost2010PropOp29
 70
     1
102
RTVSPost2010Prop30
280
     1
102
RTVSPost2010PropOp30
 70
     1
102
RTVSPost2010Prop31
280
     0
102
RTVSPost2010PropOp31
 70
     1
102
RTVSPost2010Prop32
280
     0
102
RTVSPost2010PropOp32
 70
     1
102
RTVSPost2010Prop33
280
     0
102
RTVSPost2010PropOp33
 70
     1
102
RTVSPost2010Prop34
280
     0
102
RTVSPost2010PropOp34
 70
     1
102
RTVSPost2010Prop35
280
     0
102
RTVSPost2010PropOp35
 70
     1
102
RTVSPost2010Prop36
280
     0
102
RTVSPost2010PropOp36
 70
     1
102
RTVSPost2010Prop37
 90
       50
102
RTVSPost2010PropOp37
 70
     1
102
RTVSPost2010Prop38
140
0.0
102
RTVSPost2010PropOp38
 70
     1
102
RTVSPost2010Prop39
140
1.0
102
RTVSPost2010PropOp39
 70
     1
102
RTVSPost2010Prop40
 90
        0
102
RTVSPost2010PropOp40
 70
     1
102
RTVSPost2010Prop41ColorIndex
 90
       18
102
RTVSPost2010Prop41ColorRGB
 90
        0
102
RTVSPost2010PropOp41
 70
     1
102
RTVSPost2010Prop42
 90
       50
102
RTVSPost2010PropOp42
 70
     1
102
RTVSPost2010Prop43
 90
        3
102
RTVSPost2010PropOp43
 70
     1
102
RTVSPost2010Prop44ColorIndex
 90
        5
102
RTVSPost2010Prop44ColorRGB
 90
      255
102
RTVSPost2010PropOp44
 70
     1
102
RTVSPost2010Prop45
280
     0
102
RTVSPost2010PropOp45
 70
     1
102
RTVSPost2010Prop46
 90
       50
102
RTVSPost2010PropOp46
 70
     1
102
RTVSPost2010Prop47
 90
       50
102
RTVSPost2010PropOp47
 70
     1
102
RTVSPost2010Prop48
 90
       50
102
RTVSPost2010PropOp48
 70
     1
102
RTVSPost2010Prop49
280
     0
102
RTVSPost2010PropOp49
 70
     1
102
RTVSPost2010Prop50
 90
       50
102
RTVSPost2010PropOp50
 70
     1
102
RTVSPost2010Prop51ColorIndex
 90
      256
102
RTVSPost2010Prop51ColorRGB
 90
-16777216
102
RTVSPost2010PropOp51
 70
     0
102
RTVSPost2010Prop52
140
1.0
102
RTVSPost2010PropOp52
 70
     0
102
RTVSPost2010Prop53
 90
        2
102
RTVSPost2010PropOp53
 70
     1
102
RTVSPost2010Prop54
  1
strokes_ogs.tif
102
RTVSPost2010PropOp54
 70
     1
102
RTVSPost2010Prop55
280
     0
102
RTVSPost2010PropOp55
 70
     1
102
RTVSPost2010Prop56
140
1.0
102
RTVSPost2010PropOp56
 70
     1
102
RTVSPost2010Prop57
140
1.0
102
RTVSPost2010PropOp57
 70
     1
102
RTVSPropertyOp0
 70
     1
102
RTVSPropertyOp1
 70
     1
102
RTVSPropertyOp2
 70
     1
102
RTVSPropertyOp3
 70
     1
102
RTVSPropertyOp4
 70
     1
102
RTVSPropertyOp5
 70
     1
102
RTVSPropertyOp6
 70
     1
102
RTVSPropertyOp7
 70
     1
102
RTVSPropertyOp8
 70
     1
102
RTVSPropertyOp9
 70
     1
102
RTVSPropertyOp10
 70
     1
102
RTVSPropertyOp11
 70
     1
102
RTVSPropertyOp12
 70
     1
102
RTVSPropertyOp13
 70
     1
102
RTVSPropertyOp14
 70
     1
102
RTVSPropertyOp15
 70
     1
102
RTVSPropertyOp16
 70
     1
102
RTVSPropertyOp17
 70
     1
102
RTVSPropertyOp18
 70
     1
102
RTVSPropertyOp19
 70
     1
102
RTVSPropertyOp20
 70
     1
102
RTVSPropertyOp21
 70
     1
102
RTVSPropertyOp22
 70
     1
102
RTVSPropertyOp23
 70
     1
102
RTVSPropertyOp24
 70
     1
102
RTVSPropertyOp25
 70
     1
102
RTVSPropertyOp26
 70
     1
102
RTVSPropertyOp27
 70
     1
102
RTVSPropertyOp28
 70
     1
102
RTVSPropertyOp29
 70
     1
102
RTVSPropertyOp30
 70
     1
102
RTVSPropertyOp31
 70
     1
102
RTVSPropertyOp32
 70
     1
102
RTVSPropertyOp33
 70
     1
102
RTVSPropertyOp34
 70
     1
102
RTVSPropertyOp35
 70
     1
102
RTVSPropertyOp36
 70
     1
102
RTVSPropertyOp37
 70
     1
102
RTVSPropertyOp38
 70
     1
102
RTVSPropertyOp39
 70
     1
102
RTVSPropertyOp40
 70
     1
102
RTVSPropertyOp41
 70
     1
102
RTVSPropertyOp42
 70
     1
102
RTVSPropertyOp43
 70
     1
102
RTVSPropertyOp44
 70
     1
102
RTVSPropertyOp45
 70
     1
102
RTVSPropertyOp46
 70
     1
102
RTVSPropertyOp47
 70
     1
102
RTVSPropertyOp48
 70
     1
102
RTVSPropertyOp49
 70
     1
102
RTVSPropertyOp50
 70
     1
102
RTVSPropertyOp51
 70
     0
102
RTVSPropertyOp52
 70
     0
102
RTVSPropertyOp53
 70
     1
102
RTVSPropertyOp54
 70
     1
102
RTVSPropertyOp55
 70
     1
102
RTVSPropertyOp56
 70
     1
102
RTVSPropertyOp57
 70
     1
102
RTVSPropertyOp58
 70
     1
102
RTVSPropertyOp59
 70
     1
102
RTVSPropertyOp60
 70
     1
102
RTVSPropertyOp61
 70
     1
102
RTVSPropertyOp62
 70
     1
  0
XRECORD
  5
6D2
102
{ACAD_REACTORS
330
6D1
102
}
330
6D1
100
AcDbXrecord
280
     1
102
RTVSPost2010Prop28
280
     0
102
RTVSPost2010PropOp28
 70
     1
102
RTVSPost2010Prop29
280
     1
102
RTVSPost2010PropOp29
 70
     1
102
RTVSPost2010Prop30
280
     1
102
RTVSPost2010PropOp30
 70
     1
102
RTVSPost2010Prop31
280
     0
102
RTVSPost2010PropOp31
 70
     1
102
RTVSPost2010Prop32
280
     0
102
RTVSPost2010PropOp32
 70
     1
102
RTVSPost2010Prop33
280
     0
102
RTVSPost2010PropOp33
 70
     1
102
RTVSPost2010Prop34
280
     0
102
RTVSPost2010PropOp34
 70
     1
102
RTVSPost2010Prop35
280
     0
102
RTVSPost2010PropOp35
 70
     1
102
RTVSPost2010Prop36
280
     0
102
RTVSPost2010PropOp36
 70
     1
102
RTVSPost2010Prop37
 90
       50
102
RTVSPost2010PropOp37
 70
     0
102
RTVSPost2010Prop38
140
0.0
102
RTVSPost2010PropOp38
 70
     0
102
RTVSPost2010Prop39
140
1.0
102
RTVSPost2010PropOp39
 70
     0
102
RTVSPost2010Prop40
 90
        0
102
RTVSPost2010PropOp40
 70
     0
102
RTVSPost2010Prop41ColorIndex
 90
       18
102
RTVSPost2010Prop41ColorRGB
 90
        0
102
RTVSPost2010PropOp41
 70
     0
102
RTVSPost2010Prop42
 90
       50
102
RTVSPost2010PropOp42
 70
     0
102
RTVSPost2010Prop43
 90
        3
102
RTVSPost2010PropOp43
 70
     0
102
RTVSPost2010Prop44ColorIndex
 90
        5
102
RTVSPost2010Prop44ColorRGB
 90
      255
102
RTVSPost2010PropOp44
 70
     0
102
RTVSPost2010Prop45
280
     0
102
RTVSPost2010PropOp45
 70
     1
102
RTVSPost2010Prop46
 90
       50
102
RTVSPost2010PropOp46
 70
     0
102
RTVSPost2010Prop47
 90
       50
102
RTVSPost2010PropOp47
 70
     0
102
RTVSPost2010Prop48
 90
       50
102
RTVSPost2010PropOp48
 70
     0
102
RTVSPost2010Prop49
280
     0
102
RTVSPost2010PropOp49
 70
     1
102
RTVSPost2010Prop50
 90
       50
102
RTVSPost2010PropOp50
 70
     0
102
RTVSPost2010Prop51ColorIndex
 90
      256
102
RTVSPost2010Prop51ColorRGB
 90
-16777216
102
RTVSPost2010PropOp51
 70
     0
102
RTVSPost2010Prop52
140
1.0
102
RTVSPost2010PropOp52
 70
     0
102
RTVSPost2010Prop53
 90
        2
102
RTVSPost2010PropOp53
 70
     0
102
RTVSPost2010Prop54
  1
strokes_ogs.tif
102
RTVSPost2010PropOp54
 70
     0
102
RTVSPost2010Prop55
280
     0
102
RTVSPost2010PropOp55
 70
     1
102
RTVSPost2010Prop56
140
1.0
102
RTVSPost2010PropOp56
 70
     0
102
RTVSPost2010Prop57
140
1.0
102
RTVSPost2010PropOp57
 70
     0
102
RTVSPropertyOp0
 70
     0
102
RTVSPropertyOp1
 70
     0
102
RTVSPropertyOp2
 70
     0
102
RTVSPropertyOp3
 70
     0
102
RTVSPropertyOp4
 70
     0
102
RTVSPropertyOp5
 70
     0
102
RTVSPropertyOp6
 70
     0
102
RTVSPropertyOp7
 70
     0
102
RTVSPropertyOp8
 70
     0
102
RTVSPropertyOp9
 70
     0
102
RTVSPropertyOp10
 70
     0
102
RTVSPropertyOp11
 70
     0
102
RTVSPropertyOp12
 70
     0
102
RTVSPropertyOp13
 70
     0
102
RTVSPropertyOp14
 70
     2
102
RTVSPropertyOp15
 70
     0
102
RTVSPropertyOp16
 70
     0
102
RTVSPropertyOp17
 70
     0
102
RTVSPropertyOp18
 70
     0
102
RTVSPropertyOp19
 70
     0
102
RTVSPropertyOp20
 70
     0
102
RTVSPropertyOp21
 70
     0
102
RTVSPropertyOp22
 70
     0
102
RTVSPropertyOp23
 70
     0
102
RTVSPropertyOp24
 70
     0
102
RTVSPropertyOp25
 70
     0
102
RTVSPropertyOp26
 70
     0
102
RTVSPropertyOp27
 70
     0
102
RTVSPropertyOp28
 70
     1
102
RTVSPropertyOp29
 70
     1
102
RTVSPropertyOp30
 70
     1
102
RTVSPropertyOp31
 70
     1
102
RTVSPropertyOp32
 70
     1
102
RTVSPropertyOp33
 70
     1
102
RTVSPropertyOp34
 70
     1
102
RTVSPropertyOp35
 70
     1
102
RTVSPropertyOp36
 70
     1
102
RTVSPropertyOp37
 70
     0
102
RTVSPropertyOp38
 70
     0
102
RTVSPropertyOp39
 70
     0
102
RTVSPropertyOp40
 70
     0
102
RTVSPropertyOp41
 70
     0
102
RTVSPropertyOp42
 70
     0
102
RTVSPropertyOp43
 70
     0
102
RTVSPropertyOp44
 70
     0
102
RTVSPropertyOp45
 70
     1
102
RTVSPropertyOp46
 70
     0
102
RTVSPropertyOp47
 70
     0
102
RTVSPropertyOp48
 70
     0
102
RTVSPropertyOp49
 70
     1
102
RTVSPropertyOp50
 70
     0
102
RTVSPropertyOp51
 70
     0
102
RTVSPropertyOp52
 70
     0
102
RTVSPropertyOp53
 70
     0
102
RTVSPropertyOp54
 70
     0
102
RTVSPropertyOp55
 70
     1
102
RTVSPropertyOp56
 70
     0
102
RTVSPropertyOp57
 70
     0
102
RTVSPropertyOp58
 70
     0
102
RTVSPropertyOp59
 70
     0
102
RTVSPropertyOp60
 70
     0
102
RTVSPropertyOp61
 70
     0
102
RTVSPropertyOp62
 70
     0
  0
XRECORD
  5
6B8
102
{ACAD_REACTORS
330
6B7
102
}
330
6B7
100
AcDbXrecord
280
     1
102
RTVSPost2010Prop28
280
     0
102
RTVSPost2010PropOp28
 70
     1
102
RTVSPost2010Prop29
280
     1
102
RTVSPost2010PropOp29
 70
     1
102
RTVSPost2010Prop30
280
     1
102
RTVSPost2010PropOp30
 70
     1
102
RTVSPost2010Prop31
280
     0
102
RTVSPost2010PropOp31
 70
     1
102
RTVSPost2010Prop32
280
     0
102
RTVSPost2010PropOp32
 70
     1
102
RTVSPost2010Prop33
280
     0
102
RTVSPost2010PropOp33
 70
     1
102
RTVSPost2010Prop34
280
     0
102
RTVSPost2010PropOp34
 70
     1
102
RTVSPost2010Prop35
280
     0
102
RTVSPost2010PropOp35
 70
     1
102
RTVSPost2010Prop36
280
     0
102
RTVSPost2010PropOp36
 70
     1
102
RTVSPost2010Prop37
 90
       50
102
RTVSPost2010PropOp37
 70
     1
102
RTVSPost2010Prop38
140
0.0
102
RTVSPost2010PropOp38
 70
     1
102
RTVSPost2010Prop39
140
1.0
102
RTVSPost2010PropOp39
 70
     1
102
RTVSPost2010Prop40
 90
        0
102
RTVSPost2010PropOp40
 70
     1
102
RTVSPost2010Prop41ColorIndex
 90
       18
102
RTVSPost2010Prop41ColorRGB
 90
        0
102
RTVSPost2010PropOp41
 70
     1
102
RTVSPost2010Prop42
 90
       50
102
RTVSPost2010PropOp42
 70
     1
102
RTVSPost2010Prop43
 90
        3
102
RTVSPost2010PropOp43
 70
     1
102
RTVSPost2010Prop44ColorIndex
 90
        5
102
RTVSPost2010Prop44ColorRGB
 90
      255
102
RTVSPost2010PropOp44
 70
     1
102
RTVSPost2010Prop45
280
     0
102
RTVSPost2010PropOp45
 70
     1
102
RTVSPost2010Prop46
 90
       50
102
RTVSPost2010PropOp46
 70
     1
102
RTVSPost2010Prop47
 90
       50
102
RTVSPost2010PropOp47
 70
     1
102
RTVSPost2010Prop48
 90
       50
102
RTVSPost2010PropOp48
 70
     1
102
RTVSPost2010Prop49
280
     0
102
RTVSPost2010PropOp49
 70
     1
102
RTVSPost2010Prop50
 90
       50
102
RTVSPost2010PropOp50
 70
     1
102
RTVSPost2010Prop51ColorIndex
 90
      256
102
RTVSPost2010Prop51ColorRGB
 90
-16777216
102
RTVSPost2010PropOp51
 70
     0
102
RTVSPost2010Prop52
140
1.0
102
RTVSPost2010PropOp52
 70
     0
102
RTVSPost2010Prop53
 90
        2
102
RTVSPost2010PropOp53
 70
     1
102
RTVSPost2010Prop54
  1
strokes_ogs.tif
102
RTVSPost2010PropOp54
 70
     1
102
RTVSPost2010Prop55
280
     0
102
RTVSPost2010PropOp55
 70
     1
102
RTVSPost2010Prop56
140
1.0
102
RTVSPost2010PropOp56
 70
     1
102
RTVSPost2010Prop57
140
1.0
102
RTVSPost2010PropOp57
 70
     1
102
RTVSPropertyOp0
 70
     1
102
RTVSPropertyOp1
 70
     1
102
RTVSPropertyOp2
 70
     1
102
RTVSPropertyOp3
 70
     1
102
RTVSPropertyOp4
 70
     1
102
RTVSPropertyOp5
 70
     1
102
RTVSPropertyOp6
 70
     1
102
RTVSPropertyOp7
 70
     1
102
RTVSPropertyOp8
 70
     1
102
RTVSPropertyOp9
 70
     1
102
RTVSPropertyOp10
 70
     1
102
RTVSPropertyOp11
 70
     1
102
RTVSPropertyOp12
 70
     1
102
RTVSPropertyOp13
 70
     1
102
RTVSPropertyOp14
 70
     1
102
RTVSPropertyOp15
 70
     1
102
RTVSPropertyOp16
 70
     1
102
RTVSPropertyOp17
 70
     1
102
RTVSPropertyOp18
 70
     1
102
RTVSPropertyOp19
 70
     1
102
RTVSPropertyOp20
 70
     1
102
RTVSPropertyOp21
 70
     1
102
RTVSPropertyOp22
 70
     1
102
RTVSPropertyOp23
 70
     1
102
RTVSPropertyOp24
 70
     1
102
RTVSPropertyOp25
 70
     1
102
RTVSPropertyOp26
 70
     1
102
RTVSPropertyOp27
 70
     1
102
RTVSPropertyOp28
 70
     1
102
RTVSPropertyOp29
 70
     1
102
RTVSPropertyOp30
 70
     1
102
RTVSPropertyOp31
 70
     1
102
RTVSPropertyOp32
 70
     1
102
RTVSPropertyOp33
 70
     1
102
RTVSPropertyOp34
 70
     1
102
RTVSPropertyOp35
 70
     1
102
RTVSPropertyOp36
 70
     1
102
RTVSPropertyOp37
 70
     1
102
RTVSPropertyOp38
 70
     1
102
RTVSPropertyOp39
 70
     1
102
RTVSPropertyOp40
 70
     1
102
RTVSPropertyOp41
 70
     1
102
RTVSPropertyOp42
 70
     1
102
RTVSPropertyOp43
 70
     1
102
RTVSPropertyOp44
 70
     1
102
RTVSPropertyOp45
 70
     1
102
RTVSPropertyOp46
 70
     1
102
RTVSPropertyOp47
 70
     1
102
RTVSPropertyOp48
 70
     1
102
RTVSPropertyOp49
 70
     1
102
RTVSPropertyOp50
 70
     1
102
RTVSPropertyOp51
 70
     0
102
RTVSPropertyOp52
 70
     0
102
RTVSPropertyOp53
 70
     1
102
RTVSPropertyOp54
 70
     1
102
RTVSPropertyOp55
 70
     1
102
RTVSPropertyOp56
 70
     1
102
RTVSPropertyOp57
 70
     1
102
RTVSPropertyOp58
 70
     1
102
RTVSPropertyOp59
 70
     1
102
RTVSPropertyOp60
 70
     1
102
RTVSPropertyOp61
 70
     1
102
RTVSPropertyOp62
 70
     1
  0
XRECORD
  5
6CE
102
{ACAD_REACTORS
330
6CD
102
}
330
6CD
100
AcDbXrecord
280
     1
102
RTVSPost2010Prop28
280
     0
102
RTVSPost2010PropOp28
 70
     1
102
RTVSPost2010Prop29
280
     1
102
RTVSPost2010PropOp29
 70
     1
102
RTVSPost2010Prop30
280
     1
102
RTVSPost2010PropOp30
 70
     1
102
RTVSPost2010Prop31
280
     0
102
RTVSPost2010PropOp31
 70
     1
102
RTVSPost2010Prop32
280
     0
102
RTVSPost2010PropOp32
 70
     1
102
RTVSPost2010Prop33
280
     0
102
RTVSPost2010PropOp33
 70
     1
102
RTVSPost2010Prop34
280
     0
102
RTVSPost2010PropOp34
 70
     1
102
RTVSPost2010Prop35
280
     0
102
RTVSPost2010PropOp35
 70
     1
102
RTVSPost2010Prop36
280
     0
102
RTVSPost2010PropOp36
 70
     1
102
RTVSPost2010Prop37
 90
       50
102
RTVSPost2010PropOp37
 70
     1
102
RTVSPost2010Prop38
140
0.0
102
RTVSPost2010PropOp38
 70
     1
102
RTVSPost2010Prop39
140
1.0
102
RTVSPost2010PropOp39
 70
     1
102
RTVSPost2010Prop40
 90
        0
102
RTVSPost2010PropOp40
 70
     1
102
RTVSPost2010Prop41ColorIndex
 90
       18
102
RTVSPost2010Prop41ColorRGB
 90
        0
102
RTVSPost2010PropOp41
 70
     1
102
RTVSPost2010Prop42
 90
       50
102
RTVSPost2010PropOp42
 70
     1
102
RTVSPost2010Prop43
 90
        3
102
RTVSPost2010PropOp43
 70
     1
102
RTVSPost2010Prop44ColorIndex
 90
        5
102
RTVSPost2010Prop44ColorRGB
 90
      255
102
RTVSPost2010PropOp44
 70
     1
102
RTVSPost2010Prop45
280
     0
102
RTVSPost2010PropOp45
 70
     1
102
RTVSPost2010Prop46
 90
       50
102
RTVSPost2010PropOp46
 70
     1
102
RTVSPost2010Prop47
 90
       50
102
RTVSPost2010PropOp47
 70
     1
102
RTVSPost2010Prop48
 90
       50
102
RTVSPost2010PropOp48
 70
     1
102
RTVSPost2010Prop49
280
     0
102
RTVSPost2010PropOp49
 70
     1
102
RTVSPost2010Prop50
 90
       50
102
RTVSPost2010PropOp50
 70
     1
102
RTVSPost2010Prop51ColorIndex
 90
      256
102
RTVSPost2010Prop51ColorRGB
 90
-16777216
102
RTVSPost2010PropOp51
 70
     0
102
RTVSPost2010Prop52
140
1.0
102
RTVSPost2010PropOp52
 70
     0
102
RTVSPost2010Prop53
 90
        2
102
RTVSPost2010PropOp53
 70
     1
102
RTVSPost2010Prop54
  1
strokes_ogs.tif
102
RTVSPost2010PropOp54
 70
     1
102
RTVSPost2010Prop55
280
     0
102
RTVSPost2010PropOp55
 70
     1
102
RTVSPost2010Prop56
140
1.0
102
RTVSPost2010PropOp56
 70
     1
102
RTVSPost2010Prop57
140
1.0
102
RTVSPost2010PropOp57
 70
     1
102
RTVSPropertyOp0
 70
     1
102
RTVSPropertyOp1
 70
     1
102
RTVSPropertyOp2
 70
     1
102
RTVSPropertyOp3
 70
     1
102
RTVSPropertyOp4
 70
     1
102
RTVSPropertyOp5
 70
     1
102
RTVSPropertyOp6
 70
     1
102
RTVSPropertyOp7
 70
     1
102
RTVSPropertyOp8
 70
     1
102
RTVSPropertyOp9
 70
     1
102
RTVSPropertyOp10
 70
     1
102
RTVSPropertyOp11
 70
     1
102
RTVSPropertyOp12
 70
     1
102
RTVSPropertyOp13
 70
     1
102
RTVSPropertyOp14
 70
     1
102
RTVSPropertyOp15
 70
     1
102
RTVSPropertyOp16
 70
     1
102
RTVSPropertyOp17
 70
     1
102
RTVSPropertyOp18
 70
     1
102
RTVSPropertyOp19
 70
     1
102
RTVSPropertyOp20
 70
     1
102
RTVSPropertyOp21
 70
     1
102
RTVSPropertyOp22
 70
     1
102
RTVSPropertyOp23
 70
     1
102
RTVSPropertyOp24
 70
     1
102
RTVSPropertyOp25
 70
     1
102
RTVSPropertyOp26
 70
     1
102
RTVSPropertyOp27
 70
     1
102
RTVSPropertyOp28
 70
     1
102
RTVSPropertyOp29
 70
     1
102
RTVSPropertyOp30
 70
     1
102
RTVSPropertyOp31
 70
     1
102
RTVSPropertyOp32
 70
     1
102
RTVSPropertyOp33
 70
     1
102
RTVSPropertyOp34
 70
     1
102
RTVSPropertyOp35
 70
     1
102
RTVSPropertyOp36
 70
     1
102
RTVSPropertyOp37
 70
     1
102
RTVSPropertyOp38
 70
     1
102
RTVSPropertyOp39
 70
     1
102
RTVSPropertyOp40
 70
     1
102
RTVSPropertyOp41
 70
     1
102
RTVSPropertyOp42
 70
     1
102
RTVSPropertyOp43
 70
     1
102
RTVSPropertyOp44
 70
     1
102
RTVSPropertyOp45
 70
     1
102
RTVSPropertyOp46
 70
     1
102
RTVSPropertyOp47
 70
     1
102
RTVSPropertyOp48
 70
     1
102
RTVSPropertyOp49
 70
     1
102
RTVSPropertyOp50
 70
     1
102
RTVSPropertyOp51
 70
     0
102
RTVSPropertyOp52
 70
     0
102
RTVSPropertyOp53
 70
     1
102
RTVSPropertyOp54
 70
     1
102
RTVSPropertyOp55
 70
     1
102
RTVSPropertyOp56
 70
     1
102
RTVSPropertyOp57
 70
     1
102
RTVSPropertyOp58
 70
     1
102
RTVSPropertyOp59
 70
     1
102
RTVSPropertyOp60
 70
     1
102
RTVSPropertyOp61
 70
     1
102
RTVSPropertyOp62
 70
     1
  0
XRECORD
  5
6CC
102
{ACAD_REACTORS
330
6CB
102
}
330
6CB
100
AcDbXrecord
280
     1
102
RTVSPost2010Prop28
280
     0
102
RTVSPost2010PropOp28
 70
     1
102
RTVSPost2010Prop29
280
     1
102
RTVSPost2010PropOp29
 70
     1
102
RTVSPost2010Prop30
280
     1
102
RTVSPost2010PropOp30
 70
     1
102
RTVSPost2010Prop31
280
     0
102
RTVSPost2010PropOp31
 70
     1
102
RTVSPost2010Prop32
280
     0
102
RTVSPost2010PropOp32
 70
     1
102
RTVSPost2010Prop33
280
     0
102
RTVSPost2010PropOp33
 70
     1
102
RTVSPost2010Prop34
280
     0
102
RTVSPost2010PropOp34
 70
     1
102
RTVSPost2010Prop35
280
     0
102
RTVSPost2010PropOp35
 70
     1
102
RTVSPost2010Prop36
280
     0
102
RTVSPost2010PropOp36
 70
     1
102
RTVSPost2010Prop37
 90
       50
102
RTVSPost2010PropOp37
 70
     1
102
RTVSPost2010Prop38
140
0.0
102
RTVSPost2010PropOp38
 70
     1
102
RTVSPost2010Prop39
140
1.0
102
RTVSPost2010PropOp39
 70
     1
102
RTVSPost2010Prop40
 90
        0
102
RTVSPost2010PropOp40
 70
     1
102
RTVSPost2010Prop41ColorIndex
 90
       18
102
RTVSPost2010Prop41ColorRGB
 90
        0
102
RTVSPost2010PropOp41
 70
     1
102
RTVSPost2010Prop42
 90
       50
102
RTVSPost2010PropOp42
 70
     1
102
RTVSPost2010Prop43
 90
        3
102
RTVSPost2010PropOp43
 70
     1
102
RTVSPost2010Prop44ColorIndex
 90
        5
102
RTVSPost2010Prop44ColorRGB
 90
      255
102
RTVSPost2010PropOp44
 70
     1
102
RTVSPost2010Prop45
280
     0
102
RTVSPost2010PropOp45
 70
     1
102
RTVSPost2010Prop46
 90
       50
102
RTVSPost2010PropOp46
 70
     1
102
RTVSPost2010Prop47
 90
       50
102
RTVSPost2010PropOp47
 70
     1
102
RTVSPost2010Prop48
 90
       50
102
RTVSPost2010PropOp48
 70
     1
102
RTVSPost2010Prop49
280
     0
102
RTVSPost2010PropOp49
 70
     1
102
RTVSPost2010Prop50
 90
       50
102
RTVSPost2010PropOp50
 70
     1
102
RTVSPost2010Prop51ColorIndex
 90
      256
102
RTVSPost2010Prop51ColorRGB
 90
-16777216
102
RTVSPost2010PropOp51
 70
     0
102
RTVSPost2010Prop52
140
1.0
102
RTVSPost2010PropOp52
 70
     0
102
RTVSPost2010Prop53
 90
        2
102
RTVSPost2010PropOp53
 70
     1
102
RTVSPost2010Prop54
  1
strokes_ogs.tif
102
RTVSPost2010PropOp54
 70
     1
102
RTVSPost2010Prop55
280
     0
102
RTVSPost2010PropOp55
 70
     1
102
RTVSPost2010Prop56
140
1.0
102
RTVSPost2010PropOp56
 70
     1
102
RTVSPost2010Prop57
140
1.0
102
RTVSPost2010PropOp57
 70
     1
102
RTVSPropertyOp0
 70
     1
102
RTVSPropertyOp1
 70
     1
102
RTVSPropertyOp2
 70
     1
102
RTVSPropertyOp3
 70
     1
102
RTVSPropertyOp4
 70
     1
102
RTVSPropertyOp5
 70
     1
102
RTVSPropertyOp6
 70
     1
102
RTVSPropertyOp7
 70
     1
102
RTVSPropertyOp8
 70
     1
102
RTVSPropertyOp9
 70
     1
102
RTVSPropertyOp10
 70
     1
102
RTVSPropertyOp11
 70
     1
102
RTVSPropertyOp12
 70
     1
102
RTVSPropertyOp13
 70
     1
102
RTVSPropertyOp14
 70
     1
102
RTVSPropertyOp15
 70
     1
102
RTVSPropertyOp16
 70
     1
102
RTVSPropertyOp17
 70
     1
102
RTVSPropertyOp18
 70
     1
102
RTVSPropertyOp19
 70
     1
102
RTVSPropertyOp20
 70
     1
102
RTVSPropertyOp21
 70
     1
102
RTVSPropertyOp22
 70
     1
102
RTVSPropertyOp23
 70
     1
102
RTVSPropertyOp24
 70
     1
102
RTVSPropertyOp25
 70
     1
102
RTVSPropertyOp26
 70
     1
102
RTVSPropertyOp27
 70
     1
102
RTVSPropertyOp28
 70
     1
102
RTVSPropertyOp29
 70
     1
102
RTVSPropertyOp30
 70
     1
102
RTVSPropertyOp31
 70
     1
102
RTVSPropertyOp32
 70
     1
102
RTVSPropertyOp33
 70
     1
102
RTVSPropertyOp34
 70
     1
102
RTVSPropertyOp35
 70
     1
102
RTVSPropertyOp36
 70
     1
102
RTVSPropertyOp37
 70
     1
102
RTVSPropertyOp38
 70
     1
102
RTVSPropertyOp39
 70
     1
102
RTVSPropertyOp40
 70
     1
102
RTVSPropertyOp41
 70
     1
102
RTVSPropertyOp42
 70
     1
102
RTVSPropertyOp43
 70
     1
102
RTVSPropertyOp44
 70
     1
102
RTVSPropertyOp45
 70
     1
102
RTVSPropertyOp46
 70
     1
102
RTVSPropertyOp47
 70
     1
102
RTVSPropertyOp48
 70
     1
102
RTVSPropertyOp49
 70
     1
102
RTVSPropertyOp50
 70
     1
102
RTVSPropertyOp51
 70
     0
102
RTVSPropertyOp52
 70
     0
102
RTVSPropertyOp53
 70
     1
102
RTVSPropertyOp54
 70
     1
102
RTVSPropertyOp55
 70
     1
102
RTVSPropertyOp56
 70
     1
102
RTVSPropertyOp57
 70
     1
102
RTVSPropertyOp58
 70
     1
102
RTVSPropertyOp59
 70
     1
102
RTVSPropertyOp60
 70
     1
102
RTVSPropertyOp61
 70
     1
102
RTVSPropertyOp62
 70
     1
  0
XRECORD
  5
6C6
102
{ACAD_REACTORS
330
6C5
102
}
330
6C5
100
AcDbXrecord
280
     1
102
RTVSPost2010Prop28
280
     0
102
RTVSPost2010PropOp28
 70
     1
102
RTVSPost2010Prop29
280
     1
102
RTVSPost2010PropOp29
 70
     1
102
RTVSPost2010Prop30
280
     1
102
RTVSPost2010PropOp30
 70
     1
102
RTVSPost2010Prop31
280
     0
102
RTVSPost2010PropOp31
 70
     1
102
RTVSPost2010Prop32
280
     0
102
RTVSPost2010PropOp32
 70
     1
102
RTVSPost2010Prop33
280
     0
102
RTVSPost2010PropOp33
 70
     1
102
RTVSPost2010Prop34
280
     0
102
RTVSPost2010PropOp34
 70
     1
102
RTVSPost2010Prop35
280
     0
102
RTVSPost2010PropOp35
 70
     1
102
RTVSPost2010Prop36
280
     0
102
RTVSPost2010PropOp36
 70
     1
102
RTVSPost2010Prop37
 90
       50
102
RTVSPost2010PropOp37
 70
     1
102
RTVSPost2010Prop38
140
0.0
102
RTVSPost2010PropOp38
 70
     1
102
RTVSPost2010Prop39
140
1.0
102
RTVSPost2010PropOp39
 70
     1
102
RTVSPost2010Prop40
 90
        0
102
RTVSPost2010PropOp40
 70
     1
102
RTVSPost2010Prop41ColorIndex
 90
       18
102
RTVSPost2010Prop41ColorRGB
 90
        0
102
RTVSPost2010PropOp41
 70
     1
102
RTVSPost2010Prop42
 90
       50
102
RTVSPost2010PropOp42
 70
     1
102
RTVSPost2010Prop43
 90
        3
102
RTVSPost2010PropOp43
 70
     1
102
RTVSPost2010Prop44ColorIndex
 90
        5
102
RTVSPost2010Prop44ColorRGB
 90
      255
102
RTVSPost2010PropOp44
 70
     1
102
RTVSPost2010Prop45
280
     0
102
RTVSPost2010PropOp45
 70
     1
102
RTVSPost2010Prop46
 90
       50
102
RTVSPost2010PropOp46
 70
     1
102
RTVSPost2010Prop47
 90
       50
102
RTVSPost2010PropOp47
 70
     1
102
RTVSPost2010Prop48
 90
       50
102
RTVSPost2010PropOp48
 70
     1
102
RTVSPost2010Prop49
280
     0
102
RTVSPost2010PropOp49
 70
     1
102
RTVSPost2010Prop50
 90
       50
102
RTVSPost2010PropOp50
 70
     1
102
RTVSPost2010Prop51ColorIndex
 90
      256
102
RTVSPost2010Prop51ColorRGB
 90
-16777216
102
RTVSPost2010PropOp51
 70
     0
102
RTVSPost2010Prop52
140
1.0
102
RTVSPost2010PropOp52
 70
     0
102
RTVSPost2010Prop53
 90
        2
102
RTVSPost2010PropOp53
 70
     1
102
RTVSPost2010Prop54
  1
strokes_ogs.tif
102
RTVSPost2010PropOp54
 70
     1
102
RTVSPost2010Prop55
280
     0
102
RTVSPost2010PropOp55
 70
     1
102
RTVSPost2010Prop56
140
1.0
102
RTVSPost2010PropOp56
 70
     1
102
RTVSPost2010Prop57
140
1.0
102
RTVSPost2010PropOp57
 70
     1
102
RTVSPropertyOp0
 70
     1
102
RTVSPropertyOp1
 70
     1
102
RTVSPropertyOp2
 70
     1
102
RTVSPropertyOp3
 70
     1
102
RTVSPropertyOp4
 70
     1
102
RTVSPropertyOp5
 70
     1
102
RTVSPropertyOp6
 70
     1
102
RTVSPropertyOp7
 70
     1
102
RTVSPropertyOp8
 70
     1
102
RTVSPropertyOp9
 70
     1
102
RTVSPropertyOp10
 70
     1
102
RTVSPropertyOp11
 70
     1
102
RTVSPropertyOp12
 70
     1
102
RTVSPropertyOp13
 70
     1
102
RTVSPropertyOp14
 70
     1
102
RTVSPropertyOp15
 70
     1
102
RTVSPropertyOp16
 70
     1
102
RTVSPropertyOp17
 70
     1
102
RTVSPropertyOp18
 70
     1
102
RTVSPropertyOp19
 70
     1
102
RTVSPropertyOp20
 70
     1
102
RTVSPropertyOp21
 70
     1
102
RTVSPropertyOp22
 70
     1
102
RTVSPropertyOp23
 70
     1
102
RTVSPropertyOp24
 70
     1
102
RTVSPropertyOp25
 70
     1
102
RTVSPropertyOp26
 70
     1
102
RTVSPropertyOp27
 70
     1
102
RTVSPropertyOp28
 70
     1
102
RTVSPropertyOp29
 70
     1
102
RTVSPropertyOp30
 70
     1
102
RTVSPropertyOp31
 70
     1
102
RTVSPropertyOp32
 70
     1
102
RTVSPropertyOp33
 70
     1
102
RTVSPropertyOp34
 70
     1
102
RTVSPropertyOp35
 70
     1
102
RTVSPropertyOp36
 70
     1
102
RTVSPropertyOp37
 70
     1
102
RTVSPropertyOp38
 70
     1
102
RTVSPropertyOp39
 70
     1
102
RTVSPropertyOp40
 70
     1
102
RTVSPropertyOp41
 70
     1
102
RTVSPropertyOp42
 70
     1
102
RTVSPropertyOp43
 70
     1
102
RTVSPropertyOp44
 70
     1
102
RTVSPropertyOp45
 70
     1
102
RTVSPropertyOp46
 70
     1
102
RTVSPropertyOp47
 70
     1
102
RTVSPropertyOp48
 70
     1
102
RTVSPropertyOp49
 70
     1
102
RTVSPropertyOp50
 70
     1
102
RTVSPropertyOp51
 70
     0
102
RTVSPropertyOp52
 70
     0
102
RTVSPropertyOp53
 70
     1
102
RTVSPropertyOp54
 70
     1
102
RTVSPropertyOp55
 70
     1
102
RTVSPropertyOp56
 70
     1
102
RTVSPropertyOp57
 70
     1
102
RTVSPropertyOp58
 70
     1
102
RTVSPropertyOp59
 70
     1
102
RTVSPropertyOp60
 70
     1
102
RTVSPropertyOp61
 70
     1
102
RTVSPropertyOp62
 70
     1
  0
XRECORD
  5
6C8
102
{ACAD_REACTORS
330
6C7
102
}
330
6C7
100
AcDbXrecord
280
     1
102
RTVSPost2010Prop28
280
     0
102
RTVSPost2010PropOp28
 70
     1
102
RTVSPost2010Prop29
280
     1
102
RTVSPost2010PropOp29
 70
     1
102
RTVSPost2010Prop30
280
     1
102
RTVSPost2010PropOp30
 70
     1
102
RTVSPost2010Prop31
280
     0
102
RTVSPost2010PropOp31
 70
     1
102
RTVSPost2010Prop32
280
     0
102
RTVSPost2010PropOp32
 70
     1
102
RTVSPost2010Prop33
280
     0
102
RTVSPost2010PropOp33
 70
     1
102
RTVSPost2010Prop34
280
     0
102
RTVSPost2010PropOp34
 70
     1
102
RTVSPost2010Prop35
280
     0
102
RTVSPost2010PropOp35
 70
     1
102
RTVSPost2010Prop36
280
     0
102
RTVSPost2010PropOp36
 70
     1
102
RTVSPost2010Prop37
 90
       50
102
RTVSPost2010PropOp37
 70
     1
102
RTVSPost2010Prop38
140
0.0
102
RTVSPost2010PropOp38
 70
     1
102
RTVSPost2010Prop39
140
1.0
102
RTVSPost2010PropOp39
 70
     1
102
RTVSPost2010Prop40
 90
        0
102
RTVSPost2010PropOp40
 70
     1
102
RTVSPost2010Prop41ColorIndex
 90
       18
102
RTVSPost2010Prop41ColorRGB
 90
        0
102
RTVSPost2010PropOp41
 70
     1
102
RTVSPost2010Prop42
 90
       50
102
RTVSPost2010PropOp42
 70
     1
102
RTVSPost2010Prop43
 90
        3
102
RTVSPost2010PropOp43
 70
     1
102
RTVSPost2010Prop44ColorIndex
 90
        5
102
RTVSPost2010Prop44ColorRGB
 90
      255
102
RTVSPost2010PropOp44
 70
     1
102
RTVSPost2010Prop45
280
     0
102
RTVSPost2010PropOp45
 70
     1
102
RTVSPost2010Prop46
 90
       50
102
RTVSPost2010PropOp46
 70
     1
102
RTVSPost2010Prop47
 90
       50
102
RTVSPost2010PropOp47
 70
     1
102
RTVSPost2010Prop48
 90
       50
102
RTVSPost2010PropOp48
 70
     1
102
RTVSPost2010Prop49
280
     0
102
RTVSPost2010PropOp49
 70
     1
102
RTVSPost2010Prop50
 90
       50
102
RTVSPost2010PropOp50
 70
     1
102
RTVSPost2010Prop51ColorIndex
 90
      256
102
RTVSPost2010Prop51ColorRGB
 90
-16777216
102
RTVSPost2010PropOp51
 70
     0
102
RTVSPost2010Prop52
140
1.0
102
RTVSPost2010PropOp52
 70
     0
102
RTVSPost2010Prop53
 90
        2
102
RTVSPost2010PropOp53
 70
     1
102
RTVSPost2010Prop54
  1
strokes_ogs.tif
102
RTVSPost2010PropOp54
 70
     1
102
RTVSPost2010Prop55
280
     0
102
RTVSPost2010PropOp55
 70
     1
102
RTVSPost2010Prop56
140
1.0
102
RTVSPost2010PropOp56
 70
     1
102
RTVSPost2010Prop57
140
1.0
102
RTVSPost2010PropOp57
 70
     1
102
RTVSPropertyOp0
 70
     1
102
RTVSPropertyOp1
 70
     1
102
RTVSPropertyOp2
 70
     1
102
RTVSPropertyOp3
 70
     1
102
RTVSPropertyOp4
 70
     1
102
RTVSPropertyOp5
 70
     1
102
RTVSPropertyOp6
 70
     1
102
RTVSPropertyOp7
 70
     1
102
RTVSPropertyOp8
 70
     1
102
RTVSPropertyOp9
 70
     1
102
RTVSPropertyOp10
 70
     1
102
RTVSPropertyOp11
 70
     1
102
RTVSPropertyOp12
 70
     1
102
RTVSPropertyOp13
 70
     1
102
RTVSPropertyOp14
 70
     1
102
RTVSPropertyOp15
 70
     1
102
RTVSPropertyOp16
 70
     1
102
RTVSPropertyOp17
 70
     1
102
RTVSPropertyOp18
 70
     1
102
RTVSPropertyOp19
 70
     1
102
RTVSPropertyOp20
 70
     1
102
RTVSPropertyOp21
 70
     1
102
RTVSPropertyOp22
 70
     1
102
RTVSPropertyOp23
 70
     1
102
RTVSPropertyOp24
 70
     1
102
RTVSPropertyOp25
 70
     1
102
RTVSPropertyOp26
 70
     1
102
RTVSPropertyOp27
 70
     1
102
RTVSPropertyOp28
 70
     1
102
RTVSPropertyOp29
 70
     1
102
RTVSPropertyOp30
 70
     1
102
RTVSPropertyOp31
 70
     1
102
RTVSPropertyOp32
 70
     1
102
RTVSPropertyOp33
 70
     1
102
RTVSPropertyOp34
 70
     1
102
RTVSPropertyOp35
 70
     1
102
RTVSPropertyOp36
 70
     1
102
RTVSPropertyOp37
 70
     1
102
RTVSPropertyOp38
 70
     1
102
RTVSPropertyOp39
 70
     1
102
RTVSPropertyOp40
 70
     1
102
RTVSPropertyOp41
 70
     1
102
RTVSPropertyOp42
 70
     1
102
RTVSPropertyOp43
 70
     1
102
RTVSPropertyOp44
 70
     1
102
RTVSPropertyOp45
 70
     1
102
RTVSPropertyOp46
 70
     1
102
RTVSPropertyOp47
 70
     1
102
RTVSPropertyOp48
 70
     1
102
RTVSPropertyOp49
 70
     1
102
RTVSPropertyOp50
 70
     1
102
RTVSPropertyOp51
 70
     0
102
RTVSPropertyOp52
 70
     0
102
RTVSPropertyOp53
 70
     1
102
RTVSPropertyOp54
 70
     1
102
RTVSPropertyOp55
 70
     1
102
RTVSPropertyOp56
 70
     1
102
RTVSPropertyOp57
 70
     1
102
RTVSPropertyOp58
 70
     1
102
RTVSPropertyOp59
 70
     1
102
RTVSPropertyOp60
 70
     1
102
RTVSPropertyOp61
 70
     1
102
RTVSPropertyOp62
 70
     1
  0
XRECORD
  5
6BE
102
{ACAD_REACTORS
330
6BD
102
}
330
6BD
100
AcDbXrecord
280
     1
102
RTVSPost2010Prop28
280
     0
102
RTVSPost2010PropOp28
 70
     1
102
RTVSPost2010Prop29
280
     1
102
RTVSPost2010PropOp29
 70
     1
102
RTVSPost2010Prop30
280
     1
102
RTVSPost2010PropOp30
 70
     1
102
RTVSPost2010Prop31
280
     0
102
RTVSPost2010PropOp31
 70
     1
102
RTVSPost2010Prop32
280
     0
102
RTVSPost2010PropOp32
 70
     1
102
RTVSPost2010Prop33
280
     0
102
RTVSPost2010PropOp33
 70
     1
102
RTVSPost2010Prop34
280
     0
102
RTVSPost2010PropOp34
 70
     1
102
RTVSPost2010Prop35
280
     0
102
RTVSPost2010PropOp35
 70
     1
102
RTVSPost2010Prop36
280
     0
102
RTVSPost2010PropOp36
 70
     1
102
RTVSPost2010Prop37
 90
       50
102
RTVSPost2010PropOp37
 70
     1
102
RTVSPost2010Prop38
140
0.0
102
RTVSPost2010PropOp38
 70
     1
102
RTVSPost2010Prop39
140
1.0
102
RTVSPost2010PropOp39
 70
     1
102
RTVSPost2010Prop40
 90
        0
102
RTVSPost2010PropOp40
 70
     1
102
RTVSPost2010Prop41ColorIndex
 90
       18
102
RTVSPost2010Prop41ColorRGB
 90
        0
102
RTVSPost2010PropOp41
 70
     1
102
RTVSPost2010Prop42
 90
       50
102
RTVSPost2010PropOp42
 70
     1
102
RTVSPost2010Prop43
 90
        3
102
RTVSPost2010PropOp43
 70
     1
102
RTVSPost2010Prop44ColorIndex
 90
        5
102
RTVSPost2010Prop44ColorRGB
 90
      255
102
RTVSPost2010PropOp44
 70
     1
102
RTVSPost2010Prop45
280
     0
102
RTVSPost2010PropOp45
 70
     1
102
RTVSPost2010Prop46
 90
       50
102
RTVSPost2010PropOp46
 70
     1
102
RTVSPost2010Prop47
 90
       50
102
RTVSPost2010PropOp47
 70
     1
102
RTVSPost2010Prop48
 90
       50
102
RTVSPost2010PropOp48
 70
     1
102
RTVSPost2010Prop49
280
     0
102
RTVSPost2010PropOp49
 70
     1
102
RTVSPost2010Prop50
 90
       50
102
RTVSPost2010PropOp50
 70
     1
102
RTVSPost2010Prop51ColorIndex
 90
      256
102
RTVSPost2010Prop51ColorRGB
 90
-16777216
102
RTVSPost2010PropOp51
 70
     0
102
RTVSPost2010Prop52
140
1.0
102
RTVSPost2010PropOp52
 70
     0
102
RTVSPost2010Prop53
 90
        2
102
RTVSPost2010PropOp53
 70
     1
102
RTVSPost2010Prop54
  1
strokes_ogs.tif
102
RTVSPost2010PropOp54
 70
     1
102
RTVSPost2010Prop55
280
     0
102
RTVSPost2010PropOp55
 70
     1
102
RTVSPost2010Prop56
140
1.0
102
RTVSPost2010PropOp56
 70
     1
102
RTVSPost2010Prop57
140
1.0
102
RTVSPost2010PropOp57
 70
     1
102
RTVSPropertyOp0
 70
     1
102
RTVSPropertyOp1
 70
     1
102
RTVSPropertyOp2
 70
     1
102
RTVSPropertyOp3
 70
     1
102
RTVSPropertyOp4
 70
     1
102
RTVSPropertyOp5
 70
     1
102
RTVSPropertyOp6
 70
     1
102
RTVSPropertyOp7
 70
     1
102
RTVSPropertyOp8
 70
     1
102
RTVSPropertyOp9
 70
     1
102
RTVSPropertyOp10
 70
     1
102
RTVSPropertyOp11
 70
     1
102
RTVSPropertyOp12
 70
     1
102
RTVSPropertyOp13
 70
     1
102
RTVSPropertyOp14
 70
     1
102
RTVSPropertyOp15
 70
     1
102
RTVSPropertyOp16
 70
     1
102
RTVSPropertyOp17
 70
     1
102
RTVSPropertyOp18
 70
     1
102
RTVSPropertyOp19
 70
     1
102
RTVSPropertyOp20
 70
     1
102
RTVSPropertyOp21
 70
     1
102
RTVSPropertyOp22
 70
     1
102
RTVSPropertyOp23
 70
     1
102
RTVSPropertyOp24
 70
     1
102
RTVSPropertyOp25
 70
     1
102
RTVSPropertyOp26
 70
     1
102
RTVSPropertyOp27
 70
     1
102
RTVSPropertyOp28
 70
     1
102
RTVSPropertyOp29
 70
     1
102
RTVSPropertyOp30
 70
     1
102
RTVSPropertyOp31
 70
     1
102
RTVSPropertyOp32
 70
     1
102
RTVSPropertyOp33
 70
     1
102
RTVSPropertyOp34
 70
     1
102
RTVSPropertyOp35
 70
     1
102
RTVSPropertyOp36
 70
     1
102
RTVSPropertyOp37
 70
     1
102
RTVSPropertyOp38
 70
     1
102
RTVSPropertyOp39
 70
     1
102
RTVSPropertyOp40
 70
     1
102
RTVSPropertyOp41
 70
     1
102
RTVSPropertyOp42
 70
     1
102
RTVSPropertyOp43
 70
     1
102
RTVSPropertyOp44
 70
     1
102
RTVSPropertyOp45
 70
     1
102
RTVSPropertyOp46
 70
     1
102
RTVSPropertyOp47
 70
     1
102
RTVSPropertyOp48
 70
     1
102
RTVSPropertyOp49
 70
     1
102
RTVSPropertyOp50
 70
     1
102
RTVSPropertyOp51
 70
     0
102
RTVSPropertyOp52
 70
     0
102
RTVSPropertyOp53
 70
     1
102
RTVSPropertyOp54
 70
     1
102
RTVSPropertyOp55
 70
     1
102
RTVSPropertyOp56
 70
     1
102
RTVSPropertyOp57
 70
     1
102
RTVSPropertyOp58
 70
     1
102
RTVSPropertyOp59
 70
     1
102
RTVSPropertyOp60
 70
     1
102
RTVSPropertyOp61
 70
     1
102
RTVSPropertyOp62
 70
     1
  0
XRECORD
  5
6B2
102
{ACAD_REACTORS
330
6B1
102
}
330
6B1
100
AcDbXrecord
280
     1
102
RTVSPost2010Prop28
280
     0
102
RTVSPost2010PropOp28
 70
     1
102
RTVSPost2010Prop29
280
     1
102
RTVSPost2010PropOp29
 70
     1
102
RTVSPost2010Prop30
280
     1
102
RTVSPost2010PropOp30
 70
     1
102
RTVSPost2010Prop31
280
     0
102
RTVSPost2010PropOp31
 70
     1
102
RTVSPost2010Prop32
280
     0
102
RTVSPost2010PropOp32
 70
     1
102
RTVSPost2010Prop33
280
     0
102
RTVSPost2010PropOp33
 70
     1
102
RTVSPost2010Prop34
280
     0
102
RTVSPost2010PropOp34
 70
     1
102
RTVSPost2010Prop35
280
     0
102
RTVSPost2010PropOp35
 70
     1
102
RTVSPost2010Prop36
280
     0
102
RTVSPost2010PropOp36
 70
     1
102
RTVSPost2010Prop37
 90
       50
102
RTVSPost2010PropOp37
 70
     1
102
RTVSPost2010Prop38
140
0.0
102
RTVSPost2010PropOp38
 70
     1
102
RTVSPost2010Prop39
140
1.0
102
RTVSPost2010PropOp39
 70
     1
102
RTVSPost2010Prop40
 90
        0
102
RTVSPost2010PropOp40
 70
     1
102
RTVSPost2010Prop41ColorIndex
 90
       18
102
RTVSPost2010Prop41ColorRGB
 90
        0
102
RTVSPost2010PropOp41
 70
     1
102
RTVSPost2010Prop42
 90
       50
102
RTVSPost2010PropOp42
 70
     1
102
RTVSPost2010Prop43
 90
        3
102
RTVSPost2010PropOp43
 70
     1
102
RTVSPost2010Prop44ColorIndex
 90
        5
102
RTVSPost2010Prop44ColorRGB
 90
      255
102
RTVSPost2010PropOp44
 70
     1
102
RTVSPost2010Prop45
280
     0
102
RTVSPost2010PropOp45
 70
     1
102
RTVSPost2010Prop46
 90
       50
102
RTVSPost2010PropOp46
 70
     1
102
RTVSPost2010Prop47
 90
       50
102
RTVSPost2010PropOp47
 70
     1
102
RTVSPost2010Prop48
 90
       50
102
RTVSPost2010PropOp48
 70
     1
102
RTVSPost2010Prop49
280
     0
102
RTVSPost2010PropOp49
 70
     1
102
RTVSPost2010Prop50
 90
       50
102
RTVSPost2010PropOp50
 70
     1
102
RTVSPost2010Prop51ColorIndex
 90
      256
102
RTVSPost2010Prop51ColorRGB
 90
-16777216
102
RTVSPost2010PropOp51
 70
     0
102
RTVSPost2010Prop52
140
1.0
102
RTVSPost2010PropOp52
 70
     0
102
RTVSPost2010Prop53
 90
        2
102
RTVSPost2010PropOp53
 70
     1
102
RTVSPost2010Prop54
  1
strokes_ogs.tif
102
RTVSPost2010PropOp54
 70
     1
102
RTVSPost2010Prop55
280
     0
102
RTVSPost2010PropOp55
 70
     1
102
RTVSPost2010Prop56
140
1.0
102
RTVSPost2010PropOp56
 70
     1
102
RTVSPost2010Prop57
140
1.0
102
RTVSPost2010PropOp57
 70
     1
102
RTVSPropertyOp0
 70
     1
102
RTVSPropertyOp1
 70
     1
102
RTVSPropertyOp2
 70
     1
102
RTVSPropertyOp3
 70
     1
102
RTVSPropertyOp4
 70
     1
102
RTVSPropertyOp5
 70
     1
102
RTVSPropertyOp6
 70
     1
102
RTVSPropertyOp7
 70
     1
102
RTVSPropertyOp8
 70
     1
102
RTVSPropertyOp9
 70
     1
102
RTVSPropertyOp10
 70
     1
102
RTVSPropertyOp11
 70
     1
102
RTVSPropertyOp12
 70
     1
102
RTVSPropertyOp13
 70
     1
102
RTVSPropertyOp14
 70
     1
102
RTVSPropertyOp15
 70
     1
102
RTVSPropertyOp16
 70
     1
102
RTVSPropertyOp17
 70
     1
102
RTVSPropertyOp18
 70
     1
102
RTVSPropertyOp19
 70
     1
102
RTVSPropertyOp20
 70
     1
102
RTVSPropertyOp21
 70
     1
102
RTVSPropertyOp22
 70
     1
102
RTVSPropertyOp23
 70
     1
102
RTVSPropertyOp24
 70
     1
102
RTVSPropertyOp25
 70
     1
102
RTVSPropertyOp26
 70
     1
102
RTVSPropertyOp27
 70
     1
102
RTVSPropertyOp28
 70
     1
102
RTVSPropertyOp29
 70
     1
102
RTVSPropertyOp30
 70
     1
102
RTVSPropertyOp31
 70
     1
102
RTVSPropertyOp32
 70
     1
102
RTVSPropertyOp33
 70
     1
102
RTVSPropertyOp34
 70
     1
102
RTVSPropertyOp35
 70
     1
102
RTVSPropertyOp36
 70
     1
102
RTVSPropertyOp37
 70
     1
102
RTVSPropertyOp38
 70
     1
102
RTVSPropertyOp39
 70
     1
102
RTVSPropertyOp40
 70
     1
102
RTVSPropertyOp41
 70
     1
102
RTVSPropertyOp42
 70
     1
102
RTVSPropertyOp43
 70
     1
102
RTVSPropertyOp44
 70
     1
102
RTVSPropertyOp45
 70
     1
102
RTVSPropertyOp46
 70
     1
102
RTVSPropertyOp47
 70
     1
102
RTVSPropertyOp48
 70
     1
102
RTVSPropertyOp49
 70
     1
102
RTVSPropertyOp50
 70
     1
102
RTVSPropertyOp51
 70
     0
102
RTVSPropertyOp52
 70
     0
102
RTVSPropertyOp53
 70
     1
102
RTVSPropertyOp54
 70
     1
102
RTVSPropertyOp55
 70
     1
102
RTVSPropertyOp56
 70
     1
102
RTVSPropertyOp57
 70
     1
102
RTVSPropertyOp58
 70
     1
102
RTVSPropertyOp59
 70
     1
102
RTVSPropertyOp60
 70
     1
102
RTVSPropertyOp61
 70
     1
102
RTVSPropertyOp62
 70
     1
  0
XRECORD
  5
6CA
102
{ACAD_REACTORS
330
6C9
102
}
330
6C9
100
AcDbXrecord
280
     1
102
RTVSPost2010Prop28
280
     0
102
RTVSPost2010PropOp28
 70
     1
102
RTVSPost2010Prop29
280
     1
102
RTVSPost2010PropOp29
 70
     1
102
RTVSPost2010Prop30
280
     1
102
RTVSPost2010PropOp30
 70
     1
102
RTVSPost2010Prop31
280
     0
102
RTVSPost2010PropOp31
 70
     1
102
RTVSPost2010Prop32
280
     0
102
RTVSPost2010PropOp32
 70
     1
102
RTVSPost2010Prop33
280
     0
102
RTVSPost2010PropOp33
 70
     1
102
RTVSPost2010Prop34
280
     0
102
RTVSPost2010PropOp34
 70
     1
102
RTVSPost2010Prop35
280
     0
102
RTVSPost2010PropOp35
 70
     1
102
RTVSPost2010Prop36
280
     0
102
RTVSPost2010PropOp36
 70
     1
102
RTVSPost2010Prop37
 90
       50
102
RTVSPost2010PropOp37
 70
     1
102
RTVSPost2010Prop38
140
0.0
102
RTVSPost2010PropOp38
 70
     1
102
RTVSPost2010Prop39
140
1.0
102
RTVSPost2010PropOp39
 70
     1
102
RTVSPost2010Prop40
 90
        0
102
RTVSPost2010PropOp40
 70
     1
102
RTVSPost2010Prop41ColorIndex
 90
       18
102
RTVSPost2010Prop41ColorRGB
 90
        0
102
RTVSPost2010PropOp41
 70
     1
102
RTVSPost2010Prop42
 90
       50
102
RTVSPost2010PropOp42
 70
     1
102
RTVSPost2010Prop43
 90
        3
102
RTVSPost2010PropOp43
 70
     1
102
RTVSPost2010Prop44ColorIndex
 90
        5
102
RTVSPost2010Prop44ColorRGB
 90
      255
102
RTVSPost2010PropOp44
 70
     1
102
RTVSPost2010Prop45
280
     0
102
RTVSPost2010PropOp45
 70
     1
102
RTVSPost2010Prop46
 90
       50
102
RTVSPost2010PropOp46
 70
     1
102
RTVSPost2010Prop47
 90
       50
102
RTVSPost2010PropOp47
 70
     1
102
RTVSPost2010Prop48
 90
       50
102
RTVSPost2010PropOp48
 70
     1
102
RTVSPost2010Prop49
280
     0
102
RTVSPost2010PropOp49
 70
     1
102
RTVSPost2010Prop50
 90
       50
102
RTVSPost2010PropOp50
 70
     1
102
RTVSPost2010Prop51ColorIndex
 90
      256
102
RTVSPost2010Prop51ColorRGB
 90
-16777216
102
RTVSPost2010PropOp51
 70
     0
102
RTVSPost2010Prop52
140
1.0
102
RTVSPost2010PropOp52
 70
     0
102
RTVSPost2010Prop53
 90
        2
102
RTVSPost2010PropOp53
 70
     1
102
RTVSPost2010Prop54
  1
strokes_ogs.tif
102
RTVSPost2010PropOp54
 70
     1
102
RTVSPost2010Prop55
280
     0
102
RTVSPost2010PropOp55
 70
     1
102
RTVSPost2010Prop56
140
1.0
102
RTVSPost2010PropOp56
 70
     1
102
RTVSPost2010Prop57
140
1.0
102
RTVSPost2010PropOp57
 70
     1
102
RTVSPropertyOp0
 70
     1
102
RTVSPropertyOp1
 70
     1
102
RTVSPropertyOp2
 70
     1
102
RTVSPropertyOp3
 70
     1
102
RTVSPropertyOp4
 70
     1
102
RTVSPropertyOp5
 70
     1
102
RTVSPropertyOp6
 70
     1
102
RTVSPropertyOp7
 70
     1
102
RTVSPropertyOp8
 70
     1
102
RTVSPropertyOp9
 70
     1
102
RTVSPropertyOp10
 70
     1
102
RTVSPropertyOp11
 70
     1
102
RTVSPropertyOp12
 70
     1
102
RTVSPropertyOp13
 70
     1
102
RTVSPropertyOp14
 70
     1
102
RTVSPropertyOp15
 70
     1
102
RTVSPropertyOp16
 70
     1
102
RTVSPropertyOp17
 70
     1
102
RTVSPropertyOp18
 70
     1
102
RTVSPropertyOp19
 70
     1
102
RTVSPropertyOp20
 70
     1
102
RTVSPropertyOp21
 70
     1
102
RTVSPropertyOp22
 70
     1
102
RTVSPropertyOp23
 70
     1
102
RTVSPropertyOp24
 70
     1
102
RTVSPropertyOp25
 70
     1
102
RTVSPropertyOp26
 70
     1
102
RTVSPropertyOp27
 70
     1
102
RTVSPropertyOp28
 70
     1
102
RTVSPropertyOp29
 70
     1
102
RTVSPropertyOp30
 70
     1
102
RTVSPropertyOp31
 70
     1
102
RTVSPropertyOp32
 70
     1
102
RTVSPropertyOp33
 70
     1
102
RTVSPropertyOp34
 70
     1
102
RTVSPropertyOp35
 70
     1
102
RTVSPropertyOp36
 70
     1
102
RTVSPropertyOp37
 70
     1
102
RTVSPropertyOp38
 70
     1
102
RTVSPropertyOp39
 70
     1
102
RTVSPropertyOp40
 70
     1
102
RTVSPropertyOp41
 70
     1
102
RTVSPropertyOp42
 70
     1
102
RTVSPropertyOp43
 70
     1
102
RTVSPropertyOp44
 70
     1
102
RTVSPropertyOp45
 70
     1
102
RTVSPropertyOp46
 70
     1
102
RTVSPropertyOp47
 70
     1
102
RTVSPropertyOp48
 70
     1
102
RTVSPropertyOp49
 70
     1
102
RTVSPropertyOp50
 70
     1
102
RTVSPropertyOp51
 70
     0
102
RTVSPropertyOp52
 70
     0
102
RTVSPropertyOp53
 70
     1
102
RTVSPropertyOp54
 70
     1
102
RTVSPropertyOp55
 70
     1
102
RTVSPropertyOp56
 70
     1
102
RTVSPropertyOp57
 70
     1
102
RTVSPropertyOp58
 70
     1
102
RTVSPropertyOp59
 70
     1
102
RTVSPropertyOp60
 70
     1
102
RTVSPropertyOp61
 70
     1
102
RTVSPropertyOp62
 70
     1
  0
ENDSEC
  0
EOF
