  0
SECTION
  2
HEADER
  9
$TEXTSIZE
 40
3.2
  9
$TEXTSTYLE
  7
STANDARD
  9
$CLAYER
  8
0
  9
$CELTYPE
  6
BYLAYER
  9
$CECOLOR
 62
256
  9
$DIMSCALE
 40
1
  0
ENDSEC
  0
SECTION
  2
TABLES
  0
TABLE
  2
LTYPE
 70
5
  0
LTYPE
  2
CONTINUOUS
 70
64
  3
Solid line
 72
65
 73
0
 40
0.0
  0
LTYPE
  2
DASHED
 70
64
  3
__ __ __ __ __ __ __ __ __ __ __ __ __ __ __
 72
65
 73
2
 40
0.75
 49
0.5
 49
-0.25
  0
LTYPE
  2
HIDDEN
 70
64
  3
_ _ _ _ _ _ _ _ _ _ _ _ _ _ _ _ _ _ _ _ _ _ _
 72
65
 73
2
 40
0.375
 49
0.25
 49
-0.125
  0
LTYPE
  2
CENTER
 70
64
  3
____ _ ____ _ ____ _ ____ _ ____ _ ____ _ ____
 72
65
 73
4
 40
2.0
 49
1.25
 49
-0.25
 49
0.25
 49
-0.25
  0
LTYPE
  2
PHANTOM
 70
64
  3
_____ _ _ _____ _ _ _____ _ _ _____ _ _ ____
 72
65
 73
6
 40
2.5
 49
1.25
 49
-0.25
 49
0.25
 49
-0.25
 49
0.25
 49
-0.25
  0
ENDTAB
  0
TABLE
  2
LAYER
 70
1
  0
LAYER
  2
0
 70
0
 62
7
  6
CONTINUOUS
  0
ENDTAB
  0
TABLE
  2
STYLE
 70
1
  0
STYLE
  2
STANDARD
 70
0
 40
0
 41
1
 50
0
 71
0
 42
3.2
  3
txt
  4
bigfont.shx
  0
ENDTAB
  0
TABLE
  2
VIEW
 70
0
  0
ENDTAB
  0
ENDSEC
  0
SECTION
  2
BLOCKS
  0
ENDSEC
  0
SECTION
  2
ENTITIES
  0
LINE
  8
0
 62
7
  6
CONTINUOUS
 10
-56.489841
 20
93.765045
 11
-59.201618
 21
83.644554
  0
LINE
  8
0
 62
7
  6
CONTINUOUS
 10
-56.489841
 20
93.765045
 11
-56.489842
 21
90.765045
  0
LINE
  8
0
 62
7
  6
CONTINUOUS
 10
-56.489841
 20
93.765045
 11
-57.989841
 21
91.166969
  0
LINE
  8
0
 62
7
  6
CONTINUOUS
 10
-59.201618
 20
83.644554
 11
-59.201618
 21
86.644554
  0
LINE
  8
0
 62
7
  6
CONTINUOUS
 10
-59.201618
 20
83.644554
 11
-57.701619
 21
86.242631
  0
LINE
  8
0
 62
7
  6
CONTINUOUS
 10
-95.987816
 20
104.348495
 11
-54.281738
 21
93.173386
  0
LINE
  8
0
 62
7
  6
CONTINUOUS
 10
-98.699593
 20
94.228004
 11
-56.993515
 21
83.052895
  0
LINE
  8
0
 62
7
  6
CONTINUOUS
 10
-56.489841
 20
93.765045
 11
-51.675205
 21
111.733513
  0
LINE
  8
0
 62
7
  6
CONTINUOUS
 10
-100.000000
 20
62.085701
 11
-150.511810
 21
62.085701
  0
LINE
  8
0
 62
7
  6
CONTINUOUS
 10
-100.000000
 20
62.085701
 11
-102.897778
 21
61.309244
  0
LINE
  8
0
 62
7
  6
CONTINUOUS
 10
-100.000000
 20
62.085701
 11
-102.897778
 21
62.862157
  0
LINE
  8
0
 62
7
  6
CONTINUOUS
 10
-150.511810
 20
62.085701
 11
-147.614033
 21
62.862157
  0
LINE
  8
0
 62
7
  6
CONTINUOUS
 10
-150.511810
 20
62.085701
 11
-147.614033
 21
61.309244
  0
LINE
  8
0
 62
7
  6
CONTINUOUS
 10
-100.000000
 20
100.000000
 11
-100.000000
 21
59.799702
  0
LINE
  8
0
 62
7
  6
CONTINUOUS
 10
-150.511810
 20
87.074921
 11
-150.511810
 21
59.799702
  0
LINE
  8
0
 62
7
  6
CONTINUOUS
 10
-96.1661
 20
103.683
 11
-85.2994
 21
100.771
  0
LINE
  8
0
 62
7
  6
CONTINUOUS
 10
-98.5213
 20
94.8933
 11
-87.6547
 21
91.9816
  0
LINE
  8
0
 62
7
  6
CONTINUOUS
 10
-98.5492
 20
94.7892
 11
-99.2608
 21
94.3784
  0
LINE
  8
0
 62
7
  6
CONTINUOUS
 10
-100.913
 20
94.8211
 11
-99.2608
 21
94.3784
  0
LINE
  8
0
 62
7
  6
CONTINUOUS
 10
-100.812
 20
95.3955
 11
-98.5492
 21
94.7892
  0
LINE
  8
0
 62
7
  6
CONTINUOUS
 10
-97.8425
 20
104.845
 11
-96.549
 21
104.499
  0
LINE
  8
0
 62
7
  6
CONTINUOUS
 10
-98.2311
 20
104.348
 11
-96.1382
 21
103.787
  0
LINE
  8
0
 62
7
  6
CONTINUOUS
 10
-96.1382
 20
103.787
 11
-96.549
 21
104.499
  0
LINE
  8
0
 62
7
  6
CONTINUOUS
 10
-99.2608
 20
94.3784
 11
-96.549
 21
104.499
  0
LINE
  8
0
 62
7
  6
CENTER
 10
-146.074
 20
112.243
 11
-150.512
 21
87.0749
  0
LINE
  8
0
 62
7
  6
CONTINUOUS
 10
-135.1
 20
93.1344
 11
-135.603
 21
90.2848
  0
LINE
  8
0
 62
7
  6
CONTINUOUS
 10
-136.182
 20
89.8792
 11
-163.014
 21
94.6104
  0
LINE
  8
0
 62
7
  6
CONTINUOUS
 10
-162.156
 20
94.4592
 11
-162.374
 21
93.2282
  0
LINE
  8
0
 62
7
  6
CONTINUOUS
 10
-137.044
 20
90.0312
 11
-137.261
 21
88.8001
  0
LINE
  8
0
 62
7
  6
CONTINUOUS
 10
-144.181
 20
85.9587
 11
-156.842
 21
88.1912
  0
LINE
  8
0
 62
7
  6
CONTINUOUS
 10
-146.775
 20
88.3199
 11
-147.013
 21
86.9658
  0
LINE
  8
0
 62
7
  6
CONTINUOUS
 10
-143.498
 20
86.9529
 11
-143.602
 21
86.3643
  0
LINE
  8
0
 62
7
  6
CONTINUOUS
 10
-138.13
 20
88.1918
 11
-161.765
 21
92.3593
  0
LINE
  8
0
 62
7
  6
CONTINUOUS
 10
-93.6098
 20
107.447
 11
-93.6966
 21
106.954
  0
LINE
  8
0
 62
7
  6
CENTER
 10
-157.652
 20
92.6495
 11
-158.26
 21
89.2027
  0
LINE
  8
0
 62
7
  6
CONTINUOUS
 10
-160.254
 20
90.9936
 11
-160.283
 21
90.8286
  0
LINE
  8
0
 62
7
  6
CONTINUOUS
 10
-159.269
 20
90.8199
 11
-159.298
 21
90.655
  0
LINE
  8
0
 62
7
  6
CONTINUOUS
 10
-159.274
 20
90.6508
 11
-159.296
 21
90.5277
  0
LINE
  8
0
 62
7
  6
CONTINUOUS
 10
-157.223
 20
89.0199
 11
-158.752
 21
89.2895
  0
LINE
  8
0
 62
7
  6
CONTINUOUS
 10
-158.723
 20
89.4545
 11
-158.752
 21
89.2895
  0
LINE
  8
0
 62
7
  6
CENTER
 10
-159.984
 20
93.8223
 11
-160.505
 21
90.8678
  0
LINE
  8
0
 62
7
  6
CONTINUOUS
 10
-161.519
 20
92.3159
 11
-161.541
 21
92.1928
  0
LINE
  8
0
 62
7
  6
CONTINUOUS
 10
-138.398
 20
88.1121
 11
-145.375
 21
89.3424
  0
LINE
  8
0
 62
7
  6
CONTINUOUS
 10
-140.613
 20
88.5028
 11
-140.765
 21
87.6411
  0
LINE
  8
0
 62
7
  6
CONTINUOUS
 10
-160.997
 20
90.9547
 11
-141.055
 21
87.4383
  0
LINE
  8
0
 62
7
  6
CENTER
 10
-141.895
 20
89.8712
 11
-142.503
 21
86.4243
  0
LINE
  8
0
 62
7
  6
CONTINUOUS
 10
-140.316
 20
87.3081
 11
-139.332
 21
87.1344
  0
LINE
  8
0
 62
7
  6
CONTINUOUS
 10
-139.303
 20
87.2993
 11
-139.332
 21
87.1344
  0
LINE
  8
0
 62
7
  6
CONTINUOUS
 10
-140.287
 20
87.473
 11
-140.316
 21
87.3081
  0
LINE
  8
0
 62
7
  6
CONTINUOUS
 10
-142.774
 20
87.7414
 11
-142.796
 21
87.6183
  0
LINE
  8
0
 62
7
  6
CONTINUOUS
 10
-144.714
 20
86.8142
 11
-143.73
 21
86.6406
  0
LINE
  8
0
 62
7
  6
CONTINUOUS
 10
-143.7
 20
86.8055
 11
-143.73
 21
86.6406
  0
LINE
  8
0
 62
7
  6
CONTINUOUS
 10
-144.685
 20
86.9792
 11
-144.714
 21
86.8142
  0
LINE
  8
0
 62
7
  6
CENTER
 10
-139.303
 20
90.1757
 11
-139.824
 21
87.2212
  0
LINE
  8
0
 62
7
  6
CONTINUOUS
 10
-138.376
 20
88.2352
 11
-138.398
 21
88.1121
  0
LINE
  8
0
 62
7
  6
CONTINUOUS
 10
-153.598
 20
89.523
 11
-153.836
 21
88.1689
  0
LINE
  8
0
 62
7
  6
CONTINUOUS
 10
-157.205
 20
89.0166
 11
-157.248
 21
88.7704
  0
LINE
  8
0
 62
7
  6
CONTINUOUS
 10
-141.6
 20
87.5343
 11
-141.621
 21
87.4112
  0
LINE
  8
0
 62
7
  6
CONTINUOUS
 10
-143.511
 20
86.7721
 11
-143.54
 21
86.6072
  0
LINE
  8
0
 62
7
  6
CONTINUOUS
 10
-143.54
 20
86.6072
 11
-142.011
 21
86.3375
  0
LINE
  8
0
 62
7
  6
CONTINUOUS
 10
-142.526
 20
86.5985
 11
-142.555
 21
86.4335
  0
LINE
  8
0
 62
7
  6
CONTINUOUS
 10
-151.396
 20
89.2616
 11
-151.417
 21
89.1385
  0
LINE
  8
0
 62
7
  6
CONTINUOUS
 10
-159.296
 20
90.5277
 11
-141.077
 21
87.3152
  0
LINE
  8
0
 62
7
  6
CONTINUOUS
 10
-150.874
 20
87.9004
 11
-149.889
 21
87.7267
  0
LINE
  8
0
 62
7
  6
CONTINUOUS
 10
-149.86
 20
87.8916
 11
-149.889
 21
87.7267
  0
LINE
  8
0
 62
7
  6
CONTINUOUS
 10
-148.933
 20
88.8275
 11
-148.955
 21
88.7044
  0
LINE
  8
0
 62
7
  6
CONTINUOUS
 10
-148.552
 20
87.4909
 11
-147.567
 21
87.3172
  0
LINE
  8
0
 62
7
  6
CONTINUOUS
 10
-147.538
 20
87.4822
 11
-147.567
 21
87.3172
  0
LINE
  8
0
 62
7
  6
CONTINUOUS
 10
-148.523
 20
87.6558
 11
-148.552
 21
87.4909
  0
LINE
  8
0
 62
7
  6
CONTINUOUS
 10
-146.611
 20
88.418
 11
-146.633
 21
88.2949
  0
LINE
  8
0
 62
7
  6
CONTINUOUS
 10
-146.436
 20
87.1178
 11
-145.451
 21
86.9441
  0
LINE
  8
0
 62
7
  6
CONTINUOUS
 10
-145.422
 20
87.1091
 11
-145.451
 21
86.9441
  0
LINE
  8
0
 62
7
  6
CONTINUOUS
 10
-146.407
 20
87.2827
 11
-146.436
 21
87.1178
  0
LINE
  8
0
 62
7
  6
CONTINUOUS
 10
-144.495
 20
88.0449
 11
-144.517
 21
87.9218
  0
LINE
  8
0
 62
7
  6
CONTINUOUS
 10
-158.723
 20
89.4545
 11
-158.752
 21
89.2895
  0
LINE
  8
0
 62
7
  6
CONTINUOUS
 10
-141.982
 20
86.5024
 11
-142.011
 21
86.3375
  0
LINE
  8
0
 62
7
  6
CONTINUOUS
 10
-141.055
 20
87.4383
 11
-141.077
 21
87.3152
  0
LINE
  8
0
 62
7
  6
CONTINUOUS
 10
-150.845
 20
88.0653
 11
-150.874
 21
87.9004
  0
LINE
  8
0
 62
7
  6
CONTINUOUS
 10
-152.211
 20
88.1362
 11
-153.196
 21
88.3098
  0
LINE
  8
0
 62
7
  6
CONTINUOUS
 10
-152.182
 20
88.3011
 11
-152.211
 21
88.1362
  0
LINE
  8
0
 62
7
  6
CONTINUOUS
 10
-153.167
 20
88.4747
 11
-153.196
 21
88.3098
  0
LINE
  8
0
 62
7
  6
CONTINUOUS
 10
-154.298
 20
88.6742
 11
-154.327
 21
88.5093
  0
LINE
  8
0
 62
7
  6
CONTINUOUS
 10
-154.327
 20
88.5093
 11
-155.312
 21
88.6829
  0
LINE
  8
0
 62
7
  6
CONTINUOUS
 10
-155.283
 20
88.8478
 11
-155.312
 21
88.6829
  0
LINE
  8
0
 62
7
  6
CONTINUOUS
 10
-156.049
 20
88.8128
 11
-157.034
 21
88.9865
  0
LINE
  8
0
 62
7
  6
CONTINUOUS
 10
-156.02
 20
88.9777
 11
-156.049
 21
88.8128
  0
LINE
  8
0
 62
7
  6
CONTINUOUS
 10
-157.005
 20
89.1514
 11
-157.034
 21
88.9865
  0
LINE
  8
0
 62
7
  6
CONTINUOUS
 10
-157.194
 20
89.1848
 11
-157.223
 21
89.0199
  0
LINE
  8
0
 62
7
  6
CONTINUOUS
 10
-158.179
 20
89.3584
 11
-158.208
 21
89.1935
  0
LINE
  8
0
 62
7
  6
CONTINUOUS
 10
-158.729
 20
90.5548
 11
-158.751
 21
90.4317
  0
LINE
  8
0
 62
7
  6
CONTINUOUS
 10
-157.555
 20
90.3477
 11
-157.577
 21
90.2246
  0
LINE
  8
0
 62
7
  6
CONTINUOUS
 10
-155.834
 20
90.0442
 11
-155.855
 21
89.9211
  0
LINE
  8
0
 62
7
  6
CONTINUOUS
 10
-153.718
 20
89.6711
 11
-153.739
 21
89.548
  0
LINE
  8
0
 62
7
  6
CONTINUOUS
 10
-160.968
 20
91.1196
 11
-160.997
 21
90.9547
  0
LINE
  8
0
 62
7
  6
CONTINUOUS
 10
-160.804
 20
92.1899
 11
-160.826
 21
92.0668
  0
LINE
  8
0
 62
7
  6
CONTINUOUS
 10
-150.628
 20
89.2963
 11
-150.657
 21
89.1314
  0
LINE
  8
0
 62
7
  6
CONTINUOUS
 10
-149.643
 20
89.1226
 11
-149.672
 21
88.9577
  0
LINE
  8
0
 62
7
  6
CONTINUOUS
 10
-148.716
 20
90.0585
 11
-148.738
 21
89.9354
  0
LINE
  8
0
 62
7
  6
CONTINUOUS
 10
-151.178
 20
90.4926
 11
-151.2
 21
90.3695
  0
LINE
  8
0
 62
7
  6
CONTINUOUS
 10
-153.676
 20
89.8337
 11
-153.705
 21
89.6688
  0
LINE
  8
0
 62
7
  6
CONTINUOUS
 10
-152.691
 20
89.6601
 11
-152.72
 21
89.4951
  0
LINE
  8
0
 62
7
  6
CONTINUOUS
 10
-151.764
 20
90.5959
 11
-151.786
 21
90.4728
  0
LINE
  8
0
 62
7
  6
CONTINUOUS
 10
-154.226
 20
91.03
 11
-154.248
 21
90.9069
  0
LINE
  8
0
 62
7
  6
CONTINUOUS
 10
-156.453
 20
90.3234
 11
-156.482
 21
90.1585
  0
LINE
  8
0
 62
7
  6
CONTINUOUS
 10
-155.468
 20
90.1497
 11
-155.497
 21
89.9848
  0
LINE
  8
0
 62
7
  6
CONTINUOUS
 10
-154.541
 20
91.0856
 11
-154.563
 21
90.9625
  0
LINE
  8
0
 62
7
  6
CONTINUOUS
 10
-157.003
 20
91.5197
 11
-157.025
 21
91.3966
  0
LINE
  8
0
 62
7
  6
CONTINUOUS
 10
-159.263
 20
91.9181
 11
-159.285
 21
91.795
  0
LINE
  8
0
 62
7
  6
CONTINUOUS
 10
-158.712
 20
90.7218
 11
-158.741
 21
90.5569
  0
LINE
  8
0
 62
7
  6
CONTINUOUS
 10
-157.728
 20
90.5482
 11
-157.757
 21
90.3832
  0
LINE
  8
0
 62
7
  6
CONTINUOUS
 10
-147.58
 20
88.7589
 11
-147.609
 21
88.5939
  0
LINE
  8
0
 62
7
  6
CONTINUOUS
 10
-146.595
 20
88.5852
 11
-146.624
 21
88.4203
  0
LINE
  8
0
 62
7
  6
CONTINUOUS
 10
-144.803
 20
88.2692
 11
-144.832
 21
88.1043
  0
LINE
  8
0
 62
7
  6
CONTINUOUS
 10
-140.017
 20
87.4254
 11
-140.046
 21
87.2604
  0
LINE
  8
0
 62
7
  6
CONTINUOUS
 10
-143.818
 20
88.0955
 11
-143.847
 21
87.9306
  0
LINE
  8
0
 62
7
  6
CONTINUOUS
 10
-142.543
 20
87.8708
 11
-142.572
 21
87.7058
  0
LINE
  8
0
 62
7
  6
CONTINUOUS
 10
-141.559
 20
87.6971
 11
-141.588
 21
87.5322
  0
LINE
  8
0
 62
7
  6
CONTINUOUS
 10
-148.131
 20
89.9552
 11
-148.152
 21
89.8321
  0
LINE
  8
0
 62
7
  6
CONTINUOUS
 10
-145.669
 20
89.5211
 11
-145.69
 21
89.398
  0
LINE
  8
0
 62
7
  6
CONTINUOUS
 10
-139.091
 20
88.3612
 11
-139.112
 21
88.2381
  0
LINE
  8
0
 62
7
  6
CONTINUOUS
 10
-145.353
 20
89.4655
 11
-145.375
 21
89.3424
  0
LINE
  8
0
 62
7
  6
CONTINUOUS
 10
-142.891
 20
89.0314
 11
-142.913
 21
88.9083
  0
LINE
  8
0
 62
7
  6
CONTINUOUS
 10
-140.632
 20
88.633
 11
-140.654
 21
88.5099
  0
LINE
  8
0
 62
7
  6
CONTINUOUS
 10
-151.786
 20
90.4728
 11
-154.248
 21
90.9069
  0
LINE
  8
0
 62
7
  6
CONTINUOUS
 10
-154.563
 20
90.9625
 11
-161.541
 21
92.1928
  0
LINE
  8
0
 62
7
  6
CONTINUOUS
 10
-148.738
 20
89.9354
 11
-151.2
 21
90.3695
  0
LINE
  8
0
 62
7
  6
CONTINUOUS
 10
-145.69
 20
89.398
 11
-148.152
 21
89.8321
  0
LINE
  8
0
 62
7
  6
CONTINUOUS
 10
-100
 20
100
 11
-101.476
 21
91.629
  0
LINE
  8
0
 62
7
  6
CONTINUOUS
 10
-96.1382
 20
103.787
 11
-98.5492
 21
94.7892
  0
LINE
  8
0
 62
7
  6
CENTER
 10
-100
 20
100
 11
-86.2356
 21
96.3118
  0
LINE
  8
0
 62
7
  6
CONTINUOUS
 10
-85.1097
 20
100.514
 11
-87.3485
 21
92.1583
  0
LINE
  8
0
 62
7
  6
CENTER
 10
-300
 20
111.656
 11
-300
 21
85.8719
  0
LINE
  8
0
 62
7
  6
CONTINUOUS
 10
-312.75
 20
92.2452
 11
-312.75
 21
91.0142
  0
LINE
  8
0
 62
7
  6
CONTINUOUS
 10
-287.25
 20
92.2452
 11
-287.25
 21
91.0142
  0
LINE
  8
0
 62
7
  6
CONTINUOUS
 10
-306
 20
89.1998
 11
-306
 21
86.4734
  0
LINE
  8
0
 62
7
  6
CONTINUOUS
 10
-294
 20
89.1694
 11
-294
 21
86.4734
  0
LINE
  8
0
 62
7
  6
CONTINUOUS
 10
-304.166
 20
89.8299
 11
-303.674
 21
89.8793
  0
LINE
  8
0
 62
7
  6
CENTER
 10
-306
 20
87.0749
 11
-294
 21
87.0749
  0
LINE
  8
0
 62
7
  6
CONTINUOUS
 10
-306
 20
86.4734
 11
-300
 21
85.8719
  0
LINE
  8
0
 62
7
  6
CONTINUOUS
 10
-294
 20
86.4734
 11
-300
 21
85.8719
  0
LINE
  8
0
 62
7
  6
CONTINUOUS
 10
-306
 20
87.6765
 11
-300
 21
88.278
  0
LINE
  8
0
 62
7
  6
CONTINUOUS
 10
-294
 20
87.6765
 11
-300
 21
88.278
  0
LINE
  8
0
 62
7
  6
CONTINUOUS
 10
-309.5
 20
89.9681
 11
-309.5
 21
89.0445
  0
LINE
  8
0
 62
7
  6
CONTINUOUS
 10
-290.5
 20
89.9681
 11
-290.5
 21
89.0445
  0
LINE
  8
0
 62
7
  6
CONTINUOUS
 10
-307.5
 20
87.962
 11
-307.5
 21
87.8135
  0
LINE
  8
0
 62
7
  6
CONTINUOUS
 10
-308.5
 20
87.962
 11
-308.5
 21
87.8135
  0
LINE
  8
0
 62
7
  6
CONTINUOUS
 10
-303.343
 20
90.8898
 11
-303.343
 21
90.7413
  0
LINE
  8
0
 62
7
  6
CONTINUOUS
 10
-304.343
 20
90.8898
 11
-304.343
 21
90.7413
  0
LINE
  8
0
 62
7
  6
CONTINUOUS
 10
-306.047
 20
90.6185
 11
-306.047
 21
90.47
  0
LINE
  8
0
 62
7
  6
CONTINUOUS
 10
-307.047
 20
90.6185
 11
-307.047
 21
90.47
  0
LINE
  8
0
 62
7
  6
CONTINUOUS
 10
-308.176
 20
90.2201
 11
-308.176
 21
90.0716
  0
LINE
  8
0
 62
7
  6
CONTINUOUS
 10
-309.176
 20
90.2201
 11
-309.176
 21
90.0716
  0
LINE
  8
0
 62
7
  6
CONTINUOUS
 10
-309.533
 20
89.7309
 11
-309.533
 21
89.5824
  0
LINE
  8
0
 62
7
  6
CONTINUOUS
 10
-310.533
 20
89.7309
 11
-310.533
 21
89.5824
  0
LINE
  8
0
 62
7
  6
CONTINUOUS
 10
-311
 20
89.193
 11
-311
 21
89.0445
  0
LINE
  8
0
 62
7
  6
CONTINUOUS
 10
-310
 20
89.193
 11
-310
 21
89.0445
  0
LINE
  8
0
 62
7
  6
CONTINUOUS
 10
-310.533
 20
88.6552
 11
-310.533
 21
88.5067
  0
LINE
  8
0
 62
7
  6
CONTINUOUS
 10
-309.533
 20
88.6552
 11
-309.533
 21
88.5067
  0
LINE
  8
0
 62
7
  6
CONTINUOUS
 10
-309.176
 20
88.166
 11
-309.176
 21
88.0175
  0
LINE
  8
0
 62
7
  6
CONTINUOUS
 10
-295.657
 20
90.8898
 11
-295.657
 21
90.7413
  0
LINE
  8
0
 62
7
  6
CONTINUOUS
 10
-296.657
 20
90.8898
 11
-296.657
 21
90.7413
  0
LINE
  8
0
 62
7
  6
CONTINUOUS
 10
-292.953
 20
90.6185
 11
-292.953
 21
90.47
  0
LINE
  8
0
 62
7
  6
CONTINUOUS
 10
-293.953
 20
90.6185
 11
-293.953
 21
90.47
  0
LINE
  8
0
 62
7
  6
CONTINUOUS
 10
-291.824
 20
90.2201
 11
-291.824
 21
90.0716
  0
LINE
  8
0
 62
7
  6
CONTINUOUS
 10
-290.824
 20
90.2201
 11
-290.824
 21
90.0716
  0
LINE
  8
0
 62
7
  6
CONTINUOUS
 10
-289.467
 20
89.7309
 11
-289.467
 21
89.5824
  0
LINE
  8
0
 62
7
  6
CONTINUOUS
 10
-290
 20
89.193
 11
-290
 21
89.0445
  0
LINE
  8
0
 62
7
  6
CONTINUOUS
 10
-290.467
 20
89.7309
 11
-290.467
 21
89.5824
  0
LINE
  8
0
 62
7
  6
CONTINUOUS
 10
-290.467
 20
88.6552
 11
-290.467
 21
88.5067
  0
LINE
  8
0
 62
7
  6
CONTINUOUS
 10
-289
 20
89.193
 11
-289
 21
89.0445
  0
LINE
  8
0
 62
7
  6
CONTINUOUS
 10
-289.467
 20
88.6552
 11
-289.467
 21
88.5067
  0
LINE
  8
0
 62
7
  6
CONTINUOUS
 10
-290.824
 20
88.166
 11
-290.824
 21
88.0175
  0
LINE
  8
0
 62
7
  6
CONTINUOUS
 10
-312.469
 20
90.4292
 11
-311.728
 21
89.8347
  0
LINE
  8
0
 62
7
  6
CONTINUOUS
 10
-287.531
 20
90.4292
 11
-288.272
 21
89.8347
  0
LINE
  8
0
 62
7
  6
CONTINUOUS
 10
-300.5
 20
91.0163
 11
-300.5
 21
90.8678
  0
LINE
  8
0
 62
7
  6
CONTINUOUS
 10
-299.5
 20
91.0163
 11
-299.5
 21
90.8678
  0
LINE
  8
0
 62
7
  6
CONTINUOUS
 10
-300.5
 20
89.3512
 11
-300.5
 21
89.2027
  0
LINE
  8
0
 62
7
  6
CONTINUOUS
 10
-299.5
 20
89.3512
 11
-299.5
 21
89.2027
  0
LINE
  8
0
 62
7
  6
CONTINUOUS
 10
-303.428
 20
89.2548
 11
-303.428
 21
89.1063
  0
LINE
  8
0
 62
7
  6
CONTINUOUS
 10
-302.428
 20
89.2548
 11
-302.428
 21
89.1063
  0
LINE
  8
0
 62
7
  6
CONTINUOUS
 10
-305.488
 20
89.0481
 11
-305.488
 21
88.8996
  0
LINE
  8
0
 62
7
  6
CONTINUOUS
 10
-304.488
 20
89.0481
 11
-304.488
 21
88.8996
  0
LINE
  8
0
 62
7
  6
CONTINUOUS
 10
-308.145
 20
87.553
 11
-308.145
 21
87.4045
  0
LINE
  8
0
 62
7
  6
CONTINUOUS
 10
-307.145
 20
87.553
 11
-307.145
 21
87.4045
  0
LINE
  8
0
 62
7
  6
CONTINUOUS
 10
-308.145
 20
88.371
 11
-308.145
 21
88.2226
  0
LINE
  8
0
 62
7
  6
CONTINUOUS
 10
-307.145
 20
88.371
 11
-307.145
 21
88.2226
  0
LINE
  8
0
 62
7
  6
CONTINUOUS
 10
-302.107
 20
90.0364
 11
-300.832
 21
90.1641
  0
LINE
  8
0
 62
7
  6
CONTINUOUS
 10
-306.11
 20
88.7445
 11
-306.11
 21
88.596
  0
LINE
  8
0
 62
7
  6
CONTINUOUS
 10
-307.11
 20
88.7445
 11
-307.11
 21
88.596
  0
LINE
  8
0
 62
7
  6
CONTINUOUS
 10
-306.11
 20
87.1795
 11
-306.11
 21
87.031
  0
LINE
  8
0
 62
7
  6
CONTINUOUS
 10
-307.11
 20
87.1795
 11
-307.11
 21
87.031
  0
LINE
  8
0
 62
7
  6
CONTINUOUS
 10
-309.145
 20
90.0417
 11
-309.145
 21
89.4536
  0
LINE
  8
0
 62
7
  6
CONTINUOUS
 10
-308.11
 20
90.5526
 11
-308.11
 21
89.827
  0
LINE
  8
0
 62
7
  6
CONTINUOUS
 10
-306.488
 20
90.3838
 11
-306.488
 21
90.1306
  0
LINE
  8
0
 62
7
  6
CONTINUOUS
 10
-304.415
 20
91.2375
 11
-304.415
 21
90.3712
  0
LINE
  8
0
 62
7
  6
CONTINUOUS
 10
-301.496
 20
91.646
 11
-301.496
 21
90.415
  0
LINE
  8
0
 62
7
  6
CONTINUOUS
 10
-298.504
 20
91.646
 11
-298.504
 21
90.415
  0
LINE
  8
0
 62
7
  6
CONTINUOUS
 10
-295.585
 20
91.2375
 11
-295.585
 21
90.3712
  0
LINE
  8
0
 62
7
  6
CONTINUOUS
 10
-293.512
 20
90.3838
 11
-293.512
 21
90.1306
  0
LINE
  8
0
 62
7
  6
CONTINUOUS
 10
-290.855
 20
90.0417
 11
-290.855
 21
89.4536
  0
LINE
  8
0
 62
7
  6
CONTINUOUS
 10
-297.893
 20
90.0364
 11
-299.168
 21
90.1641
  0
LINE
  8
0
 62
7
  6
CONTINUOUS
 10
-295.834
 20
89.8299
 11
-296.326
 21
89.8793
  0
LINE
  8
0
 62
7
  6
CONTINUOUS
 10
-297.572
 20
89.2548
 11
-297.572
 21
89.1063
  0
LINE
  8
0
 62
7
  6
CONTINUOUS
 10
-296.572
 20
89.2548
 11
-296.572
 21
89.1063
  0
LINE
  8
0
 62
7
  6
CONTINUOUS
 10
-295.512
 20
89.0481
 11
-295.512
 21
88.8996
  0
LINE
  8
0
 62
7
  6
CONTINUOUS
 10
-294.512
 20
89.0481
 11
-294.512
 21
88.8996
  0
LINE
  8
0
 62
7
  6
CONTINUOUS
 10
-293.89
 20
87.1795
 11
-293.89
 21
87.031
  0
LINE
  8
0
 62
7
  6
CONTINUOUS
 10
-292.89
 20
88.7445
 11
-292.89
 21
88.596
  0
LINE
  8
0
 62
7
  6
CONTINUOUS
 10
-293.89
 20
88.7445
 11
-293.89
 21
88.596
  0
LINE
  8
0
 62
7
  6
CONTINUOUS
 10
-292.89
 20
87.1795
 11
-292.89
 21
87.031
  0
LINE
  8
0
 62
7
  6
CONTINUOUS
 10
-292.855
 20
87.553
 11
-292.855
 21
87.4045
  0
LINE
  8
0
 62
7
  6
CONTINUOUS
 10
-291.855
 20
87.553
 11
-291.855
 21
87.4045
  0
LINE
  8
0
 62
7
  6
CONTINUOUS
 10
-292.5
 20
87.962
 11
-292.5
 21
87.8135
  0
LINE
  8
0
 62
7
  6
CONTINUOUS
 10
-292.855
 20
88.371
 11
-292.855
 21
88.2226
  0
LINE
  8
0
 62
7
  6
CONTINUOUS
 10
-291.855
 20
88.371
 11
-291.855
 21
88.2226
  0
LINE
  8
0
 62
7
  6
CONTINUOUS
 10
-291.5
 20
87.962
 11
-291.5
 21
87.8135
  0
LINE
  8
0
 62
7
  6
CONTINUOUS
 10
-291.89
 20
90.5526
 11
-291.89
 21
89.827
  0
LINE
  8
0
 62
7
  6
CONTINUOUS
 10
-300
 20
89.1159
 11
-300
 21
88.278
  0
LINE
  8
0
 62
7
  6
CENTER
 10
-300
 20
234.942
 11
-300
 21
156.489
  0
LINE
  8
0
 62
7
  6
CONTINUOUS
 10
-305.5
 20
188.443
 11
-305.5
 21
173.747
  0
LINE
  8
0
 62
7
  6
CONTINUOUS
 10
-294.5
 20
188.443
 11
-294.5
 21
173.747
  0
LINE
  8
0
 62
7
  6
CONTINUOUS
 10
-309.25
 20
220
 11
-309.25
 21
185.632
  0
LINE
  8
0
 62
7
  6
CONTINUOUS
 10
-290.75
 20
220
 11
-290.75
 21
185.633
  0
LINE
  8
0
 62
7
  6
CONTINUOUS
 10
-290.75
 20
220
 11
-296.714
 21
225.201
  0
LINE
  8
0
 62
7
  6
CONTINUOUS
 10
-309.25
 20
220
 11
-303.286
 21
225.201
  0
LINE
  8
0
 62
7
  6
CONTINUOUS
 10
-304.55
 20
233.764
 11
-304.55
 21
224.099
  0
LINE
  8
0
 62
7
  6
CONTINUOUS
 10
-295.45
 20
233.764
 11
-295.45
 21
224.099
  0
LINE
  8
0
 62
7
  6
CONTINUOUS
 10
0
 20
298
 11
0
 21
0
  0
LINE
  8
0
 62
7
  6
CONTINUOUS
 10
-420
 20
0
 11
0
 21
0
  0
LINE
  8
0
 62
7
  6
CONTINUOUS
 10
-15
 20
286
 11
-15
 21
11
  0
LINE
  8
0
 62
7
  6
CONTINUOUS
 10
-392
 20
11
 11
-15
 21
11
  0
LINE
  8
0
 62
7
  6
CONTINUOUS
 10
-195
 20
25
 11
-195
 21
11
  0
LINE
  8
0
 62
7
  6
CONTINUOUS
 10
-392
 20
25
 11
-15
 21
25
  0
LINE
  8
0
 62
7
  6
CONTINUOUS
 10
-290
 20
25
 11
-290
 21
11
  0
LINE
  8
0
 62
7
  6
CONTINUOUS
 10
-272
 20
25
 11
-272
 21
11
  0
LINE
  8
0
 62
7
  6
CONTINUOUS
 10
-70
 20
25
 11
-70
 21
11
  0
LINE
  8
0
 62
7
  6
CONTINUOUS
 10
-327.32
 20
18.6
 11
-326.52
 21
18.6
  0
LINE
  8
0
 62
7
  6
CONTINUOUS
 10
-361.4
 20
13
 11
-359.8
 21
13
  0
LINE
  8
0
 62
7
  6
CONTINUOUS
 10
-381.4
 20
18.6
 11
-381.4
 21
18.6
  0
LINE
  8
0
 62
7
  6
CONTINUOUS
 10
-380.6
 20
18.2
 11
-380.6
 21
13
  0
LINE
  8
0
 62
7
  6
CONTINUOUS
 10
-375
 20
18.2
 11
-375
 21
14.6
  0
LINE
  8
0
 62
7
  6
CONTINUOUS
 10
-375.8
 20
16.2
 11
-375.8
 21
15.4
  0
LINE
  8
0
 62
7
  6
CONTINUOUS
 10
-367.8
 20
13.8
 11
-367.8
 21
13
  0
LINE
  8
0
 62
7
  6
CONTINUOUS
 10
-379.8
 20
13.8
 11
-376.6
 21
13.8
  0
LINE
  8
0
 62
7
  6
CONTINUOUS
 10
-379.8
 20
17.4
 11
-379.8
 21
13.8
  0
LINE
  8
0
 62
7
  6
CONTINUOUS
 10
-375.8
 20
17.4
 11
-375.8
 21
14.6
  0
LINE
  8
0
 62
7
  6
CONTINUOUS
 10
-374.2
 20
16.2
 11
-368.6
 21
16.2
  0
LINE
  8
0
 62
7
  6
CONTINUOUS
 10
-374.2
 20
15.4
 11
-369.4
 21
15.4
  0
LINE
  8
0
 62
7
  6
CONTINUOUS
 10
-382.2
 20
18.6
 11
-382.2
 21
18.6
  0
LINE
  8
0
 62
7
  6
CONTINUOUS
 10
-385.4
 20
18.2
 11
-383.8
 21
18.2
  0
LINE
  8
0
 62
7
  6
CONTINUOUS
 10
-384.737
 20
17.4
 11
-382.22
 21
17.4
  0
LINE
  8
0
 62
7
  6
CONTINUOUS
 10
-367.4
 20
18.2
 11
-362.6
 21
18.2
  0
LINE
  8
0
 62
7
  6
CONTINUOUS
 10
-367.4
 20
17.4
 11
-365.4
 21
17.4
  0
LINE
  8
0
 62
7
  6
CONTINUOUS
 10
-367.8
 20
13.8
 11
-366.2
 21
13.8
  0
LINE
  8
0
 62
7
  6
CONTINUOUS
 10
-364.6
 20
17.4
 11
-364.6
 21
14.6
  0
LINE
  8
0
 62
7
  6
CONTINUOUS
 10
-365.4
 20
17.4
 11
-365.4
 21
14.6
  0
LINE
  8
0
 62
7
  6
CONTINUOUS
 10
-364.6
 20
17.4
 11
-363.4
 21
17.4
  0
LINE
  8
0
 62
7
  6
CONTINUOUS
 10
-364.814
 20
13.8
 11
-362.2
 21
13.8
  0
LINE
  8
0
 62
7
  6
CONTINUOUS
 10
-363
 20
18.2
 11
-363
 21
18.2
  0
LINE
  8
0
 62
7
  6
CONTINUOUS
 10
-367.4
 20
18.2
 11
-367.4
 21
17.4
  0
LINE
  8
0
 62
7
  6
CONTINUOUS
 10
-338.52
 20
17.8
 11
-338.52
 21
17
  0
LINE
  8
0
 62
7
  6
CONTINUOUS
 10
-357.4
 20
18.6
 11
-357.4
 21
17.8
  0
LINE
  8
0
 62
7
  6
CONTINUOUS
 10
-383.4
 20
18.2
 11
-383.4
 21
17.8
  0
LINE
  8
0
 62
7
  6
CONTINUOUS
 10
-383.4
 20
17.8
 11
-381.4
 21
17.8
  0
LINE
  8
0
 62
7
  6
CONTINUOUS
 10
-385.4
 20
18.2
 11
-383.4
 21
18.2
  0
LINE
  8
0
 62
7
  6
CONTINUOUS
 10
-381.4
 20
17.8
 11
-381.4
 21
17.48
  0
LINE
  8
0
 62
7
  6
CONTINUOUS
 10
-387
 20
16.6
 11
-387
 21
15.8
  0
LINE
  8
0
 62
7
  6
CONTINUOUS
 10
-343.32
 20
13.8
 11
-341.72
 21
13.8
  0
LINE
  8
0
 62
7
  6
CONTINUOUS
 10
-380.6
 20
13
 11
-376.6
 21
13
  0
LINE
  8
0
 62
7
  6
CONTINUOUS
 10
-387
 20
13.8
 11
-387
 21
13
  0
LINE
  8
0
 62
7
  6
CONTINUOUS
 10
-380.6
 20
18.2
 11
-375
 21
18.2
  0
LINE
  8
0
 62
7
  6
CONTINUOUS
 10
-379.8
 20
17.4
 11
-375.8
 21
17.4
  0
LINE
  8
0
 62
7
  6
CONTINUOUS
 10
-381.4
 20
17.8
 11
-381.4
 21
17
  0
LINE
  8
0
 62
7
  6
CONTINUOUS
 10
-382.2
 20
17.4
 11
-382.2
 21
17
  0
LINE
  8
0
 62
7
  6
CONTINUOUS
 10
-355.8
 20
17.8
 11
-355.8
 21
17
  0
LINE
  8
0
 62
7
  6
CONTINUOUS
 10
-355
 20
16.68
 11
-355
 21
15.88
  0
LINE
  8
0
 62
7
  6
CONTINUOUS
 10
-349.72
 20
13.8
 11
-349.72
 21
13
  0
LINE
  8
0
 62
7
  6
CONTINUOUS
 10
-344.12
 20
13.8
 11
-344.12
 21
13
  0
LINE
  8
0
 62
7
  6
CONTINUOUS
 10
-343.32
 20
13.8
 11
-343.32
 21
13
  0
LINE
  8
0
 62
7
  6
CONTINUOUS
 10
-337.72
 20
17.8
 11
-337.72
 21
17
  0
LINE
  8
0
 62
7
  6
CONTINUOUS
 10
-336.92
 20
17.4
 11
-336.92
 21
16.6
  0
LINE
  8
0
 62
7
  6
CONTINUOUS
 10
-330.52
 20
17.8
 11
-330.52
 21
17
  0
LINE
  8
0
 62
7
  6
CONTINUOUS
 10
-324.92
 20
13.8
 11
-324.92
 21
13
  0
LINE
  8
0
 62
7
  6
CONTINUOUS
 10
-324.12
 20
17.4
 11
-324.12
 21
16.6
  0
LINE
  8
0
 62
7
  6
CONTINUOUS
 10
-318.52
 20
17.4
 11
-318.52
 21
16.6
  0
LINE
  8
0
 62
7
  6
CONTINUOUS
 10
-317.72
 20
17.8
 11
-317.72
 21
17
  0
LINE
  8
0
 62
7
  6
CONTINUOUS
 10
-367.8
 20
13
 11
-363
 21
13
  0
LINE
  8
0
 62
7
  6
CONTINUOUS
 10
-353.8
 20
17.88
 11
-353
 21
17.88
  0
LINE
  8
0
 62
7
  6
CONTINUOUS
 10
-342.92
 20
17.4
 11
-340.92
 21
17.4
  0
LINE
  8
0
 62
7
  6
CONTINUOUS
 10
-387
 20
13.8
 11
-385.4
 21
13.8
  0
LINE
  8
0
 62
7
  6
CONTINUOUS
 10
-387
 20
13
 11
-385.4
 21
13
  0
LINE
  8
0
 62
7
  6
CONTINUOUS
 10
-361
 20
16.6
 11
-358.2
 21
16.6
  0
LINE
  8
0
 62
7
  6
CONTINUOUS
 10
-361
 20
15.8
 11
-359
 21
15.8
  0
LINE
  8
0
 62
7
  6
CONTINUOUS
 10
-343.32
 20
13
 11
-341.72
 21
13
  0
LINE
  8
0
 62
7
  6
CONTINUOUS
 10
-342.92
 20
18.2
 11
-340.12
 21
18.2
  0
LINE
  8
0
 62
7
  6
CONTINUOUS
 10
-383
 20
18.6
 11
-381.4
 21
18.6
  0
LINE
  8
0
 62
7
  6
CONTINUOUS
 10
-382.2
 20
18.6
 11
-382.2
 21
17.8
  0
LINE
  8
0
 62
7
  6
CONTINUOUS
 10
-383
 20
18.6
 11
-383
 21
17.8
  0
LINE
  8
0
 62
7
  6
CONTINUOUS
 10
-361.4
 20
13.8
 11
-361.4
 21
13
  0
LINE
  8
0
 62
7
  6
CONTINUOUS
 10
-361
 20
16.6
 11
-361
 21
15.8
  0
LINE
  8
0
 62
7
  6
CONTINUOUS
 10
-342.92
 20
18.2
 11
-342.92
 21
17.4
  0
LINE
  8
0
 62
7
  6
CONTINUOUS
 10
-361.4
 20
13.8
 11
-359.8
 21
13.8
  0
LINE
  8
0
 62
7
  6
CONTINUOUS
 10
-361.4
 20
13
 11
-359.8
 21
13
  0
LINE
  8
0
 62
7
  6
CONTINUOUS
 10
-325.72
 20
18.6
 11
-325.72
 21
17.8
  0
LINE
  8
0
 62
7
  6
CONTINUOUS
 10
-356.6
 20
17.8
 11
-355.8
 21
17.8
  0
LINE
  8
0
 62
7
  6
CONTINUOUS
 10
-361
 20
18.2
 11
-358.2
 21
18.2
  0
LINE
  8
0
 62
7
  6
CONTINUOUS
 10
-361
 20
17.4
 11
-359
 21
17.4
  0
LINE
  8
0
 62
7
  6
CONTINUOUS
 10
-361
 20
18.2
 11
-361
 21
17.4
  0
LINE
  8
0
 62
7
  6
CONTINUOUS
 10
-346.52
 20
18.2
 11
-346.12
 21
18.2
  0
LINE
  8
0
 62
7
  6
CONTINUOUS
 10
-345.72
 20
16.9056
 11
-345.72
 21
15.4
  0
LINE
  8
0
 62
7
  6
CONTINUOUS
 10
-338.52
 20
17.8
 11
-337.72
 21
17.8
  0
LINE
  8
0
 62
7
  6
CONTINUOUS
 10
-346.12
 20
18.2
 11
-346.12
 21
17.8
  0
LINE
  8
0
 62
7
  6
CONTINUOUS
 10
-346.52
 20
18.2
 11
-346.52
 21
15.4
  0
LINE
  8
0
 62
7
  6
CONTINUOUS
 10
-347.72
 20
18.6
 11
-347.72
 21
15
  0
LINE
  8
0
 62
7
  6
CONTINUOUS
 10
-348.52
 20
18.6
 11
-348.52
 21
15
  0
LINE
  8
0
 62
7
  6
CONTINUOUS
 10
-348.52
 20
18.6
 11
-347.72
 21
18.6
  0
LINE
  8
0
 62
7
  6
CONTINUOUS
 10
-353.8
 20
17.88
 11
-353.8
 21
16.68
  0
LINE
  8
0
 62
7
  6
CONTINUOUS
 10
-353
 20
17.88
 11
-353
 21
16.68
  0
LINE
  8
0
 62
7
  6
CONTINUOUS
 10
-355
 20
16.68
 11
-353.8
 21
16.68
  0
LINE
  8
0
 62
7
  6
CONTINUOUS
 10
-355
 20
15.88
 11
-353.8
 21
15.88
  0
LINE
  8
0
 62
7
  6
CONTINUOUS
 10
-353.8
 20
15.88
 11
-353.8
 21
13.4
  0
LINE
  8
0
 62
7
  6
CONTINUOUS
 10
-353
 20
15.88
 11
-351.491
 21
15.88
  0
LINE
  8
0
 62
7
  6
CONTINUOUS
 10
-353
 20
15.88
 11
-353
 21
14.2
  0
LINE
  8
0
 62
7
  6
CONTINUOUS
 10
-353
 20
16.68
 11
-350.52
 21
16.68
  0
LINE
  8
0
 62
7
  6
CONTINUOUS
 10
-352.6
 20
15.0323
 11
-352.6
 21
14.2214
  0
LINE
  8
0
 62
7
  6
CONTINUOUS
 10
-335.72
 20
18.6
 11
-334.92
 21
18.6
  0
LINE
  8
0
 62
7
  6
CONTINUOUS
 10
-334.92
 20
18.6
 11
-334.92
 21
17.4
  0
LINE
  8
0
 62
7
  6
CONTINUOUS
 10
-335.72
 20
18.6
 11
-335.72
 21
17.4
  0
LINE
  8
0
 62
7
  6
CONTINUOUS
 10
-336.92
 20
17.4
 11
-335.72
 21
17.4
  0
LINE
  8
0
 62
7
  6
CONTINUOUS
 10
-336.92
 20
16.6
 11
-335.72
 21
16.6
  0
LINE
  8
0
 62
7
  6
CONTINUOUS
 10
-336.92
 20
15.4
 11
-336.92
 21
14.6
  0
LINE
  8
0
 62
7
  6
CONTINUOUS
 10
-335.72
 20
15
 11
-335.72
 21
13
  0
LINE
  8
0
 62
7
  6
CONTINUOUS
 10
-334.92
 20
15
 11
-334.92
 21
13
  0
LINE
  8
0
 62
7
  6
CONTINUOUS
 10
-334.92
 20
17.4
 11
-334.565
 21
17.4
  0
LINE
  8
0
 62
7
  6
CONTINUOUS
 10
-334.52
 20
16.4
 11
-334.52
 21
15.7056
  0
LINE
  8
0
 62
7
  6
CONTINUOUS
 10
-333.771
 20
17.8
 11
-333.32
 21
17.8
  0
LINE
  8
0
 62
7
  6
CONTINUOUS
 10
-334.262
 20
17
 11
-333.32
 21
17
  0
LINE
  8
0
 62
7
  6
CONTINUOUS
 10
-332.52
 20
18.6
 11
-332.52
 21
17.8
  0
LINE
  8
0
 62
7
  6
CONTINUOUS
 10
-333.32
 20
18.6
 11
-333.32
 21
17.8
  0
LINE
  8
0
 62
7
  6
CONTINUOUS
 10
-334.22
 20
18.2
 11
-333.72
 21
18.2
  0
LINE
  8
0
 62
7
  6
CONTINUOUS
 10
-332.52
 20
17.8
 11
-331.52
 21
17.8
  0
LINE
  8
0
 62
7
  6
CONTINUOUS
 10
-333.32
 20
17
 11
-333.32
 21
16.4
  0
LINE
  8
0
 62
7
  6
CONTINUOUS
 10
-332.52
 20
17
 11
-332.52
 21
16.4
  0
LINE
  8
0
 62
7
  6
CONTINUOUS
 10
-332.52
 20
17
 11
-332.32
 21
17
  0
LINE
  8
0
 62
7
  6
CONTINUOUS
 10
-333.32
 20
18.6
 11
-332.52
 21
18.6
  0
LINE
  8
0
 62
7
  6
CONTINUOUS
 10
-333.32
 20
13.6609
 11
-333.32
 21
13
  0
LINE
  8
0
 62
7
  6
CONTINUOUS
 10
-332.52
 20
13.6609
 11
-332.52
 21
13
  0
LINE
  8
0
 62
7
  6
CONTINUOUS
 10
-332.52
 20
16.4
 11
-331.32
 21
16.4
  0
LINE
  8
0
 62
7
  6
CONTINUOUS
 10
-332.52
 20
15.6
 11
-332.12
 21
15.6
  0
LINE
  8
0
 62
7
  6
CONTINUOUS
 10
-334.52
 20
15.6
 11
-334.52
 21
14.767
  0
LINE
  8
0
 62
7
  6
CONTINUOUS
 10
-334.52
 20
13.8
 11
-334.52
 21
13
  0
LINE
  8
0
 62
7
  6
CONTINUOUS
 10
-331.32
 20
13.8
 11
-331.32
 21
13
  0
LINE
  8
0
 62
7
  6
CONTINUOUS
 10
-335.72
 20
13
 11
-334.92
 21
13
  0
LINE
  8
0
 62
7
  6
CONTINUOUS
 10
-333.32
 20
13
 11
-332.52
 21
13
  0
LINE
  8
0
 62
7
  6
CONTINUOUS
 10
-334.52
 20
15.6
 11
-333.32
 21
15.6
  0
LINE
  8
0
 62
7
  6
CONTINUOUS
 10
-334.52
 20
16.4
 11
-333.32
 21
16.4
  0
LINE
  8
0
 62
7
  6
CONTINUOUS
 10
-357.4
 20
18.6
 11
-355.8
 21
18.6
  0
LINE
  8
0
 62
7
  6
CONTINUOUS
 10
-356.6
 20
18.6
 11
-356.6
 21
17
  0
LINE
  8
0
 62
7
  6
CONTINUOUS
 10
-330.52
 20
17
 11
-327.32
 21
17
  0
LINE
  8
0
 62
7
  6
CONTINUOUS
 10
-330.52
 20
17.8
 11
-327.32
 21
17.8
  0
LINE
  8
0
 62
7
  6
CONTINUOUS
 10
-327.32
 20
18.6
 11
-327.32
 21
17.8
  0
LINE
  8
0
 62
7
  6
CONTINUOUS
 10
-326.52
 20
18.6
 11
-326.52
 21
17.8
  0
LINE
  8
0
 62
7
  6
CONTINUOUS
 10
-325.72
 20
18.6
 11
-324.92
 21
18.6
  0
LINE
  8
0
 62
7
  6
CONTINUOUS
 10
-326.52
 20
17.8
 11
-324.92
 21
17.8
  0
LINE
  8
0
 62
7
  6
CONTINUOUS
 10
-327.32
 20
17
 11
-327.32
 21
15.4
  0
LINE
  8
0
 62
7
  6
CONTINUOUS
 10
-326.52
 20
17
 11
-325.72
 21
17
  0
LINE
  8
0
 62
7
  6
CONTINUOUS
 10
-326.52
 20
17
 11
-326.52
 21
15.4
  0
LINE
  8
0
 62
7
  6
CONTINUOUS
 10
-330.12
 20
16.4
 11
-330.12
 21
15.6
  0
LINE
  8
0
 62
7
  6
CONTINUOUS
 10
-329.32
 20
15.6
 11
-329.32
 21
14.2
  0
LINE
  8
0
 62
7
  6
CONTINUOUS
 10
-328.52
 20
15.6
 11
-328.52
 21
14.2
  0
LINE
  8
0
 62
7
  6
CONTINUOUS
 10
-330.32
 20
13.4
 11
-328.32
 21
13.4
  0
LINE
  8
0
 62
7
  6
CONTINUOUS
 10
-330.12
 20
16.4
 11
-327.72
 21
16.4
  0
LINE
  8
0
 62
7
  6
CONTINUOUS
 10
-330.12
 20
15.6
 11
-329.32
 21
15.6
  0
LINE
  8
0
 62
7
  6
CONTINUOUS
 10
-330.32
 20
14.2
 11
-329.32
 21
14.2
  0
LINE
  8
0
 62
7
  6
CONTINUOUS
 10
-330.32
 20
14.2
 11
-330.32
 21
13.4
  0
LINE
  8
0
 62
7
  6
CONTINUOUS
 10
-328.52
 20
14.2
 11
-327.52
 21
14.2
  0
LINE
  8
0
 62
7
  6
CONTINUOUS
 10
-321.72
 20
18.6
 11
-320.92
 21
18.6
  0
LINE
  8
0
 62
7
  6
CONTINUOUS
 10
-321.47
 20
13.8
 11
-320.12
 21
13.8
  0
LINE
  8
0
 62
7
  6
CONTINUOUS
 10
-323.32
 20
13
 11
-320.12
 21
13
  0
LINE
  8
0
 62
7
  6
CONTINUOUS
 10
-323.32
 20
13.8
 11
-323.32
 21
13
  0
LINE
  8
0
 62
7
  6
CONTINUOUS
 10
-318.52
 20
17.4
 11
-318.52
 21
16.6
  0
LINE
  8
0
 62
7
  6
CONTINUOUS
 10
-323.745
 20
15.6
 11
-323.745
 21
14.8
  0
LINE
  8
0
 62
7
  6
CONTINUOUS
 10
-323.745
 20
14.8
 11
-321.745
 21
14.8
  0
LINE
  8
0
 62
7
  6
CONTINUOUS
 10
-322.92
 20
16.8
 11
-319.72
 21
16.8
  0
LINE
  8
0
 62
7
  6
CONTINUOUS
 10
-322.92
 20
16
 11
-320.52
 21
16
  0
LINE
  8
0
 62
7
  6
CONTINUOUS
 10
-322.92
 20
16.8
 11
-322.92
 21
16
  0
LINE
  8
0
 62
7
  6
CONTINUOUS
 10
-320.89
 20
14.8
 11
-319.745
 21
14.8
  0
LINE
  8
0
 62
7
  6
CONTINUOUS
 10
-319.32
 20
14.6
 11
-319.32
 21
13.8
  0
LINE
  8
0
 62
7
  6
CONTINUOUS
 10
-320.12
 20
14.6
 11
-320.12
 21
13.8
  0
LINE
  8
0
 62
7
  6
CONTINUOUS
 10
-323.745
 20
15.6
 11
-318.945
 21
15.6
  0
LINE
  8
0
 62
7
  6
CONTINUOUS
 10
-315.32
 20
15
 11
-315.32
 21
14.2
  0
LINE
  8
0
 62
7
  6
CONTINUOUS
 10
-316.12
 20
18.6
 11
-316.12
 21
17.8
  0
LINE
  8
0
 62
7
  6
CONTINUOUS
 10
-316.92
 20
18.6
 11
-316.92
 21
17.8
  0
LINE
  8
0
 62
7
  6
CONTINUOUS
 10
-316.92
 20
18.6
 11
-316.12
 21
18.6
  0
LINE
  8
0
 62
7
  6
CONTINUOUS
 10
-317.72
 20
17.8
 11
-316.92
 21
17.8
  0
LINE
  8
0
 62
7
  6
CONTINUOUS
 10
-317.72
 20
17
 11
-316.287
 21
17
  0
LINE
  8
0
 62
7
  6
CONTINUOUS
 10
-316.12
 20
17.8
 11
-315.32
 21
17.8
  0
LINE
  8
0
 62
7
  6
CONTINUOUS
 10
-316.12
 20
14.4144
 11
-316.12
 21
13
  0
LINE
  8
0
 62
7
  6
CONTINUOUS
 10
-316.92
 20
15.2702
 11
-316.92
 21
13
  0
LINE
  8
0
 62
7
  6
CONTINUOUS
 10
-317.72
 20
15.8404
 11
-317.72
 21
15.0287
  0
LINE
  8
0
 62
7
  6
CONTINUOUS
 10
-316.92
 20
13
 11
-316.12
 21
13
  0
LINE
  8
0
 62
7
  6
CONTINUOUS
 10
-315.32
 20
13.2
 11
-312.92
 21
13.2
  0
LINE
  8
0
 62
7
  6
CONTINUOUS
 10
-313.32
 20
18.4
 11
-313.32
 21
17.2
  0
LINE
  8
0
 62
7
  6
CONTINUOUS
 10
-314.12
 20
18.4
 11
-314.12
 21
17.2
  0
LINE
  8
0
 62
7
  6
CONTINUOUS
 10
-315.32
 20
14
 11
-314.12
 21
14
  0
LINE
  8
0
 62
7
  6
CONTINUOUS
 10
-315.12
 20
17.2
 11
-314.12
 21
17.2
  0
LINE
  8
0
 62
7
  6
CONTINUOUS
 10
-315.12
 20
16.4
 11
-314.12
 21
16.4
  0
LINE
  8
0
 62
7
  6
CONTINUOUS
 10
-315.12
 20
17.2
 11
-315.12
 21
16.4
  0
LINE
  8
0
 62
7
  6
CONTINUOUS
 10
-313.32
 20
14
 11
-312.12
 21
14
  0
LINE
  8
0
 62
7
  6
CONTINUOUS
 10
-313.32
 20
16.4
 11
-313.12
 21
16.4
  0
LINE
  8
0
 62
7
  6
CONTINUOUS
 10
-313.32
 20
17.2
 11
-312.32
 21
17.2
  0
LINE
  8
0
 62
7
  6
CONTINUOUS
 10
-314.12
 20
16.4
 11
-314.12
 21
14
  0
LINE
  8
0
 62
7
  6
CONTINUOUS
 10
-313.32
 20
16.4
 11
-313.32
 21
14
  0
LINE
  8
0
 62
7
  6
CONTINUOUS
 10
-314.12
 20
18.4
 11
-313.32
 21
18.4
  0
LINE
  8
0
 62
7
  6
CONTINUOUS
 10
-315.32
 20
14
 11
-315.32
 21
13.2
  0
LINE
  8
0
 62
7
  6
CONTINUOUS
 10
-320.12
 20
14.6
 11
-319.32
 21
14.6
  0
LINE
  8
0
 62
7
  6
CONTINUOUS
 10
-374.2
 20
16.2
 11
-374.2
 21
15.4
  0
LINE
  8
0
 62
7
  6
CONTINUOUS
 10
-420
 20
298
 11
-420
 21
0
  0
LINE
  8
0
 62
7
  6
CONTINUOUS
 10
-420
 20
298
 11
0
 21
298
  0
LINE
  8
0
 62
7
  6
CONTINUOUS
 10
-392
 20
286
 11
-15
 21
286
  0
LINE
  8
0
 62
7
  6
CONTINUOUS
 10
-308
 20
25
 11
-308
 21
11
  0
LINE
  8
0
 62
7
  6
CONTINUOUS
 10
-254
 20
25
 11
-254
 21
11
  0
LINE
  8
0
 62
7
  6
CONTINUOUS
 10
-236
 20
25
 11
-236
 21
11
  0
LINE
  8
0
 62
7
  6
CONTINUOUS
 10
-218
 20
25
 11
-218
 21
11
  0
LINE
  8
0
 62
7
  6
CONTINUOUS
 10
-125
 20
25
 11
-125
 21
11
  0
LINE
  8
0
 62
7
  6
CONTINUOUS
 10
-407
 20
83.1429
 11
-407
 21
86
  0
LINE
  8
0
 62
7
  6
CONTINUOUS
 10
-401.286
 20
83.1429
 11
-401.286
 21
84.5714
  0
LINE
  8
0
 62
7
  6
CONTINUOUS
 10
-406.429
 20
81.7143
 11
-405.629
 21
81.7143
  0
LINE
  8
0
 62
7
  6
CONTINUOUS
 10
-407
 20
83.1429
 11
-401.286
 21
83.1429
  0
LINE
  8
0
 62
7
  6
CONTINUOUS
 10
-407
 20
98.8571
 11
-401.286
 21
98.8571
  0
LINE
  8
0
 62
7
  6
CONTINUOUS
 10
-407
 20
104.571
 11
-401.286
 21
104.571
  0
LINE
  8
0
 62
7
  6
CONTINUOUS
 10
-407
 20
106
 11
-401.286
 21
106
  0
LINE
  8
0
 62
7
  6
CONTINUOUS
 10
-404.143
 20
80.2857
 11
-404.143
 21
81.7143
  0
LINE
  8
0
 62
7
  6
CONTINUOUS
 10
-406
 20
84.5714
 11
-406
 21
86
  0
LINE
  8
0
 62
7
  6
CONTINUOUS
 10
-407
 20
100.286
 11
-404.643
 21
100.286
  0
LINE
  8
0
 62
7
  6
CONTINUOUS
 10
-407
 20
103.143
 11
-404.643
 21
103.143
  0
LINE
  8
0
 62
7
  6
CONTINUOUS
 10
-404.643
 20
100.286
 11
-404.643
 21
103.143
  0
LINE
  8
0
 62
7
  6
CONTINUOUS
 10
-403.643
 20
100.286
 11
-403.643
 21
103.143
  0
LINE
  8
0
 62
7
  6
CONTINUOUS
 10
-401.286
 20
103.143
 11
-401.286
 21
104.571
  0
LINE
  8
0
 62
7
  6
CONTINUOUS
 10
-401.286
 20
98.8571
 11
-401.286
 21
100.286
  0
LINE
  8
0
 62
7
  6
CONTINUOUS
 10
-407
 20
98.8571
 11
-407
 21
100.286
  0
LINE
  8
0
 62
7
  6
CONTINUOUS
 10
-407
 20
103.143
 11
-407
 21
104.571
  0
LINE
  8
0
 62
7
  6
CONTINUOUS
 10
-407
 20
106
 11
-407
 21
110.5
  0
LINE
  8
0
 62
7
  6
CONTINUOUS
 10
-403.643
 20
100.286
 11
-401.286
 21
100.286
  0
LINE
  8
0
 62
7
  6
CONTINUOUS
 10
-403.643
 20
103.143
 11
-401.286
 21
103.143
  0
LINE
  8
0
 62
7
  6
CONTINUOUS
 10
-401.286
 20
106
 11
-401.286
 21
111
  0
LINE
  8
0
 62
7
  6
CONTINUOUS
 10
-404.643
 20
107.429
 11
-404.643
 21
110
  0
LINE
  8
0
 62
7
  6
CONTINUOUS
 10
-403.643
 20
107.429
 11
-403.643
 21
110
  0
LINE
  8
0
 62
7
  6
CONTINUOUS
 10
-406
 20
107.429
 11
-406
 21
110.5
  0
LINE
  8
0
 62
7
  6
CONTINUOUS
 10
-402.286
 20
107.429
 11
-402.286
 21
111
  0
LINE
  8
0
 62
7
  6
CONTINUOUS
 10
-406
 20
107.429
 11
-404.643
 21
107.429
  0
LINE
  8
0
 62
7
  6
CONTINUOUS
 10
-403.643
 20
107.429
 11
-402.286
 21
107.429
  0
LINE
  8
0
 62
7
  6
CONTINUOUS
 10
-402.286
 20
111
 11
-401.286
 21
111
  0
LINE
  8
0
 62
7
  6
CONTINUOUS
 10
-407
 20
110.5
 11
-406
 21
110.5
  0
LINE
  8
0
 62
7
  6
CONTINUOUS
 10
-404.643
 20
110
 11
-403.643
 21
110
  0
LINE
  8
0
 62
7
  6
CONTINUOUS
 10
-404.143
 20
84.5714
 11
-404.143
 21
86
  0
LINE
  8
0
 62
7
  6
CONTINUOUS
 10
-406
 20
84.5714
 11
-401.286
 21
84.5714
  0
LINE
  8
0
 62
7
  6
CONTINUOUS
 10
-404.143
 20
80.2857
 11
-402.392
 21
80.2857
  0
LINE
  8
0
 62
7
  6
CONTINUOUS
 10
-404.143
 20
81.7143
 11
-401.857
 21
81.7143
  0
LINE
  8
0
 62
7
  6
CONTINUOUS
 10
-404.143
 20
84.5714
 11
-401.286
 21
86.9866
  0
LINE
  8
0
 62
7
  6
CONTINUOUS
 10
-403.306
 20
87.1496
 11
-401.286
 21
88.8572
  0
LINE
  8
0
 62
7
  6
CONTINUOUS
 10
-401.286
 20
86.9866
 11
-401.286
 21
88.8571
  0
LINE
  8
0
 62
7
  6
CONTINUOUS
 10
-392
 20
286
 11
-392
 21
11
  0
LINE
  8
0
 62
7
  6
CONTINUOUS
 10
-407
 20
119.571
 11
-407
 21
121
  0
LINE
  8
0
 62
7
  6
CONTINUOUS
 10
-404.143
 20
119.571
 11
-404.143
 21
120.286
  0
LINE
  8
0
 62
7
  6
CONTINUOUS
 10
-406.714
 20
118.857
 11
-406.314
 21
118.857
  0
LINE
  8
0
 62
7
  6
CONTINUOUS
 10
-407
 20
119.571
 11
-404.143
 21
119.571
  0
LINE
  8
0
 62
7
  6
CONTINUOUS
 10
-407
 20
131
 11
-404.143
 21
131
  0
LINE
  8
0
 62
7
  6
CONTINUOUS
 10
-405.571
 20
118.143
 11
-405.571
 21
118.857
  0
LINE
  8
0
 62
7
  6
CONTINUOUS
 10
-406.5
 20
120.286
 11
-406.5
 21
121
  0
LINE
  8
0
 62
7
  6
CONTINUOUS
 10
-407
 20
131
 11
-407
 21
133.25
  0
LINE
  8
0
 62
7
  6
CONTINUOUS
 10
-404.143
 20
131
 11
-404.143
 21
133.5
  0
LINE
  8
0
 62
7
  6
CONTINUOUS
 10
-405.821
 20
131.714
 11
-405.821
 21
133
  0
LINE
  8
0
 62
7
  6
CONTINUOUS
 10
-405.321
 20
131.714
 11
-405.321
 21
133
  0
LINE
  8
0
 62
7
  6
CONTINUOUS
 10
-406.5
 20
131.714
 11
-406.5
 21
133.25
  0
LINE
  8
0
 62
7
  6
CONTINUOUS
 10
-404.643
 20
131.714
 11
-404.643
 21
133.5
  0
LINE
  8
0
 62
7
  6
CONTINUOUS
 10
-406.5
 20
131.714
 11
-405.821
 21
131.714
  0
LINE
  8
0
 62
7
  6
CONTINUOUS
 10
-405.321
 20
131.714
 11
-404.643
 21
131.714
  0
LINE
  8
0
 62
7
  6
CONTINUOUS
 10
-404.643
 20
133.5
 11
-404.143
 21
133.5
  0
LINE
  8
0
 62
7
  6
CONTINUOUS
 10
-407
 20
133.25
 11
-406.5
 21
133.25
  0
LINE
  8
0
 62
7
  6
CONTINUOUS
 10
-405.821
 20
133
 11
-405.321
 21
133
  0
LINE
  8
0
 62
7
  6
CONTINUOUS
 10
-405.571
 20
120.286
 11
-405.571
 21
121
  0
LINE
  8
0
 62
7
  6
CONTINUOUS
 10
-406.5
 20
120.286
 11
-404.143
 21
120.286
  0
LINE
  8
0
 62
7
  6
CONTINUOUS
 10
-405.571
 20
118.143
 11
-404.696
 21
118.143
  0
LINE
  8
0
 62
7
  6
CONTINUOUS
 10
-405.571
 20
118.857
 11
-404.429
 21
118.857
  0
LINE
  8
0
 62
7
  6
CONTINUOUS
 10
-405.571
 20
120.286
 11
-404.143
 21
121.493
  0
LINE
  8
0
 62
7
  6
CONTINUOUS
 10
-405.153
 20
121.575
 11
-404.143
 21
122.429
  0
LINE
  8
0
 62
7
  6
CONTINUOUS
 10
-404.143
 20
121.493
 11
-404.143
 21
122.429
  0
LINE
  8
0
 62
7
  6
CONTINUOUS
 10
-407
 20
137.429
 11
-407
 21
138.143
  0
LINE
  8
0
 62
7
  6
CONTINUOUS
 10
-407
 20
142.429
 11
-404.143
 21
142.429
  0
LINE
  8
0
 62
7
  6
CONTINUOUS
 10
-407
 20
138.143
 11
-405.321
 21
138.143
  0
LINE
  8
0
 62
7
  6
CONTINUOUS
 10
-407
 20
149.571
 11
-404.143
 21
149.571
  0
LINE
  8
0
 62
7
  6
CONTINUOUS
 10
-402
 20
153.143
 11
-401.5
 21
153.143
  0
LINE
  8
0
 62
7
  6
CONTINUOUS
 10
-406.5
 20
143.143
 11
-405.571
 21
143.143
  0
LINE
  8
0
 62
7
  6
CONTINUOUS
 10
-405.571
 20
143.143
 11
-405.571
 21
143.5
  0
LINE
  8
0
 62
7
  6
CONTINUOUS
 10
-406.5
 20
143.143
 11
-406.5
 21
143.5
  0
LINE
  8
0
 62
7
  6
CONTINUOUS
 10
-405.071
 20
143.143
 11
-405.071
 21
143.5
  0
LINE
  8
0
 62
7
  6
CONTINUOUS
 10
-405.071
 20
143.143
 11
-404.143
 21
143.143
  0
LINE
  8
0
 62
7
  6
CONTINUOUS
 10
-407
 20
142.429
 11
-407
 21
143.5
  0
LINE
  8
0
 62
7
  6
CONTINUOUS
 10
-407
 20
149.571
 11
-407
 21
150.286
  0
LINE
  8
0
 62
7
  6
CONTINUOUS
 10
-404.143
 20
142.429
 11
-404.143
 21
143.143
  0
LINE
  8
0
 62
7
  6
CONTINUOUS
 10
-404.143
 20
149.571
 11
-404.143
 21
150.286
  0
LINE
  8
0
 62
7
  6
CONTINUOUS
 10
-407
 20
137.429
 11
-405.321
 21
137.429
  0
LINE
  8
0
 62
7
  6
CONTINUOUS
 10
-406.161
 20
139.571
 11
-405.821
 21
139.571
  0
LINE
  8
0
 62
7
  6
CONTINUOUS
 10
-406.161
 20
141
 11
-405.821
 21
141
  0
LINE
  8
0
 62
7
  6
CONTINUOUS
 10
-406.161
 20
141.714
 11
-404.143
 21
141.714
  0
LINE
  8
0
 62
7
  6
CONTINUOUS
 10
-405.321
 20
134.929
 11
-405.321
 21
135.643
  0
LINE
  8
0
 62
7
  6
CONTINUOUS
 10
-405.321
 20
141
 11
-404.143
 21
141
  0
LINE
  8
0
 62
7
  6
CONTINUOUS
 10
-404.143
 20
141
 11
-404.143
 21
141.714
  0
LINE
  8
0
 62
7
  6
CONTINUOUS
 10
-405.321
 20
139.571
 11
-404.143
 21
139.571
  0
LINE
  8
0
 62
7
  6
CONTINUOUS
 10
-406.048
 20
150.286
 11
-404.143
 21
150.286
  0
LINE
  8
0
 62
7
  6
CONTINUOUS
 10
-407
 20
151.714
 11
-405.095
 21
151.714
  0
LINE
  8
0
 62
7
  6
CONTINUOUS
 10
-405.821
 20
139.571
 11
-405.821
 21
141
  0
LINE
  8
0
 62
7
  6
CONTINUOUS
 10
-405.321
 20
139.571
 11
-405.321
 21
141
  0
LINE
  8
0
 62
7
  6
CONTINUOUS
 10
-407
 20
150.286
 11
-405.095
 21
151.714
  0
LINE
  8
0
 62
7
  6
CONTINUOUS
 10
-406.048
 20
150.286
 11
-404.143
 21
151.714
  0
LINE
  8
0
 62
7
  6
CONTINUOUS
 10
-399.857
 20
152.429
 11
-399.857
 21
153.143
  0
LINE
  8
0
 62
7
  6
CONTINUOUS
 10
-402
 20
152.429
 11
-401.5
 21
152.429
  0
LINE
  8
0
 62
7
  6
CONTINUOUS
 10
-404.143
 20
151.714
 11
-404.143
 21
152.429
  0
LINE
  8
0
 62
7
  6
CONTINUOUS
 10
-407
 20
152.429
 11
-404.143
 21
152.429
  0
LINE
  8
0
 62
7
  6
CONTINUOUS
 10
-406.161
 20
138.857
 11
-404.143
 21
138.857
  0
LINE
  8
0
 62
7
  6
CONTINUOUS
 10
-404.143
 20
138.857
 11
-404.143
 21
139.571
  0
LINE
  8
0
 62
7
  6
CONTINUOUS
 10
-407
 20
127.429
 11
-404.143
 21
127.429
  0
LINE
  8
0
 62
7
  6
CONTINUOUS
 10
-405.321
 20
128.143
 11
-404.143
 21
128.143
  0
LINE
  8
0
 62
7
  6
CONTINUOUS
 10
-404.143
 20
127.429
 11
-404.143
 21
128.143
  0
LINE
  8
0
 62
7
  6
CONTINUOUS
 10
-405.321
 20
129.571
 11
-404.143
 21
129.571
  0
LINE
  8
0
 62
7
  6
CONTINUOUS
 10
-404.143
 20
129.571
 11
-404.143
 21
130.286
  0
LINE
  8
0
 62
7
  6
CONTINUOUS
 10
-407
 20
130.286
 11
-404.143
 21
130.286
  0
LINE
  8
0
 62
7
  6
CONTINUOUS
 10
-405.321
 20
128.143
 11
-405.321
 21
129.571
  0
LINE
  8
0
 62
7
  6
CONTINUOUS
 10
-405.821
 20
128.143
 11
-405.821
 21
129.571
  0
LINE
  8
0
 62
7
  6
CONTINUOUS
 10
-407
 20
127.429
 11
-407
 21
128.143
  0
LINE
  8
0
 62
7
  6
CONTINUOUS
 10
-407
 20
128.143
 11
-405.821
 21
128.143
  0
LINE
  8
0
 62
7
  6
CONTINUOUS
 10
-407
 20
129.571
 11
-405.821
 21
129.571
  0
LINE
  8
0
 62
7
  6
CONTINUOUS
 10
-407
 20
129.571
 11
-407
 21
130.286
  0
LINE
  8
0
 62
7
  6
CONTINUOUS
 10
-402
 20
152.429
 11
-402
 21
153.143
  0
LINE
  8
0
 62
7
  6
CONTINUOUS
 10
-401.5
 20
152.429
 11
-401.5
 21
153.143
  0
LINE
  8
0
 62
7
  6
CONTINUOUS
 10
-401.25
 20
152.429
 11
-401.25
 21
153.143
  0
LINE
  8
0
 62
7
  6
CONTINUOUS
 10
-406.161
 20
148.143
 11
-405.821
 21
148.143
  0
LINE
  8
0
 62
7
  6
CONTINUOUS
 10
-406.161
 20
146.714
 11
-405.821
 21
146.714
  0
LINE
  8
0
 62
7
  6
CONTINUOUS
 10
-405.821
 20
146.714
 11
-405.821
 21
148.143
  0
LINE
  8
0
 62
7
  6
CONTINUOUS
 10
-405.321
 20
146.714
 11
-405.321
 21
148.143
  0
LINE
  8
0
 62
7
  6
CONTINUOUS
 10
-406.161
 20
146
 11
-404.143
 21
146
  0
LINE
  8
0
 62
7
  6
CONTINUOUS
 10
-405.321
 20
146.714
 11
-404.143
 21
146.714
  0
LINE
  8
0
 62
7
  6
CONTINUOUS
 10
-404.143
 20
146
 11
-404.143
 21
146.714
  0
LINE
  8
0
 62
7
  6
CONTINUOUS
 10
-405.321
 20
148.143
 11
-404.143
 21
148.143
  0
LINE
  8
0
 62
7
  6
CONTINUOUS
 10
-404.143
 20
148.143
 11
-404.143
 21
148.857
  0
LINE
  8
0
 62
7
  6
CONTINUOUS
 10
-406.161
 20
148.857
 11
-404.143
 21
148.857
  0
LINE
  8
0
 62
7
  6
CONTINUOUS
 10
-401.875
 20
138.143
 11
-401.875
 21
138.857
  0
LINE
  8
0
 62
7
  6
CONTINUOUS
 10
-400.696
 20
136
 11
-400.696
 21
136.714
  0
LINE
  8
0
 62
7
  6
CONTINUOUS
 10
-401.25
 20
153.143
 11
-399.857
 21
153.143
  0
LINE
  8
0
 62
7
  6
CONTINUOUS
 10
-401.25
 20
152.429
 11
-399.857
 21
152.429
  0
LINE
  8
0
 62
7
  6
CONTINUOUS
 10
-401.339
 20
121
 11
-401.339
 21
121.714
  0
LINE
  8
0
 62
7
  6
CONTINUOUS
 10
-400.518
 20
145.286
 11
-400.518
 21
146
  0
LINE
  8
0
 62
7
  6
CONTINUOUS
 10
-401.339
 20
146.714
 11
-401.339
 21
147.429
  0
LINE
  8
0
 62
7
  6
CONTINUOUS
 10
-399.857
 20
122.071
 11
-399.857
 21
123.143
  0
LINE
  8
0
 62
7
  6
CONTINUOUS
 10
-401.339
 20
123.143
 11
-399.857
 21
123.143
  0
LINE
  8
0
 62
7
  6
CONTINUOUS
 10
-401.339
 20
122.429
 11
-401.179
 21
122.429
  0
LINE
  8
0
 62
7
  6
CONTINUOUS
 10
-407
 20
151.714
 11
-407
 21
152.429
  0
LINE
  8
0
 62
7
  6
CONTINUOUS
 10
-401.179
 20
122.071
 11
-401.179
 21
122.429
  0
LINE
  8
0
 62
7
  6
CONTINUOUS
 10
-402
 20
156.714
 11
-399.857
 21
156.714
  0
LINE
  8
0
 62
7
  6
CONTINUOUS
 10
-399.857
 20
156.714
 11
-399.857
 21
157.429
  0
LINE
  8
0
 62
7
  6
CONTINUOUS
 10
-402
 20
156.714
 11
-402
 21
157.429
  0
LINE
  8
0
 62
7
  6
CONTINUOUS
 10
-402
 20
157.429
 11
-401.962
 21
157.429
  0
LINE
  8
0
 62
7
  6
CONTINUOUS
 10
-402.714
 20
151.714
 11
-399.857
 21
151.714
  0
LINE
  8
0
 62
7
  6
CONTINUOUS
 10
-399.857
 20
151.714
 11
-399.857
 21
151
  0
LINE
  8
0
 62
7
  6
CONTINUOUS
 10
-401.339
 20
149.571
 11
-400.518
 21
149.571
  0
LINE
  8
0
 62
7
  6
CONTINUOUS
 10
-401.339
 20
151
 11
-400.518
 21
151
  0
LINE
  8
0
 62
7
  6
CONTINUOUS
 10
-402.714
 20
151
 11
-401.962
 21
151
  0
LINE
  8
0
 62
7
  6
CONTINUOUS
 10
-402.714
 20
151.714
 11
-402.714
 21
151
  0
LINE
  8
0
 62
7
  6
CONTINUOUS
 10
-401.339
 20
150.286
 11
-400.518
 21
150.286
  0
LINE
  8
0
 62
7
  6
CONTINUOUS
 10
-399.895
 20
151
 11
-399.857
 21
151
  0
LINE
  8
0
 62
7
  6
CONTINUOUS
 10
-402
 20
148.857
 11
-401.5
 21
148.857
  0
LINE
  8
0
 62
7
  6
CONTINUOUS
 10
-399.857
 20
148.143
 11
-399.857
 21
148.857
  0
LINE
  8
0
 62
7
  6
CONTINUOUS
 10
-402
 20
148.143
 11
-401.5
 21
148.143
  0
LINE
  8
0
 62
7
  6
CONTINUOUS
 10
-402
 20
148.143
 11
-402
 21
148.857
  0
LINE
  8
0
 62
7
  6
CONTINUOUS
 10
-401.5
 20
148.143
 11
-401.5
 21
148.857
  0
LINE
  8
0
 62
7
  6
CONTINUOUS
 10
-401.25
 20
148.143
 11
-401.25
 21
148.857
  0
LINE
  8
0
 62
7
  6
CONTINUOUS
 10
-401.25
 20
148.857
 11
-399.857
 21
148.857
  0
LINE
  8
0
 62
7
  6
CONTINUOUS
 10
-401.25
 20
148.143
 11
-399.857
 21
148.143
  0
LINE
  8
0
 62
7
  6
CONTINUOUS
 10
-402
 20
160.643
 11
-399.804
 21
160.643
  0
LINE
  8
0
 62
7
  6
CONTINUOUS
 10
-402
 20
159.929
 11
-400.518
 21
159.929
  0
LINE
  8
0
 62
7
  6
CONTINUOUS
 10
-402
 20
157.786
 11
-401.5
 21
157.786
  0
LINE
  8
0
 62
7
  6
CONTINUOUS
 10
-401.339
 20
157.429
 11
-399.857
 21
157.429
  0
LINE
  8
0
 62
7
  6
CONTINUOUS
 10
-402
 20
159.929
 11
-402
 21
160.643
  0
LINE
  8
0
 62
7
  6
CONTINUOUS
 10
-399.895
 20
159.929
 11
-399.804
 21
159.929
  0
LINE
  8
0
 62
7
  6
CONTINUOUS
 10
-401.339
 20
156
 11
-399.857
 21
156
  0
LINE
  8
0
 62
7
  6
CONTINUOUS
 10
-401.339
 20
155.286
 11
-401.179
 21
155.286
  0
LINE
  8
0
 62
7
  6
CONTINUOUS
 10
-401.179
 20
154.929
 11
-401.179
 21
155.286
  0
LINE
  8
0
 62
7
  6
CONTINUOUS
 10
-401.339
 20
153.857
 11
-401.339
 21
154.571
  0
LINE
  8
0
 62
7
  6
CONTINUOUS
 10
-399.857
 20
154.929
 11
-399.857
 21
156
  0
LINE
  8
0
 62
7
  6
CONTINUOUS
 10
-402
 20
158.5
 11
-400.518
 21
158.5
  0
LINE
  8
0
 62
7
  6
CONTINUOUS
 10
-402
 20
159.214
 11
-400.518
 21
159.214
  0
LINE
  8
0
 62
7
  6
CONTINUOUS
 10
-402
 20
158.5
 11
-402
 21
159.214
  0
LINE
  8
0
 62
7
  6
CONTINUOUS
 10
-402
 20
129.571
 11
-401.339
 21
129.571
  0
LINE
  8
0
 62
7
  6
CONTINUOUS
 10
-402
 20
131.714
 11
-401.339
 21
131.714
  0
LINE
  8
0
 62
7
  6
CONTINUOUS
 10
-402.714
 20
131
 11
-402
 21
131
  0
LINE
  8
0
 62
7
  6
CONTINUOUS
 10
-402
 20
129.571
 11
-402
 21
130.286
  0
LINE
  8
0
 62
7
  6
CONTINUOUS
 10
-402.714
 20
130.286
 11
-402
 21
130.286
  0
LINE
  8
0
 62
7
  6
CONTINUOUS
 10
-401.339
 20
129.571
 11
-401.339
 21
130.286
  0
LINE
  8
0
 62
7
  6
CONTINUOUS
 10
-402.714
 20
132.429
 11
-399.857
 21
132.429
  0
LINE
  8
0
 62
7
  6
CONTINUOUS
 10
-399.857
 20
132.429
 11
-399.857
 21
133.143
  0
LINE
  8
0
 62
7
  6
CONTINUOUS
 10
-401.339
 20
134.571
 11
-399.857
 21
134.571
  0
LINE
  8
0
 62
7
  6
CONTINUOUS
 10
-401.339
 20
133.857
 11
-399.857
 21
133.857
  0
LINE
  8
0
 62
7
  6
CONTINUOUS
 10
-402.714
 20
133.143
 11
-401.962
 21
133.143
  0
LINE
  8
0
 62
7
  6
CONTINUOUS
 10
-402.714
 20
130.286
 11
-402.714
 21
131
  0
LINE
  8
0
 62
7
  6
CONTINUOUS
 10
-402.714
 20
132.429
 11
-402.714
 21
133.143
  0
LINE
  8
0
 62
7
  6
CONTINUOUS
 10
-401.339
 20
133.143
 11
-399.857
 21
133.143
  0
LINE
  8
0
 62
7
  6
CONTINUOUS
 10
-399.857
 20
133.857
 11
-399.857
 21
134.571
  0
LINE
  8
0
 62
7
  6
CONTINUOUS
 10
-399.804
 20
158.504
 11
-399.804
 21
159.235
  0
LINE
  8
0
 62
7
  6
CONTINUOUS
 10
-401.339
 20
130.286
 11
-400.518
 21
130.286
  0
LINE
  8
0
 62
7
  6
CONTINUOUS
 10
-402
 20
131
 11
-402
 21
131.714
  0
LINE
  8
0
 62
7
  6
CONTINUOUS
 10
-401.339
 20
131
 11
-401.339
 21
131.714
  0
LINE
  8
0
 62
7
  6
CONTINUOUS
 10
-401.339
 20
131
 11
-400.518
 21
131
  0
LINE
  8
0
 62
7
  6
CONTINUOUS
 10
-400.518
 20
131.714
 11
-399.895
 21
131.714
  0
LINE
  8
0
 62
7
  6
CONTINUOUS
 10
-400.518
 20
117.429
 11
-400.518
 21
118.143
  0
LINE
  8
0
 62
7
  6
CONTINUOUS
 10
-401.339
 20
118.857
 11
-401.339
 21
119.571
  0
LINE
  8
0
 62
7
  6
CONTINUOUS
 10
-401.25
 20
116
 11
-399.857
 21
116
  0
LINE
  8
0
 62
7
  6
CONTINUOUS
 10
-402
 20
116.714
 11
-401.5
 21
116.714
  0
LINE
  8
0
 62
7
  6
CONTINUOUS
 10
-399.857
 20
116
 11
-399.857
 21
116.714
  0
LINE
  8
0
 62
7
  6
CONTINUOUS
 10
-402
 20
116
 11
-401.5
 21
116
  0
LINE
  8
0
 62
7
  6
CONTINUOUS
 10
-402
 20
116
 11
-402
 21
116.714
  0
LINE
  8
0
 62
7
  6
CONTINUOUS
 10
-401.5
 20
116
 11
-401.5
 21
116.714
  0
LINE
  8
0
 62
7
  6
CONTINUOUS
 10
-401.25
 20
116
 11
-401.25
 21
116.714
  0
LINE
  8
0
 62
7
  6
CONTINUOUS
 10
-401.25
 20
116.714
 11
-399.857
 21
116.714
  0
LINE
  8
0
 62
7
  6
CONTINUOUS
 10
-402
 20
139.571
 11
-400.518
 21
139.571
  0
LINE
  8
0
 62
7
  6
CONTINUOUS
 10
-399.857
 20
141
 11
-399.857
 21
141.714
  0
LINE
  8
0
 62
7
  6
CONTINUOUS
 10
-402
 20
141.714
 11
-399.857
 21
141.714
  0
LINE
  8
0
 62
7
  6
CONTINUOUS
 10
-402
 20
141
 11
-400.518
 21
141
  0
LINE
  8
0
 62
7
  6
CONTINUOUS
 10
-402
 20
139.571
 11
-402
 21
140.286
  0
LINE
  8
0
 62
7
  6
CONTINUOUS
 10
-402
 20
140.286
 11
-400.518
 21
140.286
  0
LINE
  8
0
 62
7
  6
CONTINUOUS
 10
-402
 20
141
 11
-402
 21
141.714
  0
LINE
  8
0
 62
7
  6
CONTINUOUS
 10
-399.895
 20
141
 11
-399.857
 21
141
  0
LINE
  8
0
 62
7
  6
CONTINUOUS
 10
-402.714
 20
142.429
 11
-399.857
 21
142.429
  0
LINE
  8
0
 62
7
  6
CONTINUOUS
 10
-399.857
 20
142.429
 11
-399.857
 21
143.143
  0
LINE
  8
0
 62
7
  6
CONTINUOUS
 10
-401.339
 20
144.571
 11
-400.518
 21
144.571
  0
LINE
  8
0
 62
7
  6
CONTINUOUS
 10
-401.339
 20
143.857
 11
-400.518
 21
143.857
  0
LINE
  8
0
 62
7
  6
CONTINUOUS
 10
-402.714
 20
143.143
 11
-401.962
 21
143.143
  0
LINE
  8
0
 62
7
  6
CONTINUOUS
 10
-402.714
 20
142.429
 11
-402.714
 21
143.143
  0
LINE
  8
0
 62
7
  6
CONTINUOUS
 10
-401.339
 20
143.143
 11
-400.518
 21
143.143
  0
LINE
  8
0
 62
7
  6
CONTINUOUS
 10
-399.895
 20
143.143
 11
-399.857
 21
143.143
  0
LINE
  8
0
 62
7
  6
CONTINUOUS
 10
-399.857
 20
125.286
 11
-399.857
 21
126
  0
LINE
  8
0
 62
7
  6
CONTINUOUS
 10
-402.714
 20
125.286
 11
-402.714
 21
126
  0
LINE
  8
0
 62
7
  6
CONTINUOUS
 10
-402.714
 20
126
 11
-399.857
 21
126
  0
LINE
  8
0
 62
7
  6
CONTINUOUS
 10
-402
 20
124.571
 11
-402
 21
125.286
  0
LINE
  8
0
 62
7
  6
CONTINUOUS
 10
-402
 20
125.286
 11
-399.857
 21
125.286
  0
LINE
  8
0
 62
7
  6
CONTINUOUS
 10
-402
 20
126.714
 11
-400.518
 21
126.714
  0
LINE
  8
0
 62
7
  6
CONTINUOUS
 10
-402
 20
128.857
 11
-400.518
 21
128.857
  0
LINE
  8
0
 62
7
  6
CONTINUOUS
 10
-402
 20
128.143
 11
-400.518
 21
128.143
  0
LINE
  8
0
 62
7
  6
CONTINUOUS
 10
-402
 20
127.429
 11
-400.518
 21
127.429
  0
LINE
  8
0
 62
7
  6
CONTINUOUS
 10
-402
 20
124.571
 11
-402.714
 21
125.286
  0
CIRCLE
  8
0
 62
7
  6
CONTINUOUS
 10
-181.738754
 20
36.269123
 40
1.500000
  0
CIRCLE
  8
0
 62
7
  6
CONTINUOUS
 10
-181.738754
 20
36.269123
 40
1.500000
  0
ARC
  8
0
 62
7
  6
CONTINUOUS
 10
-85.364113
 20
100.530022
 40
0.250000
 50
-15.000013
 51
75.000062
  0
ARC
  8
0
 62
7
  6
CONTINUOUS
 10
-87.589966
 20
92.223061
 40
0.250000
 50
-105.000088
 51
-15.000013
  0
CIRCLE
  8
0
 62
7
  6
CONTINUOUS
 10
-235.314438
 20
261.129730
 40
2.750000
  0
CIRCLE
  8
0
 62
7
  6
CONTINUOUS
 10
-235.314438
 20
261.129730
 40
2.750000
  0
CIRCLE
  8
0
 62
7
  6
CONTINUOUS
 10
-292.695923
 20
302.451874
 40
0.595967
  0
CIRCLE
  8
0
 62
7
  6
CONTINUOUS
 10
-299.570129
 20
307.082245
 40
1.000000
  0
CIRCLE
  8
0
 62
7
  6
CONTINUOUS
 10
-299.741150
 20
306.612396
 40
0.500000
  0
ARC
  8
0
 62
7
  6
CONTINUOUS
 10
-153.613876
 20
-204.059387
 40
300.000000
 50
80.047774
 51
85.957040
  0
ARC
  8
0
 62
7
  6
CONTINUOUS
 10
-133.210220
 20
-88.344482
 40
200.000000
 50
78.637462
 51
96.388483
  0
ARC
  8
0
 62
7
  6
CONTINUOUS
 10
-144.094437
 20
86.451080
 40
0.500000
 50
-100.000085
 51
-10.000015
  0
ARC
  8
0
 62
7
  6
CONTINUOUS
 10
-146.521088
 20
86.878967
 40
0.500000
 50
170.000137
 51
260.000222
  0
ARC
  8
0
 62
7
  6
CONTINUOUS
 10
-161.634918
 20
93.097931
 40
0.750000
 50
170.000137
 51
260.000222
  0
ARC
  8
0
 62
7
  6
CONTINUOUS
 10
-159.573120
 20
91.972816
 40
0.875000
 50
178.213624
 51
208.213384
  0
ARC
  8
0
 62
7
  6
CONTINUOUS
 10
-161.115234
 20
91.145493
 40
0.875000
 50
-10.000012
 51
28.213235
  0
ARC
  8
0
 62
7
  6
CONTINUOUS
 10
-159.573120
 20
91.972816
 40
0.875000
 50
-48.213250
 51
-36.587230
  0
ARC
  8
0
 62
7
  6
CONTINUOUS
 10
-158.407013
 20
90.667961
 40
0.875000
 50
131.786904
 51
170.000137
  0
ARC
  8
0
 62
7
  6
CONTINUOUS
 10
-158.042969
 20
90.433723
 40
0.875000
 50
178.213569
 51
208.213384
  0
ARC
  8
0
 62
7
  6
CONTINUOUS
 10
-159.585052
 20
89.606400
 40
0.875000
 50
-10.000012
 51
28.213235
  0
ARC
  8
0
 62
7
  6
CONTINUOUS
 10
-137.999512
 20
88.930374
 40
0.750000
 50
-100.000085
 51
-10.000001
  0
ARC
  8
0
 62
7
  6
CONTINUOUS
 10
-141.011627
 20
87.684494
 40
0.250000
 50
-100.000085
 51
-10.000001
  0
ARC
  8
0
 62
7
  6
CONTINUOUS
 10
-139.606964
 20
88.452240
 40
0.875000
 50
-48.213250
 51
-18.213242
  0
ARC
  8
0
 62
7
  6
CONTINUOUS
 10
-138.440826
 20
87.147392
 40
0.875000
 50
131.786904
 51
170.000137
  0
ARC
  8
0
 62
7
  6
CONTINUOUS
 10
-139.606964
 20
88.452240
 40
0.875000
 50
178.213378
 51
208.213384
  0
ARC
  8
0
 62
7
  6
CONTINUOUS
 10
-141.149048
 20
87.624924
 40
0.875000
 50
-10.000012
 51
28.213235
  0
ARC
  8
0
 62
7
  6
CONTINUOUS
 10
-144.004883
 20
87.958427
 40
0.875000
 50
-48.213250
 51
-18.213229
  0
ARC
  8
0
 62
7
  6
CONTINUOUS
 10
-142.838745
 20
86.653580
 40
0.875000
 50
131.786904
 51
170.000137
  0
ARC
  8
0
 62
7
  6
CONTINUOUS
 10
-145.546967
 20
87.131111
 40
0.875000
 50
-10.000012
 51
28.213235
  0
ARC
  8
0
 62
7
  6
CONTINUOUS
 10
-144.004883
 20
87.958427
 40
0.875000
 50
178.213364
 51
208.213384
  0
ARC
  8
0
 62
7
  6
CONTINUOUS
 10
-136.095322
 20
90.371613
 40
0.500000
 50
-100.000085
 51
-10.000015
  0
ARC
  8
0
 62
7
  6
CONTINUOUS
 10
-132.638443
 20
92.700249
 40
2.500000
 50
85.957040
 51
170.000137
  0
ARC
  8
0
 62
7
  6
CONTINUOUS
 10
-133.966339
 20
89.488495
 40
30.000000
 50
135.773047
 51
169.028979
  0
ARC
  8
0
 62
7
  6
CONTINUOUS
 10
-162.927155
 20
95.102783
 40
0.500000
 50
169.028979
 51
260.000222
  0
ARC
  8
0
 62
7
  6
CONTINUOUS
 10
-101.722229
 20
91.672447
 40
0.250000
 50
-99.952376
 51
-10.000009
  0
ARC
  8
0
 62
7
  6
CONTINUOUS
 10
-93.855965
 20
107.490402
 40
0.250000
 50
-10.000012
 51
78.637462
  0
ARC
  8
0
 62
7
  6
CONTINUOUS
 10
-146.073914
 20
108.493469
 40
3.750000
 50
50.359707
 51
137.118568
  0
ARC
  8
0
 62
7
  6
CONTINUOUS
 10
-147.505905
 20
87.052612
 40
0.500000
 50
-100.000092
 51
-10.000002
  0
ARC
  8
0
 62
7
  6
CONTINUOUS
 10
-153.344055
 20
88.082039
 40
0.500000
 50
170.000137
 51
260.000222
  0
ARC
  8
0
 62
7
  6
CONTINUOUS
 10
-154.328873
 20
88.255692
 40
0.500000
 50
-100.000092
 51
-10.000002
  0
ARC
  8
0
 62
7
  6
CONTINUOUS
 10
-156.755524
 20
88.683571
 40
0.500000
 50
170.000151
 51
260.000222
  0
ARC
  8
0
 62
7
  6
CONTINUOUS
 10
-144.372742
 20
86.924065
 40
0.875000
 50
-10.000012
 51
17.115268
  0
ARC
  8
0
 62
7
  6
CONTINUOUS
 10
-141.664520
 20
86.446533
 40
0.875000
 50
131.786904
 51
170.000137
  0
ARC
  8
0
 62
7
  6
CONTINUOUS
 10
-142.830658
 20
87.751381
 40
0.875000
 50
-48.213250
 51
-18.213205
  0
ARC
  8
0
 62
7
  6
CONTINUOUS
 10
-148.998383
 20
87.739685
 40
0.875000
 50
131.786904
 51
170.000137
  0
ARC
  8
0
 62
7
  6
CONTINUOUS
 10
-150.164520
 20
89.044533
 40
0.875000
 50
-48.213250
 51
-18.213229
  0
ARC
  8
0
 62
7
  6
CONTINUOUS
 10
-147.842300
 20
88.635063
 40
0.875000
 50
178.213364
 51
208.213384
  0
ARC
  8
0
 62
7
  6
CONTINUOUS
 10
-149.384399
 20
87.807747
 40
0.875000
 50
-10.000012
 51
28.213235
  0
ARC
  8
0
 62
7
  6
CONTINUOUS
 10
-146.676178
 20
87.330215
 40
0.875000
 50
131.786904
 51
170.000137
  0
ARC
  8
0
 62
7
  6
CONTINUOUS
 10
-147.842300
 20
88.635063
 40
0.875000
 50
-48.213250
 51
-18.213229
  0
ARC
  8
0
 62
7
  6
CONTINUOUS
 10
-145.726410
 20
88.261978
 40
0.875000
 50
178.213364
 51
208.213384
  0
ARC
  8
0
 62
7
  6
CONTINUOUS
 10
-147.268509
 20
87.434662
 40
0.875000
 50
-10.000012
 51
28.213235
  0
ARC
  8
0
 62
7
  6
CONTINUOUS
 10
-144.560287
 20
86.957130
 40
0.875000
 50
131.786904
 51
170.000137
  0
ARC
  8
0
 62
7
  6
CONTINUOUS
 10
-145.726410
 20
88.261978
 40
0.875000
 50
-48.213250
 51
-18.213229
  0
ARC
  8
0
 62
7
  6
CONTINUOUS
 10
-159.585052
 20
89.606407
 40
0.875000
 50
-10.000002
 51
28.213232
  0
ARC
  8
0
 62
7
  6
CONTINUOUS
 10
-158.042969
 20
90.433723
 40
0.875000
 50
178.213337
 51
208.213384
  0
ARC
  8
0
 62
7
  6
CONTINUOUS
 10
-141.119919
 20
86.350502
 40
0.875000
 50
131.786904
 51
170.000137
  0
ARC
  8
0
 62
7
  6
CONTINUOUS
 10
-142.286041
 20
87.655350
 40
0.875000
 50
-48.213250
 51
-18.213205
  0
ARC
  8
0
 62
7
  6
CONTINUOUS
 10
-151.706604
 20
88.217216
 40
0.875000
 50
-10.000002
 51
28.213232
  0
ARC
  8
0
 62
7
  6
CONTINUOUS
 10
-150.164505
 20
89.044533
 40
0.875000
 50
178.213364
 51
208.213384
  0
ARC
  8
0
 62
7
  6
CONTINUOUS
 10
-152.486725
 20
89.454002
 40
0.875000
 50
-48.213250
 51
-18.213229
  0
ARC
  8
0
 62
7
  6
CONTINUOUS
 10
-151.320587
 20
88.149155
 40
0.875000
 50
131.786904
 51
170.000151
  0
ARC
  8
0
 62
7
  6
CONTINUOUS
 10
-154.028809
 20
88.626686
 40
0.875000
 50
-10.000002
 51
28.213232
  0
ARC
  8
0
 62
7
  6
CONTINUOUS
 10
-152.486725
 20
89.454002
 40
0.875000
 50
178.213364
 51
208.213384
  0
ARC
  8
0
 62
7
  6
CONTINUOUS
 10
-154.602600
 20
89.827087
 40
0.875000
 50
-48.213250
 51
-18.213229
  0
ARC
  8
0
 62
7
  6
CONTINUOUS
 10
-153.436462
 20
88.522240
 40
0.875000
 50
131.786904
 51
170.000151
  0
ARC
  8
0
 62
7
  6
CONTINUOUS
 10
-156.144684
 20
88.999779
 40
0.875000
 50
-10.000002
 51
28.213232
  0
ARC
  8
0
 62
7
  6
CONTINUOUS
 10
-154.602600
 20
89.827087
 40
0.875000
 50
178.213364
 51
208.213384
  0
ARC
  8
0
 62
7
  6
CONTINUOUS
 10
-155.158005
 20
88.825798
 40
0.875000
 50
131.786904
 51
170.000151
  0
ARC
  8
0
 62
7
  6
CONTINUOUS
 10
-156.324142
 20
90.130646
 40
0.875000
 50
-48.213250
 51
-18.213229
  0
ARC
  8
0
 62
7
  6
CONTINUOUS
 10
-157.866226
 20
89.303329
 40
0.875000
 50
-10.000002
 51
28.213232
  0
ARC
  8
0
 62
7
  6
CONTINUOUS
 10
-156.324142
 20
90.130646
 40
0.875000
 50
178.213364
 51
208.213384
  0
ARC
  8
0
 62
7
  6
CONTINUOUS
 10
-156.332230
 20
89.032845
 40
0.875000
 50
142.884864
 51
170.000151
  0
ARC
  8
0
 62
7
  6
CONTINUOUS
 10
-157.498367
 20
90.337692
 40
0.875000
 50
178.213337
 51
208.213384
  0
ARC
  8
0
 62
7
  6
CONTINUOUS
 10
-159.040466
 20
89.510376
 40
0.875000
 50
-10.000002
 51
28.213232
  0
ARC
  8
0
 62
7
  6
CONTINUOUS
 10
-161.830017
 20
91.271530
 40
0.875000
 50
-10.000012
 51
28.213235
  0
ARC
  8
0
 62
7
  6
CONTINUOUS
 10
-160.287933
 20
92.098854
 40
0.875000
 50
178.213624
 51
208.213384
  0
ARC
  8
0
 62
7
  6
CONTINUOUS
 10
-149.947449
 20
90.275543
 40
0.875000
 50
178.213624
 51
208.213384
  0
ARC
  8
0
 62
7
  6
CONTINUOUS
 10
-151.489532
 20
89.448219
 40
0.875000
 50
-10.000012
 51
28.213235
  0
ARC
  8
0
 62
7
  6
CONTINUOUS
 10
-149.947449
 20
90.275543
 40
0.875000
 50
-48.213250
 51
-18.213490
  0
ARC
  8
0
 62
7
  6
CONTINUOUS
 10
-148.781311
 20
88.970688
 40
0.875000
 50
131.786904
 51
170.000137
  0
ARC
  8
0
 62
7
  6
CONTINUOUS
 10
-152.995361
 20
90.812973
 40
0.875000
 50
178.213624
 51
208.213384
  0
ARC
  8
0
 62
7
  6
CONTINUOUS
 10
-154.537445
 20
89.985649
 40
0.875000
 50
-10.000012
 51
28.213235
  0
ARC
  8
0
 62
7
  6
CONTINUOUS
 10
-152.995361
 20
90.812973
 40
0.875000
 50
-48.213250
 51
-18.213490
  0
ARC
  8
0
 62
7
  6
CONTINUOUS
 10
-151.829224
 20
89.508118
 40
0.875000
 50
131.786904
 51
170.000137
  0
ARC
  8
0
 62
7
  6
CONTINUOUS
 10
-155.772446
 20
91.302650
 40
0.875000
 50
178.213624
 51
208.213384
  0
ARC
  8
0
 62
7
  6
CONTINUOUS
 10
-157.314545
 20
90.475327
 40
0.875000
 50
-10.000012
 51
28.213235
  0
ARC
  8
0
 62
7
  6
CONTINUOUS
 10
-155.772446
 20
91.302650
 40
0.875000
 50
-48.213250
 51
-18.213490
  0
ARC
  8
0
 62
7
  6
CONTINUOUS
 10
-154.606323
 20
89.997795
 40
0.875000
 50
131.786904
 51
170.000137
  0
ARC
  8
0
 62
7
  6
CONTINUOUS
 10
-158.031952
 20
91.701065
 40
0.875000
 50
178.213624
 51
208.213384
  0
ARC
  8
0
 62
7
  6
CONTINUOUS
 10
-159.574066
 20
90.873741
 40
0.875000
 50
-10.000012
 51
28.213235
  0
ARC
  8
0
 62
7
  6
CONTINUOUS
 10
-156.865845
 20
90.396210
 40
0.875000
 50
131.786904
 51
170.000137
  0
ARC
  8
0
 62
7
  6
CONTINUOUS
 10
-158.031952
 20
91.701065
 40
0.875000
 50
-48.213250
 51
-18.213490
  0
ARC
  8
0
 62
7
  6
CONTINUOUS
 10
-146.899551
 20
89.738121
 40
0.875000
 50
178.213624
 51
208.213384
  0
ARC
  8
0
 62
7
  6
CONTINUOUS
 10
-148.441635
 20
88.910797
 40
0.875000
 50
-10.000002
 51
28.213232
  0
ARC
  8
0
 62
7
  6
CONTINUOUS
 10
-146.899551
 20
89.738121
 40
0.875000
 50
-48.213250
 51
-18.213490
  0
ARC
  8
0
 62
7
  6
CONTINUOUS
 10
-145.733414
 20
88.433258
 40
0.875000
 50
131.786904
 51
170.000151
  0
ARC
  8
0
 62
7
  6
CONTINUOUS
 10
-144.122467
 20
89.248444
 40
0.875000
 50
178.213624
 51
208.213384
  0
ARC
  8
0
 62
7
  6
CONTINUOUS
 10
-145.664551
 20
88.421120
 40
0.875000
 50
-10.000002
 51
28.213232
  0
ARC
  8
0
 62
7
  6
CONTINUOUS
 10
-144.122467
 20
89.248444
 40
0.875000
 50
-48.213250
 51
-18.213490
  0
ARC
  8
0
 62
7
  6
CONTINUOUS
 10
-142.956329
 20
87.943588
 40
0.875000
 50
131.786904
 51
170.000151
  0
ARC
  8
0
 62
7
  6
CONTINUOUS
 10
-141.862946
 20
88.850029
 40
0.875000
 50
178.213624
 51
208.213384
  0
ARC
  8
0
 62
7
  6
CONTINUOUS
 10
-143.405029
 20
88.022705
 40
0.875000
 50
-10.000002
 51
28.213232
  0
ARC
  8
0
 62
7
  6
CONTINUOUS
 10
-141.862946
 20
88.850029
 40
0.875000
 50
-48.213250
 51
-18.213490
  0
ARC
  8
0
 62
7
  6
CONTINUOUS
 10
-140.696808
 20
87.545174
 40
0.875000
 50
131.786904
 51
170.000151
  0
ARC
  8
0
 62
7
  6
CONTINUOUS
 10
-140.321777
 20
88.578278
 40
0.875000
 50
-163.412933
 51
-151.786917
  0
ARC
  8
0
 62
7
  6
CONTINUOUS
 10
-141.863861
 20
87.750954
 40
0.875000
 50
-10.000002
 51
28.213232
  0
ARC
  8
0
 62
7
  6
CONTINUOUS
 10
-139.155640
 20
87.273422
 40
0.875000
 50
131.786904
 51
170.000151
  0
ARC
  8
0
 62
7
  6
CONTINUOUS
 10
-140.321777
 20
88.578278
 40
0.875000
 50
-48.213250
 51
-18.213490
  0
ARC
  8
0
 62
7
  6
CONTINUOUS
 10
-133.210220
 20
-88.344482
 40
191.250000
 50
80.000065
 51
92.130512
  0
ARC
  8
0
 62
7
  6
CONTINUOUS
 10
-112.328224
 20
85.673111
 40
30.000000
 50
152.491957
 51
170.000137
  0
ARC
  8
0
 62
7
  6
CONTINUOUS
 10
-133.210220
 20
-88.344482
 40
198.724976
 50
89.558814
 51
93.829011
  0
ARC
  8
0
 62
7
  6
CONTINUOUS
 10
-145.941711
 20
112.993271
 40
9.865305
 50
-164.841755
 51
-100.000085
  0
ARC
  8
0
 62
7
  6
CONTINUOUS
 10
-141.613220
 20
137.541260
 40
34.791988
 50
-100.000085
 51
-87.869638
  0
ARC
  8
0
 62
7
  6
CONTINUOUS
 10
-133.372070
 20
96.631653
 40
6.273786
 50
90.050212
 51
152.491957
  0
ARC
  8
0
 62
7
  6
CONTINUOUS
 10
-93.942810
 20
106.997864
 40
0.250000
 50
-101.366110
 51
-10.000009
  0
CIRCLE
  8
0
 62
7
  6
CONTINUOUS
 10
-381.738770
 20
36.269123
 40
1.500000
  0
CIRCLE
  8
0
 62
7
  6
CONTINUOUS
 10
-381.738770
 20
36.269123
 40
1.500000
  0
CIRCLE
  8
0
 62
7
  6
CONTINUOUS
 10
-381.738770
 20
36.269123
 40
1.500000
  0
CIRCLE
  8
0
 62
7
  6
CONTINUOUS
 10
-381.738770
 20
36.269123
 40
1.500000
  0
CIRCLE
  8
0
 62
7
  6
CONTINUOUS
 10
-381.738770
 20
36.269123
 40
1.500000
  0
ARC
  8
0
 62
7
  6
CONTINUOUS
 10
-284.125000
 20
92.245163
 40
30.000000
 50
159.512236
 51
180.000157
  0
ARC
  8
0
 62
7
  6
CONTINUOUS
 10
-315.875000
 20
92.245163
 40
30.000000
 50
-0.000000
 51
20.487916
  0
ARC
  8
0
 62
7
  6
CONTINUOUS
 10
-300.000000
 20
98.176758
 40
13.053042
 50
20.487916
 51
159.512236
  0
ARC
  8
0
 62
7
  6
CONTINUOUS
 10
-300.000000
 20
90.605743
 40
20.172991
 50
74.178533
 51
105.821617
  0
ARC
  8
0
 62
7
  6
CONTINUOUS
 10
-300.000000
 20
102.405518
 40
9.250000
 50
58.828544
 51
121.171606
  0
ARC
  8
0
 62
7
  6
CONTINUOUS
 10
-310.500000
 20
90.275543
 40
0.875000
 50
179.834019
 51
218.213390
  0
ARC
  8
0
 62
7
  6
CONTINUOUS
 10
-308.000000
 20
89.044533
 40
0.875000
 50
179.834019
 51
218.213390
  0
ARC
  8
0
 62
7
  6
CONTINUOUS
 10
-309.375000
 20
87.962006
 40
0.875000
 50
0.000000
 51
38.213243
  0
ARC
  8
0
 62
7
  6
CONTINUOUS
 10
-306.625000
 20
87.962006
 40
0.875000
 50
168.233849
 51
180.000157
  0
ARC
  8
0
 62
7
  6
CONTINUOUS
 10
-303.843201
 20
91.972321
 40
0.875000
 50
179.834019
 51
218.213390
  0
ARC
  8
0
 62
7
  6
CONTINUOUS
 10
-305.218201
 20
90.889793
 40
0.875000
 50
0.000000
 51
38.213243
  0
ARC
  8
0
 62
7
  6
CONTINUOUS
 10
-302.468201
 20
90.889793
 40
0.875000
 50
141.786910
 51
180.000157
  0
ARC
  8
0
 62
7
  6
CONTINUOUS
 10
-303.843201
 20
91.972321
 40
0.875000
 50
-38.213243
 51
0.166127
  0
ARC
  8
0
 62
7
  6
CONTINUOUS
 10
-306.546692
 20
91.701050
 40
0.875000
 50
179.834019
 51
218.213390
  0
ARC
  8
0
 62
7
  6
CONTINUOUS
 10
-307.921692
 20
90.618523
 40
0.875000
 50
0.000000
 51
38.213243
  0
ARC
  8
0
 62
7
  6
CONTINUOUS
 10
-305.171692
 20
90.618523
 40
0.875000
 50
141.786910
 51
180.000157
  0
ARC
  8
0
 62
7
  6
CONTINUOUS
 10
-306.546692
 20
91.701050
 40
0.875000
 50
-38.213243
 51
0.166127
  0
ARC
  8
0
 62
7
  6
CONTINUOUS
 10
-308.675751
 20
91.302582
 40
0.875000
 50
179.834019
 51
218.213390
  0
ARC
  8
0
 62
7
  6
CONTINUOUS
 10
-310.050751
 20
90.220055
 40
0.875000
 50
0.000000
 51
38.213243
  0
ARC
  8
0
 62
7
  6
CONTINUOUS
 10
-307.300751
 20
90.220055
 40
0.875000
 50
141.786910
 51
180.000157
  0
ARC
  8
0
 62
7
  6
CONTINUOUS
 10
-308.675751
 20
91.302582
 40
0.875000
 50
-38.213243
 51
0.166127
  0
ARC
  8
0
 62
7
  6
CONTINUOUS
 10
-308.675720
 20
89.248489
 40
0.875000
 50
-158.440032
 51
-141.786910
  0
ARC
  8
0
 62
7
  6
CONTINUOUS
 10
-311.407776
 20
89.730858
 40
0.875000
 50
0.000000
 51
38.213243
  0
ARC
  8
0
 62
7
  6
CONTINUOUS
 10
-308.657776
 20
89.730858
 40
0.875000
 50
141.786910
 51
180.000157
  0
ARC
  8
0
 62
7
  6
CONTINUOUS
 10
-310.032776
 20
90.813393
 40
0.875000
 50
-38.213243
 51
-21.565311
  0
ARC
  8
0
 62
7
  6
CONTINUOUS
 10
-311.875000
 20
89.193016
 40
0.875000
 50
0.000000
 51
38.213243
  0
ARC
  8
0
 62
7
  6
CONTINUOUS
 10
-309.125000
 20
89.193016
 40
0.875000
 50
159.678538
 51
180.000157
  0
ARC
  8
0
 62
7
  6
CONTINUOUS
 10
-311.407776
 20
88.655167
 40
0.875000
 50
0.000000
 51
20.321759
  0
ARC
  8
0
 62
7
  6
CONTINUOUS
 10
-308.657776
 20
88.655167
 40
0.875000
 50
160.589399
 51
180.000157
  0
ARC
  8
0
 62
7
  6
CONTINUOUS
 10
-310.050720
 20
88.165962
 40
0.875000
 50
0.000000
 51
38.213243
  0
ARC
  8
0
 62
7
  6
CONTINUOUS
 10
-296.156799
 20
91.972321
 40
0.875000
 50
179.834019
 51
218.213390
  0
ARC
  8
0
 62
7
  6
CONTINUOUS
 10
-297.531799
 20
90.889793
 40
0.875000
 50
0.000000
 51
38.213243
  0
ARC
  8
0
 62
7
  6
CONTINUOUS
 10
-294.781799
 20
90.889793
 40
0.875000
 50
141.786910
 51
180.000157
  0
ARC
  8
0
 62
7
  6
CONTINUOUS
 10
-296.156799
 20
91.972321
 40
0.875000
 50
-38.213243
 51
0.166127
  0
ARC
  8
0
 62
7
  6
CONTINUOUS
 10
-294.828308
 20
90.618523
 40
0.875000
 50
0.000000
 51
38.213243
  0
ARC
  8
0
 62
7
  6
CONTINUOUS
 10
-292.078308
 20
90.618523
 40
0.875000
 50
141.786910
 51
180.000157
  0
ARC
  8
0
 62
7
  6
CONTINUOUS
 10
-293.453308
 20
91.701050
 40
0.875000
 50
179.834019
 51
218.213390
  0
ARC
  8
0
 62
7
  6
CONTINUOUS
 10
-293.453308
 20
91.701050
 40
0.875000
 50
-38.213243
 51
0.166127
  0
ARC
  8
0
 62
7
  6
CONTINUOUS
 10
-291.324249
 20
91.302582
 40
0.875000
 50
179.834019
 51
218.213390
  0
ARC
  8
0
 62
7
  6
CONTINUOUS
 10
-292.699249
 20
90.220055
 40
0.875000
 50
0.000000
 51
38.213243
  0
ARC
  8
0
 62
7
  6
CONTINUOUS
 10
-291.324280
 20
89.248489
 40
0.875000
 50
-38.213243
 51
-21.560123
  0
ARC
  8
0
 62
7
  6
CONTINUOUS
 10
-289.967224
 20
90.813393
 40
0.875000
 50
-158.434841
 51
-141.786910
  0
ARC
  8
0
 62
7
  6
CONTINUOUS
 10
-289.949249
 20
90.220055
 40
0.875000
 50
141.786910
 51
180.000157
  0
ARC
  8
0
 62
7
  6
CONTINUOUS
 10
-289.967224
 20
90.813393
 40
0.875000
 50
-38.213243
 51
0.166127
  0
ARC
  8
0
 62
7
  6
CONTINUOUS
 10
-288.592224
 20
89.730858
 40
0.875000
 50
141.786910
 51
180.000157
  0
ARC
  8
0
 62
7
  6
CONTINUOUS
 10
-290.875000
 20
89.193016
 40
0.875000
 50
0.000000
 51
20.321619
  0
ARC
  8
0
 62
7
  6
CONTINUOUS
 10
-288.125000
 20
89.193016
 40
0.875000
 50
141.786910
 51
180.000157
  0
ARC
  8
0
 62
7
  6
CONTINUOUS
 10
-289.500000
 20
90.275543
 40
0.875000
 50
-38.213243
 51
0.166127
  0
ARC
  8
0
 62
7
  6
CONTINUOUS
 10
-291.342224
 20
89.730858
 40
0.875000
 50
0.000000
 51
38.213243
  0
ARC
  8
0
 62
7
  6
CONTINUOUS
 10
-291.342224
 20
88.655167
 40
0.875000
 50
0.000000
 51
19.410753
  0
ARC
  8
0
 62
7
  6
CONTINUOUS
 10
-288.592224
 20
88.655167
 40
0.875000
 50
159.678387
 51
180.000157
  0
ARC
  8
0
 62
7
  6
CONTINUOUS
 10
-289.949280
 20
88.165962
 40
0.875000
 50
141.786910
 51
180.000157
  0
ARC
  8
0
 62
7
  6
CONTINUOUS
 10
-312.000000
 20
91.014160
 40
0.750000
 50
180.000143
 51
231.260647
  0
ARC
  8
0
 62
7
  6
CONTINUOUS
 10
-288.000000
 20
91.014160
 40
0.750000
 50
-51.260504
 51
0.000000
  0
ARC
  8
0
 62
7
  6
CONTINUOUS
 10
-300.000000
 20
92.098846
 40
0.875000
 50
179.834019
 51
218.213390
  0
ARC
  8
0
 62
7
  6
CONTINUOUS
 10
-301.375000
 20
91.016327
 40
0.875000
 50
0.000000
 51
38.213243
  0
ARC
  8
0
 62
7
  6
CONTINUOUS
 10
-298.625000
 20
91.016327
 40
0.875000
 50
141.786910
 51
180.000157
  0
ARC
  8
0
 62
7
  6
CONTINUOUS
 10
-300.000000
 20
92.098846
 40
0.875000
 50
-38.213243
 51
0.166127
  0
ARC
  8
0
 62
7
  6
CONTINUOUS
 10
-300.000000
 20
90.433723
 40
0.875000
 50
179.834019
 51
218.213390
  0
ARC
  8
0
 62
7
  6
CONTINUOUS
 10
-301.375000
 20
89.351189
 40
0.875000
 50
0.000000
 51
38.213243
  0
ARC
  8
0
 62
7
  6
CONTINUOUS
 10
-298.625000
 20
89.351189
 40
0.875000
 50
141.786910
 51
180.000157
  0
ARC
  8
0
 62
7
  6
CONTINUOUS
 10
-300.000000
 20
90.433723
 40
0.875000
 50
-38.213243
 51
0.166127
  0
ARC
  8
0
 62
7
  6
CONTINUOUS
 10
-302.928131
 20
90.337326
 40
0.875000
 50
179.834019
 51
218.213390
  0
ARC
  8
0
 62
7
  6
CONTINUOUS
 10
-304.303131
 20
89.254791
 40
0.875000
 50
0.000000
 51
38.213243
  0
ARC
  8
0
 62
7
  6
CONTINUOUS
 10
-301.553131
 20
89.254791
 40
0.875000
 50
141.786910
 51
180.000157
  0
ARC
  8
0
 62
7
  6
CONTINUOUS
 10
-302.928131
 20
90.337326
 40
0.875000
 50
-38.213243
 51
0.166127
  0
ARC
  8
0
 62
7
  6
CONTINUOUS
 10
-304.987946
 20
90.130638
 40
0.875000
 50
179.834019
 51
218.213390
  0
ARC
  8
0
 62
7
  6
CONTINUOUS
 10
-306.362946
 20
89.048111
 40
0.875000
 50
0.000000
 51
38.213243
  0
ARC
  8
0
 62
7
  6
CONTINUOUS
 10
-303.612946
 20
89.048111
 40
0.875000
 50
141.786910
 51
180.000157
  0
ARC
  8
0
 62
7
  6
CONTINUOUS
 10
-304.987946
 20
90.130638
 40
0.875000
 50
-38.213243
 51
0.166127
  0
ARC
  8
0
 62
7
  6
CONTINUOUS
 10
-309.020355
 20
87.552971
 40
0.875000
 50
0.000000
 51
11.772105
  0
ARC
  8
0
 62
7
  6
CONTINUOUS
 10
-306.270355
 20
87.552971
 40
0.875000
 50
141.786910
 51
180.000157
  0
ARC
  8
0
 62
7
  6
CONTINUOUS
 10
-307.645355
 20
89.453568
 40
0.875000
 50
179.834019
 51
218.213390
  0
ARC
  8
0
 62
7
  6
CONTINUOUS
 10
-309.020355
 20
88.371040
 40
0.875000
 50
0.000000
 51
38.213243
  0
ARC
  8
0
 62
7
  6
CONTINUOUS
 10
-306.270355
 20
88.371040
 40
0.875000
 50
163.681920
 51
180.000157
  0
ARC
  8
0
 62
7
  6
CONTINUOUS
 10
-305.235107
 20
88.744507
 40
0.875000
 50
141.786910
 51
180.000157
  0
ARC
  8
0
 62
7
  6
CONTINUOUS
 10
-307.985107
 20
88.744507
 40
0.875000
 50
0.000000
 51
38.213243
  0
ARC
  8
0
 62
7
  6
CONTINUOUS
 10
-305.235077
 20
87.179489
 40
0.875000
 50
150.951502
 51
180.000157
  0
ARC
  8
0
 62
7
  6
CONTINUOUS
 10
-307.985077
 20
87.179489
 40
0.875000
 50
0.000000
 51
16.326987
  0
ARC
  8
0
 62
7
  6
CONTINUOUS
 10
-307.645355
 20
88.635498
 40
0.875000
 50
-38.213243
 51
-8.829406
  0
ARC
  8
0
 62
7
  6
CONTINUOUS
 10
-306.610107
 20
89.827042
 40
0.875000
 50
179.834019
 51
218.213390
  0
ARC
  8
0
 62
7
  6
CONTINUOUS
 10
-306.610107
 20
89.827042
 40
0.875000
 50
-38.213243
 51
-8.829406
  0
ARC
  8
0
 62
7
  6
CONTINUOUS
 10
-310.032776
 20
90.813393
 40
0.875000
 50
179.834019
 51
218.213390
  0
ARC
  8
0
 62
7
  6
CONTINUOUS
 10
-292.354645
 20
89.453568
 40
0.875000
 50
-38.213243
 51
0.166127
  0
ARC
  8
0
 62
7
  6
CONTINUOUS
 10
-292.000000
 20
89.044533
 40
0.875000
 50
-38.213243
 51
0.166127
  0
ARC
  8
0
 62
7
  6
CONTINUOUS
 10
-290.625000
 20
87.962006
 40
0.875000
 50
141.786910
 51
180.000157
  0
ARC
  8
0
 62
7
  6
CONTINUOUS
 10
-293.375000
 20
87.962006
 40
0.875000
 50
0.000000
 51
11.766306
  0
ARC
  8
0
 62
7
  6
CONTINUOUS
 10
-290.979645
 20
88.371040
 40
0.875000
 50
141.786910
 51
180.000157
  0
ARC
  8
0
 62
7
  6
CONTINUOUS
 10
-293.729645
 20
88.371040
 40
0.875000
 50
0.000000
 51
16.318227
  0
ARC
  8
0
 62
7
  6
CONTINUOUS
 10
-292.014893
 20
88.744507
 40
0.875000
 50
141.786910
 51
180.000157
  0
ARC
  8
0
 62
7
  6
CONTINUOUS
 10
-293.389893
 20
89.827042
 40
0.875000
 50
-171.170750
 51
-141.786910
  0
ARC
  8
0
 62
7
  6
CONTINUOUS
 10
-295.012054
 20
90.130638
 40
0.875000
 50
-38.213243
 51
0.166127
  0
ARC
  8
0
 62
7
  6
CONTINUOUS
 10
-295.012054
 20
90.130638
 40
0.875000
 50
179.834019
 51
218.213390
  0
ARC
  8
0
 62
7
  6
CONTINUOUS
 10
-297.071869
 20
90.337326
 40
0.875000
 50
-38.213243
 51
0.166127
  0
ARC
  8
0
 62
7
  6
CONTINUOUS
 10
-297.071869
 20
90.337326
 40
0.875000
 50
179.834019
 51
218.213390
  0
ARC
  8
0
 62
7
  6
CONTINUOUS
 10
-298.446869
 20
89.254791
 40
0.875000
 50
0.000000
 51
38.213243
  0
ARC
  8
0
 62
7
  6
CONTINUOUS
 10
-295.696869
 20
89.254791
 40
0.875000
 50
141.786910
 51
180.000157
  0
ARC
  8
0
 62
7
  6
CONTINUOUS
 10
-296.387054
 20
89.048111
 40
0.875000
 50
0.000000
 51
38.213243
  0
ARC
  8
0
 62
7
  6
CONTINUOUS
 10
-293.637054
 20
89.048111
 40
0.875000
 50
141.786910
 51
180.000157
  0
ARC
  8
0
 62
7
  6
CONTINUOUS
 10
-294.764893
 20
88.744507
 40
0.875000
 50
0.000000
 51
38.213243
  0
ARC
  8
0
 62
7
  6
CONTINUOUS
 10
-293.389893
 20
89.827042
 40
0.875000
 50
-38.213243
 51
0.166127
  0
ARC
  8
0
 62
7
  6
CONTINUOUS
 10
-292.354645
 20
88.635498
 40
0.875000
 50
-171.170750
 51
-141.786910
  0
ARC
  8
0
 62
7
  6
CONTINUOUS
 10
-293.729645
 20
87.552971
 40
0.875000
 50
0.000000
 51
38.213243
  0
ARC
  8
0
 62
7
  6
CONTINUOUS
 10
-292.014923
 20
87.179489
 40
0.875000
 50
163.673163
 51
180.000157
  0
ARC
  8
0
 62
7
  6
CONTINUOUS
 10
-294.764923
 20
87.179489
 40
0.875000
 50
0.000000
 51
29.048648
  0
ARC
  8
0
 62
7
  6
CONTINUOUS
 10
-290.979645
 20
87.552971
 40
0.875000
 50
168.228043
 51
180.000157
  0
ARC
  8
0
 62
7
  6
CONTINUOUS
 10
-291.324249
 20
91.302582
 40
0.875000
 50
-38.213243
 51
0.166127
  0
CIRCLE
  8
0
 62
7
  6
CONTINUOUS
 10
-381.738770
 20
156.269119
 40
1.500000
  0
CIRCLE
  8
0
 62
7
  6
CONTINUOUS
 10
-381.738770
 20
156.269119
 40
1.500000
  0
CIRCLE
  8
0
 62
7
  6
CONTINUOUS
 10
-381.738770
 20
156.269119
 40
1.500000
  0
CIRCLE
  8
0
 62
7
  6
CONTINUOUS
 10
-381.738770
 20
156.269119
 40
1.500000
  0
CIRCLE
  8
0
 62
7
  6
CONTINUOUS
 10
-332.327209
 20
128.227142
 40
50.769436
  0
ARC
  8
0
 62
7
  6
CONTINUOUS
 10
-300.000000
 20
221.432602
 40
5.000000
 50
48.908471
 51
131.091686
  0
ARC
  8
0
 62
7
  6
CONTINUOUS
 10
-321.750458
 20
185.632416
 40
12.500000
 50
-35.441236
 51
-0.000003
  0
ARC
  8
0
 62
7
  6
CONTINUOUS
 10
-278.250153
 20
185.633301
 40
12.500000
 50
180.000143
 51
215.443787
  0
ARC
  8
0
 62
7
  6
CONTINUOUS
 10
-290.460114
 20
172.345215
 40
21.494661
 50
156.992017
 51
180.000157
  0
ARC
  8
0
 62
7
  6
CONTINUOUS
 10
-309.539886
 20
172.345215
 40
21.494661
 50
0.000004
 51
23.008145
  0
CIRCLE
  8
0
 62
7
  6
CONTINUOUS
 10
-300.000000
 20
173.747360
 40
2.375000
  0
CIRCLE
  8
0
 62
7
  6
CONTINUOUS
 10
-301.500000
 20
171.149277
 40
0.375000
  0
CIRCLE
  8
0
 62
7
  6
CONTINUOUS
 10
-300.000000
 20
170.747360
 40
0.375000
  0
CIRCLE
  8
0
 62
7
  6
CONTINUOUS
 10
-298.500000
 20
171.149277
 40
0.375000
  0
CIRCLE
  8
0
 62
7
  6
CONTINUOUS
 10
-297.401917
 20
172.247360
 40
0.375000
  0
CIRCLE
  8
0
 62
7
  6
CONTINUOUS
 10
-297.000000
 20
173.747360
 40
0.375000
  0
CIRCLE
  8
0
 62
7
  6
CONTINUOUS
 10
-297.401917
 20
175.247360
 40
0.375000
  0
CIRCLE
  8
0
 62
7
  6
CONTINUOUS
 10
-298.500000
 20
176.345428
 40
0.375000
  0
CIRCLE
  8
0
 62
7
  6
CONTINUOUS
 10
-300.000000
 20
176.747360
 40
0.375000
  0
CIRCLE
  8
0
 62
7
  6
CONTINUOUS
 10
-301.500000
 20
176.345428
 40
0.375000
  0
CIRCLE
  8
0
 62
7
  6
CONTINUOUS
 10
-302.598083
 20
175.247360
 40
0.375000
  0
CIRCLE
  8
0
 62
7
  6
CONTINUOUS
 10
-303.000000
 20
173.747360
 40
0.375000
  0
CIRCLE
  8
0
 62
7
  6
CONTINUOUS
 10
-302.598083
 20
172.247360
 40
0.375000
  0
CIRCLE
  8
0
 62
7
  6
CONTINUOUS
 10
-298.500000
 20
185.442963
 40
0.375000
  0
CIRCLE
  8
0
 62
7
  6
CONTINUOUS
 10
-301.500000
 20
185.442963
 40
0.375000
  0
CIRCLE
  8
0
 62
7
  6
CONTINUOUS
 10
-300.000000
 20
185.442963
 40
0.375000
  0
CIRCLE
  8
0
 62
7
  6
CONTINUOUS
 10
-298.500000
 20
189.942963
 40
0.375000
  0
CIRCLE
  8
0
 62
7
  6
CONTINUOUS
 10
-300.000000
 20
189.942963
 40
0.375000
  0
CIRCLE
  8
0
 62
7
  6
CONTINUOUS
 10
-301.500000
 20
189.942963
 40
0.375000
  0
CIRCLE
  8
0
 62
7
  6
CONTINUOUS
 10
-298.500000
 20
188.442963
 40
0.375000
  0
CIRCLE
  8
0
 62
7
  6
CONTINUOUS
 10
-301.500000
 20
188.442963
 40
0.375000
  0
CIRCLE
  8
0
 62
7
  6
CONTINUOUS
 10
-298.500000
 20
186.942963
 40
0.375000
  0
CIRCLE
  8
0
 62
7
  6
CONTINUOUS
 10
-300.000000
 20
186.942963
 40
0.375000
  0
CIRCLE
  8
0
 62
7
  6
CONTINUOUS
 10
-301.500000
 20
186.942963
 40
0.375000
  0
ARC
  8
0
 62
7
  6
CONTINUOUS
 10
-376.600006
 20
14.600000
 40
0.800000
 50
-90.000079
 51
0.000000
  0
ARC
  8
0
 62
7
  6
CONTINUOUS
 10
-376.600006
 20
14.600000
 40
1.600000
 50
-90.000079
 51
0.000000
  0
ARC
  8
0
 62
7
  6
CONTINUOUS
 10
-369.399994
 20
16.199999
 40
0.800000
 50
-90.000079
 51
0.000000
  0
ARC
  8
0
 62
7
  6
CONTINUOUS
 10
-363.000000
 20
13.799999
 40
0.800000
 50
-90.000079
 51
0.000000
  0
ARC
  8
0
 62
7
  6
CONTINUOUS
 10
-366.200012
 20
14.600000
 40
1.600000
 50
-30.000026
 51
0.000000
  0
ARC
  8
0
 62
7
  6
CONTINUOUS
 10
-366.200012
 20
14.600000
 40
0.800000
 50
-90.000079
 51
0.000000
  0
ARC
  8
0
 62
7
  6
CONTINUOUS
 10
-363.399994
 20
18.199999
 40
0.800000
 50
-90.000079
 51
0.000000
  0
ARC
  8
0
 62
7
  6
CONTINUOUS
 10
-325.720001
 20
18.599998
 40
0.800000
 50
-90.000079
 51
0.000000
  0
ARC
  8
0
 62
7
  6
CONTINUOUS
 10
-357.399994
 20
18.599998
 40
0.800000
 50
-90.000079
 51
0.000000
  0
ARC
  8
0
 62
7
  6
CONTINUOUS
 10
-387.000000
 20
18.199999
 40
1.600000
 50
-90.000079
 51
0.000000
  0
ARC
  8
0
 62
7
  6
CONTINUOUS
 10
-387.000000
 20
18.199999
 40
2.400000
 50
-90.000079
 51
-19.471236
  0
ARC
  8
0
 62
7
  6
CONTINUOUS
 10
-341.720001
 20
16.999998
 40
4.000000
 50
-90.000079
 51
0.000000
  0
ARC
  8
0
 62
7
  6
CONTINUOUS
 10
-341.720001
 20
16.999998
 40
3.200000
 50
-90.000079
 51
0.000000
  0
ARC
  8
0
 62
7
  6
CONTINUOUS
 10
-385.399994
 20
16.999998
 40
4.000000
 50
-90.000079
 51
0.000000
  0
ARC
  8
0
 62
7
  6
CONTINUOUS
 10
-385.399994
 20
16.999998
 40
3.200000
 50
-90.000079
 51
0.000000
  0
ARC
  8
0
 62
7
  6
CONTINUOUS
 10
-383.000000
 20
18.599998
 40
0.800000
 50
-90.000079
 51
0.000000
  0
ARC
  8
0
 62
7
  6
CONTINUOUS
 10
-382.200012
 20
18.599998
 40
0.800000
 50
-90.000079
 51
0.000000
  0
ARC
  8
0
 62
7
  6
CONTINUOUS
 10
-340.919983
 20
18.199999
 40
0.800000
 50
-90.000079
 51
0.000000
  0
ARC
  8
0
 62
7
  6
CONTINUOUS
 10
-359.000000
 20
16.599998
 40
0.800000
 50
-90.000079
 51
0.000000
  0
ARC
  8
0
 62
7
  6
CONTINUOUS
 10
-359.799988
 20
16.999998
 40
3.200000
 50
-90.000079
 51
0.000000
  0
ARC
  8
0
 62
7
  6
CONTINUOUS
 10
-359.799988
 20
16.999998
 40
4.000000
 50
-90.000079
 51
0.000000
  0
ARC
  8
0
 62
7
  6
CONTINUOUS
 10
-359.000000
 20
18.199999
 40
0.800000
 50
-90.000079
 51
0.000000
  0
CIRCLE
  8
0
 62
7
  6
CONTINUOUS
 10
-344.919983
 20
17.799999
 40
0.800000
  0
CIRCLE
  8
0
 62
7
  6
CONTINUOUS
 10
-344.919983
 20
17.799999
 40
0.400000
  0
ARC
  8
0
 62
7
  6
CONTINUOUS
 10
-344.919983
 20
17.799999
 40
1.200000
 50
180.000143
 51
228.189873
  0
ARC
  8
0
 62
7
  6
CONTINUOUS
 10
-344.119995
 20
15.400000
 40
2.400000
 50
180.000143
 51
270.000229
  0
ARC
  8
0
 62
7
  6
CONTINUOUS
 10
-344.119995
 20
15.400000
 40
1.600000
 50
180.000143
 51
270.000229
  0
ARC
  8
0
 62
7
  6
CONTINUOUS
 10
-349.720001
 20
15.000000
 40
2.000000
 50
-90.000079
 51
0.000000
  0
ARC
  8
0
 62
7
  6
CONTINUOUS
 10
-349.720001
 20
15.000000
 40
1.200000
 50
-90.000079
 51
0.000000
  0
ARC
  8
0
 62
7
  6
CONTINUOUS
 10
-352.919983
 20
16.600000
 40
2.400000
 50
-82.337870
 51
0.000000
  0
ARC
  8
0
 62
7
  6
CONTINUOUS
 10
-352.919983
 20
16.600000
 40
1.600000
 50
-78.463196
 51
-26.743755
  0
ARC
  8
0
 62
7
  6
CONTINUOUS
 10
-353.799988
 20
14.200001
 40
0.800000
 50
-90.000079
 51
0.000000
  0
ARC
  8
0
 62
7
  6
CONTINUOUS
 10
-336.919983
 20
16.599998
 40
1.200000
 50
-90.000079
 51
0.000000
  0
ARC
  8
0
 62
7
  6
CONTINUOUS
 10
-336.919983
 20
16.599998
 40
2.000000
 50
-90.000079
 51
-53.130147
  0
ARC
  8
0
 62
7
  6
CONTINUOUS
 10
-333.720001
 20
16.599998
 40
1.200000
 50
180.000143
 51
228.189873
  0
ARC
  8
0
 62
7
  6
CONTINUOUS
 10
-333.720001
 20
16.599998
 40
2.000000
 50
-126.870010
 51
-113.578273
  0
ARC
  8
0
 62
7
  6
CONTINUOUS
 10
-335.320007
 20
18.199999
 40
1.600000
 50
-75.522551
 51
-48.590420
  0
ARC
  8
0
 62
7
  6
CONTINUOUS
 10
-335.320007
 20
18.199999
 40
1.600000
 50
-14.477524
 51
0.000000
  0
ARC
  8
0
 62
7
  6
CONTINUOUS
 10
-335.320007
 20
18.199999
 40
1.100000
 50
-48.189727
 51
0.000000
  0
ARC
  8
0
 62
7
  6
CONTINUOUS
 10
-332.320007
 20
17.799999
 40
0.800000
 50
-90.000079
 51
0.000000
  0
ARC
  8
0
 62
7
  6
CONTINUOUS
 10
-332.119995
 20
16.400000
 40
0.800000
 50
-90.000079
 51
0.000000
  0
ARC
  8
0
 62
7
  6
CONTINUOUS
 10
-356.600006
 20
18.599998
 40
0.800000
 50
-90.000079
 51
0.000000
  0
ARC
  8
0
 62
7
  6
CONTINUOUS
 10
-325.720001
 20
17.799999
 40
0.800000
 50
-90.000079
 51
0.000000
  0
ARC
  8
0
 62
7
  6
CONTINUOUS
 10
-324.919983
 20
15.400000
 40
2.400000
 50
180.000143
 51
270.000229
  0
ARC
  8
0
 62
7
  6
CONTINUOUS
 10
-324.919983
 20
15.400000
 40
1.600000
 50
180.000143
 51
270.000229
  0
ARC
  8
0
 62
7
  6
CONTINUOUS
 10
-328.519989
 20
16.400000
 40
0.800000
 50
-90.000079
 51
0.000000
  0
ARC
  8
0
 62
7
  6
CONTINUOUS
 10
-328.320007
 20
14.200001
 40
0.800000
 50
-90.000079
 51
0.000000
  0
ARC
  8
0
 62
7
  6
CONTINUOUS
 10
-335.269989
 20
15.599998
 40
1.949998
 50
-67.380235
 51
0.000000
  0
ARC
  8
0
 62
7
  6
CONTINUOUS
 10
-335.269989
 20
15.599998
 40
2.749998
 50
-74.173479
 51
-44.839058
  0
ARC
  8
0
 62
7
  6
CONTINUOUS
 10
-330.570007
 20
15.599998
 40
1.949998
 50
180.000143
 51
247.380399
  0
ARC
  8
0
 62
7
  6
CONTINUOUS
 10
-330.570007
 20
15.599998
 40
2.749998
 50
-135.161088
 51
-105.826678
  0
ARC
  8
0
 62
7
  6
CONTINUOUS
 10
-324.119995
 20
20.399998
 40
3.000000
 50
-90.000079
 51
-36.869928
  0
ARC
  8
0
 62
7
  6
CONTINUOUS
 10
-324.119995
 20
20.399998
 40
3.800000
 50
-90.000079
 51
-42.536934
  0
ARC
  8
0
 62
7
  6
CONTINUOUS
 10
-318.519989
 20
20.399998
 40
3.800000
 50
-137.463219
 51
-90.000079
  0
ARC
  8
0
 62
7
  6
CONTINUOUS
 10
-318.519989
 20
20.399998
 40
3.000000
 50
-143.130218
 51
-90.000079
  0
ARC
  8
0
 62
7
  6
CONTINUOUS
 10
-320.519989
 20
16.799999
 40
0.800000
 50
-90.000079
 51
0.000000
  0
ARC
  8
0
 62
7
  6
CONTINUOUS
 10
-320.119995
 20
13.799999
 40
0.800000
 50
-90.000079
 51
0.000000
  0
ARC
  8
0
 62
7
  6
CONTINUOUS
 10
-319.745392
 20
15.600000
 40
0.800000
 50
-90.000079
 51
0.000000
  0
ARC
  8
0
 62
7
  6
CONTINUOUS
 10
-323.320007
 20
15.539677
 40
1.739678
 50
-90.000072
 51
-25.162133
  0
ARC
  8
0
 62
7
  6
CONTINUOUS
 10
-323.320007
 20
15.539677
 40
2.539678
 50
-43.235595
 51
-16.932738
  0
ARC
  8
0
 62
7
  6
CONTINUOUS
 10
-318.119995
 20
17.799999
 40
2.800000
 50
-81.786858
 51
-64.623124
  0
ARC
  8
0
 62
7
  6
CONTINUOUS
 10
-318.119995
 20
17.799999
 40
2.000000
 50
-78.463107
 51
-23.578198
  0
ARC
  8
0
 62
7
  6
CONTINUOUS
 10
-318.119995
 20
17.799999
 40
2.800000
 50
-44.415347
 51
0.000000
  0
ARC
  8
0
 62
7
  6
CONTINUOUS
 10
-315.320007
 20
15.799999
 40
0.800000
 50
177.025976
 51
270.000229
  0
ARC
  8
0
 62
7
  6
CONTINUOUS
 10
-315.320007
 20
15.799999
 40
1.600000
 50
-120.000105
 51
-90.000079
  0
ARC
  8
0
 62
7
  6
CONTINUOUS
 10
-313.119995
 20
17.199999
 40
0.800000
 50
-90.000079
 51
0.000000
  0
ARC
  8
0
 62
7
  6
CONTINUOUS
 10
-312.919983
 20
14.000000
 40
0.800000
 50
-90.000079
 51
0.000000
  0
ARC
  8
0
 62
7
  6
CONTINUOUS
 10
-398.428558
 20
93.857147
 40
6.142857
 50
-31.914602
 51
31.914602
  0
ARC
  8
0
 62
7
  6
CONTINUOUS
 10
-388.000000
 20
87.362244
 40
6.142857
 50
148.085552
 51
210.348749
  0
ARC
  8
0
 62
7
  6
CONTINUOUS
 10
-388.000000
 20
100.352043
 40
6.142857
 50
149.651497
 51
211.914748
  0
ARC
  8
0
 62
7
  6
CONTINUOUS
 10
-404.142853
 20
80.867355
 40
6.142857
 50
-33.470725
 51
31.914602
  0
ARC
  8
0
 62
7
  6
CONTINUOUS
 10
-393.714294
 20
87.362244
 40
6.142857
 50
148.085552
 51
211.914748
  0
ARC
  8
0
 62
7
  6
CONTINUOUS
 10
-404.142853
 20
93.857147
 40
6.142857
 50
-31.914602
 51
31.914602
  0
ARC
  8
0
 62
7
  6
CONTINUOUS
 10
-393.714294
 20
100.352043
 40
6.142857
 50
148.085552
 51
211.914748
  0
ARC
  8
0
 62
7
  6
CONTINUOUS
 10
-404.142853
 20
106.846939
 40
6.142857
 50
-31.914602
 51
33.470725
  0
ARC
  8
0
 62
7
  6
CONTINUOUS
 10
-401.285706
 20
80.867355
 40
6.142857
 50
2.158052
 51
31.914602
  0
ARC
  8
0
 62
7
  6
CONTINUOUS
 10
-390.857147
 20
87.362244
 40
6.142857
 50
148.085552
 51
211.914748
  0
ARC
  8
0
 62
7
  6
CONTINUOUS
 10
-401.285706
 20
93.857147
 40
6.142857
 50
-31.914602
 51
31.914602
  0
ARC
  8
0
 62
7
  6
CONTINUOUS
 10
-390.857147
 20
100.352043
 40
6.142857
 50
148.085552
 51
211.914748
  0
ARC
  8
0
 62
7
  6
CONTINUOUS
 10
-401.285706
 20
106.846939
 40
6.142857
 50
-31.914602
 51
-2.158064
  0
ARC
  8
0
 62
7
  6
CONTINUOUS
 10
-404.142853
 20
80.867355
 40
6.714286
 50
-23.626199
 51
31.914602
  0
ARC
  8
0
 62
7
  6
CONTINUOUS
 10
-393.714294
 20
87.362244
 40
5.571429
 50
148.085552
 51
211.914748
  0
ARC
  8
0
 62
7
  6
CONTINUOUS
 10
-404.142853
 20
93.857147
 40
6.714286
 50
-31.914602
 51
31.914608
  0
ARC
  8
0
 62
7
  6
CONTINUOUS
 10
-393.714294
 20
100.352043
 40
5.571429
 50
148.085552
 51
211.914762
  0
ARC
  8
0
 62
7
  6
CONTINUOUS
 10
-404.142853
 20
106.846939
 40
6.714286
 50
-31.914602
 51
23.626216
  0
ARC
  8
0
 62
7
  6
CONTINUOUS
 10
-401.285706
 20
80.867355
 40
6.714286
 50
8.226605
 51
31.914602
  0
ARC
  8
0
 62
7
  6
CONTINUOUS
 10
-390.857147
 20
87.362244
 40
5.571429
 50
148.085552
 51
211.914748
  0
ARC
  8
0
 62
7
  6
CONTINUOUS
 10
-401.285706
 20
93.857147
 40
6.714286
 50
-31.914602
 51
31.914608
  0
ARC
  8
0
 62
7
  6
CONTINUOUS
 10
-390.857147
 20
100.352043
 40
5.571429
 50
148.085552
 51
211.914762
  0
ARC
  8
0
 62
7
  6
CONTINUOUS
 10
-401.285706
 20
106.846939
 40
6.714286
 50
-31.914602
 51
-8.226720
  0
ARC
  8
0
 62
7
  6
CONTINUOUS
 10
-388.000000
 20
87.362244
 40
5.571429
 50
148.085552
 51
205.945882
  0
ARC
  8
0
 62
7
  6
CONTINUOUS
 10
-398.428558
 20
93.857147
 40
6.714286
 50
-31.914602
 51
31.914608
  0
ARC
  8
0
 62
7
  6
CONTINUOUS
 10
-388.000000
 20
100.352043
 40
5.571429
 50
154.052998
 51
211.914762
  0
LINE
  8
0
 62
7
  6
CONTINUOUS
 10
-151.920387
 20
110.699066
 11
-151.724430
 21
110.408817
  0
LINE
  8
0
 62
7
  6
CONTINUOUS
 10
-151.724430
 20
110.408817
 11
-151.407079
 21
110.238965
  0
LINE
  8
0
 62
7
  6
CONTINUOUS
 10
-151.407079
 20
110.238965
 11
-151.064493
 21
110.125767
  0
LINE
  8
0
 62
7
  6
CONTINUOUS
 10
-151.064493
 20
110.125767
 11
-150.712726
 21
110.044004
  0
LINE
  8
0
 62
7
  6
CONTINUOUS
 10
-150.712726
 20
110.044004
 11
-150.356776
 21
109.983127
  0
LINE
  8
0
 62
7
  6
CONTINUOUS
 10
-150.356776
 20
109.983127
 11
-149.999006
 21
109.937667
  0
LINE
  8
0
 62
7
  6
CONTINUOUS
 10
-149.999006
 20
109.937667
 11
-149.639214
 21
109.904237
  0
LINE
  8
0
 62
7
  6
CONTINUOUS
 10
-149.639214
 20
109.904237
 11
-149.278390
 21
109.880828
  0
LINE
  8
0
 62
7
  6
CONTINUOUS
 10
-149.278390
 20
109.880828
 11
-148.917430
 21
109.866043
  0
LINE
  8
0
 62
7
  6
CONTINUOUS
 10
-148.917430
 20
109.866043
 11
-148.555885
 21
109.858837
  0
LINE
  8
0
 62
7
  6
CONTINUOUS
 10
-148.555885
 20
109.858837
 11
-148.194117
 21
109.858486
  0
LINE
  8
0
 62
7
  6
CONTINUOUS
 10
-148.194117
 20
109.858486
 11
-147.832514
 21
109.864440
  0
LINE
  8
0
 62
7
  6
CONTINUOUS
 10
-147.832514
 20
109.864440
 11
-147.471040
 21
109.876288
  0
LINE
  8
0
 62
7
  6
CONTINUOUS
 10
-147.471040
 20
109.876288
 11
-147.109771
 21
109.893729
  0
LINE
  8
0
 62
7
  6
CONTINUOUS
 10
-147.109771
 20
109.893729
 11
-146.748790
 21
109.916546
  0
LINE
  8
0
 62
7
  6
CONTINUOUS
 10
-146.748790
 20
109.916546
 11
-146.388187
 21
109.944595
  0
LINE
  8
0
 62
7
  6
CONTINUOUS
 10
-131.679743
 20
110.374597
 11
-131.300362
 21
110.369316
  0
LINE
  8
0
 62
7
  6
CONTINUOUS
 10
-131.300362
 20
110.369316
 11
-130.920601
 21
110.369956
  0
LINE
  8
0
 62
7
  6
CONTINUOUS
 10
-130.920601
 20
110.369956
 11
-130.540896
 21
110.376600
  0
LINE
  8
0
 62
7
  6
CONTINUOUS
 10
-130.540896
 20
110.376600
 11
-130.161790
 21
110.389388
  0
LINE
  8
0
 62
7
  6
CONTINUOUS
 10
-130.161790
 20
110.389388
 11
-129.782235
 21
110.408621
  0
LINE
  8
0
 62
7
  6
CONTINUOUS
 10
-129.782235
 20
110.408621
 11
-129.403357
 21
110.434624
  0
LINE
  8
0
 62
7
  6
CONTINUOUS
 10
-129.403357
 20
110.434624
 11
-129.025035
 21
110.467921
  0
LINE
  8
0
 62
7
  6
CONTINUOUS
 10
-129.025035
 20
110.467921
 11
-128.647472
 21
110.509214
  0
LINE
  8
0
 62
7
  6
CONTINUOUS
 10
-128.647472
 20
110.509214
 11
-128.270945
 21
110.559475
  0
LINE
  8
0
 62
7
  6
CONTINUOUS
 10
-128.270945
 20
110.559475
 11
-127.895854
 21
110.620082
  0
LINE
  8
0
 62
7
  6
CONTINUOUS
 10
-127.895854
 20
110.620082
 11
-127.522818
 21
110.693053
  0
LINE
  8
0
 62
7
  6
CONTINUOUS
 10
-127.522818
 20
110.693053
 11
-127.152888
 21
110.781517
  0
LINE
  8
0
 62
7
  6
CONTINUOUS
 10
-127.152888
 20
110.781517
 11
-126.789056
 21
110.890407
  0
LINE
  8
0
 62
7
  6
CONTINUOUS
 10
-126.789056
 20
110.890407
 11
-126.435690
 21
111.029575
  0
LINE
  8
0
 62
7
  6
CONTINUOUS
 10
-126.435690
 20
111.029575
 11
-126.108267
 21
111.221362
  0
LINE
  8
0
 62
7
  6
CONTINUOUS
 10
-126.108267
 20
111.221362
 11
-125.892282
 21
111.523759
  0
LINE
  8
0
 62
7
  6
CONTINUOUS
 10
-93.992040
 20
106.742591
 11
-94.604511
 21
106.744884
  0
LINE
  8
0
 62
7
  6
CONTINUOUS
 10
-94.604511
 20
106.744884
 11
-95.208298
 21
106.638995
  0
LINE
  8
0
 62
7
  6
CONTINUOUS
 10
-95.208298
 20
106.638995
 11
-95.787023
 21
106.437971
  0
LINE
  8
0
 62
7
  6
CONTINUOUS
 10
-95.787023
 20
106.437971
 11
-96.332216
 21
106.156981
  0
LINE
  8
0
 62
7
  6
CONTINUOUS
 10
-96.332216
 20
106.156981
 11
-96.839001
 21
105.810835
  0
LINE
  8
0
 62
7
  6
CONTINUOUS
 10
-96.839001
 20
105.810835
 11
-97.305596
 21
105.412446
  0
LINE
  8
0
 62
7
  6
CONTINUOUS
 10
-97.305596
 20
105.412446
 11
-97.732814
 21
104.971607
  0
LINE
  8
0
 62
7
  6
CONTINUOUS
 10
-97.732814
 20
104.971607
 11
-98.121364
 21
104.496834
  0
LINE
  8
0
 62
7
  6
CONTINUOUS
 10
-98.121364
 20
104.496834
 11
-98.473289
 21
103.993666
  0
LINE
  8
0
 62
7
  6
CONTINUOUS
 10
-98.473289
 20
103.993666
 11
-98.789709
 21
103.467418
  0
LINE
  8
0
 62
7
  6
CONTINUOUS
 10
-98.789709
 20
103.467418
 11
-99.071916
 21
102.922050
  0
LINE
  8
0
 62
7
  6
CONTINUOUS
 10
-99.071916
 20
102.922050
 11
-99.321013
 21
102.360729
  0
LINE
  8
0
 62
7
  6
CONTINUOUS
 10
-99.321013
 20
102.360729
 11
-99.537842
 21
101.786104
  0
LINE
  8
0
 62
7
  6
CONTINUOUS
 10
-99.537842
 20
101.786104
 11
-99.722984
 21
101.200457
  0
LINE
  8
0
 62
7
  6
CONTINUOUS
 10
-99.722984
 20
101.200457
 11
-99.876771
 21
100.605816
  0
LINE
  8
0
 62
7
  6
CONTINUOUS
 10
-99.876771
 20
100.605816
 11
-99.999297
 21
100.003985
  0
LINE
  8
0
 62
7
  6
CONTINUOUS
 10
-93.756531
 20
107.720215
 11
-94.426728
 21
107.716018
  0
LINE
  8
0
 62
7
  6
CONTINUOUS
 10
-94.426728
 20
107.716018
 11
-95.081552
 21
107.569818
  0
LINE
  8
0
 62
7
  6
CONTINUOUS
 10
-95.081552
 20
107.569818
 11
-95.698879
 21
107.306569
  0
LINE
  8
0
 62
7
  6
CONTINUOUS
 10
-95.698879
 20
107.306569
 11
-96.269126
 21
106.952971
  0
LINE
  8
0
 62
7
  6
CONTINUOUS
 10
-96.269126
 20
106.952971
 11
-96.791344
 21
106.530410
  0
LINE
  8
0
 62
7
  6
CONTINUOUS
 10
-96.791344
 20
106.530410
 11
-97.266425
 21
106.055997
  0
LINE
  8
0
 62
7
  6
CONTINUOUS
 10
-97.266425
 20
106.055997
 11
-97.698067
 21
105.540919
  0
LINE
  8
0
 62
7
  6
CONTINUOUS
 10
-97.698067
 20
105.540919
 11
-98.089053
 21
104.994064
  0
LINE
  8
0
 62
7
  6
CONTINUOUS
 10
-98.089053
 20
104.994064
 11
-98.442016
 21
104.422028
  0
LINE
  8
0
 62
7
  6
CONTINUOUS
 10
-98.442016
 20
104.422028
 11
-98.759150
 21
103.830021
  0
LINE
  8
0
 62
7
  6
CONTINUOUS
 10
-98.759150
 20
103.830021
 11
-99.043000
 21
103.220562
  0
LINE
  8
0
 62
7
  6
CONTINUOUS
 10
-99.043000
 20
103.220562
 11
-99.294763
 21
102.597117
  0
LINE
  8
0
 62
7
  6
CONTINUOUS
 10
-99.294763
 20
102.597117
 11
-99.515605
 21
101.961992
  0
LINE
  8
0
 62
7
  6
CONTINUOUS
 10
-99.515605
 20
101.961992
 11
-99.706336
 21
101.317136
  0
LINE
  8
0
 62
7
  6
CONTINUOUS
 10
-99.706336
 20
101.317136
 11
-99.867447
 21
100.664255
  0
LINE
  8
0
 62
7
  6
CONTINUOUS
 10
-99.867447
 20
100.664255
 11
-99.999148
 21
100.004829
  0
LINE
  8
0
 62
7
  6
CONTINUOUS
 10
-287.249515
 20
91.189750
 11
-285.938978
 21
92.478357
  0
LINE
  8
0
 62
7
  6
CONTINUOUS
 10
-285.938978
 20
92.478357
 11
-287.713393
 21
93.455169
  0
LINE
  8
0
 62
7
  6
CONTINUOUS
 10
-287.713393
 20
93.455169
 11
-289.720613
 21
93.927400
  0
LINE
  8
0
 62
7
  6
CONTINUOUS
 10
-289.720613
 20
93.927400
 11
-291.760595
 21
94.237413
  0
LINE
  8
0
 62
7
  6
CONTINUOUS
 10
-291.760595
 20
94.237413
 11
-293.812297
 21
94.450069
  0
LINE
  8
0
 62
7
  6
CONTINUOUS
 10
-293.812297
 20
94.450069
 11
-295.871115
 21
94.590812
  0
LINE
  8
0
 62
7
  6
CONTINUOUS
 10
-295.871115
 20
94.590812
 11
-297.933503
 21
94.671549
  0
LINE
  8
0
 62
7
  6
CONTINUOUS
 10
-297.933503
 20
94.671549
 11
-299.997145
 21
94.697940
  0
LINE
  8
0
 62
7
  6
CONTINUOUS
 10
-299.997145
 20
94.697940
 11
-302.060650
 21
94.671699
  0
LINE
  8
0
 62
7
  6
CONTINUOUS
 10
-302.060650
 20
94.671699
 11
-304.123373
 21
94.591104
  0
LINE
  8
0
 62
7
  6
CONTINUOUS
 10
-304.123373
 20
94.591104
 11
-306.182709
 21
94.450491
  0
LINE
  8
0
 62
7
  6
CONTINUOUS
 10
-306.182709
 20
94.450491
 11
-308.235499
 21
94.237900
  0
LINE
  8
0
 62
7
  6
CONTINUOUS
 10
-308.235499
 20
94.237900
 11
-310.276351
 21
93.927959
  0
LINE
  8
0
 62
7
  6
CONTINUOUS
 10
-310.276351
 20
93.927959
 11
-312.285042
 21
93.455648
  0
LINE
  8
0
 62
7
  6
CONTINUOUS
 10
-312.285042
 20
93.455648
 11
-314.060853
 21
92.478664
  0
LINE
  8
0
 62
7
  6
CONTINUOUS
 10
-314.060853
 20
92.478664
 11
-312.750510
 21
91.189759
  0
LINE
  8
0
 62
7
  6
CONTINUOUS
 10
-287.250000
 20
92.245166
 11
-288.505505
 21
93.203209
  0
LINE
  8
0
 62
7
  6
CONTINUOUS
 10
-288.505505
 20
93.203209
 11
-290.102635
 21
93.640894
  0
LINE
  8
0
 62
7
  6
CONTINUOUS
 10
-290.102635
 20
93.640894
 11
-291.734021
 21
93.930855
  0
LINE
  8
0
 62
7
  6
CONTINUOUS
 10
-291.734021
 20
93.930855
 11
-293.378470
 21
94.137190
  0
LINE
  8
0
 62
7
  6
CONTINUOUS
 10
-293.378470
 20
94.137190
 11
-295.029566
 21
94.284007
  0
LINE
  8
0
 62
7
  6
CONTINUOUS
 10
-295.029566
 20
94.284007
 11
-296.684168
 21
94.382989
  0
LINE
  8
0
 62
7
  6
CONTINUOUS
 10
-296.684168
 20
94.382989
 11
-298.341039
 21
94.440349
  0
LINE
  8
0
 62
7
  6
CONTINUOUS
 10
-298.341039
 20
94.440349
 11
-300.000000
 21
94.459170
  0
LINE
  8
0
 62
7
  6
CONTINUOUS
 10
-300.000000
 20
94.459170
 11
-301.657486
 21
94.440383
  0
LINE
  8
0
 62
7
  6
CONTINUOUS
 10
-301.657486
 20
94.440383
 11
-303.314139
 21
94.383068
  0
LINE
  8
0
 62
7
  6
CONTINUOUS
 10
-303.314139
 20
94.383068
 11
-304.968930
 21
94.284117
  0
LINE
  8
0
 62
7
  6
CONTINUOUS
 10
-304.968930
 20
94.284117
 11
-306.620909
 21
94.137255
  0
LINE
  8
0
 62
7
  6
CONTINUOUS
 10
-306.620909
 20
94.137255
 11
-308.265742
 21
93.930890
  0
LINE
  8
0
 62
7
  6
CONTINUOUS
 10
-308.265742
 20
93.930890
 11
-309.898422
 21
93.640668
  0
LINE
  8
0
 62
7
  6
CONTINUOUS
 10
-309.898422
 20
93.640668
 11
-311.496759
 21
93.202390
  0
LINE
  8
0
 62
7
  6
CONTINUOUS
 10
-311.496759
 20
93.202390
 11
-312.749995
 21
92.243272
  0
LINE
  8
0
 62
7
  6
CONTINUOUS
 10
-292.233817
 20
108.668274
 11
-293.142629
 21
109.094207
  0
LINE
  8
0
 62
7
  6
CONTINUOUS
 10
-293.142629
 20
109.094207
 11
-294.078649
 21
109.454468
  0
LINE
  8
0
 62
7
  6
CONTINUOUS
 10
-294.078649
 20
109.454468
 11
-295.036989
 21
109.753539
  0
LINE
  8
0
 62
7
  6
CONTINUOUS
 10
-295.036989
 20
109.753539
 11
-296.011707
 21
109.994227
  0
LINE
  8
0
 62
7
  6
CONTINUOUS
 10
-296.011707
 20
109.994227
 11
-296.998663
 21
110.179014
  0
LINE
  8
0
 62
7
  6
CONTINUOUS
 10
-296.998663
 20
110.179014
 11
-297.994304
 21
110.309741
  0
LINE
  8
0
 62
7
  6
CONTINUOUS
 10
-297.994304
 20
110.309741
 11
-298.995453
 21
110.387686
  0
LINE
  8
0
 62
7
  6
CONTINUOUS
 10
-298.995453
 20
110.387686
 11
-300.000000
 21
110.413608
  0
LINE
  8
0
 62
7
  6
CONTINUOUS
 10
-300.000000
 20
110.413608
 11
-301.003692
 21
110.387730
  0
LINE
  8
0
 62
7
  6
CONTINUOUS
 10
-301.003692
 20
110.387730
 11
-302.004690
 21
110.309846
  0
LINE
  8
0
 62
7
  6
CONTINUOUS
 10
-302.004690
 20
110.309846
 11
-303.000172
 21
110.179199
  0
LINE
  8
0
 62
7
  6
CONTINUOUS
 10
-303.000172
 20
110.179199
 11
-303.986571
 21
109.994600
  0
LINE
  8
0
 62
7
  6
CONTINUOUS
 10
-303.986571
 20
109.994600
 11
-304.961687
 21
109.753907
  0
LINE
  8
0
 62
7
  6
CONTINUOUS
 10
-304.961687
 20
109.753907
 11
-305.920112
 21
109.454898
  0
LINE
  8
0
 62
7
  6
CONTINUOUS
 10
-305.920112
 20
109.454898
 11
-306.857101
 21
109.094321
  0
LINE
  8
0
 62
7
  6
CONTINUOUS
 10
-306.857101
 20
109.094321
 11
-307.766178
 21
108.668276
  0
LINE
  8
0
 62
7
  6
CONTINUOUS
 10
-294.949989
 20
87.074924
 11
-296.079962
 21
87.627765
  0
LINE
  8
0
 62
7
  6
CONTINUOUS
 10
-296.079962
 20
87.627765
 11
-297.377430
 21
87.824324
  0
LINE
  8
0
 62
7
  6
CONTINUOUS
 10
-297.377430
 20
87.824324
 11
-298.686139
 21
87.921648
  0
LINE
  8
0
 62
7
  6
CONTINUOUS
 10
-298.686139
 20
87.921648
 11
-300.000000
 21
87.951846
  0
LINE
  8
0
 62
7
  6
CONTINUOUS
 10
-300.000000
 20
87.951846
 11
-301.312701
 21
87.921702
  0
LINE
  8
0
 62
7
  6
CONTINUOUS
 10
-301.312701
 20
87.921702
 11
-302.622120
 21
87.824372
  0
LINE
  8
0
 62
7
  6
CONTINUOUS
 10
-302.622120
 20
87.824372
 11
-303.920251
 21
87.627720
  0
LINE
  8
0
 62
7
  6
CONTINUOUS
 10
-303.920251
 20
87.627720
 11
-305.050011
 21
87.074924
  0
LINE
  8
0
 62
7
  6
CONTINUOUS
 10
-305.050011
 20
87.074924
 11
-303.920038
 21
86.522082
  0
LINE
  8
0
 62
7
  6
CONTINUOUS
 10
-303.920038
 20
86.522082
 11
-302.622570
 21
86.325523
  0
LINE
  8
0
 62
7
  6
CONTINUOUS
 10
-302.622570
 20
86.325523
 11
-301.313861
 21
86.228200
  0
LINE
  8
0
 62
7
  6
CONTINUOUS
 10
-301.313861
 20
86.228200
 11
-300.000000
 21
86.198001
  0
LINE
  8
0
 62
7
  6
CONTINUOUS
 10
-300.000000
 20
86.198001
 11
-298.687299
 21
86.228145
  0
LINE
  8
0
 62
7
  6
CONTINUOUS
 10
-298.687299
 20
86.228145
 11
-297.377880
 21
86.325475
  0
LINE
  8
0
 62
7
  6
CONTINUOUS
 10
-297.377880
 20
86.325475
 11
-296.079749
 21
86.522127
  0
LINE
  8
0
 62
7
  6
CONTINUOUS
 10
-296.079749
 20
86.522127
 11
-294.949989
 21
87.074924
  0
LINE
  8
0
 62
7
  6
CONTINUOUS
 10
-310.812887
 20
90.417446
 11
-310.850226
 21
90.414790
  0
LINE
  8
0
 62
7
  6
CONTINUOUS
 10
-310.850226
 20
90.414790
 11
-310.887590
 21
90.411772
  0
LINE
  8
0
 62
7
  6
CONTINUOUS
 10
-310.887590
 20
90.411772
 11
-310.924982
 21
90.408367
  0
LINE
  8
0
 62
7
  6
CONTINUOUS
 10
-310.924982
 20
90.408367
 11
-310.962402
 21
90.404542
  0
LINE
  8
0
 62
7
  6
CONTINUOUS
 10
-310.962402
 20
90.404542
 11
-310.999852
 21
90.400259
  0
LINE
  8
0
 62
7
  6
CONTINUOUS
 10
-310.999852
 20
90.400259
 11
-311.037333
 21
90.395467
  0
LINE
  8
0
 62
7
  6
CONTINUOUS
 10
-311.037333
 20
90.395467
 11
-311.074844
 21
90.390101
  0
LINE
  8
0
 62
7
  6
CONTINUOUS
 10
-311.074844
 20
90.390101
 11
-311.112381
 21
90.384077
  0
LINE
  8
0
 62
7
  6
CONTINUOUS
 10
-311.112381
 20
90.384077
 11
-311.149936
 21
90.377278
  0
LINE
  8
0
 62
7
  6
CONTINUOUS
 10
-311.149936
 20
90.377278
 11
-311.186520
 21
90.369754
  0
LINE
  8
0
 62
7
  6
CONTINUOUS
 10
-311.186520
 20
90.369754
 11
-311.222886
 21
90.361158
  0
LINE
  8
0
 62
7
  6
CONTINUOUS
 10
-311.222886
 20
90.361158
 11
-311.258927
 21
90.351170
  0
LINE
  8
0
 62
7
  6
CONTINUOUS
 10
-311.258927
 20
90.351170
 11
-311.294422
 21
90.339236
  0
LINE
  8
0
 62
7
  6
CONTINUOUS
 10
-311.294422
 20
90.339236
 11
-311.328825
 21
90.324253
  0
LINE
  8
0
 62
7
  6
CONTINUOUS
 10
-311.328825
 20
90.324253
 11
-311.360067
 21
90.303498
  0
LINE
  8
0
 62
7
  6
CONTINUOUS
 10
-311.360067
 20
90.303498
 11
-311.374732
 21
90.271789
  0
LINE
  8
0
 62
7
  6
CONTINUOUS
 10
-308.474783
 20
89.172169
 11
-308.502024
 21
89.168985
  0
LINE
  8
0
 62
7
  6
CONTINUOUS
 10
-308.502024
 20
89.168985
 11
-308.529269
 21
89.165533
  0
LINE
  8
0
 62
7
  6
CONTINUOUS
 10
-308.529269
 20
89.165533
 11
-308.556516
 21
89.161789
  0
LINE
  8
0
 62
7
  6
CONTINUOUS
 10
-308.556516
 20
89.161789
 11
-308.583764
 21
89.157723
  0
LINE
  8
0
 62
7
  6
CONTINUOUS
 10
-308.583764
 20
89.157723
 11
-308.611008
 21
89.153300
  0
LINE
  8
0
 62
7
  6
CONTINUOUS
 10
-308.611008
 20
89.153300
 11
-308.638243
 21
89.148477
  0
LINE
  8
0
 62
7
  6
CONTINUOUS
 10
-308.638243
 20
89.148477
 11
-308.665462
 21
89.143195
  0
LINE
  8
0
 62
7
  6
CONTINUOUS
 10
-308.665462
 20
89.143195
 11
-308.692652
 21
89.137380
  0
LINE
  8
0
 62
7
  6
CONTINUOUS
 10
-308.692652
 20
89.137380
 11
-308.719789
 21
89.130932
  0
LINE
  8
0
 62
7
  6
CONTINUOUS
 10
-308.719789
 20
89.130932
 11
-308.746838
 21
89.123707
  0
LINE
  8
0
 62
7
  6
CONTINUOUS
 10
-308.746838
 20
89.123707
 11
-308.773726
 21
89.115494
  0
LINE
  8
0
 62
7
  6
CONTINUOUS
 10
-308.773726
 20
89.115494
 11
-308.799413
 21
89.106314
  0
LINE
  8
0
 62
7
  6
CONTINUOUS
 10
-308.799413
 20
89.106314
 11
-308.824456
 21
89.095431
  0
LINE
  8
0
 62
7
  6
CONTINUOUS
 10
-308.824456
 20
89.095431
 11
-308.848182
 21
89.081867
  0
LINE
  8
0
 62
7
  6
CONTINUOUS
 10
-308.848182
 20
89.081867
 11
-308.868533
 21
89.062979
  0
LINE
  8
0
 62
7
  6
CONTINUOUS
 10
-308.868533
 20
89.062979
 11
-308.874211
 21
89.038074
  0
LINE
  8
0
 62
7
  6
CONTINUOUS
 10
-308.000003
 20
87.726703
 11
-307.870655
 21
87.729659
  0
LINE
  8
0
 62
7
  6
CONTINUOUS
 10
-307.870655
 20
87.729659
 11
-307.740856
 21
87.739276
  0
LINE
  8
0
 62
7
  6
CONTINUOUS
 10
-307.740856
 20
87.739276
 11
-307.612115
 21
87.758744
  0
LINE
  8
0
 62
7
  6
CONTINUOUS
 10
-307.612115
 20
87.758744
 11
-307.500003
 21
87.813533
  0
LINE
  8
0
 62
7
  6
CONTINUOUS
 10
-307.500003
 20
87.813533
 11
-307.611458
 21
87.868178
  0
LINE
  8
0
 62
7
  6
CONTINUOUS
 10
-307.611458
 20
87.868178
 11
-307.739263
 21
87.887616
  0
LINE
  8
0
 62
7
  6
CONTINUOUS
 10
-307.739263
 20
87.887616
 11
-307.868787
 21
87.897312
  0
LINE
  8
0
 62
7
  6
CONTINUOUS
 10
-307.868787
 20
87.897312
 11
-308.000003
 21
87.900355
  0
LINE
  8
0
 62
7
  6
CONTINUOUS
 10
-308.000003
 20
87.900355
 11
-308.129350
 21
87.897400
  0
LINE
  8
0
 62
7
  6
CONTINUOUS
 10
-308.129350
 20
87.897400
 11
-308.259150
 21
87.887784
  0
LINE
  8
0
 62
7
  6
CONTINUOUS
 10
-308.259150
 20
87.887784
 11
-308.387892
 21
87.868319
  0
LINE
  8
0
 62
7
  6
CONTINUOUS
 10
-308.387892
 20
87.868319
 11
-308.500003
 21
87.813533
  0
LINE
  8
0
 62
7
  6
CONTINUOUS
 10
-308.500003
 20
87.813533
 11
-308.388550
 21
87.758885
  0
LINE
  8
0
 62
7
  6
CONTINUOUS
 10
-308.388550
 20
87.758885
 11
-308.260744
 21
87.739445
  0
LINE
  8
0
 62
7
  6
CONTINUOUS
 10
-308.260744
 20
87.739445
 11
-308.131221
 21
87.729746
  0
LINE
  8
0
 62
7
  6
CONTINUOUS
 10
-308.131221
 20
87.729746
 11
-308.000003
 21
87.726703
  0
LINE
  8
0
 62
7
  6
CONTINUOUS
 10
-302.968201
 20
91.972323
 11
-303.053483
 21
92.037753
  0
LINE
  8
0
 62
7
  6
CONTINUOUS
 10
-303.053483
 20
92.037753
 11
-303.162532
 21
92.067803
  0
LINE
  8
0
 62
7
  6
CONTINUOUS
 10
-303.162532
 20
92.067803
 11
-303.274231
 21
92.087760
  0
LINE
  8
0
 62
7
  6
CONTINUOUS
 10
-303.274231
 20
92.087760
 11
-303.386728
 21
92.101955
  0
LINE
  8
0
 62
7
  6
CONTINUOUS
 10
-303.386728
 20
92.101955
 11
-303.500032
 21
92.112096
  0
LINE
  8
0
 62
7
  6
CONTINUOUS
 10
-303.500032
 20
92.112096
 11
-303.613580
 21
92.118945
  0
LINE
  8
0
 62
7
  6
CONTINUOUS
 10
-303.613580
 20
92.118945
 11
-303.727285
 21
92.122931
  0
LINE
  8
0
 62
7
  6
CONTINUOUS
 10
-303.727285
 20
92.122931
 11
-303.841085
 21
92.124270
  0
LINE
  8
0
 62
7
  6
CONTINUOUS
 10
-303.841085
 20
92.124270
 11
-303.954100
 21
92.123045
  0
LINE
  8
0
 62
7
  6
CONTINUOUS
 10
-303.954100
 20
92.123045
 11
-304.067620
 21
92.119188
  0
LINE
  8
0
 62
7
  6
CONTINUOUS
 10
-304.067620
 20
92.119188
 11
-304.181958
 21
92.112421
  0
LINE
  8
0
 62
7
  6
CONTINUOUS
 10
-304.181958
 20
92.112421
 11
-304.295333
 21
92.102413
  0
LINE
  8
0
 62
7
  6
CONTINUOUS
 10
-304.295333
 20
92.102413
 11
-304.408426
 21
92.088313
  0
LINE
  8
0
 62
7
  6
CONTINUOUS
 10
-304.408426
 20
92.088313
 11
-304.521056
 21
92.068405
  0
LINE
  8
0
 62
7
  6
CONTINUOUS
 10
-304.521056
 20
92.068405
 11
-304.631052
 21
92.038429
  0
LINE
  8
0
 62
7
  6
CONTINUOUS
 10
-304.631052
 20
92.038429
 11
-304.718202
 21
91.972323
  0
LINE
  8
0
 62
7
  6
CONTINUOUS
 10
-303.843201
 20
90.654498
 11
-303.713854
 21
90.657454
  0
LINE
  8
0
 62
7
  6
CONTINUOUS
 10
-303.713854
 20
90.657454
 11
-303.584055
 21
90.667070
  0
LINE
  8
0
 62
7
  6
CONTINUOUS
 10
-303.584055
 20
90.667070
 11
-303.455313
 21
90.686535
  0
LINE
  8
0
 62
7
  6
CONTINUOUS
 10
-303.455313
 20
90.686535
 11
-303.343201
 21
90.741321
  0
LINE
  8
0
 62
7
  6
CONTINUOUS
 10
-303.343201
 20
90.741321
 11
-303.454656
 21
90.795966
  0
LINE
  8
0
 62
7
  6
CONTINUOUS
 10
-303.454656
 20
90.795966
 11
-303.582461
 21
90.815403
  0
LINE
  8
0
 62
7
  6
CONTINUOUS
 10
-303.582461
 20
90.815403
 11
-303.711985
 21
90.825100
  0
LINE
  8
0
 62
7
  6
CONTINUOUS
 10
-303.711985
 20
90.825100
 11
-303.843201
 21
90.828143
  0
LINE
  8
0
 62
7
  6
CONTINUOUS
 10
-303.843201
 20
90.828143
 11
-303.972549
 21
90.825188
  0
LINE
  8
0
 62
7
  6
CONTINUOUS
 10
-303.972549
 20
90.825188
 11
-304.102348
 21
90.815572
  0
LINE
  8
0
 62
7
  6
CONTINUOUS
 10
-304.102348
 20
90.815572
 11
-304.231090
 21
90.796107
  0
LINE
  8
0
 62
7
  6
CONTINUOUS
 10
-304.231090
 20
90.796107
 11
-304.343202
 21
90.741321
  0
LINE
  8
0
 62
7
  6
CONTINUOUS
 10
-304.343202
 20
90.741321
 11
-304.231747
 21
90.686675
  0
LINE
  8
0
 62
7
  6
CONTINUOUS
 10
-304.231747
 20
90.686675
 11
-304.103942
 21
90.667238
  0
LINE
  8
0
 62
7
  6
CONTINUOUS
 10
-304.103942
 20
90.667238
 11
-303.974418
 21
90.657541
  0
LINE
  8
0
 62
7
  6
CONTINUOUS
 10
-303.974418
 20
90.657541
 11
-303.843201
 21
90.654498
  0
LINE
  8
0
 62
7
  6
CONTINUOUS
 10
-305.671702
 20
91.701053
 11
-305.756984
 21
91.766482
  0
LINE
  8
0
 62
7
  6
CONTINUOUS
 10
-305.756984
 20
91.766482
 11
-305.866033
 21
91.796532
  0
LINE
  8
0
 62
7
  6
CONTINUOUS
 10
-305.866033
 20
91.796532
 11
-305.977732
 21
91.816489
  0
LINE
  8
0
 62
7
  6
CONTINUOUS
 10
-305.977732
 20
91.816489
 11
-306.090229
 21
91.830684
  0
LINE
  8
0
 62
7
  6
CONTINUOUS
 10
-306.090229
 20
91.830684
 11
-306.203533
 21
91.840826
  0
LINE
  8
0
 62
7
  6
CONTINUOUS
 10
-306.203533
 20
91.840826
 11
-306.317081
 21
91.847674
  0
LINE
  8
0
 62
7
  6
CONTINUOUS
 10
-306.317081
 20
91.847674
 11
-306.430786
 21
91.851660
  0
LINE
  8
0
 62
7
  6
CONTINUOUS
 10
-306.430786
 20
91.851660
 11
-306.544586
 21
91.852999
  0
LINE
  8
0
 62
7
  6
CONTINUOUS
 10
-306.544586
 20
91.852999
 11
-306.657601
 21
91.851774
  0
LINE
  8
0
 62
7
  6
CONTINUOUS
 10
-306.657601
 20
91.851774
 11
-306.771121
 21
91.847917
  0
LINE
  8
0
 62
7
  6
CONTINUOUS
 10
-306.771121
 20
91.847917
 11
-306.885458
 21
91.841150
  0
LINE
  8
0
 62
7
  6
CONTINUOUS
 10
-306.885458
 20
91.841150
 11
-306.998834
 21
91.831142
  0
LINE
  8
0
 62
7
  6
CONTINUOUS
 10
-306.998834
 20
91.831142
 11
-307.111927
 21
91.817042
  0
LINE
  8
0
 62
7
  6
CONTINUOUS
 10
-307.111927
 20
91.817042
 11
-307.224557
 21
91.797134
  0
LINE
  8
0
 62
7
  6
CONTINUOUS
 10
-307.224557
 20
91.797134
 11
-307.334553
 21
91.767158
  0
LINE
  8
0
 62
7
  6
CONTINUOUS
 10
-307.334553
 20
91.767158
 11
-307.421702
 21
91.701053
  0
LINE
  8
0
 62
7
  6
CONTINUOUS
 10
-306.546702
 20
90.383227
 11
-306.417355
 21
90.386183
  0
LINE
  8
0
 62
7
  6
CONTINUOUS
 10
-306.417355
 20
90.386183
 11
-306.287556
 21
90.395799
  0
LINE
  8
0
 62
7
  6
CONTINUOUS
 10
-306.287556
 20
90.395799
 11
-306.158814
 21
90.415264
  0
LINE
  8
0
 62
7
  6
CONTINUOUS
 10
-306.158814
 20
90.415264
 11
-306.046702
 21
90.470050
  0
LINE
  8
0
 62
7
  6
CONTINUOUS
 10
-306.046702
 20
90.470050
 11
-306.158157
 21
90.524695
  0
LINE
  8
0
 62
7
  6
CONTINUOUS
 10
-306.158157
 20
90.524695
 11
-306.285962
 21
90.544133
  0
LINE
  8
0
 62
7
  6
CONTINUOUS
 10
-306.285962
 20
90.544133
 11
-306.415486
 21
90.553829
  0
LINE
  8
0
 62
7
  6
CONTINUOUS
 10
-306.415486
 20
90.553829
 11
-306.546702
 21
90.556872
  0
LINE
  8
0
 62
7
  6
CONTINUOUS
 10
-306.546702
 20
90.556872
 11
-306.676050
 21
90.553917
  0
LINE
  8
0
 62
7
  6
CONTINUOUS
 10
-306.676050
 20
90.553917
 11
-306.805849
 21
90.544301
  0
LINE
  8
0
 62
7
  6
CONTINUOUS
 10
-306.805849
 20
90.544301
 11
-306.934591
 21
90.524836
  0
LINE
  8
0
 62
7
  6
CONTINUOUS
 10
-306.934591
 20
90.524836
 11
-307.046702
 21
90.470050
  0
LINE
  8
0
 62
7
  6
CONTINUOUS
 10
-307.046702
 20
90.470050
 11
-306.935248
 21
90.415405
  0
LINE
  8
0
 62
7
  6
CONTINUOUS
 10
-306.935248
 20
90.415405
 11
-306.807443
 21
90.395967
  0
LINE
  8
0
 62
7
  6
CONTINUOUS
 10
-306.807443
 20
90.395967
 11
-306.677919
 21
90.386270
  0
LINE
  8
0
 62
7
  6
CONTINUOUS
 10
-306.677919
 20
90.386270
 11
-306.546702
 21
90.383227
  0
LINE
  8
0
 62
7
  6
CONTINUOUS
 10
-307.800760
 20
91.302585
 11
-307.886042
 21
91.368014
  0
LINE
  8
0
 62
7
  6
CONTINUOUS
 10
-307.886042
 20
91.368014
 11
-307.995091
 21
91.398064
  0
LINE
  8
0
 62
7
  6
CONTINUOUS
 10
-307.995091
 20
91.398064
 11
-308.106790
 21
91.418021
  0
LINE
  8
0
 62
7
  6
CONTINUOUS
 10
-308.106790
 20
91.418021
 11
-308.219287
 21
91.432216
  0
LINE
  8
0
 62
7
  6
CONTINUOUS
 10
-308.219287
 20
91.432216
 11
-308.332591
 21
91.442358
  0
LINE
  8
0
 62
7
  6
CONTINUOUS
 10
-308.332591
 20
91.442358
 11
-308.446139
 21
91.449206
  0
LINE
  8
0
 62
7
  6
CONTINUOUS
 10
-308.446139
 20
91.449206
 11
-308.559843
 21
91.453192
  0
LINE
  8
0
 62
7
  6
CONTINUOUS
 10
-308.559843
 20
91.453192
 11
-308.673644
 21
91.454531
  0
LINE
  8
0
 62
7
  6
CONTINUOUS
 10
-308.673644
 20
91.454531
 11
-308.786659
 21
91.453306
  0
LINE
  8
0
 62
7
  6
CONTINUOUS
 10
-308.786659
 20
91.453306
 11
-308.900179
 21
91.449449
  0
LINE
  8
0
 62
7
  6
CONTINUOUS
 10
-308.900179
 20
91.449449
 11
-309.014516
 21
91.442682
  0
LINE
  8
0
 62
7
  6
CONTINUOUS
 10
-309.014516
 20
91.442682
 11
-309.127892
 21
91.432674
  0
LINE
  8
0
 62
7
  6
CONTINUOUS
 10
-309.127892
 20
91.432674
 11
-309.240984
 21
91.418574
  0
LINE
  8
0
 62
7
  6
CONTINUOUS
 10
-309.240984
 20
91.418574
 11
-309.353615
 21
91.398666
  0
LINE
  8
0
 62
7
  6
CONTINUOUS
 10
-309.353615
 20
91.398666
 11
-309.463610
 21
91.368690
  0
LINE
  8
0
 62
7
  6
CONTINUOUS
 10
-309.463610
 20
91.368690
 11
-309.550760
 21
91.302585
  0
LINE
  8
0
 62
7
  6
CONTINUOUS
 10
-308.675760
 20
89.984759
 11
-308.546413
 21
89.987715
  0
LINE
  8
0
 62
7
  6
CONTINUOUS
 10
-308.546413
 20
89.987715
 11
-308.416614
 21
89.997331
  0
LINE
  8
0
 62
7
  6
CONTINUOUS
 10
-308.416614
 20
89.997331
 11
-308.287872
 21
90.016796
  0
LINE
  8
0
 62
7
  6
CONTINUOUS
 10
-308.287872
 20
90.016796
 11
-308.175760
 21
90.071582
  0
LINE
  8
0
 62
7
  6
CONTINUOUS
 10
-308.175760
 20
90.071582
 11
-308.287215
 21
90.126227
  0
LINE
  8
0
 62
7
  6
CONTINUOUS
 10
-308.287215
 20
90.126227
 11
-308.415020
 21
90.145665
  0
LINE
  8
0
 62
7
  6
CONTINUOUS
 10
-308.415020
 20
90.145665
 11
-308.544544
 21
90.155361
  0
LINE
  8
0
 62
7
  6
CONTINUOUS
 10
-308.544544
 20
90.155361
 11
-308.675760
 21
90.158404
  0
LINE
  8
0
 62
7
  6
CONTINUOUS
 10
-308.675760
 20
90.158404
 11
-308.805108
 21
90.155449
  0
LINE
  8
0
 62
7
  6
CONTINUOUS
 10
-308.805108
 20
90.155449
 11
-308.934907
 21
90.145833
  0
LINE
  8
0
 62
7
  6
CONTINUOUS
 10
-308.934907
 20
90.145833
 11
-309.063649
 21
90.126368
  0
LINE
  8
0
 62
7
  6
CONTINUOUS
 10
-309.063649
 20
90.126368
 11
-309.175760
 21
90.071582
  0
LINE
  8
0
 62
7
  6
CONTINUOUS
 10
-309.175760
 20
90.071582
 11
-309.064306
 21
90.016936
  0
LINE
  8
0
 62
7
  6
CONTINUOUS
 10
-309.064306
 20
90.016936
 11
-308.936500
 21
89.997499
  0
LINE
  8
0
 62
7
  6
CONTINUOUS
 10
-308.936500
 20
89.997499
 11
-308.806977
 21
89.987802
  0
LINE
  8
0
 62
7
  6
CONTINUOUS
 10
-308.806977
 20
89.987802
 11
-308.675760
 21
89.984759
  0
LINE
  8
0
 62
7
  6
CONTINUOUS
 10
-309.467263
 20
90.929339
 11
-309.558458
 21
90.941076
  0
LINE
  8
0
 62
7
  6
CONTINUOUS
 10
-309.558458
 20
90.941076
 11
-309.650321
 21
90.950053
  0
LINE
  8
0
 62
7
  6
CONTINUOUS
 10
-309.650321
 20
90.950053
 11
-309.742514
 21
90.956732
  0
LINE
  8
0
 62
7
  6
CONTINUOUS
 10
-309.742514
 20
90.956732
 11
-309.834731
 21
90.961392
  0
LINE
  8
0
 62
7
  6
CONTINUOUS
 10
-309.834731
 20
90.961392
 11
-309.927035
 21
90.964222
  0
LINE
  8
0
 62
7
  6
CONTINUOUS
 10
-309.927035
 20
90.964222
 11
-310.019605
 21
90.965318
  0
LINE
  8
0
 62
7
  6
CONTINUOUS
 10
-310.019605
 20
90.965318
 11
-310.111512
 21
90.964718
  0
LINE
  8
0
 62
7
  6
CONTINUOUS
 10
-310.111512
 20
90.964718
 11
-310.203499
 21
90.962415
  0
LINE
  8
0
 62
7
  6
CONTINUOUS
 10
-310.203499
 20
90.962415
 11
-310.295833
 21
90.958306
  0
LINE
  8
0
 62
7
  6
CONTINUOUS
 10
-310.295833
 20
90.958306
 11
-310.388640
 21
90.952201
  0
LINE
  8
0
 62
7
  6
CONTINUOUS
 10
-310.388640
 20
90.952201
 11
-310.480635
 21
90.943923
  0
LINE
  8
0
 62
7
  6
CONTINUOUS
 10
-310.480635
 20
90.943923
 11
-310.572416
 21
90.932998
  0
LINE
  8
0
 62
7
  6
CONTINUOUS
 10
-310.572416
 20
90.932998
 11
-310.663868
 21
90.918640
  0
LINE
  8
0
 62
7
  6
CONTINUOUS
 10
-310.663868
 20
90.918640
 11
-310.754728
 21
90.899241
  0
LINE
  8
0
 62
7
  6
CONTINUOUS
 10
-310.754728
 20
90.899241
 11
-310.842789
 21
90.870855
  0
LINE
  8
0
 62
7
  6
CONTINUOUS
 10
-310.842789
 20
90.870855
 11
-310.907769
 21
90.813396
  0
LINE
  8
0
 62
7
  6
CONTINUOUS
 10
-310.032769
 20
89.495563
 11
-309.903422
 21
89.498518
  0
LINE
  8
0
 62
7
  6
CONTINUOUS
 10
-309.903422
 20
89.498518
 11
-309.773622
 21
89.508134
  0
LINE
  8
0
 62
7
  6
CONTINUOUS
 10
-309.773622
 20
89.508134
 11
-309.644880
 21
89.527599
  0
LINE
  8
0
 62
7
  6
CONTINUOUS
 10
-309.644880
 20
89.527599
 11
-309.532769
 21
89.582385
  0
LINE
  8
0
 62
7
  6
CONTINUOUS
 10
-309.532769
 20
89.582385
 11
-309.644222
 21
89.637033
  0
LINE
  8
0
 62
7
  6
CONTINUOUS
 10
-309.644222
 20
89.637033
 11
-309.772028
 21
89.656473
  0
LINE
  8
0
 62
7
  6
CONTINUOUS
 10
-309.772028
 20
89.656473
 11
-309.901551
 21
89.666172
  0
LINE
  8
0
 62
7
  6
CONTINUOUS
 10
-309.901551
 20
89.666172
 11
-310.032769
 21
89.669215
  0
LINE
  8
0
 62
7
  6
CONTINUOUS
 10
-310.032769
 20
89.669215
 11
-310.162117
 21
89.666259
  0
LINE
  8
0
 62
7
  6
CONTINUOUS
 10
-310.162117
 20
89.666259
 11
-310.291916
 21
89.656642
  0
LINE
  8
0
 62
7
  6
CONTINUOUS
 10
-310.291916
 20
89.656642
 11
-310.420658
 21
89.637174
  0
LINE
  8
0
 62
7
  6
CONTINUOUS
 10
-310.420658
 20
89.637174
 11
-310.532769
 21
89.582385
  0
LINE
  8
0
 62
7
  6
CONTINUOUS
 10
-310.532769
 20
89.582385
 11
-310.421315
 21
89.527740
  0
LINE
  8
0
 62
7
  6
CONTINUOUS
 10
-310.421315
 20
89.527740
 11
-310.293509
 21
89.508302
  0
LINE
  8
0
 62
7
  6
CONTINUOUS
 10
-310.293509
 20
89.508302
 11
-310.163985
 21
89.498606
  0
LINE
  8
0
 62
7
  6
CONTINUOUS
 10
-310.163985
 20
89.498606
 11
-310.032769
 21
89.495563
  0
LINE
  8
0
 62
7
  6
CONTINUOUS
 10
-310.500000
 20
88.957713
 11
-310.370652
 21
88.960669
  0
LINE
  8
0
 62
7
  6
CONTINUOUS
 10
-310.370652
 20
88.960669
 11
-310.240853
 21
88.970287
  0
LINE
  8
0
 62
7
  6
CONTINUOUS
 10
-310.240853
 20
88.970287
 11
-310.112112
 21
88.989754
  0
LINE
  8
0
 62
7
  6
CONTINUOUS
 10
-310.112112
 20
88.989754
 11
-310.000000
 21
89.044543
  0
LINE
  8
0
 62
7
  6
CONTINUOUS
 10
-310.000000
 20
89.044543
 11
-310.111454
 21
89.099189
  0
LINE
  8
0
 62
7
  6
CONTINUOUS
 10
-310.111454
 20
89.099189
 11
-310.239260
 21
89.118626
  0
LINE
  8
0
 62
7
  6
CONTINUOUS
 10
-310.239260
 20
89.118626
 11
-310.368784
 21
89.128323
  0
LINE
  8
0
 62
7
  6
CONTINUOUS
 10
-310.368784
 20
89.128323
 11
-310.500000
 21
89.131366
  0
LINE
  8
0
 62
7
  6
CONTINUOUS
 10
-310.500000
 20
89.131366
 11
-310.629348
 21
89.128410
  0
LINE
  8
0
 62
7
  6
CONTINUOUS
 10
-310.629348
 20
89.128410
 11
-310.759147
 21
89.118794
  0
LINE
  8
0
 62
7
  6
CONTINUOUS
 10
-310.759147
 20
89.118794
 11
-310.887889
 21
89.099329
  0
LINE
  8
0
 62
7
  6
CONTINUOUS
 10
-310.887889
 20
89.099329
 11
-311.000000
 21
89.044543
  0
LINE
  8
0
 62
7
  6
CONTINUOUS
 10
-311.000000
 20
89.044543
 11
-310.888547
 21
88.989895
  0
LINE
  8
0
 62
7
  6
CONTINUOUS
 10
-310.888547
 20
88.989895
 11
-310.760741
 21
88.970455
  0
LINE
  8
0
 62
7
  6
CONTINUOUS
 10
-310.760741
 20
88.970455
 11
-310.631218
 21
88.960757
  0
LINE
  8
0
 62
7
  6
CONTINUOUS
 10
-310.631218
 20
88.960757
 11
-310.500000
 21
88.957713
  0
LINE
  8
0
 62
7
  6
CONTINUOUS
 10
-310.032766
 20
88.419864
 11
-309.903419
 21
88.422819
  0
LINE
  8
0
 62
7
  6
CONTINUOUS
 10
-309.903419
 20
88.422819
 11
-309.773619
 21
88.432435
  0
LINE
  8
0
 62
7
  6
CONTINUOUS
 10
-309.773619
 20
88.432435
 11
-309.644877
 21
88.451900
  0
LINE
  8
0
 62
7
  6
CONTINUOUS
 10
-309.644877
 20
88.451900
 11
-309.532766
 21
88.506686
  0
LINE
  8
0
 62
7
  6
CONTINUOUS
 10
-309.532766
 20
88.506686
 11
-309.644220
 21
88.561334
  0
LINE
  8
0
 62
7
  6
CONTINUOUS
 10
-309.644220
 20
88.561334
 11
-309.772025
 21
88.580774
  0
LINE
  8
0
 62
7
  6
CONTINUOUS
 10
-309.772025
 20
88.580774
 11
-309.901549
 21
88.590473
  0
LINE
  8
0
 62
7
  6
CONTINUOUS
 10
-309.901549
 20
88.590473
 11
-310.032766
 21
88.593516
  0
LINE
  8
0
 62
7
  6
CONTINUOUS
 10
-310.032766
 20
88.593516
 11
-310.162114
 21
88.590560
  0
LINE
  8
0
 62
7
  6
CONTINUOUS
 10
-310.162114
 20
88.590560
 11
-310.291913
 21
88.580943
  0
LINE
  8
0
 62
7
  6
CONTINUOUS
 10
-310.291913
 20
88.580943
 11
-310.420655
 21
88.561475
  0
LINE
  8
0
 62
7
  6
CONTINUOUS
 10
-310.420655
 20
88.561475
 11
-310.532766
 21
88.506686
  0
LINE
  8
0
 62
7
  6
CONTINUOUS
 10
-310.532766
 20
88.506686
 11
-310.421312
 21
88.452041
  0
LINE
  8
0
 62
7
  6
CONTINUOUS
 10
-310.421312
 20
88.452041
 11
-310.293506
 21
88.432604
  0
LINE
  8
0
 62
7
  6
CONTINUOUS
 10
-310.293506
 20
88.432604
 11
-310.163982
 21
88.422907
  0
LINE
  8
0
 62
7
  6
CONTINUOUS
 10
-310.163982
 20
88.422907
 11
-310.032766
 21
88.419864
  0
LINE
  8
0
 62
7
  6
CONTINUOUS
 10
-308.510853
 20
88.099456
 11
-308.597081
 21
88.103232
  0
LINE
  8
0
 62
7
  6
CONTINUOUS
 10
-308.597081
 20
88.103232
 11
-308.683368
 21
88.104302
  0
LINE
  8
0
 62
7
  6
CONTINUOUS
 10
-308.683368
 20
88.104302
 11
-308.769103
 21
88.102784
  0
LINE
  8
0
 62
7
  6
CONTINUOUS
 10
-308.769103
 20
88.102784
 11
-308.855770
 21
88.098486
  0
LINE
  8
0
 62
7
  6
CONTINUOUS
 10
-308.855770
 20
88.098486
 11
-308.941823
 21
88.090991
  0
LINE
  8
0
 62
7
  6
CONTINUOUS
 10
-308.941823
 20
88.090991
 11
-309.027696
 21
88.079149
  0
LINE
  8
0
 62
7
  6
CONTINUOUS
 10
-309.027696
 20
88.079149
 11
-309.112045
 21
88.059880
  0
LINE
  8
0
 62
7
  6
CONTINUOUS
 10
-309.112045
 20
88.059880
 11
-309.174836
 21
88.012356
  0
LINE
  8
0
 62
7
  6
CONTINUOUS
 10
-309.174836
 20
88.012356
 11
-309.101582
 21
87.971991
  0
LINE
  8
0
 62
7
  6
CONTINUOUS
 10
-309.101582
 20
87.971991
 11
-309.017645
 21
87.954136
  0
LINE
  8
0
 62
7
  6
CONTINUOUS
 10
-309.017645
 20
87.954136
 11
-308.932359
 21
87.942970
  0
LINE
  8
0
 62
7
  6
CONTINUOUS
 10
-308.932359
 20
87.942970
 11
-308.847059
 21
87.935917
  0
LINE
  8
0
 62
7
  6
CONTINUOUS
 10
-308.847059
 20
87.935917
 11
-308.760844
 21
87.931927
  0
LINE
  8
0
 62
7
  6
CONTINUOUS
 10
-308.760844
 20
87.931927
 11
-308.675708
 21
87.930659
  0
LINE
  8
0
 62
7
  6
CONTINUOUS
 10
-308.675708
 20
87.930659
 11
-308.590032
 21
87.931943
  0
LINE
  8
0
 62
7
  6
CONTINUOUS
 10
-308.590032
 20
87.931943
 11
-308.503470
 21
87.935973
  0
LINE
  8
0
 62
7
  6
CONTINUOUS
 10
-297.031799
 20
91.972323
 11
-296.946517
 21
92.037753
  0
LINE
  8
0
 62
7
  6
CONTINUOUS
 10
-296.946517
 20
92.037753
 11
-296.837468
 21
92.067803
  0
LINE
  8
0
 62
7
  6
CONTINUOUS
 10
-296.837468
 20
92.067803
 11
-296.725769
 21
92.087760
  0
LINE
  8
0
 62
7
  6
CONTINUOUS
 10
-296.725769
 20
92.087760
 11
-296.613272
 21
92.101955
  0
LINE
  8
0
 62
7
  6
CONTINUOUS
 10
-296.613272
 20
92.101955
 11
-296.499968
 21
92.112096
  0
LINE
  8
0
 62
7
  6
CONTINUOUS
 10
-296.499968
 20
92.112096
 11
-296.386420
 21
92.118945
  0
LINE
  8
0
 62
7
  6
CONTINUOUS
 10
-296.386420
 20
92.118945
 11
-296.272715
 21
92.122931
  0
LINE
  8
0
 62
7
  6
CONTINUOUS
 10
-296.272715
 20
92.122931
 11
-296.158915
 21
92.124270
  0
LINE
  8
0
 62
7
  6
CONTINUOUS
 10
-296.158915
 20
92.124270
 11
-296.045900
 21
92.123045
  0
LINE
  8
0
 62
7
  6
CONTINUOUS
 10
-296.045900
 20
92.123045
 11
-295.932380
 21
92.119188
  0
LINE
  8
0
 62
7
  6
CONTINUOUS
 10
-295.932380
 20
92.119188
 11
-295.818042
 21
92.112421
  0
LINE
  8
0
 62
7
  6
CONTINUOUS
 10
-295.818042
 20
92.112421
 11
-295.704667
 21
92.102413
  0
LINE
  8
0
 62
7
  6
CONTINUOUS
 10
-295.704667
 20
92.102413
 11
-295.591574
 21
92.088313
  0
LINE
  8
0
 62
7
  6
CONTINUOUS
 10
-295.591574
 20
92.088313
 11
-295.478944
 21
92.068405
  0
LINE
  8
0
 62
7
  6
CONTINUOUS
 10
-295.478944
 20
92.068405
 11
-295.368948
 21
92.038429
  0
LINE
  8
0
 62
7
  6
CONTINUOUS
 10
-295.368948
 20
92.038429
 11
-295.281798
 21
91.972323
  0
LINE
  8
0
 62
7
  6
CONTINUOUS
 10
-296.156799
 20
90.654498
 11
-296.286146
 21
90.657454
  0
LINE
  8
0
 62
7
  6
CONTINUOUS
 10
-296.286146
 20
90.657454
 11
-296.415945
 21
90.667070
  0
LINE
  8
0
 62
7
  6
CONTINUOUS
 10
-296.415945
 20
90.667070
 11
-296.544687
 21
90.686535
  0
LINE
  8
0
 62
7
  6
CONTINUOUS
 10
-296.544687
 20
90.686535
 11
-296.656799
 21
90.741321
  0
LINE
  8
0
 62
7
  6
CONTINUOUS
 10
-296.656799
 20
90.741321
 11
-296.545344
 21
90.795966
  0
LINE
  8
0
 62
7
  6
CONTINUOUS
 10
-296.545344
 20
90.795966
 11
-296.417539
 21
90.815403
  0
LINE
  8
0
 62
7
  6
CONTINUOUS
 10
-296.417539
 20
90.815403
 11
-296.288015
 21
90.825100
  0
LINE
  8
0
 62
7
  6
CONTINUOUS
 10
-296.288015
 20
90.825100
 11
-296.156799
 21
90.828143
  0
LINE
  8
0
 62
7
  6
CONTINUOUS
 10
-296.156799
 20
90.828143
 11
-296.027451
 21
90.825188
  0
LINE
  8
0
 62
7
  6
CONTINUOUS
 10
-296.027451
 20
90.825188
 11
-295.897652
 21
90.815572
  0
LINE
  8
0
 62
7
  6
CONTINUOUS
 10
-295.897652
 20
90.815572
 11
-295.768910
 21
90.796107
  0
LINE
  8
0
 62
7
  6
CONTINUOUS
 10
-295.768910
 20
90.796107
 11
-295.656798
 21
90.741321
  0
LINE
  8
0
 62
7
  6
CONTINUOUS
 10
-295.656798
 20
90.741321
 11
-295.768253
 21
90.686675
  0
LINE
  8
0
 62
7
  6
CONTINUOUS
 10
-295.768253
 20
90.686675
 11
-295.896058
 21
90.667238
  0
LINE
  8
0
 62
7
  6
CONTINUOUS
 10
-295.896058
 20
90.667238
 11
-296.025582
 21
90.657541
  0
LINE
  8
0
 62
7
  6
CONTINUOUS
 10
-296.025582
 20
90.657541
 11
-296.156799
 21
90.654498
  0
LINE
  8
0
 62
7
  6
CONTINUOUS
 10
-293.453298
 20
90.383227
 11
-293.582645
 21
90.386183
  0
LINE
  8
0
 62
7
  6
CONTINUOUS
 10
-293.582645
 20
90.386183
 11
-293.712444
 21
90.395799
  0
LINE
  8
0
 62
7
  6
CONTINUOUS
 10
-293.712444
 20
90.395799
 11
-293.841186
 21
90.415264
  0
LINE
  8
0
 62
7
  6
CONTINUOUS
 10
-293.841186
 20
90.415264
 11
-293.953298
 21
90.470050
  0
LINE
  8
0
 62
7
  6
CONTINUOUS
 10
-293.953298
 20
90.470050
 11
-293.841843
 21
90.524695
  0
LINE
  8
0
 62
7
  6
CONTINUOUS
 10
-293.841843
 20
90.524695
 11
-293.714038
 21
90.544133
  0
LINE
  8
0
 62
7
  6
CONTINUOUS
 10
-293.714038
 20
90.544133
 11
-293.584514
 21
90.553829
  0
LINE
  8
0
 62
7
  6
CONTINUOUS
 10
-293.584514
 20
90.553829
 11
-293.453298
 21
90.556872
  0
LINE
  8
0
 62
7
  6
CONTINUOUS
 10
-293.453298
 20
90.556872
 11
-293.323950
 21
90.553917
  0
LINE
  8
0
 62
7
  6
CONTINUOUS
 10
-293.323950
 20
90.553917
 11
-293.194151
 21
90.544301
  0
LINE
  8
0
 62
7
  6
CONTINUOUS
 10
-293.194151
 20
90.544301
 11
-293.065409
 21
90.524836
  0
LINE
  8
0
 62
7
  6
CONTINUOUS
 10
-293.065409
 20
90.524836
 11
-292.953298
 21
90.470050
  0
LINE
  8
0
 62
7
  6
CONTINUOUS
 10
-292.953298
 20
90.470050
 11
-293.064752
 21
90.415405
  0
LINE
  8
0
 62
7
  6
CONTINUOUS
 10
-293.064752
 20
90.415405
 11
-293.192557
 21
90.395967
  0
LINE
  8
0
 62
7
  6
CONTINUOUS
 10
-293.192557
 20
90.395967
 11
-293.322081
 21
90.386270
  0
LINE
  8
0
 62
7
  6
CONTINUOUS
 10
-293.322081
 20
90.386270
 11
-293.453298
 21
90.383227
  0
LINE
  8
0
 62
7
  6
CONTINUOUS
 10
-294.328298
 20
91.701053
 11
-294.243016
 21
91.766482
  0
LINE
  8
0
 62
7
  6
CONTINUOUS
 10
-294.243016
 20
91.766482
 11
-294.133967
 21
91.796532
  0
LINE
  8
0
 62
7
  6
CONTINUOUS
 10
-294.133967
 20
91.796532
 11
-294.022268
 21
91.816489
  0
LINE
  8
0
 62
7
  6
CONTINUOUS
 10
-294.022268
 20
91.816489
 11
-293.909771
 21
91.830684
  0
LINE
  8
0
 62
7
  6
CONTINUOUS
 10
-293.909771
 20
91.830684
 11
-293.796467
 21
91.840826
  0
LINE
  8
0
 62
7
  6
CONTINUOUS
 10
-293.796467
 20
91.840826
 11
-293.682919
 21
91.847674
  0
LINE
  8
0
 62
7
  6
CONTINUOUS
 10
-293.682919
 20
91.847674
 11
-293.569214
 21
91.851660
  0
LINE
  8
0
 62
7
  6
CONTINUOUS
 10
-293.569214
 20
91.851660
 11
-293.455414
 21
91.852999
  0
LINE
  8
0
 62
7
  6
CONTINUOUS
 10
-293.455414
 20
91.852999
 11
-293.342399
 21
91.851774
  0
LINE
  8
0
 62
7
  6
CONTINUOUS
 10
-293.342399
 20
91.851774
 11
-293.228879
 21
91.847917
  0
LINE
  8
0
 62
7
  6
CONTINUOUS
 10
-293.228879
 20
91.847917
 11
-293.114542
 21
91.841150
  0
LINE
  8
0
 62
7
  6
CONTINUOUS
 10
-293.114542
 20
91.841150
 11
-293.001166
 21
91.831142
  0
LINE
  8
0
 62
7
  6
CONTINUOUS
 10
-293.001166
 20
91.831142
 11
-292.888073
 21
91.817042
  0
LINE
  8
0
 62
7
  6
CONTINUOUS
 10
-292.888073
 20
91.817042
 11
-292.775443
 21
91.797134
  0
LINE
  8
0
 62
7
  6
CONTINUOUS
 10
-292.775443
 20
91.797134
 11
-292.665447
 21
91.767158
  0
LINE
  8
0
 62
7
  6
CONTINUOUS
 10
-292.665447
 20
91.767158
 11
-292.578298
 21
91.701053
  0
LINE
  8
0
 62
7
  6
CONTINUOUS
 10
-292.199240
 20
91.302585
 11
-292.113958
 21
91.368014
  0
LINE
  8
0
 62
7
  6
CONTINUOUS
 10
-292.113958
 20
91.368014
 11
-292.004909
 21
91.398064
  0
LINE
  8
0
 62
7
  6
CONTINUOUS
 10
-292.004909
 20
91.398064
 11
-291.893210
 21
91.418021
  0
LINE
  8
0
 62
7
  6
CONTINUOUS
 10
-291.893210
 20
91.418021
 11
-291.780713
 21
91.432216
  0
LINE
  8
0
 62
7
  6
CONTINUOUS
 10
-291.780713
 20
91.432216
 11
-291.667409
 21
91.442358
  0
LINE
  8
0
 62
7
  6
CONTINUOUS
 10
-291.667409
 20
91.442358
 11
-291.553861
 21
91.449206
  0
LINE
  8
0
 62
7
  6
CONTINUOUS
 10
-291.553861
 20
91.449206
 11
-291.440157
 21
91.453192
  0
LINE
  8
0
 62
7
  6
CONTINUOUS
 10
-291.440157
 20
91.453192
 11
-291.326356
 21
91.454531
  0
LINE
  8
0
 62
7
  6
CONTINUOUS
 10
-291.326356
 20
91.454531
 11
-291.213341
 21
91.453306
  0
LINE
  8
0
 62
7
  6
CONTINUOUS
 10
-291.213341
 20
91.453306
 11
-291.099821
 21
91.449449
  0
LINE
  8
0
 62
7
  6
CONTINUOUS
 10
-291.099821
 20
91.449449
 11
-290.985484
 21
91.442682
  0
LINE
  8
0
 62
7
  6
CONTINUOUS
 10
-290.985484
 20
91.442682
 11
-290.872108
 21
91.432674
  0
LINE
  8
0
 62
7
  6
CONTINUOUS
 10
-290.872108
 20
91.432674
 11
-290.759016
 21
91.418574
  0
LINE
  8
0
 62
7
  6
CONTINUOUS
 10
-290.759016
 20
91.418574
 11
-290.646385
 21
91.398666
  0
LINE
  8
0
 62
7
  6
CONTINUOUS
 10
-290.646385
 20
91.398666
 11
-290.536390
 21
91.368690
  0
LINE
  8
0
 62
7
  6
CONTINUOUS
 10
-290.536390
 20
91.368690
 11
-290.449240
 21
91.302585
  0
LINE
  8
0
 62
7
  6
CONTINUOUS
 10
-291.324240
 20
89.984759
 11
-291.453587
 21
89.987715
  0
LINE
  8
0
 62
7
  6
CONTINUOUS
 10
-291.453587
 20
89.987715
 11
-291.583386
 21
89.997331
  0
LINE
  8
0
 62
7
  6
CONTINUOUS
 10
-291.583386
 20
89.997331
 11
-291.712128
 21
90.016796
  0
LINE
  8
0
 62
7
  6
CONTINUOUS
 10
-291.712128
 20
90.016796
 11
-291.824240
 21
90.071582
  0
LINE
  8
0
 62
7
  6
CONTINUOUS
 10
-291.824240
 20
90.071582
 11
-291.712785
 21
90.126227
  0
LINE
  8
0
 62
7
  6
CONTINUOUS
 10
-291.712785
 20
90.126227
 11
-291.584980
 21
90.145665
  0
LINE
  8
0
 62
7
  6
CONTINUOUS
 10
-291.584980
 20
90.145665
 11
-291.455456
 21
90.155361
  0
LINE
  8
0
 62
7
  6
CONTINUOUS
 10
-291.455456
 20
90.155361
 11
-291.324240
 21
90.158404
  0
LINE
  8
0
 62
7
  6
CONTINUOUS
 10
-291.324240
 20
90.158404
 11
-291.194892
 21
90.155449
  0
LINE
  8
0
 62
7
  6
CONTINUOUS
 10
-291.194892
 20
90.155449
 11
-291.065093
 21
90.145833
  0
LINE
  8
0
 62
7
  6
CONTINUOUS
 10
-291.065093
 20
90.145833
 11
-290.936351
 21
90.126368
  0
LINE
  8
0
 62
7
  6
CONTINUOUS
 10
-290.936351
 20
90.126368
 11
-290.824240
 21
90.071582
  0
LINE
  8
0
 62
7
  6
CONTINUOUS
 10
-290.824240
 20
90.071582
 11
-290.935694
 21
90.016936
  0
LINE
  8
0
 62
7
  6
CONTINUOUS
 10
-290.935694
 20
90.016936
 11
-291.063500
 21
89.997499
  0
LINE
  8
0
 62
7
  6
CONTINUOUS
 10
-291.063500
 20
89.997499
 11
-291.193023
 21
89.987802
  0
LINE
  8
0
 62
7
  6
CONTINUOUS
 10
-291.193023
 20
89.987802
 11
-291.324240
 21
89.984759
  0
LINE
  8
0
 62
7
  6
CONTINUOUS
 10
-290.532737
 20
90.929339
 11
-290.441542
 21
90.941076
  0
LINE
  8
0
 62
7
  6
CONTINUOUS
 10
-290.441542
 20
90.941076
 11
-290.349679
 21
90.950053
  0
LINE
  8
0
 62
7
  6
CONTINUOUS
 10
-290.349679
 20
90.950053
 11
-290.257486
 21
90.956732
  0
LINE
  8
0
 62
7
  6
CONTINUOUS
 10
-290.257486
 20
90.956732
 11
-290.165269
 21
90.961392
  0
LINE
  8
0
 62
7
  6
CONTINUOUS
 10
-290.165269
 20
90.961392
 11
-290.072965
 21
90.964222
  0
LINE
  8
0
 62
7
  6
CONTINUOUS
 10
-290.072965
 20
90.964222
 11
-289.980395
 21
90.965318
  0
LINE
  8
0
 62
7
  6
CONTINUOUS
 10
-289.980395
 20
90.965318
 11
-289.888488
 21
90.964718
  0
LINE
  8
0
 62
7
  6
CONTINUOUS
 10
-289.888488
 20
90.964718
 11
-289.796501
 21
90.962415
  0
LINE
  8
0
 62
7
  6
CONTINUOUS
 10
-289.796501
 20
90.962415
 11
-289.704167
 21
90.958306
  0
LINE
  8
0
 62
7
  6
CONTINUOUS
 10
-289.704167
 20
90.958306
 11
-289.611360
 21
90.952201
  0
LINE
  8
0
 62
7
  6
CONTINUOUS
 10
-289.611360
 20
90.952201
 11
-289.519365
 21
90.943923
  0
LINE
  8
0
 62
7
  6
CONTINUOUS
 10
-289.519365
 20
90.943923
 11
-289.427584
 21
90.932998
  0
LINE
  8
0
 62
7
  6
CONTINUOUS
 10
-289.427584
 20
90.932998
 11
-289.336132
 21
90.918640
  0
LINE
  8
0
 62
7
  6
CONTINUOUS
 10
-289.336132
 20
90.918640
 11
-289.245272
 21
90.899241
  0
LINE
  8
0
 62
7
  6
CONTINUOUS
 10
-289.245272
 20
90.899241
 11
-289.157211
 21
90.870855
  0
LINE
  8
0
 62
7
  6
CONTINUOUS
 10
-289.157211
 20
90.870855
 11
-289.092231
 21
90.813396
  0
LINE
  8
0
 62
7
  6
CONTINUOUS
 10
-289.967231
 20
89.495563
 11
-290.096578
 21
89.498518
  0
LINE
  8
0
 62
7
  6
CONTINUOUS
 10
-290.096578
 20
89.498518
 11
-290.226378
 21
89.508134
  0
LINE
  8
0
 62
7
  6
CONTINUOUS
 10
-290.226378
 20
89.508134
 11
-290.355120
 21
89.527599
  0
LINE
  8
0
 62
7
  6
CONTINUOUS
 10
-290.355120
 20
89.527599
 11
-290.467231
 21
89.582385
  0
LINE
  8
0
 62
7
  6
CONTINUOUS
 10
-290.467231
 20
89.582385
 11
-290.355778
 21
89.637033
  0
LINE
  8
0
 62
7
  6
CONTINUOUS
 10
-290.355778
 20
89.637033
 11
-290.227972
 21
89.656473
  0
LINE
  8
0
 62
7
  6
CONTINUOUS
 10
-290.227972
 20
89.656473
 11
-290.098449
 21
89.666172
  0
LINE
  8
0
 62
7
  6
CONTINUOUS
 10
-290.098449
 20
89.666172
 11
-289.967231
 21
89.669215
  0
LINE
  8
0
 62
7
  6
CONTINUOUS
 10
-289.967231
 20
89.669215
 11
-289.837883
 21
89.666259
  0
LINE
  8
0
 62
7
  6
CONTINUOUS
 10
-289.837883
 20
89.666259
 11
-289.708084
 21
89.656642
  0
LINE
  8
0
 62
7
  6
CONTINUOUS
 10
-289.708084
 20
89.656642
 11
-289.579342
 21
89.637174
  0
LINE
  8
0
 62
7
  6
CONTINUOUS
 10
-289.579342
 20
89.637174
 11
-289.467231
 21
89.582385
  0
LINE
  8
0
 62
7
  6
CONTINUOUS
 10
-289.467231
 20
89.582385
 11
-289.578685
 21
89.527740
  0
LINE
  8
0
 62
7
  6
CONTINUOUS
 10
-289.578685
 20
89.527740
 11
-289.706491
 21
89.508302
  0
LINE
  8
0
 62
7
  6
CONTINUOUS
 10
-289.706491
 20
89.508302
 11
-289.836015
 21
89.498606
  0
LINE
  8
0
 62
7
  6
CONTINUOUS
 10
-289.836015
 20
89.498606
 11
-289.967231
 21
89.495563
  0
LINE
  8
0
 62
7
  6
CONTINUOUS
 10
-289.187113
 20
90.417446
 11
-289.149774
 21
90.414790
  0
LINE
  8
0
 62
7
  6
CONTINUOUS
 10
-289.149774
 20
90.414790
 11
-289.112410
 21
90.411772
  0
LINE
  8
0
 62
7
  6
CONTINUOUS
 10
-289.112410
 20
90.411772
 11
-289.075018
 21
90.408367
  0
LINE
  8
0
 62
7
  6
CONTINUOUS
 10
-289.075018
 20
90.408367
 11
-289.037598
 21
90.404542
  0
LINE
  8
0
 62
7
  6
CONTINUOUS
 10
-289.037598
 20
90.404542
 11
-289.000148
 21
90.400259
  0
LINE
  8
0
 62
7
  6
CONTINUOUS
 10
-289.000148
 20
90.400259
 11
-288.962667
 21
90.395467
  0
LINE
  8
0
 62
7
  6
CONTINUOUS
 10
-288.962667
 20
90.395467
 11
-288.925156
 21
90.390101
  0
LINE
  8
0
 62
7
  6
CONTINUOUS
 10
-288.925156
 20
90.390101
 11
-288.887619
 21
90.384077
  0
LINE
  8
0
 62
7
  6
CONTINUOUS
 10
-288.887619
 20
90.384077
 11
-288.850064
 21
90.377278
  0
LINE
  8
0
 62
7
  6
CONTINUOUS
 10
-288.850064
 20
90.377278
 11
-288.813480
 21
90.369754
  0
LINE
  8
0
 62
7
  6
CONTINUOUS
 10
-288.813480
 20
90.369754
 11
-288.777114
 21
90.361158
  0
LINE
  8
0
 62
7
  6
CONTINUOUS
 10
-288.777114
 20
90.361158
 11
-288.741073
 21
90.351170
  0
LINE
  8
0
 62
7
  6
CONTINUOUS
 10
-288.741073
 20
90.351170
 11
-288.705578
 21
90.339236
  0
LINE
  8
0
 62
7
  6
CONTINUOUS
 10
-288.705578
 20
90.339236
 11
-288.671175
 21
90.324253
  0
LINE
  8
0
 62
7
  6
CONTINUOUS
 10
-288.671175
 20
90.324253
 11
-288.639933
 21
90.303498
  0
LINE
  8
0
 62
7
  6
CONTINUOUS
 10
-288.639933
 20
90.303498
 11
-288.625268
 21
90.271789
  0
LINE
  8
0
 62
7
  6
CONTINUOUS
 10
-289.500000
 20
88.957713
 11
-289.629348
 21
88.960669
  0
LINE
  8
0
 62
7
  6
CONTINUOUS
 10
-289.629348
 20
88.960669
 11
-289.759147
 21
88.970287
  0
LINE
  8
0
 62
7
  6
CONTINUOUS
 10
-289.759147
 20
88.970287
 11
-289.887888
 21
88.989754
  0
LINE
  8
0
 62
7
  6
CONTINUOUS
 10
-289.887888
 20
88.989754
 11
-290.000000
 21
89.044543
  0
LINE
  8
0
 62
7
  6
CONTINUOUS
 10
-290.000000
 20
89.044543
 11
-289.888546
 21
89.099189
  0
LINE
  8
0
 62
7
  6
CONTINUOUS
 10
-289.888546
 20
89.099189
 11
-289.760740
 21
89.118626
  0
LINE
  8
0
 62
7
  6
CONTINUOUS
 10
-289.760740
 20
89.118626
 11
-289.631216
 21
89.128323
  0
LINE
  8
0
 62
7
  6
CONTINUOUS
 10
-289.631216
 20
89.128323
 11
-289.500000
 21
89.131366
  0
LINE
  8
0
 62
7
  6
CONTINUOUS
 10
-289.500000
 20
89.131366
 11
-289.370652
 21
89.128410
  0
LINE
  8
0
 62
7
  6
CONTINUOUS
 10
-289.370652
 20
89.128410
 11
-289.240853
 21
89.118794
  0
LINE
  8
0
 62
7
  6
CONTINUOUS
 10
-289.240853
 20
89.118794
 11
-289.112111
 21
89.099329
  0
LINE
  8
0
 62
7
  6
CONTINUOUS
 10
-289.112111
 20
89.099329
 11
-289.000000
 21
89.044543
  0
LINE
  8
0
 62
7
  6
CONTINUOUS
 10
-289.000000
 20
89.044543
 11
-289.111453
 21
88.989895
  0
LINE
  8
0
 62
7
  6
CONTINUOUS
 10
-289.111453
 20
88.989895
 11
-289.239259
 21
88.970455
  0
LINE
  8
0
 62
7
  6
CONTINUOUS
 10
-289.239259
 20
88.970455
 11
-289.368782
 21
88.960757
  0
LINE
  8
0
 62
7
  6
CONTINUOUS
 10
-289.368782
 20
88.960757
 11
-289.500000
 21
88.957713
  0
LINE
  8
0
 62
7
  6
CONTINUOUS
 10
-289.967234
 20
88.419864
 11
-290.096581
 21
88.422819
  0
LINE
  8
0
 62
7
  6
CONTINUOUS
 10
-290.096581
 20
88.422819
 11
-290.226381
 21
88.432435
  0
LINE
  8
0
 62
7
  6
CONTINUOUS
 10
-290.226381
 20
88.432435
 11
-290.355123
 21
88.451900
  0
LINE
  8
0
 62
7
  6
CONTINUOUS
 10
-290.355123
 20
88.451900
 11
-290.467234
 21
88.506686
  0
LINE
  8
0
 62
7
  6
CONTINUOUS
 10
-290.467234
 20
88.506686
 11
-290.355780
 21
88.561334
  0
LINE
  8
0
 62
7
  6
CONTINUOUS
 10
-290.355780
 20
88.561334
 11
-290.227975
 21
88.580774
  0
LINE
  8
0
 62
7
  6
CONTINUOUS
 10
-290.227975
 20
88.580774
 11
-290.098451
 21
88.590473
  0
LINE
  8
0
 62
7
  6
CONTINUOUS
 10
-290.098451
 20
88.590473
 11
-289.967234
 21
88.593516
  0
LINE
  8
0
 62
7
  6
CONTINUOUS
 10
-289.967234
 20
88.593516
 11
-289.837886
 21
88.590560
  0
LINE
  8
0
 62
7
  6
CONTINUOUS
 10
-289.837886
 20
88.590560
 11
-289.708087
 21
88.580943
  0
LINE
  8
0
 62
7
  6
CONTINUOUS
 10
-289.708087
 20
88.580943
 11
-289.579345
 21
88.561475
  0
LINE
  8
0
 62
7
  6
CONTINUOUS
 10
-289.579345
 20
88.561475
 11
-289.467234
 21
88.506686
  0
LINE
  8
0
 62
7
  6
CONTINUOUS
 10
-289.467234
 20
88.506686
 11
-289.578688
 21
88.452041
  0
LINE
  8
0
 62
7
  6
CONTINUOUS
 10
-289.578688
 20
88.452041
 11
-289.706494
 21
88.432604
  0
LINE
  8
0
 62
7
  6
CONTINUOUS
 10
-289.706494
 20
88.432604
 11
-289.836018
 21
88.422907
  0
LINE
  8
0
 62
7
  6
CONTINUOUS
 10
-289.836018
 20
88.422907
 11
-289.967234
 21
88.419864
  0
LINE
  8
0
 62
7
  6
CONTINUOUS
 10
-291.489147
 20
88.099456
 11
-291.402919
 21
88.103232
  0
LINE
  8
0
 62
7
  6
CONTINUOUS
 10
-291.402919
 20
88.103232
 11
-291.316632
 21
88.104302
  0
LINE
  8
0
 62
7
  6
CONTINUOUS
 10
-291.316632
 20
88.104302
 11
-291.230897
 21
88.102784
  0
LINE
  8
0
 62
7
  6
CONTINUOUS
 10
-291.230897
 20
88.102784
 11
-291.144230
 21
88.098486
  0
LINE
  8
0
 62
7
  6
CONTINUOUS
 10
-291.144230
 20
88.098486
 11
-291.058177
 21
88.090991
  0
LINE
  8
0
 62
7
  6
CONTINUOUS
 10
-291.058177
 20
88.090991
 11
-290.972304
 21
88.079149
  0
LINE
  8
0
 62
7
  6
CONTINUOUS
 10
-290.972304
 20
88.079149
 11
-290.887955
 21
88.059880
  0
LINE
  8
0
 62
7
  6
CONTINUOUS
 10
-290.887955
 20
88.059880
 11
-290.825164
 21
88.012356
  0
LINE
  8
0
 62
7
  6
CONTINUOUS
 10
-290.825164
 20
88.012356
 11
-290.898418
 21
87.971991
  0
LINE
  8
0
 62
7
  6
CONTINUOUS
 10
-290.898418
 20
87.971991
 11
-290.982355
 21
87.954136
  0
LINE
  8
0
 62
7
  6
CONTINUOUS
 10
-290.982355
 20
87.954136
 11
-291.067641
 21
87.942970
  0
LINE
  8
0
 62
7
  6
CONTINUOUS
 10
-291.067641
 20
87.942970
 11
-291.152941
 21
87.935917
  0
LINE
  8
0
 62
7
  6
CONTINUOUS
 10
-291.152941
 20
87.935917
 11
-291.239156
 21
87.931927
  0
LINE
  8
0
 62
7
  6
CONTINUOUS
 10
-291.239156
 20
87.931927
 11
-291.324292
 21
87.930659
  0
LINE
  8
0
 62
7
  6
CONTINUOUS
 10
-291.324292
 20
87.930659
 11
-291.409968
 21
87.931943
  0
LINE
  8
0
 62
7
  6
CONTINUOUS
 10
-291.409968
 20
87.931943
 11
-291.496530
 21
87.935973
  0
LINE
  8
0
 62
7
  6
CONTINUOUS
 10
-287.250000
 20
91.014163
 11
-288.505505
 21
91.972206
  0
LINE
  8
0
 62
7
  6
CONTINUOUS
 10
-288.505505
 20
91.972206
 11
-290.102636
 21
92.409891
  0
LINE
  8
0
 62
7
  6
CONTINUOUS
 10
-290.102636
 20
92.409891
 11
-291.734021
 21
92.699852
  0
LINE
  8
0
 62
7
  6
CONTINUOUS
 10
-291.734021
 20
92.699852
 11
-293.378471
 21
92.906187
  0
LINE
  8
0
 62
7
  6
CONTINUOUS
 10
-293.378471
 20
92.906187
 11
-295.029566
 21
93.053004
  0
LINE
  8
0
 62
7
  6
CONTINUOUS
 10
-295.029566
 20
93.053004
 11
-296.684169
 21
93.151986
  0
LINE
  8
0
 62
7
  6
CONTINUOUS
 10
-296.684169
 20
93.151986
 11
-298.341040
 21
93.209346
  0
LINE
  8
0
 62
7
  6
CONTINUOUS
 10
-298.341040
 20
93.209346
 11
-300.000000
 21
93.228168
  0
LINE
  8
0
 62
7
  6
CONTINUOUS
 10
-300.000000
 20
93.228168
 11
-301.657486
 21
93.209380
  0
LINE
  8
0
 62
7
  6
CONTINUOUS
 10
-301.657486
 20
93.209380
 11
-303.314139
 21
93.152065
  0
LINE
  8
0
 62
7
  6
CONTINUOUS
 10
-303.314139
 20
93.152065
 11
-304.968930
 21
93.053115
  0
LINE
  8
0
 62
7
  6
CONTINUOUS
 10
-304.968930
 20
93.053115
 11
-306.620909
 21
92.906252
  0
LINE
  8
0
 62
7
  6
CONTINUOUS
 10
-306.620909
 20
92.906252
 11
-308.265742
 21
92.699887
  0
LINE
  8
0
 62
7
  6
CONTINUOUS
 10
-308.265742
 20
92.699887
 11
-309.898421
 21
92.409665
  0
LINE
  8
0
 62
7
  6
CONTINUOUS
 10
-309.898421
 20
92.409665
 11
-311.496759
 21
91.971387
  0
LINE
  8
0
 62
7
  6
CONTINUOUS
 10
-311.496759
 20
91.971387
 11
-312.749995
 21
91.012269
  0
LINE
  8
0
 62
7
  6
CONTINUOUS
 10
-288.957127
 20
89.460045
 11
-288.174430
 21
90.629552
  0
LINE
  8
0
 62
7
  6
CONTINUOUS
 10
-288.174430
 20
90.629552
 11
-289.723955
 21
91.351645
  0
LINE
  8
0
 62
7
  6
CONTINUOUS
 10
-289.723955
 20
91.351645
 11
-291.406039
 21
91.729880
  0
LINE
  8
0
 62
7
  6
CONTINUOUS
 10
-291.406039
 20
91.729880
 11
-293.111618
 21
91.981808
  0
LINE
  8
0
 62
7
  6
CONTINUOUS
 10
-293.111618
 20
91.981808
 11
-294.827343
 21
92.155787
  0
LINE
  8
0
 62
7
  6
CONTINUOUS
 10
-294.827343
 20
92.155787
 11
-296.548572
 21
92.271267
  0
LINE
  8
0
 62
7
  6
CONTINUOUS
 10
-296.548572
 20
92.271267
 11
-298.272695
 21
92.337617
  0
LINE
  8
0
 62
7
  6
CONTINUOUS
 10
-298.272695
 20
92.337617
 11
-299.997815
 21
92.359317
  0
LINE
  8
0
 62
7
  6
CONTINUOUS
 10
-299.997815
 20
92.359317
 11
-301.722825
 21
92.337730
  0
LINE
  8
0
 62
7
  6
CONTINUOUS
 10
-301.722825
 20
92.337730
 11
-303.446754
 21
92.271511
  0
LINE
  8
0
 62
7
  6
CONTINUOUS
 10
-303.446754
 20
92.271511
 11
-305.168378
 21
92.156142
  0
LINE
  8
0
 62
7
  6
CONTINUOUS
 10
-305.168378
 20
92.156142
 11
-306.884809
 21
91.982243
  0
LINE
  8
0
 62
7
  6
CONTINUOUS
 10
-306.884809
 20
91.982243
 11
-308.591861
 21
91.730254
  0
LINE
  8
0
 62
7
  6
CONTINUOUS
 10
-308.591861
 20
91.730254
 11
-310.274846
 21
91.351990
  0
LINE
  8
0
 62
7
  6
CONTINUOUS
 10
-310.274846
 20
91.351990
 11
-311.825551
 21
90.629571
  0
LINE
  8
0
 62
7
  6
CONTINUOUS
 10
-311.825551
 20
90.629571
 11
-311.042890
 21
89.460052
  0
LINE
  8
0
 62
7
  6
CONTINUOUS
 10
-299.125000
 20
92.098849
 11
-299.210281
 21
92.164279
  0
LINE
  8
0
 62
7
  6
CONTINUOUS
 10
-299.210281
 20
92.164279
 11
-299.319331
 21
92.194329
  0
LINE
  8
0
 62
7
  6
CONTINUOUS
 10
-299.319331
 20
92.194329
 11
-299.431030
 21
92.214285
  0
LINE
  8
0
 62
7
  6
CONTINUOUS
 10
-299.431030
 20
92.214285
 11
-299.543527
 21
92.228481
  0
LINE
  8
0
 62
7
  6
CONTINUOUS
 10
-299.543527
 20
92.228481
 11
-299.656830
 21
92.238622
  0
LINE
  8
0
 62
7
  6
CONTINUOUS
 10
-299.656830
 20
92.238622
 11
-299.770378
 21
92.245471
  0
LINE
  8
0
 62
7
  6
CONTINUOUS
 10
-299.770378
 20
92.245471
 11
-299.884083
 21
92.249457
  0
LINE
  8
0
 62
7
  6
CONTINUOUS
 10
-299.884083
 20
92.249457
 11
-299.997883
 21
92.250796
  0
LINE
  8
0
 62
7
  6
CONTINUOUS
 10
-299.997883
 20
92.250796
 11
-300.110898
 21
92.249571
  0
LINE
  8
0
 62
7
  6
CONTINUOUS
 10
-300.110898
 20
92.249571
 11
-300.224419
 21
92.245714
  0
LINE
  8
0
 62
7
  6
CONTINUOUS
 10
-300.224419
 20
92.245714
 11
-300.338756
 21
92.238947
  0
LINE
  8
0
 62
7
  6
CONTINUOUS
 10
-300.338756
 20
92.238947
 11
-300.452132
 21
92.228939
  0
LINE
  8
0
 62
7
  6
CONTINUOUS
 10
-300.452132
 20
92.228939
 11
-300.565224
 21
92.214839
  0
LINE
  8
0
 62
7
  6
CONTINUOUS
 10
-300.565224
 20
92.214839
 11
-300.677854
 21
92.194930
  0
LINE
  8
0
 62
7
  6
CONTINUOUS
 10
-300.677854
 20
92.194930
 11
-300.787850
 21
92.164955
  0
LINE
  8
0
 62
7
  6
CONTINUOUS
 10
-300.787850
 20
92.164955
 11
-300.875000
 21
92.098849
  0
LINE
  8
0
 62
7
  6
CONTINUOUS
 10
-300.000000
 20
90.781016
 11
-299.870652
 21
90.783972
  0
LINE
  8
0
 62
7
  6
CONTINUOUS
 10
-299.870652
 20
90.783972
 11
-299.740853
 21
90.793590
  0
LINE
  8
0
 62
7
  6
CONTINUOUS
 10
-299.740853
 20
90.793590
 11
-299.612112
 21
90.813057
  0
LINE
  8
0
 62
7
  6
CONTINUOUS
 10
-299.612112
 20
90.813057
 11
-299.500000
 21
90.867847
  0
LINE
  8
0
 62
7
  6
CONTINUOUS
 10
-299.500000
 20
90.867847
 11
-299.611454
 21
90.922492
  0
LINE
  8
0
 62
7
  6
CONTINUOUS
 10
-299.611454
 20
90.922492
 11
-299.739260
 21
90.941929
  0
LINE
  8
0
 62
7
  6
CONTINUOUS
 10
-299.739260
 20
90.941929
 11
-299.868784
 21
90.951626
  0
LINE
  8
0
 62
7
  6
CONTINUOUS
 10
-299.868784
 20
90.951626
 11
-300.000000
 21
90.954669
  0
LINE
  8
0
 62
7
  6
CONTINUOUS
 10
-300.000000
 20
90.954669
 11
-300.129348
 21
90.951714
  0
LINE
  8
0
 62
7
  6
CONTINUOUS
 10
-300.129348
 20
90.951714
 11
-300.259147
 21
90.942098
  0
LINE
  8
0
 62
7
  6
CONTINUOUS
 10
-300.259147
 20
90.942098
 11
-300.387889
 21
90.922632
  0
LINE
  8
0
 62
7
  6
CONTINUOUS
 10
-300.387889
 20
90.922632
 11
-300.500000
 21
90.867847
  0
LINE
  8
0
 62
7
  6
CONTINUOUS
 10
-300.500000
 20
90.867847
 11
-300.388547
 21
90.813198
  0
LINE
  8
0
 62
7
  6
CONTINUOUS
 10
-300.388547
 20
90.813198
 11
-300.260741
 21
90.793758
  0
LINE
  8
0
 62
7
  6
CONTINUOUS
 10
-300.260741
 20
90.793758
 11
-300.131218
 21
90.784060
  0
LINE
  8
0
 62
7
  6
CONTINUOUS
 10
-300.131218
 20
90.784060
 11
-300.000000
 21
90.781016
  0
LINE
  8
0
 62
7
  6
CONTINUOUS
 10
-299.125000
 20
90.433726
 11
-299.210282
 21
90.499155
  0
LINE
  8
0
 62
7
  6
CONTINUOUS
 10
-299.210282
 20
90.499155
 11
-299.319332
 21
90.529203
  0
LINE
  8
0
 62
7
  6
CONTINUOUS
 10
-299.319332
 20
90.529203
 11
-299.431030
 21
90.549158
  0
LINE
  8
0
 62
7
  6
CONTINUOUS
 10
-299.431030
 20
90.549158
 11
-299.543528
 21
90.563352
  0
LINE
  8
0
 62
7
  6
CONTINUOUS
 10
-299.543528
 20
90.563352
 11
-299.656831
 21
90.573493
  0
LINE
  8
0
 62
7
  6
CONTINUOUS
 10
-299.656831
 20
90.573493
 11
-299.770379
 21
90.580341
  0
LINE
  8
0
 62
7
  6
CONTINUOUS
 10
-299.770379
 20
90.580341
 11
-299.884083
 21
90.584327
  0
LINE
  8
0
 62
7
  6
CONTINUOUS
 10
-299.884083
 20
90.584327
 11
-299.997883
 21
90.585665
  0
LINE
  8
0
 62
7
  6
CONTINUOUS
 10
-299.997883
 20
90.585665
 11
-300.110898
 21
90.584440
  0
LINE
  8
0
 62
7
  6
CONTINUOUS
 10
-300.110898
 20
90.584440
 11
-300.224418
 21
90.580583
  0
LINE
  8
0
 62
7
  6
CONTINUOUS
 10
-300.224418
 20
90.580583
 11
-300.338755
 21
90.573817
  0
LINE
  8
0
 62
7
  6
CONTINUOUS
 10
-300.338755
 20
90.573817
 11
-300.452131
 21
90.563810
  0
LINE
  8
0
 62
7
  6
CONTINUOUS
 10
-300.452131
 20
90.563810
 11
-300.565223
 21
90.549712
  0
LINE
  8
0
 62
7
  6
CONTINUOUS
 10
-300.565223
 20
90.549712
 11
-300.677854
 21
90.529805
  0
LINE
  8
0
 62
7
  6
CONTINUOUS
 10
-300.677854
 20
90.529805
 11
-300.787850
 21
90.499830
  0
LINE
  8
0
 62
7
  6
CONTINUOUS
 10
-300.787850
 20
90.499830
 11
-300.875000
 21
90.433726
  0
LINE
  8
0
 62
7
  6
CONTINUOUS
 10
-300.000000
 20
89.115893
 11
-299.870653
 21
89.118849
  0
LINE
  8
0
 62
7
  6
CONTINUOUS
 10
-299.870653
 20
89.118849
 11
-299.740853
 21
89.128465
  0
LINE
  8
0
 62
7
  6
CONTINUOUS
 10
-299.740853
 20
89.128465
 11
-299.612112
 21
89.147930
  0
LINE
  8
0
 62
7
  6
CONTINUOUS
 10
-299.612112
 20
89.147930
 11
-299.500000
 21
89.202716
  0
LINE
  8
0
 62
7
  6
CONTINUOUS
 10
-299.500000
 20
89.202716
 11
-299.611454
 21
89.257361
  0
LINE
  8
0
 62
7
  6
CONTINUOUS
 10
-299.611454
 20
89.257361
 11
-299.739260
 21
89.276799
  0
LINE
  8
0
 62
7
  6
CONTINUOUS
 10
-299.739260
 20
89.276799
 11
-299.868783
 21
89.286495
  0
LINE
  8
0
 62
7
  6
CONTINUOUS
 10
-299.868783
 20
89.286495
 11
-300.000000
 21
89.289538
  0
LINE
  8
0
 62
7
  6
CONTINUOUS
 10
-300.000000
 20
89.289538
 11
-300.129347
 21
89.286583
  0
LINE
  8
0
 62
7
  6
CONTINUOUS
 10
-300.129347
 20
89.286583
 11
-300.259147
 21
89.276967
  0
LINE
  8
0
 62
7
  6
CONTINUOUS
 10
-300.259147
 20
89.276967
 11
-300.387888
 21
89.257502
  0
LINE
  8
0
 62
7
  6
CONTINUOUS
 10
-300.387888
 20
89.257502
 11
-300.500000
 21
89.202716
  0
LINE
  8
0
 62
7
  6
CONTINUOUS
 10
-300.500000
 20
89.202716
 11
-300.388546
 21
89.148071
  0
LINE
  8
0
 62
7
  6
CONTINUOUS
 10
-300.388546
 20
89.148071
 11
-300.260740
 21
89.128633
  0
LINE
  8
0
 62
7
  6
CONTINUOUS
 10
-300.260740
 20
89.128633
 11
-300.131217
 21
89.118936
  0
LINE
  8
0
 62
7
  6
CONTINUOUS
 10
-300.131217
 20
89.118936
 11
-300.000000
 21
89.115893
  0
LINE
  8
0
 62
7
  6
CONTINUOUS
 10
-302.053141
 20
90.337329
 11
-302.138423
 21
90.402757
  0
LINE
  8
0
 62
7
  6
CONTINUOUS
 10
-302.138423
 20
90.402757
 11
-302.247473
 21
90.432805
  0
LINE
  8
0
 62
7
  6
CONTINUOUS
 10
-302.247473
 20
90.432805
 11
-302.359172
 21
90.452761
  0
LINE
  8
0
 62
7
  6
CONTINUOUS
 10
-302.359172
 20
90.452761
 11
-302.471669
 21
90.466955
  0
LINE
  8
0
 62
7
  6
CONTINUOUS
 10
-302.471669
 20
90.466955
 11
-302.584972
 21
90.477096
  0
LINE
  8
0
 62
7
  6
CONTINUOUS
 10
-302.584972
 20
90.477096
 11
-302.698520
 21
90.483943
  0
LINE
  8
0
 62
7
  6
CONTINUOUS
 10
-302.698520
 20
90.483943
 11
-302.812225
 21
90.487929
  0
LINE
  8
0
 62
7
  6
CONTINUOUS
 10
-302.812225
 20
90.487929
 11
-302.926025
 21
90.489268
  0
LINE
  8
0
 62
7
  6
CONTINUOUS
 10
-302.926025
 20
90.489268
 11
-303.039040
 21
90.488043
  0
LINE
  8
0
 62
7
  6
CONTINUOUS
 10
-303.039040
 20
90.488043
 11
-303.152560
 21
90.484186
  0
LINE
  8
0
 62
7
  6
CONTINUOUS
 10
-303.152560
 20
90.484186
 11
-303.266897
 21
90.477420
  0
LINE
  8
0
 62
7
  6
CONTINUOUS
 10
-303.266897
 20
90.477420
 11
-303.380272
 21
90.467413
  0
LINE
  8
0
 62
7
  6
CONTINUOUS
 10
-303.380272
 20
90.467413
 11
-303.493365
 21
90.453314
  0
LINE
  8
0
 62
7
  6
CONTINUOUS
 10
-303.493365
 20
90.453314
 11
-303.605995
 21
90.433407
  0
LINE
  8
0
 62
7
  6
CONTINUOUS
 10
-303.605995
 20
90.433407
 11
-303.715991
 21
90.403433
  0
LINE
  8
0
 62
7
  6
CONTINUOUS
 10
-303.715991
 20
90.403433
 11
-303.803141
 21
90.337329
  0
LINE
  8
0
 62
7
  6
CONTINUOUS
 10
-302.928141
 20
89.019496
 11
-302.798794
 21
89.022451
  0
LINE
  8
0
 62
7
  6
CONTINUOUS
 10
-302.798794
 20
89.022451
 11
-302.668995
 21
89.032067
  0
LINE
  8
0
 62
7
  6
CONTINUOUS
 10
-302.668995
 20
89.032067
 11
-302.540253
 21
89.051532
  0
LINE
  8
0
 62
7
  6
CONTINUOUS
 10
-302.540253
 20
89.051532
 11
-302.428141
 21
89.106318
  0
LINE
  8
0
 62
7
  6
CONTINUOUS
 10
-302.428141
 20
89.106318
 11
-302.539596
 21
89.160964
  0
LINE
  8
0
 62
7
  6
CONTINUOUS
 10
-302.539596
 20
89.160964
 11
-302.667401
 21
89.180401
  0
LINE
  8
0
 62
7
  6
CONTINUOUS
 10
-302.667401
 20
89.180401
 11
-302.796925
 21
89.190098
  0
LINE
  8
0
 62
7
  6
CONTINUOUS
 10
-302.796925
 20
89.190098
 11
-302.928141
 21
89.193141
  0
LINE
  8
0
 62
7
  6
CONTINUOUS
 10
-302.928141
 20
89.193141
 11
-303.057489
 21
89.190186
  0
LINE
  8
0
 62
7
  6
CONTINUOUS
 10
-303.057489
 20
89.190186
 11
-303.187288
 21
89.180570
  0
LINE
  8
0
 62
7
  6
CONTINUOUS
 10
-303.187288
 20
89.180570
 11
-303.316030
 21
89.161105
  0
LINE
  8
0
 62
7
  6
CONTINUOUS
 10
-303.316030
 20
89.161105
 11
-303.428141
 21
89.106318
  0
LINE
  8
0
 62
7
  6
CONTINUOUS
 10
-303.428141
 20
89.106318
 11
-303.316687
 21
89.051673
  0
LINE
  8
0
 62
7
  6
CONTINUOUS
 10
-303.316687
 20
89.051673
 11
-303.188882
 21
89.032236
  0
LINE
  8
0
 62
7
  6
CONTINUOUS
 10
-303.188882
 20
89.032236
 11
-303.059358
 21
89.022539
  0
LINE
  8
0
 62
7
  6
CONTINUOUS
 10
-303.059358
 20
89.022539
 11
-302.928141
 21
89.019496
  0
LINE
  8
0
 62
7
  6
CONTINUOUS
 10
-304.112944
 20
90.130641
 11
-304.198225
 21
90.196071
  0
LINE
  8
0
 62
7
  6
CONTINUOUS
 10
-304.198225
 20
90.196071
 11
-304.307275
 21
90.226120
  0
LINE
  8
0
 62
7
  6
CONTINUOUS
 10
-304.307275
 20
90.226120
 11
-304.418973
 21
90.246077
  0
LINE
  8
0
 62
7
  6
CONTINUOUS
 10
-304.418973
 20
90.246077
 11
-304.531470
 21
90.260272
  0
LINE
  8
0
 62
7
  6
CONTINUOUS
 10
-304.531470
 20
90.260272
 11
-304.644774
 21
90.270414
  0
LINE
  8
0
 62
7
  6
CONTINUOUS
 10
-304.644774
 20
90.270414
 11
-304.758322
 21
90.277262
  0
LINE
  8
0
 62
7
  6
CONTINUOUS
 10
-304.758322
 20
90.277262
 11
-304.872027
 21
90.281249
  0
LINE
  8
0
 62
7
  6
CONTINUOUS
 10
-304.872027
 20
90.281249
 11
-304.985827
 21
90.282588
  0
LINE
  8
0
 62
7
  6
CONTINUOUS
 10
-304.985827
 20
90.282588
 11
-305.098842
 21
90.281363
  0
LINE
  8
0
 62
7
  6
CONTINUOUS
 10
-305.098842
 20
90.281363
 11
-305.212362
 21
90.277505
  0
LINE
  8
0
 62
7
  6
CONTINUOUS
 10
-305.212362
 20
90.277505
 11
-305.326700
 21
90.270738
  0
LINE
  8
0
 62
7
  6
CONTINUOUS
 10
-305.326700
 20
90.270738
 11
-305.440075
 21
90.260730
  0
LINE
  8
0
 62
7
  6
CONTINUOUS
 10
-305.440075
 20
90.260730
 11
-305.553168
 21
90.246631
  0
LINE
  8
0
 62
7
  6
CONTINUOUS
 10
-305.553168
 20
90.246631
 11
-305.665798
 21
90.226722
  0
LINE
  8
0
 62
7
  6
CONTINUOUS
 10
-305.665798
 20
90.226722
 11
-305.775794
 21
90.196746
  0
LINE
  8
0
 62
7
  6
CONTINUOUS
 10
-305.775794
 20
90.196746
 11
-305.862944
 21
90.130641
  0
LINE
  8
0
 62
7
  6
CONTINUOUS
 10
-304.987944
 20
88.812816
 11
-304.858596
 21
88.815771
  0
LINE
  8
0
 62
7
  6
CONTINUOUS
 10
-304.858596
 20
88.815771
 11
-304.728797
 21
88.825387
  0
LINE
  8
0
 62
7
  6
CONTINUOUS
 10
-304.728797
 20
88.825387
 11
-304.600055
 21
88.844852
  0
LINE
  8
0
 62
7
  6
CONTINUOUS
 10
-304.600055
 20
88.844852
 11
-304.487944
 21
88.899638
  0
LINE
  8
0
 62
7
  6
CONTINUOUS
 10
-304.487944
 20
88.899638
 11
-304.599398
 21
88.954284
  0
LINE
  8
0
 62
7
  6
CONTINUOUS
 10
-304.599398
 20
88.954284
 11
-304.727203
 21
88.973721
  0
LINE
  8
0
 62
7
  6
CONTINUOUS
 10
-304.727203
 20
88.973721
 11
-304.856727
 21
88.983418
  0
LINE
  8
0
 62
7
  6
CONTINUOUS
 10
-304.856727
 20
88.983418
 11
-304.987944
 21
88.986461
  0
LINE
  8
0
 62
7
  6
CONTINUOUS
 10
-304.987944
 20
88.986461
 11
-305.117291
 21
88.983505
  0
LINE
  8
0
 62
7
  6
CONTINUOUS
 10
-305.117291
 20
88.983505
 11
-305.247090
 21
88.973889
  0
LINE
  8
0
 62
7
  6
CONTINUOUS
 10
-305.247090
 20
88.973889
 11
-305.375832
 21
88.954424
  0
LINE
  8
0
 62
7
  6
CONTINUOUS
 10
-305.375832
 20
88.954424
 11
-305.487944
 21
88.899638
  0
LINE
  8
0
 62
7
  6
CONTINUOUS
 10
-305.487944
 20
88.899638
 11
-305.376489
 21
88.844993
  0
LINE
  8
0
 62
7
  6
CONTINUOUS
 10
-305.376489
 20
88.844993
 11
-305.248684
 21
88.825556
  0
LINE
  8
0
 62
7
  6
CONTINUOUS
 10
-305.248684
 20
88.825556
 11
-305.119160
 21
88.815859
  0
LINE
  8
0
 62
7
  6
CONTINUOUS
 10
-305.119160
 20
88.815859
 11
-304.987944
 21
88.812816
  0
LINE
  8
0
 62
7
  6
CONTINUOUS
 10
-305.832180
 20
89.896600
 11
-305.934124
 21
89.923518
  0
LINE
  8
0
 62
7
  6
CONTINUOUS
 10
-305.934124
 20
89.923518
 11
-306.038155
 21
89.942030
  0
LINE
  8
0
 62
7
  6
CONTINUOUS
 10
-306.038155
 20
89.942030
 11
-306.142822
 21
89.955503
  0
LINE
  8
0
 62
7
  6
CONTINUOUS
 10
-306.142822
 20
89.955503
 11
-306.248287
 21
89.965385
  0
LINE
  8
0
 62
7
  6
CONTINUOUS
 10
-306.248287
 20
89.965385
 11
-306.354674
 21
89.972366
  0
LINE
  8
0
 62
7
  6
CONTINUOUS
 10
-306.354674
 20
89.972366
 11
-306.460535
 21
89.976748
  0
LINE
  8
0
 62
7
  6
CONTINUOUS
 10
-306.460535
 20
89.976748
 11
-306.567250
 21
89.978802
  0
LINE
  8
0
 62
7
  6
CONTINUOUS
 10
-306.567250
 20
89.978802
 11
-306.672907
 21
89.978592
  0
LINE
  8
0
 62
7
  6
CONTINUOUS
 10
-306.672907
 20
89.978592
 11
-306.778384
 21
89.976148
  0
LINE
  8
0
 62
7
  6
CONTINUOUS
 10
-306.778384
 20
89.976148
 11
-306.884397
 21
89.971326
  0
LINE
  8
0
 62
7
  6
CONTINUOUS
 10
-306.884397
 20
89.971326
 11
-306.990096
 21
89.963909
  0
LINE
  8
0
 62
7
  6
CONTINUOUS
 10
-306.990096
 20
89.963909
 11
-307.095595
 21
89.953452
  0
LINE
  8
0
 62
7
  6
CONTINUOUS
 10
-307.095595
 20
89.953452
 11
-307.200794
 21
89.939140
  0
LINE
  8
0
 62
7
  6
CONTINUOUS
 10
-307.200794
 20
89.939140
 11
-307.305482
 21
89.919271
  0
LINE
  8
0
 62
7
  6
CONTINUOUS
 10
-307.305482
 20
89.919271
 11
-307.407437
 21
89.889629
  0
LINE
  8
0
 62
7
  6
CONTINUOUS
 10
-307.407437
 20
89.889629
 11
-307.485112
 21
89.827045
  0
LINE
  8
0
 62
7
  6
CONTINUOUS
 10
-307.645358
 20
87.317668
 11
-307.516011
 21
87.320624
  0
LINE
  8
0
 62
7
  6
CONTINUOUS
 10
-307.516011
 20
87.320624
 11
-307.386211
 21
87.330242
  0
LINE
  8
0
 62
7
  6
CONTINUOUS
 10
-307.386211
 20
87.330242
 11
-307.257470
 21
87.349709
  0
LINE
  8
0
 62
7
  6
CONTINUOUS
 10
-307.257470
 20
87.349709
 11
-307.145358
 21
87.404498
  0
LINE
  8
0
 62
7
  6
CONTINUOUS
 10
-307.145358
 20
87.404498
 11
-307.256813
 21
87.459144
  0
LINE
  8
0
 62
7
  6
CONTINUOUS
 10
-307.256813
 20
87.459144
 11
-307.384618
 21
87.478581
  0
LINE
  8
0
 62
7
  6
CONTINUOUS
 10
-307.384618
 20
87.478581
 11
-307.514142
 21
87.488278
  0
LINE
  8
0
 62
7
  6
CONTINUOUS
 10
-307.514142
 20
87.488278
 11
-307.645358
 21
87.491321
  0
LINE
  8
0
 62
7
  6
CONTINUOUS
 10
-307.645358
 20
87.491321
 11
-307.774706
 21
87.488365
  0
LINE
  8
0
 62
7
  6
CONTINUOUS
 10
-307.774706
 20
87.488365
 11
-307.904505
 21
87.478749
  0
LINE
  8
0
 62
7
  6
CONTINUOUS
 10
-307.904505
 20
87.478749
 11
-308.033247
 21
87.459284
  0
LINE
  8
0
 62
7
  6
CONTINUOUS
 10
-308.033247
 20
87.459284
 11
-308.145358
 21
87.404498
  0
LINE
  8
0
 62
7
  6
CONTINUOUS
 10
-308.145358
 20
87.404498
 11
-308.033905
 21
87.349850
  0
LINE
  8
0
 62
7
  6
CONTINUOUS
 10
-308.033905
 20
87.349850
 11
-307.906099
 21
87.330410
  0
LINE
  8
0
 62
7
  6
CONTINUOUS
 10
-307.906099
 20
87.330410
 11
-307.776576
 21
87.320712
  0
LINE
  8
0
 62
7
  6
CONTINUOUS
 10
-307.776576
 20
87.320712
 11
-307.645358
 21
87.317668
  0
LINE
  8
0
 62
7
  6
CONTINUOUS
 10
-307.455996
 20
89.601916
 11
-307.524688
 21
89.604065
  0
LINE
  8
0
 62
7
  6
CONTINUOUS
 10
-307.524688
 20
89.604065
 11
-307.594035
 21
89.605256
  0
LINE
  8
0
 62
7
  6
CONTINUOUS
 10
-307.594035
 20
89.605256
 11
-307.662729
 21
89.605487
  0
LINE
  8
0
 62
7
  6
CONTINUOUS
 10
-307.662729
 20
89.605487
 11
-307.731131
 21
89.604786
  0
LINE
  8
0
 62
7
  6
CONTINUOUS
 10
-307.731131
 20
89.604786
 11
-307.799625
 21
89.603137
  0
LINE
  8
0
 62
7
  6
CONTINUOUS
 10
-307.799625
 20
89.603137
 11
-307.868243
 21
89.600505
  0
LINE
  8
0
 62
7
  6
CONTINUOUS
 10
-307.868243
 20
89.600505
 11
-307.937019
 21
89.596828
  0
LINE
  8
0
 62
7
  6
CONTINUOUS
 10
-307.937019
 20
89.596828
 11
-308.005991
 21
89.592011
  0
LINE
  8
0
 62
7
  6
CONTINUOUS
 10
-308.005991
 20
89.592011
 11
-308.075200
 21
89.585919
  0
LINE
  8
0
 62
7
  6
CONTINUOUS
 10
-308.075200
 20
89.585919
 11
-308.143543
 21
89.578484
  0
LINE
  8
0
 62
7
  6
CONTINUOUS
 10
-308.143543
 20
89.578484
 11
-308.211715
 21
89.569394
  0
LINE
  8
0
 62
7
  6
CONTINUOUS
 10
-308.211715
 20
89.569394
 11
-308.279639
 21
89.558240
  0
LINE
  8
0
 62
7
  6
CONTINUOUS
 10
-308.279639
 20
89.558240
 11
-308.347163
 21
89.544319
  0
LINE
  8
0
 62
7
  6
CONTINUOUS
 10
-308.347163
 20
89.544319
 11
-308.413924
 21
89.526200
  0
LINE
  8
0
 62
7
  6
CONTINUOUS
 10
-308.413924
 20
89.526200
 11
-308.478420
 21
89.500048
  0
LINE
  8
0
 62
7
  6
CONTINUOUS
 10
-308.478420
 20
89.500048
 11
-308.520249
 21
89.451152
  0
LINE
  8
0
 62
7
  6
CONTINUOUS
 10
-307.645360
 20
88.135737
 11
-307.516013
 21
88.138693
  0
LINE
  8
0
 62
7
  6
CONTINUOUS
 10
-307.516013
 20
88.138693
 11
-307.386213
 21
88.148309
  0
LINE
  8
0
 62
7
  6
CONTINUOUS
 10
-307.386213
 20
88.148309
 11
-307.257472
 21
88.167774
  0
LINE
  8
0
 62
7
  6
CONTINUOUS
 10
-307.257472
 20
88.167774
 11
-307.145360
 21
88.222560
  0
LINE
  8
0
 62
7
  6
CONTINUOUS
 10
-307.145360
 20
88.222560
 11
-307.256814
 21
88.277208
  0
LINE
  8
0
 62
7
  6
CONTINUOUS
 10
-307.256814
 20
88.277208
 11
-307.384619
 21
88.296648
  0
LINE
  8
0
 62
7
  6
CONTINUOUS
 10
-307.384619
 20
88.296648
 11
-307.514143
 21
88.306346
  0
LINE
  8
0
 62
7
  6
CONTINUOUS
 10
-307.514143
 20
88.306346
 11
-307.645360
 21
88.309390
  0
LINE
  8
0
 62
7
  6
CONTINUOUS
 10
-307.645360
 20
88.309390
 11
-307.774708
 21
88.306434
  0
LINE
  8
0
 62
7
  6
CONTINUOUS
 10
-307.774708
 20
88.306434
 11
-307.904507
 21
88.296817
  0
LINE
  8
0
 62
7
  6
CONTINUOUS
 10
-307.904507
 20
88.296817
 11
-308.033249
 21
88.277349
  0
LINE
  8
0
 62
7
  6
CONTINUOUS
 10
-308.033249
 20
88.277349
 11
-308.145360
 21
88.222560
  0
LINE
  8
0
 62
7
  6
CONTINUOUS
 10
-308.145360
 20
88.222560
 11
-308.033906
 21
88.167915
  0
LINE
  8
0
 62
7
  6
CONTINUOUS
 10
-308.033906
 20
88.167915
 11
-307.906100
 21
88.148477
  0
LINE
  8
0
 62
7
  6
CONTINUOUS
 10
-307.906100
 20
88.148477
 11
-307.776576
 21
88.138780
  0
LINE
  8
0
 62
7
  6
CONTINUOUS
 10
-307.776576
 20
88.138780
 11
-307.645360
 21
88.135737
  0
LINE
  8
0
 62
7
  6
CONTINUOUS
 10
-306.610112
 20
88.509212
 11
-306.480764
 21
88.512167
  0
LINE
  8
0
 62
7
  6
CONTINUOUS
 10
-306.480764
 20
88.512167
 11
-306.350965
 21
88.521783
  0
LINE
  8
0
 62
7
  6
CONTINUOUS
 10
-306.350965
 20
88.521783
 11
-306.222223
 21
88.541248
  0
LINE
  8
0
 62
7
  6
CONTINUOUS
 10
-306.222223
 20
88.541248
 11
-306.110112
 21
88.596034
  0
LINE
  8
0
 62
7
  6
CONTINUOUS
 10
-306.110112
 20
88.596034
 11
-306.221566
 21
88.650679
  0
LINE
  8
0
 62
7
  6
CONTINUOUS
 10
-306.221566
 20
88.650679
 11
-306.349371
 21
88.670117
  0
LINE
  8
0
 62
7
  6
CONTINUOUS
 10
-306.349371
 20
88.670117
 11
-306.478895
 21
88.679814
  0
LINE
  8
0
 62
7
  6
CONTINUOUS
 10
-306.478895
 20
88.679814
 11
-306.610112
 21
88.682857
  0
LINE
  8
0
 62
7
  6
CONTINUOUS
 10
-306.610112
 20
88.682857
 11
-306.739459
 21
88.679901
  0
LINE
  8
0
 62
7
  6
CONTINUOUS
 10
-306.739459
 20
88.679901
 11
-306.869258
 21
88.670285
  0
LINE
  8
0
 62
7
  6
CONTINUOUS
 10
-306.869258
 20
88.670285
 11
-306.998000
 21
88.650820
  0
LINE
  8
0
 62
7
  6
CONTINUOUS
 10
-306.998000
 20
88.650820
 11
-307.110112
 21
88.596034
  0
LINE
  8
0
 62
7
  6
CONTINUOUS
 10
-307.110112
 20
88.596034
 11
-306.998657
 21
88.541389
  0
LINE
  8
0
 62
7
  6
CONTINUOUS
 10
-306.998657
 20
88.541389
 11
-306.870852
 21
88.521951
  0
LINE
  8
0
 62
7
  6
CONTINUOUS
 10
-306.870852
 20
88.521951
 11
-306.741328
 21
88.512255
  0
LINE
  8
0
 62
7
  6
CONTINUOUS
 10
-306.741328
 20
88.512255
 11
-306.610112
 21
88.509212
  0
LINE
  8
0
 62
7
  6
CONTINUOUS
 10
-306.610072
 20
86.944186
 11
-306.480724
 21
86.947142
  0
LINE
  8
0
 62
7
  6
CONTINUOUS
 10
-306.480724
 20
86.947142
 11
-306.350925
 21
86.956760
  0
LINE
  8
0
 62
7
  6
CONTINUOUS
 10
-306.350925
 20
86.956760
 11
-306.222183
 21
86.976227
  0
LINE
  8
0
 62
7
  6
CONTINUOUS
 10
-306.222183
 20
86.976227
 11
-306.110072
 21
87.031016
  0
LINE
  8
0
 62
7
  6
CONTINUOUS
 10
-306.110072
 20
87.031016
 11
-306.221526
 21
87.085662
  0
LINE
  8
0
 62
7
  6
CONTINUOUS
 10
-306.221526
 20
87.085662
 11
-306.349332
 21
87.105099
  0
LINE
  8
0
 62
7
  6
CONTINUOUS
 10
-306.349332
 20
87.105099
 11
-306.478856
 21
87.114796
  0
LINE
  8
0
 62
7
  6
CONTINUOUS
 10
-306.478856
 20
87.114796
 11
-306.610072
 21
87.117839
  0
LINE
  8
0
 62
7
  6
CONTINUOUS
 10
-306.610072
 20
87.117839
 11
-306.739419
 21
87.114883
  0
LINE
  8
0
 62
7
  6
CONTINUOUS
 10
-306.739419
 20
87.114883
 11
-306.869219
 21
87.105267
  0
LINE
  8
0
 62
7
  6
CONTINUOUS
 10
-306.869219
 20
87.105267
 11
-306.997961
 21
87.085802
  0
LINE
  8
0
 62
7
  6
CONTINUOUS
 10
-306.997961
 20
87.085802
 11
-307.110072
 21
87.031016
  0
LINE
  8
0
 62
7
  6
CONTINUOUS
 10
-307.110072
 20
87.031016
 11
-306.998618
 21
86.976368
  0
LINE
  8
0
 62
7
  6
CONTINUOUS
 10
-306.998618
 20
86.976368
 11
-306.870813
 21
86.956928
  0
LINE
  8
0
 62
7
  6
CONTINUOUS
 10
-306.870813
 20
86.956928
 11
-306.741289
 21
86.947230
  0
LINE
  8
0
 62
7
  6
CONTINUOUS
 10
-306.741289
 20
86.947230
 11
-306.610072
 21
86.944186
  0
LINE
  8
0
 62
7
  6
CONTINUOUS
 10
-300.847134
 20
91.879690
 11
-300.892850
 21
91.874037
  0
LINE
  8
0
 62
7
  6
CONTINUOUS
 10
-300.892850
 20
91.874037
 11
-300.938570
 21
91.867916
  0
LINE
  8
0
 62
7
  6
CONTINUOUS
 10
-300.938570
 20
91.867916
 11
-300.984289
 21
91.861285
  0
LINE
  8
0
 62
7
  6
CONTINUOUS
 10
-300.984289
 20
91.861285
 11
-301.030004
 21
91.854090
  0
LINE
  8
0
 62
7
  6
CONTINUOUS
 10
-301.030004
 20
91.854090
 11
-301.075708
 21
91.846266
  0
LINE
  8
0
 62
7
  6
CONTINUOUS
 10
-301.075708
 20
91.846266
 11
-301.121388
 21
91.837730
  0
LINE
  8
0
 62
7
  6
CONTINUOUS
 10
-301.121388
 20
91.837730
 11
-301.167027
 21
91.828375
  0
LINE
  8
0
 62
7
  6
CONTINUOUS
 10
-301.167027
 20
91.828375
 11
-301.211608
 21
91.818294
  0
LINE
  8
0
 62
7
  6
CONTINUOUS
 10
-301.211608
 20
91.818294
 11
-301.255946
 21
91.807148
  0
LINE
  8
0
 62
7
  6
CONTINUOUS
 10
-301.255946
 20
91.807148
 11
-301.299952
 21
91.794696
  0
LINE
  8
0
 62
7
  6
CONTINUOUS
 10
-301.299952
 20
91.794696
 11
-301.343479
 21
91.780582
  0
LINE
  8
0
 62
7
  6
CONTINUOUS
 10
-301.343479
 20
91.780582
 11
-301.386253
 21
91.764232
  0
LINE
  8
0
 62
7
  6
CONTINUOUS
 10
-301.386253
 20
91.764232
 11
-301.427691
 21
91.744633
  0
LINE
  8
0
 62
7
  6
CONTINUOUS
 10
-301.427691
 20
91.744633
 11
-301.466191
 21
91.719727
  0
LINE
  8
0
 62
7
  6
CONTINUOUS
 10
-301.466191
 20
91.719727
 11
-301.495662
 21
91.684532
  0
LINE
  8
0
 62
7
  6
CONTINUOUS
 10
-301.495662
 20
91.684532
 11
-301.493897
 21
91.641264
  0
LINE
  8
0
 62
7
  6
CONTINUOUS
 10
-309.202431
 20
90.431272
 11
-309.205581
 21
90.430536
  0
LINE
  8
0
 62
7
  6
CONTINUOUS
 10
-309.205581
 20
90.430536
 11
-309.208729
 21
90.429794
  0
LINE
  8
0
 62
7
  6
CONTINUOUS
 10
-309.208729
 20
90.429794
 11
-309.211876
 21
90.429048
  0
LINE
  8
0
 62
7
  6
CONTINUOUS
 10
-309.211876
 20
90.429048
 11
-309.215021
 21
90.428296
  0
LINE
  8
0
 62
7
  6
CONTINUOUS
 10
-309.215021
 20
90.428296
 11
-309.218166
 21
90.427539
  0
LINE
  8
0
 62
7
  6
CONTINUOUS
 10
-309.218166
 20
90.427539
 11
-309.221309
 21
90.426777
  0
LINE
  8
0
 62
7
  6
CONTINUOUS
 10
-309.221309
 20
90.426777
 11
-309.224451
 21
90.426009
  0
LINE
  8
0
 62
7
  6
CONTINUOUS
 10
-309.224451
 20
90.426009
 11
-309.227592
 21
90.425235
  0
LINE
  8
0
 62
7
  6
CONTINUOUS
 10
-309.227592
 20
90.425235
 11
-309.230731
 21
90.424456
  0
LINE
  8
0
 62
7
  6
CONTINUOUS
 10
-309.230731
 20
90.424456
 11
-309.233869
 21
90.423670
  0
LINE
  8
0
 62
7
  6
CONTINUOUS
 10
-309.233869
 20
90.423670
 11
-309.237006
 21
90.422879
  0
LINE
  8
0
 62
7
  6
CONTINUOUS
 10
-309.237006
 20
90.422879
 11
-309.240141
 21
90.422083
  0
LINE
  8
0
 62
7
  6
CONTINUOUS
 10
-309.240141
 20
90.422083
 11
-309.243275
 21
90.421280
  0
LINE
  8
0
 62
7
  6
CONTINUOUS
 10
-309.243275
 20
90.421280
 11
-309.246407
 21
90.420471
  0
LINE
  8
0
 62
7
  6
CONTINUOUS
 10
-309.246407
 20
90.420471
 11
-309.249538
 21
90.419655
  0
LINE
  8
0
 62
7
  6
CONTINUOUS
 10
-309.249538
 20
90.419655
 11
-309.252667
 21
90.418834
  0
LINE
  8
0
 62
7
  6
CONTINUOUS
 10
-307.319112
 20
91.287594
 11
-307.349857
 21
91.284650
  0
LINE
  8
0
 62
7
  6
CONTINUOUS
 10
-307.349857
 20
91.284650
 11
-307.380600
 21
91.281539
  0
LINE
  8
0
 62
7
  6
CONTINUOUS
 10
-307.380600
 20
91.281539
 11
-307.411339
 21
91.278255
  0
LINE
  8
0
 62
7
  6
CONTINUOUS
 10
-307.411339
 20
91.278255
 11
-307.442075
 21
91.274791
  0
LINE
  8
0
 62
7
  6
CONTINUOUS
 10
-307.442075
 20
91.274791
 11
-307.472806
 21
91.271137
  0
LINE
  8
0
 62
7
  6
CONTINUOUS
 10
-307.472806
 20
91.271137
 11
-307.503530
 21
91.267284
  0
LINE
  8
0
 62
7
  6
CONTINUOUS
 10
-307.503530
 20
91.267284
 11
-307.534248
 21
91.263221
  0
LINE
  8
0
 62
7
  6
CONTINUOUS
 10
-307.534248
 20
91.263221
 11
-307.564956
 21
91.258936
  0
LINE
  8
0
 62
7
  6
CONTINUOUS
 10
-307.564956
 20
91.258936
 11
-307.595654
 21
91.254415
  0
LINE
  8
0
 62
7
  6
CONTINUOUS
 10
-307.595654
 20
91.254415
 11
-307.626338
 21
91.249640
  0
LINE
  8
0
 62
7
  6
CONTINUOUS
 10
-307.626338
 20
91.249640
 11
-307.657007
 21
91.244594
  0
LINE
  8
0
 62
7
  6
CONTINUOUS
 10
-307.657007
 20
91.244594
 11
-307.687656
 21
91.239255
  0
LINE
  8
0
 62
7
  6
CONTINUOUS
 10
-307.687656
 20
91.239255
 11
-307.718281
 21
91.233597
  0
LINE
  8
0
 62
7
  6
CONTINUOUS
 10
-307.718281
 20
91.233597
 11
-307.748875
 21
91.227590
  0
LINE
  8
0
 62
7
  6
CONTINUOUS
 10
-307.748875
 20
91.227590
 11
-307.779432
 21
91.221197
  0
LINE
  8
0
 62
7
  6
CONTINUOUS
 10
-307.779432
 20
91.221197
 11
-307.809940
 21
91.214374
  0
LINE
  8
0
 62
7
  6
CONTINUOUS
 10
-304.641697
 20
91.615100
 11
-304.706495
 21
91.617508
  0
LINE
  8
0
 62
7
  6
CONTINUOUS
 10
-304.706495
 20
91.617508
 11
-304.771312
 21
91.619404
  0
LINE
  8
0
 62
7
  6
CONTINUOUS
 10
-304.771312
 20
91.619404
 11
-304.837089
 21
91.620814
  0
LINE
  8
0
 62
7
  6
CONTINUOUS
 10
-304.837089
 20
91.620814
 11
-304.902544
 21
91.621712
  0
LINE
  8
0
 62
7
  6
CONTINUOUS
 10
-304.902544
 20
91.621712
 11
-304.967550
 21
91.622110
  0
LINE
  8
0
 62
7
  6
CONTINUOUS
 10
-304.967550
 20
91.622110
 11
-305.032298
 21
91.622020
  0
LINE
  8
0
 62
7
  6
CONTINUOUS
 10
-305.032298
 20
91.622020
 11
-305.096958
 21
91.621445
  0
LINE
  8
0
 62
7
  6
CONTINUOUS
 10
-305.096958
 20
91.621445
 11
-305.161637
 21
91.620382
  0
LINE
  8
0
 62
7
  6
CONTINUOUS
 10
-305.161637
 20
91.620382
 11
-305.226338
 21
91.618824
  0
LINE
  8
0
 62
7
  6
CONTINUOUS
 10
-305.226338
 20
91.618824
 11
-305.291066
 21
91.616761
  0
LINE
  8
0
 62
7
  6
CONTINUOUS
 10
-305.291066
 20
91.616761
 11
-305.355822
 21
91.614180
  0
LINE
  8
0
 62
7
  6
CONTINUOUS
 10
-305.355822
 20
91.614180
 11
-305.420612
 21
91.611064
  0
LINE
  8
0
 62
7
  6
CONTINUOUS
 10
-305.420612
 20
91.611064
 11
-305.485438
 21
91.607392
  0
LINE
  8
0
 62
7
  6
CONTINUOUS
 10
-305.485438
 20
91.607392
 11
-305.550304
 21
91.603137
  0
LINE
  8
0
 62
7
  6
CONTINUOUS
 10
-305.550304
 20
91.603137
 11
-305.615213
 21
91.598267
  0
LINE
  8
0
 62
7
  6
CONTINUOUS
 10
-305.615213
 20
91.598267
 11
-305.680170
 21
91.592741
  0
LINE
  8
0
 62
7
  6
CONTINUOUS
 10
-301.494953
 20
91.645203
 11
-301.580307
 21
91.682641
  0
LINE
  8
0
 62
7
  6
CONTINUOUS
 10
-301.580307
 20
91.682641
 11
-301.669842
 21
91.710115
  0
LINE
  8
0
 62
7
  6
CONTINUOUS
 10
-301.669842
 20
91.710115
 11
-301.760961
 21
91.731937
  0
LINE
  8
0
 62
7
  6
CONTINUOUS
 10
-301.760961
 20
91.731937
 11
-301.852698
 21
91.749908
  0
LINE
  8
0
 62
7
  6
CONTINUOUS
 10
-301.852698
 20
91.749908
 11
-301.945314
 21
91.765100
  0
LINE
  8
0
 62
7
  6
CONTINUOUS
 10
-301.945314
 20
91.765100
 11
-302.037740
 21
91.777946
  0
LINE
  8
0
 62
7
  6
CONTINUOUS
 10
-302.037740
 20
91.777946
 11
-302.130867
 21
91.788961
  0
LINE
  8
0
 62
7
  6
CONTINUOUS
 10
-302.130867
 20
91.788961
 11
-302.224381
 21
91.798353
  0
LINE
  8
0
 62
7
  6
CONTINUOUS
 10
-302.224381
 20
91.798353
 11
-302.318097
 21
91.806286
  0
LINE
  8
0
 62
7
  6
CONTINUOUS
 10
-302.318097
 20
91.806286
 11
-302.412207
 21
91.812907
  0
LINE
  8
0
 62
7
  6
CONTINUOUS
 10
-302.412207
 20
91.812907
 11
-302.506107
 21
91.818278
  0
LINE
  8
0
 62
7
  6
CONTINUOUS
 10
-302.506107
 20
91.818278
 11
-302.600071
 21
91.822493
  0
LINE
  8
0
 62
7
  6
CONTINUOUS
 10
-302.600071
 20
91.822493
 11
-302.694083
 21
91.825609
  0
LINE
  8
0
 62
7
  6
CONTINUOUS
 10
-302.694083
 20
91.825609
 11
-302.788126
 21
91.827662
  0
LINE
  8
0
 62
7
  6
CONTINUOUS
 10
-302.788126
 20
91.827662
 11
-302.882681
 21
91.828680
  0
LINE
  8
0
 62
7
  6
CONTINUOUS
 10
-302.882681
 20
91.828680
 11
-302.976627
 21
91.828663
  0
LINE
  8
0
 62
7
  6
CONTINUOUS
 10
-300.000000
 20
90.694194
 11
-300.098298
 21
90.693634
  0
LINE
  8
0
 62
7
  6
CONTINUOUS
 10
-300.098298
 20
90.693634
 11
-300.196670
 21
90.691945
  0
LINE
  8
0
 62
7
  6
CONTINUOUS
 10
-300.196670
 20
90.691945
 11
-300.295144
 21
90.689102
  0
LINE
  8
0
 62
7
  6
CONTINUOUS
 10
-300.295144
 20
90.689102
 11
-300.393743
 21
90.685060
  0
LINE
  8
0
 62
7
  6
CONTINUOUS
 10
-300.393743
 20
90.685060
 11
-300.492495
 21
90.679755
  0
LINE
  8
0
 62
7
  6
CONTINUOUS
 10
-300.492495
 20
90.679755
 11
-300.591430
 21
90.673093
  0
LINE
  8
0
 62
7
  6
CONTINUOUS
 10
-300.591430
 20
90.673093
 11
-300.690577
 21
90.664949
  0
LINE
  8
0
 62
7
  6
CONTINUOUS
 10
-300.690577
 20
90.664949
 11
-300.788836
 21
90.655268
  0
LINE
  8
0
 62
7
  6
CONTINUOUS
 10
-300.788836
 20
90.655268
 11
-300.886918
 21
90.643786
  0
LINE
  8
0
 62
7
  6
CONTINUOUS
 10
-300.886918
 20
90.643786
 11
-300.984762
 21
90.630203
  0
LINE
  8
0
 62
7
  6
CONTINUOUS
 10
-300.984762
 20
90.630203
 11
-301.082272
 21
90.614075
  0
LINE
  8
0
 62
7
  6
CONTINUOUS
 10
-301.082272
 20
90.614075
 11
-301.179282
 21
90.594693
  0
LINE
  8
0
 62
7
  6
CONTINUOUS
 10
-301.179282
 20
90.594693
 11
-301.275463
 21
90.570808
  0
LINE
  8
0
 62
7
  6
CONTINUOUS
 10
-301.275463
 20
90.570808
 11
-301.369950
 21
90.539813
  0
LINE
  8
0
 62
7
  6
CONTINUOUS
 10
-301.369950
 20
90.539813
 11
-301.457946
 21
90.494971
  0
LINE
  8
0
 62
7
  6
CONTINUOUS
 10
-301.457946
 20
90.494971
 11
-301.495558
 21
90.413695
  0
LINE
  8
0
 62
7
  6
CONTINUOUS
 10
-301.494953
 20
90.414200
 11
-301.668536
 21
90.478762
  0
LINE
  8
0
 62
7
  6
CONTINUOUS
 10
-301.668536
 20
90.478762
 11
-301.849937
 21
90.518411
  0
LINE
  8
0
 62
7
  6
CONTINUOUS
 10
-301.849937
 20
90.518411
 11
-302.033632
 21
90.546415
  0
LINE
  8
0
 62
7
  6
CONTINUOUS
 10
-302.033632
 20
90.546415
 11
-302.218279
 21
90.566784
  0
LINE
  8
0
 62
7
  6
CONTINUOUS
 10
-302.218279
 20
90.566784
 11
-302.402821
 21
90.581301
  0
LINE
  8
0
 62
7
  6
CONTINUOUS
 10
-302.402821
 20
90.581301
 11
-302.588551
 21
90.591034
  0
LINE
  8
0
 62
7
  6
CONTINUOUS
 10
-302.588551
 20
90.591034
 11
-302.774488
 21
90.596426
  0
LINE
  8
0
 62
7
  6
CONTINUOUS
 10
-302.774488
 20
90.596426
 11
-302.960420
 21
90.597736
  0
LINE
  8
0
 62
7
  6
CONTINUOUS
 10
-302.960420
 20
90.597736
 11
-303.146382
 21
90.595025
  0
LINE
  8
0
 62
7
  6
CONTINUOUS
 10
-303.146382
 20
90.595025
 11
-303.332100
 21
90.588174
  0
LINE
  8
0
 62
7
  6
CONTINUOUS
 10
-303.332100
 20
90.588174
 11
-303.517752
 21
90.576831
  0
LINE
  8
0
 62
7
  6
CONTINUOUS
 10
-303.517752
 20
90.576831
 11
-303.703093
 21
90.560343
  0
LINE
  8
0
 62
7
  6
CONTINUOUS
 10
-303.703093
 20
90.560343
 11
-303.887972
 21
90.537491
  0
LINE
  8
0
 62
7
  6
CONTINUOUS
 10
-303.887972
 20
90.537491
 11
-304.072106
 21
90.505805
  0
LINE
  8
0
 62
7
  6
CONTINUOUS
 10
-304.072106
 20
90.505805
 11
-304.252562
 21
90.459613
  0
LINE
  8
0
 62
7
  6
CONTINUOUS
 10
-304.252562
 20
90.459613
 11
-304.414749
 21
90.372058
  0
LINE
  8
0
 62
7
  6
CONTINUOUS
 10
-304.414892
 20
90.371358
 11
-304.551136
 21
90.379827
  0
LINE
  8
0
 62
7
  6
CONTINUOUS
 10
-304.551136
 20
90.379827
 11
-304.687522
 21
90.385838
  0
LINE
  8
0
 62
7
  6
CONTINUOUS
 10
-304.687522
 20
90.385838
 11
-304.824002
 21
90.389556
  0
LINE
  8
0
 62
7
  6
CONTINUOUS
 10
-304.824002
 20
90.389556
 11
-304.960938
 21
90.391074
  0
LINE
  8
0
 62
7
  6
CONTINUOUS
 10
-304.960938
 20
90.391074
 11
-305.096947
 21
90.390427
  0
LINE
  8
0
 62
7
  6
CONTINUOUS
 10
-305.096947
 20
90.390427
 11
-305.232907
 21
90.387619
  0
LINE
  8
0
 62
7
  6
CONTINUOUS
 10
-305.232907
 20
90.387619
 11
-305.369197
 21
90.382562
  0
LINE
  8
0
 62
7
  6
CONTINUOUS
 10
-305.369197
 20
90.382562
 11
-305.505928
 21
90.375093
  0
LINE
  8
0
 62
7
  6
CONTINUOUS
 10
-305.505928
 20
90.375093
 11
-305.642083
 21
90.365043
  0
LINE
  8
0
 62
7
  6
CONTINUOUS
 10
-305.642083
 20
90.365043
 11
-305.778021
 21
90.352055
  0
LINE
  8
0
 62
7
  6
CONTINUOUS
 10
-305.778021
 20
90.352055
 11
-305.913649
 21
90.335597
  0
LINE
  8
0
 62
7
  6
CONTINUOUS
 10
-305.913649
 20
90.335597
 11
-306.048816
 21
90.314787
  0
LINE
  8
0
 62
7
  6
CONTINUOUS
 10
-306.048816
 20
90.314787
 11
-306.183223
 21
90.288013
  0
LINE
  8
0
 62
7
  6
CONTINUOUS
 10
-306.183223
 20
90.288013
 11
-306.315027
 21
90.252053
  0
LINE
  8
0
 62
7
  6
CONTINUOUS
 10
-306.315027
 20
90.252053
 11
-306.439818
 21
90.196091
  0
LINE
  8
0
 62
7
  6
CONTINUOUS
 10
-306.439818
 20
90.196091
 11
-306.465715
 21
90.085966
  0
LINE
  8
0
 62
7
  6
CONTINUOUS
 10
-307.946810
 20
89.708731
 11
-308.055191
 21
89.704135
  0
LINE
  8
0
 62
7
  6
CONTINUOUS
 10
-308.055191
 20
89.704135
 11
-308.163790
 21
89.697994
  0
LINE
  8
0
 62
7
  6
CONTINUOUS
 10
-308.163790
 20
89.697994
 11
-308.272650
 21
89.690175
  0
LINE
  8
0
 62
7
  6
CONTINUOUS
 10
-308.272650
 20
89.690175
 11
-308.380727
 21
89.680596
  0
LINE
  8
0
 62
7
  6
CONTINUOUS
 10
-308.380727
 20
89.680596
 11
-308.488624
 21
89.668987
  0
LINE
  8
0
 62
7
  6
CONTINUOUS
 10
-308.488624
 20
89.668987
 11
-308.596276
 21
89.655016
  0
LINE
  8
0
 62
7
  6
CONTINUOUS
 10
-308.596276
 20
89.655016
 11
-308.703581
 21
89.638176
  0
LINE
  8
0
 62
7
  6
CONTINUOUS
 10
-308.703581
 20
89.638176
 11
-308.810359
 21
89.617646
  0
LINE
  8
0
 62
7
  6
CONTINUOUS
 10
-308.810359
 20
89.617646
 11
-308.916242
 21
89.591931
  0
LINE
  8
0
 62
7
  6
CONTINUOUS
 10
-308.916242
 20
89.591931
 11
-309.020182
 21
89.557740
  0
LINE
  8
0
 62
7
  6
CONTINUOUS
 10
-309.020182
 20
89.557740
 11
-309.115233
 21
89.505512
  0
LINE
  8
0
 62
7
  6
CONTINUOUS
 10
-309.115233
 20
89.505512
 11
-309.126969
 21
89.412908
  0
LINE
  8
0
 62
7
  6
CONTINUOUS
 10
-309.126969
 20
89.412908
 11
-309.036184
 21
89.356017
  0
LINE
  8
0
 62
7
  6
CONTINUOUS
 10
-309.036184
 20
89.356017
 11
-308.934586
 21
89.320428
  0
LINE
  8
0
 62
7
  6
CONTINUOUS
 10
-308.934586
 20
89.320428
 11
-308.829988
 21
89.293792
  0
LINE
  8
0
 62
7
  6
CONTINUOUS
 10
-308.829988
 20
89.293792
 11
-308.724316
 21
89.272624
  0
LINE
  8
0
 62
7
  6
CONTINUOUS
 10
-308.724711
 20
89.272593
 11
-308.820778
 21
89.262556
  0
LINE
  8
0
 62
7
  6
CONTINUOUS
 10
-308.820778
 20
89.262556
 11
-308.916658
 21
89.250714
  0
LINE
  8
0
 62
7
  6
CONTINUOUS
 10
-308.916658
 20
89.250714
 11
-309.012286
 21
89.236753
  0
LINE
  8
0
 62
7
  6
CONTINUOUS
 10
-309.012286
 20
89.236753
 11
-309.107557
 21
89.220199
  0
LINE
  8
0
 62
7
  6
CONTINUOUS
 10
-309.107557
 20
89.220199
 11
-309.202285
 21
89.200290
  0
LINE
  8
0
 62
7
  6
CONTINUOUS
 10
-309.202285
 20
89.200290
 11
-309.296091
 21
89.175656
  0
LINE
  8
0
 62
7
  6
CONTINUOUS
 10
-309.296091
 20
89.175656
 11
-309.387912
 21
89.143334
  0
LINE
  8
0
 62
7
  6
CONTINUOUS
 10
-309.387912
 20
89.143334
 11
-309.471483
 21
89.095087
  0
LINE
  8
0
 62
7
  6
CONTINUOUS
 10
-309.471483
 20
89.095087
 11
-309.487852
 21
89.011449
  0
LINE
  8
0
 62
7
  6
CONTINUOUS
 10
-309.487852
 20
89.011449
 11
-309.410922
 21
88.956111
  0
LINE
  8
0
 62
7
  6
CONTINUOUS
 10
-309.410922
 20
88.956111
 11
-309.321408
 21
88.921273
  0
LINE
  8
0
 62
7
  6
CONTINUOUS
 10
-309.321408
 20
88.921273
 11
-309.229290
 21
88.895275
  0
LINE
  8
0
 62
7
  6
CONTINUOUS
 10
-309.229290
 20
88.895275
 11
-309.135277
 21
88.874296
  0
LINE
  8
0
 62
7
  6
CONTINUOUS
 10
-309.135277
 20
88.874296
 11
-309.040692
 21
88.856953
  0
LINE
  8
0
 62
7
  6
CONTINUOUS
 10
-309.040692
 20
88.856953
 11
-308.945374
 21
88.842309
  0
LINE
  8
0
 62
7
  6
CONTINUOUS
 10
-308.945374
 20
88.842309
 11
-308.850124
 21
88.829938
  0
LINE
  8
0
 62
7
  6
CONTINUOUS
 10
-306.467241
 20
90.086335
 11
-306.587300
 21
90.087490
  0
LINE
  8
0
 62
7
  6
CONTINUOUS
 10
-306.587300
 20
90.087490
 11
-306.706633
 21
90.086980
  0
LINE
  8
0
 62
7
  6
CONTINUOUS
 10
-306.706633
 20
90.086980
 11
-306.825897
 21
90.084810
  0
LINE
  8
0
 62
7
  6
CONTINUOUS
 10
-306.825897
 20
90.084810
 11
-306.945361
 21
90.080931
  0
LINE
  8
0
 62
7
  6
CONTINUOUS
 10
-306.945361
 20
90.080931
 11
-307.065087
 21
90.075248
  0
LINE
  8
0
 62
7
  6
CONTINUOUS
 10
-307.065087
 20
90.075248
 11
-307.185140
 21
90.067620
  0
LINE
  8
0
 62
7
  6
CONTINUOUS
 10
-307.185140
 20
90.067620
 11
-307.304498
 21
90.057929
  0
LINE
  8
0
 62
7
  6
CONTINUOUS
 10
-307.304498
 20
90.057929
 11
-307.423665
 21
90.045880
  0
LINE
  8
0
 62
7
  6
CONTINUOUS
 10
-307.423665
 20
90.045880
 11
-307.542565
 21
90.031076
  0
LINE
  8
0
 62
7
  6
CONTINUOUS
 10
-307.542565
 20
90.031076
 11
-307.661080
 21
90.012895
  0
LINE
  8
0
 62
7
  6
CONTINUOUS
 10
-307.661080
 20
90.012895
 11
-307.778998
 21
89.990285
  0
LINE
  8
0
 62
7
  6
CONTINUOUS
 10
-307.778998
 20
89.990285
 11
-307.895837
 21
89.961206
  0
LINE
  8
0
 62
7
  6
CONTINUOUS
 10
-307.895837
 20
89.961206
 11
-308.008825
 21
89.921136
  0
LINE
  8
0
 62
7
  6
CONTINUOUS
 10
-308.008825
 20
89.921136
 11
-308.103861
 21
89.850799
  0
LINE
  8
0
 62
7
  6
CONTINUOUS
 10
-308.103861
 20
89.850799
 11
-308.053705
 21
89.756286
  0
LINE
  8
0
 62
7
  6
CONTINUOUS
 10
-308.053705
 20
89.756286
 11
-307.945160
 21
89.708295
  0
LINE
  8
0
 62
7
  6
CONTINUOUS
 10
-298.505047
 20
90.414200
 11
-298.331464
 21
90.478762
  0
LINE
  8
0
 62
7
  6
CONTINUOUS
 10
-298.331464
 20
90.478762
 11
-298.150063
 21
90.518411
  0
LINE
  8
0
 62
7
  6
CONTINUOUS
 10
-298.150063
 20
90.518411
 11
-297.966368
 21
90.546415
  0
LINE
  8
0
 62
7
  6
CONTINUOUS
 10
-297.966368
 20
90.546415
 11
-297.781721
 21
90.566784
  0
LINE
  8
0
 62
7
  6
CONTINUOUS
 10
-297.781721
 20
90.566784
 11
-297.597179
 21
90.581301
  0
LINE
  8
0
 62
7
  6
CONTINUOUS
 10
-297.597179
 20
90.581301
 11
-297.411449
 21
90.591034
  0
LINE
  8
0
 62
7
  6
CONTINUOUS
 10
-297.411449
 20
90.591034
 11
-297.225512
 21
90.596426
  0
LINE
  8
0
 62
7
  6
CONTINUOUS
 10
-297.225512
 20
90.596426
 11
-297.039580
 21
90.597736
  0
LINE
  8
0
 62
7
  6
CONTINUOUS
 10
-297.039580
 20
90.597736
 11
-296.853618
 21
90.595025
  0
LINE
  8
0
 62
7
  6
CONTINUOUS
 10
-296.853618
 20
90.595025
 11
-296.667900
 21
90.588174
  0
LINE
  8
0
 62
7
  6
CONTINUOUS
 10
-296.667900
 20
90.588174
 11
-296.482248
 21
90.576831
  0
LINE
  8
0
 62
7
  6
CONTINUOUS
 10
-296.482248
 20
90.576831
 11
-296.296907
 21
90.560343
  0
LINE
  8
0
 62
7
  6
CONTINUOUS
 10
-296.296907
 20
90.560343
 11
-296.112028
 21
90.537491
  0
LINE
  8
0
 62
7
  6
CONTINUOUS
 10
-296.112028
 20
90.537491
 11
-295.927894
 21
90.505805
  0
LINE
  8
0
 62
7
  6
CONTINUOUS
 10
-295.927894
 20
90.505805
 11
-295.747438
 21
90.459613
  0
LINE
  8
0
 62
7
  6
CONTINUOUS
 10
-295.747438
 20
90.459613
 11
-295.585251
 21
90.372058
  0
LINE
  8
0
 62
7
  6
CONTINUOUS
 10
-295.585108
 20
90.371358
 11
-295.448864
 21
90.379827
  0
LINE
  8
0
 62
7
  6
CONTINUOUS
 10
-295.448864
 20
90.379827
 11
-295.312478
 21
90.385838
  0
LINE
  8
0
 62
7
  6
CONTINUOUS
 10
-295.312478
 20
90.385838
 11
-295.175998
 21
90.389556
  0
LINE
  8
0
 62
7
  6
CONTINUOUS
 10
-295.175998
 20
90.389556
 11
-295.039062
 21
90.391074
  0
LINE
  8
0
 62
7
  6
CONTINUOUS
 10
-295.039062
 20
90.391074
 11
-294.903053
 21
90.390427
  0
LINE
  8
0
 62
7
  6
CONTINUOUS
 10
-294.903053
 20
90.390427
 11
-294.767093
 21
90.387619
  0
LINE
  8
0
 62
7
  6
CONTINUOUS
 10
-294.767093
 20
90.387619
 11
-294.630803
 21
90.382562
  0
LINE
  8
0
 62
7
  6
CONTINUOUS
 10
-294.630803
 20
90.382562
 11
-294.494072
 21
90.375093
  0
LINE
  8
0
 62
7
  6
CONTINUOUS
 10
-294.494072
 20
90.375093
 11
-294.357917
 21
90.365043
  0
LINE
  8
0
 62
7
  6
CONTINUOUS
 10
-294.357917
 20
90.365043
 11
-294.221979
 21
90.352055
  0
LINE
  8
0
 62
7
  6
CONTINUOUS
 10
-294.221979
 20
90.352055
 11
-294.086351
 21
90.335597
  0
LINE
  8
0
 62
7
  6
CONTINUOUS
 10
-294.086351
 20
90.335597
 11
-293.951184
 21
90.314787
  0
LINE
  8
0
 62
7
  6
CONTINUOUS
 10
-293.951184
 20
90.314787
 11
-293.816777
 21
90.288013
  0
LINE
  8
0
 62
7
  6
CONTINUOUS
 10
-293.816777
 20
90.288013
 11
-293.684973
 21
90.252053
  0
LINE
  8
0
 62
7
  6
CONTINUOUS
 10
-293.684973
 20
90.252053
 11
-293.560182
 21
90.196091
  0
LINE
  8
0
 62
7
  6
CONTINUOUS
 10
-293.560182
 20
90.196091
 11
-293.534285
 21
90.085966
  0
LINE
  8
0
 62
7
  6
CONTINUOUS
 10
-293.532759
 20
90.086335
 11
-293.412700
 21
90.087490
  0
LINE
  8
0
 62
7
  6
CONTINUOUS
 10
-293.412700
 20
90.087490
 11
-293.293367
 21
90.086980
  0
LINE
  8
0
 62
7
  6
CONTINUOUS
 10
-293.293367
 20
90.086980
 11
-293.174103
 21
90.084810
  0
LINE
  8
0
 62
7
  6
CONTINUOUS
 10
-293.174103
 20
90.084810
 11
-293.054639
 21
90.080931
  0
LINE
  8
0
 62
7
  6
CONTINUOUS
 10
-293.054639
 20
90.080931
 11
-292.934913
 21
90.075248
  0
LINE
  8
0
 62
7
  6
CONTINUOUS
 10
-292.934913
 20
90.075248
 11
-292.814860
 21
90.067620
  0
LINE
  8
0
 62
7
  6
CONTINUOUS
 10
-292.814860
 20
90.067620
 11
-292.695502
 21
90.057929
  0
LINE
  8
0
 62
7
  6
CONTINUOUS
 10
-292.695502
 20
90.057929
 11
-292.576335
 21
90.045880
  0
LINE
  8
0
 62
7
  6
CONTINUOUS
 10
-292.576335
 20
90.045880
 11
-292.457435
 21
90.031076
  0
LINE
  8
0
 62
7
  6
CONTINUOUS
 10
-292.457435
 20
90.031076
 11
-292.338920
 21
90.012895
  0
LINE
  8
0
 62
7
  6
CONTINUOUS
 10
-292.338920
 20
90.012895
 11
-292.221002
 21
89.990285
  0
LINE
  8
0
 62
7
  6
CONTINUOUS
 10
-292.221002
 20
89.990285
 11
-292.104163
 21
89.961206
  0
LINE
  8
0
 62
7
  6
CONTINUOUS
 10
-292.104163
 20
89.961206
 11
-291.991175
 21
89.921136
  0
LINE
  8
0
 62
7
  6
CONTINUOUS
 10
-291.991175
 20
89.921136
 11
-291.896139
 21
89.850799
  0
LINE
  8
0
 62
7
  6
CONTINUOUS
 10
-291.896139
 20
89.850799
 11
-291.946295
 21
89.756286
  0
LINE
  8
0
 62
7
  6
CONTINUOUS
 10
-291.946295
 20
89.756286
 11
-292.054840
 21
89.708295
  0
LINE
  8
0
 62
7
  6
CONTINUOUS
 10
-292.053190
 20
89.708731
 11
-291.944809
 21
89.704135
  0
LINE
  8
0
 62
7
  6
CONTINUOUS
 10
-291.944809
 20
89.704135
 11
-291.836210
 21
89.697994
  0
LINE
  8
0
 62
7
  6
CONTINUOUS
 10
-291.836210
 20
89.697994
 11
-291.727350
 21
89.690175
  0
LINE
  8
0
 62
7
  6
CONTINUOUS
 10
-291.727350
 20
89.690175
 11
-291.619273
 21
89.680596
  0
LINE
  8
0
 62
7
  6
CONTINUOUS
 10
-291.619273
 20
89.680596
 11
-291.511376
 21
89.668987
  0
LINE
  8
0
 62
7
  6
CONTINUOUS
 10
-291.511376
 20
89.668987
 11
-291.403724
 21
89.655016
  0
LINE
  8
0
 62
7
  6
CONTINUOUS
 10
-291.403724
 20
89.655016
 11
-291.296419
 21
89.638176
  0
LINE
  8
0
 62
7
  6
CONTINUOUS
 10
-291.296419
 20
89.638176
 11
-291.189641
 21
89.617646
  0
LINE
  8
0
 62
7
  6
CONTINUOUS
 10
-291.189641
 20
89.617646
 11
-291.083758
 21
89.591931
  0
LINE
  8
0
 62
7
  6
CONTINUOUS
 10
-291.083758
 20
89.591931
 11
-290.979818
 21
89.557740
  0
LINE
  8
0
 62
7
  6
CONTINUOUS
 10
-290.979818
 20
89.557740
 11
-290.884767
 21
89.505512
  0
LINE
  8
0
 62
7
  6
CONTINUOUS
 10
-290.884767
 20
89.505512
 11
-290.873031
 21
89.412908
  0
LINE
  8
0
 62
7
  6
CONTINUOUS
 10
-290.873031
 20
89.412908
 11
-290.963816
 21
89.356017
  0
LINE
  8
0
 62
7
  6
CONTINUOUS
 10
-290.963816
 20
89.356017
 11
-291.065414
 21
89.320428
  0
LINE
  8
0
 62
7
  6
CONTINUOUS
 10
-291.065414
 20
89.320428
 11
-291.170012
 21
89.293792
  0
LINE
  8
0
 62
7
  6
CONTINUOUS
 10
-291.170012
 20
89.293792
 11
-291.275684
 21
89.272624
  0
LINE
  8
0
 62
7
  6
CONTINUOUS
 10
-291.275289
 20
89.272593
 11
-291.179222
 21
89.262556
  0
LINE
  8
0
 62
7
  6
CONTINUOUS
 10
-291.179222
 20
89.262556
 11
-291.083342
 21
89.250714
  0
LINE
  8
0
 62
7
  6
CONTINUOUS
 10
-291.083342
 20
89.250714
 11
-290.987714
 21
89.236753
  0
LINE
  8
0
 62
7
  6
CONTINUOUS
 10
-290.987714
 20
89.236753
 11
-290.892443
 21
89.220199
  0
LINE
  8
0
 62
7
  6
CONTINUOUS
 10
-290.892443
 20
89.220199
 11
-290.797715
 21
89.200290
  0
LINE
  8
0
 62
7
  6
CONTINUOUS
 10
-290.797715
 20
89.200290
 11
-290.703909
 21
89.175656
  0
LINE
  8
0
 62
7
  6
CONTINUOUS
 10
-290.703909
 20
89.175656
 11
-290.612088
 21
89.143334
  0
LINE
  8
0
 62
7
  6
CONTINUOUS
 10
-290.612088
 20
89.143334
 11
-290.528517
 21
89.095087
  0
LINE
  8
0
 62
7
  6
CONTINUOUS
 10
-290.528517
 20
89.095087
 11
-290.512148
 21
89.011449
  0
LINE
  8
0
 62
7
  6
CONTINUOUS
 10
-290.512148
 20
89.011449
 11
-290.589078
 21
88.956111
  0
LINE
  8
0
 62
7
  6
CONTINUOUS
 10
-290.589078
 20
88.956111
 11
-290.678592
 21
88.921273
  0
LINE
  8
0
 62
7
  6
CONTINUOUS
 10
-290.678592
 20
88.921273
 11
-290.770710
 21
88.895275
  0
LINE
  8
0
 62
7
  6
CONTINUOUS
 10
-290.770710
 20
88.895275
 11
-290.864723
 21
88.874296
  0
LINE
  8
0
 62
7
  6
CONTINUOUS
 10
-290.864723
 20
88.874296
 11
-290.959308
 21
88.856953
  0
LINE
  8
0
 62
7
  6
CONTINUOUS
 10
-290.959308
 20
88.856953
 11
-291.054626
 21
88.842309
  0
LINE
  8
0
 62
7
  6
CONTINUOUS
 10
-291.054626
 20
88.842309
 11
-291.149876
 21
88.829938
  0
LINE
  8
0
 62
7
  6
CONTINUOUS
 10
-291.525217
 20
89.172169
 11
-291.497976
 21
89.168985
  0
LINE
  8
0
 62
7
  6
CONTINUOUS
 10
-291.497976
 20
89.168985
 11
-291.470731
 21
89.165533
  0
LINE
  8
0
 62
7
  6
CONTINUOUS
 10
-291.470731
 20
89.165533
 11
-291.443484
 21
89.161789
  0
LINE
  8
0
 62
7
  6
CONTINUOUS
 10
-291.443484
 20
89.161789
 11
-291.416236
 21
89.157723
  0
LINE
  8
0
 62
7
  6
CONTINUOUS
 10
-291.416236
 20
89.157723
 11
-291.388992
 21
89.153300
  0
LINE
  8
0
 62
7
  6
CONTINUOUS
 10
-291.388992
 20
89.153300
 11
-291.361757
 21
89.148477
  0
LINE
  8
0
 62
7
  6
CONTINUOUS
 10
-291.361757
 20
89.148477
 11
-291.334538
 21
89.143195
  0
LINE
  8
0
 62
7
  6
CONTINUOUS
 10
-291.334538
 20
89.143195
 11
-291.307348
 21
89.137380
  0
LINE
  8
0
 62
7
  6
CONTINUOUS
 10
-291.307348
 20
89.137380
 11
-291.280211
 21
89.130932
  0
LINE
  8
0
 62
7
  6
CONTINUOUS
 10
-291.280211
 20
89.130932
 11
-291.253162
 21
89.123707
  0
LINE
  8
0
 62
7
  6
CONTINUOUS
 10
-291.253162
 20
89.123707
 11
-291.226274
 21
89.115494
  0
LINE
  8
0
 62
7
  6
CONTINUOUS
 10
-291.226274
 20
89.115494
 11
-291.200587
 21
89.106314
  0
LINE
  8
0
 62
7
  6
CONTINUOUS
 10
-291.200587
 20
89.106314
 11
-291.175544
 21
89.095431
  0
LINE
  8
0
 62
7
  6
CONTINUOUS
 10
-291.175544
 20
89.095431
 11
-291.151818
 21
89.081867
  0
LINE
  8
0
 62
7
  6
CONTINUOUS
 10
-291.151818
 20
89.081867
 11
-291.131467
 21
89.062979
  0
LINE
  8
0
 62
7
  6
CONTINUOUS
 10
-291.131467
 20
89.062979
 11
-291.125789
 21
89.038074
  0
LINE
  8
0
 62
7
  6
CONTINUOUS
 10
-291.999997
 20
87.726703
 11
-292.129345
 21
87.729659
  0
LINE
  8
0
 62
7
  6
CONTINUOUS
 10
-292.129345
 20
87.729659
 11
-292.259144
 21
87.739276
  0
LINE
  8
0
 62
7
  6
CONTINUOUS
 10
-292.259144
 20
87.739276
 11
-292.387885
 21
87.758744
  0
LINE
  8
0
 62
7
  6
CONTINUOUS
 10
-292.387885
 20
87.758744
 11
-292.499997
 21
87.813533
  0
LINE
  8
0
 62
7
  6
CONTINUOUS
 10
-292.499997
 20
87.813533
 11
-292.388542
 21
87.868178
  0
LINE
  8
0
 62
7
  6
CONTINUOUS
 10
-292.388542
 20
87.868178
 11
-292.260737
 21
87.887616
  0
LINE
  8
0
 62
7
  6
CONTINUOUS
 10
-292.260737
 20
87.887616
 11
-292.131213
 21
87.897312
  0
LINE
  8
0
 62
7
  6
CONTINUOUS
 10
-292.131213
 20
87.897312
 11
-291.999997
 21
87.900355
  0
LINE
  8
0
 62
7
  6
CONTINUOUS
 10
-291.999997
 20
87.900355
 11
-291.870650
 21
87.897400
  0
LINE
  8
0
 62
7
  6
CONTINUOUS
 10
-291.870650
 20
87.897400
 11
-291.740850
 21
87.887784
  0
LINE
  8
0
 62
7
  6
CONTINUOUS
 10
-291.740850
 20
87.887784
 11
-291.612108
 21
87.868319
  0
LINE
  8
0
 62
7
  6
CONTINUOUS
 10
-291.612108
 20
87.868319
 11
-291.499997
 21
87.813533
  0
LINE
  8
0
 62
7
  6
CONTINUOUS
 10
-291.499997
 20
87.813533
 11
-291.611450
 21
87.758885
  0
LINE
  8
0
 62
7
  6
CONTINUOUS
 10
-291.611450
 20
87.758885
 11
-291.739256
 21
87.739445
  0
LINE
  8
0
 62
7
  6
CONTINUOUS
 10
-291.739256
 20
87.739445
 11
-291.868779
 21
87.729746
  0
LINE
  8
0
 62
7
  6
CONTINUOUS
 10
-291.868779
 20
87.729746
 11
-291.999997
 21
87.726703
  0
LINE
  8
0
 62
7
  6
CONTINUOUS
 10
-292.354640
 20
88.135737
 11
-292.483987
 21
88.138693
  0
LINE
  8
0
 62
7
  6
CONTINUOUS
 10
-292.483987
 20
88.138693
 11
-292.613787
 21
88.148309
  0
LINE
  8
0
 62
7
  6
CONTINUOUS
 10
-292.613787
 20
88.148309
 11
-292.742528
 21
88.167774
  0
LINE
  8
0
 62
7
  6
CONTINUOUS
 10
-292.742528
 20
88.167774
 11
-292.854640
 21
88.222560
  0
LINE
  8
0
 62
7
  6
CONTINUOUS
 10
-292.854640
 20
88.222560
 11
-292.743186
 21
88.277208
  0
LINE
  8
0
 62
7
  6
CONTINUOUS
 10
-292.743186
 20
88.277208
 11
-292.615381
 21
88.296648
  0
LINE
  8
0
 62
7
  6
CONTINUOUS
 10
-292.615381
 20
88.296648
 11
-292.485857
 21
88.306346
  0
LINE
  8
0
 62
7
  6
CONTINUOUS
 10
-292.485857
 20
88.306346
 11
-292.354640
 21
88.309390
  0
LINE
  8
0
 62
7
  6
CONTINUOUS
 10
-292.354640
 20
88.309390
 11
-292.225292
 21
88.306434
  0
LINE
  8
0
 62
7
  6
CONTINUOUS
 10
-292.225292
 20
88.306434
 11
-292.095493
 21
88.296817
  0
LINE
  8
0
 62
7
  6
CONTINUOUS
 10
-292.095493
 20
88.296817
 11
-291.966751
 21
88.277349
  0
LINE
  8
0
 62
7
  6
CONTINUOUS
 10
-291.966751
 20
88.277349
 11
-291.854640
 21
88.222560
  0
LINE
  8
0
 62
7
  6
CONTINUOUS
 10
-291.854640
 20
88.222560
 11
-291.966094
 21
88.167915
  0
LINE
  8
0
 62
7
  6
CONTINUOUS
 10
-291.966094
 20
88.167915
 11
-292.093900
 21
88.148477
  0
LINE
  8
0
 62
7
  6
CONTINUOUS
 10
-292.093900
 20
88.148477
 11
-292.223424
 21
88.138780
  0
LINE
  8
0
 62
7
  6
CONTINUOUS
 10
-292.223424
 20
88.138780
 11
-292.354640
 21
88.135737
  0
LINE
  8
0
 62
7
  6
CONTINUOUS
 10
-292.544004
 20
89.601916
 11
-292.475312
 21
89.604065
  0
LINE
  8
0
 62
7
  6
CONTINUOUS
 10
-292.475312
 20
89.604065
 11
-292.405965
 21
89.605256
  0
LINE
  8
0
 62
7
  6
CONTINUOUS
 10
-292.405965
 20
89.605256
 11
-292.337271
 21
89.605487
  0
LINE
  8
0
 62
7
  6
CONTINUOUS
 10
-292.337271
 20
89.605487
 11
-292.268869
 21
89.604786
  0
LINE
  8
0
 62
7
  6
CONTINUOUS
 10
-292.268869
 20
89.604786
 11
-292.200375
 21
89.603137
  0
LINE
  8
0
 62
7
  6
CONTINUOUS
 10
-292.200375
 20
89.603137
 11
-292.131757
 21
89.600505
  0
LINE
  8
0
 62
7
  6
CONTINUOUS
 10
-292.131757
 20
89.600505
 11
-292.062981
 21
89.596828
  0
LINE
  8
0
 62
7
  6
CONTINUOUS
 10
-292.062981
 20
89.596828
 11
-291.994009
 21
89.592011
  0
LINE
  8
0
 62
7
  6
CONTINUOUS
 10
-291.994009
 20
89.592011
 11
-291.924800
 21
89.585919
  0
LINE
  8
0
 62
7
  6
CONTINUOUS
 10
-291.924800
 20
89.585919
 11
-291.856457
 21
89.578484
  0
LINE
  8
0
 62
7
  6
CONTINUOUS
 10
-291.856457
 20
89.578484
 11
-291.788285
 21
89.569394
  0
LINE
  8
0
 62
7
  6
CONTINUOUS
 10
-291.788285
 20
89.569394
 11
-291.720361
 21
89.558240
  0
LINE
  8
0
 62
7
  6
CONTINUOUS
 10
-291.720361
 20
89.558240
 11
-291.652837
 21
89.544319
  0
LINE
  8
0
 62
7
  6
CONTINUOUS
 10
-291.652837
 20
89.544319
 11
-291.586076
 21
89.526200
  0
LINE
  8
0
 62
7
  6
CONTINUOUS
 10
-291.586076
 20
89.526200
 11
-291.521580
 21
89.500048
  0
LINE
  8
0
 62
7
  6
CONTINUOUS
 10
-291.521580
 20
89.500048
 11
-291.479751
 21
89.451152
  0
LINE
  8
0
 62
7
  6
CONTINUOUS
 10
-294.167820
 20
89.896600
 11
-294.065876
 21
89.923518
  0
LINE
  8
0
 62
7
  6
CONTINUOUS
 10
-294.065876
 20
89.923518
 11
-293.961845
 21
89.942030
  0
LINE
  8
0
 62
7
  6
CONTINUOUS
 10
-293.961845
 20
89.942030
 11
-293.857178
 21
89.955503
  0
LINE
  8
0
 62
7
  6
CONTINUOUS
 10
-293.857178
 20
89.955503
 11
-293.751713
 21
89.965385
  0
LINE
  8
0
 62
7
  6
CONTINUOUS
 10
-293.751713
 20
89.965385
 11
-293.645326
 21
89.972366
  0
LINE
  8
0
 62
7
  6
CONTINUOUS
 10
-293.645326
 20
89.972366
 11
-293.539465
 21
89.976748
  0
LINE
  8
0
 62
7
  6
CONTINUOUS
 10
-293.539465
 20
89.976748
 11
-293.432750
 21
89.978802
  0
LINE
  8
0
 62
7
  6
CONTINUOUS
 10
-293.432750
 20
89.978802
 11
-293.327093
 21
89.978592
  0
LINE
  8
0
 62
7
  6
CONTINUOUS
 10
-293.327093
 20
89.978592
 11
-293.221616
 21
89.976148
  0
LINE
  8
0
 62
7
  6
CONTINUOUS
 10
-293.221616
 20
89.976148
 11
-293.115603
 21
89.971326
  0
LINE
  8
0
 62
7
  6
CONTINUOUS
 10
-293.115603
 20
89.971326
 11
-293.009904
 21
89.963909
  0
LINE
  8
0
 62
7
  6
CONTINUOUS
 10
-293.009904
 20
89.963909
 11
-292.904405
 21
89.953452
  0
LINE
  8
0
 62
7
  6
CONTINUOUS
 10
-292.904405
 20
89.953452
 11
-292.799206
 21
89.939140
  0
LINE
  8
0
 62
7
  6
CONTINUOUS
 10
-292.799206
 20
89.939140
 11
-292.694518
 21
89.919271
  0
LINE
  8
0
 62
7
  6
CONTINUOUS
 10
-292.694518
 20
89.919271
 11
-292.592563
 21
89.889629
  0
LINE
  8
0
 62
7
  6
CONTINUOUS
 10
-292.592563
 20
89.889629
 11
-292.514888
 21
89.827045
  0
LINE
  8
0
 62
7
  6
CONTINUOUS
 10
-295.887056
 20
90.130641
 11
-295.801775
 21
90.196071
  0
LINE
  8
0
 62
7
  6
CONTINUOUS
 10
-295.801775
 20
90.196071
 11
-295.692725
 21
90.226120
  0
LINE
  8
0
 62
7
  6
CONTINUOUS
 10
-295.692725
 20
90.226120
 11
-295.581027
 21
90.246077
  0
LINE
  8
0
 62
7
  6
CONTINUOUS
 10
-295.581027
 20
90.246077
 11
-295.468530
 21
90.260272
  0
LINE
  8
0
 62
7
  6
CONTINUOUS
 10
-295.468530
 20
90.260272
 11
-295.355226
 21
90.270414
  0
LINE
  8
0
 62
7
  6
CONTINUOUS
 10
-295.355226
 20
90.270414
 11
-295.241678
 21
90.277262
  0
LINE
  8
0
 62
7
  6
CONTINUOUS
 10
-295.241678
 20
90.277262
 11
-295.127973
 21
90.281249
  0
LINE
  8
0
 62
7
  6
CONTINUOUS
 10
-295.127973
 20
90.281249
 11
-295.014173
 21
90.282588
  0
LINE
  8
0
 62
7
  6
CONTINUOUS
 10
-295.014173
 20
90.282588
 11
-294.901158
 21
90.281363
  0
LINE
  8
0
 62
7
  6
CONTINUOUS
 10
-294.901158
 20
90.281363
 11
-294.787638
 21
90.277505
  0
LINE
  8
0
 62
7
  6
CONTINUOUS
 10
-294.787638
 20
90.277505
 11
-294.673300
 21
90.270738
  0
LINE
  8
0
 62
7
  6
CONTINUOUS
 10
-294.673300
 20
90.270738
 11
-294.559925
 21
90.260730
  0
LINE
  8
0
 62
7
  6
CONTINUOUS
 10
-294.559925
 20
90.260730
 11
-294.446832
 21
90.246631
  0
LINE
  8
0
 62
7
  6
CONTINUOUS
 10
-294.446832
 20
90.246631
 11
-294.334202
 21
90.226722
  0
LINE
  8
0
 62
7
  6
CONTINUOUS
 10
-294.334202
 20
90.226722
 11
-294.224206
 21
90.196746
  0
LINE
  8
0
 62
7
  6
CONTINUOUS
 10
-294.224206
 20
90.196746
 11
-294.137056
 21
90.130641
  0
LINE
  8
0
 62
7
  6
CONTINUOUS
 10
-297.946859
 20
90.337329
 11
-297.861577
 21
90.402757
  0
LINE
  8
0
 62
7
  6
CONTINUOUS
 10
-297.861577
 20
90.402757
 11
-297.752527
 21
90.432805
  0
LINE
  8
0
 62
7
  6
CONTINUOUS
 10
-297.752527
 20
90.432805
 11
-297.640828
 21
90.452761
  0
LINE
  8
0
 62
7
  6
CONTINUOUS
 10
-297.640828
 20
90.452761
 11
-297.528331
 21
90.466955
  0
LINE
  8
0
 62
7
  6
CONTINUOUS
 10
-297.528331
 20
90.466955
 11
-297.415028
 21
90.477096
  0
LINE
  8
0
 62
7
  6
CONTINUOUS
 10
-297.415028
 20
90.477096
 11
-297.301480
 21
90.483943
  0
LINE
  8
0
 62
7
  6
CONTINUOUS
 10
-297.301480
 20
90.483943
 11
-297.187775
 21
90.487929
  0
LINE
  8
0
 62
7
  6
CONTINUOUS
 10
-297.187775
 20
90.487929
 11
-297.073975
 21
90.489268
  0
LINE
  8
0
 62
7
  6
CONTINUOUS
 10
-297.073975
 20
90.489268
 11
-296.960960
 21
90.488043
  0
LINE
  8
0
 62
7
  6
CONTINUOUS
 10
-296.960960
 20
90.488043
 11
-296.847440
 21
90.484186
  0
LINE
  8
0
 62
7
  6
CONTINUOUS
 10
-296.847440
 20
90.484186
 11
-296.733103
 21
90.477420
  0
LINE
  8
0
 62
7
  6
CONTINUOUS
 10
-296.733103
 20
90.477420
 11
-296.619728
 21
90.467413
  0
LINE
  8
0
 62
7
  6
CONTINUOUS
 10
-296.619728
 20
90.467413
 11
-296.506635
 21
90.453314
  0
LINE
  8
0
 62
7
  6
CONTINUOUS
 10
-296.506635
 20
90.453314
 11
-296.394005
 21
90.433407
  0
LINE
  8
0
 62
7
  6
CONTINUOUS
 10
-296.394005
 20
90.433407
 11
-296.284009
 21
90.403433
  0
LINE
  8
0
 62
7
  6
CONTINUOUS
 10
-296.284009
 20
90.403433
 11
-296.196859
 21
90.337329
  0
LINE
  8
0
 62
7
  6
CONTINUOUS
 10
-297.071859
 20
89.019496
 11
-297.201206
 21
89.022451
  0
LINE
  8
0
 62
7
  6
CONTINUOUS
 10
-297.201206
 20
89.022451
 11
-297.331005
 21
89.032067
  0
LINE
  8
0
 62
7
  6
CONTINUOUS
 10
-297.331005
 20
89.032067
 11
-297.459747
 21
89.051532
  0
LINE
  8
0
 62
7
  6
CONTINUOUS
 10
-297.459747
 20
89.051532
 11
-297.571859
 21
89.106318
  0
LINE
  8
0
 62
7
  6
CONTINUOUS
 10
-297.571859
 20
89.106318
 11
-297.460404
 21
89.160964
  0
LINE
  8
0
 62
7
  6
CONTINUOUS
 10
-297.460404
 20
89.160964
 11
-297.332599
 21
89.180401
  0
LINE
  8
0
 62
7
  6
CONTINUOUS
 10
-297.332599
 20
89.180401
 11
-297.203075
 21
89.190098
  0
LINE
  8
0
 62
7
  6
CONTINUOUS
 10
-297.203075
 20
89.190098
 11
-297.071859
 21
89.193141
  0
LINE
  8
0
 62
7
  6
CONTINUOUS
 10
-297.071859
 20
89.193141
 11
-296.942511
 21
89.190186
  0
LINE
  8
0
 62
7
  6
CONTINUOUS
 10
-296.942511
 20
89.190186
 11
-296.812712
 21
89.180570
  0
LINE
  8
0
 62
7
  6
CONTINUOUS
 10
-296.812712
 20
89.180570
 11
-296.683970
 21
89.161105
  0
LINE
  8
0
 62
7
  6
CONTINUOUS
 10
-296.683970
 20
89.161105
 11
-296.571859
 21
89.106318
  0
LINE
  8
0
 62
7
  6
CONTINUOUS
 10
-296.571859
 20
89.106318
 11
-296.683313
 21
89.051673
  0
LINE
  8
0
 62
7
  6
CONTINUOUS
 10
-296.683313
 20
89.051673
 11
-296.811118
 21
89.032236
  0
LINE
  8
0
 62
7
  6
CONTINUOUS
 10
-296.811118
 20
89.032236
 11
-296.940642
 21
89.022539
  0
LINE
  8
0
 62
7
  6
CONTINUOUS
 10
-296.940642
 20
89.022539
 11
-297.071859
 21
89.019496
  0
LINE
  8
0
 62
7
  6
CONTINUOUS
 10
-295.012056
 20
88.812816
 11
-295.141404
 21
88.815771
  0
LINE
  8
0
 62
7
  6
CONTINUOUS
 10
-295.141404
 20
88.815771
 11
-295.271203
 21
88.825387
  0
LINE
  8
0
 62
7
  6
CONTINUOUS
 10
-295.271203
 20
88.825387
 11
-295.399945
 21
88.844852
  0
LINE
  8
0
 62
7
  6
CONTINUOUS
 10
-295.399945
 20
88.844852
 11
-295.512056
 21
88.899638
  0
LINE
  8
0
 62
7
  6
CONTINUOUS
 10
-295.512056
 20
88.899638
 11
-295.400602
 21
88.954284
  0
LINE
  8
0
 62
7
  6
CONTINUOUS
 10
-295.400602
 20
88.954284
 11
-295.272797
 21
88.973721
  0
LINE
  8
0
 62
7
  6
CONTINUOUS
 10
-295.272797
 20
88.973721
 11
-295.143273
 21
88.983418
  0
LINE
  8
0
 62
7
  6
CONTINUOUS
 10
-295.143273
 20
88.983418
 11
-295.012056
 21
88.986461
  0
LINE
  8
0
 62
7
  6
CONTINUOUS
 10
-295.012056
 20
88.986461
 11
-294.882709
 21
88.983505
  0
LINE
  8
0
 62
7
  6
CONTINUOUS
 10
-294.882709
 20
88.983505
 11
-294.752910
 21
88.973889
  0
LINE
  8
0
 62
7
  6
CONTINUOUS
 10
-294.752910
 20
88.973889
 11
-294.624168
 21
88.954424
  0
LINE
  8
0
 62
7
  6
CONTINUOUS
 10
-294.624168
 20
88.954424
 11
-294.512056
 21
88.899638
  0
LINE
  8
0
 62
7
  6
CONTINUOUS
 10
-294.512056
 20
88.899638
 11
-294.623511
 21
88.844993
  0
LINE
  8
0
 62
7
  6
CONTINUOUS
 10
-294.623511
 20
88.844993
 11
-294.751316
 21
88.825556
  0
LINE
  8
0
 62
7
  6
CONTINUOUS
 10
-294.751316
 20
88.825556
 11
-294.880840
 21
88.815859
  0
LINE
  8
0
 62
7
  6
CONTINUOUS
 10
-294.880840
 20
88.815859
 11
-295.012056
 21
88.812816
  0
LINE
  8
0
 62
7
  6
CONTINUOUS
 10
-293.389888
 20
88.509212
 11
-293.519236
 21
88.512167
  0
LINE
  8
0
 62
7
  6
CONTINUOUS
 10
-293.519236
 20
88.512167
 11
-293.649035
 21
88.521783
  0
LINE
  8
0
 62
7
  6
CONTINUOUS
 10
-293.649035
 20
88.521783
 11
-293.777777
 21
88.541248
  0
LINE
  8
0
 62
7
  6
CONTINUOUS
 10
-293.777777
 20
88.541248
 11
-293.889888
 21
88.596034
  0
LINE
  8
0
 62
7
  6
CONTINUOUS
 10
-293.889888
 20
88.596034
 11
-293.778434
 21
88.650679
  0
LINE
  8
0
 62
7
  6
CONTINUOUS
 10
-293.778434
 20
88.650679
 11
-293.650629
 21
88.670117
  0
LINE
  8
0
 62
7
  6
CONTINUOUS
 10
-293.650629
 20
88.670117
 11
-293.521105
 21
88.679814
  0
LINE
  8
0
 62
7
  6
CONTINUOUS
 10
-293.521105
 20
88.679814
 11
-293.389888
 21
88.682857
  0
LINE
  8
0
 62
7
  6
CONTINUOUS
 10
-293.389888
 20
88.682857
 11
-293.260541
 21
88.679901
  0
LINE
  8
0
 62
7
  6
CONTINUOUS
 10
-293.260541
 20
88.679901
 11
-293.130742
 21
88.670285
  0
LINE
  8
0
 62
7
  6
CONTINUOUS
 10
-293.130742
 20
88.670285
 11
-293.002000
 21
88.650820
  0
LINE
  8
0
 62
7
  6
CONTINUOUS
 10
-293.002000
 20
88.650820
 11
-292.889888
 21
88.596034
  0
LINE
  8
0
 62
7
  6
CONTINUOUS
 10
-292.889888
 20
88.596034
 11
-293.001343
 21
88.541389
  0
LINE
  8
0
 62
7
  6
CONTINUOUS
 10
-293.001343
 20
88.541389
 11
-293.129148
 21
88.521951
  0
LINE
  8
0
 62
7
  6
CONTINUOUS
 10
-293.129148
 20
88.521951
 11
-293.258672
 21
88.512255
  0
LINE
  8
0
 62
7
  6
CONTINUOUS
 10
-293.258672
 20
88.512255
 11
-293.389888
 21
88.509212
  0
LINE
  8
0
 62
7
  6
CONTINUOUS
 10
-293.389928
 20
86.944186
 11
-293.519276
 21
86.947142
  0
LINE
  8
0
 62
7
  6
CONTINUOUS
 10
-293.519276
 20
86.947142
 11
-293.649075
 21
86.956760
  0
LINE
  8
0
 62
7
  6
CONTINUOUS
 10
-293.649075
 20
86.956760
 11
-293.777817
 21
86.976227
  0
LINE
  8
0
 62
7
  6
CONTINUOUS
 10
-293.777817
 20
86.976227
 11
-293.889928
 21
87.031016
  0
LINE
  8
0
 62
7
  6
CONTINUOUS
 10
-293.889928
 20
87.031016
 11
-293.778474
 21
87.085662
  0
LINE
  8
0
 62
7
  6
CONTINUOUS
 10
-293.778474
 20
87.085662
 11
-293.650668
 21
87.105099
  0
LINE
  8
0
 62
7
  6
CONTINUOUS
 10
-293.650668
 20
87.105099
 11
-293.521144
 21
87.114796
  0
LINE
  8
0
 62
7
  6
CONTINUOUS
 10
-293.521144
 20
87.114796
 11
-293.389928
 21
87.117839
  0
LINE
  8
0
 62
7
  6
CONTINUOUS
 10
-293.389928
 20
87.117839
 11
-293.260581
 21
87.114883
  0
LINE
  8
0
 62
7
  6
CONTINUOUS
 10
-293.260581
 20
87.114883
 11
-293.130781
 21
87.105267
  0
LINE
  8
0
 62
7
  6
CONTINUOUS
 10
-293.130781
 20
87.105267
 11
-293.002039
 21
87.085802
  0
LINE
  8
0
 62
7
  6
CONTINUOUS
 10
-293.002039
 20
87.085802
 11
-292.889928
 21
87.031016
  0
LINE
  8
0
 62
7
  6
CONTINUOUS
 10
-292.889928
 20
87.031016
 11
-293.001382
 21
86.976368
  0
LINE
  8
0
 62
7
  6
CONTINUOUS
 10
-293.001382
 20
86.976368
 11
-293.129187
 21
86.956928
  0
LINE
  8
0
 62
7
  6
CONTINUOUS
 10
-293.129187
 20
86.956928
 11
-293.258711
 21
86.947230
  0
LINE
  8
0
 62
7
  6
CONTINUOUS
 10
-293.258711
 20
86.947230
 11
-293.389928
 21
86.944186
  0
LINE
  8
0
 62
7
  6
CONTINUOUS
 10
-292.354642
 20
87.317668
 11
-292.483989
 21
87.320624
  0
LINE
  8
0
 62
7
  6
CONTINUOUS
 10
-292.483989
 20
87.320624
 11
-292.613789
 21
87.330242
  0
LINE
  8
0
 62
7
  6
CONTINUOUS
 10
-292.613789
 20
87.330242
 11
-292.742530
 21
87.349709
  0
LINE
  8
0
 62
7
  6
CONTINUOUS
 10
-292.742530
 20
87.349709
 11
-292.854642
 21
87.404498
  0
LINE
  8
0
 62
7
  6
CONTINUOUS
 10
-292.854642
 20
87.404498
 11
-292.743187
 21
87.459144
  0
LINE
  8
0
 62
7
  6
CONTINUOUS
 10
-292.743187
 20
87.459144
 11
-292.615382
 21
87.478581
  0
LINE
  8
0
 62
7
  6
CONTINUOUS
 10
-292.615382
 20
87.478581
 11
-292.485858
 21
87.488278
  0
LINE
  8
0
 62
7
  6
CONTINUOUS
 10
-292.485858
 20
87.488278
 11
-292.354642
 21
87.491321
  0
LINE
  8
0
 62
7
  6
CONTINUOUS
 10
-292.354642
 20
87.491321
 11
-292.225294
 21
87.488365
  0
LINE
  8
0
 62
7
  6
CONTINUOUS
 10
-292.225294
 20
87.488365
 11
-292.095495
 21
87.478749
  0
LINE
  8
0
 62
7
  6
CONTINUOUS
 10
-292.095495
 20
87.478749
 11
-291.966753
 21
87.459284
  0
LINE
  8
0
 62
7
  6
CONTINUOUS
 10
-291.966753
 20
87.459284
 11
-291.854642
 21
87.404498
  0
LINE
  8
0
 62
7
  6
CONTINUOUS
 10
-291.854642
 20
87.404498
 11
-291.966095
 21
87.349850
  0
LINE
  8
0
 62
7
  6
CONTINUOUS
 10
-291.966095
 20
87.349850
 11
-292.093901
 21
87.330410
  0
LINE
  8
0
 62
7
  6
CONTINUOUS
 10
-292.093901
 20
87.330410
 11
-292.223424
 21
87.320712
  0
LINE
  8
0
 62
7
  6
CONTINUOUS
 10
-292.223424
 20
87.320712
 11
-292.354642
 21
87.317668
  0
LINE
  8
0
 62
7
  6
CONTINUOUS
 10
-299.152866
 20
91.879690
 11
-299.107150
 21
91.874037
  0
LINE
  8
0
 62
7
  6
CONTINUOUS
 10
-299.107150
 20
91.874037
 11
-299.061430
 21
91.867916
  0
LINE
  8
0
 62
7
  6
CONTINUOUS
 10
-299.061430
 20
91.867916
 11
-299.015711
 21
91.861285
  0
LINE
  8
0
 62
7
  6
CONTINUOUS
 10
-299.015711
 20
91.861285
 11
-298.969996
 21
91.854090
  0
LINE
  8
0
 62
7
  6
CONTINUOUS
 10
-298.969996
 20
91.854090
 11
-298.924292
 21
91.846266
  0
LINE
  8
0
 62
7
  6
CONTINUOUS
 10
-298.924292
 20
91.846266
 11
-298.878612
 21
91.837730
  0
LINE
  8
0
 62
7
  6
CONTINUOUS
 10
-298.878612
 20
91.837730
 11
-298.832973
 21
91.828375
  0
LINE
  8
0
 62
7
  6
CONTINUOUS
 10
-298.832973
 20
91.828375
 11
-298.788392
 21
91.818294
  0
LINE
  8
0
 62
7
  6
CONTINUOUS
 10
-298.788392
 20
91.818294
 11
-298.744054
 21
91.807148
  0
LINE
  8
0
 62
7
  6
CONTINUOUS
 10
-298.744054
 20
91.807148
 11
-298.700048
 21
91.794696
  0
LINE
  8
0
 62
7
  6
CONTINUOUS
 10
-298.700048
 20
91.794696
 11
-298.656521
 21
91.780582
  0
LINE
  8
0
 62
7
  6
CONTINUOUS
 10
-298.656521
 20
91.780582
 11
-298.613747
 21
91.764232
  0
LINE
  8
0
 62
7
  6
CONTINUOUS
 10
-298.613747
 20
91.764232
 11
-298.572309
 21
91.744633
  0
LINE
  8
0
 62
7
  6
CONTINUOUS
 10
-298.572309
 20
91.744633
 11
-298.533809
 21
91.719727
  0
LINE
  8
0
 62
7
  6
CONTINUOUS
 10
-298.533809
 20
91.719727
 11
-298.504338
 21
91.684532
  0
LINE
  8
0
 62
7
  6
CONTINUOUS
 10
-298.504338
 20
91.684532
 11
-298.506103
 21
91.641264
  0
LINE
  8
0
 62
7
  6
CONTINUOUS
 10
-298.505047
 20
91.645203
 11
-298.419693
 21
91.682641
  0
LINE
  8
0
 62
7
  6
CONTINUOUS
 10
-298.419693
 20
91.682641
 11
-298.330158
 21
91.710115
  0
LINE
  8
0
 62
7
  6
CONTINUOUS
 10
-298.330158
 20
91.710115
 11
-298.239039
 21
91.731937
  0
LINE
  8
0
 62
7
  6
CONTINUOUS
 10
-298.239039
 20
91.731937
 11
-298.147302
 21
91.749908
  0
LINE
  8
0
 62
7
  6
CONTINUOUS
 10
-298.147302
 20
91.749908
 11
-298.054686
 21
91.765100
  0
LINE
  8
0
 62
7
  6
CONTINUOUS
 10
-298.054686
 20
91.765100
 11
-297.962260
 21
91.777946
  0
LINE
  8
0
 62
7
  6
CONTINUOUS
 10
-297.962260
 20
91.777946
 11
-297.869133
 21
91.788961
  0
LINE
  8
0
 62
7
  6
CONTINUOUS
 10
-297.869133
 20
91.788961
 11
-297.775619
 21
91.798353
  0
LINE
  8
0
 62
7
  6
CONTINUOUS
 10
-297.775619
 20
91.798353
 11
-297.681903
 21
91.806286
  0
LINE
  8
0
 62
7
  6
CONTINUOUS
 10
-297.681903
 20
91.806286
 11
-297.587793
 21
91.812907
  0
LINE
  8
0
 62
7
  6
CONTINUOUS
 10
-297.587793
 20
91.812907
 11
-297.493893
 21
91.818278
  0
LINE
  8
0
 62
7
  6
CONTINUOUS
 10
-297.493893
 20
91.818278
 11
-297.399929
 21
91.822493
  0
LINE
  8
0
 62
7
  6
CONTINUOUS
 10
-297.399929
 20
91.822493
 11
-297.305917
 21
91.825609
  0
LINE
  8
0
 62
7
  6
CONTINUOUS
 10
-297.305917
 20
91.825609
 11
-297.211874
 21
91.827662
  0
LINE
  8
0
 62
7
  6
CONTINUOUS
 10
-297.211874
 20
91.827662
 11
-297.117319
 21
91.828680
  0
LINE
  8
0
 62
7
  6
CONTINUOUS
 10
-297.117319
 20
91.828680
 11
-297.023373
 21
91.828663
  0
LINE
  8
0
 62
7
  6
CONTINUOUS
 10
-295.358303
 20
91.615100
 11
-295.293505
 21
91.617508
  0
LINE
  8
0
 62
7
  6
CONTINUOUS
 10
-295.293505
 20
91.617508
 11
-295.228688
 21
91.619404
  0
LINE
  8
0
 62
7
  6
CONTINUOUS
 10
-295.228688
 20
91.619404
 11
-295.162911
 21
91.620814
  0
LINE
  8
0
 62
7
  6
CONTINUOUS
 10
-295.162911
 20
91.620814
 11
-295.097456
 21
91.621712
  0
LINE
  8
0
 62
7
  6
CONTINUOUS
 10
-295.097456
 20
91.621712
 11
-295.032450
 21
91.622110
  0
LINE
  8
0
 62
7
  6
CONTINUOUS
 10
-295.032450
 20
91.622110
 11
-294.967702
 21
91.622020
  0
LINE
  8
0
 62
7
  6
CONTINUOUS
 10
-294.967702
 20
91.622020
 11
-294.903042
 21
91.621445
  0
LINE
  8
0
 62
7
  6
CONTINUOUS
 10
-294.903042
 20
91.621445
 11
-294.838363
 21
91.620382
  0
LINE
  8
0
 62
7
  6
CONTINUOUS
 10
-294.838363
 20
91.620382
 11
-294.773662
 21
91.618824
  0
LINE
  8
0
 62
7
  6
CONTINUOUS
 10
-294.773662
 20
91.618824
 11
-294.708934
 21
91.616761
  0
LINE
  8
0
 62
7
  6
CONTINUOUS
 10
-294.708934
 20
91.616761
 11
-294.644178
 21
91.614180
  0
LINE
  8
0
 62
7
  6
CONTINUOUS
 10
-294.644178
 20
91.614180
 11
-294.579388
 21
91.611064
  0
LINE
  8
0
 62
7
  6
CONTINUOUS
 10
-294.579388
 20
91.611064
 11
-294.514562
 21
91.607392
  0
LINE
  8
0
 62
7
  6
CONTINUOUS
 10
-294.514562
 20
91.607392
 11
-294.449696
 21
91.603137
  0
LINE
  8
0
 62
7
  6
CONTINUOUS
 10
-294.449696
 20
91.603137
 11
-294.384787
 21
91.598267
  0
LINE
  8
0
 62
7
  6
CONTINUOUS
 10
-294.384787
 20
91.598267
 11
-294.319830
 21
91.592741
  0
LINE
  8
0
 62
7
  6
CONTINUOUS
 10
-292.680888
 20
91.287594
 11
-292.650143
 21
91.284650
  0
LINE
  8
0
 62
7
  6
CONTINUOUS
 10
-292.650143
 20
91.284650
 11
-292.619400
 21
91.281539
  0
LINE
  8
0
 62
7
  6
CONTINUOUS
 10
-292.619400
 20
91.281539
 11
-292.588661
 21
91.278255
  0
LINE
  8
0
 62
7
  6
CONTINUOUS
 10
-292.588661
 20
91.278255
 11
-292.557925
 21
91.274791
  0
LINE
  8
0
 62
7
  6
CONTINUOUS
 10
-292.557925
 20
91.274791
 11
-292.527194
 21
91.271137
  0
LINE
  8
0
 62
7
  6
CONTINUOUS
 10
-292.527194
 20
91.271137
 11
-292.496470
 21
91.267284
  0
LINE
  8
0
 62
7
  6
CONTINUOUS
 10
-292.496470
 20
91.267284
 11
-292.465752
 21
91.263221
  0
LINE
  8
0
 62
7
  6
CONTINUOUS
 10
-292.465752
 20
91.263221
 11
-292.435044
 21
91.258936
  0
LINE
  8
0
 62
7
  6
CONTINUOUS
 10
-292.435044
 20
91.258936
 11
-292.404346
 21
91.254415
  0
LINE
  8
0
 62
7
  6
CONTINUOUS
 10
-292.404346
 20
91.254415
 11
-292.373662
 21
91.249640
  0
LINE
  8
0
 62
7
  6
CONTINUOUS
 10
-292.373662
 20
91.249640
 11
-292.342993
 21
91.244594
  0
LINE
  8
0
 62
7
  6
CONTINUOUS
 10
-292.342993
 20
91.244594
 11
-292.312344
 21
91.239255
  0
LINE
  8
0
 62
7
  6
CONTINUOUS
 10
-292.312344
 20
91.239255
 11
-292.281719
 21
91.233597
  0
LINE
  8
0
 62
7
  6
CONTINUOUS
 10
-292.281719
 20
91.233597
 11
-292.251125
 21
91.227590
  0
LINE
  8
0
 62
7
  6
CONTINUOUS
 10
-292.251125
 20
91.227590
 11
-292.220568
 21
91.221197
  0
LINE
  8
0
 62
7
  6
CONTINUOUS
 10
-292.220568
 20
91.221197
 11
-292.190060
 21
91.214374
  0
LINE
  8
0
 62
7
  6
CONTINUOUS
 10
-311.491510
 20
178.488532
 11
-313.285639
 21
175.123598
  0
LINE
  8
0
 62
7
  6
CONTINUOUS
 10
-313.285639
 20
175.123598
 11
-314.088739
 21
171.395990
  0
LINE
  8
0
 62
7
  6
CONTINUOUS
 10
-314.088739
 20
171.395990
 11
-313.834256
 21
167.592020
  0
LINE
  8
0
 62
7
  6
CONTINUOUS
 10
-313.834256
 20
167.592020
 11
-312.543146
 21
164.003517
  0
LINE
  8
0
 62
7
  6
CONTINUOUS
 10
-312.543146
 20
164.003517
 11
-310.321797
 21
160.903927
  0
LINE
  8
0
 62
7
  6
CONTINUOUS
 10
-310.321797
 20
160.903927
 11
-307.346087
 21
158.518700
  0
LINE
  8
0
 62
7
  6
CONTINUOUS
 10
-307.346087
 20
158.518700
 11
-303.841528
 21
157.013770
  0
LINE
  8
0
 62
7
  6
CONTINUOUS
 10
-303.841528
 20
157.013770
 11
-300.063515
 21
156.489581
  0
LINE
  8
0
 62
7
  6
CONTINUOUS
 10
-300.063515
 20
156.489581
 11
-296.281205
 21
156.980198
  0
LINE
  8
0
 62
7
  6
CONTINUOUS
 10
-296.281205
 20
156.980198
 11
-292.764112
 21
158.453295
  0
LINE
  8
0
 62
7
  6
CONTINUOUS
 10
-292.764112
 20
158.453295
 11
-289.767080
 21
160.811091
  0
LINE
  8
0
 62
7
  6
CONTINUOUS
 10
-289.767080
 20
160.811091
 11
-287.517170
 21
163.890085
  0
LINE
  8
0
 62
7
  6
CONTINUOUS
 10
-287.517170
 20
163.890085
 11
-286.192741
 21
167.465971
  0
LINE
  8
0
 62
7
  6
CONTINUOUS
 10
-286.192741
 20
167.465971
 11
-285.902486
 21
171.267265
  0
LINE
  8
0
 62
7
  6
CONTINUOUS
 10
-285.902486
 20
171.267265
 11
-286.670468
 21
175.002109
  0
LINE
  8
0
 62
7
  6
CONTINUOUS
 10
-286.670468
 20
175.002109
 11
-288.432672
 21
178.383034
  0
LINE
  8
0
 62
7
  6
CONTINUOUS
 10
-305.500000
 20
173.747360
 11
-305.397281
 21
172.657741
  0
LINE
  8
0
 62
7
  6
CONTINUOUS
 10
-305.397281
 20
172.657741
 11
-305.092072
 21
171.606579
  0
LINE
  8
0
 62
7
  6
CONTINUOUS
 10
-305.092072
 20
171.606579
 11
-304.593782
 21
170.632538
  0
LINE
  8
0
 62
7
  6
CONTINUOUS
 10
-304.593782
 20
170.632538
 11
-303.917846
 21
169.771876
  0
LINE
  8
0
 62
7
  6
CONTINUOUS
 10
-303.917846
 20
169.771876
 11
-303.086696
 21
169.059130
  0
LINE
  8
0
 62
7
  6
CONTINUOUS
 10
-303.086696
 20
169.059130
 11
-302.131301
 21
168.525559
  0
LINE
  8
0
 62
7
  6
CONTINUOUS
 10
-302.131301
 20
168.525559
 11
-301.087283
 21
168.194763
  0
LINE
  8
0
 62
7
  6
CONTINUOUS
 10
-301.087283
 20
168.194763
 11
-300.000000
 21
168.082977
  0
LINE
  8
0
 62
7
  6
CONTINUOUS
 10
-300.000000
 20
168.082977
 11
-298.911854
 21
168.194943
  0
LINE
  8
0
 62
7
  6
CONTINUOUS
 10
-298.911854
 20
168.194943
 11
-297.869186
 21
168.525349
  0
LINE
  8
0
 62
7
  6
CONTINUOUS
 10
-297.869186
 20
168.525349
 11
-296.913836
 21
169.058758
  0
LINE
  8
0
 62
7
  6
CONTINUOUS
 10
-296.913836
 20
169.058758
 11
-296.083137
 21
169.770849
  0
LINE
  8
0
 62
7
  6
CONTINUOUS
 10
-296.083137
 20
169.770849
 11
-295.406857
 21
170.631538
  0
LINE
  8
0
 62
7
  6
CONTINUOUS
 10
-295.406857
 20
170.631538
 11
-294.907986
 21
171.606434
  0
LINE
  8
0
 62
7
  6
CONTINUOUS
 10
-294.907986
 20
171.606434
 11
-294.602621
 21
172.658256
  0
LINE
  8
0
 62
7
  6
CONTINUOUS
 10
-294.602621
 20
172.658256
 11
-294.500000
 21
173.747360
  0
LINE
  8
0
 62
7
  6
CONTINUOUS
 10
-294.500000
 20
188.442970
 11
-294.602719
 21
189.532590
  0
LINE
  8
0
 62
7
  6
CONTINUOUS
 10
-294.602719
 20
189.532590
 11
-294.907928
 21
190.583751
  0
LINE
  8
0
 62
7
  6
CONTINUOUS
 10
-294.907928
 20
190.583751
 11
-295.406218
 21
191.557792
  0
LINE
  8
0
 62
7
  6
CONTINUOUS
 10
-295.406218
 20
191.557792
 11
-296.082154
 21
192.418454
  0
LINE
  8
0
 62
7
  6
CONTINUOUS
 10
-296.082154
 20
192.418454
 11
-296.913304
 21
193.131200
  0
LINE
  8
0
 62
7
  6
CONTINUOUS
 10
-296.913304
 20
193.131200
 11
-297.868699
 21
193.664771
  0
LINE
  8
0
 62
7
  6
CONTINUOUS
 10
-297.868699
 20
193.664771
 11
-298.912717
 21
193.995567
  0
LINE
  8
0
 62
7
  6
CONTINUOUS
 10
-298.912717
 20
193.995567
 11
-300.000000
 21
194.107353
  0
LINE
  8
0
 62
7
  6
CONTINUOUS
 10
-300.000000
 20
194.107353
 11
-301.088146
 21
193.995387
  0
LINE
  8
0
 62
7
  6
CONTINUOUS
 10
-301.088146
 20
193.995387
 11
-302.130814
 21
193.664982
  0
LINE
  8
0
 62
7
  6
CONTINUOUS
 10
-302.130814
 20
193.664982
 11
-303.086164
 21
193.131572
  0
LINE
  8
0
 62
7
  6
CONTINUOUS
 10
-303.086164
 20
193.131572
 11
-303.916863
 21
192.419482
  0
LINE
  8
0
 62
7
  6
CONTINUOUS
 10
-303.916863
 20
192.419482
 11
-304.593143
 21
191.558792
  0
LINE
  8
0
 62
7
  6
CONTINUOUS
 10
-304.593143
 20
191.558792
 11
-305.092014
 21
190.583897
  0
LINE
  8
0
 62
7
  6
CONTINUOUS
 10
-305.092014
 20
190.583897
 11
-305.397379
 21
189.532074
  0
LINE
  8
0
 62
7
  6
CONTINUOUS
 10
-305.397379
 20
189.532074
 11
-305.500000
 21
188.442970
  0
LINE
  8
0
 62
7
  6
CONTINUOUS
 10
-311.954762
 20
172.345215
 11
-311.589519
 21
170.429695
  0
LINE
  8
0
 62
7
  6
CONTINUOUS
 10
-311.589519
 20
170.429695
 11
-310.605693
 21
168.741555
  0
LINE
  8
0
 62
7
  6
CONTINUOUS
 10
-310.605693
 20
168.741555
 11
-309.211579
 21
167.367809
  0
LINE
  8
0
 62
7
  6
CONTINUOUS
 10
-309.211579
 20
167.367809
 11
-307.568729
 21
166.300617
  0
LINE
  8
0
 62
7
  6
CONTINUOUS
 10
-307.568729
 20
166.300617
 11
-305.775948
 21
165.508172
  0
LINE
  8
0
 62
7
  6
CONTINUOUS
 10
-305.775948
 20
165.508172
 11
-303.893200
 21
164.961940
  0
LINE
  8
0
 62
7
  6
CONTINUOUS
 10
-303.893200
 20
164.961940
 11
-301.958352
 21
164.641736
  0
LINE
  8
0
 62
7
  6
CONTINUOUS
 10
-301.958352
 20
164.641736
 11
-300.000000
 21
164.536247
  0
LINE
  8
0
 62
7
  6
CONTINUOUS
 10
-300.000000
 20
164.536247
 11
-298.042096
 21
164.641687
  0
LINE
  8
0
 62
7
  6
CONTINUOUS
 10
-298.042096
 20
164.641687
 11
-296.107737
 21
164.961730
  0
LINE
  8
0
 62
7
  6
CONTINUOUS
 10
-296.107737
 20
164.961730
 11
-294.224887
 21
165.507871
  0
LINE
  8
0
 62
7
  6
CONTINUOUS
 10
-294.224887
 20
165.507871
 11
-292.431950
 21
166.300254
  0
LINE
  8
0
 62
7
  6
CONTINUOUS
 10
-292.431950
 20
166.300254
 11
-290.788471
 21
167.367769
  0
LINE
  8
0
 62
7
  6
CONTINUOUS
 10
-290.788471
 20
167.367769
 11
-289.393691
 21
168.742328
  0
LINE
  8
0
 62
7
  6
CONTINUOUS
 10
-289.393691
 20
168.742328
 11
-288.409809
 21
170.431431
  0
LINE
  8
0
 62
7
  6
CONTINUOUS
 10
-288.409809
 20
170.431431
 11
-288.045238
 21
172.346843
  0
LINE
  8
0
 62
7
  6
CONTINUOUS
 10
-295.450001
 20
233.764441
 11
-295.812522
 21
234.225075
  0
LINE
  8
0
 62
7
  6
CONTINUOUS
 10
-295.812522
 20
234.225075
 11
-296.369547
 21
234.474299
  0
LINE
  8
0
 62
7
  6
CONTINUOUS
 10
-296.369547
 20
234.474299
 11
-296.958349
 21
234.640262
  0
LINE
  8
0
 62
7
  6
CONTINUOUS
 10
-296.958349
 20
234.640262
 11
-297.558871
 21
234.758231
  0
LINE
  8
0
 62
7
  6
CONTINUOUS
 10
-297.558871
 20
234.758231
 11
-298.165234
 21
234.842077
  0
LINE
  8
0
 62
7
  6
CONTINUOUS
 10
-298.165234
 20
234.842077
 11
-298.774755
 21
234.898567
  0
LINE
  8
0
 62
7
  6
CONTINUOUS
 10
-298.774755
 20
234.898567
 11
-299.386135
 21
234.931300
  0
LINE
  8
0
 62
7
  6
CONTINUOUS
 10
-299.386135
 20
234.931300
 11
-300.000000
 21
234.942067
  0
LINE
  8
0
 62
7
  6
CONTINUOUS
 10
-300.000000
 20
234.942067
 11
-300.612064
 21
234.931364
  0
LINE
  8
0
 62
7
  6
CONTINUOUS
 10
-300.612064
 20
234.931364
 11
-301.222585
 21
234.898759
  0
LINE
  8
0
 62
7
  6
CONTINUOUS
 10
-301.222585
 20
234.898759
 11
-301.832186
 21
234.842371
  0
LINE
  8
0
 62
7
  6
CONTINUOUS
 10
-301.832186
 20
234.842371
 11
-302.438882
 21
234.758601
  0
LINE
  8
0
 62
7
  6
CONTINUOUS
 10
-302.438882
 20
234.758601
 11
-303.039585
 21
234.640742
  0
LINE
  8
0
 62
7
  6
CONTINUOUS
 10
-303.039585
 20
234.640742
 11
-303.628902
 21
234.474830
  0
LINE
  8
0
 62
7
  6
CONTINUOUS
 10
-303.628902
 20
234.474830
 11
-304.186961
 21
234.225390
  0
LINE
  8
0
 62
7
  6
CONTINUOUS
 10
-304.186961
 20
234.225390
 11
-304.549999
 21
233.764441
  0
LINE
  8
0
 62
7
  6
CONTINUOUS
 10
-393.010393
 20
102.790901
 11
-393.027865
 21
102.832770
  0
LINE
  8
0
 62
7
  6
CONTINUOUS
 10
-393.027865
 20
102.832770
 11
-393.045431
 21
102.874599
  0
LINE
  8
0
 62
7
  6
CONTINUOUS
 10
-393.045431
 20
102.874599
 11
-393.063089
 21
102.916390
  0
LINE
  8
0
 62
7
  6
CONTINUOUS
 10
-393.063089
 20
102.916390
 11
-393.080841
 21
102.958141
  0
LINE
  8
0
 62
7
  6
CONTINUOUS
 10
-393.080841
 20
102.958141
 11
-393.098686
 21
102.999852
  0
LINE
  8
0
 62
7
  6
CONTINUOUS
 10
-393.098686
 20
102.999852
 11
-393.116624
 21
103.041523
  0
LINE
  8
0
 62
7
  6
CONTINUOUS
 10
-393.116624
 20
103.041523
 11
-393.134656
 21
103.083154
  0
LINE
  8
0
 62
7
  6
CONTINUOUS
 10
-393.134656
 20
103.083154
 11
-393.152782
 21
103.124744
  0
LINE
  8
0
 62
7
  6
CONTINUOUS
 10
-393.152782
 20
103.124744
 11
-393.171001
 21
103.166293
  0
LINE
  8
0
 62
7
  6
CONTINUOUS
 10
-393.171001
 20
103.166293
 11
-393.189314
 21
103.207801
  0
LINE
  8
0
 62
7
  6
CONTINUOUS
 10
-393.189314
 20
103.207801
 11
-393.207720
 21
103.249267
  0
LINE
  8
0
 62
7
  6
CONTINUOUS
 10
-393.207720
 20
103.249267
 11
-393.226221
 21
103.290692
  0
LINE
  8
0
 62
7
  6
CONTINUOUS
 10
-393.226221
 20
103.290692
 11
-393.244816
 21
103.332075
  0
LINE
  8
0
 62
7
  6
CONTINUOUS
 10
-393.244816
 20
103.332075
 11
-393.263505
 21
103.373415
  0
LINE
  8
0
 62
7
  6
CONTINUOUS
 10
-393.263505
 20
103.373415
 11
-393.282288
 21
103.414712
  0
LINE
  8
0
 62
7
  6
CONTINUOUS
 10
-393.282288
 20
103.414712
 11
-393.301166
 21
103.455967
  0
LINE
  8
0
 62
7
  6
CONTINUOUS
 10
-399.019305
 20
77.479123
 11
-398.953202
 21
77.519320
  0
LINE
  8
0
 62
7
  6
CONTINUOUS
 10
-398.953202
 20
77.519320
 11
-398.887365
 21
77.559968
  0
LINE
  8
0
 62
7
  6
CONTINUOUS
 10
-398.887365
 20
77.559968
 11
-398.821795
 21
77.601062
  0
LINE
  8
0
 62
7
  6
CONTINUOUS
 10
-398.821795
 20
77.601062
 11
-398.756496
 21
77.642600
  0
LINE
  8
0
 62
7
  6
CONTINUOUS
 10
-398.756496
 20
77.642600
 11
-398.691468
 21
77.684576
  0
LINE
  8
0
 62
7
  6
CONTINUOUS
 10
-398.691468
 20
77.684576
 11
-398.626713
 21
77.726987
  0
LINE
  8
0
 62
7
  6
CONTINUOUS
 10
-398.626713
 20
77.726987
 11
-398.562233
 21
77.769828
  0
LINE
  8
0
 62
7
  6
CONTINUOUS
 10
-398.562233
 20
77.769828
 11
-398.498030
 21
77.813096
  0
LINE
  8
0
 62
7
  6
CONTINUOUS
 10
-398.498030
 20
77.813096
 11
-398.434104
 21
77.856787
  0
LINE
  8
0
 62
7
  6
CONTINUOUS
 10
-398.434104
 20
77.856787
 11
-398.370459
 21
77.900896
  0
LINE
  8
0
 62
7
  6
CONTINUOUS
 10
-398.370459
 20
77.900896
 11
-398.307094
 21
77.945420
  0
LINE
  8
0
 62
7
  6
CONTINUOUS
 10
-398.307094
 20
77.945420
 11
-398.244011
 21
77.990354
  0
LINE
  8
0
 62
7
  6
CONTINUOUS
 10
-398.244011
 20
77.990354
 11
-398.181212
 21
78.035695
  0
LINE
  8
0
 62
7
  6
CONTINUOUS
 10
-398.181212
 20
78.035695
 11
-398.118698
 21
78.081439
  0
LINE
  8
0
 62
7
  6
CONTINUOUS
 10
-398.118698
 20
78.081439
 11
-398.056469
 21
78.127582
  0
LINE
  8
0
 62
7
  6
CONTINUOUS
 10
-398.056469
 20
78.127582
 11
-397.994528
 21
78.174119
  0
LINE
  8
0
 62
7
  6
CONTINUOUS
 10
-395.147038
 20
81.098897
 11
-395.114280
 21
81.143611
  0
LINE
  8
0
 62
7
  6
CONTINUOUS
 10
-395.114280
 20
81.143611
 11
-395.081672
 21
81.188440
  0
LINE
  8
0
 62
7
  6
CONTINUOUS
 10
-395.081672
 20
81.188440
 11
-395.049214
 21
81.233383
  0
LINE
  8
0
 62
7
  6
CONTINUOUS
 10
-395.049214
 20
81.233383
 11
-395.016906
 21
81.278438
  0
LINE
  8
0
 62
7
  6
CONTINUOUS
 10
-395.016906
 20
81.278438
 11
-394.984747
 21
81.323605
  0
LINE
  8
0
 62
7
  6
CONTINUOUS
 10
-394.984747
 20
81.323605
 11
-394.952739
 21
81.368882
  0
LINE
  8
0
 62
7
  6
CONTINUOUS
 10
-394.952739
 20
81.368882
 11
-394.920879
 21
81.414269
  0
LINE
  8
0
 62
7
  6
CONTINUOUS
 10
-394.920879
 20
81.414269
 11
-394.889170
 21
81.459764
  0
LINE
  8
0
 62
7
  6
CONTINUOUS
 10
-394.889170
 20
81.459764
 11
-394.857610
 21
81.505367
  0
LINE
  8
0
 62
7
  6
CONTINUOUS
 10
-394.857610
 20
81.505367
 11
-394.826199
 21
81.551078
  0
LINE
  8
0
 62
7
  6
CONTINUOUS
 10
-394.826199
 20
81.551078
 11
-394.794938
 21
81.596894
  0
LINE
  8
0
 62
7
  6
CONTINUOUS
 10
-394.794938
 20
81.596894
 11
-394.763826
 21
81.642815
  0
LINE
  8
0
 62
7
  6
CONTINUOUS
 10
-394.763826
 20
81.642815
 11
-394.732864
 21
81.688840
  0
LINE
  8
0
 62
7
  6
CONTINUOUS
 10
-394.732864
 20
81.688840
 11
-394.702050
 21
81.734969
  0
LINE
  8
0
 62
7
  6
CONTINUOUS
 10
-394.702050
 20
81.734969
 11
-394.671386
 21
81.781199
  0
LINE
  8
0
 62
7
  6
CONTINUOUS
 10
-394.671386
 20
81.781199
 11
-394.640870
 21
81.827532
  0
LINE
  8
0
 62
7
  6
CONTINUOUS
 10
-393.300855
 20
84.259002
 11
-393.281751
 21
84.300757
  0
LINE
  8
0
 62
7
  6
CONTINUOUS
 10
-393.281751
 20
84.300757
 11
-393.262735
 21
84.342576
  0
LINE
  8
0
 62
7
  6
CONTINUOUS
 10
-393.262735
 20
84.342576
 11
-393.243807
 21
84.384456
  0
LINE
  8
0
 62
7
  6
CONTINUOUS
 10
-393.243807
 20
84.384456
 11
-393.224968
 21
84.426398
  0
LINE
  8
0
 62
7
  6
CONTINUOUS
 10
-393.224968
 20
84.426398
 11
-393.206218
 21
84.468401
  0
LINE
  8
0
 62
7
  6
CONTINUOUS
 10
-393.206218
 20
84.468401
 11
-393.187556
 21
84.510465
  0
LINE
  8
0
 62
7
  6
CONTINUOUS
 10
-393.187556
 20
84.510465
 11
-393.168983
 21
84.552589
  0
LINE
  8
0
 62
7
  6
CONTINUOUS
 10
-393.168983
 20
84.552589
 11
-393.150499
 21
84.594773
  0
LINE
  8
0
 62
7
  6
CONTINUOUS
 10
-393.150499
 20
84.594773
 11
-393.132104
 21
84.637016
  0
LINE
  8
0
 62
7
  6
CONTINUOUS
 10
-393.132104
 20
84.637016
 11
-393.113798
 21
84.679318
  0
LINE
  8
0
 62
7
  6
CONTINUOUS
 10
-393.113798
 20
84.679318
 11
-393.095581
 21
84.721679
  0
LINE
  8
0
 62
7
  6
CONTINUOUS
 10
-393.095581
 20
84.721679
 11
-393.077454
 21
84.764098
  0
LINE
  8
0
 62
7
  6
CONTINUOUS
 10
-393.077454
 20
84.764098
 11
-393.059416
 21
84.806574
  0
LINE
  8
0
 62
7
  6
CONTINUOUS
 10
-393.059416
 20
84.806574
 11
-393.041467
 21
84.849108
  0
LINE
  8
0
 62
7
  6
CONTINUOUS
 10
-393.041467
 20
84.849108
 11
-393.023609
 21
84.891698
  0
LINE
  8
0
 62
7
  6
CONTINUOUS
 10
-393.023609
 20
84.891698
 11
-393.005839
 21
84.934345
  0
LINE
  8
0
 62
7
  6
CONTINUOUS
 10
-394.640309
 20
105.885904
 11
-394.670850
 21
105.932281
  0
LINE
  8
0
 62
7
  6
CONTINUOUS
 10
-394.670850
 20
105.932281
 11
-394.701542
 21
105.978559
  0
LINE
  8
0
 62
7
  6
CONTINUOUS
 10
-394.701542
 20
105.978559
 11
-394.732385
 21
106.024737
  0
LINE
  8
0
 62
7
  6
CONTINUOUS
 10
-394.732385
 20
106.024737
 11
-394.763379
 21
106.070813
  0
LINE
  8
0
 62
7
  6
CONTINUOUS
 10
-394.763379
 20
106.070813
 11
-394.794524
 21
106.116788
  0
LINE
  8
0
 62
7
  6
CONTINUOUS
 10
-394.794524
 20
106.116788
 11
-394.825820
 21
106.162660
  0
LINE
  8
0
 62
7
  6
CONTINUOUS
 10
-394.825820
 20
106.162660
 11
-394.857268
 21
106.208428
  0
LINE
  8
0
 62
7
  6
CONTINUOUS
 10
-394.857268
 20
106.208428
 11
-394.888868
 21
106.254091
  0
LINE
  8
0
 62
7
  6
CONTINUOUS
 10
-394.888868
 20
106.254091
 11
-394.920619
 21
106.299649
  0
LINE
  8
0
 62
7
  6
CONTINUOUS
 10
-394.920619
 20
106.299649
 11
-394.952522
 21
106.345101
  0
LINE
  8
0
 62
7
  6
CONTINUOUS
 10
-394.952522
 20
106.345101
 11
-394.984577
 21
106.390446
  0
LINE
  8
0
 62
7
  6
CONTINUOUS
 10
-394.984577
 20
106.390446
 11
-395.016785
 21
106.435683
  0
LINE
  8
0
 62
7
  6
CONTINUOUS
 10
-395.016785
 20
106.435683
 11
-395.049145
 21
106.480811
  0
LINE
  8
0
 62
7
  6
CONTINUOUS
 10
-395.049145
 20
106.480811
 11
-395.081657
 21
106.525830
  0
LINE
  8
0
 62
7
  6
CONTINUOUS
 10
-395.081657
 20
106.525830
 11
-395.114322
 21
106.570737
  0
LINE
  8
0
 62
7
  6
CONTINUOUS
 10
-395.114322
 20
106.570737
 11
-395.147140
 21
106.615534
  0
LINE
  8
0
 62
7
  6
CONTINUOUS
 10
-397.991726
 20
109.538049
 11
-398.053782
 21
109.584700
  0
LINE
  8
0
 62
7
  6
CONTINUOUS
 10
-398.053782
 20
109.584700
 11
-398.116132
 21
109.630959
  0
LINE
  8
0
 62
7
  6
CONTINUOUS
 10
-398.116132
 20
109.630959
 11
-398.178773
 21
109.676820
  0
LINE
  8
0
 62
7
  6
CONTINUOUS
 10
-398.178773
 20
109.676820
 11
-398.241706
 21
109.722281
  0
LINE
  8
0
 62
7
  6
CONTINUOUS
 10
-398.241706
 20
109.722281
 11
-398.304930
 21
109.767337
  0
LINE
  8
0
 62
7
  6
CONTINUOUS
 10
-398.304930
 20
109.767337
 11
-398.368442
 21
109.811985
  0
LINE
  8
0
 62
7
  6
CONTINUOUS
 10
-398.368442
 20
109.811985
 11
-398.432243
 21
109.856220
  0
LINE
  8
0
 62
7
  6
CONTINUOUS
 10
-398.432243
 20
109.856220
 11
-398.496330
 21
109.900038
  0
LINE
  8
0
 62
7
  6
CONTINUOUS
 10
-398.496330
 20
109.900038
 11
-398.560703
 21
109.943436
  0
LINE
  8
0
 62
7
  6
CONTINUOUS
 10
-398.560703
 20
109.943436
 11
-398.625360
 21
109.986409
  0
LINE
  8
0
 62
7
  6
CONTINUOUS
 10
-398.625360
 20
109.986409
 11
-398.690299
 21
110.028953
  0
LINE
  8
0
 62
7
  6
CONTINUOUS
 10
-398.690299
 20
110.028953
 11
-398.755521
 21
110.071064
  0
LINE
  8
0
 62
7
  6
CONTINUOUS
 10
-398.755521
 20
110.071064
 11
-398.821022
 21
110.112738
  0
LINE
  8
0
 62
7
  6
CONTINUOUS
 10
-398.821022
 20
110.112738
 11
-398.886802
 21
110.153970
  0
LINE
  8
0
 62
7
  6
CONTINUOUS
 10
-398.886802
 20
110.153970
 11
-398.952858
 21
110.194758
  0
LINE
  8
0
 62
7
  6
CONTINUOUS
 10
-398.952858
 20
110.194758
 11
-399.019190
 21
110.235096
  0
LINE
  8
0
 62
7
  6
CONTINUOUS
 10
-405.628915
 20
81.713398
 11
-405.676535
 21
81.585436
  0
LINE
  8
0
 62
7
  6
CONTINUOUS
 10
-405.676535
 20
81.585436
 11
-405.720379
 21
81.456041
  0
LINE
  8
0
 62
7
  6
CONTINUOUS
 10
-405.720379
 20
81.456041
 11
-405.760597
 21
81.325430
  0
LINE
  8
0
 62
7
  6
CONTINUOUS
 10
-405.760597
 20
81.325430
 11
-405.797277
 21
81.193974
  0
LINE
  8
0
 62
7
  6
CONTINUOUS
 10
-405.797277
 20
81.193974
 11
-405.830854
 21
81.060593
  0
LINE
  8
0
 62
7
  6
CONTINUOUS
 10
-405.830854
 20
81.060593
 11
-405.860963
 21
80.927282
  0
LINE
  8
0
 62
7
  6
CONTINUOUS
 10
-405.860963
 20
80.927282
 11
-405.887930
 21
80.793299
  0
LINE
  8
0
 62
7
  6
CONTINUOUS
 10
-405.887930
 20
80.793299
 11
-405.911840
 21
80.658734
  0
LINE
  8
0
 62
7
  6
CONTINUOUS
 10
-405.911840
 20
80.658734
 11
-405.932770
 21
80.523670
  0
LINE
  8
0
 62
7
  6
CONTINUOUS
 10
-405.932770
 20
80.523670
 11
-405.950783
 21
80.388183
  0
LINE
  8
0
 62
7
  6
CONTINUOUS
 10
-405.950783
 20
80.388183
 11
-405.965934
 21
80.252343
  0
LINE
  8
0
 62
7
  6
CONTINUOUS
 10
-405.965934
 20
80.252343
 11
-405.978266
 21
80.116216
  0
LINE
  8
0
 62
7
  6
CONTINUOUS
 10
-405.978266
 20
80.116216
 11
-405.987815
 21
79.979865
  0
LINE
  8
0
 62
7
  6
CONTINUOUS
 10
-405.987815
 20
79.979865
 11
-405.994609
 21
79.843351
  0
LINE
  8
0
 62
7
  6
CONTINUOUS
 10
-405.994609
 20
79.843351
 11
-405.998685
 21
79.705794
  0
LINE
  8
0
 62
7
  6
CONTINUOUS
 10
-405.998685
 20
79.705794
 11
-405.999999
 21
79.568768
  0
LINE
  8
0
 62
7
  6
CONTINUOUS
 10
-403.305615
 20
87.148789
 11
-403.441491
 21
87.527213
  0
LINE
  8
0
 62
7
  6
CONTINUOUS
 10
-403.441491
 20
87.527213
 11
-403.622345
 21
87.885349
  0
LINE
  8
0
 62
7
  6
CONTINUOUS
 10
-403.622345
 20
87.885349
 11
-403.852387
 21
88.213968
  0
LINE
  8
0
 62
7
  6
CONTINUOUS
 10
-403.852387
 20
88.213968
 11
-404.135369
 21
88.498030
  0
LINE
  8
0
 62
7
  6
CONTINUOUS
 10
-404.135369
 20
88.498030
 11
-404.471798
 21
88.715530
  0
LINE
  8
0
 62
7
  6
CONTINUOUS
 10
-404.471798
 20
88.715530
 11
-404.853035
 21
88.838767
  0
LINE
  8
0
 62
7
  6
CONTINUOUS
 10
-404.853035
 20
88.838767
 11
-405.251972
 21
88.844602
  0
LINE
  8
0
 62
7
  6
CONTINUOUS
 10
-405.251972
 20
88.844602
 11
-405.635034
 21
88.732424
  0
LINE
  8
0
 62
7
  6
CONTINUOUS
 10
-405.635034
 20
88.732424
 11
-405.976230
 21
88.523197
  0
LINE
  8
0
 62
7
  6
CONTINUOUS
 10
-405.976230
 20
88.523197
 11
-406.264315
 21
88.245035
  0
LINE
  8
0
 62
7
  6
CONTINUOUS
 10
-406.264315
 20
88.245035
 11
-406.499054
 21
87.920959
  0
LINE
  8
0
 62
7
  6
CONTINUOUS
 10
-406.499054
 20
87.920959
 11
-406.684788
 21
87.565382
  0
LINE
  8
0
 62
7
  6
CONTINUOUS
 10
-406.684788
 20
87.565382
 11
-406.824933
 21
87.189454
  0
LINE
  8
0
 62
7
  6
CONTINUOUS
 10
-406.824933
 20
87.189454
 11
-406.922807
 21
86.800260
  0
LINE
  8
0
 62
7
  6
CONTINUOUS
 10
-406.922807
 20
86.800260
 11
-406.980714
 21
86.403052
  0
LINE
  8
0
 62
7
  6
CONTINUOUS
 10
-406.980714
 20
86.403052
 11
-406.999999
 21
86.002151
  0
LINE
  8
0
 62
7
  6
CONTINUOUS
 10
-404.142853
 20
86.000000
 11
-404.155283
 21
86.232956
  0
LINE
  8
0
 62
7
  6
CONTINUOUS
 10
-404.155283
 20
86.232956
 11
-404.193080
 21
86.463464
  0
LINE
  8
0
 62
7
  6
CONTINUOUS
 10
-404.193080
 20
86.463464
 11
-404.257846
 21
86.688585
  0
LINE
  8
0
 62
7
  6
CONTINUOUS
 10
-404.257846
 20
86.688585
 11
-404.351760
 21
86.902748
  0
LINE
  8
0
 62
7
  6
CONTINUOUS
 10
-404.351760
 20
86.902748
 11
-404.478396
 21
87.099275
  0
LINE
  8
0
 62
7
  6
CONTINUOUS
 10
-404.478396
 20
87.099275
 11
-404.641674
 21
87.266361
  0
LINE
  8
0
 62
7
  6
CONTINUOUS
 10
-404.641674
 20
87.266361
 11
-404.842697
 21
87.384550
  0
LINE
  8
0
 62
7
  6
CONTINUOUS
 10
-404.842697
 20
87.384550
 11
-405.071442
 21
87.428574
  0
LINE
  8
0
 62
7
  6
CONTINUOUS
 10
-405.071442
 20
87.428574
 11
-405.299034
 21
87.384999
  0
LINE
  8
0
 62
7
  6
CONTINUOUS
 10
-405.299034
 20
87.384999
 11
-405.500008
 21
87.267318
  0
LINE
  8
0
 62
7
  6
CONTINUOUS
 10
-405.500008
 20
87.267318
 11
-405.663318
 21
87.100749
  0
LINE
  8
0
 62
7
  6
CONTINUOUS
 10
-405.663318
 20
87.100749
 11
-405.790017
 21
86.904799
  0
LINE
  8
0
 62
7
  6
CONTINUOUS
 10
-405.790017
 20
86.904799
 11
-405.884227
 21
86.690782
  0
LINE
  8
0
 62
7
  6
CONTINUOUS
 10
-405.884227
 20
86.690782
 11
-405.949183
 21
86.466117
  0
LINE
  8
0
 62
7
  6
CONTINUOUS
 10
-405.949183
 20
86.466117
 11
-405.987319
 21
86.235287
  0
LINE
  8
0
 62
7
  6
CONTINUOUS
 10
-405.987319
 20
86.235287
 11
-406.000000
 21
86.000000
  0
LINE
  8
0
 62
7
  6
CONTINUOUS
 10
-406.429038
 20
81.713501
 11
-406.800913
 21
80.881245
  0
LINE
  8
0
 62
7
  6
CONTINUOUS
 10
-406.800913
 20
80.881245
 11
-406.980611
 21
79.986791
  0
LINE
  8
0
 62
7
  6
CONTINUOUS
 10
-406.980611
 20
79.986791
 11
-406.972273
 21
79.075076
  0
LINE
  8
0
 62
7
  6
CONTINUOUS
 10
-406.972273
 20
79.075076
 11
-406.775793
 21
78.184596
  0
LINE
  8
0
 62
7
  6
CONTINUOUS
 10
-406.775793
 20
78.184596
 11
-406.386608
 21
77.360362
  0
LINE
  8
0
 62
7
  6
CONTINUOUS
 10
-406.386608
 20
77.360362
 11
-405.800912
 21
76.662897
  0
LINE
  8
0
 62
7
  6
CONTINUOUS
 10
-405.800912
 20
76.662897
 11
-405.031973
 21
76.177332
  0
LINE
  8
0
 62
7
  6
CONTINUOUS
 10
-405.031973
 20
76.177332
 11
-404.142853
 21
76.000000
  0
LINE
  8
0
 62
7
  6
CONTINUOUS
 10
-404.142853
 20
76.000000
 11
-403.252870
 21
76.177685
  0
LINE
  8
0
 62
7
  6
CONTINUOUS
 10
-403.252870
 20
76.177685
 11
-402.484362
 21
76.663282
  0
LINE
  8
0
 62
7
  6
CONTINUOUS
 10
-402.484362
 20
76.663282
 11
-401.898793
 21
77.360845
  0
LINE
  8
0
 62
7
  6
CONTINUOUS
 10
-401.898793
 20
77.360845
 11
-401.509742
 21
78.185103
  0
LINE
  8
0
 62
7
  6
CONTINUOUS
 10
-401.509742
 20
78.185103
 11
-401.313326
 21
79.076030
  0
LINE
  8
0
 62
7
  6
CONTINUOUS
 10
-401.313326
 20
79.076030
 11
-401.305194
 21
79.987854
  0
LINE
  8
0
 62
7
  6
CONTINUOUS
 10
-401.305194
 20
79.987854
 11
-401.484990
 21
80.881872
  0
LINE
  8
0
 62
7
  6
CONTINUOUS
 10
-401.484990
 20
80.881872
 11
-401.857485
 21
81.714864
  0
LINE
  8
0
 62
7
  6
CONTINUOUS
 10
-406.000000
 20
79.571426
 11
-405.961181
 21
79.135591
  0
LINE
  8
0
 62
7
  6
CONTINUOUS
 10
-405.961181
 20
79.135591
 11
-405.844776
 21
78.713809
  0
LINE
  8
0
 62
7
  6
CONTINUOUS
 10
-405.844776
 20
78.713809
 11
-405.651107
 21
78.321137
  0
LINE
  8
0
 62
7
  6
CONTINUOUS
 10
-405.651107
 20
78.321137
 11
-405.381944
 21
77.975264
  0
LINE
  8
0
 62
7
  6
CONTINUOUS
 10
-405.381944
 20
77.975264
 11
-405.043037
 21
77.697131
  0
LINE
  8
0
 62
7
  6
CONTINUOUS
 10
-405.043037
 20
77.697131
 11
-404.647324
 21
77.509146
  0
LINE
  8
0
 62
7
  6
CONTINUOUS
 10
-404.647324
 20
77.509146
 11
-404.217159
 21
77.430290
  0
LINE
  8
0
 62
7
  6
CONTINUOUS
 10
-404.217159
 20
77.430290
 11
-403.782432
 21
77.469315
  0
LINE
  8
0
 62
7
  6
CONTINUOUS
 10
-403.782432
 20
77.469315
 11
-403.372660
 21
77.621538
  0
LINE
  8
0
 62
7
  6
CONTINUOUS
 10
-403.372660
 20
77.621538
 11
-403.013231
 21
77.870557
  0
LINE
  8
0
 62
7
  6
CONTINUOUS
 10
-403.013231
 20
77.870557
 11
-402.719528
 21
78.194946
  0
LINE
  8
0
 62
7
  6
CONTINUOUS
 10
-402.719528
 20
78.194946
 11
-402.499442
 21
78.573373
  0
LINE
  8
0
 62
7
  6
CONTINUOUS
 10
-402.499442
 20
78.573373
 11
-402.356037
 21
78.987298
  0
LINE
  8
0
 62
7
  6
CONTINUOUS
 10
-402.356037
 20
78.987298
 11
-402.290323
 21
79.420408
  0
LINE
  8
0
 62
7
  6
CONTINUOUS
 10
-402.290323
 20
79.420408
 11
-402.302412
 21
79.858206
  0
LINE
  8
0
 62
7
  6
CONTINUOUS
 10
-402.302412
 20
79.858206
 11
-402.392154
 21
80.286483
  0
LINE
  8
0
 62
7
  6
CONTINUOUS
 10
-401.285706
 20
93.857147
 11
-401.466055
 21
95.105920
  0
LINE
  8
0
 62
7
  6
CONTINUOUS
 10
-401.466055
 20
95.105920
 11
-402.014998
 21
96.240523
  0
LINE
  8
0
 62
7
  6
CONTINUOUS
 10
-402.014998
 20
96.240523
 11
-402.937161
 21
97.095001
  0
LINE
  8
0
 62
7
  6
CONTINUOUS
 10
-402.937161
 20
97.095001
 11
-404.142853
 21
97.428574
  0
LINE
  8
0
 62
7
  6
CONTINUOUS
 10
-404.142853
 20
97.428574
 11
-405.348790
 21
97.094859
  0
LINE
  8
0
 62
7
  6
CONTINUOUS
 10
-405.348790
 20
97.094859
 11
-406.270580
 21
96.240701
  0
LINE
  8
0
 62
7
  6
CONTINUOUS
 10
-406.270580
 20
96.240701
 11
-406.819570
 21
95.106189
  0
LINE
  8
0
 62
7
  6
CONTINUOUS
 10
-406.819570
 20
95.106189
 11
-407.000000
 21
93.857147
  0
LINE
  8
0
 62
7
  6
CONTINUOUS
 10
-407.000000
 20
93.857147
 11
-406.819651
 21
92.608375
  0
LINE
  8
0
 62
7
  6
CONTINUOUS
 10
-406.819651
 20
92.608375
 11
-406.270709
 21
91.473771
  0
LINE
  8
0
 62
7
  6
CONTINUOUS
 10
-406.270709
 20
91.473771
 11
-405.348549
 21
90.619290
  0
LINE
  8
0
 62
7
  6
CONTINUOUS
 10
-405.348549
 20
90.619290
 11
-404.142853
 21
90.285713
  0
LINE
  8
0
 62
7
  6
CONTINUOUS
 10
-404.142853
 20
90.285713
 11
-402.936916
 21
90.619429
  0
LINE
  8
0
 62
7
  6
CONTINUOUS
 10
-402.936916
 20
90.619429
 11
-402.015127
 21
91.473589
  0
LINE
  8
0
 62
7
  6
CONTINUOUS
 10
-402.015127
 20
91.473589
 11
-401.466136
 21
92.608100
  0
LINE
  8
0
 62
7
  6
CONTINUOUS
 10
-401.466136
 20
92.608100
 11
-401.285706
 21
93.857147
  0
LINE
  8
0
 62
7
  6
CONTINUOUS
 10
-402.285706
 20
93.857147
 11
-402.410512
 21
94.629437
  0
LINE
  8
0
 62
7
  6
CONTINUOUS
 10
-402.410512
 20
94.629437
 11
-402.783805
 21
95.317558
  0
LINE
  8
0
 62
7
  6
CONTINUOUS
 10
-402.783805
 20
95.317558
 11
-403.386380
 21
95.814173
  0
LINE
  8
0
 62
7
  6
CONTINUOUS
 10
-403.386380
 20
95.814173
 11
-404.142853
 21
96.000000
  0
LINE
  8
0
 62
7
  6
CONTINUOUS
 10
-404.142853
 20
96.000000
 11
-404.899038
 21
95.814321
  0
LINE
  8
0
 62
7
  6
CONTINUOUS
 10
-404.899038
 20
95.814321
 11
-405.501738
 21
95.317760
  0
LINE
  8
0
 62
7
  6
CONTINUOUS
 10
-405.501738
 20
95.317760
 11
-405.874969
 21
94.630107
  0
LINE
  8
0
 62
7
  6
CONTINUOUS
 10
-405.874969
 20
94.630107
 11
-406.000000
 21
93.857147
  0
LINE
  8
0
 62
7
  6
CONTINUOUS
 10
-406.000000
 20
93.857147
 11
-405.875194
 21
93.084857
  0
LINE
  8
0
 62
7
  6
CONTINUOUS
 10
-405.875194
 20
93.084857
 11
-405.501903
 21
92.396735
  0
LINE
  8
0
 62
7
  6
CONTINUOUS
 10
-405.501903
 20
92.396735
 11
-404.899330
 21
91.900117
  0
LINE
  8
0
 62
7
  6
CONTINUOUS
 10
-404.899330
 20
91.900117
 11
-404.142853
 21
91.714287
  0
LINE
  8
0
 62
7
  6
CONTINUOUS
 10
-404.142853
 20
91.714287
 11
-403.386668
 21
91.899967
  0
LINE
  8
0
 62
7
  6
CONTINUOUS
 10
-403.386668
 20
91.899967
 11
-402.783969
 21
92.396530
  0
LINE
  8
0
 62
7
  6
CONTINUOUS
 10
-402.783969
 20
92.396530
 11
-402.410738
 21
93.084182
  0
LINE
  8
0
 62
7
  6
CONTINUOUS
 10
-402.410738
 20
93.084182
 11
-402.285706
 21
93.857147
  0
LINE
  8
0
 62
7
  6
CONTINUOUS
 10
-405.152818
 20
121.574395
 11
-405.220752
 21
121.763607
  0
LINE
  8
0
 62
7
  6
CONTINUOUS
 10
-405.220752
 20
121.763607
 11
-405.311615
 21
121.943418
  0
LINE
  8
0
 62
7
  6
CONTINUOUS
 10
-405.311615
 20
121.943418
 11
-405.426743
 21
122.107651
  0
LINE
  8
0
 62
7
  6
CONTINUOUS
 10
-405.426743
 20
122.107651
 11
-405.568348
 21
122.249567
  0
LINE
  8
0
 62
7
  6
CONTINUOUS
 10
-405.568348
 20
122.249567
 11
-405.737415
 21
122.358504
  0
LINE
  8
0
 62
7
  6
CONTINUOUS
 10
-405.737415
 20
122.358504
 11
-405.928174
 21
122.419663
  0
LINE
  8
0
 62
7
  6
CONTINUOUS
 10
-405.928174
 20
122.419663
 11
-406.127643
 21
122.422066
  0
LINE
  8
0
 62
7
  6
CONTINUOUS
 10
-406.127643
 20
122.422066
 11
-406.319043
 21
122.365513
  0
LINE
  8
0
 62
7
  6
CONTINUOUS
 10
-406.319043
 20
122.365513
 11
-406.488886
 21
122.260982
  0
LINE
  8
0
 62
7
  6
CONTINUOUS
 10
-406.488886
 20
122.260982
 11
-406.632796
 21
122.121762
  0
LINE
  8
0
 62
7
  6
CONTINUOUS
 10
-406.632796
 20
122.121762
 11
-406.750041
 21
121.959628
  0
LINE
  8
0
 62
7
  6
CONTINUOUS
 10
-406.750041
 20
121.959628
 11
-406.842792
 21
121.781779
  0
LINE
  8
0
 62
7
  6
CONTINUOUS
 10
-406.842792
 20
121.781779
 11
-406.912758
 21
121.593775
  0
LINE
  8
0
 62
7
  6
CONTINUOUS
 10
-406.912758
 20
121.593775
 11
-406.961594
 21
121.399153
  0
LINE
  8
0
 62
7
  6
CONTINUOUS
 10
-406.961594
 20
121.399153
 11
-406.990452
 21
121.200536
  0
LINE
  8
0
 62
7
  6
CONTINUOUS
 10
-406.990452
 20
121.200536
 11
-407.000000
 21
121.000000
  0
LINE
  8
0
 62
7
  6
CONTINUOUS
 10
-405.571442
 20
121.000000
 11
-405.577656
 21
121.116478
  0
LINE
  8
0
 62
7
  6
CONTINUOUS
 10
-405.577656
 20
121.116478
 11
-405.596552
 21
121.231732
  0
LINE
  8
0
 62
7
  6
CONTINUOUS
 10
-405.596552
 20
121.231732
 11
-405.628931
 21
121.344293
  0
LINE
  8
0
 62
7
  6
CONTINUOUS
 10
-405.628931
 20
121.344293
 11
-405.676161
 21
121.451899
  0
LINE
  8
0
 62
7
  6
CONTINUOUS
 10
-405.676161
 20
121.451899
 11
-405.740112
 21
121.550805
  0
LINE
  8
0
 62
7
  6
CONTINUOUS
 10
-405.740112
 20
121.550805
 11
-405.822680
 21
121.634659
  0
LINE
  8
0
 62
7
  6
CONTINUOUS
 10
-405.822680
 20
121.634659
 11
-405.923997
 21
121.693303
  0
LINE
  8
0
 62
7
  6
CONTINUOUS
 10
-405.923997
 20
121.693303
 11
-406.037610
 21
121.714281
  0
LINE
  8
0
 62
7
  6
CONTINUOUS
 10
-406.037610
 20
121.714281
 11
-406.151282
 21
121.691802
  0
LINE
  8
0
 62
7
  6
CONTINUOUS
 10
-406.151282
 20
121.691802
 11
-406.251047
 21
121.632812
  0
LINE
  8
0
 62
7
  6
CONTINUOUS
 10
-406.251047
 20
121.632812
 11
-406.332485
 21
121.549309
  0
LINE
  8
0
 62
7
  6
CONTINUOUS
 10
-406.332485
 20
121.549309
 11
-406.395639
 21
121.451200
  0
LINE
  8
0
 62
7
  6
CONTINUOUS
 10
-406.395639
 20
121.451200
 11
-406.442343
 21
121.344742
  0
LINE
  8
0
 62
7
  6
CONTINUOUS
 10
-406.442343
 20
121.344742
 11
-406.474740
 21
121.232387
  0
LINE
  8
0
 62
7
  6
CONTINUOUS
 10
-406.474740
 20
121.232387
 11
-406.493733
 21
121.116960
  0
LINE
  8
0
 62
7
  6
CONTINUOUS
 10
-406.493733
 20
121.116960
 11
-406.500000
 21
121.000000
  0
LINE
  8
0
 62
7
  6
CONTINUOUS
 10
-406.715107
 20
118.855779
 11
-406.900800
 21
118.439540
  0
LINE
  8
0
 62
7
  6
CONTINUOUS
 10
-406.900800
 20
118.439540
 11
-406.990411
 21
117.992266
  0
LINE
  8
0
 62
7
  6
CONTINUOUS
 10
-406.990411
 20
117.992266
 11
-406.986010
 21
117.536412
  0
LINE
  8
0
 62
7
  6
CONTINUOUS
 10
-406.986010
 20
117.536412
 11
-406.887731
 21
117.091799
  0
LINE
  8
0
 62
7
  6
CONTINUOUS
 10
-406.887731
 20
117.091799
 11
-406.692706
 21
116.679224
  0
LINE
  8
0
 62
7
  6
CONTINUOUS
 10
-406.692706
 20
116.679224
 11
-406.399619
 21
116.330695
  0
LINE
  8
0
 62
7
  6
CONTINUOUS
 10
-406.399619
 20
116.330695
 11
-406.014948
 21
116.088236
  0
LINE
  8
0
 62
7
  6
CONTINUOUS
 10
-406.014948
 20
116.088236
 11
-405.571442
 21
116.000000
  0
LINE
  8
0
 62
7
  6
CONTINUOUS
 10
-405.571442
 20
116.000000
 11
-405.126450
 21
116.088842
  0
LINE
  8
0
 62
7
  6
CONTINUOUS
 10
-405.126450
 20
116.088842
 11
-404.742195
 21
116.331638
  0
LINE
  8
0
 62
7
  6
CONTINUOUS
 10
-404.742195
 20
116.331638
 11
-404.449406
 21
116.680416
  0
LINE
  8
0
 62
7
  6
CONTINUOUS
 10
-404.449406
 20
116.680416
 11
-404.254876
 21
117.092543
  0
LINE
  8
0
 62
7
  6
CONTINUOUS
 10
-404.254876
 20
117.092543
 11
-404.156664
 21
117.538006
  0
LINE
  8
0
 62
7
  6
CONTINUOUS
 10
-404.156664
 20
117.538006
 11
-404.152596
 21
117.993918
  0
LINE
  8
0
 62
7
  6
CONTINUOUS
 10
-404.152596
 20
117.993918
 11
-404.242297
 21
118.440299
  0
LINE
  8
0
 62
7
  6
CONTINUOUS
 10
-404.242297
 20
118.440299
 11
-404.428403
 21
118.856856
  0
LINE
  8
0
 62
7
  6
CONTINUOUS
 10
-406.500000
 20
117.785713
 11
-406.480591
 21
117.567794
  0
LINE
  8
0
 62
7
  6
CONTINUOUS
 10
-406.480591
 20
117.567794
 11
-406.422390
 21
117.356903
  0
LINE
  8
0
 62
7
  6
CONTINUOUS
 10
-406.422390
 20
117.356903
 11
-406.325557
 21
117.160566
  0
LINE
  8
0
 62
7
  6
CONTINUOUS
 10
-406.325557
 20
117.160566
 11
-406.190977
 21
116.987628
  0
LINE
  8
0
 62
7
  6
CONTINUOUS
 10
-406.190977
 20
116.987628
 11
-406.021523
 21
116.848561
  0
LINE
  8
0
 62
7
  6
CONTINUOUS
 10
-406.021523
 20
116.848561
 11
-405.823667
 21
116.754570
  0
LINE
  8
0
 62
7
  6
CONTINUOUS
 10
-405.823667
 20
116.754570
 11
-405.608584
 21
116.715144
  0
LINE
  8
0
 62
7
  6
CONTINUOUS
 10
-405.608584
 20
116.715144
 11
-405.391220
 21
116.734660
  0
LINE
  8
0
 62
7
  6
CONTINUOUS
 10
-405.391220
 20
116.734660
 11
-405.186335
 21
116.810773
  0
LINE
  8
0
 62
7
  6
CONTINUOUS
 10
-405.186335
 20
116.810773
 11
-405.006620
 21
116.935283
  0
LINE
  8
0
 62
7
  6
CONTINUOUS
 10
-405.006620
 20
116.935283
 11
-404.859768
 21
117.097477
  0
LINE
  8
0
 62
7
  6
CONTINUOUS
 10
-404.859768
 20
117.097477
 11
-404.749723
 21
117.286689
  0
LINE
  8
0
 62
7
  6
CONTINUOUS
 10
-404.749723
 20
117.286689
 11
-404.678019
 21
117.493651
  0
LINE
  8
0
 62
7
  6
CONTINUOUS
 10
-404.678019
 20
117.493651
 11
-404.645162
 21
117.710206
  0
LINE
  8
0
 62
7
  6
CONTINUOUS
 10
-404.645162
 20
117.710206
 11
-404.651207
 21
117.929105
  0
LINE
  8
0
 62
7
  6
CONTINUOUS
 10
-404.651207
 20
117.929105
 11
-404.696079
 21
118.143243
  0
LINE
  8
0
 62
7
  6
CONTINUOUS
 10
-404.142853
 20
124.928574
 11
-404.233029
 21
125.552960
  0
LINE
  8
0
 62
7
  6
CONTINUOUS
 10
-404.233029
 20
125.552960
 11
-404.507505
 21
126.120260
  0
LINE
  8
0
 62
7
  6
CONTINUOUS
 10
-404.507505
 20
126.120260
 11
-404.968588
 21
126.547498
  0
LINE
  8
0
 62
7
  6
CONTINUOUS
 10
-404.968588
 20
126.547498
 11
-405.571442
 21
126.714287
  0
LINE
  8
0
 62
7
  6
CONTINUOUS
 10
-405.571442
 20
126.714287
 11
-406.173734
 21
126.547821
  0
LINE
  8
0
 62
7
  6
CONTINUOUS
 10
-406.173734
 20
126.547821
 11
-406.634844
 21
126.120982
  0
LINE
  8
0
 62
7
  6
CONTINUOUS
 10
-406.634844
 20
126.120982
 11
-406.909565
 21
125.553838
  0
LINE
  8
0
 62
7
  6
CONTINUOUS
 10
-406.909565
 20
125.553838
 11
-407.000000
 21
124.928574
  0
LINE
  8
0
 62
7
  6
CONTINUOUS
 10
-407.000000
 20
124.928574
 11
-406.909828
 21
124.304187
  0
LINE
  8
0
 62
7
  6
CONTINUOUS
 10
-406.909828
 20
124.304187
 11
-406.635360
 21
123.736882
  0
LINE
  8
0
 62
7
  6
CONTINUOUS
 10
-406.635360
 20
123.736882
 11
-406.174283
 21
123.309639
  0
LINE
  8
0
 62
7
  6
CONTINUOUS
 10
-406.174283
 20
123.309639
 11
-405.571442
 21
123.142853
  0
LINE
  8
0
 62
7
  6
CONTINUOUS
 10
-405.571442
 20
123.142853
 11
-404.969149
 21
123.309317
  0
LINE
  8
0
 62
7
  6
CONTINUOUS
 10
-404.969149
 20
123.309317
 11
-404.508032
 21
123.736149
  0
LINE
  8
0
 62
7
  6
CONTINUOUS
 10
-404.508032
 20
123.736149
 11
-404.233298
 21
124.303288
  0
LINE
  8
0
 62
7
  6
CONTINUOUS
 10
-404.233298
 20
124.303288
 11
-404.142853
 21
124.928574
  0
LINE
  8
0
 62
7
  6
CONTINUOUS
 10
-404.642853
 20
124.928574
 11
-404.705258
 21
125.314718
  0
LINE
  8
0
 62
7
  6
CONTINUOUS
 10
-404.705258
 20
125.314718
 11
-404.891907
 21
125.658776
  0
LINE
  8
0
 62
7
  6
CONTINUOUS
 10
-404.891907
 20
125.658776
 11
-405.193195
 21
125.907083
  0
LINE
  8
0
 62
7
  6
CONTINUOUS
 10
-405.193195
 20
125.907083
 11
-405.571442
 21
126.000000
  0
LINE
  8
0
 62
7
  6
CONTINUOUS
 10
-405.571442
 20
126.000000
 11
-405.949534
 21
125.907160
  0
LINE
  8
0
 62
7
  6
CONTINUOUS
 10
-405.949534
 20
125.907160
 11
-406.250880
 21
125.658875
  0
LINE
  8
0
 62
7
  6
CONTINUOUS
 10
-406.250880
 20
125.658875
 11
-406.437489
 21
125.315046
  0
LINE
  8
0
 62
7
  6
CONTINUOUS
 10
-406.437489
 20
125.315046
 11
-406.500000
 21
124.928574
  0
LINE
  8
0
 62
7
  6
CONTINUOUS
 10
-406.500000
 20
124.928574
 11
-406.437599
 21
124.542429
  0
LINE
  8
0
 62
7
  6
CONTINUOUS
 10
-406.437599
 20
124.542429
 11
-406.250956
 21
124.198366
  0
LINE
  8
0
 62
7
  6
CONTINUOUS
 10
-406.250956
 20
124.198366
 11
-405.949670
 21
123.950058
  0
LINE
  8
0
 62
7
  6
CONTINUOUS
 10
-405.949670
 20
123.950058
 11
-405.571442
 21
123.857147
  0
LINE
  8
0
 62
7
  6
CONTINUOUS
 10
-405.571442
 20
123.857147
 11
-405.193349
 21
123.949985
  0
LINE
  8
0
 62
7
  6
CONTINUOUS
 10
-405.193349
 20
123.949985
 11
-404.891995
 21
124.198262
  0
LINE
  8
0
 62
7
  6
CONTINUOUS
 10
-404.891995
 20
124.198262
 11
-404.705373
 21
124.542084
  0
LINE
  8
0
 62
7
  6
CONTINUOUS
 10
-404.705373
 20
124.542084
 11
-404.642853
 21
124.928574
  0
LINE
  8
0
 62
7
  6
CONTINUOUS
 10
-406.314261
 20
118.857217
 11
-406.338086
 21
118.793242
  0
LINE
  8
0
 62
7
  6
CONTINUOUS
 10
-406.338086
 20
118.793242
 11
-406.360023
 21
118.728550
  0
LINE
  8
0
 62
7
  6
CONTINUOUS
 10
-406.360023
 20
118.728550
 11
-406.379938
 21
118.663958
  0
LINE
  8
0
 62
7
  6
CONTINUOUS
 10
-406.379938
 20
118.663958
 11
-406.398307
 21
118.598250
  0
LINE
  8
0
 62
7
  6
CONTINUOUS
 10
-406.398307
 20
118.598250
 11
-406.415124
 21
118.531576
  0
LINE
  8
0
 62
7
  6
CONTINUOUS
 10
-406.415124
 20
118.531576
 11
-406.430389
 21
118.464085
  0
LINE
  8
0
 62
7
  6
CONTINUOUS
 10
-406.430389
 20
118.464085
 11
-406.443882
 21
118.397096
  0
LINE
  8
0
 62
7
  6
CONTINUOUS
 10
-406.443882
 20
118.397096
 11
-406.455847
 21
118.329815
  0
LINE
  8
0
 62
7
  6
CONTINUOUS
 10
-406.455847
 20
118.329815
 11
-406.466322
 21
118.262284
  0
LINE
  8
0
 62
7
  6
CONTINUOUS
 10
-406.466322
 20
118.262284
 11
-406.475337
 21
118.194542
  0
LINE
  8
0
 62
7
  6
CONTINUOUS
 10
-406.475337
 20
118.194542
 11
-406.482922
 21
118.126623
  0
LINE
  8
0
 62
7
  6
CONTINUOUS
 10
-406.482922
 20
118.126623
 11
-406.489097
 21
118.058561
  0
LINE
  8
0
 62
7
  6
CONTINUOUS
 10
-406.489097
 20
118.058561
 11
-406.493881
 21
117.990386
  0
LINE
  8
0
 62
7
  6
CONTINUOUS
 10
-406.493881
 20
117.990386
 11
-406.497321
 21
117.921266
  0
LINE
  8
0
 62
7
  6
CONTINUOUS
 10
-406.497321
 20
117.921266
 11
-406.499351
 21
117.852489
  0
LINE
  8
0
 62
7
  6
CONTINUOUS
 10
-406.499351
 20
117.852489
 11
-406.500000
 21
117.785713
  0
LINE
  8
0
 62
7
  6
CONTINUOUS
 10
-405.071442
 20
143.500000
 11
-405.083004
 21
143.775709
  0
LINE
  8
0
 62
7
  6
CONTINUOUS
 10
-405.083004
 20
143.775709
 11
-405.118149
 21
144.049041
  0
LINE
  8
0
 62
7
  6
CONTINUOUS
 10
-405.118149
 20
144.049041
 11
-405.178861
 21
144.319086
  0
LINE
  8
0
 62
7
  6
CONTINUOUS
 10
-405.178861
 20
144.319086
 11
-405.267896
 21
144.580271
  0
LINE
  8
0
 62
7
  6
CONTINUOUS
 10
-405.267896
 20
144.580271
 11
-405.390701
 21
144.827403
  0
LINE
  8
0
 62
7
  6
CONTINUOUS
 10
-405.390701
 20
144.827403
 11
-405.555535
 21
145.048564
  0
LINE
  8
0
 62
7
  6
CONTINUOUS
 10
-405.555535
 20
145.048564
 11
-405.772323
 21
145.217804
  0
LINE
  8
0
 62
7
  6
CONTINUOUS
 10
-405.772323
 20
145.217804
 11
-406.035706
 21
145.285706
  0
LINE
  8
0
 62
7
  6
CONTINUOUS
 10
-406.035706
 20
145.285706
 11
-406.299978
 21
145.217336
  0
LINE
  8
0
 62
7
  6
CONTINUOUS
 10
-406.299978
 20
145.217336
 11
-406.515915
 21
145.048531
  0
LINE
  8
0
 62
7
  6
CONTINUOUS
 10
-406.515915
 20
145.048531
 11
-406.680295
 21
144.828119
  0
LINE
  8
0
 62
7
  6
CONTINUOUS
 10
-406.680295
 20
144.828119
 11
-406.802837
 21
144.581968
  0
LINE
  8
0
 62
7
  6
CONTINUOUS
 10
-406.802837
 20
144.581968
 11
-406.892065
 21
144.320907
  0
LINE
  8
0
 62
7
  6
CONTINUOUS
 10
-406.892065
 20
144.320907
 11
-406.952812
 21
144.051768
  0
LINE
  8
0
 62
7
  6
CONTINUOUS
 10
-406.952812
 20
144.051768
 11
-406.988238
 21
143.778051
  0
LINE
  8
0
 62
7
  6
CONTINUOUS
 10
-406.988238
 20
143.778051
 11
-406.999999
 21
143.502285
  0
LINE
  8
0
 62
7
  6
CONTINUOUS
 10
-405.571442
 20
143.500000
 11
-405.576380
 21
143.655865
  0
LINE
  8
0
 62
7
  6
CONTINUOUS
 10
-405.576380
 20
143.655865
 11
-405.591511
 21
143.811620
  0
LINE
  8
0
 62
7
  6
CONTINUOUS
 10
-405.591511
 20
143.811620
 11
-405.617820
 21
143.966804
  0
LINE
  8
0
 62
7
  6
CONTINUOUS
 10
-405.617820
 20
143.966804
 11
-405.656648
 21
144.118641
  0
LINE
  8
0
 62
7
  6
CONTINUOUS
 10
-405.656648
 20
144.118641
 11
-405.710973
 21
144.265732
  0
LINE
  8
0
 62
7
  6
CONTINUOUS
 10
-405.710973
 20
144.265732
 11
-405.786120
 21
144.403439
  0
LINE
  8
0
 62
7
  6
CONTINUOUS
 10
-405.786120
 20
144.403439
 11
-405.891882
 21
144.518722
  0
LINE
  8
0
 62
7
  6
CONTINUOUS
 10
-405.891882
 20
144.518722
 11
-406.035706
 21
144.571426
  0
LINE
  8
0
 62
7
  6
CONTINUOUS
 10
-406.035706
 20
144.571426
 11
-406.179672
 21
144.518617
  0
LINE
  8
0
 62
7
  6
CONTINUOUS
 10
-406.179672
 20
144.518617
 11
-406.284763
 21
144.404229
  0
LINE
  8
0
 62
7
  6
CONTINUOUS
 10
-406.284763
 20
144.404229
 11
-406.359739
 21
144.267341
  0
LINE
  8
0
 62
7
  6
CONTINUOUS
 10
-406.359739
 20
144.267341
 11
-406.414043
 21
144.121049
  0
LINE
  8
0
 62
7
  6
CONTINUOUS
 10
-406.414043
 20
144.121049
 11
-406.453085
 21
143.969328
  0
LINE
  8
0
 62
7
  6
CONTINUOUS
 10
-406.453085
 20
143.969328
 11
-406.479494
 21
143.814896
  0
LINE
  8
0
 62
7
  6
CONTINUOUS
 10
-406.479494
 20
143.814896
 11
-406.494863
 21
143.658937
  0
LINE
  8
0
 62
7
  6
CONTINUOUS
 10
-406.494863
 20
143.658937
 11
-406.499999
 21
143.502271
  0
LINE
  8
0
 62
7
  6
CONTINUOUS
 10
-401.875000
 20
138.857147
 11
-402.192705
 21
138.750837
  0
LINE
  8
0
 62
7
  6
CONTINUOUS
 10
-402.192705
 20
138.750837
 11
-402.426050
 21
138.506095
  0
LINE
  8
0
 62
7
  6
CONTINUOUS
 10
-402.426050
 20
138.506095
 11
-402.580149
 21
138.203311
  0
LINE
  8
0
 62
7
  6
CONTINUOUS
 10
-402.580149
 20
138.203311
 11
-402.672117
 21
137.875727
  0
LINE
  8
0
 62
7
  6
CONTINUOUS
 10
-402.672117
 20
137.875727
 11
-402.711847
 21
137.537577
  0
LINE
  8
0
 62
7
  6
CONTINUOUS
 10
-402.711847
 20
137.537577
 11
-402.703297
 21
137.198057
  0
LINE
  8
0
 62
7
  6
CONTINUOUS
 10
-402.703297
 20
137.198057
 11
-402.645626
 21
136.862626
  0
LINE
  8
0
 62
7
  6
CONTINUOUS
 10
-402.645626
 20
136.862626
 11
-402.532898
 21
136.541531
  0
LINE
  8
0
 62
7
  6
CONTINUOUS
 10
-402.532898
 20
136.541531
 11
-402.352211
 21
136.253392
  0
LINE
  8
0
 62
7
  6
CONTINUOUS
 10
-402.352211
 20
136.253392
 11
-402.085386
 21
136.045610
  0
LINE
  8
0
 62
7
  6
CONTINUOUS
 10
-402.085386
 20
136.045610
 11
-401.752836
 21
136.015215
  0
LINE
  8
0
 62
7
  6
CONTINUOUS
 10
-401.752836
 20
136.015215
 11
-401.462366
 21
136.184579
  0
LINE
  8
0
 62
7
  6
CONTINUOUS
 10
-401.462366
 20
136.184579
 11
-401.259858
 21
136.456709
  0
LINE
  8
0
 62
7
  6
CONTINUOUS
 10
-401.259858
 20
136.456709
 11
-401.129891
 21
136.771052
  0
LINE
  8
0
 62
7
  6
CONTINUOUS
 10
-401.129891
 20
136.771052
 11
-401.057701
 21
137.103667
  0
LINE
  8
0
 62
7
  6
CONTINUOUS
 10
-401.057701
 20
137.103667
 11
-401.035751
 21
137.443359
  0
LINE
  8
0
 62
7
  6
CONTINUOUS
 10
-401.875000
 20
138.142853
 11
-402.017163
 21
138.077129
  0
LINE
  8
0
 62
7
  6
CONTINUOUS
 10
-402.017163
 20
138.077129
 11
-402.108861
 21
137.946079
  0
LINE
  8
0
 62
7
  6
CONTINUOUS
 10
-402.108861
 20
137.946079
 11
-402.166016
 21
137.795806
  0
LINE
  8
0
 62
7
  6
CONTINUOUS
 10
-402.166016
 20
137.795806
 11
-402.199345
 21
137.638255
  0
LINE
  8
0
 62
7
  6
CONTINUOUS
 10
-402.199345
 20
137.638255
 11
-402.213489
 21
137.477760
  0
LINE
  8
0
 62
7
  6
CONTINUOUS
 10
-402.213489
 20
137.477760
 11
-402.210145
 21
137.317213
  0
LINE
  8
0
 62
7
  6
CONTINUOUS
 10
-402.210145
 20
137.317213
 11
-402.188886
 21
137.157368
  0
LINE
  8
0
 62
7
  6
CONTINUOUS
 10
-402.188886
 20
137.157368
 11
-402.147064
 21
137.001774
  0
LINE
  8
0
 62
7
  6
CONTINUOUS
 10
-402.147064
 20
137.001774
 11
-402.077919
 21
136.856107
  0
LINE
  8
0
 62
7
  6
CONTINUOUS
 10
-402.077919
 20
136.856107
 11
-401.966659
 21
136.740838
  0
LINE
  8
0
 62
7
  6
CONTINUOUS
 10
-401.966659
 20
136.740838
 11
-401.812707
 21
136.726422
  0
LINE
  8
0
 62
7
  6
CONTINUOUS
 10
-401.812707
 20
136.726422
 11
-401.691172
 21
136.828206
  0
LINE
  8
0
 62
7
  6
CONTINUOUS
 10
-401.691172
 20
136.828206
 11
-401.615010
 21
136.969628
  0
LINE
  8
0
 62
7
  6
CONTINUOUS
 10
-401.615010
 20
136.969628
 11
-401.568169
 21
137.123679
  0
LINE
  8
0
 62
7
  6
CONTINUOUS
 10
-401.568169
 20
137.123679
 11
-401.542851
 21
137.282753
  0
LINE
  8
0
 62
7
  6
CONTINUOUS
 10
-401.542851
 20
137.282753
 11
-401.535781
 21
137.443674
  0
LINE
  8
0
 62
7
  6
CONTINUOUS
 10
-406.160706
 20
141.714294
 11
-406.379375
 21
141.664954
  0
LINE
  8
0
 62
7
  6
CONTINUOUS
 10
-406.379375
 20
141.664954
 11
-406.564962
 21
141.537655
  0
LINE
  8
0
 62
7
  6
CONTINUOUS
 10
-406.564962
 20
141.537655
 11
-406.710420
 21
141.365216
  0
LINE
  8
0
 62
7
  6
CONTINUOUS
 10
-406.710420
 20
141.365216
 11
-406.820643
 21
141.168344
  0
LINE
  8
0
 62
7
  6
CONTINUOUS
 10
-406.820643
 20
141.168344
 11
-406.901556
 21
140.957027
  0
LINE
  8
0
 62
7
  6
CONTINUOUS
 10
-406.901556
 20
140.957027
 11
-406.956902
 21
140.737601
  0
LINE
  8
0
 62
7
  6
CONTINUOUS
 10
-406.956902
 20
140.737601
 11
-406.989257
 21
140.513546
  0
LINE
  8
0
 62
7
  6
CONTINUOUS
 10
-406.989257
 20
140.513546
 11
-407.000000
 21
140.285706
  0
LINE
  8
0
 62
7
  6
CONTINUOUS
 10
-407.000000
 20
140.285706
 11
-406.989493
 21
140.060366
  0
LINE
  8
0
 62
7
  6
CONTINUOUS
 10
-406.989493
 20
140.060366
 11
-406.957451
 21
139.836624
  0
LINE
  8
0
 62
7
  6
CONTINUOUS
 10
-406.957451
 20
139.836624
 11
-406.902240
 21
139.616583
  0
LINE
  8
0
 62
7
  6
CONTINUOUS
 10
-406.902240
 20
139.616583
 11
-406.821590
 21
139.405135
  0
LINE
  8
0
 62
7
  6
CONTINUOUS
 10
-406.821590
 20
139.405135
 11
-406.711317
 21
139.207537
  0
LINE
  8
0
 62
7
  6
CONTINUOUS
 10
-406.711317
 20
139.207537
 11
-406.565732
 21
139.034500
  0
LINE
  8
0
 62
7
  6
CONTINUOUS
 10
-406.565732
 20
139.034500
 11
-406.379852
 21
138.906705
  0
LINE
  8
0
 62
7
  6
CONTINUOUS
 10
-406.379852
 20
138.906705
 11
-406.160706
 21
138.857147
  0
LINE
  8
0
 62
7
  6
CONTINUOUS
 10
-406.160706
 20
141.000000
 11
-406.260338
 21
140.968508
  0
LINE
  8
0
 62
7
  6
CONTINUOUS
 10
-406.260338
 20
140.968508
 11
-406.337205
 21
140.895743
  0
LINE
  8
0
 62
7
  6
CONTINUOUS
 10
-406.337205
 20
140.895743
 11
-406.393411
 21
140.805522
  0
LINE
  8
0
 62
7
  6
CONTINUOUS
 10
-406.393411
 20
140.805522
 11
-406.434522
 21
140.707510
  0
LINE
  8
0
 62
7
  6
CONTINUOUS
 10
-406.434522
 20
140.707510
 11
-406.464206
 21
140.605030
  0
LINE
  8
0
 62
7
  6
CONTINUOUS
 10
-406.464206
 20
140.605030
 11
-406.484333
 21
140.500246
  0
LINE
  8
0
 62
7
  6
CONTINUOUS
 10
-406.484333
 20
140.500246
 11
-406.496066
 21
140.394162
  0
LINE
  8
0
 62
7
  6
CONTINUOUS
 10
-406.496066
 20
140.394162
 11
-406.500000
 21
140.285706
  0
LINE
  8
0
 62
7
  6
CONTINUOUS
 10
-406.500000
 20
140.285706
 11
-406.496230
 21
140.179529
  0
LINE
  8
0
 62
7
  6
CONTINUOUS
 10
-406.496230
 20
140.179529
 11
-406.484692
 21
140.073582
  0
LINE
  8
0
 62
7
  6
CONTINUOUS
 10
-406.484692
 20
140.073582
 11
-406.464668
 21
139.968336
  0
LINE
  8
0
 62
7
  6
CONTINUOUS
 10
-406.464668
 20
139.968336
 11
-406.435167
 21
139.865768
  0
LINE
  8
0
 62
7
  6
CONTINUOUS
 10
-406.435167
 20
139.865768
 11
-406.394081
 21
139.767230
  0
LINE
  8
0
 62
7
  6
CONTINUOUS
 10
-406.394081
 20
139.767230
 11
-406.337832
 21
139.676485
  0
LINE
  8
0
 62
7
  6
CONTINUOUS
 10
-406.337832
 20
139.676485
 11
-406.260695
 21
139.603148
  0
LINE
  8
0
 62
7
  6
CONTINUOUS
 10
-406.260695
 20
139.603148
 11
-406.160706
 21
139.571426
  0
LINE
  8
0
 62
7
  6
CONTINUOUS
 10
-405.321442
 20
134.928574
 11
-405.051234
 21
134.971381
  0
LINE
  8
0
 62
7
  6
CONTINUOUS
 10
-405.051234
 20
134.971381
 11
-404.805230
 21
135.090929
  0
LINE
  8
0
 62
7
  6
CONTINUOUS
 10
-404.805230
 20
135.090929
 11
-404.596287
 21
135.268784
  0
LINE
  8
0
 62
7
  6
CONTINUOUS
 10
-404.596287
 20
135.268784
 11
-404.428792
 21
135.486308
  0
LINE
  8
0
 62
7
  6
CONTINUOUS
 10
-404.428792
 20
135.486308
 11
-404.301325
 21
135.730794
  0
LINE
  8
0
 62
7
  6
CONTINUOUS
 10
-404.301325
 20
135.730794
 11
-404.212620
 21
135.990970
  0
LINE
  8
0
 62
7
  6
CONTINUOUS
 10
-404.212620
 20
135.990970
 11
-404.160207
 21
136.260927
  0
LINE
  8
0
 62
7
  6
CONTINUOUS
 10
-404.160207
 20
136.260927
 11
-404.142853
 21
136.535706
  0
LINE
  8
0
 62
7
  6
CONTINUOUS
 10
-404.142853
 20
136.535706
 11
-404.160098
 21
136.809625
  0
LINE
  8
0
 62
7
  6
CONTINUOUS
 10
-404.160098
 20
136.809625
 11
-404.212289
 21
137.079188
  0
LINE
  8
0
 62
7
  6
CONTINUOUS
 10
-404.212289
 20
137.079188
 11
-404.300887
 21
137.339588
  0
LINE
  8
0
 62
7
  6
CONTINUOUS
 10
-404.300887
 20
137.339588
 11
-404.428151
 21
137.584095
  0
LINE
  8
0
 62
7
  6
CONTINUOUS
 10
-404.428151
 20
137.584095
 11
-404.595599
 21
137.801904
  0
LINE
  8
0
 62
7
  6
CONTINUOUS
 10
-404.595599
 20
137.801904
 11
-404.804534
 21
137.980032
  0
LINE
  8
0
 62
7
  6
CONTINUOUS
 10
-404.804534
 20
137.980032
 11
-405.051832
 21
138.100236
  0
LINE
  8
0
 62
7
  6
CONTINUOUS
 10
-405.051832
 20
138.100236
 11
-405.321442
 21
138.142853
  0
LINE
  8
0
 62
7
  6
CONTINUOUS
 10
-405.321442
 20
135.642853
 11
-405.169634
 21
135.665482
  0
LINE
  8
0
 62
7
  6
CONTINUOUS
 10
-405.169634
 20
135.665482
 11
-405.029429
 21
135.729752
  0
LINE
  8
0
 62
7
  6
CONTINUOUS
 10
-405.029429
 20
135.729752
 11
-404.909488
 21
135.826208
  0
LINE
  8
0
 62
7
  6
CONTINUOUS
 10
-404.909488
 20
135.826208
 11
-404.811810
 21
135.946175
  0
LINE
  8
0
 62
7
  6
CONTINUOUS
 10
-404.811810
 20
135.946175
 11
-404.737106
 21
136.081758
  0
LINE
  8
0
 62
7
  6
CONTINUOUS
 10
-404.737106
 20
136.081758
 11
-404.684583
 21
136.227437
  0
LINE
  8
0
 62
7
  6
CONTINUOUS
 10
-404.684583
 20
136.227437
 11
-404.653362
 21
136.379184
  0
LINE
  8
0
 62
7
  6
CONTINUOUS
 10
-404.653362
 20
136.379184
 11
-404.642853
 21
136.535706
  0
LINE
  8
0
 62
7
  6
CONTINUOUS
 10
-404.642853
 20
136.535706
 11
-404.653067
 21
136.690039
  0
LINE
  8
0
 62
7
  6
CONTINUOUS
 10
-404.653067
 20
136.690039
 11
-404.683926
 21
136.841618
  0
LINE
  8
0
 62
7
  6
CONTINUOUS
 10
-404.683926
 20
136.841618
 11
-404.736130
 21
136.987475
  0
LINE
  8
0
 62
7
  6
CONTINUOUS
 10
-404.736130
 20
136.987475
 11
-404.810702
 21
137.123581
  0
LINE
  8
0
 62
7
  6
CONTINUOUS
 10
-404.810702
 20
137.123581
 11
-404.908544
 21
137.244263
  0
LINE
  8
0
 62
7
  6
CONTINUOUS
 10
-404.908544
 20
137.244263
 11
-405.029443
 21
137.341680
  0
LINE
  8
0
 62
7
  6
CONTINUOUS
 10
-405.029443
 20
137.341680
 11
-405.170277
 21
137.406137
  0
LINE
  8
0
 62
7
  6
CONTINUOUS
 10
-405.170277
 20
137.406137
 11
-405.321442
 21
137.428574
  0
LINE
  8
0
 62
7
  6
CONTINUOUS
 10
-406.160706
 20
148.857147
 11
-406.379375
 21
148.807808
  0
LINE
  8
0
 62
7
  6
CONTINUOUS
 10
-406.379375
 20
148.807808
 11
-406.564963
 21
148.680511
  0
LINE
  8
0
 62
7
  6
CONTINUOUS
 10
-406.564963
 20
148.680511
 11
-406.710423
 21
148.508072
  0
LINE
  8
0
 62
7
  6
CONTINUOUS
 10
-406.710423
 20
148.508072
 11
-406.820646
 21
148.311200
  0
LINE
  8
0
 62
7
  6
CONTINUOUS
 10
-406.820646
 20
148.311200
 11
-406.901559
 21
148.099883
  0
LINE
  8
0
 62
7
  6
CONTINUOUS
 10
-406.901559
 20
148.099883
 11
-406.956904
 21
147.880458
  0
LINE
  8
0
 62
7
  6
CONTINUOUS
 10
-406.956904
 20
147.880458
 11
-406.989258
 21
147.656402
  0
LINE
  8
0
 62
7
  6
CONTINUOUS
 10
-406.989258
 20
147.656402
 11
-407.000000
 21
147.428574
  0
LINE
  8
0
 62
7
  6
CONTINUOUS
 10
-407.000000
 20
147.428574
 11
-406.989493
 21
147.203234
  0
LINE
  8
0
 62
7
  6
CONTINUOUS
 10
-406.989493
 20
147.203234
 11
-406.957451
 21
146.979492
  0
LINE
  8
0
 62
7
  6
CONTINUOUS
 10
-406.957451
 20
146.979492
 11
-406.902241
 21
146.759451
  0
LINE
  8
0
 62
7
  6
CONTINUOUS
 10
-406.902241
 20
146.759451
 11
-406.821593
 21
146.548002
  0
LINE
  8
0
 62
7
  6
CONTINUOUS
 10
-406.821593
 20
146.548002
 11
-406.711321
 21
146.350403
  0
LINE
  8
0
 62
7
  6
CONTINUOUS
 10
-406.711321
 20
146.350403
 11
-406.565740
 21
146.177364
  0
LINE
  8
0
 62
7
  6
CONTINUOUS
 10
-406.565740
 20
146.177364
 11
-406.379863
 21
146.049563
  0
LINE
  8
0
 62
7
  6
CONTINUOUS
 10
-406.379863
 20
146.049563
 11
-406.160706
 21
146.000000
  0
LINE
  8
0
 62
7
  6
CONTINUOUS
 10
-406.160706
 20
148.142853
 11
-406.260338
 21
148.111363
  0
LINE
  8
0
 62
7
  6
CONTINUOUS
 10
-406.260338
 20
148.111363
 11
-406.337206
 21
148.038599
  0
LINE
  8
0
 62
7
  6
CONTINUOUS
 10
-406.337206
 20
148.038599
 11
-406.393412
 21
147.948380
  0
LINE
  8
0
 62
7
  6
CONTINUOUS
 10
-406.393412
 20
147.948380
 11
-406.434523
 21
147.850369
  0
LINE
  8
0
 62
7
  6
CONTINUOUS
 10
-406.434523
 20
147.850369
 11
-406.464208
 21
147.747890
  0
LINE
  8
0
 62
7
  6
CONTINUOUS
 10
-406.464208
 20
147.747890
 11
-406.484334
 21
147.643106
  0
LINE
  8
0
 62
7
  6
CONTINUOUS
 10
-406.484334
 20
147.643106
 11
-406.496066
 21
147.537023
  0
LINE
  8
0
 62
7
  6
CONTINUOUS
 10
-406.496066
 20
147.537023
 11
-406.500000
 21
147.428574
  0
LINE
  8
0
 62
7
  6
CONTINUOUS
 10
-406.500000
 20
147.428574
 11
-406.496230
 21
147.322398
  0
LINE
  8
0
 62
7
  6
CONTINUOUS
 10
-406.496230
 20
147.322398
 11
-406.484693
 21
147.216451
  0
LINE
  8
0
 62
7
  6
CONTINUOUS
 10
-406.484693
 20
147.216451
 11
-406.464668
 21
147.111206
  0
LINE
  8
0
 62
7
  6
CONTINUOUS
 10
-406.464668
 20
147.111206
 11
-406.435168
 21
147.008639
  0
LINE
  8
0
 62
7
  6
CONTINUOUS
 10
-406.435168
 20
147.008639
 11
-406.394083
 21
146.910101
  0
LINE
  8
0
 62
7
  6
CONTINUOUS
 10
-406.394083
 20
146.910101
 11
-406.337835
 21
146.819357
  0
LINE
  8
0
 62
7
  6
CONTINUOUS
 10
-406.337835
 20
146.819357
 11
-406.260700
 21
146.746019
  0
LINE
  8
0
 62
7
  6
CONTINUOUS
 10
-406.260700
 20
146.746019
 11
-406.160706
 21
146.714294
  0
LINE
  8
0
 62
7
  6
CONTINUOUS
 10
-401.035706
 20
137.428574
 11
-401.027195
 21
137.587568
  0
LINE
  8
0
 62
7
  6
CONTINUOUS
 10
-401.027195
 20
137.587568
 11
-401.000354
 21
137.746053
  0
LINE
  8
0
 62
7
  6
CONTINUOUS
 10
-401.000354
 20
137.746053
 11
-400.951891
 21
137.898636
  0
LINE
  8
0
 62
7
  6
CONTINUOUS
 10
-400.951891
 20
137.898636
 11
-400.873274
 21
138.038162
  0
LINE
  8
0
 62
7
  6
CONTINUOUS
 10
-400.873274
 20
138.038162
 11
-400.748038
 21
138.134545
  0
LINE
  8
0
 62
7
  6
CONTINUOUS
 10
-400.748038
 20
138.134545
 11
-400.596060
 21
138.110876
  0
LINE
  8
0
 62
7
  6
CONTINUOUS
 10
-400.596060
 20
138.110876
 11
-400.489019
 21
137.993831
  0
LINE
  8
0
 62
7
  6
CONTINUOUS
 10
-400.489019
 20
137.993831
 11
-400.422289
 21
137.849405
  0
LINE
  8
0
 62
7
  6
CONTINUOUS
 10
-400.422289
 20
137.849405
 11
-400.381575
 21
137.694691
  0
LINE
  8
0
 62
7
  6
CONTINUOUS
 10
-400.381575
 20
137.694691
 11
-400.361005
 21
137.535976
  0
LINE
  8
0
 62
7
  6
CONTINUOUS
 10
-400.361005
 20
137.535976
 11
-400.358064
 21
137.376109
  0
LINE
  8
0
 62
7
  6
CONTINUOUS
 10
-400.358064
 20
137.376109
 11
-400.372352
 21
137.217144
  0
LINE
  8
0
 62
7
  6
CONTINUOUS
 10
-400.372352
 20
137.217144
 11
-400.405630
 21
137.060618
  0
LINE
  8
0
 62
7
  6
CONTINUOUS
 10
-400.405630
 20
137.060618
 11
-400.462630
 21
136.910962
  0
LINE
  8
0
 62
7
  6
CONTINUOUS
 10
-400.462630
 20
136.910962
 11
-400.554355
 21
136.779931
  0
LINE
  8
0
 62
7
  6
CONTINUOUS
 10
-400.554355
 20
136.779931
 11
-400.696442
 21
136.714279
  0
LINE
  8
0
 62
7
  6
CONTINUOUS
 10
-401.535647
 20
137.411632
 11
-401.514004
 21
137.751344
  0
LINE
  8
0
 62
7
  6
CONTINUOUS
 10
-401.514004
 20
137.751344
 11
-401.441937
 21
138.084749
  0
LINE
  8
0
 62
7
  6
CONTINUOUS
 10
-401.441937
 20
138.084749
 11
-401.312171
 21
138.399330
  0
LINE
  8
0
 62
7
  6
CONTINUOUS
 10
-401.312171
 20
138.399330
 11
-401.109496
 21
138.672156
  0
LINE
  8
0
 62
7
  6
CONTINUOUS
 10
-401.109496
 20
138.672156
 11
-400.818385
 21
138.841988
  0
LINE
  8
0
 62
7
  6
CONTINUOUS
 10
-400.818385
 20
138.841988
 11
-400.485911
 21
138.811472
  0
LINE
  8
0
 62
7
  6
CONTINUOUS
 10
-400.485911
 20
138.811472
 11
-400.219538
 21
138.604111
  0
LINE
  8
0
 62
7
  6
CONTINUOUS
 10
-400.219538
 20
138.604111
 11
-400.038946
 21
138.316471
  0
LINE
  8
0
 62
7
  6
CONTINUOUS
 10
-400.038946
 20
138.316471
 11
-399.926074
 21
137.995526
  0
LINE
  8
0
 62
7
  6
CONTINUOUS
 10
-399.926074
 20
137.995526
 11
-399.868237
 21
137.660039
  0
LINE
  8
0
 62
7
  6
CONTINUOUS
 10
-399.868237
 20
137.660039
 11
-399.859578
 21
137.319934
  0
LINE
  8
0
 62
7
  6
CONTINUOUS
 10
-399.859578
 20
137.319934
 11
-399.899072
 21
136.982709
  0
LINE
  8
0
 62
7
  6
CONTINUOUS
 10
-399.899072
 20
136.982709
 11
-399.990848
 21
136.654999
  0
LINE
  8
0
 62
7
  6
CONTINUOUS
 10
-399.990848
 20
136.654999
 11
-400.144975
 21
136.351663
  0
LINE
  8
0
 62
7
  6
CONTINUOUS
 10
-400.144975
 20
136.351663
 11
-400.379052
 21
136.106088
  0
LINE
  8
0
 62
7
  6
CONTINUOUS
 10
-400.379052
 20
136.106088
 11
-400.696442
 21
136.000000
  0
LINE
  8
0
 62
7
  6
CONTINUOUS
 10
-401.178558
 20
122.071426
 11
-401.170025
 21
121.899781
  0
LINE
  8
0
 62
7
  6
CONTINUOUS
 10
-401.170025
 20
121.899781
 11
-401.144035
 21
121.729615
  0
LINE
  8
0
 62
7
  6
CONTINUOUS
 10
-401.144035
 20
121.729615
 11
-401.099361
 21
121.562786
  0
LINE
  8
0
 62
7
  6
CONTINUOUS
 10
-401.099361
 20
121.562786
 11
-401.034310
 21
121.403190
  0
LINE
  8
0
 62
7
  6
CONTINUOUS
 10
-401.034310
 20
121.403190
 11
-400.945913
 21
121.255276
  0
LINE
  8
0
 62
7
  6
CONTINUOUS
 10
-400.945913
 20
121.255276
 11
-400.830469
 21
121.127520
  0
LINE
  8
0
 62
7
  6
CONTINUOUS
 10
-400.830469
 20
121.127520
 11
-400.684792
 21
121.034764
  0
LINE
  8
0
 62
7
  6
CONTINUOUS
 10
-400.684792
 20
121.034764
 11
-400.517853
 21
121.000000
  0
LINE
  8
0
 62
7
  6
CONTINUOUS
 10
-400.517853
 20
121.000000
 11
-400.351115
 21
121.034678
  0
LINE
  8
0
 62
7
  6
CONTINUOUS
 10
-400.351115
 20
121.034678
 11
-400.206313
 21
121.126585
  0
LINE
  8
0
 62
7
  6
CONTINUOUS
 10
-400.206313
 20
121.126585
 11
-400.090828
 21
121.253851
  0
LINE
  8
0
 62
7
  6
CONTINUOUS
 10
-400.090828
 20
121.253851
 11
-400.002363
 21
121.401228
  0
LINE
  8
0
 62
7
  6
CONTINUOUS
 10
-400.002363
 20
121.401228
 11
-399.937041
 21
121.560697
  0
LINE
  8
0
 62
7
  6
CONTINUOUS
 10
-399.937041
 20
121.560697
 11
-399.892194
 21
121.727106
  0
LINE
  8
0
 62
7
  6
CONTINUOUS
 10
-399.892194
 20
121.727106
 11
-399.865910
 21
121.897502
  0
LINE
  8
0
 62
7
  6
CONTINUOUS
 10
-399.865910
 20
121.897502
 11
-399.857147
 21
122.071426
  0
LINE
  8
0
 62
7
  6
CONTINUOUS
 10
-401.339294
 20
122.428574
 11
-401.387876
 21
122.411865
  0
LINE
  8
0
 62
7
  6
CONTINUOUS
 10
-401.387876
 20
122.411865
 11
-401.423906
 21
122.375066
  0
LINE
  8
0
 62
7
  6
CONTINUOUS
 10
-401.423906
 20
122.375066
 11
-401.450284
 21
122.329719
  0
LINE
  8
0
 62
7
  6
CONTINUOUS
 10
-401.450284
 20
122.329719
 11
-401.469457
 21
122.280897
  0
LINE
  8
0
 62
7
  6
CONTINUOUS
 10
-401.469457
 20
122.280897
 11
-401.483061
 21
122.231028
  0
LINE
  8
0
 62
7
  6
CONTINUOUS
 10
-401.483061
 20
122.231028
 11
-401.492585
 21
122.178665
  0
LINE
  8
0
 62
7
  6
CONTINUOUS
 10
-401.492585
 20
122.178665
 11
-401.498152
 21
122.125434
  0
LINE
  8
0
 62
7
  6
CONTINUOUS
 10
-401.498152
 20
122.125434
 11
-401.500000
 21
122.071426
  0
LINE
  8
0
 62
7
  6
CONTINUOUS
 10
-401.500000
 20
122.071426
 11
-401.498261
 21
122.019023
  0
LINE
  8
0
 62
7
  6
CONTINUOUS
 10
-401.498261
 20
122.019023
 11
-401.492934
 21
121.966687
  0
LINE
  8
0
 62
7
  6
CONTINUOUS
 10
-401.492934
 20
121.966687
 11
-401.483678
 21
121.914602
  0
LINE
  8
0
 62
7
  6
CONTINUOUS
 10
-401.483678
 20
121.914602
 11
-401.469843
 21
121.863146
  0
LINE
  8
0
 62
7
  6
CONTINUOUS
 10
-401.469843
 20
121.863146
 11
-401.450705
 21
121.814036
  0
LINE
  8
0
 62
7
  6
CONTINUOUS
 10
-401.450705
 20
121.814036
 11
-401.424334
 21
121.768383
  0
LINE
  8
0
 62
7
  6
CONTINUOUS
 10
-401.424334
 20
121.768383
 11
-401.386916
 21
121.730326
  0
LINE
  8
0
 62
7
  6
CONTINUOUS
 10
-401.386916
 20
121.730326
 11
-401.339294
 21
121.714287
  0
LINE
  8
0
 62
7
  6
CONTINUOUS
 10
-400.357147
 20
122.071426
 11
-400.364195
 21
121.966816
  0
LINE
  8
0
 62
7
  6
CONTINUOUS
 10
-400.364195
 20
121.966816
 11
-400.387030
 21
121.863999
  0
LINE
  8
0
 62
7
  6
CONTINUOUS
 10
-400.387030
 20
121.863999
 11
-400.432511
 21
121.768803
  0
LINE
  8
0
 62
7
  6
CONTINUOUS
 10
-400.432511
 20
121.768803
 11
-400.517853
 21
121.714287
  0
LINE
  8
0
 62
7
  6
CONTINUOUS
 10
-400.517853
 20
121.714287
 11
-400.602929
 21
121.768434
  0
LINE
  8
0
 62
7
  6
CONTINUOUS
 10
-400.602929
 20
121.768434
 11
-400.648176
 21
121.862451
  0
LINE
  8
0
 62
7
  6
CONTINUOUS
 10
-400.648176
 20
121.862451
 11
-400.671265
 21
121.965052
  0
LINE
  8
0
 62
7
  6
CONTINUOUS
 10
-400.671265
 20
121.965052
 11
-400.678558
 21
122.071426
  0
LINE
  8
0
 62
7
  6
CONTINUOUS
 10
-400.678558
 20
122.071426
 11
-400.671510
 21
122.176037
  0
LINE
  8
0
 62
7
  6
CONTINUOUS
 10
-400.671510
 20
122.176037
 11
-400.648677
 21
122.278854
  0
LINE
  8
0
 62
7
  6
CONTINUOUS
 10
-400.648677
 20
122.278854
 11
-400.603198
 21
122.374051
  0
LINE
  8
0
 62
7
  6
CONTINUOUS
 10
-400.603198
 20
122.374051
 11
-400.517853
 21
122.428574
  0
LINE
  8
0
 62
7
  6
CONTINUOUS
 10
-400.517853
 20
122.428574
 11
-400.432777
 21
122.374425
  0
LINE
  8
0
 62
7
  6
CONTINUOUS
 10
-400.432777
 20
122.374425
 11
-400.387530
 21
122.280408
  0
LINE
  8
0
 62
7
  6
CONTINUOUS
 10
-400.387530
 20
122.280408
 11
-400.364441
 21
122.177807
  0
LINE
  8
0
 62
7
  6
CONTINUOUS
 10
-400.364441
 20
122.177807
 11
-400.357147
 21
122.071426
  0
LINE
  8
0
 62
7
  6
CONTINUOUS
 10
-401.339294
 20
121.000000
 11
-401.506032
 21
121.034678
  0
LINE
  8
0
 62
7
  6
CONTINUOUS
 10
-401.506032
 20
121.034678
 11
-401.650834
 21
121.126585
  0
LINE
  8
0
 62
7
  6
CONTINUOUS
 10
-401.650834
 20
121.126585
 11
-401.766319
 21
121.253851
  0
LINE
  8
0
 62
7
  6
CONTINUOUS
 10
-401.766319
 20
121.253851
 11
-401.854784
 21
121.401228
  0
LINE
  8
0
 62
7
  6
CONTINUOUS
 10
-401.854784
 20
121.401228
 11
-401.920106
 21
121.560697
  0
LINE
  8
0
 62
7
  6
CONTINUOUS
 10
-401.920106
 20
121.560697
 11
-401.964953
 21
121.727106
  0
LINE
  8
0
 62
7
  6
CONTINUOUS
 10
-401.964953
 20
121.727106
 11
-401.991237
 21
121.897502
  0
LINE
  8
0
 62
7
  6
CONTINUOUS
 10
-401.991237
 20
121.897502
 11
-402.000000
 21
122.071426
  0
LINE
  8
0
 62
7
  6
CONTINUOUS
 10
-402.000000
 20
122.071426
 11
-401.991467
 21
122.243072
  0
LINE
  8
0
 62
7
  6
CONTINUOUS
 10
-401.991467
 20
122.243072
 11
-401.965476
 21
122.413237
  0
LINE
  8
0
 62
7
  6
CONTINUOUS
 10
-401.965476
 20
122.413237
 11
-401.920803
 21
122.580067
  0
LINE
  8
0
 62
7
  6
CONTINUOUS
 10
-401.920803
 20
122.580067
 11
-401.855752
 21
122.739663
  0
LINE
  8
0
 62
7
  6
CONTINUOUS
 10
-401.855752
 20
122.739663
 11
-401.767355
 21
122.887577
  0
LINE
  8
0
 62
7
  6
CONTINUOUS
 10
-401.767355
 20
122.887577
 11
-401.651910
 21
123.015333
  0
LINE
  8
0
 62
7
  6
CONTINUOUS
 10
-401.651910
 20
123.015333
 11
-401.506234
 21
123.108089
  0
LINE
  8
0
 62
7
  6
CONTINUOUS
 10
-401.506234
 20
123.108089
 11
-401.339294
 21
123.142853
  0
LINE
  8
0
 62
7
  6
CONTINUOUS
 10
-400.678675
 20
146.377279
 11
-400.695087
 21
146.118991
  0
LINE
  8
0
 62
7
  6
CONTINUOUS
 10
-400.695087
 20
146.118991
 11
-400.752285
 21
145.865315
  0
LINE
  8
0
 62
7
  6
CONTINUOUS
 10
-400.752285
 20
145.865315
 11
-400.855617
 21
145.627204
  0
LINE
  8
0
 62
7
  6
CONTINUOUS
 10
-400.855617
 20
145.627204
 11
-401.015496
 21
145.423185
  0
LINE
  8
0
 62
7
  6
CONTINUOUS
 10
-401.015496
 20
145.423185
 11
-401.240261
 21
145.297809
  0
LINE
  8
0
 62
7
  6
CONTINUOUS
 10
-401.240261
 20
145.297809
 11
-401.494441
 21
145.315663
  0
LINE
  8
0
 62
7
  6
CONTINUOUS
 10
-401.494441
 20
145.315663
 11
-401.704704
 21
145.464479
  0
LINE
  8
0
 62
7
  6
CONTINUOUS
 10
-401.704704
 20
145.464479
 11
-401.850257
 21
145.677879
  0
LINE
  8
0
 62
7
  6
CONTINUOUS
 10
-401.850257
 20
145.677879
 11
-401.942461
 21
145.919821
  0
LINE
  8
0
 62
7
  6
CONTINUOUS
 10
-401.942461
 20
145.919821
 11
-401.990392
 21
146.175070
  0
LINE
  8
0
 62
7
  6
CONTINUOUS
 10
-401.990392
 20
146.175070
 11
-401.998274
 21
146.434528
  0
LINE
  8
0
 62
7
  6
CONTINUOUS
 10
-401.998274
 20
146.434528
 11
-401.966975
 21
146.691641
  0
LINE
  8
0
 62
7
  6
CONTINUOUS
 10
-401.966975
 20
146.691641
 11
-401.893435
 21
146.940616
  0
LINE
  8
0
 62
7
  6
CONTINUOUS
 10
-401.893435
 20
146.940616
 11
-401.770381
 21
147.169092
  0
LINE
  8
0
 62
7
  6
CONTINUOUS
 10
-401.770381
 20
147.169092
 11
-401.586263
 21
147.350906
  0
LINE
  8
0
 62
7
  6
CONTINUOUS
 10
-401.586263
 20
147.350906
 11
-401.341702
 21
147.428566
  0
LINE
  8
0
 62
7
  6
CONTINUOUS
 10
-400.517853
 20
145.285706
 11
-400.274908
 21
145.360766
  0
LINE
  8
0
 62
7
  6
CONTINUOUS
 10
-400.274908
 20
145.360766
 11
-400.090717
 21
145.539708
  0
LINE
  8
0
 62
7
  6
CONTINUOUS
 10
-400.090717
 20
145.539708
 11
-399.966830
 21
145.765940
  0
LINE
  8
0
 62
7
  6
CONTINUOUS
 10
-399.966830
 20
145.765940
 11
-399.892112
 21
146.013200
  0
LINE
  8
0
 62
7
  6
CONTINUOUS
 10
-399.892112
 20
146.013200
 11
-399.859355
 21
146.269605
  0
LINE
  8
0
 62
7
  6
CONTINUOUS
 10
-399.859355
 20
146.269605
 11
-399.865549
 21
146.527454
  0
LINE
  8
0
 62
7
  6
CONTINUOUS
 10
-399.865549
 20
146.527454
 11
-399.911227
 21
146.781677
  0
LINE
  8
0
 62
7
  6
CONTINUOUS
 10
-399.911227
 20
146.781677
 11
-400.000726
 21
147.024011
  0
LINE
  8
0
 62
7
  6
CONTINUOUS
 10
-400.000726
 20
147.024011
 11
-400.142976
 21
147.239411
  0
LINE
  8
0
 62
7
  6
CONTINUOUS
 10
-400.142976
 20
147.239411
 11
-400.348896
 21
147.392949
  0
LINE
  8
0
 62
7
  6
CONTINUOUS
 10
-400.348896
 20
147.392949
 11
-400.601352
 21
147.419983
  0
LINE
  8
0
 62
7
  6
CONTINUOUS
 10
-400.601352
 20
147.419983
 11
-400.828401
 21
147.302843
  0
LINE
  8
0
 62
7
  6
CONTINUOUS
 10
-400.828401
 20
147.302843
 11
-400.991707
 21
147.103791
  0
LINE
  8
0
 62
7
  6
CONTINUOUS
 10
-400.991707
 20
147.103791
 11
-401.098400
 21
146.868655
  0
LINE
  8
0
 62
7
  6
CONTINUOUS
 10
-401.098400
 20
146.868655
 11
-401.158765
 21
146.617422
  0
LINE
  8
0
 62
7
  6
CONTINUOUS
 10
-401.158765
 20
146.617422
 11
-401.178557
 21
146.359653
  0
LINE
  8
0
 62
7
  6
CONTINUOUS
 10
-401.339294
 20
146.714279
 11
-401.407825
 21
146.680180
  0
LINE
  8
0
 62
7
  6
CONTINUOUS
 10
-401.407825
 20
146.680180
 11
-401.450712
 21
146.614513
  0
LINE
  8
0
 62
7
  6
CONTINUOUS
 10
-401.450712
 20
146.614513
 11
-401.477261
 21
146.540283
  0
LINE
  8
0
 62
7
  6
CONTINUOUS
 10
-401.477261
 20
146.540283
 11
-401.492859
 21
146.462417
  0
LINE
  8
0
 62
7
  6
CONTINUOUS
 10
-401.492859
 20
146.462417
 11
-401.499578
 21
146.382990
  0
LINE
  8
0
 62
7
  6
CONTINUOUS
 10
-401.499578
 20
146.382990
 11
-401.498229
 21
146.304253
  0
LINE
  8
0
 62
7
  6
CONTINUOUS
 10
-401.498229
 20
146.304253
 11
-401.488733
 21
146.225761
  0
LINE
  8
0
 62
7
  6
CONTINUOUS
 10
-401.488733
 20
146.225761
 11
-401.469897
 21
146.149023
  0
LINE
  8
0
 62
7
  6
CONTINUOUS
 10
-401.469897
 20
146.149023
 11
-401.438614
 21
146.076364
  0
LINE
  8
0
 62
7
  6
CONTINUOUS
 10
-401.438614
 20
146.076364
 11
-401.387530
 21
146.016465
  0
LINE
  8
0
 62
7
  6
CONTINUOUS
 10
-401.387530
 20
146.016465
 11
-401.313054
 21
146.004792
  0
LINE
  8
0
 62
7
  6
CONTINUOUS
 10
-401.313054
 20
146.004792
 11
-401.253792
 21
146.054726
  0
LINE
  8
0
 62
7
  6
CONTINUOUS
 10
-401.253792
 20
146.054726
 11
-401.217647
 21
146.123709
  0
LINE
  8
0
 62
7
  6
CONTINUOUS
 10
-401.217647
 20
146.123709
 11
-401.195093
 21
146.199371
  0
LINE
  8
0
 62
7
  6
CONTINUOUS
 10
-401.195093
 20
146.199371
 11
-401.182521
 21
146.278325
  0
LINE
  8
0
 62
7
  6
CONTINUOUS
 10
-401.182521
 20
146.278325
 11
-401.178558
 21
146.357132
  0
LINE
  8
0
 62
7
  6
CONTINUOUS
 10
-400.678317
 20
146.337573
 11
-400.676249
 21
146.417464
  0
LINE
  8
0
 62
7
  6
CONTINUOUS
 10
-400.676249
 20
146.417464
 11
-400.665692
 21
146.497160
  0
LINE
  8
0
 62
7
  6
CONTINUOUS
 10
-400.665692
 20
146.497160
 11
-400.645275
 21
146.574768
  0
LINE
  8
0
 62
7
  6
CONTINUOUS
 10
-400.645275
 20
146.574768
 11
-400.611359
 21
146.647602
  0
LINE
  8
0
 62
7
  6
CONTINUOUS
 10
-400.611359
 20
146.647602
 11
-400.555472
 21
146.704357
  0
LINE
  8
0
 62
7
  6
CONTINUOUS
 10
-400.555472
 20
146.704357
 11
-400.479227
 21
146.703811
  0
LINE
  8
0
 62
7
  6
CONTINUOUS
 10
-400.479227
 20
146.703811
 11
-400.423996
 21
146.647043
  0
LINE
  8
0
 62
7
  6
CONTINUOUS
 10
-400.423996
 20
146.647043
 11
-400.390480
 21
146.574910
  0
LINE
  8
0
 62
7
  6
CONTINUOUS
 10
-400.390480
 20
146.574910
 11
-400.370052
 21
146.497359
  0
LINE
  8
0
 62
7
  6
CONTINUOUS
 10
-400.370052
 20
146.497359
 11
-400.359486
 21
146.417836
  0
LINE
  8
0
 62
7
  6
CONTINUOUS
 10
-400.359486
 20
146.417836
 11
-400.357386
 21
146.337686
  0
LINE
  8
0
 62
7
  6
CONTINUOUS
 10
-400.357386
 20
146.337686
 11
-400.363466
 21
146.257964
  0
LINE
  8
0
 62
7
  6
CONTINUOUS
 10
-400.363466
 20
146.257964
 11
-400.378697
 21
146.178483
  0
LINE
  8
0
 62
7
  6
CONTINUOUS
 10
-400.378697
 20
146.178483
 11
-400.405099
 21
146.102650
  0
LINE
  8
0
 62
7
  6
CONTINUOUS
 10
-400.405099
 20
146.102650
 11
-400.448401
 21
146.035069
  0
LINE
  8
0
 62
7
  6
CONTINUOUS
 10
-400.448401
 20
146.035069
 11
-400.517853
 21
146.000000
  0
LINE
  8
0
 62
7
  6
CONTINUOUS
 10
-401.962053
 20
157.427824
 11
-401.966811
 21
157.450390
  0
LINE
  8
0
 62
7
  6
CONTINUOUS
 10
-401.966811
 20
157.450390
 11
-401.971242
 21
157.473041
  0
LINE
  8
0
 62
7
  6
CONTINUOUS
 10
-401.971242
 20
157.473041
 11
-401.975348
 21
157.495762
  0
LINE
  8
0
 62
7
  6
CONTINUOUS
 10
-401.975348
 20
157.495762
 11
-401.979130
 21
157.518540
  0
LINE
  8
0
 62
7
  6
CONTINUOUS
 10
-401.979130
 20
157.518540
 11
-401.982590
 21
157.541361
  0
LINE
  8
0
 62
7
  6
CONTINUOUS
 10
-401.982590
 20
157.541361
 11
-401.985728
 21
157.564212
  0
LINE
  8
0
 62
7
  6
CONTINUOUS
 10
-401.985728
 20
157.564212
 11
-401.988548
 21
157.587080
  0
LINE
  8
0
 62
7
  6
CONTINUOUS
 10
-401.988548
 20
157.587080
 11
-401.991050
 21
157.609951
  0
LINE
  8
0
 62
7
  6
CONTINUOUS
 10
-401.991050
 20
157.609951
 11
-401.993239
 21
157.632814
  0
LINE
  8
0
 62
7
  6
CONTINUOUS
 10
-401.993239
 20
157.632814
 11
-401.995115
 21
157.655654
  0
LINE
  8
0
 62
7
  6
CONTINUOUS
 10
-401.995115
 20
157.655654
 11
-401.996682
 21
157.678462
  0
LINE
  8
0
 62
7
  6
CONTINUOUS
 10
-401.996682
 20
157.678462
 11
-401.997943
 21
157.701223
  0
LINE
  8
0
 62
7
  6
CONTINUOUS
 10
-401.997943
 20
157.701223
 11
-401.998901
 21
157.723927
  0
LINE
  8
0
 62
7
  6
CONTINUOUS
 10
-401.998901
 20
157.723927
 11
-401.999559
 21
157.746561
  0
LINE
  8
0
 62
7
  6
CONTINUOUS
 10
-401.999559
 20
157.746561
 11
-401.999921
 21
157.769116
  0
LINE
  8
0
 62
7
  6
CONTINUOUS
 10
-401.999921
 20
157.769116
 11
-401.999988
 21
157.792192
  0
LINE
  8
0
 62
7
  6
CONTINUOUS
 10
-401.500000
 20
157.785706
 11
-401.499565
 21
157.759441
  0
LINE
  8
0
 62
7
  6
CONTINUOUS
 10
-401.499565
 20
157.759441
 11
-401.498253
 21
157.733193
  0
LINE
  8
0
 62
7
  6
CONTINUOUS
 10
-401.498253
 20
157.733193
 11
-401.496048
 21
157.706985
  0
LINE
  8
0
 62
7
  6
CONTINUOUS
 10
-401.496048
 20
157.706985
 11
-401.492917
 21
157.680841
  0
LINE
  8
0
 62
7
  6
CONTINUOUS
 10
-401.492917
 20
157.680841
 11
-401.488815
 21
157.654794
  0
LINE
  8
0
 62
7
  6
CONTINUOUS
 10
-401.488815
 20
157.654794
 11
-401.483679
 21
157.628885
  0
LINE
  8
0
 62
7
  6
CONTINUOUS
 10
-401.483679
 20
157.628885
 11
-401.477425
 21
157.603171
  0
LINE
  8
0
 62
7
  6
CONTINUOUS
 10
-401.477425
 20
157.603171
 11
-401.469940
 21
157.577729
  0
LINE
  8
0
 62
7
  6
CONTINUOUS
 10
-401.469940
 20
157.577729
 11
-401.461075
 21
157.552670
  0
LINE
  8
0
 62
7
  6
CONTINUOUS
 10
-401.461075
 20
157.552670
 11
-401.450633
 21
157.528164
  0
LINE
  8
0
 62
7
  6
CONTINUOUS
 10
-401.450633
 20
157.528164
 11
-401.438348
 21
157.504473
  0
LINE
  8
0
 62
7
  6
CONTINUOUS
 10
-401.438348
 20
157.504473
 11
-401.423870
 21
157.482028
  0
LINE
  8
0
 62
7
  6
CONTINUOUS
 10
-401.423870
 20
157.482028
 11
-401.406755
 21
157.461560
  0
LINE
  8
0
 62
7
  6
CONTINUOUS
 10
-401.406755
 20
157.461560
 11
-401.386523
 21
157.444342
  0
LINE
  8
0
 62
7
  6
CONTINUOUS
 10
-401.386523
 20
157.444342
 11
-401.362981
 21
157.432474
  0
LINE
  8
0
 62
7
  6
CONTINUOUS
 10
-401.362981
 20
157.432474
 11
-401.337534
 21
157.428595
  0
LINE
  8
0
 62
7
  6
CONTINUOUS
 10
-401.962053
 20
151.000734
 11
-401.981622
 21
150.893804
  0
LINE
  8
0
 62
7
  6
CONTINUOUS
 10
-401.981622
 20
150.893804
 11
-401.994093
 21
150.785805
  0
LINE
  8
0
 62
7
  6
CONTINUOUS
 10
-401.994093
 20
150.785805
 11
-401.999671
 21
150.676648
  0
LINE
  8
0
 62
7
  6
CONTINUOUS
 10
-401.999671
 20
150.676648
 11
-401.998389
 21
150.568067
  0
LINE
  8
0
 62
7
  6
CONTINUOUS
 10
-401.998389
 20
150.568067
 11
-401.990295
 21
150.459882
  0
LINE
  8
0
 62
7
  6
CONTINUOUS
 10
-401.990295
 20
150.459882
 11
-401.975254
 21
150.352368
  0
LINE
  8
0
 62
7
  6
CONTINUOUS
 10
-401.975254
 20
150.352368
 11
-401.953003
 21
150.245982
  0
LINE
  8
0
 62
7
  6
CONTINUOUS
 10
-401.953003
 20
150.245982
 11
-401.923141
 21
150.141306
  0
LINE
  8
0
 62
7
  6
CONTINUOUS
 10
-401.923141
 20
150.141306
 11
-401.885120
 21
150.039114
  0
LINE
  8
0
 62
7
  6
CONTINUOUS
 10
-401.885120
 20
150.039114
 11
-401.838229
 21
149.940479
  0
LINE
  8
0
 62
7
  6
CONTINUOUS
 10
-401.838229
 20
149.940479
 11
-401.781603
 21
149.846931
  0
LINE
  8
0
 62
7
  6
CONTINUOUS
 10
-401.781603
 20
149.846931
 11
-401.714276
 21
149.760701
  0
LINE
  8
0
 62
7
  6
CONTINUOUS
 10
-401.714276
 20
149.760701
 11
-401.635386
 21
149.685037
  0
LINE
  8
0
 62
7
  6
CONTINUOUS
 10
-401.635386
 20
149.685037
 11
-401.544677
 21
149.624506
  0
LINE
  8
0
 62
7
  6
CONTINUOUS
 10
-401.544677
 20
149.624506
 11
-401.443492
 21
149.584834
  0
LINE
  8
0
 62
7
  6
CONTINUOUS
 10
-401.443492
 20
149.584834
 11
-401.336270
 21
149.571438
  0
LINE
  8
0
 62
7
  6
CONTINUOUS
 10
-399.895094
 20
151.000734
 11
-399.875526
 21
150.893804
  0
LINE
  8
0
 62
7
  6
CONTINUOUS
 10
-399.875526
 20
150.893804
 11
-399.863054
 21
150.785805
  0
LINE
  8
0
 62
7
  6
CONTINUOUS
 10
-399.863054
 20
150.785805
 11
-399.857476
 21
150.676648
  0
LINE
  8
0
 62
7
  6
CONTINUOUS
 10
-399.857476
 20
150.676648
 11
-399.858759
 21
150.568067
  0
LINE
  8
0
 62
7
  6
CONTINUOUS
 10
-399.858759
 20
150.568067
 11
-399.866853
 21
150.459882
  0
LINE
  8
0
 62
7
  6
CONTINUOUS
 10
-399.866853
 20
150.459882
 11
-399.881893
 21
150.352368
  0
LINE
  8
0
 62
7
  6
CONTINUOUS
 10
-399.881893
 20
150.352368
 11
-399.904145
 21
150.245982
  0
LINE
  8
0
 62
7
  6
CONTINUOUS
 10
-399.904145
 20
150.245982
 11
-399.934006
 21
150.141306
  0
LINE
  8
0
 62
7
  6
CONTINUOUS
 10
-399.934006
 20
150.141306
 11
-399.972028
 21
150.039114
  0
LINE
  8
0
 62
7
  6
CONTINUOUS
 10
-399.972028
 20
150.039114
 11
-400.018918
 21
149.940479
  0
LINE
  8
0
 62
7
  6
CONTINUOUS
 10
-400.018918
 20
149.940479
 11
-400.075545
 21
149.846931
  0
LINE
  8
0
 62
7
  6
CONTINUOUS
 10
-400.075545
 20
149.846931
 11
-400.142871
 21
149.760701
  0
LINE
  8
0
 62
7
  6
CONTINUOUS
 10
-400.142871
 20
149.760701
 11
-400.221762
 21
149.685037
  0
LINE
  8
0
 62
7
  6
CONTINUOUS
 10
-400.221762
 20
149.685037
 11
-400.312470
 21
149.624506
  0
LINE
  8
0
 62
7
  6
CONTINUOUS
 10
-400.312470
 20
149.624506
 11
-400.413656
 21
149.584834
  0
LINE
  8
0
 62
7
  6
CONTINUOUS
 10
-400.413656
 20
149.584834
 11
-400.520878
 21
149.571438
  0
LINE
  8
0
 62
7
  6
CONTINUOUS
 10
-401.339294
 20
151.000000
 11
-401.387876
 21
150.983291
  0
LINE
  8
0
 62
7
  6
CONTINUOUS
 10
-401.387876
 20
150.983291
 11
-401.423906
 21
150.946492
  0
LINE
  8
0
 62
7
  6
CONTINUOUS
 10
-401.423906
 20
150.946492
 11
-401.450284
 21
150.901144
  0
LINE
  8
0
 62
7
  6
CONTINUOUS
 10
-401.450284
 20
150.901144
 11
-401.469458
 21
150.852322
  0
LINE
  8
0
 62
7
  6
CONTINUOUS
 10
-401.469458
 20
150.852322
 11
-401.483062
 21
150.802452
  0
LINE
  8
0
 62
7
  6
CONTINUOUS
 10
-401.483062
 20
150.802452
 11
-401.492585
 21
150.750088
  0
LINE
  8
0
 62
7
  6
CONTINUOUS
 10
-401.492585
 20
150.750088
 11
-401.498152
 21
150.696857
  0
LINE
  8
0
 62
7
  6
CONTINUOUS
 10
-401.498152
 20
150.696857
 11
-401.500000
 21
150.642853
  0
LINE
  8
0
 62
7
  6
CONTINUOUS
 10
-401.500000
 20
150.642853
 11
-401.498261
 21
150.590449
  0
LINE
  8
0
 62
7
  6
CONTINUOUS
 10
-401.498261
 20
150.590449
 11
-401.492934
 21
150.538112
  0
LINE
  8
0
 62
7
  6
CONTINUOUS
 10
-401.492934
 20
150.538112
 11
-401.483679
 21
150.486027
  0
LINE
  8
0
 62
7
  6
CONTINUOUS
 10
-401.483679
 20
150.486027
 11
-401.469843
 21
150.434571
  0
LINE
  8
0
 62
7
  6
CONTINUOUS
 10
-401.469843
 20
150.434571
 11
-401.450706
 21
150.385460
  0
LINE
  8
0
 62
7
  6
CONTINUOUS
 10
-401.450706
 20
150.385460
 11
-401.424336
 21
150.339806
  0
LINE
  8
0
 62
7
  6
CONTINUOUS
 10
-401.424336
 20
150.339806
 11
-401.386919
 21
150.301748
  0
LINE
  8
0
 62
7
  6
CONTINUOUS
 10
-401.386919
 20
150.301748
 11
-401.339294
 21
150.285706
  0
LINE
  8
0
 62
7
  6
CONTINUOUS
 10
-400.517853
 20
151.000000
 11
-400.469271
 21
150.983291
  0
LINE
  8
0
 62
7
  6
CONTINUOUS
 10
-400.469271
 20
150.983291
 11
-400.433241
 21
150.946492
  0
LINE
  8
0
 62
7
  6
CONTINUOUS
 10
-400.433241
 20
150.946492
 11
-400.406863
 21
150.901144
  0
LINE
  8
0
 62
7
  6
CONTINUOUS
 10
-400.406863
 20
150.901144
 11
-400.387689
 21
150.852322
  0
LINE
  8
0
 62
7
  6
CONTINUOUS
 10
-400.387689
 20
150.852322
 11
-400.374085
 21
150.802452
  0
LINE
  8
0
 62
7
  6
CONTINUOUS
 10
-400.374085
 20
150.802452
 11
-400.364562
 21
150.750088
  0
LINE
  8
0
 62
7
  6
CONTINUOUS
 10
-400.364562
 20
150.750088
 11
-400.358995
 21
150.696857
  0
LINE
  8
0
 62
7
  6
CONTINUOUS
 10
-400.358995
 20
150.696857
 11
-400.357147
 21
150.642853
  0
LINE
  8
0
 62
7
  6
CONTINUOUS
 10
-400.357147
 20
150.642853
 11
-400.358886
 21
150.590449
  0
LINE
  8
0
 62
7
  6
CONTINUOUS
 10
-400.358886
 20
150.590449
 11
-400.364213
 21
150.538112
  0
LINE
  8
0
 62
7
  6
CONTINUOUS
 10
-400.364213
 20
150.538112
 11
-400.373469
 21
150.486027
  0
LINE
  8
0
 62
7
  6
CONTINUOUS
 10
-400.373469
 20
150.486027
 11
-400.387304
 21
150.434571
  0
LINE
  8
0
 62
7
  6
CONTINUOUS
 10
-400.387304
 20
150.434571
 11
-400.406441
 21
150.385460
  0
LINE
  8
0
 62
7
  6
CONTINUOUS
 10
-400.406441
 20
150.385460
 11
-400.432812
 21
150.339806
  0
LINE
  8
0
 62
7
  6
CONTINUOUS
 10
-400.432812
 20
150.339806
 11
-400.470228
 21
150.301748
  0
LINE
  8
0
 62
7
  6
CONTINUOUS
 10
-400.470228
 20
150.301748
 11
-400.517853
 21
150.285706
  0
LINE
  8
0
 62
7
  6
CONTINUOUS
 10
-399.895094
 20
159.929308
 11
-399.875526
 21
159.822378
  0
LINE
  8
0
 62
7
  6
CONTINUOUS
 10
-399.875526
 20
159.822378
 11
-399.863054
 21
159.714379
  0
LINE
  8
0
 62
7
  6
CONTINUOUS
 10
-399.863054
 20
159.714379
 11
-399.857476
 21
159.605222
  0
LINE
  8
0
 62
7
  6
CONTINUOUS
 10
-399.857476
 20
159.605222
 11
-399.858759
 21
159.496641
  0
LINE
  8
0
 62
7
  6
CONTINUOUS
 10
-399.858759
 20
159.496641
 11
-399.866853
 21
159.388456
  0
LINE
  8
0
 62
7
  6
CONTINUOUS
 10
-399.866853
 20
159.388456
 11
-399.881893
 21
159.280941
  0
LINE
  8
0
 62
7
  6
CONTINUOUS
 10
-399.881893
 20
159.280941
 11
-399.904145
 21
159.174555
  0
LINE
  8
0
 62
7
  6
CONTINUOUS
 10
-399.904145
 20
159.174555
 11
-399.934006
 21
159.069879
  0
LINE
  8
0
 62
7
  6
CONTINUOUS
 10
-399.934006
 20
159.069879
 11
-399.972028
 21
158.967688
  0
LINE
  8
0
 62
7
  6
CONTINUOUS
 10
-399.972028
 20
158.967688
 11
-400.018918
 21
158.869052
  0
LINE
  8
0
 62
7
  6
CONTINUOUS
 10
-400.018918
 20
158.869052
 11
-400.075545
 21
158.775505
  0
LINE
  8
0
 62
7
  6
CONTINUOUS
 10
-400.075545
 20
158.775505
 11
-400.142871
 21
158.689274
  0
LINE
  8
0
 62
7
  6
CONTINUOUS
 10
-400.142871
 20
158.689274
 11
-400.221762
 21
158.613611
  0
LINE
  8
0
 62
7
  6
CONTINUOUS
 10
-400.221762
 20
158.613611
 11
-400.312470
 21
158.553080
  0
LINE
  8
0
 62
7
  6
CONTINUOUS
 10
-400.312470
 20
158.553080
 11
-400.413656
 21
158.513407
  0
LINE
  8
0
 62
7
  6
CONTINUOUS
 10
-400.413656
 20
158.513407
 11
-400.520878
 21
158.500011
  0
LINE
  8
0
 62
7
  6
CONTINUOUS
 10
-399.803558
 20
158.500000
 11
-399.636821
 21
158.534678
  0
LINE
  8
0
 62
7
  6
CONTINUOUS
 10
-399.636821
 20
158.534678
 11
-399.492019
 21
158.626585
  0
LINE
  8
0
 62
7
  6
CONTINUOUS
 10
-399.492019
 20
158.626585
 11
-399.376533
 21
158.753851
  0
LINE
  8
0
 62
7
  6
CONTINUOUS
 10
-399.376533
 20
158.753851
 11
-399.288069
 21
158.901228
  0
LINE
  8
0
 62
7
  6
CONTINUOUS
 10
-399.288069
 20
158.901228
 11
-399.222747
 21
159.060697
  0
LINE
  8
0
 62
7
  6
CONTINUOUS
 10
-399.222747
 20
159.060697
 11
-399.177899
 21
159.227106
  0
LINE
  8
0
 62
7
  6
CONTINUOUS
 10
-399.177899
 20
159.227106
 11
-399.151616
 21
159.397502
  0
LINE
  8
0
 62
7
  6
CONTINUOUS
 10
-399.151616
 20
159.397502
 11
-399.142853
 21
159.571426
  0
LINE
  8
0
 62
7
  6
CONTINUOUS
 10
-399.142853
 20
159.571426
 11
-399.151386
 21
159.743072
  0
LINE
  8
0
 62
7
  6
CONTINUOUS
 10
-399.151386
 20
159.743072
 11
-399.177376
 21
159.913237
  0
LINE
  8
0
 62
7
  6
CONTINUOUS
 10
-399.177376
 20
159.913237
 11
-399.222050
 21
160.080067
  0
LINE
  8
0
 62
7
  6
CONTINUOUS
 10
-399.222050
 20
160.080067
 11
-399.287101
 21
160.239663
  0
LINE
  8
0
 62
7
  6
CONTINUOUS
 10
-399.287101
 20
160.239663
 11
-399.375498
 21
160.387577
  0
LINE
  8
0
 62
7
  6
CONTINUOUS
 10
-399.375498
 20
160.387577
 11
-399.490942
 21
160.515333
  0
LINE
  8
0
 62
7
  6
CONTINUOUS
 10
-399.490942
 20
160.515333
 11
-399.636619
 21
160.608089
  0
LINE
  8
0
 62
7
  6
CONTINUOUS
 10
-399.636619
 20
160.608089
 11
-399.803558
 21
160.642853
  0
LINE
  8
0
 62
7
  6
CONTINUOUS
 10
-400.517853
 20
159.214279
 11
-400.469271
 21
159.230988
  0
LINE
  8
0
 62
7
  6
CONTINUOUS
 10
-400.469271
 20
159.230988
 11
-400.433241
 21
159.267787
  0
LINE
  8
0
 62
7
  6
CONTINUOUS
 10
-400.433241
 20
159.267787
 11
-400.406863
 21
159.313135
  0
LINE
  8
0
 62
7
  6
CONTINUOUS
 10
-400.406863
 20
159.313135
 11
-400.387689
 21
159.361957
  0
LINE
  8
0
 62
7
  6
CONTINUOUS
 10
-400.387689
 20
159.361957
 11
-400.374085
 21
159.411827
  0
LINE
  8
0
 62
7
  6
CONTINUOUS
 10
-400.374085
 20
159.411827
 11
-400.364562
 21
159.464191
  0
LINE
  8
0
 62
7
  6
CONTINUOUS
 10
-400.364562
 20
159.464191
 11
-400.358995
 21
159.517422
  0
LINE
  8
0
 62
7
  6
CONTINUOUS
 10
-400.358995
 20
159.517422
 11
-400.357147
 21
159.571426
  0
LINE
  8
0
 62
7
  6
CONTINUOUS
 10
-400.357147
 20
159.571426
 11
-400.358886
 21
159.623830
  0
LINE
  8
0
 62
7
  6
CONTINUOUS
 10
-400.358886
 20
159.623830
 11
-400.364213
 21
159.676167
  0
LINE
  8
0
 62
7
  6
CONTINUOUS
 10
-400.364213
 20
159.676167
 11
-400.373469
 21
159.728252
  0
LINE
  8
0
 62
7
  6
CONTINUOUS
 10
-400.373469
 20
159.728252
 11
-400.387304
 21
159.779708
  0
LINE
  8
0
 62
7
  6
CONTINUOUS
 10
-400.387304
 20
159.779708
 11
-400.406441
 21
159.828819
  0
LINE
  8
0
 62
7
  6
CONTINUOUS
 10
-400.406441
 20
159.828819
 11
-400.432812
 21
159.874473
  0
LINE
  8
0
 62
7
  6
CONTINUOUS
 10
-400.432812
 20
159.874473
 11
-400.470228
 21
159.912532
  0
LINE
  8
0
 62
7
  6
CONTINUOUS
 10
-400.470228
 20
159.912532
 11
-400.517853
 21
159.928574
  0
LINE
  8
0
 62
7
  6
CONTINUOUS
 10
-399.803558
 20
159.928574
 11
-399.754976
 21
159.911864
  0
LINE
  8
0
 62
7
  6
CONTINUOUS
 10
-399.754976
 20
159.911864
 11
-399.718947
 21
159.875066
  0
LINE
  8
0
 62
7
  6
CONTINUOUS
 10
-399.718947
 20
159.875066
 11
-399.692569
 21
159.829718
  0
LINE
  8
0
 62
7
  6
CONTINUOUS
 10
-399.692569
 20
159.829718
 11
-399.673395
 21
159.780896
  0
LINE
  8
0
 62
7
  6
CONTINUOUS
 10
-399.673395
 20
159.780896
 11
-399.659791
 21
159.731026
  0
LINE
  8
0
 62
7
  6
CONTINUOUS
 10
-399.659791
 20
159.731026
 11
-399.650268
 21
159.678662
  0
LINE
  8
0
 62
7
  6
CONTINUOUS
 10
-399.650268
 20
159.678662
 11
-399.644701
 21
159.625431
  0
LINE
  8
0
 62
7
  6
CONTINUOUS
 10
-399.644701
 20
159.625431
 11
-399.642853
 21
159.571426
  0
LINE
  8
0
 62
7
  6
CONTINUOUS
 10
-399.642853
 20
159.571426
 11
-399.644592
 21
159.519023
  0
LINE
  8
0
 62
7
  6
CONTINUOUS
 10
-399.644592
 20
159.519023
 11
-399.649919
 21
159.466686
  0
LINE
  8
0
 62
7
  6
CONTINUOUS
 10
-399.649919
 20
159.466686
 11
-399.659174
 21
159.414600
  0
LINE
  8
0
 62
7
  6
CONTINUOUS
 10
-399.659174
 20
159.414600
 11
-399.673009
 21
159.363145
  0
LINE
  8
0
 62
7
  6
CONTINUOUS
 10
-399.673009
 20
159.363145
 11
-399.692147
 21
159.314034
  0
LINE
  8
0
 62
7
  6
CONTINUOUS
 10
-399.692147
 20
159.314034
 11
-399.718517
 21
159.268380
  0
LINE
  8
0
 62
7
  6
CONTINUOUS
 10
-399.718517
 20
159.268380
 11
-399.755934
 21
159.230321
  0
LINE
  8
0
 62
7
  6
CONTINUOUS
 10
-399.755934
 20
159.230321
 11
-399.803558
 21
159.214279
  0
LINE
  8
0
 62
7
  6
CONTINUOUS
 10
-401.339294
 20
153.857132
 11
-401.506032
 21
153.891811
  0
LINE
  8
0
 62
7
  6
CONTINUOUS
 10
-401.506032
 20
153.891811
 11
-401.650835
 21
153.983717
  0
LINE
  8
0
 62
7
  6
CONTINUOUS
 10
-401.650835
 20
153.983717
 11
-401.766321
 21
154.110984
  0
LINE
  8
0
 62
7
  6
CONTINUOUS
 10
-401.766321
 20
154.110984
 11
-401.854785
 21
154.258362
  0
LINE
  8
0
 62
7
  6
CONTINUOUS
 10
-401.854785
 20
154.258362
 11
-401.920107
 21
154.417832
  0
LINE
  8
0
 62
7
  6
CONTINUOUS
 10
-401.920107
 20
154.417832
 11
-401.964954
 21
154.584242
  0
LINE
  8
0
 62
7
  6
CONTINUOUS
 10
-401.964954
 20
154.584242
 11
-401.991238
 21
154.754639
  0
LINE
  8
0
 62
7
  6
CONTINUOUS
 10
-401.991238
 20
154.754639
 11
-402.000000
 21
154.928558
  0
LINE
  8
0
 62
7
  6
CONTINUOUS
 10
-402.000000
 20
154.928558
 11
-401.991467
 21
155.100204
  0
LINE
  8
0
 62
7
  6
CONTINUOUS
 10
-401.991467
 20
155.100204
 11
-401.965476
 21
155.270371
  0
LINE
  8
0
 62
7
  6
CONTINUOUS
 10
-401.965476
 20
155.270371
 11
-401.920803
 21
155.437201
  0
LINE
  8
0
 62
7
  6
CONTINUOUS
 10
-401.920803
 20
155.437201
 11
-401.855753
 21
155.596798
  0
LINE
  8
0
 62
7
  6
CONTINUOUS
 10
-401.855753
 20
155.596798
 11
-401.767357
 21
155.744714
  0
LINE
  8
0
 62
7
  6
CONTINUOUS
 10
-401.767357
 20
155.744714
 11
-401.651915
 21
155.872473
  0
LINE
  8
0
 62
7
  6
CONTINUOUS
 10
-401.651915
 20
155.872473
 11
-401.506239
 21
155.965233
  0
LINE
  8
0
 62
7
  6
CONTINUOUS
 10
-401.506239
 20
155.965233
 11
-401.339294
 21
156.000000
  0
LINE
  8
0
 62
7
  6
CONTINUOUS
 10
-400.357147
 20
154.928574
 11
-400.364195
 21
154.823964
  0
LINE
  8
0
 62
7
  6
CONTINUOUS
 10
-400.364195
 20
154.823964
 11
-400.387028
 21
154.721148
  0
LINE
  8
0
 62
7
  6
CONTINUOUS
 10
-400.387028
 20
154.721148
 11
-400.432506
 21
154.625951
  0
LINE
  8
0
 62
7
  6
CONTINUOUS
 10
-400.432506
 20
154.625951
 11
-400.517853
 21
154.571426
  0
LINE
  8
0
 62
7
  6
CONTINUOUS
 10
-400.517853
 20
154.571426
 11
-400.602928
 21
154.625574
  0
LINE
  8
0
 62
7
  6
CONTINUOUS
 10
-400.602928
 20
154.625574
 11
-400.648175
 21
154.719591
  0
LINE
  8
0
 62
7
  6
CONTINUOUS
 10
-400.648175
 20
154.719591
 11
-400.671264
 21
154.822191
  0
LINE
  8
0
 62
7
  6
CONTINUOUS
 10
-400.671264
 20
154.822191
 11
-400.678558
 21
154.928574
  0
LINE
  8
0
 62
7
  6
CONTINUOUS
 10
-400.678558
 20
154.928574
 11
-400.671510
 21
155.033183
  0
LINE
  8
0
 62
7
  6
CONTINUOUS
 10
-400.671510
 20
155.033183
 11
-400.648676
 21
155.136000
  0
LINE
  8
0
 62
7
  6
CONTINUOUS
 10
-400.648676
 20
155.136000
 11
-400.603193
 21
155.231194
  0
LINE
  8
0
 62
7
  6
CONTINUOUS
 10
-400.603193
 20
155.231194
 11
-400.517853
 21
155.285706
  0
LINE
  8
0
 62
7
  6
CONTINUOUS
 10
-400.517853
 20
155.285706
 11
-400.432776
 21
155.231560
  0
LINE
  8
0
 62
7
  6
CONTINUOUS
 10
-400.432776
 20
155.231560
 11
-400.387529
 21
155.137544
  0
LINE
  8
0
 62
7
  6
CONTINUOUS
 10
-400.387529
 20
155.137544
 11
-400.364440
 21
155.034945
  0
LINE
  8
0
 62
7
  6
CONTINUOUS
 10
-400.364440
 20
155.034945
 11
-400.357147
 21
154.928574
  0
LINE
  8
0
 62
7
  6
CONTINUOUS
 10
-401.339294
 20
155.285706
 11
-401.387876
 21
155.268998
  0
LINE
  8
0
 62
7
  6
CONTINUOUS
 10
-401.387876
 20
155.268998
 11
-401.423907
 21
155.232201
  0
LINE
  8
0
 62
7
  6
CONTINUOUS
 10
-401.423907
 20
155.232201
 11
-401.450285
 21
155.186854
  0
LINE
  8
0
 62
7
  6
CONTINUOUS
 10
-401.450285
 20
155.186854
 11
-401.469459
 21
155.138034
  0
LINE
  8
0
 62
7
  6
CONTINUOUS
 10
-401.469459
 20
155.138034
 11
-401.483063
 21
155.088165
  0
LINE
  8
0
 62
7
  6
CONTINUOUS
 10
-401.483063
 20
155.088165
 11
-401.492586
 21
155.035803
  0
LINE
  8
0
 62
7
  6
CONTINUOUS
 10
-401.492586
 20
155.035803
 11
-401.498153
 21
154.982573
  0
LINE
  8
0
 62
7
  6
CONTINUOUS
 10
-401.498153
 20
154.982573
 11
-401.500000
 21
154.928574
  0
LINE
  8
0
 62
7
  6
CONTINUOUS
 10
-401.500000
 20
154.928574
 11
-401.498261
 21
154.876171
  0
LINE
  8
0
 62
7
  6
CONTINUOUS
 10
-401.498261
 20
154.876171
 11
-401.492934
 21
154.823835
  0
LINE
  8
0
 62
7
  6
CONTINUOUS
 10
-401.492934
 20
154.823835
 11
-401.483679
 21
154.771750
  0
LINE
  8
0
 62
7
  6
CONTINUOUS
 10
-401.483679
 20
154.771750
 11
-401.469844
 21
154.720295
  0
LINE
  8
0
 62
7
  6
CONTINUOUS
 10
-401.469844
 20
154.720295
 11
-401.450708
 21
154.671185
  0
LINE
  8
0
 62
7
  6
CONTINUOUS
 10
-401.450708
 20
154.671185
 11
-401.424338
 21
154.625531
  0
LINE
  8
0
 62
7
  6
CONTINUOUS
 10
-401.424338
 20
154.625531
 11
-401.386924
 21
154.587472
  0
LINE
  8
0
 62
7
  6
CONTINUOUS
 10
-401.386924
 20
154.587472
 11
-401.339294
 21
154.571426
  0
LINE
  8
0
 62
7
  6
CONTINUOUS
 10
-401.178558
 20
154.928574
 11
-401.170025
 21
154.756927
  0
LINE
  8
0
 62
7
  6
CONTINUOUS
 10
-401.170025
 20
154.756927
 11
-401.144035
 21
154.586760
  0
LINE
  8
0
 62
7
  6
CONTINUOUS
 10
-401.144035
 20
154.586760
 11
-401.099361
 21
154.419929
  0
LINE
  8
0
 62
7
  6
CONTINUOUS
 10
-401.099361
 20
154.419929
 11
-401.034310
 21
154.260331
  0
LINE
  8
0
 62
7
  6
CONTINUOUS
 10
-401.034310
 20
154.260331
 11
-400.945914
 21
154.112415
  0
LINE
  8
0
 62
7
  6
CONTINUOUS
 10
-400.945914
 20
154.112415
 11
-400.830470
 21
153.984656
  0
LINE
  8
0
 62
7
  6
CONTINUOUS
 10
-400.830470
 20
153.984656
 11
-400.684793
 21
153.891897
  0
LINE
  8
0
 62
7
  6
CONTINUOUS
 10
-400.684793
 20
153.891897
 11
-400.517853
 21
153.857132
  0
LINE
  8
0
 62
7
  6
CONTINUOUS
 10
-400.517853
 20
153.857132
 11
-400.351114
 21
153.891812
  0
LINE
  8
0
 62
7
  6
CONTINUOUS
 10
-400.351114
 20
153.891812
 11
-400.206312
 21
153.983721
  0
LINE
  8
0
 62
7
  6
CONTINUOUS
 10
-400.206312
 20
153.983721
 11
-400.090828
 21
154.110990
  0
LINE
  8
0
 62
7
  6
CONTINUOUS
 10
-400.090828
 20
154.110990
 11
-400.002363
 21
154.258369
  0
LINE
  8
0
 62
7
  6
CONTINUOUS
 10
-400.002363
 20
154.258369
 11
-399.937042
 21
154.417839
  0
LINE
  8
0
 62
7
  6
CONTINUOUS
 10
-399.937042
 20
154.417839
 11
-399.892194
 21
154.584250
  0
LINE
  8
0
 62
7
  6
CONTINUOUS
 10
-399.892194
 20
154.584250
 11
-399.865910
 21
154.754648
  0
LINE
  8
0
 62
7
  6
CONTINUOUS
 10
-399.865910
 20
154.754648
 11
-399.857147
 21
154.928574
  0
LINE
  8
0
 62
7
  6
CONTINUOUS
 10
-400.517853
 20
130.285706
 11
-400.411230
 21
130.299749
  0
LINE
  8
0
 62
7
  6
CONTINUOUS
 10
-400.411230
 20
130.299749
 11
-400.310862
 21
130.339643
  0
LINE
  8
0
 62
7
  6
CONTINUOUS
 10
-400.310862
 20
130.339643
 11
-400.221443
 21
130.399579
  0
LINE
  8
0
 62
7
  6
CONTINUOUS
 10
-400.221443
 20
130.399579
 11
-400.143309
 21
130.474497
  0
LINE
  8
0
 62
7
  6
CONTINUOUS
 10
-400.143309
 20
130.474497
 11
-400.076413
 21
130.559951
  0
LINE
  8
0
 62
7
  6
CONTINUOUS
 10
-400.076413
 20
130.559951
 11
-400.020135
 21
130.652500
  0
LINE
  8
0
 62
7
  6
CONTINUOUS
 10
-400.020135
 20
130.652500
 11
-399.973264
 21
130.750474
  0
LINE
  8
0
 62
7
  6
CONTINUOUS
 10
-399.973264
 20
130.750474
 11
-399.935167
 21
130.852061
  0
LINE
  8
0
 62
7
  6
CONTINUOUS
 10
-399.935167
 20
130.852061
 11
-399.905084
 21
130.956473
  0
LINE
  8
0
 62
7
  6
CONTINUOUS
 10
-399.905084
 20
130.956473
 11
-399.882570
 21
131.062791
  0
LINE
  8
0
 62
7
  6
CONTINUOUS
 10
-399.882570
 20
131.062791
 11
-399.867261
 21
131.170398
  0
LINE
  8
0
 62
7
  6
CONTINUOUS
 10
-399.867261
 20
131.170398
 11
-399.858917
 21
131.278768
  0
LINE
  8
0
 62
7
  6
CONTINUOUS
 10
-399.858917
 20
131.278768
 11
-399.857411
 21
131.387413
  0
LINE
  8
0
 62
7
  6
CONTINUOUS
 10
-399.857411
 20
131.387413
 11
-399.862698
 21
131.495736
  0
LINE
  8
0
 62
7
  6
CONTINUOUS
 10
-399.862698
 20
131.495736
 11
-399.874857
 21
131.603554
  0
LINE
  8
0
 62
7
  6
CONTINUOUS
 10
-399.874857
 20
131.603554
 11
-399.894099
 21
131.710443
  0
LINE
  8
0
 62
7
  6
CONTINUOUS
 10
-400.517853
 20
131.714279
 11
-400.469271
 21
131.697571
  0
LINE
  8
0
 62
7
  6
CONTINUOUS
 10
-400.469271
 20
131.697571
 11
-400.433240
 21
131.660775
  0
LINE
  8
0
 62
7
  6
CONTINUOUS
 10
-400.433240
 20
131.660775
 11
-400.406862
 21
131.615428
  0
LINE
  8
0
 62
7
  6
CONTINUOUS
 10
-400.406862
 20
131.615428
 11
-400.387688
 21
131.566607
  0
LINE
  8
0
 62
7
  6
CONTINUOUS
 10
-400.387688
 20
131.566607
 11
-400.374084
 21
131.516738
  0
LINE
  8
0
 62
7
  6
CONTINUOUS
 10
-400.374084
 20
131.516738
 11
-400.364561
 21
131.464376
  0
LINE
  8
0
 62
7
  6
CONTINUOUS
 10
-400.364561
 20
131.464376
 11
-400.358995
 21
131.411146
  0
LINE
  8
0
 62
7
  6
CONTINUOUS
 10
-400.358995
 20
131.411146
 11
-400.357147
 21
131.357147
  0
LINE
  8
0
 62
7
  6
CONTINUOUS
 10
-400.357147
 20
131.357147
 11
-400.358886
 21
131.304745
  0
LINE
  8
0
 62
7
  6
CONTINUOUS
 10
-400.358886
 20
131.304745
 11
-400.364213
 21
131.252408
  0
LINE
  8
0
 62
7
  6
CONTINUOUS
 10
-400.364213
 20
131.252408
 11
-400.373468
 21
131.200324
  0
LINE
  8
0
 62
7
  6
CONTINUOUS
 10
-400.373468
 20
131.200324
 11
-400.387303
 21
131.148869
  0
LINE
  8
0
 62
7
  6
CONTINUOUS
 10
-400.387303
 20
131.148869
 11
-400.406440
 21
131.099758
  0
LINE
  8
0
 62
7
  6
CONTINUOUS
 10
-400.406440
 20
131.099758
 11
-400.432809
 21
131.054105
  0
LINE
  8
0
 62
7
  6
CONTINUOUS
 10
-400.432809
 20
131.054105
 11
-400.470224
 21
131.016045
  0
LINE
  8
0
 62
7
  6
CONTINUOUS
 10
-400.470224
 20
131.016045
 11
-400.517853
 21
131.000000
  0
LINE
  8
0
 62
7
  6
CONTINUOUS
 10
-401.962053
 20
133.142118
 11
-401.981622
 21
133.249048
  0
LINE
  8
0
 62
7
  6
CONTINUOUS
 10
-401.981622
 20
133.249048
 11
-401.994093
 21
133.357047
  0
LINE
  8
0
 62
7
  6
CONTINUOUS
 10
-401.994093
 20
133.357047
 11
-401.999671
 21
133.466205
  0
LINE
  8
0
 62
7
  6
CONTINUOUS
 10
-401.999671
 20
133.466205
 11
-401.998389
 21
133.574786
  0
LINE
  8
0
 62
7
  6
CONTINUOUS
 10
-401.998389
 20
133.574786
 11
-401.990295
 21
133.682971
  0
LINE
  8
0
 62
7
  6
CONTINUOUS
 10
-401.990295
 20
133.682971
 11
-401.975254
 21
133.790485
  0
LINE
  8
0
 62
7
  6
CONTINUOUS
 10
-401.975254
 20
133.790485
 11
-401.953003
 21
133.896871
  0
LINE
  8
0
 62
7
  6
CONTINUOUS
 10
-401.953003
 20
133.896871
 11
-401.923141
 21
134.001547
  0
LINE
  8
0
 62
7
  6
CONTINUOUS
 10
-401.923141
 20
134.001547
 11
-401.885120
 21
134.103739
  0
LINE
  8
0
 62
7
  6
CONTINUOUS
 10
-401.885120
 20
134.103739
 11
-401.838229
 21
134.202374
  0
LINE
  8
0
 62
7
  6
CONTINUOUS
 10
-401.838229
 20
134.202374
 11
-401.781603
 21
134.295922
  0
LINE
  8
0
 62
7
  6
CONTINUOUS
 10
-401.781603
 20
134.295922
 11
-401.714276
 21
134.382152
  0
LINE
  8
0
 62
7
  6
CONTINUOUS
 10
-401.714276
 20
134.382152
 11
-401.635386
 21
134.457816
  0
LINE
  8
0
 62
7
  6
CONTINUOUS
 10
-401.635386
 20
134.457816
 11
-401.544677
 21
134.518347
  0
LINE
  8
0
 62
7
  6
CONTINUOUS
 10
-401.544677
 20
134.518347
 11
-401.443492
 21
134.558019
  0
LINE
  8
0
 62
7
  6
CONTINUOUS
 10
-401.443492
 20
134.558019
 11
-401.336270
 21
134.571415
  0
LINE
  8
0
 62
7
  6
CONTINUOUS
 10
-401.339294
 20
133.857147
 11
-401.387876
 21
133.840438
  0
LINE
  8
0
 62
7
  6
CONTINUOUS
 10
-401.387876
 20
133.840438
 11
-401.423906
 21
133.803639
  0
LINE
  8
0
 62
7
  6
CONTINUOUS
 10
-401.423906
 20
133.803639
 11
-401.450284
 21
133.758291
  0
LINE
  8
0
 62
7
  6
CONTINUOUS
 10
-401.450284
 20
133.758291
 11
-401.469458
 21
133.709470
  0
LINE
  8
0
 62
7
  6
CONTINUOUS
 10
-401.469458
 20
133.709470
 11
-401.483062
 21
133.659599
  0
LINE
  8
0
 62
7
  6
CONTINUOUS
 10
-401.483062
 20
133.659599
 11
-401.492585
 21
133.607236
  0
LINE
  8
0
 62
7
  6
CONTINUOUS
 10
-401.492585
 20
133.607236
 11
-401.498152
 21
133.554005
  0
LINE
  8
0
 62
7
  6
CONTINUOUS
 10
-401.498152
 20
133.554005
 11
-401.500000
 21
133.500000
  0
LINE
  8
0
 62
7
  6
CONTINUOUS
 10
-401.500000
 20
133.500000
 11
-401.498261
 21
133.447597
  0
LINE
  8
0
 62
7
  6
CONTINUOUS
 10
-401.498261
 20
133.447597
 11
-401.492934
 21
133.395260
  0
LINE
  8
0
 62
7
  6
CONTINUOUS
 10
-401.492934
 20
133.395260
 11
-401.483679
 21
133.343174
  0
LINE
  8
0
 62
7
  6
CONTINUOUS
 10
-401.483679
 20
133.343174
 11
-401.469843
 21
133.291718
  0
LINE
  8
0
 62
7
  6
CONTINUOUS
 10
-401.469843
 20
133.291718
 11
-401.450706
 21
133.242607
  0
LINE
  8
0
 62
7
  6
CONTINUOUS
 10
-401.450706
 20
133.242607
 11
-401.424336
 21
133.196953
  0
LINE
  8
0
 62
7
  6
CONTINUOUS
 10
-401.424336
 20
133.196953
 11
-401.386919
 21
133.158895
  0
LINE
  8
0
 62
7
  6
CONTINUOUS
 10
-401.386919
 20
133.158895
 11
-401.339294
 21
133.142853
  0
LINE
  8
0
 62
7
  6
CONTINUOUS
 10
-401.339294
 20
118.857140
 11
-401.407826
 21
118.823041
  0
LINE
  8
0
 62
7
  6
CONTINUOUS
 10
-401.407826
 20
118.823041
 11
-401.450713
 21
118.757374
  0
LINE
  8
0
 62
7
  6
CONTINUOUS
 10
-401.450713
 20
118.757374
 11
-401.477262
 21
118.683143
  0
LINE
  8
0
 62
7
  6
CONTINUOUS
 10
-401.477262
 20
118.683143
 11
-401.492860
 21
118.605278
  0
LINE
  8
0
 62
7
  6
CONTINUOUS
 10
-401.492860
 20
118.605278
 11
-401.499579
 21
118.525850
  0
LINE
  8
0
 62
7
  6
CONTINUOUS
 10
-401.499579
 20
118.525850
 11
-401.498228
 21
118.447113
  0
LINE
  8
0
 62
7
  6
CONTINUOUS
 10
-401.498228
 20
118.447113
 11
-401.488732
 21
118.368620
  0
LINE
  8
0
 62
7
  6
CONTINUOUS
 10
-401.488732
 20
118.368620
 11
-401.469895
 21
118.291883
  0
LINE
  8
0
 62
7
  6
CONTINUOUS
 10
-401.469895
 20
118.291883
 11
-401.438612
 21
118.219223
  0
LINE
  8
0
 62
7
  6
CONTINUOUS
 10
-401.438612
 20
118.219223
 11
-401.387527
 21
118.159324
  0
LINE
  8
0
 62
7
  6
CONTINUOUS
 10
-401.387527
 20
118.159324
 11
-401.313051
 21
118.147654
  0
LINE
  8
0
 62
7
  6
CONTINUOUS
 10
-401.313051
 20
118.147654
 11
-401.253790
 21
118.197591
  0
LINE
  8
0
 62
7
  6
CONTINUOUS
 10
-401.253790
 20
118.197591
 11
-401.217646
 21
118.266576
  0
LINE
  8
0
 62
7
  6
CONTINUOUS
 10
-401.217646
 20
118.266576
 11
-401.195093
 21
118.342238
  0
LINE
  8
0
 62
7
  6
CONTINUOUS
 10
-401.195093
 20
118.342238
 11
-401.182521
 21
118.421193
  0
LINE
  8
0
 62
7
  6
CONTINUOUS
 10
-401.182521
 20
118.421193
 11
-401.178558
 21
118.500000
  0
LINE
  8
0
 62
7
  6
CONTINUOUS
 10
-400.678317
 20
118.480441
 11
-400.676249
 21
118.560332
  0
LINE
  8
0
 62
7
  6
CONTINUOUS
 10
-400.676249
 20
118.560332
 11
-400.665692
 21
118.640027
  0
LINE
  8
0
 62
7
  6
CONTINUOUS
 10
-400.665692
 20
118.640027
 11
-400.645274
 21
118.717635
  0
LINE
  8
0
 62
7
  6
CONTINUOUS
 10
-400.645274
 20
118.717635
 11
-400.611357
 21
118.790468
  0
LINE
  8
0
 62
7
  6
CONTINUOUS
 10
-400.611357
 20
118.790468
 11
-400.555468
 21
118.847219
  0
LINE
  8
0
 62
7
  6
CONTINUOUS
 10
-400.555468
 20
118.847219
 11
-400.479224
 21
118.846669
  0
LINE
  8
0
 62
7
  6
CONTINUOUS
 10
-400.479224
 20
118.846669
 11
-400.423993
 21
118.789901
  0
LINE
  8
0
 62
7
  6
CONTINUOUS
 10
-400.423993
 20
118.789901
 11
-400.390478
 21
118.717768
  0
LINE
  8
0
 62
7
  6
CONTINUOUS
 10
-400.390478
 20
118.717768
 11
-400.370050
 21
118.640218
  0
LINE
  8
0
 62
7
  6
CONTINUOUS
 10
-400.370050
 20
118.640218
 11
-400.359485
 21
118.560696
  0
LINE
  8
0
 62
7
  6
CONTINUOUS
 10
-400.359485
 20
118.560696
 11
-400.357386
 21
118.480545
  0
LINE
  8
0
 62
7
  6
CONTINUOUS
 10
-400.357386
 20
118.480545
 11
-400.363467
 21
118.400824
  0
LINE
  8
0
 62
7
  6
CONTINUOUS
 10
-400.363467
 20
118.400824
 11
-400.378699
 21
118.321344
  0
LINE
  8
0
 62
7
  6
CONTINUOUS
 10
-400.378699
 20
118.321344
 11
-400.405101
 21
118.245511
  0
LINE
  8
0
 62
7
  6
CONTINUOUS
 10
-400.405101
 20
118.245511
 11
-400.448402
 21
118.177930
  0
LINE
  8
0
 62
7
  6
CONTINUOUS
 10
-400.448402
 20
118.177930
 11
-400.517853
 21
118.142860
  0
LINE
  8
0
 62
7
  6
CONTINUOUS
 10
-400.678675
 20
118.520147
 11
-400.695086
 21
118.261859
  0
LINE
  8
0
 62
7
  6
CONTINUOUS
 10
-400.695086
 20
118.261859
 11
-400.752285
 21
118.008184
  0
LINE
  8
0
 62
7
  6
CONTINUOUS
 10
-400.752285
 20
118.008184
 11
-400.855616
 21
117.770074
  0
LINE
  8
0
 62
7
  6
CONTINUOUS
 10
-400.855616
 20
117.770074
 11
-401.015493
 21
117.566055
  0
LINE
  8
0
 62
7
  6
CONTINUOUS
 10
-401.015493
 20
117.566055
 11
-401.240257
 21
117.440678
  0
LINE
  8
0
 62
7
  6
CONTINUOUS
 10
-401.240257
 20
117.440678
 11
-401.494436
 21
117.458529
  0
LINE
  8
0
 62
7
  6
CONTINUOUS
 10
-401.494436
 20
117.458529
 11
-401.704700
 21
117.607343
  0
LINE
  8
0
 62
7
  6
CONTINUOUS
 10
-401.704700
 20
117.607343
 11
-401.850255
 21
117.820741
  0
LINE
  8
0
 62
7
  6
CONTINUOUS
 10
-401.850255
 20
117.820741
 11
-401.942459
 21
118.062682
  0
LINE
  8
0
 62
7
  6
CONTINUOUS
 10
-401.942459
 20
118.062682
 11
-401.990391
 21
118.317930
  0
LINE
  8
0
 62
7
  6
CONTINUOUS
 10
-401.990391
 20
118.317930
 11
-401.998274
 21
118.577387
  0
LINE
  8
0
 62
7
  6
CONTINUOUS
 10
-401.998274
 20
118.577387
 11
-401.966976
 21
118.834500
  0
LINE
  8
0
 62
7
  6
CONTINUOUS
 10
-401.966976
 20
118.834500
 11
-401.893437
 21
119.083474
  0
LINE
  8
0
 62
7
  6
CONTINUOUS
 10
-401.893437
 20
119.083474
 11
-401.770383
 21
119.311949
  0
LINE
  8
0
 62
7
  6
CONTINUOUS
 10
-401.770383
 20
119.311949
 11
-401.586264
 21
119.493761
  0
LINE
  8
0
 62
7
  6
CONTINUOUS
 10
-401.586264
 20
119.493761
 11
-401.341702
 21
119.571419
  0
LINE
  8
0
 62
7
  6
CONTINUOUS
 10
-400.517853
 20
117.428574
 11
-400.274909
 21
117.503633
  0
LINE
  8
0
 62
7
  6
CONTINUOUS
 10
-400.274909
 20
117.503633
 11
-400.090719
 21
117.682574
  0
LINE
  8
0
 62
7
  6
CONTINUOUS
 10
-400.090719
 20
117.682574
 11
-399.966832
 21
117.908803
  0
LINE
  8
0
 62
7
  6
CONTINUOUS
 10
-399.966832
 20
117.908803
 11
-399.892114
 21
118.156062
  0
LINE
  8
0
 62
7
  6
CONTINUOUS
 10
-399.892114
 20
118.156062
 11
-399.859356
 21
118.412466
  0
LINE
  8
0
 62
7
  6
CONTINUOUS
 10
-399.859356
 20
118.412466
 11
-399.865548
 21
118.670313
  0
LINE
  8
0
 62
7
  6
CONTINUOUS
 10
-399.865548
 20
118.670313
 11
-399.911225
 21
118.924535
  0
LINE
  8
0
 62
7
  6
CONTINUOUS
 10
-399.911225
 20
118.924535
 11
-400.000723
 21
119.166867
  0
LINE
  8
0
 62
7
  6
CONTINUOUS
 10
-400.000723
 20
119.166867
 11
-400.142973
 21
119.382266
  0
LINE
  8
0
 62
7
  6
CONTINUOUS
 10
-400.142973
 20
119.382266
 11
-400.348893
 21
119.535801
  0
LINE
  8
0
 62
7
  6
CONTINUOUS
 10
-400.348893
 20
119.535801
 11
-400.601348
 21
119.562837
  0
LINE
  8
0
 62
7
  6
CONTINUOUS
 10
-400.601348
 20
119.562837
 11
-400.828398
 21
119.445703
  0
LINE
  8
0
 62
7
  6
CONTINUOUS
 10
-400.828398
 20
119.445703
 11
-400.991706
 21
119.246654
  0
LINE
  8
0
 62
7
  6
CONTINUOUS
 10
-400.991706
 20
119.246654
 11
-401.098400
 21
119.011520
  0
LINE
  8
0
 62
7
  6
CONTINUOUS
 10
-401.098400
 20
119.011520
 11
-401.158765
 21
118.760289
  0
LINE
  8
0
 62
7
  6
CONTINUOUS
 10
-401.158765
 20
118.760289
 11
-401.178557
 21
118.502521
  0
LINE
  8
0
 62
7
  6
CONTINUOUS
 10
-400.517853
 20
141.000000
 11
-400.469271
 21
140.983291
  0
LINE
  8
0
 62
7
  6
CONTINUOUS
 10
-400.469271
 20
140.983291
 11
-400.433241
 21
140.946492
  0
LINE
  8
0
 62
7
  6
CONTINUOUS
 10
-400.433241
 20
140.946492
 11
-400.406863
 21
140.901144
  0
LINE
  8
0
 62
7
  6
CONTINUOUS
 10
-400.406863
 20
140.901144
 11
-400.387689
 21
140.852322
  0
LINE
  8
0
 62
7
  6
CONTINUOUS
 10
-400.387689
 20
140.852322
 11
-400.374085
 21
140.802452
  0
LINE
  8
0
 62
7
  6
CONTINUOUS
 10
-400.374085
 20
140.802452
 11
-400.364562
 21
140.750088
  0
LINE
  8
0
 62
7
  6
CONTINUOUS
 10
-400.364562
 20
140.750088
 11
-400.358995
 21
140.696857
  0
LINE
  8
0
 62
7
  6
CONTINUOUS
 10
-400.358995
 20
140.696857
 11
-400.357147
 21
140.642853
  0
LINE
  8
0
 62
7
  6
CONTINUOUS
 10
-400.357147
 20
140.642853
 11
-400.358886
 21
140.590449
  0
LINE
  8
0
 62
7
  6
CONTINUOUS
 10
-400.358886
 20
140.590449
 11
-400.364213
 21
140.538112
  0
LINE
  8
0
 62
7
  6
CONTINUOUS
 10
-400.364213
 20
140.538112
 11
-400.373469
 21
140.486027
  0
LINE
  8
0
 62
7
  6
CONTINUOUS
 10
-400.373469
 20
140.486027
 11
-400.387304
 21
140.434571
  0
LINE
  8
0
 62
7
  6
CONTINUOUS
 10
-400.387304
 20
140.434571
 11
-400.406441
 21
140.385460
  0
LINE
  8
0
 62
7
  6
CONTINUOUS
 10
-400.406441
 20
140.385460
 11
-400.432812
 21
140.339806
  0
LINE
  8
0
 62
7
  6
CONTINUOUS
 10
-400.432812
 20
140.339806
 11
-400.470228
 21
140.301748
  0
LINE
  8
0
 62
7
  6
CONTINUOUS
 10
-400.470228
 20
140.301748
 11
-400.517853
 21
140.285706
  0
LINE
  8
0
 62
7
  6
CONTINUOUS
 10
-400.517853
 20
139.571426
 11
-400.411231
 21
139.585469
  0
LINE
  8
0
 62
7
  6
CONTINUOUS
 10
-400.411231
 20
139.585469
 11
-400.310863
 21
139.625362
  0
LINE
  8
0
 62
7
  6
CONTINUOUS
 10
-400.310863
 20
139.625362
 11
-400.221443
 21
139.685296
  0
LINE
  8
0
 62
7
  6
CONTINUOUS
 10
-400.221443
 20
139.685296
 11
-400.143309
 21
139.760212
  0
LINE
  8
0
 62
7
  6
CONTINUOUS
 10
-400.143309
 20
139.760212
 11
-400.076412
 21
139.845666
  0
LINE
  8
0
 62
7
  6
CONTINUOUS
 10
-400.076412
 20
139.845666
 11
-400.020135
 21
139.938213
  0
LINE
  8
0
 62
7
  6
CONTINUOUS
 10
-400.020135
 20
139.938213
 11
-399.973264
 21
140.036186
  0
LINE
  8
0
 62
7
  6
CONTINUOUS
 10
-399.973264
 20
140.036186
 11
-399.935166
 21
140.137772
  0
LINE
  8
0
 62
7
  6
CONTINUOUS
 10
-399.935166
 20
140.137772
 11
-399.905084
 21
140.242183
  0
LINE
  8
0
 62
7
  6
CONTINUOUS
 10
-399.905084
 20
140.242183
 11
-399.882570
 21
140.348500
  0
LINE
  8
0
 62
7
  6
CONTINUOUS
 10
-399.882570
 20
140.348500
 11
-399.867260
 21
140.456107
  0
LINE
  8
0
 62
7
  6
CONTINUOUS
 10
-399.867260
 20
140.456107
 11
-399.858917
 21
140.564476
  0
LINE
  8
0
 62
7
  6
CONTINUOUS
 10
-399.858917
 20
140.564476
 11
-399.857411
 21
140.673121
  0
LINE
  8
0
 62
7
  6
CONTINUOUS
 10
-399.857411
 20
140.673121
 11
-399.862698
 21
140.781443
  0
LINE
  8
0
 62
7
  6
CONTINUOUS
 10
-399.862698
 20
140.781443
 11
-399.874857
 21
140.889259
  0
LINE
  8
0
 62
7
  6
CONTINUOUS
 10
-399.874857
 20
140.889259
 11
-399.894099
 21
140.996148
  0
LINE
  8
0
 62
7
  6
CONTINUOUS
 10
-401.962053
 20
143.142118
 11
-401.981622
 21
143.249048
  0
LINE
  8
0
 62
7
  6
CONTINUOUS
 10
-401.981622
 20
143.249048
 11
-401.994093
 21
143.357047
  0
LINE
  8
0
 62
7
  6
CONTINUOUS
 10
-401.994093
 20
143.357047
 11
-401.999671
 21
143.466205
  0
LINE
  8
0
 62
7
  6
CONTINUOUS
 10
-401.999671
 20
143.466205
 11
-401.998389
 21
143.574786
  0
LINE
  8
0
 62
7
  6
CONTINUOUS
 10
-401.998389
 20
143.574786
 11
-401.990295
 21
143.682971
  0
LINE
  8
0
 62
7
  6
CONTINUOUS
 10
-401.990295
 20
143.682971
 11
-401.975254
 21
143.790485
  0
LINE
  8
0
 62
7
  6
CONTINUOUS
 10
-401.975254
 20
143.790485
 11
-401.953003
 21
143.896871
  0
LINE
  8
0
 62
7
  6
CONTINUOUS
 10
-401.953003
 20
143.896871
 11
-401.923141
 21
144.001547
  0
LINE
  8
0
 62
7
  6
CONTINUOUS
 10
-401.923141
 20
144.001547
 11
-401.885120
 21
144.103739
  0
LINE
  8
0
 62
7
  6
CONTINUOUS
 10
-401.885120
 20
144.103739
 11
-401.838229
 21
144.202374
  0
LINE
  8
0
 62
7
  6
CONTINUOUS
 10
-401.838229
 20
144.202374
 11
-401.781603
 21
144.295922
  0
LINE
  8
0
 62
7
  6
CONTINUOUS
 10
-401.781603
 20
144.295922
 11
-401.714276
 21
144.382152
  0
LINE
  8
0
 62
7
  6
CONTINUOUS
 10
-401.714276
 20
144.382152
 11
-401.635386
 21
144.457816
  0
LINE
  8
0
 62
7
  6
CONTINUOUS
 10
-401.635386
 20
144.457816
 11
-401.544677
 21
144.518347
  0
LINE
  8
0
 62
7
  6
CONTINUOUS
 10
-401.544677
 20
144.518347
 11
-401.443492
 21
144.558019
  0
LINE
  8
0
 62
7
  6
CONTINUOUS
 10
-401.443492
 20
144.558019
 11
-401.336270
 21
144.571415
  0
LINE
  8
0
 62
7
  6
CONTINUOUS
 10
-399.895094
 20
143.142118
 11
-399.875526
 21
143.249048
  0
LINE
  8
0
 62
7
  6
CONTINUOUS
 10
-399.875526
 20
143.249048
 11
-399.863054
 21
143.357047
  0
LINE
  8
0
 62
7
  6
CONTINUOUS
 10
-399.863054
 20
143.357047
 11
-399.857476
 21
143.466205
  0
LINE
  8
0
 62
7
  6
CONTINUOUS
 10
-399.857476
 20
143.466205
 11
-399.858759
 21
143.574786
  0
LINE
  8
0
 62
7
  6
CONTINUOUS
 10
-399.858759
 20
143.574786
 11
-399.866853
 21
143.682971
  0
LINE
  8
0
 62
7
  6
CONTINUOUS
 10
-399.866853
 20
143.682971
 11
-399.881893
 21
143.790485
  0
LINE
  8
0
 62
7
  6
CONTINUOUS
 10
-399.881893
 20
143.790485
 11
-399.904145
 21
143.896871
  0
LINE
  8
0
 62
7
  6
CONTINUOUS
 10
-399.904145
 20
143.896871
 11
-399.934006
 21
144.001547
  0
LINE
  8
0
 62
7
  6
CONTINUOUS
 10
-399.934006
 20
144.001547
 11
-399.972028
 21
144.103739
  0
LINE
  8
0
 62
7
  6
CONTINUOUS
 10
-399.972028
 20
144.103739
 11
-400.018918
 21
144.202374
  0
LINE
  8
0
 62
7
  6
CONTINUOUS
 10
-400.018918
 20
144.202374
 11
-400.075545
 21
144.295922
  0
LINE
  8
0
 62
7
  6
CONTINUOUS
 10
-400.075545
 20
144.295922
 11
-400.142871
 21
144.382152
  0
LINE
  8
0
 62
7
  6
CONTINUOUS
 10
-400.142871
 20
144.382152
 11
-400.221762
 21
144.457816
  0
LINE
  8
0
 62
7
  6
CONTINUOUS
 10
-400.221762
 20
144.457816
 11
-400.312470
 21
144.518347
  0
LINE
  8
0
 62
7
  6
CONTINUOUS
 10
-400.312470
 20
144.518347
 11
-400.413656
 21
144.558019
  0
LINE
  8
0
 62
7
  6
CONTINUOUS
 10
-400.413656
 20
144.558019
 11
-400.520878
 21
144.571415
  0
LINE
  8
0
 62
7
  6
CONTINUOUS
 10
-401.339294
 20
143.857132
 11
-401.387876
 21
143.840424
  0
LINE
  8
0
 62
7
  6
CONTINUOUS
 10
-401.387876
 20
143.840424
 11
-401.423907
 21
143.803628
  0
LINE
  8
0
 62
7
  6
CONTINUOUS
 10
-401.423907
 20
143.803628
 11
-401.450285
 21
143.758281
  0
LINE
  8
0
 62
7
  6
CONTINUOUS
 10
-401.450285
 20
143.758281
 11
-401.469459
 21
143.709460
  0
LINE
  8
0
 62
7
  6
CONTINUOUS
 10
-401.469459
 20
143.709460
 11
-401.483063
 21
143.659591
  0
LINE
  8
0
 62
7
  6
CONTINUOUS
 10
-401.483063
 20
143.659591
 11
-401.492586
 21
143.607229
  0
LINE
  8
0
 62
7
  6
CONTINUOUS
 10
-401.492586
 20
143.607229
 11
-401.498153
 21
143.553999
  0
LINE
  8
0
 62
7
  6
CONTINUOUS
 10
-401.498153
 20
143.553999
 11
-401.500000
 21
143.500000
  0
LINE
  8
0
 62
7
  6
CONTINUOUS
 10
-401.500000
 20
143.500000
 11
-401.498261
 21
143.447598
  0
LINE
  8
0
 62
7
  6
CONTINUOUS
 10
-401.498261
 20
143.447598
 11
-401.492934
 21
143.395261
  0
LINE
  8
0
 62
7
  6
CONTINUOUS
 10
-401.492934
 20
143.395261
 11
-401.483679
 21
143.343176
  0
LINE
  8
0
 62
7
  6
CONTINUOUS
 10
-401.483679
 20
143.343176
 11
-401.469844
 21
143.291722
  0
LINE
  8
0
 62
7
  6
CONTINUOUS
 10
-401.469844
 20
143.291722
 11
-401.450708
 21
143.242611
  0
LINE
  8
0
 62
7
  6
CONTINUOUS
 10
-401.450708
 20
143.242611
 11
-401.424338
 21
143.196957
  0
LINE
  8
0
 62
7
  6
CONTINUOUS
 10
-401.424338
 20
143.196957
 11
-401.386924
 21
143.158898
  0
LINE
  8
0
 62
7
  6
CONTINUOUS
 10
-401.386924
 20
143.158898
 11
-401.339294
 21
143.142853
  0
LINE
  8
0
 62
7
  6
CONTINUOUS
 10
-400.517853
 20
143.857132
 11
-400.469271
 21
143.840424
  0
LINE
  8
0
 62
7
  6
CONTINUOUS
 10
-400.469271
 20
143.840424
 11
-400.433240
 21
143.803628
  0
LINE
  8
0
 62
7
  6
CONTINUOUS
 10
-400.433240
 20
143.803628
 11
-400.406862
 21
143.758281
  0
LINE
  8
0
 62
7
  6
CONTINUOUS
 10
-400.406862
 20
143.758281
 11
-400.387688
 21
143.709460
  0
LINE
  8
0
 62
7
  6
CONTINUOUS
 10
-400.387688
 20
143.709460
 11
-400.374084
 21
143.659591
  0
LINE
  8
0
 62
7
  6
CONTINUOUS
 10
-400.374084
 20
143.659591
 11
-400.364561
 21
143.607229
  0
LINE
  8
0
 62
7
  6
CONTINUOUS
 10
-400.364561
 20
143.607229
 11
-400.358995
 21
143.553999
  0
LINE
  8
0
 62
7
  6
CONTINUOUS
 10
-400.358995
 20
143.553999
 11
-400.357147
 21
143.500000
  0
LINE
  8
0
 62
7
  6
CONTINUOUS
 10
-400.357147
 20
143.500000
 11
-400.358886
 21
143.447598
  0
LINE
  8
0
 62
7
  6
CONTINUOUS
 10
-400.358886
 20
143.447598
 11
-400.364213
 21
143.395261
  0
LINE
  8
0
 62
7
  6
CONTINUOUS
 10
-400.364213
 20
143.395261
 11
-400.373468
 21
143.343176
  0
LINE
  8
0
 62
7
  6
CONTINUOUS
 10
-400.373468
 20
143.343176
 11
-400.387303
 21
143.291722
  0
LINE
  8
0
 62
7
  6
CONTINUOUS
 10
-400.387303
 20
143.291722
 11
-400.406440
 21
143.242611
  0
LINE
  8
0
 62
7
  6
CONTINUOUS
 10
-400.406440
 20
143.242611
 11
-400.432809
 21
143.196957
  0
LINE
  8
0
 62
7
  6
CONTINUOUS
 10
-400.432809
 20
143.196957
 11
-400.470224
 21
143.158898
  0
LINE
  8
0
 62
7
  6
CONTINUOUS
 10
-400.470224
 20
143.158898
 11
-400.517853
 21
143.142853
  0
LINE
  8
0
 62
7
  6
CONTINUOUS
 10
-402.053558
 20
126.714287
 11
-402.220298
 21
126.748965
  0
LINE
  8
0
 62
7
  6
CONTINUOUS
 10
-402.220298
 20
126.748965
 11
-402.365104
 21
126.840871
  0
LINE
  8
0
 62
7
  6
CONTINUOUS
 10
-402.365104
 20
126.840871
 11
-402.480595
 21
126.968135
  0
LINE
  8
0
 62
7
  6
CONTINUOUS
 10
-402.480595
 20
126.968135
 11
-402.569065
 21
127.115512
  0
LINE
  8
0
 62
7
  6
CONTINUOUS
 10
-402.569065
 20
127.115512
 11
-402.634392
 21
127.274981
  0
LINE
  8
0
 62
7
  6
CONTINUOUS
 10
-402.634392
 20
127.274981
 11
-402.679244
 21
127.441391
  0
LINE
  8
0
 62
7
  6
CONTINUOUS
 10
-402.679244
 20
127.441391
 11
-402.705531
 21
127.611790
  0
LINE
  8
0
 62
7
  6
CONTINUOUS
 10
-402.705531
 20
127.611790
 11
-402.714294
 21
127.785713
  0
LINE
  8
0
 62
7
  6
CONTINUOUS
 10
-402.714294
 20
127.785713
 11
-402.705760
 21
127.957361
  0
LINE
  8
0
 62
7
  6
CONTINUOUS
 10
-402.705760
 20
127.957361
 11
-402.679767
 21
128.127528
  0
LINE
  8
0
 62
7
  6
CONTINUOUS
 10
-402.679767
 20
128.127528
 11
-402.635089
 21
128.294359
  0
LINE
  8
0
 62
7
  6
CONTINUOUS
 10
-402.635089
 20
128.294359
 11
-402.570033
 21
128.453956
  0
LINE
  8
0
 62
7
  6
CONTINUOUS
 10
-402.570033
 20
128.453956
 11
-402.481631
 21
128.601869
  0
LINE
  8
0
 62
7
  6
CONTINUOUS
 10
-402.481631
 20
128.601869
 11
-402.366182
 21
128.729625
  0
LINE
  8
0
 62
7
  6
CONTINUOUS
 10
-402.366182
 20
128.729625
 11
-402.220503
 21
128.822382
  0
LINE
  8
0
 62
7
  6
CONTINUOUS
 10
-402.220503
 20
128.822382
 11
-402.053558
 21
128.857147
  0
LINE
  8
0
 62
7
  6
CONTINUOUS
 10
-400.517853
 20
126.714287
 11
-400.351115
 21
126.748965
  0
LINE
  8
0
 62
7
  6
CONTINUOUS
 10
-400.351115
 20
126.748965
 11
-400.206313
 21
126.840872
  0
LINE
  8
0
 62
7
  6
CONTINUOUS
 10
-400.206313
 20
126.840872
 11
-400.090827
 21
126.968138
  0
LINE
  8
0
 62
7
  6
CONTINUOUS
 10
-400.090827
 20
126.968138
 11
-400.002363
 21
127.115516
  0
LINE
  8
0
 62
7
  6
CONTINUOUS
 10
-400.002363
 20
127.115516
 11
-399.937041
 21
127.274985
  0
LINE
  8
0
 62
7
  6
CONTINUOUS
 10
-399.937041
 20
127.274985
 11
-399.892193
 21
127.441395
  0
LINE
  8
0
 62
7
  6
CONTINUOUS
 10
-399.892193
 20
127.441395
 11
-399.865910
 21
127.611792
  0
LINE
  8
0
 62
7
  6
CONTINUOUS
 10
-399.865910
 20
127.611792
 11
-399.857147
 21
127.785713
  0
LINE
  8
0
 62
7
  6
CONTINUOUS
 10
-399.857147
 20
127.785713
 11
-399.865681
 21
127.957359
  0
LINE
  8
0
 62
7
  6
CONTINUOUS
 10
-399.865681
 20
127.957359
 11
-399.891671
 21
128.127525
  0
LINE
  8
0
 62
7
  6
CONTINUOUS
 10
-399.891671
 20
128.127525
 11
-399.936344
 21
128.294355
  0
LINE
  8
0
 62
7
  6
CONTINUOUS
 10
-399.936344
 20
128.294355
 11
-400.001395
 21
128.453952
  0
LINE
  8
0
 62
7
  6
CONTINUOUS
 10
-400.001395
 20
128.453952
 11
-400.089791
 21
128.601866
  0
LINE
  8
0
 62
7
  6
CONTINUOUS
 10
-400.089791
 20
128.601866
 11
-400.205235
 21
128.729624
  0
LINE
  8
0
 62
7
  6
CONTINUOUS
 10
-400.205235
 20
128.729624
 11
-400.350911
 21
128.822382
  0
LINE
  8
0
 62
7
  6
CONTINUOUS
 10
-400.350911
 20
128.822382
 11
-400.517853
 21
128.857147
  0
LINE
  8
0
 62
7
  6
CONTINUOUS
 10
-402.053558
 20
128.142853
 11
-402.102142
 21
128.126145
  0
LINE
  8
0
 62
7
  6
CONTINUOUS
 10
-402.102142
 20
128.126145
 11
-402.138177
 21
128.089350
  0
LINE
  8
0
 62
7
  6
CONTINUOUS
 10
-402.138177
 20
128.089350
 11
-402.164561
 21
128.044004
  0
LINE
  8
0
 62
7
  6
CONTINUOUS
 10
-402.164561
 20
128.044004
 11
-402.183741
 21
127.995184
  0
LINE
  8
0
 62
7
  6
CONTINUOUS
 10
-402.183741
 20
127.995184
 11
-402.197349
 21
127.945313
  0
LINE
  8
0
 62
7
  6
CONTINUOUS
 10
-402.197349
 20
127.945313
 11
-402.206876
 21
127.892950
  0
LINE
  8
0
 62
7
  6
CONTINUOUS
 10
-402.206876
 20
127.892950
 11
-402.212446
 21
127.839718
  0
LINE
  8
0
 62
7
  6
CONTINUOUS
 10
-402.212446
 20
127.839718
 11
-402.214294
 21
127.785713
  0
LINE
  8
0
 62
7
  6
CONTINUOUS
 10
-402.214294
 20
127.785713
 11
-402.212554
 21
127.733309
  0
LINE
  8
0
 62
7
  6
CONTINUOUS
 10
-402.212554
 20
127.733309
 11
-402.207225
 21
127.680971
  0
LINE
  8
0
 62
7
  6
CONTINUOUS
 10
-402.207225
 20
127.680971
 11
-402.197966
 21
127.628886
  0
LINE
  8
0
 62
7
  6
CONTINUOUS
 10
-402.197966
 20
127.628886
 11
-402.184126
 21
127.577430
  0
LINE
  8
0
 62
7
  6
CONTINUOUS
 10
-402.184126
 20
127.577430
 11
-402.164983
 21
127.528321
  0
LINE
  8
0
 62
7
  6
CONTINUOUS
 10
-402.164983
 20
127.528321
 11
-402.138606
 21
127.482669
  0
LINE
  8
0
 62
7
  6
CONTINUOUS
 10
-402.138606
 20
127.482669
 11
-402.101185
 21
127.444614
  0
LINE
  8
0
 62
7
  6
CONTINUOUS
 10
-402.101185
 20
127.444614
 11
-402.053558
 21
127.428574
  0
LINE
  8
0
 62
7
  6
CONTINUOUS
 10
-400.517853
 20
128.142853
 11
-400.469271
 21
128.126144
  0
LINE
  8
0
 62
7
  6
CONTINUOUS
 10
-400.469271
 20
128.126144
 11
-400.433241
 21
128.089347
  0
LINE
  8
0
 62
7
  6
CONTINUOUS
 10
-400.433241
 20
128.089347
 11
-400.406863
 21
128.044000
  0
LINE
  8
0
 62
7
  6
CONTINUOUS
 10
-400.406863
 20
128.044000
 11
-400.387689
 21
127.995180
  0
LINE
  8
0
 62
7
  6
CONTINUOUS
 10
-400.387689
 20
127.995180
 11
-400.374085
 21
127.945310
  0
LINE
  8
0
 62
7
  6
CONTINUOUS
 10
-400.374085
 20
127.945310
 11
-400.364562
 21
127.892948
  0
LINE
  8
0
 62
7
  6
CONTINUOUS
 10
-400.364562
 20
127.892948
 11
-400.358995
 21
127.839718
  0
LINE
  8
0
 62
7
  6
CONTINUOUS
 10
-400.358995
 20
127.839718
 11
-400.357147
 21
127.785713
  0
LINE
  8
0
 62
7
  6
CONTINUOUS
 10
-400.357147
 20
127.785713
 11
-400.358886
 21
127.733311
  0
LINE
  8
0
 62
7
  6
CONTINUOUS
 10
-400.358886
 20
127.733311
 11
-400.364213
 21
127.680974
  0
LINE
  8
0
 62
7
  6
CONTINUOUS
 10
-400.364213
 20
127.680974
 11
-400.373469
 21
127.628890
  0
LINE
  8
0
 62
7
  6
CONTINUOUS
 10
-400.373469
 20
127.628890
 11
-400.387304
 21
127.577435
  0
LINE
  8
0
 62
7
  6
CONTINUOUS
 10
-400.387304
 20
127.577435
 11
-400.406441
 21
127.528324
  0
LINE
  8
0
 62
7
  6
CONTINUOUS
 10
-400.406441
 20
127.528324
 11
-400.432812
 21
127.482672
  0
LINE
  8
0
 62
7
  6
CONTINUOUS
 10
-400.432812
 20
127.482672
 11
-400.470229
 21
127.444615
  0
LINE
  8
0
 62
7
  6
CONTINUOUS
 10
-400.470229
 20
127.444615
 11
-400.517853
 21
127.428574
  0
TEXT
  8
0
 62
7
  6
CONTINUOUS
 10
-55.875473
 20
96.057915
 40
3.200000
 50
75.000061
  1
PF1/2
  0
TEXT
  8
0
 62
7
  6
CONTINUOUS
 10
-130.741623
 20
62.085701
 40
3.200000
 50
0.000000
  1
100
  0
TEXT
  8
0
 62
7
  6
CONTINUOUS
 10
-287.286
 20
12.76
 40
3.2
 50
0
  1
 松 本
  0
TEXT
  8
0
 62
7
  6
CONTINUOUS
 10
-269.286
 20
12.76
 40
3.2
 50
0
  1
 1/2
  0
TEXT
  8
0
 62
7
  6
CONTINUOUS
 10
-252.929
 20
13.6
 40
2
 50
0
  1
93･03･16
  0
TEXT
  8
0
 62
7
  6
CONTINUOUS
 10
-121.786
 20
12.76
 40
3.2
 50
0
  1
46 297
  0
TEXT
  8
0
 62
7
  6
CONTINUOUS
 10
-234.929
 20
21.1
 40
2
 50
0
  1
MATERIAL
  0
TEXT
  8
0
 62
7
  6
CONTINUOUS
 10
-288.929
 20
21.1
 40
2
 50
0
  1
DRAWN
  0
TEXT
  8
0
 62
7
  6
CONTINUOUS
 10
-306.929
 20
21.1
 40
2
 50
0
  1
APPROVED
  0
TEXT
  8
0
 62
7
  6
CONTINUOUS
 10
-215.286
 20
12.76
 40
3.2
 50
0
  1
 000 
  0
TEXT
  8
0
 62
7
  6
CONTINUOUS
 10
-270.929
 20
21.1
 40
2
 50
0
  1
SCALA
  0
TEXT
  8
0
 62
7
  6
CONTINUOUS
 10
-252.929
 20
21.1
 40
2
 50
0
  1
DETO
  0
TEXT
  8
0
 62
7
  6
CONTINUOUS
 10
-123.929
 20
21.1
 40
2
 50
0
  1
NUMBER
  0
TEXT
  8
0
 62
7
  6
CONTINUOUS
 10
-193.929
 20
21.1
 40
2
 50
0
  1
NAME
  0
TEXT
  8
0
 62
7
  6
CONTINUOUS
 10
-390.929
 20
21.1
 40
2
 50
0
  1
COMPAMY
  0
TEXT
  8
0
 62
7
  6
CONTINUOUS
 10
-107.286
 20
286.76
 40
3.2
 50
0
  1
 3RD ANGLE PROJECTION < MM >
  0
TEXT
  8
0
 62
7
  6
CONTINUOUS
 10
-404.85
 20
167.071
 40
2
 50
90.0001
  1
 Die Zeichnung ist unser Eigentum.
  0
TEXT
  8
0
 62
7
  6
CONTINUOUS
 10
-401.85
 20
167.071
 40
2
 50
90.0001
  1
 Jede Vervielfaltigung,Verwertung oder Mitteilung an dritte.
  0
TEXT
  8
0
 62
7
  6
CONTINUOUS
 10
-398.85
 20
167.071
 40
2
 50
90.0001
  1
 Personen ist stratbar und wird gerichtlich verfolgt.
  0
TEXT
  8
0
 62
7
  6
CONTINUOUS
 10
-216.929
 20
21.1
 40
2
 50
0
  1
REVISIONS
  0
TEXT
  8
0
 62
7
  6
CONTINUOUS
 10
-184.286
 20
19.76
 40
3.2
 50
0
  1
ｽﾍﾟｱﾊﾟｰﾂ
  0
TEXT
  8
0
 62
7
  6
CONTINUOUS
 10
-184.286
 20
15.76
 40
3.2
 50
0
  1
 ﾊﾝﾄﾞ ｽﾌﾟﾚｰ
  0
TEXT
  8
0
 62
7
  6
CONTINUOUS
 10
-305.286
 20
12.76
 40
3.2
 50
0
  1
 青 木
  0
TEXT
  8
0
 62
7
  6
CONTINUOUS
 10
-68.9286
 20
21.1
 40
2
 50
0
  1
CODE
  0
TEXT
  8
0
 62
7
  6
CONTINUOUS
 10
-233.286
 20
12.76
 40
3.2
 50
0
  1
 別 紙 
  0
TEXT
  8
0
 62
7
  6
CONTINUOUS
 10
-184.286
 20
11.76
 40
3.2
 50
0
  1
 ﾚﾃﾞｨﾗｯｸｽﾌﾟﾗｽ用
  0
ENDSEC
  0
EOF
