  0
SECTION
  2
HEADER
  9
$ACADVER
  1
AC1014
  9
$ACADMAINTVER
 70
       0
  9
$DWGCODEPAGE
  3
ANSI_932
  9
$INSBASE
 10
0.0
 20
0.0
 30
0.0
  9
$EXTMIN
 10
-2640.53663617
 20
-3684.16666667
 30
0.0
  9
$EXTMAX
 10
2640.01831809
 20
3683.83333333
 30
0.0
  9
$LIMMIN
 10
-840.0
 20
-1188.0
  9
$LIMMAX
 10
840.0
 20
1188.0
  9
$ORTHOMODE
 70
       0
  9
$REGENMODE
 70
       1
  9
$FILLMODE
 70
       1
  9
$QTEXTMODE
 70
       0
  9
$MIRRTEXT
 70
       1
  9
$DRAGMODE
 70
       2
  9
$LTSCALE
 40
8.0
  9
$OSMODE
 70
       0
  9
$ATTMODE
 70
       1
  9
$TEXTSIZE
 40
0.2
  9
$TRACEWID
 40
0.05
  9
$TEXTSTYLE
  7
STANDARD
  9
$CLAYER
  8
0
  9
$CELTYPE
  6
CONTINUOUS
  9
$CECOLOR
 62
     256
  9
$CELTSCALE
 40
1.0
  9
$DELOBJ
 70
       1
  9
$DISPSILH
 70
       0
  9
$DIMSCALE
 40
1.0
  9
$DIMASZ
 40
16.0
  9
$DIMEXO
 40
0.0625
  9
$DIMDLI
 40
0.38
  9
$DIMRND
 40
0.0
  9
$DIMDLE
 40
0.0
  9
$DIMEXE
 40
0.18
  9
$DIMTP
 40
0.0
  9
$DIMTM
 40
0.0
  9
$DIMTXT
 40
16.0
  9
$DIMCEN
 40
0.09
  9
$DIMTSZ
 40
0.0
  9
$DIMTOL
 70
       0
  9
$DIMLIM
 70
       0
  9
$DIMTIH
 70
       1
  9
$DIMTOH
 70
       1
  9
$DIMSE1
 70
       0
  9
$DIMSE2
 70
       0
  9
$DIMTAD
 70
       0
  9
$DIMZIN
 70
       0
  9
$DIMBLK
  1

  9
$DIMASO
 70
       1
  9
$DIMSHO
 70
       1
  9
$DIMPOST
  1

  9
$DIMAPOST
  1

  9
$DIMALT
 70
       0
  9
$DIMALTD
 70
       2
  9
$DIMALTF
 40
25.4
  9
$DIMLFAC
 40
1.0
  9
$DIMTOFL
 70
       0
  9
$DIMTVP
 40
0.0
  9
$DIMTIX
 70
       0
  9
$DIMSOXD
 70
       0
  9
$DIMSAH
 70
       0
  9
$DIMBLK1
  1

  9
$DIMBLK2
  1

  9
$DIMSTYLE
  2
STANDARD
  9
$DIMCLRD
 70
       0
  9
$DIMCLRE
 70
       0
  9
$DIMCLRT
 70
       0
  9
$DIMTFAC
 40
1.0
  9
$DIMGAP
 40
0.09
  9
$DIMJUST
 70
       0
  9
$DIMSD1
 70
       0
  9
$DIMSD2
 70
       0
  9
$DIMTOLJ
 70
       1
  9
$DIMTZIN
 70
       0
  9
$DIMALTZ
 70
       0
  9
$DIMALTTZ
 70
       0
  9
$DIMFIT
 70
       3
  9
$DIMUPT
 70
       0
  9
$DIMUNIT
 70
       2
  9
$DIMDEC
 70
       4
  9
$DIMTDEC
 70
       4
  9
$DIMALTU
 70
       2
  9
$DIMALTTD
 70
       2
  9
$DIMTXSTY
  7
STANDARD
  9
$DIMAUNIT
 70
       0
  9
$LUNITS
 70
       2
  9
$LUPREC
 70
       4
  9
$SKETCHINC
 40
0.1
  9
$FILLETRAD
 40
0.0
  9
$AUNITS
 70
       0
  9
$AUPREC
 70
       0
  9
$MENU
  1
acad
  9
$ELEVATION
 40
0.0
  9
$PELEVATION
 40
0.0
  9
$THICKNESS
 40
0.0
  9
$LIMCHECK
 70
       0
  9
$BLIPMODE
 70
       1
  9
$CHAMFERA
 40
0.0
  9
$CHAMFERB
 40
0.0
  9
$CHAMFERC
 40
0.0
  9
$CHAMFERD
 40
0.0
  9
$SKPOLY
 70
       0
  9
$TDCREATE
 40
0.000000000
  9
$TDUPDATE
 40
0.000000000
  9
$TDINDWG
 40
0.0000000000
  9
$TDUSRTIMER
 40
0.0000000000
  9
$USRTIMER
 70
       1
  9
$ANGBASE
 50
0.0
  9
$ANGDIR
 70
       0
  9
$PDMODE
 70
       0
  9
$PDSIZE
 40
1.0
  9
$PLINEWID
 40
0.0
  9
$COORDS
 70
       1
  9
$SPLFRAME
 70
       0
  9
$SPLINETYPE
 70
       6
  9
$SPLINESEGS
 70
       8
  9
$ATTDIA
 70
       0
  9
$ATTREQ
 70
       1
  9
$HANDLING
 70
       1
  9
$HANDSEED
  5
774
  9
$SURFTAB1
 70
       6
  9
$SURFTAB2
 70
       6
  9
$SURFTYPE
 70
       6
  9
$SURFU
 70
       6
  9
$SURFV
 70
       6
  9
$UCSNAME
  2

  9
$UCSORG
 10
0.0
 20
0.0
 30
0.0
  9
$UCSXDIR
 10
1.0
 20
0.0
 30
0.0
  9
$UCSYDIR
 10
0.0
 20
1.0
 30
0.0
  9
$PUCSNAME
  2

  9
$PUCSORG
 10
0.0
 20
0.0
 30
0.0
  9
$PUCSXDIR
 10
1.0
 20
0.0
 30
0.0
  9
$PUCSYDIR
 10
0.0
 20
1.0
 30
0.0
  9
$USERI1
 70
       0
  9
$USERI2
 70
       0
  9
$USERI3
 70
       0
  9
$USERI4
 70
       0
  9
$USERI5
 70
       0
  9
$USERR1
 40
0.0
  9
$USERR2
 40
0.0
  9
$USERR3
 40
0.0
  9
$USERR4
 40
0.0
  9
$USERR5
 40
0.0
  9
$WORLDVIEW
 70
       1
  9
$SHADEDGE
 70
       3
  9
$SHADEDIF
 70
      70
  9
$TILEMODE
 70
       1
  9
$MAXACTVP
 70
      16
  9
$PINSBASE
 10
0.0
 20
0.0
 30
0.0
  9
$PLIMCHECK
 70
       0
  9
$PEXTMIN
 10
1.00000000E+20
 20
1.00000000E+20
 30
1.00000000E+20
  9
$PEXTMAX
 10
-1.00000000E+20
 20
-1.00000000E+20
 30
-1.00000000E+20
  9
$PLIMMIN
 10
0.0
 20
0.0
  9
$PLIMMAX
 10
12.0
 20
9.0
  9
$UNITMODE
 70
       0
  9
$VISRETAIN
 70
       0
  9
$PLINEGEN
 70
       1
  9
$PSLTSCALE
 70
       0
  9
$TREEDEPTH
 70
    3020
  9
$PICKSTYLE
 70
       1
  9
$CMLSTYLE
  2
STANDARD
  9
$CMLJUST
 70
       0
  9
$CMLSCALE
 40
1.0
  9
$PROXYGRAPHICS
 70
       0
  9
$MEASUREMENT
 70
       0
  0
ENDSEC
  0
SECTION
  2
CLASSES
  0
CLASS
  1
LWPOLYLINE
  2
AcDbPolyline
  3
"AutoCAD"
 90
        0
280
       0
281
       1
  0
CLASS
  1
IMAGE
  2
AcDbRasterImage
  3
ISM
 90
      127
280
       0
281
       1
  0
CLASS
  1
OLE2FRAME
  2
AcDbOle2Frame
  3
""
 90
        0
280
       0
281
       1
  0
CLASS
  1
HATCH
  2
AcDbHatch
  3
"ACAD_SEDONA"
 90
        0
280
       0
281
       1
  0
CLASS
  1
DICTIONARYVAR
  2
AcDbDictionaryVar
  3
"AutoCAD"
 90
        0
280
       0
281
       0
  0
CLASS
  1
RASTERVARIABLES
  2
AcDbRasterVariables
  3
ISM
 90
        0
280
       0
281
       0
  0
CLASS
  1
IMAGEDEF
  2
AcDbRasterImageDef
  3
ISM
 90
        0
280
       0
281
       0
  0
CLASS
  1
IMAGEDEF_REACTOR
  2
AcDbRasterImageDefReactor
  3
ISM
 90
        1
280
       0
281
       0
  0
CLASS
  1
IDBUFFER
  2
AcDbIdBuffer
  3
"Acad"
 90
        0
280
       0
281
       0
  0
CLASS
  1
SPATIAL_FILTER
  2
AcDbSpatialFilter
  3
"Acad"
 90
        0
280
       0
281
       0
  0
CLASS
  1
XRECORD
  2
AcDbXrecord
  3
"<Built In>"
 90
        0
280
       0
281
       0
  0
CLASS
  1
SORTENTSTABLE
  2
AcDbSortentsTable
  3
"AutoCAD"
 90
        0
280
       0
281
       0
  0
CLASS
  1
LAYER_INDEX
  2
AcDbLayerIndex
  3
"Acad"
 90
        0
280
       0
281
       0
  0
CLASS
  1
SPATIAL_INDEX
  2
AcDbSpatialIndex
  3
"Acad"
 90
        0
280
       0
281
       0
  0
CLASS
  1
OBJECT_PTR
  2
CAseDLPNTableRecord
  3
"ASE-LPNTableRecord"
 90
        1
280
       0
281
       0
  0
CLASS
  1
LAYOUT
  2
AcDbLayout
  3
"AutoCAD 2000"
 90
        0
280
       0
281
       0
  0
CLASS
  1
PLOTSETTINGS
  2
AcDbPlotSettings
  3
"AutoCAD 2000"
 90
        0
280
       0
281
       0
  0
CLASS
  1
ACDBDICTIONARYWDFLT
  2
AcDbDictionaryWithDefault
  3
"AutoCAD 2000"
 90
        0
280
       0
281
       0
  0
CLASS
  1
ACDBPLACEHOLDER
  2
AcDbPlaceHolder
  3
"AutoCAD 2000"
 90
        0
280
       0
281
       0
  0
CLASS
  1
VBA_PROJECT
  2
AcDbVbaProject
  3
"acadvba"
 90
        0
280
       0
281
       0
  0
CLASS
  1
WIPEOUT
  2
AcDbWipeout
  3
WipeOut|AutoCAD Express Tool|expresstools@autodesk.com
 90
      127
280
       0
281
       1
  0
CLASS
  1
WIPEOUTVARIABLES
  2
AcDbWipeoutVariables
  3
WipeOut|AutoCAD Express Tool|expresstools@autodesk.com
 90
        0
280
       0
281
       0
  0
CLASS
  1
RTEXT
  2
RText
  3
RText|AutoCAD Express Tool|expresstools@autodesk.com
 90
        0
280
       0
281
       1
  0
CLASS
  1
ARCALIGNEDTEXT
  2
AcDbArcAlignedText
  3
ATEXT|AutoCAD Express Tool|expresstools@autodesk.com
 90
        0
280
       0
281
       1
  0
ENDSEC
  0
SECTION
  2
TABLES
  0
TABLE
  2
VPORT
  5
7
100
AcDbSymbolTable
 70
       1
  0
VPORT
  5
15
100
AcDbSymbolTableRecord
100
AcDbViewportTableRecord
  2
*ACTIVE
 70
       0
 10
0.0
 20
0.0
 11
1.0
 21
1.0
 12
0.0
 22
0.0
 13
0.0
 23
0.0
 14
1.0
 24
1.0
 15
0.0
 25
0.0
 16
0.0
 26
0.0
 36
1.0
 17
0.0
 27
0.0
 37
0.0
 40
2376.0
 41
0.70707071
 42
50.0
 43
0.0
 44
0.0
 50
0.0
 51
0.0
 71
       0
 72
     100
 73
       1
 74
       1
 75
       0
 76
       0
 77
       0
 78
       0
  0
ENDTAB
  0
TABLE
  2
LTYPE
  5
4
100
AcDbSymbolTable
 70
      30
  0
LTYPE
  5
11
100
AcDbSymbolTableRecord
100
AcDbLinetypeTableRecord
  2
BYBLOCK
 70
      64
  3

 72
      65
 73
       0
 40
0.0
  0
LTYPE
  5
12
100
AcDbSymbolTableRecord
100
AcDbLinetypeTableRecord
  2
BYLAYER
 70
      64
  3

 72
      65
 73
       0
 40
0.0
  0
LTYPE
  5
13
100
AcDbSymbolTableRecord
100
AcDbLinetypeTableRecord
  2
CONTINUOUS
 70
      64
  3
Solid line
 72
      65
 73
       0
 40
0.0
  0
LTYPE
  5
1D
100
AcDbSymbolTableRecord
100
AcDbLinetypeTableRecord
  2
HIDDENX2
 70
      64
  3
CADPAC LINETYPE
 72
      65
 73
       2
 40
14.00943396
 49
10.50707547
 74
       0
 49
-3.50235849
 74
       0
  0
LTYPE
  5
1E
100
AcDbSymbolTableRecord
100
AcDbLinetypeTableRecord
  2
HIDDEN
 70
      64
  3
CADPAC LINETYPE
 72
      65
 73
       2
 40
10.50707547
 49
7.00471698
 74
       0
 49
-3.50235849
 74
       0
  0
LTYPE
  5
1F
100
AcDbSymbolTableRecord
100
AcDbLinetypeTableRecord
  2
HIDDEN2
 70
      64
  3
CADPAC LINETYPE
 72
      65
 73
       2
 40
8.75589623
 49
5.25353774
 74
       0
 49
-3.50235849
 74
       0
  0
LTYPE
  5
20
100
AcDbSymbolTableRecord
100
AcDbLinetypeTableRecord
  2
DASHED
 70
      64
  3
CADPAC LINETYPE
 72
      65
 73
       2
 40
9.80660377
 49
7.00471698
 74
       0
 49
-2.80188679
 74
       0
  0
LTYPE
  5
21
100
AcDbSymbolTableRecord
100
AcDbLinetypeTableRecord
  2
DASHED2
 70
      64
  3
CADPAC LINETYPE
 72
      65
 73
       2
 40
6.30424528
 49
4.20283019
 74
       0
 49
-2.10141509
 74
       0
  0
LTYPE
  5
22
100
AcDbSymbolTableRecord
100
AcDbLinetypeTableRecord
  2
DASHEDX2
 70
      64
  3
CADPAC LINETYPE
 72
      65
 73
       2
 40
16.81132075
 49
14.00943396
 74
       0
 49
-2.80188679
 74
       0
  0
LTYPE
  5
23
100
AcDbSymbolTableRecord
100
AcDbLinetypeTableRecord
  2
DOTX2
 70
      64
  3
CADPAC LINETYPE
 72
      65
 73
       2
 40
6.12912736
 49
0.0
 74
       0
 49
-6.12912736
 74
       0
  0
LTYPE
  5
24
100
AcDbSymbolTableRecord
100
AcDbLinetypeTableRecord
  2
DOT
 70
      64
  3
CADPAC LINETYPE
 72
      65
 73
       2
 40
4.90330189
 49
0.0
 74
       0
 49
-4.90330189
 74
       0
  0
LTYPE
  5
25
100
AcDbSymbolTableRecord
100
AcDbLinetypeTableRecord
  2
DOT2
 70
      64
  3
CADPAC LINETYPE
 72
      65
 73
       2
 40
3.67747642
 49
0.0
 74
       0
 49
-3.67747642
 74
       0
  0
LTYPE
  5
26
100
AcDbSymbolTableRecord
100
AcDbLinetypeTableRecord
  2
CENTERX2
 70
      64
  3
CADPAC LINETYPE
 72
      65
 73
       4
 40
21.01415094
 49
8.75589623
 74
       0
 49
-4.37794811
 74
       0
 49
3.50235849
 74
       0
 49
-4.37794811
 74
       0
  0
LTYPE
  5
27
100
AcDbSymbolTableRecord
100
AcDbLinetypeTableRecord
  2
CENTER
 70
      64
  3
CADPAC LINETYPE
 72
      65
 73
       4
 40
16.11084906
 49
7.00471698
 74
       0
 49
-3.50235849
 74
       0
 49
2.10141509
 74
       0
 49
-3.50235849
 74
       0
  0
LTYPE
  5
28
100
AcDbSymbolTableRecord
100
AcDbLinetypeTableRecord
  2
CENTER2
 70
      64
  3
CADPAC LINETYPE
 72
      65
 73
       4
 40
11.20754717
 49
5.25353774
 74
       0
 49
-2.62676887
 74
       0
 49
0.7004717
 74
       0
 49
-2.62676887
 74
       0
  0
LTYPE
  5
29
100
AcDbSymbolTableRecord
100
AcDbLinetypeTableRecord
  2
DASHDOTX2
 70
      64
  3
CADPAC LINETYPE
 72
      65
 73
       4
 40
33.62264151
 49
16.81132075
 74
       0
 49
-5.60377358
 74
       0
 49
5.60377358
 74
       0
 49
-5.60377358
 74
       0
  0
LTYPE
  5
2A
100
AcDbSymbolTableRecord
100
AcDbLinetypeTableRecord
  2
DASHDOT
 70
      64
  3
CADPAC LINETYPE
 72
      65
 73
       4
 40
16.81132075
 49
8.40566038
 74
       0
 49
-2.80188679
 74
       0
 49
2.80188679
 74
       0
 49
-2.80188679
 74
       0
  0
LTYPE
  5
2B
100
AcDbSymbolTableRecord
100
AcDbLinetypeTableRecord
  2
DASHDOT2
 70
      64
  3
CADPAC LINETYPE
 72
      65
 73
       4
 40
10.78726415
 49
6.30424528
 74
       0
 49
-2.10141509
 74
       0
 49
0.28018868
 74
       0
 49
-2.10141509
 74
       0
  0
LTYPE
  5
2C
100
AcDbSymbolTableRecord
100
AcDbLinetypeTableRecord
  2
DIVIDEX2
 70
      64
  3
CADPAC LINETYPE
 72
      65
 73
       6
 40
44.83018868
 49
16.81132075
 74
       0
 49
-5.60377358
 74
       0
 49
5.60377358
 74
       0
 49
-5.60377358
 74
       0
 49
5.60377358
 74
       0
 49
-5.60377358
 74
       0
  0
LTYPE
  5
2D
100
AcDbSymbolTableRecord
100
AcDbLinetypeTableRecord
  2
DIVIDE
 70
      64
  3
CADPAC LINETYPE
 72
      65
 73
       6
 40
22.41509434
 49
8.40566038
 74
       0
 49
-2.80188679
 74
       0
 49
2.80188679
 74
       0
 49
-2.80188679
 74
       0
 49
2.80188679
 74
       0
 49
-2.80188679
 74
       0
  0
LTYPE
  5
2E
100
AcDbSymbolTableRecord
100
AcDbLinetypeTableRecord
  2
DIVIDE2
 70
      64
  3
CADPAC LINETYPE
 72
      65
 73
       6
 40
16.81132075
 49
6.30424528
 74
       0
 49
-2.10141509
 74
       0
 49
2.10141509
 74
       0
 49
-2.10141509
 74
       0
 49
2.10141509
 74
       0
 49
-2.10141509
 74
       0
  0
LTYPE
  5
2F
100
AcDbSymbolTableRecord
100
AcDbLinetypeTableRecord
  2
BORDERX2
 70
      64
  3
CADPAC LINETYPE
 72
      65
 73
       6
 40
30.64563679
 49
8.75589623
 74
       0
 49
-4.37794811
 74
       0
 49
8.75589623
 74
       0
 49
-4.37794811
 74
       0
 49
0.0
 74
       0
 49
-4.37794811
 74
       0
  0
LTYPE
  5
30
100
AcDbSymbolTableRecord
100
AcDbLinetypeTableRecord
  2
BORDER
 70
      64
  3
CADPAC LINETYPE
 72
      65
 73
       6
 40
24.51650943
 49
7.00471698
 74
       0
 49
-3.50235849
 74
       0
 49
7.00471698
 74
       0
 49
-3.50235849
 74
       0
 49
0.0
 74
       0
 49
-3.50235849
 74
       0
  0
LTYPE
  5
31
100
AcDbSymbolTableRecord
100
AcDbLinetypeTableRecord
  2
BORDER2
 70
      64
  3
CADPAC LINETYPE
 72
      65
 73
       6
 40
18.21226415
 49
5.60377358
 74
       0
 49
-3.50235849
 74
       0
 49
2.10141509
 74
       0
 49
-3.50235849
 74
       0
 49
0.0
 74
       0
 49
-3.50235849
 74
       0
  0
LTYPE
  5
32
100
AcDbSymbolTableRecord
100
AcDbLinetypeTableRecord
  2
PHANTOMX2
 70
      64
  3
CADPAC LINETYPE
 72
      65
 73
       6
 40
26.26768868
 49
8.75589623
 74
       0
 49
-3.50235849
 74
       0
 49
3.50235849
 74
       0
 49
-3.50235849
 74
       0
 49
3.50235849
 74
       0
 49
-3.50235849
 74
       0
  0
LTYPE
  5
33
100
AcDbSymbolTableRecord
100
AcDbLinetypeTableRecord
  2
PHANTOM
 70
      64
  3
CADPAC LINETYPE
 72
      65
 73
       6
 40
21.71462264
 49
7.00471698
 74
       0
 49
-3.50235849
 74
       0
 49
2.10141509
 74
       0
 49
-3.50235849
 74
       0
 49
2.10141509
 74
       0
 49
-3.50235849
 74
       0
  0
LTYPE
  5
34
100
AcDbSymbolTableRecord
100
AcDbLinetypeTableRecord
  2
PHANTOM2
 70
      64
  3
CADPAC LINETYPE
 72
      65
 73
       6
 40
18.5625
 49
5.25353774
 74
       0
 49
-3.50235849
 74
       0
 49
1.4009434
 74
       0
 49
-3.50235849
 74
       0
 49
1.4009434
 74
       0
 49
-3.50235849
 74
       0
  0
LTYPE
  5
35
100
AcDbSymbolTableRecord
100
AcDbLinetypeTableRecord
  2
ACAD_ISO06W100
 70
      64
  3
CADPAC LINETYPE
 72
      65
 73
       8
 40
37.125
 49
16.81132075
 74
       0
 49
-3.50235849
 74
       0
 49
2.10141509
 74
       0
 49
-3.50235849
 74
       0
 49
2.10141509
 74
       0
 49
-3.50235849
 74
       0
 49
2.10141509
 74
       0
 49
-3.50235849
 74
       0
  0
LTYPE
  5
36
100
AcDbSymbolTableRecord
100
AcDbLinetypeTableRecord
  2
ACAD_ISO13W100
 70
      64
  3
CADPAC LINETYPE
 72
      65
 73
       8
 40
28.01886792
 49
7.00471698
 74
       0
 49
-3.50235849
 74
       0
 49
7.00471698
 74
       0
 49
-3.50235849
 74
       0
 49
0.0
 74
       0
 49
-3.50235849
 74
       0
 49
0.0
 74
       0
 49
-3.50235849
 74
       0
  0
LTYPE
  5
37
100
AcDbSymbolTableRecord
100
AcDbLinetypeTableRecord
  2
ACAD_ISO14W100
 70
      64
  3
CADPAC LINETYPE
 72
      65
 73
       8
 40
21.01415094
 49
7.00471698
 74
       0
 49
-3.50235849
 74
       0
 49
0.0
 74
       0
 49
-3.50235849
 74
       0
 49
0.0
 74
       0
 49
-3.50235849
 74
       0
 49
0.0
 74
       0
 49
-3.50235849
 74
       0
  0
ENDTAB
  0
TABLE
  2
LAYER
  5
2
100
AcDbSymbolTable
 70
       5
  0
LAYER
  5
14
100
AcDbSymbolTableRecord
100
AcDbLayerTableRecord
  2
0
 70
       0
 62
       7
  6
CONTINUOUS
  0
LAYER
  5
38
100
AcDbSymbolTableRecord
100
AcDbLayerTableRecord
  2
LAYER0001
 70
       0
 62
       7
  6
CONTINUOUS
  0
LAYER
  5
39
100
AcDbSymbolTableRecord
100
AcDbLayerTableRecord
  2
LAYER0064
 70
       0
 62
       7
  6
CONTINUOUS
  0
LAYER
  5
3A
100
AcDbSymbolTableRecord
100
AcDbLayerTableRecord
  2
LAYER0240
 70
       0
 62
       7
  6
CONTINUOUS
  0
LAYER
  5
3B
100
AcDbSymbolTableRecord
100
AcDbLayerTableRecord
  2
ZUWAKU
 70
       0
 62
       7
  6
CONTINUOUS
  0
ENDTAB
  0
TABLE
  2
STYLE
  5
3
100
AcDbSymbolTable
 70
       2
  0
STYLE
  5
17
100
AcDbSymbolTableRecord
100
AcDbTextStyleTableRecord
  2
STANDARD
 70
       0
 40
27.2
 41
0.8
 50
0.0
 71
       0
 42
27.2
  3
txt.shx
  4
bigfont.shx
  0
STYLE
  5
3C
100
AcDbSymbolTableRecord
100
AcDbTextStyleTableRecord
  2
FDASTYLE1
 70
       4
 40
24.0
 41
0.8
 50
0.0
 71
       0
 42
24.0
  3
txt.shx
  4
bigfont.shx
  0
ENDTAB
  0
TABLE
  2
VIEW
  5
5
100
AcDbSymbolTable
 70
       1
  0
VIEW
  5
3D
100
AcDbSymbolTableRecord
100
AcDbViewTableRecord
  2
QQQQ
 70
       0
 40
2376.0
 10
0.0
 20
0.0
 41
1680.0
 11
0.0
 21
0.0
 31
1.0
 12
100.0
 22
100.0
 32
0.0
 42
50.0
 43
0.0
 44
0.0
 50
0.0
 71
       0
  0
ENDTAB
  0
TABLE
  2
UCS
  5
6
100
AcDbSymbolTable
 70
       0
  0
ENDTAB
  0
TABLE
  2
APPID
  5
8
100
AcDbSymbolTable
 70
       1
  0
APPID
  5
16
100
AcDbSymbolTableRecord
100
AcDbRegAppTableRecord
  2
ACAD
 70
       0
  0
ENDTAB
  0
TABLE
  2
DIMSTYLE
  5
9
100
AcDbSymbolTable
 70
       1
  0
DIMSTYLE
105
18
100
AcDbSymbolTableRecord
100
AcDbDimStyleTableRecord
  2
STANDARD
 70
       0
  3

  4

  5

  6

  7

 40
1.0
 41
0.18
 42
0.0625
 43
0.38
 44
0.18
 45
0.0
 46
0.0
 47
0.0
 48
0.0
 71
       0
 72
       0
 73
       1
 74
       1
 75
       0
 76
       0
 77
       0
 78
       0
140
0.18
141
0.09
142
0.0
143
25.4
144
1.0
145
0.0
146
1.0
147
0.09
170
       0
171
       2
172
       0
173
       0
174
       0
175
       0
176
       0
177
       0
178
       0
270
       2
271
       4
272
       4
273
       2
274
       2
275
       0
280
       0
281
       0
282
       0
283
       1
284
       0
285
       0
286
       0
287
       3
288
       0
340
17
  0
ENDTAB
  0
TABLE
  2
BLOCK_RECORD
  5
1
100
AcDbSymbolTable
 70
      53
  0
BLOCK_RECORD
  5
A
100
AcDbSymbolTableRecord
100
AcDbBlockTableRecord
  2
*MODEL_SPACE
  0
BLOCK_RECORD
  5
B
100
AcDbSymbolTableRecord
100
AcDbBlockTableRecord
  2
*PAPER_SPACE
  0
BLOCK_RECORD
  5
3E
100
AcDbSymbolTableRecord
100
AcDbBlockTableRecord
  2
GROUP_1
  0
BLOCK_RECORD
  5
3F
100
AcDbSymbolTableRecord
100
AcDbBlockTableRecord
  2
GROUP_2
  0
BLOCK_RECORD
  5
40
100
AcDbSymbolTableRecord
100
AcDbBlockTableRecord
  2
GROUP_3
  0
BLOCK_RECORD
  5
41
100
AcDbSymbolTableRecord
100
AcDbBlockTableRecord
  2
GROUP_4
  0
BLOCK_RECORD
  5
42
100
AcDbSymbolTableRecord
100
AcDbBlockTableRecord
  2
GROUP_5
  0
BLOCK_RECORD
  5
43
100
AcDbSymbolTableRecord
100
AcDbBlockTableRecord
  2
DA_IMAGEDIMGROUP_1
  0
BLOCK_RECORD
  5
44
100
AcDbSymbolTableRecord
100
AcDbBlockTableRecord
  2
_OPEN30
  0
BLOCK_RECORD
  5
45
100
AcDbSymbolTableRecord
100
AcDbBlockTableRecord
  2
DA_IMAGEDIMGROUP_2
  0
BLOCK_RECORD
  5
46
100
AcDbSymbolTableRecord
100
AcDbBlockTableRecord
  2
DA_IMAGEDIMGROUP_3
  0
BLOCK_RECORD
  5
47
100
AcDbSymbolTableRecord
100
AcDbBlockTableRecord
  2
DA_IMAGEDIMGROUP_4
  0
BLOCK_RECORD
  5
48
100
AcDbSymbolTableRecord
100
AcDbBlockTableRecord
  2
DA_IMAGEDIMGROUP_5
  0
BLOCK_RECORD
  5
49
100
AcDbSymbolTableRecord
100
AcDbBlockTableRecord
  2
DA_IMAGEDIMGROUP_6
  0
BLOCK_RECORD
  5
4A
100
AcDbSymbolTableRecord
100
AcDbBlockTableRecord
  2
DA_IMAGEDIMGROUP_7
  0
BLOCK_RECORD
  5
4B
100
AcDbSymbolTableRecord
100
AcDbBlockTableRecord
  2
DA_IMAGEDIMGROUP_8
  0
BLOCK_RECORD
  5
4C
100
AcDbSymbolTableRecord
100
AcDbBlockTableRecord
  2
DA_IMAGEDIMGROUP_9
  0
BLOCK_RECORD
  5
4D
100
AcDbSymbolTableRecord
100
AcDbBlockTableRecord
  2
GROUP_6
  0
BLOCK_RECORD
  5
4E
100
AcDbSymbolTableRecord
100
AcDbBlockTableRecord
  2
GROUP_7
  0
BLOCK_RECORD
  5
4F
100
AcDbSymbolTableRecord
100
AcDbBlockTableRecord
  2
GROUP_8
  0
BLOCK_RECORD
  5
50
100
AcDbSymbolTableRecord
100
AcDbBlockTableRecord
  2
GROUP_9
  0
BLOCK_RECORD
  5
51
100
AcDbSymbolTableRecord
100
AcDbBlockTableRecord
  2
GROUP_10
  0
BLOCK_RECORD
  5
52
100
AcDbSymbolTableRecord
100
AcDbBlockTableRecord
  2
GROUP_11
  0
BLOCK_RECORD
  5
53
100
AcDbSymbolTableRecord
100
AcDbBlockTableRecord
  2
GROUP_12
  0
BLOCK_RECORD
  5
54
100
AcDbSymbolTableRecord
100
AcDbBlockTableRecord
  2
GROUP_13
  0
BLOCK_RECORD
  5
55
100
AcDbSymbolTableRecord
100
AcDbBlockTableRecord
  2
GROUP_14
  0
BLOCK_RECORD
  5
56
100
AcDbSymbolTableRecord
100
AcDbBlockTableRecord
  2
GROUP_15
  0
BLOCK_RECORD
  5
57
100
AcDbSymbolTableRecord
100
AcDbBlockTableRecord
  2
GROUP_16
  0
BLOCK_RECORD
  5
58
100
AcDbSymbolTableRecord
100
AcDbBlockTableRecord
  2
DA_IMAGEDIMGROUP_10
  0
BLOCK_RECORD
  5
59
100
AcDbSymbolTableRecord
100
AcDbBlockTableRecord
  2
DA_IMAGEDIMGROUP_11
  0
BLOCK_RECORD
  5
5A
100
AcDbSymbolTableRecord
100
AcDbBlockTableRecord
  2
DA_IMAGEDIMGROUP_12
  0
BLOCK_RECORD
  5
5B
100
AcDbSymbolTableRecord
100
AcDbBlockTableRecord
  2
DA_IMAGEDIMGROUP_13
  0
BLOCK_RECORD
  5
5C
100
AcDbSymbolTableRecord
100
AcDbBlockTableRecord
  2
DA_IMAGEDIMGROUP_14
  0
BLOCK_RECORD
  5
5D
100
AcDbSymbolTableRecord
100
AcDbBlockTableRecord
  2
DA_IMAGEDIMGROUP_15
  0
BLOCK_RECORD
  5
5E
100
AcDbSymbolTableRecord
100
AcDbBlockTableRecord
  2
DA_IMAGEDIMGROUP_16
  0
BLOCK_RECORD
  5
5F
100
AcDbSymbolTableRecord
100
AcDbBlockTableRecord
  2
DA_IMAGEDIMGROUP_17
  0
BLOCK_RECORD
  5
60
100
AcDbSymbolTableRecord
100
AcDbBlockTableRecord
  2
DA_IMAGEDIMGROUP_18
  0
BLOCK_RECORD
  5
61
100
AcDbSymbolTableRecord
100
AcDbBlockTableRecord
  2
GROUP_17
  0
BLOCK_RECORD
  5
62
100
AcDbSymbolTableRecord
100
AcDbBlockTableRecord
  2
GROUP_18
  0
BLOCK_RECORD
  5
63
100
AcDbSymbolTableRecord
100
AcDbBlockTableRecord
  2
GROUP_19
  0
BLOCK_RECORD
  5
64
100
AcDbSymbolTableRecord
100
AcDbBlockTableRecord
  2
GROUP_20
  0
BLOCK_RECORD
  5
65
100
AcDbSymbolTableRecord
100
AcDbBlockTableRecord
  2
GROUP_21
  0
BLOCK_RECORD
  5
66
100
AcDbSymbolTableRecord
100
AcDbBlockTableRecord
  2
GROUP_22
  0
BLOCK_RECORD
  5
67
100
AcDbSymbolTableRecord
100
AcDbBlockTableRecord
  2
GROUP_23
  0
BLOCK_RECORD
  5
68
100
AcDbSymbolTableRecord
100
AcDbBlockTableRecord
  2
GROUP_24
  0
BLOCK_RECORD
  5
69
100
AcDbSymbolTableRecord
100
AcDbBlockTableRecord
  2
GROUP_25
  0
BLOCK_RECORD
  5
6A
100
AcDbSymbolTableRecord
100
AcDbBlockTableRecord
  2
GROUP_26
  0
BLOCK_RECORD
  5
6B
100
AcDbSymbolTableRecord
100
AcDbBlockTableRecord
  2
GROUP_27
  0
BLOCK_RECORD
  5
6C
100
AcDbSymbolTableRecord
100
AcDbBlockTableRecord
  2
GROUP_28
  0
BLOCK_RECORD
  5
6D
100
AcDbSymbolTableRecord
100
AcDbBlockTableRecord
  2
GROUP_29
  0
BLOCK_RECORD
  5
6E
100
AcDbSymbolTableRecord
100
AcDbBlockTableRecord
  2
GROUP_30
  0
BLOCK_RECORD
  5
6F
100
AcDbSymbolTableRecord
100
AcDbBlockTableRecord
  2
GROUP_31
  0
BLOCK_RECORD
  5
70
100
AcDbSymbolTableRecord
100
AcDbBlockTableRecord
  2
DA_IMAGEDIMGROUP_19
  0
BLOCK_RECORD
  5
71
100
AcDbSymbolTableRecord
100
AcDbBlockTableRecord
  2
DA_IMAGEDIMGROUP_20
  0
BLOCK_RECORD
  5
72
100
AcDbSymbolTableRecord
100
AcDbBlockTableRecord
  2
DA_IMAGEDIMGROUP_21
  0
ENDTAB
  0
ENDSEC
  0
SECTION
  2
BLOCKS
  0
BLOCK
  5
D
100
AcDbEntity
  8
0
100
AcDbBlockBegin
  2
*MODEL_SPACE
 70
       0
 10
0.0
 20
0.0
 30
0.0
  3
*MODEL_SPACE
  1

  0
ENDBLK
  5
E
100
AcDbEntity
  8
0
100
AcDbBlockEnd
  0
BLOCK
  5
F
100
AcDbEntity
 67
       1
  8
0
100
AcDbBlockBegin
  2
*PAPER_SPACE
 70
       0
 10
0.0
 20
0.0
 30
0.0
  3
*PAPER_SPACE
  1

  0
ENDBLK
  5
10
100
AcDbEntity
 67
       1
  8
0
100
AcDbBlockEnd
  0
BLOCK
  5
73
100
AcDbEntity
  8
0
100
AcDbBlockBegin
  2
GROUP_1
 70
       0
 10
0.0
 20
0.0
 30
0.0
  3
GROUP_1
  1

  0
INSERT
  5
74
100
AcDbEntity
  8
0
  6
CONTINUOUS
100
AcDbBlockReference
  2
GROUP_2
 10
0.0
 20
0.0
 30
0.0
  0
INSERT
  5
75
100
AcDbEntity
  8
0
  6
CONTINUOUS
100
AcDbBlockReference
  2
GROUP_3
 10
0.0
 20
0.0
 30
0.0
  0
ENDBLK
  5
76
100
AcDbEntity
  8
0
100
AcDbBlockEnd
  0
BLOCK
  5
77
100
AcDbEntity
  8
0
100
AcDbBlockBegin
  2
GROUP_2
 70
       0
 10
0.0
 20
0.0
 30
0.0
  3
GROUP_2
  1

  0
LINE
  5
78
100
AcDbEntity
  8
LAYER0001
  6
CONTINUOUS
 62
       7
100
AcDbLine
 10
-403.01497047
 20
314.78871139
 30
0.0
 11
-410.84567047
 21
322.72793139
 31
0.0
  0
LINE
  5
79
100
AcDbEntity
  8
LAYER0001
  6
CONTINUOUS
 62
       7
100
AcDbLine
 10
-410.84567047
 20
322.72793139
 30
0.0
 11
-418.57130047
 21
331.50948139
 31
0.0
  0
LINE
  5
7A
100
AcDbEntity
  8
LAYER0001
  6
CONTINUOUS
 62
       7
100
AcDbLine
 10
-418.57130047
 20
331.50948139
 30
0.0
 11
-425.97997047
 21
340.92837139
 31
0.0
  0
LINE
  5
7B
100
AcDbEntity
  8
LAYER0001
  6
CONTINUOUS
 62
       7
100
AcDbLine
 10
-425.97997047
 20
340.92837139
 30
0.0
 11
-433.17678047
 21
351.19475139
 31
0.0
  0
LINE
  5
7C
100
AcDbEntity
  8
LAYER0001
  6
CONTINUOUS
 62
       7
100
AcDbLine
 10
-433.17678047
 20
351.19475139
 30
0.0
 11
-440.05663047
 21
362.09504139
 31
0.0
  0
LINE
  5
7D
100
AcDbEntity
  8
LAYER0001
  6
CONTINUOUS
 62
       7
100
AcDbLine
 10
-440.05663047
 20
362.09504139
 30
0.0
 11
-446.51274047
 21
373.84281139
 31
0.0
  0
LINE
  5
7E
100
AcDbEntity
  8
LAYER0001
  6
CONTINUOUS
 62
       7
100
AcDbLine
 10
-446.51274047
 20
373.84281139
 30
0.0
 11
-452.54511047
 21
386.22793139
 31
0.0
  0
LINE
  5
7F
100
AcDbEntity
  8
LAYER0001
  6
CONTINUOUS
 62
       7
100
AcDbLine
 10
-452.54511047
 20
386.22793139
 30
0.0
 11
-458.04692047
 21
399.24350139
 31
0.0
  0
LINE
  5
80
100
AcDbEntity
  8
LAYER0001
  6
CONTINUOUS
 62
       7
100
AcDbLine
 10
-458.04692047
 20
399.24350139
 30
0.0
 11
-463.02164047
 21
413.00321139
 31
0.0
  0
LINE
  5
81
100
AcDbEntity
  8
LAYER0001
  6
CONTINUOUS
 62
       7
100
AcDbLine
 10
-463.02164047
 20
413.00321139
 30
0.0
 11
-467.46581047
 21
427.18323139
 31
0.0
  0
LINE
  5
82
100
AcDbEntity
  8
LAYER0001
  6
CONTINUOUS
 62
       7
100
AcDbLine
 10
-467.46581047
 20
427.18323139
 30
0.0
 11
-471.17101047
 21
442.00058139
 31
0.0
  0
LINE
  5
83
100
AcDbEntity
  8
LAYER0001
  6
CONTINUOUS
 62
       7
100
AcDbLine
 10
-471.17101047
 20
442.00058139
 30
0.0
 11
-474.24059047
 21
457.34504139
 31
0.0
  0
LINE
  5
84
100
AcDbEntity
  8
LAYER0001
  6
CONTINUOUS
 62
       7
100
AcDbLine
 10
-474.24059047
 20
457.34504139
 30
0.0
 11
-476.56776047
 21
473.00989139
 31
0.0
  0
LINE
  5
85
100
AcDbEntity
  8
LAYER0001
  6
CONTINUOUS
 62
       7
100
AcDbLine
 10
-476.56776047
 20
473.00989139
 30
0.0
 11
-478.26274047
 21
488.99168139
 31
0.0
  0
LINE
  5
86
100
AcDbEntity
  8
LAYER0001
  6
CONTINUOUS
 62
       7
100
AcDbLine
 10
-478.26274047
 20
488.99168139
 30
0.0
 11
-479.10851047
 21
505.18363139
 31
0.0
  0
LINE
  5
87
100
AcDbEntity
  8
LAYER0001
  6
CONTINUOUS
 62
       7
100
AcDbLine
 10
-479.10851047
 20
505.18363139
 30
0.0
 11
-479.10851047
 21
521.48238139
 31
0.0
  0
LINE
  5
88
100
AcDbEntity
  8
LAYER0001
  6
CONTINUOUS
 62
       7
100
AcDbLine
 10
-479.10851047
 20
521.48238139
 30
0.0
 11
-478.47289047
 21
537.88448139
 31
0.0
  0
LINE
  5
89
100
AcDbEntity
  8
LAYER0001
  6
CONTINUOUS
 62
       7
100
AcDbLine
 10
-478.47289047
 20
537.88448139
 30
0.0
 11
-476.99150047
 21
554.29002139
 31
0.0
  0
LINE
  5
8A
100
AcDbEntity
  8
LAYER0001
  6
CONTINUOUS
 62
       7
100
AcDbLine
 10
-476.99150047
 20
554.29002139
 30
0.0
 11
-474.76942047
 21
570.48197139
 31
0.0
  0
LINE
  5
8B
100
AcDbEntity
  8
LAYER0001
  6
CONTINUOUS
 62
       7
100
AcDbLine
 10
-474.76942047
 20
570.48197139
 30
0.0
 11
-471.80663047
 21
586.46377139
 31
0.0
  0
LINE
  5
8C
100
AcDbEntity
  8
LAYER0001
  6
CONTINUOUS
 62
       7
100
AcDbLine
 10
-471.80663047
 20
586.46377139
 30
0.0
 11
-468.10143047
 21
602.12517139
 31
0.0
  0
LINE
  5
8D
100
AcDbEntity
  8
LAYER0001
  6
CONTINUOUS
 62
       7
100
AcDbLine
 10
-468.10143047
 20
602.12517139
 30
0.0
 11
-463.76234047
 21
617.36628139
 31
0.0
  0
LINE
  5
8E
100
AcDbEntity
  8
LAYER0001
  6
CONTINUOUS
 62
       7
100
AcDbLine
 10
-463.76234047
 20
617.36628139
 30
0.0
 11
-458.89442047
 21
632.18363139
 31
0.0
  0
LINE
  5
8F
100
AcDbEntity
  8
LAYER0001
  6
CONTINUOUS
 62
       7
100
AcDbLine
 10
-458.89442047
 20
632.18363139
 30
0.0
 11
-453.28580047
 21
646.47044139
 31
0.0
  0
LINE
  5
90
100
AcDbEntity
  8
LAYER0001
  6
CONTINUOUS
 62
       7
100
AcDbLine
 10
-453.28580047
 20
646.47044139
 30
0.0
 11
-447.25344047
 21
660.23015139
 31
0.0
  0
LINE
  5
91
100
AcDbEntity
  8
LAYER0001
  6
CONTINUOUS
 62
       7
100
AcDbLine
 10
-447.25344047
 20
660.23015139
 30
0.0
 11
-440.79733047
 21
673.35252139
 31
0.0
  0
LINE
  5
92
100
AcDbEntity
  8
LAYER0001
  6
CONTINUOUS
 62
       7
100
AcDbLine
 10
-440.79733047
 20
673.35252139
 30
0.0
 11
-433.81240047
 21
685.73420139
 31
0.0
  0
LINE
  5
93
100
AcDbEntity
  8
LAYER0001
  6
CONTINUOUS
 62
       7
100
AcDbLine
 10
-433.81240047
 20
685.73420139
 30
0.0
 11
-426.50880047
 21
697.58877139
 31
0.0
  0
LINE
  5
94
100
AcDbEntity
  8
LAYER0001
  6
CONTINUOUS
 62
       7
100
AcDbLine
 10
-426.50880047
 20
697.58877139
 30
0.0
 11
-418.99504047
 21
708.59585139
 31
0.0
  0
LINE
  5
95
100
AcDbEntity
  8
LAYER0001
  6
CONTINUOUS
 62
       7
100
AcDbLine
 10
-418.99504047
 20
708.59585139
 30
0.0
 11
-411.16262047
 21
718.96559139
 31
0.0
  0
LINE
  5
96
100
AcDbEntity
  8
LAYER0001
  6
CONTINUOUS
 62
       7
100
AcDbLine
 10
-411.16262047
 20
718.96559139
 30
0.0
 11
-403.12004047
 21
728.59807139
 31
0.0
  0
LINE
  5
97
100
AcDbEntity
  8
LAYER0001
  6
CONTINUOUS
 62
       7
100
AcDbLine
 10
-403.12004047
 20
728.59807139
 30
0.0
 11
-394.86559047
 21
737.48642139
 31
0.0
  0
ENDBLK
  5
98
100
AcDbEntity
  8
0
100
AcDbBlockEnd
  0
BLOCK
  5
99
100
AcDbEntity
  8
0
100
AcDbBlockBegin
  2
GROUP_3
 70
       0
 10
0.0
 20
0.0
 30
0.0
  3
GROUP_3
  1

  0
LINE
  5
9A
100
AcDbEntity
  8
LAYER0001
  6
CONTINUOUS
 62
       7
100
AcDbLine
 10
-28.78803047
 20
345.26919139
 30
0.0
 11
-38.73574047
 21
335.31975139
 31
0.0
  0
LINE
  5
9B
100
AcDbEntity
  8
LAYER0001
  6
CONTINUOUS
 62
       7
100
AcDbLine
 10
-38.73574047
 20
335.31975139
 30
0.0
 11
-49.10720047
 21
326.00766139
 31
0.0
  0
LINE
  5
9C
100
AcDbEntity
  8
LAYER0001
  6
CONTINUOUS
 62
       7
100
AcDbLine
 10
-49.10720047
 20
326.00766139
 30
0.0
 11
-59.79733047
 21
317.22267139
 31
0.0
  0
LINE
  5
9D
100
AcDbEntity
  8
LAYER0001
  6
CONTINUOUS
 62
       7
100
AcDbLine
 10
-59.79733047
 20
317.22267139
 30
0.0
 11
-70.90949047
 21
308.96822139
 31
0.0
  0
LINE
  5
9E
100
AcDbEntity
  8
LAYER0001
  6
CONTINUOUS
 62
       7
100
AcDbLine
 10
-70.90949047
 20
308.96822139
 30
0.0
 11
-82.23351047
 21
301.24259139
 31
0.0
  0
LINE
  5
9F
100
AcDbEntity
  8
LAYER0001
  6
CONTINUOUS
 62
       7
100
AcDbLine
 10
-82.23351047
 20
301.24259139
 30
0.0
 11
-93.76942047
 21
294.15086139
 31
0.0
  0
LINE
  5
A0
100
AcDbEntity
  8
LAYER0001
  6
CONTINUOUS
 62
       7
100
AcDbLine
 10
-93.76942047
 20
294.15086139
 30
0.0
 11
-105.62227047
 21
287.58968139
 31
0.0
  0
LINE
  5
A1
100
AcDbEntity
  8
LAYER0001
  6
CONTINUOUS
 62
       7
100
AcDbLine
 10
-105.62227047
 20
287.58968139
 30
0.0
 11
-117.68699047
 21
281.55732139
 31
0.0
  0
LINE
  5
A2
100
AcDbEntity
  8
LAYER0001
  6
CONTINUOUS
 62
       7
100
AcDbLine
 10
-117.68699047
 20
281.55732139
 30
0.0
 11
-129.96359047
 21
276.16057139
 31
0.0
  0
LINE
  5
A3
100
AcDbEntity
  8
LAYER0001
  6
CONTINUOUS
 62
       7
100
AcDbLine
 10
-129.96359047
 20
276.16057139
 30
0.0
 11
-142.34699047
 21
271.29093139
 31
0.0
  0
LINE
  5
A4
100
AcDbEntity
  8
LAYER0001
  6
CONTINUOUS
 62
       7
100
AcDbLine
 10
-142.34699047
 20
271.29093139
 30
0.0
 11
-154.83546047
 21
267.05863139
 31
0.0
  0
LINE
  5
A5
100
AcDbEntity
  8
LAYER0001
  6
CONTINUOUS
 62
       7
100
AcDbLine
 10
-154.83546047
 20
267.05863139
 30
0.0
 11
-167.53580047
 21
263.35343139
 31
0.0
  0
LINE
  5
A6
100
AcDbEntity
  8
LAYER0001
  6
CONTINUOUS
 62
       7
100
AcDbLine
 10
-167.53580047
 20
263.35343139
 30
0.0
 11
-180.23442047
 21
260.17878139
 31
0.0
  0
LINE
  5
A7
100
AcDbEntity
  8
LAYER0001
  6
CONTINUOUS
 62
       7
100
AcDbLine
 10
-180.23442047
 20
260.17878139
 30
0.0
 11
-193.04157047
 21
257.63974139
 31
0.0
  0
LINE
  5
A8
100
AcDbEntity
  8
LAYER0001
  6
CONTINUOUS
 62
       7
100
AcDbLine
 10
-193.04157047
 20
257.63974139
 30
0.0
 11
-205.84699047
 21
255.73460139
 31
0.0
  0
LINE
  5
A9
100
AcDbEntity
  8
LAYER0001
  6
CONTINUOUS
 62
       7
100
AcDbLine
 10
-205.84699047
 20
255.73460139
 30
0.0
 11
-218.75748047
 21
254.35829139
 31
0.0
  0
LINE
  5
AA
100
AcDbEntity
  8
LAYER0001
  6
CONTINUOUS
 62
       7
100
AcDbLine
 10
-218.75748047
 20
254.35829139
 30
0.0
 11
-231.56462047
 21
253.61759139
 31
0.0
  0
LINE
  5
AB
100
AcDbEntity
  8
LAYER0001
  6
CONTINUOUS
 62
       7
100
AcDbLine
 10
-231.56462047
 20
253.61759139
 30
0.0
 11
-244.26497047
 21
253.40572139
 31
0.0
  0
LINE
  5
AC
100
AcDbEntity
  8
LAYER0001
  6
CONTINUOUS
 62
       7
100
AcDbLine
 10
-244.26497047
 20
253.40572139
 30
0.0
 11
-256.96359047
 21
253.82947139
 31
0.0
  0
LINE
  5
AD
100
AcDbEntity
  8
LAYER0001
  6
CONTINUOUS
 62
       7
100
AcDbLine
 10
-256.96359047
 20
253.82947139
 30
0.0
 11
-269.55886047
 21
254.78203139
 31
0.0
  0
LINE
  5
AE
100
AcDbEntity
  8
LAYER0001
  6
CONTINUOUS
 62
       7
100
AcDbLine
 10
-269.55886047
 20
254.78203139
 30
0.0
 11
-282.04733047
 21
256.47530139
 31
0.0
  0
LINE
  5
AF
100
AcDbEntity
  8
LAYER0001
  6
CONTINUOUS
 62
       7
100
AcDbLine
 10
-282.04733047
 20
256.47530139
 30
0.0
 11
-294.32393047
 21
258.69739139
 31
0.0
  0
LINE
  5
B0
100
AcDbEntity
  8
LAYER0001
  6
CONTINUOUS
 62
       7
100
AcDbLine
 10
-294.32393047
 20
258.69739139
 30
0.0
 11
-306.38865047
 21
261.55509139
 31
0.0
  0
LINE
  5
B1
100
AcDbEntity
  8
LAYER0001
  6
CONTINUOUS
 62
       7
100
AcDbLine
 10
-306.38865047
 20
261.55509139
 30
0.0
 11
-318.34830047
 21
264.94162139
 31
0.0
  0
LINE
  5
B2
100
AcDbEntity
  8
LAYER0001
  6
CONTINUOUS
 62
       7
100
AcDbLine
 10
-318.34830047
 20
264.94162139
 30
0.0
 11
-329.98928047
 21
268.96377139
 31
0.0
  0
LINE
  5
B3
100
AcDbEntity
  8
LAYER0001
  6
CONTINUOUS
 62
       7
100
AcDbLine
 10
-329.98928047
 20
268.96377139
 30
0.0
 11
-341.42011047
 21
273.61982139
 31
0.0
  0
LINE
  5
B4
100
AcDbEntity
  8
LAYER0001
  6
CONTINUOUS
 62
       7
100
AcDbLine
 10
-341.42011047
 20
273.61982139
 30
0.0
 11
-352.53226047
 21
278.91148139
 31
0.0
  0
LINE
  5
B5
100
AcDbEntity
  8
LAYER0001
  6
CONTINUOUS
 62
       7
100
AcDbLine
 10
-352.53226047
 20
278.91148139
 30
0.0
 11
-363.32747047
 21
284.83877139
 31
0.0
  0
LINE
  5
B6
100
AcDbEntity
  8
LAYER0001
  6
CONTINUOUS
 62
       7
100
AcDbLine
 10
-363.32747047
 20
284.83877139
 30
0.0
 11
-373.91080047
 21
291.39995139
 31
0.0
  0
LINE
  5
B7
100
AcDbEntity
  8
LAYER0001
  6
CONTINUOUS
 62
       7
100
AcDbLine
 10
-373.91080047
 20
291.39995139
 30
0.0
 11
-383.96359047
 21
298.59676139
 31
0.0
  0
LINE
  5
B8
100
AcDbEntity
  8
LAYER0001
  6
CONTINUOUS
 62
       7
100
AcDbLine
 10
-383.96359047
 20
298.59676139
 30
0.0
 11
-393.70115047
 21
306.32239139
 31
0.0
  0
LINE
  5
B9
100
AcDbEntity
  8
LAYER0001
  6
CONTINUOUS
 62
       7
100
AcDbLine
 10
-393.70115047
 20
306.32239139
 30
0.0
 11
-403.01497047
 21
314.78871139
 31
0.0
  0
ENDBLK
  5
BA
100
AcDbEntity
  8
0
100
AcDbBlockEnd
  0
BLOCK
  5
BB
100
AcDbEntity
  8
0
100
AcDbBlockBegin
  2
GROUP_4
 70
       0
 10
0.0
 20
0.0
 30
0.0
  3
GROUP_4
  1

  0
LINE
  5
BC
100
AcDbEntity
  8
LAYER0001
  6
CONTINUOUS
 62
       7
100
AcDbLine
 10
-394.86560047
 20
737.48642139
 30
0.0
 11
-390.63158047
 21
741.72044139
 31
0.0
  0
LINE
  5
BD
100
AcDbEntity
  8
LAYER0001
  6
CONTINUOUS
 62
       7
100
AcDbLine
 10
-390.63158047
 20
741.72044139
 30
0.0
 11
-386.29248047
 21
745.84767139
 31
0.0
  0
LINE
  5
BE
100
AcDbEntity
  8
LAYER0001
  6
CONTINUOUS
 62
       7
100
AcDbLine
 10
-386.29248047
 20
745.84767139
 30
0.0
 11
-381.74151047
 21
749.76474139
 31
0.0
  0
LINE
  5
BF
100
AcDbEntity
  8
LAYER0001
  6
CONTINUOUS
 62
       7
100
AcDbLine
 10
-381.74151047
 20
749.76474139
 30
0.0
 11
-377.08546047
 21
753.46822139
 31
0.0
  0
LINE
  5
C0
100
AcDbEntity
  8
LAYER0001
  6
CONTINUOUS
 62
       7
100
AcDbLine
 10
-377.08546047
 20
753.46822139
 30
0.0
 11
-372.21582047
 21
756.96155139
 31
0.0
  0
LINE
  5
C1
100
AcDbEntity
  8
LAYER0001
  6
CONTINUOUS
 62
       7
100
AcDbLine
 10
-372.21582047
 20
756.96155139
 30
0.0
 11
-367.34790047
 21
760.34807139
 31
0.0
  0
LINE
  5
C2
100
AcDbEntity
  8
LAYER0001
  6
CONTINUOUS
 62
       7
100
AcDbLine
 10
-367.34790047
 20
760.34807139
 30
0.0
 11
-357.18831047
 21
766.59059139
 31
0.0
  0
LINE
  5
C3
100
AcDbEntity
  8
LAYER0001
  6
CONTINUOUS
 62
       7
100
AcDbLine
 10
-357.18831047
 20
766.59059139
 30
0.0
 11
-346.49990047
 21
772.09585139
 31
0.0
  0
LINE
  5
C4
100
AcDbEntity
  8
LAYER0001
  6
CONTINUOUS
 62
       7
100
AcDbLine
 10
-346.49990047
 20
772.09585139
 30
0.0
 11
-335.49282047
 21
776.96377139
 31
0.0
  0
LINE
  5
C5
100
AcDbEntity
  8
LAYER0001
  6
CONTINUOUS
 62
       7
100
AcDbLine
 10
-335.49282047
 20
776.96377139
 30
0.0
 11
-324.06200047
 21
781.19779139
 31
0.0
  0
LINE
  5
C6
100
AcDbEntity
  8
LAYER0001
  6
CONTINUOUS
 62
       7
100
AcDbLine
 10
-324.06200047
 20
781.19779139
 30
0.0
 11
-312.31594047
 21
784.79447139
 31
0.0
  0
LINE
  5
C7
100
AcDbEntity
  8
LAYER0001
  6
CONTINUOUS
 62
       7
100
AcDbLine
 10
-312.31594047
 20
784.79447139
 30
0.0
 11
-300.35629047
 21
787.75725139
 31
0.0
  0
LINE
  5
C8
100
AcDbEntity
  8
LAYER0001
  6
CONTINUOUS
 62
       7
100
AcDbLine
 10
-300.35629047
 20
787.75725139
 30
0.0
 11
-288.07970047
 21
790.08614139
 31
0.0
  0
LINE
  5
C9
100
AcDbEntity
  8
LAYER0001
  6
CONTINUOUS
 62
       7
100
AcDbLine
 10
-288.07970047
 20
790.08614139
 30
0.0
 11
-275.59123047
 21
791.78113139
 31
0.0
  0
LINE
  5
CA
100
AcDbEntity
  8
LAYER0001
  6
CONTINUOUS
 62
       7
100
AcDbLine
 10
-275.59123047
 20
791.78113139
 30
0.0
 11
-262.89088047
 21
793.04892139
 31
0.0
  0
LINE
  5
CB
100
AcDbEntity
  8
LAYER0001
  6
CONTINUOUS
 62
       7
100
AcDbLine
 10
-262.89088047
 20
793.04892139
 30
0.0
 11
-250.08546047
 21
793.57947139
 31
0.0
  0
LINE
  5
CC
100
AcDbEntity
  8
LAYER0001
  6
CONTINUOUS
 62
       7
100
AcDbLine
 10
-250.08546047
 20
793.57947139
 30
0.0
 11
-237.17324047
 21
793.68626139
 31
0.0
  0
LINE
  5
CD
100
AcDbEntity
  8
LAYER0001
  6
CONTINUOUS
 62
       7
100
AcDbLine
 10
-237.17324047
 20
793.68626139
 30
0.0
 11
-224.26275047
 21
793.15572139
 31
0.0
  0
LINE
  5
CE
100
AcDbEntity
  8
LAYER0001
  6
CONTINUOUS
 62
       7
100
AcDbLine
 10
-224.26275047
 20
793.15572139
 30
0.0
 11
-211.24373047
 21
792.09807139
 31
0.0
  0
LINE
  5
CF
100
AcDbEntity
  8
LAYER0001
  6
CONTINUOUS
 62
       7
100
AcDbLine
 10
-211.24373047
 20
792.09807139
 30
0.0
 11
-198.22644047
 21
790.61668139
 31
0.0
  0
LINE
  5
D0
100
AcDbEntity
  8
LAYER0001
  6
CONTINUOUS
 62
       7
100
AcDbLine
 10
-198.22644047
 20
790.61668139
 30
0.0
 11
-185.31594047
 21
788.49795139
 31
0.0
  0
LINE
  5
D1
100
AcDbEntity
  8
LAYER0001
  6
CONTINUOUS
 62
       7
100
AcDbLine
 10
-185.31594047
 20
788.49795139
 30
0.0
 11
-172.40373047
 21
785.95891139
 31
0.0
  0
LINE
  5
D2
100
AcDbEntity
  8
LAYER0001
  6
CONTINUOUS
 62
       7
100
AcDbLine
 10
-172.40373047
 20
785.95891139
 30
0.0
 11
-159.70338047
 21
782.99613139
 31
0.0
  0
LINE
  5
D3
100
AcDbEntity
  8
LAYER0001
  6
CONTINUOUS
 62
       7
100
AcDbLine
 10
-159.70338047
 20
782.99613139
 30
0.0
 11
-147.10983047
 21
779.50281139
 31
0.0
  0
LINE
  5
D4
100
AcDbEntity
  8
LAYER0001
  6
CONTINUOUS
 62
       7
100
AcDbLine
 10
-147.10983047
 20
779.50281139
 30
0.0
 11
-134.72644047
 21
775.58918139
 31
0.0
  0
LINE
  5
D5
100
AcDbEntity
  8
LAYER0001
  6
CONTINUOUS
 62
       7
100
AcDbLine
 10
-134.72644047
 20
775.58918139
 30
0.0
 11
-122.55664047
 21
771.24836139
 31
0.0
  0
LINE
  5
D6
100
AcDbEntity
  8
LAYER0001
  6
CONTINUOUS
 62
       7
100
AcDbLine
 10
-122.55664047
 20
771.24836139
 30
0.0
 11
-110.70207047
 21
766.48723139
 31
0.0
  0
LINE
  5
D7
100
AcDbEntity
  8
LAYER0001
  6
CONTINUOUS
 62
       7
100
AcDbLine
 10
-110.70207047
 20
766.48723139
 30
0.0
 11
-99.06109047
 21
761.29892139
 31
0.0
  0
LINE
  5
D8
100
AcDbEntity
  8
LAYER0001
  6
CONTINUOUS
 62
       7
100
AcDbLine
 10
-99.06109047
 20
761.29892139
 30
0.0
 11
-87.84213047
 21
755.69031139
 31
0.0
  0
LINE
  5
D9
100
AcDbEntity
  8
LAYER0001
  6
CONTINUOUS
 62
       7
100
AcDbLine
 10
-87.84213047
 20
755.69031139
 30
0.0
 11
-77.04693047
 21
749.76474139
 31
0.0
  0
LINE
  5
DA
100
AcDbEntity
  8
LAYER0001
  6
CONTINUOUS
 62
       7
100
AcDbLine
 10
-77.04693047
 20
749.76474139
 30
0.0
 11
-66.57039047
 21
743.41543139
 31
0.0
  0
LINE
  5
DB
100
AcDbEntity
  8
LAYER0001
  6
CONTINUOUS
 62
       7
100
AcDbLine
 10
-66.57039047
 20
743.41543139
 30
0.0
 11
-56.62096047
 21
736.74573139
 31
0.0
  0
LINE
  5
DC
100
AcDbEntity
  8
LAYER0001
  6
CONTINUOUS
 62
       7
100
AcDbLine
 10
-56.62096047
 20
736.74573139
 30
0.0
 11
-47.09699047
 21
729.76252139
 31
0.0
  0
LINE
  5
DD
100
AcDbEntity
  8
LAYER0001
  6
CONTINUOUS
 62
       7
100
AcDbLine
 10
-47.09699047
 20
729.76252139
 30
0.0
 11
-38.10012047
 21
722.45891139
 31
0.0
  0
LINE
  5
DE
100
AcDbEntity
  8
LAYER0001
  6
CONTINUOUS
 62
       7
100
AcDbLine
 10
-38.10012047
 20
722.45891139
 30
0.0
 11
-29.74060047
 21
714.83836139
 31
0.0
  0
ENDBLK
  5
DF
100
AcDbEntity
  8
0
100
AcDbBlockEnd
  0
BLOCK
  5
E0
100
AcDbEntity
  8
0
100
AcDbBlockBegin
  2
GROUP_5
 70
       0
 10
0.0
 20
0.0
 30
0.0
  3
GROUP_5
  1

  0
LINE
  5
E1
100
AcDbEntity
  8
LAYER0001
  6
CONTINUOUS
 62
       7
100
AcDbLine
 10
-29.74060047
 20
714.83836139
 30
0.0
 11
-19.15727047
 21
704.15168139
 31
0.0
  0
LINE
  5
E2
100
AcDbEntity
  8
LAYER0001
  6
CONTINUOUS
 62
       7
100
AcDbLine
 10
-19.15727047
 20
704.15168139
 30
0.0
 11
-9.31463047
 21
693.35475139
 31
0.0
  0
LINE
  5
E3
100
AcDbEntity
  8
LAYER0001
  6
CONTINUOUS
 62
       7
100
AcDbLine
 10
-9.31463047
 20
693.35475139
 30
0.0
 11
-0.21269047
 21
682.34767139
 31
0.0
  0
LINE
  5
E4
100
AcDbEntity
  8
LAYER0001
  6
CONTINUOUS
 62
       7
100
AcDbLine
 10
-0.21269047
 20
682.34767139
 30
0.0
 11
8.04175953
 21
671.13044139
 31
0.0
  0
LINE
  5
E5
100
AcDbEntity
  8
LAYER0001
  6
CONTINUOUS
 62
       7
100
AcDbLine
 10
8.04175953
 20
671.13044139
 30
0.0
 11
15.66230953
 21
659.69961139
 31
0.0
  0
LINE
  5
E6
100
AcDbEntity
  8
LAYER0001
  6
CONTINUOUS
 62
       7
100
AcDbLine
 10
15.66230953
 20
659.69961139
 30
0.0
 11
22.64724953
 21
648.26878139
 31
0.0
  0
LINE
  5
E7
100
AcDbEntity
  8
LAYER0001
  6
CONTINUOUS
 62
       7
100
AcDbLine
 10
22.64724953
 20
648.26878139
 30
0.0
 11
28.78640953
 21
636.62781139
 31
0.0
  0
LINE
  5
E8
100
AcDbEntity
  8
LAYER0001
  6
CONTINUOUS
 62
       7
100
AcDbLine
 10
28.78640953
 20
636.62781139
 30
0.0
 11
34.28821953
 21
624.88003139
 31
0.0
  0
LINE
  5
E9
100
AcDbEntity
  8
LAYER0001
  6
CONTINUOUS
 62
       7
100
AcDbLine
 10
34.28821953
 20
624.88003139
 30
0.0
 11
39.05106953
 21
613.02890139
 31
0.0
  0
LINE
  5
EA
100
AcDbEntity
  8
LAYER0001
  6
CONTINUOUS
 62
       7
100
AcDbLine
 10
39.05106953
 20
613.02890139
 30
0.0
 11
43.07321953
 21
601.06753139
 31
0.0
  0
LINE
  5
EB
100
AcDbEntity
  8
LAYER0001
  6
CONTINUOUS
 62
       7
100
AcDbLine
 10
43.07321953
 20
601.06753139
 30
0.0
 11
46.56653953
 21
589.00281139
 31
0.0
  0
LINE
  5
EC
100
AcDbEntity
  8
LAYER0001
  6
CONTINUOUS
 62
       7
100
AcDbLine
 10
46.56653953
 20
589.00281139
 30
0.0
 11
49.21237953
 21
576.93808139
 31
0.0
  0
LINE
  5
ED
100
AcDbEntity
  8
LAYER0001
  6
CONTINUOUS
 62
       7
100
AcDbLine
 10
49.21237953
 20
576.93808139
 30
0.0
 11
51.32766953
 21
564.87336139
 31
0.0
  0
LINE
  5
EE
100
AcDbEntity
  8
LAYER0001
  6
CONTINUOUS
 62
       7
100
AcDbLine
 10
51.32766953
 20
564.87336139
 30
0.0
 11
52.70397953
 21
552.70183139
 31
0.0
  0
LINE
  5
EF
100
AcDbEntity
  8
LAYER0001
  6
CONTINUOUS
 62
       7
100
AcDbLine
 10
52.70397953
 20
552.70183139
 30
0.0
 11
53.33959953
 21
540.53031139
 31
0.0
  0
LINE
  5
F0
100
AcDbEntity
  8
LAYER0001
  6
CONTINUOUS
 62
       7
100
AcDbLine
 10
53.33959953
 20
540.53031139
 30
0.0
 11
53.44467953
 21
528.36223139
 31
0.0
  0
LINE
  5
F1
100
AcDbEntity
  8
LAYER0001
  6
CONTINUOUS
 62
       7
100
AcDbLine
 10
53.44467953
 20
528.36223139
 30
0.0
 11
52.91584953
 21
516.19071139
 31
0.0
  0
LINE
  5
F2
100
AcDbEntity
  8
LAYER0001
  6
CONTINUOUS
 62
       7
100
AcDbLine
 10
52.91584953
 20
516.19071139
 30
0.0
 11
51.64633953
 21
504.01919139
 31
0.0
  0
LINE
  5
F3
100
AcDbEntity
  8
LAYER0001
  6
CONTINUOUS
 62
       7
100
AcDbLine
 10
51.64633953
 20
504.01919139
 30
0.0
 11
49.74119953
 21
491.95447139
 31
0.0
  0
LINE
  5
F4
100
AcDbEntity
  8
LAYER0001
  6
CONTINUOUS
 62
       7
100
AcDbLine
 10
49.74119953
 20
491.95447139
 30
0.0
 11
47.30723953
 21
479.99654139
 31
0.0
  0
LINE
  5
F5
100
AcDbEntity
  8
LAYER0001
  6
CONTINUOUS
 62
       7
100
AcDbLine
 10
47.30723953
 20
479.99654139
 30
0.0
 11
44.23765953
 21
468.03517139
 31
0.0
  0
LINE
  5
F6
100
AcDbEntity
  8
LAYER0001
  6
CONTINUOUS
 62
       7
100
AcDbLine
 10
44.23765953
 20
468.03517139
 30
0.0
 11
40.53417953
 21
456.18404139
 31
0.0
  0
LINE
  5
F7
100
AcDbEntity
  8
LAYER0001
  6
CONTINUOUS
 62
       7
100
AcDbLine
 10
40.53417953
 20
456.18404139
 30
0.0
 11
36.19335953
 21
444.32947139
 31
0.0
  0
LINE
  5
F8
100
AcDbEntity
  8
LAYER0001
  6
CONTINUOUS
 62
       7
100
AcDbLine
 10
36.19335953
 20
444.32947139
 30
0.0
 11
31.32543953
 21
432.68849139
 31
0.0
  0
LINE
  5
F9
100
AcDbEntity
  8
LAYER0001
  6
CONTINUOUS
 62
       7
100
AcDbLine
 10
31.32543953
 20
432.68849139
 30
0.0
 11
25.82189953
 21
421.15086139
 31
0.0
  0
LINE
  5
FA
100
AcDbEntity
  8
LAYER0001
  6
CONTINUOUS
 62
       7
100
AcDbLine
 10
25.82189953
 20
421.15086139
 30
0.0
 11
19.68445953
 21
409.82683139
 31
0.0
  0
LINE
  5
FB
100
AcDbEntity
  8
LAYER0001
  6
CONTINUOUS
 62
       7
100
AcDbLine
 10
19.68445953
 20
409.82683139
 30
0.0
 11
13.01647953
 21
398.50281139
 31
0.0
  0
LINE
  5
FC
100
AcDbEntity
  8
LAYER0001
  6
CONTINUOUS
 62
       7
100
AcDbLine
 10
13.01647953
 20
398.50281139
 30
0.0
 11
5.81967953
 21
387.49573139
 31
0.0
  0
LINE
  5
FD
100
AcDbEntity
  8
LAYER0001
  6
CONTINUOUS
 62
       7
100
AcDbLine
 10
5.81967953
 20
387.49573139
 30
0.0
 11
-2.01275047
 21
376.59544139
 31
0.0
  0
LINE
  5
FE
100
AcDbEntity
  8
LAYER0001
  6
CONTINUOUS
 62
       7
100
AcDbLine
 10
-2.01275047
 20
376.59544139
 30
0.0
 11
-10.37227047
 21
365.90531139
 31
0.0
  0
LINE
  5
FF
100
AcDbEntity
  8
LAYER0001
  6
CONTINUOUS
 62
       7
100
AcDbLine
 10
-10.37227047
 20
365.90531139
 30
0.0
 11
-19.26234047
 21
355.53557139
 31
0.0
  0
LINE
  5
100
100
AcDbEntity
  8
LAYER0001
  6
CONTINUOUS
 62
       7
100
AcDbLine
 10
-19.26234047
 20
355.53557139
 30
0.0
 11
-28.78803047
 21
345.26919139
 31
0.0
  0
ENDBLK
  5
101
100
AcDbEntity
  8
0
100
AcDbBlockEnd
  0
BLOCK
  5
102
100
AcDbEntity
  8
0
100
AcDbBlockBegin
  2
DA_IMAGEDIMGROUP_1
 70
       0
 10
0.0
 20
0.0
 30
0.0
  3
DA_IMAGEDIMGROUP_1
  1

  0
LINE
  5
103
100
AcDbEntity
  8
0
  6
CONTINUOUS
 62
       7
100
AcDbLine
 10
-269.88827205
 20
466.9504863
 30
0.0
 11
-208.77959197
 21
501.09326327
 31
0.0
  0
LINE
  5
104
100
AcDbEntity
  8
0
  6
CONTINUOUS
 62
       7
100
AcDbLine
 10
-131.73690841
 20
544.13872192
 30
0.0
 11
-208.77959197
 21
501.09326327
 31
0.0
  0
INSERT
  5
105
100
AcDbEntity
  8
0
  6
CONTINUOUS
 62
       7
100
AcDbBlockReference
  2
_OPEN30
 10
-208.77959197
 20
501.09326327
 30
0.0
 41
24.0000223
 42
23.99991419
 50
209.19306226
  0
LINE
  5
106
100
AcDbEntity
  8
0
  6
CONTINUOUS
 62
       7
100
AcDbLine
 10
-296.07770637
 20
452.3178676
 30
0.0
 11
-269.88827205
 21
466.9504863
 31
0.0
  0
INSERT
  5
107
100
AcDbEntity
  8
0
  6
CONTINUOUS
 62
       7
100
AcDbBlockReference
  2
_OPEN30
 10
-269.88827205
 20
466.9504863
 30
0.0
 41
24.0000223
 42
23.99991419
 50
29.19306226
  0
TEXT
  5
108
100
AcDbEntity
  8
0
 62
       7
100
AcDbText
 10
-190.18503291
 20
518.35545714
 30
0.0
 40
32.0
  1
φ70
 50
29.19306226
 41
0.8
 72
       5
 11
-123.14008105
 21
555.81496101
 31
0.0
100
AcDbText
  0
ENDBLK
  5
109
100
AcDbEntity
  8
0
100
AcDbBlockEnd
  0
BLOCK
  5
10A
100
AcDbEntity
  8
0
100
AcDbBlockBegin
  2
_OPEN30
 70
       0
 10
0.0
 20
0.0
 30
0.0
  3
_OPEN30
  1

  0
LINE
  5
10B
100
AcDbEntity
  8
0
  6
CONTINUOUS
 62
       0
100
AcDbLine
 10
0.0
 20
0.0
 30
0.0
 11
-0.96592583
 21
0.25881905
 31
0.0
  0
LINE
  5
10C
100
AcDbEntity
  8
0
  6
CONTINUOUS
 62
       0
100
AcDbLine
 10
0.0
 20
0.0
 30
0.0
 11
-0.96592583
 21
-0.25881905
 31
0.0
  0
LINE
  5
10D
100
AcDbEntity
  8
0
  6
CONTINUOUS
 62
       0
100
AcDbLine
 10
0.0
 20
0.0
 30
0.0
 11
-1.0
 21
0.0
 31
0.0
  0
ENDBLK
  5
10E
100
AcDbEntity
  8
0
100
AcDbBlockEnd
  0
BLOCK
  5
10F
100
AcDbEntity
  8
0
100
AcDbBlockBegin
  2
DA_IMAGEDIMGROUP_2
 70
       0
 10
0.0
 20
0.0
 30
0.0
  3
DA_IMAGEDIMGROUP_2
  1

  0
LINE
  5
110
100
AcDbEntity
  8
0
  6
CONTINUOUS
 62
       7
100
AcDbLine
 10
-223.81700125
 20
466.37322442
 30
0.0
 11
-254.85086278
 21
501.67052515
 31
0.0
  0
LINE
  5
111
100
AcDbEntity
  8
0
  6
CONTINUOUS
 62
       7
100
AcDbLine
 10
-317.73333057
 20
573.19180116
 30
0.0
 11
-254.85086278
 21
501.67052515
 31
0.0
  0
INSERT
  5
112
100
AcDbEntity
  8
0
  6
CONTINUOUS
 62
       7
100
AcDbBlockReference
  2
_OPEN30
 10
-254.85086278
 20
501.67052515
 30
0.0
 41
24.0000223
 42
23.99991419
 50
311.32236941
  0
LINE
  5
113
100
AcDbEntity
  8
0
  6
CONTINUOUS
 62
       7
100
AcDbLine
 10
-204.00815347
 20
443.84303247
 30
0.0
 11
-223.81700125
 21
466.37322442
 31
0.0
  0
INSERT
  5
114
100
AcDbEntity
  8
0
  6
CONTINUOUS
 62
       7
100
AcDbBlockReference
  2
_OPEN30
 10
-223.81700125
 20
466.37322442
 30
0.0
 41
24.0000223
 42
23.99991419
 50
131.32236941
  0
TEXT
  5
115
100
AcDbEntity
  8
0
 62
       7
100
AcDbText
 10
-321.94318521
 20
587.06685518
 30
0.0
 40
32.0
  1
φ47
 50
-48.67763059
 41
0.8
 72
       5
 11
-271.23253488
 21
529.38956378
 31
0.0
100
AcDbText
  0
ENDBLK
  5
116
100
AcDbEntity
  8
0
100
AcDbBlockEnd
  0
BLOCK
  5
117
100
AcDbEntity
  8
0
100
AcDbBlockBegin
  2
DA_IMAGEDIMGROUP_3
 70
       0
 10
0.0
 20
0.0
 30
0.0
  3
DA_IMAGEDIMGROUP_3
  1

  0
LINE
  5
118
100
AcDbEntity
  8
0
  6
CONTINUOUS
 62
       7
100
AcDbLine
 10
-479.10851047
 20
513.18363139
 30
0.0
 11
-479.10851047
 21
908.68404139
 31
0.0
  0
LINE
  5
119
100
AcDbEntity
  8
0
  6
CONTINUOUS
 62
       7
100
AcDbLine
 10
-239.37232376
 20
823.7977057
 30
0.0
 11
-239.37232376
 21
908.68404139
 31
0.0
  0
LINE
  5
11A
100
AcDbEntity
  8
0
  6
CONTINUOUS
 62
       7
100
AcDbLine
 10
-479.10851047
 20
900.68404139
 30
0.0
 11
-239.37232376
 21
900.68404139
 31
0.0
  0
INSERT
  5
11B
100
AcDbEntity
  8
0
  6
CONTINUOUS
 62
       7
100
AcDbBlockReference
  2
_OPEN30
 10
-479.10851047
 20
900.68404139
 30
0.0
 41
24.0000223
 42
23.99991419
 50
180.0
  0
INSERT
  5
11C
100
AcDbEntity
  8
0
  6
CONTINUOUS
 62
       7
100
AcDbBlockReference
  2
_OPEN30
 10
-239.37232376
 20
900.68404139
 30
0.0
 41
24.0000223
 42
23.99991419
 50
360.0
  0
TEXT
  5
11D
100
AcDbEntity
  8
0
 62
       7
100
AcDbText
 10
-397.64041711
 20
908.68404139
 30
0.0
 40
32.0
  1
240
 41
0.8
 72
       5
 11
-320.84041711
 21
908.68404139
 31
0.0
100
AcDbText
  0
ENDBLK
  5
11E
100
AcDbEntity
  8
0
100
AcDbBlockEnd
  0
BLOCK
  5
11F
100
AcDbEntity
  8
0
100
AcDbBlockBegin
  2
DA_IMAGEDIMGROUP_4
 70
       0
 10
0.0
 20
0.0
 30
0.0
  3
DA_IMAGEDIMGROUP_4
  1

  0
LINE
  5
120
100
AcDbEntity
  8
0
  6
CONTINUOUS
 62
       7
100
AcDbLine
 10
-409.37232376
 20
134.98620242
 30
0.0
 11
-69.37232376
 21
134.98620242
 31
0.0
  0
INSERT
  5
121
100
AcDbEntity
  8
0
  6
CONTINUOUS
 62
       7
100
AcDbBlockReference
  2
_OPEN30
 10
-409.37232376
 20
134.98620242
 30
0.0
 41
24.0000223
 42
23.99991419
 50
180.0
  0
INSERT
  5
122
100
AcDbEntity
  8
0
  6
CONTINUOUS
 62
       7
100
AcDbBlockReference
  2
_OPEN30
 10
-69.37232376
 20
134.98620242
 30
0.0
 41
24.0000223
 42
23.99991419
 50
360.0
  0
LINE
  5
123
100
AcDbEntity
  8
0
  6
CONTINUOUS
 62
       7
100
AcDbLine
 10
-409.37232376
 20
475.95537832
 30
0.0
 11
-409.37232376
 21
128.98620242
 31
0.0
  0
LINE
  5
124
100
AcDbEntity
  8
0
  6
CONTINUOUS
 62
       7
100
AcDbLine
 10
-69.37232376
 20
475.95537832
 30
0.0
 11
-69.37232376
 21
128.98620242
 31
0.0
  0
TEXT
  5
125
100
AcDbEntity
  8
0
 62
       7
100
AcDbText
 10
-290.57232376
 20
142.98620242
 30
0.0
 40
32.0
  1
φ340
 41
0.8
 72
       5
 11
-188.17232376
 21
142.98620242
 31
0.0
100
AcDbText
  0
ENDBLK
  5
126
100
AcDbEntity
  8
0
100
AcDbBlockEnd
  0
BLOCK
  5
127
100
AcDbEntity
  8
0
100
AcDbBlockBegin
  2
DA_IMAGEDIMGROUP_5
 70
       0
 10
0.0
 20
0.0
 30
0.0
  3
DA_IMAGEDIMGROUP_5
  1

  0
LINE
  5
128
100
AcDbEntity
  8
0
  6
CONTINUOUS
 62
       7
100
AcDbLine
 10
-479.10851047
 20
86.33461871
 30
0.0
 11
53.4628466
 21
86.33461871
 31
0.0
  0
INSERT
  5
129
100
AcDbEntity
  8
0
  6
CONTINUOUS
 62
       7
100
AcDbBlockReference
  2
_OPEN30
 10
-479.10851047
 20
86.33461871
 30
0.0
 41
24.0000223
 42
23.99991419
 50
180.0
  0
INSERT
  5
12A
100
AcDbEntity
  8
0
  6
CONTINUOUS
 62
       7
100
AcDbBlockReference
  2
_OPEN30
 10
53.4628466
 20
86.33461871
 30
0.0
 41
24.0000223
 42
23.99991419
 50
360.0
  0
LINE
  5
12B
100
AcDbEntity
  8
0
  6
CONTINUOUS
 62
       7
100
AcDbLine
 10
-479.10851047
 20
497.18363139
 30
0.0
 11
-479.10851047
 21
80.33461871
 31
0.0
  0
LINE
  5
12C
100
AcDbEntity
  8
0
  6
CONTINUOUS
 62
       7
100
AcDbLine
 10
53.4628466
 20
520.79727437
 30
0.0
 11
53.4628466
 21
80.33461871
 31
0.0
  0
TEXT
  5
12D
100
AcDbEntity
  8
0
 62
       7
100
AcDbText
 10
-251.22283193
 20
94.33461871
 30
0.0
 40
32.0
  1
535
 41
0.8
 72
       5
 11
-174.42283193
 21
94.33461871
 31
0.0
100
AcDbText
  0
ENDBLK
  5
12E
100
AcDbEntity
  8
0
100
AcDbBlockEnd
  0
BLOCK
  5
12F
100
AcDbEntity
  8
0
100
AcDbBlockBegin
  2
DA_IMAGEDIMGROUP_6
 70
       0
 10
0.0
 20
0.0
 30
0.0
  3
DA_IMAGEDIMGROUP_6
  1

  0
LINE
  5
130
100
AcDbEntity
  8
0
  6
CONTINUOUS
 62
       7
100
AcDbLine
 10
-581.32327234
 20
484.02187478
 30
0.0
 11
-581.32327234
 21
793.66807396
 31
0.0
  0
INSERT
  5
131
100
AcDbEntity
  8
0
  6
CONTINUOUS
 62
       7
100
AcDbBlockReference
  2
_OPEN30
 10
-581.32327234
 20
484.02187478
 30
0.0
 41
24.0000223
 42
23.99991419
 50
270.0
  0
INSERT
  5
132
100
AcDbEntity
  8
0
  6
CONTINUOUS
 62
       7
100
AcDbBlockReference
  2
_OPEN30
 10
-581.32327234
 20
793.66807396
 30
0.0
 41
24.0000223
 42
23.99991419
 50
90.0
  0
LINE
  5
133
100
AcDbEntity
  8
0
  6
CONTINUOUS
 62
       7
100
AcDbLine
 10
-308.87934622
 20
484.02187478
 30
0.0
 11
-589.32327234
 21
484.02187478
 31
0.0
  0
LINE
  5
134
100
AcDbEntity
  8
0
  6
CONTINUOUS
 62
       7
100
AcDbLine
 10
-247.37232376
 20
793.66807396
 30
0.0
 11
-589.32327234
 21
793.66807396
 31
0.0
  0
TEXT
  5
135
100
AcDbEntity
  8
0
 62
       7
100
AcDbText
 10
-589.32327234
 20
600.44497437
 30
0.0
 40
32.0
  1
310
 50
90.0
 41
0.8
 72
       5
 11
-589.32327234
 21
677.24497437
 31
0.0
100
AcDbText
  0
ENDBLK
  5
136
100
AcDbEntity
  8
0
100
AcDbBlockEnd
  0
BLOCK
  5
137
100
AcDbEntity
  8
0
100
AcDbBlockBegin
  2
DA_IMAGEDIMGROUP_7
 70
       0
 10
0.0
 20
0.0
 30
0.0
  3
DA_IMAGEDIMGROUP_7
  1

  0
LINE
  5
138
100
AcDbEntity
  8
0
  6
CONTINUOUS
 62
       7
100
AcDbLine
 10
243.50860751
 20
253.48734159
 30
0.0
 11
243.50860751
 21
793.66807396
 31
0.0
  0
INSERT
  5
139
100
AcDbEntity
  8
0
  6
CONTINUOUS
 62
       7
100
AcDbBlockReference
  2
_OPEN30
 10
243.50860751
 20
253.48734159
 30
0.0
 41
24.0000223
 42
23.99991419
 50
270.0
  0
INSERT
  5
13A
100
AcDbEntity
  8
0
  6
CONTINUOUS
 62
       7
100
AcDbBlockReference
  2
_OPEN30
 10
243.50860751
 20
793.66807396
 30
0.0
 41
24.0000223
 42
23.99991419
 50
90.0
  0
LINE
  5
13B
100
AcDbEntity
  8
0
  6
CONTINUOUS
 62
       7
100
AcDbLine
 10
-231.37232376
 20
253.48734159
 30
0.0
 11
251.50860751
 21
253.48734159
 31
0.0
  0
LINE
  5
13C
100
AcDbEntity
  8
0
  6
CONTINUOUS
 62
       7
100
AcDbLine
 10
-231.37232376
 20
793.66807396
 30
0.0
 11
251.50860751
 21
793.66807396
 31
0.0
  0
TEXT
  5
13D
100
AcDbEntity
  8
0
 62
       7
100
AcDbText
 10
235.50860751
 20
485.17770777
 30
0.0
 40
32.0
  1
540
 50
90.0
 41
0.8
 72
       5
 11
235.50860751
 21
561.97770777
 31
0.0
100
AcDbText
  0
ENDBLK
  5
13E
100
AcDbEntity
  8
0
100
AcDbBlockEnd
  0
BLOCK
  5
13F
100
AcDbEntity
  8
0
100
AcDbBlockBegin
  2
DA_IMAGEDIMGROUP_8
 70
       0
 10
0.0
 20
0.0
 30
0.0
  3
DA_IMAGEDIMGROUP_8
  1

  0
LINE
  5
140
100
AcDbEntity
  8
0
  6
CONTINUOUS
 62
       7
100
AcDbLine
 10
-152.29672555
 20
660.06799181
 30
0.0
 11
-118.29614143
 21
668.37222444
 31
0.0
  0
LINE
  5
141
100
AcDbEntity
  8
0
  6
CONTINUOUS
 62
       7
100
AcDbLine
 10
84.36933453
 20
717.87082285
 30
0.0
 11
-118.29614143
 21
668.37222444
 31
0.0
  0
INSERT
  5
142
100
AcDbEntity
  8
0
  6
CONTINUOUS
 62
       7
100
AcDbBlockReference
  2
_OPEN30
 10
-118.29614143
 20
668.37222444
 30
0.0
 41
24.0000223
 42
23.99991419
 50
193.72510308
  0
LINE
  5
143
100
AcDbEntity
  8
0
  6
CONTINUOUS
 62
       7
100
AcDbLine
 10
-191.15453597
 20
650.57744023
 30
0.0
 11
-152.29672555
 21
660.06799181
 31
0.0
  0
INSERT
  5
144
100
AcDbEntity
  8
0
  6
CONTINUOUS
 62
       7
100
AcDbBlockReference
  2
_OPEN30
 10
-152.29672555
 20
660.06799181
 30
0.0
 41
24.0000223
 42
23.99991419
 50
13.72510308
  0
TEXT
  5
145
100
AcDbEntity
  8
0
 62
       7
100
AcDbText
 10
0.09266613
 20
705.52241558
 30
0.0
 40
32.0
  1
φ35
 50
13.72510308
 41
0.8
 72
       5
 11
74.69966213
 21
723.74427462
 31
0.0
100
AcDbText
  0
ENDBLK
  5
146
100
AcDbEntity
  8
0
100
AcDbBlockEnd
  0
BLOCK
  5
147
100
AcDbEntity
  8
0
100
AcDbBlockBegin
  2
DA_IMAGEDIMGROUP_9
 70
       0
 10
0.0
 20
0.0
 30
0.0
  3
DA_IMAGEDIMGROUP_9
  1

  0
LINE
  5
148
100
AcDbEntity
  8
0
  6
CONTINUOUS
 62
       7
100
AcDbLine
 10
-44.94182124
 20
820.71888724
 30
0.0
 11
-100.77438748
 21
724.01404578
 31
0.0
  0
LINE
  5
149
100
AcDbEntity
  8
0
  6
CONTINUOUS
 62
       7
100
AcDbLine
 10
-239.37232376
 20
872.81638338
 30
0.0
 11
-239.37232376
 21
823.7977057
 31
0.0
  0
ARC
  5
14A
100
AcDbEntity
  8
0
  6
CONTINUOUS
 62
       7
100
AcDbCircle
 10
-239.37232376
 20
483.95537832
 30
0.0
 40
380.86100505
100
AcDbArc
 50
60.0
 51
90.0
  0
INSERT
  5
14B
100
AcDbEntity
  8
0
  6
CONTINUOUS
 62
       7
100
AcDbBlockReference
  2
_OPEN30
 10
-48.94182124
 20
813.79068401
 30
0.0
 41
24.0000223
 42
23.99991419
 50
331.8052512
  0
INSERT
  5
14C
100
AcDbEntity
  8
0
  6
CONTINUOUS
 62
       7
100
AcDbBlockReference
  2
_OPEN30
 10
-239.37232376
 20
864.81638338
 30
0.0
 41
24.0000223
 42
23.99991419
 50
178.1947488
  0
TEXT
  5
14D
100
AcDbEntity
  8
0
 62
       7
100
AcDbText
 10
-175.81924149
 20
869.50491727
 30
0.0
 40
32.0
  1
30°
 50
-15.0
 41
0.8
 72
       5
 11
-101.63613803
 21
849.62761461
 31
0.0
100
AcDbText
  0
ENDBLK
  5
14E
100
AcDbEntity
  8
0
100
AcDbBlockEnd
  0
BLOCK
  5
14F
100
AcDbEntity
  8
0
100
AcDbBlockBegin
  2
GROUP_6
 70
       0
 10
0.0
 20
0.0
 30
0.0
  3
GROUP_6
  1

  0
INSERT
  5
150
100
AcDbEntity
  8
0
  6
CONTINUOUS
100
AcDbBlockReference
  2
GROUP_7
 10
0.0
 20
0.0
 30
0.0
  0
INSERT
  5
151
100
AcDbEntity
  8
0
  6
CONTINUOUS
100
AcDbBlockReference
  2
GROUP_8
 10
0.0
 20
0.0
 30
0.0
  0
ENDBLK
  5
152
100
AcDbEntity
  8
0
100
AcDbBlockEnd
  0
BLOCK
  5
153
100
AcDbEntity
  8
0
100
AcDbBlockBegin
  2
GROUP_7
 70
       0
 10
0.0
 20
0.0
 30
0.0
  3
GROUP_7
  1

  0
LINE
  5
154
100
AcDbEntity
  8
LAYER0001
  6
CONTINUOUS
 62
       7
100
AcDbLine
 10
499.15375768
 20
793.88167396
 30
0.0
 11
493.01459768
 21
793.56128396
 31
0.0
  0
LINE
  5
155
100
AcDbEntity
  8
LAYER0001
  6
CONTINUOUS
 62
       7
100
AcDbLine
 10
493.01459768
 20
793.56128396
 30
0.0
 11
486.98223768
 21
792.71723396
 31
0.0
  0
LINE
  5
156
100
AcDbEntity
  8
LAYER0001
  6
CONTINUOUS
 62
       7
100
AcDbLine
 10
486.98223768
 20
792.71723396
 30
0.0
 11
481.05666768
 21
791.55278396
 31
0.0
  0
LINE
  5
157
100
AcDbEntity
  8
LAYER0001
  6
CONTINUOUS
 62
       7
100
AcDbLine
 10
481.05666768
 20
791.55278396
 30
0.0
 11
475.12765768
 21
789.85780396
 31
0.0
  0
LINE
  5
158
100
AcDbEntity
  8
LAYER0001
  6
CONTINUOUS
 62
       7
100
AcDbLine
 10
475.12765768
 20
789.85780396
 30
0.0
 11
469.41224768
 21
787.84586396
 31
0.0
  0
LINE
  5
159
100
AcDbEntity
  8
LAYER0001
  6
CONTINUOUS
 62
       7
100
AcDbLine
 10
469.41224768
 20
787.84586396
 30
0.0
 11
463.80362768
 21
785.30683396
 31
0.0
  0
LINE
  5
15A
100
AcDbEntity
  8
LAYER0001
  6
CONTINUOUS
 62
       7
100
AcDbLine
 10
463.80362768
 20
785.30683396
 30
0.0
 11
458.40860768
 21
782.45084396
 31
0.0
  0
LINE
  5
15B
100
AcDbEntity
  8
LAYER0001
  6
CONTINUOUS
 62
       7
100
AcDbLine
 10
458.40860768
 20
782.45084396
 30
0.0
 11
453.32709768
 21
779.16767396
 31
0.0
  0
ENDBLK
  5
15C
100
AcDbEntity
  8
0
100
AcDbBlockEnd
  0
BLOCK
  5
15D
100
AcDbEntity
  8
0
100
AcDbBlockBegin
  2
GROUP_8
 70
       0
 10
0.0
 20
0.0
 30
0.0
  3
GROUP_8
  1

  0
LINE
  5
15E
100
AcDbEntity
  8
LAYER0001
  6
CONTINUOUS
 62
       7
100
AcDbLine
 10
421.26014768
 20
750.27710396
 30
0.0
 11
416.81597768
 21
743.71419396
 31
0.0
  0
LINE
  5
15F
100
AcDbEntity
  8
LAYER0001
  6
CONTINUOUS
 62
       7
100
AcDbLine
 10
416.81597768
 20
743.71419396
 30
0.0
 11
412.68530768
 21
736.83433396
 31
0.0
  0
LINE
  5
160
100
AcDbEntity
  8
LAYER0001
  6
CONTINUOUS
 62
       7
100
AcDbLine
 10
412.68530768
 20
736.83433396
 30
0.0
 11
408.98182768
 21
729.85112396
 31
0.0
  0
LINE
  5
161
100
AcDbEntity
  8
LAYER0001
  6
CONTINUOUS
 62
       7
100
AcDbLine
 10
408.98182768
 20
729.85112396
 30
0.0
 11
405.70209768
 21
722.65432396
 31
0.0
  0
LINE
  5
162
100
AcDbEntity
  8
LAYER0001
  6
CONTINUOUS
 62
       7
100
AcDbLine
 10
405.70209768
 20
722.65432396
 30
0.0
 11
402.73931768
 21
715.24736396
 31
0.0
  0
LINE
  5
163
100
AcDbEntity
  8
LAYER0001
  6
CONTINUOUS
 62
       7
100
AcDbLine
 10
402.73931768
 20
715.24736396
 30
0.0
 11
400.20027768
 21
707.73017396
 31
0.0
  0
LINE
  5
164
100
AcDbEntity
  8
LAYER0001
  6
CONTINUOUS
 62
       7
100
AcDbLine
 10
400.20027768
 20
707.73017396
 30
0.0
 11
398.18834768
 21
700.00626396
 31
0.0
  0
LINE
  5
165
100
AcDbEntity
  8
LAYER0001
  6
CONTINUOUS
 62
       7
100
AcDbLine
 10
398.18834768
 20
700.00626396
 30
0.0
 11
397.10986768
 21
695.08954325
 31
0.0
  0
ENDBLK
  5
166
100
AcDbEntity
  8
0
100
AcDbBlockEnd
  0
BLOCK
  5
167
100
AcDbEntity
  8
0
100
AcDbBlockBegin
  2
GROUP_9
 70
       0
 10
0.0
 20
0.0
 30
0.0
  3
GROUP_9
  1

  0
LINE
  5
168
100
AcDbEntity
  8
LAYER0001
  6
CONTINUOUS
 62
       7
100
AcDbLine
 10
453.32710768
 20
779.16767396
 30
0.0
 11
447.18794768
 21
775.25404396
 31
0.0
  0
LINE
  5
169
100
AcDbEntity
  8
LAYER0001
  6
CONTINUOUS
 62
       7
100
AcDbLine
 10
447.18794768
 20
775.25404396
 30
0.0
 11
441.36917768
 21
771.02002396
 31
0.0
  0
LINE
  5
16A
100
AcDbEntity
  8
LAYER0001
  6
CONTINUOUS
 62
       7
100
AcDbLine
 10
441.36917768
 20
771.02002396
 30
0.0
 11
435.86391768
 21
766.36225396
 31
0.0
  0
LINE
  5
16B
100
AcDbEntity
  8
LAYER0001
  6
CONTINUOUS
 62
       7
100
AcDbLine
 10
435.86391768
 20
766.36225396
 30
0.0
 11
430.57224768
 21
761.28418396
 31
0.0
  0
LINE
  5
16C
100
AcDbEntity
  8
LAYER0001
  6
CONTINUOUS
 62
       7
100
AcDbLine
 10
430.57224768
 20
761.28418396
 30
0.0
 11
425.70432768
 21
755.99251396
 31
0.0
  0
LINE
  5
16D
100
AcDbEntity
  8
LAYER0001
  6
CONTINUOUS
 62
       7
100
AcDbLine
 10
425.70432768
 20
755.99251396
 30
0.0
 11
421.26015768
 21
750.27710396
 31
0.0
  0
ENDBLK
  5
16E
100
AcDbEntity
  8
0
100
AcDbBlockEnd
  0
BLOCK
  5
16F
100
AcDbEntity
  8
0
100
AcDbBlockBegin
  2
GROUP_10
 70
       0
 10
0.0
 20
0.0
 30
0.0
  3
GROUP_10
  1

  0
LINE
  5
170
100
AcDbEntity
  8
LAYER0001
  6
CONTINUOUS
 62
       7
100
AcDbLine
 10
456.39668768
 20
262.29578139
 30
0.0
 11
464.75792768
 21
259.64995139
 31
0.0
  0
LINE
  5
171
100
AcDbEntity
  8
LAYER0001
  6
CONTINUOUS
 62
       7
100
AcDbLine
 10
464.75792768
 20
259.64995139
 30
0.0
 11
473.22252768
 21
257.42442139
 31
0.0
  0
LINE
  5
172
100
AcDbEntity
  8
LAYER0001
  6
CONTINUOUS
 62
       7
100
AcDbLine
 10
473.22252768
 20
257.42442139
 30
0.0
 11
481.79736768
 21
255.62608139
 31
0.0
  0
LINE
  5
173
100
AcDbEntity
  8
LAYER0001
  6
CONTINUOUS
 62
       7
100
AcDbLine
 10
481.79736768
 20
255.62608139
 30
0.0
 11
490.36876768
 21
254.25149139
 31
0.0
  0
LINE
  5
174
100
AcDbEntity
  8
LAYER0001
  6
CONTINUOUS
 62
       7
100
AcDbLine
 10
490.36876768
 20
254.25149139
 30
0.0
 11
499.15376768
 21
253.51079139
 31
0.0
  0
ENDBLK
  5
175
100
AcDbEntity
  8
0
100
AcDbBlockEnd
  0
BLOCK
  5
176
100
AcDbEntity
  8
0
100
AcDbBlockBegin
  2
GROUP_11
 70
       0
 10
0.0
 20
0.0
 30
0.0
  3
GROUP_11
  1

  0
LINE
  5
177
100
AcDbEntity
  8
LAYER0001
  6
CONTINUOUS
 62
       7
100
AcDbLine
 10
499.15376768
 20
253.51079139
 30
0.0
 11
503.80808768
 21
253.61759139
 31
0.0
  0
LINE
  5
178
100
AcDbEntity
  8
LAYER0001
  6
CONTINUOUS
 62
       7
100
AcDbLine
 10
503.80808768
 20
253.61759139
 30
0.0
 11
508.46585768
 21
253.93454139
 31
0.0
  0
LINE
  5
179
100
AcDbEntity
  8
LAYER0001
  6
CONTINUOUS
 62
       7
100
AcDbLine
 10
508.46585768
 20
253.93454139
 30
0.0
 11
517.67459768
 21
255.41593139
 31
0.0
  0
LINE
  5
17A
100
AcDbEntity
  8
LAYER0001
  6
CONTINUOUS
 62
       7
100
AcDbLine
 10
517.67459768
 20
255.41593139
 30
0.0
 11
526.66973768
 21
257.63801139
 31
0.0
  0
LINE
  5
17B
100
AcDbEntity
  8
LAYER0001
  6
CONTINUOUS
 62
       7
100
AcDbLine
 10
526.66973768
 20
257.63801139
 30
0.0
 11
531.00711768
 21
259.01261139
 31
0.0
  0
LINE
  5
17C
100
AcDbEntity
  8
LAYER0001
  6
CONTINUOUS
 62
       7
100
AcDbLine
 10
531.00711768
 20
259.01261139
 30
0.0
 11
535.24113768
 21
260.60080139
 31
0.0
  0
LINE
  5
17D
100
AcDbEntity
  8
LAYER0001
  6
CONTINUOUS
 62
       7
100
AcDbLine
 10
535.24113768
 20
260.60080139
 30
0.0
 11
539.36836768
 21
262.39914139
 31
0.0
  0
LINE
  5
17E
100
AcDbEntity
  8
LAYER0001
  6
CONTINUOUS
 62
       7
100
AcDbLine
 10
539.36836768
 20
262.39914139
 30
0.0
 11
543.39223768
 21
264.30427139
 31
0.0
  0
LINE
  5
17F
100
AcDbEntity
  8
LAYER0001
  6
CONTINUOUS
 62
       7
100
AcDbLine
 10
543.39223768
 20
264.30427139
 30
0.0
 11
547.20250768
 21
266.52636139
 31
0.0
  0
LINE
  5
180
100
AcDbEntity
  8
LAYER0001
  6
CONTINUOUS
 62
       7
100
AcDbLine
 10
547.20250768
 20
266.52636139
 30
0.0
 11
550.79918768
 21
268.96204139
 31
0.0
  0
LINE
  5
181
100
AcDbEntity
  8
LAYER0001
  6
CONTINUOUS
 62
       7
100
AcDbLine
 10
550.79918768
 20
268.96204139
 30
0.0
 11
554.18571768
 21
271.60788139
 31
0.0
  0
LINE
  5
182
100
AcDbEntity
  8
LAYER0001
  6
CONTINUOUS
 62
       7
100
AcDbLine
 10
554.18571768
 20
271.60788139
 30
0.0
 11
557.14849768
 21
274.36051139
 31
0.0
  0
LINE
  5
183
100
AcDbEntity
  8
LAYER0001
  6
CONTINUOUS
 62
       7
100
AcDbLine
 10
557.14849768
 20
274.36051139
 30
0.0
 11
559.90112768
 21
277.21649139
 31
0.0
  0
LINE
  5
184
100
AcDbEntity
  8
LAYER0001
  6
CONTINUOUS
 62
       7
100
AcDbLine
 10
559.90112768
 20
277.21649139
 30
0.0
 11
562.12321768
 21
279.96912139
 31
0.0
  0
ENDBLK
  5
185
100
AcDbEntity
  8
0
100
AcDbBlockEnd
  0
BLOCK
  5
186
100
AcDbEntity
  8
0
100
AcDbBlockBegin
  2
GROUP_12
 70
       0
 10
0.0
 20
0.0
 30
0.0
  3
GROUP_12
  1

  0
LINE
  5
187
100
AcDbEntity
  8
LAYER0001
  6
CONTINUOUS
 62
       7
100
AcDbLine
 10
562.23001768
 20
752.07544396
 30
0.0
 11
560.43167768
 21
755.67556396
 31
0.0
  0
LINE
  5
188
100
AcDbEntity
  8
LAYER0001
  6
CONTINUOUS
 62
       7
100
AcDbLine
 10
560.43167768
 20
755.67556396
 30
0.0
 11
558.31294768
 21
759.48584396
 31
0.0
  0
LINE
  5
189
100
AcDbEntity
  8
LAYER0001
  6
CONTINUOUS
 62
       7
100
AcDbLine
 10
558.31294768
 20
759.48584396
 30
0.0
 11
555.98405768
 21
763.39947396
 31
0.0
  0
LINE
  5
18A
100
AcDbEntity
  8
LAYER0001
  6
CONTINUOUS
 62
       7
100
AcDbLine
 10
555.98405768
 20
763.39947396
 30
0.0
 11
553.33822768
 21
767.31654396
 31
0.0
  0
LINE
  5
18B
100
AcDbEntity
  8
LAYER0001
  6
CONTINUOUS
 62
       7
100
AcDbLine
 10
553.33822768
 20
767.31654396
 30
0.0
 11
550.37544768
 21
771.23017396
 31
0.0
  0
LINE
  5
18C
100
AcDbEntity
  8
LAYER0001
  6
CONTINUOUS
 62
       7
100
AcDbLine
 10
550.37544768
 20
771.23017396
 30
0.0
 11
546.98891768
 21
774.93709396
 31
0.0
  0
LINE
  5
18D
100
AcDbEntity
  8
LAYER0001
  6
CONTINUOUS
 62
       7
100
AcDbLine
 10
546.98891768
 20
774.93709396
 30
0.0
 11
543.39223768
 21
778.53377396
 31
0.0
  0
LINE
  5
18E
100
AcDbEntity
  8
LAYER0001
  6
CONTINUOUS
 62
       7
100
AcDbLine
 10
543.39223768
 20
778.53377396
 30
0.0
 11
539.36836768
 21
781.71015396
 31
0.0
  0
LINE
  5
18F
100
AcDbEntity
  8
LAYER0001
  6
CONTINUOUS
 62
       7
100
AcDbLine
 10
539.36836768
 20
781.71015396
 30
0.0
 11
535.03098768
 21
784.67293396
 31
0.0
  0
LINE
  5
190
100
AcDbEntity
  8
LAYER0001
  6
CONTINUOUS
 62
       7
100
AcDbLine
 10
535.03098768
 20
784.67293396
 30
0.0
 11
530.48001768
 21
787.21197396
 31
0.0
  0
LINE
  5
191
100
AcDbEntity
  8
LAYER0001
  6
CONTINUOUS
 62
       7
100
AcDbLine
 10
530.48001768
 20
787.21197396
 30
0.0
 11
525.61209768
 21
789.22390396
 31
0.0
  0
LINE
  5
192
100
AcDbEntity
  8
LAYER0001
  6
CONTINUOUS
 62
       7
100
AcDbLine
 10
525.61209768
 20
789.22390396
 30
0.0
 11
520.53057768
 21
791.02224396
 31
0.0
  0
LINE
  5
193
100
AcDbEntity
  8
LAYER0001
  6
CONTINUOUS
 62
       7
100
AcDbLine
 10
520.53057768
 20
791.02224396
 30
0.0
 11
515.34570768
 21
792.29348396
 31
0.0
  0
LINE
  5
194
100
AcDbEntity
  8
LAYER0001
  6
CONTINUOUS
 62
       7
100
AcDbLine
 10
515.34570768
 20
792.29348396
 30
0.0
 11
509.94724768
 21
793.13753396
 31
0.0
  0
LINE
  5
195
100
AcDbEntity
  8
LAYER0001
  6
CONTINUOUS
 62
       7
100
AcDbLine
 10
509.94724768
 20
793.13753396
 30
0.0
 11
504.54878768
 21
793.66807396
 31
0.0
  0
LINE
  5
196
100
AcDbEntity
  8
LAYER0001
  6
CONTINUOUS
 62
       7
100
AcDbLine
 10
504.54878768
 20
793.66807396
 30
0.0
 11
499.15376768
 21
793.88167396
 31
0.0
  0
ENDBLK
  5
197
100
AcDbEntity
  8
0
100
AcDbBlockEnd
  0
BLOCK
  5
198
100
AcDbEntity
  8
0
100
AcDbBlockBegin
  2
GROUP_13
 70
       0
 10
0.0
 20
0.0
 30
0.0
  3
GROUP_13
  1

  0
LINE
  5
199
100
AcDbEntity
  8
LAYER0001
  6
CONTINUOUS
 62
       7
100
AcDbLine
 10
562.23001768
 20
752.07544396
 30
0.0
 11
563.18086768
 21
750.80420396
 31
0.0
  0
LINE
  5
19A
100
AcDbEntity
  8
LAYER0001
  6
CONTINUOUS
 62
       7
100
AcDbLine
 10
563.18086768
 20
750.80420396
 30
0.0
 11
564.45210768
 21
749.96015396
 31
0.0
  0
LINE
  5
19B
100
AcDbEntity
  8
LAYER0001
  6
CONTINUOUS
 62
       7
100
AcDbLine
 10
564.45210768
 20
749.96015396
 30
0.0
 11
566.04028768
 21
749.53640396
 31
0.0
  0
ENDBLK
  5
19C
100
AcDbEntity
  8
0
100
AcDbBlockEnd
  0
BLOCK
  5
19D
100
AcDbEntity
  8
0
100
AcDbBlockBegin
  2
GROUP_14
 70
       0
 10
0.0
 20
0.0
 30
0.0
  3
GROUP_14
  1

  0
LINE
  5
19E
100
AcDbEntity
  8
LAYER0001
  6
CONTINUOUS
 62
       7
100
AcDbLine
 10
565.50974768
 20
281.66067139
 30
0.0
 11
564.24194768
 21
281.45051139
 31
0.0
  0
LINE
  5
19F
100
AcDbEntity
  8
LAYER0001
  6
CONTINUOUS
 62
       7
100
AcDbLine
 10
564.24194768
 20
281.45051139
 30
0.0
 11
563.07750768
 21
280.81662139
 31
0.0
  0
LINE
  5
1A0
100
AcDbEntity
  8
LAYER0001
  6
CONTINUOUS
 62
       7
100
AcDbLine
 10
563.07750768
 20
280.81662139
 30
0.0
 11
562.12321768
 21
279.96912139
 31
0.0
  0
ENDBLK
  5
1A1
100
AcDbEntity
  8
0
100
AcDbBlockEnd
  0
BLOCK
  5
1A2
100
AcDbEntity
  8
0
100
AcDbBlockBegin
  2
GROUP_15
 70
       0
 10
0.0
 20
0.0
 30
0.0
  3
GROUP_15
  1

  0
LINE
  5
1A3
100
AcDbEntity
  8
LAYER0001
  6
CONTINUOUS
 62
       7
100
AcDbLine
 10
569.10986768
 20
747.52447396
 30
0.0
 11
569.00307768
 21
748.26516396
 31
0.0
  0
LINE
  5
1A4
100
AcDbEntity
  8
LAYER0001
  6
CONTINUOUS
 62
       7
100
AcDbLine
 10
569.00307768
 20
748.26516396
 30
0.0
 11
568.57932768
 21
748.90250396
 31
0.0
  0
LINE
  5
1A5
100
AcDbEntity
  8
LAYER0001
  6
CONTINUOUS
 62
       7
100
AcDbLine
 10
568.57932768
 20
748.90250396
 30
0.0
 11
567.94542768
 21
749.32281396
 31
0.0
  0
LINE
  5
1A6
100
AcDbEntity
  8
LAYER0001
  6
CONTINUOUS
 62
       7
100
AcDbLine
 10
567.94542768
 20
749.32281396
 30
0.0
 11
567.20473768
 21
749.53640396
 31
0.0
  0
ENDBLK
  5
1A7
100
AcDbEntity
  8
0
100
AcDbBlockEnd
  0
BLOCK
  5
1A8
100
AcDbEntity
  8
0
100
AcDbBlockBegin
  2
GROUP_16
 70
       0
 10
0.0
 20
0.0
 30
0.0
  3
GROUP_16
  1

  0
LINE
  5
1A9
100
AcDbEntity
  8
LAYER0001
  6
CONTINUOUS
 62
       7
100
AcDbLine
 10
567.20473768
 20
281.76746139
 30
0.0
 11
567.94542768
 21
281.97761139
 31
0.0
  0
LINE
  5
1AA
100
AcDbEntity
  8
LAYER0001
  6
CONTINUOUS
 62
       7
100
AcDbLine
 10
567.94542768
 20
281.97761139
 30
0.0
 11
568.57932768
 21
282.40136139
 31
0.0
  0
LINE
  5
1AB
100
AcDbEntity
  8
LAYER0001
  6
CONTINUOUS
 62
       7
100
AcDbLine
 10
568.57932768
 20
282.40136139
 30
0.0
 11
569.00307768
 21
283.03870139
 31
0.0
  0
LINE
  5
1AC
100
AcDbEntity
  8
LAYER0001
  6
CONTINUOUS
 62
       7
100
AcDbLine
 10
569.00307768
 20
283.03870139
 30
0.0
 11
569.10986768
 21
283.77940139
 31
0.0
  0
ENDBLK
  5
1AD
100
AcDbEntity
  8
0
100
AcDbBlockEnd
  0
BLOCK
  5
1AE
100
AcDbEntity
  8
0
100
AcDbBlockBegin
  2
DA_IMAGEDIMGROUP_10
 70
       0
 10
0.0
 20
0.0
 30
0.0
  3
DA_IMAGEDIMGROUP_10
  1

  0
LINE
  5
1AF
100
AcDbEntity
  8
0
  6
CONTINUOUS
 62
       7
100
AcDbLine
 10
103.73653445
 20
285.86138667
 30
0.0
 11
207.81242473
 21
466.12611647
 31
0.0
  0
INSERT
  5
1B0
100
AcDbEntity
  8
0
  6
CONTINUOUS
 62
       7
100
AcDbBlockReference
  2
_OPEN30
 10
103.73653445
 20
285.86138667
 30
0.0
 41
24.0000223
 42
23.99991419
 50
240.0
  0
INSERT
  5
1B1
100
AcDbEntity
  8
0
  6
CONTINUOUS
 62
       7
100
AcDbBlockReference
  2
_OPEN30
 10
207.81242473
 20
466.12611647
 30
0.0
 41
24.0000223
 42
23.99991419
 50
60.0
  0
LINE
  5
1B2
100
AcDbEntity
  8
0
  6
CONTINUOUS
 62
       7
100
AcDbLine
 10
-232.44412053
 20
479.95537832
 30
0.0
 11
110.66473768
 21
281.86138667
 31
0.0
  0
LINE
  5
1B3
100
AcDbEntity
  8
0
  6
CONTINUOUS
 62
       7
100
AcDbLine
 10
-128.36823026
 20
660.22010812
 30
0.0
 11
214.74062796
 21
462.12611647
 31
0.0
  0
TEXT
  5
1B4
100
AcDbEntity
  8
0
 62
       7
100
AcDbText
 10
129.64627636
 20
346.73837607
 30
0.0
 40
32.0
  1
208
 50
60.0
 41
0.8
 72
       5
 11
168.04627636
 21
413.24912708
 31
0.0
100
AcDbText
  0
ENDBLK
  5
1B5
100
AcDbEntity
  8
0
100
AcDbBlockEnd
  0
BLOCK
  5
1B6
100
AcDbEntity
  8
0
100
AcDbBlockBegin
  2
DA_IMAGEDIMGROUP_11
 70
       0
 10
0.0
 20
0.0
 30
0.0
  3
DA_IMAGEDIMGROUP_11
  1

  0
LINE
  5
1B7
100
AcDbEntity
  8
0
  6
CONTINUOUS
 62
       7
100
AcDbLine
 10
397.10986768
 20
703.08954325
 30
0.0
 11
397.10986768
 21
847.16314597
 31
0.0
  0
LINE
  5
1B8
100
AcDbEntity
  8
0
  6
CONTINUOUS
 62
       7
100
AcDbLine
 10
569.00307768
 20
756.26516396
 30
0.0
 11
569.00307768
 21
847.16314597
 31
0.0
  0
LINE
  5
1B9
100
AcDbEntity
  8
0
  6
CONTINUOUS
 62
       7
100
AcDbLine
 10
397.10986768
 20
839.16314597
 30
0.0
 11
569.00307768
 21
839.16314597
 31
0.0
  0
INSERT
  5
1BA
100
AcDbEntity
  8
0
  6
CONTINUOUS
 62
       7
100
AcDbBlockReference
  2
_OPEN30
 10
397.10986768
 20
839.16314597
 30
0.0
 41
24.0000223
 42
23.99991419
 50
180.0
  0
INSERT
  5
1BB
100
AcDbEntity
  8
0
  6
CONTINUOUS
 62
       7
100
AcDbBlockReference
  2
_OPEN30
 10
569.00307768
 20
839.16314597
 30
0.0
 41
24.0000223
 42
23.99991419
 50
360.0
  0
TEXT
  5
1BC
100
AcDbEntity
  8
0
 62
       7
100
AcDbText
 10
444.65647268
 20
847.16314597
 30
0.0
 40
32.0
  1
172
 41
0.8
 72
       5
 11
521.45647268
 21
847.16314597
 31
0.0
100
AcDbText
  0
ENDBLK
  5
1BD
100
AcDbEntity
  8
0
100
AcDbBlockEnd
  0
BLOCK
  5
1BE
100
AcDbEntity
  8
0
100
AcDbBlockBegin
  2
DA_IMAGEDIMGROUP_12
 70
       0
 10
0.0
 20
0.0
 30
0.0
  3
DA_IMAGEDIMGROUP_12
  1

  0
LINE
  5
1BF
100
AcDbEntity
  8
0
  6
CONTINUOUS
 62
       7
100
AcDbLine
 10
409.10986768
 20
189.04351765
 30
0.0
 11
569.10986768
 21
189.04351765
 31
0.0
  0
INSERT
  5
1C0
100
AcDbEntity
  8
0
  6
CONTINUOUS
 62
       7
100
AcDbBlockReference
  2
_OPEN30
 10
409.10986768
 20
189.04351765
 30
0.0
 41
24.0000223
 42
23.99991419
 50
180.0
  0
INSERT
  5
1C1
100
AcDbEntity
  8
0
  6
CONTINUOUS
 62
       7
100
AcDbBlockReference
  2
_OPEN30
 10
569.10986768
 20
189.04351765
 30
0.0
 41
24.0000223
 42
23.99991419
 50
360.0
  0
LINE
  5
1C2
100
AcDbEntity
  8
0
  6
CONTINUOUS
 62
       7
100
AcDbLine
 10
409.10986768
 20
289.36042375
 30
0.0
 11
409.10986768
 21
181.04351765
 31
0.0
  0
LINE
  5
1C3
100
AcDbEntity
  8
0
  6
CONTINUOUS
 62
       7
100
AcDbLine
 10
569.10986768
 20
275.77940139
 30
0.0
 11
569.10986768
 21
181.04351765
 31
0.0
  0
TEXT
  5
1C4
100
AcDbEntity
  8
0
 62
       7
100
AcDbText
 10
450.70986768
 20
197.04351765
 30
0.0
 40
32.0
  1
160
 41
0.8
 72
       5
 11
527.50986768
 21
197.04351765
 31
0.0
100
AcDbText
  0
ENDBLK
  5
1C5
100
AcDbEntity
  8
0
100
AcDbBlockEnd
  0
BLOCK
  5
1C6
100
AcDbEntity
  8
0
100
AcDbBlockBegin
  2
DA_IMAGEDIMGROUP_13
 70
       0
 10
0.0
 20
0.0
 30
0.0
  3
DA_IMAGEDIMGROUP_13
  1

  0
LINE
  5
1C7
100
AcDbEntity
  8
0
  6
CONTINUOUS
 62
       7
100
AcDbLine
 10
403.47805119
 20
464.22016354
 30
0.0
 11
523.47805119
 21
464.22016354
 31
0.0
  0
LINE
  5
1C8
100
AcDbEntity
  8
0
  6
CONTINUOUS
 62
       7
100
AcDbLine
 10
403.47805119
 20
476.02187478
 30
0.0
 11
403.47805119
 21
456.22016354
 31
0.0
  0
LINE
  5
1C9
100
AcDbEntity
  8
0
  6
CONTINUOUS
 62
       7
100
AcDbLine
 10
301.54834593
 20
464.22016354
 30
0.0
 11
403.47805119
 21
464.22016354
 31
0.0
  0
INSERT
  5
1CA
100
AcDbEntity
  8
0
  6
CONTINUOUS
 62
       7
100
AcDbBlockReference
  2
_OPEN30
 10
403.47805119
 20
464.22016354
 30
0.0
 41
24.0000223
 42
23.99991419
 50
360.0
  0
LINE
  5
1CB
100
AcDbEntity
  8
0
  6
CONTINUOUS
 62
       7
100
AcDbLine
 10
553.47805119
 20
464.22016354
 30
0.0
 11
523.47805119
 21
464.22016354
 31
0.0
  0
INSERT
  5
1CC
100
AcDbEntity
  8
0
  6
CONTINUOUS
 62
       7
100
AcDbBlockReference
  2
_OPEN30
 10
523.47805119
 20
464.22016354
 30
0.0
 41
24.0000223
 42
23.99991419
 50
180.0
  0
TEXT
  5
1CD
100
AcDbEntity
  8
0
 62
       7
100
AcDbText
 10
288.34834593
 20
470.22016354
 30
0.0
 40
32.0
  1
120
 41
0.8
 72
       5
 11
365.14834593
 21
470.22016354
 31
0.0
100
AcDbText
  0
ENDBLK
  5
1CE
100
AcDbEntity
  8
0
100
AcDbBlockEnd
  0
BLOCK
  5
1CF
100
AcDbEntity
  8
0
100
AcDbBlockBegin
  2
DA_IMAGEDIMGROUP_14
 70
       0
 10
0.0
 20
0.0
 30
0.0
  3
DA_IMAGEDIMGROUP_14
  1

  0
LINE
  5
1D0
100
AcDbEntity
  8
0
  6
CONTINUOUS
 62
       7
100
AcDbLine
 10
577.10986768
 20
747.52447396
 30
0.0
 11
683.02814606
 21
747.52447396
 31
0.0
  0
LINE
  5
1D1
100
AcDbEntity
  8
0
  6
CONTINUOUS
 62
       7
100
AcDbLine
 10
577.10986768
 20
283.77940139
 30
0.0
 11
683.02814606
 21
283.77940139
 31
0.0
  0
LINE
  5
1D2
100
AcDbEntity
  8
0
  6
CONTINUOUS
 62
       7
100
AcDbLine
 10
675.02814606
 20
747.52447396
 30
0.0
 11
675.02814606
 21
283.77940139
 31
0.0
  0
INSERT
  5
1D3
100
AcDbEntity
  8
0
  6
CONTINUOUS
 62
       7
100
AcDbBlockReference
  2
_OPEN30
 10
675.02814606
 20
747.52447396
 30
0.0
 41
24.0000223
 42
23.99991419
 50
90.0
  0
INSERT
  5
1D4
100
AcDbEntity
  8
0
  6
CONTINUOUS
 62
       7
100
AcDbBlockReference
  2
_OPEN30
 10
675.02814606
 20
283.77940139
 30
0.0
 41
24.0000223
 42
23.99991419
 50
270.0
  0
TEXT
  5
1D5
100
AcDbEntity
  8
0
 62
       7
100
AcDbText
 10
667.02814606
 20
477.25193767
 30
0.0
 40
32.0
  1
474
 50
90.0
 41
0.8
 72
       5
 11
667.02814606
 21
554.05193767
 31
0.0
100
AcDbText
  0
ENDBLK
  5
1D6
100
AcDbEntity
  8
0
100
AcDbBlockEnd
  0
BLOCK
  5
1D7
100
AcDbEntity
  8
0
100
AcDbBlockBegin
  2
DA_IMAGEDIMGROUP_15
 70
       0
 10
0.0
 20
0.0
 30
0.0
  3
DA_IMAGEDIMGROUP_15
  1

  0
LINE
  5
1D8
100
AcDbEntity
  8
0
  6
CONTINUOUS
 62
       7
100
AcDbLine
 10
-362.37232376
 20
189.04351765
 30
0.0
 11
-239.37232376
 21
189.04351765
 31
0.0
  0
INSERT
  5
1D9
100
AcDbEntity
  8
0
  6
CONTINUOUS
 62
       7
100
AcDbBlockReference
  2
_OPEN30
 10
-362.37232376
 20
189.04351765
 30
0.0
 41
24.0000223
 42
23.99991419
 50
180.0
  0
INSERT
  5
1DA
100
AcDbEntity
  8
0
  6
CONTINUOUS
 62
       7
100
AcDbBlockReference
  2
_OPEN30
 10
-239.37232376
 20
189.04351765
 30
0.0
 41
24.0000223
 42
23.99991419
 50
360.0
  0
LINE
  5
1DB
100
AcDbEntity
  8
0
  6
CONTINUOUS
 62
       7
100
AcDbLine
 10
-239.37232376
 20
189.04351765
 30
0.0
 11
-19.37232376
 21
189.04351765
 31
0.0
  0
INSERT
  5
1DC
100
AcDbEntity
  8
0
  6
CONTINUOUS
 62
       7
100
AcDbBlockReference
  2
_OPEN30
 10
-239.37232376
 20
189.04351765
 30
0.0
 41
24.0000223
 42
23.99991419
 50
180.0
  0
INSERT
  5
1DD
100
AcDbEntity
  8
0
  6
CONTINUOUS
 62
       7
100
AcDbBlockReference
  2
_OPEN30
 10
-19.37232376
 20
189.04351765
 30
0.0
 41
24.0000223
 42
23.99991419
 50
360.0
  0
LINE
  5
1DE
100
AcDbEntity
  8
0
  6
CONTINUOUS
 62
       7
100
AcDbLine
 10
-362.37232376
 20
310.00635147
 30
0.0
 11
-362.37232376
 21
183.04351765
 31
0.0
  0
LINE
  5
1DF
100
AcDbEntity
  8
0
  6
CONTINUOUS
 62
       7
100
AcDbLine
 10
-239.37232376
 20
211.96596446
 30
0.0
 11
-239.37232376
 21
183.04351765
 31
0.0
  0
LINE
  5
1E0
100
AcDbEntity
  8
0
  6
CONTINUOUS
 62
       7
100
AcDbLine
 10
-19.37232376
 20
467.64394577
 30
0.0
 11
-19.37232376
 21
183.04351765
 31
0.0
  0
TEXT
  5
1E1
100
AcDbEntity
  8
0
 62
       7
100
AcDbText
 10
-367.86953564
 20
195.04351765
 30
0.0
 40
32.0
  1
(123)
 41
0.8
 72
       5
 11
-239.86953564
 21
195.04351765
 31
0.0
100
AcDbText
  0
TEXT
  5
1E2
100
AcDbEntity
  8
0
 62
       7
100
AcDbText
 10
-193.37232376
 20
197.04351765
 30
0.0
 40
32.0
  1
(220)
 41
0.8
 72
       5
 11
-65.37232376
 21
197.04351765
 31
0.0
100
AcDbText
  0
ENDBLK
  5
1E3
100
AcDbEntity
  8
0
100
AcDbBlockEnd
  0
BLOCK
  5
1E4
100
AcDbEntity
  8
0
100
AcDbBlockBegin
  2
DA_IMAGEDIMGROUP_16
 70
       0
 10
0.0
 20
0.0
 30
0.0
  3
DA_IMAGEDIMGROUP_16
  1

  0
LINE
  5
1E5
100
AcDbEntity
  8
0
  6
CONTINUOUS
 62
       7
100
AcDbLine
 10
-523.11903454
 20
350.02187478
 30
0.0
 11
-523.11903454
 21
484.02187478
 31
0.0
  0
INSERT
  5
1E6
100
AcDbEntity
  8
0
  6
CONTINUOUS
 62
       7
100
AcDbBlockReference
  2
_OPEN30
 10
-523.11903454
 20
350.02187478
 30
0.0
 41
24.0000223
 42
23.99991419
 50
270.0
  0
INSERT
  5
1E7
100
AcDbEntity
  8
0
  6
CONTINUOUS
 62
       7
100
AcDbBlockReference
  2
_OPEN30
 10
-523.11903454
 20
484.02187478
 30
0.0
 41
24.0000223
 42
23.99991419
 50
90.0
  0
LINE
  5
1E8
100
AcDbEntity
  8
0
  6
CONTINUOUS
 62
       7
100
AcDbLine
 10
-523.11903454
 20
484.02187478
 30
0.0
 11
-523.11903454
 21
701.02187478
 31
0.0
  0
INSERT
  5
1E9
100
AcDbEntity
  8
0
  6
CONTINUOUS
 62
       7
100
AcDbBlockReference
  2
_OPEN30
 10
-523.11903454
 20
484.02187478
 30
0.0
 41
24.0000223
 42
23.99991419
 50
270.0
  0
INSERT
  5
1EA
100
AcDbEntity
  8
0
  6
CONTINUOUS
 62
       7
100
AcDbBlockReference
  2
_OPEN30
 10
-523.11903454
 20
701.02187478
 30
0.0
 41
24.0000223
 42
23.99991419
 50
90.0
  0
LINE
  5
1EB
100
AcDbEntity
  8
0
  6
CONTINUOUS
 62
       7
100
AcDbLine
 10
-405.35507331
 20
350.02187478
 30
0.0
 11
-531.11903454
 21
350.02187478
 31
0.0
  0
LINE
  5
1EC
100
AcDbEntity
  8
0
  6
CONTINUOUS
 62
       7
100
AcDbLine
 10
-308.87934622
 20
484.02187478
 30
0.0
 11
-531.11903454
 21
484.02187478
 31
0.0
  0
LINE
  5
1ED
100
AcDbEntity
  8
0
  6
CONTINUOUS
 62
       7
100
AcDbLine
 10
-360.85456497
 20
701.02187478
 30
0.0
 11
-531.11903454
 21
701.02187478
 31
0.0
  0
TEXT
  5
1EE
100
AcDbEntity
  8
0
 62
       7
100
AcDbText
 10
-531.11903454
 20
353.02187478
 30
0.0
 40
32.0
  1
(134)
 50
90.0
 41
0.8
 72
       5
 11
-531.11903454
 21
481.02187478
 31
0.0
100
AcDbText
  0
TEXT
  5
1EF
100
AcDbEntity
  8
0
 62
       7
100
AcDbText
 10
-531.11903454
 20
528.52187478
 30
0.0
 40
32.0
  1
(217)
 50
90.0
 41
0.8
 72
       5
 11
-531.11903454
 21
656.52187478
 31
0.0
100
AcDbText
  0
ENDBLK
  5
1F0
100
AcDbEntity
  8
0
100
AcDbBlockEnd
  0
BLOCK
  5
1F1
100
AcDbEntity
  8
0
100
AcDbBlockBegin
  2
DA_IMAGEDIMGROUP_17
 70
       0
 10
0.0
 20
0.0
 30
0.0
  3
DA_IMAGEDIMGROUP_17
  1

  0
LINE
  5
1F2
100
AcDbEntity
  8
0
  6
CONTINUOUS
 62
       7
100
AcDbLine
 10
100.475568
 20
484.02187478
 30
0.0
 11
100.475568
 21
504.02187478
 31
0.0
  0
LINE
  5
1F3
100
AcDbEntity
  8
0
  6
CONTINUOUS
 62
       7
100
AcDbLine
 10
-168.58367277
 20
484.02187478
 30
0.0
 11
108.475568
 21
484.02187478
 31
0.0
  0
LINE
  5
1F4
100
AcDbEntity
  8
0
  6
CONTINUOUS
 62
       7
100
AcDbLine
 10
11.66054798
 20
504.02187478
 30
0.0
 11
108.475568
 21
504.02187478
 31
0.0
  0
LINE
  5
1F5
100
AcDbEntity
  8
0
  6
CONTINUOUS
 62
       7
100
AcDbLine
 10
100.475568
 20
650.64514884
 30
0.0
 11
100.475568
 21
504.02187478
 31
0.0
  0
INSERT
  5
1F6
100
AcDbEntity
  8
0
  6
CONTINUOUS
 62
       7
100
AcDbBlockReference
  2
_OPEN30
 10
100.475568
 20
504.02187478
 30
0.0
 41
24.0000223
 42
23.99991419
 50
270.0
  0
LINE
  5
1F7
100
AcDbEntity
  8
0
  6
CONTINUOUS
 62
       7
100
AcDbLine
 10
100.475568
 20
454.02187478
 30
0.0
 11
100.475568
 21
484.02187478
 31
0.0
  0
INSERT
  5
1F8
100
AcDbEntity
  8
0
  6
CONTINUOUS
 62
       7
100
AcDbBlockReference
  2
_OPEN30
 10
100.475568
 20
484.02187478
 30
0.0
 41
24.0000223
 42
23.99991419
 50
90.0
  0
TEXT
  5
1F9
100
AcDbEntity
  8
0
 62
       7
100
AcDbText
 10
94.475568
 20
567.84514884
 30
0.0
 40
32.0
  1
(20)
 50
90.0
 41
0.8
 72
       5
 11
94.475568
 21
670.24514884
 31
0.0
100
AcDbText
  0
ENDBLK
  5
1FA
100
AcDbEntity
  8
0
100
AcDbBlockEnd
  0
BLOCK
  5
1FB
100
AcDbEntity
  8
0
100
AcDbBlockBegin
  2
DA_IMAGEDIMGROUP_18
 70
       0
 10
0.0
 20
0.0
 30
0.0
  3
DA_IMAGEDIMGROUP_18
  1

  0
LINE
  5
1FC
100
AcDbEntity
  8
0
  6
CONTINUOUS
 62
       7
100
AcDbLine
 10
-319.37232376
 20
739.13252788
 30
0.0
 11
-319.37232376
 21
846.22455826
 31
0.0
  0
LINE
  5
1FD
100
AcDbEntity
  8
0
  6
CONTINUOUS
 62
       7
100
AcDbLine
 10
-239.37232376
 20
823.7977057
 30
0.0
 11
-239.37232376
 21
846.22455826
 31
0.0
  0
LINE
  5
1FE
100
AcDbEntity
  8
0
  6
CONTINUOUS
 62
       7
100
AcDbLine
 10
-319.37232376
 20
838.22455826
 30
0.0
 11
-239.37232376
 21
838.22455826
 31
0.0
  0
INSERT
  5
1FF
100
AcDbEntity
  8
0
  6
CONTINUOUS
 62
       7
100
AcDbBlockReference
  2
_OPEN30
 10
-319.37232376
 20
838.22455826
 30
0.0
 41
24.0000223
 42
23.99991419
 50
180.0
  0
INSERT
  5
200
100
AcDbEntity
  8
0
  6
CONTINUOUS
 62
       7
100
AcDbBlockReference
  2
_OPEN30
 10
-239.37232376
 20
838.22455826
 30
0.0
 41
24.0000223
 42
23.99991419
 50
360.0
  0
TEXT
  5
201
100
AcDbEntity
  8
0
 62
       7
100
AcDbText
 10
-330.57232376
 20
846.22455826
 30
0.0
 40
32.0
  1
(80)
 41
0.8
 72
       5
 11
-228.17232376
 21
846.22455826
 31
0.0
100
AcDbText
  0
ENDBLK
  5
202
100
AcDbEntity
  8
0
100
AcDbBlockEnd
  0
BLOCK
  5
203
100
AcDbEntity
  8
0
100
AcDbBlockBegin
  2
GROUP_17
 70
       0
 10
0.0
 20
0.0
 30
0.0
  3
GROUP_17
  1

  0
LINE
  5
204
100
AcDbEntity
  8
0
  6
CONTINUOUS
 62
       7
100
AcDbLine
 10
-319.37232376
 20
701.02187478
 30
0.0
 11
-504.90779757
 21
863.02664886
 31
0.0
  0
INSERT
  5
205
100
AcDbEntity
  8
0
  6
CONTINUOUS
 62
       7
100
AcDbBlockReference
  2
_OPEN30
 10
-319.37232376
 20
701.02187478
 30
0.0
 41
24.0000223
 42
23.99991419
 50
318.87337957
  0
LINE
  5
206
100
AcDbEntity
  8
0
  6
CONTINUOUS
 62
       7
100
AcDbLine
 10
-504.90779757
 20
863.02664886
 30
0.0
 11
-658.50779757
 21
863.02664886
 31
0.0
  0
TEXT
  5
207
100
AcDbEntity
  8
0
 62
       7
100
AcDbText
 10
-658.50779757
 20
863.02664886
 30
0.0
 40
32.0
  1
ビス取付位置
 41
0.6667
 72
       5
 11
-504.90779757
 21
863.02664886
 31
0.0
100
AcDbText
  0
ENDBLK
  5
208
100
AcDbEntity
  8
0
100
AcDbBlockEnd
  0
BLOCK
  5
209
100
AcDbEntity
  8
0
100
AcDbBlockBegin
  2
GROUP_18
 70
       0
 10
0.0
 20
0.0
 30
0.0
  3
GROUP_18
  1

  0
INSERT
  5
20A
100
AcDbEntity
  8
0
  6
CONTINUOUS
100
AcDbBlockReference
  2
GROUP_19
 10
0.0
 20
0.0
 30
0.0
  0
INSERT
  5
20B
100
AcDbEntity
  8
0
  6
CONTINUOUS
100
AcDbBlockReference
  2
GROUP_20
 10
0.0
 20
0.0
 30
0.0
  0
INSERT
  5
20C
100
AcDbEntity
  8
0
  6
CONTINUOUS
100
AcDbBlockReference
  2
GROUP_21
 10
0.0
 20
0.0
 30
0.0
  0
INSERT
  5
20D
100
AcDbEntity
  8
0
  6
CONTINUOUS
100
AcDbBlockReference
  2
GROUP_22
 10
0.0
 20
0.0
 30
0.0
  0
INSERT
  5
20E
100
AcDbEntity
  8
0
  6
CONTINUOUS
100
AcDbBlockReference
  2
GROUP_23
 10
0.0
 20
0.0
 30
0.0
  0
INSERT
  5
20F
100
AcDbEntity
  8
0
  6
CONTINUOUS
100
AcDbBlockReference
  2
GROUP_24
 10
0.0
 20
0.0
 30
0.0
  0
LINE
  5
210
100
AcDbEntity
  8
LAYER0001
  6
CONTINUOUS
 62
       7
100
AcDbLine
 10
4.43532624
 20
-201.04857185
 30
0.0
 11
-438.68664376
 21
-201.04857185
 31
0.0
  0
LINE
  5
211
100
AcDbEntity
  8
LAYER0001
  6
CONTINUOUS
 62
       7
100
AcDbLine
 10
-438.68664376
 20
-201.04857185
 30
0.0
 11
-448.95302376
 21
-201.04857185
 31
0.0
  0
LINE
  5
212
100
AcDbEntity
  8
LAYER0001
  6
CONTINUOUS
 62
       7
100
AcDbLine
 10
6.44725624
 20
-197.97899185
 30
0.0
 11
6.44725624
 21
-199.14344185
 31
0.0
  0
LINE
  5
213
100
AcDbEntity
  8
LAYER0001
  6
CONTINUOUS
 62
       7
100
AcDbLine
 10
-450.96496376
 20
-199.14344185
 30
0.0
 11
-451.07175376
 21
-197.44845185
 31
0.0
  0
ENDBLK
  5
214
100
AcDbEntity
  8
0
100
AcDbBlockEnd
  0
BLOCK
  5
215
100
AcDbEntity
  8
0
100
AcDbBlockBegin
  2
GROUP_19
 70
       0
 10
0.0
 20
0.0
 30
0.0
  3
GROUP_19
  1

  0
LINE
  5
216
100
AcDbEntity
  8
LAYER0001
  6
CONTINUOUS
 62
       7
100
AcDbLine
 10
-479.22163376
 20
-131.09247185
 30
0.0
 11
-479.11483376
 21
-135.74679185
 31
0.0
  0
LINE
  5
217
100
AcDbEntity
  8
LAYER0001
  6
CONTINUOUS
 62
       7
100
AcDbLine
 10
-479.11483376
 20
-135.74679185
 30
0.0
 11
-478.79788376
 21
-140.40456185
 31
0.0
  0
LINE
  5
218
100
AcDbEntity
  8
LAYER0001
  6
CONTINUOUS
 62
       7
100
AcDbLine
 10
-478.79788376
 20
-140.40456185
 30
0.0
 11
-477.31649376
 21
-149.61330185
 31
0.0
  0
LINE
  5
219
100
AcDbEntity
  8
LAYER0001
  6
CONTINUOUS
 62
       7
100
AcDbLine
 10
-477.31649376
 20
-149.61330185
 30
0.0
 11
-475.09441376
 21
-158.60844185
 31
0.0
  0
LINE
  5
21A
100
AcDbEntity
  8
LAYER0001
  6
CONTINUOUS
 62
       7
100
AcDbLine
 10
-475.09441376
 20
-158.60844185
 30
0.0
 11
-473.71981376
 21
-162.94582185
 31
0.0
  0
LINE
  5
21B
100
AcDbEntity
  8
LAYER0001
  6
CONTINUOUS
 62
       7
100
AcDbLine
 10
-473.71981376
 20
-162.94582185
 30
0.0
 11
-472.13162376
 21
-167.17984185
 31
0.0
  0
LINE
  5
21C
100
AcDbEntity
  8
LAYER0001
  6
CONTINUOUS
 62
       7
100
AcDbLine
 10
-472.13162376
 20
-167.17984185
 30
0.0
 11
-470.33328376
 21
-171.30707185
 31
0.0
  0
LINE
  5
21D
100
AcDbEntity
  8
LAYER0001
  6
CONTINUOUS
 62
       7
100
AcDbLine
 10
-470.33328376
 20
-171.30707185
 30
0.0
 11
-468.42815376
 21
-175.33094185
 31
0.0
  0
LINE
  5
21E
100
AcDbEntity
  8
LAYER0001
  6
CONTINUOUS
 62
       7
100
AcDbLine
 10
-468.42815376
 20
-175.33094185
 30
0.0
 11
-466.20606376
 21
-179.14121185
 31
0.0
  0
LINE
  5
21F
100
AcDbEntity
  8
LAYER0001
  6
CONTINUOUS
 62
       7
100
AcDbLine
 10
-466.20606376
 20
-179.14121185
 30
0.0
 11
-463.77038376
 21
-182.73789185
 31
0.0
  0
LINE
  5
220
100
AcDbEntity
  8
LAYER0001
  6
CONTINUOUS
 62
       7
100
AcDbLine
 10
-463.77038376
 20
-182.73789185
 30
0.0
 11
-461.12454376
 21
-186.12442185
 31
0.0
  0
LINE
  5
221
100
AcDbEntity
  8
LAYER0001
  6
CONTINUOUS
 62
       7
100
AcDbLine
 10
-461.12454376
 20
-186.12442185
 30
0.0
 11
-458.37191376
 21
-189.08720185
 31
0.0
  0
LINE
  5
222
100
AcDbEntity
  8
LAYER0001
  6
CONTINUOUS
 62
       7
100
AcDbLine
 10
-458.37191376
 20
-189.08720185
 30
0.0
 11
-455.51593376
 21
-191.83983185
 31
0.0
  0
LINE
  5
223
100
AcDbEntity
  8
LAYER0001
  6
CONTINUOUS
 62
       7
100
AcDbLine
 10
-455.51593376
 20
-191.83983185
 30
0.0
 11
-452.76330376
 21
-194.06192185
 31
0.0
  0
ENDBLK
  5
224
100
AcDbEntity
  8
0
100
AcDbBlockEnd
  0
BLOCK
  5
225
100
AcDbEntity
  8
0
100
AcDbBlockBegin
  2
GROUP_20
 70
       0
 10
0.0
 20
0.0
 30
0.0
  3
GROUP_20
  1

  0
LINE
  5
226
100
AcDbEntity
  8
LAYER0001
  6
CONTINUOUS
 62
       7
100
AcDbLine
 10
8.98629624
 20
-194.16872185
 30
0.0
 11
12.58641624
 21
-192.37038185
 31
0.0
  0
LINE
  5
227
100
AcDbEntity
  8
LAYER0001
  6
CONTINUOUS
 62
       7
100
AcDbLine
 10
12.58641624
 20
-192.37038185
 30
0.0
 11
16.39669624
 21
-190.25165185
 31
0.0
  0
LINE
  5
228
100
AcDbEntity
  8
LAYER0001
  6
CONTINUOUS
 62
       7
100
AcDbLine
 10
16.39669624
 20
-190.25165185
 30
0.0
 11
20.31032624
 21
-187.92276185
 31
0.0
  0
LINE
  5
229
100
AcDbEntity
  8
LAYER0001
  6
CONTINUOUS
 62
       7
100
AcDbLine
 10
20.31032624
 20
-187.92276185
 30
0.0
 11
24.22739624
 21
-185.27693185
 31
0.0
  0
LINE
  5
22A
100
AcDbEntity
  8
LAYER0001
  6
CONTINUOUS
 62
       7
100
AcDbLine
 10
24.22739624
 20
-185.27693185
 30
0.0
 11
28.14102624
 21
-182.31415185
 31
0.0
  0
LINE
  5
22B
100
AcDbEntity
  8
LAYER0001
  6
CONTINUOUS
 62
       7
100
AcDbLine
 10
28.14102624
 20
-182.31415185
 30
0.0
 11
31.84794624
 21
-178.92762185
 31
0.0
  0
LINE
  5
22C
100
AcDbEntity
  8
LAYER0001
  6
CONTINUOUS
 62
       7
100
AcDbLine
 10
31.84794624
 20
-178.92762185
 30
0.0
 11
35.44462624
 21
-175.33094185
 31
0.0
  0
LINE
  5
22D
100
AcDbEntity
  8
LAYER0001
  6
CONTINUOUS
 62
       7
100
AcDbLine
 10
35.44462624
 20
-175.33094185
 30
0.0
 11
38.62100624
 21
-171.30707185
 31
0.0
  0
LINE
  5
22E
100
AcDbEntity
  8
LAYER0001
  6
CONTINUOUS
 62
       7
100
AcDbLine
 10
38.62100624
 20
-171.30707185
 30
0.0
 11
41.58378624
 21
-166.96969185
 31
0.0
  0
LINE
  5
22F
100
AcDbEntity
  8
LAYER0001
  6
CONTINUOUS
 62
       7
100
AcDbLine
 10
41.58378624
 20
-166.96969185
 30
0.0
 11
44.12282624
 21
-162.41872185
 31
0.0
  0
LINE
  5
230
100
AcDbEntity
  8
LAYER0001
  6
CONTINUOUS
 62
       7
100
AcDbLine
 10
44.12282624
 20
-162.41872185
 30
0.0
 11
46.13475624
 21
-157.55080185
 31
0.0
  0
LINE
  5
231
100
AcDbEntity
  8
LAYER0001
  6
CONTINUOUS
 62
       7
100
AcDbLine
 10
46.13475624
 20
-157.55080185
 30
0.0
 11
47.93309624
 21
-152.46928185
 31
0.0
  0
LINE
  5
232
100
AcDbEntity
  8
LAYER0001
  6
CONTINUOUS
 62
       7
100
AcDbLine
 10
47.93309624
 20
-152.46928185
 30
0.0
 11
49.20433624
 21
-147.28441185
 31
0.0
  0
LINE
  5
233
100
AcDbEntity
  8
LAYER0001
  6
CONTINUOUS
 62
       7
100
AcDbLine
 10
49.20433624
 20
-147.28441185
 30
0.0
 11
50.04838624
 21
-141.88595185
 31
0.0
  0
LINE
  5
234
100
AcDbEntity
  8
LAYER0001
  6
CONTINUOUS
 62
       7
100
AcDbLine
 10
50.04838624
 20
-141.88595185
 30
0.0
 11
50.57892624
 21
-136.48749185
 31
0.0
  0
LINE
  5
235
100
AcDbEntity
  8
LAYER0001
  6
CONTINUOUS
 62
       7
100
AcDbLine
 10
50.57892624
 20
-136.48749185
 30
0.0
 11
50.79252624
 21
-131.09247185
 31
0.0
  0
ENDBLK
  5
236
100
AcDbEntity
  8
0
100
AcDbBlockEnd
  0
BLOCK
  5
237
100
AcDbEntity
  8
0
100
AcDbBlockBegin
  2
GROUP_21
 70
       0
 10
0.0
 20
0.0
 30
0.0
  3
GROUP_21
  1

  0
LINE
  5
238
100
AcDbEntity
  8
LAYER0001
  6
CONTINUOUS
 62
       7
100
AcDbLine
 10
8.98629624
 20
-194.16872185
 30
0.0
 11
7.71505624
 21
-195.11957185
 31
0.0
  0
LINE
  5
239
100
AcDbEntity
  8
LAYER0001
  6
CONTINUOUS
 62
       7
100
AcDbLine
 10
7.71505624
 20
-195.11957185
 30
0.0
 11
6.87100624
 21
-196.39081185
 31
0.0
  0
LINE
  5
23A
100
AcDbEntity
  8
LAYER0001
  6
CONTINUOUS
 62
       7
100
AcDbLine
 10
6.87100624
 20
-196.39081185
 30
0.0
 11
6.44725624
 21
-197.97899185
 31
0.0
  0
ENDBLK
  5
23B
100
AcDbEntity
  8
0
100
AcDbBlockEnd
  0
BLOCK
  5
23C
100
AcDbEntity
  8
0
100
AcDbBlockBegin
  2
GROUP_22
 70
       0
 10
0.0
 20
0.0
 30
0.0
  3
GROUP_22
  1

  0
LINE
  5
23D
100
AcDbEntity
  8
LAYER0001
  6
CONTINUOUS
 62
       7
100
AcDbLine
 10
-451.07175376
 20
-197.44845185
 30
0.0
 11
-451.28191376
 21
-196.18065185
 31
0.0
  0
LINE
  5
23E
100
AcDbEntity
  8
LAYER0001
  6
CONTINUOUS
 62
       7
100
AcDbLine
 10
-451.28191376
 20
-196.18065185
 30
0.0
 11
-451.91580376
 21
-195.01621185
 31
0.0
  0
LINE
  5
23F
100
AcDbEntity
  8
LAYER0001
  6
CONTINUOUS
 62
       7
100
AcDbLine
 10
-451.91580376
 20
-195.01621185
 30
0.0
 11
-452.76330376
 21
-194.06192185
 31
0.0
  0
ENDBLK
  5
240
100
AcDbEntity
  8
0
100
AcDbBlockEnd
  0
BLOCK
  5
241
100
AcDbEntity
  8
0
100
AcDbBlockBegin
  2
GROUP_23
 70
       0
 10
0.0
 20
0.0
 30
0.0
  3
GROUP_23
  1

  0
LINE
  5
242
100
AcDbEntity
  8
LAYER0001
  6
CONTINUOUS
 62
       7
100
AcDbLine
 10
4.43532624
 20
-201.04857185
 30
0.0
 11
5.17601624
 21
-200.94178185
 31
0.0
  0
LINE
  5
243
100
AcDbEntity
  8
LAYER0001
  6
CONTINUOUS
 62
       7
100
AcDbLine
 10
5.17601624
 20
-200.94178185
 30
0.0
 11
5.81335624
 21
-200.51803185
 31
0.0
  0
LINE
  5
244
100
AcDbEntity
  8
LAYER0001
  6
CONTINUOUS
 62
       7
100
AcDbLine
 10
5.81335624
 20
-200.51803185
 30
0.0
 11
6.23366624
 21
-199.88413185
 31
0.0
  0
LINE
  5
245
100
AcDbEntity
  8
LAYER0001
  6
CONTINUOUS
 62
       7
100
AcDbLine
 10
6.23366624
 20
-199.88413185
 30
0.0
 11
6.44725624
 21
-199.14344185
 31
0.0
  0
ENDBLK
  5
246
100
AcDbEntity
  8
0
100
AcDbBlockEnd
  0
BLOCK
  5
247
100
AcDbEntity
  8
0
100
AcDbBlockBegin
  2
GROUP_24
 70
       0
 10
0.0
 20
0.0
 30
0.0
  3
GROUP_24
  1

  0
LINE
  5
248
100
AcDbEntity
  8
LAYER0001
  6
CONTINUOUS
 62
       7
100
AcDbLine
 10
-450.96496376
 20
-199.14344185
 30
0.0
 11
-450.75481376
 21
-199.88413185
 31
0.0
  0
LINE
  5
249
100
AcDbEntity
  8
LAYER0001
  6
CONTINUOUS
 62
       7
100
AcDbLine
 10
-450.75481376
 20
-199.88413185
 30
0.0
 11
-450.33106376
 21
-200.51803185
 31
0.0
  0
LINE
  5
24A
100
AcDbEntity
  8
LAYER0001
  6
CONTINUOUS
 62
       7
100
AcDbLine
 10
-450.33106376
 20
-200.51803185
 30
0.0
 11
-449.69372376
 21
-200.94178185
 31
0.0
  0
LINE
  5
24B
100
AcDbEntity
  8
LAYER0001
  6
CONTINUOUS
 62
       7
100
AcDbLine
 10
-449.69372376
 20
-200.94178185
 30
0.0
 11
-448.95302376
 21
-201.04857185
 31
0.0
  0
ENDBLK
  5
24C
100
AcDbEntity
  8
0
100
AcDbBlockEnd
  0
BLOCK
  5
24D
100
AcDbEntity
  8
0
100
AcDbBlockBegin
  2
GROUP_25
 70
       0
 10
0.0
 20
0.0
 30
0.0
  3
GROUP_25
  1

  0
INSERT
  5
24E
100
AcDbEntity
  8
0
  6
CONTINUOUS
100
AcDbBlockReference
  2
GROUP_26
 10
0.0
 20
0.0
 30
0.0
  0
INSERT
  5
24F
100
AcDbEntity
  8
0
  6
CONTINUOUS
100
AcDbBlockReference
  2
GROUP_27
 10
0.0
 20
0.0
 30
0.0
  0
ENDBLK
  5
250
100
AcDbEntity
  8
0
100
AcDbBlockEnd
  0
BLOCK
  5
251
100
AcDbEntity
  8
0
100
AcDbBlockBegin
  2
GROUP_26
 70
       0
 10
0.0
 20
0.0
 30
0.0
  3
GROUP_26
  1

  0
LINE
  5
252
100
AcDbEntity
  8
LAYER0001
  6
CONTINUOUS
 62
       7
100
AcDbLine
 10
50.79252624
 20
-131.09246185
 30
0.0
 11
50.47213624
 21
-124.95330185
 31
0.0
  0
LINE
  5
253
100
AcDbEntity
  8
LAYER0001
  6
CONTINUOUS
 62
       7
100
AcDbLine
 10
50.47213624
 20
-124.95330185
 30
0.0
 11
49.62808624
 21
-118.92094185
 31
0.0
  0
LINE
  5
254
100
AcDbEntity
  8
LAYER0001
  6
CONTINUOUS
 62
       7
100
AcDbLine
 10
49.62808624
 20
-118.92094185
 30
0.0
 11
48.46363624
 21
-112.99537185
 31
0.0
  0
LINE
  5
255
100
AcDbEntity
  8
LAYER0001
  6
CONTINUOUS
 62
       7
100
AcDbLine
 10
48.46363624
 20
-112.99537185
 30
0.0
 11
46.76865624
 21
-107.06636185
 31
0.0
  0
LINE
  5
256
100
AcDbEntity
  8
LAYER0001
  6
CONTINUOUS
 62
       7
100
AcDbLine
 10
46.76865624
 20
-107.06636185
 30
0.0
 11
44.75671624
 21
-101.35095185
 31
0.0
  0
LINE
  5
257
100
AcDbEntity
  8
LAYER0001
  6
CONTINUOUS
 62
       7
100
AcDbLine
 10
44.75671624
 20
-101.35095185
 30
0.0
 11
42.21768624
 21
-95.74233185
 31
0.0
  0
LINE
  5
258
100
AcDbEntity
  8
LAYER0001
  6
CONTINUOUS
 62
       7
100
AcDbLine
 10
42.21768624
 20
-95.74233185
 30
0.0
 11
39.36169624
 21
-90.34731185
 31
0.0
  0
LINE
  5
259
100
AcDbEntity
  8
LAYER0001
  6
CONTINUOUS
 62
       7
100
AcDbLine
 10
39.36169624
 20
-90.34731185
 30
0.0
 11
36.07852624
 21
-85.26580185
 31
0.0
  0
ENDBLK
  5
25A
100
AcDbEntity
  8
0
100
AcDbBlockEnd
  0
BLOCK
  5
25B
100
AcDbEntity
  8
0
100
AcDbBlockBegin
  2
GROUP_27
 70
       0
 10
0.0
 20
0.0
 30
0.0
  3
GROUP_27
  1

  0
LINE
  5
25C
100
AcDbEntity
  8
LAYER0001
  6
CONTINUOUS
 62
       7
100
AcDbLine
 10
7.18795624
 20
-53.19885185
 30
0.0
 11
0.62504624
 21
-48.75468185
 31
0.0
  0
LINE
  5
25D
100
AcDbEntity
  8
LAYER0001
  6
CONTINUOUS
 62
       7
100
AcDbLine
 10
0.62504624
 20
-48.75468185
 30
0.0
 11
-6.25481376
 21
-44.62401185
 31
0.0
  0
LINE
  5
25E
100
AcDbEntity
  8
LAYER0001
  6
CONTINUOUS
 62
       7
100
AcDbLine
 10
-6.25481376
 20
-44.62401185
 30
0.0
 11
-13.23802376
 21
-40.92053185
 31
0.0
  0
LINE
  5
25F
100
AcDbEntity
  8
LAYER0001
  6
CONTINUOUS
 62
       7
100
AcDbLine
 10
-13.23802376
 20
-40.92053185
 30
0.0
 11
-20.43482376
 21
-37.64080185
 31
0.0
  0
LINE
  5
260
100
AcDbEntity
  8
LAYER0001
  6
CONTINUOUS
 62
       7
100
AcDbLine
 10
-20.43482376
 20
-37.64080185
 30
0.0
 11
-27.84178376
 21
-34.67802185
 31
0.0
  0
LINE
  5
261
100
AcDbEntity
  8
LAYER0001
  6
CONTINUOUS
 62
       7
100
AcDbLine
 10
-27.84178376
 20
-34.67802185
 30
0.0
 11
-35.35897376
 21
-32.13898185
 31
0.0
  0
LINE
  5
262
100
AcDbEntity
  8
LAYER0001
  6
CONTINUOUS
 62
       7
100
AcDbLine
 10
-35.35897376
 20
-32.13898185
 30
0.0
 11
-43.08288376
 21
-30.12705185
 31
0.0
  0
LINE
  5
263
100
AcDbEntity
  8
LAYER0001
  6
CONTINUOUS
 62
       7
100
AcDbLine
 10
-43.08288376
 20
-30.12705185
 30
0.0
 11
-50.81023376
 21
-28.43206185
 31
0.0
  0
LINE
  5
264
100
AcDbEntity
  8
LAYER0001
  6
CONTINUOUS
 62
       7
100
AcDbLine
 10
-50.81023376
 20
-28.43206185
 30
0.0
 11
-58.64093376
 21
-27.16426185
 31
0.0
  0
LINE
  5
265
100
AcDbEntity
  8
LAYER0001
  6
CONTINUOUS
 62
       7
100
AcDbLine
 10
-58.64093376
 20
-27.16426185
 30
0.0
 11
-66.57843376
 21
-26.31677185
 31
0.0
  0
LINE
  5
266
100
AcDbEntity
  8
LAYER0001
  6
CONTINUOUS
 62
       7
100
AcDbLine
 10
-66.57843376
 20
-26.31677185
 30
0.0
 11
-74.51593376
 21
-25.99982185
 31
0.0
  0
ENDBLK
  5
267
100
AcDbEntity
  8
0
100
AcDbBlockEnd
  0
BLOCK
  5
268
100
AcDbEntity
  8
0
100
AcDbBlockBegin
  2
GROUP_28
 70
       0
 10
0.0
 20
0.0
 30
0.0
  3
GROUP_28
  1

  0
LINE
  5
269
100
AcDbEntity
  8
LAYER0001
  6
CONTINUOUS
 62
       7
100
AcDbLine
 10
-470.43664376
 20
-88.33539185
 30
0.0
 11
-473.08247376
 21
-96.69663185
 31
0.0
  0
LINE
  5
26A
100
AcDbEntity
  8
LAYER0001
  6
CONTINUOUS
 62
       7
100
AcDbLine
 10
-473.08247376
 20
-96.69663185
 30
0.0
 11
-475.30800376
 21
-105.16123185
 31
0.0
  0
LINE
  5
26B
100
AcDbEntity
  8
LAYER0001
  6
CONTINUOUS
 62
       7
100
AcDbLine
 10
-475.30800376
 20
-105.16123185
 30
0.0
 11
-477.10634376
 21
-113.73607185
 31
0.0
  0
LINE
  5
26C
100
AcDbEntity
  8
LAYER0001
  6
CONTINUOUS
 62
       7
100
AcDbLine
 10
-477.10634376
 20
-113.73607185
 30
0.0
 11
-478.48093376
 21
-122.30747185
 31
0.0
  0
LINE
  5
26D
100
AcDbEntity
  8
LAYER0001
  6
CONTINUOUS
 62
       7
100
AcDbLine
 10
-478.48093376
 20
-122.30747185
 30
0.0
 11
-479.22163376
 21
-131.09247185
 31
0.0
  0
ENDBLK
  5
26E
100
AcDbEntity
  8
0
100
AcDbBlockEnd
  0
BLOCK
  5
26F
100
AcDbEntity
  8
0
100
AcDbBlockBegin
  2
GROUP_29
 70
       0
 10
0.0
 20
0.0
 30
0.0
  3
GROUP_29
  1

  0
LINE
  5
270
100
AcDbEntity
  8
LAYER0001
  6
CONTINUOUS
 62
       7
100
AcDbLine
 10
-74.51593376
 20
-25.99983185
 30
0.0
 11
-111.76774376
 21
-24.20149185
 31
0.0
  0
LINE
  5
271
100
AcDbEntity
  8
LAYER0001
  6
CONTINUOUS
 62
       7
100
AcDbLine
 10
-111.76774376
 20
-24.20149185
 30
0.0
 11
-148.91621376
 21
-22.82345185
 31
0.0
  0
LINE
  5
272
100
AcDbEntity
  8
LAYER0001
  6
CONTINUOUS
 62
       7
100
AcDbLine
 10
-148.91621376
 20
-22.82345185
 30
0.0
 11
-186.17147376
 21
-21.97596185
 31
0.0
  0
LINE
  5
273
100
AcDbEntity
  8
LAYER0001
  6
CONTINUOUS
 62
       7
100
AcDbLine
 10
-186.17147376
 20
-21.97596185
 30
0.0
 11
-223.42329376
 21
-21.55565185
 31
0.0
  0
LINE
  5
274
100
AcDbEntity
  8
LAYER0001
  6
CONTINUOUS
 62
       7
100
AcDbLine
 10
-223.42329376
 20
-21.55565185
 30
0.0
 11
-260.67511376
 21
-21.55565185
 31
0.0
  0
LINE
  5
275
100
AcDbEntity
  8
LAYER0001
  6
CONTINUOUS
 62
       7
100
AcDbLine
 10
-260.67511376
 20
-21.55565185
 30
0.0
 11
-297.93037376
 21
-21.97596185
 31
0.0
  0
LINE
  5
276
100
AcDbEntity
  8
LAYER0001
  6
CONTINUOUS
 62
       7
100
AcDbLine
 10
-297.93037376
 20
-21.97596185
 30
0.0
 11
-335.18219376
 21
-22.82345185
 31
0.0
  0
LINE
  5
277
100
AcDbEntity
  8
LAYER0001
  6
CONTINUOUS
 62
       7
100
AcDbLine
 10
-335.18219376
 20
-22.82345185
 30
0.0
 11
-372.43745376
 21
-24.20149185
 31
0.0
  0
LINE
  5
278
100
AcDbEntity
  8
LAYER0001
  6
CONTINUOUS
 62
       7
100
AcDbLine
 10
-372.43745376
 20
-24.20149185
 30
0.0
 11
-409.58247376
 21
-25.99983185
 31
0.0
  0
LINE
  5
279
100
AcDbEntity
  8
LAYER0001
  6
CONTINUOUS
 62
       7
100
AcDbLine
 10
-409.58247376
 20
-25.99983185
 30
0.0
 11
-415.93522376
 21
-28.85581185
 31
0.0
  0
LINE
  5
27A
100
AcDbEntity
  8
LAYER0001
  6
CONTINUOUS
 62
       7
100
AcDbLine
 10
-415.93522376
 20
-28.85581185
 30
0.0
 11
-421.96759376
 21
-32.03219185
 31
0.0
  0
LINE
  5
27B
100
AcDbEntity
  8
LAYER0001
  6
CONTINUOUS
 62
       7
100
AcDbLine
 10
-421.96759376
 20
-32.03219185
 30
0.0
 11
-427.78635376
 21
-35.62887185
 31
0.0
  0
LINE
  5
27C
100
AcDbEntity
  8
LAYER0001
  6
CONTINUOUS
 62
       7
100
AcDbLine
 10
-427.78635376
 20
-35.62887185
 30
0.0
 11
-433.50177376
 21
-39.54594185
 31
0.0
  0
LINE
  5
27D
100
AcDbEntity
  8
LAYER0001
  6
CONTINUOUS
 62
       7
100
AcDbLine
 10
-433.50177376
 20
-39.54594185
 30
0.0
 11
-438.90023376
 21
-43.88332185
 31
0.0
  0
LINE
  5
27E
100
AcDbEntity
  8
LAYER0001
  6
CONTINUOUS
 62
       7
100
AcDbLine
 10
-438.90023376
 20
-43.88332185
 30
0.0
 11
-443.97830376
 21
-48.54109185
 31
0.0
  0
LINE
  5
27F
100
AcDbEntity
  8
LAYER0001
  6
CONTINUOUS
 62
       7
100
AcDbLine
 10
-443.97830376
 20
-48.54109185
 30
0.0
 11
-448.74287376
 21
-53.40901185
 31
0.0
  0
LINE
  5
280
100
AcDbEntity
  8
LAYER0001
  6
CONTINUOUS
 62
       7
100
AcDbLine
 10
-448.74287376
 20
-53.40901185
 30
0.0
 11
-453.29384376
 21
-58.70067185
 31
0.0
  0
LINE
  5
281
100
AcDbEntity
  8
LAYER0001
  6
CONTINUOUS
 62
       7
100
AcDbLine
 10
-453.29384376
 20
-58.70067185
 30
0.0
 11
-457.42106376
 21
-64.20594185
 31
0.0
  0
LINE
  5
282
100
AcDbEntity
  8
LAYER0001
  6
CONTINUOUS
 62
       7
100
AcDbLine
 10
-457.42106376
 20
-64.20594185
 30
0.0
 11
-461.23134376
 21
-69.92135185
 31
0.0
  0
LINE
  5
283
100
AcDbEntity
  8
LAYER0001
  6
CONTINUOUS
 62
       7
100
AcDbLine
 10
-461.23134376
 20
-69.92135185
 30
0.0
 11
-464.61787376
 21
-75.84691185
 31
0.0
  0
LINE
  5
284
100
AcDbEntity
  8
LAYER0001
  6
CONTINUOUS
 62
       7
100
AcDbLine
 10
-464.61787376
 20
-75.84691185
 30
0.0
 11
-467.68745376
 21
-81.98607185
 31
0.0
  0
LINE
  5
285
100
AcDbEntity
  8
LAYER0001
  6
CONTINUOUS
 62
       7
100
AcDbLine
 10
-467.68745376
 20
-81.98607185
 30
0.0
 11
-470.43664376
 21
-88.33539185
 31
0.0
  0
ENDBLK
  5
286
100
AcDbEntity
  8
0
100
AcDbBlockEnd
  0
BLOCK
  5
287
100
AcDbEntity
  8
0
100
AcDbBlockBegin
  2
GROUP_30
 70
       0
 10
0.0
 20
0.0
 30
0.0
  3
GROUP_30
  1

  0
LINE
  5
288
100
AcDbEntity
  8
LAYER0001
  6
CONTINUOUS
 62
       7
100
AcDbLine
 10
-409.37232376
 20
-26.84732185
 30
0.0
 11
-409.90286376
 21
-28.43207185
 31
0.0
  0
LINE
  5
289
100
AcDbEntity
  8
LAYER0001
  6
CONTINUOUS
 62
       7
100
AcDbLine
 10
-409.90286376
 20
-28.43207185
 30
0.0
 11
-410.00622376
 21
-30.12705185
 31
0.0
  0
LINE
  5
28A
100
AcDbEntity
  8
LAYER0001
  6
CONTINUOUS
 62
       7
100
AcDbLine
 10
-410.00622376
 20
-30.12705185
 30
0.0
 11
-409.68927376
 21
-31.81859185
 31
0.0
  0
LINE
  5
28B
100
AcDbEntity
  8
LAYER0001
  6
CONTINUOUS
 62
       7
100
AcDbLine
 10
-409.68927376
 20
-31.81859185
 30
0.0
 11
-408.94857376
 21
-33.29999185
 31
0.0
  0
LINE
  5
28C
100
AcDbEntity
  8
LAYER0001
  6
CONTINUOUS
 62
       7
100
AcDbLine
 10
-408.94857376
 20
-33.29999185
 30
0.0
 11
-407.78413376
 21
-34.57123185
 31
0.0
  0
LINE
  5
28D
100
AcDbEntity
  8
LAYER0001
  6
CONTINUOUS
 62
       7
100
AcDbLine
 10
-407.78413376
 20
-34.57123185
 30
0.0
 11
-406.40954376
 21
-35.52552185
 31
0.0
  0
LINE
  5
28E
100
AcDbEntity
  8
LAYER0001
  6
CONTINUOUS
 62
       7
100
AcDbLine
 10
-406.40954376
 20
-35.52552185
 30
0.0
 11
-404.82135376
 21
-36.15941185
 31
0.0
  0
ENDBLK
  5
28F
100
AcDbEntity
  8
0
100
AcDbBlockEnd
  0
BLOCK
  5
290
100
AcDbEntity
  8
0
100
AcDbBlockBegin
  2
GROUP_31
 70
       0
 10
0.0
 20
0.0
 30
0.0
  3
GROUP_31
  1

  0
LINE
  5
291
100
AcDbEntity
  8
LAYER0001
  6
CONTINUOUS
 62
       7
100
AcDbLine
 10
36.07852624
 20
-85.26581185
 30
0.0
 11
32.16489624
 21
-79.12665185
 31
0.0
  0
LINE
  5
292
100
AcDbEntity
  8
LAYER0001
  6
CONTINUOUS
 62
       7
100
AcDbLine
 10
32.16489624
 20
-79.12665185
 30
0.0
 11
27.93087624
 21
-73.30788185
 31
0.0
  0
LINE
  5
293
100
AcDbEntity
  8
LAYER0001
  6
CONTINUOUS
 62
       7
100
AcDbLine
 10
27.93087624
 20
-73.30788185
 30
0.0
 11
23.27310624
 21
-67.80262185
 31
0.0
  0
LINE
  5
294
100
AcDbEntity
  8
LAYER0001
  6
CONTINUOUS
 62
       7
100
AcDbLine
 10
23.27310624
 20
-67.80262185
 30
0.0
 11
18.19503624
 21
-62.51095185
 31
0.0
  0
LINE
  5
295
100
AcDbEntity
  8
LAYER0001
  6
CONTINUOUS
 62
       7
100
AcDbLine
 10
18.19503624
 20
-62.51095185
 30
0.0
 11
12.90336624
 21
-57.64303185
 31
0.0
  0
LINE
  5
296
100
AcDbEntity
  8
LAYER0001
  6
CONTINUOUS
 62
       7
100
AcDbLine
 10
12.90336624
 20
-57.64303185
 30
0.0
 11
7.18795624
 21
-53.19886185
 31
0.0
  0
ENDBLK
  5
297
100
AcDbEntity
  8
0
100
AcDbBlockEnd
  0
BLOCK
  5
298
100
AcDbEntity
  8
0
100
AcDbBlockBegin
  2
DA_IMAGEDIMGROUP_19
 70
       0
 10
0.0
 20
0.0
 30
0.0
  3
DA_IMAGEDIMGROUP_19
  1

  0
LINE
  5
299
100
AcDbEntity
  8
0
  6
CONTINUOUS
 62
       7
100
AcDbLine
 10
196.67425856
 20
-231.04857185
 30
0.0
 11
196.67425856
 21
-201.04857185
 31
0.0
  0
LINE
  5
29A
100
AcDbEntity
  8
0
  6
CONTINUOUS
 62
       7
100
AcDbLine
 10
117.45536537
 20
-231.04857185
 30
0.0
 11
204.67425856
 21
-231.04857185
 31
0.0
  0
LINE
  5
29B
100
AcDbEntity
  8
0
  6
CONTINUOUS
 62
       7
100
AcDbLine
 10
117.45536537
 20
-201.04857185
 30
0.0
 11
204.67425856
 21
-201.04857185
 31
0.0
  0
LINE
  5
29C
100
AcDbEntity
  8
0
  6
CONTINUOUS
 62
       7
100
AcDbLine
 10
196.67425856
 20
-390.43525185
 30
0.0
 11
196.67425856
 21
-231.04857185
 31
0.0
  0
INSERT
  5
29D
100
AcDbEntity
  8
0
  6
CONTINUOUS
 62
       7
100
AcDbBlockReference
  2
_OPEN30
 10
196.67425856
 20
-231.04857185
 30
0.0
 41
24.0000223
 42
23.99991419
 50
90.0
  0
LINE
  5
29E
100
AcDbEntity
  8
0
  6
CONTINUOUS
 62
       7
100
AcDbLine
 10
196.67425856
 20
-171.04857185
 30
0.0
 11
196.67425856
 21
-201.04857185
 31
0.0
  0
INSERT
  5
29F
100
AcDbEntity
  8
0
  6
CONTINUOUS
 62
       7
100
AcDbBlockReference
  2
_OPEN30
 10
196.67425856
 20
-201.04857185
 30
0.0
 41
24.0000223
 42
23.99991419
 50
270.0
  0
TEXT
  5
2A0
100
AcDbEntity
  8
0
 62
       7
100
AcDbText
 10
190.67425856
 20
-382.43525185
 30
0.0
 40
32.0
  1
22～40
 50
90.0
 41
0.8
 72
       5
 11
190.67425856
 21
-254.43525185
 31
0.0
100
AcDbText
  0
ENDBLK
  5
2A1
100
AcDbEntity
  8
0
100
AcDbBlockEnd
  0
BLOCK
  5
2A2
100
AcDbEntity
  8
0
100
AcDbBlockBegin
  2
DA_IMAGEDIMGROUP_20
 70
       0
 10
0.0
 20
0.0
 30
0.0
  3
DA_IMAGEDIMGROUP_20
  1

  0
LINE
  5
2A3
100
AcDbEntity
  8
0
  6
CONTINUOUS
 62
       7
100
AcDbLine
 10
-448.95302376
 20
-347.25878018
 30
0.0
 11
4.43532624
 21
-347.25878018
 31
0.0
  0
INSERT
  5
2A4
100
AcDbEntity
  8
0
  6
CONTINUOUS
 62
       7
100
AcDbBlockReference
  2
_OPEN30
 10
-448.95302376
 20
-347.25878018
 30
0.0
 41
24.0000223
 42
23.99991419
 50
180.0
  0
INSERT
  5
2A5
100
AcDbEntity
  8
0
  6
CONTINUOUS
 62
       7
100
AcDbBlockReference
  2
_OPEN30
 10
4.43532624
 20
-347.25878018
 30
0.0
 41
24.0000223
 42
23.99991419
 50
360.0
  0
LINE
  5
2A6
100
AcDbEntity
  8
0
  6
CONTINUOUS
 62
       7
100
AcDbLine
 10
-448.95302376
 20
-209.04857185
 30
0.0
 11
-448.95302376
 21
-353.25878018
 31
0.0
  0
LINE
  5
2A7
100
AcDbEntity
  8
0
  6
CONTINUOUS
 62
       7
100
AcDbLine
 10
4.43532624
 20
-209.04857185
 30
0.0
 11
4.43532624
 21
-353.25878018
 31
0.0
  0
TEXT
  5
2A8
100
AcDbEntity
  8
0
 62
       7
100
AcDbText
 10
-260.65884876
 20
-339.25878018
 30
0.0
 40
32.0
  1
460
 41
0.8
 72
       5
 11
-183.85884876
 21
-339.25878018
 31
0.0
100
AcDbText
  0
ENDBLK
  5
2A9
100
AcDbEntity
  8
0
100
AcDbBlockEnd
  0
BLOCK
  5
2AA
100
AcDbEntity
  8
0
100
AcDbBlockBegin
  2
DA_IMAGEDIMGROUP_21
 70
       0
 10
0.0
 20
0.0
 30
0.0
  3
DA_IMAGEDIMGROUP_21
  1

  0
LINE
  5
2AB
100
AcDbEntity
  8
0
  6
CONTINUOUS
 62
       7
100
AcDbLine
 10
-231.37232376
 20
-201.04857185
 30
0.0
 11
-81.28638887
 21
-201.04857185
 31
0.0
  0
LINE
  5
2AC
100
AcDbEntity
  8
0
  6
CONTINUOUS
 62
       7
100
AcDbLine
 10
-199.87232376
 20
-176.41675536
 30
0.0
 11
-81.28638887
 21
-176.41675536
 31
0.0
  0
LINE
  5
2AD
100
AcDbEntity
  8
0
  6
CONTINUOUS
 62
       7
100
AcDbLine
 10
-89.28638887
 20
-201.04857185
 30
0.0
 11
-89.28638887
 21
-176.41675536
 31
0.0
  0
LINE
  5
2AE
100
AcDbEntity
  8
0
  6
CONTINUOUS
 62
       7
100
AcDbLine
 10
-89.28638887
 20
-317.03079168
 30
0.0
 11
-89.28638887
 21
-201.04857185
 31
0.0
  0
INSERT
  5
2AF
100
AcDbEntity
  8
0
  6
CONTINUOUS
 62
       7
100
AcDbBlockReference
  2
_OPEN30
 10
-89.28638887
 20
-201.04857185
 30
0.0
 41
24.0000223
 42
23.99991419
 50
90.0
  0
LINE
  5
2B0
100
AcDbEntity
  8
0
  6
CONTINUOUS
 62
       7
100
AcDbLine
 10
-89.28638887
 20
-136.41675536
 30
0.0
 11
-89.28638887
 21
-176.41675536
 31
0.0
  0
INSERT
  5
2B1
100
AcDbEntity
  8
0
  6
CONTINUOUS
 62
       7
100
AcDbBlockReference
  2
_OPEN30
 10
-89.28638887
 20
-176.41675536
 30
0.0
 41
24.0000223
 42
23.99991419
 50
270.0
  0
TEXT
  5
2B2
100
AcDbEntity
  8
0
 62
       7
100
AcDbText
 10
-97.28638887
 20
-309.03079168
 30
0.0
 40
32.0
  1
28
 50
90.0
 41
0.8
 72
       5
 11
-97.28638887
 21
-257.83079168
 31
0.0
100
AcDbText
  0
ENDBLK
  5
2B3
100
AcDbEntity
  8
0
100
AcDbBlockEnd
  0
ENDSEC
  0
SECTION
  2
ENTITIES
  0
LINE
  5
2B4
100
AcDbEntity
  8
ZUWAKU
  6
CONTINUOUS
 62
       7
100
AcDbLine
 10
-453.26666667
 20
-1108.63101302
 30
0.0
 11
-448.76666667
 21
-1096.13101302
 31
0.0
  0
LINE
  5
2B5
100
AcDbEntity
  8
ZUWAKU
  6
CONTINUOUS
 62
       7
100
AcDbLine
 10
-486.56666667
 20
-1108.63101302
 30
0.0
 11
-479.56666667
 21
-1089.63101302
 31
0.0
  0
LINE
  5
2B6
100
AcDbEntity
  8
ZUWAKU
  6
CONTINUOUS
 62
       7
100
AcDbLine
 10
-493.06666667
 20
-1082.63101302
 30
0.0
 11
-495.56666667
 21
-1089.63101302
 31
0.0
  0
LINE
  5
2B7
100
AcDbEntity
  8
ZUWAKU
  6
CONTINUOUS
 62
       7
100
AcDbLine
 10
-470.06666667
 20
-1108.63101302
 30
0.0
 11
-462.56666667
 21
-1086.63101302
 31
0.0
  0
LINE
  5
2B8
100
AcDbEntity
  8
ZUWAKU
  6
CONTINUOUS
 62
       7
100
AcDbLine
 10
-365.16666667
 20
-1108.63101302
 30
0.0
 11
-373.66666667
 21
-1094.63101302
 31
0.0
  0
LINE
  5
2B9
100
AcDbEntity
  8
ZUWAKU
  6
CONTINUOUS
 62
       7
100
AcDbLine
 10
-493.06666667
 20
-1082.63101302
 30
0.0
 11
-483.56666667
 21
-1082.63101302
 31
0.0
  0
LINE
  5
2BA
100
AcDbEntity
  8
ZUWAKU
  6
CONTINUOUS
 62
       7
100
AcDbLine
 10
-442.26666667
 20
-1078.13101302
 30
0.0
 11
-425.76666667
 21
-1078.13101302
 31
0.0
  0
LINE
  5
2BB
100
AcDbEntity
  8
ZUWAKU
  6
CONTINUOUS
 62
       7
100
AcDbLine
 10
-406.76666667
 20
-1076.63101302
 30
0.0
 11
-401.76666667
 21
-1076.63101302
 31
0.0
  0
LINE
  5
2BC
100
AcDbEntity
  8
ZUWAKU
  6
CONTINUOUS
 62
       7
100
AcDbLine
 10
-438.76666667
 20
-1069.13101302
 30
0.0
 11
-442.26666667
 21
-1078.13101302
 31
0.0
  0
LINE
  5
2BD
100
AcDbEntity
  8
ZUWAKU
  6
CONTINUOUS
 62
       7
100
AcDbLine
 10
-422.76666667
 20
-1069.13101302
 30
0.0
 11
-425.76666667
 21
-1078.13101302
 31
0.0
  0
LINE
  5
2BE
100
AcDbEntity
  8
ZUWAKU
  6
CONTINUOUS
 62
       7
100
AcDbLine
 10
-486.56666667
 20
-1108.63101302
 30
0.0
 11
-470.06666667
 21
-1108.63101302
 31
0.0
  0
LINE
  5
2BF
100
AcDbEntity
  8
ZUWAKU
  6
CONTINUOUS
 62
       7
100
AcDbLine
 10
-461.06666667
 20
-1069.13101302
 30
0.0
 11
-442.56666667
 21
-1069.13101302
 31
0.0
  0
LINE
  5
2C0
100
AcDbEntity
  8
ZUWAKU
  6
CONTINUOUS
 62
       7
100
AcDbLine
 10
-379.50726154
 20
-1078.13101302
 30
0.0
 11
-397.16666667
 21
-1078.13101302
 31
0.0
  0
LINE
  5
2C1
100
AcDbEntity
  8
ZUWAKU
  6
CONTINUOUS
 62
       7
100
AcDbLine
 10
-360.16666667
 20
-1069.13101302
 30
0.0
 11
-394.16666667
 21
-1069.13101302
 31
0.0
  0
LINE
  5
2C2
100
AcDbEntity
  8
ZUWAKU
  6
CONTINUOUS
 62
       7
100
AcDbLine
 10
-495.56666667
 20
-1089.63101302
 30
0.0
 11
-479.56666667
 21
-1089.63101302
 31
0.0
  0
LINE
  5
2C3
100
AcDbEntity
  8
ZUWAKU
  6
CONTINUOUS
 62
       7
100
AcDbLine
 10
-453.26666667
 20
-1108.63101302
 30
0.0
 11
-426.76666667
 21
-1108.63101302
 31
0.0
  0
LINE
  5
2C4
100
AcDbEntity
  8
ZUWAKU
  6
CONTINUOUS
 62
       7
100
AcDbLine
 10
-448.76666667
 20
-1096.13101302
 30
0.0
 11
-424.76666667
 21
-1096.13101302
 31
0.0
  0
LINE
  5
2C5
100
AcDbEntity
  8
ZUWAKU
  6
CONTINUOUS
 62
       7
100
AcDbLine
 10
-365.16666667
 20
-1108.63101302
 30
0.0
 11
-377.66666667
 21
-1108.63101302
 31
0.0
  0
LINE
  5
2C6
100
AcDbEntity
  8
ZUWAKU
  6
CONTINUOUS
 62
       7
100
AcDbLine
 10
-397.16666667
 20
-1078.13101302
 30
0.0
 11
-394.16666667
 21
-1069.13101302
 31
0.0
  0
LINE
  5
2C7
100
AcDbEntity
  8
ZUWAKU
  6
CONTINUOUS
 62
       7
100
AcDbLine
 10
-571.06666667
 20
-1069.13101302
 30
0.0
 11
-579.56666667
 21
-1093.13101302
 31
0.0
  0
LINE
  5
2C8
100
AcDbEntity
  8
ZUWAKU
  6
CONTINUOUS
 62
       7
100
AcDbLine
 10
-579.56666667
 20
-1093.13101302
 30
0.0
 11
-568.06666667
 21
-1093.13101302
 31
0.0
  0
LINE
  5
2C9
100
AcDbEntity
  8
ZUWAKU
  6
CONTINUOUS
 62
       7
100
AcDbLine
 10
-568.06666667
 20
-1093.13101302
 30
0.0
 11
-559.06666667
 21
-1069.13101302
 31
0.0
  0
LINE
  5
2CA
100
AcDbEntity
  8
ZUWAKU
  6
CONTINUOUS
 62
       7
100
AcDbLine
 10
-559.06666667
 20
-1069.13101302
 30
0.0
 11
-571.06666667
 21
-1069.13101302
 31
0.0
  0
LINE
  5
2CB
100
AcDbEntity
  8
ZUWAKU
  6
CONTINUOUS
 62
       7
100
AcDbLine
 10
-418.76666667
 20
-1093.13101302
 30
0.0
 11
-413.26666667
 21
-1088.63101302
 31
0.0
  0
LINE
  5
2CC
100
AcDbEntity
  8
ZUWAKU
  6
CONTINUOUS
 62
       7
100
AcDbLine
 10
-413.26666667
 20
-1088.63101302
 30
0.0
 11
-409.26666667
 21
-1083.13101302
 31
0.0
  0
LINE
  5
2CD
100
AcDbEntity
  8
ZUWAKU
  6
CONTINUOUS
 62
       7
100
AcDbLine
 10
-409.26666667
 20
-1083.13101302
 30
0.0
 11
-406.76666667
 21
-1076.63101302
 31
0.0
  0
LINE
  5
2CE
100
AcDbEntity
  8
ZUWAKU
  6
CONTINUOUS
 62
       7
100
AcDbLine
 10
-529.96666667
 20
-1069.13101302
 30
0.0
 11
-493.46666667
 21
-1069.13101302
 31
0.0
  0
LINE
  5
2CF
100
AcDbEntity
  8
ZUWAKU
  6
CONTINUOUS
 62
       7
100
AcDbLine
 10
-493.46666667
 20
-1069.13101302
 30
0.0
 11
-496.46666667
 21
-1078.13101302
 31
0.0
  0
LINE
  5
2D0
100
AcDbEntity
  8
ZUWAKU
  6
CONTINUOUS
 62
       7
100
AcDbLine
 10
-493.46666667
 20
-1069.13101302
 30
0.0
 11
-496.46666667
 21
-1078.13101302
 31
0.0
  0
LINE
  5
2D1
100
AcDbEntity
  8
ZUWAKU
  6
CONTINUOUS
 62
       7
100
AcDbLine
 10
-496.46666667
 20
-1078.13101302
 30
0.0
 11
-532.96666667
 21
-1078.13101302
 31
0.0
  0
LINE
  5
2D2
100
AcDbEntity
  8
ZUWAKU
  6
CONTINUOUS
 62
       7
100
AcDbLine
 10
-532.96666667
 20
-1078.13101302
 30
0.0
 11
-529.96666667
 21
-1069.13101302
 31
0.0
  0
LINE
  5
2D3
100
AcDbEntity
  8
ZUWAKU
  6
CONTINUOUS
 62
       7
100
AcDbLine
 10
-532.96666667
 20
-1078.13101302
 30
0.0
 11
-529.96666667
 21
-1069.13101302
 31
0.0
  0
LINE
  5
2D4
100
AcDbEntity
  8
ZUWAKU
  6
CONTINUOUS
 62
       7
100
AcDbLine
 10
-493.46666667
 20
-1069.13101302
 30
0.0
 11
-529.96666667
 21
-1069.13101302
 31
0.0
  0
LINE
  5
2D5
100
AcDbEntity
  8
ZUWAKU
  6
CONTINUOUS
 62
       7
100
AcDbLine
 10
-529.96666667
 20
-1069.13101302
 30
0.0
 11
-532.96666667
 21
-1078.13101302
 31
0.0
  0
LINE
  5
2D6
100
AcDbEntity
  8
ZUWAKU
  6
CONTINUOUS
 62
       7
100
AcDbLine
 10
-532.96666667
 20
-1078.13101302
 30
0.0
 11
-496.46666667
 21
-1078.13101302
 31
0.0
  0
LINE
  5
2D7
100
AcDbEntity
  8
ZUWAKU
  6
CONTINUOUS
 62
       7
100
AcDbLine
 10
-514.46666667
 20
-1107.63101302
 30
0.0
 11
-510.46666667
 21
-1105.63101302
 31
0.0
  0
LINE
  5
2D8
100
AcDbEntity
  8
ZUWAKU
  6
CONTINUOUS
 62
       7
100
AcDbLine
 10
-510.46666667
 20
-1105.63101302
 30
0.0
 11
-507.46666667
 21
-1102.63101302
 31
0.0
  0
LINE
  5
2D9
100
AcDbEntity
  8
ZUWAKU
  6
CONTINUOUS
 62
       7
100
AcDbLine
 10
-507.46666667
 20
-1102.63101302
 30
0.0
 11
-503.96666667
 21
-1099.13101302
 31
0.0
  0
LINE
  5
2DA
100
AcDbEntity
  8
ZUWAKU
  6
CONTINUOUS
 62
       7
100
AcDbLine
 10
-503.96666667
 20
-1099.13101302
 30
0.0
 11
-497.96666667
 21
-1082.63101302
 31
0.0
  0
LINE
  5
2DB
100
AcDbEntity
  8
ZUWAKU
  6
CONTINUOUS
 62
       7
100
AcDbLine
 10
-497.96666667
 20
-1082.63101302
 30
0.0
 11
-533.96666667
 21
-1082.63101302
 31
0.0
  0
LINE
  5
2DC
100
AcDbEntity
  8
ZUWAKU
  6
CONTINUOUS
 62
       7
100
AcDbLine
 10
-533.96666667
 20
-1082.63101302
 30
0.0
 11
-535.96666667
 21
-1089.63101302
 31
0.0
  0
LINE
  5
2DD
100
AcDbEntity
  8
ZUWAKU
  6
CONTINUOUS
 62
       7
100
AcDbLine
 10
-535.96666667
 20
-1089.63101302
 30
0.0
 11
-514.96666667
 21
-1089.63101302
 31
0.0
  0
LINE
  5
2DE
100
AcDbEntity
  8
ZUWAKU
  6
CONTINUOUS
 62
       7
100
AcDbLine
 10
-514.96666667
 20
-1089.63101302
 30
0.0
 11
-515.96666667
 21
-1093.13101302
 31
0.0
  0
LINE
  5
2DF
100
AcDbEntity
  8
ZUWAKU
  6
CONTINUOUS
 62
       7
100
AcDbLine
 10
-515.96666667
 20
-1093.13101302
 30
0.0
 11
-518.46666667
 21
-1096.13101302
 31
0.0
  0
LINE
  5
2E0
100
AcDbEntity
  8
ZUWAKU
  6
CONTINUOUS
 62
       7
100
AcDbLine
 10
-518.46666667
 20
-1096.13101302
 30
0.0
 11
-520.96666667
 21
-1098.63101302
 31
0.0
  0
LINE
  5
2E1
100
AcDbEntity
  8
ZUWAKU
  6
CONTINUOUS
 62
       7
100
AcDbLine
 10
-520.96666667
 20
-1098.63101302
 30
0.0
 11
-524.46666667
 21
-1101.13101302
 31
0.0
  0
LINE
  5
2E2
100
AcDbEntity
  8
ZUWAKU
  6
CONTINUOUS
 62
       7
100
AcDbLine
 10
-524.46666667
 20
-1101.13101302
 30
0.0
 11
-540.96666667
 21
-1101.13101302
 31
0.0
  0
LINE
  5
2E3
100
AcDbEntity
  8
ZUWAKU
  6
CONTINUOUS
 62
       7
100
AcDbLine
 10
-540.96666667
 20
-1101.13101302
 30
0.0
 11
-543.96666667
 21
-1108.63101302
 31
0.0
  0
LINE
  5
2E4
100
AcDbEntity
  8
ZUWAKU
  6
CONTINUOUS
 62
       7
100
AcDbLine
 10
-576.06666667
 20
-1108.63101302
 30
0.0
 11
-573.56666667
 21
-1101.13101302
 31
0.0
  0
LINE
  5
2E5
100
AcDbEntity
  8
ZUWAKU
  6
CONTINUOUS
 62
       7
100
AcDbLine
 10
-573.56666667
 20
-1101.13101302
 30
0.0
 11
-569.06666667
 21
-1101.13101302
 31
0.0
  0
LINE
  5
2E6
100
AcDbEntity
  8
ZUWAKU
  6
CONTINUOUS
 62
       7
100
AcDbLine
 10
-569.06666667
 20
-1101.13101302
 30
0.0
 11
-565.06666667
 21
-1100.63101302
 31
0.0
  0
LINE
  5
2E7
100
AcDbEntity
  8
ZUWAKU
  6
CONTINUOUS
 62
       7
100
AcDbLine
 10
-565.06666667
 20
-1100.63101302
 30
0.0
 11
-561.06666667
 21
-1098.63101302
 31
0.0
  0
LINE
  5
2E8
100
AcDbEntity
  8
ZUWAKU
  6
CONTINUOUS
 62
       7
100
AcDbLine
 10
-561.06666667
 20
-1098.63101302
 30
0.0
 11
-558.56666667
 21
-1094.63101302
 31
0.0
  0
LINE
  5
2E9
100
AcDbEntity
  8
ZUWAKU
  6
CONTINUOUS
 62
       7
100
AcDbLine
 10
-558.56666667
 20
-1094.63101302
 30
0.0
 11
-549.06666667
 21
-1069.13101302
 31
0.0
  0
LINE
  5
2EA
100
AcDbEntity
  8
ZUWAKU
  6
CONTINUOUS
 62
       7
100
AcDbLine
 10
-549.06666667
 20
-1069.13101302
 30
0.0
 11
-535.56666667
 21
-1069.13101302
 31
0.0
  0
LINE
  5
2EB
100
AcDbEntity
  8
ZUWAKU
  6
CONTINUOUS
 62
       7
100
AcDbLine
 10
-535.56666667
 20
-1069.13101302
 30
0.0
 11
-545.56666667
 21
-1098.63101302
 31
0.0
  0
LINE
  5
2EC
100
AcDbEntity
  8
ZUWAKU
  6
CONTINUOUS
 62
       7
100
AcDbLine
 10
-545.56666667
 20
-1098.63101302
 30
0.0
 11
-549.56666667
 21
-1102.63101302
 31
0.0
  0
LINE
  5
2ED
100
AcDbEntity
  8
ZUWAKU
  6
CONTINUOUS
 62
       7
100
AcDbLine
 10
-549.56666667
 20
-1102.63101302
 30
0.0
 11
-553.56666667
 21
-1106.13101302
 31
0.0
  0
LINE
  5
2EE
100
AcDbEntity
  8
ZUWAKU
  6
CONTINUOUS
 62
       7
100
AcDbLine
 10
-553.56666667
 20
-1106.13101302
 30
0.0
 11
-558.56666667
 21
-1108.13101302
 31
0.0
  0
LINE
  5
2EF
100
AcDbEntity
  8
ZUWAKU
  6
CONTINUOUS
 62
       7
100
AcDbLine
 10
-442.56666667
 20
-1069.13101302
 30
0.0
 11
-445.56666667
 21
-1075.63101302
 31
0.0
  0
LINE
  5
2F0
100
AcDbEntity
  8
ZUWAKU
  6
CONTINUOUS
 62
       7
100
AcDbLine
 10
-445.56666667
 20
-1075.63101302
 30
0.0
 11
-450.56666667
 21
-1080.63101302
 31
0.0
  0
LINE
  5
2F1
100
AcDbEntity
  8
ZUWAKU
  6
CONTINUOUS
 62
       7
100
AcDbLine
 10
-445.56666667
 20
-1075.63101302
 30
0.0
 11
-450.56666667
 21
-1080.63101302
 31
0.0
  0
LINE
  5
2F2
100
AcDbEntity
  8
ZUWAKU
  6
CONTINUOUS
 62
       7
100
AcDbLine
 10
-450.56666667
 20
-1080.63101302
 30
0.0
 11
-456.06666667
 21
-1084.63101302
 31
0.0
  0
LINE
  5
2F3
100
AcDbEntity
  8
ZUWAKU
  6
CONTINUOUS
 62
       7
100
AcDbLine
 10
-456.06666667
 20
-1084.63101302
 30
0.0
 11
-462.56666667
 21
-1086.63101302
 31
0.0
  0
LINE
  5
2F4
100
AcDbEntity
  8
ZUWAKU
  6
CONTINUOUS
 62
       7
100
AcDbLine
 10
-456.06666667
 20
-1084.63101302
 30
0.0
 11
-462.56666667
 21
-1086.63101302
 31
0.0
  0
LINE
  5
2F5
100
AcDbEntity
  8
ZUWAKU
  6
CONTINUOUS
 62
       7
100
AcDbLine
 10
-462.56666667
 20
-1086.63101302
 30
0.0
 11
-470.06666667
 21
-1108.63101302
 31
0.0
  0
LINE
  5
2F6
100
AcDbEntity
  8
ZUWAKU
  6
CONTINUOUS
 62
       7
100
AcDbLine
 10
-470.06666667
 20
-1108.63101302
 30
0.0
 11
-486.56666667
 21
-1108.63101302
 31
0.0
  0
LINE
  5
2F7
100
AcDbEntity
  8
ZUWAKU
  6
CONTINUOUS
 62
       7
100
AcDbLine
 10
-470.06666667
 20
-1108.63101302
 30
0.0
 11
-486.56666667
 21
-1108.63101302
 31
0.0
  0
LINE
  5
2F8
100
AcDbEntity
  8
ZUWAKU
  6
CONTINUOUS
 62
       7
100
AcDbLine
 10
-480.36666667
 20
-1089.63101302
 30
0.0
 11
-495.56666667
 21
-1089.63101302
 31
0.0
  0
LINE
  5
2F9
100
AcDbEntity
  8
ZUWAKU
  6
CONTINUOUS
 62
       7
100
AcDbLine
 10
-495.56666667
 20
-1089.63101302
 30
0.0
 11
-493.06666667
 21
-1082.63101302
 31
0.0
  0
LINE
  5
2FA
100
AcDbEntity
  8
ZUWAKU
  6
CONTINUOUS
 62
       7
100
AcDbLine
 10
-486.56666667
 20
-1108.63101302
 30
0.0
 11
-479.56666667
 21
-1089.63101302
 31
0.0
  0
LINE
  5
2FB
100
AcDbEntity
  8
ZUWAKU
  6
CONTINUOUS
 62
       7
100
AcDbLine
 10
-486.56666667
 20
-1108.63101302
 30
0.0
 11
-479.56666667
 21
-1089.63101302
 31
0.0
  0
LINE
  5
2FC
100
AcDbEntity
  8
ZUWAKU
  6
CONTINUOUS
 62
       7
100
AcDbLine
 10
-493.06666667
 20
-1082.63101302
 30
0.0
 11
-483.56666667
 21
-1082.63101302
 31
0.0
  0
LINE
  5
2FD
100
AcDbEntity
  8
ZUWAKU
  6
CONTINUOUS
 62
       7
100
AcDbLine
 10
-493.06666667
 20
-1082.63101302
 30
0.0
 11
-483.56666667
 21
-1082.63101302
 31
0.0
  0
LINE
  5
2FE
100
AcDbEntity
  8
ZUWAKU
  6
CONTINUOUS
 62
       7
100
AcDbLine
 10
-483.56666667
 20
-1082.63101302
 30
0.0
 11
-477.06666667
 21
-1082.13101302
 31
0.0
  0
LINE
  5
2FF
100
AcDbEntity
  8
ZUWAKU
  6
CONTINUOUS
 62
       7
100
AcDbLine
 10
-483.56666667
 20
-1082.63101302
 30
0.0
 11
-477.06666667
 21
-1082.13101302
 31
0.0
  0
LINE
  5
300
100
AcDbEntity
  8
ZUWAKU
  6
CONTINUOUS
 62
       7
100
AcDbLine
 10
-477.06666667
 20
-1082.13101302
 30
0.0
 11
-470.06666667
 21
-1079.13101302
 31
0.0
  0
LINE
  5
301
100
AcDbEntity
  8
ZUWAKU
  6
CONTINUOUS
 62
       7
100
AcDbLine
 10
-477.06666667
 20
-1082.13101302
 30
0.0
 11
-470.06666667
 21
-1079.13101302
 31
0.0
  0
LINE
  5
302
100
AcDbEntity
  8
ZUWAKU
  6
CONTINUOUS
 62
       7
100
AcDbLine
 10
-470.06666667
 20
-1079.13101302
 30
0.0
 11
-465.06666667
 21
-1074.63101302
 31
0.0
  0
LINE
  5
303
100
AcDbEntity
  8
ZUWAKU
  6
CONTINUOUS
 62
       7
100
AcDbLine
 10
-470.06666667
 20
-1079.13101302
 30
0.0
 11
-465.06666667
 21
-1074.63101302
 31
0.0
  0
LINE
  5
304
100
AcDbEntity
  8
ZUWAKU
  6
CONTINUOUS
 62
       7
100
AcDbLine
 10
-559.06666667
 20
-1069.13101302
 30
0.0
 11
-568.06666667
 21
-1093.13101302
 31
0.0
  0
LINE
  5
305
100
AcDbEntity
  8
ZUWAKU
  6
CONTINUOUS
 62
       7
100
AcDbLine
 10
-568.06666667
 20
-1093.13101302
 30
0.0
 11
-579.56666667
 21
-1093.13101302
 31
0.0
  0
LINE
  5
306
100
AcDbEntity
  8
ZUWAKU
  6
CONTINUOUS
 62
       7
100
AcDbLine
 10
-568.06666667
 20
-1093.13101302
 30
0.0
 11
-579.56666667
 21
-1093.13101302
 31
0.0
  0
LINE
  5
307
100
AcDbEntity
  8
ZUWAKU
  6
CONTINUOUS
 62
       7
100
AcDbLine
 10
-579.56666667
 20
-1093.13101302
 30
0.0
 11
-571.06666667
 21
-1069.13101302
 31
0.0
  0
LINE
  5
308
100
AcDbEntity
  8
ZUWAKU
  6
CONTINUOUS
 62
       7
100
AcDbLine
 10
-571.06666667
 20
-1069.13101302
 30
0.0
 11
-559.06666667
 21
-1069.13101302
 31
0.0
  0
LINE
  5
309
100
AcDbEntity
  8
ZUWAKU
  6
CONTINUOUS
 62
       7
100
AcDbLine
 10
-571.06666667
 20
-1069.13101302
 30
0.0
 11
-559.06666667
 21
-1069.13101302
 31
0.0
  0
LINE
  5
30A
100
AcDbEntity
  8
ZUWAKU
  6
CONTINUOUS
 62
       7
100
AcDbLine
 10
-394.16666667
 20
-1069.13101302
 30
0.0
 11
-397.16666667
 21
-1078.13101302
 31
0.0
  0
LINE
  5
30B
100
AcDbEntity
  8
ZUWAKU
  6
CONTINUOUS
 62
       7
100
AcDbLine
 10
-397.16666667
 20
-1078.13101302
 30
0.0
 11
-381.16666667
 21
-1078.13101302
 31
0.0
  0
LINE
  5
30C
100
AcDbEntity
  8
ZUWAKU
  6
CONTINUOUS
 62
       7
100
AcDbLine
 10
-397.16666667
 20
-1078.13101302
 30
0.0
 11
-381.16666667
 21
-1078.13101302
 31
0.0
  0
LINE
  5
30D
100
AcDbEntity
  8
ZUWAKU
  6
CONTINUOUS
 62
       7
100
AcDbLine
 10
-408.16666667
 20
-1100.63101302
 30
0.0
 11
-411.16666667
 21
-1109.13101302
 31
0.0
  0
LINE
  5
30E
100
AcDbEntity
  8
ZUWAKU
  6
CONTINUOUS
 62
       7
100
AcDbLine
 10
-408.16666667
 20
-1100.63101302
 30
0.0
 11
-411.16666667
 21
-1109.13101302
 31
0.0
  0
LINE
  5
30F
100
AcDbEntity
  8
ZUWAKU
  6
CONTINUOUS
 62
       7
100
AcDbLine
 10
-411.16666667
 20
-1109.13101302
 30
0.0
 11
-396.16666667
 21
-1106.63101302
 31
0.0
  0
LINE
  5
310
100
AcDbEntity
  8
ZUWAKU
  6
CONTINUOUS
 62
       7
100
AcDbLine
 10
-396.16666667
 20
-1106.63101302
 30
0.0
 11
-389.16666667
 21
-1104.63101302
 31
0.0
  0
LINE
  5
311
100
AcDbEntity
  8
ZUWAKU
  6
CONTINUOUS
 62
       7
100
AcDbLine
 10
-396.16666667
 20
-1106.63101302
 30
0.0
 11
-389.16666667
 21
-1104.63101302
 31
0.0
  0
LINE
  5
312
100
AcDbEntity
  8
ZUWAKU
  6
CONTINUOUS
 62
       7
100
AcDbLine
 10
-381.66666667
 20
-1102.13101302
 30
0.0
 11
-377.66666667
 21
-1108.63101302
 31
0.0
  0
LINE
  5
313
100
AcDbEntity
  8
ZUWAKU
  6
CONTINUOUS
 62
       7
100
AcDbLine
 10
-377.66666667
 20
-1108.63101302
 30
0.0
 11
-365.16666667
 21
-1108.63101302
 31
0.0
  0
LINE
  5
314
100
AcDbEntity
  8
ZUWAKU
  6
CONTINUOUS
 62
       7
100
AcDbLine
 10
-377.66666667
 20
-1108.63101302
 30
0.0
 11
-365.16666667
 21
-1108.63101302
 31
0.0
  0
LINE
  5
315
100
AcDbEntity
  8
ZUWAKU
  6
CONTINUOUS
 62
       7
100
AcDbLine
 10
-373.66666667
 20
-1094.63101302
 30
0.0
 11
-369.16666667
 21
-1088.63101302
 31
0.0
  0
LINE
  5
316
100
AcDbEntity
  8
ZUWAKU
  6
CONTINUOUS
 62
       7
100
AcDbLine
 10
-369.16666667
 20
-1088.63101302
 30
0.0
 11
-365.16666667
 21
-1082.63101302
 31
0.0
  0
LINE
  5
317
100
AcDbEntity
  8
ZUWAKU
  6
CONTINUOUS
 62
       7
100
AcDbLine
 10
-365.16666667
 20
-1082.63101302
 30
0.0
 11
-362.16666667
 21
-1076.13101302
 31
0.0
  0
LINE
  5
318
100
AcDbEntity
  8
ZUWAKU
  6
CONTINUOUS
 62
       7
100
AcDbLine
 10
-362.16666667
 20
-1076.13101302
 30
0.0
 11
-360.16666667
 21
-1069.13101302
 31
0.0
  0
LINE
  5
319
100
AcDbEntity
  8
ZUWAKU
  6
CONTINUOUS
 62
       7
100
AcDbLine
 10
-362.16666667
 20
-1076.13101302
 30
0.0
 11
-360.16666667
 21
-1069.13101302
 31
0.0
  0
LINE
  5
31A
100
AcDbEntity
  8
ZUWAKU
  6
CONTINUOUS
 62
       7
100
AcDbLine
 10
-360.16666667
 20
-1069.13101302
 30
0.0
 11
-394.16666667
 21
-1069.13101302
 31
0.0
  0
LINE
  5
31B
100
AcDbEntity
  8
ZUWAKU
  6
CONTINUOUS
 62
       7
100
AcDbLine
 10
-390.66666667
 20
-1094.13101302
 30
0.0
 11
-398.66666667
 21
-1098.63101302
 31
0.0
  0
LINE
  5
31C
100
AcDbEntity
  8
ZUWAKU
  6
CONTINUOUS
 62
       7
100
AcDbLine
 10
-389.16666667
 20
-1104.63101302
 30
0.0
 11
-381.66666667
 21
-1102.13101302
 31
0.0
  0
LINE
  5
31D
100
AcDbEntity
  8
ZUWAKU
  6
CONTINUOUS
 62
       7
100
AcDbLine
 10
-389.16666667
 20
-1104.63101302
 30
0.0
 11
-381.66666667
 21
-1102.13101302
 31
0.0
  0
LINE
  5
31E
100
AcDbEntity
  8
ZUWAKU
  6
CONTINUOUS
 62
       7
100
AcDbLine
 10
-365.16666667
 20
-1108.63101302
 30
0.0
 11
-373.66666667
 21
-1094.63101302
 31
0.0
  0
LINE
  5
31F
100
AcDbEntity
  8
ZUWAKU
  6
CONTINUOUS
 62
       7
100
AcDbLine
 10
-365.16666667
 20
-1108.63101302
 30
0.0
 11
-373.66666667
 21
-1094.63101302
 31
0.0
  0
LINE
  5
320
100
AcDbEntity
  8
ZUWAKU
  6
CONTINUOUS
 62
       7
100
AcDbLine
 10
-384.16666667
 20
-1086.63101302
 30
0.0
 11
-390.66666667
 21
-1094.13101302
 31
0.0
  0
LINE
  5
321
100
AcDbEntity
  8
ZUWAKU
  6
CONTINUOUS
 62
       7
100
AcDbLine
 10
-384.16666667
 20
-1086.63101302
 30
0.0
 11
-390.66666667
 21
-1094.13101302
 31
0.0
  0
LINE
  5
322
100
AcDbEntity
  8
ZUWAKU
  6
CONTINUOUS
 62
       7
100
AcDbLine
 10
-483.56666667
 20
-1082.63101302
 30
0.0
 11
-477.06666667
 21
-1082.13101302
 31
0.0
  0
LINE
  5
323
100
AcDbEntity
  8
ZUWAKU
  6
CONTINUOUS
 62
       7
100
AcDbLine
 10
-477.06666667
 20
-1082.13101302
 30
0.0
 11
-470.06666667
 21
-1079.13101302
 31
0.0
  0
LINE
  5
324
100
AcDbEntity
  8
ZUWAKU
  6
CONTINUOUS
 62
       7
100
AcDbLine
 10
-470.06666667
 20
-1079.13101302
 30
0.0
 11
-465.06666667
 21
-1074.63101302
 31
0.0
  0
LINE
  5
325
100
AcDbEntity
  8
ZUWAKU
  6
CONTINUOUS
 62
       7
100
AcDbLine
 10
-465.06666667
 20
-1074.63101302
 30
0.0
 11
-461.06666667
 21
-1069.13101302
 31
0.0
  0
LINE
  5
326
100
AcDbEntity
  8
ZUWAKU
  6
CONTINUOUS
 62
       7
100
AcDbLine
 10
-426.76666667
 20
-1108.63101302
 30
0.0
 11
-417.76666667
 21
-1104.63101302
 31
0.0
  0
LINE
  5
327
100
AcDbEntity
  8
ZUWAKU
  6
CONTINUOUS
 62
       7
100
AcDbLine
 10
-417.76666667
 20
-1104.63101302
 30
0.0
 11
-409.76666667
 21
-1097.13101302
 31
0.0
  0
LINE
  5
328
100
AcDbEntity
  8
ZUWAKU
  6
CONTINUOUS
 62
       7
100
AcDbLine
 10
-409.76666667
 20
-1097.13101302
 30
0.0
 11
-403.76666667
 21
-1087.13101302
 31
0.0
  0
LINE
  5
329
100
AcDbEntity
  8
ZUWAKU
  6
CONTINUOUS
 62
       7
100
AcDbLine
 10
-403.76666667
 20
-1087.13101302
 30
0.0
 11
-401.76666667
 21
-1076.63101302
 31
0.0
  0
LINE
  5
32A
100
AcDbEntity
  8
ZUWAKU
  6
CONTINUOUS
 62
       7
100
AcDbLine
 10
-408.16666667
 20
-1100.63101302
 30
0.0
 11
-398.66666667
 21
-1098.63101302
 31
0.0
  0
LINE
  5
32B
100
AcDbEntity
  8
ZUWAKU
  6
CONTINUOUS
 62
       7
100
AcDbLine
 10
-398.66666667
 20
-1098.63101302
 30
0.0
 11
-390.66666667
 21
-1094.13101302
 31
0.0
  0
LINE
  5
32C
100
AcDbEntity
  8
ZUWAKU
  6
CONTINUOUS
 62
       7
100
AcDbLine
 10
-390.66666667
 20
-1094.13101302
 30
0.0
 11
-384.16666667
 21
-1086.63101302
 31
0.0
  0
LINE
  5
32D
100
AcDbEntity
  8
ZUWAKU
  6
CONTINUOUS
 62
       7
100
AcDbLine
 10
-462.56666667
 20
-1086.63101302
 30
0.0
 11
-456.06666667
 21
-1084.63101302
 31
0.0
  0
LINE
  5
32E
100
AcDbEntity
  8
ZUWAKU
  6
CONTINUOUS
 62
       7
100
AcDbLine
 10
-456.06666667
 20
-1084.63101302
 30
0.0
 11
-450.56666667
 21
-1080.63101302
 31
0.0
  0
LINE
  5
32F
100
AcDbEntity
  8
ZUWAKU
  6
CONTINUOUS
 62
       7
100
AcDbLine
 10
-450.56666667
 20
-1080.63101302
 30
0.0
 11
-445.56666667
 21
-1075.63101302
 31
0.0
  0
LINE
  5
330
100
AcDbEntity
  8
ZUWAKU
  6
CONTINUOUS
 62
       7
100
AcDbLine
 10
-445.56666667
 20
-1075.63101302
 30
0.0
 11
-442.56666667
 21
-1069.13101302
 31
0.0
  0
LINE
  5
331
100
AcDbEntity
  8
ZUWAKU
  6
CONTINUOUS
 62
       7
100
AcDbLine
 10
-373.66666667
 20
-1094.63101302
 30
0.0
 11
-369.16666667
 21
-1088.63101302
 31
0.0
  0
LINE
  5
332
100
AcDbEntity
  8
ZUWAKU
  6
CONTINUOUS
 62
       7
100
AcDbLine
 10
-369.16666667
 20
-1088.63101302
 30
0.0
 11
-365.16666667
 21
-1082.63101302
 31
0.0
  0
LINE
  5
333
100
AcDbEntity
  8
ZUWAKU
  6
CONTINUOUS
 62
       7
100
AcDbLine
 10
-365.16666667
 20
-1082.63101302
 30
0.0
 11
-362.16666667
 21
-1076.13101302
 31
0.0
  0
LINE
  5
334
100
AcDbEntity
  8
ZUWAKU
  6
CONTINUOUS
 62
       7
100
AcDbLine
 10
-362.16666667
 20
-1076.13101302
 30
0.0
 11
-360.16666667
 21
-1069.13101302
 31
0.0
  0
LINE
  5
335
100
AcDbEntity
  8
ZUWAKU
  6
CONTINUOUS
 62
       7
100
AcDbLine
 10
-396.16666667
 20
-1106.63101302
 30
0.0
 11
-389.16666667
 21
-1104.63101302
 31
0.0
  0
LINE
  5
336
100
AcDbEntity
  8
ZUWAKU
  6
CONTINUOUS
 62
       7
100
AcDbLine
 10
-389.16666667
 20
-1104.63101302
 30
0.0
 11
-381.66666667
 21
-1102.13101302
 31
0.0
  0
LINE
  5
337
100
AcDbEntity
  8
ZUWAKU
  6
CONTINUOUS
 62
       7
100
AcDbLine
 10
-409.26666667
 20
-1083.13101302
 30
0.0
 11
-406.76666667
 21
-1076.63101302
 31
0.0
  0
LINE
  5
338
100
AcDbEntity
  8
ZUWAKU
  6
CONTINUOUS
 62
       7
100
AcDbLine
 10
-406.76666667
 20
-1076.63101302
 30
0.0
 11
-401.76666667
 21
-1076.63101302
 31
0.0
  0
LINE
  5
339
100
AcDbEntity
  8
ZUWAKU
  6
CONTINUOUS
 62
       7
100
AcDbLine
 10
-406.76666667
 20
-1076.63101302
 30
0.0
 11
-401.76666667
 21
-1076.63101302
 31
0.0
  0
LINE
  5
33A
100
AcDbEntity
  8
ZUWAKU
  6
CONTINUOUS
 62
       7
100
AcDbLine
 10
-401.76666667
 20
-1076.63101302
 30
0.0
 11
-403.76666667
 21
-1087.13101302
 31
0.0
  0
LINE
  5
33B
100
AcDbEntity
  8
ZUWAKU
  6
CONTINUOUS
 62
       7
100
AcDbLine
 10
-403.76666667
 20
-1087.13101302
 30
0.0
 11
-409.76666667
 21
-1097.13101302
 31
0.0
  0
LINE
  5
33C
100
AcDbEntity
  8
ZUWAKU
  6
CONTINUOUS
 62
       7
100
AcDbLine
 10
-403.76666667
 20
-1087.13101302
 30
0.0
 11
-409.76666667
 21
-1097.13101302
 31
0.0
  0
LINE
  5
33D
100
AcDbEntity
  8
ZUWAKU
  6
CONTINUOUS
 62
       7
100
AcDbLine
 10
-409.76666667
 20
-1097.13101302
 30
0.0
 11
-417.76666667
 21
-1104.63101302
 31
0.0
  0
LINE
  5
33E
100
AcDbEntity
  8
ZUWAKU
  6
CONTINUOUS
 62
       7
100
AcDbLine
 10
-427.76666667
 20
-1108.63101302
 30
0.0
 11
-453.26666667
 21
-1108.63101302
 31
0.0
  0
LINE
  5
33F
100
AcDbEntity
  8
ZUWAKU
  6
CONTINUOUS
 62
       7
100
AcDbLine
 10
-453.26666667
 20
-1108.63101302
 30
0.0
 11
-448.76666667
 21
-1096.13101302
 31
0.0
  0
LINE
  5
340
100
AcDbEntity
  8
ZUWAKU
  6
CONTINUOUS
 62
       7
100
AcDbLine
 10
-453.26666667
 20
-1108.63101302
 30
0.0
 11
-448.76666667
 21
-1096.13101302
 31
0.0
  0
LINE
  5
341
100
AcDbEntity
  8
ZUWAKU
  6
CONTINUOUS
 62
       7
100
AcDbLine
 10
-413.26666667
 20
-1088.63101302
 30
0.0
 11
-409.26666667
 21
-1083.13101302
 31
0.0
  0
LINE
  5
342
100
AcDbEntity
  8
ZUWAKU
  6
CONTINUOUS
 62
       7
100
AcDbLine
 10
-448.76666667
 20
-1096.13101302
 30
0.0
 11
-424.76666667
 21
-1096.13101302
 31
0.0
  0
LINE
  5
343
100
AcDbEntity
  8
ZUWAKU
  6
CONTINUOUS
 62
       7
100
AcDbLine
 10
-448.76666667
 20
-1096.13101302
 30
0.0
 11
-424.76666667
 21
-1096.13101302
 31
0.0
  0
LINE
  5
344
100
AcDbEntity
  8
ZUWAKU
  6
CONTINUOUS
 62
       7
100
AcDbLine
 10
-424.76666667
 20
-1096.13101302
 30
0.0
 11
-418.76666667
 21
-1093.13101302
 31
0.0
  0
LINE
  5
345
100
AcDbEntity
  8
ZUWAKU
  6
CONTINUOUS
 62
       7
100
AcDbLine
 10
-424.76666667
 20
-1096.13101302
 30
0.0
 11
-418.76666667
 21
-1093.13101302
 31
0.0
  0
LINE
  5
346
100
AcDbEntity
  8
ZUWAKU
  6
CONTINUOUS
 62
       7
100
AcDbLine
 10
-418.76666667
 20
-1093.13101302
 30
0.0
 11
-413.26666667
 21
-1088.63101302
 31
0.0
  0
LINE
  5
347
100
AcDbEntity
  8
ZUWAKU
  6
CONTINUOUS
 62
       7
100
AcDbLine
 10
-497.96666667
 20
-1082.63101302
 30
0.0
 11
-503.96666667
 21
-1099.13101302
 31
0.0
  0
LINE
  5
348
100
AcDbEntity
  8
ZUWAKU
  6
CONTINUOUS
 62
       7
100
AcDbLine
 10
-503.96666667
 20
-1099.13101302
 30
0.0
 11
-507.46666667
 21
-1102.63101302
 31
0.0
  0
LINE
  5
349
100
AcDbEntity
  8
ZUWAKU
  6
CONTINUOUS
 62
       7
100
AcDbLine
 10
-503.96666667
 20
-1099.13101302
 30
0.0
 11
-507.46666667
 21
-1102.63101302
 31
0.0
  0
LINE
  5
34A
100
AcDbEntity
  8
ZUWAKU
  6
CONTINUOUS
 62
       7
100
AcDbLine
 10
-507.46666667
 20
-1102.63101302
 30
0.0
 11
-510.46666667
 21
-1105.63101302
 31
0.0
  0
LINE
  5
34B
100
AcDbEntity
  8
ZUWAKU
  6
CONTINUOUS
 62
       7
100
AcDbLine
 10
-510.46666667
 20
-1105.63101302
 30
0.0
 11
-514.46666667
 21
-1107.63101302
 31
0.0
  0
LINE
  5
34C
100
AcDbEntity
  8
ZUWAKU
  6
CONTINUOUS
 62
       7
100
AcDbLine
 10
-510.46666667
 20
-1105.63101302
 30
0.0
 11
-514.46666667
 21
-1107.63101302
 31
0.0
  0
LINE
  5
34D
100
AcDbEntity
  8
ZUWAKU
  6
CONTINUOUS
 62
       7
100
AcDbLine
 10
-514.46666667
 20
-1107.63101302
 30
0.0
 11
-518.46666667
 21
-1108.63101302
 31
0.0
  0
LINE
  5
34E
100
AcDbEntity
  8
ZUWAKU
  6
CONTINUOUS
 62
       7
100
AcDbLine
 10
-518.46666667
 20
-1108.63101302
 30
0.0
 11
-543.96666667
 21
-1108.63101302
 31
0.0
  0
LINE
  5
34F
100
AcDbEntity
  8
ZUWAKU
  6
CONTINUOUS
 62
       7
100
AcDbLine
 10
-518.46666667
 20
-1108.63101302
 30
0.0
 11
-543.96666667
 21
-1108.63101302
 31
0.0
  0
LINE
  5
350
100
AcDbEntity
  8
ZUWAKU
  6
CONTINUOUS
 62
       7
100
AcDbLine
 10
-543.96666667
 20
-1108.63101302
 30
0.0
 11
-540.96666667
 21
-1101.13101302
 31
0.0
  0
LINE
  5
351
100
AcDbEntity
  8
ZUWAKU
  6
CONTINUOUS
 62
       7
100
AcDbLine
 10
-540.96666667
 20
-1101.13101302
 30
0.0
 11
-524.46666667
 21
-1101.13101302
 31
0.0
  0
LINE
  5
352
100
AcDbEntity
  8
ZUWAKU
  6
CONTINUOUS
 62
       7
100
AcDbLine
 10
-540.96666667
 20
-1101.13101302
 30
0.0
 11
-524.46666667
 21
-1101.13101302
 31
0.0
  0
LINE
  5
353
100
AcDbEntity
  8
ZUWAKU
  6
CONTINUOUS
 62
       7
100
AcDbLine
 10
-514.96666667
 20
-1089.63101302
 30
0.0
 11
-535.96666667
 21
-1089.63101302
 31
0.0
  0
LINE
  5
354
100
AcDbEntity
  8
ZUWAKU
  6
CONTINUOUS
 62
       7
100
AcDbLine
 10
-535.96666667
 20
-1089.63101302
 30
0.0
 11
-533.96666667
 21
-1082.63101302
 31
0.0
  0
LINE
  5
355
100
AcDbEntity
  8
ZUWAKU
  6
CONTINUOUS
 62
       7
100
AcDbLine
 10
-535.96666667
 20
-1089.63101302
 30
0.0
 11
-533.96666667
 21
-1082.63101302
 31
0.0
  0
LINE
  5
356
100
AcDbEntity
  8
ZUWAKU
  6
CONTINUOUS
 62
       7
100
AcDbLine
 10
-524.46666667
 20
-1101.13101302
 30
0.0
 11
-520.96666667
 21
-1098.63101302
 31
0.0
  0
LINE
  5
357
100
AcDbEntity
  8
ZUWAKU
  6
CONTINUOUS
 62
       7
100
AcDbLine
 10
-524.46666667
 20
-1101.13101302
 30
0.0
 11
-520.96666667
 21
-1098.63101302
 31
0.0
  0
LINE
  5
358
100
AcDbEntity
  8
ZUWAKU
  6
CONTINUOUS
 62
       7
100
AcDbLine
 10
-520.96666667
 20
-1098.63101302
 30
0.0
 11
-518.46666667
 21
-1096.13101302
 31
0.0
  0
LINE
  5
359
100
AcDbEntity
  8
ZUWAKU
  6
CONTINUOUS
 62
       7
100
AcDbLine
 10
-520.96666667
 20
-1098.63101302
 30
0.0
 11
-518.46666667
 21
-1096.13101302
 31
0.0
  0
LINE
  5
35A
100
AcDbEntity
  8
ZUWAKU
  6
CONTINUOUS
 62
       7
100
AcDbLine
 10
-518.46666667
 20
-1096.13101302
 30
0.0
 11
-515.96666667
 21
-1093.13101302
 31
0.0
  0
LINE
  5
35B
100
AcDbEntity
  8
ZUWAKU
  6
CONTINUOUS
 62
       7
100
AcDbLine
 10
-518.46666667
 20
-1096.13101302
 30
0.0
 11
-515.96666667
 21
-1093.13101302
 31
0.0
  0
LINE
  5
35C
100
AcDbEntity
  8
ZUWAKU
  6
CONTINUOUS
 62
       7
100
AcDbLine
 10
-515.96666667
 20
-1093.13101302
 30
0.0
 11
-514.96666667
 21
-1089.63101302
 31
0.0
  0
LINE
  5
35D
100
AcDbEntity
  8
ZUWAKU
  6
CONTINUOUS
 62
       7
100
AcDbLine
 10
-515.96666667
 20
-1093.13101302
 30
0.0
 11
-514.96666667
 21
-1089.63101302
 31
0.0
  0
LINE
  5
35E
100
AcDbEntity
  8
ZUWAKU
  6
CONTINUOUS
 62
       7
100
AcDbLine
 10
-547.46666667
 20
-1069.13101302
 30
0.0
 11
-536.47063677
 21
-1069.13101302
 31
0.0
  0
LINE
  5
35F
100
AcDbEntity
  8
ZUWAKU
  6
CONTINUOUS
 62
       7
100
AcDbLine
 10
-545.56666667
 20
-1098.63101302
 30
0.0
 11
-549.56666667
 21
-1102.63101302
 31
0.0
  0
LINE
  5
360
100
AcDbEntity
  8
ZUWAKU
  6
CONTINUOUS
 62
       7
100
AcDbLine
 10
-549.56666667
 20
-1102.63101302
 30
0.0
 11
-553.56666667
 21
-1106.13101302
 31
0.0
  0
LINE
  5
361
100
AcDbEntity
  8
ZUWAKU
  6
CONTINUOUS
 62
       7
100
AcDbLine
 10
-549.56666667
 20
-1102.63101302
 30
0.0
 11
-553.56666667
 21
-1106.13101302
 31
0.0
  0
LINE
  5
362
100
AcDbEntity
  8
ZUWAKU
  6
CONTINUOUS
 62
       7
100
AcDbLine
 10
-553.56666667
 20
-1106.13101302
 30
0.0
 11
-558.56666667
 21
-1108.13101302
 31
0.0
  0
LINE
  5
363
100
AcDbEntity
  8
ZUWAKU
  6
CONTINUOUS
 62
       7
100
AcDbLine
 10
-558.56666667
 20
-1108.13101302
 30
0.0
 11
-563.56666667
 21
-1108.63101302
 31
0.0
  0
LINE
  5
364
100
AcDbEntity
  8
ZUWAKU
  6
CONTINUOUS
 62
       7
100
AcDbLine
 10
-563.56666667
 20
-1108.63101302
 30
0.0
 11
-576.06666667
 21
-1108.63101302
 31
0.0
  0
LINE
  5
365
100
AcDbEntity
  8
ZUWAKU
  6
CONTINUOUS
 62
       7
100
AcDbLine
 10
-576.06666667
 20
-1108.63101302
 30
0.0
 11
-573.56666667
 21
-1101.13101302
 31
0.0
  0
LINE
  5
366
100
AcDbEntity
  8
ZUWAKU
  6
CONTINUOUS
 62
       7
100
AcDbLine
 10
-576.06666667
 20
-1108.63101302
 30
0.0
 11
-573.56666667
 21
-1101.13101302
 31
0.0
  0
LINE
  5
367
100
AcDbEntity
  8
ZUWAKU
  6
CONTINUOUS
 62
       7
100
AcDbLine
 10
-558.56666667
 20
-1094.63101302
 30
0.0
 11
-549.06666667
 21
-1069.13101302
 31
0.0
  0
LINE
  5
368
100
AcDbEntity
  8
ZUWAKU
  6
CONTINUOUS
 62
       7
100
AcDbLine
 10
-573.56666667
 20
-1101.13101302
 30
0.0
 11
-569.06666667
 21
-1101.13101302
 31
0.0
  0
LINE
  5
369
100
AcDbEntity
  8
ZUWAKU
  6
CONTINUOUS
 62
       7
100
AcDbLine
 10
-573.56666667
 20
-1101.13101302
 30
0.0
 11
-569.06666667
 21
-1101.13101302
 31
0.0
  0
LINE
  5
36A
100
AcDbEntity
  8
ZUWAKU
  6
CONTINUOUS
 62
       7
100
AcDbLine
 10
-561.06666667
 20
-1098.63101302
 30
0.0
 11
-558.56666667
 21
-1094.63101302
 31
0.0
  0
LINE
  5
36B
100
AcDbEntity
  8
ZUWAKU
  6
CONTINUOUS
 62
       7
100
AcDbLine
 10
-565.06666667
 20
-1100.63101302
 30
0.0
 11
-561.06666667
 21
-1098.63101302
 31
0.0
  0
LINE
  5
36C
100
AcDbEntity
  8
ZUWAKU
  6
CONTINUOUS
 62
       7
100
AcDbLine
 10
-569.06666667
 20
-1101.13101302
 30
0.0
 11
-565.06666667
 21
-1100.63101302
 31
0.0
  0
LINE
  5
36D
100
AcDbEntity
  8
ZUWAKU
  6
CONTINUOUS
 62
       7
100
AcDbLine
 10
-569.06666667
 20
-1101.13101302
 30
0.0
 11
-565.06666667
 21
-1100.63101302
 31
0.0
  0
LINE
  5
36E
100
AcDbEntity
  8
ZUWAKU
  6
CONTINUOUS
 62
       7
100
AcDbLine
 10
-438.76666667
 20
-1069.13101302
 30
0.0
 11
-422.76666667
 21
-1069.13101302
 31
0.0
  0
LINE
  5
36F
100
AcDbEntity
  8
ZUWAKU
  6
CONTINUOUS
 62
       7
100
AcDbLine
 10
-422.76666667
 20
-1069.13101302
 30
0.0
 11
-425.76666667
 21
-1078.13101302
 31
0.0
  0
LINE
  5
370
100
AcDbEntity
  8
ZUWAKU
  6
CONTINUOUS
 62
       7
100
AcDbLine
 10
-422.76666667
 20
-1069.13101302
 30
0.0
 11
-425.76666667
 21
-1078.13101302
 31
0.0
  0
LINE
  5
371
100
AcDbEntity
  8
ZUWAKU
  6
CONTINUOUS
 62
       7
100
AcDbLine
 10
-426.56666667
 20
-1078.13101302
 30
0.0
 11
-442.26666667
 21
-1078.13101302
 31
0.0
  0
LINE
  5
372
100
AcDbEntity
  8
ZUWAKU
  6
CONTINUOUS
 62
       7
100
AcDbLine
 10
-379.50726154
 20
-1078.06449723
 30
0.0
 11
-384.16666667
 21
-1086.63101302
 31
0.0
  0
LINE
  5
373
100
AcDbEntity
  8
ZUWAKU
  6
CONTINUOUS
 62
       7
100
AcDbLine
 10
-365.66666667
 20
-1069.13101302
 30
0.0
 11
-390.66666667
 21
-1094.13101302
 31
0.0
  0
LINE
  5
374
100
AcDbEntity
  8
ZUWAKU
  6
CONTINUOUS
 62
       7
100
AcDbLine
 10
-390.66666667
 20
-1094.13101302
 30
0.0
 11
-404.56666667
 21
-1108.03101302
 31
0.0
  0
LINE
  5
375
100
AcDbEntity
  8
ZUWAKU
  6
CONTINUOUS
 62
       7
100
AcDbLine
 10
-367.92940837
 20
-1069.13101302
 30
0.0
 11
-382.66079042
 21
-1083.86239507
 31
0.0
  0
LINE
  5
376
100
AcDbEntity
  8
ZUWAKU
  6
CONTINUOUS
 62
       7
100
AcDbLine
 10
-395.83864769
 20
-1097.04025234
 30
0.0
 11
-407.28195671
 21
-1108.48356136
 31
0.0
  0
LINE
  5
377
100
AcDbEntity
  8
ZUWAKU
  6
CONTINUOUS
 62
       7
100
AcDbLine
 10
-370.19215007
 20
-1069.13101302
 30
0.0
 11
-379.96236921
 21
-1078.90123216
 31
0.0
  0
LINE
  5
378
100
AcDbEntity
  8
ZUWAKU
  6
CONTINUOUS
 62
       7
100
AcDbLine
 10
-399.96561231
 20
-1098.90447526
 30
0.0
 11
-409.99724675
 21
-1108.9361097
 31
0.0
  0
LINE
  5
379
100
AcDbEntity
  8
ZUWAKU
  6
CONTINUOUS
 62
       7
100
AcDbLine
 10
-372.45489177
 20
-1069.13101302
 30
0.0
 11
-381.45489177
 21
-1078.13101302
 31
0.0
  0
LINE
  5
37A
100
AcDbEntity
  8
ZUWAKU
  6
CONTINUOUS
 62
       7
100
AcDbLine
 10
-402.83175179
 20
-1099.50787304
 30
0.0
 11
-410.46399843
 21
-1107.14011968
 31
0.0
  0
LINE
  5
37B
100
AcDbEntity
  8
ZUWAKU
  6
CONTINUOUS
 62
       7
100
AcDbLine
 10
-374.71763347
 20
-1069.13101302
 30
0.0
 11
-383.71763347
 21
-1078.13101302
 31
0.0
  0
LINE
  5
37C
100
AcDbEntity
  8
ZUWAKU
  6
CONTINUOUS
 62
       7
100
AcDbLine
 10
-405.69789128
 20
-1100.11127083
 30
0.0
 11
-409.22977569
 21
-1103.64315524
 31
0.0
  0
LINE
  5
37D
100
AcDbEntity
  8
ZUWAKU
  6
CONTINUOUS
 62
       7
100
AcDbLine
 10
-376.98037517
 20
-1069.13101302
 30
0.0
 11
-385.98037517
 21
-1078.13101302
 31
0.0
  0
LINE
  5
37E
100
AcDbEntity
  8
ZUWAKU
  6
CONTINUOUS
 62
       7
100
AcDbLine
 10
-379.24311687
 20
-1069.13101302
 30
0.0
 11
-388.24311687
 21
-1078.13101302
 31
0.0
  0
LINE
  5
37F
100
AcDbEntity
  8
ZUWAKU
  6
CONTINUOUS
 62
       7
100
AcDbLine
 10
-381.50585857
 20
-1069.13101302
 30
0.0
 11
-390.50585857
 21
-1078.13101302
 31
0.0
  0
LINE
  5
380
100
AcDbEntity
  8
ZUWAKU
  6
CONTINUOUS
 62
       7
100
AcDbLine
 10
-383.76860027
 20
-1069.13101302
 30
0.0
 11
-392.76860027
 21
-1078.13101302
 31
0.0
  0
LINE
  5
381
100
AcDbEntity
  8
ZUWAKU
  6
CONTINUOUS
 62
       7
100
AcDbLine
 10
-386.03134196
 20
-1069.13101302
 30
0.0
 11
-395.03134196
 21
-1078.13101302
 31
0.0
  0
LINE
  5
382
100
AcDbEntity
  8
ZUWAKU
  6
CONTINUOUS
 62
       7
100
AcDbLine
 10
-388.29408366
 20
-1069.13101302
 30
0.0
 11
-397.10295817
 21
-1077.93988752
 31
0.0
  0
LINE
  5
383
100
AcDbEntity
  8
ZUWAKU
  6
CONTINUOUS
 62
       7
100
AcDbLine
 10
-390.55682536
 20
-1069.13101302
 30
0.0
 11
-395.97158732
 21
-1074.54577497
 31
0.0
  0
LINE
  5
384
100
AcDbEntity
  8
ZUWAKU
  6
CONTINUOUS
 62
       7
100
AcDbLine
 10
-392.81956706
 20
-1069.13101302
 30
0.0
 11
-394.84021647
 21
-1071.15166242
 31
0.0
  0
LINE
  5
385
100
AcDbEntity
  8
ZUWAKU
  6
CONTINUOUS
 62
       7
100
AcDbLine
 10
-363.40392497
 20
-1069.13101302
 30
0.0
 11
-401.85137663
 21
-1107.57846468
 31
0.0
  0
LINE
  5
386
100
AcDbEntity
  8
ZUWAKU
  6
CONTINUOUS
 62
       7
100
AcDbLine
 10
-361.14118327
 20
-1069.13101302
 30
0.0
 11
-399.13608659
 21
-1107.12591634
 31
0.0
  0
LINE
  5
387
100
AcDbEntity
  8
ZUWAKU
  6
CONTINUOUS
 62
       7
100
AcDbLine
 10
-360.68195671
 20
-1070.93452816
 30
0.0
 11
-396.42079655
 21
-1106.673368
 31
0.0
  0
LINE
  5
388
100
AcDbEntity
  8
ZUWAKU
  6
CONTINUOUS
 62
       7
100
AcDbLine
 10
-361.58705339
 20
-1074.10236654
 30
0.0
 11
-393.29531315
 21
-1105.8106263
 31
0.0
  0
LINE
  5
389
100
AcDbEntity
  8
ZUWAKU
  6
CONTINUOUS
 62
       7
100
AcDbLine
 10
-362.86413109
 20
-1077.64218594
 30
0.0
 11
-390.12747477
 21
-1104.90552962
 31
0.0
  0
LINE
  5
38A
100
AcDbEntity
  8
ZUWAKU
  6
CONTINUOUS
 62
       7
100
AcDbLine
 10
-364.80362398
 20
-1081.84442053
 30
0.0
 11
-386.80199137
 21
-1103.84278792
 31
0.0
  0
LINE
  5
38B
100
AcDbEntity
  8
ZUWAKU
  6
CONTINUOUS
 62
       7
100
AcDbLine
 10
-368.84505046
 20
-1088.14858871
 30
0.0
 11
-383.40787882
 21
-1102.71141707
 31
0.0
  0
LINE
  5
38C
100
AcDbEntity
  8
ZUWAKU
  6
CONTINUOUS
 62
       7
100
AcDbLine
 10
-373.43926953
 20
-1095.00554948
 30
0.0
 11
-381.24688244
 21
-1102.81316239
 31
0.0
  0
LINE
  5
38D
100
AcDbEntity
  8
ZUWAKU
  6
CONTINUOUS
 62
       7
100
AcDbLine
 10
-372.584456
 20
-1096.41347765
 30
0.0
 11
-380.3848856
 21
-1104.21390725
 31
0.0
  0
LINE
  5
38E
100
AcDbEntity
  8
ZUWAKU
  6
CONTINUOUS
 62
       7
100
AcDbLine
 10
-371.72964247
 20
-1097.82140582
 30
0.0
 11
-379.52288876
 21
-1105.61465211
 31
0.0
  0
LINE
  5
38F
100
AcDbEntity
  8
ZUWAKU
  6
CONTINUOUS
 62
       7
100
AcDbLine
 10
-370.87482894
 20
-1099.22933398
 30
0.0
 11
-378.66089192
 21
-1107.01539697
 31
0.0
  0
LINE
  5
390
100
AcDbEntity
  8
ZUWAKU
  6
CONTINUOUS
 62
       7
100
AcDbLine
 10
-370.02001541
 20
-1100.63726215
 30
0.0
 11
-377.79889509
 21
-1108.41614183
 31
0.0
  0
LINE
  5
391
100
AcDbEntity
  8
ZUWAKU
  6
CONTINUOUS
 62
       7
100
AcDbLine
 10
-369.16520187
 20
-1102.04519032
 30
0.0
 11
-375.75102457
 21
-1108.63101302
 31
0.0
  0
LINE
  5
392
100
AcDbEntity
  8
ZUWAKU
  6
CONTINUOUS
 62
       7
100
AcDbLine
 10
-368.31038834
 20
-1103.45311849
 30
0.0
 11
-373.48828287
 21
-1108.63101302
 31
0.0
  0
LINE
  5
393
100
AcDbEntity
  8
ZUWAKU
  6
CONTINUOUS
 62
       7
100
AcDbLine
 10
-367.45557481
 20
-1104.86104666
 30
0.0
 11
-371.22554117
 21
-1108.63101302
 31
0.0
  0
LINE
  5
394
100
AcDbEntity
  8
ZUWAKU
  6
CONTINUOUS
 62
       7
100
AcDbLine
 10
-366.60076128
 20
-1106.26897483
 30
0.0
 11
-368.96279947
 21
-1108.63101302
 31
0.0
  0
LINE
  5
395
100
AcDbEntity
  8
ZUWAKU
  6
CONTINUOUS
 62
       7
100
AcDbLine
 10
-365.74594775
 20
-1107.676903
 30
0.0
 11
-366.70005777
 21
-1108.63101302
 31
0.0
  0
LINE
  5
396
100
AcDbEntity
  8
ZUWAKU
  6
CONTINUOUS
 62
       7
100
AcDbLine
 10
-428.01666667
 20
-1069.13101302
 30
0.0
 11
-437.01666667
 21
-1078.13101302
 31
0.0
  0
LINE
  5
397
100
AcDbEntity
  8
ZUWAKU
  6
CONTINUOUS
 62
       7
100
AcDbLine
 10
-430.27940837
 20
-1069.13101302
 30
0.0
 11
-439.27940837
 21
-1078.13101302
 31
0.0
  0
LINE
  5
398
100
AcDbEntity
  8
ZUWAKU
  6
CONTINUOUS
 62
       7
100
AcDbLine
 10
-432.54215007
 20
-1069.13101302
 30
0.0
 11
-441.54215007
 21
-1078.13101302
 31
0.0
  0
LINE
  5
399
100
AcDbEntity
  8
ZUWAKU
  6
CONTINUOUS
 62
       7
100
AcDbLine
 10
-434.80489177
 20
-1069.13101302
 30
0.0
 11
-441.28779615
 21
-1075.6139174
 31
0.0
  0
LINE
  5
39A
100
AcDbEntity
  8
ZUWAKU
  6
CONTINUOUS
 62
       7
100
AcDbLine
 10
-437.06763347
 20
-1069.13101302
 30
0.0
 11
-439.84786961
 21
-1071.91124916
 31
0.0
  0
LINE
  5
39B
100
AcDbEntity
  8
ZUWAKU
  6
CONTINUOUS
 62
       7
100
AcDbLine
 10
-425.75392497
 20
-1069.13101302
 30
0.0
 11
-434.75392497
 21
-1078.13101302
 31
0.0
  0
LINE
  5
39C
100
AcDbEntity
  8
ZUWAKU
  6
CONTINUOUS
 62
       7
100
AcDbLine
 10
-423.49118327
 20
-1069.13101302
 30
0.0
 11
-432.49118327
 21
-1078.13101302
 31
0.0
  0
LINE
  5
39D
100
AcDbEntity
  8
ZUWAKU
  6
CONTINUOUS
 62
       7
100
AcDbLine
 10
-423.53577922
 20
-1071.43835067
 30
0.0
 11
-430.22844157
 21
-1078.13101302
 31
0.0
  0
LINE
  5
39E
100
AcDbEntity
  8
ZUWAKU
  6
CONTINUOUS
 62
       7
100
AcDbLine
 10
-424.66715007
 20
-1074.83246322
 30
0.0
 11
-427.96569987
 21
-1078.13101302
 31
0.0
  0
LINE
  5
39F
100
AcDbEntity
  8
ZUWAKU
  6
CONTINUOUS
 62
       7
100
AcDbLine
 10
-425.70295817
 20
-1078.13101302
 30
0.0
 11
-425.79852092
 21
-1078.22657576
 31
0.0
  0
LINE
  5
3A0
100
AcDbEntity
  8
ZUWAKU
  6
CONTINUOUS
 62
       7
100
AcDbLine
 10
-431.01666667
 20
-1096.13101302
 30
0.0
 11
-443.51666667
 21
-1108.63101302
 31
0.0
  0
LINE
  5
3A1
100
AcDbEntity
  8
ZUWAKU
  6
CONTINUOUS
 62
       7
100
AcDbLine
 10
-433.27940837
 20
-1096.13101302
 30
0.0
 11
-445.77940837
 21
-1108.63101302
 31
0.0
  0
LINE
  5
3A2
100
AcDbEntity
  8
ZUWAKU
  6
CONTINUOUS
 62
       7
100
AcDbLine
 10
-435.54215007
 20
-1096.13101302
 30
0.0
 11
-448.04215007
 21
-1108.63101302
 31
0.0
  0
LINE
  5
3A3
100
AcDbEntity
  8
ZUWAKU
  6
CONTINUOUS
 62
       7
100
AcDbLine
 10
-437.80489177
 20
-1096.13101302
 30
0.0
 11
-450.30489177
 21
-1108.63101302
 31
0.0
  0
LINE
  5
3A4
100
AcDbEntity
  8
ZUWAKU
  6
CONTINUOUS
 62
       7
100
AcDbLine
 10
-440.06763347
 20
-1096.13101302
 30
0.0
 11
-452.56763347
 21
-1108.63101302
 31
0.0
  0
LINE
  5
3A5
100
AcDbEntity
  8
ZUWAKU
  6
CONTINUOUS
 62
       7
100
AcDbLine
 10
-442.33037517
 20
-1096.13101302
 30
0.0
 11
-452.38708064
 21
-1106.18771849
 31
0.0
  0
LINE
  5
3A6
100
AcDbEntity
  8
ZUWAKU
  6
CONTINUOUS
 62
       7
100
AcDbLine
 10
-444.59311687
 20
-1096.13101302
 30
0.0
 11
-451.11428843
 21
-1102.65218458
 31
0.0
  0
LINE
  5
3A7
100
AcDbEntity
  8
ZUWAKU
  6
CONTINUOUS
 62
       7
100
AcDbLine
 10
-446.85585857
 20
-1096.13101302
 30
0.0
 11
-449.84149622
 21
-1099.11665067
 31
0.0
  0
LINE
  5
3A8
100
AcDbEntity
  8
ZUWAKU
  6
CONTINUOUS
 62
       7
100
AcDbLine
 10
-428.75392497
 20
-1096.13101302
 30
0.0
 11
-441.25392497
 21
-1108.63101302
 31
0.0
  0
LINE
  5
3A9
100
AcDbEntity
  8
ZUWAKU
  6
CONTINUOUS
 62
       7
100
AcDbLine
 10
-426.49118327
 20
-1096.13101302
 30
0.0
 11
-438.99118327
 21
-1108.63101302
 31
0.0
  0
LINE
  5
3AA
100
AcDbEntity
  8
ZUWAKU
  6
CONTINUOUS
 62
       7
100
AcDbLine
 10
-404.72844157
 20
-1076.63101302
 30
0.0
 11
-408.04055735
 21
-1079.9431288
 31
0.0
  0
LINE
  5
3AB
100
AcDbEntity
  8
ZUWAKU
  6
CONTINUOUS
 62
       7
100
AcDbLine
 10
-423.69021647
 20
-1095.59278792
 30
0.0
 11
-436.72844157
 21
-1108.63101302
 31
0.0
  0
LINE
  5
3AC
100
AcDbEntity
  8
ZUWAKU
  6
CONTINUOUS
 62
       7
100
AcDbLine
 10
-402.46569987
 20
-1076.63101302
 30
0.0
 11
-410.0692448
 21
-1084.23455795
 31
0.0
  0
LINE
  5
3AD
100
AcDbEntity
  8
ZUWAKU
  6
CONTINUOUS
 62
       7
100
AcDbLine
 10
-419.16473307
 20
-1093.33004622
 30
0.0
 11
-434.46569987
 21
-1108.63101302
 31
0.0
  0
LINE
  5
3AE
100
AcDbEntity
  8
ZUWAKU
  6
CONTINUOUS
 62
       7
100
AcDbLine
 10
-402.13459808
 20
-1078.56265293
 30
0.0
 11
-432.20295817
 21
-1108.63101302
 31
0.0
  0
LINE
  5
3AF
100
AcDbEntity
  8
ZUWAKU
  6
CONTINUOUS
 62
       7
100
AcDbLine
 10
-402.66700789
 20
-1081.35780444
 30
0.0
 11
-429.94021647
 21
-1108.63101302
 31
0.0
  0
LINE
  5
3B0
100
AcDbEntity
  8
ZUWAKU
  6
CONTINUOUS
 62
       7
100
AcDbLine
 10
-403.1994177
 20
-1084.15295595
 30
0.0
 11
-427.67747477
 21
-1108.63101302
 31
0.0
  0
LINE
  5
3B1
100
AcDbEntity
  8
ZUWAKU
  6
CONTINUOUS
 62
       7
100
AcDbLine
 10
-403.73182751
 20
-1086.94810746
 30
0.0
 11
-424.33318619
 21
-1107.54946614
 31
0.0
  0
LINE
  5
3B2
100
AcDbEntity
  8
ZUWAKU
  6
CONTINUOUS
 62
       7
100
AcDbLine
 10
-406.93867961
 20
-1092.41770126
 30
0.0
 11
-420.26025113
 21
-1105.73927278
 31
0.0
  0
LINE
  5
3B3
100
AcDbEntity
  8
ZUWAKU
  6
CONTINUOUS
 62
       7
100
AcDbLine
 10
-449.31666667
 20
-1069.13101302
 30
0.0
 11
-485.25416667
 21
-1105.06851302
 31
0.0
  0
LINE
  5
3B4
100
AcDbEntity
  8
ZUWAKU
  6
CONTINUOUS
 62
       7
100
AcDbLine
 10
-451.57940837
 20
-1069.13101302
 30
0.0
 11
-483.93423401
 21
-1101.48583866
 31
0.0
  0
LINE
  5
3B5
100
AcDbEntity
  8
ZUWAKU
  6
CONTINUOUS
 62
       7
100
AcDbLine
 10
-453.84215007
 20
-1069.13101302
 30
0.0
 11
-482.61430135
 21
-1097.9031643
 31
0.0
  0
LINE
  5
3B6
100
AcDbEntity
  8
ZUWAKU
  6
CONTINUOUS
 62
       7
100
AcDbLine
 10
-456.10489177
 20
-1069.13101302
 30
0.0
 11
-481.29436869
 21
-1094.32048994
 31
0.0
  0
LINE
  5
3B7
100
AcDbEntity
  8
ZUWAKU
  6
CONTINUOUS
 62
       7
100
AcDbLine
 10
-458.36763347
 20
-1069.13101302
 30
0.0
 11
-479.97443603
 21
-1090.73781558
 31
0.0
  0
LINE
  5
3B8
100
AcDbEntity
  8
ZUWAKU
  6
CONTINUOUS
 62
       7
100
AcDbLine
 10
-460.63037517
 20
-1069.13101302
 30
0.0
 11
-462.23011067
 21
-1070.73074852
 31
0.0
  0
LINE
  5
3B9
100
AcDbEntity
  8
ZUWAKU
  6
CONTINUOUS
 62
       7
100
AcDbLine
 10
-471.05315654
 20
-1079.55379439
 30
0.0
 11
-481.13037517
 21
-1089.63101302
 31
0.0
  0
LINE
  5
3BA
100
AcDbEntity
  8
ZUWAKU
  6
CONTINUOUS
 62
       7
100
AcDbLine
 10
-475.01295451
 20
-1081.25085067
 30
0.0
 11
-483.39311687
 21
-1089.63101302
 31
0.0
  0
LINE
  5
3BB
100
AcDbEntity
  8
ZUWAKU
  6
CONTINUOUS
 62
       7
100
AcDbLine
 10
-478.24662456
 20
-1082.22177901
 30
0.0
 11
-485.65585857
 21
-1089.63101302
 31
0.0
  0
LINE
  5
3BC
100
AcDbEntity
  8
ZUWAKU
  6
CONTINUOUS
 62
       7
100
AcDbLine
 10
-480.69792806
 20
-1082.41034082
 30
0.0
 11
-487.91860027
 21
-1089.63101302
 31
0.0
  0
LINE
  5
3BD
100
AcDbEntity
  8
ZUWAKU
  6
CONTINUOUS
 62
       7
100
AcDbLine
 10
-483.14923157
 20
-1082.59890262
 30
0.0
 11
-490.18134196
 21
-1089.63101302
 31
0.0
  0
LINE
  5
3BE
100
AcDbEntity
  8
ZUWAKU
  6
CONTINUOUS
 62
       7
100
AcDbLine
 10
-485.44408366
 20
-1082.63101302
 30
0.0
 11
-492.44408366
 21
-1089.63101302
 31
0.0
  0
LINE
  5
3BF
100
AcDbEntity
  8
ZUWAKU
  6
CONTINUOUS
 62
       7
100
AcDbLine
 10
-487.70682536
 20
-1082.63101302
 30
0.0
 11
-494.70682536
 21
-1089.63101302
 31
0.0
  0
LINE
  5
3C0
100
AcDbEntity
  8
ZUWAKU
  6
CONTINUOUS
 62
       7
100
AcDbLine
 10
-489.96956706
 20
-1082.63101302
 30
0.0
 11
-494.78727756
 21
-1087.44872351
 31
0.0
  0
LINE
  5
3C1
100
AcDbEntity
  8
ZUWAKU
  6
CONTINUOUS
 62
       7
100
AcDbLine
 10
-492.23230876
 20
-1082.63101302
 30
0.0
 11
-493.53019883
 21
-1083.92890309
 31
0.0
  0
LINE
  5
3C2
100
AcDbEntity
  8
ZUWAKU
  6
CONTINUOUS
 62
       7
100
AcDbLine
 10
-447.05392497
 20
-1069.13101302
 30
0.0
 11
-486.57409932
 21
-1108.65118737
 31
0.0
  0
LINE
  5
3C3
100
AcDbEntity
  8
ZUWAKU
  6
CONTINUOUS
 62
       7
100
AcDbLine
 10
-444.79118327
 20
-1069.13101302
 30
0.0
 11
-462.1687462
 21
-1086.50857595
 31
0.0
  0
LINE
  5
3C4
100
AcDbEntity
  8
ZUWAKU
  6
CONTINUOUS
 62
       7
100
AcDbLine
 10
-462.70915808
 20
-1087.04898783
 30
0.0
 11
-484.29118327
 21
-1108.63101302
 31
0.0
  0
LINE
  5
3C5
100
AcDbEntity
  8
ZUWAKU
  6
CONTINUOUS
 62
       7
100
AcDbLine
 10
-442.52844157
 20
-1069.13101302
 30
0.0
 11
-458.90034152
 21
-1085.50291297
 31
0.0
  0
LINE
  5
3C6
100
AcDbEntity
  8
ZUWAKU
  6
CONTINUOUS
 62
       7
100
AcDbLine
 10
-463.87954172
 20
-1090.48211317
 30
0.0
 11
-482.02844157
 21
-1108.63101302
 31
0.0
  0
LINE
  5
3C7
100
AcDbEntity
  8
ZUWAKU
  6
CONTINUOUS
 62
       7
100
AcDbLine
 10
-444.53892392
 20
-1073.40423707
 30
0.0
 11
-454.96312174
 21
-1083.82843489
 31
0.0
  0
LINE
  5
3C8
100
AcDbEntity
  8
ZUWAKU
  6
CONTINUOUS
 62
       7
100
AcDbLine
 10
-465.04992536
 20
-1093.9152385
 30
0.0
 11
-479.76569987
 21
-1108.63101302
 31
0.0
  0
LINE
  5
3C9
100
AcDbEntity
  8
ZUWAKU
  6
CONTINUOUS
 62
       7
100
AcDbLine
 10
-466.22030899
 20
-1097.34836384
 30
0.0
 11
-477.50295817
 21
-1108.63101302
 31
0.0
  0
LINE
  5
3CA
100
AcDbEntity
  8
ZUWAKU
  6
CONTINUOUS
 62
       7
100
AcDbLine
 10
-467.39069263
 20
-1100.78148918
 30
0.0
 11
-475.24021647
 21
-1108.63101302
 31
0.0
  0
LINE
  5
3CB
100
AcDbEntity
  8
ZUWAKU
  6
CONTINUOUS
 62
       7
100
AcDbLine
 10
-468.56107627
 20
-1104.21461452
 30
0.0
 11
-472.97747477
 21
-1108.63101302
 31
0.0
  0
LINE
  5
3CC
100
AcDbEntity
  8
ZUWAKU
  6
CONTINUOUS
 62
       7
100
AcDbLine
 10
-469.73145991
 20
-1107.64773986
 30
0.0
 11
-470.71473307
 21
-1108.63101302
 31
0.0
  0
LINE
  5
3CD
100
AcDbEntity
  8
ZUWAKU
  6
CONTINUOUS
 62
       7
100
AcDbLine
 10
-508.71666667
 20
-1069.13101302
 30
0.0
 11
-517.71666667
 21
-1078.13101302
 31
0.0
  0
LINE
  5
3CE
100
AcDbEntity
  8
ZUWAKU
  6
CONTINUOUS
 62
       7
100
AcDbLine
 10
-510.97940837
 20
-1069.13101302
 30
0.0
 11
-519.97940837
 21
-1078.13101302
 31
0.0
  0
LINE
  5
3CF
100
AcDbEntity
  8
ZUWAKU
  6
CONTINUOUS
 62
       7
100
AcDbLine
 10
-513.24215007
 20
-1069.13101302
 30
0.0
 11
-522.24215007
 21
-1078.13101302
 31
0.0
  0
LINE
  5
3D0
100
AcDbEntity
  8
ZUWAKU
  6
CONTINUOUS
 62
       7
100
AcDbLine
 10
-515.50489177
 20
-1069.13101302
 30
0.0
 11
-524.50489177
 21
-1078.13101302
 31
0.0
  0
LINE
  5
3D1
100
AcDbEntity
  8
ZUWAKU
  6
CONTINUOUS
 62
       7
100
AcDbLine
 10
-517.76763347
 20
-1069.13101302
 30
0.0
 11
-526.76763347
 21
-1078.13101302
 31
0.0
  0
LINE
  5
3D2
100
AcDbEntity
  8
ZUWAKU
  6
CONTINUOUS
 62
       7
100
AcDbLine
 10
-520.03037517
 20
-1069.13101302
 30
0.0
 11
-529.03037517
 21
-1078.13101302
 31
0.0
  0
LINE
  5
3D3
100
AcDbEntity
  8
ZUWAKU
  6
CONTINUOUS
 62
       7
100
AcDbLine
 10
-522.29311687
 20
-1069.13101302
 30
0.0
 11
-531.29311687
 21
-1078.13101302
 31
0.0
  0
LINE
  5
3D4
100
AcDbEntity
  8
ZUWAKU
  6
CONTINUOUS
 62
       7
100
AcDbLine
 10
-524.55585857
 20
-1069.13101302
 30
0.0
 11
-532.67207072
 21
-1077.24722517
 31
0.0
  0
LINE
  5
3D5
100
AcDbEntity
  8
ZUWAKU
  6
CONTINUOUS
 62
       7
100
AcDbLine
 10
-526.81860027
 20
-1069.13101302
 30
0.0
 11
-531.54069987
 21
-1073.85311262
 31
0.0
  0
LINE
  5
3D6
100
AcDbEntity
  8
ZUWAKU
  6
CONTINUOUS
 62
       7
100
AcDbLine
 10
-529.08134196
 20
-1069.13101302
 30
0.0
 11
-530.40932902
 21
-1070.45900007
 31
0.0
  0
LINE
  5
3D7
100
AcDbEntity
  8
ZUWAKU
  6
CONTINUOUS
 62
       7
100
AcDbLine
 10
-506.45392497
 20
-1069.13101302
 30
0.0
 11
-515.45392497
 21
-1078.13101302
 31
0.0
  0
LINE
  5
3D8
100
AcDbEntity
  8
ZUWAKU
  6
CONTINUOUS
 62
       7
100
AcDbLine
 10
-504.19118327
 20
-1069.13101302
 30
0.0
 11
-513.19118327
 21
-1078.13101302
 31
0.0
  0
LINE
  5
3D9
100
AcDbEntity
  8
ZUWAKU
  6
CONTINUOUS
 62
       7
100
AcDbLine
 10
-501.92844157
 20
-1069.13101302
 30
0.0
 11
-510.92844157
 21
-1078.13101302
 31
0.0
  0
LINE
  5
3DA
100
AcDbEntity
  8
ZUWAKU
  6
CONTINUOUS
 62
       7
100
AcDbLine
 10
-499.66569987
 20
-1069.13101302
 30
0.0
 11
-508.66569987
 21
-1078.13101302
 31
0.0
  0
LINE
  5
3DB
100
AcDbEntity
  8
ZUWAKU
  6
CONTINUOUS
 62
       7
100
AcDbLine
 10
-497.40295817
 20
-1069.13101302
 30
0.0
 11
-506.40295817
 21
-1078.13101302
 31
0.0
  0
LINE
  5
3DC
100
AcDbEntity
  8
ZUWAKU
  6
CONTINUOUS
 62
       7
100
AcDbLine
 10
-495.14021647
 20
-1069.13101302
 30
0.0
 11
-504.14021647
 21
-1078.13101302
 31
0.0
  0
LINE
  5
3DD
100
AcDbEntity
  8
ZUWAKU
  6
CONTINUOUS
 62
       7
100
AcDbLine
 10
-493.76126262
 20
-1070.01480086
 30
0.0
 11
-501.87747477
 21
-1078.13101302
 31
0.0
  0
LINE
  5
3DE
100
AcDbEntity
  8
ZUWAKU
  6
CONTINUOUS
 62
       7
100
AcDbLine
 10
-494.89263347
 20
-1073.40891341
 30
0.0
 11
-499.61473307
 21
-1078.13101302
 31
0.0
  0
LINE
  5
3DF
100
AcDbEntity
  8
ZUWAKU
  6
CONTINUOUS
 62
       7
100
AcDbLine
 10
-496.02400432
 20
-1076.80302596
 30
0.0
 11
-497.35199137
 21
-1078.13101302
 31
0.0
  0
LINE
  5
3E0
100
AcDbEntity
  8
ZUWAKU
  6
CONTINUOUS
 62
       7
100
AcDbLine
 10
-507.96666667
 20
-1082.63101302
 30
0.0
 11
-514.96666667
 21
-1089.63101302
 31
0.0
  0
LINE
  5
3E1
100
AcDbEntity
  8
ZUWAKU
  6
CONTINUOUS
 62
       7
100
AcDbLine
 10
-526.46666667
 20
-1101.13101302
 30
0.0
 11
-533.96666667
 21
-1108.63101302
 31
0.0
  0
LINE
  5
3E2
100
AcDbEntity
  8
ZUWAKU
  6
CONTINUOUS
 62
       7
100
AcDbLine
 10
-510.22940837
 20
-1082.63101302
 30
0.0
 11
-517.22940837
 21
-1089.63101302
 31
0.0
  0
LINE
  5
3E3
100
AcDbEntity
  8
ZUWAKU
  6
CONTINUOUS
 62
       7
100
AcDbLine
 10
-528.72940837
 20
-1101.13101302
 30
0.0
 11
-536.22940837
 21
-1108.63101302
 31
0.0
  0
LINE
  5
3E4
100
AcDbEntity
  8
ZUWAKU
  6
CONTINUOUS
 62
       7
100
AcDbLine
 10
-512.49215007
 20
-1082.63101302
 30
0.0
 11
-519.49215007
 21
-1089.63101302
 31
0.0
  0
LINE
  5
3E5
100
AcDbEntity
  8
ZUWAKU
  6
CONTINUOUS
 62
       7
100
AcDbLine
 10
-530.99215007
 20
-1101.13101302
 30
0.0
 11
-538.49215007
 21
-1108.63101302
 31
0.0
  0
LINE
  5
3E6
100
AcDbEntity
  8
ZUWAKU
  6
CONTINUOUS
 62
       7
100
AcDbLine
 10
-514.75489177
 20
-1082.63101302
 30
0.0
 11
-521.75489177
 21
-1089.63101302
 31
0.0
  0
LINE
  5
3E7
100
AcDbEntity
  8
ZUWAKU
  6
CONTINUOUS
 62
       7
100
AcDbLine
 10
-533.25489177
 20
-1101.13101302
 30
0.0
 11
-540.75489177
 21
-1108.63101302
 31
0.0
  0
LINE
  5
3E8
100
AcDbEntity
  8
ZUWAKU
  6
CONTINUOUS
 62
       7
100
AcDbLine
 10
-517.01763347
 20
-1082.63101302
 30
0.0
 11
-524.01763347
 21
-1089.63101302
 31
0.0
  0
LINE
  5
3E9
100
AcDbEntity
  8
ZUWAKU
  6
CONTINUOUS
 62
       7
100
AcDbLine
 10
-535.51763347
 20
-1101.13101302
 30
0.0
 11
-543.01763347
 21
-1108.63101302
 31
0.0
  0
LINE
  5
3EA
100
AcDbEntity
  8
ZUWAKU
  6
CONTINUOUS
 62
       7
100
AcDbLine
 10
-519.28037517
 20
-1082.63101302
 30
0.0
 11
-526.28037517
 21
-1089.63101302
 31
0.0
  0
LINE
  5
3EB
100
AcDbEntity
  8
ZUWAKU
  6
CONTINUOUS
 62
       7
100
AcDbLine
 10
-537.78037517
 20
-1101.13101302
 30
0.0
 11
-543.090861
 21
-1106.44149885
 31
0.0
  0
LINE
  5
3EC
100
AcDbEntity
  8
ZUWAKU
  6
CONTINUOUS
 62
       7
100
AcDbLine
 10
-521.54311687
 20
-1082.63101302
 30
0.0
 11
-528.54311687
 21
-1089.63101302
 31
0.0
  0
LINE
  5
3ED
100
AcDbEntity
  8
ZUWAKU
  6
CONTINUOUS
 62
       7
100
AcDbLine
 10
-540.04311687
 20
-1101.13101302
 30
0.0
 11
-541.58236653
 21
-1102.67026269
 31
0.0
  0
LINE
  5
3EE
100
AcDbEntity
  8
ZUWAKU
  6
CONTINUOUS
 62
       7
100
AcDbLine
 10
-523.80585857
 20
-1082.63101302
 30
0.0
 11
-530.80585857
 21
-1089.63101302
 31
0.0
  0
LINE
  5
3EF
100
AcDbEntity
  8
ZUWAKU
  6
CONTINUOUS
 62
       7
100
AcDbLine
 10
-526.06860027
 20
-1082.63101302
 30
0.0
 11
-533.06860027
 21
-1089.63101302
 31
0.0
  0
LINE
  5
3F0
100
AcDbEntity
  8
ZUWAKU
  6
CONTINUOUS
 62
       7
100
AcDbLine
 10
-528.33134196
 20
-1082.63101302
 30
0.0
 11
-535.33134196
 21
-1089.63101302
 31
0.0
  0
LINE
  5
3F1
100
AcDbEntity
  8
ZUWAKU
  6
CONTINUOUS
 62
       7
100
AcDbLine
 10
-530.59408366
 20
-1082.63101302
 30
0.0
 11
-535.31569987
 21
-1087.35262922
 31
0.0
  0
LINE
  5
3F2
100
AcDbEntity
  8
ZUWAKU
  6
CONTINUOUS
 62
       7
100
AcDbLine
 10
-532.85682536
 20
-1082.63101302
 30
0.0
 11
-534.41060319
 21
-1084.18479084
 31
0.0
  0
LINE
  5
3F3
100
AcDbEntity
  8
ZUWAKU
  6
CONTINUOUS
 62
       7
100
AcDbLine
 10
-505.70392497
 20
-1082.63101302
 30
0.0
 11
-515.87176335
 21
-1092.7988514
 31
0.0
  0
LINE
  5
3F4
100
AcDbEntity
  8
ZUWAKU
  6
CONTINUOUS
 62
       7
100
AcDbLine
 10
-523.54707072
 20
-1100.47415877
 30
0.0
 11
-531.70392497
 21
-1108.63101302
 31
0.0
  0
LINE
  5
3F5
100
AcDbEntity
  8
ZUWAKU
  6
CONTINUOUS
 62
       7
100
AcDbLine
 10
-503.44118327
 20
-1082.63101302
 30
0.0
 11
-529.44118327
 21
-1108.63101302
 31
0.0
  0
LINE
  5
3F6
100
AcDbEntity
  8
ZUWAKU
  6
CONTINUOUS
 62
       7
100
AcDbLine
 10
-501.17844157
 20
-1082.63101302
 30
0.0
 11
-527.17844157
 21
-1108.63101302
 31
0.0
  0
LINE
  5
3F7
100
AcDbEntity
  8
ZUWAKU
  6
CONTINUOUS
 62
       7
100
AcDbLine
 10
-498.91569987
 20
-1082.63101302
 30
0.0
 11
-524.91569987
 21
-1108.63101302
 31
0.0
  0
LINE
  5
3F8
100
AcDbEntity
  8
ZUWAKU
  6
CONTINUOUS
 62
       7
100
AcDbLine
 10
-498.71735724
 20
-1084.69541209
 30
0.0
 11
-522.65295817
 21
-1108.63101302
 31
0.0
  0
LINE
  5
3F9
100
AcDbEntity
  8
ZUWAKU
  6
CONTINUOUS
 62
       7
100
AcDbLine
 10
-500.01035249
 20
-1088.25114904
 30
0.0
 11
-520.39021647
 21
-1108.63101302
 31
0.0
  0
LINE
  5
3FA
100
AcDbEntity
  8
ZUWAKU
  6
CONTINUOUS
 62
       7
100
AcDbLine
 10
-501.30334775
 20
-1091.806886
 30
0.0
 11
-518.0144108
 21
-1108.51794905
 31
0.0
  0
LINE
  5
3FB
100
AcDbEntity
  8
ZUWAKU
  6
CONTINUOUS
 62
       7
100
AcDbLine
 10
-502.59634301
 20
-1095.36262296
 30
0.0
 11
-514.99742187
 21
-1107.76370182
 31
0.0
  0
LINE
  5
3FC
100
AcDbEntity
  8
ZUWAKU
  6
CONTINUOUS
 62
       7
100
AcDbLine
 10
-503.88933827
 20
-1098.91835991
 30
0.0
 11
-510.73731607
 21
-1105.76633772
 31
0.0
  0
LINE
  5
3FD
100
AcDbEntity
  8
ZUWAKU
  6
CONTINUOUS
 62
       7
100
AcDbLine
 10
-536.06666667
 20
-1069.13101302
 30
0.0
 11
-556.78541667
 21
-1089.84976302
 31
0.0
  0
LINE
  5
3FE
100
AcDbEntity
  8
ZUWAKU
  6
CONTINUOUS
 62
       7
100
AcDbLine
 10
-567.92380952
 20
-1100.98815587
 30
0.0
 11
-575.56666667
 21
-1108.63101302
 31
0.0
  0
LINE
  5
3FF
100
AcDbEntity
  8
ZUWAKU
  6
CONTINUOUS
 62
       7
100
AcDbLine
 10
-538.32940837
 20
-1069.13101302
 30
0.0
 11
-555.44191378
 21
-1086.24351843
 31
0.0
  0
LINE
  5
400
100
AcDbEntity
  8
ZUWAKU
  6
CONTINUOUS
 62
       7
100
AcDbLine
 10
-570.32940837
 20
-1101.13101302
 30
0.0
 11
-575.18529582
 21
-1105.98690047
 31
0.0
  0
LINE
  5
401
100
AcDbEntity
  8
ZUWAKU
  6
CONTINUOUS
 62
       7
100
AcDbLine
 10
-540.59215007
 20
-1069.13101302
 30
0.0
 11
-554.0984109
 21
-1082.63727385
 31
0.0
  0
LINE
  5
402
100
AcDbEntity
  8
ZUWAKU
  6
CONTINUOUS
 62
       7
100
AcDbLine
 10
-572.59215007
 20
-1101.13101302
 30
0.0
 11
-574.05392497
 21
-1102.59278792
 31
0.0
  0
LINE
  5
403
100
AcDbEntity
  8
ZUWAKU
  6
CONTINUOUS
 62
       7
100
AcDbLine
 10
-542.85489177
 20
-1069.13101302
 30
0.0
 11
-552.75490801
 21
-1079.03102926
 31
0.0
  0
LINE
  5
404
100
AcDbEntity
  8
ZUWAKU
  6
CONTINUOUS
 62
       7
100
AcDbLine
 10
-545.11763347
 20
-1069.13101302
 30
0.0
 11
-551.41140513
 21
-1075.42478468
 31
0.0
  0
LINE
  5
405
100
AcDbEntity
  8
ZUWAKU
  6
CONTINUOUS
 62
       7
100
AcDbLine
 10
-547.38037517
 20
-1069.13101302
 30
0.0
 11
-550.06790225
 21
-1071.8185401
 31
0.0
  0
LINE
  5
406
100
AcDbEntity
  8
ZUWAKU
  6
CONTINUOUS
 62
       7
100
AcDbLine
 10
-536.47063677
 20
-1071.79772482
 30
0.0
 11
-558.12891955
 21
-1093.4560076
 31
0.0
  0
LINE
  5
407
100
AcDbEntity
  8
ZUWAKU
  6
CONTINUOUS
 62
       7
100
AcDbLine
 10
-565.33781901
 20
-1100.66490706
 30
0.0
 11
-573.30392497
 21
-1108.63101302
 31
0.0
  0
LINE
  5
408
100
AcDbEntity
  8
ZUWAKU
  6
CONTINUOUS
 62
       7
100
AcDbLine
 10
-537.63101713
 20
-1075.22084688
 30
0.0
 11
-561.01569987
 21
-1098.60552962
 31
0.0
  0
LINE
  5
409
100
AcDbEntity
  8
ZUWAKU
  6
CONTINUOUS
 62
       7
100
AcDbLine
 10
-561.109139
 20
-1098.69896875
 30
0.0
 11
-571.04118327
 21
-1108.63101302
 31
0.0
  0
LINE
  5
40A
100
AcDbEntity
  8
ZUWAKU
  6
CONTINUOUS
 62
       7
100
AcDbLine
 10
-538.79139749
 20
-1078.64396894
 30
0.0
 11
-568.77844157
 21
-1108.63101302
 31
0.0
  0
LINE
  5
40B
100
AcDbEntity
  8
ZUWAKU
  6
CONTINUOUS
 62
       7
100
AcDbLine
 10
-539.95177785
 20
-1082.06709099
 30
0.0
 11
-566.51569987
 21
-1108.63101302
 31
0.0
  0
LINE
  5
40C
100
AcDbEntity
  8
ZUWAKU
  6
CONTINUOUS
 62
       7
100
AcDbLine
 10
-541.1121582
 20
-1085.49021305
 30
0.0
 11
-564.25295817
 21
-1108.63101302
 31
0.0
  0
LINE
  5
40D
100
AcDbEntity
  8
ZUWAKU
  6
CONTINUOUS
 62
       7
100
AcDbLine
 10
-542.27253856
 20
-1088.91333511
 30
0.0
 11
-561.81505533
 21
-1108.45585188
 31
0.0
  0
LINE
  5
40E
100
AcDbEntity
  8
ZUWAKU
  6
CONTINUOUS
 62
       7
100
AcDbLine
 10
-543.43291892
 20
-1092.33645717
 30
0.0
 11
-559.30089789
 21
-1108.20443614
 31
0.0
  0
LINE
  5
40F
100
AcDbEntity
  8
ZUWAKU
  6
CONTINUOUS
 62
       7
100
AcDbLine
 10
-544.59329928
 20
-1095.75957923
 30
0.0
 11
-555.89677734
 21
-1107.06305728
 31
0.0
  0
LINE
  5
410
100
AcDbEntity
  8
ZUWAKU
  6
CONTINUOUS
 62
       7
100
AcDbLine
 10
-560.11666667
 20
-1071.93101302
 30
0.0
 11
-578.60698925
 21
-1090.4213356
 31
0.0
  0
LINE
  5
411
100
AcDbEntity
  8
ZUWAKU
  6
CONTINUOUS
 62
       7
100
AcDbLine
 10
-559.57940837
 20
-1069.13101302
 30
0.0
 11
-577.3661309
 21
-1086.91773555
 31
0.0
  0
LINE
  5
412
100
AcDbEntity
  8
ZUWAKU
  6
CONTINUOUS
 62
       7
100
AcDbLine
 10
-561.84215007
 20
-1069.13101302
 30
0.0
 11
-576.12527254
 21
-1083.41413549
 31
0.0
  0
LINE
  5
413
100
AcDbEntity
  8
ZUWAKU
  6
CONTINUOUS
 62
       7
100
AcDbLine
 10
-564.10489177
 20
-1069.13101302
 30
0.0
 11
-574.88441419
 21
-1079.91053544
 31
0.0
  0
LINE
  5
414
100
AcDbEntity
  8
ZUWAKU
  6
CONTINUOUS
 62
       7
100
AcDbLine
 10
-566.36763347
 20
-1069.13101302
 30
0.0
 11
-573.64355584
 21
-1076.40693539
 31
0.0
  0
LINE
  5
415
100
AcDbEntity
  8
ZUWAKU
  6
CONTINUOUS
 62
       7
100
AcDbLine
 10
-568.63037517
 20
-1069.13101302
 30
0.0
 11
-572.40269749
 21
-1072.90333534
 31
0.0
  0
LINE
  5
416
100
AcDbEntity
  8
ZUWAKU
  6
CONTINUOUS
 62
       7
100
AcDbLine
 10
-570.89311687
 20
-1069.13101302
 30
0.0
 11
-571.16183914
 21
-1069.39973529
 31
0.0
  0
LINE
  5
417
100
AcDbEntity
  8
ZUWAKU
  6
CONTINUOUS
 62
       7
100
AcDbLine
 10
-561.47431169
 20
-1075.55139974
 30
0.0
 11
-579.05392497
 21
-1093.13101302
 31
0.0
  0
LINE
  5
418
100
AcDbEntity
  8
ZUWAKU
  6
CONTINUOUS
 62
       7
100
AcDbLine
 10
-562.83195671
 20
-1079.17178646
 30
0.0
 11
-576.79118327
 21
-1093.13101302
 31
0.0
  0
LINE
  5
419
100
AcDbEntity
  8
ZUWAKU
  6
CONTINUOUS
 62
       7
100
AcDbLine
 10
-564.18960173
 20
-1082.79217318
 30
0.0
 11
-574.52844157
 21
-1093.13101302
 31
0.0
  0
LINE
  5
41A
100
AcDbEntity
  8
ZUWAKU
  6
CONTINUOUS
 62
       7
100
AcDbLine
 10
-565.54724675
 20
-1086.4125599
 30
0.0
 11
-572.26569987
 21
-1093.13101302
 31
0.0
  0
LINE
  5
41B
100
AcDbEntity
  8
ZUWAKU
  6
CONTINUOUS
 62
       7
100
AcDbLine
 10
-566.90489177
 20
-1090.03294661
 30
0.0
 11
-570.00295817
 21
-1093.13101302
 31
0.0
  0
LINE
  5
41C
100
AcDbEntity
  8
ZUWAKU
  6
CONTINUOUS
 62
       7
100
AcDbLine
 10
-730.66666667
 20
1067.1198899
 30
0.0
 11
754.83333333
 21
1067.1198899
 31
0.0
  0
LINE
  5
41D
100
AcDbEntity
  8
ZUWAKU
  6
CONTINUOUS
 62
       7
100
AcDbLine
 10
249.83333333
 20
1146.36898698
 30
0.0
 11
754.83333333
 21
1146.36898698
 31
0.0
  0
LINE
  5
41E
100
AcDbEntity
  8
ZUWAKU
  6
CONTINUOUS
 62
       7
100
AcDbLine
 10
249.83333333
 20
1146.36898698
 30
0.0
 11
249.83333333
 21
1067.1198899
 31
0.0
  0
LINE
  5
41F
100
AcDbEntity
  8
ZUWAKU
  6
CONTINUOUS
 62
       7
100
AcDbLine
 10
754.83333333
 20
1146.36898698
 30
0.0
 11
754.83333333
 21
1067.1198899
 31
0.0
  0
LINE
  5
420
100
AcDbEntity
  8
ZUWAKU
  6
CONTINUOUS
 62
       7
100
AcDbLine
 10
-728.66666667
 20
-1129.13101302
 30
0.0
 11
746.83333333
 21
-1129.13101302
 31
0.0
  0
LINE
  5
421
100
AcDbEntity
  8
ZUWAKU
  6
CONTINUOUS
 62
       7
100
AcDbLine
 10
-728.66666667
 20
-1032.63101302
 30
0.0
 11
746.83333333
 21
-1032.63101302
 31
0.0
  0
LINE
  5
422
100
AcDbEntity
  8
ZUWAKU
  6
CONTINUOUS
 62
       7
100
AcDbLine
 10
247.83333333
 20
-1129.13101302
 30
0.0
 11
247.83333333
 21
-1032.63101302
 31
0.0
  0
LINE
  5
423
100
AcDbEntity
  8
ZUWAKU
  6
CONTINUOUS
 62
       7
100
AcDbLine
 10
207.83333333
 20
-1129.13101302
 30
0.0
 11
207.83333333
 21
-1032.63101302
 31
0.0
  0
LINE
  5
424
100
AcDbEntity
  8
ZUWAKU
  6
CONTINUOUS
 62
       7
100
AcDbLine
 10
-292.66666667
 20
-1129.13101302
 30
0.0
 11
-292.66666667
 21
-1032.63101302
 31
0.0
  0
LINE
  5
425
100
AcDbEntity
  8
ZUWAKU
  6
CONTINUOUS
 62
       7
100
AcDbLine
 10
-332.66666667
 20
-1129.13101302
 30
0.0
 11
-332.66666667
 21
-1032.63101302
 31
0.0
  0
LINE
  5
426
100
AcDbEntity
  8
ZUWAKU
  6
CONTINUOUS
 62
       7
100
AcDbLine
 10
-646.16666667
 20
1113.36898698
 30
0.0
 11
-652.94701449
 21
1125.36498698
 31
0.0
  0
LINE
  5
427
100
AcDbEntity
  8
ZUWAKU
  6
CONTINUOUS
 62
       7
100
AcDbLine
 10
-679.97111327
 20
1135.86898698
 30
0.0
 11
-679.13777993
 21
1138.36898698
 31
0.0
  0
LINE
  5
428
100
AcDbEntity
  8
ZUWAKU
  6
CONTINUOUS
 62
       7
100
AcDbLine
 10
-616.24904819
 20
1116.32779622
 30
0.0
 11
-617.15866667
 21
1115.87298698
 31
0.0
  0
LINE
  5
429
100
AcDbEntity
  8
ZUWAKU
  6
CONTINUOUS
 62
       7
100
AcDbLine
 10
-615.66666667
 20
1113.36898698
 30
0.0
 11
-611.46666667
 21
1117.56898698
 31
0.0
  0
LINE
  5
42A
100
AcDbEntity
  8
ZUWAKU
  6
CONTINUOUS
 62
       7
100
AcDbLine
 10
-612.16666667
 20
1113.36898698
 30
0.0
 11
-611.46666667
 21
1117.56898698
 31
0.0
  0
LINE
  5
42B
100
AcDbEntity
  8
ZUWAKU
  6
CONTINUOUS
 62
       7
100
AcDbLine
 10
-593.66666667
 20
1116.86898698
 30
0.0
 11
-593.66666667
 21
1115.87298698
 31
0.0
  0
LINE
  5
42C
100
AcDbEntity
  8
ZUWAKU
  6
CONTINUOUS
 62
       7
100
AcDbLine
 10
-571.5465023
 20
1113.36898698
 30
0.0
 11
-580.66666667
 21
1113.36898698
 31
0.0
  0
LINE
  5
42D
100
AcDbEntity
  8
ZUWAKU
  6
CONTINUOUS
 62
       7
100
AcDbLine
 10
-585.59440685
 20
1116.93221432
 30
0.0
 11
-589.66666667
 21
1113.36898698
 31
0.0
  0
LINE
  5
42E
100
AcDbEntity
  8
ZUWAKU
  6
CONTINUOUS
 62
       7
100
AcDbLine
 10
-556.70068264
 20
1113.36898698
 30
0.0
 11
-567.16666667
 21
1113.36898698
 31
0.0
  0
LINE
  5
42F
100
AcDbEntity
  8
ZUWAKU
  6
CONTINUOUS
 62
       7
100
AcDbLine
 10
-660.97766667
 20
1115.87298698
 30
0.0
 11
-653.47916667
 21
1135.86898698
 31
0.0
  0
LINE
  5
430
100
AcDbEntity
  8
ZUWAKU
  6
CONTINUOUS
 62
       7
100
AcDbLine
 10
-653.80489349
 20
1127.86898698
 30
0.0
 11
-642.1012439
 21
1127.86898698
 31
0.0
  0
LINE
  5
431
100
AcDbEntity
  8
ZUWAKU
  6
CONTINUOUS
 62
       7
100
AcDbLine
 10
-578.48484848
 20
1119.36898698
 30
0.0
 11
-580.16666667
 21
1119.36898698
 31
0.0
  0
LINE
  5
432
100
AcDbEntity
  8
ZUWAKU
  6
CONTINUOUS
 62
       7
100
AcDbLine
 10
-580.16666667
 20
1119.36898698
 30
0.0
 11
-581.81957954
 21
1119.36898698
 31
0.0
  0
LINE
  5
433
100
AcDbEntity
  8
ZUWAKU
  6
CONTINUOUS
 62
       7
100
AcDbLine
 10
-596.44462508
 20
1113.36898698
 30
0.0
 11
-589.66666667
 21
1113.36898698
 31
0.0
  0
CIRCLE
  5
434
100
AcDbEntity
  8
ZUWAKU
  6
CONTINUOUS
 62
       7
100
AcDbCircle
 10
-607.43126858
 20
1127.36898698
 30
0.0
 40
1.51460192
  0
LINE
  5
435
100
AcDbEntity
  8
ZUWAKU
  6
CONTINUOUS
 62
       7
100
AcDbLine
 10
-659.10416667
 20
1135.86898698
 30
0.0
 11
-653.47916667
 21
1135.86898698
 31
0.0
  0
LINE
  5
436
100
AcDbEntity
  8
ZUWAKU
  6
CONTINUOUS
 62
       7
100
AcDbLine
 10
-650.80489349
 20
1135.86898698
 30
0.0
 11
-642.1012439
 21
1135.86898698
 31
0.0
  0
LINE
  5
437
100
AcDbEntity
  8
ZUWAKU
  6
CONTINUOUS
 62
       7
100
AcDbLine
 10
-667.66666667
 20
1113.36898698
 30
0.0
 11
-666.72766667
 21
1115.87298698
 31
0.0
  0
LINE
  5
438
100
AcDbEntity
  8
ZUWAKU
  6
CONTINUOUS
 62
       7
100
AcDbLine
 10
-659.10416667
 20
1135.86898698
 30
0.0
 11
-658.16666667
 21
1138.36898698
 31
0.0
  0
LINE
  5
439
100
AcDbEntity
  8
ZUWAKU
  6
CONTINUOUS
 62
       7
100
AcDbLine
 10
-660.35537443
 20
1135.86898698
 30
0.0
 11
-659.41787443
 21
1138.36898698
 31
0.0
  0
LINE
  5
43A
100
AcDbEntity
  8
ZUWAKU
  6
CONTINUOUS
 62
       7
100
AcDbLine
 10
-642.1012439
 20
1138.36898698
 30
0.0
 11
-658.16666667
 21
1138.36898698
 31
0.0
  0
LINE
  5
43B
100
AcDbEntity
  8
ZUWAKU
  6
CONTINUOUS
 62
       7
100
AcDbLine
 10
-659.41787443
 20
1138.36898698
 30
0.0
 11
-661.79314947
 21
1138.36898698
 31
0.0
  0
LINE
  5
43C
100
AcDbEntity
  8
ZUWAKU
  6
CONTINUOUS
 62
       7
100
AcDbLine
 10
-662.73064947
 20
1135.86898698
 30
0.0
 11
-660.35537443
 21
1135.86898698
 31
0.0
  0
LINE
  5
43D
100
AcDbEntity
  8
ZUWAKU
  6
CONTINUOUS
 62
       7
100
AcDbLine
 10
-663.64146902
 20
1135.86898698
 30
0.0
 11
-662.70396902
 21
1138.36898698
 31
0.0
  0
LINE
  5
43E
100
AcDbEntity
  8
ZUWAKU
  6
CONTINUOUS
 62
       7
100
AcDbLine
 10
-662.70396902
 20
1138.36898698
 30
0.0
 11
-664.69500547
 21
1138.36898698
 31
0.0
  0
LINE
  5
43F
100
AcDbEntity
  8
ZUWAKU
  6
CONTINUOUS
 62
       7
100
AcDbLine
 10
-665.63250547
 20
1135.86898698
 30
0.0
 11
-663.64146902
 21
1135.86898698
 31
0.0
  0
LINE
  5
440
100
AcDbEntity
  8
ZUWAKU
  6
CONTINUOUS
 62
       7
100
AcDbLine
 10
-665.63250547
 20
1135.86898698
 30
0.0
 11
-664.69500547
 21
1138.36898698
 31
0.0
  0
LINE
  5
441
100
AcDbEntity
  8
ZUWAKU
  6
CONTINUOUS
 62
       7
100
AcDbLine
 10
-666.39490011
 20
1138.36898698
 30
0.0
 11
-668.34596506
 21
1138.36898698
 31
0.0
  0
LINE
  5
442
100
AcDbEntity
  8
ZUWAKU
  6
CONTINUOUS
 62
       7
100
AcDbLine
 10
-669.28346506
 20
1135.86898698
 30
0.0
 11
-667.33240011
 21
1135.86898698
 31
0.0
  0
LINE
  5
443
100
AcDbEntity
  8
ZUWAKU
  6
CONTINUOUS
 62
       7
100
AcDbLine
 10
-669.28346506
 20
1135.86898698
 30
0.0
 11
-668.34596506
 21
1138.36898698
 31
0.0
  0
LINE
  5
444
100
AcDbEntity
  8
ZUWAKU
  6
CONTINUOUS
 62
       7
100
AcDbLine
 10
-662.73064947
 20
1135.86898698
 30
0.0
 11
-661.79314947
 21
1138.36898698
 31
0.0
  0
LINE
  5
445
100
AcDbEntity
  8
ZUWAKU
  6
CONTINUOUS
 62
       7
100
AcDbLine
 10
-667.33240011
 20
1135.86898698
 30
0.0
 11
-666.39490011
 21
1138.36898698
 31
0.0
  0
LINE
  5
446
100
AcDbEntity
  8
ZUWAKU
  6
CONTINUOUS
 62
       7
100
AcDbLine
 10
-670.74478279
 20
1135.86898698
 30
0.0
 11
-669.80728279
 21
1138.36898698
 31
0.0
  0
LINE
  5
447
100
AcDbEntity
  8
ZUWAKU
  6
CONTINUOUS
 62
       7
100
AcDbLine
 10
-669.80728279
 20
1138.36898698
 30
0.0
 11
-671.61123185
 21
1138.36898698
 31
0.0
  0
LINE
  5
448
100
AcDbEntity
  8
ZUWAKU
  6
CONTINUOUS
 62
       7
100
AcDbLine
 10
-672.54873185
 20
1135.86898698
 30
0.0
 11
-670.74478279
 21
1135.86898698
 31
0.0
  0
LINE
  5
449
100
AcDbEntity
  8
ZUWAKU
  6
CONTINUOUS
 62
       7
100
AcDbLine
 10
-672.54873185
 20
1135.86898698
 30
0.0
 11
-671.61123185
 21
1138.36898698
 31
0.0
  0
LINE
  5
44A
100
AcDbEntity
  8
ZUWAKU
  6
CONTINUOUS
 62
       7
100
AcDbLine
 10
-674.07580695
 20
1135.86898698
 30
0.0
 11
-673.13830695
 21
1138.36898698
 31
0.0
  0
LINE
  5
44B
100
AcDbEntity
  8
ZUWAKU
  6
CONTINUOUS
 62
       7
100
AcDbLine
 10
-673.13830695
 20
1138.36898698
 30
0.0
 11
-674.74247361
 21
1138.36898698
 31
0.0
  0
LINE
  5
44C
100
AcDbEntity
  8
ZUWAKU
  6
CONTINUOUS
 62
       7
100
AcDbLine
 10
-675.57580695
 20
1135.86898698
 30
0.0
 11
-674.07580695
 21
1135.86898698
 31
0.0
  0
LINE
  5
44D
100
AcDbEntity
  8
ZUWAKU
  6
CONTINUOUS
 62
       7
100
AcDbLine
 10
-675.57580695
 20
1135.86898698
 30
0.0
 11
-674.74247361
 21
1138.36898698
 31
0.0
  0
LINE
  5
44E
100
AcDbEntity
  8
ZUWAKU
  6
CONTINUOUS
 62
       7
100
AcDbLine
 10
-677.17318709
 20
1135.86898698
 30
0.0
 11
-676.33985375
 21
1138.36898698
 31
0.0
  0
LINE
  5
44F
100
AcDbEntity
  8
ZUWAKU
  6
CONTINUOUS
 62
       7
100
AcDbLine
 10
-678.47111327
 20
1135.86898698
 30
0.0
 11
-677.63777993
 21
1138.36898698
 31
0.0
  0
LINE
  5
450
100
AcDbEntity
  8
ZUWAKU
  6
CONTINUOUS
 62
       7
100
AcDbLine
 10
-680.88777993
 20
1135.86898698
 30
0.0
 11
-680.0544466
 21
1138.36898698
 31
0.0
  0
LINE
  5
451
100
AcDbEntity
  8
ZUWAKU
  6
CONTINUOUS
 62
       7
100
AcDbLine
 10
-682.47111327
 20
1135.86898698
 30
0.0
 11
-681.63777993
 21
1138.36898698
 31
0.0
  0
LINE
  5
452
100
AcDbEntity
  8
ZUWAKU
  6
CONTINUOUS
 62
       7
100
AcDbLine
 10
-682.88777993
 20
1135.86898698
 30
0.0
 11
-682.0544466
 21
1138.36898698
 31
0.0
  0
LINE
  5
453
100
AcDbEntity
  8
ZUWAKU
  6
CONTINUOUS
 62
       7
100
AcDbLine
 10
-676.33985375
 20
1138.36898698
 30
0.0
 11
-677.63777993
 21
1138.36898698
 31
0.0
  0
LINE
  5
454
100
AcDbEntity
  8
ZUWAKU
  6
CONTINUOUS
 62
       7
100
AcDbLine
 10
-678.47111327
 20
1135.86898698
 30
0.0
 11
-677.17318709
 21
1135.86898698
 31
0.0
  0
LINE
  5
455
100
AcDbEntity
  8
ZUWAKU
  6
CONTINUOUS
 62
       7
100
AcDbLine
 10
-679.13777993
 20
1138.36898698
 30
0.0
 11
-680.0544466
 21
1138.36898698
 31
0.0
  0
LINE
  5
456
100
AcDbEntity
  8
ZUWAKU
  6
CONTINUOUS
 62
       7
100
AcDbLine
 10
-681.63777993
 20
1138.36898698
 30
0.0
 11
-682.0544466
 21
1138.36898698
 31
0.0
  0
LINE
  5
457
100
AcDbEntity
  8
ZUWAKU
  6
CONTINUOUS
 62
       7
100
AcDbLine
 10
-680.88777993
 20
1135.86898698
 30
0.0
 11
-679.97111327
 21
1135.86898698
 31
0.0
  0
LINE
  5
458
100
AcDbEntity
  8
ZUWAKU
  6
CONTINUOUS
 62
       7
100
AcDbLine
 10
-682.47111327
 20
1135.86898698
 30
0.0
 11
-682.88777993
 21
1135.86898698
 31
0.0
  0
ELLIPSE
  5
459
100
AcDbEntity
  8
ZUWAKU
  6
CONTINUOUS
 62
       7
100
AcDbEllipse
 10
-614.91666667
 20
1123.10128825
 30
0.0
 11
-102.25
 21
0.0
 31
0.0
210
0.0
220
0.0
230
1.0
 40
0.40365317
 41
0.0
 42
6.2831853071796004
  0
LINE
  5
45A
100
AcDbEntity
  8
ZUWAKU
  6
CONTINUOUS
 62
       7
100
AcDbLine
 10
-697.16666667
 20
1142.86898698
 30
0.0
 11
-697.16666667
 21
1103.86898698
 31
0.0
  0
LINE
  5
45B
100
AcDbEntity
  8
ZUWAKU
  6
CONTINUOUS
 62
       7
100
AcDbLine
 10
-532.16666667
 20
1142.86898698
 30
0.0
 11
-532.16666667
 21
1103.86898698
 31
0.0
  0
LINE
  5
45C
100
AcDbEntity
  8
ZUWAKU
  6
CONTINUOUS
 62
       7
100
AcDbLine
 10
-697.16666667
 20
1142.86898698
 30
0.0
 11
-532.16666667
 21
1142.86898698
 31
0.0
  0
LINE
  5
45D
100
AcDbEntity
  8
ZUWAKU
  6
CONTINUOUS
 62
       7
100
AcDbLine
 10
-697.16666667
 20
1103.86898698
 30
0.0
 11
-532.16666667
 21
1103.86898698
 31
0.0
  0
LINE
  5
45E
100
AcDbEntity
  8
ZUWAKU
  6
CONTINUOUS
 62
       7
100
AcDbLine
 10
-625.10748094
 20
1164.16932334
 30
0.0
 11
-646.4078173
 21
1142.86898698
 31
0.0
  0
LINE
  5
45F
100
AcDbEntity
  8
ZUWAKU
  6
CONTINUOUS
 62
       7
100
AcDbLine
 10
-627.47731973
 20
1164.06222625
 30
0.0
 11
-648.670559
 21
1142.86898698
 31
0.0
  0
LINE
  5
460
100
AcDbEntity
  8
ZUWAKU
  6
CONTINUOUS
 62
       7
100
AcDbLine
 10
-629.87128271
 20
1163.93100497
 30
0.0
 11
-650.9333007
 21
1142.86898698
 31
0.0
  0
LINE
  5
461
100
AcDbEntity
  8
ZUWAKU
  6
CONTINUOUS
 62
       7
100
AcDbLine
 10
-632.29036678
 20
1163.7746626
 30
0.0
 11
-653.1960424
 21
1142.86898698
 31
0.0
  0
LINE
  5
462
100
AcDbEntity
  8
ZUWAKU
  6
CONTINUOUS
 62
       7
100
AcDbLine
 10
-634.73568535
 20
1163.59208573
 30
0.0
 11
-655.4587841
 21
1142.86898698
 31
0.0
  0
LINE
  5
463
100
AcDbEntity
  8
ZUWAKU
  6
CONTINUOUS
 62
       7
100
AcDbLine
 10
-637.2084861
 20
1163.38202668
 30
0.0
 11
-657.7215258
 21
1142.86898698
 31
0.0
  0
LINE
  5
464
100
AcDbEntity
  8
ZUWAKU
  6
CONTINUOUS
 62
       7
100
AcDbLine
 10
-639.71017274
 20
1163.14308174
 30
0.0
 11
-659.9842675
 21
1142.86898698
 31
0.0
  0
LINE
  5
465
100
AcDbEntity
  8
ZUWAKU
  6
CONTINUOUS
 62
       7
100
AcDbLine
 10
-642.24233155
 20
1162.87366463
 30
0.0
 11
-662.2470092
 21
1142.86898698
 31
0.0
  0
LINE
  5
466
100
AcDbEntity
  8
ZUWAKU
  6
CONTINUOUS
 62
       7
100
AcDbLine
 10
-644.80676435
 20
1162.57197353
 30
0.0
 11
-664.5097509
 21
1142.86898698
 31
0.0
  0
LINE
  5
467
100
AcDbEntity
  8
ZUWAKU
  6
CONTINUOUS
 62
       7
100
AcDbLine
 10
-647.40552971
 20
1162.23594987
 30
0.0
 11
-666.7724926
 21
1142.86898698
 31
0.0
  0
LINE
  5
468
100
AcDbEntity
  8
ZUWAKU
  6
CONTINUOUS
 62
       7
100
AcDbLine
 10
-650.04099509
 20
1161.86322619
 30
0.0
 11
-669.0352343
 21
1142.86898698
 31
0.0
  0
LINE
  5
469
100
AcDbEntity
  8
ZUWAKU
  6
CONTINUOUS
 62
       7
100
AcDbLine
 10
-652.71590385
 20
1161.45105913
 30
0.0
 11
-671.297976
 21
1142.86898698
 31
0.0
  0
LINE
  5
46A
100
AcDbEntity
  8
ZUWAKU
  6
CONTINUOUS
 62
       7
100
AcDbLine
 10
-655.43346238
 20
1160.9962423
 30
0.0
 11
-673.5607177
 21
1142.86898698
 31
0.0
  0
LINE
  5
46B
100
AcDbEntity
  8
ZUWAKU
  6
CONTINUOUS
 62
       7
100
AcDbLine
 10
-658.19745554
 20
1160.49499084
 30
0.0
 11
-675.82345939
 21
1142.86898698
 31
0.0
  0
LINE
  5
46C
100
AcDbEntity
  8
ZUWAKU
  6
CONTINUOUS
 62
       7
100
AcDbLine
 10
-661.01240249
 20
1159.94278558
 30
0.0
 11
-678.08620109
 21
1142.86898698
 31
0.0
  0
LINE
  5
46D
100
AcDbEntity
  8
ZUWAKU
  6
CONTINUOUS
 62
       7
100
AcDbLine
 10
-697.16666667
 20
1123.78852141
 30
0.0
 11
-697.58620109
 21
1123.36898698
 31
0.0
  0
LINE
  5
46E
100
AcDbEntity
  8
ZUWAKU
  6
CONTINUOUS
 62
       7
100
AcDbLine
 10
-663.88377157
 20
1159.33415821
 30
0.0
 11
-680.34894279
 21
1142.86898698
 31
0.0
  0
LINE
  5
46F
100
AcDbEntity
  8
ZUWAKU
  6
CONTINUOUS
 62
       7
100
AcDbLine
 10
-697.16666667
 20
1126.05126311
 30
0.0
 11
-699.84894279
 21
1123.36898698
 31
0.0
  0
LINE
  5
470
100
AcDbEntity
  8
ZUWAKU
  6
CONTINUOUS
 62
       7
100
AcDbLine
 10
-666.81828434
 20
1158.66238714
 30
0.0
 11
-682.61168449
 21
1142.86898698
 31
0.0
  0
LINE
  5
471
100
AcDbEntity
  8
ZUWAKU
  6
CONTINUOUS
 62
       7
100
AcDbLine
 10
-697.16666667
 20
1128.31400481
 30
0.0
 11
-702.11168449
 21
1123.36898698
 31
0.0
  0
LINE
  5
472
100
AcDbEntity
  8
ZUWAKU
  6
CONTINUOUS
 62
       7
100
AcDbLine
 10
-669.82435891
 20
1157.91905426
 30
0.0
 11
-684.87442619
 21
1142.86898698
 31
0.0
  0
LINE
  5
473
100
AcDbEntity
  8
ZUWAKU
  6
CONTINUOUS
 62
       7
100
AcDbLine
 10
-697.16666667
 20
1130.57674651
 30
0.0
 11
-704.37442619
 21
1123.36898698
 31
0.0
  0
LINE
  5
474
100
AcDbEntity
  8
ZUWAKU
  6
CONTINUOUS
 62
       7
100
AcDbLine
 10
-672.91277935
 20
1157.09337553
 30
0.0
 11
-687.13716789
 21
1142.86898698
 31
0.0
  0
LINE
  5
475
100
AcDbEntity
  8
ZUWAKU
  6
CONTINUOUS
 62
       7
100
AcDbLine
 10
-697.16666667
 20
1132.83948821
 30
0.0
 11
-706.63716789
 21
1123.36898698
 31
0.0
  0
LINE
  5
476
100
AcDbEntity
  8
ZUWAKU
  6
CONTINUOUS
 62
       7
100
AcDbLine
 10
-676.09775134
 20
1156.17114523
 30
0.0
 11
-689.39990959
 21
1142.86898698
 31
0.0
  0
LINE
  5
477
100
AcDbEntity
  8
ZUWAKU
  6
CONTINUOUS
 62
       7
100
AcDbLine
 10
-697.16666667
 20
1135.10222991
 30
0.0
 11
-708.89990959
 21
1123.36898698
 31
0.0
  0
LINE
  5
478
100
AcDbEntity
  8
ZUWAKU
  6
CONTINUOUS
 62
       7
100
AcDbLine
 10
-679.39865793
 20
1155.13298035
 30
0.0
 11
-691.66265129
 21
1142.86898698
 31
0.0
  0
LINE
  5
479
100
AcDbEntity
  8
ZUWAKU
  6
CONTINUOUS
 62
       7
100
AcDbLine
 10
-697.16666667
 20
1137.36497161
 30
0.0
 11
-711.16265129
 21
1123.36898698
 31
0.0
  0
LINE
  5
47A
100
AcDbEntity
  8
ZUWAKU
  6
CONTINUOUS
 62
       7
100
AcDbLine
 10
-682.84318522
 20
1153.95119475
 30
0.0
 11
-693.92539299
 21
1142.86898698
 31
0.0
  0
LINE
  5
47B
100
AcDbEntity
  8
ZUWAKU
  6
CONTINUOUS
 62
       7
100
AcDbLine
 10
-697.16666667
 20
1139.62771331
 30
0.0
 11
-713.42539299
 21
1123.36898698
 31
0.0
  0
LINE
  5
47C
100
AcDbEntity
  8
ZUWAKU
  6
CONTINUOUS
 62
       7
100
AcDbLine
 10
-686.47341155
 20
1152.58371012
 30
0.0
 11
-696.18813469
 21
1142.86898698
 31
0.0
  0
LINE
  5
47D
100
AcDbEntity
  8
ZUWAKU
  6
CONTINUOUS
 62
       7
100
AcDbLine
 10
-697.16666667
 20
1141.89045501
 30
0.0
 11
-715.68813469
 21
1123.36898698
 31
0.0
  0
LINE
  5
47E
100
AcDbEntity
  8
ZUWAKU
  6
CONTINUOUS
 62
       7
100
AcDbLine
 10
-690.35926033
 20
1150.96060305
 30
0.0
 11
-717.13117345
 21
1124.18868992
 31
0.0
  0
LINE
  5
47F
100
AcDbEntity
  8
ZUWAKU
  6
CONTINUOUS
 62
       7
100
AcDbLine
 10
-694.63448884
 20
1148.94811623
 30
0.0
 11
-716.74737478
 21
1126.83523029
 31
0.0
  0
LINE
  5
480
100
AcDbEntity
  8
ZUWAKU
  6
CONTINUOUS
 62
       7
100
AcDbLine
 10
-699.63212665
 20
1146.21322012
 30
0.0
 11
-715.64116682
 21
1130.20417996
 31
0.0
  0
LINE
  5
481
100
AcDbEntity
  8
ZUWAKU
  6
CONTINUOUS
 62
       7
100
AcDbLine
 10
-707.42225404
 20
1140.68583443
 30
0.0
 11
-711.74246927
 21
1136.36561921
 31
0.0
  0
LINE
  5
482
100
AcDbEntity
  8
ZUWAKU
  6
CONTINUOUS
 62
       7
100
AcDbLine
 10
-622.76087109
 20
1164.25319149
 30
0.0
 11
-644.1450756
 21
1142.86898698
 31
0.0
  0
LINE
  5
483
100
AcDbEntity
  8
ZUWAKU
  6
CONTINUOUS
 62
       7
100
AcDbLine
 10
-620.43668427
 20
1164.31463662
 30
0.0
 11
-641.8823339
 21
1142.86898698
 31
0.0
  0
LINE
  5
484
100
AcDbEntity
  8
ZUWAKU
  6
CONTINUOUS
 62
       7
100
AcDbLine
 10
-618.13419352
 20
1164.35438567
 30
0.0
 11
-639.6195922
 21
1142.86898698
 31
0.0
  0
LINE
  5
485
100
AcDbEntity
  8
ZUWAKU
  6
CONTINUOUS
 62
       7
100
AcDbLine
 10
-615.85274207
 20
1164.37309541
 30
0.0
 11
-637.3568505
 21
1142.86898698
 31
0.0
  0
LINE
  5
486
100
AcDbEntity
  8
ZUWAKU
  6
CONTINUOUS
 62
       7
100
AcDbLine
 10
-613.5917359
 20
1164.37135988
 30
0.0
 11
-635.0941088
 21
1142.86898698
 31
0.0
  0
LINE
  5
487
100
AcDbEntity
  8
ZUWAKU
  6
CONTINUOUS
 62
       7
100
AcDbLine
 10
-611.35063735
 20
1164.34971673
 30
0.0
 11
-632.8313671
 21
1142.86898698
 31
0.0
  0
LINE
  5
488
100
AcDbEntity
  8
ZUWAKU
  6
CONTINUOUS
 62
       7
100
AcDbLine
 10
-609.1289597
 20
1164.30865268
 30
0.0
 11
-630.5686254
 21
1142.86898698
 31
0.0
  0
LINE
  5
489
100
AcDbEntity
  8
ZUWAKU
  6
CONTINUOUS
 62
       7
100
AcDbLine
 10
-606.92626246
 20
1164.24860823
 30
0.0
 11
-628.3058837
 21
1142.86898698
 31
0.0
  0
LINE
  5
48A
100
AcDbEntity
  8
ZUWAKU
  6
CONTINUOUS
 62
       7
100
AcDbLine
 10
-604.74214734
 20
1164.16998164
 30
0.0
 11
-626.043142
 21
1142.86898698
 31
0.0
  0
LINE
  5
48B
100
AcDbEntity
  8
ZUWAKU
  6
CONTINUOUS
 62
       7
100
AcDbLine
 10
-602.57625478
 20
1164.0731325
 30
0.0
 11
-623.7804003
 21
1142.86898698
 31
0.0
  0
LINE
  5
48C
100
AcDbEntity
  8
ZUWAKU
  6
CONTINUOUS
 62
       7
100
AcDbLine
 10
-600.42826089
 20
1163.95838469
 30
0.0
 11
-621.5176586
 21
1142.86898698
 31
0.0
  0
LINE
  5
48D
100
AcDbEntity
  8
ZUWAKU
  6
CONTINUOUS
 62
       7
100
AcDbLine
 10
-598.29787483
 20
1163.82602905
 30
0.0
 11
-619.2549169
 21
1142.86898698
 31
0.0
  0
LINE
  5
48E
100
AcDbEntity
  8
ZUWAKU
  6
CONTINUOUS
 62
       7
100
AcDbLine
 10
-596.18483658
 20
1163.67632561
 30
0.0
 11
-616.9921752
 21
1142.86898698
 31
0.0
  0
LINE
  5
48F
100
AcDbEntity
  8
ZUWAKU
  6
CONTINUOUS
 62
       7
100
AcDbLine
 10
-594.08891493
 20
1163.50950556
 30
0.0
 11
-614.7294335
 21
1142.86898698
 31
0.0
  0
LINE
  5
490
100
AcDbEntity
  8
ZUWAKU
  6
CONTINUOUS
 62
       7
100
AcDbLine
 10
-592.00990582
 20
1163.32577296
 30
0.0
 11
-612.4666918
 21
1142.86898698
 31
0.0
  0
LINE
  5
491
100
AcDbEntity
  8
ZUWAKU
  6
CONTINUOUS
 62
       7
100
AcDbLine
 10
-589.94763088
 20
1163.1253062
 30
0.0
 11
-610.2039501
 21
1142.86898698
 31
0.0
  0
LINE
  5
492
100
AcDbEntity
  8
ZUWAKU
  6
CONTINUOUS
 62
       7
100
AcDbLine
 10
-587.90193618
 20
1162.9082592
 30
0.0
 11
-607.9412084
 21
1142.86898698
 31
0.0
  0
LINE
  5
493
100
AcDbEntity
  8
ZUWAKU
  6
CONTINUOUS
 62
       7
100
AcDbLine
 10
-585.87269119
 20
1162.67476249
 30
0.0
 11
-605.6784667
 21
1142.86898698
 31
0.0
  0
LINE
  5
494
100
AcDbEntity
  8
ZUWAKU
  6
CONTINUOUS
 62
       7
100
AcDbLine
 10
-583.8597879
 20
1162.42492409
 30
0.0
 11
-603.415725
 21
1142.86898698
 31
0.0
  0
LINE
  5
495
100
AcDbEntity
  8
ZUWAKU
  6
CONTINUOUS
 62
       7
100
AcDbLine
 10
-581.86314011
 20
1162.15883018
 30
0.0
 11
-601.1529833
 21
1142.86898698
 31
0.0
  0
LINE
  5
496
100
AcDbEntity
  8
ZUWAKU
  6
CONTINUOUS
 62
       7
100
AcDbLine
 10
-579.88268289
 20
1161.87654569
 30
0.0
 11
-598.8902416
 21
1142.86898698
 31
0.0
  0
LINE
  5
497
100
AcDbEntity
  8
ZUWAKU
  6
CONTINUOUS
 62
       7
100
AcDbLine
 10
-577.91837215
 20
1161.57811473
 30
0.0
 11
-596.6274999
 21
1142.86898698
 31
0.0
  0
LINE
  5
498
100
AcDbEntity
  8
ZUWAKU
  6
CONTINUOUS
 62
       7
100
AcDbLine
 10
-575.97018435
 20
1161.26356083
 30
0.0
 11
-594.3647582
 21
1142.86898698
 31
0.0
  0
LINE
  5
499
100
AcDbEntity
  8
ZUWAKU
  6
CONTINUOUS
 62
       7
100
AcDbLine
 10
-574.03811637
 20
1160.93288712
 30
0.0
 11
-592.1020165
 21
1142.86898698
 31
0.0
  0
LINE
  5
49A
100
AcDbEntity
  8
ZUWAKU
  6
CONTINUOUS
 62
       7
100
AcDbLine
 10
-572.12218546
 20
1160.58607632
 30
0.0
 11
-589.8392748
 21
1142.86898698
 31
0.0
  0
LINE
  5
49B
100
AcDbEntity
  8
ZUWAKU
  6
CONTINUOUS
 62
       7
100
AcDbLine
 10
-570.2224294
 20
1160.22309069
 30
0.0
 11
-587.5765331
 21
1142.86898698
 31
0.0
  0
LINE
  5
49C
100
AcDbEntity
  8
ZUWAKU
  6
CONTINUOUS
 62
       7
100
AcDbLine
 10
-568.33890668
 20
1159.84387171
 30
0.0
 11
-585.3137914
 21
1142.86898698
 31
0.0
  0
LINE
  5
49D
100
AcDbEntity
  8
ZUWAKU
  6
CONTINUOUS
 62
       7
100
AcDbLine
 10
-566.47169692
 20
1159.44833977
 30
0.0
 11
-583.0510497
 21
1142.86898698
 31
0.0
  0
LINE
  5
49E
100
AcDbEntity
  8
ZUWAKU
  6
CONTINUOUS
 62
       7
100
AcDbLine
 10
-564.62090136
 20
1159.03639363
 30
0.0
 11
-580.788308
 21
1142.86898698
 31
0.0
  0
LINE
  5
49F
100
AcDbEntity
  8
ZUWAKU
  6
CONTINUOUS
 62
       7
100
AcDbLine
 10
-562.78664354
 20
1158.60790975
 30
0.0
 11
-578.5255663
 21
1142.86898698
 31
0.0
  0
LINE
  5
4A0
100
AcDbEntity
  8
ZUWAKU
  6
CONTINUOUS
 62
       7
100
AcDbLine
 10
-560.96907011
 20
1158.16274148
 30
0.0
 11
-576.2628246
 21
1142.86898698
 31
0.0
  0
LINE
  5
4A1
100
AcDbEntity
  8
ZUWAKU
  6
CONTINUOUS
 62
       7
100
AcDbLine
 10
-559.16835181
 20
1157.70071807
 30
0.0
 11
-574.0000829
 21
1142.86898698
 31
0.0
  0
LINE
  5
4A2
100
AcDbEntity
  8
ZUWAKU
  6
CONTINUOUS
 62
       7
100
AcDbLine
 10
-557.3846847
 20
1157.22164349
 30
0.0
 11
-571.7373412
 21
1142.86898698
 31
0.0
  0
LINE
  5
4A3
100
AcDbEntity
  8
ZUWAKU
  6
CONTINUOUS
 62
       7
100
AcDbLine
 10
-555.61829146
 20
1156.72529503
 30
0.0
 11
-569.4745995
 21
1142.86898698
 31
0.0
  0
LINE
  5
4A4
100
AcDbEntity
  8
ZUWAKU
  6
CONTINUOUS
 62
       7
100
AcDbLine
 10
-553.86942308
 20
1156.2114217
 30
0.0
 11
-567.2118578
 21
1142.86898698
 31
0.0
  0
LINE
  5
4A5
100
AcDbEntity
  8
ZUWAKU
  6
CONTINUOUS
 62
       7
100
AcDbLine
 10
-552.13836073
 20
1155.67974236
 30
0.0
 11
-564.9491161
 21
1142.86898698
 31
0.0
  0
LINE
  5
4A6
100
AcDbEntity
  8
ZUWAKU
  6
CONTINUOUS
 62
       7
100
AcDbLine
 10
-550.42541788
 20
1155.12994351
 30
0.0
 11
-562.6863744
 21
1142.86898698
 31
0.0
  0
LINE
  5
4A7
100
AcDbEntity
  8
ZUWAKU
  6
CONTINUOUS
 62
       7
100
AcDbLine
 10
-548.73094285
 20
1154.56167683
 30
0.0
 11
-560.42363271
 21
1142.86898698
 31
0.0
  0
LINE
  5
4A8
100
AcDbEntity
  8
ZUWAKU
  6
CONTINUOUS
 62
       7
100
AcDbLine
 10
-547.05532171
 20
1153.97455628
 30
0.0
 11
-558.16089101
 21
1142.86898698
 31
0.0
  0
LINE
  5
4A9
100
AcDbEntity
  8
ZUWAKU
  6
CONTINUOUS
 62
       7
100
AcDbLine
 10
-545.39898158
 20
1153.36815471
 30
0.0
 11
-555.89814931
 21
1142.86898698
 31
0.0
  0
LINE
  5
4AA
100
AcDbEntity
  8
ZUWAKU
  6
CONTINUOUS
 62
       7
100
AcDbLine
 10
-543.76239454
 20
1152.74200005
 30
0.0
 11
-553.63540761
 21
1142.86898698
 31
0.0
  0
LINE
  5
4AB
100
AcDbEntity
  8
ZUWAKU
  6
CONTINUOUS
 62
       7
100
AcDbLine
 10
-542.14608206
 20
1152.09557083
 30
0.0
 11
-551.37266591
 21
1142.86898698
 31
0.0
  0
LINE
  5
4AC
100
AcDbEntity
  8
ZUWAKU
  6
CONTINUOUS
 62
       7
100
AcDbLine
 10
-540.55062025
 20
1151.42829094
 30
0.0
 11
-549.10992421
 21
1142.86898698
 31
0.0
  0
LINE
  5
4AD
100
AcDbEntity
  8
ZUWAKU
  6
CONTINUOUS
 62
       7
100
AcDbLine
 10
-538.97664589
 20
1150.7395236
 30
0.0
 11
-546.84718251
 21
1142.86898698
 31
0.0
  0
LINE
  5
4AE
100
AcDbEntity
  8
ZUWAKU
  6
CONTINUOUS
 62
       7
100
AcDbLine
 10
-537.42486354
 20
1150.02856425
 30
0.0
 11
-544.58444081
 21
1142.86898698
 31
0.0
  0
LINE
  5
4AF
100
AcDbEntity
  8
ZUWAKU
  6
CONTINUOUS
 62
       7
100
AcDbLine
 10
-535.89605384
 20
1149.29463225
 30
0.0
 11
-542.32169911
 21
1142.86898698
 31
0.0
  0
LINE
  5
4B0
100
AcDbEntity
  8
ZUWAKU
  6
CONTINUOUS
 62
       7
100
AcDbLine
 10
-534.39108342
 20
1148.53686097
 30
0.0
 11
-540.05895741
 21
1142.86898698
 31
0.0
  0
LINE
  5
4B1
100
AcDbEntity
  8
ZUWAKU
  6
CONTINUOUS
 62
       7
100
AcDbLine
 10
-532.91091656
 20
1147.75428614
 30
0.0
 11
-537.79621571
 21
1142.86898698
 31
0.0
  0
LINE
  5
4B2
100
AcDbEntity
  8
ZUWAKU
  6
CONTINUOUS
 62
       7
100
AcDbLine
 10
-531.45662915
 20
1146.94583185
 30
0.0
 11
-535.53347401
 21
1142.86898698
 31
0.0
  0
LINE
  5
4B3
100
AcDbEntity
  8
ZUWAKU
  6
CONTINUOUS
 62
       7
100
AcDbLine
 10
-530.02942557
 20
1146.11029372
 30
0.0
 11
-533.27073231
 21
1142.86898698
 31
0.0
  0
LINE
  5
4B4
100
AcDbEntity
  8
ZUWAKU
  6
CONTINUOUS
 62
       7
100
AcDbLine
 10
-528.63065907
 20
1145.24631852
 30
0.0
 11
-532.16666667
 21
1141.71031092
 31
0.0
  0
LINE
  5
4B5
100
AcDbEntity
  8
ZUWAKU
  6
CONTINUOUS
 62
       7
100
AcDbLine
 10
-527.26185675
 20
1144.35237914
 30
0.0
 11
-532.16666667
 21
1139.44756922
 31
0.0
  0
LINE
  5
4B6
100
AcDbEntity
  8
ZUWAKU
  6
CONTINUOUS
 62
       7
100
AcDbLine
 10
-525.92475032
 20
1143.42674387
 30
0.0
 11
-532.16666667
 21
1137.18482753
 31
0.0
  0
LINE
  5
4B7
100
AcDbEntity
  8
ZUWAKU
  6
CONTINUOUS
 62
       7
100
AcDbLine
 10
-524.62131459
 20
1142.4674379
 30
0.0
 11
-532.16666667
 21
1134.92208583
 31
0.0
  0
LINE
  5
4B8
100
AcDbEntity
  8
ZUWAKU
  6
CONTINUOUS
 62
       7
100
AcDbLine
 10
-523.35381589
 20
1141.4721949
 30
0.0
 11
-532.16666667
 21
1132.65934413
 31
0.0
  0
LINE
  5
4B9
100
AcDbEntity
  8
ZUWAKU
  6
CONTINUOUS
 62
       7
100
AcDbLine
 10
-522.12487404
 20
1140.43839505
 30
0.0
 11
-532.16666667
 21
1130.39660243
 31
0.0
  0
LINE
  5
4BA
100
AcDbEntity
  8
ZUWAKU
  6
CONTINUOUS
 62
       7
100
AcDbLine
 10
-520.93754256
 20
1139.36298483
 30
0.0
 11
-532.16666667
 21
1128.13386073
 31
0.0
  0
LINE
  5
4BB
100
AcDbEntity
  8
ZUWAKU
  6
CONTINUOUS
 62
       7
100
AcDbLine
 10
-519.79541442
 20
1138.24237127
 30
0.0
 11
-532.16666667
 21
1125.87111903
 31
0.0
  0
LINE
  5
4BC
100
AcDbEntity
  8
ZUWAKU
  6
CONTINUOUS
 62
       7
100
AcDbLine
 10
-518.7027638
 20
1137.0722802
 30
0.0
 11
-532.16666667
 21
1123.60837733
 31
0.0
  0
LINE
  5
4BD
100
AcDbEntity
  8
ZUWAKU
  6
CONTINUOUS
 62
       7
100
AcDbLine
 10
-517.66474031
 20
1135.84756198
 30
0.0
 11
-530.14331531
 21
1123.36898698
 31
0.0
  0
LINE
  5
4BE
100
AcDbEntity
  8
ZUWAKU
  6
CONTINUOUS
 62
       7
100
AcDbLine
 10
-516.68764157
 20
1134.56191902
 30
0.0
 11
-527.88057361
 21
1123.36898698
 31
0.0
  0
LINE
  5
4BF
100
AcDbEntity
  8
ZUWAKU
  6
CONTINUOUS
 62
       7
100
AcDbLine
 10
-515.77930666
 20
1133.20751224
 30
0.0
 11
-525.61783191
 21
1123.36898698
 31
0.0
  0
LINE
  5
4C0
100
AcDbEntity
  8
ZUWAKU
  6
CONTINUOUS
 62
       7
100
AcDbLine
 10
-514.94970354
 20
1131.77437366
 30
0.0
 11
-523.35509021
 21
1123.36898698
 31
0.0
  0
LINE
  5
4C1
100
AcDbEntity
  8
ZUWAKU
  6
CONTINUOUS
 62
       7
100
AcDbLine
 10
-514.21184236
 20
1130.24949313
 30
0.0
 11
-521.09234851
 21
1123.36898698
 31
0.0
  0
LINE
  5
4C2
100
AcDbEntity
  8
ZUWAKU
  6
CONTINUOUS
 62
       7
100
AcDbLine
 10
-513.58326777
 20
1128.61532602
 30
0.0
 11
-518.82960681
 21
1123.36898698
 31
0.0
  0
LINE
  5
4C3
100
AcDbEntity
  8
ZUWAKU
  6
CONTINUOUS
 62
       7
100
AcDbLine
 10
-513.08865581
 20
1126.84719629
 30
0.0
 11
-516.56686511
 21
1123.36898698
 31
0.0
  0
LINE
  5
4C4
100
AcDbEntity
  8
ZUWAKU
  6
CONTINUOUS
 62
       7
100
AcDbLine
 10
-512.76472026
 20
1124.90839013
 30
0.0
 11
-514.30412341
 21
1123.36898698
 31
0.0
  0
LINE
  5
4C5
100
AcDbEntity
  8
ZUWAKU
  6
CONTINUOUS
 62
       7
100
AcDbLine
 10
-583.15781965
 20
1103.86898698
 30
0.0
 11
-605.00467086
 21
1082.02213577
 31
0.0
  0
LINE
  5
4C6
100
AcDbEntity
  8
ZUWAKU
  6
CONTINUOUS
 62
       7
100
AcDbLine
 10
-585.42056135
 20
1103.86898698
 30
0.0
 11
-607.34858748
 21
1081.94096086
 31
0.0
  0
LINE
  5
4C7
100
AcDbEntity
  8
ZUWAKU
  6
CONTINUOUS
 62
       7
100
AcDbLine
 10
-587.68330305
 20
1103.86898698
 30
0.0
 11
-609.670171
 21
1081.88211904
 31
0.0
  0
LINE
  5
4C8
100
AcDbEntity
  8
ZUWAKU
  6
CONTINUOUS
 62
       7
100
AcDbLine
 10
-589.94604475
 20
1103.86898698
 30
0.0
 11
-611.97013965
 21
1081.84489208
 31
0.0
  0
LINE
  5
4C9
100
AcDbEntity
  8
ZUWAKU
  6
CONTINUOUS
 62
       7
100
AcDbLine
 10
-592.20878645
 20
1103.86898698
 30
0.0
 11
-614.24914242
 21
1081.82863102
 31
0.0
  0
LINE
  5
4CA
100
AcDbEntity
  8
ZUWAKU
  6
CONTINUOUS
 62
       7
100
AcDbLine
 10
-594.47152815
 20
1103.86898698
 30
0.0
 11
-616.50776635
 21
1081.83274879
 31
0.0
  0
LINE
  5
4CB
100
AcDbEntity
  8
ZUWAKU
  6
CONTINUOUS
 62
       7
100
AcDbLine
 10
-596.73426985
 20
1103.86898698
 30
0.0
 11
-618.7465428
 21
1081.85671404
 31
0.0
  0
LINE
  5
4CC
100
AcDbEntity
  8
ZUWAKU
  6
CONTINUOUS
 62
       7
100
AcDbLine
 10
-598.99701155
 20
1103.86898698
 30
0.0
 11
-620.96595279
 21
1081.90004574
 31
0.0
  0
LINE
  5
4CD
100
AcDbEntity
  8
ZUWAKU
  6
CONTINUOUS
 62
       7
100
AcDbLine
 10
-601.25975325
 20
1103.86898698
 30
0.0
 11
-623.16643163
 21
1081.96230861
 31
0.0
  0
LINE
  5
4CE
100
AcDbEntity
  8
ZUWAKU
  6
CONTINUOUS
 62
       7
100
AcDbLine
 10
-603.52249495
 20
1103.86898698
 30
0.0
 11
-625.34837283
 21
1082.04310911
 31
0.0
  0
LINE
  5
4CF
100
AcDbEntity
  8
ZUWAKU
  6
CONTINUOUS
 62
       7
100
AcDbLine
 10
-605.78523665
 20
1103.86898698
 30
0.0
 11
-627.5121316
 21
1082.14209204
 31
0.0
  0
LINE
  5
4D0
100
AcDbEntity
  8
ZUWAKU
  6
CONTINUOUS
 62
       7
100
AcDbLine
 10
-608.04797835
 20
1103.86898698
 30
0.0
 11
-629.65802779
 21
1082.25893755
 31
0.0
  0
LINE
  5
4D1
100
AcDbEntity
  8
ZUWAKU
  6
CONTINUOUS
 62
       7
100
AcDbLine
 10
-610.31072005
 20
1103.86898698
 30
0.0
 11
-631.78634847
 21
1082.39335856
 31
0.0
  0
LINE
  5
4D2
100
AcDbEntity
  8
ZUWAKU
  6
CONTINUOUS
 62
       7
100
AcDbLine
 10
-612.57346175
 20
1103.86898698
 30
0.0
 11
-633.89735018
 21
1082.54509856
 31
0.0
  0
LINE
  5
4D3
100
AcDbEntity
  8
ZUWAKU
  6
CONTINUOUS
 62
       7
100
AcDbLine
 10
-614.83620345
 20
1103.86898698
 30
0.0
 11
-635.9912608
 21
1082.71392963
 31
0.0
  0
LINE
  5
4D4
100
AcDbEntity
  8
ZUWAKU
  6
CONTINUOUS
 62
       7
100
AcDbLine
 10
-617.09894515
 20
1103.86898698
 30
0.0
 11
-638.0682813
 21
1082.89965084
 31
0.0
  0
LINE
  5
4D5
100
AcDbEntity
  8
ZUWAKU
  6
CONTINUOUS
 62
       7
100
AcDbLine
 10
-619.36168685
 20
1103.86898698
 30
0.0
 11
-640.12858709
 21
1083.10208674
 31
0.0
  0
LINE
  5
4D6
100
AcDbEntity
  8
ZUWAKU
  6
CONTINUOUS
 62
       7
100
AcDbLine
 10
-621.62442855
 20
1103.86898698
 30
0.0
 11
-642.17232929
 21
1083.32108624
 31
0.0
  0
LINE
  5
4D7
100
AcDbEntity
  8
ZUWAKU
  6
CONTINUOUS
 62
       7
100
AcDbLine
 10
-623.88717025
 20
1103.86898698
 30
0.0
 11
-644.19963572
 21
1083.55652151
 31
0.0
  0
LINE
  5
4D8
100
AcDbEntity
  8
ZUWAKU
  6
CONTINUOUS
 62
       7
100
AcDbLine
 10
-626.14991195
 20
1103.86898698
 30
0.0
 11
-646.21061178
 21
1083.80828715
 31
0.0
  0
LINE
  5
4D9
100
AcDbEntity
  8
ZUWAKU
  6
CONTINUOUS
 62
       7
100
AcDbLine
 10
-628.41265365
 20
1103.86898698
 30
0.0
 11
-648.20534111
 21
1084.07629952
 31
0.0
  0
LINE
  5
4DA
100
AcDbEntity
  8
ZUWAKU
  6
CONTINUOUS
 62
       7
100
AcDbLine
 10
-630.67539535
 20
1103.86898698
 30
0.0
 11
-650.18388617
 21
1084.36049617
 31
0.0
  0
LINE
  5
4DB
100
AcDbEntity
  8
ZUWAKU
  6
CONTINUOUS
 62
       7
100
AcDbLine
 10
-632.93813705
 20
1103.86898698
 30
0.0
 11
-652.1462886
 21
1084.66083543
 31
0.0
  0
LINE
  5
4DC
100
AcDbEntity
  8
ZUWAKU
  6
CONTINUOUS
 62
       7
100
AcDbLine
 10
-635.20087875
 20
1103.86898698
 30
0.0
 11
-654.09256952
 21
1084.97729621
 31
0.0
  0
LINE
  5
4DD
100
AcDbEntity
  8
ZUWAKU
  6
CONTINUOUS
 62
       7
100
AcDbLine
 10
-637.46362045
 20
1103.86898698
 30
0.0
 11
-656.02272965
 21
1085.30987778
 31
0.0
  0
LINE
  5
4DE
100
AcDbEntity
  8
ZUWAKU
  6
CONTINUOUS
 62
       7
100
AcDbLine
 10
-639.72636215
 20
1103.86898698
 30
0.0
 11
-657.93674931
 21
1085.65859982
 31
0.0
  0
LINE
  5
4DF
100
AcDbEntity
  8
ZUWAKU
  6
CONTINUOUS
 62
       7
100
AcDbLine
 10
-641.98910385
 20
1103.86898698
 30
0.0
 11
-659.8345883
 21
1086.02350254
 31
0.0
  0
LINE
  5
4E0
100
AcDbEntity
  8
ZUWAKU
  6
CONTINUOUS
 62
       7
100
AcDbLine
 10
-644.25184555
 20
1103.86898698
 30
0.0
 11
-661.71618563
 21
1086.40464691
 31
0.0
  0
LINE
  5
4E1
100
AcDbEntity
  8
ZUWAKU
  6
CONTINUOUS
 62
       7
100
AcDbLine
 10
-646.51458725
 20
1103.86898698
 30
0.0
 11
-663.58145916
 21
1086.80211507
 31
0.0
  0
LINE
  5
4E2
100
AcDbEntity
  8
ZUWAKU
  6
CONTINUOUS
 62
       7
100
AcDbLine
 10
-648.77732895
 20
1103.86898698
 30
0.0
 11
-665.43030505
 21
1087.21601088
 31
0.0
  0
LINE
  5
4E3
100
AcDbEntity
  8
ZUWAKU
  6
CONTINUOUS
 62
       7
100
AcDbLine
 10
-651.04007065
 20
1103.86898698
 30
0.0
 11
-667.26259708
 21
1087.64646056
 31
0.0
  0
LINE
  5
4E4
100
AcDbEntity
  8
ZUWAKU
  6
CONTINUOUS
 62
       7
100
AcDbLine
 10
-653.30281235
 20
1103.86898698
 30
0.0
 11
-669.07818579
 21
1088.09361354
 31
0.0
  0
LINE
  5
4E5
100
AcDbEntity
  8
ZUWAKU
  6
CONTINUOUS
 62
       7
100
AcDbLine
 10
-655.56555405
 20
1103.86898698
 30
0.0
 11
-670.87689752
 21
1088.55764351
 31
0.0
  0
LINE
  5
4E6
100
AcDbEntity
  8
ZUWAKU
  6
CONTINUOUS
 62
       7
100
AcDbLine
 10
-657.82829575
 20
1103.86898698
 30
0.0
 11
-672.65853314
 21
1089.03874959
 31
0.0
  0
LINE
  5
4E7
100
AcDbEntity
  8
ZUWAKU
  6
CONTINUOUS
 62
       7
100
AcDbLine
 10
-660.09103745
 20
1103.86898698
 30
0.0
 11
-674.4228667
 21
1089.53715773
 31
0.0
  0
LINE
  5
4E8
100
AcDbEntity
  8
ZUWAKU
  6
CONTINUOUS
 62
       7
100
AcDbLine
 10
-662.35377915
 20
1103.86898698
 30
0.0
 11
-676.16964375
 21
1090.05312238
 31
0.0
  0
LINE
  5
4E9
100
AcDbEntity
  8
ZUWAKU
  6
CONTINUOUS
 62
       7
100
AcDbLine
 10
-664.61652085
 20
1103.86898698
 30
0.0
 11
-677.89857942
 21
1090.58692841
 31
0.0
  0
LINE
  5
4EA
100
AcDbEntity
  8
ZUWAKU
  6
CONTINUOUS
 62
       7
100
AcDbLine
 10
-666.87926255
 20
1103.86898698
 30
0.0
 11
-679.60935624
 21
1091.13889329
 31
0.0
  0
LINE
  5
4EB
100
AcDbEntity
  8
ZUWAKU
  6
CONTINUOUS
 62
       7
100
AcDbLine
 10
-669.14200425
 20
1103.86898698
 30
0.0
 11
-681.3016216
 21
1091.70936963
 31
0.0
  0
LINE
  5
4EC
100
AcDbEntity
  8
ZUWAKU
  6
CONTINUOUS
 62
       7
100
AcDbLine
 10
-671.40474595
 20
1103.86898698
 30
0.0
 11
-682.97498475
 21
1092.29874818
 31
0.0
  0
LINE
  5
4ED
100
AcDbEntity
  8
ZUWAKU
  6
CONTINUOUS
 62
       7
100
AcDbLine
 10
-673.66748765
 20
1103.86898698
 30
0.0
 11
-684.62901347
 21
1092.90746116
 31
0.0
  0
LINE
  5
4EE
100
AcDbEntity
  8
ZUWAKU
  6
CONTINUOUS
 62
       7
100
AcDbLine
 10
-675.93022935
 20
1103.86898698
 30
0.0
 11
-686.26323007
 21
1093.53598626
 31
0.0
  0
LINE
  5
4EF
100
AcDbEntity
  8
ZUWAKU
  6
CONTINUOUS
 62
       7
100
AcDbLine
 10
-678.19297105
 20
1103.86898698
 30
0.0
 11
-687.87710691
 21
1094.18485112
 31
0.0
  0
LINE
  5
4F0
100
AcDbEntity
  8
ZUWAKU
  6
CONTINUOUS
 62
       7
100
AcDbLine
 10
-680.45571275
 20
1103.86898698
 30
0.0
 11
-689.47006103
 21
1094.8546387
 31
0.0
  0
LINE
  5
4F1
100
AcDbEntity
  8
ZUWAKU
  6
CONTINUOUS
 62
       7
100
AcDbLine
 10
-682.71845445
 20
1103.86898698
 30
0.0
 11
-691.04144804
 21
1095.54599339
 31
0.0
  0
LINE
  5
4F2
100
AcDbEntity
  8
ZUWAKU
  6
CONTINUOUS
 62
       7
100
AcDbLine
 10
-684.98119615
 20
1103.86898698
 30
0.0
 11
-692.59055483
 21
1096.2596283
 31
0.0
  0
LINE
  5
4F3
100
AcDbEntity
  8
ZUWAKU
  6
CONTINUOUS
 62
       7
100
AcDbLine
 10
-687.24393784
 20
1103.86898698
 30
0.0
 11
-694.11659112
 21
1096.9963337
 31
0.0
  0
LINE
  5
4F4
100
AcDbEntity
  8
ZUWAKU
  6
CONTINUOUS
 62
       7
100
AcDbLine
 10
-689.50667954
 20
1103.86898698
 30
0.0
 11
-695.6186794
 21
1097.75698713
 31
0.0
  0
LINE
  5
4F5
100
AcDbEntity
  8
ZUWAKU
  6
CONTINUOUS
 62
       7
100
AcDbLine
 10
-691.76942124
 20
1103.86898698
 30
0.0
 11
-697.09584296
 21
1098.54256527
 31
0.0
  0
LINE
  5
4F6
100
AcDbEntity
  8
ZUWAKU
  6
CONTINUOUS
 62
       7
100
AcDbLine
 10
-694.03216294
 20
1103.86898698
 30
0.0
 11
-698.54699164
 21
1099.35415829
 31
0.0
  0
LINE
  5
4F7
100
AcDbEntity
  8
ZUWAKU
  6
CONTINUOUS
 62
       7
100
AcDbLine
 10
-696.29490464
 20
1103.86898698
 30
0.0
 11
-699.97090458
 21
1100.19298705
 31
0.0
  0
LINE
  5
4F8
100
AcDbEntity
  8
ZUWAKU
  6
CONTINUOUS
 62
       7
100
AcDbLine
 10
-697.16666667
 20
1105.25996666
 30
0.0
 11
-701.36620938
 21
1101.06042394
 31
0.0
  0
LINE
  5
4F9
100
AcDbEntity
  8
ZUWAKU
  6
CONTINUOUS
 62
       7
100
AcDbLine
 10
-697.16666667
 20
1107.52270836
 30
0.0
 11
-702.73135648
 21
1101.95801854
 31
0.0
  0
LINE
  5
4FA
100
AcDbEntity
  8
ZUWAKU
  6
CONTINUOUS
 62
       7
100
AcDbLine
 10
-697.16666667
 20
1109.78545006
 30
0.0
 11
-704.06458757
 21
1102.88752916
 31
0.0
  0
LINE
  5
4FB
100
AcDbEntity
  8
ZUWAKU
  6
CONTINUOUS
 62
       7
100
AcDbLine
 10
-697.16666667
 20
1112.04819176
 30
0.0
 11
-705.3638961
 21
1103.85096233
 31
0.0
  0
LINE
  5
4FC
100
AcDbEntity
  8
ZUWAKU
  6
CONTINUOUS
 62
       7
100
AcDbLine
 10
-697.16666667
 20
1114.31093346
 30
0.0
 11
-706.62697745
 21
1104.85062268
 31
0.0
  0
LINE
  5
4FD
100
AcDbEntity
  8
ZUWAKU
  6
CONTINUOUS
 62
       7
100
AcDbLine
 10
-697.16666667
 20
1116.57367516
 30
0.0
 11
-707.85116512
 21
1105.88917671
 31
0.0
  0
LINE
  5
4FE
100
AcDbEntity
  8
ZUWAKU
  6
CONTINUOUS
 62
       7
100
AcDbLine
 10
-697.16666667
 20
1118.83641686
 30
0.0
 11
-709.03334784
 21
1106.96973569
 31
0.0
  0
LINE
  5
4FF
100
AcDbEntity
  8
ZUWAKU
  6
CONTINUOUS
 62
       7
100
AcDbLine
 10
-697.16666667
 20
1121.09915856
 30
0.0
 11
-710.1698603
 21
1108.09596492
 31
0.0
  0
LINE
  5
500
100
AcDbEntity
  8
ZUWAKU
  6
CONTINUOUS
 62
       7
100
AcDbLine
 10
-697.15957994
 20
1123.36898698
 30
0.0
 11
-711.25633612
 21
1109.27223081
 31
0.0
  0
LINE
  5
501
100
AcDbEntity
  8
ZUWAKU
  6
CONTINUOUS
 62
       7
100
AcDbLine
 10
-699.42232164
 20
1123.36898698
 30
0.0
 11
-712.28750595
 21
1110.50380268
 31
0.0
  0
LINE
  5
502
100
AcDbEntity
  8
ZUWAKU
  6
CONTINUOUS
 62
       7
100
AcDbLine
 10
-701.68506334
 20
1123.36898698
 30
0.0
 11
-713.25691327
 21
1111.79713705
 31
0.0
  0
LINE
  5
503
100
AcDbEntity
  8
ZUWAKU
  6
CONTINUOUS
 62
       7
100
AcDbLine
 10
-703.94780504
 20
1123.36898698
 30
0.0
 11
-714.15650262
 21
1113.16028941
 31
0.0
  0
LINE
  5
504
100
AcDbEntity
  8
ZUWAKU
  6
CONTINUOUS
 62
       7
100
AcDbLine
 10
-706.21054674
 20
1123.36898698
 30
0.0
 11
-714.97600199
 21
1114.60353173
 31
0.0
  0
LINE
  5
505
100
AcDbEntity
  8
ZUWAKU
  6
CONTINUOUS
 62
       7
100
AcDbLine
 10
-708.47328844
 20
1123.36898698
 30
0.0
 11
-715.70195775
 21
1116.14031767
 31
0.0
  0
LINE
  5
506
100
AcDbEntity
  8
ZUWAKU
  6
CONTINUOUS
 62
       7
100
AcDbLine
 10
-710.73603014
 20
1123.36898698
 30
0.0
 11
-716.31614686
 21
1117.78887027
 31
0.0
  0
LINE
  5
507
100
AcDbEntity
  8
ZUWAKU
  6
CONTINUOUS
 62
       7
100
AcDbLine
 10
-712.99877184
 20
1123.36898698
 30
0.0
 11
-716.79279028
 21
1119.57496855
 31
0.0
  0
LINE
  5
508
100
AcDbEntity
  8
ZUWAKU
  6
CONTINUOUS
 62
       7
100
AcDbLine
 10
-715.26151354
 20
1123.36898698
 30
0.0
 11
-717.09322748
 21
1121.53727305
 31
0.0
  0
LINE
  5
509
100
AcDbEntity
  8
ZUWAKU
  6
CONTINUOUS
 62
       7
100
AcDbLine
 10
-580.89507795
 20
1103.86898698
 30
0.0
 11
-602.6376251
 21
1082.12643984
 31
0.0
  0
LINE
  5
50A
100
AcDbEntity
  8
ZUWAKU
  6
CONTINUOUS
 62
       7
100
AcDbLine
 10
-578.63233625
 20
1103.86898698
 30
0.0
 11
-600.24656611
 21
1082.25475713
 31
0.0
  0
LINE
  5
50B
100
AcDbEntity
  8
ZUWAKU
  6
CONTINUOUS
 62
       7
100
AcDbLine
 10
-576.36959455
 20
1103.86898698
 30
0.0
 11
-597.83050973
 21
1082.40807181
 31
0.0
  0
LINE
  5
50C
100
AcDbEntity
  8
ZUWAKU
  6
CONTINUOUS
 62
       7
100
AcDbLine
 10
-574.10685286
 20
1103.86898698
 30
0.0
 11
-595.3883572
 21
1082.58748264
 31
0.0
  0
LINE
  5
50D
100
AcDbEntity
  8
ZUWAKU
  6
CONTINUOUS
 62
       7
100
AcDbLine
 10
-571.84411116
 20
1103.86898698
 30
0.0
 11
-592.91887777
 21
1082.79422037
 31
0.0
  0
LINE
  5
50E
100
AcDbEntity
  8
ZUWAKU
  6
CONTINUOUS
 62
       7
100
AcDbLine
 10
-569.58136946
 20
1103.86898698
 30
0.0
 11
-590.42068748
 21
1083.02966896
 31
0.0
  0
LINE
  5
50F
100
AcDbEntity
  8
ZUWAKU
  6
CONTINUOUS
 62
       7
100
AcDbLine
 10
-567.31862776
 20
1103.86898698
 30
0.0
 11
-587.89222323
 21
1083.29539151
 31
0.0
  0
LINE
  5
510
100
AcDbEntity
  8
ZUWAKU
  6
CONTINUOUS
 62
       7
100
AcDbLine
 10
-565.05588606
 20
1103.86898698
 30
0.0
 11
-585.33171065
 21
1083.59316239
 31
0.0
  0
LINE
  5
511
100
AcDbEntity
  8
ZUWAKU
  6
CONTINUOUS
 62
       7
100
AcDbLine
 10
-562.79314436
 20
1103.86898698
 30
0.0
 11
-582.73712404
 21
1083.9250073
 31
0.0
  0
LINE
  5
512
100
AcDbEntity
  8
ZUWAKU
  6
CONTINUOUS
 62
       7
100
AcDbLine
 10
-560.53040266
 20
1103.86898698
 30
0.0
 11
-580.10613564
 21
1084.293254
 31
0.0
  0
LINE
  5
513
100
AcDbEntity
  8
ZUWAKU
  6
CONTINUOUS
 62
       7
100
AcDbLine
 10
-558.26766096
 20
1103.86898698
 30
0.0
 11
-577.43605067
 21
1084.70059727
 31
0.0
  0
LINE
  5
514
100
AcDbEntity
  8
ZUWAKU
  6
CONTINUOUS
 62
       7
100
AcDbLine
 10
-556.00491926
 20
1103.86898698
 30
0.0
 11
-574.72372288
 21
1085.15018336
 31
0.0
  0
LINE
  5
515
100
AcDbEntity
  8
ZUWAKU
  6
CONTINUOUS
 62
       7
100
AcDbLine
 10
-553.74217756
 20
1103.86898698
 30
0.0
 11
-571.96544305
 21
1085.64572149
 31
0.0
  0
LINE
  5
516
100
AcDbEntity
  8
ZUWAKU
  6
CONTINUOUS
 62
       7
100
AcDbLine
 10
-531.97943586
 20
1123.36898698
 30
0.0
 11
-532.16666667
 21
1123.18175617
 31
0.0
  0
LINE
  5
517
100
AcDbEntity
  8
ZUWAKU
  6
CONTINUOUS
 62
       7
100
AcDbLine
 10
-551.47943586
 20
1103.86898698
 30
0.0
 11
-569.15678874
 21
1086.1916341
 31
0.0
  0
LINE
  5
518
100
AcDbEntity
  8
ZUWAKU
  6
CONTINUOUS
 62
       7
100
AcDbLine
 10
-529.71669416
 20
1123.36898698
 30
0.0
 11
-532.16666667
 21
1120.91901447
 31
0.0
  0
LINE
  5
519
100
AcDbEntity
  8
ZUWAKU
  6
CONTINUOUS
 62
       7
100
AcDbLine
 10
-549.21669416
 20
1103.86898698
 30
0.0
 11
-566.29241768
 21
1086.79326346
 31
0.0
  0
LINE
  5
51A
100
AcDbEntity
  8
ZUWAKU
  6
CONTINUOUS
 62
       7
100
AcDbLine
 10
-527.45395246
 20
1123.36898698
 30
0.0
 11
-532.16666667
 21
1118.65627277
 31
0.0
  0
LINE
  5
51B
100
AcDbEntity
  8
ZUWAKU
  6
CONTINUOUS
 62
       7
100
AcDbLine
 10
-546.95395246
 20
1103.86898698
 30
0.0
 11
-563.36577636
 21
1087.45716308
 31
0.0
  0
LINE
  5
51C
100
AcDbEntity
  8
ZUWAKU
  6
CONTINUOUS
 62
       7
100
AcDbLine
 10
-525.19121076
 20
1123.36898698
 30
0.0
 11
-532.16666667
 21
1116.39353107
 31
0.0
  0
LINE
  5
51D
100
AcDbEntity
  8
ZUWAKU
  6
CONTINUOUS
 62
       7
100
AcDbLine
 10
-544.69121076
 20
1103.86898698
 30
0.0
 11
-560.36867685
 21
1088.19152089
 31
0.0
  0
LINE
  5
51E
100
AcDbEntity
  8
ZUWAKU
  6
CONTINUOUS
 62
       7
100
AcDbLine
 10
-522.92846906
 20
1123.36898698
 30
0.0
 11
-532.16666667
 21
1114.13078937
 31
0.0
  0
LINE
  5
51F
100
AcDbEntity
  8
ZUWAKU
  6
CONTINUOUS
 62
       7
100
AcDbLine
 10
-542.42846906
 20
1103.86898698
 30
0.0
 11
-557.29066047
 21
1089.00679557
 31
0.0
  0
LINE
  5
520
100
AcDbEntity
  8
ZUWAKU
  6
CONTINUOUS
 62
       7
100
AcDbLine
 10
-520.66572736
 20
1123.36898698
 30
0.0
 11
-532.16666667
 21
1111.86804767
 31
0.0
  0
LINE
  5
521
100
AcDbEntity
  8
ZUWAKU
  6
CONTINUOUS
 62
       7
100
AcDbLine
 10
-540.16572736
 20
1103.86898698
 30
0.0
 11
-554.11800016
 21
1089.91671418
 31
0.0
  0
LINE
  5
522
100
AcDbEntity
  8
ZUWAKU
  6
CONTINUOUS
 62
       7
100
AcDbLine
 10
-518.40298566
 20
1123.36898698
 30
0.0
 11
-532.16666667
 21
1109.60530598
 31
0.0
  0
LINE
  5
523
100
AcDbEntity
  8
ZUWAKU
  6
CONTINUOUS
 62
       7
100
AcDbLine
 10
-537.90298566
 20
1103.86898698
 30
0.0
 11
-550.83205253
 21
1090.93992011
 31
0.0
  0
LINE
  5
524
100
AcDbEntity
  8
ZUWAKU
  6
CONTINUOUS
 62
       7
100
AcDbLine
 10
-516.14024396
 20
1123.36898698
 30
0.0
 11
-532.16666667
 21
1107.34256428
 31
0.0
  0
LINE
  5
525
100
AcDbEntity
  8
ZUWAKU
  6
CONTINUOUS
 62
       7
100
AcDbLine
 10
-535.64024396
 20
1103.86898698
 30
0.0
 11
-547.4063505
 21
1092.10288044
 31
0.0
  0
LINE
  5
526
100
AcDbEntity
  8
ZUWAKU
  6
CONTINUOUS
 62
       7
100
AcDbLine
 10
-513.87750226
 20
1123.36898698
 30
0.0
 11
-532.16666667
 21
1105.07982258
 31
0.0
  0
LINE
  5
527
100
AcDbEntity
  8
ZUWAKU
  6
CONTINUOUS
 62
       7
100
AcDbLine
 10
-533.37750226
 20
1103.86898698
 30
0.0
 11
-543.80100804
 21
1093.4454812
 31
0.0
  0
LINE
  5
528
100
AcDbEntity
  8
ZUWAKU
  6
CONTINUOUS
 62
       7
100
AcDbLine
 10
-512.68604871
 20
1122.29769883
 30
0.0
 11
-539.95057258
 21
1095.03317497
 31
0.0
  0
LINE
  5
529
100
AcDbEntity
  8
ZUWAKU
  6
CONTINUOUS
 62
       7
100
AcDbLine
 10
-513.01277094
 20
1119.7082349
 30
0.0
 11
-535.7324205
 21
1096.98858535
 31
0.0
  0
LINE
  5
52A
100
AcDbEntity
  8
ZUWAKU
  6
CONTINUOUS
 62
       7
100
AcDbLine
 10
-513.99960455
 20
1116.4586596
 30
0.0
 11
-530.85415705
 21
1099.60410709
 31
0.0
  0
LINE
  5
52B
100
AcDbEntity
  8
ZUWAKU
  6
CONTINUOUS
 62
       7
100
AcDbLine
 10
-517.05207509
 20
1111.14344735
 30
0.0
 11
-523.91025666
 21
1104.28526578
 31
0.0
  0
ARC
  5
52C
100
AcDbEntity
  8
ZUWAKU
  6
CONTINUOUS
 62
       7
100
AcDbCircle
 10
-642.1012439
 20
1131.86898698
 30
0.0
 40
4.0
100
AcDbArc
 50
270.0
 51
450.0
  0
LINE
  5
52D
100
AcDbEntity
  8
ZUWAKU
  6
CONTINUOUS
 62
       7
100
AcDbLine
 10
-666.72766667
 20
1115.87298698
 30
0.0
 11
-660.97766667
 21
1115.87298698
 31
0.0
  0
LINE
  5
52E
100
AcDbEntity
  8
ZUWAKU
  6
CONTINUOUS
 62
       7
100
AcDbLine
 10
-667.66666667
 20
1113.36898698
 30
0.0
 11
-659.24239349
 21
1113.36898698
 31
0.0
  0
LINE
  5
52F
100
AcDbEntity
  8
ZUWAKU
  6
CONTINUOUS
 62
       7
100
AcDbLine
 10
-659.24239349
 20
1113.36898698
 30
0.0
 11
-654.74389349
 21
1125.36498698
 31
0.0
  0
LINE
  5
530
100
AcDbEntity
  8
ZUWAKU
  6
CONTINUOUS
 62
       7
100
AcDbLine
 10
-653.80489349
 20
1127.86898698
 30
0.0
 11
-650.80489349
 21
1135.86898698
 31
0.0
  0
LINE
  5
531
100
AcDbEntity
  8
ZUWAKU
  6
CONTINUOUS
 62
       7
100
AcDbLine
 10
-654.74389349
 20
1125.36498698
 30
0.0
 11
-652.94701449
 21
1125.36498698
 31
0.0
  0
LINE
  5
532
100
AcDbEntity
  8
ZUWAKU
  6
CONTINUOUS
 62
       7
100
AcDbLine
 10
-650.07071437
 20
1125.36498698
 30
0.0
 11
-642.1012439
 21
1125.36498698
 31
0.0
  0
LINE
  5
533
100
AcDbEntity
  8
ZUWAKU
  6
CONTINUOUS
 62
       7
100
AcDbLine
 10
-644.70567089
 20
1115.87298698
 30
0.0
 11
-650.07071437
 21
1125.36498698
 31
0.0
  0
ARC
  5
534
100
AcDbEntity
  8
ZUWAKU
  6
CONTINUOUS
 62
       7
100
AcDbCircle
 10
-642.1012439
 20
1131.86898698
 30
0.0
 40
6.5
100
AcDbArc
 50
270.0
 51
450.0
  0
ELLIPSE
  5
535
100
AcDbEntity
  8
ZUWAKU
  6
CONTINUOUS
 62
       7
100
AcDbEllipse
 10
-633.81959118
 20
1119.00546627
 30
0.0
 11
-0.6585493061994612
 21
-1.2073403946985763
 31
0.0
210
0.0
220
0.0
230
1.0
 40
0.75209874
 41
0.0
 42
6.2831853071796004
  0
LINE
  5
536
100
AcDbEntity
  8
ZUWAKU
  6
CONTINUOUS
 62
       7
100
AcDbLine
 10
-646.16666667
 20
1113.36898698
 30
0.0
 11
-637.16666667
 21
1113.36898698
 31
0.0
  0
ELLIPSE
  5
537
100
AcDbEntity
  8
ZUWAKU
  6
CONTINUOUS
 62
       7
100
AcDbEllipse
 10
-633.81959118
 20
1119.00546627
 30
0.0
 11
-2.1039913936083394
 21
-3.857317554947258
 31
0.0
210
0.0
220
0.0
230
1.0
 40
0.75209874
 41
1.1633802511780491
 42
5.8601607076995617
  0
LINE
  5
538
100
AcDbEntity
  8
ZUWAKU
  6
CONTINUOUS
 62
       7
100
AcDbLine
 10
-644.70567089
 20
1115.87298698
 30
0.0
 11
-637.31685895
 21
1115.87298698
 31
0.0
  0
ARC
  5
539
100
AcDbEntity
  8
ZUWAKU
  6
CONTINUOUS
 62
       7
100
AcDbCircle
 10
-638.06170191
 20
1121.48872723
 30
0.0
 40
5.66492097
100
AcDbArc
 50
277.55531967
 51
282.61004677
  0
ARC
  5
53A
100
AcDbEntity
  8
ZUWAKU
  6
CONTINUOUS
 62
       7
100
AcDbCircle
 10
-638.06170191
 20
1121.48872723
 30
0.0
 40
8.16892097
100
AcDbArc
 50
276.29029269
 51
293.79815684
  0
ARC
  5
53B
100
AcDbEntity
  8
ZUWAKU
  6
CONTINUOUS
 62
       7
100
AcDbCircle
 10
-638.06170191
 20
1121.48872723
 30
0.0
 40
8.16892097
100
AcDbArc
 50
316.57125834
 51
318.01426788
  0
ARC
  5
53C
100
AcDbEntity
  8
ZUWAKU
  6
CONTINUOUS
 62
       7
100
AcDbCircle
 10
-632.19438425
 20
1118.79821889
 30
0.0
 40
5.43095072
100
AcDbArc
 50
209.3318227
 51
211.50126528
  0
ARC
  5
53D
100
AcDbEntity
  8
ZUWAKU
  6
CONTINUOUS
 62
       7
100
AcDbCircle
 10
-632.19438425
 20
1118.79821889
 30
0.0
 40
5.43095072
100
AcDbArc
 50
241.74457829
 51
270.0
  0
ELLIPSE
  5
53E
100
AcDbEntity
  8
ZUWAKU
  6
CONTINUOUS
 62
       7
100
AcDbEllipse
 10
-621.03295142
 20
1122.36774353
 30
0.0
 11
-1.0963443692977535
 21
-2.2612102616769789
 31
0.0
210
0.0
220
0.0
230
1.0
 40
0.44219156
 41
0.0
 42
6.2831853071796004
  0
ARC
  5
53F
100
AcDbEntity
  8
ZUWAKU
  6
CONTINUOUS
 62
       7
100
AcDbCircle
 10
-618.72711231
 20
1123.02940083
 30
0.0
 40
9.7128547
100
AcDbArc
 50
241.28311564
 51
264.0434522
  0
LINE
  5
540
100
AcDbEntity
  8
ZUWAKU
  6
CONTINUOUS
 62
       7
100
AcDbLine
 10
-632.19438425
 20
1113.36898698
 30
0.0
 11
-626.55960878
 21
1113.36898698
 31
0.0
  0
ARC
  5
541
100
AcDbEntity
  8
ZUWAKU
  6
CONTINUOUS
 62
       7
100
AcDbCircle
 10
-618.72711231
 20
1123.02940083
 30
0.0
 40
7.2088547
100
AcDbArc
 50
251.08708107
 51
263.08482824
  0
ARC
  5
542
100
AcDbEntity
  8
ZUWAKU
  6
CONTINUOUS
 62
       7
100
AcDbCircle
 10
-628.6850566
 20
1124.21771878
 30
0.0
 40
8.55097671
100
AcDbArc
 50
282.60950936
 51
291.93126974
  0
ELLIPSE
  5
543
100
AcDbEntity
  8
ZUWAKU
  6
CONTINUOUS
 62
       7
100
AcDbEllipse
 10
-621.03295142
 20
1122.36774353
 30
0.0
 11
-3.5026976654880855
 21
-7.2243139350705405
 31
0.0
210
0.0
220
0.0
230
1.0
 40
0.44219156
 41
1.1621663820477937
 42
5.8906096214263046
  0
LINE
  5
544
100
AcDbEntity
  8
ZUWAKU
  6
CONTINUOUS
 62
       7
100
AcDbLine
 10
-632.12918716
 20
1115.87298698
 30
0.0
 11
-626.81833383
 21
1115.87298698
 31
0.0
  0
ARC
  5
545
100
AcDbEntity
  8
ZUWAKU
  6
CONTINUOUS
 62
       7
100
AcDbCircle
 10
-628.6850566
 20
1124.21771878
 30
0.0
 40
11.05497671
100
AcDbArc
 50
313.58286141
 51
326.24939265
  0
ARC
  5
546
100
AcDbEntity
  8
ZUWAKU
  6
CONTINUOUS
 62
       7
100
AcDbCircle
 10
-628.6850566
 20
1124.21771878
 30
0.0
 40
11.05497671
100
AcDbArc
 50
281.08479974
 51
298.5950739
  0
LINE
  5
547
100
AcDbEntity
  8
ZUWAKU
  6
CONTINUOUS
 62
       7
100
AcDbLine
 10
-619.73505607
 20
1113.36898698
 30
0.0
 11
-615.66666667
 21
1113.36898698
 31
0.0
  0
LINE
  5
548
100
AcDbEntity
  8
ZUWAKU
  6
CONTINUOUS
 62
       7
100
AcDbLine
 10
-616.24904819
 20
1116.32779622
 30
0.0
 11
-609.44520688
 21
1123.13163753
 31
0.0
  0
LINE
  5
549
100
AcDbEntity
  8
ZUWAKU
  6
CONTINUOUS
 62
       7
100
AcDbLine
 10
-609.21079377
 20
1115.87298698
 30
0.0
 11
-608.11067845
 21
1122.47367891
 31
0.0
  0
LINE
  5
54A
100
AcDbEntity
  8
ZUWAKU
  6
CONTINUOUS
 62
       7
100
AcDbLine
 10
-619.59505635
 20
1115.87298698
 30
0.0
 11
-617.15866667
 21
1115.87298698
 31
0.0
  0
ARC
  5
54B
100
AcDbEntity
  8
ZUWAKU
  6
CONTINUOUS
 62
       7
100
AcDbCircle
 10
-608.87705263
 20
1122.60140794
 30
0.0
 40
0.77713748
100
AcDbArc
 50
350.53767779
 51
496.97750576
  0
ELLIPSE
  5
54C
100
AcDbEntity
  8
ZUWAKU
  6
CONTINUOUS
 62
       7
100
AcDbEllipse
 10
-598.26786528
 20
1118.07283762
 30
0.0
 11
-0.7294530398138477
 21
-1.2285524881074252
 31
0.0
210
0.0
220
0.0
230
1.0
 40
0.58819821
 41
0.0
 42
6.2831853071796004
  0
LINE
  5
54D
100
AcDbEntity
  8
ZUWAKU
  6
CONTINUOUS
 62
       7
100
AcDbLine
 10
-606.57039403
 20
1115.87298698
 30
0.0
 11
-602.40287463
 21
1117.8747089
 31
0.0
  0
LINE
  5
54E
100
AcDbEntity
  8
ZUWAKU
  6
CONTINUOUS
 62
       7
100
AcDbLine
 10
-606.16666667
 20
1113.36898698
 30
0.0
 11
-602.67747135
 21
1114.91509285
 31
0.0
  0
LINE
  5
54F
100
AcDbEntity
  8
ZUWAKU
  6
CONTINUOUS
 62
       7
100
AcDbLine
 10
-609.21079377
 20
1115.87298698
 30
0.0
 11
-606.57039403
 21
1115.87298698
 31
0.0
  0
LINE
  5
550
100
AcDbEntity
  8
ZUWAKU
  6
CONTINUOUS
 62
       7
100
AcDbLine
 10
-597.61167369
 20
1114.49713397
 30
0.0
 11
-596.44462508
 21
1113.36898698
 31
0.0
  0
LINE
  5
551
100
AcDbEntity
  8
ZUWAKU
  6
CONTINUOUS
 62
       7
100
AcDbLine
 10
-593.66666667
 20
1115.87298698
 30
0.0
 11
-590.14896873
 21
1115.87298698
 31
0.0
  0
LINE
  5
552
100
AcDbEntity
  8
ZUWAKU
  6
CONTINUOUS
 62
       7
100
AcDbLine
 10
-582.15354016
 20
1122.86898698
 30
0.0
 11
-590.14896873
 21
1115.87298698
 31
0.0
  0
ELLIPSE
  5
553
100
AcDbEntity
  8
ZUWAKU
  6
CONTINUOUS
 62
       7
100
AcDbEllipse
 10
-598.78964503
 20
1117.77696533
 30
0.0
 11
-3.1774816750956916
 21
-3.9366623178134432
 31
0.0
210
0.0
220
0.0
230
1.0
 40
0.63020876
 41
2.7713952963881394
 42
5.1608192210644281
  0
ELLIPSE
  5
554
100
AcDbEntity
  8
ZUWAKU
  6
CONTINUOUS
 62
       7
100
AcDbEllipse
 10
-598.78964503
 20
1117.77696533
 30
0.0
 11
-3.1774816750956916
 21
-3.9366623178134432
 31
0.0
210
0.0
220
0.0
230
1.0
 40
0.63020876
 41
5.8878630804447276
 42
7.4876029260781616
  0
LINE
  5
555
100
AcDbEntity
  8
ZUWAKU
  6
CONTINUOUS
 62
       7
100
AcDbLine
 10
-594.324985
 20
1122.38575372
 30
0.0
 11
-591.66056967
 21
1122.38575372
 31
0.0
  0
LINE
  5
556
100
AcDbEntity
  8
ZUWAKU
  6
CONTINUOUS
 62
       7
100
AcDbLine
 10
-594.9298237
 20
1120.72244728
 30
0.0
 11
-594.324985
 21
1122.38575372
 31
0.0
  0
LINE
  5
557
100
AcDbEntity
  8
ZUWAKU
  6
CONTINUOUS
 62
       7
100
AcDbLine
 10
-593.66666667
 20
1116.86898698
 30
0.0
 11
-591.66056967
 21
1122.38575372
 31
0.0
  0
LINE
  5
558
100
AcDbEntity
  8
ZUWAKU
  6
CONTINUOUS
 62
       7
100
AcDbLine
 10
-586.86148226
 20
1113.44775696
 30
0.0
 11
-585.59440685
 21
1116.93221432
 31
0.0
  0
LINE
  5
559
100
AcDbEntity
  8
ZUWAKU
  6
CONTINUOUS
 62
       7
100
AcDbLine
 10
-581.81957954
 20
1119.36898698
 30
0.0
 11
-584.00139772
 21
1113.36898698
 31
0.0
  0
LINE
  5
55A
100
AcDbEntity
  8
ZUWAKU
  6
CONTINUOUS
 62
       7
100
AcDbLine
 10
-580.66666667
 20
1113.36898698
 30
0.0
 11
-578.48484848
 21
1119.36898698
 31
0.0
  0
LINE
  5
55B
100
AcDbEntity
  8
ZUWAKU
  6
CONTINUOUS
 62
       7
100
AcDbLine
 10
-574.83698915
 20
1121.27560015
 30
0.0
 11
-576.80157576
 21
1115.87298698
 31
0.0
  0
LINE
  5
55C
100
AcDbEntity
  8
ZUWAKU
  6
CONTINUOUS
 62
       7
100
AcDbLine
 10
-575.66832141
 20
1122.86898698
 30
0.0
 11
-574.83698915
 21
1121.27560015
 31
0.0
  0
LINE
  5
55D
100
AcDbEntity
  8
ZUWAKU
  6
CONTINUOUS
 62
       7
100
AcDbLine
 10
-581.15387719
 20
1121.38177646
 30
0.0
 11
-580.66200283
 21
1122.86898698
 31
0.0
  0
LINE
  5
55E
100
AcDbEntity
  8
ZUWAKU
  6
CONTINUOUS
 62
       7
100
AcDbLine
 10
-581.15387719
 20
1121.38177646
 30
0.0
 11
-578.4902885
 21
1122.86898698
 31
0.0
  0
LINE
  5
55F
100
AcDbEntity
  8
ZUWAKU
  6
CONTINUOUS
 62
       7
100
AcDbLine
 10
-575.66832141
 20
1122.86898698
 30
0.0
 11
-578.4902885
 21
1122.86898698
 31
0.0
  0
LINE
  5
560
100
AcDbEntity
  8
ZUWAKU
  6
CONTINUOUS
 62
       7
100
AcDbLine
 10
-580.66200283
 20
1122.86898698
 30
0.0
 11
-582.15354016
 21
1122.86898698
 31
0.0
  0
ELLIPSE
  5
561
100
AcDbEntity
  8
ZUWAKU
  6
CONTINUOUS
 62
       7
100
AcDbEllipse
 10
-553.35360716
 20
1119.00546627
 30
0.0
 11
-0.6585493061994612
 21
-1.2073403946985763
 31
0.0
210
0.0
220
0.0
230
1.0
 40
0.75209874
 41
0.0
 42
6.2831853071796004
  0
ELLIPSE
  5
562
100
AcDbEntity
  8
ZUWAKU
  6
CONTINUOUS
 62
       7
100
AcDbEllipse
 10
-553.35360716
 20
1119.00546627
 30
0.0
 11
-2.1039913936083394
 21
-3.857317554947258
 31
0.0
210
0.0
220
0.0
230
1.0
 40
0.75209874
 41
1.1633802511780491
 42
5.8601607076995617
  0
ARC
  5
563
100
AcDbEntity
  8
ZUWAKU
  6
CONTINUOUS
 62
       7
100
AcDbCircle
 10
-557.59571789
 20
1121.48872723
 30
0.0
 40
5.66492097
100
AcDbArc
 50
277.55531967
 51
282.61004677
  0
ARC
  5
564
100
AcDbEntity
  8
ZUWAKU
  6
CONTINUOUS
 62
       7
100
AcDbCircle
 10
-557.59571789
 20
1121.48872723
 30
0.0
 40
8.16892097
100
AcDbArc
 50
276.29029269
 51
293.79815684
  0
ARC
  5
565
100
AcDbEntity
  8
ZUWAKU
  6
CONTINUOUS
 62
       7
100
AcDbCircle
 10
-557.59571789
 20
1121.48872723
 30
0.0
 40
8.16892097
100
AcDbArc
 50
316.57125834
 51
318.01426788
  0
ARC
  5
566
100
AcDbEntity
  8
ZUWAKU
  6
CONTINUOUS
 62
       7
100
AcDbCircle
 10
-551.72840022
 20
1118.79821889
 30
0.0
 40
5.43095072
100
AcDbArc
 50
209.3318227
 51
211.50126528
  0
ARC
  5
567
100
AcDbEntity
  8
ZUWAKU
  6
CONTINUOUS
 62
       7
100
AcDbCircle
 10
-551.72840022
 20
1118.79821889
 30
0.0
 40
5.43095072
100
AcDbArc
 50
241.74457829
 51
270.0
  0
LINE
  5
568
100
AcDbEntity
  8
ZUWAKU
  6
CONTINUOUS
 62
       7
100
AcDbLine
 10
-565.54828223
 20
1115.87298698
 30
0.0
 11
-556.85087492
 21
1115.87298698
 31
0.0
  0
LINE
  5
569
100
AcDbEntity
  8
ZUWAKU
  6
CONTINUOUS
 62
       7
100
AcDbLine
 10
-551.72840022
 20
1113.36898698
 30
0.0
 11
-546.91340599
 21
1113.36898698
 31
0.0
  0
LINE
  5
56A
100
AcDbEntity
  8
ZUWAKU
  6
CONTINUOUS
 62
       7
100
AcDbLine
 10
-551.66320314
 20
1115.87298698
 30
0.0
 11
-546.35234981
 21
1115.87298698
 31
0.0
  0
LINE
  5
56B
100
AcDbEntity
  8
ZUWAKU
  6
CONTINUOUS
 62
       7
100
AcDbLine
 10
-612.16666667
 20
1113.36898698
 30
0.0
 11
-606.16666667
 21
1113.36898698
 31
0.0
  0
LINE
  5
56C
100
AcDbEntity
  8
ZUWAKU
  6
CONTINUOUS
 62
       7
100
AcDbLine
 10
-586.86148226
 20
1113.44775696
 30
0.0
 11
-584.00139772
 21
1113.36898698
 31
0.0
  0
LINE
  5
56D
100
AcDbEntity
  8
ZUWAKU
  6
CONTINUOUS
 62
       7
100
AcDbLine
 10
-576.80157576
 20
1115.87298698
 30
0.0
 11
-572.17795243
 21
1115.87298698
 31
0.0
  0
LINE
  5
56E
100
AcDbEntity
  8
ZUWAKU
  6
CONTINUOUS
 62
       7
100
AcDbLine
 10
-563.64530252
 20
1119.4777447
 30
0.0
 11
-561.7774333
 21
1120.98760566
 31
0.0
  0
ARC
  5
56F
100
AcDbEntity
  8
ZUWAKU
  6
CONTINUOUS
 62
       7
100
AcDbCircle
 10
-565.54828223
 20
1118.19298698
 30
0.0
 40
2.32
100
AcDbArc
 50
34.07537472
 51
270.0
  0
ARC
  5
570
100
AcDbEntity
  8
ZUWAKU
  6
CONTINUOUS
 62
       7
100
AcDbCircle
 10
-565.54828223
 20
1118.19298698
 30
0.0
 40
4.69352694
100
AcDbArc
 50
36.54256145
 51
190.98612084
  0
LINE
  5
571
100
AcDbEntity
  8
ZUWAKU
  6
CONTINUOUS
 62
       7
100
AcDbLine
 10
-571.5465023
 20
1113.36898698
 30
0.0
 11
-569.16909834
 21
1115.11839745
 31
0.0
  0
LINE
  5
572
100
AcDbEntity
  8
ZUWAKU
  6
CONTINUOUS
 62
       7
100
AcDbLine
 10
-570.18560684
 20
1117.3390526
 30
0.0
 11
-572.17795243
 21
1115.87298698
 31
0.0
  0
LINE
  5
573
100
AcDbEntity
  8
ZUWAKU
  6
CONTINUOUS
 62
       7
100
AcDbLine
 10
-569.16909834
 20
1115.11839745
 30
0.0
 11
-567.16666667
 21
1113.36898698
 31
0.0
  0
LINE
  5
574
100
AcDbEntity
  8
ZUWAKU
  6
CONTINUOUS
 62
       7
100
AcDbLine
 10
-546.35234981
 20
1115.87298698
 30
0.0
 11
-546.91340599
 21
1113.36898698
 31
0.0
  0
LINE
  5
575
100
AcDbEntity
  8
ZUWAKU
  6
CONTINUOUS
 62
       7
100
AcDbLine
 10
-679.32527993
 20
1137.80648698
 30
0.0
 11
-680.70027993
 21
1136.43148698
 31
0.0
  0
LINE
  5
576
100
AcDbEntity
  8
ZUWAKU
  6
CONTINUOUS
 62
       7
100
AcDbLine
 10
-676.43203887
 20
1138.09243162
 30
0.0
 11
-678.37892815
 21
1136.14554235
 31
0.0
  0
LINE
  5
577
100
AcDbEntity
  8
ZUWAKU
  6
CONTINUOUS
 62
       7
100
AcDbLine
 10
-673.15705695
 20
1138.31898698
 30
0.0
 11
-675.56018195
 21
1135.91586198
 31
0.0
  0
LINE
  5
578
100
AcDbEntity
  8
ZUWAKU
  6
CONTINUOUS
 62
       7
100
AcDbLine
 10
-669.92800732
 20
1138.36898698
 30
0.0
 11
-672.42800732
 21
1135.86898698
 31
0.0
  0
LINE
  5
579
100
AcDbEntity
  8
ZUWAKU
  6
CONTINUOUS
 62
       7
100
AcDbLine
 10
-666.58918259
 20
1138.36898698
 30
0.0
 11
-669.08918259
 21
1135.86898698
 31
0.0
  0
LINE
  5
57A
100
AcDbEntity
  8
ZUWAKU
  6
CONTINUOUS
 62
       7
100
AcDbLine
 10
-662.91823725
 20
1138.36898698
 30
0.0
 11
-665.41823725
 21
1135.86898698
 31
0.0
  0
LINE
  5
57B
100
AcDbEntity
  8
ZUWAKU
  6
CONTINUOUS
 62
       7
100
AcDbLine
 10
-659.82426195
 20
1138.36898698
 30
0.0
 11
-662.32426195
 21
1135.86898698
 31
0.0
  0
LINE
  5
57C
100
AcDbEntity
  8
ZUWAKU
  6
CONTINUOUS
 62
       7
100
AcDbLine
 10
-658.95931517
 20
1114.1238625
 30
0.0
 11
-659.71419069
 21
1113.36898698
 31
0.0
  0
LINE
  5
57D
100
AcDbEntity
  8
ZUWAKU
  6
CONTINUOUS
 62
       7
100
AcDbLine
 10
-657.60167015
 20
1117.74424922
 30
0.0
 11
-661.97693239
 21
1113.36898698
 31
0.0
  0
LINE
  5
57E
100
AcDbEntity
  8
ZUWAKU
  6
CONTINUOUS
 62
       7
100
AcDbLine
 10
-656.24402513
 20
1121.36463594
 30
0.0
 11
-660.52286221
 21
1117.08579887
 31
0.0
  0
LINE
  5
57F
100
AcDbEntity
  8
ZUWAKU
  6
CONTINUOUS
 62
       7
100
AcDbLine
 10
-661.73567409
 20
1115.87298698
 30
0.0
 11
-664.23967409
 21
1113.36898698
 31
0.0
  0
LINE
  5
580
100
AcDbEntity
  8
ZUWAKU
  6
CONTINUOUS
 62
       7
100
AcDbLine
 10
-654.88638012
 20
1124.98502266
 30
0.0
 11
-659.16521719
 21
1120.70618559
 31
0.0
  0
LINE
  5
581
100
AcDbEntity
  8
ZUWAKU
  6
CONTINUOUS
 62
       7
100
AcDbLine
 10
-663.99841579
 20
1115.87298698
 30
0.0
 11
-666.50241579
 21
1113.36898698
 31
0.0
  0
LINE
  5
582
100
AcDbEntity
  8
ZUWAKU
  6
CONTINUOUS
 62
       7
100
AcDbLine
 10
-666.26115749
 20
1115.87298698
 30
0.0
 11
-667.00757217
 21
1115.12657231
 31
0.0
  0
LINE
  5
583
100
AcDbEntity
  8
ZUWAKU
  6
CONTINUOUS
 62
       7
100
AcDbLine
 10
-650.55338259
 20
1138.36898698
 30
0.0
 11
-653.73463711
 21
1135.18773246
 31
0.0
  0
LINE
  5
584
100
AcDbEntity
  8
ZUWAKU
  6
CONTINUOUS
 62
       7
100
AcDbLine
 10
-652.81612429
 20
1138.36898698
 30
0.0
 11
-655.31612429
 21
1135.86898698
 31
0.0
  0
LINE
  5
585
100
AcDbEntity
  8
ZUWAKU
  6
CONTINUOUS
 62
       7
100
AcDbLine
 10
-655.07886599
 20
1138.36898698
 30
0.0
 11
-657.57886599
 21
1135.86898698
 31
0.0
  0
LINE
  5
586
100
AcDbEntity
  8
ZUWAKU
  6
CONTINUOUS
 62
       7
100
AcDbLine
 10
-657.34160769
 20
1138.36898698
 30
0.0
 11
-658.66170205
 21
1137.04889262
 31
0.0
  0
LINE
  5
587
100
AcDbEntity
  8
ZUWAKU
  6
CONTINUOUS
 62
       7
100
AcDbLine
 10
-634.3994899
 20
1122.84449588
 30
0.0
 11
-636.79300991
 21
1120.45097587
 31
0.0
  0
LINE
  5
588
100
AcDbEntity
  8
ZUWAKU
  6
CONTINUOUS
 62
       7
100
AcDbLine
 10
-631.98985779
 20
1122.99138628
 30
0.0
 11
-637.38314213
 21
1117.59810195
 31
0.0
  0
LINE
  5
589
100
AcDbEntity
  8
ZUWAKU
  6
CONTINUOUS
 62
       7
100
AcDbLine
 10
-630.24148409
 20
1120.21427659
 30
0.0
 11
-637.07630343
 21
1113.37945725
 31
0.0
  0
LINE
  5
58A
100
AcDbEntity
  8
ZUWAKU
  6
CONTINUOUS
 62
       7
100
AcDbLine
 10
-646.02789919
 20
1138.36898698
 30
0.0
 11
-648.52789919
 21
1135.86898698
 31
0.0
  0
LINE
  5
58B
100
AcDbEntity
  8
ZUWAKU
  6
CONTINUOUS
 62
       7
100
AcDbLine
 10
-652.17109008
 20
1132.2257961
 30
0.0
 11
-656.44992715
 21
1127.94695903
 31
0.0
  0
LINE
  5
58C
100
AcDbEntity
  8
ZUWAKU
  6
CONTINUOUS
 62
       7
100
AcDbLine
 10
-643.76515749
 20
1138.36898698
 30
0.0
 11
-646.26515749
 21
1135.86898698
 31
0.0
  0
LINE
  5
58D
100
AcDbEntity
  8
ZUWAKU
  6
CONTINUOUS
 62
       7
100
AcDbLine
 10
-653.5287351
 20
1128.60540938
 30
0.0
 11
-657.80757217
 21
1124.32657231
 31
0.0
  0
LINE
  5
58E
100
AcDbEntity
  8
ZUWAKU
  6
CONTINUOUS
 62
       7
100
AcDbLine
 10
-641.52776365
 20
1138.34363913
 30
0.0
 11
-644.00241579
 21
1135.86898698
 31
0.0
  0
LINE
  5
58F
100
AcDbEntity
  8
ZUWAKU
  6
CONTINUOUS
 62
       7
100
AcDbLine
 10
-652.00241579
 20
1127.86898698
 30
0.0
 11
-654.50641579
 21
1125.36498698
 31
0.0
  0
LINE
  5
590
100
AcDbEntity
  8
ZUWAKU
  6
CONTINUOUS
 62
       7
100
AcDbLine
 10
-639.69962301
 20
1137.90903807
 30
0.0
 11
-641.75471284
 21
1135.85394824
 31
0.0
  0
LINE
  5
591
100
AcDbEntity
  8
ZUWAKU
  6
CONTINUOUS
 62
       7
100
AcDbLine
 10
-649.73967409
 20
1127.86898698
 30
0.0
 11
-652.69303046
 21
1124.91563062
 31
0.0
  0
LINE
  5
592
100
AcDbEntity
  8
ZUWAKU
  6
CONTINUOUS
 62
       7
100
AcDbLine
 10
-638.24465525
 20
1137.10126412
 30
0.0
 11
-640.04557392
 21
1135.30034546
 31
0.0
  0
LINE
  5
593
100
AcDbEntity
  8
ZUWAKU
  6
CONTINUOUS
 62
       7
100
AcDbLine
 10
-637.08297313
 20
1136.00020455
 30
0.0
 11
-638.86428139
 21
1134.21889629
 31
0.0
  0
LINE
  5
594
100
AcDbEntity
  8
ZUWAKU
  6
CONTINUOUS
 62
       7
100
AcDbLine
 10
-636.20839577
 20
1134.61204021
 30
0.0
 11
-638.17694269
 21
1132.64349329
 31
0.0
  0
LINE
  5
595
100
AcDbEntity
  8
ZUWAKU
  6
CONTINUOUS
 62
       7
100
AcDbLine
 10
-635.67999082
 20
1132.87770346
 30
0.0
 11
-638.57271537
 21
1129.98497891
 31
0.0
  0
LINE
  5
596
100
AcDbEntity
  8
ZUWAKU
  6
CONTINUOUS
 62
       7
100
AcDbLine
 10
-648.29064089
 20
1138.36898698
 30
0.0
 11
-650.79064089
 21
1135.86898698
 31
0.0
  0
LINE
  5
597
100
AcDbEntity
  8
ZUWAKU
  6
CONTINUOUS
 62
       7
100
AcDbLine
 10
-650.81344506
 20
1135.84618282
 30
0.0
 11
-655.09228213
 21
1131.56734575
 31
0.0
  0
LINE
  5
598
100
AcDbEntity
  8
ZUWAKU
  6
CONTINUOUS
 62
       7
100
AcDbLine
 10
-645.21419069
 20
1127.86898698
 30
0.0
 11
-647.71819069
 21
1125.36498698
 31
0.0
  0
LINE
  5
599
100
AcDbEntity
  8
ZUWAKU
  6
CONTINUOUS
 62
       7
100
AcDbLine
 10
-649.22119193
 20
1123.86198575
 30
0.0
 11
-651.05882812
 21
1122.02434956
 31
0.0
  0
LINE
  5
59A
100
AcDbEntity
  8
ZUWAKU
  6
CONTINUOUS
 62
       7
100
AcDbLine
 10
-647.47693239
 20
1127.86898698
 30
0.0
 11
-649.98093239
 21
1125.36498698
 31
0.0
  0
LINE
  5
59B
100
AcDbEntity
  8
ZUWAKU
  6
CONTINUOUS
 62
       7
100
AcDbLine
 10
-650.0382931
 20
1125.30762628
 30
0.0
 11
-651.87592929
 21
1123.46999009
 31
0.0
  0
LINE
  5
59C
100
AcDbEntity
  8
ZUWAKU
  6
CONTINUOUS
 62
       7
100
AcDbLine
 10
-642.95144899
 20
1127.86898698
 30
0.0
 11
-645.45544899
 21
1125.36498698
 31
0.0
  0
LINE
  5
59D
100
AcDbEntity
  8
ZUWAKU
  6
CONTINUOUS
 62
       7
100
AcDbLine
 10
-648.40409076
 20
1122.41634522
 30
0.0
 11
-650.24172695
 21
1120.57870903
 31
0.0
  0
LINE
  5
59E
100
AcDbEntity
  8
ZUWAKU
  6
CONTINUOUS
 62
       7
100
AcDbLine
 10
-640.21723582
 20
1128.34045845
 30
0.0
 11
-643.19270729
 21
1125.36498698
 31
0.0
  0
LINE
  5
59F
100
AcDbEntity
  8
ZUWAKU
  6
CONTINUOUS
 62
       7
100
AcDbLine
 10
-647.58698959
 20
1120.97070469
 30
0.0
 11
-649.42462578
 21
1119.1330685
 31
0.0
  0
LINE
  5
5A0
100
AcDbEntity
  8
ZUWAKU
  6
CONTINUOUS
 62
       7
100
AcDbLine
 10
-635.73427168
 20
1130.5606809
 30
0.0
 11
-640.79293781
 21
1125.50201477
 31
0.0
  0
LINE
  5
5A1
100
AcDbEntity
  8
ZUWAKU
  6
CONTINUOUS
 62
       7
100
AcDbLine
 10
-646.76988842
 20
1119.52506415
 30
0.0
 11
-648.60752461
 21
1117.68742797
 31
0.0
  0
LINE
  5
5A2
100
AcDbEntity
  8
ZUWAKU
  6
CONTINUOUS
 62
       7
100
AcDbLine
 10
-645.95278725
 20
1118.07942362
 30
0.0
 11
-647.79042344
 21
1116.24178743
 31
0.0
  0
LINE
  5
5A3
100
AcDbEntity
  8
ZUWAKU
  6
CONTINUOUS
 62
       7
100
AcDbLine
 10
-645.13568608
 20
1116.63378309
 30
0.0
 11
-646.97332227
 21
1114.7961469
 31
0.0
  0
LINE
  5
5A4
100
AcDbEntity
  8
ZUWAKU
  6
CONTINUOUS
 62
       7
100
AcDbLine
 10
-643.6337405
 20
1115.87298698
 30
0.0
 11
-646.1377405
 21
1113.36898698
 31
0.0
  0
LINE
  5
5A5
100
AcDbEntity
  8
ZUWAKU
  6
CONTINUOUS
 62
       7
100
AcDbLine
 10
-641.3709988
 20
1115.87298698
 30
0.0
 11
-643.8749988
 21
1113.36898698
 31
0.0
  0
LINE
  5
5A6
100
AcDbEntity
  8
ZUWAKU
  6
CONTINUOUS
 62
       7
100
AcDbLine
 10
-639.1082571
 20
1115.87298698
 30
0.0
 11
-641.6122571
 21
1113.36898698
 31
0.0
  0
LINE
  5
5A7
100
AcDbEntity
  8
ZUWAKU
  6
CONTINUOUS
 62
       7
100
AcDbLine
 10
-630.76141496
 20
1121.95708742
 30
0.0
 11
-632.83508221
 21
1119.88342017
 31
0.0
  0
LINE
  5
5A8
100
AcDbEntity
  8
ZUWAKU
  6
CONTINUOUS
 62
       7
100
AcDbLine
 10
-634.71841785
 20
1118.00008453
 30
0.0
 11
-639.3495154
 21
1113.36898698
 31
0.0
  0
LINE
  5
5A9
100
AcDbEntity
  8
ZUWAKU
  6
CONTINUOUS
 62
       7
100
AcDbLine
 10
-618.4434044
 20
1129.74961458
 30
0.0
 11
-624.18075692
 21
1124.01226206
 31
0.0
  0
LINE
  5
5AA
100
AcDbEntity
  8
ZUWAKU
  6
CONTINUOUS
 62
       7
100
AcDbLine
 10
-631.13557804
 20
1117.05744094
 30
0.0
 11
-634.37065075
 21
1113.82236823
 31
0.0
  0
LINE
  5
5AB
100
AcDbEntity
  8
ZUWAKU
  6
CONTINUOUS
 62
       7
100
AcDbLine
 10
-616.88887858
 20
1129.0413987
 30
0.0
 11
-625.47169565
 21
1120.45858163
 31
0.0
  0
LINE
  5
5AC
100
AcDbEntity
  8
ZUWAKU
  6
CONTINUOUS
 62
       7
100
AcDbLine
 10
-630.0572903
 20
1115.87298698
 30
0.0
 11
-632.55127032
 21
1113.37900696
 31
0.0
  0
LINE
  5
5AD
100
AcDbEntity
  8
ZUWAKU
  6
CONTINUOUS
 62
       7
100
AcDbLine
 10
-627.7945486
 20
1115.87298698
 30
0.0
 11
-630.2985486
 21
1113.36898698
 31
0.0
  0
LINE
  5
5AE
100
AcDbEntity
  8
ZUWAKU
  6
CONTINUOUS
 62
       7
100
AcDbLine
 10
-616.32548413
 20
1127.34205145
 30
0.0
 11
-619.58360968
 21
1124.0839259
 31
0.0
  0
LINE
  5
5AF
100
AcDbEntity
  8
ZUWAKU
  6
CONTINUOUS
 62
       7
100
AcDbLine
 10
-622.51337746
 20
1121.15415812
 30
0.0
 11
-625.77150301
 21
1117.89603257
 31
0.0
  0
LINE
  5
5B0
100
AcDbEntity
  8
ZUWAKU
  6
CONTINUOUS
 62
       7
100
AcDbLine
 10
-616.45562432
 20
1124.94916956
 30
0.0
 11
-628.0358069
 21
1113.36898698
 31
0.0
  0
LINE
  5
5B1
100
AcDbEntity
  8
ZUWAKU
  6
CONTINUOUS
 62
       7
100
AcDbLine
 10
-617.4383677
 20
1121.70368448
 30
0.0
 11
-625.51506954
 21
1113.62698264
 31
0.0
  0
LINE
  5
5B2
100
AcDbEntity
  8
ZUWAKU
  6
CONTINUOUS
 62
       7
100
AcDbLine
 10
-608.98057734
 20
1123.37161915
 30
0.0
 11
-618.9832095
 21
1113.36898698
 31
0.0
  0
LINE
  5
5B3
100
AcDbEntity
  8
ZUWAKU
  6
CONTINUOUS
 62
       7
100
AcDbLine
 10
-608.20904678
 20
1128.66863311
 30
0.0
 11
-608.73091471
 21
1128.14676517
 31
0.0
  0
LINE
  5
5B4
100
AcDbEntity
  8
ZUWAKU
  6
CONTINUOUS
 62
       7
100
AcDbLine
 10
-620.76352404
 20
1116.11415584
 30
0.0
 11
-622.7078997
 21
1114.16978018
 31
0.0
  0
LINE
  5
5B5
100
AcDbEntity
  8
ZUWAKU
  6
CONTINUOUS
 62
       7
100
AcDbLine
 10
-606.27164042
 20
1128.34329776
 30
0.0
 11
-608.40557937
 21
1126.20935882
 31
0.0
  0
LINE
  5
5B6
100
AcDbEntity
  8
ZUWAKU
  6
CONTINUOUS
 62
       7
100
AcDbLine
 10
-618.7419512
 20
1115.87298698
 30
0.0
 11
-621.02311697
 21
1113.59182122
 31
0.0
  0
LINE
  5
5B7
100
AcDbEntity
  8
ZUWAKU
  6
CONTINUOUS
 62
       7
100
AcDbLine
 10
-596.61992619
 20
1122.1558201
 30
0.0
 11
-604.80210509
 21
1113.9736412
 31
0.0
  0
LINE
  5
5B8
100
AcDbEntity
  8
ZUWAKU
  6
CONTINUOUS
 62
       7
100
AcDbLine
 10
-607.4282427
 20
1115.87298698
 30
0.0
 11
-609.9322427
 21
1113.36898698
 31
0.0
  0
LINE
  5
5B9
100
AcDbEntity
  8
ZUWAKU
  6
CONTINUOUS
 62
       7
100
AcDbLine
 10
-609.11475564
 20
1116.44921574
 30
0.0
 11
-612.1949844
 21
1113.36898698
 31
0.0
  0
LINE
  5
5BA
100
AcDbEntity
  8
ZUWAKU
  6
CONTINUOUS
 62
       7
100
AcDbLine
 10
-608.6622073
 20
1119.16450578
 30
0.0
 11
-611.70845478
 21
1116.11825831
 31
0.0
  0
LINE
  5
5BB
100
AcDbEntity
  8
ZUWAKU
  6
CONTINUOUS
 62
       7
100
AcDbLine
 10
-616.7204678
 20
1113.36898698
 30
0.0
 11
-608.20965896
 21
1121.87979582
 31
0.0
  0
LINE
  5
5BC
100
AcDbEntity
  8
ZUWAKU
  6
CONTINUOUS
 62
       7
100
AcDbLine
 10
-591.86450917
 20
1122.38575372
 30
0.0
 11
-600.86621567
 21
1113.38404721
 31
0.0
  0
LINE
  5
5BD
100
AcDbEntity
  8
ZUWAKU
  6
CONTINUOUS
 62
       7
100
AcDbLine
 10
-592.83702807
 20
1119.15049312
 30
0.0
 11
-597.5500026
 21
1114.43751859
 31
0.0
  0
LINE
  5
5BE
100
AcDbEntity
  8
ZUWAKU
  6
CONTINUOUS
 62
       7
100
AcDbLine
 10
-593.66666667
 20
1116.05811282
 30
0.0
 11
-596.35579251
 21
1113.36898698
 31
0.0
  0
LINE
  5
5BF
100
AcDbEntity
  8
ZUWAKU
  6
CONTINUOUS
 62
       7
100
AcDbLine
 10
-591.58905081
 20
1115.87298698
 30
0.0
 11
-594.09305081
 21
1113.36898698
 31
0.0
  0
LINE
  5
5C0
100
AcDbEntity
  8
ZUWAKU
  6
CONTINUOUS
 62
       7
100
AcDbLine
 10
-583.56769175
 20
1121.63160434
 30
0.0
 11
-591.83030911
 21
1113.36898698
 31
0.0
  0
LINE
  5
5C1
100
AcDbEntity
  8
ZUWAKU
  6
CONTINUOUS
 62
       7
100
AcDbLine
 10
-600.03049183
 20
1121.00799616
 30
0.0
 11
-601.31652466
 21
1119.72196333
 31
0.0
  0
LINE
  5
5C2
100
AcDbEntity
  8
ZUWAKU
  6
CONTINUOUS
 62
       7
100
AcDbLine
 10
-603.86703926
 20
1117.17144872
 30
0.0
 11
-607.669501
 21
1113.36898698
 31
0.0
  0
LINE
  5
5C3
100
AcDbEntity
  8
ZUWAKU
  6
CONTINUOUS
 62
       7
100
AcDbLine
 10
-599.26665737
 20
1117.24634722
 30
0.0
 11
-602.31390205
 21
1114.19910254
 31
0.0
  0
LINE
  5
5C4
100
AcDbEntity
  8
ZUWAKU
  6
CONTINUOUS
 62
       7
100
AcDbLine
 10
-594.12725087
 20
1122.38575372
 30
0.0
 11
-594.43797593
 21
1122.07502866
 31
0.0
  0
LINE
  5
5C5
100
AcDbEntity
  8
ZUWAKU
  6
CONTINUOUS
 62
       7
100
AcDbLine
 10
-595.22022312
 20
1121.29278147
 30
0.0
 11
-597.37147694
 21
1119.14152764
 31
0.0
  0
POINT
  5
5C6
100
AcDbEntity
  8
ZUWAKU
  6
CONTINUOUS
 62
       7
100
AcDbPoint
 10
502.33333333
 20
1106.74443844
 30
0.0
  0
POINT
  5
5C7
100
AcDbEntity
  8
ZUWAKU
  6
CONTINUOUS
 62
       7
100
AcDbPoint
 10
-119.38875969
 20
1106.74443844
 30
0.0
  0
POINT
  5
5C8
100
AcDbEntity
  8
ZUWAKU
  6
CONTINUOUS
 62
       7
100
AcDbPoint
 10
497.33333333
 20
-1080.88101302
 30
0.0
  0
POINT
  5
5C9
100
AcDbEntity
  8
ZUWAKU
  6
CONTINUOUS
 62
       7
100
AcDbPoint
 10
-42.41666667
 20
-1080.88101302
 30
0.0
  0
LINE
  5
5CA
100
AcDbEntity
  8
ZUWAKU
  6
CONTINUOUS
 62
       7
100
AcDbLine
 10
-840.16666667
 20
1227.83333333
 30
0.0
 11
-840.16666667
 21
1187.83333333
 31
0.0
  0
LINE
  5
5CB
100
AcDbEntity
  8
ZUWAKU
  6
CONTINUOUS
 62
       7
100
AcDbLine
 10
-840.16666667
 20
1187.83333333
 30
0.0
 11
-880.16666667
 21
1187.83333333
 31
0.0
  0
LINE
  5
5CC
100
AcDbEntity
  8
ZUWAKU
  6
CONTINUOUS
 62
       7
100
AcDbLine
 10
839.83333333
 20
1187.83333333
 30
0.0
 11
879.83333333
 21
1187.83333333
 31
0.0
  0
LINE
  5
5CD
100
AcDbEntity
  8
ZUWAKU
  6
CONTINUOUS
 62
       7
100
AcDbLine
 10
839.83333333
 20
1187.83333333
 30
0.0
 11
839.83333333
 21
1227.83333333
 31
0.0
  0
LINE
  5
5CE
100
AcDbEntity
  8
ZUWAKU
  6
CONTINUOUS
 62
       7
100
AcDbLine
 10
839.83333333
 20
-1228.16666667
 30
0.0
 11
839.83333333
 21
-1188.16666667
 31
0.0
  0
LINE
  5
5CF
100
AcDbEntity
  8
ZUWAKU
  6
CONTINUOUS
 62
       7
100
AcDbLine
 10
839.83333333
 20
-1188.16666667
 30
0.0
 11
879.83333333
 21
-1188.16666667
 31
0.0
  0
LINE
  5
5D0
100
AcDbEntity
  8
ZUWAKU
  6
CONTINUOUS
 62
       7
100
AcDbLine
 10
-880.35165142
 20
-1188.16666667
 30
0.0
 11
-840.16666667
 21
-1188.16666667
 31
0.0
  0
LINE
  5
5D1
100
AcDbEntity
  8
ZUWAKU
  6
CONTINUOUS
 62
       7
100
AcDbLine
 10
-840.16666667
 20
-1188.44275187
 30
0.0
 11
-840.16666667
 21
-1228.16623892
 31
0.0
  0
LINE
  5
5D2
100
AcDbEntity
  8
ZUWAKU
  6
CONTINUOUS
 62
       7
100
AcDbLine
 10
-564.36298169
 20
1122.7343808
 30
0.0
 11
-573.72837551
 21
1113.36898698
 31
0.0
  0
LINE
  5
5D3
100
AcDbEntity
  8
ZUWAKU
  6
CONTINUOUS
 62
       7
100
AcDbLine
 10
-546.36564069
 20
1115.81366964
 30
0.0
 11
-548.81032334
 21
1113.36898698
 31
0.0
  0
LINE
  5
5D4
100
AcDbEntity
  8
ZUWAKU
  6
CONTINUOUS
 62
       7
100
AcDbLine
 10
-548.59695851
 20
1115.87298698
 30
0.0
 11
-551.10095851
 21
1113.36898698
 31
0.0
  0
LINE
  5
5D5
100
AcDbEntity
  8
ZUWAKU
  6
CONTINUOUS
 62
       7
100
AcDbLine
 10
-550.89381073
 20
1122.62710156
 30
0.0
 11
-553.2195991
 21
1120.30131319
 31
0.0
  0
LINE
  5
5D6
100
AcDbEntity
  8
ZUWAKU
  6
CONTINUOUS
 62
       7
100
AcDbLine
 10
-549.96777544
 20
1121.26250169
 30
0.0
 11
-552.27441218
 21
1118.95586495
 31
0.0
  0
LINE
  5
5D7
100
AcDbEntity
  8
ZUWAKU
  6
CONTINUOUS
 62
       7
100
AcDbLine
 10
-553.52512243
 20
1117.7051547
 30
0.0
 11
-557.86129014
 21
1113.36898698
 31
0.0
  0
LINE
  5
5D8
100
AcDbEntity
  8
ZUWAKU
  6
CONTINUOUS
 62
       7
100
AcDbLine
 10
-552.58194358
 20
1123.17381695
 30
0.0
 11
-556.85659078
 21
1118.89916974
 31
0.0
  0
LINE
  5
5D9
100
AcDbEntity
  8
ZUWAKU
  6
CONTINUOUS
 62
       7
100
AcDbLine
 10
-559.88277354
 20
1115.87298698
 30
0.0
 11
-562.38677354
 21
1113.36898698
 31
0.0
  0
LINE
  5
5DA
100
AcDbEntity
  8
ZUWAKU
  6
CONTINUOUS
 62
       7
100
AcDbLine
 10
-554.42186488
 20
1119.09904741
 30
0.0
 11
-556.74765325
 21
1116.77325904
 31
0.0
  0
LINE
  5
5DB
100
AcDbEntity
  8
ZUWAKU
  6
CONTINUOUS
 62
       7
100
AcDbLine
 10
-557.64792531
 20
1115.87298698
 30
0.0
 11
-560.15192531
 21
1113.36898698
 31
0.0
  0
LINE
  5
5DC
100
AcDbEntity
  8
ZUWAKU
  6
CONTINUOUS
 62
       7
100
AcDbLine
 10
-549.84349488
 20
1119.15193401
 30
0.0
 11
-555.36520565
 21
1113.63022324
 31
0.0
  0
LINE
  5
5DD
100
AcDbEntity
  8
ZUWAKU
  6
CONTINUOUS
 62
       7
100
AcDbLine
 10
-550.83180674
 20
1115.87298698
 30
0.0
 11
-553.14855725
 21
1113.55623647
 31
0.0
  0
LINE
  5
5DE
100
AcDbEntity
  8
ZUWAKU
  6
CONTINUOUS
 62
       7
100
AcDbLine
 10
-562.17340871
 20
1115.87298698
 30
0.0
 11
-564.67740871
 21
1113.36898698
 31
0.0
  0
LINE
  5
5DF
100
AcDbEntity
  8
ZUWAKU
  6
CONTINUOUS
 62
       7
100
AcDbLine
 10
-564.40825694
 20
1115.87298698
 30
0.0
 11
-566.91225694
 21
1113.36898698
 31
0.0
  0
LINE
  5
5E0
100
AcDbEntity
  8
ZUWAKU
  6
CONTINUOUS
 62
       7
100
AcDbLine
 10
-562.82593335
 20
1121.98079398
 30
0.0
 11
-564.52943152
 21
1120.2772958
 31
0.0
  0
LINE
  5
5E1
100
AcDbEntity
  8
ZUWAKU
  6
CONTINUOUS
 62
       7
100
AcDbLine
 10
-566.49634014
 20
1116.07553895
 30
0.0
 11
-568.25344009
 21
1114.318439
 31
0.0
  0
LINE
  5
5E2
100
AcDbEntity
  8
ZUWAKU
  6
CONTINUOUS
 62
       7
100
AcDbLine
 10
-567.63259104
 20
1117.17413628
 30
0.0
 11
-571.13476061
 21
1113.67196671
 31
0.0
  0
LINE
  5
5E3
100
AcDbEntity
  8
ZUWAKU
  6
CONTINUOUS
 62
       7
100
AcDbLine
 10
-566.55491514
 20
1122.77729559
 30
0.0
 11
-570.13259083
 21
1119.1996199
 31
0.0
  0
LINE
  5
5E4
100
AcDbEntity
  8
ZUWAKU
  6
CONTINUOUS
 62
       7
100
AcDbLine
 10
-573.45922374
 20
1115.87298698
 30
0.0
 11
-575.96322374
 21
1113.36898698
 31
0.0
  0
LINE
  5
5E5
100
AcDbEntity
  8
ZUWAKU
  6
CONTINUOUS
 62
       7
100
AcDbLine
 10
-575.74985891
 20
1115.87298698
 30
0.0
 11
-578.25385891
 21
1113.36898698
 31
0.0
  0
LINE
  5
5E6
100
AcDbEntity
  8
ZUWAKU
  6
CONTINUOUS
 62
       7
100
AcDbLine
 10
-576.12550068
 20
1117.73219344
 30
0.0
 11
-580.48870714
 21
1113.36898698
 31
0.0
  0
LINE
  5
5E7
100
AcDbEntity
  8
ZUWAKU
  6
CONTINUOUS
 62
       7
100
AcDbLine
 10
-574.84924286
 20
1121.29908643
 30
0.0
 11
-579.45942344
 21
1116.68890585
 31
0.0
  0
LINE
  5
5E8
100
AcDbEntity
  8
ZUWAKU
  6
CONTINUOUS
 62
       7
100
AcDbLine
 10
-575.62504001
 20
1122.78603098
 30
0.0
 11
-579.04208401
 21
1119.36898698
 31
0.0
  0
LINE
  5
5E9
100
AcDbEntity
  8
ZUWAKU
  6
CONTINUOUS
 62
       7
100
AcDbLine
 10
-583.40671984
 20
1115.00435115
 30
0.0
 11
-585.04208401
 21
1113.36898698
 31
0.0
  0
LINE
  5
5EA
100
AcDbEntity
  8
ZUWAKU
  6
CONTINUOUS
 62
       7
100
AcDbLine
 10
-577.80482571
 20
1122.86898698
 30
0.0
 11
-581.30482571
 21
1119.36898698
 31
0.0
  0
LINE
  5
5EB
100
AcDbEntity
  8
ZUWAKU
  6
CONTINUOUS
 62
       7
100
AcDbLine
 10
-582.11372459
 20
1118.5600881
 30
0.0
 11
-586.65315456
 21
1114.02065813
 31
0.0
  0
LINE
  5
5EC
100
AcDbEntity
  8
ZUWAKU
  6
CONTINUOUS
 62
       7
100
AcDbLine
 10
-580.95576041
 20
1121.98079398
 30
0.0
 11
-588.87387258
 21
1114.06268181
 31
0.0
  0
LINE
  5
5ED
100
AcDbEntity
  8
ZUWAKU
  6
CONTINUOUS
 62
       7
100
AcDbLine
 10
795.83333333
 20
-443.13101302
 30
0.0
 11
839.83333333
 21
-443.13101302
 31
0.0
  0
LINE
  5
5EE
100
AcDbEntity
  8
ZUWAKU
  6
CONTINUOUS
 62
       7
100
AcDbLine
 10
795.83333333
 20
-403.13101302
 30
0.0
 11
839.83333333
 21
-403.13101302
 31
0.0
  0
LINE
  5
5EF
100
AcDbEntity
  8
ZUWAKU
  6
CONTINUOUS
 62
       7
100
AcDbLine
 10
839.83333333
 20
-403.13101302
 30
0.0
 11
839.83333333
 21
-443.13101302
 31
0.0
  0
LINE
  5
5F0
100
AcDbEntity
  8
ZUWAKU
  6
CONTINUOUS
 62
       7
100
AcDbLine
 10
795.83333333
 20
-403.13101302
 30
0.0
 11
795.83333333
 21
-443.13101302
 31
0.0
  0
LINE
  5
5F1
100
AcDbEntity
  8
ZUWAKU
  6
CONTINUOUS
 62
       7
100
AcDbLine
 10
839.83333333
 20
-442.99173446
 30
0.0
 11
839.69405478
 21
-443.13101302
 31
0.0
  0
LINE
  5
5F2
100
AcDbEntity
  8
ZUWAKU
  6
CONTINUOUS
 62
       7
100
AcDbLine
 10
816.35643875
 20
-403.13101302
 30
0.0
 11
795.83333333
 21
-423.65411843
 31
0.0
  0
LINE
  5
5F3
100
AcDbEntity
  8
ZUWAKU
  6
CONTINUOUS
 62
       7
100
AcDbLine
 10
814.09369705
 20
-403.13101302
 30
0.0
 11
795.83333333
 21
-421.39137673
 31
0.0
  0
LINE
  5
5F4
100
AcDbEntity
  8
ZUWAKU
  6
CONTINUOUS
 62
       7
100
AcDbLine
 10
811.83095535
 20
-403.13101302
 30
0.0
 11
795.83333333
 21
-419.12863503
 31
0.0
  0
LINE
  5
5F5
100
AcDbEntity
  8
ZUWAKU
  6
CONTINUOUS
 62
       7
100
AcDbLine
 10
809.56821365
 20
-403.13101302
 30
0.0
 11
795.83333333
 21
-416.86589333
 31
0.0
  0
LINE
  5
5F6
100
AcDbEntity
  8
ZUWAKU
  6
CONTINUOUS
 62
       7
100
AcDbLine
 10
807.30547195
 20
-403.13101302
 30
0.0
 11
795.83333333
 21
-414.60315163
 31
0.0
  0
LINE
  5
5F7
100
AcDbEntity
  8
ZUWAKU
  6
CONTINUOUS
 62
       7
100
AcDbLine
 10
805.04273025
 20
-403.13101302
 30
0.0
 11
795.83333333
 21
-412.34040993
 31
0.0
  0
LINE
  5
5F8
100
AcDbEntity
  8
ZUWAKU
  6
CONTINUOUS
 62
       7
100
AcDbLine
 10
802.77998855
 20
-403.13101302
 30
0.0
 11
795.83333333
 21
-410.07766824
 31
0.0
  0
LINE
  5
5F9
100
AcDbEntity
  8
ZUWAKU
  6
CONTINUOUS
 62
       7
100
AcDbLine
 10
800.51724685
 20
-403.13101302
 30
0.0
 11
795.83333333
 21
-407.81492654
 31
0.0
  0
LINE
  5
5FA
100
AcDbEntity
  8
ZUWAKU
  6
CONTINUOUS
 62
       7
100
AcDbLine
 10
798.25450515
 20
-403.13101302
 30
0.0
 11
795.83333333
 21
-405.55218484
 31
0.0
  0
LINE
  5
5FB
100
AcDbEntity
  8
ZUWAKU
  6
CONTINUOUS
 62
       7
100
AcDbLine
 10
818.61918045
 20
-403.13101302
 30
0.0
 11
795.83333333
 21
-425.91686013
 31
0.0
  0
LINE
  5
5FC
100
AcDbEntity
  8
ZUWAKU
  6
CONTINUOUS
 62
       7
100
AcDbLine
 10
820.88192215
 20
-403.13101302
 30
0.0
 11
795.83333333
 21
-428.17960183
 31
0.0
  0
LINE
  5
5FD
100
AcDbEntity
  8
ZUWAKU
  6
CONTINUOUS
 62
       7
100
AcDbLine
 10
823.14466385
 20
-403.13101302
 30
0.0
 11
795.83333333
 21
-430.44234353
 31
0.0
  0
LINE
  5
5FE
100
AcDbEntity
  8
ZUWAKU
  6
CONTINUOUS
 62
       7
100
AcDbLine
 10
825.40740555
 20
-403.13101302
 30
0.0
 11
795.83333333
 21
-432.70508523
 31
0.0
  0
LINE
  5
5FF
100
AcDbEntity
  8
ZUWAKU
  6
CONTINUOUS
 62
       7
100
AcDbLine
 10
827.67014725
 20
-403.13101302
 30
0.0
 11
795.83333333
 21
-434.96782693
 31
0.0
  0
LINE
  5
600
100
AcDbEntity
  8
ZUWAKU
  6
CONTINUOUS
 62
       7
100
AcDbLine
 10
829.93288895
 20
-403.13101302
 30
0.0
 11
795.83333333
 21
-437.23056863
 31
0.0
  0
LINE
  5
601
100
AcDbEntity
  8
ZUWAKU
  6
CONTINUOUS
 62
       7
100
AcDbLine
 10
832.19563065
 20
-403.13101302
 30
0.0
 11
795.83333333
 21
-439.49331033
 31
0.0
  0
LINE
  5
602
100
AcDbEntity
  8
ZUWAKU
  6
CONTINUOUS
 62
       7
100
AcDbLine
 10
834.45837235
 20
-403.13101302
 30
0.0
 11
795.83333333
 21
-441.75605203
 31
0.0
  0
LINE
  5
603
100
AcDbEntity
  8
ZUWAKU
  6
CONTINUOUS
 62
       7
100
AcDbLine
 10
836.72111405
 20
-403.13101302
 30
0.0
 11
796.72111405
 21
-443.13101302
 31
0.0
  0
LINE
  5
604
100
AcDbEntity
  8
ZUWAKU
  6
CONTINUOUS
 62
       7
100
AcDbLine
 10
838.98385575
 20
-403.13101302
 30
0.0
 11
798.98385575
 21
-443.13101302
 31
0.0
  0
LINE
  5
605
100
AcDbEntity
  8
ZUWAKU
  6
CONTINUOUS
 62
       7
100
AcDbLine
 10
839.83333333
 20
-404.54427713
 30
0.0
 11
801.24659745
 21
-443.13101302
 31
0.0
  0
LINE
  5
606
100
AcDbEntity
  8
ZUWAKU
  6
CONTINUOUS
 62
       7
100
AcDbLine
 10
839.83333333
 20
-406.80701883
 30
0.0
 11
803.50933915
 21
-443.13101302
 31
0.0
  0
LINE
  5
607
100
AcDbEntity
  8
ZUWAKU
  6
CONTINUOUS
 62
       7
100
AcDbLine
 10
839.83333333
 20
-409.06976053
 30
0.0
 11
805.77208085
 21
-443.13101302
 31
0.0
  0
LINE
  5
608
100
AcDbEntity
  8
ZUWAKU
  6
CONTINUOUS
 62
       7
100
AcDbLine
 10
839.83333333
 20
-411.33250223
 30
0.0
 11
808.03482255
 21
-443.13101302
 31
0.0
  0
LINE
  5
609
100
AcDbEntity
  8
ZUWAKU
  6
CONTINUOUS
 62
       7
100
AcDbLine
 10
839.83333333
 20
-413.59524393
 30
0.0
 11
810.29756425
 21
-443.13101302
 31
0.0
  0
LINE
  5
60A
100
AcDbEntity
  8
ZUWAKU
  6
CONTINUOUS
 62
       7
100
AcDbLine
 10
839.83333333
 20
-415.85798563
 30
0.0
 11
812.56030595
 21
-443.13101302
 31
0.0
  0
LINE
  5
60B
100
AcDbEntity
  8
ZUWAKU
  6
CONTINUOUS
 62
       7
100
AcDbLine
 10
839.83333333
 20
-418.12072733
 30
0.0
 11
814.82304765
 21
-443.13101302
 31
0.0
  0
LINE
  5
60C
100
AcDbEntity
  8
ZUWAKU
  6
CONTINUOUS
 62
       7
100
AcDbLine
 10
839.83333333
 20
-420.38346903
 30
0.0
 11
817.08578935
 21
-443.13101302
 31
0.0
  0
LINE
  5
60D
100
AcDbEntity
  8
ZUWAKU
  6
CONTINUOUS
 62
       7
100
AcDbLine
 10
839.83333333
 20
-422.64621073
 30
0.0
 11
819.34853105
 21
-443.13101302
 31
0.0
  0
LINE
  5
60E
100
AcDbEntity
  8
ZUWAKU
  6
CONTINUOUS
 62
       7
100
AcDbLine
 10
839.83333333
 20
-424.90895243
 30
0.0
 11
821.61127275
 21
-443.13101302
 31
0.0
  0
LINE
  5
60F
100
AcDbEntity
  8
ZUWAKU
  6
CONTINUOUS
 62
       7
100
AcDbLine
 10
839.83333333
 20
-427.17169413
 30
0.0
 11
823.87401445
 21
-443.13101302
 31
0.0
  0
LINE
  5
610
100
AcDbEntity
  8
ZUWAKU
  6
CONTINUOUS
 62
       7
100
AcDbLine
 10
839.83333333
 20
-429.43443583
 30
0.0
 11
826.13675615
 21
-443.13101302
 31
0.0
  0
LINE
  5
611
100
AcDbEntity
  8
ZUWAKU
  6
CONTINUOUS
 62
       7
100
AcDbLine
 10
839.83333333
 20
-431.69717753
 30
0.0
 11
828.39949785
 21
-443.13101302
 31
0.0
  0
LINE
  5
612
100
AcDbEntity
  8
ZUWAKU
  6
CONTINUOUS
 62
       7
100
AcDbLine
 10
839.83333333
 20
-433.95991923
 30
0.0
 11
830.66223955
 21
-443.13101302
 31
0.0
  0
LINE
  5
613
100
AcDbEntity
  8
ZUWAKU
  6
CONTINUOUS
 62
       7
100
AcDbLine
 10
839.83333333
 20
-436.22266093
 30
0.0
 11
832.92498125
 21
-443.13101302
 31
0.0
  0
LINE
  5
614
100
AcDbEntity
  8
ZUWAKU
  6
CONTINUOUS
 62
       7
100
AcDbLine
 10
839.83333333
 20
-438.48540263
 30
0.0
 11
835.18772295
 21
-443.13101302
 31
0.0
  0
LINE
  5
615
100
AcDbEntity
  8
ZUWAKU
  6
CONTINUOUS
 62
       7
100
AcDbLine
 10
839.83333333
 20
-440.74814433
 30
0.0
 11
837.45046465
 21
-443.13101302
 31
0.0
  0
LINE
  5
616
100
AcDbEntity
  8
ZUWAKU
  6
CONTINUOUS
 62
       7
100
AcDbLine
 10
839.83333333
 20
-443.01088603
 30
0.0
 11
839.71320635
 21
-443.13101302
 31
0.0
  0
LINE
  5
617
100
AcDbEntity
  8
ZUWAKU
  6
CONTINUOUS
 62
       7
100
AcDbLine
 10
-728.66666667
 20
-1019.13101302
 30
0.0
 11
-728.66666667
 21
-699.13101302
 31
0.0
  0
LINE
  5
618
100
AcDbEntity
  8
ZUWAKU
  6
CONTINUOUS
 62
       7
100
AcDbLine
 10
-673.16666667
 20
-1019.13101302
 30
0.0
 11
-673.16666667
 21
-699.13101302
 31
0.0
  0
LINE
  5
619
100
AcDbEntity
  8
ZUWAKU
  6
CONTINUOUS
 62
       7
100
AcDbLine
 10
-300.66666667
 20
-1019.13101302
 30
0.0
 11
-300.66666667
 21
-699.13101302
 31
0.0
  0
LINE
  5
61A
100
AcDbEntity
  8
ZUWAKU
  6
CONTINUOUS
 62
       7
100
AcDbLine
 10
124.33333333
 20
-1019.13101302
 30
0.0
 11
124.33333333
 21
-699.13101302
 31
0.0
  0
LINE
  5
61B
100
AcDbEntity
  8
ZUWAKU
  6
CONTINUOUS
 62
       7
100
AcDbLine
 10
213.33333333
 20
-1019.13101302
 30
0.0
 11
213.33333333
 21
-699.13101302
 31
0.0
  0
POINT
  5
61C
100
AcDbEntity
  8
ZUWAKU
  6
CONTINUOUS
 62
       7
100
AcDbPoint
 10
168.83333333
 20
-959.13101302
 30
0.0
  0
POINT
  5
61D
100
AcDbEntity
  8
ZUWAKU
  6
CONTINUOUS
 62
       7
100
AcDbPoint
 10
-665.16666667
 20
-959.13101302
 30
0.0
  0
POINT
  5
61E
100
AcDbEntity
  8
ZUWAKU
  6
CONTINUOUS
 62
       7
100
AcDbPoint
 10
-292.66666667
 20
-959.13101302
 30
0.0
  0
POINT
  5
61F
100
AcDbEntity
  8
ZUWAKU
  6
CONTINUOUS
 62
       7
100
AcDbPoint
 10
221.33333333
 20
-959.13101302
 30
0.0
  0
POINT
  5
620
100
AcDbEntity
  8
ZUWAKU
  6
CONTINUOUS
 62
       7
100
AcDbPoint
 10
168.83333333
 20
-919.13101302
 30
0.0
  0
POINT
  5
621
100
AcDbEntity
  8
ZUWAKU
  6
CONTINUOUS
 62
       7
100
AcDbPoint
 10
-665.16666667
 20
-919.13101302
 30
0.0
  0
POINT
  5
622
100
AcDbEntity
  8
ZUWAKU
  6
CONTINUOUS
 62
       7
100
AcDbPoint
 10
-292.66666667
 20
-919.13101302
 30
0.0
  0
POINT
  5
623
100
AcDbEntity
  8
ZUWAKU
  6
CONTINUOUS
 62
       7
100
AcDbPoint
 10
221.33333333
 20
-919.13101302
 30
0.0
  0
POINT
  5
624
100
AcDbEntity
  8
ZUWAKU
  6
CONTINUOUS
 62
       7
100
AcDbPoint
 10
168.83333333
 20
-879.13101302
 30
0.0
  0
POINT
  5
625
100
AcDbEntity
  8
ZUWAKU
  6
CONTINUOUS
 62
       7
100
AcDbPoint
 10
-665.16666667
 20
-879.13101302
 30
0.0
  0
POINT
  5
626
100
AcDbEntity
  8
ZUWAKU
  6
CONTINUOUS
 62
       7
100
AcDbPoint
 10
-292.66666667
 20
-879.13101302
 30
0.0
  0
POINT
  5
627
100
AcDbEntity
  8
ZUWAKU
  6
CONTINUOUS
 62
       7
100
AcDbPoint
 10
221.33333333
 20
-879.13101302
 30
0.0
  0
POINT
  5
628
100
AcDbEntity
  8
ZUWAKU
  6
CONTINUOUS
 62
       7
100
AcDbPoint
 10
168.83333333
 20
-839.13101302
 30
0.0
  0
POINT
  5
629
100
AcDbEntity
  8
ZUWAKU
  6
CONTINUOUS
 62
       7
100
AcDbPoint
 10
-665.16666667
 20
-839.13101302
 30
0.0
  0
POINT
  5
62A
100
AcDbEntity
  8
ZUWAKU
  6
CONTINUOUS
 62
       7
100
AcDbPoint
 10
-292.66666667
 20
-839.13101302
 30
0.0
  0
POINT
  5
62B
100
AcDbEntity
  8
ZUWAKU
  6
CONTINUOUS
 62
       7
100
AcDbPoint
 10
221.33333333
 20
-839.13101302
 30
0.0
  0
POINT
  5
62C
100
AcDbEntity
  8
ZUWAKU
  6
CONTINUOUS
 62
       7
100
AcDbPoint
 10
168.83333333
 20
-799.13101302
 30
0.0
  0
POINT
  5
62D
100
AcDbEntity
  8
ZUWAKU
  6
CONTINUOUS
 62
       7
100
AcDbPoint
 10
-665.16666667
 20
-799.13101302
 30
0.0
  0
POINT
  5
62E
100
AcDbEntity
  8
ZUWAKU
  6
CONTINUOUS
 62
       7
100
AcDbPoint
 10
-292.66666667
 20
-799.13101302
 30
0.0
  0
POINT
  5
62F
100
AcDbEntity
  8
ZUWAKU
  6
CONTINUOUS
 62
       7
100
AcDbPoint
 10
221.33333333
 20
-799.13101302
 30
0.0
  0
POINT
  5
630
100
AcDbEntity
  8
ZUWAKU
  6
CONTINUOUS
 62
       7
100
AcDbPoint
 10
168.83333333
 20
-759.13101302
 30
0.0
  0
POINT
  5
631
100
AcDbEntity
  8
ZUWAKU
  6
CONTINUOUS
 62
       7
100
AcDbPoint
 10
-665.16666667
 20
-759.13101302
 30
0.0
  0
POINT
  5
632
100
AcDbEntity
  8
ZUWAKU
  6
CONTINUOUS
 62
       7
100
AcDbPoint
 10
-292.66666667
 20
-759.13101302
 30
0.0
  0
POINT
  5
633
100
AcDbEntity
  8
ZUWAKU
  6
CONTINUOUS
 62
       7
100
AcDbPoint
 10
221.33333333
 20
-759.13101302
 30
0.0
  0
POINT
  5
634
100
AcDbEntity
  8
ZUWAKU
  6
CONTINUOUS
 62
       7
100
AcDbPoint
 10
168.83333333
 20
-719.13101302
 30
0.0
  0
POINT
  5
635
100
AcDbEntity
  8
ZUWAKU
  6
CONTINUOUS
 62
       7
100
AcDbPoint
 10
-665.16666667
 20
-719.13101302
 30
0.0
  0
POINT
  5
636
100
AcDbEntity
  8
ZUWAKU
  6
CONTINUOUS
 62
       7
100
AcDbPoint
 10
-292.66666667
 20
-719.13101302
 30
0.0
  0
POINT
  5
637
100
AcDbEntity
  8
ZUWAKU
  6
CONTINUOUS
 62
       7
100
AcDbPoint
 10
221.33333333
 20
-719.13101302
 30
0.0
  0
LINE
  5
638
100
AcDbEntity
  8
ZUWAKU
  6
CONTINUOUS
 62
       7
100
AcDbLine
 10
-728.66666667
 20
-1019.13101302
 30
0.0
 11
746.83333333
 21
-1019.13101302
 31
0.0
  0
LINE
  5
639
100
AcDbEntity
  8
ZUWAKU
  6
CONTINUOUS
 62
       7
100
AcDbLine
 10
746.83333333
 20
-1019.13101302
 30
0.0
 11
746.83333333
 21
-699.13101302
 31
0.0
  0
LINE
  5
63A
100
AcDbEntity
  8
ZUWAKU
  6
CONTINUOUS
 62
       7
100
AcDbLine
 10
-728.66666667
 20
-979.13101302
 30
0.0
 11
746.83333333
 21
-979.13101302
 31
0.0
  0
LINE
  5
63B
100
AcDbEntity
  8
ZUWAKU
  6
CONTINUOUS
 62
       7
100
AcDbLine
 10
-728.66666667
 20
-939.13101302
 30
0.0
 11
746.83333333
 21
-939.13101302
 31
0.0
  0
LINE
  5
63C
100
AcDbEntity
  8
ZUWAKU
  6
CONTINUOUS
 62
       7
100
AcDbLine
 10
-728.66666667
 20
-899.13101302
 30
0.0
 11
746.83333333
 21
-899.13101302
 31
0.0
  0
LINE
  5
63D
100
AcDbEntity
  8
ZUWAKU
  6
CONTINUOUS
 62
       7
100
AcDbLine
 10
-728.66666667
 20
-859.13101302
 30
0.0
 11
746.83333333
 21
-859.13101302
 31
0.0
  0
LINE
  5
63E
100
AcDbEntity
  8
ZUWAKU
  6
CONTINUOUS
 62
       7
100
AcDbLine
 10
-728.66666667
 20
-819.13101302
 30
0.0
 11
746.83333333
 21
-819.13101302
 31
0.0
  0
LINE
  5
63F
100
AcDbEntity
  8
ZUWAKU
  6
CONTINUOUS
 62
       7
100
AcDbLine
 10
-728.66666667
 20
-779.13101302
 30
0.0
 11
746.83333333
 21
-779.13101302
 31
0.0
  0
LINE
  5
640
100
AcDbEntity
  8
ZUWAKU
  6
CONTINUOUS
 62
       7
100
AcDbLine
 10
-728.66666667
 20
-739.13101302
 30
0.0
 11
746.83333333
 21
-739.13101302
 31
0.0
  0
LINE
  5
641
100
AcDbEntity
  8
ZUWAKU
  6
CONTINUOUS
 62
       7
100
AcDbLine
 10
-728.66666667
 20
-699.13101302
 30
0.0
 11
746.83333333
 21
-699.13101302
 31
0.0
  0
TEXT
  5
642
100
AcDbEntity
  8
ZUWAKU
 62
       7
100
AcDbText
 10
-672.57616791
 20
-1108.63101302
 30
0.0
 40
27.2
  1
株式会社
 41
0.6667
 72
       5
 11
-585.53616791
 21
-1108.63101302
 31
0.0
100
AcDbText
  0
TEXT
  5
643
100
AcDbEntity
  8
ZUWAKU
 62
       7
100
AcDbText
 10
593.29545485
 20
-1173.17863601
 30
0.0
 40
32.0
  1
090522
 41
0.8
 72
       5
 11
746.89545485
 21
-1173.17863601
 31
0.0
100
AcDbText
  0
TEXT
  5
644
100
AcDbEntity
  8
ZUWAKU
 62
       7
100
AcDbText
 10
-312.67062414
 20
-1039.4938856
 30
0.0
 40
19.992
  1
品 名
 41
0.8
  7
FDASTYLE1
100
AcDbText
  0
TEXT
  5
645
100
AcDbEntity
  8
ZUWAKU
 62
       7
100
AcDbText
 10
227.34728287
 20
-1039.63465735
 30
0.0
 40
19.992
  1
品　番
 41
0.8
  7
FDASTYLE1
100
AcDbText
  0
TEXT
  5
646
100
AcDbEntity
  8
ZUWAKU
 62
       7
100
AcDbText
 10
795.89126799
 20
-448.65328497
 30
0.0
 40
32.0
  1
洗面台
 50
-90.0
 41
0.75
 72
       5
 11
795.89126799
 21
-525.45328497
 31
0.0
100
AcDbText
  0
TEXT
  5
647
100
AcDbEntity
  8
ZUWAKU
 62
       7
100
AcDbText
 10
-714.97263731
 20
-974.81128023
 30
0.0
 40
32.0
  1
1
 41
0.8
 72
       5
 11
-689.37263731
 21
-974.81128023
 31
0.0
100
AcDbText
  0
TEXT
  5
648
100
AcDbEntity
  8
ZUWAKU
 62
       7
100
AcDbText
 10
-714.97263731
 20
-934.81128023
 30
0.0
 40
32.0
  1
2
 41
0.8
 72
       5
 11
-689.37263731
 21
-934.81128023
 31
0.0
100
AcDbText
  0
TEXT
  5
649
100
AcDbEntity
  8
ZUWAKU
 62
       7
100
AcDbText
 10
-714.97263731
 20
-894.81128023
 30
0.0
 40
32.0
  1
3
 41
0.8
 72
       5
 11
-689.37263731
 21
-894.81128023
 31
0.0
100
AcDbText
  0
TEXT
  5
64A
100
AcDbEntity
  8
ZUWAKU
 62
       7
100
AcDbText
 10
-714.97263731
 20
-854.81128023
 30
0.0
 40
32.0
  1
4
 41
0.8
 72
       5
 11
-689.37263731
 21
-854.81128023
 31
0.0
100
AcDbText
  0
TEXT
  5
64B
100
AcDbEntity
  8
ZUWAKU
 62
       7
100
AcDbText
 10
-714.97263731
 20
-814.81128023
 30
0.0
 40
32.0
  1
5
 41
0.8
 72
       5
 11
-689.37263731
 21
-814.81128023
 31
0.0
100
AcDbText
  0
TEXT
  5
64C
100
AcDbEntity
  8
ZUWAKU
 62
       7
100
AcDbText
 10
-714.97263731
 20
-774.81128023
 30
0.0
 40
32.0
  1
6
 41
0.8
 72
       5
 11
-689.37263731
 21
-774.81128023
 31
0.0
100
AcDbText
  0
TEXT
  5
64D
100
AcDbEntity
  8
ZUWAKU
 62
       7
100
AcDbText
 10
-714.97263731
 20
-734.81128023
 30
0.0
 40
32.0
  1
7
 41
0.8
 72
       5
 11
-689.37263731
 21
-734.81128023
 31
0.0
100
AcDbText
  0
TEXT
  5
64E
100
AcDbEntity
  8
ZUWAKU
 62
       7
100
AcDbText
 10
414.81014293
 20
-1014.65341106
 30
0.0
 40
32.0
  1
摘要・仕上
 41
0.7143
 72
       5
 11
542.81014293
 21
-1014.65341106
 31
0.0
100
AcDbText
  0
TEXT
  5
64F
100
AcDbEntity
  8
ZUWAKU
 62
       7
100
AcDbText
 10
129.72502368
 20
-1014.65341106
 30
0.0
 40
32.0
  1
個　数
 41
0.75
 72
       5
 11
206.52502368
 21
-1014.65341106
 31
0.0
100
AcDbText
  0
TEXT
  5
650
100
AcDbEntity
  8
ZUWAKU
 62
       7
100
AcDbText
 10
-139.04225073
 20
-1014.65341106
 30
0.0
 40
32.0
  1
材　　質
 41
0.6667
 72
       5
 11
-36.64225073
 21
-1014.65341106
 31
0.0
100
AcDbText
  0
TEXT
  5
651
100
AcDbEntity
  8
ZUWAKU
 62
       7
100
AcDbText
 10
-551.18160881
 20
-1014.65341106
 30
0.0
 40
32.0
  1
部　品　名
 41
0.7143
 72
       5
 11
-423.18160881
 21
-1014.65341106
 31
0.0
100
AcDbText
  0
TEXT
  5
652
100
AcDbEntity
  8
ZUWAKU
 62
       7
100
AcDbText
 10
-727.51851506
 20
-1014.65341106
 30
0.0
 40
32.0
  1
部番
 41
0.6667
 72
       5
 11
-676.31851506
 21
-1014.65341106
 31
0.0
100
AcDbText
  0
TEXT
  5
653
100
AcDbEntity
  8
LAYER0240
 62
       7
100
AcDbText
 10
343.73333333
 20
-1096.88101302
 30
0.0
 40
32.0
  1
5172.51.01/R1
 41
0.8
 72
       5
 11
676.53333333
 21
-1096.88101302
 31
0.0
100
AcDbText
  0
TEXT
  5
654
100
AcDbEntity
  8
LAYER0240
 62
       7
100
AcDbText
 10
-283.69666667
 20
-1096.88101302
 30
0.0
 40
32.0
  1
ビレロイ＆ボッホ　置き型手洗器　PURE　STONE
 41
0.5222
 72
       5
 11
198.86333333
 21
-1096.88101302
 31
0.0
100
AcDbText
  0
TEXT
  5
655
100
AcDbEntity
  8
LAYER0240
 62
       7
100
AcDbText
 10
-452.18875969
 20
1090.74443844
 30
0.0
 40
32.0
  1
ビレロイ＆ボッホ　置き型手洗器　PURE　STONE
 41
0.7222
 72
       5
 11
213.41124031
 21
1090.74443844
 31
0.0
100
AcDbText
  0
TEXT
  5
656
100
AcDbEntity
  8
LAYER0240
 62
       7
100
AcDbText
 10
343.73333333
 20
1089.91356169
 30
0.0
 40
32.0
  1
5172.51.01/R1
 41
0.8
 72
       5
 11
676.53333333
 21
1089.91356169
 31
0.0
100
AcDbText
  0
TEXT
  5
657
100
AcDbEntity
  8
LAYER0240
 62
       7
100
AcDbText
 10
505.05102079
 20
-507.88254146
 30
0.0
 40
32.0
  1
重量 18ｋｇ
 41
0.7778
 72
       5
 11
684.25102079
 21
-507.88254146
 31
0.0
100
AcDbText
  0
TEXT
  5
658
100
AcDbEntity
  8
LAYER0240
 62
       7
100
AcDbText
 10
505.05102079
 20
-547.88254146
 30
0.0
 40
32.0
  1
容量　 5Ｌ
 41
0.75
 72
       5
 11
658.65102079
 21
-547.88254146
 31
0.0
100
AcDbText
  0
TEXT
  5
659
100
AcDbEntity
  8
LAYER0240
 62
       7
100
AcDbText
 10
-665.16666667
 20
-975.13101302
 30
0.0
 40
32.0
  1
手洗器本体
 41
0.7143
 72
       5
 11
-537.16666667
 21
-975.13101302
 31
0.0
100
AcDbText
  0
TEXT
  5
65A
100
AcDbEntity
  8
LAYER0240
 62
       7
100
AcDbText
 10
-292.66666667
 20
-975.13101302
 30
0.0
 40
32.0
  1
陶器
 41
0.6667
 72
       5
 11
-241.46666667
 21
-975.13101302
 31
0.0
100
AcDbText
  0
TEXT
  5
65B
100
AcDbEntity
  8
LAYER0240
 62
       7
100
AcDbText
 10
156.03333333
 20
-975.13101302
 30
0.0
 40
32.0
  1
１
 41
0.8
 72
       5
 11
181.63333333
 21
-975.13101302
 31
0.0
100
AcDbText
  0
TEXT
  5
65C
100
AcDbEntity
  8
LAYER0240
 62
       7
100
AcDbText
 10
-665.16666667
 20
-935.13101302
 30
0.0
 40
32.0
  1
取付ネジ（Ｍ６）
 41
0.6667
 72
       5
 11
-460.36666667
 21
-935.13101302
 31
0.0
100
AcDbText
  0
TEXT
  5
65D
100
AcDbEntity
  8
LAYER0240
 62
       7
100
AcDbText
 10
-292.66666667
 20
-935.13101302
 30
0.0
 40
32.0
  1
スチール
 41
0.6667
 72
       5
 11
-190.26666667
 21
-935.13101302
 31
0.0
100
AcDbText
  0
TEXT
  5
65E
100
AcDbEntity
  8
LAYER0240
 62
       7
100
AcDbText
 10
-619.21735535
 20
-553.25275746
 30
0.0
 40
32.0
  1
　　　現物あわせにて取付けをお願いします。
 41
0.6774
 72
       5
 11
-81.61735535
 21
-553.25275746
 31
0.0
100
AcDbText
  0
TEXT
  5
65F
100
AcDbEntity
  8
LAYER0240
 62
       7
100
AcDbText
 10
-592.20883469
 20
-510.05624607
 30
0.0
 40
32.0
  1
※、本製品は陶磁器のため、出来上がりに多少の寸法誤差が生じる場合があります。
 41
0.6667
 72
       5
 11
380.59116531
 21
-510.05624607
 31
0.0
100
AcDbText
  0
TEXT
  5
660
100
AcDbEntity
  8
LAYER0240
 62
       7
100
AcDbText
 10
-665.16666667
 20
-895.13101302
 30
0.0
 40
32.0
  1
ナット　Ｍ６用
 41
0.7
 72
       5
 11
-485.96666667
 21
-895.13101302
 31
0.0
100
AcDbText
  0
TEXT
  5
661
100
AcDbEntity
  8
LAYER0240
 62
       7
100
AcDbText
 10
-665.16666667
 20
-855.13101302
 30
0.0
 40
32.0
  1
ワッシャ　Ｍ６用
 41
0.6667
 72
       5
 11
-460.36666667
 21
-855.13101302
 31
0.0
100
AcDbText
  0
TEXT
  5
662
100
AcDbEntity
  8
LAYER0240
 62
       7
100
AcDbText
 10
-292.66666667
 20
-895.13101302
 30
0.0
 40
32.0
  1
スチール
 41
0.6667
 72
       5
 11
-190.26666667
 21
-895.13101302
 31
0.0
100
AcDbText
  0
TEXT
  5
663
100
AcDbEntity
  8
LAYER0240
 62
       7
100
AcDbText
 10
-292.66666667
 20
-855.13101302
 30
0.0
 40
32.0
  1
スチール
 41
0.6667
 72
       5
 11
-190.26666667
 21
-855.13101302
 31
0.0
100
AcDbText
  0
TEXT
  5
664
100
AcDbEntity
  8
LAYER0240
 62
       7
100
AcDbText
 10
156.03333333
 20
-935.13101302
 30
0.0
 40
32.0
  1
３
 41
0.8
 72
       5
 11
181.63333333
 21
-935.13101302
 31
0.0
100
AcDbText
  0
TEXT
  5
665
100
AcDbEntity
  8
LAYER0240
 62
       7
100
AcDbText
 10
156.03333333
 20
-895.13101302
 30
0.0
 40
32.0
  1
３
 41
0.8
 72
       5
 11
181.63333333
 21
-895.13101302
 31
0.0
100
AcDbText
  0
TEXT
  5
666
100
AcDbEntity
  8
LAYER0240
 62
       7
100
AcDbText
 10
156.03333333
 20
-855.13101302
 30
0.0
 40
32.0
  1
３
 41
0.8
 72
       5
 11
181.63333333
 21
-855.13101302
 31
0.0
100
AcDbText
  0
LINE
  5
667
100
AcDbEntity
  8
LAYER0240
  6
CONTINUOUS
 62
       7
100
AcDbLine
 10
-596.51768819
 20
-515.32841831
 30
0.0
 11
376.32010276
 21
-515.32841831
 31
0.0
  0
LINE
  5
668
100
AcDbEntity
  8
LAYER0240
  6
CONTINUOUS
 62
       7
100
AcDbLine
 10
-596.51768819
 20
-558.49086483
 30
0.0
 11
-81.53862842
 21
-558.49086483
 31
0.0
  0
CIRCLE
  5
669
100
AcDbEntity
  8
0
  6
CONTINUOUS
 62
       7
100
AcDbCircle
 10
-239.37232376
 20
483.95537832
 30
0.0
 40
170.0
  0
CIRCLE
  5
66A
100
AcDbEntity
  8
0
  6
CONTINUOUS
 62
       7
100
AcDbCircle
 10
-135.29643349
 20
664.22010812
 30
0.0
 40
17.5
  0
CIRCLE
  5
66B
100
AcDbEntity
  8
0
  6
CONTINUOUS
 62
       7
100
AcDbCircle
 10
-239.33393201
 20
484.02187478
 30
0.0
 40
23.5
  0
CIRCLE
  5
66C
100
AcDbEntity
  8
0
  6
CONTINUOUS
 62
       7
100
AcDbCircle
 10
-239.33393201
 20
484.02187478
 30
0.0
 40
35.0
  0
LINE
  5
66D
100
AcDbEntity
  8
0
  6
CONTINUOUS
 62
       7
100
AcDbLine
 10
409.10986768
 20
297.36042375
 30
0.0
 11
397.10986768
 21
695.08954325
 31
0.0
  0
ARC
  5
66E
100
AcDbEntity
  8
0
  6
CONTINUOUS
 62
       7
100
AcDbCircle
 10
-239.08408202
 20
1541.71730771
 30
0.0
 40
1588.12160637
100
AcDbArc
 50
264.69381338
 51
275.20212179
  0
POINT
  5
66F
100
AcDbEntity
  8
0
  6
CONTINUOUS
 62
       7
100
AcDbPoint
 10
-19.37232376
 20
-233.04857185
 30
0.0
  0
LINE
  5
670
100
AcDbEntity
  8
0
  6
CONTINUOUS
 62
       7
100
AcDbLine
 10
-13.62232376
 20
-233.04857185
 30
0.0
 11
-13.62232376
 21
-237.55782412
 31
0.0
  0
LINE
  5
671
100
AcDbEntity
  8
0
  6
CONTINUOUS
 62
       7
100
AcDbLine
 10
-16.50907511
 20
-233.04857185
 30
0.0
 11
-16.50907511
 21
-237.55782412
 31
0.0
  0
LINE
  5
672
100
AcDbEntity
  8
0
  6
CONTINUOUS
 62
       7
100
AcDbLine
 10
-13.62232376
 20
-233.04857185
 30
0.0
 11
-25.12232376
 21
-233.04857185
 31
0.0
  0
LINE
  5
673
100
AcDbEntity
  8
0
  6
CONTINUOUS
 62
       7
100
AcDbLine
 10
-15.06569944
 20
-238.04857185
 30
0.0
 11
-23.67894809
 21
-238.04857185
 31
0.0
  0
LINE
  5
674
100
AcDbEntity
  8
0
  6
CONTINUOUS
 62
       7
100
AcDbLine
 10
-25.12232376
 20
-233.04857185
 30
0.0
 11
-25.12232376
 21
-237.55782412
 31
0.0
  0
LINE
  5
675
100
AcDbEntity
  8
0
  6
CONTINUOUS
 62
       7
100
AcDbLine
 10
-22.23557242
 20
-233.04857185
 30
0.0
 11
-22.23557242
 21
-237.55782412
 31
0.0
  0
ARC
  5
676
100
AcDbEntity
  8
0
  6
CONTINUOUS
 62
       7
100
AcDbCircle
 10
-15.06569944
 20
-235.6805867
 30
0.0
 40
2.36798515
100
AcDbArc
 50
232.44393356
 51
307.55606644
  0
ARC
  5
677
100
AcDbEntity
  8
0
  6
CONTINUOUS
 62
       7
100
AcDbCircle
 10
-23.67894809
 20
-235.6805867
 30
0.0
 40
2.36798515
100
AcDbArc
 50
232.44393356
 51
307.55606644
  0
ARC
  5
678
100
AcDbEntity
  8
0
  6
CONTINUOUS
 62
       7
100
AcDbCircle
 10
-19.37232376
 20
-229.45044119
 30
0.0
 40
8.59813066
100
AcDbArc
 50
250.54853244
 51
289.45146756
  0
LINE
  5
679
100
AcDbEntity
  8
0
  6
CONTINUOUS
 62
       7
100
AcDbLine
 10
-21.97232376
 20
-247.67794075
 30
0.0
 11
-16.77232376
 21
-247.67794075
 31
0.0
  0
LINE
  5
67A
100
AcDbEntity
  8
0
  6
CONTINUOUS
 62
       7
100
AcDbLine
 10
-21.97232376
 20
-247.67794075
 30
0.0
 11
-22.37232376
 21
-247.27794075
 31
0.0
  0
LINE
  5
67B
100
AcDbEntity
  8
0
  6
CONTINUOUS
 62
       7
100
AcDbLine
 10
-16.77232376
 20
-247.67794075
 30
0.0
 11
-16.37232376
 21
-247.27794075
 31
0.0
  0
LINE
  5
67C
100
AcDbEntity
  8
0
  6
CONTINUOUS
 62
       7
100
AcDbLine
 10
-22.37232376
 20
-247.27794075
 30
0.0
 11
-16.37232376
 21
-247.27794075
 31
0.0
  0
LINE
  5
67D
100
AcDbEntity
  8
0
  6
CONTINUOUS
 62
       7
100
AcDbLine
 10
-22.37232376
 20
-247.27794075
 30
0.0
 11
-22.37232376
 21
-238.04857185
 31
0.0
  0
LINE
  5
67E
100
AcDbEntity
  8
0
  6
CONTINUOUS
 62
       7
100
AcDbLine
 10
-22.37232376
 20
-231.04857185
 30
0.0
 11
-22.37232376
 21
-208.07794075
 31
0.0
  0
LINE
  5
67F
100
AcDbEntity
  8
0
  6
CONTINUOUS
 62
       7
100
AcDbLine
 10
-16.37232376
 20
-208.07794075
 30
0.0
 11
-16.37232376
 21
-231.04857185
 31
0.0
  0
LINE
  5
680
100
AcDbEntity
  8
0
  6
CONTINUOUS
 62
       7
100
AcDbLine
 10
-16.37232376
 20
-238.04857185
 30
0.0
 11
-16.37232376
 21
-247.27794075
 31
0.0
  0
LINE
  5
681
100
AcDbEntity
  8
0
  6
CONTINUOUS
 62
       7
100
AcDbLine
 10
-16.77232376
 20
-207.67794075
 30
0.0
 11
-16.77232376
 21
-231.04857185
 31
0.0
  0
LINE
  5
682
100
AcDbEntity
  8
0
  6
CONTINUOUS
 62
       7
100
AcDbLine
 10
-16.77232376
 20
-238.04857185
 30
0.0
 11
-16.77232376
 21
-247.67794075
 31
0.0
  0
LINE
  5
683
100
AcDbEntity
  8
0
  6
CONTINUOUS
 62
       7
100
AcDbLine
 10
-21.97232376
 20
-247.67794075
 30
0.0
 11
-21.97232376
 21
-238.04857185
 31
0.0
  0
LINE
  5
684
100
AcDbEntity
  8
0
  6
CONTINUOUS
 62
       7
100
AcDbLine
 10
-21.97232376
 20
-231.04857185
 30
0.0
 11
-21.97232376
 21
-207.67794075
 31
0.0
  0
LINE
  5
685
100
AcDbEntity
  8
0
  6
CONTINUOUS
 62
       7
100
AcDbLine
 10
-21.97232376
 20
-207.67794075
 30
0.0
 11
-16.77232376
 21
-207.67794075
 31
0.0
  0
LINE
  5
686
100
AcDbEntity
  8
0
  6
CONTINUOUS
 62
       7
100
AcDbLine
 10
-22.37232376
 20
-208.07794075
 30
0.0
 11
-21.97232376
 21
-207.67794075
 31
0.0
  0
LINE
  5
687
100
AcDbEntity
  8
0
  6
CONTINUOUS
 62
       7
100
AcDbLine
 10
-16.37232376
 20
-208.07794075
 30
0.0
 11
-16.77232376
 21
-207.67794075
 31
0.0
  0
LINE
  5
688
100
AcDbEntity
  8
0
  6
CONTINUOUS
 62
       7
100
AcDbLine
 10
-22.37232376
 20
-208.07794075
 30
0.0
 11
-16.37232376
 21
-208.07794075
 31
0.0
  0
LINE
  5
689
100
AcDbEntity
  8
0
  6
CONTINUOUS
 62
       7
100
AcDbLine
 10
-34.12232376
 20
-233.04857185
 30
0.0
 11
-4.62232376
 21
-233.04857185
 31
0.0
  0
LINE
  5
68A
100
AcDbEntity
  8
0
  6
CONTINUOUS
 62
       7
100
AcDbLine
 10
-4.62232376
 20
-233.04857185
 30
0.0
 11
-4.62232376
 21
-231.04857185
 31
0.0
  0
LINE
  5
68B
100
AcDbEntity
  8
0
  6
CONTINUOUS
 62
       7
100
AcDbLine
 10
-34.12232376
 20
-233.04857185
 30
0.0
 11
-34.12232376
 21
-231.04857185
 31
0.0
  0
POINT
  5
68C
100
AcDbEntity
  8
0
  6
CONTINUOUS
 62
       7
100
AcDbPoint
 10
-319.37232376
 20
-233.04857185
 30
0.0
  0
LINE
  5
68D
100
AcDbEntity
  8
0
  6
CONTINUOUS
 62
       7
100
AcDbLine
 10
-313.62232376
 20
-233.04857185
 30
0.0
 11
-313.62232376
 21
-237.55782412
 31
0.0
  0
LINE
  5
68E
100
AcDbEntity
  8
0
  6
CONTINUOUS
 62
       7
100
AcDbLine
 10
-316.50907511
 20
-233.04857185
 30
0.0
 11
-316.50907511
 21
-237.55782412
 31
0.0
  0
LINE
  5
68F
100
AcDbEntity
  8
0
  6
CONTINUOUS
 62
       7
100
AcDbLine
 10
-313.62232376
 20
-233.04857185
 30
0.0
 11
-325.12232376
 21
-233.04857185
 31
0.0
  0
LINE
  5
690
100
AcDbEntity
  8
0
  6
CONTINUOUS
 62
       7
100
AcDbLine
 10
-315.06569944
 20
-238.04857185
 30
0.0
 11
-323.67894809
 21
-238.04857185
 31
0.0
  0
LINE
  5
691
100
AcDbEntity
  8
0
  6
CONTINUOUS
 62
       7
100
AcDbLine
 10
-325.12232376
 20
-233.04857185
 30
0.0
 11
-325.12232376
 21
-237.55782412
 31
0.0
  0
LINE
  5
692
100
AcDbEntity
  8
0
  6
CONTINUOUS
 62
       7
100
AcDbLine
 10
-322.23557242
 20
-233.04857185
 30
0.0
 11
-322.23557242
 21
-237.55782412
 31
0.0
  0
ARC
  5
693
100
AcDbEntity
  8
0
  6
CONTINUOUS
 62
       7
100
AcDbCircle
 10
-315.06569944
 20
-235.6805867
 30
0.0
 40
2.36798515
100
AcDbArc
 50
232.44393356
 51
307.55606644
  0
ARC
  5
694
100
AcDbEntity
  8
0
  6
CONTINUOUS
 62
       7
100
AcDbCircle
 10
-323.67894809
 20
-235.6805867
 30
0.0
 40
2.36798515
100
AcDbArc
 50
232.44393356
 51
307.55606644
  0
ARC
  5
695
100
AcDbEntity
  8
0
  6
CONTINUOUS
 62
       7
100
AcDbCircle
 10
-319.37232376
 20
-229.45044119
 30
0.0
 40
8.59813066
100
AcDbArc
 50
250.54853244
 51
289.45146756
  0
LINE
  5
696
100
AcDbEntity
  8
0
  6
CONTINUOUS
 62
       7
100
AcDbLine
 10
-321.97232376
 20
-247.67794075
 30
0.0
 11
-316.77232376
 21
-247.67794075
 31
0.0
  0
LINE
  5
697
100
AcDbEntity
  8
0
  6
CONTINUOUS
 62
       7
100
AcDbLine
 10
-321.97232376
 20
-247.67794075
 30
0.0
 11
-322.37232376
 21
-247.27794075
 31
0.0
  0
LINE
  5
698
100
AcDbEntity
  8
0
  6
CONTINUOUS
 62
       7
100
AcDbLine
 10
-316.77232376
 20
-247.67794075
 30
0.0
 11
-316.37232376
 21
-247.27794075
 31
0.0
  0
LINE
  5
699
100
AcDbEntity
  8
0
  6
CONTINUOUS
 62
       7
100
AcDbLine
 10
-322.37232376
 20
-247.27794075
 30
0.0
 11
-316.37232376
 21
-247.27794075
 31
0.0
  0
LINE
  5
69A
100
AcDbEntity
  8
0
  6
CONTINUOUS
 62
       7
100
AcDbLine
 10
-322.37232376
 20
-247.27794075
 30
0.0
 11
-322.37232376
 21
-238.04857185
 31
0.0
  0
LINE
  5
69B
100
AcDbEntity
  8
0
  6
CONTINUOUS
 62
       7
100
AcDbLine
 10
-322.37232376
 20
-231.04857185
 30
0.0
 11
-322.37232376
 21
-208.07794075
 31
0.0
  0
LINE
  5
69C
100
AcDbEntity
  8
0
  6
CONTINUOUS
 62
       7
100
AcDbLine
 10
-316.37232376
 20
-208.07794075
 30
0.0
 11
-316.37232376
 21
-231.04857185
 31
0.0
  0
LINE
  5
69D
100
AcDbEntity
  8
0
  6
CONTINUOUS
 62
       7
100
AcDbLine
 10
-316.37232376
 20
-238.04857185
 30
0.0
 11
-316.37232376
 21
-247.27794075
 31
0.0
  0
LINE
  5
69E
100
AcDbEntity
  8
0
  6
CONTINUOUS
 62
       7
100
AcDbLine
 10
-316.77232376
 20
-207.67794075
 30
0.0
 11
-316.77232376
 21
-231.04857185
 31
0.0
  0
LINE
  5
69F
100
AcDbEntity
  8
0
  6
CONTINUOUS
 62
       7
100
AcDbLine
 10
-316.77232376
 20
-238.04857185
 30
0.0
 11
-316.77232376
 21
-247.67794075
 31
0.0
  0
LINE
  5
6A0
100
AcDbEntity
  8
0
  6
CONTINUOUS
 62
       7
100
AcDbLine
 10
-321.97232376
 20
-247.67794075
 30
0.0
 11
-321.97232376
 21
-238.04857185
 31
0.0
  0
LINE
  5
6A1
100
AcDbEntity
  8
0
  6
CONTINUOUS
 62
       7
100
AcDbLine
 10
-321.97232376
 20
-231.04857185
 30
0.0
 11
-321.97232376
 21
-207.67794075
 31
0.0
  0
LINE
  5
6A2
100
AcDbEntity
  8
0
  6
CONTINUOUS
 62
       7
100
AcDbLine
 10
-321.97232376
 20
-207.67794075
 30
0.0
 11
-316.77232376
 21
-207.67794075
 31
0.0
  0
LINE
  5
6A3
100
AcDbEntity
  8
0
  6
CONTINUOUS
 62
       7
100
AcDbLine
 10
-322.37232376
 20
-208.07794075
 30
0.0
 11
-321.97232376
 21
-207.67794075
 31
0.0
  0
LINE
  5
6A4
100
AcDbEntity
  8
0
  6
CONTINUOUS
 62
       7
100
AcDbLine
 10
-316.37232376
 20
-208.07794075
 30
0.0
 11
-316.77232376
 21
-207.67794075
 31
0.0
  0
LINE
  5
6A5
100
AcDbEntity
  8
0
  6
CONTINUOUS
 62
       7
100
AcDbLine
 10
-322.37232376
 20
-208.07794075
 30
0.0
 11
-316.37232376
 21
-208.07794075
 31
0.0
  0
LINE
  5
6A6
100
AcDbEntity
  8
0
  6
CONTINUOUS
 62
       7
100
AcDbLine
 10
-334.12232376
 20
-233.04857185
 30
0.0
 11
-304.62232376
 21
-233.04857185
 31
0.0
  0
LINE
  5
6A7
100
AcDbEntity
  8
0
  6
CONTINUOUS
 62
       7
100
AcDbLine
 10
-304.62232376
 20
-233.04857185
 30
0.0
 11
-304.62232376
 21
-231.04857185
 31
0.0
  0
LINE
  5
6A8
100
AcDbEntity
  8
0
  6
CONTINUOUS
 62
       7
100
AcDbLine
 10
-334.12232376
 20
-233.04857185
 30
0.0
 11
-334.12232376
 21
-231.04857185
 31
0.0
  0
POINT
  5
6A9
100
AcDbEntity
  8
0
  6
CONTINUOUS
 62
       7
100
AcDbPoint
 10
-362.37232376
 20
-233.04857185
 30
0.0
  0
LINE
  5
6AA
100
AcDbEntity
  8
0
  6
CONTINUOUS
 62
       7
100
AcDbLine
 10
-356.62232376
 20
-233.04857185
 30
0.0
 11
-356.62232376
 21
-237.55782412
 31
0.0
  0
LINE
  5
6AB
100
AcDbEntity
  8
0
  6
CONTINUOUS
 62
       7
100
AcDbLine
 10
-359.50907511
 20
-233.04857185
 30
0.0
 11
-359.50907511
 21
-237.55782412
 31
0.0
  0
LINE
  5
6AC
100
AcDbEntity
  8
0
  6
CONTINUOUS
 62
       7
100
AcDbLine
 10
-356.62232376
 20
-233.04857185
 30
0.0
 11
-368.12232376
 21
-233.04857185
 31
0.0
  0
LINE
  5
6AD
100
AcDbEntity
  8
0
  6
CONTINUOUS
 62
       7
100
AcDbLine
 10
-358.06569944
 20
-238.04857185
 30
0.0
 11
-366.67894809
 21
-238.04857185
 31
0.0
  0
LINE
  5
6AE
100
AcDbEntity
  8
0
  6
CONTINUOUS
 62
       7
100
AcDbLine
 10
-368.12232376
 20
-233.04857185
 30
0.0
 11
-368.12232376
 21
-237.55782412
 31
0.0
  0
LINE
  5
6AF
100
AcDbEntity
  8
0
  6
CONTINUOUS
 62
       7
100
AcDbLine
 10
-365.23557242
 20
-233.04857185
 30
0.0
 11
-365.23557242
 21
-237.55782412
 31
0.0
  0
ARC
  5
6B0
100
AcDbEntity
  8
0
  6
CONTINUOUS
 62
       7
100
AcDbCircle
 10
-358.06569944
 20
-235.6805867
 30
0.0
 40
2.36798515
100
AcDbArc
 50
232.44393356
 51
307.55606644
  0
ARC
  5
6B1
100
AcDbEntity
  8
0
  6
CONTINUOUS
 62
       7
100
AcDbCircle
 10
-366.67894809
 20
-235.6805867
 30
0.0
 40
2.36798515
100
AcDbArc
 50
232.44393356
 51
307.55606644
  0
ARC
  5
6B2
100
AcDbEntity
  8
0
  6
CONTINUOUS
 62
       7
100
AcDbCircle
 10
-362.37232376
 20
-229.45044119
 30
0.0
 40
8.59813066
100
AcDbArc
 50
250.54853244
 51
289.45146756
  0
LINE
  5
6B3
100
AcDbEntity
  8
0
  6
CONTINUOUS
 62
       7
100
AcDbLine
 10
-364.97232376
 20
-247.67794075
 30
0.0
 11
-359.77232376
 21
-247.67794075
 31
0.0
  0
LINE
  5
6B4
100
AcDbEntity
  8
0
  6
CONTINUOUS
 62
       7
100
AcDbLine
 10
-364.97232376
 20
-247.67794075
 30
0.0
 11
-365.37232376
 21
-247.27794075
 31
0.0
  0
LINE
  5
6B5
100
AcDbEntity
  8
0
  6
CONTINUOUS
 62
       7
100
AcDbLine
 10
-359.77232376
 20
-247.67794075
 30
0.0
 11
-359.37232376
 21
-247.27794075
 31
0.0
  0
LINE
  5
6B6
100
AcDbEntity
  8
0
  6
CONTINUOUS
 62
       7
100
AcDbLine
 10
-365.37232376
 20
-247.27794075
 30
0.0
 11
-359.37232376
 21
-247.27794075
 31
0.0
  0
LINE
  5
6B7
100
AcDbEntity
  8
0
  6
CONTINUOUS
 62
       7
100
AcDbLine
 10
-365.37232376
 20
-247.27794075
 30
0.0
 11
-365.37232376
 21
-238.04857185
 31
0.0
  0
LINE
  5
6B8
100
AcDbEntity
  8
0
  6
CONTINUOUS
 62
       7
100
AcDbLine
 10
-365.37232376
 20
-231.04857185
 30
0.0
 11
-365.37232376
 21
-208.07794075
 31
0.0
  0
LINE
  5
6B9
100
AcDbEntity
  8
0
  6
CONTINUOUS
 62
       7
100
AcDbLine
 10
-359.37232376
 20
-208.07794075
 30
0.0
 11
-359.37232376
 21
-231.04857185
 31
0.0
  0
LINE
  5
6BA
100
AcDbEntity
  8
0
  6
CONTINUOUS
 62
       7
100
AcDbLine
 10
-359.37232376
 20
-238.04857185
 30
0.0
 11
-359.37232376
 21
-247.27794075
 31
0.0
  0
LINE
  5
6BB
100
AcDbEntity
  8
0
  6
CONTINUOUS
 62
       7
100
AcDbLine
 10
-359.77232376
 20
-207.67794075
 30
0.0
 11
-359.77232376
 21
-231.04857185
 31
0.0
  0
LINE
  5
6BC
100
AcDbEntity
  8
0
  6
CONTINUOUS
 62
       7
100
AcDbLine
 10
-359.77232376
 20
-238.04857185
 30
0.0
 11
-359.77232376
 21
-247.67794075
 31
0.0
  0
LINE
  5
6BD
100
AcDbEntity
  8
0
  6
CONTINUOUS
 62
       7
100
AcDbLine
 10
-364.97232376
 20
-247.67794075
 30
0.0
 11
-364.97232376
 21
-238.04857185
 31
0.0
  0
LINE
  5
6BE
100
AcDbEntity
  8
0
  6
CONTINUOUS
 62
       7
100
AcDbLine
 10
-364.97232376
 20
-231.04857185
 30
0.0
 11
-364.97232376
 21
-207.67794075
 31
0.0
  0
LINE
  5
6BF
100
AcDbEntity
  8
0
  6
CONTINUOUS
 62
       7
100
AcDbLine
 10
-364.97232376
 20
-207.67794075
 30
0.0
 11
-359.77232376
 21
-207.67794075
 31
0.0
  0
LINE
  5
6C0
100
AcDbEntity
  8
0
  6
CONTINUOUS
 62
       7
100
AcDbLine
 10
-365.37232376
 20
-208.07794075
 30
0.0
 11
-364.97232376
 21
-207.67794075
 31
0.0
  0
LINE
  5
6C1
100
AcDbEntity
  8
0
  6
CONTINUOUS
 62
       7
100
AcDbLine
 10
-359.37232376
 20
-208.07794075
 30
0.0
 11
-359.77232376
 21
-207.67794075
 31
0.0
  0
LINE
  5
6C2
100
AcDbEntity
  8
0
  6
CONTINUOUS
 62
       7
100
AcDbLine
 10
-365.37232376
 20
-208.07794075
 30
0.0
 11
-359.37232376
 21
-208.07794075
 31
0.0
  0
LINE
  5
6C3
100
AcDbEntity
  8
0
  6
CONTINUOUS
 62
       7
100
AcDbLine
 10
-377.12232376
 20
-233.04857185
 30
0.0
 11
-347.62232376
 21
-233.04857185
 31
0.0
  0
LINE
  5
6C4
100
AcDbEntity
  8
0
  6
CONTINUOUS
 62
       7
100
AcDbLine
 10
-347.62232376
 20
-233.04857185
 30
0.0
 11
-347.62232376
 21
-231.04857185
 31
0.0
  0
LINE
  5
6C5
100
AcDbEntity
  8
0
  6
CONTINUOUS
 62
       7
100
AcDbLine
 10
-377.12232376
 20
-233.04857185
 30
0.0
 11
-377.12232376
 21
-231.04857185
 31
0.0
  0
LINE
  5
6C6
100
AcDbEntity
  8
0
  6
CENTER
 62
       7
100
AcDbLine
 10
-263.83159348
 20
441.59068046
 30
0.0
 11
-104.77438748
 21
717.08584255
 31
0.0
  0
LINE
  5
6C7
100
AcDbEntity
  8
0
  6
CENTER
 62
       7
100
AcDbLine
 10
-111.33769047
 20
650.38752139
 30
0.0
 11
-159.17635324
 21
678.00718622
 31
0.0
  0
LINE
  5
6C8
100
AcDbEntity
  8
0
  6
CENTER
 62
       7
100
AcDbLine
 10
-300.87934622
 20
484.02187478
 30
0.0
 11
-176.58367277
 21
484.02187478
 31
0.0
  0
LINE
  5
6C9
100
AcDbEntity
  8
0
  6
CENTER
 62
       7
100
AcDbLine
 10
-239.37232376
 20
815.7977057
 30
0.0
 11
-239.37232376
 21
219.96596446
 31
0.0
  0
LINE
  5
6CA
100
AcDbEntity
  8
0
  6
CENTER
 62
       7
100
AcDbLine
 10
357.03139191
 20
664.22010812
 30
0.0
 11
448.06282708
 21
664.22010812
 31
0.0
  0
LINE
  5
6CB
100
AcDbEntity
  8
0
  6
CENTER
 62
       7
100
AcDbLine
 10
383.38260198
 20
484.02187478
 30
0.0
 11
609.2955207
 21
484.02187478
 31
0.0
  0
LINE
  5
6CC
100
AcDbEntity
  8
0
  6
CENTER
 62
       7
100
AcDbLine
 10
-46.43525243
 20
504.02187478
 30
0.0
 11
3.66054798
 21
504.02187478
 31
0.0
  0
LINE
  5
6CD
100
AcDbEntity
  8
0
  6
CENTER
 62
       7
100
AcDbLine
 10
-19.37232376
 20
529.07946621
 30
0.0
 11
-19.37232376
 21
475.64394577
 31
0.0
  0
LINE
  5
6CE
100
AcDbEntity
  8
0
  6
CENTER
 62
       7
100
AcDbLine
 10
-352.85456497
 20
701.02187478
 30
0.0
 11
-285.22523441
 21
701.02187478
 31
0.0
  0
LINE
  5
6CF
100
AcDbEntity
  8
0
  6
CENTER
 62
       7
100
AcDbLine
 10
-319.37232376
 20
731.13252788
 30
0.0
 11
-319.37232376
 21
666.84291735
 31
0.0
  0
LINE
  5
6D0
100
AcDbEntity
  8
0
  6
CENTER
 62
       7
100
AcDbLine
 10
-397.35507331
 20
350.02187478
 30
0.0
 11
-331.98131479
 21
350.02187478
 31
0.0
  0
LINE
  5
6D1
100
AcDbEntity
  8
0
  6
CENTER
 62
       7
100
AcDbLine
 10
-362.37232376
 20
385.47150502
 30
0.0
 11
-362.37232376
 21
318.00635147
 31
0.0
  0
LINE
  5
6D2
100
AcDbEntity
  8
0
  6
CENTER
 62
       7
100
AcDbLine
 10
553.48174078
 20
701.02187478
 30
0.0
 11
597.90495337
 21
701.02187478
 31
0.0
  0
LINE
  5
6D3
100
AcDbEntity
  8
0
  6
CENTER
 62
       7
100
AcDbLine
 10
553.48174078
 20
504.02187478
 30
0.0
 11
597.90495337
 21
504.02187478
 31
0.0
  0
LINE
  5
6D4
100
AcDbEntity
  8
0
  6
CENTER
 62
       7
100
AcDbLine
 10
553.48174078
 20
350.02187478
 30
0.0
 11
597.90495337
 21
350.02187478
 31
0.0
  0
LINE
  5
6D5
100
AcDbEntity
  8
0
  6
CENTER
 62
       7
100
AcDbLine
 10
-239.37232376
 20
-142.57160408
 30
0.0
 11
-239.37232376
 21
-248.6860154
 31
0.0
  0
LINE
  5
6D6
100
AcDbEntity
  8
0
  6
CENTER
 62
       7
100
AcDbLine
 10
-135.29643349
 20
-66.88208004
 30
0.0
 11
-135.29643349
 21
19.59778337
 31
0.0
  0
LINE
  5
6D7
100
AcDbEntity
  8
0
  6
CENTER
 62
       7
100
AcDbLine
 10
-19.37232376
 20
-140.95185117
 30
0.0
 11
-19.37232376
 21
-250.01810388
 31
0.0
  0
LINE
  5
6D8
100
AcDbEntity
  8
0
  6
CENTER
 62
       7
100
AcDbLine
 10
-319.37232376
 20
-140.95185117
 30
0.0
 11
-319.37232376
 21
-250.01810388
 31
0.0
  0
LINE
  5
6D9
100
AcDbEntity
  8
0
  6
CENTER
 62
       7
100
AcDbLine
 10
-362.37232376
 20
-140.95185117
 30
0.0
 11
-362.37232376
 21
-250.01810388
 31
0.0
  0
LINE
  5
6DA
100
AcDbEntity
  8
0
  6
DASHED2
 62
       7
100
AcDbLine
 10
523.47805119
 20
445.02187478
 30
0.0
 11
523.47805119
 21
523.02187478
 31
0.0
  0
LINE
  5
6DB
100
AcDbEntity
  8
0
  6
DASHED2
 62
       7
100
AcDbLine
 10
536.47805119
 20
460.52187478
 30
0.0
 11
536.47805119
 21
507.52187478
 31
0.0
  0
LINE
  5
6DC
100
AcDbEntity
  8
0
  6
DASHED2
 62
       7
100
AcDbLine
 10
536.47805119
 20
507.52187478
 30
0.0
 11
523.47805119
 21
523.02187478
 31
0.0
  0
LINE
  5
6DD
100
AcDbEntity
  8
0
  6
DASHED2
 62
       7
100
AcDbLine
 10
536.47805119
 20
460.52187478
 30
0.0
 11
523.47805119
 21
445.02187478
 31
0.0
  0
ARC
  5
6DE
100
AcDbEntity
  8
0
  6
DASHED2
 62
       7
100
AcDbCircle
 10
373.41423339
 20
504.86866084
 30
0.0
 40
151.15782675
100
AcDbArc
 50
6.89755278
 51
80.50443205
  0
ARC
  5
6DF
100
AcDbEntity
  8
0
  6
DASHED2
 62
       7
100
AcDbCircle
 10
373.41423339
 20
463.17508873
 30
0.0
 40
151.15782675
100
AcDbArc
 50
283.43820641
 51
353.10244722
  0
LINE
  5
6E0
100
AcDbEntity
  8
0
  6
DASHED2
 62
       7
100
AcDbLine
 10
544.47805119
 20
452.52187478
 30
0.0
 11
540.2096271
 21
452.52187478
 31
0.0
  0
LINE
  5
6E1
100
AcDbEntity
  8
0
  6
DASHED2
 62
       7
100
AcDbLine
 10
527.4087738
 20
437.25931893
 30
0.0
 11
540.2096271
 21
452.52187478
 31
0.0
  0
LINE
  5
6E2
100
AcDbEntity
  8
0
  6
DASHED2
 62
       7
100
AcDbLine
 10
544.47805119
 20
515.52187478
 30
0.0
 11
540.2096271
 21
515.52187478
 31
0.0
  0
LINE
  5
6E3
100
AcDbEntity
  8
0
  6
DASHED2
 62
       7
100
AcDbLine
 10
527.4087738
 20
530.78443064
 30
0.0
 11
540.2096271
 21
515.52187478
 31
0.0
  0
ARC
  5
6E4
100
AcDbEntity
  8
0
  6
DASHED2
 62
       7
100
AcDbCircle
 10
373.41423339
 20
504.86866084
 30
0.0
 40
156.16
100
AcDbArc
 50
9.55280502
 51
78.32559129
  0
ARC
  5
6E5
100
AcDbEntity
  8
0
  6
DASHED2
 62
       7
100
AcDbCircle
 10
373.41423339
 20
463.17508873
 30
0.0
 40
156.16
100
AcDbArc
 50
286.16651341
 51
350.44719498
  0
LINE
  5
6E6
100
AcDbEntity
  8
0
  6
DASHED2
 62
       7
100
AcDbLine
 10
544.47805119
 20
515.52187478
 30
0.0
 11
544.47805119
 21
454.35936262
 31
0.0
  0
ARC
  5
6E7
100
AcDbEntity
  8
0
  6
DASHED2
 62
       7
100
AcDbCircle
 10
550.4870855
 20
414.23167434
 30
0.0
 40
325.55142945
100
AcDbArc
 50
86.41085811
 51
115.65408838
  0
ARC
  5
6E8
100
AcDbEntity
  8
0
  6
DASHED2
 62
       7
100
AcDbCircle
 10
508.59178036
 20
673.54498227
 30
0.0
 40
104.76871623
100
AcDbArc
 50
160.97843616
 51
188.64432361
  0
ARC
  5
6E9
100
AcDbEntity
  8
0
  6
DASHED2
 62
       7
100
AcDbCircle
 10
459.26782194
 20
309.37759491
 30
0.0
 40
43.1067755
100
AcDbArc
 50
174.85866319
 51
192.06947235
  0
ARC
  5
6EA
100
AcDbEntity
  8
0
  6
DASHED2
 62
       7
100
AcDbCircle
 10
544.90577917
 20
1072.02414273
 30
0.0
 40
782.17007058
100
AcDbArc
 50
260.59679473
 51
271.77328895
  0
ARC
  5
6EB
100
AcDbEntity
  8
0
  6
DASHED2
 62
       7
100
AcDbCircle
 10
-243.8701133
 20
457.33026654
 30
0.0
 40
298.56998584
100
AcDbArc
 50
59.88690857
 51
89.13683854
  0
ARC
  5
6EC
100
AcDbEntity
  8
0
  6
DASHED2
 62
       7
100
AcDbCircle
 10
-215.271649
 20
514.22524929
 30
0.0
 40
235.03645895
100
AcDbArc
 50
32.59309368
 51
58.9590723
  0
ARC
  5
6ED
100
AcDbEntity
  8
0
  6
DASHED2
 62
       7
100
AcDbCircle
 10
-186.99106443
 20
526.69686434
 30
0.0
 40
204.5461125
100
AcDbArc
 50
353.63538657
 51
393.91711202
  0
ARC
  5
6EE
100
AcDbEntity
  8
0
  6
DASHED2
 62
       7
100
AcDbCircle
 10
-222.85049947
 20
535.53002033
 30
0.0
 40
241.21156491
100
AcDbArc
 50
317.0840589
 51
352.49431742
  0
ARC
  5
6EF
100
AcDbEntity
  8
0
  6
DASHED2
 62
       7
100
AcDbCircle
 10
-248.24266682
 20
549.88712037
 30
0.0
 40
269.66884642
100
AcDbArc
 50
300.44486668
 51
318.52382018
  0
ARC
  5
6F0
100
AcDbEntity
  8
0
  6
DASHED2
 62
       7
100
AcDbCircle
 10
-243.02573185
 20
541.19113365
 30
0.0
 40
259.50883883
100
AcDbArc
 50
270.80664605
 51
300.2434452
  0
ARC
  5
6F1
100
AcDbEntity
  8
0
  6
DASHED2
 62
       7
100
AcDbCircle
 10
-242.72424582
 20
500.30538271
 30
0.0
 40
218.62541788
100
AcDbArc
 50
248.22817565
 51
271.23242374
  0
ARC
  5
6F2
100
AcDbEntity
  8
0
  6
DASHED2
 62
       7
100
AcDbCircle
 10
-245.61820271
 20
480.17126043
 30
0.0
 40
198.91154756
100
AcDbArc
 50
196.38779525
 51
246.85105241
  0
ARC
  5
6F3
100
AcDbEntity
  8
0
  6
DASHED2
 62
       7
100
AcDbCircle
 10
-150.65746199
 20
512.40358824
 30
0.0
 40
299.13688203
100
AcDbArc
 50
162.26812858
 51
197.17904286
  0
ARC
  5
6F4
100
AcDbEntity
  8
0
  6
DASHED2
 62
       7
100
AcDbCircle
 10
-182.8438104
 20
526.13002113
 30
0.0
 40
264.31932026
100
AcDbArc
 50
138.57272872
 51
162.97731199
  0
ARC
  5
6F5
100
AcDbEntity
  8
0
  6
DASHED2
 62
       7
100
AcDbCircle
 10
-268.50718327
 20
601.46554422
 30
0.0
 40
150.24220625
100
AcDbArc
 50
109.78881686
 51
138.49855766
  0
ARC
  5
6F6
100
AcDbEntity
  8
0
  6
DASHED2
 62
       7
100
AcDbCircle
 10
-244.50233779
 20
535.27514968
 30
0.0
 40
220.65086554
100
AcDbArc
 50
88.66778388
 51
109.83510082
  0
LINE
  5
6F7
100
AcDbEntity
  8
0
  6
DASHED2
 62
       7
100
AcDbLine
 10
-278.37232376
 20
-155.41675536
 30
0.0
 11
-200.37232376
 21
-155.41675536
 31
0.0
  0
LINE
  5
6F8
100
AcDbEntity
  8
0
  6
DASHED2
 62
       7
100
AcDbLine
 10
-215.87232376
 20
-176.41675536
 30
0.0
 11
-215.87232376
 21
-168.41675536
 31
0.0
  0
LINE
  5
6F9
100
AcDbEntity
  8
0
  6
DASHED2
 62
       7
100
AcDbLine
 10
-262.87232376
 20
-168.41675536
 30
0.0
 11
-215.87232376
 21
-168.41675536
 31
0.0
  0
LINE
  5
6FA
100
AcDbEntity
  8
0
  6
DASHED2
 62
       7
100
AcDbLine
 10
-215.87232376
 20
-168.41675536
 30
0.0
 11
-200.37232376
 21
-155.41675536
 31
0.0
  0
LINE
  5
6FB
100
AcDbEntity
  8
0
  6
DASHED2
 62
       7
100
AcDbLine
 10
-262.87232376
 20
-176.41675536
 30
0.0
 11
-262.87232376
 21
-168.41675536
 31
0.0
  0
LINE
  5
6FC
100
AcDbEntity
  8
0
  6
DASHED2
 62
       7
100
AcDbLine
 10
-262.87232376
 20
-168.41675536
 30
0.0
 11
-278.37232376
 21
-155.41675536
 31
0.0
  0
ARC
  5
6FD
100
AcDbEntity
  8
0
  6
DASHED2
 62
       7
100
AcDbCircle
 10
-218.52553771
 20
-5.35293756
 30
0.0
 40
151.15782675
100
AcDbArc
 50
276.89755278
 51
349.38565116
  0
ARC
  5
6FE
100
AcDbEntity
  8
0
  6
DASHED2
 62
       7
100
AcDbCircle
 10
-260.21910982
 20
-5.35293756
 30
0.0
 40
151.15782675
100
AcDbArc
 50
190.64208684
 51
263.10244722
  0
LINE
  5
6FF
100
AcDbEntity
  8
0
  6
DASHED2
 62
       7
100
AcDbLine
 10
-207.87232376
 20
-176.41675536
 30
0.0
 11
-269.03483593
 21
-176.41675536
 31
0.0
  0
LINE
  5
700
100
AcDbEntity
  8
0
  6
DASHED2
 62
       7
100
AcDbLine
 10
-207.87232376
 20
-176.41675536
 30
0.0
 11
-207.87232376
 21
-172.14833127
 31
0.0
  0
LINE
  5
701
100
AcDbEntity
  8
0
  6
DASHED2
 62
       7
100
AcDbLine
 10
-192.60976791
 20
-159.34747797
 30
0.0
 11
-207.87232376
 21
-172.14833127
 31
0.0
  0
ARC
  5
702
100
AcDbEntity
  8
0
  6
DASHED2
 62
       7
100
AcDbCircle
 10
-218.52553771
 20
-5.35293756
 30
0.0
 40
156.16
100
AcDbArc
 50
279.55280502
 51
349.92324106
  0
ARC
  5
703
100
AcDbEntity
  8
0
  6
DASHED2
 62
       7
100
AcDbCircle
 10
-260.21910982
 20
-5.35293756
 30
0.0
 40
156.16
100
AcDbArc
 50
190.07675894
 51
260.44719498
  0
LINE
  5
704
100
AcDbEntity
  8
0
  6
DASHED2
 62
       7
100
AcDbLine
 10
-270.87232376
 20
-176.41675536
 30
0.0
 11
-270.87232376
 21
-172.14833127
 31
0.0
  0
LINE
  5
705
100
AcDbEntity
  8
0
  6
DASHED2
 62
       7
100
AcDbLine
 10
-286.13487962
 20
-159.34747797
 30
0.0
 11
-270.87232376
 21
-172.14833127
 31
0.0
  0
ARC
  5
706
100
AcDbEntity
  8
0
  6
DASHED2
 62
       7
100
AcDbCircle
 10
-332.62864512
 20
-171.29851668
 30
0.0
 40
328.22954414
100
AcDbArc
 50
354.79969068
 51
383.82453482
  0
ARC
  5
707
100
AcDbEntity
  8
0
  6
DASHED2
 62
       7
100
AcDbCircle
 10
-79.71293126
 20
-202.81394821
 30
0.0
 40
170.79266495
100
AcDbArc
 50
73.90662514
 51
84.9821707
  0
ARC
  5
708
100
AcDbEntity
  8
0
  6
DASHED2
 62
       7
100
AcDbCircle
 10
152.76401597
 20
-178.2612272
 30
0.0
 40
591.88947108
100
AcDbArc
 50
166.45257695
 51
182.20639407
  0
ARC
  5
709
100
AcDbEntity
  8
0
  6
DASHED2
 62
       7
100
AcDbCircle
 10
-400.69201345
 20
-58.21537569
 30
0.0
 40
28.78504204
100
AcDbArc
 50
117.47028292
 51
139.73536215
  0
ARC
  5
70A
100
AcDbEntity
  8
0
  6
DASHED2
 62
       7
100
AcDbCircle
 10
-19.37232376
 20
-154.84857185
 30
0.0
 40
2.6
100
AcDbArc
 50
0.0
 51
180.0
  0
LINE
  5
70B
100
AcDbEntity
  8
0
  6
DASHED2
 62
       7
100
AcDbLine
 10
-28.62316636
 20
-151.04857185
 30
0.0
 11
-10.2076501
 21
-151.04857185
 31
0.0
  0
ARC
  5
70C
100
AcDbEntity
  8
0
  6
DASHED2
 62
       7
100
AcDbCircle
 10
-19.37232376
 20
-154.84857185
 30
0.0
 40
3.2
100
AcDbArc
 50
324.3409123
 51
575.6590877
  0
LINE
  5
70D
100
AcDbEntity
  8
0
  6
DASHED2
 62
       7
100
AcDbLine
 10
-21.97232376
 20
-201.04857185
 30
0.0
 11
-21.97232376
 21
-154.84857185
 31
0.0
  0
LINE
  5
70E
100
AcDbEntity
  8
0
  6
DASHED2
 62
       7
100
AcDbLine
 10
-16.77232376
 20
-201.04857185
 30
0.0
 11
-16.77232376
 21
-154.84857185
 31
0.0
  0
ARC
  5
70F
100
AcDbEntity
  8
0
  6
DASHED2
 62
       7
100
AcDbCircle
 10
-319.37232376
 20
-154.84857185
 30
0.0
 40
2.6
100
AcDbArc
 50
0.0
 51
180.0
  0
LINE
  5
710
100
AcDbEntity
  8
0
  6
DASHED2
 62
       7
100
AcDbLine
 10
-328.62316636
 20
-151.04857185
 30
0.0
 11
-310.2076501
 21
-151.04857185
 31
0.0
  0
ARC
  5
711
100
AcDbEntity
  8
0
  6
DASHED2
 62
       7
100
AcDbCircle
 10
-319.37232376
 20
-154.84857185
 30
0.0
 40
3.2
100
AcDbArc
 50
324.3409123
 51
575.6590877
  0
LINE
  5
712
100
AcDbEntity
  8
0
  6
DASHED2
 62
       7
100
AcDbLine
 10
-321.97232376
 20
-201.04857185
 30
0.0
 11
-321.97232376
 21
-154.84857185
 31
0.0
  0
LINE
  5
713
100
AcDbEntity
  8
0
  6
DASHED2
 62
       7
100
AcDbLine
 10
-316.77232376
 20
-201.04857185
 30
0.0
 11
-316.77232376
 21
-154.84857185
 31
0.0
  0
ARC
  5
714
100
AcDbEntity
  8
0
  6
DASHED2
 62
       7
100
AcDbCircle
 10
-362.37232376
 20
-154.84857185
 30
0.0
 40
2.6
100
AcDbArc
 50
0.0
 51
180.0
  0
LINE
  5
715
100
AcDbEntity
  8
0
  6
DASHED2
 62
       7
100
AcDbLine
 10
-371.62316636
 20
-151.04857185
 30
0.0
 11
-353.2076501
 21
-151.04857185
 31
0.0
  0
ARC
  5
716
100
AcDbEntity
  8
0
  6
DASHED2
 62
       7
100
AcDbCircle
 10
-362.37232376
 20
-154.84857185
 30
0.0
 40
3.2
100
AcDbArc
 50
324.3409123
 51
575.6590877
  0
LINE
  5
717
100
AcDbEntity
  8
0
  6
DASHED2
 62
       7
100
AcDbLine
 10
-364.97232376
 20
-201.04857185
 30
0.0
 11
-364.97232376
 21
-154.84857185
 31
0.0
  0
LINE
  5
718
100
AcDbEntity
  8
0
  6
DASHED2
 62
       7
100
AcDbLine
 10
-359.77232376
 20
-201.04857185
 30
0.0
 11
-359.77232376
 21
-154.84857185
 31
0.0
  0
LINE
  5
719
100
AcDbEntity
  8
0
  6
DIVIDE
 62
       7
100
AcDbLine
 10
109.45536537
 20
-231.04857185
 30
0.0
 11
-556.42764665
 21
-231.04857185
 31
0.0
  0
LINE
  5
71A
100
AcDbEntity
  8
0
  6
DIVIDE
 62
       7
100
AcDbLine
 10
109.45536537
 20
-201.04857185
 30
0.0
 11
-556.42764665
 21
-201.04857185
 31
0.0
  0
LINE
  5
71B
100
AcDbEntity
  8
LAYER0001
  6
CONTINUOUS
 62
       7
100
AcDbLine
 10
569.10986768
 20
747.52447396
 30
0.0
 11
569.10986768
 21
294.04578139
 31
0.0
  0
LINE
  5
71C
100
AcDbEntity
  8
LAYER0001
  6
CONTINUOUS
 62
       7
100
AcDbLine
 10
569.10986768
 20
294.04578139
 30
0.0
 11
569.10986768
 21
283.77940139
 31
0.0
  0
LINE
  5
71D
100
AcDbEntity
  8
LAYER0001
  6
CONTINUOUS
 62
       7
100
AcDbLine
 10
566.04028768
 20
749.53640396
 30
0.0
 11
567.20473768
 21
749.53640396
 31
0.0
  0
LINE
  5
71E
100
AcDbEntity
  8
LAYER0001
  6
CONTINUOUS
 62
       7
100
AcDbLine
 10
567.20473768
 20
281.76746139
 30
0.0
 11
565.50974768
 21
281.66067139
 31
0.0
  0
LINE
  5
71F
100
AcDbEntity
  8
LAYER0001
  6
CONTINUOUS
 62
       7
100
AcDbLine
 10
409.10986768
 20
297.36042375
 30
0.0
 11
411.94461768
 21
293.83219139
 31
0.0
  0
LINE
  5
720
100
AcDbEntity
  8
LAYER0001
  6
CONTINUOUS
 62
       7
100
AcDbLine
 10
411.94461768
 20
293.83219139
 30
0.0
 11
416.60238768
 21
288.75412139
 31
0.0
  0
LINE
  5
721
100
AcDbEntity
  8
LAYER0001
  6
CONTINUOUS
 62
       7
100
AcDbLine
 10
416.60238768
 20
288.75412139
 30
0.0
 11
421.47030768
 21
283.98955139
 31
0.0
  0
LINE
  5
722
100
AcDbEntity
  8
LAYER0001
  6
CONTINUOUS
 62
       7
100
AcDbLine
 10
421.47030768
 20
283.98955139
 30
0.0
 11
426.76196768
 21
279.43858139
 31
0.0
  0
LINE
  5
723
100
AcDbEntity
  8
LAYER0001
  6
CONTINUOUS
 62
       7
100
AcDbLine
 10
426.76196768
 20
279.43858139
 30
0.0
 11
432.26723768
 21
275.31136139
 31
0.0
  0
LINE
  5
724
100
AcDbEntity
  8
LAYER0001
  6
CONTINUOUS
 62
       7
100
AcDbLine
 10
432.26723768
 20
275.31136139
 30
0.0
 11
437.98264768
 21
271.50108139
 31
0.0
  0
LINE
  5
725
100
AcDbEntity
  8
LAYER0001
  6
CONTINUOUS
 62
       7
100
AcDbLine
 10
437.98264768
 20
271.50108139
 30
0.0
 11
443.90820768
 21
268.11455139
 31
0.0
  0
LINE
  5
726
100
AcDbEntity
  8
LAYER0001
  6
CONTINUOUS
 62
       7
100
AcDbLine
 10
443.90820768
 20
268.11455139
 30
0.0
 11
450.04736768
 21
265.04497139
 31
0.0
  0
LINE
  5
727
100
AcDbEntity
  8
LAYER0001
  6
CONTINUOUS
 62
       7
100
AcDbLine
 10
450.04736768
 20
265.04497139
 30
0.0
 11
456.39668768
 21
262.29578139
 31
0.0
  0
LINE
  5
728
100
AcDbEntity
  8
LAYER0001
  6
CONTINUOUS
 62
       7
100
AcDbLine
 10
-404.82135376
 20
-36.15941185
 30
0.0
 11
-400.69412376
 21
-37.11026185
 31
0.0
  0
LINE
  5
729
100
AcDbEntity
  8
LAYER0001
  6
CONTINUOUS
 62
       7
100
AcDbLine
 10
-400.69412376
 20
-37.11026185
 30
0.0
 11
-395.93300376
 21
-38.06455185
 31
0.0
  0
LINE
  5
72A
100
AcDbEntity
  8
LAYER0001
  6
CONTINUOUS
 62
       7
100
AcDbLine
 10
-395.93300376
 20
-38.06455185
 30
0.0
 11
-390.32094376
 21
-39.01540185
 31
0.0
  0
LINE
  5
72B
100
AcDbEntity
  8
LAYER0001
  6
CONTINUOUS
 62
       7
100
AcDbLine
 10
-390.32094376
 20
-39.01540185
 30
0.0
 11
-383.97163376
 21
-39.86289185
 31
0.0
  0
LINE
  5
72C
100
AcDbEntity
  8
LAYER0001
  6
CONTINUOUS
 62
       7
100
AcDbLine
 10
-95.08995376
 20
-39.86289185
 30
0.0
 11
-88.74064376
 21
-39.01540185
 31
0.0
  0
LINE
  5
72D
100
AcDbEntity
  8
LAYER0001
  6
CONTINUOUS
 62
       7
100
AcDbLine
 10
-88.74064376
 20
-39.01540185
 30
0.0
 11
-83.13203376
 21
-38.06455185
 31
0.0
  0
LINE
  5
72E
100
AcDbEntity
  8
LAYER0001
  6
CONTINUOUS
 62
       7
100
AcDbLine
 10
-83.13203376
 20
-38.06455185
 30
0.0
 11
-78.26066376
 21
-37.11026185
 31
0.0
  0
LINE
  5
72F
100
AcDbEntity
  8
LAYER0001
  6
CONTINUOUS
 62
       7
100
AcDbLine
 10
-78.26066376
 20
-37.11026185
 30
0.0
 11
-74.24024376
 21
-36.15941185
 31
0.0
  0
LINE
  5
730
100
AcDbEntity
  8
LAYER0001
  6
CONTINUOUS
 62
       7
100
AcDbLine
 10
-74.24024376
 20
-36.15941185
 30
0.0
 11
-72.54869376
 21
-35.62887185
 31
0.0
  0
LINE
  5
731
100
AcDbEntity
  8
LAYER0001
  6
CONTINUOUS
 62
       7
100
AcDbLine
 10
-72.54869376
 20
-35.62887185
 30
0.0
 11
-71.17066376
 21
-34.67802185
 31
0.0
  0
LINE
  5
732
100
AcDbEntity
  8
LAYER0001
  6
CONTINUOUS
 62
       7
100
AcDbLine
 10
-71.17066376
 20
-34.67802185
 30
0.0
 11
-70.00621376
 21
-33.29999185
 31
0.0
  0
LINE
  5
733
100
AcDbEntity
  8
LAYER0001
  6
CONTINUOUS
 62
       7
100
AcDbLine
 10
-70.00621376
 20
-33.29999185
 30
0.0
 11
-69.26552376
 21
-31.81859185
 31
0.0
  0
LINE
  5
734
100
AcDbEntity
  8
LAYER0001
  6
CONTINUOUS
 62
       7
100
AcDbLine
 10
-69.26552376
 20
-31.81859185
 30
0.0
 11
-68.94857376
 21
-30.12705185
 31
0.0
  0
LINE
  5
735
100
AcDbEntity
  8
LAYER0001
  6
CONTINUOUS
 62
       7
100
AcDbLine
 10
-68.94857376
 20
-30.12705185
 30
0.0
 11
-69.05537376
 21
-28.43207185
 31
0.0
  0
LINE
  5
736
100
AcDbEntity
  8
LAYER0001
  6
CONTINUOUS
 62
       7
100
AcDbLine
 10
-69.05537376
 20
-28.43207185
 30
0.0
 11
-69.58247376
 21
-26.84732185
 31
0.0
  0
TEXT
  5
737
100
AcDbEntity
  8
0
 62
       7
100
AcDbText
 10
-584.22641982
 20
827.11913739
 30
0.0
 40
32.0
  1
3箇所
 41
0.75
 72
       5
 11
-507.42641982
 21
827.11913739
 31
0.0
100
AcDbText
  0
INSERT
  5
738
100
AcDbEntity
  8
0
  6
CONTINUOUS
100
AcDbBlockReference
  2
GROUP_1
 10
0.0
 20
0.0
 30
0.0
  0
INSERT
  5
739
100
AcDbEntity
  8
0
  6
CONTINUOUS
100
AcDbBlockReference
  2
GROUP_4
 10
0.0
 20
0.0
 30
0.0
  0
INSERT
  5
73A
100
AcDbEntity
  8
0
  6
CONTINUOUS
100
AcDbBlockReference
  2
GROUP_5
 10
0.0
 20
0.0
 30
0.0
  0
INSERT
  5
73B
100
AcDbEntity
  8
0
  6
CONTINUOUS
100
AcDbBlockReference
  2
DA_IMAGEDIMGROUP_1
 10
0.0
 20
0.0
 30
0.0
  0
INSERT
  5
73C
100
AcDbEntity
  8
0
  6
CONTINUOUS
100
AcDbBlockReference
  2
DA_IMAGEDIMGROUP_2
 10
0.0
 20
0.0
 30
0.0
  0
INSERT
  5
73D
100
AcDbEntity
  8
0
  6
CONTINUOUS
100
AcDbBlockReference
  2
DA_IMAGEDIMGROUP_3
 10
0.0
 20
0.0
 30
0.0
  0
INSERT
  5
73E
100
AcDbEntity
  8
0
  6
CONTINUOUS
100
AcDbBlockReference
  2
DA_IMAGEDIMGROUP_4
 10
0.0
 20
0.0
 30
0.0
  0
INSERT
  5
73F
100
AcDbEntity
  8
0
  6
CONTINUOUS
100
AcDbBlockReference
  2
DA_IMAGEDIMGROUP_5
 10
0.0
 20
0.0
 30
0.0
  0
INSERT
  5
740
100
AcDbEntity
  8
0
  6
CONTINUOUS
100
AcDbBlockReference
  2
DA_IMAGEDIMGROUP_6
 10
0.0
 20
0.0
 30
0.0
  0
INSERT
  5
741
100
AcDbEntity
  8
0
  6
CONTINUOUS
100
AcDbBlockReference
  2
DA_IMAGEDIMGROUP_7
 10
0.0
 20
0.0
 30
0.0
  0
INSERT
  5
742
100
AcDbEntity
  8
0
  6
CONTINUOUS
100
AcDbBlockReference
  2
DA_IMAGEDIMGROUP_8
 10
0.0
 20
0.0
 30
0.0
  0
INSERT
  5
743
100
AcDbEntity
  8
0
  6
CONTINUOUS
100
AcDbBlockReference
  2
DA_IMAGEDIMGROUP_9
 10
0.0
 20
0.0
 30
0.0
  0
INSERT
  5
744
100
AcDbEntity
  8
0
  6
CONTINUOUS
100
AcDbBlockReference
  2
GROUP_6
 10
0.0
 20
0.0
 30
0.0
  0
INSERT
  5
745
100
AcDbEntity
  8
0
  6
CONTINUOUS
100
AcDbBlockReference
  2
GROUP_9
 10
0.0
 20
0.0
 30
0.0
  0
INSERT
  5
746
100
AcDbEntity
  8
0
  6
CONTINUOUS
100
AcDbBlockReference
  2
GROUP_10
 10
0.0
 20
0.0
 30
0.0
  0
INSERT
  5
747
100
AcDbEntity
  8
0
  6
CONTINUOUS
100
AcDbBlockReference
  2
GROUP_11
 10
0.0
 20
0.0
 30
0.0
  0
INSERT
  5
748
100
AcDbEntity
  8
0
  6
CONTINUOUS
100
AcDbBlockReference
  2
GROUP_12
 10
0.0
 20
0.0
 30
0.0
  0
INSERT
  5
749
100
AcDbEntity
  8
0
  6
CONTINUOUS
100
AcDbBlockReference
  2
GROUP_13
 10
0.0
 20
0.0
 30
0.0
  0
INSERT
  5
74A
100
AcDbEntity
  8
0
  6
CONTINUOUS
100
AcDbBlockReference
  2
GROUP_14
 10
0.0
 20
0.0
 30
0.0
  0
INSERT
  5
74B
100
AcDbEntity
  8
0
  6
CONTINUOUS
100
AcDbBlockReference
  2
GROUP_15
 10
0.0
 20
0.0
 30
0.0
  0
INSERT
  5
74C
100
AcDbEntity
  8
0
  6
CONTINUOUS
100
AcDbBlockReference
  2
GROUP_16
 10
0.0
 20
0.0
 30
0.0
  0
INSERT
  5
74D
100
AcDbEntity
  8
0
  6
CONTINUOUS
100
AcDbBlockReference
  2
DA_IMAGEDIMGROUP_10
 10
0.0
 20
0.0
 30
0.0
  0
INSERT
  5
74E
100
AcDbEntity
  8
0
  6
CONTINUOUS
100
AcDbBlockReference
  2
DA_IMAGEDIMGROUP_11
 10
0.0
 20
0.0
 30
0.0
  0
INSERT
  5
74F
100
AcDbEntity
  8
0
  6
CONTINUOUS
100
AcDbBlockReference
  2
DA_IMAGEDIMGROUP_12
 10
0.0
 20
0.0
 30
0.0
  0
INSERT
  5
750
100
AcDbEntity
  8
0
  6
CONTINUOUS
100
AcDbBlockReference
  2
DA_IMAGEDIMGROUP_13
 10
0.0
 20
0.0
 30
0.0
  0
INSERT
  5
751
100
AcDbEntity
  8
0
  6
CONTINUOUS
100
AcDbBlockReference
  2
DA_IMAGEDIMGROUP_14
 10
0.0
 20
0.0
 30
0.0
  0
INSERT
  5
752
100
AcDbEntity
  8
0
  6
CONTINUOUS
100
AcDbBlockReference
  2
DA_IMAGEDIMGROUP_15
 10
0.0
 20
0.0
 30
0.0
  0
INSERT
  5
753
100
AcDbEntity
  8
0
  6
CONTINUOUS
100
AcDbBlockReference
  2
DA_IMAGEDIMGROUP_16
 10
0.0
 20
0.0
 30
0.0
  0
INSERT
  5
754
100
AcDbEntity
  8
0
  6
CONTINUOUS
100
AcDbBlockReference
  2
DA_IMAGEDIMGROUP_17
 10
0.0
 20
0.0
 30
0.0
  0
INSERT
  5
755
100
AcDbEntity
  8
0
  6
CONTINUOUS
100
AcDbBlockReference
  2
DA_IMAGEDIMGROUP_18
 10
0.0
 20
0.0
 30
0.0
  0
INSERT
  5
756
100
AcDbEntity
  8
0
  6
CONTINUOUS
100
AcDbBlockReference
  2
GROUP_17
 10
0.0
 20
0.0
 30
0.0
  0
INSERT
  5
757
100
AcDbEntity
  8
0
  6
CONTINUOUS
100
AcDbBlockReference
  2
GROUP_18
 10
0.0
 20
0.0
 30
0.0
  0
INSERT
  5
758
100
AcDbEntity
  8
0
  6
CONTINUOUS
100
AcDbBlockReference
  2
GROUP_25
 10
0.0
 20
0.0
 30
0.0
  0
INSERT
  5
759
100
AcDbEntity
  8
0
  6
CONTINUOUS
100
AcDbBlockReference
  2
GROUP_28
 10
0.0
 20
0.0
 30
0.0
  0
INSERT
  5
75A
100
AcDbEntity
  8
0
  6
CONTINUOUS
100
AcDbBlockReference
  2
GROUP_29
 10
0.0
 20
0.0
 30
0.0
  0
INSERT
  5
75B
100
AcDbEntity
  8
0
  6
CONTINUOUS
100
AcDbBlockReference
  2
GROUP_30
 10
0.0
 20
0.0
 30
0.0
  0
INSERT
  5
75C
100
AcDbEntity
  8
0
  6
CONTINUOUS
100
AcDbBlockReference
  2
GROUP_31
 10
0.0
 20
0.0
 30
0.0
  0
INSERT
  5
75D
100
AcDbEntity
  8
0
  6
CONTINUOUS
100
AcDbBlockReference
  2
DA_IMAGEDIMGROUP_19
 10
0.0
 20
0.0
 30
0.0
  0
INSERT
  5
75E
100
AcDbEntity
  8
0
  6
CONTINUOUS
100
AcDbBlockReference
  2
DA_IMAGEDIMGROUP_20
 10
0.0
 20
0.0
 30
0.0
  0
INSERT
  5
75F
100
AcDbEntity
  8
0
  6
CONTINUOUS
100
AcDbBlockReference
  2
DA_IMAGEDIMGROUP_21
 10
0.0
 20
0.0
 30
0.0
  0
ELLIPSE
  5
760
100
AcDbEntity
  8
LAYER0064
  6
DASHED2
 62
       7
100
AcDbEllipse
 10
-19.37232376
 20
-151.04857185
 30
0.0
 11
0.0
 21
7.0
 31
0.0
210
0.0
220
0.0
230
1.0
 40
0.73505567
 41
3.6713300204490231
 42
8.8950405939100978
  0
LINE
  5
761
100
AcDbEntity
  8
LAYER0064
  6
DASHED2
 62
       7
100
AcDbLine
 10
-19.37232376
 20
-151.64857185
 30
0.0
 11
-14.24587035
 21
-151.64857185
 31
0.0
  0
LINE
  5
762
100
AcDbEntity
  8
LAYER0064
  6
DASHED2
 62
       7
100
AcDbLine
 10
-362.37232376
 20
-151.64857185
 30
0.0
 11
-367.43667701
 21
-151.64857185
 31
0.0
  0
ELLIPSE
  5
763
100
AcDbEntity
  8
LAYER0064
  6
DASHED2
 62
       7
100
AcDbEllipse
 10
-362.37232376
 20
-151.04857185
 30
0.0
 11
0.0
 21
6.9999999999998916
 31
0.0
210
0.0
220
0.0
230
1.0
 40
0.72615145
 41
3.6785255550211096
 42
8.8878450593380123
  0
ELLIPSE
  5
764
100
AcDbEntity
  8
LAYER0064
  6
DASHED2
 62
       7
100
AcDbEllipse
 10
-319.37232376
 20
-151.04857185
 30
0.0
 11
0.0
 21
7.0000000000000302
 31
0.0
210
0.0
220
0.0
230
1.0
 40
0.87815124
 41
3.5783092572969681
 42
8.9880613570621648
  0
LINE
  5
765
100
AcDbEntity
  8
LAYER0064
  6
CONTINUOUS
 62
       7
100
AcDbLine
 10
-377.12232376
 20
-231.04857185
 30
0.0
 11
-347.62232376
 21
-231.04857185
 31
0.0
  0
LINE
  5
766
100
AcDbEntity
  8
LAYER0064
  6
CONTINUOUS
 62
       7
100
AcDbLine
 10
-334.12232376
 20
-231.04857185
 30
0.0
 11
-304.62232376
 21
-231.04857185
 31
0.0
  0
LINE
  5
767
100
AcDbEntity
  8
LAYER0064
  6
CONTINUOUS
 62
       7
100
AcDbLine
 10
-34.12232376
 20
-231.04857185
 30
0.0
 11
-4.62232376
 21
-231.04857185
 31
0.0
  0
LINE
  5
768
100
AcDbEntity
  8
LAYER0064
  6
CONTINUOUS
 62
       7
100
AcDbLine
 10
-16.77232376
 20
-201.04857185
 30
0.0
 11
-16.77232376
 21
-207.67794075
 31
0.0
  0
LINE
  5
769
100
AcDbEntity
  8
LAYER0064
  6
CONTINUOUS
 62
       7
100
AcDbLine
 10
-21.97232376
 20
-201.04857185
 30
0.0
 11
-21.97232376
 21
-207.67794075
 31
0.0
  0
LINE
  5
76A
100
AcDbEntity
  8
LAYER0064
  6
CONTINUOUS
 62
       7
100
AcDbLine
 10
-316.77232376
 20
-201.04857185
 30
0.0
 11
-316.77232376
 21
-207.67794075
 31
0.0
  0
LINE
  5
76B
100
AcDbEntity
  8
LAYER0064
  6
CONTINUOUS
 62
       7
100
AcDbLine
 10
-321.97232376
 20
-201.04857185
 30
0.0
 11
-321.97232376
 21
-207.67794075
 31
0.0
  0
LINE
  5
76C
100
AcDbEntity
  8
LAYER0064
  6
CONTINUOUS
 62
       7
100
AcDbLine
 10
-359.77232376
 20
-201.04857185
 30
0.0
 11
-359.77232376
 21
-207.67794075
 31
0.0
  0
LINE
  5
76D
100
AcDbEntity
  8
LAYER0064
  6
CONTINUOUS
 62
       7
100
AcDbLine
 10
-364.97232376
 20
-201.04857185
 30
0.0
 11
-364.97232376
 21
-207.67794075
 31
0.0
  0
LINE
  5
76E
100
AcDbEntity
  8
LAYER0064
  6
DIVIDE
 62
       7
100
AcDbLine
 10
-9.37232376
 20
-201.04857185
 30
0.0
 11
-9.37232376
 21
-231.04857185
 31
0.0
  0
LINE
  5
76F
100
AcDbEntity
  8
LAYER0064
  6
DIVIDE
 62
       7
100
AcDbLine
 10
-29.37232376
 20
-201.04857185
 30
0.0
 11
-29.37232376
 21
-231.04857185
 31
0.0
  0
LINE
  5
770
100
AcDbEntity
  8
LAYER0064
  6
DIVIDE
 62
       7
100
AcDbLine
 10
-309.37232376
 20
-201.04857185
 30
0.0
 11
-309.37232376
 21
-231.04857185
 31
0.0
  0
LINE
  5
771
100
AcDbEntity
  8
LAYER0064
  6
DIVIDE
 62
       7
100
AcDbLine
 10
-329.37232376
 20
-201.04857185
 30
0.0
 11
-329.37232376
 21
-231.04857185
 31
0.0
  0
LINE
  5
772
100
AcDbEntity
  8
LAYER0064
  6
DIVIDE
 62
       7
100
AcDbLine
 10
-352.37232376
 20
-201.04857185
 30
0.0
 11
-352.37232376
 21
-231.04857185
 31
0.0
  0
LINE
  5
773
100
AcDbEntity
  8
LAYER0064
  6
DIVIDE
 62
       7
100
AcDbLine
 10
-372.37232376
 20
-201.04857185
 30
0.0
 11
-372.37232376
 21
-231.04857185
 31
0.0
  0
ENDSEC
  0
SECTION
  2
OBJECTS
  0
DICTIONARY
  5
19
100
AcDbDictionary
  3
ACAD_GROUP
350
1A
  3
ACAD_MLINESTYLE
350
1B
  0
DICTIONARY
  5
1A
102
{ACAD_REACTORS
330
19
102
}
100
AcDbDictionary
  0
DICTIONARY
  5
1B
102
{ACAD_REACTORS
330
19
102
}
100
AcDbDictionary
  3
STANDARD
350
1C
  0
MLINESTYLE
  5
1C
102
{ACAD_REACTORS
330
1B
102
}
100
AcDbMlineStyle
  2
STANDARD
 70
       0
  3

 62
       0
 51
90.0
 52
90.0
 71
       2
 49
0.5
 62
     256
  6
BYLAYER
 49
-0.5
 62
     256
  6
BYLAYER
  0
ENDSEC
  0
EOF

