  0
SECTION
  2
HEADER
  9
$ACADVER
  1
AC1014
  9
$ACADMAINTVER
 70
       0
  9
$DWGCODEPAGE
  3
ANSI_932
  9
$INSBASE
 10
0.0
 20
0.0
 30
0.0
  9
$EXTMIN
 10
-330.03468464
 20
-460.5374198
 30
0.0
  9
$EXTMAX
 10
330.03468464
 20
460.5374198
 30
0.0
  9
$LIMMIN
 10
-105.0
 20
-148.5
  9
$LIMMAX
 10
105.0
 20
148.5
  9
$ORTHOMODE
 70
       0
  9
$REGENMODE
 70
       1
  9
$FILLMODE
 70
       1
  9
$QTEXTMODE
 70
       0
  9
$MIRRTEXT
 70
       1
  9
$DRAGMODE
 70
       2
  9
$LTSCALE
 40
1.0
  9
$OSMODE
 70
       0
  9
$ATTMODE
 70
       1
  9
$TEXTSIZE
 40
0.2
  9
$TRACEWID
 40
0.05
  9
$TEXTSTYLE
  7
STANDARD
  9
$CLAYER
  8
0
  9
$CELTYPE
  6
CONTINUOUS
  9
$CECOLOR
 62
     256
  9
$CELTSCALE
 40
1.0
  9
$DELOBJ
 70
       1
  9
$DISPSILH
 70
       0
  9
$DIMSCALE
 40
1.0
  9
$DIMASZ
 40
2.0
  9
$DIMEXO
 40
0.0625
  9
$DIMDLI
 40
0.38
  9
$DIMRND
 40
0.0
  9
$DIMDLE
 40
0.0
  9
$DIMEXE
 40
0.18
  9
$DIMTP
 40
0.0
  9
$DIMTM
 40
0.0
  9
$DIMTXT
 40
2.0
  9
$DIMCEN
 40
0.09
  9
$DIMTSZ
 40
0.0
  9
$DIMTOL
 70
       0
  9
$DIMLIM
 70
       0
  9
$DIMTIH
 70
       1
  9
$DIMTOH
 70
       1
  9
$DIMSE1
 70
       0
  9
$DIMSE2
 70
       0
  9
$DIMTAD
 70
       0
  9
$DIMZIN
 70
       0
  9
$DIMBLK
  1

  9
$DIMASO
 70
       1
  9
$DIMSHO
 70
       1
  9
$DIMPOST
  1

  9
$DIMAPOST
  1

  9
$DIMALT
 70
       0
  9
$DIMALTD
 70
       2
  9
$DIMALTF
 40
25.4
  9
$DIMLFAC
 40
1.0
  9
$DIMTOFL
 70
       0
  9
$DIMTVP
 40
0.0
  9
$DIMTIX
 70
       0
  9
$DIMSOXD
 70
       0
  9
$DIMSAH
 70
       0
  9
$DIMBLK1
  1

  9
$DIMBLK2
  1

  9
$DIMSTYLE
  2
STANDARD
  9
$DIMCLRD
 70
       0
  9
$DIMCLRE
 70
       0
  9
$DIMCLRT
 70
       0
  9
$DIMTFAC
 40
1.0
  9
$DIMGAP
 40
0.09
  9
$DIMJUST
 70
       0
  9
$DIMSD1
 70
       0
  9
$DIMSD2
 70
       0
  9
$DIMTOLJ
 70
       1
  9
$DIMTZIN
 70
       0
  9
$DIMALTZ
 70
       0
  9
$DIMALTTZ
 70
       0
  9
$DIMFIT
 70
       3
  9
$DIMUPT
 70
       0
  9
$DIMUNIT
 70
       2
  9
$DIMDEC
 70
       4
  9
$DIMTDEC
 70
       4
  9
$DIMALTU
 70
       2
  9
$DIMALTTD
 70
       2
  9
$DIMTXSTY
  7
STANDARD
  9
$DIMAUNIT
 70
       0
  9
$LUNITS
 70
       2
  9
$LUPREC
 70
       4
  9
$SKETCHINC
 40
0.1
  9
$FILLETRAD
 40
0.0
  9
$AUNITS
 70
       0
  9
$AUPREC
 70
       0
  9
$MENU
  1
acad
  9
$ELEVATION
 40
0.0
  9
$PELEVATION
 40
0.0
  9
$THICKNESS
 40
0.0
  9
$LIMCHECK
 70
       0
  9
$BLIPMODE
 70
       1
  9
$CHAMFERA
 40
0.0
  9
$CHAMFERB
 40
0.0
  9
$CHAMFERC
 40
0.0
  9
$CHAMFERD
 40
0.0
  9
$SKPOLY
 70
       0
  9
$TDCREATE
 40
0.000000000
  9
$TDUPDATE
 40
0.000000000
  9
$TDINDWG
 40
0.0000000000
  9
$TDUSRTIMER
 40
0.0000000000
  9
$USRTIMER
 70
       1
  9
$ANGBASE
 50
0.0
  9
$ANGDIR
 70
       0
  9
$PDMODE
 70
       0
  9
$PDSIZE
 40
1.0
  9
$PLINEWID
 40
0.0
  9
$COORDS
 70
       1
  9
$SPLFRAME
 70
       0
  9
$SPLINETYPE
 70
       6
  9
$SPLINESEGS
 70
       8
  9
$ATTDIA
 70
       0
  9
$ATTREQ
 70
       1
  9
$HANDLING
 70
       1
  9
$HANDSEED
  5
645
  9
$SURFTAB1
 70
       6
  9
$SURFTAB2
 70
       6
  9
$SURFTYPE
 70
       6
  9
$SURFU
 70
       6
  9
$SURFV
 70
       6
  9
$UCSNAME
  2

  9
$UCSORG
 10
0.0
 20
0.0
 30
0.0
  9
$UCSXDIR
 10
1.0
 20
0.0
 30
0.0
  9
$UCSYDIR
 10
0.0
 20
1.0
 30
0.0
  9
$PUCSNAME
  2

  9
$PUCSORG
 10
0.0
 20
0.0
 30
0.0
  9
$PUCSXDIR
 10
1.0
 20
0.0
 30
0.0
  9
$PUCSYDIR
 10
0.0
 20
1.0
 30
0.0
  9
$USERI1
 70
       0
  9
$USERI2
 70
       0
  9
$USERI3
 70
       0
  9
$USERI4
 70
       0
  9
$USERI5
 70
       0
  9
$USERR1
 40
0.0
  9
$USERR2
 40
0.0
  9
$USERR3
 40
0.0
  9
$USERR4
 40
0.0
  9
$USERR5
 40
0.0
  9
$WORLDVIEW
 70
       1
  9
$SHADEDGE
 70
       3
  9
$SHADEDIF
 70
      70
  9
$TILEMODE
 70
       1
  9
$MAXACTVP
 70
      16
  9
$PINSBASE
 10
0.0
 20
0.0
 30
0.0
  9
$PLIMCHECK
 70
       0
  9
$PEXTMIN
 10
1.00000000E+20
 20
1.00000000E+20
 30
1.00000000E+20
  9
$PEXTMAX
 10
-1.00000000E+20
 20
-1.00000000E+20
 30
-1.00000000E+20
  9
$PLIMMIN
 10
0.0
 20
0.0
  9
$PLIMMAX
 10
12.0
 20
9.0
  9
$UNITMODE
 70
       0
  9
$VISRETAIN
 70
       0
  9
$PLINEGEN
 70
       1
  9
$PSLTSCALE
 70
       0
  9
$TREEDEPTH
 70
    3020
  9
$PICKSTYLE
 70
       1
  9
$CMLSTYLE
  2
STANDARD
  9
$CMLJUST
 70
       0
  9
$CMLSCALE
 40
1.0
  9
$PROXYGRAPHICS
 70
       0
  9
$MEASUREMENT
 70
       0
  0
ENDSEC
  0
SECTION
  2
CLASSES
  0
CLASS
  1
LWPOLYLINE
  2
AcDbPolyline
  3
"AutoCAD"
 90
        0
280
       0
281
       1
  0
CLASS
  1
IMAGE
  2
AcDbRasterImage
  3
ISM
 90
      127
280
       0
281
       1
  0
CLASS
  1
OLE2FRAME
  2
AcDbOle2Frame
  3
""
 90
        0
280
       0
281
       1
  0
CLASS
  1
HATCH
  2
AcDbHatch
  3
"ACAD_SEDONA"
 90
        0
280
       0
281
       1
  0
CLASS
  1
DICTIONARYVAR
  2
AcDbDictionaryVar
  3
"AutoCAD"
 90
        0
280
       0
281
       0
  0
CLASS
  1
RASTERVARIABLES
  2
AcDbRasterVariables
  3
ISM
 90
        0
280
       0
281
       0
  0
CLASS
  1
IMAGEDEF
  2
AcDbRasterImageDef
  3
ISM
 90
        0
280
       0
281
       0
  0
CLASS
  1
IMAGEDEF_REACTOR
  2
AcDbRasterImageDefReactor
  3
ISM
 90
        1
280
       0
281
       0
  0
CLASS
  1
IDBUFFER
  2
AcDbIdBuffer
  3
"Acad"
 90
        0
280
       0
281
       0
  0
CLASS
  1
SPATIAL_FILTER
  2
AcDbSpatialFilter
  3
"Acad"
 90
        0
280
       0
281
       0
  0
CLASS
  1
XRECORD
  2
AcDbXrecord
  3
"<Built In>"
 90
        0
280
       0
281
       0
  0
CLASS
  1
SORTENTSTABLE
  2
AcDbSortentsTable
  3
"AutoCAD"
 90
        0
280
       0
281
       0
  0
CLASS
  1
LAYER_INDEX
  2
AcDbLayerIndex
  3
"Acad"
 90
        0
280
       0
281
       0
  0
CLASS
  1
SPATIAL_INDEX
  2
AcDbSpatialIndex
  3
"Acad"
 90
        0
280
       0
281
       0
  0
CLASS
  1
OBJECT_PTR
  2
CAseDLPNTableRecord
  3
"ASE-LPNTableRecord"
 90
        1
280
       0
281
       0
  0
CLASS
  1
LAYOUT
  2
AcDbLayout
  3
"AutoCAD 2000"
 90
        0
280
       0
281
       0
  0
CLASS
  1
PLOTSETTINGS
  2
AcDbPlotSettings
  3
"AutoCAD 2000"
 90
        0
280
       0
281
       0
  0
CLASS
  1
ACDBDICTIONARYWDFLT
  2
AcDbDictionaryWithDefault
  3
"AutoCAD 2000"
 90
        0
280
       0
281
       0
  0
CLASS
  1
ACDBPLACEHOLDER
  2
AcDbPlaceHolder
  3
"AutoCAD 2000"
 90
        0
280
       0
281
       0
  0
CLASS
  1
VBA_PROJECT
  2
AcDbVbaProject
  3
"acadvba"
 90
        0
280
       0
281
       0
  0
CLASS
  1
WIPEOUT
  2
AcDbWipeout
  3
WipeOut|AutoCAD Express Tool|expresstools@autodesk.com
 90
      127
280
       0
281
       1
  0
CLASS
  1
WIPEOUTVARIABLES
  2
AcDbWipeoutVariables
  3
WipeOut|AutoCAD Express Tool|expresstools@autodesk.com
 90
        0
280
       0
281
       0
  0
CLASS
  1
RTEXT
  2
RText
  3
RText|AutoCAD Express Tool|expresstools@autodesk.com
 90
        0
280
       0
281
       1
  0
CLASS
  1
ARCALIGNEDTEXT
  2
AcDbArcAlignedText
  3
ATEXT|AutoCAD Express Tool|expresstools@autodesk.com
 90
        0
280
       0
281
       1
  0
ENDSEC
  0
SECTION
  2
TABLES
  0
TABLE
  2
VPORT
  5
7
100
AcDbSymbolTable
 70
       1
  0
VPORT
  5
15
100
AcDbSymbolTableRecord
100
AcDbViewportTableRecord
  2
*ACTIVE
 70
       0
 10
0.0
 20
0.0
 11
1.0
 21
1.0
 12
0.0
 22
0.0
 13
0.0
 23
0.0
 14
1.0
 24
1.0
 15
0.0
 25
0.0
 16
0.0
 26
0.0
 36
1.0
 17
0.0
 27
0.0
 37
0.0
 40
297.0
 41
0.70707071
 42
50.0
 43
0.0
 44
0.0
 50
0.0
 51
0.0
 71
       0
 72
     100
 73
       1
 74
       1
 75
       0
 76
       0
 77
       0
 78
       0
  0
ENDTAB
  0
TABLE
  2
LTYPE
  5
4
100
AcDbSymbolTable
 70
      30
  0
LTYPE
  5
11
100
AcDbSymbolTableRecord
100
AcDbLinetypeTableRecord
  2
BYBLOCK
 70
      64
  3

 72
      65
 73
       0
 40
0.0
  0
LTYPE
  5
12
100
AcDbSymbolTableRecord
100
AcDbLinetypeTableRecord
  2
BYLAYER
 70
      64
  3

 72
      65
 73
       0
 40
0.0
  0
LTYPE
  5
13
100
AcDbSymbolTableRecord
100
AcDbLinetypeTableRecord
  2
CONTINUOUS
 70
      64
  3
Solid line
 72
      65
 73
       0
 40
0.0
  0
LTYPE
  5
1D
100
AcDbSymbolTableRecord
100
AcDbLinetypeTableRecord
  2
HIDDENX2
 70
      64
  3
CADPAC LINETYPE
 72
      65
 73
       2
 40
7.14687354
 49
5.36015515
 74
       0
 49
-1.78671838
 74
       0
  0
LTYPE
  5
1E
100
AcDbSymbolTableRecord
100
AcDbLinetypeTableRecord
  2
HIDDEN
 70
      64
  3
CADPAC LINETYPE
 72
      65
 73
       2
 40
5.36015515
 49
3.57343677
 74
       0
 49
-1.78671838
 74
       0
  0
LTYPE
  5
1F
100
AcDbSymbolTableRecord
100
AcDbLinetypeTableRecord
  2
HIDDEN2
 70
      64
  3
CADPAC LINETYPE
 72
      65
 73
       2
 40
4.46679596
 49
2.68007758
 74
       0
 49
-1.78671838
 74
       0
  0
LTYPE
  5
20
100
AcDbSymbolTableRecord
100
AcDbLinetypeTableRecord
  2
DASHED
 70
      64
  3
CADPAC LINETYPE
 72
      65
 73
       2
 40
5.00281148
 49
3.57343677
 74
       0
 49
-1.42937471
 74
       0
  0
LTYPE
  5
21
100
AcDbSymbolTableRecord
100
AcDbLinetypeTableRecord
  2
DASHED2
 70
      64
  3
CADPAC LINETYPE
 72
      65
 73
       2
 40
3.21609309
 49
2.14406206
 74
       0
 49
-1.07203103
 74
       0
  0
LTYPE
  5
22
100
AcDbSymbolTableRecord
100
AcDbLinetypeTableRecord
  2
DASHEDX2
 70
      64
  3
CADPAC LINETYPE
 72
      65
 73
       2
 40
8.57624825
 49
7.14687354
 74
       0
 49
-1.42937471
 74
       0
  0
LTYPE
  5
23
100
AcDbSymbolTableRecord
100
AcDbLinetypeTableRecord
  2
DOTX2
 70
      64
  3
CADPAC LINETYPE
 72
      65
 73
       2
 40
3.12675717
 49
0.0
 74
       0
 49
-3.12675717
 74
       0
  0
LTYPE
  5
24
100
AcDbSymbolTableRecord
100
AcDbLinetypeTableRecord
  2
DOT
 70
      64
  3
CADPAC LINETYPE
 72
      65
 73
       2
 40
2.50140574
 49
0.0
 74
       0
 49
-2.50140574
 74
       0
  0
LTYPE
  5
25
100
AcDbSymbolTableRecord
100
AcDbLinetypeTableRecord
  2
DOT2
 70
      64
  3
CADPAC LINETYPE
 72
      65
 73
       2
 40
1.8760543
 49
0.0
 74
       0
 49
-1.8760543
 74
       0
  0
LTYPE
  5
26
100
AcDbSymbolTableRecord
100
AcDbLinetypeTableRecord
  2
CENTERX2
 70
      64
  3
CADPAC LINETYPE
 72
      65
 73
       4
 40
10.72031031
 49
4.46679596
 74
       0
 49
-2.23339798
 74
       0
 49
1.78671838
 74
       0
 49
-2.23339798
 74
       0
  0
LTYPE
  5
27
100
AcDbSymbolTableRecord
100
AcDbLinetypeTableRecord
  2
CENTER
 70
      64
  3
CADPAC LINETYPE
 72
      65
 73
       4
 40
8.21890457
 49
3.57343677
 74
       0
 49
-1.78671838
 74
       0
 49
1.07203103
 74
       0
 49
-1.78671838
 74
       0
  0
LTYPE
  5
28
100
AcDbSymbolTableRecord
100
AcDbLinetypeTableRecord
  2
CENTER2
 70
      64
  3
CADPAC LINETYPE
 72
      65
 73
       4
 40
5.71749883
 49
2.68007758
 74
       0
 49
-1.34003879
 74
       0
 49
0.35734368
 74
       0
 49
-1.34003879
 74
       0
  0
LTYPE
  5
29
100
AcDbSymbolTableRecord
100
AcDbLinetypeTableRecord
  2
DASHDOTX2
 70
      64
  3
CADPAC LINETYPE
 72
      65
 73
       4
 40
17.15249649
 49
8.57624825
 74
       0
 49
-2.85874942
 74
       0
 49
2.85874942
 74
       0
 49
-2.85874942
 74
       0
  0
LTYPE
  5
2A
100
AcDbSymbolTableRecord
100
AcDbLinetypeTableRecord
  2
DASHDOT
 70
      64
  3
CADPAC LINETYPE
 72
      65
 73
       4
 40
8.57624825
 49
4.28812412
 74
       0
 49
-1.42937471
 74
       0
 49
1.42937471
 74
       0
 49
-1.42937471
 74
       0
  0
LTYPE
  5
2B
100
AcDbSymbolTableRecord
100
AcDbLinetypeTableRecord
  2
DASHDOT2
 70
      64
  3
CADPAC LINETYPE
 72
      65
 73
       4
 40
5.50309262
 49
3.21609309
 74
       0
 49
-1.07203103
 74
       0
 49
0.14293747
 74
       0
 49
-1.07203103
 74
       0
  0
LTYPE
  5
2C
100
AcDbSymbolTableRecord
100
AcDbLinetypeTableRecord
  2
DIVIDEX2
 70
      64
  3
CADPAC LINETYPE
 72
      65
 73
       6
 40
22.86999532
 49
8.57624825
 74
       0
 49
-2.85874942
 74
       0
 49
2.85874942
 74
       0
 49
-2.85874942
 74
       0
 49
2.85874942
 74
       0
 49
-2.85874942
 74
       0
  0
LTYPE
  5
2D
100
AcDbSymbolTableRecord
100
AcDbLinetypeTableRecord
  2
DIVIDE
 70
      64
  3
CADPAC LINETYPE
 72
      65
 73
       6
 40
11.43499766
 49
4.28812412
 74
       0
 49
-1.42937471
 74
       0
 49
1.42937471
 74
       0
 49
-1.42937471
 74
       0
 49
1.42937471
 74
       0
 49
-1.42937471
 74
       0
  0
LTYPE
  5
2E
100
AcDbSymbolTableRecord
100
AcDbLinetypeTableRecord
  2
DIVIDE2
 70
      64
  3
CADPAC LINETYPE
 72
      65
 73
       6
 40
8.57624825
 49
3.21609309
 74
       0
 49
-1.07203103
 74
       0
 49
1.07203103
 74
       0
 49
-1.07203103
 74
       0
 49
1.07203103
 74
       0
 49
-1.07203103
 74
       0
  0
LTYPE
  5
2F
100
AcDbSymbolTableRecord
100
AcDbLinetypeTableRecord
  2
BORDERX2
 70
      64
  3
CADPAC LINETYPE
 72
      65
 73
       6
 40
15.63378587
 49
4.46679596
 74
       0
 49
-2.23339798
 74
       0
 49
4.46679596
 74
       0
 49
-2.23339798
 74
       0
 49
0.0
 74
       0
 49
-2.23339798
 74
       0
  0
LTYPE
  5
30
100
AcDbSymbolTableRecord
100
AcDbLinetypeTableRecord
  2
BORDER
 70
      64
  3
CADPAC LINETYPE
 72
      65
 73
       6
 40
12.50702869
 49
3.57343677
 74
       0
 49
-1.78671838
 74
       0
 49
3.57343677
 74
       0
 49
-1.78671838
 74
       0
 49
0.0
 74
       0
 49
-1.78671838
 74
       0
  0
LTYPE
  5
31
100
AcDbSymbolTableRecord
100
AcDbLinetypeTableRecord
  2
BORDER2
 70
      64
  3
CADPAC LINETYPE
 72
      65
 73
       6
 40
9.2909356
 49
2.85874942
 74
       0
 49
-1.78671838
 74
       0
 49
1.07203103
 74
       0
 49
-1.78671838
 74
       0
 49
0.0
 74
       0
 49
-1.78671838
 74
       0
  0
LTYPE
  5
32
100
AcDbSymbolTableRecord
100
AcDbLinetypeTableRecord
  2
PHANTOMX2
 70
      64
  3
CADPAC LINETYPE
 72
      65
 73
       6
 40
13.40038788
 49
4.46679596
 74
       0
 49
-1.78671838
 74
       0
 49
1.78671838
 74
       0
 49
-1.78671838
 74
       0
 49
1.78671838
 74
       0
 49
-1.78671838
 74
       0
  0
LTYPE
  5
33
100
AcDbSymbolTableRecord
100
AcDbLinetypeTableRecord
  2
PHANTOM
 70
      64
  3
CADPAC LINETYPE
 72
      65
 73
       6
 40
11.07765398
 49
3.57343677
 74
       0
 49
-1.78671838
 74
       0
 49
1.07203103
 74
       0
 49
-1.78671838
 74
       0
 49
1.07203103
 74
       0
 49
-1.78671838
 74
       0
  0
LTYPE
  5
34
100
AcDbSymbolTableRecord
100
AcDbLinetypeTableRecord
  2
PHANTOM2
 70
      64
  3
CADPAC LINETYPE
 72
      65
 73
       6
 40
9.46960744
 49
2.68007758
 74
       0
 49
-1.78671838
 74
       0
 49
0.71468735
 74
       0
 49
-1.78671838
 74
       0
 49
0.71468735
 74
       0
 49
-1.78671838
 74
       0
  0
LTYPE
  5
35
100
AcDbSymbolTableRecord
100
AcDbLinetypeTableRecord
  2
ACAD_ISO06W100
 70
      64
  3
CADPAC LINETYPE
 72
      65
 73
       8
 40
18.93921488
 49
8.57624825
 74
       0
 49
-1.78671838
 74
       0
 49
1.07203103
 74
       0
 49
-1.78671838
 74
       0
 49
1.07203103
 74
       0
 49
-1.78671838
 74
       0
 49
1.07203103
 74
       0
 49
-1.78671838
 74
       0
  0
LTYPE
  5
36
100
AcDbSymbolTableRecord
100
AcDbLinetypeTableRecord
  2
ACAD_ISO13W100
 70
      64
  3
CADPAC LINETYPE
 72
      65
 73
       8
 40
14.29374708
 49
3.57343677
 74
       0
 49
-1.78671838
 74
       0
 49
3.57343677
 74
       0
 49
-1.78671838
 74
       0
 49
0.0
 74
       0
 49
-1.78671838
 74
       0
 49
0.0
 74
       0
 49
-1.78671838
 74
       0
  0
LTYPE
  5
37
100
AcDbSymbolTableRecord
100
AcDbLinetypeTableRecord
  2
ACAD_ISO14W100
 70
      64
  3
CADPAC LINETYPE
 72
      65
 73
       8
 40
10.72031031
 49
3.57343677
 74
       0
 49
-1.78671838
 74
       0
 49
0.0
 74
       0
 49
-1.78671838
 74
       0
 49
0.0
 74
       0
 49
-1.78671838
 74
       0
 49
0.0
 74
       0
 49
-1.78671838
 74
       0
  0
ENDTAB
  0
TABLE
  2
LAYER
  5
2
100
AcDbSymbolTable
 70
       6
  0
LAYER
  5
14
100
AcDbSymbolTableRecord
100
AcDbLayerTableRecord
  2
0
 70
       0
 62
       7
  6
CONTINUOUS
  0
LAYER
  5
38
100
AcDbSymbolTableRecord
100
AcDbLayerTableRecord
  2
LAYER0016
 70
       0
 62
       7
  6
CONTINUOUS
  0
LAYER
  5
39
100
AcDbSymbolTableRecord
100
AcDbLayerTableRecord
  2
LAYER0240
 70
       0
 62
       7
  6
CONTINUOUS
  0
LAYER
  5
3A
100
AcDbSymbolTableRecord
100
AcDbLayerTableRecord
  2
LAYER0242
 70
       0
 62
       7
  6
CONTINUOUS
  0
LAYER
  5
3B
100
AcDbSymbolTableRecord
100
AcDbLayerTableRecord
  2
LAYER0243
 70
       0
 62
       7
  6
CONTINUOUS
  0
LAYER
  5
3C
100
AcDbSymbolTableRecord
100
AcDbLayerTableRecord
  2
LAYER0255
 70
       0
 62
       7
  6
CONTINUOUS
  0
ENDTAB
  0
TABLE
  2
STYLE
  5
3
100
AcDbSymbolTable
 70
       2
  0
STYLE
  5
17
100
AcDbSymbolTableRecord
100
AcDbTextStyleTableRecord
  2
STANDARD
 70
       0
 40
3.4
 41
0.8
 50
0.0
 71
       0
 42
3.4
  3
txt.shx
  4
bigfont.shx
  0
STYLE
  5
3D
100
AcDbSymbolTableRecord
100
AcDbTextStyleTableRecord
  2
FDASTYLE1
 70
       4
 40
3.0
 41
1.03494498
 50
0.0
 71
       0
 42
3.0
  3
txt.shx
  4
bigfont.shx
  0
ENDTAB
  0
TABLE
  2
VIEW
  5
5
100
AcDbSymbolTable
 70
       1
  0
VIEW
  5
3E
100
AcDbSymbolTableRecord
100
AcDbViewTableRecord
  2
QQQQ
 70
       0
 40
297.0
 10
0.0
 20
0.0
 41
210.0
 11
0.0
 21
0.0
 31
1.0
 12
100.0
 22
100.0
 32
0.0
 42
50.0
 43
0.0
 44
0.0
 50
0.0
 71
       0
  0
ENDTAB
  0
TABLE
  2
UCS
  5
6
100
AcDbSymbolTable
 70
       0
  0
ENDTAB
  0
TABLE
  2
APPID
  5
8
100
AcDbSymbolTable
 70
       1
  0
APPID
  5
16
100
AcDbSymbolTableRecord
100
AcDbRegAppTableRecord
  2
ACAD
 70
       0
  0
ENDTAB
  0
TABLE
  2
DIMSTYLE
  5
9
100
AcDbSymbolTable
 70
       1
  0
DIMSTYLE
105
18
100
AcDbSymbolTableRecord
100
AcDbDimStyleTableRecord
  2
STANDARD
 70
       0
  3

  4

  5

  6

  7

 40
1.0
 41
0.18
 42
0.0625
 43
0.38
 44
0.18
 45
0.0
 46
0.0
 47
0.0
 48
0.0
 71
       0
 72
       0
 73
       1
 74
       1
 75
       0
 76
       0
 77
       0
 78
       0
140
0.18
141
0.09
142
0.0
143
25.4
144
1.0
145
0.0
146
1.0
147
0.09
170
       0
171
       2
172
       0
173
       0
174
       0
175
       0
176
       0
177
       0
178
       0
270
       2
271
       4
272
       4
273
       2
274
       2
275
       0
280
       0
281
       0
282
       0
283
       1
284
       0
285
       0
286
       0
287
       3
288
       0
340
17
  0
ENDTAB
  0
TABLE
  2
BLOCK_RECORD
  5
1
100
AcDbSymbolTable
 70
      22
  0
BLOCK_RECORD
  5
A
100
AcDbSymbolTableRecord
100
AcDbBlockTableRecord
  2
*MODEL_SPACE
  0
BLOCK_RECORD
  5
B
100
AcDbSymbolTableRecord
100
AcDbBlockTableRecord
  2
*PAPER_SPACE
  0
BLOCK_RECORD
  5
3F
100
AcDbSymbolTableRecord
100
AcDbBlockTableRecord
  2
GROUP_1
  0
BLOCK_RECORD
  5
40
100
AcDbSymbolTableRecord
100
AcDbBlockTableRecord
  2
GROUP_2
  0
BLOCK_RECORD
  5
41
100
AcDbSymbolTableRecord
100
AcDbBlockTableRecord
  2
GROUP_3
  0
BLOCK_RECORD
  5
42
100
AcDbSymbolTableRecord
100
AcDbBlockTableRecord
  2
GROUP_4
  0
BLOCK_RECORD
  5
43
100
AcDbSymbolTableRecord
100
AcDbBlockTableRecord
  2
GROUP_5
  0
BLOCK_RECORD
  5
44
100
AcDbSymbolTableRecord
100
AcDbBlockTableRecord
  2
GROUP_6
  0
BLOCK_RECORD
  5
45
100
AcDbSymbolTableRecord
100
AcDbBlockTableRecord
  2
GROUP_7
  0
BLOCK_RECORD
  5
46
100
AcDbSymbolTableRecord
100
AcDbBlockTableRecord
  2
DA_IMAGEDIMGROUP_1
  0
BLOCK_RECORD
  5
47
100
AcDbSymbolTableRecord
100
AcDbBlockTableRecord
  2
_OPEN30
  0
BLOCK_RECORD
  5
48
100
AcDbSymbolTableRecord
100
AcDbBlockTableRecord
  2
DA_IMAGEDIMGROUP_2
  0
BLOCK_RECORD
  5
49
100
AcDbSymbolTableRecord
100
AcDbBlockTableRecord
  2
DA_IMAGEDIMGROUP_3
  0
BLOCK_RECORD
  5
4A
100
AcDbSymbolTableRecord
100
AcDbBlockTableRecord
  2
DA_IMAGEDIMGROUP_4
  0
BLOCK_RECORD
  5
4B
100
AcDbSymbolTableRecord
100
AcDbBlockTableRecord
  2
DA_IMAGEDIMGROUP_5
  0
BLOCK_RECORD
  5
4C
100
AcDbSymbolTableRecord
100
AcDbBlockTableRecord
  2
GROUP_8
  0
BLOCK_RECORD
  5
4D
100
AcDbSymbolTableRecord
100
AcDbBlockTableRecord
  2
DA_IMAGEDIMGROUP_6
  0
BLOCK_RECORD
  5
4E
100
AcDbSymbolTableRecord
100
AcDbBlockTableRecord
  2
GROUP_9
  0
BLOCK_RECORD
  5
4F
100
AcDbSymbolTableRecord
100
AcDbBlockTableRecord
  2
GROUP_10
  0
BLOCK_RECORD
  5
50
100
AcDbSymbolTableRecord
100
AcDbBlockTableRecord
  2
GROUP_11
  0
BLOCK_RECORD
  5
51
100
AcDbSymbolTableRecord
100
AcDbBlockTableRecord
  2
GROUP_12
  0
BLOCK_RECORD
  5
52
100
AcDbSymbolTableRecord
100
AcDbBlockTableRecord
  2
GROUP_13
  0
BLOCK_RECORD
  5
53
100
AcDbSymbolTableRecord
100
AcDbBlockTableRecord
  2
_ORIGIN
  0
BLOCK_RECORD
  5
54
100
AcDbSymbolTableRecord
100
AcDbBlockTableRecord
  2
_DOT
  0
ENDTAB
  0
ENDSEC
  0
SECTION
  2
BLOCKS
  0
BLOCK
  5
D
100
AcDbEntity
  8
0
100
AcDbBlockBegin
  2
*MODEL_SPACE
 70
       0
 10
0.0
 20
0.0
 30
0.0
  3
*MODEL_SPACE
  1

  0
ENDBLK
  5
E
100
AcDbEntity
  8
0
100
AcDbBlockEnd
  0
BLOCK
  5
F
100
AcDbEntity
 67
       1
  8
0
100
AcDbBlockBegin
  2
*PAPER_SPACE
 70
       0
 10
0.0
 20
0.0
 30
0.0
  3
*PAPER_SPACE
  1

  0
ENDBLK
  5
10
100
AcDbEntity
 67
       1
  8
0
100
AcDbBlockEnd
  0
BLOCK
  5
55
100
AcDbEntity
  8
0
100
AcDbBlockBegin
  2
GROUP_1
 70
       0
 10
0.0
 20
0.0
 30
0.0
  3
GROUP_1
  1

  0
LINE
  5
56
100
AcDbEntity
  8
0
  6
CONTINUOUS
 62
       3
100
AcDbLine
 10
-30.23611071
 20
43.68443472
 30
0.0
 11
-30.33488871
 21
43.68870772
 31
0.0
  0
LINE
  5
57
100
AcDbEntity
  8
0
  6
CONTINUOUS
 62
       3
100
AcDbLine
 10
-30.33488871
 20
43.68870772
 30
0.0
 11
-30.44388971
 21
43.68934872
 31
0.0
  0
LINE
  5
58
100
AcDbEntity
  8
0
  6
CONTINUOUS
 62
       3
100
AcDbLine
 10
-30.44388971
 20
43.68934872
 30
0.0
 11
-30.56273271
 21
43.68635772
 31
0.0
  0
LINE
  5
59
100
AcDbEntity
  8
0
  6
CONTINUOUS
 62
       3
100
AcDbLine
 10
-30.56273271
 20
43.68635772
 30
0.0
 11
-30.69102071
 21
43.67984172
 31
0.0
  0
LINE
  5
5A
100
AcDbEntity
  8
0
  6
CONTINUOUS
 62
       3
100
AcDbLine
 10
-30.69102071
 20
43.67984172
 30
0.0
 11
-30.82831971
 21
43.66995472
 31
0.0
  0
LINE
  5
5B
100
AcDbEntity
  8
0
  6
CONTINUOUS
 62
       3
100
AcDbLine
 10
-30.82831971
 20
43.66995472
 30
0.0
 11
-30.97415571
 21
43.65699972
 31
0.0
  0
LINE
  5
5C
100
AcDbEntity
  8
0
  6
CONTINUOUS
 62
       3
100
AcDbLine
 10
-30.97415571
 20
43.65699972
 30
0.0
 11
-31.12804071
 21
43.64134372
 31
0.0
  0
LINE
  5
5D
100
AcDbEntity
  8
0
  6
CONTINUOUS
 62
       3
100
AcDbLine
 10
-31.12804071
 20
43.64134372
 30
0.0
 11
-31.45788971
 21
43.60365472
 31
0.0
  0
LINE
  5
5E
100
AcDbEntity
  8
0
  6
CONTINUOUS
 62
       3
100
AcDbLine
 10
-31.45788971
 20
43.60365472
 30
0.0
 11
-31.81365571
 21
43.56105272
 31
0.0
  0
LINE
  5
5F
100
AcDbEntity
  8
0
  6
CONTINUOUS
 62
       3
100
AcDbLine
 10
-31.81365571
 20
43.56105272
 30
0.0
 11
-32.19124271
 21
43.51834272
 31
0.0
  0
LINE
  5
60
100
AcDbEntity
  8
0
  6
CONTINUOUS
 62
       3
100
AcDbLine
 10
-32.19124271
 20
43.51834272
 30
0.0
 11
-32.38695971
 21
43.49856772
 31
0.0
  0
LINE
  5
61
100
AcDbEntity
  8
0
  6
CONTINUOUS
 62
       3
100
AcDbLine
 10
-32.38695971
 20
43.49856772
 30
0.0
 11
-32.58663571
 21
43.48074572
 31
0.0
  0
LINE
  5
62
100
AcDbEntity
  8
0
  6
CONTINUOUS
 62
       3
100
AcDbLine
 10
-32.58663571
 20
43.48074572
 30
0.0
 11
-32.78975271
 21
43.46557772
 31
0.0
  0
LINE
  5
63
100
AcDbEntity
  8
0
  6
CONTINUOUS
 62
       3
100
AcDbLine
 10
-32.78975271
 20
43.46557772
 30
0.0
 11
-32.99576971
 21
43.45381372
 31
0.0
  0
LINE
  5
64
100
AcDbEntity
  8
0
  6
CONTINUOUS
 62
       3
100
AcDbLine
 10
-32.99576971
 20
43.45381372
 30
0.0
 11
-33.20412071
 21
43.44618472
 31
0.0
  0
LINE
  5
65
100
AcDbEntity
  8
0
  6
CONTINUOUS
 62
       3
100
AcDbLine
 10
-33.20412071
 20
43.44618472
 30
0.0
 11
-33.41421171
 21
43.44346772
 31
0.0
  0
ENDBLK
  5
66
100
AcDbEntity
  8
0
100
AcDbBlockEnd
  0
BLOCK
  5
67
100
AcDbEntity
  8
0
100
AcDbBlockBegin
  2
GROUP_2
 70
       0
 10
0.0
 20
0.0
 30
0.0
  3
GROUP_2
  1

  0
LINE
  5
68
100
AcDbEntity
  8
0
  6
CONTINUOUS
 62
       3
100
AcDbLine
 10
-30.23611071
 20
43.68443472
 30
0.0
 11
-30.15300371
 21
43.67726372
 31
0.0
  0
LINE
  5
69
100
AcDbEntity
  8
0
  6
CONTINUOUS
 62
       3
100
AcDbLine
 10
-30.15300371
 20
43.67726372
 30
0.0
 11
-30.07940271
 21
43.66717772
 31
0.0
  0
LINE
  5
6A
100
AcDbEntity
  8
0
  6
CONTINUOUS
 62
       3
100
AcDbLine
 10
-30.07940271
 20
43.66717772
 30
0.0
 11
-30.01545371
 21
43.65446672
 31
0.0
  0
LINE
  5
6B
100
AcDbEntity
  8
0
  6
CONTINUOUS
 62
       3
100
AcDbLine
 10
-30.01545371
 20
43.65446672
 30
0.0
 11
-29.96127671
 21
43.63942172
 31
0.0
  0
LINE
  5
6C
100
AcDbEntity
  8
0
  6
CONTINUOUS
 62
       3
100
AcDbLine
 10
-29.96127671
 20
43.63942172
 30
0.0
 11
-29.91694271
 21
43.62240772
 31
0.0
  0
LINE
  5
6D
100
AcDbEntity
  8
0
  6
CONTINUOUS
 62
       3
100
AcDbLine
 10
-29.91694271
 20
43.62240772
 30
0.0
 11
-29.88249571
 21
43.60385372
 31
0.0
  0
LINE
  5
6E
100
AcDbEntity
  8
0
  6
CONTINUOUS
 62
       3
100
AcDbLine
 10
-29.88249571
 20
43.60385372
 30
0.0
 11
-29.86967071
 21
43.59471372
 31
0.0
  0
LINE
  5
6F
100
AcDbEntity
  8
0
  6
CONTINUOUS
 62
       3
100
AcDbLine
 10
-29.86967071
 20
43.59471372
 30
0.0
 11
-29.85792171
 21
43.58419972
 31
0.0
  0
LINE
  5
70
100
AcDbEntity
  8
0
  6
CONTINUOUS
 62
       3
100
AcDbLine
 10
-29.85792171
 20
43.58419972
 30
0.0
 11
-29.84971971
 21
43.57466372
 31
0.0
  0
LINE
  5
71
100
AcDbEntity
  8
0
  6
CONTINUOUS
 62
       3
100
AcDbLine
 10
-29.84971971
 20
43.57466372
 30
0.0
 11
-29.84321271
 21
43.56393672
 31
0.0
  0
LINE
  5
72
100
AcDbEntity
  8
0
  6
CONTINUOUS
 62
       3
100
AcDbLine
 10
-29.84321271
 20
43.56393672
 30
0.0
 11
-29.83964171
 21
43.55404872
 31
0.0
  0
LINE
  5
73
100
AcDbEntity
  8
0
  6
CONTINUOUS
 62
       3
100
AcDbLine
 10
-29.83964171
 20
43.55404872
 30
0.0
 11
-29.83832971
 21
43.54358072
 31
0.0
  0
ENDBLK
  5
74
100
AcDbEntity
  8
0
100
AcDbBlockEnd
  0
BLOCK
  5
75
100
AcDbEntity
  8
0
100
AcDbBlockBegin
  2
GROUP_3
 70
       0
 10
0.0
 20
0.0
 30
0.0
  3
GROUP_3
  1

  0
LINE
  5
76
100
AcDbEntity
  8
0
  6
CONTINUOUS
 62
       3
100
AcDbLine
 10
-29.83832971
 20
43.54358072
 30
0.0
 11
-29.83960371
 21
43.53335772
 31
0.0
  0
LINE
  5
77
100
AcDbEntity
  8
0
  6
CONTINUOUS
 62
       3
100
AcDbLine
 10
-29.83960371
 20
43.53335772
 30
0.0
 11
-29.84314371
 21
43.52372972
 31
0.0
  0
LINE
  5
78
100
AcDbEntity
  8
0
  6
CONTINUOUS
 62
       3
100
AcDbLine
 10
-29.84314371
 20
43.52372972
 30
0.0
 11
-29.84949171
 21
43.51367372
 31
0.0
  0
LINE
  5
79
100
AcDbEntity
  8
0
  6
CONTINUOUS
 62
       3
100
AcDbLine
 10
-29.84949171
 20
43.51367372
 30
0.0
 11
-29.85754071
 21
43.50483872
 31
0.0
  0
LINE
  5
7A
100
AcDbEntity
  8
0
  6
CONTINUOUS
 62
       3
100
AcDbLine
 10
-29.85754071
 20
43.50483872
 30
0.0
 11
-29.86896171
 21
43.49543972
 31
0.0
  0
LINE
  5
7B
100
AcDbEntity
  8
0
  6
CONTINUOUS
 62
       3
100
AcDbLine
 10
-29.86896171
 20
43.49543972
 30
0.0
 11
-29.88142071
 21
43.48747472
 31
0.0
  0
LINE
  5
7C
100
AcDbEntity
  8
0
  6
CONTINUOUS
 62
       3
100
AcDbLine
 10
-29.88142071
 20
43.48747472
 30
0.0
 11
-29.91468471
 21
43.47216972
 31
0.0
  0
LINE
  5
7D
100
AcDbEntity
  8
0
  6
CONTINUOUS
 62
       3
100
AcDbLine
 10
-29.91468471
 20
43.47216972
 30
0.0
 11
-29.95719571
 21
43.45953572
 31
0.0
  0
LINE
  5
7E
100
AcDbEntity
  8
0
  6
CONTINUOUS
 62
       3
100
AcDbLine
 10
-29.95719571
 20
43.45953572
 30
0.0
 11
-30.00880871
 21
43.45015172
 31
0.0
  0
LINE
  5
7F
100
AcDbEntity
  8
0
  6
CONTINUOUS
 62
       3
100
AcDbLine
 10
-30.00880871
 20
43.45015172
 30
0.0
 11
-30.06934771
 21
43.44465872
 31
0.0
  0
ENDBLK
  5
80
100
AcDbEntity
  8
0
100
AcDbBlockEnd
  0
BLOCK
  5
81
100
AcDbEntity
  8
0
100
AcDbBlockBegin
  2
GROUP_4
 70
       0
 10
0.0
 20
0.0
 30
0.0
  3
GROUP_4
  1

  0
LINE
  5
82
100
AcDbEntity
  8
0
  6
CONTINUOUS
 62
       3
100
AcDbLine
 10
-54.68102671
 20
43.44346772
 30
0.0
 11
-54.89455071
 21
43.44627572
 31
0.0
  0
LINE
  5
83
100
AcDbEntity
  8
0
  6
CONTINUOUS
 62
       3
100
AcDbLine
 10
-54.89455071
 20
43.44627572
 30
0.0
 11
-55.10627371
 21
43.45413372
 31
0.0
  0
LINE
  5
84
100
AcDbEntity
  8
0
  6
CONTINUOUS
 62
       3
100
AcDbLine
 10
-55.10627371
 20
43.45413372
 30
0.0
 11
-55.31556371
 21
43.46624972
 31
0.0
  0
LINE
  5
85
100
AcDbEntity
  8
0
  6
CONTINUOUS
 62
       3
100
AcDbLine
 10
-55.31556371
 20
43.46624972
 30
0.0
 11
-55.52182771
 21
43.48182872
 31
0.0
  0
LINE
  5
86
100
AcDbEntity
  8
0
  6
CONTINUOUS
 62
       3
100
AcDbLine
 10
-55.52182771
 20
43.48182872
 30
0.0
 11
-55.72449871
 21
43.50012372
 31
0.0
  0
LINE
  5
87
100
AcDbEntity
  8
0
  6
CONTINUOUS
 62
       3
100
AcDbLine
 10
-55.72449871
 20
43.50012372
 30
0.0
 11
-55.92304271
 21
43.52037272
 31
0.0
  0
LINE
  5
88
100
AcDbEntity
  8
0
  6
CONTINUOUS
 62
       3
100
AcDbLine
 10
-55.92304271
 20
43.52037272
 30
0.0
 11
-56.30569071
 21
43.56392072
 31
0.0
  0
LINE
  5
89
100
AcDbEntity
  8
0
  6
CONTINUOUS
 62
       3
100
AcDbLine
 10
-56.30569071
 20
43.56392072
 30
0.0
 11
-56.66557671
 21
43.60701172
 31
0.0
  0
LINE
  5
8A
100
AcDbEntity
  8
0
  6
CONTINUOUS
 62
       3
100
AcDbLine
 10
-56.66557671
 20
43.60701172
 30
0.0
 11
-56.99832571
 21
43.64463972
 31
0.0
  0
LINE
  5
8B
100
AcDbEntity
  8
0
  6
CONTINUOUS
 62
       3
100
AcDbLine
 10
-56.99832571
 20
43.64463972
 30
0.0
 11
-57.15314871
 21
43.66003572
 31
0.0
  0
LINE
  5
8C
100
AcDbEntity
  8
0
  6
CONTINUOUS
 62
       3
100
AcDbLine
 10
-57.15314871
 20
43.66003572
 30
0.0
 11
-57.29955671
 21
43.67254872
 31
0.0
  0
LINE
  5
8D
100
AcDbEntity
  8
0
  6
CONTINUOUS
 62
       3
100
AcDbLine
 10
-57.29955671
 20
43.67254872
 30
0.0
 11
-57.43703471
 21
43.68179472
 31
0.0
  0
LINE
  5
8E
100
AcDbEntity
  8
0
  6
CONTINUOUS
 62
       3
100
AcDbLine
 10
-57.43703471
 20
43.68179472
 30
0.0
 11
-57.56507471
 21
43.68751772
 31
0.0
  0
LINE
  5
8F
100
AcDbEntity
  8
0
  6
CONTINUOUS
 62
       3
100
AcDbLine
 10
-57.56507471
 20
43.68751772
 30
0.0
 11
-57.68321271
 21
43.68953172
 31
0.0
  0
LINE
  5
90
100
AcDbEntity
  8
0
  6
CONTINUOUS
 62
       3
100
AcDbLine
 10
-57.68321271
 20
43.68953172
 30
0.0
 11
-57.79102771
 21
43.68780672
 31
0.0
  0
LINE
  5
91
100
AcDbEntity
  8
0
  6
CONTINUOUS
 62
       3
100
AcDbLine
 10
-57.79102771
 20
43.68780672
 30
0.0
 11
-57.88814971
 21
43.68235972
 31
0.0
  0
LINE
  5
92
100
AcDbEntity
  8
0
  6
CONTINUOUS
 62
       3
100
AcDbLine
 10
-57.88814971
 20
43.68235972
 30
0.0
 11
-57.97427771
 21
43.67337272
 31
0.0
  0
LINE
  5
93
100
AcDbEntity
  8
0
  6
CONTINUOUS
 62
       3
100
AcDbLine
 10
-57.97427771
 20
43.67337272
 30
0.0
 11
-58.04917971
 21
43.66110472
 31
0.0
  0
LINE
  5
94
100
AcDbEntity
  8
0
  6
CONTINUOUS
 62
       3
100
AcDbLine
 10
-58.04917971
 20
43.66110472
 30
0.0
 11
-58.11268271
 21
43.64592172
 31
0.0
  0
LINE
  5
95
100
AcDbEntity
  8
0
  6
CONTINUOUS
 62
       3
100
AcDbLine
 10
-58.11268271
 20
43.64592172
 30
0.0
 11
-58.16467271
 21
43.62825172
 31
0.0
  0
LINE
  5
96
100
AcDbEntity
  8
0
  6
CONTINUOUS
 62
       3
100
AcDbLine
 10
-58.16467271
 20
43.62825172
 30
0.0
 11
-58.18524971
 21
43.61917272
 31
0.0
  0
LINE
  5
97
100
AcDbEntity
  8
0
  6
CONTINUOUS
 62
       3
100
AcDbLine
 10
-58.18524971
 20
43.61917272
 30
0.0
 11
-58.20509371
 21
43.60859872
 31
0.0
  0
LINE
  5
98
100
AcDbEntity
  8
0
  6
CONTINUOUS
 62
       3
100
AcDbLine
 10
-58.20509371
 20
43.60859872
 30
0.0
 11
-58.22007771
 21
43.59884872
 31
0.0
  0
LINE
  5
99
100
AcDbEntity
  8
0
  6
CONTINUOUS
 62
       3
100
AcDbLine
 10
-58.22007771
 20
43.59884872
 30
0.0
 11
-58.23392171
 21
43.58752672
 31
0.0
  0
LINE
  5
9A
100
AcDbEntity
  8
0
  6
CONTINUOUS
 62
       3
100
AcDbLine
 10
-58.23392171
 20
43.58752672
 30
0.0
 11
-58.24350371
 21
43.57730272
 31
0.0
  0
LINE
  5
9B
100
AcDbEntity
  8
0
  6
CONTINUOUS
 62
       3
100
AcDbLine
 10
-58.24350371
 20
43.57730272
 30
0.0
 11
-58.25117471
 21
43.56562972
 31
0.0
  0
LINE
  5
9C
100
AcDbEntity
  8
0
  6
CONTINUOUS
 62
       3
100
AcDbLine
 10
-58.25117471
 20
43.56562972
 30
0.0
 11
-58.25535571
 21
43.55494872
 31
0.0
  0
LINE
  5
9D
100
AcDbEntity
  8
0
  6
CONTINUOUS
 62
       3
100
AcDbLine
 10
-58.25535571
 20
43.55494872
 30
0.0
 11
-58.25691271
 21
43.54358072
 31
0.0
  0
ENDBLK
  5
9E
100
AcDbEntity
  8
0
100
AcDbBlockEnd
  0
BLOCK
  5
9F
100
AcDbEntity
  8
0
100
AcDbBlockBegin
  2
GROUP_5
 70
       0
 10
0.0
 20
0.0
 30
0.0
  3
GROUP_5
  1

  0
LINE
  5
A0
100
AcDbEntity
  8
0
  6
CONTINUOUS
 62
       3
100
AcDbLine
 10
-58.25691271
 20
43.54358072
 30
0.0
 11
-58.25513471
 21
43.53160272
 31
0.0
  0
LINE
  5
A1
100
AcDbEntity
  8
0
  6
CONTINUOUS
 62
       3
100
AcDbLine
 10
-58.25513471
 20
43.53160272
 30
0.0
 11
-58.25035871
 21
43.52050972
 31
0.0
  0
LINE
  5
A2
100
AcDbEntity
  8
0
  6
CONTINUOUS
 62
       3
100
AcDbLine
 10
-58.25035871
 20
43.52050972
 30
0.0
 11
-58.24162671
 21
43.50877572
 31
0.0
  0
LINE
  5
A3
100
AcDbEntity
  8
0
  6
CONTINUOUS
 62
       3
100
AcDbLine
 10
-58.24162671
 20
43.50877572
 30
0.0
 11
-58.23078571
 21
43.49885772
 31
0.0
  0
LINE
  5
A4
100
AcDbEntity
  8
0
  6
CONTINUOUS
 62
       3
100
AcDbLine
 10
-58.23078571
 20
43.49885772
 30
0.0
 11
-58.21513371
 21
43.48822172
 31
0.0
  0
LINE
  5
A5
100
AcDbEntity
  8
0
  6
CONTINUOUS
 62
       3
100
AcDbLine
 10
-58.21513371
 20
43.48822172
 30
0.0
 11
-58.19834871
 21
43.47952472
 31
0.0
  0
LINE
  5
A6
100
AcDbEntity
  8
0
  6
CONTINUOUS
 62
       3
100
AcDbLine
 10
-58.19834871
 20
43.47952472
 30
0.0
 11
-58.17612071
 21
43.47055272
 31
0.0
  0
LINE
  5
A7
100
AcDbEntity
  8
0
  6
CONTINUOUS
 62
       3
100
AcDbLine
 10
-58.17612071
 20
43.47055272
 30
0.0
 11
-58.15322471
 21
43.46341172
 31
0.0
  0
LINE
  5
A8
100
AcDbEntity
  8
0
  6
CONTINUOUS
 62
       3
100
AcDbLine
 10
-58.15322471
 20
43.46341172
 30
0.0
 11
-58.12461471
 21
43.45655972
 31
0.0
  0
LINE
  5
A9
100
AcDbEntity
  8
0
  6
CONTINUOUS
 62
       3
100
AcDbLine
 10
-58.12461471
 20
43.45655972
 30
0.0
 11
-58.09564571
 21
43.45146372
 31
0.0
  0
LINE
  5
AA
100
AcDbEntity
  8
0
  6
CONTINUOUS
 62
       3
100
AcDbLine
 10
-58.09564571
 20
43.45146372
 30
0.0
 11
-58.02587871
 21
43.44465872
 31
0.0
  0
ENDBLK
  5
AB
100
AcDbEntity
  8
0
100
AcDbBlockEnd
  0
BLOCK
  5
AC
100
AcDbEntity
  8
0
100
AcDbBlockBegin
  2
GROUP_6
 70
       0
 10
0.0
 20
0.0
 30
0.0
  3
GROUP_6
  1

  0
LINE
  5
AD
100
AcDbEntity
  8
0
  6
CONTINUOUS
 62
       3
100
AcDbLine
 10
-26.59798071
 20
39.54550372
 30
0.0
 11
-26.29388071
 21
39.60739372
 31
0.0
  0
LINE
  5
AE
100
AcDbEntity
  8
0
  6
CONTINUOUS
 62
       3
100
AcDbLine
 10
-26.29388071
 20
39.60739372
 30
0.0
 11
-26.15897771
 21
39.63722472
 31
0.0
  0
LINE
  5
AF
100
AcDbEntity
  8
0
  6
CONTINUOUS
 62
       3
100
AcDbLine
 10
-26.15897771
 20
39.63722472
 30
0.0
 11
-26.11310971
 21
39.64880572
 31
0.0
  0
LINE
  5
B0
100
AcDbEntity
  8
0
  6
CONTINUOUS
 62
       3
100
AcDbLine
 10
-26.11310971
 20
39.64880572
 30
0.0
 11
-26.09917871
 21
39.65329172
 31
0.0
  0
LINE
  5
B1
100
AcDbEntity
  8
0
  6
CONTINUOUS
 62
       3
100
AcDbLine
 10
-26.09917871
 20
39.65329172
 30
0.0
 11
-26.09748471
 21
39.65406972
 31
0.0
  0
LINE
  5
B2
100
AcDbEntity
  8
0
  6
CONTINUOUS
 62
       3
100
AcDbLine
 10
-26.09748471
 20
39.65406972
 30
0.0
 11
-26.09614171
 21
39.65521472
 31
0.0
  0
ENDBLK
  5
B3
100
AcDbEntity
  8
0
100
AcDbBlockEnd
  0
BLOCK
  5
B4
100
AcDbEntity
  8
0
100
AcDbBlockBegin
  2
GROUP_7
 70
       0
 10
0.0
 20
0.0
 30
0.0
  3
GROUP_7
  1

  0
LINE
  5
B5
100
AcDbEntity
  8
0
  6
CONTINUOUS
 62
       3
100
AcDbLine
 10
-61.49725771
 20
39.54550372
 30
0.0
 11
-61.79790871
 21
39.60666072
 31
0.0
  0
LINE
  5
B6
100
AcDbEntity
  8
0
  6
CONTINUOUS
 62
       3
100
AcDbLine
 10
-61.79790871
 20
39.60666072
 30
0.0
 11
-61.93717971
 21
39.63743772
 31
0.0
  0
LINE
  5
B7
100
AcDbEntity
  8
0
  6
CONTINUOUS
 62
       3
100
AcDbLine
 10
-61.93717971
 20
39.63743772
 30
0.0
 11
-61.98190671
 21
39.64874472
 31
0.0
  0
LINE
  5
B8
100
AcDbEntity
  8
0
  6
CONTINUOUS
 62
       3
100
AcDbLine
 10
-61.98190671
 20
39.64874472
 30
0.0
 11
-61.99490771
 21
39.65283372
 31
0.0
  0
LINE
  5
B9
100
AcDbEntity
  8
0
  6
CONTINUOUS
 62
       3
100
AcDbLine
 10
-61.99490771
 20
39.65283372
 30
0.0
 11
-61.99724171
 21
39.65381072
 31
0.0
  0
LINE
  5
BA
100
AcDbEntity
  8
0
  6
CONTINUOUS
 62
       3
100
AcDbLine
 10
-61.99724171
 20
39.65381072
 30
0.0
 11
-61.99909571
 21
39.65521472
 31
0.0
  0
ENDBLK
  5
BB
100
AcDbEntity
  8
0
100
AcDbBlockEnd
  0
BLOCK
  5
BC
100
AcDbEntity
  8
0
100
AcDbBlockBegin
  2
DA_IMAGEDIMGROUP_1
 70
       0
 10
0.0
 20
0.0
 30
0.0
  3
DA_IMAGEDIMGROUP_1
  1

  0
LINE
  5
BD
100
AcDbEntity
  8
0
  6
CONTINUOUS
 62
       9
100
AcDbLine
 10
-53.85584241
 20
-10.75652828
 30
0.0
 11
-53.85584241
 21
44.24347253
 31
0.0
  0
INSERT
  5
BE
100
AcDbEntity
  8
0
  6
CONTINUOUS
 62
       9
100
AcDbBlockReference
  2
_OPEN30
 10
-53.85584241
 20
-10.75652828
 30
0.0
 41
3.00000279
 42
2.99998927
 50
270.0
  0
INSERT
  5
BF
100
AcDbEntity
  8
0
  6
CONTINUOUS
 62
       9
100
AcDbBlockReference
  2
_OPEN30
 10
-53.85584241
 20
44.24347253
 30
0.0
 41
3.00000279
 42
2.99998927
 50
90.0
  0
LINE
  5
C0
100
AcDbEntity
  8
0
  6
CONTINUOUS
 62
       9
100
AcDbLine
 10
-47.54761871
 20
-10.75652828
 30
0.0
 11
-55.85584241
 21
-10.75652828
 31
0.0
  0
LINE
  5
C1
100
AcDbEntity
  8
0
  6
CONTINUOUS
 62
       9
100
AcDbLine
 10
-50.64069371
 20
44.24347253
 30
0.0
 11
-55.85584241
 21
44.24347253
 31
0.0
  0
TEXT
  5
C2
100
AcDbEntity
  8
0
 62
       7
100
AcDbText
 10
-54.85584241
 20
13.54347212
 30
0.0
 40
4.0
  1
55
 50
90.0
 41
0.8
 72
       5
 11
-54.85584241
 21
19.94347212
 31
0.0
100
AcDbText
  0
ENDBLK
  5
C3
100
AcDbEntity
  8
0
100
AcDbBlockEnd
  0
BLOCK
  5
C4
100
AcDbEntity
  8
0
100
AcDbBlockBegin
  2
_OPEN30
 70
       0
 10
0.0
 20
0.0
 30
0.0
  3
_OPEN30
  1

  0
LINE
  5
C5
100
AcDbEntity
  8
0
  6
CONTINUOUS
 62
       0
100
AcDbLine
 10
0.0
 20
0.0
 30
0.0
 11
-0.96592583
 21
0.25881905
 31
0.0
  0
LINE
  5
C6
100
AcDbEntity
  8
0
  6
CONTINUOUS
 62
       0
100
AcDbLine
 10
0.0
 20
0.0
 30
0.0
 11
-0.96592583
 21
-0.25881905
 31
0.0
  0
LINE
  5
C7
100
AcDbEntity
  8
0
  6
CONTINUOUS
 62
       0
100
AcDbLine
 10
0.0
 20
0.0
 30
0.0
 11
-1.0
 21
0.0
 31
0.0
  0
ENDBLK
  5
C8
100
AcDbEntity
  8
0
100
AcDbBlockEnd
  0
BLOCK
  5
C9
100
AcDbEntity
  8
0
100
AcDbBlockBegin
  2
DA_IMAGEDIMGROUP_2
 70
       0
 10
0.0
 20
0.0
 30
0.0
  3
DA_IMAGEDIMGROUP_2
  1

  0
LINE
  5
CA
100
AcDbEntity
  8
0
  6
CONTINUOUS
 62
       9
100
AcDbLine
 10
-74.0476202
 20
58.94346872
 30
0.0
 11
-74.0476202
 21
71.3498246
 31
0.0
  0
LINE
  5
CB
100
AcDbEntity
  8
0
  6
CONTINUOUS
 62
       9
100
AcDbLine
 10
-14.04761871
 20
58.94346872
 30
0.0
 11
-14.04761871
 21
71.3498246
 31
0.0
  0
LINE
  5
CC
100
AcDbEntity
  8
0
  6
CONTINUOUS
 62
       9
100
AcDbLine
 10
-74.0476202
 20
70.3498246
 30
0.0
 11
-14.04761871
 21
70.3498246
 31
0.0
  0
INSERT
  5
CD
100
AcDbEntity
  8
0
  6
CONTINUOUS
 62
       9
100
AcDbBlockReference
  2
_OPEN30
 10
-74.0476202
 20
70.3498246
 30
0.0
 41
3.00000279
 42
2.99998927
 50
180.0
  0
INSERT
  5
CE
100
AcDbEntity
  8
0
  6
CONTINUOUS
 62
       9
100
AcDbBlockReference
  2
_OPEN30
 10
-14.04761871
 20
70.3498246
 30
0.0
 41
3.00000279
 42
2.99998927
 50
360.0
  0
TEXT
  5
CF
100
AcDbEntity
  8
0
 62
       7
100
AcDbText
 10
-48.84761946
 20
71.3498246
 30
0.0
 40
4.0
  1
φ60
 41
0.8
 72
       5
 11
-39.24761946
 21
71.3498246
 31
0.0
100
AcDbText
  0
ENDBLK
  5
D0
100
AcDbEntity
  8
0
100
AcDbBlockEnd
  0
BLOCK
  5
D1
100
AcDbEntity
  8
0
100
AcDbBlockBegin
  2
DA_IMAGEDIMGROUP_3
 70
       0
 10
0.0
 20
0.0
 30
0.0
  3
DA_IMAGEDIMGROUP_3
  1

  0
LINE
  5
D2
100
AcDbEntity
  8
0
  6
CONTINUOUS
 62
       9
100
AcDbLine
 10
-64.76375571
 20
-31.59941598
 30
0.0
 11
-23.34762171
 21
-31.59941598
 31
0.0
  0
INSERT
  5
D3
100
AcDbEntity
  8
0
  6
CONTINUOUS
 62
       9
100
AcDbBlockReference
  2
_OPEN30
 10
-64.76375571
 20
-31.59941598
 30
0.0
 41
3.00000279
 42
2.99998927
 50
180.0
  0
INSERT
  5
D4
100
AcDbEntity
  8
0
  6
CONTINUOUS
 62
       9
100
AcDbBlockReference
  2
_OPEN30
 10
-23.34762171
 20
-31.59941598
 30
0.0
 41
3.00000279
 42
2.99998927
 50
360.0
  0
LINE
  5
D5
100
AcDbEntity
  8
0
  6
CONTINUOUS
 62
       9
100
AcDbLine
 10
-64.76375571
 20
31.43181072
 30
0.0
 11
-64.76375571
 21
-32.59941598
 31
0.0
  0
LINE
  5
D6
100
AcDbEntity
  8
0
  6
CONTINUOUS
 62
       9
100
AcDbLine
 10
-23.34762171
 20
31.35679872
 30
0.0
 11
-23.34762171
 21
-32.59941598
 31
0.0
  0
TEXT
  5
D7
100
AcDbEntity
  8
0
 62
       9
100
AcDbText
 10
-53.65568871
 20
-30.59941598
 30
0.0
 40
4.0
  1
G1 1/4
 41
0.8
 72
       5
 11
-34.45568871
 21
-30.59941598
 31
0.0
100
AcDbText
  0
ENDBLK
  5
D8
100
AcDbEntity
  8
0
100
AcDbBlockEnd
  0
BLOCK
  5
D9
100
AcDbEntity
  8
0
100
AcDbBlockBegin
  2
DA_IMAGEDIMGROUP_4
 70
       0
 10
0.0
 20
0.0
 30
0.0
  3
DA_IMAGEDIMGROUP_4
  1

  0
LINE
  5
DA
100
AcDbEntity
  8
0
  6
CONTINUOUS
 62
       9
100
AcDbLine
 10
-47.04761871
 20
-20.96894017
 30
0.0
 11
-41.04761871
 21
-20.96894017
 31
0.0
  0
LINE
  5
DB
100
AcDbEntity
  8
0
  6
CONTINUOUS
 62
       9
100
AcDbLine
 10
-47.04761871
 20
-11.25652828
 30
0.0
 11
-47.04761871
 21
-21.96894017
 31
0.0
  0
LINE
  5
DC
100
AcDbEntity
  8
0
  6
CONTINUOUS
 62
       9
100
AcDbLine
 10
-41.04761871
 20
-11.25652828
 30
0.0
 11
-41.04761871
 21
-21.96894017
 31
0.0
  0
LINE
  5
DD
100
AcDbEntity
  8
0
  6
CONTINUOUS
 62
       9
100
AcDbLine
 10
-29.74983871
 20
-20.96894017
 30
0.0
 11
-41.04761871
 21
-20.96894017
 31
0.0
  0
INSERT
  5
DE
100
AcDbEntity
  8
0
  6
CONTINUOUS
 62
       9
100
AcDbBlockReference
  2
_OPEN30
 10
-41.04761871
 20
-20.96894017
 30
0.0
 41
3.00000279
 42
2.99998927
 50
180.0
  0
LINE
  5
DF
100
AcDbEntity
  8
0
  6
CONTINUOUS
 62
       9
100
AcDbLine
 10
-52.04761871
 20
-20.96894017
 30
0.0
 11
-47.04761871
 21
-20.96894017
 31
0.0
  0
INSERT
  5
E0
100
AcDbEntity
  8
0
  6
CONTINUOUS
 62
       9
100
AcDbBlockReference
  2
_OPEN30
 10
-47.04761871
 20
-20.96894017
 30
0.0
 41
3.00000279
 42
2.99998927
 50
360.0
  0
TEXT
  5
E1
100
AcDbEntity
  8
0
 62
       9
100
AcDbText
 10
-37.14983871
 20
-19.96894017
 30
0.0
 40
4.0
  1
M6
 41
0.8
 72
       5
 11
-30.74983871
 21
-19.96894017
 31
0.0
100
AcDbText
  0
ENDBLK
  5
E2
100
AcDbEntity
  8
0
100
AcDbBlockEnd
  0
BLOCK
  5
E3
100
AcDbEntity
  8
0
100
AcDbBlockBegin
  2
DA_IMAGEDIMGROUP_5
 70
       0
 10
0.0
 20
0.0
 30
0.0
  3
DA_IMAGEDIMGROUP_5
  1

  0
LINE
  5
E4
100
AcDbEntity
  8
LAYER0016
  6
CONTINUOUS
 62
       9
100
AcDbLine
 10
19.65374662
 20
-23.60138293
 30
0.0
 11
19.65374662
 21
-7.35138293
 31
0.0
  0
INSERT
  5
E5
100
AcDbEntity
  8
LAYER0016
  6
CONTINUOUS
 62
       9
100
AcDbBlockReference
  2
_OPEN30
 10
19.65374662
 20
-23.60138293
 30
0.0
 41
3.00000279
 42
2.99998927
 50
270.0
  0
INSERT
  5
E6
100
AcDbEntity
  8
LAYER0016
  6
CONTINUOUS
 62
       9
100
AcDbBlockReference
  2
_OPEN30
 10
19.65374662
 20
-7.35138293
 30
0.0
 41
3.00000279
 42
2.99998927
 50
90.0
  0
LINE
  5
E7
100
AcDbEntity
  8
LAYER0016
  6
CONTINUOUS
 62
       9
100
AcDbLine
 10
41.03518295
 20
-23.60138293
 30
0.0
 11
18.65374662
 21
-23.60138293
 31
0.0
  0
LINE
  5
E8
100
AcDbEntity
  8
LAYER0016
  6
CONTINUOUS
 62
       9
100
AcDbLine
 10
42.55662431
 20
-7.35138293
 30
0.0
 11
18.65374662
 21
-7.35138293
 31
0.0
  0
TEXT
  5
E9
100
AcDbEntity
  8
LAYER0016
 62
       9
100
AcDbText
 10
18.65374662
 20
-25.57638293
 30
0.0
 40
4.0
  1
最大50mm
 50
90.0
 41
0.6571
 72
       5
 11
18.65374662
 21
-6.37638293
 31
0.0
100
AcDbText
  0
ENDBLK
  5
EA
100
AcDbEntity
  8
0
100
AcDbBlockEnd
  0
BLOCK
  5
EB
100
AcDbEntity
  8
0
100
AcDbBlockBegin
  2
GROUP_8
 70
       0
 10
0.0
 20
0.0
 30
0.0
  3
GROUP_8
  1

  0
ARC
  5
EC
100
AcDbEntity
  8
LAYER0016
  6
CONTINUOUS
 62
       9
100
AcDbCircle
 10
18.92439971
 20
2.66390322
 30
0.0
 40
8.08252879
100
AcDbArc
 50
302.44490961
 51
388.67551663
  0
ARC
  5
ED
100
AcDbEntity
  8
LAYER0016
  6
CONTINUOUS
 62
       9
100
AcDbCircle
 10
29.44067121
 20
9.44858373
 30
0.0
 40
4.49193945
100
AcDbArc
 50
97.8707487
 51
220.31588303
  0
ARC
  5
EE
100
AcDbEntity
  8
LAYER0016
  6
CONTINUOUS
 62
       9
100
AcDbCircle
 10
25.24783678
 20
-40.05244089
 30
0.0
 40
54.06914488
100
AcDbArc
 50
72.31435326
 51
86.20601062
  0
ARC
  5
EF
100
AcDbEntity
  8
LAYER0016
  6
CONTINUOUS
 62
       9
100
AcDbCircle
 10
52.21443089
 20
51.34610462
 30
0.0
 40
41.25416843
100
AcDbArc
 50
255.19642533
 51
272.66312828
  0
ARC
  5
F0
100
AcDbEntity
  8
LAYER0016
  6
CONTINUOUS
 62
       9
100
AcDbCircle
 10
43.80806045
 20
149.18201091
 30
0.0
 40
139.42820631
100
AcDbArc
 50
274.24603373
 51
278.49241801
  0
ARC
  5
F1
100
AcDbEntity
  8
LAYER0016
  6
CONTINUOUS
 62
       9
100
AcDbCircle
 10
71.59229722
 20
-46.59277994
 30
0.0
 40
58.32071708
100
AcDbArc
 50
86.66616725
 51
97.08530549
  0
ARC
  5
F2
100
AcDbEntity
  8
LAYER0016
  6
CONTINUOUS
 62
       9
100
AcDbCircle
 10
73.26059955
 20
-27.48529784
 30
0.0
 40
39.15247792
100
AcDbArc
 50
70.00668689
 51
87.47737432
  0
ARC
  5
F3
100
AcDbEntity
  8
LAYER0016
  6
CONTINUOUS
 62
       9
100
AcDbCircle
 10
83.27004893
 20
4.05092559
 30
0.0
 40
6.24801004
100
AcDbArc
 50
320.85994928
 51
417.28075489
  0
ARC
  5
F4
100
AcDbEntity
  8
LAYER0016
  6
CONTINUOUS
 62
       9
100
AcDbCircle
 10
98.39023936
 20
-6.11272218
 30
0.0
 40
12.01020347
100
AcDbArc
 50
148.81014554
 51
189.01539425
  0
ENDBLK
  5
F5
100
AcDbEntity
  8
0
100
AcDbBlockEnd
  0
BLOCK
  5
F6
100
AcDbEntity
  8
0
100
AcDbBlockBegin
  2
DA_IMAGEDIMGROUP_6
 70
       0
 10
0.0
 20
0.0
 30
0.0
  3
DA_IMAGEDIMGROUP_6
  1

  0
LINE
  5
F7
100
AcDbEntity
  8
0
  6
CONTINUOUS
 62
       9
100
AcDbLine
 10
-76.54761871
 20
48.85679872
 30
0.0
 11
-76.54761871
 21
81.02058
 31
0.0
  0
LINE
  5
F8
100
AcDbEntity
  8
0
  6
CONTINUOUS
 62
       9
100
AcDbLine
 10
-11.54761871
 20
48.85679872
 30
0.0
 11
-11.54761871
 21
81.02058
 31
0.0
  0
LINE
  5
F9
100
AcDbEntity
  8
0
  6
CONTINUOUS
 62
       9
100
AcDbLine
 10
-76.54761871
 20
80.02058
 30
0.0
 11
-11.54761871
 21
80.02058
 31
0.0
  0
INSERT
  5
FA
100
AcDbEntity
  8
0
  6
CONTINUOUS
 62
       9
100
AcDbBlockReference
  2
_OPEN30
 10
-76.54761871
 20
80.02058
 30
0.0
 41
3.00000279
 42
2.99998927
 50
180.0
  0
INSERT
  5
FB
100
AcDbEntity
  8
0
  6
CONTINUOUS
 62
       9
100
AcDbBlockReference
  2
_OPEN30
 10
-11.54761871
 20
80.02058
 30
0.0
 41
3.00000279
 42
2.99998927
 50
360.0
  0
TEXT
  5
FC
100
AcDbEntity
  8
0
 62
       7
100
AcDbText
 10
-48.84761871
 20
81.02058
 30
0.0
 40
4.0
  1
φ65
 41
0.8
 72
       5
 11
-39.24761871
 21
81.02058
 31
0.0
100
AcDbText
  0
ENDBLK
  5
FD
100
AcDbEntity
  8
0
100
AcDbBlockEnd
  0
BLOCK
  5
FE
100
AcDbEntity
  8
0
100
AcDbBlockBegin
  2
GROUP_9
 70
       0
 10
0.0
 20
0.0
 30
0.0
  3
GROUP_9
  1

  0
LINE
  5
FF
100
AcDbEntity
  8
LAYER0240
  6
CONTINUOUS
 62
       9
100
AcDbLine
 10
-14.04761871
 20
57.14346472
 30
0.0
 11
-0.71977349
 21
62.7133436
 31
0.0
  0
INSERT
  5
100
100
AcDbEntity
  8
LAYER0240
  6
CONTINUOUS
 62
       9
100
AcDbBlockReference
  2
_OPEN30
 10
-14.04761871
 20
57.14346472
 30
0.0
 41
3.00000279
 42
2.99998927
 50
202.6806808
  0
CIRCLE
  5
101
100
AcDbEntity
  8
LAYER0240
  6
CONTINUOUS
 62
       9
100
AcDbCircle
 10
3.43223322
 20
64.4485209
 30
0.0
 40
4.5
  0
TEXT
  5
102
100
AcDbEntity
  8
LAYER0240
 62
       4
100
AcDbText
 10
1.83223322
 20
62.4485209
 30
0.0
 40
4.0
  1
1
 41
0.8
 72
       5
 11
5.03223322
 21
62.4485209
 31
0.0
100
AcDbText
  0
ENDBLK
  5
103
100
AcDbEntity
  8
0
100
AcDbBlockEnd
  0
BLOCK
  5
104
100
AcDbEntity
  8
0
100
AcDbBlockBegin
  2
GROUP_10
 70
       0
 10
0.0
 20
0.0
 30
0.0
  3
GROUP_10
  1

  0
LINE
  5
105
100
AcDbEntity
  8
LAYER0240
  6
CONTINUOUS
 62
       9
100
AcDbLine
 10
-11.54761871
 20
47.06849322
 30
0.0
 11
-0.76872375
 21
51.20731153
 31
0.0
  0
INSERT
  5
106
100
AcDbEntity
  8
LAYER0240
  6
CONTINUOUS
 62
       9
100
AcDbBlockReference
  2
_OPEN30
 10
-11.54761871
 20
47.06849322
 30
0.0
 41
3.00000279
 42
2.99998927
 50
201.00550458
  0
CIRCLE
  5
107
100
AcDbEntity
  8
LAYER0240
  6
CONTINUOUS
 62
       9
100
AcDbCircle
 10
3.43223322
 20
52.82037091
 30
0.0
 40
4.5
  0
TEXT
  5
108
100
AcDbEntity
  8
LAYER0240
 62
       4
100
AcDbText
 10
1.83223322
 20
50.82037091
 30
0.0
 40
4.0
  1
2
 41
0.8
 72
       5
 11
5.03223322
 21
50.82037091
 31
0.0
100
AcDbText
  0
ENDBLK
  5
109
100
AcDbEntity
  8
0
100
AcDbBlockEnd
  0
BLOCK
  5
10A
100
AcDbEntity
  8
0
100
AcDbBlockBegin
  2
GROUP_11
 70
       0
 10
0.0
 20
0.0
 30
0.0
  3
GROUP_11
  1

  0
LINE
  5
10B
100
AcDbEntity
  8
LAYER0240
  6
CONTINUOUS
 62
       9
100
AcDbLine
 10
-23.34762171
 20
37.65518544
 30
0.0
 11
-1.0120658
 21
41.20248674
 31
0.0
  0
INSERT
  5
10C
100
AcDbEntity
  8
LAYER0240
  6
CONTINUOUS
 62
       9
100
AcDbBlockReference
  2
_OPEN30
 10
-23.34762171
 20
37.65518544
 30
0.0
 41
3.00000279
 42
2.99998927
 50
189.02426409
  0
CIRCLE
  5
10D
100
AcDbEntity
  8
LAYER0240
  6
CONTINUOUS
 62
       9
100
AcDbCircle
 10
3.43223322
 20
41.908324
 30
0.0
 40
4.5
  0
TEXT
  5
10E
100
AcDbEntity
  8
LAYER0240
 62
       4
100
AcDbText
 10
1.83223322
 20
39.908324
 30
0.0
 40
4.0
  1
3
 41
0.8
 72
       5
 11
5.03223322
 21
39.908324
 31
0.0
100
AcDbText
  0
ENDBLK
  5
10F
100
AcDbEntity
  8
0
100
AcDbBlockEnd
  0
BLOCK
  5
110
100
AcDbEntity
  8
0
100
AcDbBlockBegin
  2
GROUP_12
 70
       0
 10
0.0
 20
0.0
 30
0.0
  3
GROUP_12
  1

  0
LINE
  5
111
100
AcDbEntity
  8
LAYER0240
  6
CONTINUOUS
 62
       9
100
AcDbLine
 10
-41.04761871
 20
24.27291753
 30
0.0
 11
-1.02498201
 21
29.83161708
 31
0.0
  0
INSERT
  5
112
100
AcDbEntity
  8
LAYER0240
  6
CONTINUOUS
 62
       9
100
AcDbBlockReference
  2
_OPEN30
 10
-41.04761871
 20
24.27291753
 30
0.0
 41
3.00000279
 42
2.99998927
 50
187.9071627
  0
CIRCLE
  5
113
100
AcDbEntity
  8
LAYER0240
  6
CONTINUOUS
 62
       9
100
AcDbCircle
 10
3.43223322
 20
30.45067475
 30
0.0
 40
4.5
  0
TEXT
  5
114
100
AcDbEntity
  8
LAYER0240
 62
       4
100
AcDbText
 10
1.83223322
 20
28.45067475
 30
0.0
 40
4.0
  1
4
 41
0.8
 72
       5
 11
5.03223322
 21
28.45067475
 31
0.0
100
AcDbText
  0
ENDBLK
  5
115
100
AcDbEntity
  8
0
100
AcDbBlockEnd
  0
BLOCK
  5
116
100
AcDbEntity
  8
0
100
AcDbBlockBegin
  2
GROUP_13
 70
       0
 10
0.0
 20
0.0
 30
0.0
  3
GROUP_13
  1

  0
LINE
  5
117
100
AcDbEntity
  8
LAYER0240
  6
CONTINUOUS
 62
       4
100
AcDbLine
 10
29.03338966
 20
-3.42419228
 30
0.0
 11
19.26218815
 21
2.53158769
 31
0.0
  0
INSERT
  5
118
100
AcDbEntity
  8
LAYER0240
  6
CONTINUOUS
 62
       4
100
AcDbBlockReference
  2
_DOT
 10
29.03338966
 20
-3.42419228
 30
0.0
 41
2.5
 42
2.5
 50
328.63669779
  0
LINE
  5
119
100
AcDbEntity
  8
LAYER0240
  6
CONTINUOUS
 62
       4
100
AcDbLine
 10
19.26218815
 20
2.53158769
 30
0.0
 11
-3.80447852
 21
2.53158769
 31
0.0
  0
TEXT
  5
11A
100
AcDbEntity
  8
LAYER0240
 62
       9
100
AcDbText
 10
-3.47114519
 20
2.86492102
 30
0.0
 40
4.0
  1
洗面ボウル本体
 41
0.7
 72
       5
 11
18.92885481
 21
2.86492102
 31
0.0
100
AcDbText
  0
ENDBLK
  5
11B
100
AcDbEntity
  8
0
100
AcDbBlockEnd
  0
BLOCK
  5
11C
100
AcDbEntity
  8
0
100
AcDbBlockBegin
  2
_ORIGIN
 70
       0
 10
0.0
 20
0.0
 30
0.0
  3
_ORIGIN
  1

  0
CIRCLE
  5
11D
100
AcDbEntity
  8
0
  6
CONTINUOUS
 62
       0
100
AcDbCircle
 10
0.0
 20
0.0
 30
0.0
 40
0.5
  0
ENDBLK
  5
11E
100
AcDbEntity
  8
0
100
AcDbBlockEnd
  0
BLOCK
  5
11F
100
AcDbEntity
  8
0
100
AcDbBlockBegin
  2
_DOT
 70
       0
 10
0.0
 20
0.0
 30
0.0
  3
_DOT
  1

  0
HATCH
  5
120
100
AcDbEntity
  8
0
  6
CONTINUOUS
 62
       0
100
AcDbHatch
 10
0.0
 20
0.0
 30
0.0
210
0.0
220
0.0
230
1.0
  2
SOLID
 70
       1
 71
       1
 91
        1
 92
        1
 93
        1
 72
       2
 10
0.0
 20
0.0
 40
0.5
 50
0.0
 51
360.0
 73
       1
 97
        0
 75
       0
 76
       1
 98
        0
  0
ENDBLK
  5
121
100
AcDbEntity
  8
0
100
AcDbBlockEnd
  0
ENDSEC
  0
SECTION
  2
ENTITIES
  0
LINE
  5
122
100
AcDbEntity
  8
LAYER0243
  6
CONTINUOUS
 62
      32
100
AcDbLine
 10
-56.62593845
 20
-138.57051656
 30
0.0
 11
-56.06343845
 21
-137.00801656
 31
0.0
  0
LINE
  5
123
100
AcDbEntity
  8
LAYER0243
  6
CONTINUOUS
 62
      32
100
AcDbLine
 10
-60.78843845
 20
-138.57051656
 30
0.0
 11
-59.91343845
 21
-136.19551656
 31
0.0
  0
LINE
  5
124
100
AcDbEntity
  8
LAYER0243
  6
CONTINUOUS
 62
      32
100
AcDbLine
 10
-61.60093845
 20
-135.32051656
 30
0.0
 11
-61.91343845
 21
-136.19551656
 31
0.0
  0
LINE
  5
125
100
AcDbEntity
  8
LAYER0243
  6
CONTINUOUS
 62
      32
100
AcDbLine
 10
-58.72593845
 20
-138.57051656
 30
0.0
 11
-57.78843845
 21
-135.82051656
 31
0.0
  0
LINE
  5
126
100
AcDbEntity
  8
LAYER0243
  6
CONTINUOUS
 62
      32
100
AcDbLine
 10
-45.61343845
 20
-138.57051656
 30
0.0
 11
-46.67593845
 21
-136.82051656
 31
0.0
  0
LINE
  5
127
100
AcDbEntity
  8
LAYER0243
  6
CONTINUOUS
 62
      32
100
AcDbLine
 10
-61.60093845
 20
-135.32051656
 30
0.0
 11
-60.41343845
 21
-135.32051656
 31
0.0
  0
LINE
  5
128
100
AcDbEntity
  8
LAYER0243
  6
CONTINUOUS
 62
      32
100
AcDbLine
 10
-55.25093845
 20
-134.75801656
 30
0.0
 11
-53.18843845
 21
-134.75801656
 31
0.0
  0
LINE
  5
129
100
AcDbEntity
  8
LAYER0243
  6
CONTINUOUS
 62
      32
100
AcDbLine
 10
-50.81343845
 20
-134.57051656
 30
0.0
 11
-50.18843845
 21
-134.57051656
 31
0.0
  0
LINE
  5
12A
100
AcDbEntity
  8
LAYER0243
  6
CONTINUOUS
 62
      32
100
AcDbLine
 10
-54.81343845
 20
-133.63301656
 30
0.0
 11
-55.25093845
 21
-134.75801656
 31
0.0
  0
LINE
  5
12B
100
AcDbEntity
  8
LAYER0243
  6
CONTINUOUS
 62
      32
100
AcDbLine
 10
-52.81343845
 20
-133.63301656
 30
0.0
 11
-53.18843845
 21
-134.75801656
 31
0.0
  0
LINE
  5
12C
100
AcDbEntity
  8
LAYER0243
  6
CONTINUOUS
 62
      32
100
AcDbLine
 10
-60.78843845
 20
-138.57051656
 30
0.0
 11
-58.72593845
 21
-138.57051656
 31
0.0
  0
LINE
  5
12D
100
AcDbEntity
  8
LAYER0243
  6
CONTINUOUS
 62
      32
100
AcDbLine
 10
-57.60093845
 20
-133.63301656
 30
0.0
 11
-55.28843845
 21
-133.63301656
 31
0.0
  0
LINE
  5
12E
100
AcDbEntity
  8
LAYER0243
  6
CONTINUOUS
 62
      32
100
AcDbLine
 10
-47.40601281
 20
-134.75801656
 30
0.0
 11
-49.61343845
 21
-134.75801656
 31
0.0
  0
LINE
  5
12F
100
AcDbEntity
  8
LAYER0243
  6
CONTINUOUS
 62
      32
100
AcDbLine
 10
-44.98843845
 20
-133.63301656
 30
0.0
 11
-49.23843845
 21
-133.63301656
 31
0.0
  0
LINE
  5
130
100
AcDbEntity
  8
LAYER0243
  6
CONTINUOUS
 62
      32
100
AcDbLine
 10
-61.91343845
 20
-136.19551656
 30
0.0
 11
-59.91343845
 21
-136.19551656
 31
0.0
  0
LINE
  5
131
100
AcDbEntity
  8
LAYER0243
  6
CONTINUOUS
 62
      32
100
AcDbLine
 10
-56.62593845
 20
-138.57051656
 30
0.0
 11
-53.31343845
 21
-138.57051656
 31
0.0
  0
LINE
  5
132
100
AcDbEntity
  8
LAYER0243
  6
CONTINUOUS
 62
      32
100
AcDbLine
 10
-56.06343845
 20
-137.00801656
 30
0.0
 11
-53.06343845
 21
-137.00801656
 31
0.0
  0
LINE
  5
133
100
AcDbEntity
  8
LAYER0243
  6
CONTINUOUS
 62
      32
100
AcDbLine
 10
-45.61343845
 20
-138.57051656
 30
0.0
 11
-47.17593845
 21
-138.57051656
 31
0.0
  0
LINE
  5
134
100
AcDbEntity
  8
LAYER0243
  6
CONTINUOUS
 62
      32
100
AcDbLine
 10
-49.61343845
 20
-134.75801656
 30
0.0
 11
-49.23843845
 21
-133.63301656
 31
0.0
  0
LINE
  5
135
100
AcDbEntity
  8
LAYER0243
  6
CONTINUOUS
 62
      32
100
AcDbLine
 10
-71.35093845
 20
-133.63301656
 30
0.0
 11
-72.41343845
 21
-136.63301656
 31
0.0
  0
LINE
  5
136
100
AcDbEntity
  8
LAYER0243
  6
CONTINUOUS
 62
      32
100
AcDbLine
 10
-72.41343845
 20
-136.63301656
 30
0.0
 11
-70.97593845
 21
-136.63301656
 31
0.0
  0
LINE
  5
137
100
AcDbEntity
  8
LAYER0243
  6
CONTINUOUS
 62
      32
100
AcDbLine
 10
-70.97593845
 20
-136.63301656
 30
0.0
 11
-69.85093845
 21
-133.63301656
 31
0.0
  0
LINE
  5
138
100
AcDbEntity
  8
LAYER0243
  6
CONTINUOUS
 62
      32
100
AcDbLine
 10
-69.85093845
 20
-133.63301656
 30
0.0
 11
-71.35093845
 21
-133.63301656
 31
0.0
  0
LINE
  5
139
100
AcDbEntity
  8
LAYER0243
  6
CONTINUOUS
 62
      32
100
AcDbLine
 10
-52.31343845
 20
-136.63301656
 30
0.0
 11
-51.62593845
 21
-136.07051656
 31
0.0
  0
LINE
  5
13A
100
AcDbEntity
  8
LAYER0243
  6
CONTINUOUS
 62
      32
100
AcDbLine
 10
-51.62593845
 20
-136.07051656
 30
0.0
 11
-51.12593845
 21
-135.38301656
 31
0.0
  0
LINE
  5
13B
100
AcDbEntity
  8
LAYER0243
  6
CONTINUOUS
 62
      32
100
AcDbLine
 10
-51.12593845
 20
-135.38301656
 30
0.0
 11
-50.81343845
 21
-134.57051656
 31
0.0
  0
LINE
  5
13C
100
AcDbEntity
  8
LAYER0243
  6
CONTINUOUS
 62
      32
100
AcDbLine
 10
-66.21343845
 20
-133.63301656
 30
0.0
 11
-61.65093845
 21
-133.63301656
 31
0.0
  0
LINE
  5
13D
100
AcDbEntity
  8
LAYER0243
  6
CONTINUOUS
 62
      32
100
AcDbLine
 10
-61.65093845
 20
-133.63301656
 30
0.0
 11
-62.02593845
 21
-134.75801656
 31
0.0
  0
LINE
  5
13E
100
AcDbEntity
  8
LAYER0243
  6
CONTINUOUS
 62
      32
100
AcDbLine
 10
-61.65093845
 20
-133.63301656
 30
0.0
 11
-62.02593845
 21
-134.75801656
 31
0.0
  0
LINE
  5
13F
100
AcDbEntity
  8
LAYER0243
  6
CONTINUOUS
 62
      32
100
AcDbLine
 10
-62.02593845
 20
-134.75801656
 30
0.0
 11
-66.58843845
 21
-134.75801656
 31
0.0
  0
LINE
  5
140
100
AcDbEntity
  8
LAYER0243
  6
CONTINUOUS
 62
      32
100
AcDbLine
 10
-66.58843845
 20
-134.75801656
 30
0.0
 11
-66.21343845
 21
-133.63301656
 31
0.0
  0
LINE
  5
141
100
AcDbEntity
  8
LAYER0243
  6
CONTINUOUS
 62
      32
100
AcDbLine
 10
-66.58843845
 20
-134.75801656
 30
0.0
 11
-66.21343845
 21
-133.63301656
 31
0.0
  0
LINE
  5
142
100
AcDbEntity
  8
LAYER0243
  6
CONTINUOUS
 62
      32
100
AcDbLine
 10
-61.65093845
 20
-133.63301656
 30
0.0
 11
-66.21343845
 21
-133.63301656
 31
0.0
  0
LINE
  5
143
100
AcDbEntity
  8
LAYER0243
  6
CONTINUOUS
 62
      32
100
AcDbLine
 10
-66.21343845
 20
-133.63301656
 30
0.0
 11
-66.58843845
 21
-134.75801656
 31
0.0
  0
LINE
  5
144
100
AcDbEntity
  8
LAYER0243
  6
CONTINUOUS
 62
      32
100
AcDbLine
 10
-66.58843845
 20
-134.75801656
 30
0.0
 11
-62.02593845
 21
-134.75801656
 31
0.0
  0
LINE
  5
145
100
AcDbEntity
  8
LAYER0243
  6
CONTINUOUS
 62
      32
100
AcDbLine
 10
-64.27593845
 20
-138.44551656
 30
0.0
 11
-63.77593845
 21
-138.19551656
 31
0.0
  0
LINE
  5
146
100
AcDbEntity
  8
LAYER0243
  6
CONTINUOUS
 62
      32
100
AcDbLine
 10
-63.77593845
 20
-138.19551656
 30
0.0
 11
-63.40093845
 21
-137.82051656
 31
0.0
  0
LINE
  5
147
100
AcDbEntity
  8
LAYER0243
  6
CONTINUOUS
 62
      32
100
AcDbLine
 10
-63.40093845
 20
-137.82051656
 30
0.0
 11
-62.96343845
 21
-137.38301656
 31
0.0
  0
LINE
  5
148
100
AcDbEntity
  8
LAYER0243
  6
CONTINUOUS
 62
      32
100
AcDbLine
 10
-62.96343845
 20
-137.38301656
 30
0.0
 11
-62.21343845
 21
-135.32051656
 31
0.0
  0
LINE
  5
149
100
AcDbEntity
  8
LAYER0243
  6
CONTINUOUS
 62
      32
100
AcDbLine
 10
-62.21343845
 20
-135.32051656
 30
0.0
 11
-66.71343845
 21
-135.32051656
 31
0.0
  0
LINE
  5
14A
100
AcDbEntity
  8
LAYER0243
  6
CONTINUOUS
 62
      32
100
AcDbLine
 10
-66.71343845
 20
-135.32051656
 30
0.0
 11
-66.96343845
 21
-136.19551656
 31
0.0
  0
LINE
  5
14B
100
AcDbEntity
  8
LAYER0243
  6
CONTINUOUS
 62
      32
100
AcDbLine
 10
-66.96343845
 20
-136.19551656
 30
0.0
 11
-64.33843845
 21
-136.19551656
 31
0.0
  0
LINE
  5
14C
100
AcDbEntity
  8
LAYER0243
  6
CONTINUOUS
 62
      32
100
AcDbLine
 10
-64.33843845
 20
-136.19551656
 30
0.0
 11
-64.46343845
 21
-136.63301656
 31
0.0
  0
LINE
  5
14D
100
AcDbEntity
  8
LAYER0243
  6
CONTINUOUS
 62
      32
100
AcDbLine
 10
-64.46343845
 20
-136.63301656
 30
0.0
 11
-64.77593845
 21
-137.00801656
 31
0.0
  0
LINE
  5
14E
100
AcDbEntity
  8
LAYER0243
  6
CONTINUOUS
 62
      32
100
AcDbLine
 10
-64.77593845
 20
-137.00801656
 30
0.0
 11
-65.08843845
 21
-137.32051656
 31
0.0
  0
LINE
  5
14F
100
AcDbEntity
  8
LAYER0243
  6
CONTINUOUS
 62
      32
100
AcDbLine
 10
-65.08843845
 20
-137.32051656
 30
0.0
 11
-65.52593845
 21
-137.63301656
 31
0.0
  0
LINE
  5
150
100
AcDbEntity
  8
LAYER0243
  6
CONTINUOUS
 62
      32
100
AcDbLine
 10
-65.52593845
 20
-137.63301656
 30
0.0
 11
-67.58843845
 21
-137.63301656
 31
0.0
  0
LINE
  5
151
100
AcDbEntity
  8
LAYER0243
  6
CONTINUOUS
 62
      32
100
AcDbLine
 10
-67.58843845
 20
-137.63301656
 30
0.0
 11
-67.96343845
 21
-138.57051656
 31
0.0
  0
LINE
  5
152
100
AcDbEntity
  8
LAYER0243
  6
CONTINUOUS
 62
      32
100
AcDbLine
 10
-71.97593845
 20
-138.57051656
 30
0.0
 11
-71.66343845
 21
-137.63301656
 31
0.0
  0
LINE
  5
153
100
AcDbEntity
  8
LAYER0243
  6
CONTINUOUS
 62
      32
100
AcDbLine
 10
-71.66343845
 20
-137.63301656
 30
0.0
 11
-71.10093845
 21
-137.63301656
 31
0.0
  0
LINE
  5
154
100
AcDbEntity
  8
LAYER0243
  6
CONTINUOUS
 62
      32
100
AcDbLine
 10
-71.10093845
 20
-137.63301656
 30
0.0
 11
-70.60093845
 21
-137.57051656
 31
0.0
  0
LINE
  5
155
100
AcDbEntity
  8
LAYER0243
  6
CONTINUOUS
 62
      32
100
AcDbLine
 10
-70.60093845
 20
-137.57051656
 30
0.0
 11
-70.10093845
 21
-137.32051656
 31
0.0
  0
LINE
  5
156
100
AcDbEntity
  8
LAYER0243
  6
CONTINUOUS
 62
      32
100
AcDbLine
 10
-70.10093845
 20
-137.32051656
 30
0.0
 11
-69.78843845
 21
-136.82051656
 31
0.0
  0
LINE
  5
157
100
AcDbEntity
  8
LAYER0243
  6
CONTINUOUS
 62
      32
100
AcDbLine
 10
-69.78843845
 20
-136.82051656
 30
0.0
 11
-68.60093845
 21
-133.63301656
 31
0.0
  0
LINE
  5
158
100
AcDbEntity
  8
LAYER0243
  6
CONTINUOUS
 62
      32
100
AcDbLine
 10
-68.60093845
 20
-133.63301656
 30
0.0
 11
-66.91343845
 21
-133.63301656
 31
0.0
  0
LINE
  5
159
100
AcDbEntity
  8
LAYER0243
  6
CONTINUOUS
 62
      32
100
AcDbLine
 10
-66.91343845
 20
-133.63301656
 30
0.0
 11
-68.16343845
 21
-137.32051656
 31
0.0
  0
LINE
  5
15A
100
AcDbEntity
  8
LAYER0243
  6
CONTINUOUS
 62
      32
100
AcDbLine
 10
-68.16343845
 20
-137.32051656
 30
0.0
 11
-68.66343845
 21
-137.82051656
 31
0.0
  0
LINE
  5
15B
100
AcDbEntity
  8
LAYER0243
  6
CONTINUOUS
 62
      32
100
AcDbLine
 10
-68.66343845
 20
-137.82051656
 30
0.0
 11
-69.16343845
 21
-138.25801656
 31
0.0
  0
LINE
  5
15C
100
AcDbEntity
  8
LAYER0243
  6
CONTINUOUS
 62
      32
100
AcDbLine
 10
-69.16343845
 20
-138.25801656
 30
0.0
 11
-69.78843845
 21
-138.50801656
 31
0.0
  0
LINE
  5
15D
100
AcDbEntity
  8
LAYER0243
  6
CONTINUOUS
 62
      32
100
AcDbLine
 10
-55.28843845
 20
-133.63301656
 30
0.0
 11
-55.66343845
 21
-134.44551656
 31
0.0
  0
LINE
  5
15E
100
AcDbEntity
  8
LAYER0243
  6
CONTINUOUS
 62
      32
100
AcDbLine
 10
-55.66343845
 20
-134.44551656
 30
0.0
 11
-56.28843845
 21
-135.07051656
 31
0.0
  0
LINE
  5
15F
100
AcDbEntity
  8
LAYER0243
  6
CONTINUOUS
 62
      32
100
AcDbLine
 10
-55.66343845
 20
-134.44551656
 30
0.0
 11
-56.28843845
 21
-135.07051656
 31
0.0
  0
LINE
  5
160
100
AcDbEntity
  8
LAYER0243
  6
CONTINUOUS
 62
      32
100
AcDbLine
 10
-56.28843845
 20
-135.07051656
 30
0.0
 11
-56.97593845
 21
-135.57051656
 31
0.0
  0
LINE
  5
161
100
AcDbEntity
  8
LAYER0243
  6
CONTINUOUS
 62
      32
100
AcDbLine
 10
-56.97593845
 20
-135.57051656
 30
0.0
 11
-57.78843845
 21
-135.82051656
 31
0.0
  0
LINE
  5
162
100
AcDbEntity
  8
LAYER0243
  6
CONTINUOUS
 62
      32
100
AcDbLine
 10
-56.97593845
 20
-135.57051656
 30
0.0
 11
-57.78843845
 21
-135.82051656
 31
0.0
  0
LINE
  5
163
100
AcDbEntity
  8
LAYER0243
  6
CONTINUOUS
 62
      32
100
AcDbLine
 10
-57.78843845
 20
-135.82051656
 30
0.0
 11
-58.72593845
 21
-138.57051656
 31
0.0
  0
LINE
  5
164
100
AcDbEntity
  8
LAYER0243
  6
CONTINUOUS
 62
      32
100
AcDbLine
 10
-58.72593845
 20
-138.57051656
 30
0.0
 11
-60.78843845
 21
-138.57051656
 31
0.0
  0
LINE
  5
165
100
AcDbEntity
  8
LAYER0243
  6
CONTINUOUS
 62
      32
100
AcDbLine
 10
-58.72593845
 20
-138.57051656
 30
0.0
 11
-60.78843845
 21
-138.57051656
 31
0.0
  0
LINE
  5
166
100
AcDbEntity
  8
LAYER0243
  6
CONTINUOUS
 62
      32
100
AcDbLine
 10
-60.01343845
 20
-136.19551656
 30
0.0
 11
-61.91343845
 21
-136.19551656
 31
0.0
  0
LINE
  5
167
100
AcDbEntity
  8
LAYER0243
  6
CONTINUOUS
 62
      32
100
AcDbLine
 10
-61.91343845
 20
-136.19551656
 30
0.0
 11
-61.60093845
 21
-135.32051656
 31
0.0
  0
LINE
  5
168
100
AcDbEntity
  8
LAYER0243
  6
CONTINUOUS
 62
      32
100
AcDbLine
 10
-60.78843845
 20
-138.57051656
 30
0.0
 11
-59.91343845
 21
-136.19551656
 31
0.0
  0
LINE
  5
169
100
AcDbEntity
  8
LAYER0243
  6
CONTINUOUS
 62
      32
100
AcDbLine
 10
-60.78843845
 20
-138.57051656
 30
0.0
 11
-59.91343845
 21
-136.19551656
 31
0.0
  0
LINE
  5
16A
100
AcDbEntity
  8
LAYER0243
  6
CONTINUOUS
 62
      32
100
AcDbLine
 10
-61.60093845
 20
-135.32051656
 30
0.0
 11
-60.41343845
 21
-135.32051656
 31
0.0
  0
LINE
  5
16B
100
AcDbEntity
  8
LAYER0243
  6
CONTINUOUS
 62
      32
100
AcDbLine
 10
-61.60093845
 20
-135.32051656
 30
0.0
 11
-60.41343845
 21
-135.32051656
 31
0.0
  0
LINE
  5
16C
100
AcDbEntity
  8
LAYER0243
  6
CONTINUOUS
 62
      32
100
AcDbLine
 10
-60.41343845
 20
-135.32051656
 30
0.0
 11
-59.60093845
 21
-135.25801656
 31
0.0
  0
LINE
  5
16D
100
AcDbEntity
  8
LAYER0243
  6
CONTINUOUS
 62
      32
100
AcDbLine
 10
-60.41343845
 20
-135.32051656
 30
0.0
 11
-59.60093845
 21
-135.25801656
 31
0.0
  0
LINE
  5
16E
100
AcDbEntity
  8
LAYER0243
  6
CONTINUOUS
 62
      32
100
AcDbLine
 10
-59.60093845
 20
-135.25801656
 30
0.0
 11
-58.72593845
 21
-134.88301656
 31
0.0
  0
LINE
  5
16F
100
AcDbEntity
  8
LAYER0243
  6
CONTINUOUS
 62
      32
100
AcDbLine
 10
-59.60093845
 20
-135.25801656
 30
0.0
 11
-58.72593845
 21
-134.88301656
 31
0.0
  0
LINE
  5
170
100
AcDbEntity
  8
LAYER0243
  6
CONTINUOUS
 62
      32
100
AcDbLine
 10
-58.72593845
 20
-134.88301656
 30
0.0
 11
-58.10093845
 21
-134.32051656
 31
0.0
  0
LINE
  5
171
100
AcDbEntity
  8
LAYER0243
  6
CONTINUOUS
 62
      32
100
AcDbLine
 10
-58.72593845
 20
-134.88301656
 30
0.0
 11
-58.10093845
 21
-134.32051656
 31
0.0
  0
LINE
  5
172
100
AcDbEntity
  8
LAYER0243
  6
CONTINUOUS
 62
      32
100
AcDbLine
 10
-69.85093845
 20
-133.63301656
 30
0.0
 11
-70.97593845
 21
-136.63301656
 31
0.0
  0
LINE
  5
173
100
AcDbEntity
  8
LAYER0243
  6
CONTINUOUS
 62
      32
100
AcDbLine
 10
-70.97593845
 20
-136.63301656
 30
0.0
 11
-72.41343845
 21
-136.63301656
 31
0.0
  0
LINE
  5
174
100
AcDbEntity
  8
LAYER0243
  6
CONTINUOUS
 62
      32
100
AcDbLine
 10
-70.97593845
 20
-136.63301656
 30
0.0
 11
-72.41343845
 21
-136.63301656
 31
0.0
  0
LINE
  5
175
100
AcDbEntity
  8
LAYER0243
  6
CONTINUOUS
 62
      32
100
AcDbLine
 10
-72.41343845
 20
-136.63301656
 30
0.0
 11
-71.35093845
 21
-133.63301656
 31
0.0
  0
LINE
  5
176
100
AcDbEntity
  8
LAYER0243
  6
CONTINUOUS
 62
      32
100
AcDbLine
 10
-71.35093845
 20
-133.63301656
 30
0.0
 11
-69.85093845
 21
-133.63301656
 31
0.0
  0
LINE
  5
177
100
AcDbEntity
  8
LAYER0243
  6
CONTINUOUS
 62
      32
100
AcDbLine
 10
-71.35093845
 20
-133.63301656
 30
0.0
 11
-69.85093845
 21
-133.63301656
 31
0.0
  0
LINE
  5
178
100
AcDbEntity
  8
LAYER0243
  6
CONTINUOUS
 62
      32
100
AcDbLine
 10
-49.23843845
 20
-133.63301656
 30
0.0
 11
-49.61343845
 21
-134.75801656
 31
0.0
  0
LINE
  5
179
100
AcDbEntity
  8
LAYER0243
  6
CONTINUOUS
 62
      32
100
AcDbLine
 10
-49.61343845
 20
-134.75801656
 30
0.0
 11
-47.61343845
 21
-134.75801656
 31
0.0
  0
LINE
  5
17A
100
AcDbEntity
  8
LAYER0243
  6
CONTINUOUS
 62
      32
100
AcDbLine
 10
-49.61343845
 20
-134.75801656
 30
0.0
 11
-47.61343845
 21
-134.75801656
 31
0.0
  0
LINE
  5
17B
100
AcDbEntity
  8
LAYER0243
  6
CONTINUOUS
 62
      32
100
AcDbLine
 10
-50.98843845
 20
-137.57051656
 30
0.0
 11
-51.36343845
 21
-138.63301656
 31
0.0
  0
LINE
  5
17C
100
AcDbEntity
  8
LAYER0243
  6
CONTINUOUS
 62
      32
100
AcDbLine
 10
-50.98843845
 20
-137.57051656
 30
0.0
 11
-51.36343845
 21
-138.63301656
 31
0.0
  0
LINE
  5
17D
100
AcDbEntity
  8
LAYER0243
  6
CONTINUOUS
 62
      32
100
AcDbLine
 10
-51.36343845
 20
-138.63301656
 30
0.0
 11
-49.48843845
 21
-138.32051656
 31
0.0
  0
LINE
  5
17E
100
AcDbEntity
  8
LAYER0243
  6
CONTINUOUS
 62
      32
100
AcDbLine
 10
-49.48843845
 20
-138.32051656
 30
0.0
 11
-48.61343845
 21
-138.07051656
 31
0.0
  0
LINE
  5
17F
100
AcDbEntity
  8
LAYER0243
  6
CONTINUOUS
 62
      32
100
AcDbLine
 10
-49.48843845
 20
-138.32051656
 30
0.0
 11
-48.61343845
 21
-138.07051656
 31
0.0
  0
LINE
  5
180
100
AcDbEntity
  8
LAYER0243
  6
CONTINUOUS
 62
      32
100
AcDbLine
 10
-47.67593845
 20
-137.75801656
 30
0.0
 11
-47.17593845
 21
-138.57051656
 31
0.0
  0
LINE
  5
181
100
AcDbEntity
  8
LAYER0243
  6
CONTINUOUS
 62
      32
100
AcDbLine
 10
-47.17593845
 20
-138.57051656
 30
0.0
 11
-45.61343845
 21
-138.57051656
 31
0.0
  0
LINE
  5
182
100
AcDbEntity
  8
LAYER0243
  6
CONTINUOUS
 62
      32
100
AcDbLine
 10
-47.17593845
 20
-138.57051656
 30
0.0
 11
-45.61343845
 21
-138.57051656
 31
0.0
  0
LINE
  5
183
100
AcDbEntity
  8
LAYER0243
  6
CONTINUOUS
 62
      32
100
AcDbLine
 10
-46.67593845
 20
-136.82051656
 30
0.0
 11
-46.11343845
 21
-136.07051656
 31
0.0
  0
LINE
  5
184
100
AcDbEntity
  8
LAYER0243
  6
CONTINUOUS
 62
      32
100
AcDbLine
 10
-46.11343845
 20
-136.07051656
 30
0.0
 11
-45.61343845
 21
-135.32051656
 31
0.0
  0
LINE
  5
185
100
AcDbEntity
  8
LAYER0243
  6
CONTINUOUS
 62
      32
100
AcDbLine
 10
-45.61343845
 20
-135.32051656
 30
0.0
 11
-45.23843845
 21
-134.50801656
 31
0.0
  0
LINE
  5
186
100
AcDbEntity
  8
LAYER0243
  6
CONTINUOUS
 62
      32
100
AcDbLine
 10
-45.23843845
 20
-134.50801656
 30
0.0
 11
-44.98843845
 21
-133.63301656
 31
0.0
  0
LINE
  5
187
100
AcDbEntity
  8
LAYER0243
  6
CONTINUOUS
 62
      32
100
AcDbLine
 10
-45.23843845
 20
-134.50801656
 30
0.0
 11
-44.98843845
 21
-133.63301656
 31
0.0
  0
LINE
  5
188
100
AcDbEntity
  8
LAYER0243
  6
CONTINUOUS
 62
      32
100
AcDbLine
 10
-44.98843845
 20
-133.63301656
 30
0.0
 11
-49.23843845
 21
-133.63301656
 31
0.0
  0
LINE
  5
189
100
AcDbEntity
  8
LAYER0243
  6
CONTINUOUS
 62
      32
100
AcDbLine
 10
-48.80093845
 20
-136.75801656
 30
0.0
 11
-49.80093845
 21
-137.32051656
 31
0.0
  0
LINE
  5
18A
100
AcDbEntity
  8
LAYER0243
  6
CONTINUOUS
 62
      32
100
AcDbLine
 10
-48.61343845
 20
-138.07051656
 30
0.0
 11
-47.67593845
 21
-137.75801656
 31
0.0
  0
LINE
  5
18B
100
AcDbEntity
  8
LAYER0243
  6
CONTINUOUS
 62
      32
100
AcDbLine
 10
-48.61343845
 20
-138.07051656
 30
0.0
 11
-47.67593845
 21
-137.75801656
 31
0.0
  0
LINE
  5
18C
100
AcDbEntity
  8
LAYER0243
  6
CONTINUOUS
 62
      32
100
AcDbLine
 10
-45.61343845
 20
-138.57051656
 30
0.0
 11
-46.67593845
 21
-136.82051656
 31
0.0
  0
LINE
  5
18D
100
AcDbEntity
  8
LAYER0243
  6
CONTINUOUS
 62
      32
100
AcDbLine
 10
-45.61343845
 20
-138.57051656
 30
0.0
 11
-46.67593845
 21
-136.82051656
 31
0.0
  0
LINE
  5
18E
100
AcDbEntity
  8
LAYER0243
  6
CONTINUOUS
 62
      32
100
AcDbLine
 10
-47.98843845
 20
-135.82051656
 30
0.0
 11
-48.80093845
 21
-136.75801656
 31
0.0
  0
LINE
  5
18F
100
AcDbEntity
  8
LAYER0243
  6
CONTINUOUS
 62
      32
100
AcDbLine
 10
-47.98843845
 20
-135.82051656
 30
0.0
 11
-48.80093845
 21
-136.75801656
 31
0.0
  0
LINE
  5
190
100
AcDbEntity
  8
LAYER0243
  6
CONTINUOUS
 62
      32
100
AcDbLine
 10
-60.41343845
 20
-135.32051656
 30
0.0
 11
-59.60093845
 21
-135.25801656
 31
0.0
  0
LINE
  5
191
100
AcDbEntity
  8
LAYER0243
  6
CONTINUOUS
 62
      32
100
AcDbLine
 10
-59.60093845
 20
-135.25801656
 30
0.0
 11
-58.72593845
 21
-134.88301656
 31
0.0
  0
LINE
  5
192
100
AcDbEntity
  8
LAYER0243
  6
CONTINUOUS
 62
      32
100
AcDbLine
 10
-58.72593845
 20
-134.88301656
 30
0.0
 11
-58.10093845
 21
-134.32051656
 31
0.0
  0
LINE
  5
193
100
AcDbEntity
  8
LAYER0243
  6
CONTINUOUS
 62
      32
100
AcDbLine
 10
-58.10093845
 20
-134.32051656
 30
0.0
 11
-57.60093845
 21
-133.63301656
 31
0.0
  0
LINE
  5
194
100
AcDbEntity
  8
LAYER0243
  6
CONTINUOUS
 62
      32
100
AcDbLine
 10
-53.31343845
 20
-138.57051656
 30
0.0
 11
-52.18843845
 21
-138.07051656
 31
0.0
  0
LINE
  5
195
100
AcDbEntity
  8
LAYER0243
  6
CONTINUOUS
 62
      32
100
AcDbLine
 10
-52.18843845
 20
-138.07051656
 30
0.0
 11
-51.18843845
 21
-137.13301656
 31
0.0
  0
LINE
  5
196
100
AcDbEntity
  8
LAYER0243
  6
CONTINUOUS
 62
      32
100
AcDbLine
 10
-51.18843845
 20
-137.13301656
 30
0.0
 11
-50.43843845
 21
-135.88301656
 31
0.0
  0
LINE
  5
197
100
AcDbEntity
  8
LAYER0243
  6
CONTINUOUS
 62
      32
100
AcDbLine
 10
-50.43843845
 20
-135.88301656
 30
0.0
 11
-50.18843845
 21
-134.57051656
 31
0.0
  0
LINE
  5
198
100
AcDbEntity
  8
LAYER0243
  6
CONTINUOUS
 62
      32
100
AcDbLine
 10
-50.98843845
 20
-137.57051656
 30
0.0
 11
-49.80093845
 21
-137.32051656
 31
0.0
  0
LINE
  5
199
100
AcDbEntity
  8
LAYER0243
  6
CONTINUOUS
 62
      32
100
AcDbLine
 10
-49.80093845
 20
-137.32051656
 30
0.0
 11
-48.80093845
 21
-136.75801656
 31
0.0
  0
LINE
  5
19A
100
AcDbEntity
  8
LAYER0243
  6
CONTINUOUS
 62
      32
100
AcDbLine
 10
-48.80093845
 20
-136.75801656
 30
0.0
 11
-47.98843845
 21
-135.82051656
 31
0.0
  0
LINE
  5
19B
100
AcDbEntity
  8
LAYER0243
  6
CONTINUOUS
 62
      32
100
AcDbLine
 10
-57.78843845
 20
-135.82051656
 30
0.0
 11
-56.97593845
 21
-135.57051656
 31
0.0
  0
LINE
  5
19C
100
AcDbEntity
  8
LAYER0243
  6
CONTINUOUS
 62
      32
100
AcDbLine
 10
-56.97593845
 20
-135.57051656
 30
0.0
 11
-56.28843845
 21
-135.07051656
 31
0.0
  0
LINE
  5
19D
100
AcDbEntity
  8
LAYER0243
  6
CONTINUOUS
 62
      32
100
AcDbLine
 10
-56.28843845
 20
-135.07051656
 30
0.0
 11
-55.66343845
 21
-134.44551656
 31
0.0
  0
LINE
  5
19E
100
AcDbEntity
  8
LAYER0243
  6
CONTINUOUS
 62
      32
100
AcDbLine
 10
-55.66343845
 20
-134.44551656
 30
0.0
 11
-55.28843845
 21
-133.63301656
 31
0.0
  0
LINE
  5
19F
100
AcDbEntity
  8
LAYER0243
  6
CONTINUOUS
 62
      32
100
AcDbLine
 10
-46.67593845
 20
-136.82051656
 30
0.0
 11
-46.11343845
 21
-136.07051656
 31
0.0
  0
LINE
  5
1A0
100
AcDbEntity
  8
LAYER0243
  6
CONTINUOUS
 62
      32
100
AcDbLine
 10
-46.11343845
 20
-136.07051656
 30
0.0
 11
-45.61343845
 21
-135.32051656
 31
0.0
  0
LINE
  5
1A1
100
AcDbEntity
  8
LAYER0243
  6
CONTINUOUS
 62
      32
100
AcDbLine
 10
-45.61343845
 20
-135.32051656
 30
0.0
 11
-45.23843845
 21
-134.50801656
 31
0.0
  0
LINE
  5
1A2
100
AcDbEntity
  8
LAYER0243
  6
CONTINUOUS
 62
      32
100
AcDbLine
 10
-45.23843845
 20
-134.50801656
 30
0.0
 11
-44.98843845
 21
-133.63301656
 31
0.0
  0
LINE
  5
1A3
100
AcDbEntity
  8
LAYER0243
  6
CONTINUOUS
 62
      32
100
AcDbLine
 10
-49.48843845
 20
-138.32051656
 30
0.0
 11
-48.61343845
 21
-138.07051656
 31
0.0
  0
LINE
  5
1A4
100
AcDbEntity
  8
LAYER0243
  6
CONTINUOUS
 62
      32
100
AcDbLine
 10
-48.61343845
 20
-138.07051656
 30
0.0
 11
-47.67593845
 21
-137.75801656
 31
0.0
  0
LINE
  5
1A5
100
AcDbEntity
  8
LAYER0243
  6
CONTINUOUS
 62
      32
100
AcDbLine
 10
-51.12593845
 20
-135.38301656
 30
0.0
 11
-50.81343845
 21
-134.57051656
 31
0.0
  0
LINE
  5
1A6
100
AcDbEntity
  8
LAYER0243
  6
CONTINUOUS
 62
      32
100
AcDbLine
 10
-50.81343845
 20
-134.57051656
 30
0.0
 11
-50.18843845
 21
-134.57051656
 31
0.0
  0
LINE
  5
1A7
100
AcDbEntity
  8
LAYER0243
  6
CONTINUOUS
 62
      32
100
AcDbLine
 10
-50.81343845
 20
-134.57051656
 30
0.0
 11
-50.18843845
 21
-134.57051656
 31
0.0
  0
LINE
  5
1A8
100
AcDbEntity
  8
LAYER0243
  6
CONTINUOUS
 62
      32
100
AcDbLine
 10
-50.18843845
 20
-134.57051656
 30
0.0
 11
-50.43843845
 21
-135.88301656
 31
0.0
  0
LINE
  5
1A9
100
AcDbEntity
  8
LAYER0243
  6
CONTINUOUS
 62
      32
100
AcDbLine
 10
-50.43843845
 20
-135.88301656
 30
0.0
 11
-51.18843845
 21
-137.13301656
 31
0.0
  0
LINE
  5
1AA
100
AcDbEntity
  8
LAYER0243
  6
CONTINUOUS
 62
      32
100
AcDbLine
 10
-50.43843845
 20
-135.88301656
 30
0.0
 11
-51.18843845
 21
-137.13301656
 31
0.0
  0
LINE
  5
1AB
100
AcDbEntity
  8
LAYER0243
  6
CONTINUOUS
 62
      32
100
AcDbLine
 10
-51.18843845
 20
-137.13301656
 30
0.0
 11
-52.18843845
 21
-138.07051656
 31
0.0
  0
LINE
  5
1AC
100
AcDbEntity
  8
LAYER0243
  6
CONTINUOUS
 62
      32
100
AcDbLine
 10
-53.43843845
 20
-138.57051656
 30
0.0
 11
-56.62593845
 21
-138.57051656
 31
0.0
  0
LINE
  5
1AD
100
AcDbEntity
  8
LAYER0243
  6
CONTINUOUS
 62
      32
100
AcDbLine
 10
-56.62593845
 20
-138.57051656
 30
0.0
 11
-56.06343845
 21
-137.00801656
 31
0.0
  0
LINE
  5
1AE
100
AcDbEntity
  8
LAYER0243
  6
CONTINUOUS
 62
      32
100
AcDbLine
 10
-56.62593845
 20
-138.57051656
 30
0.0
 11
-56.06343845
 21
-137.00801656
 31
0.0
  0
LINE
  5
1AF
100
AcDbEntity
  8
LAYER0243
  6
CONTINUOUS
 62
      32
100
AcDbLine
 10
-51.62593845
 20
-136.07051656
 30
0.0
 11
-51.12593845
 21
-135.38301656
 31
0.0
  0
LINE
  5
1B0
100
AcDbEntity
  8
LAYER0243
  6
CONTINUOUS
 62
      32
100
AcDbLine
 10
-56.06343845
 20
-137.00801656
 30
0.0
 11
-53.06343845
 21
-137.00801656
 31
0.0
  0
LINE
  5
1B1
100
AcDbEntity
  8
LAYER0243
  6
CONTINUOUS
 62
      32
100
AcDbLine
 10
-56.06343845
 20
-137.00801656
 30
0.0
 11
-53.06343845
 21
-137.00801656
 31
0.0
  0
LINE
  5
1B2
100
AcDbEntity
  8
LAYER0243
  6
CONTINUOUS
 62
      32
100
AcDbLine
 10
-53.06343845
 20
-137.00801656
 30
0.0
 11
-52.31343845
 21
-136.63301656
 31
0.0
  0
LINE
  5
1B3
100
AcDbEntity
  8
LAYER0243
  6
CONTINUOUS
 62
      32
100
AcDbLine
 10
-53.06343845
 20
-137.00801656
 30
0.0
 11
-52.31343845
 21
-136.63301656
 31
0.0
  0
LINE
  5
1B4
100
AcDbEntity
  8
LAYER0243
  6
CONTINUOUS
 62
      32
100
AcDbLine
 10
-52.31343845
 20
-136.63301656
 30
0.0
 11
-51.62593845
 21
-136.07051656
 31
0.0
  0
LINE
  5
1B5
100
AcDbEntity
  8
LAYER0243
  6
CONTINUOUS
 62
      32
100
AcDbLine
 10
-62.21343845
 20
-135.32051656
 30
0.0
 11
-62.96343845
 21
-137.38301656
 31
0.0
  0
LINE
  5
1B6
100
AcDbEntity
  8
LAYER0243
  6
CONTINUOUS
 62
      32
100
AcDbLine
 10
-62.96343845
 20
-137.38301656
 30
0.0
 11
-63.40093845
 21
-137.82051656
 31
0.0
  0
LINE
  5
1B7
100
AcDbEntity
  8
LAYER0243
  6
CONTINUOUS
 62
      32
100
AcDbLine
 10
-62.96343845
 20
-137.38301656
 30
0.0
 11
-63.40093845
 21
-137.82051656
 31
0.0
  0
LINE
  5
1B8
100
AcDbEntity
  8
LAYER0243
  6
CONTINUOUS
 62
      32
100
AcDbLine
 10
-63.40093845
 20
-137.82051656
 30
0.0
 11
-63.77593845
 21
-138.19551656
 31
0.0
  0
LINE
  5
1B9
100
AcDbEntity
  8
LAYER0243
  6
CONTINUOUS
 62
      32
100
AcDbLine
 10
-63.77593845
 20
-138.19551656
 30
0.0
 11
-64.27593845
 21
-138.44551656
 31
0.0
  0
LINE
  5
1BA
100
AcDbEntity
  8
LAYER0243
  6
CONTINUOUS
 62
      32
100
AcDbLine
 10
-63.77593845
 20
-138.19551656
 30
0.0
 11
-64.27593845
 21
-138.44551656
 31
0.0
  0
LINE
  5
1BB
100
AcDbEntity
  8
LAYER0243
  6
CONTINUOUS
 62
      32
100
AcDbLine
 10
-64.27593845
 20
-138.44551656
 30
0.0
 11
-64.77593845
 21
-138.57051656
 31
0.0
  0
LINE
  5
1BC
100
AcDbEntity
  8
LAYER0243
  6
CONTINUOUS
 62
      32
100
AcDbLine
 10
-64.77593845
 20
-138.57051656
 30
0.0
 11
-67.96343845
 21
-138.57051656
 31
0.0
  0
LINE
  5
1BD
100
AcDbEntity
  8
LAYER0243
  6
CONTINUOUS
 62
      32
100
AcDbLine
 10
-64.77593845
 20
-138.57051656
 30
0.0
 11
-67.96343845
 21
-138.57051656
 31
0.0
  0
LINE
  5
1BE
100
AcDbEntity
  8
LAYER0243
  6
CONTINUOUS
 62
      32
100
AcDbLine
 10
-67.96343845
 20
-138.57051656
 30
0.0
 11
-67.58843845
 21
-137.63301656
 31
0.0
  0
LINE
  5
1BF
100
AcDbEntity
  8
LAYER0243
  6
CONTINUOUS
 62
      32
100
AcDbLine
 10
-67.58843845
 20
-137.63301656
 30
0.0
 11
-65.52593845
 21
-137.63301656
 31
0.0
  0
LINE
  5
1C0
100
AcDbEntity
  8
LAYER0243
  6
CONTINUOUS
 62
      32
100
AcDbLine
 10
-67.58843845
 20
-137.63301656
 30
0.0
 11
-65.52593845
 21
-137.63301656
 31
0.0
  0
LINE
  5
1C1
100
AcDbEntity
  8
LAYER0243
  6
CONTINUOUS
 62
      32
100
AcDbLine
 10
-64.33843845
 20
-136.19551656
 30
0.0
 11
-66.96343845
 21
-136.19551656
 31
0.0
  0
LINE
  5
1C2
100
AcDbEntity
  8
LAYER0243
  6
CONTINUOUS
 62
      32
100
AcDbLine
 10
-66.96343845
 20
-136.19551656
 30
0.0
 11
-66.71343845
 21
-135.32051656
 31
0.0
  0
LINE
  5
1C3
100
AcDbEntity
  8
LAYER0243
  6
CONTINUOUS
 62
      32
100
AcDbLine
 10
-66.96343845
 20
-136.19551656
 30
0.0
 11
-66.71343845
 21
-135.32051656
 31
0.0
  0
LINE
  5
1C4
100
AcDbEntity
  8
LAYER0243
  6
CONTINUOUS
 62
      32
100
AcDbLine
 10
-65.52593845
 20
-137.63301656
 30
0.0
 11
-65.08843845
 21
-137.32051656
 31
0.0
  0
LINE
  5
1C5
100
AcDbEntity
  8
LAYER0243
  6
CONTINUOUS
 62
      32
100
AcDbLine
 10
-65.52593845
 20
-137.63301656
 30
0.0
 11
-65.08843845
 21
-137.32051656
 31
0.0
  0
LINE
  5
1C6
100
AcDbEntity
  8
LAYER0243
  6
CONTINUOUS
 62
      32
100
AcDbLine
 10
-65.08843845
 20
-137.32051656
 30
0.0
 11
-64.77593845
 21
-137.00801656
 31
0.0
  0
LINE
  5
1C7
100
AcDbEntity
  8
LAYER0243
  6
CONTINUOUS
 62
      32
100
AcDbLine
 10
-65.08843845
 20
-137.32051656
 30
0.0
 11
-64.77593845
 21
-137.00801656
 31
0.0
  0
LINE
  5
1C8
100
AcDbEntity
  8
LAYER0243
  6
CONTINUOUS
 62
      32
100
AcDbLine
 10
-64.77593845
 20
-137.00801656
 30
0.0
 11
-64.46343845
 21
-136.63301656
 31
0.0
  0
LINE
  5
1C9
100
AcDbEntity
  8
LAYER0243
  6
CONTINUOUS
 62
      32
100
AcDbLine
 10
-64.77593845
 20
-137.00801656
 30
0.0
 11
-64.46343845
 21
-136.63301656
 31
0.0
  0
LINE
  5
1CA
100
AcDbEntity
  8
LAYER0243
  6
CONTINUOUS
 62
      32
100
AcDbLine
 10
-64.46343845
 20
-136.63301656
 30
0.0
 11
-64.33843845
 21
-136.19551656
 31
0.0
  0
LINE
  5
1CB
100
AcDbEntity
  8
LAYER0243
  6
CONTINUOUS
 62
      32
100
AcDbLine
 10
-64.46343845
 20
-136.63301656
 30
0.0
 11
-64.33843845
 21
-136.19551656
 31
0.0
  0
LINE
  5
1CC
100
AcDbEntity
  8
LAYER0243
  6
CONTINUOUS
 62
      32
100
AcDbLine
 10
-68.40093845
 20
-133.63301656
 30
0.0
 11
-67.02643472
 21
-133.63301656
 31
0.0
  0
LINE
  5
1CD
100
AcDbEntity
  8
LAYER0243
  6
CONTINUOUS
 62
      32
100
AcDbLine
 10
-68.16343845
 20
-137.32051656
 30
0.0
 11
-68.66343845
 21
-137.82051656
 31
0.0
  0
LINE
  5
1CE
100
AcDbEntity
  8
LAYER0243
  6
CONTINUOUS
 62
      32
100
AcDbLine
 10
-68.66343845
 20
-137.82051656
 30
0.0
 11
-69.16343845
 21
-138.25801656
 31
0.0
  0
LINE
  5
1CF
100
AcDbEntity
  8
LAYER0243
  6
CONTINUOUS
 62
      32
100
AcDbLine
 10
-68.66343845
 20
-137.82051656
 30
0.0
 11
-69.16343845
 21
-138.25801656
 31
0.0
  0
LINE
  5
1D0
100
AcDbEntity
  8
LAYER0243
  6
CONTINUOUS
 62
      32
100
AcDbLine
 10
-69.16343845
 20
-138.25801656
 30
0.0
 11
-69.78843845
 21
-138.50801656
 31
0.0
  0
LINE
  5
1D1
100
AcDbEntity
  8
LAYER0243
  6
CONTINUOUS
 62
      32
100
AcDbLine
 10
-69.78843845
 20
-138.50801656
 30
0.0
 11
-70.41343845
 21
-138.57051656
 31
0.0
  0
LINE
  5
1D2
100
AcDbEntity
  8
LAYER0243
  6
CONTINUOUS
 62
      32
100
AcDbLine
 10
-70.41343845
 20
-138.57051656
 30
0.0
 11
-71.97593845
 21
-138.57051656
 31
0.0
  0
LINE
  5
1D3
100
AcDbEntity
  8
LAYER0243
  6
CONTINUOUS
 62
      32
100
AcDbLine
 10
-71.97593845
 20
-138.57051656
 30
0.0
 11
-71.66343845
 21
-137.63301656
 31
0.0
  0
LINE
  5
1D4
100
AcDbEntity
  8
LAYER0243
  6
CONTINUOUS
 62
      32
100
AcDbLine
 10
-71.97593845
 20
-138.57051656
 30
0.0
 11
-71.66343845
 21
-137.63301656
 31
0.0
  0
LINE
  5
1D5
100
AcDbEntity
  8
LAYER0243
  6
CONTINUOUS
 62
      32
100
AcDbLine
 10
-69.78843845
 20
-136.82051656
 30
0.0
 11
-68.60093845
 21
-133.63301656
 31
0.0
  0
LINE
  5
1D6
100
AcDbEntity
  8
LAYER0243
  6
CONTINUOUS
 62
      32
100
AcDbLine
 10
-71.66343845
 20
-137.63301656
 30
0.0
 11
-71.10093845
 21
-137.63301656
 31
0.0
  0
LINE
  5
1D7
100
AcDbEntity
  8
LAYER0243
  6
CONTINUOUS
 62
      32
100
AcDbLine
 10
-71.66343845
 20
-137.63301656
 30
0.0
 11
-71.10093845
 21
-137.63301656
 31
0.0
  0
LINE
  5
1D8
100
AcDbEntity
  8
LAYER0243
  6
CONTINUOUS
 62
      32
100
AcDbLine
 10
-70.10093845
 20
-137.32051656
 30
0.0
 11
-69.78843845
 21
-136.82051656
 31
0.0
  0
LINE
  5
1D9
100
AcDbEntity
  8
LAYER0243
  6
CONTINUOUS
 62
      32
100
AcDbLine
 10
-70.60093845
 20
-137.57051656
 30
0.0
 11
-70.10093845
 21
-137.32051656
 31
0.0
  0
LINE
  5
1DA
100
AcDbEntity
  8
LAYER0243
  6
CONTINUOUS
 62
      32
100
AcDbLine
 10
-71.10093845
 20
-137.63301656
 30
0.0
 11
-70.60093845
 21
-137.57051656
 31
0.0
  0
LINE
  5
1DB
100
AcDbEntity
  8
LAYER0243
  6
CONTINUOUS
 62
      32
100
AcDbLine
 10
-71.10093845
 20
-137.63301656
 30
0.0
 11
-70.60093845
 21
-137.57051656
 31
0.0
  0
LINE
  5
1DC
100
AcDbEntity
  8
LAYER0243
  6
CONTINUOUS
 62
      32
100
AcDbLine
 10
-54.81343845
 20
-133.63301656
 30
0.0
 11
-52.81343845
 21
-133.63301656
 31
0.0
  0
LINE
  5
1DD
100
AcDbEntity
  8
LAYER0243
  6
CONTINUOUS
 62
      32
100
AcDbLine
 10
-52.81343845
 20
-133.63301656
 30
0.0
 11
-53.18843845
 21
-134.75801656
 31
0.0
  0
LINE
  5
1DE
100
AcDbEntity
  8
LAYER0243
  6
CONTINUOUS
 62
      32
100
AcDbLine
 10
-52.81343845
 20
-133.63301656
 30
0.0
 11
-53.18843845
 21
-134.75801656
 31
0.0
  0
LINE
  5
1DF
100
AcDbEntity
  8
LAYER0243
  6
CONTINUOUS
 62
      32
100
AcDbLine
 10
-53.28843845
 20
-134.75801656
 30
0.0
 11
-55.25093845
 21
-134.75801656
 31
0.0
  0
LINE
  5
1E0
100
AcDbEntity
  8
LAYER0243
  6
CONTINUOUS
 62
      32
100
AcDbLine
 10
-47.40601281
 20
-134.74970209
 30
0.0
 11
-47.98843845
 21
-135.82051656
 31
0.0
  0
LINE
  5
1E1
100
AcDbEntity
  8
LAYER0243
  6
CONTINUOUS
 62
      32
100
AcDbLine
 10
-45.67593845
 20
-133.63301656
 30
0.0
 11
-48.80093845
 21
-136.75801656
 31
0.0
  0
LINE
  5
1E2
100
AcDbEntity
  8
LAYER0243
  6
CONTINUOUS
 62
      32
100
AcDbLine
 10
-48.80093845
 20
-136.75801656
 30
0.0
 11
-50.53843845
 21
-138.49551656
 31
0.0
  0
LINE
  5
1E3
100
AcDbEntity
  8
LAYER0243
  6
CONTINUOUS
 62
      32
100
AcDbLine
 10
-45.95878117
 20
-133.63301656
 30
0.0
 11
-47.80020392
 21
-135.47443932
 31
0.0
  0
LINE
  5
1E4
100
AcDbEntity
  8
LAYER0243
  6
CONTINUOUS
 62
      32
100
AcDbLine
 10
-49.44743608
 20
-137.12167148
 30
0.0
 11
-50.87784971
 21
-138.5520851
 31
0.0
  0
LINE
  5
1E5
100
AcDbEntity
  8
LAYER0243
  6
CONTINUOUS
 62
      32
100
AcDbLine
 10
-46.24162388
 20
-133.63301656
 30
0.0
 11
-47.46290127
 21
-134.85429395
 31
0.0
  0
LINE
  5
1E6
100
AcDbEntity
  8
LAYER0243
  6
CONTINUOUS
 62
      32
100
AcDbLine
 10
-49.96330666
 20
-137.35469934
 30
0.0
 11
-51.21726096
 21
-138.60865365
 31
0.0
  0
LINE
  5
1E7
100
AcDbEntity
  8
LAYER0243
  6
CONTINUOUS
 62
      32
100
AcDbLine
 10
-46.52446659
 20
-133.63301656
 30
0.0
 11
-47.64946659
 21
-134.75801656
 31
0.0
  0
LINE
  5
1E8
100
AcDbEntity
  8
LAYER0243
  6
CONTINUOUS
 62
      32
100
AcDbLine
 10
-50.32157409
 20
-137.43012406
 30
0.0
 11
-51.27560492
 21
-138.38415489
 31
0.0
  0
LINE
  5
1E9
100
AcDbEntity
  8
LAYER0243
  6
CONTINUOUS
 62
      32
100
AcDbLine
 10
-46.8073093
 20
-133.63301656
 30
0.0
 11
-47.9323093
 21
-134.75801656
 31
0.0
  0
LINE
  5
1EA
100
AcDbEntity
  8
LAYER0243
  6
CONTINUOUS
 62
      32
100
AcDbLine
 10
-50.67984153
 20
-137.50554879
 30
0.0
 11
-51.12132708
 21
-137.94703434
 31
0.0
  0
LINE
  5
1EB
100
AcDbEntity
  8
LAYER0243
  6
CONTINUOUS
 62
      32
100
AcDbLine
 10
-47.09015202
 20
-133.63301656
 30
0.0
 11
-48.21515202
 21
-134.75801656
 31
0.0
  0
LINE
  5
1EC
100
AcDbEntity
  8
LAYER0243
  6
CONTINUOUS
 62
      32
100
AcDbLine
 10
-47.37299473
 20
-133.63301656
 30
0.0
 11
-48.49799473
 21
-134.75801656
 31
0.0
  0
LINE
  5
1ED
100
AcDbEntity
  8
LAYER0243
  6
CONTINUOUS
 62
      32
100
AcDbLine
 10
-47.65583744
 20
-133.63301656
 30
0.0
 11
-48.78083744
 21
-134.75801656
 31
0.0
  0
LINE
  5
1EE
100
AcDbEntity
  8
LAYER0243
  6
CONTINUOUS
 62
      32
100
AcDbLine
 10
-47.93868015
 20
-133.63301656
 30
0.0
 11
-49.06368015
 21
-134.75801656
 31
0.0
  0
LINE
  5
1EF
100
AcDbEntity
  8
LAYER0243
  6
CONTINUOUS
 62
      32
100
AcDbLine
 10
-48.22152287
 20
-133.63301656
 30
0.0
 11
-49.34652287
 21
-134.75801656
 31
0.0
  0
LINE
  5
1F0
100
AcDbEntity
  8
LAYER0243
  6
CONTINUOUS
 62
      32
100
AcDbLine
 10
-48.50436558
 20
-133.63301656
 30
0.0
 11
-49.60547489
 21
-134.73412587
 31
0.0
  0
LINE
  5
1F1
100
AcDbEntity
  8
LAYER0243
  6
CONTINUOUS
 62
      32
100
AcDbLine
 10
-48.78720829
 20
-133.63301656
 30
0.0
 11
-49.46405353
 21
-134.3098618
 31
0.0
  0
LINE
  5
1F2
100
AcDbEntity
  8
LAYER0243
  6
CONTINUOUS
 62
      32
100
AcDbLine
 10
-49.070051
 20
-133.63301656
 30
0.0
 11
-49.32263218
 21
-133.88559774
 31
0.0
  0
LINE
  5
1F3
100
AcDbEntity
  8
LAYER0243
  6
CONTINUOUS
 62
      32
100
AcDbLine
 10
-45.39309574
 20
-133.63301656
 30
0.0
 11
-50.1990272
 21
-138.43894802
 31
0.0
  0
LINE
  5
1F4
100
AcDbEntity
  8
LAYER0243
  6
CONTINUOUS
 62
      32
100
AcDbLine
 10
-45.11025303
 20
-133.63301656
 30
0.0
 11
-49.85961594
 21
-138.38237948
 31
0.0
  0
LINE
  5
1F5
100
AcDbEntity
  8
LAYER0243
  6
CONTINUOUS
 62
      32
100
AcDbLine
 10
-45.05284971
 20
-133.85845595
 30
0.0
 11
-49.52020469
 21
-138.32581093
 31
0.0
  0
LINE
  5
1F6
100
AcDbEntity
  8
LAYER0243
  6
CONTINUOUS
 62
      32
100
AcDbLine
 10
-45.16598679
 20
-134.25443575
 30
0.0
 11
-49.12951926
 21
-138.21796822
 31
0.0
  0
LINE
  5
1F7
100
AcDbEntity
  8
LAYER0243
  6
CONTINUOUS
 62
      32
100
AcDbLine
 10
-45.32562151
 20
-134.69691318
 30
0.0
 11
-48.73353947
 21
-138.10483114
 31
0.0
  0
LINE
  5
1F8
100
AcDbEntity
  8
LAYER0243
  6
CONTINUOUS
 62
      32
100
AcDbLine
 10
-45.56805812
 20
-135.2221925
 30
0.0
 11
-48.31785404
 21
-137.97198842
 31
0.0
  0
LINE
  5
1F9
100
AcDbEntity
  8
LAYER0243
  6
CONTINUOUS
 62
      32
100
AcDbLine
 10
-46.07323643
 20
-136.01021352
 30
0.0
 11
-47.89358997
 21
-137.83056707
 31
0.0
  0
LINE
  5
1FA
100
AcDbEntity
  8
LAYER0243
  6
CONTINUOUS
 62
      32
100
AcDbLine
 10
-46.64751381
 20
-136.86733362
 30
0.0
 11
-47.62346542
 21
-137.84328523
 31
0.0
  0
LINE
  5
1FB
100
AcDbEntity
  8
LAYER0243
  6
CONTINUOUS
 62
      32
100
AcDbLine
 10
-46.54066212
 20
-137.04332464
 30
0.0
 11
-47.51571582
 21
-138.01837834
 31
0.0
  0
LINE
  5
1FC
100
AcDbEntity
  8
LAYER0243
  6
CONTINUOUS
 62
      32
100
AcDbLine
 10
-46.43381043
 20
-137.21931566
 30
0.0
 11
-47.40796622
 21
-138.19347145
 31
0.0
  0
LINE
  5
1FD
100
AcDbEntity
  8
LAYER0243
  6
CONTINUOUS
 62
      32
100
AcDbLine
 10
-46.32695874
 20
-137.39530668
 30
0.0
 11
-47.30021661
 21
-138.36856455
 31
0.0
  0
LINE
  5
1FE
100
AcDbEntity
  8
LAYER0243
  6
CONTINUOUS
 62
      32
100
AcDbLine
 10
-46.22010705
 20
-137.5712977
 30
0.0
 11
-47.19246701
 21
-138.54365766
 31
0.0
  0
LINE
  5
1FF
100
AcDbEntity
  8
LAYER0243
  6
CONTINUOUS
 62
      32
100
AcDbLine
 10
-46.11325535
 20
-137.74728872
 30
0.0
 11
-46.93648319
 21
-138.57051656
 31
0.0
  0
LINE
  5
200
100
AcDbEntity
  8
LAYER0243
  6
CONTINUOUS
 62
      32
100
AcDbLine
 10
-46.00640366
 20
-137.92327974
 30
0.0
 11
-46.65364048
 21
-138.57051656
 31
0.0
  0
LINE
  5
201
100
AcDbEntity
  8
LAYER0243
  6
CONTINUOUS
 62
      32
100
AcDbLine
 10
-45.89955197
 20
-138.09927077
 30
0.0
 11
-46.37079777
 21
-138.57051656
 31
0.0
  0
LINE
  5
202
100
AcDbEntity
  8
LAYER0243
  6
CONTINUOUS
 62
      32
100
AcDbLine
 10
-45.79270028
 20
-138.27526179
 30
0.0
 11
-46.08795505
 21
-138.57051656
 31
0.0
  0
LINE
  5
203
100
AcDbEntity
  8
LAYER0243
  6
CONTINUOUS
 62
      32
100
AcDbLine
 10
-45.68584859
 20
-138.45125281
 30
0.0
 11
-45.80511234
 21
-138.57051656
 31
0.0
  0
LINE
  5
204
100
AcDbEntity
  8
LAYER0243
  6
CONTINUOUS
 62
      32
100
AcDbLine
 10
-53.46968845
 20
-133.63301656
 30
0.0
 11
-54.59468845
 21
-134.75801656
 31
0.0
  0
LINE
  5
205
100
AcDbEntity
  8
LAYER0243
  6
CONTINUOUS
 62
      32
100
AcDbLine
 10
-53.75253117
 20
-133.63301656
 30
0.0
 11
-54.87753117
 21
-134.75801656
 31
0.0
  0
LINE
  5
206
100
AcDbEntity
  8
LAYER0243
  6
CONTINUOUS
 62
      32
100
AcDbLine
 10
-54.03537388
 20
-133.63301656
 30
0.0
 11
-55.16037388
 21
-134.75801656
 31
0.0
  0
LINE
  5
207
100
AcDbEntity
  8
LAYER0243
  6
CONTINUOUS
 62
      32
100
AcDbLine
 10
-54.31821659
 20
-133.63301656
 30
0.0
 11
-55.12857964
 21
-134.44337961
 31
0.0
  0
LINE
  5
208
100
AcDbEntity
  8
LAYER0243
  6
CONTINUOUS
 62
      32
100
AcDbLine
 10
-54.6010593
 20
-133.63301656
 30
0.0
 11
-54.94858882
 21
-133.98054608
 31
0.0
  0
LINE
  5
209
100
AcDbEntity
  8
LAYER0243
  6
CONTINUOUS
 62
      32
100
AcDbLine
 10
-53.18684574
 20
-133.63301656
 30
0.0
 11
-54.31184574
 21
-134.75801656
 31
0.0
  0
LINE
  5
20A
100
AcDbEntity
  8
LAYER0243
  6
CONTINUOUS
 62
      32
100
AcDbLine
 10
-52.90400303
 20
-133.63301656
 30
0.0
 11
-54.02900303
 21
-134.75801656
 31
0.0
  0
LINE
  5
20B
100
AcDbEntity
  8
LAYER0243
  6
CONTINUOUS
 62
      32
100
AcDbLine
 10
-52.90957752
 20
-133.92143377
 30
0.0
 11
-53.74616032
 21
-134.75801656
 31
0.0
  0
LINE
  5
20C
100
AcDbEntity
  8
LAYER0243
  6
CONTINUOUS
 62
      32
100
AcDbLine
 10
-53.05099888
 20
-134.34569784
 30
0.0
 11
-53.4633176
 21
-134.75801656
 31
0.0
  0
LINE
  5
20D
100
AcDbEntity
  8
LAYER0243
  6
CONTINUOUS
 62
      32
100
AcDbLine
 10
-53.18047489
 20
-134.75801656
 30
0.0
 11
-53.19242023
 21
-134.7699619
 31
0.0
  0
LINE
  5
20E
100
AcDbEntity
  8
LAYER0243
  6
CONTINUOUS
 62
      32
100
AcDbLine
 10
-53.84468845
 20
-137.00801656
 30
0.0
 11
-55.40718845
 21
-138.57051656
 31
0.0
  0
LINE
  5
20F
100
AcDbEntity
  8
LAYER0243
  6
CONTINUOUS
 62
      32
100
AcDbLine
 10
-54.12753117
 20
-137.00801656
 30
0.0
 11
-55.69003117
 21
-138.57051656
 31
0.0
  0
LINE
  5
210
100
AcDbEntity
  8
LAYER0243
  6
CONTINUOUS
 62
      32
100
AcDbLine
 10
-54.41037388
 20
-137.00801656
 30
0.0
 11
-55.97287388
 21
-138.57051656
 31
0.0
  0
LINE
  5
211
100
AcDbEntity
  8
LAYER0243
  6
CONTINUOUS
 62
      32
100
AcDbLine
 10
-54.69321659
 20
-137.00801656
 30
0.0
 11
-56.25571659
 21
-138.57051656
 31
0.0
  0
LINE
  5
212
100
AcDbEntity
  8
LAYER0243
  6
CONTINUOUS
 62
      32
100
AcDbLine
 10
-54.9760593
 20
-137.00801656
 30
0.0
 11
-56.5385593
 21
-138.57051656
 31
0.0
  0
LINE
  5
213
100
AcDbEntity
  8
LAYER0243
  6
CONTINUOUS
 62
      32
100
AcDbLine
 10
-55.25890202
 20
-137.00801656
 30
0.0
 11
-56.5159902
 21
-138.26510474
 31
0.0
  0
LINE
  5
214
100
AcDbEntity
  8
LAYER0243
  6
CONTINUOUS
 62
      32
100
AcDbLine
 10
-55.54174473
 20
-137.00801656
 30
0.0
 11
-56.35689117
 21
-137.82316301
 31
0.0
  0
LINE
  5
215
100
AcDbEntity
  8
LAYER0243
  6
CONTINUOUS
 62
      32
100
AcDbLine
 10
-55.82458744
 20
-137.00801656
 30
0.0
 11
-56.19779215
 21
-137.38122127
 31
0.0
  0
LINE
  5
216
100
AcDbEntity
  8
LAYER0243
  6
CONTINUOUS
 62
      32
100
AcDbLine
 10
-53.56184574
 20
-137.00801656
 30
0.0
 11
-55.12434574
 21
-138.57051656
 31
0.0
  0
LINE
  5
217
100
AcDbEntity
  8
LAYER0243
  6
CONTINUOUS
 62
      32
100
AcDbLine
 10
-53.27900303
 20
-137.00801656
 30
0.0
 11
-54.84150303
 21
-138.57051656
 31
0.0
  0
LINE
  5
218
100
AcDbEntity
  8
LAYER0243
  6
CONTINUOUS
 62
      32
100
AcDbLine
 10
-50.55866032
 20
-134.57051656
 30
0.0
 11
-50.97267479
 21
-134.98453103
 31
0.0
  0
LINE
  5
219
100
AcDbEntity
  8
LAYER0243
  6
CONTINUOUS
 62
      32
100
AcDbLine
 10
-52.92888218
 20
-136.94073842
 30
0.0
 11
-54.55866032
 21
-138.57051656
 31
0.0
  0
LINE
  5
21A
100
AcDbEntity
  8
LAYER0243
  6
CONTINUOUS
 62
      32
100
AcDbLine
 10
-50.2758176
 20
-134.57051656
 30
0.0
 11
-51.22626072
 21
-135.52095968
 31
0.0
  0
LINE
  5
21B
100
AcDbEntity
  8
LAYER0243
  6
CONTINUOUS
 62
      32
100
AcDbLine
 10
-52.36319675
 20
-136.65789571
 30
0.0
 11
-54.2758176
 21
-138.57051656
 31
0.0
  0
LINE
  5
21C
100
AcDbEntity
  8
LAYER0243
  6
CONTINUOUS
 62
      32
100
AcDbLine
 10
-50.23442988
 20
-134.81197155
 30
0.0
 11
-53.99297489
 21
-138.57051656
 31
0.0
  0
LINE
  5
21D
100
AcDbEntity
  8
LAYER0243
  6
CONTINUOUS
 62
      32
100
AcDbLine
 10
-50.30098111
 20
-135.16136549
 30
0.0
 11
-53.71013218
 21
-138.57051656
 31
0.0
  0
LINE
  5
21E
100
AcDbEntity
  8
LAYER0243
  6
CONTINUOUS
 62
      32
100
AcDbLine
 10
-50.36753233
 20
-135.51075943
 30
0.0
 11
-53.42728947
 21
-138.57051656
 31
0.0
  0
LINE
  5
21F
100
AcDbEntity
  8
LAYER0243
  6
CONTINUOUS
 62
      32
100
AcDbLine
 10
-50.43408356
 20
-135.86015337
 30
0.0
 11
-53.00925339
 21
-138.4353232
 31
0.0
  0
LINE
  5
220
100
AcDbEntity
  8
LAYER0243
  6
CONTINUOUS
 62
      32
100
AcDbLine
 10
-50.83494007
 20
-136.54385259
 30
0.0
 11
-52.50013651
 21
-138.20904903
 31
0.0
  0
LINE
  5
221
100
AcDbEntity
  8
LAYER0243
  6
CONTINUOUS
 62
      32
100
AcDbLine
 10
-56.13218845
 20
-133.63301656
 30
0.0
 11
-60.62437595
 21
-138.12520406
 31
0.0
  0
LINE
  5
222
100
AcDbEntity
  8
LAYER0243
  6
CONTINUOUS
 62
      32
100
AcDbLine
 10
-56.41503117
 20
-133.63301656
 30
0.0
 11
-60.45938437
 21
-137.67736977
 31
0.0
  0
LINE
  5
223
100
AcDbEntity
  8
LAYER0243
  6
CONTINUOUS
 62
      32
100
AcDbLine
 10
-56.69787388
 20
-133.63301656
 30
0.0
 11
-60.29439279
 21
-137.22953547
 31
0.0
  0
LINE
  5
224
100
AcDbEntity
  8
LAYER0243
  6
CONTINUOUS
 62
      32
100
AcDbLine
 10
-56.98071659
 20
-133.63301656
 30
0.0
 11
-60.12940121
 21
-136.78170118
 31
0.0
  0
LINE
  5
225
100
AcDbEntity
  8
LAYER0243
  6
CONTINUOUS
 62
      32
100
AcDbLine
 10
-57.2635593
 20
-133.63301656
 30
0.0
 11
-59.96440962
 21
-136.33386688
 31
0.0
  0
LINE
  5
226
100
AcDbEntity
  8
LAYER0243
  6
CONTINUOUS
 62
      32
100
AcDbLine
 10
-57.54640202
 20
-133.63301656
 30
0.0
 11
-57.74636895
 21
-133.8329835
 31
0.0
  0
LINE
  5
227
100
AcDbEntity
  8
LAYER0243
  6
CONTINUOUS
 62
      32
100
AcDbLine
 10
-58.84924969
 20
-134.93586423
 30
0.0
 11
-60.10890202
 21
-136.19551656
 31
0.0
  0
LINE
  5
228
100
AcDbEntity
  8
LAYER0243
  6
CONTINUOUS
 62
      32
100
AcDbLine
 10
-59.34422443
 20
-135.14799627
 30
0.0
 11
-60.39174473
 21
-136.19551656
 31
0.0
  0
LINE
  5
229
100
AcDbEntity
  8
LAYER0243
  6
CONTINUOUS
 62
      32
100
AcDbLine
 10
-59.74843319
 20
-135.26936231
 30
0.0
 11
-60.67458744
 21
-136.19551656
 31
0.0
  0
LINE
  5
22A
100
AcDbEntity
  8
LAYER0243
  6
CONTINUOUS
 62
      32
100
AcDbLine
 10
-60.05484613
 20
-135.29293254
 30
0.0
 11
-60.95743015
 21
-136.19551656
 31
0.0
  0
LINE
  5
22B
100
AcDbEntity
  8
LAYER0243
  6
CONTINUOUS
 62
      32
100
AcDbLine
 10
-60.36125907
 20
-135.31650276
 30
0.0
 11
-61.24027287
 21
-136.19551656
 31
0.0
  0
LINE
  5
22C
100
AcDbEntity
  8
LAYER0243
  6
CONTINUOUS
 62
      32
100
AcDbLine
 10
-60.64811558
 20
-135.32051656
 30
0.0
 11
-61.52311558
 21
-136.19551656
 31
0.0
  0
LINE
  5
22D
100
AcDbEntity
  8
LAYER0243
  6
CONTINUOUS
 62
      32
100
AcDbLine
 10
-60.93095829
 20
-135.32051656
 30
0.0
 11
-61.80595829
 21
-136.19551656
 31
0.0
  0
LINE
  5
22E
100
AcDbEntity
  8
LAYER0243
  6
CONTINUOUS
 62
      32
100
AcDbLine
 10
-61.213801
 20
-135.32051656
 30
0.0
 11
-61.81601481
 21
-135.92273037
 31
0.0
  0
LINE
  5
22F
100
AcDbEntity
  8
LAYER0243
  6
CONTINUOUS
 62
      32
100
AcDbLine
 10
-61.49664372
 20
-135.32051656
 30
0.0
 11
-61.65887997
 21
-135.48275282
 31
0.0
  0
LINE
  5
230
100
AcDbEntity
  8
LAYER0243
  6
CONTINUOUS
 62
      32
100
AcDbLine
 10
-55.84934574
 20
-133.63301656
 30
0.0
 11
-60.78936754
 21
-138.57303836
 31
0.0
  0
LINE
  5
231
100
AcDbEntity
  8
LAYER0243
  6
CONTINUOUS
 62
      32
100
AcDbLine
 10
-55.56650303
 20
-133.63301656
 30
0.0
 11
-57.7386984
 21
-135.80521193
 31
0.0
  0
LINE
  5
232
100
AcDbEntity
  8
LAYER0243
  6
CONTINUOUS
 62
      32
100
AcDbLine
 10
-57.80624988
 20
-135.87276341
 30
0.0
 11
-60.50400303
 21
-138.57051656
 31
0.0
  0
LINE
  5
233
100
AcDbEntity
  8
LAYER0243
  6
CONTINUOUS
 62
      32
100
AcDbLine
 10
-55.28366032
 20
-133.63301656
 30
0.0
 11
-57.33014781
 21
-135.67950405
 31
0.0
  0
LINE
  5
234
100
AcDbEntity
  8
LAYER0243
  6
CONTINUOUS
 62
      32
100
AcDbLine
 10
-57.95254783
 20
-136.30190408
 30
0.0
 11
-60.22116032
 21
-138.57051656
 31
0.0
  0
LINE
  5
235
100
AcDbEntity
  8
LAYER0243
  6
CONTINUOUS
 62
      32
100
AcDbLine
 10
-55.53497061
 20
-134.16716957
 30
0.0
 11
-56.83799534
 21
-135.47019429
 31
0.0
  0
LINE
  5
236
100
AcDbEntity
  8
LAYER0243
  6
CONTINUOUS
 62
      32
100
AcDbLine
 10
-58.09884579
 20
-136.73104475
 30
0.0
 11
-59.9383176
 21
-138.57051656
 31
0.0
  0
LINE
  5
237
100
AcDbEntity
  8
LAYER0243
  6
CONTINUOUS
 62
      32
100
AcDbLine
 10
-58.24514374
 20
-137.16018541
 30
0.0
 11
-59.65547489
 21
-138.57051656
 31
0.0
  0
LINE
  5
238
100
AcDbEntity
  8
LAYER0243
  6
CONTINUOUS
 62
      32
100
AcDbLine
 10
-58.3914417
 20
-137.58932608
 30
0.0
 11
-59.37263218
 21
-138.57051656
 31
0.0
  0
LINE
  5
239
100
AcDbEntity
  8
LAYER0243
  6
CONTINUOUS
 62
      32
100
AcDbLine
 10
-58.53773965
 20
-138.01846675
 30
0.0
 11
-59.08978947
 21
-138.57051656
 31
0.0
  0
LINE
  5
23A
100
AcDbEntity
  8
LAYER0243
  6
CONTINUOUS
 62
      32
100
AcDbLine
 10
-58.68403761
 20
-138.44760742
 30
0.0
 11
-58.80694675
 21
-138.57051656
 31
0.0
  0
LINE
  5
23B
100
AcDbEntity
  8
LAYER0243
  6
CONTINUOUS
 62
      32
100
AcDbLine
 10
-63.55718845
 20
-133.63301656
 30
0.0
 11
-64.68218845
 21
-134.75801656
 31
0.0
  0
LINE
  5
23C
100
AcDbEntity
  8
LAYER0243
  6
CONTINUOUS
 62
      32
100
AcDbLine
 10
-63.84003117
 20
-133.63301656
 30
0.0
 11
-64.96503117
 21
-134.75801656
 31
0.0
  0
LINE
  5
23D
100
AcDbEntity
  8
LAYER0243
  6
CONTINUOUS
 62
      32
100
AcDbLine
 10
-64.12287388
 20
-133.63301656
 30
0.0
 11
-65.24787388
 21
-134.75801656
 31
0.0
  0
LINE
  5
23E
100
AcDbEntity
  8
LAYER0243
  6
CONTINUOUS
 62
      32
100
AcDbLine
 10
-64.40571659
 20
-133.63301656
 30
0.0
 11
-65.53071659
 21
-134.75801656
 31
0.0
  0
LINE
  5
23F
100
AcDbEntity
  8
LAYER0243
  6
CONTINUOUS
 62
      32
100
AcDbLine
 10
-64.6885593
 20
-133.63301656
 30
0.0
 11
-65.8135593
 21
-134.75801656
 31
0.0
  0
LINE
  5
240
100
AcDbEntity
  8
LAYER0243
  6
CONTINUOUS
 62
      32
100
AcDbLine
 10
-64.97140202
 20
-133.63301656
 30
0.0
 11
-66.09640202
 21
-134.75801656
 31
0.0
  0
LINE
  5
241
100
AcDbEntity
  8
LAYER0243
  6
CONTINUOUS
 62
      32
100
AcDbLine
 10
-65.25424473
 20
-133.63301656
 30
0.0
 11
-66.37924473
 21
-134.75801656
 31
0.0
  0
LINE
  5
242
100
AcDbEntity
  8
LAYER0243
  6
CONTINUOUS
 62
      32
100
AcDbLine
 10
-65.53708744
 20
-133.63301656
 30
0.0
 11
-66.55161396
 21
-134.64754308
 31
0.0
  0
LINE
  5
243
100
AcDbEntity
  8
LAYER0243
  6
CONTINUOUS
 62
      32
100
AcDbLine
 10
-65.81993015
 20
-133.63301656
 30
0.0
 11
-66.4101926
 21
-134.22327901
 31
0.0
  0
LINE
  5
244
100
AcDbEntity
  8
LAYER0243
  6
CONTINUOUS
 62
      32
100
AcDbLine
 10
-66.10277287
 20
-133.63301656
 30
0.0
 11
-66.26877125
 21
-133.79901494
 31
0.0
  0
LINE
  5
245
100
AcDbEntity
  8
LAYER0243
  6
CONTINUOUS
 62
      32
100
AcDbLine
 10
-63.27434574
 20
-133.63301656
 30
0.0
 11
-64.39934574
 21
-134.75801656
 31
0.0
  0
LINE
  5
246
100
AcDbEntity
  8
LAYER0243
  6
CONTINUOUS
 62
      32
100
AcDbLine
 10
-62.99150303
 20
-133.63301656
 30
0.0
 11
-64.11650303
 21
-134.75801656
 31
0.0
  0
LINE
  5
247
100
AcDbEntity
  8
LAYER0243
  6
CONTINUOUS
 62
      32
100
AcDbLine
 10
-62.70866032
 20
-133.63301656
 30
0.0
 11
-63.83366032
 21
-134.75801656
 31
0.0
  0
LINE
  5
248
100
AcDbEntity
  8
LAYER0243
  6
CONTINUOUS
 62
      32
100
AcDbLine
 10
-62.4258176
 20
-133.63301656
 30
0.0
 11
-63.5508176
 21
-134.75801656
 31
0.0
  0
LINE
  5
249
100
AcDbEntity
  8
LAYER0243
  6
CONTINUOUS
 62
      32
100
AcDbLine
 10
-62.14297489
 20
-133.63301656
 30
0.0
 11
-63.26797489
 21
-134.75801656
 31
0.0
  0
LINE
  5
24A
100
AcDbEntity
  8
LAYER0243
  6
CONTINUOUS
 62
      32
100
AcDbLine
 10
-61.86013218
 20
-133.63301656
 30
0.0
 11
-62.98513218
 21
-134.75801656
 31
0.0
  0
LINE
  5
24B
100
AcDbEntity
  8
LAYER0243
  6
CONTINUOUS
 62
      32
100
AcDbLine
 10
-61.68776295
 20
-133.74349004
 30
0.0
 11
-62.70228947
 21
-134.75801656
 31
0.0
  0
LINE
  5
24C
100
AcDbEntity
  8
LAYER0243
  6
CONTINUOUS
 62
      32
100
AcDbLine
 10
-61.8291843
 20
-134.16775411
 30
0.0
 11
-62.41944675
 21
-134.75801656
 31
0.0
  0
LINE
  5
24D
100
AcDbEntity
  8
LAYER0243
  6
CONTINUOUS
 62
      32
100
AcDbLine
 10
-61.97060566
 20
-134.59201818
 30
0.0
 11
-62.13660404
 21
-134.75801656
 31
0.0
  0
LINE
  5
24E
100
AcDbEntity
  8
LAYER0243
  6
CONTINUOUS
 62
      32
100
AcDbLine
 10
-63.46343845
 20
-135.32051656
 30
0.0
 11
-64.33843845
 21
-136.19551656
 31
0.0
  0
LINE
  5
24F
100
AcDbEntity
  8
LAYER0243
  6
CONTINUOUS
 62
      32
100
AcDbLine
 10
-65.77593845
 20
-137.63301656
 30
0.0
 11
-66.71343845
 21
-138.57051656
 31
0.0
  0
LINE
  5
250
100
AcDbEntity
  8
LAYER0243
  6
CONTINUOUS
 62
      32
100
AcDbLine
 10
-63.74628117
 20
-135.32051656
 30
0.0
 11
-64.62128117
 21
-136.19551656
 31
0.0
  0
LINE
  5
251
100
AcDbEntity
  8
LAYER0243
  6
CONTINUOUS
 62
      32
100
AcDbLine
 10
-66.05878117
 20
-137.63301656
 30
0.0
 11
-66.99628117
 21
-138.57051656
 31
0.0
  0
LINE
  5
252
100
AcDbEntity
  8
LAYER0243
  6
CONTINUOUS
 62
      32
100
AcDbLine
 10
-64.02912388
 20
-135.32051656
 30
0.0
 11
-64.90412388
 21
-136.19551656
 31
0.0
  0
LINE
  5
253
100
AcDbEntity
  8
LAYER0243
  6
CONTINUOUS
 62
      32
100
AcDbLine
 10
-66.34162388
 20
-137.63301656
 30
0.0
 11
-67.27912388
 21
-138.57051656
 31
0.0
  0
LINE
  5
254
100
AcDbEntity
  8
LAYER0243
  6
CONTINUOUS
 62
      32
100
AcDbLine
 10
-64.31196659
 20
-135.32051656
 30
0.0
 11
-65.18696659
 21
-136.19551656
 31
0.0
  0
LINE
  5
255
100
AcDbEntity
  8
LAYER0243
  6
CONTINUOUS
 62
      32
100
AcDbLine
 10
-66.62446659
 20
-137.63301656
 30
0.0
 11
-67.56196659
 21
-138.57051656
 31
0.0
  0
LINE
  5
256
100
AcDbEntity
  8
LAYER0243
  6
CONTINUOUS
 62
      32
100
AcDbLine
 10
-64.5948093
 20
-135.32051656
 30
0.0
 11
-65.4698093
 21
-136.19551656
 31
0.0
  0
LINE
  5
257
100
AcDbEntity
  8
LAYER0243
  6
CONTINUOUS
 62
      32
100
AcDbLine
 10
-66.9073093
 20
-137.63301656
 30
0.0
 11
-67.8448093
 21
-138.57051656
 31
0.0
  0
LINE
  5
258
100
AcDbEntity
  8
LAYER0243
  6
CONTINUOUS
 62
      32
100
AcDbLine
 10
-64.87765202
 20
-135.32051656
 30
0.0
 11
-65.75265202
 21
-136.19551656
 31
0.0
  0
LINE
  5
259
100
AcDbEntity
  8
LAYER0243
  6
CONTINUOUS
 62
      32
100
AcDbLine
 10
-67.19015202
 20
-137.63301656
 30
0.0
 11
-67.85396275
 21
-138.29682729
 31
0.0
  0
LINE
  5
25A
100
AcDbEntity
  8
LAYER0243
  6
CONTINUOUS
 62
      32
100
AcDbLine
 10
-65.16049473
 20
-135.32051656
 30
0.0
 11
-66.03549473
 21
-136.19551656
 31
0.0
  0
LINE
  5
25B
100
AcDbEntity
  8
LAYER0243
  6
CONTINUOUS
 62
      32
100
AcDbLine
 10
-67.47299473
 20
-137.63301656
 30
0.0
 11
-67.66540094
 21
-137.82542277
 31
0.0
  0
LINE
  5
25C
100
AcDbEntity
  8
LAYER0243
  6
CONTINUOUS
 62
      32
100
AcDbLine
 10
-65.44333744
 20
-135.32051656
 30
0.0
 11
-66.31833744
 21
-136.19551656
 31
0.0
  0
LINE
  5
25D
100
AcDbEntity
  8
LAYER0243
  6
CONTINUOUS
 62
      32
100
AcDbLine
 10
-65.72618015
 20
-135.32051656
 30
0.0
 11
-66.60118015
 21
-136.19551656
 31
0.0
  0
LINE
  5
25E
100
AcDbEntity
  8
LAYER0243
  6
CONTINUOUS
 62
      32
100
AcDbLine
 10
-66.00902287
 20
-135.32051656
 30
0.0
 11
-66.88402287
 21
-136.19551656
 31
0.0
  0
LINE
  5
25F
100
AcDbEntity
  8
LAYER0243
  6
CONTINUOUS
 62
      32
100
AcDbLine
 10
-66.29186558
 20
-135.32051656
 30
0.0
 11
-66.8820676
 21
-135.91071859
 31
0.0
  0
LINE
  5
260
100
AcDbEntity
  8
LAYER0243
  6
CONTINUOUS
 62
      32
100
AcDbLine
 10
-66.57470829
 20
-135.32051656
 30
0.0
 11
-66.76893052
 21
-135.51473879
 31
0.0
  0
LINE
  5
261
100
AcDbEntity
  8
LAYER0243
  6
CONTINUOUS
 62
      32
100
AcDbLine
 10
-63.18059574
 20
-135.32051656
 30
0.0
 11
-64.45157554
 21
-136.59149636
 31
0.0
  0
LINE
  5
262
100
AcDbEntity
  8
LAYER0243
  6
CONTINUOUS
 62
      32
100
AcDbLine
 10
-65.41098896
 20
-137.55090978
 30
0.0
 11
-66.43059574
 21
-138.57051656
 31
0.0
  0
LINE
  5
263
100
AcDbEntity
  8
LAYER0243
  6
CONTINUOUS
 62
      32
100
AcDbLine
 10
-62.89775303
 20
-135.32051656
 30
0.0
 11
-66.14775303
 21
-138.57051656
 31
0.0
  0
LINE
  5
264
100
AcDbEntity
  8
LAYER0243
  6
CONTINUOUS
 62
      32
100
AcDbLine
 10
-62.61491032
 20
-135.32051656
 30
0.0
 11
-65.86491032
 21
-138.57051656
 31
0.0
  0
LINE
  5
265
100
AcDbEntity
  8
LAYER0243
  6
CONTINUOUS
 62
      32
100
AcDbLine
 10
-62.3320676
 20
-135.32051656
 30
0.0
 11
-65.5820676
 21
-138.57051656
 31
0.0
  0
LINE
  5
266
100
AcDbEntity
  8
LAYER0243
  6
CONTINUOUS
 62
      32
100
AcDbLine
 10
-62.30727477
 20
-135.57856644
 30
0.0
 11
-65.29922489
 21
-138.57051656
 31
0.0
  0
LINE
  5
267
100
AcDbEntity
  8
LAYER0243
  6
CONTINUOUS
 62
      32
100
AcDbLine
 10
-62.46889918
 20
-136.02303356
 30
0.0
 11
-65.01638218
 21
-138.57051656
 31
0.0
  0
LINE
  5
268
100
AcDbEntity
  8
LAYER0243
  6
CONTINUOUS
 62
      32
100
AcDbLine
 10
-62.63052359
 20
-136.46750068
 30
0.0
 11
-64.71940647
 21
-138.55638356
 31
0.0
  0
LINE
  5
269
100
AcDbEntity
  8
LAYER0243
  6
CONTINUOUS
 62
      32
100
AcDbLine
 10
-62.792148
 20
-136.9119678
 30
0.0
 11
-64.34228285
 21
-138.46210266
 31
0.0
  0
LINE
  5
26A
100
AcDbEntity
  8
LAYER0243
  6
CONTINUOUS
 62
      32
100
AcDbLine
 10
-62.9537724
 20
-137.35643492
 30
0.0
 11
-63.80976963
 21
-138.21243215
 31
0.0
  0
LINE
  5
26B
100
AcDbEntity
  8
LAYER0243
  6
CONTINUOUS
 62
      32
100
AcDbLine
 10
-66.97593845
 20
-133.63301656
 30
0.0
 11
-69.5657822
 21
-136.22286031
 31
0.0
  0
LINE
  5
26C
100
AcDbEntity
  8
LAYER0243
  6
CONTINUOUS
 62
      32
100
AcDbLine
 10
-70.95808131
 20
-137.61515942
 30
0.0
 11
-71.91343845
 21
-138.57051656
 31
0.0
  0
LINE
  5
26D
100
AcDbEntity
  8
LAYER0243
  6
CONTINUOUS
 62
      32
100
AcDbLine
 10
-67.25878117
 20
-133.63301656
 30
0.0
 11
-69.39784434
 21
-135.77207974
 31
0.0
  0
LINE
  5
26E
100
AcDbEntity
  8
LAYER0243
  6
CONTINUOUS
 62
      32
100
AcDbLine
 10
-71.25878117
 20
-137.63301656
 30
0.0
 11
-71.8657671
 21
-138.24000249
 31
0.0
  0
LINE
  5
26F
100
AcDbEntity
  8
LAYER0243
  6
CONTINUOUS
 62
      32
100
AcDbLine
 10
-67.54162388
 20
-133.63301656
 30
0.0
 11
-69.22990648
 21
-135.32129916
 31
0.0
  0
LINE
  5
270
100
AcDbEntity
  8
LAYER0243
  6
CONTINUOUS
 62
      32
100
AcDbLine
 10
-71.54162388
 20
-137.63301656
 30
0.0
 11
-71.72434574
 21
-137.81573842
 31
0.0
  0
LINE
  5
271
100
AcDbEntity
  8
LAYER0243
  6
CONTINUOUS
 62
      32
100
AcDbLine
 10
-67.82446659
 20
-133.63301656
 30
0.0
 11
-69.06196862
 21
-134.87051859
 31
0.0
  0
LINE
  5
272
100
AcDbEntity
  8
LAYER0243
  6
CONTINUOUS
 62
      32
100
AcDbLine
 10
-68.1073093
 20
-133.63301656
 30
0.0
 11
-68.89403076
 21
-134.41973802
 31
0.0
  0
LINE
  5
273
100
AcDbEntity
  8
LAYER0243
  6
CONTINUOUS
 62
      32
100
AcDbLine
 10
-68.39015202
 20
-133.63301656
 30
0.0
 11
-68.7260929
 21
-133.96895745
 31
0.0
  0
LINE
  5
274
100
AcDbEntity
  8
LAYER0243
  6
CONTINUOUS
 62
      32
100
AcDbLine
 10
-67.02643472
 20
-133.96635554
 30
0.0
 11
-69.73372006
 21
-136.67364088
 31
0.0
  0
LINE
  5
275
100
AcDbEntity
  8
LAYER0243
  6
CONTINUOUS
 62
      32
100
AcDbLine
 10
-70.6348325
 20
-137.57475332
 30
0.0
 11
-71.63059574
 21
-138.57051656
 31
0.0
  0
LINE
  5
276
100
AcDbEntity
  8
LAYER0243
  6
CONTINUOUS
 62
      32
100
AcDbLine
 10
-67.17148226
 20
-134.39424579
 30
0.0
 11
-70.0945676
 21
-137.31733114
 31
0.0
  0
LINE
  5
277
100
AcDbEntity
  8
LAYER0243
  6
CONTINUOUS
 62
      32
100
AcDbLine
 10
-70.10624749
 20
-137.32901103
 30
0.0
 11
-71.34775303
 21
-138.57051656
 31
0.0
  0
LINE
  5
278
100
AcDbEntity
  8
LAYER0243
  6
CONTINUOUS
 62
      32
100
AcDbLine
 10
-67.31652981
 20
-134.82213605
 30
0.0
 11
-71.06491032
 21
-138.57051656
 31
0.0
  0
LINE
  5
279
100
AcDbEntity
  8
LAYER0243
  6
CONTINUOUS
 62
      32
100
AcDbLine
 10
-67.46157735
 20
-135.25002631
 30
0.0
 11
-70.7820676
 21
-138.57051656
 31
0.0
  0
LINE
  5
27A
100
AcDbEntity
  8
LAYER0243
  6
CONTINUOUS
 62
      32
100
AcDbLine
 10
-67.6066249
 20
-135.67791657
 30
0.0
 11
-70.49922489
 21
-138.57051656
 31
0.0
  0
LINE
  5
27B
100
AcDbEntity
  8
LAYER0243
  6
CONTINUOUS
 62
      32
100
AcDbLine
 10
-67.75167244
 20
-136.10580682
 30
0.0
 11
-70.19448704
 21
-138.54862142
 31
0.0
  0
LINE
  5
27C
100
AcDbEntity
  8
LAYER0243
  6
CONTINUOUS
 62
      32
100
AcDbLine
 10
-67.89671999
 20
-136.53369708
 30
0.0
 11
-69.88021736
 21
-138.51719445
 31
0.0
  0
LINE
  5
27D
100
AcDbEntity
  8
LAYER0243
  6
CONTINUOUS
 62
      32
100
AcDbLine
 10
-68.04176753
 20
-136.96158734
 30
0.0
 11
-69.45470229
 21
-138.37452209
 31
0.0
  0
LINE
  5
27E
100
AcDbEntity
  8
LAYER0243
  6
CONTINUOUS
 62
      32
100
AcDbLine
 10
-69.98218845
 20
-133.98301656
 30
0.0
 11
-72.29347878
 21
-136.29430688
 31
0.0
  0
LINE
  5
27F
100
AcDbEntity
  8
LAYER0243
  6
CONTINUOUS
 62
      32
100
AcDbLine
 10
-69.91503117
 20
-133.63301656
 30
0.0
 11
-72.13837148
 21
-135.85635688
 31
0.0
  0
LINE
  5
280
100
AcDbEntity
  8
LAYER0243
  6
CONTINUOUS
 62
      32
100
AcDbLine
 10
-70.19787388
 20
-133.63301656
 30
0.0
 11
-71.98326419
 21
-135.41840687
 31
0.0
  0
LINE
  5
281
100
AcDbEntity
  8
LAYER0243
  6
CONTINUOUS
 62
      32
100
AcDbLine
 10
-70.48071659
 20
-133.63301656
 30
0.0
 11
-71.82815689
 21
-134.98045686
 31
0.0
  0
LINE
  5
282
100
AcDbEntity
  8
LAYER0243
  6
CONTINUOUS
 62
      32
100
AcDbLine
 10
-70.7635593
 20
-133.63301656
 30
0.0
 11
-71.6730496
 21
-134.54250686
 31
0.0
  0
LINE
  5
283
100
AcDbEntity
  8
LAYER0243
  6
CONTINUOUS
 62
      32
100
AcDbLine
 10
-71.04640202
 20
-133.63301656
 30
0.0
 11
-71.51794231
 21
-134.10455685
 31
0.0
  0
LINE
  5
284
100
AcDbEntity
  8
LAYER0243
  6
CONTINUOUS
 62
      32
100
AcDbLine
 10
-71.32924473
 20
-133.63301656
 30
0.0
 11
-71.36283501
 21
-133.66660684
 31
0.0
  0
LINE
  5
285
100
AcDbEntity
  8
LAYER0243
  6
CONTINUOUS
 62
      32
100
AcDbLine
 10
-70.15189408
 20
-134.4355649
 30
0.0
 11
-72.34934574
 21
-136.63301656
 31
0.0
  0
LINE
  5
286
100
AcDbEntity
  8
LAYER0243
  6
CONTINUOUS
 62
      32
100
AcDbLine
 10
-70.32159971
 20
-134.88811324
 30
0.0
 11
-72.06650303
 21
-136.63301656
 31
0.0
  0
LINE
  5
287
100
AcDbEntity
  8
LAYER0243
  6
CONTINUOUS
 62
      32
100
AcDbLine
 10
-70.49130534
 20
-135.34066158
 30
0.0
 11
-71.78366032
 21
-136.63301656
 31
0.0
  0
LINE
  5
288
100
AcDbEntity
  8
LAYER0243
  6
CONTINUOUS
 62
      32
100
AcDbLine
 10
-70.66101096
 20
-135.79320992
 30
0.0
 11
-71.5008176
 21
-136.63301656
 31
0.0
  0
LINE
  5
289
100
AcDbEntity
  8
LAYER0243
  6
CONTINUOUS
 62
      32
100
AcDbLine
 10
-70.83071659
 20
-136.24575826
 30
0.0
 11
-71.21797489
 21
-136.63301656
 31
0.0
  0
LINE
  5
28A
100
AcDbEntity
  8
LAYER0243
  6
CONTINUOUS
 62
      32
100
AcDbLine
 10
-80.73843845
 20
139.17948344
 30
0.0
 11
-81.58598193
 21
140.67898344
 31
0.0
  0
LINE
  5
28B
100
AcDbEntity
  8
LAYER0243
  6
CONTINUOUS
 62
      32
100
AcDbLine
 10
-84.96399428
 20
141.99198344
 30
0.0
 11
-84.85982761
 21
142.30448344
 31
0.0
  0
LINE
  5
28C
100
AcDbEntity
  8
LAYER0243
  6
CONTINUOUS
 62
      32
100
AcDbLine
 10
-76.99873614
 20
139.54933459
 30
0.0
 11
-77.11243845
 21
139.49248344
 31
0.0
  0
LINE
  5
28D
100
AcDbEntity
  8
LAYER0243
  6
CONTINUOUS
 62
      32
100
AcDbLine
 10
-76.92593845
 20
139.17948344
 30
0.0
 11
-76.40093845
 21
139.70448344
 31
0.0
  0
LINE
  5
28E
100
AcDbEntity
  8
LAYER0243
  6
CONTINUOUS
 62
      32
100
AcDbLine
 10
-76.48843845
 20
139.17948344
 30
0.0
 11
-76.40093845
 21
139.70448344
 31
0.0
  0
LINE
  5
28F
100
AcDbEntity
  8
LAYER0243
  6
CONTINUOUS
 62
      32
100
AcDbLine
 10
-74.17593845
 20
139.61698344
 30
0.0
 11
-74.17593845
 21
139.49248344
 31
0.0
  0
LINE
  5
290
100
AcDbEntity
  8
LAYER0243
  6
CONTINUOUS
 62
      32
100
AcDbLine
 10
-71.41091791
 20
139.17948344
 30
0.0
 11
-72.55093845
 21
139.17948344
 31
0.0
  0
LINE
  5
291
100
AcDbEntity
  8
LAYER0243
  6
CONTINUOUS
 62
      32
100
AcDbLine
 10
-73.16690598
 20
139.62488686
 30
0.0
 11
-73.67593845
 21
139.17948344
 31
0.0
  0
LINE
  5
292
100
AcDbEntity
  8
LAYER0243
  6
CONTINUOUS
 62
      32
100
AcDbLine
 10
-69.55519045
 20
139.17948344
 30
0.0
 11
-70.86343845
 21
139.17948344
 31
0.0
  0
LINE
  5
293
100
AcDbEntity
  8
LAYER0243
  6
CONTINUOUS
 62
      32
100
AcDbLine
 10
-82.58981345
 20
139.49248344
 30
0.0
 11
-81.65250095
 21
141.99198344
 31
0.0
  0
LINE
  5
294
100
AcDbEntity
  8
LAYER0243
  6
CONTINUOUS
 62
      32
100
AcDbLine
 10
-81.69321681
 20
140.99198344
 30
0.0
 11
-80.23026061
 21
140.99198344
 31
0.0
  0
LINE
  5
295
100
AcDbEntity
  8
LAYER0243
  6
CONTINUOUS
 62
      32
100
AcDbLine
 10
-72.27821118
 20
139.92948344
 30
0.0
 11
-72.48843845
 21
139.92948344
 31
0.0
  0
LINE
  5
296
100
AcDbEntity
  8
LAYER0243
  6
CONTINUOUS
 62
      32
100
AcDbLine
 10
-72.48843845
 20
139.92948344
 30
0.0
 11
-72.69505256
 21
139.92948344
 31
0.0
  0
LINE
  5
297
100
AcDbEntity
  8
LAYER0243
  6
CONTINUOUS
 62
      32
100
AcDbLine
 10
-74.52318326
 20
139.17948344
 30
0.0
 11
-73.67593845
 21
139.17948344
 31
0.0
  0
CIRCLE
  5
298
100
AcDbEntity
  8
LAYER0243
  6
CONTINUOUS
 62
      32
100
AcDbCircle
 10
-75.89651369
 20
140.92948344
 30
0.0
 40
0.18932524
  0
LINE
  5
299
100
AcDbEntity
  8
LAYER0243
  6
CONTINUOUS
 62
      32
100
AcDbLine
 10
-82.35562595
 20
141.99198344
 30
0.0
 11
-81.65250095
 21
141.99198344
 31
0.0
  0
LINE
  5
29A
100
AcDbEntity
  8
LAYER0243
  6
CONTINUOUS
 62
      32
100
AcDbLine
 10
-81.31821681
 20
141.99198344
 30
0.0
 11
-80.23026061
 21
141.99198344
 31
0.0
  0
LINE
  5
29B
100
AcDbEntity
  8
LAYER0243
  6
CONTINUOUS
 62
      32
100
AcDbLine
 10
-83.42593845
 20
139.17948344
 30
0.0
 11
-83.30856345
 21
139.49248344
 31
0.0
  0
LINE
  5
29C
100
AcDbEntity
  8
LAYER0243
  6
CONTINUOUS
 62
      32
100
AcDbLine
 10
-82.35562595
 20
141.99198344
 30
0.0
 11
-82.23843845
 21
142.30448344
 31
0.0
  0
LINE
  5
29D
100
AcDbEntity
  8
LAYER0243
  6
CONTINUOUS
 62
      32
100
AcDbLine
 10
-82.51202692
 20
141.99198344
 30
0.0
 11
-82.39483942
 21
142.30448344
 31
0.0
  0
LINE
  5
29E
100
AcDbEntity
  8
LAYER0243
  6
CONTINUOUS
 62
      32
100
AcDbLine
 10
-80.23026061
 20
142.30448344
 30
0.0
 11
-82.23843845
 21
142.30448344
 31
0.0
  0
LINE
  5
29F
100
AcDbEntity
  8
LAYER0243
  6
CONTINUOUS
 62
      32
100
AcDbLine
 10
-82.39483942
 20
142.30448344
 30
0.0
 11
-82.6917488
 21
142.30448344
 31
0.0
  0
LINE
  5
2A0
100
AcDbEntity
  8
LAYER0243
  6
CONTINUOUS
 62
      32
100
AcDbLine
 10
-82.8089363
 20
141.99198344
 30
0.0
 11
-82.51202692
 21
141.99198344
 31
0.0
  0
LINE
  5
2A1
100
AcDbEntity
  8
LAYER0243
  6
CONTINUOUS
 62
      32
100
AcDbLine
 10
-82.92278875
 20
141.99198344
 30
0.0
 11
-82.80560125
 21
142.30448344
 31
0.0
  0
LINE
  5
2A2
100
AcDbEntity
  8
LAYER0243
  6
CONTINUOUS
 62
      32
100
AcDbLine
 10
-82.80560125
 20
142.30448344
 30
0.0
 11
-83.0544808
 21
142.30448344
 31
0.0
  0
LINE
  5
2A3
100
AcDbEntity
  8
LAYER0243
  6
CONTINUOUS
 62
      32
100
AcDbLine
 10
-83.1716683
 20
141.99198344
 30
0.0
 11
-82.92278875
 21
141.99198344
 31
0.0
  0
LINE
  5
2A4
100
AcDbEntity
  8
LAYER0243
  6
CONTINUOUS
 62
      32
100
AcDbLine
 10
-83.1716683
 20
141.99198344
 30
0.0
 11
-83.0544808
 21
142.30448344
 31
0.0
  0
LINE
  5
2A5
100
AcDbEntity
  8
LAYER0243
  6
CONTINUOUS
 62
      32
100
AcDbLine
 10
-83.26696763
 20
142.30448344
 30
0.0
 11
-83.51085075
 21
142.30448344
 31
0.0
  0
LINE
  5
2A6
100
AcDbEntity
  8
LAYER0243
  6
CONTINUOUS
 62
      32
100
AcDbLine
 10
-83.62803825
 20
141.99198344
 30
0.0
 11
-83.38415513
 21
141.99198344
 31
0.0
  0
LINE
  5
2A7
100
AcDbEntity
  8
LAYER0243
  6
CONTINUOUS
 62
      32
100
AcDbLine
 10
-83.62803825
 20
141.99198344
 30
0.0
 11
-83.51085075
 21
142.30448344
 31
0.0
  0
LINE
  5
2A8
100
AcDbEntity
  8
LAYER0243
  6
CONTINUOUS
 62
      32
100
AcDbLine
 10
-82.8089363
 20
141.99198344
 30
0.0
 11
-82.6917488
 21
142.30448344
 31
0.0
  0
LINE
  5
2A9
100
AcDbEntity
  8
LAYER0243
  6
CONTINUOUS
 62
      32
100
AcDbLine
 10
-83.38415513
 20
141.99198344
 30
0.0
 11
-83.26696763
 21
142.30448344
 31
0.0
  0
LINE
  5
2AA
100
AcDbEntity
  8
LAYER0243
  6
CONTINUOUS
 62
      32
100
AcDbLine
 10
-83.81070297
 20
141.99198344
 30
0.0
 11
-83.69351547
 21
142.30448344
 31
0.0
  0
LINE
  5
2AB
100
AcDbEntity
  8
LAYER0243
  6
CONTINUOUS
 62
      32
100
AcDbLine
 10
-83.69351547
 20
142.30448344
 30
0.0
 11
-83.9190091
 21
142.30448344
 31
0.0
  0
LINE
  5
2AC
100
AcDbEntity
  8
LAYER0243
  6
CONTINUOUS
 62
      32
100
AcDbLine
 10
-84.0361966
 20
141.99198344
 30
0.0
 11
-83.81070297
 21
141.99198344
 31
0.0
  0
LINE
  5
2AD
100
AcDbEntity
  8
LAYER0243
  6
CONTINUOUS
 62
      32
100
AcDbLine
 10
-84.0361966
 20
141.99198344
 30
0.0
 11
-83.9190091
 21
142.30448344
 31
0.0
  0
LINE
  5
2AE
100
AcDbEntity
  8
LAYER0243
  6
CONTINUOUS
 62
      32
100
AcDbLine
 10
-84.22708099
 20
141.99198344
 30
0.0
 11
-84.10989349
 21
142.30448344
 31
0.0
  0
LINE
  5
2AF
100
AcDbEntity
  8
LAYER0243
  6
CONTINUOUS
 62
      32
100
AcDbLine
 10
-84.10989349
 20
142.30448344
 30
0.0
 11
-84.31041432
 21
142.30448344
 31
0.0
  0
LINE
  5
2B0
100
AcDbEntity
  8
LAYER0243
  6
CONTINUOUS
 62
      32
100
AcDbLine
 10
-84.41458099
 20
141.99198344
 30
0.0
 11
-84.22708099
 21
141.99198344
 31
0.0
  0
LINE
  5
2B1
100
AcDbEntity
  8
LAYER0243
  6
CONTINUOUS
 62
      32
100
AcDbLine
 10
-84.41458099
 20
141.99198344
 30
0.0
 11
-84.31041432
 21
142.30448344
 31
0.0
  0
LINE
  5
2B2
100
AcDbEntity
  8
LAYER0243
  6
CONTINUOUS
 62
      32
100
AcDbLine
 10
-84.61425351
 20
141.99198344
 30
0.0
 11
-84.51008684
 21
142.30448344
 31
0.0
  0
LINE
  5
2B3
100
AcDbEntity
  8
LAYER0243
  6
CONTINUOUS
 62
      32
100
AcDbLine
 10
-84.77649428
 20
141.99198344
 30
0.0
 11
-84.67232761
 21
142.30448344
 31
0.0
  0
LINE
  5
2B4
100
AcDbEntity
  8
LAYER0243
  6
CONTINUOUS
 62
      32
100
AcDbLine
 10
-85.07857761
 20
141.99198344
 30
0.0
 11
-84.97441095
 21
142.30448344
 31
0.0
  0
LINE
  5
2B5
100
AcDbEntity
  8
LAYER0243
  6
CONTINUOUS
 62
      32
100
AcDbLine
 10
-85.27649428
 20
141.99198344
 30
0.0
 11
-85.17232761
 21
142.30448344
 31
0.0
  0
LINE
  5
2B6
100
AcDbEntity
  8
LAYER0243
  6
CONTINUOUS
 62
      32
100
AcDbLine
 10
-85.32857761
 20
141.99198344
 30
0.0
 11
-85.22441095
 21
142.30448344
 31
0.0
  0
LINE
  5
2B7
100
AcDbEntity
  8
LAYER0243
  6
CONTINUOUS
 62
      32
100
AcDbLine
 10
-84.51008684
 20
142.30448344
 30
0.0
 11
-84.67232761
 21
142.30448344
 31
0.0
  0
LINE
  5
2B8
100
AcDbEntity
  8
LAYER0243
  6
CONTINUOUS
 62
      32
100
AcDbLine
 10
-84.77649428
 20
141.99198344
 30
0.0
 11
-84.61425351
 21
141.99198344
 31
0.0
  0
LINE
  5
2B9
100
AcDbEntity
  8
LAYER0243
  6
CONTINUOUS
 62
      32
100
AcDbLine
 10
-84.85982761
 20
142.30448344
 30
0.0
 11
-84.97441095
 21
142.30448344
 31
0.0
  0
LINE
  5
2BA
100
AcDbEntity
  8
LAYER0243
  6
CONTINUOUS
 62
      32
100
AcDbLine
 10
-85.17232761
 20
142.30448344
 30
0.0
 11
-85.22441095
 21
142.30448344
 31
0.0
  0
LINE
  5
2BB
100
AcDbEntity
  8
LAYER0243
  6
CONTINUOUS
 62
      32
100
AcDbLine
 10
-85.07857761
 20
141.99198344
 30
0.0
 11
-84.96399428
 21
141.99198344
 31
0.0
  0
LINE
  5
2BC
100
AcDbEntity
  8
LAYER0243
  6
CONTINUOUS
 62
      32
100
AcDbLine
 10
-85.27649428
 20
141.99198344
 30
0.0
 11
-85.32857761
 21
141.99198344
 31
0.0
  0
ARC
  5
2BD
100
AcDbEntity
  8
LAYER0243
  6
CONTINUOUS
 62
      32
100
AcDbCircle
 10
-80.23026061
 20
141.49198344
 30
0.0
 40
0.5
100
AcDbArc
 50
270.0
 51
450.0
  0
LINE
  5
2BE
100
AcDbEntity
  8
LAYER0243
  6
CONTINUOUS
 62
      32
100
AcDbLine
 10
-83.30856345
 20
139.49248344
 30
0.0
 11
-82.58981345
 21
139.49248344
 31
0.0
  0
LINE
  5
2BF
100
AcDbEntity
  8
LAYER0243
  6
CONTINUOUS
 62
      32
100
AcDbLine
 10
-83.42593845
 20
139.17948344
 30
0.0
 11
-82.37290431
 21
139.17948344
 31
0.0
  0
LINE
  5
2C0
100
AcDbEntity
  8
LAYER0243
  6
CONTINUOUS
 62
      32
100
AcDbLine
 10
-82.37290431
 20
139.17948344
 30
0.0
 11
-81.81059181
 21
140.67898344
 31
0.0
  0
LINE
  5
2C1
100
AcDbEntity
  8
LAYER0243
  6
CONTINUOUS
 62
      32
100
AcDbLine
 10
-81.69321681
 20
140.99198344
 30
0.0
 11
-81.31821681
 21
141.99198344
 31
0.0
  0
LINE
  5
2C2
100
AcDbEntity
  8
LAYER0243
  6
CONTINUOUS
 62
      32
100
AcDbLine
 10
-81.81059181
 20
140.67898344
 30
0.0
 11
-81.58598193
 21
140.67898344
 31
0.0
  0
LINE
  5
2C3
100
AcDbEntity
  8
LAYER0243
  6
CONTINUOUS
 62
      32
100
AcDbLine
 10
-81.22644442
 20
140.67898344
 30
0.0
 11
-80.23026061
 21
140.67898344
 31
0.0
  0
LINE
  5
2C4
100
AcDbEntity
  8
LAYER0243
  6
CONTINUOUS
 62
      32
100
AcDbLine
 10
-80.55581398
 20
139.49248344
 30
0.0
 11
-81.22644442
 21
140.67898344
 31
0.0
  0
ARC
  5
2C5
100
AcDbEntity
  8
LAYER0243
  6
CONTINUOUS
 62
      32
100
AcDbCircle
 10
-80.23026061
 20
141.49198344
 30
0.0
 40
0.8125
100
AcDbArc
 50
270.0
 51
450.0
  0
ELLIPSE
  5
2C6
100
AcDbEntity
  8
LAYER0243
  6
CONTINUOUS
 62
      32
100
AcDbEllipse
 10
-79.19505402
 20
139.88404335
 30
0.0
 11
-0.0823186632749184
 21
-0.150917549337322
 31
0.0
210
0.0
220
0.0
230
1.0
 40
0.75209874
 41
0.0
 42
6.2831853071796004
  0
LINE
  5
2C7
100
AcDbEntity
  8
LAYER0243
  6
CONTINUOUS
 62
      32
100
AcDbLine
 10
-80.73843845
 20
139.17948344
 30
0.0
 11
-79.61343845
 21
139.17948344
 31
0.0
  0
ELLIPSE
  5
2C8
100
AcDbEntity
  8
LAYER0243
  6
CONTINUOUS
 62
      32
100
AcDbEllipse
 10
-79.19505402
 20
139.88404335
 30
0.0
 11
-0.2629989242010424
 21
-0.4821646943684073
 31
0.0
210
0.0
220
0.0
230
1.0
 40
0.75209874
 41
1.1633802511780436
 42
5.8601607076995652
  0
LINE
  5
2C9
100
AcDbEntity
  8
LAYER0243
  6
CONTINUOUS
 62
      32
100
AcDbLine
 10
-80.55581398
 20
139.49248344
 30
0.0
 11
-79.63221249
 21
139.49248344
 31
0.0
  0
ARC
  5
2CA
100
AcDbEntity
  8
LAYER0243
  6
CONTINUOUS
 62
      32
100
AcDbCircle
 10
-79.72531786
 20
140.19445097
 30
0.0
 40
0.70811512
100
AcDbArc
 50
277.55531967
 51
282.61004677
  0
ARC
  5
2CB
100
AcDbEntity
  8
LAYER0243
  6
CONTINUOUS
 62
      32
100
AcDbCircle
 10
-79.72531786
 20
140.19445097
 30
0.0
 40
1.02111512
100
AcDbArc
 50
276.29029269
 51
293.79815684
  0
ARC
  5
2CC
100
AcDbEntity
  8
LAYER0243
  6
CONTINUOUS
 62
      32
100
AcDbCircle
 10
-79.72531786
 20
140.19445097
 30
0.0
 40
1.02111512
100
AcDbArc
 50
316.57125834
 51
318.01426788
  0
ARC
  5
2CD
100
AcDbEntity
  8
LAYER0243
  6
CONTINUOUS
 62
      32
100
AcDbCircle
 10
-78.99190315
 20
139.85813743
 30
0.0
 40
0.67886884
100
AcDbArc
 50
209.3318227
 51
211.50126528
  0
ARC
  5
2CE
100
AcDbEntity
  8
LAYER0243
  6
CONTINUOUS
 62
      32
100
AcDbCircle
 10
-78.99190315
 20
139.85813743
 30
0.0
 40
0.67886884
100
AcDbArc
 50
241.74457829
 51
270.0
  0
ELLIPSE
  5
2CF
100
AcDbEntity
  8
LAYER0243
  6
CONTINUOUS
 62
      32
100
AcDbEllipse
 10
-77.59672405
 20
140.30432801
 30
0.0
 11
-0.1370430461622334
 21
-0.2826512827096224
 31
0.0
210
0.0
220
0.0
230
1.0
 40
0.44219156
 41
0.0
 42
6.2831853071796004
  0
ARC
  5
2D0
100
AcDbEntity
  8
LAYER0243
  6
CONTINUOUS
 62
      32
100
AcDbCircle
 10
-77.30849416
 20
140.38703517
 30
0.0
 40
1.21410684
100
AcDbArc
 50
241.28311564
 51
264.0434522
  0
LINE
  5
2D1
100
AcDbEntity
  8
LAYER0243
  6
CONTINUOUS
 62
      32
100
AcDbLine
 10
-78.99190315
 20
139.17948344
 30
0.0
 11
-78.28755622
 21
139.17948344
 31
0.0
  0
ARC
  5
2D2
100
AcDbEntity
  8
LAYER0243
  6
CONTINUOUS
 62
      32
100
AcDbCircle
 10
-77.30849416
 20
140.38703517
 30
0.0
 40
0.90110684
100
AcDbArc
 50
251.08708107
 51
263.08482824
  0
ARC
  5
2D3
100
AcDbEntity
  8
LAYER0243
  6
CONTINUOUS
 62
      32
100
AcDbCircle
 10
-78.5532372
 20
140.53557491
 30
0.0
 40
1.06887209
100
AcDbArc
 50
282.60950936
 51
291.93126974
  0
ELLIPSE
  5
2D4
100
AcDbEntity
  8
LAYER0243
  6
CONTINUOUS
 62
      32
100
AcDbEllipse
 10
-77.59672405
 20
140.30432801
 30
0.0
 11
-0.4378372081860107
 21
-0.9030392418838176
 31
0.0
210
0.0
220
0.0
230
1.0
 40
0.44219156
 41
1.1621663820477983
 42
5.8906096214263064
  0
LINE
  5
2D5
100
AcDbEntity
  8
LAYER0243
  6
CONTINUOUS
 62
      32
100
AcDbLine
 10
-78.98375352
 20
139.49248344
 30
0.0
 11
-78.31989685
 21
139.49248344
 31
0.0
  0
ARC
  5
2D6
100
AcDbEntity
  8
LAYER0243
  6
CONTINUOUS
 62
      32
100
AcDbCircle
 10
-78.5532372
 20
140.53557491
 30
0.0
 40
1.38187209
100
AcDbArc
 50
313.58286141
 51
326.24939265
  0
ARC
  5
2D7
100
AcDbEntity
  8
LAYER0243
  6
CONTINUOUS
 62
      32
100
AcDbCircle
 10
-78.5532372
 20
140.53557491
 30
0.0
 40
1.38187209
100
AcDbArc
 50
281.08479974
 51
298.5950739
  0
LINE
  5
2D8
100
AcDbEntity
  8
LAYER0243
  6
CONTINUOUS
 62
      32
100
AcDbLine
 10
-77.43448713
 20
139.17948344
 30
0.0
 11
-76.92593845
 21
139.17948344
 31
0.0
  0
LINE
  5
2D9
100
AcDbEntity
  8
LAYER0243
  6
CONTINUOUS
 62
      32
100
AcDbLine
 10
-76.99873614
 20
139.54933459
 30
0.0
 11
-76.14825598
 21
140.39981476
 31
0.0
  0
LINE
  5
2DA
100
AcDbEntity
  8
LAYER0243
  6
CONTINUOUS
 62
      32
100
AcDbLine
 10
-76.11895434
 20
139.49248344
 30
0.0
 11
-75.98143993
 21
140.31756993
 31
0.0
  0
LINE
  5
2DB
100
AcDbEntity
  8
LAYER0243
  6
CONTINUOUS
 62
      32
100
AcDbLine
 10
-77.41698716
 20
139.49248344
 30
0.0
 11
-77.11243845
 21
139.49248344
 31
0.0
  0
ARC
  5
2DC
100
AcDbEntity
  8
LAYER0243
  6
CONTINUOUS
 62
      32
100
AcDbCircle
 10
-76.0772367
 20
140.33353606
 30
0.0
 40
0.09714219
100
AcDbArc
 50
350.53767779
 51
496.97750576
  0
ELLIPSE
  5
2DD
100
AcDbEntity
  8
LAYER0243
  6
CONTINUOUS
 62
      32
100
AcDbEllipse
 10
-74.75108828
 20
139.76746477
 30
0.0
 11
-0.0911816299767452
 21
-0.1535690610134282
 31
0.0
210
0.0
220
0.0
230
1.0
 40
0.58819821
 41
0.0
 42
6.2831853071796004
  0
LINE
  5
2DE
100
AcDbEntity
  8
LAYER0243
  6
CONTINUOUS
 62
      32
100
AcDbLine
 10
-75.78890437
 20
139.49248344
 30
0.0
 11
-75.26796445
 21
139.74269868
 31
0.0
  0
LINE
  5
2DF
100
AcDbEntity
  8
LAYER0243
  6
CONTINUOUS
 62
      32
100
AcDbLine
 10
-75.73843845
 20
139.17948344
 30
0.0
 11
-75.30228904
 21
139.37274667
 31
0.0
  0
LINE
  5
2E0
100
AcDbEntity
  8
LAYER0243
  6
CONTINUOUS
 62
      32
100
AcDbLine
 10
-76.11895434
 20
139.49248344
 30
0.0
 11
-75.78890437
 21
139.49248344
 31
0.0
  0
LINE
  5
2E1
100
AcDbEntity
  8
LAYER0243
  6
CONTINUOUS
 62
      32
100
AcDbLine
 10
-74.66906433
 20
139.32050181
 30
0.0
 11
-74.52318326
 21
139.17948344
 31
0.0
  0
LINE
  5
2E2
100
AcDbEntity
  8
LAYER0243
  6
CONTINUOUS
 62
      32
100
AcDbLine
 10
-74.17593845
 20
139.49248344
 30
0.0
 11
-73.73622621
 21
139.49248344
 31
0.0
  0
LINE
  5
2E3
100
AcDbEntity
  8
LAYER0243
  6
CONTINUOUS
 62
      32
100
AcDbLine
 10
-72.73679764
 20
140.36698344
 30
0.0
 11
-73.73622621
 21
139.49248344
 31
0.0
  0
ELLIPSE
  5
2E4
100
AcDbEntity
  8
LAYER0243
  6
CONTINUOUS
 62
      32
100
AcDbEllipse
 10
-74.81631075
 20
139.73048073
 30
0.0
 11
-0.3971852093869757
 21
-0.4920827897266804
 31
0.0
210
0.0
220
0.0
230
1.0
 40
0.63020876
 41
2.7713952963881536
 42
5.1608192210644335
  0
ELLIPSE
  5
2E5
100
AcDbEntity
  8
LAYER0243
  6
CONTINUOUS
 62
      32
100
AcDbEllipse
 10
-74.81631075
 20
139.73048073
 30
0.0
 11
-0.3971852093869757
 21
-0.4920827897266804
 31
0.0
210
0.0
220
0.0
230
1.0
 40
0.63020876
 41
5.887863080444756
 42
7.4876029260781722
  0
LINE
  5
2E6
100
AcDbEntity
  8
LAYER0243
  6
CONTINUOUS
 62
      32
100
AcDbLine
 10
-74.25822824
 20
140.30657928
 30
0.0
 11
-73.92517633
 21
140.30657928
 31
0.0
  0
LINE
  5
2E7
100
AcDbEntity
  8
LAYER0243
  6
CONTINUOUS
 62
      32
100
AcDbLine
 10
-74.33383308
 20
140.09866598
 30
0.0
 11
-74.25822824
 21
140.30657928
 31
0.0
  0
LINE
  5
2E8
100
AcDbEntity
  8
LAYER0243
  6
CONTINUOUS
 62
      32
100
AcDbLine
 10
-74.17593845
 20
139.61698344
 30
0.0
 11
-73.92517633
 21
140.30657928
 31
0.0
  0
LINE
  5
2E9
100
AcDbEntity
  8
LAYER0243
  6
CONTINUOUS
 62
      32
100
AcDbLine
 10
-73.3252904
 20
139.18932969
 30
0.0
 11
-73.16690598
 21
139.62488686
 31
0.0
  0
LINE
  5
2EA
100
AcDbEntity
  8
LAYER0243
  6
CONTINUOUS
 62
      32
100
AcDbLine
 10
-72.69505256
 20
139.92948344
 30
0.0
 11
-72.96777984
 21
139.17948344
 31
0.0
  0
LINE
  5
2EB
100
AcDbEntity
  8
LAYER0243
  6
CONTINUOUS
 62
      32
100
AcDbLine
 10
-72.55093845
 20
139.17948344
 30
0.0
 11
-72.27821118
 21
139.92948344
 31
0.0
  0
LINE
  5
2EC
100
AcDbEntity
  8
LAYER0243
  6
CONTINUOUS
 62
      32
100
AcDbLine
 10
-71.82222876
 20
140.16781009
 30
0.0
 11
-72.06780209
 21
139.49248344
 31
0.0
  0
LINE
  5
2ED
100
AcDbEntity
  8
LAYER0243
  6
CONTINUOUS
 62
      32
100
AcDbLine
 10
-71.9261453
 20
140.36698344
 30
0.0
 11
-71.82222876
 21
140.16781009
 31
0.0
  0
LINE
  5
2EE
100
AcDbEntity
  8
LAYER0243
  6
CONTINUOUS
 62
      32
100
AcDbLine
 10
-72.61183977
 20
140.18108212
 30
0.0
 11
-72.55035547
 21
140.36698344
 31
0.0
  0
LINE
  5
2EF
100
AcDbEntity
  8
LAYER0243
  6
CONTINUOUS
 62
      32
100
AcDbLine
 10
-72.61183977
 20
140.18108212
 30
0.0
 11
-72.27889118
 21
140.36698344
 31
0.0
  0
LINE
  5
2F0
100
AcDbEntity
  8
LAYER0243
  6
CONTINUOUS
 62
      32
100
AcDbLine
 10
-71.9261453
 20
140.36698344
 30
0.0
 11
-72.27889118
 21
140.36698344
 31
0.0
  0
LINE
  5
2F1
100
AcDbEntity
  8
LAYER0243
  6
CONTINUOUS
 62
      32
100
AcDbLine
 10
-72.55035547
 20
140.36698344
 30
0.0
 11
-72.73679764
 21
140.36698344
 31
0.0
  0
ELLIPSE
  5
2F2
100
AcDbEntity
  8
LAYER0243
  6
CONTINUOUS
 62
      32
100
AcDbEllipse
 10
-69.13680602
 20
139.88404335
 30
0.0
 11
-0.0823186632749326
 21
-0.150917549337322
 31
0.0
210
0.0
220
0.0
230
1.0
 40
0.75209874
 41
0.0
 42
6.2831853071796004
  0
ELLIPSE
  5
2F3
100
AcDbEntity
  8
LAYER0243
  6
CONTINUOUS
 62
      32
100
AcDbEllipse
 10
-69.13680602
 20
139.88404335
 30
0.0
 11
-0.2629989242010424
 21
-0.4821646943684073
 31
0.0
210
0.0
220
0.0
230
1.0
 40
0.75209874
 41
1.1633802511780436
 42
5.8601607076995652
  0
ARC
  5
2F4
100
AcDbEntity
  8
LAYER0243
  6
CONTINUOUS
 62
      32
100
AcDbCircle
 10
-69.66706986
 20
140.19445097
 30
0.0
 40
0.70811512
100
AcDbArc
 50
277.55531967
 51
282.61004677
  0
ARC
  5
2F5
100
AcDbEntity
  8
LAYER0243
  6
CONTINUOUS
 62
      32
100
AcDbCircle
 10
-69.66706986
 20
140.19445097
 30
0.0
 40
1.02111512
100
AcDbArc
 50
276.29029269
 51
293.79815684
  0
ARC
  5
2F6
100
AcDbEntity
  8
LAYER0243
  6
CONTINUOUS
 62
      32
100
AcDbCircle
 10
-69.66706986
 20
140.19445097
 30
0.0
 40
1.02111512
100
AcDbArc
 50
316.57125834
 51
318.01426788
  0
ARC
  5
2F7
100
AcDbEntity
  8
LAYER0243
  6
CONTINUOUS
 62
      32
100
AcDbCircle
 10
-68.93365515
 20
139.85813743
 30
0.0
 40
0.67886884
100
AcDbArc
 50
209.3318227
 51
211.50126528
  0
ARC
  5
2F8
100
AcDbEntity
  8
LAYER0243
  6
CONTINUOUS
 62
      32
100
AcDbCircle
 10
-68.93365515
 20
139.85813743
 30
0.0
 40
0.67886884
100
AcDbArc
 50
241.74457829
 51
270.0
  0
LINE
  5
2F9
100
AcDbEntity
  8
LAYER0243
  6
CONTINUOUS
 62
      32
100
AcDbLine
 10
-70.6611404
 20
139.49248344
 30
0.0
 11
-69.57396449
 21
139.49248344
 31
0.0
  0
LINE
  5
2FA
100
AcDbEntity
  8
LAYER0243
  6
CONTINUOUS
 62
      32
100
AcDbLine
 10
-68.93365515
 20
139.17948344
 30
0.0
 11
-68.33178087
 21
139.17948344
 31
0.0
  0
LINE
  5
2FB
100
AcDbEntity
  8
LAYER0243
  6
CONTINUOUS
 62
      32
100
AcDbLine
 10
-68.92550551
 20
139.49248344
 30
0.0
 11
-68.26164885
 21
139.49248344
 31
0.0
  0
LINE
  5
2FC
100
AcDbEntity
  8
LAYER0243
  6
CONTINUOUS
 62
      32
100
AcDbLine
 10
-76.48843845
 20
139.17948344
 30
0.0
 11
-75.73843845
 21
139.17948344
 31
0.0
  0
LINE
  5
2FD
100
AcDbEntity
  8
LAYER0243
  6
CONTINUOUS
 62
      32
100
AcDbLine
 10
-73.3252904
 20
139.18932969
 30
0.0
 11
-72.96777984
 21
139.17948344
 31
0.0
  0
LINE
  5
2FE
100
AcDbEntity
  8
LAYER0243
  6
CONTINUOUS
 62
      32
100
AcDbLine
 10
-72.06780209
 20
139.49248344
 30
0.0
 11
-71.48984917
 21
139.49248344
 31
0.0
  0
LINE
  5
2FF
100
AcDbEntity
  8
LAYER0243
  6
CONTINUOUS
 62
      32
100
AcDbLine
 10
-70.42326794
 20
139.94307815
 30
0.0
 11
-70.18978428
 21
140.13181077
 31
0.0
  0
ARC
  5
300
100
AcDbEntity
  8
LAYER0243
  6
CONTINUOUS
 62
      32
100
AcDbCircle
 10
-70.6611404
 20
139.78248344
 30
0.0
 40
0.29
100
AcDbArc
 50
34.07537472
 51
270.0
  0
ARC
  5
301
100
AcDbEntity
  8
LAYER0243
  6
CONTINUOUS
 62
      32
100
AcDbCircle
 10
-70.6611404
 20
139.78248344
 30
0.0
 40
0.58669087
100
AcDbArc
 50
36.54256145
 51
190.98612084
  0
LINE
  5
302
100
AcDbEntity
  8
LAYER0243
  6
CONTINUOUS
 62
      32
100
AcDbLine
 10
-71.41091791
 20
139.17948344
 30
0.0
 11
-71.11374241
 21
139.39815975
 31
0.0
  0
LINE
  5
303
100
AcDbEntity
  8
LAYER0243
  6
CONTINUOUS
 62
      32
100
AcDbLine
 10
-71.24080597
 20
139.67574164
 30
0.0
 11
-71.48984917
 21
139.49248344
 31
0.0
  0
LINE
  5
304
100
AcDbEntity
  8
LAYER0243
  6
CONTINUOUS
 62
      32
100
AcDbLine
 10
-71.11374241
 20
139.39815975
 30
0.0
 11
-70.86343845
 21
139.17948344
 31
0.0
  0
LINE
  5
305
100
AcDbEntity
  8
LAYER0243
  6
CONTINUOUS
 62
      32
100
AcDbLine
 10
-68.26164885
 20
139.49248344
 30
0.0
 11
-68.33178087
 21
139.17948344
 31
0.0
  0
LINE
  5
306
100
AcDbEntity
  8
LAYER0243
  6
CONTINUOUS
 62
      32
100
AcDbLine
 10
-84.88326511
 20
142.23417094
 30
0.0
 11
-85.05514011
 21
142.06229594
 31
0.0
  0
LINE
  5
307
100
AcDbEntity
  8
LAYER0243
  6
CONTINUOUS
 62
      32
100
AcDbLine
 10
-84.52160998
 20
142.26991402
 30
0.0
 11
-84.76497114
 21
142.02655286
 31
0.0
  0
LINE
  5
308
100
AcDbEntity
  8
LAYER0243
  6
CONTINUOUS
 62
      32
100
AcDbLine
 10
-84.11223724
 20
142.29823344
 30
0.0
 11
-84.41262786
 21
141.99784281
 31
0.0
  0
LINE
  5
309
100
AcDbEntity
  8
LAYER0243
  6
CONTINUOUS
 62
      32
100
AcDbLine
 10
-83.70860604
 20
142.30448344
 30
0.0
 11
-84.02110604
 21
141.99198344
 31
0.0
  0
LINE
  5
30A
100
AcDbEntity
  8
LAYER0243
  6
CONTINUOUS
 62
      32
100
AcDbLine
 10
-83.29125294
 20
142.30448344
 30
0.0
 11
-83.60375294
 21
141.99198344
 31
0.0
  0
LINE
  5
30B
100
AcDbEntity
  8
LAYER0243
  6
CONTINUOUS
 62
      32
100
AcDbLine
 10
-82.83238478
 20
142.30448344
 30
0.0
 11
-83.14488478
 21
141.99198344
 31
0.0
  0
LINE
  5
30C
100
AcDbEntity
  8
LAYER0243
  6
CONTINUOUS
 62
      32
100
AcDbLine
 10
-82.44563786
 20
142.30448344
 30
0.0
 11
-82.75813786
 21
141.99198344
 31
0.0
  0
LINE
  5
30D
100
AcDbEntity
  8
LAYER0243
  6
CONTINUOUS
 62
      32
100
AcDbLine
 10
-82.33751952
 20
139.27384288
 30
0.0
 11
-82.43187896
 21
139.17948344
 31
0.0
  0
LINE
  5
30E
100
AcDbEntity
  8
LAYER0243
  6
CONTINUOUS
 62
      32
100
AcDbLine
 10
-82.16781389
 20
139.72639122
 30
0.0
 11
-82.71472167
 21
139.17948344
 31
0.0
  0
LINE
  5
30F
100
AcDbEntity
  8
LAYER0243
  6
CONTINUOUS
 62
      32
100
AcDbLine
 10
-81.99810826
 20
140.17893956
 30
0.0
 11
-82.5329629
 21
139.64408492
 31
0.0
  0
LINE
  5
310
100
AcDbEntity
  8
LAYER0243
  6
CONTINUOUS
 62
      32
100
AcDbLine
 10
-82.68456438
 20
139.49248344
 30
0.0
 11
-82.99756438
 21
139.17948344
 31
0.0
  0
LINE
  5
311
100
AcDbEntity
  8
LAYER0243
  6
CONTINUOUS
 62
      32
100
AcDbLine
 10
-81.82840263
 20
140.6314879
 30
0.0
 11
-82.36325727
 21
140.09663326
 31
0.0
  0
LINE
  5
312
100
AcDbEntity
  8
LAYER0243
  6
CONTINUOUS
 62
      32
100
AcDbLine
 10
-82.96740709
 20
139.49248344
 30
0.0
 11
-83.28040709
 21
139.17948344
 31
0.0
  0
LINE
  5
313
100
AcDbEntity
  8
LAYER0243
  6
CONTINUOUS
 62
      32
100
AcDbLine
 10
-83.25024981
 20
139.49248344
 30
0.0
 11
-83.34355164
 21
139.3991816
 31
0.0
  0
LINE
  5
314
100
AcDbEntity
  8
LAYER0243
  6
CONTINUOUS
 62
      32
100
AcDbLine
 10
-81.28677794
 20
142.30448344
 30
0.0
 11
-81.68443476
 21
141.90682662
 31
0.0
  0
LINE
  5
315
100
AcDbEntity
  8
LAYER0243
  6
CONTINUOUS
 62
      32
100
AcDbLine
 10
-81.56962066
 20
142.30448344
 30
0.0
 11
-81.88212066
 21
141.99198344
 31
0.0
  0
LINE
  5
316
100
AcDbEntity
  8
LAYER0243
  6
CONTINUOUS
 62
      32
100
AcDbLine
 10
-81.85246337
 20
142.30448344
 30
0.0
 11
-82.16496337
 21
141.99198344
 31
0.0
  0
LINE
  5
317
100
AcDbEntity
  8
LAYER0243
  6
CONTINUOUS
 62
      32
100
AcDbLine
 10
-82.13530608
 20
142.30448344
 30
0.0
 11
-82.30031788
 21
142.13947164
 31
0.0
  0
LINE
  5
318
100
AcDbEntity
  8
LAYER0243
  6
CONTINUOUS
 62
      32
100
AcDbLine
 10
-79.26754136
 20
140.36392205
 30
0.0
 11
-79.56673136
 21
140.06473205
 31
0.0
  0
LINE
  5
319
100
AcDbEntity
  8
LAYER0243
  6
CONTINUOUS
 62
      32
100
AcDbLine
 10
-78.96633734
 20
140.38228335
 30
0.0
 11
-79.64049789
 21
139.70812281
 31
0.0
  0
LINE
  5
31A
100
AcDbEntity
  8
LAYER0243
  6
CONTINUOUS
 62
      32
100
AcDbLine
 10
-78.74779063
 20
140.03514464
 30
0.0
 11
-79.60214305
 21
139.18079222
 31
0.0
  0
LINE
  5
31B
100
AcDbEntity
  8
LAYER0243
  6
CONTINUOUS
 62
      32
100
AcDbLine
 10
-80.72109252
 20
142.30448344
 30
0.0
 11
-81.03359252
 21
141.99198344
 31
0.0
  0
LINE
  5
31C
100
AcDbEntity
  8
LAYER0243
  6
CONTINUOUS
 62
      32
100
AcDbLine
 10
-81.48899138
 20
141.53658458
 30
0.0
 11
-82.02384601
 21
141.00172994
 31
0.0
  0
LINE
  5
31D
100
AcDbEntity
  8
LAYER0243
  6
CONTINUOUS
 62
      32
100
AcDbLine
 10
-80.43824981
 20
142.30448344
 30
0.0
 11
-80.75074981
 21
141.99198344
 31
0.0
  0
LINE
  5
31E
100
AcDbEntity
  8
LAYER0243
  6
CONTINUOUS
 62
      32
100
AcDbLine
 10
-81.65869701
 20
141.08403624
 30
0.0
 11
-82.19355164
 21
140.5491816
 31
0.0
  0
LINE
  5
31F
100
AcDbEntity
  8
LAYER0243
  6
CONTINUOUS
 62
      32
100
AcDbLine
 10
-80.15857558
 20
142.30131496
 30
0.0
 11
-80.46790709
 21
141.99198344
 31
0.0
  0
LINE
  5
320
100
AcDbEntity
  8
LAYER0243
  6
CONTINUOUS
 62
      32
100
AcDbLine
 10
-81.46790709
 20
140.99198344
 30
0.0
 11
-81.78090709
 21
140.67898344
 31
0.0
  0
LINE
  5
321
100
AcDbEntity
  8
LAYER0243
  6
CONTINUOUS
 62
      32
100
AcDbLine
 10
-79.930058
 20
142.24698983
 30
0.0
 11
-80.18694422
 21
141.9901036
 31
0.0
  0
LINE
  5
322
100
AcDbEntity
  8
LAYER0243
  6
CONTINUOUS
 62
      32
100
AcDbLine
 10
-81.18506438
 20
140.99198344
 30
0.0
 11
-81.55423393
 21
140.62281389
 31
0.0
  0
LINE
  5
323
100
AcDbEntity
  8
LAYER0243
  6
CONTINUOUS
 62
      32
100
AcDbLine
 10
-79.74818703
 20
142.14601808
 30
0.0
 11
-79.97330186
 21
141.92090325
 31
0.0
  0
LINE
  5
324
100
AcDbEntity
  8
LAYER0243
  6
CONTINUOUS
 62
      32
100
AcDbLine
 10
-79.60297676
 20
142.00838563
 30
0.0
 11
-79.82564029
 21
141.7857221
 31
0.0
  0
LINE
  5
325
100
AcDbEntity
  8
LAYER0243
  6
CONTINUOUS
 62
      32
100
AcDbLine
 10
-79.49365459
 20
141.83486509
 30
0.0
 11
-79.73972296
 21
141.58879673
 31
0.0
  0
LINE
  5
326
100
AcDbEntity
  8
LAYER0243
  6
CONTINUOUS
 62
      32
100
AcDbLine
 10
-79.42760397
 20
141.618073
 30
0.0
 11
-79.78919454
 21
141.25648243
 31
0.0
  0
LINE
  5
327
100
AcDbEntity
  8
LAYER0243
  6
CONTINUOUS
 62
      32
100
AcDbLine
 10
-81.00393523
 20
142.30448344
 30
0.0
 11
-81.31643523
 21
141.99198344
 31
0.0
  0
LINE
  5
328
100
AcDbEntity
  8
LAYER0243
  6
CONTINUOUS
 62
      32
100
AcDbLine
 10
-81.31928575
 20
141.98913292
 30
0.0
 11
-81.85414039
 21
141.45427828
 31
0.0
  0
LINE
  5
329
100
AcDbEntity
  8
LAYER0243
  6
CONTINUOUS
 62
      32
100
AcDbLine
 10
-80.61937896
 20
140.99198344
 30
0.0
 11
-80.93237896
 21
140.67898344
 31
0.0
  0
LINE
  5
32A
100
AcDbEntity
  8
LAYER0243
  6
CONTINUOUS
 62
      32
100
AcDbLine
 10
-81.12025411
 20
140.49110828
 30
0.0
 11
-81.34995864
 21
140.26140376
 31
0.0
  0
LINE
  5
32B
100
AcDbEntity
  8
LAYER0243
  6
CONTINUOUS
 62
      32
100
AcDbLine
 10
-80.90222167
 20
140.99198344
 30
0.0
 11
-81.21522167
 21
140.67898344
 31
0.0
  0
LINE
  5
32C
100
AcDbEntity
  8
LAYER0243
  6
CONTINUOUS
 62
      32
100
AcDbLine
 10
-81.22239176
 20
140.67181335
 30
0.0
 11
-81.45209628
 21
140.44210883
 31
0.0
  0
LINE
  5
32D
100
AcDbEntity
  8
LAYER0243
  6
CONTINUOUS
 62
      32
100
AcDbLine
 10
-80.33653624
 20
140.99198344
 30
0.0
 11
-80.64953624
 21
140.67898344
 31
0.0
  0
LINE
  5
32E
100
AcDbEntity
  8
LAYER0243
  6
CONTINUOUS
 62
      32
100
AcDbLine
 10
-81.01811647
 20
140.31040322
 30
0.0
 11
-81.24782099
 21
140.08069869
 31
0.0
  0
LINE
  5
32F
100
AcDbEntity
  8
LAYER0243
  6
CONTINUOUS
 62
      32
100
AcDbLine
 10
-79.9947596
 20
141.05091737
 30
0.0
 11
-80.36669353
 21
140.67898344
 31
0.0
  0
LINE
  5
330
100
AcDbEntity
  8
LAYER0243
  6
CONTINUOUS
 62
      32
100
AcDbLine
 10
-80.91597882
 20
140.12969815
 30
0.0
 11
-81.14568334
 21
139.89999363
 31
0.0
  0
LINE
  5
331
100
AcDbEntity
  8
LAYER0243
  6
CONTINUOUS
 62
      32
100
AcDbLine
 10
-79.43438908
 20
141.32844518
 30
0.0
 11
-80.06672235
 21
140.69611191
 31
0.0
  0
LINE
  5
332
100
AcDbEntity
  8
LAYER0243
  6
CONTINUOUS
 62
      32
100
AcDbLine
 10
-80.81384117
 20
139.94899309
 30
0.0
 11
-81.0435457
 21
139.71928856
 31
0.0
  0
LINE
  5
333
100
AcDbEntity
  8
LAYER0243
  6
CONTINUOUS
 62
      32
100
AcDbLine
 10
-80.71170353
 20
139.76828802
 30
0.0
 11
-80.94140805
 21
139.5385835
 31
0.0
  0
LINE
  5
334
100
AcDbEntity
  8
LAYER0243
  6
CONTINUOUS
 62
      32
100
AcDbLine
 10
-80.60956588
 20
139.58758295
 30
0.0
 11
-80.8392704
 21
139.35787843
 31
0.0
  0
LINE
  5
335
100
AcDbEntity
  8
LAYER0243
  6
CONTINUOUS
 62
      32
100
AcDbLine
 10
-80.42182268
 20
139.49248344
 30
0.0
 11
-80.73482268
 21
139.17948344
 31
0.0
  0
LINE
  5
336
100
AcDbEntity
  8
LAYER0243
  6
CONTINUOUS
 62
      32
100
AcDbLine
 10
-80.13897997
 20
139.49248344
 30
0.0
 11
-80.45197997
 21
139.17948344
 31
0.0
  0
LINE
  5
337
100
AcDbEntity
  8
LAYER0243
  6
CONTINUOUS
 62
      32
100
AcDbLine
 10
-79.85613726
 20
139.49248344
 30
0.0
 11
-80.16913726
 21
139.17948344
 31
0.0
  0
LINE
  5
338
100
AcDbEntity
  8
LAYER0243
  6
CONTINUOUS
 62
      32
100
AcDbLine
 10
-78.81278199
 20
140.25299599
 30
0.0
 11
-79.0719904
 21
139.99378759
 31
0.0
  0
LINE
  5
339
100
AcDbEntity
  8
LAYER0243
  6
CONTINUOUS
 62
      32
100
AcDbLine
 10
-79.30740735
 20
139.75837063
 30
0.0
 11
-79.88629454
 21
139.17948344
 31
0.0
  0
LINE
  5
33A
100
AcDbEntity
  8
LAYER0243
  6
CONTINUOUS
 62
      32
100
AcDbLine
 10
-77.27303067
 20
141.22706189
 30
0.0
 11
-77.99019973
 21
140.50989282
 31
0.0
  0
LINE
  5
33B
100
AcDbEntity
  8
LAYER0243
  6
CONTINUOUS
 62
      32
100
AcDbLine
 10
-78.85955238
 20
139.64054018
 30
0.0
 11
-79.26393646
 21
139.2361561
 31
0.0
  0
LINE
  5
33C
100
AcDbEntity
  8
LAYER0243
  6
CONTINUOUS
 62
      32
100
AcDbLine
 10
-77.07871494
 20
141.1385349
 30
0.0
 11
-78.15156708
 21
140.06568277
 31
0.0
  0
LINE
  5
33D
100
AcDbEntity
  8
LAYER0243
  6
CONTINUOUS
 62
      32
100
AcDbLine
 10
-78.72476641
 20
139.49248344
 30
0.0
 11
-79.03651391
 21
139.18073594
 31
0.0
  0
LINE
  5
33E
100
AcDbEntity
  8
LAYER0243
  6
CONTINUOUS
 62
      32
100
AcDbLine
 10
-78.44192369
 20
139.49248344
 30
0.0
 11
-78.75492369
 21
139.17948344
 31
0.0
  0
LINE
  5
33F
100
AcDbEntity
  8
LAYER0243
  6
CONTINUOUS
 62
      32
100
AcDbLine
 10
-77.00829064
 20
140.9261165
 30
0.0
 11
-77.41555633
 21
140.5188508
 31
0.0
  0
LINE
  5
340
100
AcDbEntity
  8
LAYER0243
  6
CONTINUOUS
 62
      32
100
AcDbLine
 10
-77.7817773
 20
140.15262983
 30
0.0
 11
-78.189043
 21
139.74536414
 31
0.0
  0
LINE
  5
341
100
AcDbEntity
  8
LAYER0243
  6
CONTINUOUS
 62
      32
100
AcDbLine
 10
-77.02455816
 20
140.62700626
 30
0.0
 11
-78.47208098
 21
139.17948344
 31
0.0
  0
LINE
  5
342
100
AcDbEntity
  8
LAYER0243
  6
CONTINUOUS
 62
      32
100
AcDbLine
 10
-77.14740108
 20
140.22132063
 30
0.0
 11
-78.15698881
 21
139.2117329
 31
0.0
  0
LINE
  5
343
100
AcDbEntity
  8
LAYER0243
  6
CONTINUOUS
 62
      32
100
AcDbLine
 10
-76.09017729
 20
140.42981246
 30
0.0
 11
-77.34050631
 21
139.17948344
 31
0.0
  0
LINE
  5
344
100
AcDbEntity
  8
LAYER0243
  6
CONTINUOUS
 62
      32
100
AcDbLine
 10
-75.99373597
 20
141.09193921
 30
0.0
 11
-76.05896946
 21
141.02670571
 31
0.0
  0
LINE
  5
345
100
AcDbEntity
  8
LAYER0243
  6
CONTINUOUS
 62
      32
100
AcDbLine
 10
-77.56304563
 20
139.52262955
 30
0.0
 11
-77.80609258
 21
139.27958259
 31
0.0
  0
LINE
  5
346
100
AcDbEntity
  8
LAYER0243
  6
CONTINUOUS
 62
      32
100
AcDbLine
 10
-75.75156017
 20
141.05127229
 30
0.0
 11
-76.01830254
 21
140.78452992
 31
0.0
  0
LINE
  5
347
100
AcDbEntity
  8
LAYER0243
  6
CONTINUOUS
 62
      32
100
AcDbLine
 10
-77.31034902
 20
139.49248344
 30
0.0
 11
-77.59549474
 21
139.20733772
 31
0.0
  0
LINE
  5
348
100
AcDbEntity
  8
LAYER0243
  6
CONTINUOUS
 62
      32
100
AcDbLine
 10
-74.54509589
 20
140.27783758
 30
0.0
 11
-75.56786826
 21
139.25506522
 31
0.0
  0
LINE
  5
349
100
AcDbEntity
  8
LAYER0243
  6
CONTINUOUS
 62
      32
100
AcDbLine
 10
-75.89613546
 20
139.49248344
 30
0.0
 11
-76.20913546
 21
139.17948344
 31
0.0
  0
LINE
  5
34A
100
AcDbEntity
  8
LAYER0243
  6
CONTINUOUS
 62
      32
100
AcDbLine
 10
-76.10694958
 20
139.56451203
 30
0.0
 11
-76.49197817
 21
139.17948344
 31
0.0
  0
LINE
  5
34B
100
AcDbEntity
  8
LAYER0243
  6
CONTINUOUS
 62
      32
100
AcDbLine
 10
-76.05038103
 20
139.90392329
 30
0.0
 11
-76.43116197
 21
139.52314236
 31
0.0
  0
LINE
  5
34C
100
AcDbEntity
  8
LAYER0243
  6
CONTINUOUS
 62
      32
100
AcDbLine
 10
-77.0576636
 20
139.17948344
 30
0.0
 11
-75.99381249
 21
140.24333454
 31
0.0
  0
LINE
  5
34D
100
AcDbEntity
  8
LAYER0243
  6
CONTINUOUS
 62
      32
100
AcDbLine
 10
-73.95066877
 20
140.30657928
 30
0.0
 11
-75.07588208
 21
139.18136597
 31
0.0
  0
LINE
  5
34E
100
AcDbEntity
  8
LAYER0243
  6
CONTINUOUS
 62
      32
100
AcDbLine
 10
-74.07223363
 20
139.90217171
 30
0.0
 11
-74.66135545
 21
139.31304989
 31
0.0
  0
LINE
  5
34F
100
AcDbEntity
  8
LAYER0243
  6
CONTINUOUS
 62
      32
100
AcDbLine
 10
-74.17593845
 20
139.51562417
 30
0.0
 11
-74.51207918
 21
139.17948344
 31
0.0
  0
LINE
  5
350
100
AcDbEntity
  8
LAYER0243
  6
CONTINUOUS
 62
      32
100
AcDbLine
 10
-73.91623647
 20
139.49248344
 30
0.0
 11
-74.22923647
 21
139.17948344
 31
0.0
  0
LINE
  5
351
100
AcDbEntity
  8
LAYER0243
  6
CONTINUOUS
 62
      32
100
AcDbLine
 10
-72.91356659
 20
140.21231061
 30
0.0
 11
-73.94639376
 21
139.17948344
 31
0.0
  0
LINE
  5
352
100
AcDbEntity
  8
LAYER0243
  6
CONTINUOUS
 62
      32
100
AcDbLine
 10
-74.9714166
 20
140.13435959
 30
0.0
 11
-75.1321707
 21
139.97360548
 31
0.0
  0
LINE
  5
353
100
AcDbEntity
  8
LAYER0243
  6
CONTINUOUS
 62
      32
100
AcDbLine
 10
-75.45098503
 20
139.65479116
 30
0.0
 11
-75.92629275
 21
139.17948344
 31
0.0
  0
LINE
  5
354
100
AcDbEntity
  8
LAYER0243
  6
CONTINUOUS
 62
      32
100
AcDbLine
 10
-74.87593729
 20
139.66415347
 30
0.0
 11
-75.25684288
 21
139.28324788
 31
0.0
  0
LINE
  5
355
100
AcDbEntity
  8
LAYER0243
  6
CONTINUOUS
 62
      32
100
AcDbLine
 10
-74.23351148
 20
140.30657928
 30
0.0
 11
-74.27235211
 21
140.26773865
 31
0.0
  0
LINE
  5
356
100
AcDbEntity
  8
LAYER0243
  6
CONTINUOUS
 62
      32
100
AcDbLine
 10
-74.37013301
 20
140.16995775
 30
0.0
 11
-74.63903974
 21
139.90105102
 31
0.0
  0
LINE
  5
357
100
AcDbEntity
  8
LAYER0243
  6
CONTINUOUS
 62
      32
100
AcDbLine
 10
-70.51297783
 20
140.35015767
 30
0.0
 11
-71.68365206
 21
139.17948344
 31
0.0
  0
LINE
  5
358
100
AcDbEntity
  8
LAYER0243
  6
CONTINUOUS
 62
      32
100
AcDbLine
 10
-68.26331021
 20
139.48506877
 30
0.0
 11
-68.56889554
 21
139.17948344
 31
0.0
  0
LINE
  5
359
100
AcDbEntity
  8
LAYER0243
  6
CONTINUOUS
 62
      32
100
AcDbLine
 10
-68.54222493
 20
139.49248344
 30
0.0
 11
-68.85522493
 21
139.17948344
 31
0.0
  0
LINE
  5
35A
100
AcDbEntity
  8
LAYER0243
  6
CONTINUOUS
 62
      32
100
AcDbLine
 10
-68.82933146
 20
140.33674776
 30
0.0
 11
-69.12005501
 21
140.04602422
 31
0.0
  0
LINE
  5
35B
100
AcDbEntity
  8
LAYER0243
  6
CONTINUOUS
 62
      32
100
AcDbLine
 10
-68.71357705
 20
140.16617278
 30
0.0
 11
-69.00190664
 21
139.87784318
 31
0.0
  0
LINE
  5
35C
100
AcDbEntity
  8
LAYER0243
  6
CONTINUOUS
 62
      32
100
AcDbLine
 10
-69.15824542
 20
139.7215044
 30
0.0
 11
-69.70026639
 21
139.17948344
 31
0.0
  0
LINE
  5
35D
100
AcDbEntity
  8
LAYER0243
  6
CONTINUOUS
 62
      32
100
AcDbLine
 10
-69.04034807
 20
140.40508719
 30
0.0
 11
-69.57467897
 21
139.87075628
 31
0.0
  0
LINE
  5
35E
100
AcDbEntity
  8
LAYER0243
  6
CONTINUOUS
 62
      32
100
AcDbLine
 10
-69.95295181
 20
139.49248344
 30
0.0
 11
-70.26595181
 21
139.17948344
 31
0.0
  0
LINE
  5
35F
100
AcDbEntity
  8
LAYER0243
  6
CONTINUOUS
 62
      32
100
AcDbLine
 10
-69.27033823
 20
139.89574099
 30
0.0
 11
-69.56106178
 21
139.60501745
 31
0.0
  0
LINE
  5
360
100
AcDbEntity
  8
LAYER0243
  6
CONTINUOUS
 62
      32
100
AcDbLine
 10
-69.67359578
 20
139.49248344
 30
0.0
 11
-69.98659578
 21
139.17948344
 31
0.0
  0
LINE
  5
361
100
AcDbEntity
  8
LAYER0243
  6
CONTINUOUS
 62
      32
100
AcDbLine
 10
-68.69804198
 20
139.90235182
 30
0.0
 11
-69.38825583
 21
139.21213797
 31
0.0
  0
LINE
  5
362
100
AcDbEntity
  8
LAYER0243
  6
CONTINUOUS
 62
      32
100
AcDbLine
 10
-68.82158096
 20
139.49248344
 30
0.0
 11
-69.11117478
 21
139.20288963
 31
0.0
  0
LINE
  5
363
100
AcDbEntity
  8
LAYER0243
  6
CONTINUOUS
 62
      32
100
AcDbLine
 10
-70.23928121
 20
139.49248344
 30
0.0
 11
-70.55228121
 21
139.17948344
 31
0.0
  0
LINE
  5
364
100
AcDbEntity
  8
LAYER0243
  6
CONTINUOUS
 62
      32
100
AcDbLine
 10
-70.51863724
 20
139.49248344
 30
0.0
 11
-70.83163724
 21
139.17948344
 31
0.0
  0
LINE
  5
365
100
AcDbEntity
  8
LAYER0243
  6
CONTINUOUS
 62
      32
100
AcDbLine
 10
-70.32084679
 20
140.25595931
 30
0.0
 11
-70.53378406
 21
140.04302204
 31
0.0
  0
LINE
  5
366
100
AcDbEntity
  8
LAYER0243
  6
CONTINUOUS
 62
      32
100
AcDbLine
 10
-70.77964764
 20
139.51780244
 30
0.0
 11
-70.99928513
 21
139.29816494
 31
0.0
  0
LINE
  5
367
100
AcDbEntity
  8
LAYER0243
  6
CONTINUOUS
 62
      32
100
AcDbLine
 10
-70.921679
 20
139.6551271
 30
0.0
 11
-71.3594502
 21
139.21735591
 31
0.0
  0
LINE
  5
368
100
AcDbEntity
  8
LAYER0243
  6
CONTINUOUS
 62
      32
100
AcDbLine
 10
-70.78696951
 20
140.35552201
 30
0.0
 11
-71.23417897
 21
139.90831255
 31
0.0
  0
LINE
  5
369
100
AcDbEntity
  8
LAYER0243
  6
CONTINUOUS
 62
      32
100
AcDbLine
 10
-71.65000809
 20
139.49248344
 30
0.0
 11
-71.96300809
 21
139.17948344
 31
0.0
  0
LINE
  5
36A
100
AcDbEntity
  8
LAYER0243
  6
CONTINUOUS
 62
      32
100
AcDbLine
 10
-71.93633748
 20
139.49248344
 30
0.0
 11
-72.24933748
 21
139.17948344
 31
0.0
  0
LINE
  5
36B
100
AcDbEntity
  8
LAYER0243
  6
CONTINUOUS
 62
      32
100
AcDbLine
 10
-71.98329271
 20
139.72488425
 30
0.0
 11
-72.52869351
 21
139.17948344
 31
0.0
  0
LINE
  5
36C
100
AcDbEntity
  8
LAYER0243
  6
CONTINUOUS
 62
      32
100
AcDbLine
 10
-71.82376048
 20
140.17074587
 30
0.0
 11
-72.40003305
 21
139.5944733
 31
0.0
  0
LINE
  5
36D
100
AcDbEntity
  8
LAYER0243
  6
CONTINUOUS
 62
      32
100
AcDbLine
 10
-71.92073512
 20
140.35661394
 30
0.0
 11
-72.34786562
 21
139.92948344
 31
0.0
  0
LINE
  5
36E
100
AcDbEntity
  8
LAYER0243
  6
CONTINUOUS
 62
      32
100
AcDbLine
 10
-72.8934451
 20
139.38390396
 30
0.0
 11
-73.09786562
 21
139.17948344
 31
0.0
  0
LINE
  5
36F
100
AcDbEntity
  8
LAYER0243
  6
CONTINUOUS
 62
      32
100
AcDbLine
 10
-72.19320833
 20
140.36698344
 30
0.0
 11
-72.63070833
 21
139.92948344
 31
0.0
  0
LINE
  5
370
100
AcDbEntity
  8
LAYER0243
  6
CONTINUOUS
 62
      32
100
AcDbLine
 10
-72.73182069
 20
139.82837108
 30
0.0
 11
-73.29924944
 21
139.26094233
 31
0.0
  0
LINE
  5
371
100
AcDbEntity
  8
LAYER0243
  6
CONTINUOUS
 62
      32
100
AcDbLine
 10
-72.58707517
 20
140.25595931
 30
0.0
 11
-73.57683919
 21
139.26619529
 31
0.0
  0
LINE
  5
372
100
AcDbEntity
  8
LAYER0243
  6
CONTINUOUS
 62
      32
100
AcDbLine
 10
99.51156155
 20
-55.38301656
 30
0.0
 11
105.01156155
 21
-55.38301656
 31
0.0
  0
LINE
  5
373
100
AcDbEntity
  8
LAYER0243
  6
CONTINUOUS
 62
      32
100
AcDbLine
 10
99.51156155
 20
-50.38301656
 30
0.0
 11
105.01156155
 21
-50.38301656
 31
0.0
  0
LINE
  5
374
100
AcDbEntity
  8
LAYER0243
  6
CONTINUOUS
 62
      32
100
AcDbLine
 10
105.01156155
 20
-50.38301656
 30
0.0
 11
105.01156155
 21
-55.38301656
 31
0.0
  0
LINE
  5
375
100
AcDbEntity
  8
LAYER0243
  6
CONTINUOUS
 62
      32
100
AcDbLine
 10
99.51156155
 20
-50.38301656
 30
0.0
 11
99.51156155
 21
-55.38301656
 31
0.0
  0
LINE
  5
376
100
AcDbEntity
  8
LAYER0243
  6
CONTINUOUS
 62
      32
100
AcDbLine
 10
105.01156155
 20
-55.36560674
 30
0.0
 11
104.99415173
 21
-55.38301656
 31
0.0
  0
LINE
  5
377
100
AcDbEntity
  8
LAYER0243
  6
CONTINUOUS
 62
      32
100
AcDbLine
 10
102.07694972
 20
-50.38301656
 30
0.0
 11
99.51156155
 21
-52.94840474
 31
0.0
  0
LINE
  5
378
100
AcDbEntity
  8
LAYER0243
  6
CONTINUOUS
 62
      32
100
AcDbLine
 10
101.79410701
 20
-50.38301656
 30
0.0
 11
99.51156155
 21
-52.66556203
 31
0.0
  0
LINE
  5
379
100
AcDbEntity
  8
LAYER0243
  6
CONTINUOUS
 62
      32
100
AcDbLine
 10
101.5112643
 20
-50.38301656
 30
0.0
 11
99.51156155
 21
-52.38271931
 31
0.0
  0
LINE
  5
37A
100
AcDbEntity
  8
LAYER0243
  6
CONTINUOUS
 62
      32
100
AcDbLine
 10
101.22842159
 20
-50.38301656
 30
0.0
 11
99.51156155
 21
-52.0998766
 31
0.0
  0
LINE
  5
37B
100
AcDbEntity
  8
LAYER0243
  6
CONTINUOUS
 62
      32
100
AcDbLine
 10
100.94557887
 20
-50.38301656
 30
0.0
 11
99.51156155
 21
-51.81703389
 31
0.0
  0
LINE
  5
37C
100
AcDbEntity
  8
LAYER0243
  6
CONTINUOUS
 62
      32
100
AcDbLine
 10
100.66273616
 20
-50.38301656
 30
0.0
 11
99.51156155
 21
-51.53419118
 31
0.0
  0
LINE
  5
37D
100
AcDbEntity
  8
LAYER0243
  6
CONTINUOUS
 62
      32
100
AcDbLine
 10
106.92084176
 20
-54.30758555
 30
0.0
 11
106.05250986
 21
-55.17591745
 31
0.0
  0
LINE
  5
37E
100
AcDbEntity
  8
LAYER0243
  6
CONTINUOUS
 62
      32
100
AcDbLine
 10
106.63799905
 20
-54.30758555
 30
0.0
 11
106.05250986
 21
-54.89307474
 31
0.0
  0
LINE
  5
37F
100
AcDbEntity
  8
LAYER0243
  6
CONTINUOUS
 62
      32
100
AcDbLine
 10
106.35515634
 20
-54.30758555
 30
0.0
 11
106.05250986
 21
-54.61023203
 31
0.0
  0
LINE
  5
380
100
AcDbEntity
  8
LAYER0243
  6
CONTINUOUS
 62
      32
100
AcDbLine
 10
102.35979244
 20
-50.38301656
 30
0.0
 11
99.51156155
 21
-53.23124745
 31
0.0
  0
LINE
  5
381
100
AcDbEntity
  8
LAYER0243
  6
CONTINUOUS
 62
      32
100
AcDbLine
 10
102.64263515
 20
-50.38301656
 30
0.0
 11
99.51156155
 21
-53.51409016
 31
0.0
  0
LINE
  5
382
100
AcDbEntity
  8
LAYER0243
  6
CONTINUOUS
 62
      32
100
AcDbLine
 10
102.92547786
 20
-50.38301656
 30
0.0
 11
99.51156155
 21
-53.79693287
 31
0.0
  0
LINE
  5
383
100
AcDbEntity
  8
LAYER0243
  6
CONTINUOUS
 62
      32
100
AcDbLine
 10
103.20832057
 20
-50.38301656
 30
0.0
 11
99.51156155
 21
-54.07977559
 31
0.0
  0
LINE
  5
384
100
AcDbEntity
  8
LAYER0243
  6
CONTINUOUS
 62
      32
100
AcDbLine
 10
103.49116329
 20
-50.38301656
 30
0.0
 11
99.51156155
 21
-54.3626183
 31
0.0
  0
LINE
  5
385
100
AcDbEntity
  8
LAYER0243
  6
CONTINUOUS
 62
      32
100
AcDbLine
 10
103.774006
 20
-50.38301656
 30
0.0
 11
99.51156155
 21
-54.64546101
 31
0.0
  0
LINE
  5
386
100
AcDbEntity
  8
LAYER0243
  6
CONTINUOUS
 62
      32
100
AcDbLine
 10
104.05684871
 20
-50.38301656
 30
0.0
 11
99.51156155
 21
-54.92830372
 31
0.0
  0
LINE
  5
387
100
AcDbEntity
  8
LAYER0243
  6
CONTINUOUS
 62
      32
100
AcDbLine
 10
104.33969142
 20
-50.38301656
 30
0.0
 11
99.51156155
 21
-55.21114644
 31
0.0
  0
LINE
  5
388
100
AcDbEntity
  8
LAYER0243
  6
CONTINUOUS
 62
      32
100
AcDbLine
 10
104.62253414
 20
-50.38301656
 30
0.0
 11
99.62253414
 21
-55.38301656
 31
0.0
  0
LINE
  5
389
100
AcDbEntity
  8
LAYER0243
  6
CONTINUOUS
 62
      32
100
AcDbLine
 10
104.90537685
 20
-50.38301656
 30
0.0
 11
99.90537685
 21
-55.38301656
 31
0.0
  0
LINE
  5
38A
100
AcDbEntity
  8
LAYER0243
  6
CONTINUOUS
 62
      32
100
AcDbLine
 10
105.01156155
 20
-50.55967457
 30
0.0
 11
100.18821956
 21
-55.38301656
 31
0.0
  0
LINE
  5
38B
100
AcDbEntity
  8
LAYER0243
  6
CONTINUOUS
 62
      32
100
AcDbLine
 10
105.01156155
 20
-50.84251729
 30
0.0
 11
100.47106227
 21
-55.38301656
 31
0.0
  0
LINE
  5
38C
100
AcDbEntity
  8
LAYER0243
  6
CONTINUOUS
 62
      32
100
AcDbLine
 10
105.01156155
 20
-51.12536
 30
0.0
 11
100.75390499
 21
-55.38301656
 31
0.0
  0
LINE
  5
38D
100
AcDbEntity
  8
LAYER0243
  6
CONTINUOUS
 62
      32
100
AcDbLine
 10
105.01156155
 20
-51.40820271
 30
0.0
 11
101.0367477
 21
-55.38301656
 31
0.0
  0
LINE
  5
38E
100
AcDbEntity
  8
LAYER0243
  6
CONTINUOUS
 62
      32
100
AcDbLine
 10
105.01156155
 20
-51.69104542
 30
0.0
 11
101.31959041
 21
-55.38301656
 31
0.0
  0
LINE
  5
38F
100
AcDbEntity
  8
LAYER0243
  6
CONTINUOUS
 62
      32
100
AcDbLine
 10
105.01156155
 20
-51.97388814
 30
0.0
 11
101.60243312
 21
-55.38301656
 31
0.0
  0
LINE
  5
390
100
AcDbEntity
  8
LAYER0243
  6
CONTINUOUS
 62
      32
100
AcDbLine
 10
105.01156155
 20
-52.25673085
 30
0.0
 11
101.88527584
 21
-55.38301656
 31
0.0
  0
LINE
  5
391
100
AcDbEntity
  8
LAYER0243
  6
CONTINUOUS
 62
      32
100
AcDbLine
 10
105.01156155
 20
-52.53957356
 30
0.0
 11
102.16811855
 21
-55.38301656
 31
0.0
  0
LINE
  5
392
100
AcDbEntity
  8
LAYER0243
  6
CONTINUOUS
 62
      32
100
AcDbLine
 10
105.01156155
 20
-52.82241627
 30
0.0
 11
102.45096126
 21
-55.38301656
 31
0.0
  0
LINE
  5
393
100
AcDbEntity
  8
LAYER0243
  6
CONTINUOUS
 62
      32
100
AcDbLine
 10
105.01156155
 20
-53.10525899
 30
0.0
 11
102.73380397
 21
-55.38301656
 31
0.0
  0
LINE
  5
394
100
AcDbEntity
  8
LAYER0243
  6
CONTINUOUS
 62
      32
100
AcDbLine
 10
105.01156155
 20
-53.3881017
 30
0.0
 11
103.01664669
 21
-55.38301656
 31
0.0
  0
LINE
  5
395
100
AcDbEntity
  8
LAYER0243
  6
CONTINUOUS
 62
      32
100
AcDbLine
 10
105.01156155
 20
-53.67094441
 30
0.0
 11
103.2994894
 21
-55.38301656
 31
0.0
  0
LINE
  5
396
100
AcDbEntity
  8
LAYER0243
  6
CONTINUOUS
 62
      32
100
AcDbLine
 10
105.01156155
 20
-53.95378712
 30
0.0
 11
103.58233211
 21
-55.38301656
 31
0.0
  0
LINE
  5
397
100
AcDbEntity
  8
LAYER0243
  6
CONTINUOUS
 62
      32
100
AcDbLine
 10
105.01156155
 20
-54.23662984
 30
0.0
 11
103.86517482
 21
-55.38301656
 31
0.0
  0
LINE
  5
398
100
AcDbEntity
  8
LAYER0243
  6
CONTINUOUS
 62
      32
100
AcDbLine
 10
105.01156155
 20
-54.51947255
 30
0.0
 11
104.14801754
 21
-55.38301656
 31
0.0
  0
LINE
  5
399
100
AcDbEntity
  8
LAYER0243
  6
CONTINUOUS
 62
      32
100
AcDbLine
 10
105.01156155
 20
-54.80231526
 30
0.0
 11
104.43086025
 21
-55.38301656
 31
0.0
  0
LINE
  5
39A
100
AcDbEntity
  8
LAYER0243
  6
CONTINUOUS
 62
      32
100
AcDbLine
 10
105.01156155
 20
-55.08515797
 30
0.0
 11
104.71370296
 21
-55.38301656
 31
0.0
  0
LINE
  5
39B
100
AcDbEntity
  8
LAYER0243
  6
CONTINUOUS
 62
      32
100
AcDbLine
 10
105.01156155
 20
-55.36800069
 30
0.0
 11
104.99654567
 21
-55.38301656
 31
0.0
  0
TEXT
  5
39C
100
AcDbEntity
  8
LAYER0243
 62
      32
100
AcDbText
 10
-84.03962611
 20
-138.57051656
 30
0.0
 40
3.4
  1
株式会社
 41
0.6667
 72
       5
 11
-73.15962611
 21
-138.57051656
 31
0.0
100
AcDbText
  0
LINE
  5
39D
100
AcDbEntity
  8
LAYER0243
  6
CONTINUOUS
 62
      43
100
AcDbLine
 10
-91.30093845
 20
133.3983463
 30
0.0
 11
94.38656155
 21
133.3983463
 31
0.0
  0
LINE
  5
39E
100
AcDbEntity
  8
LAYER0243
  6
CONTINUOUS
 62
      43
100
AcDbLine
 10
-91.05093845
 20
-141.13301656
 30
0.0
 11
93.38656155
 21
-141.13301656
 31
0.0
  0
LINE
  5
39F
100
AcDbEntity
  8
LAYER0243
  6
CONTINUOUS
 62
      43
100
AcDbLine
 10
-91.05093845
 20
-129.07051656
 30
0.0
 11
93.38656155
 21
-129.07051656
 31
0.0
  0
LINE
  5
3A0
100
AcDbEntity
  8
LAYER0243
  6
CONTINUOUS
 62
      43
100
AcDbLine
 10
-91.05093845
 20
-127.38301656
 30
0.0
 11
93.38656155
 21
-127.38301656
 31
0.0
  0
ELLIPSE
  5
3A1
100
AcDbEntity
  8
LAYER0243
  6
CONTINUOUS
 62
      43
100
AcDbEllipse
 10
-76.83218845
 20
140.3960211
 30
0.0
 11
-12.78125
 21
0.0000000000001705
 31
0.0
210
0.0
220
0.0
230
1.0
 40
0.40365317
 41
0.0
 42
6.2831853071796004
  0
LINE
  5
3A2
100
AcDbEntity
  8
LAYER0243
  6
CONTINUOUS
 62
      43
100
AcDbLine
 10
-87.11343845
 20
142.86698344
 30
0.0
 11
-87.11343845
 21
137.99198344
 31
0.0
  0
LINE
  5
3A3
100
AcDbEntity
  8
LAYER0243
  6
CONTINUOUS
 62
      43
100
AcDbLine
 10
-66.48843845
 20
142.86698344
 30
0.0
 11
-66.48843845
 21
137.99198344
 31
0.0
  0
LINE
  5
3A4
100
AcDbEntity
  8
LAYER0243
  6
CONTINUOUS
 62
      43
100
AcDbLine
 10
-87.11343845
 20
142.86698344
 30
0.0
 11
-66.48843845
 21
142.86698344
 31
0.0
  0
LINE
  5
3A5
100
AcDbEntity
  8
LAYER0243
  6
CONTINUOUS
 62
      43
100
AcDbLine
 10
-87.11343845
 20
137.99198344
 30
0.0
 11
-66.48843845
 21
137.99198344
 31
0.0
  0
LINE
  5
3A6
100
AcDbEntity
  8
LAYER0243
  6
CONTINUOUS
 62
      43
100
AcDbLine
 10
-78.10604024
 20
145.52952548
 30
0.0
 11
-80.76858228
 21
142.86698344
 31
0.0
  0
LINE
  5
3A7
100
AcDbEntity
  8
LAYER0243
  6
CONTINUOUS
 62
      43
100
AcDbLine
 10
-78.40227009
 20
145.51613835
 30
0.0
 11
-81.05142499
 21
142.86698344
 31
0.0
  0
LINE
  5
3A8
100
AcDbEntity
  8
LAYER0243
  6
CONTINUOUS
 62
      43
100
AcDbLine
 10
-78.70151546
 20
145.49973569
 30
0.0
 11
-81.33426771
 21
142.86698344
 31
0.0
  0
LINE
  5
3A9
100
AcDbEntity
  8
LAYER0243
  6
CONTINUOUS
 62
      43
100
AcDbLine
 10
-79.00390097
 20
145.48019289
 30
0.0
 11
-81.61711042
 21
142.86698344
 31
0.0
  0
LINE
  5
3AA
100
AcDbEntity
  8
LAYER0243
  6
CONTINUOUS
 62
      43
100
AcDbLine
 10
-79.30956579
 20
145.45737078
 30
0.0
 11
-81.89995313
 21
142.86698344
 31
0.0
  0
LINE
  5
3AB
100
AcDbEntity
  8
LAYER0243
  6
CONTINUOUS
 62
      43
100
AcDbLine
 10
-79.61866588
 20
145.4311134
 30
0.0
 11
-82.18279584
 21
142.86698344
 31
0.0
  0
LINE
  5
3AC
100
AcDbEntity
  8
LAYER0243
  6
CONTINUOUS
 62
      43
100
AcDbLine
 10
-79.93137671
 20
145.40124528
 30
0.0
 11
-82.46563856
 21
142.86698344
 31
0.0
  0
LINE
  5
3AD
100
AcDbEntity
  8
LAYER0243
  6
CONTINUOUS
 62
      43
100
AcDbLine
 10
-80.24789656
 20
145.36756815
 30
0.0
 11
-82.74848127
 21
142.86698344
 31
0.0
  0
LINE
  5
3AE
100
AcDbEntity
  8
LAYER0243
  6
CONTINUOUS
 62
      43
100
AcDbLine
 10
-80.56845066
 20
145.32985676
 30
0.0
 11
-83.03132398
 21
142.86698344
 31
0.0
  0
LINE
  5
3AF
100
AcDbEntity
  8
LAYER0243
  6
CONTINUOUS
 62
      43
100
AcDbLine
 10
-80.89329633
 20
145.2878538
 30
0.0
 11
-83.31416669
 21
142.86698344
 31
0.0
  0
LINE
  5
3B0
100
AcDbEntity
  8
LAYER0243
  6
CONTINUOUS
 62
      43
100
AcDbLine
 10
-81.22272951
 20
145.24126334
 30
0.0
 11
-83.59700941
 21
142.86698344
 31
0.0
  0
LINE
  5
3B1
100
AcDbEntity
  8
LAYER0243
  6
CONTINUOUS
 62
      43
100
AcDbLine
 10
-81.5570931
 20
145.18974246
 30
0.0
 11
-83.87985212
 21
142.86698344
 31
0.0
  0
LINE
  5
3B2
100
AcDbEntity
  8
LAYER0243
  6
CONTINUOUS
 62
      43
100
AcDbLine
 10
-81.89678792
 20
145.13289035
 30
0.0
 11
-84.16269483
 21
142.86698344
 31
0.0
  0
LINE
  5
3B3
100
AcDbEntity
  8
LAYER0243
  6
CONTINUOUS
 62
      43
100
AcDbLine
 10
-82.24228706
 20
145.07023392
 30
0.0
 11
-84.44553754
 21
142.86698344
 31
0.0
  0
LINE
  5
3B4
100
AcDbEntity
  8
LAYER0243
  6
CONTINUOUS
 62
      43
100
AcDbLine
 10
-82.59415543
 20
145.00120826
 30
0.0
 11
-84.72838026
 21
142.86698344
 31
0.0
  0
LINE
  5
3B5
100
AcDbEntity
  8
LAYER0243
  6
CONTINUOUS
 62
      43
100
AcDbLine
 10
-87.11343845
 20
140.48192524
 30
0.0
 11
-87.16588026
 21
140.42948344
 31
0.0
  0
LINE
  5
3B6
100
AcDbEntity
  8
LAYER0243
  6
CONTINUOUS
 62
      43
100
AcDbLine
 10
-82.95307657
 20
144.92512984
 30
0.0
 11
-85.01122297
 21
142.86698344
 31
0.0
  0
LINE
  5
3B7
100
AcDbEntity
  8
LAYER0243
  6
CONTINUOUS
 62
      43
100
AcDbLine
 10
-87.11343845
 20
140.76476796
 30
0.0
 11
-87.44872297
 21
140.42948344
 31
0.0
  0
LINE
  5
3B8
100
AcDbEntity
  8
LAYER0243
  6
CONTINUOUS
 62
      43
100
AcDbLine
 10
-83.31989066
 20
144.84115846
 30
0.0
 11
-85.29406568
 21
142.86698344
 31
0.0
  0
LINE
  5
3B9
100
AcDbEntity
  8
LAYER0243
  6
CONTINUOUS
 62
      43
100
AcDbLine
 10
-87.11343845
 20
141.04761067
 30
0.0
 11
-87.73156568
 21
140.42948344
 31
0.0
  0
LINE
  5
3BA
100
AcDbEntity
  8
LAYER0243
  6
CONTINUOUS
 62
      43
100
AcDbLine
 10
-83.69564998
 20
144.74824185
 30
0.0
 11
-85.57690839
 21
142.86698344
 31
0.0
  0
LINE
  5
3BB
100
AcDbEntity
  8
LAYER0243
  6
CONTINUOUS
 62
      43
100
AcDbLine
 10
-87.11343845
 20
141.33045338
 30
0.0
 11
-88.01440839
 21
140.42948344
 31
0.0
  0
LINE
  5
3BC
100
AcDbEntity
  8
LAYER0243
  6
CONTINUOUS
 62
      43
100
AcDbLine
 10
-84.08170254
 20
144.64503201
 30
0.0
 11
-85.85975111
 21
142.86698344
 31
0.0
  0
LINE
  5
3BD
100
AcDbEntity
  8
LAYER0243
  6
CONTINUOUS
 62
      43
100
AcDbLine
 10
-87.11343845
 20
141.61329609
 30
0.0
 11
-88.29725111
 21
140.42948344
 31
0.0
  0
LINE
  5
3BE
100
AcDbEntity
  8
LAYER0243
  6
CONTINUOUS
 62
      43
100
AcDbLine
 10
-84.47982404
 20
144.52975322
 30
0.0
 11
-86.14259382
 21
142.86698344
 31
0.0
  0
LINE
  5
3BF
100
AcDbEntity
  8
LAYER0243
  6
CONTINUOUS
 62
      43
100
AcDbLine
 10
-87.11343845
 20
141.89613881
 30
0.0
 11
-88.58009382
 21
140.42948344
 31
0.0
  0
LINE
  5
3C0
100
AcDbEntity
  8
LAYER0243
  6
CONTINUOUS
 62
      43
100
AcDbLine
 10
-84.89243736
 20
144.39998261
 30
0.0
 11
-86.42543653
 21
142.86698344
 31
0.0
  0
LINE
  5
3C1
100
AcDbEntity
  8
LAYER0243
  6
CONTINUOUS
 62
      43
100
AcDbLine
 10
-87.11343845
 20
142.17898152
 30
0.0
 11
-88.86293653
 21
140.42948344
 31
0.0
  0
LINE
  5
3C2
100
AcDbEntity
  8
LAYER0243
  6
CONTINUOUS
 62
      43
100
AcDbLine
 10
-85.32300327
 20
144.25225941
 30
0.0
 11
-86.70827924
 21
142.86698344
 31
0.0
  0
LINE
  5
3C3
100
AcDbEntity
  8
LAYER0243
  6
CONTINUOUS
 62
      43
100
AcDbLine
 10
-87.11343845
 20
142.46182423
 30
0.0
 11
-89.14577924
 21
140.42948344
 31
0.0
  0
LINE
  5
3C4
100
AcDbEntity
  8
LAYER0243
  6
CONTINUOUS
 62
      43
100
AcDbLine
 10
-85.77678156
 20
144.08132383
 30
0.0
 11
-86.99112196
 21
142.86698344
 31
0.0
  0
LINE
  5
3C5
100
AcDbEntity
  8
LAYER0243
  6
CONTINUOUS
 62
      43
100
AcDbLine
 10
-87.11343845
 20
142.74466694
 30
0.0
 11
-89.42862196
 21
140.42948344
 31
0.0
  0
LINE
  5
3C6
100
AcDbEntity
  8
LAYER0243
  6
CONTINUOUS
 62
      43
100
AcDbLine
 10
-86.26251266
 20
143.87843545
 30
0.0
 11
-89.6090018
 21
140.53194631
 31
0.0
  0
LINE
  5
3C7
100
AcDbEntity
  8
LAYER0243
  6
CONTINUOUS
 62
      43
100
AcDbLine
 10
-86.79691623
 20
143.6268746
 30
0.0
 11
-89.56102697
 21
140.86276385
 31
0.0
  0
LINE
  5
3C8
100
AcDbEntity
  8
LAYER0243
  6
CONTINUOUS
 62
      43
100
AcDbLine
 10
-87.42162095
 20
143.28501258
 30
0.0
 11
-89.42275097
 21
141.28388256
 31
0.0
  0
LINE
  5
3C9
100
AcDbEntity
  8
LAYER0243
  6
CONTINUOUS
 62
      43
100
AcDbLine
 10
-88.39538688
 20
142.59408937
 30
0.0
 11
-88.93541378
 21
142.05406247
 31
0.0
  0
LINE
  5
3CA
100
AcDbEntity
  8
LAYER0243
  6
CONTINUOUS
 62
      43
100
AcDbLine
 10
-77.81271401
 20
145.540009
 30
0.0
 11
-80.48573957
 21
142.86698344
 31
0.0
  0
LINE
  5
3CB
100
AcDbEntity
  8
LAYER0243
  6
CONTINUOUS
 62
      43
100
AcDbLine
 10
-77.52219065
 20
145.54768964
 30
0.0
 11
-80.20289686
 21
142.86698344
 31
0.0
  0
LINE
  5
3CC
100
AcDbEntity
  8
LAYER0243
  6
CONTINUOUS
 62
      43
100
AcDbLine
 10
-77.23437931
 20
145.55265827
 30
0.0
 11
-79.92005414
 21
142.86698344
 31
0.0
  0
LINE
  5
3CD
100
AcDbEntity
  8
LAYER0243
  6
CONTINUOUS
 62
      43
100
AcDbLine
 10
-76.94919788
 20
145.55499699
 30
0.0
 11
-79.63721143
 21
142.86698344
 31
0.0
  0
LINE
  5
3CE
100
AcDbEntity
  8
LAYER0243
  6
CONTINUOUS
 62
      43
100
AcDbLine
 10
-76.66657211
 20
145.55478005
 30
0.0
 11
-79.35436872
 21
142.86698344
 31
0.0
  0
LINE
  5
3CF
100
AcDbEntity
  8
LAYER0243
  6
CONTINUOUS
 62
      43
100
AcDbLine
 10
-76.38643479
 20
145.55207466
 30
0.0
 11
-79.07152601
 21
142.86698344
 31
0.0
  0
LINE
  5
3D0
100
AcDbEntity
  8
LAYER0243
  6
CONTINUOUS
 62
      43
100
AcDbLine
 10
-76.10872508
 20
145.54694165
 30
0.0
 11
-78.78868329
 21
142.86698344
 31
0.0
  0
LINE
  5
3D1
100
AcDbEntity
  8
LAYER0243
  6
CONTINUOUS
 62
      43
100
AcDbLine
 10
-75.83338793
 20
145.53943609
 30
0.0
 11
-78.50584058
 21
142.86698344
 31
0.0
  0
LINE
  5
3D2
100
AcDbEntity
  8
LAYER0243
  6
CONTINUOUS
 62
      43
100
AcDbLine
 10
-75.56037354
 20
145.52960777
 30
0.0
 11
-78.22299787
 21
142.86698344
 31
0.0
  0
LINE
  5
3D3
100
AcDbEntity
  8
LAYER0243
  6
CONTINUOUS
 62
      43
100
AcDbLine
 10
-75.28963697
 20
145.51750163
 30
0.0
 11
-77.94015516
 21
142.86698344
 31
0.0
  0
LINE
  5
3D4
100
AcDbEntity
  8
LAYER0243
  6
CONTINUOUS
 62
      43
100
AcDbLine
 10
-75.02113773
 20
145.50315815
 30
0.0
 11
-77.65731244
 21
142.86698344
 31
0.0
  0
LINE
  5
3D5
100
AcDbEntity
  8
LAYER0243
  6
CONTINUOUS
 62
      43
100
AcDbLine
 10
-74.75483947
 20
145.4866137
 30
0.0
 11
-77.37446973
 21
142.86698344
 31
0.0
  0
LINE
  5
3D6
100
AcDbEntity
  8
LAYER0243
  6
CONTINUOUS
 62
      43
100
AcDbLine
 10
-74.49070969
 20
145.46790077
 30
0.0
 11
-77.09162702
 21
142.86698344
 31
0.0
  0
LINE
  5
3D7
100
AcDbEntity
  8
LAYER0243
  6
CONTINUOUS
 62
      43
100
AcDbLine
 10
-74.22871949
 20
145.44704826
 30
0.0
 11
-76.80878431
 21
142.86698344
 31
0.0
  0
LINE
  5
3D8
100
AcDbEntity
  8
LAYER0243
  6
CONTINUOUS
 62
      43
100
AcDbLine
 10
-73.96884335
 20
145.42408169
 30
0.0
 11
-76.5259416
 21
142.86698344
 31
0.0
  0
LINE
  5
3D9
100
AcDbEntity
  8
LAYER0243
  6
CONTINUOUS
 62
      43
100
AcDbLine
 10
-73.71105898
 20
145.39902334
 30
0.0
 11
-76.24309888
 21
142.86698344
 31
0.0
  0
LINE
  5
3DA
100
AcDbEntity
  8
LAYER0243
  6
CONTINUOUS
 62
      43
100
AcDbLine
 10
-73.45534714
 20
145.37189247
 30
0.0
 11
-75.96025617
 21
142.86698344
 31
0.0
  0
LINE
  5
3DB
100
AcDbEntity
  8
LAYER0243
  6
CONTINUOUS
 62
      43
100
AcDbLine
 10
-73.20169152
 20
145.34270538
 30
0.0
 11
-75.67741346
 21
142.86698344
 31
0.0
  0
LINE
  5
3DC
100
AcDbEntity
  8
LAYER0243
  6
CONTINUOUS
 62
      43
100
AcDbLine
 10
-72.95007861
 20
145.31147558
 30
0.0
 11
-75.39457075
 21
142.86698344
 31
0.0
  0
LINE
  5
3DD
100
AcDbEntity
  8
LAYER0243
  6
CONTINUOUS
 62
      43
100
AcDbLine
 10
-72.70049763
 20
145.27821384
 30
0.0
 11
-75.11172803
 21
142.86698344
 31
0.0
  0
LINE
  5
3DE
100
AcDbEntity
  8
LAYER0243
  6
CONTINUOUS
 62
      43
100
AcDbLine
 10
-72.45294048
 20
145.24292828
 30
0.0
 11
-74.82888532
 21
142.86698344
 31
0.0
  0
LINE
  5
3DF
100
AcDbEntity
  8
LAYER0243
  6
CONTINUOUS
 62
      43
100
AcDbLine
 10
-72.20740164
 20
145.20562441
 30
0.0
 11
-74.54604261
 21
142.86698344
 31
0.0
  0
LINE
  5
3E0
100
AcDbEntity
  8
LAYER0243
  6
CONTINUOUS
 62
      43
100
AcDbLine
 10
-71.96387816
 20
145.16630517
 30
0.0
 11
-74.2631999
 21
142.86698344
 31
0.0
  0
LINE
  5
3E1
100
AcDbEntity
  8
LAYER0243
  6
CONTINUOUS
 62
      43
100
AcDbLine
 10
-71.72236967
 20
145.12497096
 30
0.0
 11
-73.98035718
 21
142.86698344
 31
0.0
  0
LINE
  5
3E2
100
AcDbEntity
  8
LAYER0243
  6
CONTINUOUS
 62
      43
100
AcDbLine
 10
-71.4828783
 20
145.08161961
 30
0.0
 11
-73.69751447
 21
142.86698344
 31
0.0
  0
LINE
  5
3E3
100
AcDbEntity
  8
LAYER0243
  6
CONTINUOUS
 62
      43
100
AcDbLine
 10
-71.24540879
 20
145.0362464
 30
0.0
 11
-73.41467176
 21
142.86698344
 31
0.0
  0
LINE
  5
3E4
100
AcDbEntity
  8
LAYER0243
  6
CONTINUOUS
 62
      43
100
AcDbLine
 10
-71.00996845
 20
144.98884403
 30
0.0
 11
-73.13182905
 21
142.86698344
 31
0.0
  0
LINE
  5
3E5
100
AcDbEntity
  8
LAYER0243
  6
CONTINUOUS
 62
      43
100
AcDbLine
 10
-70.77656723
 20
144.93940254
 30
0.0
 11
-72.84898633
 21
142.86698344
 31
0.0
  0
LINE
  5
3E6
100
AcDbEntity
  8
LAYER0243
  6
CONTINUOUS
 62
      43
100
AcDbLine
 10
-70.54521779
 20
144.88790927
 30
0.0
 11
-72.56614362
 21
142.86698344
 31
0.0
  0
LINE
  5
3E7
100
AcDbEntity
  8
LAYER0243
  6
CONTINUOUS
 62
      43
100
AcDbLine
 10
-70.31593556
 20
144.83434879
 30
0.0
 11
-72.28330091
 21
142.86698344
 31
0.0
  0
LINE
  5
3E8
100
AcDbEntity
  8
LAYER0243
  6
CONTINUOUS
 62
      43
100
AcDbLine
 10
-70.08873888
 20
144.77870275
 30
0.0
 11
-72.0004582
 21
142.86698344
 31
0.0
  0
LINE
  5
3E9
100
AcDbEntity
  8
LAYER0243
  6
CONTINUOUS
 62
      43
100
AcDbLine
 10
-69.8636491
 20
144.72094983
 30
0.0
 11
-71.71761548
 21
142.86698344
 31
0.0
  0
LINE
  5
3EA
100
AcDbEntity
  8
LAYER0243
  6
CONTINUOUS
 62
      43
100
AcDbLine
 10
-69.64069071
 20
144.6610655
 30
0.0
 11
-71.43477277
 21
142.86698344
 31
0.0
  0
LINE
  5
3EB
100
AcDbEntity
  8
LAYER0243
  6
CONTINUOUS
 62
      43
100
AcDbLine
 10
-69.41989155
 20
144.59902195
 30
0.0
 11
-71.15193006
 21
142.86698344
 31
0.0
  0
LINE
  5
3EC
100
AcDbEntity
  8
LAYER0243
  6
CONTINUOUS
 62
      43
100
AcDbLine
 10
-69.20128301
 20
144.53478778
 30
0.0
 11
-70.86908735
 21
142.86698344
 31
0.0
  0
LINE
  5
3ED
100
AcDbEntity
  8
LAYER0243
  6
CONTINUOUS
 62
      43
100
AcDbLine
 10
-68.98490021
 20
144.46832786
 30
0.0
 11
-70.58624463
 21
142.86698344
 31
0.0
  0
LINE
  5
3EE
100
AcDbEntity
  8
LAYER0243
  6
CONTINUOUS
 62
      43
100
AcDbLine
 10
-68.77078235
 20
144.39960301
 30
0.0
 11
-70.30340192
 21
142.86698344
 31
0.0
  0
LINE
  5
3EF
100
AcDbEntity
  8
LAYER0243
  6
CONTINUOUS
 62
      43
100
AcDbLine
 10
-68.55897298
 20
144.32856967
 30
0.0
 11
-70.02055921
 21
142.86698344
 31
0.0
  0
LINE
  5
3F0
100
AcDbEntity
  8
LAYER0243
  6
CONTINUOUS
 62
      43
100
AcDbLine
 10
-68.34952033
 20
144.2551796
 30
0.0
 11
-69.7377165
 21
142.86698344
 31
0.0
  0
LINE
  5
3F1
100
AcDbEntity
  8
LAYER0243
  6
CONTINUOUS
 62
      43
100
AcDbLine
 10
-68.14247782
 20
144.17937941
 30
0.0
 11
-69.45487378
 21
142.86698344
 31
0.0
  0
LINE
  5
3F2
100
AcDbEntity
  8
LAYER0243
  6
CONTINUOUS
 62
      43
100
AcDbLine
 10
-67.93790444
 20
144.10111007
 30
0.0
 11
-69.17203107
 21
142.86698344
 31
0.0
  0
LINE
  5
3F3
100
AcDbEntity
  8
LAYER0243
  6
CONTINUOUS
 62
      43
100
AcDbLine
 10
-67.73586538
 20
144.02030642
 30
0.0
 11
-68.88918836
 21
142.86698344
 31
0.0
  0
LINE
  5
3F4
100
AcDbEntity
  8
LAYER0243
  6
CONTINUOUS
 62
      43
100
AcDbLine
 10
-67.53643265
 20
143.93689643
 30
0.0
 11
-68.60634565
 21
142.86698344
 31
0.0
  0
LINE
  5
3F5
100
AcDbEntity
  8
LAYER0243
  6
CONTINUOUS
 62
      43
100
AcDbLine
 10
-67.33968586
 20
143.85080052
 30
0.0
 11
-68.32350293
 21
142.86698344
 31
0.0
  0
LINE
  5
3F6
100
AcDbEntity
  8
LAYER0243
  6
CONTINUOUS
 62
      43
100
AcDbLine
 10
-67.14571306
 20
143.7619306
 30
0.0
 11
-68.04066022
 21
142.86698344
 31
0.0
  0
LINE
  5
3F7
100
AcDbEntity
  8
LAYER0243
  6
CONTINUOUS
 62
      43
100
AcDbLine
 10
-66.95461185
 20
143.6701891
 30
0.0
 11
-67.75781751
 21
142.86698344
 31
0.0
  0
LINE
  5
3F8
100
AcDbEntity
  8
LAYER0243
  6
CONTINUOUS
 62
      43
100
AcDbLine
 10
-66.76649055
 20
143.57546769
 30
0.0
 11
-67.4749748
 21
142.86698344
 31
0.0
  0
LINE
  5
3F9
100
AcDbEntity
  8
LAYER0243
  6
CONTINUOUS
 62
      43
100
AcDbLine
 10
-66.58146969
 20
143.47764583
 30
0.0
 11
-67.19213208
 21
142.86698344
 31
0.0
  0
LINE
  5
3FA
100
AcDbEntity
  8
LAYER0243
  6
CONTINUOUS
 62
      43
100
AcDbLine
 10
-66.39968376
 20
143.37658905
 30
0.0
 11
-66.90928937
 21
142.86698344
 31
0.0
  0
LINE
  5
3FB
100
AcDbEntity
  8
LAYER0243
  6
CONTINUOUS
 62
      43
100
AcDbLine
 10
-66.22128332
 20
143.27214678
 30
0.0
 11
-66.62644666
 21
142.86698344
 31
0.0
  0
LINE
  5
3FC
100
AcDbEntity
  8
LAYER0243
  6
CONTINUOUS
 62
      43
100
AcDbLine
 10
-66.0464375
 20
143.16414988
 30
0.0
 11
-66.48843845
 21
142.72214893
 31
0.0
  0
LINE
  5
3FD
100
AcDbEntity
  8
LAYER0243
  6
CONTINUOUS
 62
      43
100
AcDbLine
 10
-65.87533721
 20
143.05240746
 30
0.0
 11
-66.48843845
 21
142.43930622
 31
0.0
  0
LINE
  5
3FE
100
AcDbEntity
  8
LAYER0243
  6
CONTINUOUS
 62
      43
100
AcDbLine
 10
-65.70819891
 20
142.93670305
 30
0.0
 11
-66.48843845
 21
142.15646351
 31
0.0
  0
LINE
  5
3FF
100
AcDbEntity
  8
LAYER0243
  6
CONTINUOUS
 62
      43
100
AcDbLine
 10
-65.54526944
 20
142.8167898
 30
0.0
 11
-66.48843845
 21
141.87362079
 31
0.0
  0
LINE
  5
400
100
AcDbEntity
  8
LAYER0243
  6
CONTINUOUS
 62
      43
100
AcDbLine
 10
-65.38683211
 20
142.69238443
 30
0.0
 11
-66.48843845
 21
141.59077808
 31
0.0
  0
LINE
  5
401
100
AcDbEntity
  8
LAYER0243
  6
CONTINUOUS
 62
      43
100
AcDbLine
 10
-65.23321438
 20
142.56315945
 30
0.0
 11
-66.48843845
 21
141.30793537
 31
0.0
  0
LINE
  5
402
100
AcDbEntity
  8
LAYER0243
  6
CONTINUOUS
 62
      43
100
AcDbLine
 10
-65.08479794
 20
142.42873317
 30
0.0
 11
-66.48843845
 21
141.02509266
 31
0.0
  0
LINE
  5
403
100
AcDbEntity
  8
LAYER0243
  6
CONTINUOUS
 62
      43
100
AcDbLine
 10
-64.94203192
 20
142.28865648
 30
0.0
 11
-66.48843845
 21
140.74224994
 31
0.0
  0
LINE
  5
404
100
AcDbEntity
  8
LAYER0243
  6
CONTINUOUS
 62
      43
100
AcDbLine
 10
-64.80545059
 20
142.14239509
 30
0.0
 11
-66.48843845
 21
140.45940723
 31
0.0
  0
LINE
  5
405
100
AcDbEntity
  8
LAYER0243
  6
CONTINUOUS
 62
      43
100
AcDbLine
 10
-64.67569766
 20
141.98930531
 30
0.0
 11
-66.23551953
 21
140.42948344
 31
0.0
  0
LINE
  5
406
100
AcDbEntity
  8
LAYER0243
  6
CONTINUOUS
 62
      43
100
AcDbLine
 10
-64.55356032
 20
141.82859994
 30
0.0
 11
-65.95267682
 21
140.42948344
 31
0.0
  0
LINE
  5
407
100
AcDbEntity
  8
LAYER0243
  6
CONTINUOUS
 62
      43
100
AcDbLine
 10
-64.44001845
 20
141.6592991
 30
0.0
 11
-65.66983411
 21
140.42948344
 31
0.0
  0
LINE
  5
408
100
AcDbEntity
  8
LAYER0243
  6
CONTINUOUS
 62
      43
100
AcDbLine
 10
-64.33631806
 20
141.48015677
 30
0.0
 11
-65.3869914
 21
140.42948344
 31
0.0
  0
LINE
  5
409
100
AcDbEntity
  8
LAYER0243
  6
CONTINUOUS
 62
      43
100
AcDbLine
 10
-64.24408541
 20
141.28954671
 30
0.0
 11
-65.10414868
 21
140.42948344
 31
0.0
  0
LINE
  5
40A
100
AcDbEntity
  8
LAYER0243
  6
CONTINUOUS
 62
      43
100
AcDbLine
 10
-64.16551359
 20
141.08527582
 30
0.0
 11
-64.82130597
 21
140.42948344
 31
0.0
  0
LINE
  5
40B
100
AcDbEntity
  8
LAYER0243
  6
CONTINUOUS
 62
      43
100
AcDbLine
 10
-64.1036871
 20
140.8642596
 30
0.0
 11
-64.53846326
 21
140.42948344
 31
0.0
  0
LINE
  5
40C
100
AcDbEntity
  8
LAYER0243
  6
CONTINUOUS
 62
      43
100
AcDbLine
 10
-64.06319515
 20
140.62190883
 30
0.0
 11
-64.25562055
 21
140.42948344
 31
0.0
  0
LINE
  5
40D
100
AcDbEntity
  8
LAYER0243
  6
CONTINUOUS
 62
      43
100
AcDbLine
 10
-72.86233258
 20
137.99198344
 30
0.0
 11
-75.59318898
 21
135.26112704
 31
0.0
  0
LINE
  5
40E
100
AcDbEntity
  8
LAYER0243
  6
CONTINUOUS
 62
      43
100
AcDbLine
 10
-73.14517529
 20
137.99198344
 30
0.0
 11
-75.88617855
 21
135.25098017
 31
0.0
  0
LINE
  5
40F
100
AcDbEntity
  8
LAYER0243
  6
CONTINUOUS
 62
      43
100
AcDbLine
 10
-73.428018
 20
137.99198344
 30
0.0
 11
-76.17637649
 21
135.24362495
 31
0.0
  0
LINE
  5
410
100
AcDbEntity
  8
LAYER0243
  6
CONTINUOUS
 62
      43
100
AcDbLine
 10
-73.71086071
 20
137.99198344
 30
0.0
 11
-76.46387258
 21
135.23897158
 31
0.0
  0
LINE
  5
411
100
AcDbEntity
  8
LAYER0243
  6
CONTINUOUS
 62
      43
100
AcDbLine
 10
-73.99370343
 20
137.99198344
 30
0.0
 11
-76.74874792
 21
135.23693894
 31
0.0
  0
LINE
  5
412
100
AcDbEntity
  8
LAYER0243
  6
CONTINUOUS
 62
      43
100
AcDbLine
 10
-74.27654614
 20
137.99198344
 30
0.0
 11
-77.03107591
 21
135.23745367
 31
0.0
  0
LINE
  5
413
100
AcDbEntity
  8
LAYER0243
  6
CONTINUOUS
 62
      43
100
AcDbLine
 10
-74.55938885
 20
137.99198344
 30
0.0
 11
-77.31092297
 21
135.24044932
 31
0.0
  0
LINE
  5
414
100
AcDbEntity
  8
LAYER0243
  6
CONTINUOUS
 62
      43
100
AcDbLine
 10
-74.84223156
 20
137.99198344
 30
0.0
 11
-77.58834922
 21
135.24586578
 31
0.0
  0
LINE
  5
415
100
AcDbEntity
  8
LAYER0243
  6
CONTINUOUS
 62
      43
100
AcDbLine
 10
-75.12507428
 20
137.99198344
 30
0.0
 11
-77.86340907
 21
135.25364864
 31
0.0
  0
LINE
  5
416
100
AcDbEntity
  8
LAYER0243
  6
CONTINUOUS
 62
      43
100
AcDbLine
 10
-75.40791699
 20
137.99198344
 30
0.0
 11
-78.13615172
 21
135.26374871
 31
0.0
  0
LINE
  5
417
100
AcDbEntity
  8
LAYER0243
  6
CONTINUOUS
 62
      43
100
AcDbLine
 10
-75.6907597
 20
137.99198344
 30
0.0
 11
-78.40662157
 21
135.27612157
 31
0.0
  0
LINE
  5
418
100
AcDbEntity
  8
LAYER0243
  6
CONTINUOUS
 62
      43
100
AcDbLine
 10
-75.97360241
 20
137.99198344
 30
0.0
 11
-78.67485859
 21
135.29072726
 31
0.0
  0
LINE
  5
419
100
AcDbEntity
  8
LAYER0243
  6
CONTINUOUS
 62
      43
100
AcDbLine
 10
-76.25644513
 20
137.99198344
 30
0.0
 11
-78.94089868
 21
135.30752989
 31
0.0
  0
LINE
  5
41A
100
AcDbEntity
  8
LAYER0243
  6
CONTINUOUS
 62
      43
100
AcDbLine
 10
-76.53928784
 20
137.99198344
 30
0.0
 11
-79.20477389
 21
135.32649739
 31
0.0
  0
LINE
  5
41B
100
AcDbEntity
  8
LAYER0243
  6
CONTINUOUS
 62
      43
100
AcDbLine
 10
-76.82213055
 20
137.99198344
 30
0.0
 11
-79.46651272
 21
135.34760127
 31
0.0
  0
LINE
  5
41C
100
AcDbEntity
  8
LAYER0243
  6
CONTINUOUS
 62
      43
100
AcDbLine
 10
-77.10497326
 20
137.99198344
 30
0.0
 11
-79.72614028
 21
135.37081642
 31
0.0
  0
LINE
  5
41D
100
AcDbEntity
  8
LAYER0243
  6
CONTINUOUS
 62
      43
100
AcDbLine
 10
-77.38781598
 20
137.99198344
 30
0.0
 11
-79.98367851
 21
135.39612091
 31
0.0
  0
LINE
  5
41E
100
AcDbEntity
  8
LAYER0243
  6
CONTINUOUS
 62
      43
100
AcDbLine
 10
-77.67065869
 20
137.99198344
 30
0.0
 11
-80.23914628
 21
135.42349585
 31
0.0
  0
LINE
  5
41F
100
AcDbEntity
  8
LAYER0243
  6
CONTINUOUS
 62
      43
100
AcDbLine
 10
-77.9535014
 20
137.99198344
 30
0.0
 11
-80.49255959
 21
135.45292526
 31
0.0
  0
LINE
  5
420
100
AcDbEntity
  8
LAYER0243
  6
CONTINUOUS
 62
      43
100
AcDbLine
 10
-78.23634411
 20
137.99198344
 30
0.0
 11
-80.74393159
 21
135.48439596
 31
0.0
  0
LINE
  5
421
100
AcDbEntity
  8
LAYER0243
  6
CONTINUOUS
 62
      43
100
AcDbLine
 10
-78.51918683
 20
137.99198344
 30
0.0
 11
-80.99327276
 21
135.51789751
 31
0.0
  0
LINE
  5
422
100
AcDbEntity
  8
LAYER0243
  6
CONTINUOUS
 62
      43
100
AcDbLine
 10
-78.80202954
 20
137.99198344
 30
0.0
 11
-81.24059089
 21
135.55342209
 31
0.0
  0
LINE
  5
423
100
AcDbEntity
  8
LAYER0243
  6
CONTINUOUS
 62
      43
100
AcDbLine
 10
-79.08487225
 20
137.99198344
 30
0.0
 11
-81.4858912
 21
135.5909645
 31
0.0
  0
LINE
  5
424
100
AcDbEntity
  8
LAYER0243
  6
CONTINUOUS
 62
      43
100
AcDbLine
 10
-79.36771496
 20
137.99198344
 30
0.0
 11
-81.72917631
 21
135.63052209
 31
0.0
  0
LINE
  5
425
100
AcDbEntity
  8
LAYER0243
  6
CONTINUOUS
 62
      43
100
AcDbLine
 10
-79.65055768
 20
137.99198344
 30
0.0
 11
-81.97044633
 21
135.67209479
 31
0.0
  0
LINE
  5
426
100
AcDbEntity
  8
LAYER0243
  6
CONTINUOUS
 62
      43
100
AcDbLine
 10
-79.93340039
 20
137.99198344
 30
0.0
 11
-82.20969878
 21
135.71568504
 31
0.0
  0
LINE
  5
427
100
AcDbEntity
  8
LAYER0243
  6
CONTINUOUS
 62
      43
100
AcDbLine
 10
-80.2162431
 20
137.99198344
 30
0.0
 11
-82.44692866
 21
135.76129788
 31
0.0
  0
LINE
  5
428
100
AcDbEntity
  8
LAYER0243
  6
CONTINUOUS
 62
      43
100
AcDbLine
 10
-80.49908581
 20
137.99198344
 30
0.0
 11
-82.68212832
 21
135.80894093
 31
0.0
  0
LINE
  5
429
100
AcDbEntity
  8
LAYER0243
  6
CONTINUOUS
 62
      43
100
AcDbLine
 10
-80.78192853
 20
137.99198344
 30
0.0
 11
-82.91528751
 21
135.85862445
 31
0.0
  0
LINE
  5
42A
100
AcDbEntity
  8
LAYER0243
  6
CONTINUOUS
 62
      43
100
AcDbLine
 10
-81.06477124
 20
137.99198344
 30
0.0
 11
-83.14639325
 21
135.91036143
 31
0.0
  0
LINE
  5
42B
100
AcDbEntity
  8
LAYER0243
  6
CONTINUOUS
 62
      43
100
AcDbLine
 10
-81.34761395
 20
137.99198344
 30
0.0
 11
-83.37542975
 21
135.96416764
 31
0.0
  0
LINE
  5
42C
100
AcDbEntity
  8
LAYER0243
  6
CONTINUOUS
 62
      43
100
AcDbLine
 10
-81.63045666
 20
137.99198344
 30
0.0
 11
-83.60237834
 21
136.02006176
 31
0.0
  0
LINE
  5
42D
100
AcDbEntity
  8
LAYER0243
  6
CONTINUOUS
 62
      43
100
AcDbLine
 10
-81.91329938
 20
137.99198344
 30
0.0
 11
-83.82721731
 21
136.07806551
 31
0.0
  0
LINE
  5
42E
100
AcDbEntity
  8
LAYER0243
  6
CONTINUOUS
 62
      43
100
AcDbLine
 10
-82.19614209
 20
137.99198344
 30
0.0
 11
-84.04992176
 21
136.13820377
 31
0.0
  0
LINE
  5
42F
100
AcDbEntity
  8
LAYER0243
  6
CONTINUOUS
 62
      43
100
AcDbLine
 10
-82.4789848
 20
137.99198344
 30
0.0
 11
-84.27046346
 21
136.20050478
 31
0.0
  0
LINE
  5
430
100
AcDbEntity
  8
LAYER0243
  6
CONTINUOUS
 62
      43
100
AcDbLine
 10
-82.76182751
 20
137.99198344
 30
0.0
 11
-84.48881059
 21
136.26500036
 31
0.0
  0
LINE
  5
431
100
AcDbEntity
  8
LAYER0243
  6
CONTINUOUS
 62
      43
100
AcDbLine
 10
-83.04467023
 20
137.99198344
 30
0.0
 11
-84.70492755
 21
136.33172612
 31
0.0
  0
LINE
  5
432
100
AcDbEntity
  8
LAYER0243
  6
CONTINUOUS
 62
      43
100
AcDbLine
 10
-83.32751294
 20
137.99198344
 30
0.0
 11
-84.91877465
 21
136.40072173
 31
0.0
  0
LINE
  5
433
100
AcDbEntity
  8
LAYER0243
  6
CONTINUOUS
 62
      43
100
AcDbLine
 10
-83.61035565
 20
137.99198344
 30
0.0
 11
-85.13030782
 21
136.47203127
 31
0.0
  0
LINE
  5
434
100
AcDbEntity
  8
LAYER0243
  6
CONTINUOUS
 62
      43
100
AcDbLine
 10
-83.89319836
 20
137.99198344
 30
0.0
 11
-85.33947821
 21
136.54570359
 31
0.0
  0
LINE
  5
435
100
AcDbEntity
  8
LAYER0243
  6
CONTINUOUS
 62
      43
100
AcDbLine
 10
-84.17604108
 20
137.99198344
 30
0.0
 11
-85.5462318
 21
136.62179271
 31
0.0
  0
LINE
  5
436
100
AcDbEntity
  8
LAYER0243
  6
CONTINUOUS
 62
      43
100
AcDbLine
 10
-84.45888379
 20
137.99198344
 30
0.0
 11
-85.75050888
 21
136.70035835
 31
0.0
  0
LINE
  5
437
100
AcDbEntity
  8
LAYER0243
  6
CONTINUOUS
 62
      43
100
AcDbLine
 10
-84.7417265
 20
137.99198344
 30
0.0
 11
-85.95224348
 21
136.78146646
 31
0.0
  0
LINE
  5
438
100
AcDbEntity
  8
LAYER0243
  6
CONTINUOUS
 62
      43
100
AcDbLine
 10
-85.02456921
 20
137.99198344
 30
0.0
 11
-86.15136275
 21
136.8651899
 31
0.0
  0
LINE
  5
439
100
AcDbEntity
  8
LAYER0243
  6
CONTINUOUS
 62
      43
100
AcDbLine
 10
-85.30741193
 20
137.99198344
 30
0.0
 11
-86.34778612
 21
136.95160924
 31
0.0
  0
LINE
  5
43A
100
AcDbEntity
  8
LAYER0243
  6
CONTINUOUS
 62
      43
100
AcDbLine
 10
-85.59025464
 20
137.99198344
 30
0.0
 11
-86.54142447
 21
137.0408136
 31
0.0
  0
LINE
  5
43B
100
AcDbEntity
  8
LAYER0243
  6
CONTINUOUS
 62
      43
100
AcDbLine
 10
-85.87309735
 20
137.99198344
 30
0.0
 11
-86.73217901
 21
137.13290178
 31
0.0
  0
LINE
  5
43C
100
AcDbEntity
  8
LAYER0243
  6
CONTINUOUS
 62
      43
100
AcDbLine
 10
-86.15594006
 20
137.99198344
 30
0.0
 11
-86.91994005
 21
137.22798346
 31
0.0
  0
LINE
  5
43D
100
AcDbEntity
  8
LAYER0243
  6
CONTINUOUS
 62
      43
100
AcDbLine
 10
-86.43878278
 20
137.99198344
 30
0.0
 11
-87.10458549
 21
137.32618073
 31
0.0
  0
LINE
  5
43E
100
AcDbEntity
  8
LAYER0243
  6
CONTINUOUS
 62
      43
100
AcDbLine
 10
-86.72162549
 20
137.99198344
 30
0.0
 11
-87.28597907
 21
137.42762985
 31
0.0
  0
LINE
  5
43F
100
AcDbEntity
  8
LAYER0243
  6
CONTINUOUS
 62
      43
100
AcDbLine
 10
-87.0044682
 20
137.99198344
 30
0.0
 11
-87.46396819
 21
137.53248345
 31
0.0
  0
LINE
  5
440
100
AcDbEntity
  8
LAYER0243
  6
CONTINUOUS
 62
      43
100
AcDbLine
 10
-87.11343845
 20
138.1658559
 30
0.0
 11
-87.63838129
 21
137.64091306
 31
0.0
  0
LINE
  5
441
100
AcDbEntity
  8
LAYER0243
  6
CONTINUOUS
 62
      43
100
AcDbLine
 10
-87.11343845
 20
138.44869861
 30
0.0
 11
-87.80902468
 21
137.75311238
 31
0.0
  0
LINE
  5
442
100
AcDbEntity
  8
LAYER0243
  6
CONTINUOUS
 62
      43
100
AcDbLine
 10
-87.11343845
 20
138.73154132
 30
0.0
 11
-87.97567857
 21
137.86930121
 31
0.0
  0
LINE
  5
443
100
AcDbEntity
  8
LAYER0243
  6
CONTINUOUS
 62
      43
100
AcDbLine
 10
-87.11343845
 20
139.01438404
 30
0.0
 11
-88.13809213
 21
137.98973036
 31
0.0
  0
LINE
  5
444
100
AcDbEntity
  8
LAYER0243
  6
CONTINUOUS
 62
      43
100
AcDbLine
 10
-87.11343845
 20
139.29722675
 30
0.0
 11
-88.2959773
 21
138.1146879
 31
0.0
  0
LINE
  5
445
100
AcDbEntity
  8
LAYER0243
  6
CONTINUOUS
 62
      43
100
AcDbLine
 10
-87.11343845
 20
139.58006946
 30
0.0
 11
-88.44900076
 21
138.24450716
 31
0.0
  0
LINE
  5
446
100
AcDbEntity
  8
LAYER0243
  6
CONTINUOUS
 62
      43
100
AcDbLine
 10
-87.11343845
 20
139.86291217
 30
0.0
 11
-88.5967736
 21
138.37957703
 31
0.0
  0
LINE
  5
447
100
AcDbEntity
  8
LAYER0243
  6
CONTINUOUS
 62
      43
100
AcDbLine
 10
-87.11343845
 20
140.14575489
 30
0.0
 11
-88.73883766
 21
138.52035568
 31
0.0
  0
LINE
  5
448
100
AcDbEntity
  8
LAYER0243
  6
CONTINUOUS
 62
      43
100
AcDbLine
 10
-87.11255261
 20
140.42948344
 30
0.0
 11
-88.87464714
 21
138.66738892
 31
0.0
  0
LINE
  5
449
100
AcDbEntity
  8
LAYER0243
  6
CONTINUOUS
 62
      43
100
AcDbLine
 10
-87.39539533
 20
140.42948344
 30
0.0
 11
-89.00354336
 21
138.8213354
 31
0.0
  0
LINE
  5
44A
100
AcDbEntity
  8
LAYER0243
  6
CONTINUOUS
 62
      43
100
AcDbLine
 10
-87.67823804
 20
140.42948344
 30
0.0
 11
-89.12471928
 21
138.9830022
 31
0.0
  0
LINE
  5
44B
100
AcDbEntity
  8
LAYER0243
  6
CONTINUOUS
 62
      43
100
AcDbLine
 10
-87.96108075
 20
140.42948344
 30
0.0
 11
-89.23716795
 21
139.15339624
 31
0.0
  0
LINE
  5
44C
100
AcDbEntity
  8
LAYER0243
  6
CONTINUOUS
 62
      43
100
AcDbLine
 10
-88.24392346
 20
140.42948344
 30
0.0
 11
-89.33960537
 21
139.33380153
 31
0.0
  0
LINE
  5
44D
100
AcDbEntity
  8
LAYER0243
  6
CONTINUOUS
 62
      43
100
AcDbLine
 10
-88.52676618
 20
140.42948344
 30
0.0
 11
-89.43034984
 21
139.52589978
 31
0.0
  0
LINE
  5
44E
100
AcDbEntity
  8
LAYER0243
  6
CONTINUOUS
 62
      43
100
AcDbLine
 10
-88.80960889
 20
140.42948344
 30
0.0
 11
-89.50712348
 21
139.73196885
 31
0.0
  0
LINE
  5
44F
100
AcDbEntity
  8
LAYER0243
  6
CONTINUOUS
 62
      43
100
AcDbLine
 10
-89.0924516
 20
140.42948344
 30
0.0
 11
-89.5667039
 21
139.95523114
 31
0.0
  0
LINE
  5
450
100
AcDbEntity
  8
LAYER0243
  6
CONTINUOUS
 62
      43
100
AcDbLine
 10
-89.37529431
 20
140.42948344
 30
0.0
 11
-89.60425855
 21
140.2005192
 31
0.0
  0
LINE
  5
451
100
AcDbEntity
  8
LAYER0243
  6
CONTINUOUS
 62
      43
100
AcDbLine
 10
-72.57948986
 20
137.99198344
 30
0.0
 11
-75.29730826
 21
135.27416505
 31
0.0
  0
LINE
  5
452
100
AcDbEntity
  8
LAYER0243
  6
CONTINUOUS
 62
      43
100
AcDbLine
 10
-72.29664715
 20
137.99198344
 30
0.0
 11
-74.99842588
 21
135.29020471
 31
0.0
  0
LINE
  5
453
100
AcDbEntity
  8
LAYER0243
  6
CONTINUOUS
 62
      43
100
AcDbLine
 10
-72.01380444
 20
137.99198344
 30
0.0
 11
-74.69641884
 21
135.30936904
 31
0.0
  0
LINE
  5
454
100
AcDbEntity
  8
LAYER0243
  6
CONTINUOUS
 62
      43
100
AcDbLine
 10
-71.73096173
 20
137.99198344
 30
0.0
 11
-74.39114977
 21
135.3317954
 31
0.0
  0
LINE
  5
455
100
AcDbEntity
  8
LAYER0243
  6
CONTINUOUS
 62
      43
100
AcDbLine
 10
-71.44811901
 20
137.99198344
 30
0.0
 11
-74.08246484
 21
135.35763761
 31
0.0
  0
LINE
  5
456
100
AcDbEntity
  8
LAYER0243
  6
CONTINUOUS
 62
      43
100
AcDbLine
 10
-71.1652763
 20
137.99198344
 30
0.0
 11
-73.77019106
 21
135.38706869
 31
0.0
  0
LINE
  5
457
100
AcDbEntity
  8
LAYER0243
  6
CONTINUOUS
 62
      43
100
AcDbLine
 10
-70.88243359
 20
137.99198344
 30
0.0
 11
-73.45413302
 21
135.42028401
 31
0.0
  0
LINE
  5
458
100
AcDbEntity
  8
LAYER0243
  6
CONTINUOUS
 62
      43
100
AcDbLine
 10
-70.59959088
 20
137.99198344
 30
0.0
 11
-73.13406895
 21
135.45750537
 31
0.0
  0
LINE
  5
459
100
AcDbEntity
  8
LAYER0243
  6
CONTINUOUS
 62
      43
100
AcDbLine
 10
-70.31674816
 20
137.99198344
 30
0.0
 11
-72.80974563
 21
135.49898598
 31
0.0
  0
LINE
  5
45A
100
AcDbEntity
  8
LAYER0243
  6
CONTINUOUS
 62
      43
100
AcDbLine
 10
-70.03390545
 20
137.99198344
 30
0.0
 11
-72.48087208
 21
135.54501682
 31
0.0
  0
LINE
  5
45B
100
AcDbEntity
  8
LAYER0243
  6
CONTINUOUS
 62
      43
100
AcDbLine
 10
-69.75106274
 20
137.99198344
 30
0.0
 11
-72.14711145
 21
135.59593473
 31
0.0
  0
LINE
  5
45C
100
AcDbEntity
  8
LAYER0243
  6
CONTINUOUS
 62
      43
100
AcDbLine
 10
-69.46822003
 20
137.99198344
 30
0.0
 11
-71.80807048
 21
135.65213299
 31
0.0
  0
LINE
  5
45D
100
AcDbEntity
  8
LAYER0243
  6
CONTINUOUS
 62
      43
100
AcDbLine
 10
-69.18537731
 20
137.99198344
 30
0.0
 11
-71.4632855
 21
135.71407525
 31
0.0
  0
LINE
  5
45E
100
AcDbEntity
  8
LAYER0243
  6
CONTINUOUS
 62
      43
100
AcDbLine
 10
-66.4650346
 20
140.42948344
 30
0.0
 11
-66.48843845
 21
140.40607959
 31
0.0
  0
LINE
  5
45F
100
AcDbEntity
  8
LAYER0243
  6
CONTINUOUS
 62
      43
100
AcDbLine
 10
-68.9025346
 20
137.99198344
 30
0.0
 11
-71.11220371
 21
135.78231433
 31
0.0
  0
LINE
  5
460
100
AcDbEntity
  8
LAYER0243
  6
CONTINUOUS
 62
      43
100
AcDbLine
 10
-66.18219189
 20
140.42948344
 30
0.0
 11
-66.48843845
 21
140.12323688
 31
0.0
  0
LINE
  5
461
100
AcDbEntity
  8
LAYER0243
  6
CONTINUOUS
 62
      43
100
AcDbLine
 10
-68.61969189
 20
137.99198344
 30
0.0
 11
-70.75415733
 21
135.857518
 31
0.0
  0
LINE
  5
462
100
AcDbEntity
  8
LAYER0243
  6
CONTINUOUS
 62
      43
100
AcDbLine
 10
-65.89934918
 20
140.42948344
 30
0.0
 11
-66.48843845
 21
139.84039416
 31
0.0
  0
LINE
  5
463
100
AcDbEntity
  8
LAYER0243
  6
CONTINUOUS
 62
      43
100
AcDbLine
 10
-68.33684918
 20
137.99198344
 30
0.0
 11
-70.38832717
 21
135.94050545
 31
0.0
  0
LINE
  5
464
100
AcDbEntity
  8
LAYER0243
  6
CONTINUOUS
 62
      43
100
AcDbLine
 10
-65.61650646
 20
140.42948344
 30
0.0
 11
-66.48843845
 21
139.55755145
 31
0.0
  0
LINE
  5
465
100
AcDbEntity
  8
LAYER0243
  6
CONTINUOUS
 62
      43
100
AcDbLine
 10
-68.05400646
 20
137.99198344
 30
0.0
 11
-70.01368973
 21
136.03230018
 31
0.0
  0
LINE
  5
466
100
AcDbEntity
  8
LAYER0243
  6
CONTINUOUS
 62
      43
100
AcDbLine
 10
-65.33366375
 20
140.42948344
 30
0.0
 11
-66.48843845
 21
139.27470874
 31
0.0
  0
LINE
  5
467
100
AcDbEntity
  8
LAYER0243
  6
CONTINUOUS
 62
      43
100
AcDbLine
 10
-67.77116375
 20
137.99198344
 30
0.0
 11
-69.62893768
 21
136.13420951
 31
0.0
  0
LINE
  5
468
100
AcDbEntity
  8
LAYER0243
  6
CONTINUOUS
 62
      43
100
AcDbLine
 10
-65.05082104
 20
140.42948344
 30
0.0
 11
-66.48843845
 21
138.99186603
 31
0.0
  0
LINE
  5
469
100
AcDbEntity
  8
LAYER0243
  6
CONTINUOUS
 62
      43
100
AcDbLine
 10
-67.48832104
 20
137.99198344
 30
0.0
 11
-69.23235514
 21
136.24794934
 31
0.0
  0
LINE
  5
46A
100
AcDbEntity
  8
LAYER0243
  6
CONTINUOUS
 62
      43
100
AcDbLine
 10
-64.76797833
 20
140.42948344
 30
0.0
 11
-66.48843845
 21
138.70902331
 31
0.0
  0
LINE
  5
46B
100
AcDbEntity
  8
LAYER0243
  6
CONTINUOUS
 62
      43
100
AcDbLine
 10
-67.20547833
 20
137.99198344
 30
0.0
 11
-68.82161169
 21
136.37585008
 31
0.0
  0
LINE
  5
46C
100
AcDbEntity
  8
LAYER0243
  6
CONTINUOUS
 62
      43
100
AcDbLine
 10
-64.48513561
 20
140.42948344
 30
0.0
 11
-66.48843845
 21
138.4261806
 31
0.0
  0
LINE
  5
46D
100
AcDbEntity
  8
LAYER0243
  6
CONTINUOUS
 62
      43
100
AcDbLine
 10
-66.92263561
 20
137.99198344
 30
0.0
 11
-68.39339893
 21
136.52122012
 31
0.0
  0
LINE
  5
46E
100
AcDbEntity
  8
LAYER0243
  6
CONTINUOUS
 62
      43
100
AcDbLine
 10
-64.2022929
 20
140.42948344
 30
0.0
 11
-66.48843845
 21
138.14333789
 31
0.0
  0
LINE
  5
46F
100
AcDbEntity
  8
LAYER0243
  6
CONTINUOUS
 62
      43
100
AcDbLine
 10
-66.6397929
 20
137.99198344
 30
0.0
 11
-67.94273112
 21
136.68904522
 31
0.0
  0
LINE
  5
470
100
AcDbEntity
  8
LAYER0243
  6
CONTINUOUS
 62
      43
100
AcDbLine
 10
-64.05336121
 20
140.29557242
 30
0.0
 11
-67.46142669
 21
136.88750694
 31
0.0
  0
LINE
  5
471
100
AcDbEntity
  8
LAYER0243
  6
CONTINUOUS
 62
      43
100
AcDbLine
 10
-64.09420149
 20
139.97188943
 30
0.0
 11
-66.93415768
 21
137.13193323
 31
0.0
  0
LINE
  5
472
100
AcDbEntity
  8
LAYER0243
  6
CONTINUOUS
 62
      43
100
AcDbLine
 10
-64.21755569
 20
139.56569252
 30
0.0
 11
-66.32437475
 21
137.45887345
 31
0.0
  0
LINE
  5
473
100
AcDbEntity
  8
LAYER0243
  6
CONTINUOUS
 62
      43
100
AcDbLine
 10
-64.59911451
 20
138.90129099
 30
0.0
 11
-65.4563872
 21
138.04401829
 31
0.0
  0
LINE
  5
474
100
AcDbEntity
  8
LAYER0243
  6
CONTINUOUS
 62
      43
100
AcDbLine
 10
93.38656155
 20
-127.38301656
 30
0.0
 11
93.38656155
 21
-97.38301656
 31
0.0
  0
LINE
  5
475
100
AcDbEntity
  8
LAYER0243
  6
CONTINUOUS
 62
      43
100
AcDbLine
 10
-91.05093845
 20
-127.38301656
 30
0.0
 11
-91.05093845
 21
-97.38301656
 31
0.0
  0
LINE
  5
476
100
AcDbEntity
  8
LAYER0243
  6
CONTINUOUS
 62
      43
100
AcDbLine
 10
-91.05093845
 20
-97.38301656
 30
0.0
 11
93.38656155
 21
-97.38301656
 31
0.0
  0
LINE
  5
477
100
AcDbEntity
  8
LAYER0243
  6
CONTINUOUS
 62
       3
100
AcDbLine
 10
31.26156155
 20
143.30448344
 30
0.0
 11
94.38656155
 21
143.30448344
 31
0.0
  0
LINE
  5
478
100
AcDbEntity
  8
LAYER0243
  6
CONTINUOUS
 62
       3
100
AcDbLine
 10
31.26156155
 20
143.30448344
 30
0.0
 11
31.26156155
 21
133.3983463
 31
0.0
  0
LINE
  5
479
100
AcDbEntity
  8
LAYER0243
  6
CONTINUOUS
 62
       3
100
AcDbLine
 10
94.38656155
 20
143.30448344
 30
0.0
 11
94.38656155
 21
133.3983463
 31
0.0
  0
LINE
  5
47A
100
AcDbEntity
  8
LAYER0243
  6
CONTINUOUS
 62
       3
100
AcDbLine
 10
31.01156155
 20
-141.13301656
 30
0.0
 11
31.01156155
 21
-129.07051656
 31
0.0
  0
LINE
  5
47B
100
AcDbEntity
  8
LAYER0243
  6
CONTINUOUS
 62
       3
100
AcDbLine
 10
26.01156155
 20
-141.13301656
 30
0.0
 11
26.01156155
 21
-129.07051656
 31
0.0
  0
LINE
  5
47C
100
AcDbEntity
  8
LAYER0243
  6
CONTINUOUS
 62
       3
100
AcDbLine
 10
-36.55093845
 20
-141.13301656
 30
0.0
 11
-36.55093845
 21
-129.07051656
 31
0.0
  0
LINE
  5
47D
100
AcDbEntity
  8
LAYER0243
  6
CONTINUOUS
 62
       3
100
AcDbLine
 10
-41.55093845
 20
-141.13301656
 30
0.0
 11
-41.55093845
 21
-129.07051656
 31
0.0
  0
LINE
  5
47E
100
AcDbEntity
  8
LAYER0243
  6
CONTINUOUS
 62
       3
100
AcDbLine
 10
-91.05093845
 20
-122.38301656
 30
0.0
 11
93.38656155
 21
-122.38301656
 31
0.0
  0
LINE
  5
47F
100
AcDbEntity
  8
LAYER0243
  6
CONTINUOUS
 62
       3
100
AcDbLine
 10
-91.05093845
 20
-117.38301656
 30
0.0
 11
93.38656155
 21
-117.38301656
 31
0.0
  0
LINE
  5
480
100
AcDbEntity
  8
LAYER0243
  6
CONTINUOUS
 62
       3
100
AcDbLine
 10
-91.05093845
 20
-112.38301656
 30
0.0
 11
93.38656155
 21
-112.38301656
 31
0.0
  0
LINE
  5
481
100
AcDbEntity
  8
LAYER0243
  6
CONTINUOUS
 62
       3
100
AcDbLine
 10
-91.05093845
 20
-107.38301656
 30
0.0
 11
93.38656155
 21
-107.38301656
 31
0.0
  0
LINE
  5
482
100
AcDbEntity
  8
LAYER0243
  6
CONTINUOUS
 62
       3
100
AcDbLine
 10
-91.05093845
 20
-102.38301656
 30
0.0
 11
93.38656155
 21
-102.38301656
 31
0.0
  0
LINE
  5
483
100
AcDbEntity
  8
LAYER0243
  6
CONTINUOUS
 62
       3
100
AcDbLine
 10
26.69906155
 20
-127.38301656
 30
0.0
 11
26.69906155
 21
-97.38301656
 31
0.0
  0
LINE
  5
484
100
AcDbEntity
  8
LAYER0243
  6
CONTINUOUS
 62
       3
100
AcDbLine
 10
15.57406155
 20
-127.38301656
 30
0.0
 11
15.57406155
 21
-97.38301656
 31
0.0
  0
LINE
  5
485
100
AcDbEntity
  8
LAYER0243
  6
CONTINUOUS
 62
       3
100
AcDbLine
 10
-37.55093845
 20
-127.38301656
 30
0.0
 11
-37.55093845
 21
-97.38301656
 31
0.0
  0
LINE
  5
486
100
AcDbEntity
  8
LAYER0243
  6
CONTINUOUS
 62
       3
100
AcDbLine
 10
-84.11343845
 20
-127.38301656
 30
0.0
 11
-84.11343845
 21
-97.38301656
 31
0.0
  0
TEXT
  5
487
100
AcDbEntity
  8
LAYER0243
 62
       4
100
AcDbText
 10
74.19432674
 20
-146.63896943
 30
0.0
 40
4.0
  1
091209
 41
0.8
 72
       5
 11
93.39432674
 21
-146.63896943
 31
0.0
100
AcDbText
  0
TEXT
  5
488
100
AcDbEntity
  8
LAYER0243
 62
       4
100
AcDbText
 10
-39.05143314
 20
-129.92837563
 30
0.0
 40
2.499
  1
品 名
 41
1.03494498
  7
FDASTYLE1
100
AcDbText
  0
TEXT
  5
489
100
AcDbEntity
  8
LAYER0243
 62
       4
100
AcDbText
 10
28.45080524
 20
-129.9459721
 30
0.0
 40
2.499
  1
品　番
 41
1.03494498
  7
FDASTYLE1
100
AcDbText
  0
TEXT
  5
48A
100
AcDbEntity
  8
LAYER0243
 62
       4
100
AcDbText
 10
-89.33918478
 20
-121.84304996
 30
0.0
 40
4.0
  1
1
 41
0.8
 72
       5
 11
-86.13918478
 21
-121.84304996
 31
0.0
100
AcDbText
  0
TEXT
  5
48B
100
AcDbEntity
  8
LAYER0243
 62
       4
100
AcDbText
 10
-89.33918478
 20
-116.84304996
 30
0.0
 40
4.0
  1
2
 41
0.8
 72
       5
 11
-86.13918478
 21
-116.84304996
 31
0.0
100
AcDbText
  0
TEXT
  5
48C
100
AcDbEntity
  8
LAYER0243
 62
       4
100
AcDbText
 10
-89.33918478
 20
-111.84304996
 30
0.0
 40
4.0
  1
3
 41
0.8
 72
       5
 11
-86.13918478
 21
-111.84304996
 31
0.0
100
AcDbText
  0
TEXT
  5
48D
100
AcDbEntity
  8
LAYER0243
 62
       4
100
AcDbText
 10
-89.33918478
 20
-106.84304996
 30
0.0
 40
4.0
  1
4
 41
0.8
 72
       5
 11
-86.13918478
 21
-106.84304996
 31
0.0
100
AcDbText
  0
TEXT
  5
48E
100
AcDbEntity
  8
LAYER0243
 62
       4
100
AcDbText
 10
-89.33918478
 20
-101.84304996
 30
0.0
 40
4.0
  1
5
 41
0.8
 72
       5
 11
-86.13918478
 21
-101.84304996
 31
0.0
100
AcDbText
  0
TEXT
  5
48F
100
AcDbEntity
  8
LAYER0243
 62
       4
100
AcDbText
 10
51.88366275
 20
-126.82331632
 30
0.0
 40
4.0
  1
摘要・仕上
 41
0.7143
 72
       5
 11
67.88366275
 21
-126.82331632
 31
0.0
100
AcDbText
  0
TEXT
  5
490
100
AcDbEntity
  8
LAYER0243
 62
       4
100
AcDbText
 10
16.24802284
 20
-126.82331632
 30
0.0
 40
4.0
  1
個　数
 41
0.75
 72
       5
 11
25.84802284
 21
-126.82331632
 31
0.0
100
AcDbText
  0
TEXT
  5
491
100
AcDbEntity
  8
LAYER0243
 62
       4
100
AcDbText
 10
-17.34788646
 20
-126.82331632
 30
0.0
 40
4.0
  1
材　　質
 41
0.6667
 72
       5
 11
-4.54788646
 21
-126.82331632
 31
0.0
100
AcDbText
  0
TEXT
  5
492
100
AcDbEntity
  8
LAYER0243
 62
       4
100
AcDbText
 10
-68.86530622
 20
-126.82331632
 30
0.0
 40
4.0
  1
部　品　名
 41
0.7143
 72
       5
 11
-52.86530622
 21
-126.82331632
 31
0.0
100
AcDbText
  0
TEXT
  5
493
100
AcDbEntity
  8
LAYER0243
 62
       4
100
AcDbText
 10
-90.9074195
 20
-126.82331632
 30
0.0
 40
4.0
  1
部番
 41
0.6667
 72
       5
 11
-84.5074195
 21
-126.82331632
 31
0.0
100
AcDbText
  0
TEXT
  5
494
100
AcDbEntity
  8
LAYER0243
 62
       4
100
AcDbText
 10
99.51880338
 20
-56.07330055
 30
0.0
 40
4.0
  1
洗面台
 50
-90.0
 41
0.75
 72
       5
 11
99.51880338
 21
-65.67330055
 31
0.0
100
AcDbText
  0
POINT
  5
495
100
AcDbEntity
  8
LAYER0243
  6
CONTINUOUS
 62
       9
100
AcDbPoint
 10
62.82406155
 20
138.35141487
 30
0.0
  0
POINT
  5
496
100
AcDbEntity
  8
LAYER0243
  6
CONTINUOUS
 62
       9
100
AcDbPoint
 10
-14.89120008
 20
138.35141487
 30
0.0
  0
POINT
  5
497
100
AcDbEntity
  8
LAYER0243
  6
CONTINUOUS
 62
       9
100
AcDbPoint
 10
62.19906155
 20
-135.10176656
 30
0.0
  0
POINT
  5
498
100
AcDbEntity
  8
LAYER0243
  6
CONTINUOUS
 62
       9
100
AcDbPoint
 10
-5.26968845
 20
-135.10176656
 30
0.0
  0
POINT
  5
499
100
AcDbEntity
  8
LAYER0243
  6
CONTINUOUS
 62
       9
100
AcDbPoint
 10
21.13656155
 20
-119.88301656
 30
0.0
  0
POINT
  5
49A
100
AcDbEntity
  8
LAYER0243
  6
CONTINUOUS
 62
       9
100
AcDbPoint
 10
-83.11343845
 20
-119.88301656
 30
0.0
  0
POINT
  5
49B
100
AcDbEntity
  8
LAYER0243
  6
CONTINUOUS
 62
       9
100
AcDbPoint
 10
-36.55093845
 20
-119.88301656
 30
0.0
  0
POINT
  5
49C
100
AcDbEntity
  8
LAYER0243
  6
CONTINUOUS
 62
       9
100
AcDbPoint
 10
27.69906155
 20
-119.88301656
 30
0.0
  0
LINE
  5
49D
100
AcDbEntity
  8
LAYER0243
  6
CONTINUOUS
 62
       9
100
AcDbLine
 10
105.02822821
 20
-153.4958066
 30
0.0
 11
105.02822821
 21
-148.4958066
 31
0.0
  0
LINE
  5
49E
100
AcDbEntity
  8
LAYER0243
  6
CONTINUOUS
 62
       9
100
AcDbLine
 10
-104.98843845
 20
148.48752673
 30
0.0
 11
-109.98843845
 21
148.48752673
 31
0.0
  0
LINE
  5
49F
100
AcDbEntity
  8
LAYER0243
  6
CONTINUOUS
 62
       9
100
AcDbLine
 10
105.01156155
 20
148.48752673
 30
0.0
 11
110.01156155
 21
148.48752673
 31
0.0
  0
LINE
  5
4A0
100
AcDbEntity
  8
LAYER0243
  6
CONTINUOUS
 62
       9
100
AcDbLine
 10
-104.97177179
 20
-148.4958066
 30
0.0
 11
-104.97177179
 21
-153.4958066
 31
0.0
  0
LINE
  5
4A1
100
AcDbEntity
  8
LAYER0243
  6
CONTINUOUS
 62
       9
100
AcDbLine
 10
105.01156155
 20
-153.51247327
 30
0.0
 11
105.01156155
 21
-148.51247327
 31
0.0
  0
LINE
  5
4A2
100
AcDbEntity
  8
LAYER0243
  6
CONTINUOUS
 62
       9
100
AcDbLine
 10
105.01156155
 20
-148.51247327
 30
0.0
 11
110.01156155
 21
-148.51247327
 31
0.0
  0
LINE
  5
4A3
100
AcDbEntity
  8
LAYER0243
  6
CONTINUOUS
 62
       9
100
AcDbLine
 10
-110.01156155
 20
-148.51247327
 30
0.0
 11
-104.98843845
 21
-148.51247327
 31
0.0
  0
LINE
  5
4A4
100
AcDbEntity
  8
LAYER0243
  6
CONTINUOUS
 62
       9
100
AcDbLine
 10
-104.98843845
 20
-148.54698392
 30
0.0
 11
-104.98843845
 21
-153.5124198
 31
0.0
  0
POINT
  5
4A5
100
AcDbEntity
  8
LAYER0243
  6
CONTINUOUS
 62
       9
100
AcDbPoint
 10
21.13656155
 20
-114.88301656
 30
0.0
  0
POINT
  5
4A6
100
AcDbEntity
  8
LAYER0243
  6
CONTINUOUS
 62
       9
100
AcDbPoint
 10
-83.11343845
 20
-114.88301656
 30
0.0
  0
POINT
  5
4A7
100
AcDbEntity
  8
LAYER0243
  6
CONTINUOUS
 62
       9
100
AcDbPoint
 10
-36.55093845
 20
-114.88301656
 30
0.0
  0
POINT
  5
4A8
100
AcDbEntity
  8
LAYER0243
  6
CONTINUOUS
 62
       9
100
AcDbPoint
 10
27.69906155
 20
-114.88301656
 30
0.0
  0
POINT
  5
4A9
100
AcDbEntity
  8
LAYER0243
  6
CONTINUOUS
 62
       9
100
AcDbPoint
 10
21.13656155
 20
-109.88301656
 30
0.0
  0
POINT
  5
4AA
100
AcDbEntity
  8
LAYER0243
  6
CONTINUOUS
 62
       9
100
AcDbPoint
 10
-83.11343845
 20
-109.88301656
 30
0.0
  0
POINT
  5
4AB
100
AcDbEntity
  8
LAYER0243
  6
CONTINUOUS
 62
       9
100
AcDbPoint
 10
-36.55093845
 20
-109.88301656
 30
0.0
  0
POINT
  5
4AC
100
AcDbEntity
  8
LAYER0243
  6
CONTINUOUS
 62
       9
100
AcDbPoint
 10
27.69906155
 20
-109.88301656
 30
0.0
  0
POINT
  5
4AD
100
AcDbEntity
  8
LAYER0243
  6
CONTINUOUS
 62
       9
100
AcDbPoint
 10
21.13656155
 20
-104.88301656
 30
0.0
  0
POINT
  5
4AE
100
AcDbEntity
  8
LAYER0243
  6
CONTINUOUS
 62
       9
100
AcDbPoint
 10
-83.11343845
 20
-104.88301656
 30
0.0
  0
POINT
  5
4AF
100
AcDbEntity
  8
LAYER0243
  6
CONTINUOUS
 62
       9
100
AcDbPoint
 10
-36.55093845
 20
-104.88301656
 30
0.0
  0
POINT
  5
4B0
100
AcDbEntity
  8
LAYER0243
  6
CONTINUOUS
 62
       9
100
AcDbPoint
 10
27.69906155
 20
-104.88301656
 30
0.0
  0
POINT
  5
4B1
100
AcDbEntity
  8
LAYER0243
  6
CONTINUOUS
 62
       9
100
AcDbPoint
 10
21.13656155
 20
-99.88301656
 30
0.0
  0
POINT
  5
4B2
100
AcDbEntity
  8
LAYER0243
  6
CONTINUOUS
 62
       9
100
AcDbPoint
 10
-83.11343845
 20
-99.88301656
 30
0.0
  0
POINT
  5
4B3
100
AcDbEntity
  8
LAYER0243
  6
CONTINUOUS
 62
       9
100
AcDbPoint
 10
-36.55093845
 20
-99.88301656
 30
0.0
  0
POINT
  5
4B4
100
AcDbEntity
  8
LAYER0243
  6
CONTINUOUS
 62
       9
100
AcDbPoint
 10
27.69906155
 20
-99.88301656
 30
0.0
  0
LINE
  5
4B5
100
AcDbEntity
  8
LAYER0243
  6
CONTINUOUS
 62
       9
100
AcDbLine
 10
105.02822821
 20
148.51247327
 30
0.0
 11
105.02822821
 21
153.51247327
 31
0.0
  0
LINE
  5
4B6
100
AcDbEntity
  8
LAYER0243
  6
CONTINUOUS
 62
       9
100
AcDbLine
 10
-104.98843845
 20
153.46129595
 30
0.0
 11
-104.98843845
 21
148.49586007
 31
0.0
  0
TEXT
  5
4B7
100
AcDbEntity
  8
LAYER0242
 62
       7
100
AcDbText
 10
-83.11343845
 20
-121.88301656
 30
0.0
 40
4.0
  1
目皿
 41
0.6667
 72
       5
 11
-76.71343845
 21
-121.88301656
 31
0.0
100
AcDbText
  0
TEXT
  5
4B8
100
AcDbEntity
  8
LAYER0242
 62
       7
100
AcDbText
 10
-83.11343845
 20
-111.88301656
 30
0.0
 40
4.0
  1
ﾌﾞﾗｹｯﾄ
 41
0.8
 72
       5
 11
-63.91343845
 21
-111.88301656
 31
0.0
100
AcDbText
  0
TEXT
  5
4B9
100
AcDbEntity
  8
LAYER0242
 62
       7
100
AcDbText
 10
-83.11343845
 20
-106.88301656
 30
0.0
 40
4.0
  1
固定ネジ
 41
0.6667
 72
       5
 11
-70.31343845
 21
-106.88301656
 31
0.0
100
AcDbText
  0
TEXT
  5
4BA
100
AcDbEntity
  8
LAYER0242
 62
       7
100
AcDbText
 10
-36.55093845
 20
-121.88301656
 30
0.0
 40
4.0
  1
ステンレス
 41
0.7143
 72
       5
 11
-20.55093845
 21
-121.88301656
 31
0.0
100
AcDbText
  0
TEXT
  5
4BB
100
AcDbEntity
  8
LAYER0242
 62
       7
100
AcDbText
 10
-36.55093845
 20
-111.88301656
 30
0.0
 40
4.0
  1
C3771BE
 41
0.8
 72
       5
 11
-14.15093845
 21
-111.88301656
 31
0.0
100
AcDbText
  0
TEXT
  5
4BC
100
AcDbEntity
  8
LAYER0242
 62
       7
100
AcDbText
 10
-36.55093845
 20
-106.88301656
 30
0.0
 40
4.0
  1
ステンレス
 41
0.7143
 72
       5
 11
-20.55093845
 21
-106.88301656
 31
0.0
100
AcDbText
  0
TEXT
  5
4BD
100
AcDbEntity
  8
LAYER0242
 62
       7
100
AcDbText
 10
27.69906155
 20
-121.88301656
 30
0.0
 40
4.0
  1
研磨仕上げ
 41
0.7143
 72
       5
 11
43.69906155
 21
-121.88301656
 31
0.0
100
AcDbText
  0
TEXT
  5
4BE
100
AcDbEntity
  8
LAYER0242
 62
       7
100
AcDbText
 10
19.53656155
 20
-121.88301656
 30
0.0
 40
4.0
  1
1
 41
0.8
 72
       5
 11
22.73656155
 21
-121.88301656
 31
0.0
100
AcDbText
  0
TEXT
  5
4BF
100
AcDbEntity
  8
LAYER0242
 62
       7
100
AcDbText
 10
27.69906155
 20
-111.88301656
 30
0.0
 40
4.0
  1
ニッケルメッキ
 41
0.7
 72
       5
 11
50.09906155
 21
-111.88301656
 31
0.0
100
AcDbText
  0
TEXT
  5
4C0
100
AcDbEntity
  8
LAYER0242
 62
       7
100
AcDbText
 10
27.69906155
 20
-106.88301656
 30
0.0
 40
4.0
  1
－丸皿小ネジ　M6X55
 41
0.75
 72
       5
 11
66.09906155
 21
-106.88301656
 31
0.0
100
AcDbText
  0
TEXT
  5
4C1
100
AcDbEntity
  8
LAYER0242
 62
       7
100
AcDbText
 10
19.53656155
 20
-111.88301656
 30
0.0
 40
4.0
  1
1
 41
0.8
 72
       5
 11
22.73656155
 21
-111.88301656
 31
0.0
100
AcDbText
  0
TEXT
  5
4C2
100
AcDbEntity
  8
LAYER0242
 62
       7
100
AcDbText
 10
19.53656155
 20
-106.88301656
 30
0.0
 40
4.0
  1
1
 41
0.8
 72
       5
 11
22.73656155
 21
-106.88301656
 31
0.0
100
AcDbText
  0
TEXT
  5
4C3
100
AcDbEntity
  8
LAYER0242
 62
       7
100
AcDbText
 10
-83.11343845
 20
-116.88301656
 30
0.0
 40
4.0
  1
パッキン
 41
0.6667
 72
       5
 11
-72.23343845
 21
-116.88301656
 31
0.0
100
AcDbText
  0
TEXT
  5
4C4
100
AcDbEntity
  8
LAYER0242
 62
       7
100
AcDbText
 10
-36.55093845
 20
-116.88301656
 30
0.0
 40
4.0
  1
ＮＢＲ
 41
0.75
 72
       5
 11
-26.95093845
 21
-116.88301656
 31
0.0
100
AcDbText
  0
TEXT
  5
4C5
100
AcDbEntity
  8
LAYER0242
 62
       7
100
AcDbText
 10
19.53656155
 20
-116.88301656
 30
0.0
 40
4.0
  1
1
 41
0.8
 72
       5
 11
22.73656155
 21
-116.88301656
 31
0.0
100
AcDbText
  0
TEXT
  5
4C6
100
AcDbEntity
  8
LAYER0242
 62
       7
100
AcDbText
 10
27.69906155
 20
-116.88301656
 30
0.0
 40
4.0
  1
グレー色
 41
0.6667
 72
       5
 11
40.49906155
 21
-116.88301656
 31
0.0
100
AcDbText
  0
TEXT
  5
4C7
100
AcDbEntity
  8
LAYER0242
 62
       4
100
AcDbText
 10
-16.46968845
 20
-137.10176656
 30
0.0
 40
4.0
  1
排水目皿
 41
0.6667
 72
       5
 11
-3.66968845
 21
-137.10176656
 31
0.0
100
AcDbText
  0
TEXT
  5
4C8
100
AcDbEntity
  8
LAYER0242
 62
       4
100
AcDbText
 10
55.79906155
 20
-137.10176656
 30
0.0
 40
4.0
  1
670.870
 41
0.8
 72
       5
 11
78.19906155
 21
-137.10176656
 31
0.0
100
AcDbText
  0
TEXT
  5
4C9
100
AcDbEntity
  8
LAYER0242
 62
       4
100
AcDbText
 10
56.42406155
 20
136.35141487
 30
0.0
 40
4.0
  1
670.870
 41
0.8
 72
       5
 11
78.82406155
 21
136.35141487
 31
0.0
100
AcDbText
  0
TEXT
  5
4CA
100
AcDbEntity
  8
LAYER0242
 62
       4
100
AcDbText
 10
-26.09120008
 20
136.35141487
 30
0.0
 40
4.0
  1
排水目皿
 41
0.6667
 72
       5
 11
-13.29120008
 21
136.35141487
 31
0.0
100
AcDbText
  0
LINE
  5
4CB
100
AcDbEntity
  8
LAYER0016
  6
CONTINUOUS
 62
       3
100
AcDbLine
 10
67.70780382
 20
-12.93131875
 30
0.0
 11
68.40482581
 21
-8.97830543
 31
0.0
  0
LINE
  5
4CC
100
AcDbEntity
  8
LAYER0016
  6
CONTINUOUS
 62
       3
100
AcDbLine
 10
49.4054443
 20
-12.93131866
 30
0.0
 11
48.70842231
 21
-8.97830543
 31
0.0
  0
ARC
  5
4CD
100
AcDbEntity
  8
LAYER0016
  6
CONTINUOUS
 62
       3
100
AcDbCircle
 10
69.98052081
 20
-9.25614493
 30
0.0
 40
1.6000015
100
AcDbArc
 50
102.915111
 51
169.999952
  0
ARC
  5
4CE
100
AcDbEntity
  8
LAYER0016
  6
CONTINUOUS
 62
       3
100
AcDbCircle
 10
47.13272931
 20
-9.25614493
 30
0.0
 40
1.6000015
100
AcDbArc
 50
10.000044
 51
77.084887
  0
ARC
  5
4CF
100
AcDbEntity
  8
LAYER0016
  6
CONTINUOUS
 62
       3
100
AcDbCircle
 10
73.55662431
 20
-24.85139793
 30
0.0
 40
17.6000135
100
AcDbArc
 50
90.000003
 51
102.915077
  0
ARC
  5
4D0
100
AcDbEntity
  8
LAYER0016
  6
CONTINUOUS
 62
       3
100
AcDbCircle
 10
43.55662231
 20
-24.85139793
 30
0.0
 40
17.6000135
100
AcDbArc
 50
77.084928
 51
89.999996
  0
LINE
  5
4D1
100
AcDbEntity
  8
LAYER0016
  6
CONTINUOUS
 62
       3
100
AcDbLine
 10
71.72036231
 20
-6.85138293
 30
0.0
 11
43.55662431
 21
-6.85138293
 31
0.0
  0
LINE
  5
4D2
100
AcDbEntity
  8
LAYER0016
  6
CONTINUOUS
 62
       3
100
AcDbLine
 10
73.55662431
 20
-6.85138293
 30
0.0
 11
71.72036231
 21
-6.85138293
 31
0.0
  0
LINE
  5
4D3
100
AcDbEntity
  8
LAYER0016
  6
CONTINUOUS
 62
       3
100
AcDbLine
 10
73.55662431
 20
-7.25138443
 30
0.0
 11
73.55662431
 21
-6.85138293
 31
0.0
  0
LINE
  5
4D4
100
AcDbEntity
  8
LAYER0016
  6
CONTINUOUS
 62
       3
100
AcDbLine
 10
43.55662431
 20
-7.25138443
 30
0.0
 11
43.55662431
 21
-6.85138293
 31
0.0
  0
LINE
  5
4D5
100
AcDbEntity
  8
LAYER0016
  6
CONTINUOUS
 62
       3
100
AcDbLine
 10
57.05662431
 20
-39.93749826
 30
0.0
 11
60.05662431
 21
-39.93749826
 31
0.0
  0
LINE
  5
4D6
100
AcDbEntity
  8
LAYER0016
  6
CONTINUOUS
 62
       3
100
AcDbLine
 10
57.32737431
 20
-40.18749826
 30
0.0
 11
59.80662431
 21
-40.18749826
 31
0.0
  0
LINE
  5
4D7
100
AcDbEntity
  8
LAYER0016
  6
CONTINUOUS
 62
       3
100
AcDbLine
 10
59.80662431
 20
-40.18749826
 30
0.0
 11
60.05662431
 21
-39.93749826
 31
0.0
  0
LINE
  5
4D8
100
AcDbEntity
  8
LAYER0016
  6
CONTINUOUS
 62
       3
100
AcDbLine
 10
57.30662431
 20
-40.18749826
 30
0.0
 11
57.05662431
 21
-39.93749826
 31
0.0
  0
LINE
  5
4D9
100
AcDbEntity
  8
LAYER0016
  6
CONTINUOUS
 62
       3
100
AcDbLine
 10
42.30662431
 20
-23.60138293
 30
0.0
 11
74.80662431
 21
-23.60138293
 31
0.0
  0
LINE
  5
4DA
100
AcDbEntity
  8
LAYER0016
  6
CONTINUOUS
 62
       3
100
AcDbLine
 10
74.80662431
 20
-24.70138143
 30
0.0
 11
74.80662431
 21
-23.60138293
 31
0.0
  0
LINE
  5
4DB
100
AcDbEntity
  8
LAYER0016
  6
CONTINUOUS
 62
       3
100
AcDbLine
 10
42.30662431
 20
-24.70138143
 30
0.0
 11
42.30662431
 21
-23.60138293
 31
0.0
  0
LINE
  5
4DC
100
AcDbEntity
  8
LAYER0016
  6
CONTINUOUS
 62
       3
100
AcDbLine
 10
74.05662431
 20
-23.45138143
 30
0.0
 11
43.05662431
 21
-23.45138143
 31
0.0
  0
LINE
  5
4DD
100
AcDbEntity
  8
LAYER0016
  6
CONTINUOUS
 62
       3
100
AcDbLine
 10
43.05662431
 20
-23.45138143
 30
0.0
 11
42.90662431
 21
-23.60138293
 31
0.0
  0
LINE
  5
4DE
100
AcDbEntity
  8
LAYER0016
  6
CONTINUOUS
 62
       3
100
AcDbLine
 10
74.05662431
 20
-23.45138143
 30
0.0
 11
74.20662581
 21
-23.60138293
 31
0.0
  0
LINE
  5
4DF
100
AcDbEntity
  8
LAYER0016
  6
CONTINUOUS
 62
       3
100
AcDbLine
 10
42.30662431
 20
-24.70138143
 30
0.0
 11
74.80662431
 21
-24.70138143
 31
0.0
  0
LINE
  5
4E0
100
AcDbEntity
  8
LAYER0016
  6
CONTINUOUS
 62
       3
100
AcDbLine
 10
68.30662431
 20
-31.95138143
 30
0.0
 11
48.80662431
 21
-31.95138143
 31
0.0
  0
LINE
  5
4E1
100
AcDbEntity
  8
LAYER0016
  6
CONTINUOUS
 62
       3
100
AcDbLine
 10
48.80662431
 20
-31.95138143
 30
0.0
 11
48.20662381
 21
-31.35138293
 31
0.0
  0
LINE
  5
4E2
100
AcDbEntity
  8
LAYER0016
  6
CONTINUOUS
 62
       3
100
AcDbLine
 10
68.30662431
 20
-31.95138143
 30
0.0
 11
68.90662281
 21
-31.35138293
 31
0.0
  0
LINE
  5
4E3
100
AcDbEntity
  8
LAYER0016
  6
CONTINUOUS
 62
       3
100
AcDbLine
 10
48.20662381
 20
-26.60138293
 30
0.0
 11
48.20662381
 21
-31.35138293
 31
0.0
  0
LINE
  5
4E4
100
AcDbEntity
  8
LAYER0016
  6
CONTINUOUS
 62
       3
100
AcDbLine
 10
68.90662281
 20
-26.60138293
 30
0.0
 11
68.90662281
 21
-31.35138293
 31
0.0
  0
LINE
  5
4E5
100
AcDbEntity
  8
LAYER0016
  6
CONTINUOUS
 62
       3
100
AcDbLine
 10
72.55662431
 20
-26.60138293
 30
0.0
 11
44.55662384
 21
-26.60138293
 31
0.0
  0
ARC
  5
4E6
100
AcDbEntity
  8
LAYER0016
  6
CONTINUOUS
 62
       3
100
AcDbCircle
 10
72.55662031
 20
-24.35137543
 30
0.0
 40
2.2500045
100
AcDbArc
 50
270.000114
 51
351.050901
  0
LINE
  5
4E7
100
AcDbEntity
  8
LAYER0016
  6
CONTINUOUS
 62
       3
100
AcDbLine
 10
48.83706181
 20
-31.95238093
 30
0.0
 11
48.19855581
 21
-31.31387693
 31
0.0
  0
LINE
  5
4E8
100
AcDbEntity
  8
LAYER0016
  6
CONTINUOUS
 62
       3
100
AcDbLine
 10
43.55662431
 20
-7.25138443
 30
0.0
 11
73.55662339
 21
-7.25138443
 31
0.0
  0
ARC
  5
4E9
100
AcDbEntity
  8
LAYER0016
  6
CONTINUOUS
 62
       3
100
AcDbCircle
 10
44.55662831
 20
-24.35137543
 30
0.0
 40
2.2500045
100
AcDbArc
 50
188.949099
 51
269.999886
  0
ARC
  5
4EA
100
AcDbEntity
  8
LAYER0016
  6
CONTINUOUS
 62
       3
100
AcDbCircle
 10
51.27658331
 20
-12.60138293
 30
0.0
 40
1.9000035
100
AcDbArc
 50
190.000102
 51
269.999922
  0
LINE
  5
4EB
100
AcDbEntity
  8
LAYER0016
  6
CONTINUOUS
 62
       3
100
AcDbLine
 10
51.27657981
 20
-14.50138443
 30
0.0
 11
65.83666724
 21
-14.50138443
 31
0.0
  0
LINE
  5
4EC
100
AcDbEntity
  8
LAYER0016
  6
CONTINUOUS
 62
       3
100
AcDbLine
 10
56.43162431
 20
-15.35138293
 30
0.0
 11
55.58162381
 21
-14.50138443
 31
0.0
  0
LINE
  5
4ED
100
AcDbEntity
  8
LAYER0016
  6
CONTINUOUS
 62
       3
100
AcDbLine
 10
60.68162431
 20
-15.35138293
 30
0.0
 11
56.43162431
 21
-15.35138293
 31
0.0
  0
LINE
  5
4EE
100
AcDbEntity
  8
LAYER0016
  6
CONTINUOUS
 62
       3
100
AcDbLine
 10
60.68162431
 20
-15.35138293
 30
0.0
 11
61.53162431
 21
-14.50138443
 31
0.0
  0
ARC
  5
4EF
100
AcDbEntity
  8
LAYER0016
  6
CONTINUOUS
 62
       3
100
AcDbCircle
 10
65.83666481
 20
-12.60138293
 30
0.0
 40
1.9000035
100
AcDbArc
 50
270.000073
 51
349.999895
  0
LINE
  5
4F0
100
AcDbEntity
  8
LAYER0016
  6
CONTINUOUS
 62
       3
100
AcDbLine
 10
60.05662431
 20
-15.35138293
 30
0.0
 11
60.05662431
 21
-23.45138143
 31
0.0
  0
LINE
  5
4F1
100
AcDbEntity
  8
LAYER0016
  6
CONTINUOUS
 62
       3
100
AcDbLine
 10
60.05662431
 20
-31.95138143
 30
0.0
 11
60.05662431
 21
-39.93749826
 31
0.0
  0
LINE
  5
4F2
100
AcDbEntity
  8
LAYER0016
  6
CONTINUOUS
 62
       3
100
AcDbLine
 10
57.05662431
 20
-15.35138293
 30
0.0
 11
57.05662431
 21
-23.45138143
 31
0.0
  0
LINE
  5
4F3
100
AcDbEntity
  8
LAYER0016
  6
CONTINUOUS
 62
       3
100
AcDbLine
 10
57.05662431
 20
-31.95138143
 30
0.0
 11
57.05662431
 21
-39.93749826
 31
0.0
  0
LINE
  5
4F4
100
AcDbEntity
  8
LAYER0016
  6
CONTINUOUS
 62
       9
100
AcDbLine
 10
68.90662281
 20
-27.20138143
 30
0.0
 11
48.20662381
 21
-27.20138143
 31
0.0
  0
LINE
  5
4F5
100
AcDbEntity
  8
LAYER0016
  6
CONTINUOUS
 62
       9
100
AcDbLine
 10
49.24162531
 20
-27.20138143
 30
0.0
 11
49.24162531
 21
-31.95138143
 31
0.0
  0
LINE
  5
4F6
100
AcDbEntity
  8
LAYER0016
  6
CONTINUOUS
 62
       9
100
AcDbLine
 10
67.87162281
 20
-27.20138143
 30
0.0
 11
67.87162281
 21
-31.95138143
 31
0.0
  0
LINE
  5
4F7
100
AcDbEntity
  8
LAYER0016
  6
CONTINUOUS
 62
       9
100
AcDbLine
 10
49.24162531
 20
-27.20138143
 30
0.0
 11
48.20662381
 21
-26.60138293
 31
0.0
  0
LINE
  5
4F8
100
AcDbEntity
  8
LAYER0016
  6
CONTINUOUS
 62
       9
100
AcDbLine
 10
67.87162281
 20
-27.20138143
 30
0.0
 11
68.90662281
 21
-26.60138293
 31
0.0
  0
LINE
  5
4F9
100
AcDbEntity
  8
LAYER0016
  6
CENTER
 62
       9
100
AcDbLine
 10
58.55662431
 20
-3.41638493
 30
0.0
 11
58.55662431
 21
-44.63638643
 31
0.0
  0
TEXT
  5
4FA
100
AcDbEntity
  8
LAYER0240
 62
       4
100
AcDbText
 10
30.80174262
 20
-39.60121194
 30
0.0
 40
4.0
  1
設置図
 41
0.75
 72
       5
 11
40.40174262
 21
-39.60121194
 31
0.0
100
AcDbText
  0
LINE
  5
4FB
100
AcDbEntity
  8
LAYER0240
  6
CONTINUOUS
 62
       4
100
AcDbLine
 10
29.75037979
 20
-40.40614308
 30
0.0
 11
41.74329451
 21
-40.40614308
 31
0.0
  0
LINE
  5
4FC
100
AcDbEntity
  8
0
  6
CONTINUOUS
 62
       9
100
AcDbLine
 10
-49.99761971
 20
42.64346472
 30
0.0
 11
-50.08042171
 21
42.64346472
 31
0.0
  0
LINE
  5
4FD
100
AcDbEntity
  8
0
  6
CONTINUOUS
 62
       9
100
AcDbLine
 10
-54.68298371
 20
42.64346472
 30
0.0
 11
-54.68102671
 21
42.64346472
 31
0.0
  0
LINE
  5
4FE
100
AcDbEntity
  8
0
  6
CONTINUOUS
 62
       9
100
AcDbLine
 10
-28.67718871
 20
45.92251772
 30
0.0
 11
-61.56212971
 21
45.92251772
 31
0.0
  0
LINE
  5
4FF
100
AcDbEntity
  8
0
  6
CONTINUOUS
 62
       9
100
AcDbLine
 10
-27.45380071
 20
53.82853872
 30
0.0
 11
-62.95617271
 21
53.82853872
 31
0.0
  0
LINE
  5
500
100
AcDbEntity
  8
0
  6
CONTINUOUS
 62
       9
100
AcDbLine
 10
-24.78138371
 20
57.03274772
 30
0.0
 11
-66.00137871
 21
57.03274772
 31
0.0
  0
LINE
  5
501
100
AcDbEntity
  8
0
  6
CONTINUOUS
 62
       9
100
AcDbLine
 10
-49.30038071
 20
43.25680772
 30
0.0
 11
-49.36095471
 21
43.25680772
 31
0.0
  0
LINE
  5
502
100
AcDbEntity
  8
0
  6
CONTINUOUS
 62
       9
100
AcDbLine
 10
-41.04761871
 20
32.94548272
 30
0.0
 11
-40.54761871
 21
32.65680172
 31
0.0
  0
LINE
  5
503
100
AcDbEntity
  8
0
  6
CONTINUOUS
 62
       9
100
AcDbLine
 10
-47.03806371
 20
35.91932872
 30
0.0
 11
-48.78554171
 21
37.66679572
 31
0.0
  0
LINE
  5
504
100
AcDbEntity
  8
0
  6
CONTINUOUS
 62
       9
100
AcDbLine
 10
-48.03318071
 20
32.67180072
 30
0.0
 11
-53.28718171
 21
37.92579872
 31
0.0
  0
LINE
  5
505
100
AcDbEntity
  8
0
  6
CONTINUOUS
 62
       9
100
AcDbLine
 10
-52.27582171
 20
32.67180072
 30
0.0
 11
-58.56582271
 21
38.96180972
 31
0.0
  0
LINE
  5
506
100
AcDbEntity
  8
0
  6
CONTINUOUS
 62
       9
100
AcDbLine
 10
-56.51846371
 20
32.67180072
 30
0.0
 11
-64.76375571
 21
40.91710072
 31
0.0
  0
LINE
  5
507
100
AcDbEntity
  8
0
  6
CONTINUOUS
 62
       9
100
AcDbLine
 10
-65.69446371
 20
41.84779572
 30
0.0
 11
-67.50746371
 21
43.66079872
 31
0.0
  0
LINE
  5
508
100
AcDbEntity
  8
0
  6
CONTINUOUS
 62
       9
100
AcDbLine
 10
-60.76110471
 20
32.67180072
 30
0.0
 11
-64.76375571
 21
36.67445572
 31
0.0
  0
LINE
  5
509
100
AcDbEntity
  8
0
  6
CONTINUOUS
 62
       9
100
AcDbLine
 10
-69.93710371
 20
41.84779572
 30
0.0
 11
-71.32842871
 21
43.23912272
 31
0.0
  0
LINE
  5
50A
100
AcDbEntity
  8
0
  6
CONTINUOUS
 62
       9
100
AcDbLine
 10
-12.40247771
 20
43.71014572
 30
0.0
 11
-13.40155471
 21
44.70921572
 31
0.0
  0
LINE
  5
50B
100
AcDbEntity
  8
0
  6
CONTINUOUS
 62
       9
100
AcDbLine
 10
-14.93098871
 20
41.99601972
 30
0.0
 11
-16.07807571
 21
43.14309872
 31
0.0
  0
LINE
  5
50C
100
AcDbEntity
  8
0
  6
CONTINUOUS
 62
       9
100
AcDbLine
 10
-19.02541771
 20
41.84779572
 30
0.0
 11
-20.83841371
 21
43.66079872
 31
0.0
  0
LINE
  5
50D
100
AcDbEntity
  8
0
  6
CONTINUOUS
 62
       9
100
AcDbLine
 10
-23.26805471
 20
41.84779572
 30
0.0
 11
-24.65037171
 21
43.23011972
 31
0.0
  0
LINE
  5
50E
100
AcDbEntity
  8
0
  6
CONTINUOUS
 62
       9
100
AcDbLine
 10
-23.34762171
 20
37.68472368
 30
0.0
 11
-25.86528371
 21
40.20237972
 31
0.0
  0
LINE
  5
50F
100
AcDbEntity
  8
0
  6
CONTINUOUS
 62
       9
100
AcDbLine
 10
-23.33147871
 20
33.42595072
 30
0.0
 11
-28.97833671
 21
39.07280172
 31
0.0
  0
LINE
  5
510
100
AcDbEntity
  8
0
  6
CONTINUOUS
 62
       9
100
AcDbLine
 10
-25.30297471
 20
31.15480272
 30
0.0
 11
-32.51797871
 21
38.36979872
 31
0.0
  0
LINE
  5
511
100
AcDbEntity
  8
0
  6
CONTINUOUS
 62
       9
100
AcDbLine
 10
-31.06261871
 20
32.67180072
 30
0.0
 11
-36.05761771
 21
37.66679572
 31
0.0
  0
LINE
  5
512
100
AcDbEntity
  8
0
  6
CONTINUOUS
 62
       9
100
AcDbLine
 10
-35.30525971
 20
32.67180072
 30
0.0
 11
-40.30025871
 21
37.66679572
 31
0.0
  0
LINE
  5
513
100
AcDbEntity
  8
0
  6
CONTINUOUS
 62
       9
100
AcDbLine
 10
-39.54790171
 20
32.67180072
 30
0.0
 11
-41.05717471
 21
34.18107772
 31
0.0
  0
LINE
  5
514
100
AcDbEntity
  8
0
  6
CONTINUOUS
 62
       9
100
AcDbLine
 10
-28.55837671
 20
42.76126272
 30
0.0
 11
-25.80238771
 21
45.51725972
 31
0.0
  0
LINE
  5
515
100
AcDbEntity
  8
0
  6
CONTINUOUS
 62
       9
100
AcDbLine
 10
-14.17750971
 20
57.14213772
 30
0.0
 11
-14.04761871
 21
57.27202072
 31
0.0
  0
LINE
  5
516
100
AcDbEntity
  8
0
  6
CONTINUOUS
 62
       9
100
AcDbLine
 10
-30.09038971
 20
42.64346472
 30
0.0
 11
-29.28286371
 21
43.45099072
 31
0.0
  0
LINE
  5
517
100
AcDbEntity
  8
0
  6
CONTINUOUS
 62
       9
100
AcDbLine
 10
-26.47354571
 20
46.26031672
 30
0.0
 11
-25.48730071
 21
47.24655372
 31
0.0
  0
LINE
  5
518
100
AcDbEntity
  8
0
  6
CONTINUOUS
 62
       9
100
AcDbLine
 10
-15.62697971
 20
57.10687472
 30
0.0
 11
-14.79835171
 21
57.93550272
 31
0.0
  0
LINE
  5
519
100
AcDbEntity
  8
0
  6
CONTINUOUS
 62
       9
100
AcDbLine
 10
-31.50460471
 20
42.64346472
 30
0.0
 11
-30.70460171
 21
43.44346772
 31
0.0
  0
LINE
  5
51A
100
AcDbEntity
  8
0
  6
CONTINUOUS
 62
       9
100
AcDbLine
 10
-26.17080371
 20
47.97726672
 30
0.0
 11
-25.18455871
 21
48.96351872
 31
0.0
  0
LINE
  5
51B
100
AcDbEntity
  8
0
  6
CONTINUOUS
 62
       9
100
AcDbLine
 10
-17.14246771
 20
57.00560172
 30
0.0
 11
-16.27363271
 21
57.87443772
 31
0.0
  0
LINE
  5
51C
100
AcDbEntity
  8
0
  6
CONTINUOUS
 62
       9
100
AcDbLine
 10
-32.91881971
 20
42.64346472
 30
0.0
 11
-32.11881671
 21
43.44346772
 31
0.0
  0
LINE
  5
51D
100
AcDbEntity
  8
0
  6
CONTINUOUS
 62
       9
100
AcDbLine
 10
-25.86805371
 20
49.69423072
 30
0.0
 11
-24.88180971
 21
50.68046772
 31
0.0
  0
LINE
  5
51E
100
AcDbEntity
  8
0
  6
CONTINUOUS
 62
       9
100
AcDbLine
 10
-18.73404371
 20
56.82823372
 30
0.0
 11
-17.81756271
 21
57.74472272
 31
0.0
  0
LINE
  5
51F
100
AcDbEntity
  8
0
  6
CONTINUOUS
 62
       9
100
AcDbLine
 10
-34.33303071
 20
42.64346472
 30
0.0
 11
-33.53303171
 21
43.44346772
 31
0.0
  0
LINE
  5
520
100
AcDbEntity
  8
0
  6
CONTINUOUS
 62
       9
100
AcDbLine
 10
-25.56530371
 20
51.41119572
 30
0.0
 11
-24.57906771
 21
52.39743272
 31
0.0
  0
LINE
  5
521
100
AcDbEntity
  8
0
  6
CONTINUOUS
 62
       9
100
AcDbLine
 10
-20.41444071
 20
56.56205972
 30
0.0
 11
-19.44105171
 21
57.53544772
 31
0.0
  0
LINE
  5
522
100
AcDbEntity
  8
0
  6
CONTINUOUS
 62
       9
100
AcDbLine
 10
-35.74724171
 20
42.64346472
 30
0.0
 11
-34.94724671
 21
43.44346772
 31
0.0
  0
LINE
  5
523
100
AcDbEntity
  8
0
  6
CONTINUOUS
 62
       9
100
AcDbLine
 10
-25.26256171
 20
53.12814572
 30
0.0
 11
-24.22853471
 21
54.16217272
 31
0.0
  0
LINE
  5
524
100
AcDbEntity
  8
0
  6
CONTINUOUS
 62
       9
100
AcDbLine
 10
-22.22784871
 20
56.16285872
 30
0.0
 11
-21.15803171
 21
57.23268372
 31
0.0
  0
LINE
  5
525
100
AcDbEntity
  8
0
  6
CONTINUOUS
 62
       9
100
AcDbLine
 10
-37.16145771
 20
42.64346472
 30
0.0
 11
-36.36145771
 21
43.44346772
 31
0.0
  0
LINE
  5
526
100
AcDbEntity
  8
0
  6
CONTINUOUS
 62
       9
100
AcDbLine
 10
-24.65036371
 20
55.15455872
 30
0.0
 11
-23.21809071
 21
56.58683972
 31
0.0
  0
LINE
  5
527
100
AcDbEntity
  8
0
  6
CONTINUOUS
 62
       9
100
AcDbLine
 10
-39.79761871
 20
41.42152572
 30
0.0
 11
-37.77567271
 21
43.44346772
 31
0.0
  0
LINE
  5
528
100
AcDbEntity
  8
0
  6
CONTINUOUS
 62
       9
100
AcDbLine
 10
-48.52981171
 20
41.17460872
 30
0.0
 11
-48.31456771
 21
41.38984872
 31
0.0
  0
LINE
  5
529
100
AcDbEntity
  8
0
  6
CONTINUOUS
 62
       9
100
AcDbLine
 10
-49.23708371
 20
41.88154772
 30
0.0
 11
-48.62794171
 21
42.49069372
 31
0.0
  0
LINE
  5
52A
100
AcDbEntity
  8
0
  6
CONTINUOUS
 62
       9
100
AcDbLine
 10
-49.94435871
 20
42.58848772
 30
0.0
 11
-49.31420871
 21
43.21864472
 31
0.0
  0
LINE
  5
52B
100
AcDbEntity
  8
0
  6
CONTINUOUS
 62
       9
100
AcDbLine
 10
-51.30759471
 20
42.63946772
 30
0.0
 11
-50.50959371
 21
43.43747172
 31
0.0
  0
LINE
  5
52C
100
AcDbEntity
  8
0
  6
CONTINUOUS
 62
       9
100
AcDbLine
 10
-52.72180571
 20
42.63946772
 30
0.0
 11
-51.92380571
 21
43.43747172
 31
0.0
  0
LINE
  5
52D
100
AcDbEntity
  8
0
  6
CONTINUOUS
 62
       9
100
AcDbLine
 10
-54.13602071
 20
42.63946772
 30
0.0
 11
-53.33802071
 21
43.43747172
 31
0.0
  0
LINE
  5
52E
100
AcDbEntity
  8
0
  6
CONTINUOUS
 62
       9
100
AcDbLine
 10
-55.55023571
 20
42.63946772
 30
0.0
 11
-54.75223571
 21
43.43747172
 31
0.0
  0
LINE
  5
52F
100
AcDbEntity
  8
0
  6
CONTINUOUS
 62
       9
100
AcDbLine
 10
-56.96444671
 20
42.63946772
 30
0.0
 11
-56.16644671
 21
43.43747172
 31
0.0
  0
LINE
  5
530
100
AcDbEntity
  8
0
  6
CONTINUOUS
 62
       9
100
AcDbLine
 10
-58.37866271
 20
42.63946772
 30
0.0
 11
-57.58066171
 21
43.43747172
 31
0.0
  0
LINE
  5
531
100
AcDbEntity
  8
0
  6
CONTINUOUS
 62
       9
100
AcDbLine
 10
-59.64238771
 20
42.78994972
 30
0.0
 11
-58.95287671
 21
43.47946372
 31
0.0
  0
LINE
  5
532
100
AcDbEntity
  8
0
  6
CONTINUOUS
 62
       9
100
AcDbLine
 10
-60.60171871
 20
43.24482972
 30
0.0
 11
-60.03458771
 21
43.81196772
 31
0.0
  0
LINE
  5
533
100
AcDbEntity
  8
0
  6
CONTINUOUS
 62
       9
100
AcDbLine
 10
-61.37200571
 20
43.88876572
 30
0.0
 11
-60.83646071
 21
44.42430272
 31
0.0
  0
LINE
  5
534
100
AcDbEntity
  8
0
  6
CONTINUOUS
 62
       9
100
AcDbLine
 10
-61.97425471
 20
44.70073172
 30
0.0
 11
-61.38271771
 21
45.29226872
 31
0.0
  0
LINE
  5
535
100
AcDbEntity
  8
0
  6
CONTINUOUS
 62
       9
100
AcDbLine
 10
-62.34917071
 20
45.74002272
 30
0.0
 11
-61.63483871
 21
46.45436272
 31
0.0
  0
LINE
  5
536
100
AcDbEntity
  8
0
  6
CONTINUOUS
 62
       9
100
AcDbLine
 10
-62.55926871
 20
46.94413972
 30
0.0
 11
-61.84493671
 21
47.65847972
 31
0.0
  0
LINE
  5
537
100
AcDbEntity
  8
0
  6
CONTINUOUS
 62
       9
100
AcDbLine
 10
-62.76937071
 20
48.14825672
 30
0.0
 11
-62.09705371
 21
48.82057372
 31
0.0
  0
LINE
  5
538
100
AcDbEntity
  8
0
  6
CONTINUOUS
 62
       9
100
AcDbLine
 10
-62.97946971
 20
49.35237272
 30
0.0
 11
-62.30376071
 21
50.02807772
 31
0.0
  0
LINE
  5
539
100
AcDbEntity
  8
0
  6
CONTINUOUS
 62
       9
100
AcDbLine
 10
-63.18956771
 20
50.55648972
 30
0.0
 11
-62.47523171
 21
51.27081472
 31
0.0
  0
LINE
  5
53A
100
AcDbEntity
  8
0
  6
CONTINUOUS
 62
       9
100
AcDbLine
 10
-63.39966971
 20
51.76059172
 30
0.0
 11
-62.68906371
 21
52.47119372
 31
0.0
  0
LINE
  5
53B
100
AcDbEntity
  8
0
  6
CONTINUOUS
 62
       9
100
AcDbLine
 10
-63.60976771
 20
52.96470872
 30
0.0
 11
-62.89542771
 21
53.67904872
 31
0.0
  0
LINE
  5
53C
100
AcDbEntity
  8
0
  6
CONTINUOUS
 62
       9
100
AcDbLine
 10
-63.85155171
 20
54.13713272
 30
0.0
 11
-63.23158671
 21
54.75709772
 31
0.0
  0
LINE
  5
53D
100
AcDbEntity
  8
0
  6
CONTINUOUS
 62
       9
100
AcDbLine
 10
-64.34877371
 20
55.05412472
 30
0.0
 11
-63.77784371
 21
55.62506272
 31
0.0
  0
LINE
  5
53E
100
AcDbEntity
  8
0
  6
CONTINUOUS
 62
       9
100
AcDbLine
 10
-65.05604971
 20
55.76106472
 30
0.0
 11
-64.48891471
 21
56.32820372
 31
0.0
  0
LINE
  5
53F
100
AcDbEntity
  8
0
  6
CONTINUOUS
 62
       9
100
AcDbLine
 10
-66.02586371
 20
56.20546172
 30
0.0
 11
-65.39586271
 21
56.83546672
 31
0.0
  0
LINE
  5
540
100
AcDbEntity
  8
0
  6
CONTINUOUS
 62
       9
100
AcDbLine
 10
-67.18807771
 20
56.45747572
 30
0.0
 11
-66.51607871
 21
57.12947272
 31
0.0
  0
LINE
  5
541
100
AcDbEntity
  8
0
  6
CONTINUOUS
 62
       9
100
AcDbLine
 10
-68.39229171
 20
56.66746672
 30
0.0
 11
-67.67829171
 21
57.38147172
 31
0.0
  0
LINE
  5
542
100
AcDbEntity
  8
0
  6
CONTINUOUS
 62
       9
100
AcDbLine
 10
-69.59650471
 20
56.87747372
 30
0.0
 11
-68.88250571
 21
57.59146272
 31
0.0
  0
LINE
  5
543
100
AcDbEntity
  8
0
  6
CONTINUOUS
 62
       9
100
AcDbLine
 10
-70.88471771
 20
57.00346572
 30
0.0
 11
-70.17071971
 21
57.71747072
 31
0.0
  0
LINE
  5
544
100
AcDbEntity
  8
0
  6
CONTINUOUS
 62
       9
100
AcDbLine
 10
-72.21493171
 20
57.08746572
 30
0.0
 11
-71.45893271
 21
57.84346172
 31
0.0
  0
LINE
  5
545
100
AcDbEntity
  8
0
  6
CONTINUOUS
 62
       9
100
AcDbLine
 10
-73.58714671
 20
57.12947272
 30
0.0
 11
-72.78914671
 21
57.92746172
 31
0.0
  0
LINE
  5
546
100
AcDbEntity
  8
0
  6
CENTER
 62
       9
100
AcDbLine
 10
-44.04761871
 20
64.81346372
 30
0.0
 11
-44.04761871
 21
-17.62653928
 31
0.0
  0
LINE
  5
547
100
AcDbEntity
  8
0
  6
CONTINUOUS
 62
       3
100
AcDbLine
 10
-58.60770771
 20
42.64346472
 30
0.0
 11
-49.99761971
 21
42.64346472
 31
0.0
  0
LINE
  5
548
100
AcDbEntity
  8
0
  6
CONTINUOUS
 62
       3
100
AcDbLine
 10
-38.09761871
 20
42.64346472
 30
0.0
 11
-29.48752971
 21
42.64346472
 31
0.0
  0
ARC
  5
549
100
AcDbEntity
  8
0
  6
CONTINUOUS
 62
       3
100
AcDbCircle
 10
-29.48753771
 20
46.44346772
 30
0.0
 40
3.800007
100
AcDbArc
 50
270.000073
 51
349.999895
  0
ARC
  5
54A
100
AcDbEntity
  8
0
  6
CONTINUOUS
 62
       3
100
AcDbCircle
 10
-58.60770071
 20
46.44346772
 30
0.0
 40
3.800007
100
AcDbArc
 50
190.000102
 51
269.999922
  0
LINE
  5
54B
100
AcDbEntity
  8
0
  6
CONTINUOUS
 62
       3
100
AcDbLine
 10
-38.54761871
 20
43.44346772
 30
0.0
 11
-29.48752971
 21
43.44346772
 31
0.0
  0
LINE
  5
54C
100
AcDbEntity
  8
0
  6
CONTINUOUS
 62
       3
100
AcDbLine
 10
-38.54761871
 20
43.44346772
 30
0.0
 11
-38.60718171
 21
43.44346772
 31
0.0
  0
LINE
  5
54D
100
AcDbEntity
  8
0
  6
CONTINUOUS
 62
       3
100
AcDbLine
 10
-49.48907471
 20
43.44346772
 30
0.0
 11
-49.54761871
 21
43.44346772
 31
0.0
  0
LINE
  5
54E
100
AcDbEntity
  8
0
  6
CONTINUOUS
 62
       3
100
AcDbLine
 10
-58.60770771
 20
43.44346772
 30
0.0
 11
-49.54761871
 21
43.44346772
 31
0.0
  0
ARC
  5
54F
100
AcDbEntity
  8
0
  6
CONTINUOUS
 62
       3
100
AcDbCircle
 10
-58.60770471
 20
46.44346772
 30
0.0
 40
3.000005
100
AcDbArc
 50
190.000102
 51
269.999922
  0
LINE
  5
550
100
AcDbEntity
  8
0
  6
CONTINUOUS
 62
       3
100
AcDbLine
 10
-26.53310771
 20
45.92251772
 30
0.0
 11
-28.67718871
 21
45.92251772
 31
0.0
  0
ARC
  5
551
100
AcDbEntity
  8
0
  6
CONTINUOUS
 62
       3
100
AcDbCircle
 10
-29.48752971
 20
46.44346772
 30
0.0
 40
3.000005
100
AcDbArc
 50
270.000073
 51
349.999895
  0
LINE
  5
552
100
AcDbEntity
  8
0
  6
CONTINUOUS
 62
       3
100
AcDbLine
 10
-48.29761871
 20
40.94346772
 30
0.0
 11
-49.99761971
 21
42.64346472
 31
0.0
  0
LINE
  5
553
100
AcDbEntity
  8
0
  6
CONTINUOUS
 62
       3
100
AcDbLine
 10
-40.31789371
 20
40.94346772
 30
0.0
 11
-41.04770671
 21
40.94346772
 31
0.0
  0
LINE
  5
554
100
AcDbEntity
  8
0
  6
CONTINUOUS
 62
       3
100
AcDbLine
 10
-47.04739371
 20
40.94346772
 30
0.0
 11
-48.29761871
 21
40.94346772
 31
0.0
  0
LINE
  5
555
100
AcDbEntity
  8
0
  6
CONTINUOUS
 62
       3
100
AcDbLine
 10
-39.79761871
 20
40.94346772
 30
0.0
 11
-38.09761871
 21
42.64346472
 31
0.0
  0
LINE
  5
556
100
AcDbEntity
  8
0
  6
CONTINUOUS
 62
       3
100
AcDbLine
 10
-39.79761871
 20
40.94346772
 30
0.0
 11
-40.31789371
 21
40.94346772
 31
0.0
  0
LINE
  5
557
100
AcDbEntity
  8
0
  6
CONTINUOUS
 62
       3
100
AcDbLine
 10
-25.74525871
 20
45.78360172
 30
0.0
 11
-24.35121571
 21
53.68962272
 31
0.0
  0
LINE
  5
558
100
AcDbEntity
  8
0
  6
CONTINUOUS
 62
       3
100
AcDbLine
 10
-62.34997971
 20
45.78360172
 30
0.0
 11
-63.74402271
 21
53.68962272
 31
0.0
  0
LINE
  5
559
100
AcDbEntity
  8
0
  6
CONTINUOUS
 62
       3
100
AcDbLine
 10
-48.29761871
 20
42.19346772
 30
0.0
 11
-49.54761871
 21
43.44346772
 31
0.0
  0
LINE
  5
55A
100
AcDbEntity
  8
0
  6
CONTINUOUS
 62
       3
100
AcDbLine
 10
-39.79761871
 20
42.19346772
 30
0.0
 11
-38.54761871
 21
43.44346772
 31
0.0
  0
LINE
  5
55B
100
AcDbEntity
  8
0
  6
CONTINUOUS
 62
       3
100
AcDbLine
 10
-61.56212971
 20
45.92251772
 30
0.0
 11
-62.95617271
 21
53.82853872
 31
0.0
  0
LINE
  5
55C
100
AcDbEntity
  8
0
  6
CONTINUOUS
 62
       3
100
AcDbLine
 10
-25.13906471
 20
53.82853872
 30
0.0
 11
-27.45380071
 21
53.82853872
 31
0.0
  0
LINE
  5
55D
100
AcDbEntity
  8
0
  6
CONTINUOUS
 62
       3
100
AcDbLine
 10
-26.53310771
 20
45.92251772
 30
0.0
 11
-25.13906471
 21
53.82853872
 31
0.0
  0
LINE
  5
55E
100
AcDbEntity
  8
0
  6
CONTINUOUS
 62
       3
100
AcDbLine
 10
-48.29761871
 20
40.94346772
 30
0.0
 11
-48.29761871
 21
42.19346772
 31
0.0
  0
LINE
  5
55F
100
AcDbEntity
  8
0
  6
CONTINUOUS
 62
       3
100
AcDbLine
 10
-39.79761871
 20
40.94346772
 30
0.0
 11
-39.79761871
 21
42.19346772
 31
0.0
  0
ARC
  5
560
100
AcDbEntity
  8
0
  6
CONTINUOUS
 62
       3
100
AcDbCircle
 10
-21.19982571
 20
53.13394372
 30
0.0
 40
3.200003
100
AcDbArc
 50
102.915111
 51
169.999952
  0
ARC
  5
561
100
AcDbEntity
  8
0
  6
CONTINUOUS
 62
       3
100
AcDbCircle
 10
-66.89540871
 20
53.13394372
 30
0.0
 40
3.200003
100
AcDbArc
 50
10.000044
 51
77.084887
  0
ARC
  5
562
100
AcDbEntity
  8
0
  6
CONTINUOUS
 62
       3
100
AcDbCircle
 10
-66.89540871
 20
53.13394372
 30
0.0
 40
4.000004
100
AcDbArc
 50
10.000044
 51
77.084887
  0
ARC
  5
563
100
AcDbEntity
  8
0
  6
CONTINUOUS
 62
       3
100
AcDbCircle
 10
-21.19982571
 20
53.13394372
 30
0.0
 40
4.000004
100
AcDbArc
 50
102.915111
 51
169.999952
  0
LINE
  5
564
100
AcDbEntity
  8
0
  6
CONTINUOUS
 62
       3
100
AcDbLine
 10
-22.09386071
 20
57.03274772
 30
0.0
 11
-24.78138371
 21
57.03274772
 31
0.0
  0
ARC
  5
565
100
AcDbEntity
  8
0
  6
CONTINUOUS
 62
       3
100
AcDbCircle
 10
-14.04761871
 20
21.94343772
 30
0.0
 40
35.200027
100
AcDbArc
 50
90.000003
 51
102.915077
  0
ARC
  5
566
100
AcDbEntity
  8
0
  6
CONTINUOUS
 62
       3
100
AcDbCircle
 10
-74.04762271
 20
21.94343772
 30
0.0
 40
35.200027
100
AcDbArc
 50
77.084928
 51
89.999996
  0
ARC
  5
567
100
AcDbEntity
  8
0
  6
CONTINUOUS
 62
       3
100
AcDbCircle
 10
-74.04762271
 20
21.94343772
 30
0.0
 40
36.000031
100
AcDbArc
 50
77.084928
 51
89.999996
  0
LINE
  5
568
100
AcDbEntity
  8
0
  6
CONTINUOUS
 62
       3
100
AcDbLine
 10
-17.72014271
 20
57.94346772
 30
0.0
 11
-74.04761871
 21
57.94346772
 31
0.0
  0
ARC
  5
569
100
AcDbEntity
  8
0
  6
CONTINUOUS
 62
       3
100
AcDbCircle
 10
-14.04761871
 20
21.94343772
 30
0.0
 40
36.000031
100
AcDbArc
 50
90.000003
 51
102.915077
  0
LINE
  5
56A
100
AcDbEntity
  8
0
  6
CONTINUOUS
 62
       3
100
AcDbLine
 10
-14.04761871
 20
57.94346772
 30
0.0
 11
-17.72014271
 21
57.94346772
 31
0.0
  0
LINE
  5
56B
100
AcDbEntity
  8
0
  6
CONTINUOUS
 62
       3
100
AcDbLine
 10
-14.04761871
 20
57.14346472
 30
0.0
 11
-14.04761871
 21
57.94346772
 31
0.0
  0
LINE
  5
56C
100
AcDbEntity
  8
0
  6
CONTINUOUS
 62
       3
100
AcDbLine
 10
-74.04761871
 20
57.14346472
 30
0.0
 11
-74.04761871
 21
57.94346772
 31
0.0
  0
LINE
  5
56D
100
AcDbEntity
  8
0
  6
CONTINUOUS
 62
       3
100
AcDbLine
 10
-38.79485671
 20
43.25680772
 30
0.0
 11
-38.60611371
 21
43.44346772
 31
0.0
  0
LINE
  5
56E
100
AcDbEntity
  8
0
  6
CONTINUOUS
 62
       3
100
AcDbLine
 10
-38.45454471
 20
44.24347172
 30
0.0
 11
-38.45454471
 21
43.59346172
 31
0.0
  0
LINE
  5
56F
100
AcDbEntity
  8
0
  6
CONTINUOUS
 62
       3
100
AcDbLine
 10
-49.64069371
 20
43.59346172
 30
0.0
 11
-49.30038071
 21
43.25680772
 31
0.0
  0
LINE
  5
570
100
AcDbEntity
  8
0
  6
CONTINUOUS
 62
       3
100
AcDbLine
 10
-38.73428371
 20
43.25680772
 30
0.0
 11
-38.79485671
 21
43.25680772
 31
0.0
  0
LINE
  5
571
100
AcDbEntity
  8
0
  6
CONTINUOUS
 62
       3
100
AcDbLine
 10
-49.64069371
 20
43.59346172
 30
0.0
 11
-49.30038071
 21
43.25680772
 31
0.0
  0
LINE
  5
572
100
AcDbEntity
  8
0
  6
CONTINUOUS
 62
       3
100
AcDbLine
 10
-49.64069371
 20
44.24347172
 30
0.0
 11
-49.64069371
 21
43.59346172
 31
0.0
  0
ARC
  5
573
100
AcDbEntity
  8
0
  6
CONTINUOUS
 62
       3
100
AcDbCircle
 10
-44.04763471
 20
33.65684672
 30
0.0
 40
11.97326
100
AcDbArc
 50
92.091782
 51
117.848124
  0
ARC
  5
574
100
AcDbEntity
  8
0
  6
CONTINUOUS
 62
       3
100
AcDbCircle
 10
-44.04762271
 20
33.65680172
 30
0.0
 40
11.97331
100
AcDbArc
 50
62.151914
 51
92.09183
  0
LINE
  5
575
100
AcDbEntity
  8
0
  6
CONTINUOUS
 62
       3
100
AcDbLine
 10
-38.45454471
 20
44.24347172
 30
0.0
 11
-38.45454471
 21
43.59346172
 31
0.0
  0
LINE
  5
576
100
AcDbEntity
  8
0
  6
CONTINUOUS
 62
       3
100
AcDbLine
 10
-38.79485671
 20
43.25680772
 30
0.0
 11
-38.45454471
 21
43.59346172
 31
0.0
  0
LINE
  5
577
100
AcDbEntity
  8
0
  6
CONTINUOUS
 62
       3
100
AcDbLine
 10
-46.75637471
 20
43.59346172
 30
0.0
 11
-38.45454471
 21
43.59346172
 31
0.0
  0
LINE
  5
578
100
AcDbEntity
  8
0
  6
CONTINUOUS
 62
       3
100
AcDbLine
 10
-45.48589771
 20
40.94346772
 30
0.0
 11
-41.04761871
 21
40.94346772
 31
0.0
  0
LINE
  5
579
100
AcDbEntity
  8
0
  6
CONTINUOUS
 62
       3
100
AcDbLine
 10
-47.04761871
 20
40.94346772
 30
0.0
 11
-45.48589771
 21
40.94346772
 31
0.0
  0
LINE
  5
57A
100
AcDbEntity
  8
0
  6
CONTINUOUS
 62
       3
100
AcDbLine
 10
-49.64069371
 20
43.59346172
 30
0.0
 11
-46.75637471
 21
43.59346172
 31
0.0
  0
LINE
  5
57B
100
AcDbEntity
  8
0
  6
CONTINUOUS
 62
       3
100
AcDbLine
 10
-46.75637471
 20
44.24347172
 30
0.0
 11
-38.45454471
 21
44.24347172
 31
0.0
  0
LINE
  5
57C
100
AcDbEntity
  8
0
  6
CONTINUOUS
 62
       3
100
AcDbLine
 10
-49.64069371
 20
44.24347172
 30
0.0
 11
-46.75637471
 21
44.24347172
 31
0.0
  0
LINE
  5
57D
100
AcDbEntity
  8
0
  6
CONTINUOUS
 62
       3
100
AcDbLine
 10
-47.04761871
 20
-10.25652828
 30
0.0
 11
-41.04761871
 21
-10.25652828
 31
0.0
  0
LINE
  5
57E
100
AcDbEntity
  8
0
  6
CONTINUOUS
 62
       3
100
AcDbLine
 10
-46.50611871
 20
-10.75652828
 30
0.0
 11
-41.54761871
 21
-10.75652828
 31
0.0
  0
LINE
  5
57F
100
AcDbEntity
  8
0
  6
CONTINUOUS
 62
       3
100
AcDbLine
 10
-41.04761871
 20
40.94346772
 30
0.0
 11
-38.73428371
 21
43.25680772
 31
0.0
  0
LINE
  5
580
100
AcDbEntity
  8
0
  6
CONTINUOUS
 62
       3
100
AcDbLine
 10
-47.04761871
 20
40.94346772
 30
0.0
 11
-49.36095471
 21
43.25680772
 31
0.0
  0
LINE
  5
581
100
AcDbEntity
  8
0
  6
CONTINUOUS
 62
       3
100
AcDbLine
 10
-41.04761871
 20
40.94346772
 30
0.0
 11
-41.04761871
 21
-10.25652828
 31
0.0
  0
LINE
  5
582
100
AcDbEntity
  8
0
  6
CONTINUOUS
 62
       3
100
AcDbLine
 10
-47.04761871
 20
40.94346772
 30
0.0
 11
-47.04761871
 21
-10.25652828
 31
0.0
  0
LINE
  5
583
100
AcDbEntity
  8
0
  6
CONTINUOUS
 62
       3
100
AcDbLine
 10
-41.54761871
 20
-10.75652828
 30
0.0
 11
-41.04761871
 21
-10.25652828
 31
0.0
  0
LINE
  5
584
100
AcDbEntity
  8
0
  6
CONTINUOUS
 62
       3
100
AcDbLine
 10
-46.54761871
 20
-10.75652828
 30
0.0
 11
-47.04761871
 21
-10.25652828
 31
0.0
  0
LINE
  5
585
100
AcDbEntity
  8
0
  6
CONTINUOUS
 62
       3
100
AcDbLine
 10
-76.54761871
 20
47.85679872
 30
0.0
 11
-75.34761871
 21
47.85679872
 31
0.0
  0
LINE
  5
586
100
AcDbEntity
  8
0
  6
CONTINUOUS
 62
       3
100
AcDbLine
 10
-12.74761571
 20
47.85679872
 30
0.0
 11
-11.54761871
 21
47.85679872
 31
0.0
  0
LINE
  5
587
100
AcDbEntity
  8
0
  6
CONTINUOUS
 62
       3
100
AcDbLine
 10
-11.54761871
 20
45.65680172
 30
0.0
 11
-11.54761871
 21
47.85679872
 31
0.0
  0
LINE
  5
588
100
AcDbEntity
  8
0
  6
CONTINUOUS
 62
       3
100
AcDbLine
 10
-76.54761871
 20
45.65680172
 30
0.0
 11
-76.54761871
 21
47.85679872
 31
0.0
  0
LINE
  5
589
100
AcDbEntity
  8
0
  6
CONTINUOUS
 62
       3
100
AcDbLine
 10
-72.79761871
 20
48.15680172
 30
0.0
 11
-75.04761871
 21
48.15680172
 31
0.0
  0
LINE
  5
58A
100
AcDbEntity
  8
0
  6
CONTINUOUS
 62
       3
100
AcDbLine
 10
-75.04761871
 20
48.15680172
 30
0.0
 11
-75.34761871
 21
47.85679872
 31
0.0
  0
LINE
  5
58B
100
AcDbEntity
  8
0
  6
CONTINUOUS
 62
       3
100
AcDbLine
 10
-13.04761871
 20
48.15680172
 30
0.0
 11
-15.29761871
 21
48.15680172
 31
0.0
  0
LINE
  5
58C
100
AcDbEntity
  8
0
  6
CONTINUOUS
 62
       3
100
AcDbLine
 10
-13.04761871
 20
48.15680172
 30
0.0
 11
-12.74761571
 21
47.85679872
 31
0.0
  0
LINE
  5
58D
100
AcDbEntity
  8
0
  6
CONTINUOUS
 62
       3
100
AcDbLine
 10
-13.08958071
 20
45.65680172
 30
0.0
 11
-11.54761871
 21
45.65680172
 31
0.0
  0
LINE
  5
58E
100
AcDbEntity
  8
0
  6
CONTINUOUS
 62
       3
100
AcDbLine
 10
-76.54761871
 20
45.65680172
 30
0.0
 11
-75.00565971
 21
45.65680172
 31
0.0
  0
LINE
  5
58F
100
AcDbEntity
  8
0
  6
CONTINUOUS
 62
       3
100
AcDbLine
 10
-74.74761971
 20
47.85679872
 30
0.0
 11
-75.04761871
 21
48.15680172
 31
0.0
  0
LINE
  5
590
100
AcDbEntity
  8
0
  6
CONTINUOUS
 62
       3
100
AcDbLine
 10
-13.34762171
 20
47.85679872
 30
0.0
 11
-13.04761871
 21
48.15680172
 31
0.0
  0
LINE
  5
591
100
AcDbEntity
  8
0
  6
CONTINUOUS
 62
       3
100
AcDbLine
 10
-62.41578271
 20
46.15680172
 30
0.0
 11
-69.04761871
 21
46.15680172
 31
0.0
  0
ARC
  5
592
100
AcDbEntity
  8
0
  6
CONTINUOUS
 62
       3
100
AcDbCircle
 10
-72.04761871
 20
46.15680172
 30
0.0
 40
2.999998
100
AcDbArc
 50
269.952569
 51
359.999993
  0
ARC
  5
593
100
AcDbEntity
  8
0
  6
CONTINUOUS
 62
       3
100
AcDbCircle
 10
-72.04761571
 20
46.15680172
 30
0.0
 40
3.000005
100
AcDbArc
 50
189.594157
 51
269.952487
  0
LINE
  5
594
100
AcDbEntity
  8
0
  6
CONTINUOUS
 62
       3
100
AcDbLine
 10
-19.04761871
 20
46.15680172
 30
0.0
 11
-25.67856271
 21
46.15680172
 31
0.0
  0
ARC
  5
595
100
AcDbEntity
  8
0
  6
CONTINUOUS
 62
       3
100
AcDbCircle
 10
-16.04761871
 20
46.15680172
 30
0.0
 40
2.999998
100
AcDbArc
 50
180.000009
 51
270.047433
  0
ARC
  5
596
100
AcDbEntity
  8
0
  6
CONTINUOUS
 62
       3
100
AcDbCircle
 10
-16.04761871
 20
46.15680172
 30
0.0
 40
3.000005
100
AcDbArc
 50
270.047508
 51
350.405839
  0
LINE
  5
597
100
AcDbEntity
  8
0
  6
CONTINUOUS
 62
       3
100
AcDbLine
 10
-74.74761971
 20
47.85679872
 30
0.0
 11
-73.09761871
 21
47.85679872
 31
0.0
  0
LINE
  5
598
100
AcDbEntity
  8
0
  6
CONTINUOUS
 62
       3
100
AcDbLine
 10
-14.99761571
 20
47.85679872
 30
0.0
 11
-13.34762171
 21
47.85679872
 31
0.0
  0
LINE
  5
599
100
AcDbEntity
  8
0
  6
CONTINUOUS
 62
       3
100
AcDbLine
 10
-69.04761871
 20
46.15680172
 30
0.0
 11
-69.04761871
 21
47.85679872
 31
0.0
  0
LINE
  5
59A
100
AcDbEntity
  8
0
  6
CONTINUOUS
 62
       3
100
AcDbLine
 10
-62.71553471
 20
47.85679872
 30
0.0
 11
-69.04761871
 21
47.85679872
 31
0.0
  0
LINE
  5
59B
100
AcDbEntity
  8
0
  6
CONTINUOUS
 62
       3
100
AcDbLine
 10
-19.04761871
 20
46.15680172
 30
0.0
 11
-19.04761871
 21
47.85679872
 31
0.0
  0
LINE
  5
59C
100
AcDbEntity
  8
0
  6
CONTINUOUS
 62
       3
100
AcDbLine
 10
-19.04761871
 20
47.85679872
 30
0.0
 11
-25.37970371
 21
47.85679872
 31
0.0
  0
LINE
  5
59D
100
AcDbEntity
  8
0
  6
CONTINUOUS
 62
       3
100
AcDbLine
 10
-70.54847571
 20
48.15680172
 30
0.0
 11
-72.79761871
 21
48.15680172
 31
0.0
  0
LINE
  5
59E
100
AcDbEntity
  8
0
  6
CONTINUOUS
 62
       3
100
AcDbLine
 10
-72.79761871
 20
48.15680172
 30
0.0
 11
-73.09761871
 21
47.85679872
 31
0.0
  0
LINE
  5
59F
100
AcDbEntity
  8
0
  6
CONTINUOUS
 62
       3
100
AcDbLine
 10
-15.29761871
 20
48.15680172
 30
0.0
 11
-17.54676471
 21
48.15680172
 31
0.0
  0
LINE
  5
5A0
100
AcDbEntity
  8
0
  6
CONTINUOUS
 62
       3
100
AcDbLine
 10
-15.29761871
 20
48.15680172
 30
0.0
 11
-14.99761571
 21
47.85679872
 31
0.0
  0
LINE
  5
5A1
100
AcDbEntity
  8
0
  6
CONTINUOUS
 62
       3
100
AcDbLine
 10
-70.24761971
 20
47.85679872
 30
0.0
 11
-69.04761871
 21
47.85679872
 31
0.0
  0
LINE
  5
5A2
100
AcDbEntity
  8
0
  6
CONTINUOUS
 62
       3
100
AcDbLine
 10
-19.04761871
 20
47.85679872
 30
0.0
 11
-17.84762171
 21
47.85679872
 31
0.0
  0
LINE
  5
5A3
100
AcDbEntity
  8
0
  6
CONTINUOUS
 62
       3
100
AcDbLine
 10
-72.49761971
 20
47.85679872
 30
0.0
 11
-72.79761871
 21
48.15680172
 31
0.0
  0
LINE
  5
5A4
100
AcDbEntity
  8
0
  6
CONTINUOUS
 62
       3
100
AcDbLine
 10
-15.59762171
 20
47.85679872
 30
0.0
 11
-15.29761871
 21
48.15680172
 31
0.0
  0
LINE
  5
5A5
100
AcDbEntity
  8
0
  6
CONTINUOUS
 62
       3
100
AcDbLine
 10
-17.84762171
 20
47.85679872
 30
0.0
 11
-17.54761871
 21
48.15680172
 31
0.0
  0
LINE
  5
5A6
100
AcDbEntity
  8
0
  6
CONTINUOUS
 62
       3
100
AcDbLine
 10
-17.54761871
 20
48.15680172
 30
0.0
 11
-25.32680871
 21
48.15680172
 31
0.0
  0
LINE
  5
5A7
100
AcDbEntity
  8
0
  6
CONTINUOUS
 62
       3
100
AcDbLine
 10
-70.24761971
 20
47.85679872
 30
0.0
 11
-70.54761871
 21
48.15680172
 31
0.0
  0
LINE
  5
5A8
100
AcDbEntity
  8
0
  6
CONTINUOUS
 62
       3
100
AcDbLine
 10
-62.76842171
 20
48.15680172
 30
0.0
 11
-70.54761871
 21
48.15680172
 31
0.0
  0
LINE
  5
5A9
100
AcDbEntity
  8
0
  6
CONTINUOUS
 62
       3
100
AcDbLine
 10
-72.49761971
 20
47.85679872
 30
0.0
 11
-70.84761871
 21
47.85679872
 31
0.0
  0
LINE
  5
5AA
100
AcDbEntity
  8
0
  6
CONTINUOUS
 62
       3
100
AcDbLine
 10
-17.24761571
 20
47.85679872
 30
0.0
 11
-15.59762171
 21
47.85679872
 31
0.0
  0
LINE
  5
5AB
100
AcDbEntity
  8
0
  6
CONTINUOUS
 62
       3
100
AcDbLine
 10
-17.54761871
 20
48.15680172
 30
0.0
 11
-17.24761571
 21
47.85679872
 31
0.0
  0
LINE
  5
5AC
100
AcDbEntity
  8
0
  6
CONTINUOUS
 62
       3
100
AcDbLine
 10
-70.54761871
 20
48.15680172
 30
0.0
 11
-70.84761871
 21
47.85679872
 31
0.0
  0
ARC
  5
5AD
100
AcDbEntity
  8
0
  6
CONTINUOUS
 62
       3
100
AcDbCircle
 10
-463.99279371
 20
2253.70933772
 30
0.0
 40
2256.952393
100
AcDbArc
 50
280.924271
 51
281.174563
  0
LINE
  5
5AE
100
AcDbEntity
  8
0
  6
CONTINUOUS
 62
       3
100
AcDbLine
 10
-26.10024671
 20
39.65600772
 30
0.0
 11
-26.09614171
 21
39.65521472
 31
0.0
  0
LINE
  5
5AF
100
AcDbEntity
  8
0
  6
CONTINUOUS
 62
       3
100
AcDbLine
 10
-26.10024671
 20
39.65600772
 30
0.0
 11
-26.03641171
 21
39.65600772
 31
0.0
  0
LINE
  5
5B0
100
AcDbEntity
  8
0
  6
CONTINUOUS
 62
       3
100
AcDbLine
 10
-26.03641171
 20
39.65600772
 30
0.0
 11
-25.95158771
 21
39.65600772
 31
0.0
  0
LINE
  5
5B1
100
AcDbEntity
  8
0
  6
CONTINUOUS
 62
       3
100
AcDbLine
 10
-36.04761871
 20
37.65680172
 30
0.0
 11
-25.95158771
 21
39.65600772
 31
0.0
  0
LINE
  5
5B2
100
AcDbEntity
  8
0
  6
CONTINUOUS
 62
       3
100
AcDbLine
 10
-41.04761871
 20
37.65680172
 30
0.0
 11
-36.04761871
 21
37.65680172
 31
0.0
  0
LINE
  5
5B3
100
AcDbEntity
  8
0
  6
CONTINUOUS
 62
       3
100
AcDbLine
 10
-52.04761871
 20
37.65680172
 30
0.0
 11
-47.04761871
 21
37.65680172
 31
0.0
  0
LINE
  5
5B4
100
AcDbEntity
  8
0
  6
CONTINUOUS
 62
       3
100
AcDbLine
 10
-61.04761871
 20
32.65680172
 30
0.0
 11
-47.54761871
 21
32.65680172
 31
0.0
  0
LINE
  5
5B5
100
AcDbEntity
  8
0
  6
CONTINUOUS
 62
       3
100
AcDbLine
 10
-47.54761871
 20
32.65680172
 30
0.0
 11
-47.11915971
 21
32.65680172
 31
0.0
  0
LINE
  5
5B6
100
AcDbEntity
  8
0
  6
CONTINUOUS
 62
       3
100
AcDbLine
 10
-47.11915971
 20
32.65680172
 30
0.0
 11
-47.04752771
 21
32.65680172
 31
0.0
  0
LINE
  5
5B7
100
AcDbEntity
  8
0
  6
CONTINUOUS
 62
       3
100
AcDbLine
 10
-41.04846171
 20
32.65680172
 30
0.0
 11
-40.54761871
 21
32.65680172
 31
0.0
  0
LINE
  5
5B8
100
AcDbEntity
  8
0
  6
CONTINUOUS
 62
       3
100
AcDbLine
 10
-40.54761871
 20
32.65680172
 30
0.0
 11
-27.04761871
 21
32.65680172
 31
0.0
  0
LINE
  5
5B9
100
AcDbEntity
  8
0
  6
CONTINUOUS
 62
       3
100
AcDbLine
 10
-27.04761871
 20
32.65680172
 30
0.0
 11
-27.04761871
 21
31.15680172
 31
0.0
  0
LINE
  5
5BA
100
AcDbEntity
  8
0
  6
CONTINUOUS
 62
       3
100
AcDbLine
 10
-58.96652271
 20
32.65680172
 30
0.0
 11
-47.04761871
 21
32.65680172
 31
0.0
  0
LINE
  5
5BB
100
AcDbEntity
  8
0
  6
CONTINUOUS
 62
       3
100
AcDbLine
 10
-41.04761871
 20
32.65680172
 30
0.0
 11
-27.26591171
 21
32.65680172
 31
0.0
  0
LINE
  5
5BC
100
AcDbEntity
  8
0
  6
CONTINUOUS
 62
       3
100
AcDbLine
 10
-58.96652271
 20
31.15680172
 30
0.0
 11
-47.04761871
 21
31.15680172
 31
0.0
  0
LINE
  5
5BD
100
AcDbEntity
  8
0
  6
CONTINUOUS
 62
       3
100
AcDbLine
 10
-41.04761871
 20
31.15680172
 30
0.0
 11
-27.04761871
 21
31.15680172
 31
0.0
  0
LINE
  5
5BE
100
AcDbEntity
  8
0
  6
CONTINUOUS
 62
       3
100
AcDbLine
 10
-26.10030771
 20
39.65358172
 30
0.0
 11
-26.10024671
 21
39.65600772
 31
0.0
  0
LINE
  5
5BF
100
AcDbEntity
  8
0
  6
CONTINUOUS
 62
       3
100
AcDbLine
 10
-25.95158771
 20
39.65600772
 30
0.0
 11
-25.94762071
 21
39.94534472
 31
0.0
  0
LINE
  5
5C0
100
AcDbEntity
  8
0
  6
CONTINUOUS
 62
       3
100
AcDbLine
 10
-59.93186171
 20
39.94534472
 30
0.0
 11
-47.04761871
 21
39.94534472
 31
0.0
  0
LINE
  5
5C1
100
AcDbEntity
  8
0
  6
CONTINUOUS
 62
       3
100
AcDbLine
 10
-41.04761871
 20
39.94534472
 30
0.0
 11
-25.94762071
 21
39.94534472
 31
0.0
  0
ARC
  5
5C2
100
AcDbEntity
  8
0
  6
CONTINUOUS
 62
       3
100
AcDbCircle
 10
375.89758629
 20
2253.70933772
 30
0.0
 40
2256.952393
100
AcDbArc
 50
258.825439
 51
259.075732
  0
LINE
  5
5C3
100
AcDbEntity
  8
0
  6
CONTINUOUS
 62
       3
100
AcDbLine
 10
-62.05882671
 20
39.65602272
 30
0.0
 11
-62.14365071
 21
39.65602272
 31
0.0
  0
LINE
  5
5C4
100
AcDbEntity
  8
0
  6
CONTINUOUS
 62
       3
100
AcDbLine
 10
-62.05882671
 20
39.65602272
 30
0.0
 11
-61.99498771
 21
39.65602272
 31
0.0
  0
LINE
  5
5C5
100
AcDbEntity
  8
0
  6
CONTINUOUS
 62
       3
100
AcDbLine
 10
-61.99909571
 20
39.65521472
 30
0.0
 11
-61.99498771
 21
39.65602272
 31
0.0
  0
LINE
  5
5C6
100
AcDbEntity
  8
0
  6
CONTINUOUS
 62
       3
100
AcDbLine
 10
-52.04761871
 20
37.65680172
 30
0.0
 11
-62.14365071
 21
39.65602272
 31
0.0
  0
LINE
  5
5C7
100
AcDbEntity
  8
0
  6
CONTINUOUS
 62
       3
100
AcDbLine
 10
-61.04761871
 20
32.65680172
 30
0.0
 11
-61.04761871
 21
31.15680172
 31
0.0
  0
LINE
  5
5C8
100
AcDbEntity
  8
0
  6
CONTINUOUS
 62
       3
100
AcDbLine
 10
-61.04761871
 20
31.15680172
 30
0.0
 11
-58.96652271
 21
31.15680172
 31
0.0
  0
LINE
  5
5C9
100
AcDbEntity
  8
0
  6
CONTINUOUS
 62
       3
100
AcDbLine
 10
-60.82932671
 20
32.65680172
 30
0.0
 11
-58.96652271
 21
32.65680172
 31
0.0
  0
LINE
  5
5CA
100
AcDbEntity
  8
0
  6
CONTINUOUS
 62
       3
100
AcDbLine
 10
-24.54761871
 20
31.15680172
 30
0.0
 11
-27.04761871
 21
31.15680172
 31
0.0
  0
LINE
  5
5CB
100
AcDbEntity
  8
0
  6
CONTINUOUS
 62
       3
100
AcDbLine
 10
-61.04761871
 20
31.15680172
 30
0.0
 11
-63.54761871
 21
31.15680172
 31
0.0
  0
LINE
  5
5CC
100
AcDbEntity
  8
0
  6
CONTINUOUS
 62
       3
100
AcDbLine
 10
-62.14365071
 20
39.65602272
 30
0.0
 11
-62.14761771
 21
39.94534472
 31
0.0
  0
LINE
  5
5CD
100
AcDbEntity
  8
0
  6
CONTINUOUS
 62
       3
100
AcDbLine
 10
-61.99493071
 20
39.65358172
 30
0.0
 11
-61.99498771
 21
39.65602272
 31
0.0
  0
LINE
  5
5CE
100
AcDbEntity
  8
0
  6
CONTINUOUS
 62
       3
100
AcDbLine
 10
-62.14761771
 20
39.94534472
 30
0.0
 11
-59.93186171
 21
39.94534472
 31
0.0
  0
LINE
  5
5CF
100
AcDbEntity
  8
0
  6
CONTINUOUS
 62
       3
100
AcDbLine
 10
-25.94762071
 20
39.94534472
 30
0.0
 11
-24.79169871
 21
43.00973672
 31
0.0
  0
LINE
  5
5D0
100
AcDbEntity
  8
0
  6
CONTINUOUS
 62
       3
100
AcDbLine
 10
-60.94627771
 20
43.00973672
 30
0.0
 11
-60.24221471
 21
43.00973672
 31
0.0
  0
LINE
  5
5D1
100
AcDbEntity
  8
0
  6
CONTINUOUS
 62
       3
100
AcDbLine
 10
-27.85473271
 20
43.00973672
 30
0.0
 11
-24.79169871
 21
43.00973672
 31
0.0
  0
LINE
  5
5D2
100
AcDbEntity
  8
0
  6
CONTINUOUS
 62
       3
100
AcDbLine
 10
-63.54761871
 20
31.15680172
 30
0.0
 11
-64.74761971
 21
32.35679872
 31
0.0
  0
LINE
  5
5D3
100
AcDbEntity
  8
0
  6
CONTINUOUS
 62
       3
100
AcDbLine
 10
-24.54761871
 20
31.15680172
 30
0.0
 11
-23.34762171
 21
32.35679872
 31
0.0
  0
LINE
  5
5D4
100
AcDbEntity
  8
0
  6
CONTINUOUS
 62
       3
100
AcDbLine
 10
-62.14761771
 20
39.94534472
 30
0.0
 11
-63.30353971
 21
43.00973672
 31
0.0
  0
LINE
  5
5D5
100
AcDbEntity
  8
0
  6
CONTINUOUS
 62
       3
100
AcDbLine
 10
-63.30353971
 20
43.00973672
 30
0.0
 11
-60.94627771
 21
43.00973672
 31
0.0
  0
LINE
  5
5D6
100
AcDbEntity
  8
0
  6
CONTINUOUS
 62
       3
100
AcDbLine
 10
-61.76738771
 20
43.65680172
 30
0.0
 11
-61.19119671
 21
43.65680172
 31
0.0
  0
LINE
  5
5D7
100
AcDbEntity
  8
0
  6
CONTINUOUS
 62
       3
100
AcDbLine
 10
-26.90404171
 20
43.65680172
 30
0.0
 11
-23.85605271
 21
43.65680172
 31
0.0
  0
ARC
  5
5D8
100
AcDbEntity
  8
0
  6
CONTINUOUS
 62
       3
100
AcDbCircle
 10
-23.85605271
 20
42.65680172
 30
0.0
 40
1.000001
100
AcDbArc
 50
90.00005
 51
159.332958
  0
LINE
  5
5D9
100
AcDbEntity
  8
0
  6
CONTINUOUS
 62
       3
100
AcDbLine
 10
-64.74761971
 20
41.85679872
 30
0.0
 11
-64.74761971
 21
32.35679872
 31
0.0
  0
LINE
  5
5DA
100
AcDbEntity
  8
0
  6
CONTINUOUS
 62
       3
100
AcDbLine
 10
-23.34762171
 20
41.85679872
 30
0.0
 11
-23.34762171
 21
32.35679872
 31
0.0
  0
LINE
  5
5DB
100
AcDbEntity
  8
0
  6
CONTINUOUS
 62
       3
100
AcDbLine
 10
-64.23918571
 20
43.65680172
 30
0.0
 11
-61.76738771
 21
43.65680172
 31
0.0
  0
ARC
  5
5DC
100
AcDbEntity
  8
0
  6
CONTINUOUS
 62
       3
100
AcDbCircle
 10
-64.23918571
 20
42.65680172
 30
0.0
 40
1.000001
100
AcDbArc
 50
20.667037
 51
89.999948
  0
LINE
  5
5DD
100
AcDbEntity
  8
0
  6
CONTINUOUS
 62
       3
100
AcDbLine
 10
-64.23918571
 20
43.65680172
 30
0.0
 11
-68.19761871
 21
43.65680172
 31
0.0
  0
LINE
  5
5DE
100
AcDbEntity
  8
0
  6
CONTINUOUS
 62
       3
100
AcDbLine
 10
-19.89761771
 20
43.65680172
 30
0.0
 11
-23.85605271
 21
43.65680172
 31
0.0
  0
LINE
  5
5DF
100
AcDbEntity
  8
0
  6
CONTINUOUS
 62
       3
100
AcDbLine
 10
-16.04761871
 20
41.85679872
 30
0.0
 11
-23.34762171
 21
41.85679872
 31
0.0
  0
LINE
  5
5E0
100
AcDbEntity
  8
0
  6
CONTINUOUS
 62
       3
100
AcDbLine
 10
-64.74761971
 20
41.85679872
 30
0.0
 11
-72.04761871
 21
41.85679872
 31
0.0
  0
LINE
  5
5E1
100
AcDbEntity
  8
0
  6
CONTINUOUS
 62
       3
100
AcDbLine
 10
-68.19761871
 20
43.65680172
 30
0.0
 11
-68.77496971
 21
44.65680172
 31
0.0
  0
LINE
  5
5E2
100
AcDbEntity
  8
0
  6
CONTINUOUS
 62
       3
100
AcDbLine
 10
-68.77496971
 20
44.65680172
 30
0.0
 11
-65.74790971
 21
44.65680172
 31
0.0
  0
LINE
  5
5E3
100
AcDbEntity
  8
0
  6
CONTINUOUS
 62
       3
100
AcDbLine
 10
-19.89761771
 20
43.65680172
 30
0.0
 11
-19.32027071
 21
44.65680172
 31
0.0
  0
LINE
  5
5E4
100
AcDbEntity
  8
0
  6
CONTINUOUS
 62
       3
100
AcDbLine
 10
-65.74790971
 20
44.65680172
 30
0.0
 11
-61.96147571
 21
44.65680172
 31
0.0
  0
LINE
  5
5E5
100
AcDbEntity
  8
0
  6
CONTINUOUS
 62
       3
100
AcDbLine
 10
-26.13376271
 20
44.65680172
 30
0.0
 11
-19.32027071
 21
44.65680172
 31
0.0
  0
ARC
  5
5E6
100
AcDbEntity
  8
0
  6
CONTINUOUS
 62
       3
100
AcDbCircle
 10
-72.04760971
 20
46.35681372
 30
0.0
 40
4.500009
100
AcDbArc
 50
188.9491
 51
269.999888
  0
ARC
  5
5E7
100
AcDbEntity
  8
0
  6
CONTINUOUS
 62
       3
100
AcDbCircle
 10
-16.04762671
 20
46.35681372
 30
0.0
 40
4.500009
100
AcDbArc
 50
270.000114
 51
351.050901
  0
LINE
  5
5E8
100
AcDbEntity
  8
0
  6
CONTINUOUS
 62
       3
100
AcDbLine
 10
-68.77496971
 20
44.65680172
 30
0.0
 11
-69.81155071
 21
44.65680172
 31
0.0
  0
LINE
  5
5E9
100
AcDbEntity
  8
0
  6
CONTINUOUS
 62
       3
100
AcDbLine
 10
-18.28368771
 20
44.65680172
 30
0.0
 11
-19.32027071
 21
44.65680172
 31
0.0
  0
LINE
  5
5EA
100
AcDbEntity
  8
0
  6
CONTINUOUS
 62
       3
100
AcDbLine
 10
-74.87604571
 20
45.65680172
 30
0.0
 11
-76.49283971
 21
45.65680172
 31
0.0
  0
LINE
  5
5EB
100
AcDbEntity
  8
0
  6
CONTINUOUS
 62
       3
100
AcDbLine
 10
-11.60239771
 20
45.65680172
 30
0.0
 11
-13.21918871
 21
45.65680172
 31
0.0
  0
ARC
  5
5EC
100
AcDbEntity
  8
0
  6
CONTINUOUS
 62
       3
100
AcDbCircle
 10
-72.04761371
 20
46.65681672
 30
0.0
 40
3.000008
100
AcDbArc
 50
199.471363
 51
269.984274
  0
ARC
  5
5ED
100
AcDbEntity
  8
0
  6
CONTINUOUS
 62
       3
100
AcDbCircle
 10
-72.04764171
 20
46.65686272
 30
0.0
 40
3.000057
100
AcDbArc
 50
269.984828
 51
318.189161
  0
ARC
  5
5EE
100
AcDbEntity
  8
0
  6
CONTINUOUS
 62
       3
100
AcDbCircle
 10
-16.04762671
 20
46.65681672
 30
0.0
 40
3.000008
100
AcDbArc
 50
270.015727
 51
340.528643
  0
ARC
  5
5EF
100
AcDbEntity
  8
0
  6
CONTINUOUS
 62
       3
100
AcDbCircle
 10
-16.04759571
 20
46.65686272
 30
0.0
 40
3.000057
100
AcDbArc
 50
221.810834
 51
270.015174
  0
LINE
  5
5F0
100
AcDbEntity
  8
0
  6
CONTINUOUS
 62
       3
100
AcDbLine
 10
-47.04761871
 20
37.65680172
 30
0.0
 11
-47.04761871
 21
33.48414772
 31
0.0
  0
LINE
  5
5F1
100
AcDbEntity
  8
0
  6
CONTINUOUS
 62
       3
100
AcDbLine
 10
-41.04761871
 20
37.65680172
 30
0.0
 11
-41.04761871
 21
33.48414772
 31
0.0
  0
LINE
  5
5F2
100
AcDbEntity
  8
0
  6
CONTINUOUS
 62
       3
100
AcDbLine
 10
-23.34762171
 20
40.65680172
 30
0.0
 11
-25.41762171
 21
40.65680172
 31
0.0
  0
LINE
  5
5F3
100
AcDbEntity
  8
0
  6
CONTINUOUS
 62
       3
100
AcDbLine
 10
-62.67761671
 20
40.65680172
 30
0.0
 11
-64.74761971
 21
40.65680172
 31
0.0
  0
LINE
  5
5F4
100
AcDbEntity
  8
0
  6
CONTINUOUS
 62
       3
100
AcDbLine
 10
-62.67761671
 20
40.65680172
 30
0.0
 11
-62.67761671
 21
31.15680172
 31
0.0
  0
LINE
  5
5F5
100
AcDbEntity
  8
0
  6
CONTINUOUS
 62
       3
100
AcDbLine
 10
-25.41762171
 20
40.65680172
 30
0.0
 11
-25.41762171
 21
31.15680172
 31
0.0
  0
LINE
  5
5F6
100
AcDbEntity
  8
0
  6
CONTINUOUS
 62
       3
100
AcDbLine
 10
-71.32842871
 20
43.23912272
 30
0.0
 11
-71.75396171
 21
43.66465972
 31
0.0
  0
LINE
  5
5F7
100
AcDbEntity
  8
0
  6
CONTINUOUS
 62
       3
100
AcDbLine
 10
-63.48674371
 20
31.15480272
 30
0.0
 11
-64.76375571
 21
32.43181072
 31
0.0
  0
LINE
  5
5F8
100
AcDbEntity
  8
0
  6
CONTINUOUS
 62
       3
100
AcDbLine
 10
-13.40155471
 20
44.70921572
 30
0.0
 11
-13.60506871
 21
44.91273672
 31
0.0
  0
LINE
  5
5F9
100
AcDbEntity
  8
0
  6
CONTINUOUS
 62
       3
100
AcDbLine
 10
-16.07807571
 20
43.14309872
 30
0.0
 11
-16.63312171
 21
43.69815272
 31
0.0
  0
LINE
  5
5FA
100
AcDbEntity
  8
0
  6
CONTINUOUS
 62
       3
100
AcDbLine
 10
-62.67761671
 20
40.65680172
 30
0.0
 11
-64.74761971
 21
41.85679872
 31
0.0
  0
LINE
  5
5FB
100
AcDbEntity
  8
0
  6
CONTINUOUS
 62
       3
100
AcDbLine
 10
-25.41762171
 20
40.65680172
 30
0.0
 11
-23.34762171
 21
41.85679872
 31
0.0
  0
LINE
  5
5FC
100
AcDbEntity
  8
0
  6
CONTINUOUS
 62
       7
100
AcDbLine
 10
-41.58911871
 20
-10.75652828
 30
0.0
 11
-41.58911871
 21
40.94346772
 31
0.0
  0
LINE
  5
5FD
100
AcDbEntity
  8
0
  6
CONTINUOUS
 62
       7
100
AcDbLine
 10
-46.50611871
 20
-10.75652828
 30
0.0
 11
-46.50611871
 21
40.94346772
 31
0.0
  0
LINE
  5
5FE
100
AcDbEntity
  8
0
  6
CONTINUOUS
 62
       6
100
AcDbLine
 10
-15.34077071
 20
43.25094772
 30
0.0
 11
-13.14699171
 21
45.44473472
 31
0.0
  0
LINE
  5
5FF
100
AcDbEntity
  8
0
  6
CONTINUOUS
 62
       6
100
AcDbLine
 10
-12.94266171
 20
45.64906472
 30
0.0
 11
-11.54526871
 21
47.04644972
 31
0.0
  0
LINE
  5
600
100
AcDbEntity
  8
0
  6
CONTINUOUS
 62
       6
100
AcDbLine
 10
-16.76868871
 20
43.23724572
 30
0.0
 11
-12.15713171
 21
47.84880272
 31
0.0
  0
LINE
  5
601
100
AcDbEntity
  8
0
  6
CONTINUOUS
 62
       6
100
AcDbLine
 10
-17.73632471
 20
43.68382472
 30
0.0
 11
-13.57130871
 21
47.84883272
 31
0.0
  0
LINE
  5
602
100
AcDbEntity
  8
0
  6
CONTINUOUS
 62
       6
100
AcDbLine
 10
-18.45606671
 20
44.37829772
 30
0.0
 11
-14.98552371
 21
47.84883272
 31
0.0
  0
LINE
  5
603
100
AcDbEntity
  8
0
  6
CONTINUOUS
 62
       6
100
AcDbLine
 10
-18.92403071
 20
45.32454072
 30
0.0
 11
-16.39973871
 21
47.84883272
 31
0.0
  0
LINE
  5
604
100
AcDbEntity
  8
0
  6
CONTINUOUS
 62
       6
100
AcDbLine
 10
-19.04996871
 20
46.61282572
 30
0.0
 11
-17.53184871
 21
48.13093772
 31
0.0
  0
LINE
  5
605
100
AcDbEntity
  8
0
  6
CONTINUOUS
 62
       6
100
AcDbLine
 10
-11.54526871
 20
47.09558272
 30
0.0
 11
-12.29853471
 21
47.84883272
 31
0.0
  0
LINE
  5
606
100
AcDbEntity
  8
0
  6
CONTINUOUS
 62
       6
100
AcDbLine
 10
-11.54526871
 20
45.68136772
 30
0.0
 11
-13.71274971
 21
47.84883272
 31
0.0
  0
LINE
  5
607
100
AcDbEntity
  8
0
  6
CONTINUOUS
 62
       6
100
AcDbLine
 10
-12.92718171
 20
45.64906472
 30
0.0
 11
-15.36098871
 21
48.08287272
 31
0.0
  0
LINE
  5
608
100
AcDbEntity
  8
0
  6
CONTINUOUS
 62
       6
100
AcDbLine
 10
-13.41037371
 20
44.71803472
 30
0.0
 11
-16.54117171
 21
47.84883272
 31
0.0
  0
LINE
  5
609
100
AcDbEntity
  8
0
  6
CONTINUOUS
 62
       6
100
AcDbLine
 10
-14.03574771
 20
43.92920072
 30
0.0
 11
-17.95538771
 21
47.84883272
 31
0.0
  0
LINE
  5
60A
100
AcDbEntity
  8
0
  6
CONTINUOUS
 62
       6
100
AcDbLine
 10
-14.90430871
 20
43.38354672
 30
0.0
 11
-19.04996871
 21
47.52920772
 31
0.0
  0
LINE
  5
60B
100
AcDbEntity
  8
0
  6
CONTINUOUS
 62
       6
100
AcDbLine
 10
-16.09576771
 20
43.16079872
 30
0.0
 11
-19.04996871
 21
46.11499272
 31
0.0
  0
LINE
  5
60C
100
AcDbEntity
  8
0
  6
CONTINUOUS
 62
       6
100
AcDbLine
 10
-71.99947171
 20
43.16079872
 30
0.0
 11
-69.04527071
 21
46.11499272
 31
0.0
  0
LINE
  5
60D
100
AcDbEntity
  8
0
  6
CONTINUOUS
 62
       6
100
AcDbLine
 10
-73.19092771
 20
43.38354672
 30
0.0
 11
-69.04527071
 21
47.52920772
 31
0.0
  0
LINE
  5
60E
100
AcDbEntity
  8
0
  6
CONTINUOUS
 62
       6
100
AcDbLine
 10
-74.05949071
 20
43.92920072
 30
0.0
 11
-70.13985271
 21
47.84883272
 31
0.0
  0
LINE
  5
60F
100
AcDbEntity
  8
0
  6
CONTINUOUS
 62
       6
100
AcDbLine
 10
-74.68486571
 20
44.71803472
 30
0.0
 11
-71.55406571
 21
47.84883272
 31
0.0
  0
LINE
  5
610
100
AcDbEntity
  8
0
  6
CONTINUOUS
 62
       6
100
AcDbLine
 10
-75.16805471
 20
45.64906472
 30
0.0
 11
-72.72524671
 21
48.09187472
 31
0.0
  0
LINE
  5
611
100
AcDbEntity
  8
0
  6
CONTINUOUS
 62
       6
100
AcDbLine
 10
-76.54996471
 20
45.68136772
 30
0.0
 11
-74.38249271
 21
47.84883272
 31
0.0
  0
LINE
  5
612
100
AcDbEntity
  8
0
  6
CONTINUOUS
 62
       6
100
AcDbLine
 10
-76.54996471
 20
47.09558272
 30
0.0
 11
-75.79670571
 21
47.84883272
 31
0.0
  0
LINE
  5
613
100
AcDbEntity
  8
0
  6
CONTINUOUS
 62
       6
100
AcDbLine
 10
-69.04527071
 20
46.61282572
 30
0.0
 11
-70.56338871
 21
48.13093772
 31
0.0
  0
LINE
  5
614
100
AcDbEntity
  8
0
  6
CONTINUOUS
 62
       6
100
AcDbLine
 10
-69.17120971
 20
45.32454072
 30
0.0
 11
-71.69550171
 21
47.84883272
 31
0.0
  0
LINE
  5
615
100
AcDbEntity
  8
0
  6
CONTINUOUS
 62
       6
100
AcDbLine
 10
-69.63916771
 20
44.37829772
 30
0.0
 11
-73.10971471
 21
47.84883272
 31
0.0
  0
LINE
  5
616
100
AcDbEntity
  8
0
  6
CONTINUOUS
 62
       6
100
AcDbLine
 10
-70.35891171
 20
43.68382472
 30
0.0
 11
-74.52392771
 21
47.84883272
 31
0.0
  0
LINE
  5
617
100
AcDbEntity
  8
0
  6
CONTINUOUS
 62
       6
100
AcDbLine
 10
-71.32654971
 20
43.23724572
 30
0.0
 11
-75.93810671
 21
47.84880272
 31
0.0
  0
LINE
  5
618
100
AcDbEntity
  8
0
  6
CONTINUOUS
 62
       6
100
AcDbLine
 10
-72.75446371
 20
43.25094772
 30
0.0
 11
-74.94824471
 21
45.44473472
 31
0.0
  0
LINE
  5
619
100
AcDbEntity
  8
0
  6
CONTINUOUS
 62
       6
100
AcDbLine
 10
-75.15258071
 20
45.64906472
 30
0.0
 11
-76.54996471
 21
47.04644972
 31
0.0
  0
INSERT
  5
61A
100
AcDbEntity
  8
0
  6
CONTINUOUS
100
AcDbBlockReference
  2
GROUP_1
 10
0.0
 20
0.0
 30
0.0
  0
INSERT
  5
61B
100
AcDbEntity
  8
0
  6
CONTINUOUS
100
AcDbBlockReference
  2
GROUP_2
 10
0.0
 20
0.0
 30
0.0
  0
INSERT
  5
61C
100
AcDbEntity
  8
0
  6
CONTINUOUS
100
AcDbBlockReference
  2
GROUP_3
 10
0.0
 20
0.0
 30
0.0
  0
INSERT
  5
61D
100
AcDbEntity
  8
0
  6
CONTINUOUS
100
AcDbBlockReference
  2
GROUP_4
 10
0.0
 20
0.0
 30
0.0
  0
INSERT
  5
61E
100
AcDbEntity
  8
0
  6
CONTINUOUS
100
AcDbBlockReference
  2
GROUP_5
 10
0.0
 20
0.0
 30
0.0
  0
INSERT
  5
61F
100
AcDbEntity
  8
0
  6
CONTINUOUS
100
AcDbBlockReference
  2
GROUP_6
 10
0.0
 20
0.0
 30
0.0
  0
INSERT
  5
620
100
AcDbEntity
  8
0
  6
CONTINUOUS
100
AcDbBlockReference
  2
GROUP_7
 10
0.0
 20
0.0
 30
0.0
  0
INSERT
  5
621
100
AcDbEntity
  8
0
  6
CONTINUOUS
100
AcDbBlockReference
  2
DA_IMAGEDIMGROUP_1
 10
0.0
 20
0.0
 30
0.0
  0
INSERT
  5
622
100
AcDbEntity
  8
0
  6
CONTINUOUS
100
AcDbBlockReference
  2
DA_IMAGEDIMGROUP_2
 10
0.0
 20
0.0
 30
0.0
  0
INSERT
  5
623
100
AcDbEntity
  8
0
  6
CONTINUOUS
100
AcDbBlockReference
  2
DA_IMAGEDIMGROUP_3
 10
0.0
 20
0.0
 30
0.0
  0
INSERT
  5
624
100
AcDbEntity
  8
0
  6
CONTINUOUS
100
AcDbBlockReference
  2
DA_IMAGEDIMGROUP_4
 10
0.0
 20
0.0
 30
0.0
  0
INSERT
  5
625
100
AcDbEntity
  8
0
  6
CONTINUOUS
100
AcDbBlockReference
  2
DA_IMAGEDIMGROUP_6
 10
0.0
 20
0.0
 30
0.0
  0
INSERT
  5
626
100
AcDbEntity
  8
LAYER0016
  6
CONTINUOUS
100
AcDbBlockReference
  2
DA_IMAGEDIMGROUP_5
 10
0.0
 20
0.0
 30
0.0
  0
LINE
  5
627
100
AcDbEntity
  8
LAYER0016
  6
PHANTOM
 62
     232
100
AcDbLine
 10
42.30662431
 20
-14.71641089
 30
0.0
 11
42.30662431
 21
-23.60138293
 31
0.0
  0
ARC
  5
628
100
AcDbEntity
  8
LAYER0016
  6
PHANTOM
 62
     232
100
AcDbCircle
 10
58.55662431
 20
54.29730664
 30
0.0
 40
68.28409091
100
AcDbArc
 50
238.87546668
 51
254.03020278
  0
ARC
  5
629
100
AcDbEntity
  8
LAYER0016
  6
PHANTOM
 62
     232
100
AcDbCircle
 10
60.07826489
 20
53.54930528
 30
0.0
 40
62.5
100
AcDbArc
 50
237.78286792
 51
254.19606982
  0
ARC
  5
62A
100
AcDbEntity
  8
LAYER0016
  6
PHANTOM
 62
     232
100
AcDbCircle
 10
38.80662431
 20
-14.71641089
 30
0.0
 40
3.5
100
AcDbArc
 50
0.0
 51
74.03020278
  0
LINE
  5
62B
100
AcDbEntity
  8
LAYER0016
  6
PHANTOM
 62
     232
100
AcDbLine
 10
48.05662431
 20
-10.83815187
 30
0.0
 11
48.05662431
 21
-23.60138293
 31
0.0
  0
ARC
  5
62C
100
AcDbEntity
  8
LAYER0016
  6
PHANTOM
 62
     232
100
AcDbCircle
 10
44.55662431
 20
-10.83815187
 30
0.0
 40
3.5
100
AcDbArc
 50
360.0
 51
450.0
  0
LINE
  5
62D
100
AcDbEntity
  8
LAYER0016
  6
PHANTOM
 62
     232
100
AcDbLine
 10
43.05662431
 20
-6.58815187
 30
0.0
 11
58.55662431
 21
-6.58815187
 31
0.0
  0
LINE
  5
62E
100
AcDbEntity
  8
LAYER0016
  6
PHANTOM
 62
     232
100
AcDbLine
 10
43.05662431
 20
-6.58815187
 30
0.0
 11
43.30662431
 21
-7.33815187
 31
0.0
  0
LINE
  5
62F
100
AcDbEntity
  8
LAYER0016
  6
PHANTOM
 62
     232
100
AcDbLine
 10
43.30662431
 20
-7.33815187
 30
0.0
 11
44.55662432
 21
-7.33815187
 31
0.0
  0
LINE
  5
630
100
AcDbEntity
  8
LAYER0016
  6
PHANTOM
 62
     232
100
AcDbLine
 10
74.05662431
 20
-6.58815187
 30
0.0
 11
73.80662431
 21
-7.33815187
 31
0.0
  0
LINE
  5
631
100
AcDbEntity
  8
LAYER0016
  6
PHANTOM
 62
     232
100
AcDbLine
 10
72.55662431
 20
-7.33815187
 30
0.0
 11
73.80662431
 21
-7.33815187
 31
0.0
  0
ARC
  5
632
100
AcDbEntity
  8
LAYER0016
  6
PHANTOM
 62
     232
100
AcDbCircle
 10
72.55662431
 20
-10.83815187
 30
0.0
 40
3.5
100
AcDbArc
 50
90.0
 51
180.0
  0
LINE
  5
633
100
AcDbEntity
  8
LAYER0016
  6
PHANTOM
 62
     232
100
AcDbLine
 10
74.05662431
 20
-6.58815187
 30
0.0
 11
58.55662431
 21
-6.58815187
 31
0.0
  0
ARC
  5
634
100
AcDbEntity
  8
LAYER0016
  6
PHANTOM
 62
     232
100
AcDbCircle
 10
57.03498373
 20
53.54930528
 30
0.0
 40
62.5
100
AcDbArc
 50
285.80393018
 51
299.18932451
  0
LINE
  5
635
100
AcDbEntity
  8
LAYER0016
  6
PHANTOM
 62
     232
100
AcDbLine
 10
69.05662431
 20
-10.83815187
 30
0.0
 11
69.05662431
 21
-23.60138293
 31
0.0
  0
LINE
  5
636
100
AcDbEntity
  8
LAYER0016
  6
PHANTOM
 62
     232
100
AcDbLine
 10
74.80662431
 20
-14.71641089
 30
0.0
 11
74.80662431
 21
-23.60138293
 31
0.0
  0
ARC
  5
637
100
AcDbEntity
  8
LAYER0016
  6
PHANTOM
 62
     232
100
AcDbCircle
 10
78.30662431
 20
-14.71641089
 30
0.0
 40
3.5
100
AcDbArc
 50
105.96979722
 51
180.0
  0
ARC
  5
638
100
AcDbEntity
  8
LAYER0016
  6
PHANTOM
 62
     232
100
AcDbCircle
 10
58.55662431
 20
54.29730664
 30
0.0
 40
68.28409091
100
AcDbArc
 50
285.96979722
 51
294.18211855
  0
LINE
  5
639
100
AcDbEntity
  8
LAYER0016
  6
DIVIDE
 62
     232
100
AcDbLine
 10
44.55662433
 20
-7.33815187
 30
0.0
 11
72.55662431
 21
-7.33815187
 31
0.0
  0
INSERT
  5
63A
100
AcDbEntity
  8
LAYER0255
  6
CONTINUOUS
100
AcDbBlockReference
  2
GROUP_8
 10
0.0
 20
0.0
 30
0.0
  0
LINE
  5
63B
100
AcDbEntity
  8
LAYER0016
  6
CONTINUOUS
 62
       7
100
AcDbLine
 10
59.78587431
 20
-40.18749826
 30
0.0
 11
59.78587431
 21
-31.95138143
 31
0.0
  0
LINE
  5
63C
100
AcDbEntity
  8
LAYER0016
  6
CONTINUOUS
 62
       7
100
AcDbLine
 10
59.78587431
 20
-23.45138143
 30
0.0
 11
59.78587431
 21
-15.35138293
 31
0.0
  0
LINE
  5
63D
100
AcDbEntity
  8
LAYER0016
  6
CONTINUOUS
 62
       7
100
AcDbLine
 10
57.32737431
 20
-40.18749826
 30
0.0
 11
57.32737431
 21
-31.95138143
 31
0.0
  0
LINE
  5
63E
100
AcDbEntity
  8
LAYER0016
  6
CONTINUOUS
 62
       7
100
AcDbLine
 10
57.32737431
 20
-23.45138143
 30
0.0
 11
57.32737431
 21
-15.35138293
 31
0.0
  0
INSERT
  5
63F
100
AcDbEntity
  8
LAYER0240
  6
CONTINUOUS
100
AcDbBlockReference
  2
GROUP_9
 10
0.0
 20
0.0
 30
0.0
  0
INSERT
  5
640
100
AcDbEntity
  8
LAYER0240
  6
CONTINUOUS
100
AcDbBlockReference
  2
GROUP_10
 10
0.0
 20
0.0
 30
0.0
  0
INSERT
  5
641
100
AcDbEntity
  8
LAYER0240
  6
CONTINUOUS
100
AcDbBlockReference
  2
GROUP_11
 10
0.0
 20
0.0
 30
0.0
  0
INSERT
  5
642
100
AcDbEntity
  8
LAYER0240
  6
CONTINUOUS
100
AcDbBlockReference
  2
GROUP_12
 10
0.0
 20
0.0
 30
0.0
  0
CIRCLE
  5
643
100
AcDbEntity
  8
LAYER0240
  6
CONTINUOUS
 62
       9
100
AcDbCircle
 10
29.29906155
 20
-104.88301656
 30
0.0
 40
1.70940896
  0
INSERT
  5
644
100
AcDbEntity
  8
LAYER0240
  6
DASHEDX2
100
AcDbBlockReference
  2
GROUP_13
 10
0.0
 20
0.0
 30
0.0
  0
ENDSEC
  0
SECTION
  2
OBJECTS
  0
DICTIONARY
  5
19
100
AcDbDictionary
  3
ACAD_GROUP
350
1A
  3
ACAD_MLINESTYLE
350
1B
  0
DICTIONARY
  5
1A
102
{ACAD_REACTORS
330
19
102
}
100
AcDbDictionary
  0
DICTIONARY
  5
1B
102
{ACAD_REACTORS
330
19
102
}
100
AcDbDictionary
  3
STANDARD
350
1C
  0
MLINESTYLE
  5
1C
102
{ACAD_REACTORS
330
1B
102
}
100
AcDbMlineStyle
  2
STANDARD
 70
       0
  3

 62
       0
 51
90.0
 52
90.0
 71
       2
 49
0.5
 62
     256
  6
BYLAYER
 49
-0.5
 62
     256
  6
BYLAYER
  0
ENDSEC
  0
EOF
