  0
SECTION
  2
HEADER
  9
$ACADVER
  1
AC1014
  9
$ACADMAINTVER
 70
       0
  9
$DWGCODEPAGE
  3
ANSI_932
  9
$INSBASE
 10
0.0
 20
0.0
 30
0.0
  9
$EXTMIN
 10
-3300.67079521
 20
-4605.20833333
 30
0.0
  9
$EXTMAX
 10
3300.02289761
 20
4604.79166667
 30
0.0
  9
$LIMMIN
 10
-1050.0
 20
-1485.0
  9
$LIMMAX
 10
1050.0
 20
1485.0
  9
$ORTHOMODE
 70
       0
  9
$REGENMODE
 70
       1
  9
$FILLMODE
 70
       1
  9
$QTEXTMODE
 70
       0
  9
$MIRRTEXT
 70
       1
  9
$DRAGMODE
 70
       2
  9
$LTSCALE
 40
10.0
  9
$OSMODE
 70
       0
  9
$ATTMODE
 70
       1
  9
$TEXTSIZE
 40
0.2
  9
$TRACEWID
 40
0.05
  9
$TEXTSTYLE
  7
STANDARD
  9
$CLAYER
  8
0
  9
$CELTYPE
  6
CONTINUOUS
  9
$CECOLOR
 62
     256
  9
$CELTSCALE
 40
1.0
  9
$DELOBJ
 70
       1
  9
$DISPSILH
 70
       0
  9
$DIMSCALE
 40
1.0
  9
$DIMASZ
 40
20.0
  9
$DIMEXO
 40
0.0625
  9
$DIMDLI
 40
0.38
  9
$DIMRND
 40
0.0
  9
$DIMDLE
 40
0.0
  9
$DIMEXE
 40
0.18
  9
$DIMTP
 40
0.0
  9
$DIMTM
 40
0.0
  9
$DIMTXT
 40
20.0
  9
$DIMCEN
 40
0.09
  9
$DIMTSZ
 40
0.0
  9
$DIMTOL
 70
       0
  9
$DIMLIM
 70
       0
  9
$DIMTIH
 70
       1
  9
$DIMTOH
 70
       1
  9
$DIMSE1
 70
       0
  9
$DIMSE2
 70
       0
  9
$DIMTAD
 70
       0
  9
$DIMZIN
 70
       0
  9
$DIMBLK
  1

  9
$DIMASO
 70
       1
  9
$DIMSHO
 70
       1
  9
$DIMPOST
  1

  9
$DIMAPOST
  1

  9
$DIMALT
 70
       0
  9
$DIMALTD
 70
       2
  9
$DIMALTF
 40
25.4
  9
$DIMLFAC
 40
1.0
  9
$DIMTOFL
 70
       0
  9
$DIMTVP
 40
0.0
  9
$DIMTIX
 70
       0
  9
$DIMSOXD
 70
       0
  9
$DIMSAH
 70
       0
  9
$DIMBLK1
  1

  9
$DIMBLK2
  1

  9
$DIMSTYLE
  2
STANDARD
  9
$DIMCLRD
 70
       0
  9
$DIMCLRE
 70
       0
  9
$DIMCLRT
 70
       0
  9
$DIMTFAC
 40
1.0
  9
$DIMGAP
 40
0.09
  9
$DIMJUST
 70
       0
  9
$DIMSD1
 70
       0
  9
$DIMSD2
 70
       0
  9
$DIMTOLJ
 70
       1
  9
$DIMTZIN
 70
       0
  9
$DIMALTZ
 70
       0
  9
$DIMALTTZ
 70
       0
  9
$DIMFIT
 70
       3
  9
$DIMUPT
 70
       0
  9
$DIMUNIT
 70
       2
  9
$DIMDEC
 70
       4
  9
$DIMTDEC
 70
       4
  9
$DIMALTU
 70
       2
  9
$DIMALTTD
 70
       2
  9
$DIMTXSTY
  7
STANDARD
  9
$DIMAUNIT
 70
       0
  9
$LUNITS
 70
       2
  9
$LUPREC
 70
       4
  9
$SKETCHINC
 40
0.1
  9
$FILLETRAD
 40
0.0
  9
$AUNITS
 70
       0
  9
$AUPREC
 70
       0
  9
$MENU
  1
acad
  9
$ELEVATION
 40
0.0
  9
$PELEVATION
 40
0.0
  9
$THICKNESS
 40
0.0
  9
$LIMCHECK
 70
       0
  9
$BLIPMODE
 70
       1
  9
$CHAMFERA
 40
0.0
  9
$CHAMFERB
 40
0.0
  9
$CHAMFERC
 40
0.0
  9
$CHAMFERD
 40
0.0
  9
$SKPOLY
 70
       0
  9
$TDCREATE
 40
0.000000000
  9
$TDUPDATE
 40
0.000000000
  9
$TDINDWG
 40
0.0000000000
  9
$TDUSRTIMER
 40
0.0000000000
  9
$USRTIMER
 70
       1
  9
$ANGBASE
 50
0.0
  9
$ANGDIR
 70
       0
  9
$PDMODE
 70
       0
  9
$PDSIZE
 40
1.0
  9
$PLINEWID
 40
0.0
  9
$COORDS
 70
       1
  9
$SPLFRAME
 70
       0
  9
$SPLINETYPE
 70
       6
  9
$SPLINESEGS
 70
       8
  9
$ATTDIA
 70
       0
  9
$ATTREQ
 70
       1
  9
$HANDLING
 70
       1
  9
$HANDSEED
  5
5C9
  9
$SURFTAB1
 70
       6
  9
$SURFTAB2
 70
       6
  9
$SURFTYPE
 70
       6
  9
$SURFU
 70
       6
  9
$SURFV
 70
       6
  9
$UCSNAME
  2

  9
$UCSORG
 10
0.0
 20
0.0
 30
0.0
  9
$UCSXDIR
 10
1.0
 20
0.0
 30
0.0
  9
$UCSYDIR
 10
0.0
 20
1.0
 30
0.0
  9
$PUCSNAME
  2

  9
$PUCSORG
 10
0.0
 20
0.0
 30
0.0
  9
$PUCSXDIR
 10
1.0
 20
0.0
 30
0.0
  9
$PUCSYDIR
 10
0.0
 20
1.0
 30
0.0
  9
$USERI1
 70
       0
  9
$USERI2
 70
       0
  9
$USERI3
 70
       0
  9
$USERI4
 70
       0
  9
$USERI5
 70
       0
  9
$USERR1
 40
0.0
  9
$USERR2
 40
0.0
  9
$USERR3
 40
0.0
  9
$USERR4
 40
0.0
  9
$USERR5
 40
0.0
  9
$WORLDVIEW
 70
       1
  9
$SHADEDGE
 70
       3
  9
$SHADEDIF
 70
      70
  9
$TILEMODE
 70
       1
  9
$MAXACTVP
 70
      16
  9
$PINSBASE
 10
0.0
 20
0.0
 30
0.0
  9
$PLIMCHECK
 70
       0
  9
$PEXTMIN
 10
1.00000000E+20
 20
1.00000000E+20
 30
1.00000000E+20
  9
$PEXTMAX
 10
-1.00000000E+20
 20
-1.00000000E+20
 30
-1.00000000E+20
  9
$PLIMMIN
 10
0.0
 20
0.0
  9
$PLIMMAX
 10
12.0
 20
9.0
  9
$UNITMODE
 70
       0
  9
$VISRETAIN
 70
       0
  9
$PLINEGEN
 70
       1
  9
$PSLTSCALE
 70
       0
  9
$TREEDEPTH
 70
    3020
  9
$PICKSTYLE
 70
       1
  9
$CMLSTYLE
  2
STANDARD
  9
$CMLJUST
 70
       0
  9
$CMLSCALE
 40
1.0
  9
$PROXYGRAPHICS
 70
       0
  9
$MEASUREMENT
 70
       0
  0
ENDSEC
  0
SECTION
  2
CLASSES
  0
CLASS
  1
LWPOLYLINE
  2
AcDbPolyline
  3
"AutoCAD"
 90
        0
280
       0
281
       1
  0
CLASS
  1
IMAGE
  2
AcDbRasterImage
  3
ISM
 90
      127
280
       0
281
       1
  0
CLASS
  1
OLE2FRAME
  2
AcDbOle2Frame
  3
""
 90
        0
280
       0
281
       1
  0
CLASS
  1
HATCH
  2
AcDbHatch
  3
"ACAD_SEDONA"
 90
        0
280
       0
281
       1
  0
CLASS
  1
DICTIONARYVAR
  2
AcDbDictionaryVar
  3
"AutoCAD"
 90
        0
280
       0
281
       0
  0
CLASS
  1
RASTERVARIABLES
  2
AcDbRasterVariables
  3
ISM
 90
        0
280
       0
281
       0
  0
CLASS
  1
IMAGEDEF
  2
AcDbRasterImageDef
  3
ISM
 90
        0
280
       0
281
       0
  0
CLASS
  1
IMAGEDEF_REACTOR
  2
AcDbRasterImageDefReactor
  3
ISM
 90
        1
280
       0
281
       0
  0
CLASS
  1
IDBUFFER
  2
AcDbIdBuffer
  3
"Acad"
 90
        0
280
       0
281
       0
  0
CLASS
  1
SPATIAL_FILTER
  2
AcDbSpatialFilter
  3
"Acad"
 90
        0
280
       0
281
       0
  0
CLASS
  1
XRECORD
  2
AcDbXrecord
  3
"<Built In>"
 90
        0
280
       0
281
       0
  0
CLASS
  1
SORTENTSTABLE
  2
AcDbSortentsTable
  3
"AutoCAD"
 90
        0
280
       0
281
       0
  0
CLASS
  1
LAYER_INDEX
  2
AcDbLayerIndex
  3
"Acad"
 90
        0
280
       0
281
       0
  0
CLASS
  1
SPATIAL_INDEX
  2
AcDbSpatialIndex
  3
"Acad"
 90
        0
280
       0
281
       0
  0
CLASS
  1
OBJECT_PTR
  2
CAseDLPNTableRecord
  3
"ASE-LPNTableRecord"
 90
        1
280
       0
281
       0
  0
CLASS
  1
LAYOUT
  2
AcDbLayout
  3
"AutoCAD 2000"
 90
        0
280
       0
281
       0
  0
CLASS
  1
PLOTSETTINGS
  2
AcDbPlotSettings
  3
"AutoCAD 2000"
 90
        0
280
       0
281
       0
  0
CLASS
  1
ACDBDICTIONARYWDFLT
  2
AcDbDictionaryWithDefault
  3
"AutoCAD 2000"
 90
        0
280
       0
281
       0
  0
CLASS
  1
ACDBPLACEHOLDER
  2
AcDbPlaceHolder
  3
"AutoCAD 2000"
 90
        0
280
       0
281
       0
  0
CLASS
  1
VBA_PROJECT
  2
AcDbVbaProject
  3
"acadvba"
 90
        0
280
       0
281
       0
  0
CLASS
  1
WIPEOUT
  2
AcDbWipeout
  3
WipeOut|AutoCAD Express Tool|expresstools@autodesk.com
 90
      127
280
       0
281
       1
  0
CLASS
  1
WIPEOUTVARIABLES
  2
AcDbWipeoutVariables
  3
WipeOut|AutoCAD Express Tool|expresstools@autodesk.com
 90
        0
280
       0
281
       0
  0
CLASS
  1
RTEXT
  2
RText
  3
RText|AutoCAD Express Tool|expresstools@autodesk.com
 90
        0
280
       0
281
       1
  0
CLASS
  1
ARCALIGNEDTEXT
  2
AcDbArcAlignedText
  3
ATEXT|AutoCAD Express Tool|expresstools@autodesk.com
 90
        0
280
       0
281
       1
  0
ENDSEC
  0
SECTION
  2
TABLES
  0
TABLE
  2
VPORT
  5
7
100
AcDbSymbolTable
 70
       1
  0
VPORT
  5
15
100
AcDbSymbolTableRecord
100
AcDbViewportTableRecord
  2
*ACTIVE
 70
       0
 10
0.0
 20
0.0
 11
1.0
 21
1.0
 12
0.0
 22
0.0
 13
0.0
 23
0.0
 14
1.0
 24
1.0
 15
0.0
 25
0.0
 16
0.0
 26
0.0
 36
1.0
 17
0.0
 27
0.0
 37
0.0
 40
2970.0
 41
0.70707071
 42
50.0
 43
0.0
 44
0.0
 50
0.0
 51
0.0
 71
       0
 72
     100
 73
       1
 74
       1
 75
       0
 76
       0
 77
       0
 78
       0
  0
ENDTAB
  0
TABLE
  2
LTYPE
  5
4
100
AcDbSymbolTable
 70
      30
  0
LTYPE
  5
11
100
AcDbSymbolTableRecord
100
AcDbLinetypeTableRecord
  2
BYBLOCK
 70
      64
  3

 72
      65
 73
       0
 40
0.0
  0
LTYPE
  5
12
100
AcDbSymbolTableRecord
100
AcDbLinetypeTableRecord
  2
BYLAYER
 70
      64
  3

 72
      65
 73
       0
 40
0.0
  0
LTYPE
  5
13
100
AcDbSymbolTableRecord
100
AcDbLinetypeTableRecord
  2
CONTINUOUS
 70
      64
  3
Solid line
 72
      65
 73
       0
 40
0.0
  0
LTYPE
  5
1D
100
AcDbSymbolTableRecord
100
AcDbLinetypeTableRecord
  2
HIDDENX2
 70
      64
  3
CADPAC LINETYPE
 72
      65
 73
       2
 40
8.30188679
 49
6.22641509
 74
       0
 49
-2.0754717
 74
       0
  0
LTYPE
  5
1E
100
AcDbSymbolTableRecord
100
AcDbLinetypeTableRecord
  2
HIDDEN
 70
      64
  3
CADPAC LINETYPE
 72
      65
 73
       2
 40
6.22641509
 49
4.1509434
 74
       0
 49
-2.0754717
 74
       0
  0
LTYPE
  5
1F
100
AcDbSymbolTableRecord
100
AcDbLinetypeTableRecord
  2
HIDDEN2
 70
      64
  3
CADPAC LINETYPE
 72
      65
 73
       2
 40
5.18867925
 49
3.11320755
 74
       0
 49
-2.0754717
 74
       0
  0
LTYPE
  5
20
100
AcDbSymbolTableRecord
100
AcDbLinetypeTableRecord
  2
DASHED
 70
      64
  3
CADPAC LINETYPE
 72
      65
 73
       2
 40
5.81132075
 49
4.1509434
 74
       0
 49
-1.66037736
 74
       0
  0
LTYPE
  5
21
100
AcDbSymbolTableRecord
100
AcDbLinetypeTableRecord
  2
DASHED2
 70
      64
  3
CADPAC LINETYPE
 72
      65
 73
       2
 40
3.73584906
 49
2.49056604
 74
       0
 49
-1.24528302
 74
       0
  0
LTYPE
  5
22
100
AcDbSymbolTableRecord
100
AcDbLinetypeTableRecord
  2
DASHEDX2
 70
      64
  3
CADPAC LINETYPE
 72
      65
 73
       2
 40
9.96226415
 49
8.30188679
 74
       0
 49
-1.66037736
 74
       0
  0
LTYPE
  5
23
100
AcDbSymbolTableRecord
100
AcDbLinetypeTableRecord
  2
DOTX2
 70
      64
  3
CADPAC LINETYPE
 72
      65
 73
       2
 40
3.63207547
 49
0.0
 74
       0
 49
-3.63207547
 74
       0
  0
LTYPE
  5
24
100
AcDbSymbolTableRecord
100
AcDbLinetypeTableRecord
  2
DOT
 70
      64
  3
CADPAC LINETYPE
 72
      65
 73
       2
 40
2.90566038
 49
0.0
 74
       0
 49
-2.90566038
 74
       0
  0
LTYPE
  5
25
100
AcDbSymbolTableRecord
100
AcDbLinetypeTableRecord
  2
DOT2
 70
      64
  3
CADPAC LINETYPE
 72
      65
 73
       2
 40
2.17924528
 49
0.0
 74
       0
 49
-2.17924528
 74
       0
  0
LTYPE
  5
26
100
AcDbSymbolTableRecord
100
AcDbLinetypeTableRecord
  2
CENTERX2
 70
      64
  3
CADPAC LINETYPE
 72
      65
 73
       4
 40
12.45283019
 49
5.18867925
 74
       0
 49
-2.59433962
 74
       0
 49
2.0754717
 74
       0
 49
-2.59433962
 74
       0
  0
LTYPE
  5
27
100
AcDbSymbolTableRecord
100
AcDbLinetypeTableRecord
  2
CENTER
 70
      64
  3
CADPAC LINETYPE
 72
      65
 73
       4
 40
9.54716981
 49
4.1509434
 74
       0
 49
-2.0754717
 74
       0
 49
1.24528302
 74
       0
 49
-2.0754717
 74
       0
  0
LTYPE
  5
28
100
AcDbSymbolTableRecord
100
AcDbLinetypeTableRecord
  2
CENTER2
 70
      64
  3
CADPAC LINETYPE
 72
      65
 73
       4
 40
6.64150943
 49
3.11320755
 74
       0
 49
-1.55660377
 74
       0
 49
0.41509434
 74
       0
 49
-1.55660377
 74
       0
  0
LTYPE
  5
29
100
AcDbSymbolTableRecord
100
AcDbLinetypeTableRecord
  2
DASHDOTX2
 70
      64
  3
CADPAC LINETYPE
 72
      65
 73
       4
 40
19.9245283
 49
9.96226415
 74
       0
 49
-3.32075472
 74
       0
 49
3.32075472
 74
       0
 49
-3.32075472
 74
       0
  0
LTYPE
  5
2A
100
AcDbSymbolTableRecord
100
AcDbLinetypeTableRecord
  2
DASHDOT
 70
      64
  3
CADPAC LINETYPE
 72
      65
 73
       4
 40
9.96226415
 49
4.98113208
 74
       0
 49
-1.66037736
 74
       0
 49
1.66037736
 74
       0
 49
-1.66037736
 74
       0
  0
LTYPE
  5
2B
100
AcDbSymbolTableRecord
100
AcDbLinetypeTableRecord
  2
DASHDOT2
 70
      64
  3
CADPAC LINETYPE
 72
      65
 73
       4
 40
6.39245283
 49
3.73584906
 74
       0
 49
-1.24528302
 74
       0
 49
0.16603774
 74
       0
 49
-1.24528302
 74
       0
  0
LTYPE
  5
2C
100
AcDbSymbolTableRecord
100
AcDbLinetypeTableRecord
  2
DIVIDEX2
 70
      64
  3
CADPAC LINETYPE
 72
      65
 73
       6
 40
26.56603774
 49
9.96226415
 74
       0
 49
-3.32075472
 74
       0
 49
3.32075472
 74
       0
 49
-3.32075472
 74
       0
 49
3.32075472
 74
       0
 49
-3.32075472
 74
       0
  0
LTYPE
  5
2D
100
AcDbSymbolTableRecord
100
AcDbLinetypeTableRecord
  2
DIVIDE
 70
      64
  3
CADPAC LINETYPE
 72
      65
 73
       6
 40
13.28301887
 49
4.98113208
 74
       0
 49
-1.66037736
 74
       0
 49
1.66037736
 74
       0
 49
-1.66037736
 74
       0
 49
1.66037736
 74
       0
 49
-1.66037736
 74
       0
  0
LTYPE
  5
2E
100
AcDbSymbolTableRecord
100
AcDbLinetypeTableRecord
  2
DIVIDE2
 70
      64
  3
CADPAC LINETYPE
 72
      65
 73
       6
 40
9.96226415
 49
3.73584906
 74
       0
 49
-1.24528302
 74
       0
 49
1.24528302
 74
       0
 49
-1.24528302
 74
       0
 49
1.24528302
 74
       0
 49
-1.24528302
 74
       0
  0
LTYPE
  5
2F
100
AcDbSymbolTableRecord
100
AcDbLinetypeTableRecord
  2
BORDERX2
 70
      64
  3
CADPAC LINETYPE
 72
      65
 73
       6
 40
18.16037736
 49
5.18867925
 74
       0
 49
-2.59433962
 74
       0
 49
5.18867925
 74
       0
 49
-2.59433962
 74
       0
 49
0.0
 74
       0
 49
-2.59433962
 74
       0
  0
LTYPE
  5
30
100
AcDbSymbolTableRecord
100
AcDbLinetypeTableRecord
  2
BORDER
 70
      64
  3
CADPAC LINETYPE
 72
      65
 73
       6
 40
14.52830189
 49
4.1509434
 74
       0
 49
-2.0754717
 74
       0
 49
4.1509434
 74
       0
 49
-2.0754717
 74
       0
 49
0.0
 74
       0
 49
-2.0754717
 74
       0
  0
LTYPE
  5
31
100
AcDbSymbolTableRecord
100
AcDbLinetypeTableRecord
  2
BORDER2
 70
      64
  3
CADPAC LINETYPE
 72
      65
 73
       6
 40
10.79245283
 49
3.32075472
 74
       0
 49
-2.0754717
 74
       0
 49
1.24528302
 74
       0
 49
-2.0754717
 74
       0
 49
0.0
 74
       0
 49
-2.0754717
 74
       0
  0
LTYPE
  5
32
100
AcDbSymbolTableRecord
100
AcDbLinetypeTableRecord
  2
PHANTOMX2
 70
      64
  3
CADPAC LINETYPE
 72
      65
 73
       6
 40
15.56603774
 49
5.18867925
 74
       0
 49
-2.0754717
 74
       0
 49
2.0754717
 74
       0
 49
-2.0754717
 74
       0
 49
2.0754717
 74
       0
 49
-2.0754717
 74
       0
  0
LTYPE
  5
33
100
AcDbSymbolTableRecord
100
AcDbLinetypeTableRecord
  2
PHANTOM
 70
      64
  3
CADPAC LINETYPE
 72
      65
 73
       6
 40
12.86792453
 49
4.1509434
 74
       0
 49
-2.0754717
 74
       0
 49
1.24528302
 74
       0
 49
-2.0754717
 74
       0
 49
1.24528302
 74
       0
 49
-2.0754717
 74
       0
  0
LTYPE
  5
34
100
AcDbSymbolTableRecord
100
AcDbLinetypeTableRecord
  2
PHANTOM2
 70
      64
  3
CADPAC LINETYPE
 72
      65
 73
       6
 40
11.0
 49
3.11320755
 74
       0
 49
-2.0754717
 74
       0
 49
0.83018868
 74
       0
 49
-2.0754717
 74
       0
 49
0.83018868
 74
       0
 49
-2.0754717
 74
       0
  0
LTYPE
  5
35
100
AcDbSymbolTableRecord
100
AcDbLinetypeTableRecord
  2
ACAD_ISO06W100
 70
      64
  3
CADPAC LINETYPE
 72
      65
 73
       8
 40
22.0
 49
9.96226415
 74
       0
 49
-2.0754717
 74
       0
 49
1.24528302
 74
       0
 49
-2.0754717
 74
       0
 49
1.24528302
 74
       0
 49
-2.0754717
 74
       0
 49
1.24528302
 74
       0
 49
-2.0754717
 74
       0
  0
LTYPE
  5
36
100
AcDbSymbolTableRecord
100
AcDbLinetypeTableRecord
  2
ACAD_ISO13W100
 70
      64
  3
CADPAC LINETYPE
 72
      65
 73
       8
 40
16.60377358
 49
4.1509434
 74
       0
 49
-2.0754717
 74
       0
 49
4.1509434
 74
       0
 49
-2.0754717
 74
       0
 49
0.0
 74
       0
 49
-2.0754717
 74
       0
 49
0.0
 74
       0
 49
-2.0754717
 74
       0
  0
LTYPE
  5
37
100
AcDbSymbolTableRecord
100
AcDbLinetypeTableRecord
  2
ACAD_ISO14W100
 70
      64
  3
CADPAC LINETYPE
 72
      65
 73
       8
 40
12.45283019
 49
4.1509434
 74
       0
 49
-2.0754717
 74
       0
 49
0.0
 74
       0
 49
-2.0754717
 74
       0
 49
0.0
 74
       0
 49
-2.0754717
 74
       0
 49
0.0
 74
       0
 49
-2.0754717
 74
       0
  0
ENDTAB
  0
TABLE
  2
LAYER
  5
2
100
AcDbSymbolTable
 70
       3
  0
LAYER
  5
14
100
AcDbSymbolTableRecord
100
AcDbLayerTableRecord
  2
0
 70
       0
 62
       7
  6
CONTINUOUS
  0
LAYER
  5
38
100
AcDbSymbolTableRecord
100
AcDbLayerTableRecord
  2
LAYER0240
 70
       0
 62
       7
  6
CONTINUOUS
  0
LAYER
  5
39
100
AcDbSymbolTableRecord
100
AcDbLayerTableRecord
  2
ZUWAKU
 70
       0
 62
       7
  6
CONTINUOUS
  0
ENDTAB
  0
TABLE
  2
STYLE
  5
3
100
AcDbSymbolTable
 70
       2
  0
STYLE
  5
17
100
AcDbSymbolTableRecord
100
AcDbTextStyleTableRecord
  2
STANDARD
 70
       0
 40
34.0
 41
0.8
 50
0.0
 71
       0
 42
34.0
  3
txt.shx
  4
bigfont.shx
  0
STYLE
  5
3A
100
AcDbSymbolTableRecord
100
AcDbTextStyleTableRecord
  2
FDASTYLE1
 70
       4
 40
30.0
 41
0.8
 50
0.0
 71
       0
 42
30.0
  3
txt.shx
  4
bigfont.shx
  0
ENDTAB
  0
TABLE
  2
VIEW
  5
5
100
AcDbSymbolTable
 70
       1
  0
VIEW
  5
3B
100
AcDbSymbolTableRecord
100
AcDbViewTableRecord
  2
QQQQ
 70
       0
 40
2970.0
 10
0.0
 20
0.0
 41
2100.0
 11
0.0
 21
0.0
 31
1.0
 12
100.0
 22
100.0
 32
0.0
 42
50.0
 43
0.0
 44
0.0
 50
0.0
 71
       0
  0
ENDTAB
  0
TABLE
  2
UCS
  5
6
100
AcDbSymbolTable
 70
       0
  0
ENDTAB
  0
TABLE
  2
APPID
  5
8
100
AcDbSymbolTable
 70
       1
  0
APPID
  5
16
100
AcDbSymbolTableRecord
100
AcDbRegAppTableRecord
  2
ACAD
 70
       0
  0
ENDTAB
  0
TABLE
  2
DIMSTYLE
  5
9
100
AcDbSymbolTable
 70
       1
  0
DIMSTYLE
105
18
100
AcDbSymbolTableRecord
100
AcDbDimStyleTableRecord
  2
STANDARD
 70
       0
  3

  4

  5

  6

  7

 40
1.0
 41
0.18
 42
0.0625
 43
0.38
 44
0.18
 45
0.0
 46
0.0
 47
0.0
 48
0.0
 71
       0
 72
       0
 73
       1
 74
       1
 75
       0
 76
       0
 77
       0
 78
       0
140
0.18
141
0.09
142
0.0
143
25.4
144
1.0
145
0.0
146
1.0
147
0.09
170
       0
171
       2
172
       0
173
       0
174
       0
175
       0
176
       0
177
       0
178
       0
270
       2
271
       4
272
       4
273
       2
274
       2
275
       0
280
       0
281
       0
282
       0
283
       1
284
       0
285
       0
286
       0
287
       3
288
       0
340
17
  0
ENDTAB
  0
TABLE
  2
BLOCK_RECORD
  5
1
100
AcDbSymbolTable
 70
      30
  0
BLOCK_RECORD
  5
A
100
AcDbSymbolTableRecord
100
AcDbBlockTableRecord
  2
*MODEL_SPACE
  0
BLOCK_RECORD
  5
B
100
AcDbSymbolTableRecord
100
AcDbBlockTableRecord
  2
*PAPER_SPACE
  0
BLOCK_RECORD
  5
3C
100
AcDbSymbolTableRecord
100
AcDbBlockTableRecord
  2
DA_IMAGEDIMGROUP_1
  0
BLOCK_RECORD
  5
3D
100
AcDbSymbolTableRecord
100
AcDbBlockTableRecord
  2
_OPEN30
  0
BLOCK_RECORD
  5
3E
100
AcDbSymbolTableRecord
100
AcDbBlockTableRecord
  2
DA_IMAGEDIMGROUP_2
  0
BLOCK_RECORD
  5
3F
100
AcDbSymbolTableRecord
100
AcDbBlockTableRecord
  2
DA_IMAGEDIMGROUP_3
  0
BLOCK_RECORD
  5
40
100
AcDbSymbolTableRecord
100
AcDbBlockTableRecord
  2
DA_IMAGEDIMGROUP_4
  0
BLOCK_RECORD
  5
41
100
AcDbSymbolTableRecord
100
AcDbBlockTableRecord
  2
DA_IMAGEDIMGROUP_5
  0
BLOCK_RECORD
  5
42
100
AcDbSymbolTableRecord
100
AcDbBlockTableRecord
  2
DA_IMAGEDIMGROUP_6
  0
BLOCK_RECORD
  5
43
100
AcDbSymbolTableRecord
100
AcDbBlockTableRecord
  2
DA_IMAGEDIMGROUP_7
  0
BLOCK_RECORD
  5
44
100
AcDbSymbolTableRecord
100
AcDbBlockTableRecord
  2
DA_IMAGEDIMGROUP_8
  0
BLOCK_RECORD
  5
45
100
AcDbSymbolTableRecord
100
AcDbBlockTableRecord
  2
DA_IMAGEDIMGROUP_9
  0
BLOCK_RECORD
  5
46
100
AcDbSymbolTableRecord
100
AcDbBlockTableRecord
  2
DA_IMAGEDIMGROUP_10
  0
BLOCK_RECORD
  5
47
100
AcDbSymbolTableRecord
100
AcDbBlockTableRecord
  2
_ORIGIN
  0
BLOCK_RECORD
  5
48
100
AcDbSymbolTableRecord
100
AcDbBlockTableRecord
  2
_DOT
  0
BLOCK_RECORD
  5
49
100
AcDbSymbolTableRecord
100
AcDbBlockTableRecord
  2
DA_IMAGEDIMGROUP_11
  0
BLOCK_RECORD
  5
4A
100
AcDbSymbolTableRecord
100
AcDbBlockTableRecord
  2
DA_IMAGEDIMGROUP_12
  0
BLOCK_RECORD
  5
4B
100
AcDbSymbolTableRecord
100
AcDbBlockTableRecord
  2
DA_IMAGEDIMGROUP_13
  0
BLOCK_RECORD
  5
4C
100
AcDbSymbolTableRecord
100
AcDbBlockTableRecord
  2
DA_IMAGEDIMGROUP_14
  0
BLOCK_RECORD
  5
4D
100
AcDbSymbolTableRecord
100
AcDbBlockTableRecord
  2
DA_IMAGEDIMGROUP_15
  0
BLOCK_RECORD
  5
4E
100
AcDbSymbolTableRecord
100
AcDbBlockTableRecord
  2
DA_IMAGEDIMGROUP_16
  0
BLOCK_RECORD
  5
4F
100
AcDbSymbolTableRecord
100
AcDbBlockTableRecord
  2
DA_IMAGEDIMGROUP_17
  0
BLOCK_RECORD
  5
50
100
AcDbSymbolTableRecord
100
AcDbBlockTableRecord
  2
DA_IMAGEDIMGROUP_18
  0
BLOCK_RECORD
  5
51
100
AcDbSymbolTableRecord
100
AcDbBlockTableRecord
  2
DA_IMAGEDIMGROUP_19
  0
BLOCK_RECORD
  5
52
100
AcDbSymbolTableRecord
100
AcDbBlockTableRecord
  2
DA_IMAGEDIMGROUP_20
  0
BLOCK_RECORD
  5
53
100
AcDbSymbolTableRecord
100
AcDbBlockTableRecord
  2
DA_IMAGEDIMGROUP_21
  0
BLOCK_RECORD
  5
54
100
AcDbSymbolTableRecord
100
AcDbBlockTableRecord
  2
DA_IMAGEDIMGROUP_22
  0
BLOCK_RECORD
  5
55
100
AcDbSymbolTableRecord
100
AcDbBlockTableRecord
  2
DA_IMAGEDIMGROUP_23
  0
BLOCK_RECORD
  5
56
100
AcDbSymbolTableRecord
100
AcDbBlockTableRecord
  2
DA_IMAGEDIMGROUP_24
  0
BLOCK_RECORD
  5
57
100
AcDbSymbolTableRecord
100
AcDbBlockTableRecord
  2
DA_IMAGEDIMGROUP_25
  0
BLOCK_RECORD
  5
58
100
AcDbSymbolTableRecord
100
AcDbBlockTableRecord
  2
DA_IMAGEDIMGROUP_26
  0
BLOCK_RECORD
  5
59
100
AcDbSymbolTableRecord
100
AcDbBlockTableRecord
  2
DA_IMAGEDIMGROUP_27
  0
ENDTAB
  0
ENDSEC
  0
SECTION
  2
BLOCKS
  0
BLOCK
  5
D
100
AcDbEntity
  8
0
100
AcDbBlockBegin
  2
*MODEL_SPACE
 70
       0
 10
0.0
 20
0.0
 30
0.0
  3
*MODEL_SPACE
  1

  0
ENDBLK
  5
E
100
AcDbEntity
  8
0
100
AcDbBlockEnd
  0
BLOCK
  5
F
100
AcDbEntity
 67
       1
  8
0
100
AcDbBlockBegin
  2
*PAPER_SPACE
 70
       0
 10
0.0
 20
0.0
 30
0.0
  3
*PAPER_SPACE
  1

  0
ENDBLK
  5
10
100
AcDbEntity
 67
       1
  8
0
100
AcDbBlockEnd
  0
BLOCK
  5
5A
100
AcDbEntity
  8
0
100
AcDbBlockBegin
  2
DA_IMAGEDIMGROUP_1
 70
       0
 10
0.0
 20
0.0
 30
0.0
  3
DA_IMAGEDIMGROUP_1
  1

  0
LINE
  5
5B
100
AcDbEntity
  8
0
  6
CONTINUOUS
 62
       7
100
AcDbLine
 10
-342.4747709
 20
753.79478938
 30
0.0
 11
-322.04905646
 21
782.21643939
 31
0.0
  0
LINE
  5
5C
100
AcDbEntity
  8
0
  6
CONTINUOUS
 62
       7
100
AcDbLine
 10
-177.50931401
 20
983.33831364
 30
0.0
 11
-322.04905646
 21
782.21643939
 31
0.0
  0
INSERT
  5
5D
100
AcDbEntity
  8
0
  6
CONTINUOUS
 62
       7
100
AcDbBlockReference
  2
_OPEN30
 10
-322.04905646
 20
782.21643939
 30
0.0
 41
30.00002788
 42
29.99989274
 50
234.29642777
  0
LINE
  5
5E
100
AcDbEntity
  8
0
  6
CONTINUOUS
 62
       7
100
AcDbLine
 10
-371.65436297
 20
713.19243223
 30
0.0
 11
-342.4747709
 21
753.79478938
 31
0.0
  0
INSERT
  5
5F
100
AcDbEntity
  8
0
  6
CONTINUOUS
 62
       7
100
AcDbBlockReference
  2
_OPEN30
 10
-342.4747709
 20
753.79478938
 30
0.0
 41
30.00002788
 42
29.99989274
 50
54.29642777
  0
TEXT
  5
60
100
AcDbEntity
  8
0
 62
       7
100
AcDbText
 10
-247.49052062
 20
903.09723488
 30
0.0
 40
40.0
  1
φ35
 50
54.29642777
 41
0.8
 72
       5
 11
-191.46570385
 21
981.05376062
 31
0.0
100
AcDbText
  0
ENDBLK
  5
61
100
AcDbEntity
  8
0
100
AcDbBlockEnd
  0
BLOCK
  5
62
100
AcDbEntity
  8
0
100
AcDbBlockBegin
  2
_OPEN30
 70
       0
 10
0.0
 20
0.0
 30
0.0
  3
_OPEN30
  1

  0
LINE
  5
63
100
AcDbEntity
  8
0
  6
CONTINUOUS
 62
       0
100
AcDbLine
 10
0.0
 20
0.0
 30
0.0
 11
-0.96592583
 21
0.25881905
 31
0.0
  0
LINE
  5
64
100
AcDbEntity
  8
0
  6
CONTINUOUS
 62
       0
100
AcDbLine
 10
0.0
 20
0.0
 30
0.0
 11
-0.96592583
 21
-0.25881905
 31
0.0
  0
LINE
  5
65
100
AcDbEntity
  8
0
  6
CONTINUOUS
 62
       0
100
AcDbLine
 10
0.0
 20
0.0
 30
0.0
 11
-1.0
 21
0.0
 31
0.0
  0
ENDBLK
  5
66
100
AcDbEntity
  8
0
100
AcDbBlockEnd
  0
BLOCK
  5
67
100
AcDbEntity
  8
0
100
AcDbBlockBegin
  2
DA_IMAGEDIMGROUP_2
 70
       0
 10
0.0
 20
0.0
 30
0.0
  3
DA_IMAGEDIMGROUP_2
  1

  0
LINE
  5
68
100
AcDbEntity
  8
0
  6
CONTINUOUS
 62
       7
100
AcDbLine
 10
-299.55198635
 20
664.24380296
 30
0.0
 11
-364.97184101
 21
621.76742582
 31
0.0
  0
LINE
  5
69
100
AcDbEntity
  8
0
  6
CONTINUOUS
 62
       7
100
AcDbLine
 10
-479.5552333
 20
547.36971566
 30
0.0
 11
-364.97184101
 21
621.76742582
 31
0.0
  0
INSERT
  5
6A
100
AcDbEntity
  8
0
  6
CONTINUOUS
 62
       7
100
AcDbBlockReference
  2
_OPEN30
 10
-364.97184101
 20
621.76742582
 30
0.0
 41
30.00002788
 42
29.99989274
 50
32.99521127
  0
LINE
  5
6B
100
AcDbEntity
  8
0
  6
CONTINUOUS
 62
       7
100
AcDbLine
 10
-274.39050378
 20
680.5808711
 30
0.0
 11
-299.55198635
 21
664.24380296
 31
0.0
  0
INSERT
  5
6C
100
AcDbEntity
  8
0
  6
CONTINUOUS
 62
       7
100
AcDbBlockReference
  2
_OPEN30
 10
-299.55198635
 20
664.24380296
 30
0.0
 41
30.00002788
 42
29.99989274
 50
212.99521127
  0
TEXT
  5
6D
100
AcDbEntity
  8
0
 62
       7
100
AcDbText
 10
-474.43548607
 20
557.84770155
 30
0.0
 40
40.0
  1
φ78
 50
32.99521127
 41
0.8
 72
       5
 11
-393.91874187
 21
610.12631958
 31
0.0
100
AcDbText
  0
ENDBLK
  5
6E
100
AcDbEntity
  8
0
100
AcDbBlockEnd
  0
BLOCK
  5
6F
100
AcDbEntity
  8
0
100
AcDbBlockBegin
  2
DA_IMAGEDIMGROUP_3
 70
       0
 10
0.0
 20
0.0
 30
0.0
  3
DA_IMAGEDIMGROUP_3
  1

  0
LINE
  5
70
100
AcDbEntity
  8
0
  6
CONTINUOUS
 62
       7
100
AcDbLine
 10
-349.62345315
 20
658.84313147
 30
0.0
 11
-314.90037421
 21
627.16809731
 31
0.0
  0
LINE
  5
71
100
AcDbEntity
  8
0
  6
CONTINUOUS
 62
       7
100
AcDbLine
 10
-214.62219923
 20
535.69249331
 30
0.0
 11
-314.90037421
 21
627.16809731
 31
0.0
  0
INSERT
  5
72
100
AcDbEntity
  8
0
  6
CONTINUOUS
 62
       7
100
AcDbBlockReference
  2
_OPEN30
 10
-314.90037421
 20
627.16809731
 30
0.0
 41
30.00002788
 42
29.99989274
 50
137.62835152
  0
LINE
  5
73
100
AcDbEntity
  8
0
  6
CONTINUOUS
 62
       7
100
AcDbLine
 10
-371.78712055
 20
679.06123838
 30
0.0
 11
-349.62345315
 21
658.84313147
 31
0.0
  0
INSERT
  5
74
100
AcDbEntity
  8
0
  6
CONTINUOUS
 62
       7
100
AcDbBlockReference
  2
_OPEN30
 10
-349.62345315
 20
658.84313147
 30
0.0
 41
30.00002788
 42
29.99989274
 50
317.62835152
  0
TEXT
  5
75
100
AcDbEntity
  8
0
 62
       7
100
AcDbText
 10
-288.89020268
 20
611.56253788
 30
0.0
 40
40.0
  1
φ47
 50
-42.37164848
 41
0.8
 72
       5
 11
-217.96646699
 21
546.86459576
 31
0.0
100
AcDbText
  0
ENDBLK
  5
76
100
AcDbEntity
  8
0
100
AcDbBlockEnd
  0
BLOCK
  5
77
100
AcDbEntity
  8
0
100
AcDbBlockBegin
  2
DA_IMAGEDIMGROUP_4
 70
       0
 10
0.0
 20
0.0
 30
0.0
  3
DA_IMAGEDIMGROUP_4
  1

  0
LINE
  5
78
100
AcDbEntity
  8
0
  6
CONTINUOUS
 62
       7
100
AcDbLine
 10
-785.00588805
 20
643.00561439
 30
0.0
 11
-785.00588805
 21
878.00561439
 31
0.0
  0
INSERT
  5
79
100
AcDbEntity
  8
0
  6
CONTINUOUS
 62
       7
100
AcDbBlockReference
  2
_OPEN30
 10
-785.00588805
 20
643.00561439
 30
0.0
 41
30.00002788
 42
29.99989274
 50
270.0
  0
INSERT
  5
7A
100
AcDbEntity
  8
0
  6
CONTINUOUS
 62
       7
100
AcDbBlockReference
  2
_OPEN30
 10
-785.00588805
 20
878.00561439
 30
0.0
 41
30.00002788
 42
29.99989274
 50
90.0
  0
LINE
  5
7B
100
AcDbEntity
  8
0
  6
CONTINUOUS
 62
       7
100
AcDbLine
 10
-408.81394988
 20
643.00561439
 30
0.0
 11
-795.00588805
 21
643.00561439
 31
0.0
  0
LINE
  5
7C
100
AcDbEntity
  8
0
  6
CONTINUOUS
 62
       7
100
AcDbLine
 10
-628.26191368
 20
878.00561439
 30
0.0
 11
-795.00588805
 21
878.00561439
 31
0.0
  0
TEXT
  5
7D
100
AcDbEntity
  8
0
 62
       7
100
AcDbText
 10
-791.00588805
 20
712.50561439
 30
0.0
 40
40.0
  1
235
 50
90.0
 41
0.8
 72
       5
 11
-791.00588805
 21
808.50561439
 31
0.0
100
AcDbText
  0
ENDBLK
  5
7E
100
AcDbEntity
  8
0
100
AcDbBlockEnd
  0
BLOCK
  5
7F
100
AcDbEntity
  8
0
100
AcDbBlockBegin
  2
DA_IMAGEDIMGROUP_5
 70
       0
 10
0.0
 20
0.0
 30
0.0
  3
DA_IMAGEDIMGROUP_5
  1

  0
LINE
  5
80
100
AcDbEntity
  8
0
  6
CONTINUOUS
 62
       7
100
AcDbLine
 10
280.61388766
 20
353.00561439
 30
0.0
 11
280.61388766
 21
878.00561439
 31
0.0
  0
INSERT
  5
81
100
AcDbEntity
  8
0
  6
CONTINUOUS
 62
       7
100
AcDbBlockReference
  2
_OPEN30
 10
280.61388766
 20
353.00561439
 30
0.0
 41
30.00002788
 42
29.99989274
 50
270.0
  0
INSERT
  5
82
100
AcDbEntity
  8
0
  6
CONTINUOUS
 62
       7
100
AcDbBlockReference
  2
_OPEN30
 10
280.61388766
 20
878.00561439
 30
0.0
 41
30.00002788
 42
29.99989274
 50
90.0
  0
LINE
  5
83
100
AcDbEntity
  8
0
  6
CONTINUOUS
 62
       7
100
AcDbLine
 10
-36.26191368
 20
353.00561439
 30
0.0
 11
290.61388766
 21
353.00561439
 31
0.0
  0
LINE
  5
84
100
AcDbEntity
  8
0
  6
CONTINUOUS
 62
       7
100
AcDbLine
 10
-36.26191368
 20
878.00561439
 30
0.0
 11
290.61388766
 21
878.00561439
 31
0.0
  0
TEXT
  5
85
100
AcDbEntity
  8
0
 62
       7
100
AcDbText
 10
274.61388766
 20
567.50561439
 30
0.0
 40
40.0
  1
525
 50
90.0
 41
0.8
 72
       5
 11
274.61388766
 21
663.50561439
 31
0.0
100
AcDbText
  0
ENDBLK
  5
86
100
AcDbEntity
  8
0
100
AcDbBlockEnd
  0
BLOCK
  5
87
100
AcDbEntity
  8
0
100
AcDbBlockBegin
  2
DA_IMAGEDIMGROUP_6
 70
       0
 10
0.0
 20
0.0
 30
0.0
  3
DA_IMAGEDIMGROUP_6
  1

  0
LINE
  5
88
100
AcDbEntity
  8
0
  6
CONTINUOUS
 62
       7
100
AcDbLine
 10
-579.76191368
 20
427.00561439
 30
0.0
 11
-579.76191368
 21
255.97509959
 31
0.0
  0
LINE
  5
89
100
AcDbEntity
  8
0
  6
CONTINUOUS
 62
       7
100
AcDbLine
 10
-84.76191368
 20
427.00561439
 30
0.0
 11
-84.76191368
 21
255.97509959
 31
0.0
  0
LINE
  5
8A
100
AcDbEntity
  8
0
  6
CONTINUOUS
 62
       7
100
AcDbLine
 10
-579.76191368
 20
261.97509959
 30
0.0
 11
-84.76191368
 21
261.97509959
 31
0.0
  0
INSERT
  5
8B
100
AcDbEntity
  8
0
  6
CONTINUOUS
 62
       7
100
AcDbBlockReference
  2
_OPEN30
 10
-579.76191368
 20
261.97509959
 30
0.0
 41
30.00002788
 42
29.99989274
 50
180.0
  0
INSERT
  5
8C
100
AcDbEntity
  8
0
  6
CONTINUOUS
 62
       7
100
AcDbBlockReference
  2
_OPEN30
 10
-84.76191368
 20
261.97509959
 30
0.0
 41
30.00002788
 42
29.99989274
 50
360.0
  0
TEXT
  5
8D
100
AcDbEntity
  8
0
 62
       7
100
AcDbText
 10
-380.26191368
 20
267.97509959
 30
0.0
 40
40.0
  1
495
 41
0.8
 72
       5
 11
-284.26191368
 21
267.97509959
 31
0.0
100
AcDbText
  0
ENDBLK
  5
8E
100
AcDbEntity
  8
0
100
AcDbBlockEnd
  0
BLOCK
  5
8F
100
AcDbEntity
  8
0
100
AcDbBlockBegin
  2
DA_IMAGEDIMGROUP_7
 70
       0
 10
0.0
 20
0.0
 30
0.0
  3
DA_IMAGEDIMGROUP_7
  1

  0
LINE
  5
90
100
AcDbEntity
  8
0
  6
CONTINUOUS
 62
       7
100
AcDbLine
 10
-647.26191368
 20
88.82284844
 30
0.0
 11
-17.26191368
 21
88.82284844
 31
0.0
  0
INSERT
  5
91
100
AcDbEntity
  8
0
  6
CONTINUOUS
 62
       7
100
AcDbBlockReference
  2
_OPEN30
 10
-647.26191368
 20
88.82284844
 30
0.0
 41
30.00002788
 42
29.99989274
 50
180.0
  0
INSERT
  5
92
100
AcDbEntity
  8
0
  6
CONTINUOUS
 62
       7
100
AcDbBlockReference
  2
_OPEN30
 10
-17.26191368
 20
88.82284844
 30
0.0
 41
30.00002788
 42
29.99989274
 50
360.0
  0
LINE
  5
93
100
AcDbEntity
  8
0
  6
CONTINUOUS
 62
       7
100
AcDbLine
 10
-647.26191368
 20
372.00561439
 30
0.0
 11
-647.26191368
 21
78.82284844
 31
0.0
  0
LINE
  5
94
100
AcDbEntity
  8
0
  6
CONTINUOUS
 62
       7
100
AcDbLine
 10
-17.26191368
 20
372.00561439
 30
0.0
 11
-17.26191368
 21
78.82284844
 31
0.0
  0
TEXT
  5
95
100
AcDbEntity
  8
0
 62
       7
100
AcDbText
 10
-380.26191368
 20
94.82284844
 30
0.0
 40
40.0
  1
630
 41
0.8
 72
       5
 11
-284.26191368
 21
94.82284844
 31
0.0
100
AcDbText
  0
ENDBLK
  5
96
100
AcDbEntity
  8
0
100
AcDbBlockEnd
  0
BLOCK
  5
97
100
AcDbEntity
  8
0
100
AcDbBlockBegin
  2
DA_IMAGEDIMGROUP_8
 70
       0
 10
0.0
 20
0.0
 30
0.0
  3
DA_IMAGEDIMGROUP_8
  1

  0
LINE
  5
98
100
AcDbEntity
  8
0
  6
CONTINUOUS
 62
       7
100
AcDbLine
 10
301.13337506
 20
-389.43802377
 30
0.0
 11
326.13337506
 21
-389.43802377
 31
0.0
  0
LINE
  5
99
100
AcDbEntity
  8
0
  6
CONTINUOUS
 62
       7
100
AcDbLine
 10
796.13337506
 20
-389.43802377
 30
0.0
 11
826.13337506
 21
-389.43802377
 31
0.0
  0
LINE
  5
9A
100
AcDbEntity
  8
0
  6
CONTINUOUS
 62
       7
100
AcDbLine
 10
301.13337506
 20
-155.04090288
 30
0.0
 11
301.13337506
 21
-395.43802377
 31
0.0
  0
LINE
  5
9B
100
AcDbEntity
  8
0
  6
CONTINUOUS
 62
       7
100
AcDbLine
 10
326.13337506
 20
-155.04090288
 30
0.0
 11
326.13337506
 21
-395.43802377
 31
0.0
  0
LINE
  5
9C
100
AcDbEntity
  8
0
  6
CONTINUOUS
 62
       7
100
AcDbLine
 10
796.13337506
 20
-155.04090288
 30
0.0
 11
796.13337506
 21
-395.43802377
 31
0.0
  0
LINE
  5
9D
100
AcDbEntity
  8
0
  6
CONTINUOUS
 62
       7
100
AcDbLine
 10
826.13337506
 20
-155.04090288
 30
0.0
 11
826.13337506
 21
-395.43802377
 31
0.0
  0
LINE
  5
9E
100
AcDbEntity
  8
0
  6
CONTINUOUS
 62
       7
100
AcDbLine
 10
203.74669506
 20
-389.43802377
 30
0.0
 11
301.13337506
 21
-389.43802377
 31
0.0
  0
INSERT
  5
9F
100
AcDbEntity
  8
0
  6
CONTINUOUS
 62
       7
100
AcDbBlockReference
  2
_OPEN30
 10
301.13337506
 20
-389.43802377
 30
0.0
 41
30.00002788
 42
29.99989274
 50
360.0
  0
LINE
  5
A0
100
AcDbEntity
  8
0
  6
CONTINUOUS
 62
       7
100
AcDbLine
 10
923.52005506
 20
-389.43802377
 30
0.0
 11
826.13337506
 21
-389.43802377
 31
0.0
  0
INSERT
  5
A1
100
AcDbEntity
  8
0
  6
CONTINUOUS
 62
       7
100
AcDbBlockReference
  2
_OPEN30
 10
826.13337506
 20
-389.43802377
 30
0.0
 41
30.00002788
 42
29.99989274
 50
180.0
  0
LINE
  5
A2
100
AcDbEntity
  8
0
  6
CONTINUOUS
 62
       7
100
AcDbLine
 10
326.13337506
 20
-389.43802377
 30
0.0
 11
796.13337506
 21
-389.43802377
 31
0.0
  0
INSERT
  5
A3
100
AcDbEntity
  8
0
  6
CONTINUOUS
 62
       7
100
AcDbBlockReference
  2
_OPEN30
 10
326.13337506
 20
-389.43802377
 30
0.0
 41
30.00002788
 42
29.99989274
 50
180.0
  0
INSERT
  5
A4
100
AcDbEntity
  8
0
  6
CONTINUOUS
 62
       7
100
AcDbBlockReference
  2
_OPEN30
 10
796.13337506
 20
-389.43802377
 30
0.0
 41
30.00002788
 42
29.99989274
 50
360.0
  0
TEXT
  5
A5
100
AcDbEntity
  8
0
 62
       7
100
AcDbText
 10
213.74669506
 20
-383.43802377
 30
0.0
 40
40.0
  1
25
 41
0.8
 72
       5
 11
277.74669506
 21
-383.43802377
 31
0.0
100
AcDbText
  0
TEXT
  5
A6
100
AcDbEntity
  8
0
 62
       7
100
AcDbText
 10
513.13337506
 20
-383.43802377
 30
0.0
 40
40.0
  1
470
 41
0.8
 72
       5
 11
609.13337506
 21
-383.43802377
 31
0.0
100
AcDbText
  0
TEXT
  5
A7
100
AcDbEntity
  8
0
 62
       7
100
AcDbText
 10
849.52005506
 20
-383.43802377
 30
0.0
 40
40.0
  1
30
 41
0.8
 72
       5
 11
913.52005506
 21
-383.43802377
 31
0.0
100
AcDbText
  0
ENDBLK
  5
A8
100
AcDbEntity
  8
0
100
AcDbBlockEnd
  0
BLOCK
  5
A9
100
AcDbEntity
  8
0
100
AcDbBlockBegin
  2
DA_IMAGEDIMGROUP_9
 70
       0
 10
0.0
 20
0.0
 30
0.0
  3
DA_IMAGEDIMGROUP_9
  1

  0
LINE
  5
AA
100
AcDbEntity
  8
0
  6
CONTINUOUS
 62
       7
100
AcDbLine
 10
-622.26191368
 20
-155.04090288
 30
0.0
 11
-622.26191368
 21
-395.43802377
 31
0.0
  0
LINE
  5
AB
100
AcDbEntity
  8
0
  6
CONTINUOUS
 62
       7
100
AcDbLine
 10
-42.26191368
 20
-155.04090288
 30
0.0
 11
-42.26191368
 21
-395.43802377
 31
0.0
  0
LINE
  5
AC
100
AcDbEntity
  8
0
  6
CONTINUOUS
 62
       7
100
AcDbLine
 10
-622.26191368
 20
-389.43802377
 30
0.0
 11
-42.26191368
 21
-389.43802377
 31
0.0
  0
INSERT
  5
AD
100
AcDbEntity
  8
0
  6
CONTINUOUS
 62
       7
100
AcDbBlockReference
  2
_OPEN30
 10
-622.26191368
 20
-389.43802377
 30
0.0
 41
30.00002788
 42
29.99989274
 50
180.0
  0
INSERT
  5
AE
100
AcDbEntity
  8
0
  6
CONTINUOUS
 62
       7
100
AcDbBlockReference
  2
_OPEN30
 10
-42.26191368
 20
-389.43802377
 30
0.0
 41
30.00002788
 42
29.99989274
 50
360.0
  0
TEXT
  5
AF
100
AcDbEntity
  8
0
 62
       7
100
AcDbText
 10
-380.26191368
 20
-383.43802377
 30
0.0
 40
40.0
  1
580
 41
0.8
 72
       5
 11
-284.26191368
 21
-383.43802377
 31
0.0
100
AcDbText
  0
ENDBLK
  5
B0
100
AcDbEntity
  8
0
100
AcDbBlockEnd
  0
BLOCK
  5
B1
100
AcDbEntity
  8
0
100
AcDbBlockBegin
  2
DA_IMAGEDIMGROUP_10
 70
       0
 10
0.0
 20
0.0
 30
0.0
  3
DA_IMAGEDIMGROUP_10
  1

  0
LINE
  5
B2
100
AcDbEntity
  8
0
  6
CONTINUOUS
 62
       7
100
AcDbLine
 10
-785.00588805
 20
-149.04090288
 30
0.0
 11
-785.00588805
 21
-141.04090288
 31
0.0
  0
INSERT
  5
B3
100
AcDbEntity
  8
0
  6
CONTINUOUS
 62
       7
100
AcDbBlockReference
  2
_DOT
 10
-785.00588805
 20
-141.04090288
 30
0.0
 41
25.0
 42
25.0
 50
90.0
  0
LINE
  5
B4
100
AcDbEntity
  8
0
  6
CONTINUOUS
 62
       7
100
AcDbLine
 10
-785.00588805
 20
-214.42758288
 30
0.0
 11
-785.00588805
 21
-149.04090288
 31
0.0
  0
INSERT
  5
B5
100
AcDbEntity
  8
0
  6
CONTINUOUS
 62
       7
100
AcDbBlockReference
  2
_OPEN30
 10
-785.00588805
 20
-149.04090288
 30
0.0
 41
30.00002788
 42
29.99989274
 50
90.0
  0
LINE
  5
B6
100
AcDbEntity
  8
0
  6
CONTINUOUS
 62
       7
100
AcDbLine
 10
-785.00588805
 20
-20.65422288
 30
0.0
 11
-785.00588805
 21
-118.04090288
 31
0.0
  0
INSERT
  5
B7
100
AcDbEntity
  8
0
  6
CONTINUOUS
 62
       7
100
AcDbBlockReference
  2
_OPEN30
 10
-785.00588805
 20
-118.04090288
 30
0.0
 41
30.00002788
 42
29.99989274
 50
270.0
  0
LINE
  5
B8
100
AcDbEntity
  8
0
  6
CONTINUOUS
 62
       7
100
AcDbLine
 10
-785.00588805
 20
-141.04090288
 30
0.0
 11
-785.00588805
 21
-133.04090288
 31
0.0
  0
INSERT
  5
B9
100
AcDbEntity
  8
0
  6
CONTINUOUS
 62
       7
100
AcDbBlockReference
  2
_DOT
 10
-785.00588805
 20
-141.04090288
 30
0.0
 41
25.0
 42
25.0
 50
270.0
  0
INSERT
  5
BA
100
AcDbEntity
  8
0
  6
CONTINUOUS
 62
       7
100
AcDbBlockReference
  2
_DOT
 10
-785.00588805
 20
-133.04090288
 30
0.0
 41
25.0
 42
25.0
 50
90.0
  0
LINE
  5
BB
100
AcDbEntity
  8
0
  6
CONTINUOUS
 62
       7
100
AcDbLine
 10
-785.00588805
 20
-133.04090288
 30
0.0
 11
-785.00588805
 21
-118.04090288
 31
0.0
  0
LINE
  5
BC
100
AcDbEntity
  8
0
  6
CONTINUOUS
 62
       7
100
AcDbLine
 10
-688.4834258
 20
-149.04090288
 30
0.0
 11
-795.00588805
 21
-149.04090288
 31
0.0
  0
LINE
  5
BD
100
AcDbEntity
  8
0
  6
CONTINUOUS
 62
       7
100
AcDbLine
 10
-648.26191368
 20
-141.04090288
 30
0.0
 11
-795.00588805
 21
-141.04090288
 31
0.0
  0
LINE
  5
BE
100
AcDbEntity
  8
0
  6
CONTINUOUS
 62
       7
100
AcDbLine
 10
-640.76191368
 20
-133.04090288
 30
0.0
 11
-795.00588805
 21
-133.04090288
 31
0.0
  0
LINE
  5
BF
100
AcDbEntity
  8
0
  6
CONTINUOUS
 62
       7
100
AcDbLine
 10
-633.26191368
 20
-118.04090288
 30
0.0
 11
-795.00588805
 21
-118.04090288
 31
0.0
  0
TEXT
  5
C0
100
AcDbEntity
  8
0
 62
       7
100
AcDbText
 10
-791.00588805
 20
-204.42758288
 30
0.0
 40
40.0
  1
8
 50
90.0
 41
0.8
 72
       5
 11
-791.00588805
 21
-172.42758288
 31
0.0
100
AcDbText
  0
TEXT
  5
C1
100
AcDbEntity
  8
0
 62
       7
100
AcDbText
 10
-791.00588805
 20
-153.04090288
 30
0.0
 40
40.0
  1
8
 50
90.0
 41
0.8
 72
       5
 11
-791.00588805
 21
-121.04090288
 31
0.0
100
AcDbText
  0
TEXT
  5
C2
100
AcDbEntity
  8
0
 62
       7
100
AcDbText
 10
-791.00588805
 20
-94.65422288
 30
0.0
 40
40.0
  1
15
 50
90.0
 41
0.8
 72
       5
 11
-791.00588805
 21
-30.65422288
 31
0.0
100
AcDbText
  0
ENDBLK
  5
C3
100
AcDbEntity
  8
0
100
AcDbBlockEnd
  0
BLOCK
  5
C4
100
AcDbEntity
  8
0
100
AcDbBlockBegin
  2
_ORIGIN
 70
       0
 10
0.0
 20
0.0
 30
0.0
  3
_ORIGIN
  1

  0
CIRCLE
  5
C5
100
AcDbEntity
  8
0
  6
CONTINUOUS
 62
       0
100
AcDbCircle
 10
0.0
 20
0.0
 30
0.0
 40
0.5
  0
ENDBLK
  5
C6
100
AcDbEntity
  8
0
100
AcDbBlockEnd
  0
BLOCK
  5
C7
100
AcDbEntity
  8
0
100
AcDbBlockBegin
  2
_DOT
 70
       0
 10
0.0
 20
0.0
 30
0.0
  3
_DOT
  1

  0
HATCH
  5
C8
100
AcDbEntity
  8
0
  6
CONTINUOUS
 62
       0
100
AcDbHatch
 10
0.0
 20
0.0
 30
0.0
210
0.0
220
0.0
230
1.0
  2
SOLID
 70
       1
 71
       1
 91
        1
 92
        1
 93
        1
 72
       2
 10
0.0
 20
0.0
 40
0.5
 50
0.0
 51
360.0
 73
       1
 97
        0
 75
       0
 76
       1
 98
        0
  0
ENDBLK
  5
C9
100
AcDbEntity
  8
0
100
AcDbBlockEnd
  0
BLOCK
  5
CA
100
AcDbEntity
  8
0
100
AcDbBlockBegin
  2
DA_IMAGEDIMGROUP_11
 70
       0
 10
0.0
 20
0.0
 30
0.0
  3
DA_IMAGEDIMGROUP_11
  1

  0
LINE
  5
CB
100
AcDbEntity
  8
0
  6
CONTINUOUS
 62
       7
100
AcDbLine
 10
-632.26191368
 20
203.23872101
 30
0.0
 11
-32.26191368
 21
203.23872101
 31
0.0
  0
INSERT
  5
CC
100
AcDbEntity
  8
0
  6
CONTINUOUS
 62
       7
100
AcDbBlockReference
  2
_OPEN30
 10
-632.26191368
 20
203.23872101
 30
0.0
 41
30.00002788
 42
29.99989274
 50
180.0
  0
INSERT
  5
CD
100
AcDbEntity
  8
0
  6
CONTINUOUS
 62
       7
100
AcDbBlockReference
  2
_OPEN30
 10
-32.26191368
 20
203.23872101
 30
0.0
 41
30.00002788
 42
29.99989274
 50
360.0
  0
LINE
  5
CE
100
AcDbEntity
  8
0
  6
CONTINUOUS
 62
       7
100
AcDbLine
 10
-632.26191368
 20
372.00561439
 30
0.0
 11
-632.26191368
 21
193.23872101
 31
0.0
  0
LINE
  5
CF
100
AcDbEntity
  8
0
  6
CONTINUOUS
 62
       7
100
AcDbLine
 10
-32.26191368
 20
372.00561439
 30
0.0
 11
-32.26191368
 21
193.23872101
 31
0.0
  0
TEXT
  5
D0
100
AcDbEntity
  8
0
 62
       7
100
AcDbText
 10
-380.26191368
 20
209.23872101
 30
0.0
 40
40.0
  1
600
 41
0.8
 72
       5
 11
-284.26191368
 21
209.23872101
 31
0.0
100
AcDbText
  0
ENDBLK
  5
D1
100
AcDbEntity
  8
0
100
AcDbBlockEnd
  0
BLOCK
  5
D2
100
AcDbEntity
  8
0
100
AcDbBlockBegin
  2
DA_IMAGEDIMGROUP_12
 70
       0
 10
0.0
 20
0.0
 30
0.0
  3
DA_IMAGEDIMGROUP_12
  1

  0
LINE
  5
D3
100
AcDbEntity
  8
0
  6
CONTINUOUS
 62
       7
100
AcDbLine
 10
-639.76191368
 20
149.04172874
 30
0.0
 11
-24.76191368
 21
149.04172874
 31
0.0
  0
INSERT
  5
D4
100
AcDbEntity
  8
0
  6
CONTINUOUS
 62
       7
100
AcDbBlockReference
  2
_OPEN30
 10
-639.76191368
 20
149.04172874
 30
0.0
 41
30.00002788
 42
29.99989274
 50
180.0
  0
INSERT
  5
D5
100
AcDbEntity
  8
0
  6
CONTINUOUS
 62
       7
100
AcDbBlockReference
  2
_OPEN30
 10
-24.76191368
 20
149.04172874
 30
0.0
 41
30.00002788
 42
29.99989274
 50
360.0
  0
LINE
  5
D6
100
AcDbEntity
  8
0
  6
CONTINUOUS
 62
       7
100
AcDbLine
 10
-639.76191368
 20
374.50561439
 30
0.0
 11
-639.76191368
 21
139.04172874
 31
0.0
  0
LINE
  5
D7
100
AcDbEntity
  8
0
  6
CONTINUOUS
 62
       7
100
AcDbLine
 10
-24.76191368
 20
374.50561439
 30
0.0
 11
-24.76191368
 21
139.04172874
 31
0.0
  0
TEXT
  5
D8
100
AcDbEntity
  8
0
 62
       7
100
AcDbText
 10
-380.26191368
 20
155.04172874
 30
0.0
 40
40.0
  1
615
 41
0.8
 72
       5
 11
-284.26191368
 21
155.04172874
 31
0.0
100
AcDbText
  0
ENDBLK
  5
D9
100
AcDbEntity
  8
0
100
AcDbBlockEnd
  0
BLOCK
  5
DA
100
AcDbEntity
  8
0
100
AcDbBlockBegin
  2
DA_IMAGEDIMGROUP_13
 70
       0
 10
0.0
 20
0.0
 30
0.0
  3
DA_IMAGEDIMGROUP_13
  1

  0
LINE
  5
DB
100
AcDbEntity
  8
0
  6
CONTINUOUS
 62
       7
100
AcDbLine
 10
161.4273231
 20
368.00561439
 30
0.0
 11
161.4273231
 21
863.00561439
 31
0.0
  0
INSERT
  5
DC
100
AcDbEntity
  8
0
  6
CONTINUOUS
 62
       7
100
AcDbBlockReference
  2
_OPEN30
 10
161.4273231
 20
368.00561439
 30
0.0
 41
30.00002788
 42
29.99989274
 50
270.0
  0
INSERT
  5
DD
100
AcDbEntity
  8
0
  6
CONTINUOUS
 62
       7
100
AcDbBlockReference
  2
_OPEN30
 10
161.4273231
 20
863.00561439
 30
0.0
 41
30.00002788
 42
29.99989274
 50
90.0
  0
LINE
  5
DE
100
AcDbEntity
  8
0
  6
CONTINUOUS
 62
       7
100
AcDbLine
 10
-36.26191368
 20
368.00561439
 30
0.0
 11
171.4273231
 21
368.00561439
 31
0.0
  0
LINE
  5
DF
100
AcDbEntity
  8
0
  6
CONTINUOUS
 62
       7
100
AcDbLine
 10
-36.26191368
 20
863.00561439
 30
0.0
 11
171.4273231
 21
863.00561439
 31
0.0
  0
TEXT
  5
E0
100
AcDbEntity
  8
0
 62
       7
100
AcDbText
 10
155.4273231
 20
567.50561439
 30
0.0
 40
40.0
  1
495
 50
90.0
 41
0.8
 72
       5
 11
155.4273231
 21
663.50561439
 31
0.0
100
AcDbText
  0
ENDBLK
  5
E1
100
AcDbEntity
  8
0
100
AcDbBlockEnd
  0
BLOCK
  5
E2
100
AcDbEntity
  8
0
100
AcDbBlockBegin
  2
DA_IMAGEDIMGROUP_14
 70
       0
 10
0.0
 20
0.0
 30
0.0
  3
DA_IMAGEDIMGROUP_14
  1

  0
LINE
  5
E3
100
AcDbEntity
  8
0
  6
CONTINUOUS
 62
       7
100
AcDbLine
 10
222.9024985
 20
360.50561439
 30
0.0
 11
222.9024985
 21
870.50561439
 31
0.0
  0
INSERT
  5
E4
100
AcDbEntity
  8
0
  6
CONTINUOUS
 62
       7
100
AcDbBlockReference
  2
_OPEN30
 10
222.9024985
 20
360.50561439
 30
0.0
 41
30.00002788
 42
29.99989274
 50
270.0
  0
INSERT
  5
E5
100
AcDbEntity
  8
0
  6
CONTINUOUS
 62
       7
100
AcDbBlockReference
  2
_OPEN30
 10
222.9024985
 20
870.50561439
 30
0.0
 41
30.00002788
 42
29.99989274
 50
90.0
  0
LINE
  5
E6
100
AcDbEntity
  8
0
  6
CONTINUOUS
 62
       7
100
AcDbLine
 10
-38.76191368
 20
360.50561439
 30
0.0
 11
232.9024985
 21
360.50561439
 31
0.0
  0
LINE
  5
E7
100
AcDbEntity
  8
0
  6
CONTINUOUS
 62
       7
100
AcDbLine
 10
-38.76191368
 20
870.50561439
 30
0.0
 11
232.9024985
 21
870.50561439
 31
0.0
  0
TEXT
  5
E8
100
AcDbEntity
  8
0
 62
       7
100
AcDbText
 10
216.9024985
 20
567.50561439
 30
0.0
 40
40.0
  1
510
 50
90.0
 41
0.8
 72
       5
 11
216.9024985
 21
663.50561439
 31
0.0
100
AcDbText
  0
ENDBLK
  5
E9
100
AcDbEntity
  8
0
100
AcDbBlockEnd
  0
BLOCK
  5
EA
100
AcDbEntity
  8
0
100
AcDbBlockBegin
  2
DA_IMAGEDIMGROUP_15
 70
       0
 10
0.0
 20
0.0
 30
0.0
  3
DA_IMAGEDIMGROUP_15
  1

  0
LINE
  5
EB
100
AcDbEntity
  8
0
  6
CONTINUOUS
 62
       7
100
AcDbLine
 10
-761.67096249
 20
960.88514686
 30
0.0
 11
-642.03344212
 21
868.30550534
 31
0.0
  0
INSERT
  5
EC
100
AcDbEntity
  8
0
  6
CONTINUOUS
 62
       7
100
AcDbBlockReference
  2
_OPEN30
 10
-642.03344212
 20
868.30550534
 30
0.0
 41
30.00002788
 42
29.99989274
 50
322.26605911
  0
TEXT
  5
ED
100
AcDbEntity
  8
0
 62
       7
100
AcDbText
 10
-803.86893464
 20
1001.1260607
 30
0.0
 40
40.0
  1
4-R25
 50
-37.73394089
 41
0.8
 72
       5
 11
-677.33115262
 21
903.20675861
 31
0.0
100
AcDbText
  0
ENDBLK
  5
EE
100
AcDbEntity
  8
0
100
AcDbBlockEnd
  0
BLOCK
  5
EF
100
AcDbEntity
  8
0
100
AcDbBlockBegin
  2
DA_IMAGEDIMGROUP_16
 70
       0
 10
0.0
 20
0.0
 30
0.0
  3
DA_IMAGEDIMGROUP_16
  1

  0
LINE
  5
F0
100
AcDbEntity
  8
0
  6
CONTINUOUS
 62
       7
100
AcDbLine
 10
106.57777349
 20
-258.04090288
 30
0.0
 11
106.57777349
 21
-118.04090288
 31
0.0
  0
INSERT
  5
F1
100
AcDbEntity
  8
0
  6
CONTINUOUS
 62
       7
100
AcDbBlockReference
  2
_OPEN30
 10
106.57777349
 20
-258.04090288
 30
0.0
 41
30.00002788
 42
29.99989274
 50
270.0
  0
INSERT
  5
F2
100
AcDbEntity
  8
0
  6
CONTINUOUS
 62
       7
100
AcDbBlockReference
  2
_OPEN30
 10
106.57777349
 20
-118.04090288
 30
0.0
 41
30.00002788
 42
29.99989274
 50
90.0
  0
LINE
  5
F3
100
AcDbEntity
  8
0
  6
CONTINUOUS
 62
       7
100
AcDbLine
 10
-326.26191368
 20
-258.04090288
 30
0.0
 11
116.57777349
 21
-258.04090288
 31
0.0
  0
LINE
  5
F4
100
AcDbEntity
  8
0
  6
CONTINUOUS
 62
       7
100
AcDbLine
 10
-31.26191368
 20
-118.04090288
 30
0.0
 11
116.57777349
 21
-118.04090288
 31
0.0
  0
TEXT
  5
F5
100
AcDbEntity
  8
0
 62
       7
100
AcDbText
 10
100.57777349
 20
-236.04090288
 30
0.0
 40
40.0
  1
140
 50
90.0
 41
0.8
 72
       5
 11
100.57777349
 21
-140.04090288
 31
0.0
100
AcDbText
  0
ENDBLK
  5
F6
100
AcDbEntity
  8
0
100
AcDbBlockEnd
  0
BLOCK
  5
F7
100
AcDbEntity
  8
0
100
AcDbBlockBegin
  2
DA_IMAGEDIMGROUP_17
 70
       0
 10
0.0
 20
0.0
 30
0.0
  3
DA_IMAGEDIMGROUP_17
  1

  0
LINE
  5
F8
100
AcDbEntity
  8
0
  6
CONTINUOUS
 62
       7
100
AcDbLine
 10
-341.01536694
 20
-166.96430224
 30
0.0
 11
-323.50846042
 21
-149.11750353
 31
0.0
  0
LINE
  5
F9
100
AcDbEntity
  8
0
  6
CONTINUOUS
 62
       7
100
AcDbLine
 10
-205.77203536
 20
-29.09525538
 30
0.0
 11
-323.50846042
 21
-149.11750353
 31
0.0
  0
INSERT
  5
FA
100
AcDbEntity
  8
0
  6
CONTINUOUS
 62
       7
100
AcDbBlockReference
  2
_OPEN30
 10
-323.50846042
 20
-149.11750353
 30
0.0
 41
30.00002788
 42
29.99989274
 50
225.55082735
  0
LINE
  5
FB
100
AcDbEntity
  8
0
  6
CONTINUOUS
 62
       7
100
AcDbLine
 10
-362.02365476
 20
-188.38046068
 30
0.0
 11
-341.01536694
 21
-166.96430224
 31
0.0
  0
INSERT
  5
FC
100
AcDbEntity
  8
0
  6
CONTINUOUS
 62
       7
100
AcDbBlockReference
  2
_OPEN30
 10
-341.01536694
 20
-166.96430224
 30
0.0
 41
30.00002788
 42
29.99989274
 50
45.55082735
  0
TEXT
  5
FD
100
AcDbEntity
  8
0
 62
       7
100
AcDbText
 10
-284.28455069
 20
-100.56402434
 30
0.0
 40
40.0
  1
φ25
 50
45.55082735
 41
0.8
 72
       5
 11
-217.05802966
 21
-32.0323173
 31
0.0
100
AcDbText
  0
ENDBLK
  5
FE
100
AcDbEntity
  8
0
100
AcDbBlockEnd
  0
BLOCK
  5
FF
100
AcDbEntity
  8
0
100
AcDbBlockBegin
  2
DA_IMAGEDIMGROUP_18
 70
       0
 10
0.0
 20
0.0
 30
0.0
  3
DA_IMAGEDIMGROUP_18
  1

  0
LINE
  5
100
100
AcDbEntity
  8
0
  6
CONTINUOUS
 62
       7
100
AcDbLine
 10
-363.26191368
 20
-158.04090288
 30
0.0
 11
-393.88475468
 21
-158.04090288
 31
0.0
  0
LINE
  5
101
100
AcDbEntity
  8
0
  6
CONTINUOUS
 62
       7
100
AcDbLine
 10
-338.26191368
 20
-258.04090288
 30
0.0
 11
-393.88475468
 21
-258.04090288
 31
0.0
  0
LINE
  5
102
100
AcDbEntity
  8
0
  6
CONTINUOUS
 62
       7
100
AcDbLine
 10
-387.88475468
 20
-258.04090288
 30
0.0
 11
-387.88475468
 21
-158.04090288
 31
0.0
  0
LINE
  5
103
100
AcDbEntity
  8
0
  6
CONTINUOUS
 62
       7
100
AcDbLine
 10
-387.88475468
 20
15.48887851
 30
0.0
 11
-387.88475468
 21
-158.04090288
 31
0.0
  0
INSERT
  5
104
100
AcDbEntity
  8
0
  6
CONTINUOUS
 62
       7
100
AcDbBlockReference
  2
_OPEN30
 10
-387.88475468
 20
-158.04090288
 30
0.0
 41
30.00002788
 42
29.99989274
 50
270.0
  0
LINE
  5
105
100
AcDbEntity
  8
0
  6
CONTINUOUS
 62
       7
100
AcDbLine
 10
-387.88475468
 20
-288.04090288
 30
0.0
 11
-387.88475468
 21
-258.04090288
 31
0.0
  0
INSERT
  5
106
100
AcDbEntity
  8
0
  6
CONTINUOUS
 62
       7
100
AcDbBlockReference
  2
_OPEN30
 10
-387.88475468
 20
-258.04090288
 30
0.0
 41
30.00002788
 42
29.99989274
 50
90.0
  0
TEXT
  5
107
100
AcDbEntity
  8
0
 62
       7
100
AcDbText
 10
-393.88475468
 20
-90.51112149
 30
0.0
 40
40.0
  1
100
 50
90.0
 41
0.8
 72
       5
 11
-393.88475468
 21
5.48887851
 31
0.0
100
AcDbText
  0
ENDBLK
  5
108
100
AcDbEntity
  8
0
100
AcDbBlockEnd
  0
BLOCK
  5
109
100
AcDbEntity
  8
0
100
AcDbBlockBegin
  2
DA_IMAGEDIMGROUP_19
 70
       0
 10
0.0
 20
0.0
 30
0.0
  3
DA_IMAGEDIMGROUP_19
  1

  0
LINE
  5
10A
100
AcDbEntity
  8
0
  6
CONTINUOUS
 62
       7
100
AcDbLine
 10
-628.26191368
 20
353.00561439
 30
0.0
 11
-725.88801382
 21
353.00561439
 31
0.0
  0
LINE
  5
10B
100
AcDbEntity
  8
0
  6
CONTINUOUS
 62
       7
100
AcDbLine
 10
-565.76191368
 20
413.00561439
 30
0.0
 11
-725.88801382
 21
413.00561439
 31
0.0
  0
LINE
  5
10C
100
AcDbEntity
  8
0
  6
CONTINUOUS
 62
       7
100
AcDbLine
 10
-565.76191368
 20
703.00561439
 30
0.0
 11
-725.88801382
 21
703.00561439
 31
0.0
  0
LINE
  5
10D
100
AcDbEntity
  8
0
  6
CONTINUOUS
 62
       7
100
AcDbLine
 10
-575.76191368
 20
808.00561439
 30
0.0
 11
-725.88801382
 21
808.00561439
 31
0.0
  0
LINE
  5
10E
100
AcDbEntity
  8
0
  6
CONTINUOUS
 62
       7
100
AcDbLine
 10
-719.88801382
 20
353.00561439
 30
0.0
 11
-719.88801382
 21
413.00561439
 31
0.0
  0
INSERT
  5
10F
100
AcDbEntity
  8
0
  6
CONTINUOUS
 62
       7
100
AcDbBlockReference
  2
_OPEN30
 10
-719.88801382
 20
353.00561439
 30
0.0
 41
30.00002788
 42
29.99989274
 50
270.0
  0
INSERT
  5
110
100
AcDbEntity
  8
0
  6
CONTINUOUS
 62
       7
100
AcDbBlockReference
  2
_OPEN30
 10
-719.88801382
 20
413.00561439
 30
0.0
 41
30.00002788
 42
29.99989274
 50
90.0
  0
LINE
  5
111
100
AcDbEntity
  8
0
  6
CONTINUOUS
 62
       7
100
AcDbLine
 10
-719.88801382
 20
413.00561439
 30
0.0
 11
-719.88801382
 21
703.00561439
 31
0.0
  0
INSERT
  5
112
100
AcDbEntity
  8
0
  6
CONTINUOUS
 62
       7
100
AcDbBlockReference
  2
_OPEN30
 10
-719.88801382
 20
413.00561439
 30
0.0
 41
30.00002788
 42
29.99989274
 50
270.0
  0
INSERT
  5
113
100
AcDbEntity
  8
0
  6
CONTINUOUS
 62
       7
100
AcDbBlockReference
  2
_OPEN30
 10
-719.88801382
 20
703.00561439
 30
0.0
 41
30.00002788
 42
29.99989274
 50
90.0
  0
LINE
  5
114
100
AcDbEntity
  8
0
  6
CONTINUOUS
 62
       7
100
AcDbLine
 10
-719.88801382
 20
703.00561439
 30
0.0
 11
-719.88801382
 21
808.00561439
 31
0.0
  0
INSERT
  5
115
100
AcDbEntity
  8
0
  6
CONTINUOUS
 62
       7
100
AcDbBlockReference
  2
_OPEN30
 10
-719.88801382
 20
703.00561439
 30
0.0
 41
30.00002788
 42
29.99989274
 50
270.0
  0
INSERT
  5
116
100
AcDbEntity
  8
0
  6
CONTINUOUS
 62
       7
100
AcDbBlockReference
  2
_OPEN30
 10
-719.88801382
 20
808.00561439
 30
0.0
 41
30.00002788
 42
29.99989274
 50
90.0
  0
TEXT
  5
117
100
AcDbEntity
  8
0
 62
       7
100
AcDbText
 10
-725.88801382
 20
351.00561439
 30
0.0
 40
40.0
  1
60
 50
90.0
 41
0.8
 72
       5
 11
-725.88801382
 21
415.00561439
 31
0.0
100
AcDbText
  0
TEXT
  5
118
100
AcDbEntity
  8
0
 62
       7
100
AcDbText
 10
-725.88801382
 20
510.00561439
 30
0.0
 40
40.0
  1
290
 50
90.0
 41
0.8
 72
       5
 11
-725.88801382
 21
606.00561439
 31
0.0
100
AcDbText
  0
TEXT
  5
119
100
AcDbEntity
  8
0
 62
       7
100
AcDbText
 10
-725.88801382
 20
707.50561439
 30
0.0
 40
40.0
  1
105
 50
90.0
 41
0.8
 72
       5
 11
-725.88801382
 21
803.50561439
 31
0.0
100
AcDbText
  0
ENDBLK
  5
11A
100
AcDbEntity
  8
0
100
AcDbBlockEnd
  0
BLOCK
  5
11B
100
AcDbEntity
  8
0
100
AcDbBlockBegin
  2
DA_IMAGEDIMGROUP_20
 70
       0
 10
0.0
 20
0.0
 30
0.0
  3
DA_IMAGEDIMGROUP_20
  1

  0
LINE
  5
11C
100
AcDbEntity
  8
0
  6
CONTINUOUS
 62
       7
100
AcDbLine
 10
254.41536134
 20
-204.04090288
 30
0.0
 11
254.41536134
 21
-118.04090288
 31
0.0
  0
INSERT
  5
11D
100
AcDbEntity
  8
0
  6
CONTINUOUS
 62
       7
100
AcDbBlockReference
  2
_OPEN30
 10
254.41536134
 20
-204.04090288
 30
0.0
 41
30.00002788
 42
29.99989274
 50
270.0
  0
INSERT
  5
11E
100
AcDbEntity
  8
0
  6
CONTINUOUS
 62
       7
100
AcDbBlockReference
  2
_OPEN30
 10
254.41536134
 20
-118.04090288
 30
0.0
 41
30.00002788
 42
29.99989274
 50
90.0
  0
LINE
  5
11F
100
AcDbEntity
  8
0
  6
CONTINUOUS
 62
       7
100
AcDbLine
 10
317.07980364
 20
-204.04090288
 30
0.0
 11
248.41536134
 21
-204.04090288
 31
0.0
  0
LINE
  5
120
100
AcDbEntity
  8
0
  6
CONTINUOUS
 62
       7
100
AcDbLine
 10
315.13337506
 20
-118.04090288
 30
0.0
 11
248.41536134
 21
-118.04090288
 31
0.0
  0
TEXT
  5
121
100
AcDbEntity
  8
0
 62
       7
100
AcDbText
 10
248.41536134
 20
-193.04090288
 30
0.0
 40
40.0
  1
86
 50
90.0
 41
0.8
 72
       5
 11
248.41536134
 21
-129.04090288
 31
0.0
100
AcDbText
  0
ENDBLK
  5
122
100
AcDbEntity
  8
0
100
AcDbBlockEnd
  0
BLOCK
  5
123
100
AcDbEntity
  8
0
100
AcDbBlockBegin
  2
DA_IMAGEDIMGROUP_21
 70
       0
 10
0.0
 20
0.0
 30
0.0
  3
DA_IMAGEDIMGROUP_21
  1

  0
LINE
  5
124
100
AcDbEntity
  8
0
  6
CONTINUOUS
 62
       7
100
AcDbLine
 10
925.98111076
 20
-289.04090288
 30
0.0
 11
925.98111076
 21
-118.04090288
 31
0.0
  0
INSERT
  5
125
100
AcDbEntity
  8
0
  6
CONTINUOUS
 62
       7
100
AcDbBlockReference
  2
_OPEN30
 10
925.98111076
 20
-289.04090288
 30
0.0
 41
30.00002788
 42
29.99989274
 50
270.0
  0
INSERT
  5
126
100
AcDbEntity
  8
0
  6
CONTINUOUS
 62
       7
100
AcDbBlockReference
  2
_OPEN30
 10
925.98111076
 20
-118.04090288
 30
0.0
 41
30.00002788
 42
29.99989274
 50
90.0
  0
LINE
  5
127
100
AcDbEntity
  8
0
  6
CONTINUOUS
 62
       7
100
AcDbLine
 10
715.15475014
 20
-289.04090288
 30
0.0
 11
935.98111076
 21
-289.04090288
 31
0.0
  0
LINE
  5
128
100
AcDbEntity
  8
0
  6
CONTINUOUS
 62
       7
100
AcDbLine
 10
812.13337506
 20
-118.04090288
 30
0.0
 11
935.98111076
 21
-118.04090288
 31
0.0
  0
TEXT
  5
129
100
AcDbEntity
  8
0
 62
       7
100
AcDbText
 10
919.98111076
 20
-251.54090288
 30
0.0
 40
40.0
  1
171
 50
90.0
 41
0.8
 72
       5
 11
919.98111076
 21
-155.54090288
 31
0.0
100
AcDbText
  0
ENDBLK
  5
12A
100
AcDbEntity
  8
0
100
AcDbBlockEnd
  0
BLOCK
  5
12B
100
AcDbEntity
  8
0
100
AcDbBlockBegin
  2
DA_IMAGEDIMGROUP_22
 70
       0
 10
0.0
 20
0.0
 30
0.0
  3
DA_IMAGEDIMGROUP_22
  1

  0
LINE
  5
12C
100
AcDbEntity
  8
0
  6
CONTINUOUS
 62
       7
100
AcDbLine
 10
-423.81198158
 20
510.91244731
 30
0.0
 11
-577.11460347
 21
423.06156305
 31
0.0
  0
INSERT
  5
12D
100
AcDbEntity
  8
0
  6
CONTINUOUS
 62
       7
100
AcDbBlockReference
  2
_OPEN30
 10
-577.11460347
 20
423.06156305
 30
0.0
 41
30.00002788
 42
29.99989274
 50
209.81509526
  0
TEXT
  5
12E
100
AcDbEntity
  8
0
 62
       7
100
AcDbText
 10
-539.58768062
 20
451.48192055
 30
0.0
 40
40.0
  1
4-R20
 50
29.81509526
 41
0.6
 72
       5
 11
-435.47154188
 21
511.14622858
 31
0.0
100
AcDbText
  0
ENDBLK
  5
12F
100
AcDbEntity
  8
0
100
AcDbBlockEnd
  0
BLOCK
  5
130
100
AcDbEntity
  8
0
100
AcDbBlockBegin
  2
DA_IMAGEDIMGROUP_23
 70
       0
 10
0.0
 20
0.0
 30
0.0
  3
DA_IMAGEDIMGROUP_23
  1

  0
LINE
  5
131
100
AcDbEntity
  8
0
  6
CONTINUOUS
 62
       7
100
AcDbLine
 10
-476.61377792
 20
687.51287733
 30
0.0
 11
-576.20738438
 21
805.65126069
 31
0.0
  0
INSERT
  5
132
100
AcDbEntity
  8
0
  6
CONTINUOUS
 62
       7
100
AcDbBlockReference
  2
_OPEN30
 10
-576.20738438
 20
805.65126069
 30
0.0
 41
30.00002788
 42
29.99989274
 50
130.13172486
  0
TEXT
  5
133
100
AcDbEntity
  8
0
 62
       7
100
AcDbText
 10
-539.86830937
 20
778.06045737
 30
0.0
 40
40.0
  1
2-R10
 50
-49.86827514
 41
0.5
 72
       5
 11
-475.41360232
 21
701.60399434
 31
0.0
100
AcDbText
  0
ENDBLK
  5
134
100
AcDbEntity
  8
0
100
AcDbBlockEnd
  0
BLOCK
  5
135
100
AcDbEntity
  8
0
100
AcDbBlockBegin
  2
DA_IMAGEDIMGROUP_24
 70
       0
 10
0.0
 20
0.0
 30
0.0
  3
DA_IMAGEDIMGROUP_24
  1

  0
LINE
  5
136
100
AcDbEntity
  8
0
  6
CONTINUOUS
 62
       7
100
AcDbLine
 10
315.13337506
 20
-118.04090288
 30
0.0
 11
195.08650533
 21
-118.04090288
 31
0.0
  0
LINE
  5
137
100
AcDbEntity
  8
0
  6
CONTINUOUS
 62
       7
100
AcDbLine
 10
554.74638201
 20
-314.04090288
 30
0.0
 11
195.08650533
 21
-314.04090288
 31
0.0
  0
LINE
  5
138
100
AcDbEntity
  8
0
  6
CONTINUOUS
 62
       7
100
AcDbLine
 10
201.08650533
 20
-314.04090288
 30
0.0
 11
201.08650533
 21
-118.04090288
 31
0.0
  0
INSERT
  5
139
100
AcDbEntity
  8
0
  6
CONTINUOUS
 62
       7
100
AcDbBlockReference
  2
_OPEN30
 10
201.08650533
 20
-314.04090288
 30
0.0
 41
30.00002788
 42
29.99989274
 50
270.0
  0
INSERT
  5
13A
100
AcDbEntity
  8
0
  6
CONTINUOUS
 62
       7
100
AcDbBlockReference
  2
_OPEN30
 10
201.08650533
 20
-118.04090288
 30
0.0
 41
30.00002788
 42
29.99989274
 50
90.0
  0
TEXT
  5
13B
100
AcDbEntity
  8
0
 62
       7
100
AcDbText
 10
195.08650533
 20
-264.04090288
 30
0.0
 40
40.0
  1
196
 50
90.0
 41
0.8
 72
       5
 11
195.08650533
 21
-168.04090288
 31
0.0
100
AcDbText
  0
ENDBLK
  5
13C
100
AcDbEntity
  8
0
100
AcDbBlockEnd
  0
BLOCK
  5
13D
100
AcDbEntity
  8
0
100
AcDbBlockBegin
  2
DA_IMAGEDIMGROUP_25
 70
       0
 10
0.0
 20
0.0
 30
0.0
  3
DA_IMAGEDIMGROUP_25
  1

  0
LINE
  5
13E
100
AcDbEntity
  8
0
  6
CONTINUOUS
 62
       7
100
AcDbLine
 10
-632.26191368
 20
1033.17679989
 30
0.0
 11
-32.26191368
 21
1033.17679989
 31
0.0
  0
INSERT
  5
13F
100
AcDbEntity
  8
0
  6
CONTINUOUS
 62
       7
100
AcDbBlockReference
  2
_OPEN30
 10
-632.26191368
 20
1033.17679989
 30
0.0
 41
30.00002788
 42
29.99989274
 50
180.0
  0
INSERT
  5
140
100
AcDbEntity
  8
0
  6
CONTINUOUS
 62
       7
100
AcDbBlockReference
  2
_OPEN30
 10
-32.26191368
 20
1033.17679989
 30
0.0
 41
30.00002788
 42
29.99989274
 50
360.0
  0
LINE
  5
141
100
AcDbEntity
  8
0
  6
CONTINUOUS
 62
       7
100
AcDbLine
 10
-632.26191368
 20
861.50561439
 30
0.0
 11
-632.26191368
 21
1043.17679989
 31
0.0
  0
LINE
  5
142
100
AcDbEntity
  8
0
  6
CONTINUOUS
 62
       7
100
AcDbLine
 10
-32.26191368
 20
861.50561439
 30
0.0
 11
-32.26191368
 21
1043.17679989
 31
0.0
  0
TEXT
  5
143
100
AcDbEntity
  8
0
 62
       7
100
AcDbText
 10
-540.26191368
 20
1034.17679989
 30
0.0
 40
40.0
  1
カウンター開口寸法　600
 41
0.7222
 72
       5
 11
-124.26191368
 21
1034.17679989
 31
0.0
100
AcDbText
  0
ENDBLK
  5
144
100
AcDbEntity
  8
0
100
AcDbBlockEnd
  0
BLOCK
  5
145
100
AcDbEntity
  8
0
100
AcDbBlockBegin
  2
DA_IMAGEDIMGROUP_26
 70
       0
 10
0.0
 20
0.0
 30
0.0
  3
DA_IMAGEDIMGROUP_26
  1

  0
LINE
  5
146
100
AcDbEntity
  8
0
  6
CONTINUOUS
 62
       7
100
AcDbLine
 10
100.00668437
 20
370.50561439
 30
0.0
 11
100.00668437
 21
860.50561439
 31
0.0
  0
INSERT
  5
147
100
AcDbEntity
  8
0
  6
CONTINUOUS
 62
       7
100
AcDbBlockReference
  2
_OPEN30
 10
100.00668437
 20
370.50561439
 30
0.0
 41
30.00002788
 42
29.99989274
 50
270.0
  0
INSERT
  5
148
100
AcDbEntity
  8
0
  6
CONTINUOUS
 62
       7
100
AcDbBlockReference
  2
_OPEN30
 10
100.00668437
 20
860.50561439
 30
0.0
 41
30.00002788
 42
29.99989274
 50
90.0
  0
LINE
  5
149
100
AcDbEntity
  8
0
  6
CONTINUOUS
 62
       7
100
AcDbLine
 10
-26.26191368
 20
370.50561439
 30
0.0
 11
106.00668437
 21
370.50561439
 31
0.0
  0
LINE
  5
14A
100
AcDbEntity
  8
0
  6
CONTINUOUS
 62
       7
100
AcDbLine
 10
-26.26191368
 20
860.50561439
 30
0.0
 11
106.00668437
 21
860.50561439
 31
0.0
  0
TEXT
  5
14B
100
AcDbEntity
  8
0
 62
       7
100
AcDbText
 10
94.00668437
 20
407.50561439
 30
0.0
 40
40.0
  1
カウンター開口寸法　490
 50
90.0
 41
0.7222
 72
       5
 11
94.00668437
 21
823.50561439
 31
0.0
100
AcDbText
  0
ENDBLK
  5
14C
100
AcDbEntity
  8
0
100
AcDbBlockEnd
  0
BLOCK
  5
14D
100
AcDbEntity
  8
0
100
AcDbBlockBegin
  2
DA_IMAGEDIMGROUP_27
 70
       0
 10
0.0
 20
0.0
 30
0.0
  3
DA_IMAGEDIMGROUP_27
  1

  0
LINE
  5
14E
100
AcDbEntity
  8
0
  6
CONTINUOUS
 62
       7
100
AcDbLine
 10
-281.84437072
 20
768.00561439
 30
0.0
 11
48.42141703
 21
768.00561439
 31
0.0
  0
LINE
  5
14F
100
AcDbEntity
  8
0
  6
CONTINUOUS
 62
       7
100
AcDbLine
 10
-255.37921334
 20
643.00561439
 30
0.0
 11
48.42141703
 21
643.00561439
 31
0.0
  0
LINE
  5
150
100
AcDbEntity
  8
0
  6
CONTINUOUS
 62
       7
100
AcDbLine
 10
-36.26191368
 20
878.00561439
 30
0.0
 11
48.42141703
 21
878.00561439
 31
0.0
  0
LINE
  5
151
100
AcDbEntity
  8
0
  6
CONTINUOUS
 62
       7
100
AcDbLine
 10
42.42141703
 20
768.00561439
 30
0.0
 11
42.42141703
 21
878.00561439
 31
0.0
  0
LINE
  5
152
100
AcDbEntity
  8
0
  6
CONTINUOUS
 62
       7
100
AcDbLine
 10
42.42141703
 20
643.00561439
 30
0.0
 11
42.42141703
 21
768.00561439
 31
0.0
  0
INSERT
  5
153
100
AcDbEntity
  8
0
  6
CONTINUOUS
 62
       7
100
AcDbBlockReference
  2
_OPEN30
 10
42.42141703
 20
643.00561439
 30
0.0
 41
30.00002788
 42
29.99989274
 50
270.0
  0
INSERT
  5
154
100
AcDbEntity
  8
0
  6
CONTINUOUS
 62
       7
100
AcDbBlockReference
  2
_OPEN30
 10
42.42141703
 20
768.00561439
 30
0.0
 41
30.00002788
 42
29.99989274
 50
90.0
  0
LINE
  5
155
100
AcDbEntity
  8
0
  6
CONTINUOUS
 62
       7
100
AcDbLine
 10
42.42141703
 20
964.99229439
 30
0.0
 11
42.42141703
 21
878.00561439
 31
0.0
  0
INSERT
  5
156
100
AcDbEntity
  8
0
  6
CONTINUOUS
 62
       7
100
AcDbBlockReference
  2
_OPEN30
 10
42.42141703
 20
878.00561439
 30
0.0
 41
30.00002788
 42
29.99989274
 50
270.0
  0
TEXT
  5
157
100
AcDbEntity
  8
0
 62
       7
100
AcDbText
 10
36.42141703
 20
657.50561439
 30
0.0
 40
40.0
  1
125
 50
90.0
 41
0.8
 72
       5
 11
36.42141703
 21
753.50561439
 31
0.0
100
AcDbText
  0
TEXT
  5
158
100
AcDbEntity
  8
0
 62
       7
100
AcDbText
 10
36.42141703
 20
901.39229439
 30
0.0
 40
40.0
  1
110
 50
90.0
 41
0.8
 72
       5
 11
36.42141703
 21
997.39229439
 31
0.0
100
AcDbText
  0
ENDBLK
  5
159
100
AcDbEntity
  8
0
100
AcDbBlockEnd
  0
ENDSEC
  0
SECTION
  2
ENTITIES
  0
LINE
  5
15A
100
AcDbEntity
  8
ZUWAKU
  6
CONTINUOUS
 62
       7
100
AcDbLine
 10
-566.58333333
 20
-1385.78876627
 30
0.0
 11
-560.95833333
 21
-1370.16376627
 31
0.0
  0
LINE
  5
15B
100
AcDbEntity
  8
ZUWAKU
  6
CONTINUOUS
 62
       7
100
AcDbLine
 10
-608.20833333
 20
-1385.78876627
 30
0.0
 11
-599.45833333
 21
-1362.03876627
 31
0.0
  0
LINE
  5
15C
100
AcDbEntity
  8
ZUWAKU
  6
CONTINUOUS
 62
       7
100
AcDbLine
 10
-616.33333333
 20
-1353.28876627
 30
0.0
 11
-619.45833333
 21
-1362.03876627
 31
0.0
  0
LINE
  5
15D
100
AcDbEntity
  8
ZUWAKU
  6
CONTINUOUS
 62
       7
100
AcDbLine
 10
-587.58333333
 20
-1385.78876627
 30
0.0
 11
-578.20833333
 21
-1358.28876627
 31
0.0
  0
LINE
  5
15E
100
AcDbEntity
  8
ZUWAKU
  6
CONTINUOUS
 62
       7
100
AcDbLine
 10
-456.45833333
 20
-1385.78876627
 30
0.0
 11
-467.08333333
 21
-1368.28876627
 31
0.0
  0
LINE
  5
15F
100
AcDbEntity
  8
ZUWAKU
  6
CONTINUOUS
 62
       7
100
AcDbLine
 10
-616.33333333
 20
-1353.28876627
 30
0.0
 11
-604.45833333
 21
-1353.28876627
 31
0.0
  0
LINE
  5
160
100
AcDbEntity
  8
ZUWAKU
  6
CONTINUOUS
 62
       7
100
AcDbLine
 10
-552.83333333
 20
-1347.66376627
 30
0.0
 11
-532.20833333
 21
-1347.66376627
 31
0.0
  0
LINE
  5
161
100
AcDbEntity
  8
ZUWAKU
  6
CONTINUOUS
 62
       7
100
AcDbLine
 10
-508.45833333
 20
-1345.78876627
 30
0.0
 11
-502.20833333
 21
-1345.78876627
 31
0.0
  0
LINE
  5
162
100
AcDbEntity
  8
ZUWAKU
  6
CONTINUOUS
 62
       7
100
AcDbLine
 10
-548.45833333
 20
-1336.41376627
 30
0.0
 11
-552.83333333
 21
-1347.66376627
 31
0.0
  0
LINE
  5
163
100
AcDbEntity
  8
ZUWAKU
  6
CONTINUOUS
 62
       7
100
AcDbLine
 10
-528.45833333
 20
-1336.41376627
 30
0.0
 11
-532.20833333
 21
-1347.66376627
 31
0.0
  0
LINE
  5
164
100
AcDbEntity
  8
ZUWAKU
  6
CONTINUOUS
 62
       7
100
AcDbLine
 10
-608.20833333
 20
-1385.78876627
 30
0.0
 11
-587.58333333
 21
-1385.78876627
 31
0.0
  0
LINE
  5
165
100
AcDbEntity
  8
ZUWAKU
  6
CONTINUOUS
 62
       7
100
AcDbLine
 10
-576.33333333
 20
-1336.41376627
 30
0.0
 11
-553.20833333
 21
-1336.41376627
 31
0.0
  0
LINE
  5
166
100
AcDbEntity
  8
ZUWAKU
  6
CONTINUOUS
 62
       7
100
AcDbLine
 10
-474.38407693
 20
-1347.66376627
 30
0.0
 11
-496.45833333
 21
-1347.66376627
 31
0.0
  0
LINE
  5
167
100
AcDbEntity
  8
ZUWAKU
  6
CONTINUOUS
 62
       7
100
AcDbLine
 10
-450.20833333
 20
-1336.41376627
 30
0.0
 11
-492.70833333
 21
-1336.41376627
 31
0.0
  0
LINE
  5
168
100
AcDbEntity
  8
ZUWAKU
  6
CONTINUOUS
 62
       7
100
AcDbLine
 10
-619.45833333
 20
-1362.03876627
 30
0.0
 11
-599.45833333
 21
-1362.03876627
 31
0.0
  0
LINE
  5
169
100
AcDbEntity
  8
ZUWAKU
  6
CONTINUOUS
 62
       7
100
AcDbLine
 10
-566.58333333
 20
-1385.78876627
 30
0.0
 11
-533.45833333
 21
-1385.78876627
 31
0.0
  0
LINE
  5
16A
100
AcDbEntity
  8
ZUWAKU
  6
CONTINUOUS
 62
       7
100
AcDbLine
 10
-560.95833333
 20
-1370.16376627
 30
0.0
 11
-530.95833333
 21
-1370.16376627
 31
0.0
  0
LINE
  5
16B
100
AcDbEntity
  8
ZUWAKU
  6
CONTINUOUS
 62
       7
100
AcDbLine
 10
-456.45833333
 20
-1385.78876627
 30
0.0
 11
-472.08333333
 21
-1385.78876627
 31
0.0
  0
LINE
  5
16C
100
AcDbEntity
  8
ZUWAKU
  6
CONTINUOUS
 62
       7
100
AcDbLine
 10
-496.45833333
 20
-1347.66376627
 30
0.0
 11
-492.70833333
 21
-1336.41376627
 31
0.0
  0
LINE
  5
16D
100
AcDbEntity
  8
ZUWAKU
  6
CONTINUOUS
 62
       7
100
AcDbLine
 10
-713.83333333
 20
-1336.41376627
 30
0.0
 11
-724.45833333
 21
-1366.41376627
 31
0.0
  0
LINE
  5
16E
100
AcDbEntity
  8
ZUWAKU
  6
CONTINUOUS
 62
       7
100
AcDbLine
 10
-724.45833333
 20
-1366.41376627
 30
0.0
 11
-710.08333333
 21
-1366.41376627
 31
0.0
  0
LINE
  5
16F
100
AcDbEntity
  8
ZUWAKU
  6
CONTINUOUS
 62
       7
100
AcDbLine
 10
-710.08333333
 20
-1366.41376627
 30
0.0
 11
-698.83333333
 21
-1336.41376627
 31
0.0
  0
LINE
  5
170
100
AcDbEntity
  8
ZUWAKU
  6
CONTINUOUS
 62
       7
100
AcDbLine
 10
-698.83333333
 20
-1336.41376627
 30
0.0
 11
-713.83333333
 21
-1336.41376627
 31
0.0
  0
LINE
  5
171
100
AcDbEntity
  8
ZUWAKU
  6
CONTINUOUS
 62
       7
100
AcDbLine
 10
-523.45833333
 20
-1366.41376627
 30
0.0
 11
-516.58333333
 21
-1360.78876627
 31
0.0
  0
LINE
  5
172
100
AcDbEntity
  8
ZUWAKU
  6
CONTINUOUS
 62
       7
100
AcDbLine
 10
-516.58333333
 20
-1360.78876627
 30
0.0
 11
-511.58333333
 21
-1353.91376627
 31
0.0
  0
LINE
  5
173
100
AcDbEntity
  8
ZUWAKU
  6
CONTINUOUS
 62
       7
100
AcDbLine
 10
-511.58333333
 20
-1353.91376627
 30
0.0
 11
-508.45833333
 21
-1345.78876627
 31
0.0
  0
LINE
  5
174
100
AcDbEntity
  8
ZUWAKU
  6
CONTINUOUS
 62
       7
100
AcDbLine
 10
-662.45833333
 20
-1336.41376627
 30
0.0
 11
-616.83333333
 21
-1336.41376627
 31
0.0
  0
LINE
  5
175
100
AcDbEntity
  8
ZUWAKU
  6
CONTINUOUS
 62
       7
100
AcDbLine
 10
-616.83333333
 20
-1336.41376627
 30
0.0
 11
-620.58333333
 21
-1347.66376627
 31
0.0
  0
LINE
  5
176
100
AcDbEntity
  8
ZUWAKU
  6
CONTINUOUS
 62
       7
100
AcDbLine
 10
-616.83333333
 20
-1336.41376627
 30
0.0
 11
-620.58333333
 21
-1347.66376627
 31
0.0
  0
LINE
  5
177
100
AcDbEntity
  8
ZUWAKU
  6
CONTINUOUS
 62
       7
100
AcDbLine
 10
-620.58333333
 20
-1347.66376627
 30
0.0
 11
-666.20833333
 21
-1347.66376627
 31
0.0
  0
LINE
  5
178
100
AcDbEntity
  8
ZUWAKU
  6
CONTINUOUS
 62
       7
100
AcDbLine
 10
-666.20833333
 20
-1347.66376627
 30
0.0
 11
-662.45833333
 21
-1336.41376627
 31
0.0
  0
LINE
  5
179
100
AcDbEntity
  8
ZUWAKU
  6
CONTINUOUS
 62
       7
100
AcDbLine
 10
-666.20833333
 20
-1347.66376627
 30
0.0
 11
-662.45833333
 21
-1336.41376627
 31
0.0
  0
LINE
  5
17A
100
AcDbEntity
  8
ZUWAKU
  6
CONTINUOUS
 62
       7
100
AcDbLine
 10
-616.83333333
 20
-1336.41376627
 30
0.0
 11
-662.45833333
 21
-1336.41376627
 31
0.0
  0
LINE
  5
17B
100
AcDbEntity
  8
ZUWAKU
  6
CONTINUOUS
 62
       7
100
AcDbLine
 10
-662.45833333
 20
-1336.41376627
 30
0.0
 11
-666.20833333
 21
-1347.66376627
 31
0.0
  0
LINE
  5
17C
100
AcDbEntity
  8
ZUWAKU
  6
CONTINUOUS
 62
       7
100
AcDbLine
 10
-666.20833333
 20
-1347.66376627
 30
0.0
 11
-620.58333333
 21
-1347.66376627
 31
0.0
  0
LINE
  5
17D
100
AcDbEntity
  8
ZUWAKU
  6
CONTINUOUS
 62
       7
100
AcDbLine
 10
-643.08333333
 20
-1384.53876627
 30
0.0
 11
-638.08333333
 21
-1382.03876627
 31
0.0
  0
LINE
  5
17E
100
AcDbEntity
  8
ZUWAKU
  6
CONTINUOUS
 62
       7
100
AcDbLine
 10
-638.08333333
 20
-1382.03876627
 30
0.0
 11
-634.33333333
 21
-1378.28876627
 31
0.0
  0
LINE
  5
17F
100
AcDbEntity
  8
ZUWAKU
  6
CONTINUOUS
 62
       7
100
AcDbLine
 10
-634.33333333
 20
-1378.28876627
 30
0.0
 11
-629.95833333
 21
-1373.91376627
 31
0.0
  0
LINE
  5
180
100
AcDbEntity
  8
ZUWAKU
  6
CONTINUOUS
 62
       7
100
AcDbLine
 10
-629.95833333
 20
-1373.91376627
 30
0.0
 11
-622.45833333
 21
-1353.28876627
 31
0.0
  0
LINE
  5
181
100
AcDbEntity
  8
ZUWAKU
  6
CONTINUOUS
 62
       7
100
AcDbLine
 10
-622.45833333
 20
-1353.28876627
 30
0.0
 11
-667.45833333
 21
-1353.28876627
 31
0.0
  0
LINE
  5
182
100
AcDbEntity
  8
ZUWAKU
  6
CONTINUOUS
 62
       7
100
AcDbLine
 10
-667.45833333
 20
-1353.28876627
 30
0.0
 11
-669.95833333
 21
-1362.03876627
 31
0.0
  0
LINE
  5
183
100
AcDbEntity
  8
ZUWAKU
  6
CONTINUOUS
 62
       7
100
AcDbLine
 10
-669.95833333
 20
-1362.03876627
 30
0.0
 11
-643.70833333
 21
-1362.03876627
 31
0.0
  0
LINE
  5
184
100
AcDbEntity
  8
ZUWAKU
  6
CONTINUOUS
 62
       7
100
AcDbLine
 10
-643.70833333
 20
-1362.03876627
 30
0.0
 11
-644.95833333
 21
-1366.41376627
 31
0.0
  0
LINE
  5
185
100
AcDbEntity
  8
ZUWAKU
  6
CONTINUOUS
 62
       7
100
AcDbLine
 10
-644.95833333
 20
-1366.41376627
 30
0.0
 11
-648.08333333
 21
-1370.16376627
 31
0.0
  0
LINE
  5
186
100
AcDbEntity
  8
ZUWAKU
  6
CONTINUOUS
 62
       7
100
AcDbLine
 10
-648.08333333
 20
-1370.16376627
 30
0.0
 11
-651.20833333
 21
-1373.28876627
 31
0.0
  0
LINE
  5
187
100
AcDbEntity
  8
ZUWAKU
  6
CONTINUOUS
 62
       7
100
AcDbLine
 10
-651.20833333
 20
-1373.28876627
 30
0.0
 11
-655.58333333
 21
-1376.41376627
 31
0.0
  0
LINE
  5
188
100
AcDbEntity
  8
ZUWAKU
  6
CONTINUOUS
 62
       7
100
AcDbLine
 10
-655.58333333
 20
-1376.41376627
 30
0.0
 11
-676.20833333
 21
-1376.41376627
 31
0.0
  0
LINE
  5
189
100
AcDbEntity
  8
ZUWAKU
  6
CONTINUOUS
 62
       7
100
AcDbLine
 10
-676.20833333
 20
-1376.41376627
 30
0.0
 11
-679.95833333
 21
-1385.78876627
 31
0.0
  0
LINE
  5
18A
100
AcDbEntity
  8
ZUWAKU
  6
CONTINUOUS
 62
       7
100
AcDbLine
 10
-720.08333333
 20
-1385.78876627
 30
0.0
 11
-716.95833333
 21
-1376.41376627
 31
0.0
  0
LINE
  5
18B
100
AcDbEntity
  8
ZUWAKU
  6
CONTINUOUS
 62
       7
100
AcDbLine
 10
-716.95833333
 20
-1376.41376627
 30
0.0
 11
-711.33333333
 21
-1376.41376627
 31
0.0
  0
LINE
  5
18C
100
AcDbEntity
  8
ZUWAKU
  6
CONTINUOUS
 62
       7
100
AcDbLine
 10
-711.33333333
 20
-1376.41376627
 30
0.0
 11
-706.33333333
 21
-1375.78876627
 31
0.0
  0
LINE
  5
18D
100
AcDbEntity
  8
ZUWAKU
  6
CONTINUOUS
 62
       7
100
AcDbLine
 10
-706.33333333
 20
-1375.78876627
 30
0.0
 11
-701.33333333
 21
-1373.28876627
 31
0.0
  0
LINE
  5
18E
100
AcDbEntity
  8
ZUWAKU
  6
CONTINUOUS
 62
       7
100
AcDbLine
 10
-701.33333333
 20
-1373.28876627
 30
0.0
 11
-698.20833333
 21
-1368.28876627
 31
0.0
  0
LINE
  5
18F
100
AcDbEntity
  8
ZUWAKU
  6
CONTINUOUS
 62
       7
100
AcDbLine
 10
-698.20833333
 20
-1368.28876627
 30
0.0
 11
-686.33333333
 21
-1336.41376627
 31
0.0
  0
LINE
  5
190
100
AcDbEntity
  8
ZUWAKU
  6
CONTINUOUS
 62
       7
100
AcDbLine
 10
-686.33333333
 20
-1336.41376627
 30
0.0
 11
-669.45833333
 21
-1336.41376627
 31
0.0
  0
LINE
  5
191
100
AcDbEntity
  8
ZUWAKU
  6
CONTINUOUS
 62
       7
100
AcDbLine
 10
-669.45833333
 20
-1336.41376627
 30
0.0
 11
-681.95833333
 21
-1373.28876627
 31
0.0
  0
LINE
  5
192
100
AcDbEntity
  8
ZUWAKU
  6
CONTINUOUS
 62
       7
100
AcDbLine
 10
-681.95833333
 20
-1373.28876627
 30
0.0
 11
-686.95833333
 21
-1378.28876627
 31
0.0
  0
LINE
  5
193
100
AcDbEntity
  8
ZUWAKU
  6
CONTINUOUS
 62
       7
100
AcDbLine
 10
-686.95833333
 20
-1378.28876627
 30
0.0
 11
-691.95833333
 21
-1382.66376627
 31
0.0
  0
LINE
  5
194
100
AcDbEntity
  8
ZUWAKU
  6
CONTINUOUS
 62
       7
100
AcDbLine
 10
-691.95833333
 20
-1382.66376627
 30
0.0
 11
-698.20833333
 21
-1385.16376627
 31
0.0
  0
LINE
  5
195
100
AcDbEntity
  8
ZUWAKU
  6
CONTINUOUS
 62
       7
100
AcDbLine
 10
-553.20833333
 20
-1336.41376627
 30
0.0
 11
-556.95833333
 21
-1344.53876627
 31
0.0
  0
LINE
  5
196
100
AcDbEntity
  8
ZUWAKU
  6
CONTINUOUS
 62
       7
100
AcDbLine
 10
-556.95833333
 20
-1344.53876627
 30
0.0
 11
-563.20833333
 21
-1350.78876627
 31
0.0
  0
LINE
  5
197
100
AcDbEntity
  8
ZUWAKU
  6
CONTINUOUS
 62
       7
100
AcDbLine
 10
-556.95833333
 20
-1344.53876627
 30
0.0
 11
-563.20833333
 21
-1350.78876627
 31
0.0
  0
LINE
  5
198
100
AcDbEntity
  8
ZUWAKU
  6
CONTINUOUS
 62
       7
100
AcDbLine
 10
-563.20833333
 20
-1350.78876627
 30
0.0
 11
-570.08333333
 21
-1355.78876627
 31
0.0
  0
LINE
  5
199
100
AcDbEntity
  8
ZUWAKU
  6
CONTINUOUS
 62
       7
100
AcDbLine
 10
-570.08333333
 20
-1355.78876627
 30
0.0
 11
-578.20833333
 21
-1358.28876627
 31
0.0
  0
LINE
  5
19A
100
AcDbEntity
  8
ZUWAKU
  6
CONTINUOUS
 62
       7
100
AcDbLine
 10
-570.08333333
 20
-1355.78876627
 30
0.0
 11
-578.20833333
 21
-1358.28876627
 31
0.0
  0
LINE
  5
19B
100
AcDbEntity
  8
ZUWAKU
  6
CONTINUOUS
 62
       7
100
AcDbLine
 10
-578.20833333
 20
-1358.28876627
 30
0.0
 11
-587.58333333
 21
-1385.78876627
 31
0.0
  0
LINE
  5
19C
100
AcDbEntity
  8
ZUWAKU
  6
CONTINUOUS
 62
       7
100
AcDbLine
 10
-587.58333333
 20
-1385.78876627
 30
0.0
 11
-608.20833333
 21
-1385.78876627
 31
0.0
  0
LINE
  5
19D
100
AcDbEntity
  8
ZUWAKU
  6
CONTINUOUS
 62
       7
100
AcDbLine
 10
-587.58333333
 20
-1385.78876627
 30
0.0
 11
-608.20833333
 21
-1385.78876627
 31
0.0
  0
LINE
  5
19E
100
AcDbEntity
  8
ZUWAKU
  6
CONTINUOUS
 62
       7
100
AcDbLine
 10
-600.45833333
 20
-1362.03876627
 30
0.0
 11
-619.45833333
 21
-1362.03876627
 31
0.0
  0
LINE
  5
19F
100
AcDbEntity
  8
ZUWAKU
  6
CONTINUOUS
 62
       7
100
AcDbLine
 10
-619.45833333
 20
-1362.03876627
 30
0.0
 11
-616.33333333
 21
-1353.28876627
 31
0.0
  0
LINE
  5
1A0
100
AcDbEntity
  8
ZUWAKU
  6
CONTINUOUS
 62
       7
100
AcDbLine
 10
-608.20833333
 20
-1385.78876627
 30
0.0
 11
-599.45833333
 21
-1362.03876627
 31
0.0
  0
LINE
  5
1A1
100
AcDbEntity
  8
ZUWAKU
  6
CONTINUOUS
 62
       7
100
AcDbLine
 10
-608.20833333
 20
-1385.78876627
 30
0.0
 11
-599.45833333
 21
-1362.03876627
 31
0.0
  0
LINE
  5
1A2
100
AcDbEntity
  8
ZUWAKU
  6
CONTINUOUS
 62
       7
100
AcDbLine
 10
-616.33333333
 20
-1353.28876627
 30
0.0
 11
-604.45833333
 21
-1353.28876627
 31
0.0
  0
LINE
  5
1A3
100
AcDbEntity
  8
ZUWAKU
  6
CONTINUOUS
 62
       7
100
AcDbLine
 10
-616.33333333
 20
-1353.28876627
 30
0.0
 11
-604.45833333
 21
-1353.28876627
 31
0.0
  0
LINE
  5
1A4
100
AcDbEntity
  8
ZUWAKU
  6
CONTINUOUS
 62
       7
100
AcDbLine
 10
-604.45833333
 20
-1353.28876627
 30
0.0
 11
-596.33333333
 21
-1352.66376627
 31
0.0
  0
LINE
  5
1A5
100
AcDbEntity
  8
ZUWAKU
  6
CONTINUOUS
 62
       7
100
AcDbLine
 10
-604.45833333
 20
-1353.28876627
 30
0.0
 11
-596.33333333
 21
-1352.66376627
 31
0.0
  0
LINE
  5
1A6
100
AcDbEntity
  8
ZUWAKU
  6
CONTINUOUS
 62
       7
100
AcDbLine
 10
-596.33333333
 20
-1352.66376627
 30
0.0
 11
-587.58333333
 21
-1348.91376627
 31
0.0
  0
LINE
  5
1A7
100
AcDbEntity
  8
ZUWAKU
  6
CONTINUOUS
 62
       7
100
AcDbLine
 10
-596.33333333
 20
-1352.66376627
 30
0.0
 11
-587.58333333
 21
-1348.91376627
 31
0.0
  0
LINE
  5
1A8
100
AcDbEntity
  8
ZUWAKU
  6
CONTINUOUS
 62
       7
100
AcDbLine
 10
-587.58333333
 20
-1348.91376627
 30
0.0
 11
-581.33333333
 21
-1343.28876627
 31
0.0
  0
LINE
  5
1A9
100
AcDbEntity
  8
ZUWAKU
  6
CONTINUOUS
 62
       7
100
AcDbLine
 10
-587.58333333
 20
-1348.91376627
 30
0.0
 11
-581.33333333
 21
-1343.28876627
 31
0.0
  0
LINE
  5
1AA
100
AcDbEntity
  8
ZUWAKU
  6
CONTINUOUS
 62
       7
100
AcDbLine
 10
-698.83333333
 20
-1336.41376627
 30
0.0
 11
-710.08333333
 21
-1366.41376627
 31
0.0
  0
LINE
  5
1AB
100
AcDbEntity
  8
ZUWAKU
  6
CONTINUOUS
 62
       7
100
AcDbLine
 10
-710.08333333
 20
-1366.41376627
 30
0.0
 11
-724.45833333
 21
-1366.41376627
 31
0.0
  0
LINE
  5
1AC
100
AcDbEntity
  8
ZUWAKU
  6
CONTINUOUS
 62
       7
100
AcDbLine
 10
-710.08333333
 20
-1366.41376627
 30
0.0
 11
-724.45833333
 21
-1366.41376627
 31
0.0
  0
LINE
  5
1AD
100
AcDbEntity
  8
ZUWAKU
  6
CONTINUOUS
 62
       7
100
AcDbLine
 10
-724.45833333
 20
-1366.41376627
 30
0.0
 11
-713.83333333
 21
-1336.41376627
 31
0.0
  0
LINE
  5
1AE
100
AcDbEntity
  8
ZUWAKU
  6
CONTINUOUS
 62
       7
100
AcDbLine
 10
-713.83333333
 20
-1336.41376627
 30
0.0
 11
-698.83333333
 21
-1336.41376627
 31
0.0
  0
LINE
  5
1AF
100
AcDbEntity
  8
ZUWAKU
  6
CONTINUOUS
 62
       7
100
AcDbLine
 10
-713.83333333
 20
-1336.41376627
 30
0.0
 11
-698.83333333
 21
-1336.41376627
 31
0.0
  0
LINE
  5
1B0
100
AcDbEntity
  8
ZUWAKU
  6
CONTINUOUS
 62
       7
100
AcDbLine
 10
-492.70833333
 20
-1336.41376627
 30
0.0
 11
-496.45833333
 21
-1347.66376627
 31
0.0
  0
LINE
  5
1B1
100
AcDbEntity
  8
ZUWAKU
  6
CONTINUOUS
 62
       7
100
AcDbLine
 10
-496.45833333
 20
-1347.66376627
 30
0.0
 11
-476.45833333
 21
-1347.66376627
 31
0.0
  0
LINE
  5
1B2
100
AcDbEntity
  8
ZUWAKU
  6
CONTINUOUS
 62
       7
100
AcDbLine
 10
-496.45833333
 20
-1347.66376627
 30
0.0
 11
-476.45833333
 21
-1347.66376627
 31
0.0
  0
LINE
  5
1B3
100
AcDbEntity
  8
ZUWAKU
  6
CONTINUOUS
 62
       7
100
AcDbLine
 10
-510.20833333
 20
-1375.78876627
 30
0.0
 11
-513.95833333
 21
-1386.41376627
 31
0.0
  0
LINE
  5
1B4
100
AcDbEntity
  8
ZUWAKU
  6
CONTINUOUS
 62
       7
100
AcDbLine
 10
-510.20833333
 20
-1375.78876627
 30
0.0
 11
-513.95833333
 21
-1386.41376627
 31
0.0
  0
LINE
  5
1B5
100
AcDbEntity
  8
ZUWAKU
  6
CONTINUOUS
 62
       7
100
AcDbLine
 10
-513.95833333
 20
-1386.41376627
 30
0.0
 11
-495.20833333
 21
-1383.28876627
 31
0.0
  0
LINE
  5
1B6
100
AcDbEntity
  8
ZUWAKU
  6
CONTINUOUS
 62
       7
100
AcDbLine
 10
-495.20833333
 20
-1383.28876627
 30
0.0
 11
-486.45833333
 21
-1380.78876627
 31
0.0
  0
LINE
  5
1B7
100
AcDbEntity
  8
ZUWAKU
  6
CONTINUOUS
 62
       7
100
AcDbLine
 10
-495.20833333
 20
-1383.28876627
 30
0.0
 11
-486.45833333
 21
-1380.78876627
 31
0.0
  0
LINE
  5
1B8
100
AcDbEntity
  8
ZUWAKU
  6
CONTINUOUS
 62
       7
100
AcDbLine
 10
-477.08333333
 20
-1377.66376627
 30
0.0
 11
-472.08333333
 21
-1385.78876627
 31
0.0
  0
LINE
  5
1B9
100
AcDbEntity
  8
ZUWAKU
  6
CONTINUOUS
 62
       7
100
AcDbLine
 10
-472.08333333
 20
-1385.78876627
 30
0.0
 11
-456.45833333
 21
-1385.78876627
 31
0.0
  0
LINE
  5
1BA
100
AcDbEntity
  8
ZUWAKU
  6
CONTINUOUS
 62
       7
100
AcDbLine
 10
-472.08333333
 20
-1385.78876627
 30
0.0
 11
-456.45833333
 21
-1385.78876627
 31
0.0
  0
LINE
  5
1BB
100
AcDbEntity
  8
ZUWAKU
  6
CONTINUOUS
 62
       7
100
AcDbLine
 10
-467.08333333
 20
-1368.28876627
 30
0.0
 11
-461.45833333
 21
-1360.78876627
 31
0.0
  0
LINE
  5
1BC
100
AcDbEntity
  8
ZUWAKU
  6
CONTINUOUS
 62
       7
100
AcDbLine
 10
-461.45833333
 20
-1360.78876627
 30
0.0
 11
-456.45833333
 21
-1353.28876627
 31
0.0
  0
LINE
  5
1BD
100
AcDbEntity
  8
ZUWAKU
  6
CONTINUOUS
 62
       7
100
AcDbLine
 10
-456.45833333
 20
-1353.28876627
 30
0.0
 11
-452.70833333
 21
-1345.16376627
 31
0.0
  0
LINE
  5
1BE
100
AcDbEntity
  8
ZUWAKU
  6
CONTINUOUS
 62
       7
100
AcDbLine
 10
-452.70833333
 20
-1345.16376627
 30
0.0
 11
-450.20833333
 21
-1336.41376627
 31
0.0
  0
LINE
  5
1BF
100
AcDbEntity
  8
ZUWAKU
  6
CONTINUOUS
 62
       7
100
AcDbLine
 10
-452.70833333
 20
-1345.16376627
 30
0.0
 11
-450.20833333
 21
-1336.41376627
 31
0.0
  0
LINE
  5
1C0
100
AcDbEntity
  8
ZUWAKU
  6
CONTINUOUS
 62
       7
100
AcDbLine
 10
-450.20833333
 20
-1336.41376627
 30
0.0
 11
-492.70833333
 21
-1336.41376627
 31
0.0
  0
LINE
  5
1C1
100
AcDbEntity
  8
ZUWAKU
  6
CONTINUOUS
 62
       7
100
AcDbLine
 10
-488.33333333
 20
-1367.66376627
 30
0.0
 11
-498.33333333
 21
-1373.28876627
 31
0.0
  0
LINE
  5
1C2
100
AcDbEntity
  8
ZUWAKU
  6
CONTINUOUS
 62
       7
100
AcDbLine
 10
-486.45833333
 20
-1380.78876627
 30
0.0
 11
-477.08333333
 21
-1377.66376627
 31
0.0
  0
LINE
  5
1C3
100
AcDbEntity
  8
ZUWAKU
  6
CONTINUOUS
 62
       7
100
AcDbLine
 10
-486.45833333
 20
-1380.78876627
 30
0.0
 11
-477.08333333
 21
-1377.66376627
 31
0.0
  0
LINE
  5
1C4
100
AcDbEntity
  8
ZUWAKU
  6
CONTINUOUS
 62
       7
100
AcDbLine
 10
-456.45833333
 20
-1385.78876627
 30
0.0
 11
-467.08333333
 21
-1368.28876627
 31
0.0
  0
LINE
  5
1C5
100
AcDbEntity
  8
ZUWAKU
  6
CONTINUOUS
 62
       7
100
AcDbLine
 10
-456.45833333
 20
-1385.78876627
 30
0.0
 11
-467.08333333
 21
-1368.28876627
 31
0.0
  0
LINE
  5
1C6
100
AcDbEntity
  8
ZUWAKU
  6
CONTINUOUS
 62
       7
100
AcDbLine
 10
-480.20833333
 20
-1358.28876627
 30
0.0
 11
-488.33333333
 21
-1367.66376627
 31
0.0
  0
LINE
  5
1C7
100
AcDbEntity
  8
ZUWAKU
  6
CONTINUOUS
 62
       7
100
AcDbLine
 10
-480.20833333
 20
-1358.28876627
 30
0.0
 11
-488.33333333
 21
-1367.66376627
 31
0.0
  0
LINE
  5
1C8
100
AcDbEntity
  8
ZUWAKU
  6
CONTINUOUS
 62
       7
100
AcDbLine
 10
-604.45833333
 20
-1353.28876627
 30
0.0
 11
-596.33333333
 21
-1352.66376627
 31
0.0
  0
LINE
  5
1C9
100
AcDbEntity
  8
ZUWAKU
  6
CONTINUOUS
 62
       7
100
AcDbLine
 10
-596.33333333
 20
-1352.66376627
 30
0.0
 11
-587.58333333
 21
-1348.91376627
 31
0.0
  0
LINE
  5
1CA
100
AcDbEntity
  8
ZUWAKU
  6
CONTINUOUS
 62
       7
100
AcDbLine
 10
-587.58333333
 20
-1348.91376627
 30
0.0
 11
-581.33333333
 21
-1343.28876627
 31
0.0
  0
LINE
  5
1CB
100
AcDbEntity
  8
ZUWAKU
  6
CONTINUOUS
 62
       7
100
AcDbLine
 10
-581.33333333
 20
-1343.28876627
 30
0.0
 11
-576.33333333
 21
-1336.41376627
 31
0.0
  0
LINE
  5
1CC
100
AcDbEntity
  8
ZUWAKU
  6
CONTINUOUS
 62
       7
100
AcDbLine
 10
-533.45833333
 20
-1385.78876627
 30
0.0
 11
-522.20833333
 21
-1380.78876627
 31
0.0
  0
LINE
  5
1CD
100
AcDbEntity
  8
ZUWAKU
  6
CONTINUOUS
 62
       7
100
AcDbLine
 10
-522.20833333
 20
-1380.78876627
 30
0.0
 11
-512.20833333
 21
-1371.41376627
 31
0.0
  0
LINE
  5
1CE
100
AcDbEntity
  8
ZUWAKU
  6
CONTINUOUS
 62
       7
100
AcDbLine
 10
-512.20833333
 20
-1371.41376627
 30
0.0
 11
-504.70833333
 21
-1358.91376627
 31
0.0
  0
LINE
  5
1CF
100
AcDbEntity
  8
ZUWAKU
  6
CONTINUOUS
 62
       7
100
AcDbLine
 10
-504.70833333
 20
-1358.91376627
 30
0.0
 11
-502.20833333
 21
-1345.78876627
 31
0.0
  0
LINE
  5
1D0
100
AcDbEntity
  8
ZUWAKU
  6
CONTINUOUS
 62
       7
100
AcDbLine
 10
-510.20833333
 20
-1375.78876627
 30
0.0
 11
-498.33333333
 21
-1373.28876627
 31
0.0
  0
LINE
  5
1D1
100
AcDbEntity
  8
ZUWAKU
  6
CONTINUOUS
 62
       7
100
AcDbLine
 10
-498.33333333
 20
-1373.28876627
 30
0.0
 11
-488.33333333
 21
-1367.66376627
 31
0.0
  0
LINE
  5
1D2
100
AcDbEntity
  8
ZUWAKU
  6
CONTINUOUS
 62
       7
100
AcDbLine
 10
-488.33333333
 20
-1367.66376627
 30
0.0
 11
-480.20833333
 21
-1358.28876627
 31
0.0
  0
LINE
  5
1D3
100
AcDbEntity
  8
ZUWAKU
  6
CONTINUOUS
 62
       7
100
AcDbLine
 10
-578.20833333
 20
-1358.28876627
 30
0.0
 11
-570.08333333
 21
-1355.78876627
 31
0.0
  0
LINE
  5
1D4
100
AcDbEntity
  8
ZUWAKU
  6
CONTINUOUS
 62
       7
100
AcDbLine
 10
-570.08333333
 20
-1355.78876627
 30
0.0
 11
-563.20833333
 21
-1350.78876627
 31
0.0
  0
LINE
  5
1D5
100
AcDbEntity
  8
ZUWAKU
  6
CONTINUOUS
 62
       7
100
AcDbLine
 10
-563.20833333
 20
-1350.78876627
 30
0.0
 11
-556.95833333
 21
-1344.53876627
 31
0.0
  0
LINE
  5
1D6
100
AcDbEntity
  8
ZUWAKU
  6
CONTINUOUS
 62
       7
100
AcDbLine
 10
-556.95833333
 20
-1344.53876627
 30
0.0
 11
-553.20833333
 21
-1336.41376627
 31
0.0
  0
LINE
  5
1D7
100
AcDbEntity
  8
ZUWAKU
  6
CONTINUOUS
 62
       7
100
AcDbLine
 10
-467.08333333
 20
-1368.28876627
 30
0.0
 11
-461.45833333
 21
-1360.78876627
 31
0.0
  0
LINE
  5
1D8
100
AcDbEntity
  8
ZUWAKU
  6
CONTINUOUS
 62
       7
100
AcDbLine
 10
-461.45833333
 20
-1360.78876627
 30
0.0
 11
-456.45833333
 21
-1353.28876627
 31
0.0
  0
LINE
  5
1D9
100
AcDbEntity
  8
ZUWAKU
  6
CONTINUOUS
 62
       7
100
AcDbLine
 10
-456.45833333
 20
-1353.28876627
 30
0.0
 11
-452.70833333
 21
-1345.16376627
 31
0.0
  0
LINE
  5
1DA
100
AcDbEntity
  8
ZUWAKU
  6
CONTINUOUS
 62
       7
100
AcDbLine
 10
-452.70833333
 20
-1345.16376627
 30
0.0
 11
-450.20833333
 21
-1336.41376627
 31
0.0
  0
LINE
  5
1DB
100
AcDbEntity
  8
ZUWAKU
  6
CONTINUOUS
 62
       7
100
AcDbLine
 10
-495.20833333
 20
-1383.28876627
 30
0.0
 11
-486.45833333
 21
-1380.78876627
 31
0.0
  0
LINE
  5
1DC
100
AcDbEntity
  8
ZUWAKU
  6
CONTINUOUS
 62
       7
100
AcDbLine
 10
-486.45833333
 20
-1380.78876627
 30
0.0
 11
-477.08333333
 21
-1377.66376627
 31
0.0
  0
LINE
  5
1DD
100
AcDbEntity
  8
ZUWAKU
  6
CONTINUOUS
 62
       7
100
AcDbLine
 10
-511.58333333
 20
-1353.91376627
 30
0.0
 11
-508.45833333
 21
-1345.78876627
 31
0.0
  0
LINE
  5
1DE
100
AcDbEntity
  8
ZUWAKU
  6
CONTINUOUS
 62
       7
100
AcDbLine
 10
-508.45833333
 20
-1345.78876627
 30
0.0
 11
-502.20833333
 21
-1345.78876627
 31
0.0
  0
LINE
  5
1DF
100
AcDbEntity
  8
ZUWAKU
  6
CONTINUOUS
 62
       7
100
AcDbLine
 10
-508.45833333
 20
-1345.78876627
 30
0.0
 11
-502.20833333
 21
-1345.78876627
 31
0.0
  0
LINE
  5
1E0
100
AcDbEntity
  8
ZUWAKU
  6
CONTINUOUS
 62
       7
100
AcDbLine
 10
-502.20833333
 20
-1345.78876627
 30
0.0
 11
-504.70833333
 21
-1358.91376627
 31
0.0
  0
LINE
  5
1E1
100
AcDbEntity
  8
ZUWAKU
  6
CONTINUOUS
 62
       7
100
AcDbLine
 10
-504.70833333
 20
-1358.91376627
 30
0.0
 11
-512.20833333
 21
-1371.41376627
 31
0.0
  0
LINE
  5
1E2
100
AcDbEntity
  8
ZUWAKU
  6
CONTINUOUS
 62
       7
100
AcDbLine
 10
-504.70833333
 20
-1358.91376627
 30
0.0
 11
-512.20833333
 21
-1371.41376627
 31
0.0
  0
LINE
  5
1E3
100
AcDbEntity
  8
ZUWAKU
  6
CONTINUOUS
 62
       7
100
AcDbLine
 10
-512.20833333
 20
-1371.41376627
 30
0.0
 11
-522.20833333
 21
-1380.78876627
 31
0.0
  0
LINE
  5
1E4
100
AcDbEntity
  8
ZUWAKU
  6
CONTINUOUS
 62
       7
100
AcDbLine
 10
-534.70833333
 20
-1385.78876627
 30
0.0
 11
-566.58333333
 21
-1385.78876627
 31
0.0
  0
LINE
  5
1E5
100
AcDbEntity
  8
ZUWAKU
  6
CONTINUOUS
 62
       7
100
AcDbLine
 10
-566.58333333
 20
-1385.78876627
 30
0.0
 11
-560.95833333
 21
-1370.16376627
 31
0.0
  0
LINE
  5
1E6
100
AcDbEntity
  8
ZUWAKU
  6
CONTINUOUS
 62
       7
100
AcDbLine
 10
-566.58333333
 20
-1385.78876627
 30
0.0
 11
-560.95833333
 21
-1370.16376627
 31
0.0
  0
LINE
  5
1E7
100
AcDbEntity
  8
ZUWAKU
  6
CONTINUOUS
 62
       7
100
AcDbLine
 10
-516.58333333
 20
-1360.78876627
 30
0.0
 11
-511.58333333
 21
-1353.91376627
 31
0.0
  0
LINE
  5
1E8
100
AcDbEntity
  8
ZUWAKU
  6
CONTINUOUS
 62
       7
100
AcDbLine
 10
-560.95833333
 20
-1370.16376627
 30
0.0
 11
-530.95833333
 21
-1370.16376627
 31
0.0
  0
LINE
  5
1E9
100
AcDbEntity
  8
ZUWAKU
  6
CONTINUOUS
 62
       7
100
AcDbLine
 10
-560.95833333
 20
-1370.16376627
 30
0.0
 11
-530.95833333
 21
-1370.16376627
 31
0.0
  0
LINE
  5
1EA
100
AcDbEntity
  8
ZUWAKU
  6
CONTINUOUS
 62
       7
100
AcDbLine
 10
-530.95833333
 20
-1370.16376627
 30
0.0
 11
-523.45833333
 21
-1366.41376627
 31
0.0
  0
LINE
  5
1EB
100
AcDbEntity
  8
ZUWAKU
  6
CONTINUOUS
 62
       7
100
AcDbLine
 10
-530.95833333
 20
-1370.16376627
 30
0.0
 11
-523.45833333
 21
-1366.41376627
 31
0.0
  0
LINE
  5
1EC
100
AcDbEntity
  8
ZUWAKU
  6
CONTINUOUS
 62
       7
100
AcDbLine
 10
-523.45833333
 20
-1366.41376627
 30
0.0
 11
-516.58333333
 21
-1360.78876627
 31
0.0
  0
LINE
  5
1ED
100
AcDbEntity
  8
ZUWAKU
  6
CONTINUOUS
 62
       7
100
AcDbLine
 10
-622.45833333
 20
-1353.28876627
 30
0.0
 11
-629.95833333
 21
-1373.91376627
 31
0.0
  0
LINE
  5
1EE
100
AcDbEntity
  8
ZUWAKU
  6
CONTINUOUS
 62
       7
100
AcDbLine
 10
-629.95833333
 20
-1373.91376627
 30
0.0
 11
-634.33333333
 21
-1378.28876627
 31
0.0
  0
LINE
  5
1EF
100
AcDbEntity
  8
ZUWAKU
  6
CONTINUOUS
 62
       7
100
AcDbLine
 10
-629.95833333
 20
-1373.91376627
 30
0.0
 11
-634.33333333
 21
-1378.28876627
 31
0.0
  0
LINE
  5
1F0
100
AcDbEntity
  8
ZUWAKU
  6
CONTINUOUS
 62
       7
100
AcDbLine
 10
-634.33333333
 20
-1378.28876627
 30
0.0
 11
-638.08333333
 21
-1382.03876627
 31
0.0
  0
LINE
  5
1F1
100
AcDbEntity
  8
ZUWAKU
  6
CONTINUOUS
 62
       7
100
AcDbLine
 10
-638.08333333
 20
-1382.03876627
 30
0.0
 11
-643.08333333
 21
-1384.53876627
 31
0.0
  0
LINE
  5
1F2
100
AcDbEntity
  8
ZUWAKU
  6
CONTINUOUS
 62
       7
100
AcDbLine
 10
-638.08333333
 20
-1382.03876627
 30
0.0
 11
-643.08333333
 21
-1384.53876627
 31
0.0
  0
LINE
  5
1F3
100
AcDbEntity
  8
ZUWAKU
  6
CONTINUOUS
 62
       7
100
AcDbLine
 10
-643.08333333
 20
-1384.53876627
 30
0.0
 11
-648.08333333
 21
-1385.78876627
 31
0.0
  0
LINE
  5
1F4
100
AcDbEntity
  8
ZUWAKU
  6
CONTINUOUS
 62
       7
100
AcDbLine
 10
-648.08333333
 20
-1385.78876627
 30
0.0
 11
-679.95833333
 21
-1385.78876627
 31
0.0
  0
LINE
  5
1F5
100
AcDbEntity
  8
ZUWAKU
  6
CONTINUOUS
 62
       7
100
AcDbLine
 10
-648.08333333
 20
-1385.78876627
 30
0.0
 11
-679.95833333
 21
-1385.78876627
 31
0.0
  0
LINE
  5
1F6
100
AcDbEntity
  8
ZUWAKU
  6
CONTINUOUS
 62
       7
100
AcDbLine
 10
-679.95833333
 20
-1385.78876627
 30
0.0
 11
-676.20833333
 21
-1376.41376627
 31
0.0
  0
LINE
  5
1F7
100
AcDbEntity
  8
ZUWAKU
  6
CONTINUOUS
 62
       7
100
AcDbLine
 10
-676.20833333
 20
-1376.41376627
 30
0.0
 11
-655.58333333
 21
-1376.41376627
 31
0.0
  0
LINE
  5
1F8
100
AcDbEntity
  8
ZUWAKU
  6
CONTINUOUS
 62
       7
100
AcDbLine
 10
-676.20833333
 20
-1376.41376627
 30
0.0
 11
-655.58333333
 21
-1376.41376627
 31
0.0
  0
LINE
  5
1F9
100
AcDbEntity
  8
ZUWAKU
  6
CONTINUOUS
 62
       7
100
AcDbLine
 10
-643.70833333
 20
-1362.03876627
 30
0.0
 11
-669.95833333
 21
-1362.03876627
 31
0.0
  0
LINE
  5
1FA
100
AcDbEntity
  8
ZUWAKU
  6
CONTINUOUS
 62
       7
100
AcDbLine
 10
-669.95833333
 20
-1362.03876627
 30
0.0
 11
-667.45833333
 21
-1353.28876627
 31
0.0
  0
LINE
  5
1FB
100
AcDbEntity
  8
ZUWAKU
  6
CONTINUOUS
 62
       7
100
AcDbLine
 10
-669.95833333
 20
-1362.03876627
 30
0.0
 11
-667.45833333
 21
-1353.28876627
 31
0.0
  0
LINE
  5
1FC
100
AcDbEntity
  8
ZUWAKU
  6
CONTINUOUS
 62
       7
100
AcDbLine
 10
-655.58333333
 20
-1376.41376627
 30
0.0
 11
-651.20833333
 21
-1373.28876627
 31
0.0
  0
LINE
  5
1FD
100
AcDbEntity
  8
ZUWAKU
  6
CONTINUOUS
 62
       7
100
AcDbLine
 10
-655.58333333
 20
-1376.41376627
 30
0.0
 11
-651.20833333
 21
-1373.28876627
 31
0.0
  0
LINE
  5
1FE
100
AcDbEntity
  8
ZUWAKU
  6
CONTINUOUS
 62
       7
100
AcDbLine
 10
-651.20833333
 20
-1373.28876627
 30
0.0
 11
-648.08333333
 21
-1370.16376627
 31
0.0
  0
LINE
  5
1FF
100
AcDbEntity
  8
ZUWAKU
  6
CONTINUOUS
 62
       7
100
AcDbLine
 10
-651.20833333
 20
-1373.28876627
 30
0.0
 11
-648.08333333
 21
-1370.16376627
 31
0.0
  0
LINE
  5
200
100
AcDbEntity
  8
ZUWAKU
  6
CONTINUOUS
 62
       7
100
AcDbLine
 10
-648.08333333
 20
-1370.16376627
 30
0.0
 11
-644.95833333
 21
-1366.41376627
 31
0.0
  0
LINE
  5
201
100
AcDbEntity
  8
ZUWAKU
  6
CONTINUOUS
 62
       7
100
AcDbLine
 10
-648.08333333
 20
-1370.16376627
 30
0.0
 11
-644.95833333
 21
-1366.41376627
 31
0.0
  0
LINE
  5
202
100
AcDbEntity
  8
ZUWAKU
  6
CONTINUOUS
 62
       7
100
AcDbLine
 10
-644.95833333
 20
-1366.41376627
 30
0.0
 11
-643.70833333
 21
-1362.03876627
 31
0.0
  0
LINE
  5
203
100
AcDbEntity
  8
ZUWAKU
  6
CONTINUOUS
 62
       7
100
AcDbLine
 10
-644.95833333
 20
-1366.41376627
 30
0.0
 11
-643.70833333
 21
-1362.03876627
 31
0.0
  0
LINE
  5
204
100
AcDbEntity
  8
ZUWAKU
  6
CONTINUOUS
 62
       7
100
AcDbLine
 10
-684.33333333
 20
-1336.41376627
 30
0.0
 11
-670.58829596
 21
-1336.41376627
 31
0.0
  0
LINE
  5
205
100
AcDbEntity
  8
ZUWAKU
  6
CONTINUOUS
 62
       7
100
AcDbLine
 10
-681.95833333
 20
-1373.28876627
 30
0.0
 11
-686.95833333
 21
-1378.28876627
 31
0.0
  0
LINE
  5
206
100
AcDbEntity
  8
ZUWAKU
  6
CONTINUOUS
 62
       7
100
AcDbLine
 10
-686.95833333
 20
-1378.28876627
 30
0.0
 11
-691.95833333
 21
-1382.66376627
 31
0.0
  0
LINE
  5
207
100
AcDbEntity
  8
ZUWAKU
  6
CONTINUOUS
 62
       7
100
AcDbLine
 10
-686.95833333
 20
-1378.28876627
 30
0.0
 11
-691.95833333
 21
-1382.66376627
 31
0.0
  0
LINE
  5
208
100
AcDbEntity
  8
ZUWAKU
  6
CONTINUOUS
 62
       7
100
AcDbLine
 10
-691.95833333
 20
-1382.66376627
 30
0.0
 11
-698.20833333
 21
-1385.16376627
 31
0.0
  0
LINE
  5
209
100
AcDbEntity
  8
ZUWAKU
  6
CONTINUOUS
 62
       7
100
AcDbLine
 10
-698.20833333
 20
-1385.16376627
 30
0.0
 11
-704.45833333
 21
-1385.78876627
 31
0.0
  0
LINE
  5
20A
100
AcDbEntity
  8
ZUWAKU
  6
CONTINUOUS
 62
       7
100
AcDbLine
 10
-704.45833333
 20
-1385.78876627
 30
0.0
 11
-720.08333333
 21
-1385.78876627
 31
0.0
  0
LINE
  5
20B
100
AcDbEntity
  8
ZUWAKU
  6
CONTINUOUS
 62
       7
100
AcDbLine
 10
-720.08333333
 20
-1385.78876627
 30
0.0
 11
-716.95833333
 21
-1376.41376627
 31
0.0
  0
LINE
  5
20C
100
AcDbEntity
  8
ZUWAKU
  6
CONTINUOUS
 62
       7
100
AcDbLine
 10
-720.08333333
 20
-1385.78876627
 30
0.0
 11
-716.95833333
 21
-1376.41376627
 31
0.0
  0
LINE
  5
20D
100
AcDbEntity
  8
ZUWAKU
  6
CONTINUOUS
 62
       7
100
AcDbLine
 10
-698.20833333
 20
-1368.28876627
 30
0.0
 11
-686.33333333
 21
-1336.41376627
 31
0.0
  0
LINE
  5
20E
100
AcDbEntity
  8
ZUWAKU
  6
CONTINUOUS
 62
       7
100
AcDbLine
 10
-716.95833333
 20
-1376.41376627
 30
0.0
 11
-711.33333333
 21
-1376.41376627
 31
0.0
  0
LINE
  5
20F
100
AcDbEntity
  8
ZUWAKU
  6
CONTINUOUS
 62
       7
100
AcDbLine
 10
-716.95833333
 20
-1376.41376627
 30
0.0
 11
-711.33333333
 21
-1376.41376627
 31
0.0
  0
LINE
  5
210
100
AcDbEntity
  8
ZUWAKU
  6
CONTINUOUS
 62
       7
100
AcDbLine
 10
-701.33333333
 20
-1373.28876627
 30
0.0
 11
-698.20833333
 21
-1368.28876627
 31
0.0
  0
LINE
  5
211
100
AcDbEntity
  8
ZUWAKU
  6
CONTINUOUS
 62
       7
100
AcDbLine
 10
-706.33333333
 20
-1375.78876627
 30
0.0
 11
-701.33333333
 21
-1373.28876627
 31
0.0
  0
LINE
  5
212
100
AcDbEntity
  8
ZUWAKU
  6
CONTINUOUS
 62
       7
100
AcDbLine
 10
-711.33333333
 20
-1376.41376627
 30
0.0
 11
-706.33333333
 21
-1375.78876627
 31
0.0
  0
LINE
  5
213
100
AcDbEntity
  8
ZUWAKU
  6
CONTINUOUS
 62
       7
100
AcDbLine
 10
-711.33333333
 20
-1376.41376627
 30
0.0
 11
-706.33333333
 21
-1375.78876627
 31
0.0
  0
LINE
  5
214
100
AcDbEntity
  8
ZUWAKU
  6
CONTINUOUS
 62
       7
100
AcDbLine
 10
-548.45833333
 20
-1336.41376627
 30
0.0
 11
-528.45833333
 21
-1336.41376627
 31
0.0
  0
LINE
  5
215
100
AcDbEntity
  8
ZUWAKU
  6
CONTINUOUS
 62
       7
100
AcDbLine
 10
-528.45833333
 20
-1336.41376627
 30
0.0
 11
-532.20833333
 21
-1347.66376627
 31
0.0
  0
LINE
  5
216
100
AcDbEntity
  8
ZUWAKU
  6
CONTINUOUS
 62
       7
100
AcDbLine
 10
-528.45833333
 20
-1336.41376627
 30
0.0
 11
-532.20833333
 21
-1347.66376627
 31
0.0
  0
LINE
  5
217
100
AcDbEntity
  8
ZUWAKU
  6
CONTINUOUS
 62
       7
100
AcDbLine
 10
-533.20833333
 20
-1347.66376627
 30
0.0
 11
-552.83333333
 21
-1347.66376627
 31
0.0
  0
LINE
  5
218
100
AcDbEntity
  8
ZUWAKU
  6
CONTINUOUS
 62
       7
100
AcDbLine
 10
-474.38407693
 20
-1347.58062154
 30
0.0
 11
-480.20833333
 21
-1358.28876627
 31
0.0
  0
LINE
  5
219
100
AcDbEntity
  8
ZUWAKU
  6
CONTINUOUS
 62
       7
100
AcDbLine
 10
-457.08333333
 20
-1336.41376627
 30
0.0
 11
-488.33333333
 21
-1367.66376627
 31
0.0
  0
LINE
  5
21A
100
AcDbEntity
  8
ZUWAKU
  6
CONTINUOUS
 62
       7
100
AcDbLine
 10
-488.33333333
 20
-1367.66376627
 30
0.0
 11
-505.70833333
 21
-1385.03876627
 31
0.0
  0
LINE
  5
21B
100
AcDbEntity
  8
ZUWAKU
  6
CONTINUOUS
 62
       7
100
AcDbLine
 10
-459.91176046
 20
-1336.41376627
 30
0.0
 11
-478.32598802
 21
-1354.82799383
 31
0.0
  0
LINE
  5
21C
100
AcDbEntity
  8
ZUWAKU
  6
CONTINUOUS
 62
       7
100
AcDbLine
 10
-494.79830962
 20
-1371.30031543
 30
0.0
 11
-509.10244588
 21
-1385.6044517
 31
0.0
  0
LINE
  5
21D
100
AcDbEntity
  8
ZUWAKU
  6
CONTINUOUS
 62
       7
100
AcDbLine
 10
-462.74018758
 20
-1336.41376627
 30
0.0
 11
-474.95296151
 21
-1348.6265402
 31
0.0
  0
LINE
  5
21E
100
AcDbEntity
  8
ZUWAKU
  6
CONTINUOUS
 62
       7
100
AcDbLine
 10
-499.95701538
 20
-1373.63059407
 30
0.0
 11
-512.49655843
 21
-1386.17013712
 31
0.0
  0
LINE
  5
21F
100
AcDbEntity
  8
ZUWAKU
  6
CONTINUOUS
 62
       7
100
AcDbLine
 10
-465.56861471
 20
-1336.41376627
 30
0.0
 11
-476.81861471
 21
-1347.66376627
 31
0.0
  0
LINE
  5
220
100
AcDbEntity
  8
ZUWAKU
  6
CONTINUOUS
 62
       7
100
AcDbLine
 10
-503.53968974
 20
-1374.3848413
 30
0.0
 11
-513.07999804
 21
-1383.9251496
 31
0.0
  0
LINE
  5
221
100
AcDbEntity
  8
ZUWAKU
  6
CONTINUOUS
 62
       7
100
AcDbLine
 10
-468.39704183
 20
-1336.41376627
 30
0.0
 11
-479.64704183
 21
-1347.66376627
 31
0.0
  0
LINE
  5
222
100
AcDbEntity
  8
ZUWAKU
  6
CONTINUOUS
 62
       7
100
AcDbLine
 10
-507.1223641
 20
-1375.13908854
 30
0.0
 11
-511.53721961
 21
-1379.55394404
 31
0.0
  0
LINE
  5
223
100
AcDbEntity
  8
ZUWAKU
  6
CONTINUOUS
 62
       7
100
AcDbLine
 10
-471.22546896
 20
-1336.41376627
 30
0.0
 11
-482.47546896
 21
-1347.66376627
 31
0.0
  0
LINE
  5
224
100
AcDbEntity
  8
ZUWAKU
  6
CONTINUOUS
 62
       7
100
AcDbLine
 10
-474.05389608
 20
-1336.41376627
 30
0.0
 11
-485.30389608
 21
-1347.66376627
 31
0.0
  0
LINE
  5
225
100
AcDbEntity
  8
ZUWAKU
  6
CONTINUOUS
 62
       7
100
AcDbLine
 10
-476.88232321
 20
-1336.41376627
 30
0.0
 11
-488.13232321
 21
-1347.66376627
 31
0.0
  0
LINE
  5
226
100
AcDbEntity
  8
ZUWAKU
  6
CONTINUOUS
 62
       7
100
AcDbLine
 10
-479.71075033
 20
-1336.41376627
 30
0.0
 11
-490.96075033
 21
-1347.66376627
 31
0.0
  0
LINE
  5
227
100
AcDbEntity
  8
ZUWAKU
  6
CONTINUOUS
 62
       7
100
AcDbLine
 10
-482.53917746
 20
-1336.41376627
 30
0.0
 11
-493.78917746
 21
-1347.66376627
 31
0.0
  0
LINE
  5
228
100
AcDbEntity
  8
ZUWAKU
  6
CONTINUOUS
 62
       7
100
AcDbLine
 10
-485.36760458
 20
-1336.41376627
 30
0.0
 11
-496.37869771
 21
-1347.4248594
 31
0.0
  0
LINE
  5
229
100
AcDbEntity
  8
ZUWAKU
  6
CONTINUOUS
 62
       7
100
AcDbLine
 10
-488.19603171
 20
-1336.41376627
 30
0.0
 11
-494.96448415
 21
-1343.18221871
 31
0.0
  0
LINE
  5
22A
100
AcDbEntity
  8
ZUWAKU
  6
CONTINUOUS
 62
       7
100
AcDbLine
 10
-491.02445883
 20
-1336.41376627
 30
0.0
 11
-493.55027058
 21
-1338.93957803
 31
0.0
  0
LINE
  5
22B
100
AcDbEntity
  8
ZUWAKU
  6
CONTINUOUS
 62
       7
100
AcDbLine
 10
-454.25490621
 20
-1336.41376627
 30
0.0
 11
-502.31422078
 21
-1384.47308085
 31
0.0
  0
LINE
  5
22C
100
AcDbEntity
  8
ZUWAKU
  6
CONTINUOUS
 62
       7
100
AcDbLine
 10
-451.42647908
 20
-1336.41376627
 30
0.0
 11
-498.92010823
 21
-1383.90739542
 31
0.0
  0
LINE
  5
22D
100
AcDbEntity
  8
ZUWAKU
  6
CONTINUOUS
 62
       7
100
AcDbLine
 10
-450.85244588
 20
-1338.66816019
 30
0.0
 11
-495.52599568
 21
-1383.34171
 31
0.0
  0
LINE
  5
22E
100
AcDbEntity
  8
ZUWAKU
  6
CONTINUOUS
 62
       7
100
AcDbLine
 10
-451.98381673
 20
-1342.62795817
 30
0.0
 11
-491.61914143
 21
-1382.26328287
 31
0.0
  0
LINE
  5
22F
100
AcDbEntity
  8
ZUWAKU
  6
CONTINUOUS
 62
       7
100
AcDbLine
 10
-453.58016387
 20
-1347.05273243
 30
0.0
 11
-487.65934346
 21
-1381.13191202
 31
0.0
  0
LINE
  5
230
100
AcDbEntity
  8
ZUWAKU
  6
CONTINUOUS
 62
       7
100
AcDbLine
 10
-456.00452997
 20
-1352.30552566
 30
0.0
 11
-483.50248921
 21
-1379.8034849
 31
0.0
  0
LINE
  5
231
100
AcDbEntity
  8
ZUWAKU
  6
CONTINUOUS
 62
       7
100
AcDbLine
 10
-461.05631308
 20
-1360.18573589
 30
0.0
 11
-479.25984852
 21
-1378.38927133
 31
0.0
  0
LINE
  5
232
100
AcDbEntity
  8
ZUWAKU
  6
CONTINUOUS
 62
       7
100
AcDbLine
 10
-466.79908691
 20
-1368.75693685
 30
0.0
 11
-476.55860305
 21
-1378.51645298
 31
0.0
  0
LINE
  5
233
100
AcDbEntity
  8
ZUWAKU
  6
CONTINUOUS
 62
       7
100
AcDbLine
 10
-465.73057
 20
-1370.51684706
 30
0.0
 11
-475.481107
 21
-1380.26738406
 31
0.0
  0
LINE
  5
234
100
AcDbEntity
  8
ZUWAKU
  6
CONTINUOUS
 62
       7
100
AcDbLine
 10
-464.66205308
 20
-1372.27675727
 30
0.0
 11
-474.40361095
 21
-1382.01831514
 31
0.0
  0
LINE
  5
235
100
AcDbEntity
  8
ZUWAKU
  6
CONTINUOUS
 62
       7
100
AcDbLine
 10
-463.59353617
 20
-1374.03666748
 30
0.0
 11
-473.32611491
 21
-1383.76924622
 31
0.0
  0
LINE
  5
236
100
AcDbEntity
  8
ZUWAKU
  6
CONTINUOUS
 62
       7
100
AcDbLine
 10
-462.52501926
 20
-1375.79657769
 30
0.0
 11
-472.24861886
 21
-1385.52017729
 31
0.0
  0
LINE
  5
237
100
AcDbEntity
  8
ZUWAKU
  6
CONTINUOUS
 62
       7
100
AcDbLine
 10
-461.45650234
 20
-1377.5564879
 30
0.0
 11
-469.68878071
 21
-1385.78876627
 31
0.0
  0
LINE
  5
238
100
AcDbEntity
  8
ZUWAKU
  6
CONTINUOUS
 62
       7
100
AcDbLine
 10
-460.38798543
 20
-1379.31639811
 30
0.0
 11
-466.86035359
 21
-1385.78876627
 31
0.0
  0
LINE
  5
239
100
AcDbEntity
  8
ZUWAKU
  6
CONTINUOUS
 62
       7
100
AcDbLine
 10
-459.31946852
 20
-1381.07630832
 30
0.0
 11
-464.03192646
 21
-1385.78876627
 31
0.0
  0
LINE
  5
23A
100
AcDbEntity
  8
ZUWAKU
  6
CONTINUOUS
 62
       7
100
AcDbLine
 10
-458.2509516
 20
-1382.83621853
 30
0.0
 11
-461.20349934
 21
-1385.78876627
 31
0.0
  0
LINE
  5
23B
100
AcDbEntity
  8
ZUWAKU
  6
CONTINUOUS
 62
       7
100
AcDbLine
 10
-457.18243469
 20
-1384.59612875
 30
0.0
 11
-458.37507221
 21
-1385.78876627
 31
0.0
  0
LINE
  5
23C
100
AcDbEntity
  8
ZUWAKU
  6
CONTINUOUS
 62
       7
100
AcDbLine
 10
-535.02083333
 20
-1336.41376627
 30
0.0
 11
-546.27083333
 21
-1347.66376627
 31
0.0
  0
LINE
  5
23D
100
AcDbEntity
  8
ZUWAKU
  6
CONTINUOUS
 62
       7
100
AcDbLine
 10
-537.84926046
 20
-1336.41376627
 30
0.0
 11
-549.09926046
 21
-1347.66376627
 31
0.0
  0
LINE
  5
23E
100
AcDbEntity
  8
ZUWAKU
  6
CONTINUOUS
 62
       7
100
AcDbLine
 10
-540.67768758
 20
-1336.41376627
 30
0.0
 11
-551.92768758
 21
-1347.66376627
 31
0.0
  0
LINE
  5
23F
100
AcDbEntity
  8
ZUWAKU
  6
CONTINUOUS
 62
       7
100
AcDbLine
 10
-543.50611471
 20
-1336.41376627
 30
0.0
 11
-551.60974519
 21
-1344.51739675
 31
0.0
  0
LINE
  5
240
100
AcDbEntity
  8
ZUWAKU
  6
CONTINUOUS
 62
       7
100
AcDbLine
 10
-546.33454183
 20
-1336.41376627
 30
0.0
 11
-549.80983702
 21
-1339.88906145
 31
0.0
  0
LINE
  5
241
100
AcDbEntity
  8
ZUWAKU
  6
CONTINUOUS
 62
       7
100
AcDbLine
 10
-532.19240621
 20
-1336.41376627
 30
0.0
 11
-543.44240621
 21
-1347.66376627
 31
0.0
  0
LINE
  5
242
100
AcDbEntity
  8
ZUWAKU
  6
CONTINUOUS
 62
       7
100
AcDbLine
 10
-529.36397908
 20
-1336.41376627
 30
0.0
 11
-540.61397908
 21
-1347.66376627
 31
0.0
  0
LINE
  5
243
100
AcDbEntity
  8
ZUWAKU
  6
CONTINUOUS
 62
       7
100
AcDbLine
 10
-529.41972402
 20
-1339.29793833
 30
0.0
 11
-537.78555196
 21
-1347.66376627
 31
0.0
  0
LINE
  5
244
100
AcDbEntity
  8
ZUWAKU
  6
CONTINUOUS
 62
       7
100
AcDbLine
 10
-530.83393758
 20
-1343.54057902
 30
0.0
 11
-534.95712483
 21
-1347.66376627
 31
0.0
  0
LINE
  5
245
100
AcDbEntity
  8
ZUWAKU
  6
CONTINUOUS
 62
       7
100
AcDbLine
 10
-532.12869771
 20
-1347.66376627
 30
0.0
 11
-532.24815115
 21
-1347.78321971
 31
0.0
  0
LINE
  5
246
100
AcDbEntity
  8
ZUWAKU
  6
CONTINUOUS
 62
       7
100
AcDbLine
 10
-538.77083333
 20
-1370.16376627
 30
0.0
 11
-554.39583333
 21
-1385.78876627
 31
0.0
  0
LINE
  5
247
100
AcDbEntity
  8
ZUWAKU
  6
CONTINUOUS
 62
       7
100
AcDbLine
 10
-541.59926046
 20
-1370.16376627
 30
0.0
 11
-557.22426046
 21
-1385.78876627
 31
0.0
  0
LINE
  5
248
100
AcDbEntity
  8
ZUWAKU
  6
CONTINUOUS
 62
       7
100
AcDbLine
 10
-544.42768758
 20
-1370.16376627
 30
0.0
 11
-560.05268758
 21
-1385.78876627
 31
0.0
  0
LINE
  5
249
100
AcDbEntity
  8
ZUWAKU
  6
CONTINUOUS
 62
       7
100
AcDbLine
 10
-547.25611471
 20
-1370.16376627
 30
0.0
 11
-562.88111471
 21
-1385.78876627
 31
0.0
  0
LINE
  5
24A
100
AcDbEntity
  8
ZUWAKU
  6
CONTINUOUS
 62
       7
100
AcDbLine
 10
-550.08454183
 20
-1370.16376627
 30
0.0
 11
-565.70954183
 21
-1385.78876627
 31
0.0
  0
LINE
  5
24B
100
AcDbEntity
  8
ZUWAKU
  6
CONTINUOUS
 62
       7
100
AcDbLine
 10
-552.91296896
 20
-1370.16376627
 30
0.0
 11
-565.48385079
 21
-1382.73464811
 31
0.0
  0
LINE
  5
24C
100
AcDbEntity
  8
ZUWAKU
  6
CONTINUOUS
 62
       7
100
AcDbLine
 10
-555.74139608
 20
-1370.16376627
 30
0.0
 11
-563.89286054
 21
-1378.31523073
 31
0.0
  0
LINE
  5
24D
100
AcDbEntity
  8
ZUWAKU
  6
CONTINUOUS
 62
       7
100
AcDbLine
 10
-558.56982321
 20
-1370.16376627
 30
0.0
 11
-562.30187028
 21
-1373.89581334
 31
0.0
  0
LINE
  5
24E
100
AcDbEntity
  8
ZUWAKU
  6
CONTINUOUS
 62
       7
100
AcDbLine
 10
-535.94240621
 20
-1370.16376627
 30
0.0
 11
-551.56740621
 21
-1385.78876627
 31
0.0
  0
LINE
  5
24F
100
AcDbEntity
  8
ZUWAKU
  6
CONTINUOUS
 62
       7
100
AcDbLine
 10
-533.11397908
 20
-1370.16376627
 30
0.0
 11
-548.73897908
 21
-1385.78876627
 31
0.0
  0
LINE
  5
250
100
AcDbEntity
  8
ZUWAKU
  6
CONTINUOUS
 62
       7
100
AcDbLine
 10
-505.91055196
 20
-1345.78876627
 30
0.0
 11
-510.05069669
 21
-1349.928911
 31
0.0
  0
LINE
  5
251
100
AcDbEntity
  8
ZUWAKU
  6
CONTINUOUS
 62
       7
100
AcDbLine
 10
-529.61277058
 20
-1369.4909849
 30
0.0
 11
-545.91055196
 21
-1385.78876627
 31
0.0
  0
LINE
  5
252
100
AcDbEntity
  8
ZUWAKU
  6
CONTINUOUS
 62
       7
100
AcDbLine
 10
-503.08212483
 20
-1345.78876627
 30
0.0
 11
-512.586556
 21
-1355.29319743
 31
0.0
  0
LINE
  5
253
100
AcDbEntity
  8
ZUWAKU
  6
CONTINUOUS
 62
       7
100
AcDbLine
 10
-523.95591634
 20
-1366.66255777
 30
0.0
 11
-543.08212483
 21
-1385.78876627
 31
0.0
  0
LINE
  5
254
100
AcDbEntity
  8
ZUWAKU
  6
CONTINUOUS
 62
       7
100
AcDbLine
 10
-502.6682476
 20
-1348.20331616
 30
0.0
 11
-540.25369771
 21
-1385.78876627
 31
0.0
  0
LINE
  5
255
100
AcDbEntity
  8
ZUWAKU
  6
CONTINUOUS
 62
       7
100
AcDbLine
 10
-503.33375986
 20
-1351.69725555
 30
0.0
 11
-537.42527058
 21
-1385.78876627
 31
0.0
  0
LINE
  5
256
100
AcDbEntity
  8
ZUWAKU
  6
CONTINUOUS
 62
       7
100
AcDbLine
 10
-503.99927213
 20
-1355.19119494
 30
0.0
 11
-534.59684346
 21
-1385.78876627
 31
0.0
  0
LINE
  5
257
100
AcDbEntity
  8
ZUWAKU
  6
CONTINUOUS
 62
       7
100
AcDbLine
 10
-504.66478439
 20
-1358.68513433
 30
0.0
 11
-530.41648274
 21
-1384.43683267
 31
0.0
  0
LINE
  5
258
100
AcDbEntity
  8
ZUWAKU
  6
CONTINUOUS
 62
       7
100
AcDbLine
 10
-508.67334952
 20
-1365.52212658
 30
0.0
 11
-525.32531391
 21
-1382.17409097
 31
0.0
  0
LINE
  5
259
100
AcDbEntity
  8
ZUWAKU
  6
CONTINUOUS
 62
       7
100
AcDbLine
 10
-561.64583333
 20
-1336.41376627
 30
0.0
 11
-606.56770833
 21
-1381.33564127
 31
0.0
  0
LINE
  5
25A
100
AcDbEntity
  8
ZUWAKU
  6
CONTINUOUS
 62
       7
100
AcDbLine
 10
-564.47426046
 20
-1336.41376627
 30
0.0
 11
-604.91779251
 21
-1376.85729832
 31
0.0
  0
LINE
  5
25B
100
AcDbEntity
  8
ZUWAKU
  6
CONTINUOUS
 62
       7
100
AcDbLine
 10
-567.30268758
 20
-1336.41376627
 30
0.0
 11
-603.26787669
 21
-1372.37895538
 31
0.0
  0
LINE
  5
25C
100
AcDbEntity
  8
ZUWAKU
  6
CONTINUOUS
 62
       7
100
AcDbLine
 10
-570.13111471
 20
-1336.41376627
 30
0.0
 11
-601.61796087
 21
-1367.90061243
 31
0.0
  0
LINE
  5
25D
100
AcDbEntity
  8
ZUWAKU
  6
CONTINUOUS
 62
       7
100
AcDbLine
 10
-572.95954183
 20
-1336.41376627
 30
0.0
 11
-599.96804504
 21
-1363.42226948
 31
0.0
  0
LINE
  5
25E
100
AcDbEntity
  8
ZUWAKU
  6
CONTINUOUS
 62
       7
100
AcDbLine
 10
-575.78796896
 20
-1336.41376627
 30
0.0
 11
-577.78763834
 21
-1338.41343565
 31
0.0
  0
LINE
  5
25F
100
AcDbEntity
  8
ZUWAKU
  6
CONTINUOUS
 62
       7
100
AcDbLine
 10
-588.81644567
 20
-1349.44224299
 30
0.0
 11
-601.41296896
 21
-1362.03876627
 31
0.0
  0
LINE
  5
260
100
AcDbEntity
  8
ZUWAKU
  6
CONTINUOUS
 62
       7
100
AcDbLine
 10
-593.76619314
 20
-1351.56356333
 30
0.0
 11
-604.24139608
 21
-1362.03876627
 31
0.0
  0
LINE
  5
261
100
AcDbEntity
  8
ZUWAKU
  6
CONTINUOUS
 62
       7
100
AcDbLine
 10
-597.8082807
 20
-1352.77722376
 30
0.0
 11
-607.06982321
 21
-1362.03876627
 31
0.0
  0
LINE
  5
262
100
AcDbEntity
  8
ZUWAKU
  6
CONTINUOUS
 62
       7
100
AcDbLine
 10
-600.87241008
 20
-1353.01292602
 30
0.0
 11
-609.89825033
 21
-1362.03876627
 31
0.0
  0
LINE
  5
263
100
AcDbEntity
  8
ZUWAKU
  6
CONTINUOUS
 62
       7
100
AcDbLine
 10
-603.93653947
 20
-1353.24862828
 30
0.0
 11
-612.72667746
 21
-1362.03876627
 31
0.0
  0
LINE
  5
264
100
AcDbEntity
  8
ZUWAKU
  6
CONTINUOUS
 62
       7
100
AcDbLine
 10
-606.80510458
 20
-1353.28876627
 30
0.0
 11
-615.55510458
 21
-1362.03876627
 31
0.0
  0
LINE
  5
265
100
AcDbEntity
  8
ZUWAKU
  6
CONTINUOUS
 62
       7
100
AcDbLine
 10
-609.63353171
 20
-1353.28876627
 30
0.0
 11
-618.38353171
 21
-1362.03876627
 31
0.0
  0
LINE
  5
266
100
AcDbEntity
  8
ZUWAKU
  6
CONTINUOUS
 62
       7
100
AcDbLine
 10
-612.46195883
 20
-1353.28876627
 30
0.0
 11
-618.48409695
 21
-1359.31090439
 31
0.0
  0
LINE
  5
267
100
AcDbEntity
  8
ZUWAKU
  6
CONTINUOUS
 62
       7
100
AcDbLine
 10
-615.29038596
 20
-1353.28876627
 30
0.0
 11
-616.91274854
 21
-1354.91112886
 31
0.0
  0
LINE
  5
268
100
AcDbEntity
  8
ZUWAKU
  6
CONTINUOUS
 62
       7
100
AcDbLine
 10
-558.81740621
 20
-1336.41376627
 30
0.0
 11
-608.21762416
 21
-1385.81398422
 31
0.0
  0
LINE
  5
269
100
AcDbEntity
  8
ZUWAKU
  6
CONTINUOUS
 62
       7
100
AcDbLine
 10
-555.98897908
 20
-1336.41376627
 30
0.0
 11
-577.71093275
 21
-1358.13571994
 31
0.0
  0
LINE
  5
26A
100
AcDbEntity
  8
ZUWAKU
  6
CONTINUOUS
 62
       7
100
AcDbLine
 10
-578.3864476
 20
-1358.81123479
 30
0.0
 11
-605.36397908
 21
-1385.78876627
 31
0.0
  0
LINE
  5
26B
100
AcDbEntity
  8
ZUWAKU
  6
CONTINUOUS
 62
       7
100
AcDbLine
 10
-553.16055196
 20
-1336.41376627
 30
0.0
 11
-573.6254269
 21
-1356.87864122
 31
0.0
  0
LINE
  5
26C
100
AcDbEntity
  8
ZUWAKU
  6
CONTINUOUS
 62
       7
100
AcDbLine
 10
-579.84942715
 20
-1363.10264146
 30
0.0
 11
-602.53555196
 21
-1385.78876627
 31
0.0
  0
LINE
  5
26D
100
AcDbEntity
  8
ZUWAKU
  6
CONTINUOUS
 62
       7
100
AcDbLine
 10
-555.6736549
 20
-1341.75529634
 30
0.0
 11
-568.70390217
 21
-1354.78554361
 31
0.0
  0
LINE
  5
26E
100
AcDbEntity
  8
ZUWAKU
  6
CONTINUOUS
 62
       7
100
AcDbLine
 10
-581.31240669
 20
-1367.39404813
 30
0.0
 11
-599.70712483
 21
-1385.78876627
 31
0.0
  0
LINE
  5
26F
100
AcDbEntity
  8
ZUWAKU
  6
CONTINUOUS
 62
       7
100
AcDbLine
 10
-582.77538624
 20
-1371.6854548
 30
0.0
 11
-596.87869771
 21
-1385.78876627
 31
0.0
  0
LINE
  5
270
100
AcDbEntity
  8
ZUWAKU
  6
CONTINUOUS
 62
       7
100
AcDbLine
 10
-584.23836579
 20
-1375.97686148
 30
0.0
 11
-594.05027058
 21
-1385.78876627
 31
0.0
  0
LINE
  5
271
100
AcDbEntity
  8
ZUWAKU
  6
CONTINUOUS
 62
       7
100
AcDbLine
 10
-585.70134534
 20
-1380.26826815
 30
0.0
 11
-591.22184346
 21
-1385.78876627
 31
0.0
  0
LINE
  5
272
100
AcDbEntity
  8
ZUWAKU
  6
CONTINUOUS
 62
       7
100
AcDbLine
 10
-587.16432488
 20
-1384.55967482
 30
0.0
 11
-588.39341634
 21
-1385.78876627
 31
0.0
  0
LINE
  5
273
100
AcDbEntity
  8
ZUWAKU
  6
CONTINUOUS
 62
       7
100
AcDbLine
 10
-635.89583333
 20
-1336.41376627
 30
0.0
 11
-647.14583333
 21
-1347.66376627
 31
0.0
  0
LINE
  5
274
100
AcDbEntity
  8
ZUWAKU
  6
CONTINUOUS
 62
       7
100
AcDbLine
 10
-638.72426046
 20
-1336.41376627
 30
0.0
 11
-649.97426046
 21
-1347.66376627
 31
0.0
  0
LINE
  5
275
100
AcDbEntity
  8
ZUWAKU
  6
CONTINUOUS
 62
       7
100
AcDbLine
 10
-641.55268758
 20
-1336.41376627
 30
0.0
 11
-652.80268758
 21
-1347.66376627
 31
0.0
  0
LINE
  5
276
100
AcDbEntity
  8
ZUWAKU
  6
CONTINUOUS
 62
       7
100
AcDbLine
 10
-644.38111471
 20
-1336.41376627
 30
0.0
 11
-655.63111471
 21
-1347.66376627
 31
0.0
  0
LINE
  5
277
100
AcDbEntity
  8
ZUWAKU
  6
CONTINUOUS
 62
       7
100
AcDbLine
 10
-647.20954183
 20
-1336.41376627
 30
0.0
 11
-658.45954183
 21
-1347.66376627
 31
0.0
  0
LINE
  5
278
100
AcDbEntity
  8
ZUWAKU
  6
CONTINUOUS
 62
       7
100
AcDbLine
 10
-650.03796896
 20
-1336.41376627
 30
0.0
 11
-661.28796896
 21
-1347.66376627
 31
0.0
  0
LINE
  5
279
100
AcDbEntity
  8
ZUWAKU
  6
CONTINUOUS
 62
       7
100
AcDbLine
 10
-652.86639608
 20
-1336.41376627
 30
0.0
 11
-664.11639608
 21
-1347.66376627
 31
0.0
  0
LINE
  5
27A
100
AcDbEntity
  8
ZUWAKU
  6
CONTINUOUS
 62
       7
100
AcDbLine
 10
-655.69482321
 20
-1336.41376627
 30
0.0
 11
-665.8400884
 21
-1346.55903146
 31
0.0
  0
LINE
  5
27B
100
AcDbEntity
  8
ZUWAKU
  6
CONTINUOUS
 62
       7
100
AcDbLine
 10
-658.52325033
 20
-1336.41376627
 30
0.0
 11
-664.42587483
 21
-1342.31639077
 31
0.0
  0
LINE
  5
27C
100
AcDbEntity
  8
ZUWAKU
  6
CONTINUOUS
 62
       7
100
AcDbLine
 10
-661.35167746
 20
-1336.41376627
 30
0.0
 11
-663.01166127
 21
-1338.07375009
 31
0.0
  0
LINE
  5
27D
100
AcDbEntity
  8
ZUWAKU
  6
CONTINUOUS
 62
       7
100
AcDbLine
 10
-633.06740621
 20
-1336.41376627
 30
0.0
 11
-644.31740621
 21
-1347.66376627
 31
0.0
  0
LINE
  5
27E
100
AcDbEntity
  8
ZUWAKU
  6
CONTINUOUS
 62
       7
100
AcDbLine
 10
-630.23897908
 20
-1336.41376627
 30
0.0
 11
-641.48897908
 21
-1347.66376627
 31
0.0
  0
LINE
  5
27F
100
AcDbEntity
  8
ZUWAKU
  6
CONTINUOUS
 62
       7
100
AcDbLine
 10
-627.41055196
 20
-1336.41376627
 30
0.0
 11
-638.66055196
 21
-1347.66376627
 31
0.0
  0
LINE
  5
280
100
AcDbEntity
  8
ZUWAKU
  6
CONTINUOUS
 62
       7
100
AcDbLine
 10
-624.58212483
 20
-1336.41376627
 30
0.0
 11
-635.83212483
 21
-1347.66376627
 31
0.0
  0
LINE
  5
281
100
AcDbEntity
  8
ZUWAKU
  6
CONTINUOUS
 62
       7
100
AcDbLine
 10
-621.75369771
 20
-1336.41376627
 30
0.0
 11
-633.00369771
 21
-1347.66376627
 31
0.0
  0
LINE
  5
282
100
AcDbEntity
  8
ZUWAKU
  6
CONTINUOUS
 62
       7
100
AcDbLine
 10
-618.92527058
 20
-1336.41376627
 30
0.0
 11
-630.17527058
 21
-1347.66376627
 31
0.0
  0
LINE
  5
283
100
AcDbEntity
  8
ZUWAKU
  6
CONTINUOUS
 62
       7
100
AcDbLine
 10
-617.20157827
 20
-1337.51850108
 30
0.0
 11
-627.34684346
 21
-1347.66376627
 31
0.0
  0
LINE
  5
284
100
AcDbEntity
  8
ZUWAKU
  6
CONTINUOUS
 62
       7
100
AcDbLine
 10
-618.61579183
 20
-1341.76114177
 30
0.0
 11
-624.51841634
 21
-1347.66376627
 31
0.0
  0
LINE
  5
285
100
AcDbEntity
  8
ZUWAKU
  6
CONTINUOUS
 62
       7
100
AcDbLine
 10
-620.03000539
 20
-1346.00378245
 30
0.0
 11
-621.68998921
 21
-1347.66376627
 31
0.0
  0
LINE
  5
286
100
AcDbEntity
  8
ZUWAKU
  6
CONTINUOUS
 62
       7
100
AcDbLine
 10
-634.95833333
 20
-1353.28876627
 30
0.0
 11
-643.70833333
 21
-1362.03876627
 31
0.0
  0
LINE
  5
287
100
AcDbEntity
  8
ZUWAKU
  6
CONTINUOUS
 62
       7
100
AcDbLine
 10
-658.08333333
 20
-1376.41376627
 30
0.0
 11
-667.45833333
 21
-1385.78876627
 31
0.0
  0
LINE
  5
288
100
AcDbEntity
  8
ZUWAKU
  6
CONTINUOUS
 62
       7
100
AcDbLine
 10
-637.78676046
 20
-1353.28876627
 30
0.0
 11
-646.53676046
 21
-1362.03876627
 31
0.0
  0
LINE
  5
289
100
AcDbEntity
  8
ZUWAKU
  6
CONTINUOUS
 62
       7
100
AcDbLine
 10
-660.91176046
 20
-1376.41376627
 30
0.0
 11
-670.28676046
 21
-1385.78876627
 31
0.0
  0
LINE
  5
28A
100
AcDbEntity
  8
ZUWAKU
  6
CONTINUOUS
 62
       7
100
AcDbLine
 10
-640.61518758
 20
-1353.28876627
 30
0.0
 11
-649.36518758
 21
-1362.03876627
 31
0.0
  0
LINE
  5
28B
100
AcDbEntity
  8
ZUWAKU
  6
CONTINUOUS
 62
       7
100
AcDbLine
 10
-663.74018758
 20
-1376.41376627
 30
0.0
 11
-673.11518758
 21
-1385.78876627
 31
0.0
  0
LINE
  5
28C
100
AcDbEntity
  8
ZUWAKU
  6
CONTINUOUS
 62
       7
100
AcDbLine
 10
-643.44361471
 20
-1353.28876627
 30
0.0
 11
-652.19361471
 21
-1362.03876627
 31
0.0
  0
LINE
  5
28D
100
AcDbEntity
  8
ZUWAKU
  6
CONTINUOUS
 62
       7
100
AcDbLine
 10
-666.56861471
 20
-1376.41376627
 30
0.0
 11
-675.94361471
 21
-1385.78876627
 31
0.0
  0
LINE
  5
28E
100
AcDbEntity
  8
ZUWAKU
  6
CONTINUOUS
 62
       7
100
AcDbLine
 10
-646.27204183
 20
-1353.28876627
 30
0.0
 11
-655.02204183
 21
-1362.03876627
 31
0.0
  0
LINE
  5
28F
100
AcDbEntity
  8
ZUWAKU
  6
CONTINUOUS
 62
       7
100
AcDbLine
 10
-669.39704183
 20
-1376.41376627
 30
0.0
 11
-678.77204183
 21
-1385.78876627
 31
0.0
  0
LINE
  5
290
100
AcDbEntity
  8
ZUWAKU
  6
CONTINUOUS
 62
       7
100
AcDbLine
 10
-649.10046896
 20
-1353.28876627
 30
0.0
 11
-657.85046896
 21
-1362.03876627
 31
0.0
  0
LINE
  5
291
100
AcDbEntity
  8
ZUWAKU
  6
CONTINUOUS
 62
       7
100
AcDbLine
 10
-672.22546896
 20
-1376.41376627
 30
0.0
 11
-678.86357625
 21
-1383.05187356
 31
0.0
  0
LINE
  5
292
100
AcDbEntity
  8
ZUWAKU
  6
CONTINUOUS
 62
       7
100
AcDbLine
 10
-651.92889608
 20
-1353.28876627
 30
0.0
 11
-660.67889608
 21
-1362.03876627
 31
0.0
  0
LINE
  5
293
100
AcDbEntity
  8
ZUWAKU
  6
CONTINUOUS
 62
       7
100
AcDbLine
 10
-675.05389608
 20
-1376.41376627
 30
0.0
 11
-676.97795817
 21
-1378.33782836
 31
0.0
  0
LINE
  5
294
100
AcDbEntity
  8
ZUWAKU
  6
CONTINUOUS
 62
       7
100
AcDbLine
 10
-654.75732321
 20
-1353.28876627
 30
0.0
 11
-663.50732321
 21
-1362.03876627
 31
0.0
  0
LINE
  5
295
100
AcDbEntity
  8
ZUWAKU
  6
CONTINUOUS
 62
       7
100
AcDbLine
 10
-657.58575033
 20
-1353.28876627
 30
0.0
 11
-666.33575033
 21
-1362.03876627
 31
0.0
  0
LINE
  5
296
100
AcDbEntity
  8
ZUWAKU
  6
CONTINUOUS
 62
       7
100
AcDbLine
 10
-660.41417746
 20
-1353.28876627
 30
0.0
 11
-669.16417746
 21
-1362.03876627
 31
0.0
  0
LINE
  5
297
100
AcDbEntity
  8
ZUWAKU
  6
CONTINUOUS
 62
       7
100
AcDbLine
 10
-663.24260458
 20
-1353.28876627
 30
0.0
 11
-669.14462483
 21
-1359.19078652
 31
0.0
  0
LINE
  5
298
100
AcDbEntity
  8
ZUWAKU
  6
CONTINUOUS
 62
       7
100
AcDbLine
 10
-666.07103171
 20
-1353.28876627
 30
0.0
 11
-668.01325398
 21
-1355.23098855
 31
0.0
  0
LINE
  5
299
100
AcDbEntity
  8
ZUWAKU
  6
CONTINUOUS
 62
       7
100
AcDbLine
 10
-632.12990621
 20
-1353.28876627
 30
0.0
 11
-644.83970418
 21
-1365.99856425
 31
0.0
  0
LINE
  5
29A
100
AcDbEntity
  8
ZUWAKU
  6
CONTINUOUS
 62
       7
100
AcDbLine
 10
-654.4338384
 20
-1375.59269846
 30
0.0
 11
-664.62990621
 21
-1385.78876627
 31
0.0
  0
LINE
  5
29B
100
AcDbEntity
  8
ZUWAKU
  6
CONTINUOUS
 62
       7
100
AcDbLine
 10
-629.30147908
 20
-1353.28876627
 30
0.0
 11
-661.80147908
 21
-1385.78876627
 31
0.0
  0
LINE
  5
29C
100
AcDbEntity
  8
ZUWAKU
  6
CONTINUOUS
 62
       7
100
AcDbLine
 10
-626.47305196
 20
-1353.28876627
 30
0.0
 11
-658.97305196
 21
-1385.78876627
 31
0.0
  0
LINE
  5
29D
100
AcDbEntity
  8
ZUWAKU
  6
CONTINUOUS
 62
       7
100
AcDbLine
 10
-623.64462483
 20
-1353.28876627
 30
0.0
 11
-656.14462483
 21
-1385.78876627
 31
0.0
  0
LINE
  5
29E
100
AcDbEntity
  8
ZUWAKU
  6
CONTINUOUS
 62
       7
100
AcDbLine
 10
-623.39669655
 20
-1355.86926511
 30
0.0
 11
-653.31619771
 21
-1385.78876627
 31
0.0
  0
LINE
  5
29F
100
AcDbEntity
  8
ZUWAKU
  6
CONTINUOUS
 62
       7
100
AcDbLine
 10
-625.01294062
 20
-1360.3139363
 30
0.0
 11
-650.48777058
 21
-1385.78876627
 31
0.0
  0
LINE
  5
2A0
100
AcDbEntity
  8
ZUWAKU
  6
CONTINUOUS
 62
       7
100
AcDbLine
 10
-626.62918469
 20
-1364.7586075
 30
0.0
 11
-647.5180135
 21
-1385.64743631
 31
0.0
  0
LINE
  5
2A1
100
AcDbEntity
  8
ZUWAKU
  6
CONTINUOUS
 62
       7
100
AcDbLine
 10
-628.24542876
 20
-1369.2032787
 30
0.0
 11
-643.74677734
 21
-1384.70462727
 31
0.0
  0
LINE
  5
2A2
100
AcDbEntity
  8
ZUWAKU
  6
CONTINUOUS
 62
       7
100
AcDbLine
 10
-629.86167283
 20
-1373.64794989
 30
0.0
 11
-638.42164509
 21
-1382.20792215
 31
0.0
  0
LINE
  5
2A3
100
AcDbEntity
  8
ZUWAKU
  6
CONTINUOUS
 62
       7
100
AcDbLine
 10
-670.08333333
 20
-1336.41376627
 30
0.0
 11
-695.98177083
 21
-1362.31220377
 31
0.0
  0
LINE
  5
2A4
100
AcDbEntity
  8
ZUWAKU
  6
CONTINUOUS
 62
       7
100
AcDbLine
 10
-709.9047619
 20
-1376.23519484
 30
0.0
 11
-719.45833333
 21
-1385.78876627
 31
0.0
  0
LINE
  5
2A5
100
AcDbEntity
  8
ZUWAKU
  6
CONTINUOUS
 62
       7
100
AcDbLine
 10
-672.91176046
 20
-1336.41376627
 30
0.0
 11
-694.30239223
 21
-1357.80439804
 31
0.0
  0
LINE
  5
2A6
100
AcDbEntity
  8
ZUWAKU
  6
CONTINUOUS
 62
       7
100
AcDbLine
 10
-712.91176046
 20
-1376.41376627
 30
0.0
 11
-718.98161977
 21
-1382.48362558
 31
0.0
  0
LINE
  5
2A7
100
AcDbEntity
  8
ZUWAKU
  6
CONTINUOUS
 62
       7
100
AcDbLine
 10
-675.74018758
 20
-1336.41376627
 30
0.0
 11
-692.62301362
 21
-1353.29659231
 31
0.0
  0
LINE
  5
2A8
100
AcDbEntity
  8
ZUWAKU
  6
CONTINUOUS
 62
       7
100
AcDbLine
 10
-715.74018758
 20
-1376.41376627
 30
0.0
 11
-717.56740621
 21
-1378.2409849
 31
0.0
  0
LINE
  5
2A9
100
AcDbEntity
  8
ZUWAKU
  6
CONTINUOUS
 62
       7
100
AcDbLine
 10
-678.56861471
 20
-1336.41376627
 30
0.0
 11
-690.94363502
 21
-1348.78878658
 31
0.0
  0
LINE
  5
2AA
100
AcDbEntity
  8
ZUWAKU
  6
CONTINUOUS
 62
       7
100
AcDbLine
 10
-681.39704183
 20
-1336.41376627
 30
0.0
 11
-689.26425641
 21
-1344.28098085
 31
0.0
  0
LINE
  5
2AB
100
AcDbEntity
  8
ZUWAKU
  6
CONTINUOUS
 62
       7
100
AcDbLine
 10
-684.22546896
 20
-1336.41376627
 30
0.0
 11
-687.58487781
 21
-1339.77317512
 31
0.0
  0
LINE
  5
2AC
100
AcDbEntity
  8
ZUWAKU
  6
CONTINUOUS
 62
       7
100
AcDbLine
 10
-670.58829596
 20
-1339.74715602
 30
0.0
 11
-697.66114944
 21
-1366.8200095
 31
0.0
  0
LINE
  5
2AD
100
AcDbEntity
  8
ZUWAKU
  6
CONTINUOUS
 62
       7
100
AcDbLine
 10
-706.67227376
 20
-1375.83113382
 30
0.0
 11
-716.62990621
 21
-1385.78876627
 31
0.0
  0
LINE
  5
2AE
100
AcDbEntity
  8
ZUWAKU
  6
CONTINUOUS
 62
       7
100
AcDbLine
 10
-672.03877141
 20
-1344.0260586
 30
0.0
 11
-701.26962483
 21
-1373.25691202
 31
0.0
  0
LINE
  5
2AF
100
AcDbEntity
  8
ZUWAKU
  6
CONTINUOUS
 62
       7
100
AcDbLine
 10
-701.38642375
 20
-1373.37371094
 30
0.0
 11
-713.80147908
 21
-1385.78876627
 31
0.0
  0
LINE
  5
2B0
100
AcDbEntity
  8
ZUWAKU
  6
CONTINUOUS
 62
       7
100
AcDbLine
 10
-673.48924686
 20
-1348.30496117
 30
0.0
 11
-710.97305196
 21
-1385.78876627
 31
0.0
  0
LINE
  5
2B1
100
AcDbEntity
  8
ZUWAKU
  6
CONTINUOUS
 62
       7
100
AcDbLine
 10
-674.93972231
 20
-1352.58386374
 30
0.0
 11
-708.14462483
 21
-1385.78876627
 31
0.0
  0
LINE
  5
2B2
100
AcDbEntity
  8
ZUWAKU
  6
CONTINUOUS
 62
       7
100
AcDbLine
 10
-676.39019776
 20
-1356.86276632
 30
0.0
 11
-705.31619771
 21
-1385.78876627
 31
0.0
  0
LINE
  5
2B3
100
AcDbEntity
  8
ZUWAKU
  6
CONTINUOUS
 62
       7
100
AcDbLine
 10
-677.8406732
 20
-1361.14166889
 30
0.0
 11
-702.26881917
 21
-1385.56981485
 31
0.0
  0
LINE
  5
2B4
100
AcDbEntity
  8
ZUWAKU
  6
CONTINUOUS
 62
       7
100
AcDbLine
 10
-679.29114865
 20
-1365.42057146
 30
0.0
 11
-699.12612236
 21
-1385.25554517
 31
0.0
  0
LINE
  5
2B5
100
AcDbEntity
  8
ZUWAKU
  6
CONTINUOUS
 62
       7
100
AcDbLine
 10
-680.7416241
 20
-1369.69947404
 30
0.0
 11
-694.87097167
 21
-1383.82882161
 31
0.0
  0
LINE
  5
2B6
100
AcDbEntity
  8
ZUWAKU
  6
CONTINUOUS
 62
       7
100
AcDbLine
 10
-700.14583333
 20
-1339.91376627
 30
0.0
 11
-723.25873656
 21
-1363.0266695
 31
0.0
  0
LINE
  5
2B7
100
AcDbEntity
  8
ZUWAKU
  6
CONTINUOUS
 62
       7
100
AcDbLine
 10
-699.47426046
 20
-1336.41376627
 30
0.0
 11
-721.70766362
 21
-1358.64716943
 31
0.0
  0
LINE
  5
2B8
100
AcDbEntity
  8
ZUWAKU
  6
CONTINUOUS
 62
       7
100
AcDbLine
 10
-702.30268758
 20
-1336.41376627
 30
0.0
 11
-720.15659068
 21
-1354.26766937
 31
0.0
  0
LINE
  5
2B9
100
AcDbEntity
  8
ZUWAKU
  6
CONTINUOUS
 62
       7
100
AcDbLine
 10
-705.13111471
 20
-1336.41376627
 30
0.0
 11
-718.60551774
 21
-1349.8881693
 31
0.0
  0
LINE
  5
2BA
100
AcDbEntity
  8
ZUWAKU
  6
CONTINUOUS
 62
       7
100
AcDbLine
 10
-707.95954183
 20
-1336.41376627
 30
0.0
 11
-717.0544448
 21
-1345.50866924
 31
0.0
  0
LINE
  5
2BB
100
AcDbEntity
  8
ZUWAKU
  6
CONTINUOUS
 62
       7
100
AcDbLine
 10
-710.78796896
 20
-1336.41376627
 30
0.0
 11
-715.50337186
 21
-1341.12916918
 31
0.0
  0
LINE
  5
2BC
100
AcDbEntity
  8
ZUWAKU
  6
CONTINUOUS
 62
       7
100
AcDbLine
 10
-713.61639608
 20
-1336.41376627
 30
0.0
 11
-713.95229892
 21
-1336.74966911
 31
0.0
  0
LINE
  5
2BD
100
AcDbEntity
  8
ZUWAKU
  6
CONTINUOUS
 62
       7
100
AcDbLine
 10
-701.84288961
 20
-1344.43924967
 30
0.0
 11
-723.81740621
 21
-1366.41376627
 31
0.0
  0
LINE
  5
2BE
100
AcDbEntity
  8
ZUWAKU
  6
CONTINUOUS
 62
       7
100
AcDbLine
 10
-703.53994588
 20
-1348.96473307
 30
0.0
 11
-720.98897908
 21
-1366.41376627
 31
0.0
  0
LINE
  5
2BF
100
AcDbEntity
  8
ZUWAKU
  6
CONTINUOUS
 62
       7
100
AcDbLine
 10
-705.23700216
 20
-1353.49021647
 30
0.0
 11
-718.16055196
 21
-1366.41376627
 31
0.0
  0
LINE
  5
2C0
100
AcDbEntity
  8
ZUWAKU
  6
CONTINUOUS
 62
       7
100
AcDbLine
 10
-706.93405843
 20
-1358.01569987
 30
0.0
 11
-715.33212483
 21
-1366.41376627
 31
0.0
  0
LINE
  5
2C1
100
AcDbEntity
  8
ZUWAKU
  6
CONTINUOUS
 62
       7
100
AcDbLine
 10
-708.63111471
 20
-1362.54118327
 30
0.0
 11
-712.50369771
 21
-1366.41376627
 31
0.0
  0
LINE
  5
2C2
100
AcDbEntity
  8
ZUWAKU
  6
CONTINUOUS
 62
       7
100
AcDbLine
 10
-913.33333333
 20
1333.89986238
 30
0.0
 11
943.54166667
 21
1333.89986238
 31
0.0
  0
LINE
  5
2C3
100
AcDbEntity
  8
ZUWAKU
  6
CONTINUOUS
 62
       7
100
AcDbLine
 10
312.29166667
 20
1432.96123373
 30
0.0
 11
943.54166667
 21
1432.96123373
 31
0.0
  0
LINE
  5
2C4
100
AcDbEntity
  8
ZUWAKU
  6
CONTINUOUS
 62
       7
100
AcDbLine
 10
312.29166667
 20
1432.96123373
 30
0.0
 11
312.29166667
 21
1333.89986238
 31
0.0
  0
LINE
  5
2C5
100
AcDbEntity
  8
ZUWAKU
  6
CONTINUOUS
 62
       7
100
AcDbLine
 10
943.54166667
 20
1432.96123373
 30
0.0
 11
943.54166667
 21
1333.89986238
 31
0.0
  0
LINE
  5
2C6
100
AcDbEntity
  8
ZUWAKU
  6
CONTINUOUS
 62
       7
100
AcDbLine
 10
-910.83333333
 20
-1411.41376627
 30
0.0
 11
933.54166667
 21
-1411.41376627
 31
0.0
  0
LINE
  5
2C7
100
AcDbEntity
  8
ZUWAKU
  6
CONTINUOUS
 62
       7
100
AcDbLine
 10
-910.83333333
 20
-1290.78876627
 30
0.0
 11
933.54166667
 21
-1290.78876627
 31
0.0
  0
LINE
  5
2C8
100
AcDbEntity
  8
ZUWAKU
  6
CONTINUOUS
 62
       7
100
AcDbLine
 10
309.79166667
 20
-1411.41376627
 30
0.0
 11
309.79166667
 21
-1290.78876627
 31
0.0
  0
LINE
  5
2C9
100
AcDbEntity
  8
ZUWAKU
  6
CONTINUOUS
 62
       7
100
AcDbLine
 10
259.79166667
 20
-1411.41376627
 30
0.0
 11
259.79166667
 21
-1290.78876627
 31
0.0
  0
LINE
  5
2CA
100
AcDbEntity
  8
ZUWAKU
  6
CONTINUOUS
 62
       7
100
AcDbLine
 10
-365.83333333
 20
-1411.41376627
 30
0.0
 11
-365.83333333
 21
-1290.78876627
 31
0.0
  0
LINE
  5
2CB
100
AcDbEntity
  8
ZUWAKU
  6
CONTINUOUS
 62
       7
100
AcDbLine
 10
-415.83333333
 20
-1411.41376627
 30
0.0
 11
-415.83333333
 21
-1290.78876627
 31
0.0
  0
LINE
  5
2CC
100
AcDbEntity
  8
ZUWAKU
  6
CONTINUOUS
 62
       7
100
AcDbLine
 10
-807.70833333
 20
1391.71123373
 30
0.0
 11
-816.18376812
 21
1406.70623373
 31
0.0
  0
LINE
  5
2CD
100
AcDbEntity
  8
ZUWAKU
  6
CONTINUOUS
 62
       7
100
AcDbLine
 10
-849.96389158
 20
1419.83623373
 30
0.0
 11
-848.92222492
 21
1422.96123373
 31
0.0
  0
LINE
  5
2CE
100
AcDbEntity
  8
ZUWAKU
  6
CONTINUOUS
 62
       7
100
AcDbLine
 10
-770.31131023
 20
1395.40974528
 30
0.0
 11
-771.44833333
 21
1394.84123373
 31
0.0
  0
LINE
  5
2CF
100
AcDbEntity
  8
ZUWAKU
  6
CONTINUOUS
 62
       7
100
AcDbLine
 10
-769.58333333
 20
1391.71123373
 30
0.0
 11
-764.33333333
 21
1396.96123373
 31
0.0
  0
LINE
  5
2D0
100
AcDbEntity
  8
ZUWAKU
  6
CONTINUOUS
 62
       7
100
AcDbLine
 10
-765.20833333
 20
1391.71123373
 30
0.0
 11
-764.33333333
 21
1396.96123373
 31
0.0
  0
LINE
  5
2D1
100
AcDbEntity
  8
ZUWAKU
  6
CONTINUOUS
 62
       7
100
AcDbLine
 10
-742.08333333
 20
1396.08623373
 30
0.0
 11
-742.08333333
 21
1394.84123373
 31
0.0
  0
LINE
  5
2D2
100
AcDbEntity
  8
ZUWAKU
  6
CONTINUOUS
 62
       7
100
AcDbLine
 10
-714.43312787
 20
1391.71123373
 30
0.0
 11
-725.83333333
 21
1391.71123373
 31
0.0
  0
LINE
  5
2D3
100
AcDbEntity
  8
ZUWAKU
  6
CONTINUOUS
 62
       7
100
AcDbLine
 10
-731.99300857
 20
1396.1652679
 30
0.0
 11
-737.08333333
 21
1391.71123373
 31
0.0
  0
LINE
  5
2D4
100
AcDbEntity
  8
ZUWAKU
  6
CONTINUOUS
 62
       7
100
AcDbLine
 10
-695.87585331
 20
1391.71123373
 30
0.0
 11
-708.95833333
 21
1391.71123373
 31
0.0
  0
LINE
  5
2D5
100
AcDbEntity
  8
ZUWAKU
  6
CONTINUOUS
 62
       7
100
AcDbLine
 10
-826.22208333
 20
1394.84123373
 30
0.0
 11
-816.84895833
 21
1419.83623373
 31
0.0
  0
LINE
  5
2D6
100
AcDbEntity
  8
ZUWAKU
  6
CONTINUOUS
 62
       7
100
AcDbLine
 10
-817.25611687
 20
1409.83623373
 30
0.0
 11
-802.62655487
 21
1409.83623373
 31
0.0
  0
LINE
  5
2D7
100
AcDbEntity
  8
ZUWAKU
  6
CONTINUOUS
 62
       7
100
AcDbLine
 10
-723.10606061
 20
1399.21123373
 30
0.0
 11
-725.20833333
 21
1399.21123373
 31
0.0
  0
LINE
  5
2D8
100
AcDbEntity
  8
ZUWAKU
  6
CONTINUOUS
 62
       7
100
AcDbLine
 10
-725.20833333
 20
1399.21123373
 30
0.0
 11
-727.27447442
 21
1399.21123373
 31
0.0
  0
LINE
  5
2D9
100
AcDbEntity
  8
ZUWAKU
  6
CONTINUOUS
 62
       7
100
AcDbLine
 10
-745.55578136
 20
1391.71123373
 30
0.0
 11
-737.08333333
 21
1391.71123373
 31
0.0
  0
CIRCLE
  5
2DA
100
AcDbEntity
  8
ZUWAKU
  6
CONTINUOUS
 62
       7
100
AcDbCircle
 10
-759.28908573
 20
1409.21123373
 30
0.0
 40
1.8932524
  0
LINE
  5
2DB
100
AcDbEntity
  8
ZUWAKU
  6
CONTINUOUS
 62
       7
100
AcDbLine
 10
-823.88020833
 20
1419.83623373
 30
0.0
 11
-816.84895833
 21
1419.83623373
 31
0.0
  0
LINE
  5
2DC
100
AcDbEntity
  8
ZUWAKU
  6
CONTINUOUS
 62
       7
100
AcDbLine
 10
-813.50611687
 20
1419.83623373
 30
0.0
 11
-802.62655487
 21
1419.83623373
 31
0.0
  0
LINE
  5
2DD
100
AcDbEntity
  8
ZUWAKU
  6
CONTINUOUS
 62
       7
100
AcDbLine
 10
-834.58333333
 20
1391.71123373
 30
0.0
 11
-833.40958333
 21
1394.84123373
 31
0.0
  0
LINE
  5
2DE
100
AcDbEntity
  8
ZUWAKU
  6
CONTINUOUS
 62
       7
100
AcDbLine
 10
-823.88020833
 20
1419.83623373
 30
0.0
 11
-822.70833333
 21
1422.96123373
 31
0.0
  0
LINE
  5
2DF
100
AcDbEntity
  8
ZUWAKU
  6
CONTINUOUS
 62
       7
100
AcDbLine
 10
-825.44421804
 20
1419.83623373
 30
0.0
 11
-824.27234304
 21
1422.96123373
 31
0.0
  0
LINE
  5
2E0
100
AcDbEntity
  8
ZUWAKU
  6
CONTINUOUS
 62
       7
100
AcDbLine
 10
-802.62655487
 20
1422.96123373
 30
0.0
 11
-822.70833333
 21
1422.96123373
 31
0.0
  0
LINE
  5
2E1
100
AcDbEntity
  8
ZUWAKU
  6
CONTINUOUS
 62
       7
100
AcDbLine
 10
-824.27234304
 20
1422.96123373
 30
0.0
 11
-827.24143684
 21
1422.96123373
 31
0.0
  0
LINE
  5
2E2
100
AcDbEntity
  8
ZUWAKU
  6
CONTINUOUS
 62
       7
100
AcDbLine
 10
-828.41331184
 20
1419.83623373
 30
0.0
 11
-825.44421804
 21
1419.83623373
 31
0.0
  0
LINE
  5
2E3
100
AcDbEntity
  8
ZUWAKU
  6
CONTINUOUS
 62
       7
100
AcDbLine
 10
-829.55183628
 20
1419.83623373
 30
0.0
 11
-828.37996128
 21
1422.96123373
 31
0.0
  0
LINE
  5
2E4
100
AcDbEntity
  8
ZUWAKU
  6
CONTINUOUS
 62
       7
100
AcDbLine
 10
-828.37996128
 20
1422.96123373
 30
0.0
 11
-830.86875684
 21
1422.96123373
 31
0.0
  0
LINE
  5
2E5
100
AcDbEntity
  8
ZUWAKU
  6
CONTINUOUS
 62
       7
100
AcDbLine
 10
-832.04063184
 20
1419.83623373
 30
0.0
 11
-829.55183628
 21
1419.83623373
 31
0.0
  0
LINE
  5
2E6
100
AcDbEntity
  8
ZUWAKU
  6
CONTINUOUS
 62
       7
100
AcDbLine
 10
-832.04063184
 20
1419.83623373
 30
0.0
 11
-830.86875684
 21
1422.96123373
 31
0.0
  0
LINE
  5
2E7
100
AcDbEntity
  8
ZUWAKU
  6
CONTINUOUS
 62
       7
100
AcDbLine
 10
-832.99362514
 20
1422.96123373
 30
0.0
 11
-835.43245633
 21
1422.96123373
 31
0.0
  0
LINE
  5
2E8
100
AcDbEntity
  8
ZUWAKU
  6
CONTINUOUS
 62
       7
100
AcDbLine
 10
-836.60433133
 20
1419.83623373
 30
0.0
 11
-834.16550014
 21
1419.83623373
 31
0.0
  0
LINE
  5
2E9
100
AcDbEntity
  8
ZUWAKU
  6
CONTINUOUS
 62
       7
100
AcDbLine
 10
-836.60433133
 20
1419.83623373
 30
0.0
 11
-835.43245633
 21
1422.96123373
 31
0.0
  0
LINE
  5
2EA
100
AcDbEntity
  8
ZUWAKU
  6
CONTINUOUS
 62
       7
100
AcDbLine
 10
-828.41331184
 20
1419.83623373
 30
0.0
 11
-827.24143684
 21
1422.96123373
 31
0.0
  0
LINE
  5
2EB
100
AcDbEntity
  8
ZUWAKU
  6
CONTINUOUS
 62
       7
100
AcDbLine
 10
-834.16550014
 20
1419.83623373
 30
0.0
 11
-832.99362514
 21
1422.96123373
 31
0.0
  0
LINE
  5
2EC
100
AcDbEntity
  8
ZUWAKU
  6
CONTINUOUS
 62
       7
100
AcDbLine
 10
-838.43097849
 20
1419.83623373
 30
0.0
 11
-837.25910349
 21
1422.96123373
 31
0.0
  0
LINE
  5
2ED
100
AcDbEntity
  8
ZUWAKU
  6
CONTINUOUS
 62
       7
100
AcDbLine
 10
-837.25910349
 20
1422.96123373
 30
0.0
 11
-839.51403982
 21
1422.96123373
 31
0.0
  0
LINE
  5
2EE
100
AcDbEntity
  8
ZUWAKU
  6
CONTINUOUS
 62
       7
100
AcDbLine
 10
-840.68591482
 20
1419.83623373
 30
0.0
 11
-838.43097849
 21
1419.83623373
 31
0.0
  0
LINE
  5
2EF
100
AcDbEntity
  8
ZUWAKU
  6
CONTINUOUS
 62
       7
100
AcDbLine
 10
-840.68591482
 20
1419.83623373
 30
0.0
 11
-839.51403982
 21
1422.96123373
 31
0.0
  0
LINE
  5
2F0
100
AcDbEntity
  8
ZUWAKU
  6
CONTINUOUS
 62
       7
100
AcDbLine
 10
-842.59475868
 20
1419.83623373
 30
0.0
 11
-841.42288368
 21
1422.96123373
 31
0.0
  0
LINE
  5
2F1
100
AcDbEntity
  8
ZUWAKU
  6
CONTINUOUS
 62
       7
100
AcDbLine
 10
-841.42288368
 20
1422.96123373
 30
0.0
 11
-843.42809202
 21
1422.96123373
 31
0.0
  0
LINE
  5
2F2
100
AcDbEntity
  8
ZUWAKU
  6
CONTINUOUS
 62
       7
100
AcDbLine
 10
-844.46975868
 20
1419.83623373
 30
0.0
 11
-842.59475868
 21
1419.83623373
 31
0.0
  0
LINE
  5
2F3
100
AcDbEntity
  8
ZUWAKU
  6
CONTINUOUS
 62
       7
100
AcDbLine
 10
-844.46975868
 20
1419.83623373
 30
0.0
 11
-843.42809202
 21
1422.96123373
 31
0.0
  0
LINE
  5
2F4
100
AcDbEntity
  8
ZUWAKU
  6
CONTINUOUS
 62
       7
100
AcDbLine
 10
-846.46648386
 20
1419.83623373
 30
0.0
 11
-845.42481719
 21
1422.96123373
 31
0.0
  0
LINE
  5
2F5
100
AcDbEntity
  8
ZUWAKU
  6
CONTINUOUS
 62
       7
100
AcDbLine
 10
-848.08889158
 20
1419.83623373
 30
0.0
 11
-847.04722492
 21
1422.96123373
 31
0.0
  0
LINE
  5
2F6
100
AcDbEntity
  8
ZUWAKU
  6
CONTINUOUS
 62
       7
100
AcDbLine
 10
-851.10972492
 20
1419.83623373
 30
0.0
 11
-850.06805825
 21
1422.96123373
 31
0.0
  0
LINE
  5
2F7
100
AcDbEntity
  8
ZUWAKU
  6
CONTINUOUS
 62
       7
100
AcDbLine
 10
-853.08889158
 20
1419.83623373
 30
0.0
 11
-852.04722492
 21
1422.96123373
 31
0.0
  0
LINE
  5
2F8
100
AcDbEntity
  8
ZUWAKU
  6
CONTINUOUS
 62
       7
100
AcDbLine
 10
-853.60972492
 20
1419.83623373
 30
0.0
 11
-852.56805825
 21
1422.96123373
 31
0.0
  0
LINE
  5
2F9
100
AcDbEntity
  8
ZUWAKU
  6
CONTINUOUS
 62
       7
100
AcDbLine
 10
-845.42481719
 20
1422.96123373
 30
0.0
 11
-847.04722492
 21
1422.96123373
 31
0.0
  0
LINE
  5
2FA
100
AcDbEntity
  8
ZUWAKU
  6
CONTINUOUS
 62
       7
100
AcDbLine
 10
-848.08889158
 20
1419.83623373
 30
0.0
 11
-846.46648386
 21
1419.83623373
 31
0.0
  0
LINE
  5
2FB
100
AcDbEntity
  8
ZUWAKU
  6
CONTINUOUS
 62
       7
100
AcDbLine
 10
-848.92222492
 20
1422.96123373
 30
0.0
 11
-850.06805825
 21
1422.96123373
 31
0.0
  0
LINE
  5
2FC
100
AcDbEntity
  8
ZUWAKU
  6
CONTINUOUS
 62
       7
100
AcDbLine
 10
-852.04722492
 20
1422.96123373
 30
0.0
 11
-852.56805825
 21
1422.96123373
 31
0.0
  0
LINE
  5
2FD
100
AcDbEntity
  8
ZUWAKU
  6
CONTINUOUS
 62
       7
100
AcDbLine
 10
-851.10972492
 20
1419.83623373
 30
0.0
 11
-849.96389158
 21
1419.83623373
 31
0.0
  0
LINE
  5
2FE
100
AcDbEntity
  8
ZUWAKU
  6
CONTINUOUS
 62
       7
100
AcDbLine
 10
-853.08889158
 20
1419.83623373
 30
0.0
 11
-853.60972492
 21
1419.83623373
 31
0.0
  0
ELLIPSE
  5
2FF
100
AcDbEntity
  8
ZUWAKU
  6
CONTINUOUS
 62
       7
100
AcDbEllipse
 10
-768.64583333
 20
1403.87661031
 30
0.0
 11
-127.8125
 21
0.0
 31
0.0
210
0.0
220
0.0
230
1.0
 40
0.40365317
 41
0.0
 42
6.2831853071796004
  0
LINE
  5
300
100
AcDbEntity
  8
ZUWAKU
  6
CONTINUOUS
 62
       7
100
AcDbLine
 10
-871.45833333
 20
1428.58623373
 30
0.0
 11
-871.45833333
 21
1379.83623373
 31
0.0
  0
LINE
  5
301
100
AcDbEntity
  8
ZUWAKU
  6
CONTINUOUS
 62
       7
100
AcDbLine
 10
-665.20833333
 20
1428.58623373
 30
0.0
 11
-665.20833333
 21
1379.83623373
 31
0.0
  0
LINE
  5
302
100
AcDbEntity
  8
ZUWAKU
  6
CONTINUOUS
 62
       7
100
AcDbLine
 10
-871.45833333
 20
1428.58623373
 30
0.0
 11
-665.20833333
 21
1428.58623373
 31
0.0
  0
LINE
  5
303
100
AcDbEntity
  8
ZUWAKU
  6
CONTINUOUS
 62
       7
100
AcDbLine
 10
-871.45833333
 20
1379.83623373
 30
0.0
 11
-665.20833333
 21
1379.83623373
 31
0.0
  0
LINE
  5
304
100
AcDbEntity
  8
ZUWAKU
  6
CONTINUOUS
 62
       7
100
AcDbLine
 10
-781.38435118
 20
1455.21165417
 30
0.0
 11
-808.00977162
 21
1428.58623373
 31
0.0
  0
LINE
  5
305
100
AcDbEntity
  8
ZUWAKU
  6
CONTINUOUS
 62
       7
100
AcDbLine
 10
-784.34664967
 20
1455.07778281
 30
0.0
 11
-810.83819875
 21
1428.58623373
 31
0.0
  0
LINE
  5
306
100
AcDbEntity
  8
ZUWAKU
  6
CONTINUOUS
 62
       7
100
AcDbLine
 10
-787.33910338
 20
1454.91375622
 30
0.0
 11
-813.66662587
 21
1428.58623373
 31
0.0
  0
LINE
  5
307
100
AcDbEntity
  8
ZUWAKU
  6
CONTINUOUS
 62
       7
100
AcDbLine
 10
-790.36295848
 20
1454.71832825
 30
0.0
 11
-816.495053
 21
1428.58623373
 31
0.0
  0
LINE
  5
308
100
AcDbEntity
  8
ZUWAKU
  6
CONTINUOUS
 62
       7
100
AcDbLine
 10
-793.41960668
 20
1454.49010717
 30
0.0
 11
-819.32348012
 21
1428.58623373
 31
0.0
  0
LINE
  5
309
100
AcDbEntity
  8
ZUWAKU
  6
CONTINUOUS
 62
       7
100
AcDbLine
 10
-796.51060763
 20
1454.22753335
 30
0.0
 11
-822.15190725
 21
1428.58623373
 31
0.0
  0
LINE
  5
30A
100
AcDbEntity
  8
ZUWAKU
  6
CONTINUOUS
 62
       7
100
AcDbLine
 10
-799.63771592
 20
1453.92885218
 30
0.0
 11
-824.98033437
 21
1428.58623373
 31
0.0
  0
LINE
  5
30B
100
AcDbEntity
  8
ZUWAKU
  6
CONTINUOUS
 62
       7
100
AcDbLine
 10
-802.80291444
 20
1453.59208079
 30
0.0
 11
-827.8087615
 21
1428.58623373
 31
0.0
  0
LINE
  5
30C
100
AcDbEntity
  8
ZUWAKU
  6
CONTINUOUS
 62
       7
100
AcDbLine
 10
-806.00845544
 20
1453.21496691
 30
0.0
 11
-830.63718862
 21
1428.58623373
 31
0.0
  0
LINE
  5
30D
100
AcDbEntity
  8
ZUWAKU
  6
CONTINUOUS
 62
       7
100
AcDbLine
 10
-809.25691214
 20
1452.79493734
 30
0.0
 11
-833.46561574
 21
1428.58623373
 31
0.0
  0
LINE
  5
30E
100
AcDbEntity
  8
ZUWAKU
  6
CONTINUOUS
 62
       7
100
AcDbLine
 10
-812.55124387
 20
1452.32903273
 30
0.0
 11
-836.29404287
 21
1428.58623373
 31
0.0
  0
LINE
  5
30F
100
AcDbEntity
  8
ZUWAKU
  6
CONTINUOUS
 62
       7
100
AcDbLine
 10
-815.89487981
 20
1451.81382391
 30
0.0
 11
-839.12246999
 21
1428.58623373
 31
0.0
  0
LINE
  5
310
100
AcDbEntity
  8
ZUWAKU
  6
CONTINUOUS
 62
       7
100
AcDbLine
 10
-819.29182797
 20
1451.24530288
 30
0.0
 11
-841.95089712
 21
1428.58623373
 31
0.0
  0
LINE
  5
311
100
AcDbEntity
  8
ZUWAKU
  6
CONTINUOUS
 62
       7
100
AcDbLine
 10
-822.74681943
 20
1450.61873855
 30
0.0
 11
-844.77932424
 21
1428.58623373
 31
0.0
  0
LINE
  5
312
100
AcDbEntity
  8
ZUWAKU
  6
CONTINUOUS
 62
       7
100
AcDbLine
 10
-826.26550312
 20
1449.92848198
 30
0.0
 11
-847.60775137
 21
1428.58623373
 31
0.0
  0
LINE
  5
313
100
AcDbEntity
  8
ZUWAKU
  6
CONTINUOUS
 62
       7
100
AcDbLine
 10
-871.45833333
 20
1404.73565176
 30
0.0
 11
-871.98275137
 21
1404.21123373
 31
0.0
  0
LINE
  5
314
100
AcDbEntity
  8
ZUWAKU
  6
CONTINUOUS
 62
       7
100
AcDbLine
 10
-829.85471446
 20
1449.16769777
 30
0.0
 11
-850.43617849
 21
1428.58623373
 31
0.0
  0
LINE
  5
315
100
AcDbEntity
  8
ZUWAKU
  6
CONTINUOUS
 62
       7
100
AcDbLine
 10
-871.45833333
 20
1407.56407889
 30
0.0
 11
-874.81117849
 21
1404.21123373
 31
0.0
  0
LINE
  5
316
100
AcDbEntity
  8
ZUWAKU
  6
CONTINUOUS
 62
       7
100
AcDbLine
 10
-833.52285543
 20
1448.32798392
 30
0.0
 11
-853.26460562
 21
1428.58623373
 31
0.0
  0
LINE
  5
317
100
AcDbEntity
  8
ZUWAKU
  6
CONTINUOUS
 62
       7
100
AcDbLine
 10
-871.45833333
 20
1410.39250601
 30
0.0
 11
-877.63960562
 21
1404.21123373
 31
0.0
  0
LINE
  5
318
100
AcDbEntity
  8
ZUWAKU
  6
CONTINUOUS
 62
       7
100
AcDbLine
 10
-837.28044864
 20
1447.39881783
 30
0.0
 11
-856.09303274
 21
1428.58623373
 31
0.0
  0
LINE
  5
319
100
AcDbEntity
  8
ZUWAKU
  6
CONTINUOUS
 62
       7
100
AcDbLine
 10
-871.45833333
 20
1413.22093314
 30
0.0
 11
-880.46803274
 21
1404.21123373
 31
0.0
  0
LINE
  5
31A
100
AcDbEntity
  8
ZUWAKU
  6
CONTINUOUS
 62
       7
100
AcDbLine
 10
-841.14097419
 20
1446.36671941
 30
0.0
 11
-858.92145987
 21
1428.58623373
 31
0.0
  0
LINE
  5
31B
100
AcDbEntity
  8
ZUWAKU
  6
CONTINUOUS
 62
       7
100
AcDbLine
 10
-871.45833333
 20
1416.04936026
 30
0.0
 11
-883.29645987
 21
1404.21123373
 31
0.0
  0
LINE
  5
31C
100
AcDbEntity
  8
ZUWAKU
  6
CONTINUOUS
 62
       7
100
AcDbLine
 10
-845.12218918
 20
1445.21393154
 30
0.0
 11
-861.74988699
 21
1428.58623373
 31
0.0
  0
LINE
  5
31D
100
AcDbEntity
  8
ZUWAKU
  6
CONTINUOUS
 62
       7
100
AcDbLine
 10
-871.45833333
 20
1418.87778739
 30
0.0
 11
-886.12488699
 21
1404.21123373
 31
0.0
  0
LINE
  5
31E
100
AcDbEntity
  8
ZUWAKU
  6
CONTINUOUS
 62
       7
100
AcDbLine
 10
-849.24832241
 20
1443.91622544
 30
0.0
 11
-864.57831412
 21
1428.58623373
 31
0.0
  0
LINE
  5
31F
100
AcDbEntity
  8
ZUWAKU
  6
CONTINUOUS
 62
       7
100
AcDbLine
 10
-871.45833333
 20
1421.70621451
 30
0.0
 11
-888.95331412
 21
1404.21123373
 31
0.0
  0
LINE
  5
320
100
AcDbEntity
  8
ZUWAKU
  6
CONTINUOUS
 62
       7
100
AcDbLine
 10
-853.55398153
 20
1442.43899344
 30
0.0
 11
-867.40674124
 21
1428.58623373
 31
0.0
  0
LINE
  5
321
100
AcDbEntity
  8
ZUWAKU
  6
CONTINUOUS
 62
       7
100
AcDbLine
 10
-871.45833333
 20
1424.53464164
 30
0.0
 11
-891.78174124
 21
1404.21123373
 31
0.0
  0
LINE
  5
322
100
AcDbEntity
  8
ZUWAKU
  6
CONTINUOUS
 62
       7
100
AcDbLine
 10
-858.09176444
 20
1440.72963766
 30
0.0
 11
-870.23516837
 21
1428.58623373
 31
0.0
  0
LINE
  5
323
100
AcDbEntity
  8
ZUWAKU
  6
CONTINUOUS
 62
       7
100
AcDbLine
 10
-871.45833333
 20
1427.36306876
 30
0.0
 11
-894.61016837
 21
1404.21123373
 31
0.0
  0
LINE
  5
324
100
AcDbEntity
  8
ZUWAKU
  6
CONTINUOUS
 62
       7
100
AcDbLine
 10
-862.94907541
 20
1438.70075381
 30
0.0
 11
-896.41396682
 21
1405.23586241
 31
0.0
  0
LINE
  5
325
100
AcDbEntity
  8
ZUWAKU
  6
CONTINUOUS
 62
       7
100
AcDbLine
 10
-868.29311105
 20
1436.18514529
 30
0.0
 11
-895.93421848
 21
1408.54403787
 31
0.0
  0
LINE
  5
326
100
AcDbEntity
  8
ZUWAKU
  6
CONTINUOUS
 62
       7
100
AcDbLine
 10
-874.54015832
 20
1432.76652515
 30
0.0
 11
-894.55145852
 21
1412.75522495
 31
0.0
  0
LINE
  5
327
100
AcDbEntity
  8
ZUWAKU
  6
CONTINUOUS
 62
       7
100
AcDbLine
 10
-884.27781755
 20
1425.85729304
 30
0.0
 11
-889.67808659
 21
1420.45702401
 31
0.0
  0
LINE
  5
328
100
AcDbEntity
  8
ZUWAKU
  6
CONTINUOUS
 62
       7
100
AcDbLine
 10
-778.45108886
 20
1455.31648937
 30
0.0
 11
-805.1813445
 21
1428.58623373
 31
0.0
  0
LINE
  5
329
100
AcDbEntity
  8
ZUWAKU
  6
CONTINUOUS
 62
       7
100
AcDbLine
 10
-775.54585533
 20
1455.39329577
 30
0.0
 11
-802.35291737
 21
1428.58623373
 31
0.0
  0
LINE
  5
32A
100
AcDbEntity
  8
ZUWAKU
  6
CONTINUOUS
 62
       7
100
AcDbLine
 10
-772.66774189
 20
1455.44298208
 30
0.0
 11
-799.52449025
 21
1428.58623373
 31
0.0
  0
LINE
  5
32B
100
AcDbEntity
  8
ZUWAKU
  6
CONTINUOUS
 62
       7
100
AcDbLine
 10
-769.81592759
 20
1455.46636926
 30
0.0
 11
-796.69606312
 21
1428.58623373
 31
0.0
  0
LINE
  5
32C
100
AcDbEntity
  8
ZUWAKU
  6
CONTINUOUS
 62
       7
100
AcDbLine
 10
-766.98966988
 20
1455.46419985
 30
0.0
 11
-793.867636
 21
1428.58623373
 31
0.0
  0
LINE
  5
32D
100
AcDbEntity
  8
ZUWAKU
  6
CONTINUOUS
 62
       7
100
AcDbLine
 10
-764.18829669
 20
1455.43714591
 30
0.0
 11
-791.03920887
 21
1428.58623373
 31
0.0
  0
LINE
  5
32E
100
AcDbEntity
  8
ZUWAKU
  6
CONTINUOUS
 62
       7
100
AcDbLine
 10
-761.41119962
 20
1455.38581585
 30
0.0
 11
-788.21078175
 21
1428.58623373
 31
0.0
  0
LINE
  5
32F
100
AcDbEntity
  8
ZUWAKU
  6
CONTINUOUS
 62
       7
100
AcDbLine
 10
-758.65782807
 20
1455.31076028
 30
0.0
 11
-785.38235462
 21
1428.58623373
 31
0.0
  0
LINE
  5
330
100
AcDbEntity
  8
ZUWAKU
  6
CONTINUOUS
 62
       7
100
AcDbLine
 10
-755.92768418
 20
1455.21247705
 30
0.0
 11
-782.5539275
 21
1428.58623373
 31
0.0
  0
LINE
  5
331
100
AcDbEntity
  8
ZUWAKU
  6
CONTINUOUS
 62
       7
100
AcDbLine
 10
-753.22031848
 20
1455.09141562
 30
0.0
 11
-779.72550037
 21
1428.58623373
 31
0.0
  0
LINE
  5
332
100
AcDbEntity
  8
ZUWAKU
  6
CONTINUOUS
 62
       7
100
AcDbLine
 10
-750.53532611
 20
1454.94798087
 30
0.0
 11
-776.89707325
 21
1428.58623373
 31
0.0
  0
LINE
  5
333
100
AcDbEntity
  8
ZUWAKU
  6
CONTINUOUS
 62
       7
100
AcDbLine
 10
-747.87234354
 20
1454.78253632
 30
0.0
 11
-774.06864612
 21
1428.58623373
 31
0.0
  0
LINE
  5
334
100
AcDbEntity
  8
ZUWAKU
  6
CONTINUOUS
 62
       7
100
AcDbLine
 10
-745.23104572
 20
1454.59540701
 30
0.0
 11
-771.240219
 21
1428.58623373
 31
0.0
  0
LINE
  5
335
100
AcDbEntity
  8
ZUWAKU
  6
CONTINUOUS
 62
       7
100
AcDbLine
 10
-742.61114366
 20
1454.38688195
 30
0.0
 11
-768.41179188
 21
1428.58623373
 31
0.0
  0
LINE
  5
336
100
AcDbEntity
  8
ZUWAKU
  6
CONTINUOUS
 62
       7
100
AcDbLine
 10
-740.01238228
 20
1454.1572162
 30
0.0
 11
-765.58336475
 21
1428.58623373
 31
0.0
  0
LINE
  5
337
100
AcDbEntity
  8
ZUWAKU
  6
CONTINUOUS
 62
       7
100
AcDbLine
 10
-737.4345386
 20
1453.90663275
 30
0.0
 11
-762.75493763
 21
1428.58623373
 31
0.0
  0
LINE
  5
338
100
AcDbEntity
  8
ZUWAKU
  6
CONTINUOUS
 62
       7
100
AcDbLine
 10
-734.87742023
 20
1453.635324
 30
0.0
 11
-759.9265105
 21
1428.58623373
 31
0.0
  0
LINE
  5
339
100
AcDbEntity
  8
ZUWAKU
  6
CONTINUOUS
 62
       7
100
AcDbLine
 10
-732.34086399
 20
1453.34345312
 30
0.0
 11
-757.09808338
 21
1428.58623373
 31
0.0
  0
LINE
  5
33A
100
AcDbEntity
  8
ZUWAKU
  6
CONTINUOUS
 62
       7
100
AcDbLine
 10
-729.82473487
 20
1453.03115511
 30
0.0
 11
-754.26965625
 21
1428.58623373
 31
0.0
  0
LINE
  5
33B
100
AcDbEntity
  8
ZUWAKU
  6
CONTINUOUS
 62
       7
100
AcDbLine
 10
-727.32892513
 20
1452.69853772
 30
0.0
 11
-751.44122913
 21
1428.58623373
 31
0.0
  0
LINE
  5
33C
100
AcDbEntity
  8
ZUWAKU
  6
CONTINUOUS
 62
       7
100
AcDbLine
 10
-724.85335361
 20
1452.34568212
 30
0.0
 11
-748.612802
 21
1428.58623373
 31
0.0
  0
LINE
  5
33D
100
AcDbEntity
  8
ZUWAKU
  6
CONTINUOUS
 62
       7
100
AcDbLine
 10
-722.39796519
 20
1451.97264342
 30
0.0
 11
-745.78437488
 21
1428.58623373
 31
0.0
  0
LINE
  5
33E
100
AcDbEntity
  8
ZUWAKU
  6
CONTINUOUS
 62
       7
100
AcDbLine
 10
-719.96273044
 20
1451.57945104
 30
0.0
 11
-742.95594775
 21
1428.58623373
 31
0.0
  0
LINE
  5
33F
100
AcDbEntity
  8
ZUWAKU
  6
CONTINUOUS
 62
       7
100
AcDbLine
 10
-717.54764546
 20
1451.1661089
 30
0.0
 11
-740.12752063
 21
1428.58623373
 31
0.0
  0
LINE
  5
340
100
AcDbEntity
  8
ZUWAKU
  6
CONTINUOUS
 62
       7
100
AcDbLine
 10
-715.15273183
 20
1450.7325954
 30
0.0
 11
-737.2990935
 21
1428.58623373
 31
0.0
  0
LINE
  5
341
100
AcDbEntity
  8
ZUWAKU
  6
CONTINUOUS
 62
       7
100
AcDbLine
 10
-712.77803675
 20
1450.27886336
 30
0.0
 11
-734.47066638
 21
1428.58623373
 31
0.0
  0
LINE
  5
342
100
AcDbEntity
  8
ZUWAKU
  6
CONTINUOUS
 62
       7
100
AcDbLine
 10
-710.42363335
 20
1449.80483964
 30
0.0
 11
-731.64223925
 21
1428.58623373
 31
0.0
  0
LINE
  5
343
100
AcDbEntity
  8
ZUWAKU
  6
CONTINUOUS
 62
       7
100
AcDbLine
 10
-708.08962114
 20
1449.31042471
 30
0.0
 11
-728.81381213
 21
1428.58623373
 31
0.0
  0
LINE
  5
344
100
AcDbEntity
  8
ZUWAKU
  6
CONTINUOUS
 62
       7
100
AcDbLine
 10
-705.7761267
 20
1448.79549204
 30
0.0
 11
-725.985385
 21
1428.58623373
 31
0.0
  0
LINE
  5
345
100
AcDbEntity
  8
ZUWAKU
  6
CONTINUOUS
 62
       7
100
AcDbLine
 10
-703.48330442
 20
1448.25988719
 30
0.0
 11
-723.15695788
 21
1428.58623373
 31
0.0
  0
LINE
  5
346
100
AcDbEntity
  8
ZUWAKU
  6
CONTINUOUS
 62
       7
100
AcDbLine
 10
-701.21133763
 20
1447.70342685
 30
0.0
 11
-720.32853075
 21
1428.58623373
 31
0.0
  0
LINE
  5
347
100
AcDbEntity
  8
ZUWAKU
  6
CONTINUOUS
 62
       7
100
AcDbLine
 10
-698.96043977
 20
1447.12589759
 30
0.0
 11
-717.50010363
 21
1428.58623373
 31
0.0
  0
LINE
  5
348
100
AcDbEntity
  8
ZUWAKU
  6
CONTINUOUS
 62
       7
100
AcDbLine
 10
-696.73085587
 20
1446.52705436
 30
0.0
 11
-714.67167651
 21
1428.58623373
 31
0.0
  0
LINE
  5
349
100
AcDbEntity
  8
ZUWAKU
  6
CONTINUOUS
 62
       7
100
AcDbLine
 10
-694.52286432
 20
1445.90661879
 30
0.0
 11
-711.84324938
 21
1428.58623373
 31
0.0
  0
LINE
  5
34A
100
AcDbEntity
  8
ZUWAKU
  6
CONTINUOUS
 62
       7
100
AcDbLine
 10
-692.33677886
 20
1445.26427713
 30
0.0
 11
-709.01482226
 21
1428.58623373
 31
0.0
  0
LINE
  5
34B
100
AcDbEntity
  8
ZUWAKU
  6
CONTINUOUS
 62
       7
100
AcDbLine
 10
-690.17295091
 20
1444.59967795
 30
0.0
 11
-706.18639513
 21
1428.58623373
 31
0.0
  0
LINE
  5
34C
100
AcDbEntity
  8
ZUWAKU
  6
CONTINUOUS
 62
       7
100
AcDbLine
 10
-688.03177235
 20
1443.91242939
 30
0.0
 11
-703.35796801
 21
1428.58623373
 31
0.0
  0
LINE
  5
34D
100
AcDbEntity
  8
ZUWAKU
  6
CONTINUOUS
 62
       7
100
AcDbLine
 10
-685.91367857
 20
1443.20209604
 30
0.0
 11
-700.52954088
 21
1428.58623373
 31
0.0
  0
LINE
  5
34E
100
AcDbEntity
  8
ZUWAKU
  6
CONTINUOUS
 62
       7
100
AcDbLine
 10
-683.81915214
 20
1442.46819535
 30
0.0
 11
-697.70111376
 21
1428.58623373
 31
0.0
  0
LINE
  5
34F
100
AcDbEntity
  8
ZUWAKU
  6
CONTINUOUS
 62
       7
100
AcDbLine
 10
-681.74872698
 20
1441.71019338
 30
0.0
 11
-694.87268663
 21
1428.58623373
 31
0.0
  0
LINE
  5
350
100
AcDbEntity
  8
ZUWAKU
  6
CONTINUOUS
 62
       7
100
AcDbLine
 10
-679.70299317
 20
1440.92750007
 30
0.0
 11
-692.04425951
 21
1428.58623373
 31
0.0
  0
LINE
  5
351
100
AcDbEntity
  8
ZUWAKU
  6
CONTINUOUS
 62
       7
100
AcDbLine
 10
-677.68260257
 20
1440.11946354
 30
0.0
 11
-689.21583238
 21
1428.58623373
 31
0.0
  0
LINE
  5
352
100
AcDbEntity
  8
ZUWAKU
  6
CONTINUOUS
 62
       7
100
AcDbLine
 10
-675.68827532
 20
1439.28536367
 30
0.0
 11
-686.38740526
 21
1428.58623373
 31
0.0
  0
LINE
  5
353
100
AcDbEntity
  8
ZUWAKU
  6
CONTINUOUS
 62
       7
100
AcDbLine
 10
-673.72080737
 20
1438.42440449
 30
0.0
 11
-683.55897813
 21
1428.58623373
 31
0.0
  0
LINE
  5
354
100
AcDbEntity
  8
ZUWAKU
  6
CONTINUOUS
 62
       7
100
AcDbLine
 10
-671.78107942
 20
1437.53570532
 30
0.0
 11
-680.73055101
 21
1428.58623373
 31
0.0
  0
LINE
  5
355
100
AcDbEntity
  8
ZUWAKU
  6
CONTINUOUS
 62
       7
100
AcDbLine
 10
-669.8700673
 20
1436.61829031
 30
0.0
 11
-677.90212388
 21
1428.58623373
 31
0.0
  0
LINE
  5
356
100
AcDbEntity
  8
ZUWAKU
  6
CONTINUOUS
 62
       7
100
AcDbLine
 10
-667.98885428
 20
1435.67107621
 30
0.0
 11
-675.07369676
 21
1428.58623373
 31
0.0
  0
LINE
  5
357
100
AcDbEntity
  8
ZUWAKU
  6
CONTINUOUS
 62
       7
100
AcDbLine
 10
-666.13864569
 20
1434.69285767
 30
0.0
 11
-672.24526963
 21
1428.58623373
 31
0.0
  0
LINE
  5
358
100
AcDbEntity
  8
ZUWAKU
  6
CONTINUOUS
 62
       7
100
AcDbLine
 10
-664.32078643
 20
1433.68228981
 30
0.0
 11
-669.41684251
 21
1428.58623373
 31
0.0
  0
LINE
  5
359
100
AcDbEntity
  8
ZUWAKU
  6
CONTINUOUS
 62
       7
100
AcDbLine
 10
-662.53678196
 20
1432.63786715
 30
0.0
 11
-666.58841538
 21
1428.58623373
 31
0.0
  0
LINE
  5
35A
100
AcDbEntity
  8
ZUWAKU
  6
CONTINUOUS
 62
       7
100
AcDbLine
 10
-660.78832384
 20
1431.55789815
 30
0.0
 11
-665.20833333
 21
1427.13788866
 31
0.0
  0
LINE
  5
35B
100
AcDbEntity
  8
ZUWAKU
  6
CONTINUOUS
 62
       7
100
AcDbLine
 10
-659.07732093
 20
1430.44047393
 30
0.0
 11
-665.20833333
 21
1424.30946153
 31
0.0
  0
LINE
  5
35C
100
AcDbEntity
  8
ZUWAKU
  6
CONTINUOUS
 62
       7
100
AcDbLine
 10
-657.4059379
 20
1429.28342984
 30
0.0
 11
-665.20833333
 21
1421.48103441
 31
0.0
  0
LINE
  5
35D
100
AcDbEntity
  8
ZUWAKU
  6
CONTINUOUS
 62
       7
100
AcDbLine
 10
-655.77664324
 20
1428.08429738
 30
0.0
 11
-665.20833333
 21
1418.65260728
 31
0.0
  0
LINE
  5
35E
100
AcDbEntity
  8
ZUWAKU
  6
CONTINUOUS
 62
       7
100
AcDbLine
 10
-654.19226987
 20
1426.84024362
 30
0.0
 11
-665.20833333
 21
1415.82418016
 31
0.0
  0
LINE
  5
35F
100
AcDbEntity
  8
ZUWAKU
  6
CONTINUOUS
 62
       7
100
AcDbLine
 10
-652.65609255
 20
1425.54799382
 30
0.0
 11
-665.20833333
 21
1412.99575303
 31
0.0
  0
LINE
  5
360
100
AcDbEntity
  8
ZUWAKU
  6
CONTINUOUS
 62
       7
100
AcDbLine
 10
-651.1719282
 20
1424.20373104
 30
0.0
 11
-665.20833333
 21
1410.16732591
 31
0.0
  0
LINE
  5
361
100
AcDbEntity
  8
ZUWAKU
  6
CONTINUOUS
 62
       7
100
AcDbLine
 10
-649.74426802
 20
1422.80296409
 30
0.0
 11
-665.20833333
 21
1407.33889878
 31
0.0
  0
LINE
  5
362
100
AcDbEntity
  8
ZUWAKU
  6
CONTINUOUS
 62
       7
100
AcDbLine
 10
-648.37845474
 20
1421.34035025
 30
0.0
 11
-665.20833333
 21
1404.51047166
 31
0.0
  0
LINE
  5
363
100
AcDbEntity
  8
ZUWAKU
  6
CONTINUOUS
 62
       7
100
AcDbLine
 10
-647.08092539
 20
1419.80945248
 30
0.0
 11
-662.67914414
 21
1404.21123373
 31
0.0
  0
LINE
  5
364
100
AcDbEntity
  8
ZUWAKU
  6
CONTINUOUS
 62
       7
100
AcDbLine
 10
-645.85955197
 20
1418.20239877
 30
0.0
 11
-659.85071701
 21
1404.21123373
 31
0.0
  0
LINE
  5
365
100
AcDbEntity
  8
ZUWAKU
  6
CONTINUOUS
 62
       7
100
AcDbLine
 10
-644.72413332
 20
1416.5093903
 30
0.0
 11
-657.02228989
 21
1404.21123373
 31
0.0
  0
LINE
  5
366
100
AcDbEntity
  8
ZUWAKU
  6
CONTINUOUS
 62
       7
100
AcDbLine
 10
-643.68712942
 20
1414.71796707
 30
0.0
 11
-654.19386276
 21
1404.21123373
 31
0.0
  0
LINE
  5
367
100
AcDbEntity
  8
ZUWAKU
  6
CONTINUOUS
 62
       7
100
AcDbLine
 10
-642.76480295
 20
1412.81186642
 30
0.0
 11
-651.36543564
 21
1404.21123373
 31
0.0
  0
LINE
  5
368
100
AcDbEntity
  8
ZUWAKU
  6
CONTINUOUS
 62
       7
100
AcDbLine
 10
-641.97908471
 20
1410.76915753
 30
0.0
 11
-648.53700851
 21
1404.21123373
 31
0.0
  0
LINE
  5
369
100
AcDbEntity
  8
ZUWAKU
  6
CONTINUOUS
 62
       7
100
AcDbLine
 10
-641.36081976
 20
1408.55899536
 30
0.0
 11
-645.70858139
 21
1404.21123373
 31
0.0
  0
LINE
  5
36A
100
AcDbEntity
  8
ZUWAKU
  6
CONTINUOUS
 62
       7
100
AcDbLine
 10
-640.95590033
 20
1406.13548767
 30
0.0
 11
-642.88015426
 21
1404.21123373
 31
0.0
  0
LINE
  5
36B
100
AcDbEntity
  8
ZUWAKU
  6
CONTINUOUS
 62
       7
100
AcDbLine
 10
-728.94727457
 20
1379.83623373
 30
0.0
 11
-756.25583858
 21
1352.52766972
 31
0.0
  0
LINE
  5
36C
100
AcDbEntity
  8
ZUWAKU
  6
CONTINUOUS
 62
       7
100
AcDbLine
 10
-731.77570169
 20
1379.83623373
 30
0.0
 11
-759.18573435
 21
1352.42620108
 31
0.0
  0
LINE
  5
36D
100
AcDbEntity
  8
ZUWAKU
  6
CONTINUOUS
 62
       7
100
AcDbLine
 10
-734.60412882
 20
1379.83623373
 30
0.0
 11
-762.08771375
 21
1352.3526488
 31
0.0
  0
LINE
  5
36E
100
AcDbEntity
  8
ZUWAKU
  6
CONTINUOUS
 62
       7
100
AcDbLine
 10
-737.43255594
 20
1379.83623373
 30
0.0
 11
-764.96267457
 21
1352.3061151
 31
0.0
  0
LINE
  5
36F
100
AcDbEntity
  8
ZUWAKU
  6
CONTINUOUS
 62
       7
100
AcDbLine
 10
-740.26098307
 20
1379.83623373
 30
0.0
 11
-767.81142803
 21
1352.28578877
 31
0.0
  0
LINE
  5
370
100
AcDbEntity
  8
ZUWAKU
  6
CONTINUOUS
 62
       7
100
AcDbLine
 10
-743.08941019
 20
1379.83623373
 30
0.0
 11
-770.63470794
 21
1352.29093599
 31
0.0
  0
LINE
  5
371
100
AcDbEntity
  8
ZUWAKU
  6
CONTINUOUS
 62
       7
100
AcDbLine
 10
-745.91783732
 20
1379.83623373
 30
0.0
 11
-773.4331785
 21
1352.32089255
 31
0.0
  0
LINE
  5
372
100
AcDbEntity
  8
ZUWAKU
  6
CONTINUOUS
 62
       7
100
AcDbLine
 10
-748.74626444
 20
1379.83623373
 30
0.0
 11
-776.20744099
 21
1352.37505718
 31
0.0
  0
LINE
  5
373
100
AcDbEntity
  8
ZUWAKU
  6
CONTINUOUS
 62
       7
100
AcDbLine
 10
-751.57469157
 20
1379.83623373
 30
0.0
 11
-778.95803953
 21
1352.45288576
 31
0.0
  0
LINE
  5
374
100
AcDbEntity
  8
ZUWAKU
  6
CONTINUOUS
 62
       7
100
AcDbLine
 10
-754.40311869
 20
1379.83623373
 30
0.0
 11
-781.68546603
 21
1352.55388639
 31
0.0
  0
LINE
  5
375
100
AcDbEntity
  8
ZUWAKU
  6
CONTINUOUS
 62
       7
100
AcDbLine
 10
-757.23154582
 20
1379.83623373
 30
0.0
 11
-784.3901645
 21
1352.67761505
 31
0.0
  0
LINE
  5
376
100
AcDbEntity
  8
ZUWAKU
  6
CONTINUOUS
 62
       7
100
AcDbLine
 10
-760.05997294
 20
1379.83623373
 30
0.0
 11
-787.07253474
 21
1352.82367193
 31
0.0
  0
LINE
  5
377
100
AcDbEntity
  8
ZUWAKU
  6
CONTINUOUS
 62
       7
100
AcDbLine
 10
-762.88840006
 20
1379.83623373
 30
0.0
 11
-789.73293559
 21
1352.9916982
 31
0.0
  0
LINE
  5
378
100
AcDbEntity
  8
ZUWAKU
  6
CONTINUOUS
 62
       7
100
AcDbLine
 10
-765.71682719
 20
1379.83623373
 30
0.0
 11
-792.37168772
 21
1353.1813732
 31
0.0
  0
LINE
  5
379
100
AcDbEntity
  8
ZUWAKU
  6
CONTINUOUS
 62
       7
100
AcDbLine
 10
-768.54525431
 20
1379.83623373
 30
0.0
 11
-794.989076
 21
1353.39241204
 31
0.0
  0
LINE
  5
37A
100
AcDbEntity
  8
ZUWAKU
  6
CONTINUOUS
 62
       7
100
AcDbLine
 10
-771.37368144
 20
1379.83623373
 30
0.0
 11
-797.58535162
 21
1353.62456354
 31
0.0
  0
LINE
  5
37B
100
AcDbEntity
  8
ZUWAKU
  6
CONTINUOUS
 62
       7
100
AcDbLine
 10
-774.20210856
 20
1379.83623373
 30
0.0
 11
-800.16073386
 21
1353.87760843
 31
0.0
  0
LINE
  5
37C
100
AcDbEntity
  8
ZUWAKU
  6
CONTINUOUS
 62
       7
100
AcDbLine
 10
-777.03053569
 20
1379.83623373
 30
0.0
 11
-802.71541161
 21
1354.1513578
 31
0.0
  0
LINE
  5
37D
100
AcDbEntity
  8
ZUWAKU
  6
CONTINUOUS
 62
       7
100
AcDbLine
 10
-779.85896281
 20
1379.83623373
 30
0.0
 11
-805.24954465
 21
1354.44565189
 31
0.0
  0
LINE
  5
37E
100
AcDbEntity
  8
ZUWAKU
  6
CONTINUOUS
 62
       7
100
AcDbLine
 10
-782.68738994
 20
1379.83623373
 30
0.0
 11
-807.76326473
 21
1354.76035894
 31
0.0
  0
LINE
  5
37F
100
AcDbEntity
  8
ZUWAKU
  6
CONTINUOUS
 62
       7
100
AcDbLine
 10
-785.51581706
 20
1379.83623373
 30
0.0
 11
-810.25667639
 21
1355.0953744
 31
0.0
  0
LINE
  5
380
100
AcDbEntity
  8
ZUWAKU
  6
CONTINUOUS
 62
       7
100
AcDbLine
 10
-788.34424419
 20
1379.83623373
 30
0.0
 11
-812.72985771
 21
1355.45062021
 31
0.0
  0
LINE
  5
381
100
AcDbEntity
  8
ZUWAKU
  6
CONTINUOUS
 62
       7
100
AcDbLine
 10
-791.17267131
 20
1379.83623373
 30
0.0
 11
-815.18286075
 21
1355.82604429
 31
0.0
  0
LINE
  5
382
100
AcDbEntity
  8
ZUWAKU
  6
CONTINUOUS
 62
       7
100
AcDbLine
 10
-794.00109844
 20
1379.83623373
 30
0.0
 11
-817.61571191
 21
1356.22162026
 31
0.0
  0
LINE
  5
383
100
AcDbEntity
  8
ZUWAKU
  6
CONTINUOUS
 62
       7
100
AcDbLine
 10
-796.82952556
 20
1379.83623373
 30
0.0
 11
-820.02841207
 21
1356.63734722
 31
0.0
  0
LINE
  5
384
100
AcDbEntity
  8
ZUWAKU
  6
CONTINUOUS
 62
       7
100
AcDbLine
 10
-799.65795269
 20
1379.83623373
 30
0.0
 11
-822.42093664
 21
1357.07324978
 31
0.0
  0
LINE
  5
385
100
AcDbEntity
  8
ZUWAKU
  6
CONTINUOUS
 62
       7
100
AcDbLine
 10
-802.48637981
 20
1379.83623373
 30
0.0
 11
-824.79323537
 21
1357.52937817
 31
0.0
  0
LINE
  5
386
100
AcDbEntity
  8
ZUWAKU
  6
CONTINUOUS
 62
       7
100
AcDbLine
 10
-805.31480694
 20
1379.83623373
 30
0.0
 11
-827.14523203
 21
1358.00580863
 31
0.0
  0
LINE
  5
387
100
AcDbEntity
  8
ZUWAKU
  6
CONTINUOUS
 62
       7
100
AcDbLine
 10
-808.14323406
 20
1379.83623373
 30
0.0
 11
-829.47682395
 21
1358.50264384
 31
0.0
  0
LINE
  5
388
100
AcDbEntity
  8
ZUWAKU
  6
CONTINUOUS
 62
       7
100
AcDbLine
 10
-810.97166119
 20
1379.83623373
 30
0.0
 11
-831.78788131
 21
1359.0200136
 31
0.0
  0
LINE
  5
389
100
AcDbEntity
  8
ZUWAKU
  6
CONTINUOUS
 62
       7
100
AcDbLine
 10
-813.80008831
 20
1379.83623373
 30
0.0
 11
-834.07824635
 21
1359.55807569
 31
0.0
  0
LINE
  5
38A
100
AcDbEntity
  8
ZUWAKU
  6
CONTINUOUS
 62
       7
100
AcDbLine
 10
-816.62851543
 20
1379.83623373
 30
0.0
 11
-836.34773224
 21
1360.11701693
 31
0.0
  0
LINE
  5
38B
100
AcDbEntity
  8
ZUWAKU
  6
CONTINUOUS
 62
       7
100
AcDbLine
 10
-819.45694256
 20
1379.83623373
 30
0.0
 11
-838.5961219
 21
1360.69705439
 31
0.0
  0
LINE
  5
38C
100
AcDbEntity
  8
ZUWAKU
  6
CONTINUOUS
 62
       7
100
AcDbLine
 10
-822.28536968
 20
1379.83623373
 30
0.0
 11
-840.82316643
 21
1361.29843699
 31
0.0
  0
LINE
  5
38D
100
AcDbEntity
  8
ZUWAKU
  6
CONTINUOUS
 62
       7
100
AcDbLine
 10
-825.11379681
 20
1379.83623373
 30
0.0
 11
-843.02858338
 21
1361.92144716
 31
0.0
  0
LINE
  5
38E
100
AcDbEntity
  8
ZUWAKU
  6
CONTINUOUS
 62
       7
100
AcDbLine
 10
-827.94222393
 20
1379.83623373
 30
0.0
 11
-845.21205468
 21
1362.56640298
 31
0.0
  0
LINE
  5
38F
100
AcDbEntity
  8
ZUWAKU
  6
CONTINUOUS
 62
       7
100
AcDbLine
 10
-830.77065106
 20
1379.83623373
 30
0.0
 11
-847.37322427
 21
1363.23366052
 31
0.0
  0
LINE
  5
390
100
AcDbEntity
  8
ZUWAKU
  6
CONTINUOUS
 62
       7
100
AcDbLine
 10
-833.59907818
 20
1379.83623373
 30
0.0
 11
-849.5116953
 21
1363.92361661
 31
0.0
  0
LINE
  5
391
100
AcDbEntity
  8
ZUWAKU
  6
CONTINUOUS
 62
       7
100
AcDbLine
 10
-836.42750531
 20
1379.83623373
 30
0.0
 11
-851.627027
 21
1364.63671204
 31
0.0
  0
LINE
  5
392
100
AcDbEntity
  8
ZUWAKU
  6
CONTINUOUS
 62
       7
100
AcDbLine
 10
-839.25593243
 20
1379.83623373
 30
0.0
 11
-853.71873094
 21
1365.37343522
 31
0.0
  0
LINE
  5
393
100
AcDbEntity
  8
ZUWAKU
  6
CONTINUOUS
 62
       7
100
AcDbLine
 10
-842.08435956
 20
1379.83623373
 30
0.0
 11
-855.78626683
 21
1366.13432646
 31
0.0
  0
LINE
  5
394
100
AcDbEntity
  8
ZUWAKU
  6
CONTINUOUS
 62
       7
100
AcDbLine
 10
-844.91278668
 20
1379.83623373
 30
0.0
 11
-857.82903759
 21
1366.91998282
 31
0.0
  0
LINE
  5
395
100
AcDbEntity
  8
ZUWAKU
  6
CONTINUOUS
 62
       7
100
AcDbLine
 10
-847.74121381
 20
1379.83623373
 30
0.0
 11
-859.84638364
 21
1367.7310639
 31
0.0
  0
LINE
  5
396
100
AcDbEntity
  8
ZUWAKU
  6
CONTINUOUS
 62
       7
100
AcDbLine
 10
-850.56964093
 20
1379.83623373
 30
0.0
 11
-861.83757629
 21
1368.56829837
 31
0.0
  0
LINE
  5
397
100
AcDbEntity
  8
ZUWAKU
  6
CONTINUOUS
 62
       7
100
AcDbLine
 10
-853.39806806
 20
1379.83623373
 30
0.0
 11
-863.80181005
 21
1369.43249174
 31
0.0
  0
LINE
  5
398
100
AcDbEntity
  8
ZUWAKU
  6
CONTINUOUS
 62
       7
100
AcDbLine
 10
-856.22649518
 20
1379.83623373
 30
0.0
 11
-865.73819354
 21
1370.32453537
 31
0.0
  0
LINE
  5
399
100
AcDbEntity
  8
ZUWAKU
  6
CONTINUOUS
 62
       7
100
AcDbLine
 10
-859.05492231
 20
1379.83623373
 30
0.0
 11
-867.6457389
 21
1371.24541713
 31
0.0
  0
LINE
  5
39A
100
AcDbEntity
  8
ZUWAKU
  6
CONTINUOUS
 62
       7
100
AcDbLine
 10
-861.88334943
 20
1379.83623373
 30
0.0
 11
-869.52334925
 21
1372.19623391
 31
0.0
  0
LINE
  5
39B
100
AcDbEntity
  8
ZUWAKU
  6
CONTINUOUS
 62
       7
100
AcDbLine
 10
-864.71177656
 20
1379.83623373
 30
0.0
 11
-871.3698037
 21
1373.17820658
 31
0.0
  0
LINE
  5
39C
100
AcDbEntity
  8
ZUWAKU
  6
CONTINUOUS
 62
       7
100
AcDbLine
 10
-867.54020368
 20
1379.83623373
 30
0.0
 11
-873.18373955
 21
1374.19269786
 31
0.0
  0
LINE
  5
39D
100
AcDbEntity
  8
ZUWAKU
  6
CONTINUOUS
 62
       7
100
AcDbLine
 10
-870.36863081
 20
1379.83623373
 30
0.0
 11
-874.96363073
 21
1375.24123381
 31
0.0
  0
LINE
  5
39E
100
AcDbEntity
  8
ZUWAKU
  6
CONTINUOUS
 62
       7
100
AcDbLine
 10
-871.45833333
 20
1381.57495833
 30
0.0
 11
-876.70776173
 21
1376.32552993
 31
0.0
  0
LINE
  5
39F
100
AcDbEntity
  8
ZUWAKU
  6
CONTINUOUS
 62
       7
100
AcDbLine
 10
-871.45833333
 20
1384.40338545
 30
0.0
 11
-878.4141956
 21
1377.44752318
 31
0.0
  0
LINE
  5
3A0
100
AcDbEntity
  8
ZUWAKU
  6
CONTINUOUS
 62
       7
100
AcDbLine
 10
-871.45833333
 20
1387.23181258
 30
0.0
 11
-880.08073446
 21
1378.60941145
 31
0.0
  0
LINE
  5
3A1
100
AcDbEntity
  8
ZUWAKU
  6
CONTINUOUS
 62
       7
100
AcDbLine
 10
-871.45833333
 20
1390.0602397
 30
0.0
 11
-881.70487012
 21
1379.81370291
 31
0.0
  0
LINE
  5
3A2
100
AcDbEntity
  8
ZUWAKU
  6
CONTINUOUS
 62
       7
100
AcDbLine
 10
-871.45833333
 20
1392.88866682
 30
0.0
 11
-883.28372181
 21
1381.06327834
 31
0.0
  0
LINE
  5
3A3
100
AcDbEntity
  8
ZUWAKU
  6
CONTINUOUS
 62
       7
100
AcDbLine
 10
-871.45833333
 20
1395.71709395
 30
0.0
 11
-884.81395639
 21
1382.36147089
 31
0.0
  0
LINE
  5
3A4
100
AcDbEntity
  8
ZUWAKU
  6
CONTINUOUS
 62
       7
100
AcDbLine
 10
-871.45833333
 20
1398.54552107
 30
0.0
 11
-886.2916848
 21
1383.71216961
 31
0.0
  0
LINE
  5
3A5
100
AcDbEntity
  8
ZUWAKU
  6
CONTINUOUS
 62
       7
100
AcDbLine
 10
-871.45833333
 20
1401.3739482
 30
0.0
 11
-887.71232538
 21
1385.11995615
 31
0.0
  0
LINE
  5
3A6
100
AcDbEntity
  8
ZUWAKU
  6
CONTINUOUS
 62
       7
100
AcDbLine
 10
-871.44947493
 20
1404.21123373
 30
0.0
 11
-889.07042015
 21
1386.59028851
 31
0.0
  0
LINE
  5
3A7
100
AcDbEntity
  8
ZUWAKU
  6
CONTINUOUS
 62
       7
100
AcDbLine
 10
-874.27790205
 20
1404.21123373
 30
0.0
 11
-890.35938243
 21
1388.12975335
 31
0.0
  0
LINE
  5
3A8
100
AcDbEntity
  8
ZUWAKU
  6
CONTINUOUS
 62
       7
100
AcDbLine
 10
-877.10632918
 20
1404.21123373
 30
0.0
 11
-891.57114159
 21
1389.74642131
 31
0.0
  0
LINE
  5
3A9
100
AcDbEntity
  8
ZUWAKU
  6
CONTINUOUS
 62
       7
100
AcDbLine
 10
-879.9347563
 20
1404.21123373
 30
0.0
 11
-892.69562827
 21
1391.45036176
 31
0.0
  0
LINE
  5
3AA
100
AcDbEntity
  8
ZUWAKU
  6
CONTINUOUS
 62
       7
100
AcDbLine
 10
-882.76318343
 20
1404.21123373
 30
0.0
 11
-893.72000249
 21
1393.25441467
 31
0.0
  0
LINE
  5
3AB
100
AcDbEntity
  8
ZUWAKU
  6
CONTINUOUS
 62
       7
100
AcDbLine
 10
-885.59161055
 20
1404.21123373
 30
0.0
 11
-894.62744719
 21
1395.17539709
 31
0.0
  0
LINE
  5
3AC
100
AcDbEntity
  8
ZUWAKU
  6
CONTINUOUS
 62
       7
100
AcDbLine
 10
-888.42003768
 20
1404.21123373
 30
0.0
 11
-895.39518357
 21
1397.23608783
 31
0.0
  0
LINE
  5
3AD
100
AcDbEntity
  8
ZUWAKU
  6
CONTINUOUS
 62
       7
100
AcDbLine
 10
-891.2484648
 20
1404.21123373
 30
0.0
 11
-895.99098785
 21
1399.46871068
 31
0.0
  0
LINE
  5
3AE
100
AcDbEntity
  8
ZUWAKU
  6
CONTINUOUS
 62
       7
100
AcDbLine
 10
-894.07689193
 20
1404.21123373
 30
0.0
 11
-896.36653435
 21
1401.92159131
 31
0.0
  0
LINE
  5
3AF
100
AcDbEntity
  8
ZUWAKU
  6
CONTINUOUS
 62
       7
100
AcDbLine
 10
-726.11884744
 20
1379.83623373
 30
0.0
 11
-753.29703137
 21
1352.6580498
 31
0.0
  0
LINE
  5
3B0
100
AcDbEntity
  8
ZUWAKU
  6
CONTINUOUS
 62
       7
100
AcDbLine
 10
-723.29042032
 20
1379.83623373
 30
0.0
 11
-750.30820764
 21
1352.81844641
 31
0.0
  0
LINE
  5
3B1
100
AcDbEntity
  8
ZUWAKU
  6
CONTINUOUS
 62
       7
100
AcDbLine
 10
-720.46199319
 20
1379.83623373
 30
0.0
 11
-747.28813716
 21
1353.01008977
 31
0.0
  0
LINE
  5
3B2
100
AcDbEntity
  8
ZUWAKU
  6
CONTINUOUS
 62
       7
100
AcDbLine
 10
-717.63356607
 20
1379.83623373
 30
0.0
 11
-744.2354465
 21
1353.2343533
 31
0.0
  0
LINE
  5
3B3
100
AcDbEntity
  8
ZUWAKU
  6
CONTINUOUS
 62
       7
100
AcDbLine
 10
-714.80513894
 20
1379.83623373
 30
0.0
 11
-741.14859721
 21
1353.49277546
 31
0.0
  0
LINE
  5
3B4
100
AcDbEntity
  8
ZUWAKU
  6
CONTINUOUS
 62
       7
100
AcDbLine
 10
-711.97671182
 20
1379.83623373
 30
0.0
 11
-738.02585935
 21
1353.78708619
 31
0.0
  0
LINE
  5
3B5
100
AcDbEntity
  8
ZUWAKU
  6
CONTINUOUS
 62
       7
100
AcDbLine
 10
-709.14828469
 20
1379.83623373
 30
0.0
 11
-734.86527903
 21
1354.11923939
 31
0.0
  0
LINE
  5
3B6
100
AcDbEntity
  8
ZUWAKU
  6
CONTINUOUS
 62
       7
100
AcDbLine
 10
-706.31985757
 20
1379.83623373
 30
0.0
 11
-731.66463831
 21
1354.49145299
 31
0.0
  0
LINE
  5
3B7
100
AcDbEntity
  8
ZUWAKU
  6
CONTINUOUS
 62
       7
100
AcDbLine
 10
-703.49143045
 20
1379.83623373
 30
0.0
 11
-728.42140505
 21
1354.90625912
 31
0.0
  0
LINE
  5
3B8
100
AcDbEntity
  8
ZUWAKU
  6
CONTINUOUS
 62
       7
100
AcDbLine
 10
-700.66300332
 20
1379.83623373
 30
0.0
 11
-725.13266956
 21
1355.36656749
 31
0.0
  0
LINE
  5
3B9
100
AcDbEntity
  8
ZUWAKU
  6
CONTINUOUS
 62
       7
100
AcDbLine
 10
-697.8345762
 20
1379.83623373
 30
0.0
 11
-721.79506333
 21
1355.87574659
 31
0.0
  0
LINE
  5
3BA
100
AcDbEntity
  8
ZUWAKU
  6
CONTINUOUS
 62
       7
100
AcDbLine
 10
-695.00614907
 20
1379.83623373
 30
0.0
 11
-718.4046536
 21
1356.4377292
 31
0.0
  0
LINE
  5
3BB
100
AcDbEntity
  8
ZUWAKU
  6
CONTINUOUS
 62
       7
100
AcDbLine
 10
-692.17772195
 20
1379.83623373
 30
0.0
 11
-714.95680381
 21
1357.05715187
 31
0.0
  0
LINE
  5
3BC
100
AcDbEntity
  8
ZUWAKU
  6
CONTINUOUS
 62
       7
100
AcDbLine
 10
-664.97429482
 20
1404.21123373
 30
0.0
 11
-665.20833333
 21
1403.97719522
 31
0.0
  0
LINE
  5
3BD
100
AcDbEntity
  8
ZUWAKU
  6
CONTINUOUS
 62
       7
100
AcDbLine
 10
-689.34929482
 20
1379.83623373
 30
0.0
 11
-711.44598592
 21
1357.73954263
 31
0.0
  0
LINE
  5
3BE
100
AcDbEntity
  8
ZUWAKU
  6
CONTINUOUS
 62
       7
100
AcDbLine
 10
-662.1458677
 20
1404.21123373
 30
0.0
 11
-665.20833333
 21
1401.14876809
 31
0.0
  0
LINE
  5
3BF
100
AcDbEntity
  8
ZUWAKU
  6
CONTINUOUS
 62
       7
100
AcDbLine
 10
-686.5208677
 20
1379.83623373
 30
0.0
 11
-707.8655221
 21
1358.49157933
 31
0.0
  0
LINE
  5
3C0
100
AcDbEntity
  8
ZUWAKU
  6
CONTINUOUS
 62
       7
100
AcDbLine
 10
-659.31744057
 20
1404.21123373
 30
0.0
 11
-665.20833333
 21
1398.32034097
 31
0.0
  0
LINE
  5
3C1
100
AcDbEntity
  8
ZUWAKU
  6
CONTINUOUS
 62
       7
100
AcDbLine
 10
-683.69244057
 20
1379.83623373
 30
0.0
 11
-704.20722046
 21
1359.32145385
 31
0.0
  0
LINE
  5
3C2
100
AcDbEntity
  8
ZUWAKU
  6
CONTINUOUS
 62
       7
100
AcDbLine
 10
-656.48901345
 20
1404.21123373
 30
0.0
 11
-665.20833333
 21
1395.49191384
 31
0.0
  0
LINE
  5
3C3
100
AcDbEntity
  8
ZUWAKU
  6
CONTINUOUS
 62
       7
100
AcDbLine
 10
-680.86401345
 20
1379.83623373
 30
0.0
 11
-700.46084606
 21
1360.23940112
 31
0.0
  0
LINE
  5
3C4
100
AcDbEntity
  8
ZUWAKU
  6
CONTINUOUS
 62
       7
100
AcDbLine
 10
-653.66058632
 20
1404.21123373
 30
0.0
 11
-665.20833333
 21
1392.66348672
 31
0.0
  0
LINE
  5
3C5
100
AcDbEntity
  8
ZUWAKU
  6
CONTINUOUS
 62
       7
100
AcDbLine
 10
-678.03558632
 20
1379.83623373
 30
0.0
 11
-696.61332559
 21
1361.25849446
 31
0.0
  0
LINE
  5
3C6
100
AcDbEntity
  8
ZUWAKU
  6
CONTINUOUS
 62
       7
100
AcDbLine
 10
-650.8321592
 20
1404.21123373
 30
0.0
 11
-665.20833333
 21
1389.83505959
 31
0.0
  0
LINE
  5
3C7
100
AcDbEntity
  8
ZUWAKU
  6
CONTINUOUS
 62
       7
100
AcDbLine
 10
-675.2071592
 20
1379.83623373
 30
0.0
 11
-692.6475002
 21
1362.39589272
 31
0.0
  0
LINE
  5
3C8
100
AcDbEntity
  8
ZUWAKU
  6
CONTINUOUS
 62
       7
100
AcDbLine
 10
-648.00373207
 20
1404.21123373
 30
0.0
 11
-665.20833333
 21
1387.00663247
 31
0.0
  0
LINE
  5
3C9
100
AcDbEntity
  8
ZUWAKU
  6
CONTINUOUS
 62
       7
100
AcDbLine
 10
-672.37873207
 20
1379.83623373
 30
0.0
 11
-688.54006566
 21
1363.67490014
 31
0.0
  0
LINE
  5
3CA
100
AcDbEntity
  8
ZUWAKU
  6
CONTINUOUS
 62
       7
100
AcDbLine
 10
-645.17530495
 20
1404.21123373
 30
0.0
 11
-665.20833333
 21
1384.17820534
 31
0.0
  0
LINE
  5
3CB
100
AcDbEntity
  8
ZUWAKU
  6
CONTINUOUS
 62
       7
100
AcDbLine
 10
-669.55030495
 20
1379.83623373
 30
0.0
 11
-684.25793812
 21
1365.12860055
 31
0.0
  0
LINE
  5
3CC
100
AcDbEntity
  8
ZUWAKU
  6
CONTINUOUS
 62
       7
100
AcDbLine
 10
-642.34687782
 20
1404.21123373
 30
0.0
 11
-665.20833333
 21
1381.34977822
 31
0.0
  0
LINE
  5
3CD
100
AcDbEntity
  8
ZUWAKU
  6
CONTINUOUS
 62
       7
100
AcDbLine
 10
-666.72187782
 20
1379.83623373
 30
0.0
 11
-679.75126005
 21
1366.80685151
 31
0.0
  0
LINE
  5
3CE
100
AcDbEntity
  8
ZUWAKU
  6
CONTINUOUS
 62
       7
100
AcDbLine
 10
-640.85756089
 20
1402.87212354
 30
0.0
 11
-674.93821572
 21
1368.79146871
 31
0.0
  0
LINE
  5
3CF
100
AcDbEntity
  8
ZUWAKU
  6
CONTINUOUS
 62
       7
100
AcDbLine
 10
-641.26596368
 20
1399.63529362
 30
0.0
 11
-669.66552562
 21
1371.23573168
 31
0.0
  0
LINE
  5
3D0
100
AcDbEntity
  8
ZUWAKU
  6
CONTINUOUS
 62
       7
100
AcDbLine
 10
-642.49950568
 20
1395.57332449
 30
0.0
 11
-663.56769631
 21
1374.50513387
 31
0.0
  0
LINE
  5
3D1
100
AcDbEntity
  8
ZUWAKU
  6
CONTINUOUS
 62
       7
100
AcDbLine
 10
-646.31509386
 20
1388.92930919
 30
0.0
 11
-654.88782083
 21
1380.35658222
 31
0.0
  0
ARC
  5
3D2
100
AcDbEntity
  8
ZUWAKU
  6
CONTINUOUS
 62
       7
100
AcDbCircle
 10
-802.62655487
 20
1414.83623373
 30
0.0
 40
5.0
100
AcDbArc
 50
270.0
 51
450.0
  0
LINE
  5
3D3
100
AcDbEntity
  8
ZUWAKU
  6
CONTINUOUS
 62
       7
100
AcDbLine
 10
-833.40958333
 20
1394.84123373
 30
0.0
 11
-826.22208333
 21
1394.84123373
 31
0.0
  0
LINE
  5
3D4
100
AcDbEntity
  8
ZUWAKU
  6
CONTINUOUS
 62
       7
100
AcDbLine
 10
-834.58333333
 20
1391.71123373
 30
0.0
 11
-824.05299187
 21
1391.71123373
 31
0.0
  0
LINE
  5
3D5
100
AcDbEntity
  8
ZUWAKU
  6
CONTINUOUS
 62
       7
100
AcDbLine
 10
-824.05299187
 20
1391.71123373
 30
0.0
 11
-818.42986687
 21
1406.70623373
 31
0.0
  0
LINE
  5
3D6
100
AcDbEntity
  8
ZUWAKU
  6
CONTINUOUS
 62
       7
100
AcDbLine
 10
-817.25611687
 20
1409.83623373
 30
0.0
 11
-813.50611687
 21
1419.83623373
 31
0.0
  0
LINE
  5
3D7
100
AcDbEntity
  8
ZUWAKU
  6
CONTINUOUS
 62
       7
100
AcDbLine
 10
-818.42986687
 20
1406.70623373
 30
0.0
 11
-816.18376812
 21
1406.70623373
 31
0.0
  0
LINE
  5
3D8
100
AcDbEntity
  8
ZUWAKU
  6
CONTINUOUS
 62
       7
100
AcDbLine
 10
-812.58839296
 20
1406.70623373
 30
0.0
 11
-802.62655487
 21
1406.70623373
 31
0.0
  0
LINE
  5
3D9
100
AcDbEntity
  8
ZUWAKU
  6
CONTINUOUS
 62
       7
100
AcDbLine
 10
-805.88208861
 20
1394.84123373
 30
0.0
 11
-812.58839296
 21
1406.70623373
 31
0.0
  0
ARC
  5
3DA
100
AcDbEntity
  8
ZUWAKU
  6
CONTINUOUS
 62
       7
100
AcDbCircle
 10
-802.62655487
 20
1414.83623373
 30
0.0
 40
8.125
100
AcDbArc
 50
270.0
 51
450.0
  0
ELLIPSE
  5
3DB
100
AcDbEntity
  8
ZUWAKU
  6
CONTINUOUS
 62
       7
100
AcDbEllipse
 10
-792.27448898
 20
1398.75683284
 30
0.0
 11
-0.823186632749298
 21
-1.5091754933732773
 31
0.0
210
0.0
220
0.0
230
1.0
 40
0.75209874
 41
0.0
 42
6.2831853071796004
  0
LINE
  5
3DC
100
AcDbEntity
  8
ZUWAKU
  6
CONTINUOUS
 62
       7
100
AcDbLine
 10
-807.70833333
 20
1391.71123373
 30
0.0
 11
-796.45833333
 21
1391.71123373
 31
0.0
  0
ELLIPSE
  5
3DD
100
AcDbEntity
  8
ZUWAKU
  6
CONTINUOUS
 62
       7
100
AcDbEllipse
 10
-792.27448898
 20
1398.75683284
 30
0.0
 11
-2.6299892420104243
 21
-4.8216469436842999
 31
0.0
210
0.0
220
0.0
230
1.0
 40
0.75209874
 41
1.1633802511780333
 42
5.8601607076995377
  0
LINE
  5
3DE
100
AcDbEntity
  8
ZUWAKU
  6
CONTINUOUS
 62
       7
100
AcDbLine
 10
-805.88208861
 20
1394.84123373
 30
0.0
 11
-796.64607368
 21
1394.84123373
 31
0.0
  0
ARC
  5
3DF
100
AcDbEntity
  8
ZUWAKU
  6
CONTINUOUS
 62
       7
100
AcDbCircle
 10
-797.57712739
 20
1401.86090904
 30
0.0
 40
7.08115121
100
AcDbArc
 50
277.55531967
 51
282.61004677
  0
ARC
  5
3E0
100
AcDbEntity
  8
ZUWAKU
  6
CONTINUOUS
 62
       7
100
AcDbCircle
 10
-797.57712739
 20
1401.86090904
 30
0.0
 40
10.21115121
100
AcDbArc
 50
276.29029269
 51
293.79815684
  0
ARC
  5
3E1
100
AcDbEntity
  8
ZUWAKU
  6
CONTINUOUS
 62
       7
100
AcDbCircle
 10
-797.57712739
 20
1401.86090904
 30
0.0
 40
10.21115121
100
AcDbArc
 50
316.57125834
 51
318.01426788
  0
ARC
  5
3E2
100
AcDbEntity
  8
ZUWAKU
  6
CONTINUOUS
 62
       7
100
AcDbCircle
 10
-790.24298031
 20
1398.49777362
 30
0.0
 40
6.7886884
100
AcDbArc
 50
209.3318227
 51
211.50126528
  0
ARC
  5
3E3
100
AcDbEntity
  8
ZUWAKU
  6
CONTINUOUS
 62
       7
100
AcDbCircle
 10
-790.24298031
 20
1398.49777362
 30
0.0
 40
6.7886884
100
AcDbArc
 50
241.74457829
 51
270.0
  0
ELLIPSE
  5
3E4
100
AcDbEntity
  8
ZUWAKU
  6
CONTINUOUS
 62
       7
100
AcDbEllipse
 10
-776.29118927
 20
1402.95967942
 30
0.0
 11
-1.3704304616221634
 21
-2.8265128270961668
 31
0.0
210
0.0
220
0.0
230
1.0
 40
0.44219156
 41
0.0
 42
6.2831853071796004
  0
ARC
  5
3E5
100
AcDbEntity
  8
ZUWAKU
  6
CONTINUOUS
 62
       7
100
AcDbCircle
 10
-773.40889039
 20
1403.78675104
 30
0.0
 40
12.14106837
100
AcDbArc
 50
241.28311564
 51
264.0434522
  0
LINE
  5
3E6
100
AcDbEntity
  8
ZUWAKU
  6
CONTINUOUS
 62
       7
100
AcDbLine
 10
-790.24298031
 20
1391.71123373
 30
0.0
 11
-783.19951098
 21
1391.71123373
 31
0.0
  0
ARC
  5
3E7
100
AcDbEntity
  8
ZUWAKU
  6
CONTINUOUS
 62
       7
100
AcDbCircle
 10
-773.40889039
 20
1403.78675104
 30
0.0
 40
9.01106837
100
AcDbArc
 50
251.08708107
 51
263.08482824
  0
ARC
  5
3E8
100
AcDbEntity
  8
ZUWAKU
  6
CONTINUOUS
 62
       7
100
AcDbCircle
 10
-785.85632075
 20
1405.27214848
 30
0.0
 40
10.68872089
100
AcDbArc
 50
282.60950936
 51
291.93126974
  0
ELLIPSE
  5
3E9
100
AcDbEntity
  8
ZUWAKU
  6
CONTINUOUS
 62
       7
100
AcDbEllipse
 10
-776.29118927
 20
1402.95967942
 30
0.0
 11
-4.3783720818601068
 21
-9.0303924188383462
 31
0.0
210
0.0
220
0.0
230
1.0
 40
0.44219156
 41
1.1621663820477883
 42
5.8906096214262904
  0
LINE
  5
3EA
100
AcDbEntity
  8
ZUWAKU
  6
CONTINUOUS
 62
       7
100
AcDbLine
 10
-790.16148395
 20
1394.84123373
 30
0.0
 11
-783.52291729
 21
1394.84123373
 31
0.0
  0
ARC
  5
3EB
100
AcDbEntity
  8
ZUWAKU
  6
CONTINUOUS
 62
       7
100
AcDbCircle
 10
-785.85632075
 20
1405.27214848
 30
0.0
 40
13.81872089
100
AcDbArc
 50
313.58286141
 51
326.24939265
  0
ARC
  5
3EC
100
AcDbEntity
  8
ZUWAKU
  6
CONTINUOUS
 62
       7
100
AcDbCircle
 10
-785.85632075
 20
1405.27214848
 30
0.0
 40
13.81872089
100
AcDbArc
 50
281.08479974
 51
298.5950739
  0
LINE
  5
3ED
100
AcDbEntity
  8
ZUWAKU
  6
CONTINUOUS
 62
       7
100
AcDbLine
 10
-774.66882009
 20
1391.71123373
 30
0.0
 11
-769.58333333
 21
1391.71123373
 31
0.0
  0
LINE
  5
3EE
100
AcDbEntity
  8
ZUWAKU
  6
CONTINUOUS
 62
       7
100
AcDbLine
 10
-770.31131023
 20
1395.40974528
 30
0.0
 11
-761.8065086
 21
1403.91454691
 31
0.0
  0
LINE
  5
3EF
100
AcDbEntity
  8
ZUWAKU
  6
CONTINUOUS
 62
       7
100
AcDbLine
 10
-761.51349221
 20
1394.84123373
 30
0.0
 11
-760.13834806
 21
1403.09209864
 31
0.0
  0
LINE
  5
3F0
100
AcDbEntity
  8
ZUWAKU
  6
CONTINUOUS
 62
       7
100
AcDbLine
 10
-774.49382044
 20
1394.84123373
 30
0.0
 11
-771.44833333
 21
1394.84123373
 31
0.0
  0
ARC
  5
3F1
100
AcDbEntity
  8
ZUWAKU
  6
CONTINUOUS
 62
       7
100
AcDbCircle
 10
-761.09631579
 20
1403.25175993
 30
0.0
 40
0.97142185
100
AcDbArc
 50
350.53767779
 51
496.97750576
  0
ELLIPSE
  5
3F2
100
AcDbEntity
  8
ZUWAKU
  6
CONTINUOUS
 62
       7
100
AcDbEllipse
 10
-747.8348316
 20
1397.59104702
 30
0.0
 11
-0.911816299767338
 21
-1.5356906101342247
 31
0.0
210
0.0
220
0.0
230
1.0
 40
0.58819821
 41
0.0
 42
6.2831853071796004
  0
LINE
  5
3F3
100
AcDbEntity
  8
ZUWAKU
  6
CONTINUOUS
 62
       7
100
AcDbLine
 10
-758.21299254
 20
1394.84123373
 30
0.0
 11
-753.00359328
 21
1397.34338613
 31
0.0
  0
LINE
  5
3F4
100
AcDbEntity
  8
ZUWAKU
  6
CONTINUOUS
 62
       7
100
AcDbLine
 10
-757.70833333
 20
1391.71123373
 30
0.0
 11
-753.34683919
 21
1393.64386606
 31
0.0
  0
LINE
  5
3F5
100
AcDbEntity
  8
ZUWAKU
  6
CONTINUOUS
 62
       7
100
AcDbLine
 10
-761.51349221
 20
1394.84123373
 30
0.0
 11
-758.21299254
 21
1394.84123373
 31
0.0
  0
LINE
  5
3F6
100
AcDbEntity
  8
ZUWAKU
  6
CONTINUOUS
 62
       7
100
AcDbLine
 10
-747.01459211
 20
1393.12141746
 30
0.0
 11
-745.55578136
 21
1391.71123373
 31
0.0
  0
LINE
  5
3F7
100
AcDbEntity
  8
ZUWAKU
  6
CONTINUOUS
 62
       7
100
AcDbLine
 10
-742.08333333
 20
1394.84123373
 30
0.0
 11
-737.68621091
 21
1394.84123373
 31
0.0
  0
LINE
  5
3F8
100
AcDbEntity
  8
ZUWAKU
  6
CONTINUOUS
 62
       7
100
AcDbLine
 10
-727.6919252
 20
1403.58623373
 30
0.0
 11
-737.68621091
 21
1394.84123373
 31
0.0
  0
ELLIPSE
  5
3F9
100
AcDbEntity
  8
ZUWAKU
  6
CONTINUOUS
 62
       7
100
AcDbEllipse
 10
-748.48705629
 20
1397.22120666
 30
0.0
 11
-3.9718520938695292
 21
-4.9208278972669177
 31
0.0
210
0.0
220
0.0
230
1.0
 40
0.63020876
 41
2.7713952963881092
 42
5.1608192210644113
  0
ELLIPSE
  5
3FA
100
AcDbEntity
  8
ZUWAKU
  6
CONTINUOUS
 62
       7
100
AcDbEllipse
 10
-748.48705629
 20
1397.22120666
 30
0.0
 11
-3.9718520938695292
 21
-4.9208278972669177
 31
0.0
210
0.0
220
0.0
230
1.0
 40
0.63020876
 41
5.8878630804446965
 42
7.4876029260781465
  0
LINE
  5
3FB
100
AcDbEntity
  8
ZUWAKU
  6
CONTINUOUS
 62
       7
100
AcDbLine
 10
-742.90623125
 20
1402.98219215
 30
0.0
 11
-739.57571209
 21
1402.98219215
 31
0.0
  0
LINE
  5
3FC
100
AcDbEntity
  8
ZUWAKU
  6
CONTINUOUS
 62
       7
100
AcDbLine
 10
-743.66227963
 20
1400.9030591
 30
0.0
 11
-742.90623125
 21
1402.98219215
 31
0.0
  0
LINE
  5
3FD
100
AcDbEntity
  8
ZUWAKU
  6
CONTINUOUS
 62
       7
100
AcDbLine
 10
-742.08333333
 20
1396.08623373
 30
0.0
 11
-739.57571209
 21
1402.98219215
 31
0.0
  0
LINE
  5
3FE
100
AcDbEntity
  8
ZUWAKU
  6
CONTINUOUS
 62
       7
100
AcDbLine
 10
-733.57685282
 20
1391.8096962
 30
0.0
 11
-731.99300857
 21
1396.1652679
 31
0.0
  0
LINE
  5
3FF
100
AcDbEntity
  8
ZUWAKU
  6
CONTINUOUS
 62
       7
100
AcDbLine
 10
-727.27447442
 20
1399.21123373
 30
0.0
 11
-730.00174715
 21
1391.71123373
 31
0.0
  0
LINE
  5
400
100
AcDbEntity
  8
ZUWAKU
  6
CONTINUOUS
 62
       7
100
AcDbLine
 10
-725.83333333
 20
1391.71123373
 30
0.0
 11
-723.10606061
 21
1399.21123373
 31
0.0
  0
LINE
  5
401
100
AcDbEntity
  8
ZUWAKU
  6
CONTINUOUS
 62
       7
100
AcDbLine
 10
-718.54623644
 20
1401.59450019
 30
0.0
 11
-721.0019697
 21
1394.84123373
 31
0.0
  0
LINE
  5
402
100
AcDbEntity
  8
ZUWAKU
  6
CONTINUOUS
 62
       7
100
AcDbLine
 10
-719.58540176
 20
1403.58623373
 30
0.0
 11
-718.54623644
 21
1401.59450019
 31
0.0
  0
LINE
  5
403
100
AcDbEntity
  8
ZUWAKU
  6
CONTINUOUS
 62
       7
100
AcDbLine
 10
-726.44234649
 20
1401.72722057
 30
0.0
 11
-725.82750354
 21
1403.58623373
 31
0.0
  0
LINE
  5
404
100
AcDbEntity
  8
ZUWAKU
  6
CONTINUOUS
 62
       7
100
AcDbLine
 10
-726.44234649
 20
1401.72722057
 30
0.0
 11
-723.11286063
 21
1403.58623373
 31
0.0
  0
LINE
  5
405
100
AcDbEntity
  8
ZUWAKU
  6
CONTINUOUS
 62
       7
100
AcDbLine
 10
-719.58540176
 20
1403.58623373
 30
0.0
 11
-723.11286063
 21
1403.58623373
 31
0.0
  0
LINE
  5
406
100
AcDbEntity
  8
ZUWAKU
  6
CONTINUOUS
 62
       7
100
AcDbLine
 10
-725.82750354
 20
1403.58623373
 30
0.0
 11
-727.6919252
 21
1403.58623373
 31
0.0
  0
ELLIPSE
  5
407
100
AcDbEntity
  8
ZUWAKU
  6
CONTINUOUS
 62
       7
100
AcDbEllipse
 10
-691.69200895
 20
1398.75683284
 30
0.0
 11
-0.823186632749298
 21
-1.5091754933732773
 31
0.0
210
0.0
220
0.0
230
1.0
 40
0.75209874
 41
0.0
 42
6.2831853071796004
  0
ELLIPSE
  5
408
100
AcDbEntity
  8
ZUWAKU
  6
CONTINUOUS
 62
       7
100
AcDbEllipse
 10
-691.69200895
 20
1398.75683284
 30
0.0
 11
-2.6299892420104243
 21
-4.8216469436842999
 31
0.0
210
0.0
220
0.0
230
1.0
 40
0.75209874
 41
1.1633802511780333
 42
5.8601607076995377
  0
ARC
  5
409
100
AcDbEntity
  8
ZUWAKU
  6
CONTINUOUS
 62
       7
100
AcDbCircle
 10
-696.99464736
 20
1401.86090904
 30
0.0
 40
7.08115121
100
AcDbArc
 50
277.55531967
 51
282.61004677
  0
ARC
  5
40A
100
AcDbEntity
  8
ZUWAKU
  6
CONTINUOUS
 62
       7
100
AcDbCircle
 10
-696.99464736
 20
1401.86090904
 30
0.0
 40
10.21115121
100
AcDbArc
 50
276.29029269
 51
293.79815684
  0
ARC
  5
40B
100
AcDbEntity
  8
ZUWAKU
  6
CONTINUOUS
 62
       7
100
AcDbCircle
 10
-696.99464736
 20
1401.86090904
 30
0.0
 40
10.21115121
100
AcDbArc
 50
316.57125834
 51
318.01426788
  0
ARC
  5
40C
100
AcDbEntity
  8
ZUWAKU
  6
CONTINUOUS
 62
       7
100
AcDbCircle
 10
-689.66050028
 20
1398.49777362
 30
0.0
 40
6.7886884
100
AcDbArc
 50
209.3318227
 51
211.50126528
  0
ARC
  5
40D
100
AcDbEntity
  8
ZUWAKU
  6
CONTINUOUS
 62
       7
100
AcDbCircle
 10
-689.66050028
 20
1398.49777362
 30
0.0
 40
6.7886884
100
AcDbArc
 50
241.74457829
 51
270.0
  0
LINE
  5
40E
100
AcDbEntity
  8
ZUWAKU
  6
CONTINUOUS
 62
       7
100
AcDbLine
 10
-706.93535278
 20
1394.84123373
 30
0.0
 11
-696.06359366
 21
1394.84123373
 31
0.0
  0
LINE
  5
40F
100
AcDbEntity
  8
ZUWAKU
  6
CONTINUOUS
 62
       7
100
AcDbLine
 10
-689.66050028
 20
1391.71123373
 30
0.0
 11
-683.64175749
 21
1391.71123373
 31
0.0
  0
LINE
  5
410
100
AcDbEntity
  8
ZUWAKU
  6
CONTINUOUS
 62
       7
100
AcDbLine
 10
-689.57900393
 20
1394.84123373
 30
0.0
 11
-682.94043726
 21
1394.84123373
 31
0.0
  0
LINE
  5
411
100
AcDbEntity
  8
ZUWAKU
  6
CONTINUOUS
 62
       7
100
AcDbLine
 10
-765.20833333
 20
1391.71123373
 30
0.0
 11
-757.70833333
 21
1391.71123373
 31
0.0
  0
LINE
  5
412
100
AcDbEntity
  8
ZUWAKU
  6
CONTINUOUS
 62
       7
100
AcDbLine
 10
-733.57685282
 20
1391.8096962
 30
0.0
 11
-730.00174715
 21
1391.71123373
 31
0.0
  0
LINE
  5
413
100
AcDbEntity
  8
ZUWAKU
  6
CONTINUOUS
 62
       7
100
AcDbLine
 10
-721.0019697
 20
1394.84123373
 30
0.0
 11
-715.22244053
 21
1394.84123373
 31
0.0
  0
LINE
  5
414
100
AcDbEntity
  8
ZUWAKU
  6
CONTINUOUS
 62
       7
100
AcDbLine
 10
-704.55662816
 20
1399.34718088
 30
0.0
 11
-702.22179162
 21
1401.23450707
 31
0.0
  0
ARC
  5
415
100
AcDbEntity
  8
ZUWAKU
  6
CONTINUOUS
 62
       7
100
AcDbCircle
 10
-706.93535278
 20
1397.74123373
 30
0.0
 40
2.9
100
AcDbArc
 50
34.07537472
 51
270.0
  0
ARC
  5
416
100
AcDbEntity
  8
ZUWAKU
  6
CONTINUOUS
 62
       7
100
AcDbCircle
 10
-706.93535278
 20
1397.74123373
 30
0.0
 40
5.86690868
100
AcDbArc
 50
36.54256145
 51
190.98612084
  0
LINE
  5
417
100
AcDbEntity
  8
ZUWAKU
  6
CONTINUOUS
 62
       7
100
AcDbLine
 10
-714.43312787
 20
1391.71123373
 30
0.0
 11
-711.46137292
 21
1393.89799681
 31
0.0
  0
LINE
  5
418
100
AcDbEntity
  8
ZUWAKU
  6
CONTINUOUS
 62
       7
100
AcDbLine
 10
-712.73200855
 20
1396.67381576
 30
0.0
 11
-715.22244053
 21
1394.84123373
 31
0.0
  0
LINE
  5
419
100
AcDbEntity
  8
ZUWAKU
  6
CONTINUOUS
 62
       7
100
AcDbLine
 10
-711.46137292
 20
1393.89799681
 30
0.0
 11
-708.95833333
 21
1391.71123373
 31
0.0
  0
LINE
  5
41A
100
AcDbEntity
  8
ZUWAKU
  6
CONTINUOUS
 62
       7
100
AcDbLine
 10
-682.94043726
 20
1394.84123373
 30
0.0
 11
-683.64175749
 21
1391.71123373
 31
0.0
  0
LINE
  5
41B
100
AcDbEntity
  8
ZUWAKU
  6
CONTINUOUS
 62
       7
100
AcDbLine
 10
-849.15659992
 20
1422.25810873
 30
0.0
 11
-850.87534992
 21
1420.53935873
 31
0.0
  0
LINE
  5
41C
100
AcDbEntity
  8
ZUWAKU
  6
CONTINUOUS
 62
       7
100
AcDbLine
 10
-845.54004859
 20
1422.61553952
 30
0.0
 11
-847.97366018
 21
1420.18192794
 31
0.0
  0
LINE
  5
41D
100
AcDbEntity
  8
ZUWAKU
  6
CONTINUOUS
 62
       7
100
AcDbLine
 10
-841.44632118
 20
1422.89873373
 30
0.0
 11
-844.45022743
 21
1419.89482748
 31
0.0
  0
LINE
  5
41E
100
AcDbEntity
  8
ZUWAKU
  6
CONTINUOUS
 62
       7
100
AcDbLine
 10
-837.41000915
 20
1422.96123373
 30
0.0
 11
-840.53500915
 21
1419.83623373
 31
0.0
  0
LINE
  5
41F
100
AcDbEntity
  8
ZUWAKU
  6
CONTINUOUS
 62
       7
100
AcDbLine
 10
-833.23647823
 20
1422.96123373
 30
0.0
 11
-836.36147823
 21
1419.83623373
 31
0.0
  0
LINE
  5
420
100
AcDbEntity
  8
ZUWAKU
  6
CONTINUOUS
 62
       7
100
AcDbLine
 10
-828.64779656
 20
1422.96123373
 30
0.0
 11
-831.77279656
 21
1419.83623373
 31
0.0
  0
LINE
  5
421
100
AcDbEntity
  8
ZUWAKU
  6
CONTINUOUS
 62
       7
100
AcDbLine
 10
-824.78032744
 20
1422.96123373
 30
0.0
 11
-827.90532744
 21
1419.83623373
 31
0.0
  0
LINE
  5
422
100
AcDbEntity
  8
ZUWAKU
  6
CONTINUOUS
 62
       7
100
AcDbLine
 10
-823.69914397
 20
1392.65482813
 30
0.0
 11
-824.64273837
 21
1391.71123373
 31
0.0
  0
LINE
  5
423
100
AcDbEntity
  8
ZUWAKU
  6
CONTINUOUS
 62
       7
100
AcDbLine
 10
-822.00208769
 20
1397.18031153
 30
0.0
 11
-827.47116549
 21
1391.71123373
 31
0.0
  0
LINE
  5
424
100
AcDbEntity
  8
ZUWAKU
  6
CONTINUOUS
 62
       7
100
AcDbLine
 10
-820.30503142
 20
1401.70579493
 30
0.0
 11
-825.65357776
 21
1396.35724858
 31
0.0
  0
LINE
  5
425
100
AcDbEntity
  8
ZUWAKU
  6
CONTINUOUS
 62
       7
100
AcDbLine
 10
-827.16959262
 20
1394.84123373
 30
0.0
 11
-830.29959262
 21
1391.71123373
 31
0.0
  0
LINE
  5
426
100
AcDbEntity
  8
ZUWAKU
  6
CONTINUOUS
 62
       7
100
AcDbLine
 10
-818.60797514
 20
1406.23127833
 30
0.0
 11
-823.95652149
 21
1400.88273198
 31
0.0
  0
LINE
  5
427
100
AcDbEntity
  8
ZUWAKU
  6
CONTINUOUS
 62
       7
100
AcDbLine
 10
-829.99801974
 20
1394.84123373
 30
0.0
 11
-833.12801974
 21
1391.71123373
 31
0.0
  0
LINE
  5
428
100
AcDbEntity
  8
ZUWAKU
  6
CONTINUOUS
 62
       7
100
AcDbLine
 10
-832.82644687
 20
1394.84123373
 30
0.0
 11
-833.75946521
 21
1393.90821538
 31
0.0
  0
LINE
  5
429
100
AcDbEntity
  8
ZUWAKU
  6
CONTINUOUS
 62
       7
100
AcDbLine
 10
-813.19172824
 20
1422.96123373
 30
0.0
 11
-817.16829639
 21
1418.98466558
 31
0.0
  0
LINE
  5
42A
100
AcDbEntity
  8
ZUWAKU
  6
CONTINUOUS
 62
       7
100
AcDbLine
 10
-816.02015537
 20
1422.96123373
 30
0.0
 11
-819.14515537
 21
1419.83623373
 31
0.0
  0
LINE
  5
42B
100
AcDbEntity
  8
ZUWAKU
  6
CONTINUOUS
 62
       7
100
AcDbLine
 10
-818.84858249
 20
1422.96123373
 30
0.0
 11
-821.97358249
 21
1419.83623373
 31
0.0
  0
LINE
  5
42C
100
AcDbEntity
  8
ZUWAKU
  6
CONTINUOUS
 62
       7
100
AcDbLine
 10
-821.67700961
 20
1422.96123373
 30
0.0
 11
-823.32712756
 21
1421.31111578
 31
0.0
  0
LINE
  5
42D
100
AcDbEntity
  8
ZUWAKU
  6
CONTINUOUS
 62
       7
100
AcDbLine
 10
-792.99936237
 20
1403.55561985
 30
0.0
 11
-795.99126238
 21
1400.56371984
 31
0.0
  0
LINE
  5
42E
100
AcDbEntity
  8
ZUWAKU
  6
CONTINUOUS
 62
       7
100
AcDbLine
 10
-789.98732224
 20
1403.73923286
 30
0.0
 11
-796.72892767
 21
1396.99762743
 31
0.0
  0
LINE
  5
42F
100
AcDbEntity
  8
ZUWAKU
  6
CONTINUOUS
 62
       7
100
AcDbLine
 10
-787.80185511
 20
1400.26784574
 30
0.0
 11
-796.34537929
 21
1391.72432156
 31
0.0
  0
LINE
  5
430
100
AcDbEntity
  8
ZUWAKU
  6
CONTINUOUS
 62
       7
100
AcDbLine
 10
-807.53487399
 20
1422.96123373
 30
0.0
 11
-810.65987399
 21
1419.83623373
 31
0.0
  0
LINE
  5
431
100
AcDbEntity
  8
ZUWAKU
  6
CONTINUOUS
 62
       7
100
AcDbLine
 10
-815.21386259
 20
1415.28224513
 30
0.0
 11
-820.56240894
 21
1409.93369878
 31
0.0
  0
LINE
  5
432
100
AcDbEntity
  8
ZUWAKU
  6
CONTINUOUS
 62
       7
100
AcDbLine
 10
-804.70644687
 20
1422.96123373
 30
0.0
 11
-807.83144687
 21
1419.83623373
 31
0.0
  0
LINE
  5
433
100
AcDbEntity
  8
ZUWAKU
  6
CONTINUOUS
 62
       7
100
AcDbLine
 10
-816.91091887
 20
1410.75676173
 30
0.0
 11
-822.25946521
 21
1405.40821538
 31
0.0
  0
LINE
  5
434
100
AcDbEntity
  8
ZUWAKU
  6
CONTINUOUS
 62
       7
100
AcDbLine
 10
-801.90970456
 20
1422.92954891
 30
0.0
 11
-805.00301974
 21
1419.83623373
 31
0.0
  0
LINE
  5
435
100
AcDbEntity
  8
ZUWAKU
  6
CONTINUOUS
 62
       7
100
AcDbLine
 10
-815.00301974
 20
1409.83623373
 30
0.0
 11
-818.13301974
 21
1406.70623373
 31
0.0
  0
LINE
  5
436
100
AcDbEntity
  8
ZUWAKU
  6
CONTINUOUS
 62
       7
100
AcDbLine
 10
-799.62452876
 20
1422.38629759
 30
0.0
 11
-802.19339104
 21
1419.8174353
 31
0.0
  0
LINE
  5
437
100
AcDbEntity
  8
ZUWAKU
  6
CONTINUOUS
 62
       7
100
AcDbLine
 10
-812.17459262
 20
1409.83623373
 30
0.0
 11
-815.86628807
 21
1406.14453827
 31
0.0
  0
LINE
  5
438
100
AcDbEntity
  8
ZUWAKU
  6
CONTINUOUS
 62
       7
100
AcDbLine
 10
-797.80581907
 20
1421.37658015
 30
0.0
 11
-800.0569674
 21
1419.12543182
 31
0.0
  0
LINE
  5
439
100
AcDbEntity
  8
ZUWAKU
  6
CONTINUOUS
 62
       7
100
AcDbLine
 10
-796.35371642
 20
1420.00025568
 30
0.0
 11
-798.58035174
 21
1417.77362036
 31
0.0
  0
LINE
  5
43A
100
AcDbEntity
  8
ZUWAKU
  6
CONTINUOUS
 62
       7
100
AcDbLine
 10
-795.26049471
 20
1418.26505026
 30
0.0
 11
-797.72117836
 21
1415.80436661
 31
0.0
  0
LINE
  5
43B
100
AcDbEntity
  8
ZUWAKU
  6
CONTINUOUS
 62
       7
100
AcDbLine
 10
-794.59998852
 20
1416.09712932
 30
0.0
 11
-798.21589421
 21
1412.48122364
 31
0.0
  0
LINE
  5
43C
100
AcDbEntity
  8
ZUWAKU
  6
CONTINUOUS
 62
       7
100
AcDbLine
 10
-810.36330112
 20
1422.96123373
 30
0.0
 11
-813.48830112
 21
1419.83623373
 31
0.0
  0
LINE
  5
43D
100
AcDbEntity
  8
ZUWAKU
  6
CONTINUOUS
 62
       7
100
AcDbLine
 10
-813.51680632
 20
1419.80772853
 30
0.0
 11
-818.86535266
 21
1414.45918218
 31
0.0
  0
LINE
  5
43E
100
AcDbEntity
  8
ZUWAKU
  6
CONTINUOUS
 62
       7
100
AcDbLine
 10
-806.51773837
 20
1409.83623373
 30
0.0
 11
-809.64773837
 21
1406.70623373
 31
0.0
  0
LINE
  5
43F
100
AcDbEntity
  8
ZUWAKU
  6
CONTINUOUS
 62
       7
100
AcDbLine
 10
-811.52648991
 20
1404.82748218
 30
0.0
 11
-813.82353515
 21
1402.53043695
 31
0.0
  0
LINE
  5
440
100
AcDbEntity
  8
ZUWAKU
  6
CONTINUOUS
 62
       7
100
AcDbLine
 10
-809.34616549
 20
1409.83623373
 30
0.0
 11
-812.47616549
 21
1406.70623373
 31
0.0
  0
LINE
  5
441
100
AcDbEntity
  8
ZUWAKU
  6
CONTINUOUS
 62
       7
100
AcDbLine
 10
-812.54786638
 20
1406.63453285
 30
0.0
 11
-814.84491161
 21
1404.33748761
 31
0.0
  0
LINE
  5
442
100
AcDbEntity
  8
ZUWAKU
  6
CONTINUOUS
 62
       7
100
AcDbLine
 10
-803.68931124
 20
1409.83623373
 30
0.0
 11
-806.81931124
 21
1406.70623373
 31
0.0
  0
LINE
  5
443
100
AcDbEntity
  8
ZUWAKU
  6
CONTINUOUS
 62
       7
100
AcDbLine
 10
-810.50511345
 20
1403.02043152
 30
0.0
 11
-812.80215869
 21
1400.72338628
 31
0.0
  0
LINE
  5
444
100
AcDbEntity
  8
ZUWAKU
  6
CONTINUOUS
 62
       7
100
AcDbLine
 10
-800.27154478
 20
1410.42557307
 30
0.0
 11
-803.99088412
 21
1406.70623373
 31
0.0
  0
LINE
  5
445
100
AcDbEntity
  8
ZUWAKU
  6
CONTINUOUS
 62
       7
100
AcDbLine
 10
-809.48373699
 20
1401.21338086
 30
0.0
 11
-811.78078223
 21
1398.91633562
 31
0.0
  0
LINE
  5
446
100
AcDbEntity
  8
ZUWAKU
  6
CONTINUOUS
 62
       7
100
AcDbLine
 10
-794.6678396
 20
1413.20085112
 30
0.0
 11
-800.99117226
 21
1406.87751846
 31
0.0
  0
LINE
  5
447
100
AcDbEntity
  8
ZUWAKU
  6
CONTINUOUS
 62
       7
100
AcDbLine
 10
-808.46236053
 20
1399.40633019
 30
0.0
 11
-810.75940577
 21
1397.10928496
 31
0.0
  0
LINE
  5
448
100
AcDbEntity
  8
ZUWAKU
  6
CONTINUOUS
 62
       7
100
AcDbLine
 10
-807.44098407
 20
1397.59927953
 30
0.0
 11
-809.7380293
 21
1395.30223429
 31
0.0
  0
LINE
  5
449
100
AcDbEntity
  8
ZUWAKU
  6
CONTINUOUS
 62
       7
100
AcDbLine
 10
-806.41960761
 20
1395.79222887
 30
0.0
 11
-808.71665284
 21
1393.49518363
 31
0.0
  0
LINE
  5
44A
100
AcDbEntity
  8
ZUWAKU
  6
CONTINUOUS
 62
       7
100
AcDbLine
 10
-804.54217562
 20
1394.84123373
 30
0.0
 11
-807.67217562
 21
1391.71123373
 31
0.0
  0
LINE
  5
44B
100
AcDbEntity
  8
ZUWAKU
  6
CONTINUOUS
 62
       7
100
AcDbLine
 10
-801.71374849
 20
1394.84123373
 30
0.0
 11
-804.84374849
 21
1391.71123373
 31
0.0
  0
LINE
  5
44C
100
AcDbEntity
  8
ZUWAKU
  6
CONTINUOUS
 62
       7
100
AcDbLine
 10
-798.88532137
 20
1394.84123373
 30
0.0
 11
-802.01532137
 21
1391.71123373
 31
0.0
  0
LINE
  5
44D
100
AcDbEntity
  8
ZUWAKU
  6
CONTINUOUS
 62
       7
100
AcDbLine
 10
-788.4517687
 20
1402.44635928
 30
0.0
 11
-791.04385276
 21
1399.85427522
 31
0.0
  0
LINE
  5
44E
100
AcDbEntity
  8
ZUWAKU
  6
CONTINUOUS
 62
       7
100
AcDbLine
 10
-793.39802231
 20
1397.50010567
 30
0.0
 11
-799.18689424
 21
1391.71123373
 31
0.0
  0
LINE
  5
44F
100
AcDbEntity
  8
ZUWAKU
  6
CONTINUOUS
 62
       7
100
AcDbLine
 10
-773.0542555
 20
1412.18701822
 30
0.0
 11
-780.22594615
 21
1405.01532757
 31
0.0
  0
LINE
  5
450
100
AcDbEntity
  8
ZUWAKU
  6
CONTINUOUS
 62
       7
100
AcDbLine
 10
-788.91947255
 20
1396.32180117
 30
0.0
 11
-792.96331344
 21
1392.27796029
 31
0.0
  0
LINE
  5
451
100
AcDbEntity
  8
ZUWAKU
  6
CONTINUOUS
 62
       7
100
AcDbLine
 10
-771.11109822
 20
1411.30174838
 30
0.0
 11
-781.83961956
 21
1400.57322704
 31
0.0
  0
LINE
  5
452
100
AcDbEntity
  8
ZUWAKU
  6
CONTINUOUS
 62
       7
100
AcDbLine
 10
-787.57161287
 20
1394.84123373
 30
0.0
 11
-790.68908791
 21
1391.72375869
 31
0.0
  0
LINE
  5
453
100
AcDbEntity
  8
ZUWAKU
  6
CONTINUOUS
 62
       7
100
AcDbLine
 10
-784.74318575
 20
1394.84123373
 30
0.0
 11
-787.87318575
 21
1391.71123373
 31
0.0
  0
LINE
  5
454
100
AcDbEntity
  8
ZUWAKU
  6
CONTINUOUS
 62
       7
100
AcDbLine
 10
-770.40685516
 20
1409.17756432
 30
0.0
 11
-774.4795121
 21
1405.10490738
 31
0.0
  0
LINE
  5
455
100
AcDbEntity
  8
ZUWAKU
  6
CONTINUOUS
 62
       7
100
AcDbLine
 10
-778.14172182
 20
1401.44269765
 30
0.0
 11
-782.21437876
 21
1397.37004071
 31
0.0
  0
LINE
  5
456
100
AcDbEntity
  8
ZUWAKU
  6
CONTINUOUS
 62
       7
100
AcDbLine
 10
-770.56953041
 20
1406.18646194
 30
0.0
 11
-785.04475862
 21
1391.71123373
 31
0.0
  0
LINE
  5
457
100
AcDbEntity
  8
ZUWAKU
  6
CONTINUOUS
 62
       7
100
AcDbLine
 10
-771.79795962
 20
1402.1296056
 30
0.0
 11
-781.89383693
 21
1392.0337283
 31
0.0
  0
LINE
  5
458
100
AcDbEntity
  8
ZUWAKU
  6
CONTINUOUS
 62
       7
100
AcDbLine
 10
-761.22572167
 20
1404.21452394
 30
0.0
 11
-773.72901188
 21
1391.71123373
 31
0.0
  0
LINE
  5
459
100
AcDbEntity
  8
ZUWAKU
  6
CONTINUOUS
 62
       7
100
AcDbLine
 10
-760.26130847
 20
1410.83579139
 30
0.0
 11
-760.91364339
 21
1410.18345647
 31
0.0
  0
LINE
  5
45A
100
AcDbEntity
  8
ZUWAKU
  6
CONTINUOUS
 62
       7
100
AcDbLine
 10
-775.95440506
 20
1395.1426948
 30
0.0
 11
-778.38487463
 21
1392.71222523
 31
0.0
  0
LINE
  5
45B
100
AcDbEntity
  8
ZUWAKU
  6
CONTINUOUS
 62
       7
100
AcDbLine
 10
-757.83955053
 20
1410.4291222
 30
0.0
 11
-760.50697421
 21
1407.76169853
 31
0.0
  0
LINE
  5
45C
100
AcDbEntity
  8
ZUWAKU
  6
CONTINUOUS
 62
       7
100
AcDbLine
 10
-773.427439
 20
1394.84123373
 30
0.0
 11
-776.27889621
 21
1391.98977652
 31
0.0
  0
LINE
  5
45D
100
AcDbEntity
  8
ZUWAKU
  6
CONTINUOUS
 62
       7
100
AcDbLine
 10
-745.77490773
 20
1402.69477513
 30
0.0
 11
-756.00263136
 21
1392.4670515
 31
0.0
  0
LINE
  5
45E
100
AcDbEntity
  8
ZUWAKU
  6
CONTINUOUS
 62
       7
100
AcDbLine
 10
-759.28530338
 20
1394.84123373
 30
0.0
 11
-762.41530338
 21
1391.71123373
 31
0.0
  0
LINE
  5
45F
100
AcDbEntity
  8
ZUWAKU
  6
CONTINUOUS
 62
       7
100
AcDbLine
 10
-761.39344456
 20
1395.56151968
 30
0.0
 11
-765.2437305
 21
1391.71123373
 31
0.0
  0
LINE
  5
460
100
AcDbEntity
  8
ZUWAKU
  6
CONTINUOUS
 62
       7
100
AcDbLine
 10
-760.82775913
 20
1398.95563223
 30
0.0
 11
-764.63556847
 21
1395.14782289
 31
0.0
  0
LINE
  5
461
100
AcDbEntity
  8
ZUWAKU
  6
CONTINUOUS
 62
       7
100
AcDbLine
 10
-770.90058475
 20
1391.71123373
 30
0.0
 11
-760.26207371
 21
1402.34974478
 31
0.0
  0
LINE
  5
462
100
AcDbEntity
  8
ZUWAKU
  6
CONTINUOUS
 62
       7
100
AcDbLine
 10
-739.83063646
 20
1402.98219215
 30
0.0
 11
-751.08276959
 21
1391.73005902
 31
0.0
  0
LINE
  5
463
100
AcDbEntity
  8
ZUWAKU
  6
CONTINUOUS
 62
       7
100
AcDbLine
 10
-741.04628509
 20
1398.93811639
 30
0.0
 11
-746.93750325
 21
1393.04689823
 31
0.0
  0
LINE
  5
464
100
AcDbEntity
  8
ZUWAKU
  6
CONTINUOUS
 62
       7
100
AcDbLine
 10
-742.08333333
 20
1395.07264103
 30
0.0
 11
-745.44474063
 21
1391.71123373
 31
0.0
  0
LINE
  5
465
100
AcDbEntity
  8
ZUWAKU
  6
CONTINUOUS
 62
       7
100
AcDbLine
 10
-739.48631351
 20
1394.84123373
 30
0.0
 11
-742.61631351
 21
1391.71123373
 31
0.0
  0
LINE
  5
466
100
AcDbEntity
  8
ZUWAKU
  6
CONTINUOUS
 62
       7
100
AcDbLine
 10
-729.45961469
 20
1402.03950542
 30
0.0
 11
-739.78788638
 21
1391.71123373
 31
0.0
  0
LINE
  5
467
100
AcDbEntity
  8
ZUWAKU
  6
CONTINUOUS
 62
       7
100
AcDbLine
 10
-750.03811478
 20
1401.2599952
 30
0.0
 11
-751.64565583
 21
1399.65245416
 31
0.0
  0
LINE
  5
468
100
AcDbEntity
  8
ZUWAKU
  6
CONTINUOUS
 62
       7
100
AcDbLine
 10
-754.83379908
 20
1396.46431091
 30
0.0
 11
-759.58687626
 21
1391.71123373
 31
0.0
  0
LINE
  5
469
100
AcDbEntity
  8
ZUWAKU
  6
CONTINUOUS
 62
       7
100
AcDbLine
 10
-749.08332171
 20
1396.55793402
 30
0.0
 11
-752.89237757
 21
1392.74887817
 31
0.0
  0
LINE
  5
46A
100
AcDbEntity
  8
ZUWAKU
  6
CONTINUOUS
 62
       7
100
AcDbLine
 10
-742.65906359
 20
1402.98219215
 30
0.0
 11
-743.04746991
 21
1402.59378583
 31
0.0
  0
LINE
  5
46B
100
AcDbEntity
  8
ZUWAKU
  6
CONTINUOUS
 62
       7
100
AcDbLine
 10
-744.02527889
 20
1401.61597684
 30
0.0
 11
-746.71434618
 21
1398.92690956
 31
0.0
  0
POINT
  5
46C
100
AcDbEntity
  8
ZUWAKU
  6
CONTINUOUS
 62
       7
100
AcDbPoint
 10
627.91666667
 20
1383.43054805
 30
0.0
  0
POINT
  5
46D
100
AcDbEntity
  8
ZUWAKU
  6
CONTINUOUS
 62
       7
100
AcDbPoint
 10
-149.23594961
 20
1383.43054805
 30
0.0
  0
POINT
  5
46E
100
AcDbEntity
  8
ZUWAKU
  6
CONTINUOUS
 62
       7
100
AcDbPoint
 10
621.66666667
 20
-1351.10126627
 30
0.0
  0
POINT
  5
46F
100
AcDbEntity
  8
ZUWAKU
  6
CONTINUOUS
 62
       7
100
AcDbPoint
 10
-53.02083333
 20
-1351.10126627
 30
0.0
  0
LINE
  5
470
100
AcDbEntity
  8
ZUWAKU
  6
CONTINUOUS
 62
       7
100
AcDbLine
 10
-1050.20833333
 20
1534.79166667
 30
0.0
 11
-1050.20833333
 21
1484.79166667
 31
0.0
  0
LINE
  5
471
100
AcDbEntity
  8
ZUWAKU
  6
CONTINUOUS
 62
       7
100
AcDbLine
 10
-1050.20833333
 20
1484.79166667
 30
0.0
 11
-1100.20833333
 21
1484.79166667
 31
0.0
  0
LINE
  5
472
100
AcDbEntity
  8
ZUWAKU
  6
CONTINUOUS
 62
       7
100
AcDbLine
 10
1049.79166667
 20
1484.79166667
 30
0.0
 11
1099.79166667
 21
1484.79166667
 31
0.0
  0
LINE
  5
473
100
AcDbEntity
  8
ZUWAKU
  6
CONTINUOUS
 62
       7
100
AcDbLine
 10
1049.79166667
 20
1484.79166667
 30
0.0
 11
1049.79166667
 21
1534.79166667
 31
0.0
  0
LINE
  5
474
100
AcDbEntity
  8
ZUWAKU
  6
CONTINUOUS
 62
       7
100
AcDbLine
 10
1049.79166667
 20
-1535.20833333
 30
0.0
 11
1049.79166667
 21
-1485.20833333
 31
0.0
  0
LINE
  5
475
100
AcDbEntity
  8
ZUWAKU
  6
CONTINUOUS
 62
       7
100
AcDbLine
 10
1049.79166667
 20
-1485.20833333
 30
0.0
 11
1099.79166667
 21
-1485.20833333
 31
0.0
  0
LINE
  5
476
100
AcDbEntity
  8
ZUWAKU
  6
CONTINUOUS
 62
       7
100
AcDbLine
 10
-1100.43956427
 20
-1485.20833333
 30
0.0
 11
-1050.20833333
 21
-1485.20833333
 31
0.0
  0
LINE
  5
477
100
AcDbEntity
  8
ZUWAKU
  6
CONTINUOUS
 62
       7
100
AcDbLine
 10
-1050.20833333
 20
-1485.55343984
 30
0.0
 11
-1050.20833333
 21
-1535.20779865
 31
0.0
  0
LINE
  5
478
100
AcDbEntity
  8
ZUWAKU
  6
CONTINUOUS
 62
       7
100
AcDbLine
 10
-705.45372711
 20
1403.417976
 30
0.0
 11
-717.16046938
 21
1391.71123373
 31
0.0
  0
LINE
  5
479
100
AcDbEntity
  8
ZUWAKU
  6
CONTINUOUS
 62
       7
100
AcDbLine
 10
-682.95705086
 20
1394.76708705
 30
0.0
 11
-686.01290418
 21
1391.71123373
 31
0.0
  0
LINE
  5
47A
100
AcDbEntity
  8
ZUWAKU
  6
CONTINUOUS
 62
       7
100
AcDbLine
 10
-685.74619814
 20
1394.84123373
 30
0.0
 11
-688.87619814
 21
1391.71123373
 31
0.0
  0
LINE
  5
47B
100
AcDbEntity
  8
ZUWAKU
  6
CONTINUOUS
 62
       7
100
AcDbLine
 10
-688.61726342
 20
1403.28387695
 30
0.0
 11
-691.52449888
 21
1400.37664149
 31
0.0
  0
LINE
  5
47C
100
AcDbEntity
  8
ZUWAKU
  6
CONTINUOUS
 62
       7
100
AcDbLine
 10
-687.45971929
 20
1401.57812711
 30
0.0
 11
-690.34301523
 21
1398.69483118
 31
0.0
  0
LINE
  5
47D
100
AcDbEntity
  8
ZUWAKU
  6
CONTINUOUS
 62
       7
100
AcDbLine
 10
-691.90640304
 20
1397.13144337
 30
0.0
 11
-697.32661268
 21
1391.71123373
 31
0.0
  0
LINE
  5
47E
100
AcDbEntity
  8
ZUWAKU
  6
CONTINUOUS
 62
       7
100
AcDbLine
 10
-690.72742947
 20
1403.96727118
 30
0.0
 11
-696.07073848
 21
1398.62396218
 31
0.0
  0
LINE
  5
47F
100
AcDbEntity
  8
ZUWAKU
  6
CONTINUOUS
 62
       7
100
AcDbLine
 10
-699.85346693
 20
1394.84123373
 30
0.0
 11
-702.98346693
 21
1391.71123373
 31
0.0
  0
LINE
  5
480
100
AcDbEntity
  8
ZUWAKU
  6
CONTINUOUS
 62
       7
100
AcDbLine
 10
-693.0273311
 20
1398.87380927
 30
0.0
 11
-695.93456656
 21
1395.96657381
 31
0.0
  0
LINE
  5
481
100
AcDbEntity
  8
ZUWAKU
  6
CONTINUOUS
 62
       7
100
AcDbLine
 10
-697.05990664
 20
1394.84123373
 30
0.0
 11
-700.18990664
 21
1391.71123373
 31
0.0
  0
LINE
  5
482
100
AcDbEntity
  8
ZUWAKU
  6
CONTINUOUS
 62
       7
100
AcDbLine
 10
-687.3043686
 20
1398.93991751
 30
0.0
 11
-694.20650706
 21
1392.03777905
 31
0.0
  0
LINE
  5
483
100
AcDbEntity
  8
ZUWAKU
  6
CONTINUOUS
 62
       7
100
AcDbLine
 10
-688.53975843
 20
1394.84123373
 30
0.0
 11
-691.43569657
 21
1391.94529559
 31
0.0
  0
LINE
  5
484
100
AcDbEntity
  8
ZUWAKU
  6
CONTINUOUS
 62
       7
100
AcDbLine
 10
-702.71676089
 20
1394.84123373
 30
0.0
 11
-705.84676089
 21
1391.71123373
 31
0.0
  0
LINE
  5
485
100
AcDbEntity
  8
ZUWAKU
  6
CONTINUOUS
 62
       7
100
AcDbLine
 10
-705.51032118
 20
1394.84123373
 30
0.0
 11
-708.64032118
 21
1391.71123373
 31
0.0
  0
LINE
  5
486
100
AcDbEntity
  8
ZUWAKU
  6
CONTINUOUS
 62
       7
100
AcDbLine
 10
-703.53241669
 20
1402.47599247
 30
0.0
 11
-705.66178941
 21
1400.34661975
 31
0.0
  0
LINE
  5
487
100
AcDbEntity
  8
ZUWAKU
  6
CONTINUOUS
 62
       7
100
AcDbLine
 10
-708.12042518
 20
1395.09442368
 30
0.0
 11
-710.31680011
 21
1392.89804875
 31
0.0
  0
LINE
  5
488
100
AcDbEntity
  8
ZUWAKU
  6
CONTINUOUS
 62
       7
100
AcDbLine
 10
-709.5407388
 20
1396.46767035
 30
0.0
 11
-713.91845076
 21
1392.08995839
 31
0.0
  0
LINE
  5
489
100
AcDbEntity
  8
ZUWAKU
  6
CONTINUOUS
 62
       7
100
AcDbLine
 10
-708.19364392
 20
1403.47161948
 30
0.0
 11
-712.66573853
 21
1398.99952487
 31
0.0
  0
LINE
  5
48A
100
AcDbEntity
  8
ZUWAKU
  6
CONTINUOUS
 62
       7
100
AcDbLine
 10
-716.82402968
 20
1394.84123373
 30
0.0
 11
-719.95402968
 21
1391.71123373
 31
0.0
  0
LINE
  5
48B
100
AcDbEntity
  8
ZUWAKU
  6
CONTINUOUS
 62
       7
100
AcDbLine
 10
-719.68732363
 20
1394.84123373
 30
0.0
 11
-722.81732363
 21
1391.71123373
 31
0.0
  0
LINE
  5
48C
100
AcDbEntity
  8
ZUWAKU
  6
CONTINUOUS
 62
       7
100
AcDbLine
 10
-720.15687585
 20
1397.1652418
 30
0.0
 11
-725.61088393
 21
1391.71123373
 31
0.0
  0
LINE
  5
48D
100
AcDbEntity
  8
ZUWAKU
  6
CONTINUOUS
 62
       7
100
AcDbLine
 10
-718.56155357
 20
1401.62385804
 30
0.0
 11
-724.3242793
 21
1395.86113231
 31
0.0
  0
LINE
  5
48E
100
AcDbEntity
  8
ZUWAKU
  6
CONTINUOUS
 62
       7
100
AcDbLine
 10
-719.53130002
 20
1403.48253872
 30
0.0
 11
-723.80260501
 21
1399.21123373
 31
0.0
  0
LINE
  5
48F
100
AcDbEntity
  8
ZUWAKU
  6
CONTINUOUS
 62
       7
100
AcDbLine
 10
-729.2583998
 20
1393.75543893
 30
0.0
 11
-731.30260501
 21
1391.71123373
 31
0.0
  0
LINE
  5
490
100
AcDbEntity
  8
ZUWAKU
  6
CONTINUOUS
 62
       7
100
AcDbLine
 10
-722.25603213
 20
1403.58623373
 30
0.0
 11
-726.63103213
 21
1399.21123373
 31
0.0
  0
LINE
  5
491
100
AcDbEntity
  8
ZUWAKU
  6
CONTINUOUS
 62
       7
100
AcDbLine
 10
-727.64215573
 20
1398.20011013
 30
0.0
 11
-733.3164432
 21
1392.52582266
 31
0.0
  0
LINE
  5
492
100
AcDbEntity
  8
ZUWAKU
  6
CONTINUOUS
 62
       7
100
AcDbLine
 10
-726.19470052
 20
1402.47599247
 30
0.0
 11
-736.09234073
 21
1392.57835226
 31
0.0
  0
LINE
  5
493
100
AcDbEntity
  8
ZUWAKU
  6
CONTINUOUS
 62
       7
100
AcDbLine
 10
994.79166667
 20
-553.91376627
 30
0.0
 11
1049.79166667
 21
-553.91376627
 31
0.0
  0
LINE
  5
494
100
AcDbEntity
  8
ZUWAKU
  6
CONTINUOUS
 62
       7
100
AcDbLine
 10
994.79166667
 20
-503.91376627
 30
0.0
 11
1049.79166667
 21
-503.91376627
 31
0.0
  0
LINE
  5
495
100
AcDbEntity
  8
ZUWAKU
  6
CONTINUOUS
 62
       7
100
AcDbLine
 10
1049.79166667
 20
-503.91376627
 30
0.0
 11
1049.79166667
 21
-553.91376627
 31
0.0
  0
LINE
  5
496
100
AcDbEntity
  8
ZUWAKU
  6
CONTINUOUS
 62
       7
100
AcDbLine
 10
994.79166667
 20
-503.91376627
 30
0.0
 11
994.79166667
 21
-553.91376627
 31
0.0
  0
LINE
  5
497
100
AcDbEntity
  8
ZUWAKU
  6
CONTINUOUS
 62
       7
100
AcDbLine
 10
1049.79166667
 20
-553.73966808
 30
0.0
 11
1049.61756847
 21
-553.91376627
 31
0.0
  0
LINE
  5
498
100
AcDbEntity
  8
ZUWAKU
  6
CONTINUOUS
 62
       7
100
AcDbLine
 10
1020.44554844
 20
-503.91376627
 30
0.0
 11
994.79166667
 21
-529.56764804
 31
0.0
  0
LINE
  5
499
100
AcDbEntity
  8
ZUWAKU
  6
CONTINUOUS
 62
       7
100
AcDbLine
 10
1017.61712131
 20
-503.91376627
 30
0.0
 11
994.79166667
 21
-526.73922092
 31
0.0
  0
LINE
  5
49A
100
AcDbEntity
  8
ZUWAKU
  6
CONTINUOUS
 62
       7
100
AcDbLine
 10
1014.78869419
 20
-503.91376627
 30
0.0
 11
994.79166667
 21
-523.91079379
 31
0.0
  0
LINE
  5
49B
100
AcDbEntity
  8
ZUWAKU
  6
CONTINUOUS
 62
       7
100
AcDbLine
 10
1011.96026706
 20
-503.91376627
 30
0.0
 11
994.79166667
 21
-521.08236667
 31
0.0
  0
LINE
  5
49C
100
AcDbEntity
  8
ZUWAKU
  6
CONTINUOUS
 62
       7
100
AcDbLine
 10
1009.13183994
 20
-503.91376627
 30
0.0
 11
994.79166667
 21
-518.25393954
 31
0.0
  0
LINE
  5
49D
100
AcDbEntity
  8
ZUWAKU
  6
CONTINUOUS
 62
       7
100
AcDbLine
 10
1006.30341281
 20
-503.91376627
 30
0.0
 11
994.79166667
 21
-515.42551242
 31
0.0
  0
LINE
  5
49E
100
AcDbEntity
  8
ZUWAKU
  6
CONTINUOUS
 62
       7
100
AcDbLine
 10
1003.47498569
 20
-503.91376627
 30
0.0
 11
994.79166667
 21
-512.59708529
 31
0.0
  0
LINE
  5
49F
100
AcDbEntity
  8
ZUWAKU
  6
CONTINUOUS
 62
       7
100
AcDbLine
 10
1000.64655857
 20
-503.91376627
 30
0.0
 11
994.79166667
 21
-509.76865817
 31
0.0
  0
LINE
  5
4A0
100
AcDbEntity
  8
ZUWAKU
  6
CONTINUOUS
 62
       7
100
AcDbLine
 10
997.81813144
 20
-503.91376627
 30
0.0
 11
994.79166667
 21
-506.94023104
 31
0.0
  0
LINE
  5
4A1
100
AcDbEntity
  8
ZUWAKU
  6
CONTINUOUS
 62
       7
100
AcDbLine
 10
1023.27397556
 20
-503.91376627
 30
0.0
 11
994.79166667
 21
-532.39607517
 31
0.0
  0
LINE
  5
4A2
100
AcDbEntity
  8
ZUWAKU
  6
CONTINUOUS
 62
       7
100
AcDbLine
 10
1026.10240269
 20
-503.91376627
 30
0.0
 11
994.79166667
 21
-535.22450229
 31
0.0
  0
LINE
  5
4A3
100
AcDbEntity
  8
ZUWAKU
  6
CONTINUOUS
 62
       7
100
AcDbLine
 10
1028.93082981
 20
-503.91376627
 30
0.0
 11
994.79166667
 21
-538.05292942
 31
0.0
  0
LINE
  5
4A4
100
AcDbEntity
  8
ZUWAKU
  6
CONTINUOUS
 62
       7
100
AcDbLine
 10
1031.75925694
 20
-503.91376627
 30
0.0
 11
994.79166667
 21
-540.88135654
 31
0.0
  0
LINE
  5
4A5
100
AcDbEntity
  8
ZUWAKU
  6
CONTINUOUS
 62
       7
100
AcDbLine
 10
1034.58768406
 20
-503.91376627
 30
0.0
 11
994.79166667
 21
-543.70978367
 31
0.0
  0
LINE
  5
4A6
100
AcDbEntity
  8
ZUWAKU
  6
CONTINUOUS
 62
       7
100
AcDbLine
 10
1037.41611119
 20
-503.91376627
 30
0.0
 11
994.79166667
 21
-546.53821079
 31
0.0
  0
LINE
  5
4A7
100
AcDbEntity
  8
ZUWAKU
  6
CONTINUOUS
 62
       7
100
AcDbLine
 10
1040.24453831
 20
-503.91376627
 30
0.0
 11
994.79166667
 21
-549.36663792
 31
0.0
  0
LINE
  5
4A8
100
AcDbEntity
  8
ZUWAKU
  6
CONTINUOUS
 62
       7
100
AcDbLine
 10
1043.07296544
 20
-503.91376627
 30
0.0
 11
994.79166667
 21
-552.19506504
 31
0.0
  0
LINE
  5
4A9
100
AcDbEntity
  8
ZUWAKU
  6
CONTINUOUS
 62
       7
100
AcDbLine
 10
1045.90139256
 20
-503.91376627
 30
0.0
 11
995.90139256
 21
-553.91376627
 31
0.0
  0
LINE
  5
4AA
100
AcDbEntity
  8
ZUWAKU
  6
CONTINUOUS
 62
       7
100
AcDbLine
 10
1048.72981969
 20
-503.91376627
 30
0.0
 11
998.72981969
 21
-553.91376627
 31
0.0
  0
LINE
  5
4AB
100
AcDbEntity
  8
ZUWAKU
  6
CONTINUOUS
 62
       7
100
AcDbLine
 10
1049.79166667
 20
-505.68034641
 30
0.0
 11
1001.55824681
 21
-553.91376627
 31
0.0
  0
LINE
  5
4AC
100
AcDbEntity
  8
ZUWAKU
  6
CONTINUOUS
 62
       7
100
AcDbLine
 10
1049.79166667
 20
-508.50877354
 30
0.0
 11
1004.38667394
 21
-553.91376627
 31
0.0
  0
LINE
  5
4AD
100
AcDbEntity
  8
ZUWAKU
  6
CONTINUOUS
 62
       7
100
AcDbLine
 10
1049.79166667
 20
-511.33720066
 30
0.0
 11
1007.21510106
 21
-553.91376627
 31
0.0
  0
LINE
  5
4AE
100
AcDbEntity
  8
ZUWAKU
  6
CONTINUOUS
 62
       7
100
AcDbLine
 10
1049.79166667
 20
-514.16562779
 30
0.0
 11
1010.04352818
 21
-553.91376627
 31
0.0
  0
LINE
  5
4AF
100
AcDbEntity
  8
ZUWAKU
  6
CONTINUOUS
 62
       7
100
AcDbLine
 10
1049.79166667
 20
-516.99405491
 30
0.0
 11
1012.87195531
 21
-553.91376627
 31
0.0
  0
LINE
  5
4B0
100
AcDbEntity
  8
ZUWAKU
  6
CONTINUOUS
 62
       7
100
AcDbLine
 10
1049.79166667
 20
-519.82248204
 30
0.0
 11
1015.70038243
 21
-553.91376627
 31
0.0
  0
LINE
  5
4B1
100
AcDbEntity
  8
ZUWAKU
  6
CONTINUOUS
 62
       7
100
AcDbLine
 10
1049.79166667
 20
-522.65090916
 30
0.0
 11
1018.52880956
 21
-553.91376627
 31
0.0
  0
LINE
  5
4B2
100
AcDbEntity
  8
ZUWAKU
  6
CONTINUOUS
 62
       7
100
AcDbLine
 10
1049.79166667
 20
-525.47933629
 30
0.0
 11
1021.35723668
 21
-553.91376627
 31
0.0
  0
LINE
  5
4B3
100
AcDbEntity
  8
ZUWAKU
  6
CONTINUOUS
 62
       7
100
AcDbLine
 10
1049.79166667
 20
-528.30776341
 30
0.0
 11
1024.18566381
 21
-553.91376627
 31
0.0
  0
LINE
  5
4B4
100
AcDbEntity
  8
ZUWAKU
  6
CONTINUOUS
 62
       7
100
AcDbLine
 10
1049.79166667
 20
-531.13619054
 30
0.0
 11
1027.01409093
 21
-553.91376627
 31
0.0
  0
LINE
  5
4B5
100
AcDbEntity
  8
ZUWAKU
  6
CONTINUOUS
 62
       7
100
AcDbLine
 10
1049.79166667
 20
-533.96461766
 30
0.0
 11
1029.84251806
 21
-553.91376627
 31
0.0
  0
LINE
  5
4B6
100
AcDbEntity
  8
ZUWAKU
  6
CONTINUOUS
 62
       7
100
AcDbLine
 10
1049.79166667
 20
-536.79304479
 30
0.0
 11
1032.67094518
 21
-553.91376627
 31
0.0
  0
LINE
  5
4B7
100
AcDbEntity
  8
ZUWAKU
  6
CONTINUOUS
 62
       7
100
AcDbLine
 10
1049.79166667
 20
-539.62147191
 30
0.0
 11
1035.49937231
 21
-553.91376627
 31
0.0
  0
LINE
  5
4B8
100
AcDbEntity
  8
ZUWAKU
  6
CONTINUOUS
 62
       7
100
AcDbLine
 10
1049.79166667
 20
-542.44989904
 30
0.0
 11
1038.32779943
 21
-553.91376627
 31
0.0
  0
LINE
  5
4B9
100
AcDbEntity
  8
ZUWAKU
  6
CONTINUOUS
 62
       7
100
AcDbLine
 10
1049.79166667
 20
-545.27832616
 30
0.0
 11
1041.15622656
 21
-553.91376627
 31
0.0
  0
LINE
  5
4BA
100
AcDbEntity
  8
ZUWAKU
  6
CONTINUOUS
 62
       7
100
AcDbLine
 10
1049.79166667
 20
-548.10675329
 30
0.0
 11
1043.98465368
 21
-553.91376627
 31
0.0
  0
LINE
  5
4BB
100
AcDbEntity
  8
ZUWAKU
  6
CONTINUOUS
 62
       7
100
AcDbLine
 10
1049.79166667
 20
-550.93518041
 30
0.0
 11
1046.81308081
 21
-553.91376627
 31
0.0
  0
LINE
  5
4BC
100
AcDbEntity
  8
ZUWAKU
  6
CONTINUOUS
 62
       7
100
AcDbLine
 10
1049.79166667
 20
-553.76360754
 30
0.0
 11
1049.64150793
 21
-553.91376627
 31
0.0
  0
LINE
  5
4BD
100
AcDbEntity
  8
ZUWAKU
  6
CONTINUOUS
 62
       7
100
AcDbLine
 10
-910.83333333
 20
-1273.91376627
 30
0.0
 11
-910.83333333
 21
-873.91376627
 31
0.0
  0
LINE
  5
4BE
100
AcDbEntity
  8
ZUWAKU
  6
CONTINUOUS
 62
       7
100
AcDbLine
 10
-841.45833333
 20
-1273.91376627
 30
0.0
 11
-841.45833333
 21
-873.91376627
 31
0.0
  0
LINE
  5
4BF
100
AcDbEntity
  8
ZUWAKU
  6
CONTINUOUS
 62
       7
100
AcDbLine
 10
-375.83333333
 20
-1273.91376627
 30
0.0
 11
-375.83333333
 21
-873.91376627
 31
0.0
  0
LINE
  5
4C0
100
AcDbEntity
  8
ZUWAKU
  6
CONTINUOUS
 62
       7
100
AcDbLine
 10
155.41666667
 20
-1273.91376627
 30
0.0
 11
155.41666667
 21
-873.91376627
 31
0.0
  0
LINE
  5
4C1
100
AcDbEntity
  8
ZUWAKU
  6
CONTINUOUS
 62
       7
100
AcDbLine
 10
266.66666667
 20
-1273.91376627
 30
0.0
 11
266.66666667
 21
-873.91376627
 31
0.0
  0
POINT
  5
4C2
100
AcDbEntity
  8
ZUWAKU
  6
CONTINUOUS
 62
       7
100
AcDbPoint
 10
211.04166667
 20
-1198.91376627
 30
0.0
  0
POINT
  5
4C3
100
AcDbEntity
  8
ZUWAKU
  6
CONTINUOUS
 62
       7
100
AcDbPoint
 10
-831.45833333
 20
-1198.91376627
 30
0.0
  0
POINT
  5
4C4
100
AcDbEntity
  8
ZUWAKU
  6
CONTINUOUS
 62
       7
100
AcDbPoint
 10
-365.83333333
 20
-1198.91376627
 30
0.0
  0
POINT
  5
4C5
100
AcDbEntity
  8
ZUWAKU
  6
CONTINUOUS
 62
       7
100
AcDbPoint
 10
276.66666667
 20
-1198.91376627
 30
0.0
  0
POINT
  5
4C6
100
AcDbEntity
  8
ZUWAKU
  6
CONTINUOUS
 62
       7
100
AcDbPoint
 10
211.04166667
 20
-1148.91376627
 30
0.0
  0
POINT
  5
4C7
100
AcDbEntity
  8
ZUWAKU
  6
CONTINUOUS
 62
       7
100
AcDbPoint
 10
-831.45833333
 20
-1148.91376627
 30
0.0
  0
POINT
  5
4C8
100
AcDbEntity
  8
ZUWAKU
  6
CONTINUOUS
 62
       7
100
AcDbPoint
 10
-365.83333333
 20
-1148.91376627
 30
0.0
  0
POINT
  5
4C9
100
AcDbEntity
  8
ZUWAKU
  6
CONTINUOUS
 62
       7
100
AcDbPoint
 10
276.66666667
 20
-1148.91376627
 30
0.0
  0
POINT
  5
4CA
100
AcDbEntity
  8
ZUWAKU
  6
CONTINUOUS
 62
       7
100
AcDbPoint
 10
211.04166667
 20
-1098.91376627
 30
0.0
  0
POINT
  5
4CB
100
AcDbEntity
  8
ZUWAKU
  6
CONTINUOUS
 62
       7
100
AcDbPoint
 10
-831.45833333
 20
-1098.91376627
 30
0.0
  0
POINT
  5
4CC
100
AcDbEntity
  8
ZUWAKU
  6
CONTINUOUS
 62
       7
100
AcDbPoint
 10
-365.83333333
 20
-1098.91376627
 30
0.0
  0
POINT
  5
4CD
100
AcDbEntity
  8
ZUWAKU
  6
CONTINUOUS
 62
       7
100
AcDbPoint
 10
276.66666667
 20
-1098.91376627
 30
0.0
  0
POINT
  5
4CE
100
AcDbEntity
  8
ZUWAKU
  6
CONTINUOUS
 62
       7
100
AcDbPoint
 10
211.04166667
 20
-1048.91376627
 30
0.0
  0
POINT
  5
4CF
100
AcDbEntity
  8
ZUWAKU
  6
CONTINUOUS
 62
       7
100
AcDbPoint
 10
-831.45833333
 20
-1048.91376627
 30
0.0
  0
POINT
  5
4D0
100
AcDbEntity
  8
ZUWAKU
  6
CONTINUOUS
 62
       7
100
AcDbPoint
 10
-365.83333333
 20
-1048.91376627
 30
0.0
  0
POINT
  5
4D1
100
AcDbEntity
  8
ZUWAKU
  6
CONTINUOUS
 62
       7
100
AcDbPoint
 10
276.66666667
 20
-1048.91376627
 30
0.0
  0
POINT
  5
4D2
100
AcDbEntity
  8
ZUWAKU
  6
CONTINUOUS
 62
       7
100
AcDbPoint
 10
211.04166667
 20
-998.91376627
 30
0.0
  0
POINT
  5
4D3
100
AcDbEntity
  8
ZUWAKU
  6
CONTINUOUS
 62
       7
100
AcDbPoint
 10
-831.45833333
 20
-998.91376627
 30
0.0
  0
POINT
  5
4D4
100
AcDbEntity
  8
ZUWAKU
  6
CONTINUOUS
 62
       7
100
AcDbPoint
 10
-365.83333333
 20
-998.91376627
 30
0.0
  0
POINT
  5
4D5
100
AcDbEntity
  8
ZUWAKU
  6
CONTINUOUS
 62
       7
100
AcDbPoint
 10
276.66666667
 20
-998.91376627
 30
0.0
  0
POINT
  5
4D6
100
AcDbEntity
  8
ZUWAKU
  6
CONTINUOUS
 62
       7
100
AcDbPoint
 10
211.04166667
 20
-948.91376627
 30
0.0
  0
POINT
  5
4D7
100
AcDbEntity
  8
ZUWAKU
  6
CONTINUOUS
 62
       7
100
AcDbPoint
 10
-831.45833333
 20
-948.91376627
 30
0.0
  0
POINT
  5
4D8
100
AcDbEntity
  8
ZUWAKU
  6
CONTINUOUS
 62
       7
100
AcDbPoint
 10
-365.83333333
 20
-948.91376627
 30
0.0
  0
POINT
  5
4D9
100
AcDbEntity
  8
ZUWAKU
  6
CONTINUOUS
 62
       7
100
AcDbPoint
 10
276.66666667
 20
-948.91376627
 30
0.0
  0
POINT
  5
4DA
100
AcDbEntity
  8
ZUWAKU
  6
CONTINUOUS
 62
       7
100
AcDbPoint
 10
211.04166667
 20
-898.91376627
 30
0.0
  0
POINT
  5
4DB
100
AcDbEntity
  8
ZUWAKU
  6
CONTINUOUS
 62
       7
100
AcDbPoint
 10
-831.45833333
 20
-898.91376627
 30
0.0
  0
POINT
  5
4DC
100
AcDbEntity
  8
ZUWAKU
  6
CONTINUOUS
 62
       7
100
AcDbPoint
 10
-365.83333333
 20
-898.91376627
 30
0.0
  0
POINT
  5
4DD
100
AcDbEntity
  8
ZUWAKU
  6
CONTINUOUS
 62
       7
100
AcDbPoint
 10
276.66666667
 20
-898.91376627
 30
0.0
  0
LINE
  5
4DE
100
AcDbEntity
  8
ZUWAKU
  6
CONTINUOUS
 62
       7
100
AcDbLine
 10
-910.83333333
 20
-1273.91376627
 30
0.0
 11
933.54166667
 21
-1273.91376627
 31
0.0
  0
LINE
  5
4DF
100
AcDbEntity
  8
ZUWAKU
  6
CONTINUOUS
 62
       7
100
AcDbLine
 10
933.54166667
 20
-1273.91376627
 30
0.0
 11
933.54166667
 21
-873.91376627
 31
0.0
  0
LINE
  5
4E0
100
AcDbEntity
  8
ZUWAKU
  6
CONTINUOUS
 62
       7
100
AcDbLine
 10
-910.83333333
 20
-1223.91376627
 30
0.0
 11
933.54166667
 21
-1223.91376627
 31
0.0
  0
LINE
  5
4E1
100
AcDbEntity
  8
ZUWAKU
  6
CONTINUOUS
 62
       7
100
AcDbLine
 10
-910.83333333
 20
-1173.91376627
 30
0.0
 11
933.54166667
 21
-1173.91376627
 31
0.0
  0
LINE
  5
4E2
100
AcDbEntity
  8
ZUWAKU
  6
CONTINUOUS
 62
       7
100
AcDbLine
 10
-910.83333333
 20
-1123.91376627
 30
0.0
 11
933.54166667
 21
-1123.91376627
 31
0.0
  0
LINE
  5
4E3
100
AcDbEntity
  8
ZUWAKU
  6
CONTINUOUS
 62
       7
100
AcDbLine
 10
-910.83333333
 20
-1073.91376627
 30
0.0
 11
933.54166667
 21
-1073.91376627
 31
0.0
  0
LINE
  5
4E4
100
AcDbEntity
  8
ZUWAKU
  6
CONTINUOUS
 62
       7
100
AcDbLine
 10
-910.83333333
 20
-1023.91376627
 30
0.0
 11
933.54166667
 21
-1023.91376627
 31
0.0
  0
LINE
  5
4E5
100
AcDbEntity
  8
ZUWAKU
  6
CONTINUOUS
 62
       7
100
AcDbLine
 10
-910.83333333
 20
-973.91376627
 30
0.0
 11
933.54166667
 21
-973.91376627
 31
0.0
  0
LINE
  5
4E6
100
AcDbEntity
  8
ZUWAKU
  6
CONTINUOUS
 62
       7
100
AcDbLine
 10
-910.83333333
 20
-923.91376627
 30
0.0
 11
933.54166667
 21
-923.91376627
 31
0.0
  0
LINE
  5
4E7
100
AcDbEntity
  8
ZUWAKU
  6
CONTINUOUS
 62
       7
100
AcDbLine
 10
-910.83333333
 20
-873.91376627
 30
0.0
 11
933.54166667
 21
-873.91376627
 31
0.0
  0
TEXT
  5
4E8
100
AcDbEntity
  8
ZUWAKU
 62
       7
100
AcDbText
 10
-840.72020989
 20
-1385.78876627
 30
0.0
 40
34.0
  1
株式会社
 41
0.6667
 72
       5
 11
-731.92020989
 21
-1385.78876627
 31
0.0
100
AcDbText
  0
TEXT
  5
4E9
100
AcDbEntity
  8
ZUWAKU
 62
       7
100
AcDbText
 10
741.61931857
 20
-1466.47329501
 30
0.0
 40
40.0
  1
090522
 41
0.8
 72
       5
 11
933.61931857
 21
-1466.47329501
 31
0.0
100
AcDbText
  0
TEXT
  5
4EA
100
AcDbEntity
  8
ZUWAKU
 62
       7
100
AcDbText
 10
-390.83828018
 20
-1299.367357
 30
0.0
 40
24.99
  1
品 名
 41
0.8
  7
FDASTYLE1
100
AcDbText
  0
TEXT
  5
4EB
100
AcDbEntity
  8
ZUWAKU
 62
       7
100
AcDbText
 10
284.18410358
 20
-1299.54332169
 30
0.0
 40
24.99
  1
品　番
 41
0.8
  7
FDASTYLE1
100
AcDbText
  0
TEXT
  5
4EC
100
AcDbEntity
  8
ZUWAKU
 62
       7
100
AcDbText
 10
994.86408498
 20
-560.81660621
 30
0.0
 40
40.0
  1
洗面台
 50
-90.0
 41
0.75
 72
       5
 11
994.86408498
 21
-656.81660621
 31
0.0
100
AcDbText
  0
TEXT
  5
4ED
100
AcDbEntity
  8
ZUWAKU
 62
       7
100
AcDbText
 10
-893.71579664
 20
-1218.51410029
 30
0.0
 40
40.0
  1
1
 41
0.8
 72
       5
 11
-861.71579664
 21
-1218.51410029
 31
0.0
100
AcDbText
  0
TEXT
  5
4EE
100
AcDbEntity
  8
ZUWAKU
 62
       7
100
AcDbText
 10
-893.71579664
 20
-1168.51410029
 30
0.0
 40
40.0
  1
2
 41
0.8
 72
       5
 11
-861.71579664
 21
-1168.51410029
 31
0.0
100
AcDbText
  0
TEXT
  5
4EF
100
AcDbEntity
  8
ZUWAKU
 62
       7
100
AcDbText
 10
-893.71579664
 20
-1118.51410029
 30
0.0
 40
40.0
  1
3
 41
0.8
 72
       5
 11
-861.71579664
 21
-1118.51410029
 31
0.0
100
AcDbText
  0
TEXT
  5
4F0
100
AcDbEntity
  8
ZUWAKU
 62
       7
100
AcDbText
 10
-893.71579664
 20
-1068.51410029
 30
0.0
 40
40.0
  1
4
 41
0.8
 72
       5
 11
-861.71579664
 21
-1068.51410029
 31
0.0
100
AcDbText
  0
TEXT
  5
4F1
100
AcDbEntity
  8
ZUWAKU
 62
       7
100
AcDbText
 10
-893.71579664
 20
-1018.51410029
 30
0.0
 40
40.0
  1
5
 41
0.8
 72
       5
 11
-861.71579664
 21
-1018.51410029
 31
0.0
100
AcDbText
  0
TEXT
  5
4F2
100
AcDbEntity
  8
ZUWAKU
 62
       7
100
AcDbText
 10
-893.71579664
 20
-968.51410029
 30
0.0
 40
40.0
  1
6
 41
0.8
 72
       5
 11
-861.71579664
 21
-968.51410029
 31
0.0
100
AcDbText
  0
TEXT
  5
4F3
100
AcDbEntity
  8
ZUWAKU
 62
       7
100
AcDbText
 10
-893.71579664
 20
-918.51410029
 30
0.0
 40
40.0
  1
7
 41
0.8
 72
       5
 11
-861.71579664
 21
-918.51410029
 31
0.0
100
AcDbText
  0
TEXT
  5
4F4
100
AcDbEntity
  8
ZUWAKU
 62
       7
100
AcDbText
 10
518.51267866
 20
-1268.31676383
 30
0.0
 40
40.0
  1
摘要・仕上
 41
0.7143
 72
       5
 11
678.51267866
 21
-1268.31676383
 31
0.0
100
AcDbText
  0
TEXT
  5
4F5
100
AcDbEntity
  8
ZUWAKU
 62
       7
100
AcDbText
 10
162.1562796
 20
-1268.31676383
 30
0.0
 40
40.0
  1
個　数
 41
0.75
 72
       5
 11
258.1562796
 21
-1268.31676383
 31
0.0
100
AcDbText
  0
TEXT
  5
4F6
100
AcDbEntity
  8
ZUWAKU
 62
       7
100
AcDbText
 10
-173.80281341
 20
-1268.31676383
 30
0.0
 40
40.0
  1
材　　質
 41
0.6667
 72
       5
 11
-45.80281341
 21
-1268.31676383
 31
0.0
100
AcDbText
  0
TEXT
  5
4F7
100
AcDbEntity
  8
ZUWAKU
 62
       7
100
AcDbText
 10
-688.97701101
 20
-1268.31676383
 30
0.0
 40
40.0
  1
部　品　名
 41
0.7143
 72
       5
 11
-528.97701101
 21
-1268.31676383
 31
0.0
100
AcDbText
  0
TEXT
  5
4F8
100
AcDbEntity
  8
ZUWAKU
 62
       7
100
AcDbText
 10
-909.39814382
 20
-1268.31676383
 30
0.0
 40
40.0
  1
部番
 41
0.6667
 72
       5
 11
-845.39814382
 21
-1268.31676383
 31
0.0
100
AcDbText
  0
TEXT
  5
4F9
100
AcDbEntity
  8
LAYER0240
 62
       7
100
AcDbText
 10
429.66666667
 20
-1371.10126627
 30
0.0
 40
40.0
  1
7102.63.01/R1
 41
0.8
 72
       5
 11
845.66666667
 21
-1371.10126627
 31
0.0
100
AcDbText
  0
TEXT
  5
4FA
100
AcDbEntity
  8
LAYER0240
 62
       7
100
AcDbText
 10
-353.02083333
 20
-1371.10126627
 30
0.0
 40
40.0
  1
ビレロイ＆ボッホ  オーバーカウンター洗面器　HOMMAGE
 41
0.5
 72
       5
 11
246.97916667
 21
-1371.10126627
 31
0.0
100
AcDbText
  0
TEXT
  5
4FB
100
AcDbEntity
  8
LAYER0240
 62
       7
100
AcDbText
 10
-569.23594961
 20
1363.43054805
 30
0.0
 40
40.0
  1
ビレロイ＆ボッホ  オーバーカウンター洗面器　HOMMAGE
 41
0.5143
 72
       5
 11
270.76405039
 21
1363.43054805
 31
0.0
100
AcDbText
  0
TEXT
  5
4FC
100
AcDbEntity
  8
LAYER0240
 62
       7
100
AcDbText
 10
429.66666667
 20
1362.39195212
 30
0.0
 40
40.0
  1
7102.63.01/R1
 41
0.8
 72
       5
 11
845.66666667
 21
1362.39195212
 31
0.0
100
AcDbText
  0
TEXT
  5
4FD
100
AcDbEntity
  8
LAYER0240
 62
       7
100
AcDbText
 10
526.71846419
 20
-599.55634837
 30
0.0
 40
40.0
  1
重量　19ｋｇ
 41
0.7778
 72
       5
 11
750.71846419
 21
-599.55634837
 31
0.0
100
AcDbText
  0
TEXT
  5
4FE
100
AcDbEntity
  8
LAYER0240
 62
       7
100
AcDbText
 10
526.71846419
 20
-649.55634837
 30
0.0
 40
40.0
  1
容量　8.9L
 41
0.7778
 72
       5
 11
750.71846419
 21
-649.55634837
 31
0.0
100
AcDbText
  0
TEXT
  5
4FF
100
AcDbEntity
  8
LAYER0240
 62
       7
100
AcDbText
 10
-831.45833333
 20
-1218.91376627
 30
0.0
 40
40.0
  1
洗面器本体
 41
0.7143
 72
       5
 11
-671.45833333
 21
-1218.91376627
 31
0.0
100
AcDbText
  0
TEXT
  5
500
100
AcDbEntity
  8
LAYER0240
 62
       7
100
AcDbText
 10
-365.83333333
 20
-1218.91376627
 30
0.0
 40
40.0
  1
陶器
 41
0.6667
 72
       5
 11
-301.83333333
 21
-1218.91376627
 31
0.0
100
AcDbText
  0
TEXT
  5
501
100
AcDbEntity
  8
LAYER0240
 62
       7
100
AcDbText
 10
195.04166667
 20
-1218.91376627
 30
0.0
 40
40.0
  1
１
 41
0.8
 72
       5
 11
227.04166667
 21
-1218.91376627
 31
0.0
100
AcDbText
  0
TEXT
  5
502
100
AcDbEntity
  8
LAYER0240
 62
       7
100
AcDbText
 10
-830.99279245
 20
-691.56594682
 30
0.0
 40
40.0
  1
　　　現物あわせにて取付けをお願いします。
 41
0.6774
 72
       5
 11
-158.99279245
 21
-691.56594682
 31
0.0
100
AcDbText
  0
TEXT
  5
503
100
AcDbEntity
  8
LAYER0240
 62
       7
100
AcDbText
 10
-797.23214163
 20
-637.57030759
 30
0.0
 40
40.0
  1
※、本製品は陶磁器のため、出来上がりに多少の寸法誤差が生じる場合があります。
 41
0.6667
 72
       5
 11
418.76785837
 21
-637.57030759
 31
0.0
100
AcDbText
  0
LINE
  5
504
100
AcDbEntity
  8
LAYER0240
  6
CONTINUOUS
 62
       7
100
AcDbLine
 10
-802.6182085
 20
-644.16052289
 30
0.0
 11
413.42903019
 21
-644.16052289
 31
0.0
  0
LINE
  5
505
100
AcDbEntity
  8
LAYER0240
  6
CONTINUOUS
 62
       7
100
AcDbLine
 10
-802.6182085
 20
-698.11358104
 30
0.0
 11
-158.89438379
 21
-698.11358104
 31
0.0
  0
LINE
  5
506
100
AcDbEntity
  8
0
  6
CENTER
 62
       7
100
AcDbLine
 10
-402.81394988
 20
643.00561439
 30
0.0
 11
-261.37921334
 21
643.00561439
 31
0.0
  0
LINE
  5
507
100
AcDbEntity
  8
0
  6
CENTER
 62
       7
100
AcDbLine
 10
-332.26191368
 20
806.63637543
 30
0.0
 11
-332.26191368
 21
574.24995828
 31
0.0
  0
LINE
  5
508
100
AcDbEntity
  8
0
  6
CENTER
 62
       7
100
AcDbLine
 10
-402.81394988
 20
643.00561439
 30
0.0
 11
-261.37921334
 21
643.00561439
 31
0.0
  0
LINE
  5
509
100
AcDbEntity
  8
0
  6
CENTER
 62
       7
100
AcDbLine
 10
-287.84437072
 20
768.00561439
 30
0.0
 11
-380.47242156
 21
768.00561439
 31
0.0
  0
LINE
  5
50A
100
AcDbEntity
  8
0
  6
CENTER
 62
       7
100
AcDbLine
 10
-332.26191368
 20
-73.12314282
 30
0.0
 11
-332.26191368
 21
-338.76659384
 31
0.0
  0
LINE
  5
50B
100
AcDbEntity
  8
0
  6
CENTER
 62
       7
100
AcDbLine
 10
-307.26191368
 20
-158.04090288
 30
0.0
 11
-357.26191368
 21
-158.04090288
 31
0.0
  0
LINE
  5
50C
100
AcDbEntity
  8
0
  6
CENTER
 62
       7
100
AcDbLine
 10
591.13337506
 20
-318.3856539
 30
0.0
 11
591.13337506
 21
-230.05027514
 31
0.0
  0
LINE
  5
50D
100
AcDbEntity
  8
0
  6
CENTER
 62
       7
100
AcDbLine
 10
716.13337506
 20
-93.70653836
 30
0.0
 11
716.13337506
 21
-170.51991119
 31
0.0
  0
CIRCLE
  5
50E
100
AcDbEntity
  8
0
  6
CONTINUOUS
 62
       7
100
AcDbCircle
 10
-332.26191368
 20
768.00561439
 30
0.0
 40
17.5
  0
CIRCLE
  5
50F
100
AcDbEntity
  8
0
  6
CONTINUOUS
 62
       7
100
AcDbCircle
 10
-332.26191368
 20
643.00561439
 30
0.0
 40
23.5
  0
CIRCLE
  5
510
100
AcDbEntity
  8
0
  6
CONTINUOUS
 62
       7
100
AcDbCircle
 10
-332.26191368
 20
643.00561439
 30
0.0
 40
39.0
  0
LINE
  5
511
100
AcDbEntity
  8
0
  6
CONTINUOUS
 62
       7
100
AcDbLine
 10
-647.26191368
 20
853.00561439
 30
0.0
 11
-647.26191368
 21
378.00561439
 31
0.0
  0
LINE
  5
512
100
AcDbEntity
  8
0
  6
CONTINUOUS
 62
       7
100
AcDbLine
 10
-622.26191368
 20
353.00561439
 30
0.0
 11
-42.26191368
 21
353.00561439
 31
0.0
  0
LINE
  5
513
100
AcDbEntity
  8
0
  6
CONTINUOUS
 62
       7
100
AcDbLine
 10
-622.26191368
 20
878.00561439
 30
0.0
 11
-42.26191368
 21
878.00561439
 31
0.0
  0
LINE
  5
514
100
AcDbEntity
  8
0
  6
CONTINUOUS
 62
       7
100
AcDbLine
 10
-17.26191368
 20
378.00561439
 30
0.0
 11
-17.26191368
 21
853.00561439
 31
0.0
  0
LINE
  5
515
100
AcDbEntity
  8
0
  6
CONTINUOUS
 62
       7
100
AcDbLine
 10
-559.76191368
 20
413.00561439
 30
0.0
 11
-104.76191368
 21
413.00561439
 31
0.0
  0
LINE
  5
516
100
AcDbEntity
  8
0
  6
CONTINUOUS
 62
       7
100
AcDbLine
 10
-559.76191368
 20
703.00561439
 30
0.0
 11
-104.76191368
 21
703.00561439
 31
0.0
  0
LINE
  5
517
100
AcDbEntity
  8
0
  6
CONTINUOUS
 62
       7
100
AcDbLine
 10
-569.76191368
 20
808.00561439
 30
0.0
 11
-94.76191368
 21
808.00561439
 31
0.0
  0
LINE
  5
518
100
AcDbEntity
  8
0
  6
CONTINUOUS
 62
       7
100
AcDbLine
 10
-579.76191368
 20
798.00561439
 30
0.0
 11
-579.76191368
 21
433.00561439
 31
0.0
  0
LINE
  5
519
100
AcDbEntity
  8
0
  6
CONTINUOUS
 62
       7
100
AcDbLine
 10
-84.76191368
 20
798.00561439
 30
0.0
 11
-84.76191368
 21
433.00561439
 31
0.0
  0
ARC
  5
51A
100
AcDbEntity
  8
0
  6
CONTINUOUS
 62
       7
100
AcDbCircle
 10
-94.76191368
 20
798.00561439
 30
0.0
 40
10.0
100
AcDbArc
 50
360.0
 51
450.0
  0
ARC
  5
51B
100
AcDbEntity
  8
0
  6
CONTINUOUS
 62
       7
100
AcDbCircle
 10
-569.76191368
 20
798.00561439
 30
0.0
 40
10.0
100
AcDbArc
 50
90.0
 51
180.0
  0
ARC
  5
51C
100
AcDbEntity
  8
0
  6
CONTINUOUS
 62
       7
100
AcDbCircle
 10
-104.76191368
 20
683.00561439
 30
0.0
 40
20.0
100
AcDbArc
 50
360.0
 51
450.0
  0
ARC
  5
51D
100
AcDbEntity
  8
0
  6
CONTINUOUS
 62
       7
100
AcDbCircle
 10
-104.76191368
 20
433.00561439
 30
0.0
 40
20.0
100
AcDbArc
 50
270.0
 51
360.0
  0
ARC
  5
51E
100
AcDbEntity
  8
0
  6
CONTINUOUS
 62
       7
100
AcDbCircle
 10
-559.76191368
 20
433.00561439
 30
0.0
 40
20.0
100
AcDbArc
 50
180.0
 51
270.0
  0
ARC
  5
51F
100
AcDbEntity
  8
0
  6
CONTINUOUS
 62
       7
100
AcDbCircle
 10
-559.76191368
 20
683.00561439
 30
0.0
 40
20.0
100
AcDbArc
 50
90.0
 51
180.0
  0
ARC
  5
520
100
AcDbEntity
  8
0
  6
CONTINUOUS
 62
       7
100
AcDbCircle
 10
-42.26191368
 20
853.00561439
 30
0.0
 40
25.0
100
AcDbArc
 50
360.0
 51
450.0
  0
ARC
  5
521
100
AcDbEntity
  8
0
  6
CONTINUOUS
 62
       7
100
AcDbCircle
 10
-42.26191368
 20
378.00561439
 30
0.0
 40
25.0
100
AcDbArc
 50
270.0
 51
360.0
  0
ARC
  5
522
100
AcDbEntity
  8
0
  6
CONTINUOUS
 62
       7
100
AcDbCircle
 10
-622.26191368
 20
378.00561439
 30
0.0
 40
25.0
100
AcDbArc
 50
180.0
 51
270.0
  0
ARC
  5
523
100
AcDbEntity
  8
0
  6
CONTINUOUS
 62
       7
100
AcDbCircle
 10
-622.26191368
 20
853.00561439
 30
0.0
 40
25.0
100
AcDbArc
 50
90.0
 51
180.0
  0
LINE
  5
524
100
AcDbEntity
  8
0
  6
CONTINUOUS
 62
       7
100
AcDbLine
 10
-32.26191368
 20
378.00561439
 30
0.0
 11
-32.26191368
 21
853.00561439
 31
0.0
  0
LINE
  5
525
100
AcDbEntity
  8
0
  6
CONTINUOUS
 62
       7
100
AcDbLine
 10
-24.76191368
 20
380.50561439
 30
0.0
 11
-24.76191368
 21
850.50561439
 31
0.0
  0
LINE
  5
526
100
AcDbEntity
  8
0
  6
CONTINUOUS
 62
       7
100
AcDbLine
 10
-42.26191368
 20
863.00561439
 30
0.0
 11
-622.26191368
 21
863.00561439
 31
0.0
  0
LINE
  5
527
100
AcDbEntity
  8
0
  6
CONTINUOUS
 62
       7
100
AcDbLine
 10
-44.76191368
 20
870.50561439
 30
0.0
 11
-619.76191368
 21
870.50561439
 31
0.0
  0
LINE
  5
528
100
AcDbEntity
  8
0
  6
CONTINUOUS
 62
       7
100
AcDbLine
 10
-622.26191368
 20
368.00561439
 30
0.0
 11
-42.26191368
 21
368.00561439
 31
0.0
  0
LINE
  5
529
100
AcDbEntity
  8
0
  6
CONTINUOUS
 62
       7
100
AcDbLine
 10
-619.76191368
 20
360.50561439
 30
0.0
 11
-44.76191368
 21
360.50561439
 31
0.0
  0
LINE
  5
52A
100
AcDbEntity
  8
0
  6
CONTINUOUS
 62
       7
100
AcDbLine
 10
-632.26191368
 20
378.00561439
 30
0.0
 11
-632.26191368
 21
853.00561439
 31
0.0
  0
LINE
  5
52B
100
AcDbEntity
  8
0
  6
CONTINUOUS
 62
       7
100
AcDbLine
 10
-639.76191368
 20
380.50561439
 30
0.0
 11
-639.76191368
 21
850.50561439
 31
0.0
  0
ARC
  5
52C
100
AcDbEntity
  8
0
  6
CONTINUOUS
 62
       7
100
AcDbCircle
 10
-622.26191368
 20
853.00561439
 30
0.0
 40
10.0
100
AcDbArc
 50
90.0
 51
180.0
  0
ARC
  5
52D
100
AcDbEntity
  8
0
  6
CONTINUOUS
 62
       7
100
AcDbCircle
 10
-42.26191368
 20
853.00561439
 30
0.0
 40
10.0
100
AcDbArc
 50
360.0
 51
450.0
  0
ARC
  5
52E
100
AcDbEntity
  8
0
  6
CONTINUOUS
 62
       7
100
AcDbCircle
 10
-42.26191368
 20
378.00561439
 30
0.0
 40
10.0
100
AcDbArc
 50
270.0
 51
360.0
  0
ARC
  5
52F
100
AcDbEntity
  8
0
  6
CONTINUOUS
 62
       7
100
AcDbCircle
 10
-622.26191368
 20
378.00561439
 30
0.0
 40
10.0
100
AcDbArc
 50
180.0
 51
270.0
  0
ARC
  5
530
100
AcDbEntity
  8
0
  6
CONTINUOUS
 62
       7
100
AcDbCircle
 10
-619.76191368
 20
850.50561439
 30
0.0
 40
20.0
100
AcDbArc
 50
90.0
 51
180.0
  0
ARC
  5
531
100
AcDbEntity
  8
0
  6
CONTINUOUS
 62
       7
100
AcDbCircle
 10
-44.76191368
 20
850.50561439
 30
0.0
 40
20.0
100
AcDbArc
 50
360.0
 51
450.0
  0
ARC
  5
532
100
AcDbEntity
  8
0
  6
CONTINUOUS
 62
       7
100
AcDbCircle
 10
-44.76191368
 20
380.50561439
 30
0.0
 40
20.0
100
AcDbArc
 50
270.0
 51
360.0
  0
ARC
  5
533
100
AcDbEntity
  8
0
  6
CONTINUOUS
 62
       7
100
AcDbCircle
 10
-619.76191368
 20
380.50561439
 30
0.0
 40
20.0
100
AcDbArc
 50
180.0
 51
270.0
  0
LINE
  5
534
100
AcDbEntity
  8
0
  6
CONTINUOUS
 62
       7
100
AcDbLine
 10
-17.26191368
 20
-149.04090288
 30
0.0
 11
-647.26191368
 21
-149.04090288
 31
0.0
  0
LINE
  5
535
100
AcDbEntity
  8
0
  6
CONTINUOUS
 62
       7
100
AcDbLine
 10
-639.76191368
 20
-141.04090288
 30
0.0
 11
-639.76191368
 21
-138.04090288
 31
0.0
  0
LINE
  5
536
100
AcDbEntity
  8
0
  6
CONTINUOUS
 62
       7
100
AcDbLine
 10
-647.26191368
 20
-149.04090288
 30
0.0
 11
-647.26191368
 21
-146.04090288
 31
0.0
  0
LINE
  5
537
100
AcDbEntity
  8
0
  6
CONTINUOUS
 62
       7
100
AcDbLine
 10
-632.26191368
 20
-133.04090288
 30
0.0
 11
-632.26191368
 21
-123.04090288
 31
0.0
  0
LINE
  5
538
100
AcDbEntity
  8
0
  6
CONTINUOUS
 62
       7
100
AcDbLine
 10
-627.26191368
 20
-118.04090288
 30
0.0
 11
-37.26191368
 21
-118.04090288
 31
0.0
  0
LINE
  5
539
100
AcDbEntity
  8
0
  6
CONTINUOUS
 62
       7
100
AcDbLine
 10
-642.26191368
 20
-141.04090288
 30
0.0
 11
-22.26191368
 21
-141.04090288
 31
0.0
  0
LINE
  5
53A
100
AcDbEntity
  8
0
  6
CONTINUOUS
 62
       7
100
AcDbLine
 10
-29.76191368
 20
-133.04090288
 30
0.0
 11
-634.76191368
 21
-133.04090288
 31
0.0
  0
ARC
  5
53B
100
AcDbEntity
  8
0
  6
CONTINUOUS
 62
       7
100
AcDbCircle
 10
-634.76191368
 20
-138.04090288
 30
0.0
 40
5.0
100
AcDbArc
 50
90.0
 51
180.0
  0
ARC
  5
53C
100
AcDbEntity
  8
0
  6
CONTINUOUS
 62
       7
100
AcDbCircle
 10
-627.26191368
 20
-123.04090288
 30
0.0
 40
5.0
100
AcDbArc
 50
90.0
 51
180.0
  0
ARC
  5
53D
100
AcDbEntity
  8
0
  6
CONTINUOUS
 62
       7
100
AcDbCircle
 10
-642.26191368
 20
-146.04090288
 30
0.0
 40
5.0
100
AcDbArc
 50
90.0
 51
180.0
  0
LINE
  5
53E
100
AcDbEntity
  8
0
  6
CONTINUOUS
 62
       7
100
AcDbLine
 10
-24.76191368
 20
-141.04090288
 30
0.0
 11
-24.76191368
 21
-138.04090288
 31
0.0
  0
LINE
  5
53F
100
AcDbEntity
  8
0
  6
CONTINUOUS
 62
       7
100
AcDbLine
 10
-17.26191368
 20
-149.04090288
 30
0.0
 11
-17.26191368
 21
-146.04090288
 31
0.0
  0
LINE
  5
540
100
AcDbEntity
  8
0
  6
CONTINUOUS
 62
       7
100
AcDbLine
 10
-32.26191368
 20
-133.04090288
 30
0.0
 11
-32.26191368
 21
-123.04090288
 31
0.0
  0
ARC
  5
541
100
AcDbEntity
  8
0
  6
CONTINUOUS
 62
       7
100
AcDbCircle
 10
-29.76191368
 20
-138.04090288
 30
0.0
 40
5.0
100
AcDbArc
 50
360.0
 51
450.0
  0
ARC
  5
542
100
AcDbEntity
  8
0
  6
CONTINUOUS
 62
       7
100
AcDbCircle
 10
-37.26191368
 20
-123.04090288
 30
0.0
 40
5.0
100
AcDbArc
 50
360.0
 51
450.0
  0
ARC
  5
543
100
AcDbEntity
  8
0
  6
CONTINUOUS
 62
       7
100
AcDbCircle
 10
-22.26191368
 20
-146.04090288
 30
0.0
 40
5.0
100
AcDbArc
 50
360.0
 51
450.0
  0
LINE
  5
544
100
AcDbEntity
  8
0
  6
CONTINUOUS
 62
       7
100
AcDbLine
 10
-301.87492063
 20
-314.04090288
 30
0.0
 11
-362.64890673
 21
-314.04090288
 31
0.0
  0
LINE
  5
545
100
AcDbEntity
  8
0
  6
CONTINUOUS
 62
       7
100
AcDbLine
 10
-311.87492063
 20
-304.04090288
 30
0.0
 11
-352.64890673
 21
-304.04090288
 31
0.0
  0
LINE
  5
546
100
AcDbEntity
  8
0
  6
CONTINUOUS
 62
       7
100
AcDbLine
 10
-357.63272651
 20
-299.44282383
 30
0.0
 11
-369.76191368
 21
-149.04090288
 31
0.0
  0
LINE
  5
547
100
AcDbEntity
  8
0
  6
CONTINUOUS
 62
       7
100
AcDbLine
 10
-306.89110085
 20
-299.44282383
 30
0.0
 11
-294.76191368
 21
-149.04090288
 31
0.0
  0
LINE
  5
548
100
AcDbEntity
  8
0
  6
CONTINUOUS
 62
       7
100
AcDbLine
 10
-367.63272651
 20
-309.44282383
 30
0.0
 11
-369.76124082
 21
-283.04924639
 31
0.0
  0
LINE
  5
549
100
AcDbEntity
  8
0
  6
CONTINUOUS
 62
       7
100
AcDbLine
 10
-405.80756273
 20
-298.23808552
 30
0.0
 11
-368.21030899
 21
-302.28080097
 31
0.0
  0
LINE
  5
54A
100
AcDbEntity
  8
0
  6
CONTINUOUS
 62
       7
100
AcDbLine
 10
-410.23718095
 20
-293.86424031
 30
0.0
 11
-411.87822113
 21
-280.2300443
 31
0.0
  0
LINE
  5
54B
100
AcDbEntity
  8
0
  6
CONTINUOUS
 62
       7
100
AcDbLine
 10
-414.50122614
 20
-204.04090288
 30
0.0
 11
-614.57617265
 21
-204.04090288
 31
0.0
  0
LINE
  5
54C
100
AcDbEntity
  8
0
  6
CONTINUOUS
 62
       7
100
AcDbLine
 10
-487.00122614
 20
-289.04090288
 30
0.0
 11
-610.02260122
 21
-289.04090288
 31
0.0
  0
LINE
  5
54D
100
AcDbEntity
  8
0
  6
CONTINUOUS
 62
       7
100
AcDbLine
 10
-622.26191368
 20
-149.04090288
 30
0.0
 11
-615.01544188
 21
-284.30837649
 31
0.0
  0
LINE
  5
54E
100
AcDbEntity
  8
0
  6
CONTINUOUS
 62
       7
100
AcDbLine
 10
-480.98060554
 20
-265.12315087
 30
0.0
 11
-482.00838548
 21
-284.30837649
 31
0.0
  0
LINE
  5
54F
100
AcDbEntity
  8
0
  6
CONTINUOUS
 62
       7
100
AcDbLine
 10
-406.81548511
 20
-149.04090288
 30
0.0
 11
-411.12917688
 21
-229.56314936
 31
0.0
  0
LINE
  5
550
100
AcDbEntity
  8
0
  6
CONTINUOUS
 62
       7
100
AcDbLine
 10
-416.12201754
 20
-234.29567575
 30
0.0
 11
-551.92914331
 21
-234.29567575
 31
0.0
  0
ARC
  5
551
100
AcDbEntity
  8
0
  6
CONTINUOUS
 62
       7
100
AcDbCircle
 10
-365.41384919
 20
97.90711525
 30
0.0
 40
380.98116659
100
AcDbArc
 50
240.6879627
 51
270.97106212
  0
LINE
  5
552
100
AcDbEntity
  8
0
  6
CONTINUOUS
 62
       7
100
AcDbLine
 10
-254.28664641
 20
-293.86424031
 30
0.0
 11
-252.64560622
 21
-280.2300443
 31
0.0
  0
LINE
  5
553
100
AcDbEntity
  8
0
  6
CONTINUOUS
 62
       7
100
AcDbLine
 10
-250.02260122
 20
-204.04090288
 30
0.0
 11
-49.94765471
 21
-204.04090288
 31
0.0
  0
LINE
  5
554
100
AcDbEntity
  8
0
  6
CONTINUOUS
 62
       7
100
AcDbLine
 10
-177.52260122
 20
-289.04090288
 30
0.0
 11
-54.50122614
 21
-289.04090288
 31
0.0
  0
LINE
  5
555
100
AcDbEntity
  8
0
  6
CONTINUOUS
 62
       7
100
AcDbLine
 10
-183.54322182
 20
-265.12315087
 30
0.0
 11
-182.51544188
 21
-284.30837649
 31
0.0
  0
LINE
  5
556
100
AcDbEntity
  8
0
  6
CONTINUOUS
 62
       7
100
AcDbLine
 10
-248.40180981
 20
-234.29567575
 30
0.0
 11
-112.59468405
 21
-234.29567575
 31
0.0
  0
ARC
  5
557
100
AcDbEntity
  8
0
  6
CONTINUOUS
 62
       7
100
AcDbCircle
 10
-299.10997817
 20
97.90711525
 30
0.0
 40
380.98116659
100
AcDbArc
 50
269.02893788
 51
299.3120373
  0
LINE
  5
558
100
AcDbEntity
  8
0
  6
CONTINUOUS
 62
       7
100
AcDbLine
 10
-296.89110085
 20
-309.44282383
 30
0.0
 11
-294.76258654
 21
-283.04924639
 31
0.0
  0
LINE
  5
559
100
AcDbEntity
  8
0
  6
CONTINUOUS
 62
       7
100
AcDbLine
 10
-258.71626463
 20
-298.23808552
 30
0.0
 11
-296.31351836
 21
-302.28080097
 31
0.0
  0
LINE
  5
55A
100
AcDbEntity
  8
0
  6
CONTINUOUS
 62
       7
100
AcDbLine
 10
-42.26191368
 20
-149.04090288
 30
0.0
 11
-49.50838548
 21
-284.30837649
 31
0.0
  0
LINE
  5
55B
100
AcDbEntity
  8
0
  6
CONTINUOUS
 62
       7
100
AcDbLine
 10
-257.70834225
 20
-149.04090288
 30
0.0
 11
-253.39465048
 21
-229.56314936
 31
0.0
  0
LINE
  5
55C
100
AcDbEntity
  8
0
  6
CONTINUOUS
 62
       7
100
AcDbLine
 10
826.13337506
 20
-149.04090288
 30
0.0
 11
301.13337506
 21
-149.04090288
 31
0.0
  0
LINE
  5
55D
100
AcDbEntity
  8
0
  6
CONTINUOUS
 62
       7
100
AcDbLine
 10
308.63337506
 20
-141.04090288
 30
0.0
 11
308.63337506
 21
-138.04090288
 31
0.0
  0
LINE
  5
55E
100
AcDbEntity
  8
0
  6
CONTINUOUS
 62
       7
100
AcDbLine
 10
301.13337506
 20
-149.04090288
 30
0.0
 11
301.13337506
 21
-146.04090288
 31
0.0
  0
LINE
  5
55F
100
AcDbEntity
  8
0
  6
CONTINUOUS
 62
       7
100
AcDbLine
 10
316.13337506
 20
-133.04090288
 30
0.0
 11
316.13337506
 21
-123.04090288
 31
0.0
  0
LINE
  5
560
100
AcDbEntity
  8
0
  6
CONTINUOUS
 62
       7
100
AcDbLine
 10
321.13337506
 20
-118.04090288
 30
0.0
 11
806.13337506
 21
-118.04090288
 31
0.0
  0
LINE
  5
561
100
AcDbEntity
  8
0
  6
CONTINUOUS
 62
       7
100
AcDbLine
 10
306.13337506
 20
-141.04090288
 30
0.0
 11
821.13337506
 21
-141.04090288
 31
0.0
  0
LINE
  5
562
100
AcDbEntity
  8
0
  6
CONTINUOUS
 62
       7
100
AcDbLine
 10
813.63337506
 20
-133.04090288
 30
0.0
 11
313.63337506
 21
-133.04090288
 31
0.0
  0
ARC
  5
563
100
AcDbEntity
  8
0
  6
CONTINUOUS
 62
       7
100
AcDbCircle
 10
313.63337506
 20
-138.04090288
 30
0.0
 40
5.0
100
AcDbArc
 50
90.0
 51
180.0
  0
ARC
  5
564
100
AcDbEntity
  8
0
  6
CONTINUOUS
 62
       7
100
AcDbCircle
 10
321.13337506
 20
-123.04090288
 30
0.0
 40
5.0
100
AcDbArc
 50
90.0
 51
180.0
  0
ARC
  5
565
100
AcDbEntity
  8
0
  6
CONTINUOUS
 62
       7
100
AcDbCircle
 10
306.13337506
 20
-146.04090288
 30
0.0
 40
5.0
100
AcDbArc
 50
90.0
 51
180.0
  0
LINE
  5
566
100
AcDbEntity
  8
0
  6
CONTINUOUS
 62
       7
100
AcDbLine
 10
818.63337506
 20
-141.04090288
 30
0.0
 11
818.63337506
 21
-138.04090288
 31
0.0
  0
LINE
  5
567
100
AcDbEntity
  8
0
  6
CONTINUOUS
 62
       7
100
AcDbLine
 10
826.13337506
 20
-149.04090288
 30
0.0
 11
826.13337506
 21
-146.04090288
 31
0.0
  0
LINE
  5
568
100
AcDbEntity
  8
0
  6
CONTINUOUS
 62
       7
100
AcDbLine
 10
811.13337506
 20
-133.04090288
 30
0.0
 11
811.13337506
 21
-123.04090288
 31
0.0
  0
ARC
  5
569
100
AcDbEntity
  8
0
  6
CONTINUOUS
 62
       7
100
AcDbCircle
 10
813.63337506
 20
-138.04090288
 30
0.0
 40
5.0
100
AcDbArc
 50
360.0
 51
450.0
  0
ARC
  5
56A
100
AcDbEntity
  8
0
  6
CONTINUOUS
 62
       7
100
AcDbCircle
 10
806.13337506
 20
-123.04090288
 30
0.0
 40
5.0
100
AcDbArc
 50
360.0
 51
450.0
  0
ARC
  5
56B
100
AcDbEntity
  8
0
  6
CONTINUOUS
 62
       7
100
AcDbCircle
 10
821.13337506
 20
-146.04090288
 30
0.0
 40
5.0
100
AcDbArc
 50
360.0
 51
450.0
  0
LINE
  5
56C
100
AcDbEntity
  8
0
  6
CONTINUOUS
 62
       7
100
AcDbLine
 10
789.78691975
 20
-179.04090288
 30
0.0
 11
738.46841032
 21
-179.04090288
 31
0.0
  0
LINE
  5
56D
100
AcDbEntity
  8
0
  6
CONTINUOUS
 62
       7
100
AcDbLine
 10
796.13337506
 20
-149.04090288
 30
0.0
 11
794.77976041
 21
-174.30837649
 31
0.0
  0
LINE
  5
56E
100
AcDbEntity
  8
0
  6
CONTINUOUS
 62
       7
100
AcDbLine
 10
724.85912393
 20
-172.826924
 30
0.0
 11
719.14043146
 21
-279.5758501
 31
0.0
  0
LINE
  5
56F
100
AcDbEntity
  8
0
  6
CONTINUOUS
 62
       7
100
AcDbLine
 10
326.13337506
 20
-149.04090288
 30
0.0
 11
328.877109
 21
-200.25726961
 31
0.0
  0
LINE
  5
570
100
AcDbEntity
  8
0
  6
CONTINUOUS
 62
       7
100
AcDbLine
 10
709.15475014
 20
-289.04090288
 30
0.0
 11
708.63337506
 21
-289.04090288
 31
0.0
  0
LINE
  5
571
100
AcDbEntity
  8
0
  6
CONTINUOUS
 62
       7
100
AcDbLine
 10
332.77727799
 20
-204.8689423
 30
0.0
 11
708.63337506
 21
-289.04090288
 31
0.0
  0
ARC
  5
572
100
AcDbEntity
  8
0
  6
CONTINUOUS
 62
       7
100
AcDbCircle
 10
709.15475014
 20
-279.04090288
 30
0.0
 40
10.0
100
AcDbArc
 50
270.0
 51
356.9335145
  0
LINE
  5
573
100
AcDbEntity
  8
0
  6
CONTINUOUS
 62
       7
100
AcDbLine
 10
734.34406863
 20
-172.826924
 30
0.0
 11
734.47413779
 21
-175.25488177
 31
0.0
  0
LINE
  5
574
100
AcDbEntity
  8
0
  6
CONTINUOUS
 62
       7
100
AcDbLine
 10
730.3497961
 20
-169.04090288
 30
0.0
 11
728.85339646
 21
-169.04090288
 31
0.0
  0
ARC
  5
575
100
AcDbEntity
  8
0
  6
CONTINUOUS
 62
       7
100
AcDbCircle
 10
730.3497961
 20
-173.04090288
 30
0.0
 40
4.0
100
AcDbArc
 50
3.0664855
 51
90.0
  0
ARC
  5
576
100
AcDbEntity
  8
0
  6
CONTINUOUS
 62
       7
100
AcDbCircle
 10
728.85339646
 20
-173.04090288
 30
0.0
 40
4.0
100
AcDbArc
 50
90.0
 51
176.9335145
  0
ARC
  5
577
100
AcDbEntity
  8
0
  6
CONTINUOUS
 62
       7
100
AcDbCircle
 10
738.46841032
 20
-175.04090288
 30
0.0
 40
4.0
100
AcDbArc
 50
183.0664855
 51
270.0
  0
ARC
  5
578
100
AcDbEntity
  8
0
  6
CONTINUOUS
 62
       7
100
AcDbCircle
 10
789.78691975
 20
-174.04090288
 30
0.0
 40
5.0
100
AcDbArc
 50
270.0
 51
356.9335145
  0
ARC
  5
579
100
AcDbEntity
  8
0
  6
CONTINUOUS
 62
       7
100
AcDbCircle
 10
333.86994966
 20
-199.989796
 30
0.0
 40
5.0
100
AcDbArc
 50
183.0664855
 51
257.37703802
  0
ARC
  5
57A
100
AcDbEntity
  8
0
  6
CONTINUOUS
 62
       7
100
AcDbCircle
 10
-54.50122614
 20
-284.04090288
 30
0.0
 40
5.0
100
AcDbArc
 50
270.0
 51
356.9335145
  0
ARC
  5
57B
100
AcDbEntity
  8
0
  6
CONTINUOUS
 62
       7
100
AcDbCircle
 10
-177.52260122
 20
-284.04090288
 30
0.0
 40
5.0
100
AcDbArc
 50
183.0664855
 51
270.0
  0
ARC
  5
57C
100
AcDbEntity
  8
0
  6
CONTINUOUS
 62
       7
100
AcDbCircle
 10
-248.40180981
 20
-229.29567575
 30
0.0
 40
5.0
100
AcDbArc
 50
183.0664855
 51
270.0
  0
ARC
  5
57D
100
AcDbEntity
  8
0
  6
CONTINUOUS
 62
       7
100
AcDbCircle
 10
-352.64890673
 20
-299.04090288
 30
0.0
 40
5.0
100
AcDbArc
 50
184.61064932
 51
270.0
  0
ARC
  5
57E
100
AcDbEntity
  8
0
  6
CONTINUOUS
 62
       7
100
AcDbCircle
 10
-311.87492063
 20
-299.04090288
 30
0.0
 40
5.0
100
AcDbArc
 50
270.0
 51
355.38935068
  0
ARC
  5
57F
100
AcDbEntity
  8
0
  6
CONTINUOUS
 62
       7
100
AcDbCircle
 10
-301.87492063
 20
-309.04090288
 30
0.0
 40
5.0
100
AcDbArc
 50
270.0
 51
355.38935068
  0
ARC
  5
580
100
AcDbEntity
  8
0
  6
CONTINUOUS
 62
       7
100
AcDbCircle
 10
-362.64890673
 20
-309.04090288
 30
0.0
 40
5.0
100
AcDbArc
 50
184.61064932
 51
270.0
  0
ARC
  5
581
100
AcDbEntity
  8
0
  6
CONTINUOUS
 62
       7
100
AcDbCircle
 10
-259.25081766
 20
-293.26674233
 30
0.0
 40
5.0
100
AcDbArc
 50
276.13725595
 51
353.13677632
  0
ARC
  5
582
100
AcDbEntity
  8
0
  6
CONTINUOUS
 62
       7
100
AcDbCircle
 10
-405.2730097
 20
-293.26674233
 30
0.0
 40
5.0
100
AcDbArc
 50
186.86322368
 51
263.86274405
  0
ARC
  5
583
100
AcDbEntity
  8
0
  6
CONTINUOUS
 62
       7
100
AcDbCircle
 10
-487.00122614
 20
-284.04090288
 30
0.0
 40
5.0
100
AcDbArc
 50
270.0
 51
356.9335145
  0
ARC
  5
584
100
AcDbEntity
  8
0
  6
CONTINUOUS
 62
       7
100
AcDbCircle
 10
-610.02260122
 20
-284.04090288
 30
0.0
 40
5.0
100
AcDbArc
 50
183.0664855
 51
270.0
  0
ARC
  5
585
100
AcDbEntity
  8
0
  6
CONTINUOUS
 62
       7
100
AcDbCircle
 10
-49.94765471
 20
-199.04090288
 30
0.0
 40
5.0
100
AcDbArc
 50
270.0
 51
356.9335145
  0
ARC
  5
586
100
AcDbEntity
  8
0
  6
CONTINUOUS
 62
       7
100
AcDbCircle
 10
-250.02260122
 20
-199.04090288
 30
0.0
 40
5.0
100
AcDbArc
 50
183.0664855
 51
270.0
  0
ARC
  5
587
100
AcDbEntity
  8
0
  6
CONTINUOUS
 62
       7
100
AcDbCircle
 10
-416.12201754
 20
-229.29567575
 30
0.0
 40
5.0
100
AcDbArc
 50
270.0
 51
356.9335145
  0
ARC
  5
588
100
AcDbEntity
  8
0
  6
CONTINUOUS
 62
       7
100
AcDbCircle
 10
-414.50122614
 20
-199.04090288
 30
0.0
 40
5.0
100
AcDbArc
 50
270.0
 51
356.9335145
  0
ARC
  5
589
100
AcDbEntity
  8
0
  6
CONTINUOUS
 62
       7
100
AcDbCircle
 10
-614.57617265
 20
-199.04090288
 30
0.0
 40
5.0
100
AcDbArc
 50
183.0664855
 51
270.0
  0
LINE
  5
58A
100
AcDbEntity
  8
0
  6
CONTINUOUS
 62
       7
100
AcDbLine
 10
621.52036812
 20
-314.04090288
 30
0.0
 11
560.74638201
 21
-314.04090288
 31
0.0
  0
LINE
  5
58B
100
AcDbEntity
  8
0
  6
CONTINUOUS
 62
       7
100
AcDbLine
 10
555.76256224
 20
-309.44282383
 30
0.0
 11
551.27531755
 21
-253.80098974
 31
0.0
  0
LINE
  5
58C
100
AcDbEntity
  8
0
  6
CONTINUOUS
 62
       7
100
AcDbLine
 10
626.50418789
 20
-309.44282383
 30
0.0
 11
627.32630865
 21
-299.24852649
 31
0.0
  0
ARC
  5
58D
100
AcDbEntity
  8
0
  6
CONTINUOUS
 62
       7
100
AcDbCircle
 10
621.52036812
 20
-309.04090288
 30
0.0
 40
5.0
100
AcDbArc
 50
270.0
 51
355.38935068
  0
ARC
  5
58E
100
AcDbEntity
  8
0
  6
CONTINUOUS
 62
       7
100
AcDbCircle
 10
560.74638201
 20
-309.04090288
 30
0.0
 40
5.0
100
AcDbArc
 50
184.61064932
 51
270.0
  0
LINE
  5
58F
100
AcDbEntity
  8
0
  6
CONTINUOUS
 62
       7
100
AcDbLine
 10
669.10864233
 20
-293.86424031
 30
0.0
 11
670.74968252
 21
-280.2300443
 31
0.0
  0
ARC
  5
590
100
AcDbEntity
  8
0
  6
CONTINUOUS
 62
       7
100
AcDbCircle
 10
664.14447108
 20
-293.26674233
 30
0.0
 40
5.0
100
AcDbArc
 50
276.13725595
 51
353.13677632
  0
ARC
  5
591
100
AcDbEntity
  8
0
  6
CONTINUOUS
 62
       7
100
AcDbCircle
 10
641.57097912
 20
-134.91824566
 30
0.0
 40
164.94651205
100
AcDbArc
 50
261.7199895
 51
278.0532956
  0
LINE
  5
592
100
AcDbEntity
  8
0
  6
CONTINUOUS
 62
       7
100
AcDbLine
 10
613.57109092
 20
-293.78098351
 30
0.0
 11
610.42998492
 21
-267.04851817
 31
0.0
  0
ARC
  5
593
100
AcDbEntity
  8
0
  6
CONTINUOUS
 62
       7
100
AcDbCircle
 10
618.53692774
 20
-293.19749001
 30
0.0
 40
5.0
100
AcDbArc
 50
186.70161322
 51
261.7199895
  0
ARC
  5
594
100
AcDbEntity
  8
0
  6
CONTINUOUS
 62
       7
100
AcDbCircle
 10
556.71421897
 20
-47.33709987
 30
0.0
 40
235.70239409
100
AcDbArc
 50
226.67363509
 51
269.25064808
  0
ARC
  5
595
100
AcDbEntity
  8
0
  6
CONTINUOUS
 62
       7
100
AcDbCircle
 10
499.56489463
 20
-109.55763114
 30
0.0
 40
146.89907495
100
AcDbArc
 50
229.17185933
 51
263.72409455
  0
ARC
  5
596
100
AcDbEntity
  8
0
  6
CONTINUOUS
 62
       7
100
AcDbCircle
 10
582.46084724
 20
428.76855241
 30
0.0
 40
691.46215463
100
AcDbArc
 50
261.77221247
 51
267.47000972
  0
CIRCLE
  5
597
100
AcDbEntity
  8
0
  6
DASHED2
 62
       7
100
AcDbCircle
 10
-332.26191368
 20
-158.04090288
 30
0.0
 40
12.5
  0
LINE
  5
598
100
AcDbEntity
  8
0
  6
DASHED2
 62
       7
100
AcDbLine
 10
-84.76191368
 20
-118.04090288
 30
0.0
 11
-90.02025793
 21
-178.14405273
 31
0.0
  0
ARC
  5
599
100
AcDbEntity
  8
0
  6
DASHED2
 62
       7
100
AcDbCircle
 10
-328.57539964
 20
180.4062629
 30
0.0
 40
438.46266383
100
AcDbArc
 50
269.51826187
 51
301.49760839
  0
ARC
  5
59A
100
AcDbEntity
  8
0
  6
DASHED2
 62
       7
100
AcDbCircle
 10
-109.9441519
 20
-176.40093788
 30
0.0
 40
20.0
100
AcDbArc
 50
301.49760839
 51
355.0
  0
ARC
  5
59B
100
AcDbEntity
  8
0
  6
DASHED2
 62
       7
100
AcDbCircle
 10
-335.94842772
 20
180.4062629
 30
0.0
 40
438.46266383
100
AcDbArc
 50
238.50239161
 51
270.48173813
  0
LINE
  5
59C
100
AcDbEntity
  8
0
  6
DASHED2
 62
       7
100
AcDbLine
 10
-579.76191368
 20
-118.04090288
 30
0.0
 11
-574.50356943
 21
-178.14405273
 31
0.0
  0
ARC
  5
59D
100
AcDbEntity
  8
0
  6
DASHED2
 62
       7
100
AcDbCircle
 10
-554.57967546
 20
-176.40093788
 30
0.0
 40
20.0
100
AcDbArc
 50
185.0
 51
238.50239161
  0
LINE
  5
59E
100
AcDbEntity
  8
0
  6
DIVIDE
 62
       7
100
AcDbLine
 10
-632.26191368
 20
860.50561439
 30
0.0
 11
-32.26191368
 21
860.50561439
 31
0.0
  0
LINE
  5
59F
100
AcDbEntity
  8
0
  6
DIVIDE
 62
       7
100
AcDbLine
 10
-32.26191368
 20
370.50561439
 30
0.0
 11
-632.26191368
 21
370.50561439
 31
0.0
  0
LINE
  5
5A0
100
AcDbEntity
  8
0
  6
DIVIDE
 62
       7
100
AcDbLine
 10
-32.26191368
 20
860.50561439
 30
0.0
 11
-32.26191368
 21
370.50561439
 31
0.0
  0
LINE
  5
5A1
100
AcDbEntity
  8
0
  6
DIVIDE
 62
       7
100
AcDbLine
 10
-632.26191368
 20
370.50561439
 30
0.0
 11
-632.26191368
 21
860.50561439
 31
0.0
  0
LINE
  5
5A2
100
AcDbEntity
  8
0
  6
DIVIDE
 62
       7
100
AcDbLine
 10
-647.26191368
 20
-149.04090288
 30
0.0
 11
-682.4834258
 21
-149.04090288
 31
0.0
  0
LINE
  5
5A3
100
AcDbEntity
  8
0
  6
DIVIDE
 62
       7
100
AcDbLine
 10
-17.26191368
 20
-149.04090288
 30
0.0
 11
36.52882139
 21
-149.04090288
 31
0.0
  0
LINE
  5
5A4
100
AcDbEntity
  8
0
  6
DIVIDE
 62
       7
100
AcDbLine
 10
301.13337506
 20
-149.04090288
 30
0.0
 11
269.44972823
 21
-149.04090288
 31
0.0
  0
LINE
  5
5A5
100
AcDbEntity
  8
0
  6
DIVIDE
 62
       7
100
AcDbLine
 10
826.13337506
 20
-149.04090288
 30
0.0
 11
866.77863255
 21
-149.04090288
 31
0.0
  0
LINE
  5
5A6
100
AcDbEntity
  8
0
  6
DIVIDE
 62
       7
100
AcDbLine
 10
-632.26191368
 20
-189.04090288
 30
0.0
 11
-682.4834258
 21
-189.04090288
 31
0.0
  0
LINE
  5
5A7
100
AcDbEntity
  8
0
  6
DIVIDE
 62
       7
100
AcDbLine
 10
-32.26191368
 20
-189.04090288
 30
0.0
 11
36.52882139
 21
-189.04090288
 31
0.0
  0
LINE
  5
5A8
100
AcDbEntity
  8
0
  6
DIVIDE
 62
       7
100
AcDbLine
 10
318.63337506
 20
-189.04090288
 30
0.0
 11
269.44972823
 21
-189.04090288
 31
0.0
  0
LINE
  5
5A9
100
AcDbEntity
  8
0
  6
DIVIDE
 62
       7
100
AcDbLine
 10
808.63337506
 20
-189.04090288
 30
0.0
 11
866.77863255
 21
-189.04090288
 31
0.0
  0
LINE
  5
5AA
100
AcDbEntity
  8
0
  6
DIVIDE
 62
       7
100
AcDbLine
 10
-32.26191368
 20
-189.04090288
 30
0.0
 11
-32.26191368
 21
-149.04090288
 31
0.0
  0
LINE
  5
5AB
100
AcDbEntity
  8
0
  6
DIVIDE
 62
       7
100
AcDbLine
 10
-632.26191368
 20
-189.04090288
 30
0.0
 11
-632.26191368
 21
-149.04090288
 31
0.0
  0
LINE
  5
5AC
100
AcDbEntity
  8
0
  6
DIVIDE
 62
       7
100
AcDbLine
 10
808.63337506
 20
-149.04090288
 30
0.0
 11
808.63337506
 21
-189.04090288
 31
0.0
  0
LINE
  5
5AD
100
AcDbEntity
  8
0
  6
DIVIDE
 62
       7
100
AcDbLine
 10
318.63337506
 20
-189.04090288
 30
0.0
 11
318.63337506
 21
-149.04090288
 31
0.0
  0
INSERT
  5
5AE
100
AcDbEntity
  8
0
  6
CONTINUOUS
100
AcDbBlockReference
  2
DA_IMAGEDIMGROUP_1
 10
0.0
 20
0.0
 30
0.0
  0
INSERT
  5
5AF
100
AcDbEntity
  8
0
  6
CONTINUOUS
100
AcDbBlockReference
  2
DA_IMAGEDIMGROUP_2
 10
0.0
 20
0.0
 30
0.0
  0
INSERT
  5
5B0
100
AcDbEntity
  8
0
  6
CONTINUOUS
100
AcDbBlockReference
  2
DA_IMAGEDIMGROUP_3
 10
0.0
 20
0.0
 30
0.0
  0
INSERT
  5
5B1
100
AcDbEntity
  8
0
  6
CONTINUOUS
100
AcDbBlockReference
  2
DA_IMAGEDIMGROUP_4
 10
0.0
 20
0.0
 30
0.0
  0
INSERT
  5
5B2
100
AcDbEntity
  8
0
  6
CONTINUOUS
100
AcDbBlockReference
  2
DA_IMAGEDIMGROUP_5
 10
0.0
 20
0.0
 30
0.0
  0
INSERT
  5
5B3
100
AcDbEntity
  8
0
  6
CONTINUOUS
100
AcDbBlockReference
  2
DA_IMAGEDIMGROUP_6
 10
0.0
 20
0.0
 30
0.0
  0
INSERT
  5
5B4
100
AcDbEntity
  8
0
  6
CONTINUOUS
100
AcDbBlockReference
  2
DA_IMAGEDIMGROUP_7
 10
0.0
 20
0.0
 30
0.0
  0
INSERT
  5
5B5
100
AcDbEntity
  8
0
  6
CONTINUOUS
100
AcDbBlockReference
  2
DA_IMAGEDIMGROUP_8
 10
0.0
 20
0.0
 30
0.0
  0
INSERT
  5
5B6
100
AcDbEntity
  8
0
  6
CONTINUOUS
100
AcDbBlockReference
  2
DA_IMAGEDIMGROUP_9
 10
0.0
 20
0.0
 30
0.0
  0
INSERT
  5
5B7
100
AcDbEntity
  8
0
  6
CONTINUOUS
100
AcDbBlockReference
  2
DA_IMAGEDIMGROUP_10
 10
0.0
 20
0.0
 30
0.0
  0
INSERT
  5
5B8
100
AcDbEntity
  8
0
  6
CONTINUOUS
100
AcDbBlockReference
  2
DA_IMAGEDIMGROUP_11
 10
0.0
 20
0.0
 30
0.0
  0
INSERT
  5
5B9
100
AcDbEntity
  8
0
  6
CONTINUOUS
100
AcDbBlockReference
  2
DA_IMAGEDIMGROUP_12
 10
0.0
 20
0.0
 30
0.0
  0
INSERT
  5
5BA
100
AcDbEntity
  8
0
  6
CONTINUOUS
100
AcDbBlockReference
  2
DA_IMAGEDIMGROUP_13
 10
0.0
 20
0.0
 30
0.0
  0
INSERT
  5
5BB
100
AcDbEntity
  8
0
  6
CONTINUOUS
100
AcDbBlockReference
  2
DA_IMAGEDIMGROUP_14
 10
0.0
 20
0.0
 30
0.0
  0
INSERT
  5
5BC
100
AcDbEntity
  8
0
  6
CONTINUOUS
100
AcDbBlockReference
  2
DA_IMAGEDIMGROUP_15
 10
0.0
 20
0.0
 30
0.0
  0
INSERT
  5
5BD
100
AcDbEntity
  8
0
  6
CONTINUOUS
100
AcDbBlockReference
  2
DA_IMAGEDIMGROUP_16
 10
0.0
 20
0.0
 30
0.0
  0
INSERT
  5
5BE
100
AcDbEntity
  8
0
  6
CONTINUOUS
100
AcDbBlockReference
  2
DA_IMAGEDIMGROUP_17
 10
0.0
 20
0.0
 30
0.0
  0
INSERT
  5
5BF
100
AcDbEntity
  8
0
  6
CONTINUOUS
100
AcDbBlockReference
  2
DA_IMAGEDIMGROUP_18
 10
0.0
 20
0.0
 30
0.0
  0
INSERT
  5
5C0
100
AcDbEntity
  8
0
  6
CONTINUOUS
100
AcDbBlockReference
  2
DA_IMAGEDIMGROUP_19
 10
0.0
 20
0.0
 30
0.0
  0
INSERT
  5
5C1
100
AcDbEntity
  8
0
  6
CONTINUOUS
100
AcDbBlockReference
  2
DA_IMAGEDIMGROUP_20
 10
0.0
 20
0.0
 30
0.0
  0
INSERT
  5
5C2
100
AcDbEntity
  8
0
  6
CONTINUOUS
100
AcDbBlockReference
  2
DA_IMAGEDIMGROUP_21
 10
0.0
 20
0.0
 30
0.0
  0
INSERT
  5
5C3
100
AcDbEntity
  8
0
  6
CONTINUOUS
100
AcDbBlockReference
  2
DA_IMAGEDIMGROUP_22
 10
0.0
 20
0.0
 30
0.0
  0
INSERT
  5
5C4
100
AcDbEntity
  8
0
  6
CONTINUOUS
100
AcDbBlockReference
  2
DA_IMAGEDIMGROUP_23
 10
0.0
 20
0.0
 30
0.0
  0
INSERT
  5
5C5
100
AcDbEntity
  8
0
  6
CONTINUOUS
100
AcDbBlockReference
  2
DA_IMAGEDIMGROUP_24
 10
0.0
 20
0.0
 30
0.0
  0
INSERT
  5
5C6
100
AcDbEntity
  8
0
  6
CONTINUOUS
100
AcDbBlockReference
  2
DA_IMAGEDIMGROUP_25
 10
0.0
 20
0.0
 30
0.0
  0
INSERT
  5
5C7
100
AcDbEntity
  8
0
  6
CONTINUOUS
100
AcDbBlockReference
  2
DA_IMAGEDIMGROUP_26
 10
0.0
 20
0.0
 30
0.0
  0
INSERT
  5
5C8
100
AcDbEntity
  8
0
  6
CONTINUOUS
100
AcDbBlockReference
  2
DA_IMAGEDIMGROUP_27
 10
0.0
 20
0.0
 30
0.0
  0
ENDSEC
  0
SECTION
  2
OBJECTS
  0
DICTIONARY
  5
19
100
AcDbDictionary
  3
ACAD_GROUP
350
1A
  3
ACAD_MLINESTYLE
350
1B
  0
DICTIONARY
  5
1A
102
{ACAD_REACTORS
330
19
102
}
100
AcDbDictionary
  0
DICTIONARY
  5
1B
102
{ACAD_REACTORS
330
19
102
}
100
AcDbDictionary
  3
STANDARD
350
1C
  0
MLINESTYLE
  5
1C
102
{ACAD_REACTORS
330
1B
102
}
100
AcDbMlineStyle
  2
STANDARD
 70
       0
  3

 62
       0
 51
90.0
 52
90.0
 71
       2
 49
0.5
 62
     256
  6
BYLAYER
 49
-0.5
 62
     256
  6
BYLAYER
  0
ENDSEC
  0
EOF
