  0
SECTION
  2
HEADER
  9
$ACADVER
  1
AC1015
  9
$ACADMAINTVER
 70
    20
  9
$DWGCODEPAGE
  3
ANSI_932
  9
$INSBASE
 10
0.0
 20
0.0
 30
0.0
  9
$EXTMIN
 10
-26.548742
 20
-140.3543100224938
 30
0.0
  9
$EXTMAX
 10
1423.669888803509
 20
629.2857847814341
 30
0.0
  9
$LIMMIN
 10
0.0
 20
0.0
  9
$LIMMAX
 10
12.0
 20
9.0
  9
$ORTHOMODE
 70
     0
  9
$REGENMODE
 70
     1
  9
$FILLMODE
 70
     1
  9
$QTEXTMODE
 70
     0
  9
$MIRRTEXT
 70
     1
  9
$LTSCALE
 40
1.0
  9
$ATTMODE
 70
     1
  9
$TEXTSIZE
 40
0.2
  9
$TRACEWID
 40
0.05
  9
$TEXTSTYLE
  7
Standard
  9
$CLAYER
  8
0
  9
$CELTYPE
  6
ByBlock
  9
$CECOLOR
 62
   256
  9
$CELTSCALE
 40
1.0
  9
$DISPSILH
 70
     0
  9
$DIMSCALE
 40
1.0
  9
$DIMASZ
 40
0.18
  9
$DIMEXO
 40
0.0625
  9
$DIMDLI
 40
0.38
  9
$DIMRND
 40
0.0
  9
$DIMDLE
 40
0.0
  9
$DIMEXE
 40
0.18
  9
$DIMTP
 40
0.0
  9
$DIMTM
 40
0.0
  9
$DIMTXT
 40
0.18
  9
$DIMCEN
 40
0.09
  9
$DIMTSZ
 40
0.0
  9
$DIMTOL
 70
     0
  9
$DIMLIM
 70
     0
  9
$DIMTIH
 70
     1
  9
$DIMTOH
 70
     1
  9
$DIMSE1
 70
     0
  9
$DIMSE2
 70
     0
  9
$DIMTAD
 70
     0
  9
$DIMZIN
 70
     0
  9
$DIMBLK
  1

  9
$DIMASO
 70
     1
  9
$DIMSHO
 70
     1
  9
$DIMPOST
  1

  9
$DIMAPOST
  1

  9
$DIMALT
 70
     0
  9
$DIMALTD
 70
     2
  9
$DIMALTF
 40
25.4
  9
$DIMLFAC
 40
1.0
  9
$DIMTOFL
 70
     0
  9
$DIMTVP
 40
0.0
  9
$DIMTIX
 70
     0
  9
$DIMSOXD
 70
     0
  9
$DIMSAH
 70
     0
  9
$DIMBLK1
  1

  9
$DIMBLK2
  1

  9
$DIMSTYLE
  2
Standard
  9
$DIMCLRD
 70
     0
  9
$DIMCLRE
 70
     0
  9
$DIMCLRT
 70
     0
  9
$DIMTFAC
 40
1.0
  9
$DIMGAP
 40
0.09
  9
$DIMJUST
 70
     0
  9
$DIMSD1
 70
     0
  9
$DIMSD2
 70
     0
  9
$DIMTOLJ
 70
     1
  9
$DIMTZIN
 70
     0
  9
$DIMALTZ
 70
     0
  9
$DIMALTTZ
 70
     0
  9
$DIMUPT
 70
     0
  9
$DIMDEC
 70
     4
  9
$DIMTDEC
 70
     4
  9
$DIMALTU
 70
     2
  9
$DIMALTTD
 70
     2
  9
$DIMTXSTY
  7
Standard
  9
$DIMAUNIT
 70
     0
  9
$DIMADEC
 70
     0
  9
$DIMALTRND
 40
0.0
  9
$DIMAZIN
 70
     0
  9
$DIMDSEP
 70
    46
  9
$DIMATFIT
 70
     3
  9
$DIMFRAC
 70
     0
  9
$DIMLDRBLK
  1

  9
$DIMLUNIT
 70
     2
  9
$DIMLWD
 70
    -2
  9
$DIMLWE
 70
    -2
  9
$DIMTMOVE
 70
     0
  9
$LUNITS
 70
     2
  9
$LUPREC
 70
     4
  9
$SKETCHINC
 40
0.1
  9
$FILLETRAD
 40
0.5
  9
$AUNITS
 70
     0
  9
$AUPREC
 70
     0
  9
$MENU
  1
.
  9
$ELEVATION
 40
0.0
  9
$PELEVATION
 40
0.0
  9
$THICKNESS
 40
0.0
  9
$LIMCHECK
 70
     0
  9
$CHAMFERA
 40
0.5
  9
$CHAMFERB
 40
0.5
  9
$CHAMFERC
 40
1.0
  9
$CHAMFERD
 40
0.0
  9
$SKPOLY
 70
     0
  9
$TDCREATE
 40
2457130.930764248
  9
$TDUCREATE
 40
2457130.555764248
  9
$TDUPDATE
 40
2457781.654785637
  9
$TDUUPDATE
 40
2457781.279785637
  9
$TDINDWG
 40
0.0040031597
  9
$TDUSRTIMER
 40
0.0040031597
  9
$USRTIMER
 70
     1
  9
$ANGBASE
 50
0.0
  9
$ANGDIR
 70
     0
  9
$PDMODE
 70
     0
  9
$PDSIZE
 40
0.0
  9
$PLINEWID
 40
0.0
  9
$SPLFRAME
 70
     0
  9
$SPLINETYPE
 70
     6
  9
$SPLINESEGS
 70
     8
  9
$HANDSEED
  5
731
  9
$SURFTAB1
 70
     6
  9
$SURFTAB2
 70
     6
  9
$SURFTYPE
 70
     6
  9
$SURFU
 70
     6
  9
$SURFV
 70
     6
  9
$UCSBASE
  2

  9
$UCSNAME
  2

  9
$UCSORG
 10
0.0
 20
0.0
 30
0.0
  9
$UCSXDIR
 10
1.0
 20
0.0
 30
0.0
  9
$UCSYDIR
 10
0.0
 20
1.0
 30
0.0
  9
$UCSORTHOREF
  2

  9
$UCSORTHOVIEW
 70
     0
  9
$UCSORGTOP
 10
0.0
 20
0.0
 30
0.0
  9
$UCSORGBOTTOM
 10
0.0
 20
0.0
 30
0.0
  9
$UCSORGLEFT
 10
0.0
 20
0.0
 30
0.0
  9
$UCSORGRIGHT
 10
0.0
 20
0.0
 30
0.0
  9
$UCSORGFRONT
 10
0.0
 20
0.0
 30
0.0
  9
$UCSORGBACK
 10
0.0
 20
0.0
 30
0.0
  9
$PUCSBASE
  2

  9
$PUCSNAME
  2

  9
$PUCSORG
 10
0.0
 20
0.0
 30
0.0
  9
$PUCSXDIR
 10
1.0
 20
0.0
 30
0.0
  9
$PUCSYDIR
 10
0.0
 20
1.0
 30
0.0
  9
$PUCSORTHOREF
  2

  9
$PUCSORTHOVIEW
 70
     0
  9
$PUCSORGTOP
 10
0.0
 20
0.0
 30
0.0
  9
$PUCSORGBOTTOM
 10
0.0
 20
0.0
 30
0.0
  9
$PUCSORGLEFT
 10
0.0
 20
0.0
 30
0.0
  9
$PUCSORGRIGHT
 10
0.0
 20
0.0
 30
0.0
  9
$PUCSORGFRONT
 10
0.0
 20
0.0
 30
0.0
  9
$PUCSORGBACK
 10
0.0
 20
0.0
 30
0.0
  9
$USERI1
 70
     0
  9
$USERI2
 70
     0
  9
$USERI3
 70
     0
  9
$USERI4
 70
     0
  9
$USERI5
 70
     0
  9
$USERR1
 40
0.0
  9
$USERR2
 40
0.0
  9
$USERR3
 40
0.0
  9
$USERR4
 40
0.0
  9
$USERR5
 40
0.0
  9
$WORLDVIEW
 70
     1
  9
$SHADEDGE
 70
     3
  9
$SHADEDIF
 70
    70
  9
$TILEMODE
 70
     1
  9
$MAXACTVP
 70
    64
  9
$PINSBASE
 10
0.0
 20
0.0
 30
0.0
  9
$PLIMCHECK
 70
     0
  9
$PEXTMIN
 10
1.000000000000000E+20
 20
1.000000000000000E+20
 30
1.000000000000000E+20
  9
$PEXTMAX
 10
-1.000000000000000E+20
 20
-1.000000000000000E+20
 30
-1.000000000000000E+20
  9
$PLIMMIN
 10
0.0
 20
0.0
  9
$PLIMMAX
 10
12.0
 20
9.0
  9
$UNITMODE
 70
     0
  9
$VISRETAIN
 70
     1
  9
$PLINEGEN
 70
     0
  9
$PSLTSCALE
 70
     1
  9
$TREEDEPTH
 70
  3020
  9
$CMLSTYLE
  2
Standard
  9
$CMLJUST
 70
     0
  9
$CMLSCALE
 40
1.0
  9
$PROXYGRAPHICS
 70
     1
  9
$MEASUREMENT
 70
     0
  9
$CELWEIGHT
370
    -1
  9
$ENDCAPS
280
     0
  9
$JOINSTYLE
280
     0
  9
$LWDISPLAY
290
     0
  9
$INSUNITS
 70
     0
  9
$HYPERLINKBASE
  1

  9
$STYLESHEET
  1

  9
$XEDIT
290
     1
  9
$CEPSNTYPE
380
     0
  9
$PSTYLEMODE
290
     1
  9
$FINGERPRINTGUID
  2
{A603E539-47F5-4019-9741-EE8CE2965147}
  9
$VERSIONGUID
  2
{4B7F6792-ABA5-49E6-A888-91D8918508F1}
  9
$EXTNAMES
290
     1
  9
$PSVPSCALE
 40
0.0
  9
$OLESTARTUP
290
     0
  0
ENDSEC
  0
SECTION
  2
CLASSES
  0
CLASS
  1
ACDBDICTIONARYWDFLT
  2
AcDbDictionaryWithDefault
  3
ObjectDBX Classes
 90
        0
280
     0
281
     0
  0
CLASS
  1
MATERIAL
  2
AcDbMaterial
  3
ObjectDBX Classes
 90
     1153
280
     0
281
     0
  0
CLASS
  1
VISUALSTYLE
  2
AcDbVisualStyle
  3
ObjectDBX Classes
 90
     4095
280
     0
281
     0
  0
CLASS
  1
TABLESTYLE
  2
AcDbTableStyle
  3
ObjectDBX Classes
 90
     4095
280
     0
281
     0
  0
CLASS
  1
SCALE
  2
AcDbScale
  3
ObjectDBX Classes
 90
     1153
280
     0
281
     0
  0
CLASS
  1
MLEADERSTYLE
  2
AcDbMLeaderStyle
  3
ACDB_MLEADERSTYLE_CLASS
 90
     4095
280
     0
281
     0
  0
CLASS
  1
ACDBSECTIONVIEWSTYLE
  2
AcDbSectionViewStyle
  3
ObjectDBX Classes
 90
     1025
280
     0
281
     0
  0
CLASS
  1
ACDBDETAILVIEWSTYLE
  2
AcDbDetailViewStyle
  3
ObjectDBX Classes
 90
     1025
280
     0
281
     0
  0
CLASS
  1
ACME_DOCUMENT
  2
AcMeDbDoc
  3
AcMeServices
 90
     1024
280
     0
281
     0
  0
CLASS
  1
AMGSETTINGSOBJ
  2
AmgSettingsObj
  3
"AcadM|Product Description: AutoCAD Mechanical|Company: Autodesk, Inc."
 90
     1024
280
     0
281
     0
  0
CLASS
  1
ACMESCOPE
  2
AcMeScope
  3
AcMeServices
 90
     1024
280
     0
281
     0
  0
CLASS
  1
ACMECOMMANDHISTORY
  2
AcMeCommandHistory
  3
AcMeServices
 90
     1024
280
     0
281
     0
  0
CLASS
  1
ACIMSYSVARMAN
  2
AcImSysVarManager
  3
AcMeServices
 90
     1024
280
     0
281
     0
  0
CLASS
  1
ACIMINTSYSVAR
  2
AcImIntSysVar
  3
AcMeServices
 90
     1024
280
     0
281
     0
  0
CLASS
  1
ACMESTATEMGR
  2
AcMeStateMgr
  3
AcMeServices
 90
     1024
280
     0
281
     0
  0
CLASS
  1
ACDBENTITYCACHE
  2
AcMeEntityCache
  3
AcMeServices
 90
     1024
280
     0
281
     0
  0
CLASS
  1
ACGREFMASTER
  2
AcGrefMaster
  3
AcAttribServices
 90
     1024
280
     0
281
     0
  0
CLASS
  1
ACME_DATABASE
  2
AcMeDbDatabase
  3
AcMeServices
 90
     1024
280
     0
281
     0
  0
CLASS
  1
ACRFINSADJUSTERMGR
  2
AcRfInsAdjusterMgr
  3
AcMeServices
 90
     1024
280
     0
281
     0
  0
CLASS
  1
ACGREFACADMASTER
  2
AcGrefacadMaster
  3
AcGrefServices
 90
     1024
280
     0
281
     0
  0
CLASS
  1
AMDTMENUSTATEMGR
  2
AmdtMenuStateMgr
  3
McadcomServices
 90
     1024
280
     0
281
     0
  0
CLASS
  1
AMDTMCOMMENUSTATE
  2
AmdtMcomMenuState
  3
McadcomServices
 90
     1024
280
     0
281
     0
  0
CLASS
  1
AMIMASTER
  2
AmiMaster
  3
AmiServices
 90
     1024
280
     0
281
     0
  0
CLASS
  1
MAPIAMMOUDLE
  2
MApiAmModule
  3
MApiAmServices
 90
     1024
280
     0
281
     0
  0
CLASS
  1
ACIMSTRSYSVAR
  2
AcImStrSysVar
  3
AcMeServices
 90
     1024
280
     0
281
     0
  0
CLASS
  1
AMDTAMMENUSTATE
  2
AmdtAmMenuState
  3
DesignerAssemblies
 90
     1024
280
     0
281
     0
  0
CLASS
  1
ACAMPROJECT
  2
AcAmProject
  3
DesignerAssemblies
 90
     1024
280
     0
281
     0
  0
CLASS
  1
ACAMGRCOMPDEF
  2
AcAmGrCompDef
  3
DesignerAssemblies
 90
     1024
280
     0
281
     0
  0
CLASS
  1
ACAMCOMPDEF
  2
AcAmCompDef
  3
DesignerAssemblies
 90
     1024
280
     0
281
     0
  0
CLASS
  1
ACAMCOMPDEFMGR
  2
AcAmCompDefMgr
  3
DesignerAssemblies
 90
     1024
280
     0
281
     0
  0
CLASS
  1
AMCONTEXTMGR
  2
AcAmContextMgr
  3
DesignerAssemblies
 90
     1024
280
     0
281
     0
  0
CLASS
  1
ACAMCONTEXTMODELER
  2
AcAmContextModeler
  3
DesignerAssemblies
 90
     1024
280
     0
281
     0
  0
CLASS
  1
ACMDATADICTIONARY
  2
AcmDataDictionary
  3
"AcmSymBB|Product Description: AutoCAD Mechanical|Company: Autodesk, Inc."
 90
     1024
280
     0
281
     0
  0
CLASS
  1
ACAMGRCOMPDEFSET
  2
AcAmGrCompDefSet
  3
DesignerAssemblies
 90
     1024
280
     0
281
     0
  0
CLASS
  1
AMDTBROWSERDBTAB
  2
AmdtBrowserDbTab
  3
McadcomServices
 90
     1024
280
     0
281
     0
  0
CLASS
  1
CBROWSERAPPOBJECT
  2
CBrowserAppObject
  3
McadcomServices
 90
     1024
280
     0
281
     0
  0
CLASS
  1
DM_PLACEHOLDER
  2
AcDmSelsetPlaceholder
  3
McadcomServices
 90
     1024
280
     0
281
     0
  0
CLASS
  1
EXACXREFPANELOBJECT
  2
ExAcXREFPanelObject
  3
EXAC_ESW
 90
     1025
280
     0
281
     0
  0
CLASS
  1
NPOCOLLECTION
  2
AcDbImpNonPersistentObjectsCollection
  3
ObjectDBX Classes
 90
     1153
280
     0
281
     0
  0
CLASS
  1
ACMSTANDARDANSI
  2
AcmStandardANSI
  3
"Amdt_StdImp|Product Description: AutoCAD Mechanical|Company: Autodesk, Inc."
 90
     1024
280
     0
281
     0
  0
CLASS
  1
ACMSURFSTANDARDANSI
  2
AcmSurfTextStdANSI
  3
"Amdt_StdImp|Product Description: AutoCAD Mechanical|Company: Autodesk, Inc."
 90
     1024
280
     0
281
     0
  0
CLASS
  1
ACMFCFSTANDARDANSI
  2
AcmFCFStdANSI
  3
"Amdt_StdImp|Product Description: AutoCAD Mechanical|Company: Autodesk, Inc."
 90
     1024
280
     0
281
     0
  0
CLASS
  1
ACMWELDSTANDARDANSI
  2
AcmWeldingStdANSI
  3
"Amdt_StdImp|Product Description: AutoCAD Mechanical|Company: Autodesk, Inc."
 90
     1024
280
     0
281
     0
  0
CLASS
  1
ACMIDSTANDARDANSI
  2
AcmIdStdANSI
  3
"Amdt_StdImp|Product Description: AutoCAD Mechanical|Company: Autodesk, Inc."
 90
     1024
280
     0
281
     0
  0
CLASS
  1
ACMDATUMSTANDARDANSI
  2
AcmDatumStdANSI
  3
"Amdt_StdImp|Product Description: AutoCAD Mechanical|Company: Autodesk, Inc."
 90
     1024
280
     0
281
     0
  0
CLASS
  1
ACMBOMSTANDARDANSI
  2
AcmBOMStdANSI
  3
"Amdt_StdImp|Product Description: AutoCAD Mechanical|Company: Autodesk, Inc."
 90
     1024
280
     0
281
     0
  0
CLASS
  1
ACMDETAILSTANDARDANSI
  2
AmdtDetailSymStdANSI
  3
"Amdt_StdImp|Product Description: AutoCAD Mechanical|Company: Autodesk, Inc."
 90
     1024
280
     0
281
     0
  0
CLASS
  1
ACMSECTIONSTANDARDANSI
  2
AmdtSectionSymStdANSI
  3
"Amdt_StdImp|Product Description: AutoCAD Mechanical|Company: Autodesk, Inc."
 90
     1024
280
     0
281
     0
  0
CLASS
  1
ACMCENTERLINESTANDARDANSI
  2
AmdtCenterLineStdANSI
  3
"Amdt_StdImp|Product Description: AutoCAD Mechanical|Company: Autodesk, Inc."
 90
     1024
280
     0
281
     0
  0
CLASS
  1
ACMTHREADLINESTANDARDANSI
  2
AmdtThreadLineStdANSI
  3
"Amdt_StdImp|Product Description: AutoCAD Mechanical|Company: Autodesk, Inc."
 90
     1024
280
     0
281
     0
  0
CLASS
  1
ACMNOTESTANDARDANSI
  2
AmdtNoteStdANSI
  3
"Amdt_StdImp|Product Description: AutoCAD Mechanical|Company: Autodesk, Inc."
 90
     1024
280
     0
281
     0
  0
CLASS
  1
ACMTAPERSTANDARDANSI
  2
AcmTaperStdANSI
  3
"Amdt_StdImp|Product Description: AutoCAD Mechanical|Company: Autodesk, Inc."
 90
     1024
280
     0
281
     0
  0
CLASS
  1
ACMANOOTATIONVIEWSTANDARDANSI
  2
AmdtAnViewStdANSI
  3
"Amdt_StdImp|Product Description: AutoCAD Mechanical|Company: Autodesk, Inc."
 90
     1024
280
     0
281
     0
  0
CLASS
  1
ACAMGLAYSTD
  2
AcAmgLayStd
  3
"AmgLay|Product Description: AutoCAD Mechanical|Company: Autodesk, Inc."
 90
     1024
280
     0
281
     0
  0
CLASS
  1
ACAMGDIMSTD
  2
AcAmgDimStd
  3
"AmgDim|Product Description: AutoCAD Mechanical|Company: Autodesk, Inc."
 90
     1024
280
     0
281
     0
  0
CLASS
  1
AMGOBJPROPCFG
  2
AmgObjPropCfg
  3
"AmgLay|Product Description: AutoCAD Mechanical|Company: Autodesk, Inc."
 90
     1024
280
     0
281
     0
  0
CLASS
  1
ACAMGHOLECHARTSTDANSI
  2
AcAmgHoleChartStdANSI
  3
AmgDim|Product Description: AutoCAD Mechanical|Company: Autodesk, Inc.
 90
     1024
280
     0
281
     0
  0
CLASS
  1
ACAMGTITLESTD
  2
AcAmgTitleStd
  3
"AmgTitle|Product Description: AutoCAD Mechanical|Company: Autodesk, Inc."
 90
     1024
280
     0
281
     0
  0
CLASS
  1
AMDTNOTETEMPLATEDB
  2
AmdtNoteTemplateDB
  3
AcmSymBB|Product Description: AutoCAD Mechanical|Company: Autodesk, Inc.
 90
     1024
280
     0
281
     0
  0
CLASS
  1
ACAMGFILTERDAT
  2
AcAmgFilterDat
  3
"AcadM|Product Description: AutoCAD Mechanical|Company: Autodesk, Inc."
 90
     1024
280
     0
281
     0
  0
CLASS
  1
SORTENTSTABLE
  2
AcDbSortentsTable
  3
ObjectDBX Classes
 90
        0
280
     0
281
     0
  0
CLASS
  1
DIMASSOC
  2
AcDbDimAssoc
  3
"AcDbDimAssoc|Product Desc:     AcDim ARX App For Dimension|Company:          Autodesk, Inc.|WEB Address:      www.autodesk.com"
 90
        0
280
     0
281
     0
  0
CLASS
  1
CELLSTYLEMAP
  2
AcDbCellStyleMap
  3
ObjectDBX Classes
 90
     1152
280
     0
281
     0
  0
CLASS
  1
DICTIONARYVAR
  2
AcDbDictionaryVar
  3
ObjectDBX Classes
 90
        0
280
     0
281
     0
  0
CLASS
  1
ACDBPLACEHOLDER
  2
AcDbPlaceHolder
  3
ObjectDBX Classes
 90
        0
280
     0
281
     0
  0
CLASS
  1
LAYOUT
  2
AcDbLayout
  3
ObjectDBX Classes
 90
        0
280
     0
281
     0
  0
ENDSEC
  0
SECTION
  2
TABLES
  0
TABLE
  2
VPORT
  5
8
330
0
100
AcDbSymbolTable
 70
     1
  0
VPORT
  5
151
330
8
100
AcDbSymbolTableRecord
100
AcDbViewportTableRecord
  2
*Active
 70
     0
 10
0.0
 20
0.0
 11
1.0
 21
1.0
 12
489.4478109439249
 22
269.5347909499269
 13
0.0
 23
0.0
 14
0.5
 24
0.5
 15
0.5
 25
0.5
 16
0.0
 26
0.0
 36
1.0
 17
0.0
 27
0.0
 37
0.0
 40
2166.231798209079
 41
1.681623931623931
 42
50.0
 43
0.0
 44
0.0
 50
0.0
 51
0.0
 71
     0
 72
   100
 73
     1
 74
     3
 75
     0
 76
     0
 77
     0
 78
     0
281
     0
 65
     1
110
0.0
120
0.0
130
0.0
111
1.0
121
0.0
131
0.0
112
0.0
122
1.0
132
0.0
 79
     0
146
0.0
1001
ACAD_NAV_VCDISPLAY
1070
     3
  0
ENDTAB
  0
TABLE
  2
LTYPE
  5
5
330
0
100
AcDbSymbolTable
 70
     8
  0
LTYPE
  5
14
330
5
100
AcDbSymbolTableRecord
100
AcDbLinetypeTableRecord
  2
ByBlock
 70
     0
  3

 72
    65
 73
     0
 40
0.0
  0
LTYPE
  5
15
330
5
100
AcDbSymbolTableRecord
100
AcDbLinetypeTableRecord
  2
ByLayer
 70
     0
  3

 72
    65
 73
     0
 40
0.0
  0
LTYPE
  5
16
330
5
100
AcDbSymbolTableRecord
100
AcDbLinetypeTableRecord
  2
Continuous
 70
     0
  3
Solid line
 72
    65
 73
     0
 40
0.0
  0
LTYPE
  5
1A1
330
5
100
AcDbSymbolTableRecord
100
AcDbLinetypeTableRecord
  2
PHANTOM2
 70
     0
  3
Phantom (.5x) ___ _ _ ___ _ _ ___ _ _ ___ _ _
 72
    65
 73
     6
 40
1.25
 49
0.625
 74
     0
 49
-0.125
 74
     0
 49
0.125
 74
     0
 49
-0.125
 74
     0
 49
0.125
 74
     0
 49
-0.125
 74
     0
  0
LTYPE
  5
1B6
330
5
100
AcDbSymbolTableRecord
100
AcDbLinetypeTableRecord
  2
HIDDEN
 70
     0
  3
Hidden __ __ __ __ __ __ __ __ __ __ __ __ __ _
 72
    65
 73
     2
 40
0.375
 49
0.25
 74
     0
 49
-0.125
 74
     0
  0
LTYPE
  5
1B7
330
5
100
AcDbSymbolTableRecord
100
AcDbLinetypeTableRecord
  2
CENTER
 70
     0
  3
Center ____ _ ____ _ ____ _ ____ _ ____ _ ____
 72
    65
 73
     4
 40
2.0
 49
1.25
 74
     0
 49
-0.25
 74
     0
 49
0.25
 74
     0
 49
-0.25
 74
     0
  0
LTYPE
  5
1F3
330
5
100
AcDbSymbolTableRecord
100
AcDbLinetypeTableRecord
  2
CENTER2
 70
     0
  3
Center (.5x) ___ _ ___ _ ___ _ ___ _ ___ _ ___
 72
    65
 73
     4
 40
1.125
 49
0.75
 74
     0
 49
-0.125
 74
     0
 49
0.125
 74
     0
 49
-0.125
 74
     0
  0
LTYPE
  5
1F4
330
5
100
AcDbSymbolTableRecord
100
AcDbLinetypeTableRecord
  2
HIDDEN2
 70
     0
  3
Hidden (.5x) _ _ _ _ _ _ _ _ _ _ _ _ _ _ _ _ _
 72
    65
 73
     2
 40
0.1875
 49
0.125
 74
     0
 49
-0.0625
 74
     0
  0
LTYPE
  5
202
330
5
100
AcDbSymbolTableRecord
100
AcDbLinetypeTableRecord
  2
ACANSTGB
 70
     0
  3
__ . . __ . .
 72
    65
 73
     6
 40
0.35433070866
 49
0.15748031496
 74
     0
 49
-0.03937007874
 74
     0
 49
0.03937007874
 74
     0
 49
-0.03937007874
 74
     0
 49
0.03937007874
 74
     0
 49
-0.03937007874
 74
     0
  0
LTYPE
  5
203
330
5
100
AcDbSymbolTableRecord
100
AcDbLinetypeTableRecord
  2
ACANSTGL
 70
     0
  3
_ _ _ _ _
 72
    65
 73
     2
 40
0.11811023622
 49
0.07874015748
 74
     0
 49
-0.03937007874
 74
     0
  0
ENDTAB
  0
TABLE
  2
LAYER
  5
2
330
0
100
AcDbSymbolTable
 70
     3
  0
LAYER
  5
10
102
{ACAD_XDICTIONARY
360
6D9
102
}
330
2
100
AcDbSymbolTableRecord
100
AcDbLayerTableRecord
  2
0
 70
     0
 62
     7
  6
Continuous
370
    -3
390
F
  0
LAYER
  5
512
102
{ACAD_XDICTIONARY
360
6DB
102
}
330
2
100
AcDbSymbolTableRecord
100
AcDbLayerTableRecord
  2
AM_CL
 70
     0
 62
     1
  6
Continuous
370
    15
390
F
1001
AcAecLayerStandard
1000

1000

  0
LAYER
  5
51A
102
{ACAD_XDICTIONARY
360
6DD
102
}
330
2
100
AcDbSymbolTableRecord
100
AcDbLayerTableRecord
  2
AM_5
 70
     0
 62
     3
  6
Continuous
370
    15
390
F
1001
AcAecLayerStandard
1000

1000

  0
ENDTAB
  0
TABLE
  2
STYLE
  5
3
330
0
100
AcDbSymbolTable
 70
     3
  0
STYLE
  5
11
330
3
100
AcDbSymbolTableRecord
100
AcDbTextStyleTableRecord
  2
Standard
 70
     0
 40
0.0
 41
1.0
 50
0.0
 71
     0
 42
0.2
  3
txt
  4

  0
STYLE
  5
200
330
3
100
AcDbSymbolTableRecord
100
AcDbTextStyleTableRecord
  2
ACANSTS
 70
     0
 40
1.0
 41
1.0
 50
0.0
 71
     0
 42
0.2
  3
romans.shx
  4
extfont.shx
  0
STYLE
  5
201
330
3
100
AcDbSymbolTableRecord
100
AcDbTextStyleTableRecord
  2
ACANSGDT
 70
     0
 40
0.0
 41
1.0
 50
0.0
 71
     0
 42
0.2
  3
amgdt.shx
  4

  0
ENDTAB
  0
TABLE
  2
VIEW
  5
6
330
0
100
AcDbSymbolTable
 70
     0
  0
ENDTAB
  0
TABLE
  2
UCS
  5
7
330
0
100
AcDbSymbolTable
 70
     0
  0
ENDTAB
  0
TABLE
  2
APPID
  5
9
330
0
100
AcDbSymbolTable
 70
    14
  0
APPID
  5
12
330
9
100
AcDbSymbolTableRecord
100
AcDbRegAppTableRecord
  2
ACAD
 70
     0
  0
APPID
  5
1AF
330
9
100
AcDbSymbolTableRecord
100
AcDbRegAppTableRecord
  2
MCAD_NO_VIS
 70
     0
  0
APPID
  5
1B0
330
9
100
AcDbSymbolTableRecord
100
AcDbRegAppTableRecord
  2
ACAD_TEMP_GRAPHIC
 70
     0
  0
APPID
  5
1BC
330
9
100
AcDbSymbolTableRecord
100
AcDbRegAppTableRecord
  2
ACATTRIBSERVICES
 70
     0
  0
APPID
  5
1D4
330
9
100
AcDbSymbolTableRecord
100
AcDbRegAppTableRecord
  2
DESIGNERASSEMBLIES
 70
     0
  0
APPID
  5
1F0
330
9
100
AcDbSymbolTableRecord
100
AcDbRegAppTableRecord
  2
ACAD_DSTYLE_DIMJAG
 70
     0
  0
APPID
  5
1F1
330
9
100
AcDbSymbolTableRecord
100
AcDbRegAppTableRecord
  2
ACAD_DSTYLE_DIMBREAK
 70
     0
  0
APPID
  5
20B
330
9
100
AcDbSymbolTableRecord
100
AcDbRegAppTableRecord
  2
ACAD_NAV_VCDISPLAY
 70
     0
  0
APPID
  5
513
330
9
100
AcDbSymbolTableRecord
100
AcDbRegAppTableRecord
  2
AcAecLayerStandard
 70
     0
  0
APPID
  5
72A
330
9
100
AcDbSymbolTableRecord
100
AcDbRegAppTableRecord
  2
ACAD_MLEADERVER
 70
     0
  0
APPID
  5
72D
330
9
100
AcDbSymbolTableRecord
100
AcDbRegAppTableRecord
  2
ACAD_DSTYLE_DIMARC_LENGTH_SYMBOL
 70
     0
  0
APPID
  5
72E
330
9
100
AcDbSymbolTableRecord
100
AcDbRegAppTableRecord
  2
ACAD_DSTYLE_DIM_LINETYPE
 70
     0
  0
APPID
  5
72F
330
9
100
AcDbSymbolTableRecord
100
AcDbRegAppTableRecord
  2
ACAD_DSTYLE_DIM_EXT1_LINETYPE
 70
     0
  0
APPID
  5
730
330
9
100
AcDbSymbolTableRecord
100
AcDbRegAppTableRecord
  2
ACAD_DSTYLE_DIM_EXT2_LINETYPE
 70
     0
  0
ENDTAB
  0
TABLE
  2
DIMSTYLE
  5
A
330
0
100
AcDbSymbolTable
 70
     7
100
AcDbDimStyleTable
 71
     0
  0
DIMSTYLE
105
21
330
A
100
AcDbSymbolTableRecord
100
AcDbDimStyleTableRecord
  2
Standard
 70
     0
340
11
  0
DIMSTYLE
105
1EF
102
{ACAD_REACTORS
330
1DF
102
}
330
A
100
AcDbSymbolTableRecord
100
AcDbDimStyleTableRecord
  2
AM_ANSI
 70
     0
  4
mm
 41
0.12
 42
0.05
 43
0.5
 44
0.1
 47
0.1
 48
0.1
 78
     7
 79
     2
140
0.12
141
0.0
146
0.71
147
0.06
176
   256
177
   256
178
     2
274
     4
284
     7
340
11
371
    -1
372
    -1
1001
ACAD_DSTYLE_DIMJAG
1070
   388
1040
1.5
1001
ACAD_DSTYLE_DIMBREAK
1070
   391
1040
0.125
1001
ACAD_DSTYLE_DIMARC_LENGTH_SYMBOL
1070
   379
1070
     1
1001
ACAD_DSTYLE_DIM_LINETYPE
1070
   380
1005
14
1001
ACAD_DSTYLE_DIM_EXT1_LINETYPE
1070
   381
1005
14
1001
ACAD_DSTYLE_DIM_EXT2_LINETYPE
1070
   382
1005
14
  0
DIMSTYLE
105
1F5
330
A
100
AcDbSymbolTableRecord
100
AcDbDimStyleTableRecord
  2
AM_ANSI$3
 70
     0
  4
mm
 41
0.12
 42
0.05
 43
0.5
 44
0.1
 47
0.1
 48
0.1
 78
     7
 79
     2
140
0.12
141
0.0
146
0.71
147
0.06
176
   256
177
   256
178
     2
274
     4
284
     7
288
     1
289
     0
340
11
371
    -1
372
    -1
1001
ACAD_DSTYLE_DIMBREAK
1070
   391
1040
0.125
1001
ACAD_DSTYLE_DIMJAG
1070
   388
1040
1.5
1001
ACAD_DSTYLE_DIMARC_LENGTH_SYMBOL
1070
   379
1070
     1
1001
ACAD_DSTYLE_DIM_LINETYPE
1070
   380
1005
14
1001
ACAD_DSTYLE_DIM_EXT1_LINETYPE
1070
   381
1005
14
1001
ACAD_DSTYLE_DIM_EXT2_LINETYPE
1070
   382
1005
14
  0
DIMSTYLE
105
1F6
330
A
100
AcDbSymbolTableRecord
100
AcDbDimStyleTableRecord
  2
AM_ANSI$4
 70
     0
  4
mm
 41
0.12
 42
0.05
 43
0.5
 44
0.1
 47
0.1
 48
0.1
 78
     7
 79
     2
140
0.12
141
0.0
146
0.71
147
0.06
176
   256
177
   256
178
     2
274
     4
284
     7
288
     1
289
     0
340
11
371
    -1
372
    -1
1001
ACAD_DSTYLE_DIMBREAK
1070
   391
1040
0.125
1001
ACAD_DSTYLE_DIMJAG
1070
   388
1040
1.5
1001
ACAD_DSTYLE_DIMARC_LENGTH_SYMBOL
1070
   379
1070
     1
1001
ACAD_DSTYLE_DIM_LINETYPE
1070
   380
1005
14
1001
ACAD_DSTYLE_DIM_EXT1_LINETYPE
1070
   381
1005
14
1001
ACAD_DSTYLE_DIM_EXT2_LINETYPE
1070
   382
1005
14
  0
DIMSTYLE
105
1F7
330
A
100
AcDbSymbolTableRecord
100
AcDbDimStyleTableRecord
  2
AM_ANSI$7
 70
     0
  4
mm
 41
0.12
 42
0.05
 43
0.5
 44
0.1
 47
0.1
 48
0.1
 78
     7
 79
     2
140
0.12
141
0.0
146
0.71
147
0.06
176
   256
177
   256
178
     2
274
     4
284
     7
340
11
371
    -1
372
    -1
1001
ACAD_DSTYLE_DIMBREAK
1070
   391
1040
0.125
1001
ACAD_DSTYLE_DIMJAG
1070
   388
1040
1.5
1001
ACAD_DSTYLE_DIMARC_LENGTH_SYMBOL
1070
   379
1070
     1
1001
ACAD_DSTYLE_DIM_LINETYPE
1070
   380
1005
14
1001
ACAD_DSTYLE_DIM_EXT1_LINETYPE
1070
   381
1005
14
1001
ACAD_DSTYLE_DIM_EXT2_LINETYPE
1070
   382
1005
14
  0
DIMSTYLE
105
1F8
330
A
100
AcDbSymbolTableRecord
100
AcDbDimStyleTableRecord
  2
AM_ANSI$SF
 70
     0
  4
mm
 41
0.12
 42
0.05
 43
0.5
 44
0.1
 47
0.1
 48
0.1
 75
     1
 76
     1
 78
     7
 79
     2
140
0.12
141
0.0
146
0.71
147
0.06
176
   256
177
   256
178
     2
274
     4
284
     7
340
11
371
    -1
372
    -1
1001
ACAD_DSTYLE_DIMBREAK
1070
   391
1040
0.125
1001
ACAD_DSTYLE_DIMJAG
1070
   388
1040
1.5
1001
ACAD_DSTYLE_DIMARC_LENGTH_SYMBOL
1070
   379
1070
     1
1001
ACAD_DSTYLE_DIM_LINETYPE
1070
   380
1005
14
1001
ACAD_DSTYLE_DIM_EXT1_LINETYPE
1070
   381
1005
14
1001
ACAD_DSTYLE_DIM_EXT2_LINETYPE
1070
   382
1005
14
  0
DIMSTYLE
105
1FD
330
A
100
AcDbSymbolTableRecord
100
AcDbDimStyleTableRecord
  2
AM_ANSI$SH
 70
     0
  4
mm
 41
0.12
 42
0.05
 43
0.5
 44
0.1
 47
0.1
 48
0.1
 75
     1
 76
     1
 78
     7
 79
     2
140
0.12
141
0.0
146
0.71
147
0.06
173
     1
176
   256
177
   256
178
     2
274
     4
284
     7
340
11
343
1F9
371
    -1
372
    -1
1001
ACAD_DSTYLE_DIMBREAK
1070
   391
1040
0.125
1001
ACAD_DSTYLE_DIMJAG
1070
   388
1040
1.5
1001
ACAD_DSTYLE_DIMARC_LENGTH_SYMBOL
1070
   379
1070
     1
1001
ACAD_DSTYLE_DIM_LINETYPE
1070
   380
1005
14
1001
ACAD_DSTYLE_DIM_EXT1_LINETYPE
1070
   381
1005
14
1001
ACAD_DSTYLE_DIM_EXT2_LINETYPE
1070
   382
1005
14
  0
ENDTAB
  0
TABLE
  2
BLOCK_RECORD
  5
1
330
0
100
AcDbSymbolTable
 70
     4
  0
BLOCK_RECORD
  5
1D
102
{ACAD_XDICTIONARY
360
515
102
}
330
1
100
AcDbSymbolTableRecord
100
AcDbBlockTableRecord
  2
*Model_Space
340
1E
  0
BLOCK_RECORD
  5
1B
330
1
100
AcDbSymbolTableRecord
100
AcDbBlockTableRecord
  2
*Paper_Space
340
1C
  0
BLOCK_RECORD
  5
1F9
330
1
100
AcDbSymbolTableRecord
100
AcDbBlockTableRecord
  2
GENAXEH
340
0
  0
ENDTAB
  0
ENDSEC
  0
SECTION
  2
BLOCKS
  0
BLOCK
  5
152
330
1D
100
AcDbEntity
  8
0
100
AcDbBlockBegin
  2
*Model_Space
 70
     0
 10
0.0
 20
0.0
 30
0.0
  3
*Model_Space
  1

  0
ENDBLK
  5
153
330
1D
100
AcDbEntity
  8
0
100
AcDbBlockEnd
  0
BLOCK
  5
154
330
1B
100
AcDbEntity
 67
     1
  8
0
100
AcDbBlockBegin
  2
*Paper_Space
 70
     0
 10
0.0
 20
0.0
 30
0.0
  3
*Paper_Space
  1

  0
ENDBLK
  5
155
330
1B
100
AcDbEntity
 67
     1
  8
0
100
AcDbBlockEnd
  0
BLOCK
  5
1FB
330
1F9
100
AcDbEntity
  8
0
100
AcDbBlockBegin
  2
GENAXEH
 70
     0
 10
0.0
 20
0.0
 30
0.0
  3
GENAXEH
  1

  0
LINE
  5
1FA
330
1F9
100
AcDbEntity
  8
0
100
AcDbLine
 10
-1.0
 20
0.0
 30
0.0
 11
1.0
 21
0.0
 31
0.0
  0
ENDBLK
  5
1FC
330
1F9
100
AcDbEntity
  8
0
100
AcDbBlockEnd
  0
ENDSEC
  0
SECTION
  2
ENTITIES
  0
LINE
  5
22
330
1D
100
AcDbEntity
  8
0
  6
Continuous
100
AcDbLine
 10
14.015225
 20
38.50762
 30
0.0
 11
14.015225
 21
43.311687
 31
0.0
  0
LINE
  5
23
330
1D
100
AcDbEntity
  8
0
  6
Continuous
100
AcDbLine
 10
13.510215
 20
38.78827
 30
0.0
 11
14.015225
 21
38.50762
 31
0.0
  0
LINE
  5
24
330
1D
100
AcDbEntity
  8
0
  6
Continuous
100
AcDbLine
 10
12.163535
 20
39.05004
 30
0.0
 11
13.510215
 21
38.78827
 31
0.0
  0
LINE
  5
25
330
1D
100
AcDbEntity
  8
0
  6
Continuous
100
AcDbLine
 10
9.919064999999999
 20
39.28183
 30
0.0
 11
12.163535
 21
39.05004
 31
0.0
  0
LINE
  5
26
330
1D
100
AcDbEntity
  8
0
  6
Continuous
100
AcDbLine
 10
6.945134999999999
 20
39.45636
 30
0.0
 11
9.919064999999999
 21
39.28183
 31
0.0
  0
LINE
  5
27
330
1D
100
AcDbEntity
  8
0
  6
Continuous
100
AcDbLine
 10
3.578425
 20
39.56147
 30
0.0
 11
6.945134999999999
 21
39.45636
 31
0.0
  0
LINE
  5
28
330
1D
100
AcDbEntity
  8
0
  6
Continuous
100
AcDbLine
 10
-0.012725
 20
39.60088
 30
0.0
 11
3.578425
 21
39.56147
 31
0.0
  0
LINE
  5
29
330
1D
100
AcDbEntity
  8
0
  6
Continuous
100
AcDbLine
 10
13.678555
 20
37.91077
 30
0.0
 11
14.015225
 21
38.50762
 31
0.0
  0
LINE
  5
2A
330
1D
100
AcDbEntity
  8
0
  6
Continuous
100
AcDbLine
 10
13.173545
 20
38.18569
 30
0.0
 11
13.678555
 21
37.91077
 31
0.0
  0
LINE
  5
2B
330
1D
100
AcDbEntity
  8
0
  6
Continuous
100
AcDbLine
 10
14.015225
 20
38.50762
 30
0.0
 11
13.510215
 21
38.78827
 31
0.0
  0
LINE
  5
2C
330
1D
100
AcDbEntity
  8
0
  6
Continuous
100
AcDbLine
 10
11.826865
 20
38.44004
 30
0.0
 11
13.173545
 21
38.18569
 31
0.0
  0
LINE
  5
2D
330
1D
100
AcDbEntity
  8
0
  6
Continuous
100
AcDbLine
 10
13.510215
 20
38.78827
 30
0.0
 11
12.163535
 21
39.05004
 31
0.0
  0
LINE
  5
2E
330
1D
100
AcDbEntity
  8
0
  6
Continuous
100
AcDbLine
 10
9.638505
 20
38.6624
 30
0.0
 11
11.826865
 21
38.44004
 31
0.0
  0
LINE
  5
2F
330
1D
100
AcDbEntity
  8
0
  6
Continuous
100
AcDbLine
 10
12.163535
 20
39.05004
 30
0.0
 11
9.919064999999999
 21
39.28183
 31
0.0
  0
LINE
  5
30
330
1D
100
AcDbEntity
  8
0
  6
Continuous
100
AcDbLine
 10
6.776805
 20
38.83321
 30
0.0
 11
9.638505
 21
38.6624
 31
0.0
  0
LINE
  5
31
330
1D
100
AcDbEntity
  8
0
  6
Continuous
100
AcDbLine
 10
9.919064999999999
 20
39.28183
 30
0.0
 11
6.945134999999999
 21
39.45636
 31
0.0
  0
LINE
  5
32
330
1D
100
AcDbEntity
  8
0
  6
Continuous
100
AcDbLine
 10
3.522314999999999
 20
38.93832
 30
0.0
 11
6.776805
 21
38.83321
 31
0.0
  0
LINE
  5
33
330
1D
100
AcDbEntity
  8
0
  6
Continuous
100
AcDbLine
 10
6.945134999999999
 20
39.45636
 30
0.0
 11
3.578425
 21
39.56147
 31
0.0
  0
LINE
  5
34
330
1D
100
AcDbEntity
  8
0
  6
Continuous
100
AcDbLine
 10
-0.012725
 20
38.97774
 30
0.0
 11
3.522314999999999
 21
38.93832
 31
0.0
  0
LINE
  5
35
330
1D
100
AcDbEntity
  8
0
  6
Continuous
100
AcDbLine
 10
3.578425
 20
39.56147
 30
0.0
 11
-0.012725
 21
39.60088
 31
0.0
  0
LINE
  5
36
330
1D
100
AcDbEntity
  8
0
  6
Continuous
100
AcDbLine
 10
13.678555
 20
37.91077
 30
0.0
 11
13.173545
 21
38.18569
 31
0.0
  0
LINE
  5
37
330
1D
100
AcDbEntity
  8
0
  6
Continuous
100
AcDbLine
 10
13.173545
 20
38.18569
 30
0.0
 11
11.826865
 21
38.44004
 31
0.0
  0
LINE
  5
38
330
1D
100
AcDbEntity
  8
0
  6
Continuous
100
AcDbLine
 10
11.826865
 20
38.44004
 30
0.0
 11
9.638505
 21
38.6624
 31
0.0
  0
LINE
  5
39
330
1D
100
AcDbEntity
  8
0
  6
Continuous
100
AcDbLine
 10
9.638505
 20
38.6624
 30
0.0
 11
6.776805
 21
38.83321
 31
0.0
  0
LINE
  5
3A
330
1D
100
AcDbEntity
  8
0
  6
Continuous
100
AcDbLine
 10
6.776805
 20
38.83321
 30
0.0
 11
3.522314999999999
 21
38.93832
 31
0.0
  0
LINE
  5
3B
330
1D
100
AcDbEntity
  8
0
  6
Continuous
100
AcDbLine
 10
3.522314999999999
 20
38.93832
 30
0.0
 11
-0.012725
 21
38.97774
 31
0.0
  0
LINE
  5
3C
330
1D
100
AcDbEntity
  8
0
  6
Continuous
100
AcDbLine
 10
-14.040675
 20
43.311687
 30
0.0
 11
-14.040675
 21
38.50762
 31
0.0
  0
LINE
  5
3D
330
1D
100
AcDbEntity
  8
0
  6
Continuous
100
AcDbLine
 10
-14.040675
 20
38.50762
 30
0.0
 11
-13.535675
 21
38.78827
 31
0.0
  0
LINE
  5
3E
330
1D
100
AcDbEntity
  8
0
  6
Continuous
100
AcDbLine
 10
-13.535675
 20
38.78827
 30
0.0
 11
-12.188985
 21
39.05004
 31
0.0
  0
LINE
  5
3F
330
1D
100
AcDbEntity
  8
0
  6
Continuous
100
AcDbLine
 10
-12.188985
 20
39.05004
 30
0.0
 11
-9.944515
 21
39.28183
 31
0.0
  0
LINE
  5
40
330
1D
100
AcDbEntity
  8
0
  6
Continuous
100
AcDbLine
 10
-9.944515
 20
39.28183
 30
0.0
 11
-6.970584999999999
 21
39.45636
 31
0.0
  0
LINE
  5
41
330
1D
100
AcDbEntity
  8
0
  6
Continuous
100
AcDbLine
 10
-6.970584999999999
 20
39.45636
 30
0.0
 11
-3.603885
 21
39.56147
 31
0.0
  0
LINE
  5
42
330
1D
100
AcDbEntity
  8
0
  6
Continuous
100
AcDbLine
 10
-3.603885
 20
39.56147
 30
0.0
 11
-0.012725
 21
39.60088
 31
0.0
  0
LINE
  5
43
330
1D
100
AcDbEntity
  8
0
  6
Continuous
100
AcDbLine
 10
-14.040675
 20
38.50762
 30
0.0
 11
-13.704005
 21
37.91077
 31
0.0
  0
LINE
  5
44
330
1D
100
AcDbEntity
  8
0
  6
Continuous
100
AcDbLine
 10
-13.535675
 20
38.78827
 30
0.0
 11
-14.040675
 21
38.50762
 31
0.0
  0
LINE
  5
45
330
1D
100
AcDbEntity
  8
0
  6
Continuous
100
AcDbLine
 10
-13.704005
 20
37.91077
 30
0.0
 11
-13.198995
 21
38.18569
 31
0.0
  0
LINE
  5
46
330
1D
100
AcDbEntity
  8
0
  6
Continuous
100
AcDbLine
 10
-12.188985
 20
39.05004
 30
0.0
 11
-13.535675
 21
38.78827
 31
0.0
  0
LINE
  5
47
330
1D
100
AcDbEntity
  8
0
  6
Continuous
100
AcDbLine
 10
-13.198995
 20
38.18569
 30
0.0
 11
-11.852315
 21
38.44004
 31
0.0
  0
LINE
  5
48
330
1D
100
AcDbEntity
  8
0
  6
Continuous
100
AcDbLine
 10
-9.944515
 20
39.28183
 30
0.0
 11
-12.188985
 21
39.05004
 31
0.0
  0
LINE
  5
49
330
1D
100
AcDbEntity
  8
0
  6
Continuous
100
AcDbLine
 10
-11.852315
 20
38.44004
 30
0.0
 11
-9.663954999999999
 21
38.6624
 31
0.0
  0
LINE
  5
4A
330
1D
100
AcDbEntity
  8
0
  6
Continuous
100
AcDbLine
 10
-6.970584999999999
 20
39.45636
 30
0.0
 11
-9.944515
 21
39.28183
 31
0.0
  0
LINE
  5
4B
330
1D
100
AcDbEntity
  8
0
  6
Continuous
100
AcDbLine
 10
-9.663954999999999
 20
38.6624
 30
0.0
 11
-6.802254999999999
 21
38.83321
 31
0.0
  0
LINE
  5
4C
330
1D
100
AcDbEntity
  8
0
  6
Continuous
100
AcDbLine
 10
-3.603885
 20
39.56147
 30
0.0
 11
-6.970584999999999
 21
39.45636
 31
0.0
  0
LINE
  5
4D
330
1D
100
AcDbEntity
  8
0
  6
Continuous
100
AcDbLine
 10
-6.802254999999999
 20
38.83321
 30
0.0
 11
-3.547775
 21
38.93832
 31
0.0
  0
LINE
  5
4E
330
1D
100
AcDbEntity
  8
0
  6
Continuous
100
AcDbLine
 10
-0.012725
 20
39.60088
 30
0.0
 11
-3.603885
 21
39.56147
 31
0.0
  0
LINE
  5
4F
330
1D
100
AcDbEntity
  8
0
  6
Continuous
100
AcDbLine
 10
-3.547775
 20
38.93832
 30
0.0
 11
-0.012725
 21
38.97774
 31
0.0
  0
LINE
  5
50
330
1D
100
AcDbEntity
  8
0
  6
Continuous
100
AcDbLine
 10
-13.198995
 20
38.18569
 30
0.0
 11
-13.704005
 21
37.91077
 31
0.0
  0
LINE
  5
51
330
1D
100
AcDbEntity
  8
0
  6
Continuous
100
AcDbLine
 10
-11.852315
 20
38.44004
 30
0.0
 11
-13.198995
 21
38.18569
 31
0.0
  0
LINE
  5
52
330
1D
100
AcDbEntity
  8
0
  6
Continuous
100
AcDbLine
 10
-9.663954999999999
 20
38.6624
 30
0.0
 11
-11.852315
 21
38.44004
 31
0.0
  0
LINE
  5
53
330
1D
100
AcDbEntity
  8
0
  6
Continuous
100
AcDbLine
 10
-6.802254999999999
 20
38.83321
 30
0.0
 11
-9.663954999999999
 21
38.6624
 31
0.0
  0
LINE
  5
54
330
1D
100
AcDbEntity
  8
0
  6
Continuous
100
AcDbLine
 10
-3.547775
 20
38.93832
 30
0.0
 11
-6.802254999999999
 21
38.83321
 31
0.0
  0
LINE
  5
55
330
1D
100
AcDbEntity
  8
0
  6
Continuous
100
AcDbLine
 10
-0.012725
 20
38.97774
 30
0.0
 11
-3.547775
 21
38.93832
 31
0.0
  0
LINE
  5
56
330
1D
100
AcDbEntity
  8
0
  6
Continuous
100
AcDbLine
 10
-13.704005
 20
37.91077
 30
0.0
 11
-13.198995
 21
37.63485
 31
0.0
  0
LINE
  5
57
330
1D
100
AcDbEntity
  8
0
  6
Continuous
100
AcDbLine
 10
-13.198995
 20
37.63485
 30
0.0
 11
-11.852315
 21
37.38148000000001
 31
0.0
  0
LINE
  5
58
330
1D
100
AcDbEntity
  8
0
  6
Continuous
100
AcDbLine
 10
-11.852315
 20
37.38148000000001
 30
0.0
 11
-9.663954999999999
 21
37.15812
 31
0.0
  0
LINE
  5
59
330
1D
100
AcDbEntity
  8
0
  6
Continuous
100
AcDbLine
 10
-9.663954999999999
 20
37.15812
 30
0.0
 11
-6.802254999999999
 21
36.98832
 31
0.0
  0
LINE
  5
5A
330
1D
100
AcDbEntity
  8
0
  6
Continuous
100
AcDbLine
 10
-6.802254999999999
 20
36.98832
 30
0.0
 11
-3.547775
 21
36.88321
 31
0.0
  0
LINE
  5
5B
330
1D
100
AcDbEntity
  8
0
  6
Continuous
100
AcDbLine
 10
-3.547775
 20
36.88321
 30
0.0
 11
-0.012725
 21
36.8438
 31
0.0
  0
LINE
  5
5C
330
1D
100
AcDbEntity
  8
0
  6
Continuous
100
AcDbLine
 10
13.173545
 20
37.63485
 30
0.0
 11
13.678555
 21
37.91077
 31
0.0
  0
LINE
  5
5D
330
1D
100
AcDbEntity
  8
0
  6
Continuous
100
AcDbLine
 10
11.826865
 20
37.38148000000001
 30
0.0
 11
13.173545
 21
37.63485
 31
0.0
  0
LINE
  5
5E
330
1D
100
AcDbEntity
  8
0
  6
Continuous
100
AcDbLine
 10
9.638505
 20
37.15812
 30
0.0
 11
11.826865
 21
37.38148000000001
 31
0.0
  0
LINE
  5
5F
330
1D
100
AcDbEntity
  8
0
  6
Continuous
100
AcDbLine
 10
6.776805
 20
36.98832
 30
0.0
 11
9.638505
 21
37.15812
 31
0.0
  0
LINE
  5
60
330
1D
100
AcDbEntity
  8
0
  6
Continuous
100
AcDbLine
 10
3.522314999999999
 20
36.88321
 30
0.0
 11
6.776805
 21
36.98832
 31
0.0
  0
LINE
  5
61
330
1D
100
AcDbEntity
  8
0
  6
Continuous
100
AcDbLine
 10
-0.012725
 20
36.8438
 30
0.0
 11
3.522314999999999
 21
36.88321
 31
0.0
  0
LINE
  5
62
330
1D
100
AcDbEntity
  8
0
  6
Continuous
100
AcDbLine
 10
-14.625175
 20
43.19049999999999
 30
0.0
 11
-15.209675
 21
42.88998
 31
0.0
  0
LINE
  5
63
330
1D
100
AcDbEntity
  8
0
  6
Continuous
100
AcDbLine
 10
-13.222375
 20
43.48135
 30
0.0
 11
-14.625175
 21
43.19049999999999
 31
0.0
  0
LINE
  5
64
330
1D
100
AcDbEntity
  8
0
  6
Continuous
100
AcDbLine
 10
-10.767485
 20
43.72797
 30
0.0
 11
-13.222375
 21
43.48135
 31
0.0
  0
LINE
  5
65
330
1D
100
AcDbEntity
  8
0
  6
Continuous
100
AcDbLine
 10
-16.378665
 20
43.88541
 30
0.0
 11
-15.209675
 21
42.88998
 31
0.0
  0
LINE
  5
66
330
1D
100
AcDbEntity
  8
0
  6
Continuous
100
AcDbLine
 10
-15.794175
 20
44.21387
 30
0.0
 11
-16.378665
 21
43.88541
 31
0.0
  0
LINE
  5
67
330
1D
100
AcDbEntity
  8
0
  6
Continuous
100
AcDbLine
 10
-15.209675
 20
42.88998
 30
0.0
 11
-14.625175
 21
43.19049999999999
 31
0.0
  0
LINE
  5
68
330
1D
100
AcDbEntity
  8
0
  6
Continuous
100
AcDbLine
 10
-14.157575
 20
44.52307
 30
0.0
 11
-15.794175
 21
44.21387
 31
0.0
  0
LINE
  5
69
330
1D
100
AcDbEntity
  8
0
  6
Continuous
100
AcDbLine
 10
-14.625175
 20
43.19049999999999
 30
0.0
 11
-13.222375
 21
43.48135
 31
0.0
  0
LINE
  5
6A
330
1D
100
AcDbEntity
  8
0
  6
Continuous
100
AcDbLine
 10
-11.585785
 20
44.78696999999999
 30
0.0
 11
-14.157575
 21
44.52307
 31
0.0
  0
LINE
  5
6B
330
1D
100
AcDbEntity
  8
0
  6
Continuous
100
AcDbLine
 10
-13.222375
 20
43.48135
 30
0.0
 11
-10.767485
 21
43.72797
 31
0.0
  0
LINE
  5
6C
330
1D
100
AcDbEntity
  8
0
  6
Continuous
100
AcDbLine
 10
-16.378665
 20
59.81947
 30
0.0
 11
-16.378665
 21
43.88541
 31
0.0
  0
LINE
  5
6D
330
1D
100
AcDbEntity
  8
0
  6
Continuous
100
AcDbLine
 10
-16.378665
 20
43.88541
 30
0.0
 11
-15.794175
 21
44.21387
 31
0.0
  0
LINE
  5
6E
330
1D
100
AcDbEntity
  8
0
  6
Continuous
100
AcDbLine
 10
-15.794175
 20
44.21387
 30
0.0
 11
-14.157575
 21
44.52307
 31
0.0
  0
LINE
  5
6F
330
1D
100
AcDbEntity
  8
0
  6
Continuous
100
AcDbLine
 10
-14.157575
 20
44.52307
 30
0.0
 11
-11.585785
 21
44.78696999999999
 31
0.0
  0
LINE
  5
70
330
1D
100
AcDbEntity
  8
0
  6
Continuous
100
AcDbLine
 10
-16.378665
 20
60.8149
 30
0.0
 11
-16.378665
 21
59.81947
 31
0.0
  0
LINE
  5
71
330
1D
100
AcDbEntity
  8
0
  6
Continuous
100
AcDbLine
 10
-15.794175
 20
61.81036
 30
0.0
 11
-16.378665
 21
60.8149
 31
0.0
  0
LINE
  5
72
330
1D
100
AcDbEntity
  8
0
  6
Continuous
100
AcDbLine
 10
-13.573075
 20
63.08901
 30
0.0
 11
-15.794175
 21
61.81036
 31
0.0
  0
LINE
  5
73
330
1D
100
AcDbEntity
  8
0
  6
Continuous
100
AcDbLine
 10
-7.844994999999999
 20
64.46419
 30
0.0
 11
-13.573075
 21
63.08901
 31
0.0
  0
LINE
  5
74
330
1D
100
AcDbEntity
  8
0
  6
Continuous
100
AcDbLine
 10
-7.143604999999999
 20
64.61928
 30
0.0
 11
-7.844994999999999
 21
64.46419
 31
0.0
  0
LINE
  5
75
330
1D
100
AcDbEntity
  8
0
  6
Continuous
100
AcDbLine
 10
-5.740804999999999
 20
64.74642
 30
0.0
 11
-7.143604999999999
 21
64.61928
 31
0.0
  0
LINE
  5
76
330
1D
100
AcDbEntity
  8
0
  6
Continuous
100
AcDbLine
 10
-0.012725
 20
44.07373999999999
 30
0.0
 11
-3.870414999999999
 21
44.02849999999999
 31
0.0
  0
LINE
  5
77
330
1D
100
AcDbEntity
  8
0
  6
Continuous
100
AcDbLine
 10
-3.870414999999999
 20
44.02849999999999
 30
0.0
 11
-7.611195
 21
43.91865
 31
0.0
  0
LINE
  5
78
330
1D
100
AcDbEntity
  8
0
  6
Continuous
100
AcDbLine
 10
-7.611195
 20
43.91865
 30
0.0
 11
-10.767485
 21
43.72797
 31
0.0
  0
LINE
  5
79
330
1D
100
AcDbEntity
  8
0
  6
Continuous
100
AcDbLine
 10
-0.012725
 20
45.16067999999999
 30
0.0
 11
-4.221115
 21
45.11543999999999
 31
0.0
  0
LINE
  5
7A
330
1D
100
AcDbEntity
  8
0
  6
Continuous
100
AcDbLine
 10
-3.870414999999999
 20
44.02849999999999
 30
0.0
 11
-0.012725
 21
44.07373999999999
 31
0.0
  0
LINE
  5
7B
330
1D
100
AcDbEntity
  8
0
  6
Continuous
100
AcDbLine
 10
-4.221115
 20
45.11543999999999
 30
0.0
 11
-8.195695
 21
44.9873
 31
0.0
  0
LINE
  5
7C
330
1D
100
AcDbEntity
  8
0
  6
Continuous
100
AcDbLine
 10
-7.611195
 20
43.91865
 30
0.0
 11
-3.870414999999999
 21
44.02849999999999
 31
0.0
  0
LINE
  5
7D
330
1D
100
AcDbEntity
  8
0
  6
Continuous
100
AcDbLine
 10
-8.195695
 20
44.9873
 30
0.0
 11
-11.585785
 21
44.78696999999999
 31
0.0
  0
LINE
  5
7E
330
1D
100
AcDbEntity
  8
0
  6
Continuous
100
AcDbLine
 10
-10.767485
 20
43.72797
 30
0.0
 11
-7.611195
 21
43.91865
 31
0.0
  0
LINE
  5
7F
330
1D
100
AcDbEntity
  8
0
  6
Continuous
100
AcDbLine
 10
-4.221115
 20
45.11543999999999
 30
0.0
 11
-0.012725
 21
45.16067999999999
 31
0.0
  0
LINE
  5
80
330
1D
100
AcDbEntity
  8
0
  6
Continuous
100
AcDbLine
 10
-8.195695
 20
44.9873
 30
0.0
 11
-4.221115
 21
45.11543999999999
 31
0.0
  0
LINE
  5
81
330
1D
100
AcDbEntity
  8
0
  6
Continuous
100
AcDbLine
 10
-11.585785
 20
44.78696999999999
 30
0.0
 11
-8.195695
 21
44.9873
 31
0.0
  0
LINE
  5
82
330
1D
100
AcDbEntity
  8
0
  6
Continuous
100
AcDbLine
 10
-4.104214999999999
 20
64.85623
 30
0.0
 11
-5.740804999999999
 21
64.74642
 31
0.0
  0
LINE
  5
83
330
1D
100
AcDbEntity
  8
0
  6
Continuous
100
AcDbLine
 10
-0.012725
 20
64.9807
 30
0.0
 11
-0.597225
 21
64.97106999999999
 31
0.0
  0
LINE
  5
84
330
1D
100
AcDbEntity
  8
0
  6
Continuous
100
AcDbLine
 10
-1.181724999999999
 20
64.95276
 30
0.0
 11
-4.104214999999999
 21
64.85623
 31
0.0
  0
LINE
  5
85
330
1D
100
AcDbEntity
  8
0
  6
Continuous
100
AcDbLine
 10
-0.597225
 20
64.97106999999999
 30
0.0
 11
-1.181724999999999
 21
64.95276
 31
0.0
  0
LINE
  5
86
330
1D
100
AcDbEntity
  8
0
  6
Continuous
100
AcDbLine
 10
-15.209675
 20
42.88998
 30
0.0
 11
-14.625175
 21
42.58944999999999
 31
0.0
  0
LINE
  5
87
330
1D
100
AcDbEntity
  8
0
  6
Continuous
100
AcDbLine
 10
-14.625175
 20
42.58944999999999
 30
0.0
 11
-14.040675
 21
42.46784199999999
 31
0.0
  0
LINE
  5
88
330
1D
100
AcDbEntity
  8
0
  6
Continuous
100
AcDbLine
 10
-16.378665
 20
43.56533
 30
0.0
 11
-16.378665
 21
34.26492
 31
0.0
  0
LINE
  5
89
330
1D
100
AcDbEntity
  8
0
  6
Continuous
100
AcDbLine
 10
-16.378665
 20
34.26492
 30
0.0
 11
-16.378665
 21
22.41941
 31
0.0
  0
LINE
  5
8A
330
1D
100
AcDbEntity
  8
0
  6
Continuous
100
AcDbLine
 10
-16.378665
 20
22.41941
 30
0.0
 11
-16.378665
 21
10.15555
 31
0.0
  0
LINE
  5
8B
330
1D
100
AcDbEntity
  8
0
  6
Continuous
100
AcDbLine
 10
-16.378665
 20
10.15555
 30
0.0
 11
-16.378665
 21
2.582415
 31
0.0
  0
LINE
  5
8C
330
1D
100
AcDbEntity
  8
0
  6
Continuous
100
AcDbLine
 10
16.353215
 20
2.591722999999999
 30
0.0
 11
16.353215
 21
10.15555
 31
0.0
  0
LINE
  5
8D
330
1D
100
AcDbEntity
  8
0
  6
Continuous
100
AcDbLine
 10
16.353215
 20
10.15555
 30
0.0
 11
16.353215
 21
22.41941
 31
0.0
  0
LINE
  5
8E
330
1D
100
AcDbEntity
  8
0
  6
Continuous
100
AcDbLine
 10
16.353215
 20
22.41941
 30
0.0
 11
16.353215
 21
34.26492
 31
0.0
  0
LINE
  5
8F
330
1D
100
AcDbEntity
  8
0
  6
Continuous
100
AcDbLine
 10
16.353215
 20
34.26492
 30
0.0
 11
16.353215
 21
43.56533
 31
0.0
  0
LINE
  5
90
330
1D
100
AcDbEntity
  8
0
  6
Continuous
100
AcDbLine
 10
16.353215
 20
60.8149
 30
0.0
 11
15.768715
 21
61.81036
 31
0.0
  0
LINE
  5
91
330
1D
100
AcDbEntity
  8
0
  6
Continuous
100
AcDbLine
 10
15.768715
 20
61.81036
 30
0.0
 11
14.015225
 21
62.80678
 31
0.0
  0
LINE
  5
92
330
1D
100
AcDbEntity
  8
0
  6
Continuous
100
AcDbLine
 10
15.184215
 20
62.12915999999999
 30
0.0
 11
13.547625
 21
63.08901
 31
0.0
  0
LINE
  5
93
330
1D
100
AcDbEntity
  8
0
  6
Continuous
100
AcDbLine
 10
7.819544999999999
 20
64.46419
 30
0.0
 11
7.118145
 21
64.61928
 31
0.0
  0
LINE
  5
94
330
1D
100
AcDbEntity
  8
0
  6
Continuous
100
AcDbLine
 10
13.547625
 20
63.08901
 30
0.0
 11
7.819544999999999
 21
64.46419
 31
0.0
  0
LINE
  5
95
330
1D
100
AcDbEntity
  8
0
  6
Continuous
100
AcDbLine
 10
7.118145
 20
64.61928
 30
0.0
 11
5.715354999999999
 21
64.74642
 31
0.0
  0
LINE
  5
96
330
1D
100
AcDbEntity
  8
0
  6
Continuous
100
AcDbLine
 10
5.715354999999999
 20
64.74642
 30
0.0
 11
4.078755
 21
64.85623
 31
0.0
  0
LINE
  5
97
330
1D
100
AcDbEntity
  8
0
  6
Continuous
100
AcDbLine
 10
0.5717750000000001
 20
64.97106999999999
 30
0.0
 11
-0.012725
 21
64.9807
 31
0.0
  0
LINE
  5
98
330
1D
100
AcDbEntity
  8
0
  6
Continuous
100
AcDbLine
 10
1.156265
 20
64.95276
 30
0.0
 11
0.5717750000000001
 21
64.97106999999999
 31
0.0
  0
LINE
  5
99
330
1D
100
AcDbEntity
  8
0
  6
Continuous
100
AcDbLine
 10
4.078755
 20
64.85623
 30
0.0
 11
1.156265
 21
64.95276
 31
0.0
  0
LINE
  5
9A
330
1D
100
AcDbEntity
  8
0
  6
Continuous
100
AcDbLine
 10
15.184215
 20
42.88998
 30
0.0
 11
14.599725
 21
43.19049999999999
 31
0.0
  0
LINE
  5
9B
330
1D
100
AcDbEntity
  8
0
  6
Continuous
100
AcDbLine
 10
14.599725
 20
43.19049999999999
 30
0.0
 11
13.196925
 21
43.48135
 31
0.0
  0
LINE
  5
9C
330
1D
100
AcDbEntity
  8
0
  6
Continuous
100
AcDbLine
 10
13.196925
 20
43.48135
 30
0.0
 11
10.742035
 21
43.72797
 31
0.0
  0
LINE
  5
9D
330
1D
100
AcDbEntity
  8
0
  6
Continuous
100
AcDbLine
 10
16.353215
 20
43.88541
 30
0.0
 11
15.768715
 21
44.21387
 31
0.0
  0
LINE
  5
9E
330
1D
100
AcDbEntity
  8
0
  6
Continuous
100
AcDbLine
 10
15.184215
 20
42.88998
 30
0.0
 11
16.353215
 21
43.88541
 31
0.0
  0
LINE
  5
9F
330
1D
100
AcDbEntity
  8
0
  6
Continuous
100
AcDbLine
 10
14.599725
 20
43.19049999999999
 30
0.0
 11
15.184215
 21
42.88998
 31
0.0
  0
LINE
  5
A0
330
1D
100
AcDbEntity
  8
0
  6
Continuous
100
AcDbLine
 10
15.768715
 20
44.21387
 30
0.0
 11
14.132125
 21
44.52307
 31
0.0
  0
LINE
  5
A1
330
1D
100
AcDbEntity
  8
0
  6
Continuous
100
AcDbLine
 10
13.196925
 20
43.48135
 30
0.0
 11
14.599725
 21
43.19049999999999
 31
0.0
  0
LINE
  5
A2
330
1D
100
AcDbEntity
  8
0
  6
Continuous
100
AcDbLine
 10
14.132125
 20
44.52307
 30
0.0
 11
11.560335
 21
44.78696999999999
 31
0.0
  0
LINE
  5
A3
330
1D
100
AcDbEntity
  8
0
  6
Continuous
100
AcDbLine
 10
10.742035
 20
43.72797
 30
0.0
 11
13.196925
 21
43.48135
 31
0.0
  0
LINE
  5
A4
330
1D
100
AcDbEntity
  8
0
  6
Continuous
100
AcDbLine
 10
16.353215
 20
43.88541
 30
0.0
 11
16.353215
 21
59.81947
 31
0.0
  0
LINE
  5
A5
330
1D
100
AcDbEntity
  8
0
  6
Continuous
100
AcDbLine
 10
15.768715
 20
44.21387
 30
0.0
 11
16.353215
 21
43.88541
 31
0.0
  0
LINE
  5
A6
330
1D
100
AcDbEntity
  8
0
  6
Continuous
100
AcDbLine
 10
14.132125
 20
44.52307
 30
0.0
 11
15.768715
 21
44.21387
 31
0.0
  0
LINE
  5
A7
330
1D
100
AcDbEntity
  8
0
  6
Continuous
100
AcDbLine
 10
11.560335
 20
44.78696999999999
 30
0.0
 11
14.132125
 21
44.52307
 31
0.0
  0
LINE
  5
A8
330
1D
100
AcDbEntity
  8
0
  6
Continuous
100
AcDbLine
 10
16.353215
 20
59.81947
 30
0.0
 11
16.353215
 21
60.8149
 31
0.0
  0
LINE
  5
A9
330
1D
100
AcDbEntity
  8
0
  6
Continuous
100
AcDbLine
 10
3.844965
 20
44.02849999999999
 30
0.0
 11
-0.012725
 21
44.07373999999999
 31
0.0
  0
LINE
  5
AA
330
1D
100
AcDbEntity
  8
0
  6
Continuous
100
AcDbLine
 10
7.585745
 20
43.91865
 30
0.0
 11
3.844965
 21
44.02849999999999
 31
0.0
  0
LINE
  5
AB
330
1D
100
AcDbEntity
  8
0
  6
Continuous
100
AcDbLine
 10
10.742035
 20
43.72797
 30
0.0
 11
7.585745
 21
43.91865
 31
0.0
  0
LINE
  5
AC
330
1D
100
AcDbEntity
  8
0
  6
Continuous
100
AcDbLine
 10
4.195655
 20
45.11543999999999
 30
0.0
 11
-0.012725
 21
45.16067999999999
 31
0.0
  0
LINE
  5
AD
330
1D
100
AcDbEntity
  8
0
  6
Continuous
100
AcDbLine
 10
-0.012725
 20
44.07373999999999
 30
0.0
 11
3.844965
 21
44.02849999999999
 31
0.0
  0
LINE
  5
AE
330
1D
100
AcDbEntity
  8
0
  6
Continuous
100
AcDbLine
 10
8.170244999999999
 20
44.9873
 30
0.0
 11
4.195655
 21
45.11543999999999
 31
0.0
  0
LINE
  5
AF
330
1D
100
AcDbEntity
  8
0
  6
Continuous
100
AcDbLine
 10
3.844965
 20
44.02849999999999
 30
0.0
 11
7.585745
 21
43.91865
 31
0.0
  0
LINE
  5
B0
330
1D
100
AcDbEntity
  8
0
  6
Continuous
100
AcDbLine
 10
11.560335
 20
44.78696999999999
 30
0.0
 11
8.170244999999999
 21
44.9873
 31
0.0
  0
LINE
  5
B1
330
1D
100
AcDbEntity
  8
0
  6
Continuous
100
AcDbLine
 10
7.585745
 20
43.91865
 30
0.0
 11
10.742035
 21
43.72797
 31
0.0
  0
LINE
  5
B2
330
1D
100
AcDbEntity
  8
0
  6
Continuous
100
AcDbLine
 10
-0.012725
 20
45.16067999999999
 30
0.0
 11
4.195655
 21
45.11543999999999
 31
0.0
  0
LINE
  5
B3
330
1D
100
AcDbEntity
  8
0
  6
Continuous
100
AcDbLine
 10
4.195655
 20
45.11543999999999
 30
0.0
 11
8.170244999999999
 21
44.9873
 31
0.0
  0
LINE
  5
B4
330
1D
100
AcDbEntity
  8
0
  6
Continuous
100
AcDbLine
 10
8.170244999999999
 20
44.9873
 30
0.0
 11
11.560335
 21
44.78696999999999
 31
0.0
  0
LINE
  5
B5
330
1D
100
AcDbEntity
  8
0
  6
Continuous
100
AcDbLine
 10
14.599725
 20
42.58944999999999
 30
0.0
 11
15.184215
 21
42.88998
 31
0.0
  0
LINE
  5
B6
330
1D
100
AcDbEntity
  8
0
  6
Continuous
100
AcDbLine
 10
14.015225
 20
42.46784199999999
 30
0.0
 11
14.599725
 21
42.58944999999999
 31
0.0
  0
LINE
  5
B7
330
1D
100
AcDbEntity
  8
0
  6
Continuous
100
AcDbLine
 10
-24.552833
 20
42.310459
 30
0.0
 11
-25.25344
 21
42.16035
 31
0.0
  0
LINE
  5
B8
330
1D
100
AcDbEntity
  8
0
  6
Continuous
100
AcDbLine
 10
25.496813
 20
-116.249494
 30
0.0
 11
25.496813
 21
39.905344
 31
0.0
  0
LINE
  5
B9
330
1D
100
AcDbEntity
  8
0
  6
Continuous
100
AcDbLine
 10
-25.496812
 20
39.905344
 30
0.0
 11
-25.496812
 21
-116.249494
 31
0.0
  0
LINE
  5
BA
330
1D
100
AcDbEntity
  8
0
  6
Continuous
100
AcDbLine
 10
25.25343
 20
42.16035
 30
0.0
 11
24.552823
 21
42.310459
 31
0.0
  0
LINE
  5
BB
330
1D
100
AcDbEntity
  8
0
  6
Continuous
100
AcDbLine
 10
-25.499679
 20
41.85727899999999
 30
0.0
 11
-25.498924
 21
41.256644
 31
0.0
  0
LINE
  5
BC
330
1D
100
AcDbEntity
  8
0
  6
Continuous
100
AcDbLine
 10
25.498914
 20
41.256674
 30
0.0
 11
25.499679
 21
41.857249
 31
0.0
  0
LINE
  5
BD
330
1D
100
AcDbEntity
  8
0
  6
Continuous
100
AcDbLine
 10
-25.498924
 20
41.256644
 30
0.0
 11
-25.498597
 21
41.006436
 31
0.0
  0
LINE
  5
BE
330
1D
100
AcDbEntity
  8
0
  6
Continuous
100
AcDbLine
 10
-25.498597
 20
41.006436
 30
0.0
 11
-24.629761
 21
41.006436
 31
0.0
  0
LINE
  5
BF
330
1D
100
AcDbEntity
  8
0
  6
Continuous
100
AcDbLine
 10
-22.083648
 20
42.10751799999999
 30
0.0
 11
-24.631108
 21
42.10751799999999
 31
0.0
  0
LINE
  5
C0
330
1D
100
AcDbEntity
  8
0
  6
Continuous
100
AcDbLine
 10
-18.030239
 20
41.006436
 30
0.0
 11
-16.378665
 21
41.006439
 31
0.0
  0
LINE
  5
C1
330
1D
100
AcDbEntity
  8
0
  6
Continuous
100
AcDbLine
 10
-22.082434
 20
41.006436
 30
0.0
 11
-18.030239
 21
41.006436
 31
0.0
  0
LINE
  5
C2
330
1D
100
AcDbEntity
  8
0
  6
Continuous
100
AcDbLine
 10
-24.629761
 20
41.006436
 30
0.0
 11
-22.082434
 21
41.006436
 31
0.0
  0
LINE
  5
C3
330
1D
100
AcDbEntity
  8
0
  6
Continuous
100
AcDbLine
 10
25.499995
 20
42.10751799999999
 30
0.0
 11
25.25343
 21
42.16035
 31
0.0
  0
LINE
  5
C4
330
1D
100
AcDbEntity
  8
0
  6
Continuous
100
AcDbLine
 10
25.499679
 20
41.857249
 30
0.0
 11
25.499995
 21
42.10751799999999
 31
0.0
  0
LINE
  5
C5
330
1D
100
AcDbEntity
  8
0
  6
Continuous
100
AcDbLine
 10
25.499995
 20
42.10751799999999
 30
0.0
 11
24.580638
 21
42.10751799999999
 31
0.0
  0
LINE
  5
C6
330
1D
100
AcDbEntity
  8
0
  6
Continuous
100
AcDbLine
 10
24.580638
 20
42.10751799999999
 30
0.0
 11
22.083627
 21
42.10751799999999
 31
0.0
  0
LINE
  5
C7
330
1D
100
AcDbEntity
  8
0
  6
Continuous
100
AcDbLine
 10
18.031198
 20
42.107528
 30
0.0
 11
16.353215
 21
42.10752399999999
 31
0.0
  0
LINE
  5
C8
330
1D
100
AcDbEntity
  8
0
  6
Continuous
100
AcDbLine
 10
-18.031228
 20
42.10751799999999
 30
0.0
 11
-22.083648
 21
42.10751799999999
 31
0.0
  0
LINE
  5
C9
330
1D
100
AcDbEntity
  8
0
  6
Continuous
100
AcDbLine
 10
-25.25344
 20
42.16035
 30
0.0
 11
-25.500005
 21
42.10751799999999
 31
0.0
  0
LINE
  5
CA
330
1D
100
AcDbEntity
  8
0
  6
Continuous
100
AcDbLine
 10
-25.500005
 20
42.10751799999999
 30
0.0
 11
-25.499679
 21
41.85727899999999
 31
0.0
  0
LINE
  5
CB
330
1D
100
AcDbEntity
  8
0
  6
Continuous
100
AcDbLine
 10
-24.631108
 20
42.10751799999999
 30
0.0
 11
-25.500005
 21
42.10751799999999
 31
0.0
  0
LINE
  5
CC
330
1D
100
AcDbEntity
  8
0
  6
Continuous
100
AcDbLine
 10
-16.378665
 20
42.10752099999999
 30
0.0
 11
-18.031228
 21
42.10751799999999
 31
0.0
  0
LINE
  5
CD
330
1D
100
AcDbEntity
  8
0
  6
Continuous
100
AcDbLine
 10
22.083627
 20
42.10751799999999
 30
0.0
 11
18.031198
 21
42.107528
 31
0.0
  0
LINE
  5
CE
330
1D
100
AcDbEntity
  8
0
  6
Continuous
100
AcDbLine
 10
25.498598
 20
41.006436
 30
0.0
 11
25.498914
 21
41.256674
 31
0.0
  0
LINE
  5
CF
330
1D
100
AcDbEntity
  8
0
  6
Continuous
100
AcDbLine
 10
24.558076
 20
41.006436
 30
0.0
 11
25.498598
 21
41.006436
 31
0.0
  0
LINE
  5
D0
330
1D
100
AcDbEntity
  8
0
  6
Continuous
100
AcDbLine
 10
22.082424
 20
41.006436
 30
0.0
 11
24.558076
 21
41.006436
 31
0.0
  0
LINE
  5
D1
330
1D
100
AcDbEntity
  8
0
  6
Continuous
100
AcDbLine
 10
16.353215
 20
41.00644299999999
 30
0.0
 11
18.030219
 21
41.00644599999999
 31
0.0
  0
LINE
  5
D2
330
1D
100
AcDbEntity
  8
0
  6
Continuous
100
AcDbLine
 10
-24.032429
 20
42.919012
 30
0.0
 11
-24.552833
 21
42.310459
 31
0.0
  0
LINE
  5
D3
330
1D
100
AcDbEntity
  8
0
  6
Continuous
100
AcDbLine
 10
-23.990303
 20
43.165897
 30
0.0
 11
-24.032429
 21
42.919012
 31
0.0
  0
LINE
  5
D4
330
1D
100
AcDbEntity
  8
0
  6
Continuous
100
AcDbLine
 10
24.552823
 20
42.310459
 30
0.0
 11
24.032419
 21
42.919012
 31
0.0
  0
LINE
  5
D5
330
1D
100
AcDbEntity
  8
0
  6
Continuous
100
AcDbLine
 10
24.032419
 20
42.919012
 30
0.0
 11
23.990313
 21
43.165747
 31
0.0
  0
LINE
  5
D6
330
1D
100
AcDbEntity
  8
0
  6
Continuous
100
AcDbLine
 10
25.246097
 20
39.877446
 30
0.0
 11
25.246097
 21
41.006436
 31
0.0
  0
LINE
  5
D7
330
1D
100
AcDbEntity
  8
0
  6
Continuous
100
AcDbLine
 10
22.082424
 20
41.006436
 30
0.0
 11
18.030219
 21
41.00644599999999
 31
0.0
  0
LINE
  5
D8
330
1D
100
AcDbEntity
  8
0
  6
Continuous
100
AcDbLine
 10
-25.246474
 20
41.006436
 30
0.0
 11
-25.246474
 21
39.877436
 31
0.0
  0
LINE
  5
D9
330
1D
100
AcDbEntity
  8
0
  6
Continuous
100
AcDbLine
 10
18.051741
 20
40.40583999999999
 30
0.0
 11
16.353215
 21
40.40583999999999
 31
0.0
  0
LINE
  5
DA
330
1D
100
AcDbEntity
  8
0
  6
Continuous
100
AcDbLine
 10
-22.131241
 20
40.40583999999999
 30
0.0
 11
-24.578935
 21
40.40583999999999
 31
0.0
  0
LINE
  5
DB
330
1D
100
AcDbEntity
  8
0
  6
Continuous
100
AcDbLine
 10
-16.378665
 20
40.40583999999999
 30
0.0
 11
-18.051751
 21
40.40583999999999
 31
0.0
  0
LINE
  5
DC
330
1D
100
AcDbEntity
  8
0
  6
Continuous
100
AcDbLine
 10
25.496813
 20
39.905344
 30
0.0
 11
25.496813
 21
40.40583999999999
 31
0.0
  0
LINE
  5
DD
330
1D
100
AcDbEntity
  8
0
  6
Continuous
100
AcDbLine
 10
25.496813
 20
40.40583999999999
 30
0.0
 11
24.578925
 21
40.40583999999999
 31
0.0
  0
LINE
  5
DE
330
1D
100
AcDbEntity
  8
0
  6
Continuous
100
AcDbLine
 10
-25.496812
 20
40.40583999999999
 30
0.0
 11
-25.496812
 21
39.905344
 31
0.0
  0
LINE
  5
DF
330
1D
100
AcDbEntity
  8
0
  6
Continuous
100
AcDbLine
 10
-24.578935
 20
40.40583999999999
 30
0.0
 11
-25.496812
 21
40.40583999999999
 31
0.0
  0
LINE
  5
E0
330
1D
100
AcDbEntity
  8
0
  6
Continuous
100
AcDbLine
 10
-18.051751
 20
40.40583999999999
 30
0.0
 11
-22.131241
 21
40.40583999999999
 31
0.0
  0
LINE
  5
E1
330
1D
100
AcDbEntity
  8
0
  6
Continuous
100
AcDbLine
 10
24.578925
 20
40.40583999999999
 30
0.0
 11
22.131231
 21
40.40583999999999
 31
0.0
  0
LINE
  5
E2
330
1D
100
AcDbEntity
  8
0
  6
Continuous
100
AcDbLine
 10
22.131231
 20
40.40583999999999
 30
0.0
 11
18.051741
 21
40.40583999999999
 31
0.0
  0
LINE
  5
E3
330
1D
100
AcDbEntity
  8
0
  6
Continuous
100
AcDbLine
 10
-24.578935
 20
-116.75
 30
0.0
 11
-22.131241
 21
-116.75
 31
0.0
  0
LINE
  5
E4
330
1D
100
AcDbEntity
  8
0
  6
Continuous
100
AcDbLine
 10
-18.051751
 20
-116.75
 30
0.0
 11
-12.646424
 21
-116.75
 31
0.0
  0
LINE
  5
E5
330
1D
100
AcDbEntity
  8
0
  6
Continuous
100
AcDbLine
 10
-12.646424
 20
-116.75
 30
0.0
 11
-6.527188999999999
 21
-116.75
 31
0.0
  0
LINE
  5
E6
330
1D
100
AcDbEntity
  8
0
  6
Continuous
100
AcDbLine
 10
22.131231
 20
-116.75
 30
0.0
 11
24.578925
 21
-116.75
 31
0.0
  0
LINE
  5
E7
330
1D
100
AcDbEntity
  8
0
  6
Continuous
100
AcDbLine
 10
-6.527188999999999
 20
-116.75
 30
0.0
 11
-0.000005
 21
-116.75
 31
0.0
  0
LINE
  5
E8
330
1D
100
AcDbEntity
  8
0
  6
Continuous
100
AcDbLine
 10
-25.496812
 20
-116.249494
 30
0.0
 11
-25.496812
 21
-116.75
 31
0.0
  0
LINE
  5
E9
330
1D
100
AcDbEntity
  8
0
  6
Continuous
100
AcDbLine
 10
-25.496812
 20
-116.75
 30
0.0
 11
-24.578935
 21
-116.75
 31
0.0
  0
LINE
  5
EA
330
1D
100
AcDbEntity
  8
0
  6
Continuous
100
AcDbLine
 10
-22.131241
 20
-116.75
 30
0.0
 11
-18.051751
 21
-116.75
 31
0.0
  0
LINE
  5
EB
330
1D
100
AcDbEntity
  8
0
  6
Continuous
100
AcDbLine
 10
25.496813
 20
-116.75
 30
0.0
 11
25.496813
 21
-116.249494
 31
0.0
  0
LINE
  5
EC
330
1D
100
AcDbEntity
  8
0
  6
Continuous
100
AcDbLine
 10
24.578925
 20
-116.75
 30
0.0
 11
25.496813
 21
-116.75
 31
0.0
  0
LINE
  5
ED
330
1D
100
AcDbEntity
  8
0
  6
Continuous
100
AcDbLine
 10
12.646414
 20
-116.75
 30
0.0
 11
18.051741
 21
-116.75
 31
0.0
  0
LINE
  5
EE
330
1D
100
AcDbEntity
  8
0
  6
Continuous
100
AcDbLine
 10
-0.000005
 20
-116.75
 30
0.0
 11
6.527179
 21
-116.75
 31
0.0
  0
LINE
  5
EF
330
1D
100
AcDbEntity
  8
0
  6
Continuous
100
AcDbLine
 10
18.051741
 20
-116.75
 30
0.0
 11
22.131231
 21
-116.75
 31
0.0
  0
LINE
  5
F0
330
1D
100
AcDbEntity
  8
0
  6
Continuous
100
AcDbLine
 10
6.527179
 20
-116.75
 30
0.0
 11
12.646414
 21
-116.75
 31
0.0
  0
LINE
  5
F1
330
1D
100
AcDbEntity
  8
0
  6
Continuous
100
AcDbLine
 10
-21.931755
 20
87.52734
 30
0.0
 11
-22.448805
 21
85.56667
 31
0.0
  0
LINE
  5
F2
330
1D
100
AcDbEntity
  8
0
  6
Continuous
100
AcDbLine
 10
-21.719995
 20
88.39485000000001
 30
0.0
 11
-22.240585
 21
86.33613
 31
0.0
  0
LINE
  5
F3
330
1D
100
AcDbEntity
  8
0
  6
Continuous
100
AcDbLine
 10
-23.916185
 20
80.00237
 30
0.0
 11
-24.348495
 21
78.42668
 31
0.0
  0
LINE
  5
F4
330
1D
100
AcDbEntity
  8
0
  6
Continuous
100
AcDbLine
 10
-24.597855
 20
76.811
 30
0.0
 11
-24.593235
 21
76.45573
 31
0.0
  0
LINE
  5
F5
330
1D
100
AcDbEntity
  8
0
  6
Continuous
100
AcDbLine
 10
-24.348495
 20
78.42668
 30
0.0
 11
-24.597855
 21
76.811
 31
0.0
  0
LINE
  5
F6
330
1D
100
AcDbEntity
  8
0
  6
Continuous
100
AcDbLine
 10
-11.207015
 20
115.96889
 30
0.0
 11
-12.965185
 21
115.32473
 31
0.0
  0
LINE
  5
F7
330
1D
100
AcDbEntity
  8
0
  6
Continuous
100
AcDbLine
 10
-14.044025
 20
114.57924
 30
0.0
 11
-14.712675
 21
114.05733
 31
0.0
  0
LINE
  5
F8
330
1D
100
AcDbEntity
  8
0
  6
Continuous
100
AcDbLine
 10
-12.965185
 20
115.32473
 30
0.0
 11
-14.044025
 21
114.57924
 31
0.0
  0
LINE
  5
F9
330
1D
100
AcDbEntity
  8
0
  6
Continuous
100
AcDbLine
 10
-8.652115
 20
116.4108
 30
0.0
 11
-11.207015
 21
115.96889
 31
0.0
  0
LINE
  5
FA
330
1D
100
AcDbEntity
  8
0
  6
Continuous
100
AcDbLine
 10
-5.813954999999999
 20
116.61892
 30
0.0
 11
-8.652115
 21
116.4108
 31
0.0
  0
LINE
  5
FB
330
1D
100
AcDbEntity
  8
0
  6
Continuous
100
AcDbLine
 10
-2.917735
 20
116.72555
 30
0.0
 11
-5.813954999999999
 21
116.61892
 31
0.0
  0
LINE
  5
FC
330
1D
100
AcDbEntity
  8
0
  6
Continuous
100
AcDbLine
 10
-0.000005
 20
116.75
 30
0.0
 11
-2.917735
 21
116.72555
 31
0.0
  0
LINE
  5
FD
330
1D
100
AcDbEntity
  8
0
  6
Continuous
100
AcDbLine
 10
-15.268875
 20
113.25368
 30
0.0
 11
-15.651535
 21
112.39281
 31
0.0
  0
LINE
  5
FE
330
1D
100
AcDbEntity
  8
0
  6
Continuous
100
AcDbLine
 10
-19.984535
 20
95.25776
 30
0.0
 11
-20.655315
 21
92.60517
 31
0.0
  0
LINE
  5
FF
330
1D
100
AcDbEntity
  8
0
  6
Continuous
100
AcDbLine
 10
-14.712675
 20
114.05733
 30
0.0
 11
-15.268875
 21
113.25368
 31
0.0
  0
LINE
  5
100
330
1D
100
AcDbEntity
  8
0
  6
Continuous
100
AcDbLine
 10
-11.659635
 20
115.42686
 30
0.0
 11
-13.575205
 21
114.79688
 31
0.0
  0
LINE
  5
101
330
1D
100
AcDbEntity
  8
0
  6
Continuous
100
AcDbLine
 10
-13.575205
 20
114.79688
 30
0.0
 11
-14.712675
 21
114.05733
 31
0.0
  0
LINE
  5
102
330
1D
100
AcDbEntity
  8
0
  6
Continuous
100
AcDbLine
 10
-21.260965
 20
90.21007
 30
0.0
 11
-21.719995
 21
88.39485000000001
 31
0.0
  0
LINE
  5
103
330
1D
100
AcDbEntity
  8
0
  6
Continuous
100
AcDbLine
 10
-9.003185
 20
115.89252
 30
0.0
 11
-11.659635
 21
115.42686
 31
0.0
  0
LINE
  5
104
330
1D
100
AcDbEntity
  8
0
  6
Continuous
100
AcDbLine
 10
-22.448805
 20
85.56667
 30
0.0
 11
-22.965865
 21
83.60599
 31
0.0
  0
LINE
  5
105
330
1D
100
AcDbEntity
  8
0
  6
Continuous
100
AcDbLine
 10
-23.527075
 20
81.47789000000001
 30
0.0
 11
-23.916185
 21
80.00237
 31
0.0
  0
LINE
  5
106
330
1D
100
AcDbEntity
  8
0
  6
Continuous
100
AcDbLine
 10
-15.651535
 20
112.39281
 30
0.0
 11
-19.313765
 21
97.91035
 31
0.0
  0
LINE
  5
107
330
1D
100
AcDbEntity
  8
0
  6
Continuous
100
AcDbLine
 10
-22.965865
 20
83.60599
 30
0.0
 11
-23.527075
 21
81.47789000000001
 31
0.0
  0
LINE
  5
108
330
1D
100
AcDbEntity
  8
0
  6
Continuous
100
AcDbLine
 10
-20.655315
 20
92.60517
 30
0.0
 11
-21.260965
 21
90.21007
 31
0.0
  0
LINE
  5
109
330
1D
100
AcDbEntity
  8
0
  6
Continuous
100
AcDbLine
 10
-19.313765
 20
97.91035
 30
0.0
 11
-19.984535
 21
95.25776
 31
0.0
  0
LINE
  5
10A
330
1D
100
AcDbEntity
  8
0
  6
Continuous
100
AcDbLine
 10
-6.050774999999999
 20
116.12349
 30
0.0
 11
-9.003185
 21
115.89252
 31
0.0
  0
LINE
  5
10B
330
1D
100
AcDbEntity
  8
0
  6
Continuous
100
AcDbLine
 10
-3.036935
 20
116.24676
 30
0.0
 11
-6.050774999999999
 21
116.12349
 31
0.0
  0
LINE
  5
10C
330
1D
100
AcDbEntity
  8
0
  6
Continuous
100
AcDbLine
 10
-0.000005
 20
116.14342
 30
0.0
 11
-3.036935
 21
116.24676
 31
0.0
  0
LINE
  5
10D
330
1D
100
AcDbEntity
  8
0
  6
Continuous
100
AcDbLine
 10
22.448795
 20
85.56667
 30
0.0
 11
21.931745
 21
87.52733
 31
0.0
  0
LINE
  5
10E
330
1D
100
AcDbEntity
  8
0
  6
Continuous
100
AcDbLine
 10
24.348485
 20
78.42668
 30
0.0
 11
23.916175
 21
80.00237
 31
0.0
  0
LINE
  5
10F
330
1D
100
AcDbEntity
  8
0
  6
Continuous
100
AcDbLine
 10
22.240585
 20
86.33613
 30
0.0
 11
21.719985
 21
88.39485000000001
 31
0.0
  0
LINE
  5
110
330
1D
100
AcDbEntity
  8
0
  6
Continuous
100
AcDbLine
 10
24.593225
 20
76.45574
 30
0.0
 11
24.597855
 21
76.811
 31
0.0
  0
LINE
  5
111
330
1D
100
AcDbEntity
  8
0
  6
Continuous
100
AcDbLine
 10
24.597855
 20
76.811
 30
0.0
 11
24.348485
 21
78.42668
 31
0.0
  0
LINE
  5
112
330
1D
100
AcDbEntity
  8
0
  6
Continuous
100
AcDbLine
 10
12.965185
 20
115.32473
 30
0.0
 11
11.207005
 21
115.96889
 31
0.0
  0
LINE
  5
113
330
1D
100
AcDbEntity
  8
0
  6
Continuous
100
AcDbLine
 10
14.044015
 20
114.57924
 30
0.0
 11
12.965185
 21
115.32473
 31
0.0
  0
LINE
  5
114
330
1D
100
AcDbEntity
  8
0
  6
Continuous
100
AcDbLine
 10
14.712675
 20
114.05733
 30
0.0
 11
14.044015
 21
114.57924
 31
0.0
  0
LINE
  5
115
330
1D
100
AcDbEntity
  8
0
  6
Continuous
100
AcDbLine
 10
11.207005
 20
115.96889
 30
0.0
 11
8.652115
 21
116.4108
 31
0.0
  0
LINE
  5
116
330
1D
100
AcDbEntity
  8
0
  6
Continuous
100
AcDbLine
 10
8.652115
 20
116.4108
 30
0.0
 11
5.813954999999999
 21
116.61891
 31
0.0
  0
LINE
  5
117
330
1D
100
AcDbEntity
  8
0
  6
Continuous
100
AcDbLine
 10
5.813954999999999
 20
116.61891
 30
0.0
 11
2.917724999999999
 21
116.72555
 31
0.0
  0
LINE
  5
118
330
1D
100
AcDbEntity
  8
0
  6
Continuous
100
AcDbLine
 10
2.917724999999999
 20
116.72555
 30
0.0
 11
-0.000005
 21
116.75
 31
0.0
  0
LINE
  5
119
330
1D
100
AcDbEntity
  8
0
  6
Continuous
100
AcDbLine
 10
15.651525
 20
112.39281
 30
0.0
 11
15.268865
 21
113.25368
 31
0.0
  0
LINE
  5
11A
330
1D
100
AcDbEntity
  8
0
  6
Continuous
100
AcDbLine
 10
20.655305
 20
92.60517
 30
0.0
 11
19.984535
 21
95.25776
 31
0.0
  0
LINE
  5
11B
330
1D
100
AcDbEntity
  8
0
  6
Continuous
100
AcDbLine
 10
15.268865
 20
113.25368
 30
0.0
 11
14.712675
 21
114.05733
 31
0.0
  0
LINE
  5
11C
330
1D
100
AcDbEntity
  8
0
  6
Continuous
100
AcDbLine
 10
13.575195
 20
114.79688
 30
0.0
 11
11.659625
 21
115.42686
 31
0.0
  0
LINE
  5
11D
330
1D
100
AcDbEntity
  8
0
  6
Continuous
100
AcDbLine
 10
14.712675
 20
114.05733
 30
0.0
 11
13.575195
 21
114.79688
 31
0.0
  0
LINE
  5
11E
330
1D
100
AcDbEntity
  8
0
  6
Continuous
100
AcDbLine
 10
21.719985
 20
88.39485000000001
 30
0.0
 11
21.260965
 21
90.21007
 31
0.0
  0
LINE
  5
11F
330
1D
100
AcDbEntity
  8
0
  6
Continuous
100
AcDbLine
 10
11.659625
 20
115.42686
 30
0.0
 11
9.003175
 21
115.89252
 31
0.0
  0
LINE
  5
120
330
1D
100
AcDbEntity
  8
0
  6
Continuous
100
AcDbLine
 10
22.965855
 20
83.60599
 30
0.0
 11
22.448795
 21
85.56667
 31
0.0
  0
LINE
  5
121
330
1D
100
AcDbEntity
  8
0
  6
Continuous
100
AcDbLine
 10
23.916175
 20
80.00237
 30
0.0
 11
23.527065
 21
81.47789000000001
 31
0.0
  0
LINE
  5
122
330
1D
100
AcDbEntity
  8
0
  6
Continuous
100
AcDbLine
 10
15.588425
 20
111.58112
 30
0.0
 11
19.375455
 21
97.22078000000001
 31
0.0
  0
LINE
  5
123
330
1D
100
AcDbEntity
  8
0
  6
Continuous
100
AcDbLine
 10
19.313765
 20
97.91035
 30
0.0
 11
15.651525
 21
112.39281
 31
0.0
  0
LINE
  5
124
330
1D
100
AcDbEntity
  8
0
  6
Continuous
100
AcDbLine
 10
23.527065
 20
81.47789000000001
 30
0.0
 11
22.965855
 21
83.60599
 31
0.0
  0
LINE
  5
125
330
1D
100
AcDbEntity
  8
0
  6
Continuous
100
AcDbLine
 10
21.260965
 20
90.21007
 30
0.0
 11
20.655305
 21
92.60517
 31
0.0
  0
LINE
  5
126
330
1D
100
AcDbEntity
  8
0
  6
Continuous
100
AcDbLine
 10
19.984535
 20
95.25776
 30
0.0
 11
19.313765
 21
97.91035
 31
0.0
  0
LINE
  5
127
330
1D
100
AcDbEntity
  8
0
  6
Continuous
100
AcDbLine
 10
9.003175
 20
115.89252
 30
0.0
 11
6.050774999999999
 21
116.12349
 31
0.0
  0
LINE
  5
128
330
1D
100
AcDbEntity
  8
0
  6
Continuous
100
AcDbLine
 10
6.050774999999999
 20
116.12349
 30
0.0
 11
3.036935
 21
116.24676
 31
0.0
  0
LINE
  5
129
330
1D
100
AcDbEntity
  8
0
  6
Continuous
100
AcDbLine
 10
-25.649785
 20
43.60708999999999
 30
0.0
 11
-25.276285
 21
43.59998
 31
0.0
  0
LINE
  5
12A
330
1D
100
AcDbEntity
  8
0
  6
Continuous
100
AcDbLine
 10
-25.626275
 20
44.07426
 30
0.0
 11
-25.649785
 21
43.60708999999999
 31
0.0
  0
LINE
  5
12B
330
1D
100
AcDbEntity
  8
0
  6
Continuous
100
AcDbLine
 10
-25.276285
 20
43.59998
 30
0.0
 11
-23.993335
 21
43.59249
 31
0.0
  0
LINE
  5
12C
330
1D
100
AcDbEntity
  8
0
  6
Continuous
100
AcDbLine
 10
-23.993335
 20
43.59249
 30
0.0
 11
-22.244245
 21
43.58702
 31
0.0
  0
LINE
  5
12D
330
1D
100
AcDbEntity
  8
0
  6
Continuous
100
AcDbLine
 10
-17.593135
 20
43.57726
 30
0.0
 11
-16.378665
 21
43.575687
 31
0.0
  0
LINE
  5
12E
330
1D
100
AcDbEntity
  8
0
  6
Continuous
100
AcDbLine
 10
-20.230355
 20
43.58178
 30
0.0
 11
-17.593135
 21
43.57726
 31
0.0
  0
LINE
  5
12F
330
1D
100
AcDbEntity
  8
0
  6
Continuous
100
AcDbLine
 10
-22.244245
 20
43.58702
 30
0.0
 11
-20.230355
 21
43.58178
 31
0.0
  0
LINE
  5
130
330
1D
100
AcDbEntity
  8
0
  6
Continuous
100
AcDbLine
 10
25.649785
 20
43.6066
 30
0.0
 11
25.626255
 21
44.07451
 31
0.0
  0
LINE
  5
131
330
1D
100
AcDbEntity
  8
0
  6
Continuous
100
AcDbLine
 10
25.319195
 20
43.59988
 30
0.0
 11
25.649785
 21
43.6066
 31
0.0
  0
LINE
  5
132
330
1D
100
AcDbEntity
  8
0
  6
Continuous
100
AcDbLine
 10
24.277265
 20
43.59331
 30
0.0
 11
25.319195
 21
43.59988
 31
0.0
  0
LINE
  5
133
330
1D
100
AcDbEntity
  8
0
  6
Continuous
100
AcDbLine
 10
22.453765
 20
43.58717999999999
 30
0.0
 11
24.277265
 21
43.59331
 31
0.0
  0
LINE
  5
134
330
1D
100
AcDbEntity
  8
0
  6
Continuous
100
AcDbLine
 10
16.353215
 20
43.575344
 30
0.0
 11
17.593125
 21
43.57693
 31
0.0
  0
LINE
  5
135
330
1D
100
AcDbEntity
  8
0
  6
Continuous
100
AcDbLine
 10
17.593125
 20
43.57693
 30
0.0
 11
20.230345
 21
43.58139
 31
0.0
  0
LINE
  5
136
330
1D
100
AcDbEntity
  8
0
  6
Continuous
100
AcDbLine
 10
20.230345
 20
43.58139
 30
0.0
 11
22.453765
 21
43.58717999999999
 31
0.0
  0
LINE
  5
137
330
1D
100
AcDbEntity
  8
0
  6
Continuous
100
AcDbLine
 10
-24.524655
 20
67.30996000000001
 30
0.0
 11
-24.727475
 21
63.07916
 31
0.0
  0
LINE
  5
138
330
1D
100
AcDbEntity
  8
0
  6
Continuous
100
AcDbLine
 10
-24.635385
 20
66.67968999999999
 30
0.0
 11
-24.731025
 21
62.76400999999999
 31
0.0
  0
LINE
  5
139
330
1D
100
AcDbEntity
  8
0
  6
Continuous
100
AcDbLine
 10
-24.539755
 20
70.59535
 30
0.0
 11
-24.635385
 21
66.67968999999999
 31
0.0
  0
LINE
  5
13A
330
1D
100
AcDbEntity
  8
0
  6
Continuous
100
AcDbLine
 10
-24.444125
 20
74.51101
 30
0.0
 11
-24.539755
 21
70.59535
 31
0.0
  0
LINE
  5
13B
330
1D
100
AcDbEntity
  8
0
  6
Continuous
100
AcDbLine
 10
-24.551085
 20
73.21846999999999
 30
0.0
 11
-24.504315
 21
69.62594
 31
0.0
  0
LINE
  5
13C
330
1D
100
AcDbEntity
  8
0
  6
Continuous
100
AcDbLine
 10
-24.727475
 20
63.07916
 30
0.0
 11
-24.930305
 21
58.84835
 31
0.0
  0
LINE
  5
13D
330
1D
100
AcDbEntity
  8
0
  6
Continuous
100
AcDbLine
 10
3.036935
 20
116.24676
 30
0.0
 11
-0.000005
 21
116.14342
 31
0.0
  0
LINE
  5
13E
330
1D
100
AcDbEntity
  8
0
  6
Continuous
100
AcDbLine
 10
-24.593235
 20
76.45573
 30
0.0
 11
-24.551085
 21
73.21846999999999
 31
0.0
  0
LINE
  5
13F
330
1D
100
AcDbEntity
  8
0
  6
Continuous
100
AcDbLine
 10
-24.930305
 20
58.84835
 30
0.0
 11
-25.626275
 21
44.07426
 31
0.0
  0
LINE
  5
140
330
1D
100
AcDbEntity
  8
0
  6
Continuous
100
AcDbLine
 10
24.727475
 20
63.07916
 30
0.0
 11
24.524645
 21
67.30996000000001
 31
0.0
  0
LINE
  5
141
330
1D
100
AcDbEntity
  8
0
  6
Continuous
100
AcDbLine
 10
24.731015
 20
62.76400999999999
 30
0.0
 11
24.635385
 21
66.67968999999999
 31
0.0
  0
LINE
  5
142
330
1D
100
AcDbEntity
  8
0
  6
Continuous
100
AcDbLine
 10
24.635385
 20
66.67968999999999
 30
0.0
 11
24.539755
 21
70.59535
 31
0.0
  0
LINE
  5
143
330
1D
100
AcDbEntity
  8
0
  6
Continuous
100
AcDbLine
 10
24.539755
 20
70.59535
 30
0.0
 11
24.444115
 21
74.51101
 31
0.0
  0
LINE
  5
144
330
1D
100
AcDbEntity
  8
0
  6
Continuous
100
AcDbLine
 10
24.504305
 20
69.62594
 30
0.0
 11
24.551085
 21
73.21846999999999
 31
0.0
  0
LINE
  5
145
330
1D
100
AcDbEntity
  8
0
  6
Continuous
100
AcDbLine
 10
24.930295
 20
58.84835
 30
0.0
 11
24.727475
 21
63.07916
 31
0.0
  0
LINE
  5
146
330
1D
100
AcDbEntity
  8
0
  6
Continuous
100
AcDbLine
 10
24.551085
 20
73.21846999999999
 30
0.0
 11
24.593225
 21
76.45574
 31
0.0
  0
LINE
  5
147
330
1D
100
AcDbEntity
  8
0
  6
Continuous
100
AcDbLine
 10
25.626255
 20
44.07451
 30
0.0
 11
24.930295
 21
58.84835
 31
0.0
  0
LINE
  5
148
330
1D
100
AcDbEntity
  8
0
  6
Continuous
100
AcDbLine
 10
-6.527188999999999
 20
-9.865384999999999
 30
0.0
 11
-4.104214999999999
 21
-10.68157
 31
0.0
  0
LINE
  5
149
330
1D
100
AcDbEntity
  8
0
  6
Continuous
100
AcDbLine
 10
-8.195695
 20
-9.520785
 30
0.0
 11
-6.527188999999999
 21
-9.865384999999999
 31
0.0
  0
LINE
  5
14A
330
1D
100
AcDbEntity
  8
0
  6
Continuous
100
AcDbLine
 10
-15.794175
 20
-1.614932999999999
 30
0.0
 11
-16.378665
 21
2.582415
 31
0.0
  0
LINE
  5
14B
330
1D
100
AcDbEntity
  8
0
  6
Continuous
100
AcDbLine
 10
-14.040675
 20
-5.385834
 30
0.0
 11
-15.794175
 21
-1.614932999999999
 31
0.0
  0
LINE
  5
14C
330
1D
100
AcDbEntity
  8
0
  6
Continuous
100
AcDbLine
 10
-14.040675
 20
-5.385834
 30
0.0
 11
-12.646424
 21
-6.511233999999999
 31
0.0
  0
LINE
  5
14D
330
1D
100
AcDbEntity
  8
0
  6
Continuous
100
AcDbLine
 10
-12.646424
 20
-6.511233999999999
 30
0.0
 11
-11.702685
 21
-7.447428
 31
0.0
  0
LINE
  5
14E
330
1D
100
AcDbEntity
  8
0
  6
Continuous
100
AcDbLine
 10
-11.702685
 20
-7.447428
 30
0.0
 11
-8.195695
 21
-9.520785
 31
0.0
  0
LINE
  5
14F
330
1D
100
AcDbEntity
  8
0
  6
Continuous
100
AcDbLine
 10
-4.104214999999999
 20
-10.68157
 30
0.0
 11
-0.012725
 21
-10.950533
 31
0.0
  0
LINE
  5
150
330
1D
100
AcDbEntity
  8
0
  6
Continuous
100
AcDbLine
 10
-0.000005
 20
-10.948402
 30
0.0
 11
4.078755
 21
-10.67981
 31
0.0
  0
LINE
  5
283
330
1D
100
AcDbEntity
  8
0
  6
Continuous
100
AcDbLine
 10
-16.378665
 20
371.9316831933859
 30
0.0
 11
-16.378665
 21
370.2096731933859
 31
0.0
  0
LINE
  5
284
330
1D
100
AcDbEntity
  8
0
  6
Continuous
100
AcDbLine
 10
-16.378665
 20
370.2096731933859
 30
0.0
 11
-15.794175
 21
365.9939131933859
 31
0.0
  0
LINE
  5
285
330
1D
100
AcDbEntity
  8
0
  6
Continuous
100
AcDbLine
 10
-15.794175
 20
365.9939131933859
 30
0.0
 11
-14.157575
 21
362.0122831933859
 31
0.0
  0
LINE
  5
286
330
1D
100
AcDbEntity
  8
0
  6
Continuous
100
AcDbLine
 10
-14.157575
 20
362.0122831933859
 30
0.0
 11
-11.585785
 21
358.6162331933859
 31
0.0
  0
LINE
  5
287
330
1D
100
AcDbEntity
  8
0
  6
Continuous
100
AcDbLine
 10
-16.378665
 20
372.0392731933859
 30
0.0
 11
-16.378665
 21
371.9316831933859
 31
0.0
  0
LINE
  5
288
330
1D
100
AcDbEntity
  8
0
  6
Continuous
100
AcDbLine
 10
-4.221115000000001
 20
354.4004831933859
 30
0.0
 11
-0.0127249999999997
 21
353.8149231933859
 31
0.0
  0
LINE
  5
289
330
1D
100
AcDbEntity
  8
0
  6
Continuous
100
AcDbLine
 10
-8.195695
 20
356.0399031933859
 30
0.0
 11
-4.221115000000001
 21
354.4004831933859
 31
0.0
  0
LINE
  5
28A
330
1D
100
AcDbEntity
  8
0
  6
Continuous
100
AcDbLine
 10
-11.585785
 20
358.6162331933859
 30
0.0
 11
-8.195695
 21
356.0399031933859
 31
0.0
  0
LINE
  5
28B
330
1D
100
AcDbEntity
  8
0
  6
Continuous
100
AcDbLine
 10
-16.378665
 20
391.3929731933859
 30
0.0
 11
-16.378665
 21
373.9746431933859
 31
0.0
  0
LINE
  5
28C
330
1D
100
AcDbEntity
  8
0
  6
Continuous
100
AcDbLine
 10
-16.378665
 20
414.4944531933858
 30
0.0
 11
-16.378665
 21
391.3929731933859
 31
0.0
  0
LINE
  5
28D
330
1D
100
AcDbEntity
  8
0
  6
Continuous
100
AcDbLine
 10
-16.378665
 20
439.7446631933859
 30
0.0
 11
-16.378665
 21
414.4944531933858
 31
0.0
  0
LINE
  5
28E
330
1D
100
AcDbEntity
  8
0
  6
Continuous
100
AcDbLine
 10
-16.378665
 20
464.1533931933858
 30
0.0
 11
-16.378665
 21
439.7446631933859
 31
0.0
  0
LINE
  5
28F
330
1D
100
AcDbEntity
  8
0
  6
Continuous
100
AcDbLine
 10
-16.378665
 20
493.6264031933858
 30
0.0
 11
-16.378665
 21
464.1533931933858
 31
0.0
  0
LINE
  5
290
330
1D
100
AcDbEntity
  8
0
  6
Continuous
100
AcDbLine
 10
-16.378665
 20
500.9976981933858
 30
0.0
 11
-16.378665
 21
493.6264031933858
 31
0.0
  0
LINE
  5
291
330
1D
100
AcDbEntity
  8
0
  6
Continuous
100
AcDbLine
 10
16.353215
 20
493.6264031933858
 30
0.0
 11
16.353215
 21
500.6947161933858
 31
0.0
  0
LINE
  5
292
330
1D
100
AcDbEntity
  8
0
  6
Continuous
100
AcDbLine
 10
16.353215
 20
464.1533931933858
 30
0.0
 11
16.353215
 21
493.6264031933858
 31
0.0
  0
LINE
  5
293
330
1D
100
AcDbEntity
  8
0
  6
Continuous
100
AcDbLine
 10
16.353215
 20
439.7446631933859
 30
0.0
 11
16.353215
 21
464.1533931933858
 31
0.0
  0
LINE
  5
294
330
1D
100
AcDbEntity
  8
0
  6
Continuous
100
AcDbLine
 10
16.353215
 20
414.4944531933858
 30
0.0
 11
16.353215
 21
439.7446631933859
 31
0.0
  0
LINE
  5
295
330
1D
100
AcDbEntity
  8
0
  6
Continuous
100
AcDbLine
 10
16.353215
 20
370.2096731933859
 30
0.0
 11
16.353215
 21
371.9316831933859
 31
0.0
  0
LINE
  5
296
330
1D
100
AcDbEntity
  8
0
  6
Continuous
100
AcDbLine
 10
15.768715
 20
365.9939131933859
 30
0.0
 11
16.353215
 21
370.2096731933859
 31
0.0
  0
LINE
  5
297
330
1D
100
AcDbEntity
  8
0
  6
Continuous
100
AcDbLine
 10
14.132125
 20
362.0122831933859
 30
0.0
 11
15.768715
 21
365.9939131933859
 31
0.0
  0
LINE
  5
298
330
1D
100
AcDbEntity
  8
0
  6
Continuous
100
AcDbLine
 10
11.560335
 20
358.6162331933859
 30
0.0
 11
14.132125
 21
362.0122831933859
 31
0.0
  0
LINE
  5
299
330
1D
100
AcDbEntity
  8
0
  6
Continuous
100
AcDbLine
 10
16.353215
 20
371.9316831933859
 30
0.0
 11
16.353215
 21
372.0392731933859
 31
0.0
  0
LINE
  5
29A
330
1D
100
AcDbEntity
  8
0
  6
Continuous
100
AcDbLine
 10
-0.0127249999999997
 20
353.8149231933859
 30
0.0
 11
4.195655000000002
 21
354.4004831933859
 31
0.0
  0
LINE
  5
29B
330
1D
100
AcDbEntity
  8
0
  6
Continuous
100
AcDbLine
 10
4.195655000000002
 20
354.4004831933859
 30
0.0
 11
8.170245000000001
 21
356.0399031933859
 31
0.0
  0
LINE
  5
29C
330
1D
100
AcDbEntity
  8
0
  6
Continuous
100
AcDbLine
 10
8.170245000000001
 20
356.0399031933859
 30
0.0
 11
11.560335
 21
358.6162331933859
 31
0.0
  0
LINE
  5
29D
330
1D
100
AcDbEntity
  8
0
  6
Continuous
100
AcDbLine
 10
16.353215
 20
373.9746431933859
 30
0.0
 11
16.353215
 21
391.3929731933859
 31
0.0
  0
LINE
  5
29E
330
1D
100
AcDbEntity
  8
0
  6
Continuous
100
AcDbLine
 10
16.353215
 20
391.3929731933859
 30
0.0
 11
16.353215
 21
414.4944531933858
 31
0.0
  0
LINE
  5
29F
330
1D
100
AcDbEntity
  8
0
  6
Continuous
100
AcDbLine
 10
-16.378665
 20
373.9746431933859
 30
0.0
 11
-16.378665
 21
372.0392731933859
 31
0.0
  0
LINE
  5
2A0
330
1D
100
AcDbEntity
  8
0
  6
Continuous
100
AcDbLine
 10
16.353215
 20
372.0392731933859
 30
0.0
 11
16.353215
 21
373.9746431933859
 31
0.0
  0
LINE
  5
2A1
330
1D
100
AcDbEntity
  8
0
  6
Continuous
100
AcDbLine
 10
-22.456325
 20
571.0627131933859
 30
0.0
 11
-21.931755
 21
565.0792931933859
 31
0.0
  0
LINE
  5
2A2
330
1D
100
AcDbEntity
  8
0
  6
Continuous
100
AcDbLine
 10
-24.593235
 20
597.4842931933858
 30
0.0
 11
-24.357215
 21
592.6948431933858
 31
0.0
  0
LINE
  5
2A3
330
1D
100
AcDbEntity
  8
0
  6
Continuous
100
AcDbLine
 10
-15.268875
 20
489.9437231933858
 30
0.0
 11
-14.712675
 21
487.4040931933858
 31
0.0
  0
LINE
  5
2A4
330
1D
100
AcDbEntity
  8
0
  6
Continuous
100
AcDbLine
 10
-13.575205
 20
485.0451931933859
 30
0.0
 11
-11.659635
 21
483.0162431933858
 31
0.0
  0
LINE
  5
2A5
330
1D
100
AcDbEntity
  8
0
  6
Continuous
100
AcDbLine
 10
-14.712675
 20
487.4040931933858
 30
0.0
 11
-13.575205
 21
485.0451931933859
 31
0.0
  0
LINE
  5
2A6
330
1D
100
AcDbEntity
  8
0
  6
Continuous
100
AcDbLine
 10
-11.659635
 20
483.0162431933858
 30
0.0
 11
-9.003185000000001
 21
481.6180631933859
 31
0.0
  0
LINE
  5
2A7
330
1D
100
AcDbEntity
  8
0
  6
Continuous
100
AcDbLine
 10
-15.651535
 20
492.3384631933859
 30
0.0
 11
-15.268875
 21
489.9437231933858
 31
0.0
  0
LINE
  5
2A8
330
1D
100
AcDbEntity
  8
0
  6
Continuous
100
AcDbLine
 10
-9.003185000000001
 20
481.6180631933859
 30
0.0
 11
-6.050775000000001
 21
480.9326931933859
 31
0.0
  0
LINE
  5
2A9
330
1D
100
AcDbEntity
  8
0
  6
Continuous
100
AcDbLine
 10
-6.050775000000001
 20
480.9326931933859
 30
0.0
 11
-3.036934999999999
 21
480.5677031933859
 31
0.0
  0
LINE
  5
2AA
330
1D
100
AcDbEntity
  8
0
  6
Continuous
100
AcDbLine
 10
-20.773755
 20
551.7523031933858
 30
0.0
 11
-20.074605
 21
543.7059731933859
 31
0.0
  0
LINE
  5
2AB
330
1D
100
AcDbEntity
  8
0
  6
Continuous
100
AcDbLine
 10
-0.0000050000000016
 20
612.6009331933858
 30
0.0
 11
-5.509364999999998
 21
612.3397531933858
 31
0.0
  0
LINE
  5
2AC
330
1D
100
AcDbEntity
  8
0
  6
Continuous
100
AcDbLine
 10
-21.931755
 20
565.0792931933859
 30
0.0
 11
-21.472905
 21
559.7986431933859
 31
0.0
  0
LINE
  5
2AD
330
1D
100
AcDbEntity
  8
0
  6
Continuous
100
AcDbLine
 10
-19.313765
 20
535.9511731933858
 30
0.0
 11
-15.651535
 21
492.3384631933859
 31
0.0
  0
LINE
  5
2AE
330
1D
100
AcDbEntity
  8
0
  6
Continuous
100
AcDbLine
 10
-22.381645
 20
605.6454131933858
 30
0.0
 11
-23.972775
 21
602.2755631933859
 31
0.0
  0
LINE
  5
2AF
330
1D
100
AcDbEntity
  8
0
  6
Continuous
100
AcDbLine
 10
-19.375455
 20
535.6596431933859
 30
0.0
 11
-16.378665
 21
501.1704601933859
 31
0.0
  0
LINE
  5
2B0
330
1D
100
AcDbEntity
  8
0
  6
Continuous
100
AcDbLine
 10
-5.509364999999998
 20
612.3397531933858
 30
0.0
 11
-10.960255
 21
611.5776831933858
 31
0.0
  0
LINE
  5
2B1
330
1D
100
AcDbEntity
  8
0
  6
Continuous
100
AcDbLine
 10
-10.960255
 20
611.5776831933858
 30
0.0
 11
-16.291515
 21
610.1307531933858
 31
0.0
  0
LINE
  5
2B2
330
1D
100
AcDbEntity
  8
0
  6
Continuous
100
AcDbLine
 10
-16.291515
 20
610.1307531933858
 30
0.0
 11
-19.687215
 21
608.2742331933859
 31
0.0
  0
LINE
  5
2B3
330
1D
100
AcDbEntity
  8
0
  6
Continuous
100
AcDbLine
 10
-19.687215
 20
608.2742331933859
 30
0.0
 11
-22.381645
 21
605.6454131933858
 31
0.0
  0
LINE
  5
2B4
330
1D
100
AcDbEntity
  8
0
  6
Continuous
100
AcDbLine
 10
-23.972775
 20
602.2755631933859
 30
0.0
 11
-24.597855
 21
597.5071331933859
 31
0.0
  0
LINE
  5
2B5
330
1D
100
AcDbEntity
  8
0
  6
Continuous
100
AcDbLine
 10
-21.472905
 20
559.7986431933859
 30
0.0
 11
-20.773755
 21
551.7523031933858
 31
0.0
  0
LINE
  5
2B6
330
1D
100
AcDbEntity
  8
0
  6
Continuous
100
AcDbLine
 10
-20.074605
 20
543.7059731933859
 30
0.0
 11
-19.375455
 21
535.6596431933859
 31
0.0
  0
LINE
  5
2B7
330
1D
100
AcDbEntity
  8
0
  6
Continuous
100
AcDbLine
 10
-3.036934999999999
 20
480.5677031933859
 30
0.0
 11
-0.0000050000000016
 21
480.5192131933859
 31
0.0
  0
LINE
  5
2B8
330
1D
100
AcDbEntity
  8
0
  6
Continuous
100
AcDbLine
 10
-0.0000050000000016
 20
480.5661031933858
 30
0.0
 11
-3.036934999999999
 21
480.5677031933859
 31
0.0
  0
LINE
  5
2B9
330
1D
100
AcDbEntity
  8
0
  6
Continuous
100
AcDbLine
 10
21.931745
 20
565.0792831933858
 30
0.0
 11
22.44879500000001
 21
571.0299331933859
 31
0.0
  0
LINE
  5
2BA
330
1D
100
AcDbEntity
  8
0
  6
Continuous
100
AcDbLine
 10
24.357205
 20
592.6948431933858
 30
0.0
 11
24.59322500000001
 21
597.4842931933858
 31
0.0
  0
LINE
  5
2BB
330
1D
100
AcDbEntity
  8
0
  6
Continuous
100
AcDbLine
 10
14.712675
 20
487.4040931933858
 30
0.0
 11
15.26886499999999
 21
489.9437231933858
 31
0.0
  0
LINE
  5
2BC
330
1D
100
AcDbEntity
  8
0
  6
Continuous
100
AcDbLine
 10
11.659625
 20
483.0162431933858
 30
0.0
 11
13.575195
 21
485.0451931933859
 31
0.0
  0
LINE
  5
2BD
330
1D
100
AcDbEntity
  8
0
  6
Continuous
100
AcDbLine
 10
13.575195
 20
485.0451931933859
 30
0.0
 11
14.712675
 21
487.4040931933858
 31
0.0
  0
LINE
  5
2BE
330
1D
100
AcDbEntity
  8
0
  6
Continuous
100
AcDbLine
 10
9.003174999999998
 20
481.6180631933859
 30
0.0
 11
11.659625
 21
483.0162431933858
 31
0.0
  0
LINE
  5
2BF
330
1D
100
AcDbEntity
  8
0
  6
Continuous
100
AcDbLine
 10
15.26886499999999
 20
489.9437231933858
 30
0.0
 11
15.651525
 21
492.3384631933859
 31
0.0
  0
LINE
  5
2C0
330
1D
100
AcDbEntity
  8
0
  6
Continuous
100
AcDbLine
 10
6.050775000000001
 20
480.9326931933859
 30
0.0
 11
9.003174999999998
 21
481.6180631933859
 31
0.0
  0
LINE
  5
2C1
330
1D
100
AcDbEntity
  8
0
  6
Continuous
100
AcDbLine
 10
3.036934999999999
 20
480.5677031933859
 30
0.0
 11
6.050775000000001
 21
480.9326931933859
 31
0.0
  0
LINE
  5
2C2
330
1D
100
AcDbEntity
  8
0
  6
Continuous
100
AcDbLine
 10
20.074605
 20
543.7059731933859
 30
0.0
 11
20.773755
 21
551.7523031933858
 31
0.0
  0
LINE
  5
2C3
330
1D
100
AcDbEntity
  8
0
  6
Continuous
100
AcDbLine
 10
5.509354999999999
 20
612.3397531933858
 30
0.0
 11
-0.0000050000000016
 21
612.6009331933858
 31
0.0
  0
LINE
  5
2C4
330
1D
100
AcDbEntity
  8
0
  6
Continuous
100
AcDbLine
 10
21.472905
 20
559.7986331933859
 30
0.0
 11
21.931745
 21
565.0792831933858
 31
0.0
  0
LINE
  5
2C5
330
1D
100
AcDbEntity
  8
0
  6
Continuous
100
AcDbLine
 10
15.651525
 20
492.3384631933859
 30
0.0
 11
19.313765
 21
535.9511731933858
 31
0.0
  0
LINE
  5
2C6
330
1D
100
AcDbEntity
  8
0
  6
Continuous
100
AcDbLine
 10
23.972775
 20
602.2755631933859
 30
0.0
 11
22.381645
 21
605.6454131933858
 31
0.0
  0
LINE
  5
2C7
330
1D
100
AcDbEntity
  8
0
  6
Continuous
100
AcDbLine
 10
16.353215
 20
500.8776571933858
 30
0.0
 11
19.375455
 21
535.6596531933859
 31
0.0
  0
LINE
  5
2C8
330
1D
100
AcDbEntity
  8
0
  6
Continuous
100
AcDbLine
 10
10.960255
 20
611.5776831933858
 30
0.0
 11
5.509354999999999
 21
612.3397531933858
 31
0.0
  0
LINE
  5
2C9
330
1D
100
AcDbEntity
  8
0
  6
Continuous
100
AcDbLine
 10
16.291505
 20
610.1307531933858
 30
0.0
 11
10.960255
 21
611.5776831933858
 31
0.0
  0
LINE
  5
2CA
330
1D
100
AcDbEntity
  8
0
  6
Continuous
100
AcDbLine
 10
19.687205
 20
608.2742331933859
 30
0.0
 11
16.291505
 21
610.1307531933858
 31
0.0
  0
LINE
  5
2CB
330
1D
100
AcDbEntity
  8
0
  6
Continuous
100
AcDbLine
 10
22.381645
 20
605.6454131933858
 30
0.0
 11
19.687205
 21
608.2742331933859
 31
0.0
  0
LINE
  5
2CC
330
1D
100
AcDbEntity
  8
0
  6
Continuous
100
AcDbLine
 10
24.597855
 20
597.5071331933859
 30
0.0
 11
23.972775
 21
602.2755631933859
 31
0.0
  0
LINE
  5
2CD
330
1D
100
AcDbEntity
  8
0
  6
Continuous
100
AcDbLine
 10
20.773755
 20
551.7523031933858
 30
0.0
 11
21.472905
 21
559.7986331933859
 31
0.0
  0
LINE
  5
2CE
330
1D
100
AcDbEntity
  8
0
  6
Continuous
100
AcDbLine
 10
19.375455
 20
535.6596531933859
 30
0.0
 11
20.074605
 21
543.7059731933859
 31
0.0
  0
LINE
  5
2CF
330
1D
100
AcDbEntity
  8
0
  6
Continuous
100
AcDbLine
 10
-25.649785
 20
586.535033193386
 30
0.0
 11
-25.276285
 21
582.0327231933858
 31
0.0
  0
LINE
  5
2D0
330
1D
100
AcDbEntity
  8
0
  6
Continuous
100
AcDbLine
 10
-25.154505
 20
591.1097331933858
 30
0.0
 11
-25.649785
 21
586.535033193386
 31
0.0
  0
LINE
  5
2D1
330
1D
100
AcDbEntity
  8
0
  6
Continuous
100
AcDbLine
 10
-25.276285
 20
582.0327231933858
 30
0.0
 11
-23.993335
 21
577.3095031933859
 31
0.0
  0
LINE
  5
2D2
330
1D
100
AcDbEntity
  8
0
  6
Continuous
100
AcDbLine
 10
-24.208275
 20
595.6240531933858
 30
0.0
 11
-25.154505
 21
591.1097331933858
 31
0.0
  0
LINE
  5
2D3
330
1D
100
AcDbEntity
  8
0
  6
Continuous
100
AcDbLine
 10
-23.993335
 20
577.3095031933859
 30
0.0
 11
-22.244245
 21
573.8532331933859
 31
0.0
  0
LINE
  5
2D4
330
1D
100
AcDbEntity
  8
0
  6
Continuous
100
AcDbLine
 10
25.319195
 20
582.2804131933859
 30
0.0
 11
25.649785
 21
586.5350231933859
 31
0.0
  0
LINE
  5
2D5
330
1D
100
AcDbEntity
  8
0
  6
Continuous
100
AcDbLine
 10
25.649785
 20
586.5350231933859
 30
0.0
 11
25.154495
 21
591.1097131933859
 31
0.0
  0
LINE
  5
2D6
330
1D
100
AcDbEntity
  8
0
  6
Continuous
100
AcDbLine
 10
24.277265
 20
578.1146631933859
 30
0.0
 11
25.319195
 21
582.2804131933859
 31
0.0
  0
LINE
  5
2D7
330
1D
100
AcDbEntity
  8
0
  6
Continuous
100
AcDbLine
 10
25.154495
 20
591.1097131933859
 30
0.0
 11
24.208265
 21
595.6240431933858
 31
0.0
  0
LINE
  5
2D8
330
1D
100
AcDbEntity
  8
0
  6
Continuous
100
AcDbLine
 10
22.453765
 20
574.2270331933858
 30
0.0
 11
24.277265
 21
578.1146631933859
 31
0.0
  0
LINE
  5
2D9
330
1D
100
AcDbEntity
  8
0
  6
Continuous
100
AcDbLine
 10
-24.410765
 20
596.583213193386
 30
0.0
 11
-24.731025
 21
591.9372231933858
 31
0.0
  0
LINE
  5
2DA
330
1D
100
AcDbEntity
  8
0
  6
Continuous
100
AcDbLine
 10
-24.457535
 20
596.8141931933859
 30
0.0
 11
-24.635385
 21
592.1310531933859
 31
0.0
  0
LINE
  5
2DB
330
1D
100
AcDbEntity
  8
0
  6
Continuous
100
AcDbLine
 10
-24.504315
 20
597.0451731933858
 30
0.0
 11
-24.539755
 21
592.3248731933859
 31
0.0
  0
LINE
  5
2DC
330
1D
100
AcDbEntity
  8
0
  6
Continuous
100
AcDbLine
 10
-24.363985
 20
596.3522331933859
 30
0.0
 11
-24.826655
 21
591.7434031933859
 31
0.0
  0
LINE
  5
2DD
330
1D
100
AcDbEntity
  8
0
  6
Continuous
100
AcDbLine
 10
-0.0000050000000016
 20
480.5192131933859
 30
0.0
 11
3.036934999999999
 21
480.5677031933859
 31
0.0
  0
LINE
  5
2DE
330
1D
100
AcDbEntity
  8
0
  6
Continuous
100
AcDbLine
 10
3.036934999999999
 20
480.5677031933859
 30
0.0
 11
-0.0000050000000016
 21
480.5661031933858
 31
0.0
  0
LINE
  5
2DF
330
1D
100
AcDbEntity
  8
0
  6
Continuous
100
AcDbLine
 10
-23.130335
 20
577.1642931933858
 30
0.0
 11
-22.530735
 21
571.3869831933859
 31
0.0
  0
LINE
  5
2E0
330
1D
100
AcDbEntity
  8
0
  6
Continuous
100
AcDbLine
 10
-22.530735
 20
571.3869831933859
 30
0.0
 11
-21.912485
 21
565.0893031933858
 31
0.0
  0
LINE
  5
2E1
330
1D
100
AcDbEntity
  8
0
  6
Continuous
100
AcDbLine
 10
-24.357215
 20
592.6948431933858
 30
0.0
 11
-24.392079
 21
593.5187051933858
 31
0.0
  0
LINE
  5
2E2
330
1D
100
AcDbEntity
  8
0
  6
Continuous
100
AcDbLine
 10
-24.551085
 20
597.2761531933858
 30
0.0
 11
-24.444125
 21
592.5186931933858
 31
0.0
  0
LINE
  5
2E3
330
1D
100
AcDbEntity
  8
0
  6
Continuous
100
AcDbLine
 10
24.731015
 20
591.9372231933858
 30
0.0
 11
24.410755
 21
596.583213193386
 31
0.0
  0
LINE
  5
2E4
330
1D
100
AcDbEntity
  8
0
  6
Continuous
100
AcDbLine
 10
24.635385
 20
592.1310531933859
 30
0.0
 11
24.457535
 21
596.8141931933859
 31
0.0
  0
LINE
  5
2E5
330
1D
100
AcDbEntity
  8
0
  6
Continuous
100
AcDbLine
 10
24.539755
 20
592.3248731933859
 30
0.0
 11
24.504305
 21
597.0451731933858
 31
0.0
  0
LINE
  5
2E6
330
1D
100
AcDbEntity
  8
0
  6
Continuous
100
AcDbLine
 10
24.826655
 20
591.7434031933859
 30
0.0
 11
24.363985
 21
596.3522331933859
 31
0.0
  0
LINE
  5
2E7
330
1D
100
AcDbEntity
  8
0
  6
Continuous
100
AcDbLine
 10
22.530725
 20
571.3869831933859
 30
0.0
 11
23.130335
 21
577.1642931933858
 31
0.0
  0
LINE
  5
2E8
330
1D
100
AcDbEntity
  8
0
  6
Continuous
100
AcDbLine
 10
21.912475
 20
565.0893031933858
 30
0.0
 11
22.530725
 21
571.3869831933859
 31
0.0
  0
LINE
  5
2E9
330
1D
100
AcDbEntity
  8
0
  6
Continuous
100
AcDbLine
 10
24.393989
 20
593.5640381933858
 30
0.0
 11
24.357205
 21
592.6948431933858
 31
0.0
  0
LINE
  5
2EA
330
1D
100
AcDbEntity
  8
0
  6
Continuous
100
AcDbLine
 10
24.444115
 20
592.5186931933858
 30
0.0
 11
24.551085
 21
597.2761531933858
 31
0.0
  0
LINE
  5
401
330
1D
100
AcDbEntity
  8
0
  6
Continuous
100
AcDbLine
 10
410.2958945459119
 20
38.78827000000001
 30
0.0
 11
413.8933645459119
 21
38.50762
 31
0.0
  0
LINE
  5
402
330
1D
100
AcDbEntity
  8
0
  6
Continuous
100
AcDbLine
 10
406.923264545912
 20
39.05004
 30
0.0
 11
410.2958945459119
 21
38.78827000000001
 31
0.0
  0
LINE
  5
403
330
1D
100
AcDbEntity
  8
0
  6
Continuous
100
AcDbLine
 10
403.944084545912
 20
39.28183000000002
 30
0.0
 11
406.923264545912
 21
39.05004
 31
0.0
  0
LINE
  5
404
330
1D
100
AcDbEntity
  8
0
  6
Continuous
100
AcDbLine
 10
401.695654545912
 20
39.45635999999999
 30
0.0
 11
403.944084545912
 21
39.28183000000002
 31
0.0
  0
LINE
  5
405
330
1D
100
AcDbEntity
  8
0
  6
Continuous
100
AcDbLine
 10
400.346624545912
 20
39.56146999999999
 30
0.0
 11
401.695654545912
 21
39.45635999999999
 31
0.0
  0
LINE
  5
406
330
1D
100
AcDbEntity
  8
0
  6
Continuous
100
AcDbLine
 10
400.3142855459119
 20
43.98268000000001
 30
0.0
 11
399.840764545912
 21
39.60087999999999
 31
0.0
  0
LINE
  5
407
330
1D
100
AcDbEntity
  8
0
  6
Continuous
100
AcDbLine
 10
410.287504545912
 20
38.18569
 30
0.0
 11
413.8288545459119
 21
37.91077000000001
 31
0.0
  0
LINE
  5
408
330
1D
100
AcDbEntity
  8
0
  6
Continuous
100
AcDbLine
 10
413.8933645459119
 20
38.50762
 30
0.0
 11
410.2958945459119
 21
38.78827000000001
 31
0.0
  0
LINE
  5
409
330
1D
100
AcDbEntity
  8
0
  6
Continuous
100
AcDbLine
 10
407.0273245459119
 20
38.44004000000001
 30
0.0
 11
410.287504545912
 21
38.18569
 31
0.0
  0
LINE
  5
40A
330
1D
100
AcDbEntity
  8
0
  6
Continuous
100
AcDbLine
 10
410.2958945459119
 20
38.78827000000001
 30
0.0
 11
406.923264545912
 21
39.05004
 31
0.0
  0
LINE
  5
40B
330
1D
100
AcDbEntity
  8
0
  6
Continuous
100
AcDbLine
 10
404.160584545912
 20
38.66239999999999
 30
0.0
 11
407.0273245459119
 21
38.44004000000001
 31
0.0
  0
LINE
  5
40C
330
1D
100
AcDbEntity
  8
0
  6
Continuous
100
AcDbLine
 10
406.923264545912
 20
39.05004
 30
0.0
 11
403.944084545912
 21
39.28183000000002
 31
0.0
  0
LINE
  5
40D
330
1D
100
AcDbEntity
  8
0
  6
Continuous
100
AcDbLine
 10
401.968414545912
 20
38.83321000000001
 30
0.0
 11
404.160584545912
 21
38.66239999999999
 31
0.0
  0
LINE
  5
40E
330
1D
100
AcDbEntity
  8
0
  6
Continuous
100
AcDbLine
 10
403.944084545912
 20
39.28183000000002
 30
0.0
 11
401.695654545912
 21
39.45635999999999
 31
0.0
  0
LINE
  5
40F
330
1D
100
AcDbEntity
  8
0
  6
Continuous
100
AcDbLine
 10
400.619384545912
 20
38.93832000000001
 30
0.0
 11
401.968414545912
 21
38.83321000000001
 31
0.0
  0
LINE
  5
410
330
1D
100
AcDbEntity
  8
0
  6
Continuous
100
AcDbLine
 10
401.695654545912
 20
39.45635999999999
 30
0.0
 11
400.346624545912
 21
39.56146999999999
 31
0.0
  0
LINE
  5
411
330
1D
100
AcDbEntity
  8
0
  6
Continuous
100
AcDbLine
 10
400.1134145459119
 20
38.97773999999998
 30
0.0
 11
400.619384545912
 21
38.93832000000001
 31
0.0
  0
LINE
  5
412
330
1D
100
AcDbEntity
  8
0
  6
Continuous
100
AcDbLine
 10
399.840764545912
 20
39.60087999999999
 30
0.0
 11
400.1134145459119
 21
38.97773999999998
 31
0.0
  0
LINE
  5
413
330
1D
100
AcDbEntity
  8
0
  6
Continuous
100
AcDbLine
 10
400.346624545912
 20
39.56146999999999
 30
0.0
 11
399.840764545912
 21
39.60087999999999
 31
0.0
  0
LINE
  5
414
330
1D
100
AcDbEntity
  8
0
  6
Continuous
100
AcDbLine
 10
407.0273245459119
 20
38.44004000000001
 30
0.0
 11
404.160584545912
 21
38.66239999999999
 31
0.0
  0
LINE
  5
415
330
1D
100
AcDbEntity
  8
0
  6
Continuous
100
AcDbLine
 10
413.8933645459119
 20
38.50762
 30
0.0
 11
417.4908745459119
 21
38.22800000000001
 31
0.0
  0
LINE
  5
416
330
1D
100
AcDbEntity
  8
0
  6
Continuous
100
AcDbLine
 10
417.4908745459119
 20
38.22800000000001
 30
0.0
 11
420.8634645459119
 21
37.96621999999999
 31
0.0
  0
LINE
  5
417
330
1D
100
AcDbEntity
  8
0
  6
Continuous
100
AcDbLine
 10
420.8634645459119
 20
37.96621999999999
 30
0.0
 11
423.8426445459119
 21
37.73444000000001
 31
0.0
  0
LINE
  5
418
330
1D
100
AcDbEntity
  8
0
  6
Continuous
100
AcDbLine
 10
423.8426445459119
 20
37.73444000000001
 30
0.0
 11
426.091044545912
 21
37.55889999999999
 31
0.0
  0
LINE
  5
419
330
1D
100
AcDbEntity
  8
0
  6
Continuous
100
AcDbLine
 10
426.091044545912
 20
37.55889999999999
 30
0.0
 11
427.440134545912
 21
37.45479
 31
0.0
  0
LINE
  5
41A
330
1D
100
AcDbEntity
  8
0
  6
Continuous
100
AcDbLine
 10
427.945964545912
 20
37.41537
 30
0.0
 11
428.419446545912
 21
41.79634200000001
 31
0.0
  0
LINE
  5
41B
330
1D
100
AcDbEntity
  8
0
  6
Continuous
100
AcDbLine
 10
427.440134545912
 20
37.45479
 30
0.0
 11
427.945964545912
 21
37.41537
 31
0.0
  0
LINE
  5
41C
330
1D
100
AcDbEntity
  8
0
  6
Continuous
100
AcDbLine
 10
417.4908745459119
 20
38.22800000000001
 30
0.0
 11
413.8933645459119
 21
38.50762
 31
0.0
  0
LINE
  5
41D
330
1D
100
AcDbEntity
  8
0
  6
Continuous
100
AcDbLine
 10
413.8288545459119
 20
37.91077000000001
 30
0.0
 11
417.3699645459119
 21
37.63485
 31
0.0
  0
LINE
  5
41E
330
1D
100
AcDbEntity
  8
0
  6
Continuous
100
AcDbLine
 10
420.8634645459119
 20
37.96621999999999
 30
0.0
 11
417.4908745459119
 21
38.22800000000001
 31
0.0
  0
LINE
  5
41F
330
1D
100
AcDbEntity
  8
0
  6
Continuous
100
AcDbLine
 10
417.3699645459119
 20
37.63485
 30
0.0
 11
420.630274545912
 21
37.38148000000001
 31
0.0
  0
LINE
  5
420
330
1D
100
AcDbEntity
  8
0
  6
Continuous
100
AcDbLine
 10
423.8426445459119
 20
37.73444000000001
 30
0.0
 11
420.8634645459119
 21
37.96621999999999
 31
0.0
  0
LINE
  5
421
330
1D
100
AcDbEntity
  8
0
  6
Continuous
100
AcDbLine
 10
420.630274545912
 20
37.38148000000001
 30
0.0
 11
423.496954545912
 21
37.15812
 31
0.0
  0
LINE
  5
422
330
1D
100
AcDbEntity
  8
0
  6
Continuous
100
AcDbLine
 10
426.091044545912
 20
37.55889999999999
 30
0.0
 11
423.8426445459119
 21
37.73444000000001
 31
0.0
  0
LINE
  5
423
330
1D
100
AcDbEntity
  8
0
  6
Continuous
100
AcDbLine
 10
423.496954545912
 20
37.15812
 30
0.0
 11
425.689224545912
 21
36.98831999999999
 31
0.0
  0
LINE
  5
424
330
1D
100
AcDbEntity
  8
0
  6
Continuous
100
AcDbLine
 10
427.440134545912
 20
37.45479
 30
0.0
 11
426.091044545912
 21
37.55889999999999
 31
0.0
  0
LINE
  5
425
330
1D
100
AcDbEntity
  8
0
  6
Continuous
100
AcDbLine
 10
425.689224545912
 20
36.98831999999999
 30
0.0
 11
427.038234545912
 21
36.88320999999999
 31
0.0
  0
LINE
  5
426
330
1D
100
AcDbEntity
  8
0
  6
Continuous
100
AcDbLine
 10
427.945964545912
 20
37.41537
 30
0.0
 11
427.440134545912
 21
37.45479
 31
0.0
  0
LINE
  5
427
330
1D
100
AcDbEntity
  8
0
  6
Continuous
100
AcDbLine
 10
427.5442045459119
 20
36.84379999999999
 30
0.0
 11
427.945964545912
 21
37.41537
 31
0.0
  0
LINE
  5
428
330
1D
100
AcDbEntity
  8
0
  6
Continuous
100
AcDbLine
 10
427.038234545912
 20
36.88320999999999
 30
0.0
 11
427.5442045459119
 21
36.84379999999999
 31
0.0
  0
LINE
  5
429
330
1D
100
AcDbEntity
  8
0
  6
Continuous
100
AcDbLine
 10
423.496954545912
 20
37.15812
 30
0.0
 11
420.630274545912
 21
37.38148000000001
 31
0.0
  0
LINE
  5
42A
330
1D
100
AcDbEntity
  8
0
  6
Continuous
100
AcDbLine
 10
427.038234545912
 20
36.88320999999999
 30
0.0
 11
425.689224545912
 21
36.98831999999999
 31
0.0
  0
LINE
  5
42B
330
1D
100
AcDbEntity
  8
0
  6
Continuous
100
AcDbLine
 10
427.5442045459119
 20
36.84379999999999
 30
0.0
 11
427.038234545912
 21
36.88320999999999
 31
0.0
  0
LINE
  5
42C
330
1D
100
AcDbEntity
  8
0
  6
Continuous
100
AcDbLine
 10
591.6872245459119
 20
-4.253839999999996
 30
0.0
 11
605.292415545912
 21
-10.949652
 31
0.0
  0
LINE
  5
42D
330
1D
100
AcDbEntity
  8
0
  6
Continuous
100
AcDbLine
 10
605.6194045459119
 20
10.91716599999999
 30
0.0
 11
597.2418245459119
 21
14.95867000000001
 31
0.0
  0
LINE
  5
42E
330
1D
100
AcDbEntity
  8
0
  6
Continuous
100
AcDbLine
 10
564.789134545912
 20
7.988669999999999
 30
0.0
 11
591.6872245459119
 21
-4.253839999999996
 31
0.0
  0
LINE
  5
42F
330
1D
100
AcDbEntity
  8
0
  6
Continuous
100
AcDbLine
 10
597.2418245459119
 20
14.95867000000001
 30
0.0
 11
570.2489945459119
 21
27.22931
 31
0.0
  0
LINE
  5
430
330
1D
100
AcDbEntity
  8
0
  6
Continuous
100
AcDbLine
 10
533.656474545912
 20
19.79929999999999
 30
0.0
 11
564.789134545912
 21
7.988669999999999
 31
0.0
  0
LINE
  5
431
330
1D
100
AcDbEntity
  8
0
  6
Continuous
100
AcDbLine
 10
570.2489945459119
 20
27.22931
 30
0.0
 11
538.950694545912
 21
39.08645000000002
 31
0.0
  0
LINE
  5
432
330
1D
100
AcDbEntity
  8
0
  6
Continuous
100
AcDbLine
 10
504.9997245459119
 20
28.91182
 30
0.0
 11
533.656474545912
 21
19.79929999999999
 31
0.0
  0
LINE
  5
433
330
1D
100
AcDbEntity
  8
0
  6
Continuous
100
AcDbLine
 10
538.950694545912
 20
39.08645000000002
 30
0.0
 11
509.272364545912
 21
48.44984
 31
0.0
  0
LINE
  5
434
330
1D
100
AcDbEntity
  8
0
  6
Continuous
100
AcDbLine
 10
480.5916945459119
 20
35.22355999999999
 30
0.0
 11
504.9997245459119
 21
28.91182
 31
0.0
  0
LINE
  5
435
330
1D
100
AcDbEntity
  8
0
  6
Continuous
100
AcDbLine
 10
509.272364545912
 20
48.44984
 30
0.0
 11
484.863934545912
 21
54.76159000000001
 31
0.0
  0
LINE
  5
436
330
1D
100
AcDbEntity
  8
0
  6
Continuous
100
AcDbLine
 10
456.0265445459119
 20
39.68520999999999
 30
0.0
 11
480.5916945459119
 21
35.22355999999999
 31
0.0
  0
LINE
  5
437
330
1D
100
AcDbEntity
  8
0
  6
Continuous
100
AcDbLine
 10
484.863934545912
 20
54.76159000000001
 30
0.0
 11
459.442414545912
 21
59.39152000000001
 31
0.0
  0
LINE
  5
438
330
1D
100
AcDbEntity
  8
0
  6
Continuous
100
AcDbLine
 10
416.734584545912
 20
64.79867999999999
 30
0.0
 11
416.1490345459119
 21
64.84393
 31
0.0
  0
LINE
  5
439
330
1D
100
AcDbEntity
  8
0
  6
Continuous
100
AcDbLine
 10
400.602514545912
 20
63.04041000000001
 30
0.0
 11
399.909354545912
 21
62.09021000000001
 31
0.0
  0
LINE
  5
43A
330
1D
100
AcDbEntity
  8
0
  6
Continuous
100
AcDbLine
 10
402.466744545912
 20
63.90003999999999
 30
0.0
 11
400.602514545912
 21
63.04041000000001
 31
0.0
  0
LINE
  5
43B
330
1D
100
AcDbEntity
  8
0
  6
Continuous
100
AcDbLine
 10
408.483414545912
 20
64.93808999999998
 30
0.0
 11
402.466744545912
 21
63.90003999999999
 31
0.0
  0
LINE
  5
43C
330
1D
100
AcDbEntity
  8
0
  6
Continuous
100
AcDbLine
 10
414.392494545912
 20
64.98070000000002
 30
0.0
 11
408.483414545912
 21
64.93808999999998
 31
0.0
  0
LINE
  5
43D
330
1D
100
AcDbEntity
  8
0
  6
Continuous
100
AcDbLine
 10
415.0951645459119
 20
64.92581000000001
 30
0.0
 11
414.743714545912
 21
64.95276000000001
 31
0.0
  0
LINE
  5
43E
330
1D
100
AcDbEntity
  8
0
  6
Continuous
100
AcDbLine
 10
410.502444545912
 20
43.19049999999998
 30
0.0
 11
406.755014545912
 21
43.48134999999999
 31
0.0
  0
LINE
  5
43F
330
1D
100
AcDbEntity
  8
0
  6
Continuous
100
AcDbLine
 10
414.474514545912
 20
43.88541
 30
0.0
 11
410.258754545912
 21
44.21386999999998
 31
0.0
  0
LINE
  5
440
330
1D
100
AcDbEntity
  8
0
  6
Continuous
100
AcDbLine
 10
410.502444545912
 20
43.19049999999998
 30
0.0
 11
414.3669945459119
 21
42.88998000000001
 31
0.0
  0
LINE
  5
441
330
1D
100
AcDbEntity
  8
0
  6
Continuous
100
AcDbLine
 10
410.258754545912
 20
44.21386999999998
 30
0.0
 11
406.277124545912
 21
44.52306999999999
 31
0.0
  0
LINE
  5
442
330
1D
100
AcDbEntity
  8
0
  6
Continuous
100
AcDbLine
 10
406.755014545912
 20
43.48134999999999
 30
0.0
 11
410.502444545912
 21
43.19049999999998
 31
0.0
  0
LINE
  5
443
330
1D
100
AcDbEntity
  8
0
  6
Continuous
100
AcDbLine
 10
406.277124545912
 20
44.52306999999999
 30
0.0
 11
402.881074545912
 21
44.78696999999999
 31
0.0
  0
LINE
  5
444
330
1D
100
AcDbEntity
  8
0
  6
Continuous
100
AcDbLine
 10
403.593224545912
 20
43.72797
 30
0.0
 11
406.755014545912
 21
43.48134999999999
 31
0.0
  0
LINE
  5
445
330
1D
100
AcDbEntity
  8
0
  6
Continuous
100
AcDbLine
 10
410.258754545912
 20
44.21386999999998
 30
0.0
 11
414.474514545912
 21
43.88541
 31
0.0
  0
LINE
  5
446
330
1D
100
AcDbEntity
  8
0
  6
Continuous
100
AcDbLine
 10
406.277124545912
 20
44.52306999999999
 30
0.0
 11
410.258754545912
 21
44.21386999999998
 31
0.0
  0
LINE
  5
447
330
1D
100
AcDbEntity
  8
0
  6
Continuous
100
AcDbLine
 10
402.881074545912
 20
44.78696999999999
 30
0.0
 11
406.277124545912
 21
44.52306999999999
 31
0.0
  0
LINE
  5
448
330
1D
100
AcDbEntity
  8
0
  6
Continuous
100
AcDbLine
 10
399.728744545912
 20
44.0285
 30
0.0
 11
399.143204545912
 21
44.07373999999999
 31
0.0
  0
LINE
  5
449
330
1D
100
AcDbEntity
  8
0
  6
Continuous
100
AcDbLine
 10
403.593224545912
 20
43.72797
 30
0.0
 11
401.133964545912
 21
43.91865000000001
 31
0.0
  0
LINE
  5
44A
330
1D
100
AcDbEntity
  8
0
  6
Continuous
100
AcDbLine
 10
398.079764545912
 20
45.16068000000001
 30
0.0
 11
399.143204545912
 21
44.07373999999999
 31
0.0
  0
LINE
  5
44B
330
1D
100
AcDbEntity
  8
0
  6
Continuous
100
AcDbLine
 10
398.665324545912
 20
45.11544
 30
0.0
 11
398.079764545912
 21
45.16068000000001
 31
0.0
  0
LINE
  5
44C
330
1D
100
AcDbEntity
  8
0
  6
Continuous
100
AcDbLine
 10
399.143204545912
 20
44.07373999999999
 30
0.0
 11
399.728744545912
 21
44.0285
 31
0.0
  0
LINE
  5
44D
330
1D
100
AcDbEntity
  8
0
  6
Continuous
100
AcDbLine
 10
400.3047445459119
 20
44.98730000000001
 30
0.0
 11
398.665324545912
 21
45.11544
 31
0.0
  0
LINE
  5
44E
330
1D
100
AcDbEntity
  8
0
  6
Continuous
100
AcDbLine
 10
399.728744545912
 20
44.0285
 30
0.0
 11
401.133964545912
 21
43.91865000000001
 31
0.0
  0
LINE
  5
44F
330
1D
100
AcDbEntity
  8
0
  6
Continuous
100
AcDbLine
 10
402.881074545912
 20
44.78696999999999
 30
0.0
 11
400.3047445459119
 21
44.98730000000001
 31
0.0
  0
LINE
  5
450
330
1D
100
AcDbEntity
  8
0
  6
Continuous
100
AcDbLine
 10
401.133964545912
 20
43.91865000000001
 30
0.0
 11
403.593224545912
 21
43.72797
 31
0.0
  0
LINE
  5
451
330
1D
100
AcDbEntity
  8
0
  6
Continuous
100
AcDbLine
 10
399.801754545912
 20
61.09476
 30
0.0
 11
398.079764545912
 21
45.16068000000001
 31
0.0
  0
LINE
  5
452
330
1D
100
AcDbEntity
  8
0
  6
Continuous
100
AcDbLine
 10
398.079764545912
 20
45.16068000000001
 30
0.0
 11
398.665324545912
 21
45.11544
 31
0.0
  0
LINE
  5
453
330
1D
100
AcDbEntity
  8
0
  6
Continuous
100
AcDbLine
 10
398.665324545912
 20
45.11544
 30
0.0
 11
400.3047445459119
 21
44.98730000000001
 31
0.0
  0
LINE
  5
454
330
1D
100
AcDbEntity
  8
0
  6
Continuous
100
AcDbLine
 10
400.3047445459119
 20
44.98730000000001
 30
0.0
 11
402.881074545912
 21
44.78696999999999
 31
0.0
  0
LINE
  5
455
330
1D
100
AcDbEntity
  8
0
  6
Continuous
100
AcDbLine
 10
399.909354545912
 20
62.09021000000001
 30
0.0
 11
399.801754545912
 21
61.09476
 31
0.0
  0
LINE
  5
456
330
1D
100
AcDbEntity
  8
0
  6
Continuous
100
AcDbLine
 10
421.9787845459119
 20
42.29759000000001
 30
0.0
 11
418.231414545912
 21
42.58944999999999
 31
0.0
  0
LINE
  5
457
330
1D
100
AcDbEntity
  8
0
  6
Continuous
100
AcDbLine
 10
418.690344545912
 20
43.55793
 30
0.0
 11
414.474514545912
 21
43.88541
 31
0.0
  0
LINE
  5
458
330
1D
100
AcDbEntity
  8
0
  6
Continuous
100
AcDbLine
 10
414.3669945459119
 20
42.88998000000001
 30
0.0
 11
418.231414545912
 21
42.58944999999999
 31
0.0
  0
LINE
  5
459
330
1D
100
AcDbEntity
  8
0
  6
Continuous
100
AcDbLine
 10
422.6718245459119
 20
43.24778000000001
 30
0.0
 11
418.690344545912
 21
43.55793
 31
0.0
  0
LINE
  5
45A
330
1D
100
AcDbEntity
  8
0
  6
Continuous
100
AcDbLine
 10
418.231414545912
 20
42.58944999999999
 30
0.0
 11
421.9787845459119
 21
42.29759000000001
 31
0.0
  0
LINE
  5
45B
330
1D
100
AcDbEntity
  8
0
  6
Continuous
100
AcDbLine
 10
426.067954545912
 20
42.98385999999999
 30
0.0
 11
422.6718245459119
 21
43.24778000000001
 31
0.0
  0
LINE
  5
45C
330
1D
100
AcDbEntity
  8
0
  6
Continuous
100
AcDbLine
 10
421.9787845459119
 20
42.29759000000001
 30
0.0
 11
425.1406145459119
 21
42.05198000000001
 31
0.0
  0
LINE
  5
45D
330
1D
100
AcDbEntity
  8
0
  6
Continuous
100
AcDbLine
 10
414.474514545912
 20
43.88541
 30
0.0
 11
418.690344545912
 21
43.55793
 31
0.0
  0
LINE
  5
45E
330
1D
100
AcDbEntity
  8
0
  6
Continuous
100
AcDbLine
 10
418.690344545912
 20
43.55793
 30
0.0
 11
422.6718245459119
 21
43.24778000000001
 31
0.0
  0
LINE
  5
45F
330
1D
100
AcDbEntity
  8
0
  6
Continuous
100
AcDbLine
 10
422.6718245459119
 20
43.24778000000001
 30
0.0
 11
426.067954545912
 21
42.98385999999999
 31
0.0
  0
LINE
  5
460
330
1D
100
AcDbEntity
  8
0
  6
Continuous
100
AcDbLine
 10
429.5905545459119
 20
41.70519999999998
 30
0.0
 11
429.005074545912
 21
41.75146
 31
0.0
  0
LINE
  5
461
330
1D
100
AcDbEntity
  8
0
  6
Continuous
100
AcDbLine
 10
427.599794545912
 20
41.86028999999999
 30
0.0
 11
425.1406145459119
 21
42.05198000000001
 31
0.0
  0
LINE
  5
462
330
1D
100
AcDbEntity
  8
0
  6
Continuous
100
AcDbLine
 10
430.869284545912
 20
42.61012
 30
0.0
 11
430.283804545912
 21
42.65638999999999
 31
0.0
  0
LINE
  5
463
330
1D
100
AcDbEntity
  8
0
  6
Continuous
100
AcDbLine
 10
429.5905545459119
 20
41.70519999999998
 30
0.0
 11
430.869284545912
 21
42.61012
 31
0.0
  0
LINE
  5
464
330
1D
100
AcDbEntity
  8
0
  6
Continuous
100
AcDbLine
 10
429.005074545912
 20
41.75146
 30
0.0
 11
429.5905545459119
 21
41.70519999999998
 31
0.0
  0
LINE
  5
465
330
1D
100
AcDbEntity
  8
0
  6
Continuous
100
AcDbLine
 10
430.283804545912
 20
42.65638999999999
 30
0.0
 11
428.644244545912
 21
42.78351
 31
0.0
  0
LINE
  5
466
330
1D
100
AcDbEntity
  8
0
  6
Continuous
100
AcDbLine
 10
427.599794545912
 20
41.86028999999999
 30
0.0
 11
429.005074545912
 21
41.75146
 31
0.0
  0
LINE
  5
467
330
1D
100
AcDbEntity
  8
0
  6
Continuous
100
AcDbLine
 10
428.644244545912
 20
42.78351
 30
0.0
 11
426.067954545912
 21
42.98385999999999
 31
0.0
  0
LINE
  5
468
330
1D
100
AcDbEntity
  8
0
  6
Continuous
100
AcDbLine
 10
425.1406145459119
 20
42.05198000000001
 30
0.0
 11
427.599794545912
 21
41.86028999999999
 31
0.0
  0
LINE
  5
469
330
1D
100
AcDbEntity
  8
0
  6
Continuous
100
AcDbLine
 10
430.869284545912
 20
42.61012
 30
0.0
 11
430.9156485459119
 21
43.03916
 31
0.0
  0
LINE
  5
46A
330
1D
100
AcDbEntity
  8
0
  6
Continuous
100
AcDbLine
 10
430.283804545912
 20
42.65638999999999
 30
0.0
 11
430.869284545912
 21
42.61012
 31
0.0
  0
LINE
  5
46B
330
1D
100
AcDbEntity
  8
0
  6
Continuous
100
AcDbLine
 10
428.644244545912
 20
42.78351
 30
0.0
 11
430.283804545912
 21
42.65638999999999
 31
0.0
  0
LINE
  5
46C
330
1D
100
AcDbEntity
  8
0
  6
Continuous
100
AcDbLine
 10
426.067954545912
 20
42.98385999999999
 30
0.0
 11
428.644244545912
 21
42.78351
 31
0.0
  0
LINE
  5
46D
330
1D
100
AcDbEntity
  8
0
  6
Continuous
100
AcDbLine
 10
430.915616545912
 20
43.03913099999999
 30
0.0
 11
433.6152545459119
 21
42.73455999999998
 31
0.0
  0
LINE
  5
46E
330
1D
100
AcDbEntity
  8
0
  6
Continuous
100
AcDbLine
 10
436.168414545912
 20
62.57117
 30
0.0
 11
418.6779445459119
 21
64.57594
 31
0.0
  0
LINE
  5
46F
330
1D
100
AcDbEntity
  8
0
  6
Continuous
100
AcDbLine
 10
433.6152545459119
 20
42.73455999999998
 30
0.0
 11
456.0265445459119
 21
39.68520999999999
 31
0.0
  0
LINE
  5
470
330
1D
100
AcDbEntity
  8
0
  6
Continuous
100
AcDbLine
 10
459.442414545912
 20
59.39152000000001
 30
0.0
 11
436.168414545912
 21
62.57117
 31
0.0
  0
LINE
  5
471
330
1D
100
AcDbEntity
  8
0
  6
Continuous
100
AcDbLine
 10
416.304114545912
 20
60.81489999999999
 30
0.0
 11
416.196524545912
 21
59.81946999999999
 31
0.0
  0
LINE
  5
472
330
1D
100
AcDbEntity
  8
0
  6
Continuous
100
AcDbLine
 10
418.6779445459119
 20
64.57594
 30
0.0
 11
416.734584545912
 21
64.79867999999999
 31
0.0
  0
LINE
  5
473
330
1D
100
AcDbEntity
  8
0
  6
Continuous
100
AcDbLine
 10
653.0899115459119
 20
49.475884
 30
0.0
 11
652.089108545912
 21
51.43413699999999
 31
0.0
  0
LINE
  5
474
330
1D
100
AcDbEntity
  8
0
  6
Continuous
100
AcDbLine
 10
654.406303545912
 20
45.35318599999999
 30
0.0
 11
653.0899115459119
 21
49.475884
 31
0.0
  0
LINE
  5
475
330
1D
100
AcDbEntity
  8
0
  6
Continuous
100
AcDbLine
 10
656.2860305459119
 20
-116.249494
 30
0.0
 11
656.2860305459119
 21
39.90534400000001
 31
0.0
  0
LINE
  5
476
330
1D
100
AcDbEntity
  8
0
  6
Continuous
100
AcDbLine
 10
605.292415545912
 20
39.90534400000001
 30
0.0
 11
605.292415545912
 21
11.074911
 31
0.0
  0
LINE
  5
477
330
1D
100
AcDbEntity
  8
0
  6
Continuous
100
AcDbLine
 10
605.292415545912
 20
-10.949652
 30
0.0
 11
605.292415545912
 21
-116.249494
 31
0.0
  0
LINE
  5
478
330
1D
100
AcDbEntity
  8
0
  6
Continuous
100
AcDbLine
 10
605.289539545912
 20
41.857279
 30
0.0
 11
605.290304545912
 21
41.25664399999999
 31
0.0
  0
LINE
  5
479
330
1D
100
AcDbEntity
  8
0
  6
Continuous
100
AcDbLine
 10
606.236395545912
 20
42.31046900000001
 30
0.0
 11
605.5357875459119
 21
42.16035999999999
 31
0.0
  0
LINE
  5
47A
330
1D
100
AcDbEntity
  8
0
  6
Continuous
100
AcDbLine
 10
656.288142545912
 20
41.256674
 30
0.0
 11
656.2888965459119
 21
41.85724899999999
 31
0.0
  0
LINE
  5
47B
330
1D
100
AcDbEntity
  8
0
  6
Continuous
100
AcDbLine
 10
656.0426585459119
 20
42.16034999999999
 30
0.0
 11
655.3420515459119
 21
42.310459
 31
0.0
  0
LINE
  5
47C
330
1D
100
AcDbEntity
  8
0
  6
Continuous
100
AcDbLine
 10
654.779551545912
 20
43.16574700000001
 30
0.0
 11
654.406303545912
 21
45.35318599999999
 31
0.0
  0
LINE
  5
47D
330
1D
100
AcDbEntity
  8
0
  6
Continuous
100
AcDbLine
 10
612.758968545912
 20
41.00644599999998
 30
0.0
 11
618.039896545912
 21
41.006436
 31
0.0
  0
LINE
  5
47E
330
1D
100
AcDbEntity
  8
0
  6
Continuous
100
AcDbLine
 10
605.290304545912
 20
41.25664399999999
 30
0.0
 11
605.290620545912
 21
41.006436
 31
0.0
  0
LINE
  5
47F
330
1D
100
AcDbEntity
  8
0
  6
Continuous
100
AcDbLine
 10
605.290620545912
 20
41.006436
 30
0.0
 11
606.159466545912
 21
41.006436
 31
0.0
  0
LINE
  5
480
330
1D
100
AcDbEntity
  8
0
  6
Continuous
100
AcDbLine
 10
655.369866545912
 20
42.10751799999999
 30
0.0
 11
652.8500485459119
 21
42.10751799999999
 31
0.0
  0
LINE
  5
481
330
1D
100
AcDbEntity
  8
0
  6
Continuous
100
AcDbLine
 10
652.8500485459119
 20
42.10751799999999
 30
0.0
 11
648.7811565459119
 21
42.10751799999999
 31
0.0
  0
LINE
  5
482
330
1D
100
AcDbEntity
  8
0
  6
Continuous
100
AcDbLine
 10
648.7811565459119
 20
42.10751799999999
 30
0.0
 11
643.465650545912
 21
42.10751799999999
 31
0.0
  0
LINE
  5
483
330
1D
100
AcDbEntity
  8
0
  6
Continuous
100
AcDbLine
 10
643.465650545912
 20
42.10751799999999
 30
0.0
 11
637.3779235459119
 21
42.10751799999999
 31
0.0
  0
LINE
  5
484
330
1D
100
AcDbEntity
  8
0
  6
Continuous
100
AcDbLine
 10
637.3779235459119
 20
42.10751799999999
 30
0.0
 11
630.789202545912
 21
42.10751799999999
 31
0.0
  0
LINE
  5
485
330
1D
100
AcDbEntity
  8
0
  6
Continuous
100
AcDbLine
 10
630.789202545912
 20
42.10751799999999
 30
0.0
 11
624.200512545912
 21
42.10751799999999
 31
0.0
  0
LINE
  5
486
330
1D
100
AcDbEntity
  8
0
  6
Continuous
100
AcDbLine
 10
624.200512545912
 20
42.10751799999999
 30
0.0
 11
618.039202545912
 21
42.10751799999999
 31
0.0
  0
LINE
  5
487
330
1D
100
AcDbEntity
  8
0
  6
Continuous
100
AcDbLine
 10
612.7579795459119
 20
42.107528
 30
0.0
 11
608.728387545912
 21
42.10751799999999
 31
0.0
  0
LINE
  5
488
330
1D
100
AcDbEntity
  8
0
  6
Continuous
100
AcDbLine
 10
608.728387545912
 20
42.10751799999999
 30
0.0
 11
606.1581105459119
 21
42.107528
 31
0.0
  0
LINE
  5
489
330
1D
100
AcDbEntity
  8
0
  6
Continuous
100
AcDbLine
 10
656.289223545912
 20
42.10751799999999
 30
0.0
 11
656.0426585459119
 21
42.16034999999999
 31
0.0
  0
LINE
  5
48A
330
1D
100
AcDbEntity
  8
0
  6
Continuous
100
AcDbLine
 10
656.2888965459119
 20
41.85724899999999
 30
0.0
 11
656.289223545912
 21
42.10751799999999
 31
0.0
  0
LINE
  5
48B
330
1D
100
AcDbEntity
  8
0
  6
Continuous
100
AcDbLine
 10
656.289223545912
 20
42.10751799999999
 30
0.0
 11
655.369866545912
 21
42.10751799999999
 31
0.0
  0
LINE
  5
48C
330
1D
100
AcDbEntity
  8
0
  6
Continuous
100
AcDbLine
 10
656.287825545912
 20
41.006436
 30
0.0
 11
656.288142545912
 21
41.256674
 31
0.0
  0
LINE
  5
48D
330
1D
100
AcDbEntity
  8
0
  6
Continuous
100
AcDbLine
 10
655.347294545912
 20
41.006436
 30
0.0
 11
656.287825545912
 21
41.006436
 31
0.0
  0
LINE
  5
48E
330
1D
100
AcDbEntity
  8
0
  6
Continuous
100
AcDbLine
 10
605.5357875459119
 20
42.16035999999999
 30
0.0
 11
605.289223545912
 21
42.107528
 31
0.0
  0
LINE
  5
48F
330
1D
100
AcDbEntity
  8
0
  6
Continuous
100
AcDbLine
 10
605.289223545912
 20
42.107528
 30
0.0
 11
605.289539545912
 21
41.857279
 31
0.0
  0
LINE
  5
490
330
1D
100
AcDbEntity
  8
0
  6
Continuous
100
AcDbLine
 10
606.1581105459119
 20
42.107528
 30
0.0
 11
605.289223545912
 21
42.107528
 31
0.0
  0
LINE
  5
491
330
1D
100
AcDbEntity
  8
0
  6
Continuous
100
AcDbLine
 10
637.3728645459119
 20
41.006436
 30
0.0
 11
643.434010545912
 21
41.006436
 31
0.0
  0
LINE
  5
492
330
1D
100
AcDbEntity
  8
0
  6
Continuous
100
AcDbLine
 10
618.039202545912
 20
42.10751799999999
 30
0.0
 11
612.7579795459119
 21
42.107528
 31
0.0
  0
LINE
  5
493
330
1D
100
AcDbEntity
  8
0
  6
Continuous
100
AcDbLine
 10
643.434010545912
 20
41.006436
 30
0.0
 11
648.763642545912
 21
41.006436
 31
0.0
  0
LINE
  5
494
330
1D
100
AcDbEntity
  8
0
  6
Continuous
100
AcDbLine
 10
648.763642545912
 20
41.006436
 30
0.0
 11
652.839246545912
 21
41.006436
 31
0.0
  0
LINE
  5
495
330
1D
100
AcDbEntity
  8
0
  6
Continuous
100
AcDbLine
 10
652.839246545912
 20
41.006436
 30
0.0
 11
655.347294545912
 21
41.006436
 31
0.0
  0
LINE
  5
496
330
1D
100
AcDbEntity
  8
0
  6
Continuous
100
AcDbLine
 10
630.789202545912
 20
41.006436
 30
0.0
 11
637.3728645459119
 21
41.006436
 31
0.0
  0
LINE
  5
497
330
1D
100
AcDbEntity
  8
0
  6
Continuous
100
AcDbLine
 10
624.2055825459119
 20
41.006436
 30
0.0
 11
630.789202545912
 21
41.006436
 31
0.0
  0
LINE
  5
498
330
1D
100
AcDbEntity
  8
0
  6
Continuous
100
AcDbLine
 10
618.039896545912
 20
41.006436
 30
0.0
 11
624.2055825459119
 21
41.006436
 31
0.0
  0
LINE
  5
499
330
1D
100
AcDbEntity
  8
0
  6
Continuous
100
AcDbLine
 10
606.159466545912
 20
41.006436
 30
0.0
 11
608.739199545912
 21
41.006436
 31
0.0
  0
LINE
  5
49A
330
1D
100
AcDbEntity
  8
0
  6
Continuous
100
AcDbLine
 10
655.3420515459119
 20
42.310459
 30
0.0
 11
654.821647545912
 21
42.919012
 31
0.0
  0
LINE
  5
49B
330
1D
100
AcDbEntity
  8
0
  6
Continuous
100
AcDbLine
 10
654.821647545912
 20
42.919012
 30
0.0
 11
654.779551545912
 21
43.16574700000001
 31
0.0
  0
LINE
  5
49C
330
1D
100
AcDbEntity
  8
0
  6
Continuous
100
AcDbLine
 10
606.756799545912
 20
42.919012
 30
0.0
 11
606.236395545912
 21
42.31046900000001
 31
0.0
  0
LINE
  5
49D
330
1D
100
AcDbEntity
  8
0
  6
Continuous
100
AcDbLine
 10
606.7989255459119
 20
43.165897
 30
0.0
 11
606.756799545912
 21
42.919012
 31
0.0
  0
LINE
  5
49E
330
1D
100
AcDbEntity
  8
0
  6
Continuous
100
AcDbLine
 10
656.035314545912
 20
39.87743599999999
 30
0.0
 11
656.035314545912
 21
41.006436
 31
0.0
  0
LINE
  5
49F
330
1D
100
AcDbEntity
  8
0
  6
Continuous
100
AcDbLine
 10
612.758968545912
 20
41.00644599999998
 30
0.0
 11
608.739199545912
 21
41.006436
 31
0.0
  0
LINE
  5
4A0
330
1D
100
AcDbEntity
  8
0
  6
Continuous
100
AcDbLine
 10
605.542744545912
 20
41.006436
 30
0.0
 11
605.542744545912
 21
39.87744599999999
 31
0.0
  0
LINE
  5
4A1
330
1D
100
AcDbEntity
  8
0
  6
Continuous
100
AcDbLine
 10
656.2860305459119
 20
39.90534400000001
 30
0.0
 11
656.286020545912
 21
40.40584000000001
 31
0.0
  0
LINE
  5
4A2
330
1D
100
AcDbEntity
  8
0
  6
Continuous
100
AcDbLine
 10
656.286020545912
 20
40.40584000000001
 30
0.0
 11
655.368153545912
 21
40.40584000000001
 31
0.0
  0
LINE
  5
4A3
330
1D
100
AcDbEntity
  8
0
  6
Continuous
100
AcDbLine
 10
652.920459545912
 20
40.40584000000001
 30
0.0
 11
648.8409795459119
 21
40.40584000000001
 31
0.0
  0
LINE
  5
4A4
330
1D
100
AcDbEntity
  8
0
  6
Continuous
100
AcDbLine
 10
643.435632545912
 20
40.40584000000001
 30
0.0
 11
637.3164075459119
 21
40.40584000000001
 31
0.0
  0
LINE
  5
4A5
330
1D
100
AcDbEntity
  8
0
  6
Continuous
100
AcDbLine
 10
648.8409795459119
 20
40.40584000000001
 30
0.0
 11
643.435632545912
 21
40.40584000000001
 31
0.0
  0
LINE
  5
4A6
330
1D
100
AcDbEntity
  8
0
  6
Continuous
100
AcDbLine
 10
655.368153545912
 20
40.40584000000001
 30
0.0
 11
652.920459545912
 21
40.40584000000001
 31
0.0
  0
LINE
  5
4A7
330
1D
100
AcDbEntity
  8
0
  6
Continuous
100
AcDbLine
 10
612.7374675459121
 20
40.40584000000001
 30
0.0
 11
608.6579875459119
 21
40.40584000000001
 31
0.0
  0
LINE
  5
4A8
330
1D
100
AcDbEntity
  8
0
  6
Continuous
100
AcDbLine
 10
605.292426545912
 20
40.40584000000001
 30
0.0
 11
605.292415545912
 21
39.90534400000001
 31
0.0
  0
LINE
  5
4A9
330
1D
100
AcDbEntity
  8
0
  6
Continuous
100
AcDbLine
 10
606.210293545912
 20
40.40584000000001
 30
0.0
 11
605.292426545912
 21
40.40584000000001
 31
0.0
  0
LINE
  5
4AA
330
1D
100
AcDbEntity
  8
0
  6
Continuous
100
AcDbLine
 10
608.6579875459119
 20
40.40584000000001
 30
0.0
 11
606.210293545912
 21
40.40584000000001
 31
0.0
  0
LINE
  5
4AB
330
1D
100
AcDbEntity
  8
0
  6
Continuous
100
AcDbLine
 10
637.3164075459119
 20
40.40584000000001
 30
0.0
 11
630.789223545912
 21
40.40584000000001
 31
0.0
  0
LINE
  5
4AC
330
1D
100
AcDbEntity
  8
0
  6
Continuous
100
AcDbLine
 10
630.789223545912
 20
40.40584000000001
 30
0.0
 11
624.262039545912
 21
40.40584000000001
 31
0.0
  0
LINE
  5
4AD
330
1D
100
AcDbEntity
  8
0
  6
Continuous
100
AcDbLine
 10
624.262039545912
 20
40.40584000000001
 30
0.0
 11
618.1428145459119
 21
40.40584000000001
 31
0.0
  0
LINE
  5
4AE
330
1D
100
AcDbEntity
  8
0
  6
Continuous
100
AcDbLine
 10
618.1428145459119
 20
40.40584000000001
 30
0.0
 11
612.7374675459121
 21
40.40584000000001
 31
0.0
  0
LINE
  5
4AF
330
1D
100
AcDbEntity
  8
0
  6
Continuous
100
AcDbLine
 10
652.8514565459119
 20
-116.75
 30
0.0
 11
655.3471615459121
 21
-116.75
 31
0.0
  0
LINE
  5
4B0
330
1D
100
AcDbEntity
  8
0
  6
Continuous
100
AcDbLine
 10
648.819977545912
 20
-116.75
 30
0.0
 11
652.8514565459119
 21
-116.75
 31
0.0
  0
LINE
  5
4B1
330
1D
100
AcDbEntity
  8
0
  6
Continuous
100
AcDbLine
 10
618.1428145459119
 20
-116.75
 30
0.0
 11
624.262039545912
 21
-116.75
 31
0.0
  0
LINE
  5
4B2
330
1D
100
AcDbEntity
  8
0
  6
Continuous
100
AcDbLine
 10
630.789223545912
 20
-116.75
 30
0.0
 11
637.292416545912
 21
-116.75
 31
0.0
  0
LINE
  5
4B3
330
1D
100
AcDbEntity
  8
0
  6
Continuous
100
AcDbLine
 10
624.262039545912
 20
-116.75
 30
0.0
 11
630.789223545912
 21
-116.75
 31
0.0
  0
LINE
  5
4B4
330
1D
100
AcDbEntity
  8
0
  6
Continuous
100
AcDbLine
 10
656.286020545912
 20
-116.75
 30
0.0
 11
656.2860305459119
 21
-116.249494
 31
0.0
  0
LINE
  5
4B5
330
1D
100
AcDbEntity
  8
0
  6
Continuous
100
AcDbLine
 10
655.3471615459121
 20
-116.75
 30
0.0
 11
656.286020545912
 21
-116.75
 31
0.0
  0
LINE
  5
4B6
330
1D
100
AcDbEntity
  8
0
  6
Continuous
100
AcDbLine
 10
643.4046445459119
 20
-116.75
 30
0.0
 11
648.819977545912
 21
-116.75
 31
0.0
  0
LINE
  5
4B7
330
1D
100
AcDbEntity
  8
0
  6
Continuous
100
AcDbLine
 10
608.6579875459119
 20
-116.75
 30
0.0
 11
612.7374675459121
 21
-116.75
 31
0.0
  0
LINE
  5
4B8
330
1D
100
AcDbEntity
  8
0
  6
Continuous
100
AcDbLine
 10
605.292426545912
 20
-116.75
 30
0.0
 11
606.210293545912
 21
-116.75
 31
0.0
  0
LINE
  5
4B9
330
1D
100
AcDbEntity
  8
0
  6
Continuous
100
AcDbLine
 10
605.292415545912
 20
-116.249494
 30
0.0
 11
605.292426545912
 21
-116.75
 31
0.0
  0
LINE
  5
4BA
330
1D
100
AcDbEntity
  8
0
  6
Continuous
100
AcDbLine
 10
612.7374675459121
 20
-116.75
 30
0.0
 11
618.1428145459119
 21
-116.75
 31
0.0
  0
LINE
  5
4BB
330
1D
100
AcDbEntity
  8
0
  6
Continuous
100
AcDbLine
 10
606.210293545912
 20
-116.75
 30
0.0
 11
608.6579875459119
 21
-116.75
 31
0.0
  0
LINE
  5
4BC
330
1D
100
AcDbEntity
  8
0
  6
Continuous
100
AcDbLine
 10
637.292416545912
 20
-116.75
 30
0.0
 11
643.4046445459119
 21
-116.75
 31
0.0
  0
LINE
  5
4BD
330
1D
100
AcDbEntity
  8
0
  6
Continuous
100
AcDbLine
 10
525.0979945459119
 20
114.79377
 30
0.0
 11
526.255274545912
 21
113.35354
 31
0.0
  0
LINE
  5
4BE
330
1D
100
AcDbEntity
  8
0
  6
Continuous
100
AcDbLine
 10
530.057134545912
 20
115.32473
 30
0.0
 11
528.148864545912
 21
115.96889
 31
0.0
  0
LINE
  5
4BF
330
1D
100
AcDbEntity
  8
0
  6
Continuous
100
AcDbLine
 10
531.8943545459119
 20
114.7932
 30
0.0
 11
530.057134545912
 21
115.32473
 31
0.0
  0
LINE
  5
4C0
330
1D
100
AcDbEntity
  8
0
  6
Continuous
100
AcDbLine
 10
526.4806945459119
 20
116.644
 30
0.0
 11
525.725644545912
 21
116.75
 31
0.0
  0
LINE
  5
4C1
330
1D
100
AcDbEntity
  8
0
  6
Continuous
100
AcDbLine
 10
525.725644545912
 20
116.75
 30
0.0
 11
524.832544545912
 21
116.24676
 31
0.0
  0
LINE
  5
4C2
330
1D
100
AcDbEntity
  8
0
  6
Continuous
100
AcDbLine
 10
656.8588745459119
 20
71.68765999999999
 30
0.0
 11
656.865774545912
 21
72.04139000000001
 31
0.0
  0
LINE
  5
4C3
330
1D
100
AcDbEntity
  8
0
  6
Continuous
100
AcDbLine
 10
656.865774545912
 20
72.04139000000001
 30
0.0
 11
656.755464545912
 21
72.51537000000002
 31
0.0
  0
LINE
  5
4C4
330
1D
100
AcDbEntity
  8
0
  6
Continuous
100
AcDbLine
 10
534.2085645459119
 20
113.25368
 30
0.0
 11
531.6689345459119
 21
114.05733
 31
0.0
  0
LINE
  5
4C5
330
1D
100
AcDbEntity
  8
0
  6
Continuous
100
AcDbLine
 10
529.3100345459119
 20
114.79688
 30
0.0
 11
527.281084545912
 21
115.42686
 31
0.0
  0
LINE
  5
4C6
330
1D
100
AcDbEntity
  8
0
  6
Continuous
100
AcDbLine
 10
531.6689345459119
 20
114.05733
 30
0.0
 11
529.3100345459119
 21
114.79688
 31
0.0
  0
LINE
  5
4C7
330
1D
100
AcDbEntity
  8
0
  6
Continuous
100
AcDbLine
 10
527.281084545912
 20
115.42686
 30
0.0
 11
525.8829045459119
 21
115.89252
 31
0.0
  0
LINE
  5
4C8
330
1D
100
AcDbEntity
  8
0
  6
Continuous
100
AcDbLine
 10
656.436014545912
 20
72.88008000000002
 30
0.0
 11
655.9168445459119
 21
73.20846
 31
0.0
  0
LINE
  5
4C9
330
1D
100
AcDbEntity
  8
0
  6
Continuous
100
AcDbLine
 10
536.340774545912
 20
111.58112
 30
0.0
 11
579.924494545912
 21
97.22077999999999
 31
0.0
  0
LINE
  5
4CA
330
1D
100
AcDbEntity
  8
0
  6
Continuous
100
AcDbLine
 10
656.755464545912
 20
72.51537000000002
 30
0.0
 11
656.436014545912
 21
72.88008000000002
 31
0.0
  0
LINE
  5
4CB
330
1D
100
AcDbEntity
  8
0
  6
Continuous
100
AcDbLine
 10
525.8829045459119
 20
115.89252
 30
0.0
 11
525.197534545912
 21
116.12349
 31
0.0
  0
LINE
  5
4CC
330
1D
100
AcDbEntity
  8
0
  6
Continuous
100
AcDbLine
 10
525.197534545912
 20
116.12349
 30
0.0
 11
524.832544545912
 21
116.24676
 31
0.0
  0
LINE
  5
4CD
330
1D
100
AcDbEntity
  8
0
  6
Continuous
100
AcDbLine
 10
524.7840545459119
 20
115.18446
 30
0.0
 11
525.0979945459119
 21
114.79377
 31
0.0
  0
LINE
  5
4CE
330
1D
100
AcDbEntity
  8
0
  6
Continuous
100
AcDbLine
 10
626.545254545912
 20
43.59987999999998
 30
0.0
 11
630.799864545912
 21
43.60660000000001
 31
0.0
  0
LINE
  5
4CF
330
1D
100
AcDbEntity
  8
0
  6
Continuous
100
AcDbLine
 10
630.799864545912
 20
43.60660000000001
 30
0.0
 11
635.374554545912
 21
45.32150999999998
 31
0.0
  0
LINE
  5
4D0
330
1D
100
AcDbEntity
  8
0
  6
Continuous
100
AcDbLine
 10
622.3795045459119
 20
43.59331
 30
0.0
 11
626.545254545912
 21
43.59987999999998
 31
0.0
  0
LINE
  5
4D1
330
1D
100
AcDbEntity
  8
0
  6
Continuous
100
AcDbLine
 10
635.374554545912
 20
45.32150999999998
 30
0.0
 11
639.8888845459119
 21
46.97244
 31
0.0
  0
LINE
  5
4D2
330
1D
100
AcDbEntity
  8
0
  6
Continuous
100
AcDbLine
 10
639.8888845459119
 20
46.97244
 30
0.0
 11
644.2049145459121
 21
48.55084999999999
 31
0.0
  0
LINE
  5
4D3
330
1D
100
AcDbEntity
  8
0
  6
Continuous
100
AcDbLine
 10
644.2049145459121
 20
48.55084999999999
 30
0.0
 11
647.4831445459119
 21
49.74973
 31
0.0
  0
LINE
  5
4D4
330
1D
100
AcDbEntity
  8
0
  6
Continuous
100
AcDbLine
 10
647.4831445459119
 20
49.74973
 30
0.0
 11
650.319764545912
 21
50.7871
 31
0.0
  0
LINE
  5
4D5
330
1D
100
AcDbEntity
  8
0
  6
Continuous
100
AcDbLine
 10
650.319764545912
 20
50.7871
 30
0.0
 11
652.889154545912
 21
51.72675000000001
 31
0.0
  0
LINE
  5
4D6
330
1D
100
AcDbEntity
  8
0
  6
Continuous
100
AcDbLine
 10
656.481954545912
 20
53.04066
 30
0.0
 11
656.5089845459119
 21
53.49520999999999
 31
0.0
  0
LINE
  5
4D7
330
1D
100
AcDbEntity
  8
0
  6
Continuous
100
AcDbLine
 10
656.1739745459119
 20
52.92803000000001
 30
0.0
 11
656.481954545912
 21
53.04066
 31
0.0
  0
LINE
  5
4D8
330
1D
100
AcDbEntity
  8
0
  6
Continuous
100
AcDbLine
 10
654.9266745459119
 20
52.47188
 30
0.0
 11
656.1739745459119
 21
52.92803000000001
 31
0.0
  0
LINE
  5
4D9
330
1D
100
AcDbEntity
  8
0
  6
Continuous
100
AcDbLine
 10
652.889154545912
 20
51.72675000000001
 30
0.0
 11
654.9266745459119
 21
52.47188
 31
0.0
  0
LINE
  5
4DA
330
1D
100
AcDbEntity
  8
0
  6
Continuous
100
AcDbLine
 10
618.4918745459119
 20
43.58717999999998
 30
0.0
 11
622.3795045459119
 21
43.59331
 31
0.0
  0
LINE
  5
4DB
330
1D
100
AcDbEntity
  8
0
  6
Continuous
100
AcDbLine
 10
607.628344545912
 20
43.57010999999999
 30
0.0
 11
609.5339245459119
 21
43.57309
 31
0.0
  0
LINE
  5
4DC
330
1D
100
AcDbEntity
  8
0
  6
Continuous
100
AcDbLine
 10
609.5339245459119
 20
43.57309
 30
0.0
 11
611.9768345459119
 21
43.57693
 31
0.0
  0
LINE
  5
4DD
330
1D
100
AcDbEntity
  8
0
  6
Continuous
100
AcDbLine
 10
606.158464545912
 20
43.56781999999998
 30
0.0
 11
607.628344545912
 21
43.57010999999999
 31
0.0
  0
LINE
  5
4DE
330
1D
100
AcDbEntity
  8
0
  6
Continuous
100
AcDbLine
 10
605.291824545912
 20
43.56648000000001
 30
0.0
 11
606.158464545912
 21
43.56781999999998
 31
0.0
  0
LINE
  5
4DF
330
1D
100
AcDbEntity
  8
0
  6
Continuous
100
AcDbLine
 10
605.0132445459119
 20
44.07500999999999
 30
0.0
 11
605.012024545912
 21
43.56608
 31
0.0
  0
LINE
  5
4E0
330
1D
100
AcDbEntity
  8
0
  6
Continuous
100
AcDbLine
 10
605.012024545912
 20
43.56608
 30
0.0
 11
605.291824545912
 21
43.56648000000001
 31
0.0
  0
LINE
  5
4E1
330
1D
100
AcDbEntity
  8
0
  6
Continuous
100
AcDbLine
 10
611.9768345459119
 20
43.57693
 30
0.0
 11
614.818264545912
 21
43.58139
 31
0.0
  0
LINE
  5
4E2
330
1D
100
AcDbEntity
  8
0
  6
Continuous
100
AcDbLine
 10
614.818264545912
 20
43.58139
 30
0.0
 11
618.4918745459119
 21
43.58717999999998
 31
0.0
  0
LINE
  5
4E3
330
1D
100
AcDbEntity
  8
0
  6
Continuous
100
AcDbLine
 10
524.832544545912
 20
116.24676
 30
0.0
 11
524.7840545459119
 21
115.18446
 31
0.0
  0
LINE
  5
4E4
330
1D
100
AcDbEntity
  8
0
  6
Continuous
100
AcDbLine
 10
536.0967445459119
 20
114.90047
 30
0.0
 11
535.801014545912
 21
114.98385
 31
0.0
  0
LINE
  5
4E5
330
1D
100
AcDbEntity
  8
0
  6
Continuous
100
AcDbLine
 10
656.659884545912
 20
61.48696000000001
 30
0.0
 11
656.7113545459119
 21
64.12556000000001
 31
0.0
  0
LINE
  5
4E6
330
1D
100
AcDbEntity
  8
0
  6
Continuous
100
AcDbLine
 10
656.7113545459119
 20
64.12556000000001
 30
0.0
 11
656.762824545912
 21
66.76416999999998
 31
0.0
  0
LINE
  5
4E7
330
1D
100
AcDbEntity
  8
0
  6
Continuous
100
AcDbLine
 10
656.762824545912
 20
66.76416999999998
 30
0.0
 11
656.814304545912
 21
69.40278000000001
 31
0.0
  0
LINE
  5
4E8
330
1D
100
AcDbEntity
  8
0
  6
Continuous
100
AcDbLine
 10
656.6084145459119
 20
58.84835000000001
 30
0.0
 11
656.659884545912
 21
61.48696000000001
 31
0.0
  0
LINE
  5
4E9
330
1D
100
AcDbEntity
  8
0
  6
Continuous
100
AcDbLine
 10
639.7085045459119
 20
81.33535
 30
0.0
 11
632.673844545912
 21
83.90928
 31
0.0
  0
LINE
  5
4EA
330
1D
100
AcDbEntity
  8
0
  6
Continuous
100
AcDbLine
 10
632.673844545912
 20
83.90928
 30
0.0
 11
627.820714545912
 21
85.59589
 31
0.0
  0
LINE
  5
4EB
330
1D
100
AcDbEntity
  8
0
  6
Continuous
100
AcDbLine
 10
599.2176545459119
 20
95.35854
 30
0.0
 11
591.691024545912
 21
97.86253
 31
0.0
  0
LINE
  5
4EC
330
1D
100
AcDbEntity
  8
0
  6
Continuous
100
AcDbLine
 10
591.691024545912
 20
97.86253
 30
0.0
 11
584.1644145459119
 21
100.36651
 31
0.0
  0
LINE
  5
4ED
330
1D
100
AcDbEntity
  8
0
  6
Continuous
100
AcDbLine
 10
584.1644145459119
 20
100.36651
 30
0.0
 11
535.801014545912
 21
114.98385
 31
0.0
  0
LINE
  5
4EE
330
1D
100
AcDbEntity
  8
0
  6
Continuous
100
AcDbLine
 10
583.5510845459119
 20
100.42505
 30
0.0
 11
536.0967445459119
 21
114.90047
 31
0.0
  0
LINE
  5
4EF
330
1D
100
AcDbEntity
  8
0
  6
Continuous
100
AcDbLine
 10
578.812644545912
 20
90.62927999999999
 30
0.0
 11
586.340964545912
 21
87.71100000000002
 31
0.0
  0
LINE
  5
4F0
330
1D
100
AcDbEntity
  8
0
  6
Continuous
100
AcDbLine
 10
627.820714545912
 20
85.59589
 30
0.0
 11
621.763994545912
 21
87.68477000000002
 31
0.0
  0
LINE
  5
4F1
330
1D
100
AcDbEntity
  8
0
  6
Continuous
100
AcDbLine
 10
621.763994545912
 20
87.68477000000002
 30
0.0
 11
616.2010745459119
 21
89.60334000000001
 31
0.0
  0
LINE
  5
4F2
330
1D
100
AcDbEntity
  8
0
  6
Continuous
100
AcDbLine
 10
646.585174545912
 20
78.43360999999998
 30
0.0
 11
639.7085045459119
 21
81.33535
 31
0.0
  0
LINE
  5
4F3
330
1D
100
AcDbEntity
  8
0
  6
Continuous
100
AcDbLine
 10
656.814304545912
 20
69.40278000000001
 30
0.0
 11
656.8588745459119
 21
71.68765999999999
 31
0.0
  0
LINE
  5
4F4
330
1D
100
AcDbEntity
  8
0
  6
Continuous
100
AcDbLine
 10
528.9680545459119
 20
116.29477
 30
0.0
 11
526.4806945459119
 21
116.644
 31
0.0
  0
LINE
  5
4F5
330
1D
100
AcDbEntity
  8
0
  6
Continuous
100
AcDbLine
 10
605.0497345459119
 20
58.84835000000001
 30
0.0
 11
605.0132445459119
 21
44.07500999999999
 31
0.0
  0
LINE
  5
4F6
330
1D
100
AcDbEntity
  8
0
  6
Continuous
100
AcDbLine
 10
656.5089845459119
 20
53.49520999999999
 30
0.0
 11
656.6084145459119
 21
58.84835000000001
 31
0.0
  0
LINE
  5
4F7
330
1D
100
AcDbEntity
  8
0
  6
Continuous
100
AcDbLine
 10
610.6381345459119
 20
91.52193
 30
0.0
 11
605.0481745459119
 21
93.41883000000001
 31
0.0
  0
LINE
  5
4F8
330
1D
100
AcDbEntity
  8
0
  6
Continuous
100
AcDbLine
 10
616.2010745459119
 20
89.60334000000001
 30
0.0
 11
610.6381345459119
 21
91.52193
 31
0.0
  0
LINE
  5
4F9
330
1D
100
AcDbEntity
  8
0
  6
Continuous
100
AcDbLine
 10
605.0481745459119
 20
93.41883000000001
 30
0.0
 11
599.2176545459119
 21
95.35854
 31
0.0
  0
LINE
  5
4FA
330
1D
100
AcDbEntity
  8
0
  6
Continuous
100
AcDbLine
 10
604.551814545912
 20
64.21746999999999
 30
0.0
 11
605.0497345459119
 21
58.84835000000001
 31
0.0
  0
LINE
  5
4FB
330
1D
100
AcDbEntity
  8
0
  6
Continuous
100
AcDbLine
 10
598.9691945459119
 20
79.20722999999998
 30
0.0
 11
601.7017145459119
 21
74.55948000000001
 31
0.0
  0
LINE
  5
4FC
330
1D
100
AcDbEntity
  8
0
  6
Continuous
100
AcDbLine
 10
536.0967445459119
 20
114.90047
 30
0.0
 11
535.801014545912
 21
114.98385
 31
0.0
  0
LINE
  5
4FD
330
1D
100
AcDbEntity
  8
0
  6
Continuous
100
AcDbLine
 10
535.801014545912
 20
114.98385
 30
0.0
 11
532.1925345459119
 21
115.72596
 31
0.0
  0
LINE
  5
4FE
330
1D
100
AcDbEntity
  8
0
  6
Continuous
100
AcDbLine
 10
601.7017145459119
 20
74.55948000000001
 30
0.0
 11
603.6354345459119
 21
69.52652
 31
0.0
  0
LINE
  5
4FF
330
1D
100
AcDbEntity
  8
0
  6
Continuous
100
AcDbLine
 10
529.322174545912
 20
110.59244
 30
0.0
 11
532.841484545912
 21
108.44431
 31
0.0
  0
LINE
  5
500
330
1D
100
AcDbEntity
  8
0
  6
Continuous
100
AcDbLine
 10
526.255274545912
 20
113.35354
 30
0.0
 11
529.322174545912
 21
110.59244
 31
0.0
  0
LINE
  5
501
330
1D
100
AcDbEntity
  8
0
  6
Continuous
100
AcDbLine
 10
593.5287945459119
 20
84.04212999999998
 30
0.0
 11
598.9691945459119
 21
79.20722999999998
 31
0.0
  0
LINE
  5
502
330
1D
100
AcDbEntity
  8
0
  6
Continuous
100
AcDbLine
 10
603.6354345459119
 20
69.52652
 30
0.0
 11
604.551814545912
 21
64.21746999999999
 31
0.0
  0
LINE
  5
503
330
1D
100
AcDbEntity
  8
0
  6
Continuous
100
AcDbLine
 10
586.340964545912
 20
87.71100000000002
 30
0.0
 11
593.5287945459119
 21
84.04212999999998
 31
0.0
  0
LINE
  5
504
330
1D
100
AcDbEntity
  8
0
  6
Continuous
100
AcDbLine
 10
532.841484545912
 20
108.44431
 30
0.0
 11
535.289134545912
 21
107.3234
 31
0.0
  0
LINE
  5
505
330
1D
100
AcDbEntity
  8
0
  6
Continuous
100
AcDbLine
 10
532.1925345459119
 20
115.72596
 30
0.0
 11
528.9680545459119
 21
116.29477
 31
0.0
  0
LINE
  5
506
330
1D
100
AcDbEntity
  8
0
  6
Continuous
100
AcDbLine
 10
535.289134545912
 20
107.3234
 30
0.0
 11
578.812644545912
 21
90.62927999999999
 31
0.0
  0
LINE
  5
507
330
1D
100
AcDbEntity
  8
0
  6
Continuous
100
AcDbLine
 10
655.9168445459119
 20
73.20846
 30
0.0
 11
652.8142045459119
 21
75.17090000000002
 31
0.0
  0
LINE
  5
508
330
1D
100
AcDbEntity
  8
0
  6
Continuous
100
AcDbLine
 10
652.8142045459119
 20
75.17090000000002
 30
0.0
 11
646.585174545912
 21
78.43360999999998
 31
0.0
  0
LINE
  5
509
330
1D
100
AcDbEntity
  8
0
  6
Continuous
100
AcDbLine
 10
426.4622465459119
 20
48.07285100000001
 30
0.0
 11
423.6553655459119
 21
50.90823599999999
 31
0.0
  0
LINE
  5
50A
330
1D
100
AcDbEntity
  8
0
  6
Continuous
100
AcDbLine
 10
423.6553655459119
 20
50.90823599999999
 30
0.0
 11
423.5305025459119
 21
51.19317999999998
 31
0.0
  0
LINE
  5
50B
330
1D
100
AcDbEntity
  8
0
  6
Continuous
100
AcDbLine
 10
426.4622465459119
 20
48.07285100000001
 30
0.0
 11
426.6071975459119
 21
47.97360399999999
 31
0.0
  0
LINE
  5
50C
330
1D
100
AcDbEntity
  8
0
  6
Continuous
100
AcDbLine
 10
430.9156485459119
 20
43.03916
 30
0.0
 11
430.4021755459119
 21
43.59996999999999
 31
0.0
  0
LINE
  5
50D
330
1D
100
AcDbEntity
  8
0
  6
Continuous
100
AcDbLine
 10
430.4021755459119
 20
43.59996999999999
 30
0.0
 11
430.3906035459119
 21
43.644644
 31
0.0
  0
LINE
  5
50E
330
1D
100
AcDbEntity
  8
0
  6
Continuous
100
AcDbLine
 10
611.455564545912
 20
2.591723000000001
 30
0.0
 11
611.455564545912
 21
3.694819999999992
 31
0.0
  0
LINE
  5
50F
330
1D
100
AcDbEntity
  8
0
  6
Continuous
100
AcDbLine
 10
423.5305025459119
 20
51.19317999999998
 30
0.0
 11
419.965580545912
 21
55.35767100000001
 31
0.0
  0
LINE
  5
510
330
1D
100
AcDbEntity
  8
0
  6
Continuous
100
AcDbLine
 10
430.3906035459119
 20
43.644644
 30
0.0
 11
428.9138275459119
 21
45.27798899999999
 31
0.0
  0
LINE
  5
511
330
1D
100
AcDbEntity
  8
0
  6
Continuous
100
AcDbLine
 10
428.913896545912
 20
45.278549
 30
0.0
 11
426.6071975459119
 21
47.97360399999999
 31
0.0
  0
LINE
  5
562
330
1D
100
AcDbEntity
  8
0
  6
CENTER2
 48
25.0
100
AcDbLine
 10
-19.92737538890515
 20
586.5243816933859
 30
0.0
 11
19.37395223207204
 21
586.5243816933859
 31
0.0
  0
LINE
  5
677
330
1D
100
AcDbEntity
  8
0
  6
CENTER2
 48
25.0
100
AcDbLine
 10
-0.0127249999999997
 20
629.2857847814341
 30
0.0
 11
-0.0127249999999997
 21
556.0617245272854
 31
0.0
  0
LINE
  5
67B
330
1D
100
AcDbEntity
  8
0
  6
CENTER2
 48
25.0
100
AcDbLine
 10
-0.0127249999999997
 20
-91.52950254737744
 30
0.0
 11
-0.0127249999999997
 21
-140.3543100224938
 31
0.0
  0
LINE
  5
67D
330
1D
100
AcDbEntity
  8
0
  6
CENTER2
 48
25.0
100
AcDbLine
 10
630.789223045912
 20
-126.3517726703915
 30
0.0
 11
630.789223045912
 21
-92.67949277277693
 31
0.0
  0
ENDSEC
  0
SECTION
  2
OBJECTS
  0
DICTIONARY
  5
C
330
0
100
AcDbDictionary
281
     1
  3
ACAD_2007HEADERVARS_RT
350
6F0
  3
ACAD_CIP_PREVIOUS_PRODUCT_INFO
350
1A8
  3
ACAD_COLOR
350
189
  3
ACAD_DETAILVIEWSTYLE
350
1A3
  3
ACAD_GROUP
350
D
  3
ACAD_LAYOUT
350
1A
  3
ACAD_MATERIAL
350
157
  3
ACAD_MLEADERSTYLE
350
19E
  3
ACAD_MLINESTYLE
350
17
  3
ACAD_PLOTSETTINGS
350
19
  3
ACAD_PLOTSTYLENAME
350
E
  3
ACAD_SCALELIST
350
18C
  3
ACAD_SECTIONVIEWSTYLE
350
1A0
  3
ACAD_TABLESTYLE
350
18A
  3
ACAD_VISUALSTYLE
350
170
  3
ACDB_RECOMPOSE_DATA
350
6EE
  3
AcDbVariableDictionary
350
6DF
  3
AcmDictionary
350
1D5
  3
AMG
350
1AA
  3
AMGSNAPSETTINGS
350
20C
  3
DWGPROPS
350
6EF
  0
DICTIONARY
  5
6D9
330
10
100
AcDbDictionary
280
     1
281
     1
  3
ADSK_XREC_LAYER_RECONCILED
360
6DA
  0
DICTIONARY
  5
6DB
330
512
100
AcDbDictionary
280
     1
281
     1
  3
ADSK_XREC_LAYER_RECONCILED
360
6DC
  0
DICTIONARY
  5
6DD
330
51A
100
AcDbDictionary
280
     1
281
     1
  3
ADSK_XREC_LAYER_RECONCILED
360
6DE
  0
DICTIONARY
  5
515
330
1D
100
AcDbDictionary
280
     1
281
     1
  3
ACAD_SORTENTS
360
516
  0
DICTIONARY
  5
6F0
102
{ACAD_REACTORS
330
C
102
}
330
C
100
AcDbDictionary
281
     1
  3
INTERFERECOLOR
350
6F1
  0
XRECORD
  5
1A8
102
{ACAD_REACTORS
330
C
102
}
330
C
100
AcDbXrecord
280
     1
300
AMECH_PP
300
2013
300
PDSS_F_S
  0
DICTIONARY
  5
189
102
{ACAD_REACTORS
330
C
102
}
330
C
100
AcDbDictionary
281
     1
  0
DICTIONARY
  5
1A3
102
{ACAD_REACTORS
330
C
102
}
330
C
100
AcDbDictionary
281
     1
  3
Imperial24
350
1A4
  0
DICTIONARY
  5
D
102
{ACAD_REACTORS
330
C
102
}
330
C
100
AcDbDictionary
281
     1
  0
DICTIONARY
  5
1A
102
{ACAD_REACTORS
330
C
102
}
330
C
100
AcDbDictionary
281
     1
  3
Layout1
350
1C
  3
Model
350
1E
  0
DICTIONARY
  5
157
102
{ACAD_REACTORS
330
C
102
}
330
C
100
AcDbDictionary
281
     1
  3
ByBlock
350
160
  3
ByLayer
350
158
  3
Global
350
168
  0
DICTIONARY
  5
19E
102
{ACAD_REACTORS
330
C
102
}
330
C
100
AcDbDictionary
281
     1
  3
Standard
350
19F
  0
DICTIONARY
  5
17
102
{ACAD_REACTORS
330
C
102
}
330
C
100
AcDbDictionary
281
     1
  3
Standard
350
18
  0
DICTIONARY
  5
19
102
{ACAD_REACTORS
330
C
102
}
330
C
100
AcDbDictionary
281
     1
  0
ACDBDICTIONARYWDFLT
  5
E
102
{ACAD_REACTORS
330
C
102
}
330
C
100
AcDbDictionary
281
     1
  3
Normal
350
F
100
AcDbDictionaryWithDefault
340
F
  0
DICTIONARY
  5
18C
102
{ACAD_REACTORS
330
C
102
}
330
C
100
AcDbDictionary
281
     1
  3
A0
350
18D
  3
A1
350
18E
  3
A2
350
18F
  3
A3
350
190
  3
A4
350
191
  3
A5
350
192
  3
A6
350
193
  3
A7
350
194
  3
A8
350
195
  3
A9
350
196
  3
B0
350
197
  3
B1
350
198
  3
B2
350
199
  3
B3
350
19A
  3
B4
350
19B
  3
B5
350
19C
  3
B6
350
19D
  0
DICTIONARY
  5
1A0
102
{ACAD_REACTORS
330
C
102
}
330
C
100
AcDbDictionary
281
     1
  3
Imperial24
350
1A2
  0
DICTIONARY
  5
18A
102
{ACAD_REACTORS
330
C
102
}
330
C
100
AcDbDictionary
281
     1
  3
Standard
350
18B
  0
DICTIONARY
  5
170
102
{ACAD_REACTORS
330
C
102
}
330
C
100
AcDbDictionary
281
     1
  3
2dWireframe
350
176
  3
Basic
350
175
  3
Brighten
350
17C
  3
ColorChange
350
180
  3
Conceptual
350
179
  3
Dim
350
17B
  3
EdgeColorOff
350
188
  3
Facepattern
350
17F
  3
Flat
350
171
  3
FlatWithEdges
350
172
  3
Gouraud
350
173
  3
GouraudWithEdges
350
174
  3
Hidden
350
178
  3
JitterOff
350
186
  3
Linepattern
350
17E
  3
OverhangOff
350
187
  3
Realistic
350
17A
  3
Shaded
350
185
  3
Shaded with edges
350
184
  3
Shades of Gray
350
181
  3
Sketchy
350
182
  3
Thicken
350
17D
  3
Wireframe
350
177
  3
X-Ray
350
183
  0
XRECORD
  5
6EE
102
{ACAD_REACTORS
330
C
102
}
330
C
100
AcDbXrecord
280
     1
 90
        1
330
18B
  0
DICTIONARY
  5
6DF
102
{ACAD_REACTORS
330
C
102
}
330
C
100
AcDbDictionary
281
     1
  3
CANNOSCALE
350
6E4
  3
CMLEADERSTYLE
350
6E1
  3
CTABLESTYLE
350
6E0
  3
CVIEWDETAILSTYLE
350
6E2
  3
CVIEWSECTIONSTYLE
350
6E3
  3
DGNFRAME
350
6EB
  3
DIMASSOC
350
6E9
  3
HIDETEXT
350
6E7
  3
INDEXCTL
350
6E6
  3
SOLIDHIST
350
6EA
  3
SORTENTS
350
6E5
  3
XCLIPFRAME
350
6E8
  0
DICTIONARY
  5
1D5
102
{ACAD_REACTORS
330
C
102
}
330
C
100
AcDbDictionary
281
     1
  3
AcmStdDictionary
350
1DE
  0
DICTIONARY
  5
1AA
102
{ACAD_REACTORS
330
C
102
}
330
C
100
AcDbDictionary
281
     1
  0
DICTIONARY
  5
20C
102
{ACAD_REACTORS
330
C
102
}
330
C
100
AcDbDictionary
281
     1
  0
XRECORD
  5
6EF
102
{ACAD_REACTORS
330
C
102
}
330
C
100
AcDbXrecord
280
     1
  1
DWGPROPS COOKIE
  2

  3

  4

  6

  7

  8
tomitais
  9

300
=
301
=
302
=
303
=
304
=
305
=
306
=
307
=
308
=
309
=
 40
0.0040022569444444
 41
2457130.930764248
 42
2457781.654785637
  1

 90
        0
  0
XRECORD
  5
6DA
102
{ACAD_REACTORS
330
6D9
102
}
330
6D9
100
AcDbXrecord
280
     1
290
     1
  0
XRECORD
  5
6DC
102
{ACAD_REACTORS
330
6DB
102
}
330
6DB
100
AcDbXrecord
280
     1
290
     1
  0
XRECORD
  5
6DE
102
{ACAD_REACTORS
330
6DD
102
}
330
6DD
100
AcDbXrecord
280
     1
290
     1
  0
SORTENTSTABLE
  5
516
102
{ACAD_REACTORS
330
515
102
}
330
515
100
AcDbSortentsTable
330
1D
331
410
  5
421
331
40
  5
51
331
4E0
  5
4F1
331
110
  5
121
331
421
  5
432
331
51
  5
62
331
4F1
  5
502
331
121
  5
132
331
289
  5
29A
331
432
  5
443
331
62
  5
73
331
502
  5
517
331
132
  5
143
331
29A
  5
2AB
331
2AB
  5
2BC
331
143
  5
286
331
73
  5
84
331
2BC
  5
2CD
331
43D
  5
44E
331
2CD
  5
2DE
331
44E
  5
45F
331
7E
  5
8F
331
45F
  5
470
331
8F
  5
A0
331
2D7
  5
2E8
331
470
  5
481
331
A0
  5
B1
331
2E8
  5
40F
331
481
  5
492
331
492
  5
4A3
331
C2
  5
D3
331
B1
  5
C2
331
4A3
  5
4B4
331
E4
  5
F5
331
4BE
  5
4CF
331
4CF
  5
4E0
331
FF
  5
110
331
2F
  5
40
331
D3
  5
E4
331
4D0
  5
4E1
331
100
  5
111
331
30
  5
41
331
411
  5
422
331
41
  5
52
331
4E1
  5
4F2
331
111
  5
122
331
422
  5
433
331
52
  5
63
331
4F2
  5
503
331
122
  5
133
331
28A
  5
29B
331
433
  5
444
331
63
  5
74
331
503
  5
518
331
133
  5
144
331
29B
  5
2AC
331
2AC
  5
2BD
331
144
  5
287
331
74
  5
85
331
2BD
  5
2CE
331
43E
  5
44F
331
2CE
  5
2DF
331
44F
  5
460
331
7F
  5
90
331
460
  5
471
331
90
  5
A1
331
2D8
  5
2E9
331
471
  5
482
331
A1
  5
B2
331
2E9
  5
410
331
482
  5
493
331
493
  5
4A4
331
C3
  5
D4
331
4A4
  5
4B5
331
D4
  5
E5
331
4BF
  5
4D0
331
677
  5
2C
331
E5
  5
F6
331
B2
  5
C3
331
4C0
  5
4D1
331
F0
  5
101
331
401
  5
412
331
31
  5
42
331
4D1
  5
4E2
331
101
  5
112
331
412
  5
423
331
42
  5
53
331
4E2
  5
4F3
331
112
  5
123
331
423
  5
434
331
53
  5
64
331
4F3
  5
504
331
123
  5
134
331
28B
  5
29C
331
434
  5
445
331
64
  5
75
331
504
  5
519
331
134
  5
145
331
29C
  5
2AD
331
2AD
  5
2BE
331
145
  5
288
331
75
  5
86
331
2BE
  5
2CF
331
43F
  5
450
331
2CF
  5
2E0
331
450
  5
461
331
80
  5
91
331
461
  5
472
331
91
  5
A2
331
2D9
  5
2EA
331
472
  5
483
331
2EA
  5
411
331
483
  5
494
331
494
  5
4A5
331
C4
  5
D5
331
4A5
  5
4B6
331
E6
  5
F7
331
D5
  5
E6
331
B3
  5
C4
331
A2
  5
B3
331
4B0
  5
4C1
331
4C1
  5
4D2
331
F1
  5
102
331
402
  5
413
331
32
  5
43
331
4D2
  5
4E3
331
102
  5
113
331
413
  5
424
331
43
  5
54
331
4E3
  5
4F4
331
113
  5
124
331
424
  5
435
331
54
  5
65
331
4F4
  5
505
331
124
  5
135
331
28C
  5
29D
331
435
  5
446
331
65
  5
76
331
505
  5
55E
331
135
  5
146
331
29D
  5
2AE
331
2AE
  5
2BF
331
146
  5
289
331
76
  5
87
331
2BF
  5
2D0
331
440
  5
451
331
451
  5
462
331
81
  5
92
331
462
  5
473
331
92
  5
A3
331
2DA
  5
401
331
473
  5
484
331
A3
  5
B4
331
484
  5
495
331
495
  5
4A6
331
4A6
  5
4B7
331
D6
  5
E7
331
E7
  5
F8
331
C5
  5
D6
331
B4
  5
C5
331
E8
  5
F9
331
4B1
  5
4C2
331
4C2
  5
4D3
331
F2
  5
103
331
22
  5
33
331
403
  5
414
331
33
  5
44
331
4D3
  5
4E4
331
414
  5
425
331
44
  5
55
331
103
  5
114
331
4E4
  5
4F5
331
114
  5
125
331
425
  5
436
331
55
  5
66
331
4F5
  5
506
331
125
  5
136
331
436
  5
447
331
66
  5
77
331
28D
  5
29E
331
506
  5
55F
331
136
  5
147
331
29E
  5
2AF
331
2AF
  5
2C0
331
147
  5
28A
331
77
  5
88
331
2C0
  5
2D1
331
441
  5
452
331
452
  5
463
331
82
  5
93
331
463
  5
474
331
93
  5
A4
331
2DB
  5
402
331
474
  5
485
331
485
  5
496
331
B5
  5
C6
331
496
  5
4A7
331
4A7
  5
4B8
331
D7
  5
E8
331
C6
  5
D7
331
A4
  5
B5
331
4A8
  5
4B9
331
D8
  5
E9
331
E9
  5
FA
331
4B2
  5
4C3
331
4C3
  5
4D4
331
F3
  5
104
331
23
  5
34
331
404
  5
415
331
34
  5
45
331
4D4
  5
4E5
331
104
  5
115
331
415
  5
426
331
45
  5
56
331
4E5
  5
4F6
331
115
  5
126
331
67B
  5
2E
331
426
  5
437
331
4F6
  5
507
331
126
  5
137
331
437
  5
448
331
67
  5
78
331
28E
  5
29F
331
56
  5
67
331
507
  5
560
331
137
  5
148
331
29F
  5
2B0
331
2B0
  5
2C1
331
148
  5
28B
331
2C1
  5
2D2
331
442
  5
453
331
453
  5
464
331
83
  5
94
331
464
  5
475
331
94
  5
A5
331
2DC
  5
403
331
475
  5
486
331
486
  5
497
331
B6
  5
C7
331
497
  5
4A8
331
C7
  5
D8
331
A5
  5
B6
331
498
  5
4A9
331
C8
  5
D9
331
4A9
  5
4BA
331
D9
  5
EA
331
EA
  5
FB
331
4B3
  5
4C4
331
4C4
  5
4D5
331
F4
  5
105
331
24
  5
35
331
405
  5
416
331
35
  5
46
331
4D5
  5
4E6
331
105
  5
116
331
416
  5
427
331
46
  5
57
331
4E6
  5
4F7
331
116
  5
127
331
427
  5
438
331
4F7
  5
508
331
127
  5
138
331
508
  5
561
331
138
  5
149
331
68
  5
79
331
28F
  5
2A0
331
57
  5
68
331
2A0
  5
2B1
331
2B1
  5
2C2
331
149
  5
28C
331
2C2
  5
2D3
331
443
  5
454
331
454
  5
465
331
84
  5
95
331
465
  5
476
331
95
  5
A6
331
476
  5
487
331
A6
  5
B7
331
2DD
  5
404
331
487
  5
498
331
B7
  5
C8
331
488
  5
499
331
B8
  5
C9
331
499
  5
4AA
331
C9
  5
DA
331
4AA
  5
4BB
331
DA
  5
EB
331
EB
  5
FC
331
4B4
  5
4C5
331
4C5
  5
4D6
331
F5
  5
106
331
25
  5
36
331
406
  5
417
331
36
  5
47
331
4D6
  5
4E7
331
106
  5
117
331
417
  5
428
331
47
  5
58
331
67D
  5
31
331
4E7
  5
4F8
331
117
  5
128
331
428
  5
439
331
4F8
  5
509
331
128
  5
139
331
509
  5
562
331
139
  5
14A
331
69
  5
7A
331
290
  5
2A1
331
58
  5
69
331
2A1
  5
2B2
331
2B2
  5
2C3
331
14A
  5
28D
331
2C3
  5
2D4
331
444
  5
455
331
455
  5
466
331
85
  5
96
331
466
  5
477
331
96
  5
A7
331
2DE
  5
405
331
477
  5
488
331
A7
  5
B8
331
478
  5
489
331
A8
  5
B9
331
489
  5
49A
331
B9
  5
CA
331
49A
  5
4AB
331
CA
  5
DB
331
4AB
  5
4BC
331
DB
  5
EC
331
EC
  5
FD
331
4B5
  5
4C6
331
4C6
  5
4D7
331
F6
  5
107
331
407
  5
418
331
37
  5
48
331
26
  5
37
331
4D7
  5
4E8
331
418
  5
429
331
48
  5
59
331
107
  5
118
331
4E8
  5
4F9
331
118
  5
129
331
429
  5
43A
331
4F9
  5
50A
331
129
  5
13A
331
50A
  5
563
331
13A
  5
14B
331
6A
  5
7B
331
291
  5
2A2
331
59
  5
6A
331
562
  5
56B
331
2A2
  5
2B3
331
2B3
  5
2C4
331
14B
  5
28E
331
2C4
  5
2D5
331
445
  5
456
331
456
  5
467
331
467
  5
478
331
97
  5
A8
331
2DF
  5
406
331
86
  5
97
331
468
  5
479
331
98
  5
A9
331
2E0
  5
407
331
479
  5
48A
331
A9
  5
BA
331
48A
  5
49B
331
BA
  5
CB
331
49B
  5
4AC
331
CB
  5
DC
331
4AC
  5
4BD
331
DC
  5
ED
331
ED
  5
FE
331
4B6
  5
4C7
331
4C7
  5
4D8
331
F7
  5
108
331
408
  5
419
331
38
  5
49
331
27
  5
38
331
4D8
  5
4E9
331
419
  5
42A
331
49
  5
5A
331
108
  5
119
331
4E9
  5
4FA
331
119
  5
12A
331
42A
  5
43B
331
4FA
  5
50B
331
12A
  5
13B
331
50B
  5
564
331
13B
  5
14C
331
6B
  5
7C
331
292
  5
2A3
331
5A
  5
6B
331
2A3
  5
2B4
331
2B4
  5
2C5
331
14C
  5
28F
331
2C5
  5
2D6
331
457
  5
468
331
87
  5
98
331
446
  5
457
331
458
  5
469
331
88
  5
99
331
2D0
  5
2E1
331
469
  5
47A
331
99
  5
AA
331
2E1
  5
408
331
47A
  5
48B
331
AA
  5
BB
331
48B
  5
49C
331
BB
  5
CC
331
49C
  5
4AD
331
CC
  5
DD
331
4AD
  5
4BE
331
DD
  5
EE
331
EE
  5
FF
331
4B7
  5
4C8
331
4C8
  5
4D9
331
F8
  5
109
331
409
  5
41A
331
39
  5
4A
331
28
  5
39
331
4D9
  5
4EA
331
41A
  5
42B
331
4A
  5
5B
331
109
  5
11A
331
4EA
  5
4FB
331
11A
  5
12B
331
42B
  5
43C
331
4FB
  5
50C
331
12B
  5
13C
331
50C
  5
565
331
13C
  5
14D
331
6C
  5
7D
331
293
  5
2A4
331
5B
  5
6C
331
2A4
  5
2B5
331
2B5
  5
2C6
331
2C6
  5
2D7
331
447
  5
458
331
14D
  5
290
331
448
  5
459
331
78
  5
89
331
459
  5
46A
331
89
  5
9A
331
2D1
  5
2E2
331
46A
  5
47B
331
9A
  5
AB
331
2E2
  5
409
331
47B
  5
48C
331
AB
  5
BC
331
48C
  5
49D
331
BC
  5
CD
331
49D
  5
4AE
331
CD
  5
DE
331
4AE
  5
4BF
331
DE
  5
EF
331
EF
  5
100
331
4B8
  5
4C9
331
4C9
  5
4DA
331
F9
  5
10A
331
40A
  5
41B
331
3A
  5
4B
331
29
  5
3A
331
4DA
  5
4EB
331
41B
  5
42C
331
4B
  5
5C
331
10A
  5
11B
331
4EB
  5
4FC
331
11B
  5
12C
331
42C
  5
43D
331
5C
  5
6D
331
4FC
  5
50D
331
294
  5
2A5
331
12C
  5
13D
331
50D
  5
566
331
13D
  5
14E
331
6D
  5
7E
331
2B6
  5
2C7
331
14E
  5
291
331
2C7
  5
2D8
331
2A5
  5
2B6
331
283
  5
294
331
438
  5
449
331
2C8
  5
2D9
331
449
  5
45A
331
79
  5
8A
331
45A
  5
46B
331
8A
  5
9B
331
2D2
  5
2E3
331
46B
  5
47C
331
9B
  5
AC
331
2E3
  5
40A
331
47C
  5
48D
331
AC
  5
BD
331
48D
  5
49E
331
BD
  5
CE
331
49E
  5
4AF
331
CE
  5
DF
331
4AF
  5
4C0
331
DF
  5
F0
331
4B9
  5
4CA
331
4CA
  5
4DB
331
FA
  5
10B
331
2A
  5
3B
331
40B
  5
41C
331
3B
  5
4C
331
4DB
  5
4EC
331
41C
  5
42D
331
4C
  5
5D
331
10B
  5
11C
331
4EC
  5
4FD
331
284
  5
295
331
42D
  5
43E
331
5D
  5
6E
331
4FD
  5
50E
331
295
  5
2A6
331
12D
  5
13E
331
50E
  5
567
331
13E
  5
14F
331
6E
  5
7F
331
2A6
  5
2B7
331
2B7
  5
2C8
331
14F
  5
292
331
11C
  5
12D
331
2B8
  5
2C9
331
150
  5
293
331
439
  5
44A
331
2C9
  5
2DA
331
44A
  5
45B
331
7A
  5
8B
331
45B
  5
46C
331
8B
  5
9C
331
2D3
  5
2E4
331
46C
  5
47D
331
9C
  5
AD
331
2E4
  5
40B
331
47D
  5
48E
331
AD
  5
BE
331
48E
  5
49F
331
BE
  5
CF
331
49F
  5
4B0
331
CF
  5
E0
331
E0
  5
F1
331
4BA
  5
4CB
331
4CB
  5
4DC
331
FB
  5
10C
331
2B
  5
3C
331
40C
  5
41D
331
3C
  5
4D
331
4DC
  5
4ED
331
41D
  5
42E
331
4D
  5
5E
331
10C
  5
11D
331
4ED
  5
4FE
331
285
  5
296
331
42E
  5
43F
331
5E
  5
6F
331
4FE
  5
50F
331
296
  5
2A7
331
12E
  5
13F
331
50F
  5
568
331
13F
  5
150
331
6F
  5
80
331
2A7
  5
2B8
331
11D
  5
12E
331
510
  5
569
331
140
  5
283
331
70
  5
81
331
2A8
  5
2B9
331
2B9
  5
2CA
331
43A
  5
44B
331
2CA
  5
2DB
331
44B
  5
45C
331
7B
  5
8C
331
45C
  5
46D
331
8C
  5
9D
331
2D4
  5
2E5
331
46D
  5
47E
331
9D
  5
AE
331
2E5
  5
40C
331
47E
  5
48F
331
48F
  5
4A0
331
BF
  5
D0
331
AE
  5
BF
331
4A0
  5
4B1
331
D0
  5
E1
331
E1
  5
F2
331
4BB
  5
4CC
331
4CC
  5
4DD
331
FC
  5
10D
331
2C
  5
3D
331
40D
  5
41E
331
3D
  5
4E
331
4DD
  5
4EE
331
41E
  5
42F
331
4E
  5
5F
331
10D
  5
11E
331
4EE
  5
4FF
331
286
  5
297
331
42F
  5
440
331
5F
  5
70
331
4FF
  5
510
331
297
  5
2A8
331
12F
  5
140
331
11E
  5
12F
331
430
  5
441
331
60
  5
71
331
500
  5
511
331
130
  5
141
331
298
  5
2A9
331
511
  5
56A
331
141
  5
284
331
71
  5
82
331
2A9
  5
2BA
331
2BA
  5
2CB
331
43B
  5
44C
331
2CB
  5
2DC
331
44C
  5
45D
331
7C
  5
8D
331
45D
  5
46E
331
8D
  5
9E
331
2D5
  5
2E6
331
46E
  5
47F
331
9E
  5
AF
331
2E6
  5
40D
331
47F
  5
490
331
490
  5
4A1
331
C0
  5
D1
331
AF
  5
C0
331
4A1
  5
4B2
331
D1
  5
E2
331
E2
  5
F3
331
4BC
  5
4CD
331
4CD
  5
4DE
331
FD
  5
10E
331
40E
  5
41F
331
3E
  5
4F
331
4DE
  5
4EF
331
10E
  5
11F
331
41F
  5
430
331
4EF
  5
500
331
11F
  5
130
331
4F
  5
60
331
287
  5
298
331
2D
  5
3E
331
420
  5
431
331
50
  5
61
331
4F0
  5
501
331
120
  5
131
331
288
  5
299
331
431
  5
442
331
61
  5
72
331
501
  5
514
331
131
  5
142
331
299
  5
2AA
331
2AA
  5
2BB
331
142
  5
285
331
72
  5
83
331
2BB
  5
2CC
331
43C
  5
44D
331
2CC
  5
2DD
331
44D
  5
45E
331
7D
  5
8E
331
45E
  5
46F
331
8E
  5
9F
331
2D6
  5
2E7
331
46F
  5
480
331
9F
  5
B0
331
2E7
  5
40E
331
480
  5
491
331
491
  5
4A2
331
C1
  5
D2
331
B0
  5
C1
331
4A2
  5
4B3
331
D2
  5
E3
331
E3
  5
F4
331
4BD
  5
4CE
331
4CE
  5
4DF
331
FE
  5
10F
331
40F
  5
420
331
3F
  5
50
331
4DF
  5
4F0
331
10F
  5
120
331
2E
  5
3F
  0
XRECORD
  5
6F1
102
{ACAD_REACTORS
330
6F0
102
}
330
6F0
100
AcDbXrecord
280
     1
1004
1800000001000000000000C0000000000000000000000000
  0
ACDBDETAILVIEWSTYLE
  5
1A4
102
{ACAD_REACTORS
330
1A3
102
}
330
1A3
100
AcDbModelDocViewStyle
 70
     0
  3
Imperial24
290
     0
100
AcDbDetailViewStyle
 70
     0
 71
     0
 90
        3
 71
     1
340
11
 40
0.24
340
0
 40
0.24
300

 40
0.36
280
     3
 71
     2
340
16
 90
       25
 71
     3
340
11
 40
0.24
 90
        1
 40
0.75
 90
        1
300
%<\AcVar ViewType \f "%tc1">% %<\AcVar ViewDetailId>%\PSCALE %<\AcVar ViewScale \f "%sn">%
 71
     4
340
16
 90
       25
340
16
 90
       25
280
     0
  0
LAYOUT
  5
1C
102
{ACAD_XDICTIONARY
360
6F2
102
}
102
{ACAD_REACTORS
330
1A
102
}
330
1A
100
AcDbPlotSettings
  1

  2
none_device
  4

  6

 40
0.0
 41
0.0
 42
0.0
 43
0.0
 44
0.0
 45
0.0
 46
0.0
 47
0.0
 48
0.0
 49
0.0
140
0.0
141
0.0
142
1.0
143
1.0
 70
   688
 72
     0
 73
     0
 74
     5
  7

 75
    16
147
1.0
148
0.0
149
0.0
100
AcDbLayout
  1
Layout1
 70
     1
 71
     1
 10
0.0
 20
0.0
 11
12.0
 21
9.0
 12
0.0
 22
0.0
 32
0.0
 14
1.000000000000000E+20
 24
1.000000000000000E+20
 34
1.000000000000000E+20
 15
-1.000000000000000E+20
 25
-1.000000000000000E+20
 35
-1.000000000000000E+20
146
0.0
 13
0.0
 23
0.0
 33
0.0
 16
1.0
 26
0.0
 36
0.0
 17
0.0
 27
1.0
 37
0.0
 76
     0
330
1B
  0
LAYOUT
  5
1E
102
{ACAD_XDICTIONARY
360
6F4
102
}
102
{ACAD_REACTORS
330
1A
102
}
330
1A
100
AcDbPlotSettings
  1

  2
none_device
  4

  6

 40
0.0
 41
0.0
 42
0.0
 43
0.0
 44
0.0
 45
0.0
 46
0.0
 47
0.0
 48
0.0
 49
0.0
140
0.0
141
0.0
142
1.0
143
1.0
 70
  1712
 72
     0
 73
     0
 74
     0
  7

 75
     0
147
1.0
148
0.0
149
0.0
100
AcDbLayout
  1
Model
 70
     1
 71
     0
 10
0.0
 20
0.0
 11
12.0
 21
9.0
 12
0.0
 22
0.0
 32
0.0
 14
1.000000000000000E+20
 24
1.000000000000000E+20
 34
1.000000000000000E+20
 15
-1.000000000000000E+20
 25
-1.000000000000000E+20
 35
-1.000000000000000E+20
146
0.0
 13
0.0
 23
0.0
 33
0.0
 16
1.0
 26
0.0
 36
0.0
 17
0.0
 27
1.0
 37
0.0
 76
     0
330
1D
331
151
  0
MATERIAL
  5
160
102
{ACAD_XDICTIONARY
360
161
102
}
102
{ACAD_REACTORS
330
157
102
}
330
157
100
AcDbMaterial
  1
ByBlock
 72
     0
 43
0.0208333333333333
 43
0.0
 43
0.0
 43
0.0
 43
0.0
 43
0.0208333333333333
 43
0.0
 43
0.0
 43
0.0
 43
0.0
 43
1.0
 43
0.0
 43
0.0
 43
0.0
 43
0.0
 43
1.0
 77
     0
 47
0.0208333333333333
 47
0.0
 47
0.0
 47
0.0
 47
0.0
 47
0.0208333333333333
 47
0.0
 47
0.0
 47
0.0
 47
0.0
 47
1.0
 47
0.0
 47
0.0
 47
0.0
 47
0.0
 47
1.0
171
     0
 49
0.0208333333333333
 49
0.0
 49
0.0
 49
0.0
 49
0.0
 49
0.0208333333333333
 49
0.0
 49
0.0
 49
0.0
 49
0.0
 49
1.0
 49
0.0
 49
0.0
 49
0.0
 49
0.0
 49
1.0
175
     0
142
0.0208333333333333
142
0.0
142
0.0
142
0.0
142
0.0
142
0.0208333333333333
142
0.0
142
0.0
142
0.0
142
0.0
142
1.0
142
0.0
142
0.0
142
0.0
142
0.0
142
1.0
179
     0
144
0.0208333333333333
144
0.0
144
0.0
144
0.0
144
0.0
144
0.0208333333333333
144
0.0
144
0.0
144
0.0
144
0.0
144
1.0
144
0.0
144
0.0
144
0.0
144
0.0
144
1.0
147
0.0208333333333333
147
0.0
147
0.0
147
0.0
147
0.0
147
0.0208333333333333
147
0.0
147
0.0
147
0.0
147
0.0
147
1.0
147
0.0
147
0.0
147
0.0
147
0.0
147
1.0
  0
MATERIAL
  5
158
102
{ACAD_XDICTIONARY
360
159
102
}
102
{ACAD_REACTORS
330
157
102
}
330
157
100
AcDbMaterial
  1
ByLayer
 72
     0
 43
0.0208333333333333
 43
0.0
 43
0.0
 43
0.0
 43
0.0
 43
0.0208333333333333
 43
0.0
 43
0.0
 43
0.0
 43
0.0
 43
1.0
 43
0.0
 43
0.0
 43
0.0
 43
0.0
 43
1.0
 77
     0
 47
0.0208333333333333
 47
0.0
 47
0.0
 47
0.0
 47
0.0
 47
0.0208333333333333
 47
0.0
 47
0.0
 47
0.0
 47
0.0
 47
1.0
 47
0.0
 47
0.0
 47
0.0
 47
0.0
 47
1.0
171
     0
 49
0.0208333333333333
 49
0.0
 49
0.0
 49
0.0
 49
0.0
 49
0.0208333333333333
 49
0.0
 49
0.0
 49
0.0
 49
0.0
 49
1.0
 49
0.0
 49
0.0
 49
0.0
 49
0.0
 49
1.0
175
     0
142
0.0208333333333333
142
0.0
142
0.0
142
0.0
142
0.0
142
0.0208333333333333
142
0.0
142
0.0
142
0.0
142
0.0
142
1.0
142
0.0
142
0.0
142
0.0
142
0.0
142
1.0
179
     0
144
0.0208333333333333
144
0.0
144
0.0
144
0.0
144
0.0
144
0.0208333333333333
144
0.0
144
0.0
144
0.0
144
0.0
144
1.0
144
0.0
144
0.0
144
0.0
144
0.0
144
1.0
147
0.0208333333333333
147
0.0
147
0.0
147
0.0
147
0.0
147
0.0208333333333333
147
0.0
147
0.0
147
0.0
147
0.0
147
1.0
147
0.0
147
0.0
147
0.0
147
0.0
147
1.0
  0
MATERIAL
  5
168
102
{ACAD_XDICTIONARY
360
169
102
}
102
{ACAD_REACTORS
330
157
102
}
330
157
100
AcDbMaterial
  1
Global
 72
     0
 43
0.0208333333333333
 43
0.0
 43
0.0
 43
0.0
 43
0.0
 43
0.0208333333333333
 43
0.0
 43
0.0
 43
0.0
 43
0.0
 43
1.0
 43
0.0
 43
0.0
 43
0.0
 43
0.0
 43
1.0
 77
     0
 47
0.0208333333333333
 47
0.0
 47
0.0
 47
0.0
 47
0.0
 47
0.0208333333333333
 47
0.0
 47
0.0
 47
0.0
 47
0.0
 47
1.0
 47
0.0
 47
0.0
 47
0.0
 47
0.0
 47
1.0
171
     0
 49
0.0208333333333333
 49
0.0
 49
0.0
 49
0.0
 49
0.0
 49
0.0208333333333333
 49
0.0
 49
0.0
 49
0.0
 49
0.0
 49
1.0
 49
0.0
 49
0.0
 49
0.0
 49
0.0
 49
1.0
175
     0
142
0.0208333333333333
142
0.0
142
0.0
142
0.0
142
0.0
142
0.0208333333333333
142
0.0
142
0.0
142
0.0
142
0.0
142
1.0
142
0.0
142
0.0
142
0.0
142
0.0
142
1.0
179
     0
144
0.0208333333333333
144
0.0
144
0.0
144
0.0
144
0.0
144
0.0208333333333333
144
0.0
144
0.0
144
0.0
144
0.0
144
1.0
144
0.0
144
0.0
144
0.0
144
0.0
144
1.0
147
0.0208333333333333
147
0.0
147
0.0
147
0.0
147
0.0
147
0.0208333333333333
147
0.0
147
0.0
147
0.0
147
0.0
147
1.0
147
0.0
147
0.0
147
0.0
147
0.0
147
1.0
  0
MLEADERSTYLE
  5
19F
102
{ACAD_XDICTIONARY
360
72B
102
}
102
{ACAD_REACTORS
330
19E
102
}
330
19E
100
AcDbMLeaderStyle
170
     2
171
     1
172
     0
 90
        2
 40
0.0
 41
0.0
173
     1
 91
-1056964608
340
14
 92
       -2
290
     1
 42
0.09
291
     1
 43
0.36
  3
Standard
 44
0.18
300

342
11
174
     1
178
     6
175
     1
176
     0
 93
-1056964608
 45
0.18
292
     0
297
     0
 46
0.18
 94
-1056964608
 47
1.0
 49
1.0
140
1.0
293
     1
141
0.0
294
     1
177
     0
142
1.0
295
     0
296
     0
143
0.125
1001
ACAD_MLEADERVER
1070
     2
  0
MLINESTYLE
  5
18
102
{ACAD_REACTORS
330
17
102
}
330
17
100
AcDbMlineStyle
  2
STANDARD
 70
     0
  3

 62
   256
 51
90.0
 52
90.0
 71
     2
 49
0.5
 62
   256
  6
BYLAYER
 49
-0.5
 62
   256
  6
BYLAYER
  0
ACDBPLACEHOLDER
  5
F
102
{ACAD_REACTORS
330
E
102
}
330
E
  0
SCALE
  5
18D
102
{ACAD_REACTORS
330
18C
102
}
330
18C
100
AcDbScale
 70
     0
300
1:1
140
1.0
141
1.0
290
     1
  0
SCALE
  5
18E
102
{ACAD_REACTORS
330
18C
102
}
330
18C
100
AcDbScale
 70
     0
300
1/128" = 1'-0"
140
0.0078125
141
12.0
290
     0
  0
SCALE
  5
18F
102
{ACAD_REACTORS
330
18C
102
}
330
18C
100
AcDbScale
 70
     0
300
1/64" = 1'-0"
140
0.015625
141
12.0
290
     0
  0
SCALE
  5
190
102
{ACAD_REACTORS
330
18C
102
}
330
18C
100
AcDbScale
 70
     0
300
1/32" = 1'-0"
140
0.03125
141
12.0
290
     0
  0
SCALE
  5
191
102
{ACAD_REACTORS
330
18C
102
}
330
18C
100
AcDbScale
 70
     0
300
1/16" = 1'-0"
140
0.0625
141
12.0
290
     0
  0
SCALE
  5
192
102
{ACAD_REACTORS
330
18C
102
}
330
18C
100
AcDbScale
 70
     0
300
3/32" = 1'-0"
140
0.09375
141
12.0
290
     0
  0
SCALE
  5
193
102
{ACAD_REACTORS
330
18C
102
}
330
18C
100
AcDbScale
 70
     0
300
1/8" = 1'-0"
140
0.125
141
12.0
290
     0
  0
SCALE
  5
194
102
{ACAD_REACTORS
330
18C
102
}
330
18C
100
AcDbScale
 70
     0
300
3/16" = 1'-0"
140
0.1875
141
12.0
290
     0
  0
SCALE
  5
195
102
{ACAD_REACTORS
330
18C
102
}
330
18C
100
AcDbScale
 70
     0
300
1/4" = 1'-0"
140
0.25
141
12.0
290
     0
  0
SCALE
  5
196
102
{ACAD_REACTORS
330
18C
102
}
330
18C
100
AcDbScale
 70
     0
300
3/8" = 1'-0"
140
0.375
141
12.0
290
     0
  0
SCALE
  5
197
102
{ACAD_REACTORS
330
18C
102
}
330
18C
100
AcDbScale
 70
     0
300
1/2" = 1'-0"
140
0.5
141
12.0
290
     0
  0
SCALE
  5
198
102
{ACAD_REACTORS
330
18C
102
}
330
18C
100
AcDbScale
 70
     0
300
3/4" = 1'-0"
140
0.75
141
12.0
290
     0
  0
SCALE
  5
199
102
{ACAD_REACTORS
330
18C
102
}
330
18C
100
AcDbScale
 70
     0
300
1" = 1'-0"
140
1.0
141
12.0
290
     0
  0
SCALE
  5
19A
102
{ACAD_REACTORS
330
18C
102
}
330
18C
100
AcDbScale
 70
     0
300
1-1/2" = 1'-0"
140
1.5
141
12.0
290
     0
  0
SCALE
  5
19B
102
{ACAD_REACTORS
330
18C
102
}
330
18C
100
AcDbScale
 70
     0
300
3" = 1'-0"
140
3.0
141
12.0
290
     0
  0
SCALE
  5
19C
102
{ACAD_REACTORS
330
18C
102
}
330
18C
100
AcDbScale
 70
     0
300
6" = 1'-0"
140
6.0
141
12.0
290
     0
  0
SCALE
  5
19D
102
{ACAD_REACTORS
330
18C
102
}
330
18C
100
AcDbScale
 70
     0
300
1'-0" = 1'-0"
140
12.0
141
12.0
290
     0
  0
ACDBSECTIONVIEWSTYLE
  5
1A2
102
{ACAD_REACTORS
330
1A0
102
}
330
1A0
100
AcDbModelDocViewStyle
 70
     0
  3
Imperial24
290
     0
100
AcDbSectionViewStyle
 70
     0
 71
     0
 90
       78
 71
     1
340
11
 40
0.24
340
0
340
0
 40
0.24
300
I, O, Q, S, X, Z
 40
0.48
 90
        3
 40
0.18
 90
        1
 71
     2
340
1A1
 90
       25
340
16
 90
       50
 40
0.24
 40
0.0
 40
0.24
 71
     3
340
11
 40
0.24
 90
        1
 40
0.75
 90
        1
300
%<\AcVar ViewType \f "%tc1">% %<\AcVar ViewSectionStartId>%-%<\AcVar ViewSectionEndId>%\PSCALE %<\AcVar ViewScale \f "%sn">%
 71
     4
300
ANSI31
 40
1.0
 90
        0
290
     0
290
     0
 90
        6
 40
0.0
 40
1.570796326794896
 40
0.2617993877991494
 40
1.308996938995747
 40
-0.2617993877991494
 40
1.832595714594046
  0
TABLESTYLE
  5
18B
102
{ACAD_XDICTIONARY
360
6EC
102
}
102
{ACAD_REACTORS
330
18A
102
}
330
18A
100
AcDbTableStyle
  3
Standard
 70
     0
 71
     0
 40
0.06
 41
0.06
280
     0
281
     0
  7
Standard
140
0.18
170
     2
 62
     0
 63
     7
283
     0
274
    -2
284
     1
 64
     0
275
    -2
285
     1
 65
     0
276
    -2
286
     1
 66
     0
277
    -2
287
     1
 67
     0
278
    -2
288
     1
 68
     0
279
    -2
289
     1
 69
     0
  7
Standard
140
0.25
170
     5
 62
     0
 63
     7
283
     0
274
    -2
284
     1
 64
     0
275
    -2
285
     1
 65
     0
276
    -2
286
     1
 66
     0
277
    -2
287
     1
 67
     0
278
    -2
288
     1
 68
     0
279
    -2
289
     1
 69
     0
  7
Standard
140
0.18
170
     5
 62
     0
 63
     7
283
     0
274
    -2
284
     1
 64
     0
275
    -2
285
     1
 65
     0
276
    -2
286
     1
 66
     0
277
    -2
287
     1
 67
     0
278
    -2
288
     1
 68
     0
279
    -2
289
     1
 69
     0
  0
VISUALSTYLE
  5
176
102
{ACAD_XDICTIONARY
360
703
102
}
102
{ACAD_REACTORS
330
170
102
}
330
170
100
AcDbVisualStyle
  2
2dWireframe
 70
     4
 71
     0
 72
     2
 73
     0
 90
        0
 40
-0.6
 41
-30.0
 62
     5
 63
     7
 74
     1
 91
        4
 64
     7
 65
   257
 75
     1
175
     1
 42
1.0
 92
        0
 66
   257
 43
1.0
 76
     1
 77
     6
 78
     2
 67
     7
 79
     5
170
     0
171
     0
290
     0
174
     0
 93
        1
 44
0.0
173
     0
291
     0
 45
0.0
1001
ACAD
1000
AcDbSavedByObjectVersion
1070
     0
  0
VISUALSTYLE
  5
175
102
{ACAD_XDICTIONARY
360
701
102
}
102
{ACAD_REACTORS
330
170
102
}
330
170
100
AcDbVisualStyle
  2
Basic
 70
     7
 71
     1
 72
     0
 73
     1
 90
        0
 40
-0.6
 41
-30.0
 62
     5
 63
     7
 74
     0
 91
        4
 64
     7
 65
   257
 75
     1
175
     1
 42
1.0
 92
        8
 66
     7
 43
1.0
 76
     1
 77
     6
 78
     2
 67
     7
 79
     5
170
     0
171
     0
290
     0
174
     0
 93
        1
 44
0.0
173
     0
291
     1
 45
0.0
1001
ACAD
1000
AcDbSavedByObjectVersion
1070
     0
  0
VISUALSTYLE
  5
17C
102
{ACAD_XDICTIONARY
360
70F
102
}
102
{ACAD_REACTORS
330
170
102
}
330
170
100
AcDbVisualStyle
  2
Brighten
 70
    12
 71
     2
 72
     2
 73
     0
 90
        0
 40
-0.6
 41
-30.0
 62
     5
 63
     7
 74
     1
 91
        4
 64
     7
 65
   257
 75
     1
175
     1
 42
1.0
 92
        8
 66
     7
 43
1.0
 76
     1
 77
     6
 78
     2
 67
     7
 79
     5
170
     0
171
     0
290
     0
174
     0
 93
        1
 44
50.0
173
     0
291
     1
 45
0.0
1001
ACAD
1000
AcDbSavedByObjectVersion
1070
     0
  0
VISUALSTYLE
  5
180
102
{ACAD_XDICTIONARY
360
717
102
}
102
{ACAD_REACTORS
330
170
102
}
330
170
100
AcDbVisualStyle
  2
ColorChange
 70
    16
 71
     2
 72
     2
 73
     3
 90
        0
 40
-0.6
 41
-30.0
 62
     5
 63
     8
 74
     1
 91
        4
 64
     7
 65
   257
 75
     1
175
     1
 42
1.0
 92
        8
 66
     8
 43
1.0
 76
     1
 77
     6
 78
     2
 67
     7
 79
     5
170
     0
171
     0
290
     0
174
     0
 93
        1
 44
0.0
173
     0
291
     1
 45
0.0
1001
ACAD
1000
AcDbSavedByObjectVersion
1070
     0
  0
VISUALSTYLE
  5
179
102
{ACAD_XDICTIONARY
360
709
102
}
102
{ACAD_REACTORS
330
170
102
}
330
170
100
AcDbVisualStyle
  2
Conceptual
 70
     9
 71
     3
 72
     2
 73
     0
 90
        0
 40
-0.6
 41
-30.0
 62
     5
 63
     7
 74
     2
 91
        2
 64
     7
 65
   257
 75
     1
175
     1
 42
179.0
 92
        8
 66
     7
 43
1.0
 76
     1
 77
     6
 78
     2
 67
     7
 79
     3
170
     0
171
     0
290
     0
174
     0
 93
        1
 44
0.0
173
     0
291
     0
 45
0.0
1001
ACAD
1000
AcDbSavedByObjectVersion
1070
     0
  0
VISUALSTYLE
  5
17B
102
{ACAD_XDICTIONARY
360
70D
102
}
102
{ACAD_REACTORS
330
170
102
}
330
170
100
AcDbVisualStyle
  2
Dim
 70
    11
 71
     2
 72
     2
 73
     0
 90
        0
 40
-0.6
 41
-30.0
 62
     5
 63
     7
 74
     1
 91
        4
 64
     7
 65
   257
 75
     1
175
     1
 42
1.0
 92
        8
 66
     7
 43
1.0
 76
     1
 77
     6
 78
     2
 67
     7
 79
     5
170
     0
171
     0
290
     0
174
     0
 93
        1
 44
-50.0
173
     0
291
     1
 45
0.0
1001
ACAD
1000
AcDbSavedByObjectVersion
1070
     0
  0
VISUALSTYLE
  5
188
102
{ACAD_XDICTIONARY
360
727
102
}
102
{ACAD_REACTORS
330
170
102
}
330
170
100
AcDbVisualStyle
  2
EdgeColorOff
 70
    22
 71
     2
 72
     2
 73
     0
 90
        0
 40
-0.6
 41
-30.0
 62
     5
 63
     7
 74
     1
 91
        4
 64
     7
 65
   257
 75
     1
175
     1
 42
1.0
 92
        8
 66
     7
 43
1.0
 76
     1
 77
     6
 78
     2
 67
     7
 79
     5
170
     0
171
     0
290
     0
174
     0
 93
        1
 44
0.0
173
     0
291
     1
 45
0.0
1001
ACAD
1000
AcDbSavedByObjectVersion
1070
     0
  0
VISUALSTYLE
  5
17F
102
{ACAD_XDICTIONARY
360
715
102
}
102
{ACAD_REACTORS
330
170
102
}
330
170
100
AcDbVisualStyle
  2
Facepattern
 70
    15
 71
     2
 72
     2
 73
     0
 90
        0
 40
-0.6
 41
-30.0
 62
     5
 63
     7
 74
     1
 91
        4
 64
     7
 65
   257
 75
     1
175
     1
 42
1.0
 92
        8
 66
     7
 43
1.0
 76
     1
 77
     6
 78
     2
 67
     7
 79
     5
170
     0
171
     0
290
     0
174
     0
 93
        1
 44
0.0
173
     0
291
     1
 45
0.0
1001
ACAD
1000
AcDbSavedByObjectVersion
1070
     0
  0
VISUALSTYLE
  5
171
102
{ACAD_XDICTIONARY
360
6F9
102
}
102
{ACAD_REACTORS
330
170
102
}
330
170
100
AcDbVisualStyle
  2
Flat
 70
     0
 71
     2
 72
     1
 73
     1
 90
        2
 40
-0.6
 41
30.0
 62
     5
 63
     7
 74
     0
 91
        0
 64
     7
 65
   257
 75
     1
175
     1
 42
1.0
 92
        8
 66
     7
 43
1.0
 76
     1
 77
     6
 78
     2
 67
     7
 79
     5
170
     0
171
     0
290
     0
174
     0
 93
       13
 44
0.0
173
     0
291
     1
 45
0.0
1001
ACAD
1000
AcDbSavedByObjectVersion
1070
     0
  0
VISUALSTYLE
  5
172
102
{ACAD_XDICTIONARY
360
6FB
102
}
102
{ACAD_REACTORS
330
170
102
}
330
170
100
AcDbVisualStyle
  2
FlatWithEdges
 70
     1
 71
     2
 72
     1
 73
     1
 90
        2
 40
-0.6
 41
30.0
 62
     5
 63
     7
 74
     1
 91
        0
 64
     7
 65
   257
 75
     1
175
     1
 42
1.0
 92
        0
 66
   257
 43
1.0
 76
     1
 77
     6
 78
     2
 67
     7
 79
     5
170
     0
171
     0
290
     0
174
     0
 93
       13
 44
0.0
173
     0
291
     1
 45
0.0
1001
ACAD
1000
AcDbSavedByObjectVersion
1070
     0
  0
VISUALSTYLE
  5
173
102
{ACAD_XDICTIONARY
360
6FD
102
}
102
{ACAD_REACTORS
330
170
102
}
330
170
100
AcDbVisualStyle
  2
Gouraud
 70
     2
 71
     2
 72
     2
 73
     1
 90
        2
 40
-0.6
 41
30.0
 62
     5
 63
     7
 74
     0
 91
        0
 64
     7
 65
   257
 75
     1
175
     1
 42
1.0
 92
        0
 66
     7
 43
1.0
 76
     1
 77
     6
 78
     2
 67
     7
 79
     5
170
     0
171
     0
290
     0
174
     0
 93
       13
 44
0.0
173
     0
291
     1
 45
0.0
1001
ACAD
1000
AcDbSavedByObjectVersion
1070
     0
  0
VISUALSTYLE
  5
174
102
{ACAD_XDICTIONARY
360
6FF
102
}
102
{ACAD_REACTORS
330
170
102
}
330
170
100
AcDbVisualStyle
  2
GouraudWithEdges
 70
     3
 71
     2
 72
     2
 73
     1
 90
        2
 40
-0.6
 41
30.0
 62
     5
 63
     7
 74
     1
 91
        0
 64
     7
 65
   257
 75
     1
175
     1
 42
1.0
 92
        0
 66
   257
 43
1.0
 76
     1
 77
     6
 78
     2
 67
     7
 79
     5
170
     0
171
     0
290
     0
174
     0
 93
       13
 44
0.0
173
     0
291
     1
 45
0.0
1001
ACAD
1000
AcDbSavedByObjectVersion
1070
     0
  0
VISUALSTYLE
  5
178
102
{ACAD_XDICTIONARY
360
707
102
}
102
{ACAD_REACTORS
330
170
102
}
330
170
100
AcDbVisualStyle
  2
Hidden
 70
     6
 71
     1
 72
     2
 73
     2
 90
        0
 40
-0.6
 41
-30.0
 62
     5
 63
     7
 74
     2
 91
        2
 64
     7
 65
   257
 75
     2
175
     1
 42
40.0
 92
        0
 66
   257
 43
1.0
 76
     1
 77
     6
 78
     2
 67
     7
 79
     3
170
     0
171
     0
290
     0
174
     0
 93
        1
 44
0.0
173
     0
291
     0
 45
0.0
1001
ACAD
1000
AcDbSavedByObjectVersion
1070
     0
  0
VISUALSTYLE
  5
186
102
{ACAD_XDICTIONARY
360
723
102
}
102
{ACAD_REACTORS
330
170
102
}
330
170
100
AcDbVisualStyle
  2
JitterOff
 70
    20
 71
     2
 72
     2
 73
     0
 90
        0
 40
-0.6
 41
-30.0
 62
     5
 63
     7
 74
     1
 91
        4
 64
     7
 65
   257
 75
     1
175
     1
 42
1.0
 92
       10
 66
     7
 43
1.0
 76
     1
 77
     6
 78
     2
 67
     7
 79
     5
170
     0
171
     0
290
     0
174
     0
 93
        1
 44
0.0
173
     0
291
     1
 45
0.0
1001
ACAD
1000
AcDbSavedByObjectVersion
1070
     0
  0
VISUALSTYLE
  5
17E
102
{ACAD_XDICTIONARY
360
713
102
}
102
{ACAD_REACTORS
330
170
102
}
330
170
100
AcDbVisualStyle
  2
Linepattern
 70
    14
 71
     2
 72
     2
 73
     0
 90
        0
 40
-0.6
 41
-30.0
 62
     5
 63
     7
 74
     1
 91
        4
 64
     7
 65
   257
 75
     7
175
     7
 42
1.0
 92
        8
 66
     7
 43
1.0
 76
     1
 77
     6
 78
     2
 67
     7
 79
     5
170
     0
171
     0
290
     0
174
     0
 93
        1
 44
0.0
173
     0
291
     1
 45
0.0
1001
ACAD
1000
AcDbSavedByObjectVersion
1070
     0
  0
VISUALSTYLE
  5
187
102
{ACAD_XDICTIONARY
360
725
102
}
102
{ACAD_REACTORS
330
170
102
}
330
170
100
AcDbVisualStyle
  2
OverhangOff
 70
    21
 71
     2
 72
     2
 73
     0
 90
        0
 40
-0.6
 41
-30.0
 62
     5
 63
     7
 74
     1
 91
        4
 64
     7
 65
   257
 75
     1
175
     1
 42
1.0
 92
        9
 66
     7
 43
1.0
 76
     1
 77
     6
 78
     2
 67
     7
 79
     5
170
     0
171
     0
290
     0
174
     0
 93
        1
 44
0.0
173
     0
291
     1
 45
0.0
1001
ACAD
1000
AcDbSavedByObjectVersion
1070
     0
  0
VISUALSTYLE
  5
17A
102
{ACAD_XDICTIONARY
360
70B
102
}
102
{ACAD_REACTORS
330
170
102
}
330
170
100
AcDbVisualStyle
  2
Realistic
 70
     8
 71
     2
 72
     3
 73
     0
 90
        2
 40
-0.6
 41
30.0
 62
     5
 63
     7
 74
     0
 91
        0
 64
     7
 65
   257
 75
     1
175
     1
 42
1.0
 92
        8
 66
   257
 43
1.0
 76
     1
 77
     6
 78
     2
 67
     7
 79
     3
170
     0
171
     0
290
     0
174
     0
 93
       13
 44
0.0
173
     0
291
     0
 45
0.0
1001
ACAD
1000
AcDbSavedByObjectVersion
1070
     0
  0
VISUALSTYLE
  5
185
102
{ACAD_XDICTIONARY
360
721
102
}
102
{ACAD_REACTORS
330
170
102
}
330
170
100
AcDbVisualStyle
  2
Shaded
 70
    27
 71
     2
 72
     2
 73
     1
 90
        2
 40
-0.6
 41
30.0
 62
     5
 63
     7
 74
     0
 91
        4
 64
     7
 65
   257
 75
     1
175
     1
 42
1.0
 92
        8
 66
   257
 43
1.0
 76
     1
 77
     6
 78
     2
 67
     8
 79
     3
170
     0
171
     0
290
     0
174
     0
 93
        5
 44
0.0
173
     0
291
     0
 45
0.0
1001
ACAD
1000
AcDbSavedByObjectVersion
1070
     0
  0
VISUALSTYLE
  5
184
102
{ACAD_XDICTIONARY
360
71F
102
}
102
{ACAD_REACTORS
330
170
102
}
330
170
100
AcDbVisualStyle
  2
Shaded with edges
 70
    26
 71
     2
 72
     2
 73
     1
 90
        2
 40
-0.6
 41
30.0
 62
     5
 63
     7
 74
     1
 91
       10
 64
     7
 65
   257
 75
     2
175
     1
 42
1.0
 92
        8
 66
   257
 43
1.0
 76
     1
 77
     6
 78
     2
 67
     7
 79
     3
170
     0
171
     0
290
     0
174
     0
 93
        5
 44
0.0
173
     0
291
     0
 45
0.0
1001
ACAD
1000
AcDbSavedByObjectVersion
1070
     0
  0
VISUALSTYLE
  5
181
102
{ACAD_XDICTIONARY
360
719
102
}
102
{ACAD_REACTORS
330
170
102
}
330
170
100
AcDbVisualStyle
  2
Shades of Gray
 70
    23
 71
     2
 72
     2
 73
     3
 90
        0
 40
-0.6
 41
-30.0
 62
     5
 63
     7
 74
     2
 91
        2
 64
     7
 65
     7
 75
     1
175
     1
 42
40.0
 92
        8
 66
     7
 43
1.0
 76
     1
 77
     6
 78
     2
 67
     7
 79
     3
170
     0
171
     0
290
     0
174
     0
 93
        1
 44
0.0
173
     0
291
     0
 45
0.0
1001
ACAD
1000
AcDbSavedByObjectVersion
1070
     0
  0
VISUALSTYLE
  5
182
102
{ACAD_XDICTIONARY
360
71B
102
}
102
{ACAD_REACTORS
330
170
102
}
330
170
100
AcDbVisualStyle
  2
Sketchy
 70
    24
 71
     1
 72
     2
 73
     2
 90
        0
 40
-0.6
 41
-30.0
 62
     5
 63
     7
 74
     2
 91
        2
 64
     7
 65
     7
 75
     1
175
     1
 42
40.0
 92
       11
 66
     7
 43
1.0
 76
     1
 77
     6
 78
     2
 67
     7
 79
     6
170
     0
171
     0
290
     0
174
     0
 93
        1
 44
0.0
173
     0
291
     0
 45
0.0
1001
ACAD
1000
AcDbSavedByObjectVersion
1070
     0
  0
VISUALSTYLE
  5
17D
102
{ACAD_XDICTIONARY
360
711
102
}
102
{ACAD_REACTORS
330
170
102
}
330
170
100
AcDbVisualStyle
  2
Thicken
 70
    13
 71
     2
 72
     2
 73
     0
 90
        0
 40
-0.6
 41
-30.0
 62
     5
 63
     7
 74
     1
 91
        4
 64
     7
 65
   257
 75
     1
175
     1
 42
1.0
 92
       12
 66
     7
 43
1.0
 76
     1
 77
     6
 78
     2
 67
     7
 79
     5
170
     0
171
     0
290
     0
174
     0
 93
        1
 44
0.0
173
     0
291
     1
 45
0.0
1001
ACAD
1000
AcDbSavedByObjectVersion
1070
     0
  0
VISUALSTYLE
  5
177
102
{ACAD_XDICTIONARY
360
705
102
}
102
{ACAD_REACTORS
330
170
102
}
330
170
100
AcDbVisualStyle
  2
Wireframe
 70
     5
 71
     0
 72
     2
 73
     0
 90
        0
 40
-0.6
 41
-30.0
 62
     5
 63
     7
 74
     1
 91
        4
 64
     7
 65
   257
 75
     1
175
     1
 42
1.0
 92
        0
 66
   257
 43
1.0
 76
     1
 77
     6
 78
     2
 67
     7
 79
     3
170
     0
171
     0
290
     0
174
     0
 93
        1
 44
0.0
173
     0
291
     0
 45
0.0
1001
ACAD
1000
AcDbSavedByObjectVersion
1070
     0
  0
VISUALSTYLE
  5
183
102
{ACAD_XDICTIONARY
360
71D
102
}
102
{ACAD_REACTORS
330
170
102
}
330
170
100
AcDbVisualStyle
  2
X-Ray
 70
    25
 71
     2
 72
     2
 73
     1
 90
        1
 40
0.5
 41
-30.0
 62
     5
 63
     7
 74
     1
 91
        0
 64
     7
 65
   257
 75
     1
175
     1
 42
1.0
 92
        8
 66
     7
 43
1.0
 76
     1
 77
     6
 78
     2
 67
     7
 79
     3
170
     0
171
     0
290
     0
174
     0
 93
       13
 44
0.0
173
     0
291
     0
 45
0.0
1001
ACAD
1000
AcDbSavedByObjectVersion
1070
     0
  0
DICTIONARYVAR
  5
6E4
102
{ACAD_REACTORS
330
6DF
102
}
330
6DF
100
DictionaryVariables
280
     0
  1
1:1
  0
DICTIONARYVAR
  5
6E1
102
{ACAD_REACTORS
330
6DF
102
}
330
6DF
100
DictionaryVariables
280
     0
  1
STANDARD
  0
DICTIONARYVAR
  5
6E0
102
{ACAD_REACTORS
330
6DF
102
}
330
6DF
100
DictionaryVariables
280
     0
  1
STANDARD
  0
DICTIONARYVAR
  5
6E2
102
{ACAD_REACTORS
330
6DF
102
}
330
6DF
100
DictionaryVariables
280
     0
  1
Imperial24
  0
DICTIONARYVAR
  5
6E3
102
{ACAD_REACTORS
330
6DF
102
}
330
6DF
100
DictionaryVariables
280
     0
  1
Imperial24
  0
DICTIONARYVAR
  5
6EB
102
{ACAD_REACTORS
330
6DF
102
}
330
6DF
100
DictionaryVariables
280
     0
  1
2
  0
DICTIONARYVAR
  5
6E9
102
{ACAD_REACTORS
330
6DF
102
}
330
6DF
100
DictionaryVariables
280
     0
  1
2
  0
DICTIONARYVAR
  5
6E7
102
{ACAD_REACTORS
330
6DF
102
}
330
6DF
100
DictionaryVariables
280
     0
  1
1
  0
DICTIONARYVAR
  5
6E6
102
{ACAD_REACTORS
330
6DF
102
}
330
6DF
100
DictionaryVariables
280
     0
  1
0
  0
DICTIONARYVAR
  5
6EA
102
{ACAD_REACTORS
330
6DF
102
}
330
6DF
100
DictionaryVariables
280
     0
  1
1
  0
DICTIONARYVAR
  5
6E5
102
{ACAD_REACTORS
330
6DF
102
}
330
6DF
100
DictionaryVariables
280
     0
  1
127
  0
DICTIONARYVAR
  5
6E8
102
{ACAD_REACTORS
330
6DF
102
}
330
6DF
100
DictionaryVariables
280
     0
  1
0
  0
DICTIONARY
  5
1DE
102
{ACAD_REACTORS
330
1D5
102
}
330
1D5
100
AcDbDictionary
281
     1
  0
DICTIONARY
  5
6F2
330
1C
100
AcDbDictionary
280
     1
281
     1
  3
ACAD_XREC_ROUNDTRIP
360
6F3
  0
DICTIONARY
  5
6F4
330
1E
100
AcDbDictionary
280
     1
281
     1
  3
ACAD_XREC_ROUNDTRIP
360
6F5
  0
DICTIONARY
  5
161
330
160
100
AcDbDictionary
280
     1
281
     1
  3
ACAD_XREC_ROUNDTRIP
360
6F7
  3
BUMPTILE
360
163
  3
DIFFUSETILE
360
162
  3
OPACITYTILE
360
166
  3
REFLECTIONTILE
360
165
  3
REFRACTIONTILE
360
167
  3
SPECULARTILE
360
164
  0
DICTIONARY
  5
159
330
158
100
AcDbDictionary
280
     1
281
     1
  3
ACAD_XREC_ROUNDTRIP
360
6F6
  3
BUMPTILE
360
15B
  3
DIFFUSETILE
360
15A
  3
OPACITYTILE
360
15E
  3
REFLECTIONTILE
360
15D
  3
REFRACTIONTILE
360
15F
  3
SPECULARTILE
360
15C
  0
DICTIONARY
  5
169
330
168
100
AcDbDictionary
280
     1
281
     1
  3
ACAD_XREC_ROUNDTRIP
360
6F8
  3
BUMPTILE
360
16B
  3
DIFFUSETILE
360
16A
  3
OPACITYTILE
360
16E
  3
REFLECTIONTILE
360
16D
  3
REFRACTIONTILE
360
16F
  3
SPECULARTILE
360
16C
  0
DICTIONARY
  5
72B
330
19F
100
AcDbDictionary
280
     1
281
     1
  3
ACAD_XREC_ROUNDTRIP
360
72C
  0
DICTIONARY
  5
6EC
330
18B
100
AcDbDictionary
280
     1
281
     1
  3
ACAD_ROUNDTRIP_2008_TABLESTYLE_CELLSTYLEMAP
360
6ED
  3
ACAD_XREC_ROUNDTRIP
360
729
  0
DICTIONARY
  5
703
330
176
100
AcDbDictionary
280
     1
281
     1
  3
ACAD_XREC_ROUNDTRIP
360
704
  0
DICTIONARY
  5
701
330
175
100
AcDbDictionary
280
     1
281
     1
  3
ACAD_XREC_ROUNDTRIP
360
702
  0
DICTIONARY
  5
70F
330
17C
100
AcDbDictionary
280
     1
281
     1
  3
ACAD_XREC_ROUNDTRIP
360
710
  0
DICTIONARY
  5
717
330
180
100
AcDbDictionary
280
     1
281
     1
  3
ACAD_XREC_ROUNDTRIP
360
718
  0
DICTIONARY
  5
709
330
179
100
AcDbDictionary
280
     1
281
     1
  3
ACAD_XREC_ROUNDTRIP
360
70A
  0
DICTIONARY
  5
70D
330
17B
100
AcDbDictionary
280
     1
281
     1
  3
ACAD_XREC_ROUNDTRIP
360
70E
  0
DICTIONARY
  5
727
330
188
100
AcDbDictionary
280
     1
281
     1
  3
ACAD_XREC_ROUNDTRIP
360
728
  0
DICTIONARY
  5
715
330
17F
100
AcDbDictionary
280
     1
281
     1
  3
ACAD_XREC_ROUNDTRIP
360
716
  0
DICTIONARY
  5
6F9
330
171
100
AcDbDictionary
280
     1
281
     1
  3
ACAD_XREC_ROUNDTRIP
360
6FA
  0
DICTIONARY
  5
6FB
330
172
100
AcDbDictionary
280
     1
281
     1
  3
ACAD_XREC_ROUNDTRIP
360
6FC
  0
DICTIONARY
  5
6FD
330
173
100
AcDbDictionary
280
     1
281
     1
  3
ACAD_XREC_ROUNDTRIP
360
6FE
  0
DICTIONARY
  5
6FF
330
174
100
AcDbDictionary
280
     1
281
     1
  3
ACAD_XREC_ROUNDTRIP
360
700
  0
DICTIONARY
  5
707
330
178
100
AcDbDictionary
280
     1
281
     1
  3
ACAD_XREC_ROUNDTRIP
360
708
  0
DICTIONARY
  5
723
330
186
100
AcDbDictionary
280
     1
281
     1
  3
ACAD_XREC_ROUNDTRIP
360
724
  0
DICTIONARY
  5
713
330
17E
100
AcDbDictionary
280
     1
281
     1
  3
ACAD_XREC_ROUNDTRIP
360
714
  0
DICTIONARY
  5
725
330
187
100
AcDbDictionary
280
     1
281
     1
  3
ACAD_XREC_ROUNDTRIP
360
726
  0
DICTIONARY
  5
70B
330
17A
100
AcDbDictionary
280
     1
281
     1
  3
ACAD_XREC_ROUNDTRIP
360
70C
  0
DICTIONARY
  5
721
330
185
100
AcDbDictionary
280
     1
281
     1
  3
ACAD_XREC_ROUNDTRIP
360
722
  0
DICTIONARY
  5
71F
330
184
100
AcDbDictionary
280
     1
281
     1
  3
ACAD_XREC_ROUNDTRIP
360
720
  0
DICTIONARY
  5
719
330
181
100
AcDbDictionary
280
     1
281
     1
  3
ACAD_XREC_ROUNDTRIP
360
71A
  0
DICTIONARY
  5
71B
330
182
100
AcDbDictionary
280
     1
281
     1
  3
ACAD_XREC_ROUNDTRIP
360
71C
  0
DICTIONARY
  5
711
330
17D
100
AcDbDictionary
280
     1
281
     1
  3
ACAD_XREC_ROUNDTRIP
360
712
  0
DICTIONARY
  5
705
330
177
100
AcDbDictionary
280
     1
281
     1
  3
ACAD_XREC_ROUNDTRIP
360
706
  0
DICTIONARY
  5
71D
330
183
100
AcDbDictionary
280
     1
281
     1
  3
ACAD_XREC_ROUNDTRIP
360
71E
  0
XRECORD
  5
6F3
102
{ACAD_REACTORS
330
6F2
102
}
330
6F2
100
AcDbXrecord
280
     1
102
SHADEPLOT
 70
     0
102
SHADEPLOTRESLEVEL
 70
     2
102
SHADEPLOTCUSTOMDPI
 70
   300
  0
XRECORD
  5
6F5
102
{ACAD_REACTORS
330
6F4
102
}
330
6F4
100
AcDbXrecord
280
     1
102
SHADEPLOT
 70
     0
102
SHADEPLOTRESLEVEL
 70
     2
102
SHADEPLOTCUSTOMDPI
 70
   300
  0
XRECORD
  5
6F7
102
{ACAD_REACTORS
330
161
102
}
330
161
100
AcDbXrecord
280
     1
102
MATERIAL
148
0.0
149
0.0
149
0.0
 93
        0
 94
      127
282
     0
 72
     0
 77
     0
171
     0
175
     0
179
     0
273
     0
  0
XRECORD
  5
163
102
{ACAD_REACTORS
330
161
102
}
330
161
100
AcDbXrecord
280
     1
270
     1
271
     1
  0
XRECORD
  5
162
102
{ACAD_REACTORS
330
161
102
}
330
161
100
AcDbXrecord
280
     1
270
     1
271
     1
  0
XRECORD
  5
166
102
{ACAD_REACTORS
330
161
102
}
330
161
100
AcDbXrecord
280
     1
270
     1
271
     1
  0
XRECORD
  5
165
102
{ACAD_REACTORS
330
161
102
}
330
161
100
AcDbXrecord
280
     1
270
     1
271
     1
  0
XRECORD
  5
167
102
{ACAD_REACTORS
330
161
102
}
330
161
100
AcDbXrecord
280
     1
270
     1
271
     1
  0
XRECORD
  5
164
102
{ACAD_REACTORS
330
161
102
}
330
161
100
AcDbXrecord
280
     1
270
     1
271
     1
  0
XRECORD
  5
6F6
102
{ACAD_REACTORS
330
159
102
}
330
159
100
AcDbXrecord
280
     1
102
MATERIAL
148
0.0
149
0.0
149
0.0
 93
        0
 94
      127
282
     0
 72
     0
 77
     0
171
     0
175
     0
179
     0
273
     0
  0
XRECORD
  5
15B
102
{ACAD_REACTORS
330
159
102
}
330
159
100
AcDbXrecord
280
     1
270
     1
271
     1
  0
XRECORD
  5
15A
102
{ACAD_REACTORS
330
159
102
}
330
159
100
AcDbXrecord
280
     1
270
     1
271
     1
  0
XRECORD
  5
15E
102
{ACAD_REACTORS
330
159
102
}
330
159
100
AcDbXrecord
280
     1
270
     1
271
     1
  0
XRECORD
  5
15D
102
{ACAD_REACTORS
330
159
102
}
330
159
100
AcDbXrecord
280
     1
270
     1
271
     1
  0
XRECORD
  5
15F
102
{ACAD_REACTORS
330
159
102
}
330
159
100
AcDbXrecord
280
     1
270
     1
271
     1
  0
XRECORD
  5
15C
102
{ACAD_REACTORS
330
159
102
}
330
159
100
AcDbXrecord
280
     1
270
     1
271
     1
  0
XRECORD
  5
6F8
102
{ACAD_REACTORS
330
169
102
}
330
169
100
AcDbXrecord
280
     1
102
MATERIAL
148
0.0
149
0.0
149
0.0
 93
        0
 94
      127
282
     0
 72
     0
 77
     0
171
     0
175
     0
179
     0
273
     0
  0
XRECORD
  5
16B
102
{ACAD_REACTORS
330
169
102
}
330
169
100
AcDbXrecord
280
     1
270
     1
271
     1
  0
XRECORD
  5
16A
102
{ACAD_REACTORS
330
169
102
}
330
169
100
AcDbXrecord
280
     1
270
     1
271
     1
  0
XRECORD
  5
16E
102
{ACAD_REACTORS
330
169
102
}
330
169
100
AcDbXrecord
280
     1
270
     1
271
     1
  0
XRECORD
  5
16D
102
{ACAD_REACTORS
330
169
102
}
330
169
100
AcDbXrecord
280
     1
270
     1
271
     1
  0
XRECORD
  5
16F
102
{ACAD_REACTORS
330
169
102
}
330
169
100
AcDbXrecord
280
     1
270
     1
271
     1
  0
XRECORD
  5
16C
102
{ACAD_REACTORS
330
169
102
}
330
169
100
AcDbXrecord
280
     1
270
     1
271
     1
  0
XRECORD
  5
72C
102
{ACAD_REACTORS
330
72B
102
}
330
72B
100
AcDbXrecord
280
     1
102
ACAD_ROUNDTRIP_2012_MLEADER_STYLE
298
     1
  0
CELLSTYLEMAP
  5
6ED
102
{ACAD_REACTORS
330
6EC
102
}
330
6EC
100
AcDbCellStyleMap
 90
        3
300
CELLSTYLE
  1
TABLEFORMAT_BEGIN
 90
        5
170
     1
 91
        0
 92
    32768
 62
   257
 93
        1
300
CONTENTFORMAT
  1
CONTENTFORMAT_BEGIN
 90
        0
 91
        0
 92
      512
 93
        0
300

 40
0.0
140
1.0
 94
        5
 62
     0
340
11
144
0.25
309
CONTENTFORMAT_END
171
     0
 94
        0
309
TABLEFORMAT_END
  1
CELLSTYLE_BEGIN
 90
        1
 91
        1
300
_TITLE
309
CELLSTYLE_END
300
CELLSTYLE
  1
TABLEFORMAT_BEGIN
 90
        5
170
     1
 91
        0
 92
        0
 62
   257
 93
        1
300
CONTENTFORMAT
  1
CONTENTFORMAT_BEGIN
 90
        0
 91
        0
 92
      512
 93
        0
300

 40
0.0
140
1.0
 94
        5
 62
     0
340
11
144
0.18
309
CONTENTFORMAT_END
171
     0
 94
        0
309
TABLEFORMAT_END
  1
CELLSTYLE_BEGIN
 90
        2
 91
        1
300
_HEADER
309
CELLSTYLE_END
300
CELLSTYLE
  1
TABLEFORMAT_BEGIN
 90
        5
170
     1
 91
        0
 92
        0
 62
   257
 93
        1
300
CONTENTFORMAT
  1
CONTENTFORMAT_BEGIN
 90
        0
 91
        0
 92
      512
 93
        0
300

 40
0.0
140
1.0
 94
        2
 62
     0
340
11
144
0.18
309
CONTENTFORMAT_END
171
     0
 94
        0
309
TABLEFORMAT_END
  1
CELLSTYLE_BEGIN
 90
        3
 91
        2
300
_DATA
309
CELLSTYLE_END
  0
XRECORD
  5
729
102
{ACAD_REACTORS
330
6EC
102
}
330
6EC
100
AcDbXrecord
280
     1
102
ACAD_ROUNDTRIP_PRE2007_TABLESTYLE
 90
      512
 91
        0
  1

 92
      512
 93
        0
  2

 94
      512
 95
        0
  3

  0
XRECORD
  5
704
102
{ACAD_REACTORS
330
703
102
}
330
703
100
AcDbXrecord
280
     1
102
RTVSPost2010Prop28
280
     1
102
RTVSPost2010PropOp28
 70
     1
102
RTVSPost2010Prop29
280
     1
102
RTVSPost2010PropOp29
 70
     1
102
RTVSPost2010Prop30
280
     0
102
RTVSPost2010PropOp30
 70
     1
102
RTVSPost2010Prop31
280
     0
102
RTVSPost2010PropOp31
 70
     1
102
RTVSPost2010Prop32
280
     0
102
RTVSPost2010PropOp32
 70
     1
102
RTVSPost2010Prop33
280
     0
102
RTVSPost2010PropOp33
 70
     1
102
RTVSPost2010Prop34
280
     0
102
RTVSPost2010PropOp34
 70
     1
102
RTVSPost2010Prop35
280
     0
102
RTVSPost2010PropOp35
 70
     1
102
RTVSPost2010Prop36
280
     0
102
RTVSPost2010PropOp36
 70
     1
102
RTVSPost2010Prop37
 90
       50
102
RTVSPost2010PropOp37
 70
     1
102
RTVSPost2010Prop38
140
0.0
102
RTVSPost2010PropOp38
 70
     1
102
RTVSPost2010Prop39
140
1.0
102
RTVSPost2010PropOp39
 70
     1
102
RTVSPost2010Prop40
 90
        0
102
RTVSPost2010PropOp40
 70
     1
102
RTVSPost2010Prop41ColorIndex
 90
       18
102
RTVSPost2010Prop41ColorRGB
 90
        0
102
RTVSPost2010PropOp41
 70
     1
102
RTVSPost2010Prop42
 90
       50
102
RTVSPost2010PropOp42
 70
     1
102
RTVSPost2010Prop43
 90
        3
102
RTVSPost2010PropOp43
 70
     1
102
RTVSPost2010Prop44ColorIndex
 90
        5
102
RTVSPost2010Prop44ColorRGB
 90
      255
102
RTVSPost2010PropOp44
 70
     1
102
RTVSPost2010Prop45
280
     0
102
RTVSPost2010PropOp45
 70
     1
102
RTVSPost2010Prop46
 90
       50
102
RTVSPost2010PropOp46
 70
     1
102
RTVSPost2010Prop47
 90
       50
102
RTVSPost2010PropOp47
 70
     1
102
RTVSPost2010Prop48
 90
       50
102
RTVSPost2010PropOp48
 70
     1
102
RTVSPost2010Prop49
280
     0
102
RTVSPost2010PropOp49
 70
     1
102
RTVSPost2010Prop50
 90
       50
102
RTVSPost2010PropOp50
 70
     1
102
RTVSPost2010Prop51ColorIndex
 90
      256
102
RTVSPost2010Prop51ColorRGB
 90
-16777216
102
RTVSPost2010PropOp51
 70
     0
102
RTVSPost2010Prop52
140
1.0
102
RTVSPost2010PropOp52
 70
     0
102
RTVSPost2010Prop53
 90
        2
102
RTVSPost2010PropOp53
 70
     1
102
RTVSPost2010Prop54
  1
strokes_ogs.tif
102
RTVSPost2010PropOp54
 70
     1
102
RTVSPost2010Prop55
280
     0
102
RTVSPost2010PropOp55
 70
     1
102
RTVSPost2010Prop56
140
1.0
102
RTVSPost2010PropOp56
 70
     1
102
RTVSPost2010Prop57
140
1.0
102
RTVSPost2010PropOp57
 70
     1
102
RTVSPropertyOp0
 70
     1
102
RTVSPropertyOp1
 70
     1
102
RTVSPropertyOp2
 70
     1
102
RTVSPropertyOp3
 70
     1
102
RTVSPropertyOp4
 70
     1
102
RTVSPropertyOp5
 70
     1
102
RTVSPropertyOp6
 70
     1
102
RTVSPropertyOp7
 70
     1
102
RTVSPropertyOp8
 70
     1
102
RTVSPropertyOp9
 70
     1
102
RTVSPropertyOp10
 70
     1
102
RTVSPropertyOp11
 70
     1
102
RTVSPropertyOp12
 70
     1
102
RTVSPropertyOp13
 70
     1
102
RTVSPropertyOp14
 70
     1
102
RTVSPropertyOp15
 70
     1
102
RTVSPropertyOp16
 70
     1
102
RTVSPropertyOp17
 70
     1
102
RTVSPropertyOp18
 70
     1
102
RTVSPropertyOp19
 70
     1
102
RTVSPropertyOp20
 70
     1
102
RTVSPropertyOp21
 70
     1
102
RTVSPropertyOp22
 70
     1
102
RTVSPropertyOp23
 70
     1
102
RTVSPropertyOp24
 70
     1
102
RTVSPropertyOp25
 70
     1
102
RTVSPropertyOp26
 70
     1
102
RTVSPropertyOp27
 70
     1
102
RTVSPropertyOp28
 70
     1
102
RTVSPropertyOp29
 70
     1
102
RTVSPropertyOp30
 70
     1
102
RTVSPropertyOp31
 70
     1
102
RTVSPropertyOp32
 70
     1
102
RTVSPropertyOp33
 70
     1
102
RTVSPropertyOp34
 70
     1
102
RTVSPropertyOp35
 70
     1
102
RTVSPropertyOp36
 70
     1
102
RTVSPropertyOp37
 70
     1
102
RTVSPropertyOp38
 70
     1
102
RTVSPropertyOp39
 70
     1
102
RTVSPropertyOp40
 70
     1
102
RTVSPropertyOp41
 70
     1
102
RTVSPropertyOp42
 70
     1
102
RTVSPropertyOp43
 70
     1
102
RTVSPropertyOp44
 70
     1
102
RTVSPropertyOp45
 70
     1
102
RTVSPropertyOp46
 70
     1
102
RTVSPropertyOp47
 70
     1
102
RTVSPropertyOp48
 70
     1
102
RTVSPropertyOp49
 70
     1
102
RTVSPropertyOp50
 70
     1
102
RTVSPropertyOp51
 70
     0
102
RTVSPropertyOp52
 70
     0
102
RTVSPropertyOp53
 70
     1
102
RTVSPropertyOp54
 70
     1
102
RTVSPropertyOp55
 70
     1
102
RTVSPropertyOp56
 70
     1
102
RTVSPropertyOp57
 70
     1
102
RTVSPropertyOp58
 70
     1
102
RTVSPropertyOp59
 70
     1
102
RTVSPropertyOp60
 70
     1
102
RTVSPropertyOp61
 70
     1
102
RTVSPropertyOp62
 70
     1
  0
XRECORD
  5
702
102
{ACAD_REACTORS
330
701
102
}
330
701
100
AcDbXrecord
280
     1
102
RTVSPost2010Prop28
280
     0
102
RTVSPost2010PropOp28
 70
     1
102
RTVSPost2010Prop29
280
     1
102
RTVSPost2010PropOp29
 70
     1
102
RTVSPost2010Prop30
280
     1
102
RTVSPost2010PropOp30
 70
     1
102
RTVSPost2010Prop31
280
     0
102
RTVSPost2010PropOp31
 70
     1
102
RTVSPost2010Prop32
280
     0
102
RTVSPost2010PropOp32
 70
     1
102
RTVSPost2010Prop33
280
     0
102
RTVSPost2010PropOp33
 70
     1
102
RTVSPost2010Prop34
280
     0
102
RTVSPost2010PropOp34
 70
     1
102
RTVSPost2010Prop35
280
     0
102
RTVSPost2010PropOp35
 70
     1
102
RTVSPost2010Prop36
280
     0
102
RTVSPost2010PropOp36
 70
     1
102
RTVSPost2010Prop37
 90
       50
102
RTVSPost2010PropOp37
 70
     1
102
RTVSPost2010Prop38
140
0.0
102
RTVSPost2010PropOp38
 70
     1
102
RTVSPost2010Prop39
140
1.0
102
RTVSPost2010PropOp39
 70
     1
102
RTVSPost2010Prop40
 90
        0
102
RTVSPost2010PropOp40
 70
     1
102
RTVSPost2010Prop41ColorIndex
 90
       18
102
RTVSPost2010Prop41ColorRGB
 90
        0
102
RTVSPost2010PropOp41
 70
     1
102
RTVSPost2010Prop42
 90
       50
102
RTVSPost2010PropOp42
 70
     1
102
RTVSPost2010Prop43
 90
        3
102
RTVSPost2010PropOp43
 70
     1
102
RTVSPost2010Prop44ColorIndex
 90
        5
102
RTVSPost2010Prop44ColorRGB
 90
      255
102
RTVSPost2010PropOp44
 70
     1
102
RTVSPost2010Prop45
280
     0
102
RTVSPost2010PropOp45
 70
     1
102
RTVSPost2010Prop46
 90
       50
102
RTVSPost2010PropOp46
 70
     1
102
RTVSPost2010Prop47
 90
       50
102
RTVSPost2010PropOp47
 70
     1
102
RTVSPost2010Prop48
 90
       50
102
RTVSPost2010PropOp48
 70
     1
102
RTVSPost2010Prop49
280
     0
102
RTVSPost2010PropOp49
 70
     1
102
RTVSPost2010Prop50
 90
       50
102
RTVSPost2010PropOp50
 70
     1
102
RTVSPost2010Prop51ColorIndex
 90
      256
102
RTVSPost2010Prop51ColorRGB
 90
-16777216
102
RTVSPost2010PropOp51
 70
     0
102
RTVSPost2010Prop52
140
1.0
102
RTVSPost2010PropOp52
 70
     0
102
RTVSPost2010Prop53
 90
        2
102
RTVSPost2010PropOp53
 70
     1
102
RTVSPost2010Prop54
  1
strokes_ogs.tif
102
RTVSPost2010PropOp54
 70
     1
102
RTVSPost2010Prop55
280
     0
102
RTVSPost2010PropOp55
 70
     1
102
RTVSPost2010Prop56
140
1.0
102
RTVSPost2010PropOp56
 70
     1
102
RTVSPost2010Prop57
140
1.0
102
RTVSPost2010PropOp57
 70
     1
102
RTVSPropertyOp0
 70
     1
102
RTVSPropertyOp1
 70
     1
102
RTVSPropertyOp2
 70
     1
102
RTVSPropertyOp3
 70
     1
102
RTVSPropertyOp4
 70
     1
102
RTVSPropertyOp5
 70
     1
102
RTVSPropertyOp6
 70
     1
102
RTVSPropertyOp7
 70
     1
102
RTVSPropertyOp8
 70
     1
102
RTVSPropertyOp9
 70
     1
102
RTVSPropertyOp10
 70
     1
102
RTVSPropertyOp11
 70
     1
102
RTVSPropertyOp12
 70
     1
102
RTVSPropertyOp13
 70
     1
102
RTVSPropertyOp14
 70
     1
102
RTVSPropertyOp15
 70
     1
102
RTVSPropertyOp16
 70
     1
102
RTVSPropertyOp17
 70
     1
102
RTVSPropertyOp18
 70
     1
102
RTVSPropertyOp19
 70
     1
102
RTVSPropertyOp20
 70
     1
102
RTVSPropertyOp21
 70
     1
102
RTVSPropertyOp22
 70
     1
102
RTVSPropertyOp23
 70
     1
102
RTVSPropertyOp24
 70
     1
102
RTVSPropertyOp25
 70
     1
102
RTVSPropertyOp26
 70
     1
102
RTVSPropertyOp27
 70
     1
102
RTVSPropertyOp28
 70
     1
102
RTVSPropertyOp29
 70
     1
102
RTVSPropertyOp30
 70
     1
102
RTVSPropertyOp31
 70
     1
102
RTVSPropertyOp32
 70
     1
102
RTVSPropertyOp33
 70
     1
102
RTVSPropertyOp34
 70
     1
102
RTVSPropertyOp35
 70
     1
102
RTVSPropertyOp36
 70
     1
102
RTVSPropertyOp37
 70
     1
102
RTVSPropertyOp38
 70
     1
102
RTVSPropertyOp39
 70
     1
102
RTVSPropertyOp40
 70
     1
102
RTVSPropertyOp41
 70
     1
102
RTVSPropertyOp42
 70
     1
102
RTVSPropertyOp43
 70
     1
102
RTVSPropertyOp44
 70
     1
102
RTVSPropertyOp45
 70
     1
102
RTVSPropertyOp46
 70
     1
102
RTVSPropertyOp47
 70
     1
102
RTVSPropertyOp48
 70
     1
102
RTVSPropertyOp49
 70
     1
102
RTVSPropertyOp50
 70
     1
102
RTVSPropertyOp51
 70
     0
102
RTVSPropertyOp52
 70
     0
102
RTVSPropertyOp53
 70
     1
102
RTVSPropertyOp54
 70
     1
102
RTVSPropertyOp55
 70
     1
102
RTVSPropertyOp56
 70
     1
102
RTVSPropertyOp57
 70
     1
102
RTVSPropertyOp58
 70
     1
102
RTVSPropertyOp59
 70
     1
102
RTVSPropertyOp60
 70
     1
102
RTVSPropertyOp61
 70
     1
102
RTVSPropertyOp62
 70
     1
  0
XRECORD
  5
710
102
{ACAD_REACTORS
330
70F
102
}
330
70F
100
AcDbXrecord
280
     1
102
RTVSPost2010Prop28
280
     0
102
RTVSPost2010PropOp28
 70
     1
102
RTVSPost2010Prop29
280
     1
102
RTVSPost2010PropOp29
 70
     1
102
RTVSPost2010Prop30
280
     1
102
RTVSPost2010PropOp30
 70
     1
102
RTVSPost2010Prop31
280
     0
102
RTVSPost2010PropOp31
 70
     1
102
RTVSPost2010Prop32
280
     0
102
RTVSPost2010PropOp32
 70
     1
102
RTVSPost2010Prop33
280
     0
102
RTVSPost2010PropOp33
 70
     1
102
RTVSPost2010Prop34
280
     0
102
RTVSPost2010PropOp34
 70
     1
102
RTVSPost2010Prop35
280
     0
102
RTVSPost2010PropOp35
 70
     1
102
RTVSPost2010Prop36
280
     0
102
RTVSPost2010PropOp36
 70
     1
102
RTVSPost2010Prop37
 90
       50
102
RTVSPost2010PropOp37
 70
     1
102
RTVSPost2010Prop38
140
0.0
102
RTVSPost2010PropOp38
 70
     1
102
RTVSPost2010Prop39
140
1.0
102
RTVSPost2010PropOp39
 70
     1
102
RTVSPost2010Prop40
 90
        0
102
RTVSPost2010PropOp40
 70
     1
102
RTVSPost2010Prop41ColorIndex
 90
       18
102
RTVSPost2010Prop41ColorRGB
 90
        0
102
RTVSPost2010PropOp41
 70
     1
102
RTVSPost2010Prop42
 90
       50
102
RTVSPost2010PropOp42
 70
     1
102
RTVSPost2010Prop43
 90
        3
102
RTVSPost2010PropOp43
 70
     1
102
RTVSPost2010Prop44ColorIndex
 90
        5
102
RTVSPost2010Prop44ColorRGB
 90
      255
102
RTVSPost2010PropOp44
 70
     1
102
RTVSPost2010Prop45
280
     0
102
RTVSPost2010PropOp45
 70
     1
102
RTVSPost2010Prop46
 90
       50
102
RTVSPost2010PropOp46
 70
     1
102
RTVSPost2010Prop47
 90
       50
102
RTVSPost2010PropOp47
 70
     1
102
RTVSPost2010Prop48
 90
       50
102
RTVSPost2010PropOp48
 70
     1
102
RTVSPost2010Prop49
280
     0
102
RTVSPost2010PropOp49
 70
     1
102
RTVSPost2010Prop50
 90
       50
102
RTVSPost2010PropOp50
 70
     1
102
RTVSPost2010Prop51ColorIndex
 90
      256
102
RTVSPost2010Prop51ColorRGB
 90
-16777216
102
RTVSPost2010PropOp51
 70
     0
102
RTVSPost2010Prop52
140
1.0
102
RTVSPost2010PropOp52
 70
     0
102
RTVSPost2010Prop53
 90
        2
102
RTVSPost2010PropOp53
 70
     1
102
RTVSPost2010Prop54
  1
strokes_ogs.tif
102
RTVSPost2010PropOp54
 70
     1
102
RTVSPost2010Prop55
280
     0
102
RTVSPost2010PropOp55
 70
     1
102
RTVSPost2010Prop56
140
1.0
102
RTVSPost2010PropOp56
 70
     1
102
RTVSPost2010Prop57
140
1.0
102
RTVSPost2010PropOp57
 70
     1
102
RTVSPropertyOp0
 70
     1
102
RTVSPropertyOp1
 70
     1
102
RTVSPropertyOp2
 70
     1
102
RTVSPropertyOp3
 70
     1
102
RTVSPropertyOp4
 70
     1
102
RTVSPropertyOp5
 70
     1
102
RTVSPropertyOp6
 70
     1
102
RTVSPropertyOp7
 70
     1
102
RTVSPropertyOp8
 70
     1
102
RTVSPropertyOp9
 70
     1
102
RTVSPropertyOp10
 70
     1
102
RTVSPropertyOp11
 70
     1
102
RTVSPropertyOp12
 70
     1
102
RTVSPropertyOp13
 70
     1
102
RTVSPropertyOp14
 70
     1
102
RTVSPropertyOp15
 70
     1
102
RTVSPropertyOp16
 70
     1
102
RTVSPropertyOp17
 70
     1
102
RTVSPropertyOp18
 70
     1
102
RTVSPropertyOp19
 70
     1
102
RTVSPropertyOp20
 70
     1
102
RTVSPropertyOp21
 70
     1
102
RTVSPropertyOp22
 70
     1
102
RTVSPropertyOp23
 70
     1
102
RTVSPropertyOp24
 70
     1
102
RTVSPropertyOp25
 70
     1
102
RTVSPropertyOp26
 70
     1
102
RTVSPropertyOp27
 70
     1
102
RTVSPropertyOp28
 70
     1
102
RTVSPropertyOp29
 70
     1
102
RTVSPropertyOp30
 70
     1
102
RTVSPropertyOp31
 70
     1
102
RTVSPropertyOp32
 70
     1
102
RTVSPropertyOp33
 70
     1
102
RTVSPropertyOp34
 70
     1
102
RTVSPropertyOp35
 70
     1
102
RTVSPropertyOp36
 70
     1
102
RTVSPropertyOp37
 70
     1
102
RTVSPropertyOp38
 70
     1
102
RTVSPropertyOp39
 70
     1
102
RTVSPropertyOp40
 70
     1
102
RTVSPropertyOp41
 70
     1
102
RTVSPropertyOp42
 70
     1
102
RTVSPropertyOp43
 70
     1
102
RTVSPropertyOp44
 70
     1
102
RTVSPropertyOp45
 70
     1
102
RTVSPropertyOp46
 70
     1
102
RTVSPropertyOp47
 70
     1
102
RTVSPropertyOp48
 70
     1
102
RTVSPropertyOp49
 70
     1
102
RTVSPropertyOp50
 70
     1
102
RTVSPropertyOp51
 70
     0
102
RTVSPropertyOp52
 70
     0
102
RTVSPropertyOp53
 70
     1
102
RTVSPropertyOp54
 70
     1
102
RTVSPropertyOp55
 70
     1
102
RTVSPropertyOp56
 70
     1
102
RTVSPropertyOp57
 70
     1
102
RTVSPropertyOp58
 70
     1
102
RTVSPropertyOp59
 70
     1
102
RTVSPropertyOp60
 70
     1
102
RTVSPropertyOp61
 70
     1
102
RTVSPropertyOp62
 70
     1
  0
XRECORD
  5
718
102
{ACAD_REACTORS
330
717
102
}
330
717
100
AcDbXrecord
280
     1
102
RTVSPost2010Prop28
280
     0
102
RTVSPost2010PropOp28
 70
     1
102
RTVSPost2010Prop29
280
     1
102
RTVSPost2010PropOp29
 70
     1
102
RTVSPost2010Prop30
280
     1
102
RTVSPost2010PropOp30
 70
     1
102
RTVSPost2010Prop31
280
     0
102
RTVSPost2010PropOp31
 70
     1
102
RTVSPost2010Prop32
280
     0
102
RTVSPost2010PropOp32
 70
     1
102
RTVSPost2010Prop33
280
     0
102
RTVSPost2010PropOp33
 70
     1
102
RTVSPost2010Prop34
280
     0
102
RTVSPost2010PropOp34
 70
     1
102
RTVSPost2010Prop35
280
     0
102
RTVSPost2010PropOp35
 70
     1
102
RTVSPost2010Prop36
280
     0
102
RTVSPost2010PropOp36
 70
     1
102
RTVSPost2010Prop37
 90
       50
102
RTVSPost2010PropOp37
 70
     1
102
RTVSPost2010Prop38
140
0.0
102
RTVSPost2010PropOp38
 70
     1
102
RTVSPost2010Prop39
140
1.0
102
RTVSPost2010PropOp39
 70
     1
102
RTVSPost2010Prop40
 90
        0
102
RTVSPost2010PropOp40
 70
     1
102
RTVSPost2010Prop41ColorIndex
 90
       18
102
RTVSPost2010Prop41ColorRGB
 90
        0
102
RTVSPost2010PropOp41
 70
     1
102
RTVSPost2010Prop42
 90
       50
102
RTVSPost2010PropOp42
 70
     1
102
RTVSPost2010Prop43
 90
        3
102
RTVSPost2010PropOp43
 70
     1
102
RTVSPost2010Prop44ColorIndex
 90
        5
102
RTVSPost2010Prop44ColorRGB
 90
      255
102
RTVSPost2010PropOp44
 70
     1
102
RTVSPost2010Prop45
280
     0
102
RTVSPost2010PropOp45
 70
     1
102
RTVSPost2010Prop46
 90
       50
102
RTVSPost2010PropOp46
 70
     1
102
RTVSPost2010Prop47
 90
       50
102
RTVSPost2010PropOp47
 70
     1
102
RTVSPost2010Prop48
 90
       50
102
RTVSPost2010PropOp48
 70
     1
102
RTVSPost2010Prop49
280
     0
102
RTVSPost2010PropOp49
 70
     1
102
RTVSPost2010Prop50
 90
       50
102
RTVSPost2010PropOp50
 70
     1
102
RTVSPost2010Prop51ColorIndex
 90
      256
102
RTVSPost2010Prop51ColorRGB
 90
-16777216
102
RTVSPost2010PropOp51
 70
     0
102
RTVSPost2010Prop52
140
1.0
102
RTVSPost2010PropOp52
 70
     0
102
RTVSPost2010Prop53
 90
        2
102
RTVSPost2010PropOp53
 70
     1
102
RTVSPost2010Prop54
  1
strokes_ogs.tif
102
RTVSPost2010PropOp54
 70
     1
102
RTVSPost2010Prop55
280
     0
102
RTVSPost2010PropOp55
 70
     1
102
RTVSPost2010Prop56
140
1.0
102
RTVSPost2010PropOp56
 70
     1
102
RTVSPost2010Prop57
140
1.0
102
RTVSPost2010PropOp57
 70
     1
102
RTVSPropertyOp0
 70
     1
102
RTVSPropertyOp1
 70
     1
102
RTVSPropertyOp2
 70
     1
102
RTVSPropertyOp3
 70
     1
102
RTVSPropertyOp4
 70
     1
102
RTVSPropertyOp5
 70
     1
102
RTVSPropertyOp6
 70
     1
102
RTVSPropertyOp7
 70
     1
102
RTVSPropertyOp8
 70
     1
102
RTVSPropertyOp9
 70
     1
102
RTVSPropertyOp10
 70
     1
102
RTVSPropertyOp11
 70
     1
102
RTVSPropertyOp12
 70
     1
102
RTVSPropertyOp13
 70
     1
102
RTVSPropertyOp14
 70
     1
102
RTVSPropertyOp15
 70
     1
102
RTVSPropertyOp16
 70
     1
102
RTVSPropertyOp17
 70
     1
102
RTVSPropertyOp18
 70
     1
102
RTVSPropertyOp19
 70
     1
102
RTVSPropertyOp20
 70
     1
102
RTVSPropertyOp21
 70
     1
102
RTVSPropertyOp22
 70
     1
102
RTVSPropertyOp23
 70
     1
102
RTVSPropertyOp24
 70
     1
102
RTVSPropertyOp25
 70
     1
102
RTVSPropertyOp26
 70
     1
102
RTVSPropertyOp27
 70
     1
102
RTVSPropertyOp28
 70
     1
102
RTVSPropertyOp29
 70
     1
102
RTVSPropertyOp30
 70
     1
102
RTVSPropertyOp31
 70
     1
102
RTVSPropertyOp32
 70
     1
102
RTVSPropertyOp33
 70
     1
102
RTVSPropertyOp34
 70
     1
102
RTVSPropertyOp35
 70
     1
102
RTVSPropertyOp36
 70
     1
102
RTVSPropertyOp37
 70
     1
102
RTVSPropertyOp38
 70
     1
102
RTVSPropertyOp39
 70
     1
102
RTVSPropertyOp40
 70
     1
102
RTVSPropertyOp41
 70
     1
102
RTVSPropertyOp42
 70
     1
102
RTVSPropertyOp43
 70
     1
102
RTVSPropertyOp44
 70
     1
102
RTVSPropertyOp45
 70
     1
102
RTVSPropertyOp46
 70
     1
102
RTVSPropertyOp47
 70
     1
102
RTVSPropertyOp48
 70
     1
102
RTVSPropertyOp49
 70
     1
102
RTVSPropertyOp50
 70
     1
102
RTVSPropertyOp51
 70
     0
102
RTVSPropertyOp52
 70
     0
102
RTVSPropertyOp53
 70
     1
102
RTVSPropertyOp54
 70
     1
102
RTVSPropertyOp55
 70
     1
102
RTVSPropertyOp56
 70
     1
102
RTVSPropertyOp57
 70
     1
102
RTVSPropertyOp58
 70
     1
102
RTVSPropertyOp59
 70
     1
102
RTVSPropertyOp60
 70
     1
102
RTVSPropertyOp61
 70
     1
102
RTVSPropertyOp62
 70
     1
  0
XRECORD
  5
70A
102
{ACAD_REACTORS
330
709
102
}
330
709
100
AcDbXrecord
280
     1
102
RTVSPost2010Prop28
280
     0
102
RTVSPost2010PropOp28
 70
     1
102
RTVSPost2010Prop29
280
     1
102
RTVSPost2010PropOp29
 70
     1
102
RTVSPost2010Prop30
280
     1
102
RTVSPost2010PropOp30
 70
     1
102
RTVSPost2010Prop31
280
     0
102
RTVSPost2010PropOp31
 70
     1
102
RTVSPost2010Prop32
280
     0
102
RTVSPost2010PropOp32
 70
     1
102
RTVSPost2010Prop33
280
     0
102
RTVSPost2010PropOp33
 70
     1
102
RTVSPost2010Prop34
280
     0
102
RTVSPost2010PropOp34
 70
     1
102
RTVSPost2010Prop35
280
     0
102
RTVSPost2010PropOp35
 70
     1
102
RTVSPost2010Prop36
280
     0
102
RTVSPost2010PropOp36
 70
     1
102
RTVSPost2010Prop37
 90
       50
102
RTVSPost2010PropOp37
 70
     1
102
RTVSPost2010Prop38
140
0.0
102
RTVSPost2010PropOp38
 70
     1
102
RTVSPost2010Prop39
140
1.0
102
RTVSPost2010PropOp39
 70
     1
102
RTVSPost2010Prop40
 90
        0
102
RTVSPost2010PropOp40
 70
     1
102
RTVSPost2010Prop41ColorIndex
 90
       18
102
RTVSPost2010Prop41ColorRGB
 90
        0
102
RTVSPost2010PropOp41
 70
     1
102
RTVSPost2010Prop42
 90
       50
102
RTVSPost2010PropOp42
 70
     1
102
RTVSPost2010Prop43
 90
        3
102
RTVSPost2010PropOp43
 70
     1
102
RTVSPost2010Prop44ColorIndex
 90
        5
102
RTVSPost2010Prop44ColorRGB
 90
      255
102
RTVSPost2010PropOp44
 70
     1
102
RTVSPost2010Prop45
280
     0
102
RTVSPost2010PropOp45
 70
     1
102
RTVSPost2010Prop46
 90
       50
102
RTVSPost2010PropOp46
 70
     1
102
RTVSPost2010Prop47
 90
       50
102
RTVSPost2010PropOp47
 70
     1
102
RTVSPost2010Prop48
 90
       50
102
RTVSPost2010PropOp48
 70
     1
102
RTVSPost2010Prop49
280
     0
102
RTVSPost2010PropOp49
 70
     1
102
RTVSPost2010Prop50
 90
       50
102
RTVSPost2010PropOp50
 70
     1
102
RTVSPost2010Prop51ColorIndex
 90
      256
102
RTVSPost2010Prop51ColorRGB
 90
-16777216
102
RTVSPost2010PropOp51
 70
     0
102
RTVSPost2010Prop52
140
1.0
102
RTVSPost2010PropOp52
 70
     0
102
RTVSPost2010Prop53
 90
        2
102
RTVSPost2010PropOp53
 70
     1
102
RTVSPost2010Prop54
  1
strokes_ogs.tif
102
RTVSPost2010PropOp54
 70
     1
102
RTVSPost2010Prop55
280
     0
102
RTVSPost2010PropOp55
 70
     1
102
RTVSPost2010Prop56
140
1.0
102
RTVSPost2010PropOp56
 70
     1
102
RTVSPost2010Prop57
140
1.0
102
RTVSPost2010PropOp57
 70
     1
102
RTVSPropertyOp0
 70
     1
102
RTVSPropertyOp1
 70
     1
102
RTVSPropertyOp2
 70
     1
102
RTVSPropertyOp3
 70
     1
102
RTVSPropertyOp4
 70
     1
102
RTVSPropertyOp5
 70
     1
102
RTVSPropertyOp6
 70
     1
102
RTVSPropertyOp7
 70
     1
102
RTVSPropertyOp8
 70
     1
102
RTVSPropertyOp9
 70
     1
102
RTVSPropertyOp10
 70
     1
102
RTVSPropertyOp11
 70
     1
102
RTVSPropertyOp12
 70
     1
102
RTVSPropertyOp13
 70
     1
102
RTVSPropertyOp14
 70
     1
102
RTVSPropertyOp15
 70
     1
102
RTVSPropertyOp16
 70
     1
102
RTVSPropertyOp17
 70
     1
102
RTVSPropertyOp18
 70
     1
102
RTVSPropertyOp19
 70
     1
102
RTVSPropertyOp20
 70
     1
102
RTVSPropertyOp21
 70
     1
102
RTVSPropertyOp22
 70
     1
102
RTVSPropertyOp23
 70
     1
102
RTVSPropertyOp24
 70
     1
102
RTVSPropertyOp25
 70
     1
102
RTVSPropertyOp26
 70
     1
102
RTVSPropertyOp27
 70
     1
102
RTVSPropertyOp28
 70
     1
102
RTVSPropertyOp29
 70
     1
102
RTVSPropertyOp30
 70
     1
102
RTVSPropertyOp31
 70
     1
102
RTVSPropertyOp32
 70
     1
102
RTVSPropertyOp33
 70
     1
102
RTVSPropertyOp34
 70
     1
102
RTVSPropertyOp35
 70
     1
102
RTVSPropertyOp36
 70
     1
102
RTVSPropertyOp37
 70
     1
102
RTVSPropertyOp38
 70
     1
102
RTVSPropertyOp39
 70
     1
102
RTVSPropertyOp40
 70
     1
102
RTVSPropertyOp41
 70
     1
102
RTVSPropertyOp42
 70
     1
102
RTVSPropertyOp43
 70
     1
102
RTVSPropertyOp44
 70
     1
102
RTVSPropertyOp45
 70
     1
102
RTVSPropertyOp46
 70
     1
102
RTVSPropertyOp47
 70
     1
102
RTVSPropertyOp48
 70
     1
102
RTVSPropertyOp49
 70
     1
102
RTVSPropertyOp50
 70
     1
102
RTVSPropertyOp51
 70
     0
102
RTVSPropertyOp52
 70
     0
102
RTVSPropertyOp53
 70
     1
102
RTVSPropertyOp54
 70
     1
102
RTVSPropertyOp55
 70
     1
102
RTVSPropertyOp56
 70
     1
102
RTVSPropertyOp57
 70
     1
102
RTVSPropertyOp58
 70
     1
102
RTVSPropertyOp59
 70
     1
102
RTVSPropertyOp60
 70
     1
102
RTVSPropertyOp61
 70
     1
102
RTVSPropertyOp62
 70
     1
  0
XRECORD
  5
70E
102
{ACAD_REACTORS
330
70D
102
}
330
70D
100
AcDbXrecord
280
     1
102
RTVSPost2010Prop28
280
     0
102
RTVSPost2010PropOp28
 70
     1
102
RTVSPost2010Prop29
280
     1
102
RTVSPost2010PropOp29
 70
     1
102
RTVSPost2010Prop30
280
     1
102
RTVSPost2010PropOp30
 70
     1
102
RTVSPost2010Prop31
280
     0
102
RTVSPost2010PropOp31
 70
     1
102
RTVSPost2010Prop32
280
     0
102
RTVSPost2010PropOp32
 70
     1
102
RTVSPost2010Prop33
280
     0
102
RTVSPost2010PropOp33
 70
     1
102
RTVSPost2010Prop34
280
     0
102
RTVSPost2010PropOp34
 70
     1
102
RTVSPost2010Prop35
280
     0
102
RTVSPost2010PropOp35
 70
     1
102
RTVSPost2010Prop36
280
     0
102
RTVSPost2010PropOp36
 70
     1
102
RTVSPost2010Prop37
 90
       50
102
RTVSPost2010PropOp37
 70
     1
102
RTVSPost2010Prop38
140
0.0
102
RTVSPost2010PropOp38
 70
     1
102
RTVSPost2010Prop39
140
1.0
102
RTVSPost2010PropOp39
 70
     1
102
RTVSPost2010Prop40
 90
        0
102
RTVSPost2010PropOp40
 70
     1
102
RTVSPost2010Prop41ColorIndex
 90
       18
102
RTVSPost2010Prop41ColorRGB
 90
        0
102
RTVSPost2010PropOp41
 70
     1
102
RTVSPost2010Prop42
 90
       50
102
RTVSPost2010PropOp42
 70
     1
102
RTVSPost2010Prop43
 90
        3
102
RTVSPost2010PropOp43
 70
     1
102
RTVSPost2010Prop44ColorIndex
 90
        5
102
RTVSPost2010Prop44ColorRGB
 90
      255
102
RTVSPost2010PropOp44
 70
     1
102
RTVSPost2010Prop45
280
     0
102
RTVSPost2010PropOp45
 70
     1
102
RTVSPost2010Prop46
 90
       50
102
RTVSPost2010PropOp46
 70
     1
102
RTVSPost2010Prop47
 90
       50
102
RTVSPost2010PropOp47
 70
     1
102
RTVSPost2010Prop48
 90
       50
102
RTVSPost2010PropOp48
 70
     1
102
RTVSPost2010Prop49
280
     0
102
RTVSPost2010PropOp49
 70
     1
102
RTVSPost2010Prop50
 90
       50
102
RTVSPost2010PropOp50
 70
     1
102
RTVSPost2010Prop51ColorIndex
 90
      256
102
RTVSPost2010Prop51ColorRGB
 90
-16777216
102
RTVSPost2010PropOp51
 70
     0
102
RTVSPost2010Prop52
140
1.0
102
RTVSPost2010PropOp52
 70
     0
102
RTVSPost2010Prop53
 90
        2
102
RTVSPost2010PropOp53
 70
     1
102
RTVSPost2010Prop54
  1
strokes_ogs.tif
102
RTVSPost2010PropOp54
 70
     1
102
RTVSPost2010Prop55
280
     0
102
RTVSPost2010PropOp55
 70
     1
102
RTVSPost2010Prop56
140
1.0
102
RTVSPost2010PropOp56
 70
     1
102
RTVSPost2010Prop57
140
1.0
102
RTVSPost2010PropOp57
 70
     1
102
RTVSPropertyOp0
 70
     1
102
RTVSPropertyOp1
 70
     1
102
RTVSPropertyOp2
 70
     1
102
RTVSPropertyOp3
 70
     1
102
RTVSPropertyOp4
 70
     1
102
RTVSPropertyOp5
 70
     1
102
RTVSPropertyOp6
 70
     1
102
RTVSPropertyOp7
 70
     1
102
RTVSPropertyOp8
 70
     1
102
RTVSPropertyOp9
 70
     1
102
RTVSPropertyOp10
 70
     1
102
RTVSPropertyOp11
 70
     1
102
RTVSPropertyOp12
 70
     1
102
RTVSPropertyOp13
 70
     1
102
RTVSPropertyOp14
 70
     1
102
RTVSPropertyOp15
 70
     1
102
RTVSPropertyOp16
 70
     1
102
RTVSPropertyOp17
 70
     1
102
RTVSPropertyOp18
 70
     1
102
RTVSPropertyOp19
 70
     1
102
RTVSPropertyOp20
 70
     1
102
RTVSPropertyOp21
 70
     1
102
RTVSPropertyOp22
 70
     1
102
RTVSPropertyOp23
 70
     1
102
RTVSPropertyOp24
 70
     1
102
RTVSPropertyOp25
 70
     1
102
RTVSPropertyOp26
 70
     1
102
RTVSPropertyOp27
 70
     1
102
RTVSPropertyOp28
 70
     1
102
RTVSPropertyOp29
 70
     1
102
RTVSPropertyOp30
 70
     1
102
RTVSPropertyOp31
 70
     1
102
RTVSPropertyOp32
 70
     1
102
RTVSPropertyOp33
 70
     1
102
RTVSPropertyOp34
 70
     1
102
RTVSPropertyOp35
 70
     1
102
RTVSPropertyOp36
 70
     1
102
RTVSPropertyOp37
 70
     1
102
RTVSPropertyOp38
 70
     1
102
RTVSPropertyOp39
 70
     1
102
RTVSPropertyOp40
 70
     1
102
RTVSPropertyOp41
 70
     1
102
RTVSPropertyOp42
 70
     1
102
RTVSPropertyOp43
 70
     1
102
RTVSPropertyOp44
 70
     1
102
RTVSPropertyOp45
 70
     1
102
RTVSPropertyOp46
 70
     1
102
RTVSPropertyOp47
 70
     1
102
RTVSPropertyOp48
 70
     1
102
RTVSPropertyOp49
 70
     1
102
RTVSPropertyOp50
 70
     1
102
RTVSPropertyOp51
 70
     0
102
RTVSPropertyOp52
 70
     0
102
RTVSPropertyOp53
 70
     1
102
RTVSPropertyOp54
 70
     1
102
RTVSPropertyOp55
 70
     1
102
RTVSPropertyOp56
 70
     1
102
RTVSPropertyOp57
 70
     1
102
RTVSPropertyOp58
 70
     1
102
RTVSPropertyOp59
 70
     1
102
RTVSPropertyOp60
 70
     1
102
RTVSPropertyOp61
 70
     1
102
RTVSPropertyOp62
 70
     1
  0
XRECORD
  5
728
102
{ACAD_REACTORS
330
727
102
}
330
727
100
AcDbXrecord
280
     1
102
RTVSPost2010Prop28
280
     0
102
RTVSPost2010PropOp28
 70
     0
102
RTVSPost2010Prop29
280
     1
102
RTVSPost2010PropOp29
 70
     0
102
RTVSPost2010Prop30
280
     1
102
RTVSPost2010PropOp30
 70
     0
102
RTVSPost2010Prop31
280
     0
102
RTVSPost2010PropOp31
 70
     0
102
RTVSPost2010Prop32
280
     0
102
RTVSPost2010PropOp32
 70
     0
102
RTVSPost2010Prop33
280
     0
102
RTVSPost2010PropOp33
 70
     0
102
RTVSPost2010Prop34
280
     0
102
RTVSPost2010PropOp34
 70
     0
102
RTVSPost2010Prop35
280
     0
102
RTVSPost2010PropOp35
 70
     0
102
RTVSPost2010Prop36
280
     0
102
RTVSPost2010PropOp36
 70
     0
102
RTVSPost2010Prop37
 90
       50
102
RTVSPost2010PropOp37
 70
     0
102
RTVSPost2010Prop38
140
0.0
102
RTVSPost2010PropOp38
 70
     0
102
RTVSPost2010Prop39
140
1.0
102
RTVSPost2010PropOp39
 70
     0
102
RTVSPost2010Prop40
 90
        0
102
RTVSPost2010PropOp40
 70
     0
102
RTVSPost2010Prop41ColorIndex
 90
       18
102
RTVSPost2010Prop41ColorRGB
 90
        0
102
RTVSPost2010PropOp41
 70
     0
102
RTVSPost2010Prop42
 90
       50
102
RTVSPost2010PropOp42
 70
     0
102
RTVSPost2010Prop43
 90
        3
102
RTVSPost2010PropOp43
 70
     0
102
RTVSPost2010Prop44ColorIndex
 90
        5
102
RTVSPost2010Prop44ColorRGB
 90
      255
102
RTVSPost2010PropOp44
 70
     0
102
RTVSPost2010Prop45
280
     0
102
RTVSPost2010PropOp45
 70
     0
102
RTVSPost2010Prop46
 90
       50
102
RTVSPost2010PropOp46
 70
     0
102
RTVSPost2010Prop47
 90
       50
102
RTVSPost2010PropOp47
 70
     0
102
RTVSPost2010Prop48
 90
       50
102
RTVSPost2010PropOp48
 70
     0
102
RTVSPost2010Prop49
280
     0
102
RTVSPost2010PropOp49
 70
     0
102
RTVSPost2010Prop50
 90
       50
102
RTVSPost2010PropOp50
 70
     0
102
RTVSPost2010Prop51ColorIndex
 90
      256
102
RTVSPost2010Prop51ColorRGB
 90
-16777216
102
RTVSPost2010PropOp51
 70
     0
102
RTVSPost2010Prop52
140
1.0
102
RTVSPost2010PropOp52
 70
     0
102
RTVSPost2010Prop53
 90
        2
102
RTVSPost2010PropOp53
 70
     0
102
RTVSPost2010Prop54
  1
strokes_ogs.tif
102
RTVSPost2010PropOp54
 70
     0
102
RTVSPost2010Prop55
280
     0
102
RTVSPost2010PropOp55
 70
     0
102
RTVSPost2010Prop56
140
1.0
102
RTVSPost2010PropOp56
 70
     0
102
RTVSPost2010Prop57
140
1.0
102
RTVSPost2010PropOp57
 70
     0
102
RTVSPropertyOp0
 70
     0
102
RTVSPropertyOp1
 70
     0
102
RTVSPropertyOp2
 70
     0
102
RTVSPropertyOp3
 70
     0
102
RTVSPropertyOp4
 70
     0
102
RTVSPropertyOp5
 70
     0
102
RTVSPropertyOp6
 70
     0
102
RTVSPropertyOp7
 70
     0
102
RTVSPropertyOp8
 70
     0
102
RTVSPropertyOp9
 70
     0
102
RTVSPropertyOp10
 70
     0
102
RTVSPropertyOp11
 70
     0
102
RTVSPropertyOp12
 70
     0
102
RTVSPropertyOp13
 70
     0
102
RTVSPropertyOp14
 70
     2
102
RTVSPropertyOp15
 70
     0
102
RTVSPropertyOp16
 70
     0
102
RTVSPropertyOp17
 70
     0
102
RTVSPropertyOp18
 70
     0
102
RTVSPropertyOp19
 70
     0
102
RTVSPropertyOp20
 70
     0
102
RTVSPropertyOp21
 70
     0
102
RTVSPropertyOp22
 70
     0
102
RTVSPropertyOp23
 70
     0
102
RTVSPropertyOp24
 70
     0
102
RTVSPropertyOp25
 70
     0
102
RTVSPropertyOp26
 70
     0
102
RTVSPropertyOp27
 70
     0
102
RTVSPropertyOp28
 70
     0
102
RTVSPropertyOp29
 70
     0
102
RTVSPropertyOp30
 70
     0
102
RTVSPropertyOp31
 70
     0
102
RTVSPropertyOp32
 70
     0
102
RTVSPropertyOp33
 70
     0
102
RTVSPropertyOp34
 70
     0
102
RTVSPropertyOp35
 70
     0
102
RTVSPropertyOp36
 70
     0
102
RTVSPropertyOp37
 70
     0
102
RTVSPropertyOp38
 70
     0
102
RTVSPropertyOp39
 70
     0
102
RTVSPropertyOp40
 70
     0
102
RTVSPropertyOp41
 70
     0
102
RTVSPropertyOp42
 70
     0
102
RTVSPropertyOp43
 70
     0
102
RTVSPropertyOp44
 70
     0
102
RTVSPropertyOp45
 70
     0
102
RTVSPropertyOp46
 70
     0
102
RTVSPropertyOp47
 70
     0
102
RTVSPropertyOp48
 70
     0
102
RTVSPropertyOp49
 70
     0
102
RTVSPropertyOp50
 70
     0
102
RTVSPropertyOp51
 70
     0
102
RTVSPropertyOp52
 70
     0
102
RTVSPropertyOp53
 70
     0
102
RTVSPropertyOp54
 70
     0
102
RTVSPropertyOp55
 70
     0
102
RTVSPropertyOp56
 70
     0
102
RTVSPropertyOp57
 70
     0
102
RTVSPropertyOp58
 70
     0
102
RTVSPropertyOp59
 70
     0
102
RTVSPropertyOp60
 70
     0
102
RTVSPropertyOp61
 70
     0
102
RTVSPropertyOp62
 70
     0
  0
XRECORD
  5
716
102
{ACAD_REACTORS
330
715
102
}
330
715
100
AcDbXrecord
280
     1
102
RTVSPost2010Prop28
280
     0
102
RTVSPost2010PropOp28
 70
     1
102
RTVSPost2010Prop29
280
     1
102
RTVSPost2010PropOp29
 70
     1
102
RTVSPost2010Prop30
280
     1
102
RTVSPost2010PropOp30
 70
     1
102
RTVSPost2010Prop31
280
     0
102
RTVSPost2010PropOp31
 70
     1
102
RTVSPost2010Prop32
280
     0
102
RTVSPost2010PropOp32
 70
     1
102
RTVSPost2010Prop33
280
     0
102
RTVSPost2010PropOp33
 70
     1
102
RTVSPost2010Prop34
280
     0
102
RTVSPost2010PropOp34
 70
     1
102
RTVSPost2010Prop35
280
     0
102
RTVSPost2010PropOp35
 70
     1
102
RTVSPost2010Prop36
280
     0
102
RTVSPost2010PropOp36
 70
     1
102
RTVSPost2010Prop37
 90
       50
102
RTVSPost2010PropOp37
 70
     1
102
RTVSPost2010Prop38
140
0.0
102
RTVSPost2010PropOp38
 70
     1
102
RTVSPost2010Prop39
140
1.0
102
RTVSPost2010PropOp39
 70
     1
102
RTVSPost2010Prop40
 90
        0
102
RTVSPost2010PropOp40
 70
     1
102
RTVSPost2010Prop41ColorIndex
 90
       18
102
RTVSPost2010Prop41ColorRGB
 90
        0
102
RTVSPost2010PropOp41
 70
     1
102
RTVSPost2010Prop42
 90
       50
102
RTVSPost2010PropOp42
 70
     1
102
RTVSPost2010Prop43
 90
        3
102
RTVSPost2010PropOp43
 70
     1
102
RTVSPost2010Prop44ColorIndex
 90
        5
102
RTVSPost2010Prop44ColorRGB
 90
      255
102
RTVSPost2010PropOp44
 70
     1
102
RTVSPost2010Prop45
280
     0
102
RTVSPost2010PropOp45
 70
     1
102
RTVSPost2010Prop46
 90
       50
102
RTVSPost2010PropOp46
 70
     1
102
RTVSPost2010Prop47
 90
       50
102
RTVSPost2010PropOp47
 70
     1
102
RTVSPost2010Prop48
 90
       50
102
RTVSPost2010PropOp48
 70
     1
102
RTVSPost2010Prop49
280
     0
102
RTVSPost2010PropOp49
 70
     1
102
RTVSPost2010Prop50
 90
       50
102
RTVSPost2010PropOp50
 70
     1
102
RTVSPost2010Prop51ColorIndex
 90
      256
102
RTVSPost2010Prop51ColorRGB
 90
-16777216
102
RTVSPost2010PropOp51
 70
     0
102
RTVSPost2010Prop52
140
1.0
102
RTVSPost2010PropOp52
 70
     0
102
RTVSPost2010Prop53
 90
        2
102
RTVSPost2010PropOp53
 70
     1
102
RTVSPost2010Prop54
  1
strokes_ogs.tif
102
RTVSPost2010PropOp54
 70
     1
102
RTVSPost2010Prop55
280
     0
102
RTVSPost2010PropOp55
 70
     1
102
RTVSPost2010Prop56
140
1.0
102
RTVSPost2010PropOp56
 70
     1
102
RTVSPost2010Prop57
140
1.0
102
RTVSPost2010PropOp57
 70
     1
102
RTVSPropertyOp0
 70
     1
102
RTVSPropertyOp1
 70
     1
102
RTVSPropertyOp2
 70
     1
102
RTVSPropertyOp3
 70
     1
102
RTVSPropertyOp4
 70
     1
102
RTVSPropertyOp5
 70
     1
102
RTVSPropertyOp6
 70
     1
102
RTVSPropertyOp7
 70
     1
102
RTVSPropertyOp8
 70
     1
102
RTVSPropertyOp9
 70
     1
102
RTVSPropertyOp10
 70
     1
102
RTVSPropertyOp11
 70
     1
102
RTVSPropertyOp12
 70
     1
102
RTVSPropertyOp13
 70
     1
102
RTVSPropertyOp14
 70
     1
102
RTVSPropertyOp15
 70
     1
102
RTVSPropertyOp16
 70
     1
102
RTVSPropertyOp17
 70
     1
102
RTVSPropertyOp18
 70
     1
102
RTVSPropertyOp19
 70
     1
102
RTVSPropertyOp20
 70
     1
102
RTVSPropertyOp21
 70
     1
102
RTVSPropertyOp22
 70
     1
102
RTVSPropertyOp23
 70
     1
102
RTVSPropertyOp24
 70
     1
102
RTVSPropertyOp25
 70
     1
102
RTVSPropertyOp26
 70
     1
102
RTVSPropertyOp27
 70
     1
102
RTVSPropertyOp28
 70
     1
102
RTVSPropertyOp29
 70
     1
102
RTVSPropertyOp30
 70
     1
102
RTVSPropertyOp31
 70
     1
102
RTVSPropertyOp32
 70
     1
102
RTVSPropertyOp33
 70
     1
102
RTVSPropertyOp34
 70
     1
102
RTVSPropertyOp35
 70
     1
102
RTVSPropertyOp36
 70
     1
102
RTVSPropertyOp37
 70
     1
102
RTVSPropertyOp38
 70
     1
102
RTVSPropertyOp39
 70
     1
102
RTVSPropertyOp40
 70
     1
102
RTVSPropertyOp41
 70
     1
102
RTVSPropertyOp42
 70
     1
102
RTVSPropertyOp43
 70
     1
102
RTVSPropertyOp44
 70
     1
102
RTVSPropertyOp45
 70
     1
102
RTVSPropertyOp46
 70
     1
102
RTVSPropertyOp47
 70
     1
102
RTVSPropertyOp48
 70
     1
102
RTVSPropertyOp49
 70
     1
102
RTVSPropertyOp50
 70
     1
102
RTVSPropertyOp51
 70
     0
102
RTVSPropertyOp52
 70
     0
102
RTVSPropertyOp53
 70
     1
102
RTVSPropertyOp54
 70
     1
102
RTVSPropertyOp55
 70
     1
102
RTVSPropertyOp56
 70
     1
102
RTVSPropertyOp57
 70
     1
102
RTVSPropertyOp58
 70
     1
102
RTVSPropertyOp59
 70
     1
102
RTVSPropertyOp60
 70
     1
102
RTVSPropertyOp61
 70
     1
102
RTVSPropertyOp62
 70
     1
  0
XRECORD
  5
6FA
102
{ACAD_REACTORS
330
6F9
102
}
330
6F9
100
AcDbXrecord
280
     1
102
RTVSPost2010Prop28
280
     0
102
RTVSPost2010PropOp28
 70
     1
102
RTVSPost2010Prop29
280
     1
102
RTVSPost2010PropOp29
 70
     1
102
RTVSPost2010Prop30
280
     1
102
RTVSPost2010PropOp30
 70
     1
102
RTVSPost2010Prop31
280
     0
102
RTVSPost2010PropOp31
 70
     1
102
RTVSPost2010Prop32
280
     0
102
RTVSPost2010PropOp32
 70
     1
102
RTVSPost2010Prop33
280
     0
102
RTVSPost2010PropOp33
 70
     1
102
RTVSPost2010Prop34
280
     0
102
RTVSPost2010PropOp34
 70
     1
102
RTVSPost2010Prop35
280
     0
102
RTVSPost2010PropOp35
 70
     1
102
RTVSPost2010Prop36
280
     0
102
RTVSPost2010PropOp36
 70
     1
102
RTVSPost2010Prop37
 90
       50
102
RTVSPost2010PropOp37
 70
     1
102
RTVSPost2010Prop38
140
0.0
102
RTVSPost2010PropOp38
 70
     1
102
RTVSPost2010Prop39
140
1.0
102
RTVSPost2010PropOp39
 70
     1
102
RTVSPost2010Prop40
 90
        0
102
RTVSPost2010PropOp40
 70
     1
102
RTVSPost2010Prop41ColorIndex
 90
       18
102
RTVSPost2010Prop41ColorRGB
 90
        0
102
RTVSPost2010PropOp41
 70
     1
102
RTVSPost2010Prop42
 90
       50
102
RTVSPost2010PropOp42
 70
     1
102
RTVSPost2010Prop43
 90
        3
102
RTVSPost2010PropOp43
 70
     1
102
RTVSPost2010Prop44ColorIndex
 90
        5
102
RTVSPost2010Prop44ColorRGB
 90
      255
102
RTVSPost2010PropOp44
 70
     1
102
RTVSPost2010Prop45
280
     0
102
RTVSPost2010PropOp45
 70
     1
102
RTVSPost2010Prop46
 90
       50
102
RTVSPost2010PropOp46
 70
     1
102
RTVSPost2010Prop47
 90
       50
102
RTVSPost2010PropOp47
 70
     1
102
RTVSPost2010Prop48
 90
       50
102
RTVSPost2010PropOp48
 70
     1
102
RTVSPost2010Prop49
280
     0
102
RTVSPost2010PropOp49
 70
     1
102
RTVSPost2010Prop50
 90
       50
102
RTVSPost2010PropOp50
 70
     1
102
RTVSPost2010Prop51ColorIndex
 90
      256
102
RTVSPost2010Prop51ColorRGB
 90
-16777216
102
RTVSPost2010PropOp51
 70
     0
102
RTVSPost2010Prop52
140
1.0
102
RTVSPost2010PropOp52
 70
     0
102
RTVSPost2010Prop53
 90
        2
102
RTVSPost2010PropOp53
 70
     1
102
RTVSPost2010Prop54
  1
strokes_ogs.tif
102
RTVSPost2010PropOp54
 70
     1
102
RTVSPost2010Prop55
280
     0
102
RTVSPost2010PropOp55
 70
     1
102
RTVSPost2010Prop56
140
1.0
102
RTVSPost2010PropOp56
 70
     1
102
RTVSPost2010Prop57
140
1.0
102
RTVSPost2010PropOp57
 70
     1
102
RTVSPropertyOp0
 70
     1
102
RTVSPropertyOp1
 70
     1
102
RTVSPropertyOp2
 70
     1
102
RTVSPropertyOp3
 70
     1
102
RTVSPropertyOp4
 70
     1
102
RTVSPropertyOp5
 70
     1
102
RTVSPropertyOp6
 70
     1
102
RTVSPropertyOp7
 70
     1
102
RTVSPropertyOp8
 70
     1
102
RTVSPropertyOp9
 70
     1
102
RTVSPropertyOp10
 70
     1
102
RTVSPropertyOp11
 70
     1
102
RTVSPropertyOp12
 70
     1
102
RTVSPropertyOp13
 70
     1
102
RTVSPropertyOp14
 70
     1
102
RTVSPropertyOp15
 70
     1
102
RTVSPropertyOp16
 70
     1
102
RTVSPropertyOp17
 70
     1
102
RTVSPropertyOp18
 70
     1
102
RTVSPropertyOp19
 70
     1
102
RTVSPropertyOp20
 70
     1
102
RTVSPropertyOp21
 70
     1
102
RTVSPropertyOp22
 70
     1
102
RTVSPropertyOp23
 70
     1
102
RTVSPropertyOp24
 70
     1
102
RTVSPropertyOp25
 70
     1
102
RTVSPropertyOp26
 70
     1
102
RTVSPropertyOp27
 70
     1
102
RTVSPropertyOp28
 70
     1
102
RTVSPropertyOp29
 70
     1
102
RTVSPropertyOp30
 70
     1
102
RTVSPropertyOp31
 70
     1
102
RTVSPropertyOp32
 70
     1
102
RTVSPropertyOp33
 70
     1
102
RTVSPropertyOp34
 70
     1
102
RTVSPropertyOp35
 70
     1
102
RTVSPropertyOp36
 70
     1
102
RTVSPropertyOp37
 70
     1
102
RTVSPropertyOp38
 70
     1
102
RTVSPropertyOp39
 70
     1
102
RTVSPropertyOp40
 70
     1
102
RTVSPropertyOp41
 70
     1
102
RTVSPropertyOp42
 70
     1
102
RTVSPropertyOp43
 70
     1
102
RTVSPropertyOp44
 70
     1
102
RTVSPropertyOp45
 70
     1
102
RTVSPropertyOp46
 70
     1
102
RTVSPropertyOp47
 70
     1
102
RTVSPropertyOp48
 70
     1
102
RTVSPropertyOp49
 70
     1
102
RTVSPropertyOp50
 70
     1
102
RTVSPropertyOp51
 70
     0
102
RTVSPropertyOp52
 70
     0
102
RTVSPropertyOp53
 70
     1
102
RTVSPropertyOp54
 70
     1
102
RTVSPropertyOp55
 70
     1
102
RTVSPropertyOp56
 70
     1
102
RTVSPropertyOp57
 70
     1
102
RTVSPropertyOp58
 70
     1
102
RTVSPropertyOp59
 70
     1
102
RTVSPropertyOp60
 70
     1
102
RTVSPropertyOp61
 70
     1
102
RTVSPropertyOp62
 70
     1
  0
XRECORD
  5
6FC
102
{ACAD_REACTORS
330
6FB
102
}
330
6FB
100
AcDbXrecord
280
     1
102
RTVSPost2010Prop28
280
     0
102
RTVSPost2010PropOp28
 70
     1
102
RTVSPost2010Prop29
280
     1
102
RTVSPost2010PropOp29
 70
     1
102
RTVSPost2010Prop30
280
     1
102
RTVSPost2010PropOp30
 70
     1
102
RTVSPost2010Prop31
280
     0
102
RTVSPost2010PropOp31
 70
     1
102
RTVSPost2010Prop32
280
     0
102
RTVSPost2010PropOp32
 70
     1
102
RTVSPost2010Prop33
280
     0
102
RTVSPost2010PropOp33
 70
     1
102
RTVSPost2010Prop34
280
     0
102
RTVSPost2010PropOp34
 70
     1
102
RTVSPost2010Prop35
280
     0
102
RTVSPost2010PropOp35
 70
     1
102
RTVSPost2010Prop36
280
     0
102
RTVSPost2010PropOp36
 70
     1
102
RTVSPost2010Prop37
 90
       50
102
RTVSPost2010PropOp37
 70
     1
102
RTVSPost2010Prop38
140
0.0
102
RTVSPost2010PropOp38
 70
     1
102
RTVSPost2010Prop39
140
1.0
102
RTVSPost2010PropOp39
 70
     1
102
RTVSPost2010Prop40
 90
        0
102
RTVSPost2010PropOp40
 70
     1
102
RTVSPost2010Prop41ColorIndex
 90
       18
102
RTVSPost2010Prop41ColorRGB
 90
        0
102
RTVSPost2010PropOp41
 70
     1
102
RTVSPost2010Prop42
 90
       50
102
RTVSPost2010PropOp42
 70
     1
102
RTVSPost2010Prop43
 90
        3
102
RTVSPost2010PropOp43
 70
     1
102
RTVSPost2010Prop44ColorIndex
 90
        5
102
RTVSPost2010Prop44ColorRGB
 90
      255
102
RTVSPost2010PropOp44
 70
     1
102
RTVSPost2010Prop45
280
     0
102
RTVSPost2010PropOp45
 70
     1
102
RTVSPost2010Prop46
 90
       50
102
RTVSPost2010PropOp46
 70
     1
102
RTVSPost2010Prop47
 90
       50
102
RTVSPost2010PropOp47
 70
     1
102
RTVSPost2010Prop48
 90
       50
102
RTVSPost2010PropOp48
 70
     1
102
RTVSPost2010Prop49
280
     0
102
RTVSPost2010PropOp49
 70
     1
102
RTVSPost2010Prop50
 90
       50
102
RTVSPost2010PropOp50
 70
     1
102
RTVSPost2010Prop51ColorIndex
 90
      256
102
RTVSPost2010Prop51ColorRGB
 90
-16777216
102
RTVSPost2010PropOp51
 70
     0
102
RTVSPost2010Prop52
140
1.0
102
RTVSPost2010PropOp52
 70
     0
102
RTVSPost2010Prop53
 90
        2
102
RTVSPost2010PropOp53
 70
     1
102
RTVSPost2010Prop54
  1
strokes_ogs.tif
102
RTVSPost2010PropOp54
 70
     1
102
RTVSPost2010Prop55
280
     0
102
RTVSPost2010PropOp55
 70
     1
102
RTVSPost2010Prop56
140
1.0
102
RTVSPost2010PropOp56
 70
     1
102
RTVSPost2010Prop57
140
1.0
102
RTVSPost2010PropOp57
 70
     1
102
RTVSPropertyOp0
 70
     1
102
RTVSPropertyOp1
 70
     1
102
RTVSPropertyOp2
 70
     1
102
RTVSPropertyOp3
 70
     1
102
RTVSPropertyOp4
 70
     1
102
RTVSPropertyOp5
 70
     1
102
RTVSPropertyOp6
 70
     1
102
RTVSPropertyOp7
 70
     1
102
RTVSPropertyOp8
 70
     1
102
RTVSPropertyOp9
 70
     1
102
RTVSPropertyOp10
 70
     1
102
RTVSPropertyOp11
 70
     1
102
RTVSPropertyOp12
 70
     1
102
RTVSPropertyOp13
 70
     1
102
RTVSPropertyOp14
 70
     1
102
RTVSPropertyOp15
 70
     1
102
RTVSPropertyOp16
 70
     1
102
RTVSPropertyOp17
 70
     1
102
RTVSPropertyOp18
 70
     1
102
RTVSPropertyOp19
 70
     1
102
RTVSPropertyOp20
 70
     1
102
RTVSPropertyOp21
 70
     1
102
RTVSPropertyOp22
 70
     1
102
RTVSPropertyOp23
 70
     1
102
RTVSPropertyOp24
 70
     1
102
RTVSPropertyOp25
 70
     1
102
RTVSPropertyOp26
 70
     1
102
RTVSPropertyOp27
 70
     1
102
RTVSPropertyOp28
 70
     1
102
RTVSPropertyOp29
 70
     1
102
RTVSPropertyOp30
 70
     1
102
RTVSPropertyOp31
 70
     1
102
RTVSPropertyOp32
 70
     1
102
RTVSPropertyOp33
 70
     1
102
RTVSPropertyOp34
 70
     1
102
RTVSPropertyOp35
 70
     1
102
RTVSPropertyOp36
 70
     1
102
RTVSPropertyOp37
 70
     1
102
RTVSPropertyOp38
 70
     1
102
RTVSPropertyOp39
 70
     1
102
RTVSPropertyOp40
 70
     1
102
RTVSPropertyOp41
 70
     1
102
RTVSPropertyOp42
 70
     1
102
RTVSPropertyOp43
 70
     1
102
RTVSPropertyOp44
 70
     1
102
RTVSPropertyOp45
 70
     1
102
RTVSPropertyOp46
 70
     1
102
RTVSPropertyOp47
 70
     1
102
RTVSPropertyOp48
 70
     1
102
RTVSPropertyOp49
 70
     1
102
RTVSPropertyOp50
 70
     1
102
RTVSPropertyOp51
 70
     0
102
RTVSPropertyOp52
 70
     0
102
RTVSPropertyOp53
 70
     1
102
RTVSPropertyOp54
 70
     1
102
RTVSPropertyOp55
 70
     1
102
RTVSPropertyOp56
 70
     1
102
RTVSPropertyOp57
 70
     1
102
RTVSPropertyOp58
 70
     1
102
RTVSPropertyOp59
 70
     1
102
RTVSPropertyOp60
 70
     1
102
RTVSPropertyOp61
 70
     1
102
RTVSPropertyOp62
 70
     1
  0
XRECORD
  5
6FE
102
{ACAD_REACTORS
330
6FD
102
}
330
6FD
100
AcDbXrecord
280
     1
102
RTVSPost2010Prop28
280
     0
102
RTVSPost2010PropOp28
 70
     1
102
RTVSPost2010Prop29
280
     1
102
RTVSPost2010PropOp29
 70
     1
102
RTVSPost2010Prop30
280
     1
102
RTVSPost2010PropOp30
 70
     1
102
RTVSPost2010Prop31
280
     0
102
RTVSPost2010PropOp31
 70
     1
102
RTVSPost2010Prop32
280
     0
102
RTVSPost2010PropOp32
 70
     1
102
RTVSPost2010Prop33
280
     0
102
RTVSPost2010PropOp33
 70
     1
102
RTVSPost2010Prop34
280
     0
102
RTVSPost2010PropOp34
 70
     1
102
RTVSPost2010Prop35
280
     0
102
RTVSPost2010PropOp35
 70
     1
102
RTVSPost2010Prop36
280
     0
102
RTVSPost2010PropOp36
 70
     1
102
RTVSPost2010Prop37
 90
       50
102
RTVSPost2010PropOp37
 70
     1
102
RTVSPost2010Prop38
140
0.0
102
RTVSPost2010PropOp38
 70
     1
102
RTVSPost2010Prop39
140
1.0
102
RTVSPost2010PropOp39
 70
     1
102
RTVSPost2010Prop40
 90
        0
102
RTVSPost2010PropOp40
 70
     1
102
RTVSPost2010Prop41ColorIndex
 90
       18
102
RTVSPost2010Prop41ColorRGB
 90
        0
102
RTVSPost2010PropOp41
 70
     1
102
RTVSPost2010Prop42
 90
       50
102
RTVSPost2010PropOp42
 70
     1
102
RTVSPost2010Prop43
 90
        3
102
RTVSPost2010PropOp43
 70
     1
102
RTVSPost2010Prop44ColorIndex
 90
        5
102
RTVSPost2010Prop44ColorRGB
 90
      255
102
RTVSPost2010PropOp44
 70
     1
102
RTVSPost2010Prop45
280
     0
102
RTVSPost2010PropOp45
 70
     1
102
RTVSPost2010Prop46
 90
       50
102
RTVSPost2010PropOp46
 70
     1
102
RTVSPost2010Prop47
 90
       50
102
RTVSPost2010PropOp47
 70
     1
102
RTVSPost2010Prop48
 90
       50
102
RTVSPost2010PropOp48
 70
     1
102
RTVSPost2010Prop49
280
     0
102
RTVSPost2010PropOp49
 70
     1
102
RTVSPost2010Prop50
 90
       50
102
RTVSPost2010PropOp50
 70
     1
102
RTVSPost2010Prop51ColorIndex
 90
      256
102
RTVSPost2010Prop51ColorRGB
 90
-16777216
102
RTVSPost2010PropOp51
 70
     0
102
RTVSPost2010Prop52
140
1.0
102
RTVSPost2010PropOp52
 70
     0
102
RTVSPost2010Prop53
 90
        2
102
RTVSPost2010PropOp53
 70
     1
102
RTVSPost2010Prop54
  1
strokes_ogs.tif
102
RTVSPost2010PropOp54
 70
     1
102
RTVSPost2010Prop55
280
     0
102
RTVSPost2010PropOp55
 70
     1
102
RTVSPost2010Prop56
140
1.0
102
RTVSPost2010PropOp56
 70
     1
102
RTVSPost2010Prop57
140
1.0
102
RTVSPost2010PropOp57
 70
     1
102
RTVSPropertyOp0
 70
     1
102
RTVSPropertyOp1
 70
     1
102
RTVSPropertyOp2
 70
     1
102
RTVSPropertyOp3
 70
     1
102
RTVSPropertyOp4
 70
     1
102
RTVSPropertyOp5
 70
     1
102
RTVSPropertyOp6
 70
     1
102
RTVSPropertyOp7
 70
     1
102
RTVSPropertyOp8
 70
     1
102
RTVSPropertyOp9
 70
     1
102
RTVSPropertyOp10
 70
     1
102
RTVSPropertyOp11
 70
     1
102
RTVSPropertyOp12
 70
     1
102
RTVSPropertyOp13
 70
     1
102
RTVSPropertyOp14
 70
     1
102
RTVSPropertyOp15
 70
     1
102
RTVSPropertyOp16
 70
     1
102
RTVSPropertyOp17
 70
     1
102
RTVSPropertyOp18
 70
     1
102
RTVSPropertyOp19
 70
     1
102
RTVSPropertyOp20
 70
     1
102
RTVSPropertyOp21
 70
     1
102
RTVSPropertyOp22
 70
     1
102
RTVSPropertyOp23
 70
     1
102
RTVSPropertyOp24
 70
     1
102
RTVSPropertyOp25
 70
     1
102
RTVSPropertyOp26
 70
     1
102
RTVSPropertyOp27
 70
     1
102
RTVSPropertyOp28
 70
     1
102
RTVSPropertyOp29
 70
     1
102
RTVSPropertyOp30
 70
     1
102
RTVSPropertyOp31
 70
     1
102
RTVSPropertyOp32
 70
     1
102
RTVSPropertyOp33
 70
     1
102
RTVSPropertyOp34
 70
     1
102
RTVSPropertyOp35
 70
     1
102
RTVSPropertyOp36
 70
     1
102
RTVSPropertyOp37
 70
     1
102
RTVSPropertyOp38
 70
     1
102
RTVSPropertyOp39
 70
     1
102
RTVSPropertyOp40
 70
     1
102
RTVSPropertyOp41
 70
     1
102
RTVSPropertyOp42
 70
     1
102
RTVSPropertyOp43
 70
     1
102
RTVSPropertyOp44
 70
     1
102
RTVSPropertyOp45
 70
     1
102
RTVSPropertyOp46
 70
     1
102
RTVSPropertyOp47
 70
     1
102
RTVSPropertyOp48
 70
     1
102
RTVSPropertyOp49
 70
     1
102
RTVSPropertyOp50
 70
     1
102
RTVSPropertyOp51
 70
     0
102
RTVSPropertyOp52
 70
     0
102
RTVSPropertyOp53
 70
     1
102
RTVSPropertyOp54
 70
     1
102
RTVSPropertyOp55
 70
     1
102
RTVSPropertyOp56
 70
     1
102
RTVSPropertyOp57
 70
     1
102
RTVSPropertyOp58
 70
     1
102
RTVSPropertyOp59
 70
     1
102
RTVSPropertyOp60
 70
     1
102
RTVSPropertyOp61
 70
     1
102
RTVSPropertyOp62
 70
     1
  0
XRECORD
  5
700
102
{ACAD_REACTORS
330
6FF
102
}
330
6FF
100
AcDbXrecord
280
     1
102
RTVSPost2010Prop28
280
     0
102
RTVSPost2010PropOp28
 70
     1
102
RTVSPost2010Prop29
280
     1
102
RTVSPost2010PropOp29
 70
     1
102
RTVSPost2010Prop30
280
     1
102
RTVSPost2010PropOp30
 70
     1
102
RTVSPost2010Prop31
280
     0
102
RTVSPost2010PropOp31
 70
     1
102
RTVSPost2010Prop32
280
     0
102
RTVSPost2010PropOp32
 70
     1
102
RTVSPost2010Prop33
280
     0
102
RTVSPost2010PropOp33
 70
     1
102
RTVSPost2010Prop34
280
     0
102
RTVSPost2010PropOp34
 70
     1
102
RTVSPost2010Prop35
280
     0
102
RTVSPost2010PropOp35
 70
     1
102
RTVSPost2010Prop36
280
     0
102
RTVSPost2010PropOp36
 70
     1
102
RTVSPost2010Prop37
 90
       50
102
RTVSPost2010PropOp37
 70
     1
102
RTVSPost2010Prop38
140
0.0
102
RTVSPost2010PropOp38
 70
     1
102
RTVSPost2010Prop39
140
1.0
102
RTVSPost2010PropOp39
 70
     1
102
RTVSPost2010Prop40
 90
        0
102
RTVSPost2010PropOp40
 70
     1
102
RTVSPost2010Prop41ColorIndex
 90
       18
102
RTVSPost2010Prop41ColorRGB
 90
        0
102
RTVSPost2010PropOp41
 70
     1
102
RTVSPost2010Prop42
 90
       50
102
RTVSPost2010PropOp42
 70
     1
102
RTVSPost2010Prop43
 90
        3
102
RTVSPost2010PropOp43
 70
     1
102
RTVSPost2010Prop44ColorIndex
 90
        5
102
RTVSPost2010Prop44ColorRGB
 90
      255
102
RTVSPost2010PropOp44
 70
     1
102
RTVSPost2010Prop45
280
     0
102
RTVSPost2010PropOp45
 70
     1
102
RTVSPost2010Prop46
 90
       50
102
RTVSPost2010PropOp46
 70
     1
102
RTVSPost2010Prop47
 90
       50
102
RTVSPost2010PropOp47
 70
     1
102
RTVSPost2010Prop48
 90
       50
102
RTVSPost2010PropOp48
 70
     1
102
RTVSPost2010Prop49
280
     0
102
RTVSPost2010PropOp49
 70
     1
102
RTVSPost2010Prop50
 90
       50
102
RTVSPost2010PropOp50
 70
     1
102
RTVSPost2010Prop51ColorIndex
 90
      256
102
RTVSPost2010Prop51ColorRGB
 90
-16777216
102
RTVSPost2010PropOp51
 70
     0
102
RTVSPost2010Prop52
140
1.0
102
RTVSPost2010PropOp52
 70
     0
102
RTVSPost2010Prop53
 90
        2
102
RTVSPost2010PropOp53
 70
     1
102
RTVSPost2010Prop54
  1
strokes_ogs.tif
102
RTVSPost2010PropOp54
 70
     1
102
RTVSPost2010Prop55
280
     0
102
RTVSPost2010PropOp55
 70
     1
102
RTVSPost2010Prop56
140
1.0
102
RTVSPost2010PropOp56
 70
     1
102
RTVSPost2010Prop57
140
1.0
102
RTVSPost2010PropOp57
 70
     1
102
RTVSPropertyOp0
 70
     1
102
RTVSPropertyOp1
 70
     1
102
RTVSPropertyOp2
 70
     1
102
RTVSPropertyOp3
 70
     1
102
RTVSPropertyOp4
 70
     1
102
RTVSPropertyOp5
 70
     1
102
RTVSPropertyOp6
 70
     1
102
RTVSPropertyOp7
 70
     1
102
RTVSPropertyOp8
 70
     1
102
RTVSPropertyOp9
 70
     1
102
RTVSPropertyOp10
 70
     1
102
RTVSPropertyOp11
 70
     1
102
RTVSPropertyOp12
 70
     1
102
RTVSPropertyOp13
 70
     1
102
RTVSPropertyOp14
 70
     1
102
RTVSPropertyOp15
 70
     1
102
RTVSPropertyOp16
 70
     1
102
RTVSPropertyOp17
 70
     1
102
RTVSPropertyOp18
 70
     1
102
RTVSPropertyOp19
 70
     1
102
RTVSPropertyOp20
 70
     1
102
RTVSPropertyOp21
 70
     1
102
RTVSPropertyOp22
 70
     1
102
RTVSPropertyOp23
 70
     1
102
RTVSPropertyOp24
 70
     1
102
RTVSPropertyOp25
 70
     1
102
RTVSPropertyOp26
 70
     1
102
RTVSPropertyOp27
 70
     1
102
RTVSPropertyOp28
 70
     1
102
RTVSPropertyOp29
 70
     1
102
RTVSPropertyOp30
 70
     1
102
RTVSPropertyOp31
 70
     1
102
RTVSPropertyOp32
 70
     1
102
RTVSPropertyOp33
 70
     1
102
RTVSPropertyOp34
 70
     1
102
RTVSPropertyOp35
 70
     1
102
RTVSPropertyOp36
 70
     1
102
RTVSPropertyOp37
 70
     1
102
RTVSPropertyOp38
 70
     1
102
RTVSPropertyOp39
 70
     1
102
RTVSPropertyOp40
 70
     1
102
RTVSPropertyOp41
 70
     1
102
RTVSPropertyOp42
 70
     1
102
RTVSPropertyOp43
 70
     1
102
RTVSPropertyOp44
 70
     1
102
RTVSPropertyOp45
 70
     1
102
RTVSPropertyOp46
 70
     1
102
RTVSPropertyOp47
 70
     1
102
RTVSPropertyOp48
 70
     1
102
RTVSPropertyOp49
 70
     1
102
RTVSPropertyOp50
 70
     1
102
RTVSPropertyOp51
 70
     0
102
RTVSPropertyOp52
 70
     0
102
RTVSPropertyOp53
 70
     1
102
RTVSPropertyOp54
 70
     1
102
RTVSPropertyOp55
 70
     1
102
RTVSPropertyOp56
 70
     1
102
RTVSPropertyOp57
 70
     1
102
RTVSPropertyOp58
 70
     1
102
RTVSPropertyOp59
 70
     1
102
RTVSPropertyOp60
 70
     1
102
RTVSPropertyOp61
 70
     1
102
RTVSPropertyOp62
 70
     1
  0
XRECORD
  5
708
102
{ACAD_REACTORS
330
707
102
}
330
707
100
AcDbXrecord
280
     1
102
RTVSPost2010Prop28
280
     0
102
RTVSPost2010PropOp28
 70
     1
102
RTVSPost2010Prop29
280
     1
102
RTVSPost2010PropOp29
 70
     1
102
RTVSPost2010Prop30
280
     1
102
RTVSPost2010PropOp30
 70
     1
102
RTVSPost2010Prop31
280
     0
102
RTVSPost2010PropOp31
 70
     1
102
RTVSPost2010Prop32
280
     0
102
RTVSPost2010PropOp32
 70
     1
102
RTVSPost2010Prop33
280
     0
102
RTVSPost2010PropOp33
 70
     1
102
RTVSPost2010Prop34
280
     0
102
RTVSPost2010PropOp34
 70
     1
102
RTVSPost2010Prop35
280
     0
102
RTVSPost2010PropOp35
 70
     1
102
RTVSPost2010Prop36
280
     0
102
RTVSPost2010PropOp36
 70
     1
102
RTVSPost2010Prop37
 90
       50
102
RTVSPost2010PropOp37
 70
     1
102
RTVSPost2010Prop38
140
0.0
102
RTVSPost2010PropOp38
 70
     1
102
RTVSPost2010Prop39
140
1.0
102
RTVSPost2010PropOp39
 70
     1
102
RTVSPost2010Prop40
 90
        0
102
RTVSPost2010PropOp40
 70
     1
102
RTVSPost2010Prop41ColorIndex
 90
       18
102
RTVSPost2010Prop41ColorRGB
 90
        0
102
RTVSPost2010PropOp41
 70
     1
102
RTVSPost2010Prop42
 90
       50
102
RTVSPost2010PropOp42
 70
     1
102
RTVSPost2010Prop43
 90
        3
102
RTVSPost2010PropOp43
 70
     1
102
RTVSPost2010Prop44ColorIndex
 90
        5
102
RTVSPost2010Prop44ColorRGB
 90
      255
102
RTVSPost2010PropOp44
 70
     1
102
RTVSPost2010Prop45
280
     0
102
RTVSPost2010PropOp45
 70
     1
102
RTVSPost2010Prop46
 90
       50
102
RTVSPost2010PropOp46
 70
     1
102
RTVSPost2010Prop47
 90
       50
102
RTVSPost2010PropOp47
 70
     1
102
RTVSPost2010Prop48
 90
       50
102
RTVSPost2010PropOp48
 70
     1
102
RTVSPost2010Prop49
280
     0
102
RTVSPost2010PropOp49
 70
     1
102
RTVSPost2010Prop50
 90
       50
102
RTVSPost2010PropOp50
 70
     1
102
RTVSPost2010Prop51ColorIndex
 90
      256
102
RTVSPost2010Prop51ColorRGB
 90
-16777216
102
RTVSPost2010PropOp51
 70
     0
102
RTVSPost2010Prop52
140
1.0
102
RTVSPost2010PropOp52
 70
     0
102
RTVSPost2010Prop53
 90
        2
102
RTVSPost2010PropOp53
 70
     1
102
RTVSPost2010Prop54
  1
strokes_ogs.tif
102
RTVSPost2010PropOp54
 70
     1
102
RTVSPost2010Prop55
280
     0
102
RTVSPost2010PropOp55
 70
     1
102
RTVSPost2010Prop56
140
1.0
102
RTVSPost2010PropOp56
 70
     1
102
RTVSPost2010Prop57
140
1.0
102
RTVSPost2010PropOp57
 70
     1
102
RTVSPropertyOp0
 70
     1
102
RTVSPropertyOp1
 70
     1
102
RTVSPropertyOp2
 70
     1
102
RTVSPropertyOp3
 70
     1
102
RTVSPropertyOp4
 70
     1
102
RTVSPropertyOp5
 70
     1
102
RTVSPropertyOp6
 70
     1
102
RTVSPropertyOp7
 70
     1
102
RTVSPropertyOp8
 70
     1
102
RTVSPropertyOp9
 70
     1
102
RTVSPropertyOp10
 70
     1
102
RTVSPropertyOp11
 70
     1
102
RTVSPropertyOp12
 70
     1
102
RTVSPropertyOp13
 70
     1
102
RTVSPropertyOp14
 70
     1
102
RTVSPropertyOp15
 70
     1
102
RTVSPropertyOp16
 70
     1
102
RTVSPropertyOp17
 70
     1
102
RTVSPropertyOp18
 70
     1
102
RTVSPropertyOp19
 70
     1
102
RTVSPropertyOp20
 70
     1
102
RTVSPropertyOp21
 70
     1
102
RTVSPropertyOp22
 70
     1
102
RTVSPropertyOp23
 70
     1
102
RTVSPropertyOp24
 70
     1
102
RTVSPropertyOp25
 70
     1
102
RTVSPropertyOp26
 70
     1
102
RTVSPropertyOp27
 70
     1
102
RTVSPropertyOp28
 70
     1
102
RTVSPropertyOp29
 70
     1
102
RTVSPropertyOp30
 70
     1
102
RTVSPropertyOp31
 70
     1
102
RTVSPropertyOp32
 70
     1
102
RTVSPropertyOp33
 70
     1
102
RTVSPropertyOp34
 70
     1
102
RTVSPropertyOp35
 70
     1
102
RTVSPropertyOp36
 70
     1
102
RTVSPropertyOp37
 70
     1
102
RTVSPropertyOp38
 70
     1
102
RTVSPropertyOp39
 70
     1
102
RTVSPropertyOp40
 70
     1
102
RTVSPropertyOp41
 70
     1
102
RTVSPropertyOp42
 70
     1
102
RTVSPropertyOp43
 70
     1
102
RTVSPropertyOp44
 70
     1
102
RTVSPropertyOp45
 70
     1
102
RTVSPropertyOp46
 70
     1
102
RTVSPropertyOp47
 70
     1
102
RTVSPropertyOp48
 70
     1
102
RTVSPropertyOp49
 70
     1
102
RTVSPropertyOp50
 70
     1
102
RTVSPropertyOp51
 70
     0
102
RTVSPropertyOp52
 70
     0
102
RTVSPropertyOp53
 70
     1
102
RTVSPropertyOp54
 70
     1
102
RTVSPropertyOp55
 70
     1
102
RTVSPropertyOp56
 70
     1
102
RTVSPropertyOp57
 70
     1
102
RTVSPropertyOp58
 70
     1
102
RTVSPropertyOp59
 70
     1
102
RTVSPropertyOp60
 70
     1
102
RTVSPropertyOp61
 70
     1
102
RTVSPropertyOp62
 70
     1
  0
XRECORD
  5
724
102
{ACAD_REACTORS
330
723
102
}
330
723
100
AcDbXrecord
280
     1
102
RTVSPost2010Prop28
280
     0
102
RTVSPost2010PropOp28
 70
     0
102
RTVSPost2010Prop29
280
     1
102
RTVSPost2010PropOp29
 70
     0
102
RTVSPost2010Prop30
280
     1
102
RTVSPost2010PropOp30
 70
     0
102
RTVSPost2010Prop31
280
     0
102
RTVSPost2010PropOp31
 70
     0
102
RTVSPost2010Prop32
280
     0
102
RTVSPost2010PropOp32
 70
     0
102
RTVSPost2010Prop33
280
     0
102
RTVSPost2010PropOp33
 70
     0
102
RTVSPost2010Prop34
280
     0
102
RTVSPost2010PropOp34
 70
     0
102
RTVSPost2010Prop35
280
     0
102
RTVSPost2010PropOp35
 70
     0
102
RTVSPost2010Prop36
280
     0
102
RTVSPost2010PropOp36
 70
     0
102
RTVSPost2010Prop37
 90
       50
102
RTVSPost2010PropOp37
 70
     0
102
RTVSPost2010Prop38
140
0.0
102
RTVSPost2010PropOp38
 70
     0
102
RTVSPost2010Prop39
140
1.0
102
RTVSPost2010PropOp39
 70
     0
102
RTVSPost2010Prop40
 90
        0
102
RTVSPost2010PropOp40
 70
     0
102
RTVSPost2010Prop41ColorIndex
 90
       18
102
RTVSPost2010Prop41ColorRGB
 90
        0
102
RTVSPost2010PropOp41
 70
     0
102
RTVSPost2010Prop42
 90
       50
102
RTVSPost2010PropOp42
 70
     0
102
RTVSPost2010Prop43
 90
        3
102
RTVSPost2010PropOp43
 70
     0
102
RTVSPost2010Prop44ColorIndex
 90
        5
102
RTVSPost2010Prop44ColorRGB
 90
      255
102
RTVSPost2010PropOp44
 70
     0
102
RTVSPost2010Prop45
280
     0
102
RTVSPost2010PropOp45
 70
     0
102
RTVSPost2010Prop46
 90
       50
102
RTVSPost2010PropOp46
 70
     0
102
RTVSPost2010Prop47
 90
       50
102
RTVSPost2010PropOp47
 70
     0
102
RTVSPost2010Prop48
 90
       50
102
RTVSPost2010PropOp48
 70
     0
102
RTVSPost2010Prop49
280
     0
102
RTVSPost2010PropOp49
 70
     0
102
RTVSPost2010Prop50
 90
       50
102
RTVSPost2010PropOp50
 70
     0
102
RTVSPost2010Prop51ColorIndex
 90
      256
102
RTVSPost2010Prop51ColorRGB
 90
-16777216
102
RTVSPost2010PropOp51
 70
     0
102
RTVSPost2010Prop52
140
1.0
102
RTVSPost2010PropOp52
 70
     0
102
RTVSPost2010Prop53
 90
        2
102
RTVSPost2010PropOp53
 70
     0
102
RTVSPost2010Prop54
  1
strokes_ogs.tif
102
RTVSPost2010PropOp54
 70
     0
102
RTVSPost2010Prop55
280
     0
102
RTVSPost2010PropOp55
 70
     0
102
RTVSPost2010Prop56
140
1.0
102
RTVSPost2010PropOp56
 70
     0
102
RTVSPost2010Prop57
140
1.0
102
RTVSPost2010PropOp57
 70
     0
102
RTVSPropertyOp0
 70
     0
102
RTVSPropertyOp1
 70
     0
102
RTVSPropertyOp2
 70
     0
102
RTVSPropertyOp3
 70
     0
102
RTVSPropertyOp4
 70
     0
102
RTVSPropertyOp5
 70
     0
102
RTVSPropertyOp6
 70
     0
102
RTVSPropertyOp7
 70
     0
102
RTVSPropertyOp8
 70
     0
102
RTVSPropertyOp9
 70
     0
102
RTVSPropertyOp10
 70
     0
102
RTVSPropertyOp11
 70
     0
102
RTVSPropertyOp12
 70
     0
102
RTVSPropertyOp13
 70
     0
102
RTVSPropertyOp14
 70
     2
102
RTVSPropertyOp15
 70
     0
102
RTVSPropertyOp16
 70
     0
102
RTVSPropertyOp17
 70
     0
102
RTVSPropertyOp18
 70
     0
102
RTVSPropertyOp19
 70
     0
102
RTVSPropertyOp20
 70
     0
102
RTVSPropertyOp21
 70
     0
102
RTVSPropertyOp22
 70
     0
102
RTVSPropertyOp23
 70
     0
102
RTVSPropertyOp24
 70
     0
102
RTVSPropertyOp25
 70
     0
102
RTVSPropertyOp26
 70
     0
102
RTVSPropertyOp27
 70
     0
102
RTVSPropertyOp28
 70
     0
102
RTVSPropertyOp29
 70
     0
102
RTVSPropertyOp30
 70
     0
102
RTVSPropertyOp31
 70
     0
102
RTVSPropertyOp32
 70
     0
102
RTVSPropertyOp33
 70
     0
102
RTVSPropertyOp34
 70
     0
102
RTVSPropertyOp35
 70
     0
102
RTVSPropertyOp36
 70
     0
102
RTVSPropertyOp37
 70
     0
102
RTVSPropertyOp38
 70
     0
102
RTVSPropertyOp39
 70
     0
102
RTVSPropertyOp40
 70
     0
102
RTVSPropertyOp41
 70
     0
102
RTVSPropertyOp42
 70
     0
102
RTVSPropertyOp43
 70
     0
102
RTVSPropertyOp44
 70
     0
102
RTVSPropertyOp45
 70
     0
102
RTVSPropertyOp46
 70
     0
102
RTVSPropertyOp47
 70
     0
102
RTVSPropertyOp48
 70
     0
102
RTVSPropertyOp49
 70
     0
102
RTVSPropertyOp50
 70
     0
102
RTVSPropertyOp51
 70
     0
102
RTVSPropertyOp52
 70
     0
102
RTVSPropertyOp53
 70
     0
102
RTVSPropertyOp54
 70
     0
102
RTVSPropertyOp55
 70
     0
102
RTVSPropertyOp56
 70
     0
102
RTVSPropertyOp57
 70
     0
102
RTVSPropertyOp58
 70
     0
102
RTVSPropertyOp59
 70
     0
102
RTVSPropertyOp60
 70
     0
102
RTVSPropertyOp61
 70
     0
102
RTVSPropertyOp62
 70
     0
  0
XRECORD
  5
714
102
{ACAD_REACTORS
330
713
102
}
330
713
100
AcDbXrecord
280
     1
102
RTVSPost2010Prop28
280
     0
102
RTVSPost2010PropOp28
 70
     1
102
RTVSPost2010Prop29
280
     1
102
RTVSPost2010PropOp29
 70
     1
102
RTVSPost2010Prop30
280
     1
102
RTVSPost2010PropOp30
 70
     1
102
RTVSPost2010Prop31
280
     0
102
RTVSPost2010PropOp31
 70
     1
102
RTVSPost2010Prop32
280
     0
102
RTVSPost2010PropOp32
 70
     1
102
RTVSPost2010Prop33
280
     0
102
RTVSPost2010PropOp33
 70
     1
102
RTVSPost2010Prop34
280
     0
102
RTVSPost2010PropOp34
 70
     1
102
RTVSPost2010Prop35
280
     0
102
RTVSPost2010PropOp35
 70
     1
102
RTVSPost2010Prop36
280
     0
102
RTVSPost2010PropOp36
 70
     1
102
RTVSPost2010Prop37
 90
       50
102
RTVSPost2010PropOp37
 70
     1
102
RTVSPost2010Prop38
140
0.0
102
RTVSPost2010PropOp38
 70
     1
102
RTVSPost2010Prop39
140
1.0
102
RTVSPost2010PropOp39
 70
     1
102
RTVSPost2010Prop40
 90
        0
102
RTVSPost2010PropOp40
 70
     1
102
RTVSPost2010Prop41ColorIndex
 90
       18
102
RTVSPost2010Prop41ColorRGB
 90
        0
102
RTVSPost2010PropOp41
 70
     1
102
RTVSPost2010Prop42
 90
       50
102
RTVSPost2010PropOp42
 70
     1
102
RTVSPost2010Prop43
 90
        3
102
RTVSPost2010PropOp43
 70
     1
102
RTVSPost2010Prop44ColorIndex
 90
        5
102
RTVSPost2010Prop44ColorRGB
 90
      255
102
RTVSPost2010PropOp44
 70
     1
102
RTVSPost2010Prop45
280
     0
102
RTVSPost2010PropOp45
 70
     1
102
RTVSPost2010Prop46
 90
       50
102
RTVSPost2010PropOp46
 70
     1
102
RTVSPost2010Prop47
 90
       50
102
RTVSPost2010PropOp47
 70
     1
102
RTVSPost2010Prop48
 90
       50
102
RTVSPost2010PropOp48
 70
     1
102
RTVSPost2010Prop49
280
     0
102
RTVSPost2010PropOp49
 70
     1
102
RTVSPost2010Prop50
 90
       50
102
RTVSPost2010PropOp50
 70
     1
102
RTVSPost2010Prop51ColorIndex
 90
      256
102
RTVSPost2010Prop51ColorRGB
 90
-16777216
102
RTVSPost2010PropOp51
 70
     0
102
RTVSPost2010Prop52
140
1.0
102
RTVSPost2010PropOp52
 70
     0
102
RTVSPost2010Prop53
 90
        2
102
RTVSPost2010PropOp53
 70
     1
102
RTVSPost2010Prop54
  1
strokes_ogs.tif
102
RTVSPost2010PropOp54
 70
     1
102
RTVSPost2010Prop55
280
     0
102
RTVSPost2010PropOp55
 70
     1
102
RTVSPost2010Prop56
140
1.0
102
RTVSPost2010PropOp56
 70
     1
102
RTVSPost2010Prop57
140
1.0
102
RTVSPost2010PropOp57
 70
     1
102
RTVSPropertyOp0
 70
     1
102
RTVSPropertyOp1
 70
     1
102
RTVSPropertyOp2
 70
     1
102
RTVSPropertyOp3
 70
     1
102
RTVSPropertyOp4
 70
     1
102
RTVSPropertyOp5
 70
     1
102
RTVSPropertyOp6
 70
     1
102
RTVSPropertyOp7
 70
     1
102
RTVSPropertyOp8
 70
     1
102
RTVSPropertyOp9
 70
     1
102
RTVSPropertyOp10
 70
     1
102
RTVSPropertyOp11
 70
     1
102
RTVSPropertyOp12
 70
     1
102
RTVSPropertyOp13
 70
     1
102
RTVSPropertyOp14
 70
     1
102
RTVSPropertyOp15
 70
     1
102
RTVSPropertyOp16
 70
     1
102
RTVSPropertyOp17
 70
     1
102
RTVSPropertyOp18
 70
     1
102
RTVSPropertyOp19
 70
     1
102
RTVSPropertyOp20
 70
     1
102
RTVSPropertyOp21
 70
     1
102
RTVSPropertyOp22
 70
     1
102
RTVSPropertyOp23
 70
     1
102
RTVSPropertyOp24
 70
     1
102
RTVSPropertyOp25
 70
     1
102
RTVSPropertyOp26
 70
     1
102
RTVSPropertyOp27
 70
     1
102
RTVSPropertyOp28
 70
     1
102
RTVSPropertyOp29
 70
     1
102
RTVSPropertyOp30
 70
     1
102
RTVSPropertyOp31
 70
     1
102
RTVSPropertyOp32
 70
     1
102
RTVSPropertyOp33
 70
     1
102
RTVSPropertyOp34
 70
     1
102
RTVSPropertyOp35
 70
     1
102
RTVSPropertyOp36
 70
     1
102
RTVSPropertyOp37
 70
     1
102
RTVSPropertyOp38
 70
     1
102
RTVSPropertyOp39
 70
     1
102
RTVSPropertyOp40
 70
     1
102
RTVSPropertyOp41
 70
     1
102
RTVSPropertyOp42
 70
     1
102
RTVSPropertyOp43
 70
     1
102
RTVSPropertyOp44
 70
     1
102
RTVSPropertyOp45
 70
     1
102
RTVSPropertyOp46
 70
     1
102
RTVSPropertyOp47
 70
     1
102
RTVSPropertyOp48
 70
     1
102
RTVSPropertyOp49
 70
     1
102
RTVSPropertyOp50
 70
     1
102
RTVSPropertyOp51
 70
     0
102
RTVSPropertyOp52
 70
     0
102
RTVSPropertyOp53
 70
     1
102
RTVSPropertyOp54
 70
     1
102
RTVSPropertyOp55
 70
     1
102
RTVSPropertyOp56
 70
     1
102
RTVSPropertyOp57
 70
     1
102
RTVSPropertyOp58
 70
     1
102
RTVSPropertyOp59
 70
     1
102
RTVSPropertyOp60
 70
     1
102
RTVSPropertyOp61
 70
     1
102
RTVSPropertyOp62
 70
     1
  0
XRECORD
  5
726
102
{ACAD_REACTORS
330
725
102
}
330
725
100
AcDbXrecord
280
     1
102
RTVSPost2010Prop28
280
     0
102
RTVSPost2010PropOp28
 70
     0
102
RTVSPost2010Prop29
280
     1
102
RTVSPost2010PropOp29
 70
     0
102
RTVSPost2010Prop30
280
     1
102
RTVSPost2010PropOp30
 70
     0
102
RTVSPost2010Prop31
280
     0
102
RTVSPost2010PropOp31
 70
     0
102
RTVSPost2010Prop32
280
     0
102
RTVSPost2010PropOp32
 70
     0
102
RTVSPost2010Prop33
280
     0
102
RTVSPost2010PropOp33
 70
     0
102
RTVSPost2010Prop34
280
     0
102
RTVSPost2010PropOp34
 70
     0
102
RTVSPost2010Prop35
280
     0
102
RTVSPost2010PropOp35
 70
     0
102
RTVSPost2010Prop36
280
     0
102
RTVSPost2010PropOp36
 70
     0
102
RTVSPost2010Prop37
 90
       50
102
RTVSPost2010PropOp37
 70
     0
102
RTVSPost2010Prop38
140
0.0
102
RTVSPost2010PropOp38
 70
     0
102
RTVSPost2010Prop39
140
1.0
102
RTVSPost2010PropOp39
 70
     0
102
RTVSPost2010Prop40
 90
        0
102
RTVSPost2010PropOp40
 70
     0
102
RTVSPost2010Prop41ColorIndex
 90
       18
102
RTVSPost2010Prop41ColorRGB
 90
        0
102
RTVSPost2010PropOp41
 70
     0
102
RTVSPost2010Prop42
 90
       50
102
RTVSPost2010PropOp42
 70
     0
102
RTVSPost2010Prop43
 90
        3
102
RTVSPost2010PropOp43
 70
     0
102
RTVSPost2010Prop44ColorIndex
 90
        5
102
RTVSPost2010Prop44ColorRGB
 90
      255
102
RTVSPost2010PropOp44
 70
     0
102
RTVSPost2010Prop45
280
     0
102
RTVSPost2010PropOp45
 70
     0
102
RTVSPost2010Prop46
 90
       50
102
RTVSPost2010PropOp46
 70
     0
102
RTVSPost2010Prop47
 90
       50
102
RTVSPost2010PropOp47
 70
     0
102
RTVSPost2010Prop48
 90
       50
102
RTVSPost2010PropOp48
 70
     0
102
RTVSPost2010Prop49
280
     0
102
RTVSPost2010PropOp49
 70
     0
102
RTVSPost2010Prop50
 90
       50
102
RTVSPost2010PropOp50
 70
     0
102
RTVSPost2010Prop51ColorIndex
 90
      256
102
RTVSPost2010Prop51ColorRGB
 90
-16777216
102
RTVSPost2010PropOp51
 70
     0
102
RTVSPost2010Prop52
140
1.0
102
RTVSPost2010PropOp52
 70
     0
102
RTVSPost2010Prop53
 90
        2
102
RTVSPost2010PropOp53
 70
     0
102
RTVSPost2010Prop54
  1
strokes_ogs.tif
102
RTVSPost2010PropOp54
 70
     0
102
RTVSPost2010Prop55
280
     0
102
RTVSPost2010PropOp55
 70
     0
102
RTVSPost2010Prop56
140
1.0
102
RTVSPost2010PropOp56
 70
     0
102
RTVSPost2010Prop57
140
1.0
102
RTVSPost2010PropOp57
 70
     0
102
RTVSPropertyOp0
 70
     0
102
RTVSPropertyOp1
 70
     0
102
RTVSPropertyOp2
 70
     0
102
RTVSPropertyOp3
 70
     0
102
RTVSPropertyOp4
 70
     0
102
RTVSPropertyOp5
 70
     0
102
RTVSPropertyOp6
 70
     0
102
RTVSPropertyOp7
 70
     0
102
RTVSPropertyOp8
 70
     0
102
RTVSPropertyOp9
 70
     0
102
RTVSPropertyOp10
 70
     0
102
RTVSPropertyOp11
 70
     0
102
RTVSPropertyOp12
 70
     0
102
RTVSPropertyOp13
 70
     0
102
RTVSPropertyOp14
 70
     2
102
RTVSPropertyOp15
 70
     0
102
RTVSPropertyOp16
 70
     0
102
RTVSPropertyOp17
 70
     0
102
RTVSPropertyOp18
 70
     0
102
RTVSPropertyOp19
 70
     0
102
RTVSPropertyOp20
 70
     0
102
RTVSPropertyOp21
 70
     0
102
RTVSPropertyOp22
 70
     0
102
RTVSPropertyOp23
 70
     0
102
RTVSPropertyOp24
 70
     0
102
RTVSPropertyOp25
 70
     0
102
RTVSPropertyOp26
 70
     0
102
RTVSPropertyOp27
 70
     0
102
RTVSPropertyOp28
 70
     0
102
RTVSPropertyOp29
 70
     0
102
RTVSPropertyOp30
 70
     0
102
RTVSPropertyOp31
 70
     0
102
RTVSPropertyOp32
 70
     0
102
RTVSPropertyOp33
 70
     0
102
RTVSPropertyOp34
 70
     0
102
RTVSPropertyOp35
 70
     0
102
RTVSPropertyOp36
 70
     0
102
RTVSPropertyOp37
 70
     0
102
RTVSPropertyOp38
 70
     0
102
RTVSPropertyOp39
 70
     0
102
RTVSPropertyOp40
 70
     0
102
RTVSPropertyOp41
 70
     0
102
RTVSPropertyOp42
 70
     0
102
RTVSPropertyOp43
 70
     0
102
RTVSPropertyOp44
 70
     0
102
RTVSPropertyOp45
 70
     0
102
RTVSPropertyOp46
 70
     0
102
RTVSPropertyOp47
 70
     0
102
RTVSPropertyOp48
 70
     0
102
RTVSPropertyOp49
 70
     0
102
RTVSPropertyOp50
 70
     0
102
RTVSPropertyOp51
 70
     0
102
RTVSPropertyOp52
 70
     0
102
RTVSPropertyOp53
 70
     0
102
RTVSPropertyOp54
 70
     0
102
RTVSPropertyOp55
 70
     0
102
RTVSPropertyOp56
 70
     0
102
RTVSPropertyOp57
 70
     0
102
RTVSPropertyOp58
 70
     0
102
RTVSPropertyOp59
 70
     0
102
RTVSPropertyOp60
 70
     0
102
RTVSPropertyOp61
 70
     0
102
RTVSPropertyOp62
 70
     0
  0
XRECORD
  5
70C
102
{ACAD_REACTORS
330
70B
102
}
330
70B
100
AcDbXrecord
280
     1
102
RTVSPost2010Prop28
280
     0
102
RTVSPost2010PropOp28
 70
     1
102
RTVSPost2010Prop29
280
     1
102
RTVSPost2010PropOp29
 70
     1
102
RTVSPost2010Prop30
280
     1
102
RTVSPost2010PropOp30
 70
     1
102
RTVSPost2010Prop31
280
     0
102
RTVSPost2010PropOp31
 70
     1
102
RTVSPost2010Prop32
280
     0
102
RTVSPost2010PropOp32
 70
     1
102
RTVSPost2010Prop33
280
     0
102
RTVSPost2010PropOp33
 70
     1
102
RTVSPost2010Prop34
280
     0
102
RTVSPost2010PropOp34
 70
     1
102
RTVSPost2010Prop35
280
     0
102
RTVSPost2010PropOp35
 70
     1
102
RTVSPost2010Prop36
280
     0
102
RTVSPost2010PropOp36
 70
     1
102
RTVSPost2010Prop37
 90
       50
102
RTVSPost2010PropOp37
 70
     1
102
RTVSPost2010Prop38
140
0.0
102
RTVSPost2010PropOp38
 70
     1
102
RTVSPost2010Prop39
140
1.0
102
RTVSPost2010PropOp39
 70
     1
102
RTVSPost2010Prop40
 90
        0
102
RTVSPost2010PropOp40
 70
     1
102
RTVSPost2010Prop41ColorIndex
 90
       18
102
RTVSPost2010Prop41ColorRGB
 90
        0
102
RTVSPost2010PropOp41
 70
     1
102
RTVSPost2010Prop42
 90
       50
102
RTVSPost2010PropOp42
 70
     1
102
RTVSPost2010Prop43
 90
        3
102
RTVSPost2010PropOp43
 70
     1
102
RTVSPost2010Prop44ColorIndex
 90
        5
102
RTVSPost2010Prop44ColorRGB
 90
      255
102
RTVSPost2010PropOp44
 70
     1
102
RTVSPost2010Prop45
280
     0
102
RTVSPost2010PropOp45
 70
     1
102
RTVSPost2010Prop46
 90
       50
102
RTVSPost2010PropOp46
 70
     1
102
RTVSPost2010Prop47
 90
       50
102
RTVSPost2010PropOp47
 70
     1
102
RTVSPost2010Prop48
 90
       50
102
RTVSPost2010PropOp48
 70
     1
102
RTVSPost2010Prop49
280
     0
102
RTVSPost2010PropOp49
 70
     1
102
RTVSPost2010Prop50
 90
       50
102
RTVSPost2010PropOp50
 70
     1
102
RTVSPost2010Prop51ColorIndex
 90
      256
102
RTVSPost2010Prop51ColorRGB
 90
-16777216
102
RTVSPost2010PropOp51
 70
     0
102
RTVSPost2010Prop52
140
1.0
102
RTVSPost2010PropOp52
 70
     0
102
RTVSPost2010Prop53
 90
        2
102
RTVSPost2010PropOp53
 70
     1
102
RTVSPost2010Prop54
  1
strokes_ogs.tif
102
RTVSPost2010PropOp54
 70
     1
102
RTVSPost2010Prop55
280
     0
102
RTVSPost2010PropOp55
 70
     1
102
RTVSPost2010Prop56
140
1.0
102
RTVSPost2010PropOp56
 70
     1
102
RTVSPost2010Prop57
140
1.0
102
RTVSPost2010PropOp57
 70
     1
102
RTVSPropertyOp0
 70
     1
102
RTVSPropertyOp1
 70
     1
102
RTVSPropertyOp2
 70
     1
102
RTVSPropertyOp3
 70
     1
102
RTVSPropertyOp4
 70
     1
102
RTVSPropertyOp5
 70
     1
102
RTVSPropertyOp6
 70
     1
102
RTVSPropertyOp7
 70
     1
102
RTVSPropertyOp8
 70
     1
102
RTVSPropertyOp9
 70
     1
102
RTVSPropertyOp10
 70
     1
102
RTVSPropertyOp11
 70
     1
102
RTVSPropertyOp12
 70
     1
102
RTVSPropertyOp13
 70
     1
102
RTVSPropertyOp14
 70
     1
102
RTVSPropertyOp15
 70
     1
102
RTVSPropertyOp16
 70
     1
102
RTVSPropertyOp17
 70
     1
102
RTVSPropertyOp18
 70
     1
102
RTVSPropertyOp19
 70
     1
102
RTVSPropertyOp20
 70
     1
102
RTVSPropertyOp21
 70
     1
102
RTVSPropertyOp22
 70
     1
102
RTVSPropertyOp23
 70
     1
102
RTVSPropertyOp24
 70
     1
102
RTVSPropertyOp25
 70
     1
102
RTVSPropertyOp26
 70
     1
102
RTVSPropertyOp27
 70
     1
102
RTVSPropertyOp28
 70
     1
102
RTVSPropertyOp29
 70
     1
102
RTVSPropertyOp30
 70
     1
102
RTVSPropertyOp31
 70
     1
102
RTVSPropertyOp32
 70
     1
102
RTVSPropertyOp33
 70
     1
102
RTVSPropertyOp34
 70
     1
102
RTVSPropertyOp35
 70
     1
102
RTVSPropertyOp36
 70
     1
102
RTVSPropertyOp37
 70
     1
102
RTVSPropertyOp38
 70
     1
102
RTVSPropertyOp39
 70
     1
102
RTVSPropertyOp40
 70
     1
102
RTVSPropertyOp41
 70
     1
102
RTVSPropertyOp42
 70
     1
102
RTVSPropertyOp43
 70
     1
102
RTVSPropertyOp44
 70
     1
102
RTVSPropertyOp45
 70
     1
102
RTVSPropertyOp46
 70
     1
102
RTVSPropertyOp47
 70
     1
102
RTVSPropertyOp48
 70
     1
102
RTVSPropertyOp49
 70
     1
102
RTVSPropertyOp50
 70
     1
102
RTVSPropertyOp51
 70
     0
102
RTVSPropertyOp52
 70
     0
102
RTVSPropertyOp53
 70
     1
102
RTVSPropertyOp54
 70
     1
102
RTVSPropertyOp55
 70
     1
102
RTVSPropertyOp56
 70
     1
102
RTVSPropertyOp57
 70
     1
102
RTVSPropertyOp58
 70
     1
102
RTVSPropertyOp59
 70
     1
102
RTVSPropertyOp60
 70
     1
102
RTVSPropertyOp61
 70
     1
102
RTVSPropertyOp62
 70
     1
  0
XRECORD
  5
722
102
{ACAD_REACTORS
330
721
102
}
330
721
100
AcDbXrecord
280
     1
102
RTVSPost2010Prop28
280
     0
102
RTVSPost2010PropOp28
 70
     1
102
RTVSPost2010Prop29
280
     1
102
RTVSPost2010PropOp29
 70
     1
102
RTVSPost2010Prop30
280
     1
102
RTVSPost2010PropOp30
 70
     1
102
RTVSPost2010Prop31
280
     0
102
RTVSPost2010PropOp31
 70
     1
102
RTVSPost2010Prop32
280
     0
102
RTVSPost2010PropOp32
 70
     1
102
RTVSPost2010Prop33
280
     0
102
RTVSPost2010PropOp33
 70
     1
102
RTVSPost2010Prop34
280
     0
102
RTVSPost2010PropOp34
 70
     1
102
RTVSPost2010Prop35
280
     0
102
RTVSPost2010PropOp35
 70
     1
102
RTVSPost2010Prop36
280
     0
102
RTVSPost2010PropOp36
 70
     1
102
RTVSPost2010Prop37
 90
       50
102
RTVSPost2010PropOp37
 70
     1
102
RTVSPost2010Prop38
140
0.0
102
RTVSPost2010PropOp38
 70
     1
102
RTVSPost2010Prop39
140
1.0
102
RTVSPost2010PropOp39
 70
     1
102
RTVSPost2010Prop40
 90
        0
102
RTVSPost2010PropOp40
 70
     1
102
RTVSPost2010Prop41ColorIndex
 90
       18
102
RTVSPost2010Prop41ColorRGB
 90
        0
102
RTVSPost2010PropOp41
 70
     1
102
RTVSPost2010Prop42
 90
       50
102
RTVSPost2010PropOp42
 70
     1
102
RTVSPost2010Prop43
 90
        3
102
RTVSPost2010PropOp43
 70
     1
102
RTVSPost2010Prop44ColorIndex
 90
        5
102
RTVSPost2010Prop44ColorRGB
 90
      255
102
RTVSPost2010PropOp44
 70
     1
102
RTVSPost2010Prop45
280
     0
102
RTVSPost2010PropOp45
 70
     1
102
RTVSPost2010Prop46
 90
       50
102
RTVSPost2010PropOp46
 70
     1
102
RTVSPost2010Prop47
 90
       50
102
RTVSPost2010PropOp47
 70
     1
102
RTVSPost2010Prop48
 90
       50
102
RTVSPost2010PropOp48
 70
     1
102
RTVSPost2010Prop49
280
     0
102
RTVSPost2010PropOp49
 70
     1
102
RTVSPost2010Prop50
 90
       50
102
RTVSPost2010PropOp50
 70
     1
102
RTVSPost2010Prop51ColorIndex
 90
      256
102
RTVSPost2010Prop51ColorRGB
 90
-16777216
102
RTVSPost2010PropOp51
 70
     0
102
RTVSPost2010Prop52
140
1.0
102
RTVSPost2010PropOp52
 70
     0
102
RTVSPost2010Prop53
 90
        2
102
RTVSPost2010PropOp53
 70
     1
102
RTVSPost2010Prop54
  1
strokes_ogs.tif
102
RTVSPost2010PropOp54
 70
     1
102
RTVSPost2010Prop55
280
     0
102
RTVSPost2010PropOp55
 70
     1
102
RTVSPost2010Prop56
140
1.0
102
RTVSPost2010PropOp56
 70
     1
102
RTVSPost2010Prop57
140
1.0
102
RTVSPost2010PropOp57
 70
     1
102
RTVSPropertyOp0
 70
     1
102
RTVSPropertyOp1
 70
     1
102
RTVSPropertyOp2
 70
     1
102
RTVSPropertyOp3
 70
     1
102
RTVSPropertyOp4
 70
     1
102
RTVSPropertyOp5
 70
     1
102
RTVSPropertyOp6
 70
     1
102
RTVSPropertyOp7
 70
     1
102
RTVSPropertyOp8
 70
     1
102
RTVSPropertyOp9
 70
     1
102
RTVSPropertyOp10
 70
     1
102
RTVSPropertyOp11
 70
     1
102
RTVSPropertyOp12
 70
     1
102
RTVSPropertyOp13
 70
     1
102
RTVSPropertyOp14
 70
     1
102
RTVSPropertyOp15
 70
     1
102
RTVSPropertyOp16
 70
     1
102
RTVSPropertyOp17
 70
     1
102
RTVSPropertyOp18
 70
     1
102
RTVSPropertyOp19
 70
     1
102
RTVSPropertyOp20
 70
     1
102
RTVSPropertyOp21
 70
     1
102
RTVSPropertyOp22
 70
     1
102
RTVSPropertyOp23
 70
     1
102
RTVSPropertyOp24
 70
     1
102
RTVSPropertyOp25
 70
     1
102
RTVSPropertyOp26
 70
     1
102
RTVSPropertyOp27
 70
     1
102
RTVSPropertyOp28
 70
     1
102
RTVSPropertyOp29
 70
     1
102
RTVSPropertyOp30
 70
     1
102
RTVSPropertyOp31
 70
     1
102
RTVSPropertyOp32
 70
     1
102
RTVSPropertyOp33
 70
     1
102
RTVSPropertyOp34
 70
     1
102
RTVSPropertyOp35
 70
     1
102
RTVSPropertyOp36
 70
     1
102
RTVSPropertyOp37
 70
     1
102
RTVSPropertyOp38
 70
     1
102
RTVSPropertyOp39
 70
     1
102
RTVSPropertyOp40
 70
     1
102
RTVSPropertyOp41
 70
     1
102
RTVSPropertyOp42
 70
     1
102
RTVSPropertyOp43
 70
     1
102
RTVSPropertyOp44
 70
     1
102
RTVSPropertyOp45
 70
     1
102
RTVSPropertyOp46
 70
     1
102
RTVSPropertyOp47
 70
     1
102
RTVSPropertyOp48
 70
     1
102
RTVSPropertyOp49
 70
     1
102
RTVSPropertyOp50
 70
     1
102
RTVSPropertyOp51
 70
     0
102
RTVSPropertyOp52
 70
     0
102
RTVSPropertyOp53
 70
     1
102
RTVSPropertyOp54
 70
     1
102
RTVSPropertyOp55
 70
     1
102
RTVSPropertyOp56
 70
     1
102
RTVSPropertyOp57
 70
     1
102
RTVSPropertyOp58
 70
     1
102
RTVSPropertyOp59
 70
     1
102
RTVSPropertyOp60
 70
     1
102
RTVSPropertyOp61
 70
     1
102
RTVSPropertyOp62
 70
     1
  0
XRECORD
  5
720
102
{ACAD_REACTORS
330
71F
102
}
330
71F
100
AcDbXrecord
280
     1
102
RTVSPost2010Prop28
280
     0
102
RTVSPost2010PropOp28
 70
     1
102
RTVSPost2010Prop29
280
     1
102
RTVSPost2010PropOp29
 70
     1
102
RTVSPost2010Prop30
280
     1
102
RTVSPost2010PropOp30
 70
     1
102
RTVSPost2010Prop31
280
     0
102
RTVSPost2010PropOp31
 70
     1
102
RTVSPost2010Prop32
280
     0
102
RTVSPost2010PropOp32
 70
     1
102
RTVSPost2010Prop33
280
     0
102
RTVSPost2010PropOp33
 70
     1
102
RTVSPost2010Prop34
280
     0
102
RTVSPost2010PropOp34
 70
     1
102
RTVSPost2010Prop35
280
     0
102
RTVSPost2010PropOp35
 70
     1
102
RTVSPost2010Prop36
280
     0
102
RTVSPost2010PropOp36
 70
     1
102
RTVSPost2010Prop37
 90
       50
102
RTVSPost2010PropOp37
 70
     1
102
RTVSPost2010Prop38
140
0.0
102
RTVSPost2010PropOp38
 70
     1
102
RTVSPost2010Prop39
140
1.0
102
RTVSPost2010PropOp39
 70
     1
102
RTVSPost2010Prop40
 90
        0
102
RTVSPost2010PropOp40
 70
     1
102
RTVSPost2010Prop41ColorIndex
 90
       18
102
RTVSPost2010Prop41ColorRGB
 90
        0
102
RTVSPost2010PropOp41
 70
     1
102
RTVSPost2010Prop42
 90
       50
102
RTVSPost2010PropOp42
 70
     1
102
RTVSPost2010Prop43
 90
        3
102
RTVSPost2010PropOp43
 70
     1
102
RTVSPost2010Prop44ColorIndex
 90
        5
102
RTVSPost2010Prop44ColorRGB
 90
      255
102
RTVSPost2010PropOp44
 70
     1
102
RTVSPost2010Prop45
280
     0
102
RTVSPost2010PropOp45
 70
     1
102
RTVSPost2010Prop46
 90
       50
102
RTVSPost2010PropOp46
 70
     1
102
RTVSPost2010Prop47
 90
       50
102
RTVSPost2010PropOp47
 70
     1
102
RTVSPost2010Prop48
 90
       50
102
RTVSPost2010PropOp48
 70
     1
102
RTVSPost2010Prop49
280
     0
102
RTVSPost2010PropOp49
 70
     1
102
RTVSPost2010Prop50
 90
       50
102
RTVSPost2010PropOp50
 70
     1
102
RTVSPost2010Prop51ColorIndex
 90
      256
102
RTVSPost2010Prop51ColorRGB
 90
-16777216
102
RTVSPost2010PropOp51
 70
     0
102
RTVSPost2010Prop52
140
1.0
102
RTVSPost2010PropOp52
 70
     0
102
RTVSPost2010Prop53
 90
        2
102
RTVSPost2010PropOp53
 70
     1
102
RTVSPost2010Prop54
  1
strokes_ogs.tif
102
RTVSPost2010PropOp54
 70
     1
102
RTVSPost2010Prop55
280
     0
102
RTVSPost2010PropOp55
 70
     1
102
RTVSPost2010Prop56
140
1.0
102
RTVSPost2010PropOp56
 70
     1
102
RTVSPost2010Prop57
140
1.0
102
RTVSPost2010PropOp57
 70
     1
102
RTVSPropertyOp0
 70
     1
102
RTVSPropertyOp1
 70
     1
102
RTVSPropertyOp2
 70
     1
102
RTVSPropertyOp3
 70
     1
102
RTVSPropertyOp4
 70
     1
102
RTVSPropertyOp5
 70
     1
102
RTVSPropertyOp6
 70
     1
102
RTVSPropertyOp7
 70
     1
102
RTVSPropertyOp8
 70
     1
102
RTVSPropertyOp9
 70
     1
102
RTVSPropertyOp10
 70
     1
102
RTVSPropertyOp11
 70
     1
102
RTVSPropertyOp12
 70
     1
102
RTVSPropertyOp13
 70
     1
102
RTVSPropertyOp14
 70
     1
102
RTVSPropertyOp15
 70
     1
102
RTVSPropertyOp16
 70
     1
102
RTVSPropertyOp17
 70
     1
102
RTVSPropertyOp18
 70
     1
102
RTVSPropertyOp19
 70
     1
102
RTVSPropertyOp20
 70
     1
102
RTVSPropertyOp21
 70
     1
102
RTVSPropertyOp22
 70
     1
102
RTVSPropertyOp23
 70
     1
102
RTVSPropertyOp24
 70
     1
102
RTVSPropertyOp25
 70
     1
102
RTVSPropertyOp26
 70
     1
102
RTVSPropertyOp27
 70
     1
102
RTVSPropertyOp28
 70
     1
102
RTVSPropertyOp29
 70
     1
102
RTVSPropertyOp30
 70
     1
102
RTVSPropertyOp31
 70
     1
102
RTVSPropertyOp32
 70
     1
102
RTVSPropertyOp33
 70
     1
102
RTVSPropertyOp34
 70
     1
102
RTVSPropertyOp35
 70
     1
102
RTVSPropertyOp36
 70
     1
102
RTVSPropertyOp37
 70
     1
102
RTVSPropertyOp38
 70
     1
102
RTVSPropertyOp39
 70
     1
102
RTVSPropertyOp40
 70
     1
102
RTVSPropertyOp41
 70
     1
102
RTVSPropertyOp42
 70
     1
102
RTVSPropertyOp43
 70
     1
102
RTVSPropertyOp44
 70
     1
102
RTVSPropertyOp45
 70
     1
102
RTVSPropertyOp46
 70
     1
102
RTVSPropertyOp47
 70
     1
102
RTVSPropertyOp48
 70
     1
102
RTVSPropertyOp49
 70
     1
102
RTVSPropertyOp50
 70
     1
102
RTVSPropertyOp51
 70
     0
102
RTVSPropertyOp52
 70
     0
102
RTVSPropertyOp53
 70
     1
102
RTVSPropertyOp54
 70
     1
102
RTVSPropertyOp55
 70
     1
102
RTVSPropertyOp56
 70
     1
102
RTVSPropertyOp57
 70
     1
102
RTVSPropertyOp58
 70
     1
102
RTVSPropertyOp59
 70
     1
102
RTVSPropertyOp60
 70
     1
102
RTVSPropertyOp61
 70
     1
102
RTVSPropertyOp62
 70
     1
  0
XRECORD
  5
71A
102
{ACAD_REACTORS
330
719
102
}
330
719
100
AcDbXrecord
280
     1
102
RTVSPost2010Prop28
280
     0
102
RTVSPost2010PropOp28
 70
     1
102
RTVSPost2010Prop29
280
     1
102
RTVSPost2010PropOp29
 70
     1
102
RTVSPost2010Prop30
280
     1
102
RTVSPost2010PropOp30
 70
     1
102
RTVSPost2010Prop31
280
     0
102
RTVSPost2010PropOp31
 70
     1
102
RTVSPost2010Prop32
280
     0
102
RTVSPost2010PropOp32
 70
     1
102
RTVSPost2010Prop33
280
     0
102
RTVSPost2010PropOp33
 70
     1
102
RTVSPost2010Prop34
280
     0
102
RTVSPost2010PropOp34
 70
     1
102
RTVSPost2010Prop35
280
     0
102
RTVSPost2010PropOp35
 70
     1
102
RTVSPost2010Prop36
280
     0
102
RTVSPost2010PropOp36
 70
     1
102
RTVSPost2010Prop37
 90
       50
102
RTVSPost2010PropOp37
 70
     1
102
RTVSPost2010Prop38
140
0.0
102
RTVSPost2010PropOp38
 70
     1
102
RTVSPost2010Prop39
140
1.0
102
RTVSPost2010PropOp39
 70
     1
102
RTVSPost2010Prop40
 90
        0
102
RTVSPost2010PropOp40
 70
     1
102
RTVSPost2010Prop41ColorIndex
 90
       18
102
RTVSPost2010Prop41ColorRGB
 90
        0
102
RTVSPost2010PropOp41
 70
     1
102
RTVSPost2010Prop42
 90
       50
102
RTVSPost2010PropOp42
 70
     1
102
RTVSPost2010Prop43
 90
        3
102
RTVSPost2010PropOp43
 70
     1
102
RTVSPost2010Prop44ColorIndex
 90
        5
102
RTVSPost2010Prop44ColorRGB
 90
      255
102
RTVSPost2010PropOp44
 70
     1
102
RTVSPost2010Prop45
280
     0
102
RTVSPost2010PropOp45
 70
     1
102
RTVSPost2010Prop46
 90
       50
102
RTVSPost2010PropOp46
 70
     1
102
RTVSPost2010Prop47
 90
       50
102
RTVSPost2010PropOp47
 70
     1
102
RTVSPost2010Prop48
 90
       50
102
RTVSPost2010PropOp48
 70
     1
102
RTVSPost2010Prop49
280
     0
102
RTVSPost2010PropOp49
 70
     1
102
RTVSPost2010Prop50
 90
       50
102
RTVSPost2010PropOp50
 70
     1
102
RTVSPost2010Prop51ColorIndex
 90
      256
102
RTVSPost2010Prop51ColorRGB
 90
-16777216
102
RTVSPost2010PropOp51
 70
     0
102
RTVSPost2010Prop52
140
1.0
102
RTVSPost2010PropOp52
 70
     0
102
RTVSPost2010Prop53
 90
        2
102
RTVSPost2010PropOp53
 70
     1
102
RTVSPost2010Prop54
  1
strokes_ogs.tif
102
RTVSPost2010PropOp54
 70
     1
102
RTVSPost2010Prop55
280
     0
102
RTVSPost2010PropOp55
 70
     1
102
RTVSPost2010Prop56
140
1.0
102
RTVSPost2010PropOp56
 70
     1
102
RTVSPost2010Prop57
140
1.0
102
RTVSPost2010PropOp57
 70
     1
102
RTVSPropertyOp0
 70
     1
102
RTVSPropertyOp1
 70
     1
102
RTVSPropertyOp2
 70
     1
102
RTVSPropertyOp3
 70
     1
102
RTVSPropertyOp4
 70
     1
102
RTVSPropertyOp5
 70
     1
102
RTVSPropertyOp6
 70
     1
102
RTVSPropertyOp7
 70
     1
102
RTVSPropertyOp8
 70
     1
102
RTVSPropertyOp9
 70
     1
102
RTVSPropertyOp10
 70
     1
102
RTVSPropertyOp11
 70
     1
102
RTVSPropertyOp12
 70
     1
102
RTVSPropertyOp13
 70
     1
102
RTVSPropertyOp14
 70
     1
102
RTVSPropertyOp15
 70
     1
102
RTVSPropertyOp16
 70
     1
102
RTVSPropertyOp17
 70
     1
102
RTVSPropertyOp18
 70
     1
102
RTVSPropertyOp19
 70
     1
102
RTVSPropertyOp20
 70
     1
102
RTVSPropertyOp21
 70
     1
102
RTVSPropertyOp22
 70
     1
102
RTVSPropertyOp23
 70
     1
102
RTVSPropertyOp24
 70
     1
102
RTVSPropertyOp25
 70
     1
102
RTVSPropertyOp26
 70
     1
102
RTVSPropertyOp27
 70
     1
102
RTVSPropertyOp28
 70
     1
102
RTVSPropertyOp29
 70
     1
102
RTVSPropertyOp30
 70
     1
102
RTVSPropertyOp31
 70
     1
102
RTVSPropertyOp32
 70
     1
102
RTVSPropertyOp33
 70
     1
102
RTVSPropertyOp34
 70
     1
102
RTVSPropertyOp35
 70
     1
102
RTVSPropertyOp36
 70
     1
102
RTVSPropertyOp37
 70
     1
102
RTVSPropertyOp38
 70
     1
102
RTVSPropertyOp39
 70
     1
102
RTVSPropertyOp40
 70
     1
102
RTVSPropertyOp41
 70
     1
102
RTVSPropertyOp42
 70
     1
102
RTVSPropertyOp43
 70
     1
102
RTVSPropertyOp44
 70
     1
102
RTVSPropertyOp45
 70
     1
102
RTVSPropertyOp46
 70
     1
102
RTVSPropertyOp47
 70
     1
102
RTVSPropertyOp48
 70
     1
102
RTVSPropertyOp49
 70
     1
102
RTVSPropertyOp50
 70
     1
102
RTVSPropertyOp51
 70
     0
102
RTVSPropertyOp52
 70
     0
102
RTVSPropertyOp53
 70
     1
102
RTVSPropertyOp54
 70
     1
102
RTVSPropertyOp55
 70
     1
102
RTVSPropertyOp56
 70
     1
102
RTVSPropertyOp57
 70
     1
102
RTVSPropertyOp58
 70
     1
102
RTVSPropertyOp59
 70
     1
102
RTVSPropertyOp60
 70
     1
102
RTVSPropertyOp61
 70
     1
102
RTVSPropertyOp62
 70
     1
  0
XRECORD
  5
71C
102
{ACAD_REACTORS
330
71B
102
}
330
71B
100
AcDbXrecord
280
     1
102
RTVSPost2010Prop28
280
     0
102
RTVSPost2010PropOp28
 70
     1
102
RTVSPost2010Prop29
280
     1
102
RTVSPost2010PropOp29
 70
     1
102
RTVSPost2010Prop30
280
     1
102
RTVSPost2010PropOp30
 70
     1
102
RTVSPost2010Prop31
280
     0
102
RTVSPost2010PropOp31
 70
     1
102
RTVSPost2010Prop32
280
     0
102
RTVSPost2010PropOp32
 70
     1
102
RTVSPost2010Prop33
280
     0
102
RTVSPost2010PropOp33
 70
     1
102
RTVSPost2010Prop34
280
     0
102
RTVSPost2010PropOp34
 70
     1
102
RTVSPost2010Prop35
280
     0
102
RTVSPost2010PropOp35
 70
     1
102
RTVSPost2010Prop36
280
     0
102
RTVSPost2010PropOp36
 70
     1
102
RTVSPost2010Prop37
 90
       50
102
RTVSPost2010PropOp37
 70
     1
102
RTVSPost2010Prop38
140
0.0
102
RTVSPost2010PropOp38
 70
     1
102
RTVSPost2010Prop39
140
1.0
102
RTVSPost2010PropOp39
 70
     1
102
RTVSPost2010Prop40
 90
        0
102
RTVSPost2010PropOp40
 70
     1
102
RTVSPost2010Prop41ColorIndex
 90
       18
102
RTVSPost2010Prop41ColorRGB
 90
        0
102
RTVSPost2010PropOp41
 70
     1
102
RTVSPost2010Prop42
 90
       50
102
RTVSPost2010PropOp42
 70
     1
102
RTVSPost2010Prop43
 90
        3
102
RTVSPost2010PropOp43
 70
     1
102
RTVSPost2010Prop44ColorIndex
 90
        5
102
RTVSPost2010Prop44ColorRGB
 90
      255
102
RTVSPost2010PropOp44
 70
     1
102
RTVSPost2010Prop45
280
     0
102
RTVSPost2010PropOp45
 70
     1
102
RTVSPost2010Prop46
 90
       50
102
RTVSPost2010PropOp46
 70
     1
102
RTVSPost2010Prop47
 90
       50
102
RTVSPost2010PropOp47
 70
     1
102
RTVSPost2010Prop48
 90
       50
102
RTVSPost2010PropOp48
 70
     1
102
RTVSPost2010Prop49
280
     0
102
RTVSPost2010PropOp49
 70
     1
102
RTVSPost2010Prop50
 90
       50
102
RTVSPost2010PropOp50
 70
     1
102
RTVSPost2010Prop51ColorIndex
 90
      256
102
RTVSPost2010Prop51ColorRGB
 90
-16777216
102
RTVSPost2010PropOp51
 70
     0
102
RTVSPost2010Prop52
140
1.0
102
RTVSPost2010PropOp52
 70
     0
102
RTVSPost2010Prop53
 90
        2
102
RTVSPost2010PropOp53
 70
     1
102
RTVSPost2010Prop54
  1
strokes_ogs.tif
102
RTVSPost2010PropOp54
 70
     1
102
RTVSPost2010Prop55
280
     0
102
RTVSPost2010PropOp55
 70
     1
102
RTVSPost2010Prop56
140
1.0
102
RTVSPost2010PropOp56
 70
     1
102
RTVSPost2010Prop57
140
1.0
102
RTVSPost2010PropOp57
 70
     1
102
RTVSPropertyOp0
 70
     1
102
RTVSPropertyOp1
 70
     1
102
RTVSPropertyOp2
 70
     1
102
RTVSPropertyOp3
 70
     1
102
RTVSPropertyOp4
 70
     1
102
RTVSPropertyOp5
 70
     1
102
RTVSPropertyOp6
 70
     1
102
RTVSPropertyOp7
 70
     1
102
RTVSPropertyOp8
 70
     1
102
RTVSPropertyOp9
 70
     1
102
RTVSPropertyOp10
 70
     1
102
RTVSPropertyOp11
 70
     1
102
RTVSPropertyOp12
 70
     1
102
RTVSPropertyOp13
 70
     1
102
RTVSPropertyOp14
 70
     1
102
RTVSPropertyOp15
 70
     1
102
RTVSPropertyOp16
 70
     1
102
RTVSPropertyOp17
 70
     1
102
RTVSPropertyOp18
 70
     1
102
RTVSPropertyOp19
 70
     1
102
RTVSPropertyOp20
 70
     1
102
RTVSPropertyOp21
 70
     1
102
RTVSPropertyOp22
 70
     1
102
RTVSPropertyOp23
 70
     1
102
RTVSPropertyOp24
 70
     1
102
RTVSPropertyOp25
 70
     1
102
RTVSPropertyOp26
 70
     1
102
RTVSPropertyOp27
 70
     1
102
RTVSPropertyOp28
 70
     1
102
RTVSPropertyOp29
 70
     1
102
RTVSPropertyOp30
 70
     1
102
RTVSPropertyOp31
 70
     1
102
RTVSPropertyOp32
 70
     1
102
RTVSPropertyOp33
 70
     1
102
RTVSPropertyOp34
 70
     1
102
RTVSPropertyOp35
 70
     1
102
RTVSPropertyOp36
 70
     1
102
RTVSPropertyOp37
 70
     1
102
RTVSPropertyOp38
 70
     1
102
RTVSPropertyOp39
 70
     1
102
RTVSPropertyOp40
 70
     1
102
RTVSPropertyOp41
 70
     1
102
RTVSPropertyOp42
 70
     1
102
RTVSPropertyOp43
 70
     1
102
RTVSPropertyOp44
 70
     1
102
RTVSPropertyOp45
 70
     1
102
RTVSPropertyOp46
 70
     1
102
RTVSPropertyOp47
 70
     1
102
RTVSPropertyOp48
 70
     1
102
RTVSPropertyOp49
 70
     1
102
RTVSPropertyOp50
 70
     1
102
RTVSPropertyOp51
 70
     0
102
RTVSPropertyOp52
 70
     0
102
RTVSPropertyOp53
 70
     1
102
RTVSPropertyOp54
 70
     1
102
RTVSPropertyOp55
 70
     1
102
RTVSPropertyOp56
 70
     1
102
RTVSPropertyOp57
 70
     1
102
RTVSPropertyOp58
 70
     1
102
RTVSPropertyOp59
 70
     1
102
RTVSPropertyOp60
 70
     1
102
RTVSPropertyOp61
 70
     1
102
RTVSPropertyOp62
 70
     1
  0
XRECORD
  5
712
102
{ACAD_REACTORS
330
711
102
}
330
711
100
AcDbXrecord
280
     1
102
RTVSPost2010Prop28
280
     0
102
RTVSPost2010PropOp28
 70
     1
102
RTVSPost2010Prop29
280
     1
102
RTVSPost2010PropOp29
 70
     1
102
RTVSPost2010Prop30
280
     1
102
RTVSPost2010PropOp30
 70
     1
102
RTVSPost2010Prop31
280
     0
102
RTVSPost2010PropOp31
 70
     1
102
RTVSPost2010Prop32
280
     0
102
RTVSPost2010PropOp32
 70
     1
102
RTVSPost2010Prop33
280
     0
102
RTVSPost2010PropOp33
 70
     1
102
RTVSPost2010Prop34
280
     0
102
RTVSPost2010PropOp34
 70
     1
102
RTVSPost2010Prop35
280
     0
102
RTVSPost2010PropOp35
 70
     1
102
RTVSPost2010Prop36
280
     0
102
RTVSPost2010PropOp36
 70
     1
102
RTVSPost2010Prop37
 90
       50
102
RTVSPost2010PropOp37
 70
     1
102
RTVSPost2010Prop38
140
0.0
102
RTVSPost2010PropOp38
 70
     1
102
RTVSPost2010Prop39
140
1.0
102
RTVSPost2010PropOp39
 70
     1
102
RTVSPost2010Prop40
 90
        0
102
RTVSPost2010PropOp40
 70
     1
102
RTVSPost2010Prop41ColorIndex
 90
       18
102
RTVSPost2010Prop41ColorRGB
 90
        0
102
RTVSPost2010PropOp41
 70
     1
102
RTVSPost2010Prop42
 90
       50
102
RTVSPost2010PropOp42
 70
     1
102
RTVSPost2010Prop43
 90
        3
102
RTVSPost2010PropOp43
 70
     1
102
RTVSPost2010Prop44ColorIndex
 90
        5
102
RTVSPost2010Prop44ColorRGB
 90
      255
102
RTVSPost2010PropOp44
 70
     1
102
RTVSPost2010Prop45
280
     0
102
RTVSPost2010PropOp45
 70
     1
102
RTVSPost2010Prop46
 90
       50
102
RTVSPost2010PropOp46
 70
     1
102
RTVSPost2010Prop47
 90
       50
102
RTVSPost2010PropOp47
 70
     1
102
RTVSPost2010Prop48
 90
       50
102
RTVSPost2010PropOp48
 70
     1
102
RTVSPost2010Prop49
280
     0
102
RTVSPost2010PropOp49
 70
     1
102
RTVSPost2010Prop50
 90
       50
102
RTVSPost2010PropOp50
 70
     1
102
RTVSPost2010Prop51ColorIndex
 90
      256
102
RTVSPost2010Prop51ColorRGB
 90
-16777216
102
RTVSPost2010PropOp51
 70
     0
102
RTVSPost2010Prop52
140
1.0
102
RTVSPost2010PropOp52
 70
     0
102
RTVSPost2010Prop53
 90
        2
102
RTVSPost2010PropOp53
 70
     1
102
RTVSPost2010Prop54
  1
strokes_ogs.tif
102
RTVSPost2010PropOp54
 70
     1
102
RTVSPost2010Prop55
280
     0
102
RTVSPost2010PropOp55
 70
     1
102
RTVSPost2010Prop56
140
1.0
102
RTVSPost2010PropOp56
 70
     1
102
RTVSPost2010Prop57
140
1.0
102
RTVSPost2010PropOp57
 70
     1
102
RTVSPropertyOp0
 70
     1
102
RTVSPropertyOp1
 70
     1
102
RTVSPropertyOp2
 70
     1
102
RTVSPropertyOp3
 70
     1
102
RTVSPropertyOp4
 70
     1
102
RTVSPropertyOp5
 70
     1
102
RTVSPropertyOp6
 70
     1
102
RTVSPropertyOp7
 70
     1
102
RTVSPropertyOp8
 70
     1
102
RTVSPropertyOp9
 70
     1
102
RTVSPropertyOp10
 70
     1
102
RTVSPropertyOp11
 70
     1
102
RTVSPropertyOp12
 70
     1
102
RTVSPropertyOp13
 70
     1
102
RTVSPropertyOp14
 70
     1
102
RTVSPropertyOp15
 70
     1
102
RTVSPropertyOp16
 70
     1
102
RTVSPropertyOp17
 70
     1
102
RTVSPropertyOp18
 70
     1
102
RTVSPropertyOp19
 70
     1
102
RTVSPropertyOp20
 70
     1
102
RTVSPropertyOp21
 70
     1
102
RTVSPropertyOp22
 70
     1
102
RTVSPropertyOp23
 70
     1
102
RTVSPropertyOp24
 70
     1
102
RTVSPropertyOp25
 70
     1
102
RTVSPropertyOp26
 70
     1
102
RTVSPropertyOp27
 70
     1
102
RTVSPropertyOp28
 70
     1
102
RTVSPropertyOp29
 70
     1
102
RTVSPropertyOp30
 70
     1
102
RTVSPropertyOp31
 70
     1
102
RTVSPropertyOp32
 70
     1
102
RTVSPropertyOp33
 70
     1
102
RTVSPropertyOp34
 70
     1
102
RTVSPropertyOp35
 70
     1
102
RTVSPropertyOp36
 70
     1
102
RTVSPropertyOp37
 70
     1
102
RTVSPropertyOp38
 70
     1
102
RTVSPropertyOp39
 70
     1
102
RTVSPropertyOp40
 70
     1
102
RTVSPropertyOp41
 70
     1
102
RTVSPropertyOp42
 70
     1
102
RTVSPropertyOp43
 70
     1
102
RTVSPropertyOp44
 70
     1
102
RTVSPropertyOp45
 70
     1
102
RTVSPropertyOp46
 70
     1
102
RTVSPropertyOp47
 70
     1
102
RTVSPropertyOp48
 70
     1
102
RTVSPropertyOp49
 70
     1
102
RTVSPropertyOp50
 70
     1
102
RTVSPropertyOp51
 70
     0
102
RTVSPropertyOp52
 70
     0
102
RTVSPropertyOp53
 70
     1
102
RTVSPropertyOp54
 70
     1
102
RTVSPropertyOp55
 70
     1
102
RTVSPropertyOp56
 70
     1
102
RTVSPropertyOp57
 70
     1
102
RTVSPropertyOp58
 70
     1
102
RTVSPropertyOp59
 70
     1
102
RTVSPropertyOp60
 70
     1
102
RTVSPropertyOp61
 70
     1
102
RTVSPropertyOp62
 70
     1
  0
XRECORD
  5
706
102
{ACAD_REACTORS
330
705
102
}
330
705
100
AcDbXrecord
280
     1
102
RTVSPost2010Prop28
280
     0
102
RTVSPost2010PropOp28
 70
     1
102
RTVSPost2010Prop29
280
     1
102
RTVSPost2010PropOp29
 70
     1
102
RTVSPost2010Prop30
280
     1
102
RTVSPost2010PropOp30
 70
     1
102
RTVSPost2010Prop31
280
     0
102
RTVSPost2010PropOp31
 70
     1
102
RTVSPost2010Prop32
280
     0
102
RTVSPost2010PropOp32
 70
     1
102
RTVSPost2010Prop33
280
     0
102
RTVSPost2010PropOp33
 70
     1
102
RTVSPost2010Prop34
280
     0
102
RTVSPost2010PropOp34
 70
     1
102
RTVSPost2010Prop35
280
     0
102
RTVSPost2010PropOp35
 70
     1
102
RTVSPost2010Prop36
280
     0
102
RTVSPost2010PropOp36
 70
     1
102
RTVSPost2010Prop37
 90
       50
102
RTVSPost2010PropOp37
 70
     1
102
RTVSPost2010Prop38
140
0.0
102
RTVSPost2010PropOp38
 70
     1
102
RTVSPost2010Prop39
140
1.0
102
RTVSPost2010PropOp39
 70
     1
102
RTVSPost2010Prop40
 90
        0
102
RTVSPost2010PropOp40
 70
     1
102
RTVSPost2010Prop41ColorIndex
 90
       18
102
RTVSPost2010Prop41ColorRGB
 90
        0
102
RTVSPost2010PropOp41
 70
     1
102
RTVSPost2010Prop42
 90
       50
102
RTVSPost2010PropOp42
 70
     1
102
RTVSPost2010Prop43
 90
        3
102
RTVSPost2010PropOp43
 70
     1
102
RTVSPost2010Prop44ColorIndex
 90
        5
102
RTVSPost2010Prop44ColorRGB
 90
      255
102
RTVSPost2010PropOp44
 70
     1
102
RTVSPost2010Prop45
280
     0
102
RTVSPost2010PropOp45
 70
     1
102
RTVSPost2010Prop46
 90
       50
102
RTVSPost2010PropOp46
 70
     1
102
RTVSPost2010Prop47
 90
       50
102
RTVSPost2010PropOp47
 70
     1
102
RTVSPost2010Prop48
 90
       50
102
RTVSPost2010PropOp48
 70
     1
102
RTVSPost2010Prop49
280
     0
102
RTVSPost2010PropOp49
 70
     1
102
RTVSPost2010Prop50
 90
       50
102
RTVSPost2010PropOp50
 70
     1
102
RTVSPost2010Prop51ColorIndex
 90
      256
102
RTVSPost2010Prop51ColorRGB
 90
-16777216
102
RTVSPost2010PropOp51
 70
     0
102
RTVSPost2010Prop52
140
1.0
102
RTVSPost2010PropOp52
 70
     0
102
RTVSPost2010Prop53
 90
        2
102
RTVSPost2010PropOp53
 70
     1
102
RTVSPost2010Prop54
  1
strokes_ogs.tif
102
RTVSPost2010PropOp54
 70
     1
102
RTVSPost2010Prop55
280
     0
102
RTVSPost2010PropOp55
 70
     1
102
RTVSPost2010Prop56
140
1.0
102
RTVSPost2010PropOp56
 70
     1
102
RTVSPost2010Prop57
140
1.0
102
RTVSPost2010PropOp57
 70
     1
102
RTVSPropertyOp0
 70
     1
102
RTVSPropertyOp1
 70
     1
102
RTVSPropertyOp2
 70
     1
102
RTVSPropertyOp3
 70
     1
102
RTVSPropertyOp4
 70
     1
102
RTVSPropertyOp5
 70
     1
102
RTVSPropertyOp6
 70
     1
102
RTVSPropertyOp7
 70
     1
102
RTVSPropertyOp8
 70
     1
102
RTVSPropertyOp9
 70
     1
102
RTVSPropertyOp10
 70
     1
102
RTVSPropertyOp11
 70
     1
102
RTVSPropertyOp12
 70
     1
102
RTVSPropertyOp13
 70
     1
102
RTVSPropertyOp14
 70
     1
102
RTVSPropertyOp15
 70
     1
102
RTVSPropertyOp16
 70
     1
102
RTVSPropertyOp17
 70
     1
102
RTVSPropertyOp18
 70
     1
102
RTVSPropertyOp19
 70
     1
102
RTVSPropertyOp20
 70
     1
102
RTVSPropertyOp21
 70
     1
102
RTVSPropertyOp22
 70
     1
102
RTVSPropertyOp23
 70
     1
102
RTVSPropertyOp24
 70
     1
102
RTVSPropertyOp25
 70
     1
102
RTVSPropertyOp26
 70
     1
102
RTVSPropertyOp27
 70
     1
102
RTVSPropertyOp28
 70
     1
102
RTVSPropertyOp29
 70
     1
102
RTVSPropertyOp30
 70
     1
102
RTVSPropertyOp31
 70
     1
102
RTVSPropertyOp32
 70
     1
102
RTVSPropertyOp33
 70
     1
102
RTVSPropertyOp34
 70
     1
102
RTVSPropertyOp35
 70
     1
102
RTVSPropertyOp36
 70
     1
102
RTVSPropertyOp37
 70
     1
102
RTVSPropertyOp38
 70
     1
102
RTVSPropertyOp39
 70
     1
102
RTVSPropertyOp40
 70
     1
102
RTVSPropertyOp41
 70
     1
102
RTVSPropertyOp42
 70
     1
102
RTVSPropertyOp43
 70
     1
102
RTVSPropertyOp44
 70
     1
102
RTVSPropertyOp45
 70
     1
102
RTVSPropertyOp46
 70
     1
102
RTVSPropertyOp47
 70
     1
102
RTVSPropertyOp48
 70
     1
102
RTVSPropertyOp49
 70
     1
102
RTVSPropertyOp50
 70
     1
102
RTVSPropertyOp51
 70
     0
102
RTVSPropertyOp52
 70
     0
102
RTVSPropertyOp53
 70
     1
102
RTVSPropertyOp54
 70
     1
102
RTVSPropertyOp55
 70
     1
102
RTVSPropertyOp56
 70
     1
102
RTVSPropertyOp57
 70
     1
102
RTVSPropertyOp58
 70
     1
102
RTVSPropertyOp59
 70
     1
102
RTVSPropertyOp60
 70
     1
102
RTVSPropertyOp61
 70
     1
102
RTVSPropertyOp62
 70
     1
  0
XRECORD
  5
71E
102
{ACAD_REACTORS
330
71D
102
}
330
71D
100
AcDbXrecord
280
     1
102
RTVSPost2010Prop28
280
     0
102
RTVSPost2010PropOp28
 70
     1
102
RTVSPost2010Prop29
280
     1
102
RTVSPost2010PropOp29
 70
     1
102
RTVSPost2010Prop30
280
     1
102
RTVSPost2010PropOp30
 70
     1
102
RTVSPost2010Prop31
280
     0
102
RTVSPost2010PropOp31
 70
     1
102
RTVSPost2010Prop32
280
     0
102
RTVSPost2010PropOp32
 70
     1
102
RTVSPost2010Prop33
280
     0
102
RTVSPost2010PropOp33
 70
     1
102
RTVSPost2010Prop34
280
     0
102
RTVSPost2010PropOp34
 70
     1
102
RTVSPost2010Prop35
280
     0
102
RTVSPost2010PropOp35
 70
     1
102
RTVSPost2010Prop36
280
     0
102
RTVSPost2010PropOp36
 70
     1
102
RTVSPost2010Prop37
 90
       50
102
RTVSPost2010PropOp37
 70
     1
102
RTVSPost2010Prop38
140
0.0
102
RTVSPost2010PropOp38
 70
     1
102
RTVSPost2010Prop39
140
1.0
102
RTVSPost2010PropOp39
 70
     1
102
RTVSPost2010Prop40
 90
        0
102
RTVSPost2010PropOp40
 70
     1
102
RTVSPost2010Prop41ColorIndex
 90
       18
102
RTVSPost2010Prop41ColorRGB
 90
        0
102
RTVSPost2010PropOp41
 70
     1
102
RTVSPost2010Prop42
 90
       50
102
RTVSPost2010PropOp42
 70
     1
102
RTVSPost2010Prop43
 90
        3
102
RTVSPost2010PropOp43
 70
     1
102
RTVSPost2010Prop44ColorIndex
 90
        5
102
RTVSPost2010Prop44ColorRGB
 90
      255
102
RTVSPost2010PropOp44
 70
     1
102
RTVSPost2010Prop45
280
     0
102
RTVSPost2010PropOp45
 70
     1
102
RTVSPost2010Prop46
 90
       50
102
RTVSPost2010PropOp46
 70
     1
102
RTVSPost2010Prop47
 90
       50
102
RTVSPost2010PropOp47
 70
     1
102
RTVSPost2010Prop48
 90
       50
102
RTVSPost2010PropOp48
 70
     1
102
RTVSPost2010Prop49
280
     0
102
RTVSPost2010PropOp49
 70
     1
102
RTVSPost2010Prop50
 90
       50
102
RTVSPost2010PropOp50
 70
     1
102
RTVSPost2010Prop51ColorIndex
 90
      256
102
RTVSPost2010Prop51ColorRGB
 90
-16777216
102
RTVSPost2010PropOp51
 70
     0
102
RTVSPost2010Prop52
140
1.0
102
RTVSPost2010PropOp52
 70
     0
102
RTVSPost2010Prop53
 90
        2
102
RTVSPost2010PropOp53
 70
     1
102
RTVSPost2010Prop54
  1
strokes_ogs.tif
102
RTVSPost2010PropOp54
 70
     1
102
RTVSPost2010Prop55
280
     0
102
RTVSPost2010PropOp55
 70
     1
102
RTVSPost2010Prop56
140
1.0
102
RTVSPost2010PropOp56
 70
     1
102
RTVSPost2010Prop57
140
1.0
102
RTVSPost2010PropOp57
 70
     1
102
RTVSPropertyOp0
 70
     1
102
RTVSPropertyOp1
 70
     1
102
RTVSPropertyOp2
 70
     1
102
RTVSPropertyOp3
 70
     1
102
RTVSPropertyOp4
 70
     1
102
RTVSPropertyOp5
 70
     1
102
RTVSPropertyOp6
 70
     1
102
RTVSPropertyOp7
 70
     1
102
RTVSPropertyOp8
 70
     1
102
RTVSPropertyOp9
 70
     1
102
RTVSPropertyOp10
 70
     1
102
RTVSPropertyOp11
 70
     1
102
RTVSPropertyOp12
 70
     1
102
RTVSPropertyOp13
 70
     1
102
RTVSPropertyOp14
 70
     1
102
RTVSPropertyOp15
 70
     1
102
RTVSPropertyOp16
 70
     1
102
RTVSPropertyOp17
 70
     1
102
RTVSPropertyOp18
 70
     1
102
RTVSPropertyOp19
 70
     1
102
RTVSPropertyOp20
 70
     1
102
RTVSPropertyOp21
 70
     1
102
RTVSPropertyOp22
 70
     1
102
RTVSPropertyOp23
 70
     1
102
RTVSPropertyOp24
 70
     1
102
RTVSPropertyOp25
 70
     1
102
RTVSPropertyOp26
 70
     1
102
RTVSPropertyOp27
 70
     1
102
RTVSPropertyOp28
 70
     1
102
RTVSPropertyOp29
 70
     1
102
RTVSPropertyOp30
 70
     1
102
RTVSPropertyOp31
 70
     1
102
RTVSPropertyOp32
 70
     1
102
RTVSPropertyOp33
 70
     1
102
RTVSPropertyOp34
 70
     1
102
RTVSPropertyOp35
 70
     1
102
RTVSPropertyOp36
 70
     1
102
RTVSPropertyOp37
 70
     1
102
RTVSPropertyOp38
 70
     1
102
RTVSPropertyOp39
 70
     1
102
RTVSPropertyOp40
 70
     1
102
RTVSPropertyOp41
 70
     1
102
RTVSPropertyOp42
 70
     1
102
RTVSPropertyOp43
 70
     1
102
RTVSPropertyOp44
 70
     1
102
RTVSPropertyOp45
 70
     1
102
RTVSPropertyOp46
 70
     1
102
RTVSPropertyOp47
 70
     1
102
RTVSPropertyOp48
 70
     1
102
RTVSPropertyOp49
 70
     1
102
RTVSPropertyOp50
 70
     1
102
RTVSPropertyOp51
 70
     0
102
RTVSPropertyOp52
 70
     0
102
RTVSPropertyOp53
 70
     1
102
RTVSPropertyOp54
 70
     1
102
RTVSPropertyOp55
 70
     1
102
RTVSPropertyOp56
 70
     1
102
RTVSPropertyOp57
 70
     1
102
RTVSPropertyOp58
 70
     1
102
RTVSPropertyOp59
 70
     1
102
RTVSPropertyOp60
 70
     1
102
RTVSPropertyOp61
 70
     1
102
RTVSPropertyOp62
 70
     1
  0
ENDSEC
  0
EOF
