  0
SECTION
  2
HEADER
  9
$ACADVER
  1
AC1015
  9
$ACADMAINTVER
 70
    20
  9
$DWGCODEPAGE
  3
ANSI_932
  9
$INSBASE
 10
0.0
 20
0.0
 30
0.0
  9
$EXTMIN
 10
-0.0231190004074879
 20
-0.0895000096936529
 30
0.0
  9
$EXTMAX
 10
0.2445948878716142
 20
0.266625915269231
 30
0.0
  9
$LIMMIN
 10
0.0
 20
0.0
  9
$LIMMAX
 10
12.0
 20
9.0
  9
$ORTHOMODE
 70
     0
  9
$REGENMODE
 70
     1
  9
$FILLMODE
 70
     1
  9
$QTEXTMODE
 70
     0
  9
$MIRRTEXT
 70
     0
  9
$LTSCALE
 40
1.0
  9
$ATTMODE
 70
     1
  9
$TEXTSIZE
 40
0.2
  9
$TRACEWID
 40
0.05
  9
$TEXTSTYLE
  7
Standard
  9
$CLAYER
  8
0
  9
$CELTYPE
  6
Continuous
  9
$CECOLOR
 62
   256
  9
$CELTSCALE
 40
1.0
  9
$DISPSILH
 70
     0
  9
$DIMSCALE
 40
1.0
  9
$DIMASZ
 40
0.18
  9
$DIMEXO
 40
0.0625
  9
$DIMDLI
 40
0.38
  9
$DIMRND
 40
0.0
  9
$DIMDLE
 40
0.0
  9
$DIMEXE
 40
0.18
  9
$DIMTP
 40
0.0
  9
$DIMTM
 40
0.0
  9
$DIMTXT
 40
0.18
  9
$DIMCEN
 40
0.09
  9
$DIMTSZ
 40
0.0
  9
$DIMTOL
 70
     0
  9
$DIMLIM
 70
     0
  9
$DIMTIH
 70
     1
  9
$DIMTOH
 70
     1
  9
$DIMSE1
 70
     0
  9
$DIMSE2
 70
     0
  9
$DIMTAD
 70
     0
  9
$DIMZIN
 70
     0
  9
$DIMBLK
  1

  9
$DIMASO
 70
     1
  9
$DIMSHO
 70
     1
  9
$DIMPOST
  1

  9
$DIMAPOST
  1

  9
$DIMALT
 70
     0
  9
$DIMALTD
 70
     2
  9
$DIMALTF
 40
25.4
  9
$DIMLFAC
 40
1.0
  9
$DIMTOFL
 70
     0
  9
$DIMTVP
 40
0.0
  9
$DIMTIX
 70
     0
  9
$DIMSOXD
 70
     0
  9
$DIMSAH
 70
     0
  9
$DIMBLK1
  1

  9
$DIMBLK2
  1

  9
$DIMSTYLE
  2
Standard
  9
$DIMCLRD
 70
     0
  9
$DIMCLRE
 70
     0
  9
$DIMCLRT
 70
     0
  9
$DIMTFAC
 40
1.0
  9
$DIMGAP
 40
0.09
  9
$DIMJUST
 70
     0
  9
$DIMSD1
 70
     0
  9
$DIMSD2
 70
     0
  9
$DIMTOLJ
 70
     1
  9
$DIMTZIN
 70
     0
  9
$DIMALTZ
 70
     0
  9
$DIMALTTZ
 70
     0
  9
$DIMUPT
 70
     0
  9
$DIMDEC
 70
     4
  9
$DIMTDEC
 70
     4
  9
$DIMALTU
 70
     2
  9
$DIMALTTD
 70
     2
  9
$DIMTXSTY
  7
Standard
  9
$DIMAUNIT
 70
     0
  9
$DIMADEC
 70
     0
  9
$DIMALTRND
 40
0.0
  9
$DIMAZIN
 70
     0
  9
$DIMDSEP
 70
    46
  9
$DIMATFIT
 70
     3
  9
$DIMFRAC
 70
     0
  9
$DIMLDRBLK
  1

  9
$DIMLUNIT
 70
     2
  9
$DIMLWD
 70
    -2
  9
$DIMLWE
 70
    -2
  9
$DIMTMOVE
 70
     0
  9
$LUNITS
 70
     2
  9
$LUPREC
 70
     4
  9
$SKETCHINC
 40
0.1
  9
$FILLETRAD
 40
0.0
  9
$AUNITS
 70
     0
  9
$AUPREC
 70
     0
  9
$MENU
  1
.
  9
$ELEVATION
 40
0.0
  9
$PELEVATION
 40
0.0
  9
$THICKNESS
 40
0.0
  9
$LIMCHECK
 70
     0
  9
$CHAMFERA
 40
0.0
  9
$CHAMFERB
 40
0.0
  9
$CHAMFERC
 40
0.0
  9
$CHAMFERD
 40
0.0
  9
$SKPOLY
 70
     0
  9
$TDCREATE
 40
2458090.641550926
  9
$TDUCREATE
 40
2458090.266550926
  9
$TDUPDATE
 40
2458099.485775463
  9
$TDUUPDATE
 40
2458099.110775463
  9
$TDINDWG
 40
0.0017361111
  9
$TDUSRTIMER
 40
0.0017361111
  9
$USRTIMER
 70
     1
  9
$ANGBASE
 50
0.0
  9
$ANGDIR
 70
     0
  9
$PDMODE
 70
     0
  9
$PDSIZE
 40
0.0
  9
$PLINEWID
 40
0.0
  9
$SPLFRAME
 70
     0
  9
$SPLINETYPE
 70
     6
  9
$SPLINESEGS
 70
     8
  9
$HANDSEED
  5
6E0
  9
$SURFTAB1
 70
     6
  9
$SURFTAB2
 70
     6
  9
$SURFTYPE
 70
     6
  9
$SURFU
 70
     6
  9
$SURFV
 70
     6
  9
$UCSBASE
  2

  9
$UCSNAME
  2

  9
$UCSORG
 10
0.0
 20
0.0
 30
0.0
  9
$UCSXDIR
 10
1.0
 20
0.0
 30
0.0
  9
$UCSYDIR
 10
0.0
 20
1.0
 30
0.0
  9
$UCSORTHOREF
  2

  9
$UCSORTHOVIEW
 70
     0
  9
$UCSORGTOP
 10
0.0
 20
0.0
 30
0.0
  9
$UCSORGBOTTOM
 10
0.0
 20
0.0
 30
0.0
  9
$UCSORGLEFT
 10
0.0
 20
0.0
 30
0.0
  9
$UCSORGRIGHT
 10
0.0
 20
0.0
 30
0.0
  9
$UCSORGFRONT
 10
0.0
 20
0.0
 30
0.0
  9
$UCSORGBACK
 10
0.0
 20
0.0
 30
0.0
  9
$PUCSBASE
  2

  9
$PUCSNAME
  2

  9
$PUCSORG
 10
0.0
 20
0.0
 30
0.0
  9
$PUCSXDIR
 10
1.0
 20
0.0
 30
0.0
  9
$PUCSYDIR
 10
0.0
 20
1.0
 30
0.0
  9
$PUCSORTHOREF
  2

  9
$PUCSORTHOVIEW
 70
     0
  9
$PUCSORGTOP
 10
0.0
 20
0.0
 30
0.0
  9
$PUCSORGBOTTOM
 10
0.0
 20
0.0
 30
0.0
  9
$PUCSORGLEFT
 10
0.0
 20
0.0
 30
0.0
  9
$PUCSORGRIGHT
 10
0.0
 20
0.0
 30
0.0
  9
$PUCSORGFRONT
 10
0.0
 20
0.0
 30
0.0
  9
$PUCSORGBACK
 10
0.0
 20
0.0
 30
0.0
  9
$USERI1
 70
     0
  9
$USERI2
 70
     0
  9
$USERI3
 70
     0
  9
$USERI4
 70
     0
  9
$USERI5
 70
     0
  9
$USERR1
 40
0.0
  9
$USERR2
 40
0.0
  9
$USERR3
 40
0.0
  9
$USERR4
 40
0.0
  9
$USERR5
 40
0.0
  9
$WORLDVIEW
 70
     1
  9
$SHADEDGE
 70
     3
  9
$SHADEDIF
 70
    70
  9
$TILEMODE
 70
     1
  9
$MAXACTVP
 70
    64
  9
$PINSBASE
 10
0.0
 20
0.0
 30
0.0
  9
$PLIMCHECK
 70
     0
  9
$PEXTMIN
 10
1.000000000000000E+20
 20
1.000000000000000E+20
 30
1.000000000000000E+20
  9
$PEXTMAX
 10
-1.000000000000000E+20
 20
-1.000000000000000E+20
 30
-1.000000000000000E+20
  9
$PLIMMIN
 10
0.0
 20
0.0
  9
$PLIMMAX
 10
12.0
 20
9.0
  9
$UNITMODE
 70
     0
  9
$VISRETAIN
 70
     1
  9
$PLINEGEN
 70
     0
  9
$PSLTSCALE
 70
     1
  9
$TREEDEPTH
 70
  3020
  9
$CMLSTYLE
  2
Standard
  9
$CMLJUST
 70
     0
  9
$CMLSCALE
 40
1.0
  9
$PROXYGRAPHICS
 70
     1
  9
$MEASUREMENT
 70
     0
  9
$CELWEIGHT
370
    -1
  9
$ENDCAPS
280
     0
  9
$JOINSTYLE
280
     0
  9
$LWDISPLAY
290
     0
  9
$INSUNITS
 70
     0
  9
$HYPERLINKBASE
  1

  9
$STYLESHEET
  1

  9
$XEDIT
290
     1
  9
$CEPSNTYPE
380
     0
  9
$PSTYLEMODE
290
     1
  9
$FINGERPRINTGUID
  2
{D6268990-B5E8-0244-A3AA-C50953D882BD}
  9
$VERSIONGUID
  2
{A74B2EF0-1B20-B54C-895C-61C68CFFD5C7}
  9
$EXTNAMES
290
     1
  9
$PSVPSCALE
 40
0.0
  9
$OLESTARTUP
290
     0
  0
ENDSEC
  0
SECTION
  2
CLASSES
  0
CLASS
  1
ACDBDICTIONARYWDFLT
  2
AcDbDictionaryWithDefault
  3
ObjectDBX Classes
 90
        0
280
     0
281
     0
  0
CLASS
  1
MATERIAL
  2
AcDbMaterial
  3
ObjectDBX Classes
 90
     1153
280
     0
281
     0
  0
CLASS
  1
VISUALSTYLE
  2
AcDbVisualStyle
  3
ObjectDBX Classes
 90
     4095
280
     0
281
     0
  0
CLASS
  1
SCALE
  2
AcDbScale
  3
ObjectDBX Classes
 90
     1153
280
     0
281
     0
  0
CLASS
  1
TABLESTYLE
  2
AcDbTableStyle
  3
ObjectDBX Classes
 90
     4095
280
     0
281
     0
  0
CLASS
  1
MLEADERSTYLE
  2
AcDbMLeaderStyle
  3
ACDB_MLEADERSTYLE_CLASS
 90
     4095
280
     0
281
     0
  0
CLASS
  1
ACDBSECTIONVIEWSTYLE
  2
AcDbSectionViewStyle
  3
ObjectDBX Classes
 90
     1025
280
     0
281
     0
  0
CLASS
  1
ACDBDETAILVIEWSTYLE
  2
AcDbDetailViewStyle
  3
ObjectDBX Classes
 90
     1025
280
     0
281
     0
  0
CLASS
  1
ACME_DOCUMENT
  2
AcMeDbDoc
  3
AcMeServices
 90
     1024
280
     0
281
     0
  0
CLASS
  1
ACMESCOPE
  2
AcMeScope
  3
AcMeServices
 90
     1024
280
     0
281
     0
  0
CLASS
  1
ACMECOMMANDHISTORY
  2
AcMeCommandHistory
  3
AcMeServices
 90
     1024
280
     0
281
     0
  0
CLASS
  1
ACIMSYSVARMAN
  2
AcImSysVarManager
  3
AcMeServices
 90
     1024
280
     0
281
     0
  0
CLASS
  1
ACIMINTSYSVAR
  2
AcImIntSysVar
  3
AcMeServices
 90
     1024
280
     0
281
     0
  0
CLASS
  1
ACMESTATEMGR
  2
AcMeStateMgr
  3
AcMeServices
 90
     1024
280
     0
281
     0
  0
CLASS
  1
ACDBENTITYCACHE
  2
AcMeEntityCache
  3
AcMeServices
 90
     1024
280
     0
281
     0
  0
CLASS
  1
ACGREFMASTER
  2
AcGrefMaster
  3
AcAttribServices
 90
     1024
280
     0
281
     0
  0
CLASS
  1
ACME_DATABASE
  2
AcMeDbDatabase
  3
AcMeServices
 90
     1024
280
     0
281
     0
  0
CLASS
  1
ACRFINSADJUSTERMGR
  2
AcRfInsAdjusterMgr
  3
AcMeServices
 90
     1024
280
     0
281
     0
  0
CLASS
  1
ACGREFACADMASTER
  2
AcGrefacadMaster
  3
AcGrefServices
 90
     1024
280
     0
281
     0
  0
CLASS
  1
AMIMASTER
  2
AmiMaster
  3
AmiServices
 90
     1024
280
     0
281
     0
  0
CLASS
  1
AMGSETTINGSOBJ
  2
AmgSettingsObj
  3
"AcadM|Product Description: AutoCAD Mechanical|Company: Autodesk, Inc."
 90
     1024
280
     0
281
     0
  0
CLASS
  1
AMDTMENUSTATEMGR
  2
AmdtMenuStateMgr
  3
McadcomServices
 90
     1024
280
     0
281
     0
  0
CLASS
  1
AMDTMCOMMENUSTATE
  2
AmdtMcomMenuState
  3
McadcomServices
 90
     1024
280
     0
281
     0
  0
CLASS
  1
MAPIAMMOUDLE
  2
MApiAmModule
  3
MApiAmServices
 90
     1024
280
     0
281
     0
  0
CLASS
  1
ACIMSTRSYSVAR
  2
AcImStrSysVar
  3
AcMeServices
 90
     1024
280
     0
281
     0
  0
CLASS
  1
AMDTAMMENUSTATE
  2
AmdtAmMenuState
  3
DesignerAssemblies_arx
 90
     1024
280
     0
281
     0
  0
CLASS
  1
ACAMPROJECT
  2
AcAmProject
  3
DesignerAssemblies
 90
     1024
280
     0
281
     0
  0
CLASS
  1
ACAMGRCOMPDEF
  2
AcAmGrCompDef
  3
DesignerAssemblies
 90
     1024
280
     0
281
     0
  0
CLASS
  1
ACAMCOMPDEF
  2
AcAmCompDef
  3
DesignerAssemblies
 90
     1024
280
     0
281
     0
  0
CLASS
  1
ACAMCOMPDEFMGR
  2
AcAmCompDefMgr
  3
DesignerAssemblies
 90
     1024
280
     0
281
     0
  0
CLASS
  1
AMCONTEXTMGR
  2
AcAmContextMgr
  3
DesignerAssemblies
 90
     1024
280
     0
281
     0
  0
CLASS
  1
ACAMCONTEXTMODELER
  2
AcAmContextModeler
  3
DesignerAssemblies
 90
     1024
280
     0
281
     0
  0
CLASS
  1
ACMDATADICTIONARY
  2
AcmDataDictionary
  3
"AcmSymBB|Product Description: AutoCAD Mechanical|Company: Autodesk, Inc."
 90
     1024
280
     0
281
     0
  0
CLASS
  1
ACAMGRCOMPDEFSET
  2
AcAmGrCompDefSet
  3
DesignerAssemblies
 90
     1024
280
     0
281
     0
  0
CLASS
  1
AMDTBROWSERDBTAB
  2
AmdtBrowserDbTab
  3
McadcomServices
 90
     1024
280
     0
281
     0
  0
CLASS
  1
CBROWSERAPPOBJECT
  2
CBrowserAppObject
  3
McadcomServices
 90
     1024
280
     0
281
     0
  0
CLASS
  1
DM_PLACEHOLDER
  2
AcDmSelsetPlaceholder
  3
McadcomServices
 90
     1024
280
     0
281
     0
  0
CLASS
  1
ACMSTANDARDANSI
  2
AcmStandardANSI
  3
"Amdt_StdImp|Product Description: AutoCAD Mechanical|Company: Autodesk, Inc."
 90
     1024
280
     0
281
     0
  0
CLASS
  1
ACMSURFSTANDARDANSI
  2
AcmSurfTextStdANSI
  3
"Amdt_StdImp|Product Description: AutoCAD Mechanical|Company: Autodesk, Inc."
 90
     1024
280
     0
281
     0
  0
CLASS
  1
ACMFCFSTANDARDANSI
  2
AcmFCFStdANSI
  3
"Amdt_StdImp|Product Description: AutoCAD Mechanical|Company: Autodesk, Inc."
 90
     1024
280
     0
281
     0
  0
CLASS
  1
ACMWELDSTANDARDANSI
  2
AcmWeldingStdANSI
  3
"Amdt_StdImp|Product Description: AutoCAD Mechanical|Company: Autodesk, Inc."
 90
     1024
280
     0
281
     0
  0
CLASS
  1
ACMIDSTANDARDANSI
  2
AcmIdStdANSI
  3
"Amdt_StdImp|Product Description: AutoCAD Mechanical|Company: Autodesk, Inc."
 90
     1024
280
     0
281
     0
  0
CLASS
  1
ACMDATUMSTANDARDANSI
  2
AcmDatumStdANSI
  3
"Amdt_StdImp|Product Description: AutoCAD Mechanical|Company: Autodesk, Inc."
 90
     1024
280
     0
281
     0
  0
CLASS
  1
ACMBOMSTANDARDANSI
  2
AcmBOMStdANSI
  3
"Amdt_StdImp|Product Description: AutoCAD Mechanical|Company: Autodesk, Inc."
 90
     1024
280
     0
281
     0
  0
CLASS
  1
ACMDETAILSTANDARDANSI
  2
AmdtDetailSymStdANSI
  3
"Amdt_StdImp|Product Description: AutoCAD Mechanical|Company: Autodesk, Inc."
 90
     1024
280
     0
281
     0
  0
CLASS
  1
ACMSECTIONSTANDARDANSI
  2
AmdtSectionSymStdANSI
  3
"Amdt_StdImp|Product Description: AutoCAD Mechanical|Company: Autodesk, Inc."
 90
     1024
280
     0
281
     0
  0
CLASS
  1
ACMCENTERLINESTANDARDANSI
  2
AmdtCenterLineStdANSI
  3
"Amdt_StdImp|Product Description: AutoCAD Mechanical|Company: Autodesk, Inc."
 90
     1024
280
     0
281
     0
  0
CLASS
  1
ACMTHREADLINESTANDARDANSI
  2
AmdtThreadLineStdANSI
  3
"Amdt_StdImp|Product Description: AutoCAD Mechanical|Company: Autodesk, Inc."
 90
     1024
280
     0
281
     0
  0
CLASS
  1
ACMNOTESTANDARDANSI
  2
AmdtNoteStdANSI
  3
"Amdt_StdImp|Product Description: AutoCAD Mechanical|Company: Autodesk, Inc."
 90
     1024
280
     0
281
     0
  0
CLASS
  1
ACMTAPERSTANDARDANSI
  2
AcmTaperStdANSI
  3
"Amdt_StdImp|Product Description: AutoCAD Mechanical|Company: Autodesk, Inc."
 90
     1024
280
     0
281
     0
  0
CLASS
  1
ACMANOOTATIONVIEWSTANDARDANSI
  2
AmdtAnViewStdANSI
  3
"Amdt_StdImp|Product Description: AutoCAD Mechanical|Company: Autodesk, Inc."
 90
     1024
280
     0
281
     0
  0
CLASS
  1
ACAMGLAYSTD
  2
AcAmgLayStd
  3
"AmgLay|Product Description: AutoCAD Mechanical|Company: Autodesk, Inc."
 90
     1024
280
     0
281
     0
  0
CLASS
  1
ACAMGDIMSTD
  2
AcAmgDimStd
  3
"AmgDim|Product Description: AutoCAD Mechanical|Company: Autodesk, Inc."
 90
     1024
280
     0
281
     0
  0
CLASS
  1
AMGOBJPROPCFG
  2
AmgObjPropCfg
  3
"AmgLay|Product Description: AutoCAD Mechanical|Company: Autodesk, Inc."
 90
     1024
280
     0
281
     0
  0
CLASS
  1
ACAMGHOLECHARTSTDANSI
  2
AcAmgHoleChartStdANSI
  3
"AmgDim" "Product Description: AutoCAD Mechanical|Company: Autodesk, Inc."
 90
     1024
280
     0
281
     0
  0
CLASS
  1
ACAMGTITLESTD
  2
AcAmgTitleStd
  3
"AmgTitle|Product Description: AutoCAD Mechanical|Company: Autodesk, Inc."
 90
     1024
280
     0
281
     0
  0
CLASS
  1
ACMSECTIONSTANDARDCUSTOM
  2
AmdtSectionSymStdCustom
  3
"Amdt_StdImp|Product Description: AutoCAD Mechanical|Company: Autodesk, Inc."
 90
     1024
280
     0
281
     0
  0
CLASS
  1
ACMDETAILTANDARDCUSTOM
  2
AmdtDetailSymStdCustom
  3
"Amdt_StdImp|Product Description: AutoCAD Mechanical|Company: Autodesk, Inc."
 90
     1024
280
     0
281
     0
  0
CLASS
  1
FIELD
  2
AcDbField
  3
ObjectDBX Classes
 90
     1152
280
     0
281
     0
  0
CLASS
  1
FIELDLIST
  2
AcDbFieldList
  3
ObjectDBX Classes
 90
     1152
280
     0
281
     0
  0
CLASS
  1
AMDTNOTETEMPLATEDB
  2
AmdtNoteTemplateDB
  3
"AcmSymBB" "Product Description: AutoCAD Mechanical|Company: Autodesk, Inc."
 90
     1024
280
     0
281
     0
  0
CLASS
  1
ACAMGFILTERDAT
  2
AcAmgFilterDat
  3
"AcadM|Product Description: AutoCAD Mechanical|Company: Autodesk, Inc."
 90
    33792
280
     0
281
     0
  0
CLASS
  1
SORTENTSTABLE
  2
AcDbSortentsTable
  3
ObjectDBX Classes
 90
        0
280
     0
281
     0
  0
CLASS
  1
DICTIONARYVAR
  2
AcDbDictionaryVar
  3
ObjectDBX Classes
 90
        0
280
     0
281
     0
  0
CLASS
  1
CELLSTYLEMAP
  2
AcDbCellStyleMap
  3
ObjectDBX Classes
 90
     1152
280
     0
281
     0
  0
CLASS
  1
ACDBPLACEHOLDER
  2
AcDbPlaceHolder
  3
ObjectDBX Classes
 90
        0
280
     0
281
     0
  0
CLASS
  1
LAYOUT
  2
AcDbLayout
  3
ObjectDBX Classes
 90
        0
280
     0
281
     0
  0
ENDSEC
  0
SECTION
  2
TABLES
  0
TABLE
  2
VPORT
  5
8
330
0
100
AcDbSymbolTable
 70
     1
  0
VPORT
  5
74
330
8
100
AcDbSymbolTableRecord
100
AcDbViewportTableRecord
  2
*Active
 70
     0
 10
0.0
 20
0.0
 11
1.0
 21
1.0
 12
0.356135786368865
 22
0.0891847192936055
 13
0.0
 23
0.0
 14
1.0
 24
1.0
 15
0.0
 25
0.0
 16
0.0
 26
0.0
 36
1.0
 17
0.0
 27
0.0
 37
0.0
 40
0.7834853536513294
 41
2.236596736596736
 42
50.0
 43
0.0
 44
0.0
 50
0.0
 51
0.0
 71
     0
 72
   100
 73
     1
 74
     1
 75
     0
 76
     0
 77
     0
 78
     0
281
     0
 65
     0
110
0.0
120
0.0
130
0.0
111
1.0
121
0.0
131
0.0
112
0.0
122
1.0
132
0.0
 79
     0
146
0.0
1001
ACAD_NAV_VCDISPLAY
1070
     3
  0
ENDTAB
  0
TABLE
  2
LTYPE
  5
5
330
0
100
AcDbSymbolTable
 70
    16
  0
LTYPE
  5
5A
330
5
100
AcDbSymbolTableRecord
100
AcDbLinetypeTableRecord
  2
ByBlock
 70
     0
  3

 72
    65
 73
     0
 40
0.0
  0
LTYPE
  5
5B
330
5
100
AcDbSymbolTableRecord
100
AcDbLinetypeTableRecord
  2
ByLayer
 70
     0
  3

 72
    65
 73
     0
 40
0.0
  0
LTYPE
  5
5C
330
5
100
AcDbSymbolTableRecord
100
AcDbLinetypeTableRecord
  2
Continuous
 70
     0
  3
Solid line
 72
    65
 73
     0
 40
0.0
  0
LTYPE
  5
180
330
5
100
AcDbSymbolTableRecord
100
AcDbLinetypeTableRecord
  2
HIDDEN
 70
     0
  3
Hidden __ __ __ __ __ __ __ __ __ __ __ __ __ _
 72
    65
 73
     2
 40
0.375
 49
0.25
 74
     0
 49
-0.125
 74
     0
  0
LTYPE
  5
181
330
5
100
AcDbSymbolTableRecord
100
AcDbLinetypeTableRecord
  2
PHANTOM2
 70
     0
  3
Phantom (.5x) ___ _ _ ___ _ _ ___ _ _ ___ _ _
 72
    65
 73
     6
 40
1.25
 49
0.625
 74
     0
 49
-0.125
 74
     0
 49
0.125
 74
     0
 49
-0.125
 74
     0
 49
0.125
 74
     0
 49
-0.125
 74
     0
  0
LTYPE
  5
182
330
5
100
AcDbSymbolTableRecord
100
AcDbLinetypeTableRecord
  2
CENTER
 70
     0
  3
Center ____ _ ____ _ ____ _ ____ _ ____ _ ____
 72
    65
 73
     4
 40
2.0
 49
1.25
 74
     0
 49
-0.25
 74
     0
 49
0.25
 74
     0
 49
-0.25
 74
     0
  0
LTYPE
  5
1C0
330
5
100
AcDbSymbolTableRecord
100
AcDbLinetypeTableRecord
  2
AM_ISO02W050
 70
     0
  3
__ __ __ __ __ __ __ __ __ __ __ __ __ __ __
 72
    65
 73
     2
 40
7.5
 49
6.0
 74
     0
 49
-1.5
 74
     0
  0
LTYPE
  5
1C1
330
5
100
AcDbSymbolTableRecord
100
AcDbLinetypeTableRecord
  2
AM_ISO08W050
 70
     0
  3
____ . ____ . ____ . ____ . ____ . ____ . ____
 72
    65
 73
     4
 40
18.0
 49
12.0
 74
     0
 49
-1.5
 74
     0
 49
3.0
 74
     0
 49
-1.5
 74
     0
  0
LTYPE
  5
1C2
330
5
100
AcDbSymbolTableRecord
100
AcDbLinetypeTableRecord
  2
AM_ISO09W050
 70
     0
  3
_____ . . _____ . . _____ . . ____ .. ____
 72
    65
 73
     6
 40
22.5
 49
12.0
 74
     0
 49
-1.5
 74
     0
 49
3.0
 74
     0
 49
-1.5
 74
     0
 49
3.0
 74
     0
 49
-1.5
 74
     0
  0
LTYPE
  5
1C3
330
5
100
AcDbSymbolTableRecord
100
AcDbLinetypeTableRecord
  2
Amconstr
 70
     0
  3
_______________________
 72
    65
 73
     2
 40
9999.0
 49
9999.0
 74
     0
 49
0.0
 74
     0
  0
LTYPE
  5
1C4
330
5
100
AcDbSymbolTableRecord
100
AcDbLinetypeTableRecord
  2
AM_ISO08W050x2
 70
     0
  3
__ . __ . __ . __ . __ . __
 72
    65
 73
     4
 40
9.0
 49
6.0
 74
     0
 49
-0.75
 74
     0
 49
1.5
 74
     0
 49
-0.75
 74
     0
  0
LTYPE
  5
1C5
330
5
100
AcDbSymbolTableRecord
100
AcDbLinetypeTableRecord
  2
AM_ISO02W050x2
 70
     0
  3
 _ _ _ _ _ _ _ _ _ _ _ _
 72
    65
 73
     2
 40
3.75
 49
3.0
 74
     0
 49
-0.75
 74
     0
  0
LTYPE
  5
1C8
330
5
100
AcDbSymbolTableRecord
100
AcDbLinetypeTableRecord
  2
Amzigzag
 70
     0
  3
/\/-/\/-/\/-/\/-/\/-/\/
 72
    65
 73
     2
 40
11.0001
 49
0.0001
 74
     4
 75
   136
340
1C7
 46
0.04
 50
0.0
 44
0.0
 45
0.0
 49
-11.0
 74
     0
  0
LTYPE
  5
1C9
330
5
100
AcDbSymbolTableRecord
100
AcDbLinetypeTableRecord
  2
CENTER2
 70
     0
  3
Center (.5x) ___ _ ___ _ ___ _ ___ _ ___ _ ___
 72
    65
 73
     4
 40
1.125
 49
0.75
 74
     0
 49
-0.125
 74
     0
 49
0.125
 74
     0
 49
-0.125
 74
     0
  0
LTYPE
  5
1CA
330
5
100
AcDbSymbolTableRecord
100
AcDbLinetypeTableRecord
  2
HIDDEN2
 70
     0
  3
Hidden (.5x) _ _ _ _ _ _ _ _ _ _ _ _ _ _ _ _ _
 72
    65
 73
     2
 40
0.1875
 49
0.125
 74
     0
 49
-0.0625
 74
     0
  0
LTYPE
  5
1CB
330
5
100
AcDbSymbolTableRecord
100
AcDbLinetypeTableRecord
  2
Amzigzag2
 70
     0
  3
/\/-/\/-/\/-/\/-/\/-/\/
 72
    65
 73
     2
 40
0.4401
 49
0.0001
 74
     4
 75
   136
340
1C7
 46
0.0016
 50
0.0
 44
0.0
 45
0.0
 49
-0.4400000000000002
 74
     0
  0
LTYPE
  5
1DB
330
5
100
AcDbSymbolTableRecord
100
AcDbLinetypeTableRecord
  2
ACANSTGB
 70
     0
  3
__ . . __ . .
 72
    65
 73
     6
 40
0.35433070866
 49
0.15748031496
 74
     0
 49
-0.03937007874
 74
     0
 49
0.03937007874
 74
     0
 49
-0.03937007874
 74
     0
 49
0.03937007874
 74
     0
 49
-0.03937007874
 74
     0
  0
LTYPE
  5
1DC
330
5
100
AcDbSymbolTableRecord
100
AcDbLinetypeTableRecord
  2
ACANSTGL
 70
     0
  3
_ _ _ _ _
 72
    65
 73
     2
 40
0.11811023622
 49
0.07874015748
 74
     0
 49
-0.03937007874
 74
     0
  0
ENDTAB
  0
TABLE
  2
LAYER
  5
2
330
0
100
AcDbSymbolTable
 70
     2
  0
LAYER
  5
54
102
{ACAD_XDICTIONARY
360
5EF
102
}
330
2
100
AcDbSymbolTableRecord
100
AcDbLayerTableRecord
  2
0
 70
     0
 62
     7
  6
Continuous
370
    -3
390
F
  0
LAYER
  5
200
102
{ACAD_XDICTIONARY
360
5F1
102
}
330
2
100
AcDbSymbolTableRecord
100
AcDbLayerTableRecord
  2
AM_CL
 70
     0
 62
     1
  6
Amconstr
370
    15
390
F
1001
AcAecLayerStandard
1000

1000

  0
ENDTAB
  0
TABLE
  2
STYLE
  5
3
330
0
100
AcDbSymbolTable
 70
     5
  0
STYLE
  5
55
330
3
100
AcDbSymbolTableRecord
100
AcDbTextStyleTableRecord
  2
Standard
 70
     0
 40
0.0
 41
1.0
 50
0.0
 71
     0
 42
0.2
  3
txt
  4

  0
STYLE
  5
59
330
3
100
AcDbSymbolTableRecord
100
AcDbTextStyleTableRecord
  2
Annotative
 70
     0
 40
0.0
 41
1.0
 50
0.0
 71
     0
 42
0.2
  3
txt
  4

1001
AcadAnnotative
1000
AnnotativeData
1002
{
1070
     1
1070
     1
1002
}
  0
STYLE
  5
1C7
330
3
100
AcDbSymbolTableRecord
100
AcDbTextStyleTableRecord
  2

 70
     1
 40
0.0
 41
1.0
 50
0.0
 71
     0
 42
0.2
  3
genltshp.shx
  4

  0
STYLE
  5
1D9
330
3
100
AcDbSymbolTableRecord
100
AcDbTextStyleTableRecord
  2
ACANSTS
 70
     0
 40
0.0
 41
1.0
 50
0.0
 71
     0
 42
0.2
  3
romans.shx
  4
extfont.shx
  0
STYLE
  5
1DA
330
3
100
AcDbSymbolTableRecord
100
AcDbTextStyleTableRecord
  2
ACANSGDT
 70
     0
 40
0.0
 41
1.0
 50
0.0
 71
     0
 42
0.2
  3
amgdt.shx
  4

  0
ENDTAB
  0
TABLE
  2
VIEW
  5
6
330
0
100
AcDbSymbolTable
 70
     0
  0
ENDTAB
  0
TABLE
  2
UCS
  5
7
330
0
100
AcDbSymbolTable
 70
     0
  0
ENDTAB
  0
TABLE
  2
APPID
  5
9
330
0
100
AcDbSymbolTable
 70
    15
  0
APPID
  5
56
330
9
100
AcDbSymbolTableRecord
100
AcDbRegAppTableRecord
  2
ACAD
 70
     0
  0
APPID
  5
5D
330
9
100
AcDbSymbolTableRecord
100
AcDbRegAppTableRecord
  2
AcadAnnotative
 70
     0
  0
APPID
  5
179
330
9
100
AcDbSymbolTableRecord
100
AcDbRegAppTableRecord
  2
MCAD_NO_VIS
 70
     0
  0
APPID
  5
17A
330
9
100
AcDbSymbolTableRecord
100
AcDbRegAppTableRecord
  2
ACAD_TEMP_GRAPHIC
 70
     0
  0
APPID
  5
187
330
9
100
AcDbSymbolTableRecord
100
AcDbRegAppTableRecord
  2
ACATTRIBSERVICES
 70
     0
  0
APPID
  5
1A3
330
9
100
AcDbSymbolTableRecord
100
AcDbRegAppTableRecord
  2
DESIGNERASSEMBLIES
 70
     0
  0
APPID
  5
1BD
330
9
100
AcDbSymbolTableRecord
100
AcDbRegAppTableRecord
  2
ACAD_DSTYLE_DIMJAG
 70
     0
  0
APPID
  5
1BE
330
9
100
AcDbSymbolTableRecord
100
AcDbRegAppTableRecord
  2
ACAD_DSTYLE_DIMBREAK
 70
     0
  0
APPID
  5
1F8
330
9
100
AcDbSymbolTableRecord
100
AcDbRegAppTableRecord
  2
ACAD_NAV_VCDISPLAY
 70
     0
  0
APPID
  5
201
330
9
100
AcDbSymbolTableRecord
100
AcDbRegAppTableRecord
  2
AcAecLayerStandard
 70
     0
  0
APPID
  5
635
330
9
100
AcDbSymbolTableRecord
100
AcDbRegAppTableRecord
  2
ACAD_MLEADERVER
 70
     0
  0
APPID
  5
63E
330
9
100
AcDbSymbolTableRecord
100
AcDbRegAppTableRecord
  2
ACAD_DSTYLE_DIMARC_LENGTH_SYMBOL
 70
     0
  0
APPID
  5
63F
330
9
100
AcDbSymbolTableRecord
100
AcDbRegAppTableRecord
  2
ACAD_DSTYLE_DIM_LINETYPE
 70
     0
  0
APPID
  5
640
330
9
100
AcDbSymbolTableRecord
100
AcDbRegAppTableRecord
  2
ACAD_DSTYLE_DIM_EXT1_LINETYPE
 70
     0
  0
APPID
  5
641
330
9
100
AcDbSymbolTableRecord
100
AcDbRegAppTableRecord
  2
ACAD_DSTYLE_DIM_EXT2_LINETYPE
 70
     0
  0
ENDTAB
  0
TABLE
  2
DIMSTYLE
  5
A
330
0
100
AcDbSymbolTable
 70
     8
100
AcDbDimStyleTable
 71
     0
  0
DIMSTYLE
105
57
330
A
100
AcDbSymbolTableRecord
100
AcDbDimStyleTableRecord
  2
Standard
 70
     0
340
55
  0
DIMSTYLE
105
58
330
A
100
AcDbSymbolTableRecord
100
AcDbDimStyleTableRecord
  2
Annotative
 70
     0
340
55
1001
AcadAnnotative
1000
AnnotativeData
1002
{
1070
     1
1070
     1
1002
}
  0
DIMSTYLE
105
1BC
102
{ACAD_REACTORS
330
674
102
}
330
A
100
AcDbSymbolTableRecord
100
AcDbDimStyleTableRecord
  2
AM_ANSI
 70
     0
  4
mm
 41
0.12
 42
0.05
 43
0.5
 44
0.1
 47
0.1
 48
0.1
 78
     7
 79
     2
140
0.12
141
0.0
146
0.71
147
0.06
176
   256
177
   256
178
     2
274
     4
284
     7
340
55
371
    -1
372
    -1
1001
ACAD_DSTYLE_DIMJAG
1070
   388
1040
1.5
1001
ACAD_DSTYLE_DIMBREAK
1070
   391
1040
0.125
1001
ACAD_DSTYLE_DIMARC_LENGTH_SYMBOL
1070
   379
1070
     1
1001
ACAD_DSTYLE_DIM_LINETYPE
1070
   380
1005
5A
1001
ACAD_DSTYLE_DIM_EXT1_LINETYPE
1070
   381
1005
5A
1001
ACAD_DSTYLE_DIM_EXT2_LINETYPE
1070
   382
1005
5A
  0
DIMSTYLE
105
1CC
330
A
100
AcDbSymbolTableRecord
100
AcDbDimStyleTableRecord
  2
AM_ANSI$3
 70
     0
  4
mm
 41
0.12
 42
0.05
 43
0.5
 44
0.1
 47
0.1
 48
0.1
 78
     7
 79
     2
140
0.12
141
0.0
146
0.71
147
0.06
176
   256
177
   256
178
     2
274
     4
284
     7
288
     1
289
     0
340
55
371
    -1
372
    -1
1001
ACAD_DSTYLE_DIMBREAK
1070
   391
1040
0.125
1001
ACAD_DSTYLE_DIMJAG
1070
   388
1040
1.5
1001
ACAD_DSTYLE_DIMARC_LENGTH_SYMBOL
1070
   379
1070
     1
1001
ACAD_DSTYLE_DIM_LINETYPE
1070
   380
1005
5A
1001
ACAD_DSTYLE_DIM_EXT1_LINETYPE
1070
   381
1005
5A
1001
ACAD_DSTYLE_DIM_EXT2_LINETYPE
1070
   382
1005
5A
  0
DIMSTYLE
105
1CD
330
A
100
AcDbSymbolTableRecord
100
AcDbDimStyleTableRecord
  2
AM_ANSI$4
 70
     0
  4
mm
 41
0.12
 42
0.05
 43
0.5
 44
0.1
 47
0.1
 48
0.1
 78
     7
 79
     2
140
0.12
141
0.0
146
0.71
147
0.06
176
   256
177
   256
178
     2
274
     4
284
     7
288
     1
289
     0
340
55
371
    -1
372
    -1
1001
ACAD_DSTYLE_DIMBREAK
1070
   391
1040
0.125
1001
ACAD_DSTYLE_DIMJAG
1070
   388
1040
1.5
1001
ACAD_DSTYLE_DIMARC_LENGTH_SYMBOL
1070
   379
1070
     1
1001
ACAD_DSTYLE_DIM_LINETYPE
1070
   380
1005
5A
1001
ACAD_DSTYLE_DIM_EXT1_LINETYPE
1070
   381
1005
5A
1001
ACAD_DSTYLE_DIM_EXT2_LINETYPE
1070
   382
1005
5A
  0
DIMSTYLE
105
1CE
330
A
100
AcDbSymbolTableRecord
100
AcDbDimStyleTableRecord
  2
AM_ANSI$7
 70
     0
  4
mm
 41
0.12
 42
0.05
 43
0.5
 44
0.1
 47
0.1
 48
0.1
 78
     7
 79
     2
140
0.12
141
0.0
146
0.71
147
0.06
176
   256
177
   256
178
     2
274
     4
284
     7
340
55
371
    -1
372
    -1
1001
ACAD_DSTYLE_DIMBREAK
1070
   391
1040
0.125
1001
ACAD_DSTYLE_DIMJAG
1070
   388
1040
1.5
1001
ACAD_DSTYLE_DIMARC_LENGTH_SYMBOL
1070
   379
1070
     1
1001
ACAD_DSTYLE_DIM_LINETYPE
1070
   380
1005
5A
1001
ACAD_DSTYLE_DIM_EXT1_LINETYPE
1070
   381
1005
5A
1001
ACAD_DSTYLE_DIM_EXT2_LINETYPE
1070
   382
1005
5A
  0
DIMSTYLE
105
1CF
330
A
100
AcDbSymbolTableRecord
100
AcDbDimStyleTableRecord
  2
AM_ANSI$SF
 70
     0
  4
mm
 41
0.12
 42
0.05
 43
0.5
 44
0.1
 47
0.1
 48
0.1
 75
     1
 76
     1
 78
     7
 79
     2
140
0.12
141
0.0
146
0.71
147
0.06
176
   256
177
   256
178
     2
274
     4
284
     7
340
55
371
    -1
372
    -1
1001
ACAD_DSTYLE_DIMBREAK
1070
   391
1040
0.125
1001
ACAD_DSTYLE_DIMJAG
1070
   388
1040
1.5
1001
ACAD_DSTYLE_DIMARC_LENGTH_SYMBOL
1070
   379
1070
     1
1001
ACAD_DSTYLE_DIM_LINETYPE
1070
   380
1005
5A
1001
ACAD_DSTYLE_DIM_EXT1_LINETYPE
1070
   381
1005
5A
1001
ACAD_DSTYLE_DIM_EXT2_LINETYPE
1070
   382
1005
5A
  0
DIMSTYLE
105
1D4
330
A
100
AcDbSymbolTableRecord
100
AcDbDimStyleTableRecord
  2
AM_ANSI$SH
 70
     0
  4
mm
 41
0.12
 42
0.05
 43
0.5
 44
0.1
 47
0.1
 48
0.1
 75
     1
 76
     1
 78
     7
 79
     2
140
0.12
141
0.0
146
0.71
147
0.06
173
     1
176
   256
177
   256
178
     2
274
     4
284
     7
340
55
343
1D0
371
    -1
372
    -1
1001
ACAD_DSTYLE_DIMBREAK
1070
   391
1040
0.125
1001
ACAD_DSTYLE_DIMJAG
1070
   388
1040
1.5
1001
ACAD_DSTYLE_DIMARC_LENGTH_SYMBOL
1070
   379
1070
     1
1001
ACAD_DSTYLE_DIM_LINETYPE
1070
   380
1005
5A
1001
ACAD_DSTYLE_DIM_EXT1_LINETYPE
1070
   381
1005
5A
1001
ACAD_DSTYLE_DIM_EXT2_LINETYPE
1070
   382
1005
5A
  0
ENDTAB
  0
TABLE
  2
BLOCK_RECORD
  5
1
330
0
100
AcDbSymbolTable
 70
     3
  0
BLOCK_RECORD
  5
6F
102
{ACAD_XDICTIONARY
360
203
102
}
330
1
100
AcDbSymbolTableRecord
100
AcDbBlockTableRecord
  2
*Model_Space
340
72
  0
BLOCK_RECORD
  5
6B
330
1
100
AcDbSymbolTableRecord
100
AcDbBlockTableRecord
  2
*Paper_Space
340
6E
  0
BLOCK_RECORD
  5
1D0
330
1
100
AcDbSymbolTableRecord
100
AcDbBlockTableRecord
  2
GENAXEH
340
0
  0
BLOCK_RECORD
  5
1DE
330
1
100
AcDbSymbolTableRecord
100
AcDbBlockTableRecord
  2
_ACMFILLEDHALF
340
0
  0
ENDTAB
  0
ENDSEC
  0
SECTION
  2
BLOCKS
  0
BLOCK
  5
70
330
6F
100
AcDbEntity
  8
0
100
AcDbBlockBegin
  2
*Model_Space
 70
     0
 10
0.0
 20
0.0
 30
0.0
  3
*Model_Space
  1

  0
ENDBLK
  5
71
330
6F
100
AcDbEntity
  8
0
100
AcDbBlockEnd
  0
BLOCK
  5
6C
330
6B
100
AcDbEntity
 67
     1
  8
0
100
AcDbBlockBegin
  2
*Paper_Space
 70
     0
 10
0.0
 20
0.0
 30
0.0
  3
*Paper_Space
  1

  0
ENDBLK
  5
6D
330
6B
100
AcDbEntity
 67
     1
  8
0
100
AcDbBlockEnd
  0
BLOCK
  5
1D2
330
1D0
100
AcDbEntity
  8
0
100
AcDbBlockBegin
  2
GENAXEH
 70
     0
 10
0.0
 20
0.0
 30
0.0
  3
GENAXEH
  1

  0
LINE
  5
1D1
330
1D0
100
AcDbEntity
  8
0
100
AcDbLine
 10
-1.0
 20
0.0
 30
0.0
 11
1.0
 21
0.0
 31
0.0
  0
ENDBLK
  5
1D3
330
1D0
100
AcDbEntity
  8
0
100
AcDbBlockEnd
  0
BLOCK
  5
1DF
330
1DE
100
AcDbEntity
  8
0
100
AcDbBlockBegin
  2
_ACMFILLEDHALF
 70
     0
 10
0.0
 20
0.0
 30
0.0
  3
_ACMFILLEDHALF
  1

  0
TRACE
  5
1E1
330
1DE
100
AcDbEntity
  8
0
  6
Continuous
 62
     0
100
AcDbTrace
 10
-0.8
 20
0.0
 30
0.0
 11
-1.0
 21
0.166666666
 31
0.0
 12
0.0
 22
0.0
 32
0.0
 13
0.0
 23
0.0
 33
0.0
  0
LINE
  5
1E2
330
1DE
100
AcDbEntity
  8
0
  6
Continuous
 62
     0
100
AcDbLine
 10
-1.0
 20
0.0
 30
0.0
 11
-0.8
 21
0.0
 31
0.0
  0
ENDBLK
  5
1E0
330
1DE
100
AcDbEntity
  8
0
100
AcDbBlockEnd
  0
ENDSEC
  0
SECTION
  2
ENTITIES
  0
LINE
  5
75
330
6F
100
AcDbEntity
  8
0
  6
Continuous
100
AcDbLine
 10
-0.007092
 20
-0.013991
 30
0.0
 11
-0.003785
 21
-0.012852
 31
0.0
  0
LINE
  5
76
330
6F
100
AcDbEntity
  8
0
  6
Continuous
100
AcDbLine
 10
-0.009717
 20
-0.015765
 30
0.0
 11
-0.007092
 21
-0.013991
 31
0.0
  0
LINE
  5
77
330
6F
100
AcDbEntity
  8
0
  6
Continuous
100
AcDbLine
 10
-0.011402
 20
-0.018
 30
0.0
 11
-0.009717
 21
-0.015765
 31
0.0
  0
LINE
  5
78
330
6F
100
AcDbEntity
  8
0
  6
Continuous
100
AcDbLine
 10
-0.011982
 20
-0.019841
 30
0.0
 11
-0.011982
 21
-0.020478
 31
0.0
  0
LINE
  5
79
330
6F
100
AcDbEntity
  8
0
  6
Continuous
100
AcDbLine
 10
-0.011982
 20
-0.020478
 30
0.0
 11
-0.011402
 21
-0.018
 31
0.0
  0
LINE
  5
7A
330
6F
100
AcDbEntity
  8
0
  6
Continuous
100
AcDbLine
 10
-0.011982
 20
-0.020478
 30
0.0
 11
-0.011402
 21
-0.022955
 31
0.0
  0
LINE
  5
7B
330
6F
100
AcDbEntity
  8
0
  6
Continuous
100
AcDbLine
 10
-0.011402
 20
-0.022955
 30
0.0
 11
-0.009716
 21
-0.025191
 31
0.0
  0
LINE
  5
7C
330
6F
100
AcDbEntity
  8
0
  6
Continuous
100
AcDbLine
 10
-0.009716
 20
-0.025191
 30
0.0
 11
-0.007092
 21
-0.026964
 31
0.0
  0
LINE
  5
7D
330
6F
100
AcDbEntity
  8
0
  6
Continuous
100
AcDbLine
 10
-0.007092
 20
-0.026964
 30
0.0
 11
-0.003785
 21
-0.028103
 31
0.0
  0
LINE
  5
7E
330
6F
100
AcDbEntity
  8
0
  6
Continuous
100
AcDbLine
 10
-0.003785
 20
-0.028103
 30
0.0
 11
-0.000119
 21
-0.028496
 31
0.0
  0
LINE
  5
7F
330
6F
100
AcDbEntity
  8
0
  6
Continuous
100
AcDbLine
 10
-0.000119
 20
-0.028496
 30
0.0
 11
0.003547
 21
-0.028103
 31
0.0
  0
LINE
  5
80
330
6F
100
AcDbEntity
  8
0
  6
Continuous
100
AcDbLine
 10
0.003547
 20
-0.028103
 30
0.0
 11
0.006854
 21
-0.026964
 31
0.0
  0
LINE
  5
81
330
6F
100
AcDbEntity
  8
0
  6
Continuous
100
AcDbLine
 10
0.006854
 20
-0.026964
 30
0.0
 11
0.009479
 21
-0.025191
 31
0.0
  0
LINE
  5
82
330
6F
100
AcDbEntity
  8
0
  6
Continuous
100
AcDbLine
 10
0.009479
 20
-0.025191
 30
0.0
 11
0.011164
 21
-0.022955
 31
0.0
  0
LINE
  5
83
330
6F
100
AcDbEntity
  8
0
  6
Continuous
100
AcDbLine
 10
0.011164
 20
-0.022955
 30
0.0
 11
0.011744
 21
-0.020478
 31
0.0
  0
LINE
  5
84
330
6F
100
AcDbEntity
  8
0
  6
Continuous
100
AcDbLine
 10
0.011744
 20
-0.020478
 30
0.0
 11
0.011744
 21
-0.019841
 31
0.0
  0
LINE
  5
85
330
6F
100
AcDbEntity
  8
0
  6
Continuous
100
AcDbLine
 10
0.011164
 20
-0.018
 30
0.0
 11
0.011744
 21
-0.020478
 31
0.0
  0
LINE
  5
86
330
6F
100
AcDbEntity
  8
0
  6
Continuous
100
AcDbLine
 10
0.009479
 20
-0.015765
 30
0.0
 11
0.011164
 21
-0.018
 31
0.0
  0
LINE
  5
87
330
6F
100
AcDbEntity
  8
0
  6
Continuous
100
AcDbLine
 10
0.006854
 20
-0.013991
 30
0.0
 11
0.009479
 21
-0.015765
 31
0.0
  0
LINE
  5
88
330
6F
100
AcDbEntity
  8
0
  6
Continuous
100
AcDbLine
 10
0.003547
 20
-0.012852
 30
0.0
 11
0.006854
 21
-0.013991
 31
0.0
  0
LINE
  5
89
330
6F
100
AcDbEntity
  8
0
  6
Continuous
100
AcDbLine
 10
-0.000119
 20
-0.01246
 30
0.0
 11
0.003547
 21
-0.012852
 31
0.0
  0
LINE
  5
8A
330
6F
100
AcDbEntity
  8
0
  6
Continuous
100
AcDbLine
 10
-0.003785
 20
-0.012852
 30
0.0
 11
-0.000119
 21
-0.01246
 31
0.0
  0
LINE
  5
8B
330
6F
100
AcDbEntity
  8
0
  6
Continuous
100
AcDbLine
 10
0.011744
 20
-0.019841
 30
0.0
 11
0.011744
 21
-0.015656
 31
0.0
  0
LINE
  5
8C
330
6F
100
AcDbEntity
  8
0
  6
Continuous
100
AcDbLine
 10
-0.011982
 20
-0.015656
 30
0.0
 11
-0.011982
 21
-0.019841
 31
0.0
  0
LINE
  5
8D
330
6F
100
AcDbEntity
  8
0
  6
Continuous
100
AcDbLine
 10
-0.005423
 20
-0.015545
 30
0.0
 11
-0.002907
 21
-0.014679
 31
0.0
  0
LINE
  5
8E
330
6F
100
AcDbEntity
  8
0
  6
Continuous
100
AcDbLine
 10
-0.007419
 20
-0.016894
 30
0.0
 11
-0.005423
 21
-0.015545
 31
0.0
  0
LINE
  5
8F
330
6F
100
AcDbEntity
  8
0
  6
Continuous
100
AcDbLine
 10
-0.0087
 20
-0.018594
 30
0.0
 11
-0.007419
 21
-0.016894
 31
0.0
  0
LINE
  5
90
330
6F
100
AcDbEntity
  8
0
  6
Continuous
100
AcDbLine
 10
-0.009141
 20
-0.020478
 30
0.0
 11
-0.0087
 21
-0.018594
 31
0.0
  0
LINE
  5
91
330
6F
100
AcDbEntity
  8
0
  6
Continuous
100
AcDbLine
 10
0.008462
 20
-0.018594
 30
0.0
 11
0.008903
 21
-0.020478
 31
0.0
  0
LINE
  5
92
330
6F
100
AcDbEntity
  8
0
  6
Continuous
100
AcDbLine
 10
0.007181
 20
-0.016894
 30
0.0
 11
0.008462
 21
-0.018594
 31
0.0
  0
LINE
  5
93
330
6F
100
AcDbEntity
  8
0
  6
Continuous
100
AcDbLine
 10
0.005185
 20
-0.015545
 30
0.0
 11
0.007181
 21
-0.016894
 31
0.0
  0
LINE
  5
94
330
6F
100
AcDbEntity
  8
0
  6
Continuous
100
AcDbLine
 10
0.00267
 20
-0.014679
 30
0.0
 11
0.005185
 21
-0.015545
 31
0.0
  0
LINE
  5
95
330
6F
100
AcDbEntity
  8
0
  6
Continuous
100
AcDbLine
 10
-0.000119
 20
-0.014381
 30
0.0
 11
0.00267
 21
-0.014679
 31
0.0
  0
LINE
  5
96
330
6F
100
AcDbEntity
  8
0
  6
Continuous
100
AcDbLine
 10
-0.002907
 20
-0.014679
 30
0.0
 11
-0.000119
 21
-0.014381
 31
0.0
  0
LINE
  5
97
330
6F
100
AcDbEntity
  8
0
  6
Continuous
100
AcDbLine
 10
-0.005423
 20
-0.025028
 30
0.0
 11
-0.007419
 21
-0.023679
 31
0.0
  0
LINE
  5
98
330
6F
100
AcDbEntity
  8
0
  6
Continuous
100
AcDbLine
 10
-0.007419
 20
-0.024061
 30
0.0
 11
-0.005423
 21
-0.02541
 31
0.0
  0
LINE
  5
99
330
6F
100
AcDbEntity
  8
0
  6
Continuous
100
AcDbLine
 10
0.005185
 20
-0.025028
 30
0.0
 11
0.00267
 21
-0.025894
 31
0.0
  0
LINE
  5
9A
330
6F
100
AcDbEntity
  8
0
  6
Continuous
100
AcDbLine
 10
0.00267
 20
-0.026276
 30
0.0
 11
0.005185
 21
-0.02541
 31
0.0
  0
LINE
  5
9B
330
6F
100
AcDbEntity
  8
0
  6
Continuous
100
AcDbLine
 10
0.007181
 20
-0.023679
 30
0.0
 11
0.005185
 21
-0.025028
 31
0.0
  0
LINE
  5
9C
330
6F
100
AcDbEntity
  8
0
  6
Continuous
100
AcDbLine
 10
0.005185
 20
-0.02541
 30
0.0
 11
0.007181
 21
-0.024061
 31
0.0
  0
LINE
  5
9D
330
6F
100
AcDbEntity
  8
0
  6
Continuous
100
AcDbLine
 10
-0.002907
 20
-0.025894
 30
0.0
 11
-0.005423
 21
-0.025028
 31
0.0
  0
LINE
  5
9E
330
6F
100
AcDbEntity
  8
0
  6
Continuous
100
AcDbLine
 10
-0.005423
 20
-0.02541
 30
0.0
 11
-0.002907
 21
-0.026276
 31
0.0
  0
LINE
  5
9F
330
6F
100
AcDbEntity
  8
0
  6
Continuous
100
AcDbLine
 10
0.008462
 20
-0.02198
 30
0.0
 11
0.007181
 21
-0.023679
 31
0.0
  0
LINE
  5
A0
330
6F
100
AcDbEntity
  8
0
  6
Continuous
100
AcDbLine
 10
0.007181
 20
-0.024061
 30
0.0
 11
0.008462
 21
-0.022361
 31
0.0
  0
LINE
  5
A1
330
6F
100
AcDbEntity
  8
0
  6
Continuous
100
AcDbLine
 10
-0.000119
 20
-0.026193
 30
0.0
 11
-0.002907
 21
-0.025894
 31
0.0
  0
LINE
  5
A2
330
6F
100
AcDbEntity
  8
0
  6
Continuous
100
AcDbLine
 10
-0.002907
 20
-0.026276
 30
0.0
 11
-0.000119
 21
-0.026575
 31
0.0
  0
LINE
  5
A3
330
6F
100
AcDbEntity
  8
0
  6
Continuous
100
AcDbLine
 10
-0.0087
 20
-0.02198
 30
0.0
 11
-0.009141
 21
-0.020096
 31
0.0
  0
LINE
  5
A4
330
6F
100
AcDbEntity
  8
0
  6
Continuous
100
AcDbLine
 10
-0.009141
 20
-0.020478
 30
0.0
 11
-0.0087
 21
-0.022361
 31
0.0
  0
LINE
  5
A5
330
6F
100
AcDbEntity
  8
0
  6
Continuous
100
AcDbLine
 10
0.008903
 20
-0.020096
 30
0.0
 11
0.008462
 21
-0.02198
 31
0.0
  0
LINE
  5
A6
330
6F
100
AcDbEntity
  8
0
  6
Continuous
100
AcDbLine
 10
0.008462
 20
-0.022361
 30
0.0
 11
0.008903
 21
-0.020478
 31
0.0
  0
LINE
  5
A7
330
6F
100
AcDbEntity
  8
0
  6
Continuous
100
AcDbLine
 10
0.00267
 20
-0.025894
 30
0.0
 11
-0.000119
 21
-0.026193
 31
0.0
  0
LINE
  5
A8
330
6F
100
AcDbEntity
  8
0
  6
Continuous
100
AcDbLine
 10
-0.000119
 20
-0.026575
 30
0.0
 11
0.00267
 21
-0.026276
 31
0.0
  0
LINE
  5
A9
330
6F
100
AcDbEntity
  8
0
  6
Continuous
100
AcDbLine
 10
-0.007419
 20
-0.023679
 30
0.0
 11
-0.0087
 21
-0.02198
 31
0.0
  0
LINE
  5
AA
330
6F
100
AcDbEntity
  8
0
  6
Continuous
100
AcDbLine
 10
-0.0087
 20
-0.022361
 30
0.0
 11
-0.007419
 21
-0.024061
 31
0.0
  0
LINE
  5
AB
330
6F
100
AcDbEntity
  8
0
  6
Continuous
100
AcDbLine
 10
0.021883
 20
-0.055548
 30
0.0
 11
0.021985
 21
-0.055557
 31
0.0
  0
LINE
  5
AC
330
6F
100
AcDbEntity
  8
0
  6
Continuous
100
AcDbLine
 10
0.022075
 20
-0.054105
 30
0.0
 11
0.021839
 21
-0.054058
 31
0.0
  0
LINE
  5
AD
330
6F
100
AcDbEntity
  8
0
  6
Continuous
100
AcDbLine
 10
0.02184
 20
-0.054072
 30
0.0
 11
0.022075
 21
-0.054105
 31
0.0
  0
LINE
  5
AE
330
6F
100
AcDbEntity
  8
0
  6
Continuous
100
AcDbLine
 10
0.02189
 20
-0.055807
 30
0.0
 11
0.022731
 21
-0.055645
 31
0.0
  0
LINE
  5
AF
330
6F
100
AcDbEntity
  8
0
  6
Continuous
100
AcDbLine
 10
0.022853
 20
-0.053977
 30
0.0
 11
0.021828
 21
-0.053678
 31
0.0
  0
LINE
  5
B0
330
6F
100
AcDbEntity
  8
0
  6
Continuous
100
AcDbLine
 10
0.022964
 20
-0.055557
 30
0.0
 11
0.023119
 21
-0.054542
 31
0.0
  0
LINE
  5
B1
330
6F
100
AcDbEntity
  8
0
  6
Continuous
100
AcDbLine
 10
0.023119
 20
-0.054542
 30
0.0
 11
0.023059
 21
-0.054105
 31
0.0
  0
LINE
  5
B2
330
6F
100
AcDbEntity
  8
0
  6
Continuous
100
AcDbLine
 10
0.023059
 20
-0.054105
 30
0.0
 11
0.022841
 21
-0.053977
 31
0.0
  0
LINE
  5
B3
330
6F
100
AcDbEntity
  8
0
  6
Continuous
100
AcDbLine
 10
0.022075
 20
-0.054105
 30
0.0
 11
0.023059
 21
-0.054105
 31
0.0
  0
LINE
  5
B4
330
6F
100
AcDbEntity
  8
0
  6
Continuous
100
AcDbLine
 10
0.022964
 20
-0.055557
 30
0.0
 11
0.021985
 21
-0.055557
 31
0.0
  0
LINE
  5
B5
330
6F
100
AcDbEntity
  8
0
  6
Continuous
100
AcDbLine
 10
0.022731
 20
-0.055645
 30
0.0
 11
0.022964
 21
-0.055557
 31
0.0
  0
LINE
  5
B6
330
6F
100
AcDbEntity
  8
0
  6
Continuous
100
AcDbLine
 10
-0.004942
 20
0.084371
 30
0.0
 11
-0.004942
 21
0.084281
 31
0.0
  0
LINE
  5
B7
330
6F
100
AcDbEntity
  8
0
  6
Continuous
100
AcDbLine
 10
-0.001965
 20
0.079632
 30
0.0
 11
-0.001965
 21
0.079542
 31
0.0
  0
LINE
  5
B8
330
6F
100
AcDbEntity
  8
0
  6
Continuous
100
AcDbLine
 10
-0.002561
 20
0.073264
 30
0.0
 11
-0.00353
 21
0.076009
 31
0.0
  0
LINE
  5
B9
330
6F
100
AcDbEntity
  8
0
  6
Continuous
100
AcDbLine
 10
-0.009609
 20
0.047785
 30
0.0
 11
-0.005017
 21
0.047545
 31
0.0
  0
LINE
  5
BA
330
6F
100
AcDbEntity
  8
0
  6
Continuous
100
AcDbLine
 10
-0.00353
 20
0.076009
 30
0.0
 11
-0.001965
 21
0.074673
 31
0.0
  0
LINE
  5
BB
330
6F
100
AcDbEntity
  8
0
  6
Continuous
100
AcDbLine
 10
-0.004942
 20
0.080943
 30
0.0
 11
-0.004942
 21
0.080436
 31
0.0
  0
LINE
  5
BC
330
6F
100
AcDbEntity
  8
0
  6
Continuous
100
AcDbLine
 10
-0.004942
 20
0.084281
 30
0.0
 11
-0.004942
 21
0.081321
 31
0.0
  0
LINE
  5
BD
330
6F
100
AcDbEntity
  8
0
  6
Continuous
100
AcDbLine
 10
-0.001965
 20
0.076205
 30
0.0
 11
-0.001965
 21
0.079542
 31
0.0
  0
LINE
  5
BE
330
6F
100
AcDbEntity
  8
0
  6
Continuous
100
AcDbLine
 10
-0.005221
 20
0.068276
 30
0.0
 11
-0.004455
 21
0.069514
 31
0.0
  0
LINE
  5
BF
330
6F
100
AcDbEntity
  8
0
  6
Continuous
100
AcDbLine
 10
0.004704
 20
0.084281
 30
0.0
 11
0.004704
 21
0.084371
 31
0.0
  0
LINE
  5
C0
330
6F
100
AcDbEntity
  8
0
  6
Continuous
100
AcDbLine
 10
0.002324
 20
0.073264
 30
0.0
 11
0.003292
 21
0.076009
 31
0.0
  0
LINE
  5
C1
330
6F
100
AcDbEntity
  8
0
  6
Continuous
100
AcDbLine
 10
-0.000119
 20
0.079242
 30
0.0
 11
-0.000119
 21
0.079151
 31
0.0
  0
LINE
  5
C2
330
6F
100
AcDbEntity
  8
0
  6
Continuous
100
AcDbLine
 10
0.001727
 20
0.079542
 30
0.0
 11
0.001727
 21
0.079632
 31
0.0
  0
LINE
  5
C3
330
6F
100
AcDbEntity
  8
0
  6
Continuous
100
AcDbLine
 10
0.003228
 20
0.071279
 30
0.0
 11
0.004217
 21
0.069514
 31
0.0
  0
LINE
  5
C4
330
6F
100
AcDbEntity
  8
0
  6
Continuous
100
AcDbLine
 10
0.016488
 20
0.048716
 30
0.0
 11
0.018325
 21
0.049316
 31
0.0
  0
LINE
  5
C5
330
6F
100
AcDbEntity
  8
0
  6
Continuous
100
AcDbLine
 10
0.018885
 20
0.085832
 30
0.0
 11
0.018881
 21
0.086926
 31
0.0
  0
LINE
  5
C6
330
6F
100
AcDbEntity
  8
0
  6
Continuous
100
AcDbLine
 10
-0.000119
 20
0.074228
 30
0.0
 11
-0.000119
 21
0.073152
 31
0.0
  0
LINE
  5
C7
330
6F
100
AcDbEntity
  8
0
  6
Continuous
100
AcDbLine
 10
0.001727
 20
0.074673
 30
0.0
 11
0.003292
 21
0.076009
 31
0.0
  0
LINE
  5
C8
330
6F
100
AcDbEntity
  8
0
  6
Continuous
100
AcDbLine
 10
-0.000119
 20
0.075164
 30
0.0
 11
-0.000119
 21
0.074228
 31
0.0
  0
LINE
  5
C9
330
6F
100
AcDbEntity
  8
0
  6
Continuous
100
AcDbLine
 10
0.004704
 20
0.080436
 30
0.0
 11
0.004704
 21
0.080943
 31
0.0
  0
LINE
  5
CA
330
6F
100
AcDbEntity
  8
0
  6
Continuous
100
AcDbLine
 10
0.004704
 20
0.081321
 30
0.0
 11
0.004704
 21
0.084281
 31
0.0
  0
LINE
  5
CB
330
6F
100
AcDbEntity
  8
0
  6
Continuous
100
AcDbLine
 10
-0.000119
 20
0.079151
 30
0.0
 11
-0.000119
 21
0.075808
 31
0.0
  0
LINE
  5
CC
330
6F
100
AcDbEntity
  8
0
  6
Continuous
100
AcDbLine
 10
0.001727
 20
0.079542
 30
0.0
 11
0.001727
 21
0.076205
 31
0.0
  0
LINE
  5
CD
330
6F
100
AcDbEntity
  8
0
  6
Continuous
100
AcDbLine
 10
0.003292
 20
0.077392
 30
0.0
 11
0.003292
 21
0.080654
 31
0.0
  0
LINE
  5
CE
330
6F
100
AcDbEntity
  8
0
  6
Continuous
100
AcDbLine
 10
0.004217
 20
0.069514
 30
0.0
 11
0.004983
 21
0.068276
 31
0.0
  0
LINE
  5
CF
330
6F
100
AcDbEntity
  8
0
  6
Continuous
100
AcDbLine
 10
-0.003466
 20
0.071279
 30
0.0
 11
-0.004455
 21
0.069514
 31
0.0
  0
LINE
  5
D0
330
6F
100
AcDbEntity
  8
0
  6
Continuous
100
AcDbLine
 10
-0.002561
 20
0.073264
 30
0.0
 11
-0.003816
 21
0.075557
 31
0.0
  0
LINE
  5
D1
330
6F
100
AcDbEntity
  8
0
  6
Continuous
100
AcDbLine
 10
-0.003466
 20
0.071279
 30
0.0
 11
-0.002561
 21
0.073264
 31
0.0
  0
LINE
  5
D2
330
6F
100
AcDbEntity
  8
0
  6
Continuous
100
AcDbLine
 10
0.004504
 20
0.077786
 30
0.0
 11
0.003578
 21
0.075557
 31
0.0
  0
LINE
  5
D3
330
6F
100
AcDbEntity
  8
0
  6
Continuous
100
AcDbLine
 10
0.002324
 20
0.073264
 30
0.0
 11
0.003228
 21
0.071279
 31
0.0
  0
LINE
  5
D4
330
6F
100
AcDbEntity
  8
0
  6
Continuous
100
AcDbLine
 10
0.003578
 20
0.075557
 30
0.0
 11
0.002324
 21
0.073264
 31
0.0
  0
LINE
  5
D5
330
6F
100
AcDbEntity
  8
0
  6
Continuous
100
AcDbLine
 10
-0.018472
 20
0.087578
 30
0.0
 11
-0.019119
 21
0.086926
 31
0.0
  0
LINE
  5
D6
330
6F
100
AcDbEntity
  8
0
  6
Continuous
100
AcDbLine
 10
-0.009619
 20
0.089125
 30
0.0
 11
-0.013554
 21
0.088718
 31
0.0
  0
LINE
  5
D7
330
6F
100
AcDbEntity
  8
0
  6
Continuous
100
AcDbLine
 10
-0.005036
 20
0.089381
 30
0.0
 11
-0.009619
 21
0.089125
 31
0.0
  0
LINE
  5
D8
330
6F
100
AcDbEntity
  8
0
  6
Continuous
100
AcDbLine
 10
-0.000119
 20
0.089468
 30
0.0
 11
-0.005036
 21
0.089381
 31
0.0
  0
LINE
  5
D9
330
6F
100
AcDbEntity
  8
0
  6
Continuous
100
AcDbLine
 10
-0.013554
 20
0.088718
 30
0.0
 11
-0.016573
 21
0.08819
 31
0.0
  0
LINE
  5
DA
330
6F
100
AcDbEntity
  8
0
  6
Continuous
100
AcDbLine
 10
-0.016573
 20
0.08819
 30
0.0
 11
-0.018472
 21
0.087578
 31
0.0
  0
LINE
  5
DB
330
6F
100
AcDbEntity
  8
0
  6
Continuous
100
AcDbLine
 10
-0.006089
 20
0.084555
 30
0.0
 11
-0.007028
 21
0.084617
 31
0.0
  0
LINE
  5
DC
330
6F
100
AcDbEntity
  8
0
  6
Continuous
100
AcDbLine
 10
0.018881
 20
0.086926
 30
0.0
 11
0.018234
 21
0.087578
 31
0.0
  0
LINE
  5
DD
330
6F
100
AcDbEntity
  8
0
  6
Continuous
100
AcDbLine
 10
0.018211
 20
0.086325
 30
0.0
 11
0.018881
 21
0.086926
 31
0.0
  0
LINE
  5
DE
330
6F
100
AcDbEntity
  8
0
  6
Continuous
100
AcDbLine
 10
0.013316
 20
0.088718
 30
0.0
 11
0.009381
 21
0.089124
 31
0.0
  0
LINE
  5
DF
330
6F
100
AcDbEntity
  8
0
  6
Continuous
100
AcDbLine
 10
0.009381
 20
0.089124
 30
0.0
 11
0.004799
 21
0.089381
 31
0.0
  0
LINE
  5
E0
330
6F
100
AcDbEntity
  8
0
  6
Continuous
100
AcDbLine
 10
0.004799
 20
0.089381
 30
0.0
 11
-0.000119
 21
0.089468
 31
0.0
  0
LINE
  5
E1
330
6F
100
AcDbEntity
  8
0
  6
Continuous
100
AcDbLine
 10
0.016336
 20
0.08819
 30
0.0
 11
0.013316
 21
0.088718
 31
0.0
  0
LINE
  5
E2
330
6F
100
AcDbEntity
  8
0
  6
Continuous
100
AcDbLine
 10
0.009381
 20
0.084768
 30
0.0
 11
0.013316
 21
0.085161
 31
0.0
  0
LINE
  5
E3
330
6F
100
AcDbEntity
  8
0
  6
Continuous
100
AcDbLine
 10
0.018234
 20
0.087578
 30
0.0
 11
0.016336
 21
0.08819
 31
0.0
  0
LINE
  5
E4
330
6F
100
AcDbEntity
  8
0
  6
Continuous
100
AcDbLine
 10
0.005852
 20
0.084555
 30
0.0
 11
0.00679
 21
0.084617
 31
0.0
  0
LINE
  5
E5
330
6F
100
AcDbEntity
  8
0
  6
Continuous
100
AcDbLine
 10
0.00679
 20
0.084617
 30
0.0
 11
0.009381
 21
0.084768
 31
0.0
  0
LINE
  5
E6
330
6F
100
AcDbEntity
  8
0
  6
Continuous
100
AcDbLine
 10
-0.005215
 20
0.084578
 30
0.0
 11
-0.006089
 21
0.084555
 31
0.0
  0
LINE
  5
E7
330
6F
100
AcDbEntity
  8
0
  6
Continuous
100
AcDbLine
 10
0.005852
 20
0.084555
 30
0.0
 11
0.004978
 21
0.084578
 31
0.0
  0
LINE
  5
E8
330
6F
100
AcDbEntity
  8
0
  6
Continuous
100
AcDbLine
 10
-0.013665
 20
0.048185
 30
0.0
 11
-0.009609
 21
0.047785
 31
0.0
  0
LINE
  5
E9
330
6F
100
AcDbEntity
  8
0
  6
Continuous
100
AcDbLine
 10
-0.016726
 20
0.048716
 30
0.0
 11
-0.013665
 21
0.048185
 31
0.0
  0
LINE
  5
EA
330
6F
100
AcDbEntity
  8
0
  6
Continuous
100
AcDbLine
 10
-0.016573
 20
0.085675
 30
0.0
 11
-0.018472
 21
0.086276
 31
0.0
  0
LINE
  5
EB
330
6F
100
AcDbEntity
  8
0
  6
Continuous
100
AcDbLine
 10
-0.019119
 20
0.086926
 30
0.0
 11
-0.019123
 21
0.085832
 31
0.0
  0
LINE
  5
EC
330
6F
100
AcDbEntity
  8
0
  6
Continuous
100
AcDbLine
 10
-0.018472
 20
0.086276
 30
0.0
 11
-0.019119
 21
0.086926
 31
0.0
  0
LINE
  5
ED
330
6F
100
AcDbEntity
  8
0
  6
Continuous
100
AcDbLine
 10
0.013427
 20
0.048185
 30
0.0
 11
0.016488
 21
0.048716
 31
0.0
  0
LINE
  5
EE
330
6F
100
AcDbEntity
  8
0
  6
Continuous
100
AcDbLine
 10
-0.005017
 20
0.047545
 30
0.0
 11
-0.000119
 21
0.047455
 31
0.0
  0
LINE
  5
EF
330
6F
100
AcDbEntity
  8
0
  6
Continuous
100
AcDbLine
 10
-0.000119
 20
0.0895
 30
0.0
 11
-0.001965
 21
0.08911
 31
0.0
  0
LINE
  5
F0
330
6F
100
AcDbEntity
  8
0
  6
Continuous
100
AcDbLine
 10
-0.004575
 20
0.086334
 30
0.0
 11
-0.004942
 21
0.084371
 31
0.0
  0
LINE
  5
F1
330
6F
100
AcDbEntity
  8
0
  6
Continuous
100
AcDbLine
 10
-0.004942
 20
0.084371
 30
0.0
 11
-0.004575
 21
0.082408
 31
0.0
  0
LINE
  5
F2
330
6F
100
AcDbEntity
  8
0
  6
Continuous
100
AcDbLine
 10
-0.004575
 20
0.082408
 30
0.0
 11
-0.00353
 21
0.080744
 31
0.0
  0
LINE
  5
F3
330
6F
100
AcDbEntity
  8
0
  6
Continuous
100
AcDbLine
 10
-0.00353
 20
0.080744
 30
0.0
 11
-0.001965
 21
0.079632
 31
0.0
  0
LINE
  5
F4
330
6F
100
AcDbEntity
  8
0
  6
Continuous
100
AcDbLine
 10
-0.001965
 20
0.079632
 30
0.0
 11
-0.000119
 21
0.079242
 31
0.0
  0
LINE
  5
F5
330
6F
100
AcDbEntity
  8
0
  6
Continuous
100
AcDbLine
 10
0.001727
 20
0.08911
 30
0.0
 11
-0.000119
 21
0.0895
 31
0.0
  0
LINE
  5
F6
330
6F
100
AcDbEntity
  8
0
  6
Continuous
100
AcDbLine
 10
0.004704
 20
0.084371
 30
0.0
 11
0.004337
 21
0.086334
 31
0.0
  0
LINE
  5
F7
330
6F
100
AcDbEntity
  8
0
  6
Continuous
100
AcDbLine
 10
0.004337
 20
0.082408
 30
0.0
 11
0.004704
 21
0.084371
 31
0.0
  0
LINE
  5
F8
330
6F
100
AcDbEntity
  8
0
  6
Continuous
100
AcDbLine
 10
0.003292
 20
0.080744
 30
0.0
 11
0.004337
 21
0.082408
 31
0.0
  0
LINE
  5
F9
330
6F
100
AcDbEntity
  8
0
  6
Continuous
100
AcDbLine
 10
0.001727
 20
0.079632
 30
0.0
 11
0.003292
 21
0.080744
 31
0.0
  0
LINE
  5
FA
330
6F
100
AcDbEntity
  8
0
  6
Continuous
100
AcDbLine
 10
-0.000119
 20
0.079242
 30
0.0
 11
0.001727
 21
0.079632
 31
0.0
  0
LINE
  5
FB
330
6F
100
AcDbEntity
  8
0
  6
Continuous
100
AcDbLine
 10
-0.00353
 20
0.087998
 30
0.0
 11
-0.004115
 21
0.087067
 31
0.0
  0
LINE
  5
FC
330
6F
100
AcDbEntity
  8
0
  6
Continuous
100
AcDbLine
 10
-0.002852
 20
0.08848
 30
0.0
 11
-0.00353
 21
0.087998
 31
0.0
  0
LINE
  5
FD
330
6F
100
AcDbEntity
  8
0
  6
Continuous
100
AcDbLine
 10
0.003877
 20
0.087067
 30
0.0
 11
0.003292
 21
0.087998
 31
0.0
  0
LINE
  5
FE
330
6F
100
AcDbEntity
  8
0
  6
Continuous
100
AcDbLine
 10
0.003292
 20
0.087998
 30
0.0
 11
0.002614
 21
0.08848
 31
0.0
  0
LINE
  5
FF
330
6F
100
AcDbEntity
  8
0
  6
Continuous
100
AcDbLine
 10
-0.004115
 20
0.087067
 30
0.0
 11
-0.004575
 21
0.086334
 31
0.0
  0
LINE
  5
100
330
6F
100
AcDbEntity
  8
0
  6
Continuous
100
AcDbLine
 10
-0.001965
 20
0.08911
 30
0.0
 11
-0.002852
 21
0.08848
 31
0.0
  0
LINE
  5
101
330
6F
100
AcDbEntity
  8
0
  6
Continuous
100
AcDbLine
 10
0.002614
 20
0.08848
 30
0.0
 11
0.001727
 21
0.08911
 31
0.0
  0
LINE
  5
102
330
6F
100
AcDbEntity
  8
0
  6
Continuous
100
AcDbLine
 10
0.004337
 20
0.086334
 30
0.0
 11
0.003877
 21
0.087067
 31
0.0
  0
LINE
  5
103
330
6F
100
AcDbEntity
  8
0
  6
Continuous
100
AcDbLine
 10
0.001727
 20
0.076205
 30
0.0
 11
0.001727
 21
0.075579
 31
0.0
  0
LINE
  5
104
330
6F
100
AcDbEntity
  8
0
  6
Continuous
100
AcDbLine
 10
0.003292
 20
0.077392
 30
0.0
 11
0.003292
 21
0.076823
 31
0.0
  0
LINE
  5
105
330
6F
100
AcDbEntity
  8
0
  6
Continuous
100
AcDbLine
 10
0.004704
 20
0.080943
 30
0.0
 11
0.004704
 21
0.081321
 31
0.0
  0
LINE
  5
106
330
6F
100
AcDbEntity
  8
0
  6
Continuous
100
AcDbLine
 10
-0.001965
 20
0.076205
 30
0.0
 11
-0.001965
 21
0.075579
 31
0.0
  0
LINE
  5
107
330
6F
100
AcDbEntity
  8
0
  6
Continuous
100
AcDbLine
 10
-0.000119
 20
0.075164
 30
0.0
 11
-0.000119
 21
0.075808
 31
0.0
  0
LINE
  5
108
330
6F
100
AcDbEntity
  8
0
  6
Continuous
100
AcDbLine
 10
-0.004942
 20
0.081321
 30
0.0
 11
-0.004942
 21
0.080943
 31
0.0
  0
LINE
  5
109
330
6F
100
AcDbEntity
  8
0
  6
Continuous
100
AcDbLine
 10
0.016336
 20
0.085675
 30
0.0
 11
0.013316
 21
0.085161
 31
0.0
  0
LINE
  5
10A
330
6F
100
AcDbEntity
  8
0
  6
Continuous
100
AcDbLine
 10
-0.019123
 20
0.085832
 30
0.0
 11
-0.019133
 21
0.083063
 31
0.0
  0
LINE
  5
10B
330
6F
100
AcDbEntity
  8
0
  6
Continuous
100
AcDbLine
 10
-0.013554
 20
0.085161
 30
0.0
 11
-0.016573
 21
0.085675
 31
0.0
  0
LINE
  5
10C
330
6F
100
AcDbEntity
  8
0
  6
Continuous
100
AcDbLine
 10
-0.009619
 20
0.084768
 30
0.0
 11
-0.013554
 21
0.085161
 31
0.0
  0
LINE
  5
10D
330
6F
100
AcDbEntity
  8
0
  6
Continuous
100
AcDbLine
 10
0.018895
 20
0.083063
 30
0.0
 11
0.018885
 21
0.085832
 31
0.0
  0
LINE
  5
10E
330
6F
100
AcDbEntity
  8
0
  6
Continuous
100
AcDbLine
 10
0.018211
 20
0.086325
 30
0.0
 11
0.016336
 21
0.085675
 31
0.0
  0
LINE
  5
10F
330
6F
100
AcDbEntity
  8
0
  6
Continuous
100
AcDbLine
 10
-0.007028
 20
0.084617
 30
0.0
 11
-0.009619
 21
0.084768
 31
0.0
  0
LINE
  5
110
330
6F
100
AcDbEntity
  8
0
  6
Continuous
100
AcDbLine
 10
0.004779
 20
0.047545
 30
0.0
 11
0.009371
 21
0.047785
 31
0.0
  0
LINE
  5
111
330
6F
100
AcDbEntity
  8
0
  6
Continuous
100
AcDbLine
 10
0.01901
 20
0.050841
 30
0.0
 11
0.018944
 21
0.069215
 31
0.0
  0
LINE
  5
112
330
6F
100
AcDbEntity
  8
0
  6
Continuous
100
AcDbLine
 10
-0.019182
 20
0.069215
 30
0.0
 11
-0.019248
 21
0.050841
 31
0.0
  0
LINE
  5
113
330
6F
100
AcDbEntity
  8
0
  6
Continuous
100
AcDbLine
 10
0.018944
 20
0.069215
 30
0.0
 11
0.018935
 21
0.071984
 31
0.0
  0
LINE
  5
114
330
6F
100
AcDbEntity
  8
0
  6
Continuous
100
AcDbLine
 10
0.018935
 20
0.071984
 30
0.0
 11
0.018925
 21
0.074754
 31
0.0
  0
LINE
  5
115
330
6F
100
AcDbEntity
  8
0
  6
Continuous
100
AcDbLine
 10
0.018925
 20
0.074754
 30
0.0
 11
0.018915
 21
0.077524
 31
0.0
  0
LINE
  5
116
330
6F
100
AcDbEntity
  8
0
  6
Continuous
100
AcDbLine
 10
0.018915
 20
0.077524
 30
0.0
 11
0.018905
 21
0.080293
 31
0.0
  0
LINE
  5
117
330
6F
100
AcDbEntity
  8
0
  6
Continuous
100
AcDbLine
 10
0.018905
 20
0.080293
 30
0.0
 11
0.018895
 21
0.083063
 31
0.0
  0
LINE
  5
118
330
6F
100
AcDbEntity
  8
0
  6
Continuous
100
AcDbLine
 10
-0.019172
 20
0.071984
 30
0.0
 11
-0.019182
 21
0.069215
 31
0.0
  0
LINE
  5
119
330
6F
100
AcDbEntity
  8
0
  6
Continuous
100
AcDbLine
 10
-0.019162
 20
0.074754
 30
0.0
 11
-0.019172
 21
0.071984
 31
0.0
  0
LINE
  5
11A
330
6F
100
AcDbEntity
  8
0
  6
Continuous
100
AcDbLine
 10
-0.019153
 20
0.077524
 30
0.0
 11
-0.019162
 21
0.074754
 31
0.0
  0
LINE
  5
11B
330
6F
100
AcDbEntity
  8
0
  6
Continuous
100
AcDbLine
 10
-0.019143
 20
0.080293
 30
0.0
 11
-0.019153
 21
0.077524
 31
0.0
  0
LINE
  5
11C
330
6F
100
AcDbEntity
  8
0
  6
Continuous
100
AcDbLine
 10
-0.019133
 20
0.083063
 30
0.0
 11
-0.019143
 21
0.080293
 31
0.0
  0
LINE
  5
11D
330
6F
100
AcDbEntity
  8
0
  6
Continuous
100
AcDbLine
 10
-0.019251
 20
0.049957
 30
0.0
 11
-0.018562
 21
0.049316
 31
0.0
  0
LINE
  5
11E
330
6F
100
AcDbEntity
  8
0
  6
Continuous
100
AcDbLine
 10
-0.019248
 20
0.050841
 30
0.0
 11
-0.019251
 21
0.049957
 31
0.0
  0
LINE
  5
11F
330
6F
100
AcDbEntity
  8
0
  6
Continuous
100
AcDbLine
 10
-0.018562
 20
0.049316
 30
0.0
 11
-0.016726
 21
0.048716
 31
0.0
  0
LINE
  5
120
330
6F
100
AcDbEntity
  8
0
  6
Continuous
100
AcDbLine
 10
0.018325
 20
0.049316
 30
0.0
 11
0.019013
 21
0.049957
 31
0.0
  0
LINE
  5
121
330
6F
100
AcDbEntity
  8
0
  6
Continuous
100
AcDbLine
 10
0.019013
 20
0.049957
 30
0.0
 11
0.01901
 21
0.050841
 31
0.0
  0
LINE
  5
122
330
6F
100
AcDbEntity
  8
0
  6
Continuous
100
AcDbLine
 10
0.009371
 20
0.047785
 30
0.0
 11
0.013427
 21
0.048185
 31
0.0
  0
LINE
  5
123
330
6F
100
AcDbEntity
  8
0
  6
Continuous
100
AcDbLine
 10
-0.000119
 20
0.047455
 30
0.0
 11
0.004779
 21
0.047545
 31
0.0
  0
LINE
  5
124
330
6F
100
AcDbEntity
  8
0
  6
Continuous
100
AcDbLine
 10
-0.023087
 20
-0.088529
 30
0.0
 11
-0.023119
 21
-0.0895
 31
0.0
  0
LINE
  5
125
330
6F
100
AcDbEntity
  8
0
  6
Continuous
100
AcDbLine
 10
-0.023119
 20
-0.0895
 30
0.0
 11
-0.022335
 21
-0.0895
 31
0.0
  0
LINE
  5
126
330
6F
100
AcDbEntity
  8
0
  6
Continuous
100
AcDbLine
 10
-0.006072
 20
-0.0895
 30
0.0
 11
-0.000119
 21
-0.0895
 31
0.0
  0
LINE
  5
127
330
6F
100
AcDbEntity
  8
0
  6
Continuous
100
AcDbLine
 10
-0.011619
 20
-0.0895
 30
0.0
 11
-0.006072
 21
-0.0895
 31
0.0
  0
LINE
  5
128
330
6F
100
AcDbEntity
  8
0
  6
Continuous
100
AcDbLine
 10
0.0198
 20
-0.0895
 30
0.0
 11
0.022097
 21
-0.0895
 31
0.0
  0
LINE
  5
129
330
6F
100
AcDbEntity
  8
0
  6
Continuous
100
AcDbLine
 10
0.022881
 20
-0.0895
 30
0.0
 11
0.022849
 21
-0.088529
 31
0.0
  0
LINE
  5
12A
330
6F
100
AcDbEntity
  8
0
  6
Continuous
100
AcDbLine
 10
-0.000119
 20
-0.0895
 30
0.0
 11
0.005834
 21
-0.0895
 31
0.0
  0
LINE
  5
12B
330
6F
100
AcDbEntity
  8
0
  6
Continuous
100
AcDbLine
 10
0.005834
 20
-0.0895
 30
0.0
 11
0.011381
 21
-0.0895
 31
0.0
  0
LINE
  5
12C
330
6F
100
AcDbEntity
  8
0
  6
Continuous
100
AcDbLine
 10
-0.016382
 20
-0.0895
 30
0.0
 11
-0.011619
 21
-0.0895
 31
0.0
  0
LINE
  5
12D
330
6F
100
AcDbEntity
  8
0
  6
Continuous
100
AcDbLine
 10
0.016539
 20
0.015007
 30
0.0
 11
0.013845
 21
0.033549
 31
0.0
  0
LINE
  5
12E
330
6F
100
AcDbEntity
  8
0
  6
Continuous
100
AcDbLine
 10
0.022881
 20
-0.0895
 30
0.0
 11
0.022097
 21
-0.0895
 31
0.0
  0
LINE
  5
12F
330
6F
100
AcDbEntity
  8
0
  6
Continuous
100
AcDbLine
 10
0.0198
 20
-0.0895
 30
0.0
 11
0.016145
 21
-0.0895
 31
0.0
  0
LINE
  5
130
330
6F
100
AcDbEntity
  8
0
  6
Continuous
100
AcDbLine
 10
0.016336
 20
0.047285
 30
0.0
 11
0.018234
 21
0.047887
 31
0.0
  0
LINE
  5
131
330
6F
100
AcDbEntity
  8
0
  6
Continuous
100
AcDbLine
 10
0.009381
 20
0.046378
 30
0.0
 11
0.013316
 21
0.046771
 31
0.0
  0
LINE
  5
132
330
6F
100
AcDbEntity
  8
0
  6
Continuous
100
AcDbLine
 10
0.004799
 20
0.046132
 30
0.0
 11
0.009381
 21
0.046378
 31
0.0
  0
LINE
  5
133
330
6F
100
AcDbEntity
  8
0
  6
Continuous
100
AcDbLine
 10
0.018881
 20
0.048536
 30
0.0
 11
0.018234
 21
0.047887
 31
0.0
  0
LINE
  5
134
330
6F
100
AcDbEntity
  8
0
  6
Continuous
100
AcDbLine
 10
0.018896
 20
0.047565
 30
0.0
 11
0.018881
 21
0.048536
 31
0.0
  0
LINE
  5
135
330
6F
100
AcDbEntity
  8
0
  6
Continuous
100
AcDbLine
 10
0.018881
 20
0.048536
 30
0.0
 11
0.018234
 21
0.049189
 31
0.0
  0
LINE
  5
136
330
6F
100
AcDbEntity
  8
0
  6
Continuous
100
AcDbLine
 10
0.013316
 20
0.046771
 30
0.0
 11
0.016336
 21
0.047285
 31
0.0
  0
LINE
  5
137
330
6F
100
AcDbEntity
  8
0
  6
Continuous
100
AcDbLine
 10
-0.000119
 20
0.046048
 30
0.0
 11
0.004799
 21
0.046132
 31
0.0
  0
LINE
  5
138
330
6F
100
AcDbEntity
  8
0
  6
Continuous
100
AcDbLine
 10
0.01014
 20
-0.023701
 30
0.0
 11
0.01358
 21
-0.019788
 31
0.0
  0
LINE
  5
139
330
6F
100
AcDbEntity
  8
0
  6
Continuous
100
AcDbLine
 10
0.01358
 20
-0.019788
 30
0.0
 11
0.015083
 21
-0.015102
 31
0.0
  0
LINE
  5
13A
330
6F
100
AcDbEntity
  8
0
  6
Continuous
100
AcDbLine
 10
0.015083
 20
-0.015102
 30
0.0
 11
0.015107
 21
-0.014679
 31
0.0
  0
LINE
  5
13B
330
6F
100
AcDbEntity
  8
0
  6
Continuous
100
AcDbLine
 10
0.013614
 20
-0.010489
 30
0.0
 11
0.015083
 21
-0.015102
 31
0.0
  0
LINE
  5
13C
330
6F
100
AcDbEntity
  8
0
  6
Continuous
100
AcDbLine
 10
0.005501
 20
-0.004712
 30
0.0
 11
-0.000119
 21
-0.003897
 31
0.0
  0
LINE
  5
13D
330
6F
100
AcDbEntity
  8
0
  6
Continuous
100
AcDbLine
 10
0.010292
 20
-0.007015
 30
0.0
 11
0.005501
 21
-0.004712
 31
0.0
  0
LINE
  5
13E
330
6F
100
AcDbEntity
  8
0
  6
Continuous
100
AcDbLine
 10
0.013614
 20
-0.010489
 30
0.0
 11
0.010292
 21
-0.007015
 31
0.0
  0
LINE
  5
13F
330
6F
100
AcDbEntity
  8
0
  6
Continuous
100
AcDbLine
 10
0.019327
 20
0.031715
 30
0.0
 11
0.018896
 21
0.047565
 31
0.0
  0
LINE
  5
140
330
6F
100
AcDbEntity
  8
0
  6
Continuous
100
AcDbLine
 10
-0.019565
 20
0.031715
 30
0.0
 11
-0.019996
 21
0.017004
 31
0.0
  0
LINE
  5
141
330
6F
100
AcDbEntity
  8
0
  6
Continuous
100
AcDbLine
 10
-0.016874
 20
0.015227
 30
0.0
 11
-0.017701
 21
-0.005858
 31
0.0
  0
LINE
  5
142
330
6F
100
AcDbEntity
  8
0
  6
Continuous
100
AcDbLine
 10
0.016539
 20
0.015007
 30
0.0
 11
0.013516
 21
0.026537
 31
0.0
  0
LINE
  5
143
330
6F
100
AcDbEntity
  8
0
  6
Continuous
100
AcDbLine
 10
0.016548
 20
0.014103
 30
0.0
 11
0.016539
 21
0.015007
 31
0.0
  0
LINE
  5
144
330
6F
100
AcDbEntity
  8
0
  6
Continuous
100
AcDbLine
 10
0.013516
 20
0.026537
 30
0.0
 11
0.009492
 21
0.028822
 31
0.0
  0
LINE
  5
145
330
6F
100
AcDbEntity
  8
0
  6
Continuous
100
AcDbLine
 10
-0.000119
 20
0.030551
 30
0.0
 11
0.004847
 21
0.030087
 31
0.0
  0
LINE
  5
146
330
6F
100
AcDbEntity
  8
0
  6
Continuous
100
AcDbLine
 10
0.004847
 20
0.030087
 30
0.0
 11
0.009492
 21
0.028822
 31
0.0
  0
LINE
  5
147
330
6F
100
AcDbEntity
  8
0
  6
Continuous
100
AcDbLine
 10
0.016578
 20
0.011951
 30
0.0
 11
0.016562
 21
0.013026
 31
0.0
  0
LINE
  5
148
330
6F
100
AcDbEntity
  8
0
  6
Continuous
100
AcDbLine
 10
0.013613
 20
0.02252
 30
0.0
 11
0.013677
 21
0.01928
 31
0.0
  0
LINE
  5
149
330
6F
100
AcDbEntity
  8
0
  6
Continuous
100
AcDbLine
 10
0.016562
 20
0.013026
 30
0.0
 11
0.016548
 21
0.014103
 31
0.0
  0
LINE
  5
14A
330
6F
100
AcDbEntity
  8
0
  6
Continuous
100
AcDbLine
 10
0.013516
 20
0.026537
 30
0.0
 11
0.013613
 21
0.02252
 31
0.0
  0
LINE
  5
14B
330
6F
100
AcDbEntity
  8
0
  6
Continuous
100
AcDbLine
 10
0.020394
 20
-0.004718
 30
0.0
 11
0.019758
 21
0.017004
 31
0.0
  0
LINE
  5
14C
330
6F
100
AcDbEntity
  8
0
  6
Continuous
100
AcDbLine
 10
0.015107
 20
-0.014679
 30
0.0
 11
0.016578
 21
0.011951
 31
0.0
  0
LINE
  5
14D
330
6F
100
AcDbEntity
  8
0
  6
Continuous
100
AcDbLine
 10
-0.019996
 20
0.017004
 30
0.0
 11
-0.020632
 21
-0.004718
 31
0.0
  0
LINE
  5
14E
330
6F
100
AcDbEntity
  8
0
  6
Continuous
100
AcDbLine
 10
0.019758
 20
0.017004
 30
0.0
 11
0.019327
 21
0.031715
 31
0.0
  0
LINE
  5
14F
330
6F
100
AcDbEntity
  8
0
  6
Continuous
100
AcDbLine
 10
-0.016779
 20
0.014866
 30
0.0
 11
-0.014082
 21
0.033549
 31
0.0
  0
LINE
  5
150
330
6F
100
AcDbEntity
  8
0
  6
Continuous
100
AcDbLine
 10
-0.016382
 20
-0.0895
 30
0.0
 11
-0.020038
 21
-0.0895
 31
0.0
  0
LINE
  5
151
330
6F
100
AcDbEntity
  8
0
  6
Continuous
100
AcDbLine
 10
-0.020038
 20
-0.0895
 30
0.0
 11
-0.022335
 21
-0.0895
 31
0.0
  0
LINE
  5
152
330
6F
100
AcDbEntity
  8
0
  6
Continuous
100
AcDbLine
 10
-0.018472
 20
0.047887
 30
0.0
 11
-0.016573
 21
0.047285
 31
0.0
  0
LINE
  5
153
330
6F
100
AcDbEntity
  8
0
  6
Continuous
100
AcDbLine
 10
-0.013554
 20
0.046771
 30
0.0
 11
-0.009619
 21
0.046378
 31
0.0
  0
LINE
  5
154
330
6F
100
AcDbEntity
  8
0
  6
Continuous
100
AcDbLine
 10
-0.009619
 20
0.046378
 30
0.0
 11
-0.005036
 21
0.046132
 31
0.0
  0
LINE
  5
155
330
6F
100
AcDbEntity
  8
0
  6
Continuous
100
AcDbLine
 10
-0.019119
 20
0.048536
 30
0.0
 11
-0.019134
 21
0.047565
 31
0.0
  0
LINE
  5
156
330
6F
100
AcDbEntity
  8
0
  6
Continuous
100
AcDbLine
 10
-0.018472
 20
0.047887
 30
0.0
 11
-0.019119
 21
0.048536
 31
0.0
  0
LINE
  5
157
330
6F
100
AcDbEntity
  8
0
  6
Continuous
100
AcDbLine
 10
-0.018472
 20
0.049189
 30
0.0
 11
-0.019119
 21
0.048536
 31
0.0
  0
LINE
  5
158
330
6F
100
AcDbEntity
  8
0
  6
Continuous
100
AcDbLine
 10
-0.016573
 20
0.047285
 30
0.0
 11
-0.013554
 21
0.046771
 31
0.0
  0
LINE
  5
159
330
6F
100
AcDbEntity
  8
0
  6
Continuous
100
AcDbLine
 10
-0.005036
 20
0.046132
 30
0.0
 11
-0.000119
 21
0.046048
 31
0.0
  0
LINE
  5
15A
330
6F
100
AcDbEntity
  8
0
  6
Continuous
100
AcDbLine
 10
-0.013818
 20
-0.019788
 30
0.0
 11
-0.010378
 21
-0.023701
 31
0.0
  0
LINE
  5
15B
330
6F
100
AcDbEntity
  8
0
  6
Continuous
100
AcDbLine
 10
-0.015321
 20
-0.015102
 30
0.0
 11
-0.013818
 21
-0.019788
 31
0.0
  0
LINE
  5
15C
330
6F
100
AcDbEntity
  8
0
  6
Continuous
100
AcDbLine
 10
-0.015321
 20
-0.015102
 30
0.0
 11
-0.013851
 21
-0.010489
 31
0.0
  0
LINE
  5
15D
330
6F
100
AcDbEntity
  8
0
  6
Continuous
100
AcDbLine
 10
-0.015344
 20
-0.014679
 30
0.0
 11
-0.015321
 21
-0.015102
 31
0.0
  0
LINE
  5
15E
330
6F
100
AcDbEntity
  8
0
  6
Continuous
100
AcDbLine
 10
-0.000119
 20
-0.003897
 30
0.0
 11
-0.005739
 21
-0.004712
 31
0.0
  0
LINE
  5
15F
330
6F
100
AcDbEntity
  8
0
  6
Continuous
100
AcDbLine
 10
-0.005739
 20
-0.004712
 30
0.0
 11
-0.01053
 21
-0.007015
 31
0.0
  0
LINE
  5
160
330
6F
100
AcDbEntity
  8
0
  6
Continuous
100
AcDbLine
 10
-0.01053
 20
-0.007015
 30
0.0
 11
-0.013851
 21
-0.010489
 31
0.0
  0
LINE
  5
161
330
6F
100
AcDbEntity
  8
0
  6
Continuous
100
AcDbLine
 10
-0.019134
 20
0.047565
 30
0.0
 11
-0.019565
 21
0.031715
 31
0.0
  0
LINE
  5
162
330
6F
100
AcDbEntity
  8
0
  6
Continuous
100
AcDbLine
 10
-0.020632
 20
-0.004718
 30
0.0
 11
-0.023087
 21
-0.088529
 31
0.0
  0
LINE
  5
163
330
6F
100
AcDbEntity
  8
0
  6
Continuous
100
AcDbLine
 10
0.011381
 20
-0.0895
 30
0.0
 11
0.016145
 21
-0.0895
 31
0.0
  0
LINE
  5
164
330
6F
100
AcDbEntity
  8
0
  6
Continuous
100
AcDbLine
 10
-0.016779
 20
0.014866
 30
0.0
 11
-0.016786
 21
0.014103
 31
0.0
  0
LINE
  5
165
330
6F
100
AcDbEntity
  8
0
  6
Continuous
100
AcDbLine
 10
-0.016779
 20
0.014866
 30
0.0
 11
-0.013754
 21
0.026537
 31
0.0
  0
LINE
  5
166
330
6F
100
AcDbEntity
  8
0
  6
Continuous
100
AcDbLine
 10
-0.009729
 20
0.028822
 30
0.0
 11
-0.013754
 21
0.026537
 31
0.0
  0
LINE
  5
167
330
6F
100
AcDbEntity
  8
0
  6
Continuous
100
AcDbLine
 10
-0.005085
 20
0.030087
 30
0.0
 11
-0.000119
 21
0.030551
 31
0.0
  0
LINE
  5
168
330
6F
100
AcDbEntity
  8
0
  6
Continuous
100
AcDbLine
 10
-0.009729
 20
0.028822
 30
0.0
 11
-0.005085
 21
0.030087
 31
0.0
  0
LINE
  5
169
330
6F
100
AcDbEntity
  8
0
  6
Continuous
100
AcDbLine
 10
-0.013915
 20
0.01928
 30
0.0
 11
-0.013851
 21
0.02252
 31
0.0
  0
LINE
  5
16A
330
6F
100
AcDbEntity
  8
0
  6
Continuous
100
AcDbLine
 10
-0.0168
 20
0.013026
 30
0.0
 11
-0.016816
 21
0.011951
 31
0.0
  0
LINE
  5
16B
330
6F
100
AcDbEntity
  8
0
  6
Continuous
100
AcDbLine
 10
-0.013851
 20
0.02252
 30
0.0
 11
-0.013754
 21
0.026537
 31
0.0
  0
LINE
  5
16C
330
6F
100
AcDbEntity
  8
0
  6
Continuous
100
AcDbLine
 10
-0.016786
 20
0.014103
 30
0.0
 11
-0.0168
 21
0.013026
 31
0.0
  0
LINE
  5
16D
330
6F
100
AcDbEntity
  8
0
  6
Continuous
100
AcDbLine
 10
-0.016816
 20
0.011951
 30
0.0
 11
-0.015344
 21
-0.014679
 31
0.0
  0
LINE
  5
16E
330
6F
100
AcDbEntity
  8
0
  6
Continuous
100
AcDbLine
 10
0.022849
 20
-0.088529
 30
0.0
 11
0.020394
 21
-0.004718
 31
0.0
  0
LINE
  5
16F
330
6F
100
AcDbEntity
  8
0
  6
Continuous
100
AcDbLine
 10
0.009122
 20
-0.010635
 30
0.0
 11
0.009479
 21
-0.01088
 31
0.0
  0
LINE
  5
170
330
6F
100
AcDbEntity
  8
0
  6
Continuous
100
AcDbLine
 10
-0.012381
 20
0.046897
 30
0.0
 11
-0.012014
 21
0.046861
 31
0.0
  0
LINE
  5
171
330
6F
100
AcDbEntity
  8
0
  6
Continuous
100
AcDbLine
 10
0.01161
 20
-0.015076
 30
0.0
 11
0.011744
 21
-0.015656
 31
0.0
  0
LINE
  5
172
330
6F
100
AcDbEntity
  8
0
  6
Continuous
100
AcDbLine
 10
-0.003785
 20
-0.007928
 30
0.0
 11
-0.000119
 21
-0.00753
 31
0.0
  0
LINE
  5
173
330
6F
100
AcDbEntity
  8
0
  6
Continuous
100
AcDbLine
 10
-0.009717
 20
-0.01088
 30
0.0
 11
-0.00936
 21
-0.010636
 31
0.0
  0
LINE
  5
174
330
6F
100
AcDbEntity
  8
0
  6
Continuous
100
AcDbLine
 10
-0.000119
 20
-0.00753
 30
0.0
 11
0.003547
 21
-0.007928
 31
0.0
  0
LINE
  5
175
330
6F
100
AcDbEntity
  8
0
  6
Continuous
100
AcDbLine
 10
-0.011848
 20
-0.015076
 30
0.0
 11
-0.011982
 21
-0.015656
 31
0.0
  0
LINE
  5
316
330
6F
100
AcDbEntity
  8
0
  6
Continuous
100
AcDbLine
 10
0.1270558878716142
 20
-0.0284960096936529
 30
0.0
 11
0.1276138878716142
 21
-0.0278580096936529
 31
0.0
  0
LINE
  5
317
330
6F
100
AcDbEntity
  8
0
  6
Continuous
100
AcDbLine
 10
0.1266278878716142
 20
-0.0281030096936529
 30
0.0
 11
0.1270558878716142
 21
-0.0284960096936529
 31
0.0
  0
LINE
  5
318
330
6F
100
AcDbEntity
  8
0
  6
Continuous
100
AcDbLine
 10
0.1253868878716142
 20
-0.0269640096936529
 30
0.0
 11
0.1266278878716142
 21
-0.0281030096936529
 31
0.0
  0
LINE
  5
319
330
6F
100
AcDbEntity
  8
0
  6
Continuous
100
AcDbLine
 10
0.1234548878716142
 20
-0.0251910096936529
 30
0.0
 11
0.1253868878716142
 21
-0.0269640096936529
 31
0.0
  0
LINE
  5
31A
330
6F
100
AcDbEntity
  8
0
  6
Continuous
100
AcDbLine
 10
0.1210198878716142
 20
-0.0229550096936529
 30
0.0
 11
0.1234548878716142
 21
-0.0251910096936529
 31
0.0
  0
LINE
  5
31B
330
6F
100
AcDbEntity
  8
0
  6
Continuous
100
AcDbLine
 10
0.1183208878716142
 20
-0.0204780096936529
 30
0.0
 11
0.1210198878716142
 21
-0.0229550096936529
 31
0.0
  0
LINE
  5
31C
330
6F
100
AcDbEntity
  8
0
  6
Continuous
100
AcDbLine
 10
0.1156218878716142
 20
-0.0180000096936529
 30
0.0
 11
0.1183208878716142
 21
-0.0204780096936529
 31
0.0
  0
LINE
  5
31D
330
6F
100
AcDbEntity
  8
0
  6
Continuous
100
AcDbLine
 10
0.1131868878716142
 20
-0.0157650096936529
 30
0.0
 11
0.1156218878716142
 21
-0.0180000096936529
 31
0.0
  0
LINE
  5
31E
330
6F
100
AcDbEntity
  8
0
  6
Continuous
100
AcDbLine
 10
0.1112548878716142
 20
-0.0139910096936529
 30
0.0
 11
0.1131868878716142
 21
-0.0157650096936529
 31
0.0
  0
LINE
  5
31F
330
6F
100
AcDbEntity
  8
0
  6
Continuous
100
AcDbLine
 10
0.1100138878716142
 20
-0.0128520096936529
 30
0.0
 11
0.1112548878716142
 21
-0.0139910096936529
 31
0.0
  0
LINE
  5
320
330
6F
100
AcDbEntity
  8
0
  6
Continuous
100
AcDbLine
 10
0.1101448878716142
 20
-0.0118230096936529
 30
0.0
 11
0.1095868878716142
 21
-0.0124600096936529
 31
0.0
  0
LINE
  5
321
330
6F
100
AcDbEntity
  8
0
  6
Continuous
100
AcDbLine
 10
0.1095868878716142
 20
-0.0124600096936529
 30
0.0
 11
0.1100138878716142
 21
-0.0128520096936529
 31
0.0
  0
LINE
  5
322
330
6F
100
AcDbEntity
  8
0
  6
Continuous
100
AcDbLine
 10
0.1276138878716142
 20
-0.0278580096936529
 30
0.0
 11
0.1313558878716142
 21
-0.0237820096936529
 31
0.0
  0
LINE
  5
323
330
6F
100
AcDbEntity
  8
0
  6
Continuous
100
AcDbLine
 10
0.1140858878716142
 20
-0.0075300096936529
 30
0.0
 11
0.1101448878716142
 21
-0.0118230096936529
 31
0.0
  0
LINE
  5
324
330
6F
100
AcDbEntity
  8
0
  6
Continuous
100
AcDbLine
 10
0.2340768878716142
 20
-0.0576080096936529
 30
0.0
 11
0.2336778878716142
 21
-0.0581650096936529
 31
0.0
  0
LINE
  5
325
330
6F
100
AcDbEntity
  8
0
  6
Continuous
100
AcDbLine
 10
0.2342828878716142
 20
-0.0578800096936529
 30
0.0
 11
0.2346958878716142
 21
-0.0571880096936529
 31
0.0
  0
LINE
  5
326
330
6F
100
AcDbEntity
  8
0
  6
Continuous
100
AcDbLine
 10
0.2397618878716142
 20
-0.0556350096936529
 30
0.0
 11
0.2361568878716142
 21
-0.0552710096936529
 31
0.0
  0
LINE
  5
327
330
6F
100
AcDbEntity
  8
0
  6
Continuous
100
AcDbLine
 10
0.2397618878716142
 20
-0.0556350096936529
 30
0.0
 11
0.2365818878716142
 21
-0.0558560096936529
 31
0.0
  0
LINE
  5
328
330
6F
100
AcDbEntity
  8
0
  6
Continuous
100
AcDbLine
 10
0.2373168878716142
 20
-0.0560360096936529
 30
0.0
 11
0.2411518878716142
 21
-0.0558960096936529
 31
0.0
  0
LINE
  5
329
330
6F
100
AcDbEntity
  8
0
  6
Continuous
100
AcDbLine
 10
0.2437118878716142
 20
-0.0555570096936529
 30
0.0
 11
0.2416238878716142
 21
-0.0556450096936529
 31
0.0
  0
LINE
  5
32A
330
6F
100
AcDbEntity
  8
0
  6
Continuous
100
AcDbLine
 10
0.2361568878716142
 20
-0.0552710096936529
 30
0.0
 11
0.2395748878716142
 21
-0.0555570096936529
 31
0.0
  0
LINE
  5
32B
330
6F
100
AcDbEntity
  8
0
  6
Continuous
100
AcDbLine
 10
0.2336788878716142
 20
-0.0554320096936529
 30
0.0
 11
0.2329488878716142
 21
-0.0559360096936529
 31
0.0
  0
LINE
  5
32C
330
6F
100
AcDbEntity
  8
0
  6
Continuous
100
AcDbLine
 10
0.2345498878716142
 20
-0.0571390096936529
 30
0.0
 11
0.2351098878716142
 21
-0.0568570096936529
 31
0.0
  0
LINE
  5
32D
330
6F
100
AcDbEntity
  8
0
  6
Continuous
100
AcDbLine
 10
0.2339068878716142
 20
-0.0563500096936529
 30
0.0
 11
0.2333208878716142
 21
-0.0567250096936529
 31
0.0
  0
LINE
  5
32E
330
6F
100
AcDbEntity
  8
0
  6
Continuous
100
AcDbLine
 10
0.2411598878716142
 20
-0.0536140096936529
 30
0.0
 11
0.2375888878716142
 21
-0.0531660096936529
 31
0.0
  0
LINE
  5
32F
330
6F
100
AcDbEntity
  8
0
  6
Continuous
100
AcDbLine
 10
0.2325058878716142
 20
-0.0578800096936529
 30
0.0
 11
0.2327738878716142
 21
-0.0571880096936529
 31
0.0
  0
LINE
  5
330
330
6F
100
AcDbEntity
  8
0
  6
Continuous
100
AcDbLine
 10
0.2321908878716142
 20
-0.0564370096936529
 30
0.0
 11
0.2317668878716142
 21
-0.0573220096936529
 31
0.0
  0
LINE
  5
331
330
6F
100
AcDbEntity
  8
0
  6
Continuous
100
AcDbLine
 10
0.2310918878716142
 20
-0.0569330096936529
 30
0.0
 11
0.2305708878716142
 21
-0.0577590096936529
 31
0.0
  0
LINE
  5
332
330
6F
100
AcDbEntity
  8
0
  6
Continuous
100
AcDbLine
 10
0.2322638878716142
 20
-0.0585800096936529
 30
0.0
 11
0.2325058878716142
 21
-0.0578800096936529
 31
0.0
  0
LINE
  5
333
330
6F
100
AcDbEntity
  8
0
  6
Continuous
100
AcDbLine
 10
0.2317668878716142
 20
-0.0573220096936529
 30
0.0
 11
0.2315688878716142
 21
-0.0582990096936529
 31
0.0
  0
LINE
  5
334
330
6F
100
AcDbEntity
  8
0
  6
Continuous
100
AcDbLine
 10
0.2333208878716142
 20
-0.0567250096936529
 30
0.0
 11
0.2327948878716142
 21
-0.0571700096936529
 31
0.0
  0
LINE
  5
335
330
6F
100
AcDbEntity
  8
0
  6
Continuous
100
AcDbLine
 10
0.2336788878716142
 20
-0.0554320096936529
 30
0.0
 11
0.2361568878716142
 21
-0.0552710096936529
 31
0.0
  0
LINE
  5
336
330
6F
100
AcDbEntity
  8
0
  6
Continuous
100
AcDbLine
 10
0.2336408878716142
 20
-0.0544540096936529
 30
0.0
 11
0.2360498878716142
 21
-0.0539620096936529
 31
0.0
  0
LINE
  5
337
330
6F
100
AcDbEntity
  8
0
  6
Continuous
100
AcDbLine
 10
0.2395848878716142
 20
-0.0541050096936529
 30
0.0
 11
0.2361648878716142
 21
-0.0534560096936529
 31
0.0
  0
LINE
  5
338
330
6F
100
AcDbEntity
  8
0
  6
Continuous
100
AcDbLine
 10
0.2360648878716142
 20
-0.0536660096936529
 30
0.0
 11
0.2395848878716142
 21
-0.0541050096936529
 31
0.0
  0
LINE
  5
339
330
6F
100
AcDbEntity
  8
0
  6
Continuous
100
AcDbLine
 10
0.2326938878716142
 20
-0.0548040096936529
 30
0.0
 11
0.2337608878716142
 21
-0.0541670096936529
 31
0.0
  0
LINE
  5
33A
330
6F
100
AcDbEntity
  8
0
  6
Continuous
100
AcDbLine
 10
0.2340288878716142
 20
-0.0538710096936529
 30
0.0
 11
0.2328178878716142
 21
-0.0545530096936529
 31
0.0
  0
LINE
  5
33B
330
6F
100
AcDbEntity
  8
0
  6
Continuous
100
AcDbLine
 10
0.2316828878716142
 20
-0.0556410096936529
 30
0.0
 11
0.2326938878716142
 21
-0.0548040096936529
 31
0.0
  0
LINE
  5
33C
330
6F
100
AcDbEntity
  8
0
  6
Continuous
100
AcDbLine
 10
0.2328178878716142
 20
-0.0545530096936529
 30
0.0
 11
0.2316988878716142
 21
-0.0554580096936529
 31
0.0
  0
LINE
  5
33D
330
6F
100
AcDbEntity
  8
0
  6
Continuous
100
AcDbLine
 10
0.2309208878716142
 20
-0.0567280096936529
 30
0.0
 11
0.2316828878716142
 21
-0.0556410096936529
 31
0.0
  0
LINE
  5
33E
330
6F
100
AcDbEntity
  8
0
  6
Continuous
100
AcDbLine
 10
0.2316988878716142
 20
-0.0554580096936529
 30
0.0
 11
0.2308458878716142
 21
-0.0565660096936529
 31
0.0
  0
LINE
  5
33F
330
6F
100
AcDbEntity
  8
0
  6
Continuous
100
AcDbLine
 10
0.2308458878716142
 20
-0.0565660096936529
 30
0.0
 11
0.2301788878716142
 21
-0.0574360096936529
 31
0.0
  0
LINE
  5
340
330
6F
100
AcDbEntity
  8
0
  6
Continuous
100
AcDbLine
 10
0.2337608878716142
 20
-0.0541670096936529
 30
0.0
 11
0.2360648878716142
 21
-0.0536660096936529
 31
0.0
  0
LINE
  5
341
330
6F
100
AcDbEntity
  8
0
  6
Continuous
100
AcDbLine
 10
0.2428448878716142
 20
-0.0536140096936529
 30
0.0
 11
0.2411598878716142
 21
-0.0536140096936529
 31
0.0
  0
LINE
  5
342
330
6F
100
AcDbEntity
  8
0
  6
Continuous
100
AcDbLine
 10
0.2427058878716142
 20
-0.0555570096936529
 30
0.0
 11
0.2437118878716142
 21
-0.0555570096936529
 31
0.0
  0
LINE
  5
343
330
6F
100
AcDbEntity
  8
0
  6
Continuous
100
AcDbLine
 10
0.2413848878716142
 20
-0.0555570096936529
 30
0.0
 11
0.2421198878716142
 21
-0.0555570096936529
 31
0.0
  0
LINE
  5
344
330
6F
100
AcDbEntity
  8
0
  6
Continuous
100
AcDbLine
 10
0.2414048878716142
 20
-0.0541050096936529
 30
0.0
 11
0.2422518878716142
 21
-0.0541050096936529
 31
0.0
  0
LINE
  5
345
330
6F
100
AcDbEntity
  8
0
  6
Continuous
100
AcDbLine
 10
0.2433968878716142
 20
-0.0559090096936529
 30
0.0
 11
0.2416238878716142
 21
-0.0556450096936529
 31
0.0
  0
LINE
  5
346
330
6F
100
AcDbEntity
  8
0
  6
Continuous
100
AcDbLine
 10
0.2411518878716142
 20
-0.0558960096936529
 30
0.0
 11
0.2433968878716142
 21
-0.0559090096936529
 31
0.0
  0
LINE
  5
347
330
6F
100
AcDbEntity
  8
0
  6
Continuous
100
AcDbLine
 10
0.2437518878716142
 20
-0.0536140096936529
 30
0.0
 11
0.2428448878716142
 21
-0.0536140096936529
 31
0.0
  0
LINE
  5
348
330
6F
100
AcDbEntity
  8
0
  6
Continuous
100
AcDbLine
 10
0.2415568878716142
 20
-0.0539770096936529
 30
0.0
 11
0.2424848878716142
 21
-0.0539770096936529
 31
0.0
  0
LINE
  5
349
330
6F
100
AcDbEntity
  8
0
  6
Continuous
100
AcDbLine
 10
0.2437518878716142
 20
-0.0536140096936529
 30
0.0
 11
0.2424848878716142
 21
-0.0539770096936529
 31
0.0
  0
LINE
  5
34A
330
6F
100
AcDbEntity
  8
0
  6
Continuous
100
AcDbLine
 10
0.2413848878716142
 20
-0.0555570096936529
 30
0.0
 11
0.2413618878716142
 21
-0.0545420096936529
 31
0.0
  0
LINE
  5
34B
330
6F
100
AcDbEntity
  8
0
  6
Continuous
100
AcDbLine
 10
0.2413618878716142
 20
-0.0545420096936529
 30
0.0
 11
0.2414048878716142
 21
-0.0541050096936529
 31
0.0
  0
LINE
  5
34C
330
6F
100
AcDbEntity
  8
0
  6
Continuous
100
AcDbLine
 10
0.2395848878716142
 20
-0.0541050096936529
 30
0.0
 11
0.2414048878716142
 21
-0.0541050096936529
 31
0.0
  0
LINE
  5
34D
330
6F
100
AcDbEntity
  8
0
  6
Continuous
100
AcDbLine
 10
0.2413848878716142
 20
-0.0555570096936529
 30
0.0
 11
0.2395748878716142
 21
-0.0555570096936529
 31
0.0
  0
LINE
  5
34E
330
6F
100
AcDbEntity
  8
0
  6
Continuous
100
AcDbLine
 10
0.2421198878716142
 20
-0.0555570096936529
 30
0.0
 11
0.2427058878716142
 21
-0.0555570096936529
 31
0.0
  0
LINE
  5
34F
330
6F
100
AcDbEntity
  8
0
  6
Continuous
100
AcDbLine
 10
0.2365818878716142
 20
-0.0558560096936529
 30
0.0
 11
0.2339068878716142
 21
-0.0563500096936529
 31
0.0
  0
LINE
  5
350
330
6F
100
AcDbEntity
  8
0
  6
Continuous
100
AcDbLine
 10
0.2424848878716142
 20
-0.0539770096936529
 30
0.0
 11
0.2422518878716142
 21
-0.0541050096936529
 31
0.0
  0
LINE
  5
351
330
6F
100
AcDbEntity
  8
0
  6
Continuous
100
AcDbLine
 10
0.2422518878716142
 20
-0.0541050096936529
 30
0.0
 11
0.2422078878716142
 21
-0.0545420096936529
 31
0.0
  0
LINE
  5
352
330
6F
100
AcDbEntity
  8
0
  6
Continuous
100
AcDbLine
 10
0.2351978878716142
 20
-0.0535950096936529
 30
0.0
 11
0.2340288878716142
 21
-0.0538710096936529
 31
0.0
  0
LINE
  5
353
330
6F
100
AcDbEntity
  8
0
  6
Continuous
100
AcDbLine
 10
0.2375888878716142
 20
-0.0531660096936529
 30
0.0
 11
0.2351978878716142
 21
-0.0535950096936529
 31
0.0
  0
LINE
  5
354
330
6F
100
AcDbEntity
  8
0
  6
Continuous
100
AcDbLine
 10
0.2340288878716142
 20
-0.0538710096936529
 30
0.0
 11
0.2361648878716142
 21
-0.0534560096936529
 31
0.0
  0
LINE
  5
355
330
6F
100
AcDbEntity
  8
0
  6
Continuous
100
AcDbLine
 10
0.2315688878716142
 20
-0.0582990096936529
 30
0.0
 11
0.2295858878716142
 21
-0.0676440096936529
 31
0.0
  0
LINE
  5
356
330
6F
100
AcDbEntity
  8
0
  6
Continuous
100
AcDbLine
 10
0.2322638878716142
 20
-0.0585800096936529
 30
0.0
 11
0.2300868878716142
 21
-0.0691930096936529
 31
0.0
  0
LINE
  5
357
330
6F
100
AcDbEntity
  8
0
  6
Continuous
100
AcDbLine
 10
0.2301788878716142
 20
-0.0574360096936529
 30
0.0
 11
0.2291458878716142
 21
-0.0621380096936529
 31
0.0
  0
LINE
  5
358
330
6F
100
AcDbEntity
  8
0
  6
Continuous
100
AcDbLine
 10
0.2433968878716142
 20
-0.0559090096936529
 30
0.0
 11
0.2440738878716142
 21
-0.0556450096936529
 31
0.0
  0
LINE
  5
359
330
6F
100
AcDbEntity
  8
0
  6
Continuous
100
AcDbLine
 10
0.2437118878716142
 20
-0.0555570096936529
 30
0.0
 11
0.2433968878716142
 21
-0.0559090096936529
 31
0.0
  0
LINE
  5
35A
330
6F
100
AcDbEntity
  8
0
  6
Continuous
100
AcDbLine
 10
0.2437118878716142
 20
-0.0555570096936529
 30
0.0
 11
0.2440738878716142
 21
-0.0556450096936529
 31
0.0
  0
LINE
  5
35B
330
6F
100
AcDbEntity
  8
0
  6
Continuous
100
AcDbLine
 10
0.2440738878716142
 20
-0.0556450096936529
 30
0.0
 11
0.2443938878716142
 21
-0.0555570096936529
 31
0.0
  0
LINE
  5
35C
330
6F
100
AcDbEntity
  8
0
  6
Continuous
100
AcDbLine
 10
0.2336778878716142
 20
-0.0581650096936529
 30
0.0
 11
0.2333148878716142
 21
-0.0587610096936529
 31
0.0
  0
LINE
  5
35D
330
6F
100
AcDbEntity
  8
0
  6
Continuous
100
AcDbLine
 10
0.2339178878716142
 20
-0.0585800096936529
 30
0.0
 11
0.2342828878716142
 21
-0.0578800096936529
 31
0.0
  0
LINE
  5
35E
330
6F
100
AcDbEntity
  8
0
  6
Continuous
100
AcDbLine
 10
0.2345498878716142
 20
-0.0571390096936529
 30
0.0
 11
0.2340768878716142
 21
-0.0576080096936529
 31
0.0
  0
LINE
  5
35F
330
6F
100
AcDbEntity
  8
0
  6
Continuous
100
AcDbLine
 10
0.2346958878716142
 20
-0.0571880096936529
 30
0.0
 11
0.2351888878716142
 21
-0.0567250096936529
 31
0.0
  0
LINE
  5
360
330
6F
100
AcDbEntity
  8
0
  6
Continuous
100
AcDbLine
 10
0.2437118878716142
 20
-0.0555570096936529
 30
0.0
 11
0.2443938878716142
 21
-0.0555570096936529
 31
0.0
  0
LINE
  5
361
330
6F
100
AcDbEntity
  8
0
  6
Continuous
100
AcDbLine
 10
0.2444838878716142
 20
-0.0539770096936529
 30
0.0
 11
0.2437518878716142
 21
-0.0536140096936529
 31
0.0
  0
LINE
  5
362
330
6F
100
AcDbEntity
  8
0
  6
Continuous
100
AcDbLine
 10
0.2444438878716142
 20
-0.0555570096936529
 30
0.0
 11
0.2445948878716142
 21
-0.0545420096936529
 31
0.0
  0
LINE
  5
363
330
6F
100
AcDbEntity
  8
0
  6
Continuous
100
AcDbLine
 10
0.2443938878716142
 20
-0.0555570096936529
 30
0.0
 11
0.2444438878716142
 21
-0.0555570096936529
 31
0.0
  0
LINE
  5
364
330
6F
100
AcDbEntity
  8
0
  6
Continuous
100
AcDbLine
 10
0.2351098878716142
 20
-0.0568570096936529
 30
0.0
 11
0.2382948878716142
 21
-0.0558560096936529
 31
0.0
  0
LINE
  5
365
330
6F
100
AcDbEntity
  8
0
  6
Continuous
100
AcDbLine
 10
0.2445948878716142
 20
-0.0545420096936529
 30
0.0
 11
0.2445538878716142
 21
-0.0541050096936529
 31
0.0
  0
LINE
  5
366
330
6F
100
AcDbEntity
  8
0
  6
Continuous
100
AcDbLine
 10
0.2445538878716142
 20
-0.0541050096936529
 30
0.0
 11
0.2444838878716142
 21
-0.0539770096936529
 31
0.0
  0
LINE
  5
367
330
6F
100
AcDbEntity
  8
0
  6
Continuous
100
AcDbLine
 10
0.2316468878716142
 20
-0.0688980096936529
 30
0.0
 11
0.2339178878716142
 21
-0.0585800096936529
 31
0.0
  0
LINE
  5
368
330
6F
100
AcDbEntity
  8
0
  6
Continuous
100
AcDbLine
 10
0.2333148878716142
 20
-0.0587610096936529
 30
0.0
 11
0.2309578878716142
 21
-0.0697850096936529
 31
0.0
  0
LINE
  5
369
330
6F
100
AcDbEntity
  8
0
  6
Continuous
100
AcDbLine
 10
0.2291228878716142
 20
-0.0647110096936529
 30
0.0
 11
0.2305708878716142
 21
-0.0577590096936529
 31
0.0
  0
LINE
  5
36A
330
6F
100
AcDbEntity
  8
0
  6
Continuous
100
AcDbLine
 10
0.1918228878716142
 20
0.0875179903063471
 30
0.0
 11
0.1883888878716142
 21
0.0870509903063472
 31
0.0
  0
LINE
  5
36B
330
6F
100
AcDbEntity
  8
0
  6
Continuous
100
AcDbLine
 10
0.1883888878716142
 20
0.0870509903063472
 30
0.0
 11
0.1827718878716142
 21
0.0863249903063471
 31
0.0
  0
LINE
  5
36C
330
6F
100
AcDbEntity
  8
0
  6
Continuous
100
AcDbLine
 10
0.1209828878716142
 20
0.0894999903063472
 30
0.0
 11
0.1209368878716142
 21
0.0891099903063472
 31
0.0
  0
LINE
  5
36D
330
6F
100
AcDbEntity
  8
0
  6
Continuous
100
AcDbLine
 10
0.1215658878716142
 20
0.0894099903063472
 30
0.0
 11
0.1209828878716142
 21
0.0894999903063472
 31
0.0
  0
LINE
  5
36E
330
6F
100
AcDbEntity
  8
0
  6
Continuous
100
AcDbLine
 10
0.1822268878716142
 20
0.0866529903063471
 30
0.0
 11
0.1783288878716142
 21
0.0864059903063471
 31
0.0
  0
LINE
  5
36F
330
6F
100
AcDbEntity
  8
0
  6
Continuous
100
AcDbLine
 10
0.1744238878716142
 20
0.0863209903063472
 30
0.0
 11
0.1705078878716142
 21
0.0863989903063472
 31
0.0
  0
LINE
  5
370
330
6F
100
AcDbEntity
  8
0
  6
Continuous
100
AcDbLine
 10
0.2006748878716142
 20
0.0887179903063472
 30
0.0
 11
0.1968228878716142
 21
0.0881899903063472
 31
0.0
  0
LINE
  5
371
330
6F
100
AcDbEntity
  8
0
  6
Continuous
100
AcDbLine
 10
0.1986598878716142
 20
0.0505939903063472
 30
0.0
 11
0.2032358878716142
 21
0.0511939903063472
 31
0.0
  0
LINE
  5
372
330
6F
100
AcDbEntity
  8
0
  6
Continuous
100
AcDbLine
 10
0.1664488878716142
 20
0.0866319903063472
 30
0.0
 11
0.1215658878716142
 21
0.0894099903063472
 31
0.0
  0
LINE
  5
373
330
6F
100
AcDbEntity
  8
0
  6
Continuous
100
AcDbLine
 10
0.1203768878716142
 20
0.0843709903063472
 30
0.0
 11
0.1201478878716142
 21
0.0824079903063472
 31
0.0
  0
LINE
  5
374
330
6F
100
AcDbEntity
  8
0
  6
Continuous
100
AcDbLine
 10
0.1696988878716142
 20
0.0711559903063472
 30
0.0
 11
0.1707838878716142
 21
0.0693229903063472
 31
0.0
  0
LINE
  5
375
330
6F
100
AcDbEntity
  8
0
  6
Continuous
100
AcDbLine
 10
0.1201478878716142
 20
0.0824079903063472
 30
0.0
 11
0.1199538878716142
 21
0.0807439903063472
 31
0.0
  0
LINE
  5
376
330
6F
100
AcDbEntity
  8
0
  6
Continuous
100
AcDbLine
 10
0.1687088878716142
 20
0.0732639903063471
 30
0.0
 11
0.1672498878716142
 21
0.0760089903063471
 31
0.0
  0
LINE
  5
377
330
6F
100
AcDbEntity
  8
0
  6
Continuous
100
AcDbLine
 10
0.1199538878716142
 20
0.0807439903063472
 30
0.0
 11
0.1198248878716142
 21
0.0796319903063472
 31
0.0
  0
LINE
  5
378
330
6F
100
AcDbEntity
  8
0
  6
Continuous
100
AcDbLine
 10
0.1197788878716142
 20
0.0792419903063471
 30
0.0
 11
0.1203618878716142
 21
0.0791509903063472
 31
0.0
  0
LINE
  5
379
330
6F
100
AcDbEntity
  8
0
  6
Continuous
100
AcDbLine
 10
0.1204078878716142
 20
0.0795419903063472
 30
0.0
 11
0.1198248878716142
 21
0.0796319903063472
 31
0.0
  0
LINE
  5
37A
330
6F
100
AcDbEntity
  8
0
  6
Continuous
100
AcDbLine
 10
0.1701538878716142
 20
0.0712789903063471
 30
0.0
 11
0.1713688878716142
 21
0.0695139903063471
 31
0.0
  0
LINE
  5
37B
330
6F
100
AcDbEntity
  8
0
  6
Continuous
100
AcDbLine
 10
0.1843308878716142
 20
0.0487159903063472
 30
0.0
 11
0.1889118878716142
 21
0.0493159903063472
 31
0.0
  0
LINE
  5
37C
330
6F
100
AcDbEntity
  8
0
  6
Continuous
100
AcDbLine
 10
0.1715028878716142
 20
0.0847679903063472
 30
0.0
 11
0.1705038878716142
 21
0.0846169903063472
 31
0.0
  0
LINE
  5
37D
330
6F
100
AcDbEntity
  8
0
  6
Continuous
100
AcDbLine
 10
0.2016228878716142
 20
0.0888469903063472
 30
0.0
 11
0.1985828878716142
 21
0.0884359903063472
 31
0.0
  0
LINE
  5
37E
330
6F
100
AcDbEntity
  8
0
  6
Continuous
100
AcDbLine
 10
0.1875548878716142
 20
0.0869259903063472
 30
0.0
 11
0.1827718878716142
 21
0.0863249903063471
 31
0.0
  0
LINE
  5
37F
330
6F
100
AcDbEntity
  8
0
  6
Continuous
100
AcDbLine
 10
0.1670278878716142
 20
0.0742279903063472
 30
0.0
 11
0.1683488878716142
 21
0.0731519903063472
 31
0.0
  0
LINE
  5
380
330
6F
100
AcDbEntity
  8
0
  6
Continuous
100
AcDbLine
 10
0.2128828878716142
 20
0.0524579903063472
 30
0.0
 11
0.2127218878716142
 21
0.0533439903063472
 31
0.0
  0
LINE
  5
381
330
6F
100
AcDbEntity
  8
0
  6
Continuous
100
AcDbLine
 10
0.2121798878716142
 20
0.0523659903063472
 30
0.0
 11
0.2128828878716142
 21
0.0524579903063472
 31
0.0
  0
LINE
  5
382
330
6F
100
AcDbEntity
  8
0
  6
Continuous
100
AcDbLine
 10
0.1713768878716142
 20
0.0679079903063472
 30
0.0
 11
0.1716808878716142
 21
0.0660429903063471
 31
0.0
  0
LINE
  5
383
330
6F
100
AcDbEntity
  8
0
  6
Continuous
100
AcDbLine
 10
0.1952438878716142
 20
0.0879829903063472
 30
0.0
 11
0.1918228878716142
 21
0.0875179903063471
 31
0.0
  0
LINE
  5
384
330
6F
100
AcDbEntity
  8
0
  6
Continuous
100
AcDbLine
 10
0.1671848878716142
 20
0.0746729903063471
 30
0.0
 11
0.1672498878716142
 21
0.0760089903063471
 31
0.0
  0
LINE
  5
385
330
6F
100
AcDbEntity
  8
0
  6
Continuous
100
AcDbLine
 10
0.1653128878716142
 20
0.0751639903063472
 30
0.0
 11
0.1670278878716142
 21
0.0742279903063472
 31
0.0
  0
LINE
  5
386
330
6F
100
AcDbEntity
  8
0
  6
Continuous
100
AcDbLine
 10
0.1705078878716142
 20
0.0863989903063472
 30
0.0
 11
0.1687238878716142
 21
0.0865019903063472
 31
0.0
  0
LINE
  5
387
330
6F
100
AcDbEntity
  8
0
  6
Continuous
100
AcDbLine
 10
0.1668168878716142
 20
0.0860399903063472
 30
0.0
 11
0.1685288878716142
 21
0.0859019903063471
 31
0.0
  0
LINE
  5
388
330
6F
100
AcDbEntity
  8
0
  6
Continuous
100
AcDbLine
 10
0.1203618878716142
 20
0.0791509903063472
 30
0.0
 11
0.1631298878716142
 21
0.0758079903063471
 31
0.0
  0
LINE
  5
389
330
6F
100
AcDbEntity
  8
0
  6
Continuous
100
AcDbLine
 10
0.1204078878716142
 20
0.0795419903063472
 30
0.0
 11
0.1632798878716142
 21
0.0762049903063472
 31
0.0
  0
LINE
  5
38A
330
6F
100
AcDbEntity
  8
0
  6
Continuous
100
AcDbLine
 10
0.1633518878716142
 20
0.0773919903063472
 30
0.0
 11
0.1205368878716142
 21
0.0806539903063472
 31
0.0
  0
LINE
  5
38B
330
6F
100
AcDbEntity
  8
0
  6
Continuous
100
AcDbLine
 10
0.1707838878716142
 20
0.0693229903063472
 30
0.0
 11
0.1713768878716142
 21
0.0679079903063472
 31
0.0
  0
LINE
  5
38C
330
6F
100
AcDbEntity
  8
0
  6
Continuous
100
AcDbLine
 10
0.1861428878716142
 20
0.0867449903063472
 30
0.0
 11
0.1822268878716142
 21
0.0866529903063471
 31
0.0
  0
LINE
  5
38D
330
6F
100
AcDbEntity
  8
0
  6
Continuous
100
AcDbLine
 10
0.1713688878716142
 20
0.0695139903063471
 30
0.0
 11
0.1720958878716142
 21
0.0682759903063472
 31
0.0
  0
LINE
  5
38E
330
6F
100
AcDbEntity
  8
0
  6
Continuous
100
AcDbLine
 10
0.1985828878716142
 20
0.0884359903063472
 30
0.0
 11
0.1952438878716142
 21
0.0879829903063472
 31
0.0
  0
LINE
  5
38F
330
6F
100
AcDbEntity
  8
0
  6
Continuous
100
AcDbLine
 10
0.1783288878716142
 20
0.0864059903063471
 30
0.0
 11
0.1744238878716142
 21
0.0863209903063472
 31
0.0
  0
LINE
  5
390
330
6F
100
AcDbEntity
  8
0
  6
Continuous
100
AcDbLine
 10
0.1683488878716142
 20
0.0731519903063472
 30
0.0
 11
0.1696988878716142
 21
0.0711559903063472
 31
0.0
  0
LINE
  5
391
330
6F
100
AcDbEntity
  8
0
  6
Continuous
100
AcDbLine
 10
0.1682728878716142
 20
0.0777859903063472
 30
0.0
 11
0.1684538878716142
 21
0.0755569903063471
 31
0.0
  0
LINE
  5
392
330
6F
100
AcDbEntity
  8
0
  6
Continuous
100
AcDbLine
 10
0.1687088878716142
 20
0.0732639903063471
 30
0.0
 11
0.1701538878716142
 21
0.0712789903063471
 31
0.0
  0
LINE
  5
393
330
6F
100
AcDbEntity
  8
0
  6
Continuous
100
AcDbLine
 10
0.1684538878716142
 20
0.0755569903063471
 30
0.0
 11
0.1687088878716142
 21
0.0732639903063471
 31
0.0
  0
LINE
  5
394
330
6F
100
AcDbEntity
  8
0
  6
Continuous
100
AcDbLine
 10
0.2006748878716142
 20
0.0887179903063472
 30
0.0
 11
0.2036378878716142
 21
0.0891239903063472
 31
0.0
  0
LINE
  5
395
330
6F
100
AcDbEntity
  8
0
  6
Continuous
100
AcDbLine
 10
0.1715028878716142
 20
0.0847679903063472
 30
0.0
 11
0.1744558878716142
 21
0.0851609903063472
 31
0.0
  0
LINE
  5
396
330
6F
100
AcDbEntity
  8
0
  6
Continuous
100
AcDbLine
 10
0.1696368878716142
 20
0.0845549903063472
 30
0.0
 11
0.1705038878716142
 21
0.0846169903063472
 31
0.0
  0
LINE
  5
397
330
6F
100
AcDbEntity
  8
0
  6
Continuous
100
AcDbLine
 10
0.1686958878716142
 20
0.0845779903063472
 30
0.0
 11
0.1677048878716142
 21
0.0846439903063472
 31
0.0
  0
LINE
  5
398
330
6F
100
AcDbEntity
  8
0
  6
Continuous
100
AcDbLine
 10
0.1696368878716142
 20
0.0845549903063472
 30
0.0
 11
0.1686958878716142
 21
0.0845779903063472
 31
0.0
  0
LINE
  5
399
330
6F
100
AcDbEntity
  8
0
  6
Continuous
100
AcDbLine
 10
0.1666358878716142
 20
0.0847989903063472
 30
0.0
 11
0.1667488878716142
 21
0.0838389903063472
 31
0.0
  0
LINE
  5
39A
330
6F
100
AcDbEntity
  8
0
  6
Continuous
100
AcDbLine
 10
0.1666358878716142
 20
0.0847989903063472
 30
0.0
 11
0.1677048878716142
 21
0.0846439903063472
 31
0.0
  0
LINE
  5
39B
330
6F
100
AcDbEntity
  8
0
  6
Continuous
100
AcDbLine
 10
0.1208058878716142
 20
0.0879979903063472
 30
0.0
 11
0.1206948878716142
 21
0.0870669903063472
 31
0.0
  0
LINE
  5
39C
330
6F
100
AcDbEntity
  8
0
  6
Continuous
100
AcDbLine
 10
0.1631298878716142
 20
0.0758079903063471
 30
0.0
 11
0.1653128878716142
 21
0.0751639903063472
 31
0.0
  0
LINE
  5
39D
330
6F
100
AcDbEntity
  8
0
  6
Continuous
100
AcDbLine
 10
0.1802848878716142
 20
0.0481849903063472
 30
0.0
 11
0.1843308878716142
 21
0.0487159903063472
 31
0.0
  0
LINE
  5
39E
330
6F
100
AcDbEntity
  8
0
  6
Continuous
100
AcDbLine
 10
0.2055048878716142
 20
0.0893809903063472
 30
0.0
 11
0.2036378878716142
 21
0.0891239903063472
 31
0.0
  0
LINE
  5
39F
330
6F
100
AcDbEntity
  8
0
  6
Continuous
100
AcDbLine
 10
0.1794148878716142
 20
0.0858279903063472
 30
0.0
 11
0.1717268878716142
 21
0.0847979903063472
 31
0.0
  0
LINE
  5
3A0
330
6F
100
AcDbEntity
  8
0
  6
Continuous
100
AcDbLine
 10
0.1904378878716142
 20
0.0873299903063472
 30
0.0
 11
0.1882898878716142
 21
0.0870369903063472
 31
0.0
  0
LINE
  5
3A1
330
6F
100
AcDbEntity
  8
0
  6
Continuous
100
AcDbLine
 10
0.1197788878716142
 20
0.0792419903063471
 30
0.0
 11
0.1198248878716142
 21
0.0796319903063472
 31
0.0
  0
LINE
  5
3A2
330
6F
100
AcDbEntity
  8
0
  6
Continuous
100
AcDbLine
 10
0.1208618878716142
 20
0.0884799903063472
 30
0.0
 11
0.1208058878716142
 21
0.0879979903063472
 31
0.0
  0
LINE
  5
3A3
330
6F
100
AcDbEntity
  8
0
  6
Continuous
100
AcDbLine
 10
0.1632798878716142
 20
0.0762049903063472
 30
0.0
 11
0.1654668878716142
 21
0.0755789903063472
 31
0.0
  0
LINE
  5
3A4
330
6F
100
AcDbEntity
  8
0
  6
Continuous
100
AcDbLine
 10
0.1633518878716142
 20
0.0773919903063472
 30
0.0
 11
0.1655348878716142
 21
0.0768229903063472
 31
0.0
  0
LINE
  5
3A5
330
6F
100
AcDbEntity
  8
0
  6
Continuous
100
AcDbLine
 10
0.1206088878716142
 20
0.0863339903063472
 30
0.0
 11
0.1203768878716142
 21
0.0843709903063472
 31
0.0
  0
LINE
  5
3A6
330
6F
100
AcDbEntity
  8
0
  6
Continuous
100
AcDbLine
 10
0.1206948878716142
 20
0.0870669903063472
 30
0.0
 11
0.1206088878716142
 21
0.0863339903063472
 31
0.0
  0
LINE
  5
3A7
330
6F
100
AcDbEntity
  8
0
  6
Continuous
100
AcDbLine
 10
0.1687238878716142
 20
0.0865019903063472
 30
0.0
 11
0.1664488878716142
 21
0.0866319903063472
 31
0.0
  0
LINE
  5
3A8
330
6F
100
AcDbEntity
  8
0
  6
Continuous
100
AcDbLine
 10
0.1215198878716142
 20
0.0890189903063472
 30
0.0
 11
0.1209368878716142
 21
0.0891099903063472
 31
0.0
  0
LINE
  5
3A9
330
6F
100
AcDbEntity
  8
0
  6
Continuous
100
AcDbLine
 10
0.1209368878716142
 20
0.0891099903063472
 30
0.0
 11
0.1208618878716142
 21
0.0884799903063472
 31
0.0
  0
LINE
  5
3AA
330
6F
100
AcDbEntity
  8
0
  6
Continuous
100
AcDbLine
 10
0.2110518878716142
 20
0.0507989903063472
 30
0.0
 11
0.2107748878716142
 21
0.0529209903063471
 31
0.0
  0
LINE
  5
3AB
330
6F
100
AcDbEntity
  8
0
  6
Continuous
100
AcDbLine
 10
0.1986598878716142
 20
0.0505939903063472
 30
0.0
 11
0.1937968878716142
 21
0.0499569903063472
 31
0.0
  0
LINE
  5
3AC
330
6F
100
AcDbEntity
  8
0
  6
Continuous
100
AcDbLine
 10
0.1762188878716142
 20
0.0483919903063472
 30
0.0
 11
0.1765358878716142
 21
0.0459829903063472
 31
0.0
  0
LINE
  5
3AD
330
6F
100
AcDbEntity
  8
0
  6
Continuous
100
AcDbLine
 10
0.1782978878716142
 20
0.0856749903063472
 30
0.0
 11
0.1744558878716142
 21
0.0851609903063472
 31
0.0
  0
LINE
  5
3AE
330
6F
100
AcDbEntity
  8
0
  6
Continuous
100
AcDbLine
 10
0.2063418878716142
 20
0.0883739903063472
 30
0.0
 11
0.2061418878716142
 21
0.0894679903063472
 31
0.0
  0
LINE
  5
3AF
330
6F
100
AcDbEntity
  8
0
  6
Continuous
100
AcDbLine
 10
0.2061418878716142
 20
0.0894679903063472
 30
0.0
 11
0.2055048878716142
 21
0.0893809903063472
 31
0.0
  0
LINE
  5
3B0
330
6F
100
AcDbEntity
  8
0
  6
Continuous
100
AcDbLine
 10
0.1923488878716142
 20
0.0875779903063472
 30
0.0
 11
0.1875548878716142
 21
0.0869259903063472
 31
0.0
  0
LINE
  5
3B1
330
6F
100
AcDbEntity
  8
0
  6
Continuous
100
AcDbLine
 10
0.1827718878716142
 20
0.0863249903063471
 30
0.0
 11
0.1782978878716142
 21
0.0856749903063472
 31
0.0
  0
LINE
  5
3B2
330
6F
100
AcDbEntity
  8
0
  6
Continuous
100
AcDbLine
 10
0.1968228878716142
 20
0.0881899903063472
 30
0.0
 11
0.1923488878716142
 21
0.0875779903063472
 31
0.0
  0
LINE
  5
3B3
330
6F
100
AcDbEntity
  8
0
  6
Continuous
100
AcDbLine
 10
0.1753988878716142
 20
0.0475449903063472
 30
0.0
 11
0.1772308878716142
 21
0.0477849903063472
 31
0.0
  0
LINE
  5
3B4
330
6F
100
AcDbEntity
  8
0
  6
Continuous
100
AcDbLine
 10
0.1716808878716142
 20
0.0660429903063471
 30
0.0
 11
0.1745718878716142
 21
0.0483089903063472
 31
0.0
  0
LINE
  5
3B5
330
6F
100
AcDbEntity
  8
0
  6
Continuous
100
AcDbLine
 10
0.2093718878716142
 20
0.0717379903063472
 30
0.0
 11
0.2088668878716142
 21
0.0745109903063471
 31
0.0
  0
LINE
  5
3B6
330
6F
100
AcDbEntity
  8
0
  6
Continuous
100
AcDbLine
 10
0.2068468878716142
 20
0.0856009903063472
 30
0.0
 11
0.2063418878716142
 21
0.0883739903063472
 31
0.0
  0
LINE
  5
3B7
330
6F
100
AcDbEntity
  8
0
  6
Continuous
100
AcDbLine
 10
0.2073518878716142
 20
0.0828289903063472
 30
0.0
 11
0.2068468878716142
 21
0.0856009903063472
 31
0.0
  0
LINE
  5
3B8
330
6F
100
AcDbEntity
  8
0
  6
Continuous
100
AcDbLine
 10
0.2078568878716142
 20
0.0800559903063471
 30
0.0
 11
0.2073518878716142
 21
0.0828289903063472
 31
0.0
  0
LINE
  5
3B9
330
6F
100
AcDbEntity
  8
0
  6
Continuous
100
AcDbLine
 10
0.2083618878716142
 20
0.0772829903063471
 30
0.0
 11
0.2078568878716142
 21
0.0800559903063471
 31
0.0
  0
LINE
  5
3BA
330
6F
100
AcDbEntity
  8
0
  6
Continuous
100
AcDbLine
 10
0.2088668878716142
 20
0.0745109903063471
 30
0.0
 11
0.2083618878716142
 21
0.0772829903063471
 31
0.0
  0
LINE
  5
3BB
330
6F
100
AcDbEntity
  8
0
  6
Continuous
100
AcDbLine
 10
0.2103078878716142
 20
0.0521209903063472
 30
0.0
 11
0.2121798878716142
 21
0.0523659903063472
 31
0.0
  0
LINE
  5
3BC
330
6F
100
AcDbEntity
  8
0
  6
Continuous
100
AcDbLine
 10
0.1889118878716142
 20
0.0493159903063472
 30
0.0
 11
0.1937968878716142
 21
0.0499569903063472
 31
0.0
  0
LINE
  5
3BD
330
6F
100
AcDbEntity
  8
0
  6
Continuous
100
AcDbLine
 10
0.2072918878716142
 20
0.0517249903063472
 30
0.0
 11
0.2103078878716142
 21
0.0521209903063472
 31
0.0
  0
LINE
  5
3BE
330
6F
100
AcDbEntity
  8
0
  6
Continuous
100
AcDbLine
 10
0.1772308878716142
 20
0.0477849903063472
 30
0.0
 11
0.1802848878716142
 21
0.0481849903063472
 31
0.0
  0
LINE
  5
3BF
330
6F
100
AcDbEntity
  8
0
  6
Continuous
100
AcDbLine
 10
0.2032358878716142
 20
0.0511939903063472
 30
0.0
 11
0.2072918878716142
 21
0.0517249903063472
 31
0.0
  0
LINE
  5
3C0
330
6F
100
AcDbEntity
  8
0
  6
Continuous
100
AcDbLine
 10
0.1745718878716142
 20
0.0483089903063472
 30
0.0
 11
0.1747118878716142
 21
0.0474549903063472
 31
0.0
  0
LINE
  5
3C1
330
6F
100
AcDbEntity
  8
0
  6
Continuous
100
AcDbLine
 10
0.1747118878716142
 20
0.0474549903063472
 30
0.0
 11
0.1753988878716142
 21
0.0475449903063472
 31
0.0
  0
LINE
  5
3C2
330
6F
100
AcDbEntity
  8
0
  6
Continuous
100
AcDbLine
 10
0.2127218878716142
 20
0.0533439903063472
 30
0.0
 11
0.2093718878716142
 21
0.0717379903063472
 31
0.0
  0
LINE
  5
3C3
330
6F
100
AcDbEntity
  8
0
  6
Continuous
100
AcDbLine
 10
0.1894268878716142
 20
0.0155689903063472
 30
0.0
 11
0.1892318878716142
 21
-0.0064640096936529
 31
0.0
  0
LINE
  5
3C4
330
6F
100
AcDbEntity
  8
0
  6
Continuous
100
AcDbLine
 10
0.2156678878716142
 20
-0.0895000096936529
 30
0.0
 11
0.2216218878716142
 21
-0.0895000096936529
 31
0.0
  0
LINE
  5
3C5
330
6F
100
AcDbEntity
  8
0
  6
Continuous
100
AcDbLine
 10
0.2216218878716142
 20
-0.0895000096936529
 30
0.0
 11
0.2271688878716142
 21
-0.0895000096936529
 31
0.0
  0
LINE
  5
3C6
330
6F
100
AcDbEntity
  8
0
  6
Continuous
100
AcDbLine
 10
0.2386708878716142
 20
-0.0895000096936529
 30
0.0
 11
0.2385038878716142
 21
-0.0885320096936529
 31
0.0
  0
LINE
  5
3C7
330
6F
100
AcDbEntity
  8
0
  6
Continuous
100
AcDbLine
 10
0.2378868878716142
 20
-0.0895000096936529
 30
0.0
 11
0.2386708878716142
 21
-0.0895000096936529
 31
0.0
  0
LINE
  5
3C8
330
6F
100
AcDbEntity
  8
0
  6
Continuous
100
AcDbLine
 10
0.2271688878716142
 20
-0.0895000096936529
 30
0.0
 11
0.2319328878716142
 21
-0.0895000096936529
 31
0.0
  0
LINE
  5
3C9
330
6F
100
AcDbEntity
  8
0
  6
Continuous
100
AcDbLine
 10
0.2041668878716142
 20
-0.0895000096936529
 30
0.0
 11
0.2097148878716142
 21
-0.0895000096936529
 31
0.0
  0
LINE
  5
3CA
330
6F
100
AcDbEntity
  8
0
  6
Continuous
100
AcDbLine
 10
0.2355888878716142
 20
-0.0895000096936529
 30
0.0
 11
0.2378868878716142
 21
-0.0895000096936529
 31
0.0
  0
LINE
  5
3CB
330
6F
100
AcDbEntity
  8
0
  6
Continuous
100
AcDbLine
 10
0.2097148878716142
 20
-0.0895000096936529
 30
0.0
 11
0.2156678878716142
 21
-0.0895000096936529
 31
0.0
  0
LINE
  5
3CC
330
6F
100
AcDbEntity
  8
0
  6
Continuous
100
AcDbLine
 10
0.1925508878716142
 20
-0.0885240096936529
 30
0.0
 11
0.1926658878716142
 21
-0.0895000096936529
 31
0.0
  0
LINE
  5
3CD
330
6F
100
AcDbEntity
  8
0
  6
Continuous
100
AcDbLine
 10
0.1926658878716142
 20
-0.0895000096936529
 30
0.0
 11
0.1934488878716142
 21
-0.0895000096936529
 31
0.0
  0
LINE
  5
3CE
330
6F
100
AcDbEntity
  8
0
  6
Continuous
100
AcDbLine
 10
0.2319328878716142
 20
-0.0895000096936529
 30
0.0
 11
0.2355888878716142
 21
-0.0895000096936529
 31
0.0
  0
LINE
  5
3CF
330
6F
100
AcDbEntity
  8
0
  6
Continuous
100
AcDbLine
 10
0.1934488878716142
 20
-0.0895000096936529
 30
0.0
 11
0.1957468878716142
 21
-0.0895000096936529
 31
0.0
  0
LINE
  5
3D0
330
6F
100
AcDbEntity
  8
0
  6
Continuous
100
AcDbLine
 10
0.1892318878716142
 20
-0.0064640096936529
 30
0.0
 11
0.1888108878716142
 21
0.0152899903063472
 31
0.0
  0
LINE
  5
3D1
330
6F
100
AcDbEntity
  8
0
  6
Continuous
100
AcDbLine
 10
0.1886218878716142
 20
-0.0062300096936529
 30
0.0
 11
0.1888108878716142
 21
0.0152899903063472
 31
0.0
  0
LINE
  5
3D2
330
6F
100
AcDbEntity
  8
0
  6
Continuous
100
AcDbLine
 10
0.1881898878716142
 20
0.0150069903063472
 30
0.0
 11
0.1829358878716142
 21
0.0335489903063472
 31
0.0
  0
LINE
  5
3D3
330
6F
100
AcDbEntity
  8
0
  6
Continuous
100
AcDbLine
 10
0.1759578878716142
 20
0.0380719903063472
 30
0.0
 11
0.1760878878716142
 21
0.0373249903063472
 31
0.0
  0
LINE
  5
3D4
330
6F
100
AcDbEntity
  8
0
  6
Continuous
100
AcDbLine
 10
0.1841368878716142
 20
-0.0173700096936529
 30
0.0
 11
0.1842498878716142
 21
-0.0181360096936529
 31
0.0
  0
LINE
  5
3D5
330
6F
100
AcDbEntity
  8
0
  6
Continuous
100
AcDbLine
 10
0.2041668878716142
 20
-0.0895000096936529
 30
0.0
 11
0.1994028878716142
 21
-0.0895000096936529
 31
0.0
  0
LINE
  5
3D6
330
6F
100
AcDbEntity
  8
0
  6
Continuous
100
AcDbLine
 10
0.1891378878716142
 20
0.0478869903063472
 30
0.0
 11
0.1845358878716142
 21
0.0472849903063471
 31
0.0
  0
LINE
  5
3D7
330
6F
100
AcDbEntity
  8
0
  6
Continuous
100
AcDbLine
 10
0.2036078878716142
 20
0.0498009903063471
 30
0.0
 11
0.1990108878716142
 21
0.0491889903063471
 31
0.0
  0
LINE
  5
3D8
330
6F
100
AcDbEntity
  8
0
  6
Continuous
100
AcDbLine
 10
0.1805828878716142
 20
0.0467709903063472
 30
0.0
 11
0.1775498878716142
 21
0.0463779903063472
 31
0.0
  0
LINE
  5
3D9
330
6F
100
AcDbEntity
  8
0
  6
Continuous
100
AcDbLine
 10
0.2105838878716142
 20
0.0507349903063472
 30
0.0
 11
0.2075558878716142
 21
0.0503279903063471
 31
0.0
  0
LINE
  5
3DA
330
6F
100
AcDbEntity
  8
0
  6
Continuous
100
AcDbLine
 10
0.2124868878716142
 20
0.0509909903063472
 30
0.0
 11
0.2105838878716142
 21
0.0507349903063472
 31
0.0
  0
LINE
  5
3DB
330
6F
100
AcDbEntity
  8
0
  6
Continuous
100
AcDbLine
 10
0.1775498878716142
 20
0.0463779903063472
 30
0.0
 11
0.1756418878716142
 21
0.0461319903063472
 31
0.0
  0
LINE
  5
3DC
330
6F
100
AcDbEntity
  8
0
  6
Continuous
100
AcDbLine
 10
0.1940748878716142
 20
0.0485359903063472
 30
0.0
 11
0.1891378878716142
 21
0.0478869903063472
 31
0.0
  0
LINE
  5
3DD
330
6F
100
AcDbEntity
  8
0
  6
Continuous
100
AcDbLine
 10
0.1990108878716142
 20
0.0491889903063471
 30
0.0
 11
0.1940748878716142
 21
0.0485359903063472
 31
0.0
  0
LINE
  5
3DE
330
6F
100
AcDbEntity
  8
0
  6
Continuous
100
AcDbLine
 10
0.1845358878716142
 20
0.0472849903063471
 30
0.0
 11
0.1805828878716142
 21
0.0467709903063472
 31
0.0
  0
LINE
  5
3DF
330
6F
100
AcDbEntity
  8
0
  6
Continuous
100
AcDbLine
 10
0.2131358878716142
 20
0.0510789903063471
 30
0.0
 11
0.2124868878716142
 21
0.0509909903063472
 31
0.0
  0
LINE
  5
3E0
330
6F
100
AcDbEntity
  8
0
  6
Continuous
100
AcDbLine
 10
0.2133238878716142
 20
0.0500969903063472
 30
0.0
 11
0.2131358878716142
 21
0.0510789903063471
 31
0.0
  0
LINE
  5
3E1
330
6F
100
AcDbEntity
  8
0
  6
Continuous
100
AcDbLine
 10
0.2075558878716142
 20
0.0503279903063471
 30
0.0
 11
0.2036078878716142
 21
0.0498009903063471
 31
0.0
  0
LINE
  5
3E2
330
6F
100
AcDbEntity
  8
0
  6
Continuous
100
AcDbLine
 10
0.1749918878716142
 20
0.0460479903063472
 30
0.0
 11
0.1751518878716142
 21
0.0450909903063472
 31
0.0
  0
LINE
  5
3E3
330
6F
100
AcDbEntity
  8
0
  6
Continuous
100
AcDbLine
 10
0.1749918878716142
 20
0.0460479903063472
 30
0.0
 11
0.1756418878716142
 21
0.0461319903063472
 31
0.0
  0
LINE
  5
3E4
330
6F
100
AcDbEntity
  8
0
  6
Continuous
100
AcDbLine
 10
0.1312698878716142
 20
-0.0237010096936529
 30
0.0
 11
0.1271118878716142
 21
-0.0197880096936529
 31
0.0
  0
LINE
  5
3E5
330
6F
100
AcDbEntity
  8
0
  6
Continuous
100
AcDbLine
 10
0.1221328878716142
 20
-0.0151020096936529
 30
0.0
 11
0.1271118878716142
 21
-0.0197880096936529
 31
0.0
  0
LINE
  5
3E6
330
6F
100
AcDbEntity
  8
0
  6
Continuous
100
AcDbLine
 10
0.1312698878716142
 20
-0.0237010096936529
 30
0.0
 11
0.1334248878716142
 21
-0.0257280096936529
 31
0.0
  0
LINE
  5
3E7
330
6F
100
AcDbEntity
  8
0
  6
Continuous
100
AcDbLine
 10
0.1322938878716142
 20
-0.0233170096936529
 30
0.0
 11
0.1312698878716142
 21
-0.0237010096936529
 31
0.0
  0
LINE
  5
3E8
330
6F
100
AcDbEntity
  8
0
  6
Continuous
100
AcDbLine
 10
0.1334248878716142
 20
-0.0257280096936529
 30
0.0
 11
0.1341608878716142
 21
-0.0264200096936529
 31
0.0
  0
LINE
  5
3E9
330
6F
100
AcDbEntity
  8
0
  6
Continuous
100
AcDbLine
 10
0.1341608878716142
 20
-0.0264200096936529
 30
0.0
 11
0.1351708878716142
 21
-0.0260080096936529
 31
0.0
  0
LINE
  5
3EA
330
6F
100
AcDbEntity
  8
0
  6
Continuous
100
AcDbLine
 10
0.1221328878716142
 20
-0.0151020096936529
 30
0.0
 11
0.1231138878716142
 21
-0.0146790096936529
 31
0.0
  0
LINE
  5
3EB
330
6F
100
AcDbEntity
  8
0
  6
Continuous
100
AcDbLine
 10
0.1172298878716142
 20
-0.0104890096936529
 30
0.0
 11
0.1221328878716142
 21
-0.0151020096936529
 31
0.0
  0
LINE
  5
3EC
330
6F
100
AcDbEntity
  8
0
  6
Continuous
100
AcDbLine
 10
0.1111888878716142
 20
-0.0034660096936529
 30
0.0
 11
0.1102238878716142
 21
-0.0038970096936529
 31
0.0
  0
LINE
  5
3ED
330
6F
100
AcDbEntity
  8
0
  6
Continuous
100
AcDbLine
 10
0.1110908878716142
 20
-0.0047120096936528
 30
0.0
 11
0.1102238878716142
 21
-0.0038970096936529
 31
0.0
  0
LINE
  5
3EE
330
6F
100
AcDbEntity
  8
0
  6
Continuous
100
AcDbLine
 10
0.1135368878716142
 20
-0.0070150096936528
 30
0.0
 11
0.1110908878716142
 21
-0.0047120096936528
 31
0.0
  0
LINE
  5
3EF
330
6F
100
AcDbEntity
  8
0
  6
Continuous
100
AcDbLine
 10
0.1172298878716142
 20
-0.0104890096936529
 30
0.0
 11
0.1135368878716142
 21
-0.0070150096936528
 31
0.0
  0
LINE
  5
3F0
330
6F
100
AcDbEntity
  8
0
  6
Continuous
100
AcDbLine
 10
0.1351708878716142
 20
-0.0260080096936529
 30
0.0
 11
0.1756468878716142
 21
-0.0091290096936529
 31
0.0
  0
LINE
  5
3F1
330
6F
100
AcDbEntity
  8
0
  6
Continuous
100
AcDbLine
 10
0.2228638878716142
 20
-0.0026200096936529
 30
0.0
 11
0.2188108878716142
 21
0.0196459903063472
 31
0.0
  0
LINE
  5
3F2
330
6F
100
AcDbEntity
  8
0
  6
Continuous
100
AcDbLine
 10
0.1751518878716142
 20
0.0450909903063472
 30
0.0
 11
0.1759578878716142
 21
0.0380719903063472
 31
0.0
  0
LINE
  5
3F3
330
6F
100
AcDbEntity
  8
0
  6
Continuous
100
AcDbLine
 10
0.1842498878716142
 20
-0.0181360096936529
 30
0.0
 11
0.1925508878716142
 21
-0.0885240096936529
 31
0.0
  0
LINE
  5
3F4
330
6F
100
AcDbEntity
  8
0
  6
Continuous
100
AcDbLine
 10
0.1881898878716142
 20
0.0150069903063472
 30
0.0
 11
0.1868218878716142
 21
-0.0009560096936529
 31
0.0
  0
LINE
  5
3F5
330
6F
100
AcDbEntity
  8
0
  6
Continuous
100
AcDbLine
 10
0.1881898878716142
 20
0.0150069903063472
 30
0.0
 11
0.1826578878716142
 21
0.0265369903063472
 31
0.0
  0
LINE
  5
3F6
330
6F
100
AcDbEntity
  8
0
  6
Continuous
100
AcDbLine
 10
0.1862708878716142
 20
0.0141029903063472
 30
0.0
 11
0.1881898878716142
 21
0.0150069903063472
 31
0.0
  0
LINE
  5
3F7
330
6F
100
AcDbEntity
  8
0
  6
Continuous
100
AcDbLine
 10
0.2161428878716142
 20
0.0343019903063472
 30
0.0
 11
0.2133238878716142
 21
0.0500969903063472
 31
0.0
  0
LINE
  5
3F8
330
6F
100
AcDbEntity
  8
0
  6
Continuous
100
AcDbLine
 10
0.1826578878716142
 20
0.0265369903063472
 30
0.0
 11
0.1793458878716142
 21
0.0288219903063472
 31
0.0
  0
LINE
  5
3F9
330
6F
100
AcDbEntity
  8
0
  6
Continuous
100
AcDbLine
 10
0.1740818878716142
 20
0.0269279903063472
 30
0.0
 11
0.1709858878716142
 21
0.0237419903063472
 31
0.0
  0
LINE
  5
3FA
330
6F
100
AcDbEntity
  8
0
  6
Continuous
100
AcDbLine
 10
0.1765998878716142
 20
0.0305509903063472
 30
0.0
 11
0.1740818878716142
 21
0.0269279903063472
 31
0.0
  0
LINE
  5
3FB
330
6F
100
AcDbEntity
  8
0
  6
Continuous
100
AcDbLine
 10
0.1765998878716142
 20
0.0305509903063472
 30
0.0
 11
0.1772998878716142
 21
0.0300869903063472
 31
0.0
  0
LINE
  5
3FC
330
6F
100
AcDbEntity
  8
0
  6
Continuous
100
AcDbLine
 10
0.1760878878716142
 20
0.0373249903063472
 30
0.0
 11
0.1765998878716142
 21
0.0305509903063472
 31
0.0
  0
LINE
  5
3FD
330
6F
100
AcDbEntity
  8
0
  6
Continuous
100
AcDbLine
 10
0.1772998878716142
 20
0.0300869903063472
 30
0.0
 11
0.1793458878716142
 21
0.0288219903063472
 31
0.0
  0
LINE
  5
3FE
330
6F
100
AcDbEntity
  8
0
  6
Continuous
100
AcDbLine
 10
0.1806048878716142
 20
0.0225199903063472
 30
0.0
 11
0.1775458878716142
 21
0.0192799903063472
 31
0.0
  0
LINE
  5
3FF
330
6F
100
AcDbEntity
  8
0
  6
Continuous
100
AcDbLine
 10
0.1826578878716142
 20
0.0265369903063472
 30
0.0
 11
0.1806048878716142
 21
0.0225199903063472
 31
0.0
  0
LINE
  5
400
330
6F
100
AcDbEntity
  8
0
  6
Continuous
100
AcDbLine
 10
0.1823818878716142
 20
-0.0121020096936529
 30
0.0
 11
0.1841368878716142
 21
-0.0173700096936529
 31
0.0
  0
LINE
  5
401
330
6F
100
AcDbEntity
  8
0
  6
Continuous
100
AcDbLine
 10
0.1823818878716142
 20
-0.0121020096936529
 30
0.0
 11
0.1829828878716142
 21
-0.0113150096936529
 31
0.0
  0
LINE
  5
402
330
6F
100
AcDbEntity
  8
0
  6
Continuous
100
AcDbLine
 10
0.1792778878716142
 20
-0.0090930096936529
 30
0.0
 11
0.1823818878716142
 21
-0.0121020096936529
 31
0.0
  0
LINE
  5
403
330
6F
100
AcDbEntity
  8
0
  6
Continuous
100
AcDbLine
 10
0.1792778878716142
 20
-0.0090930096936529
 30
0.0
 11
0.1798738878716142
 21
-0.0082890096936529
 31
0.0
  0
LINE
  5
404
330
6F
100
AcDbEntity
  8
0
  6
Continuous
100
AcDbLine
 10
0.1756468878716142
 20
-0.0091290096936529
 30
0.0
 11
0.1792778878716142
 21
-0.0090930096936529
 31
0.0
  0
LINE
  5
405
330
6F
100
AcDbEntity
  8
0
  6
Continuous
100
AcDbLine
 10
0.1829828878716142
 20
-0.0113150096936529
 30
0.0
 11
0.1847358878716142
 21
-0.0090000096936528
 31
0.0
  0
LINE
  5
406
330
6F
100
AcDbEntity
  8
0
  6
Continuous
100
AcDbLine
 10
0.1798738878716142
 20
-0.0082890096936529
 30
0.0
 11
0.1816118878716142
 21
-0.0059320096936528
 31
0.0
  0
LINE
  5
407
330
6F
100
AcDbEntity
  8
0
  6
Continuous
100
AcDbLine
 10
0.1839728878716142
 20
0.0130259903063472
 30
0.0
 11
0.1816688878716142
 21
0.0119509903063472
 31
0.0
  0
LINE
  5
408
330
6F
100
AcDbEntity
  8
0
  6
Continuous
100
AcDbLine
 10
0.1862708878716142
 20
0.0141029903063472
 30
0.0
 11
0.1839728878716142
 21
0.0130259903063472
 31
0.0
  0
LINE
  5
409
330
6F
100
AcDbEntity
  8
0
  6
Continuous
100
AcDbLine
 10
0.1816118878716142
 20
-0.0059320096936528
 30
0.0
 11
0.1847358878716142
 21
-0.0090000096936528
 31
0.0
  0
LINE
  5
40A
330
6F
100
AcDbEntity
  8
0
  6
Continuous
100
AcDbLine
 10
0.1779718878716142
 20
-0.0059000096936529
 30
0.0
 11
0.1816118878716142
 21
-0.0059320096936528
 31
0.0
  0
LINE
  5
40B
330
6F
100
AcDbEntity
  8
0
  6
Continuous
100
AcDbLine
 10
0.1709858878716142
 20
0.0237419903063472
 30
0.0
 11
0.1111888878716142
 21
-0.0034660096936529
 31
0.0
  0
LINE
  5
40C
330
6F
100
AcDbEntity
  8
0
  6
Continuous
100
AcDbLine
 10
0.1231138878716142
 20
-0.0146790096936529
 30
0.0
 11
0.1816688878716142
 21
0.0119509903063472
 31
0.0
  0
LINE
  5
40D
330
6F
100
AcDbEntity
  8
0
  6
Continuous
100
AcDbLine
 10
0.2188108878716142
 20
0.0196459903063472
 30
0.0
 11
0.2161428878716142
 21
0.0343019903063472
 31
0.0
  0
LINE
  5
40E
330
6F
100
AcDbEntity
  8
0
  6
Continuous
100
AcDbLine
 10
0.2385038878716142
 20
-0.0885320096936529
 30
0.0
 11
0.2334428878716142
 21
-0.0607340096936529
 31
0.0
  0
LINE
  5
40F
330
6F
100
AcDbEntity
  8
0
  6
Continuous
100
AcDbLine
 10
0.2323818878716142
 20
-0.0549060096936529
 30
0.0
 11
0.2228638878716142
 21
-0.0026200096936529
 31
0.0
  0
LINE
  5
410
330
6F
100
AcDbEntity
  8
0
  6
Continuous
100
AcDbLine
 10
0.1957468878716142
 20
-0.0895000096936529
 30
0.0
 11
0.1994028878716142
 21
-0.0895000096936529
 31
0.0
  0
LINE
  5
411
330
6F
100
AcDbEntity
  8
0
  6
Continuous
100
AcDbLine
 10
0.1344388878716142
 20
-0.0253240096936529
 30
0.0
 11
0.1762398878716142
 21
-0.0083070096936528
 31
0.0
  0
LINE
  5
412
330
6F
100
AcDbEntity
  8
0
  6
Continuous
100
AcDbLine
 10
0.1779718878716142
 20
-0.0059000096936529
 30
0.0
 11
0.1322938878716142
 21
-0.0233170096936529
 31
0.0
  0
LINE
  5
413
330
6F
100
AcDbEntity
  8
0
  6
Continuous
100
AcDbLine
 10
0.2316468878716142
 20
-0.0688980096936529
 30
0.0
 11
0.2312588878716142
 21
-0.0693770096936529
 31
0.0
  0
LINE
  5
414
330
6F
100
AcDbEntity
  8
0
  6
Continuous
100
AcDbLine
 10
0.2312588878716142
 20
-0.0693770096936529
 30
0.0
 11
0.2312148878716142
 21
-0.0694300096936529
 31
0.0
  0
LINE
  5
415
330
6F
100
AcDbEntity
  8
0
  6
Continuous
100
AcDbLine
 10
0.2312148878716142
 20
-0.0694300096936529
 30
0.0
 11
0.2309578878716142
 21
-0.0697850096936529
 31
0.0
  0
LINE
  5
416
330
6F
100
AcDbEntity
  8
0
  6
Continuous
100
AcDbLine
 10
0.2309578878716142
 20
-0.0697850096936529
 30
0.0
 11
0.2304258878716142
 21
-0.0694440096936529
 31
0.0
  0
LINE
  5
417
330
6F
100
AcDbEntity
  8
0
  6
Continuous
100
AcDbLine
 10
0.2298228878716142
 20
-0.0683010096936529
 30
0.0
 11
0.2295858878716142
 21
-0.0676440096936529
 31
0.0
  0
LINE
  5
418
330
6F
100
AcDbEntity
  8
0
  6
Continuous
100
AcDbLine
 10
0.2290658878716142
 20
-0.0634120096936529
 30
0.0
 11
0.2291148878716142
 21
-0.0624620096936529
 31
0.0
  0
LINE
  5
419
330
6F
100
AcDbEntity
  8
0
  6
Continuous
100
AcDbLine
 10
0.2304258878716142
 20
-0.0694440096936529
 30
0.0
 11
0.2300868878716142
 21
-0.0691930096936529
 31
0.0
  0
LINE
  5
41A
330
6F
100
AcDbEntity
  8
0
  6
Continuous
100
AcDbLine
 10
0.2291148878716142
 20
-0.0624620096936529
 30
0.0
 11
0.2291458878716142
 21
-0.0621380096936529
 31
0.0
  0
LINE
  5
41B
330
6F
100
AcDbEntity
  8
0
  6
Continuous
100
AcDbLine
 10
0.2300868878716142
 20
-0.0691930096936529
 30
0.0
 11
0.2298228878716142
 21
-0.0683010096936529
 31
0.0
  0
LINE
  5
41C
330
6F
100
AcDbEntity
  8
0
  6
Continuous
100
AcDbLine
 10
0.2291228878716142
 20
-0.0647110096936529
 30
0.0
 11
0.2290948878716142
 21
-0.0639120096936529
 31
0.0
  0
LINE
  5
41D
330
6F
100
AcDbEntity
  8
0
  6
Continuous
100
AcDbLine
 10
0.2290948878716142
 20
-0.0639120096936529
 30
0.0
 11
0.2290658878716142
 21
-0.0634120096936529
 31
0.0
  0
LINE
  5
509
330
6F
100
AcDbEntity
  8
0
  6
Continuous
100
AcDbLine
 10
-0.0070920004074879
 20
0.1332859152692309
 30
0.0
 11
-0.0037850004074879
 21
0.1320449152692309
 31
0.0
  0
LINE
  5
50A
330
6F
100
AcDbEntity
  8
0
  6
Continuous
100
AcDbLine
 10
-0.0097170004074879
 20
0.1352179152692309
 30
0.0
 11
-0.0070920004074879
 21
0.1332859152692309
 31
0.0
  0
LINE
  5
50B
330
6F
100
AcDbEntity
  8
0
  6
Continuous
100
AcDbLine
 10
0.0068539995925121
 20
0.1332859152692309
 30
0.0
 11
0.0094789995925121
 21
0.1352179152692309
 31
0.0
  0
LINE
  5
50C
330
6F
100
AcDbEntity
  8
0
  6
Continuous
100
AcDbLine
 10
0.0035469995925121
 20
0.1320449152692309
 30
0.0
 11
0.0068539995925121
 21
0.1332859152692309
 31
0.0
  0
LINE
  5
50D
330
6F
100
AcDbEntity
  8
0
  6
Continuous
100
AcDbLine
 10
-0.0001190004074879
 20
0.1316179152692309
 30
0.0
 11
0.0035469995925121
 21
0.1320449152692309
 31
0.0
  0
LINE
  5
50E
330
6F
100
AcDbEntity
  8
0
  6
Continuous
100
AcDbLine
 10
-0.0037850004074879
 20
0.1320449152692309
 30
0.0
 11
-0.0001190004074879
 21
0.1316179152692309
 31
0.0
  0
LINE
  5
50F
330
6F
100
AcDbEntity
  8
0
  6
Continuous
100
AcDbLine
 10
0.0189959995925121
 20
0.2580809152692309
 30
0.0
 11
0.0221349995925121
 21
0.261571915269231
 31
0.0
  0
LINE
  5
510
330
6F
100
AcDbEntity
  8
0
  6
Continuous
100
AcDbLine
 10
0.0164549995925121
 20
0.254979915269231
 30
0.0
 11
0.0169919995925121
 21
0.2557099152692309
 31
0.0
  0
LINE
  5
511
330
6F
100
AcDbEntity
  8
0
  6
Continuous
100
AcDbLine
 10
0.0159529995925121
 20
0.254221915269231
 30
0.0
 11
0.0164549995925121
 21
0.254979915269231
 31
0.0
  0
LINE
  5
512
330
6F
100
AcDbEntity
  8
0
  6
Continuous
100
AcDbLine
 10
0.0156249995925121
 20
0.2537979152692309
 30
0.0
 11
0.0159529995925121
 21
0.254221915269231
 31
0.0
  0
LINE
  5
513
330
6F
100
AcDbEntity
  8
0
  6
Continuous
100
AcDbLine
 10
0.0151019995925121
 20
0.2531229152692309
 30
0.0
 11
0.0156249995925121
 21
0.2537979152692309
 31
0.0
  0
LINE
  5
514
330
6F
100
AcDbEntity
  8
0
  6
Continuous
100
AcDbLine
 10
0.0147599995925121
 20
0.2526019152692309
 30
0.0
 11
0.0151019995925121
 21
0.2531229152692309
 31
0.0
  0
LINE
  5
515
330
6F
100
AcDbEntity
  8
0
  6
Continuous
100
AcDbLine
 10
0.0169329995925121
 20
0.255671915269231
 30
0.0
 11
0.0189959995925121
 21
0.2580809152692309
 31
0.0
  0
LINE
  5
516
330
6F
100
AcDbEntity
  8
0
  6
Continuous
100
AcDbLine
 10
0.0220749995925121
 20
0.261615915269231
 30
0.0
 11
0.0188339995925121
 21
0.258195915269231
 31
0.0
  0
LINE
  5
517
330
6F
100
AcDbEntity
  8
0
  6
Continuous
100
AcDbLine
 10
0.0189679995925121
 20
0.2580959152692309
 30
0.0
 11
0.0220749995925121
 21
0.261615915269231
 31
0.0
  0
LINE
  5
518
330
6F
100
AcDbEntity
  8
0
  6
Continuous
100
AcDbLine
 10
0.0160919995925121
 20
0.254724915269231
 30
0.0
 11
0.0169069995925121
 21
0.2557919152692309
 31
0.0
  0
LINE
  5
519
330
6F
100
AcDbEntity
  8
0
  6
Continuous
100
AcDbLine
 10
0.0166629995925121
 20
0.2560599152692309
 30
0.0
 11
0.0156739995925121
 21
0.2548489152692309
 31
0.0
  0
LINE
  5
51A
330
6F
100
AcDbEntity
  8
0
  6
Continuous
100
AcDbLine
 10
0.0153459995925121
 20
0.2537139152692309
 30
0.0
 11
0.0160919995925121
 21
0.254724915269231
 31
0.0
  0
LINE
  5
51B
330
6F
100
AcDbEntity
  8
0
  6
Continuous
100
AcDbLine
 10
0.0156739995925121
 20
0.2548489152692309
 30
0.0
 11
0.0149149995925121
 21
0.2537299152692309
 31
0.0
  0
LINE
  5
51C
330
6F
100
AcDbEntity
  8
0
  6
Continuous
100
AcDbLine
 10
0.0147749995925121
 20
0.2529519152692309
 30
0.0
 11
0.0153459995925121
 21
0.2537139152692309
 31
0.0
  0
LINE
  5
51D
330
6F
100
AcDbEntity
  8
0
  6
Continuous
100
AcDbLine
 10
0.0149149995925121
 20
0.2537299152692309
 30
0.0
 11
0.0143909995925121
 21
0.2528769152692309
 31
0.0
  0
LINE
  5
51E
330
6F
100
AcDbEntity
  8
0
  6
Continuous
100
AcDbLine
 10
0.0143909995925121
 20
0.2528769152692309
 30
0.0
 11
0.0138479995925121
 21
0.252209915269231
 31
0.0
  0
LINE
  5
51F
330
6F
100
AcDbEntity
  8
0
  6
Continuous
100
AcDbLine
 10
0.0169069995925121
 20
0.2557919152692309
 30
0.0
 11
0.0189679995925121
 21
0.2580959152692309
 31
0.0
  0
LINE
  5
520
330
6F
100
AcDbEntity
  8
0
  6
Continuous
100
AcDbLine
 10
0.0231189995925121
 20
0.263392915269231
 30
0.0
 11
0.0230729995925121
 21
0.2642389152692309
 31
0.0
  0
LINE
  5
521
330
6F
100
AcDbEntity
  8
0
  6
Continuous
100
AcDbLine
 10
0.0230589995925121
 20
0.2634359152692309
 30
0.0
 11
0.0230129995925121
 21
0.264282915269231
 31
0.0
  0
LINE
  5
522
330
6F
100
AcDbEntity
  8
0
  6
Continuous
100
AcDbLine
 10
0.0228409995925121
 20
0.2635879152692309
 30
0.0
 11
0.0228529995925121
 21
0.2645159152692309
 31
0.0
  0
LINE
  5
523
330
6F
100
AcDbEntity
  8
0
  6
Continuous
100
AcDbLine
 10
0.0226999995925121
 20
0.2648009152692309
 30
0.0
 11
0.0216099995925121
 21
0.2657829152692309
 31
0.0
  0
LINE
  5
524
330
6F
100
AcDbEntity
  8
0
  6
Continuous
100
AcDbLine
 10
0.0216099995925121
 20
0.2657829152692309
 30
0.0
 11
0.0228529995925121
 21
0.2645159152692309
 31
0.0
  0
LINE
  5
525
330
6F
100
AcDbEntity
  8
0
  6
Continuous
100
AcDbLine
 10
0.0231189995925121
 20
0.263392915269231
 30
0.0
 11
0.0230589995925121
 21
0.2634359152692309
 31
0.0
  0
LINE
  5
526
330
6F
100
AcDbEntity
  8
0
  6
Continuous
100
AcDbLine
 10
0.0221349995925121
 20
0.261571915269231
 30
0.0
 11
0.0231189995925121
 21
0.263392915269231
 31
0.0
  0
LINE
  5
527
330
6F
100
AcDbEntity
  8
0
  6
Continuous
100
AcDbLine
 10
0.0220749995925121
 20
0.261615915269231
 30
0.0
 11
0.0230589995925121
 21
0.2634359152692309
 31
0.0
  0
LINE
  5
528
330
6F
100
AcDbEntity
  8
0
  6
Continuous
100
AcDbLine
 10
0.0228529995925121
 20
0.2645159152692309
 30
0.0
 11
0.0230129995925121
 21
0.264282915269231
 31
0.0
  0
LINE
  5
529
330
6F
100
AcDbEntity
  8
0
  6
Continuous
100
AcDbLine
 10
0.0230729995925121
 20
0.2642389152692309
 30
0.0
 11
0.0226999995925121
 21
0.2648009152692309
 31
0.0
  0
LINE
  5
52A
330
6F
100
AcDbEntity
  8
0
  6
Continuous
100
AcDbLine
 10
0.0230129995925121
 20
0.264282915269231
 30
0.0
 11
0.0230729995925121
 21
0.2642389152692309
 31
0.0
  0
LINE
  5
52B
330
6F
100
AcDbEntity
  8
0
  6
Continuous
100
AcDbLine
 10
0.0115879995925121
 20
0.2548189152692309
 30
0.0
 11
0.0105059995925121
 21
0.253394915269231
 31
0.0
  0
LINE
  5
52C
330
6F
100
AcDbEntity
  8
0
  6
Continuous
100
AcDbLine
 10
0.0166629995925121
 20
0.2560599152692309
 30
0.0
 11
0.0188339995925121
 21
0.258195915269231
 31
0.0
  0
LINE
  5
52D
330
6F
100
AcDbEntity
  8
0
  6
Continuous
100
AcDbLine
 10
0.0138479995925121
 20
0.252209915269231
 30
0.0
 11
0.0126179995925121
 21
0.2529149152692309
 31
0.0
  0
LINE
  5
52E
330
6F
100
AcDbEntity
  8
0
  6
Continuous
100
AcDbLine
 10
0.0129989995925121
 20
0.2511769152692309
 30
0.0
 11
0.0138479995925121
 21
0.252209915269231
 31
0.0
  0
LINE
  5
52F
330
6F
100
AcDbEntity
  8
0
  6
Continuous
100
AcDbLine
 10
0.0174749995925121
 20
0.264828915269231
 30
0.0
 11
0.0152759995925121
 21
0.260680915269231
 31
0.0
  0
LINE
  5
530
330
6F
100
AcDbEntity
  8
0
  6
Continuous
100
AcDbLine
 10
0.0137379995925121
 20
0.257982915269231
 30
0.0
 11
0.0132379995925121
 21
0.257228915269231
 31
0.0
  0
LINE
  5
531
330
6F
100
AcDbEntity
  8
0
  6
Continuous
100
AcDbLine
 10
0.0132379995925121
 20
0.257228915269231
 30
0.0
 11
0.0126979995925121
 21
0.256495915269231
 31
0.0
  0
LINE
  5
532
330
6F
100
AcDbEntity
  8
0
  6
Continuous
100
AcDbLine
 10
0.0124129995925121
 20
0.2560419152692309
 30
0.0
 11
0.0119589995925121
 21
0.255318915269231
 31
0.0
  0
LINE
  5
533
330
6F
100
AcDbEntity
  8
0
  6
Continuous
100
AcDbLine
 10
0.0126979995925121
 20
0.256495915269231
 30
0.0
 11
0.0124129995925121
 21
0.2560419152692309
 31
0.0
  0
LINE
  5
534
330
6F
100
AcDbEntity
  8
0
  6
Continuous
100
AcDbLine
 10
0.0119589995925121
 20
0.255318915269231
 30
0.0
 11
0.0115879995925121
 21
0.2548189152692309
 31
0.0
  0
LINE
  5
535
330
6F
100
AcDbEntity
  8
0
  6
Continuous
100
AcDbLine
 10
0.0152759995925121
 20
0.260680915269231
 30
0.0
 11
0.0137229995925121
 21
0.257914915269231
 31
0.0
  0
LINE
  5
536
330
6F
100
AcDbEntity
  8
0
  6
Continuous
100
AcDbLine
 10
0.0175359995925121
 20
0.264787915269231
 30
0.0
 11
0.0152999995925121
 21
0.260659915269231
 31
0.0
  0
LINE
  5
537
330
6F
100
AcDbEntity
  8
0
  6
Continuous
100
AcDbLine
 10
0.0175359995925121
 20
0.264787915269231
 30
0.0
 11
0.0154399995925121
 21
0.260567915269231
 31
0.0
  0
LINE
  5
538
330
6F
100
AcDbEntity
  8
0
  6
Continuous
100
AcDbLine
 10
0.0133829995925121
 20
0.2564499152692309
 30
0.0
 11
0.0141799995925121
 21
0.2577949152692309
 31
0.0
  0
LINE
  5
539
330
6F
100
AcDbEntity
  8
0
  6
Continuous
100
AcDbLine
 10
0.0138449995925121
 20
0.257931915269231
 30
0.0
 11
0.0131229995925121
 21
0.2567989152692309
 31
0.0
  0
LINE
  5
53A
330
6F
100
AcDbEntity
  8
0
  6
Continuous
100
AcDbLine
 10
0.0125929995925121
 20
0.255352915269231
 30
0.0
 11
0.0133829995925121
 21
0.2564499152692309
 31
0.0
  0
LINE
  5
53B
330
6F
100
AcDbEntity
  8
0
  6
Continuous
100
AcDbLine
 10
0.0131229995925121
 20
0.2567989152692309
 30
0.0
 11
0.0124299995925121
 21
0.2557509152692309
 31
0.0
  0
LINE
  5
53C
330
6F
100
AcDbEntity
  8
0
  6
Continuous
100
AcDbLine
 10
0.0119729995925121
 20
0.2545669152692309
 30
0.0
 11
0.0125929995925121
 21
0.255352915269231
 31
0.0
  0
LINE
  5
53D
330
6F
100
AcDbEntity
  8
0
  6
Continuous
100
AcDbLine
 10
0.0124299995925121
 20
0.2557509152692309
 30
0.0
 11
0.0119109995925121
 21
0.254953915269231
 31
0.0
  0
LINE
  5
53E
330
6F
100
AcDbEntity
  8
0
  6
Continuous
100
AcDbLine
 10
0.0115319995925121
 20
0.253827915269231
 30
0.0
 11
0.0119729995925121
 21
0.2545669152692309
 31
0.0
  0
LINE
  5
53F
330
6F
100
AcDbEntity
  8
0
  6
Continuous
100
AcDbLine
 10
0.0152999995925121
 20
0.260659915269231
 30
0.0
 11
0.0138449995925121
 21
0.257931915269231
 31
0.0
  0
LINE
  5
540
330
6F
100
AcDbEntity
  8
0
  6
Continuous
100
AcDbLine
 10
0.0196569995925121
 20
0.266625915269231
 30
0.0
 11
0.0188459995925121
 21
0.266378915269231
 31
0.0
  0
LINE
  5
541
330
6F
100
AcDbEntity
  8
0
  6
Continuous
100
AcDbLine
 10
0.0197179995925121
 20
0.266584915269231
 30
0.0
 11
0.0189069995925121
 21
0.266336915269231
 31
0.0
  0
LINE
  5
542
330
6F
100
AcDbEntity
  8
0
  6
Continuous
100
AcDbLine
 10
0.0199919995925121
 20
0.2665149152692309
 30
0.0
 11
0.0191249995925121
 21
0.266184915269231
 31
0.0
  0
LINE
  5
543
330
6F
100
AcDbEntity
  8
0
  6
Continuous
100
AcDbLine
 10
0.0209759995925121
 20
0.2648759152692309
 30
0.0
 11
0.0216099995925121
 21
0.2657829152692309
 31
0.0
  0
LINE
  5
544
330
6F
100
AcDbEntity
  8
0
  6
Continuous
100
AcDbLine
 10
0.0216099995925121
 20
0.2657829152692309
 30
0.0
 11
0.0203129995925121
 21
0.266469915269231
 31
0.0
  0
LINE
  5
545
330
6F
100
AcDbEntity
  8
0
  6
Continuous
100
AcDbLine
 10
0.0199919995925121
 20
0.2665149152692309
 30
0.0
 11
0.0216099995925121
 21
0.2657829152692309
 31
0.0
  0
LINE
  5
546
330
6F
100
AcDbEntity
  8
0
  6
Continuous
100
AcDbLine
 10
0.0188459995925121
 20
0.266378915269231
 30
0.0
 11
0.0174749995925121
 21
0.264828915269231
 31
0.0
  0
LINE
  5
547
330
6F
100
AcDbEntity
  8
0
  6
Continuous
100
AcDbLine
 10
0.0189069995925121
 20
0.266336915269231
 30
0.0
 11
0.0188459995925121
 21
0.266378915269231
 31
0.0
  0
LINE
  5
548
330
6F
100
AcDbEntity
  8
0
  6
Continuous
100
AcDbLine
 10
0.0189069995925121
 20
0.266336915269231
 30
0.0
 11
0.0175359995925121
 21
0.264787915269231
 31
0.0
  0
LINE
  5
549
330
6F
100
AcDbEntity
  8
0
  6
Continuous
100
AcDbLine
 10
0.0196569995925121
 20
0.266625915269231
 30
0.0
 11
0.0197179995925121
 21
0.266584915269231
 31
0.0
  0
LINE
  5
54A
330
6F
100
AcDbEntity
  8
0
  6
Continuous
100
AcDbLine
 10
0.0203129995925121
 20
0.266469915269231
 30
0.0
 11
0.0196569995925121
 21
0.266625915269231
 31
0.0
  0
LINE
  5
54B
330
6F
100
AcDbEntity
  8
0
  6
Continuous
100
AcDbLine
 10
0.0197179995925121
 20
0.266584915269231
 30
0.0
 11
0.0199919995925121
 21
0.2665149152692309
 31
0.0
  0
LINE
  5
54C
330
6F
100
AcDbEntity
  8
0
  6
Continuous
100
AcDbLine
 10
0.0154399995925121
 20
0.260567915269231
 30
0.0
 11
0.0141799995925121
 21
0.2577949152692309
 31
0.0
  0
LINE
  5
54D
330
6F
100
AcDbEntity
  8
0
  6
Continuous
100
AcDbLine
 10
0.0126179995925121
 20
0.2529149152692309
 30
0.0
 11
0.0115319995925121
 21
0.253827915269231
 31
0.0
  0
LINE
  5
54E
330
6F
100
AcDbEntity
  8
0
  6
Continuous
100
AcDbLine
 10
0.0115319995925121
 20
0.253827915269231
 30
0.0
 11
0.0108099995925121
 21
0.2527759152692309
 31
0.0
  0
LINE
  5
54F
330
6F
100
AcDbEntity
  8
0
  6
Continuous
100
AcDbLine
 10
0.0136669995925121
 20
0.2511539152692309
 30
0.0
 11
0.0147599995925121
 21
0.2526019152692309
 31
0.0
  0
LINE
  5
550
330
6F
100
AcDbEntity
  8
0
  6
Continuous
100
AcDbLine
 10
-0.0096090004074879
 20
0.232338915269231
 30
0.0
 11
-0.0136650004074879
 21
0.229322915269231
 31
0.0
  0
LINE
  5
551
330
6F
100
AcDbEntity
  8
0
  6
Continuous
100
AcDbLine
 10
-0.0001190004074879
 20
0.196454915269231
 30
0.0
 11
-0.0001190004074879
 21
0.1925389152692309
 31
0.0
  0
LINE
  5
552
330
6F
100
AcDbEntity
  8
0
  6
Continuous
100
AcDbLine
 10
-0.0136650004074879
 20
0.229322915269231
 30
0.0
 11
-0.0167260004074879
 21
0.2252669152692309
 31
0.0
  0
LINE
  5
553
330
6F
100
AcDbEntity
  8
0
  6
Continuous
100
AcDbLine
 10
0.0183249995925121
 20
0.2206909152692309
 30
0.0
 11
0.0164879995925121
 21
0.2252669152692309
 31
0.0
  0
LINE
  5
554
330
6F
100
AcDbEntity
  8
0
  6
Continuous
100
AcDbLine
 10
-0.0049420004074879
 20
0.189107915269231
 30
0.0
 11
-0.0049420004074879
 21
0.1874189152692309
 31
0.0
  0
LINE
  5
555
330
6F
100
AcDbEntity
  8
0
  6
Continuous
100
AcDbLine
 10
-0.0021850004074879
 20
0.190533915269231
 30
0.0
 11
-0.0021760004074879
 21
0.1888239152692309
 31
0.0
  0
LINE
  5
556
330
6F
100
AcDbEntity
  8
0
  6
Continuous
100
AcDbLine
 10
-0.0049420004074879
 20
0.185266915269231
 30
0.0
 11
-0.0049420004074879
 21
0.142990915269231
 31
0.0
  0
LINE
  5
557
330
6F
100
AcDbEntity
  8
0
  6
Continuous
100
AcDbLine
 10
-0.0001190004074879
 20
0.1435969152692309
 30
0.0
 11
-0.0001190004074879
 21
0.1884799152692309
 31
0.0
  0
LINE
  5
558
330
6F
100
AcDbEntity
  8
0
  6
Continuous
100
AcDbLine
 10
-0.0060890004074879
 20
0.1916679152692309
 30
0.0
 11
-0.0052150004074879
 21
0.190726915269231
 31
0.0
  0
LINE
  5
559
330
6F
100
AcDbEntity
  8
0
  6
Continuous
100
AcDbLine
 10
0.0047039995925121
 20
0.189107915269231
 30
0.0
 11
0.0049819995925121
 21
0.1901589152692309
 31
0.0
  0
LINE
  5
55A
330
6F
100
AcDbEntity
  8
0
  6
Continuous
100
AcDbLine
 10
-0.0001190004074879
 20
0.2349139152692309
 30
0.0
 11
-0.0050170004074879
 21
0.2342109152692309
 31
0.0
  0
LINE
  5
55B
330
6F
100
AcDbEntity
  8
0
  6
Continuous
100
AcDbLine
 10
-0.0192510004074879
 20
0.215827915269231
 30
0.0
 11
-0.0192480004074879
 21
0.2156789152692309
 31
0.0
  0
LINE
  5
55C
330
6F
100
AcDbEntity
  8
0
  6
Continuous
100
AcDbLine
 10
-0.0185620004074879
 20
0.2206909152692309
 30
0.0
 11
-0.0192510004074879
 21
0.215827915269231
 31
0.0
  0
LINE
  5
55D
330
6F
100
AcDbEntity
  8
0
  6
Continuous
100
AcDbLine
 10
0.0190129995925121
 20
0.215827915269231
 30
0.0
 11
0.0183249995925121
 21
0.2206909152692309
 31
0.0
  0
LINE
  5
55E
330
6F
100
AcDbEntity
  8
0
  6
Continuous
100
AcDbLine
 10
0.0190099995925121
 20
0.2156789152692309
 30
0.0
 11
0.0190129995925121
 21
0.215827915269231
 31
0.0
  0
LINE
  5
55F
330
6F
100
AcDbEntity
  8
0
  6
Continuous
100
AcDbLine
 10
0.0047789995925121
 20
0.2342109152692309
 30
0.0
 11
-0.0001190004074879
 21
0.2349139152692309
 31
0.0
  0
LINE
  5
560
330
6F
100
AcDbEntity
  8
0
  6
Continuous
100
AcDbLine
 10
0.0047039995925121
 20
0.1874189152692309
 30
0.0
 11
0.0047039995925121
 21
0.189107915269231
 31
0.0
  0
LINE
  5
561
330
6F
100
AcDbEntity
  8
0
  6
Continuous
100
AcDbLine
 10
-0.0001190004074879
 20
0.1925389152692309
 30
0.0
 11
-0.0001190004074879
 21
0.1907549152692309
 31
0.0
  0
LINE
  5
562
330
6F
100
AcDbEntity
  8
0
  6
Continuous
100
AcDbLine
 10
0.0018569995925121
 20
0.1888479152692309
 30
0.0
 11
0.0018629995925121
 21
0.1905599152692309
 31
0.0
  0
LINE
  5
563
330
6F
100
AcDbEntity
  8
0
  6
Continuous
100
AcDbLine
 10
0.0047039995925121
 20
0.142990915269231
 30
0.0
 11
0.0047039995925121
 21
0.185266915269231
 31
0.0
  0
LINE
  5
564
330
6F
100
AcDbEntity
  8
0
  6
Continuous
100
AcDbLine
 10
-0.0035300004074879
 20
0.1434199152692309
 30
0.0
 11
-0.0035830004074879
 21
0.1849049152692309
 31
0.0
  0
LINE
  5
565
330
6F
100
AcDbEntity
  8
0
  6
Continuous
100
AcDbLine
 10
-0.0001190004074879
 20
0.208173915269231
 30
0.0
 11
-0.0001190004074879
 21
0.2042579152692309
 31
0.0
  0
LINE
  5
566
330
6F
100
AcDbEntity
  8
0
  6
Continuous
100
AcDbLine
 10
-0.0052200004074879
 20
0.1901589152692309
 30
0.0
 11
-0.0049420004074879
 21
0.189107915269231
 31
0.0
  0
LINE
  5
567
330
6F
100
AcDbEntity
  8
0
  6
Continuous
100
AcDbLine
 10
-0.0059030004074879
 20
0.1914049152692309
 30
0.0
 11
-0.0052200004074879
 21
0.1901589152692309
 31
0.0
  0
LINE
  5
568
330
6F
100
AcDbEntity
  8
0
  6
Continuous
100
AcDbLine
 10
-0.0001190004074879
 20
0.200359915269231
 30
0.0
 11
-0.0001190004074879
 21
0.196454915269231
 31
0.0
  0
LINE
  5
569
330
6F
100
AcDbEntity
  8
0
  6
Continuous
100
AcDbLine
 10
0.0047539995925121
 20
0.189946915269231
 30
0.0
 11
0.0056649995925121
 21
0.1914049152692309
 31
0.0
  0
LINE
  5
56A
330
6F
100
AcDbEntity
  8
0
  6
Continuous
100
AcDbLine
 10
-0.0049420004074879
 20
0.142990915269231
 30
0.0
 11
-0.0049420004074879
 21
0.142407915269231
 31
0.0
  0
LINE
  5
56B
330
6F
100
AcDbEntity
  8
0
  6
Continuous
100
AcDbLine
 10
-0.0191190004074879
 20
0.2095859152692309
 30
0.0
 11
-0.0184720004074879
 21
0.2047959152692309
 31
0.0
  0
LINE
  5
56C
330
6F
100
AcDbEntity
  8
0
  6
Continuous
100
AcDbLine
 10
-0.0165730004074879
 20
0.200328915269231
 30
0.0
 11
-0.0135540004074879
 21
0.196486915269231
 31
0.0
  0
LINE
  5
56D
330
6F
100
AcDbEntity
  8
0
  6
Continuous
100
AcDbLine
 10
-0.0184720004074879
 20
0.2047959152692309
 30
0.0
 11
-0.0165730004074879
 21
0.200328915269231
 31
0.0
  0
LINE
  5
56E
330
6F
100
AcDbEntity
  8
0
  6
Continuous
100
AcDbLine
 10
-0.0135540004074879
 20
0.196486915269231
 30
0.0
 11
-0.0096190004074879
 21
0.1935339152692309
 31
0.0
  0
LINE
  5
56F
330
6F
100
AcDbEntity
  8
0
  6
Continuous
100
AcDbLine
 10
-0.0165730004074879
 20
0.2188539152692309
 30
0.0
 11
-0.0184720004074879
 21
0.2143799152692309
 31
0.0
  0
LINE
  5
570
330
6F
100
AcDbEntity
  8
0
  6
Continuous
100
AcDbLine
 10
0.0047039995925121
 20
0.185266915269231
 30
0.0
 11
0.0047039995925121
 21
0.1874189152692309
 31
0.0
  0
LINE
  5
571
330
6F
100
AcDbEntity
  8
0
  6
Continuous
100
AcDbLine
 10
-0.0070280004074879
 20
0.1925349152692309
 30
0.0
 11
-0.0060890004074879
 21
0.1916679152692309
 31
0.0
  0
LINE
  5
572
330
6F
100
AcDbEntity
  8
0
  6
Continuous
100
AcDbLine
 10
-0.0096190004074879
 20
0.1935339152692309
 30
0.0
 11
-0.0070280004074879
 21
0.1925349152692309
 31
0.0
  0
LINE
  5
573
330
6F
100
AcDbEntity
  8
0
  6
Continuous
100
AcDbLine
 10
0.0182109995925121
 20
0.204802915269231
 30
0.0
 11
0.0188809995925121
 21
0.2095859152692309
 31
0.0
  0
LINE
  5
574
330
6F
100
AcDbEntity
  8
0
  6
Continuous
100
AcDbLine
 10
0.0133159995925121
 20
0.222705915269231
 30
0.0
 11
0.0093809995925121
 21
0.2256689152692309
 31
0.0
  0
LINE
  5
575
330
6F
100
AcDbEntity
  8
0
  6
Continuous
100
AcDbLine
 10
0.0163359995925121
 20
0.2188539152692309
 30
0.0
 11
0.0133159995925121
 21
0.222705915269231
 31
0.0
  0
LINE
  5
576
330
6F
100
AcDbEntity
  8
0
  6
Continuous
100
AcDbLine
 10
0.0133159995925121
 20
0.196486915269231
 30
0.0
 11
0.0163359995925121
 21
0.200328915269231
 31
0.0
  0
LINE
  5
577
330
6F
100
AcDbEntity
  8
0
  6
Continuous
100
AcDbLine
 10
0.0163359995925121
 20
0.200328915269231
 30
0.0
 11
0.0182109995925121
 21
0.204802915269231
 31
0.0
  0
LINE
  5
578
330
6F
100
AcDbEntity
  8
0
  6
Continuous
100
AcDbLine
 10
0.0093809995925121
 20
0.1935339152692309
 30
0.0
 11
0.0133159995925121
 21
0.196486915269231
 31
0.0
  0
LINE
  5
579
330
6F
100
AcDbEntity
  8
0
  6
Continuous
100
AcDbLine
 10
0.0058519995925121
 20
0.1916679152692309
 30
0.0
 11
0.0067899995925121
 21
0.1925349152692309
 31
0.0
  0
LINE
  5
57A
330
6F
100
AcDbEntity
  8
0
  6
Continuous
100
AcDbLine
 10
0.0067899995925121
 20
0.1925349152692309
 30
0.0
 11
0.0093809995925121
 21
0.1935339152692309
 31
0.0
  0
LINE
  5
57B
330
6F
100
AcDbEntity
  8
0
  6
Continuous
100
AcDbLine
 10
0.0049779995925121
 20
0.190726915269231
 30
0.0
 11
0.0058519995925121
 21
0.1916679152692309
 31
0.0
  0
LINE
  5
57C
330
6F
100
AcDbEntity
  8
0
  6
Continuous
100
AcDbLine
 10
-0.0052150004074879
 20
0.190726915269231
 30
0.0
 11
-0.0043670004074879
 21
0.1897359152692309
 31
0.0
  0
LINE
  5
57D
330
6F
100
AcDbEntity
  8
0
  6
Continuous
100
AcDbLine
 10
0.0042779995925121
 20
0.1898189152692309
 30
0.0
 11
0.0049779995925121
 21
0.190726915269231
 31
0.0
  0
LINE
  5
57E
330
6F
100
AcDbEntity
  8
0
  6
Continuous
100
AcDbLine
 10
0.0049779995925121
 20
0.190726915269231
 30
0.0
 11
0.0041289995925121
 21
0.1897359152692309
 31
0.0
  0
LINE
  5
57F
330
6F
100
AcDbEntity
  8
0
  6
Continuous
100
AcDbLine
 10
-0.0035880004074879
 20
0.188666915269231
 30
0.0
 11
-0.0045160004074879
 21
0.1898189152692309
 31
0.0
  0
LINE
  5
580
330
6F
100
AcDbEntity
  8
0
  6
Continuous
100
AcDbLine
 10
-0.0043670004074879
 20
0.1897359152692309
 30
0.0
 11
-0.0035880004074879
 21
0.188666915269231
 31
0.0
  0
LINE
  5
581
330
6F
100
AcDbEntity
  8
0
  6
Continuous
100
AcDbLine
 10
0.0033499995925121
 20
0.188666915269231
 30
0.0
 11
0.0038369995925121
 21
0.1887799152692309
 31
0.0
  0
LINE
  5
582
330
6F
100
AcDbEntity
  8
0
  6
Continuous
100
AcDbLine
 10
0.0033499995925121
 20
0.188666915269231
 30
0.0
 11
0.0041289995925121
 21
0.1897359152692309
 31
0.0
  0
LINE
  5
583
330
6F
100
AcDbEntity
  8
0
  6
Continuous
100
AcDbLine
 10
-0.0050170004074879
 20
0.2342109152692309
 30
0.0
 11
-0.0096090004074879
 21
0.232338915269231
 31
0.0
  0
LINE
  5
584
330
6F
100
AcDbEntity
  8
0
  6
Continuous
100
AcDbLine
 10
0.0047989995925121
 20
0.2275359152692309
 30
0.0
 11
0.0093809995925121
 21
0.2256689152692309
 31
0.0
  0
LINE
  5
585
330
6F
100
AcDbEntity
  8
0
  6
Continuous
100
AcDbLine
 10
-0.0001190004074879
 20
0.200359915269231
 30
0.0
 11
-0.0001190004074879
 21
0.2042579152692309
 31
0.0
  0
LINE
  5
586
330
6F
100
AcDbEntity
  8
0
  6
Continuous
100
AcDbLine
 10
-0.0045750004074879
 20
0.1426399152692309
 30
0.0
 11
-0.0049420004074879
 21
0.142407915269231
 31
0.0
  0
LINE
  5
587
330
6F
100
AcDbEntity
  8
0
  6
Continuous
100
AcDbLine
 10
-0.0049420004074879
 20
0.142407915269231
 30
0.0
 11
-0.0045750004074879
 21
0.142178915269231
 31
0.0
  0
LINE
  5
588
330
6F
100
AcDbEntity
  8
0
  6
Continuous
100
AcDbLine
 10
-0.0045750004074879
 20
0.142178915269231
 30
0.0
 11
-0.0035300004074879
 21
0.141984915269231
 31
0.0
  0
LINE
  5
589
330
6F
100
AcDbEntity
  8
0
  6
Continuous
100
AcDbLine
 10
-0.0035300004074879
 20
0.141984915269231
 30
0.0
 11
-0.0019650004074879
 21
0.141855915269231
 31
0.0
  0
LINE
  5
58A
330
6F
100
AcDbEntity
  8
0
  6
Continuous
100
AcDbLine
 10
-0.0019650004074879
 20
0.141855915269231
 30
0.0
 11
-0.0001190004074879
 21
0.1418099152692309
 31
0.0
  0
LINE
  5
58B
330
6F
100
AcDbEntity
  8
0
  6
Continuous
100
AcDbLine
 10
0.0017269995925121
 20
0.142967915269231
 30
0.0
 11
-0.0001190004074879
 21
0.1430139152692309
 31
0.0
  0
LINE
  5
58C
330
6F
100
AcDbEntity
  8
0
  6
Continuous
100
AcDbLine
 10
0.0043369995925121
 20
0.142178915269231
 30
0.0
 11
0.0047039995925121
 21
0.142407915269231
 31
0.0
  0
LINE
  5
58D
330
6F
100
AcDbEntity
  8
0
  6
Continuous
100
AcDbLine
 10
0.0032919995925121
 20
0.141984915269231
 30
0.0
 11
0.0043369995925121
 21
0.142178915269231
 31
0.0
  0
LINE
  5
58E
330
6F
100
AcDbEntity
  8
0
  6
Continuous
100
AcDbLine
 10
0.0017269995925121
 20
0.141855915269231
 30
0.0
 11
0.0032919995925121
 21
0.141984915269231
 31
0.0
  0
LINE
  5
58F
330
6F
100
AcDbEntity
  8
0
  6
Continuous
100
AcDbLine
 10
-0.0001190004074879
 20
0.1418099152692309
 30
0.0
 11
0.0017269995925121
 21
0.141855915269231
 31
0.0
  0
LINE
  5
590
330
6F
100
AcDbEntity
  8
0
  6
Continuous
100
AcDbLine
 10
-0.0028520004074879
 20
0.142892915269231
 30
0.0
 11
-0.0035300004074879
 21
0.1428369152692309
 31
0.0
  0
LINE
  5
591
330
6F
100
AcDbEntity
  8
0
  6
Continuous
100
AcDbLine
 10
0.0038769995925121
 20
0.1427259152692309
 30
0.0
 11
0.0032919995925121
 21
0.1428369152692309
 31
0.0
  0
LINE
  5
592
330
6F
100
AcDbEntity
  8
0
  6
Continuous
100
AcDbLine
 10
-0.0001190004074879
 20
0.1430139152692309
 30
0.0
 11
-0.0001190004074879
 21
0.1435969152692309
 31
0.0
  0
LINE
  5
593
330
6F
100
AcDbEntity
  8
0
  6
Continuous
100
AcDbLine
 10
-0.0019650004074879
 20
0.142967915269231
 30
0.0
 11
-0.0001190004074879
 21
0.1430139152692309
 31
0.0
  0
LINE
  5
594
330
6F
100
AcDbEntity
  8
0
  6
Continuous
100
AcDbLine
 10
-0.0045750004074879
 20
0.1426399152692309
 30
0.0
 11
-0.0041150004074879
 21
0.1427259152692309
 31
0.0
  0
LINE
  5
595
330
6F
100
AcDbEntity
  8
0
  6
Continuous
100
AcDbLine
 10
0.0026139995925121
 20
0.142892915269231
 30
0.0
 11
0.0032919995925121
 21
0.1428369152692309
 31
0.0
  0
LINE
  5
596
330
6F
100
AcDbEntity
  8
0
  6
Continuous
100
AcDbLine
 10
0.0047039995925121
 20
0.142407915269231
 30
0.0
 11
0.0047039995925121
 21
0.142990915269231
 31
0.0
  0
LINE
  5
597
330
6F
100
AcDbEntity
  8
0
  6
Continuous
100
AcDbLine
 10
0.0043369995925121
 20
0.1426399152692309
 30
0.0
 11
0.0047039995925121
 21
0.142407915269231
 31
0.0
  0
LINE
  5
598
330
6F
100
AcDbEntity
  8
0
  6
Continuous
100
AcDbLine
 10
0.0038769995925121
 20
0.1427259152692309
 30
0.0
 11
0.0043369995925121
 21
0.1426399152692309
 31
0.0
  0
LINE
  5
599
330
6F
100
AcDbEntity
  8
0
  6
Continuous
100
AcDbLine
 10
-0.0041150004074879
 20
0.1427259152692309
 30
0.0
 11
-0.0035300004074879
 21
0.1428369152692309
 31
0.0
  0
LINE
  5
59A
330
6F
100
AcDbEntity
  8
0
  6
Continuous
100
AcDbLine
 10
0.0017269995925121
 20
0.1435509152692309
 30
0.0
 11
0.0017269995925121
 21
0.142967915269231
 31
0.0
  0
LINE
  5
59B
330
6F
100
AcDbEntity
  8
0
  6
Continuous
100
AcDbLine
 10
0.0017269995925121
 20
0.142967915269231
 30
0.0
 11
0.0026139995925121
 21
0.142892915269231
 31
0.0
  0
LINE
  5
59C
330
6F
100
AcDbEntity
  8
0
  6
Continuous
100
AcDbLine
 10
-0.0019650004074879
 20
0.142967915269231
 30
0.0
 11
-0.0019650004074879
 21
0.1435509152692309
 31
0.0
  0
LINE
  5
59D
330
6F
100
AcDbEntity
  8
0
  6
Continuous
100
AcDbLine
 10
-0.0028520004074879
 20
0.142892915269231
 30
0.0
 11
-0.0019650004074879
 21
0.142967915269231
 31
0.0
  0
LINE
  5
59E
330
6F
100
AcDbEntity
  8
0
  6
Continuous
100
AcDbLine
 10
-0.0049420004074879
 20
0.1874189152692309
 30
0.0
 11
-0.0049420004074879
 21
0.185266915269231
 31
0.0
  0
LINE
  5
59F
330
6F
100
AcDbEntity
  8
0
  6
Continuous
100
AcDbLine
 10
-0.0001190004074879
 20
0.1884799152692309
 30
0.0
 11
-0.0001190004074879
 21
0.1907549152692309
 31
0.0
  0
LINE
  5
5A0
330
6F
100
AcDbEntity
  8
0
  6
Continuous
100
AcDbLine
 10
-0.0096190004074879
 20
0.2256689152692309
 30
0.0
 11
-0.0050360004074879
 21
0.2275359152692309
 31
0.0
  0
LINE
  5
5A1
330
6F
100
AcDbEntity
  8
0
  6
Continuous
100
AcDbLine
 10
-0.0001190004074879
 20
0.2281729152692309
 30
0.0
 11
0.0047989995925121
 21
0.2275359152692309
 31
0.0
  0
LINE
  5
5A2
330
6F
100
AcDbEntity
  8
0
  6
Continuous
100
AcDbLine
 10
0.0188809995925121
 20
0.2095859152692309
 30
0.0
 11
0.0188849995925121
 21
0.2097709152692309
 31
0.0
  0
LINE
  5
5A3
330
6F
100
AcDbEntity
  8
0
  6
Continuous
100
AcDbLine
 10
0.0182339995925121
 20
0.2143799152692309
 30
0.0
 11
0.0188809995925121
 21
0.2095859152692309
 31
0.0
  0
LINE
  5
5A4
330
6F
100
AcDbEntity
  8
0
  6
Continuous
100
AcDbLine
 10
-0.0191190004074879
 20
0.2095859152692309
 30
0.0
 11
-0.0184720004074879
 21
0.2143799152692309
 31
0.0
  0
LINE
  5
5A5
330
6F
100
AcDbEntity
  8
0
  6
Continuous
100
AcDbLine
 10
-0.0191230004074879
 20
0.2097709152692309
 30
0.0
 11
-0.0191190004074879
 21
0.2095859152692309
 31
0.0
  0
LINE
  5
5A6
330
6F
100
AcDbEntity
  8
0
  6
Continuous
100
AcDbLine
 10
-0.0050360004074879
 20
0.2275359152692309
 30
0.0
 11
-0.0001190004074879
 21
0.2281729152692309
 31
0.0
  0
LINE
  5
5A7
330
6F
100
AcDbEntity
  8
0
  6
Continuous
100
AcDbLine
 10
0.0163359995925121
 20
0.2188539152692309
 30
0.0
 11
0.0182339995925121
 21
0.2143799152692309
 31
0.0
  0
LINE
  5
5A8
330
6F
100
AcDbEntity
  8
0
  6
Continuous
100
AcDbLine
 10
-0.0165730004074879
 20
0.2188539152692309
 30
0.0
 11
-0.0135540004074879
 21
0.222705915269231
 31
0.0
  0
LINE
  5
5A9
330
6F
100
AcDbEntity
  8
0
  6
Continuous
100
AcDbLine
 10
-0.0135540004074879
 20
0.222705915269231
 30
0.0
 11
-0.0096190004074879
 21
0.2256689152692309
 31
0.0
  0
LINE
  5
5AA
330
6F
100
AcDbEntity
  8
0
  6
Continuous
100
AcDbLine
 10
0.0189349995925121
 20
0.2121089152692309
 30
0.0
 11
0.0189439995925121
 21
0.2125769152692309
 31
0.0
  0
LINE
  5
5AB
330
6F
100
AcDbEntity
  8
0
  6
Continuous
100
AcDbLine
 10
-0.0191820004074879
 20
0.2125769152692309
 30
0.0
 11
-0.0191720004074879
 21
0.2121089152692309
 31
0.0
  0
LINE
  5
5AC
330
6F
100
AcDbEntity
  8
0
  6
Continuous
100
AcDbLine
 10
-0.0191330004074879
 20
0.2102389152692309
 30
0.0
 11
-0.0191230004074879
 21
0.2097709152692309
 31
0.0
  0
LINE
  5
5AD
330
6F
100
AcDbEntity
  8
0
  6
Continuous
100
AcDbLine
 10
-0.0191430004074879
 20
0.2107059152692309
 30
0.0
 11
-0.0191330004074879
 21
0.2102389152692309
 31
0.0
  0
LINE
  5
5AE
330
6F
100
AcDbEntity
  8
0
  6
Continuous
100
AcDbLine
 10
-0.0191530004074879
 20
0.2111739152692309
 30
0.0
 11
-0.0191430004074879
 21
0.2107059152692309
 31
0.0
  0
LINE
  5
5AF
330
6F
100
AcDbEntity
  8
0
  6
Continuous
100
AcDbLine
 10
-0.0191620004074879
 20
0.2116419152692309
 30
0.0
 11
-0.0191530004074879
 21
0.2111739152692309
 31
0.0
  0
LINE
  5
5B0
330
6F
100
AcDbEntity
  8
0
  6
Continuous
100
AcDbLine
 10
-0.0191720004074879
 20
0.2121089152692309
 30
0.0
 11
-0.0191620004074879
 21
0.2116419152692309
 31
0.0
  0
LINE
  5
5B1
330
6F
100
AcDbEntity
  8
0
  6
Continuous
100
AcDbLine
 10
0.0188849995925121
 20
0.2097709152692309
 30
0.0
 11
0.0188949995925121
 21
0.2102389152692309
 31
0.0
  0
LINE
  5
5B2
330
6F
100
AcDbEntity
  8
0
  6
Continuous
100
AcDbLine
 10
0.0188949995925121
 20
0.2102389152692309
 30
0.0
 11
0.0189049995925121
 21
0.2107059152692309
 31
0.0
  0
LINE
  5
5B3
330
6F
100
AcDbEntity
  8
0
  6
Continuous
100
AcDbLine
 10
0.0189049995925121
 20
0.2107059152692309
 30
0.0
 11
0.0189149995925121
 21
0.2111739152692309
 31
0.0
  0
LINE
  5
5B4
330
6F
100
AcDbEntity
  8
0
  6
Continuous
100
AcDbLine
 10
0.0189149995925121
 20
0.2111739152692309
 30
0.0
 11
0.0189249995925121
 21
0.2116419152692309
 31
0.0
  0
LINE
  5
5B5
330
6F
100
AcDbEntity
  8
0
  6
Continuous
100
AcDbLine
 10
0.0189249995925121
 20
0.2116419152692309
 30
0.0
 11
0.0189349995925121
 21
0.2121089152692309
 31
0.0
  0
LINE
  5
5B6
330
6F
100
AcDbEntity
  8
0
  6
Continuous
100
AcDbLine
 10
0.0093709995925121
 20
0.232338915269231
 30
0.0
 11
0.0047789995925121
 21
0.2342109152692309
 31
0.0
  0
LINE
  5
5B7
330
6F
100
AcDbEntity
  8
0
  6
Continuous
100
AcDbLine
 10
0.0134269995925121
 20
0.229322915269231
 30
0.0
 11
0.0093709995925121
 21
0.232338915269231
 31
0.0
  0
LINE
  5
5B8
330
6F
100
AcDbEntity
  8
0
  6
Continuous
100
AcDbLine
 10
-0.0167260004074879
 20
0.2252669152692309
 30
0.0
 11
-0.0185620004074879
 21
0.2206909152692309
 31
0.0
  0
LINE
  5
5B9
330
6F
100
AcDbEntity
  8
0
  6
Continuous
100
AcDbLine
 10
0.0164879995925121
 20
0.2252669152692309
 30
0.0
 11
0.0134269995925121
 21
0.229322915269231
 31
0.0
  0
LINE
  5
5BA
330
6F
100
AcDbEntity
  8
0
  6
Continuous
100
AcDbLine
 10
0.0189439995925121
 20
0.2125769152692309
 30
0.0
 11
0.0190099995925121
 21
0.2156789152692309
 31
0.0
  0
LINE
  5
5BB
330
6F
100
AcDbEntity
  8
0
  6
Continuous
100
AcDbLine
 10
-0.0192480004074879
 20
0.2156789152692309
 30
0.0
 11
-0.0191820004074879
 21
0.2125769152692309
 31
0.0
  0
LINE
  5
5BC
330
6F
100
AcDbEntity
  8
0
  6
Continuous
100
AcDbLine
 10
-0.0223350004074879
 20
0.243652915269231
 30
0.0
 11
-0.0231190004074879
 21
0.2376989152692309
 31
0.0
  0
LINE
  5
5BD
330
6F
100
AcDbEntity
  8
0
  6
Continuous
100
AcDbLine
 10
-0.0200380004074879
 20
0.249199915269231
 30
0.0
 11
-0.0223350004074879
 21
0.243652915269231
 31
0.0
  0
LINE
  5
5BE
330
6F
100
AcDbEntity
  8
0
  6
Continuous
100
AcDbLine
 10
-0.0001190004074879
 20
0.2607019152692309
 30
0.0
 11
-0.0060720004074879
 21
0.259917915269231
 31
0.0
  0
LINE
  5
5BF
330
6F
100
AcDbEntity
  8
0
  6
Continuous
100
AcDbLine
 10
-0.0163820004074879
 20
0.253963915269231
 30
0.0
 11
-0.0200380004074879
 21
0.249199915269231
 31
0.0
  0
LINE
  5
5C0
330
6F
100
AcDbEntity
  8
0
  6
Continuous
100
AcDbLine
 10
-0.0060720004074879
 20
0.259917915269231
 30
0.0
 11
-0.0116190004074879
 21
0.2576199152692309
 31
0.0
  0
LINE
  5
5C1
330
6F
100
AcDbEntity
  8
0
  6
Continuous
100
AcDbLine
 10
-0.0223350004074879
 20
0.2317459152692309
 30
0.0
 11
-0.0223040004074879
 21
0.231607915269231
 31
0.0
  0
LINE
  5
5C2
330
6F
100
AcDbEntity
  8
0
  6
Continuous
100
AcDbLine
 10
-0.0231190004074879
 20
0.2376989152692309
 30
0.0
 11
-0.0223350004074879
 21
0.2317459152692309
 31
0.0
  0
LINE
  5
5C3
330
6F
100
AcDbEntity
  8
0
  6
Continuous
100
AcDbLine
 10
-0.0116190004074879
 20
0.2576199152692309
 30
0.0
 11
-0.0163820004074879
 21
0.253963915269231
 31
0.0
  0
LINE
  5
5C4
330
6F
100
AcDbEntity
  8
0
  6
Continuous
100
AcDbLine
 10
0.0228809995925121
 20
0.2376989152692309
 30
0.0
 11
0.0220969995925121
 21
0.243652915269231
 31
0.0
  0
LINE
  5
5C5
330
6F
100
AcDbEntity
  8
0
  6
Continuous
100
AcDbLine
 10
0.0220969995925121
 20
0.243652915269231
 30
0.0
 11
0.0197999995925121
 21
0.249199915269231
 31
0.0
  0
LINE
  5
5C6
330
6F
100
AcDbEntity
  8
0
  6
Continuous
100
AcDbLine
 10
0.0058339995925121
 20
0.259917915269231
 30
0.0
 11
-0.0001190004074879
 21
0.2607019152692309
 31
0.0
  0
LINE
  5
5C7
330
6F
100
AcDbEntity
  8
0
  6
Continuous
100
AcDbLine
 10
0.0197999995925121
 20
0.249199915269231
 30
0.0
 11
0.0161449995925121
 21
0.253963915269231
 31
0.0
  0
LINE
  5
5C8
330
6F
100
AcDbEntity
  8
0
  6
Continuous
100
AcDbLine
 10
0.0113809995925121
 20
0.2576199152692309
 30
0.0
 11
0.0058339995925121
 21
0.259917915269231
 31
0.0
  0
LINE
  5
5C9
330
6F
100
AcDbEntity
  8
0
  6
Continuous
100
AcDbLine
 10
0.0220969995925121
 20
0.2317459152692309
 30
0.0
 11
0.0228809995925121
 21
0.2376989152692309
 31
0.0
  0
LINE
  5
5CA
330
6F
100
AcDbEntity
  8
0
  6
Continuous
100
AcDbLine
 10
0.0220659995925121
 20
0.231607915269231
 30
0.0
 11
0.0220969995925121
 21
0.2317459152692309
 31
0.0
  0
LINE
  5
5CB
330
6F
100
AcDbEntity
  8
0
  6
Continuous
100
AcDbLine
 10
0.0182339995925121
 20
0.2210419152692309
 30
0.0
 11
0.0163359995925121
 21
0.225638915269231
 31
0.0
  0
LINE
  5
5CC
330
6F
100
AcDbEntity
  8
0
  6
Continuous
100
AcDbLine
 10
0.0133159995925121
 20
0.229586915269231
 30
0.0
 11
0.0093809995925121
 21
0.2326149152692309
 31
0.0
  0
LINE
  5
5CD
330
6F
100
AcDbEntity
  8
0
  6
Continuous
100
AcDbLine
 10
0.0093809995925121
 20
0.2326149152692309
 30
0.0
 11
0.0047989995925121
 21
0.2345179152692309
 31
0.0
  0
LINE
  5
5CE
330
6F
100
AcDbEntity
  8
0
  6
Continuous
100
AcDbLine
 10
0.0047989995925121
 20
0.2345179152692309
 30
0.0
 11
-0.0001190004074879
 21
0.235166915269231
 31
0.0
  0
LINE
  5
5CF
330
6F
100
AcDbEntity
  8
0
  6
Continuous
100
AcDbLine
 10
0.0163359995925121
 20
0.225638915269231
 30
0.0
 11
0.0133159995925121
 21
0.229586915269231
 31
0.0
  0
LINE
  5
5D0
330
6F
100
AcDbEntity
  8
0
  6
Continuous
100
AcDbLine
 10
0.0150829995925121
 20
0.1441639152692309
 30
0.0
 11
0.0151069995925121
 21
0.145144915269231
 31
0.0
  0
LINE
  5
5D1
330
6F
100
AcDbEntity
  8
0
  6
Continuous
100
AcDbLine
 10
0.0136139995925121
 20
0.139260915269231
 30
0.0
 11
0.0150829995925121
 21
0.1441639152692309
 31
0.0
  0
LINE
  5
5D2
330
6F
100
AcDbEntity
  8
0
  6
Continuous
100
AcDbLine
 10
-0.0001190004074879
 20
0.1322549152692309
 30
0.0
 11
0.0055009995925121
 21
0.1331219152692309
 31
0.0
  0
LINE
  5
5D3
330
6F
100
AcDbEntity
  8
0
  6
Continuous
100
AcDbLine
 10
0.0055009995925121
 20
0.1331219152692309
 30
0.0
 11
0.0102919995925121
 21
0.1355679152692309
 31
0.0
  0
LINE
  5
5D4
330
6F
100
AcDbEntity
  8
0
  6
Continuous
100
AcDbLine
 10
0.0102919995925121
 20
0.1355679152692309
 30
0.0
 11
0.0136139995925121
 21
0.139260915269231
 31
0.0
  0
LINE
  5
5D5
330
6F
100
AcDbEntity
  8
0
  6
Continuous
100
AcDbLine
 10
0.0190849995925121
 20
0.2158949152692309
 30
0.0
 11
0.0196989995925121
 21
0.219128915269231
 31
0.0
  0
LINE
  5
5D6
330
6F
100
AcDbEntity
  8
0
  6
Continuous
100
AcDbLine
 10
0.0151069995925121
 20
0.145144915269231
 30
0.0
 11
0.0165039995925121
 21
0.200729915269231
 31
0.0
  0
LINE
  5
5D7
330
6F
100
AcDbEntity
  8
0
  6
Continuous
100
AcDbLine
 10
-0.0199370004074879
 20
0.219128915269231
 30
0.0
 11
-0.0193230004074879
 21
0.2158949152692309
 31
0.0
  0
LINE
  5
5D8
330
6F
100
AcDbEntity
  8
0
  6
Continuous
100
AcDbLine
 10
-0.0165730004074879
 20
0.225638915269231
 30
0.0
 11
-0.0184720004074879
 21
0.2210419152692309
 31
0.0
  0
LINE
  5
5D9
330
6F
100
AcDbEntity
  8
0
  6
Continuous
100
AcDbLine
 10
-0.0096190004074879
 20
0.2326149152692309
 30
0.0
 11
-0.0135540004074879
 21
0.229586915269231
 31
0.0
  0
LINE
  5
5DA
330
6F
100
AcDbEntity
  8
0
  6
Continuous
100
AcDbLine
 10
-0.0050360004074879
 20
0.2345179152692309
 30
0.0
 11
-0.0096190004074879
 21
0.2326149152692309
 31
0.0
  0
LINE
  5
5DB
330
6F
100
AcDbEntity
  8
0
  6
Continuous
100
AcDbLine
 10
-0.0001190004074879
 20
0.235166915269231
 30
0.0
 11
-0.0050360004074879
 21
0.2345179152692309
 31
0.0
  0
LINE
  5
5DC
330
6F
100
AcDbEntity
  8
0
  6
Continuous
100
AcDbLine
 10
-0.0135540004074879
 20
0.229586915269231
 30
0.0
 11
-0.0165730004074879
 21
0.225638915269231
 31
0.0
  0
LINE
  5
5DD
330
6F
100
AcDbEntity
  8
0
  6
Continuous
100
AcDbLine
 10
-0.0153210004074879
 20
0.1441639152692309
 30
0.0
 11
-0.0138510004074879
 21
0.139260915269231
 31
0.0
  0
LINE
  5
5DE
330
6F
100
AcDbEntity
  8
0
  6
Continuous
100
AcDbLine
 10
-0.0153440004074879
 20
0.145144915269231
 30
0.0
 11
-0.0153210004074879
 21
0.1441639152692309
 31
0.0
  0
LINE
  5
5DF
330
6F
100
AcDbEntity
  8
0
  6
Continuous
100
AcDbLine
 10
-0.0057390004074879
 20
0.1331219152692309
 30
0.0
 11
-0.0001190004074879
 21
0.1322549152692309
 31
0.0
  0
LINE
  5
5E0
330
6F
100
AcDbEntity
  8
0
  6
Continuous
100
AcDbLine
 10
-0.0105300004074879
 20
0.1355679152692309
 30
0.0
 11
-0.0057390004074879
 21
0.1331219152692309
 31
0.0
  0
LINE
  5
5E1
330
6F
100
AcDbEntity
  8
0
  6
Continuous
100
AcDbLine
 10
-0.0138510004074879
 20
0.139260915269231
 30
0.0
 11
-0.0105300004074879
 21
0.1355679152692309
 31
0.0
  0
LINE
  5
5E2
330
6F
100
AcDbEntity
  8
0
  6
Continuous
100
AcDbLine
 10
-0.0223040004074879
 20
0.231607915269231
 30
0.0
 11
-0.0199370004074879
 21
0.219128915269231
 31
0.0
  0
LINE
  5
5E3
330
6F
100
AcDbEntity
  8
0
  6
Continuous
100
AcDbLine
 10
-0.0167410004074879
 20
0.200723915269231
 30
0.0
 11
-0.0153440004074879
 21
0.145144915269231
 31
0.0
  0
LINE
  5
5E4
330
6F
100
AcDbEntity
  8
0
  6
Continuous
100
AcDbLine
 10
0.0196989995925121
 20
0.219128915269231
 30
0.0
 11
0.0220659995925121
 21
0.231607915269231
 31
0.0
  0
LINE
  5
5E5
330
6F
100
AcDbEntity
  8
0
  6
Continuous
100
AcDbLine
 10
0.0108099995925121
 20
0.2527759152692309
 30
0.0
 11
0.0109779995925121
 21
0.2526719152692309
 31
0.0
  0
LINE
  5
5E6
330
6F
100
AcDbEntity
  8
0
  6
Continuous
100
AcDbLine
 10
0.0109789995925121
 20
0.252670915269231
 30
0.0
 11
0.0118849995925121
 21
0.251939915269231
 31
0.0
  0
LINE
  5
5E7
330
6F
100
AcDbEntity
  8
0
  6
Continuous
100
AcDbLine
 10
0.0105569995925121
 20
0.253132915269231
 30
0.0
 11
0.0106449995925121
 21
0.253024915269231
 31
0.0
  0
LINE
  5
5E8
330
6F
100
AcDbEntity
  8
0
  6
Continuous
100
AcDbLine
 10
0.0118849995925121
 20
0.251939915269231
 30
0.0
 11
0.0120519995925121
 21
0.2518329152692309
 31
0.0
  0
LINE
  5
5E9
330
6F
100
AcDbEntity
  8
0
  6
Continuous
100
AcDbLine
 10
0.0120519995925121
 20
0.2518329152692309
 30
0.0
 11
0.0123079995925121
 21
0.251653915269231
 31
0.0
  0
LINE
  5
5EA
330
6F
100
AcDbEntity
  8
0
  6
Continuous
100
AcDbLine
 10
0.0123079995925121
 20
0.251653915269231
 30
0.0
 11
0.0129989995925121
 21
0.2511769152692309
 31
0.0
  0
LINE
  5
5EB
330
6F
100
AcDbEntity
  8
0
  6
Continuous
100
AcDbLine
 10
0.0134199995925121
 20
0.251096915269231
 30
0.0
 11
0.0131199995925121
 21
0.251145915269231
 31
0.0
  0
LINE
  5
5EC
330
6F
100
AcDbEntity
  8
0
  6
Continuous
100
AcDbLine
 10
0.0131199995925121
 20
0.251145915269231
 30
0.0
 11
0.0129989995925121
 21
0.2511769152692309
 31
0.0
  0
LINE
  5
5ED
330
6F
100
AcDbEntity
  8
0
  6
Continuous
100
AcDbLine
 10
0.0136669995925121
 20
0.2511539152692309
 30
0.0
 11
0.0135059995925121
 21
0.2511259152692309
 31
0.0
  0
LINE
  5
5EE
330
6F
100
AcDbEntity
  8
0
  6
Continuous
100
AcDbLine
 10
0.0135059995925121
 20
0.2511259152692309
 30
0.0
 11
0.0134199995925121
 21
0.251096915269231
 31
0.0
  0
ENDSEC
  0
SECTION
  2
OBJECTS
  0
DICTIONARY
  5
C
330
0
100
AcDbDictionary
281
     1
  3
ACAD_2007HEADERVARS_RT
350
6A2
  3
ACAD_CIP_PREVIOUS_PRODUCT_INFO
350
177
  3
ACAD_COLOR
350
62
  3
ACAD_DETAILVIEWSTYLE
350
69
  3
ACAD_FIELDLIST
350
1E7
  3
ACAD_GROUP
350
D
  3
ACAD_LAYOUT
350
61
  3
ACAD_MATERIAL
350
10
  3
ACAD_MLEADERSTYLE
350
65
  3
ACAD_MLINESTYLE
350
5E
  3
ACAD_PLOTSETTINGS
350
60
  3
ACAD_PLOTSTYLENAME
350
E
  3
ACAD_SCALELIST
350
42
  3
ACAD_SECTIONVIEWSTYLE
350
67
  3
ACAD_TABLESTYLE
350
63
  3
ACAD_VISUALSTYLE
350
29
  3
ACDB_RECOMPOSE_DATA
350
6A0
  3
AcDbVariableDictionary
350
5F3
  3
AcmDictionary
350
1A4
  3
AMG
350
18A
  3
AMGSNAPSETTINGS
350
1F9
  3
DWGPROPS
350
6A1
  0
DICTIONARY
  5
5EF
330
54
100
AcDbDictionary
280
     1
281
     1
  3
ADSK_XREC_LAYER_RECONCILED
360
5F0
  0
DICTIONARY
  5
5F1
330
200
100
AcDbDictionary
280
     1
281
     1
  3
ADSK_XREC_LAYER_RECONCILED
360
5F2
  0
DICTIONARY
  5
203
330
6F
100
AcDbDictionary
280
     1
281
     1
  3
ACAD_SORTENTS
360
204
  0
DICTIONARY
  5
6A2
102
{ACAD_REACTORS
330
C
102
}
330
C
100
AcDbDictionary
281
     1
  3
DIMARCSYM
350
6A3
  3
DIMLTEX1
350
6A5
  3
DIMLTEX2
350
6A6
  3
DIMLTYPE
350
6A4
  0
XRECORD
  5
177
102
{ACAD_REACTORS
330
C
102
}
330
C
100
AcDbXrecord
280
     1
300
AMECH_PP
300
2018
300
AMECH_PP_F_S
  0
DICTIONARY
  5
62
102
{ACAD_REACTORS
330
C
102
}
330
C
100
AcDbDictionary
281
     1
  0
DICTIONARY
  5
69
102
{ACAD_REACTORS
330
C
102
}
330
C
100
AcDbDictionary
281
     1
  3
Imperial24
350
6A
  0
FIELDLIST
  5
1E7
102
{ACAD_REACTORS
330
C
102
}
330
C
100
AcDbIdSet
 90
        8
330
68C
330
68D
330
68E
330
68F
330
693
330
694
330
695
330
696
100
AcDbFieldList
  0
DICTIONARY
  5
D
102
{ACAD_REACTORS
330
C
102
}
330
C
100
AcDbDictionary
281
     1
  0
DICTIONARY
  5
61
102
{ACAD_REACTORS
330
C
102
}
330
C
100
AcDbDictionary
281
     1
  3
Model
350
72
  3
レイアウト1
350
6E
  0
DICTIONARY
  5
10
102
{ACAD_REACTORS
330
C
102
}
330
C
100
AcDbDictionary
281
     1
  3
ByBlock
350
19
  3
ByLayer
350
11
  3
Global
350
21
  0
DICTIONARY
  5
65
102
{ACAD_REACTORS
330
C
102
}
330
C
100
AcDbDictionary
281
     1
  3
Standard
350
66
  0
DICTIONARY
  5
5E
102
{ACAD_REACTORS
330
C
102
}
330
C
100
AcDbDictionary
281
     1
  3
Standard
350
5F
  0
DICTIONARY
  5
60
102
{ACAD_REACTORS
330
C
102
}
330
C
100
AcDbDictionary
281
     1
  0
ACDBDICTIONARYWDFLT
  5
E
102
{ACAD_REACTORS
330
C
102
}
330
C
100
AcDbDictionary
281
     1
  3
Normal
350
F
100
AcDbDictionaryWithDefault
340
F
  0
DICTIONARY
  5
42
102
{ACAD_REACTORS
330
C
102
}
330
C
100
AcDbDictionary
281
     1
  3
A0
350
43
  3
A1
350
44
  3
A2
350
45
  3
A3
350
46
  3
A4
350
47
  3
A5
350
48
  3
A6
350
49
  3
A7
350
4A
  3
A8
350
4B
  3
A9
350
4C
  3
B0
350
4D
  3
B1
350
4E
  3
B2
350
4F
  3
B3
350
50
  3
B4
350
51
  3
B5
350
52
  3
B6
350
53
  0
DICTIONARY
  5
67
102
{ACAD_REACTORS
330
C
102
}
330
C
100
AcDbDictionary
281
     1
  3
Imperial24
350
68
  0
DICTIONARY
  5
63
102
{ACAD_REACTORS
330
C
102
}
330
C
100
AcDbDictionary
281
     1
  3
Standard
350
64
  0
DICTIONARY
  5
29
102
{ACAD_REACTORS
330
C
102
}
330
C
100
AcDbDictionary
281
     1
  3
2dWireframe
350
2F
  3
Basic
350
2E
  3
Brighten
350
35
  3
ColorChange
350
39
  3
Conceptual
350
32
  3
Dim
350
34
  3
EdgeColorOff
350
41
  3
Facepattern
350
38
  3
Flat
350
2A
  3
FlatWithEdges
350
2B
  3
Gouraud
350
2C
  3
GouraudWithEdges
350
2D
  3
Hidden
350
31
  3
JitterOff
350
3F
  3
Linepattern
350
37
  3
OverhangOff
350
40
  3
Realistic
350
33
  3
Shaded
350
3E
  3
Shaded with edges
350
3D
  3
Shades of Gray
350
3A
  3
Sketchy
350
3B
  3
Thicken
350
36
  3
Wireframe
350
30
  3
X-Ray
350
3C
  0
XRECORD
  5
6A0
102
{ACAD_REACTORS
330
C
102
}
330
C
100
AcDbXrecord
280
     1
 90
        1
330
64
  0
DICTIONARY
  5
5F3
102
{ACAD_REACTORS
330
C
102
}
330
C
100
AcDbDictionary
281
     1
  3
CANNOSCALE
350
5F8
  3
CMLEADERSTYLE
350
5F5
  3
CTABLESTYLE
350
5F4
  3
CVIEWDETAILSTYLE
350
5F6
  3
CVIEWSECTIONSTYLE
350
5F7
  3
DIMASSOC
350
5FB
  3
INDEXCTL
350
5FA
  3
SORTENTS
350
5F9
  3
XCLIPFRAME
350
69E
  0
DICTIONARY
  5
1A4
102
{ACAD_REACTORS
330
C
102
}
330
C
100
AcDbDictionary
281
     1
  3
AcmStdDictionary
350
1AB
  0
DICTIONARY
  5
18A
102
{ACAD_REACTORS
330
C
102
}
330
C
100
AcDbDictionary
281
     1
  0
DICTIONARY
  5
1F9
102
{ACAD_REACTORS
330
C
102
}
330
C
100
AcDbDictionary
281
     1
  0
XRECORD
  5
6A1
102
{ACAD_REACTORS
330
C
102
}
330
C
100
AcDbXrecord
280
     1
  1
DWGPROPS COOKIE
  2

  3

  4

  6

  7

  8
yamazaks
  9

300
=
301
=
302
=
303
=
304
=
305
=
306
=
307
=
308
=
309
=
 40
0.0017361111111111
 41
2458090.641550926
 42
2458099.485775463
  1

 90
        0
  0
XRECORD
  5
5F0
102
{ACAD_REACTORS
330
5EF
102
}
330
5EF
100
AcDbXrecord
280
     1
290
     1
  0
XRECORD
  5
5F2
102
{ACAD_REACTORS
330
5F1
102
}
330
5F1
100
AcDbXrecord
280
     1
290
     1
  0
SORTENTSTABLE
  5
204
102
{ACAD_REACTORS
330
203
102
}
330
203
100
AcDbSortentsTable
330
6F
331
D1
  5
D3
331
110
  5
112
331
149
  5
14B
331
D5
  5
D7
331
114
  5
116
331
118
  5
11A
331
14D
  5
14F
331
D9
  5
DB
331
11C
  5
11E
331
151
  5
153
331
DD
  5
DF
331
155
  5
157
331
99
  5
9B
331
9D
  5
9F
331
A1
  5
A3
331
A5
  5
A7
331
120
  5
122
331
E1
  5
E3
331
159
  5
15B
331
E5
  5
E7
331
124
  5
126
331
15D
  5
15F
331
E9
  5
EB
331
161
  5
163
331
ED
  5
EF
331
165
  5
167
331
A9
  5
AB
331
AD
  5
AF
331
B2
  5
B4
331
F1
  5
F3
331
F5
  5
F7
331
12A
  5
12C
331
B6
  5
B8
331
169
  5
16B
331
16D
  5
16F
331
F9
  5
FB
331
12E
  5
130
331
BA
  5
BC
331
171
  5
173
331
FD
  5
FF
331
132
  5
134
331
BE
  5
C0
331
175
  5
205
331
136
  5
138
331
7A
  5
7C
331
7E
  5
80
331
82
  5
84
331
86
  5
88
331
77
  5
79
331
C2
  5
C4
331
101
  5
103
331
105
  5
107
331
13A
  5
13C
331
C6
  5
C8
331
109
  5
10B
331
13E
  5
140
331
CA
  5
CC
331
10D
  5
10F
331
142
  5
144
331
CE
  5
D0
331
146
  5
148
331
8A
  5
8C
331
8E
  5
90
331
92
  5
94
331
96
  5
98
331
D2
  5
D4
331
111
  5
113
331
115
  5
117
331
14A
  5
14C
331
D6
  5
D8
331
119
  5
11B
331
14E
  5
150
331
DA
  5
DC
331
11D
  5
11F
331
152
  5
154
331
DE
  5
E0
331
156
  5
158
331
9A
  5
9C
331
9E
  5
A0
331
A2
  5
A4
331
A6
  5
A8
331
E2
  5
E4
331
121
  5
123
331
15A
  5
15C
331
E6
  5
E8
331
125
  5
127
331
15E
  5
160
331
EA
  5
EC
331
162
  5
164
331
EE
  5
F0
331
166
  5
168
331
AA
  5
AC
331
AE
  5
B0
331
B3
  5
B5
331
F2
  5
F4
331
16A
  5
16C
331
F6
  5
F8
331
12B
  5
12D
331
B7
  5
B9
331
16E
  5
170
331
FA
  5
FC
331
12F
  5
131
331
BB
  5
BD
331
172
  5
174
331
FE
  5
100
331
133
  5
135
331
BF
  5
C1
331
137
  5
139
331
7B
  5
7D
331
7F
  5
81
331
83
  5
85
331
87
  5
89
331
C3
  5
C5
331
102
  5
104
331
106
  5
108
331
13B
  5
13D
331
C7
  5
C9
331
10A
  5
10C
331
13F
  5
141
331
CB
  5
CD
331
10E
  5
110
331
143
  5
145
331
CF
  5
D1
331
147
  5
149
331
8B
  5
8D
331
8F
  5
91
331
93
  5
95
331
97
  5
99
331
D3
  5
D5
331
112
  5
114
331
116
  5
118
331
14B
  5
14D
331
D7
  5
D9
331
11A
  5
11C
331
14F
  5
151
331
DB
  5
DD
331
11E
  5
120
331
153
  5
155
331
DF
  5
E1
331
157
  5
159
331
9B
  5
9D
331
9F
  5
A1
331
A3
  5
A5
331
A7
  5
A9
331
E3
  5
E5
331
122
  5
124
331
126
  5
128
331
15B
  5
15D
331
E7
  5
E9
331
15F
  5
161
331
EB
  5
ED
331
163
  5
165
331
EF
  5
F1
331
167
  5
169
331
AB
  5
AD
331
AF
  5
B1
331
B0
  5
B2
331
F3
  5
F5
331
128
  5
12A
331
B4
  5
B6
331
16B
  5
16D
331
F7
  5
F9
331
12C
  5
12E
331
B8
  5
BA
331
16F
  5
171
331
FB
  5
FD
331
130
  5
132
331
BC
  5
BE
331
173
  5
175
331
FF
  5
101
331
134
  5
136
331
78
  5
7A
331
7C
  5
7E
331
80
  5
82
331
84
  5
86
331
75
  5
77
331
C0
  5
C2
331
138
  5
13A
331
C4
  5
C6
331
103
  5
105
331
107
  5
109
331
13C
  5
13E
331
C8
  5
CA
331
10B
  5
10D
331
140
  5
142
331
CC
  5
CE
331
10F
  5
111
331
144
  5
146
331
88
  5
8A
331
8C
  5
8E
331
90
  5
92
331
94
  5
96
331
D0
  5
D2
331
148
  5
14A
331
D4
  5
D6
331
113
  5
115
331
117
  5
119
331
14C
  5
14E
331
D8
  5
DA
331
11B
  5
11D
331
150
  5
152
331
DC
  5
DE
331
11F
  5
121
331
154
  5
156
331
98
  5
9A
331
9C
  5
9E
331
A0
  5
A2
331
A4
  5
A6
331
E0
  5
E2
331
E4
  5
E6
331
123
  5
125
331
158
  5
15A
331
127
  5
129
331
15C
  5
15E
331
E8
  5
EA
331
160
  5
162
331
EC
  5
EE
331
164
  5
166
331
A8
  5
AA
331
AC
  5
AE
331
B1
  5
B3
331
F0
  5
F2
331
F4
  5
F6
331
129
  5
12B
331
B5
  5
B7
331
168
  5
16A
331
16C
  5
16E
331
F8
  5
FA
331
12D
  5
12F
331
B9
  5
BB
331
170
  5
172
331
FC
  5
FE
331
131
  5
133
331
BD
  5
BF
331
174
  5
202
331
135
  5
137
331
79
  5
7B
331
7D
  5
7F
331
81
  5
83
331
85
  5
87
331
76
  5
78
331
C1
  5
C3
331
100
  5
102
331
104
  5
106
331
139
  5
13B
331
C5
  5
C7
331
108
  5
10A
331
13D
  5
13F
331
C9
  5
CB
331
10C
  5
10E
331
141
  5
143
331
CD
  5
CF
331
145
  5
147
331
89
  5
8B
331
8D
  5
8F
331
91
  5
93
331
95
  5
97
  0
XRECORD
  5
6A3
102
{ACAD_REACTORS
330
6A2
102
}
330
6A2
100
AcDbXrecord
280
     1
 70
     1
  0
XRECORD
  5
6A5
102
{ACAD_REACTORS
330
6A2
102
}
330
6A2
100
AcDbXrecord
280
     1
340
5A
  0
XRECORD
  5
6A6
102
{ACAD_REACTORS
330
6A2
102
}
330
6A2
100
AcDbXrecord
280
     1
340
5A
  0
XRECORD
  5
6A4
102
{ACAD_REACTORS
330
6A2
102
}
330
6A2
100
AcDbXrecord
280
     1
340
5A
  0
ACDBDETAILVIEWSTYLE
  5
6A
102
{ACAD_XDICTIONARY
360
6DA
102
}
102
{ACAD_REACTORS
330
69
330
688
102
}
330
69
100
AcDbModelDocViewStyle
 70
     0
  3
Imperial24
290
     0
100
AcDbDetailViewStyle
 70
     0
 71
     0
 90
        3
 71
     1
340
55
 40
0.24
340
0
 40
0.24
300

 40
0.36
280
     3
 71
     2
340
5C
 90
       25
 71
     3
340
55
 40
0.24
 90
        1
 40
0.75
 90
        1
300
%<\AcVar ViewType \f "%tc1">% %<\AcVar ViewDetailId>%\PSCALE %<\AcVar ViewScale \f "%sn">%
 71
     4
340
5C
 90
       25
340
5C
 90
       25
280
     0
  0
LAYOUT
  5
72
102
{ACAD_XDICTIONARY
360
6DE
102
}
102
{ACAD_REACTORS
330
61
102
}
330
61
100
AcDbPlotSettings
  1

  2
\\jptkysfp01\JPTKYPOFFI004
  4

  6

 40
0.0
 41
0.0
 42
0.0
 43
0.0
 44
0.0
 45
0.0
 46
0.0
 47
0.0
 48
0.0
 49
0.0
140
0.0
141
0.0
142
1.0
143
1.0
 70
  1712
 72
     0
 73
     0
 74
     0
  7

 75
     0
147
1.0
148
0.0
149
0.0
100
AcDbLayout
  1
Model
 70
     1
 71
     0
 10
0.0
 20
0.0
 11
12.0
 21
9.0
 12
0.0
 22
0.0
 32
0.0
 14
0.0
 24
0.0
 34
0.0
 15
0.0
 25
0.0
 35
0.0
146
0.0
 13
0.0
 23
0.0
 33
0.0
 16
1.0
 26
0.0
 36
0.0
 17
0.0
 27
1.0
 37
0.0
 76
     0
330
6F
331
74
  0
LAYOUT
  5
6E
102
{ACAD_XDICTIONARY
360
6DC
102
}
102
{ACAD_REACTORS
330
61
102
}
330
61
100
AcDbPlotSettings
  1

  2
\\jptkysfp01\JPTKYPOFFI004
  4

  6

 40
0.0
 41
0.0
 42
0.0
 43
0.0
 44
0.0
 45
0.0
 46
0.0
 47
0.0
 48
0.0
 49
0.0
140
0.0
141
0.0
142
1.0
143
1.0
 70
   688
 72
     0
 73
     0
 74
     5
  7

 75
    16
147
1.0
148
0.0
149
0.0
100
AcDbLayout
  1
レイアウト1
 70
     1
 71
     1
 10
0.0
 20
0.0
 11
12.0
 21
9.0
 12
0.0
 22
0.0
 32
0.0
 14
1.000000000000000E+20
 24
1.000000000000000E+20
 34
1.000000000000000E+20
 15
-1.000000000000000E+20
 25
-1.000000000000000E+20
 35
-1.000000000000000E+20
146
0.0
 13
0.0
 23
0.0
 33
0.0
 16
1.0
 26
0.0
 36
0.0
 17
0.0
 27
1.0
 37
0.0
 76
     0
330
6B
  0
MATERIAL
  5
19
102
{ACAD_XDICTIONARY
360
1A
102
}
102
{ACAD_REACTORS
330
10
102
}
330
10
100
AcDbMaterial
  1
ByBlock
 72
     0
 43
0.0208333333333333
 43
0.0
 43
0.0
 43
0.0
 43
0.0
 43
0.0208333333333333
 43
0.0
 43
0.0
 43
0.0
 43
0.0
 43
1.0
 43
0.0
 43
0.0
 43
0.0
 43
0.0
 43
1.0
 77
     0
 47
0.0208333333333333
 47
0.0
 47
0.0
 47
0.0
 47
0.0
 47
0.0208333333333333
 47
0.0
 47
0.0
 47
0.0
 47
0.0
 47
1.0
 47
0.0
 47
0.0
 47
0.0
 47
0.0
 47
1.0
171
     0
 49
0.0208333333333333
 49
0.0
 49
0.0
 49
0.0
 49
0.0
 49
0.0208333333333333
 49
0.0
 49
0.0
 49
0.0
 49
0.0
 49
1.0
 49
0.0
 49
0.0
 49
0.0
 49
0.0
 49
1.0
175
     0
142
0.0208333333333333
142
0.0
142
0.0
142
0.0
142
0.0
142
0.0208333333333333
142
0.0
142
0.0
142
0.0
142
0.0
142
1.0
142
0.0
142
0.0
142
0.0
142
0.0
142
1.0
179
     0
144
0.0208333333333333
144
0.0
144
0.0
144
0.0
144
0.0
144
0.0208333333333333
144
0.0
144
0.0
144
0.0
144
0.0
144
1.0
144
0.0
144
0.0
144
0.0
144
0.0
144
1.0
147
0.0208333333333333
147
0.0
147
0.0
147
0.0
147
0.0
147
0.0208333333333333
147
0.0
147
0.0
147
0.0
147
0.0
147
1.0
147
0.0
147
0.0
147
0.0
147
0.0
147
1.0
  0
MATERIAL
  5
11
102
{ACAD_XDICTIONARY
360
12
102
}
102
{ACAD_REACTORS
330
10
102
}
330
10
100
AcDbMaterial
  1
ByLayer
 72
     0
 43
0.0208333333333333
 43
0.0
 43
0.0
 43
0.0
 43
0.0
 43
0.0208333333333333
 43
0.0
 43
0.0
 43
0.0
 43
0.0
 43
1.0
 43
0.0
 43
0.0
 43
0.0
 43
0.0
 43
1.0
 77
     0
 47
0.0208333333333333
 47
0.0
 47
0.0
 47
0.0
 47
0.0
 47
0.0208333333333333
 47
0.0
 47
0.0
 47
0.0
 47
0.0
 47
1.0
 47
0.0
 47
0.0
 47
0.0
 47
0.0
 47
1.0
171
     0
 49
0.0208333333333333
 49
0.0
 49
0.0
 49
0.0
 49
0.0
 49
0.0208333333333333
 49
0.0
 49
0.0
 49
0.0
 49
0.0
 49
1.0
 49
0.0
 49
0.0
 49
0.0
 49
0.0
 49
1.0
175
     0
142
0.0208333333333333
142
0.0
142
0.0
142
0.0
142
0.0
142
0.0208333333333333
142
0.0
142
0.0
142
0.0
142
0.0
142
1.0
142
0.0
142
0.0
142
0.0
142
0.0
142
1.0
179
     0
144
0.0208333333333333
144
0.0
144
0.0
144
0.0
144
0.0
144
0.0208333333333333
144
0.0
144
0.0
144
0.0
144
0.0
144
1.0
144
0.0
144
0.0
144
0.0
144
0.0
144
1.0
147
0.0208333333333333
147
0.0
147
0.0
147
0.0
147
0.0
147
0.0208333333333333
147
0.0
147
0.0
147
0.0
147
0.0
147
1.0
147
0.0
147
0.0
147
0.0
147
0.0
147
1.0
  0
MATERIAL
  5
21
102
{ACAD_XDICTIONARY
360
22
102
}
102
{ACAD_REACTORS
330
10
102
}
330
10
100
AcDbMaterial
  1
Global
 72
     0
 43
0.0208333333333333
 43
0.0
 43
0.0
 43
0.0
 43
0.0
 43
0.0208333333333333
 43
0.0
 43
0.0
 43
0.0
 43
0.0
 43
1.0
 43
0.0
 43
0.0
 43
0.0
 43
0.0
 43
1.0
 77
     0
 47
0.0208333333333333
 47
0.0
 47
0.0
 47
0.0
 47
0.0
 47
0.0208333333333333
 47
0.0
 47
0.0
 47
0.0
 47
0.0
 47
1.0
 47
0.0
 47
0.0
 47
0.0
 47
0.0
 47
1.0
171
     0
 49
0.0208333333333333
 49
0.0
 49
0.0
 49
0.0
 49
0.0
 49
0.0208333333333333
 49
0.0
 49
0.0
 49
0.0
 49
0.0
 49
1.0
 49
0.0
 49
0.0
 49
0.0
 49
0.0
 49
1.0
175
     0
142
0.0208333333333333
142
0.0
142
0.0
142
0.0
142
0.0
142
0.0208333333333333
142
0.0
142
0.0
142
0.0
142
0.0
142
1.0
142
0.0
142
0.0
142
0.0
142
0.0
142
1.0
179
     0
144
0.0208333333333333
144
0.0
144
0.0
144
0.0
144
0.0
144
0.0208333333333333
144
0.0
144
0.0
144
0.0
144
0.0
144
1.0
144
0.0
144
0.0
144
0.0
144
0.0
144
1.0
147
0.0208333333333333
147
0.0
147
0.0
147
0.0
147
0.0
147
0.0208333333333333
147
0.0
147
0.0
147
0.0
147
0.0
147
1.0
147
0.0
147
0.0
147
0.0
147
0.0
147
1.0
  0
MLEADERSTYLE
  5
66
102
{ACAD_REACTORS
330
65
102
}
330
65
100
AcDbMLeaderStyle
170
     2
171
     1
172
     0
 90
        2
 40
0.0
 41
0.0
173
     1
 91
-1056964608
340
5A
 92
       -2
290
     1
 42
0.09
291
     1
 43
0.36
  3
Standard
 44
0.18
300

342
55
174
     1
178
     6
175
     1
176
     0
 93
-1056964608
 45
0.18
292
     0
297
     0
 46
0.18
 94
-1056964608
 47
1.0
 49
1.0
140
1.0
293
     1
141
0.0
294
     1
177
     0
142
1.0
295
     0
296
     0
143
0.125
1001
ACAD_MLEADERVER
1070
     2
  0
MLINESTYLE
  5
5F
102
{ACAD_REACTORS
330
5E
102
}
330
5E
100
AcDbMlineStyle
  2
STANDARD
 70
     0
  3

 62
   256
 51
90.0
 52
90.0
 71
     2
 49
0.5
 62
   256
  6
BYLAYER
 49
-0.5
 62
   256
  6
BYLAYER
  0
ACDBPLACEHOLDER
  5
F
102
{ACAD_REACTORS
330
E
102
}
330
E
  0
SCALE
  5
43
102
{ACAD_REACTORS
330
42
102
}
330
42
100
AcDbScale
 70
     0
300
1:1
140
1.0
141
1.0
290
     1
  0
SCALE
  5
44
102
{ACAD_REACTORS
330
42
102
}
330
42
100
AcDbScale
 70
     0
300
1/128" = 1'-0"
140
0.0078125
141
12.0
290
     0
  0
SCALE
  5
45
102
{ACAD_REACTORS
330
42
102
}
330
42
100
AcDbScale
 70
     0
300
1/64" = 1'-0"
140
0.015625
141
12.0
290
     0
  0
SCALE
  5
46
102
{ACAD_REACTORS
330
42
102
}
330
42
100
AcDbScale
 70
     0
300
1/32" = 1'-0"
140
0.03125
141
12.0
290
     0
  0
SCALE
  5
47
102
{ACAD_REACTORS
330
42
102
}
330
42
100
AcDbScale
 70
     0
300
1/16" = 1'-0"
140
0.0625
141
12.0
290
     0
  0
SCALE
  5
48
102
{ACAD_REACTORS
330
42
102
}
330
42
100
AcDbScale
 70
     0
300
3/32" = 1'-0"
140
0.09375
141
12.0
290
     0
  0
SCALE
  5
49
102
{ACAD_REACTORS
330
42
102
}
330
42
100
AcDbScale
 70
     0
300
1/8" = 1'-0"
140
0.125
141
12.0
290
     0
  0
SCALE
  5
4A
102
{ACAD_REACTORS
330
42
102
}
330
42
100
AcDbScale
 70
     0
300
3/16" = 1'-0"
140
0.1875
141
12.0
290
     0
  0
SCALE
  5
4B
102
{ACAD_REACTORS
330
42
102
}
330
42
100
AcDbScale
 70
     0
300
1/4" = 1'-0"
140
0.25
141
12.0
290
     0
  0
SCALE
  5
4C
102
{ACAD_REACTORS
330
42
102
}
330
42
100
AcDbScale
 70
     0
300
3/8" = 1'-0"
140
0.375
141
12.0
290
     0
  0
SCALE
  5
4D
102
{ACAD_REACTORS
330
42
102
}
330
42
100
AcDbScale
 70
     0
300
1/2" = 1'-0"
140
0.5
141
12.0
290
     0
  0
SCALE
  5
4E
102
{ACAD_REACTORS
330
42
102
}
330
42
100
AcDbScale
 70
     0
300
3/4" = 1'-0"
140
0.75
141
12.0
290
     0
  0
SCALE
  5
4F
102
{ACAD_REACTORS
330
42
102
}
330
42
100
AcDbScale
 70
     0
300
1" = 1'-0"
140
1.0
141
12.0
290
     0
  0
SCALE
  5
50
102
{ACAD_REACTORS
330
42
102
}
330
42
100
AcDbScale
 70
     0
300
1-1/2" = 1'-0"
140
1.5
141
12.0
290
     0
  0
SCALE
  5
51
102
{ACAD_REACTORS
330
42
102
}
330
42
100
AcDbScale
 70
     0
300
3" = 1'-0"
140
3.0
141
12.0
290
     0
  0
SCALE
  5
52
102
{ACAD_REACTORS
330
42
102
}
330
42
100
AcDbScale
 70
     0
300
6" = 1'-0"
140
6.0
141
12.0
290
     0
  0
SCALE
  5
53
102
{ACAD_REACTORS
330
42
102
}
330
42
100
AcDbScale
 70
     0
300
1'-0" = 1'-0"
140
12.0
141
12.0
290
     0
  0
ACDBSECTIONVIEWSTYLE
  5
68
102
{ACAD_XDICTIONARY
360
6D8
102
}
102
{ACAD_REACTORS
330
67
330
687
102
}
330
67
100
AcDbModelDocViewStyle
 70
     0
  3
Imperial24
290
     0
100
AcDbSectionViewStyle
 70
     0
 71
     0
 90
       78
 71
     1
340
55
 40
0.24
340
0
340
0
 40
0.24
300
I, O, Q, S, X, Z
 40
0.48
 90
        3
 40
0.18
 90
        1
 71
     2
340
5C
 90
       25
340
5C
 90
       50
 40
0.24
 40
0.0
 40
0.24
 71
     3
340
55
 40
0.24
 90
        1
 40
0.75
 90
        1
300
%<\AcVar ViewType \f "%tc1">% %<\AcVar ViewSectionStartId>%-%<\AcVar ViewSectionEndId>%\PSCALE %<\AcVar ViewScale \f "%sn">%
 71
     4
300
ANSI31
 40
1.0
 90
        0
290
     0
290
     0
 90
        6
 40
0.0
 40
1.570796326794896
 40
0.2617993877991494
 40
1.308996938995747
 40
-0.2617993877991494
 40
1.832595714594045
  0
TABLESTYLE
  5
64
102
{ACAD_XDICTIONARY
360
5FD
102
}
102
{ACAD_REACTORS
330
63
102
}
330
63
100
AcDbTableStyle
  3
Standard
 70
     0
 71
     0
 40
0.06
 41
0.06
280
     0
281
     0
  7
Standard
140
0.18
170
     2
 62
     0
 63
     7
283
     0
274
    -2
284
     1
 64
     0
275
    -2
285
     1
 65
     0
276
    -2
286
     1
 66
     0
277
    -2
287
     1
 67
     0
278
    -2
288
     1
 68
     0
279
    -2
289
     1
 69
     0
  7
Standard
140
0.25
170
     5
 62
     0
 63
     7
283
     0
274
    -2
284
     1
 64
     0
275
    -2
285
     1
 65
     0
276
    -2
286
     1
 66
     0
277
    -2
287
     1
 67
     0
278
    -2
288
     1
 68
     0
279
    -2
289
     1
 69
     0
  7
Standard
140
0.18
170
     5
 62
     0
 63
     7
283
     0
274
    -2
284
     1
 64
     0
275
    -2
285
     1
 65
     0
276
    -2
286
     1
 66
     0
277
    -2
287
     1
 67
     0
278
    -2
288
     1
 68
     0
279
    -2
289
     1
 69
     0
  0
VISUALSTYLE
  5
2F
102
{ACAD_XDICTIONARY
360
6B1
102
}
102
{ACAD_REACTORS
330
29
102
}
330
29
100
AcDbVisualStyle
  2

 70
     4
 71
     0
 72
     2
 73
     0
 90
        0
 40
-0.6
 41
-30.0
 62
     5
 63
     7
 74
     1
 91
        4
 64
     7
 65
   257
 75
     1
175
     1
 42
1.0
 92
        0
 66
   257
 43
1.0
 76
     1
 77
     6
 78
     2
 67
     7
 79
     5
170
     0
171
     0
290
     0
174
     0
 93
        1
 44
0.0
173
     0
291
     0
 45
0.0
1001
ACAD
1000
AcDbSavedByObjectVersion
1070
     0
  0
VISUALSTYLE
  5
2E
102
{ACAD_XDICTIONARY
360
6AF
102
}
102
{ACAD_REACTORS
330
29
102
}
330
29
100
AcDbVisualStyle
  2

 70
     7
 71
     1
 72
     0
 73
     1
 90
        0
 40
-0.6
 41
-30.0
 62
     5
 63
     7
 74
     0
 91
        4
 64
     7
 65
   257
 75
     1
175
     1
 42
1.0
 92
        8
 66
     7
 43
1.0
 76
     1
 77
     6
 78
     2
 67
     7
 79
     5
170
     0
171
     0
290
     0
174
     0
 93
        1
 44
0.0
173
     0
291
     1
 45
0.0
1001
ACAD
1000
AcDbSavedByObjectVersion
1070
     0
  0
VISUALSTYLE
  5
35
102
{ACAD_XDICTIONARY
360
6BD
102
}
102
{ACAD_REACTORS
330
29
102
}
330
29
100
AcDbVisualStyle
  2

 70
    12
 71
     2
 72
     2
 73
     0
 90
        0
 40
-0.6
 41
-30.0
 62
     5
 63
     7
 74
     1
 91
        4
 64
     7
 65
   257
 75
     1
175
     1
 42
1.0
 92
        8
 66
     7
 43
1.0
 76
     1
 77
     6
 78
     2
 67
     7
 79
     5
170
     0
171
     0
290
     0
174
     0
 93
        1
 44
50.0
173
     0
291
     1
 45
0.0
1001
ACAD
1000
AcDbSavedByObjectVersion
1070
     0
  0
VISUALSTYLE
  5
39
102
{ACAD_XDICTIONARY
360
6C5
102
}
102
{ACAD_REACTORS
330
29
102
}
330
29
100
AcDbVisualStyle
  2

 70
    16
 71
     2
 72
     2
 73
     3
 90
        0
 40
-0.6
 41
-30.0
 62
     5
 63
     8
 74
     1
 91
        4
 64
     7
 65
   257
 75
     1
175
     1
 42
1.0
 92
        8
 66
     8
 43
1.0
 76
     1
 77
     6
 78
     2
 67
     7
 79
     5
170
     0
171
     0
290
     0
174
     0
 93
        1
 44
0.0
173
     0
291
     1
 45
0.0
1001
ACAD
1000
AcDbSavedByObjectVersion
1070
     0
  0
VISUALSTYLE
  5
32
102
{ACAD_XDICTIONARY
360
6B7
102
}
102
{ACAD_REACTORS
330
29
102
}
330
29
100
AcDbVisualStyle
  2

 70
     9
 71
     3
 72
     2
 73
     0
 90
        0
 40
-0.6
 41
-30.0
 62
     5
 63
     7
 74
     2
 91
        2
 64
     7
 65
   257
 75
     1
175
     1
 42
179.0
 92
        8
 66
     7
 43
1.0
 76
     1
 77
     6
 78
     2
 67
     7
 79
     3
170
     0
171
     0
290
     0
174
     0
 93
        1
 44
0.0
173
     0
291
     0
 45
0.0
1001
ACAD
1000
AcDbSavedByObjectVersion
1070
     0
  0
VISUALSTYLE
  5
34
102
{ACAD_XDICTIONARY
360
6BB
102
}
102
{ACAD_REACTORS
330
29
102
}
330
29
100
AcDbVisualStyle
  2

 70
    11
 71
     2
 72
     2
 73
     0
 90
        0
 40
-0.6
 41
-30.0
 62
     5
 63
     7
 74
     1
 91
        4
 64
     7
 65
   257
 75
     1
175
     1
 42
1.0
 92
        8
 66
     7
 43
1.0
 76
     1
 77
     6
 78
     2
 67
     7
 79
     5
170
     0
171
     0
290
     0
174
     0
 93
        1
 44
-50.0
173
     0
291
     1
 45
0.0
1001
ACAD
1000
AcDbSavedByObjectVersion
1070
     0
  0
VISUALSTYLE
  5
41
102
{ACAD_XDICTIONARY
360
6D5
102
}
102
{ACAD_REACTORS
330
29
102
}
330
29
100
AcDbVisualStyle
  2

 70
    22
 71
     2
 72
     2
 73
     0
 90
        0
 40
-0.6
 41
-30.0
 62
     5
 63
     7
 74
     1
 91
        4
 64
     7
 65
   257
 75
     1
175
     1
 42
1.0
 92
        8
 66
     7
 43
1.0
 76
     1
 77
     6
 78
     2
 67
     7
 79
     5
170
     0
171
     0
290
     0
174
     0
 93
        1
 44
0.0
173
     0
291
     1
 45
0.0
1001
ACAD
1000
AcDbSavedByObjectVersion
1070
     0
  0
VISUALSTYLE
  5
38
102
{ACAD_XDICTIONARY
360
6C3
102
}
102
{ACAD_REACTORS
330
29
102
}
330
29
100
AcDbVisualStyle
  2

 70
    15
 71
     2
 72
     2
 73
     0
 90
        0
 40
-0.6
 41
-30.0
 62
     5
 63
     7
 74
     1
 91
        4
 64
     7
 65
   257
 75
     1
175
     1
 42
1.0
 92
        8
 66
     7
 43
1.0
 76
     1
 77
     6
 78
     2
 67
     7
 79
     5
170
     0
171
     0
290
     0
174
     0
 93
        1
 44
0.0
173
     0
291
     1
 45
0.0
1001
ACAD
1000
AcDbSavedByObjectVersion
1070
     0
  0
VISUALSTYLE
  5
2A
102
{ACAD_XDICTIONARY
360
6A7
102
}
102
{ACAD_REACTORS
330
29
102
}
330
29
100
AcDbVisualStyle
  2

 70
     0
 71
     2
 72
     1
 73
     1
 90
        2
 40
-0.6
 41
30.0
 62
     5
 63
     7
 74
     0
 91
        0
 64
     7
 65
   257
 75
     1
175
     1
 42
1.0
 92
        8
 66
     7
 43
1.0
 76
     1
 77
     6
 78
     2
 67
     7
 79
     5
170
     0
171
     0
290
     0
174
     0
 93
       13
 44
0.0
173
     0
291
     1
 45
0.0
1001
ACAD
1000
AcDbSavedByObjectVersion
1070
     0
  0
VISUALSTYLE
  5
2B
102
{ACAD_XDICTIONARY
360
6A9
102
}
102
{ACAD_REACTORS
330
29
102
}
330
29
100
AcDbVisualStyle
  2

 70
     1
 71
     2
 72
     1
 73
     1
 90
        2
 40
-0.6
 41
30.0
 62
     5
 63
     7
 74
     1
 91
        0
 64
     7
 65
   257
 75
     1
175
     1
 42
1.0
 92
        0
 66
   257
 43
1.0
 76
     1
 77
     6
 78
     2
 67
     7
 79
     5
170
     0
171
     0
290
     0
174
     0
 93
       13
 44
0.0
173
     0
291
     1
 45
0.0
1001
ACAD
1000
AcDbSavedByObjectVersion
1070
     0
  0
VISUALSTYLE
  5
2C
102
{ACAD_XDICTIONARY
360
6AB
102
}
102
{ACAD_REACTORS
330
29
102
}
330
29
100
AcDbVisualStyle
  2

 70
     2
 71
     2
 72
     2
 73
     1
 90
        2
 40
-0.6
 41
30.0
 62
     5
 63
     7
 74
     0
 91
        0
 64
     7
 65
   257
 75
     1
175
     1
 42
1.0
 92
        0
 66
     7
 43
1.0
 76
     1
 77
     6
 78
     2
 67
     7
 79
     5
170
     0
171
     0
290
     0
174
     0
 93
       13
 44
0.0
173
     0
291
     1
 45
0.0
1001
ACAD
1000
AcDbSavedByObjectVersion
1070
     0
  0
VISUALSTYLE
  5
2D
102
{ACAD_XDICTIONARY
360
6AD
102
}
102
{ACAD_REACTORS
330
29
102
}
330
29
100
AcDbVisualStyle
  2

 70
     3
 71
     2
 72
     2
 73
     1
 90
        2
 40
-0.6
 41
30.0
 62
     5
 63
     7
 74
     1
 91
        0
 64
     7
 65
   257
 75
     1
175
     1
 42
1.0
 92
        0
 66
   257
 43
1.0
 76
     1
 77
     6
 78
     2
 67
     7
 79
     5
170
     0
171
     0
290
     0
174
     0
 93
       13
 44
0.0
173
     0
291
     1
 45
0.0
1001
ACAD
1000
AcDbSavedByObjectVersion
1070
     0
  0
VISUALSTYLE
  5
31
102
{ACAD_XDICTIONARY
360
6B5
102
}
102
{ACAD_REACTORS
330
29
102
}
330
29
100
AcDbVisualStyle
  2

 70
     6
 71
     1
 72
     2
 73
     2
 90
        0
 40
-0.6
 41
-30.0
 62
     5
 63
     7
 74
     2
 91
        2
 64
     7
 65
   257
 75
     2
175
     1
 42
40.0
 92
        0
 66
   257
 43
1.0
 76
     1
 77
     6
 78
     2
 67
     7
 79
     3
170
     0
171
     0
290
     0
174
     0
 93
        1
 44
0.0
173
     0
291
     0
 45
0.0
1001
ACAD
1000
AcDbSavedByObjectVersion
1070
     0
  0
VISUALSTYLE
  5
3F
102
{ACAD_XDICTIONARY
360
6D1
102
}
102
{ACAD_REACTORS
330
29
102
}
330
29
100
AcDbVisualStyle
  2

 70
    20
 71
     2
 72
     2
 73
     0
 90
        0
 40
-0.6
 41
-30.0
 62
     5
 63
     7
 74
     1
 91
        4
 64
     7
 65
   257
 75
     1
175
     1
 42
1.0
 92
       10
 66
     7
 43
1.0
 76
     1
 77
     6
 78
     2
 67
     7
 79
     5
170
     0
171
     0
290
     0
174
     0
 93
        1
 44
0.0
173
     0
291
     1
 45
0.0
1001
ACAD
1000
AcDbSavedByObjectVersion
1070
     0
  0
VISUALSTYLE
  5
37
102
{ACAD_XDICTIONARY
360
6C1
102
}
102
{ACAD_REACTORS
330
29
102
}
330
29
100
AcDbVisualStyle
  2

 70
    14
 71
     2
 72
     2
 73
     0
 90
        0
 40
-0.6
 41
-30.0
 62
     5
 63
     7
 74
     1
 91
        4
 64
     7
 65
   257
 75
     7
175
     7
 42
1.0
 92
        8
 66
     7
 43
1.0
 76
     1
 77
     6
 78
     2
 67
     7
 79
     5
170
     0
171
     0
290
     0
174
     0
 93
        1
 44
0.0
173
     0
291
     1
 45
0.0
1001
ACAD
1000
AcDbSavedByObjectVersion
1070
     0
  0
VISUALSTYLE
  5
40
102
{ACAD_XDICTIONARY
360
6D3
102
}
102
{ACAD_REACTORS
330
29
102
}
330
29
100
AcDbVisualStyle
  2

 70
    21
 71
     2
 72
     2
 73
     0
 90
        0
 40
-0.6
 41
-30.0
 62
     5
 63
     7
 74
     1
 91
        4
 64
     7
 65
   257
 75
     1
175
     1
 42
1.0
 92
        9
 66
     7
 43
1.0
 76
     1
 77
     6
 78
     2
 67
     7
 79
     5
170
     0
171
     0
290
     0
174
     0
 93
        1
 44
0.0
173
     0
291
     1
 45
0.0
1001
ACAD
1000
AcDbSavedByObjectVersion
1070
     0
  0
VISUALSTYLE
  5
33
102
{ACAD_XDICTIONARY
360
6B9
102
}
102
{ACAD_REACTORS
330
29
102
}
330
29
100
AcDbVisualStyle
  2

 70
     8
 71
     2
 72
     3
 73
     0
 90
        2
 40
-0.6
 41
30.0
 62
     5
 63
     7
 74
     0
 91
        0
 64
     7
 65
   257
 75
     1
175
     1
 42
1.0
 92
        8
 66
   257
 43
1.0
 76
     1
 77
     6
 78
     2
 67
     7
 79
     3
170
     0
171
     0
290
     0
174
     0
 93
       13
 44
0.0
173
     0
291
     0
 45
0.0
1001
ACAD
1000
AcDbSavedByObjectVersion
1070
     0
  0
VISUALSTYLE
  5
3E
102
{ACAD_XDICTIONARY
360
6CF
102
}
102
{ACAD_REACTORS
330
29
102
}
330
29
100
AcDbVisualStyle
  2

 70
    27
 71
     2
 72
     2
 73
     1
 90
        2
 40
-0.6
 41
30.0
 62
     5
 63
     7
 74
     0
 91
        4
 64
     7
 65
   257
 75
     1
175
     1
 42
1.0
 92
        8
 66
   257
 43
1.0
 76
     1
 77
     6
 78
     2
 67
     8
 79
     3
170
     0
171
     0
290
     0
174
     0
 93
        5
 44
0.0
173
     0
291
     0
 45
0.0
1001
ACAD
1000
AcDbSavedByObjectVersion
1070
     0
  0
VISUALSTYLE
  5
3D
102
{ACAD_XDICTIONARY
360
6CD
102
}
102
{ACAD_REACTORS
330
29
102
}
330
29
100
AcDbVisualStyle
  2

 70
    26
 71
     2
 72
     2
 73
     1
 90
        2
 40
-0.6
 41
30.0
 62
     5
 63
     7
 74
     1
 91
        2
 64
     7
 65
   257
 75
     2
175
     1
 42
1.0
 92
        8
 66
   257
 43
1.0
 76
     1
 77
     6
 78
     2
 67
     7
 79
     3
170
     0
171
     0
290
     0
174
     0
 93
        5
 44
0.0
173
     0
291
     0
 45
0.0
1001
ACAD
1000
AcDbSavedByObjectVersion
1070
     0
  0
VISUALSTYLE
  5
3A
102
{ACAD_XDICTIONARY
360
6C7
102
}
102
{ACAD_REACTORS
330
29
102
}
330
29
100
AcDbVisualStyle
  2

 70
    23
 71
     2
 72
     2
 73
     3
 90
        0
 40
-0.6
 41
-30.0
 62
     5
 63
     7
 74
     2
 91
        2
 64
     7
 65
     7
 75
     1
175
     1
 42
40.0
 92
        8
 66
     7
 43
1.0
 76
     1
 77
     6
 78
     2
 67
     7
 79
     3
170
     0
171
     0
290
     0
174
     0
 93
        1
 44
0.0
173
     0
291
     0
 45
0.0
1001
ACAD
1000
AcDbSavedByObjectVersion
1070
     0
  0
VISUALSTYLE
  5
3B
102
{ACAD_XDICTIONARY
360
6C9
102
}
102
{ACAD_REACTORS
330
29
102
}
330
29
100
AcDbVisualStyle
  2

 70
    24
 71
     1
 72
     2
 73
     2
 90
        0
 40
-0.6
 41
-30.0
 62
     5
 63
     7
 74
     2
 91
        2
 64
     7
 65
     7
 75
     1
175
     1
 42
40.0
 92
       11
 66
     7
 43
1.0
 76
     1
 77
     6
 78
     2
 67
     7
 79
     6
170
     0
171
     0
290
     0
174
     0
 93
        1
 44
0.0
173
     0
291
     0
 45
0.0
1001
ACAD
1000
AcDbSavedByObjectVersion
1070
     0
  0
VISUALSTYLE
  5
36
102
{ACAD_XDICTIONARY
360
6BF
102
}
102
{ACAD_REACTORS
330
29
102
}
330
29
100
AcDbVisualStyle
  2

 70
    13
 71
     2
 72
     2
 73
     0
 90
        0
 40
-0.6
 41
-30.0
 62
     5
 63
     7
 74
     1
 91
        4
 64
     7
 65
   257
 75
     1
175
     1
 42
1.0
 92
       12
 66
     7
 43
1.0
 76
     1
 77
     6
 78
     2
 67
     7
 79
     5
170
     0
171
     0
290
     0
174
     0
 93
        1
 44
0.0
173
     0
291
     1
 45
0.0
1001
ACAD
1000
AcDbSavedByObjectVersion
1070
     0
  0
VISUALSTYLE
  5
30
102
{ACAD_XDICTIONARY
360
6B3
102
}
102
{ACAD_REACTORS
330
29
102
}
330
29
100
AcDbVisualStyle
  2

 70
     5
 71
     0
 72
     2
 73
     0
 90
        0
 40
-0.6
 41
-30.0
 62
     5
 63
     7
 74
     1
 91
        4
 64
     7
 65
   257
 75
     1
175
     1
 42
1.0
 92
        0
 66
   257
 43
1.0
 76
     1
 77
     6
 78
     2
 67
     7
 79
     3
170
     0
171
     0
290
     0
174
     0
 93
        1
 44
0.0
173
     0
291
     0
 45
0.0
1001
ACAD
1000
AcDbSavedByObjectVersion
1070
     0
  0
VISUALSTYLE
  5
3C
102
{ACAD_XDICTIONARY
360
6CB
102
}
102
{ACAD_REACTORS
330
29
102
}
330
29
100
AcDbVisualStyle
  2

 70
    25
 71
     2
 72
     2
 73
     1
 90
        1
 40
0.5
 41
-30.0
 62
     5
 63
     7
 74
     1
 91
        0
 64
     7
 65
   257
 75
     1
175
     1
 42
1.0
 92
        8
 66
     7
 43
1.0
 76
     1
 77
     6
 78
     2
 67
     7
 79
     3
170
     0
171
     0
290
     0
174
     0
 93
       13
 44
0.0
173
     0
291
     0
 45
0.0
1001
ACAD
1000
AcDbSavedByObjectVersion
1070
     0
  0
DICTIONARYVAR
  5
5F8
102
{ACAD_REACTORS
330
5F3
102
}
330
5F3
100
DictionaryVariables
280
     0
  1
1:1
  0
DICTIONARYVAR
  5
5F5
102
{ACAD_REACTORS
330
5F3
102
}
330
5F3
100
DictionaryVariables
280
     0
  1
STANDARD
  0
DICTIONARYVAR
  5
5F4
102
{ACAD_REACTORS
330
5F3
102
}
330
5F3
100
DictionaryVariables
280
     0
  1
STANDARD
  0
DICTIONARYVAR
  5
5F6
102
{ACAD_REACTORS
330
5F3
102
}
330
5F3
100
DictionaryVariables
280
     0
  1
Imperial24
  0
DICTIONARYVAR
  5
5F7
102
{ACAD_REACTORS
330
5F3
102
}
330
5F3
100
DictionaryVariables
280
     0
  1
Imperial24
  0
DICTIONARYVAR
  5
5FB
102
{ACAD_REACTORS
330
5F3
102
}
330
5F3
100
DictionaryVariables
280
     0
  1
1
  0
DICTIONARYVAR
  5
5FA
102
{ACAD_REACTORS
330
5F3
102
}
330
5F3
100
DictionaryVariables
280
     0
  1
0
  0
DICTIONARYVAR
  5
5F9
102
{ACAD_REACTORS
330
5F3
102
}
330
5F3
100
DictionaryVariables
280
     0
  1
127
  0
DICTIONARYVAR
  5
69E
102
{ACAD_REACTORS
330
5F3
102
}
330
5F3
100
DictionaryVariables
280
     0
  1
2
  0
DICTIONARY
  5
1AB
102
{ACAD_REACTORS
330
1A4
102
}
330
1A4
100
AcDbDictionary
281
     1
  0
DICTIONARY
  5
6DA
330
6A
100
AcDbDictionary
280
     1
281
     1
  3
ACAD_XREC_ROUNDTRIP
360
6DB
  0
DICTIONARY
  5
6DE
330
72
100
AcDbDictionary
280
     1
281
     1
  3
ACAD_XREC_ROUNDTRIP
360
6DF
  0
DICTIONARY
  5
6DC
330
6E
100
AcDbDictionary
280
     1
281
     1
  3
ACAD_XREC_ROUNDTRIP
360
6DD
  0
DICTIONARY
  5
1A
330
19
100
AcDbDictionary
280
     1
281
     1
  3
ACAD_XREC_ROUNDTRIP
360
602
  3
BUMPTILE
360
1C
  3
DIFFUSETILE
360
1B
  3
OPACITYTILE
360
1F
  3
REFLECTIONTILE
360
1E
  3
REFRACTIONTILE
360
20
  3
SPECULARTILE
360
1D
  0
DICTIONARY
  5
12
330
11
100
AcDbDictionary
280
     1
281
     1
  3
ACAD_XREC_ROUNDTRIP
360
601
  3
BUMPTILE
360
14
  3
DIFFUSETILE
360
13
  3
OPACITYTILE
360
17
  3
REFLECTIONTILE
360
16
  3
REFRACTIONTILE
360
18
  3
SPECULARTILE
360
15
  0
DICTIONARY
  5
22
330
21
100
AcDbDictionary
280
     1
281
     1
  3
ACAD_XREC_ROUNDTRIP
360
603
  3
BUMPTILE
360
24
  3
DIFFUSETILE
360
23
  3
OPACITYTILE
360
27
  3
REFLECTIONTILE
360
26
  3
REFRACTIONTILE
360
28
  3
SPECULARTILE
360
25
  0
DICTIONARY
  5
6D8
330
68
100
AcDbDictionary
280
     1
281
     1
  3
ACAD_XREC_ROUNDTRIP
360
6D9
  0
DICTIONARY
  5
5FD
330
64
100
AcDbDictionary
280
     1
281
     1
  3
ACAD_ROUNDTRIP_2008_TABLESTYLE_CELLSTYLEMAP
360
69F
  3
ACAD_XREC_ROUNDTRIP
360
6D7
  0
DICTIONARY
  5
6B1
330
2F
100
AcDbDictionary
280
     1
281
     1
  3
ACAD_XREC_ROUNDTRIP
360
6B2
  0
DICTIONARY
  5
6AF
330
2E
100
AcDbDictionary
280
     1
281
     1
  3
ACAD_XREC_ROUNDTRIP
360
6B0
  0
DICTIONARY
  5
6BD
330
35
100
AcDbDictionary
280
     1
281
     1
  3
ACAD_XREC_ROUNDTRIP
360
6BE
  0
DICTIONARY
  5
6C5
330
39
100
AcDbDictionary
280
     1
281
     1
  3
ACAD_XREC_ROUNDTRIP
360
6C6
  0
DICTIONARY
  5
6B7
330
32
100
AcDbDictionary
280
     1
281
     1
  3
ACAD_XREC_ROUNDTRIP
360
6B8
  0
DICTIONARY
  5
6BB
330
34
100
AcDbDictionary
280
     1
281
     1
  3
ACAD_XREC_ROUNDTRIP
360
6BC
  0
DICTIONARY
  5
6D5
330
41
100
AcDbDictionary
280
     1
281
     1
  3
ACAD_XREC_ROUNDTRIP
360
6D6
  0
DICTIONARY
  5
6C3
330
38
100
AcDbDictionary
280
     1
281
     1
  3
ACAD_XREC_ROUNDTRIP
360
6C4
  0
DICTIONARY
  5
6A7
330
2A
100
AcDbDictionary
280
     1
281
     1
  3
ACAD_XREC_ROUNDTRIP
360
6A8
  0
DICTIONARY
  5
6A9
330
2B
100
AcDbDictionary
280
     1
281
     1
  3
ACAD_XREC_ROUNDTRIP
360
6AA
  0
DICTIONARY
  5
6AB
330
2C
100
AcDbDictionary
280
     1
281
     1
  3
ACAD_XREC_ROUNDTRIP
360
6AC
  0
DICTIONARY
  5
6AD
330
2D
100
AcDbDictionary
280
     1
281
     1
  3
ACAD_XREC_ROUNDTRIP
360
6AE
  0
DICTIONARY
  5
6B5
330
31
100
AcDbDictionary
280
     1
281
     1
  3
ACAD_XREC_ROUNDTRIP
360
6B6
  0
DICTIONARY
  5
6D1
330
3F
100
AcDbDictionary
280
     1
281
     1
  3
ACAD_XREC_ROUNDTRIP
360
6D2
  0
DICTIONARY
  5
6C1
330
37
100
AcDbDictionary
280
     1
281
     1
  3
ACAD_XREC_ROUNDTRIP
360
6C2
  0
DICTIONARY
  5
6D3
330
40
100
AcDbDictionary
280
     1
281
     1
  3
ACAD_XREC_ROUNDTRIP
360
6D4
  0
DICTIONARY
  5
6B9
330
33
100
AcDbDictionary
280
     1
281
     1
  3
ACAD_XREC_ROUNDTRIP
360
6BA
  0
DICTIONARY
  5
6CF
330
3E
100
AcDbDictionary
280
     1
281
     1
  3
ACAD_XREC_ROUNDTRIP
360
6D0
  0
DICTIONARY
  5
6CD
330
3D
100
AcDbDictionary
280
     1
281
     1
  3
ACAD_XREC_ROUNDTRIP
360
6CE
  0
DICTIONARY
  5
6C7
330
3A
100
AcDbDictionary
280
     1
281
     1
  3
ACAD_XREC_ROUNDTRIP
360
6C8
  0
DICTIONARY
  5
6C9
330
3B
100
AcDbDictionary
280
     1
281
     1
  3
ACAD_XREC_ROUNDTRIP
360
6CA
  0
DICTIONARY
  5
6BF
330
36
100
AcDbDictionary
280
     1
281
     1
  3
ACAD_XREC_ROUNDTRIP
360
6C0
  0
DICTIONARY
  5
6B3
330
30
100
AcDbDictionary
280
     1
281
     1
  3
ACAD_XREC_ROUNDTRIP
360
6B4
  0
DICTIONARY
  5
6CB
330
3C
100
AcDbDictionary
280
     1
281
     1
  3
ACAD_XREC_ROUNDTRIP
360
6CC
  0
XRECORD
  5
6DB
102
{ACAD_REACTORS
330
6DA
102
}
330
6DA
100
AcDbXrecord
280
     1
102
DISPLAYNAME
  1
Imperial24
102
FLAGS
 90
        0
  0
XRECORD
  5
6DF
102
{ACAD_REACTORS
330
6DE
102
}
330
6DE
100
AcDbXrecord
280
     1
102
SHADEPLOT
 70
     0
102
SHADEPLOTRESLEVEL
 70
     2
102
SHADEPLOTCUSTOMDPI
 70
   300
  0
XRECORD
  5
6DD
102
{ACAD_REACTORS
330
6DC
102
}
330
6DC
100
AcDbXrecord
280
     1
102
SHADEPLOT
 70
     0
102
SHADEPLOTRESLEVEL
 70
     2
102
SHADEPLOTCUSTOMDPI
 70
   300
  0
XRECORD
  5
602
102
{ACAD_REACTORS
330
1A
102
}
330
1A
100
AcDbXrecord
280
     1
102
MATERIAL
148
0.0
149
0.0
149
0.0
 93
        0
 94
      127
282
     0
 72
     0
 77
     0
171
     0
175
     0
179
     0
273
     0
  0
XRECORD
  5
1C
102
{ACAD_REACTORS
330
1A
102
}
330
1A
100
AcDbXrecord
280
     1
270
     1
271
     1
  0
XRECORD
  5
1B
102
{ACAD_REACTORS
330
1A
102
}
330
1A
100
AcDbXrecord
280
     1
270
     1
271
     1
  0
XRECORD
  5
1F
102
{ACAD_REACTORS
330
1A
102
}
330
1A
100
AcDbXrecord
280
     1
270
     1
271
     1
  0
XRECORD
  5
1E
102
{ACAD_REACTORS
330
1A
102
}
330
1A
100
AcDbXrecord
280
     1
270
     1
271
     1
  0
XRECORD
  5
20
102
{ACAD_REACTORS
330
1A
102
}
330
1A
100
AcDbXrecord
280
     1
270
     1
271
     1
  0
XRECORD
  5
1D
102
{ACAD_REACTORS
330
1A
102
}
330
1A
100
AcDbXrecord
280
     1
270
     1
271
     1
  0
XRECORD
  5
601
102
{ACAD_REACTORS
330
12
102
}
330
12
100
AcDbXrecord
280
     1
102
MATERIAL
148
0.0
149
0.0
149
0.0
 93
        0
 94
      127
282
     0
 72
     0
 77
     0
171
     0
175
     0
179
     0
273
     0
  0
XRECORD
  5
14
102
{ACAD_REACTORS
330
12
102
}
330
12
100
AcDbXrecord
280
     1
270
     1
271
     1
  0
XRECORD
  5
13
102
{ACAD_REACTORS
330
12
102
}
330
12
100
AcDbXrecord
280
     1
270
     1
271
     1
  0
XRECORD
  5
17
102
{ACAD_REACTORS
330
12
102
}
330
12
100
AcDbXrecord
280
     1
270
     1
271
     1
  0
XRECORD
  5
16
102
{ACAD_REACTORS
330
12
102
}
330
12
100
AcDbXrecord
280
     1
270
     1
271
     1
  0
XRECORD
  5
18
102
{ACAD_REACTORS
330
12
102
}
330
12
100
AcDbXrecord
280
     1
270
     1
271
     1
  0
XRECORD
  5
15
102
{ACAD_REACTORS
330
12
102
}
330
12
100
AcDbXrecord
280
     1
270
     1
271
     1
  0
XRECORD
  5
603
102
{ACAD_REACTORS
330
22
102
}
330
22
100
AcDbXrecord
280
     1
102
MATERIAL
148
0.0
149
0.0
149
0.0
 93
        0
 94
      127
282
     0
 72
     0
 77
     0
171
     0
175
     0
179
     0
273
     0
  0
XRECORD
  5
24
102
{ACAD_REACTORS
330
22
102
}
330
22
100
AcDbXrecord
280
     1
270
     1
271
     1
  0
XRECORD
  5
23
102
{ACAD_REACTORS
330
22
102
}
330
22
100
AcDbXrecord
280
     1
270
     1
271
     1
  0
XRECORD
  5
27
102
{ACAD_REACTORS
330
22
102
}
330
22
100
AcDbXrecord
280
     1
270
     1
271
     1
  0
XRECORD
  5
26
102
{ACAD_REACTORS
330
22
102
}
330
22
100
AcDbXrecord
280
     1
270
     1
271
     1
  0
XRECORD
  5
28
102
{ACAD_REACTORS
330
22
102
}
330
22
100
AcDbXrecord
280
     1
270
     1
271
     1
  0
XRECORD
  5
25
102
{ACAD_REACTORS
330
22
102
}
330
22
100
AcDbXrecord
280
     1
270
     1
271
     1
  0
XRECORD
  5
6D9
102
{ACAD_REACTORS
330
6D8
102
}
330
6D8
100
AcDbXrecord
280
     1
102
DISPLAYNAME
  1
Imperial24
102
FLAGS
 90
        0
  0
CELLSTYLEMAP
  5
69F
102
{ACAD_REACTORS
330
5FD
102
}
330
5FD
100
AcDbCellStyleMap
 90
        3
300
CELLSTYLE
  1
TABLEFORMAT_BEGIN
 90
        5
170
     1
 91
        0
 92
    32768
 62
   257
 93
        1
300
CONTENTFORMAT
  1
CONTENTFORMAT_BEGIN
 90
        0
 91
        0
 92
      512
 93
        0
300

 40
0.0
140
1.0
 94
        5
 62
     0
340
55
144
0.25
309
CONTENTFORMAT_END
171
     1
301
MARGIN
  1
CELLMARGIN_BEGIN
 40
0.06
 40
0.06
 40
0.06
 40
0.06
 40
0.18
 40
0.18
309
CELLMARGIN_END
 94
        6
 95
        1
302
GRIDFORMAT
  1
GRIDFORMAT_BEGIN
 90
        0
 91
        1
 62
     0
 92
       -2
340
0
 93
        0
 40
0.045
309
GRIDFORMAT_END
 95
        2
302
GRIDFORMAT
  1
GRIDFORMAT_BEGIN
 90
        0
 91
        1
 62
     0
 92
       -2
340
0
 93
        0
 40
0.045
309
GRIDFORMAT_END
 95
        4
302
GRIDFORMAT
  1
GRIDFORMAT_BEGIN
 90
        0
 91
        1
 62
     0
 92
       -2
340
0
 93
        0
 40
0.045
309
GRIDFORMAT_END
 95
        8
302
GRIDFORMAT
  1
GRIDFORMAT_BEGIN
 90
        0
 91
        1
 62
     0
 92
       -2
340
0
 93
        0
 40
0.045
309
GRIDFORMAT_END
 95
       16
302
GRIDFORMAT
  1
GRIDFORMAT_BEGIN
 90
        0
 91
        1
 62
     0
 92
       -2
340
0
 93
        0
 40
0.045
309
GRIDFORMAT_END
 95
       32
302
GRIDFORMAT
  1
GRIDFORMAT_BEGIN
 90
        0
 91
        1
 62
     0
 92
       -2
340
0
 93
        0
 40
0.045
309
GRIDFORMAT_END
309
TABLEFORMAT_END
  1
CELLSTYLE_BEGIN
 90
        1
 91
        1
300
_TITLE
309
CELLSTYLE_END
300
CELLSTYLE
  1
TABLEFORMAT_BEGIN
 90
        5
170
     1
 91
        0
 92
        0
 62
   257
 93
        1
300
CONTENTFORMAT
  1
CONTENTFORMAT_BEGIN
 90
        0
 91
        0
 92
      512
 93
        0
300

 40
0.0
140
1.0
 94
        5
 62
     0
340
55
144
0.18
309
CONTENTFORMAT_END
171
     1
301
MARGIN
  1
CELLMARGIN_BEGIN
 40
0.06
 40
0.06
 40
0.06
 40
0.06
 40
0.18
 40
0.18
309
CELLMARGIN_END
 94
        6
 95
        1
302
GRIDFORMAT
  1
GRIDFORMAT_BEGIN
 90
        0
 91
        1
 62
     0
 92
       -2
340
0
 93
        0
 40
0.045
309
GRIDFORMAT_END
 95
        2
302
GRIDFORMAT
  1
GRIDFORMAT_BEGIN
 90
        0
 91
        1
 62
     0
 92
       -2
340
0
 93
        0
 40
0.045
309
GRIDFORMAT_END
 95
        4
302
GRIDFORMAT
  1
GRIDFORMAT_BEGIN
 90
        0
 91
        1
 62
     0
 92
       -2
340
0
 93
        0
 40
0.045
309
GRIDFORMAT_END
 95
        8
302
GRIDFORMAT
  1
GRIDFORMAT_BEGIN
 90
        0
 91
        1
 62
     0
 92
       -2
340
0
 93
        0
 40
0.045
309
GRIDFORMAT_END
 95
       16
302
GRIDFORMAT
  1
GRIDFORMAT_BEGIN
 90
        0
 91
        1
 62
     0
 92
       -2
340
0
 93
        0
 40
0.045
309
GRIDFORMAT_END
 95
       32
302
GRIDFORMAT
  1
GRIDFORMAT_BEGIN
 90
        0
 91
        1
 62
     0
 92
       -2
340
0
 93
        0
 40
0.045
309
GRIDFORMAT_END
309
TABLEFORMAT_END
  1
CELLSTYLE_BEGIN
 90
        2
 91
        1
300
_HEADER
309
CELLSTYLE_END
300
CELLSTYLE
  1
TABLEFORMAT_BEGIN
 90
        5
170
     1
 91
        0
 92
        0
 62
   257
 93
        1
300
CONTENTFORMAT
  1
CONTENTFORMAT_BEGIN
 90
        0
 91
        0
 92
      512
 93
        0
300

 40
0.0
140
1.0
 94
        2
 62
     0
340
55
144
0.18
309
CONTENTFORMAT_END
171
     1
301
MARGIN
  1
CELLMARGIN_BEGIN
 40
0.06
 40
0.06
 40
0.06
 40
0.06
 40
0.18
 40
0.18
309
CELLMARGIN_END
 94
        6
 95
        1
302
GRIDFORMAT
  1
GRIDFORMAT_BEGIN
 90
        0
 91
        1
 62
     0
 92
       -2
340
0
 93
        0
 40
0.045
309
GRIDFORMAT_END
 95
        2
302
GRIDFORMAT
  1
GRIDFORMAT_BEGIN
 90
        0
 91
        1
 62
     0
 92
       -2
340
0
 93
        0
 40
0.045
309
GRIDFORMAT_END
 95
        4
302
GRIDFORMAT
  1
GRIDFORMAT_BEGIN
 90
        0
 91
        1
 62
     0
 92
       -2
340
0
 93
        0
 40
0.045
309
GRIDFORMAT_END
 95
        8
302
GRIDFORMAT
  1
GRIDFORMAT_BEGIN
 90
        0
 91
        1
 62
     0
 92
       -2
340
0
 93
        0
 40
0.045
309
GRIDFORMAT_END
 95
       16
302
GRIDFORMAT
  1
GRIDFORMAT_BEGIN
 90
        0
 91
        1
 62
     0
 92
       -2
340
0
 93
        0
 40
0.045
309
GRIDFORMAT_END
 95
       32
302
GRIDFORMAT
  1
GRIDFORMAT_BEGIN
 90
        0
 91
        1
 62
     0
 92
       -2
340
0
 93
        0
 40
0.045
309
GRIDFORMAT_END
309
TABLEFORMAT_END
  1
CELLSTYLE_BEGIN
 90
        3
 91
        2
300
_DATA
309
CELLSTYLE_END
  0
XRECORD
  5
6D7
102
{ACAD_REACTORS
330
5FD
102
}
330
5FD
100
AcDbXrecord
280
     1
102
ACAD_ROUNDTRIP_PRE2007_TABLESTYLE
 90
      512
 91
        0
  1

 92
      512
 93
        0
  2

 94
      512
 95
        0
  3

  0
XRECORD
  5
6B2
102
{ACAD_REACTORS
330
6B1
102
}
330
6B1
100
AcDbXrecord
280
     1
102
RTVSPost2010Prop28
280
     1
102
RTVSPost2010PropOp28
 70
     1
102
RTVSPost2010Prop29
280
     1
102
RTVSPost2010PropOp29
 70
     1
102
RTVSPost2010Prop30
280
     0
102
RTVSPost2010PropOp30
 70
     1
102
RTVSPost2010Prop31
280
     0
102
RTVSPost2010PropOp31
 70
     1
102
RTVSPost2010Prop32
280
     0
102
RTVSPost2010PropOp32
 70
     1
102
RTVSPost2010Prop33
280
     0
102
RTVSPost2010PropOp33
 70
     1
102
RTVSPost2010Prop34
280
     0
102
RTVSPost2010PropOp34
 70
     1
102
RTVSPost2010Prop35
280
     0
102
RTVSPost2010PropOp35
 70
     1
102
RTVSPost2010Prop36
280
     0
102
RTVSPost2010PropOp36
 70
     1
102
RTVSPost2010Prop37
 90
       50
102
RTVSPost2010PropOp37
 70
     1
102
RTVSPost2010Prop38
140
0.0
102
RTVSPost2010PropOp38
 70
     1
102
RTVSPost2010Prop39
140
1.0
102
RTVSPost2010PropOp39
 70
     1
102
RTVSPost2010Prop40
 90
        0
102
RTVSPost2010PropOp40
 70
     1
102
RTVSPost2010Prop41ColorIndex
 90
       18
102
RTVSPost2010Prop41ColorRGB
 90
        0
102
RTVSPost2010PropOp41
 70
     1
102
RTVSPost2010Prop42
 90
       50
102
RTVSPost2010PropOp42
 70
     1
102
RTVSPost2010Prop43
 90
        3
102
RTVSPost2010PropOp43
 70
     1
102
RTVSPost2010Prop44ColorIndex
 90
        5
102
RTVSPost2010Prop44ColorRGB
 90
      255
102
RTVSPost2010PropOp44
 70
     1
102
RTVSPost2010Prop45
280
     0
102
RTVSPost2010PropOp45
 70
     1
102
RTVSPost2010Prop46
 90
       50
102
RTVSPost2010PropOp46
 70
     1
102
RTVSPost2010Prop47
 90
       50
102
RTVSPost2010PropOp47
 70
     1
102
RTVSPost2010Prop48
 90
       50
102
RTVSPost2010PropOp48
 70
     1
102
RTVSPost2010Prop49
280
     0
102
RTVSPost2010PropOp49
 70
     1
102
RTVSPost2010Prop50
 90
       50
102
RTVSPost2010PropOp50
 70
     1
102
RTVSPost2010Prop51ColorIndex
 90
      256
102
RTVSPost2010Prop51ColorRGB
 90
-16777216
102
RTVSPost2010PropOp51
 70
     0
102
RTVSPost2010Prop52
140
1.0
102
RTVSPost2010PropOp52
 70
     0
102
RTVSPost2010Prop53
 90
        2
102
RTVSPost2010PropOp53
 70
     1
102
RTVSPost2010Prop54
  1
strokes_ogs.tif
102
RTVSPost2010PropOp54
 70
     1
102
RTVSPost2010Prop55
280
     0
102
RTVSPost2010PropOp55
 70
     1
102
RTVSPost2010Prop56
140
1.0
102
RTVSPost2010PropOp56
 70
     1
102
RTVSPost2010Prop57
140
1.0
102
RTVSPost2010PropOp57
 70
     1
102
RTVSPropertyOp0
 70
     1
102
RTVSPropertyOp1
 70
     1
102
RTVSPropertyOp2
 70
     1
102
RTVSPropertyOp3
 70
     1
102
RTVSPropertyOp4
 70
     1
102
RTVSPropertyOp5
 70
     1
102
RTVSPropertyOp6
 70
     1
102
RTVSPropertyOp7
 70
     1
102
RTVSPropertyOp8
 70
     1
102
RTVSPropertyOp9
 70
     1
102
RTVSPropertyOp10
 70
     1
102
RTVSPropertyOp11
 70
     1
102
RTVSPropertyOp12
 70
     1
102
RTVSPropertyOp13
 70
     1
102
RTVSPropertyOp14
 70
     1
102
RTVSPropertyOp15
 70
     1
102
RTVSPropertyOp16
 70
     1
102
RTVSPropertyOp17
 70
     1
102
RTVSPropertyOp18
 70
     1
102
RTVSPropertyOp19
 70
     1
102
RTVSPropertyOp20
 70
     1
102
RTVSPropertyOp21
 70
     1
102
RTVSPropertyOp22
 70
     1
102
RTVSPropertyOp23
 70
     1
102
RTVSPropertyOp24
 70
     1
102
RTVSPropertyOp25
 70
     1
102
RTVSPropertyOp26
 70
     1
102
RTVSPropertyOp27
 70
     1
102
RTVSPropertyOp28
 70
     1
102
RTVSPropertyOp29
 70
     1
102
RTVSPropertyOp30
 70
     1
102
RTVSPropertyOp31
 70
     1
102
RTVSPropertyOp32
 70
     1
102
RTVSPropertyOp33
 70
     1
102
RTVSPropertyOp34
 70
     1
102
RTVSPropertyOp35
 70
     1
102
RTVSPropertyOp36
 70
     1
102
RTVSPropertyOp37
 70
     1
102
RTVSPropertyOp38
 70
     1
102
RTVSPropertyOp39
 70
     1
102
RTVSPropertyOp40
 70
     1
102
RTVSPropertyOp41
 70
     1
102
RTVSPropertyOp42
 70
     1
102
RTVSPropertyOp43
 70
     1
102
RTVSPropertyOp44
 70
     1
102
RTVSPropertyOp45
 70
     1
102
RTVSPropertyOp46
 70
     1
102
RTVSPropertyOp47
 70
     1
102
RTVSPropertyOp48
 70
     1
102
RTVSPropertyOp49
 70
     1
102
RTVSPropertyOp50
 70
     1
102
RTVSPropertyOp51
 70
     0
102
RTVSPropertyOp52
 70
     0
102
RTVSPropertyOp53
 70
     1
102
RTVSPropertyOp54
 70
     1
102
RTVSPropertyOp55
 70
     1
102
RTVSPropertyOp56
 70
     1
102
RTVSPropertyOp57
 70
     1
102
RTVSPropertyOp58
 70
     1
102
RTVSPropertyOp59
 70
     1
102
RTVSPropertyOp60
 70
     1
102
RTVSPropertyOp61
 70
     1
102
RTVSPropertyOp62
 70
     1
  0
XRECORD
  5
6B0
102
{ACAD_REACTORS
330
6AF
102
}
330
6AF
100
AcDbXrecord
280
     1
102
RTVSPost2010Prop28
280
     0
102
RTVSPost2010PropOp28
 70
     1
102
RTVSPost2010Prop29
280
     1
102
RTVSPost2010PropOp29
 70
     1
102
RTVSPost2010Prop30
280
     1
102
RTVSPost2010PropOp30
 70
     1
102
RTVSPost2010Prop31
280
     0
102
RTVSPost2010PropOp31
 70
     1
102
RTVSPost2010Prop32
280
     0
102
RTVSPost2010PropOp32
 70
     1
102
RTVSPost2010Prop33
280
     0
102
RTVSPost2010PropOp33
 70
     1
102
RTVSPost2010Prop34
280
     0
102
RTVSPost2010PropOp34
 70
     1
102
RTVSPost2010Prop35
280
     0
102
RTVSPost2010PropOp35
 70
     1
102
RTVSPost2010Prop36
280
     0
102
RTVSPost2010PropOp36
 70
     1
102
RTVSPost2010Prop37
 90
       50
102
RTVSPost2010PropOp37
 70
     1
102
RTVSPost2010Prop38
140
0.0
102
RTVSPost2010PropOp38
 70
     1
102
RTVSPost2010Prop39
140
1.0
102
RTVSPost2010PropOp39
 70
     1
102
RTVSPost2010Prop40
 90
        0
102
RTVSPost2010PropOp40
 70
     1
102
RTVSPost2010Prop41ColorIndex
 90
       18
102
RTVSPost2010Prop41ColorRGB
 90
        0
102
RTVSPost2010PropOp41
 70
     1
102
RTVSPost2010Prop42
 90
       50
102
RTVSPost2010PropOp42
 70
     1
102
RTVSPost2010Prop43
 90
        3
102
RTVSPost2010PropOp43
 70
     1
102
RTVSPost2010Prop44ColorIndex
 90
        5
102
RTVSPost2010Prop44ColorRGB
 90
      255
102
RTVSPost2010PropOp44
 70
     1
102
RTVSPost2010Prop45
280
     0
102
RTVSPost2010PropOp45
 70
     1
102
RTVSPost2010Prop46
 90
       50
102
RTVSPost2010PropOp46
 70
     1
102
RTVSPost2010Prop47
 90
       50
102
RTVSPost2010PropOp47
 70
     1
102
RTVSPost2010Prop48
 90
       50
102
RTVSPost2010PropOp48
 70
     1
102
RTVSPost2010Prop49
280
     0
102
RTVSPost2010PropOp49
 70
     1
102
RTVSPost2010Prop50
 90
       50
102
RTVSPost2010PropOp50
 70
     1
102
RTVSPost2010Prop51ColorIndex
 90
      256
102
RTVSPost2010Prop51ColorRGB
 90
-16777216
102
RTVSPost2010PropOp51
 70
     0
102
RTVSPost2010Prop52
140
1.0
102
RTVSPost2010PropOp52
 70
     0
102
RTVSPost2010Prop53
 90
        2
102
RTVSPost2010PropOp53
 70
     1
102
RTVSPost2010Prop54
  1
strokes_ogs.tif
102
RTVSPost2010PropOp54
 70
     1
102
RTVSPost2010Prop55
280
     0
102
RTVSPost2010PropOp55
 70
     1
102
RTVSPost2010Prop56
140
1.0
102
RTVSPost2010PropOp56
 70
     1
102
RTVSPost2010Prop57
140
1.0
102
RTVSPost2010PropOp57
 70
     1
102
RTVSPropertyOp0
 70
     1
102
RTVSPropertyOp1
 70
     1
102
RTVSPropertyOp2
 70
     1
102
RTVSPropertyOp3
 70
     1
102
RTVSPropertyOp4
 70
     1
102
RTVSPropertyOp5
 70
     1
102
RTVSPropertyOp6
 70
     1
102
RTVSPropertyOp7
 70
     1
102
RTVSPropertyOp8
 70
     1
102
RTVSPropertyOp9
 70
     1
102
RTVSPropertyOp10
 70
     1
102
RTVSPropertyOp11
 70
     1
102
RTVSPropertyOp12
 70
     1
102
RTVSPropertyOp13
 70
     1
102
RTVSPropertyOp14
 70
     1
102
RTVSPropertyOp15
 70
     1
102
RTVSPropertyOp16
 70
     1
102
RTVSPropertyOp17
 70
     1
102
RTVSPropertyOp18
 70
     1
102
RTVSPropertyOp19
 70
     1
102
RTVSPropertyOp20
 70
     1
102
RTVSPropertyOp21
 70
     1
102
RTVSPropertyOp22
 70
     1
102
RTVSPropertyOp23
 70
     1
102
RTVSPropertyOp24
 70
     1
102
RTVSPropertyOp25
 70
     1
102
RTVSPropertyOp26
 70
     1
102
RTVSPropertyOp27
 70
     1
102
RTVSPropertyOp28
 70
     1
102
RTVSPropertyOp29
 70
     1
102
RTVSPropertyOp30
 70
     1
102
RTVSPropertyOp31
 70
     1
102
RTVSPropertyOp32
 70
     1
102
RTVSPropertyOp33
 70
     1
102
RTVSPropertyOp34
 70
     1
102
RTVSPropertyOp35
 70
     1
102
RTVSPropertyOp36
 70
     1
102
RTVSPropertyOp37
 70
     1
102
RTVSPropertyOp38
 70
     1
102
RTVSPropertyOp39
 70
     1
102
RTVSPropertyOp40
 70
     1
102
RTVSPropertyOp41
 70
     1
102
RTVSPropertyOp42
 70
     1
102
RTVSPropertyOp43
 70
     1
102
RTVSPropertyOp44
 70
     1
102
RTVSPropertyOp45
 70
     1
102
RTVSPropertyOp46
 70
     1
102
RTVSPropertyOp47
 70
     1
102
RTVSPropertyOp48
 70
     1
102
RTVSPropertyOp49
 70
     1
102
RTVSPropertyOp50
 70
     1
102
RTVSPropertyOp51
 70
     0
102
RTVSPropertyOp52
 70
     0
102
RTVSPropertyOp53
 70
     1
102
RTVSPropertyOp54
 70
     1
102
RTVSPropertyOp55
 70
     1
102
RTVSPropertyOp56
 70
     1
102
RTVSPropertyOp57
 70
     1
102
RTVSPropertyOp58
 70
     1
102
RTVSPropertyOp59
 70
     1
102
RTVSPropertyOp60
 70
     1
102
RTVSPropertyOp61
 70
     1
102
RTVSPropertyOp62
 70
     1
  0
XRECORD
  5
6BE
102
{ACAD_REACTORS
330
6BD
102
}
330
6BD
100
AcDbXrecord
280
     1
102
RTVSPost2010Prop28
280
     0
102
RTVSPost2010PropOp28
 70
     1
102
RTVSPost2010Prop29
280
     1
102
RTVSPost2010PropOp29
 70
     1
102
RTVSPost2010Prop30
280
     1
102
RTVSPost2010PropOp30
 70
     1
102
RTVSPost2010Prop31
280
     0
102
RTVSPost2010PropOp31
 70
     1
102
RTVSPost2010Prop32
280
     0
102
RTVSPost2010PropOp32
 70
     1
102
RTVSPost2010Prop33
280
     0
102
RTVSPost2010PropOp33
 70
     1
102
RTVSPost2010Prop34
280
     0
102
RTVSPost2010PropOp34
 70
     1
102
RTVSPost2010Prop35
280
     0
102
RTVSPost2010PropOp35
 70
     1
102
RTVSPost2010Prop36
280
     0
102
RTVSPost2010PropOp36
 70
     1
102
RTVSPost2010Prop37
 90
       50
102
RTVSPost2010PropOp37
 70
     1
102
RTVSPost2010Prop38
140
0.0
102
RTVSPost2010PropOp38
 70
     1
102
RTVSPost2010Prop39
140
1.0
102
RTVSPost2010PropOp39
 70
     1
102
RTVSPost2010Prop40
 90
        0
102
RTVSPost2010PropOp40
 70
     1
102
RTVSPost2010Prop41ColorIndex
 90
       18
102
RTVSPost2010Prop41ColorRGB
 90
        0
102
RTVSPost2010PropOp41
 70
     1
102
RTVSPost2010Prop42
 90
       50
102
RTVSPost2010PropOp42
 70
     1
102
RTVSPost2010Prop43
 90
        3
102
RTVSPost2010PropOp43
 70
     1
102
RTVSPost2010Prop44ColorIndex
 90
        5
102
RTVSPost2010Prop44ColorRGB
 90
      255
102
RTVSPost2010PropOp44
 70
     1
102
RTVSPost2010Prop45
280
     0
102
RTVSPost2010PropOp45
 70
     1
102
RTVSPost2010Prop46
 90
       50
102
RTVSPost2010PropOp46
 70
     1
102
RTVSPost2010Prop47
 90
       50
102
RTVSPost2010PropOp47
 70
     1
102
RTVSPost2010Prop48
 90
       50
102
RTVSPost2010PropOp48
 70
     1
102
RTVSPost2010Prop49
280
     0
102
RTVSPost2010PropOp49
 70
     1
102
RTVSPost2010Prop50
 90
       50
102
RTVSPost2010PropOp50
 70
     1
102
RTVSPost2010Prop51ColorIndex
 90
      256
102
RTVSPost2010Prop51ColorRGB
 90
-16777216
102
RTVSPost2010PropOp51
 70
     0
102
RTVSPost2010Prop52
140
1.0
102
RTVSPost2010PropOp52
 70
     0
102
RTVSPost2010Prop53
 90
        2
102
RTVSPost2010PropOp53
 70
     1
102
RTVSPost2010Prop54
  1
strokes_ogs.tif
102
RTVSPost2010PropOp54
 70
     1
102
RTVSPost2010Prop55
280
     0
102
RTVSPost2010PropOp55
 70
     1
102
RTVSPost2010Prop56
140
1.0
102
RTVSPost2010PropOp56
 70
     1
102
RTVSPost2010Prop57
140
1.0
102
RTVSPost2010PropOp57
 70
     1
102
RTVSPropertyOp0
 70
     1
102
RTVSPropertyOp1
 70
     1
102
RTVSPropertyOp2
 70
     1
102
RTVSPropertyOp3
 70
     1
102
RTVSPropertyOp4
 70
     1
102
RTVSPropertyOp5
 70
     1
102
RTVSPropertyOp6
 70
     1
102
RTVSPropertyOp7
 70
     1
102
RTVSPropertyOp8
 70
     1
102
RTVSPropertyOp9
 70
     1
102
RTVSPropertyOp10
 70
     1
102
RTVSPropertyOp11
 70
     1
102
RTVSPropertyOp12
 70
     1
102
RTVSPropertyOp13
 70
     1
102
RTVSPropertyOp14
 70
     1
102
RTVSPropertyOp15
 70
     1
102
RTVSPropertyOp16
 70
     1
102
RTVSPropertyOp17
 70
     1
102
RTVSPropertyOp18
 70
     1
102
RTVSPropertyOp19
 70
     1
102
RTVSPropertyOp20
 70
     1
102
RTVSPropertyOp21
 70
     1
102
RTVSPropertyOp22
 70
     1
102
RTVSPropertyOp23
 70
     1
102
RTVSPropertyOp24
 70
     1
102
RTVSPropertyOp25
 70
     1
102
RTVSPropertyOp26
 70
     1
102
RTVSPropertyOp27
 70
     1
102
RTVSPropertyOp28
 70
     1
102
RTVSPropertyOp29
 70
     1
102
RTVSPropertyOp30
 70
     1
102
RTVSPropertyOp31
 70
     1
102
RTVSPropertyOp32
 70
     1
102
RTVSPropertyOp33
 70
     1
102
RTVSPropertyOp34
 70
     1
102
RTVSPropertyOp35
 70
     1
102
RTVSPropertyOp36
 70
     1
102
RTVSPropertyOp37
 70
     1
102
RTVSPropertyOp38
 70
     1
102
RTVSPropertyOp39
 70
     1
102
RTVSPropertyOp40
 70
     1
102
RTVSPropertyOp41
 70
     1
102
RTVSPropertyOp42
 70
     1
102
RTVSPropertyOp43
 70
     1
102
RTVSPropertyOp44
 70
     1
102
RTVSPropertyOp45
 70
     1
102
RTVSPropertyOp46
 70
     1
102
RTVSPropertyOp47
 70
     1
102
RTVSPropertyOp48
 70
     1
102
RTVSPropertyOp49
 70
     1
102
RTVSPropertyOp50
 70
     1
102
RTVSPropertyOp51
 70
     0
102
RTVSPropertyOp52
 70
     0
102
RTVSPropertyOp53
 70
     1
102
RTVSPropertyOp54
 70
     1
102
RTVSPropertyOp55
 70
     1
102
RTVSPropertyOp56
 70
     1
102
RTVSPropertyOp57
 70
     1
102
RTVSPropertyOp58
 70
     1
102
RTVSPropertyOp59
 70
     1
102
RTVSPropertyOp60
 70
     1
102
RTVSPropertyOp61
 70
     1
102
RTVSPropertyOp62
 70
     1
  0
XRECORD
  5
6C6
102
{ACAD_REACTORS
330
6C5
102
}
330
6C5
100
AcDbXrecord
280
     1
102
RTVSPost2010Prop28
280
     0
102
RTVSPost2010PropOp28
 70
     1
102
RTVSPost2010Prop29
280
     1
102
RTVSPost2010PropOp29
 70
     1
102
RTVSPost2010Prop30
280
     1
102
RTVSPost2010PropOp30
 70
     1
102
RTVSPost2010Prop31
280
     0
102
RTVSPost2010PropOp31
 70
     1
102
RTVSPost2010Prop32
280
     0
102
RTVSPost2010PropOp32
 70
     1
102
RTVSPost2010Prop33
280
     0
102
RTVSPost2010PropOp33
 70
     1
102
RTVSPost2010Prop34
280
     0
102
RTVSPost2010PropOp34
 70
     1
102
RTVSPost2010Prop35
280
     0
102
RTVSPost2010PropOp35
 70
     1
102
RTVSPost2010Prop36
280
     0
102
RTVSPost2010PropOp36
 70
     1
102
RTVSPost2010Prop37
 90
       50
102
RTVSPost2010PropOp37
 70
     1
102
RTVSPost2010Prop38
140
0.0
102
RTVSPost2010PropOp38
 70
     1
102
RTVSPost2010Prop39
140
1.0
102
RTVSPost2010PropOp39
 70
     1
102
RTVSPost2010Prop40
 90
        0
102
RTVSPost2010PropOp40
 70
     1
102
RTVSPost2010Prop41ColorIndex
 90
       18
102
RTVSPost2010Prop41ColorRGB
 90
        0
102
RTVSPost2010PropOp41
 70
     1
102
RTVSPost2010Prop42
 90
       50
102
RTVSPost2010PropOp42
 70
     1
102
RTVSPost2010Prop43
 90
        3
102
RTVSPost2010PropOp43
 70
     1
102
RTVSPost2010Prop44ColorIndex
 90
        5
102
RTVSPost2010Prop44ColorRGB
 90
      255
102
RTVSPost2010PropOp44
 70
     1
102
RTVSPost2010Prop45
280
     0
102
RTVSPost2010PropOp45
 70
     1
102
RTVSPost2010Prop46
 90
       50
102
RTVSPost2010PropOp46
 70
     1
102
RTVSPost2010Prop47
 90
       50
102
RTVSPost2010PropOp47
 70
     1
102
RTVSPost2010Prop48
 90
       50
102
RTVSPost2010PropOp48
 70
     1
102
RTVSPost2010Prop49
280
     0
102
RTVSPost2010PropOp49
 70
     1
102
RTVSPost2010Prop50
 90
       50
102
RTVSPost2010PropOp50
 70
     1
102
RTVSPost2010Prop51ColorIndex
 90
      256
102
RTVSPost2010Prop51ColorRGB
 90
-16777216
102
RTVSPost2010PropOp51
 70
     0
102
RTVSPost2010Prop52
140
1.0
102
RTVSPost2010PropOp52
 70
     0
102
RTVSPost2010Prop53
 90
        2
102
RTVSPost2010PropOp53
 70
     1
102
RTVSPost2010Prop54
  1
strokes_ogs.tif
102
RTVSPost2010PropOp54
 70
     1
102
RTVSPost2010Prop55
280
     0
102
RTVSPost2010PropOp55
 70
     1
102
RTVSPost2010Prop56
140
1.0
102
RTVSPost2010PropOp56
 70
     1
102
RTVSPost2010Prop57
140
1.0
102
RTVSPost2010PropOp57
 70
     1
102
RTVSPropertyOp0
 70
     1
102
RTVSPropertyOp1
 70
     1
102
RTVSPropertyOp2
 70
     1
102
RTVSPropertyOp3
 70
     1
102
RTVSPropertyOp4
 70
     1
102
RTVSPropertyOp5
 70
     1
102
RTVSPropertyOp6
 70
     1
102
RTVSPropertyOp7
 70
     1
102
RTVSPropertyOp8
 70
     1
102
RTVSPropertyOp9
 70
     1
102
RTVSPropertyOp10
 70
     1
102
RTVSPropertyOp11
 70
     1
102
RTVSPropertyOp12
 70
     1
102
RTVSPropertyOp13
 70
     1
102
RTVSPropertyOp14
 70
     1
102
RTVSPropertyOp15
 70
     1
102
RTVSPropertyOp16
 70
     1
102
RTVSPropertyOp17
 70
     1
102
RTVSPropertyOp18
 70
     1
102
RTVSPropertyOp19
 70
     1
102
RTVSPropertyOp20
 70
     1
102
RTVSPropertyOp21
 70
     1
102
RTVSPropertyOp22
 70
     1
102
RTVSPropertyOp23
 70
     1
102
RTVSPropertyOp24
 70
     1
102
RTVSPropertyOp25
 70
     1
102
RTVSPropertyOp26
 70
     1
102
RTVSPropertyOp27
 70
     1
102
RTVSPropertyOp28
 70
     1
102
RTVSPropertyOp29
 70
     1
102
RTVSPropertyOp30
 70
     1
102
RTVSPropertyOp31
 70
     1
102
RTVSPropertyOp32
 70
     1
102
RTVSPropertyOp33
 70
     1
102
RTVSPropertyOp34
 70
     1
102
RTVSPropertyOp35
 70
     1
102
RTVSPropertyOp36
 70
     1
102
RTVSPropertyOp37
 70
     1
102
RTVSPropertyOp38
 70
     1
102
RTVSPropertyOp39
 70
     1
102
RTVSPropertyOp40
 70
     1
102
RTVSPropertyOp41
 70
     1
102
RTVSPropertyOp42
 70
     1
102
RTVSPropertyOp43
 70
     1
102
RTVSPropertyOp44
 70
     1
102
RTVSPropertyOp45
 70
     1
102
RTVSPropertyOp46
 70
     1
102
RTVSPropertyOp47
 70
     1
102
RTVSPropertyOp48
 70
     1
102
RTVSPropertyOp49
 70
     1
102
RTVSPropertyOp50
 70
     1
102
RTVSPropertyOp51
 70
     0
102
RTVSPropertyOp52
 70
     0
102
RTVSPropertyOp53
 70
     1
102
RTVSPropertyOp54
 70
     1
102
RTVSPropertyOp55
 70
     1
102
RTVSPropertyOp56
 70
     1
102
RTVSPropertyOp57
 70
     1
102
RTVSPropertyOp58
 70
     1
102
RTVSPropertyOp59
 70
     1
102
RTVSPropertyOp60
 70
     1
102
RTVSPropertyOp61
 70
     1
102
RTVSPropertyOp62
 70
     1
  0
XRECORD
  5
6B8
102
{ACAD_REACTORS
330
6B7
102
}
330
6B7
100
AcDbXrecord
280
     1
102
RTVSPost2010Prop28
280
     0
102
RTVSPost2010PropOp28
 70
     1
102
RTVSPost2010Prop29
280
     1
102
RTVSPost2010PropOp29
 70
     1
102
RTVSPost2010Prop30
280
     1
102
RTVSPost2010PropOp30
 70
     1
102
RTVSPost2010Prop31
280
     0
102
RTVSPost2010PropOp31
 70
     1
102
RTVSPost2010Prop32
280
     0
102
RTVSPost2010PropOp32
 70
     1
102
RTVSPost2010Prop33
280
     0
102
RTVSPost2010PropOp33
 70
     1
102
RTVSPost2010Prop34
280
     0
102
RTVSPost2010PropOp34
 70
     1
102
RTVSPost2010Prop35
280
     0
102
RTVSPost2010PropOp35
 70
     1
102
RTVSPost2010Prop36
280
     0
102
RTVSPost2010PropOp36
 70
     1
102
RTVSPost2010Prop37
 90
       50
102
RTVSPost2010PropOp37
 70
     1
102
RTVSPost2010Prop38
140
0.0
102
RTVSPost2010PropOp38
 70
     1
102
RTVSPost2010Prop39
140
1.0
102
RTVSPost2010PropOp39
 70
     1
102
RTVSPost2010Prop40
 90
        0
102
RTVSPost2010PropOp40
 70
     1
102
RTVSPost2010Prop41ColorIndex
 90
       18
102
RTVSPost2010Prop41ColorRGB
 90
        0
102
RTVSPost2010PropOp41
 70
     1
102
RTVSPost2010Prop42
 90
       50
102
RTVSPost2010PropOp42
 70
     1
102
RTVSPost2010Prop43
 90
        3
102
RTVSPost2010PropOp43
 70
     1
102
RTVSPost2010Prop44ColorIndex
 90
        5
102
RTVSPost2010Prop44ColorRGB
 90
      255
102
RTVSPost2010PropOp44
 70
     1
102
RTVSPost2010Prop45
280
     0
102
RTVSPost2010PropOp45
 70
     1
102
RTVSPost2010Prop46
 90
       50
102
RTVSPost2010PropOp46
 70
     1
102
RTVSPost2010Prop47
 90
       50
102
RTVSPost2010PropOp47
 70
     1
102
RTVSPost2010Prop48
 90
       50
102
RTVSPost2010PropOp48
 70
     1
102
RTVSPost2010Prop49
280
     0
102
RTVSPost2010PropOp49
 70
     1
102
RTVSPost2010Prop50
 90
       50
102
RTVSPost2010PropOp50
 70
     1
102
RTVSPost2010Prop51ColorIndex
 90
      256
102
RTVSPost2010Prop51ColorRGB
 90
-16777216
102
RTVSPost2010PropOp51
 70
     0
102
RTVSPost2010Prop52
140
1.0
102
RTVSPost2010PropOp52
 70
     0
102
RTVSPost2010Prop53
 90
        2
102
RTVSPost2010PropOp53
 70
     1
102
RTVSPost2010Prop54
  1
strokes_ogs.tif
102
RTVSPost2010PropOp54
 70
     1
102
RTVSPost2010Prop55
280
     0
102
RTVSPost2010PropOp55
 70
     1
102
RTVSPost2010Prop56
140
1.0
102
RTVSPost2010PropOp56
 70
     1
102
RTVSPost2010Prop57
140
1.0
102
RTVSPost2010PropOp57
 70
     1
102
RTVSPropertyOp0
 70
     1
102
RTVSPropertyOp1
 70
     1
102
RTVSPropertyOp2
 70
     1
102
RTVSPropertyOp3
 70
     1
102
RTVSPropertyOp4
 70
     1
102
RTVSPropertyOp5
 70
     1
102
RTVSPropertyOp6
 70
     1
102
RTVSPropertyOp7
 70
     1
102
RTVSPropertyOp8
 70
     1
102
RTVSPropertyOp9
 70
     1
102
RTVSPropertyOp10
 70
     1
102
RTVSPropertyOp11
 70
     1
102
RTVSPropertyOp12
 70
     1
102
RTVSPropertyOp13
 70
     1
102
RTVSPropertyOp14
 70
     1
102
RTVSPropertyOp15
 70
     1
102
RTVSPropertyOp16
 70
     1
102
RTVSPropertyOp17
 70
     1
102
RTVSPropertyOp18
 70
     1
102
RTVSPropertyOp19
 70
     1
102
RTVSPropertyOp20
 70
     1
102
RTVSPropertyOp21
 70
     1
102
RTVSPropertyOp22
 70
     1
102
RTVSPropertyOp23
 70
     1
102
RTVSPropertyOp24
 70
     1
102
RTVSPropertyOp25
 70
     1
102
RTVSPropertyOp26
 70
     1
102
RTVSPropertyOp27
 70
     1
102
RTVSPropertyOp28
 70
     1
102
RTVSPropertyOp29
 70
     1
102
RTVSPropertyOp30
 70
     1
102
RTVSPropertyOp31
 70
     1
102
RTVSPropertyOp32
 70
     1
102
RTVSPropertyOp33
 70
     1
102
RTVSPropertyOp34
 70
     1
102
RTVSPropertyOp35
 70
     1
102
RTVSPropertyOp36
 70
     1
102
RTVSPropertyOp37
 70
     1
102
RTVSPropertyOp38
 70
     1
102
RTVSPropertyOp39
 70
     1
102
RTVSPropertyOp40
 70
     1
102
RTVSPropertyOp41
 70
     1
102
RTVSPropertyOp42
 70
     1
102
RTVSPropertyOp43
 70
     1
102
RTVSPropertyOp44
 70
     1
102
RTVSPropertyOp45
 70
     1
102
RTVSPropertyOp46
 70
     1
102
RTVSPropertyOp47
 70
     1
102
RTVSPropertyOp48
 70
     1
102
RTVSPropertyOp49
 70
     1
102
RTVSPropertyOp50
 70
     1
102
RTVSPropertyOp51
 70
     0
102
RTVSPropertyOp52
 70
     0
102
RTVSPropertyOp53
 70
     1
102
RTVSPropertyOp54
 70
     1
102
RTVSPropertyOp55
 70
     1
102
RTVSPropertyOp56
 70
     1
102
RTVSPropertyOp57
 70
     1
102
RTVSPropertyOp58
 70
     1
102
RTVSPropertyOp59
 70
     1
102
RTVSPropertyOp60
 70
     1
102
RTVSPropertyOp61
 70
     1
102
RTVSPropertyOp62
 70
     1
  0
XRECORD
  5
6BC
102
{ACAD_REACTORS
330
6BB
102
}
330
6BB
100
AcDbXrecord
280
     1
102
RTVSPost2010Prop28
280
     0
102
RTVSPost2010PropOp28
 70
     1
102
RTVSPost2010Prop29
280
     1
102
RTVSPost2010PropOp29
 70
     1
102
RTVSPost2010Prop30
280
     1
102
RTVSPost2010PropOp30
 70
     1
102
RTVSPost2010Prop31
280
     0
102
RTVSPost2010PropOp31
 70
     1
102
RTVSPost2010Prop32
280
     0
102
RTVSPost2010PropOp32
 70
     1
102
RTVSPost2010Prop33
280
     0
102
RTVSPost2010PropOp33
 70
     1
102
RTVSPost2010Prop34
280
     0
102
RTVSPost2010PropOp34
 70
     1
102
RTVSPost2010Prop35
280
     0
102
RTVSPost2010PropOp35
 70
     1
102
RTVSPost2010Prop36
280
     0
102
RTVSPost2010PropOp36
 70
     1
102
RTVSPost2010Prop37
 90
       50
102
RTVSPost2010PropOp37
 70
     1
102
RTVSPost2010Prop38
140
0.0
102
RTVSPost2010PropOp38
 70
     1
102
RTVSPost2010Prop39
140
1.0
102
RTVSPost2010PropOp39
 70
     1
102
RTVSPost2010Prop40
 90
        0
102
RTVSPost2010PropOp40
 70
     1
102
RTVSPost2010Prop41ColorIndex
 90
       18
102
RTVSPost2010Prop41ColorRGB
 90
        0
102
RTVSPost2010PropOp41
 70
     1
102
RTVSPost2010Prop42
 90
       50
102
RTVSPost2010PropOp42
 70
     1
102
RTVSPost2010Prop43
 90
        3
102
RTVSPost2010PropOp43
 70
     1
102
RTVSPost2010Prop44ColorIndex
 90
        5
102
RTVSPost2010Prop44ColorRGB
 90
      255
102
RTVSPost2010PropOp44
 70
     1
102
RTVSPost2010Prop45
280
     0
102
RTVSPost2010PropOp45
 70
     1
102
RTVSPost2010Prop46
 90
       50
102
RTVSPost2010PropOp46
 70
     1
102
RTVSPost2010Prop47
 90
       50
102
RTVSPost2010PropOp47
 70
     1
102
RTVSPost2010Prop48
 90
       50
102
RTVSPost2010PropOp48
 70
     1
102
RTVSPost2010Prop49
280
     0
102
RTVSPost2010PropOp49
 70
     1
102
RTVSPost2010Prop50
 90
       50
102
RTVSPost2010PropOp50
 70
     1
102
RTVSPost2010Prop51ColorIndex
 90
      256
102
RTVSPost2010Prop51ColorRGB
 90
-16777216
102
RTVSPost2010PropOp51
 70
     0
102
RTVSPost2010Prop52
140
1.0
102
RTVSPost2010PropOp52
 70
     0
102
RTVSPost2010Prop53
 90
        2
102
RTVSPost2010PropOp53
 70
     1
102
RTVSPost2010Prop54
  1
strokes_ogs.tif
102
RTVSPost2010PropOp54
 70
     1
102
RTVSPost2010Prop55
280
     0
102
RTVSPost2010PropOp55
 70
     1
102
RTVSPost2010Prop56
140
1.0
102
RTVSPost2010PropOp56
 70
     1
102
RTVSPost2010Prop57
140
1.0
102
RTVSPost2010PropOp57
 70
     1
102
RTVSPropertyOp0
 70
     1
102
RTVSPropertyOp1
 70
     1
102
RTVSPropertyOp2
 70
     1
102
RTVSPropertyOp3
 70
     1
102
RTVSPropertyOp4
 70
     1
102
RTVSPropertyOp5
 70
     1
102
RTVSPropertyOp6
 70
     1
102
RTVSPropertyOp7
 70
     1
102
RTVSPropertyOp8
 70
     1
102
RTVSPropertyOp9
 70
     1
102
RTVSPropertyOp10
 70
     1
102
RTVSPropertyOp11
 70
     1
102
RTVSPropertyOp12
 70
     1
102
RTVSPropertyOp13
 70
     1
102
RTVSPropertyOp14
 70
     1
102
RTVSPropertyOp15
 70
     1
102
RTVSPropertyOp16
 70
     1
102
RTVSPropertyOp17
 70
     1
102
RTVSPropertyOp18
 70
     1
102
RTVSPropertyOp19
 70
     1
102
RTVSPropertyOp20
 70
     1
102
RTVSPropertyOp21
 70
     1
102
RTVSPropertyOp22
 70
     1
102
RTVSPropertyOp23
 70
     1
102
RTVSPropertyOp24
 70
     1
102
RTVSPropertyOp25
 70
     1
102
RTVSPropertyOp26
 70
     1
102
RTVSPropertyOp27
 70
     1
102
RTVSPropertyOp28
 70
     1
102
RTVSPropertyOp29
 70
     1
102
RTVSPropertyOp30
 70
     1
102
RTVSPropertyOp31
 70
     1
102
RTVSPropertyOp32
 70
     1
102
RTVSPropertyOp33
 70
     1
102
RTVSPropertyOp34
 70
     1
102
RTVSPropertyOp35
 70
     1
102
RTVSPropertyOp36
 70
     1
102
RTVSPropertyOp37
 70
     1
102
RTVSPropertyOp38
 70
     1
102
RTVSPropertyOp39
 70
     1
102
RTVSPropertyOp40
 70
     1
102
RTVSPropertyOp41
 70
     1
102
RTVSPropertyOp42
 70
     1
102
RTVSPropertyOp43
 70
     1
102
RTVSPropertyOp44
 70
     1
102
RTVSPropertyOp45
 70
     1
102
RTVSPropertyOp46
 70
     1
102
RTVSPropertyOp47
 70
     1
102
RTVSPropertyOp48
 70
     1
102
RTVSPropertyOp49
 70
     1
102
RTVSPropertyOp50
 70
     1
102
RTVSPropertyOp51
 70
     0
102
RTVSPropertyOp52
 70
     0
102
RTVSPropertyOp53
 70
     1
102
RTVSPropertyOp54
 70
     1
102
RTVSPropertyOp55
 70
     1
102
RTVSPropertyOp56
 70
     1
102
RTVSPropertyOp57
 70
     1
102
RTVSPropertyOp58
 70
     1
102
RTVSPropertyOp59
 70
     1
102
RTVSPropertyOp60
 70
     1
102
RTVSPropertyOp61
 70
     1
102
RTVSPropertyOp62
 70
     1
  0
XRECORD
  5
6D6
102
{ACAD_REACTORS
330
6D5
102
}
330
6D5
100
AcDbXrecord
280
     1
102
RTVSPost2010Prop28
280
     0
102
RTVSPost2010PropOp28
 70
     1
102
RTVSPost2010Prop29
280
     1
102
RTVSPost2010PropOp29
 70
     1
102
RTVSPost2010Prop30
280
     1
102
RTVSPost2010PropOp30
 70
     1
102
RTVSPost2010Prop31
280
     0
102
RTVSPost2010PropOp31
 70
     1
102
RTVSPost2010Prop32
280
     0
102
RTVSPost2010PropOp32
 70
     1
102
RTVSPost2010Prop33
280
     0
102
RTVSPost2010PropOp33
 70
     1
102
RTVSPost2010Prop34
280
     0
102
RTVSPost2010PropOp34
 70
     1
102
RTVSPost2010Prop35
280
     0
102
RTVSPost2010PropOp35
 70
     1
102
RTVSPost2010Prop36
280
     0
102
RTVSPost2010PropOp36
 70
     1
102
RTVSPost2010Prop37
 90
       50
102
RTVSPost2010PropOp37
 70
     0
102
RTVSPost2010Prop38
140
0.0
102
RTVSPost2010PropOp38
 70
     0
102
RTVSPost2010Prop39
140
1.0
102
RTVSPost2010PropOp39
 70
     0
102
RTVSPost2010Prop40
 90
        0
102
RTVSPost2010PropOp40
 70
     0
102
RTVSPost2010Prop41ColorIndex
 90
       18
102
RTVSPost2010Prop41ColorRGB
 90
        0
102
RTVSPost2010PropOp41
 70
     0
102
RTVSPost2010Prop42
 90
       50
102
RTVSPost2010PropOp42
 70
     0
102
RTVSPost2010Prop43
 90
        3
102
RTVSPost2010PropOp43
 70
     0
102
RTVSPost2010Prop44ColorIndex
 90
        5
102
RTVSPost2010Prop44ColorRGB
 90
      255
102
RTVSPost2010PropOp44
 70
     0
102
RTVSPost2010Prop45
280
     0
102
RTVSPost2010PropOp45
 70
     1
102
RTVSPost2010Prop46
 90
       50
102
RTVSPost2010PropOp46
 70
     0
102
RTVSPost2010Prop47
 90
       50
102
RTVSPost2010PropOp47
 70
     0
102
RTVSPost2010Prop48
 90
       50
102
RTVSPost2010PropOp48
 70
     0
102
RTVSPost2010Prop49
280
     0
102
RTVSPost2010PropOp49
 70
     1
102
RTVSPost2010Prop50
 90
       50
102
RTVSPost2010PropOp50
 70
     0
102
RTVSPost2010Prop51ColorIndex
 90
      256
102
RTVSPost2010Prop51ColorRGB
 90
-16777216
102
RTVSPost2010PropOp51
 70
     0
102
RTVSPost2010Prop52
140
1.0
102
RTVSPost2010PropOp52
 70
     0
102
RTVSPost2010Prop53
 90
        2
102
RTVSPost2010PropOp53
 70
     0
102
RTVSPost2010Prop54
  1
strokes_ogs.tif
102
RTVSPost2010PropOp54
 70
     0
102
RTVSPost2010Prop55
280
     0
102
RTVSPost2010PropOp55
 70
     1
102
RTVSPost2010Prop56
140
1.0
102
RTVSPost2010PropOp56
 70
     0
102
RTVSPost2010Prop57
140
1.0
102
RTVSPost2010PropOp57
 70
     0
102
RTVSPropertyOp0
 70
     0
102
RTVSPropertyOp1
 70
     0
102
RTVSPropertyOp2
 70
     0
102
RTVSPropertyOp3
 70
     0
102
RTVSPropertyOp4
 70
     0
102
RTVSPropertyOp5
 70
     0
102
RTVSPropertyOp6
 70
     0
102
RTVSPropertyOp7
 70
     0
102
RTVSPropertyOp8
 70
     0
102
RTVSPropertyOp9
 70
     0
102
RTVSPropertyOp10
 70
     0
102
RTVSPropertyOp11
 70
     0
102
RTVSPropertyOp12
 70
     0
102
RTVSPropertyOp13
 70
     0
102
RTVSPropertyOp14
 70
     2
102
RTVSPropertyOp15
 70
     0
102
RTVSPropertyOp16
 70
     0
102
RTVSPropertyOp17
 70
     0
102
RTVSPropertyOp18
 70
     0
102
RTVSPropertyOp19
 70
     0
102
RTVSPropertyOp20
 70
     0
102
RTVSPropertyOp21
 70
     0
102
RTVSPropertyOp22
 70
     0
102
RTVSPropertyOp23
 70
     0
102
RTVSPropertyOp24
 70
     0
102
RTVSPropertyOp25
 70
     0
102
RTVSPropertyOp26
 70
     0
102
RTVSPropertyOp27
 70
     0
102
RTVSPropertyOp28
 70
     1
102
RTVSPropertyOp29
 70
     1
102
RTVSPropertyOp30
 70
     1
102
RTVSPropertyOp31
 70
     1
102
RTVSPropertyOp32
 70
     1
102
RTVSPropertyOp33
 70
     1
102
RTVSPropertyOp34
 70
     1
102
RTVSPropertyOp35
 70
     1
102
RTVSPropertyOp36
 70
     1
102
RTVSPropertyOp37
 70
     0
102
RTVSPropertyOp38
 70
     0
102
RTVSPropertyOp39
 70
     0
102
RTVSPropertyOp40
 70
     0
102
RTVSPropertyOp41
 70
     0
102
RTVSPropertyOp42
 70
     0
102
RTVSPropertyOp43
 70
     0
102
RTVSPropertyOp44
 70
     0
102
RTVSPropertyOp45
 70
     1
102
RTVSPropertyOp46
 70
     0
102
RTVSPropertyOp47
 70
     0
102
RTVSPropertyOp48
 70
     0
102
RTVSPropertyOp49
 70
     1
102
RTVSPropertyOp50
 70
     0
102
RTVSPropertyOp51
 70
     0
102
RTVSPropertyOp52
 70
     0
102
RTVSPropertyOp53
 70
     0
102
RTVSPropertyOp54
 70
     0
102
RTVSPropertyOp55
 70
     1
102
RTVSPropertyOp56
 70
     0
102
RTVSPropertyOp57
 70
     0
102
RTVSPropertyOp58
 70
     0
102
RTVSPropertyOp59
 70
     0
102
RTVSPropertyOp60
 70
     0
102
RTVSPropertyOp61
 70
     0
102
RTVSPropertyOp62
 70
     0
  0
XRECORD
  5
6C4
102
{ACAD_REACTORS
330
6C3
102
}
330
6C3
100
AcDbXrecord
280
     1
102
RTVSPost2010Prop28
280
     0
102
RTVSPost2010PropOp28
 70
     1
102
RTVSPost2010Prop29
280
     1
102
RTVSPost2010PropOp29
 70
     1
102
RTVSPost2010Prop30
280
     1
102
RTVSPost2010PropOp30
 70
     1
102
RTVSPost2010Prop31
280
     0
102
RTVSPost2010PropOp31
 70
     1
102
RTVSPost2010Prop32
280
     0
102
RTVSPost2010PropOp32
 70
     1
102
RTVSPost2010Prop33
280
     0
102
RTVSPost2010PropOp33
 70
     1
102
RTVSPost2010Prop34
280
     0
102
RTVSPost2010PropOp34
 70
     1
102
RTVSPost2010Prop35
280
     0
102
RTVSPost2010PropOp35
 70
     1
102
RTVSPost2010Prop36
280
     0
102
RTVSPost2010PropOp36
 70
     1
102
RTVSPost2010Prop37
 90
       50
102
RTVSPost2010PropOp37
 70
     1
102
RTVSPost2010Prop38
140
0.0
102
RTVSPost2010PropOp38
 70
     1
102
RTVSPost2010Prop39
140
1.0
102
RTVSPost2010PropOp39
 70
     1
102
RTVSPost2010Prop40
 90
        0
102
RTVSPost2010PropOp40
 70
     1
102
RTVSPost2010Prop41ColorIndex
 90
       18
102
RTVSPost2010Prop41ColorRGB
 90
        0
102
RTVSPost2010PropOp41
 70
     1
102
RTVSPost2010Prop42
 90
       50
102
RTVSPost2010PropOp42
 70
     1
102
RTVSPost2010Prop43
 90
        3
102
RTVSPost2010PropOp43
 70
     1
102
RTVSPost2010Prop44ColorIndex
 90
        5
102
RTVSPost2010Prop44ColorRGB
 90
      255
102
RTVSPost2010PropOp44
 70
     1
102
RTVSPost2010Prop45
280
     0
102
RTVSPost2010PropOp45
 70
     1
102
RTVSPost2010Prop46
 90
       50
102
RTVSPost2010PropOp46
 70
     1
102
RTVSPost2010Prop47
 90
       50
102
RTVSPost2010PropOp47
 70
     1
102
RTVSPost2010Prop48
 90
       50
102
RTVSPost2010PropOp48
 70
     1
102
RTVSPost2010Prop49
280
     0
102
RTVSPost2010PropOp49
 70
     1
102
RTVSPost2010Prop50
 90
       50
102
RTVSPost2010PropOp50
 70
     1
102
RTVSPost2010Prop51ColorIndex
 90
      256
102
RTVSPost2010Prop51ColorRGB
 90
-16777216
102
RTVSPost2010PropOp51
 70
     0
102
RTVSPost2010Prop52
140
1.0
102
RTVSPost2010PropOp52
 70
     0
102
RTVSPost2010Prop53
 90
        2
102
RTVSPost2010PropOp53
 70
     1
102
RTVSPost2010Prop54
  1
strokes_ogs.tif
102
RTVSPost2010PropOp54
 70
     1
102
RTVSPost2010Prop55
280
     0
102
RTVSPost2010PropOp55
 70
     1
102
RTVSPost2010Prop56
140
1.0
102
RTVSPost2010PropOp56
 70
     1
102
RTVSPost2010Prop57
140
1.0
102
RTVSPost2010PropOp57
 70
     1
102
RTVSPropertyOp0
 70
     1
102
RTVSPropertyOp1
 70
     1
102
RTVSPropertyOp2
 70
     1
102
RTVSPropertyOp3
 70
     1
102
RTVSPropertyOp4
 70
     1
102
RTVSPropertyOp5
 70
     1
102
RTVSPropertyOp6
 70
     1
102
RTVSPropertyOp7
 70
     1
102
RTVSPropertyOp8
 70
     1
102
RTVSPropertyOp9
 70
     1
102
RTVSPropertyOp10
 70
     1
102
RTVSPropertyOp11
 70
     1
102
RTVSPropertyOp12
 70
     1
102
RTVSPropertyOp13
 70
     1
102
RTVSPropertyOp14
 70
     1
102
RTVSPropertyOp15
 70
     1
102
RTVSPropertyOp16
 70
     1
102
RTVSPropertyOp17
 70
     1
102
RTVSPropertyOp18
 70
     1
102
RTVSPropertyOp19
 70
     1
102
RTVSPropertyOp20
 70
     1
102
RTVSPropertyOp21
 70
     1
102
RTVSPropertyOp22
 70
     1
102
RTVSPropertyOp23
 70
     1
102
RTVSPropertyOp24
 70
     1
102
RTVSPropertyOp25
 70
     1
102
RTVSPropertyOp26
 70
     1
102
RTVSPropertyOp27
 70
     1
102
RTVSPropertyOp28
 70
     1
102
RTVSPropertyOp29
 70
     1
102
RTVSPropertyOp30
 70
     1
102
RTVSPropertyOp31
 70
     1
102
RTVSPropertyOp32
 70
     1
102
RTVSPropertyOp33
 70
     1
102
RTVSPropertyOp34
 70
     1
102
RTVSPropertyOp35
 70
     1
102
RTVSPropertyOp36
 70
     1
102
RTVSPropertyOp37
 70
     1
102
RTVSPropertyOp38
 70
     1
102
RTVSPropertyOp39
 70
     1
102
RTVSPropertyOp40
 70
     1
102
RTVSPropertyOp41
 70
     1
102
RTVSPropertyOp42
 70
     1
102
RTVSPropertyOp43
 70
     1
102
RTVSPropertyOp44
 70
     1
102
RTVSPropertyOp45
 70
     1
102
RTVSPropertyOp46
 70
     1
102
RTVSPropertyOp47
 70
     1
102
RTVSPropertyOp48
 70
     1
102
RTVSPropertyOp49
 70
     1
102
RTVSPropertyOp50
 70
     1
102
RTVSPropertyOp51
 70
     0
102
RTVSPropertyOp52
 70
     0
102
RTVSPropertyOp53
 70
     1
102
RTVSPropertyOp54
 70
     1
102
RTVSPropertyOp55
 70
     1
102
RTVSPropertyOp56
 70
     1
102
RTVSPropertyOp57
 70
     1
102
RTVSPropertyOp58
 70
     1
102
RTVSPropertyOp59
 70
     1
102
RTVSPropertyOp60
 70
     1
102
RTVSPropertyOp61
 70
     1
102
RTVSPropertyOp62
 70
     1
  0
XRECORD
  5
6A8
102
{ACAD_REACTORS
330
6A7
102
}
330
6A7
100
AcDbXrecord
280
     1
102
RTVSPost2010Prop28
280
     0
102
RTVSPost2010PropOp28
 70
     1
102
RTVSPost2010Prop29
280
     1
102
RTVSPost2010PropOp29
 70
     1
102
RTVSPost2010Prop30
280
     1
102
RTVSPost2010PropOp30
 70
     1
102
RTVSPost2010Prop31
280
     0
102
RTVSPost2010PropOp31
 70
     1
102
RTVSPost2010Prop32
280
     0
102
RTVSPost2010PropOp32
 70
     1
102
RTVSPost2010Prop33
280
     0
102
RTVSPost2010PropOp33
 70
     1
102
RTVSPost2010Prop34
280
     0
102
RTVSPost2010PropOp34
 70
     1
102
RTVSPost2010Prop35
280
     0
102
RTVSPost2010PropOp35
 70
     1
102
RTVSPost2010Prop36
280
     0
102
RTVSPost2010PropOp36
 70
     1
102
RTVSPost2010Prop37
 90
       50
102
RTVSPost2010PropOp37
 70
     1
102
RTVSPost2010Prop38
140
0.0
102
RTVSPost2010PropOp38
 70
     1
102
RTVSPost2010Prop39
140
1.0
102
RTVSPost2010PropOp39
 70
     1
102
RTVSPost2010Prop40
 90
        0
102
RTVSPost2010PropOp40
 70
     1
102
RTVSPost2010Prop41ColorIndex
 90
       18
102
RTVSPost2010Prop41ColorRGB
 90
        0
102
RTVSPost2010PropOp41
 70
     1
102
RTVSPost2010Prop42
 90
       50
102
RTVSPost2010PropOp42
 70
     1
102
RTVSPost2010Prop43
 90
        3
102
RTVSPost2010PropOp43
 70
     1
102
RTVSPost2010Prop44ColorIndex
 90
        5
102
RTVSPost2010Prop44ColorRGB
 90
      255
102
RTVSPost2010PropOp44
 70
     1
102
RTVSPost2010Prop45
280
     0
102
RTVSPost2010PropOp45
 70
     1
102
RTVSPost2010Prop46
 90
       50
102
RTVSPost2010PropOp46
 70
     1
102
RTVSPost2010Prop47
 90
       50
102
RTVSPost2010PropOp47
 70
     1
102
RTVSPost2010Prop48
 90
       50
102
RTVSPost2010PropOp48
 70
     1
102
RTVSPost2010Prop49
280
     0
102
RTVSPost2010PropOp49
 70
     1
102
RTVSPost2010Prop50
 90
       50
102
RTVSPost2010PropOp50
 70
     1
102
RTVSPost2010Prop51ColorIndex
 90
      256
102
RTVSPost2010Prop51ColorRGB
 90
-16777216
102
RTVSPost2010PropOp51
 70
     0
102
RTVSPost2010Prop52
140
1.0
102
RTVSPost2010PropOp52
 70
     0
102
RTVSPost2010Prop53
 90
        2
102
RTVSPost2010PropOp53
 70
     1
102
RTVSPost2010Prop54
  1
strokes_ogs.tif
102
RTVSPost2010PropOp54
 70
     1
102
RTVSPost2010Prop55
280
     0
102
RTVSPost2010PropOp55
 70
     1
102
RTVSPost2010Prop56
140
1.0
102
RTVSPost2010PropOp56
 70
     1
102
RTVSPost2010Prop57
140
1.0
102
RTVSPost2010PropOp57
 70
     1
102
RTVSPropertyOp0
 70
     1
102
RTVSPropertyOp1
 70
     1
102
RTVSPropertyOp2
 70
     1
102
RTVSPropertyOp3
 70
     1
102
RTVSPropertyOp4
 70
     1
102
RTVSPropertyOp5
 70
     1
102
RTVSPropertyOp6
 70
     1
102
RTVSPropertyOp7
 70
     1
102
RTVSPropertyOp8
 70
     1
102
RTVSPropertyOp9
 70
     1
102
RTVSPropertyOp10
 70
     1
102
RTVSPropertyOp11
 70
     1
102
RTVSPropertyOp12
 70
     1
102
RTVSPropertyOp13
 70
     1
102
RTVSPropertyOp14
 70
     1
102
RTVSPropertyOp15
 70
     1
102
RTVSPropertyOp16
 70
     1
102
RTVSPropertyOp17
 70
     1
102
RTVSPropertyOp18
 70
     1
102
RTVSPropertyOp19
 70
     1
102
RTVSPropertyOp20
 70
     1
102
RTVSPropertyOp21
 70
     1
102
RTVSPropertyOp22
 70
     1
102
RTVSPropertyOp23
 70
     1
102
RTVSPropertyOp24
 70
     1
102
RTVSPropertyOp25
 70
     1
102
RTVSPropertyOp26
 70
     1
102
RTVSPropertyOp27
 70
     1
102
RTVSPropertyOp28
 70
     1
102
RTVSPropertyOp29
 70
     1
102
RTVSPropertyOp30
 70
     1
102
RTVSPropertyOp31
 70
     1
102
RTVSPropertyOp32
 70
     1
102
RTVSPropertyOp33
 70
     1
102
RTVSPropertyOp34
 70
     1
102
RTVSPropertyOp35
 70
     1
102
RTVSPropertyOp36
 70
     1
102
RTVSPropertyOp37
 70
     1
102
RTVSPropertyOp38
 70
     1
102
RTVSPropertyOp39
 70
     1
102
RTVSPropertyOp40
 70
     1
102
RTVSPropertyOp41
 70
     1
102
RTVSPropertyOp42
 70
     1
102
RTVSPropertyOp43
 70
     1
102
RTVSPropertyOp44
 70
     1
102
RTVSPropertyOp45
 70
     1
102
RTVSPropertyOp46
 70
     1
102
RTVSPropertyOp47
 70
     1
102
RTVSPropertyOp48
 70
     1
102
RTVSPropertyOp49
 70
     1
102
RTVSPropertyOp50
 70
     1
102
RTVSPropertyOp51
 70
     0
102
RTVSPropertyOp52
 70
     0
102
RTVSPropertyOp53
 70
     1
102
RTVSPropertyOp54
 70
     1
102
RTVSPropertyOp55
 70
     1
102
RTVSPropertyOp56
 70
     1
102
RTVSPropertyOp57
 70
     1
102
RTVSPropertyOp58
 70
     1
102
RTVSPropertyOp59
 70
     1
102
RTVSPropertyOp60
 70
     1
102
RTVSPropertyOp61
 70
     1
102
RTVSPropertyOp62
 70
     1
  0
XRECORD
  5
6AA
102
{ACAD_REACTORS
330
6A9
102
}
330
6A9
100
AcDbXrecord
280
     1
102
RTVSPost2010Prop28
280
     0
102
RTVSPost2010PropOp28
 70
     1
102
RTVSPost2010Prop29
280
     1
102
RTVSPost2010PropOp29
 70
     1
102
RTVSPost2010Prop30
280
     1
102
RTVSPost2010PropOp30
 70
     1
102
RTVSPost2010Prop31
280
     0
102
RTVSPost2010PropOp31
 70
     1
102
RTVSPost2010Prop32
280
     0
102
RTVSPost2010PropOp32
 70
     1
102
RTVSPost2010Prop33
280
     0
102
RTVSPost2010PropOp33
 70
     1
102
RTVSPost2010Prop34
280
     0
102
RTVSPost2010PropOp34
 70
     1
102
RTVSPost2010Prop35
280
     0
102
RTVSPost2010PropOp35
 70
     1
102
RTVSPost2010Prop36
280
     0
102
RTVSPost2010PropOp36
 70
     1
102
RTVSPost2010Prop37
 90
       50
102
RTVSPost2010PropOp37
 70
     1
102
RTVSPost2010Prop38
140
0.0
102
RTVSPost2010PropOp38
 70
     1
102
RTVSPost2010Prop39
140
1.0
102
RTVSPost2010PropOp39
 70
     1
102
RTVSPost2010Prop40
 90
        0
102
RTVSPost2010PropOp40
 70
     1
102
RTVSPost2010Prop41ColorIndex
 90
       18
102
RTVSPost2010Prop41ColorRGB
 90
        0
102
RTVSPost2010PropOp41
 70
     1
102
RTVSPost2010Prop42
 90
       50
102
RTVSPost2010PropOp42
 70
     1
102
RTVSPost2010Prop43
 90
        3
102
RTVSPost2010PropOp43
 70
     1
102
RTVSPost2010Prop44ColorIndex
 90
        5
102
RTVSPost2010Prop44ColorRGB
 90
      255
102
RTVSPost2010PropOp44
 70
     1
102
RTVSPost2010Prop45
280
     0
102
RTVSPost2010PropOp45
 70
     1
102
RTVSPost2010Prop46
 90
       50
102
RTVSPost2010PropOp46
 70
     1
102
RTVSPost2010Prop47
 90
       50
102
RTVSPost2010PropOp47
 70
     1
102
RTVSPost2010Prop48
 90
       50
102
RTVSPost2010PropOp48
 70
     1
102
RTVSPost2010Prop49
280
     0
102
RTVSPost2010PropOp49
 70
     1
102
RTVSPost2010Prop50
 90
       50
102
RTVSPost2010PropOp50
 70
     1
102
RTVSPost2010Prop51ColorIndex
 90
      256
102
RTVSPost2010Prop51ColorRGB
 90
-16777216
102
RTVSPost2010PropOp51
 70
     0
102
RTVSPost2010Prop52
140
1.0
102
RTVSPost2010PropOp52
 70
     0
102
RTVSPost2010Prop53
 90
        2
102
RTVSPost2010PropOp53
 70
     1
102
RTVSPost2010Prop54
  1
strokes_ogs.tif
102
RTVSPost2010PropOp54
 70
     1
102
RTVSPost2010Prop55
280
     0
102
RTVSPost2010PropOp55
 70
     1
102
RTVSPost2010Prop56
140
1.0
102
RTVSPost2010PropOp56
 70
     1
102
RTVSPost2010Prop57
140
1.0
102
RTVSPost2010PropOp57
 70
     1
102
RTVSPropertyOp0
 70
     1
102
RTVSPropertyOp1
 70
     1
102
RTVSPropertyOp2
 70
     1
102
RTVSPropertyOp3
 70
     1
102
RTVSPropertyOp4
 70
     1
102
RTVSPropertyOp5
 70
     1
102
RTVSPropertyOp6
 70
     1
102
RTVSPropertyOp7
 70
     1
102
RTVSPropertyOp8
 70
     1
102
RTVSPropertyOp9
 70
     1
102
RTVSPropertyOp10
 70
     1
102
RTVSPropertyOp11
 70
     1
102
RTVSPropertyOp12
 70
     1
102
RTVSPropertyOp13
 70
     1
102
RTVSPropertyOp14
 70
     1
102
RTVSPropertyOp15
 70
     1
102
RTVSPropertyOp16
 70
     1
102
RTVSPropertyOp17
 70
     1
102
RTVSPropertyOp18
 70
     1
102
RTVSPropertyOp19
 70
     1
102
RTVSPropertyOp20
 70
     1
102
RTVSPropertyOp21
 70
     1
102
RTVSPropertyOp22
 70
     1
102
RTVSPropertyOp23
 70
     1
102
RTVSPropertyOp24
 70
     1
102
RTVSPropertyOp25
 70
     1
102
RTVSPropertyOp26
 70
     1
102
RTVSPropertyOp27
 70
     1
102
RTVSPropertyOp28
 70
     1
102
RTVSPropertyOp29
 70
     1
102
RTVSPropertyOp30
 70
     1
102
RTVSPropertyOp31
 70
     1
102
RTVSPropertyOp32
 70
     1
102
RTVSPropertyOp33
 70
     1
102
RTVSPropertyOp34
 70
     1
102
RTVSPropertyOp35
 70
     1
102
RTVSPropertyOp36
 70
     1
102
RTVSPropertyOp37
 70
     1
102
RTVSPropertyOp38
 70
     1
102
RTVSPropertyOp39
 70
     1
102
RTVSPropertyOp40
 70
     1
102
RTVSPropertyOp41
 70
     1
102
RTVSPropertyOp42
 70
     1
102
RTVSPropertyOp43
 70
     1
102
RTVSPropertyOp44
 70
     1
102
RTVSPropertyOp45
 70
     1
102
RTVSPropertyOp46
 70
     1
102
RTVSPropertyOp47
 70
     1
102
RTVSPropertyOp48
 70
     1
102
RTVSPropertyOp49
 70
     1
102
RTVSPropertyOp50
 70
     1
102
RTVSPropertyOp51
 70
     0
102
RTVSPropertyOp52
 70
     0
102
RTVSPropertyOp53
 70
     1
102
RTVSPropertyOp54
 70
     1
102
RTVSPropertyOp55
 70
     1
102
RTVSPropertyOp56
 70
     1
102
RTVSPropertyOp57
 70
     1
102
RTVSPropertyOp58
 70
     1
102
RTVSPropertyOp59
 70
     1
102
RTVSPropertyOp60
 70
     1
102
RTVSPropertyOp61
 70
     1
102
RTVSPropertyOp62
 70
     1
  0
XRECORD
  5
6AC
102
{ACAD_REACTORS
330
6AB
102
}
330
6AB
100
AcDbXrecord
280
     1
102
RTVSPost2010Prop28
280
     0
102
RTVSPost2010PropOp28
 70
     1
102
RTVSPost2010Prop29
280
     1
102
RTVSPost2010PropOp29
 70
     1
102
RTVSPost2010Prop30
280
     1
102
RTVSPost2010PropOp30
 70
     1
102
RTVSPost2010Prop31
280
     0
102
RTVSPost2010PropOp31
 70
     1
102
RTVSPost2010Prop32
280
     0
102
RTVSPost2010PropOp32
 70
     1
102
RTVSPost2010Prop33
280
     0
102
RTVSPost2010PropOp33
 70
     1
102
RTVSPost2010Prop34
280
     0
102
RTVSPost2010PropOp34
 70
     1
102
RTVSPost2010Prop35
280
     0
102
RTVSPost2010PropOp35
 70
     1
102
RTVSPost2010Prop36
280
     0
102
RTVSPost2010PropOp36
 70
     1
102
RTVSPost2010Prop37
 90
       50
102
RTVSPost2010PropOp37
 70
     1
102
RTVSPost2010Prop38
140
0.0
102
RTVSPost2010PropOp38
 70
     1
102
RTVSPost2010Prop39
140
1.0
102
RTVSPost2010PropOp39
 70
     1
102
RTVSPost2010Prop40
 90
        0
102
RTVSPost2010PropOp40
 70
     1
102
RTVSPost2010Prop41ColorIndex
 90
       18
102
RTVSPost2010Prop41ColorRGB
 90
        0
102
RTVSPost2010PropOp41
 70
     1
102
RTVSPost2010Prop42
 90
       50
102
RTVSPost2010PropOp42
 70
     1
102
RTVSPost2010Prop43
 90
        3
102
RTVSPost2010PropOp43
 70
     1
102
RTVSPost2010Prop44ColorIndex
 90
        5
102
RTVSPost2010Prop44ColorRGB
 90
      255
102
RTVSPost2010PropOp44
 70
     1
102
RTVSPost2010Prop45
280
     0
102
RTVSPost2010PropOp45
 70
     1
102
RTVSPost2010Prop46
 90
       50
102
RTVSPost2010PropOp46
 70
     1
102
RTVSPost2010Prop47
 90
       50
102
RTVSPost2010PropOp47
 70
     1
102
RTVSPost2010Prop48
 90
       50
102
RTVSPost2010PropOp48
 70
     1
102
RTVSPost2010Prop49
280
     0
102
RTVSPost2010PropOp49
 70
     1
102
RTVSPost2010Prop50
 90
       50
102
RTVSPost2010PropOp50
 70
     1
102
RTVSPost2010Prop51ColorIndex
 90
      256
102
RTVSPost2010Prop51ColorRGB
 90
-16777216
102
RTVSPost2010PropOp51
 70
     0
102
RTVSPost2010Prop52
140
1.0
102
RTVSPost2010PropOp52
 70
     0
102
RTVSPost2010Prop53
 90
        2
102
RTVSPost2010PropOp53
 70
     1
102
RTVSPost2010Prop54
  1
strokes_ogs.tif
102
RTVSPost2010PropOp54
 70
     1
102
RTVSPost2010Prop55
280
     0
102
RTVSPost2010PropOp55
 70
     1
102
RTVSPost2010Prop56
140
1.0
102
RTVSPost2010PropOp56
 70
     1
102
RTVSPost2010Prop57
140
1.0
102
RTVSPost2010PropOp57
 70
     1
102
RTVSPropertyOp0
 70
     1
102
RTVSPropertyOp1
 70
     1
102
RTVSPropertyOp2
 70
     1
102
RTVSPropertyOp3
 70
     1
102
RTVSPropertyOp4
 70
     1
102
RTVSPropertyOp5
 70
     1
102
RTVSPropertyOp6
 70
     1
102
RTVSPropertyOp7
 70
     1
102
RTVSPropertyOp8
 70
     1
102
RTVSPropertyOp9
 70
     1
102
RTVSPropertyOp10
 70
     1
102
RTVSPropertyOp11
 70
     1
102
RTVSPropertyOp12
 70
     1
102
RTVSPropertyOp13
 70
     1
102
RTVSPropertyOp14
 70
     1
102
RTVSPropertyOp15
 70
     1
102
RTVSPropertyOp16
 70
     1
102
RTVSPropertyOp17
 70
     1
102
RTVSPropertyOp18
 70
     1
102
RTVSPropertyOp19
 70
     1
102
RTVSPropertyOp20
 70
     1
102
RTVSPropertyOp21
 70
     1
102
RTVSPropertyOp22
 70
     1
102
RTVSPropertyOp23
 70
     1
102
RTVSPropertyOp24
 70
     1
102
RTVSPropertyOp25
 70
     1
102
RTVSPropertyOp26
 70
     1
102
RTVSPropertyOp27
 70
     1
102
RTVSPropertyOp28
 70
     1
102
RTVSPropertyOp29
 70
     1
102
RTVSPropertyOp30
 70
     1
102
RTVSPropertyOp31
 70
     1
102
RTVSPropertyOp32
 70
     1
102
RTVSPropertyOp33
 70
     1
102
RTVSPropertyOp34
 70
     1
102
RTVSPropertyOp35
 70
     1
102
RTVSPropertyOp36
 70
     1
102
RTVSPropertyOp37
 70
     1
102
RTVSPropertyOp38
 70
     1
102
RTVSPropertyOp39
 70
     1
102
RTVSPropertyOp40
 70
     1
102
RTVSPropertyOp41
 70
     1
102
RTVSPropertyOp42
 70
     1
102
RTVSPropertyOp43
 70
     1
102
RTVSPropertyOp44
 70
     1
102
RTVSPropertyOp45
 70
     1
102
RTVSPropertyOp46
 70
     1
102
RTVSPropertyOp47
 70
     1
102
RTVSPropertyOp48
 70
     1
102
RTVSPropertyOp49
 70
     1
102
RTVSPropertyOp50
 70
     1
102
RTVSPropertyOp51
 70
     0
102
RTVSPropertyOp52
 70
     0
102
RTVSPropertyOp53
 70
     1
102
RTVSPropertyOp54
 70
     1
102
RTVSPropertyOp55
 70
     1
102
RTVSPropertyOp56
 70
     1
102
RTVSPropertyOp57
 70
     1
102
RTVSPropertyOp58
 70
     1
102
RTVSPropertyOp59
 70
     1
102
RTVSPropertyOp60
 70
     1
102
RTVSPropertyOp61
 70
     1
102
RTVSPropertyOp62
 70
     1
  0
XRECORD
  5
6AE
102
{ACAD_REACTORS
330
6AD
102
}
330
6AD
100
AcDbXrecord
280
     1
102
RTVSPost2010Prop28
280
     0
102
RTVSPost2010PropOp28
 70
     1
102
RTVSPost2010Prop29
280
     1
102
RTVSPost2010PropOp29
 70
     1
102
RTVSPost2010Prop30
280
     1
102
RTVSPost2010PropOp30
 70
     1
102
RTVSPost2010Prop31
280
     0
102
RTVSPost2010PropOp31
 70
     1
102
RTVSPost2010Prop32
280
     0
102
RTVSPost2010PropOp32
 70
     1
102
RTVSPost2010Prop33
280
     0
102
RTVSPost2010PropOp33
 70
     1
102
RTVSPost2010Prop34
280
     0
102
RTVSPost2010PropOp34
 70
     1
102
RTVSPost2010Prop35
280
     0
102
RTVSPost2010PropOp35
 70
     1
102
RTVSPost2010Prop36
280
     0
102
RTVSPost2010PropOp36
 70
     1
102
RTVSPost2010Prop37
 90
       50
102
RTVSPost2010PropOp37
 70
     1
102
RTVSPost2010Prop38
140
0.0
102
RTVSPost2010PropOp38
 70
     1
102
RTVSPost2010Prop39
140
1.0
102
RTVSPost2010PropOp39
 70
     1
102
RTVSPost2010Prop40
 90
        0
102
RTVSPost2010PropOp40
 70
     1
102
RTVSPost2010Prop41ColorIndex
 90
       18
102
RTVSPost2010Prop41ColorRGB
 90
        0
102
RTVSPost2010PropOp41
 70
     1
102
RTVSPost2010Prop42
 90
       50
102
RTVSPost2010PropOp42
 70
     1
102
RTVSPost2010Prop43
 90
        3
102
RTVSPost2010PropOp43
 70
     1
102
RTVSPost2010Prop44ColorIndex
 90
        5
102
RTVSPost2010Prop44ColorRGB
 90
      255
102
RTVSPost2010PropOp44
 70
     1
102
RTVSPost2010Prop45
280
     0
102
RTVSPost2010PropOp45
 70
     1
102
RTVSPost2010Prop46
 90
       50
102
RTVSPost2010PropOp46
 70
     1
102
RTVSPost2010Prop47
 90
       50
102
RTVSPost2010PropOp47
 70
     1
102
RTVSPost2010Prop48
 90
       50
102
RTVSPost2010PropOp48
 70
     1
102
RTVSPost2010Prop49
280
     0
102
RTVSPost2010PropOp49
 70
     1
102
RTVSPost2010Prop50
 90
       50
102
RTVSPost2010PropOp50
 70
     1
102
RTVSPost2010Prop51ColorIndex
 90
      256
102
RTVSPost2010Prop51ColorRGB
 90
-16777216
102
RTVSPost2010PropOp51
 70
     0
102
RTVSPost2010Prop52
140
1.0
102
RTVSPost2010PropOp52
 70
     0
102
RTVSPost2010Prop53
 90
        2
102
RTVSPost2010PropOp53
 70
     1
102
RTVSPost2010Prop54
  1
strokes_ogs.tif
102
RTVSPost2010PropOp54
 70
     1
102
RTVSPost2010Prop55
280
     0
102
RTVSPost2010PropOp55
 70
     1
102
RTVSPost2010Prop56
140
1.0
102
RTVSPost2010PropOp56
 70
     1
102
RTVSPost2010Prop57
140
1.0
102
RTVSPost2010PropOp57
 70
     1
102
RTVSPropertyOp0
 70
     1
102
RTVSPropertyOp1
 70
     1
102
RTVSPropertyOp2
 70
     1
102
RTVSPropertyOp3
 70
     1
102
RTVSPropertyOp4
 70
     1
102
RTVSPropertyOp5
 70
     1
102
RTVSPropertyOp6
 70
     1
102
RTVSPropertyOp7
 70
     1
102
RTVSPropertyOp8
 70
     1
102
RTVSPropertyOp9
 70
     1
102
RTVSPropertyOp10
 70
     1
102
RTVSPropertyOp11
 70
     1
102
RTVSPropertyOp12
 70
     1
102
RTVSPropertyOp13
 70
     1
102
RTVSPropertyOp14
 70
     1
102
RTVSPropertyOp15
 70
     1
102
RTVSPropertyOp16
 70
     1
102
RTVSPropertyOp17
 70
     1
102
RTVSPropertyOp18
 70
     1
102
RTVSPropertyOp19
 70
     1
102
RTVSPropertyOp20
 70
     1
102
RTVSPropertyOp21
 70
     1
102
RTVSPropertyOp22
 70
     1
102
RTVSPropertyOp23
 70
     1
102
RTVSPropertyOp24
 70
     1
102
RTVSPropertyOp25
 70
     1
102
RTVSPropertyOp26
 70
     1
102
RTVSPropertyOp27
 70
     1
102
RTVSPropertyOp28
 70
     1
102
RTVSPropertyOp29
 70
     1
102
RTVSPropertyOp30
 70
     1
102
RTVSPropertyOp31
 70
     1
102
RTVSPropertyOp32
 70
     1
102
RTVSPropertyOp33
 70
     1
102
RTVSPropertyOp34
 70
     1
102
RTVSPropertyOp35
 70
     1
102
RTVSPropertyOp36
 70
     1
102
RTVSPropertyOp37
 70
     1
102
RTVSPropertyOp38
 70
     1
102
RTVSPropertyOp39
 70
     1
102
RTVSPropertyOp40
 70
     1
102
RTVSPropertyOp41
 70
     1
102
RTVSPropertyOp42
 70
     1
102
RTVSPropertyOp43
 70
     1
102
RTVSPropertyOp44
 70
     1
102
RTVSPropertyOp45
 70
     1
102
RTVSPropertyOp46
 70
     1
102
RTVSPropertyOp47
 70
     1
102
RTVSPropertyOp48
 70
     1
102
RTVSPropertyOp49
 70
     1
102
RTVSPropertyOp50
 70
     1
102
RTVSPropertyOp51
 70
     0
102
RTVSPropertyOp52
 70
     0
102
RTVSPropertyOp53
 70
     1
102
RTVSPropertyOp54
 70
     1
102
RTVSPropertyOp55
 70
     1
102
RTVSPropertyOp56
 70
     1
102
RTVSPropertyOp57
 70
     1
102
RTVSPropertyOp58
 70
     1
102
RTVSPropertyOp59
 70
     1
102
RTVSPropertyOp60
 70
     1
102
RTVSPropertyOp61
 70
     1
102
RTVSPropertyOp62
 70
     1
  0
XRECORD
  5
6B6
102
{ACAD_REACTORS
330
6B5
102
}
330
6B5
100
AcDbXrecord
280
     1
102
RTVSPost2010Prop28
280
     0
102
RTVSPost2010PropOp28
 70
     1
102
RTVSPost2010Prop29
280
     1
102
RTVSPost2010PropOp29
 70
     1
102
RTVSPost2010Prop30
280
     1
102
RTVSPost2010PropOp30
 70
     1
102
RTVSPost2010Prop31
280
     0
102
RTVSPost2010PropOp31
 70
     1
102
RTVSPost2010Prop32
280
     0
102
RTVSPost2010PropOp32
 70
     1
102
RTVSPost2010Prop33
280
     0
102
RTVSPost2010PropOp33
 70
     1
102
RTVSPost2010Prop34
280
     0
102
RTVSPost2010PropOp34
 70
     1
102
RTVSPost2010Prop35
280
     0
102
RTVSPost2010PropOp35
 70
     1
102
RTVSPost2010Prop36
280
     0
102
RTVSPost2010PropOp36
 70
     1
102
RTVSPost2010Prop37
 90
       50
102
RTVSPost2010PropOp37
 70
     1
102
RTVSPost2010Prop38
140
0.0
102
RTVSPost2010PropOp38
 70
     1
102
RTVSPost2010Prop39
140
1.0
102
RTVSPost2010PropOp39
 70
     1
102
RTVSPost2010Prop40
 90
        0
102
RTVSPost2010PropOp40
 70
     1
102
RTVSPost2010Prop41ColorIndex
 90
       18
102
RTVSPost2010Prop41ColorRGB
 90
        0
102
RTVSPost2010PropOp41
 70
     1
102
RTVSPost2010Prop42
 90
       50
102
RTVSPost2010PropOp42
 70
     1
102
RTVSPost2010Prop43
 90
        3
102
RTVSPost2010PropOp43
 70
     1
102
RTVSPost2010Prop44ColorIndex
 90
        5
102
RTVSPost2010Prop44ColorRGB
 90
      255
102
RTVSPost2010PropOp44
 70
     1
102
RTVSPost2010Prop45
280
     0
102
RTVSPost2010PropOp45
 70
     1
102
RTVSPost2010Prop46
 90
       50
102
RTVSPost2010PropOp46
 70
     1
102
RTVSPost2010Prop47
 90
       50
102
RTVSPost2010PropOp47
 70
     1
102
RTVSPost2010Prop48
 90
       50
102
RTVSPost2010PropOp48
 70
     1
102
RTVSPost2010Prop49
280
     0
102
RTVSPost2010PropOp49
 70
     1
102
RTVSPost2010Prop50
 90
       50
102
RTVSPost2010PropOp50
 70
     1
102
RTVSPost2010Prop51ColorIndex
 90
      256
102
RTVSPost2010Prop51ColorRGB
 90
-16777216
102
RTVSPost2010PropOp51
 70
     0
102
RTVSPost2010Prop52
140
1.0
102
RTVSPost2010PropOp52
 70
     0
102
RTVSPost2010Prop53
 90
        2
102
RTVSPost2010PropOp53
 70
     1
102
RTVSPost2010Prop54
  1
strokes_ogs.tif
102
RTVSPost2010PropOp54
 70
     1
102
RTVSPost2010Prop55
280
     0
102
RTVSPost2010PropOp55
 70
     1
102
RTVSPost2010Prop56
140
1.0
102
RTVSPost2010PropOp56
 70
     1
102
RTVSPost2010Prop57
140
1.0
102
RTVSPost2010PropOp57
 70
     1
102
RTVSPropertyOp0
 70
     1
102
RTVSPropertyOp1
 70
     1
102
RTVSPropertyOp2
 70
     1
102
RTVSPropertyOp3
 70
     1
102
RTVSPropertyOp4
 70
     1
102
RTVSPropertyOp5
 70
     1
102
RTVSPropertyOp6
 70
     1
102
RTVSPropertyOp7
 70
     1
102
RTVSPropertyOp8
 70
     1
102
RTVSPropertyOp9
 70
     1
102
RTVSPropertyOp10
 70
     1
102
RTVSPropertyOp11
 70
     1
102
RTVSPropertyOp12
 70
     1
102
RTVSPropertyOp13
 70
     1
102
RTVSPropertyOp14
 70
     1
102
RTVSPropertyOp15
 70
     1
102
RTVSPropertyOp16
 70
     1
102
RTVSPropertyOp17
 70
     1
102
RTVSPropertyOp18
 70
     1
102
RTVSPropertyOp19
 70
     1
102
RTVSPropertyOp20
 70
     1
102
RTVSPropertyOp21
 70
     1
102
RTVSPropertyOp22
 70
     1
102
RTVSPropertyOp23
 70
     1
102
RTVSPropertyOp24
 70
     1
102
RTVSPropertyOp25
 70
     1
102
RTVSPropertyOp26
 70
     1
102
RTVSPropertyOp27
 70
     1
102
RTVSPropertyOp28
 70
     1
102
RTVSPropertyOp29
 70
     1
102
RTVSPropertyOp30
 70
     1
102
RTVSPropertyOp31
 70
     1
102
RTVSPropertyOp32
 70
     1
102
RTVSPropertyOp33
 70
     1
102
RTVSPropertyOp34
 70
     1
102
RTVSPropertyOp35
 70
     1
102
RTVSPropertyOp36
 70
     1
102
RTVSPropertyOp37
 70
     1
102
RTVSPropertyOp38
 70
     1
102
RTVSPropertyOp39
 70
     1
102
RTVSPropertyOp40
 70
     1
102
RTVSPropertyOp41
 70
     1
102
RTVSPropertyOp42
 70
     1
102
RTVSPropertyOp43
 70
     1
102
RTVSPropertyOp44
 70
     1
102
RTVSPropertyOp45
 70
     1
102
RTVSPropertyOp46
 70
     1
102
RTVSPropertyOp47
 70
     1
102
RTVSPropertyOp48
 70
     1
102
RTVSPropertyOp49
 70
     1
102
RTVSPropertyOp50
 70
     1
102
RTVSPropertyOp51
 70
     0
102
RTVSPropertyOp52
 70
     0
102
RTVSPropertyOp53
 70
     1
102
RTVSPropertyOp54
 70
     1
102
RTVSPropertyOp55
 70
     1
102
RTVSPropertyOp56
 70
     1
102
RTVSPropertyOp57
 70
     1
102
RTVSPropertyOp58
 70
     1
102
RTVSPropertyOp59
 70
     1
102
RTVSPropertyOp60
 70
     1
102
RTVSPropertyOp61
 70
     1
102
RTVSPropertyOp62
 70
     1
  0
XRECORD
  5
6D2
102
{ACAD_REACTORS
330
6D1
102
}
330
6D1
100
AcDbXrecord
280
     1
102
RTVSPost2010Prop28
280
     0
102
RTVSPost2010PropOp28
 70
     1
102
RTVSPost2010Prop29
280
     1
102
RTVSPost2010PropOp29
 70
     1
102
RTVSPost2010Prop30
280
     1
102
RTVSPost2010PropOp30
 70
     1
102
RTVSPost2010Prop31
280
     0
102
RTVSPost2010PropOp31
 70
     1
102
RTVSPost2010Prop32
280
     0
102
RTVSPost2010PropOp32
 70
     1
102
RTVSPost2010Prop33
280
     0
102
RTVSPost2010PropOp33
 70
     1
102
RTVSPost2010Prop34
280
     0
102
RTVSPost2010PropOp34
 70
     1
102
RTVSPost2010Prop35
280
     0
102
RTVSPost2010PropOp35
 70
     1
102
RTVSPost2010Prop36
280
     0
102
RTVSPost2010PropOp36
 70
     1
102
RTVSPost2010Prop37
 90
       50
102
RTVSPost2010PropOp37
 70
     0
102
RTVSPost2010Prop38
140
0.0
102
RTVSPost2010PropOp38
 70
     0
102
RTVSPost2010Prop39
140
1.0
102
RTVSPost2010PropOp39
 70
     0
102
RTVSPost2010Prop40
 90
        0
102
RTVSPost2010PropOp40
 70
     0
102
RTVSPost2010Prop41ColorIndex
 90
       18
102
RTVSPost2010Prop41ColorRGB
 90
        0
102
RTVSPost2010PropOp41
 70
     0
102
RTVSPost2010Prop42
 90
       50
102
RTVSPost2010PropOp42
 70
     0
102
RTVSPost2010Prop43
 90
        3
102
RTVSPost2010PropOp43
 70
     0
102
RTVSPost2010Prop44ColorIndex
 90
        5
102
RTVSPost2010Prop44ColorRGB
 90
      255
102
RTVSPost2010PropOp44
 70
     0
102
RTVSPost2010Prop45
280
     0
102
RTVSPost2010PropOp45
 70
     1
102
RTVSPost2010Prop46
 90
       50
102
RTVSPost2010PropOp46
 70
     0
102
RTVSPost2010Prop47
 90
       50
102
RTVSPost2010PropOp47
 70
     0
102
RTVSPost2010Prop48
 90
       50
102
RTVSPost2010PropOp48
 70
     0
102
RTVSPost2010Prop49
280
     0
102
RTVSPost2010PropOp49
 70
     1
102
RTVSPost2010Prop50
 90
       50
102
RTVSPost2010PropOp50
 70
     0
102
RTVSPost2010Prop51ColorIndex
 90
      256
102
RTVSPost2010Prop51ColorRGB
 90
-16777216
102
RTVSPost2010PropOp51
 70
     0
102
RTVSPost2010Prop52
140
1.0
102
RTVSPost2010PropOp52
 70
     0
102
RTVSPost2010Prop53
 90
        2
102
RTVSPost2010PropOp53
 70
     0
102
RTVSPost2010Prop54
  1
strokes_ogs.tif
102
RTVSPost2010PropOp54
 70
     0
102
RTVSPost2010Prop55
280
     0
102
RTVSPost2010PropOp55
 70
     1
102
RTVSPost2010Prop56
140
1.0
102
RTVSPost2010PropOp56
 70
     0
102
RTVSPost2010Prop57
140
1.0
102
RTVSPost2010PropOp57
 70
     0
102
RTVSPropertyOp0
 70
     0
102
RTVSPropertyOp1
 70
     0
102
RTVSPropertyOp2
 70
     0
102
RTVSPropertyOp3
 70
     0
102
RTVSPropertyOp4
 70
     0
102
RTVSPropertyOp5
 70
     0
102
RTVSPropertyOp6
 70
     0
102
RTVSPropertyOp7
 70
     0
102
RTVSPropertyOp8
 70
     0
102
RTVSPropertyOp9
 70
     0
102
RTVSPropertyOp10
 70
     0
102
RTVSPropertyOp11
 70
     0
102
RTVSPropertyOp12
 70
     0
102
RTVSPropertyOp13
 70
     0
102
RTVSPropertyOp14
 70
     2
102
RTVSPropertyOp15
 70
     0
102
RTVSPropertyOp16
 70
     0
102
RTVSPropertyOp17
 70
     0
102
RTVSPropertyOp18
 70
     0
102
RTVSPropertyOp19
 70
     0
102
RTVSPropertyOp20
 70
     0
102
RTVSPropertyOp21
 70
     0
102
RTVSPropertyOp22
 70
     0
102
RTVSPropertyOp23
 70
     0
102
RTVSPropertyOp24
 70
     0
102
RTVSPropertyOp25
 70
     0
102
RTVSPropertyOp26
 70
     0
102
RTVSPropertyOp27
 70
     0
102
RTVSPropertyOp28
 70
     1
102
RTVSPropertyOp29
 70
     1
102
RTVSPropertyOp30
 70
     1
102
RTVSPropertyOp31
 70
     1
102
RTVSPropertyOp32
 70
     1
102
RTVSPropertyOp33
 70
     1
102
RTVSPropertyOp34
 70
     1
102
RTVSPropertyOp35
 70
     1
102
RTVSPropertyOp36
 70
     1
102
RTVSPropertyOp37
 70
     0
102
RTVSPropertyOp38
 70
     0
102
RTVSPropertyOp39
 70
     0
102
RTVSPropertyOp40
 70
     0
102
RTVSPropertyOp41
 70
     0
102
RTVSPropertyOp42
 70
     0
102
RTVSPropertyOp43
 70
     0
102
RTVSPropertyOp44
 70
     0
102
RTVSPropertyOp45
 70
     1
102
RTVSPropertyOp46
 70
     0
102
RTVSPropertyOp47
 70
     0
102
RTVSPropertyOp48
 70
     0
102
RTVSPropertyOp49
 70
     1
102
RTVSPropertyOp50
 70
     0
102
RTVSPropertyOp51
 70
     0
102
RTVSPropertyOp52
 70
     0
102
RTVSPropertyOp53
 70
     0
102
RTVSPropertyOp54
 70
     0
102
RTVSPropertyOp55
 70
     1
102
RTVSPropertyOp56
 70
     0
102
RTVSPropertyOp57
 70
     0
102
RTVSPropertyOp58
 70
     0
102
RTVSPropertyOp59
 70
     0
102
RTVSPropertyOp60
 70
     0
102
RTVSPropertyOp61
 70
     0
102
RTVSPropertyOp62
 70
     0
  0
XRECORD
  5
6C2
102
{ACAD_REACTORS
330
6C1
102
}
330
6C1
100
AcDbXrecord
280
     1
102
RTVSPost2010Prop28
280
     0
102
RTVSPost2010PropOp28
 70
     1
102
RTVSPost2010Prop29
280
     1
102
RTVSPost2010PropOp29
 70
     1
102
RTVSPost2010Prop30
280
     1
102
RTVSPost2010PropOp30
 70
     1
102
RTVSPost2010Prop31
280
     0
102
RTVSPost2010PropOp31
 70
     1
102
RTVSPost2010Prop32
280
     0
102
RTVSPost2010PropOp32
 70
     1
102
RTVSPost2010Prop33
280
     0
102
RTVSPost2010PropOp33
 70
     1
102
RTVSPost2010Prop34
280
     0
102
RTVSPost2010PropOp34
 70
     1
102
RTVSPost2010Prop35
280
     0
102
RTVSPost2010PropOp35
 70
     1
102
RTVSPost2010Prop36
280
     0
102
RTVSPost2010PropOp36
 70
     1
102
RTVSPost2010Prop37
 90
       50
102
RTVSPost2010PropOp37
 70
     1
102
RTVSPost2010Prop38
140
0.0
102
RTVSPost2010PropOp38
 70
     1
102
RTVSPost2010Prop39
140
1.0
102
RTVSPost2010PropOp39
 70
     1
102
RTVSPost2010Prop40
 90
        0
102
RTVSPost2010PropOp40
 70
     1
102
RTVSPost2010Prop41ColorIndex
 90
       18
102
RTVSPost2010Prop41ColorRGB
 90
        0
102
RTVSPost2010PropOp41
 70
     1
102
RTVSPost2010Prop42
 90
       50
102
RTVSPost2010PropOp42
 70
     1
102
RTVSPost2010Prop43
 90
        3
102
RTVSPost2010PropOp43
 70
     1
102
RTVSPost2010Prop44ColorIndex
 90
        5
102
RTVSPost2010Prop44ColorRGB
 90
      255
102
RTVSPost2010PropOp44
 70
     1
102
RTVSPost2010Prop45
280
     0
102
RTVSPost2010PropOp45
 70
     1
102
RTVSPost2010Prop46
 90
       50
102
RTVSPost2010PropOp46
 70
     1
102
RTVSPost2010Prop47
 90
       50
102
RTVSPost2010PropOp47
 70
     1
102
RTVSPost2010Prop48
 90
       50
102
RTVSPost2010PropOp48
 70
     1
102
RTVSPost2010Prop49
280
     0
102
RTVSPost2010PropOp49
 70
     1
102
RTVSPost2010Prop50
 90
       50
102
RTVSPost2010PropOp50
 70
     1
102
RTVSPost2010Prop51ColorIndex
 90
      256
102
RTVSPost2010Prop51ColorRGB
 90
-16777216
102
RTVSPost2010PropOp51
 70
     0
102
RTVSPost2010Prop52
140
1.0
102
RTVSPost2010PropOp52
 70
     0
102
RTVSPost2010Prop53
 90
        2
102
RTVSPost2010PropOp53
 70
     1
102
RTVSPost2010Prop54
  1
strokes_ogs.tif
102
RTVSPost2010PropOp54
 70
     1
102
RTVSPost2010Prop55
280
     0
102
RTVSPost2010PropOp55
 70
     1
102
RTVSPost2010Prop56
140
1.0
102
RTVSPost2010PropOp56
 70
     1
102
RTVSPost2010Prop57
140
1.0
102
RTVSPost2010PropOp57
 70
     1
102
RTVSPropertyOp0
 70
     1
102
RTVSPropertyOp1
 70
     1
102
RTVSPropertyOp2
 70
     1
102
RTVSPropertyOp3
 70
     1
102
RTVSPropertyOp4
 70
     1
102
RTVSPropertyOp5
 70
     1
102
RTVSPropertyOp6
 70
     1
102
RTVSPropertyOp7
 70
     1
102
RTVSPropertyOp8
 70
     1
102
RTVSPropertyOp9
 70
     1
102
RTVSPropertyOp10
 70
     1
102
RTVSPropertyOp11
 70
     1
102
RTVSPropertyOp12
 70
     1
102
RTVSPropertyOp13
 70
     1
102
RTVSPropertyOp14
 70
     1
102
RTVSPropertyOp15
 70
     1
102
RTVSPropertyOp16
 70
     1
102
RTVSPropertyOp17
 70
     1
102
RTVSPropertyOp18
 70
     1
102
RTVSPropertyOp19
 70
     1
102
RTVSPropertyOp20
 70
     1
102
RTVSPropertyOp21
 70
     1
102
RTVSPropertyOp22
 70
     1
102
RTVSPropertyOp23
 70
     1
102
RTVSPropertyOp24
 70
     1
102
RTVSPropertyOp25
 70
     1
102
RTVSPropertyOp26
 70
     1
102
RTVSPropertyOp27
 70
     1
102
RTVSPropertyOp28
 70
     1
102
RTVSPropertyOp29
 70
     1
102
RTVSPropertyOp30
 70
     1
102
RTVSPropertyOp31
 70
     1
102
RTVSPropertyOp32
 70
     1
102
RTVSPropertyOp33
 70
     1
102
RTVSPropertyOp34
 70
     1
102
RTVSPropertyOp35
 70
     1
102
RTVSPropertyOp36
 70
     1
102
RTVSPropertyOp37
 70
     1
102
RTVSPropertyOp38
 70
     1
102
RTVSPropertyOp39
 70
     1
102
RTVSPropertyOp40
 70
     1
102
RTVSPropertyOp41
 70
     1
102
RTVSPropertyOp42
 70
     1
102
RTVSPropertyOp43
 70
     1
102
RTVSPropertyOp44
 70
     1
102
RTVSPropertyOp45
 70
     1
102
RTVSPropertyOp46
 70
     1
102
RTVSPropertyOp47
 70
     1
102
RTVSPropertyOp48
 70
     1
102
RTVSPropertyOp49
 70
     1
102
RTVSPropertyOp50
 70
     1
102
RTVSPropertyOp51
 70
     0
102
RTVSPropertyOp52
 70
     0
102
RTVSPropertyOp53
 70
     1
102
RTVSPropertyOp54
 70
     1
102
RTVSPropertyOp55
 70
     1
102
RTVSPropertyOp56
 70
     1
102
RTVSPropertyOp57
 70
     1
102
RTVSPropertyOp58
 70
     1
102
RTVSPropertyOp59
 70
     1
102
RTVSPropertyOp60
 70
     1
102
RTVSPropertyOp61
 70
     1
102
RTVSPropertyOp62
 70
     1
  0
XRECORD
  5
6D4
102
{ACAD_REACTORS
330
6D3
102
}
330
6D3
100
AcDbXrecord
280
     1
102
RTVSPost2010Prop28
280
     0
102
RTVSPost2010PropOp28
 70
     1
102
RTVSPost2010Prop29
280
     1
102
RTVSPost2010PropOp29
 70
     1
102
RTVSPost2010Prop30
280
     1
102
RTVSPost2010PropOp30
 70
     1
102
RTVSPost2010Prop31
280
     0
102
RTVSPost2010PropOp31
 70
     1
102
RTVSPost2010Prop32
280
     0
102
RTVSPost2010PropOp32
 70
     1
102
RTVSPost2010Prop33
280
     0
102
RTVSPost2010PropOp33
 70
     1
102
RTVSPost2010Prop34
280
     0
102
RTVSPost2010PropOp34
 70
     1
102
RTVSPost2010Prop35
280
     0
102
RTVSPost2010PropOp35
 70
     1
102
RTVSPost2010Prop36
280
     0
102
RTVSPost2010PropOp36
 70
     1
102
RTVSPost2010Prop37
 90
       50
102
RTVSPost2010PropOp37
 70
     0
102
RTVSPost2010Prop38
140
0.0
102
RTVSPost2010PropOp38
 70
     0
102
RTVSPost2010Prop39
140
1.0
102
RTVSPost2010PropOp39
 70
     0
102
RTVSPost2010Prop40
 90
        0
102
RTVSPost2010PropOp40
 70
     0
102
RTVSPost2010Prop41ColorIndex
 90
       18
102
RTVSPost2010Prop41ColorRGB
 90
        0
102
RTVSPost2010PropOp41
 70
     0
102
RTVSPost2010Prop42
 90
       50
102
RTVSPost2010PropOp42
 70
     0
102
RTVSPost2010Prop43
 90
        3
102
RTVSPost2010PropOp43
 70
     0
102
RTVSPost2010Prop44ColorIndex
 90
        5
102
RTVSPost2010Prop44ColorRGB
 90
      255
102
RTVSPost2010PropOp44
 70
     0
102
RTVSPost2010Prop45
280
     0
102
RTVSPost2010PropOp45
 70
     1
102
RTVSPost2010Prop46
 90
       50
102
RTVSPost2010PropOp46
 70
     0
102
RTVSPost2010Prop47
 90
       50
102
RTVSPost2010PropOp47
 70
     0
102
RTVSPost2010Prop48
 90
       50
102
RTVSPost2010PropOp48
 70
     0
102
RTVSPost2010Prop49
280
     0
102
RTVSPost2010PropOp49
 70
     1
102
RTVSPost2010Prop50
 90
       50
102
RTVSPost2010PropOp50
 70
     0
102
RTVSPost2010Prop51ColorIndex
 90
      256
102
RTVSPost2010Prop51ColorRGB
 90
-16777216
102
RTVSPost2010PropOp51
 70
     0
102
RTVSPost2010Prop52
140
1.0
102
RTVSPost2010PropOp52
 70
     0
102
RTVSPost2010Prop53
 90
        2
102
RTVSPost2010PropOp53
 70
     0
102
RTVSPost2010Prop54
  1
strokes_ogs.tif
102
RTVSPost2010PropOp54
 70
     0
102
RTVSPost2010Prop55
280
     0
102
RTVSPost2010PropOp55
 70
     1
102
RTVSPost2010Prop56
140
1.0
102
RTVSPost2010PropOp56
 70
     0
102
RTVSPost2010Prop57
140
1.0
102
RTVSPost2010PropOp57
 70
     0
102
RTVSPropertyOp0
 70
     0
102
RTVSPropertyOp1
 70
     0
102
RTVSPropertyOp2
 70
     0
102
RTVSPropertyOp3
 70
     0
102
RTVSPropertyOp4
 70
     0
102
RTVSPropertyOp5
 70
     0
102
RTVSPropertyOp6
 70
     0
102
RTVSPropertyOp7
 70
     0
102
RTVSPropertyOp8
 70
     0
102
RTVSPropertyOp9
 70
     0
102
RTVSPropertyOp10
 70
     0
102
RTVSPropertyOp11
 70
     0
102
RTVSPropertyOp12
 70
     0
102
RTVSPropertyOp13
 70
     0
102
RTVSPropertyOp14
 70
     2
102
RTVSPropertyOp15
 70
     0
102
RTVSPropertyOp16
 70
     0
102
RTVSPropertyOp17
 70
     0
102
RTVSPropertyOp18
 70
     0
102
RTVSPropertyOp19
 70
     0
102
RTVSPropertyOp20
 70
     0
102
RTVSPropertyOp21
 70
     0
102
RTVSPropertyOp22
 70
     0
102
RTVSPropertyOp23
 70
     0
102
RTVSPropertyOp24
 70
     0
102
RTVSPropertyOp25
 70
     0
102
RTVSPropertyOp26
 70
     0
102
RTVSPropertyOp27
 70
     0
102
RTVSPropertyOp28
 70
     1
102
RTVSPropertyOp29
 70
     1
102
RTVSPropertyOp30
 70
     1
102
RTVSPropertyOp31
 70
     1
102
RTVSPropertyOp32
 70
     1
102
RTVSPropertyOp33
 70
     1
102
RTVSPropertyOp34
 70
     1
102
RTVSPropertyOp35
 70
     1
102
RTVSPropertyOp36
 70
     1
102
RTVSPropertyOp37
 70
     0
102
RTVSPropertyOp38
 70
     0
102
RTVSPropertyOp39
 70
     0
102
RTVSPropertyOp40
 70
     0
102
RTVSPropertyOp41
 70
     0
102
RTVSPropertyOp42
 70
     0
102
RTVSPropertyOp43
 70
     0
102
RTVSPropertyOp44
 70
     0
102
RTVSPropertyOp45
 70
     1
102
RTVSPropertyOp46
 70
     0
102
RTVSPropertyOp47
 70
     0
102
RTVSPropertyOp48
 70
     0
102
RTVSPropertyOp49
 70
     1
102
RTVSPropertyOp50
 70
     0
102
RTVSPropertyOp51
 70
     0
102
RTVSPropertyOp52
 70
     0
102
RTVSPropertyOp53
 70
     0
102
RTVSPropertyOp54
 70
     0
102
RTVSPropertyOp55
 70
     1
102
RTVSPropertyOp56
 70
     0
102
RTVSPropertyOp57
 70
     0
102
RTVSPropertyOp58
 70
     0
102
RTVSPropertyOp59
 70
     0
102
RTVSPropertyOp60
 70
     0
102
RTVSPropertyOp61
 70
     0
102
RTVSPropertyOp62
 70
     0
  0
XRECORD
  5
6BA
102
{ACAD_REACTORS
330
6B9
102
}
330
6B9
100
AcDbXrecord
280
     1
102
RTVSPost2010Prop28
280
     0
102
RTVSPost2010PropOp28
 70
     1
102
RTVSPost2010Prop29
280
     1
102
RTVSPost2010PropOp29
 70
     1
102
RTVSPost2010Prop30
280
     1
102
RTVSPost2010PropOp30
 70
     1
102
RTVSPost2010Prop31
280
     0
102
RTVSPost2010PropOp31
 70
     1
102
RTVSPost2010Prop32
280
     0
102
RTVSPost2010PropOp32
 70
     1
102
RTVSPost2010Prop33
280
     0
102
RTVSPost2010PropOp33
 70
     1
102
RTVSPost2010Prop34
280
     0
102
RTVSPost2010PropOp34
 70
     1
102
RTVSPost2010Prop35
280
     0
102
RTVSPost2010PropOp35
 70
     1
102
RTVSPost2010Prop36
280
     0
102
RTVSPost2010PropOp36
 70
     1
102
RTVSPost2010Prop37
 90
       50
102
RTVSPost2010PropOp37
 70
     1
102
RTVSPost2010Prop38
140
0.0
102
RTVSPost2010PropOp38
 70
     1
102
RTVSPost2010Prop39
140
1.0
102
RTVSPost2010PropOp39
 70
     1
102
RTVSPost2010Prop40
 90
        0
102
RTVSPost2010PropOp40
 70
     1
102
RTVSPost2010Prop41ColorIndex
 90
       18
102
RTVSPost2010Prop41ColorRGB
 90
        0
102
RTVSPost2010PropOp41
 70
     1
102
RTVSPost2010Prop42
 90
       50
102
RTVSPost2010PropOp42
 70
     1
102
RTVSPost2010Prop43
 90
        3
102
RTVSPost2010PropOp43
 70
     1
102
RTVSPost2010Prop44ColorIndex
 90
        5
102
RTVSPost2010Prop44ColorRGB
 90
      255
102
RTVSPost2010PropOp44
 70
     1
102
RTVSPost2010Prop45
280
     0
102
RTVSPost2010PropOp45
 70
     1
102
RTVSPost2010Prop46
 90
       50
102
RTVSPost2010PropOp46
 70
     1
102
RTVSPost2010Prop47
 90
       50
102
RTVSPost2010PropOp47
 70
     1
102
RTVSPost2010Prop48
 90
       50
102
RTVSPost2010PropOp48
 70
     1
102
RTVSPost2010Prop49
280
     0
102
RTVSPost2010PropOp49
 70
     1
102
RTVSPost2010Prop50
 90
       50
102
RTVSPost2010PropOp50
 70
     1
102
RTVSPost2010Prop51ColorIndex
 90
      256
102
RTVSPost2010Prop51ColorRGB
 90
-16777216
102
RTVSPost2010PropOp51
 70
     0
102
RTVSPost2010Prop52
140
1.0
102
RTVSPost2010PropOp52
 70
     0
102
RTVSPost2010Prop53
 90
        2
102
RTVSPost2010PropOp53
 70
     1
102
RTVSPost2010Prop54
  1
strokes_ogs.tif
102
RTVSPost2010PropOp54
 70
     1
102
RTVSPost2010Prop55
280
     0
102
RTVSPost2010PropOp55
 70
     1
102
RTVSPost2010Prop56
140
1.0
102
RTVSPost2010PropOp56
 70
     1
102
RTVSPost2010Prop57
140
1.0
102
RTVSPost2010PropOp57
 70
     1
102
RTVSPropertyOp0
 70
     1
102
RTVSPropertyOp1
 70
     1
102
RTVSPropertyOp2
 70
     1
102
RTVSPropertyOp3
 70
     1
102
RTVSPropertyOp4
 70
     1
102
RTVSPropertyOp5
 70
     1
102
RTVSPropertyOp6
 70
     1
102
RTVSPropertyOp7
 70
     1
102
RTVSPropertyOp8
 70
     1
102
RTVSPropertyOp9
 70
     1
102
RTVSPropertyOp10
 70
     1
102
RTVSPropertyOp11
 70
     1
102
RTVSPropertyOp12
 70
     1
102
RTVSPropertyOp13
 70
     1
102
RTVSPropertyOp14
 70
     1
102
RTVSPropertyOp15
 70
     1
102
RTVSPropertyOp16
 70
     1
102
RTVSPropertyOp17
 70
     1
102
RTVSPropertyOp18
 70
     1
102
RTVSPropertyOp19
 70
     1
102
RTVSPropertyOp20
 70
     1
102
RTVSPropertyOp21
 70
     1
102
RTVSPropertyOp22
 70
     1
102
RTVSPropertyOp23
 70
     1
102
RTVSPropertyOp24
 70
     1
102
RTVSPropertyOp25
 70
     1
102
RTVSPropertyOp26
 70
     1
102
RTVSPropertyOp27
 70
     1
102
RTVSPropertyOp28
 70
     1
102
RTVSPropertyOp29
 70
     1
102
RTVSPropertyOp30
 70
     1
102
RTVSPropertyOp31
 70
     1
102
RTVSPropertyOp32
 70
     1
102
RTVSPropertyOp33
 70
     1
102
RTVSPropertyOp34
 70
     1
102
RTVSPropertyOp35
 70
     1
102
RTVSPropertyOp36
 70
     1
102
RTVSPropertyOp37
 70
     1
102
RTVSPropertyOp38
 70
     1
102
RTVSPropertyOp39
 70
     1
102
RTVSPropertyOp40
 70
     1
102
RTVSPropertyOp41
 70
     1
102
RTVSPropertyOp42
 70
     1
102
RTVSPropertyOp43
 70
     1
102
RTVSPropertyOp44
 70
     1
102
RTVSPropertyOp45
 70
     1
102
RTVSPropertyOp46
 70
     1
102
RTVSPropertyOp47
 70
     1
102
RTVSPropertyOp48
 70
     1
102
RTVSPropertyOp49
 70
     1
102
RTVSPropertyOp50
 70
     1
102
RTVSPropertyOp51
 70
     0
102
RTVSPropertyOp52
 70
     0
102
RTVSPropertyOp53
 70
     1
102
RTVSPropertyOp54
 70
     1
102
RTVSPropertyOp55
 70
     1
102
RTVSPropertyOp56
 70
     1
102
RTVSPropertyOp57
 70
     1
102
RTVSPropertyOp58
 70
     1
102
RTVSPropertyOp59
 70
     1
102
RTVSPropertyOp60
 70
     1
102
RTVSPropertyOp61
 70
     1
102
RTVSPropertyOp62
 70
     1
  0
XRECORD
  5
6D0
102
{ACAD_REACTORS
330
6CF
102
}
330
6CF
100
AcDbXrecord
280
     1
102
RTVSPost2010Prop28
280
     0
102
RTVSPost2010PropOp28
 70
     1
102
RTVSPost2010Prop29
280
     1
102
RTVSPost2010PropOp29
 70
     1
102
RTVSPost2010Prop30
280
     1
102
RTVSPost2010PropOp30
 70
     1
102
RTVSPost2010Prop31
280
     0
102
RTVSPost2010PropOp31
 70
     1
102
RTVSPost2010Prop32
280
     0
102
RTVSPost2010PropOp32
 70
     1
102
RTVSPost2010Prop33
280
     0
102
RTVSPost2010PropOp33
 70
     1
102
RTVSPost2010Prop34
280
     0
102
RTVSPost2010PropOp34
 70
     1
102
RTVSPost2010Prop35
280
     0
102
RTVSPost2010PropOp35
 70
     1
102
RTVSPost2010Prop36
280
     0
102
RTVSPost2010PropOp36
 70
     1
102
RTVSPost2010Prop37
 90
       50
102
RTVSPost2010PropOp37
 70
     1
102
RTVSPost2010Prop38
140
0.0
102
RTVSPost2010PropOp38
 70
     1
102
RTVSPost2010Prop39
140
1.0
102
RTVSPost2010PropOp39
 70
     1
102
RTVSPost2010Prop40
 90
        0
102
RTVSPost2010PropOp40
 70
     1
102
RTVSPost2010Prop41ColorIndex
 90
       18
102
RTVSPost2010Prop41ColorRGB
 90
        0
102
RTVSPost2010PropOp41
 70
     1
102
RTVSPost2010Prop42
 90
       50
102
RTVSPost2010PropOp42
 70
     1
102
RTVSPost2010Prop43
 90
        3
102
RTVSPost2010PropOp43
 70
     1
102
RTVSPost2010Prop44ColorIndex
 90
        5
102
RTVSPost2010Prop44ColorRGB
 90
      255
102
RTVSPost2010PropOp44
 70
     1
102
RTVSPost2010Prop45
280
     0
102
RTVSPost2010PropOp45
 70
     1
102
RTVSPost2010Prop46
 90
       50
102
RTVSPost2010PropOp46
 70
     1
102
RTVSPost2010Prop47
 90
       50
102
RTVSPost2010PropOp47
 70
     1
102
RTVSPost2010Prop48
 90
       50
102
RTVSPost2010PropOp48
 70
     1
102
RTVSPost2010Prop49
280
     0
102
RTVSPost2010PropOp49
 70
     1
102
RTVSPost2010Prop50
 90
       50
102
RTVSPost2010PropOp50
 70
     1
102
RTVSPost2010Prop51ColorIndex
 90
      256
102
RTVSPost2010Prop51ColorRGB
 90
-16777216
102
RTVSPost2010PropOp51
 70
     0
102
RTVSPost2010Prop52
140
1.0
102
RTVSPost2010PropOp52
 70
     0
102
RTVSPost2010Prop53
 90
        2
102
RTVSPost2010PropOp53
 70
     1
102
RTVSPost2010Prop54
  1
strokes_ogs.tif
102
RTVSPost2010PropOp54
 70
     1
102
RTVSPost2010Prop55
280
     0
102
RTVSPost2010PropOp55
 70
     1
102
RTVSPost2010Prop56
140
1.0
102
RTVSPost2010PropOp56
 70
     1
102
RTVSPost2010Prop57
140
1.0
102
RTVSPost2010PropOp57
 70
     1
102
RTVSPropertyOp0
 70
     1
102
RTVSPropertyOp1
 70
     1
102
RTVSPropertyOp2
 70
     1
102
RTVSPropertyOp3
 70
     1
102
RTVSPropertyOp4
 70
     1
102
RTVSPropertyOp5
 70
     1
102
RTVSPropertyOp6
 70
     1
102
RTVSPropertyOp7
 70
     1
102
RTVSPropertyOp8
 70
     1
102
RTVSPropertyOp9
 70
     1
102
RTVSPropertyOp10
 70
     1
102
RTVSPropertyOp11
 70
     1
102
RTVSPropertyOp12
 70
     1
102
RTVSPropertyOp13
 70
     1
102
RTVSPropertyOp14
 70
     1
102
RTVSPropertyOp15
 70
     1
102
RTVSPropertyOp16
 70
     1
102
RTVSPropertyOp17
 70
     1
102
RTVSPropertyOp18
 70
     1
102
RTVSPropertyOp19
 70
     1
102
RTVSPropertyOp20
 70
     1
102
RTVSPropertyOp21
 70
     1
102
RTVSPropertyOp22
 70
     1
102
RTVSPropertyOp23
 70
     1
102
RTVSPropertyOp24
 70
     1
102
RTVSPropertyOp25
 70
     1
102
RTVSPropertyOp26
 70
     1
102
RTVSPropertyOp27
 70
     1
102
RTVSPropertyOp28
 70
     1
102
RTVSPropertyOp29
 70
     1
102
RTVSPropertyOp30
 70
     1
102
RTVSPropertyOp31
 70
     1
102
RTVSPropertyOp32
 70
     1
102
RTVSPropertyOp33
 70
     1
102
RTVSPropertyOp34
 70
     1
102
RTVSPropertyOp35
 70
     1
102
RTVSPropertyOp36
 70
     1
102
RTVSPropertyOp37
 70
     1
102
RTVSPropertyOp38
 70
     1
102
RTVSPropertyOp39
 70
     1
102
RTVSPropertyOp40
 70
     1
102
RTVSPropertyOp41
 70
     1
102
RTVSPropertyOp42
 70
     1
102
RTVSPropertyOp43
 70
     1
102
RTVSPropertyOp44
 70
     1
102
RTVSPropertyOp45
 70
     1
102
RTVSPropertyOp46
 70
     1
102
RTVSPropertyOp47
 70
     1
102
RTVSPropertyOp48
 70
     1
102
RTVSPropertyOp49
 70
     1
102
RTVSPropertyOp50
 70
     1
102
RTVSPropertyOp51
 70
     0
102
RTVSPropertyOp52
 70
     0
102
RTVSPropertyOp53
 70
     1
102
RTVSPropertyOp54
 70
     1
102
RTVSPropertyOp55
 70
     1
102
RTVSPropertyOp56
 70
     1
102
RTVSPropertyOp57
 70
     1
102
RTVSPropertyOp58
 70
     1
102
RTVSPropertyOp59
 70
     1
102
RTVSPropertyOp60
 70
     1
102
RTVSPropertyOp61
 70
     1
102
RTVSPropertyOp62
 70
     1
  0
XRECORD
  5
6CE
102
{ACAD_REACTORS
330
6CD
102
}
330
6CD
100
AcDbXrecord
280
     1
102
RTVSPost2010Prop28
280
     0
102
RTVSPost2010PropOp28
 70
     1
102
RTVSPost2010Prop29
280
     1
102
RTVSPost2010PropOp29
 70
     1
102
RTVSPost2010Prop30
280
     1
102
RTVSPost2010PropOp30
 70
     1
102
RTVSPost2010Prop31
280
     0
102
RTVSPost2010PropOp31
 70
     1
102
RTVSPost2010Prop32
280
     0
102
RTVSPost2010PropOp32
 70
     1
102
RTVSPost2010Prop33
280
     0
102
RTVSPost2010PropOp33
 70
     1
102
RTVSPost2010Prop34
280
     0
102
RTVSPost2010PropOp34
 70
     1
102
RTVSPost2010Prop35
280
     0
102
RTVSPost2010PropOp35
 70
     1
102
RTVSPost2010Prop36
280
     0
102
RTVSPost2010PropOp36
 70
     1
102
RTVSPost2010Prop37
 90
       50
102
RTVSPost2010PropOp37
 70
     1
102
RTVSPost2010Prop38
140
0.0
102
RTVSPost2010PropOp38
 70
     1
102
RTVSPost2010Prop39
140
1.0
102
RTVSPost2010PropOp39
 70
     1
102
RTVSPost2010Prop40
 90
        0
102
RTVSPost2010PropOp40
 70
     1
102
RTVSPost2010Prop41ColorIndex
 90
       18
102
RTVSPost2010Prop41ColorRGB
 90
        0
102
RTVSPost2010PropOp41
 70
     1
102
RTVSPost2010Prop42
 90
       50
102
RTVSPost2010PropOp42
 70
     1
102
RTVSPost2010Prop43
 90
        3
102
RTVSPost2010PropOp43
 70
     1
102
RTVSPost2010Prop44ColorIndex
 90
        5
102
RTVSPost2010Prop44ColorRGB
 90
      255
102
RTVSPost2010PropOp44
 70
     1
102
RTVSPost2010Prop45
280
     0
102
RTVSPost2010PropOp45
 70
     1
102
RTVSPost2010Prop46
 90
       50
102
RTVSPost2010PropOp46
 70
     1
102
RTVSPost2010Prop47
 90
       50
102
RTVSPost2010PropOp47
 70
     1
102
RTVSPost2010Prop48
 90
       50
102
RTVSPost2010PropOp48
 70
     1
102
RTVSPost2010Prop49
280
     0
102
RTVSPost2010PropOp49
 70
     1
102
RTVSPost2010Prop50
 90
       50
102
RTVSPost2010PropOp50
 70
     1
102
RTVSPost2010Prop51ColorIndex
 90
      256
102
RTVSPost2010Prop51ColorRGB
 90
-16777216
102
RTVSPost2010PropOp51
 70
     0
102
RTVSPost2010Prop52
140
1.0
102
RTVSPost2010PropOp52
 70
     0
102
RTVSPost2010Prop53
 90
        2
102
RTVSPost2010PropOp53
 70
     1
102
RTVSPost2010Prop54
  1
strokes_ogs.tif
102
RTVSPost2010PropOp54
 70
     1
102
RTVSPost2010Prop55
280
     0
102
RTVSPost2010PropOp55
 70
     1
102
RTVSPost2010Prop56
140
1.0
102
RTVSPost2010PropOp56
 70
     1
102
RTVSPost2010Prop57
140
1.0
102
RTVSPost2010PropOp57
 70
     1
102
RTVSPropertyOp0
 70
     1
102
RTVSPropertyOp1
 70
     1
102
RTVSPropertyOp2
 70
     1
102
RTVSPropertyOp3
 70
     1
102
RTVSPropertyOp4
 70
     1
102
RTVSPropertyOp5
 70
     1
102
RTVSPropertyOp6
 70
     1
102
RTVSPropertyOp7
 70
     1
102
RTVSPropertyOp8
 70
     1
102
RTVSPropertyOp9
 70
     1
102
RTVSPropertyOp10
 70
     1
102
RTVSPropertyOp11
 70
     1
102
RTVSPropertyOp12
 70
     1
102
RTVSPropertyOp13
 70
     1
102
RTVSPropertyOp14
 70
     1
102
RTVSPropertyOp15
 70
     1
102
RTVSPropertyOp16
 70
     1
102
RTVSPropertyOp17
 70
     1
102
RTVSPropertyOp18
 70
     1
102
RTVSPropertyOp19
 70
     1
102
RTVSPropertyOp20
 70
     1
102
RTVSPropertyOp21
 70
     1
102
RTVSPropertyOp22
 70
     1
102
RTVSPropertyOp23
 70
     1
102
RTVSPropertyOp24
 70
     1
102
RTVSPropertyOp25
 70
     1
102
RTVSPropertyOp26
 70
     1
102
RTVSPropertyOp27
 70
     1
102
RTVSPropertyOp28
 70
     1
102
RTVSPropertyOp29
 70
     1
102
RTVSPropertyOp30
 70
     1
102
RTVSPropertyOp31
 70
     1
102
RTVSPropertyOp32
 70
     1
102
RTVSPropertyOp33
 70
     1
102
RTVSPropertyOp34
 70
     1
102
RTVSPropertyOp35
 70
     1
102
RTVSPropertyOp36
 70
     1
102
RTVSPropertyOp37
 70
     1
102
RTVSPropertyOp38
 70
     1
102
RTVSPropertyOp39
 70
     1
102
RTVSPropertyOp40
 70
     1
102
RTVSPropertyOp41
 70
     1
102
RTVSPropertyOp42
 70
     1
102
RTVSPropertyOp43
 70
     1
102
RTVSPropertyOp44
 70
     1
102
RTVSPropertyOp45
 70
     1
102
RTVSPropertyOp46
 70
     1
102
RTVSPropertyOp47
 70
     1
102
RTVSPropertyOp48
 70
     1
102
RTVSPropertyOp49
 70
     1
102
RTVSPropertyOp50
 70
     1
102
RTVSPropertyOp51
 70
     0
102
RTVSPropertyOp52
 70
     0
102
RTVSPropertyOp53
 70
     1
102
RTVSPropertyOp54
 70
     1
102
RTVSPropertyOp55
 70
     1
102
RTVSPropertyOp56
 70
     1
102
RTVSPropertyOp57
 70
     1
102
RTVSPropertyOp58
 70
     1
102
RTVSPropertyOp59
 70
     1
102
RTVSPropertyOp60
 70
     1
102
RTVSPropertyOp61
 70
     1
102
RTVSPropertyOp62
 70
     1
  0
XRECORD
  5
6C8
102
{ACAD_REACTORS
330
6C7
102
}
330
6C7
100
AcDbXrecord
280
     1
102
RTVSPost2010Prop28
280
     0
102
RTVSPost2010PropOp28
 70
     1
102
RTVSPost2010Prop29
280
     1
102
RTVSPost2010PropOp29
 70
     1
102
RTVSPost2010Prop30
280
     1
102
RTVSPost2010PropOp30
 70
     1
102
RTVSPost2010Prop31
280
     0
102
RTVSPost2010PropOp31
 70
     1
102
RTVSPost2010Prop32
280
     0
102
RTVSPost2010PropOp32
 70
     1
102
RTVSPost2010Prop33
280
     0
102
RTVSPost2010PropOp33
 70
     1
102
RTVSPost2010Prop34
280
     0
102
RTVSPost2010PropOp34
 70
     1
102
RTVSPost2010Prop35
280
     0
102
RTVSPost2010PropOp35
 70
     1
102
RTVSPost2010Prop36
280
     0
102
RTVSPost2010PropOp36
 70
     1
102
RTVSPost2010Prop37
 90
       50
102
RTVSPost2010PropOp37
 70
     1
102
RTVSPost2010Prop38
140
0.0
102
RTVSPost2010PropOp38
 70
     1
102
RTVSPost2010Prop39
140
1.0
102
RTVSPost2010PropOp39
 70
     1
102
RTVSPost2010Prop40
 90
        0
102
RTVSPost2010PropOp40
 70
     1
102
RTVSPost2010Prop41ColorIndex
 90
       18
102
RTVSPost2010Prop41ColorRGB
 90
        0
102
RTVSPost2010PropOp41
 70
     1
102
RTVSPost2010Prop42
 90
       50
102
RTVSPost2010PropOp42
 70
     1
102
RTVSPost2010Prop43
 90
        3
102
RTVSPost2010PropOp43
 70
     1
102
RTVSPost2010Prop44ColorIndex
 90
        5
102
RTVSPost2010Prop44ColorRGB
 90
      255
102
RTVSPost2010PropOp44
 70
     1
102
RTVSPost2010Prop45
280
     0
102
RTVSPost2010PropOp45
 70
     1
102
RTVSPost2010Prop46
 90
       50
102
RTVSPost2010PropOp46
 70
     1
102
RTVSPost2010Prop47
 90
       50
102
RTVSPost2010PropOp47
 70
     1
102
RTVSPost2010Prop48
 90
       50
102
RTVSPost2010PropOp48
 70
     1
102
RTVSPost2010Prop49
280
     0
102
RTVSPost2010PropOp49
 70
     1
102
RTVSPost2010Prop50
 90
       50
102
RTVSPost2010PropOp50
 70
     1
102
RTVSPost2010Prop51ColorIndex
 90
      256
102
RTVSPost2010Prop51ColorRGB
 90
-16777216
102
RTVSPost2010PropOp51
 70
     0
102
RTVSPost2010Prop52
140
1.0
102
RTVSPost2010PropOp52
 70
     0
102
RTVSPost2010Prop53
 90
        2
102
RTVSPost2010PropOp53
 70
     1
102
RTVSPost2010Prop54
  1
strokes_ogs.tif
102
RTVSPost2010PropOp54
 70
     1
102
RTVSPost2010Prop55
280
     0
102
RTVSPost2010PropOp55
 70
     1
102
RTVSPost2010Prop56
140
1.0
102
RTVSPost2010PropOp56
 70
     1
102
RTVSPost2010Prop57
140
1.0
102
RTVSPost2010PropOp57
 70
     1
102
RTVSPropertyOp0
 70
     1
102
RTVSPropertyOp1
 70
     1
102
RTVSPropertyOp2
 70
     1
102
RTVSPropertyOp3
 70
     1
102
RTVSPropertyOp4
 70
     1
102
RTVSPropertyOp5
 70
     1
102
RTVSPropertyOp6
 70
     1
102
RTVSPropertyOp7
 70
     1
102
RTVSPropertyOp8
 70
     1
102
RTVSPropertyOp9
 70
     1
102
RTVSPropertyOp10
 70
     1
102
RTVSPropertyOp11
 70
     1
102
RTVSPropertyOp12
 70
     1
102
RTVSPropertyOp13
 70
     1
102
RTVSPropertyOp14
 70
     1
102
RTVSPropertyOp15
 70
     1
102
RTVSPropertyOp16
 70
     1
102
RTVSPropertyOp17
 70
     1
102
RTVSPropertyOp18
 70
     1
102
RTVSPropertyOp19
 70
     1
102
RTVSPropertyOp20
 70
     1
102
RTVSPropertyOp21
 70
     1
102
RTVSPropertyOp22
 70
     1
102
RTVSPropertyOp23
 70
     1
102
RTVSPropertyOp24
 70
     1
102
RTVSPropertyOp25
 70
     1
102
RTVSPropertyOp26
 70
     1
102
RTVSPropertyOp27
 70
     1
102
RTVSPropertyOp28
 70
     1
102
RTVSPropertyOp29
 70
     1
102
RTVSPropertyOp30
 70
     1
102
RTVSPropertyOp31
 70
     1
102
RTVSPropertyOp32
 70
     1
102
RTVSPropertyOp33
 70
     1
102
RTVSPropertyOp34
 70
     1
102
RTVSPropertyOp35
 70
     1
102
RTVSPropertyOp36
 70
     1
102
RTVSPropertyOp37
 70
     1
102
RTVSPropertyOp38
 70
     1
102
RTVSPropertyOp39
 70
     1
102
RTVSPropertyOp40
 70
     1
102
RTVSPropertyOp41
 70
     1
102
RTVSPropertyOp42
 70
     1
102
RTVSPropertyOp43
 70
     1
102
RTVSPropertyOp44
 70
     1
102
RTVSPropertyOp45
 70
     1
102
RTVSPropertyOp46
 70
     1
102
RTVSPropertyOp47
 70
     1
102
RTVSPropertyOp48
 70
     1
102
RTVSPropertyOp49
 70
     1
102
RTVSPropertyOp50
 70
     1
102
RTVSPropertyOp51
 70
     0
102
RTVSPropertyOp52
 70
     0
102
RTVSPropertyOp53
 70
     1
102
RTVSPropertyOp54
 70
     1
102
RTVSPropertyOp55
 70
     1
102
RTVSPropertyOp56
 70
     1
102
RTVSPropertyOp57
 70
     1
102
RTVSPropertyOp58
 70
     1
102
RTVSPropertyOp59
 70
     1
102
RTVSPropertyOp60
 70
     1
102
RTVSPropertyOp61
 70
     1
102
RTVSPropertyOp62
 70
     1
  0
XRECORD
  5
6CA
102
{ACAD_REACTORS
330
6C9
102
}
330
6C9
100
AcDbXrecord
280
     1
102
RTVSPost2010Prop28
280
     0
102
RTVSPost2010PropOp28
 70
     1
102
RTVSPost2010Prop29
280
     1
102
RTVSPost2010PropOp29
 70
     1
102
RTVSPost2010Prop30
280
     1
102
RTVSPost2010PropOp30
 70
     1
102
RTVSPost2010Prop31
280
     0
102
RTVSPost2010PropOp31
 70
     1
102
RTVSPost2010Prop32
280
     0
102
RTVSPost2010PropOp32
 70
     1
102
RTVSPost2010Prop33
280
     0
102
RTVSPost2010PropOp33
 70
     1
102
RTVSPost2010Prop34
280
     0
102
RTVSPost2010PropOp34
 70
     1
102
RTVSPost2010Prop35
280
     0
102
RTVSPost2010PropOp35
 70
     1
102
RTVSPost2010Prop36
280
     0
102
RTVSPost2010PropOp36
 70
     1
102
RTVSPost2010Prop37
 90
       50
102
RTVSPost2010PropOp37
 70
     1
102
RTVSPost2010Prop38
140
0.0
102
RTVSPost2010PropOp38
 70
     1
102
RTVSPost2010Prop39
140
1.0
102
RTVSPost2010PropOp39
 70
     1
102
RTVSPost2010Prop40
 90
        0
102
RTVSPost2010PropOp40
 70
     1
102
RTVSPost2010Prop41ColorIndex
 90
       18
102
RTVSPost2010Prop41ColorRGB
 90
        0
102
RTVSPost2010PropOp41
 70
     1
102
RTVSPost2010Prop42
 90
       50
102
RTVSPost2010PropOp42
 70
     1
102
RTVSPost2010Prop43
 90
        3
102
RTVSPost2010PropOp43
 70
     1
102
RTVSPost2010Prop44ColorIndex
 90
        5
102
RTVSPost2010Prop44ColorRGB
 90
      255
102
RTVSPost2010PropOp44
 70
     1
102
RTVSPost2010Prop45
280
     0
102
RTVSPost2010PropOp45
 70
     1
102
RTVSPost2010Prop46
 90
       50
102
RTVSPost2010PropOp46
 70
     1
102
RTVSPost2010Prop47
 90
       50
102
RTVSPost2010PropOp47
 70
     1
102
RTVSPost2010Prop48
 90
       50
102
RTVSPost2010PropOp48
 70
     1
102
RTVSPost2010Prop49
280
     0
102
RTVSPost2010PropOp49
 70
     1
102
RTVSPost2010Prop50
 90
       50
102
RTVSPost2010PropOp50
 70
     1
102
RTVSPost2010Prop51ColorIndex
 90
      256
102
RTVSPost2010Prop51ColorRGB
 90
-16777216
102
RTVSPost2010PropOp51
 70
     0
102
RTVSPost2010Prop52
140
1.0
102
RTVSPost2010PropOp52
 70
     0
102
RTVSPost2010Prop53
 90
        2
102
RTVSPost2010PropOp53
 70
     1
102
RTVSPost2010Prop54
  1
strokes_ogs.tif
102
RTVSPost2010PropOp54
 70
     1
102
RTVSPost2010Prop55
280
     0
102
RTVSPost2010PropOp55
 70
     1
102
RTVSPost2010Prop56
140
1.0
102
RTVSPost2010PropOp56
 70
     1
102
RTVSPost2010Prop57
140
1.0
102
RTVSPost2010PropOp57
 70
     1
102
RTVSPropertyOp0
 70
     1
102
RTVSPropertyOp1
 70
     1
102
RTVSPropertyOp2
 70
     1
102
RTVSPropertyOp3
 70
     1
102
RTVSPropertyOp4
 70
     1
102
RTVSPropertyOp5
 70
     1
102
RTVSPropertyOp6
 70
     1
102
RTVSPropertyOp7
 70
     1
102
RTVSPropertyOp8
 70
     1
102
RTVSPropertyOp9
 70
     1
102
RTVSPropertyOp10
 70
     1
102
RTVSPropertyOp11
 70
     1
102
RTVSPropertyOp12
 70
     1
102
RTVSPropertyOp13
 70
     1
102
RTVSPropertyOp14
 70
     1
102
RTVSPropertyOp15
 70
     1
102
RTVSPropertyOp16
 70
     1
102
RTVSPropertyOp17
 70
     1
102
RTVSPropertyOp18
 70
     1
102
RTVSPropertyOp19
 70
     1
102
RTVSPropertyOp20
 70
     1
102
RTVSPropertyOp21
 70
     1
102
RTVSPropertyOp22
 70
     1
102
RTVSPropertyOp23
 70
     1
102
RTVSPropertyOp24
 70
     1
102
RTVSPropertyOp25
 70
     1
102
RTVSPropertyOp26
 70
     1
102
RTVSPropertyOp27
 70
     1
102
RTVSPropertyOp28
 70
     1
102
RTVSPropertyOp29
 70
     1
102
RTVSPropertyOp30
 70
     1
102
RTVSPropertyOp31
 70
     1
102
RTVSPropertyOp32
 70
     1
102
RTVSPropertyOp33
 70
     1
102
RTVSPropertyOp34
 70
     1
102
RTVSPropertyOp35
 70
     1
102
RTVSPropertyOp36
 70
     1
102
RTVSPropertyOp37
 70
     1
102
RTVSPropertyOp38
 70
     1
102
RTVSPropertyOp39
 70
     1
102
RTVSPropertyOp40
 70
     1
102
RTVSPropertyOp41
 70
     1
102
RTVSPropertyOp42
 70
     1
102
RTVSPropertyOp43
 70
     1
102
RTVSPropertyOp44
 70
     1
102
RTVSPropertyOp45
 70
     1
102
RTVSPropertyOp46
 70
     1
102
RTVSPropertyOp47
 70
     1
102
RTVSPropertyOp48
 70
     1
102
RTVSPropertyOp49
 70
     1
102
RTVSPropertyOp50
 70
     1
102
RTVSPropertyOp51
 70
     0
102
RTVSPropertyOp52
 70
     0
102
RTVSPropertyOp53
 70
     1
102
RTVSPropertyOp54
 70
     1
102
RTVSPropertyOp55
 70
     1
102
RTVSPropertyOp56
 70
     1
102
RTVSPropertyOp57
 70
     1
102
RTVSPropertyOp58
 70
     1
102
RTVSPropertyOp59
 70
     1
102
RTVSPropertyOp60
 70
     1
102
RTVSPropertyOp61
 70
     1
102
RTVSPropertyOp62
 70
     1
  0
XRECORD
  5
6C0
102
{ACAD_REACTORS
330
6BF
102
}
330
6BF
100
AcDbXrecord
280
     1
102
RTVSPost2010Prop28
280
     0
102
RTVSPost2010PropOp28
 70
     1
102
RTVSPost2010Prop29
280
     1
102
RTVSPost2010PropOp29
 70
     1
102
RTVSPost2010Prop30
280
     1
102
RTVSPost2010PropOp30
 70
     1
102
RTVSPost2010Prop31
280
     0
102
RTVSPost2010PropOp31
 70
     1
102
RTVSPost2010Prop32
280
     0
102
RTVSPost2010PropOp32
 70
     1
102
RTVSPost2010Prop33
280
     0
102
RTVSPost2010PropOp33
 70
     1
102
RTVSPost2010Prop34
280
     0
102
RTVSPost2010PropOp34
 70
     1
102
RTVSPost2010Prop35
280
     0
102
RTVSPost2010PropOp35
 70
     1
102
RTVSPost2010Prop36
280
     0
102
RTVSPost2010PropOp36
 70
     1
102
RTVSPost2010Prop37
 90
       50
102
RTVSPost2010PropOp37
 70
     1
102
RTVSPost2010Prop38
140
0.0
102
RTVSPost2010PropOp38
 70
     1
102
RTVSPost2010Prop39
140
1.0
102
RTVSPost2010PropOp39
 70
     1
102
RTVSPost2010Prop40
 90
        0
102
RTVSPost2010PropOp40
 70
     1
102
RTVSPost2010Prop41ColorIndex
 90
       18
102
RTVSPost2010Prop41ColorRGB
 90
        0
102
RTVSPost2010PropOp41
 70
     1
102
RTVSPost2010Prop42
 90
       50
102
RTVSPost2010PropOp42
 70
     1
102
RTVSPost2010Prop43
 90
        3
102
RTVSPost2010PropOp43
 70
     1
102
RTVSPost2010Prop44ColorIndex
 90
        5
102
RTVSPost2010Prop44ColorRGB
 90
      255
102
RTVSPost2010PropOp44
 70
     1
102
RTVSPost2010Prop45
280
     0
102
RTVSPost2010PropOp45
 70
     1
102
RTVSPost2010Prop46
 90
       50
102
RTVSPost2010PropOp46
 70
     1
102
RTVSPost2010Prop47
 90
       50
102
RTVSPost2010PropOp47
 70
     1
102
RTVSPost2010Prop48
 90
       50
102
RTVSPost2010PropOp48
 70
     1
102
RTVSPost2010Prop49
280
     0
102
RTVSPost2010PropOp49
 70
     1
102
RTVSPost2010Prop50
 90
       50
102
RTVSPost2010PropOp50
 70
     1
102
RTVSPost2010Prop51ColorIndex
 90
      256
102
RTVSPost2010Prop51ColorRGB
 90
-16777216
102
RTVSPost2010PropOp51
 70
     0
102
RTVSPost2010Prop52
140
1.0
102
RTVSPost2010PropOp52
 70
     0
102
RTVSPost2010Prop53
 90
        2
102
RTVSPost2010PropOp53
 70
     1
102
RTVSPost2010Prop54
  1
strokes_ogs.tif
102
RTVSPost2010PropOp54
 70
     1
102
RTVSPost2010Prop55
280
     0
102
RTVSPost2010PropOp55
 70
     1
102
RTVSPost2010Prop56
140
1.0
102
RTVSPost2010PropOp56
 70
     1
102
RTVSPost2010Prop57
140
1.0
102
RTVSPost2010PropOp57
 70
     1
102
RTVSPropertyOp0
 70
     1
102
RTVSPropertyOp1
 70
     1
102
RTVSPropertyOp2
 70
     1
102
RTVSPropertyOp3
 70
     1
102
RTVSPropertyOp4
 70
     1
102
RTVSPropertyOp5
 70
     1
102
RTVSPropertyOp6
 70
     1
102
RTVSPropertyOp7
 70
     1
102
RTVSPropertyOp8
 70
     1
102
RTVSPropertyOp9
 70
     1
102
RTVSPropertyOp10
 70
     1
102
RTVSPropertyOp11
 70
     1
102
RTVSPropertyOp12
 70
     1
102
RTVSPropertyOp13
 70
     1
102
RTVSPropertyOp14
 70
     1
102
RTVSPropertyOp15
 70
     1
102
RTVSPropertyOp16
 70
     1
102
RTVSPropertyOp17
 70
     1
102
RTVSPropertyOp18
 70
     1
102
RTVSPropertyOp19
 70
     1
102
RTVSPropertyOp20
 70
     1
102
RTVSPropertyOp21
 70
     1
102
RTVSPropertyOp22
 70
     1
102
RTVSPropertyOp23
 70
     1
102
RTVSPropertyOp24
 70
     1
102
RTVSPropertyOp25
 70
     1
102
RTVSPropertyOp26
 70
     1
102
RTVSPropertyOp27
 70
     1
102
RTVSPropertyOp28
 70
     1
102
RTVSPropertyOp29
 70
     1
102
RTVSPropertyOp30
 70
     1
102
RTVSPropertyOp31
 70
     1
102
RTVSPropertyOp32
 70
     1
102
RTVSPropertyOp33
 70
     1
102
RTVSPropertyOp34
 70
     1
102
RTVSPropertyOp35
 70
     1
102
RTVSPropertyOp36
 70
     1
102
RTVSPropertyOp37
 70
     1
102
RTVSPropertyOp38
 70
     1
102
RTVSPropertyOp39
 70
     1
102
RTVSPropertyOp40
 70
     1
102
RTVSPropertyOp41
 70
     1
102
RTVSPropertyOp42
 70
     1
102
RTVSPropertyOp43
 70
     1
102
RTVSPropertyOp44
 70
     1
102
RTVSPropertyOp45
 70
     1
102
RTVSPropertyOp46
 70
     1
102
RTVSPropertyOp47
 70
     1
102
RTVSPropertyOp48
 70
     1
102
RTVSPropertyOp49
 70
     1
102
RTVSPropertyOp50
 70
     1
102
RTVSPropertyOp51
 70
     0
102
RTVSPropertyOp52
 70
     0
102
RTVSPropertyOp53
 70
     1
102
RTVSPropertyOp54
 70
     1
102
RTVSPropertyOp55
 70
     1
102
RTVSPropertyOp56
 70
     1
102
RTVSPropertyOp57
 70
     1
102
RTVSPropertyOp58
 70
     1
102
RTVSPropertyOp59
 70
     1
102
RTVSPropertyOp60
 70
     1
102
RTVSPropertyOp61
 70
     1
102
RTVSPropertyOp62
 70
     1
  0
XRECORD
  5
6B4
102
{ACAD_REACTORS
330
6B3
102
}
330
6B3
100
AcDbXrecord
280
     1
102
RTVSPost2010Prop28
280
     0
102
RTVSPost2010PropOp28
 70
     1
102
RTVSPost2010Prop29
280
     1
102
RTVSPost2010PropOp29
 70
     1
102
RTVSPost2010Prop30
280
     1
102
RTVSPost2010PropOp30
 70
     1
102
RTVSPost2010Prop31
280
     0
102
RTVSPost2010PropOp31
 70
     1
102
RTVSPost2010Prop32
280
     0
102
RTVSPost2010PropOp32
 70
     1
102
RTVSPost2010Prop33
280
     0
102
RTVSPost2010PropOp33
 70
     1
102
RTVSPost2010Prop34
280
     0
102
RTVSPost2010PropOp34
 70
     1
102
RTVSPost2010Prop35
280
     0
102
RTVSPost2010PropOp35
 70
     1
102
RTVSPost2010Prop36
280
     0
102
RTVSPost2010PropOp36
 70
     1
102
RTVSPost2010Prop37
 90
       50
102
RTVSPost2010PropOp37
 70
     1
102
RTVSPost2010Prop38
140
0.0
102
RTVSPost2010PropOp38
 70
     1
102
RTVSPost2010Prop39
140
1.0
102
RTVSPost2010PropOp39
 70
     1
102
RTVSPost2010Prop40
 90
        0
102
RTVSPost2010PropOp40
 70
     1
102
RTVSPost2010Prop41ColorIndex
 90
       18
102
RTVSPost2010Prop41ColorRGB
 90
        0
102
RTVSPost2010PropOp41
 70
     1
102
RTVSPost2010Prop42
 90
       50
102
RTVSPost2010PropOp42
 70
     1
102
RTVSPost2010Prop43
 90
        3
102
RTVSPost2010PropOp43
 70
     1
102
RTVSPost2010Prop44ColorIndex
 90
        5
102
RTVSPost2010Prop44ColorRGB
 90
      255
102
RTVSPost2010PropOp44
 70
     1
102
RTVSPost2010Prop45
280
     0
102
RTVSPost2010PropOp45
 70
     1
102
RTVSPost2010Prop46
 90
       50
102
RTVSPost2010PropOp46
 70
     1
102
RTVSPost2010Prop47
 90
       50
102
RTVSPost2010PropOp47
 70
     1
102
RTVSPost2010Prop48
 90
       50
102
RTVSPost2010PropOp48
 70
     1
102
RTVSPost2010Prop49
280
     0
102
RTVSPost2010PropOp49
 70
     1
102
RTVSPost2010Prop50
 90
       50
102
RTVSPost2010PropOp50
 70
     1
102
RTVSPost2010Prop51ColorIndex
 90
      256
102
RTVSPost2010Prop51ColorRGB
 90
-16777216
102
RTVSPost2010PropOp51
 70
     0
102
RTVSPost2010Prop52
140
1.0
102
RTVSPost2010PropOp52
 70
     0
102
RTVSPost2010Prop53
 90
        2
102
RTVSPost2010PropOp53
 70
     1
102
RTVSPost2010Prop54
  1
strokes_ogs.tif
102
RTVSPost2010PropOp54
 70
     1
102
RTVSPost2010Prop55
280
     0
102
RTVSPost2010PropOp55
 70
     1
102
RTVSPost2010Prop56
140
1.0
102
RTVSPost2010PropOp56
 70
     1
102
RTVSPost2010Prop57
140
1.0
102
RTVSPost2010PropOp57
 70
     1
102
RTVSPropertyOp0
 70
     1
102
RTVSPropertyOp1
 70
     1
102
RTVSPropertyOp2
 70
     1
102
RTVSPropertyOp3
 70
     1
102
RTVSPropertyOp4
 70
     1
102
RTVSPropertyOp5
 70
     1
102
RTVSPropertyOp6
 70
     1
102
RTVSPropertyOp7
 70
     1
102
RTVSPropertyOp8
 70
     1
102
RTVSPropertyOp9
 70
     1
102
RTVSPropertyOp10
 70
     1
102
RTVSPropertyOp11
 70
     1
102
RTVSPropertyOp12
 70
     1
102
RTVSPropertyOp13
 70
     1
102
RTVSPropertyOp14
 70
     1
102
RTVSPropertyOp15
 70
     1
102
RTVSPropertyOp16
 70
     1
102
RTVSPropertyOp17
 70
     1
102
RTVSPropertyOp18
 70
     1
102
RTVSPropertyOp19
 70
     1
102
RTVSPropertyOp20
 70
     1
102
RTVSPropertyOp21
 70
     1
102
RTVSPropertyOp22
 70
     1
102
RTVSPropertyOp23
 70
     1
102
RTVSPropertyOp24
 70
     1
102
RTVSPropertyOp25
 70
     1
102
RTVSPropertyOp26
 70
     1
102
RTVSPropertyOp27
 70
     1
102
RTVSPropertyOp28
 70
     1
102
RTVSPropertyOp29
 70
     1
102
RTVSPropertyOp30
 70
     1
102
RTVSPropertyOp31
 70
     1
102
RTVSPropertyOp32
 70
     1
102
RTVSPropertyOp33
 70
     1
102
RTVSPropertyOp34
 70
     1
102
RTVSPropertyOp35
 70
     1
102
RTVSPropertyOp36
 70
     1
102
RTVSPropertyOp37
 70
     1
102
RTVSPropertyOp38
 70
     1
102
RTVSPropertyOp39
 70
     1
102
RTVSPropertyOp40
 70
     1
102
RTVSPropertyOp41
 70
     1
102
RTVSPropertyOp42
 70
     1
102
RTVSPropertyOp43
 70
     1
102
RTVSPropertyOp44
 70
     1
102
RTVSPropertyOp45
 70
     1
102
RTVSPropertyOp46
 70
     1
102
RTVSPropertyOp47
 70
     1
102
RTVSPropertyOp48
 70
     1
102
RTVSPropertyOp49
 70
     1
102
RTVSPropertyOp50
 70
     1
102
RTVSPropertyOp51
 70
     0
102
RTVSPropertyOp52
 70
     0
102
RTVSPropertyOp53
 70
     1
102
RTVSPropertyOp54
 70
     1
102
RTVSPropertyOp55
 70
     1
102
RTVSPropertyOp56
 70
     1
102
RTVSPropertyOp57
 70
     1
102
RTVSPropertyOp58
 70
     1
102
RTVSPropertyOp59
 70
     1
102
RTVSPropertyOp60
 70
     1
102
RTVSPropertyOp61
 70
     1
102
RTVSPropertyOp62
 70
     1
  0
XRECORD
  5
6CC
102
{ACAD_REACTORS
330
6CB
102
}
330
6CB
100
AcDbXrecord
280
     1
102
RTVSPost2010Prop28
280
     0
102
RTVSPost2010PropOp28
 70
     1
102
RTVSPost2010Prop29
280
     1
102
RTVSPost2010PropOp29
 70
     1
102
RTVSPost2010Prop30
280
     1
102
RTVSPost2010PropOp30
 70
     1
102
RTVSPost2010Prop31
280
     0
102
RTVSPost2010PropOp31
 70
     1
102
RTVSPost2010Prop32
280
     0
102
RTVSPost2010PropOp32
 70
     1
102
RTVSPost2010Prop33
280
     0
102
RTVSPost2010PropOp33
 70
     1
102
RTVSPost2010Prop34
280
     0
102
RTVSPost2010PropOp34
 70
     1
102
RTVSPost2010Prop35
280
     0
102
RTVSPost2010PropOp35
 70
     1
102
RTVSPost2010Prop36
280
     0
102
RTVSPost2010PropOp36
 70
     1
102
RTVSPost2010Prop37
 90
       50
102
RTVSPost2010PropOp37
 70
     1
102
RTVSPost2010Prop38
140
0.0
102
RTVSPost2010PropOp38
 70
     1
102
RTVSPost2010Prop39
140
1.0
102
RTVSPost2010PropOp39
 70
     1
102
RTVSPost2010Prop40
 90
        0
102
RTVSPost2010PropOp40
 70
     1
102
RTVSPost2010Prop41ColorIndex
 90
       18
102
RTVSPost2010Prop41ColorRGB
 90
        0
102
RTVSPost2010PropOp41
 70
     1
102
RTVSPost2010Prop42
 90
       50
102
RTVSPost2010PropOp42
 70
     1
102
RTVSPost2010Prop43
 90
        3
102
RTVSPost2010PropOp43
 70
     1
102
RTVSPost2010Prop44ColorIndex
 90
        5
102
RTVSPost2010Prop44ColorRGB
 90
      255
102
RTVSPost2010PropOp44
 70
     1
102
RTVSPost2010Prop45
280
     0
102
RTVSPost2010PropOp45
 70
     1
102
RTVSPost2010Prop46
 90
       50
102
RTVSPost2010PropOp46
 70
     1
102
RTVSPost2010Prop47
 90
       50
102
RTVSPost2010PropOp47
 70
     1
102
RTVSPost2010Prop48
 90
       50
102
RTVSPost2010PropOp48
 70
     1
102
RTVSPost2010Prop49
280
     0
102
RTVSPost2010PropOp49
 70
     1
102
RTVSPost2010Prop50
 90
       50
102
RTVSPost2010PropOp50
 70
     1
102
RTVSPost2010Prop51ColorIndex
 90
      256
102
RTVSPost2010Prop51ColorRGB
 90
-16777216
102
RTVSPost2010PropOp51
 70
     0
102
RTVSPost2010Prop52
140
1.0
102
RTVSPost2010PropOp52
 70
     0
102
RTVSPost2010Prop53
 90
        2
102
RTVSPost2010PropOp53
 70
     1
102
RTVSPost2010Prop54
  1
strokes_ogs.tif
102
RTVSPost2010PropOp54
 70
     1
102
RTVSPost2010Prop55
280
     0
102
RTVSPost2010PropOp55
 70
     1
102
RTVSPost2010Prop56
140
1.0
102
RTVSPost2010PropOp56
 70
     1
102
RTVSPost2010Prop57
140
1.0
102
RTVSPost2010PropOp57
 70
     1
102
RTVSPropertyOp0
 70
     1
102
RTVSPropertyOp1
 70
     1
102
RTVSPropertyOp2
 70
     1
102
RTVSPropertyOp3
 70
     1
102
RTVSPropertyOp4
 70
     1
102
RTVSPropertyOp5
 70
     1
102
RTVSPropertyOp6
 70
     1
102
RTVSPropertyOp7
 70
     1
102
RTVSPropertyOp8
 70
     1
102
RTVSPropertyOp9
 70
     1
102
RTVSPropertyOp10
 70
     1
102
RTVSPropertyOp11
 70
     1
102
RTVSPropertyOp12
 70
     1
102
RTVSPropertyOp13
 70
     1
102
RTVSPropertyOp14
 70
     1
102
RTVSPropertyOp15
 70
     1
102
RTVSPropertyOp16
 70
     1
102
RTVSPropertyOp17
 70
     1
102
RTVSPropertyOp18
 70
     1
102
RTVSPropertyOp19
 70
     1
102
RTVSPropertyOp20
 70
     1
102
RTVSPropertyOp21
 70
     1
102
RTVSPropertyOp22
 70
     1
102
RTVSPropertyOp23
 70
     1
102
RTVSPropertyOp24
 70
     1
102
RTVSPropertyOp25
 70
     1
102
RTVSPropertyOp26
 70
     1
102
RTVSPropertyOp27
 70
     1
102
RTVSPropertyOp28
 70
     1
102
RTVSPropertyOp29
 70
     1
102
RTVSPropertyOp30
 70
     1
102
RTVSPropertyOp31
 70
     1
102
RTVSPropertyOp32
 70
     1
102
RTVSPropertyOp33
 70
     1
102
RTVSPropertyOp34
 70
     1
102
RTVSPropertyOp35
 70
     1
102
RTVSPropertyOp36
 70
     1
102
RTVSPropertyOp37
 70
     1
102
RTVSPropertyOp38
 70
     1
102
RTVSPropertyOp39
 70
     1
102
RTVSPropertyOp40
 70
     1
102
RTVSPropertyOp41
 70
     1
102
RTVSPropertyOp42
 70
     1
102
RTVSPropertyOp43
 70
     1
102
RTVSPropertyOp44
 70
     1
102
RTVSPropertyOp45
 70
     1
102
RTVSPropertyOp46
 70
     1
102
RTVSPropertyOp47
 70
     1
102
RTVSPropertyOp48
 70
     1
102
RTVSPropertyOp49
 70
     1
102
RTVSPropertyOp50
 70
     1
102
RTVSPropertyOp51
 70
     0
102
RTVSPropertyOp52
 70
     0
102
RTVSPropertyOp53
 70
     1
102
RTVSPropertyOp54
 70
     1
102
RTVSPropertyOp55
 70
     1
102
RTVSPropertyOp56
 70
     1
102
RTVSPropertyOp57
 70
     1
102
RTVSPropertyOp58
 70
     1
102
RTVSPropertyOp59
 70
     1
102
RTVSPropertyOp60
 70
     1
102
RTVSPropertyOp61
 70
     1
102
RTVSPropertyOp62
 70
     1
  0
ENDSEC
  0
EOF
