  0
SECTION
  2
HEADER
  9
$ACADVER
  1
AC1015
  9
$ACADMAINTVER
 70
    20
  9
$DWGCODEPAGE
  3
ANSI_932
  9
$INSBASE
 10
0.0
 20
0.0
 30
0.0
  9
$EXTMIN
 10
-29.63471357794197
 20
-181.7137261833187
 30
0.0
  9
$EXTMAX
 10
400.2256071619136
 20
452.1716752369904
 30
0.0
  9
$LIMMIN
 10
0.0
 20
0.0
  9
$LIMMAX
 10
12.0
 20
9.0
  9
$ORTHOMODE
 70
     0
  9
$REGENMODE
 70
     1
  9
$FILLMODE
 70
     1
  9
$QTEXTMODE
 70
     0
  9
$MIRRTEXT
 70
     0
  9
$LTSCALE
 40
1.0
  9
$ATTMODE
 70
     1
  9
$TEXTSIZE
 40
0.2
  9
$TRACEWID
 40
0.05
  9
$TEXTSTYLE
  7
Standard
  9
$CLAYER
  8
0
  9
$CELTYPE
  6
Continuous
  9
$CECOLOR
 62
   256
  9
$CELTSCALE
 40
1.0
  9
$DISPSILH
 70
     0
  9
$DIMSCALE
 40
1.0
  9
$DIMASZ
 40
0.18
  9
$DIMEXO
 40
0.0625
  9
$DIMDLI
 40
0.38
  9
$DIMRND
 40
0.0
  9
$DIMDLE
 40
0.0
  9
$DIMEXE
 40
0.18
  9
$DIMTP
 40
0.0
  9
$DIMTM
 40
0.0
  9
$DIMTXT
 40
0.18
  9
$DIMCEN
 40
0.09
  9
$DIMTSZ
 40
0.0
  9
$DIMTOL
 70
     0
  9
$DIMLIM
 70
     0
  9
$DIMTIH
 70
     1
  9
$DIMTOH
 70
     1
  9
$DIMSE1
 70
     0
  9
$DIMSE2
 70
     0
  9
$DIMTAD
 70
     0
  9
$DIMZIN
 70
     0
  9
$DIMBLK
  1

  9
$DIMASO
 70
     1
  9
$DIMSHO
 70
     1
  9
$DIMPOST
  1

  9
$DIMAPOST
  1

  9
$DIMALT
 70
     0
  9
$DIMALTD
 70
     2
  9
$DIMALTF
 40
25.4
  9
$DIMLFAC
 40
1.0
  9
$DIMTOFL
 70
     0
  9
$DIMTVP
 40
0.0
  9
$DIMTIX
 70
     0
  9
$DIMSOXD
 70
     0
  9
$DIMSAH
 70
     0
  9
$DIMBLK1
  1

  9
$DIMBLK2
  1

  9
$DIMSTYLE
  2
Standard
  9
$DIMCLRD
 70
     0
  9
$DIMCLRE
 70
     0
  9
$DIMCLRT
 70
     0
  9
$DIMTFAC
 40
1.0
  9
$DIMGAP
 40
0.09
  9
$DIMJUST
 70
     0
  9
$DIMSD1
 70
     0
  9
$DIMSD2
 70
     0
  9
$DIMTOLJ
 70
     1
  9
$DIMTZIN
 70
     0
  9
$DIMALTZ
 70
     0
  9
$DIMALTTZ
 70
     0
  9
$DIMUPT
 70
     0
  9
$DIMDEC
 70
     4
  9
$DIMTDEC
 70
     4
  9
$DIMALTU
 70
     2
  9
$DIMALTTD
 70
     2
  9
$DIMTXSTY
  7
Standard
  9
$DIMAUNIT
 70
     0
  9
$DIMADEC
 70
     0
  9
$DIMALTRND
 40
0.0
  9
$DIMAZIN
 70
     0
  9
$DIMDSEP
 70
    46
  9
$DIMATFIT
 70
     3
  9
$DIMFRAC
 70
     0
  9
$DIMLDRBLK
  1

  9
$DIMLUNIT
 70
     2
  9
$DIMLWD
 70
    -2
  9
$DIMLWE
 70
    -2
  9
$DIMTMOVE
 70
     0
  9
$LUNITS
 70
     2
  9
$LUPREC
 70
     4
  9
$SKETCHINC
 40
0.1
  9
$FILLETRAD
 40
0.0
  9
$AUNITS
 70
     0
  9
$AUPREC
 70
     0
  9
$MENU
  1
.
  9
$ELEVATION
 40
0.0
  9
$PELEVATION
 40
0.0
  9
$THICKNESS
 40
0.0
  9
$LIMCHECK
 70
     0
  9
$CHAMFERA
 40
0.0
  9
$CHAMFERB
 40
0.0
  9
$CHAMFERC
 40
0.0
  9
$CHAMFERD
 40
0.0
  9
$SKPOLY
 70
     0
  9
$TDCREATE
 40
2457786.907951828
  9
$TDUCREATE
 40
2457786.532951828
  9
$TDUPDATE
 40
2457786.911725174
  9
$TDUUPDATE
 40
2457786.536725174
  9
$TDINDWG
 40
0.0037744560
  9
$TDUSRTIMER
 40
0.0037744560
  9
$USRTIMER
 70
     1
  9
$ANGBASE
 50
0.0
  9
$ANGDIR
 70
     0
  9
$PDMODE
 70
     0
  9
$PDSIZE
 40
0.0
  9
$PLINEWID
 40
0.0
  9
$SPLFRAME
 70
     0
  9
$SPLINETYPE
 70
     6
  9
$SPLINESEGS
 70
     8
  9
$HANDSEED
  5
663
  9
$SURFTAB1
 70
     6
  9
$SURFTAB2
 70
     6
  9
$SURFTYPE
 70
     6
  9
$SURFU
 70
     6
  9
$SURFV
 70
     6
  9
$UCSBASE
  2

  9
$UCSNAME
  2

  9
$UCSORG
 10
0.0
 20
0.0
 30
0.0
  9
$UCSXDIR
 10
1.0
 20
0.0
 30
0.0
  9
$UCSYDIR
 10
0.0
 20
1.0
 30
0.0
  9
$UCSORTHOREF
  2

  9
$UCSORTHOVIEW
 70
     0
  9
$UCSORGTOP
 10
0.0
 20
0.0
 30
0.0
  9
$UCSORGBOTTOM
 10
0.0
 20
0.0
 30
0.0
  9
$UCSORGLEFT
 10
0.0
 20
0.0
 30
0.0
  9
$UCSORGRIGHT
 10
0.0
 20
0.0
 30
0.0
  9
$UCSORGFRONT
 10
0.0
 20
0.0
 30
0.0
  9
$UCSORGBACK
 10
0.0
 20
0.0
 30
0.0
  9
$PUCSBASE
  2

  9
$PUCSNAME
  2

  9
$PUCSORG
 10
0.0
 20
0.0
 30
0.0
  9
$PUCSXDIR
 10
1.0
 20
0.0
 30
0.0
  9
$PUCSYDIR
 10
0.0
 20
1.0
 30
0.0
  9
$PUCSORTHOREF
  2

  9
$PUCSORTHOVIEW
 70
     0
  9
$PUCSORGTOP
 10
0.0
 20
0.0
 30
0.0
  9
$PUCSORGBOTTOM
 10
0.0
 20
0.0
 30
0.0
  9
$PUCSORGLEFT
 10
0.0
 20
0.0
 30
0.0
  9
$PUCSORGRIGHT
 10
0.0
 20
0.0
 30
0.0
  9
$PUCSORGFRONT
 10
0.0
 20
0.0
 30
0.0
  9
$PUCSORGBACK
 10
0.0
 20
0.0
 30
0.0
  9
$USERI1
 70
     0
  9
$USERI2
 70
     0
  9
$USERI3
 70
     0
  9
$USERI4
 70
     0
  9
$USERI5
 70
     0
  9
$USERR1
 40
0.0
  9
$USERR2
 40
0.0
  9
$USERR3
 40
0.0
  9
$USERR4
 40
0.0
  9
$USERR5
 40
0.0
  9
$WORLDVIEW
 70
     1
  9
$SHADEDGE
 70
     3
  9
$SHADEDIF
 70
    70
  9
$TILEMODE
 70
     1
  9
$MAXACTVP
 70
    64
  9
$PINSBASE
 10
0.0
 20
0.0
 30
0.0
  9
$PLIMCHECK
 70
     0
  9
$PEXTMIN
 10
1.000000000000000E+20
 20
1.000000000000000E+20
 30
1.000000000000000E+20
  9
$PEXTMAX
 10
-1.000000000000000E+20
 20
-1.000000000000000E+20
 30
-1.000000000000000E+20
  9
$PLIMMIN
 10
0.0
 20
0.0
  9
$PLIMMAX
 10
12.0
 20
9.0
  9
$UNITMODE
 70
     0
  9
$VISRETAIN
 70
     1
  9
$PLINEGEN
 70
     0
  9
$PSLTSCALE
 70
     1
  9
$TREEDEPTH
 70
  3020
  9
$CMLSTYLE
  2
Standard
  9
$CMLJUST
 70
     0
  9
$CMLSCALE
 40
1.0
  9
$PROXYGRAPHICS
 70
     1
  9
$MEASUREMENT
 70
     0
  9
$CELWEIGHT
370
    -1
  9
$ENDCAPS
280
     0
  9
$JOINSTYLE
280
     0
  9
$LWDISPLAY
290
     0
  9
$INSUNITS
 70
     0
  9
$HYPERLINKBASE
  1

  9
$STYLESHEET
  1

  9
$XEDIT
290
     1
  9
$CEPSNTYPE
380
     0
  9
$PSTYLEMODE
290
     1
  9
$FINGERPRINTGUID
  2
{60DAAA97-CBEB-44B6-B462-48A176F04039}
  9
$VERSIONGUID
  2
{4B4BF0CA-C156-4216-B711-0418B9740B84}
  9
$EXTNAMES
290
     1
  9
$PSVPSCALE
 40
0.0
  9
$OLESTARTUP
290
     0
  0
ENDSEC
  0
SECTION
  2
CLASSES
  0
CLASS
  1
ACDBDICTIONARYWDFLT
  2
AcDbDictionaryWithDefault
  3
ObjectDBX Classes
 90
        0
280
     0
281
     0
  0
CLASS
  1
MATERIAL
  2
AcDbMaterial
  3
ObjectDBX Classes
 90
     1153
280
     0
281
     0
  0
CLASS
  1
VISUALSTYLE
  2
AcDbVisualStyle
  3
ObjectDBX Classes
 90
     4095
280
     0
281
     0
  0
CLASS
  1
SCALE
  2
AcDbScale
  3
ObjectDBX Classes
 90
     1153
280
     0
281
     0
  0
CLASS
  1
TABLESTYLE
  2
AcDbTableStyle
  3
ObjectDBX Classes
 90
     4095
280
     0
281
     0
  0
CLASS
  1
MLEADERSTYLE
  2
AcDbMLeaderStyle
  3
ACDB_MLEADERSTYLE_CLASS
 90
     4095
280
     0
281
     0
  0
CLASS
  1
ACDBSECTIONVIEWSTYLE
  2
AcDbSectionViewStyle
  3
ObjectDBX Classes
 90
     1025
280
     0
281
     0
  0
CLASS
  1
ACDBDETAILVIEWSTYLE
  2
AcDbDetailViewStyle
  3
ObjectDBX Classes
 90
     1025
280
     0
281
     0
  0
CLASS
  1
AMGSETTINGSOBJ
  2
AmgSettingsObj
  3
"AcadM|Product Description: AutoCAD Mechanical|Company: Autodesk, Inc."
 90
     1024
280
     0
281
     0
  0
CLASS
  1
ACME_DOCUMENT
  2
AcMeDbDoc
  3
AcMeServices
 90
     1024
280
     0
281
     0
  0
CLASS
  1
ACMESCOPE
  2
AcMeScope
  3
AcMeServices
 90
     1024
280
     0
281
     0
  0
CLASS
  1
ACMECOMMANDHISTORY
  2
AcMeCommandHistory
  3
AcMeServices
 90
     1024
280
     0
281
     0
  0
CLASS
  1
ACIMSYSVARMAN
  2
AcImSysVarManager
  3
AcMeServices
 90
     1024
280
     0
281
     0
  0
CLASS
  1
ACIMINTSYSVAR
  2
AcImIntSysVar
  3
AcMeServices
 90
     1024
280
     0
281
     0
  0
CLASS
  1
ACMESTATEMGR
  2
AcMeStateMgr
  3
AcMeServices
 90
     1024
280
     0
281
     0
  0
CLASS
  1
ACDBENTITYCACHE
  2
AcMeEntityCache
  3
AcMeServices
 90
     1024
280
     0
281
     0
  0
CLASS
  1
ACGREFMASTER
  2
AcGrefMaster
  3
AcAttribServices
 90
     1024
280
     0
281
     0
  0
CLASS
  1
ACME_DATABASE
  2
AcMeDbDatabase
  3
AcMeServices
 90
     1024
280
     0
281
     0
  0
CLASS
  1
ACRFINSADJUSTERMGR
  2
AcRfInsAdjusterMgr
  3
AcMeServices
 90
     1024
280
     0
281
     0
  0
CLASS
  1
ACGREFACADMASTER
  2
AcGrefacadMaster
  3
AcGrefServices
 90
     1024
280
     0
281
     0
  0
CLASS
  1
AMDTMENUSTATEMGR
  2
AmdtMenuStateMgr
  3
McadcomServices
 90
     1024
280
     0
281
     0
  0
CLASS
  1
AMDTMCOMMENUSTATE
  2
AmdtMcomMenuState
  3
McadcomServices
 90
     1024
280
     0
281
     0
  0
CLASS
  1
AMIMASTER
  2
AmiMaster
  3
AmiServices
 90
     1024
280
     0
281
     0
  0
CLASS
  1
MAPIAMMOUDLE
  2
MApiAmModule
  3
MApiAmServices
 90
     1024
280
     0
281
     0
  0
CLASS
  1
ACIMSTRSYSVAR
  2
AcImStrSysVar
  3
AcMeServices
 90
     1024
280
     0
281
     0
  0
CLASS
  1
AMDTAMMENUSTATE
  2
AmdtAmMenuState
  3
DesignerAssemblies
 90
     1024
280
     0
281
     0
  0
CLASS
  1
ACAMPROJECT
  2
AcAmProject
  3
DesignerAssemblies
 90
     1024
280
     0
281
     0
  0
CLASS
  1
ACAMGRCOMPDEF
  2
AcAmGrCompDef
  3
DesignerAssemblies
 90
     1024
280
     0
281
     0
  0
CLASS
  1
ACAMCOMPDEF
  2
AcAmCompDef
  3
DesignerAssemblies
 90
     1024
280
     0
281
     0
  0
CLASS
  1
ACAMCOMPDEFMGR
  2
AcAmCompDefMgr
  3
DesignerAssemblies
 90
     1024
280
     0
281
     0
  0
CLASS
  1
AMCONTEXTMGR
  2
AcAmContextMgr
  3
DesignerAssemblies
 90
     1024
280
     0
281
     0
  0
CLASS
  1
ACAMCONTEXTMODELER
  2
AcAmContextModeler
  3
DesignerAssemblies
 90
     1024
280
     0
281
     0
  0
CLASS
  1
ACMDATADICTIONARY
  2
AcmDataDictionary
  3
"AcmSymBB|Product Description: AutoCAD Mechanical|Company: Autodesk, Inc."
 90
     1024
280
     0
281
     0
  0
CLASS
  1
ACAMGRCOMPDEFSET
  2
AcAmGrCompDefSet
  3
DesignerAssemblies
 90
     1024
280
     0
281
     0
  0
CLASS
  1
AMDTBROWSERDBTAB
  2
AmdtBrowserDbTab
  3
McadcomServices
 90
     1024
280
     0
281
     0
  0
CLASS
  1
CBROWSERAPPOBJECT
  2
CBrowserAppObject
  3
McadcomServices
 90
     1024
280
     0
281
     0
  0
CLASS
  1
DM_PLACEHOLDER
  2
AcDmSelsetPlaceholder
  3
McadcomServices
 90
     1024
280
     0
281
     0
  0
CLASS
  1
EXACXREFPANELOBJECT
  2
ExAcXREFPanelObject
  3
EXAC_ESW
 90
     1025
280
     0
281
     0
  0
CLASS
  1
NPOCOLLECTION
  2
AcDbImpNonPersistentObjectsCollection
  3
ObjectDBX Classes
 90
     1153
280
     0
281
     0
  0
CLASS
  1
ACMSTANDARDANSI
  2
AcmStandardANSI
  3
"Amdt_StdImp|Product Description: AutoCAD Mechanical|Company: Autodesk, Inc."
 90
     1024
280
     0
281
     0
  0
CLASS
  1
ACMSURFSTANDARDANSI
  2
AcmSurfTextStdANSI
  3
"Amdt_StdImp|Product Description: AutoCAD Mechanical|Company: Autodesk, Inc."
 90
     1024
280
     0
281
     0
  0
CLASS
  1
ACMFCFSTANDARDANSI
  2
AcmFCFStdANSI
  3
"Amdt_StdImp|Product Description: AutoCAD Mechanical|Company: Autodesk, Inc."
 90
     1024
280
     0
281
     0
  0
CLASS
  1
ACMWELDSTANDARDANSI
  2
AcmWeldingStdANSI
  3
"Amdt_StdImp|Product Description: AutoCAD Mechanical|Company: Autodesk, Inc."
 90
     1024
280
     0
281
     0
  0
CLASS
  1
ACMIDSTANDARDANSI
  2
AcmIdStdANSI
  3
"Amdt_StdImp|Product Description: AutoCAD Mechanical|Company: Autodesk, Inc."
 90
     1024
280
     0
281
     0
  0
CLASS
  1
ACMDATUMSTANDARDANSI
  2
AcmDatumStdANSI
  3
"Amdt_StdImp|Product Description: AutoCAD Mechanical|Company: Autodesk, Inc."
 90
     1024
280
     0
281
     0
  0
CLASS
  1
ACMBOMSTANDARDANSI
  2
AcmBOMStdANSI
  3
"Amdt_StdImp|Product Description: AutoCAD Mechanical|Company: Autodesk, Inc."
 90
     1024
280
     0
281
     0
  0
CLASS
  1
ACMDETAILSTANDARDANSI
  2
AmdtDetailSymStdANSI
  3
"Amdt_StdImp|Product Description: AutoCAD Mechanical|Company: Autodesk, Inc."
 90
     1024
280
     0
281
     0
  0
CLASS
  1
ACMSECTIONSTANDARDANSI
  2
AmdtSectionSymStdANSI
  3
"Amdt_StdImp|Product Description: AutoCAD Mechanical|Company: Autodesk, Inc."
 90
     1024
280
     0
281
     0
  0
CLASS
  1
ACMCENTERLINESTANDARDANSI
  2
AmdtCenterLineStdANSI
  3
"Amdt_StdImp|Product Description: AutoCAD Mechanical|Company: Autodesk, Inc."
 90
     1024
280
     0
281
     0
  0
CLASS
  1
ACMTHREADLINESTANDARDANSI
  2
AmdtThreadLineStdANSI
  3
"Amdt_StdImp|Product Description: AutoCAD Mechanical|Company: Autodesk, Inc."
 90
     1024
280
     0
281
     0
  0
CLASS
  1
ACMNOTESTANDARDANSI
  2
AmdtNoteStdANSI
  3
"Amdt_StdImp|Product Description: AutoCAD Mechanical|Company: Autodesk, Inc."
 90
     1024
280
     0
281
     0
  0
CLASS
  1
ACMTAPERSTANDARDANSI
  2
AcmTaperStdANSI
  3
"Amdt_StdImp|Product Description: AutoCAD Mechanical|Company: Autodesk, Inc."
 90
     1024
280
     0
281
     0
  0
CLASS
  1
ACMANOOTATIONVIEWSTANDARDANSI
  2
AmdtAnViewStdANSI
  3
"Amdt_StdImp|Product Description: AutoCAD Mechanical|Company: Autodesk, Inc."
 90
     1024
280
     0
281
     0
  0
CLASS
  1
ACAMGLAYSTD
  2
AcAmgLayStd
  3
"AmgLay|Product Description: AutoCAD Mechanical|Company: Autodesk, Inc."
 90
     1024
280
     0
281
     0
  0
CLASS
  1
ACAMGDIMSTD
  2
AcAmgDimStd
  3
"AmgDim|Product Description: AutoCAD Mechanical|Company: Autodesk, Inc."
 90
     1024
280
     0
281
     0
  0
CLASS
  1
AMGOBJPROPCFG
  2
AmgObjPropCfg
  3
"AmgLay|Product Description: AutoCAD Mechanical|Company: Autodesk, Inc."
 90
     1024
280
     0
281
     0
  0
CLASS
  1
ACAMGHOLECHARTSTDANSI
  2
AcAmgHoleChartStdANSI
  3
AmgDim|Product Description: AutoCAD Mechanical|Company: Autodesk, Inc.
 90
     1024
280
     0
281
     0
  0
CLASS
  1
ACAMGTITLESTD
  2
AcAmgTitleStd
  3
"AmgTitle|Product Description: AutoCAD Mechanical|Company: Autodesk, Inc."
 90
     1024
280
     0
281
     0
  0
CLASS
  1
AMDTNOTETEMPLATEDB
  2
AmdtNoteTemplateDB
  3
AcmSymBB|Product Description: AutoCAD Mechanical|Company: Autodesk, Inc.
 90
     1024
280
     0
281
     0
  0
CLASS
  1
ACAMGFILTERDAT
  2
AcAmgFilterDat
  3
"AcadM|Product Description: AutoCAD Mechanical|Company: Autodesk, Inc."
 90
     1024
280
     0
281
     0
  0
CLASS
  1
SORTENTSTABLE
  2
AcDbSortentsTable
  3
ObjectDBX Classes
 90
        0
280
     0
281
     0
  0
CLASS
  1
CELLSTYLEMAP
  2
AcDbCellStyleMap
  3
ObjectDBX Classes
 90
     1152
280
     0
281
     0
  0
CLASS
  1
DICTIONARYVAR
  2
AcDbDictionaryVar
  3
ObjectDBX Classes
 90
        0
280
     0
281
     0
  0
CLASS
  1
ACDBPLACEHOLDER
  2
AcDbPlaceHolder
  3
ObjectDBX Classes
 90
        0
280
     0
281
     0
  0
CLASS
  1
LAYOUT
  2
AcDbLayout
  3
ObjectDBX Classes
 90
        0
280
     0
281
     0
  0
ENDSEC
  0
SECTION
  2
TABLES
  0
TABLE
  2
VPORT
  5
8
330
0
100
AcDbSymbolTable
 70
     1
  0
VPORT
  5
75
330
8
100
AcDbSymbolTableRecord
100
AcDbViewportTableRecord
  2
*Active
 70
     0
 10
0.0
 20
0.0
 11
1.0
 21
1.0
 12
249.3195688726762
 22
49.61166758716456
 13
0.0
 23
0.0
 14
1.0
 24
1.0
 15
0.0
 25
0.0
 16
0.0
 26
0.0
 36
1.0
 17
0.0
 27
0.0
 37
0.0
 40
1525.104165457867
 41
1.681623931623931
 42
50.0
 43
0.0
 44
0.0
 50
0.0
 51
0.0
 71
     0
 72
   100
 73
     1
 74
     1
 75
     0
 76
     0
 77
     0
 78
     0
281
     0
 65
     1
110
0.0
120
0.0
130
0.0
111
1.0
121
0.0
131
0.0
112
0.0
122
1.0
132
0.0
 79
     0
146
0.0
1001
ACAD_NAV_VCDISPLAY
1070
     3
  0
ENDTAB
  0
TABLE
  2
LTYPE
  5
5
330
0
100
AcDbSymbolTable
 70
     8
  0
LTYPE
  5
5A
330
5
100
AcDbSymbolTableRecord
100
AcDbLinetypeTableRecord
  2
ByBlock
 70
     0
  3

 72
    65
 73
     0
 40
0.0
  0
LTYPE
  5
5B
330
5
100
AcDbSymbolTableRecord
100
AcDbLinetypeTableRecord
  2
ByLayer
 70
     0
  3

 72
    65
 73
     0
 40
0.0
  0
LTYPE
  5
5C
330
5
100
AcDbSymbolTableRecord
100
AcDbLinetypeTableRecord
  2
Continuous
 70
     0
  3
Solid line
 72
    65
 73
     0
 40
0.0
  0
LTYPE
  5
68
330
5
100
AcDbSymbolTableRecord
100
AcDbLinetypeTableRecord
  2
PHANTOM2
 70
     0
  3
Phantom (.5x) ___ _ _ ___ _ _ ___ _ _ ___ _ _
 72
    65
 73
     6
 40
1.25
 49
0.625
 74
     0
 49
-0.125
 74
     0
 49
0.125
 74
     0
 49
-0.125
 74
     0
 49
0.125
 74
     0
 49
-0.125
 74
     0
  0
LTYPE
  5
18B
330
5
100
AcDbSymbolTableRecord
100
AcDbLinetypeTableRecord
  2
HIDDEN
 70
     0
  3
Hidden __ __ __ __ __ __ __ __ __ __ __ __ __ _
 72
    65
 73
     2
 40
0.375
 49
0.25
 74
     0
 49
-0.125
 74
     0
  0
LTYPE
  5
18C
330
5
100
AcDbSymbolTableRecord
100
AcDbLinetypeTableRecord
  2
CENTER
 70
     0
  3
Center ____ _ ____ _ ____ _ ____ _ ____ _ ____
 72
    65
 73
     4
 40
2.0
 49
1.25
 74
     0
 49
-0.25
 74
     0
 49
0.25
 74
     0
 49
-0.25
 74
     0
  0
LTYPE
  5
1C8
330
5
100
AcDbSymbolTableRecord
100
AcDbLinetypeTableRecord
  2
CENTER2
 70
     0
  3
Center (.5x) ___ _ ___ _ ___ _ ___ _ ___ _ ___
 72
    65
 73
     4
 40
1.125
 49
0.75
 74
     0
 49
-0.125
 74
     0
 49
0.125
 74
     0
 49
-0.125
 74
     0
  0
LTYPE
  5
1C9
330
5
100
AcDbSymbolTableRecord
100
AcDbLinetypeTableRecord
  2
HIDDEN2
 70
     0
  3
Hidden (.5x) _ _ _ _ _ _ _ _ _ _ _ _ _ _ _ _ _
 72
    65
 73
     2
 40
0.1875
 49
0.125
 74
     0
 49
-0.0625
 74
     0
  0
LTYPE
  5
1D7
330
5
100
AcDbSymbolTableRecord
100
AcDbLinetypeTableRecord
  2
ACANSTGB
 70
     0
  3
__ . . __ . .
 72
    65
 73
     6
 40
0.35433070866
 49
0.15748031496
 74
     0
 49
-0.03937007874
 74
     0
 49
0.03937007874
 74
     0
 49
-0.03937007874
 74
     0
 49
0.03937007874
 74
     0
 49
-0.03937007874
 74
     0
  0
LTYPE
  5
1D8
330
5
100
AcDbSymbolTableRecord
100
AcDbLinetypeTableRecord
  2
ACANSTGL
 70
     0
  3
_ _ _ _ _
 72
    65
 73
     2
 40
0.11811023622
 49
0.07874015748
 74
     0
 49
-0.03937007874
 74
     0
  0
ENDTAB
  0
TABLE
  2
LAYER
  5
2
330
0
100
AcDbSymbolTable
 70
     3
  0
LAYER
  5
54
102
{ACAD_XDICTIONARY
360
612
102
}
330
2
100
AcDbSymbolTableRecord
100
AcDbLayerTableRecord
  2
0
 70
     0
 62
     7
  6
Continuous
370
    -3
390
F
  0
LAYER
  5
1E9
102
{ACAD_XDICTIONARY
360
614
102
}
330
2
100
AcDbSymbolTableRecord
100
AcDbLayerTableRecord
  2
AM_CL
 70
     0
 62
     1
  6
Continuous
370
    15
390
F
1001
AcAecLayerStandard
1000

1000

  0
LAYER
  5
537
102
{ACAD_XDICTIONARY
360
616
102
}
330
2
100
AcDbSymbolTableRecord
100
AcDbLayerTableRecord
  2
AM_5
 70
     0
 62
     3
  6
Continuous
370
    15
390
F
1001
AcAecLayerStandard
1000

1000

  0
ENDTAB
  0
TABLE
  2
STYLE
  5
3
330
0
100
AcDbSymbolTable
 70
     4
  0
STYLE
  5
55
330
3
100
AcDbSymbolTableRecord
100
AcDbTextStyleTableRecord
  2
Standard
 70
     0
 40
0.0
 41
1.0
 50
0.0
 71
     0
 42
0.2
  3
txt
  4

  0
STYLE
  5
59
330
3
100
AcDbSymbolTableRecord
100
AcDbTextStyleTableRecord
  2
Annotative
 70
     0
 40
0.0
 41
1.0
 50
0.0
 71
     0
 42
0.2
  3
txt
  4

1001
AcadAnnotative
1000
AnnotativeData
1002
{
1070
     1
1070
     1
1002
}
  0
STYLE
  5
1D5
330
3
100
AcDbSymbolTableRecord
100
AcDbTextStyleTableRecord
  2
ACANSTS
 70
     0
 40
1.0
 41
1.0
 50
0.0
 71
     0
 42
0.2
  3
romans.shx
  4
extfont.shx
  0
STYLE
  5
1D6
330
3
100
AcDbSymbolTableRecord
100
AcDbTextStyleTableRecord
  2
ACANSGDT
 70
     0
 40
0.0
 41
1.0
 50
0.0
 71
     0
 42
0.2
  3
amgdt.shx
  4

  0
ENDTAB
  0
TABLE
  2
VIEW
  5
6
330
0
100
AcDbSymbolTable
 70
     0
  0
ENDTAB
  0
TABLE
  2
UCS
  5
7
330
0
100
AcDbSymbolTable
 70
     0
  0
ENDTAB
  0
TABLE
  2
APPID
  5
9
330
0
100
AcDbSymbolTable
 70
    15
  0
APPID
  5
56
330
9
100
AcDbSymbolTableRecord
100
AcDbRegAppTableRecord
  2
ACAD
 70
     0
  0
APPID
  5
5D
330
9
100
AcDbSymbolTableRecord
100
AcDbRegAppTableRecord
  2
AcadAnnotative
 70
     0
  0
APPID
  5
184
330
9
100
AcDbSymbolTableRecord
100
AcDbRegAppTableRecord
  2
MCAD_NO_VIS
 70
     0
  0
APPID
  5
185
330
9
100
AcDbSymbolTableRecord
100
AcDbRegAppTableRecord
  2
ACAD_TEMP_GRAPHIC
 70
     0
  0
APPID
  5
191
330
9
100
AcDbSymbolTableRecord
100
AcDbRegAppTableRecord
  2
ACATTRIBSERVICES
 70
     0
  0
APPID
  5
1A9
330
9
100
AcDbSymbolTableRecord
100
AcDbRegAppTableRecord
  2
DESIGNERASSEMBLIES
 70
     0
  0
APPID
  5
1C5
330
9
100
AcDbSymbolTableRecord
100
AcDbRegAppTableRecord
  2
ACAD_DSTYLE_DIMJAG
 70
     0
  0
APPID
  5
1C6
330
9
100
AcDbSymbolTableRecord
100
AcDbRegAppTableRecord
  2
ACAD_DSTYLE_DIMBREAK
 70
     0
  0
APPID
  5
1E0
330
9
100
AcDbSymbolTableRecord
100
AcDbRegAppTableRecord
  2
ACAD_NAV_VCDISPLAY
 70
     0
  0
APPID
  5
1EA
330
9
100
AcDbSymbolTableRecord
100
AcDbRegAppTableRecord
  2
AcAecLayerStandard
 70
     0
  0
APPID
  5
65A
330
9
100
AcDbSymbolTableRecord
100
AcDbRegAppTableRecord
  2
ACAD_MLEADERVER
 70
     0
  0
APPID
  5
65F
330
9
100
AcDbSymbolTableRecord
100
AcDbRegAppTableRecord
  2
ACAD_DSTYLE_DIMARC_LENGTH_SYMBOL
 70
     0
  0
APPID
  5
660
330
9
100
AcDbSymbolTableRecord
100
AcDbRegAppTableRecord
  2
ACAD_DSTYLE_DIM_LINETYPE
 70
     0
  0
APPID
  5
661
330
9
100
AcDbSymbolTableRecord
100
AcDbRegAppTableRecord
  2
ACAD_DSTYLE_DIM_EXT1_LINETYPE
 70
     0
  0
APPID
  5
662
330
9
100
AcDbSymbolTableRecord
100
AcDbRegAppTableRecord
  2
ACAD_DSTYLE_DIM_EXT2_LINETYPE
 70
     0
  0
ENDTAB
  0
TABLE
  2
DIMSTYLE
  5
A
330
0
100
AcDbSymbolTable
 70
     8
100
AcDbDimStyleTable
 71
     0
  0
DIMSTYLE
105
57
330
A
100
AcDbSymbolTableRecord
100
AcDbDimStyleTableRecord
  2
Standard
 70
     0
340
55
  0
DIMSTYLE
105
58
330
A
100
AcDbSymbolTableRecord
100
AcDbDimStyleTableRecord
  2
Annotative
 70
     0
340
55
1001
AcadAnnotative
1000
AnnotativeData
1002
{
1070
     1
1070
     1
1002
}
  0
DIMSTYLE
105
1C4
102
{ACAD_REACTORS
330
1B4
102
}
330
A
100
AcDbSymbolTableRecord
100
AcDbDimStyleTableRecord
  2
AM_ANSI
 70
     0
  4
mm
 41
0.12
 42
0.05
 43
0.5
 44
0.1
 47
0.1
 48
0.1
 78
     7
 79
     2
140
0.12
141
0.0
146
0.71
147
0.06
176
   256
177
   256
178
     2
274
     4
284
     7
340
55
371
    -1
372
    -1
1001
ACAD_DSTYLE_DIMJAG
1070
   388
1040
1.5
1001
ACAD_DSTYLE_DIMBREAK
1070
   391
1040
0.125
1001
ACAD_DSTYLE_DIMARC_LENGTH_SYMBOL
1070
   379
1070
     1
1001
ACAD_DSTYLE_DIM_LINETYPE
1070
   380
1005
5A
1001
ACAD_DSTYLE_DIM_EXT1_LINETYPE
1070
   381
1005
5A
1001
ACAD_DSTYLE_DIM_EXT2_LINETYPE
1070
   382
1005
5A
  0
DIMSTYLE
105
1CA
330
A
100
AcDbSymbolTableRecord
100
AcDbDimStyleTableRecord
  2
AM_ANSI$3
 70
     0
  4
mm
 41
0.12
 42
0.05
 43
0.5
 44
0.1
 47
0.1
 48
0.1
 78
     7
 79
     2
140
0.12
141
0.0
146
0.71
147
0.06
176
   256
177
   256
178
     2
274
     4
284
     7
288
     1
289
     0
340
55
371
    -1
372
    -1
1001
ACAD_DSTYLE_DIMBREAK
1070
   391
1040
0.125
1001
ACAD_DSTYLE_DIMJAG
1070
   388
1040
1.5
1001
ACAD_DSTYLE_DIMARC_LENGTH_SYMBOL
1070
   379
1070
     1
1001
ACAD_DSTYLE_DIM_LINETYPE
1070
   380
1005
5A
1001
ACAD_DSTYLE_DIM_EXT1_LINETYPE
1070
   381
1005
5A
1001
ACAD_DSTYLE_DIM_EXT2_LINETYPE
1070
   382
1005
5A
  0
DIMSTYLE
105
1CB
330
A
100
AcDbSymbolTableRecord
100
AcDbDimStyleTableRecord
  2
AM_ANSI$4
 70
     0
  4
mm
 41
0.12
 42
0.05
 43
0.5
 44
0.1
 47
0.1
 48
0.1
 78
     7
 79
     2
140
0.12
141
0.0
146
0.71
147
0.06
176
   256
177
   256
178
     2
274
     4
284
     7
288
     1
289
     0
340
55
371
    -1
372
    -1
1001
ACAD_DSTYLE_DIMBREAK
1070
   391
1040
0.125
1001
ACAD_DSTYLE_DIMJAG
1070
   388
1040
1.5
1001
ACAD_DSTYLE_DIMARC_LENGTH_SYMBOL
1070
   379
1070
     1
1001
ACAD_DSTYLE_DIM_LINETYPE
1070
   380
1005
5A
1001
ACAD_DSTYLE_DIM_EXT1_LINETYPE
1070
   381
1005
5A
1001
ACAD_DSTYLE_DIM_EXT2_LINETYPE
1070
   382
1005
5A
  0
DIMSTYLE
105
1CC
330
A
100
AcDbSymbolTableRecord
100
AcDbDimStyleTableRecord
  2
AM_ANSI$7
 70
     0
  4
mm
 41
0.12
 42
0.05
 43
0.5
 44
0.1
 47
0.1
 48
0.1
 78
     7
 79
     2
140
0.12
141
0.0
146
0.71
147
0.06
176
   256
177
   256
178
     2
274
     4
284
     7
340
55
371
    -1
372
    -1
1001
ACAD_DSTYLE_DIMBREAK
1070
   391
1040
0.125
1001
ACAD_DSTYLE_DIMJAG
1070
   388
1040
1.5
1001
ACAD_DSTYLE_DIMARC_LENGTH_SYMBOL
1070
   379
1070
     1
1001
ACAD_DSTYLE_DIM_LINETYPE
1070
   380
1005
5A
1001
ACAD_DSTYLE_DIM_EXT1_LINETYPE
1070
   381
1005
5A
1001
ACAD_DSTYLE_DIM_EXT2_LINETYPE
1070
   382
1005
5A
  0
DIMSTYLE
105
1CD
330
A
100
AcDbSymbolTableRecord
100
AcDbDimStyleTableRecord
  2
AM_ANSI$SF
 70
     0
  4
mm
 41
0.12
 42
0.05
 43
0.5
 44
0.1
 47
0.1
 48
0.1
 75
     1
 76
     1
 78
     7
 79
     2
140
0.12
141
0.0
146
0.71
147
0.06
176
   256
177
   256
178
     2
274
     4
284
     7
340
55
371
    -1
372
    -1
1001
ACAD_DSTYLE_DIMBREAK
1070
   391
1040
0.125
1001
ACAD_DSTYLE_DIMJAG
1070
   388
1040
1.5
1001
ACAD_DSTYLE_DIMARC_LENGTH_SYMBOL
1070
   379
1070
     1
1001
ACAD_DSTYLE_DIM_LINETYPE
1070
   380
1005
5A
1001
ACAD_DSTYLE_DIM_EXT1_LINETYPE
1070
   381
1005
5A
1001
ACAD_DSTYLE_DIM_EXT2_LINETYPE
1070
   382
1005
5A
  0
DIMSTYLE
105
1D2
330
A
100
AcDbSymbolTableRecord
100
AcDbDimStyleTableRecord
  2
AM_ANSI$SH
 70
     0
  4
mm
 41
0.12
 42
0.05
 43
0.5
 44
0.1
 47
0.1
 48
0.1
 75
     1
 76
     1
 78
     7
 79
     2
140
0.12
141
0.0
146
0.71
147
0.06
173
     1
176
   256
177
   256
178
     2
274
     4
284
     7
340
55
343
1CE
371
    -1
372
    -1
1001
ACAD_DSTYLE_DIMBREAK
1070
   391
1040
0.125
1001
ACAD_DSTYLE_DIMJAG
1070
   388
1040
1.5
1001
ACAD_DSTYLE_DIMARC_LENGTH_SYMBOL
1070
   379
1070
     1
1001
ACAD_DSTYLE_DIM_LINETYPE
1070
   380
1005
5A
1001
ACAD_DSTYLE_DIM_EXT1_LINETYPE
1070
   381
1005
5A
1001
ACAD_DSTYLE_DIM_EXT2_LINETYPE
1070
   382
1005
5A
  0
ENDTAB
  0
TABLE
  2
BLOCK_RECORD
  5
1
330
0
100
AcDbSymbolTable
 70
     4
  0
BLOCK_RECORD
  5
70
102
{ACAD_XDICTIONARY
360
472
102
}
330
1
100
AcDbSymbolTableRecord
100
AcDbBlockTableRecord
  2
*Model_Space
340
73
  0
BLOCK_RECORD
  5
6C
330
1
100
AcDbSymbolTableRecord
100
AcDbBlockTableRecord
  2
*Paper_Space
340
6F
  0
BLOCK_RECORD
  5
1CE
330
1
100
AcDbSymbolTableRecord
100
AcDbBlockTableRecord
  2
GENAXEH
340
0
  0
ENDTAB
  0
ENDSEC
  0
SECTION
  2
BLOCKS
  0
BLOCK
  5
71
330
70
100
AcDbEntity
  8
0
100
AcDbBlockBegin
  2
*Model_Space
 70
     0
 10
0.0
 20
0.0
 30
0.0
  3
*Model_Space
  1

  0
ENDBLK
  5
72
330
70
100
AcDbEntity
  8
0
100
AcDbBlockEnd
  0
BLOCK
  5
6D
330
6C
100
AcDbEntity
 67
     1
  8
0
100
AcDbBlockBegin
  2
*Paper_Space
 70
     0
 10
0.0
 20
0.0
 30
0.0
  3
*Paper_Space
  1

  0
ENDBLK
  5
6E
330
6C
100
AcDbEntity
 67
     1
  8
0
100
AcDbBlockEnd
  0
BLOCK
  5
1D0
330
1CE
100
AcDbEntity
  8
0
100
AcDbBlockBegin
  2
GENAXEH
 70
     0
 10
0.0
 20
0.0
 30
0.0
  3
GENAXEH
  1

  0
LINE
  5
1CF
330
1CE
100
AcDbEntity
  8
0
100
AcDbLine
 10
-1.0
 20
0.0
 30
0.0
 11
1.0
 21
0.0
 31
0.0
  0
ENDBLK
  5
1D1
330
1CE
100
AcDbEntity
  8
0
100
AcDbBlockEnd
  0
ENDSEC
  0
SECTION
  2
ENTITIES
  0
LINE
  5
76
330
70
100
AcDbEntity
  8
0
  6
Continuous
100
AcDbLine
 10
-16.455
 20
154.0
 30
0.0
 11
-18.353
 21
154.0
 31
0.0
  0
LINE
  5
77
330
70
100
AcDbEntity
  8
0
  6
Continuous
100
AcDbLine
 10
-9.5
 20
154.0
 30
0.0
 11
-13.435
 21
154.0
 31
0.0
  0
LINE
  5
78
330
70
100
AcDbEntity
  8
0
  6
Continuous
100
AcDbLine
 10
-19.0
 20
154.0
 30
0.0
 11
-19.0
 21
153.61
 31
0.0
  0
LINE
  5
79
330
70
100
AcDbEntity
  8
0
  6
Continuous
100
AcDbLine
 10
-18.353
 20
154.0
 30
0.0
 11
-19.0
 21
154.0
 31
0.0
  0
LINE
  5
7A
330
70
100
AcDbEntity
  8
0
  6
Continuous
100
AcDbLine
 10
-13.435
 20
154.0
 30
0.0
 11
-16.455
 21
154.0
 31
0.0
  0
LINE
  5
7B
330
70
100
AcDbEntity
  8
0
  6
Continuous
100
AcDbLine
 10
-4.917999999999999
 20
154.0
 30
0.0
 11
-9.5
 21
154.0
 31
0.0
  0
LINE
  5
7C
330
70
100
AcDbEntity
  8
0
  6
Continuous
100
AcDbLine
 10
-19.0
 20
153.61
 30
0.0
 11
-19.0
 21
128.9009999999999
 31
0.0
  0
LINE
  5
7D
330
70
100
AcDbEntity
  8
0
  6
Continuous
100
AcDbLine
 10
0.0
 20
154.0
 30
0.0
 11
-4.917999999999999
 21
154.0
 31
0.0
  0
LINE
  5
7E
330
70
100
AcDbEntity
  8
0
  6
Continuous
100
AcDbLine
 10
0.0
 20
144.949
 30
0.0
 11
-0.6970000000000001
 21
144.994
 31
0.0
  0
LINE
  5
7F
330
70
100
AcDbEntity
  8
0
  6
Continuous
100
AcDbLine
 10
-1.576999999999999
 20
145.289
 30
0.0
 11
-1.063
 21
145.017
 31
0.0
  0
LINE
  5
80
330
70
100
AcDbEntity
  8
0
  6
Continuous
100
AcDbLine
 10
-1.576999999999999
 20
145.289
 30
0.0
 11
-4.600999999999999
 21
147.386
 31
0.0
  0
LINE
  5
81
330
70
100
AcDbEntity
  8
0
  6
Continuous
100
AcDbLine
 10
-4.600999999999999
 20
147.386
 30
0.0
 11
-1.55
 21
147.268
 31
0.0
  0
LINE
  5
82
330
70
100
AcDbEntity
  8
0
  6
Continuous
100
AcDbLine
 10
-0.6900000000000001
 20
150.142
 30
0.0
 11
-1.062
 21
150.139
 31
0.0
  0
LINE
  5
83
330
70
100
AcDbEntity
  8
0
  6
Continuous
100
AcDbLine
 10
-1.062
 20
144.509
 30
0.0
 11
-1.05
 21
128.924
 31
0.0
  0
LINE
  5
84
330
70
100
AcDbEntity
  8
0
  6
Continuous
100
AcDbLine
 10
-1.063
 20
145.017
 30
0.0
 11
-1.062
 21
144.509
 31
0.0
  0
LINE
  5
85
330
70
100
AcDbEntity
  8
0
  6
Continuous
100
AcDbLine
 10
-1.072999999999999
 20
145.622
 30
0.0
 11
-1.063
 21
145.017
 31
0.0
  0
LINE
  5
86
330
70
100
AcDbEntity
  8
0
  6
Continuous
100
AcDbLine
 10
-1.063
 20
145.017
 30
0.0
 11
-0.6970000000000001
 21
144.994
 31
0.0
  0
LINE
  5
87
330
70
100
AcDbEntity
  8
0
  6
Continuous
100
AcDbLine
 10
-4.917999999999999
 20
147.014
 30
0.0
 11
-4.917999999999999
 21
146.445
 31
0.0
  0
LINE
  5
88
330
70
100
AcDbEntity
  8
0
  6
Continuous
100
AcDbLine
 10
-4.917999999999999
 20
147.585
 30
0.0
 11
-4.917999999999999
 21
147.014
 31
0.0
  0
LINE
  5
89
330
70
100
AcDbEntity
  8
0
  6
Continuous
100
AcDbLine
 10
0.0
 20
150.148
 30
0.0
 11
-0.6900000000000001
 21
150.142
 31
0.0
  0
LINE
  5
8A
330
70
100
AcDbEntity
  8
0
  6
Continuous
100
AcDbLine
 10
-4.917999999999999
 20
147.705
 30
0.0
 11
-4.917999999999999
 21
147.585
 31
0.0
  0
LINE
  5
8B
330
70
100
AcDbEntity
  8
0
  6
Continuous
100
AcDbLine
 10
-4.289999999999999
 20
150.11
 30
0.0
 11
-4.917999999999999
 21
150.104
 31
0.0
  0
LINE
  5
8C
330
70
100
AcDbEntity
  8
0
  6
Continuous
100
AcDbLine
 10
-4.917999999999999
 20
150.104
 30
0.0
 11
-4.917999999999999
 21
149.949
 31
0.0
  0
LINE
  5
8D
330
70
100
AcDbEntity
  8
0
  6
Continuous
100
AcDbLine
 10
-1.54
 20
150.134
 30
0.0
 11
-4.289999999999999
 21
150.11
 31
0.0
  0
LINE
  5
8E
330
70
100
AcDbEntity
  8
0
  6
Continuous
100
AcDbLine
 10
-1.062
 20
150.139
 30
0.0
 11
-1.54
 21
150.134
 31
0.0
  0
LINE
  5
8F
330
70
100
AcDbEntity
  8
0
  6
Continuous
100
AcDbLine
 10
-4.917999999999999
 20
148.827
 30
0.0
 11
-4.917999999999999
 21
147.705
 31
0.0
  0
LINE
  5
90
330
70
100
AcDbEntity
  8
0
  6
Continuous
100
AcDbLine
 10
-4.447999999999999
 20
148.731
 30
0.0
 11
-4.917999999999999
 21
147.705
 31
0.0
  0
LINE
  5
91
330
70
100
AcDbEntity
  8
0
  6
Continuous
100
AcDbLine
 10
-4.917999999999999
 20
149.949
 30
0.0
 11
-4.917999999999999
 21
148.827
 31
0.0
  0
LINE
  5
92
330
70
100
AcDbEntity
  8
0
  6
Continuous
100
AcDbLine
 10
-4.447999999999999
 20
148.731
 30
0.0
 11
-4.572999999999999
 21
147.632
 31
0.0
  0
LINE
  5
93
330
70
100
AcDbEntity
  8
0
  6
Continuous
100
AcDbLine
 10
-1.548
 20
148.01
 30
0.0
 11
-4.572999999999999
 21
147.632
 31
0.0
  0
LINE
  5
94
330
70
100
AcDbEntity
  8
0
  6
Continuous
100
AcDbLine
 10
-4.572999999999999
 20
147.632
 30
0.0
 11
-1.55
 21
147.268
 31
0.0
  0
LINE
  5
95
330
70
100
AcDbEntity
  8
0
  6
Continuous
100
AcDbLine
 10
-4.917999999999999
 20
146.445
 30
0.0
 11
-4.917999999999999
 21
128.9009999999999
 31
0.0
  0
LINE
  5
96
330
70
100
AcDbEntity
  8
0
  6
Continuous
100
AcDbLine
 10
-18.353
 20
103.802
 30
0.0
 11
-16.455
 21
103.802
 31
0.0
  0
LINE
  5
97
330
70
100
AcDbEntity
  8
0
  6
Continuous
100
AcDbLine
 10
-13.435
 20
103.802
 30
0.0
 11
-9.5
 21
103.802
 31
0.0
  0
LINE
  5
98
330
70
100
AcDbEntity
  8
0
  6
Continuous
100
AcDbLine
 10
-19.0
 20
103.802
 30
0.0
 11
-18.353
 21
103.802
 31
0.0
  0
LINE
  5
99
330
70
100
AcDbEntity
  8
0
  6
Continuous
100
AcDbLine
 10
-19.0
 20
104.193
 30
0.0
 11
-19.0
 21
103.802
 31
0.0
  0
LINE
  5
9A
330
70
100
AcDbEntity
  8
0
  6
Continuous
100
AcDbLine
 10
-16.455
 20
103.802
 30
0.0
 11
-13.435
 21
103.802
 31
0.0
  0
LINE
  5
9B
330
70
100
AcDbEntity
  8
0
  6
Continuous
100
AcDbLine
 10
-9.5
 20
103.802
 30
0.0
 11
-4.917999999999999
 21
103.802
 31
0.0
  0
LINE
  5
9C
330
70
100
AcDbEntity
  8
0
  6
Continuous
100
AcDbLine
 10
-19.0
 20
128.9009999999999
 30
0.0
 11
-19.0
 21
104.193
 31
0.0
  0
LINE
  5
9D
330
70
100
AcDbEntity
  8
0
  6
Continuous
100
AcDbLine
 10
-4.917999999999999
 20
103.802
 30
0.0
 11
0.0
 21
103.802
 31
0.0
  0
LINE
  5
9E
330
70
100
AcDbEntity
  8
0
  6
Continuous
100
AcDbLine
 10
-0.6970000000000001
 20
112.809
 30
0.0
 11
0.0
 21
112.853
 31
0.0
  0
LINE
  5
9F
330
70
100
AcDbEntity
  8
0
  6
Continuous
100
AcDbLine
 10
-1.063
 20
112.785
 30
0.0
 11
-1.576999999999999
 21
112.513
 31
0.0
  0
LINE
  5
A0
330
70
100
AcDbEntity
  8
0
  6
Continuous
100
AcDbLine
 10
-1.576999999999999
 20
112.513
 30
0.0
 11
-4.600999999999999
 21
110.416
 31
0.0
  0
LINE
  5
A1
330
70
100
AcDbEntity
  8
0
  6
Continuous
100
AcDbLine
 10
-4.600999999999999
 20
110.416
 30
0.0
 11
-1.55
 21
110.534
 31
0.0
  0
LINE
  5
A2
330
70
100
AcDbEntity
  8
0
  6
Continuous
100
AcDbLine
 10
-1.062
 20
107.664
 30
0.0
 11
-0.6900000000000001
 21
107.66
 31
0.0
  0
LINE
  5
A3
330
70
100
AcDbEntity
  8
0
  6
Continuous
100
AcDbLine
 10
-1.05
 20
128.9009999999999
 30
0.0
 11
-1.062
 21
113.293
 31
0.0
  0
LINE
  5
A4
330
70
100
AcDbEntity
  8
0
  6
Continuous
100
AcDbLine
 10
-1.062
 20
113.293
 30
0.0
 11
-1.063
 21
112.785
 31
0.0
  0
LINE
  5
A5
330
70
100
AcDbEntity
  8
0
  6
Continuous
100
AcDbLine
 10
-0.6970000000000001
 20
112.809
 30
0.0
 11
-1.063
 21
112.785
 31
0.0
  0
LINE
  5
A6
330
70
100
AcDbEntity
  8
0
  6
Continuous
100
AcDbLine
 10
-1.063
 20
112.785
 30
0.0
 11
-1.072999999999999
 21
112.18
 31
0.0
  0
LINE
  5
A7
330
70
100
AcDbEntity
  8
0
  6
Continuous
100
AcDbLine
 10
-4.917999999999999
 20
111.357
 30
0.0
 11
-4.917999999999999
 21
110.788
 31
0.0
  0
LINE
  5
A8
330
70
100
AcDbEntity
  8
0
  6
Continuous
100
AcDbLine
 10
-4.917999999999999
 20
110.788
 30
0.0
 11
-4.917999999999999
 21
110.217
 31
0.0
  0
LINE
  5
A9
330
70
100
AcDbEntity
  8
0
  6
Continuous
100
AcDbLine
 10
-0.6900000000000001
 20
107.66
 30
0.0
 11
0.0
 21
107.654
 31
0.0
  0
LINE
  5
AA
330
70
100
AcDbEntity
  8
0
  6
Continuous
100
AcDbLine
 10
-4.917999999999999
 20
110.217
 30
0.0
 11
-4.917999999999999
 21
110.097
 31
0.0
  0
LINE
  5
AB
330
70
100
AcDbEntity
  8
0
  6
Continuous
100
AcDbLine
 10
-4.917999999999999
 20
107.853
 30
0.0
 11
-4.917999999999999
 21
107.698
 31
0.0
  0
LINE
  5
AC
330
70
100
AcDbEntity
  8
0
  6
Continuous
100
AcDbLine
 10
-4.917999999999999
 20
107.698
 30
0.0
 11
-4.289999999999999
 21
107.692
 31
0.0
  0
LINE
  5
AD
330
70
100
AcDbEntity
  8
0
  6
Continuous
100
AcDbLine
 10
-4.289999999999999
 20
107.692
 30
0.0
 11
-1.54
 21
107.668
 31
0.0
  0
LINE
  5
AE
330
70
100
AcDbEntity
  8
0
  6
Continuous
100
AcDbLine
 10
-1.54
 20
107.668
 30
0.0
 11
-1.062
 21
107.664
 31
0.0
  0
LINE
  5
AF
330
70
100
AcDbEntity
  8
0
  6
Continuous
100
AcDbLine
 10
-4.447999999999999
 20
109.071
 30
0.0
 11
-4.917999999999999
 21
110.097
 31
0.0
  0
LINE
  5
B0
330
70
100
AcDbEntity
  8
0
  6
Continuous
100
AcDbLine
 10
-4.917999999999999
 20
110.097
 30
0.0
 11
-4.917999999999999
 21
108.975
 31
0.0
  0
LINE
  5
B1
330
70
100
AcDbEntity
  8
0
  6
Continuous
100
AcDbLine
 10
-4.917999999999999
 20
108.975
 30
0.0
 11
-4.917999999999999
 21
107.853
 31
0.0
  0
LINE
  5
B2
330
70
100
AcDbEntity
  8
0
  6
Continuous
100
AcDbLine
 10
-1.55
 20
110.534
 30
0.0
 11
-4.572999999999999
 21
110.17
 31
0.0
  0
LINE
  5
B3
330
70
100
AcDbEntity
  8
0
  6
Continuous
100
AcDbLine
 10
-1.548
 20
109.792
 30
0.0
 11
-4.572999999999999
 21
110.17
 31
0.0
  0
LINE
  5
B4
330
70
100
AcDbEntity
  8
0
  6
Continuous
100
AcDbLine
 10
-4.572999999999999
 20
110.17
 30
0.0
 11
-4.447999999999999
 21
109.071
 31
0.0
  0
LINE
  5
B5
330
70
100
AcDbEntity
  8
0
  6
Continuous
100
AcDbLine
 10
-4.917999999999999
 20
128.9009999999999
 30
0.0
 11
-4.917999999999999
 21
111.357
 31
0.0
  0
LINE
  5
B6
330
70
100
AcDbEntity
  8
0
  6
Continuous
100
AcDbLine
 10
18.353
 20
154.0
 30
0.0
 11
16.455
 21
154.0
 31
0.0
  0
LINE
  5
B7
330
70
100
AcDbEntity
  8
0
  6
Continuous
100
AcDbLine
 10
13.435
 20
154.0
 30
0.0
 11
9.5
 21
154.0
 31
0.0
  0
LINE
  5
B8
330
70
100
AcDbEntity
  8
0
  6
Continuous
100
AcDbLine
 10
19.0
 20
154.0
 30
0.0
 11
18.353
 21
154.0
 31
0.0
  0
LINE
  5
B9
330
70
100
AcDbEntity
  8
0
  6
Continuous
100
AcDbLine
 10
19.0
 20
153.61
 30
0.0
 11
19.0
 21
154.0
 31
0.0
  0
LINE
  5
BA
330
70
100
AcDbEntity
  8
0
  6
Continuous
100
AcDbLine
 10
16.455
 20
154.0
 30
0.0
 11
13.435
 21
154.0
 31
0.0
  0
LINE
  5
BB
330
70
100
AcDbEntity
  8
0
  6
Continuous
100
AcDbLine
 10
9.5
 20
154.0
 30
0.0
 11
4.917999999999999
 21
154.0
 31
0.0
  0
LINE
  5
BC
330
70
100
AcDbEntity
  8
0
  6
Continuous
100
AcDbLine
 10
19.0
 20
128.9009999999999
 30
0.0
 11
19.0
 21
153.61
 31
0.0
  0
LINE
  5
BD
330
70
100
AcDbEntity
  8
0
  6
Continuous
100
AcDbLine
 10
4.917999999999999
 20
154.0
 30
0.0
 11
0.0
 21
154.0
 31
0.0
  0
LINE
  5
BE
330
70
100
AcDbEntity
  8
0
  6
Continuous
100
AcDbLine
 10
0.0
 20
145.605
 30
0.0
 11
0.0
 21
144.949
 31
0.0
  0
LINE
  5
BF
330
70
100
AcDbEntity
  8
0
  6
Continuous
100
AcDbLine
 10
0.0
 20
144.949
 30
0.0
 11
0.0
 21
144.445
 31
0.0
  0
LINE
  5
C0
330
70
100
AcDbEntity
  8
0
  6
Continuous
100
AcDbLine
 10
0.6970000000000001
 20
144.994
 30
0.0
 11
0.0
 21
144.949
 31
0.0
  0
LINE
  5
C1
330
70
100
AcDbEntity
  8
0
  6
Continuous
100
AcDbLine
 10
0.0
 20
144.445
 30
0.0
 11
0.0
 21
128.931
 31
0.0
  0
LINE
  5
C2
330
70
100
AcDbEntity
  8
0
  6
Continuous
100
AcDbLine
 10
1.063
 20
145.017
 30
0.0
 11
1.576999999999999
 21
145.289
 31
0.0
  0
LINE
  5
C3
330
70
100
AcDbEntity
  8
0
  6
Continuous
100
AcDbLine
 10
1.576999999999999
 20
145.289
 30
0.0
 11
4.600999999999999
 21
147.386
 31
0.0
  0
LINE
  5
C4
330
70
100
AcDbEntity
  8
0
  6
Continuous
100
AcDbLine
 10
4.600999999999999
 20
147.386
 30
0.0
 11
1.55
 21
147.268
 31
0.0
  0
LINE
  5
C5
330
70
100
AcDbEntity
  8
0
  6
Continuous
100
AcDbLine
 10
1.062
 20
150.139
 30
0.0
 11
0.6900000000000001
 21
150.142
 31
0.0
  0
LINE
  5
C6
330
70
100
AcDbEntity
  8
0
  6
Continuous
100
AcDbLine
 10
1.05
 20
128.9009999999999
 30
0.0
 11
1.062
 21
144.509
 31
0.0
  0
LINE
  5
C7
330
70
100
AcDbEntity
  8
0
  6
Continuous
100
AcDbLine
 10
1.062
 20
144.509
 30
0.0
 11
1.063
 21
145.017
 31
0.0
  0
LINE
  5
C8
330
70
100
AcDbEntity
  8
0
  6
Continuous
100
AcDbLine
 10
0.6970000000000001
 20
144.994
 30
0.0
 11
1.063
 21
145.017
 31
0.0
  0
LINE
  5
C9
330
70
100
AcDbEntity
  8
0
  6
Continuous
100
AcDbLine
 10
1.063
 20
145.017
 30
0.0
 11
1.072999999999999
 21
145.622
 31
0.0
  0
LINE
  5
CA
330
70
100
AcDbEntity
  8
0
  6
Continuous
100
AcDbLine
 10
4.917999999999999
 20
146.445
 30
0.0
 11
4.917999999999999
 21
147.014
 31
0.0
  0
LINE
  5
CB
330
70
100
AcDbEntity
  8
0
  6
Continuous
100
AcDbLine
 10
4.917999999999999
 20
147.014
 30
0.0
 11
4.917999999999999
 21
147.585
 31
0.0
  0
LINE
  5
CC
330
70
100
AcDbEntity
  8
0
  6
Continuous
100
AcDbLine
 10
0.6900000000000001
 20
150.142
 30
0.0
 11
0.0
 21
150.148
 31
0.0
  0
LINE
  5
CD
330
70
100
AcDbEntity
  8
0
  6
Continuous
100
AcDbLine
 10
4.917999999999999
 20
147.585
 30
0.0
 11
4.917999999999999
 21
147.705
 31
0.0
  0
LINE
  5
CE
330
70
100
AcDbEntity
  8
0
  6
Continuous
100
AcDbLine
 10
4.917999999999999
 20
149.949
 30
0.0
 11
4.917999999999999
 21
150.104
 31
0.0
  0
LINE
  5
CF
330
70
100
AcDbEntity
  8
0
  6
Continuous
100
AcDbLine
 10
4.917999999999999
 20
150.104
 30
0.0
 11
4.289999999999999
 21
150.11
 31
0.0
  0
LINE
  5
D0
330
70
100
AcDbEntity
  8
0
  6
Continuous
100
AcDbLine
 10
4.289999999999999
 20
150.11
 30
0.0
 11
1.54
 21
150.134
 31
0.0
  0
LINE
  5
D1
330
70
100
AcDbEntity
  8
0
  6
Continuous
100
AcDbLine
 10
1.54
 20
150.134
 30
0.0
 11
1.062
 21
150.139
 31
0.0
  0
LINE
  5
D2
330
70
100
AcDbEntity
  8
0
  6
Continuous
100
AcDbLine
 10
4.447999999999999
 20
148.731
 30
0.0
 11
4.917999999999999
 21
147.705
 31
0.0
  0
LINE
  5
D3
330
70
100
AcDbEntity
  8
0
  6
Continuous
100
AcDbLine
 10
4.917999999999999
 20
147.705
 30
0.0
 11
4.917999999999999
 21
148.827
 31
0.0
  0
LINE
  5
D4
330
70
100
AcDbEntity
  8
0
  6
Continuous
100
AcDbLine
 10
4.917999999999999
 20
148.827
 30
0.0
 11
4.917999999999999
 21
149.949
 31
0.0
  0
LINE
  5
D5
330
70
100
AcDbEntity
  8
0
  6
Continuous
100
AcDbLine
 10
1.55
 20
147.268
 30
0.0
 11
4.572999999999999
 21
147.632
 31
0.0
  0
LINE
  5
D6
330
70
100
AcDbEntity
  8
0
  6
Continuous
100
AcDbLine
 10
1.548
 20
148.01
 30
0.0
 11
4.572999999999999
 21
147.632
 31
0.0
  0
LINE
  5
D7
330
70
100
AcDbEntity
  8
0
  6
Continuous
100
AcDbLine
 10
4.572999999999999
 20
147.632
 30
0.0
 11
4.447999999999999
 21
148.731
 31
0.0
  0
LINE
  5
D8
330
70
100
AcDbEntity
  8
0
  6
Continuous
100
AcDbLine
 10
4.917999999999999
 20
128.9009999999999
 30
0.0
 11
4.917999999999999
 21
146.445
 31
0.0
  0
LINE
  5
D9
330
70
100
AcDbEntity
  8
0
  6
Continuous
100
AcDbLine
 10
16.455
 20
103.802
 30
0.0
 11
18.353
 21
103.802
 31
0.0
  0
LINE
  5
DA
330
70
100
AcDbEntity
  8
0
  6
Continuous
100
AcDbLine
 10
9.5
 20
103.802
 30
0.0
 11
13.435
 21
103.802
 31
0.0
  0
LINE
  5
DB
330
70
100
AcDbEntity
  8
0
  6
Continuous
100
AcDbLine
 10
19.0
 20
103.802
 30
0.0
 11
19.0
 21
104.193
 31
0.0
  0
LINE
  5
DC
330
70
100
AcDbEntity
  8
0
  6
Continuous
100
AcDbLine
 10
18.353
 20
103.802
 30
0.0
 11
19.0
 21
103.802
 31
0.0
  0
LINE
  5
DD
330
70
100
AcDbEntity
  8
0
  6
Continuous
100
AcDbLine
 10
13.435
 20
103.802
 30
0.0
 11
16.455
 21
103.802
 31
0.0
  0
LINE
  5
DE
330
70
100
AcDbEntity
  8
0
  6
Continuous
100
AcDbLine
 10
4.917999999999999
 20
103.802
 30
0.0
 11
9.5
 21
103.802
 31
0.0
  0
LINE
  5
DF
330
70
100
AcDbEntity
  8
0
  6
Continuous
100
AcDbLine
 10
19.0
 20
104.193
 30
0.0
 11
19.0
 21
128.9009999999999
 31
0.0
  0
LINE
  5
E0
330
70
100
AcDbEntity
  8
0
  6
Continuous
100
AcDbLine
 10
0.0
 20
103.802
 30
0.0
 11
4.917999999999999
 21
103.802
 31
0.0
  0
LINE
  5
E1
330
70
100
AcDbEntity
  8
0
  6
Continuous
100
AcDbLine
 10
0.0
 20
112.853
 30
0.0
 11
0.0
 21
112.197
 31
0.0
  0
LINE
  5
E2
330
70
100
AcDbEntity
  8
0
  6
Continuous
100
AcDbLine
 10
0.0
 20
112.853
 30
0.0
 11
0.6970000000000001
 21
112.809
 31
0.0
  0
LINE
  5
E3
330
70
100
AcDbEntity
  8
0
  6
Continuous
100
AcDbLine
 10
0.0
 20
113.358
 30
0.0
 11
0.0
 21
112.853
 31
0.0
  0
LINE
  5
E4
330
70
100
AcDbEntity
  8
0
  6
Continuous
100
AcDbLine
 10
0.0
 20
128.9009999999999
 30
0.0
 11
0.0
 21
113.358
 31
0.0
  0
LINE
  5
E5
330
70
100
AcDbEntity
  8
0
  6
Continuous
100
AcDbLine
 10
1.576999999999999
 20
112.513
 30
0.0
 11
1.063
 21
112.785
 31
0.0
  0
LINE
  5
E6
330
70
100
AcDbEntity
  8
0
  6
Continuous
100
AcDbLine
 10
1.576999999999999
 20
112.513
 30
0.0
 11
4.600999999999999
 21
110.416
 31
0.0
  0
LINE
  5
E7
330
70
100
AcDbEntity
  8
0
  6
Continuous
100
AcDbLine
 10
4.600999999999999
 20
110.416
 30
0.0
 11
1.55
 21
110.534
 31
0.0
  0
LINE
  5
E8
330
70
100
AcDbEntity
  8
0
  6
Continuous
100
AcDbLine
 10
0.6900000000000001
 20
107.66
 30
0.0
 11
1.062
 21
107.664
 31
0.0
  0
LINE
  5
E9
330
70
100
AcDbEntity
  8
0
  6
Continuous
100
AcDbLine
 10
1.062
 20
113.293
 30
0.0
 11
1.05
 21
128.878
 31
0.0
  0
LINE
  5
EA
330
70
100
AcDbEntity
  8
0
  6
Continuous
100
AcDbLine
 10
1.063
 20
112.785
 30
0.0
 11
1.062
 21
113.293
 31
0.0
  0
LINE
  5
EB
330
70
100
AcDbEntity
  8
0
  6
Continuous
100
AcDbLine
 10
1.072999999999999
 20
112.18
 30
0.0
 11
1.063
 21
112.785
 31
0.0
  0
LINE
  5
EC
330
70
100
AcDbEntity
  8
0
  6
Continuous
100
AcDbLine
 10
1.063
 20
112.785
 30
0.0
 11
0.6970000000000001
 21
112.809
 31
0.0
  0
LINE
  5
ED
330
70
100
AcDbEntity
  8
0
  6
Continuous
100
AcDbLine
 10
4.917999999999999
 20
110.788
 30
0.0
 11
4.917999999999999
 21
111.357
 31
0.0
  0
LINE
  5
EE
330
70
100
AcDbEntity
  8
0
  6
Continuous
100
AcDbLine
 10
4.917999999999999
 20
110.217
 30
0.0
 11
4.917999999999999
 21
110.788
 31
0.0
  0
LINE
  5
EF
330
70
100
AcDbEntity
  8
0
  6
Continuous
100
AcDbLine
 10
0.0
 20
107.654
 30
0.0
 11
0.6900000000000001
 21
107.66
 31
0.0
  0
LINE
  5
F0
330
70
100
AcDbEntity
  8
0
  6
Continuous
100
AcDbLine
 10
4.917999999999999
 20
110.097
 30
0.0
 11
4.917999999999999
 21
110.217
 31
0.0
  0
LINE
  5
F1
330
70
100
AcDbEntity
  8
0
  6
Continuous
100
AcDbLine
 10
4.289999999999999
 20
107.692
 30
0.0
 11
4.917999999999999
 21
107.698
 31
0.0
  0
LINE
  5
F2
330
70
100
AcDbEntity
  8
0
  6
Continuous
100
AcDbLine
 10
4.917999999999999
 20
107.698
 30
0.0
 11
4.917999999999999
 21
107.853
 31
0.0
  0
LINE
  5
F3
330
70
100
AcDbEntity
  8
0
  6
Continuous
100
AcDbLine
 10
1.54
 20
107.668
 30
0.0
 11
4.289999999999999
 21
107.692
 31
0.0
  0
LINE
  5
F4
330
70
100
AcDbEntity
  8
0
  6
Continuous
100
AcDbLine
 10
1.062
 20
107.664
 30
0.0
 11
1.54
 21
107.668
 31
0.0
  0
LINE
  5
F5
330
70
100
AcDbEntity
  8
0
  6
Continuous
100
AcDbLine
 10
4.917999999999999
 20
108.975
 30
0.0
 11
4.917999999999999
 21
110.097
 31
0.0
  0
LINE
  5
F6
330
70
100
AcDbEntity
  8
0
  6
Continuous
100
AcDbLine
 10
4.447999999999999
 20
109.071
 30
0.0
 11
4.917999999999999
 21
110.097
 31
0.0
  0
LINE
  5
F7
330
70
100
AcDbEntity
  8
0
  6
Continuous
100
AcDbLine
 10
4.917999999999999
 20
107.853
 30
0.0
 11
4.917999999999999
 21
108.975
 31
0.0
  0
LINE
  5
F8
330
70
100
AcDbEntity
  8
0
  6
Continuous
100
AcDbLine
 10
4.447999999999999
 20
109.071
 30
0.0
 11
4.572999999999999
 21
110.17
 31
0.0
  0
LINE
  5
F9
330
70
100
AcDbEntity
  8
0
  6
Continuous
100
AcDbLine
 10
1.548
 20
109.792
 30
0.0
 11
4.572999999999999
 21
110.17
 31
0.0
  0
LINE
  5
FA
330
70
100
AcDbEntity
  8
0
  6
Continuous
100
AcDbLine
 10
4.572999999999999
 20
110.17
 30
0.0
 11
1.55
 21
110.534
 31
0.0
  0
LINE
  5
FB
330
70
100
AcDbEntity
  8
0
  6
Continuous
100
AcDbLine
 10
4.917999999999999
 20
111.357
 30
0.0
 11
4.917999999999999
 21
128.9009999999999
 31
0.0
  0
LINE
  5
FC
330
70
100
AcDbEntity
  8
0
  6
Continuous
100
AcDbLine
 10
-20.086
 20
52.387
 30
0.0
 11
-22.975
 21
-153.0
 31
0.0
  0
LINE
  5
FD
330
70
100
AcDbEntity
  8
0
  6
Continuous
100
AcDbLine
 10
16.657
 20
71.38600000000001
 30
0.0
 11
16.034
 21
63.902
 31
0.0
  0
LINE
  5
FE
330
70
100
AcDbEntity
  8
0
  6
Continuous
100
AcDbLine
 10
-16.043
 20
64.17200000000001
 30
0.0
 11
-16.923
 21
71.61799999999999
 31
0.0
  0
LINE
  5
FF
330
70
100
AcDbEntity
  8
0
  6
Continuous
100
AcDbLine
 10
-16.15
 20
67.551
 30
0.0
 11
-15.225
 21
38.527
 31
0.0
  0
LINE
  5
100
330
70
100
AcDbEntity
  8
0
  6
Continuous
100
AcDbLine
 10
15.225
 20
38.527
 30
0.0
 11
16.15
 21
67.551
 31
0.0
  0
LINE
  5
101
330
70
100
AcDbEntity
  8
0
  6
Continuous
100
AcDbLine
 10
5.953
 20
-154.0
 30
0.0
 11
11.5
 21
-154.0
 31
0.0
  0
LINE
  5
102
330
70
100
AcDbEntity
  8
0
  6
Continuous
100
AcDbLine
 10
23.0
 20
-154.0
 30
0.0
 11
22.975
 21
-153.0
 31
0.0
  0
LINE
  5
103
330
70
100
AcDbEntity
  8
0
  6
Continuous
100
AcDbLine
 10
22.216
 20
-154.0
 30
0.0
 11
23.0
 21
-154.0
 31
0.0
  0
LINE
  5
104
330
70
100
AcDbEntity
  8
0
  6
Continuous
100
AcDbLine
 10
16.263
 20
-154.0
 30
0.0
 11
19.919
 21
-154.0
 31
0.0
  0
LINE
  5
105
330
70
100
AcDbEntity
  8
0
  6
Continuous
100
AcDbLine
 10
0.0
 20
-154.0
 30
0.0
 11
5.953
 21
-154.0
 31
0.0
  0
LINE
  5
106
330
70
100
AcDbEntity
  8
0
  6
Continuous
100
AcDbLine
 10
19.919
 20
-154.0
 30
0.0
 11
22.216
 21
-154.0
 31
0.0
  0
LINE
  5
107
330
70
100
AcDbEntity
  8
0
  6
Continuous
100
AcDbLine
 10
11.5
 20
-154.0
 30
0.0
 11
16.263
 21
-154.0
 31
0.0
  0
LINE
  5
108
330
70
100
AcDbEntity
  8
0
  6
Continuous
100
AcDbLine
 10
-11.5
 20
-154.0
 30
0.0
 11
-5.953
 21
-154.0
 31
0.0
  0
LINE
  5
109
330
70
100
AcDbEntity
  8
0
  6
Continuous
100
AcDbLine
 10
-22.975
 20
-153.0
 30
0.0
 11
-23.0
 21
-154.0
 31
0.0
  0
LINE
  5
10A
330
70
100
AcDbEntity
  8
0
  6
Continuous
100
AcDbLine
 10
-23.0
 20
-154.0
 30
0.0
 11
-22.216
 21
-154.0
 31
0.0
  0
LINE
  5
10B
330
70
100
AcDbEntity
  8
0
  6
Continuous
100
AcDbLine
 10
-19.919
 20
-154.0
 30
0.0
 11
-16.263
 21
-154.0
 31
0.0
  0
LINE
  5
10C
330
70
100
AcDbEntity
  8
0
  6
Continuous
100
AcDbLine
 10
-5.953
 20
-154.0
 30
0.0
 11
0.0
 21
-154.0
 31
0.0
  0
LINE
  5
10D
330
70
100
AcDbEntity
  8
0
  6
Continuous
100
AcDbLine
 10
-22.216
 20
-154.0
 30
0.0
 11
-19.919
 21
-154.0
 31
0.0
  0
LINE
  5
10E
330
70
100
AcDbEntity
  8
0
  6
Continuous
100
AcDbLine
 10
-16.263
 20
-154.0
 30
0.0
 11
-11.5
 21
-154.0
 31
0.0
  0
LINE
  5
10F
330
70
100
AcDbEntity
  8
0
  6
Continuous
100
AcDbLine
 10
18.353
 20
102.401
 30
0.0
 11
16.454
 21
102.401
 31
0.0
  0
LINE
  5
110
330
70
100
AcDbEntity
  8
0
  6
Continuous
100
AcDbLine
 10
13.435
 20
102.401
 30
0.0
 11
9.5
 21
102.401
 31
0.0
  0
LINE
  5
111
330
70
100
AcDbEntity
  8
0
  6
Continuous
100
AcDbLine
 10
9.5
 20
102.401
 30
0.0
 11
4.917999999999999
 21
102.401
 31
0.0
  0
LINE
  5
112
330
70
100
AcDbEntity
  8
0
  6
Continuous
100
AcDbLine
 10
19.015
 20
101.401
 30
0.0
 11
19.0
 21
102.401
 31
0.0
  0
LINE
  5
113
330
70
100
AcDbEntity
  8
0
  6
Continuous
100
AcDbLine
 10
19.0
 20
102.401
 30
0.0
 11
18.353
 21
102.401
 31
0.0
  0
LINE
  5
114
330
70
100
AcDbEntity
  8
0
  6
Continuous
100
AcDbLine
 10
16.454
 20
102.401
 30
0.0
 11
13.435
 21
102.401
 31
0.0
  0
LINE
  5
115
330
70
100
AcDbEntity
  8
0
  6
Continuous
100
AcDbLine
 10
4.917999999999999
 20
102.401
 30
0.0
 11
0.0
 21
102.401
 31
0.0
  0
LINE
  5
116
330
70
100
AcDbEntity
  8
0
  6
Continuous
100
AcDbLine
 10
-16.454
 20
102.401
 30
0.0
 11
-18.353
 21
102.401
 31
0.0
  0
LINE
  5
117
330
70
100
AcDbEntity
  8
0
  6
Continuous
100
AcDbLine
 10
-9.5
 20
102.401
 30
0.0
 11
-13.435
 21
102.401
 31
0.0
  0
LINE
  5
118
330
70
100
AcDbEntity
  8
0
  6
Continuous
100
AcDbLine
 10
-4.917999999999999
 20
102.401
 30
0.0
 11
-9.5
 21
102.401
 31
0.0
  0
LINE
  5
119
330
70
100
AcDbEntity
  8
0
  6
Continuous
100
AcDbLine
 10
-19.0
 20
102.401
 30
0.0
 11
-19.015
 21
101.401
 31
0.0
  0
LINE
  5
11A
330
70
100
AcDbEntity
  8
0
  6
Continuous
100
AcDbLine
 10
-18.353
 20
102.401
 30
0.0
 11
-19.0
 21
102.401
 31
0.0
  0
LINE
  5
11B
330
70
100
AcDbEntity
  8
0
  6
Continuous
100
AcDbLine
 10
-13.435
 20
102.401
 30
0.0
 11
-16.454
 21
102.401
 31
0.0
  0
LINE
  5
11C
330
70
100
AcDbEntity
  8
0
  6
Continuous
100
AcDbLine
 10
0.0
 20
102.401
 30
0.0
 11
-4.917999999999999
 21
102.401
 31
0.0
  0
LINE
  5
11D
330
70
100
AcDbEntity
  8
0
  6
Continuous
100
AcDbLine
 10
10.259
 20
29.505
 30
0.0
 11
13.699
 21
33.41800000000001
 31
0.0
  0
LINE
  5
11E
330
70
100
AcDbEntity
  8
0
  6
Continuous
100
AcDbLine
 10
13.699
 20
33.41800000000001
 30
0.0
 11
15.202
 21
38.103
 31
0.0
  0
LINE
  5
11F
330
70
100
AcDbEntity
  8
0
  6
Continuous
100
AcDbLine
 10
15.202
 20
38.103
 30
0.0
 11
15.225
 21
38.527
 31
0.0
  0
LINE
  5
120
330
70
100
AcDbEntity
  8
0
  6
Continuous
100
AcDbLine
 10
15.202
 20
38.103
 30
0.0
 11
13.732
 21
42.716
 31
0.0
  0
LINE
  5
121
330
70
100
AcDbEntity
  8
0
  6
Continuous
100
AcDbLine
 10
0.0
 20
49.309
 30
0.0
 11
5.62
 21
48.493
 31
0.0
  0
LINE
  5
122
330
70
100
AcDbEntity
  8
0
  6
Continuous
100
AcDbLine
 10
5.62
 20
48.493
 30
0.0
 11
10.411
 21
46.191
 31
0.0
  0
LINE
  5
123
330
70
100
AcDbEntity
  8
0
  6
Continuous
100
AcDbLine
 10
10.411
 20
46.191
 30
0.0
 11
13.732
 21
42.716
 31
0.0
  0
LINE
  5
124
330
70
100
AcDbEntity
  8
0
  6
Continuous
100
AcDbLine
 10
-13.699
 20
33.41800000000001
 30
0.0
 11
-10.259
 21
29.505
 31
0.0
  0
LINE
  5
125
330
70
100
AcDbEntity
  8
0
  6
Continuous
100
AcDbLine
 10
-15.202
 20
38.103
 30
0.0
 11
-13.699
 21
33.41800000000001
 31
0.0
  0
LINE
  5
126
330
70
100
AcDbEntity
  8
0
  6
Continuous
100
AcDbLine
 10
-15.202
 20
38.103
 30
0.0
 11
-13.732
 21
42.716
 31
0.0
  0
LINE
  5
127
330
70
100
AcDbEntity
  8
0
  6
Continuous
100
AcDbLine
 10
-15.225
 20
38.527
 30
0.0
 11
-15.202
 21
38.103
 31
0.0
  0
LINE
  5
128
330
70
100
AcDbEntity
  8
0
  6
Continuous
100
AcDbLine
 10
0.0
 20
49.309
 30
0.0
 11
-5.62
 21
48.493
 31
0.0
  0
LINE
  5
129
330
70
100
AcDbEntity
  8
0
  6
Continuous
100
AcDbLine
 10
-5.62
 20
48.493
 30
0.0
 11
-10.411
 21
46.191
 31
0.0
  0
LINE
  5
12A
330
70
100
AcDbEntity
  8
0
  6
Continuous
100
AcDbLine
 10
-10.411
 20
46.191
 30
0.0
 11
-13.732
 21
42.716
 31
0.0
  0
LINE
  5
12B
330
70
100
AcDbEntity
  8
0
  6
Continuous
100
AcDbLine
 10
20.086
 20
52.387
 30
0.0
 11
19.593
 21
72.40099999999999
 31
0.0
  0
LINE
  5
12C
330
70
100
AcDbEntity
  8
0
  6
Continuous
100
AcDbLine
 10
19.593
 20
72.40099999999999
 30
0.0
 11
19.224
 21
87.40099999999999
 31
0.0
  0
LINE
  5
12D
330
70
100
AcDbEntity
  8
0
  6
Continuous
100
AcDbLine
 10
22.975
 20
-153.0
 30
0.0
 11
20.086
 21
52.387
 31
0.0
  0
LINE
  5
12E
330
70
100
AcDbEntity
  8
0
  6
Continuous
100
AcDbLine
 10
13.635
 20
85.197
 30
0.0
 11
13.532
 21
90.92
 31
0.0
  0
LINE
  5
12F
330
70
100
AcDbEntity
  8
0
  6
Continuous
100
AcDbLine
 10
16.199
 20
69.078
 30
0.0
 11
16.225
 21
69.904
 31
0.0
  0
LINE
  5
130
330
70
100
AcDbEntity
  8
0
  6
Continuous
100
AcDbLine
 10
13.732
 20
80.17599999999999
 30
0.0
 11
13.796
 21
77.20299999999999
 31
0.0
  0
LINE
  5
131
330
70
100
AcDbEntity
  8
0
  6
Continuous
100
AcDbLine
 10
16.225
 20
69.904
 30
0.0
 11
16.252
 21
70.75099999999999
 31
0.0
  0
LINE
  5
132
330
70
100
AcDbEntity
  8
0
  6
Continuous
100
AcDbLine
 10
13.635
 20
85.197
 30
0.0
 11
13.732
 21
80.17599999999999
 31
0.0
  0
LINE
  5
133
330
70
100
AcDbEntity
  8
0
  6
Continuous
100
AcDbLine
 10
13.796
 20
77.20299999999999
 30
0.0
 11
13.793
 21
75.501
 31
0.0
  0
LINE
  5
134
330
70
100
AcDbEntity
  8
0
  6
Continuous
100
AcDbLine
 10
16.15
 20
67.551
 30
0.0
 11
16.199
 21
69.078
 31
0.0
  0
LINE
  5
135
330
70
100
AcDbEntity
  8
0
  6
Continuous
100
AcDbLine
 10
-19.593
 20
72.40099999999999
 30
0.0
 11
-20.086
 21
52.387
 31
0.0
  0
LINE
  5
136
330
70
100
AcDbEntity
  8
0
  6
Continuous
100
AcDbLine
 10
-19.224
 20
87.40099999999999
 30
0.0
 11
-19.593
 21
72.40099999999999
 31
0.0
  0
LINE
  5
137
330
70
100
AcDbEntity
  8
0
  6
Continuous
100
AcDbLine
 10
-19.015
 20
101.401
 30
0.0
 11
-19.224
 21
87.40099999999999
 31
0.0
  0
LINE
  5
138
330
70
100
AcDbEntity
  8
0
  6
Continuous
100
AcDbLine
 10
-15.95
 20
61.264
 30
0.0
 11
-16.923
 21
71.61799999999999
 31
0.0
  0
LINE
  5
139
330
70
100
AcDbEntity
  8
0
  6
Continuous
100
AcDbLine
 10
-13.532
 20
90.92
 30
0.0
 11
-13.635
 21
85.197
 31
0.0
  0
LINE
  5
13A
330
70
100
AcDbEntity
  8
0
  6
Continuous
100
AcDbLine
 10
-13.796
 20
77.20299999999999
 30
0.0
 11
-13.732
 21
80.17599999999999
 31
0.0
  0
LINE
  5
13B
330
70
100
AcDbEntity
  8
0
  6
Continuous
100
AcDbLine
 10
-16.225
 20
69.904
 30
0.0
 11
-16.199
 21
69.078
 31
0.0
  0
LINE
  5
13C
330
70
100
AcDbEntity
  8
0
  6
Continuous
100
AcDbLine
 10
-13.732
 20
80.17599999999999
 30
0.0
 11
-13.635
 21
85.197
 31
0.0
  0
LINE
  5
13D
330
70
100
AcDbEntity
  8
0
  6
Continuous
100
AcDbLine
 10
-16.252
 20
70.75099999999999
 30
0.0
 11
-16.225
 21
69.904
 31
0.0
  0
LINE
  5
13E
330
70
100
AcDbEntity
  8
0
  6
Continuous
100
AcDbLine
 10
19.224
 20
87.40099999999999
 30
0.0
 11
19.015
 21
101.401
 31
0.0
  0
LINE
  5
13F
330
70
100
AcDbEntity
  8
0
  6
Continuous
100
AcDbLine
 10
-16.199
 20
69.078
 30
0.0
 11
-16.15
 21
67.551
 31
0.0
  0
LINE
  5
140
330
70
100
AcDbEntity
  8
0
  6
Continuous
100
AcDbLine
 10
-13.793
 20
75.501
 30
0.0
 11
-13.796
 21
77.20299999999999
 31
0.0
  0
LINE
  5
141
330
70
100
AcDbEntity
  8
0
  6
Continuous
100
AcDbLine
 10
-6.972999999999999
 20
40.377
 30
0.0
 11
-3.665999999999999
 21
41.51600000000001
 31
0.0
  0
LINE
  5
142
330
70
100
AcDbEntity
  8
0
  6
Continuous
100
AcDbLine
 10
-9.598
 20
38.604
 30
0.0
 11
-6.972999999999999
 21
40.377
 31
0.0
  0
LINE
  5
143
330
70
100
AcDbEntity
  8
0
  6
Continuous
100
AcDbLine
 10
-11.283
 20
36.368
 30
0.0
 11
-9.598
 21
38.604
 31
0.0
  0
LINE
  5
144
330
70
100
AcDbEntity
  8
0
  6
Continuous
100
AcDbLine
 10
-11.863
 20
34.528
 30
0.0
 11
-11.863
 21
33.89100000000001
 31
0.0
  0
LINE
  5
145
330
70
100
AcDbEntity
  8
0
  6
Continuous
100
AcDbLine
 10
-11.863
 20
33.89100000000001
 30
0.0
 11
-11.283
 21
36.368
 31
0.0
  0
LINE
  5
146
330
70
100
AcDbEntity
  8
0
  6
Continuous
100
AcDbLine
 10
-11.863
 20
33.89100000000001
 30
0.0
 11
-11.283
 21
31.413
 31
0.0
  0
LINE
  5
147
330
70
100
AcDbEntity
  8
0
  6
Continuous
100
AcDbLine
 10
-11.283
 20
31.413
 30
0.0
 11
-9.598
 21
29.178
 31
0.0
  0
LINE
  5
148
330
70
100
AcDbEntity
  8
0
  6
Continuous
100
AcDbLine
 10
-9.598
 20
29.178
 30
0.0
 11
-6.972999999999999
 21
27.404
 31
0.0
  0
LINE
  5
149
330
70
100
AcDbEntity
  8
0
  6
Continuous
100
AcDbLine
 10
-6.972999999999999
 20
27.404
 30
0.0
 11
-3.665999999999999
 21
26.265
 31
0.0
  0
LINE
  5
14A
330
70
100
AcDbEntity
  8
0
  6
Continuous
100
AcDbLine
 10
-3.665999999999999
 20
26.265
 30
0.0
 11
0.0
 21
25.873
 31
0.0
  0
LINE
  5
14B
330
70
100
AcDbEntity
  8
0
  6
Continuous
100
AcDbLine
 10
0.0
 20
25.873
 30
0.0
 11
3.665999999999999
 21
26.265
 31
0.0
  0
LINE
  5
14C
330
70
100
AcDbEntity
  8
0
  6
Continuous
100
AcDbLine
 10
3.665999999999999
 20
26.265
 30
0.0
 11
6.972999999999999
 21
27.404
 31
0.0
  0
LINE
  5
14D
330
70
100
AcDbEntity
  8
0
  6
Continuous
100
AcDbLine
 10
6.972999999999999
 20
27.404
 30
0.0
 11
9.598
 21
29.178
 31
0.0
  0
LINE
  5
14E
330
70
100
AcDbEntity
  8
0
  6
Continuous
100
AcDbLine
 10
9.598
 20
29.178
 30
0.0
 11
11.283
 21
31.413
 31
0.0
  0
LINE
  5
14F
330
70
100
AcDbEntity
  8
0
  6
Continuous
100
AcDbLine
 10
11.283
 20
31.413
 30
0.0
 11
11.863
 21
33.89100000000001
 31
0.0
  0
LINE
  5
150
330
70
100
AcDbEntity
  8
0
  6
Continuous
100
AcDbLine
 10
11.863
 20
33.89100000000001
 30
0.0
 11
11.863
 21
34.528
 31
0.0
  0
LINE
  5
151
330
70
100
AcDbEntity
  8
0
  6
Continuous
100
AcDbLine
 10
11.283
 20
36.368
 30
0.0
 11
11.863
 21
33.89100000000001
 31
0.0
  0
LINE
  5
152
330
70
100
AcDbEntity
  8
0
  6
Continuous
100
AcDbLine
 10
9.598
 20
38.604
 30
0.0
 11
11.283
 21
36.368
 31
0.0
  0
LINE
  5
153
330
70
100
AcDbEntity
  8
0
  6
Continuous
100
AcDbLine
 10
6.972999999999999
 20
40.377
 30
0.0
 11
9.598
 21
38.604
 31
0.0
  0
LINE
  5
154
330
70
100
AcDbEntity
  8
0
  6
Continuous
100
AcDbLine
 10
3.665999999999999
 20
41.51600000000001
 30
0.0
 11
6.972999999999999
 21
40.377
 31
0.0
  0
LINE
  5
155
330
70
100
AcDbEntity
  8
0
  6
Continuous
100
AcDbLine
 10
0.0
 20
41.90899999999999
 30
0.0
 11
3.665999999999999
 21
41.51600000000001
 31
0.0
  0
LINE
  5
156
330
70
100
AcDbEntity
  8
0
  6
Continuous
100
AcDbLine
 10
-3.665999999999999
 20
41.51600000000001
 30
0.0
 11
0.0
 21
41.90899999999999
 31
0.0
  0
LINE
  5
157
330
70
100
AcDbEntity
  8
0
  6
Continuous
100
AcDbLine
 10
11.863
 20
34.528
 30
0.0
 11
11.863
 21
37.553
 31
0.0
  0
LINE
  5
158
330
70
100
AcDbEntity
  8
0
  6
Continuous
100
AcDbLine
 10
-11.863
 20
37.553
 30
0.0
 11
-11.863
 21
34.528
 31
0.0
  0
LINE
  5
159
330
70
100
AcDbEntity
  8
0
  6
Continuous
100
AcDbLine
 10
-5.303999999999999
 20
38.823
 30
0.0
 11
-2.789
 21
39.689
 31
0.0
  0
LINE
  5
15A
330
70
100
AcDbEntity
  8
0
  6
Continuous
100
AcDbLine
 10
-7.299999999999999
 20
37.47400000000001
 30
0.0
 11
-5.303999999999999
 21
38.823
 31
0.0
  0
LINE
  5
15B
330
70
100
AcDbEntity
  8
0
  6
Continuous
100
AcDbLine
 10
-8.580999999999999
 20
35.774
 30
0.0
 11
-7.299999999999999
 21
37.47400000000001
 31
0.0
  0
LINE
  5
15C
330
70
100
AcDbEntity
  8
0
  6
Continuous
100
AcDbLine
 10
-9.022
 20
33.89100000000001
 30
0.0
 11
-8.580999999999999
 21
35.774
 31
0.0
  0
LINE
  5
15D
330
70
100
AcDbEntity
  8
0
  6
Continuous
100
AcDbLine
 10
8.580999999999999
 20
35.774
 30
0.0
 11
9.022
 21
33.89100000000001
 31
0.0
  0
LINE
  5
15E
330
70
100
AcDbEntity
  8
0
  6
Continuous
100
AcDbLine
 10
7.299999999999999
 20
37.47400000000001
 30
0.0
 11
8.580999999999999
 21
35.774
 31
0.0
  0
LINE
  5
15F
330
70
100
AcDbEntity
  8
0
  6
Continuous
100
AcDbLine
 10
5.303999999999999
 20
38.823
 30
0.0
 11
7.299999999999999
 21
37.47400000000001
 31
0.0
  0
LINE
  5
160
330
70
100
AcDbEntity
  8
0
  6
Continuous
100
AcDbLine
 10
2.789
 20
39.689
 30
0.0
 11
5.303999999999999
 21
38.823
 31
0.0
  0
LINE
  5
161
330
70
100
AcDbEntity
  8
0
  6
Continuous
100
AcDbLine
 10
0.0
 20
39.988
 30
0.0
 11
2.789
 21
39.689
 31
0.0
  0
LINE
  5
162
330
70
100
AcDbEntity
  8
0
  6
Continuous
100
AcDbLine
 10
-2.789
 20
39.689
 30
0.0
 11
0.0
 21
39.988
 31
0.0
  0
LINE
  5
163
330
70
100
AcDbEntity
  8
0
  6
Continuous
100
AcDbLine
 10
-5.303999999999999
 20
29.34
 30
0.0
 11
-7.299999999999999
 21
30.689
 31
0.0
  0
LINE
  5
164
330
70
100
AcDbEntity
  8
0
  6
Continuous
100
AcDbLine
 10
-7.299999999999999
 20
30.307
 30
0.0
 11
-5.303999999999999
 21
28.958
 31
0.0
  0
LINE
  5
165
330
70
100
AcDbEntity
  8
0
  6
Continuous
100
AcDbLine
 10
5.303999999999999
 20
29.34
 30
0.0
 11
2.789
 21
28.474
 31
0.0
  0
LINE
  5
166
330
70
100
AcDbEntity
  8
0
  6
Continuous
100
AcDbLine
 10
2.789
 20
28.092
 30
0.0
 11
5.303999999999999
 21
28.958
 31
0.0
  0
LINE
  5
167
330
70
100
AcDbEntity
  8
0
  6
Continuous
100
AcDbLine
 10
7.299999999999999
 20
30.689
 30
0.0
 11
5.303999999999999
 21
29.34
 31
0.0
  0
LINE
  5
168
330
70
100
AcDbEntity
  8
0
  6
Continuous
100
AcDbLine
 10
5.303999999999999
 20
28.958
 30
0.0
 11
7.299999999999999
 21
30.307
 31
0.0
  0
LINE
  5
169
330
70
100
AcDbEntity
  8
0
  6
Continuous
100
AcDbLine
 10
-2.789
 20
28.474
 30
0.0
 11
-5.303999999999999
 21
29.34
 31
0.0
  0
LINE
  5
16A
330
70
100
AcDbEntity
  8
0
  6
Continuous
100
AcDbLine
 10
-5.303999999999999
 20
28.958
 30
0.0
 11
-2.789
 21
28.092
 31
0.0
  0
LINE
  5
16B
330
70
100
AcDbEntity
  8
0
  6
Continuous
100
AcDbLine
 10
8.580999999999999
 20
32.38900000000001
 30
0.0
 11
7.299999999999999
 21
30.689
 31
0.0
  0
LINE
  5
16C
330
70
100
AcDbEntity
  8
0
  6
Continuous
100
AcDbLine
 10
7.299999999999999
 20
30.307
 30
0.0
 11
8.580999999999999
 21
32.007
 31
0.0
  0
LINE
  5
16D
330
70
100
AcDbEntity
  8
0
  6
Continuous
100
AcDbLine
 10
0.0
 20
28.176
 30
0.0
 11
-2.789
 21
28.474
 31
0.0
  0
LINE
  5
16E
330
70
100
AcDbEntity
  8
0
  6
Continuous
100
AcDbLine
 10
-2.789
 20
28.092
 30
0.0
 11
0.0
 21
27.794
 31
0.0
  0
LINE
  5
16F
330
70
100
AcDbEntity
  8
0
  6
Continuous
100
AcDbLine
 10
-8.580999999999999
 20
32.38900000000001
 30
0.0
 11
-9.022
 21
34.27300000000001
 31
0.0
  0
LINE
  5
170
330
70
100
AcDbEntity
  8
0
  6
Continuous
100
AcDbLine
 10
-9.022
 20
33.89100000000001
 30
0.0
 11
-8.580999999999999
 21
32.007
 31
0.0
  0
LINE
  5
171
330
70
100
AcDbEntity
  8
0
  6
Continuous
100
AcDbLine
 10
9.022
 20
34.27300000000001
 30
0.0
 11
8.580999999999999
 21
32.38900000000001
 31
0.0
  0
LINE
  5
172
330
70
100
AcDbEntity
  8
0
  6
Continuous
100
AcDbLine
 10
8.580999999999999
 20
32.007
 30
0.0
 11
9.022
 21
33.89100000000001
 31
0.0
  0
LINE
  5
173
330
70
100
AcDbEntity
  8
0
  6
Continuous
100
AcDbLine
 10
2.789
 20
28.474
 30
0.0
 11
0.0
 21
28.176
 31
0.0
  0
LINE
  5
174
330
70
100
AcDbEntity
  8
0
  6
Continuous
100
AcDbLine
 10
0.0
 20
27.794
 30
0.0
 11
2.789
 21
28.092
 31
0.0
  0
LINE
  5
175
330
70
100
AcDbEntity
  8
0
  6
Continuous
100
AcDbLine
 10
-7.299999999999999
 20
30.689
 30
0.0
 11
-8.580999999999999
 21
32.38900000000001
 31
0.0
  0
LINE
  5
176
330
70
100
AcDbEntity
  8
0
  6
Continuous
100
AcDbLine
 10
-8.580999999999999
 20
32.007
 30
0.0
 11
-7.299999999999999
 21
30.307
 31
0.0
  0
LINE
  5
177
330
70
100
AcDbEntity
  8
0
  6
Continuous
100
AcDbLine
 10
-11.73
 20
38.13
 30
0.0
 11
-11.863
 21
37.553
 31
0.0
  0
LINE
  5
178
330
70
100
AcDbEntity
  8
0
  6
Continuous
100
AcDbLine
 10
11.73
 20
38.13
 30
0.0
 11
11.863
 21
37.553
 31
0.0
  0
LINE
  5
179
330
70
100
AcDbEntity
  8
0
  6
Continuous
100
AcDbLine
 10
0.0
 20
45.679
 30
0.0
 11
3.665999999999999
 21
45.281
 31
0.0
  0
LINE
  5
17A
330
70
100
AcDbEntity
  8
0
  6
Continuous
100
AcDbLine
 10
-9.598
 20
42.32999999999999
 30
0.0
 11
-9.245999999999998
 21
42.56999999999999
 31
0.0
  0
LINE
  5
17B
330
70
100
AcDbEntity
  8
0
  6
Continuous
100
AcDbLine
 10
-3.665999999999999
 20
45.281
 30
0.0
 11
0.0
 21
45.679
 31
0.0
  0
LINE
  5
17C
330
70
100
AcDbEntity
  8
0
  6
Continuous
100
AcDbLine
 10
9.245999999999998
 20
42.56999999999999
 30
0.0
 11
9.598
 21
42.32999999999999
 31
0.0
  0
LINE
  5
273
330
70
100
AcDbEntity
  8
0
  6
CENTER2
 48
25.0
100
AcDbLine
 10
0.0
 20
452.1716752369904
 30
0.0
 11
0.0
 21
369.8667593571593
 31
0.0
  0
LINE
  5
275
330
70
100
AcDbEntity
  8
0
  6
Continuous
100
AcDbLine
 10
-18.35300000000006
 20
400.0370757510406
 30
0.0
 11
-16.455
 21
395.4720757510406
 31
0.0
  0
LINE
  5
276
330
70
100
AcDbEntity
  8
0
  6
Continuous
100
AcDbLine
 10
-18.35300000000006
 20
409.8820757510406
 30
0.0
 11
-19.00000000000002
 21
404.9800757510406
 31
0.0
  0
LINE
  5
277
330
70
100
AcDbEntity
  8
0
  6
Continuous
100
AcDbLine
 10
0.0
 20
423.9720757510405
 30
0.0
 11
-4.917999999999977
 21
423.3260757510406
 31
0.0
  0
LINE
  5
278
330
70
100
AcDbEntity
  8
0
  6
Continuous
100
AcDbLine
 10
-16.455
 20
414.4690757510405
 30
0.0
 11
-18.35300000000006
 21
409.8820757510406
 31
0.0
  0
LINE
  5
279
330
70
100
AcDbEntity
  8
0
  6
Continuous
100
AcDbLine
 10
-9.500000000000063
 20
421.4280757510405
 30
0.0
 11
-13.43499999999997
 21
418.4070757510406
 31
0.0
  0
LINE
  5
27A
330
70
100
AcDbEntity
  8
0
  6
Continuous
100
AcDbLine
 10
-13.43499999999997
 20
391.5370757510406
 30
0.0
 11
-9.500000000000063
 21
388.5170757510406
 31
0.0
  0
LINE
  5
27B
330
70
100
AcDbEntity
  8
0
  6
Continuous
100
AcDbLine
 10
-4.917999999999977
 20
423.3260757510406
 30
0.0
 11
-9.500000000000063
 21
421.4280757510405
 31
0.0
  0
LINE
  5
27C
330
70
100
AcDbEntity
  8
0
  6
Continuous
100
AcDbLine
 10
-18.35300000000006
 20
400.0370757510406
 30
0.0
 11
-19.00000000000002
 21
404.9800757510406
 31
0.0
  0
LINE
  5
27D
330
70
100
AcDbEntity
  8
0
  6
Continuous
100
AcDbLine
 10
-16.455
 20
414.4690757510405
 30
0.0
 11
-13.43499999999997
 21
418.4070757510406
 31
0.0
  0
LINE
  5
27E
330
70
100
AcDbEntity
  8
0
  6
Continuous
100
AcDbLine
 10
-16.455
 20
395.4720757510406
 30
0.0
 11
-13.43499999999997
 21
391.5370757510406
 31
0.0
  0
LINE
  5
27F
330
70
100
AcDbEntity
  8
0
  6
Continuous
100
AcDbLine
 10
-4.917999999999977
 20
386.6190757510406
 30
0.0
 11
-9.500000000000063
 21
388.5170757510406
 31
0.0
  0
LINE
  5
280
330
70
100
AcDbEntity
  8
0
  6
Continuous
100
AcDbLine
 10
0.0
 20
385.9720757510406
 30
0.0
 11
-4.917999999999977
 21
386.6190757510406
 31
0.0
  0
LINE
  5
281
330
70
100
AcDbEntity
  8
0
  6
Continuous
100
AcDbLine
 10
-4.593999999999986
 20
386.0190757510407
 30
0.0
 11
-1.565999999999956
 21
381.3620757510406
 31
0.0
  0
LINE
  5
282
330
70
100
AcDbEntity
  8
0
  6
Continuous
100
AcDbLine
 10
0.0
 20
380.1630757510406
 30
0.0
 11
-0.6969999999999477
 21
380.4510757510407
 31
0.0
  0
LINE
  5
283
330
70
100
AcDbEntity
  8
0
  6
Continuous
100
AcDbLine
 10
-0.6969999999999477
 20
380.4160757510406
 30
0.0
 11
0.0
 21
380.1630757510406
 31
0.0
  0
LINE
  5
284
330
70
100
AcDbEntity
  8
0
  6
Continuous
100
AcDbLine
 10
-1.565999999999956
 20
381.3620757510406
 30
0.0
 11
-1.049999999999995
 21
380.5680757510406
 31
0.0
  0
LINE
  5
285
330
70
100
AcDbEntity
  8
0
  6
Continuous
100
AcDbLine
 10
-1.576999999999939
 20
381.4040757510406
 30
0.0
 11
-1.063000000000036
 21
380.6130757510406
 31
0.0
  0
LINE
  5
286
330
70
100
AcDbEntity
  8
0
  6
Continuous
100
AcDbLine
 10
-4.601000000000077
 20
386.0470757510406
 30
0.0
 11
-1.576999999999939
 21
381.4040757510406
 31
0.0
  0
LINE
  5
287
330
70
100
AcDbEntity
  8
0
  6
Continuous
100
AcDbLine
 10
-4.601000000000077
 20
386.0470757510406
 30
0.0
 11
-1.54999999999994
 21
383.8840757510407
 31
0.0
  0
LINE
  5
288
330
70
100
AcDbEntity
  8
0
  6
Continuous
100
AcDbLine
 10
-0.6900000000000795
 20
386.0430757510406
 30
0.0
 11
-1.062000000000007
 21
386.0920757510406
 31
0.0
  0
LINE
  5
289
330
70
100
AcDbEntity
  8
0
  6
Continuous
100
AcDbLine
 10
-1.049999999999995
 20
380.5680757510406
 30
0.0
 11
-0.6969999999999477
 21
380.4160757510406
 31
0.0
  0
LINE
  5
28A
330
70
100
AcDbEntity
  8
0
  6
Continuous
100
AcDbLine
 10
-1.062000000000007
 20
380.6110757510406
 30
0.0
 11
-1.049999999999995
 21
380.5680757510406
 31
0.0
  0
LINE
  5
28B
330
70
100
AcDbEntity
  8
0
  6
Continuous
100
AcDbLine
 10
-1.07299999999999
 20
381.2600757510406
 30
0.0
 11
-1.063000000000036
 21
380.6130757510406
 31
0.0
  0
LINE
  5
28C
330
70
100
AcDbEntity
  8
0
  6
Continuous
100
AcDbLine
 10
-1.063000000000036
 20
380.6130757510406
 30
0.0
 11
-0.6969999999999477
 21
380.4510757510407
 31
0.0
  0
LINE
  5
28D
330
70
100
AcDbEntity
  8
0
  6
Continuous
100
AcDbLine
 10
0.0
 20
385.9520757510407
 30
0.0
 11
-0.6900000000000795
 21
386.0430757510406
 31
0.0
  0
LINE
  5
28E
330
70
100
AcDbEntity
  8
0
  6
Continuous
100
AcDbLine
 10
-4.917999999999977
 20
386.6000757510406
 30
0.0
 11
-4.601000000000077
 21
386.0470757510406
 31
0.0
  0
LINE
  5
28F
330
70
100
AcDbEntity
  8
0
  6
Continuous
100
AcDbLine
 10
-4.917999999999977
 20
386.6000757510406
 30
0.0
 11
-4.323000000000076
 21
386.4580757510406
 31
0.0
  0
LINE
  5
290
330
70
100
AcDbEntity
  8
0
  6
Continuous
100
AcDbLine
 10
-4.290000000000016
 20
386.5170757510406
 30
0.0
 11
-4.917999999999977
 21
386.6000757510406
 31
0.0
  0
LINE
  5
291
330
70
100
AcDbEntity
  8
0
  6
Continuous
100
AcDbLine
 10
-1.539999999999985
 20
386.1550757510406
 30
0.0
 11
-4.290000000000016
 21
386.5170757510406
 31
0.0
  0
LINE
  5
292
330
70
100
AcDbEntity
  8
0
  6
Continuous
100
AcDbLine
 10
-1.062000000000007
 20
386.0920757510406
 30
0.0
 11
-1.539999999999985
 21
386.1550757510406
 31
0.0
  0
LINE
  5
293
330
70
100
AcDbEntity
  8
0
  6
Continuous
100
AcDbLine
 10
-4.917999999999977
 20
386.6000757510406
 30
0.0
 11
-4.448000000000007
 21
386.2730757510407
 31
0.0
  0
LINE
  5
294
330
70
100
AcDbEntity
  8
0
  6
Continuous
100
AcDbLine
 10
-4.448000000000007
 20
386.2730757510407
 30
0.0
 11
-4.572999999999938
 21
386.0890757510406
 31
0.0
  0
LINE
  5
295
330
70
100
AcDbEntity
  8
0
  6
Continuous
100
AcDbLine
 10
-1.547999999999993
 20
384.9080757510406
 30
0.0
 11
-4.572999999999938
 21
386.0890757510406
 31
0.0
  0
LINE
  5
296
330
70
100
AcDbEntity
  8
0
  6
Continuous
100
AcDbLine
 10
-4.572999999999938
 20
386.0890757510406
 30
0.0
 11
-1.54999999999994
 21
383.8840757510407
 31
0.0
  0
LINE
  5
297
330
70
100
AcDbEntity
  8
0
  6
Continuous
100
AcDbLine
 10
-4.917999999999977
 20
386.5990757510406
 30
0.0
 11
-4.593999999999986
 21
386.0190757510407
 31
0.0
  0
LINE
  5
298
330
70
100
AcDbEntity
  8
0
  6
Continuous
100
AcDbLine
 10
16.455
 20
395.4720757510406
 30
0.0
 11
18.35300000000006
 21
400.0370757510406
 31
0.0
  0
LINE
  5
299
330
70
100
AcDbEntity
  8
0
  6
Continuous
100
AcDbLine
 10
19.00000000000002
 20
404.9800757510406
 30
0.0
 11
18.35300000000006
 21
409.8820757510406
 31
0.0
  0
LINE
  5
29A
330
70
100
AcDbEntity
  8
0
  6
Continuous
100
AcDbLine
 10
4.917999999999977
 20
423.3260757510406
 30
0.0
 11
0.0
 21
423.9720757510405
 31
0.0
  0
LINE
  5
29B
330
70
100
AcDbEntity
  8
0
  6
Continuous
100
AcDbLine
 10
18.35300000000006
 20
409.8820757510406
 30
0.0
 11
16.455
 21
414.4690757510405
 31
0.0
  0
LINE
  5
29C
330
70
100
AcDbEntity
  8
0
  6
Continuous
100
AcDbLine
 10
13.43499999999997
 20
418.4070757510406
 30
0.0
 11
9.500000000000063
 21
421.4280757510405
 31
0.0
  0
LINE
  5
29D
330
70
100
AcDbEntity
  8
0
  6
Continuous
100
AcDbLine
 10
9.500000000000063
 20
388.5170757510406
 30
0.0
 11
13.43499999999997
 21
391.5370757510406
 31
0.0
  0
LINE
  5
29E
330
70
100
AcDbEntity
  8
0
  6
Continuous
100
AcDbLine
 10
9.500000000000063
 20
421.4280757510405
 30
0.0
 11
4.917999999999977
 21
423.3260757510406
 31
0.0
  0
LINE
  5
29F
330
70
100
AcDbEntity
  8
0
  6
Continuous
100
AcDbLine
 10
19.00000000000002
 20
404.9800757510406
 30
0.0
 11
18.35300000000006
 21
400.0370757510406
 31
0.0
  0
LINE
  5
2A0
330
70
100
AcDbEntity
  8
0
  6
Continuous
100
AcDbLine
 10
13.43499999999997
 20
418.4070757510406
 30
0.0
 11
16.455
 21
414.4690757510405
 31
0.0
  0
LINE
  5
2A1
330
70
100
AcDbEntity
  8
0
  6
Continuous
100
AcDbLine
 10
13.43499999999997
 20
391.5370757510406
 30
0.0
 11
16.455
 21
395.4720757510406
 31
0.0
  0
LINE
  5
2A2
330
70
100
AcDbEntity
  8
0
  6
Continuous
100
AcDbLine
 10
9.500000000000063
 20
388.5170757510406
 30
0.0
 11
4.917999999999977
 21
386.6190757510406
 31
0.0
  0
LINE
  5
2A3
330
70
100
AcDbEntity
  8
0
  6
Continuous
100
AcDbLine
 10
4.917999999999977
 20
386.6190757510406
 30
0.0
 11
0.0
 21
385.9720757510406
 31
0.0
  0
LINE
  5
2A4
330
70
100
AcDbEntity
  8
0
  6
Continuous
100
AcDbLine
 10
0.0
 20
380.9930757510406
 30
0.0
 11
0.0
 21
380.1630757510406
 31
0.0
  0
LINE
  5
2A5
330
70
100
AcDbEntity
  8
0
  6
Continuous
100
AcDbLine
 10
1.565999999999956
 20
381.3620757510406
 30
0.0
 11
4.593999999999986
 21
386.0190757510407
 31
0.0
  0
LINE
  5
2A6
330
70
100
AcDbEntity
  8
0
  6
Continuous
100
AcDbLine
 10
0.6969999999999477
 20
380.4510757510407
 30
0.0
 11
0.0
 21
380.1630757510406
 31
0.0
  0
LINE
  5
2A7
330
70
100
AcDbEntity
  8
0
  6
Continuous
100
AcDbLine
 10
0.0
 20
380.1630757510406
 30
0.0
 11
0.6969999999999477
 21
380.4160757510406
 31
0.0
  0
LINE
  5
2A8
330
70
100
AcDbEntity
  8
0
  6
Continuous
100
AcDbLine
 10
1.049999999999995
 20
380.5680757510406
 30
0.0
 11
1.565999999999956
 21
381.3620757510406
 31
0.0
  0
LINE
  5
2A9
330
70
100
AcDbEntity
  8
0
  6
Continuous
100
AcDbLine
 10
1.063000000000036
 20
380.6130757510406
 30
0.0
 11
1.576999999999939
 21
381.4040757510406
 31
0.0
  0
LINE
  5
2AA
330
70
100
AcDbEntity
  8
0
  6
Continuous
100
AcDbLine
 10
1.576999999999939
 20
381.4040757510406
 30
0.0
 11
4.601000000000077
 21
386.0470757510406
 31
0.0
  0
LINE
  5
2AB
330
70
100
AcDbEntity
  8
0
  6
Continuous
100
AcDbLine
 10
4.601000000000077
 20
386.0470757510406
 30
0.0
 11
1.54999999999994
 21
383.8840757510407
 31
0.0
  0
LINE
  5
2AC
330
70
100
AcDbEntity
  8
0
  6
Continuous
100
AcDbLine
 10
1.062000000000007
 20
386.0920757510406
 30
0.0
 11
0.6900000000000795
 21
386.0430757510406
 31
0.0
  0
LINE
  5
2AD
330
70
100
AcDbEntity
  8
0
  6
Continuous
100
AcDbLine
 10
1.049999999999995
 20
380.5680757510406
 30
0.0
 11
1.062000000000007
 21
380.6110757510406
 31
0.0
  0
LINE
  5
2AE
330
70
100
AcDbEntity
  8
0
  6
Continuous
100
AcDbLine
 10
0.6969999999999477
 20
380.4160757510406
 30
0.0
 11
1.049999999999995
 21
380.5680757510406
 31
0.0
  0
LINE
  5
2AF
330
70
100
AcDbEntity
  8
0
  6
Continuous
100
AcDbLine
 10
0.6969999999999477
 20
380.4510757510407
 30
0.0
 11
1.063000000000036
 21
380.6130757510406
 31
0.0
  0
LINE
  5
2B0
330
70
100
AcDbEntity
  8
0
  6
Continuous
100
AcDbLine
 10
1.063000000000036
 20
380.6130757510406
 30
0.0
 11
1.07299999999999
 21
381.2600757510406
 31
0.0
  0
LINE
  5
2B1
330
70
100
AcDbEntity
  8
0
  6
Continuous
100
AcDbLine
 10
0.6900000000000795
 20
386.0430757510406
 30
0.0
 11
0.0
 21
385.9520757510407
 31
0.0
  0
LINE
  5
2B2
330
70
100
AcDbEntity
  8
0
  6
Continuous
100
AcDbLine
 10
4.601000000000077
 20
386.0470757510406
 30
0.0
 11
4.917999999999977
 21
386.6000757510406
 31
0.0
  0
LINE
  5
2B3
330
70
100
AcDbEntity
  8
0
  6
Continuous
100
AcDbLine
 10
4.323000000000076
 20
386.4580757510406
 30
0.0
 11
4.917999999999977
 21
386.6000757510406
 31
0.0
  0
LINE
  5
2B4
330
70
100
AcDbEntity
  8
0
  6
Continuous
100
AcDbLine
 10
4.917999999999977
 20
386.6000757510406
 30
0.0
 11
4.290000000000016
 21
386.5170757510406
 31
0.0
  0
LINE
  5
2B5
330
70
100
AcDbEntity
  8
0
  6
Continuous
100
AcDbLine
 10
4.290000000000016
 20
386.5170757510406
 30
0.0
 11
1.539999999999985
 21
386.1550757510406
 31
0.0
  0
LINE
  5
2B6
330
70
100
AcDbEntity
  8
0
  6
Continuous
100
AcDbLine
 10
1.539999999999985
 20
386.1550757510406
 30
0.0
 11
1.062000000000007
 21
386.0920757510406
 31
0.0
  0
LINE
  5
2B7
330
70
100
AcDbEntity
  8
0
  6
Continuous
100
AcDbLine
 10
4.448000000000007
 20
386.2730757510407
 30
0.0
 11
4.917999999999977
 21
386.6000757510406
 31
0.0
  0
LINE
  5
2B8
330
70
100
AcDbEntity
  8
0
  6
Continuous
100
AcDbLine
 10
1.54999999999994
 20
383.8840757510407
 30
0.0
 11
4.572999999999938
 21
386.0890757510406
 31
0.0
  0
LINE
  5
2B9
330
70
100
AcDbEntity
  8
0
  6
Continuous
100
AcDbLine
 10
1.547999999999993
 20
384.9080757510406
 30
0.0
 11
4.572999999999938
 21
386.0890757510406
 31
0.0
  0
LINE
  5
2BA
330
70
100
AcDbEntity
  8
0
  6
Continuous
100
AcDbLine
 10
4.572999999999938
 20
386.0890757510406
 30
0.0
 11
4.448000000000007
 21
386.2730757510407
 31
0.0
  0
LINE
  5
2BB
330
70
100
AcDbEntity
  8
0
  6
Continuous
100
AcDbLine
 10
4.593999999999986
 20
386.0190757510407
 30
0.0
 11
4.917999999999977
 21
386.5990757510406
 31
0.0
  0
LINE
  5
2BC
330
70
100
AcDbEntity
  8
0
  6
Continuous
100
AcDbLine
 10
16.65699999999992
 20
394.2670757510406
 30
0.0
 11
16.92300000000002
 21
394.9990757510406
 31
0.0
  0
LINE
  5
2BD
330
70
100
AcDbEntity
  8
0
  6
Continuous
100
AcDbLine
 10
-16.92300000000002
 20
394.9990757510406
 30
0.0
 11
-16.65699999999992
 21
394.2670757510406
 31
0.0
  0
LINE
  5
2BE
330
70
100
AcDbEntity
  8
0
  6
Continuous
100
AcDbLine
 10
-16.15
 20
384.6980757510406
 30
0.0
 11
-15.22500000000004
 21
316.3220757510405
 31
0.0
  0
LINE
  5
2BF
330
70
100
AcDbEntity
  8
0
  6
Continuous
100
AcDbLine
 10
15.22500000000004
 20
316.3220757510405
 30
0.0
 11
16.15
 21
384.6980757510406
 31
0.0
  0
LINE
  5
2C0
330
70
100
AcDbEntity
  8
0
  6
Continuous
100
AcDbLine
 10
22.21600000000002
 20
410.9210757510406
 30
0.0
 11
19.91900000000002
 21
416.4690757510404
 31
0.0
  0
LINE
  5
2C1
330
70
100
AcDbEntity
  8
0
  6
Continuous
100
AcDbLine
 10
16.26300000000003
 20
421.2330757510406
 30
0.0
 11
11.50000000000006
 21
424.8880757510406
 31
0.0
  0
LINE
  5
2C2
330
70
100
AcDbEntity
  8
0
  6
Continuous
100
AcDbLine
 10
22.21600000000002
 20
399.0140757510406
 30
0.0
 11
23.00000000000002
 21
404.9680757510405
 31
0.0
  0
LINE
  5
2C3
330
70
100
AcDbEntity
  8
0
  6
Continuous
100
AcDbLine
 10
5.952999999999986
 20
427.1860757510406
 30
0.0
 11
0.0
 21
427.9700757510406
 31
0.0
  0
LINE
  5
2C4
330
70
100
AcDbEntity
  8
0
  6
Continuous
100
AcDbLine
 10
16.26300000000003
 20
388.7020757510406
 30
0.0
 11
19.91900000000002
 21
393.4660757510406
 31
0.0
  0
LINE
  5
2C5
330
70
100
AcDbEntity
  8
0
  6
Continuous
100
AcDbLine
 10
23.00000000000002
 20
404.9680757510405
 30
0.0
 11
22.21600000000002
 21
410.9210757510406
 31
0.0
  0
LINE
  5
2C6
330
70
100
AcDbEntity
  8
0
  6
Continuous
100
AcDbLine
 10
19.91900000000002
 20
416.4690757510404
 30
0.0
 11
16.26300000000003
 21
421.2330757510406
 31
0.0
  0
LINE
  5
2C7
330
70
100
AcDbEntity
  8
0
  6
Continuous
100
AcDbLine
 10
11.50000000000006
 20
424.8880757510406
 30
0.0
 11
5.952999999999986
 21
427.1860757510406
 31
0.0
  0
LINE
  5
2C8
330
70
100
AcDbEntity
  8
0
  6
Continuous
100
AcDbLine
 10
19.91900000000002
 20
393.4660757510406
 30
0.0
 11
22.21600000000002
 21
399.0140757510406
 31
0.0
  0
LINE
  5
2C9
330
70
100
AcDbEntity
  8
0
  6
Continuous
100
AcDbLine
 10
-19.91900000000002
 20
416.4690757510404
 30
0.0
 11
-22.21600000000002
 21
410.9210757510406
 31
0.0
  0
LINE
  5
2CA
330
70
100
AcDbEntity
  8
0
  6
Continuous
100
AcDbLine
 10
-11.50000000000006
 20
424.8880757510406
 30
0.0
 11
-16.26300000000003
 21
421.2330757510406
 31
0.0
  0
LINE
  5
2CB
330
70
100
AcDbEntity
  8
0
  6
Continuous
100
AcDbLine
 10
-23.00000000000002
 20
404.9680757510405
 30
0.0
 11
-22.21600000000002
 21
399.0140757510406
 31
0.0
  0
LINE
  5
2CC
330
70
100
AcDbEntity
  8
0
  6
Continuous
100
AcDbLine
 10
0.0
 20
427.9700757510406
 30
0.0
 11
-5.952999999999986
 21
427.1860757510406
 31
0.0
  0
LINE
  5
2CD
330
70
100
AcDbEntity
  8
0
  6
Continuous
100
AcDbLine
 10
-19.91900000000002
 20
393.4660757510406
 30
0.0
 11
-16.26300000000003
 21
388.7020757510406
 31
0.0
  0
LINE
  5
2CE
330
70
100
AcDbEntity
  8
0
  6
Continuous
100
AcDbLine
 10
-22.21600000000002
 20
410.9210757510406
 30
0.0
 11
-23.00000000000002
 21
404.9680757510405
 31
0.0
  0
LINE
  5
2CF
330
70
100
AcDbEntity
  8
0
  6
Continuous
100
AcDbLine
 10
-16.26300000000003
 20
421.2330757510406
 30
0.0
 11
-19.91900000000002
 21
416.4690757510404
 31
0.0
  0
LINE
  5
2D0
330
70
100
AcDbEntity
  8
0
  6
Continuous
100
AcDbLine
 10
-5.952999999999986
 20
427.1860757510406
 30
0.0
 11
-11.50000000000006
 21
424.8880757510406
 31
0.0
  0
LINE
  5
2D1
330
70
100
AcDbEntity
  8
0
  6
Continuous
100
AcDbLine
 10
-22.21600000000002
 20
399.0140757510406
 30
0.0
 11
-19.91900000000002
 21
393.4660757510406
 31
0.0
  0
LINE
  5
2D2
330
70
100
AcDbEntity
  8
0
  6
Continuous
100
AcDbLine
 10
9.503999999999956
 20
388.5110757510406
 30
0.0
 11
13.44299999999998
 21
391.5280757510407
 31
0.0
  0
LINE
  5
2D3
330
70
100
AcDbEntity
  8
0
  6
Continuous
100
AcDbLine
 10
15.20199999999993
 20
315.3400757510406
 30
0.0
 11
15.22500000000004
 21
316.3220757510405
 31
0.0
  0
LINE
  5
2D4
330
70
100
AcDbEntity
  8
0
  6
Continuous
100
AcDbLine
 10
13.73200000000007
 20
310.4380757510405
 30
0.0
 11
15.20199999999993
 21
315.3400757510406
 31
0.0
  0
LINE
  5
2D5
330
70
100
AcDbEntity
  8
0
  6
Continuous
100
AcDbLine
 10
0.0
 20
303.4320757510406
 30
0.0
 11
5.619999999999958
 21
304.2990757510407
 31
0.0
  0
LINE
  5
2D6
330
70
100
AcDbEntity
  8
0
  6
Continuous
100
AcDbLine
 10
5.619999999999958
 20
304.2990757510407
 30
0.0
 11
10.41099999999995
 21
306.7450757510406
 31
0.0
  0
LINE
  5
2D7
330
70
100
AcDbEntity
  8
0
  6
Continuous
100
AcDbLine
 10
10.41099999999995
 20
306.7450757510406
 30
0.0
 11
13.73200000000007
 21
310.4380757510405
 31
0.0
  0
LINE
  5
2D8
330
70
100
AcDbEntity
  8
0
  6
Continuous
100
AcDbLine
 10
-15.20199999999993
 20
315.3400757510406
 30
0.0
 11
-13.73200000000007
 21
310.4380757510405
 31
0.0
  0
LINE
  5
2D9
330
70
100
AcDbEntity
  8
0
  6
Continuous
100
AcDbLine
 10
-15.22500000000004
 20
316.3220757510405
 30
0.0
 11
-15.20199999999993
 21
315.3400757510406
 31
0.0
  0
LINE
  5
2DA
330
70
100
AcDbEntity
  8
0
  6
Continuous
100
AcDbLine
 10
-5.619999999999958
 20
304.2990757510407
 30
0.0
 11
0.0
 21
303.4320757510406
 31
0.0
  0
LINE
  5
2DB
330
70
100
AcDbEntity
  8
0
  6
Continuous
100
AcDbLine
 10
-10.41099999999995
 20
306.7450757510406
 30
0.0
 11
-5.619999999999958
 21
304.2990757510407
 31
0.0
  0
LINE
  5
2DC
330
70
100
AcDbEntity
  8
0
  6
Continuous
100
AcDbLine
 10
-13.73200000000007
 20
310.4380757510405
 30
0.0
 11
-10.41099999999995
 21
306.7450757510406
 31
0.0
  0
LINE
  5
2DD
330
70
100
AcDbEntity
  8
0
  6
Continuous
100
AcDbLine
 10
16.25199999999993
 20
392.2370757510406
 30
0.0
 11
16.65699999999992
 21
394.2670757510406
 31
0.0
  0
LINE
  5
2DE
330
70
100
AcDbEntity
  8
0
  6
Continuous
100
AcDbLine
 10
13.63500000000006
 20
390.4300757510406
 30
0.0
 11
13.53199999999999
 21
391.4390757510407
 31
0.0
  0
LINE
  5
2DF
330
70
100
AcDbEntity
  8
0
  6
Continuous
100
AcDbLine
 10
16.19900000000007
 20
388.2960757510407
 30
0.0
 11
16.22499999999993
 21
390.2410757510407
 31
0.0
  0
LINE
  5
2E0
330
70
100
AcDbEntity
  8
0
  6
Continuous
100
AcDbLine
 10
13.73200000000007
 20
387.8340757510406
 30
0.0
 11
13.79599999999992
 21
384.3380757510406
 31
0.0
  0
LINE
  5
2E1
330
70
100
AcDbEntity
  8
0
  6
Continuous
100
AcDbLine
 10
16.22499999999993
 20
390.2410757510407
 30
0.0
 11
16.25199999999993
 21
392.2370757510406
 31
0.0
  0
LINE
  5
2E2
330
70
100
AcDbEntity
  8
0
  6
Continuous
100
AcDbLine
 10
13.63500000000006
 20
390.4300757510406
 30
0.0
 11
13.73200000000007
 21
387.8340757510406
 31
0.0
  0
LINE
  5
2E3
330
70
100
AcDbEntity
  8
0
  6
Continuous
100
AcDbLine
 10
16.92300000000002
 20
394.9990757510406
 30
0.0
 11
16.984
 21
395.1650757510405
 31
0.0
  0
LINE
  5
2E4
330
70
100
AcDbEntity
  8
0
  6
Continuous
100
AcDbLine
 10
13.79599999999992
 20
384.3380757510406
 30
0.0
 11
13.79299999999994
 21
380.6910757510406
 31
0.0
  0
LINE
  5
2E5
330
70
100
AcDbEntity
  8
0
  6
Continuous
100
AcDbLine
 10
16.15
 20
384.6980757510406
 30
0.0
 11
16.19900000000007
 21
388.2960757510407
 31
0.0
  0
LINE
  5
2E6
330
70
100
AcDbEntity
  8
0
  6
Continuous
100
AcDbLine
 10
13.44299999999998
 20
391.5280757510407
 30
0.0
 11
13.96399999999998
 21
391.9460757510405
 31
0.0
  0
LINE
  5
2E7
330
70
100
AcDbEntity
  8
0
  6
Continuous
100
AcDbLine
 10
-16.65699999999992
 20
394.2670757510406
 30
0.0
 11
-16.25199999999993
 21
392.2370757510406
 31
0.0
  0
LINE
  5
2E8
330
70
100
AcDbEntity
  8
0
  6
Continuous
100
AcDbLine
 10
-13.53199999999999
 20
391.4390757510407
 30
0.0
 11
-13.63500000000006
 21
390.4300757510406
 31
0.0
  0
LINE
  5
2E9
330
70
100
AcDbEntity
  8
0
  6
Continuous
100
AcDbLine
 10
-13.79599999999992
 20
384.3380757510406
 30
0.0
 11
-13.73200000000007
 21
387.8340757510406
 31
0.0
  0
LINE
  5
2EA
330
70
100
AcDbEntity
  8
0
  6
Continuous
100
AcDbLine
 10
-16.22499999999993
 20
390.2410757510407
 30
0.0
 11
-16.19900000000007
 21
388.2960757510407
 31
0.0
  0
LINE
  5
2EB
330
70
100
AcDbEntity
  8
0
  6
Continuous
100
AcDbLine
 10
-13.73200000000007
 20
387.8340757510406
 30
0.0
 11
-13.63500000000006
 21
390.4300757510406
 31
0.0
  0
LINE
  5
2EC
330
70
100
AcDbEntity
  8
0
  6
Continuous
100
AcDbLine
 10
-16.25199999999993
 20
392.2370757510406
 30
0.0
 11
-16.22499999999993
 21
390.2410757510407
 31
0.0
  0
LINE
  5
2ED
330
70
100
AcDbEntity
  8
0
  6
Continuous
100
AcDbLine
 10
-16.984
 20
395.1650757510405
 30
0.0
 11
-16.92300000000002
 21
394.9990757510406
 31
0.0
  0
LINE
  5
2EE
330
70
100
AcDbEntity
  8
0
  6
Continuous
100
AcDbLine
 10
-13.96399999999998
 20
391.9460757510405
 30
0.0
 11
-13.44400000000001
 21
391.5280757510407
 31
0.0
  0
LINE
  5
2EF
330
70
100
AcDbEntity
  8
0
  6
Continuous
100
AcDbLine
 10
-13.44400000000001
 20
391.5280757510407
 30
0.0
 11
-9.527000000000063
 21
388.4700757510407
 31
0.0
  0
LINE
  5
2F0
330
70
100
AcDbEntity
  8
0
  6
Continuous
100
AcDbLine
 10
-16.19900000000007
 20
388.2960757510407
 30
0.0
 11
-16.15
 21
384.6980757510406
 31
0.0
  0
LINE
  5
2F1
330
70
100
AcDbEntity
  8
0
  6
Continuous
100
AcDbLine
 10
-13.79299999999994
 20
380.6910757510406
 30
0.0
 11
-13.79599999999992
 21
384.3380757510406
 31
0.0
  0
LINE
  5
3B7
330
70
100
AcDbEntity
  8
0
  6
Continuous
100
AcDbLine
 10
372.2926071619137
 20
154.0
 30
0.0
 11
367.7276071619138
 21
154.0
 31
0.0
  0
LINE
  5
3B8
330
70
100
AcDbEntity
  8
0
  6
Continuous
100
AcDbLine
 10
386.7246071619137
 20
154.0
 30
0.0
 11
382.1376071619138
 21
154.0
 31
0.0
  0
LINE
  5
3B9
330
70
100
AcDbEntity
  8
0
  6
Continuous
100
AcDbLine
 10
363.7926071619137
 20
154.0
 30
0.0
 11
360.7726071619138
 21
154.0
 31
0.0
  0
LINE
  5
3BA
330
70
100
AcDbEntity
  8
0
  6
Continuous
100
AcDbLine
 10
382.1376071619138
 20
154.0
 30
0.0
 11
377.2356071619138
 21
154.0
 31
0.0
  0
LINE
  5
3BB
330
70
100
AcDbEntity
  8
0
  6
Continuous
100
AcDbLine
 10
395.5816071619139
 20
154.0
 30
0.0
 11
393.6836071619138
 21
154.0
 31
0.0
  0
LINE
  5
3BC
330
70
100
AcDbEntity
  8
0
  6
Continuous
100
AcDbLine
 10
377.2356071619138
 20
154.0
 30
0.0
 11
372.2926071619137
 21
154.0
 31
0.0
  0
LINE
  5
3BD
330
70
100
AcDbEntity
  8
0
  6
Continuous
100
AcDbLine
 10
396.2276071619137
 20
154.0
 30
0.0
 11
395.5816071619139
 21
154.0
 31
0.0
  0
LINE
  5
3BE
330
70
100
AcDbEntity
  8
0
  6
Continuous
100
AcDbLine
 10
396.2276071619137
 20
153.61
 30
0.0
 11
396.2276071619137
 21
154.0
 31
0.0
  0
LINE
  5
3BF
330
70
100
AcDbEntity
  8
0
  6
Continuous
100
AcDbLine
 10
390.6626071619137
 20
154.0
 30
0.0
 11
386.7246071619137
 21
154.0
 31
0.0
  0
LINE
  5
3C0
330
70
100
AcDbEntity
  8
0
  6
Continuous
100
AcDbLine
 10
367.7276071619138
 20
154.0
 30
0.0
 11
363.7926071619137
 21
154.0
 31
0.0
  0
LINE
  5
3C1
330
70
100
AcDbEntity
  8
0
  6
Continuous
100
AcDbLine
 10
360.7726071619138
 20
154.0
 30
0.0
 11
358.8746071619138
 21
154.0
 31
0.0
  0
LINE
  5
3C2
330
70
100
AcDbEntity
  8
0
  6
Continuous
100
AcDbLine
 10
393.6836071619138
 20
154.0
 30
0.0
 11
390.6626071619137
 21
154.0
 31
0.0
  0
LINE
  5
3C3
330
70
100
AcDbEntity
  8
0
  6
Continuous
100
AcDbLine
 10
396.2276071619137
 20
128.9009999999999
 30
0.0
 11
396.2276071619137
 21
153.61
 31
0.0
  0
LINE
  5
3C4
330
70
100
AcDbEntity
  8
0
  6
Continuous
100
AcDbLine
 10
358.2276071619137
 20
154.0
 30
0.0
 11
358.2276071619137
 21
153.5109999999999
 31
0.0
  0
LINE
  5
3C5
330
70
100
AcDbEntity
  8
0
  6
Continuous
100
AcDbLine
 10
358.8746071619138
 20
154.0
 30
0.0
 11
358.2276071619137
 21
154.0
 31
0.0
  0
LINE
  5
3C6
330
70
100
AcDbEntity
  8
0
  6
Continuous
100
AcDbLine
 10
353.2486071619139
 20
145.605
 30
0.0
 11
352.4186071619137
 21
144.949
 31
0.0
  0
LINE
  5
3C7
330
70
100
AcDbEntity
  8
0
  6
Continuous
100
AcDbLine
 10
352.4186071619137
 20
144.949
 30
0.0
 11
352.4186071619137
 21
144.4449999999999
 31
0.0
  0
LINE
  5
3C8
330
70
100
AcDbEntity
  8
0
  6
Continuous
100
AcDbLine
 10
352.7066071619139
 20
144.994
 30
0.0
 11
352.4186071619137
 21
144.949
 31
0.0
  0
LINE
  5
3C9
330
70
100
AcDbEntity
  8
0
  6
Continuous
100
AcDbLine
 10
352.4186071619137
 20
144.4449999999999
 30
0.0
 11
352.4186071619137
 21
128.9009999999999
 31
0.0
  0
LINE
  5
3CA
330
70
100
AcDbEntity
  8
0
  6
Continuous
100
AcDbLine
 10
352.8686071619138
 20
145.0169999999999
 30
0.0
 11
353.6596071619138
 21
145.289
 31
0.0
  0
LINE
  5
3CB
330
70
100
AcDbEntity
  8
0
  6
Continuous
100
AcDbLine
 10
353.6596071619138
 20
145.289
 30
0.0
 11
358.3026071619138
 21
147.386
 31
0.0
  0
LINE
  5
3CC
330
70
100
AcDbEntity
  8
0
  6
Continuous
100
AcDbLine
 10
358.3026071619138
 20
147.386
 30
0.0
 11
356.1396071619138
 21
147.2679999999999
 31
0.0
  0
LINE
  5
3CD
330
70
100
AcDbEntity
  8
0
  6
Continuous
100
AcDbLine
 10
358.3476071619139
 20
150.139
 30
0.0
 11
358.2986071619139
 21
150.142
 31
0.0
  0
LINE
  5
3CE
330
70
100
AcDbEntity
  8
0
  6
Continuous
100
AcDbLine
 10
352.8236071619137
 20
128.9009999999999
 30
0.0
 11
352.8666071619138
 21
144.509
 31
0.0
  0
LINE
  5
3CF
330
70
100
AcDbEntity
  8
0
  6
Continuous
100
AcDbLine
 10
352.8666071619138
 20
144.509
 30
0.0
 11
352.8686071619138
 21
145.0169999999999
 31
0.0
  0
LINE
  5
3D0
330
70
100
AcDbEntity
  8
0
  6
Continuous
100
AcDbLine
 10
352.7066071619139
 20
144.994
 30
0.0
 11
352.8686071619138
 21
145.0169999999999
 31
0.0
  0
LINE
  5
3D1
330
70
100
AcDbEntity
  8
0
  6
Continuous
100
AcDbLine
 10
352.8686071619138
 20
145.0169999999999
 30
0.0
 11
353.5156071619139
 21
145.622
 31
0.0
  0
LINE
  5
3D2
330
70
100
AcDbEntity
  8
0
  6
Continuous
100
AcDbLine
 10
358.8556071619138
 20
146.4449999999999
 30
0.0
 11
358.8556071619138
 21
147.0139999999999
 31
0.0
  0
LINE
  5
3D3
330
70
100
AcDbEntity
  8
0
  6
Continuous
100
AcDbLine
 10
358.8556071619138
 20
147.0139999999999
 30
0.0
 11
358.8556071619138
 21
147.585
 31
0.0
  0
LINE
  5
3D4
330
70
100
AcDbEntity
  8
0
  6
Continuous
100
AcDbLine
 10
358.2076071619138
 20
150.1479999999999
 30
0.0
 11
357.2746071619137
 21
148.86
 31
0.0
  0
LINE
  5
3D5
330
70
100
AcDbEntity
  8
0
  6
Continuous
100
AcDbLine
 10
358.2986071619139
 20
150.142
 30
0.0
 11
358.2076071619138
 21
150.1479999999999
 31
0.0
  0
LINE
  5
3D6
330
70
100
AcDbEntity
  8
0
  6
Continuous
100
AcDbLine
 10
358.8556071619138
 20
147.585
 30
0.0
 11
358.8556071619138
 21
147.705
 31
0.0
  0
LINE
  5
3D7
330
70
100
AcDbEntity
  8
0
  6
Continuous
100
AcDbLine
 10
358.8556071619138
 20
149.949
 30
0.0
 11
358.8556071619138
 21
150.104
 31
0.0
  0
LINE
  5
3D8
330
70
100
AcDbEntity
  8
0
  6
Continuous
100
AcDbLine
 10
358.8556071619138
 20
150.104
 30
0.0
 11
358.7726071619137
 21
150.1099999999999
 31
0.0
  0
LINE
  5
3D9
330
70
100
AcDbEntity
  8
0
  6
Continuous
100
AcDbLine
 10
358.7726071619137
 20
150.1099999999999
 30
0.0
 11
358.4106071619137
 21
150.134
 31
0.0
  0
LINE
  5
3DA
330
70
100
AcDbEntity
  8
0
  6
Continuous
100
AcDbLine
 10
358.4106071619137
 20
150.134
 30
0.0
 11
358.3476071619139
 21
150.139
 31
0.0
  0
LINE
  5
3DB
330
70
100
AcDbEntity
  8
0
  6
Continuous
100
AcDbLine
 10
355.5216071619138
 20
147.16
 30
0.0
 11
353.2486071619139
 21
145.605
 31
0.0
  0
LINE
  5
3DC
330
70
100
AcDbEntity
  8
0
  6
Continuous
100
AcDbLine
 10
358.5286071619139
 20
148.7309999999999
 30
0.0
 11
358.8556071619138
 21
147.705
 31
0.0
  0
LINE
  5
3DD
330
70
100
AcDbEntity
  8
0
  6
Continuous
100
AcDbLine
 10
358.8556071619138
 20
147.705
 30
0.0
 11
358.8556071619138
 21
148.827
 31
0.0
  0
LINE
  5
3DE
330
70
100
AcDbEntity
  8
0
  6
Continuous
100
AcDbLine
 10
358.8556071619138
 20
148.827
 30
0.0
 11
358.8556071619138
 21
149.949
 31
0.0
  0
LINE
  5
3DF
330
70
100
AcDbEntity
  8
0
  6
Continuous
100
AcDbLine
 10
356.1396071619138
 20
147.2679999999999
 30
0.0
 11
358.3446071619139
 21
147.632
 31
0.0
  0
LINE
  5
3E0
330
70
100
AcDbEntity
  8
0
  6
Continuous
100
AcDbLine
 10
357.1636071619138
 20
148.01
 30
0.0
 11
358.3446071619139
 21
147.632
 31
0.0
  0
LINE
  5
3E1
330
70
100
AcDbEntity
  8
0
  6
Continuous
100
AcDbLine
 10
358.3446071619139
 20
147.632
 30
0.0
 11
358.5286071619139
 21
148.7309999999999
 31
0.0
  0
LINE
  5
3E2
330
70
100
AcDbEntity
  8
0
  6
Continuous
100
AcDbLine
 10
356.5696071619138
 20
147.877
 30
0.0
 11
355.5216071619138
 21
147.16
 31
0.0
  0
LINE
  5
3E3
330
70
100
AcDbEntity
  8
0
  6
Continuous
100
AcDbLine
 10
357.2746071619137
 20
148.86
 30
0.0
 11
356.5696071619138
 21
147.877
 31
0.0
  0
LINE
  5
3E4
330
70
100
AcDbEntity
  8
0
  6
Continuous
100
AcDbLine
 10
358.8546071619139
 20
128.9009999999999
 30
0.0
 11
358.8556071619138
 21
146.4449999999999
 31
0.0
  0
LINE
  5
3E5
330
70
100
AcDbEntity
  8
0
  6
Continuous
100
AcDbLine
 10
367.7276071619138
 20
103.8019999999999
 30
0.0
 11
372.2926071619137
 21
103.8019999999999
 31
0.0
  0
LINE
  5
3E6
330
70
100
AcDbEntity
  8
0
  6
Continuous
100
AcDbLine
 10
382.1376071619138
 20
103.8019999999999
 30
0.0
 11
386.7246071619137
 21
103.8019999999999
 31
0.0
  0
LINE
  5
3E7
330
70
100
AcDbEntity
  8
0
  6
Continuous
100
AcDbLine
 10
360.7726071619138
 20
103.8019999999999
 30
0.0
 11
363.7926071619137
 21
103.8019999999999
 31
0.0
  0
LINE
  5
3E8
330
70
100
AcDbEntity
  8
0
  6
Continuous
100
AcDbLine
 10
377.2356071619138
 20
103.8019999999999
 30
0.0
 11
382.1376071619138
 21
103.8019999999999
 31
0.0
  0
LINE
  5
3E9
330
70
100
AcDbEntity
  8
0
  6
Continuous
100
AcDbLine
 10
393.6836071619138
 20
103.8019999999999
 30
0.0
 11
395.5816071619139
 21
103.8019999999999
 31
0.0
  0
LINE
  5
3EA
330
70
100
AcDbEntity
  8
0
  6
Continuous
100
AcDbLine
 10
372.2926071619137
 20
103.8019999999999
 30
0.0
 11
377.2356071619138
 21
103.8019999999999
 31
0.0
  0
LINE
  5
3EB
330
70
100
AcDbEntity
  8
0
  6
Continuous
100
AcDbLine
 10
396.2276071619137
 20
103.8019999999999
 30
0.0
 11
396.2276071619137
 21
104.193
 31
0.0
  0
LINE
  5
3EC
330
70
100
AcDbEntity
  8
0
  6
Continuous
100
AcDbLine
 10
395.5816071619139
 20
103.8019999999999
 30
0.0
 11
396.2276071619137
 21
103.8019999999999
 31
0.0
  0
LINE
  5
3ED
330
70
100
AcDbEntity
  8
0
  6
Continuous
100
AcDbLine
 10
386.7246071619137
 20
103.8019999999999
 30
0.0
 11
390.6626071619137
 21
103.8019999999999
 31
0.0
  0
LINE
  5
3EE
330
70
100
AcDbEntity
  8
0
  6
Continuous
100
AcDbLine
 10
363.7926071619137
 20
103.8019999999999
 30
0.0
 11
367.7276071619138
 21
103.8019999999999
 31
0.0
  0
LINE
  5
3EF
330
70
100
AcDbEntity
  8
0
  6
Continuous
100
AcDbLine
 10
358.8746071619138
 20
103.8019999999999
 30
0.0
 11
360.7726071619138
 21
103.8019999999999
 31
0.0
  0
LINE
  5
3F0
330
70
100
AcDbEntity
  8
0
  6
Continuous
100
AcDbLine
 10
390.6626071619137
 20
103.8019999999999
 30
0.0
 11
393.6836071619138
 21
103.8019999999999
 31
0.0
  0
LINE
  5
3F1
330
70
100
AcDbEntity
  8
0
  6
Continuous
100
AcDbLine
 10
396.2276071619137
 20
104.193
 30
0.0
 11
396.2276071619137
 21
128.9009999999999
 31
0.0
  0
LINE
  5
3F2
330
70
100
AcDbEntity
  8
0
  6
Continuous
100
AcDbLine
 10
358.2276071619137
 20
103.8019999999999
 30
0.0
 11
358.8746071619138
 21
103.8019999999999
 31
0.0
  0
LINE
  5
3F3
330
70
100
AcDbEntity
  8
0
  6
Continuous
100
AcDbLine
 10
358.2276071619137
 20
104.291
 30
0.0
 11
358.2276071619137
 21
103.8019999999999
 31
0.0
  0
LINE
  5
3F4
330
70
100
AcDbEntity
  8
0
  6
Continuous
100
AcDbLine
 10
352.4186071619137
 20
112.853
 30
0.0
 11
353.2486071619139
 21
112.197
 31
0.0
  0
LINE
  5
3F5
330
70
100
AcDbEntity
  8
0
  6
Continuous
100
AcDbLine
 10
352.4186071619137
 20
112.853
 30
0.0
 11
352.7066071619139
 21
112.809
 31
0.0
  0
LINE
  5
3F6
330
70
100
AcDbEntity
  8
0
  6
Continuous
100
AcDbLine
 10
352.4186071619137
 20
113.3579999999999
 30
0.0
 11
352.4186071619137
 21
112.853
 31
0.0
  0
LINE
  5
3F7
330
70
100
AcDbEntity
  8
0
  6
Continuous
100
AcDbLine
 10
352.4186071619137
 20
128.9009999999999
 30
0.0
 11
352.4186071619137
 21
113.3579999999999
 31
0.0
  0
LINE
  5
3F8
330
70
100
AcDbEntity
  8
0
  6
Continuous
100
AcDbLine
 10
353.6596071619138
 20
112.5129999999999
 30
0.0
 11
352.8686071619138
 21
112.785
 31
0.0
  0
LINE
  5
3F9
330
70
100
AcDbEntity
  8
0
  6
Continuous
100
AcDbLine
 10
353.6596071619138
 20
112.5129999999999
 30
0.0
 11
358.3026071619138
 21
110.4159999999999
 31
0.0
  0
LINE
  5
3FA
330
70
100
AcDbEntity
  8
0
  6
Continuous
100
AcDbLine
 10
358.3026071619138
 20
110.4159999999999
 30
0.0
 11
356.1396071619138
 21
110.534
 31
0.0
  0
LINE
  5
3FB
330
70
100
AcDbEntity
  8
0
  6
Continuous
100
AcDbLine
 10
358.2986071619139
 20
107.66
 30
0.0
 11
358.3476071619139
 21
107.664
 31
0.0
  0
LINE
  5
3FC
330
70
100
AcDbEntity
  8
0
  6
Continuous
100
AcDbLine
 10
352.8666071619138
 20
113.2929999999999
 30
0.0
 11
352.8236071619137
 21
128.9009999999999
 31
0.0
  0
LINE
  5
3FD
330
70
100
AcDbEntity
  8
0
  6
Continuous
100
AcDbLine
 10
352.8686071619138
 20
112.785
 30
0.0
 11
352.8666071619138
 21
113.2929999999999
 31
0.0
  0
LINE
  5
3FE
330
70
100
AcDbEntity
  8
0
  6
Continuous
100
AcDbLine
 10
353.5156071619139
 20
112.1799999999999
 30
0.0
 11
352.8686071619138
 21
112.785
 31
0.0
  0
LINE
  5
3FF
330
70
100
AcDbEntity
  8
0
  6
Continuous
100
AcDbLine
 10
352.8686071619138
 20
112.785
 30
0.0
 11
352.7066071619139
 21
112.809
 31
0.0
  0
LINE
  5
400
330
70
100
AcDbEntity
  8
0
  6
Continuous
100
AcDbLine
 10
358.8556071619138
 20
110.788
 30
0.0
 11
358.8556071619138
 21
111.357
 31
0.0
  0
LINE
  5
401
330
70
100
AcDbEntity
  8
0
  6
Continuous
100
AcDbLine
 10
358.8556071619138
 20
110.217
 30
0.0
 11
358.8556071619138
 21
110.788
 31
0.0
  0
LINE
  5
402
330
70
100
AcDbEntity
  8
0
  6
Continuous
100
AcDbLine
 10
358.2076071619138
 20
107.654
 30
0.0
 11
358.2986071619139
 21
107.66
 31
0.0
  0
LINE
  5
403
330
70
100
AcDbEntity
  8
0
  6
Continuous
100
AcDbLine
 10
357.2746071619137
 20
108.942
 30
0.0
 11
358.2076071619138
 21
107.654
 31
0.0
  0
LINE
  5
404
330
70
100
AcDbEntity
  8
0
  6
Continuous
100
AcDbLine
 10
358.8556071619138
 20
110.097
 30
0.0
 11
358.8556071619138
 21
110.217
 31
0.0
  0
LINE
  5
405
330
70
100
AcDbEntity
  8
0
  6
Continuous
100
AcDbLine
 10
358.7726071619137
 20
107.692
 30
0.0
 11
358.8556071619138
 21
107.6979999999999
 31
0.0
  0
LINE
  5
406
330
70
100
AcDbEntity
  8
0
  6
Continuous
100
AcDbLine
 10
358.8556071619138
 20
107.6979999999999
 30
0.0
 11
358.8556071619138
 21
107.8529999999999
 31
0.0
  0
LINE
  5
407
330
70
100
AcDbEntity
  8
0
  6
Continuous
100
AcDbLine
 10
358.4106071619137
 20
107.668
 30
0.0
 11
358.7726071619137
 21
107.692
 31
0.0
  0
LINE
  5
408
330
70
100
AcDbEntity
  8
0
  6
Continuous
100
AcDbLine
 10
358.3476071619139
 20
107.664
 30
0.0
 11
358.4106071619137
 21
107.668
 31
0.0
  0
LINE
  5
409
330
70
100
AcDbEntity
  8
0
  6
Continuous
100
AcDbLine
 10
353.2486071619139
 20
112.197
 30
0.0
 11
355.5216071619138
 21
110.643
 31
0.0
  0
LINE
  5
40A
330
70
100
AcDbEntity
  8
0
  6
Continuous
100
AcDbLine
 10
358.8556071619138
 20
108.975
 30
0.0
 11
358.8556071619138
 21
110.097
 31
0.0
  0
LINE
  5
40B
330
70
100
AcDbEntity
  8
0
  6
Continuous
100
AcDbLine
 10
358.5286071619139
 20
109.071
 30
0.0
 11
358.8556071619138
 21
110.097
 31
0.0
  0
LINE
  5
40C
330
70
100
AcDbEntity
  8
0
  6
Continuous
100
AcDbLine
 10
358.8556071619138
 20
107.8529999999999
 30
0.0
 11
358.8556071619138
 21
108.975
 31
0.0
  0
LINE
  5
40D
330
70
100
AcDbEntity
  8
0
  6
Continuous
100
AcDbLine
 10
358.5286071619139
 20
109.071
 30
0.0
 11
358.3446071619139
 21
110.17
 31
0.0
  0
LINE
  5
40E
330
70
100
AcDbEntity
  8
0
  6
Continuous
100
AcDbLine
 10
357.1636071619138
 20
109.792
 30
0.0
 11
358.3446071619139
 21
110.17
 31
0.0
  0
LINE
  5
40F
330
70
100
AcDbEntity
  8
0
  6
Continuous
100
AcDbLine
 10
358.3446071619139
 20
110.17
 30
0.0
 11
356.1396071619138
 21
110.534
 31
0.0
  0
LINE
  5
410
330
70
100
AcDbEntity
  8
0
  6
Continuous
100
AcDbLine
 10
355.5216071619138
 20
110.643
 30
0.0
 11
356.5696071619138
 21
109.9259999999999
 31
0.0
  0
LINE
  5
411
330
70
100
AcDbEntity
  8
0
  6
Continuous
100
AcDbLine
 10
356.5696071619138
 20
109.9259999999999
 30
0.0
 11
357.2746071619137
 21
108.942
 31
0.0
  0
LINE
  5
412
330
70
100
AcDbEntity
  8
0
  6
Continuous
100
AcDbLine
 10
358.8556071619138
 20
111.357
 30
0.0
 11
358.8546071619139
 21
128.9
 31
0.0
  0
LINE
  5
413
330
70
100
AcDbEntity
  8
0
  6
Continuous
100
AcDbLine
 10
366.5226071619139
 20
71.38599999999995
 30
0.0
 11
363.5126071619137
 21
48.79299999999997
 31
0.0
  0
LINE
  5
414
330
70
100
AcDbEntity
  8
0
  6
Continuous
100
AcDbLine
 10
358.2276071619137
 20
97.31900000000004
 30
0.0
 11
358.2276071619137
 21
96.50599999999998
 31
0.0
  0
LINE
  5
415
330
70
100
AcDbEntity
  8
0
  6
Continuous
100
AcDbLine
 10
356.7816071619139
 20
37.86999999999996
 30
0.0
 11
356.7616071619137
 21
37.05700000000001
 31
0.0
  0
LINE
  5
416
330
70
100
AcDbEntity
  8
0
  6
Continuous
100
AcDbLine
 10
347.5316071619137
 20
46.33100000000001
 30
0.0
 11
349.9996071619138
 21
47.33799999999999
 31
0.0
  0
LINE
  5
417
330
70
100
AcDbEntity
  8
0
  6
Continuous
100
AcDbLine
 10
350.0256071619139
 20
49.49700000000001
 30
0.0
 11
352.7766071619138
 21
50.52900000000004
 31
0.0
  0
LINE
  5
418
330
70
100
AcDbEntity
  8
0
  6
Continuous
100
AcDbLine
 10
351.0166071619138
 20
82.89699999999999
 30
0.0
 11
347.2986071619138
 21
81.23900000000006
 31
0.0
  0
LINE
  5
419
330
70
100
AcDbEntity
  8
0
  6
Continuous
100
AcDbLine
 10
288.5776071619137
 20
38.52699999999998
 30
0.0
 11
356.9536071619137
 21
67.55100000000003
 31
0.0
  0
LINE
  5
41A
330
70
100
AcDbEntity
  8
0
  6
Continuous
100
AcDbLine
 10
383.1766071619138
 20
-154.0
 30
0.0
 11
388.7246071619137
 21
-154.0
 31
0.0
  0
LINE
  5
41B
330
70
100
AcDbEntity
  8
0
  6
Continuous
100
AcDbLine
 10
393.4886071619137
 20
-154.0
 30
0.0
 11
397.1436071619139
 21
-154.0
 31
0.0
  0
LINE
  5
41C
330
70
100
AcDbEntity
  8
0
  6
Continuous
100
AcDbLine
 10
355.0046071619137
 20
-154.0
 30
0.0
 11
357.3026071619139
 21
-154.0
 31
0.0
  0
LINE
  5
41D
330
70
100
AcDbEntity
  8
0
  6
Continuous
100
AcDbLine
 10
371.2696071619137
 20
-154.0
 30
0.0
 11
377.2236071619137
 21
-154.0
 31
0.0
  0
LINE
  5
41E
330
70
100
AcDbEntity
  8
0
  6
Continuous
100
AcDbLine
 10
400.2256071619136
 20
-154.0
 30
0.0
 11
400.2016071619139
 21
-153.0
 31
0.0
  0
LINE
  5
41F
330
70
100
AcDbEntity
  8
0
  6
Continuous
100
AcDbLine
 10
399.4416071619138
 20
-154.0
 30
0.0
 11
400.2256071619136
 21
-154.0
 31
0.0
  0
LINE
  5
420
330
70
100
AcDbEntity
  8
0
  6
Continuous
100
AcDbLine
 10
360.9576071619138
 20
-154.0
 30
0.0
 11
365.7216071619138
 21
-154.0
 31
0.0
  0
LINE
  5
421
330
70
100
AcDbEntity
  8
0
  6
Continuous
100
AcDbLine
 10
377.2236071619137
 20
-154.0
 30
0.0
 11
383.1766071619138
 21
-154.0
 31
0.0
  0
LINE
  5
422
330
70
100
AcDbEntity
  8
0
  6
Continuous
100
AcDbLine
 10
388.7246071619137
 20
-154.0
 30
0.0
 11
393.4886071619137
 21
-154.0
 31
0.0
  0
LINE
  5
423
330
70
100
AcDbEntity
  8
0
  6
Continuous
100
AcDbLine
 10
354.2456071619138
 20
-153.0
 30
0.0
 11
354.2206071619138
 21
-154.0
 31
0.0
  0
LINE
  5
424
330
70
100
AcDbEntity
  8
0
  6
Continuous
100
AcDbLine
 10
354.2206071619138
 20
-154.0
 30
0.0
 11
355.0046071619137
 21
-154.0
 31
0.0
  0
LINE
  5
425
330
70
100
AcDbEntity
  8
0
  6
Continuous
100
AcDbLine
 10
397.1436071619139
 20
-154.0
 30
0.0
 11
399.4416071619138
 21
-154.0
 31
0.0
  0
LINE
  5
426
330
70
100
AcDbEntity
  8
0
  6
Continuous
100
AcDbLine
 10
365.7216071619138
 20
-154.0
 30
0.0
 11
371.2696071619137
 21
-154.0
 31
0.0
  0
LINE
  5
427
330
70
100
AcDbEntity
  8
0
  6
Continuous
100
AcDbLine
 10
357.3026071619139
 20
-154.0
 30
0.0
 11
360.9576071619138
 21
-154.0
 31
0.0
  0
LINE
  5
428
330
70
100
AcDbEntity
  8
0
  6
Continuous
100
AcDbLine
 10
372.3096071619139
 20
102.4009999999999
 30
0.0
 11
367.7276071619138
 21
102.4009999999999
 31
0.0
  0
LINE
  5
429
330
70
100
AcDbEntity
  8
0
  6
Continuous
100
AcDbLine
 10
386.7276071619137
 20
102.4009999999999
 30
0.0
 11
382.1446071619137
 21
102.4009999999999
 31
0.0
  0
LINE
  5
42A
330
70
100
AcDbEntity
  8
0
  6
Continuous
100
AcDbLine
 10
363.7926071619137
 20
102.4009999999999
 30
0.0
 11
360.7726071619138
 21
102.4009999999999
 31
0.0
  0
LINE
  5
42B
330
70
100
AcDbEntity
  8
0
  6
Continuous
100
AcDbLine
 10
393.6816071619138
 20
102.4009999999999
 30
0.0
 11
390.6626071619137
 21
102.4009999999999
 31
0.0
  0
LINE
  5
42C
330
70
100
AcDbEntity
  8
0
  6
Continuous
100
AcDbLine
 10
395.5796071619138
 20
102.4009999999999
 30
0.0
 11
393.6816071619138
 21
102.4009999999999
 31
0.0
  0
LINE
  5
42D
330
70
100
AcDbEntity
  8
0
  6
Continuous
100
AcDbLine
 10
360.7726071619138
 20
102.4009999999999
 30
0.0
 11
358.8746071619138
 21
102.4009999999999
 31
0.0
  0
LINE
  5
42E
330
70
100
AcDbEntity
  8
0
  6
Continuous
100
AcDbLine
 10
377.2276071619139
 20
102.4009999999999
 30
0.0
 11
372.3096071619139
 21
102.4009999999999
 31
0.0
  0
LINE
  5
42F
330
70
100
AcDbEntity
  8
0
  6
Continuous
100
AcDbLine
 10
382.1446071619137
 20
102.4009999999999
 30
0.0
 11
377.2276071619139
 21
102.4009999999999
 31
0.0
  0
LINE
  5
430
330
70
100
AcDbEntity
  8
0
  6
Continuous
100
AcDbLine
 10
367.7276071619138
 20
102.4009999999999
 30
0.0
 11
363.7926071619137
 21
102.4009999999999
 31
0.0
  0
LINE
  5
431
330
70
100
AcDbEntity
  8
0
  6
Continuous
100
AcDbLine
 10
396.2276071619137
 20
102.4009999999999
 30
0.0
 11
395.5796071619138
 21
102.4009999999999
 31
0.0
  0
LINE
  5
432
330
70
100
AcDbEntity
  8
0
  6
Continuous
100
AcDbLine
 10
396.2426071619138
 20
101.4009999999999
 30
0.0
 11
396.2276071619137
 21
102.4009999999999
 31
0.0
  0
LINE
  5
433
330
70
100
AcDbEntity
  8
0
  6
Continuous
100
AcDbLine
 10
390.6626071619137
 20
102.4009999999999
 30
0.0
 11
386.7276071619137
 21
102.4009999999999
 31
0.0
  0
LINE
  5
434
330
70
100
AcDbEntity
  8
0
  6
Continuous
100
AcDbLine
 10
358.2276071619137
 20
102.4009999999999
 30
0.0
 11
358.2276071619137
 21
101.4009999999999
 31
0.0
  0
LINE
  5
435
330
70
100
AcDbEntity
  8
0
  6
Continuous
100
AcDbLine
 10
358.8746071619138
 20
102.4009999999999
 30
0.0
 11
358.2276071619137
 21
102.4009999999999
 31
0.0
  0
LINE
  5
436
330
70
100
AcDbEntity
  8
0
  6
Continuous
100
AcDbLine
 10
292.5746071619137
 20
33.41799999999995
 30
0.0
 11
296.7336071619138
 21
29.505
 31
0.0
  0
LINE
  5
437
330
70
100
AcDbEntity
  8
0
  6
Continuous
100
AcDbLine
 10
287.5956071619137
 20
38.103
 30
0.0
 11
292.5746071619137
 21
33.41799999999995
 31
0.0
  0
LINE
  5
438
330
70
100
AcDbEntity
  8
0
  6
Continuous
100
AcDbLine
 10
296.7336071619138
 20
29.505
 30
0.0
 11
298.8886071619137
 21
27.47699999999998
 31
0.0
  0
LINE
  5
439
330
70
100
AcDbEntity
  8
0
  6
Continuous
100
AcDbLine
 10
297.7576071619137
 20
29.88900000000005
 30
0.0
 11
296.7336071619138
 21
29.505
 31
0.0
  0
LINE
  5
43A
330
70
100
AcDbEntity
  8
0
  6
Continuous
100
AcDbLine
 10
299.6236071619138
 20
26.78499999999995
 30
0.0
 11
300.6336071619138
 21
27.19700000000003
 31
0.0
  0
LINE
  5
43B
330
70
100
AcDbEntity
  8
0
  6
Continuous
100
AcDbLine
 10
298.8886071619137
 20
27.47699999999998
 30
0.0
 11
299.6236071619138
 21
26.78499999999995
 31
0.0
  0
LINE
  5
43C
330
70
100
AcDbEntity
  8
0
  6
Continuous
100
AcDbLine
 10
287.5956071619137
 20
38.103
 30
0.0
 11
288.5776071619137
 21
38.52699999999998
 31
0.0
  0
LINE
  5
43D
330
70
100
AcDbEntity
  8
0
  6
Continuous
100
AcDbLine
 10
282.6936071619138
 20
42.71599999999998
 30
0.0
 11
287.5956071619137
 21
38.103
 31
0.0
  0
LINE
  5
43E
330
70
100
AcDbEntity
  8
0
  6
Continuous
100
AcDbLine
 10
275.6876071619139
 20
49.30900000000004
 30
0.0
 11
276.5546071619139
 21
48.49300000000001
 31
0.0
  0
LINE
  5
43F
330
70
100
AcDbEntity
  8
0
  6
Continuous
100
AcDbLine
 10
276.6526071619137
 20
49.74000000000001
 30
0.0
 11
275.6876071619139
 21
49.30900000000004
 31
0.0
  0
LINE
  5
440
330
70
100
AcDbEntity
  8
0
  6
Continuous
100
AcDbLine
 10
276.5546071619139
 20
48.49300000000001
 30
0.0
 11
279.0006071619138
 21
46.19099999999998
 31
0.0
  0
LINE
  5
441
330
70
100
AcDbEntity
  8
0
  6
Continuous
100
AcDbLine
 10
279.0006071619138
 20
46.19099999999998
 30
0.0
 11
282.6936071619138
 21
42.71599999999998
 31
0.0
  0
LINE
  5
442
330
70
100
AcDbEntity
  8
0
  6
Continuous
100
AcDbLine
 10
299.6236071619138
 20
26.78499999999995
 30
0.0
 11
298.8836071619139
 21
27.48200000000001
 31
0.0
  0
LINE
  5
443
330
70
100
AcDbEntity
  8
0
  6
Continuous
100
AcDbLine
 10
298.8886071619137
 20
27.47699999999998
 30
0.0
 11
299.6236071619138
 21
26.78499999999995
 31
0.0
  0
LINE
  5
444
330
70
100
AcDbEntity
  8
0
  6
Continuous
100
AcDbLine
 10
396.8206071619138
 20
72.40099999999994
 30
0.0
 11
396.4516071619137
 21
87.40100000000007
 31
0.0
  0
LINE
  5
445
330
70
100
AcDbEntity
  8
0
  6
Continuous
100
AcDbLine
 10
356.7616071619137
 20
37.05700000000001
 30
0.0
 11
354.2456071619138
 21
-153.0
 31
0.0
  0
LINE
  5
446
330
70
100
AcDbEntity
  8
0
  6
Continuous
100
AcDbLine
 10
400.2016071619139
 20
-153.0
 30
0.0
 11
397.3126071619137
 21
52.38699999999996
 31
0.0
  0
LINE
  5
447
330
70
100
AcDbEntity
  8
0
  6
Continuous
100
AcDbLine
 10
362.6856071619138
 20
85.19699999999998
 30
0.0
 11
363.6946071619139
 21
90.92
 31
0.0
  0
LINE
  5
448
330
70
100
AcDbEntity
  8
0
  6
Continuous
100
AcDbLine
 10
354.5386071619139
 20
85.81599999999999
 30
0.0
 11
351.0166071619138
 21
82.89699999999999
 31
0.0
  0
LINE
  5
449
330
70
100
AcDbEntity
  8
0
  6
Continuous
100
AcDbLine
 10
357.1746071619137
 20
90.797
 30
0.0
 11
354.5386071619139
 21
85.81599999999999
 31
0.0
  0
LINE
  5
44A
330
70
100
AcDbEntity
  8
0
  6
Continuous
100
AcDbLine
 10
358.2276071619137
 20
96.50599999999998
 30
0.0
 11
357.1746071619137
 21
90.797
 31
0.0
  0
LINE
  5
44B
330
70
100
AcDbEntity
  8
0
  6
Continuous
100
AcDbLine
 10
360.0896071619138
 20
80.17600000000003
 30
0.0
 11
356.5936071619138
 21
77.20300000000001
 31
0.0
  0
LINE
  5
44C
330
70
100
AcDbEntity
  8
0
  6
Continuous
100
AcDbLine
 10
362.6856071619138
 20
85.19699999999998
 30
0.0
 11
360.0896071619138
 21
80.17600000000003
 31
0.0
  0
LINE
  5
44D
330
70
100
AcDbEntity
  8
0
  6
Continuous
100
AcDbLine
 10
355.9776071619138
 20
43.55799999999998
 30
0.0
 11
356.7816071619139
 21
37.86999999999996
 31
0.0
  0
LINE
  5
44E
330
70
100
AcDbEntity
  8
0
  6
Continuous
100
AcDbLine
 10
355.9776071619138
 20
43.55799999999998
 30
0.0
 11
356.6876071619138
 21
44.32899999999995
 31
0.0
  0
LINE
  5
44F
330
70
100
AcDbEntity
  8
0
  6
Continuous
100
AcDbLine
 10
353.4986071619137
 20
47.02300000000003
 30
0.0
 11
355.9776071619138
 21
43.55799999999998
 31
0.0
  0
LINE
  5
450
330
70
100
AcDbEntity
  8
0
  6
Continuous
100
AcDbLine
 10
350.7076071619138
 20
48.15199999999997
 30
0.0
 11
349.9996071619138
 21
47.33799999999999
 31
0.0
  0
LINE
  5
451
330
70
100
AcDbEntity
  8
0
  6
Continuous
100
AcDbLine
 10
353.4986071619137
 20
47.02300000000003
 30
0.0
 11
354.2056071619137
 21
47.81299999999999
 31
0.0
  0
LINE
  5
452
330
70
100
AcDbEntity
  8
0
  6
Continuous
100
AcDbLine
 10
349.9996071619138
 20
47.33799999999999
 30
0.0
 11
353.4986071619137
 21
47.02300000000003
 31
0.0
  0
LINE
  5
453
330
70
100
AcDbEntity
  8
0
  6
Continuous
100
AcDbLine
 10
356.6876071619138
 20
44.32899999999995
 30
0.0
 11
358.7626071619139
 21
46.59100000000004
 31
0.0
  0
LINE
  5
454
330
70
100
AcDbEntity
  8
0
  6
Continuous
100
AcDbLine
 10
352.7766071619138
 20
50.52900000000004
 30
0.0
 11
350.7076071619138
 21
48.15199999999997
 31
0.0
  0
LINE
  5
455
330
70
100
AcDbEntity
  8
0
  6
Continuous
100
AcDbLine
 10
354.2056071619137
 20
47.81299999999999
 30
0.0
 11
356.2736071619137
 21
50.12300000000003
 31
0.0
  0
LINE
  5
456
330
70
100
AcDbEntity
  8
0
  6
Continuous
100
AcDbLine
 10
362.4966071619138
 20
69.90399999999997
 30
0.0
 11
360.5516071619137
 21
69.07799999999998
 31
0.0
  0
LINE
  5
457
330
70
100
AcDbEntity
  8
0
  6
Continuous
100
AcDbLine
 10
364.4926071619137
 20
70.751
 30
0.0
 11
362.4966071619138
 21
69.90399999999997
 31
0.0
  0
LINE
  5
458
330
70
100
AcDbEntity
  8
0
  6
Continuous
100
AcDbLine
 10
356.2736071619137
 20
50.12300000000003
 30
0.0
 11
358.7626071619139
 21
46.59100000000004
 31
0.0
  0
LINE
  5
459
330
70
100
AcDbEntity
  8
0
  6
Continuous
100
AcDbLine
 10
352.7766071619138
 20
50.52900000000004
 30
0.0
 11
356.2736071619137
 21
50.12300000000003
 31
0.0
  0
LINE
  5
45A
330
70
100
AcDbEntity
  8
0
  6
Continuous
100
AcDbLine
 10
356.5936071619138
 20
77.20300000000001
 30
0.0
 11
352.9466071619138
 21
75.50100000000004
 31
0.0
  0
LINE
  5
45B
330
70
100
AcDbEntity
  8
0
  6
Continuous
100
AcDbLine
 10
347.2986071619138
 20
81.23900000000006
 30
0.0
 11
276.6526071619137
 21
49.74000000000001
 31
0.0
  0
LINE
  5
45C
330
70
100
AcDbEntity
  8
0
  6
Continuous
100
AcDbLine
 10
396.4516071619137
 20
87.40100000000007
 30
0.0
 11
396.2426071619138
 21
101.4009999999999
 31
0.0
  0
LINE
  5
45D
330
70
100
AcDbEntity
  8
0
  6
Continuous
100
AcDbLine
 10
397.3126071619137
 20
52.38699999999996
 30
0.0
 11
396.8206071619138
 21
72.40099999999994
 31
0.0
  0
LINE
  5
45E
330
70
100
AcDbEntity
  8
0
  6
Continuous
100
AcDbLine
 10
360.5516071619137
 20
69.07799999999998
 30
0.0
 11
356.9536071619137
 21
67.55100000000003
 31
0.0
  0
LINE
  5
45F
330
70
100
AcDbEntity
  8
0
  6
Continuous
100
AcDbLine
 10
350.0256071619139
 20
49.49700000000001
 30
0.0
 11
297.7576071619137
 21
29.88900000000005
 31
0.0
  0
LINE
  5
460
330
70
100
AcDbEntity
  8
0
  6
Continuous
100
AcDbLine
 10
358.2276071619137
 20
101.4009999999999
 30
0.0
 11
358.2276071619137
 21
97.31900000000004
 31
0.0
  0
LINE
  5
461
330
70
100
AcDbEntity
  8
0
  6
Continuous
100
AcDbLine
 10
300.6336071619138
 20
27.19700000000003
 30
0.0
 11
347.5316071619137
 21
46.33100000000001
 31
0.0
  0
LINE
  5
462
330
70
100
AcDbEntity
  8
0
  6
Continuous
100
AcDbLine
 10
348.1676071619137
 20
47.13900000000004
 30
0.0
 11
299.9016071619138
 21
27.88199999999996
 31
0.0
  0
LINE
  5
463
330
70
100
AcDbEntity
  8
0
  6
Continuous
100
AcDbLine
 10
293.5786071619137
 20
25.87300000000003
 30
0.0
 11
294.1376071619137
 21
26.51000000000003
 31
0.0
  0
LINE
  5
464
330
70
100
AcDbEntity
  8
0
  6
Continuous
100
AcDbLine
 10
293.1516071619138
 20
26.26499999999998
 30
0.0
 11
293.5786071619137
 21
25.87300000000003
 31
0.0
  0
LINE
  5
465
330
70
100
AcDbEntity
  8
0
  6
Continuous
100
AcDbLine
 10
291.9106071619138
 20
27.40399999999998
 30
0.0
 11
293.1516071619138
 21
26.26499999999998
 31
0.0
  0
LINE
  5
466
330
70
100
AcDbEntity
  8
0
  6
Continuous
100
AcDbLine
 10
289.9786071619137
 20
29.17800000000004
 30
0.0
 11
291.9106071619138
 21
27.40399999999998
 31
0.0
  0
LINE
  5
467
330
70
100
AcDbEntity
  8
0
  6
Continuous
100
AcDbLine
 10
287.5436071619137
 20
31.41300000000003
 30
0.0
 11
289.9786071619137
 21
29.17800000000004
 31
0.0
  0
LINE
  5
468
330
70
100
AcDbEntity
  8
0
  6
Continuous
100
AcDbLine
 10
284.8446071619138
 20
33.89100000000001
 30
0.0
 11
287.5436071619137
 21
31.41300000000003
 31
0.0
  0
LINE
  5
469
330
70
100
AcDbEntity
  8
0
  6
Continuous
100
AcDbLine
 10
282.1456071619138
 20
36.36799999999996
 30
0.0
 11
284.8446071619138
 21
33.89100000000001
 31
0.0
  0
LINE
  5
46A
330
70
100
AcDbEntity
  8
0
  6
Continuous
100
AcDbLine
 10
279.7106071619138
 20
38.60399999999997
 30
0.0
 11
282.1456071619138
 21
36.36799999999996
 31
0.0
  0
LINE
  5
46B
330
70
100
AcDbEntity
  8
0
  6
Continuous
100
AcDbLine
 10
277.7786071619137
 20
40.377
 30
0.0
 11
279.7106071619138
 21
38.60399999999997
 31
0.0
  0
LINE
  5
46C
330
70
100
AcDbEntity
  8
0
  6
Continuous
100
AcDbLine
 10
276.5376071619139
 20
41.516
 30
0.0
 11
277.7786071619137
 21
40.377
 31
0.0
  0
LINE
  5
46D
330
70
100
AcDbEntity
  8
0
  6
Continuous
100
AcDbLine
 10
276.6686071619138
 20
42.54599999999997
 30
0.0
 11
276.1096071619138
 21
41.90899999999998
 31
0.0
  0
LINE
  5
46E
330
70
100
AcDbEntity
  8
0
  6
Continuous
100
AcDbLine
 10
276.1096071619138
 20
41.90899999999998
 30
0.0
 11
276.5376071619139
 21
41.516
 31
0.0
  0
LINE
  5
46F
330
70
100
AcDbEntity
  8
0
  6
Continuous
100
AcDbLine
 10
294.1376071619137
 20
26.51000000000003
 30
0.0
 11
296.8156071619137
 21
29.42800000000001
 31
0.0
  0
LINE
  5
470
330
70
100
AcDbEntity
  8
0
  6
Continuous
100
AcDbLine
 10
279.5456071619138
 20
45.67900000000002
 30
0.0
 11
276.6686071619138
 21
42.54599999999997
 31
0.0
  0
LINE
  5
474
330
70
100
AcDbEntity
  8
0
  6
CENTER2
 48
25.0
100
AcDbLine
 10
0.0
 20
-136.6347501539178
 30
0.0
 11
0.0
 21
-175.2974805387962
 31
0.0
  0
LINE
  5
5B9
330
70
100
AcDbEntity
  8
0
  6
CENTER2
 48
25.0
100
AcDbLine
 10
-29.63471357794197
 20
404.9675757510408
 30
0.0
 11
36.18521393981291
 21
404.9675757510408
 31
0.0
  0
LINE
  5
5BB
330
70
100
AcDbEntity
  8
0
  6
CENTER2
 48
25.0
100
AcDbLine
 10
377.2231071619138
 20
-137.4209056233937
 30
0.0
 11
377.2231071619138
 21
-170.8162723133034
 31
0.0
  0
ENDSEC
  0
SECTION
  2
OBJECTS
  0
DICTIONARY
  5
C
330
0
100
AcDbDictionary
281
     1
  3
ACAD_CIP_PREVIOUS_PRODUCT_INFO
350
17E
  3
ACAD_COLOR
350
62
  3
ACAD_DETAILVIEWSTYLE
350
6A
  3
ACAD_GROUP
350
D
  3
ACAD_LAYOUT
350
61
  3
ACAD_MATERIAL
350
10
  3
ACAD_MLEADERSTYLE
350
65
  3
ACAD_MLINESTYLE
350
5E
  3
ACAD_PLOTSETTINGS
350
60
  3
ACAD_PLOTSTYLENAME
350
E
  3
ACAD_SCALELIST
350
42
  3
ACAD_SECTIONVIEWSTYLE
350
67
  3
ACAD_TABLESTYLE
350
63
  3
ACAD_VISUALSTYLE
350
29
  3
ACDB_RECOMPOSE_DATA
350
624
  3
AcDbVariableDictionary
350
618
  3
AcmDictionary
350
1AA
  3
AMG
350
17F
  3
AMGSNAPSETTINGS
350
1E1
  3
DWGPROPS
350
625
  0
DICTIONARY
  5
612
330
54
100
AcDbDictionary
280
     1
281
     1
  3
ADSK_XREC_LAYER_RECONCILED
360
613
  0
DICTIONARY
  5
614
330
1E9
100
AcDbDictionary
280
     1
281
     1
  3
ADSK_XREC_LAYER_RECONCILED
360
615
  0
DICTIONARY
  5
616
330
537
100
AcDbDictionary
280
     1
281
     1
  3
ADSK_XREC_LAYER_RECONCILED
360
617
  0
DICTIONARY
  5
472
330
70
100
AcDbDictionary
280
     1
281
     1
  3
ACAD_SORTENTS
360
473
  0
XRECORD
  5
17E
102
{ACAD_REACTORS
330
C
102
}
330
C
100
AcDbXrecord
280
     1
300
AMECH_PP
300
2013
300
PDSS_F_S
  0
DICTIONARY
  5
62
102
{ACAD_REACTORS
330
C
102
}
330
C
100
AcDbDictionary
281
     1
  0
DICTIONARY
  5
6A
102
{ACAD_REACTORS
330
C
102
}
330
C
100
AcDbDictionary
281
     1
  3
Imperial24
350
6B
  0
DICTIONARY
  5
D
102
{ACAD_REACTORS
330
C
102
}
330
C
100
AcDbDictionary
281
     1
  0
DICTIONARY
  5
61
102
{ACAD_REACTORS
330
C
102
}
330
C
100
AcDbDictionary
281
     1
  3
Model
350
73
  3
レイアウト1
350
6F
  0
DICTIONARY
  5
10
102
{ACAD_REACTORS
330
C
102
}
330
C
100
AcDbDictionary
281
     1
  3
ByBlock
350
19
  3
ByLayer
350
11
  3
Global
350
21
  0
DICTIONARY
  5
65
102
{ACAD_REACTORS
330
C
102
}
330
C
100
AcDbDictionary
281
     1
  3
Standard
350
66
  0
DICTIONARY
  5
5E
102
{ACAD_REACTORS
330
C
102
}
330
C
100
AcDbDictionary
281
     1
  3
Standard
350
5F
  0
DICTIONARY
  5
60
102
{ACAD_REACTORS
330
C
102
}
330
C
100
AcDbDictionary
281
     1
  0
ACDBDICTIONARYWDFLT
  5
E
102
{ACAD_REACTORS
330
C
102
}
330
C
100
AcDbDictionary
281
     1
  3
Normal
350
F
100
AcDbDictionaryWithDefault
340
F
  0
DICTIONARY
  5
42
102
{ACAD_REACTORS
330
C
102
}
330
C
100
AcDbDictionary
281
     1
  3
A0
350
43
  3
A1
350
44
  3
A2
350
45
  3
A3
350
46
  3
A4
350
47
  3
A5
350
48
  3
A6
350
49
  3
A7
350
4A
  3
A8
350
4B
  3
A9
350
4C
  3
B0
350
4D
  3
B1
350
4E
  3
B2
350
4F
  3
B3
350
50
  3
B4
350
51
  3
B5
350
52
  3
B6
350
53
  0
DICTIONARY
  5
67
102
{ACAD_REACTORS
330
C
102
}
330
C
100
AcDbDictionary
281
     1
  3
Imperial24
350
69
  0
DICTIONARY
  5
63
102
{ACAD_REACTORS
330
C
102
}
330
C
100
AcDbDictionary
281
     1
  3
Standard
350
64
  0
DICTIONARY
  5
29
102
{ACAD_REACTORS
330
C
102
}
330
C
100
AcDbDictionary
281
     1
  3
2dWireframe
350
2F
  3
Basic
350
2E
  3
Brighten
350
35
  3
ColorChange
350
39
  3
Conceptual
350
32
  3
Dim
350
34
  3
EdgeColorOff
350
41
  3
Facepattern
350
38
  3
Flat
350
2A
  3
FlatWithEdges
350
2B
  3
Gouraud
350
2C
  3
GouraudWithEdges
350
2D
  3
Hidden
350
31
  3
JitterOff
350
3F
  3
Linepattern
350
37
  3
OverhangOff
350
40
  3
Realistic
350
33
  3
Shaded
350
3E
  3
Shaded with edges
350
3D
  3
Shades of Gray
350
3A
  3
Sketchy
350
3B
  3
Thicken
350
36
  3
Wireframe
350
30
  3
X-Ray
350
3C
  0
XRECORD
  5
624
102
{ACAD_REACTORS
330
C
102
}
330
C
100
AcDbXrecord
280
     1
 90
        1
330
64
  0
DICTIONARY
  5
618
102
{ACAD_REACTORS
330
C
102
}
330
C
100
AcDbDictionary
281
     1
  3
CANNOSCALE
350
61D
  3
CMLEADERSTYLE
350
61A
  3
CTABLESTYLE
350
619
  3
CVIEWDETAILSTYLE
350
61B
  3
CVIEWSECTIONSTYLE
350
61C
  3
DIMASSOC
350
620
  3
INDEXCTL
350
61F
  3
SORTENTS
350
61E
  3
XCLIPFRAME
350
621
  0
DICTIONARY
  5
1AA
102
{ACAD_REACTORS
330
C
102
}
330
C
100
AcDbDictionary
281
     1
  3
AcmStdDictionary
350
1B3
  0
DICTIONARY
  5
17F
102
{ACAD_REACTORS
330
C
102
}
330
C
100
AcDbDictionary
281
     1
  0
DICTIONARY
  5
1E1
102
{ACAD_REACTORS
330
C
102
}
330
C
100
AcDbDictionary
281
     1
  0
XRECORD
  5
625
102
{ACAD_REACTORS
330
C
102
}
330
C
100
AcDbXrecord
280
     1
  1
DWGPROPS COOKIE
  2

  3

  4

  6

  7

  8
tomitais
  9

300
=
301
=
302
=
303
=
304
=
305
=
306
=
307
=
308
=
309
=
 40
0.0037735416666667
 41
2457786.907951828
 42
2457786.911725174
  1

 90
        0
  0
XRECORD
  5
613
102
{ACAD_REACTORS
330
612
102
}
330
612
100
AcDbXrecord
280
     1
290
     1
  0
XRECORD
  5
615
102
{ACAD_REACTORS
330
614
102
}
330
614
100
AcDbXrecord
280
     1
290
     1
  0
XRECORD
  5
617
102
{ACAD_REACTORS
330
616
102
}
330
616
100
AcDbXrecord
280
     1
290
     1
  0
SORTENTSTABLE
  5
473
102
{ACAD_REACTORS
330
472
102
}
330
472
100
AcDbSortentsTable
330
70
331
160
  5
16C
331
279
  5
287
331
79
  5
85
331
3BA
  5
3C8
331
8A
  5
96
331
29B
  5
2A9
331
9B
  5
A7
331
3C4
  5
3D2
331
AC
  5
B8
331
28A
  5
298
331
3D5
  5
3E3
331
BD
  5
C9
331
2AC
  5
2BA
331
2BD
  5
2CB
331
3E6
  5
3F4
331
2CE
  5
2DC
331
CE
  5
DA
331
3F7
  5
405
331
408
  5
416
331
170
  5
17C
331
DF
  5
EB
331
419
  5
427
331
2E9
  5
3BC
331
42A
  5
438
331
FA
  5
106
331
445
  5
453
331
12D
  5
139
331
11C
  5
128
331
456
  5
464
331
13E
  5
14A
331
467
  5
477
331
14F
  5
15B
331
10B
  5
117
331
2D8
  5
2E6
331
468
  5
478
331
150
  5
15C
331
161
  5
16D
331
27A
  5
288
331
7A
  5
86
331
3BB
  5
3C9
331
8B
  5
97
331
28B
  5
299
331
29C
  5
2AA
331
9C
  5
A8
331
3C5
  5
3D3
331
AD
  5
B9
331
3D6
  5
3E4
331
BE
  5
CA
331
2AD
  5
2BB
331
2BE
  5
2CC
331
3E7
  5
3F5
331
2CF
  5
2DD
331
CF
  5
DB
331
3F8
  5
406
331
409
  5
417
331
171
  5
273
331
E0
  5
EC
331
41A
  5
428
331
2EA
  5
3BD
331
42B
  5
439
331
FB
  5
107
331
446
  5
454
331
12E
  5
13A
331
11D
  5
129
331
457
  5
465
331
13F
  5
14B
331
10C
  5
118
331
2D9
  5
2E7
331
458
  5
466
331
140
  5
14C
331
469
  5
479
331
151
  5
15D
331
162
  5
16E
331
27B
  5
289
331
7B
  5
87
331
3BC
  5
3CA
331
8C
  5
98
331
28C
  5
29A
331
29D
  5
2AB
331
9D
  5
A9
331
3C6
  5
3D4
331
AE
  5
BA
331
3D7
  5
3E5
331
BF
  5
CB
331
2AE
  5
2BC
331
2BF
  5
2CD
331
3E8
  5
3F6
331
3F9
  5
407
331
E1
  5
ED
331
D0
  5
DC
331
40A
  5
418
331
41B
  5
429
331
2DA
  5
2E8
331
172
  5
274
331
42C
  5
43A
331
FC
  5
108
331
447
  5
455
331
12F
  5
13B
331
11E
  5
12A
331
10D
  5
119
331
2EB
  5
3BE
331
448
  5
456
331
130
  5
13C
331
459
  5
467
331
141
  5
14D
331
46A
  5
47A
331
152
  5
15E
331
163
  5
16F
331
27C
  5
28A
331
7C
  5
88
331
3BD
  5
3CB
331
8D
  5
99
331
28D
  5
29B
331
29E
  5
2AC
331
9E
  5
AA
331
3C7
  5
3D5
331
AF
  5
BB
331
3D8
  5
3E6
331
C0
  5
CC
331
2AF
  5
2BD
331
2C0
  5
2CE
331
3E9
  5
3F7
331
3FA
  5
408
331
E2
  5
EE
331
40B
  5
419
331
41C
  5
42A
331
2DB
  5
2E9
331
173
  5
275
331
D1
  5
DD
331
42D
  5
43B
331
FD
  5
109
331
11F
  5
12B
331
10E
  5
11A
331
2EC
  5
3BF
331
438
  5
446
331
120
  5
12C
331
449
  5
457
331
131
  5
13D
331
45A
  5
468
331
142
  5
14E
331
46B
  5
47B
331
153
  5
15F
331
164
  5
170
331
27D
  5
28B
331
7D
  5
89
331
3BE
  5
3CC
331
8E
  5
9A
331
28E
  5
29C
331
29F
  5
2AD
331
9F
  5
AB
331
3C8
  5
3D6
331
B0
  5
BC
331
3D9
  5
3E7
331
C1
  5
CD
331
2B0
  5
2BE
331
2C1
  5
2CF
331
3EA
  5
3F8
331
3FB
  5
409
331
E3
  5
EF
331
40C
  5
41A
331
41D
  5
42B
331
2DC
  5
2EA
331
174
  5
276
331
D2
  5
DE
331
42E
  5
43C
331
FE
  5
10A
331
10F
  5
11B
331
2ED
  5
3C0
331
439
  5
447
331
121
  5
12D
331
110
  5
11C
331
44A
  5
458
331
132
  5
13E
331
45B
  5
469
331
143
  5
14F
331
46C
  5
5B7
331
154
  5
160
331
165
  5
171
331
27E
  5
28C
331
7E
  5
8A
331
3BF
  5
3CD
331
8F
  5
9B
331
28F
  5
29D
331
2A0
  5
2AE
331
A0
  5
AC
331
3C9
  5
3D7
331
B1
  5
BD
331
3DA
  5
3E8
331
C2
  5
CE
331
2B1
  5
2BF
331
3EB
  5
3F9
331
D3
  5
DF
331
3FC
  5
40A
331
E4
  5
F0
331
40D
  5
41B
331
41E
  5
42C
331
2DD
  5
2EB
331
175
  5
277
331
2C2
  5
2D0
331
42F
  5
43D
331
FF
  5
10B
331
2EE
  5
3C1
331
430
  5
43E
331
100
  5
10C
331
43A
  5
448
331
122
  5
12E
331
111
  5
11D
331
44B
  5
459
331
133
  5
13F
331
45C
  5
46A
331
144
  5
150
331
46D
  5
5B8
331
155
  5
161
331
166
  5
172
331
27F
  5
28D
331
290
  5
29E
331
90
  5
9C
331
7F
  5
8B
331
2A1
  5
2AF
331
A1
  5
AD
331
3CA
  5
3D8
331
B2
  5
BE
331
2B2
  5
2C0
331
3DB
  5
3E9
331
C3
  5
CF
331
3EC
  5
3FA
331
D4
  5
E0
331
3FD
  5
40B
331
E5
  5
F1
331
40E
  5
41C
331
41F
  5
42D
331
2DE
  5
2EC
331
2EF
  5
3C2
331
176
  5
278
331
2C3
  5
2D1
331
420
  5
42E
331
F0
  5
FC
331
2F0
  5
3C3
331
431
  5
43F
331
101
  5
10D
331
43B
  5
449
331
123
  5
12F
331
112
  5
11E
331
44C
  5
45A
331
134
  5
140
331
45D
  5
46B
331
145
  5
151
331
46E
  5
5B9
331
156
  5
162
331
167
  5
173
331
280
  5
28E
331
291
  5
29F
331
91
  5
9D
331
80
  5
8C
331
2A2
  5
2B0
331
A2
  5
AE
331
3CB
  5
3D9
331
B3
  5
BF
331
2B3
  5
2C1
331
3DC
  5
3EA
331
2C4
  5
2D2
331
3ED
  5
3FB
331
3FE
  5
40C
331
E6
  5
F2
331
D5
  5
E1
331
40F
  5
41D
331
2DF
  5
2ED
331
177
  5
279
331
C4
  5
D0
331
410
  5
41E
331
178
  5
27A
331
2E0
  5
2EE
331
421
  5
42F
331
F1
  5
FD
331
2F1
  5
3C4
331
432
  5
440
331
102
  5
10E
331
43C
  5
44A
331
124
  5
130
331
113
  5
11F
331
44D
  5
45B
331
45E
  5
46C
331
146
  5
152
331
135
  5
141
331
46F
  5
5BB
331
157
  5
163
331
76
  5
82
331
281
  5
28F
331
81
  5
8D
331
292
  5
2A0
331
2A3
  5
2B1
331
A3
  5
AF
331
92
  5
9E
331
3CC
  5
3DA
331
B4
  5
C0
331
2B4
  5
2C2
331
3DD
  5
3EB
331
2C5
  5
2D3
331
3EE
  5
3FC
331
3FF
  5
40D
331
E7
  5
F3
331
D6
  5
E2
331
C5
  5
D1
331
400
  5
40E
331
168
  5
174
331
E8
  5
F4
331
2D0
  5
2DE
331
411
  5
41F
331
179
  5
27B
331
2E1
  5
2EF
331
422
  5
430
331
433
  5
441
331
103
  5
10F
331
F2
  5
FE
331
43D
  5
44B
331
125
  5
131
331
44E
  5
45C
331
136
  5
142
331
114
  5
120
331
45F
  5
46D
331
147
  5
153
331
470
  5
5BD
331
158
  5
164
331
77
  5
83
331
282
  5
290
331
82
  5
8E
331
293
  5
2A1
331
2A4
  5
2B2
331
A4
  5
B0
331
3CD
  5
3DB
331
B5
  5
C1
331
2B5
  5
2C3
331
93
  5
9F
331
3DE
  5
3EC
331
2C6
  5
2D4
331
3EF
  5
3FD
331
D7
  5
E3
331
C6
  5
D2
331
3F0
  5
3FE
331
D8
  5
E4
331
401
  5
40F
331
169
  5
175
331
E9
  5
F5
331
2D1
  5
2DF
331
412
  5
420
331
17A
  5
27D
331
2E2
  5
2F0
331
423
  5
431
331
434
  5
442
331
104
  5
110
331
F3
  5
FF
331
43E
  5
44C
331
126
  5
132
331
44F
  5
45D
331
137
  5
143
331
115
  5
121
331
460
  5
46E
331
148
  5
154
331
159
  5
165
331
283
  5
291
331
83
  5
8F
331
294
  5
2A2
331
2A5
  5
2B3
331
A5
  5
B1
331
3CE
  5
3DC
331
B6
  5
C2
331
2B6
  5
2C4
331
3DF
  5
3ED
331
2C7
  5
2D5
331
C7
  5
D3
331
94
  5
A0
331
3E0
  5
3EE
331
C8
  5
D4
331
2C8
  5
2D6
331
3F1
  5
3FF
331
D9
  5
E5
331
402
  5
410
331
16A
  5
176
331
EA
  5
F6
331
2D2
  5
2E0
331
413
  5
421
331
17B
  5
27E
331
2E3
  5
2F1
331
424
  5
432
331
435
  5
443
331
105
  5
111
331
F4
  5
100
331
43F
  5
44D
331
127
  5
133
331
450
  5
45E
331
138
  5
144
331
116
  5
122
331
5B9
  5
5BE
331
149
  5
155
331
461
  5
46F
331
273
  5
281
331
284
  5
292
331
84
  5
90
331
295
  5
2A3
331
2A6
  5
2B4
331
A6
  5
B2
331
95
  5
A1
331
3CF
  5
3DD
331
2B7
  5
2C5
331
B7
  5
C3
331
15A
  5
166
331
3D0
  5
3DE
331
B8
  5
C4
331
2B8
  5
2C6
331
3E1
  5
3EF
331
C9
  5
D5
331
2C9
  5
2D7
331
3F2
  5
400
331
DA
  5
E6
331
403
  5
411
331
16B
  5
177
331
EB
  5
F7
331
414
  5
422
331
17C
  5
280
331
2D3
  5
2E1
331
2E4
  5
3B5
331
425
  5
433
331
436
  5
444
331
106
  5
112
331
F5
  5
101
331
440
  5
44E
331
128
  5
134
331
451
  5
45F
331
139
  5
145
331
117
  5
123
331
462
  5
470
331
14A
  5
156
331
285
  5
293
331
85
  5
91
331
296
  5
2A4
331
96
  5
A2
331
2A7
  5
2B5
331
A7
  5
B3
331
15B
  5
167
331
3C0
  5
3CE
331
A8
  5
B4
331
2A8
  5
2B6
331
3D1
  5
3DF
331
B9
  5
C5
331
2B9
  5
2C7
331
3E2
  5
3F0
331
CA
  5
D6
331
2CA
  5
2D8
331
3F3
  5
401
331
404
  5
412
331
16C
  5
178
331
EC
  5
F8
331
DB
  5
E7
331
415
  5
423
331
2E5
  5
3B6
331
2D4
  5
2E2
331
426
  5
434
331
F6
  5
102
331
437
  5
445
331
441
  5
44F
331
129
  5
135
331
118
  5
124
331
452
  5
460
331
13A
  5
146
331
107
  5
113
331
463
  5
471
331
15C
  5
168
331
275
  5
283
331
286
  5
294
331
86
  5
92
331
297
  5
2A5
331
97
  5
A3
331
474
  5
7F
331
5BB
  5
7D
331
14B
  5
157
331
298
  5
2A6
331
98
  5
A4
331
3C1
  5
3CF
331
A9
  5
B5
331
2A9
  5
2B7
331
3D2
  5
3E0
331
BA
  5
C6
331
2BA
  5
2C8
331
3E3
  5
3F1
331
2CB
  5
2D9
331
CB
  5
D7
331
3F4
  5
402
331
405
  5
413
331
16D
  5
179
331
ED
  5
F9
331
DC
  5
E8
331
416
  5
424
331
2E6
  5
3B7
331
2D5
  5
2E3
331
427
  5
435
331
F7
  5
103
331
442
  5
450
331
12A
  5
136
331
119
  5
125
331
453
  5
461
331
13B
  5
147
331
464
  5
474
331
14C
  5
158
331
276
  5
284
331
3B7
  5
3C5
331
87
  5
93
331
287
  5
295
331
15D
  5
169
331
108
  5
114
331
3B8
  5
3C6
331
88
  5
94
331
288
  5
296
331
299
  5
2A7
331
99
  5
A5
331
3C2
  5
3D0
331
AA
  5
B6
331
2AA
  5
2B8
331
3D3
  5
3E1
331
BB
  5
C7
331
2BB
  5
2C9
331
3E4
  5
3F2
331
2CC
  5
2DA
331
CC
  5
D8
331
3F5
  5
403
331
406
  5
414
331
16E
  5
17A
331
EE
  5
FA
331
DD
  5
E9
331
417
  5
425
331
2E7
  5
3BA
331
2D6
  5
2E4
331
428
  5
436
331
F8
  5
104
331
443
  5
451
331
12B
  5
137
331
11A
  5
126
331
454
  5
462
331
13C
  5
148
331
14D
  5
159
331
465
  5
475
331
277
  5
285
331
15E
  5
16A
331
109
  5
115
331
278
  5
286
331
78
  5
84
331
3B9
  5
3C7
331
89
  5
95
331
289
  5
297
331
29A
  5
2A8
331
9A
  5
A6
331
3C3
  5
3D1
331
AB
  5
B7
331
3D4
  5
3E2
331
BC
  5
C8
331
2AB
  5
2B9
331
2BC
  5
2CA
331
3E5
  5
3F3
331
2CD
  5
2DB
331
CD
  5
D9
331
3F6
  5
404
331
407
  5
415
331
16F
  5
17B
331
EF
  5
FB
331
DE
  5
EA
331
418
  5
426
331
2E8
  5
3BB
331
2D7
  5
2E5
331
429
  5
437
331
444
  5
452
331
12C
  5
138
331
11B
  5
127
331
10A
  5
116
331
455
  5
463
331
13D
  5
149
331
14E
  5
15A
331
466
  5
476
331
15F
  5
16B
331
F9
  5
105
  0
ACDBDETAILVIEWSTYLE
  5
6B
102
{ACAD_REACTORS
330
6A
102
}
330
6A
100
AcDbModelDocViewStyle
 70
     0
  3
Imperial24
290
     0
100
AcDbDetailViewStyle
 70
     0
 71
     0
 90
        3
 71
     1
340
55
 40
0.24
340
0
 40
0.24
300

 40
0.36
280
     3
 71
     2
340
5C
 90
       25
 71
     3
340
55
 40
0.24
 90
        1
 40
0.75
 90
        1
300
%<\AcVar ViewType \f "%tc1">% %<\AcVar ViewDetailId>%\PSCALE %<\AcVar ViewScale \f "%sn">%
 71
     4
340
5C
 90
       25
340
5C
 90
       25
280
     0
  0
LAYOUT
  5
73
102
{ACAD_XDICTIONARY
360
65D
102
}
102
{ACAD_REACTORS
330
61
102
}
330
61
100
AcDbPlotSettings
  1

  2
Adobe PDF
  4

  6

 40
0.0
 41
0.0
 42
0.0
 43
0.0
 44
0.0
 45
0.0
 46
0.0
 47
0.0
 48
0.0
 49
0.0
140
0.0
141
0.0
142
1.0
143
1.0
 70
  1712
 72
     0
 73
     0
 74
     0
  7

 75
     0
147
1.0
148
0.0
149
0.0
100
AcDbLayout
  1
Model
 70
     1
 71
     0
 10
0.0
 20
0.0
 11
12.0
 21
9.0
 12
0.0
 22
0.0
 32
0.0
 14
0.0
 24
0.0
 34
0.0
 15
0.0
 25
0.0
 35
0.0
146
0.0
 13
0.0
 23
0.0
 33
0.0
 16
1.0
 26
0.0
 36
0.0
 17
0.0
 27
1.0
 37
0.0
 76
     0
330
70
331
75
  0
LAYOUT
  5
6F
102
{ACAD_XDICTIONARY
360
65B
102
}
102
{ACAD_REACTORS
330
61
102
}
330
61
100
AcDbPlotSettings
  1

  2
Adobe PDF
  4

  6

 40
0.0
 41
0.0
 42
0.0
 43
0.0
 44
0.0
 45
0.0
 46
0.0
 47
0.0
 48
0.0
 49
0.0
140
0.0
141
0.0
142
1.0
143
1.0
 70
   688
 72
     0
 73
     0
 74
     5
  7

 75
    16
147
1.0
148
0.0
149
0.0
100
AcDbLayout
  1
レイアウト1
 70
     1
 71
     1
 10
0.0
 20
0.0
 11
12.0
 21
9.0
 12
0.0
 22
0.0
 32
0.0
 14
1.000000000000000E+20
 24
1.000000000000000E+20
 34
1.000000000000000E+20
 15
-1.000000000000000E+20
 25
-1.000000000000000E+20
 35
-1.000000000000000E+20
146
0.0
 13
0.0
 23
0.0
 33
0.0
 16
1.0
 26
0.0
 36
0.0
 17
0.0
 27
1.0
 37
0.0
 76
     0
330
6C
  0
MATERIAL
  5
19
102
{ACAD_XDICTIONARY
360
1A
102
}
102
{ACAD_REACTORS
330
10
102
}
330
10
100
AcDbMaterial
  1
ByBlock
 72
     0
 43
0.0208333333333333
 43
0.0
 43
0.0
 43
0.0
 43
0.0
 43
0.0208333333333333
 43
0.0
 43
0.0
 43
0.0
 43
0.0
 43
1.0
 43
0.0
 43
0.0
 43
0.0
 43
0.0
 43
1.0
 77
     0
 47
0.0208333333333333
 47
0.0
 47
0.0
 47
0.0
 47
0.0
 47
0.0208333333333333
 47
0.0
 47
0.0
 47
0.0
 47
0.0
 47
1.0
 47
0.0
 47
0.0
 47
0.0
 47
0.0
 47
1.0
171
     0
 49
0.0208333333333333
 49
0.0
 49
0.0
 49
0.0
 49
0.0
 49
0.0208333333333333
 49
0.0
 49
0.0
 49
0.0
 49
0.0
 49
1.0
 49
0.0
 49
0.0
 49
0.0
 49
0.0
 49
1.0
175
     0
142
0.0208333333333333
142
0.0
142
0.0
142
0.0
142
0.0
142
0.0208333333333333
142
0.0
142
0.0
142
0.0
142
0.0
142
1.0
142
0.0
142
0.0
142
0.0
142
0.0
142
1.0
179
     0
144
0.0208333333333333
144
0.0
144
0.0
144
0.0
144
0.0
144
0.0208333333333333
144
0.0
144
0.0
144
0.0
144
0.0
144
1.0
144
0.0
144
0.0
144
0.0
144
0.0
144
1.0
147
0.0208333333333333
147
0.0
147
0.0
147
0.0
147
0.0
147
0.0208333333333333
147
0.0
147
0.0
147
0.0
147
0.0
147
1.0
147
0.0
147
0.0
147
0.0
147
0.0
147
1.0
  0
MATERIAL
  5
11
102
{ACAD_XDICTIONARY
360
12
102
}
102
{ACAD_REACTORS
330
10
102
}
330
10
100
AcDbMaterial
  1
ByLayer
 72
     0
 43
0.0208333333333333
 43
0.0
 43
0.0
 43
0.0
 43
0.0
 43
0.0208333333333333
 43
0.0
 43
0.0
 43
0.0
 43
0.0
 43
1.0
 43
0.0
 43
0.0
 43
0.0
 43
0.0
 43
1.0
 77
     0
 47
0.0208333333333333
 47
0.0
 47
0.0
 47
0.0
 47
0.0
 47
0.0208333333333333
 47
0.0
 47
0.0
 47
0.0
 47
0.0
 47
1.0
 47
0.0
 47
0.0
 47
0.0
 47
0.0
 47
1.0
171
     0
 49
0.0208333333333333
 49
0.0
 49
0.0
 49
0.0
 49
0.0
 49
0.0208333333333333
 49
0.0
 49
0.0
 49
0.0
 49
0.0
 49
1.0
 49
0.0
 49
0.0
 49
0.0
 49
0.0
 49
1.0
175
     0
142
0.0208333333333333
142
0.0
142
0.0
142
0.0
142
0.0
142
0.0208333333333333
142
0.0
142
0.0
142
0.0
142
0.0
142
1.0
142
0.0
142
0.0
142
0.0
142
0.0
142
1.0
179
     0
144
0.0208333333333333
144
0.0
144
0.0
144
0.0
144
0.0
144
0.0208333333333333
144
0.0
144
0.0
144
0.0
144
0.0
144
1.0
144
0.0
144
0.0
144
0.0
144
0.0
144
1.0
147
0.0208333333333333
147
0.0
147
0.0
147
0.0
147
0.0
147
0.0208333333333333
147
0.0
147
0.0
147
0.0
147
0.0
147
1.0
147
0.0
147
0.0
147
0.0
147
0.0
147
1.0
  0
MATERIAL
  5
21
102
{ACAD_XDICTIONARY
360
22
102
}
102
{ACAD_REACTORS
330
10
102
}
330
10
100
AcDbMaterial
  1
Global
 72
     0
 43
0.0208333333333333
 43
0.0
 43
0.0
 43
0.0
 43
0.0
 43
0.0208333333333333
 43
0.0
 43
0.0
 43
0.0
 43
0.0
 43
1.0
 43
0.0
 43
0.0
 43
0.0
 43
0.0
 43
1.0
 77
     0
 47
0.0208333333333333
 47
0.0
 47
0.0
 47
0.0
 47
0.0
 47
0.0208333333333333
 47
0.0
 47
0.0
 47
0.0
 47
0.0
 47
1.0
 47
0.0
 47
0.0
 47
0.0
 47
0.0
 47
1.0
171
     0
 49
0.0208333333333333
 49
0.0
 49
0.0
 49
0.0
 49
0.0
 49
0.0208333333333333
 49
0.0
 49
0.0
 49
0.0
 49
0.0
 49
1.0
 49
0.0
 49
0.0
 49
0.0
 49
0.0
 49
1.0
175
     0
142
0.0208333333333333
142
0.0
142
0.0
142
0.0
142
0.0
142
0.0208333333333333
142
0.0
142
0.0
142
0.0
142
0.0
142
1.0
142
0.0
142
0.0
142
0.0
142
0.0
142
1.0
179
     0
144
0.0208333333333333
144
0.0
144
0.0
144
0.0
144
0.0
144
0.0208333333333333
144
0.0
144
0.0
144
0.0
144
0.0
144
1.0
144
0.0
144
0.0
144
0.0
144
0.0
144
1.0
147
0.0208333333333333
147
0.0
147
0.0
147
0.0
147
0.0
147
0.0208333333333333
147
0.0
147
0.0
147
0.0
147
0.0
147
1.0
147
0.0
147
0.0
147
0.0
147
0.0
147
1.0
  0
MLEADERSTYLE
  5
66
102
{ACAD_REACTORS
330
65
102
}
330
65
100
AcDbMLeaderStyle
170
     2
171
     1
172
     0
 90
        2
 40
0.0
 41
0.0
173
     1
 91
-1056964608
340
5A
 92
       -2
290
     1
 42
0.09
291
     1
 43
0.36
  3
Standard
 44
0.18
300

342
55
174
     1
178
     6
175
     1
176
     0
 93
-1056964608
 45
0.18
292
     0
297
     0
 46
0.18
 94
-1056964608
 47
1.0
 49
1.0
140
1.0
293
     1
141
0.0
294
     1
177
     0
142
1.0
295
     0
296
     0
143
0.125
1001
ACAD_MLEADERVER
1070
     2
  0
MLINESTYLE
  5
5F
102
{ACAD_REACTORS
330
5E
102
}
330
5E
100
AcDbMlineStyle
  2
STANDARD
 70
     0
  3

 62
   256
 51
90.0
 52
90.0
 71
     2
 49
0.5
 62
   256
  6
BYLAYER
 49
-0.5
 62
   256
  6
BYLAYER
  0
ACDBPLACEHOLDER
  5
F
102
{ACAD_REACTORS
330
E
102
}
330
E
  0
SCALE
  5
43
102
{ACAD_REACTORS
330
42
102
}
330
42
100
AcDbScale
 70
     0
300
1:1
140
1.0
141
1.0
290
     1
  0
SCALE
  5
44
102
{ACAD_REACTORS
330
42
102
}
330
42
100
AcDbScale
 70
     0
300
1/128" = 1'-0"
140
0.0078125
141
12.0
290
     0
  0
SCALE
  5
45
102
{ACAD_REACTORS
330
42
102
}
330
42
100
AcDbScale
 70
     0
300
1/64" = 1'-0"
140
0.015625
141
12.0
290
     0
  0
SCALE
  5
46
102
{ACAD_REACTORS
330
42
102
}
330
42
100
AcDbScale
 70
     0
300
1/32" = 1'-0"
140
0.03125
141
12.0
290
     0
  0
SCALE
  5
47
102
{ACAD_REACTORS
330
42
102
}
330
42
100
AcDbScale
 70
     0
300
1/16" = 1'-0"
140
0.0625
141
12.0
290
     0
  0
SCALE
  5
48
102
{ACAD_REACTORS
330
42
102
}
330
42
100
AcDbScale
 70
     0
300
3/32" = 1'-0"
140
0.09375
141
12.0
290
     0
  0
SCALE
  5
49
102
{ACAD_REACTORS
330
42
102
}
330
42
100
AcDbScale
 70
     0
300
1/8" = 1'-0"
140
0.125
141
12.0
290
     0
  0
SCALE
  5
4A
102
{ACAD_REACTORS
330
42
102
}
330
42
100
AcDbScale
 70
     0
300
3/16" = 1'-0"
140
0.1875
141
12.0
290
     0
  0
SCALE
  5
4B
102
{ACAD_REACTORS
330
42
102
}
330
42
100
AcDbScale
 70
     0
300
1/4" = 1'-0"
140
0.25
141
12.0
290
     0
  0
SCALE
  5
4C
102
{ACAD_REACTORS
330
42
102
}
330
42
100
AcDbScale
 70
     0
300
3/8" = 1'-0"
140
0.375
141
12.0
290
     0
  0
SCALE
  5
4D
102
{ACAD_REACTORS
330
42
102
}
330
42
100
AcDbScale
 70
     0
300
1/2" = 1'-0"
140
0.5
141
12.0
290
     0
  0
SCALE
  5
4E
102
{ACAD_REACTORS
330
42
102
}
330
42
100
AcDbScale
 70
     0
300
3/4" = 1'-0"
140
0.75
141
12.0
290
     0
  0
SCALE
  5
4F
102
{ACAD_REACTORS
330
42
102
}
330
42
100
AcDbScale
 70
     0
300
1" = 1'-0"
140
1.0
141
12.0
290
     0
  0
SCALE
  5
50
102
{ACAD_REACTORS
330
42
102
}
330
42
100
AcDbScale
 70
     0
300
1-1/2" = 1'-0"
140
1.5
141
12.0
290
     0
  0
SCALE
  5
51
102
{ACAD_REACTORS
330
42
102
}
330
42
100
AcDbScale
 70
     0
300
3" = 1'-0"
140
3.0
141
12.0
290
     0
  0
SCALE
  5
52
102
{ACAD_REACTORS
330
42
102
}
330
42
100
AcDbScale
 70
     0
300
6" = 1'-0"
140
6.0
141
12.0
290
     0
  0
SCALE
  5
53
102
{ACAD_REACTORS
330
42
102
}
330
42
100
AcDbScale
 70
     0
300
1'-0" = 1'-0"
140
12.0
141
12.0
290
     0
  0
ACDBSECTIONVIEWSTYLE
  5
69
102
{ACAD_REACTORS
330
67
102
}
330
67
100
AcDbModelDocViewStyle
 70
     0
  3
Imperial24
290
     0
100
AcDbSectionViewStyle
 70
     0
 71
     0
 90
       78
 71
     1
340
55
 40
0.24
340
0
340
0
 40
0.24
300
I, O, Q, S, X, Z
 40
0.48
 90
        3
 40
0.18
 90
        1
 71
     2
340
68
 90
       25
340
5C
 90
       50
 40
0.24
 40
0.0
 40
0.24
 71
     3
340
55
 40
0.24
 90
        1
 40
0.75
 90
        1
300
%<\AcVar ViewType \f "%tc1">% %<\AcVar ViewSectionStartId>%-%<\AcVar ViewSectionEndId>%\PSCALE %<\AcVar ViewScale \f "%sn">%
 71
     4
300
ANSI31
 40
1.0
 90
        0
290
     0
290
     0
 90
        6
 40
0.0
 40
1.570796326794896
 40
0.2617993877991494
 40
1.308996938995747
 40
-0.2617993877991494
 40
1.832595714594046
  0
TABLESTYLE
  5
64
102
{ACAD_XDICTIONARY
360
622
102
}
102
{ACAD_REACTORS
330
63
102
}
330
63
100
AcDbTableStyle
  3
Standard
 70
     0
 71
     0
 40
0.06
 41
0.06
280
     0
281
     0
  7
Standard
140
0.18
170
     2
 62
     0
 63
     7
283
     0
274
    -2
284
     1
 64
     0
275
    -2
285
     1
 65
     0
276
    -2
286
     1
 66
     0
277
    -2
287
     1
 67
     0
278
    -2
288
     1
 68
     0
279
    -2
289
     1
 69
     0
  7
Standard
140
0.25
170
     5
 62
     0
 63
     7
283
     0
274
    -2
284
     1
 64
     0
275
    -2
285
     1
 65
     0
276
    -2
286
     1
 66
     0
277
    -2
287
     1
 67
     0
278
    -2
288
     1
 68
     0
279
    -2
289
     1
 69
     0
  7
Standard
140
0.18
170
     5
 62
     0
 63
     7
283
     0
274
    -2
284
     1
 64
     0
275
    -2
285
     1
 65
     0
276
    -2
286
     1
 66
     0
277
    -2
287
     1
 67
     0
278
    -2
288
     1
 68
     0
279
    -2
289
     1
 69
     0
  0
VISUALSTYLE
  5
2F
102
{ACAD_XDICTIONARY
360
633
102
}
102
{ACAD_REACTORS
330
29
102
}
330
29
100
AcDbVisualStyle
  2
2dWireframe
 70
     4
 71
     0
 72
     2
 73
     0
 90
        0
 40
-0.6
 41
-30.0
 62
     5
 63
     7
 74
     1
 91
        4
 64
     7
 65
   257
 75
     1
175
     1
 42
1.0
 92
        0
 66
   257
 43
1.0
 76
     1
 77
     6
 78
     2
 67
     7
 79
     5
170
     0
171
     0
290
     0
174
     0
 93
        1
 44
0.0
173
     0
291
     0
 45
0.0
1001
ACAD
1000
AcDbSavedByObjectVersion
1070
     0
  0
VISUALSTYLE
  5
2E
102
{ACAD_XDICTIONARY
360
631
102
}
102
{ACAD_REACTORS
330
29
102
}
330
29
100
AcDbVisualStyle
  2
Basic
 70
     7
 71
     1
 72
     0
 73
     1
 90
        0
 40
-0.6
 41
-30.0
 62
     5
 63
     7
 74
     0
 91
        4
 64
     7
 65
   257
 75
     1
175
     1
 42
1.0
 92
        8
 66
     7
 43
1.0
 76
     1
 77
     6
 78
     2
 67
     7
 79
     5
170
     0
171
     0
290
     0
174
     0
 93
        1
 44
0.0
173
     0
291
     1
 45
0.0
1001
ACAD
1000
AcDbSavedByObjectVersion
1070
     0
  0
VISUALSTYLE
  5
35
102
{ACAD_XDICTIONARY
360
63F
102
}
102
{ACAD_REACTORS
330
29
102
}
330
29
100
AcDbVisualStyle
  2
Brighten
 70
    12
 71
     2
 72
     2
 73
     0
 90
        0
 40
-0.6
 41
-30.0
 62
     5
 63
     7
 74
     1
 91
        4
 64
     7
 65
   257
 75
     1
175
     1
 42
1.0
 92
        8
 66
     7
 43
1.0
 76
     1
 77
     6
 78
     2
 67
     7
 79
     5
170
     0
171
     0
290
     0
174
     0
 93
        1
 44
50.0
173
     0
291
     1
 45
0.0
1001
ACAD
1000
AcDbSavedByObjectVersion
1070
     0
  0
VISUALSTYLE
  5
39
102
{ACAD_XDICTIONARY
360
647
102
}
102
{ACAD_REACTORS
330
29
102
}
330
29
100
AcDbVisualStyle
  2
ColorChange
 70
    16
 71
     2
 72
     2
 73
     3
 90
        0
 40
-0.6
 41
-30.0
 62
     5
 63
     8
 74
     1
 91
        4
 64
     7
 65
   257
 75
     1
175
     1
 42
1.0
 92
        8
 66
     8
 43
1.0
 76
     1
 77
     6
 78
     2
 67
     7
 79
     5
170
     0
171
     0
290
     0
174
     0
 93
        1
 44
0.0
173
     0
291
     1
 45
0.0
1001
ACAD
1000
AcDbSavedByObjectVersion
1070
     0
  0
VISUALSTYLE
  5
32
102
{ACAD_XDICTIONARY
360
639
102
}
102
{ACAD_REACTORS
330
29
102
}
330
29
100
AcDbVisualStyle
  2
Conceptual
 70
     9
 71
     3
 72
     2
 73
     0
 90
        0
 40
-0.6
 41
-30.0
 62
     5
 63
     7
 74
     2
 91
        2
 64
     7
 65
   257
 75
     1
175
     1
 42
179.0
 92
        8
 66
     7
 43
1.0
 76
     1
 77
     6
 78
     2
 67
     7
 79
     3
170
     0
171
     0
290
     0
174
     0
 93
        1
 44
0.0
173
     0
291
     0
 45
0.0
1001
ACAD
1000
AcDbSavedByObjectVersion
1070
     0
  0
VISUALSTYLE
  5
34
102
{ACAD_XDICTIONARY
360
63D
102
}
102
{ACAD_REACTORS
330
29
102
}
330
29
100
AcDbVisualStyle
  2
Dim
 70
    11
 71
     2
 72
     2
 73
     0
 90
        0
 40
-0.6
 41
-30.0
 62
     5
 63
     7
 74
     1
 91
        4
 64
     7
 65
   257
 75
     1
175
     1
 42
1.0
 92
        8
 66
     7
 43
1.0
 76
     1
 77
     6
 78
     2
 67
     7
 79
     5
170
     0
171
     0
290
     0
174
     0
 93
        1
 44
-50.0
173
     0
291
     1
 45
0.0
1001
ACAD
1000
AcDbSavedByObjectVersion
1070
     0
  0
VISUALSTYLE
  5
41
102
{ACAD_XDICTIONARY
360
657
102
}
102
{ACAD_REACTORS
330
29
102
}
330
29
100
AcDbVisualStyle
  2
EdgeColorOff
 70
    22
 71
     2
 72
     2
 73
     0
 90
        0
 40
-0.6
 41
-30.0
 62
     5
 63
     7
 74
     1
 91
        4
 64
     7
 65
   257
 75
     1
175
     1
 42
1.0
 92
        8
 66
     7
 43
1.0
 76
     1
 77
     6
 78
     2
 67
     7
 79
     5
170
     0
171
     0
290
     0
174
     0
 93
        1
 44
0.0
173
     0
291
     1
 45
0.0
1001
ACAD
1000
AcDbSavedByObjectVersion
1070
     0
  0
VISUALSTYLE
  5
38
102
{ACAD_XDICTIONARY
360
645
102
}
102
{ACAD_REACTORS
330
29
102
}
330
29
100
AcDbVisualStyle
  2
Facepattern
 70
    15
 71
     2
 72
     2
 73
     0
 90
        0
 40
-0.6
 41
-30.0
 62
     5
 63
     7
 74
     1
 91
        4
 64
     7
 65
   257
 75
     1
175
     1
 42
1.0
 92
        8
 66
     7
 43
1.0
 76
     1
 77
     6
 78
     2
 67
     7
 79
     5
170
     0
171
     0
290
     0
174
     0
 93
        1
 44
0.0
173
     0
291
     1
 45
0.0
1001
ACAD
1000
AcDbSavedByObjectVersion
1070
     0
  0
VISUALSTYLE
  5
2A
102
{ACAD_XDICTIONARY
360
629
102
}
102
{ACAD_REACTORS
330
29
102
}
330
29
100
AcDbVisualStyle
  2
Flat
 70
     0
 71
     2
 72
     1
 73
     1
 90
        2
 40
-0.6
 41
30.0
 62
     5
 63
     7
 74
     0
 91
        0
 64
     7
 65
   257
 75
     1
175
     1
 42
1.0
 92
        8
 66
     7
 43
1.0
 76
     1
 77
     6
 78
     2
 67
     7
 79
     5
170
     0
171
     0
290
     0
174
     0
 93
       13
 44
0.0
173
     0
291
     1
 45
0.0
1001
ACAD
1000
AcDbSavedByObjectVersion
1070
     0
  0
VISUALSTYLE
  5
2B
102
{ACAD_XDICTIONARY
360
62B
102
}
102
{ACAD_REACTORS
330
29
102
}
330
29
100
AcDbVisualStyle
  2
FlatWithEdges
 70
     1
 71
     2
 72
     1
 73
     1
 90
        2
 40
-0.6
 41
30.0
 62
     5
 63
     7
 74
     1
 91
        0
 64
     7
 65
   257
 75
     1
175
     1
 42
1.0
 92
        0
 66
   257
 43
1.0
 76
     1
 77
     6
 78
     2
 67
     7
 79
     5
170
     0
171
     0
290
     0
174
     0
 93
       13
 44
0.0
173
     0
291
     1
 45
0.0
1001
ACAD
1000
AcDbSavedByObjectVersion
1070
     0
  0
VISUALSTYLE
  5
2C
102
{ACAD_XDICTIONARY
360
62D
102
}
102
{ACAD_REACTORS
330
29
102
}
330
29
100
AcDbVisualStyle
  2
Gouraud
 70
     2
 71
     2
 72
     2
 73
     1
 90
        2
 40
-0.6
 41
30.0
 62
     5
 63
     7
 74
     0
 91
        0
 64
     7
 65
   257
 75
     1
175
     1
 42
1.0
 92
        0
 66
     7
 43
1.0
 76
     1
 77
     6
 78
     2
 67
     7
 79
     5
170
     0
171
     0
290
     0
174
     0
 93
       13
 44
0.0
173
     0
291
     1
 45
0.0
1001
ACAD
1000
AcDbSavedByObjectVersion
1070
     0
  0
VISUALSTYLE
  5
2D
102
{ACAD_XDICTIONARY
360
62F
102
}
102
{ACAD_REACTORS
330
29
102
}
330
29
100
AcDbVisualStyle
  2
GouraudWithEdges
 70
     3
 71
     2
 72
     2
 73
     1
 90
        2
 40
-0.6
 41
30.0
 62
     5
 63
     7
 74
     1
 91
        0
 64
     7
 65
   257
 75
     1
175
     1
 42
1.0
 92
        0
 66
   257
 43
1.0
 76
     1
 77
     6
 78
     2
 67
     7
 79
     5
170
     0
171
     0
290
     0
174
     0
 93
       13
 44
0.0
173
     0
291
     1
 45
0.0
1001
ACAD
1000
AcDbSavedByObjectVersion
1070
     0
  0
VISUALSTYLE
  5
31
102
{ACAD_XDICTIONARY
360
637
102
}
102
{ACAD_REACTORS
330
29
102
}
330
29
100
AcDbVisualStyle
  2
Hidden
 70
     6
 71
     1
 72
     2
 73
     2
 90
        0
 40
-0.6
 41
-30.0
 62
     5
 63
     7
 74
     2
 91
        2
 64
     7
 65
   257
 75
     2
175
     1
 42
40.0
 92
        0
 66
   257
 43
1.0
 76
     1
 77
     6
 78
     2
 67
     7
 79
     3
170
     0
171
     0
290
     0
174
     0
 93
        1
 44
0.0
173
     0
291
     0
 45
0.0
1001
ACAD
1000
AcDbSavedByObjectVersion
1070
     0
  0
VISUALSTYLE
  5
3F
102
{ACAD_XDICTIONARY
360
653
102
}
102
{ACAD_REACTORS
330
29
102
}
330
29
100
AcDbVisualStyle
  2
JitterOff
 70
    20
 71
     2
 72
     2
 73
     0
 90
        0
 40
-0.6
 41
-30.0
 62
     5
 63
     7
 74
     1
 91
        4
 64
     7
 65
   257
 75
     1
175
     1
 42
1.0
 92
       10
 66
     7
 43
1.0
 76
     1
 77
     6
 78
     2
 67
     7
 79
     5
170
     0
171
     0
290
     0
174
     0
 93
        1
 44
0.0
173
     0
291
     1
 45
0.0
1001
ACAD
1000
AcDbSavedByObjectVersion
1070
     0
  0
VISUALSTYLE
  5
37
102
{ACAD_XDICTIONARY
360
643
102
}
102
{ACAD_REACTORS
330
29
102
}
330
29
100
AcDbVisualStyle
  2
Linepattern
 70
    14
 71
     2
 72
     2
 73
     0
 90
        0
 40
-0.6
 41
-30.0
 62
     5
 63
     7
 74
     1
 91
        4
 64
     7
 65
   257
 75
     7
175
     7
 42
1.0
 92
        8
 66
     7
 43
1.0
 76
     1
 77
     6
 78
     2
 67
     7
 79
     5
170
     0
171
     0
290
     0
174
     0
 93
        1
 44
0.0
173
     0
291
     1
 45
0.0
1001
ACAD
1000
AcDbSavedByObjectVersion
1070
     0
  0
VISUALSTYLE
  5
40
102
{ACAD_XDICTIONARY
360
655
102
}
102
{ACAD_REACTORS
330
29
102
}
330
29
100
AcDbVisualStyle
  2
OverhangOff
 70
    21
 71
     2
 72
     2
 73
     0
 90
        0
 40
-0.6
 41
-30.0
 62
     5
 63
     7
 74
     1
 91
        4
 64
     7
 65
   257
 75
     1
175
     1
 42
1.0
 92
        9
 66
     7
 43
1.0
 76
     1
 77
     6
 78
     2
 67
     7
 79
     5
170
     0
171
     0
290
     0
174
     0
 93
        1
 44
0.0
173
     0
291
     1
 45
0.0
1001
ACAD
1000
AcDbSavedByObjectVersion
1070
     0
  0
VISUALSTYLE
  5
33
102
{ACAD_XDICTIONARY
360
63B
102
}
102
{ACAD_REACTORS
330
29
102
}
330
29
100
AcDbVisualStyle
  2
Realistic
 70
     8
 71
     2
 72
     3
 73
     0
 90
        2
 40
-0.6
 41
30.0
 62
     5
 63
     7
 74
     0
 91
        0
 64
     7
 65
   257
 75
     1
175
     1
 42
1.0
 92
        8
 66
   257
 43
1.0
 76
     1
 77
     6
 78
     2
 67
     7
 79
     3
170
     0
171
     0
290
     0
174
     0
 93
       13
 44
0.0
173
     0
291
     0
 45
0.0
1001
ACAD
1000
AcDbSavedByObjectVersion
1070
     0
  0
VISUALSTYLE
  5
3E
102
{ACAD_XDICTIONARY
360
651
102
}
102
{ACAD_REACTORS
330
29
102
}
330
29
100
AcDbVisualStyle
  2
Shaded
 70
    27
 71
     2
 72
     2
 73
     1
 90
        2
 40
-0.6
 41
30.0
 62
     5
 63
     7
 74
     0
 91
        4
 64
     7
 65
   257
 75
     1
175
     1
 42
1.0
 92
        8
 66
   257
 43
1.0
 76
     1
 77
     6
 78
     2
 67
     8
 79
     3
170
     0
171
     0
290
     0
174
     0
 93
        5
 44
0.0
173
     0
291
     0
 45
0.0
1001
ACAD
1000
AcDbSavedByObjectVersion
1070
     0
  0
VISUALSTYLE
  5
3D
102
{ACAD_XDICTIONARY
360
64F
102
}
102
{ACAD_REACTORS
330
29
102
}
330
29
100
AcDbVisualStyle
  2
Shaded with edges
 70
    26
 71
     2
 72
     2
 73
     1
 90
        2
 40
-0.6
 41
30.0
 62
     5
 63
     7
 74
     1
 91
       10
 64
     7
 65
   257
 75
     2
175
     1
 42
1.0
 92
        8
 66
   257
 43
1.0
 76
     1
 77
     6
 78
     2
 67
     7
 79
     3
170
     0
171
     0
290
     0
174
     0
 93
        5
 44
0.0
173
     0
291
     0
 45
0.0
1001
ACAD
1000
AcDbSavedByObjectVersion
1070
     0
  0
VISUALSTYLE
  5
3A
102
{ACAD_XDICTIONARY
360
649
102
}
102
{ACAD_REACTORS
330
29
102
}
330
29
100
AcDbVisualStyle
  2
Shades of Gray
 70
    23
 71
     2
 72
     2
 73
     3
 90
        0
 40
-0.6
 41
-30.0
 62
     5
 63
     7
 74
     2
 91
        2
 64
     7
 65
     7
 75
     1
175
     1
 42
40.0
 92
        8
 66
     7
 43
1.0
 76
     1
 77
     6
 78
     2
 67
     7
 79
     3
170
     0
171
     0
290
     0
174
     0
 93
        1
 44
0.0
173
     0
291
     0
 45
0.0
1001
ACAD
1000
AcDbSavedByObjectVersion
1070
     0
  0
VISUALSTYLE
  5
3B
102
{ACAD_XDICTIONARY
360
64B
102
}
102
{ACAD_REACTORS
330
29
102
}
330
29
100
AcDbVisualStyle
  2
Sketchy
 70
    24
 71
     1
 72
     2
 73
     2
 90
        0
 40
-0.6
 41
-30.0
 62
     5
 63
     7
 74
     2
 91
        2
 64
     7
 65
     7
 75
     1
175
     1
 42
40.0
 92
       11
 66
     7
 43
1.0
 76
     1
 77
     6
 78
     2
 67
     7
 79
     6
170
     0
171
     0
290
     0
174
     0
 93
        1
 44
0.0
173
     0
291
     0
 45
0.0
1001
ACAD
1000
AcDbSavedByObjectVersion
1070
     0
  0
VISUALSTYLE
  5
36
102
{ACAD_XDICTIONARY
360
641
102
}
102
{ACAD_REACTORS
330
29
102
}
330
29
100
AcDbVisualStyle
  2
Thicken
 70
    13
 71
     2
 72
     2
 73
     0
 90
        0
 40
-0.6
 41
-30.0
 62
     5
 63
     7
 74
     1
 91
        4
 64
     7
 65
   257
 75
     1
175
     1
 42
1.0
 92
       12
 66
     7
 43
1.0
 76
     1
 77
     6
 78
     2
 67
     7
 79
     5
170
     0
171
     0
290
     0
174
     0
 93
        1
 44
0.0
173
     0
291
     1
 45
0.0
1001
ACAD
1000
AcDbSavedByObjectVersion
1070
     0
  0
VISUALSTYLE
  5
30
102
{ACAD_XDICTIONARY
360
635
102
}
102
{ACAD_REACTORS
330
29
102
}
330
29
100
AcDbVisualStyle
  2
Wireframe
 70
     5
 71
     0
 72
     2
 73
     0
 90
        0
 40
-0.6
 41
-30.0
 62
     5
 63
     7
 74
     1
 91
        4
 64
     7
 65
   257
 75
     1
175
     1
 42
1.0
 92
        0
 66
   257
 43
1.0
 76
     1
 77
     6
 78
     2
 67
     7
 79
     3
170
     0
171
     0
290
     0
174
     0
 93
        1
 44
0.0
173
     0
291
     0
 45
0.0
1001
ACAD
1000
AcDbSavedByObjectVersion
1070
     0
  0
VISUALSTYLE
  5
3C
102
{ACAD_XDICTIONARY
360
64D
102
}
102
{ACAD_REACTORS
330
29
102
}
330
29
100
AcDbVisualStyle
  2
X-Ray
 70
    25
 71
     2
 72
     2
 73
     1
 90
        1
 40
0.5
 41
-30.0
 62
     5
 63
     7
 74
     1
 91
        0
 64
     7
 65
   257
 75
     1
175
     1
 42
1.0
 92
        8
 66
     7
 43
1.0
 76
     1
 77
     6
 78
     2
 67
     7
 79
     3
170
     0
171
     0
290
     0
174
     0
 93
       13
 44
0.0
173
     0
291
     0
 45
0.0
1001
ACAD
1000
AcDbSavedByObjectVersion
1070
     0
  0
DICTIONARYVAR
  5
61D
102
{ACAD_REACTORS
330
618
102
}
330
618
100
DictionaryVariables
280
     0
  1
1:1
  0
DICTIONARYVAR
  5
61A
102
{ACAD_REACTORS
330
618
102
}
330
618
100
DictionaryVariables
280
     0
  1
STANDARD
  0
DICTIONARYVAR
  5
619
102
{ACAD_REACTORS
330
618
102
}
330
618
100
DictionaryVariables
280
     0
  1
STANDARD
  0
DICTIONARYVAR
  5
61B
102
{ACAD_REACTORS
330
618
102
}
330
618
100
DictionaryVariables
280
     0
  1
Imperial24
  0
DICTIONARYVAR
  5
61C
102
{ACAD_REACTORS
330
618
102
}
330
618
100
DictionaryVariables
280
     0
  1
Imperial24
  0
DICTIONARYVAR
  5
620
102
{ACAD_REACTORS
330
618
102
}
330
618
100
DictionaryVariables
280
     0
  1
1
  0
DICTIONARYVAR
  5
61F
102
{ACAD_REACTORS
330
618
102
}
330
618
100
DictionaryVariables
280
     0
  1
0
  0
DICTIONARYVAR
  5
61E
102
{ACAD_REACTORS
330
618
102
}
330
618
100
DictionaryVariables
280
     0
  1
127
  0
DICTIONARYVAR
  5
621
102
{ACAD_REACTORS
330
618
102
}
330
618
100
DictionaryVariables
280
     0
  1
2
  0
DICTIONARY
  5
1B3
102
{ACAD_REACTORS
330
1AA
102
}
330
1AA
100
AcDbDictionary
281
     1
  0
DICTIONARY
  5
65D
330
73
100
AcDbDictionary
280
     1
281
     1
  3
ACAD_XREC_ROUNDTRIP
360
65E
  0
DICTIONARY
  5
65B
330
6F
100
AcDbDictionary
280
     1
281
     1
  3
ACAD_XREC_ROUNDTRIP
360
65C
  0
DICTIONARY
  5
1A
330
19
100
AcDbDictionary
280
     1
281
     1
  3
ACAD_XREC_ROUNDTRIP
360
627
  3
BUMPTILE
360
1C
  3
DIFFUSETILE
360
1B
  3
OPACITYTILE
360
1F
  3
REFLECTIONTILE
360
1E
  3
REFRACTIONTILE
360
20
  3
SPECULARTILE
360
1D
  0
DICTIONARY
  5
12
330
11
100
AcDbDictionary
280
     1
281
     1
  3
ACAD_XREC_ROUNDTRIP
360
626
  3
BUMPTILE
360
14
  3
DIFFUSETILE
360
13
  3
OPACITYTILE
360
17
  3
REFLECTIONTILE
360
16
  3
REFRACTIONTILE
360
18
  3
SPECULARTILE
360
15
  0
DICTIONARY
  5
22
330
21
100
AcDbDictionary
280
     1
281
     1
  3
ACAD_XREC_ROUNDTRIP
360
628
  3
BUMPTILE
360
24
  3
DIFFUSETILE
360
23
  3
OPACITYTILE
360
27
  3
REFLECTIONTILE
360
26
  3
REFRACTIONTILE
360
28
  3
SPECULARTILE
360
25
  0
DICTIONARY
  5
622
330
64
100
AcDbDictionary
280
     1
281
     1
  3
ACAD_ROUNDTRIP_2008_TABLESTYLE_CELLSTYLEMAP
360
623
  3
ACAD_XREC_ROUNDTRIP
360
659
  0
DICTIONARY
  5
633
330
2F
100
AcDbDictionary
280
     1
281
     1
  3
ACAD_XREC_ROUNDTRIP
360
634
  0
DICTIONARY
  5
631
330
2E
100
AcDbDictionary
280
     1
281
     1
  3
ACAD_XREC_ROUNDTRIP
360
632
  0
DICTIONARY
  5
63F
330
35
100
AcDbDictionary
280
     1
281
     1
  3
ACAD_XREC_ROUNDTRIP
360
640
  0
DICTIONARY
  5
647
330
39
100
AcDbDictionary
280
     1
281
     1
  3
ACAD_XREC_ROUNDTRIP
360
648
  0
DICTIONARY
  5
639
330
32
100
AcDbDictionary
280
     1
281
     1
  3
ACAD_XREC_ROUNDTRIP
360
63A
  0
DICTIONARY
  5
63D
330
34
100
AcDbDictionary
280
     1
281
     1
  3
ACAD_XREC_ROUNDTRIP
360
63E
  0
DICTIONARY
  5
657
330
41
100
AcDbDictionary
280
     1
281
     1
  3
ACAD_XREC_ROUNDTRIP
360
658
  0
DICTIONARY
  5
645
330
38
100
AcDbDictionary
280
     1
281
     1
  3
ACAD_XREC_ROUNDTRIP
360
646
  0
DICTIONARY
  5
629
330
2A
100
AcDbDictionary
280
     1
281
     1
  3
ACAD_XREC_ROUNDTRIP
360
62A
  0
DICTIONARY
  5
62B
330
2B
100
AcDbDictionary
280
     1
281
     1
  3
ACAD_XREC_ROUNDTRIP
360
62C
  0
DICTIONARY
  5
62D
330
2C
100
AcDbDictionary
280
     1
281
     1
  3
ACAD_XREC_ROUNDTRIP
360
62E
  0
DICTIONARY
  5
62F
330
2D
100
AcDbDictionary
280
     1
281
     1
  3
ACAD_XREC_ROUNDTRIP
360
630
  0
DICTIONARY
  5
637
330
31
100
AcDbDictionary
280
     1
281
     1
  3
ACAD_XREC_ROUNDTRIP
360
638
  0
DICTIONARY
  5
653
330
3F
100
AcDbDictionary
280
     1
281
     1
  3
ACAD_XREC_ROUNDTRIP
360
654
  0
DICTIONARY
  5
643
330
37
100
AcDbDictionary
280
     1
281
     1
  3
ACAD_XREC_ROUNDTRIP
360
644
  0
DICTIONARY
  5
655
330
40
100
AcDbDictionary
280
     1
281
     1
  3
ACAD_XREC_ROUNDTRIP
360
656
  0
DICTIONARY
  5
63B
330
33
100
AcDbDictionary
280
     1
281
     1
  3
ACAD_XREC_ROUNDTRIP
360
63C
  0
DICTIONARY
  5
651
330
3E
100
AcDbDictionary
280
     1
281
     1
  3
ACAD_XREC_ROUNDTRIP
360
652
  0
DICTIONARY
  5
64F
330
3D
100
AcDbDictionary
280
     1
281
     1
  3
ACAD_XREC_ROUNDTRIP
360
650
  0
DICTIONARY
  5
649
330
3A
100
AcDbDictionary
280
     1
281
     1
  3
ACAD_XREC_ROUNDTRIP
360
64A
  0
DICTIONARY
  5
64B
330
3B
100
AcDbDictionary
280
     1
281
     1
  3
ACAD_XREC_ROUNDTRIP
360
64C
  0
DICTIONARY
  5
641
330
36
100
AcDbDictionary
280
     1
281
     1
  3
ACAD_XREC_ROUNDTRIP
360
642
  0
DICTIONARY
  5
635
330
30
100
AcDbDictionary
280
     1
281
     1
  3
ACAD_XREC_ROUNDTRIP
360
636
  0
DICTIONARY
  5
64D
330
3C
100
AcDbDictionary
280
     1
281
     1
  3
ACAD_XREC_ROUNDTRIP
360
64E
  0
XRECORD
  5
65E
102
{ACAD_REACTORS
330
65D
102
}
330
65D
100
AcDbXrecord
280
     1
102
SHADEPLOT
 70
     0
102
SHADEPLOTRESLEVEL
 70
     2
102
SHADEPLOTCUSTOMDPI
 70
   300
  0
XRECORD
  5
65C
102
{ACAD_REACTORS
330
65B
102
}
330
65B
100
AcDbXrecord
280
     1
102
SHADEPLOT
 70
     0
102
SHADEPLOTRESLEVEL
 70
     2
102
SHADEPLOTCUSTOMDPI
 70
   300
  0
XRECORD
  5
627
102
{ACAD_REACTORS
330
1A
102
}
330
1A
100
AcDbXrecord
280
     1
102
MATERIAL
148
0.0
149
0.0
149
0.0
 93
        0
 94
      127
282
     0
 72
     0
 77
     0
171
     0
175
     0
179
     0
273
     0
  0
XRECORD
  5
1C
102
{ACAD_REACTORS
330
1A
102
}
330
1A
100
AcDbXrecord
280
     1
270
     1
271
     1
  0
XRECORD
  5
1B
102
{ACAD_REACTORS
330
1A
102
}
330
1A
100
AcDbXrecord
280
     1
270
     1
271
     1
  0
XRECORD
  5
1F
102
{ACAD_REACTORS
330
1A
102
}
330
1A
100
AcDbXrecord
280
     1
270
     1
271
     1
  0
XRECORD
  5
1E
102
{ACAD_REACTORS
330
1A
102
}
330
1A
100
AcDbXrecord
280
     1
270
     1
271
     1
  0
XRECORD
  5
20
102
{ACAD_REACTORS
330
1A
102
}
330
1A
100
AcDbXrecord
280
     1
270
     1
271
     1
  0
XRECORD
  5
1D
102
{ACAD_REACTORS
330
1A
102
}
330
1A
100
AcDbXrecord
280
     1
270
     1
271
     1
  0
XRECORD
  5
626
102
{ACAD_REACTORS
330
12
102
}
330
12
100
AcDbXrecord
280
     1
102
MATERIAL
148
0.0
149
0.0
149
0.0
 93
        0
 94
      127
282
     0
 72
     0
 77
     0
171
     0
175
     0
179
     0
273
     0
  0
XRECORD
  5
14
102
{ACAD_REACTORS
330
12
102
}
330
12
100
AcDbXrecord
280
     1
270
     1
271
     1
  0
XRECORD
  5
13
102
{ACAD_REACTORS
330
12
102
}
330
12
100
AcDbXrecord
280
     1
270
     1
271
     1
  0
XRECORD
  5
17
102
{ACAD_REACTORS
330
12
102
}
330
12
100
AcDbXrecord
280
     1
270
     1
271
     1
  0
XRECORD
  5
16
102
{ACAD_REACTORS
330
12
102
}
330
12
100
AcDbXrecord
280
     1
270
     1
271
     1
  0
XRECORD
  5
18
102
{ACAD_REACTORS
330
12
102
}
330
12
100
AcDbXrecord
280
     1
270
     1
271
     1
  0
XRECORD
  5
15
102
{ACAD_REACTORS
330
12
102
}
330
12
100
AcDbXrecord
280
     1
270
     1
271
     1
  0
XRECORD
  5
628
102
{ACAD_REACTORS
330
22
102
}
330
22
100
AcDbXrecord
280
     1
102
MATERIAL
148
0.0
149
0.0
149
0.0
 93
        0
 94
      127
282
     0
 72
     0
 77
     0
171
     0
175
     0
179
     0
273
     0
  0
XRECORD
  5
24
102
{ACAD_REACTORS
330
22
102
}
330
22
100
AcDbXrecord
280
     1
270
     1
271
     1
  0
XRECORD
  5
23
102
{ACAD_REACTORS
330
22
102
}
330
22
100
AcDbXrecord
280
     1
270
     1
271
     1
  0
XRECORD
  5
27
102
{ACAD_REACTORS
330
22
102
}
330
22
100
AcDbXrecord
280
     1
270
     1
271
     1
  0
XRECORD
  5
26
102
{ACAD_REACTORS
330
22
102
}
330
22
100
AcDbXrecord
280
     1
270
     1
271
     1
  0
XRECORD
  5
28
102
{ACAD_REACTORS
330
22
102
}
330
22
100
AcDbXrecord
280
     1
270
     1
271
     1
  0
XRECORD
  5
25
102
{ACAD_REACTORS
330
22
102
}
330
22
100
AcDbXrecord
280
     1
270
     1
271
     1
  0
CELLSTYLEMAP
  5
623
102
{ACAD_REACTORS
330
622
102
}
330
622
100
AcDbCellStyleMap
 90
        3
300
CELLSTYLE
  1
TABLEFORMAT_BEGIN
 90
        5
170
     1
 91
        0
 92
    32768
 62
   257
 93
        1
300
CONTENTFORMAT
  1
CONTENTFORMAT_BEGIN
 90
        0
 91
        0
 92
      512
 93
        0
300

 40
0.0
140
1.0
 94
        5
 62
     0
340
55
144
0.25
309
CONTENTFORMAT_END
171
     0
 94
        0
309
TABLEFORMAT_END
  1
CELLSTYLE_BEGIN
 90
        1
 91
        1
300
_TITLE
309
CELLSTYLE_END
300
CELLSTYLE
  1
TABLEFORMAT_BEGIN
 90
        5
170
     1
 91
        0
 92
        0
 62
   257
 93
        1
300
CONTENTFORMAT
  1
CONTENTFORMAT_BEGIN
 90
        0
 91
        0
 92
      512
 93
        0
300

 40
0.0
140
1.0
 94
        5
 62
     0
340
55
144
0.18
309
CONTENTFORMAT_END
171
     0
 94
        0
309
TABLEFORMAT_END
  1
CELLSTYLE_BEGIN
 90
        2
 91
        1
300
_HEADER
309
CELLSTYLE_END
300
CELLSTYLE
  1
TABLEFORMAT_BEGIN
 90
        5
170
     1
 91
        0
 92
        0
 62
   257
 93
        1
300
CONTENTFORMAT
  1
CONTENTFORMAT_BEGIN
 90
        0
 91
        0
 92
      512
 93
        0
300

 40
0.0
140
1.0
 94
        2
 62
     0
340
55
144
0.18
309
CONTENTFORMAT_END
171
     0
 94
        0
309
TABLEFORMAT_END
  1
CELLSTYLE_BEGIN
 90
        3
 91
        2
300
_DATA
309
CELLSTYLE_END
  0
XRECORD
  5
659
102
{ACAD_REACTORS
330
622
102
}
330
622
100
AcDbXrecord
280
     1
102
ACAD_ROUNDTRIP_PRE2007_TABLESTYLE
 90
      512
 91
        0
  1

 92
      512
 93
        0
  2

 94
      512
 95
        0
  3

  0
XRECORD
  5
634
102
{ACAD_REACTORS
330
633
102
}
330
633
100
AcDbXrecord
280
     1
102
RTVSPost2010Prop28
280
     1
102
RTVSPost2010PropOp28
 70
     1
102
RTVSPost2010Prop29
280
     1
102
RTVSPost2010PropOp29
 70
     1
102
RTVSPost2010Prop30
280
     0
102
RTVSPost2010PropOp30
 70
     1
102
RTVSPost2010Prop31
280
     0
102
RTVSPost2010PropOp31
 70
     1
102
RTVSPost2010Prop32
280
     0
102
RTVSPost2010PropOp32
 70
     1
102
RTVSPost2010Prop33
280
     0
102
RTVSPost2010PropOp33
 70
     1
102
RTVSPost2010Prop34
280
     0
102
RTVSPost2010PropOp34
 70
     1
102
RTVSPost2010Prop35
280
     0
102
RTVSPost2010PropOp35
 70
     1
102
RTVSPost2010Prop36
280
     0
102
RTVSPost2010PropOp36
 70
     1
102
RTVSPost2010Prop37
 90
       50
102
RTVSPost2010PropOp37
 70
     1
102
RTVSPost2010Prop38
140
0.0
102
RTVSPost2010PropOp38
 70
     1
102
RTVSPost2010Prop39
140
1.0
102
RTVSPost2010PropOp39
 70
     1
102
RTVSPost2010Prop40
 90
        0
102
RTVSPost2010PropOp40
 70
     1
102
RTVSPost2010Prop41ColorIndex
 90
       18
102
RTVSPost2010Prop41ColorRGB
 90
        0
102
RTVSPost2010PropOp41
 70
     1
102
RTVSPost2010Prop42
 90
       50
102
RTVSPost2010PropOp42
 70
     1
102
RTVSPost2010Prop43
 90
        3
102
RTVSPost2010PropOp43
 70
     1
102
RTVSPost2010Prop44ColorIndex
 90
        5
102
RTVSPost2010Prop44ColorRGB
 90
      255
102
RTVSPost2010PropOp44
 70
     1
102
RTVSPost2010Prop45
280
     0
102
RTVSPost2010PropOp45
 70
     1
102
RTVSPost2010Prop46
 90
       50
102
RTVSPost2010PropOp46
 70
     1
102
RTVSPost2010Prop47
 90
       50
102
RTVSPost2010PropOp47
 70
     1
102
RTVSPost2010Prop48
 90
       50
102
RTVSPost2010PropOp48
 70
     1
102
RTVSPost2010Prop49
280
     0
102
RTVSPost2010PropOp49
 70
     1
102
RTVSPost2010Prop50
 90
       50
102
RTVSPost2010PropOp50
 70
     1
102
RTVSPost2010Prop51ColorIndex
 90
      256
102
RTVSPost2010Prop51ColorRGB
 90
-16777216
102
RTVSPost2010PropOp51
 70
     0
102
RTVSPost2010Prop52
140
1.0
102
RTVSPost2010PropOp52
 70
     0
102
RTVSPost2010Prop53
 90
        2
102
RTVSPost2010PropOp53
 70
     1
102
RTVSPost2010Prop54
  1
strokes_ogs.tif
102
RTVSPost2010PropOp54
 70
     1
102
RTVSPost2010Prop55
280
     0
102
RTVSPost2010PropOp55
 70
     1
102
RTVSPost2010Prop56
140
1.0
102
RTVSPost2010PropOp56
 70
     1
102
RTVSPost2010Prop57
140
1.0
102
RTVSPost2010PropOp57
 70
     1
102
RTVSPropertyOp0
 70
     1
102
RTVSPropertyOp1
 70
     1
102
RTVSPropertyOp2
 70
     1
102
RTVSPropertyOp3
 70
     1
102
RTVSPropertyOp4
 70
     1
102
RTVSPropertyOp5
 70
     1
102
RTVSPropertyOp6
 70
     1
102
RTVSPropertyOp7
 70
     1
102
RTVSPropertyOp8
 70
     1
102
RTVSPropertyOp9
 70
     1
102
RTVSPropertyOp10
 70
     1
102
RTVSPropertyOp11
 70
     1
102
RTVSPropertyOp12
 70
     1
102
RTVSPropertyOp13
 70
     1
102
RTVSPropertyOp14
 70
     1
102
RTVSPropertyOp15
 70
     1
102
RTVSPropertyOp16
 70
     1
102
RTVSPropertyOp17
 70
     1
102
RTVSPropertyOp18
 70
     1
102
RTVSPropertyOp19
 70
     1
102
RTVSPropertyOp20
 70
     1
102
RTVSPropertyOp21
 70
     1
102
RTVSPropertyOp22
 70
     1
102
RTVSPropertyOp23
 70
     1
102
RTVSPropertyOp24
 70
     1
102
RTVSPropertyOp25
 70
     1
102
RTVSPropertyOp26
 70
     1
102
RTVSPropertyOp27
 70
     1
102
RTVSPropertyOp28
 70
     1
102
RTVSPropertyOp29
 70
     1
102
RTVSPropertyOp30
 70
     1
102
RTVSPropertyOp31
 70
     1
102
RTVSPropertyOp32
 70
     1
102
RTVSPropertyOp33
 70
     1
102
RTVSPropertyOp34
 70
     1
102
RTVSPropertyOp35
 70
     1
102
RTVSPropertyOp36
 70
     1
102
RTVSPropertyOp37
 70
     1
102
RTVSPropertyOp38
 70
     1
102
RTVSPropertyOp39
 70
     1
102
RTVSPropertyOp40
 70
     1
102
RTVSPropertyOp41
 70
     1
102
RTVSPropertyOp42
 70
     1
102
RTVSPropertyOp43
 70
     1
102
RTVSPropertyOp44
 70
     1
102
RTVSPropertyOp45
 70
     1
102
RTVSPropertyOp46
 70
     1
102
RTVSPropertyOp47
 70
     1
102
RTVSPropertyOp48
 70
     1
102
RTVSPropertyOp49
 70
     1
102
RTVSPropertyOp50
 70
     1
102
RTVSPropertyOp51
 70
     0
102
RTVSPropertyOp52
 70
     0
102
RTVSPropertyOp53
 70
     1
102
RTVSPropertyOp54
 70
     1
102
RTVSPropertyOp55
 70
     1
102
RTVSPropertyOp56
 70
     1
102
RTVSPropertyOp57
 70
     1
102
RTVSPropertyOp58
 70
     1
102
RTVSPropertyOp59
 70
     1
102
RTVSPropertyOp60
 70
     1
102
RTVSPropertyOp61
 70
     1
102
RTVSPropertyOp62
 70
     1
  0
XRECORD
  5
632
102
{ACAD_REACTORS
330
631
102
}
330
631
100
AcDbXrecord
280
     1
102
RTVSPost2010Prop28
280
     0
102
RTVSPost2010PropOp28
 70
     1
102
RTVSPost2010Prop29
280
     1
102
RTVSPost2010PropOp29
 70
     1
102
RTVSPost2010Prop30
280
     1
102
RTVSPost2010PropOp30
 70
     1
102
RTVSPost2010Prop31
280
     0
102
RTVSPost2010PropOp31
 70
     1
102
RTVSPost2010Prop32
280
     0
102
RTVSPost2010PropOp32
 70
     1
102
RTVSPost2010Prop33
280
     0
102
RTVSPost2010PropOp33
 70
     1
102
RTVSPost2010Prop34
280
     0
102
RTVSPost2010PropOp34
 70
     1
102
RTVSPost2010Prop35
280
     0
102
RTVSPost2010PropOp35
 70
     1
102
RTVSPost2010Prop36
280
     0
102
RTVSPost2010PropOp36
 70
     1
102
RTVSPost2010Prop37
 90
       50
102
RTVSPost2010PropOp37
 70
     1
102
RTVSPost2010Prop38
140
0.0
102
RTVSPost2010PropOp38
 70
     1
102
RTVSPost2010Prop39
140
1.0
102
RTVSPost2010PropOp39
 70
     1
102
RTVSPost2010Prop40
 90
        0
102
RTVSPost2010PropOp40
 70
     1
102
RTVSPost2010Prop41ColorIndex
 90
       18
102
RTVSPost2010Prop41ColorRGB
 90
        0
102
RTVSPost2010PropOp41
 70
     1
102
RTVSPost2010Prop42
 90
       50
102
RTVSPost2010PropOp42
 70
     1
102
RTVSPost2010Prop43
 90
        3
102
RTVSPost2010PropOp43
 70
     1
102
RTVSPost2010Prop44ColorIndex
 90
        5
102
RTVSPost2010Prop44ColorRGB
 90
      255
102
RTVSPost2010PropOp44
 70
     1
102
RTVSPost2010Prop45
280
     0
102
RTVSPost2010PropOp45
 70
     1
102
RTVSPost2010Prop46
 90
       50
102
RTVSPost2010PropOp46
 70
     1
102
RTVSPost2010Prop47
 90
       50
102
RTVSPost2010PropOp47
 70
     1
102
RTVSPost2010Prop48
 90
       50
102
RTVSPost2010PropOp48
 70
     1
102
RTVSPost2010Prop49
280
     0
102
RTVSPost2010PropOp49
 70
     1
102
RTVSPost2010Prop50
 90
       50
102
RTVSPost2010PropOp50
 70
     1
102
RTVSPost2010Prop51ColorIndex
 90
      256
102
RTVSPost2010Prop51ColorRGB
 90
-16777216
102
RTVSPost2010PropOp51
 70
     0
102
RTVSPost2010Prop52
140
1.0
102
RTVSPost2010PropOp52
 70
     0
102
RTVSPost2010Prop53
 90
        2
102
RTVSPost2010PropOp53
 70
     1
102
RTVSPost2010Prop54
  1
strokes_ogs.tif
102
RTVSPost2010PropOp54
 70
     1
102
RTVSPost2010Prop55
280
     0
102
RTVSPost2010PropOp55
 70
     1
102
RTVSPost2010Prop56
140
1.0
102
RTVSPost2010PropOp56
 70
     1
102
RTVSPost2010Prop57
140
1.0
102
RTVSPost2010PropOp57
 70
     1
102
RTVSPropertyOp0
 70
     1
102
RTVSPropertyOp1
 70
     1
102
RTVSPropertyOp2
 70
     1
102
RTVSPropertyOp3
 70
     1
102
RTVSPropertyOp4
 70
     1
102
RTVSPropertyOp5
 70
     1
102
RTVSPropertyOp6
 70
     1
102
RTVSPropertyOp7
 70
     1
102
RTVSPropertyOp8
 70
     1
102
RTVSPropertyOp9
 70
     1
102
RTVSPropertyOp10
 70
     1
102
RTVSPropertyOp11
 70
     1
102
RTVSPropertyOp12
 70
     1
102
RTVSPropertyOp13
 70
     1
102
RTVSPropertyOp14
 70
     1
102
RTVSPropertyOp15
 70
     1
102
RTVSPropertyOp16
 70
     1
102
RTVSPropertyOp17
 70
     1
102
RTVSPropertyOp18
 70
     1
102
RTVSPropertyOp19
 70
     1
102
RTVSPropertyOp20
 70
     1
102
RTVSPropertyOp21
 70
     1
102
RTVSPropertyOp22
 70
     1
102
RTVSPropertyOp23
 70
     1
102
RTVSPropertyOp24
 70
     1
102
RTVSPropertyOp25
 70
     1
102
RTVSPropertyOp26
 70
     1
102
RTVSPropertyOp27
 70
     1
102
RTVSPropertyOp28
 70
     1
102
RTVSPropertyOp29
 70
     1
102
RTVSPropertyOp30
 70
     1
102
RTVSPropertyOp31
 70
     1
102
RTVSPropertyOp32
 70
     1
102
RTVSPropertyOp33
 70
     1
102
RTVSPropertyOp34
 70
     1
102
RTVSPropertyOp35
 70
     1
102
RTVSPropertyOp36
 70
     1
102
RTVSPropertyOp37
 70
     1
102
RTVSPropertyOp38
 70
     1
102
RTVSPropertyOp39
 70
     1
102
RTVSPropertyOp40
 70
     1
102
RTVSPropertyOp41
 70
     1
102
RTVSPropertyOp42
 70
     1
102
RTVSPropertyOp43
 70
     1
102
RTVSPropertyOp44
 70
     1
102
RTVSPropertyOp45
 70
     1
102
RTVSPropertyOp46
 70
     1
102
RTVSPropertyOp47
 70
     1
102
RTVSPropertyOp48
 70
     1
102
RTVSPropertyOp49
 70
     1
102
RTVSPropertyOp50
 70
     1
102
RTVSPropertyOp51
 70
     0
102
RTVSPropertyOp52
 70
     0
102
RTVSPropertyOp53
 70
     1
102
RTVSPropertyOp54
 70
     1
102
RTVSPropertyOp55
 70
     1
102
RTVSPropertyOp56
 70
     1
102
RTVSPropertyOp57
 70
     1
102
RTVSPropertyOp58
 70
     1
102
RTVSPropertyOp59
 70
     1
102
RTVSPropertyOp60
 70
     1
102
RTVSPropertyOp61
 70
     1
102
RTVSPropertyOp62
 70
     1
  0
XRECORD
  5
640
102
{ACAD_REACTORS
330
63F
102
}
330
63F
100
AcDbXrecord
280
     1
102
RTVSPost2010Prop28
280
     0
102
RTVSPost2010PropOp28
 70
     1
102
RTVSPost2010Prop29
280
     1
102
RTVSPost2010PropOp29
 70
     1
102
RTVSPost2010Prop30
280
     1
102
RTVSPost2010PropOp30
 70
     1
102
RTVSPost2010Prop31
280
     0
102
RTVSPost2010PropOp31
 70
     1
102
RTVSPost2010Prop32
280
     0
102
RTVSPost2010PropOp32
 70
     1
102
RTVSPost2010Prop33
280
     0
102
RTVSPost2010PropOp33
 70
     1
102
RTVSPost2010Prop34
280
     0
102
RTVSPost2010PropOp34
 70
     1
102
RTVSPost2010Prop35
280
     0
102
RTVSPost2010PropOp35
 70
     1
102
RTVSPost2010Prop36
280
     0
102
RTVSPost2010PropOp36
 70
     1
102
RTVSPost2010Prop37
 90
       50
102
RTVSPost2010PropOp37
 70
     1
102
RTVSPost2010Prop38
140
0.0
102
RTVSPost2010PropOp38
 70
     1
102
RTVSPost2010Prop39
140
1.0
102
RTVSPost2010PropOp39
 70
     1
102
RTVSPost2010Prop40
 90
        0
102
RTVSPost2010PropOp40
 70
     1
102
RTVSPost2010Prop41ColorIndex
 90
       18
102
RTVSPost2010Prop41ColorRGB
 90
        0
102
RTVSPost2010PropOp41
 70
     1
102
RTVSPost2010Prop42
 90
       50
102
RTVSPost2010PropOp42
 70
     1
102
RTVSPost2010Prop43
 90
        3
102
RTVSPost2010PropOp43
 70
     1
102
RTVSPost2010Prop44ColorIndex
 90
        5
102
RTVSPost2010Prop44ColorRGB
 90
      255
102
RTVSPost2010PropOp44
 70
     1
102
RTVSPost2010Prop45
280
     0
102
RTVSPost2010PropOp45
 70
     1
102
RTVSPost2010Prop46
 90
       50
102
RTVSPost2010PropOp46
 70
     1
102
RTVSPost2010Prop47
 90
       50
102
RTVSPost2010PropOp47
 70
     1
102
RTVSPost2010Prop48
 90
       50
102
RTVSPost2010PropOp48
 70
     1
102
RTVSPost2010Prop49
280
     0
102
RTVSPost2010PropOp49
 70
     1
102
RTVSPost2010Prop50
 90
       50
102
RTVSPost2010PropOp50
 70
     1
102
RTVSPost2010Prop51ColorIndex
 90
      256
102
RTVSPost2010Prop51ColorRGB
 90
-16777216
102
RTVSPost2010PropOp51
 70
     0
102
RTVSPost2010Prop52
140
1.0
102
RTVSPost2010PropOp52
 70
     0
102
RTVSPost2010Prop53
 90
        2
102
RTVSPost2010PropOp53
 70
     1
102
RTVSPost2010Prop54
  1
strokes_ogs.tif
102
RTVSPost2010PropOp54
 70
     1
102
RTVSPost2010Prop55
280
     0
102
RTVSPost2010PropOp55
 70
     1
102
RTVSPost2010Prop56
140
1.0
102
RTVSPost2010PropOp56
 70
     1
102
RTVSPost2010Prop57
140
1.0
102
RTVSPost2010PropOp57
 70
     1
102
RTVSPropertyOp0
 70
     1
102
RTVSPropertyOp1
 70
     1
102
RTVSPropertyOp2
 70
     1
102
RTVSPropertyOp3
 70
     1
102
RTVSPropertyOp4
 70
     1
102
RTVSPropertyOp5
 70
     1
102
RTVSPropertyOp6
 70
     1
102
RTVSPropertyOp7
 70
     1
102
RTVSPropertyOp8
 70
     1
102
RTVSPropertyOp9
 70
     1
102
RTVSPropertyOp10
 70
     1
102
RTVSPropertyOp11
 70
     1
102
RTVSPropertyOp12
 70
     1
102
RTVSPropertyOp13
 70
     1
102
RTVSPropertyOp14
 70
     1
102
RTVSPropertyOp15
 70
     1
102
RTVSPropertyOp16
 70
     1
102
RTVSPropertyOp17
 70
     1
102
RTVSPropertyOp18
 70
     1
102
RTVSPropertyOp19
 70
     1
102
RTVSPropertyOp20
 70
     1
102
RTVSPropertyOp21
 70
     1
102
RTVSPropertyOp22
 70
     1
102
RTVSPropertyOp23
 70
     1
102
RTVSPropertyOp24
 70
     1
102
RTVSPropertyOp25
 70
     1
102
RTVSPropertyOp26
 70
     1
102
RTVSPropertyOp27
 70
     1
102
RTVSPropertyOp28
 70
     1
102
RTVSPropertyOp29
 70
     1
102
RTVSPropertyOp30
 70
     1
102
RTVSPropertyOp31
 70
     1
102
RTVSPropertyOp32
 70
     1
102
RTVSPropertyOp33
 70
     1
102
RTVSPropertyOp34
 70
     1
102
RTVSPropertyOp35
 70
     1
102
RTVSPropertyOp36
 70
     1
102
RTVSPropertyOp37
 70
     1
102
RTVSPropertyOp38
 70
     1
102
RTVSPropertyOp39
 70
     1
102
RTVSPropertyOp40
 70
     1
102
RTVSPropertyOp41
 70
     1
102
RTVSPropertyOp42
 70
     1
102
RTVSPropertyOp43
 70
     1
102
RTVSPropertyOp44
 70
     1
102
RTVSPropertyOp45
 70
     1
102
RTVSPropertyOp46
 70
     1
102
RTVSPropertyOp47
 70
     1
102
RTVSPropertyOp48
 70
     1
102
RTVSPropertyOp49
 70
     1
102
RTVSPropertyOp50
 70
     1
102
RTVSPropertyOp51
 70
     0
102
RTVSPropertyOp52
 70
     0
102
RTVSPropertyOp53
 70
     1
102
RTVSPropertyOp54
 70
     1
102
RTVSPropertyOp55
 70
     1
102
RTVSPropertyOp56
 70
     1
102
RTVSPropertyOp57
 70
     1
102
RTVSPropertyOp58
 70
     1
102
RTVSPropertyOp59
 70
     1
102
RTVSPropertyOp60
 70
     1
102
RTVSPropertyOp61
 70
     1
102
RTVSPropertyOp62
 70
     1
  0
XRECORD
  5
648
102
{ACAD_REACTORS
330
647
102
}
330
647
100
AcDbXrecord
280
     1
102
RTVSPost2010Prop28
280
     0
102
RTVSPost2010PropOp28
 70
     1
102
RTVSPost2010Prop29
280
     1
102
RTVSPost2010PropOp29
 70
     1
102
RTVSPost2010Prop30
280
     1
102
RTVSPost2010PropOp30
 70
     1
102
RTVSPost2010Prop31
280
     0
102
RTVSPost2010PropOp31
 70
     1
102
RTVSPost2010Prop32
280
     0
102
RTVSPost2010PropOp32
 70
     1
102
RTVSPost2010Prop33
280
     0
102
RTVSPost2010PropOp33
 70
     1
102
RTVSPost2010Prop34
280
     0
102
RTVSPost2010PropOp34
 70
     1
102
RTVSPost2010Prop35
280
     0
102
RTVSPost2010PropOp35
 70
     1
102
RTVSPost2010Prop36
280
     0
102
RTVSPost2010PropOp36
 70
     1
102
RTVSPost2010Prop37
 90
       50
102
RTVSPost2010PropOp37
 70
     1
102
RTVSPost2010Prop38
140
0.0
102
RTVSPost2010PropOp38
 70
     1
102
RTVSPost2010Prop39
140
1.0
102
RTVSPost2010PropOp39
 70
     1
102
RTVSPost2010Prop40
 90
        0
102
RTVSPost2010PropOp40
 70
     1
102
RTVSPost2010Prop41ColorIndex
 90
       18
102
RTVSPost2010Prop41ColorRGB
 90
        0
102
RTVSPost2010PropOp41
 70
     1
102
RTVSPost2010Prop42
 90
       50
102
RTVSPost2010PropOp42
 70
     1
102
RTVSPost2010Prop43
 90
        3
102
RTVSPost2010PropOp43
 70
     1
102
RTVSPost2010Prop44ColorIndex
 90
        5
102
RTVSPost2010Prop44ColorRGB
 90
      255
102
RTVSPost2010PropOp44
 70
     1
102
RTVSPost2010Prop45
280
     0
102
RTVSPost2010PropOp45
 70
     1
102
RTVSPost2010Prop46
 90
       50
102
RTVSPost2010PropOp46
 70
     1
102
RTVSPost2010Prop47
 90
       50
102
RTVSPost2010PropOp47
 70
     1
102
RTVSPost2010Prop48
 90
       50
102
RTVSPost2010PropOp48
 70
     1
102
RTVSPost2010Prop49
280
     0
102
RTVSPost2010PropOp49
 70
     1
102
RTVSPost2010Prop50
 90
       50
102
RTVSPost2010PropOp50
 70
     1
102
RTVSPost2010Prop51ColorIndex
 90
      256
102
RTVSPost2010Prop51ColorRGB
 90
-16777216
102
RTVSPost2010PropOp51
 70
     0
102
RTVSPost2010Prop52
140
1.0
102
RTVSPost2010PropOp52
 70
     0
102
RTVSPost2010Prop53
 90
        2
102
RTVSPost2010PropOp53
 70
     1
102
RTVSPost2010Prop54
  1
strokes_ogs.tif
102
RTVSPost2010PropOp54
 70
     1
102
RTVSPost2010Prop55
280
     0
102
RTVSPost2010PropOp55
 70
     1
102
RTVSPost2010Prop56
140
1.0
102
RTVSPost2010PropOp56
 70
     1
102
RTVSPost2010Prop57
140
1.0
102
RTVSPost2010PropOp57
 70
     1
102
RTVSPropertyOp0
 70
     1
102
RTVSPropertyOp1
 70
     1
102
RTVSPropertyOp2
 70
     1
102
RTVSPropertyOp3
 70
     1
102
RTVSPropertyOp4
 70
     1
102
RTVSPropertyOp5
 70
     1
102
RTVSPropertyOp6
 70
     1
102
RTVSPropertyOp7
 70
     1
102
RTVSPropertyOp8
 70
     1
102
RTVSPropertyOp9
 70
     1
102
RTVSPropertyOp10
 70
     1
102
RTVSPropertyOp11
 70
     1
102
RTVSPropertyOp12
 70
     1
102
RTVSPropertyOp13
 70
     1
102
RTVSPropertyOp14
 70
     1
102
RTVSPropertyOp15
 70
     1
102
RTVSPropertyOp16
 70
     1
102
RTVSPropertyOp17
 70
     1
102
RTVSPropertyOp18
 70
     1
102
RTVSPropertyOp19
 70
     1
102
RTVSPropertyOp20
 70
     1
102
RTVSPropertyOp21
 70
     1
102
RTVSPropertyOp22
 70
     1
102
RTVSPropertyOp23
 70
     1
102
RTVSPropertyOp24
 70
     1
102
RTVSPropertyOp25
 70
     1
102
RTVSPropertyOp26
 70
     1
102
RTVSPropertyOp27
 70
     1
102
RTVSPropertyOp28
 70
     1
102
RTVSPropertyOp29
 70
     1
102
RTVSPropertyOp30
 70
     1
102
RTVSPropertyOp31
 70
     1
102
RTVSPropertyOp32
 70
     1
102
RTVSPropertyOp33
 70
     1
102
RTVSPropertyOp34
 70
     1
102
RTVSPropertyOp35
 70
     1
102
RTVSPropertyOp36
 70
     1
102
RTVSPropertyOp37
 70
     1
102
RTVSPropertyOp38
 70
     1
102
RTVSPropertyOp39
 70
     1
102
RTVSPropertyOp40
 70
     1
102
RTVSPropertyOp41
 70
     1
102
RTVSPropertyOp42
 70
     1
102
RTVSPropertyOp43
 70
     1
102
RTVSPropertyOp44
 70
     1
102
RTVSPropertyOp45
 70
     1
102
RTVSPropertyOp46
 70
     1
102
RTVSPropertyOp47
 70
     1
102
RTVSPropertyOp48
 70
     1
102
RTVSPropertyOp49
 70
     1
102
RTVSPropertyOp50
 70
     1
102
RTVSPropertyOp51
 70
     0
102
RTVSPropertyOp52
 70
     0
102
RTVSPropertyOp53
 70
     1
102
RTVSPropertyOp54
 70
     1
102
RTVSPropertyOp55
 70
     1
102
RTVSPropertyOp56
 70
     1
102
RTVSPropertyOp57
 70
     1
102
RTVSPropertyOp58
 70
     1
102
RTVSPropertyOp59
 70
     1
102
RTVSPropertyOp60
 70
     1
102
RTVSPropertyOp61
 70
     1
102
RTVSPropertyOp62
 70
     1
  0
XRECORD
  5
63A
102
{ACAD_REACTORS
330
639
102
}
330
639
100
AcDbXrecord
280
     1
102
RTVSPost2010Prop28
280
     0
102
RTVSPost2010PropOp28
 70
     1
102
RTVSPost2010Prop29
280
     1
102
RTVSPost2010PropOp29
 70
     1
102
RTVSPost2010Prop30
280
     1
102
RTVSPost2010PropOp30
 70
     1
102
RTVSPost2010Prop31
280
     0
102
RTVSPost2010PropOp31
 70
     1
102
RTVSPost2010Prop32
280
     0
102
RTVSPost2010PropOp32
 70
     1
102
RTVSPost2010Prop33
280
     0
102
RTVSPost2010PropOp33
 70
     1
102
RTVSPost2010Prop34
280
     0
102
RTVSPost2010PropOp34
 70
     1
102
RTVSPost2010Prop35
280
     0
102
RTVSPost2010PropOp35
 70
     1
102
RTVSPost2010Prop36
280
     0
102
RTVSPost2010PropOp36
 70
     1
102
RTVSPost2010Prop37
 90
       50
102
RTVSPost2010PropOp37
 70
     1
102
RTVSPost2010Prop38
140
0.0
102
RTVSPost2010PropOp38
 70
     1
102
RTVSPost2010Prop39
140
1.0
102
RTVSPost2010PropOp39
 70
     1
102
RTVSPost2010Prop40
 90
        0
102
RTVSPost2010PropOp40
 70
     1
102
RTVSPost2010Prop41ColorIndex
 90
       18
102
RTVSPost2010Prop41ColorRGB
 90
        0
102
RTVSPost2010PropOp41
 70
     1
102
RTVSPost2010Prop42
 90
       50
102
RTVSPost2010PropOp42
 70
     1
102
RTVSPost2010Prop43
 90
        3
102
RTVSPost2010PropOp43
 70
     1
102
RTVSPost2010Prop44ColorIndex
 90
        5
102
RTVSPost2010Prop44ColorRGB
 90
      255
102
RTVSPost2010PropOp44
 70
     1
102
RTVSPost2010Prop45
280
     0
102
RTVSPost2010PropOp45
 70
     1
102
RTVSPost2010Prop46
 90
       50
102
RTVSPost2010PropOp46
 70
     1
102
RTVSPost2010Prop47
 90
       50
102
RTVSPost2010PropOp47
 70
     1
102
RTVSPost2010Prop48
 90
       50
102
RTVSPost2010PropOp48
 70
     1
102
RTVSPost2010Prop49
280
     0
102
RTVSPost2010PropOp49
 70
     1
102
RTVSPost2010Prop50
 90
       50
102
RTVSPost2010PropOp50
 70
     1
102
RTVSPost2010Prop51ColorIndex
 90
      256
102
RTVSPost2010Prop51ColorRGB
 90
-16777216
102
RTVSPost2010PropOp51
 70
     0
102
RTVSPost2010Prop52
140
1.0
102
RTVSPost2010PropOp52
 70
     0
102
RTVSPost2010Prop53
 90
        2
102
RTVSPost2010PropOp53
 70
     1
102
RTVSPost2010Prop54
  1
strokes_ogs.tif
102
RTVSPost2010PropOp54
 70
     1
102
RTVSPost2010Prop55
280
     0
102
RTVSPost2010PropOp55
 70
     1
102
RTVSPost2010Prop56
140
1.0
102
RTVSPost2010PropOp56
 70
     1
102
RTVSPost2010Prop57
140
1.0
102
RTVSPost2010PropOp57
 70
     1
102
RTVSPropertyOp0
 70
     1
102
RTVSPropertyOp1
 70
     1
102
RTVSPropertyOp2
 70
     1
102
RTVSPropertyOp3
 70
     1
102
RTVSPropertyOp4
 70
     1
102
RTVSPropertyOp5
 70
     1
102
RTVSPropertyOp6
 70
     1
102
RTVSPropertyOp7
 70
     1
102
RTVSPropertyOp8
 70
     1
102
RTVSPropertyOp9
 70
     1
102
RTVSPropertyOp10
 70
     1
102
RTVSPropertyOp11
 70
     1
102
RTVSPropertyOp12
 70
     1
102
RTVSPropertyOp13
 70
     1
102
RTVSPropertyOp14
 70
     1
102
RTVSPropertyOp15
 70
     1
102
RTVSPropertyOp16
 70
     1
102
RTVSPropertyOp17
 70
     1
102
RTVSPropertyOp18
 70
     1
102
RTVSPropertyOp19
 70
     1
102
RTVSPropertyOp20
 70
     1
102
RTVSPropertyOp21
 70
     1
102
RTVSPropertyOp22
 70
     1
102
RTVSPropertyOp23
 70
     1
102
RTVSPropertyOp24
 70
     1
102
RTVSPropertyOp25
 70
     1
102
RTVSPropertyOp26
 70
     1
102
RTVSPropertyOp27
 70
     1
102
RTVSPropertyOp28
 70
     1
102
RTVSPropertyOp29
 70
     1
102
RTVSPropertyOp30
 70
     1
102
RTVSPropertyOp31
 70
     1
102
RTVSPropertyOp32
 70
     1
102
RTVSPropertyOp33
 70
     1
102
RTVSPropertyOp34
 70
     1
102
RTVSPropertyOp35
 70
     1
102
RTVSPropertyOp36
 70
     1
102
RTVSPropertyOp37
 70
     1
102
RTVSPropertyOp38
 70
     1
102
RTVSPropertyOp39
 70
     1
102
RTVSPropertyOp40
 70
     1
102
RTVSPropertyOp41
 70
     1
102
RTVSPropertyOp42
 70
     1
102
RTVSPropertyOp43
 70
     1
102
RTVSPropertyOp44
 70
     1
102
RTVSPropertyOp45
 70
     1
102
RTVSPropertyOp46
 70
     1
102
RTVSPropertyOp47
 70
     1
102
RTVSPropertyOp48
 70
     1
102
RTVSPropertyOp49
 70
     1
102
RTVSPropertyOp50
 70
     1
102
RTVSPropertyOp51
 70
     0
102
RTVSPropertyOp52
 70
     0
102
RTVSPropertyOp53
 70
     1
102
RTVSPropertyOp54
 70
     1
102
RTVSPropertyOp55
 70
     1
102
RTVSPropertyOp56
 70
     1
102
RTVSPropertyOp57
 70
     1
102
RTVSPropertyOp58
 70
     1
102
RTVSPropertyOp59
 70
     1
102
RTVSPropertyOp60
 70
     1
102
RTVSPropertyOp61
 70
     1
102
RTVSPropertyOp62
 70
     1
  0
XRECORD
  5
63E
102
{ACAD_REACTORS
330
63D
102
}
330
63D
100
AcDbXrecord
280
     1
102
RTVSPost2010Prop28
280
     0
102
RTVSPost2010PropOp28
 70
     1
102
RTVSPost2010Prop29
280
     1
102
RTVSPost2010PropOp29
 70
     1
102
RTVSPost2010Prop30
280
     1
102
RTVSPost2010PropOp30
 70
     1
102
RTVSPost2010Prop31
280
     0
102
RTVSPost2010PropOp31
 70
     1
102
RTVSPost2010Prop32
280
     0
102
RTVSPost2010PropOp32
 70
     1
102
RTVSPost2010Prop33
280
     0
102
RTVSPost2010PropOp33
 70
     1
102
RTVSPost2010Prop34
280
     0
102
RTVSPost2010PropOp34
 70
     1
102
RTVSPost2010Prop35
280
     0
102
RTVSPost2010PropOp35
 70
     1
102
RTVSPost2010Prop36
280
     0
102
RTVSPost2010PropOp36
 70
     1
102
RTVSPost2010Prop37
 90
       50
102
RTVSPost2010PropOp37
 70
     1
102
RTVSPost2010Prop38
140
0.0
102
RTVSPost2010PropOp38
 70
     1
102
RTVSPost2010Prop39
140
1.0
102
RTVSPost2010PropOp39
 70
     1
102
RTVSPost2010Prop40
 90
        0
102
RTVSPost2010PropOp40
 70
     1
102
RTVSPost2010Prop41ColorIndex
 90
       18
102
RTVSPost2010Prop41ColorRGB
 90
        0
102
RTVSPost2010PropOp41
 70
     1
102
RTVSPost2010Prop42
 90
       50
102
RTVSPost2010PropOp42
 70
     1
102
RTVSPost2010Prop43
 90
        3
102
RTVSPost2010PropOp43
 70
     1
102
RTVSPost2010Prop44ColorIndex
 90
        5
102
RTVSPost2010Prop44ColorRGB
 90
      255
102
RTVSPost2010PropOp44
 70
     1
102
RTVSPost2010Prop45
280
     0
102
RTVSPost2010PropOp45
 70
     1
102
RTVSPost2010Prop46
 90
       50
102
RTVSPost2010PropOp46
 70
     1
102
RTVSPost2010Prop47
 90
       50
102
RTVSPost2010PropOp47
 70
     1
102
RTVSPost2010Prop48
 90
       50
102
RTVSPost2010PropOp48
 70
     1
102
RTVSPost2010Prop49
280
     0
102
RTVSPost2010PropOp49
 70
     1
102
RTVSPost2010Prop50
 90
       50
102
RTVSPost2010PropOp50
 70
     1
102
RTVSPost2010Prop51ColorIndex
 90
      256
102
RTVSPost2010Prop51ColorRGB
 90
-16777216
102
RTVSPost2010PropOp51
 70
     0
102
RTVSPost2010Prop52
140
1.0
102
RTVSPost2010PropOp52
 70
     0
102
RTVSPost2010Prop53
 90
        2
102
RTVSPost2010PropOp53
 70
     1
102
RTVSPost2010Prop54
  1
strokes_ogs.tif
102
RTVSPost2010PropOp54
 70
     1
102
RTVSPost2010Prop55
280
     0
102
RTVSPost2010PropOp55
 70
     1
102
RTVSPost2010Prop56
140
1.0
102
RTVSPost2010PropOp56
 70
     1
102
RTVSPost2010Prop57
140
1.0
102
RTVSPost2010PropOp57
 70
     1
102
RTVSPropertyOp0
 70
     1
102
RTVSPropertyOp1
 70
     1
102
RTVSPropertyOp2
 70
     1
102
RTVSPropertyOp3
 70
     1
102
RTVSPropertyOp4
 70
     1
102
RTVSPropertyOp5
 70
     1
102
RTVSPropertyOp6
 70
     1
102
RTVSPropertyOp7
 70
     1
102
RTVSPropertyOp8
 70
     1
102
RTVSPropertyOp9
 70
     1
102
RTVSPropertyOp10
 70
     1
102
RTVSPropertyOp11
 70
     1
102
RTVSPropertyOp12
 70
     1
102
RTVSPropertyOp13
 70
     1
102
RTVSPropertyOp14
 70
     1
102
RTVSPropertyOp15
 70
     1
102
RTVSPropertyOp16
 70
     1
102
RTVSPropertyOp17
 70
     1
102
RTVSPropertyOp18
 70
     1
102
RTVSPropertyOp19
 70
     1
102
RTVSPropertyOp20
 70
     1
102
RTVSPropertyOp21
 70
     1
102
RTVSPropertyOp22
 70
     1
102
RTVSPropertyOp23
 70
     1
102
RTVSPropertyOp24
 70
     1
102
RTVSPropertyOp25
 70
     1
102
RTVSPropertyOp26
 70
     1
102
RTVSPropertyOp27
 70
     1
102
RTVSPropertyOp28
 70
     1
102
RTVSPropertyOp29
 70
     1
102
RTVSPropertyOp30
 70
     1
102
RTVSPropertyOp31
 70
     1
102
RTVSPropertyOp32
 70
     1
102
RTVSPropertyOp33
 70
     1
102
RTVSPropertyOp34
 70
     1
102
RTVSPropertyOp35
 70
     1
102
RTVSPropertyOp36
 70
     1
102
RTVSPropertyOp37
 70
     1
102
RTVSPropertyOp38
 70
     1
102
RTVSPropertyOp39
 70
     1
102
RTVSPropertyOp40
 70
     1
102
RTVSPropertyOp41
 70
     1
102
RTVSPropertyOp42
 70
     1
102
RTVSPropertyOp43
 70
     1
102
RTVSPropertyOp44
 70
     1
102
RTVSPropertyOp45
 70
     1
102
RTVSPropertyOp46
 70
     1
102
RTVSPropertyOp47
 70
     1
102
RTVSPropertyOp48
 70
     1
102
RTVSPropertyOp49
 70
     1
102
RTVSPropertyOp50
 70
     1
102
RTVSPropertyOp51
 70
     0
102
RTVSPropertyOp52
 70
     0
102
RTVSPropertyOp53
 70
     1
102
RTVSPropertyOp54
 70
     1
102
RTVSPropertyOp55
 70
     1
102
RTVSPropertyOp56
 70
     1
102
RTVSPropertyOp57
 70
     1
102
RTVSPropertyOp58
 70
     1
102
RTVSPropertyOp59
 70
     1
102
RTVSPropertyOp60
 70
     1
102
RTVSPropertyOp61
 70
     1
102
RTVSPropertyOp62
 70
     1
  0
XRECORD
  5
658
102
{ACAD_REACTORS
330
657
102
}
330
657
100
AcDbXrecord
280
     1
102
RTVSPost2010Prop28
280
     0
102
RTVSPost2010PropOp28
 70
     1
102
RTVSPost2010Prop29
280
     1
102
RTVSPost2010PropOp29
 70
     1
102
RTVSPost2010Prop30
280
     1
102
RTVSPost2010PropOp30
 70
     1
102
RTVSPost2010Prop31
280
     0
102
RTVSPost2010PropOp31
 70
     1
102
RTVSPost2010Prop32
280
     0
102
RTVSPost2010PropOp32
 70
     1
102
RTVSPost2010Prop33
280
     0
102
RTVSPost2010PropOp33
 70
     1
102
RTVSPost2010Prop34
280
     0
102
RTVSPost2010PropOp34
 70
     1
102
RTVSPost2010Prop35
280
     0
102
RTVSPost2010PropOp35
 70
     1
102
RTVSPost2010Prop36
280
     0
102
RTVSPost2010PropOp36
 70
     1
102
RTVSPost2010Prop37
 90
       50
102
RTVSPost2010PropOp37
 70
     0
102
RTVSPost2010Prop38
140
0.0
102
RTVSPost2010PropOp38
 70
     0
102
RTVSPost2010Prop39
140
1.0
102
RTVSPost2010PropOp39
 70
     0
102
RTVSPost2010Prop40
 90
        0
102
RTVSPost2010PropOp40
 70
     0
102
RTVSPost2010Prop41ColorIndex
 90
       18
102
RTVSPost2010Prop41ColorRGB
 90
        0
102
RTVSPost2010PropOp41
 70
     0
102
RTVSPost2010Prop42
 90
       50
102
RTVSPost2010PropOp42
 70
     0
102
RTVSPost2010Prop43
 90
        3
102
RTVSPost2010PropOp43
 70
     0
102
RTVSPost2010Prop44ColorIndex
 90
        5
102
RTVSPost2010Prop44ColorRGB
 90
      255
102
RTVSPost2010PropOp44
 70
     0
102
RTVSPost2010Prop45
280
     0
102
RTVSPost2010PropOp45
 70
     1
102
RTVSPost2010Prop46
 90
       50
102
RTVSPost2010PropOp46
 70
     0
102
RTVSPost2010Prop47
 90
       50
102
RTVSPost2010PropOp47
 70
     0
102
RTVSPost2010Prop48
 90
       50
102
RTVSPost2010PropOp48
 70
     0
102
RTVSPost2010Prop49
280
     0
102
RTVSPost2010PropOp49
 70
     1
102
RTVSPost2010Prop50
 90
       50
102
RTVSPost2010PropOp50
 70
     0
102
RTVSPost2010Prop51ColorIndex
 90
      256
102
RTVSPost2010Prop51ColorRGB
 90
-16777216
102
RTVSPost2010PropOp51
 70
     0
102
RTVSPost2010Prop52
140
1.0
102
RTVSPost2010PropOp52
 70
     0
102
RTVSPost2010Prop53
 90
        2
102
RTVSPost2010PropOp53
 70
     0
102
RTVSPost2010Prop54
  1
strokes_ogs.tif
102
RTVSPost2010PropOp54
 70
     0
102
RTVSPost2010Prop55
280
     0
102
RTVSPost2010PropOp55
 70
     1
102
RTVSPost2010Prop56
140
1.0
102
RTVSPost2010PropOp56
 70
     0
102
RTVSPost2010Prop57
140
1.0
102
RTVSPost2010PropOp57
 70
     0
102
RTVSPropertyOp0
 70
     0
102
RTVSPropertyOp1
 70
     0
102
RTVSPropertyOp2
 70
     0
102
RTVSPropertyOp3
 70
     0
102
RTVSPropertyOp4
 70
     0
102
RTVSPropertyOp5
 70
     0
102
RTVSPropertyOp6
 70
     0
102
RTVSPropertyOp7
 70
     0
102
RTVSPropertyOp8
 70
     0
102
RTVSPropertyOp9
 70
     0
102
RTVSPropertyOp10
 70
     0
102
RTVSPropertyOp11
 70
     0
102
RTVSPropertyOp12
 70
     0
102
RTVSPropertyOp13
 70
     0
102
RTVSPropertyOp14
 70
     2
102
RTVSPropertyOp15
 70
     0
102
RTVSPropertyOp16
 70
     0
102
RTVSPropertyOp17
 70
     0
102
RTVSPropertyOp18
 70
     0
102
RTVSPropertyOp19
 70
     0
102
RTVSPropertyOp20
 70
     0
102
RTVSPropertyOp21
 70
     0
102
RTVSPropertyOp22
 70
     0
102
RTVSPropertyOp23
 70
     0
102
RTVSPropertyOp24
 70
     0
102
RTVSPropertyOp25
 70
     0
102
RTVSPropertyOp26
 70
     0
102
RTVSPropertyOp27
 70
     0
102
RTVSPropertyOp28
 70
     1
102
RTVSPropertyOp29
 70
     1
102
RTVSPropertyOp30
 70
     1
102
RTVSPropertyOp31
 70
     1
102
RTVSPropertyOp32
 70
     1
102
RTVSPropertyOp33
 70
     1
102
RTVSPropertyOp34
 70
     1
102
RTVSPropertyOp35
 70
     1
102
RTVSPropertyOp36
 70
     1
102
RTVSPropertyOp37
 70
     0
102
RTVSPropertyOp38
 70
     0
102
RTVSPropertyOp39
 70
     0
102
RTVSPropertyOp40
 70
     0
102
RTVSPropertyOp41
 70
     0
102
RTVSPropertyOp42
 70
     0
102
RTVSPropertyOp43
 70
     0
102
RTVSPropertyOp44
 70
     0
102
RTVSPropertyOp45
 70
     1
102
RTVSPropertyOp46
 70
     0
102
RTVSPropertyOp47
 70
     0
102
RTVSPropertyOp48
 70
     0
102
RTVSPropertyOp49
 70
     1
102
RTVSPropertyOp50
 70
     0
102
RTVSPropertyOp51
 70
     0
102
RTVSPropertyOp52
 70
     0
102
RTVSPropertyOp53
 70
     0
102
RTVSPropertyOp54
 70
     0
102
RTVSPropertyOp55
 70
     1
102
RTVSPropertyOp56
 70
     0
102
RTVSPropertyOp57
 70
     0
102
RTVSPropertyOp58
 70
     0
102
RTVSPropertyOp59
 70
     0
102
RTVSPropertyOp60
 70
     0
102
RTVSPropertyOp61
 70
     0
102
RTVSPropertyOp62
 70
     0
  0
XRECORD
  5
646
102
{ACAD_REACTORS
330
645
102
}
330
645
100
AcDbXrecord
280
     1
102
RTVSPost2010Prop28
280
     0
102
RTVSPost2010PropOp28
 70
     1
102
RTVSPost2010Prop29
280
     1
102
RTVSPost2010PropOp29
 70
     1
102
RTVSPost2010Prop30
280
     1
102
RTVSPost2010PropOp30
 70
     1
102
RTVSPost2010Prop31
280
     0
102
RTVSPost2010PropOp31
 70
     1
102
RTVSPost2010Prop32
280
     0
102
RTVSPost2010PropOp32
 70
     1
102
RTVSPost2010Prop33
280
     0
102
RTVSPost2010PropOp33
 70
     1
102
RTVSPost2010Prop34
280
     0
102
RTVSPost2010PropOp34
 70
     1
102
RTVSPost2010Prop35
280
     0
102
RTVSPost2010PropOp35
 70
     1
102
RTVSPost2010Prop36
280
     0
102
RTVSPost2010PropOp36
 70
     1
102
RTVSPost2010Prop37
 90
       50
102
RTVSPost2010PropOp37
 70
     1
102
RTVSPost2010Prop38
140
0.0
102
RTVSPost2010PropOp38
 70
     1
102
RTVSPost2010Prop39
140
1.0
102
RTVSPost2010PropOp39
 70
     1
102
RTVSPost2010Prop40
 90
        0
102
RTVSPost2010PropOp40
 70
     1
102
RTVSPost2010Prop41ColorIndex
 90
       18
102
RTVSPost2010Prop41ColorRGB
 90
        0
102
RTVSPost2010PropOp41
 70
     1
102
RTVSPost2010Prop42
 90
       50
102
RTVSPost2010PropOp42
 70
     1
102
RTVSPost2010Prop43
 90
        3
102
RTVSPost2010PropOp43
 70
     1
102
RTVSPost2010Prop44ColorIndex
 90
        5
102
RTVSPost2010Prop44ColorRGB
 90
      255
102
RTVSPost2010PropOp44
 70
     1
102
RTVSPost2010Prop45
280
     0
102
RTVSPost2010PropOp45
 70
     1
102
RTVSPost2010Prop46
 90
       50
102
RTVSPost2010PropOp46
 70
     1
102
RTVSPost2010Prop47
 90
       50
102
RTVSPost2010PropOp47
 70
     1
102
RTVSPost2010Prop48
 90
       50
102
RTVSPost2010PropOp48
 70
     1
102
RTVSPost2010Prop49
280
     0
102
RTVSPost2010PropOp49
 70
     1
102
RTVSPost2010Prop50
 90
       50
102
RTVSPost2010PropOp50
 70
     1
102
RTVSPost2010Prop51ColorIndex
 90
      256
102
RTVSPost2010Prop51ColorRGB
 90
-16777216
102
RTVSPost2010PropOp51
 70
     0
102
RTVSPost2010Prop52
140
1.0
102
RTVSPost2010PropOp52
 70
     0
102
RTVSPost2010Prop53
 90
        2
102
RTVSPost2010PropOp53
 70
     1
102
RTVSPost2010Prop54
  1
strokes_ogs.tif
102
RTVSPost2010PropOp54
 70
     1
102
RTVSPost2010Prop55
280
     0
102
RTVSPost2010PropOp55
 70
     1
102
RTVSPost2010Prop56
140
1.0
102
RTVSPost2010PropOp56
 70
     1
102
RTVSPost2010Prop57
140
1.0
102
RTVSPost2010PropOp57
 70
     1
102
RTVSPropertyOp0
 70
     1
102
RTVSPropertyOp1
 70
     1
102
RTVSPropertyOp2
 70
     1
102
RTVSPropertyOp3
 70
     1
102
RTVSPropertyOp4
 70
     1
102
RTVSPropertyOp5
 70
     1
102
RTVSPropertyOp6
 70
     1
102
RTVSPropertyOp7
 70
     1
102
RTVSPropertyOp8
 70
     1
102
RTVSPropertyOp9
 70
     1
102
RTVSPropertyOp10
 70
     1
102
RTVSPropertyOp11
 70
     1
102
RTVSPropertyOp12
 70
     1
102
RTVSPropertyOp13
 70
     1
102
RTVSPropertyOp14
 70
     1
102
RTVSPropertyOp15
 70
     1
102
RTVSPropertyOp16
 70
     1
102
RTVSPropertyOp17
 70
     1
102
RTVSPropertyOp18
 70
     1
102
RTVSPropertyOp19
 70
     1
102
RTVSPropertyOp20
 70
     1
102
RTVSPropertyOp21
 70
     1
102
RTVSPropertyOp22
 70
     1
102
RTVSPropertyOp23
 70
     1
102
RTVSPropertyOp24
 70
     1
102
RTVSPropertyOp25
 70
     1
102
RTVSPropertyOp26
 70
     1
102
RTVSPropertyOp27
 70
     1
102
RTVSPropertyOp28
 70
     1
102
RTVSPropertyOp29
 70
     1
102
RTVSPropertyOp30
 70
     1
102
RTVSPropertyOp31
 70
     1
102
RTVSPropertyOp32
 70
     1
102
RTVSPropertyOp33
 70
     1
102
RTVSPropertyOp34
 70
     1
102
RTVSPropertyOp35
 70
     1
102
RTVSPropertyOp36
 70
     1
102
RTVSPropertyOp37
 70
     1
102
RTVSPropertyOp38
 70
     1
102
RTVSPropertyOp39
 70
     1
102
RTVSPropertyOp40
 70
     1
102
RTVSPropertyOp41
 70
     1
102
RTVSPropertyOp42
 70
     1
102
RTVSPropertyOp43
 70
     1
102
RTVSPropertyOp44
 70
     1
102
RTVSPropertyOp45
 70
     1
102
RTVSPropertyOp46
 70
     1
102
RTVSPropertyOp47
 70
     1
102
RTVSPropertyOp48
 70
     1
102
RTVSPropertyOp49
 70
     1
102
RTVSPropertyOp50
 70
     1
102
RTVSPropertyOp51
 70
     0
102
RTVSPropertyOp52
 70
     0
102
RTVSPropertyOp53
 70
     1
102
RTVSPropertyOp54
 70
     1
102
RTVSPropertyOp55
 70
     1
102
RTVSPropertyOp56
 70
     1
102
RTVSPropertyOp57
 70
     1
102
RTVSPropertyOp58
 70
     1
102
RTVSPropertyOp59
 70
     1
102
RTVSPropertyOp60
 70
     1
102
RTVSPropertyOp61
 70
     1
102
RTVSPropertyOp62
 70
     1
  0
XRECORD
  5
62A
102
{ACAD_REACTORS
330
629
102
}
330
629
100
AcDbXrecord
280
     1
102
RTVSPost2010Prop28
280
     0
102
RTVSPost2010PropOp28
 70
     1
102
RTVSPost2010Prop29
280
     1
102
RTVSPost2010PropOp29
 70
     1
102
RTVSPost2010Prop30
280
     1
102
RTVSPost2010PropOp30
 70
     1
102
RTVSPost2010Prop31
280
     0
102
RTVSPost2010PropOp31
 70
     1
102
RTVSPost2010Prop32
280
     0
102
RTVSPost2010PropOp32
 70
     1
102
RTVSPost2010Prop33
280
     0
102
RTVSPost2010PropOp33
 70
     1
102
RTVSPost2010Prop34
280
     0
102
RTVSPost2010PropOp34
 70
     1
102
RTVSPost2010Prop35
280
     0
102
RTVSPost2010PropOp35
 70
     1
102
RTVSPost2010Prop36
280
     0
102
RTVSPost2010PropOp36
 70
     1
102
RTVSPost2010Prop37
 90
       50
102
RTVSPost2010PropOp37
 70
     1
102
RTVSPost2010Prop38
140
0.0
102
RTVSPost2010PropOp38
 70
     1
102
RTVSPost2010Prop39
140
1.0
102
RTVSPost2010PropOp39
 70
     1
102
RTVSPost2010Prop40
 90
        0
102
RTVSPost2010PropOp40
 70
     1
102
RTVSPost2010Prop41ColorIndex
 90
       18
102
RTVSPost2010Prop41ColorRGB
 90
        0
102
RTVSPost2010PropOp41
 70
     1
102
RTVSPost2010Prop42
 90
       50
102
RTVSPost2010PropOp42
 70
     1
102
RTVSPost2010Prop43
 90
        3
102
RTVSPost2010PropOp43
 70
     1
102
RTVSPost2010Prop44ColorIndex
 90
        5
102
RTVSPost2010Prop44ColorRGB
 90
      255
102
RTVSPost2010PropOp44
 70
     1
102
RTVSPost2010Prop45
280
     0
102
RTVSPost2010PropOp45
 70
     1
102
RTVSPost2010Prop46
 90
       50
102
RTVSPost2010PropOp46
 70
     1
102
RTVSPost2010Prop47
 90
       50
102
RTVSPost2010PropOp47
 70
     1
102
RTVSPost2010Prop48
 90
       50
102
RTVSPost2010PropOp48
 70
     1
102
RTVSPost2010Prop49
280
     0
102
RTVSPost2010PropOp49
 70
     1
102
RTVSPost2010Prop50
 90
       50
102
RTVSPost2010PropOp50
 70
     1
102
RTVSPost2010Prop51ColorIndex
 90
      256
102
RTVSPost2010Prop51ColorRGB
 90
-16777216
102
RTVSPost2010PropOp51
 70
     0
102
RTVSPost2010Prop52
140
1.0
102
RTVSPost2010PropOp52
 70
     0
102
RTVSPost2010Prop53
 90
        2
102
RTVSPost2010PropOp53
 70
     1
102
RTVSPost2010Prop54
  1
strokes_ogs.tif
102
RTVSPost2010PropOp54
 70
     1
102
RTVSPost2010Prop55
280
     0
102
RTVSPost2010PropOp55
 70
     1
102
RTVSPost2010Prop56
140
1.0
102
RTVSPost2010PropOp56
 70
     1
102
RTVSPost2010Prop57
140
1.0
102
RTVSPost2010PropOp57
 70
     1
102
RTVSPropertyOp0
 70
     1
102
RTVSPropertyOp1
 70
     1
102
RTVSPropertyOp2
 70
     1
102
RTVSPropertyOp3
 70
     1
102
RTVSPropertyOp4
 70
     1
102
RTVSPropertyOp5
 70
     1
102
RTVSPropertyOp6
 70
     1
102
RTVSPropertyOp7
 70
     1
102
RTVSPropertyOp8
 70
     1
102
RTVSPropertyOp9
 70
     1
102
RTVSPropertyOp10
 70
     1
102
RTVSPropertyOp11
 70
     1
102
RTVSPropertyOp12
 70
     1
102
RTVSPropertyOp13
 70
     1
102
RTVSPropertyOp14
 70
     1
102
RTVSPropertyOp15
 70
     1
102
RTVSPropertyOp16
 70
     1
102
RTVSPropertyOp17
 70
     1
102
RTVSPropertyOp18
 70
     1
102
RTVSPropertyOp19
 70
     1
102
RTVSPropertyOp20
 70
     1
102
RTVSPropertyOp21
 70
     1
102
RTVSPropertyOp22
 70
     1
102
RTVSPropertyOp23
 70
     1
102
RTVSPropertyOp24
 70
     1
102
RTVSPropertyOp25
 70
     1
102
RTVSPropertyOp26
 70
     1
102
RTVSPropertyOp27
 70
     1
102
RTVSPropertyOp28
 70
     1
102
RTVSPropertyOp29
 70
     1
102
RTVSPropertyOp30
 70
     1
102
RTVSPropertyOp31
 70
     1
102
RTVSPropertyOp32
 70
     1
102
RTVSPropertyOp33
 70
     1
102
RTVSPropertyOp34
 70
     1
102
RTVSPropertyOp35
 70
     1
102
RTVSPropertyOp36
 70
     1
102
RTVSPropertyOp37
 70
     1
102
RTVSPropertyOp38
 70
     1
102
RTVSPropertyOp39
 70
     1
102
RTVSPropertyOp40
 70
     1
102
RTVSPropertyOp41
 70
     1
102
RTVSPropertyOp42
 70
     1
102
RTVSPropertyOp43
 70
     1
102
RTVSPropertyOp44
 70
     1
102
RTVSPropertyOp45
 70
     1
102
RTVSPropertyOp46
 70
     1
102
RTVSPropertyOp47
 70
     1
102
RTVSPropertyOp48
 70
     1
102
RTVSPropertyOp49
 70
     1
102
RTVSPropertyOp50
 70
     1
102
RTVSPropertyOp51
 70
     0
102
RTVSPropertyOp52
 70
     0
102
RTVSPropertyOp53
 70
     1
102
RTVSPropertyOp54
 70
     1
102
RTVSPropertyOp55
 70
     1
102
RTVSPropertyOp56
 70
     1
102
RTVSPropertyOp57
 70
     1
102
RTVSPropertyOp58
 70
     1
102
RTVSPropertyOp59
 70
     1
102
RTVSPropertyOp60
 70
     1
102
RTVSPropertyOp61
 70
     1
102
RTVSPropertyOp62
 70
     1
  0
XRECORD
  5
62C
102
{ACAD_REACTORS
330
62B
102
}
330
62B
100
AcDbXrecord
280
     1
102
RTVSPost2010Prop28
280
     0
102
RTVSPost2010PropOp28
 70
     1
102
RTVSPost2010Prop29
280
     1
102
RTVSPost2010PropOp29
 70
     1
102
RTVSPost2010Prop30
280
     1
102
RTVSPost2010PropOp30
 70
     1
102
RTVSPost2010Prop31
280
     0
102
RTVSPost2010PropOp31
 70
     1
102
RTVSPost2010Prop32
280
     0
102
RTVSPost2010PropOp32
 70
     1
102
RTVSPost2010Prop33
280
     0
102
RTVSPost2010PropOp33
 70
     1
102
RTVSPost2010Prop34
280
     0
102
RTVSPost2010PropOp34
 70
     1
102
RTVSPost2010Prop35
280
     0
102
RTVSPost2010PropOp35
 70
     1
102
RTVSPost2010Prop36
280
     0
102
RTVSPost2010PropOp36
 70
     1
102
RTVSPost2010Prop37
 90
       50
102
RTVSPost2010PropOp37
 70
     1
102
RTVSPost2010Prop38
140
0.0
102
RTVSPost2010PropOp38
 70
     1
102
RTVSPost2010Prop39
140
1.0
102
RTVSPost2010PropOp39
 70
     1
102
RTVSPost2010Prop40
 90
        0
102
RTVSPost2010PropOp40
 70
     1
102
RTVSPost2010Prop41ColorIndex
 90
       18
102
RTVSPost2010Prop41ColorRGB
 90
        0
102
RTVSPost2010PropOp41
 70
     1
102
RTVSPost2010Prop42
 90
       50
102
RTVSPost2010PropOp42
 70
     1
102
RTVSPost2010Prop43
 90
        3
102
RTVSPost2010PropOp43
 70
     1
102
RTVSPost2010Prop44ColorIndex
 90
        5
102
RTVSPost2010Prop44ColorRGB
 90
      255
102
RTVSPost2010PropOp44
 70
     1
102
RTVSPost2010Prop45
280
     0
102
RTVSPost2010PropOp45
 70
     1
102
RTVSPost2010Prop46
 90
       50
102
RTVSPost2010PropOp46
 70
     1
102
RTVSPost2010Prop47
 90
       50
102
RTVSPost2010PropOp47
 70
     1
102
RTVSPost2010Prop48
 90
       50
102
RTVSPost2010PropOp48
 70
     1
102
RTVSPost2010Prop49
280
     0
102
RTVSPost2010PropOp49
 70
     1
102
RTVSPost2010Prop50
 90
       50
102
RTVSPost2010PropOp50
 70
     1
102
RTVSPost2010Prop51ColorIndex
 90
      256
102
RTVSPost2010Prop51ColorRGB
 90
-16777216
102
RTVSPost2010PropOp51
 70
     0
102
RTVSPost2010Prop52
140
1.0
102
RTVSPost2010PropOp52
 70
     0
102
RTVSPost2010Prop53
 90
        2
102
RTVSPost2010PropOp53
 70
     1
102
RTVSPost2010Prop54
  1
strokes_ogs.tif
102
RTVSPost2010PropOp54
 70
     1
102
RTVSPost2010Prop55
280
     0
102
RTVSPost2010PropOp55
 70
     1
102
RTVSPost2010Prop56
140
1.0
102
RTVSPost2010PropOp56
 70
     1
102
RTVSPost2010Prop57
140
1.0
102
RTVSPost2010PropOp57
 70
     1
102
RTVSPropertyOp0
 70
     1
102
RTVSPropertyOp1
 70
     1
102
RTVSPropertyOp2
 70
     1
102
RTVSPropertyOp3
 70
     1
102
RTVSPropertyOp4
 70
     1
102
RTVSPropertyOp5
 70
     1
102
RTVSPropertyOp6
 70
     1
102
RTVSPropertyOp7
 70
     1
102
RTVSPropertyOp8
 70
     1
102
RTVSPropertyOp9
 70
     1
102
RTVSPropertyOp10
 70
     1
102
RTVSPropertyOp11
 70
     1
102
RTVSPropertyOp12
 70
     1
102
RTVSPropertyOp13
 70
     1
102
RTVSPropertyOp14
 70
     1
102
RTVSPropertyOp15
 70
     1
102
RTVSPropertyOp16
 70
     1
102
RTVSPropertyOp17
 70
     1
102
RTVSPropertyOp18
 70
     1
102
RTVSPropertyOp19
 70
     1
102
RTVSPropertyOp20
 70
     1
102
RTVSPropertyOp21
 70
     1
102
RTVSPropertyOp22
 70
     1
102
RTVSPropertyOp23
 70
     1
102
RTVSPropertyOp24
 70
     1
102
RTVSPropertyOp25
 70
     1
102
RTVSPropertyOp26
 70
     1
102
RTVSPropertyOp27
 70
     1
102
RTVSPropertyOp28
 70
     1
102
RTVSPropertyOp29
 70
     1
102
RTVSPropertyOp30
 70
     1
102
RTVSPropertyOp31
 70
     1
102
RTVSPropertyOp32
 70
     1
102
RTVSPropertyOp33
 70
     1
102
RTVSPropertyOp34
 70
     1
102
RTVSPropertyOp35
 70
     1
102
RTVSPropertyOp36
 70
     1
102
RTVSPropertyOp37
 70
     1
102
RTVSPropertyOp38
 70
     1
102
RTVSPropertyOp39
 70
     1
102
RTVSPropertyOp40
 70
     1
102
RTVSPropertyOp41
 70
     1
102
RTVSPropertyOp42
 70
     1
102
RTVSPropertyOp43
 70
     1
102
RTVSPropertyOp44
 70
     1
102
RTVSPropertyOp45
 70
     1
102
RTVSPropertyOp46
 70
     1
102
RTVSPropertyOp47
 70
     1
102
RTVSPropertyOp48
 70
     1
102
RTVSPropertyOp49
 70
     1
102
RTVSPropertyOp50
 70
     1
102
RTVSPropertyOp51
 70
     0
102
RTVSPropertyOp52
 70
     0
102
RTVSPropertyOp53
 70
     1
102
RTVSPropertyOp54
 70
     1
102
RTVSPropertyOp55
 70
     1
102
RTVSPropertyOp56
 70
     1
102
RTVSPropertyOp57
 70
     1
102
RTVSPropertyOp58
 70
     1
102
RTVSPropertyOp59
 70
     1
102
RTVSPropertyOp60
 70
     1
102
RTVSPropertyOp61
 70
     1
102
RTVSPropertyOp62
 70
     1
  0
XRECORD
  5
62E
102
{ACAD_REACTORS
330
62D
102
}
330
62D
100
AcDbXrecord
280
     1
102
RTVSPost2010Prop28
280
     0
102
RTVSPost2010PropOp28
 70
     1
102
RTVSPost2010Prop29
280
     1
102
RTVSPost2010PropOp29
 70
     1
102
RTVSPost2010Prop30
280
     1
102
RTVSPost2010PropOp30
 70
     1
102
RTVSPost2010Prop31
280
     0
102
RTVSPost2010PropOp31
 70
     1
102
RTVSPost2010Prop32
280
     0
102
RTVSPost2010PropOp32
 70
     1
102
RTVSPost2010Prop33
280
     0
102
RTVSPost2010PropOp33
 70
     1
102
RTVSPost2010Prop34
280
     0
102
RTVSPost2010PropOp34
 70
     1
102
RTVSPost2010Prop35
280
     0
102
RTVSPost2010PropOp35
 70
     1
102
RTVSPost2010Prop36
280
     0
102
RTVSPost2010PropOp36
 70
     1
102
RTVSPost2010Prop37
 90
       50
102
RTVSPost2010PropOp37
 70
     1
102
RTVSPost2010Prop38
140
0.0
102
RTVSPost2010PropOp38
 70
     1
102
RTVSPost2010Prop39
140
1.0
102
RTVSPost2010PropOp39
 70
     1
102
RTVSPost2010Prop40
 90
        0
102
RTVSPost2010PropOp40
 70
     1
102
RTVSPost2010Prop41ColorIndex
 90
       18
102
RTVSPost2010Prop41ColorRGB
 90
        0
102
RTVSPost2010PropOp41
 70
     1
102
RTVSPost2010Prop42
 90
       50
102
RTVSPost2010PropOp42
 70
     1
102
RTVSPost2010Prop43
 90
        3
102
RTVSPost2010PropOp43
 70
     1
102
RTVSPost2010Prop44ColorIndex
 90
        5
102
RTVSPost2010Prop44ColorRGB
 90
      255
102
RTVSPost2010PropOp44
 70
     1
102
RTVSPost2010Prop45
280
     0
102
RTVSPost2010PropOp45
 70
     1
102
RTVSPost2010Prop46
 90
       50
102
RTVSPost2010PropOp46
 70
     1
102
RTVSPost2010Prop47
 90
       50
102
RTVSPost2010PropOp47
 70
     1
102
RTVSPost2010Prop48
 90
       50
102
RTVSPost2010PropOp48
 70
     1
102
RTVSPost2010Prop49
280
     0
102
RTVSPost2010PropOp49
 70
     1
102
RTVSPost2010Prop50
 90
       50
102
RTVSPost2010PropOp50
 70
     1
102
RTVSPost2010Prop51ColorIndex
 90
      256
102
RTVSPost2010Prop51ColorRGB
 90
-16777216
102
RTVSPost2010PropOp51
 70
     0
102
RTVSPost2010Prop52
140
1.0
102
RTVSPost2010PropOp52
 70
     0
102
RTVSPost2010Prop53
 90
        2
102
RTVSPost2010PropOp53
 70
     1
102
RTVSPost2010Prop54
  1
strokes_ogs.tif
102
RTVSPost2010PropOp54
 70
     1
102
RTVSPost2010Prop55
280
     0
102
RTVSPost2010PropOp55
 70
     1
102
RTVSPost2010Prop56
140
1.0
102
RTVSPost2010PropOp56
 70
     1
102
RTVSPost2010Prop57
140
1.0
102
RTVSPost2010PropOp57
 70
     1
102
RTVSPropertyOp0
 70
     1
102
RTVSPropertyOp1
 70
     1
102
RTVSPropertyOp2
 70
     1
102
RTVSPropertyOp3
 70
     1
102
RTVSPropertyOp4
 70
     1
102
RTVSPropertyOp5
 70
     1
102
RTVSPropertyOp6
 70
     1
102
RTVSPropertyOp7
 70
     1
102
RTVSPropertyOp8
 70
     1
102
RTVSPropertyOp9
 70
     1
102
RTVSPropertyOp10
 70
     1
102
RTVSPropertyOp11
 70
     1
102
RTVSPropertyOp12
 70
     1
102
RTVSPropertyOp13
 70
     1
102
RTVSPropertyOp14
 70
     1
102
RTVSPropertyOp15
 70
     1
102
RTVSPropertyOp16
 70
     1
102
RTVSPropertyOp17
 70
     1
102
RTVSPropertyOp18
 70
     1
102
RTVSPropertyOp19
 70
     1
102
RTVSPropertyOp20
 70
     1
102
RTVSPropertyOp21
 70
     1
102
RTVSPropertyOp22
 70
     1
102
RTVSPropertyOp23
 70
     1
102
RTVSPropertyOp24
 70
     1
102
RTVSPropertyOp25
 70
     1
102
RTVSPropertyOp26
 70
     1
102
RTVSPropertyOp27
 70
     1
102
RTVSPropertyOp28
 70
     1
102
RTVSPropertyOp29
 70
     1
102
RTVSPropertyOp30
 70
     1
102
RTVSPropertyOp31
 70
     1
102
RTVSPropertyOp32
 70
     1
102
RTVSPropertyOp33
 70
     1
102
RTVSPropertyOp34
 70
     1
102
RTVSPropertyOp35
 70
     1
102
RTVSPropertyOp36
 70
     1
102
RTVSPropertyOp37
 70
     1
102
RTVSPropertyOp38
 70
     1
102
RTVSPropertyOp39
 70
     1
102
RTVSPropertyOp40
 70
     1
102
RTVSPropertyOp41
 70
     1
102
RTVSPropertyOp42
 70
     1
102
RTVSPropertyOp43
 70
     1
102
RTVSPropertyOp44
 70
     1
102
RTVSPropertyOp45
 70
     1
102
RTVSPropertyOp46
 70
     1
102
RTVSPropertyOp47
 70
     1
102
RTVSPropertyOp48
 70
     1
102
RTVSPropertyOp49
 70
     1
102
RTVSPropertyOp50
 70
     1
102
RTVSPropertyOp51
 70
     0
102
RTVSPropertyOp52
 70
     0
102
RTVSPropertyOp53
 70
     1
102
RTVSPropertyOp54
 70
     1
102
RTVSPropertyOp55
 70
     1
102
RTVSPropertyOp56
 70
     1
102
RTVSPropertyOp57
 70
     1
102
RTVSPropertyOp58
 70
     1
102
RTVSPropertyOp59
 70
     1
102
RTVSPropertyOp60
 70
     1
102
RTVSPropertyOp61
 70
     1
102
RTVSPropertyOp62
 70
     1
  0
XRECORD
  5
630
102
{ACAD_REACTORS
330
62F
102
}
330
62F
100
AcDbXrecord
280
     1
102
RTVSPost2010Prop28
280
     0
102
RTVSPost2010PropOp28
 70
     1
102
RTVSPost2010Prop29
280
     1
102
RTVSPost2010PropOp29
 70
     1
102
RTVSPost2010Prop30
280
     1
102
RTVSPost2010PropOp30
 70
     1
102
RTVSPost2010Prop31
280
     0
102
RTVSPost2010PropOp31
 70
     1
102
RTVSPost2010Prop32
280
     0
102
RTVSPost2010PropOp32
 70
     1
102
RTVSPost2010Prop33
280
     0
102
RTVSPost2010PropOp33
 70
     1
102
RTVSPost2010Prop34
280
     0
102
RTVSPost2010PropOp34
 70
     1
102
RTVSPost2010Prop35
280
     0
102
RTVSPost2010PropOp35
 70
     1
102
RTVSPost2010Prop36
280
     0
102
RTVSPost2010PropOp36
 70
     1
102
RTVSPost2010Prop37
 90
       50
102
RTVSPost2010PropOp37
 70
     1
102
RTVSPost2010Prop38
140
0.0
102
RTVSPost2010PropOp38
 70
     1
102
RTVSPost2010Prop39
140
1.0
102
RTVSPost2010PropOp39
 70
     1
102
RTVSPost2010Prop40
 90
        0
102
RTVSPost2010PropOp40
 70
     1
102
RTVSPost2010Prop41ColorIndex
 90
       18
102
RTVSPost2010Prop41ColorRGB
 90
        0
102
RTVSPost2010PropOp41
 70
     1
102
RTVSPost2010Prop42
 90
       50
102
RTVSPost2010PropOp42
 70
     1
102
RTVSPost2010Prop43
 90
        3
102
RTVSPost2010PropOp43
 70
     1
102
RTVSPost2010Prop44ColorIndex
 90
        5
102
RTVSPost2010Prop44ColorRGB
 90
      255
102
RTVSPost2010PropOp44
 70
     1
102
RTVSPost2010Prop45
280
     0
102
RTVSPost2010PropOp45
 70
     1
102
RTVSPost2010Prop46
 90
       50
102
RTVSPost2010PropOp46
 70
     1
102
RTVSPost2010Prop47
 90
       50
102
RTVSPost2010PropOp47
 70
     1
102
RTVSPost2010Prop48
 90
       50
102
RTVSPost2010PropOp48
 70
     1
102
RTVSPost2010Prop49
280
     0
102
RTVSPost2010PropOp49
 70
     1
102
RTVSPost2010Prop50
 90
       50
102
RTVSPost2010PropOp50
 70
     1
102
RTVSPost2010Prop51ColorIndex
 90
      256
102
RTVSPost2010Prop51ColorRGB
 90
-16777216
102
RTVSPost2010PropOp51
 70
     0
102
RTVSPost2010Prop52
140
1.0
102
RTVSPost2010PropOp52
 70
     0
102
RTVSPost2010Prop53
 90
        2
102
RTVSPost2010PropOp53
 70
     1
102
RTVSPost2010Prop54
  1
strokes_ogs.tif
102
RTVSPost2010PropOp54
 70
     1
102
RTVSPost2010Prop55
280
     0
102
RTVSPost2010PropOp55
 70
     1
102
RTVSPost2010Prop56
140
1.0
102
RTVSPost2010PropOp56
 70
     1
102
RTVSPost2010Prop57
140
1.0
102
RTVSPost2010PropOp57
 70
     1
102
RTVSPropertyOp0
 70
     1
102
RTVSPropertyOp1
 70
     1
102
RTVSPropertyOp2
 70
     1
102
RTVSPropertyOp3
 70
     1
102
RTVSPropertyOp4
 70
     1
102
RTVSPropertyOp5
 70
     1
102
RTVSPropertyOp6
 70
     1
102
RTVSPropertyOp7
 70
     1
102
RTVSPropertyOp8
 70
     1
102
RTVSPropertyOp9
 70
     1
102
RTVSPropertyOp10
 70
     1
102
RTVSPropertyOp11
 70
     1
102
RTVSPropertyOp12
 70
     1
102
RTVSPropertyOp13
 70
     1
102
RTVSPropertyOp14
 70
     1
102
RTVSPropertyOp15
 70
     1
102
RTVSPropertyOp16
 70
     1
102
RTVSPropertyOp17
 70
     1
102
RTVSPropertyOp18
 70
     1
102
RTVSPropertyOp19
 70
     1
102
RTVSPropertyOp20
 70
     1
102
RTVSPropertyOp21
 70
     1
102
RTVSPropertyOp22
 70
     1
102
RTVSPropertyOp23
 70
     1
102
RTVSPropertyOp24
 70
     1
102
RTVSPropertyOp25
 70
     1
102
RTVSPropertyOp26
 70
     1
102
RTVSPropertyOp27
 70
     1
102
RTVSPropertyOp28
 70
     1
102
RTVSPropertyOp29
 70
     1
102
RTVSPropertyOp30
 70
     1
102
RTVSPropertyOp31
 70
     1
102
RTVSPropertyOp32
 70
     1
102
RTVSPropertyOp33
 70
     1
102
RTVSPropertyOp34
 70
     1
102
RTVSPropertyOp35
 70
     1
102
RTVSPropertyOp36
 70
     1
102
RTVSPropertyOp37
 70
     1
102
RTVSPropertyOp38
 70
     1
102
RTVSPropertyOp39
 70
     1
102
RTVSPropertyOp40
 70
     1
102
RTVSPropertyOp41
 70
     1
102
RTVSPropertyOp42
 70
     1
102
RTVSPropertyOp43
 70
     1
102
RTVSPropertyOp44
 70
     1
102
RTVSPropertyOp45
 70
     1
102
RTVSPropertyOp46
 70
     1
102
RTVSPropertyOp47
 70
     1
102
RTVSPropertyOp48
 70
     1
102
RTVSPropertyOp49
 70
     1
102
RTVSPropertyOp50
 70
     1
102
RTVSPropertyOp51
 70
     0
102
RTVSPropertyOp52
 70
     0
102
RTVSPropertyOp53
 70
     1
102
RTVSPropertyOp54
 70
     1
102
RTVSPropertyOp55
 70
     1
102
RTVSPropertyOp56
 70
     1
102
RTVSPropertyOp57
 70
     1
102
RTVSPropertyOp58
 70
     1
102
RTVSPropertyOp59
 70
     1
102
RTVSPropertyOp60
 70
     1
102
RTVSPropertyOp61
 70
     1
102
RTVSPropertyOp62
 70
     1
  0
XRECORD
  5
638
102
{ACAD_REACTORS
330
637
102
}
330
637
100
AcDbXrecord
280
     1
102
RTVSPost2010Prop28
280
     0
102
RTVSPost2010PropOp28
 70
     1
102
RTVSPost2010Prop29
280
     1
102
RTVSPost2010PropOp29
 70
     1
102
RTVSPost2010Prop30
280
     1
102
RTVSPost2010PropOp30
 70
     1
102
RTVSPost2010Prop31
280
     0
102
RTVSPost2010PropOp31
 70
     1
102
RTVSPost2010Prop32
280
     0
102
RTVSPost2010PropOp32
 70
     1
102
RTVSPost2010Prop33
280
     0
102
RTVSPost2010PropOp33
 70
     1
102
RTVSPost2010Prop34
280
     0
102
RTVSPost2010PropOp34
 70
     1
102
RTVSPost2010Prop35
280
     0
102
RTVSPost2010PropOp35
 70
     1
102
RTVSPost2010Prop36
280
     0
102
RTVSPost2010PropOp36
 70
     1
102
RTVSPost2010Prop37
 90
       50
102
RTVSPost2010PropOp37
 70
     1
102
RTVSPost2010Prop38
140
0.0
102
RTVSPost2010PropOp38
 70
     1
102
RTVSPost2010Prop39
140
1.0
102
RTVSPost2010PropOp39
 70
     1
102
RTVSPost2010Prop40
 90
        0
102
RTVSPost2010PropOp40
 70
     1
102
RTVSPost2010Prop41ColorIndex
 90
       18
102
RTVSPost2010Prop41ColorRGB
 90
        0
102
RTVSPost2010PropOp41
 70
     1
102
RTVSPost2010Prop42
 90
       50
102
RTVSPost2010PropOp42
 70
     1
102
RTVSPost2010Prop43
 90
        3
102
RTVSPost2010PropOp43
 70
     1
102
RTVSPost2010Prop44ColorIndex
 90
        5
102
RTVSPost2010Prop44ColorRGB
 90
      255
102
RTVSPost2010PropOp44
 70
     1
102
RTVSPost2010Prop45
280
     0
102
RTVSPost2010PropOp45
 70
     1
102
RTVSPost2010Prop46
 90
       50
102
RTVSPost2010PropOp46
 70
     1
102
RTVSPost2010Prop47
 90
       50
102
RTVSPost2010PropOp47
 70
     1
102
RTVSPost2010Prop48
 90
       50
102
RTVSPost2010PropOp48
 70
     1
102
RTVSPost2010Prop49
280
     0
102
RTVSPost2010PropOp49
 70
     1
102
RTVSPost2010Prop50
 90
       50
102
RTVSPost2010PropOp50
 70
     1
102
RTVSPost2010Prop51ColorIndex
 90
      256
102
RTVSPost2010Prop51ColorRGB
 90
-16777216
102
RTVSPost2010PropOp51
 70
     0
102
RTVSPost2010Prop52
140
1.0
102
RTVSPost2010PropOp52
 70
     0
102
RTVSPost2010Prop53
 90
        2
102
RTVSPost2010PropOp53
 70
     1
102
RTVSPost2010Prop54
  1
strokes_ogs.tif
102
RTVSPost2010PropOp54
 70
     1
102
RTVSPost2010Prop55
280
     0
102
RTVSPost2010PropOp55
 70
     1
102
RTVSPost2010Prop56
140
1.0
102
RTVSPost2010PropOp56
 70
     1
102
RTVSPost2010Prop57
140
1.0
102
RTVSPost2010PropOp57
 70
     1
102
RTVSPropertyOp0
 70
     1
102
RTVSPropertyOp1
 70
     1
102
RTVSPropertyOp2
 70
     1
102
RTVSPropertyOp3
 70
     1
102
RTVSPropertyOp4
 70
     1
102
RTVSPropertyOp5
 70
     1
102
RTVSPropertyOp6
 70
     1
102
RTVSPropertyOp7
 70
     1
102
RTVSPropertyOp8
 70
     1
102
RTVSPropertyOp9
 70
     1
102
RTVSPropertyOp10
 70
     1
102
RTVSPropertyOp11
 70
     1
102
RTVSPropertyOp12
 70
     1
102
RTVSPropertyOp13
 70
     1
102
RTVSPropertyOp14
 70
     1
102
RTVSPropertyOp15
 70
     1
102
RTVSPropertyOp16
 70
     1
102
RTVSPropertyOp17
 70
     1
102
RTVSPropertyOp18
 70
     1
102
RTVSPropertyOp19
 70
     1
102
RTVSPropertyOp20
 70
     1
102
RTVSPropertyOp21
 70
     1
102
RTVSPropertyOp22
 70
     1
102
RTVSPropertyOp23
 70
     1
102
RTVSPropertyOp24
 70
     1
102
RTVSPropertyOp25
 70
     1
102
RTVSPropertyOp26
 70
     1
102
RTVSPropertyOp27
 70
     1
102
RTVSPropertyOp28
 70
     1
102
RTVSPropertyOp29
 70
     1
102
RTVSPropertyOp30
 70
     1
102
RTVSPropertyOp31
 70
     1
102
RTVSPropertyOp32
 70
     1
102
RTVSPropertyOp33
 70
     1
102
RTVSPropertyOp34
 70
     1
102
RTVSPropertyOp35
 70
     1
102
RTVSPropertyOp36
 70
     1
102
RTVSPropertyOp37
 70
     1
102
RTVSPropertyOp38
 70
     1
102
RTVSPropertyOp39
 70
     1
102
RTVSPropertyOp40
 70
     1
102
RTVSPropertyOp41
 70
     1
102
RTVSPropertyOp42
 70
     1
102
RTVSPropertyOp43
 70
     1
102
RTVSPropertyOp44
 70
     1
102
RTVSPropertyOp45
 70
     1
102
RTVSPropertyOp46
 70
     1
102
RTVSPropertyOp47
 70
     1
102
RTVSPropertyOp48
 70
     1
102
RTVSPropertyOp49
 70
     1
102
RTVSPropertyOp50
 70
     1
102
RTVSPropertyOp51
 70
     0
102
RTVSPropertyOp52
 70
     0
102
RTVSPropertyOp53
 70
     1
102
RTVSPropertyOp54
 70
     1
102
RTVSPropertyOp55
 70
     1
102
RTVSPropertyOp56
 70
     1
102
RTVSPropertyOp57
 70
     1
102
RTVSPropertyOp58
 70
     1
102
RTVSPropertyOp59
 70
     1
102
RTVSPropertyOp60
 70
     1
102
RTVSPropertyOp61
 70
     1
102
RTVSPropertyOp62
 70
     1
  0
XRECORD
  5
654
102
{ACAD_REACTORS
330
653
102
}
330
653
100
AcDbXrecord
280
     1
102
RTVSPost2010Prop28
280
     0
102
RTVSPost2010PropOp28
 70
     1
102
RTVSPost2010Prop29
280
     1
102
RTVSPost2010PropOp29
 70
     1
102
RTVSPost2010Prop30
280
     1
102
RTVSPost2010PropOp30
 70
     1
102
RTVSPost2010Prop31
280
     0
102
RTVSPost2010PropOp31
 70
     1
102
RTVSPost2010Prop32
280
     0
102
RTVSPost2010PropOp32
 70
     1
102
RTVSPost2010Prop33
280
     0
102
RTVSPost2010PropOp33
 70
     1
102
RTVSPost2010Prop34
280
     0
102
RTVSPost2010PropOp34
 70
     1
102
RTVSPost2010Prop35
280
     0
102
RTVSPost2010PropOp35
 70
     1
102
RTVSPost2010Prop36
280
     0
102
RTVSPost2010PropOp36
 70
     1
102
RTVSPost2010Prop37
 90
       50
102
RTVSPost2010PropOp37
 70
     0
102
RTVSPost2010Prop38
140
0.0
102
RTVSPost2010PropOp38
 70
     0
102
RTVSPost2010Prop39
140
1.0
102
RTVSPost2010PropOp39
 70
     0
102
RTVSPost2010Prop40
 90
        0
102
RTVSPost2010PropOp40
 70
     0
102
RTVSPost2010Prop41ColorIndex
 90
       18
102
RTVSPost2010Prop41ColorRGB
 90
        0
102
RTVSPost2010PropOp41
 70
     0
102
RTVSPost2010Prop42
 90
       50
102
RTVSPost2010PropOp42
 70
     0
102
RTVSPost2010Prop43
 90
        3
102
RTVSPost2010PropOp43
 70
     0
102
RTVSPost2010Prop44ColorIndex
 90
        5
102
RTVSPost2010Prop44ColorRGB
 90
      255
102
RTVSPost2010PropOp44
 70
     0
102
RTVSPost2010Prop45
280
     0
102
RTVSPost2010PropOp45
 70
     1
102
RTVSPost2010Prop46
 90
       50
102
RTVSPost2010PropOp46
 70
     0
102
RTVSPost2010Prop47
 90
       50
102
RTVSPost2010PropOp47
 70
     0
102
RTVSPost2010Prop48
 90
       50
102
RTVSPost2010PropOp48
 70
     0
102
RTVSPost2010Prop49
280
     0
102
RTVSPost2010PropOp49
 70
     1
102
RTVSPost2010Prop50
 90
       50
102
RTVSPost2010PropOp50
 70
     0
102
RTVSPost2010Prop51ColorIndex
 90
      256
102
RTVSPost2010Prop51ColorRGB
 90
-16777216
102
RTVSPost2010PropOp51
 70
     0
102
RTVSPost2010Prop52
140
1.0
102
RTVSPost2010PropOp52
 70
     0
102
RTVSPost2010Prop53
 90
        2
102
RTVSPost2010PropOp53
 70
     0
102
RTVSPost2010Prop54
  1
strokes_ogs.tif
102
RTVSPost2010PropOp54
 70
     0
102
RTVSPost2010Prop55
280
     0
102
RTVSPost2010PropOp55
 70
     1
102
RTVSPost2010Prop56
140
1.0
102
RTVSPost2010PropOp56
 70
     0
102
RTVSPost2010Prop57
140
1.0
102
RTVSPost2010PropOp57
 70
     0
102
RTVSPropertyOp0
 70
     0
102
RTVSPropertyOp1
 70
     0
102
RTVSPropertyOp2
 70
     0
102
RTVSPropertyOp3
 70
     0
102
RTVSPropertyOp4
 70
     0
102
RTVSPropertyOp5
 70
     0
102
RTVSPropertyOp6
 70
     0
102
RTVSPropertyOp7
 70
     0
102
RTVSPropertyOp8
 70
     0
102
RTVSPropertyOp9
 70
     0
102
RTVSPropertyOp10
 70
     0
102
RTVSPropertyOp11
 70
     0
102
RTVSPropertyOp12
 70
     0
102
RTVSPropertyOp13
 70
     0
102
RTVSPropertyOp14
 70
     2
102
RTVSPropertyOp15
 70
     0
102
RTVSPropertyOp16
 70
     0
102
RTVSPropertyOp17
 70
     0
102
RTVSPropertyOp18
 70
     0
102
RTVSPropertyOp19
 70
     0
102
RTVSPropertyOp20
 70
     0
102
RTVSPropertyOp21
 70
     0
102
RTVSPropertyOp22
 70
     0
102
RTVSPropertyOp23
 70
     0
102
RTVSPropertyOp24
 70
     0
102
RTVSPropertyOp25
 70
     0
102
RTVSPropertyOp26
 70
     0
102
RTVSPropertyOp27
 70
     0
102
RTVSPropertyOp28
 70
     1
102
RTVSPropertyOp29
 70
     1
102
RTVSPropertyOp30
 70
     1
102
RTVSPropertyOp31
 70
     1
102
RTVSPropertyOp32
 70
     1
102
RTVSPropertyOp33
 70
     1
102
RTVSPropertyOp34
 70
     1
102
RTVSPropertyOp35
 70
     1
102
RTVSPropertyOp36
 70
     1
102
RTVSPropertyOp37
 70
     0
102
RTVSPropertyOp38
 70
     0
102
RTVSPropertyOp39
 70
     0
102
RTVSPropertyOp40
 70
     0
102
RTVSPropertyOp41
 70
     0
102
RTVSPropertyOp42
 70
     0
102
RTVSPropertyOp43
 70
     0
102
RTVSPropertyOp44
 70
     0
102
RTVSPropertyOp45
 70
     1
102
RTVSPropertyOp46
 70
     0
102
RTVSPropertyOp47
 70
     0
102
RTVSPropertyOp48
 70
     0
102
RTVSPropertyOp49
 70
     1
102
RTVSPropertyOp50
 70
     0
102
RTVSPropertyOp51
 70
     0
102
RTVSPropertyOp52
 70
     0
102
RTVSPropertyOp53
 70
     0
102
RTVSPropertyOp54
 70
     0
102
RTVSPropertyOp55
 70
     1
102
RTVSPropertyOp56
 70
     0
102
RTVSPropertyOp57
 70
     0
102
RTVSPropertyOp58
 70
     0
102
RTVSPropertyOp59
 70
     0
102
RTVSPropertyOp60
 70
     0
102
RTVSPropertyOp61
 70
     0
102
RTVSPropertyOp62
 70
     0
  0
XRECORD
  5
644
102
{ACAD_REACTORS
330
643
102
}
330
643
100
AcDbXrecord
280
     1
102
RTVSPost2010Prop28
280
     0
102
RTVSPost2010PropOp28
 70
     1
102
RTVSPost2010Prop29
280
     1
102
RTVSPost2010PropOp29
 70
     1
102
RTVSPost2010Prop30
280
     1
102
RTVSPost2010PropOp30
 70
     1
102
RTVSPost2010Prop31
280
     0
102
RTVSPost2010PropOp31
 70
     1
102
RTVSPost2010Prop32
280
     0
102
RTVSPost2010PropOp32
 70
     1
102
RTVSPost2010Prop33
280
     0
102
RTVSPost2010PropOp33
 70
     1
102
RTVSPost2010Prop34
280
     0
102
RTVSPost2010PropOp34
 70
     1
102
RTVSPost2010Prop35
280
     0
102
RTVSPost2010PropOp35
 70
     1
102
RTVSPost2010Prop36
280
     0
102
RTVSPost2010PropOp36
 70
     1
102
RTVSPost2010Prop37
 90
       50
102
RTVSPost2010PropOp37
 70
     1
102
RTVSPost2010Prop38
140
0.0
102
RTVSPost2010PropOp38
 70
     1
102
RTVSPost2010Prop39
140
1.0
102
RTVSPost2010PropOp39
 70
     1
102
RTVSPost2010Prop40
 90
        0
102
RTVSPost2010PropOp40
 70
     1
102
RTVSPost2010Prop41ColorIndex
 90
       18
102
RTVSPost2010Prop41ColorRGB
 90
        0
102
RTVSPost2010PropOp41
 70
     1
102
RTVSPost2010Prop42
 90
       50
102
RTVSPost2010PropOp42
 70
     1
102
RTVSPost2010Prop43
 90
        3
102
RTVSPost2010PropOp43
 70
     1
102
RTVSPost2010Prop44ColorIndex
 90
        5
102
RTVSPost2010Prop44ColorRGB
 90
      255
102
RTVSPost2010PropOp44
 70
     1
102
RTVSPost2010Prop45
280
     0
102
RTVSPost2010PropOp45
 70
     1
102
RTVSPost2010Prop46
 90
       50
102
RTVSPost2010PropOp46
 70
     1
102
RTVSPost2010Prop47
 90
       50
102
RTVSPost2010PropOp47
 70
     1
102
RTVSPost2010Prop48
 90
       50
102
RTVSPost2010PropOp48
 70
     1
102
RTVSPost2010Prop49
280
     0
102
RTVSPost2010PropOp49
 70
     1
102
RTVSPost2010Prop50
 90
       50
102
RTVSPost2010PropOp50
 70
     1
102
RTVSPost2010Prop51ColorIndex
 90
      256
102
RTVSPost2010Prop51ColorRGB
 90
-16777216
102
RTVSPost2010PropOp51
 70
     0
102
RTVSPost2010Prop52
140
1.0
102
RTVSPost2010PropOp52
 70
     0
102
RTVSPost2010Prop53
 90
        2
102
RTVSPost2010PropOp53
 70
     1
102
RTVSPost2010Prop54
  1
strokes_ogs.tif
102
RTVSPost2010PropOp54
 70
     1
102
RTVSPost2010Prop55
280
     0
102
RTVSPost2010PropOp55
 70
     1
102
RTVSPost2010Prop56
140
1.0
102
RTVSPost2010PropOp56
 70
     1
102
RTVSPost2010Prop57
140
1.0
102
RTVSPost2010PropOp57
 70
     1
102
RTVSPropertyOp0
 70
     1
102
RTVSPropertyOp1
 70
     1
102
RTVSPropertyOp2
 70
     1
102
RTVSPropertyOp3
 70
     1
102
RTVSPropertyOp4
 70
     1
102
RTVSPropertyOp5
 70
     1
102
RTVSPropertyOp6
 70
     1
102
RTVSPropertyOp7
 70
     1
102
RTVSPropertyOp8
 70
     1
102
RTVSPropertyOp9
 70
     1
102
RTVSPropertyOp10
 70
     1
102
RTVSPropertyOp11
 70
     1
102
RTVSPropertyOp12
 70
     1
102
RTVSPropertyOp13
 70
     1
102
RTVSPropertyOp14
 70
     1
102
RTVSPropertyOp15
 70
     1
102
RTVSPropertyOp16
 70
     1
102
RTVSPropertyOp17
 70
     1
102
RTVSPropertyOp18
 70
     1
102
RTVSPropertyOp19
 70
     1
102
RTVSPropertyOp20
 70
     1
102
RTVSPropertyOp21
 70
     1
102
RTVSPropertyOp22
 70
     1
102
RTVSPropertyOp23
 70
     1
102
RTVSPropertyOp24
 70
     1
102
RTVSPropertyOp25
 70
     1
102
RTVSPropertyOp26
 70
     1
102
RTVSPropertyOp27
 70
     1
102
RTVSPropertyOp28
 70
     1
102
RTVSPropertyOp29
 70
     1
102
RTVSPropertyOp30
 70
     1
102
RTVSPropertyOp31
 70
     1
102
RTVSPropertyOp32
 70
     1
102
RTVSPropertyOp33
 70
     1
102
RTVSPropertyOp34
 70
     1
102
RTVSPropertyOp35
 70
     1
102
RTVSPropertyOp36
 70
     1
102
RTVSPropertyOp37
 70
     1
102
RTVSPropertyOp38
 70
     1
102
RTVSPropertyOp39
 70
     1
102
RTVSPropertyOp40
 70
     1
102
RTVSPropertyOp41
 70
     1
102
RTVSPropertyOp42
 70
     1
102
RTVSPropertyOp43
 70
     1
102
RTVSPropertyOp44
 70
     1
102
RTVSPropertyOp45
 70
     1
102
RTVSPropertyOp46
 70
     1
102
RTVSPropertyOp47
 70
     1
102
RTVSPropertyOp48
 70
     1
102
RTVSPropertyOp49
 70
     1
102
RTVSPropertyOp50
 70
     1
102
RTVSPropertyOp51
 70
     0
102
RTVSPropertyOp52
 70
     0
102
RTVSPropertyOp53
 70
     1
102
RTVSPropertyOp54
 70
     1
102
RTVSPropertyOp55
 70
     1
102
RTVSPropertyOp56
 70
     1
102
RTVSPropertyOp57
 70
     1
102
RTVSPropertyOp58
 70
     1
102
RTVSPropertyOp59
 70
     1
102
RTVSPropertyOp60
 70
     1
102
RTVSPropertyOp61
 70
     1
102
RTVSPropertyOp62
 70
     1
  0
XRECORD
  5
656
102
{ACAD_REACTORS
330
655
102
}
330
655
100
AcDbXrecord
280
     1
102
RTVSPost2010Prop28
280
     0
102
RTVSPost2010PropOp28
 70
     1
102
RTVSPost2010Prop29
280
     1
102
RTVSPost2010PropOp29
 70
     1
102
RTVSPost2010Prop30
280
     1
102
RTVSPost2010PropOp30
 70
     1
102
RTVSPost2010Prop31
280
     0
102
RTVSPost2010PropOp31
 70
     1
102
RTVSPost2010Prop32
280
     0
102
RTVSPost2010PropOp32
 70
     1
102
RTVSPost2010Prop33
280
     0
102
RTVSPost2010PropOp33
 70
     1
102
RTVSPost2010Prop34
280
     0
102
RTVSPost2010PropOp34
 70
     1
102
RTVSPost2010Prop35
280
     0
102
RTVSPost2010PropOp35
 70
     1
102
RTVSPost2010Prop36
280
     0
102
RTVSPost2010PropOp36
 70
     1
102
RTVSPost2010Prop37
 90
       50
102
RTVSPost2010PropOp37
 70
     0
102
RTVSPost2010Prop38
140
0.0
102
RTVSPost2010PropOp38
 70
     0
102
RTVSPost2010Prop39
140
1.0
102
RTVSPost2010PropOp39
 70
     0
102
RTVSPost2010Prop40
 90
        0
102
RTVSPost2010PropOp40
 70
     0
102
RTVSPost2010Prop41ColorIndex
 90
       18
102
RTVSPost2010Prop41ColorRGB
 90
        0
102
RTVSPost2010PropOp41
 70
     0
102
RTVSPost2010Prop42
 90
       50
102
RTVSPost2010PropOp42
 70
     0
102
RTVSPost2010Prop43
 90
        3
102
RTVSPost2010PropOp43
 70
     0
102
RTVSPost2010Prop44ColorIndex
 90
        5
102
RTVSPost2010Prop44ColorRGB
 90
      255
102
RTVSPost2010PropOp44
 70
     0
102
RTVSPost2010Prop45
280
     0
102
RTVSPost2010PropOp45
 70
     1
102
RTVSPost2010Prop46
 90
       50
102
RTVSPost2010PropOp46
 70
     0
102
RTVSPost2010Prop47
 90
       50
102
RTVSPost2010PropOp47
 70
     0
102
RTVSPost2010Prop48
 90
       50
102
RTVSPost2010PropOp48
 70
     0
102
RTVSPost2010Prop49
280
     0
102
RTVSPost2010PropOp49
 70
     1
102
RTVSPost2010Prop50
 90
       50
102
RTVSPost2010PropOp50
 70
     0
102
RTVSPost2010Prop51ColorIndex
 90
      256
102
RTVSPost2010Prop51ColorRGB
 90
-16777216
102
RTVSPost2010PropOp51
 70
     0
102
RTVSPost2010Prop52
140
1.0
102
RTVSPost2010PropOp52
 70
     0
102
RTVSPost2010Prop53
 90
        2
102
RTVSPost2010PropOp53
 70
     0
102
RTVSPost2010Prop54
  1
strokes_ogs.tif
102
RTVSPost2010PropOp54
 70
     0
102
RTVSPost2010Prop55
280
     0
102
RTVSPost2010PropOp55
 70
     1
102
RTVSPost2010Prop56
140
1.0
102
RTVSPost2010PropOp56
 70
     0
102
RTVSPost2010Prop57
140
1.0
102
RTVSPost2010PropOp57
 70
     0
102
RTVSPropertyOp0
 70
     0
102
RTVSPropertyOp1
 70
     0
102
RTVSPropertyOp2
 70
     0
102
RTVSPropertyOp3
 70
     0
102
RTVSPropertyOp4
 70
     0
102
RTVSPropertyOp5
 70
     0
102
RTVSPropertyOp6
 70
     0
102
RTVSPropertyOp7
 70
     0
102
RTVSPropertyOp8
 70
     0
102
RTVSPropertyOp9
 70
     0
102
RTVSPropertyOp10
 70
     0
102
RTVSPropertyOp11
 70
     0
102
RTVSPropertyOp12
 70
     0
102
RTVSPropertyOp13
 70
     0
102
RTVSPropertyOp14
 70
     2
102
RTVSPropertyOp15
 70
     0
102
RTVSPropertyOp16
 70
     0
102
RTVSPropertyOp17
 70
     0
102
RTVSPropertyOp18
 70
     0
102
RTVSPropertyOp19
 70
     0
102
RTVSPropertyOp20
 70
     0
102
RTVSPropertyOp21
 70
     0
102
RTVSPropertyOp22
 70
     0
102
RTVSPropertyOp23
 70
     0
102
RTVSPropertyOp24
 70
     0
102
RTVSPropertyOp25
 70
     0
102
RTVSPropertyOp26
 70
     0
102
RTVSPropertyOp27
 70
     0
102
RTVSPropertyOp28
 70
     1
102
RTVSPropertyOp29
 70
     1
102
RTVSPropertyOp30
 70
     1
102
RTVSPropertyOp31
 70
     1
102
RTVSPropertyOp32
 70
     1
102
RTVSPropertyOp33
 70
     1
102
RTVSPropertyOp34
 70
     1
102
RTVSPropertyOp35
 70
     1
102
RTVSPropertyOp36
 70
     1
102
RTVSPropertyOp37
 70
     0
102
RTVSPropertyOp38
 70
     0
102
RTVSPropertyOp39
 70
     0
102
RTVSPropertyOp40
 70
     0
102
RTVSPropertyOp41
 70
     0
102
RTVSPropertyOp42
 70
     0
102
RTVSPropertyOp43
 70
     0
102
RTVSPropertyOp44
 70
     0
102
RTVSPropertyOp45
 70
     1
102
RTVSPropertyOp46
 70
     0
102
RTVSPropertyOp47
 70
     0
102
RTVSPropertyOp48
 70
     0
102
RTVSPropertyOp49
 70
     1
102
RTVSPropertyOp50
 70
     0
102
RTVSPropertyOp51
 70
     0
102
RTVSPropertyOp52
 70
     0
102
RTVSPropertyOp53
 70
     0
102
RTVSPropertyOp54
 70
     0
102
RTVSPropertyOp55
 70
     1
102
RTVSPropertyOp56
 70
     0
102
RTVSPropertyOp57
 70
     0
102
RTVSPropertyOp58
 70
     0
102
RTVSPropertyOp59
 70
     0
102
RTVSPropertyOp60
 70
     0
102
RTVSPropertyOp61
 70
     0
102
RTVSPropertyOp62
 70
     0
  0
XRECORD
  5
63C
102
{ACAD_REACTORS
330
63B
102
}
330
63B
100
AcDbXrecord
280
     1
102
RTVSPost2010Prop28
280
     0
102
RTVSPost2010PropOp28
 70
     1
102
RTVSPost2010Prop29
280
     1
102
RTVSPost2010PropOp29
 70
     1
102
RTVSPost2010Prop30
280
     1
102
RTVSPost2010PropOp30
 70
     1
102
RTVSPost2010Prop31
280
     0
102
RTVSPost2010PropOp31
 70
     1
102
RTVSPost2010Prop32
280
     0
102
RTVSPost2010PropOp32
 70
     1
102
RTVSPost2010Prop33
280
     0
102
RTVSPost2010PropOp33
 70
     1
102
RTVSPost2010Prop34
280
     0
102
RTVSPost2010PropOp34
 70
     1
102
RTVSPost2010Prop35
280
     0
102
RTVSPost2010PropOp35
 70
     1
102
RTVSPost2010Prop36
280
     0
102
RTVSPost2010PropOp36
 70
     1
102
RTVSPost2010Prop37
 90
       50
102
RTVSPost2010PropOp37
 70
     1
102
RTVSPost2010Prop38
140
0.0
102
RTVSPost2010PropOp38
 70
     1
102
RTVSPost2010Prop39
140
1.0
102
RTVSPost2010PropOp39
 70
     1
102
RTVSPost2010Prop40
 90
        0
102
RTVSPost2010PropOp40
 70
     1
102
RTVSPost2010Prop41ColorIndex
 90
       18
102
RTVSPost2010Prop41ColorRGB
 90
        0
102
RTVSPost2010PropOp41
 70
     1
102
RTVSPost2010Prop42
 90
       50
102
RTVSPost2010PropOp42
 70
     1
102
RTVSPost2010Prop43
 90
        3
102
RTVSPost2010PropOp43
 70
     1
102
RTVSPost2010Prop44ColorIndex
 90
        5
102
RTVSPost2010Prop44ColorRGB
 90
      255
102
RTVSPost2010PropOp44
 70
     1
102
RTVSPost2010Prop45
280
     0
102
RTVSPost2010PropOp45
 70
     1
102
RTVSPost2010Prop46
 90
       50
102
RTVSPost2010PropOp46
 70
     1
102
RTVSPost2010Prop47
 90
       50
102
RTVSPost2010PropOp47
 70
     1
102
RTVSPost2010Prop48
 90
       50
102
RTVSPost2010PropOp48
 70
     1
102
RTVSPost2010Prop49
280
     0
102
RTVSPost2010PropOp49
 70
     1
102
RTVSPost2010Prop50
 90
       50
102
RTVSPost2010PropOp50
 70
     1
102
RTVSPost2010Prop51ColorIndex
 90
      256
102
RTVSPost2010Prop51ColorRGB
 90
-16777216
102
RTVSPost2010PropOp51
 70
     0
102
RTVSPost2010Prop52
140
1.0
102
RTVSPost2010PropOp52
 70
     0
102
RTVSPost2010Prop53
 90
        2
102
RTVSPost2010PropOp53
 70
     1
102
RTVSPost2010Prop54
  1
strokes_ogs.tif
102
RTVSPost2010PropOp54
 70
     1
102
RTVSPost2010Prop55
280
     0
102
RTVSPost2010PropOp55
 70
     1
102
RTVSPost2010Prop56
140
1.0
102
RTVSPost2010PropOp56
 70
     1
102
RTVSPost2010Prop57
140
1.0
102
RTVSPost2010PropOp57
 70
     1
102
RTVSPropertyOp0
 70
     1
102
RTVSPropertyOp1
 70
     1
102
RTVSPropertyOp2
 70
     1
102
RTVSPropertyOp3
 70
     1
102
RTVSPropertyOp4
 70
     1
102
RTVSPropertyOp5
 70
     1
102
RTVSPropertyOp6
 70
     1
102
RTVSPropertyOp7
 70
     1
102
RTVSPropertyOp8
 70
     1
102
RTVSPropertyOp9
 70
     1
102
RTVSPropertyOp10
 70
     1
102
RTVSPropertyOp11
 70
     1
102
RTVSPropertyOp12
 70
     1
102
RTVSPropertyOp13
 70
     1
102
RTVSPropertyOp14
 70
     1
102
RTVSPropertyOp15
 70
     1
102
RTVSPropertyOp16
 70
     1
102
RTVSPropertyOp17
 70
     1
102
RTVSPropertyOp18
 70
     1
102
RTVSPropertyOp19
 70
     1
102
RTVSPropertyOp20
 70
     1
102
RTVSPropertyOp21
 70
     1
102
RTVSPropertyOp22
 70
     1
102
RTVSPropertyOp23
 70
     1
102
RTVSPropertyOp24
 70
     1
102
RTVSPropertyOp25
 70
     1
102
RTVSPropertyOp26
 70
     1
102
RTVSPropertyOp27
 70
     1
102
RTVSPropertyOp28
 70
     1
102
RTVSPropertyOp29
 70
     1
102
RTVSPropertyOp30
 70
     1
102
RTVSPropertyOp31
 70
     1
102
RTVSPropertyOp32
 70
     1
102
RTVSPropertyOp33
 70
     1
102
RTVSPropertyOp34
 70
     1
102
RTVSPropertyOp35
 70
     1
102
RTVSPropertyOp36
 70
     1
102
RTVSPropertyOp37
 70
     1
102
RTVSPropertyOp38
 70
     1
102
RTVSPropertyOp39
 70
     1
102
RTVSPropertyOp40
 70
     1
102
RTVSPropertyOp41
 70
     1
102
RTVSPropertyOp42
 70
     1
102
RTVSPropertyOp43
 70
     1
102
RTVSPropertyOp44
 70
     1
102
RTVSPropertyOp45
 70
     1
102
RTVSPropertyOp46
 70
     1
102
RTVSPropertyOp47
 70
     1
102
RTVSPropertyOp48
 70
     1
102
RTVSPropertyOp49
 70
     1
102
RTVSPropertyOp50
 70
     1
102
RTVSPropertyOp51
 70
     0
102
RTVSPropertyOp52
 70
     0
102
RTVSPropertyOp53
 70
     1
102
RTVSPropertyOp54
 70
     1
102
RTVSPropertyOp55
 70
     1
102
RTVSPropertyOp56
 70
     1
102
RTVSPropertyOp57
 70
     1
102
RTVSPropertyOp58
 70
     1
102
RTVSPropertyOp59
 70
     1
102
RTVSPropertyOp60
 70
     1
102
RTVSPropertyOp61
 70
     1
102
RTVSPropertyOp62
 70
     1
  0
XRECORD
  5
652
102
{ACAD_REACTORS
330
651
102
}
330
651
100
AcDbXrecord
280
     1
102
RTVSPost2010Prop28
280
     0
102
RTVSPost2010PropOp28
 70
     1
102
RTVSPost2010Prop29
280
     1
102
RTVSPost2010PropOp29
 70
     1
102
RTVSPost2010Prop30
280
     1
102
RTVSPost2010PropOp30
 70
     1
102
RTVSPost2010Prop31
280
     0
102
RTVSPost2010PropOp31
 70
     1
102
RTVSPost2010Prop32
280
     0
102
RTVSPost2010PropOp32
 70
     1
102
RTVSPost2010Prop33
280
     0
102
RTVSPost2010PropOp33
 70
     1
102
RTVSPost2010Prop34
280
     0
102
RTVSPost2010PropOp34
 70
     1
102
RTVSPost2010Prop35
280
     0
102
RTVSPost2010PropOp35
 70
     1
102
RTVSPost2010Prop36
280
     0
102
RTVSPost2010PropOp36
 70
     1
102
RTVSPost2010Prop37
 90
       50
102
RTVSPost2010PropOp37
 70
     1
102
RTVSPost2010Prop38
140
0.0
102
RTVSPost2010PropOp38
 70
     1
102
RTVSPost2010Prop39
140
1.0
102
RTVSPost2010PropOp39
 70
     1
102
RTVSPost2010Prop40
 90
        0
102
RTVSPost2010PropOp40
 70
     1
102
RTVSPost2010Prop41ColorIndex
 90
       18
102
RTVSPost2010Prop41ColorRGB
 90
        0
102
RTVSPost2010PropOp41
 70
     1
102
RTVSPost2010Prop42
 90
       50
102
RTVSPost2010PropOp42
 70
     1
102
RTVSPost2010Prop43
 90
        3
102
RTVSPost2010PropOp43
 70
     1
102
RTVSPost2010Prop44ColorIndex
 90
        5
102
RTVSPost2010Prop44ColorRGB
 90
      255
102
RTVSPost2010PropOp44
 70
     1
102
RTVSPost2010Prop45
280
     0
102
RTVSPost2010PropOp45
 70
     1
102
RTVSPost2010Prop46
 90
       50
102
RTVSPost2010PropOp46
 70
     1
102
RTVSPost2010Prop47
 90
       50
102
RTVSPost2010PropOp47
 70
     1
102
RTVSPost2010Prop48
 90
       50
102
RTVSPost2010PropOp48
 70
     1
102
RTVSPost2010Prop49
280
     0
102
RTVSPost2010PropOp49
 70
     1
102
RTVSPost2010Prop50
 90
       50
102
RTVSPost2010PropOp50
 70
     1
102
RTVSPost2010Prop51ColorIndex
 90
      256
102
RTVSPost2010Prop51ColorRGB
 90
-16777216
102
RTVSPost2010PropOp51
 70
     0
102
RTVSPost2010Prop52
140
1.0
102
RTVSPost2010PropOp52
 70
     0
102
RTVSPost2010Prop53
 90
        2
102
RTVSPost2010PropOp53
 70
     1
102
RTVSPost2010Prop54
  1
strokes_ogs.tif
102
RTVSPost2010PropOp54
 70
     1
102
RTVSPost2010Prop55
280
     0
102
RTVSPost2010PropOp55
 70
     1
102
RTVSPost2010Prop56
140
1.0
102
RTVSPost2010PropOp56
 70
     1
102
RTVSPost2010Prop57
140
1.0
102
RTVSPost2010PropOp57
 70
     1
102
RTVSPropertyOp0
 70
     1
102
RTVSPropertyOp1
 70
     1
102
RTVSPropertyOp2
 70
     1
102
RTVSPropertyOp3
 70
     1
102
RTVSPropertyOp4
 70
     1
102
RTVSPropertyOp5
 70
     1
102
RTVSPropertyOp6
 70
     1
102
RTVSPropertyOp7
 70
     1
102
RTVSPropertyOp8
 70
     1
102
RTVSPropertyOp9
 70
     1
102
RTVSPropertyOp10
 70
     1
102
RTVSPropertyOp11
 70
     1
102
RTVSPropertyOp12
 70
     1
102
RTVSPropertyOp13
 70
     1
102
RTVSPropertyOp14
 70
     1
102
RTVSPropertyOp15
 70
     1
102
RTVSPropertyOp16
 70
     1
102
RTVSPropertyOp17
 70
     1
102
RTVSPropertyOp18
 70
     1
102
RTVSPropertyOp19
 70
     1
102
RTVSPropertyOp20
 70
     1
102
RTVSPropertyOp21
 70
     1
102
RTVSPropertyOp22
 70
     1
102
RTVSPropertyOp23
 70
     1
102
RTVSPropertyOp24
 70
     1
102
RTVSPropertyOp25
 70
     1
102
RTVSPropertyOp26
 70
     1
102
RTVSPropertyOp27
 70
     1
102
RTVSPropertyOp28
 70
     1
102
RTVSPropertyOp29
 70
     1
102
RTVSPropertyOp30
 70
     1
102
RTVSPropertyOp31
 70
     1
102
RTVSPropertyOp32
 70
     1
102
RTVSPropertyOp33
 70
     1
102
RTVSPropertyOp34
 70
     1
102
RTVSPropertyOp35
 70
     1
102
RTVSPropertyOp36
 70
     1
102
RTVSPropertyOp37
 70
     1
102
RTVSPropertyOp38
 70
     1
102
RTVSPropertyOp39
 70
     1
102
RTVSPropertyOp40
 70
     1
102
RTVSPropertyOp41
 70
     1
102
RTVSPropertyOp42
 70
     1
102
RTVSPropertyOp43
 70
     1
102
RTVSPropertyOp44
 70
     1
102
RTVSPropertyOp45
 70
     1
102
RTVSPropertyOp46
 70
     1
102
RTVSPropertyOp47
 70
     1
102
RTVSPropertyOp48
 70
     1
102
RTVSPropertyOp49
 70
     1
102
RTVSPropertyOp50
 70
     1
102
RTVSPropertyOp51
 70
     0
102
RTVSPropertyOp52
 70
     0
102
RTVSPropertyOp53
 70
     1
102
RTVSPropertyOp54
 70
     1
102
RTVSPropertyOp55
 70
     1
102
RTVSPropertyOp56
 70
     1
102
RTVSPropertyOp57
 70
     1
102
RTVSPropertyOp58
 70
     1
102
RTVSPropertyOp59
 70
     1
102
RTVSPropertyOp60
 70
     1
102
RTVSPropertyOp61
 70
     1
102
RTVSPropertyOp62
 70
     1
  0
XRECORD
  5
650
102
{ACAD_REACTORS
330
64F
102
}
330
64F
100
AcDbXrecord
280
     1
102
RTVSPost2010Prop28
280
     0
102
RTVSPost2010PropOp28
 70
     1
102
RTVSPost2010Prop29
280
     1
102
RTVSPost2010PropOp29
 70
     1
102
RTVSPost2010Prop30
280
     1
102
RTVSPost2010PropOp30
 70
     1
102
RTVSPost2010Prop31
280
     0
102
RTVSPost2010PropOp31
 70
     1
102
RTVSPost2010Prop32
280
     0
102
RTVSPost2010PropOp32
 70
     1
102
RTVSPost2010Prop33
280
     0
102
RTVSPost2010PropOp33
 70
     1
102
RTVSPost2010Prop34
280
     0
102
RTVSPost2010PropOp34
 70
     1
102
RTVSPost2010Prop35
280
     0
102
RTVSPost2010PropOp35
 70
     1
102
RTVSPost2010Prop36
280
     0
102
RTVSPost2010PropOp36
 70
     1
102
RTVSPost2010Prop37
 90
       50
102
RTVSPost2010PropOp37
 70
     1
102
RTVSPost2010Prop38
140
0.0
102
RTVSPost2010PropOp38
 70
     1
102
RTVSPost2010Prop39
140
1.0
102
RTVSPost2010PropOp39
 70
     1
102
RTVSPost2010Prop40
 90
        0
102
RTVSPost2010PropOp40
 70
     1
102
RTVSPost2010Prop41ColorIndex
 90
       18
102
RTVSPost2010Prop41ColorRGB
 90
        0
102
RTVSPost2010PropOp41
 70
     1
102
RTVSPost2010Prop42
 90
       50
102
RTVSPost2010PropOp42
 70
     1
102
RTVSPost2010Prop43
 90
        3
102
RTVSPost2010PropOp43
 70
     1
102
RTVSPost2010Prop44ColorIndex
 90
        5
102
RTVSPost2010Prop44ColorRGB
 90
      255
102
RTVSPost2010PropOp44
 70
     1
102
RTVSPost2010Prop45
280
     0
102
RTVSPost2010PropOp45
 70
     1
102
RTVSPost2010Prop46
 90
       50
102
RTVSPost2010PropOp46
 70
     1
102
RTVSPost2010Prop47
 90
       50
102
RTVSPost2010PropOp47
 70
     1
102
RTVSPost2010Prop48
 90
       50
102
RTVSPost2010PropOp48
 70
     1
102
RTVSPost2010Prop49
280
     0
102
RTVSPost2010PropOp49
 70
     1
102
RTVSPost2010Prop50
 90
       50
102
RTVSPost2010PropOp50
 70
     1
102
RTVSPost2010Prop51ColorIndex
 90
      256
102
RTVSPost2010Prop51ColorRGB
 90
-16777216
102
RTVSPost2010PropOp51
 70
     0
102
RTVSPost2010Prop52
140
1.0
102
RTVSPost2010PropOp52
 70
     0
102
RTVSPost2010Prop53
 90
        2
102
RTVSPost2010PropOp53
 70
     1
102
RTVSPost2010Prop54
  1
strokes_ogs.tif
102
RTVSPost2010PropOp54
 70
     1
102
RTVSPost2010Prop55
280
     0
102
RTVSPost2010PropOp55
 70
     1
102
RTVSPost2010Prop56
140
1.0
102
RTVSPost2010PropOp56
 70
     1
102
RTVSPost2010Prop57
140
1.0
102
RTVSPost2010PropOp57
 70
     1
102
RTVSPropertyOp0
 70
     1
102
RTVSPropertyOp1
 70
     1
102
RTVSPropertyOp2
 70
     1
102
RTVSPropertyOp3
 70
     1
102
RTVSPropertyOp4
 70
     1
102
RTVSPropertyOp5
 70
     1
102
RTVSPropertyOp6
 70
     1
102
RTVSPropertyOp7
 70
     1
102
RTVSPropertyOp8
 70
     1
102
RTVSPropertyOp9
 70
     1
102
RTVSPropertyOp10
 70
     1
102
RTVSPropertyOp11
 70
     1
102
RTVSPropertyOp12
 70
     1
102
RTVSPropertyOp13
 70
     1
102
RTVSPropertyOp14
 70
     1
102
RTVSPropertyOp15
 70
     1
102
RTVSPropertyOp16
 70
     1
102
RTVSPropertyOp17
 70
     1
102
RTVSPropertyOp18
 70
     1
102
RTVSPropertyOp19
 70
     1
102
RTVSPropertyOp20
 70
     1
102
RTVSPropertyOp21
 70
     1
102
RTVSPropertyOp22
 70
     1
102
RTVSPropertyOp23
 70
     1
102
RTVSPropertyOp24
 70
     1
102
RTVSPropertyOp25
 70
     1
102
RTVSPropertyOp26
 70
     1
102
RTVSPropertyOp27
 70
     1
102
RTVSPropertyOp28
 70
     1
102
RTVSPropertyOp29
 70
     1
102
RTVSPropertyOp30
 70
     1
102
RTVSPropertyOp31
 70
     1
102
RTVSPropertyOp32
 70
     1
102
RTVSPropertyOp33
 70
     1
102
RTVSPropertyOp34
 70
     1
102
RTVSPropertyOp35
 70
     1
102
RTVSPropertyOp36
 70
     1
102
RTVSPropertyOp37
 70
     1
102
RTVSPropertyOp38
 70
     1
102
RTVSPropertyOp39
 70
     1
102
RTVSPropertyOp40
 70
     1
102
RTVSPropertyOp41
 70
     1
102
RTVSPropertyOp42
 70
     1
102
RTVSPropertyOp43
 70
     1
102
RTVSPropertyOp44
 70
     1
102
RTVSPropertyOp45
 70
     1
102
RTVSPropertyOp46
 70
     1
102
RTVSPropertyOp47
 70
     1
102
RTVSPropertyOp48
 70
     1
102
RTVSPropertyOp49
 70
     1
102
RTVSPropertyOp50
 70
     1
102
RTVSPropertyOp51
 70
     0
102
RTVSPropertyOp52
 70
     0
102
RTVSPropertyOp53
 70
     1
102
RTVSPropertyOp54
 70
     1
102
RTVSPropertyOp55
 70
     1
102
RTVSPropertyOp56
 70
     1
102
RTVSPropertyOp57
 70
     1
102
RTVSPropertyOp58
 70
     1
102
RTVSPropertyOp59
 70
     1
102
RTVSPropertyOp60
 70
     1
102
RTVSPropertyOp61
 70
     1
102
RTVSPropertyOp62
 70
     1
  0
XRECORD
  5
64A
102
{ACAD_REACTORS
330
649
102
}
330
649
100
AcDbXrecord
280
     1
102
RTVSPost2010Prop28
280
     0
102
RTVSPost2010PropOp28
 70
     1
102
RTVSPost2010Prop29
280
     1
102
RTVSPost2010PropOp29
 70
     1
102
RTVSPost2010Prop30
280
     1
102
RTVSPost2010PropOp30
 70
     1
102
RTVSPost2010Prop31
280
     0
102
RTVSPost2010PropOp31
 70
     1
102
RTVSPost2010Prop32
280
     0
102
RTVSPost2010PropOp32
 70
     1
102
RTVSPost2010Prop33
280
     0
102
RTVSPost2010PropOp33
 70
     1
102
RTVSPost2010Prop34
280
     0
102
RTVSPost2010PropOp34
 70
     1
102
RTVSPost2010Prop35
280
     0
102
RTVSPost2010PropOp35
 70
     1
102
RTVSPost2010Prop36
280
     0
102
RTVSPost2010PropOp36
 70
     1
102
RTVSPost2010Prop37
 90
       50
102
RTVSPost2010PropOp37
 70
     1
102
RTVSPost2010Prop38
140
0.0
102
RTVSPost2010PropOp38
 70
     1
102
RTVSPost2010Prop39
140
1.0
102
RTVSPost2010PropOp39
 70
     1
102
RTVSPost2010Prop40
 90
        0
102
RTVSPost2010PropOp40
 70
     1
102
RTVSPost2010Prop41ColorIndex
 90
       18
102
RTVSPost2010Prop41ColorRGB
 90
        0
102
RTVSPost2010PropOp41
 70
     1
102
RTVSPost2010Prop42
 90
       50
102
RTVSPost2010PropOp42
 70
     1
102
RTVSPost2010Prop43
 90
        3
102
RTVSPost2010PropOp43
 70
     1
102
RTVSPost2010Prop44ColorIndex
 90
        5
102
RTVSPost2010Prop44ColorRGB
 90
      255
102
RTVSPost2010PropOp44
 70
     1
102
RTVSPost2010Prop45
280
     0
102
RTVSPost2010PropOp45
 70
     1
102
RTVSPost2010Prop46
 90
       50
102
RTVSPost2010PropOp46
 70
     1
102
RTVSPost2010Prop47
 90
       50
102
RTVSPost2010PropOp47
 70
     1
102
RTVSPost2010Prop48
 90
       50
102
RTVSPost2010PropOp48
 70
     1
102
RTVSPost2010Prop49
280
     0
102
RTVSPost2010PropOp49
 70
     1
102
RTVSPost2010Prop50
 90
       50
102
RTVSPost2010PropOp50
 70
     1
102
RTVSPost2010Prop51ColorIndex
 90
      256
102
RTVSPost2010Prop51ColorRGB
 90
-16777216
102
RTVSPost2010PropOp51
 70
     0
102
RTVSPost2010Prop52
140
1.0
102
RTVSPost2010PropOp52
 70
     0
102
RTVSPost2010Prop53
 90
        2
102
RTVSPost2010PropOp53
 70
     1
102
RTVSPost2010Prop54
  1
strokes_ogs.tif
102
RTVSPost2010PropOp54
 70
     1
102
RTVSPost2010Prop55
280
     0
102
RTVSPost2010PropOp55
 70
     1
102
RTVSPost2010Prop56
140
1.0
102
RTVSPost2010PropOp56
 70
     1
102
RTVSPost2010Prop57
140
1.0
102
RTVSPost2010PropOp57
 70
     1
102
RTVSPropertyOp0
 70
     1
102
RTVSPropertyOp1
 70
     1
102
RTVSPropertyOp2
 70
     1
102
RTVSPropertyOp3
 70
     1
102
RTVSPropertyOp4
 70
     1
102
RTVSPropertyOp5
 70
     1
102
RTVSPropertyOp6
 70
     1
102
RTVSPropertyOp7
 70
     1
102
RTVSPropertyOp8
 70
     1
102
RTVSPropertyOp9
 70
     1
102
RTVSPropertyOp10
 70
     1
102
RTVSPropertyOp11
 70
     1
102
RTVSPropertyOp12
 70
     1
102
RTVSPropertyOp13
 70
     1
102
RTVSPropertyOp14
 70
     1
102
RTVSPropertyOp15
 70
     1
102
RTVSPropertyOp16
 70
     1
102
RTVSPropertyOp17
 70
     1
102
RTVSPropertyOp18
 70
     1
102
RTVSPropertyOp19
 70
     1
102
RTVSPropertyOp20
 70
     1
102
RTVSPropertyOp21
 70
     1
102
RTVSPropertyOp22
 70
     1
102
RTVSPropertyOp23
 70
     1
102
RTVSPropertyOp24
 70
     1
102
RTVSPropertyOp25
 70
     1
102
RTVSPropertyOp26
 70
     1
102
RTVSPropertyOp27
 70
     1
102
RTVSPropertyOp28
 70
     1
102
RTVSPropertyOp29
 70
     1
102
RTVSPropertyOp30
 70
     1
102
RTVSPropertyOp31
 70
     1
102
RTVSPropertyOp32
 70
     1
102
RTVSPropertyOp33
 70
     1
102
RTVSPropertyOp34
 70
     1
102
RTVSPropertyOp35
 70
     1
102
RTVSPropertyOp36
 70
     1
102
RTVSPropertyOp37
 70
     1
102
RTVSPropertyOp38
 70
     1
102
RTVSPropertyOp39
 70
     1
102
RTVSPropertyOp40
 70
     1
102
RTVSPropertyOp41
 70
     1
102
RTVSPropertyOp42
 70
     1
102
RTVSPropertyOp43
 70
     1
102
RTVSPropertyOp44
 70
     1
102
RTVSPropertyOp45
 70
     1
102
RTVSPropertyOp46
 70
     1
102
RTVSPropertyOp47
 70
     1
102
RTVSPropertyOp48
 70
     1
102
RTVSPropertyOp49
 70
     1
102
RTVSPropertyOp50
 70
     1
102
RTVSPropertyOp51
 70
     0
102
RTVSPropertyOp52
 70
     0
102
RTVSPropertyOp53
 70
     1
102
RTVSPropertyOp54
 70
     1
102
RTVSPropertyOp55
 70
     1
102
RTVSPropertyOp56
 70
     1
102
RTVSPropertyOp57
 70
     1
102
RTVSPropertyOp58
 70
     1
102
RTVSPropertyOp59
 70
     1
102
RTVSPropertyOp60
 70
     1
102
RTVSPropertyOp61
 70
     1
102
RTVSPropertyOp62
 70
     1
  0
XRECORD
  5
64C
102
{ACAD_REACTORS
330
64B
102
}
330
64B
100
AcDbXrecord
280
     1
102
RTVSPost2010Prop28
280
     0
102
RTVSPost2010PropOp28
 70
     1
102
RTVSPost2010Prop29
280
     1
102
RTVSPost2010PropOp29
 70
     1
102
RTVSPost2010Prop30
280
     1
102
RTVSPost2010PropOp30
 70
     1
102
RTVSPost2010Prop31
280
     0
102
RTVSPost2010PropOp31
 70
     1
102
RTVSPost2010Prop32
280
     0
102
RTVSPost2010PropOp32
 70
     1
102
RTVSPost2010Prop33
280
     0
102
RTVSPost2010PropOp33
 70
     1
102
RTVSPost2010Prop34
280
     0
102
RTVSPost2010PropOp34
 70
     1
102
RTVSPost2010Prop35
280
     0
102
RTVSPost2010PropOp35
 70
     1
102
RTVSPost2010Prop36
280
     0
102
RTVSPost2010PropOp36
 70
     1
102
RTVSPost2010Prop37
 90
       50
102
RTVSPost2010PropOp37
 70
     1
102
RTVSPost2010Prop38
140
0.0
102
RTVSPost2010PropOp38
 70
     1
102
RTVSPost2010Prop39
140
1.0
102
RTVSPost2010PropOp39
 70
     1
102
RTVSPost2010Prop40
 90
        0
102
RTVSPost2010PropOp40
 70
     1
102
RTVSPost2010Prop41ColorIndex
 90
       18
102
RTVSPost2010Prop41ColorRGB
 90
        0
102
RTVSPost2010PropOp41
 70
     1
102
RTVSPost2010Prop42
 90
       50
102
RTVSPost2010PropOp42
 70
     1
102
RTVSPost2010Prop43
 90
        3
102
RTVSPost2010PropOp43
 70
     1
102
RTVSPost2010Prop44ColorIndex
 90
        5
102
RTVSPost2010Prop44ColorRGB
 90
      255
102
RTVSPost2010PropOp44
 70
     1
102
RTVSPost2010Prop45
280
     0
102
RTVSPost2010PropOp45
 70
     1
102
RTVSPost2010Prop46
 90
       50
102
RTVSPost2010PropOp46
 70
     1
102
RTVSPost2010Prop47
 90
       50
102
RTVSPost2010PropOp47
 70
     1
102
RTVSPost2010Prop48
 90
       50
102
RTVSPost2010PropOp48
 70
     1
102
RTVSPost2010Prop49
280
     0
102
RTVSPost2010PropOp49
 70
     1
102
RTVSPost2010Prop50
 90
       50
102
RTVSPost2010PropOp50
 70
     1
102
RTVSPost2010Prop51ColorIndex
 90
      256
102
RTVSPost2010Prop51ColorRGB
 90
-16777216
102
RTVSPost2010PropOp51
 70
     0
102
RTVSPost2010Prop52
140
1.0
102
RTVSPost2010PropOp52
 70
     0
102
RTVSPost2010Prop53
 90
        2
102
RTVSPost2010PropOp53
 70
     1
102
RTVSPost2010Prop54
  1
strokes_ogs.tif
102
RTVSPost2010PropOp54
 70
     1
102
RTVSPost2010Prop55
280
     0
102
RTVSPost2010PropOp55
 70
     1
102
RTVSPost2010Prop56
140
1.0
102
RTVSPost2010PropOp56
 70
     1
102
RTVSPost2010Prop57
140
1.0
102
RTVSPost2010PropOp57
 70
     1
102
RTVSPropertyOp0
 70
     1
102
RTVSPropertyOp1
 70
     1
102
RTVSPropertyOp2
 70
     1
102
RTVSPropertyOp3
 70
     1
102
RTVSPropertyOp4
 70
     1
102
RTVSPropertyOp5
 70
     1
102
RTVSPropertyOp6
 70
     1
102
RTVSPropertyOp7
 70
     1
102
RTVSPropertyOp8
 70
     1
102
RTVSPropertyOp9
 70
     1
102
RTVSPropertyOp10
 70
     1
102
RTVSPropertyOp11
 70
     1
102
RTVSPropertyOp12
 70
     1
102
RTVSPropertyOp13
 70
     1
102
RTVSPropertyOp14
 70
     1
102
RTVSPropertyOp15
 70
     1
102
RTVSPropertyOp16
 70
     1
102
RTVSPropertyOp17
 70
     1
102
RTVSPropertyOp18
 70
     1
102
RTVSPropertyOp19
 70
     1
102
RTVSPropertyOp20
 70
     1
102
RTVSPropertyOp21
 70
     1
102
RTVSPropertyOp22
 70
     1
102
RTVSPropertyOp23
 70
     1
102
RTVSPropertyOp24
 70
     1
102
RTVSPropertyOp25
 70
     1
102
RTVSPropertyOp26
 70
     1
102
RTVSPropertyOp27
 70
     1
102
RTVSPropertyOp28
 70
     1
102
RTVSPropertyOp29
 70
     1
102
RTVSPropertyOp30
 70
     1
102
RTVSPropertyOp31
 70
     1
102
RTVSPropertyOp32
 70
     1
102
RTVSPropertyOp33
 70
     1
102
RTVSPropertyOp34
 70
     1
102
RTVSPropertyOp35
 70
     1
102
RTVSPropertyOp36
 70
     1
102
RTVSPropertyOp37
 70
     1
102
RTVSPropertyOp38
 70
     1
102
RTVSPropertyOp39
 70
     1
102
RTVSPropertyOp40
 70
     1
102
RTVSPropertyOp41
 70
     1
102
RTVSPropertyOp42
 70
     1
102
RTVSPropertyOp43
 70
     1
102
RTVSPropertyOp44
 70
     1
102
RTVSPropertyOp45
 70
     1
102
RTVSPropertyOp46
 70
     1
102
RTVSPropertyOp47
 70
     1
102
RTVSPropertyOp48
 70
     1
102
RTVSPropertyOp49
 70
     1
102
RTVSPropertyOp50
 70
     1
102
RTVSPropertyOp51
 70
     0
102
RTVSPropertyOp52
 70
     0
102
RTVSPropertyOp53
 70
     1
102
RTVSPropertyOp54
 70
     1
102
RTVSPropertyOp55
 70
     1
102
RTVSPropertyOp56
 70
     1
102
RTVSPropertyOp57
 70
     1
102
RTVSPropertyOp58
 70
     1
102
RTVSPropertyOp59
 70
     1
102
RTVSPropertyOp60
 70
     1
102
RTVSPropertyOp61
 70
     1
102
RTVSPropertyOp62
 70
     1
  0
XRECORD
  5
642
102
{ACAD_REACTORS
330
641
102
}
330
641
100
AcDbXrecord
280
     1
102
RTVSPost2010Prop28
280
     0
102
RTVSPost2010PropOp28
 70
     1
102
RTVSPost2010Prop29
280
     1
102
RTVSPost2010PropOp29
 70
     1
102
RTVSPost2010Prop30
280
     1
102
RTVSPost2010PropOp30
 70
     1
102
RTVSPost2010Prop31
280
     0
102
RTVSPost2010PropOp31
 70
     1
102
RTVSPost2010Prop32
280
     0
102
RTVSPost2010PropOp32
 70
     1
102
RTVSPost2010Prop33
280
     0
102
RTVSPost2010PropOp33
 70
     1
102
RTVSPost2010Prop34
280
     0
102
RTVSPost2010PropOp34
 70
     1
102
RTVSPost2010Prop35
280
     0
102
RTVSPost2010PropOp35
 70
     1
102
RTVSPost2010Prop36
280
     0
102
RTVSPost2010PropOp36
 70
     1
102
RTVSPost2010Prop37
 90
       50
102
RTVSPost2010PropOp37
 70
     1
102
RTVSPost2010Prop38
140
0.0
102
RTVSPost2010PropOp38
 70
     1
102
RTVSPost2010Prop39
140
1.0
102
RTVSPost2010PropOp39
 70
     1
102
RTVSPost2010Prop40
 90
        0
102
RTVSPost2010PropOp40
 70
     1
102
RTVSPost2010Prop41ColorIndex
 90
       18
102
RTVSPost2010Prop41ColorRGB
 90
        0
102
RTVSPost2010PropOp41
 70
     1
102
RTVSPost2010Prop42
 90
       50
102
RTVSPost2010PropOp42
 70
     1
102
RTVSPost2010Prop43
 90
        3
102
RTVSPost2010PropOp43
 70
     1
102
RTVSPost2010Prop44ColorIndex
 90
        5
102
RTVSPost2010Prop44ColorRGB
 90
      255
102
RTVSPost2010PropOp44
 70
     1
102
RTVSPost2010Prop45
280
     0
102
RTVSPost2010PropOp45
 70
     1
102
RTVSPost2010Prop46
 90
       50
102
RTVSPost2010PropOp46
 70
     1
102
RTVSPost2010Prop47
 90
       50
102
RTVSPost2010PropOp47
 70
     1
102
RTVSPost2010Prop48
 90
       50
102
RTVSPost2010PropOp48
 70
     1
102
RTVSPost2010Prop49
280
     0
102
RTVSPost2010PropOp49
 70
     1
102
RTVSPost2010Prop50
 90
       50
102
RTVSPost2010PropOp50
 70
     1
102
RTVSPost2010Prop51ColorIndex
 90
      256
102
RTVSPost2010Prop51ColorRGB
 90
-16777216
102
RTVSPost2010PropOp51
 70
     0
102
RTVSPost2010Prop52
140
1.0
102
RTVSPost2010PropOp52
 70
     0
102
RTVSPost2010Prop53
 90
        2
102
RTVSPost2010PropOp53
 70
     1
102
RTVSPost2010Prop54
  1
strokes_ogs.tif
102
RTVSPost2010PropOp54
 70
     1
102
RTVSPost2010Prop55
280
     0
102
RTVSPost2010PropOp55
 70
     1
102
RTVSPost2010Prop56
140
1.0
102
RTVSPost2010PropOp56
 70
     1
102
RTVSPost2010Prop57
140
1.0
102
RTVSPost2010PropOp57
 70
     1
102
RTVSPropertyOp0
 70
     1
102
RTVSPropertyOp1
 70
     1
102
RTVSPropertyOp2
 70
     1
102
RTVSPropertyOp3
 70
     1
102
RTVSPropertyOp4
 70
     1
102
RTVSPropertyOp5
 70
     1
102
RTVSPropertyOp6
 70
     1
102
RTVSPropertyOp7
 70
     1
102
RTVSPropertyOp8
 70
     1
102
RTVSPropertyOp9
 70
     1
102
RTVSPropertyOp10
 70
     1
102
RTVSPropertyOp11
 70
     1
102
RTVSPropertyOp12
 70
     1
102
RTVSPropertyOp13
 70
     1
102
RTVSPropertyOp14
 70
     1
102
RTVSPropertyOp15
 70
     1
102
RTVSPropertyOp16
 70
     1
102
RTVSPropertyOp17
 70
     1
102
RTVSPropertyOp18
 70
     1
102
RTVSPropertyOp19
 70
     1
102
RTVSPropertyOp20
 70
     1
102
RTVSPropertyOp21
 70
     1
102
RTVSPropertyOp22
 70
     1
102
RTVSPropertyOp23
 70
     1
102
RTVSPropertyOp24
 70
     1
102
RTVSPropertyOp25
 70
     1
102
RTVSPropertyOp26
 70
     1
102
RTVSPropertyOp27
 70
     1
102
RTVSPropertyOp28
 70
     1
102
RTVSPropertyOp29
 70
     1
102
RTVSPropertyOp30
 70
     1
102
RTVSPropertyOp31
 70
     1
102
RTVSPropertyOp32
 70
     1
102
RTVSPropertyOp33
 70
     1
102
RTVSPropertyOp34
 70
     1
102
RTVSPropertyOp35
 70
     1
102
RTVSPropertyOp36
 70
     1
102
RTVSPropertyOp37
 70
     1
102
RTVSPropertyOp38
 70
     1
102
RTVSPropertyOp39
 70
     1
102
RTVSPropertyOp40
 70
     1
102
RTVSPropertyOp41
 70
     1
102
RTVSPropertyOp42
 70
     1
102
RTVSPropertyOp43
 70
     1
102
RTVSPropertyOp44
 70
     1
102
RTVSPropertyOp45
 70
     1
102
RTVSPropertyOp46
 70
     1
102
RTVSPropertyOp47
 70
     1
102
RTVSPropertyOp48
 70
     1
102
RTVSPropertyOp49
 70
     1
102
RTVSPropertyOp50
 70
     1
102
RTVSPropertyOp51
 70
     0
102
RTVSPropertyOp52
 70
     0
102
RTVSPropertyOp53
 70
     1
102
RTVSPropertyOp54
 70
     1
102
RTVSPropertyOp55
 70
     1
102
RTVSPropertyOp56
 70
     1
102
RTVSPropertyOp57
 70
     1
102
RTVSPropertyOp58
 70
     1
102
RTVSPropertyOp59
 70
     1
102
RTVSPropertyOp60
 70
     1
102
RTVSPropertyOp61
 70
     1
102
RTVSPropertyOp62
 70
     1
  0
XRECORD
  5
636
102
{ACAD_REACTORS
330
635
102
}
330
635
100
AcDbXrecord
280
     1
102
RTVSPost2010Prop28
280
     0
102
RTVSPost2010PropOp28
 70
     1
102
RTVSPost2010Prop29
280
     1
102
RTVSPost2010PropOp29
 70
     1
102
RTVSPost2010Prop30
280
     1
102
RTVSPost2010PropOp30
 70
     1
102
RTVSPost2010Prop31
280
     0
102
RTVSPost2010PropOp31
 70
     1
102
RTVSPost2010Prop32
280
     0
102
RTVSPost2010PropOp32
 70
     1
102
RTVSPost2010Prop33
280
     0
102
RTVSPost2010PropOp33
 70
     1
102
RTVSPost2010Prop34
280
     0
102
RTVSPost2010PropOp34
 70
     1
102
RTVSPost2010Prop35
280
     0
102
RTVSPost2010PropOp35
 70
     1
102
RTVSPost2010Prop36
280
     0
102
RTVSPost2010PropOp36
 70
     1
102
RTVSPost2010Prop37
 90
       50
102
RTVSPost2010PropOp37
 70
     1
102
RTVSPost2010Prop38
140
0.0
102
RTVSPost2010PropOp38
 70
     1
102
RTVSPost2010Prop39
140
1.0
102
RTVSPost2010PropOp39
 70
     1
102
RTVSPost2010Prop40
 90
        0
102
RTVSPost2010PropOp40
 70
     1
102
RTVSPost2010Prop41ColorIndex
 90
       18
102
RTVSPost2010Prop41ColorRGB
 90
        0
102
RTVSPost2010PropOp41
 70
     1
102
RTVSPost2010Prop42
 90
       50
102
RTVSPost2010PropOp42
 70
     1
102
RTVSPost2010Prop43
 90
        3
102
RTVSPost2010PropOp43
 70
     1
102
RTVSPost2010Prop44ColorIndex
 90
        5
102
RTVSPost2010Prop44ColorRGB
 90
      255
102
RTVSPost2010PropOp44
 70
     1
102
RTVSPost2010Prop45
280
     0
102
RTVSPost2010PropOp45
 70
     1
102
RTVSPost2010Prop46
 90
       50
102
RTVSPost2010PropOp46
 70
     1
102
RTVSPost2010Prop47
 90
       50
102
RTVSPost2010PropOp47
 70
     1
102
RTVSPost2010Prop48
 90
       50
102
RTVSPost2010PropOp48
 70
     1
102
RTVSPost2010Prop49
280
     0
102
RTVSPost2010PropOp49
 70
     1
102
RTVSPost2010Prop50
 90
       50
102
RTVSPost2010PropOp50
 70
     1
102
RTVSPost2010Prop51ColorIndex
 90
      256
102
RTVSPost2010Prop51ColorRGB
 90
-16777216
102
RTVSPost2010PropOp51
 70
     0
102
RTVSPost2010Prop52
140
1.0
102
RTVSPost2010PropOp52
 70
     0
102
RTVSPost2010Prop53
 90
        2
102
RTVSPost2010PropOp53
 70
     1
102
RTVSPost2010Prop54
  1
strokes_ogs.tif
102
RTVSPost2010PropOp54
 70
     1
102
RTVSPost2010Prop55
280
     0
102
RTVSPost2010PropOp55
 70
     1
102
RTVSPost2010Prop56
140
1.0
102
RTVSPost2010PropOp56
 70
     1
102
RTVSPost2010Prop57
140
1.0
102
RTVSPost2010PropOp57
 70
     1
102
RTVSPropertyOp0
 70
     1
102
RTVSPropertyOp1
 70
     1
102
RTVSPropertyOp2
 70
     1
102
RTVSPropertyOp3
 70
     1
102
RTVSPropertyOp4
 70
     1
102
RTVSPropertyOp5
 70
     1
102
RTVSPropertyOp6
 70
     1
102
RTVSPropertyOp7
 70
     1
102
RTVSPropertyOp8
 70
     1
102
RTVSPropertyOp9
 70
     1
102
RTVSPropertyOp10
 70
     1
102
RTVSPropertyOp11
 70
     1
102
RTVSPropertyOp12
 70
     1
102
RTVSPropertyOp13
 70
     1
102
RTVSPropertyOp14
 70
     1
102
RTVSPropertyOp15
 70
     1
102
RTVSPropertyOp16
 70
     1
102
RTVSPropertyOp17
 70
     1
102
RTVSPropertyOp18
 70
     1
102
RTVSPropertyOp19
 70
     1
102
RTVSPropertyOp20
 70
     1
102
RTVSPropertyOp21
 70
     1
102
RTVSPropertyOp22
 70
     1
102
RTVSPropertyOp23
 70
     1
102
RTVSPropertyOp24
 70
     1
102
RTVSPropertyOp25
 70
     1
102
RTVSPropertyOp26
 70
     1
102
RTVSPropertyOp27
 70
     1
102
RTVSPropertyOp28
 70
     1
102
RTVSPropertyOp29
 70
     1
102
RTVSPropertyOp30
 70
     1
102
RTVSPropertyOp31
 70
     1
102
RTVSPropertyOp32
 70
     1
102
RTVSPropertyOp33
 70
     1
102
RTVSPropertyOp34
 70
     1
102
RTVSPropertyOp35
 70
     1
102
RTVSPropertyOp36
 70
     1
102
RTVSPropertyOp37
 70
     1
102
RTVSPropertyOp38
 70
     1
102
RTVSPropertyOp39
 70
     1
102
RTVSPropertyOp40
 70
     1
102
RTVSPropertyOp41
 70
     1
102
RTVSPropertyOp42
 70
     1
102
RTVSPropertyOp43
 70
     1
102
RTVSPropertyOp44
 70
     1
102
RTVSPropertyOp45
 70
     1
102
RTVSPropertyOp46
 70
     1
102
RTVSPropertyOp47
 70
     1
102
RTVSPropertyOp48
 70
     1
102
RTVSPropertyOp49
 70
     1
102
RTVSPropertyOp50
 70
     1
102
RTVSPropertyOp51
 70
     0
102
RTVSPropertyOp52
 70
     0
102
RTVSPropertyOp53
 70
     1
102
RTVSPropertyOp54
 70
     1
102
RTVSPropertyOp55
 70
     1
102
RTVSPropertyOp56
 70
     1
102
RTVSPropertyOp57
 70
     1
102
RTVSPropertyOp58
 70
     1
102
RTVSPropertyOp59
 70
     1
102
RTVSPropertyOp60
 70
     1
102
RTVSPropertyOp61
 70
     1
102
RTVSPropertyOp62
 70
     1
  0
XRECORD
  5
64E
102
{ACAD_REACTORS
330
64D
102
}
330
64D
100
AcDbXrecord
280
     1
102
RTVSPost2010Prop28
280
     0
102
RTVSPost2010PropOp28
 70
     1
102
RTVSPost2010Prop29
280
     1
102
RTVSPost2010PropOp29
 70
     1
102
RTVSPost2010Prop30
280
     1
102
RTVSPost2010PropOp30
 70
     1
102
RTVSPost2010Prop31
280
     0
102
RTVSPost2010PropOp31
 70
     1
102
RTVSPost2010Prop32
280
     0
102
RTVSPost2010PropOp32
 70
     1
102
RTVSPost2010Prop33
280
     0
102
RTVSPost2010PropOp33
 70
     1
102
RTVSPost2010Prop34
280
     0
102
RTVSPost2010PropOp34
 70
     1
102
RTVSPost2010Prop35
280
     0
102
RTVSPost2010PropOp35
 70
     1
102
RTVSPost2010Prop36
280
     0
102
RTVSPost2010PropOp36
 70
     1
102
RTVSPost2010Prop37
 90
       50
102
RTVSPost2010PropOp37
 70
     1
102
RTVSPost2010Prop38
140
0.0
102
RTVSPost2010PropOp38
 70
     1
102
RTVSPost2010Prop39
140
1.0
102
RTVSPost2010PropOp39
 70
     1
102
RTVSPost2010Prop40
 90
        0
102
RTVSPost2010PropOp40
 70
     1
102
RTVSPost2010Prop41ColorIndex
 90
       18
102
RTVSPost2010Prop41ColorRGB
 90
        0
102
RTVSPost2010PropOp41
 70
     1
102
RTVSPost2010Prop42
 90
       50
102
RTVSPost2010PropOp42
 70
     1
102
RTVSPost2010Prop43
 90
        3
102
RTVSPost2010PropOp43
 70
     1
102
RTVSPost2010Prop44ColorIndex
 90
        5
102
RTVSPost2010Prop44ColorRGB
 90
      255
102
RTVSPost2010PropOp44
 70
     1
102
RTVSPost2010Prop45
280
     0
102
RTVSPost2010PropOp45
 70
     1
102
RTVSPost2010Prop46
 90
       50
102
RTVSPost2010PropOp46
 70
     1
102
RTVSPost2010Prop47
 90
       50
102
RTVSPost2010PropOp47
 70
     1
102
RTVSPost2010Prop48
 90
       50
102
RTVSPost2010PropOp48
 70
     1
102
RTVSPost2010Prop49
280
     0
102
RTVSPost2010PropOp49
 70
     1
102
RTVSPost2010Prop50
 90
       50
102
RTVSPost2010PropOp50
 70
     1
102
RTVSPost2010Prop51ColorIndex
 90
      256
102
RTVSPost2010Prop51ColorRGB
 90
-16777216
102
RTVSPost2010PropOp51
 70
     0
102
RTVSPost2010Prop52
140
1.0
102
RTVSPost2010PropOp52
 70
     0
102
RTVSPost2010Prop53
 90
        2
102
RTVSPost2010PropOp53
 70
     1
102
RTVSPost2010Prop54
  1
strokes_ogs.tif
102
RTVSPost2010PropOp54
 70
     1
102
RTVSPost2010Prop55
280
     0
102
RTVSPost2010PropOp55
 70
     1
102
RTVSPost2010Prop56
140
1.0
102
RTVSPost2010PropOp56
 70
     1
102
RTVSPost2010Prop57
140
1.0
102
RTVSPost2010PropOp57
 70
     1
102
RTVSPropertyOp0
 70
     1
102
RTVSPropertyOp1
 70
     1
102
RTVSPropertyOp2
 70
     1
102
RTVSPropertyOp3
 70
     1
102
RTVSPropertyOp4
 70
     1
102
RTVSPropertyOp5
 70
     1
102
RTVSPropertyOp6
 70
     1
102
RTVSPropertyOp7
 70
     1
102
RTVSPropertyOp8
 70
     1
102
RTVSPropertyOp9
 70
     1
102
RTVSPropertyOp10
 70
     1
102
RTVSPropertyOp11
 70
     1
102
RTVSPropertyOp12
 70
     1
102
RTVSPropertyOp13
 70
     1
102
RTVSPropertyOp14
 70
     1
102
RTVSPropertyOp15
 70
     1
102
RTVSPropertyOp16
 70
     1
102
RTVSPropertyOp17
 70
     1
102
RTVSPropertyOp18
 70
     1
102
RTVSPropertyOp19
 70
     1
102
RTVSPropertyOp20
 70
     1
102
RTVSPropertyOp21
 70
     1
102
RTVSPropertyOp22
 70
     1
102
RTVSPropertyOp23
 70
     1
102
RTVSPropertyOp24
 70
     1
102
RTVSPropertyOp25
 70
     1
102
RTVSPropertyOp26
 70
     1
102
RTVSPropertyOp27
 70
     1
102
RTVSPropertyOp28
 70
     1
102
RTVSPropertyOp29
 70
     1
102
RTVSPropertyOp30
 70
     1
102
RTVSPropertyOp31
 70
     1
102
RTVSPropertyOp32
 70
     1
102
RTVSPropertyOp33
 70
     1
102
RTVSPropertyOp34
 70
     1
102
RTVSPropertyOp35
 70
     1
102
RTVSPropertyOp36
 70
     1
102
RTVSPropertyOp37
 70
     1
102
RTVSPropertyOp38
 70
     1
102
RTVSPropertyOp39
 70
     1
102
RTVSPropertyOp40
 70
     1
102
RTVSPropertyOp41
 70
     1
102
RTVSPropertyOp42
 70
     1
102
RTVSPropertyOp43
 70
     1
102
RTVSPropertyOp44
 70
     1
102
RTVSPropertyOp45
 70
     1
102
RTVSPropertyOp46
 70
     1
102
RTVSPropertyOp47
 70
     1
102
RTVSPropertyOp48
 70
     1
102
RTVSPropertyOp49
 70
     1
102
RTVSPropertyOp50
 70
     1
102
RTVSPropertyOp51
 70
     0
102
RTVSPropertyOp52
 70
     0
102
RTVSPropertyOp53
 70
     1
102
RTVSPropertyOp54
 70
     1
102
RTVSPropertyOp55
 70
     1
102
RTVSPropertyOp56
 70
     1
102
RTVSPropertyOp57
 70
     1
102
RTVSPropertyOp58
 70
     1
102
RTVSPropertyOp59
 70
     1
102
RTVSPropertyOp60
 70
     1
102
RTVSPropertyOp61
 70
     1
102
RTVSPropertyOp62
 70
     1
  0
ENDSEC
  0
EOF
