  0
SECTION
  2
HEADER
  9
$ACADVER
  1
AC1014
  9
$ACADMAINTVER
 70
       0
  9
$DWGCODEPAGE
  3
ANSI_932
  9
$INSBASE
 10
0.0
 20
0.0
 30
0.0
  9
$EXTMIN
 10
-917.11922726
 20
-1279.13533333
 30
0.0
  9
$EXTMAX
 10
917.74725705
 20
1279.36866667
 30
0.0
  9
$LIMMIN
 10
-974.4588049
 20
-1359.08858333
  9
$LIMMAX
 10
975.08683468
 20
1359.32191667
  9
$ORTHOMODE
 70
       0
  9
$REGENMODE
 70
       1
  9
$FILLMODE
 70
       1
  9
$QTEXTMODE
 70
       0
  9
$MIRRTEXT
 70
       1
  9
$DRAGMODE
 70
       2
  9
$LTSCALE
 40
1.0
  9
$OSMODE
 70
       0
  9
$ATTMODE
 70
       1
  9
$TEXTSIZE
 40
0.2
  9
$TRACEWID
 40
0.05
  9
$TEXTSTYLE
  7
STANDARD
  9
$CLAYER
  8
0
  9
$CELTYPE
  6
CONTINUOUS
  9
$CECOLOR
 62
     256
  9
$CELTSCALE
 40
1.0
  9
$DELOBJ
 70
       1
  9
$DISPSILH
 70
       0
  9
$DIMSCALE
 40
1.0
  9
$DIMASZ
 40
0.18
  9
$DIMEXO
 40
0.0625
  9
$DIMDLI
 40
0.38
  9
$DIMRND
 40
0.0
  9
$DIMDLE
 40
0.0
  9
$DIMEXE
 40
0.18
  9
$DIMTP
 40
0.0
  9
$DIMTM
 40
0.0
  9
$DIMTXT
 40
0.18
  9
$DIMCEN
 40
0.09
  9
$DIMTSZ
 40
0.0
  9
$DIMTOL
 70
       0
  9
$DIMLIM
 70
       0
  9
$DIMTIH
 70
       1
  9
$DIMTOH
 70
       1
  9
$DIMSE1
 70
       0
  9
$DIMSE2
 70
       0
  9
$DIMTAD
 70
       0
  9
$DIMZIN
 70
       0
  9
$DIMBLK
  1

  9
$DIMASO
 70
       1
  9
$DIMSHO
 70
       1
  9
$DIMPOST
  1

  9
$DIMAPOST
  1

  9
$DIMALT
 70
       0
  9
$DIMALTD
 70
       2
  9
$DIMALTF
 40
25.4
  9
$DIMLFAC
 40
1.0
  9
$DIMTOFL
 70
       0
  9
$DIMTVP
 40
0.0
  9
$DIMTIX
 70
       0
  9
$DIMSOXD
 70
       0
  9
$DIMSAH
 70
       0
  9
$DIMBLK1
  1

  9
$DIMBLK2
  1

  9
$DIMSTYLE
  2
STANDARD
  9
$DIMCLRD
 70
       0
  9
$DIMCLRE
 70
       0
  9
$DIMCLRT
 70
       0
  9
$DIMTFAC
 40
1.0
  9
$DIMGAP
 40
0.09
  9
$DIMJUST
 70
       0
  9
$DIMSD1
 70
       0
  9
$DIMSD2
 70
       0
  9
$DIMTOLJ
 70
       1
  9
$DIMTZIN
 70
       0
  9
$DIMALTZ
 70
       0
  9
$DIMALTTZ
 70
       0
  9
$DIMFIT
 70
       3
  9
$DIMUPT
 70
       0
  9
$DIMUNIT
 70
       2
  9
$DIMDEC
 70
       4
  9
$DIMTDEC
 70
       4
  9
$DIMALTU
 70
       2
  9
$DIMALTTD
 70
       2
  9
$DIMTXSTY
  7
STANDARD
  9
$DIMAUNIT
 70
       0
  9
$LUNITS
 70
       2
  9
$LUPREC
 70
       4
  9
$SKETCHINC
 40
0.1
  9
$FILLETRAD
 40
0.0
  9
$AUNITS
 70
       0
  9
$AUPREC
 70
       0
  9
$MENU
  1
acad
  9
$ELEVATION
 40
0.0
  9
$PELEVATION
 40
0.0
  9
$THICKNESS
 40
0.0
  9
$LIMCHECK
 70
       0
  9
$BLIPMODE
 70
       1
  9
$CHAMFERA
 40
0.0
  9
$CHAMFERB
 40
0.0
  9
$CHAMFERC
 40
0.0
  9
$CHAMFERD
 40
0.0
  9
$SKPOLY
 70
       0
  9
$TDCREATE
 40
0.000000000
  9
$TDUPDATE
 40
0.000000000
  9
$TDINDWG
 40
0.0000000000
  9
$TDUSRTIMER
 40
0.0000000000
  9
$USRTIMER
 70
       1
  9
$ANGBASE
 50
0.0
  9
$ANGDIR
 70
       0
  9
$PDMODE
 70
       0
  9
$PDSIZE
 40
1.0
  9
$PLINEWID
 40
0.0
  9
$COORDS
 70
       1
  9
$SPLFRAME
 70
       0
  9
$SPLINETYPE
 70
       6
  9
$SPLINESEGS
 70
       8
  9
$ATTDIA
 70
       0
  9
$ATTREQ
 70
       1
  9
$HANDLING
 70
       1
  9
$HANDSEED
  5
4BA
  9
$SURFTAB1
 70
       6
  9
$SURFTAB2
 70
       6
  9
$SURFTYPE
 70
       6
  9
$SURFU
 70
       6
  9
$SURFV
 70
       6
  9
$UCSNAME
  2

  9
$UCSORG
 10
0.0
 20
0.0
 30
0.0
  9
$UCSXDIR
 10
1.0
 20
0.0
 30
0.0
  9
$UCSYDIR
 10
0.0
 20
1.0
 30
0.0
  9
$PUCSNAME
  2

  9
$PUCSORG
 10
0.0
 20
0.0
 30
0.0
  9
$PUCSXDIR
 10
1.0
 20
0.0
 30
0.0
  9
$PUCSYDIR
 10
0.0
 20
1.0
 30
0.0
  9
$USERI1
 70
       0
  9
$USERI2
 70
       0
  9
$USERI3
 70
       0
  9
$USERI4
 70
       0
  9
$USERI5
 70
       0
  9
$USERR1
 40
0.0
  9
$USERR2
 40
0.0
  9
$USERR3
 40
0.0
  9
$USERR4
 40
0.0
  9
$USERR5
 40
0.0
  9
$WORLDVIEW
 70
       1
  9
$SHADEDGE
 70
       3
  9
$SHADEDIF
 70
      70
  9
$TILEMODE
 70
       1
  9
$MAXACTVP
 70
      16
  9
$PINSBASE
 10
0.0
 20
0.0
 30
0.0
  9
$PLIMCHECK
 70
       0
  9
$PEXTMIN
 10
1.00000000E+20
 20
1.00000000E+20
 30
1.00000000E+20
  9
$PEXTMAX
 10
-1.00000000E+20
 20
-1.00000000E+20
 30
-1.00000000E+20
  9
$PLIMMIN
 10
0.0
 20
0.0
  9
$PLIMMAX
 10
12.0
 20
9.0
  9
$UNITMODE
 70
       0
  9
$VISRETAIN
 70
       0
  9
$PLINEGEN
 70
       1
  9
$PSLTSCALE
 70
       0
  9
$TREEDEPTH
 70
    3020
  9
$PICKSTYLE
 70
       1
  9
$CMLSTYLE
  2
STANDARD
  9
$CMLJUST
 70
       0
  9
$CMLSCALE
 40
1.0
  9
$PROXYGRAPHICS
 70
       0
  9
$MEASUREMENT
 70
       0
  0
ENDSEC
  0
SECTION
  2
CLASSES
  0
CLASS
  1
LWPOLYLINE
  2
AcDbPolyline
  3
"AutoCAD"
 90
        0
280
       0
281
       1
  0
CLASS
  1
IMAGE
  2
AcDbRasterImage
  3
ISM
 90
      127
280
       0
281
       1
  0
CLASS
  1
OLE2FRAME
  2
AcDbOle2Frame
  3
""
 90
        0
280
       0
281
       1
  0
CLASS
  1
HATCH
  2
AcDbHatch
  3
"ACAD_SEDONA"
 90
        0
280
       0
281
       1
  0
CLASS
  1
DICTIONARYVAR
  2
AcDbDictionaryVar
  3
"AutoCAD"
 90
        0
280
       0
281
       0
  0
CLASS
  1
RASTERVARIABLES
  2
AcDbRasterVariables
  3
ISM
 90
        0
280
       0
281
       0
  0
CLASS
  1
IMAGEDEF
  2
AcDbRasterImageDef
  3
ISM
 90
        0
280
       0
281
       0
  0
CLASS
  1
IMAGEDEF_REACTOR
  2
AcDbRasterImageDefReactor
  3
ISM
 90
        1
280
       0
281
       0
  0
CLASS
  1
IDBUFFER
  2
AcDbIdBuffer
  3
"Acad"
 90
        0
280
       0
281
       0
  0
CLASS
  1
SPATIAL_FILTER
  2
AcDbSpatialFilter
  3
"Acad"
 90
        0
280
       0
281
       0
  0
CLASS
  1
XRECORD
  2
AcDbXrecord
  3
"<Built In>"
 90
        0
280
       0
281
       0
  0
CLASS
  1
SORTENTSTABLE
  2
AcDbSortentsTable
  3
"AutoCAD"
 90
        0
280
       0
281
       0
  0
CLASS
  1
LAYER_INDEX
  2
AcDbLayerIndex
  3
"Acad"
 90
        0
280
       0
281
       0
  0
CLASS
  1
SPATIAL_INDEX
  2
AcDbSpatialIndex
  3
"Acad"
 90
        0
280
       0
281
       0
  0
CLASS
  1
OBJECT_PTR
  2
CAseDLPNTableRecord
  3
"ASE-LPNTableRecord"
 90
        1
280
       0
281
       0
  0
CLASS
  1
LAYOUT
  2
AcDbLayout
  3
"AutoCAD 2000"
 90
        1
280
       0
281
       0
  0
CLASS
  1
PLOTSETTINGS
  2
AcDbPlotSettings
  3
"AutoCAD 2000"
 90
        1
280
       0
281
       0
  0
CLASS
  1
ACDBDICTIONARYWDFLT
  2
AcDbDictionaryWithDefault
  3
"AutoCAD 2000"
 90
        1
280
       0
281
       0
  0
CLASS
  1
ACDBPLACEHOLDER
  2
AcDbPlaceHolder
  3
"AutoCAD 2000"
 90
        1
280
       0
281
       0
  0
CLASS
  1
VBA_PROJECT
  2
AcDbVbaProject
  3
"acadvba"
 90
        1
280
       0
281
       0
  0
CLASS
  1
WIPEOUT
  2
AcDbWipeout
  3
WipeOut|AutoCAD Express Tool|expresstools@autodesk.com
 90
      127
280
       0
281
       1
  0
CLASS
  1
WIPEOUTVARIABLES
  2
AcDbWipeoutVariables
  3
WipeOut|AutoCAD Express Tool|expresstools@autodesk.com
 90
        0
280
       0
281
       0
  0
CLASS
  1
RTEXT
  2
RText
  3
RText|AutoCAD Express Tool|expresstools@autodesk.com
 90
        0
280
       0
281
       1
  0
CLASS
  1
ARCALIGNEDTEXT
  2
AcDbArcAlignedText
  3
ATEXT|AutoCAD Express Tool|expresstools@autodesk.com
 90
        0
280
       0
281
       1
  0
ENDSEC
  0
SECTION
  2
TABLES
  0
TABLE
  2
VPORT
  5
7
100
AcDbSymbolTable
 70
       1
  0
VPORT
  5
15
100
AcDbSymbolTableRecord
100
AcDbViewportTableRecord
  2
*ACTIVE
 70
       0
 10
0.0
 20
0.0
 11
1.0
 21
1.0
 12
0.31401489
 22
0.11666667
 13
0.0
 23
0.0
 14
1.0
 24
1.0
 15
0.0
 25
0.0
 16
0.0
 26
0.0
 36
1.0
 17
0.0
 27
0.0
 37
0.0
 40
2718.4105
 41
0.71716381
 42
50.0
 43
0.0
 44
0.0
 50
0.0
 51
0.0
 71
       0
 72
     100
 73
       1
 74
       1
 75
       0
 76
       0
 77
       0
 78
       0
  0
ENDTAB
  0
TABLE
  2
LTYPE
  5
4
100
AcDbSymbolTable
 70
      30
  0
LTYPE
  5
11
100
AcDbSymbolTableRecord
100
AcDbLinetypeTableRecord
  2
BYBLOCK
 70
      64
  3

 72
      65
 73
       0
 40
0.0
  0
LTYPE
  5
12
100
AcDbSymbolTableRecord
100
AcDbLinetypeTableRecord
  2
BYLAYER
 70
      64
  3

 72
      65
 73
       0
 40
0.0
  0
LTYPE
  5
13
100
AcDbSymbolTableRecord
100
AcDbLinetypeTableRecord
  2
CONTINUOUS
 70
      64
  3
Solid line
 72
      65
 73
       0
 40
0.0
  0
LTYPE
  5
1D
100
AcDbSymbolTableRecord
100
AcDbLinetypeTableRecord
  2
HIDDENX2
 70
      64
  3
CADPAC LINETYPE
 72
      65
 73
       2
 40
95.04
 49
71.28
 74
       0
 49
-23.76
 74
       0
  0
LTYPE
  5
1E
100
AcDbSymbolTableRecord
100
AcDbLinetypeTableRecord
  2
HIDDEN
 70
      64
  3
CADPAC LINETYPE
 72
      65
 73
       2
 40
71.28
 49
47.52
 74
       0
 49
-23.76
 74
       0
  0
LTYPE
  5
1F
100
AcDbSymbolTableRecord
100
AcDbLinetypeTableRecord
  2
HIDDEN2
 70
      64
  3
CADPAC LINETYPE
 72
      65
 73
       2
 40
59.4
 49
35.64
 74
       0
 49
-23.76
 74
       0
  0
LTYPE
  5
20
100
AcDbSymbolTableRecord
100
AcDbLinetypeTableRecord
  2
DASHED
 70
      64
  3
CADPAC LINETYPE
 72
      65
 73
       2
 40
71.28
 49
47.52
 74
       0
 49
-23.76
 74
       0
  0
LTYPE
  5
21
100
AcDbSymbolTableRecord
100
AcDbLinetypeTableRecord
  2
DASHED2
 70
      64
  3
CADPAC LINETYPE
 72
      65
 73
       2
 40
53.46
 49
35.64
 74
       0
 49
-17.82
 74
       0
  0
LTYPE
  5
22
100
AcDbSymbolTableRecord
100
AcDbLinetypeTableRecord
  2
DASHEDX2
 70
      64
  3
CADPAC LINETYPE
 72
      65
 73
       2
 40
106.92
 49
71.28
 74
       0
 49
-35.64
 74
       0
  0
LTYPE
  5
23
100
AcDbSymbolTableRecord
100
AcDbLinetypeTableRecord
  2
DOTX2
 70
      64
  3
CADPAC LINETYPE
 72
      65
 73
       2
 40
29.7
 49
0.0
 74
       0
 49
-29.7
 74
       0
  0
LTYPE
  5
24
100
AcDbSymbolTableRecord
100
AcDbLinetypeTableRecord
  2
DOT
 70
      64
  3
CADPAC LINETYPE
 72
      65
 73
       2
 40
23.76
 49
0.0
 74
       0
 49
-23.76
 74
       0
  0
LTYPE
  5
25
100
AcDbSymbolTableRecord
100
AcDbLinetypeTableRecord
  2
DOT2
 70
      64
  3
CADPAC LINETYPE
 72
      65
 73
       2
 40
17.82
 49
0.0
 74
       0
 49
-17.82
 74
       0
  0
LTYPE
  5
26
100
AcDbSymbolTableRecord
100
AcDbLinetypeTableRecord
  2
CENTERX2
 70
      64
  3
CADPAC LINETYPE
 72
      65
 73
       4
 40
142.56
 49
59.4
 74
       0
 49
-29.7
 74
       0
 49
23.76
 74
       0
 49
-29.7
 74
       0
  0
LTYPE
  5
27
100
AcDbSymbolTableRecord
100
AcDbLinetypeTableRecord
  2
CENTER
 70
      64
  3
CADPAC LINETYPE
 72
      65
 73
       4
 40
109.296
 49
47.52
 74
       0
 49
-23.76
 74
       0
 49
14.256
 74
       0
 49
-23.76
 74
       0
  0
LTYPE
  5
28
100
AcDbSymbolTableRecord
100
AcDbLinetypeTableRecord
  2
CENTER2
 70
      64
  3
CADPAC LINETYPE
 72
      65
 73
       4
 40
76.032
 49
35.64
 74
       0
 49
-17.82
 74
       0
 49
4.752
 74
       0
 49
-17.82
 74
       0
  0
LTYPE
  5
29
100
AcDbSymbolTableRecord
100
AcDbLinetypeTableRecord
  2
DASHDOTX2
 70
      64
  3
CADPAC LINETYPE
 72
      65
 73
       4
 40
118.8
 49
59.4
 74
       0
 49
-29.7
 74
       0
 49
0.0
 74
       0
 49
-29.7
 74
       0
  0
LTYPE
  5
2A
100
AcDbSymbolTableRecord
100
AcDbLinetypeTableRecord
  2
DASHDOT
 70
      64
  3
CADPAC LINETYPE
 72
      65
 73
       4
 40
95.04
 49
47.52
 74
       0
 49
-23.76
 74
       0
 49
0.0
 74
       0
 49
-23.76
 74
       0
  0
LTYPE
  5
2B
100
AcDbSymbolTableRecord
100
AcDbLinetypeTableRecord
  2
DASHDOT2
 70
      64
  3
CADPAC LINETYPE
 72
      65
 73
       4
 40
71.28
 49
35.64
 74
       0
 49
-17.82
 74
       0
 49
0.0
 74
       0
 49
-17.82
 74
       0
  0
LTYPE
  5
2C
100
AcDbSymbolTableRecord
100
AcDbLinetypeTableRecord
  2
DIVIDEX2
 70
      64
  3
CADPAC LINETYPE
 72
      65
 73
       6
 40
148.5
 49
59.4
 74
       0
 49
-29.7
 74
       0
 49
0.0
 74
       0
 49
-29.7
 74
       0
 49
0.0
 74
       0
 49
-29.7
 74
       0
  0
LTYPE
  5
2D
100
AcDbSymbolTableRecord
100
AcDbLinetypeTableRecord
  2
DIVIDE
 70
      64
  3
CADPAC LINETYPE
 72
      65
 73
       6
 40
118.8
 49
47.52
 74
       0
 49
-23.76
 74
       0
 49
0.0
 74
       0
 49
-23.76
 74
       0
 49
0.0
 74
       0
 49
-23.76
 74
       0
  0
LTYPE
  5
2E
100
AcDbSymbolTableRecord
100
AcDbLinetypeTableRecord
  2
DIVIDE2
 70
      64
  3
CADPAC LINETYPE
 72
      65
 73
       6
 40
89.1
 49
35.64
 74
       0
 49
-17.82
 74
       0
 49
0.0
 74
       0
 49
-17.82
 74
       0
 49
0.0
 74
       0
 49
-17.82
 74
       0
  0
LTYPE
  5
2F
100
AcDbSymbolTableRecord
100
AcDbLinetypeTableRecord
  2
BORDERX2
 70
      64
  3
CADPAC LINETYPE
 72
      65
 73
       6
 40
207.9
 49
59.4
 74
       0
 49
-29.7
 74
       0
 49
59.4
 74
       0
 49
-29.7
 74
       0
 49
0.0
 74
       0
 49
-29.7
 74
       0
  0
LTYPE
  5
30
100
AcDbSymbolTableRecord
100
AcDbLinetypeTableRecord
  2
BORDER
 70
      64
  3
CADPAC LINETYPE
 72
      65
 73
       6
 40
166.32
 49
47.52
 74
       0
 49
-23.76
 74
       0
 49
47.52
 74
       0
 49
-23.76
 74
       0
 49
0.0
 74
       0
 49
-23.76
 74
       0
  0
LTYPE
  5
31
100
AcDbSymbolTableRecord
100
AcDbLinetypeTableRecord
  2
BORDER2
 70
      64
  3
CADPAC LINETYPE
 72
      65
 73
       6
 40
124.74
 49
35.64
 74
       0
 49
-17.82
 74
       0
 49
35.64
 74
       0
 49
-17.82
 74
       0
 49
0.0
 74
       0
 49
-17.82
 74
       0
  0
LTYPE
  5
32
100
AcDbSymbolTableRecord
100
AcDbLinetypeTableRecord
  2
PHANTOMX2
 70
      64
  3
CADPAC LINETYPE
 72
      65
 73
       6
 40
178.2
 49
59.4
 74
       0
 49
-23.76
 74
       0
 49
23.76
 74
       0
 49
-23.76
 74
       0
 49
23.76
 74
       0
 49
-23.76
 74
       0
  0
LTYPE
  5
33
100
AcDbSymbolTableRecord
100
AcDbLinetypeTableRecord
  2
PHANTOM
 70
      64
  3
CADPAC LINETYPE
 72
      65
 73
       6
 40
147.312
 49
47.52
 74
       0
 49
-23.76
 74
       0
 49
14.256
 74
       0
 49
-23.76
 74
       0
 49
14.256
 74
       0
 49
-23.76
 74
       0
  0
LTYPE
  5
34
100
AcDbSymbolTableRecord
100
AcDbLinetypeTableRecord
  2
PHANTOM2
 70
      64
  3
CADPAC LINETYPE
 72
      65
 73
       6
 40
125.928
 49
35.64
 74
       0
 49
-23.76
 74
       0
 49
9.504
 74
       0
 49
-23.76
 74
       0
 49
9.504
 74
       0
 49
-23.76
 74
       0
  0
LTYPE
  5
35
100
AcDbSymbolTableRecord
100
AcDbLinetypeTableRecord
  2
ACAD_ISO06W100
 70
      64
  3
CADPAC LINETYPE
 72
      65
 73
       8
 40
160.38
 49
59.4
 74
       0
 49
-29.7
 74
       0
 49
0.0
 74
       0
 49
-23.76
 74
       0
 49
0.0
 74
       0
 49
-23.76
 74
       0
 49
0.0
 74
       0
 49
-23.76
 74
       0
  0
LTYPE
  5
36
100
AcDbSymbolTableRecord
100
AcDbLinetypeTableRecord
  2
ACAD_ISO13W100
 70
      64
  3
CADPAC LINETYPE
 72
      65
 73
       8
 40
190.08
 49
47.52
 74
       0
 49
-23.76
 74
       0
 49
47.52
 74
       0
 49
-23.76
 74
       0
 49
0.0
 74
       0
 49
-23.76
 74
       0
 49
0.0
 74
       0
 49
-23.76
 74
       0
  0
LTYPE
  5
37
100
AcDbSymbolTableRecord
100
AcDbLinetypeTableRecord
  2
ACAD_ISO14W100
 70
      64
  3
CADPAC LINETYPE
 72
      65
 73
       8
 40
142.56
 49
47.52
 74
       0
 49
-23.76
 74
       0
 49
0.0
 74
       0
 49
-23.76
 74
       0
 49
0.0
 74
       0
 49
-23.76
 74
       0
 49
0.0
 74
       0
 49
-23.76
 74
       0
  0
ENDTAB
  0
TABLE
  2
LAYER
  5
2
100
AcDbSymbolTable
 70
       3
  0
LAYER
  5
14
100
AcDbSymbolTableRecord
100
AcDbLayerTableRecord
  2
0
 70
       0
 62
       7
  6
CONTINUOUS
  0
LAYER
  5
38
100
AcDbSymbolTableRecord
100
AcDbLayerTableRecord
  2
LAYER0240
 70
       0
 62
       7
  6
CONTINUOUS
  0
LAYER
  5
39
100
AcDbSymbolTableRecord
100
AcDbLayerTableRecord
  2
ZUWAKU
 70
       0
 62
       7
  6
CONTINUOUS
  0
ENDTAB
  0
TABLE
  2
STYLE
  5
3
100
AcDbSymbolTable
 70
       2
  0
STYLE
  5
17
100
AcDbSymbolTableRecord
100
AcDbTextStyleTableRecord
  2
STANDARD
 70
       0
 40
0.0
 41
0.8
 50
0.0
 71
       0
 42
27.2
  3
txt.shx
  4
bigfont.shx
  0
STYLE
  5
3A
100
AcDbSymbolTableRecord
100
AcDbTextStyleTableRecord
  2
FDASTYLE1
 70
       4
 40
0.0
 41
0.8
 50
0.0
 71
       0
 42
24.0
  3
txt.shx
  4
bigfont.shx
  0
ENDTAB
  0
TABLE
  2
VIEW
  5
5
100
AcDbSymbolTable
 70
       1
  0
VIEW
  5
3B
100
AcDbSymbolTableRecord
100
AcDbViewTableRecord
  2
QQQQ
 70
       0
 40
2718.4105
 10
0.31401489
 20
0.11666667
 41
1949.54563958
 11
0.0
 21
0.0
 31
1.0
 12
100.0
 22
100.0
 32
0.0
 42
50.0
 43
0.0
 44
0.0
 50
0.0
 71
       0
  0
ENDTAB
  0
TABLE
  2
UCS
  5
6
100
AcDbSymbolTable
 70
       0
  0
ENDTAB
  0
TABLE
  2
APPID
  5
8
100
AcDbSymbolTable
 70
       1
  0
APPID
  5
16
100
AcDbSymbolTableRecord
100
AcDbRegAppTableRecord
  2
ACAD
 70
       0
  0
ENDTAB
  0
TABLE
  2
DIMSTYLE
  5
9
100
AcDbSymbolTable
 70
       1
  0
DIMSTYLE
105
18
100
AcDbSymbolTableRecord
100
AcDbDimStyleTableRecord
  2
STANDARD
 70
       0
  3

  4

  5

  6

  7

 40
1.0
 41
0.18
 42
0.0625
 43
0.38
 44
0.18
 45
0.0
 46
0.0
 47
0.0
 48
0.0
 71
       0
 72
       0
 73
       1
 74
       1
 75
       0
 76
       0
 77
       0
 78
       0
140
0.18
141
0.09
142
0.0
143
25.4
144
1.0
145
0.0
146
1.0
147
0.09
170
       0
171
       2
172
       0
173
       0
174
       0
175
       0
176
       0
177
       0
178
       0
270
       2
271
       4
272
       4
273
       2
274
       2
275
       0
280
       0
281
       0
282
       0
283
       1
284
       0
285
       0
286
       0
287
       0
288
       0
340
17
  0
ENDTAB
  0
TABLE
  2
BLOCK_RECORD
  5
1
100
AcDbSymbolTable
 70
       1
  0
BLOCK_RECORD
  5
A
100
AcDbSymbolTableRecord
100
AcDbBlockTableRecord
  2
*MODEL_SPACE
  0
BLOCK_RECORD
  5
B
100
AcDbSymbolTableRecord
100
AcDbBlockTableRecord
  2
*PAPER_SPACE
  0
BLOCK_RECORD
  5
3C
100
AcDbSymbolTableRecord
100
AcDbBlockTableRecord
  2
_OPEN30
  0
ENDTAB
  0
ENDSEC
  0
SECTION
  2
BLOCKS
  0
BLOCK
  5
D
100
AcDbEntity
  8
0
100
AcDbBlockBegin
  2
*MODEL_SPACE
 70
       0
 10
0.0
 20
0.0
 30
0.0
  3
*MODEL_SPACE
  1

  0
ENDBLK
  5
E
100
AcDbEntity
  8
0
100
AcDbBlockEnd
  0
BLOCK
  5
F
100
AcDbEntity
 67
       1
  8
0
100
AcDbBlockBegin
  2
*PAPER_SPACE
 70
       0
 10
0.0
 20
0.0
 30
0.0
  3
*PAPER_SPACE
  1

  0
ENDBLK
  5
10
100
AcDbEntity
 67
       1
  8
0
100
AcDbBlockEnd
  0
BLOCK
  5
3D
100
AcDbEntity
  8
0
100
AcDbBlockBegin
  2
_OPEN30
 70
       0
 10
0.0
 20
0.0
 30
0.0
  3
_OPEN30
  1

  0
LINE
  5
3E
100
AcDbEntity
  8
0
  6
CONTINUOUS
 62
       0
100
AcDbLine
 10
0.0
 20
0.0
 30
0.0
 11
-0.96592583
 21
0.25881905
 31
0.0
  0
LINE
  5
3F
100
AcDbEntity
  8
0
  6
CONTINUOUS
 62
       0
100
AcDbLine
 10
0.0
 20
0.0
 30
0.0
 11
-0.96592583
 21
-0.25881905
 31
0.0
  0
LINE
  5
40
100
AcDbEntity
  8
0
  6
CONTINUOUS
 62
       0
100
AcDbLine
 10
0.0
 20
0.0
 30
0.0
 11
-0.96592583
 21
0.0
 31
0.0
  0
ENDBLK
  5
41
100
AcDbEntity
  8
0
100
AcDbBlockEnd
  0
ENDSEC
  0
SECTION
  2
ENTITIES
  0
LWPOLYLINE
  5
42
100
AcDbEntity
  8
ZUWAKU
  6
CONTINUOUS
 62
      32
100
AcDbPolyline
 90
        2
 70
       0
 43
0.25
 10
453.26666667
 20
1108.63101302
 40
0.25
 41
0.25
 10
448.76666667
 20
1096.13101302
 40
0.25
 41
0.25
  0
LWPOLYLINE
  5
43
100
AcDbEntity
  8
ZUWAKU
  6
CONTINUOUS
 62
      32
100
AcDbPolyline
 90
        2
 70
       0
 43
0.25
 10
486.56666667
 20
1108.63101302
 40
0.25
 41
0.25
 10
479.56666667
 20
1089.63101302
 40
0.25
 41
0.25
  0
LWPOLYLINE
  5
44
100
AcDbEntity
  8
ZUWAKU
  6
CONTINUOUS
 62
      32
100
AcDbPolyline
 90
        2
 70
       0
 43
0.25
 10
493.06666667
 20
1082.63101302
 40
0.25
 41
0.25
 10
495.56666667
 20
1089.63101302
 40
0.25
 41
0.25
  0
LWPOLYLINE
  5
45
100
AcDbEntity
  8
ZUWAKU
  6
CONTINUOUS
 62
      32
100
AcDbPolyline
 90
        2
 70
       0
 43
0.25
 10
470.06666667
 20
1108.63101302
 40
0.25
 41
0.25
 10
462.56666667
 20
1086.63101302
 40
0.25
 41
0.25
  0
LWPOLYLINE
  5
46
100
AcDbEntity
  8
ZUWAKU
  6
CONTINUOUS
 62
      32
100
AcDbPolyline
 90
        2
 70
       0
 43
0.25
 10
365.16666667
 20
1108.63101302
 40
0.25
 41
0.25
 10
373.66666667
 20
1094.63101302
 40
0.25
 41
0.25
  0
LWPOLYLINE
  5
47
100
AcDbEntity
  8
ZUWAKU
  6
CONTINUOUS
 62
      32
100
AcDbPolyline
 90
        2
 70
       0
 43
0.25
 10
493.06666667
 20
1082.63101302
 40
0.25
 41
0.25
 10
483.56666667
 20
1082.63101302
 40
0.25
 41
0.25
  0
LWPOLYLINE
  5
48
100
AcDbEntity
  8
ZUWAKU
  6
CONTINUOUS
 62
      32
100
AcDbPolyline
 90
        2
 70
       0
 43
0.25
 10
442.26666667
 20
1078.13101302
 40
0.25
 41
0.25
 10
425.76666667
 20
1078.13101302
 40
0.25
 41
0.25
  0
LWPOLYLINE
  5
49
100
AcDbEntity
  8
ZUWAKU
  6
CONTINUOUS
 62
      32
100
AcDbPolyline
 90
        2
 70
       0
 43
0.25
 10
406.76666667
 20
1076.63101302
 40
0.25
 41
0.25
 10
401.76666667
 20
1076.63101302
 40
0.25
 41
0.25
  0
LWPOLYLINE
  5
4A
100
AcDbEntity
  8
ZUWAKU
  6
CONTINUOUS
 62
      32
100
AcDbPolyline
 90
        2
 70
       0
 43
0.25
 10
438.76666667
 20
1069.13101302
 40
0.25
 41
0.25
 10
442.26666667
 20
1078.13101302
 40
0.25
 41
0.25
  0
LWPOLYLINE
  5
4B
100
AcDbEntity
  8
ZUWAKU
  6
CONTINUOUS
 62
      32
100
AcDbPolyline
 90
        2
 70
       0
 43
0.25
 10
422.76666667
 20
1069.13101302
 40
0.25
 41
0.25
 10
425.76666667
 20
1078.13101302
 40
0.25
 41
0.25
  0
LWPOLYLINE
  5
4C
100
AcDbEntity
  8
ZUWAKU
  6
CONTINUOUS
 62
      32
100
AcDbPolyline
 90
        2
 70
       0
 43
0.25
 10
486.56666667
 20
1108.63101302
 40
0.25
 41
0.25
 10
470.06666667
 20
1108.63101302
 40
0.25
 41
0.25
  0
LWPOLYLINE
  5
4D
100
AcDbEntity
  8
ZUWAKU
  6
CONTINUOUS
 62
      32
100
AcDbPolyline
 90
        2
 70
       0
 43
0.25
 10
461.06666667
 20
1069.13101302
 40
0.25
 41
0.25
 10
442.56666667
 20
1069.13101302
 40
0.25
 41
0.25
  0
LWPOLYLINE
  5
4E
100
AcDbEntity
  8
ZUWAKU
  6
CONTINUOUS
 62
      32
100
AcDbPolyline
 90
        2
 70
       0
 43
0.25
 10
379.50726154
 20
1078.13101302
 40
0.25
 41
0.25
 10
397.16666667
 20
1078.13101302
 40
0.25
 41
0.25
  0
LWPOLYLINE
  5
4F
100
AcDbEntity
  8
ZUWAKU
  6
CONTINUOUS
 62
      32
100
AcDbPolyline
 90
        2
 70
       0
 43
0.25
 10
360.16666667
 20
1069.13101302
 40
0.25
 41
0.25
 10
394.16666667
 20
1069.13101302
 40
0.25
 41
0.25
  0
LWPOLYLINE
  5
50
100
AcDbEntity
  8
ZUWAKU
  6
CONTINUOUS
 62
      32
100
AcDbPolyline
 90
        2
 70
       0
 43
0.25
 10
495.56666667
 20
1089.63101302
 40
0.25
 41
0.25
 10
479.56666667
 20
1089.63101302
 40
0.25
 41
0.25
  0
LWPOLYLINE
  5
51
100
AcDbEntity
  8
ZUWAKU
  6
CONTINUOUS
 62
      32
100
AcDbPolyline
 90
        2
 70
       0
 43
0.25
 10
453.26666667
 20
1108.63101302
 40
0.25
 41
0.25
 10
426.76666667
 20
1108.63101302
 40
0.25
 41
0.25
  0
LWPOLYLINE
  5
52
100
AcDbEntity
  8
ZUWAKU
  6
CONTINUOUS
 62
      32
100
AcDbPolyline
 90
        2
 70
       0
 43
0.25
 10
448.76666667
 20
1096.13101302
 40
0.25
 41
0.25
 10
424.76666667
 20
1096.13101302
 40
0.25
 41
0.25
  0
LWPOLYLINE
  5
53
100
AcDbEntity
  8
ZUWAKU
  6
CONTINUOUS
 62
      32
100
AcDbPolyline
 90
        2
 70
       0
 43
0.25
 10
365.16666667
 20
1108.63101302
 40
0.25
 41
0.25
 10
377.66666667
 20
1108.63101302
 40
0.25
 41
0.25
  0
LWPOLYLINE
  5
54
100
AcDbEntity
  8
ZUWAKU
  6
CONTINUOUS
 62
      32
100
AcDbPolyline
 90
        2
 70
       0
 43
0.25
 10
397.16666667
 20
1078.13101302
 40
0.25
 41
0.25
 10
394.16666667
 20
1069.13101302
 40
0.25
 41
0.25
  0
LWPOLYLINE
  5
55
100
AcDbEntity
  8
ZUWAKU
  6
CONTINUOUS
 62
      32
100
AcDbPolyline
 90
        2
 70
       0
 43
0.25
 10
571.06666667
 20
1069.13101302
 40
0.25
 41
0.25
 10
579.56666667
 20
1093.13101302
 40
0.25
 41
0.25
  0
LWPOLYLINE
  5
56
100
AcDbEntity
  8
ZUWAKU
  6
CONTINUOUS
 62
      32
100
AcDbPolyline
 90
        2
 70
       0
 43
0.25
 10
579.56666667
 20
1093.13101302
 40
0.25
 41
0.25
 10
568.06666667
 20
1093.13101302
 40
0.25
 41
0.25
  0
LWPOLYLINE
  5
57
100
AcDbEntity
  8
ZUWAKU
  6
CONTINUOUS
 62
      32
100
AcDbPolyline
 90
        2
 70
       0
 43
0.25
 10
568.06666667
 20
1093.13101302
 40
0.25
 41
0.25
 10
559.06666667
 20
1069.13101302
 40
0.25
 41
0.25
  0
LWPOLYLINE
  5
58
100
AcDbEntity
  8
ZUWAKU
  6
CONTINUOUS
 62
      32
100
AcDbPolyline
 90
        2
 70
       0
 43
0.25
 10
559.06666667
 20
1069.13101302
 40
0.25
 41
0.25
 10
571.06666667
 20
1069.13101302
 40
0.25
 41
0.25
  0
LWPOLYLINE
  5
59
100
AcDbEntity
  8
ZUWAKU
  6
CONTINUOUS
 62
      32
100
AcDbPolyline
 90
        2
 70
       0
 43
0.25
 10
418.76666667
 20
1093.13101302
 40
0.25
 41
0.25
 10
413.26666667
 20
1088.63101302
 40
0.25
 41
0.25
  0
LWPOLYLINE
  5
5A
100
AcDbEntity
  8
ZUWAKU
  6
CONTINUOUS
 62
      32
100
AcDbPolyline
 90
        2
 70
       0
 43
0.25
 10
413.26666667
 20
1088.63101302
 40
0.25
 41
0.25
 10
409.26666667
 20
1083.13101302
 40
0.25
 41
0.25
  0
LWPOLYLINE
  5
5B
100
AcDbEntity
  8
ZUWAKU
  6
CONTINUOUS
 62
      32
100
AcDbPolyline
 90
        2
 70
       0
 43
0.25
 10
409.26666667
 20
1083.13101302
 40
0.25
 41
0.25
 10
406.76666667
 20
1076.63101302
 40
0.25
 41
0.25
  0
LWPOLYLINE
  5
5C
100
AcDbEntity
  8
ZUWAKU
  6
CONTINUOUS
 62
      32
100
AcDbPolyline
 90
        2
 70
       0
 43
0.25
 10
529.96666667
 20
1069.13101302
 40
0.25
 41
0.25
 10
493.46666667
 20
1069.13101302
 40
0.25
 41
0.25
  0
LWPOLYLINE
  5
5D
100
AcDbEntity
  8
ZUWAKU
  6
CONTINUOUS
 62
      32
100
AcDbPolyline
 90
        2
 70
       0
 43
0.25
 10
493.46666667
 20
1069.13101302
 40
0.25
 41
0.25
 10
496.46666667
 20
1078.13101302
 40
0.25
 41
0.25
  0
LWPOLYLINE
  5
5E
100
AcDbEntity
  8
ZUWAKU
  6
CONTINUOUS
 62
      32
100
AcDbPolyline
 90
        2
 70
       0
 43
0.25
 10
493.46666667
 20
1069.13101302
 40
0.25
 41
0.25
 10
496.46666667
 20
1078.13101302
 40
0.25
 41
0.25
  0
LWPOLYLINE
  5
5F
100
AcDbEntity
  8
ZUWAKU
  6
CONTINUOUS
 62
      32
100
AcDbPolyline
 90
        2
 70
       0
 43
0.25
 10
496.46666667
 20
1078.13101302
 40
0.25
 41
0.25
 10
532.96666667
 20
1078.13101302
 40
0.25
 41
0.25
  0
LWPOLYLINE
  5
60
100
AcDbEntity
  8
ZUWAKU
  6
CONTINUOUS
 62
      32
100
AcDbPolyline
 90
        2
 70
       0
 43
0.25
 10
532.96666667
 20
1078.13101302
 40
0.25
 41
0.25
 10
529.96666667
 20
1069.13101302
 40
0.25
 41
0.25
  0
LWPOLYLINE
  5
61
100
AcDbEntity
  8
ZUWAKU
  6
CONTINUOUS
 62
      32
100
AcDbPolyline
 90
        2
 70
       0
 43
0.25
 10
532.96666667
 20
1078.13101302
 40
0.25
 41
0.25
 10
529.96666667
 20
1069.13101302
 40
0.25
 41
0.25
  0
LWPOLYLINE
  5
62
100
AcDbEntity
  8
ZUWAKU
  6
CONTINUOUS
 62
      32
100
AcDbPolyline
 90
        2
 70
       0
 43
0.25
 10
493.46666667
 20
1069.13101302
 40
0.25
 41
0.25
 10
529.96666667
 20
1069.13101302
 40
0.25
 41
0.25
  0
LWPOLYLINE
  5
63
100
AcDbEntity
  8
ZUWAKU
  6
CONTINUOUS
 62
      32
100
AcDbPolyline
 90
        2
 70
       0
 43
0.25
 10
529.96666667
 20
1069.13101302
 40
0.25
 41
0.25
 10
532.96666667
 20
1078.13101302
 40
0.25
 41
0.25
  0
LWPOLYLINE
  5
64
100
AcDbEntity
  8
ZUWAKU
  6
CONTINUOUS
 62
      32
100
AcDbPolyline
 90
        2
 70
       0
 43
0.25
 10
532.96666667
 20
1078.13101302
 40
0.25
 41
0.25
 10
496.46666667
 20
1078.13101302
 40
0.25
 41
0.25
  0
LWPOLYLINE
  5
65
100
AcDbEntity
  8
ZUWAKU
  6
CONTINUOUS
 62
      32
100
AcDbPolyline
 90
        2
 70
       0
 43
0.25
 10
514.46666667
 20
1107.63101302
 40
0.25
 41
0.25
 10
510.46666667
 20
1105.63101302
 40
0.25
 41
0.25
  0
LWPOLYLINE
  5
66
100
AcDbEntity
  8
ZUWAKU
  6
CONTINUOUS
 62
      32
100
AcDbPolyline
 90
        2
 70
       0
 43
0.25
 10
510.46666667
 20
1105.63101302
 40
0.25
 41
0.25
 10
507.46666667
 20
1102.63101302
 40
0.25
 41
0.25
  0
LWPOLYLINE
  5
67
100
AcDbEntity
  8
ZUWAKU
  6
CONTINUOUS
 62
      32
100
AcDbPolyline
 90
        2
 70
       0
 43
0.25
 10
507.46666667
 20
1102.63101302
 40
0.25
 41
0.25
 10
503.96666667
 20
1099.13101302
 40
0.25
 41
0.25
  0
LWPOLYLINE
  5
68
100
AcDbEntity
  8
ZUWAKU
  6
CONTINUOUS
 62
      32
100
AcDbPolyline
 90
        2
 70
       0
 43
0.25
 10
503.96666667
 20
1099.13101302
 40
0.25
 41
0.25
 10
497.96666667
 20
1082.63101302
 40
0.25
 41
0.25
  0
LWPOLYLINE
  5
69
100
AcDbEntity
  8
ZUWAKU
  6
CONTINUOUS
 62
      32
100
AcDbPolyline
 90
        2
 70
       0
 43
0.25
 10
497.96666667
 20
1082.63101302
 40
0.25
 41
0.25
 10
533.96666667
 20
1082.63101302
 40
0.25
 41
0.25
  0
LWPOLYLINE
  5
6A
100
AcDbEntity
  8
ZUWAKU
  6
CONTINUOUS
 62
      32
100
AcDbPolyline
 90
        2
 70
       0
 43
0.25
 10
533.96666667
 20
1082.63101302
 40
0.25
 41
0.25
 10
535.96666667
 20
1089.63101302
 40
0.25
 41
0.25
  0
LWPOLYLINE
  5
6B
100
AcDbEntity
  8
ZUWAKU
  6
CONTINUOUS
 62
      32
100
AcDbPolyline
 90
        2
 70
       0
 43
0.25
 10
535.96666667
 20
1089.63101302
 40
0.25
 41
0.25
 10
514.96666667
 20
1089.63101302
 40
0.25
 41
0.25
  0
LWPOLYLINE
  5
6C
100
AcDbEntity
  8
ZUWAKU
  6
CONTINUOUS
 62
      32
100
AcDbPolyline
 90
        2
 70
       0
 43
0.25
 10
514.96666667
 20
1089.63101302
 40
0.25
 41
0.25
 10
515.96666667
 20
1093.13101302
 40
0.25
 41
0.25
  0
LWPOLYLINE
  5
6D
100
AcDbEntity
  8
ZUWAKU
  6
CONTINUOUS
 62
      32
100
AcDbPolyline
 90
        2
 70
       0
 43
0.25
 10
515.96666667
 20
1093.13101302
 40
0.25
 41
0.25
 10
518.46666667
 20
1096.13101302
 40
0.25
 41
0.25
  0
LWPOLYLINE
  5
6E
100
AcDbEntity
  8
ZUWAKU
  6
CONTINUOUS
 62
      32
100
AcDbPolyline
 90
        2
 70
       0
 43
0.25
 10
518.46666667
 20
1096.13101302
 40
0.25
 41
0.25
 10
520.96666667
 20
1098.63101302
 40
0.25
 41
0.25
  0
LWPOLYLINE
  5
6F
100
AcDbEntity
  8
ZUWAKU
  6
CONTINUOUS
 62
      32
100
AcDbPolyline
 90
        2
 70
       0
 43
0.25
 10
520.96666667
 20
1098.63101302
 40
0.25
 41
0.25
 10
524.46666667
 20
1101.13101302
 40
0.25
 41
0.25
  0
LWPOLYLINE
  5
70
100
AcDbEntity
  8
ZUWAKU
  6
CONTINUOUS
 62
      32
100
AcDbPolyline
 90
        2
 70
       0
 43
0.25
 10
524.46666667
 20
1101.13101302
 40
0.25
 41
0.25
 10
540.96666667
 20
1101.13101302
 40
0.25
 41
0.25
  0
LWPOLYLINE
  5
71
100
AcDbEntity
  8
ZUWAKU
  6
CONTINUOUS
 62
      32
100
AcDbPolyline
 90
        2
 70
       0
 43
0.25
 10
540.96666667
 20
1101.13101302
 40
0.25
 41
0.25
 10
543.96666667
 20
1108.63101302
 40
0.25
 41
0.25
  0
LWPOLYLINE
  5
72
100
AcDbEntity
  8
ZUWAKU
  6
CONTINUOUS
 62
      32
100
AcDbPolyline
 90
        2
 70
       0
 43
0.25
 10
576.06666667
 20
1108.63101302
 40
0.25
 41
0.25
 10
573.56666667
 20
1101.13101302
 40
0.25
 41
0.25
  0
LWPOLYLINE
  5
73
100
AcDbEntity
  8
ZUWAKU
  6
CONTINUOUS
 62
      32
100
AcDbPolyline
 90
        2
 70
       0
 43
0.25
 10
573.56666667
 20
1101.13101302
 40
0.25
 41
0.25
 10
569.06666667
 20
1101.13101302
 40
0.25
 41
0.25
  0
LWPOLYLINE
  5
74
100
AcDbEntity
  8
ZUWAKU
  6
CONTINUOUS
 62
      32
100
AcDbPolyline
 90
        2
 70
       0
 43
0.25
 10
569.06666667
 20
1101.13101302
 40
0.25
 41
0.25
 10
565.06666667
 20
1100.63101302
 40
0.25
 41
0.25
  0
LWPOLYLINE
  5
75
100
AcDbEntity
  8
ZUWAKU
  6
CONTINUOUS
 62
      32
100
AcDbPolyline
 90
        2
 70
       0
 43
0.25
 10
565.06666667
 20
1100.63101302
 40
0.25
 41
0.25
 10
561.06666667
 20
1098.63101302
 40
0.25
 41
0.25
  0
LWPOLYLINE
  5
76
100
AcDbEntity
  8
ZUWAKU
  6
CONTINUOUS
 62
      32
100
AcDbPolyline
 90
        2
 70
       0
 43
0.25
 10
561.06666667
 20
1098.63101302
 40
0.25
 41
0.25
 10
558.56666667
 20
1094.63101302
 40
0.25
 41
0.25
  0
LWPOLYLINE
  5
77
100
AcDbEntity
  8
ZUWAKU
  6
CONTINUOUS
 62
      32
100
AcDbPolyline
 90
        2
 70
       0
 43
0.25
 10
558.56666667
 20
1094.63101302
 40
0.25
 41
0.25
 10
549.06666667
 20
1069.13101302
 40
0.25
 41
0.25
  0
LWPOLYLINE
  5
78
100
AcDbEntity
  8
ZUWAKU
  6
CONTINUOUS
 62
      32
100
AcDbPolyline
 90
        2
 70
       0
 43
0.25
 10
549.06666667
 20
1069.13101302
 40
0.25
 41
0.25
 10
535.56666667
 20
1069.13101302
 40
0.25
 41
0.25
  0
LWPOLYLINE
  5
79
100
AcDbEntity
  8
ZUWAKU
  6
CONTINUOUS
 62
      32
100
AcDbPolyline
 90
        2
 70
       0
 43
0.25
 10
535.56666667
 20
1069.13101302
 40
0.25
 41
0.25
 10
545.56666667
 20
1098.63101302
 40
0.25
 41
0.25
  0
LWPOLYLINE
  5
7A
100
AcDbEntity
  8
ZUWAKU
  6
CONTINUOUS
 62
      32
100
AcDbPolyline
 90
        2
 70
       0
 43
0.25
 10
545.56666667
 20
1098.63101302
 40
0.25
 41
0.25
 10
549.56666667
 20
1102.63101302
 40
0.25
 41
0.25
  0
LWPOLYLINE
  5
7B
100
AcDbEntity
  8
ZUWAKU
  6
CONTINUOUS
 62
      32
100
AcDbPolyline
 90
        2
 70
       0
 43
0.25
 10
549.56666667
 20
1102.63101302
 40
0.25
 41
0.25
 10
553.56666667
 20
1106.13101302
 40
0.25
 41
0.25
  0
LWPOLYLINE
  5
7C
100
AcDbEntity
  8
ZUWAKU
  6
CONTINUOUS
 62
      32
100
AcDbPolyline
 90
        2
 70
       0
 43
0.25
 10
553.56666667
 20
1106.13101302
 40
0.25
 41
0.25
 10
558.56666667
 20
1108.13101302
 40
0.25
 41
0.25
  0
LWPOLYLINE
  5
7D
100
AcDbEntity
  8
ZUWAKU
  6
CONTINUOUS
 62
      32
100
AcDbPolyline
 90
        2
 70
       0
 43
0.25
 10
442.56666667
 20
1069.13101302
 40
0.25
 41
0.25
 10
445.56666667
 20
1075.63101302
 40
0.25
 41
0.25
  0
LWPOLYLINE
  5
7E
100
AcDbEntity
  8
ZUWAKU
  6
CONTINUOUS
 62
      32
100
AcDbPolyline
 90
        2
 70
       0
 43
0.25
 10
445.56666667
 20
1075.63101302
 40
0.25
 41
0.25
 10
450.56666667
 20
1080.63101302
 40
0.25
 41
0.25
  0
LWPOLYLINE
  5
7F
100
AcDbEntity
  8
ZUWAKU
  6
CONTINUOUS
 62
      32
100
AcDbPolyline
 90
        2
 70
       0
 43
0.25
 10
445.56666667
 20
1075.63101302
 40
0.25
 41
0.25
 10
450.56666667
 20
1080.63101302
 40
0.25
 41
0.25
  0
LWPOLYLINE
  5
80
100
AcDbEntity
  8
ZUWAKU
  6
CONTINUOUS
 62
      32
100
AcDbPolyline
 90
        2
 70
       0
 43
0.25
 10
450.56666667
 20
1080.63101302
 40
0.25
 41
0.25
 10
456.06666667
 20
1084.63101302
 40
0.25
 41
0.25
  0
LWPOLYLINE
  5
81
100
AcDbEntity
  8
ZUWAKU
  6
CONTINUOUS
 62
      32
100
AcDbPolyline
 90
        2
 70
       0
 43
0.25
 10
456.06666667
 20
1084.63101302
 40
0.25
 41
0.25
 10
462.56666667
 20
1086.63101302
 40
0.25
 41
0.25
  0
LWPOLYLINE
  5
82
100
AcDbEntity
  8
ZUWAKU
  6
CONTINUOUS
 62
      32
100
AcDbPolyline
 90
        2
 70
       0
 43
0.25
 10
456.06666667
 20
1084.63101302
 40
0.25
 41
0.25
 10
462.56666667
 20
1086.63101302
 40
0.25
 41
0.25
  0
LWPOLYLINE
  5
83
100
AcDbEntity
  8
ZUWAKU
  6
CONTINUOUS
 62
      32
100
AcDbPolyline
 90
        2
 70
       0
 43
0.25
 10
462.56666667
 20
1086.63101302
 40
0.25
 41
0.25
 10
470.06666667
 20
1108.63101302
 40
0.25
 41
0.25
  0
LWPOLYLINE
  5
84
100
AcDbEntity
  8
ZUWAKU
  6
CONTINUOUS
 62
      32
100
AcDbPolyline
 90
        2
 70
       0
 43
0.25
 10
470.06666667
 20
1108.63101302
 40
0.25
 41
0.25
 10
486.56666667
 20
1108.63101302
 40
0.25
 41
0.25
  0
LWPOLYLINE
  5
85
100
AcDbEntity
  8
ZUWAKU
  6
CONTINUOUS
 62
      32
100
AcDbPolyline
 90
        2
 70
       0
 43
0.25
 10
470.06666667
 20
1108.63101302
 40
0.25
 41
0.25
 10
486.56666667
 20
1108.63101302
 40
0.25
 41
0.25
  0
LWPOLYLINE
  5
86
100
AcDbEntity
  8
ZUWAKU
  6
CONTINUOUS
 62
      32
100
AcDbPolyline
 90
        2
 70
       0
 43
0.25
 10
480.36666667
 20
1089.63101302
 40
0.25
 41
0.25
 10
495.56666667
 20
1089.63101302
 40
0.25
 41
0.25
  0
LWPOLYLINE
  5
87
100
AcDbEntity
  8
ZUWAKU
  6
CONTINUOUS
 62
      32
100
AcDbPolyline
 90
        2
 70
       0
 43
0.25
 10
495.56666667
 20
1089.63101302
 40
0.25
 41
0.25
 10
493.06666667
 20
1082.63101302
 40
0.25
 41
0.25
  0
LWPOLYLINE
  5
88
100
AcDbEntity
  8
ZUWAKU
  6
CONTINUOUS
 62
      32
100
AcDbPolyline
 90
        2
 70
       0
 43
0.25
 10
486.56666667
 20
1108.63101302
 40
0.25
 41
0.25
 10
479.56666667
 20
1089.63101302
 40
0.25
 41
0.25
  0
LWPOLYLINE
  5
89
100
AcDbEntity
  8
ZUWAKU
  6
CONTINUOUS
 62
      32
100
AcDbPolyline
 90
        2
 70
       0
 43
0.25
 10
486.56666667
 20
1108.63101302
 40
0.25
 41
0.25
 10
479.56666667
 20
1089.63101302
 40
0.25
 41
0.25
  0
LWPOLYLINE
  5
8A
100
AcDbEntity
  8
ZUWAKU
  6
CONTINUOUS
 62
      32
100
AcDbPolyline
 90
        2
 70
       0
 43
0.25
 10
493.06666667
 20
1082.63101302
 40
0.25
 41
0.25
 10
483.56666667
 20
1082.63101302
 40
0.25
 41
0.25
  0
LWPOLYLINE
  5
8B
100
AcDbEntity
  8
ZUWAKU
  6
CONTINUOUS
 62
      32
100
AcDbPolyline
 90
        2
 70
       0
 43
0.25
 10
493.06666667
 20
1082.63101302
 40
0.25
 41
0.25
 10
483.56666667
 20
1082.63101302
 40
0.25
 41
0.25
  0
LWPOLYLINE
  5
8C
100
AcDbEntity
  8
ZUWAKU
  6
CONTINUOUS
 62
      32
100
AcDbPolyline
 90
        2
 70
       0
 43
0.25
 10
483.56666667
 20
1082.63101302
 40
0.25
 41
0.25
 10
477.06666667
 20
1082.13101302
 40
0.25
 41
0.25
  0
LWPOLYLINE
  5
8D
100
AcDbEntity
  8
ZUWAKU
  6
CONTINUOUS
 62
      32
100
AcDbPolyline
 90
        2
 70
       0
 43
0.25
 10
483.56666667
 20
1082.63101302
 40
0.25
 41
0.25
 10
477.06666667
 20
1082.13101302
 40
0.25
 41
0.25
  0
LWPOLYLINE
  5
8E
100
AcDbEntity
  8
ZUWAKU
  6
CONTINUOUS
 62
      32
100
AcDbPolyline
 90
        2
 70
       0
 43
0.25
 10
477.06666667
 20
1082.13101302
 40
0.25
 41
0.25
 10
470.06666667
 20
1079.13101302
 40
0.25
 41
0.25
  0
LWPOLYLINE
  5
8F
100
AcDbEntity
  8
ZUWAKU
  6
CONTINUOUS
 62
      32
100
AcDbPolyline
 90
        2
 70
       0
 43
0.25
 10
477.06666667
 20
1082.13101302
 40
0.25
 41
0.25
 10
470.06666667
 20
1079.13101302
 40
0.25
 41
0.25
  0
LWPOLYLINE
  5
90
100
AcDbEntity
  8
ZUWAKU
  6
CONTINUOUS
 62
      32
100
AcDbPolyline
 90
        2
 70
       0
 43
0.25
 10
470.06666667
 20
1079.13101302
 40
0.25
 41
0.25
 10
465.06666667
 20
1074.63101302
 40
0.25
 41
0.25
  0
LWPOLYLINE
  5
91
100
AcDbEntity
  8
ZUWAKU
  6
CONTINUOUS
 62
      32
100
AcDbPolyline
 90
        2
 70
       0
 43
0.25
 10
470.06666667
 20
1079.13101302
 40
0.25
 41
0.25
 10
465.06666667
 20
1074.63101302
 40
0.25
 41
0.25
  0
LWPOLYLINE
  5
92
100
AcDbEntity
  8
ZUWAKU
  6
CONTINUOUS
 62
      32
100
AcDbPolyline
 90
        2
 70
       0
 43
0.25
 10
559.06666667
 20
1069.13101302
 40
0.25
 41
0.25
 10
568.06666667
 20
1093.13101302
 40
0.25
 41
0.25
  0
LWPOLYLINE
  5
93
100
AcDbEntity
  8
ZUWAKU
  6
CONTINUOUS
 62
      32
100
AcDbPolyline
 90
        2
 70
       0
 43
0.25
 10
568.06666667
 20
1093.13101302
 40
0.25
 41
0.25
 10
579.56666667
 20
1093.13101302
 40
0.25
 41
0.25
  0
LWPOLYLINE
  5
94
100
AcDbEntity
  8
ZUWAKU
  6
CONTINUOUS
 62
      32
100
AcDbPolyline
 90
        2
 70
       0
 43
0.25
 10
568.06666667
 20
1093.13101302
 40
0.25
 41
0.25
 10
579.56666667
 20
1093.13101302
 40
0.25
 41
0.25
  0
LWPOLYLINE
  5
95
100
AcDbEntity
  8
ZUWAKU
  6
CONTINUOUS
 62
      32
100
AcDbPolyline
 90
        2
 70
       0
 43
0.25
 10
579.56666667
 20
1093.13101302
 40
0.25
 41
0.25
 10
571.06666667
 20
1069.13101302
 40
0.25
 41
0.25
  0
LWPOLYLINE
  5
96
100
AcDbEntity
  8
ZUWAKU
  6
CONTINUOUS
 62
      32
100
AcDbPolyline
 90
        2
 70
       0
 43
0.25
 10
571.06666667
 20
1069.13101302
 40
0.25
 41
0.25
 10
559.06666667
 20
1069.13101302
 40
0.25
 41
0.25
  0
LWPOLYLINE
  5
97
100
AcDbEntity
  8
ZUWAKU
  6
CONTINUOUS
 62
      32
100
AcDbPolyline
 90
        2
 70
       0
 43
0.25
 10
571.06666667
 20
1069.13101302
 40
0.25
 41
0.25
 10
559.06666667
 20
1069.13101302
 40
0.25
 41
0.25
  0
LWPOLYLINE
  5
98
100
AcDbEntity
  8
ZUWAKU
  6
CONTINUOUS
 62
      32
100
AcDbPolyline
 90
        2
 70
       0
 43
0.25
 10
394.16666667
 20
1069.13101302
 40
0.25
 41
0.25
 10
397.16666667
 20
1078.13101302
 40
0.25
 41
0.25
  0
LWPOLYLINE
  5
99
100
AcDbEntity
  8
ZUWAKU
  6
CONTINUOUS
 62
      32
100
AcDbPolyline
 90
        2
 70
       0
 43
0.25
 10
397.16666667
 20
1078.13101302
 40
0.25
 41
0.25
 10
381.16666667
 20
1078.13101302
 40
0.25
 41
0.25
  0
LWPOLYLINE
  5
9A
100
AcDbEntity
  8
ZUWAKU
  6
CONTINUOUS
 62
      32
100
AcDbPolyline
 90
        2
 70
       0
 43
0.25
 10
397.16666667
 20
1078.13101302
 40
0.25
 41
0.25
 10
381.16666667
 20
1078.13101302
 40
0.25
 41
0.25
  0
LWPOLYLINE
  5
9B
100
AcDbEntity
  8
ZUWAKU
  6
CONTINUOUS
 62
      32
100
AcDbPolyline
 90
        2
 70
       0
 43
0.25
 10
408.16666667
 20
1100.63101302
 40
0.25
 41
0.25
 10
411.16666667
 20
1109.13101302
 40
0.25
 41
0.25
  0
LWPOLYLINE
  5
9C
100
AcDbEntity
  8
ZUWAKU
  6
CONTINUOUS
 62
      32
100
AcDbPolyline
 90
        2
 70
       0
 43
0.25
 10
408.16666667
 20
1100.63101302
 40
0.25
 41
0.25
 10
411.16666667
 20
1109.13101302
 40
0.25
 41
0.25
  0
LWPOLYLINE
  5
9D
100
AcDbEntity
  8
ZUWAKU
  6
CONTINUOUS
 62
      32
100
AcDbPolyline
 90
        2
 70
       0
 43
0.25
 10
411.16666667
 20
1109.13101302
 40
0.25
 41
0.25
 10
396.16666667
 20
1106.63101302
 40
0.25
 41
0.25
  0
LWPOLYLINE
  5
9E
100
AcDbEntity
  8
ZUWAKU
  6
CONTINUOUS
 62
      32
100
AcDbPolyline
 90
        2
 70
       0
 43
0.25
 10
396.16666667
 20
1106.63101302
 40
0.25
 41
0.25
 10
389.16666667
 20
1104.63101302
 40
0.25
 41
0.25
  0
LWPOLYLINE
  5
9F
100
AcDbEntity
  8
ZUWAKU
  6
CONTINUOUS
 62
      32
100
AcDbPolyline
 90
        2
 70
       0
 43
0.25
 10
396.16666667
 20
1106.63101302
 40
0.25
 41
0.25
 10
389.16666667
 20
1104.63101302
 40
0.25
 41
0.25
  0
LWPOLYLINE
  5
A0
100
AcDbEntity
  8
ZUWAKU
  6
CONTINUOUS
 62
      32
100
AcDbPolyline
 90
        2
 70
       0
 43
0.25
 10
381.66666667
 20
1102.13101302
 40
0.25
 41
0.25
 10
377.66666667
 20
1108.63101302
 40
0.25
 41
0.25
  0
LWPOLYLINE
  5
A1
100
AcDbEntity
  8
ZUWAKU
  6
CONTINUOUS
 62
      32
100
AcDbPolyline
 90
        2
 70
       0
 43
0.25
 10
377.66666667
 20
1108.63101302
 40
0.25
 41
0.25
 10
365.16666667
 20
1108.63101302
 40
0.25
 41
0.25
  0
LWPOLYLINE
  5
A2
100
AcDbEntity
  8
ZUWAKU
  6
CONTINUOUS
 62
      32
100
AcDbPolyline
 90
        2
 70
       0
 43
0.25
 10
377.66666667
 20
1108.63101302
 40
0.25
 41
0.25
 10
365.16666667
 20
1108.63101302
 40
0.25
 41
0.25
  0
LWPOLYLINE
  5
A3
100
AcDbEntity
  8
ZUWAKU
  6
CONTINUOUS
 62
      32
100
AcDbPolyline
 90
        2
 70
       0
 43
0.25
 10
373.66666667
 20
1094.63101302
 40
0.25
 41
0.25
 10
369.16666667
 20
1088.63101302
 40
0.25
 41
0.25
  0
LWPOLYLINE
  5
A4
100
AcDbEntity
  8
ZUWAKU
  6
CONTINUOUS
 62
      32
100
AcDbPolyline
 90
        2
 70
       0
 43
0.25
 10
369.16666667
 20
1088.63101302
 40
0.25
 41
0.25
 10
365.16666667
 20
1082.63101302
 40
0.25
 41
0.25
  0
LWPOLYLINE
  5
A5
100
AcDbEntity
  8
ZUWAKU
  6
CONTINUOUS
 62
      32
100
AcDbPolyline
 90
        2
 70
       0
 43
0.25
 10
365.16666667
 20
1082.63101302
 40
0.25
 41
0.25
 10
362.16666667
 20
1076.13101302
 40
0.25
 41
0.25
  0
LWPOLYLINE
  5
A6
100
AcDbEntity
  8
ZUWAKU
  6
CONTINUOUS
 62
      32
100
AcDbPolyline
 90
        2
 70
       0
 43
0.25
 10
362.16666667
 20
1076.13101302
 40
0.25
 41
0.25
 10
360.16666667
 20
1069.13101302
 40
0.25
 41
0.25
  0
LWPOLYLINE
  5
A7
100
AcDbEntity
  8
ZUWAKU
  6
CONTINUOUS
 62
      32
100
AcDbPolyline
 90
        2
 70
       0
 43
0.25
 10
362.16666667
 20
1076.13101302
 40
0.25
 41
0.25
 10
360.16666667
 20
1069.13101302
 40
0.25
 41
0.25
  0
LWPOLYLINE
  5
A8
100
AcDbEntity
  8
ZUWAKU
  6
CONTINUOUS
 62
      32
100
AcDbPolyline
 90
        2
 70
       0
 43
0.25
 10
360.16666667
 20
1069.13101302
 40
0.25
 41
0.25
 10
394.16666667
 20
1069.13101302
 40
0.25
 41
0.25
  0
LWPOLYLINE
  5
A9
100
AcDbEntity
  8
ZUWAKU
  6
CONTINUOUS
 62
      32
100
AcDbPolyline
 90
        2
 70
       0
 43
0.25
 10
390.66666667
 20
1094.13101302
 40
0.25
 41
0.25
 10
398.66666667
 20
1098.63101302
 40
0.25
 41
0.25
  0
LWPOLYLINE
  5
AA
100
AcDbEntity
  8
ZUWAKU
  6
CONTINUOUS
 62
      32
100
AcDbPolyline
 90
        2
 70
       0
 43
0.25
 10
389.16666667
 20
1104.63101302
 40
0.25
 41
0.25
 10
381.66666667
 20
1102.13101302
 40
0.25
 41
0.25
  0
LWPOLYLINE
  5
AB
100
AcDbEntity
  8
ZUWAKU
  6
CONTINUOUS
 62
      32
100
AcDbPolyline
 90
        2
 70
       0
 43
0.25
 10
389.16666667
 20
1104.63101302
 40
0.25
 41
0.25
 10
381.66666667
 20
1102.13101302
 40
0.25
 41
0.25
  0
LWPOLYLINE
  5
AC
100
AcDbEntity
  8
ZUWAKU
  6
CONTINUOUS
 62
      32
100
AcDbPolyline
 90
        2
 70
       0
 43
0.25
 10
365.16666667
 20
1108.63101302
 40
0.25
 41
0.25
 10
373.66666667
 20
1094.63101302
 40
0.25
 41
0.25
  0
LWPOLYLINE
  5
AD
100
AcDbEntity
  8
ZUWAKU
  6
CONTINUOUS
 62
      32
100
AcDbPolyline
 90
        2
 70
       0
 43
0.25
 10
365.16666667
 20
1108.63101302
 40
0.25
 41
0.25
 10
373.66666667
 20
1094.63101302
 40
0.25
 41
0.25
  0
LWPOLYLINE
  5
AE
100
AcDbEntity
  8
ZUWAKU
  6
CONTINUOUS
 62
      32
100
AcDbPolyline
 90
        2
 70
       0
 43
0.25
 10
384.16666667
 20
1086.63101302
 40
0.25
 41
0.25
 10
390.66666667
 20
1094.13101302
 40
0.25
 41
0.25
  0
LWPOLYLINE
  5
AF
100
AcDbEntity
  8
ZUWAKU
  6
CONTINUOUS
 62
      32
100
AcDbPolyline
 90
        2
 70
       0
 43
0.25
 10
384.16666667
 20
1086.63101302
 40
0.25
 41
0.25
 10
390.66666667
 20
1094.13101302
 40
0.25
 41
0.25
  0
LWPOLYLINE
  5
B0
100
AcDbEntity
  8
ZUWAKU
  6
CONTINUOUS
 62
      32
100
AcDbPolyline
 90
        2
 70
       0
 43
0.25
 10
483.56666667
 20
1082.63101302
 40
0.25
 41
0.25
 10
477.06666667
 20
1082.13101302
 40
0.25
 41
0.25
  0
LWPOLYLINE
  5
B1
100
AcDbEntity
  8
ZUWAKU
  6
CONTINUOUS
 62
      32
100
AcDbPolyline
 90
        2
 70
       0
 43
0.25
 10
477.06666667
 20
1082.13101302
 40
0.25
 41
0.25
 10
470.06666667
 20
1079.13101302
 40
0.25
 41
0.25
  0
LWPOLYLINE
  5
B2
100
AcDbEntity
  8
ZUWAKU
  6
CONTINUOUS
 62
      32
100
AcDbPolyline
 90
        2
 70
       0
 43
0.25
 10
470.06666667
 20
1079.13101302
 40
0.25
 41
0.25
 10
465.06666667
 20
1074.63101302
 40
0.25
 41
0.25
  0
LWPOLYLINE
  5
B3
100
AcDbEntity
  8
ZUWAKU
  6
CONTINUOUS
 62
      32
100
AcDbPolyline
 90
        2
 70
       0
 43
0.25
 10
465.06666667
 20
1074.63101302
 40
0.25
 41
0.25
 10
461.06666667
 20
1069.13101302
 40
0.25
 41
0.25
  0
LWPOLYLINE
  5
B4
100
AcDbEntity
  8
ZUWAKU
  6
CONTINUOUS
 62
      32
100
AcDbPolyline
 90
        2
 70
       0
 43
0.25
 10
426.76666667
 20
1108.63101302
 40
0.25
 41
0.25
 10
417.76666667
 20
1104.63101302
 40
0.25
 41
0.25
  0
LWPOLYLINE
  5
B5
100
AcDbEntity
  8
ZUWAKU
  6
CONTINUOUS
 62
      32
100
AcDbPolyline
 90
        2
 70
       0
 43
0.25
 10
417.76666667
 20
1104.63101302
 40
0.25
 41
0.25
 10
409.76666667
 20
1097.13101302
 40
0.25
 41
0.25
  0
LWPOLYLINE
  5
B6
100
AcDbEntity
  8
ZUWAKU
  6
CONTINUOUS
 62
      32
100
AcDbPolyline
 90
        2
 70
       0
 43
0.25
 10
409.76666667
 20
1097.13101302
 40
0.25
 41
0.25
 10
403.76666667
 20
1087.13101302
 40
0.25
 41
0.25
  0
LWPOLYLINE
  5
B7
100
AcDbEntity
  8
ZUWAKU
  6
CONTINUOUS
 62
      32
100
AcDbPolyline
 90
        2
 70
       0
 43
0.25
 10
403.76666667
 20
1087.13101302
 40
0.25
 41
0.25
 10
401.76666667
 20
1076.63101302
 40
0.25
 41
0.25
  0
LWPOLYLINE
  5
B8
100
AcDbEntity
  8
ZUWAKU
  6
CONTINUOUS
 62
      32
100
AcDbPolyline
 90
        2
 70
       0
 43
0.25
 10
408.16666667
 20
1100.63101302
 40
0.25
 41
0.25
 10
398.66666667
 20
1098.63101302
 40
0.25
 41
0.25
  0
LWPOLYLINE
  5
B9
100
AcDbEntity
  8
ZUWAKU
  6
CONTINUOUS
 62
      32
100
AcDbPolyline
 90
        2
 70
       0
 43
0.25
 10
398.66666667
 20
1098.63101302
 40
0.25
 41
0.25
 10
390.66666667
 20
1094.13101302
 40
0.25
 41
0.25
  0
LWPOLYLINE
  5
BA
100
AcDbEntity
  8
ZUWAKU
  6
CONTINUOUS
 62
      32
100
AcDbPolyline
 90
        2
 70
       0
 43
0.25
 10
390.66666667
 20
1094.13101302
 40
0.25
 41
0.25
 10
384.16666667
 20
1086.63101302
 40
0.25
 41
0.25
  0
LWPOLYLINE
  5
BB
100
AcDbEntity
  8
ZUWAKU
  6
CONTINUOUS
 62
      32
100
AcDbPolyline
 90
        2
 70
       0
 43
0.25
 10
462.56666667
 20
1086.63101302
 40
0.25
 41
0.25
 10
456.06666667
 20
1084.63101302
 40
0.25
 41
0.25
  0
LWPOLYLINE
  5
BC
100
AcDbEntity
  8
ZUWAKU
  6
CONTINUOUS
 62
      32
100
AcDbPolyline
 90
        2
 70
       0
 43
0.25
 10
456.06666667
 20
1084.63101302
 40
0.25
 41
0.25
 10
450.56666667
 20
1080.63101302
 40
0.25
 41
0.25
  0
LWPOLYLINE
  5
BD
100
AcDbEntity
  8
ZUWAKU
  6
CONTINUOUS
 62
      32
100
AcDbPolyline
 90
        2
 70
       0
 43
0.25
 10
450.56666667
 20
1080.63101302
 40
0.25
 41
0.25
 10
445.56666667
 20
1075.63101302
 40
0.25
 41
0.25
  0
LWPOLYLINE
  5
BE
100
AcDbEntity
  8
ZUWAKU
  6
CONTINUOUS
 62
      32
100
AcDbPolyline
 90
        2
 70
       0
 43
0.25
 10
445.56666667
 20
1075.63101302
 40
0.25
 41
0.25
 10
442.56666667
 20
1069.13101302
 40
0.25
 41
0.25
  0
LWPOLYLINE
  5
BF
100
AcDbEntity
  8
ZUWAKU
  6
CONTINUOUS
 62
      32
100
AcDbPolyline
 90
        2
 70
       0
 43
0.25
 10
373.66666667
 20
1094.63101302
 40
0.25
 41
0.25
 10
369.16666667
 20
1088.63101302
 40
0.25
 41
0.25
  0
LWPOLYLINE
  5
C0
100
AcDbEntity
  8
ZUWAKU
  6
CONTINUOUS
 62
      32
100
AcDbPolyline
 90
        2
 70
       0
 43
0.25
 10
369.16666667
 20
1088.63101302
 40
0.25
 41
0.25
 10
365.16666667
 20
1082.63101302
 40
0.25
 41
0.25
  0
LWPOLYLINE
  5
C1
100
AcDbEntity
  8
ZUWAKU
  6
CONTINUOUS
 62
      32
100
AcDbPolyline
 90
        2
 70
       0
 43
0.25
 10
365.16666667
 20
1082.63101302
 40
0.25
 41
0.25
 10
362.16666667
 20
1076.13101302
 40
0.25
 41
0.25
  0
LWPOLYLINE
  5
C2
100
AcDbEntity
  8
ZUWAKU
  6
CONTINUOUS
 62
      32
100
AcDbPolyline
 90
        2
 70
       0
 43
0.25
 10
362.16666667
 20
1076.13101302
 40
0.25
 41
0.25
 10
360.16666667
 20
1069.13101302
 40
0.25
 41
0.25
  0
LWPOLYLINE
  5
C3
100
AcDbEntity
  8
ZUWAKU
  6
CONTINUOUS
 62
      32
100
AcDbPolyline
 90
        2
 70
       0
 43
0.25
 10
396.16666667
 20
1106.63101302
 40
0.25
 41
0.25
 10
389.16666667
 20
1104.63101302
 40
0.25
 41
0.25
  0
LWPOLYLINE
  5
C4
100
AcDbEntity
  8
ZUWAKU
  6
CONTINUOUS
 62
      32
100
AcDbPolyline
 90
        2
 70
       0
 43
0.25
 10
389.16666667
 20
1104.63101302
 40
0.25
 41
0.25
 10
381.66666667
 20
1102.13101302
 40
0.25
 41
0.25
  0
LWPOLYLINE
  5
C5
100
AcDbEntity
  8
ZUWAKU
  6
CONTINUOUS
 62
      32
100
AcDbPolyline
 90
        2
 70
       0
 43
0.25
 10
409.26666667
 20
1083.13101302
 40
0.25
 41
0.25
 10
406.76666667
 20
1076.63101302
 40
0.25
 41
0.25
  0
LWPOLYLINE
  5
C6
100
AcDbEntity
  8
ZUWAKU
  6
CONTINUOUS
 62
      32
100
AcDbPolyline
 90
        2
 70
       0
 43
0.25
 10
406.76666667
 20
1076.63101302
 40
0.25
 41
0.25
 10
401.76666667
 20
1076.63101302
 40
0.25
 41
0.25
  0
LWPOLYLINE
  5
C7
100
AcDbEntity
  8
ZUWAKU
  6
CONTINUOUS
 62
      32
100
AcDbPolyline
 90
        2
 70
       0
 43
0.25
 10
406.76666667
 20
1076.63101302
 40
0.25
 41
0.25
 10
401.76666667
 20
1076.63101302
 40
0.25
 41
0.25
  0
LWPOLYLINE
  5
C8
100
AcDbEntity
  8
ZUWAKU
  6
CONTINUOUS
 62
      32
100
AcDbPolyline
 90
        2
 70
       0
 43
0.25
 10
401.76666667
 20
1076.63101302
 40
0.25
 41
0.25
 10
403.76666667
 20
1087.13101302
 40
0.25
 41
0.25
  0
LWPOLYLINE
  5
C9
100
AcDbEntity
  8
ZUWAKU
  6
CONTINUOUS
 62
      32
100
AcDbPolyline
 90
        2
 70
       0
 43
0.25
 10
403.76666667
 20
1087.13101302
 40
0.25
 41
0.25
 10
409.76666667
 20
1097.13101302
 40
0.25
 41
0.25
  0
LWPOLYLINE
  5
CA
100
AcDbEntity
  8
ZUWAKU
  6
CONTINUOUS
 62
      32
100
AcDbPolyline
 90
        2
 70
       0
 43
0.25
 10
403.76666667
 20
1087.13101302
 40
0.25
 41
0.25
 10
409.76666667
 20
1097.13101302
 40
0.25
 41
0.25
  0
LWPOLYLINE
  5
CB
100
AcDbEntity
  8
ZUWAKU
  6
CONTINUOUS
 62
      32
100
AcDbPolyline
 90
        2
 70
       0
 43
0.25
 10
409.76666667
 20
1097.13101302
 40
0.25
 41
0.25
 10
417.76666667
 20
1104.63101302
 40
0.25
 41
0.25
  0
LWPOLYLINE
  5
CC
100
AcDbEntity
  8
ZUWAKU
  6
CONTINUOUS
 62
      32
100
AcDbPolyline
 90
        2
 70
       0
 43
0.25
 10
427.76666667
 20
1108.63101302
 40
0.25
 41
0.25
 10
453.26666667
 20
1108.63101302
 40
0.25
 41
0.25
  0
LWPOLYLINE
  5
CD
100
AcDbEntity
  8
ZUWAKU
  6
CONTINUOUS
 62
      32
100
AcDbPolyline
 90
        2
 70
       0
 43
0.25
 10
453.26666667
 20
1108.63101302
 40
0.25
 41
0.25
 10
448.76666667
 20
1096.13101302
 40
0.25
 41
0.25
  0
LWPOLYLINE
  5
CE
100
AcDbEntity
  8
ZUWAKU
  6
CONTINUOUS
 62
      32
100
AcDbPolyline
 90
        2
 70
       0
 43
0.25
 10
453.26666667
 20
1108.63101302
 40
0.25
 41
0.25
 10
448.76666667
 20
1096.13101302
 40
0.25
 41
0.25
  0
LWPOLYLINE
  5
CF
100
AcDbEntity
  8
ZUWAKU
  6
CONTINUOUS
 62
      32
100
AcDbPolyline
 90
        2
 70
       0
 43
0.25
 10
413.26666667
 20
1088.63101302
 40
0.25
 41
0.25
 10
409.26666667
 20
1083.13101302
 40
0.25
 41
0.25
  0
LWPOLYLINE
  5
D0
100
AcDbEntity
  8
ZUWAKU
  6
CONTINUOUS
 62
      32
100
AcDbPolyline
 90
        2
 70
       0
 43
0.25
 10
448.76666667
 20
1096.13101302
 40
0.25
 41
0.25
 10
424.76666667
 20
1096.13101302
 40
0.25
 41
0.25
  0
LWPOLYLINE
  5
D1
100
AcDbEntity
  8
ZUWAKU
  6
CONTINUOUS
 62
      32
100
AcDbPolyline
 90
        2
 70
       0
 43
0.25
 10
448.76666667
 20
1096.13101302
 40
0.25
 41
0.25
 10
424.76666667
 20
1096.13101302
 40
0.25
 41
0.25
  0
LWPOLYLINE
  5
D2
100
AcDbEntity
  8
ZUWAKU
  6
CONTINUOUS
 62
      32
100
AcDbPolyline
 90
        2
 70
       0
 43
0.25
 10
424.76666667
 20
1096.13101302
 40
0.25
 41
0.25
 10
418.76666667
 20
1093.13101302
 40
0.25
 41
0.25
  0
LWPOLYLINE
  5
D3
100
AcDbEntity
  8
ZUWAKU
  6
CONTINUOUS
 62
      32
100
AcDbPolyline
 90
        2
 70
       0
 43
0.25
 10
424.76666667
 20
1096.13101302
 40
0.25
 41
0.25
 10
418.76666667
 20
1093.13101302
 40
0.25
 41
0.25
  0
LWPOLYLINE
  5
D4
100
AcDbEntity
  8
ZUWAKU
  6
CONTINUOUS
 62
      32
100
AcDbPolyline
 90
        2
 70
       0
 43
0.25
 10
418.76666667
 20
1093.13101302
 40
0.25
 41
0.25
 10
413.26666667
 20
1088.63101302
 40
0.25
 41
0.25
  0
LWPOLYLINE
  5
D5
100
AcDbEntity
  8
ZUWAKU
  6
CONTINUOUS
 62
      32
100
AcDbPolyline
 90
        2
 70
       0
 43
0.25
 10
497.96666667
 20
1082.63101302
 40
0.25
 41
0.25
 10
503.96666667
 20
1099.13101302
 40
0.25
 41
0.25
  0
LWPOLYLINE
  5
D6
100
AcDbEntity
  8
ZUWAKU
  6
CONTINUOUS
 62
      32
100
AcDbPolyline
 90
        2
 70
       0
 43
0.25
 10
503.96666667
 20
1099.13101302
 40
0.25
 41
0.25
 10
507.46666667
 20
1102.63101302
 40
0.25
 41
0.25
  0
LWPOLYLINE
  5
D7
100
AcDbEntity
  8
ZUWAKU
  6
CONTINUOUS
 62
      32
100
AcDbPolyline
 90
        2
 70
       0
 43
0.25
 10
503.96666667
 20
1099.13101302
 40
0.25
 41
0.25
 10
507.46666667
 20
1102.63101302
 40
0.25
 41
0.25
  0
LWPOLYLINE
  5
D8
100
AcDbEntity
  8
ZUWAKU
  6
CONTINUOUS
 62
      32
100
AcDbPolyline
 90
        2
 70
       0
 43
0.25
 10
507.46666667
 20
1102.63101302
 40
0.25
 41
0.25
 10
510.46666667
 20
1105.63101302
 40
0.25
 41
0.25
  0
LWPOLYLINE
  5
D9
100
AcDbEntity
  8
ZUWAKU
  6
CONTINUOUS
 62
      32
100
AcDbPolyline
 90
        2
 70
       0
 43
0.25
 10
510.46666667
 20
1105.63101302
 40
0.25
 41
0.25
 10
514.46666667
 20
1107.63101302
 40
0.25
 41
0.25
  0
LWPOLYLINE
  5
DA
100
AcDbEntity
  8
ZUWAKU
  6
CONTINUOUS
 62
      32
100
AcDbPolyline
 90
        2
 70
       0
 43
0.25
 10
510.46666667
 20
1105.63101302
 40
0.25
 41
0.25
 10
514.46666667
 20
1107.63101302
 40
0.25
 41
0.25
  0
LWPOLYLINE
  5
DB
100
AcDbEntity
  8
ZUWAKU
  6
CONTINUOUS
 62
      32
100
AcDbPolyline
 90
        2
 70
       0
 43
0.25
 10
514.46666667
 20
1107.63101302
 40
0.25
 41
0.25
 10
518.46666667
 20
1108.63101302
 40
0.25
 41
0.25
  0
LWPOLYLINE
  5
DC
100
AcDbEntity
  8
ZUWAKU
  6
CONTINUOUS
 62
      32
100
AcDbPolyline
 90
        2
 70
       0
 43
0.25
 10
518.46666667
 20
1108.63101302
 40
0.25
 41
0.25
 10
543.96666667
 20
1108.63101302
 40
0.25
 41
0.25
  0
LWPOLYLINE
  5
DD
100
AcDbEntity
  8
ZUWAKU
  6
CONTINUOUS
 62
      32
100
AcDbPolyline
 90
        2
 70
       0
 43
0.25
 10
518.46666667
 20
1108.63101302
 40
0.25
 41
0.25
 10
543.96666667
 20
1108.63101302
 40
0.25
 41
0.25
  0
LWPOLYLINE
  5
DE
100
AcDbEntity
  8
ZUWAKU
  6
CONTINUOUS
 62
      32
100
AcDbPolyline
 90
        2
 70
       0
 43
0.25
 10
543.96666667
 20
1108.63101302
 40
0.25
 41
0.25
 10
540.96666667
 20
1101.13101302
 40
0.25
 41
0.25
  0
LWPOLYLINE
  5
DF
100
AcDbEntity
  8
ZUWAKU
  6
CONTINUOUS
 62
      32
100
AcDbPolyline
 90
        2
 70
       0
 43
0.25
 10
540.96666667
 20
1101.13101302
 40
0.25
 41
0.25
 10
524.46666667
 20
1101.13101302
 40
0.25
 41
0.25
  0
LWPOLYLINE
  5
E0
100
AcDbEntity
  8
ZUWAKU
  6
CONTINUOUS
 62
      32
100
AcDbPolyline
 90
        2
 70
       0
 43
0.25
 10
540.96666667
 20
1101.13101302
 40
0.25
 41
0.25
 10
524.46666667
 20
1101.13101302
 40
0.25
 41
0.25
  0
LWPOLYLINE
  5
E1
100
AcDbEntity
  8
ZUWAKU
  6
CONTINUOUS
 62
      32
100
AcDbPolyline
 90
        2
 70
       0
 43
0.25
 10
514.96666667
 20
1089.63101302
 40
0.25
 41
0.25
 10
535.96666667
 20
1089.63101302
 40
0.25
 41
0.25
  0
LWPOLYLINE
  5
E2
100
AcDbEntity
  8
ZUWAKU
  6
CONTINUOUS
 62
      32
100
AcDbPolyline
 90
        2
 70
       0
 43
0.25
 10
535.96666667
 20
1089.63101302
 40
0.25
 41
0.25
 10
533.96666667
 20
1082.63101302
 40
0.25
 41
0.25
  0
LWPOLYLINE
  5
E3
100
AcDbEntity
  8
ZUWAKU
  6
CONTINUOUS
 62
      32
100
AcDbPolyline
 90
        2
 70
       0
 43
0.25
 10
535.96666667
 20
1089.63101302
 40
0.25
 41
0.25
 10
533.96666667
 20
1082.63101302
 40
0.25
 41
0.25
  0
LWPOLYLINE
  5
E4
100
AcDbEntity
  8
ZUWAKU
  6
CONTINUOUS
 62
      32
100
AcDbPolyline
 90
        2
 70
       0
 43
0.25
 10
524.46666667
 20
1101.13101302
 40
0.25
 41
0.25
 10
520.96666667
 20
1098.63101302
 40
0.25
 41
0.25
  0
LWPOLYLINE
  5
E5
100
AcDbEntity
  8
ZUWAKU
  6
CONTINUOUS
 62
      32
100
AcDbPolyline
 90
        2
 70
       0
 43
0.25
 10
524.46666667
 20
1101.13101302
 40
0.25
 41
0.25
 10
520.96666667
 20
1098.63101302
 40
0.25
 41
0.25
  0
LWPOLYLINE
  5
E6
100
AcDbEntity
  8
ZUWAKU
  6
CONTINUOUS
 62
      32
100
AcDbPolyline
 90
        2
 70
       0
 43
0.25
 10
520.96666667
 20
1098.63101302
 40
0.25
 41
0.25
 10
518.46666667
 20
1096.13101302
 40
0.25
 41
0.25
  0
LWPOLYLINE
  5
E7
100
AcDbEntity
  8
ZUWAKU
  6
CONTINUOUS
 62
      32
100
AcDbPolyline
 90
        2
 70
       0
 43
0.25
 10
520.96666667
 20
1098.63101302
 40
0.25
 41
0.25
 10
518.46666667
 20
1096.13101302
 40
0.25
 41
0.25
  0
LWPOLYLINE
  5
E8
100
AcDbEntity
  8
ZUWAKU
  6
CONTINUOUS
 62
      32
100
AcDbPolyline
 90
        2
 70
       0
 43
0.25
 10
518.46666667
 20
1096.13101302
 40
0.25
 41
0.25
 10
515.96666667
 20
1093.13101302
 40
0.25
 41
0.25
  0
LWPOLYLINE
  5
E9
100
AcDbEntity
  8
ZUWAKU
  6
CONTINUOUS
 62
      32
100
AcDbPolyline
 90
        2
 70
       0
 43
0.25
 10
518.46666667
 20
1096.13101302
 40
0.25
 41
0.25
 10
515.96666667
 20
1093.13101302
 40
0.25
 41
0.25
  0
LWPOLYLINE
  5
EA
100
AcDbEntity
  8
ZUWAKU
  6
CONTINUOUS
 62
      32
100
AcDbPolyline
 90
        2
 70
       0
 43
0.25
 10
515.96666667
 20
1093.13101302
 40
0.25
 41
0.25
 10
514.96666667
 20
1089.63101302
 40
0.25
 41
0.25
  0
LWPOLYLINE
  5
EB
100
AcDbEntity
  8
ZUWAKU
  6
CONTINUOUS
 62
      32
100
AcDbPolyline
 90
        2
 70
       0
 43
0.25
 10
515.96666667
 20
1093.13101302
 40
0.25
 41
0.25
 10
514.96666667
 20
1089.63101302
 40
0.25
 41
0.25
  0
LWPOLYLINE
  5
EC
100
AcDbEntity
  8
ZUWAKU
  6
CONTINUOUS
 62
      32
100
AcDbPolyline
 90
        2
 70
       0
 43
0.25
 10
547.46666667
 20
1069.13101302
 40
0.25
 41
0.25
 10
536.47063677
 20
1069.13101302
 40
0.25
 41
0.25
  0
LWPOLYLINE
  5
ED
100
AcDbEntity
  8
ZUWAKU
  6
CONTINUOUS
 62
      32
100
AcDbPolyline
 90
        2
 70
       0
 43
0.25
 10
545.56666667
 20
1098.63101302
 40
0.25
 41
0.25
 10
549.56666667
 20
1102.63101302
 40
0.25
 41
0.25
  0
LWPOLYLINE
  5
EE
100
AcDbEntity
  8
ZUWAKU
  6
CONTINUOUS
 62
      32
100
AcDbPolyline
 90
        2
 70
       0
 43
0.25
 10
549.56666667
 20
1102.63101302
 40
0.25
 41
0.25
 10
553.56666667
 20
1106.13101302
 40
0.25
 41
0.25
  0
LWPOLYLINE
  5
EF
100
AcDbEntity
  8
ZUWAKU
  6
CONTINUOUS
 62
      32
100
AcDbPolyline
 90
        2
 70
       0
 43
0.25
 10
549.56666667
 20
1102.63101302
 40
0.25
 41
0.25
 10
553.56666667
 20
1106.13101302
 40
0.25
 41
0.25
  0
LWPOLYLINE
  5
F0
100
AcDbEntity
  8
ZUWAKU
  6
CONTINUOUS
 62
      32
100
AcDbPolyline
 90
        2
 70
       0
 43
0.25
 10
553.56666667
 20
1106.13101302
 40
0.25
 41
0.25
 10
558.56666667
 20
1108.13101302
 40
0.25
 41
0.25
  0
LWPOLYLINE
  5
F1
100
AcDbEntity
  8
ZUWAKU
  6
CONTINUOUS
 62
      32
100
AcDbPolyline
 90
        2
 70
       0
 43
0.25
 10
558.56666667
 20
1108.13101302
 40
0.25
 41
0.25
 10
563.56666667
 20
1108.63101302
 40
0.25
 41
0.25
  0
LWPOLYLINE
  5
F2
100
AcDbEntity
  8
ZUWAKU
  6
CONTINUOUS
 62
      32
100
AcDbPolyline
 90
        2
 70
       0
 43
0.25
 10
563.56666667
 20
1108.63101302
 40
0.25
 41
0.25
 10
576.06666667
 20
1108.63101302
 40
0.25
 41
0.25
  0
LWPOLYLINE
  5
F3
100
AcDbEntity
  8
ZUWAKU
  6
CONTINUOUS
 62
      32
100
AcDbPolyline
 90
        2
 70
       0
 43
0.25
 10
576.06666667
 20
1108.63101302
 40
0.25
 41
0.25
 10
573.56666667
 20
1101.13101302
 40
0.25
 41
0.25
  0
LWPOLYLINE
  5
F4
100
AcDbEntity
  8
ZUWAKU
  6
CONTINUOUS
 62
      32
100
AcDbPolyline
 90
        2
 70
       0
 43
0.25
 10
576.06666667
 20
1108.63101302
 40
0.25
 41
0.25
 10
573.56666667
 20
1101.13101302
 40
0.25
 41
0.25
  0
LWPOLYLINE
  5
F5
100
AcDbEntity
  8
ZUWAKU
  6
CONTINUOUS
 62
      32
100
AcDbPolyline
 90
        2
 70
       0
 43
0.25
 10
558.56666667
 20
1094.63101302
 40
0.25
 41
0.25
 10
549.06666667
 20
1069.13101302
 40
0.25
 41
0.25
  0
LWPOLYLINE
  5
F6
100
AcDbEntity
  8
ZUWAKU
  6
CONTINUOUS
 62
      32
100
AcDbPolyline
 90
        2
 70
       0
 43
0.25
 10
573.56666667
 20
1101.13101302
 40
0.25
 41
0.25
 10
569.06666667
 20
1101.13101302
 40
0.25
 41
0.25
  0
LWPOLYLINE
  5
F7
100
AcDbEntity
  8
ZUWAKU
  6
CONTINUOUS
 62
      32
100
AcDbPolyline
 90
        2
 70
       0
 43
0.25
 10
573.56666667
 20
1101.13101302
 40
0.25
 41
0.25
 10
569.06666667
 20
1101.13101302
 40
0.25
 41
0.25
  0
LWPOLYLINE
  5
F8
100
AcDbEntity
  8
ZUWAKU
  6
CONTINUOUS
 62
      32
100
AcDbPolyline
 90
        2
 70
       0
 43
0.25
 10
561.06666667
 20
1098.63101302
 40
0.25
 41
0.25
 10
558.56666667
 20
1094.63101302
 40
0.25
 41
0.25
  0
LWPOLYLINE
  5
F9
100
AcDbEntity
  8
ZUWAKU
  6
CONTINUOUS
 62
      32
100
AcDbPolyline
 90
        2
 70
       0
 43
0.25
 10
565.06666667
 20
1100.63101302
 40
0.25
 41
0.25
 10
561.06666667
 20
1098.63101302
 40
0.25
 41
0.25
  0
LWPOLYLINE
  5
FA
100
AcDbEntity
  8
ZUWAKU
  6
CONTINUOUS
 62
      32
100
AcDbPolyline
 90
        2
 70
       0
 43
0.25
 10
569.06666667
 20
1101.13101302
 40
0.25
 41
0.25
 10
565.06666667
 20
1100.63101302
 40
0.25
 41
0.25
  0
LWPOLYLINE
  5
FB
100
AcDbEntity
  8
ZUWAKU
  6
CONTINUOUS
 62
      32
100
AcDbPolyline
 90
        2
 70
       0
 43
0.25
 10
569.06666667
 20
1101.13101302
 40
0.25
 41
0.25
 10
565.06666667
 20
1100.63101302
 40
0.25
 41
0.25
  0
LWPOLYLINE
  5
FC
100
AcDbEntity
  8
ZUWAKU
  6
CONTINUOUS
 62
      32
100
AcDbPolyline
 90
        2
 70
       0
 43
0.25
 10
438.76666667
 20
1069.13101302
 40
0.25
 41
0.25
 10
422.76666667
 20
1069.13101302
 40
0.25
 41
0.25
  0
LWPOLYLINE
  5
FD
100
AcDbEntity
  8
ZUWAKU
  6
CONTINUOUS
 62
      32
100
AcDbPolyline
 90
        2
 70
       0
 43
0.25
 10
422.76666667
 20
1069.13101302
 40
0.25
 41
0.25
 10
425.76666667
 20
1078.13101302
 40
0.25
 41
0.25
  0
LWPOLYLINE
  5
FE
100
AcDbEntity
  8
ZUWAKU
  6
CONTINUOUS
 62
      32
100
AcDbPolyline
 90
        2
 70
       0
 43
0.25
 10
422.76666667
 20
1069.13101302
 40
0.25
 41
0.25
 10
425.76666667
 20
1078.13101302
 40
0.25
 41
0.25
  0
LWPOLYLINE
  5
FF
100
AcDbEntity
  8
ZUWAKU
  6
CONTINUOUS
 62
      32
100
AcDbPolyline
 90
        2
 70
       0
 43
0.25
 10
426.56666667
 20
1078.13101302
 40
0.25
 41
0.25
 10
442.26666667
 20
1078.13101302
 40
0.25
 41
0.25
  0
LWPOLYLINE
  5
100
100
AcDbEntity
  8
ZUWAKU
  6
CONTINUOUS
 62
      32
100
AcDbPolyline
 90
        2
 70
       0
 43
0.25
 10
379.50726154
 20
1078.06449723
 40
0.25
 41
0.25
 10
384.16666667
 20
1086.63101302
 40
0.25
 41
0.25
  0
LWPOLYLINE
  5
101
100
AcDbEntity
  8
ZUWAKU
  6
CONTINUOUS
 62
      32
100
AcDbPolyline
 90
        2
 70
       0
 43
0.25
 10
365.66666667
 20
1069.13101302
 40
0.25
 41
0.25
 10
390.66666667
 20
1094.13101302
 40
0.25
 41
0.25
  0
LWPOLYLINE
  5
102
100
AcDbEntity
  8
ZUWAKU
  6
CONTINUOUS
 62
      32
100
AcDbPolyline
 90
        2
 70
       0
 43
0.25
 10
390.66666667
 20
1094.13101302
 40
0.25
 41
0.25
 10
404.56666667
 20
1108.03101302
 40
0.25
 41
0.25
  0
LWPOLYLINE
  5
103
100
AcDbEntity
  8
ZUWAKU
  6
CONTINUOUS
 62
      32
100
AcDbPolyline
 90
        2
 70
       0
 43
0.25
 10
367.92940837
 20
1069.13101302
 40
0.25
 41
0.25
 10
382.66079042
 20
1083.86239507
 40
0.25
 41
0.25
  0
LWPOLYLINE
  5
104
100
AcDbEntity
  8
ZUWAKU
  6
CONTINUOUS
 62
      32
100
AcDbPolyline
 90
        2
 70
       0
 43
0.25
 10
395.83864769
 20
1097.04025234
 40
0.25
 41
0.25
 10
407.28195671
 20
1108.48356136
 40
0.25
 41
0.25
  0
LWPOLYLINE
  5
105
100
AcDbEntity
  8
ZUWAKU
  6
CONTINUOUS
 62
      32
100
AcDbPolyline
 90
        2
 70
       0
 43
0.25
 10
370.19215007
 20
1069.13101302
 40
0.25
 41
0.25
 10
379.96236921
 20
1078.90123216
 40
0.25
 41
0.25
  0
LWPOLYLINE
  5
106
100
AcDbEntity
  8
ZUWAKU
  6
CONTINUOUS
 62
      32
100
AcDbPolyline
 90
        2
 70
       0
 43
0.25
 10
399.96561231
 20
1098.90447526
 40
0.25
 41
0.25
 10
409.99724675
 20
1108.9361097
 40
0.25
 41
0.25
  0
LWPOLYLINE
  5
107
100
AcDbEntity
  8
ZUWAKU
  6
CONTINUOUS
 62
      32
100
AcDbPolyline
 90
        2
 70
       0
 43
0.25
 10
372.45489177
 20
1069.13101302
 40
0.25
 41
0.25
 10
381.45489177
 20
1078.13101302
 40
0.25
 41
0.25
  0
LWPOLYLINE
  5
108
100
AcDbEntity
  8
ZUWAKU
  6
CONTINUOUS
 62
      32
100
AcDbPolyline
 90
        2
 70
       0
 43
0.25
 10
402.83175179
 20
1099.50787304
 40
0.25
 41
0.25
 10
410.46399843
 20
1107.14011968
 40
0.25
 41
0.25
  0
LWPOLYLINE
  5
109
100
AcDbEntity
  8
ZUWAKU
  6
CONTINUOUS
 62
      32
100
AcDbPolyline
 90
        2
 70
       0
 43
0.25
 10
374.71763347
 20
1069.13101302
 40
0.25
 41
0.25
 10
383.71763347
 20
1078.13101302
 40
0.25
 41
0.25
  0
LWPOLYLINE
  5
10A
100
AcDbEntity
  8
ZUWAKU
  6
CONTINUOUS
 62
      32
100
AcDbPolyline
 90
        2
 70
       0
 43
0.25
 10
405.69789128
 20
1100.11127083
 40
0.25
 41
0.25
 10
409.22977569
 20
1103.64315524
 40
0.25
 41
0.25
  0
LWPOLYLINE
  5
10B
100
AcDbEntity
  8
ZUWAKU
  6
CONTINUOUS
 62
      32
100
AcDbPolyline
 90
        2
 70
       0
 43
0.25
 10
376.98037517
 20
1069.13101302
 40
0.25
 41
0.25
 10
385.98037517
 20
1078.13101302
 40
0.25
 41
0.25
  0
LWPOLYLINE
  5
10C
100
AcDbEntity
  8
ZUWAKU
  6
CONTINUOUS
 62
      32
100
AcDbPolyline
 90
        2
 70
       0
 43
0.25
 10
379.24311687
 20
1069.13101302
 40
0.25
 41
0.25
 10
388.24311687
 20
1078.13101302
 40
0.25
 41
0.25
  0
LWPOLYLINE
  5
10D
100
AcDbEntity
  8
ZUWAKU
  6
CONTINUOUS
 62
      32
100
AcDbPolyline
 90
        2
 70
       0
 43
0.25
 10
381.50585857
 20
1069.13101302
 40
0.25
 41
0.25
 10
390.50585857
 20
1078.13101302
 40
0.25
 41
0.25
  0
LWPOLYLINE
  5
10E
100
AcDbEntity
  8
ZUWAKU
  6
CONTINUOUS
 62
      32
100
AcDbPolyline
 90
        2
 70
       0
 43
0.25
 10
383.76860027
 20
1069.13101302
 40
0.25
 41
0.25
 10
392.76860027
 20
1078.13101302
 40
0.25
 41
0.25
  0
LWPOLYLINE
  5
10F
100
AcDbEntity
  8
ZUWAKU
  6
CONTINUOUS
 62
      32
100
AcDbPolyline
 90
        2
 70
       0
 43
0.25
 10
386.03134196
 20
1069.13101302
 40
0.25
 41
0.25
 10
395.03134196
 20
1078.13101302
 40
0.25
 41
0.25
  0
LWPOLYLINE
  5
110
100
AcDbEntity
  8
ZUWAKU
  6
CONTINUOUS
 62
      32
100
AcDbPolyline
 90
        2
 70
       0
 43
0.25
 10
388.29408366
 20
1069.13101302
 40
0.25
 41
0.25
 10
397.10295817
 20
1077.93988752
 40
0.25
 41
0.25
  0
LWPOLYLINE
  5
111
100
AcDbEntity
  8
ZUWAKU
  6
CONTINUOUS
 62
      32
100
AcDbPolyline
 90
        2
 70
       0
 43
0.25
 10
390.55682536
 20
1069.13101302
 40
0.25
 41
0.25
 10
395.97158732
 20
1074.54577497
 40
0.25
 41
0.25
  0
LWPOLYLINE
  5
112
100
AcDbEntity
  8
ZUWAKU
  6
CONTINUOUS
 62
      32
100
AcDbPolyline
 90
        2
 70
       0
 43
0.25
 10
392.81956706
 20
1069.13101302
 40
0.25
 41
0.25
 10
394.84021647
 20
1071.15166242
 40
0.25
 41
0.25
  0
LWPOLYLINE
  5
113
100
AcDbEntity
  8
ZUWAKU
  6
CONTINUOUS
 62
      32
100
AcDbPolyline
 90
        2
 70
       0
 43
0.25
 10
363.40392497
 20
1069.13101302
 40
0.25
 41
0.25
 10
401.85137663
 20
1107.57846468
 40
0.25
 41
0.25
  0
LWPOLYLINE
  5
114
100
AcDbEntity
  8
ZUWAKU
  6
CONTINUOUS
 62
      32
100
AcDbPolyline
 90
        2
 70
       0
 43
0.25
 10
361.14118327
 20
1069.13101302
 40
0.25
 41
0.25
 10
399.13608659
 20
1107.12591634
 40
0.25
 41
0.25
  0
LWPOLYLINE
  5
115
100
AcDbEntity
  8
ZUWAKU
  6
CONTINUOUS
 62
      32
100
AcDbPolyline
 90
        2
 70
       0
 43
0.25
 10
360.68195671
 20
1070.93452816
 40
0.25
 41
0.25
 10
396.42079655
 20
1106.673368
 40
0.25
 41
0.25
  0
LWPOLYLINE
  5
116
100
AcDbEntity
  8
ZUWAKU
  6
CONTINUOUS
 62
      32
100
AcDbPolyline
 90
        2
 70
       0
 43
0.25
 10
361.58705339
 20
1074.10236654
 40
0.25
 41
0.25
 10
393.29531315
 20
1105.8106263
 40
0.25
 41
0.25
  0
LWPOLYLINE
  5
117
100
AcDbEntity
  8
ZUWAKU
  6
CONTINUOUS
 62
      32
100
AcDbPolyline
 90
        2
 70
       0
 43
0.25
 10
362.86413109
 20
1077.64218594
 40
0.25
 41
0.25
 10
390.12747477
 20
1104.90552962
 40
0.25
 41
0.25
  0
LWPOLYLINE
  5
118
100
AcDbEntity
  8
ZUWAKU
  6
CONTINUOUS
 62
      32
100
AcDbPolyline
 90
        2
 70
       0
 43
0.25
 10
364.80362398
 20
1081.84442053
 40
0.25
 41
0.25
 10
386.80199137
 20
1103.84278792
 40
0.25
 41
0.25
  0
LWPOLYLINE
  5
119
100
AcDbEntity
  8
ZUWAKU
  6
CONTINUOUS
 62
      32
100
AcDbPolyline
 90
        2
 70
       0
 43
0.25
 10
368.84505046
 20
1088.14858871
 40
0.25
 41
0.25
 10
383.40787882
 20
1102.71141707
 40
0.25
 41
0.25
  0
LWPOLYLINE
  5
11A
100
AcDbEntity
  8
ZUWAKU
  6
CONTINUOUS
 62
      32
100
AcDbPolyline
 90
        2
 70
       0
 43
0.25
 10
373.43926953
 20
1095.00554948
 40
0.25
 41
0.25
 10
381.24688244
 20
1102.81316239
 40
0.25
 41
0.25
  0
LWPOLYLINE
  5
11B
100
AcDbEntity
  8
ZUWAKU
  6
CONTINUOUS
 62
      32
100
AcDbPolyline
 90
        2
 70
       0
 43
0.25
 10
372.584456
 20
1096.41347765
 40
0.25
 41
0.25
 10
380.3848856
 20
1104.21390725
 40
0.25
 41
0.25
  0
LWPOLYLINE
  5
11C
100
AcDbEntity
  8
ZUWAKU
  6
CONTINUOUS
 62
      32
100
AcDbPolyline
 90
        2
 70
       0
 43
0.25
 10
371.72964247
 20
1097.82140582
 40
0.25
 41
0.25
 10
379.52288876
 20
1105.61465211
 40
0.25
 41
0.25
  0
LWPOLYLINE
  5
11D
100
AcDbEntity
  8
ZUWAKU
  6
CONTINUOUS
 62
      32
100
AcDbPolyline
 90
        2
 70
       0
 43
0.25
 10
370.87482894
 20
1099.22933398
 40
0.25
 41
0.25
 10
378.66089192
 20
1107.01539697
 40
0.25
 41
0.25
  0
LWPOLYLINE
  5
11E
100
AcDbEntity
  8
ZUWAKU
  6
CONTINUOUS
 62
      32
100
AcDbPolyline
 90
        2
 70
       0
 43
0.25
 10
370.02001541
 20
1100.63726215
 40
0.25
 41
0.25
 10
377.79889509
 20
1108.41614183
 40
0.25
 41
0.25
  0
LWPOLYLINE
  5
11F
100
AcDbEntity
  8
ZUWAKU
  6
CONTINUOUS
 62
      32
100
AcDbPolyline
 90
        2
 70
       0
 43
0.25
 10
369.16520187
 20
1102.04519032
 40
0.25
 41
0.25
 10
375.75102457
 20
1108.63101302
 40
0.25
 41
0.25
  0
LWPOLYLINE
  5
120
100
AcDbEntity
  8
ZUWAKU
  6
CONTINUOUS
 62
      32
100
AcDbPolyline
 90
        2
 70
       0
 43
0.25
 10
368.31038834
 20
1103.45311849
 40
0.25
 41
0.25
 10
373.48828287
 20
1108.63101302
 40
0.25
 41
0.25
  0
LWPOLYLINE
  5
121
100
AcDbEntity
  8
ZUWAKU
  6
CONTINUOUS
 62
      32
100
AcDbPolyline
 90
        2
 70
       0
 43
0.25
 10
367.45557481
 20
1104.86104666
 40
0.25
 41
0.25
 10
371.22554117
 20
1108.63101302
 40
0.25
 41
0.25
  0
LWPOLYLINE
  5
122
100
AcDbEntity
  8
ZUWAKU
  6
CONTINUOUS
 62
      32
100
AcDbPolyline
 90
        2
 70
       0
 43
0.25
 10
366.60076128
 20
1106.26897483
 40
0.25
 41
0.25
 10
368.96279947
 20
1108.63101302
 40
0.25
 41
0.25
  0
LWPOLYLINE
  5
123
100
AcDbEntity
  8
ZUWAKU
  6
CONTINUOUS
 62
      32
100
AcDbPolyline
 90
        2
 70
       0
 43
0.25
 10
365.74594775
 20
1107.676903
 40
0.25
 41
0.25
 10
366.70005777
 20
1108.63101302
 40
0.25
 41
0.25
  0
LWPOLYLINE
  5
124
100
AcDbEntity
  8
ZUWAKU
  6
CONTINUOUS
 62
      32
100
AcDbPolyline
 90
        2
 70
       0
 43
0.25
 10
428.01666667
 20
1069.13101302
 40
0.25
 41
0.25
 10
437.01666667
 20
1078.13101302
 40
0.25
 41
0.25
  0
LWPOLYLINE
  5
125
100
AcDbEntity
  8
ZUWAKU
  6
CONTINUOUS
 62
      32
100
AcDbPolyline
 90
        2
 70
       0
 43
0.25
 10
430.27940837
 20
1069.13101302
 40
0.25
 41
0.25
 10
439.27940837
 20
1078.13101302
 40
0.25
 41
0.25
  0
LWPOLYLINE
  5
126
100
AcDbEntity
  8
ZUWAKU
  6
CONTINUOUS
 62
      32
100
AcDbPolyline
 90
        2
 70
       0
 43
0.25
 10
432.54215007
 20
1069.13101302
 40
0.25
 41
0.25
 10
441.54215007
 20
1078.13101302
 40
0.25
 41
0.25
  0
LWPOLYLINE
  5
127
100
AcDbEntity
  8
ZUWAKU
  6
CONTINUOUS
 62
      32
100
AcDbPolyline
 90
        2
 70
       0
 43
0.25
 10
434.80489177
 20
1069.13101302
 40
0.25
 41
0.25
 10
441.28779615
 20
1075.6139174
 40
0.25
 41
0.25
  0
LWPOLYLINE
  5
128
100
AcDbEntity
  8
ZUWAKU
  6
CONTINUOUS
 62
      32
100
AcDbPolyline
 90
        2
 70
       0
 43
0.25
 10
437.06763347
 20
1069.13101302
 40
0.25
 41
0.25
 10
439.84786961
 20
1071.91124916
 40
0.25
 41
0.25
  0
LWPOLYLINE
  5
129
100
AcDbEntity
  8
ZUWAKU
  6
CONTINUOUS
 62
      32
100
AcDbPolyline
 90
        2
 70
       0
 43
0.25
 10
425.75392497
 20
1069.13101302
 40
0.25
 41
0.25
 10
434.75392497
 20
1078.13101302
 40
0.25
 41
0.25
  0
LWPOLYLINE
  5
12A
100
AcDbEntity
  8
ZUWAKU
  6
CONTINUOUS
 62
      32
100
AcDbPolyline
 90
        2
 70
       0
 43
0.25
 10
423.49118327
 20
1069.13101302
 40
0.25
 41
0.25
 10
432.49118327
 20
1078.13101302
 40
0.25
 41
0.25
  0
LWPOLYLINE
  5
12B
100
AcDbEntity
  8
ZUWAKU
  6
CONTINUOUS
 62
      32
100
AcDbPolyline
 90
        2
 70
       0
 43
0.25
 10
423.53577922
 20
1071.43835067
 40
0.25
 41
0.25
 10
430.22844157
 20
1078.13101302
 40
0.25
 41
0.25
  0
LWPOLYLINE
  5
12C
100
AcDbEntity
  8
ZUWAKU
  6
CONTINUOUS
 62
      32
100
AcDbPolyline
 90
        2
 70
       0
 43
0.25
 10
424.66715007
 20
1074.83246322
 40
0.25
 41
0.25
 10
427.96569987
 20
1078.13101302
 40
0.25
 41
0.25
  0
LWPOLYLINE
  5
12D
100
AcDbEntity
  8
ZUWAKU
  6
CONTINUOUS
 62
      32
100
AcDbPolyline
 90
        2
 70
       0
 43
0.25
 10
425.70295817
 20
1078.13101302
 40
0.25
 41
0.25
 10
425.79852092
 20
1078.22657576
 40
0.25
 41
0.25
  0
LWPOLYLINE
  5
12E
100
AcDbEntity
  8
ZUWAKU
  6
CONTINUOUS
 62
      32
100
AcDbPolyline
 90
        2
 70
       0
 43
0.25
 10
431.01666667
 20
1096.13101302
 40
0.25
 41
0.25
 10
443.51666667
 20
1108.63101302
 40
0.25
 41
0.25
  0
LWPOLYLINE
  5
12F
100
AcDbEntity
  8
ZUWAKU
  6
CONTINUOUS
 62
      32
100
AcDbPolyline
 90
        2
 70
       0
 43
0.25
 10
433.27940837
 20
1096.13101302
 40
0.25
 41
0.25
 10
445.77940837
 20
1108.63101302
 40
0.25
 41
0.25
  0
LWPOLYLINE
  5
130
100
AcDbEntity
  8
ZUWAKU
  6
CONTINUOUS
 62
      32
100
AcDbPolyline
 90
        2
 70
       0
 43
0.25
 10
435.54215007
 20
1096.13101302
 40
0.25
 41
0.25
 10
448.04215007
 20
1108.63101302
 40
0.25
 41
0.25
  0
LWPOLYLINE
  5
131
100
AcDbEntity
  8
ZUWAKU
  6
CONTINUOUS
 62
      32
100
AcDbPolyline
 90
        2
 70
       0
 43
0.25
 10
437.80489177
 20
1096.13101302
 40
0.25
 41
0.25
 10
450.30489177
 20
1108.63101302
 40
0.25
 41
0.25
  0
LWPOLYLINE
  5
132
100
AcDbEntity
  8
ZUWAKU
  6
CONTINUOUS
 62
      32
100
AcDbPolyline
 90
        2
 70
       0
 43
0.25
 10
440.06763347
 20
1096.13101302
 40
0.25
 41
0.25
 10
452.56763347
 20
1108.63101302
 40
0.25
 41
0.25
  0
LWPOLYLINE
  5
133
100
AcDbEntity
  8
ZUWAKU
  6
CONTINUOUS
 62
      32
100
AcDbPolyline
 90
        2
 70
       0
 43
0.25
 10
442.33037517
 20
1096.13101302
 40
0.25
 41
0.25
 10
452.38708064
 20
1106.18771849
 40
0.25
 41
0.25
  0
LWPOLYLINE
  5
134
100
AcDbEntity
  8
ZUWAKU
  6
CONTINUOUS
 62
      32
100
AcDbPolyline
 90
        2
 70
       0
 43
0.25
 10
444.59311687
 20
1096.13101302
 40
0.25
 41
0.25
 10
451.11428843
 20
1102.65218458
 40
0.25
 41
0.25
  0
LWPOLYLINE
  5
135
100
AcDbEntity
  8
ZUWAKU
  6
CONTINUOUS
 62
      32
100
AcDbPolyline
 90
        2
 70
       0
 43
0.25
 10
446.85585857
 20
1096.13101302
 40
0.25
 41
0.25
 10
449.84149622
 20
1099.11665067
 40
0.25
 41
0.25
  0
LWPOLYLINE
  5
136
100
AcDbEntity
  8
ZUWAKU
  6
CONTINUOUS
 62
      32
100
AcDbPolyline
 90
        2
 70
       0
 43
0.25
 10
428.75392497
 20
1096.13101302
 40
0.25
 41
0.25
 10
441.25392497
 20
1108.63101302
 40
0.25
 41
0.25
  0
LWPOLYLINE
  5
137
100
AcDbEntity
  8
ZUWAKU
  6
CONTINUOUS
 62
      32
100
AcDbPolyline
 90
        2
 70
       0
 43
0.25
 10
426.49118327
 20
1096.13101302
 40
0.25
 41
0.25
 10
438.99118327
 20
1108.63101302
 40
0.25
 41
0.25
  0
LWPOLYLINE
  5
138
100
AcDbEntity
  8
ZUWAKU
  6
CONTINUOUS
 62
      32
100
AcDbPolyline
 90
        2
 70
       0
 43
0.25
 10
404.72844157
 20
1076.63101302
 40
0.25
 41
0.25
 10
408.04055735
 20
1079.9431288
 40
0.25
 41
0.25
  0
LWPOLYLINE
  5
139
100
AcDbEntity
  8
ZUWAKU
  6
CONTINUOUS
 62
      32
100
AcDbPolyline
 90
        2
 70
       0
 43
0.25
 10
423.69021647
 20
1095.59278792
 40
0.25
 41
0.25
 10
436.72844157
 20
1108.63101302
 40
0.25
 41
0.25
  0
LWPOLYLINE
  5
13A
100
AcDbEntity
  8
ZUWAKU
  6
CONTINUOUS
 62
      32
100
AcDbPolyline
 90
        2
 70
       0
 43
0.25
 10
402.46569987
 20
1076.63101302
 40
0.25
 41
0.25
 10
410.0692448
 20
1084.23455795
 40
0.25
 41
0.25
  0
LWPOLYLINE
  5
13B
100
AcDbEntity
  8
ZUWAKU
  6
CONTINUOUS
 62
      32
100
AcDbPolyline
 90
        2
 70
       0
 43
0.25
 10
419.16473307
 20
1093.33004622
 40
0.25
 41
0.25
 10
434.46569987
 20
1108.63101302
 40
0.25
 41
0.25
  0
LWPOLYLINE
  5
13C
100
AcDbEntity
  8
ZUWAKU
  6
CONTINUOUS
 62
      32
100
AcDbPolyline
 90
        2
 70
       0
 43
0.25
 10
402.13459808
 20
1078.56265293
 40
0.25
 41
0.25
 10
432.20295817
 20
1108.63101302
 40
0.25
 41
0.25
  0
LWPOLYLINE
  5
13D
100
AcDbEntity
  8
ZUWAKU
  6
CONTINUOUS
 62
      32
100
AcDbPolyline
 90
        2
 70
       0
 43
0.25
 10
402.66700789
 20
1081.35780444
 40
0.25
 41
0.25
 10
429.94021647
 20
1108.63101302
 40
0.25
 41
0.25
  0
LWPOLYLINE
  5
13E
100
AcDbEntity
  8
ZUWAKU
  6
CONTINUOUS
 62
      32
100
AcDbPolyline
 90
        2
 70
       0
 43
0.25
 10
403.1994177
 20
1084.15295595
 40
0.25
 41
0.25
 10
427.67747477
 20
1108.63101302
 40
0.25
 41
0.25
  0
LWPOLYLINE
  5
13F
100
AcDbEntity
  8
ZUWAKU
  6
CONTINUOUS
 62
      32
100
AcDbPolyline
 90
        2
 70
       0
 43
0.25
 10
403.73182751
 20
1086.94810746
 40
0.25
 41
0.25
 10
424.33318619
 20
1107.54946614
 40
0.25
 41
0.25
  0
LWPOLYLINE
  5
140
100
AcDbEntity
  8
ZUWAKU
  6
CONTINUOUS
 62
      32
100
AcDbPolyline
 90
        2
 70
       0
 43
0.25
 10
406.93867961
 20
1092.41770126
 40
0.25
 41
0.25
 10
420.26025113
 20
1105.73927278
 40
0.25
 41
0.25
  0
LWPOLYLINE
  5
141
100
AcDbEntity
  8
ZUWAKU
  6
CONTINUOUS
 62
      32
100
AcDbPolyline
 90
        2
 70
       0
 43
0.25
 10
449.31666667
 20
1069.13101302
 40
0.25
 41
0.25
 10
485.25416667
 20
1105.06851302
 40
0.25
 41
0.25
  0
LWPOLYLINE
  5
142
100
AcDbEntity
  8
ZUWAKU
  6
CONTINUOUS
 62
      32
100
AcDbPolyline
 90
        2
 70
       0
 43
0.25
 10
451.57940837
 20
1069.13101302
 40
0.25
 41
0.25
 10
483.93423401
 20
1101.48583866
 40
0.25
 41
0.25
  0
LWPOLYLINE
  5
143
100
AcDbEntity
  8
ZUWAKU
  6
CONTINUOUS
 62
      32
100
AcDbPolyline
 90
        2
 70
       0
 43
0.25
 10
453.84215007
 20
1069.13101302
 40
0.25
 41
0.25
 10
482.61430135
 20
1097.9031643
 40
0.25
 41
0.25
  0
LWPOLYLINE
  5
144
100
AcDbEntity
  8
ZUWAKU
  6
CONTINUOUS
 62
      32
100
AcDbPolyline
 90
        2
 70
       0
 43
0.25
 10
456.10489177
 20
1069.13101302
 40
0.25
 41
0.25
 10
481.29436869
 20
1094.32048994
 40
0.25
 41
0.25
  0
LWPOLYLINE
  5
145
100
AcDbEntity
  8
ZUWAKU
  6
CONTINUOUS
 62
      32
100
AcDbPolyline
 90
        2
 70
       0
 43
0.25
 10
458.36763347
 20
1069.13101302
 40
0.25
 41
0.25
 10
479.97443603
 20
1090.73781558
 40
0.25
 41
0.25
  0
LWPOLYLINE
  5
146
100
AcDbEntity
  8
ZUWAKU
  6
CONTINUOUS
 62
      32
100
AcDbPolyline
 90
        2
 70
       0
 43
0.25
 10
460.63037517
 20
1069.13101302
 40
0.25
 41
0.25
 10
462.23011067
 20
1070.73074852
 40
0.25
 41
0.25
  0
LWPOLYLINE
  5
147
100
AcDbEntity
  8
ZUWAKU
  6
CONTINUOUS
 62
      32
100
AcDbPolyline
 90
        2
 70
       0
 43
0.25
 10
471.05315654
 20
1079.55379439
 40
0.25
 41
0.25
 10
481.13037517
 20
1089.63101302
 40
0.25
 41
0.25
  0
LWPOLYLINE
  5
148
100
AcDbEntity
  8
ZUWAKU
  6
CONTINUOUS
 62
      32
100
AcDbPolyline
 90
        2
 70
       0
 43
0.25
 10
475.01295451
 20
1081.25085067
 40
0.25
 41
0.25
 10
483.39311687
 20
1089.63101302
 40
0.25
 41
0.25
  0
LWPOLYLINE
  5
149
100
AcDbEntity
  8
ZUWAKU
  6
CONTINUOUS
 62
      32
100
AcDbPolyline
 90
        2
 70
       0
 43
0.25
 10
478.24662456
 20
1082.22177901
 40
0.25
 41
0.25
 10
485.65585857
 20
1089.63101302
 40
0.25
 41
0.25
  0
LWPOLYLINE
  5
14A
100
AcDbEntity
  8
ZUWAKU
  6
CONTINUOUS
 62
      32
100
AcDbPolyline
 90
        2
 70
       0
 43
0.25
 10
480.69792806
 20
1082.41034082
 40
0.25
 41
0.25
 10
487.91860027
 20
1089.63101302
 40
0.25
 41
0.25
  0
LWPOLYLINE
  5
14B
100
AcDbEntity
  8
ZUWAKU
  6
CONTINUOUS
 62
      32
100
AcDbPolyline
 90
        2
 70
       0
 43
0.25
 10
483.14923157
 20
1082.59890262
 40
0.25
 41
0.25
 10
490.18134196
 20
1089.63101302
 40
0.25
 41
0.25
  0
LWPOLYLINE
  5
14C
100
AcDbEntity
  8
ZUWAKU
  6
CONTINUOUS
 62
      32
100
AcDbPolyline
 90
        2
 70
       0
 43
0.25
 10
485.44408366
 20
1082.63101302
 40
0.25
 41
0.25
 10
492.44408366
 20
1089.63101302
 40
0.25
 41
0.25
  0
LWPOLYLINE
  5
14D
100
AcDbEntity
  8
ZUWAKU
  6
CONTINUOUS
 62
      32
100
AcDbPolyline
 90
        2
 70
       0
 43
0.25
 10
487.70682536
 20
1082.63101302
 40
0.25
 41
0.25
 10
494.70682536
 20
1089.63101302
 40
0.25
 41
0.25
  0
LWPOLYLINE
  5
14E
100
AcDbEntity
  8
ZUWAKU
  6
CONTINUOUS
 62
      32
100
AcDbPolyline
 90
        2
 70
       0
 43
0.25
 10
489.96956706
 20
1082.63101302
 40
0.25
 41
0.25
 10
494.78727756
 20
1087.44872351
 40
0.25
 41
0.25
  0
LWPOLYLINE
  5
14F
100
AcDbEntity
  8
ZUWAKU
  6
CONTINUOUS
 62
      32
100
AcDbPolyline
 90
        2
 70
       0
 43
0.25
 10
492.23230876
 20
1082.63101302
 40
0.25
 41
0.25
 10
493.53019883
 20
1083.92890309
 40
0.25
 41
0.25
  0
LWPOLYLINE
  5
150
100
AcDbEntity
  8
ZUWAKU
  6
CONTINUOUS
 62
      32
100
AcDbPolyline
 90
        2
 70
       0
 43
0.25
 10
447.05392497
 20
1069.13101302
 40
0.25
 41
0.25
 10
486.57409932
 20
1108.65118737
 40
0.25
 41
0.25
  0
LWPOLYLINE
  5
151
100
AcDbEntity
  8
ZUWAKU
  6
CONTINUOUS
 62
      32
100
AcDbPolyline
 90
        2
 70
       0
 43
0.25
 10
444.79118327
 20
1069.13101302
 40
0.25
 41
0.25
 10
462.1687462
 20
1086.50857595
 40
0.25
 41
0.25
  0
LWPOLYLINE
  5
152
100
AcDbEntity
  8
ZUWAKU
  6
CONTINUOUS
 62
      32
100
AcDbPolyline
 90
        2
 70
       0
 43
0.25
 10
462.70915808
 20
1087.04898783
 40
0.25
 41
0.25
 10
484.29118327
 20
1108.63101302
 40
0.25
 41
0.25
  0
LWPOLYLINE
  5
153
100
AcDbEntity
  8
ZUWAKU
  6
CONTINUOUS
 62
      32
100
AcDbPolyline
 90
        2
 70
       0
 43
0.25
 10
442.52844157
 20
1069.13101302
 40
0.25
 41
0.25
 10
458.90034152
 20
1085.50291297
 40
0.25
 41
0.25
  0
LWPOLYLINE
  5
154
100
AcDbEntity
  8
ZUWAKU
  6
CONTINUOUS
 62
      32
100
AcDbPolyline
 90
        2
 70
       0
 43
0.25
 10
463.87954172
 20
1090.48211317
 40
0.25
 41
0.25
 10
482.02844157
 20
1108.63101302
 40
0.25
 41
0.25
  0
LWPOLYLINE
  5
155
100
AcDbEntity
  8
ZUWAKU
  6
CONTINUOUS
 62
      32
100
AcDbPolyline
 90
        2
 70
       0
 43
0.25
 10
444.53892392
 20
1073.40423707
 40
0.25
 41
0.25
 10
454.96312174
 20
1083.82843489
 40
0.25
 41
0.25
  0
LWPOLYLINE
  5
156
100
AcDbEntity
  8
ZUWAKU
  6
CONTINUOUS
 62
      32
100
AcDbPolyline
 90
        2
 70
       0
 43
0.25
 10
465.04992536
 20
1093.9152385
 40
0.25
 41
0.25
 10
479.76569987
 20
1108.63101302
 40
0.25
 41
0.25
  0
LWPOLYLINE
  5
157
100
AcDbEntity
  8
ZUWAKU
  6
CONTINUOUS
 62
      32
100
AcDbPolyline
 90
        2
 70
       0
 43
0.25
 10
466.22030899
 20
1097.34836384
 40
0.25
 41
0.25
 10
477.50295817
 20
1108.63101302
 40
0.25
 41
0.25
  0
LWPOLYLINE
  5
158
100
AcDbEntity
  8
ZUWAKU
  6
CONTINUOUS
 62
      32
100
AcDbPolyline
 90
        2
 70
       0
 43
0.25
 10
467.39069263
 20
1100.78148918
 40
0.25
 41
0.25
 10
475.24021647
 20
1108.63101302
 40
0.25
 41
0.25
  0
LWPOLYLINE
  5
159
100
AcDbEntity
  8
ZUWAKU
  6
CONTINUOUS
 62
      32
100
AcDbPolyline
 90
        2
 70
       0
 43
0.25
 10
468.56107627
 20
1104.21461452
 40
0.25
 41
0.25
 10
472.97747477
 20
1108.63101302
 40
0.25
 41
0.25
  0
LWPOLYLINE
  5
15A
100
AcDbEntity
  8
ZUWAKU
  6
CONTINUOUS
 62
      32
100
AcDbPolyline
 90
        2
 70
       0
 43
0.25
 10
469.73145991
 20
1107.64773986
 40
0.25
 41
0.25
 10
470.71473307
 20
1108.63101302
 40
0.25
 41
0.25
  0
LWPOLYLINE
  5
15B
100
AcDbEntity
  8
ZUWAKU
  6
CONTINUOUS
 62
      32
100
AcDbPolyline
 90
        2
 70
       0
 43
0.25
 10
508.71666667
 20
1069.13101302
 40
0.25
 41
0.25
 10
517.71666667
 20
1078.13101302
 40
0.25
 41
0.25
  0
LWPOLYLINE
  5
15C
100
AcDbEntity
  8
ZUWAKU
  6
CONTINUOUS
 62
      32
100
AcDbPolyline
 90
        2
 70
       0
 43
0.25
 10
510.97940837
 20
1069.13101302
 40
0.25
 41
0.25
 10
519.97940837
 20
1078.13101302
 40
0.25
 41
0.25
  0
LWPOLYLINE
  5
15D
100
AcDbEntity
  8
ZUWAKU
  6
CONTINUOUS
 62
      32
100
AcDbPolyline
 90
        2
 70
       0
 43
0.25
 10
513.24215007
 20
1069.13101302
 40
0.25
 41
0.25
 10
522.24215007
 20
1078.13101302
 40
0.25
 41
0.25
  0
LWPOLYLINE
  5
15E
100
AcDbEntity
  8
ZUWAKU
  6
CONTINUOUS
 62
      32
100
AcDbPolyline
 90
        2
 70
       0
 43
0.25
 10
515.50489177
 20
1069.13101302
 40
0.25
 41
0.25
 10
524.50489177
 20
1078.13101302
 40
0.25
 41
0.25
  0
LWPOLYLINE
  5
15F
100
AcDbEntity
  8
ZUWAKU
  6
CONTINUOUS
 62
      32
100
AcDbPolyline
 90
        2
 70
       0
 43
0.25
 10
517.76763347
 20
1069.13101302
 40
0.25
 41
0.25
 10
526.76763347
 20
1078.13101302
 40
0.25
 41
0.25
  0
LWPOLYLINE
  5
160
100
AcDbEntity
  8
ZUWAKU
  6
CONTINUOUS
 62
      32
100
AcDbPolyline
 90
        2
 70
       0
 43
0.25
 10
520.03037517
 20
1069.13101302
 40
0.25
 41
0.25
 10
529.03037517
 20
1078.13101302
 40
0.25
 41
0.25
  0
LWPOLYLINE
  5
161
100
AcDbEntity
  8
ZUWAKU
  6
CONTINUOUS
 62
      32
100
AcDbPolyline
 90
        2
 70
       0
 43
0.25
 10
522.29311687
 20
1069.13101302
 40
0.25
 41
0.25
 10
531.29311687
 20
1078.13101302
 40
0.25
 41
0.25
  0
LWPOLYLINE
  5
162
100
AcDbEntity
  8
ZUWAKU
  6
CONTINUOUS
 62
      32
100
AcDbPolyline
 90
        2
 70
       0
 43
0.25
 10
524.55585857
 20
1069.13101302
 40
0.25
 41
0.25
 10
532.67207072
 20
1077.24722517
 40
0.25
 41
0.25
  0
LWPOLYLINE
  5
163
100
AcDbEntity
  8
ZUWAKU
  6
CONTINUOUS
 62
      32
100
AcDbPolyline
 90
        2
 70
       0
 43
0.25
 10
526.81860027
 20
1069.13101302
 40
0.25
 41
0.25
 10
531.54069987
 20
1073.85311262
 40
0.25
 41
0.25
  0
LWPOLYLINE
  5
164
100
AcDbEntity
  8
ZUWAKU
  6
CONTINUOUS
 62
      32
100
AcDbPolyline
 90
        2
 70
       0
 43
0.25
 10
529.08134196
 20
1069.13101302
 40
0.25
 41
0.25
 10
530.40932902
 20
1070.45900007
 40
0.25
 41
0.25
  0
LWPOLYLINE
  5
165
100
AcDbEntity
  8
ZUWAKU
  6
CONTINUOUS
 62
      32
100
AcDbPolyline
 90
        2
 70
       0
 43
0.25
 10
506.45392497
 20
1069.13101302
 40
0.25
 41
0.25
 10
515.45392497
 20
1078.13101302
 40
0.25
 41
0.25
  0
LWPOLYLINE
  5
166
100
AcDbEntity
  8
ZUWAKU
  6
CONTINUOUS
 62
      32
100
AcDbPolyline
 90
        2
 70
       0
 43
0.25
 10
504.19118327
 20
1069.13101302
 40
0.25
 41
0.25
 10
513.19118327
 20
1078.13101302
 40
0.25
 41
0.25
  0
LWPOLYLINE
  5
167
100
AcDbEntity
  8
ZUWAKU
  6
CONTINUOUS
 62
      32
100
AcDbPolyline
 90
        2
 70
       0
 43
0.25
 10
501.92844157
 20
1069.13101302
 40
0.25
 41
0.25
 10
510.92844157
 20
1078.13101302
 40
0.25
 41
0.25
  0
LWPOLYLINE
  5
168
100
AcDbEntity
  8
ZUWAKU
  6
CONTINUOUS
 62
      32
100
AcDbPolyline
 90
        2
 70
       0
 43
0.25
 10
499.66569987
 20
1069.13101302
 40
0.25
 41
0.25
 10
508.66569987
 20
1078.13101302
 40
0.25
 41
0.25
  0
LWPOLYLINE
  5
169
100
AcDbEntity
  8
ZUWAKU
  6
CONTINUOUS
 62
      32
100
AcDbPolyline
 90
        2
 70
       0
 43
0.25
 10
497.40295817
 20
1069.13101302
 40
0.25
 41
0.25
 10
506.40295817
 20
1078.13101302
 40
0.25
 41
0.25
  0
LWPOLYLINE
  5
16A
100
AcDbEntity
  8
ZUWAKU
  6
CONTINUOUS
 62
      32
100
AcDbPolyline
 90
        2
 70
       0
 43
0.25
 10
495.14021647
 20
1069.13101302
 40
0.25
 41
0.25
 10
504.14021647
 20
1078.13101302
 40
0.25
 41
0.25
  0
LWPOLYLINE
  5
16B
100
AcDbEntity
  8
ZUWAKU
  6
CONTINUOUS
 62
      32
100
AcDbPolyline
 90
        2
 70
       0
 43
0.25
 10
493.76126262
 20
1070.01480086
 40
0.25
 41
0.25
 10
501.87747477
 20
1078.13101302
 40
0.25
 41
0.25
  0
LWPOLYLINE
  5
16C
100
AcDbEntity
  8
ZUWAKU
  6
CONTINUOUS
 62
      32
100
AcDbPolyline
 90
        2
 70
       0
 43
0.25
 10
494.89263347
 20
1073.40891341
 40
0.25
 41
0.25
 10
499.61473307
 20
1078.13101302
 40
0.25
 41
0.25
  0
LWPOLYLINE
  5
16D
100
AcDbEntity
  8
ZUWAKU
  6
CONTINUOUS
 62
      32
100
AcDbPolyline
 90
        2
 70
       0
 43
0.25
 10
496.02400432
 20
1076.80302596
 40
0.25
 41
0.25
 10
497.35199137
 20
1078.13101302
 40
0.25
 41
0.25
  0
LWPOLYLINE
  5
16E
100
AcDbEntity
  8
ZUWAKU
  6
CONTINUOUS
 62
      32
100
AcDbPolyline
 90
        2
 70
       0
 43
0.25
 10
507.96666667
 20
1082.63101302
 40
0.25
 41
0.25
 10
514.96666667
 20
1089.63101302
 40
0.25
 41
0.25
  0
LWPOLYLINE
  5
16F
100
AcDbEntity
  8
ZUWAKU
  6
CONTINUOUS
 62
      32
100
AcDbPolyline
 90
        2
 70
       0
 43
0.25
 10
526.46666667
 20
1101.13101302
 40
0.25
 41
0.25
 10
533.96666667
 20
1108.63101302
 40
0.25
 41
0.25
  0
LWPOLYLINE
  5
170
100
AcDbEntity
  8
ZUWAKU
  6
CONTINUOUS
 62
      32
100
AcDbPolyline
 90
        2
 70
       0
 43
0.25
 10
510.22940837
 20
1082.63101302
 40
0.25
 41
0.25
 10
517.22940837
 20
1089.63101302
 40
0.25
 41
0.25
  0
LWPOLYLINE
  5
171
100
AcDbEntity
  8
ZUWAKU
  6
CONTINUOUS
 62
      32
100
AcDbPolyline
 90
        2
 70
       0
 43
0.25
 10
528.72940837
 20
1101.13101302
 40
0.25
 41
0.25
 10
536.22940837
 20
1108.63101302
 40
0.25
 41
0.25
  0
LWPOLYLINE
  5
172
100
AcDbEntity
  8
ZUWAKU
  6
CONTINUOUS
 62
      32
100
AcDbPolyline
 90
        2
 70
       0
 43
0.25
 10
512.49215007
 20
1082.63101302
 40
0.25
 41
0.25
 10
519.49215007
 20
1089.63101302
 40
0.25
 41
0.25
  0
LWPOLYLINE
  5
173
100
AcDbEntity
  8
ZUWAKU
  6
CONTINUOUS
 62
      32
100
AcDbPolyline
 90
        2
 70
       0
 43
0.25
 10
530.99215007
 20
1101.13101302
 40
0.25
 41
0.25
 10
538.49215007
 20
1108.63101302
 40
0.25
 41
0.25
  0
LWPOLYLINE
  5
174
100
AcDbEntity
  8
ZUWAKU
  6
CONTINUOUS
 62
      32
100
AcDbPolyline
 90
        2
 70
       0
 43
0.25
 10
514.75489177
 20
1082.63101302
 40
0.25
 41
0.25
 10
521.75489177
 20
1089.63101302
 40
0.25
 41
0.25
  0
LWPOLYLINE
  5
175
100
AcDbEntity
  8
ZUWAKU
  6
CONTINUOUS
 62
      32
100
AcDbPolyline
 90
        2
 70
       0
 43
0.25
 10
533.25489177
 20
1101.13101302
 40
0.25
 41
0.25
 10
540.75489177
 20
1108.63101302
 40
0.25
 41
0.25
  0
LWPOLYLINE
  5
176
100
AcDbEntity
  8
ZUWAKU
  6
CONTINUOUS
 62
      32
100
AcDbPolyline
 90
        2
 70
       0
 43
0.25
 10
517.01763347
 20
1082.63101302
 40
0.25
 41
0.25
 10
524.01763347
 20
1089.63101302
 40
0.25
 41
0.25
  0
LWPOLYLINE
  5
177
100
AcDbEntity
  8
ZUWAKU
  6
CONTINUOUS
 62
      32
100
AcDbPolyline
 90
        2
 70
       0
 43
0.25
 10
535.51763347
 20
1101.13101302
 40
0.25
 41
0.25
 10
543.01763347
 20
1108.63101302
 40
0.25
 41
0.25
  0
LWPOLYLINE
  5
178
100
AcDbEntity
  8
ZUWAKU
  6
CONTINUOUS
 62
      32
100
AcDbPolyline
 90
        2
 70
       0
 43
0.25
 10
519.28037517
 20
1082.63101302
 40
0.25
 41
0.25
 10
526.28037517
 20
1089.63101302
 40
0.25
 41
0.25
  0
LWPOLYLINE
  5
179
100
AcDbEntity
  8
ZUWAKU
  6
CONTINUOUS
 62
      32
100
AcDbPolyline
 90
        2
 70
       0
 43
0.25
 10
537.78037517
 20
1101.13101302
 40
0.25
 41
0.25
 10
543.090861
 20
1106.44149885
 40
0.25
 41
0.25
  0
LWPOLYLINE
  5
17A
100
AcDbEntity
  8
ZUWAKU
  6
CONTINUOUS
 62
      32
100
AcDbPolyline
 90
        2
 70
       0
 43
0.25
 10
521.54311687
 20
1082.63101302
 40
0.25
 41
0.25
 10
528.54311687
 20
1089.63101302
 40
0.25
 41
0.25
  0
LWPOLYLINE
  5
17B
100
AcDbEntity
  8
ZUWAKU
  6
CONTINUOUS
 62
      32
100
AcDbPolyline
 90
        2
 70
       0
 43
0.25
 10
540.04311687
 20
1101.13101302
 40
0.25
 41
0.25
 10
541.58236653
 20
1102.67026269
 40
0.25
 41
0.25
  0
LWPOLYLINE
  5
17C
100
AcDbEntity
  8
ZUWAKU
  6
CONTINUOUS
 62
      32
100
AcDbPolyline
 90
        2
 70
       0
 43
0.25
 10
523.80585857
 20
1082.63101302
 40
0.25
 41
0.25
 10
530.80585857
 20
1089.63101302
 40
0.25
 41
0.25
  0
LWPOLYLINE
  5
17D
100
AcDbEntity
  8
ZUWAKU
  6
CONTINUOUS
 62
      32
100
AcDbPolyline
 90
        2
 70
       0
 43
0.25
 10
526.06860027
 20
1082.63101302
 40
0.25
 41
0.25
 10
533.06860027
 20
1089.63101302
 40
0.25
 41
0.25
  0
LWPOLYLINE
  5
17E
100
AcDbEntity
  8
ZUWAKU
  6
CONTINUOUS
 62
      32
100
AcDbPolyline
 90
        2
 70
       0
 43
0.25
 10
528.33134196
 20
1082.63101302
 40
0.25
 41
0.25
 10
535.33134196
 20
1089.63101302
 40
0.25
 41
0.25
  0
LWPOLYLINE
  5
17F
100
AcDbEntity
  8
ZUWAKU
  6
CONTINUOUS
 62
      32
100
AcDbPolyline
 90
        2
 70
       0
 43
0.25
 10
530.59408366
 20
1082.63101302
 40
0.25
 41
0.25
 10
535.31569987
 20
1087.35262922
 40
0.25
 41
0.25
  0
LWPOLYLINE
  5
180
100
AcDbEntity
  8
ZUWAKU
  6
CONTINUOUS
 62
      32
100
AcDbPolyline
 90
        2
 70
       0
 43
0.25
 10
532.85682536
 20
1082.63101302
 40
0.25
 41
0.25
 10
534.41060319
 20
1084.18479084
 40
0.25
 41
0.25
  0
LWPOLYLINE
  5
181
100
AcDbEntity
  8
ZUWAKU
  6
CONTINUOUS
 62
      32
100
AcDbPolyline
 90
        2
 70
       0
 43
0.25
 10
505.70392497
 20
1082.63101302
 40
0.25
 41
0.25
 10
515.87176335
 20
1092.7988514
 40
0.25
 41
0.25
  0
LWPOLYLINE
  5
182
100
AcDbEntity
  8
ZUWAKU
  6
CONTINUOUS
 62
      32
100
AcDbPolyline
 90
        2
 70
       0
 43
0.25
 10
523.54707072
 20
1100.47415877
 40
0.25
 41
0.25
 10
531.70392497
 20
1108.63101302
 40
0.25
 41
0.25
  0
LWPOLYLINE
  5
183
100
AcDbEntity
  8
ZUWAKU
  6
CONTINUOUS
 62
      32
100
AcDbPolyline
 90
        2
 70
       0
 43
0.25
 10
503.44118327
 20
1082.63101302
 40
0.25
 41
0.25
 10
529.44118327
 20
1108.63101302
 40
0.25
 41
0.25
  0
LWPOLYLINE
  5
184
100
AcDbEntity
  8
ZUWAKU
  6
CONTINUOUS
 62
      32
100
AcDbPolyline
 90
        2
 70
       0
 43
0.25
 10
501.17844157
 20
1082.63101302
 40
0.25
 41
0.25
 10
527.17844157
 20
1108.63101302
 40
0.25
 41
0.25
  0
LWPOLYLINE
  5
185
100
AcDbEntity
  8
ZUWAKU
  6
CONTINUOUS
 62
      32
100
AcDbPolyline
 90
        2
 70
       0
 43
0.25
 10
498.91569987
 20
1082.63101302
 40
0.25
 41
0.25
 10
524.91569987
 20
1108.63101302
 40
0.25
 41
0.25
  0
LWPOLYLINE
  5
186
100
AcDbEntity
  8
ZUWAKU
  6
CONTINUOUS
 62
      32
100
AcDbPolyline
 90
        2
 70
       0
 43
0.25
 10
498.71735724
 20
1084.69541209
 40
0.25
 41
0.25
 10
522.65295817
 20
1108.63101302
 40
0.25
 41
0.25
  0
LWPOLYLINE
  5
187
100
AcDbEntity
  8
ZUWAKU
  6
CONTINUOUS
 62
      32
100
AcDbPolyline
 90
        2
 70
       0
 43
0.25
 10
500.01035249
 20
1088.25114904
 40
0.25
 41
0.25
 10
520.39021647
 20
1108.63101302
 40
0.25
 41
0.25
  0
LWPOLYLINE
  5
188
100
AcDbEntity
  8
ZUWAKU
  6
CONTINUOUS
 62
      32
100
AcDbPolyline
 90
        2
 70
       0
 43
0.25
 10
501.30334775
 20
1091.806886
 40
0.25
 41
0.25
 10
518.0144108
 20
1108.51794905
 40
0.25
 41
0.25
  0
LWPOLYLINE
  5
189
100
AcDbEntity
  8
ZUWAKU
  6
CONTINUOUS
 62
      32
100
AcDbPolyline
 90
        2
 70
       0
 43
0.25
 10
502.59634301
 20
1095.36262296
 40
0.25
 41
0.25
 10
514.99742187
 20
1107.76370182
 40
0.25
 41
0.25
  0
LWPOLYLINE
  5
18A
100
AcDbEntity
  8
ZUWAKU
  6
CONTINUOUS
 62
      32
100
AcDbPolyline
 90
        2
 70
       0
 43
0.25
 10
503.88933827
 20
1098.91835991
 40
0.25
 41
0.25
 10
510.73731607
 20
1105.76633772
 40
0.25
 41
0.25
  0
LWPOLYLINE
  5
18B
100
AcDbEntity
  8
ZUWAKU
  6
CONTINUOUS
 62
      32
100
AcDbPolyline
 90
        2
 70
       0
 43
0.25
 10
536.06666667
 20
1069.13101302
 40
0.25
 41
0.25
 10
556.78541667
 20
1089.84976302
 40
0.25
 41
0.25
  0
LWPOLYLINE
  5
18C
100
AcDbEntity
  8
ZUWAKU
  6
CONTINUOUS
 62
      32
100
AcDbPolyline
 90
        2
 70
       0
 43
0.25
 10
567.92380952
 20
1100.98815587
 40
0.25
 41
0.25
 10
575.56666667
 20
1108.63101302
 40
0.25
 41
0.25
  0
LWPOLYLINE
  5
18D
100
AcDbEntity
  8
ZUWAKU
  6
CONTINUOUS
 62
      32
100
AcDbPolyline
 90
        2
 70
       0
 43
0.25
 10
538.32940837
 20
1069.13101302
 40
0.25
 41
0.25
 10
555.44191378
 20
1086.24351843
 40
0.25
 41
0.25
  0
LWPOLYLINE
  5
18E
100
AcDbEntity
  8
ZUWAKU
  6
CONTINUOUS
 62
      32
100
AcDbPolyline
 90
        2
 70
       0
 43
0.25
 10
570.32940837
 20
1101.13101302
 40
0.25
 41
0.25
 10
575.18529582
 20
1105.98690047
 40
0.25
 41
0.25
  0
LWPOLYLINE
  5
18F
100
AcDbEntity
  8
ZUWAKU
  6
CONTINUOUS
 62
      32
100
AcDbPolyline
 90
        2
 70
       0
 43
0.25
 10
540.59215007
 20
1069.13101302
 40
0.25
 41
0.25
 10
554.0984109
 20
1082.63727385
 40
0.25
 41
0.25
  0
LWPOLYLINE
  5
190
100
AcDbEntity
  8
ZUWAKU
  6
CONTINUOUS
 62
      32
100
AcDbPolyline
 90
        2
 70
       0
 43
0.25
 10
572.59215007
 20
1101.13101302
 40
0.25
 41
0.25
 10
574.05392497
 20
1102.59278792
 40
0.25
 41
0.25
  0
LWPOLYLINE
  5
191
100
AcDbEntity
  8
ZUWAKU
  6
CONTINUOUS
 62
      32
100
AcDbPolyline
 90
        2
 70
       0
 43
0.25
 10
542.85489177
 20
1069.13101302
 40
0.25
 41
0.25
 10
552.75490801
 20
1079.03102926
 40
0.25
 41
0.25
  0
LWPOLYLINE
  5
192
100
AcDbEntity
  8
ZUWAKU
  6
CONTINUOUS
 62
      32
100
AcDbPolyline
 90
        2
 70
       0
 43
0.25
 10
545.11763347
 20
1069.13101302
 40
0.25
 41
0.25
 10
551.41140513
 20
1075.42478468
 40
0.25
 41
0.25
  0
LWPOLYLINE
  5
193
100
AcDbEntity
  8
ZUWAKU
  6
CONTINUOUS
 62
      32
100
AcDbPolyline
 90
        2
 70
       0
 43
0.25
 10
547.38037517
 20
1069.13101302
 40
0.25
 41
0.25
 10
550.06790225
 20
1071.8185401
 40
0.25
 41
0.25
  0
LWPOLYLINE
  5
194
100
AcDbEntity
  8
ZUWAKU
  6
CONTINUOUS
 62
      32
100
AcDbPolyline
 90
        2
 70
       0
 43
0.25
 10
536.47063677
 20
1071.79772482
 40
0.25
 41
0.25
 10
558.12891955
 20
1093.4560076
 40
0.25
 41
0.25
  0
LWPOLYLINE
  5
195
100
AcDbEntity
  8
ZUWAKU
  6
CONTINUOUS
 62
      32
100
AcDbPolyline
 90
        2
 70
       0
 43
0.25
 10
565.33781901
 20
1100.66490706
 40
0.25
 41
0.25
 10
573.30392497
 20
1108.63101302
 40
0.25
 41
0.25
  0
LWPOLYLINE
  5
196
100
AcDbEntity
  8
ZUWAKU
  6
CONTINUOUS
 62
      32
100
AcDbPolyline
 90
        2
 70
       0
 43
0.25
 10
537.63101713
 20
1075.22084688
 40
0.25
 41
0.25
 10
561.01569987
 20
1098.60552962
 40
0.25
 41
0.25
  0
LWPOLYLINE
  5
197
100
AcDbEntity
  8
ZUWAKU
  6
CONTINUOUS
 62
      32
100
AcDbPolyline
 90
        2
 70
       0
 43
0.25
 10
561.109139
 20
1098.69896875
 40
0.25
 41
0.25
 10
571.04118327
 20
1108.63101302
 40
0.25
 41
0.25
  0
LWPOLYLINE
  5
198
100
AcDbEntity
  8
ZUWAKU
  6
CONTINUOUS
 62
      32
100
AcDbPolyline
 90
        2
 70
       0
 43
0.25
 10
538.79139749
 20
1078.64396894
 40
0.25
 41
0.25
 10
568.77844157
 20
1108.63101302
 40
0.25
 41
0.25
  0
LWPOLYLINE
  5
199
100
AcDbEntity
  8
ZUWAKU
  6
CONTINUOUS
 62
      32
100
AcDbPolyline
 90
        2
 70
       0
 43
0.25
 10
539.95177785
 20
1082.06709099
 40
0.25
 41
0.25
 10
566.51569987
 20
1108.63101302
 40
0.25
 41
0.25
  0
LWPOLYLINE
  5
19A
100
AcDbEntity
  8
ZUWAKU
  6
CONTINUOUS
 62
      32
100
AcDbPolyline
 90
        2
 70
       0
 43
0.25
 10
541.1121582
 20
1085.49021305
 40
0.25
 41
0.25
 10
564.25295817
 20
1108.63101302
 40
0.25
 41
0.25
  0
LWPOLYLINE
  5
19B
100
AcDbEntity
  8
ZUWAKU
  6
CONTINUOUS
 62
      32
100
AcDbPolyline
 90
        2
 70
       0
 43
0.25
 10
542.27253856
 20
1088.91333511
 40
0.25
 41
0.25
 10
561.81505533
 20
1108.45585188
 40
0.25
 41
0.25
  0
LWPOLYLINE
  5
19C
100
AcDbEntity
  8
ZUWAKU
  6
CONTINUOUS
 62
      32
100
AcDbPolyline
 90
        2
 70
       0
 43
0.25
 10
543.43291892
 20
1092.33645717
 40
0.25
 41
0.25
 10
559.30089789
 20
1108.20443614
 40
0.25
 41
0.25
  0
LWPOLYLINE
  5
19D
100
AcDbEntity
  8
ZUWAKU
  6
CONTINUOUS
 62
      32
100
AcDbPolyline
 90
        2
 70
       0
 43
0.25
 10
544.59329928
 20
1095.75957923
 40
0.25
 41
0.25
 10
555.89677734
 20
1107.06305728
 40
0.25
 41
0.25
  0
LWPOLYLINE
  5
19E
100
AcDbEntity
  8
ZUWAKU
  6
CONTINUOUS
 62
      32
100
AcDbPolyline
 90
        2
 70
       0
 43
0.25
 10
560.11666667
 20
1071.93101302
 40
0.25
 41
0.25
 10
578.60698925
 20
1090.4213356
 40
0.25
 41
0.25
  0
LWPOLYLINE
  5
19F
100
AcDbEntity
  8
ZUWAKU
  6
CONTINUOUS
 62
      32
100
AcDbPolyline
 90
        2
 70
       0
 43
0.25
 10
559.57940837
 20
1069.13101302
 40
0.25
 41
0.25
 10
577.3661309
 20
1086.91773555
 40
0.25
 41
0.25
  0
LWPOLYLINE
  5
1A0
100
AcDbEntity
  8
ZUWAKU
  6
CONTINUOUS
 62
      32
100
AcDbPolyline
 90
        2
 70
       0
 43
0.25
 10
561.84215007
 20
1069.13101302
 40
0.25
 41
0.25
 10
576.12527254
 20
1083.41413549
 40
0.25
 41
0.25
  0
LWPOLYLINE
  5
1A1
100
AcDbEntity
  8
ZUWAKU
  6
CONTINUOUS
 62
      32
100
AcDbPolyline
 90
        2
 70
       0
 43
0.25
 10
564.10489177
 20
1069.13101302
 40
0.25
 41
0.25
 10
574.88441419
 20
1079.91053544
 40
0.25
 41
0.25
  0
LWPOLYLINE
  5
1A2
100
AcDbEntity
  8
ZUWAKU
  6
CONTINUOUS
 62
      32
100
AcDbPolyline
 90
        2
 70
       0
 43
0.25
 10
566.36763347
 20
1069.13101302
 40
0.25
 41
0.25
 10
573.64355584
 20
1076.40693539
 40
0.25
 41
0.25
  0
LWPOLYLINE
  5
1A3
100
AcDbEntity
  8
ZUWAKU
  6
CONTINUOUS
 62
      32
100
AcDbPolyline
 90
        2
 70
       0
 43
0.25
 10
568.63037517
 20
1069.13101302
 40
0.25
 41
0.25
 10
572.40269749
 20
1072.90333534
 40
0.25
 41
0.25
  0
LWPOLYLINE
  5
1A4
100
AcDbEntity
  8
ZUWAKU
  6
CONTINUOUS
 62
      32
100
AcDbPolyline
 90
        2
 70
       0
 43
0.25
 10
570.89311687
 20
1069.13101302
 40
0.25
 41
0.25
 10
571.16183914
 20
1069.39973529
 40
0.25
 41
0.25
  0
LWPOLYLINE
  5
1A5
100
AcDbEntity
  8
ZUWAKU
  6
CONTINUOUS
 62
      32
100
AcDbPolyline
 90
        2
 70
       0
 43
0.25
 10
561.47431169
 20
1075.55139974
 40
0.25
 41
0.25
 10
579.05392497
 20
1093.13101302
 40
0.25
 41
0.25
  0
LWPOLYLINE
  5
1A6
100
AcDbEntity
  8
ZUWAKU
  6
CONTINUOUS
 62
      32
100
AcDbPolyline
 90
        2
 70
       0
 43
0.25
 10
562.83195671
 20
1079.17178646
 40
0.25
 41
0.25
 10
576.79118327
 20
1093.13101302
 40
0.25
 41
0.25
  0
LWPOLYLINE
  5
1A7
100
AcDbEntity
  8
ZUWAKU
  6
CONTINUOUS
 62
      32
100
AcDbPolyline
 90
        2
 70
       0
 43
0.25
 10
564.18960173
 20
1082.79217318
 40
0.25
 41
0.25
 10
574.52844157
 20
1093.13101302
 40
0.25
 41
0.25
  0
LWPOLYLINE
  5
1A8
100
AcDbEntity
  8
ZUWAKU
  6
CONTINUOUS
 62
      32
100
AcDbPolyline
 90
        2
 70
       0
 43
0.25
 10
565.54724675
 20
1086.4125599
 40
0.25
 41
0.25
 10
572.26569987
 20
1093.13101302
 40
0.25
 41
0.25
  0
LWPOLYLINE
  5
1A9
100
AcDbEntity
  8
ZUWAKU
  6
CONTINUOUS
 62
      32
100
AcDbPolyline
 90
        2
 70
       0
 43
0.25
 10
566.90489177
 20
1090.03294661
 40
0.25
 41
0.25
 10
570.00295817
 20
1093.13101302
 40
0.25
 41
0.25
  0
LWPOLYLINE
  5
1AA
100
AcDbEntity
  8
ZUWAKU
  6
CONTINUOUS
 62
      32
100
AcDbPolyline
 90
        2
 70
       0
 43
0.25
 10
646.16666667
 20
-1113.36898698
 40
0.25
 41
0.25
 10
652.94701449
 20
-1125.36498698
 40
0.25
 41
0.25
  0
LWPOLYLINE
  5
1AB
100
AcDbEntity
  8
ZUWAKU
  6
CONTINUOUS
 62
      32
100
AcDbPolyline
 90
        2
 70
       0
 43
0.25
 10
679.97111327
 20
-1135.86898698
 40
0.25
 41
0.25
 10
679.13777993
 20
-1138.36898698
 40
0.25
 41
0.25
  0
LWPOLYLINE
  5
1AC
100
AcDbEntity
  8
ZUWAKU
  6
CONTINUOUS
 62
      32
100
AcDbPolyline
 90
        2
 70
       0
 43
0.25
 10
616.24904819
 20
-1116.32779622
 40
0.25
 41
0.25
 10
617.15866667
 20
-1115.87298698
 40
0.25
 41
0.25
  0
LWPOLYLINE
  5
1AD
100
AcDbEntity
  8
ZUWAKU
  6
CONTINUOUS
 62
      32
100
AcDbPolyline
 90
        2
 70
       0
 43
0.25
 10
615.66666667
 20
-1113.36898698
 40
0.25
 41
0.25
 10
611.46666667
 20
-1117.56898698
 40
0.25
 41
0.25
  0
LWPOLYLINE
  5
1AE
100
AcDbEntity
  8
ZUWAKU
  6
CONTINUOUS
 62
      32
100
AcDbPolyline
 90
        2
 70
       0
 43
0.25
 10
612.16666667
 20
-1113.36898698
 40
0.25
 41
0.25
 10
611.46666667
 20
-1117.56898698
 40
0.25
 41
0.25
  0
LWPOLYLINE
  5
1AF
100
AcDbEntity
  8
ZUWAKU
  6
CONTINUOUS
 62
      32
100
AcDbPolyline
 90
        2
 70
       0
 43
0.25
 10
593.66666667
 20
-1116.86898698
 40
0.25
 41
0.25
 10
593.66666667
 20
-1115.87298698
 40
0.25
 41
0.25
  0
LWPOLYLINE
  5
1B0
100
AcDbEntity
  8
ZUWAKU
  6
CONTINUOUS
 62
      32
100
AcDbPolyline
 90
        2
 70
       0
 43
0.25
 10
571.5465023
 20
-1113.36898698
 40
0.25
 41
0.25
 10
580.66666667
 20
-1113.36898698
 40
0.25
 41
0.25
  0
LWPOLYLINE
  5
1B1
100
AcDbEntity
  8
ZUWAKU
  6
CONTINUOUS
 62
      32
100
AcDbPolyline
 90
        2
 70
       0
 43
0.25
 10
585.59440685
 20
-1116.93221432
 40
0.25
 41
0.25
 10
589.66666667
 20
-1113.36898698
 40
0.25
 41
0.25
  0
LWPOLYLINE
  5
1B2
100
AcDbEntity
  8
ZUWAKU
  6
CONTINUOUS
 62
      32
100
AcDbPolyline
 90
        2
 70
       0
 43
0.25
 10
556.70068264
 20
-1113.36898698
 40
0.25
 41
0.25
 10
567.16666667
 20
-1113.36898698
 40
0.25
 41
0.25
  0
LWPOLYLINE
  5
1B3
100
AcDbEntity
  8
ZUWAKU
  6
CONTINUOUS
 62
      32
100
AcDbPolyline
 90
        2
 70
       0
 43
0.25
 10
660.97766667
 20
-1115.87298698
 40
0.25
 41
0.25
 10
653.47916667
 20
-1135.86898698
 40
0.25
 41
0.25
  0
LWPOLYLINE
  5
1B4
100
AcDbEntity
  8
ZUWAKU
  6
CONTINUOUS
 62
      32
100
AcDbPolyline
 90
        2
 70
       0
 43
0.25
 10
653.80489349
 20
-1127.86898698
 40
0.25
 41
0.25
 10
642.1012439
 20
-1127.86898698
 40
0.25
 41
0.25
  0
LWPOLYLINE
  5
1B5
100
AcDbEntity
  8
ZUWAKU
  6
CONTINUOUS
 62
      32
100
AcDbPolyline
 90
        2
 70
       0
 43
0.25
 10
578.48484848
 20
-1119.36898698
 40
0.25
 41
0.25
 10
580.16666667
 20
-1119.36898698
 40
0.25
 41
0.25
  0
LWPOLYLINE
  5
1B6
100
AcDbEntity
  8
ZUWAKU
  6
CONTINUOUS
 62
      32
100
AcDbPolyline
 90
        2
 70
       0
 43
0.25
 10
580.16666667
 20
-1119.36898698
 40
0.25
 41
0.25
 10
581.81957954
 20
-1119.36898698
 40
0.25
 41
0.25
  0
LWPOLYLINE
  5
1B7
100
AcDbEntity
  8
ZUWAKU
  6
CONTINUOUS
 62
      32
100
AcDbPolyline
 90
        2
 70
       0
 43
0.25
 10
596.44462508
 20
-1113.36898698
 40
0.25
 41
0.25
 10
589.66666667
 20
-1113.36898698
 40
0.25
 41
0.25
  0
CIRCLE
  5
1B8
100
AcDbEntity
  8
ZUWAKU
  6
CONTINUOUS
 62
      32
100
AcDbCircle
 10
607.43126858
 20
-1127.36898698
 30
0.0
 40
1.51460192
  0
LWPOLYLINE
  5
1B9
100
AcDbEntity
  8
ZUWAKU
  6
CONTINUOUS
 62
      32
100
AcDbPolyline
 90
        2
 70
       0
 43
0.25
 10
659.10416667
 20
-1135.86898698
 40
0.25
 41
0.25
 10
653.47916667
 20
-1135.86898698
 40
0.25
 41
0.25
  0
LWPOLYLINE
  5
1BA
100
AcDbEntity
  8
ZUWAKU
  6
CONTINUOUS
 62
      32
100
AcDbPolyline
 90
        2
 70
       0
 43
0.25
 10
650.80489349
 20
-1135.86898698
 40
0.25
 41
0.25
 10
642.1012439
 20
-1135.86898698
 40
0.25
 41
0.25
  0
LWPOLYLINE
  5
1BB
100
AcDbEntity
  8
ZUWAKU
  6
CONTINUOUS
 62
      32
100
AcDbPolyline
 90
        2
 70
       0
 43
0.25
 10
667.66666667
 20
-1113.36898698
 40
0.25
 41
0.25
 10
666.72766667
 20
-1115.87298698
 40
0.25
 41
0.25
  0
LWPOLYLINE
  5
1BC
100
AcDbEntity
  8
ZUWAKU
  6
CONTINUOUS
 62
      32
100
AcDbPolyline
 90
        2
 70
       0
 43
0.25
 10
659.10416667
 20
-1135.86898698
 40
0.25
 41
0.25
 10
658.16666667
 20
-1138.36898698
 40
0.25
 41
0.25
  0
LWPOLYLINE
  5
1BD
100
AcDbEntity
  8
ZUWAKU
  6
CONTINUOUS
 62
      32
100
AcDbPolyline
 90
        2
 70
       0
 43
0.25
 10
660.35537443
 20
-1135.86898698
 40
0.25
 41
0.25
 10
659.41787443
 20
-1138.36898698
 40
0.25
 41
0.25
  0
LWPOLYLINE
  5
1BE
100
AcDbEntity
  8
ZUWAKU
  6
CONTINUOUS
 62
      32
100
AcDbPolyline
 90
        2
 70
       0
 43
0.25
 10
642.1012439
 20
-1138.36898698
 40
0.25
 41
0.25
 10
658.16666667
 20
-1138.36898698
 40
0.25
 41
0.25
  0
LWPOLYLINE
  5
1BF
100
AcDbEntity
  8
ZUWAKU
  6
CONTINUOUS
 62
      32
100
AcDbPolyline
 90
        2
 70
       0
 43
0.25
 10
659.41787443
 20
-1138.36898698
 40
0.25
 41
0.25
 10
661.79314947
 20
-1138.36898698
 40
0.25
 41
0.25
  0
LWPOLYLINE
  5
1C0
100
AcDbEntity
  8
ZUWAKU
  6
CONTINUOUS
 62
      32
100
AcDbPolyline
 90
        2
 70
       0
 43
0.25
 10
662.73064947
 20
-1135.86898698
 40
0.25
 41
0.25
 10
660.35537443
 20
-1135.86898698
 40
0.25
 41
0.25
  0
LWPOLYLINE
  5
1C1
100
AcDbEntity
  8
ZUWAKU
  6
CONTINUOUS
 62
      32
100
AcDbPolyline
 90
        2
 70
       0
 43
0.25
 10
663.64146902
 20
-1135.86898698
 40
0.25
 41
0.25
 10
662.70396902
 20
-1138.36898698
 40
0.25
 41
0.25
  0
LWPOLYLINE
  5
1C2
100
AcDbEntity
  8
ZUWAKU
  6
CONTINUOUS
 62
      32
100
AcDbPolyline
 90
        2
 70
       0
 43
0.25
 10
662.70396902
 20
-1138.36898698
 40
0.25
 41
0.25
 10
664.69500547
 20
-1138.36898698
 40
0.25
 41
0.25
  0
LWPOLYLINE
  5
1C3
100
AcDbEntity
  8
ZUWAKU
  6
CONTINUOUS
 62
      32
100
AcDbPolyline
 90
        2
 70
       0
 43
0.25
 10
665.63250547
 20
-1135.86898698
 40
0.25
 41
0.25
 10
663.64146902
 20
-1135.86898698
 40
0.25
 41
0.25
  0
LWPOLYLINE
  5
1C4
100
AcDbEntity
  8
ZUWAKU
  6
CONTINUOUS
 62
      32
100
AcDbPolyline
 90
        2
 70
       0
 43
0.25
 10
665.63250547
 20
-1135.86898698
 40
0.25
 41
0.25
 10
664.69500547
 20
-1138.36898698
 40
0.25
 41
0.25
  0
LWPOLYLINE
  5
1C5
100
AcDbEntity
  8
ZUWAKU
  6
CONTINUOUS
 62
      32
100
AcDbPolyline
 90
        2
 70
       0
 43
0.25
 10
666.39490011
 20
-1138.36898698
 40
0.25
 41
0.25
 10
668.34596506
 20
-1138.36898698
 40
0.25
 41
0.25
  0
LWPOLYLINE
  5
1C6
100
AcDbEntity
  8
ZUWAKU
  6
CONTINUOUS
 62
      32
100
AcDbPolyline
 90
        2
 70
       0
 43
0.25
 10
669.28346506
 20
-1135.86898698
 40
0.25
 41
0.25
 10
667.33240011
 20
-1135.86898698
 40
0.25
 41
0.25
  0
LWPOLYLINE
  5
1C7
100
AcDbEntity
  8
ZUWAKU
  6
CONTINUOUS
 62
      32
100
AcDbPolyline
 90
        2
 70
       0
 43
0.25
 10
669.28346506
 20
-1135.86898698
 40
0.25
 41
0.25
 10
668.34596506
 20
-1138.36898698
 40
0.25
 41
0.25
  0
LWPOLYLINE
  5
1C8
100
AcDbEntity
  8
ZUWAKU
  6
CONTINUOUS
 62
      32
100
AcDbPolyline
 90
        2
 70
       0
 43
0.25
 10
662.73064947
 20
-1135.86898698
 40
0.25
 41
0.25
 10
661.79314947
 20
-1138.36898698
 40
0.25
 41
0.25
  0
LWPOLYLINE
  5
1C9
100
AcDbEntity
  8
ZUWAKU
  6
CONTINUOUS
 62
      32
100
AcDbPolyline
 90
        2
 70
       0
 43
0.25
 10
667.33240011
 20
-1135.86898698
 40
0.25
 41
0.25
 10
666.39490011
 20
-1138.36898698
 40
0.25
 41
0.25
  0
LWPOLYLINE
  5
1CA
100
AcDbEntity
  8
ZUWAKU
  6
CONTINUOUS
 62
      32
100
AcDbPolyline
 90
        2
 70
       0
 43
0.25
 10
670.74478279
 20
-1135.86898698
 40
0.25
 41
0.25
 10
669.80728279
 20
-1138.36898698
 40
0.25
 41
0.25
  0
LWPOLYLINE
  5
1CB
100
AcDbEntity
  8
ZUWAKU
  6
CONTINUOUS
 62
      32
100
AcDbPolyline
 90
        2
 70
       0
 43
0.25
 10
669.80728279
 20
-1138.36898698
 40
0.25
 41
0.25
 10
671.61123185
 20
-1138.36898698
 40
0.25
 41
0.25
  0
LWPOLYLINE
  5
1CC
100
AcDbEntity
  8
ZUWAKU
  6
CONTINUOUS
 62
      32
100
AcDbPolyline
 90
        2
 70
       0
 43
0.25
 10
672.54873185
 20
-1135.86898698
 40
0.25
 41
0.25
 10
670.74478279
 20
-1135.86898698
 40
0.25
 41
0.25
  0
LWPOLYLINE
  5
1CD
100
AcDbEntity
  8
ZUWAKU
  6
CONTINUOUS
 62
      32
100
AcDbPolyline
 90
        2
 70
       0
 43
0.25
 10
672.54873185
 20
-1135.86898698
 40
0.25
 41
0.25
 10
671.61123185
 20
-1138.36898698
 40
0.25
 41
0.25
  0
LWPOLYLINE
  5
1CE
100
AcDbEntity
  8
ZUWAKU
  6
CONTINUOUS
 62
      32
100
AcDbPolyline
 90
        2
 70
       0
 43
0.25
 10
674.07580695
 20
-1135.86898698
 40
0.25
 41
0.25
 10
673.13830695
 20
-1138.36898698
 40
0.25
 41
0.25
  0
LWPOLYLINE
  5
1CF
100
AcDbEntity
  8
ZUWAKU
  6
CONTINUOUS
 62
      32
100
AcDbPolyline
 90
        2
 70
       0
 43
0.25
 10
673.13830695
 20
-1138.36898698
 40
0.25
 41
0.25
 10
674.74247361
 20
-1138.36898698
 40
0.25
 41
0.25
  0
LWPOLYLINE
  5
1D0
100
AcDbEntity
  8
ZUWAKU
  6
CONTINUOUS
 62
      32
100
AcDbPolyline
 90
        2
 70
       0
 43
0.25
 10
675.57580695
 20
-1135.86898698
 40
0.25
 41
0.25
 10
674.07580695
 20
-1135.86898698
 40
0.25
 41
0.25
  0
LWPOLYLINE
  5
1D1
100
AcDbEntity
  8
ZUWAKU
  6
CONTINUOUS
 62
      32
100
AcDbPolyline
 90
        2
 70
       0
 43
0.25
 10
675.57580695
 20
-1135.86898698
 40
0.25
 41
0.25
 10
674.74247361
 20
-1138.36898698
 40
0.25
 41
0.25
  0
LWPOLYLINE
  5
1D2
100
AcDbEntity
  8
ZUWAKU
  6
CONTINUOUS
 62
      32
100
AcDbPolyline
 90
        2
 70
       0
 43
0.25
 10
677.17318709
 20
-1135.86898698
 40
0.25
 41
0.25
 10
676.33985375
 20
-1138.36898698
 40
0.25
 41
0.25
  0
LWPOLYLINE
  5
1D3
100
AcDbEntity
  8
ZUWAKU
  6
CONTINUOUS
 62
      32
100
AcDbPolyline
 90
        2
 70
       0
 43
0.25
 10
678.47111327
 20
-1135.86898698
 40
0.25
 41
0.25
 10
677.63777993
 20
-1138.36898698
 40
0.25
 41
0.25
  0
LWPOLYLINE
  5
1D4
100
AcDbEntity
  8
ZUWAKU
  6
CONTINUOUS
 62
      32
100
AcDbPolyline
 90
        2
 70
       0
 43
0.25
 10
680.88777993
 20
-1135.86898698
 40
0.25
 41
0.25
 10
680.0544466
 20
-1138.36898698
 40
0.25
 41
0.25
  0
LWPOLYLINE
  5
1D5
100
AcDbEntity
  8
ZUWAKU
  6
CONTINUOUS
 62
      32
100
AcDbPolyline
 90
        2
 70
       0
 43
0.25
 10
682.47111327
 20
-1135.86898698
 40
0.25
 41
0.25
 10
681.63777993
 20
-1138.36898698
 40
0.25
 41
0.25
  0
LWPOLYLINE
  5
1D6
100
AcDbEntity
  8
ZUWAKU
  6
CONTINUOUS
 62
      32
100
AcDbPolyline
 90
        2
 70
       0
 43
0.25
 10
682.88777993
 20
-1135.86898698
 40
0.25
 41
0.25
 10
682.0544466
 20
-1138.36898698
 40
0.25
 41
0.25
  0
LWPOLYLINE
  5
1D7
100
AcDbEntity
  8
ZUWAKU
  6
CONTINUOUS
 62
      32
100
AcDbPolyline
 90
        2
 70
       0
 43
0.25
 10
676.33985375
 20
-1138.36898698
 40
0.25
 41
0.25
 10
677.63777993
 20
-1138.36898698
 40
0.25
 41
0.25
  0
LWPOLYLINE
  5
1D8
100
AcDbEntity
  8
ZUWAKU
  6
CONTINUOUS
 62
      32
100
AcDbPolyline
 90
        2
 70
       0
 43
0.25
 10
678.47111327
 20
-1135.86898698
 40
0.25
 41
0.25
 10
677.17318709
 20
-1135.86898698
 40
0.25
 41
0.25
  0
LWPOLYLINE
  5
1D9
100
AcDbEntity
  8
ZUWAKU
  6
CONTINUOUS
 62
      32
100
AcDbPolyline
 90
        2
 70
       0
 43
0.25
 10
679.13777993
 20
-1138.36898698
 40
0.25
 41
0.25
 10
680.0544466
 20
-1138.36898698
 40
0.25
 41
0.25
  0
LWPOLYLINE
  5
1DA
100
AcDbEntity
  8
ZUWAKU
  6
CONTINUOUS
 62
      32
100
AcDbPolyline
 90
        2
 70
       0
 43
0.25
 10
681.63777993
 20
-1138.36898698
 40
0.25
 41
0.25
 10
682.0544466
 20
-1138.36898698
 40
0.25
 41
0.25
  0
LWPOLYLINE
  5
1DB
100
AcDbEntity
  8
ZUWAKU
  6
CONTINUOUS
 62
      32
100
AcDbPolyline
 90
        2
 70
       0
 43
0.25
 10
680.88777993
 20
-1135.86898698
 40
0.25
 41
0.25
 10
679.97111327
 20
-1135.86898698
 40
0.25
 41
0.25
  0
LWPOLYLINE
  5
1DC
100
AcDbEntity
  8
ZUWAKU
  6
CONTINUOUS
 62
      32
100
AcDbPolyline
 90
        2
 70
       0
 43
0.25
 10
682.47111327
 20
-1135.86898698
 40
0.25
 41
0.25
 10
682.88777993
 20
-1135.86898698
 40
0.25
 41
0.25
  0
ARC
  5
1DD
100
AcDbEntity
  8
ZUWAKU
  6
CONTINUOUS
 62
      32
100
AcDbCircle
 10
642.1012439
 20
-1131.86898698
 30
0.0
 40
4.0
100
AcDbArc
 50
90.0
 51
270.0
  0
LWPOLYLINE
  5
1DE
100
AcDbEntity
  8
ZUWAKU
  6
CONTINUOUS
 62
      32
100
AcDbPolyline
 90
        2
 70
       0
 43
0.25
 10
666.72766667
 20
-1115.87298698
 40
0.25
 41
0.25
 10
660.97766667
 20
-1115.87298698
 40
0.25
 41
0.25
  0
LWPOLYLINE
  5
1DF
100
AcDbEntity
  8
ZUWAKU
  6
CONTINUOUS
 62
      32
100
AcDbPolyline
 90
        2
 70
       0
 43
0.25
 10
667.66666667
 20
-1113.36898698
 40
0.25
 41
0.25
 10
659.24239349
 20
-1113.36898698
 40
0.25
 41
0.25
  0
LWPOLYLINE
  5
1E0
100
AcDbEntity
  8
ZUWAKU
  6
CONTINUOUS
 62
      32
100
AcDbPolyline
 90
        2
 70
       0
 43
0.25
 10
659.24239349
 20
-1113.36898698
 40
0.25
 41
0.25
 10
654.74389349
 20
-1125.36498698
 40
0.25
 41
0.25
  0
LWPOLYLINE
  5
1E1
100
AcDbEntity
  8
ZUWAKU
  6
CONTINUOUS
 62
      32
100
AcDbPolyline
 90
        2
 70
       0
 43
0.25
 10
653.80489349
 20
-1127.86898698
 40
0.25
 41
0.25
 10
650.80489349
 20
-1135.86898698
 40
0.25
 41
0.25
  0
LWPOLYLINE
  5
1E2
100
AcDbEntity
  8
ZUWAKU
  6
CONTINUOUS
 62
      32
100
AcDbPolyline
 90
        2
 70
       0
 43
0.25
 10
654.74389349
 20
-1125.36498698
 40
0.25
 41
0.25
 10
652.94701449
 20
-1125.36498698
 40
0.25
 41
0.25
  0
LWPOLYLINE
  5
1E3
100
AcDbEntity
  8
ZUWAKU
  6
CONTINUOUS
 62
      32
100
AcDbPolyline
 90
        2
 70
       0
 43
0.25
 10
650.07071437
 20
-1125.36498698
 40
0.25
 41
0.25
 10
642.1012439
 20
-1125.36498698
 40
0.25
 41
0.25
  0
LWPOLYLINE
  5
1E4
100
AcDbEntity
  8
ZUWAKU
  6
CONTINUOUS
 62
      32
100
AcDbPolyline
 90
        2
 70
       0
 43
0.25
 10
644.70567089
 20
-1115.87298698
 40
0.25
 41
0.25
 10
650.07071437
 20
-1125.36498698
 40
0.25
 41
0.25
  0
ARC
  5
1E5
100
AcDbEntity
  8
ZUWAKU
  6
CONTINUOUS
 62
      32
100
AcDbCircle
 10
642.1012439
 20
-1131.86898698
 30
0.0
 40
6.5
100
AcDbArc
 50
90.0
 51
270.0
  0
ELLIPSE
  5
1E6
100
AcDbEntity
  8
ZUWAKU
  6
CONTINUOUS
 62
      32
100
AcDbEllipse
 10
633.81959118
 20
-1119.00546627
 30
0.0
 11
0.6585493061994612
 21
1.2073403946985763
 31
0.0
210
0.0
220
0.0
230
1.0
 40
0.75209874
 41
0.0
 42
6.2831853071796004
  0
LWPOLYLINE
  5
1E7
100
AcDbEntity
  8
ZUWAKU
  6
CONTINUOUS
 62
      32
100
AcDbPolyline
 90
        2
 70
       0
 43
0.25
 10
646.16666667
 20
-1113.36898698
 40
0.25
 41
0.25
 10
637.16666667
 20
-1113.36898698
 40
0.25
 41
0.25
  0
ELLIPSE
  5
1E8
100
AcDbEntity
  8
ZUWAKU
  6
CONTINUOUS
 62
      32
100
AcDbEllipse
 10
633.81959118
 20
-1119.00546627
 30
0.0
 11
2.1039913936083394
 21
3.857317554947258
 31
0.0
210
0.0
220
0.0
230
1.0
 40
0.75209874
 41
1.1633802511780493
 42
5.8601607076995617
  0
LWPOLYLINE
  5
1E9
100
AcDbEntity
  8
ZUWAKU
  6
CONTINUOUS
 62
      32
100
AcDbPolyline
 90
        2
 70
       0
 43
0.25
 10
644.70567089
 20
-1115.87298698
 40
0.25
 41
0.25
 10
637.31685895
 20
-1115.87298698
 40
0.25
 41
0.25
  0
ARC
  5
1EA
100
AcDbEntity
  8
ZUWAKU
  6
CONTINUOUS
 62
      32
100
AcDbCircle
 10
638.06170191
 20
-1121.48872723
 30
0.0
 40
5.66492097
100
AcDbArc
 50
97.55531967
 51
102.61004677
  0
ARC
  5
1EB
100
AcDbEntity
  8
ZUWAKU
  6
CONTINUOUS
 62
      32
100
AcDbCircle
 10
638.06170191
 20
-1121.48872723
 30
0.0
 40
8.16892097
100
AcDbArc
 50
96.29029269
 51
113.79815684
  0
ARC
  5
1EC
100
AcDbEntity
  8
ZUWAKU
  6
CONTINUOUS
 62
      32
100
AcDbCircle
 10
638.06170191
 20
-1121.48872723
 30
0.0
 40
8.16892097
100
AcDbArc
 50
136.57125834
 51
138.01426788
  0
ARC
  5
1ED
100
AcDbEntity
  8
ZUWAKU
  6
CONTINUOUS
 62
      32
100
AcDbCircle
 10
632.19438425
 20
-1118.79821889
 30
0.0
 40
5.43095072
100
AcDbArc
 50
29.3318227
 51
31.50126528
  0
ARC
  5
1EE
100
AcDbEntity
  8
ZUWAKU
  6
CONTINUOUS
 62
      32
100
AcDbCircle
 10
632.19438425
 20
-1118.79821889
 30
0.0
 40
5.43095072
100
AcDbArc
 50
61.74457829
 51
90.0
  0
ELLIPSE
  5
1EF
100
AcDbEntity
  8
ZUWAKU
  6
CONTINUOUS
 62
      32
100
AcDbEllipse
 10
621.03295142
 20
-1122.36774353
 30
0.0
 11
1.0963443692977535
 21
2.2612102616769789
 31
0.0
210
0.0
220
0.0
230
1.0
 40
0.44219156
 41
0.0
 42
6.2831853071796004
  0
ARC
  5
1F0
100
AcDbEntity
  8
ZUWAKU
  6
CONTINUOUS
 62
      32
100
AcDbCircle
 10
618.72711231
 20
-1123.02940083
 30
0.0
 40
9.7128547
100
AcDbArc
 50
61.28311564
 51
84.0434522
  0
LWPOLYLINE
  5
1F1
100
AcDbEntity
  8
ZUWAKU
  6
CONTINUOUS
 62
      32
100
AcDbPolyline
 90
        2
 70
       0
 43
0.25
 10
632.19438425
 20
-1113.36898698
 40
0.25
 41
0.25
 10
626.55960878
 20
-1113.36898698
 40
0.25
 41
0.25
  0
ARC
  5
1F2
100
AcDbEntity
  8
ZUWAKU
  6
CONTINUOUS
 62
      32
100
AcDbCircle
 10
618.72711231
 20
-1123.02940083
 30
0.0
 40
7.2088547
100
AcDbArc
 50
71.08708107
 51
83.08482824
  0
ARC
  5
1F3
100
AcDbEntity
  8
ZUWAKU
  6
CONTINUOUS
 62
      32
100
AcDbCircle
 10
628.6850566
 20
-1124.21771878
 30
0.0
 40
8.55097671
100
AcDbArc
 50
102.60950936
 51
111.93126974
  0
ELLIPSE
  5
1F4
100
AcDbEntity
  8
ZUWAKU
  6
CONTINUOUS
 62
      32
100
AcDbEllipse
 10
621.03295142
 20
-1122.36774353
 30
0.0
 11
3.5026976654880855
 21
7.2243139350705405
 31
0.0
210
0.0
220
0.0
230
1.0
 40
0.44219156
 41
1.1621663820477939
 42
5.8906096214263046
  0
LWPOLYLINE
  5
1F5
100
AcDbEntity
  8
ZUWAKU
  6
CONTINUOUS
 62
      32
100
AcDbPolyline
 90
        2
 70
       0
 43
0.25
 10
632.12918716
 20
-1115.87298698
 40
0.25
 41
0.25
 10
626.81833383
 20
-1115.87298698
 40
0.25
 41
0.25
  0
ARC
  5
1F6
100
AcDbEntity
  8
ZUWAKU
  6
CONTINUOUS
 62
      32
100
AcDbCircle
 10
628.6850566
 20
-1124.21771878
 30
0.0
 40
11.05497671
100
AcDbArc
 50
133.58286141
 51
146.24939265
  0
ARC
  5
1F7
100
AcDbEntity
  8
ZUWAKU
  6
CONTINUOUS
 62
      32
100
AcDbCircle
 10
628.6850566
 20
-1124.21771878
 30
0.0
 40
11.05497671
100
AcDbArc
 50
101.08479974
 51
118.5950739
  0
LWPOLYLINE
  5
1F8
100
AcDbEntity
  8
ZUWAKU
  6
CONTINUOUS
 62
      32
100
AcDbPolyline
 90
        2
 70
       0
 43
0.25
 10
619.73505607
 20
-1113.36898698
 40
0.25
 41
0.25
 10
615.66666667
 20
-1113.36898698
 40
0.25
 41
0.25
  0
LWPOLYLINE
  5
1F9
100
AcDbEntity
  8
ZUWAKU
  6
CONTINUOUS
 62
      32
100
AcDbPolyline
 90
        2
 70
       0
 43
0.25
 10
616.24904819
 20
-1116.32779622
 40
0.25
 41
0.25
 10
609.44520688
 20
-1123.13163753
 40
0.25
 41
0.25
  0
LWPOLYLINE
  5
1FA
100
AcDbEntity
  8
ZUWAKU
  6
CONTINUOUS
 62
      32
100
AcDbPolyline
 90
        2
 70
       0
 43
0.25
 10
609.21079377
 20
-1115.87298698
 40
0.25
 41
0.25
 10
608.11067845
 20
-1122.47367891
 40
0.25
 41
0.25
  0
LWPOLYLINE
  5
1FB
100
AcDbEntity
  8
ZUWAKU
  6
CONTINUOUS
 62
      32
100
AcDbPolyline
 90
        2
 70
       0
 43
0.25
 10
619.59505635
 20
-1115.87298698
 40
0.25
 41
0.25
 10
617.15866667
 20
-1115.87298698
 40
0.25
 41
0.25
  0
ARC
  5
1FC
100
AcDbEntity
  8
ZUWAKU
  6
CONTINUOUS
 62
      32
100
AcDbCircle
 10
608.87705263
 20
-1122.60140794
 30
0.0
 40
0.77713748
100
AcDbArc
 50
170.53767779
 51
316.97750576
  0
ELLIPSE
  5
1FD
100
AcDbEntity
  8
ZUWAKU
  6
CONTINUOUS
 62
      32
100
AcDbEllipse
 10
598.26786528
 20
-1118.07283762
 30
0.0
 11
0.7294530398138477
 21
1.2285524881074252
 31
0.0
210
0.0
220
0.0
230
1.0
 40
0.58819821
 41
0.0
 42
6.2831853071796004
  0
LWPOLYLINE
  5
1FE
100
AcDbEntity
  8
ZUWAKU
  6
CONTINUOUS
 62
      32
100
AcDbPolyline
 90
        2
 70
       0
 43
0.25
 10
606.57039403
 20
-1115.87298698
 40
0.25
 41
0.25
 10
602.40287463
 20
-1117.8747089
 40
0.25
 41
0.25
  0
LWPOLYLINE
  5
1FF
100
AcDbEntity
  8
ZUWAKU
  6
CONTINUOUS
 62
      32
100
AcDbPolyline
 90
        2
 70
       0
 43
0.25
 10
606.16666667
 20
-1113.36898698
 40
0.25
 41
0.25
 10
602.67747135
 20
-1114.91509285
 40
0.25
 41
0.25
  0
LWPOLYLINE
  5
200
100
AcDbEntity
  8
ZUWAKU
  6
CONTINUOUS
 62
      32
100
AcDbPolyline
 90
        2
 70
       0
 43
0.25
 10
609.21079377
 20
-1115.87298698
 40
0.25
 41
0.25
 10
606.57039403
 20
-1115.87298698
 40
0.25
 41
0.25
  0
LWPOLYLINE
  5
201
100
AcDbEntity
  8
ZUWAKU
  6
CONTINUOUS
 62
      32
100
AcDbPolyline
 90
        2
 70
       0
 43
0.25
 10
597.61167369
 20
-1114.49713397
 40
0.25
 41
0.25
 10
596.44462508
 20
-1113.36898698
 40
0.25
 41
0.25
  0
LWPOLYLINE
  5
202
100
AcDbEntity
  8
ZUWAKU
  6
CONTINUOUS
 62
      32
100
AcDbPolyline
 90
        2
 70
       0
 43
0.25
 10
593.66666667
 20
-1115.87298698
 40
0.25
 41
0.25
 10
590.14896873
 20
-1115.87298698
 40
0.25
 41
0.25
  0
LWPOLYLINE
  5
203
100
AcDbEntity
  8
ZUWAKU
  6
CONTINUOUS
 62
      32
100
AcDbPolyline
 90
        2
 70
       0
 43
0.25
 10
582.15354016
 20
-1122.86898698
 40
0.25
 41
0.25
 10
590.14896873
 20
-1115.87298698
 40
0.25
 41
0.25
  0
ELLIPSE
  5
204
100
AcDbEntity
  8
ZUWAKU
  6
CONTINUOUS
 62
      32
100
AcDbEllipse
 10
598.78964503
 20
-1117.77696533
 30
0.0
 11
3.1774816750956916
 21
3.9366623178134432
 31
0.0
210
0.0
220
0.0
230
1.0
 40
0.63020876
 41
2.7713952963881407
 42
5.160819221064429
  0
ELLIPSE
  5
205
100
AcDbEntity
  8
ZUWAKU
  6
CONTINUOUS
 62
      32
100
AcDbEllipse
 10
598.78964503
 20
-1117.77696533
 30
0.0
 11
3.1774816750956916
 21
3.9366623178134432
 31
0.0
210
0.0
220
0.0
230
1.0
 40
0.63020876
 41
5.8878630804447285
 42
7.4876029260781625
  0
LWPOLYLINE
  5
206
100
AcDbEntity
  8
ZUWAKU
  6
CONTINUOUS
 62
      32
100
AcDbPolyline
 90
        2
 70
       0
 43
0.25
 10
594.324985
 20
-1122.38575372
 40
0.25
 41
0.25
 10
591.66056967
 20
-1122.38575372
 40
0.25
 41
0.25
  0
LWPOLYLINE
  5
207
100
AcDbEntity
  8
ZUWAKU
  6
CONTINUOUS
 62
      32
100
AcDbPolyline
 90
        2
 70
       0
 43
0.25
 10
594.9298237
 20
-1120.72244728
 40
0.25
 41
0.25
 10
594.324985
 20
-1122.38575372
 40
0.25
 41
0.25
  0
LWPOLYLINE
  5
208
100
AcDbEntity
  8
ZUWAKU
  6
CONTINUOUS
 62
      32
100
AcDbPolyline
 90
        2
 70
       0
 43
0.25
 10
593.66666667
 20
-1116.86898698
 40
0.25
 41
0.25
 10
591.66056967
 20
-1122.38575372
 40
0.25
 41
0.25
  0
LWPOLYLINE
  5
209
100
AcDbEntity
  8
ZUWAKU
  6
CONTINUOUS
 62
      32
100
AcDbPolyline
 90
        2
 70
       0
 43
0.25
 10
586.86148226
 20
-1113.44775696
 40
0.25
 41
0.25
 10
585.59440685
 20
-1116.93221432
 40
0.25
 41
0.25
  0
LWPOLYLINE
  5
20A
100
AcDbEntity
  8
ZUWAKU
  6
CONTINUOUS
 62
      32
100
AcDbPolyline
 90
        2
 70
       0
 43
0.25
 10
581.81957954
 20
-1119.36898698
 40
0.25
 41
0.25
 10
584.00139772
 20
-1113.36898698
 40
0.25
 41
0.25
  0
LWPOLYLINE
  5
20B
100
AcDbEntity
  8
ZUWAKU
  6
CONTINUOUS
 62
      32
100
AcDbPolyline
 90
        2
 70
       0
 43
0.25
 10
580.66666667
 20
-1113.36898698
 40
0.25
 41
0.25
 10
578.48484848
 20
-1119.36898698
 40
0.25
 41
0.25
  0
LWPOLYLINE
  5
20C
100
AcDbEntity
  8
ZUWAKU
  6
CONTINUOUS
 62
      32
100
AcDbPolyline
 90
        2
 70
       0
 43
0.25
 10
574.83698915
 20
-1121.27560015
 40
0.25
 41
0.25
 10
576.80157576
 20
-1115.87298698
 40
0.25
 41
0.25
  0
LWPOLYLINE
  5
20D
100
AcDbEntity
  8
ZUWAKU
  6
CONTINUOUS
 62
      32
100
AcDbPolyline
 90
        2
 70
       0
 43
0.25
 10
575.66832141
 20
-1122.86898698
 40
0.25
 41
0.25
 10
574.83698915
 20
-1121.27560015
 40
0.25
 41
0.25
  0
LWPOLYLINE
  5
20E
100
AcDbEntity
  8
ZUWAKU
  6
CONTINUOUS
 62
      32
100
AcDbPolyline
 90
        2
 70
       0
 43
0.25
 10
581.15387719
 20
-1121.38177646
 40
0.25
 41
0.25
 10
580.66200283
 20
-1122.86898698
 40
0.25
 41
0.25
  0
LWPOLYLINE
  5
20F
100
AcDbEntity
  8
ZUWAKU
  6
CONTINUOUS
 62
      32
100
AcDbPolyline
 90
        2
 70
       0
 43
0.25
 10
581.15387719
 20
-1121.38177646
 40
0.25
 41
0.25
 10
578.4902885
 20
-1122.86898698
 40
0.25
 41
0.25
  0
LWPOLYLINE
  5
210
100
AcDbEntity
  8
ZUWAKU
  6
CONTINUOUS
 62
      32
100
AcDbPolyline
 90
        2
 70
       0
 43
0.25
 10
575.66832141
 20
-1122.86898698
 40
0.25
 41
0.25
 10
578.4902885
 20
-1122.86898698
 40
0.25
 41
0.25
  0
LWPOLYLINE
  5
211
100
AcDbEntity
  8
ZUWAKU
  6
CONTINUOUS
 62
      32
100
AcDbPolyline
 90
        2
 70
       0
 43
0.25
 10
580.66200283
 20
-1122.86898698
 40
0.25
 41
0.25
 10
582.15354016
 20
-1122.86898698
 40
0.25
 41
0.25
  0
ELLIPSE
  5
212
100
AcDbEntity
  8
ZUWAKU
  6
CONTINUOUS
 62
      32
100
AcDbEllipse
 10
553.35360716
 20
-1119.00546627
 30
0.0
 11
0.6585493061994612
 21
1.2073403946985763
 31
0.0
210
0.0
220
0.0
230
1.0
 40
0.75209874
 41
0.0
 42
6.2831853071796004
  0
ELLIPSE
  5
213
100
AcDbEntity
  8
ZUWAKU
  6
CONTINUOUS
 62
      32
100
AcDbEllipse
 10
553.35360716
 20
-1119.00546627
 30
0.0
 11
2.1039913936083394
 21
3.857317554947258
 31
0.0
210
0.0
220
0.0
230
1.0
 40
0.75209874
 41
1.1633802511780493
 42
5.8601607076995617
  0
ARC
  5
214
100
AcDbEntity
  8
ZUWAKU
  6
CONTINUOUS
 62
      32
100
AcDbCircle
 10
557.59571789
 20
-1121.48872723
 30
0.0
 40
5.66492097
100
AcDbArc
 50
97.55531967
 51
102.61004677
  0
ARC
  5
215
100
AcDbEntity
  8
ZUWAKU
  6
CONTINUOUS
 62
      32
100
AcDbCircle
 10
557.59571789
 20
-1121.48872723
 30
0.0
 40
8.16892097
100
AcDbArc
 50
96.29029269
 51
113.79815684
  0
ARC
  5
216
100
AcDbEntity
  8
ZUWAKU
  6
CONTINUOUS
 62
      32
100
AcDbCircle
 10
557.59571789
 20
-1121.48872723
 30
0.0
 40
8.16892097
100
AcDbArc
 50
136.57125834
 51
138.01426788
  0
ARC
  5
217
100
AcDbEntity
  8
ZUWAKU
  6
CONTINUOUS
 62
      32
100
AcDbCircle
 10
551.72840022
 20
-1118.79821889
 30
0.0
 40
5.43095072
100
AcDbArc
 50
29.3318227
 51
31.50126528
  0
ARC
  5
218
100
AcDbEntity
  8
ZUWAKU
  6
CONTINUOUS
 62
      32
100
AcDbCircle
 10
551.72840022
 20
-1118.79821889
 30
0.0
 40
5.43095072
100
AcDbArc
 50
61.74457829
 51
90.0
  0
LWPOLYLINE
  5
219
100
AcDbEntity
  8
ZUWAKU
  6
CONTINUOUS
 62
      32
100
AcDbPolyline
 90
        2
 70
       0
 43
0.25
 10
565.54828223
 20
-1115.87298698
 40
0.25
 41
0.25
 10
556.85087492
 20
-1115.87298698
 40
0.25
 41
0.25
  0
LWPOLYLINE
  5
21A
100
AcDbEntity
  8
ZUWAKU
  6
CONTINUOUS
 62
      32
100
AcDbPolyline
 90
        2
 70
       0
 43
0.25
 10
551.72840022
 20
-1113.36898698
 40
0.25
 41
0.25
 10
546.91340599
 20
-1113.36898698
 40
0.25
 41
0.25
  0
LWPOLYLINE
  5
21B
100
AcDbEntity
  8
ZUWAKU
  6
CONTINUOUS
 62
      32
100
AcDbPolyline
 90
        2
 70
       0
 43
0.25
 10
551.66320314
 20
-1115.87298698
 40
0.25
 41
0.25
 10
546.35234981
 20
-1115.87298698
 40
0.25
 41
0.25
  0
LWPOLYLINE
  5
21C
100
AcDbEntity
  8
ZUWAKU
  6
CONTINUOUS
 62
      32
100
AcDbPolyline
 90
        2
 70
       0
 43
0.25
 10
612.16666667
 20
-1113.36898698
 40
0.25
 41
0.25
 10
606.16666667
 20
-1113.36898698
 40
0.25
 41
0.25
  0
LWPOLYLINE
  5
21D
100
AcDbEntity
  8
ZUWAKU
  6
CONTINUOUS
 62
      32
100
AcDbPolyline
 90
        2
 70
       0
 43
0.25
 10
586.86148226
 20
-1113.44775696
 40
0.25
 41
0.25
 10
584.00139772
 20
-1113.36898698
 40
0.25
 41
0.25
  0
LWPOLYLINE
  5
21E
100
AcDbEntity
  8
ZUWAKU
  6
CONTINUOUS
 62
      32
100
AcDbPolyline
 90
        2
 70
       0
 43
0.25
 10
576.80157576
 20
-1115.87298698
 40
0.25
 41
0.25
 10
572.17795243
 20
-1115.87298698
 40
0.25
 41
0.25
  0
LWPOLYLINE
  5
21F
100
AcDbEntity
  8
ZUWAKU
  6
CONTINUOUS
 62
      32
100
AcDbPolyline
 90
        2
 70
       0
 43
0.25
 10
563.64530252
 20
-1119.4777447
 40
0.25
 41
0.25
 10
561.7774333
 20
-1120.98760566
 40
0.25
 41
0.25
  0
ARC
  5
220
100
AcDbEntity
  8
ZUWAKU
  6
CONTINUOUS
 62
      32
100
AcDbCircle
 10
565.54828223
 20
-1118.19298698
 30
0.0
 40
2.32
100
AcDbArc
 50
214.07537472
 51
450.0
  0
ARC
  5
221
100
AcDbEntity
  8
ZUWAKU
  6
CONTINUOUS
 62
      32
100
AcDbCircle
 10
565.54828223
 20
-1118.19298698
 30
0.0
 40
4.69352694
100
AcDbArc
 50
216.54256145
 51
370.98612084
  0
LWPOLYLINE
  5
222
100
AcDbEntity
  8
ZUWAKU
  6
CONTINUOUS
 62
      32
100
AcDbPolyline
 90
        2
 70
       0
 43
0.25
 10
571.5465023
 20
-1113.36898698
 40
0.25
 41
0.25
 10
569.16909834
 20
-1115.11839745
 40
0.25
 41
0.25
  0
LWPOLYLINE
  5
223
100
AcDbEntity
  8
ZUWAKU
  6
CONTINUOUS
 62
      32
100
AcDbPolyline
 90
        2
 70
       0
 43
0.25
 10
570.18560684
 20
-1117.3390526
 40
0.25
 41
0.25
 10
572.17795243
 20
-1115.87298698
 40
0.25
 41
0.25
  0
LWPOLYLINE
  5
224
100
AcDbEntity
  8
ZUWAKU
  6
CONTINUOUS
 62
      32
100
AcDbPolyline
 90
        2
 70
       0
 43
0.25
 10
569.16909834
 20
-1115.11839745
 40
0.25
 41
0.25
 10
567.16666667
 20
-1113.36898698
 40
0.25
 41
0.25
  0
LWPOLYLINE
  5
225
100
AcDbEntity
  8
ZUWAKU
  6
CONTINUOUS
 62
      32
100
AcDbPolyline
 90
        2
 70
       0
 43
0.25
 10
546.35234981
 20
-1115.87298698
 40
0.25
 41
0.25
 10
546.91340599
 20
-1113.36898698
 40
0.25
 41
0.25
  0
LWPOLYLINE
  5
226
100
AcDbEntity
  8
ZUWAKU
  6
CONTINUOUS
 62
      32
100
AcDbPolyline
 90
        2
 70
       0
 43
0.25
 10
679.32527993
 20
-1137.80648698
 40
0.25
 41
0.25
 10
680.70027993
 20
-1136.43148698
 40
0.25
 41
0.25
  0
LWPOLYLINE
  5
227
100
AcDbEntity
  8
ZUWAKU
  6
CONTINUOUS
 62
      32
100
AcDbPolyline
 90
        2
 70
       0
 43
0.25
 10
676.43203887
 20
-1138.09243162
 40
0.25
 41
0.25
 10
678.37892815
 20
-1136.14554235
 40
0.25
 41
0.25
  0
LWPOLYLINE
  5
228
100
AcDbEntity
  8
ZUWAKU
  6
CONTINUOUS
 62
      32
100
AcDbPolyline
 90
        2
 70
       0
 43
0.25
 10
673.15705695
 20
-1138.31898698
 40
0.25
 41
0.25
 10
675.56018195
 20
-1135.91586198
 40
0.25
 41
0.25
  0
LWPOLYLINE
  5
229
100
AcDbEntity
  8
ZUWAKU
  6
CONTINUOUS
 62
      32
100
AcDbPolyline
 90
        2
 70
       0
 43
0.25
 10
669.92800732
 20
-1138.36898698
 40
0.25
 41
0.25
 10
672.42800732
 20
-1135.86898698
 40
0.25
 41
0.25
  0
LWPOLYLINE
  5
22A
100
AcDbEntity
  8
ZUWAKU
  6
CONTINUOUS
 62
      32
100
AcDbPolyline
 90
        2
 70
       0
 43
0.25
 10
666.58918259
 20
-1138.36898698
 40
0.25
 41
0.25
 10
669.08918259
 20
-1135.86898698
 40
0.25
 41
0.25
  0
LWPOLYLINE
  5
22B
100
AcDbEntity
  8
ZUWAKU
  6
CONTINUOUS
 62
      32
100
AcDbPolyline
 90
        2
 70
       0
 43
0.25
 10
662.91823725
 20
-1138.36898698
 40
0.25
 41
0.25
 10
665.41823725
 20
-1135.86898698
 40
0.25
 41
0.25
  0
LWPOLYLINE
  5
22C
100
AcDbEntity
  8
ZUWAKU
  6
CONTINUOUS
 62
      32
100
AcDbPolyline
 90
        2
 70
       0
 43
0.25
 10
659.82426195
 20
-1138.36898698
 40
0.25
 41
0.25
 10
662.32426195
 20
-1135.86898698
 40
0.25
 41
0.25
  0
LWPOLYLINE
  5
22D
100
AcDbEntity
  8
ZUWAKU
  6
CONTINUOUS
 62
      32
100
AcDbPolyline
 90
        2
 70
       0
 43
0.25
 10
658.95931517
 20
-1114.1238625
 40
0.25
 41
0.25
 10
659.71419069
 20
-1113.36898698
 40
0.25
 41
0.25
  0
LWPOLYLINE
  5
22E
100
AcDbEntity
  8
ZUWAKU
  6
CONTINUOUS
 62
      32
100
AcDbPolyline
 90
        2
 70
       0
 43
0.25
 10
657.60167015
 20
-1117.74424922
 40
0.25
 41
0.25
 10
661.97693239
 20
-1113.36898698
 40
0.25
 41
0.25
  0
LWPOLYLINE
  5
22F
100
AcDbEntity
  8
ZUWAKU
  6
CONTINUOUS
 62
      32
100
AcDbPolyline
 90
        2
 70
       0
 43
0.25
 10
656.24402513
 20
-1121.36463594
 40
0.25
 41
0.25
 10
660.52286221
 20
-1117.08579887
 40
0.25
 41
0.25
  0
LWPOLYLINE
  5
230
100
AcDbEntity
  8
ZUWAKU
  6
CONTINUOUS
 62
      32
100
AcDbPolyline
 90
        2
 70
       0
 43
0.25
 10
661.73567409
 20
-1115.87298698
 40
0.25
 41
0.25
 10
664.23967409
 20
-1113.36898698
 40
0.25
 41
0.25
  0
LWPOLYLINE
  5
231
100
AcDbEntity
  8
ZUWAKU
  6
CONTINUOUS
 62
      32
100
AcDbPolyline
 90
        2
 70
       0
 43
0.25
 10
654.88638012
 20
-1124.98502266
 40
0.25
 41
0.25
 10
659.16521719
 20
-1120.70618559
 40
0.25
 41
0.25
  0
LWPOLYLINE
  5
232
100
AcDbEntity
  8
ZUWAKU
  6
CONTINUOUS
 62
      32
100
AcDbPolyline
 90
        2
 70
       0
 43
0.25
 10
663.99841579
 20
-1115.87298698
 40
0.25
 41
0.25
 10
666.50241579
 20
-1113.36898698
 40
0.25
 41
0.25
  0
LWPOLYLINE
  5
233
100
AcDbEntity
  8
ZUWAKU
  6
CONTINUOUS
 62
      32
100
AcDbPolyline
 90
        2
 70
       0
 43
0.25
 10
666.26115749
 20
-1115.87298698
 40
0.25
 41
0.25
 10
667.00757217
 20
-1115.12657231
 40
0.25
 41
0.25
  0
LWPOLYLINE
  5
234
100
AcDbEntity
  8
ZUWAKU
  6
CONTINUOUS
 62
      32
100
AcDbPolyline
 90
        2
 70
       0
 43
0.25
 10
650.55338259
 20
-1138.36898698
 40
0.25
 41
0.25
 10
653.73463711
 20
-1135.18773246
 40
0.25
 41
0.25
  0
LWPOLYLINE
  5
235
100
AcDbEntity
  8
ZUWAKU
  6
CONTINUOUS
 62
      32
100
AcDbPolyline
 90
        2
 70
       0
 43
0.25
 10
652.81612429
 20
-1138.36898698
 40
0.25
 41
0.25
 10
655.31612429
 20
-1135.86898698
 40
0.25
 41
0.25
  0
LWPOLYLINE
  5
236
100
AcDbEntity
  8
ZUWAKU
  6
CONTINUOUS
 62
      32
100
AcDbPolyline
 90
        2
 70
       0
 43
0.25
 10
655.07886599
 20
-1138.36898698
 40
0.25
 41
0.25
 10
657.57886599
 20
-1135.86898698
 40
0.25
 41
0.25
  0
LWPOLYLINE
  5
237
100
AcDbEntity
  8
ZUWAKU
  6
CONTINUOUS
 62
      32
100
AcDbPolyline
 90
        2
 70
       0
 43
0.25
 10
657.34160769
 20
-1138.36898698
 40
0.25
 41
0.25
 10
658.66170205
 20
-1137.04889262
 40
0.25
 41
0.25
  0
LWPOLYLINE
  5
238
100
AcDbEntity
  8
ZUWAKU
  6
CONTINUOUS
 62
      32
100
AcDbPolyline
 90
        2
 70
       0
 43
0.25
 10
634.3994899
 20
-1122.84449588
 40
0.25
 41
0.25
 10
636.79300991
 20
-1120.45097587
 40
0.25
 41
0.25
  0
LWPOLYLINE
  5
239
100
AcDbEntity
  8
ZUWAKU
  6
CONTINUOUS
 62
      32
100
AcDbPolyline
 90
        2
 70
       0
 43
0.25
 10
631.98985779
 20
-1122.99138628
 40
0.25
 41
0.25
 10
637.38314213
 20
-1117.59810195
 40
0.25
 41
0.25
  0
LWPOLYLINE
  5
23A
100
AcDbEntity
  8
ZUWAKU
  6
CONTINUOUS
 62
      32
100
AcDbPolyline
 90
        2
 70
       0
 43
0.25
 10
630.24148409
 20
-1120.21427659
 40
0.25
 41
0.25
 10
637.07630343
 20
-1113.37945725
 40
0.25
 41
0.25
  0
LWPOLYLINE
  5
23B
100
AcDbEntity
  8
ZUWAKU
  6
CONTINUOUS
 62
      32
100
AcDbPolyline
 90
        2
 70
       0
 43
0.25
 10
646.02789919
 20
-1138.36898698
 40
0.25
 41
0.25
 10
648.52789919
 20
-1135.86898698
 40
0.25
 41
0.25
  0
LWPOLYLINE
  5
23C
100
AcDbEntity
  8
ZUWAKU
  6
CONTINUOUS
 62
      32
100
AcDbPolyline
 90
        2
 70
       0
 43
0.25
 10
652.17109008
 20
-1132.2257961
 40
0.25
 41
0.25
 10
656.44992715
 20
-1127.94695903
 40
0.25
 41
0.25
  0
LWPOLYLINE
  5
23D
100
AcDbEntity
  8
ZUWAKU
  6
CONTINUOUS
 62
      32
100
AcDbPolyline
 90
        2
 70
       0
 43
0.25
 10
643.76515749
 20
-1138.36898698
 40
0.25
 41
0.25
 10
646.26515749
 20
-1135.86898698
 40
0.25
 41
0.25
  0
LWPOLYLINE
  5
23E
100
AcDbEntity
  8
ZUWAKU
  6
CONTINUOUS
 62
      32
100
AcDbPolyline
 90
        2
 70
       0
 43
0.25
 10
653.5287351
 20
-1128.60540938
 40
0.25
 41
0.25
 10
657.80757217
 20
-1124.32657231
 40
0.25
 41
0.25
  0
LWPOLYLINE
  5
23F
100
AcDbEntity
  8
ZUWAKU
  6
CONTINUOUS
 62
      32
100
AcDbPolyline
 90
        2
 70
       0
 43
0.25
 10
641.52776365
 20
-1138.34363913
 40
0.25
 41
0.25
 10
644.00241579
 20
-1135.86898698
 40
0.25
 41
0.25
  0
LWPOLYLINE
  5
240
100
AcDbEntity
  8
ZUWAKU
  6
CONTINUOUS
 62
      32
100
AcDbPolyline
 90
        2
 70
       0
 43
0.25
 10
652.00241579
 20
-1127.86898698
 40
0.25
 41
0.25
 10
654.50641579
 20
-1125.36498698
 40
0.25
 41
0.25
  0
LWPOLYLINE
  5
241
100
AcDbEntity
  8
ZUWAKU
  6
CONTINUOUS
 62
      32
100
AcDbPolyline
 90
        2
 70
       0
 43
0.25
 10
639.69962301
 20
-1137.90903807
 40
0.25
 41
0.25
 10
641.75471284
 20
-1135.85394824
 40
0.25
 41
0.25
  0
LWPOLYLINE
  5
242
100
AcDbEntity
  8
ZUWAKU
  6
CONTINUOUS
 62
      32
100
AcDbPolyline
 90
        2
 70
       0
 43
0.25
 10
649.73967409
 20
-1127.86898698
 40
0.25
 41
0.25
 10
652.69303046
 20
-1124.91563062
 40
0.25
 41
0.25
  0
LWPOLYLINE
  5
243
100
AcDbEntity
  8
ZUWAKU
  6
CONTINUOUS
 62
      32
100
AcDbPolyline
 90
        2
 70
       0
 43
0.25
 10
638.24465525
 20
-1137.10126412
 40
0.25
 41
0.25
 10
640.04557392
 20
-1135.30034546
 40
0.25
 41
0.25
  0
LWPOLYLINE
  5
244
100
AcDbEntity
  8
ZUWAKU
  6
CONTINUOUS
 62
      32
100
AcDbPolyline
 90
        2
 70
       0
 43
0.25
 10
637.08297313
 20
-1136.00020455
 40
0.25
 41
0.25
 10
638.86428139
 20
-1134.21889629
 40
0.25
 41
0.25
  0
LWPOLYLINE
  5
245
100
AcDbEntity
  8
ZUWAKU
  6
CONTINUOUS
 62
      32
100
AcDbPolyline
 90
        2
 70
       0
 43
0.25
 10
636.20839577
 20
-1134.61204021
 40
0.25
 41
0.25
 10
638.17694269
 20
-1132.64349329
 40
0.25
 41
0.25
  0
LWPOLYLINE
  5
246
100
AcDbEntity
  8
ZUWAKU
  6
CONTINUOUS
 62
      32
100
AcDbPolyline
 90
        2
 70
       0
 43
0.25
 10
635.67999082
 20
-1132.87770346
 40
0.25
 41
0.25
 10
638.57271537
 20
-1129.98497891
 40
0.25
 41
0.25
  0
LWPOLYLINE
  5
247
100
AcDbEntity
  8
ZUWAKU
  6
CONTINUOUS
 62
      32
100
AcDbPolyline
 90
        2
 70
       0
 43
0.25
 10
648.29064089
 20
-1138.36898698
 40
0.25
 41
0.25
 10
650.79064089
 20
-1135.86898698
 40
0.25
 41
0.25
  0
LWPOLYLINE
  5
248
100
AcDbEntity
  8
ZUWAKU
  6
CONTINUOUS
 62
      32
100
AcDbPolyline
 90
        2
 70
       0
 43
0.25
 10
650.81344506
 20
-1135.84618282
 40
0.25
 41
0.25
 10
655.09228213
 20
-1131.56734575
 40
0.25
 41
0.25
  0
LWPOLYLINE
  5
249
100
AcDbEntity
  8
ZUWAKU
  6
CONTINUOUS
 62
      32
100
AcDbPolyline
 90
        2
 70
       0
 43
0.25
 10
645.21419069
 20
-1127.86898698
 40
0.25
 41
0.25
 10
647.71819069
 20
-1125.36498698
 40
0.25
 41
0.25
  0
LWPOLYLINE
  5
24A
100
AcDbEntity
  8
ZUWAKU
  6
CONTINUOUS
 62
      32
100
AcDbPolyline
 90
        2
 70
       0
 43
0.25
 10
649.22119193
 20
-1123.86198575
 40
0.25
 41
0.25
 10
651.05882812
 20
-1122.02434956
 40
0.25
 41
0.25
  0
LWPOLYLINE
  5
24B
100
AcDbEntity
  8
ZUWAKU
  6
CONTINUOUS
 62
      32
100
AcDbPolyline
 90
        2
 70
       0
 43
0.25
 10
647.47693239
 20
-1127.86898698
 40
0.25
 41
0.25
 10
649.98093239
 20
-1125.36498698
 40
0.25
 41
0.25
  0
LWPOLYLINE
  5
24C
100
AcDbEntity
  8
ZUWAKU
  6
CONTINUOUS
 62
      32
100
AcDbPolyline
 90
        2
 70
       0
 43
0.25
 10
650.0382931
 20
-1125.30762628
 40
0.25
 41
0.25
 10
651.87592929
 20
-1123.46999009
 40
0.25
 41
0.25
  0
LWPOLYLINE
  5
24D
100
AcDbEntity
  8
ZUWAKU
  6
CONTINUOUS
 62
      32
100
AcDbPolyline
 90
        2
 70
       0
 43
0.25
 10
642.95144899
 20
-1127.86898698
 40
0.25
 41
0.25
 10
645.45544899
 20
-1125.36498698
 40
0.25
 41
0.25
  0
LWPOLYLINE
  5
24E
100
AcDbEntity
  8
ZUWAKU
  6
CONTINUOUS
 62
      32
100
AcDbPolyline
 90
        2
 70
       0
 43
0.25
 10
648.40409076
 20
-1122.41634522
 40
0.25
 41
0.25
 10
650.24172695
 20
-1120.57870903
 40
0.25
 41
0.25
  0
LWPOLYLINE
  5
24F
100
AcDbEntity
  8
ZUWAKU
  6
CONTINUOUS
 62
      32
100
AcDbPolyline
 90
        2
 70
       0
 43
0.25
 10
640.21723582
 20
-1128.34045845
 40
0.25
 41
0.25
 10
643.19270729
 20
-1125.36498698
 40
0.25
 41
0.25
  0
LWPOLYLINE
  5
250
100
AcDbEntity
  8
ZUWAKU
  6
CONTINUOUS
 62
      32
100
AcDbPolyline
 90
        2
 70
       0
 43
0.25
 10
647.58698959
 20
-1120.97070469
 40
0.25
 41
0.25
 10
649.42462578
 20
-1119.1330685
 40
0.25
 41
0.25
  0
LWPOLYLINE
  5
251
100
AcDbEntity
  8
ZUWAKU
  6
CONTINUOUS
 62
      32
100
AcDbPolyline
 90
        2
 70
       0
 43
0.25
 10
635.73427168
 20
-1130.5606809
 40
0.25
 41
0.25
 10
640.79293781
 20
-1125.50201477
 40
0.25
 41
0.25
  0
LWPOLYLINE
  5
252
100
AcDbEntity
  8
ZUWAKU
  6
CONTINUOUS
 62
      32
100
AcDbPolyline
 90
        2
 70
       0
 43
0.25
 10
646.76988842
 20
-1119.52506415
 40
0.25
 41
0.25
 10
648.60752461
 20
-1117.68742797
 40
0.25
 41
0.25
  0
LWPOLYLINE
  5
253
100
AcDbEntity
  8
ZUWAKU
  6
CONTINUOUS
 62
      32
100
AcDbPolyline
 90
        2
 70
       0
 43
0.25
 10
645.95278725
 20
-1118.07942362
 40
0.25
 41
0.25
 10
647.79042344
 20
-1116.24178743
 40
0.25
 41
0.25
  0
LWPOLYLINE
  5
254
100
AcDbEntity
  8
ZUWAKU
  6
CONTINUOUS
 62
      32
100
AcDbPolyline
 90
        2
 70
       0
 43
0.25
 10
645.13568608
 20
-1116.63378309
 40
0.25
 41
0.25
 10
646.97332227
 20
-1114.7961469
 40
0.25
 41
0.25
  0
LWPOLYLINE
  5
255
100
AcDbEntity
  8
ZUWAKU
  6
CONTINUOUS
 62
      32
100
AcDbPolyline
 90
        2
 70
       0
 43
0.25
 10
643.6337405
 20
-1115.87298698
 40
0.25
 41
0.25
 10
646.1377405
 20
-1113.36898698
 40
0.25
 41
0.25
  0
LWPOLYLINE
  5
256
100
AcDbEntity
  8
ZUWAKU
  6
CONTINUOUS
 62
      32
100
AcDbPolyline
 90
        2
 70
       0
 43
0.25
 10
641.3709988
 20
-1115.87298698
 40
0.25
 41
0.25
 10
643.8749988
 20
-1113.36898698
 40
0.25
 41
0.25
  0
LWPOLYLINE
  5
257
100
AcDbEntity
  8
ZUWAKU
  6
CONTINUOUS
 62
      32
100
AcDbPolyline
 90
        2
 70
       0
 43
0.25
 10
639.1082571
 20
-1115.87298698
 40
0.25
 41
0.25
 10
641.6122571
 20
-1113.36898698
 40
0.25
 41
0.25
  0
LWPOLYLINE
  5
258
100
AcDbEntity
  8
ZUWAKU
  6
CONTINUOUS
 62
      32
100
AcDbPolyline
 90
        2
 70
       0
 43
0.25
 10
630.76141496
 20
-1121.95708742
 40
0.25
 41
0.25
 10
632.83508221
 20
-1119.88342017
 40
0.25
 41
0.25
  0
LWPOLYLINE
  5
259
100
AcDbEntity
  8
ZUWAKU
  6
CONTINUOUS
 62
      32
100
AcDbPolyline
 90
        2
 70
       0
 43
0.25
 10
634.71841785
 20
-1118.00008453
 40
0.25
 41
0.25
 10
639.3495154
 20
-1113.36898698
 40
0.25
 41
0.25
  0
LWPOLYLINE
  5
25A
100
AcDbEntity
  8
ZUWAKU
  6
CONTINUOUS
 62
      32
100
AcDbPolyline
 90
        2
 70
       0
 43
0.25
 10
618.4434044
 20
-1129.74961458
 40
0.25
 41
0.25
 10
624.18075692
 20
-1124.01226206
 40
0.25
 41
0.25
  0
LWPOLYLINE
  5
25B
100
AcDbEntity
  8
ZUWAKU
  6
CONTINUOUS
 62
      32
100
AcDbPolyline
 90
        2
 70
       0
 43
0.25
 10
631.13557804
 20
-1117.05744094
 40
0.25
 41
0.25
 10
634.37065075
 20
-1113.82236823
 40
0.25
 41
0.25
  0
LWPOLYLINE
  5
25C
100
AcDbEntity
  8
ZUWAKU
  6
CONTINUOUS
 62
      32
100
AcDbPolyline
 90
        2
 70
       0
 43
0.25
 10
616.88887858
 20
-1129.0413987
 40
0.25
 41
0.25
 10
625.47169565
 20
-1120.45858163
 40
0.25
 41
0.25
  0
LWPOLYLINE
  5
25D
100
AcDbEntity
  8
ZUWAKU
  6
CONTINUOUS
 62
      32
100
AcDbPolyline
 90
        2
 70
       0
 43
0.25
 10
630.0572903
 20
-1115.87298698
 40
0.25
 41
0.25
 10
632.55127032
 20
-1113.37900696
 40
0.25
 41
0.25
  0
LWPOLYLINE
  5
25E
100
AcDbEntity
  8
ZUWAKU
  6
CONTINUOUS
 62
      32
100
AcDbPolyline
 90
        2
 70
       0
 43
0.25
 10
627.7945486
 20
-1115.87298698
 40
0.25
 41
0.25
 10
630.2985486
 20
-1113.36898698
 40
0.25
 41
0.25
  0
LWPOLYLINE
  5
25F
100
AcDbEntity
  8
ZUWAKU
  6
CONTINUOUS
 62
      32
100
AcDbPolyline
 90
        2
 70
       0
 43
0.25
 10
616.32548413
 20
-1127.34205145
 40
0.25
 41
0.25
 10
619.58360968
 20
-1124.0839259
 40
0.25
 41
0.25
  0
LWPOLYLINE
  5
260
100
AcDbEntity
  8
ZUWAKU
  6
CONTINUOUS
 62
      32
100
AcDbPolyline
 90
        2
 70
       0
 43
0.25
 10
622.51337746
 20
-1121.15415812
 40
0.25
 41
0.25
 10
625.77150301
 20
-1117.89603257
 40
0.25
 41
0.25
  0
LWPOLYLINE
  5
261
100
AcDbEntity
  8
ZUWAKU
  6
CONTINUOUS
 62
      32
100
AcDbPolyline
 90
        2
 70
       0
 43
0.25
 10
616.45562432
 20
-1124.94916956
 40
0.25
 41
0.25
 10
628.0358069
 20
-1113.36898698
 40
0.25
 41
0.25
  0
LWPOLYLINE
  5
262
100
AcDbEntity
  8
ZUWAKU
  6
CONTINUOUS
 62
      32
100
AcDbPolyline
 90
        2
 70
       0
 43
0.25
 10
617.4383677
 20
-1121.70368448
 40
0.25
 41
0.25
 10
625.51506954
 20
-1113.62698264
 40
0.25
 41
0.25
  0
LWPOLYLINE
  5
263
100
AcDbEntity
  8
ZUWAKU
  6
CONTINUOUS
 62
      32
100
AcDbPolyline
 90
        2
 70
       0
 43
0.25
 10
608.98057734
 20
-1123.37161915
 40
0.25
 41
0.25
 10
618.9832095
 20
-1113.36898698
 40
0.25
 41
0.25
  0
LWPOLYLINE
  5
264
100
AcDbEntity
  8
ZUWAKU
  6
CONTINUOUS
 62
      32
100
AcDbPolyline
 90
        2
 70
       0
 43
0.25
 10
608.20904678
 20
-1128.66863311
 40
0.25
 41
0.25
 10
608.73091471
 20
-1128.14676517
 40
0.25
 41
0.25
  0
LWPOLYLINE
  5
265
100
AcDbEntity
  8
ZUWAKU
  6
CONTINUOUS
 62
      32
100
AcDbPolyline
 90
        2
 70
       0
 43
0.25
 10
620.76352404
 20
-1116.11415584
 40
0.25
 41
0.25
 10
622.7078997
 20
-1114.16978018
 40
0.25
 41
0.25
  0
LWPOLYLINE
  5
266
100
AcDbEntity
  8
ZUWAKU
  6
CONTINUOUS
 62
      32
100
AcDbPolyline
 90
        2
 70
       0
 43
0.25
 10
606.27164042
 20
-1128.34329776
 40
0.25
 41
0.25
 10
608.40557937
 20
-1126.20935882
 40
0.25
 41
0.25
  0
LWPOLYLINE
  5
267
100
AcDbEntity
  8
ZUWAKU
  6
CONTINUOUS
 62
      32
100
AcDbPolyline
 90
        2
 70
       0
 43
0.25
 10
618.7419512
 20
-1115.87298698
 40
0.25
 41
0.25
 10
621.02311697
 20
-1113.59182122
 40
0.25
 41
0.25
  0
LWPOLYLINE
  5
268
100
AcDbEntity
  8
ZUWAKU
  6
CONTINUOUS
 62
      32
100
AcDbPolyline
 90
        2
 70
       0
 43
0.25
 10
596.61992619
 20
-1122.1558201
 40
0.25
 41
0.25
 10
604.80210509
 20
-1113.9736412
 40
0.25
 41
0.25
  0
LWPOLYLINE
  5
269
100
AcDbEntity
  8
ZUWAKU
  6
CONTINUOUS
 62
      32
100
AcDbPolyline
 90
        2
 70
       0
 43
0.25
 10
607.4282427
 20
-1115.87298698
 40
0.25
 41
0.25
 10
609.9322427
 20
-1113.36898698
 40
0.25
 41
0.25
  0
LWPOLYLINE
  5
26A
100
AcDbEntity
  8
ZUWAKU
  6
CONTINUOUS
 62
      32
100
AcDbPolyline
 90
        2
 70
       0
 43
0.25
 10
609.11475564
 20
-1116.44921574
 40
0.25
 41
0.25
 10
612.1949844
 20
-1113.36898698
 40
0.25
 41
0.25
  0
LWPOLYLINE
  5
26B
100
AcDbEntity
  8
ZUWAKU
  6
CONTINUOUS
 62
      32
100
AcDbPolyline
 90
        2
 70
       0
 43
0.25
 10
608.6622073
 20
-1119.16450578
 40
0.25
 41
0.25
 10
611.70845478
 20
-1116.11825831
 40
0.25
 41
0.25
  0
LWPOLYLINE
  5
26C
100
AcDbEntity
  8
ZUWAKU
  6
CONTINUOUS
 62
      32
100
AcDbPolyline
 90
        2
 70
       0
 43
0.25
 10
616.7204678
 20
-1113.36898698
 40
0.25
 41
0.25
 10
608.20965896
 20
-1121.87979582
 40
0.25
 41
0.25
  0
LWPOLYLINE
  5
26D
100
AcDbEntity
  8
ZUWAKU
  6
CONTINUOUS
 62
      32
100
AcDbPolyline
 90
        2
 70
       0
 43
0.25
 10
591.86450917
 20
-1122.38575372
 40
0.25
 41
0.25
 10
600.86621567
 20
-1113.38404721
 40
0.25
 41
0.25
  0
LWPOLYLINE
  5
26E
100
AcDbEntity
  8
ZUWAKU
  6
CONTINUOUS
 62
      32
100
AcDbPolyline
 90
        2
 70
       0
 43
0.25
 10
592.83702807
 20
-1119.15049312
 40
0.25
 41
0.25
 10
597.5500026
 20
-1114.43751859
 40
0.25
 41
0.25
  0
LWPOLYLINE
  5
26F
100
AcDbEntity
  8
ZUWAKU
  6
CONTINUOUS
 62
      32
100
AcDbPolyline
 90
        2
 70
       0
 43
0.25
 10
593.66666667
 20
-1116.05811282
 40
0.25
 41
0.25
 10
596.35579251
 20
-1113.36898698
 40
0.25
 41
0.25
  0
LWPOLYLINE
  5
270
100
AcDbEntity
  8
ZUWAKU
  6
CONTINUOUS
 62
      32
100
AcDbPolyline
 90
        2
 70
       0
 43
0.25
 10
591.58905081
 20
-1115.87298698
 40
0.25
 41
0.25
 10
594.09305081
 20
-1113.36898698
 40
0.25
 41
0.25
  0
LWPOLYLINE
  5
271
100
AcDbEntity
  8
ZUWAKU
  6
CONTINUOUS
 62
      32
100
AcDbPolyline
 90
        2
 70
       0
 43
0.25
 10
583.56769175
 20
-1121.63160434
 40
0.25
 41
0.25
 10
591.83030911
 20
-1113.36898698
 40
0.25
 41
0.25
  0
LWPOLYLINE
  5
272
100
AcDbEntity
  8
ZUWAKU
  6
CONTINUOUS
 62
      32
100
AcDbPolyline
 90
        2
 70
       0
 43
0.25
 10
600.03049183
 20
-1121.00799616
 40
0.25
 41
0.25
 10
601.31652466
 20
-1119.72196333
 40
0.25
 41
0.25
  0
LWPOLYLINE
  5
273
100
AcDbEntity
  8
ZUWAKU
  6
CONTINUOUS
 62
      32
100
AcDbPolyline
 90
        2
 70
       0
 43
0.25
 10
603.86703926
 20
-1117.17144872
 40
0.25
 41
0.25
 10
607.669501
 20
-1113.36898698
 40
0.25
 41
0.25
  0
LWPOLYLINE
  5
274
100
AcDbEntity
  8
ZUWAKU
  6
CONTINUOUS
 62
      32
100
AcDbPolyline
 90
        2
 70
       0
 43
0.25
 10
599.26665737
 20
-1117.24634722
 40
0.25
 41
0.25
 10
602.31390205
 20
-1114.19910254
 40
0.25
 41
0.25
  0
LWPOLYLINE
  5
275
100
AcDbEntity
  8
ZUWAKU
  6
CONTINUOUS
 62
      32
100
AcDbPolyline
 90
        2
 70
       0
 43
0.25
 10
594.12725087
 20
-1122.38575372
 40
0.25
 41
0.25
 10
594.43797593
 20
-1122.07502866
 40
0.25
 41
0.25
  0
LWPOLYLINE
  5
276
100
AcDbEntity
  8
ZUWAKU
  6
CONTINUOUS
 62
      32
100
AcDbPolyline
 90
        2
 70
       0
 43
0.25
 10
595.22022312
 20
-1121.29278147
 40
0.25
 41
0.25
 10
597.37147694
 20
-1119.14152764
 40
0.25
 41
0.25
  0
LWPOLYLINE
  5
277
100
AcDbEntity
  8
ZUWAKU
  6
CONTINUOUS
 62
      32
100
AcDbPolyline
 90
        2
 70
       0
 43
0.25
 10
564.36298169
 20
-1122.7343808
 40
0.25
 41
0.25
 10
573.72837551
 20
-1113.36898698
 40
0.25
 41
0.25
  0
LWPOLYLINE
  5
278
100
AcDbEntity
  8
ZUWAKU
  6
CONTINUOUS
 62
      32
100
AcDbPolyline
 90
        2
 70
       0
 43
0.25
 10
546.36564069
 20
-1115.81366964
 40
0.25
 41
0.25
 10
548.81032334
 20
-1113.36898698
 40
0.25
 41
0.25
  0
LWPOLYLINE
  5
279
100
AcDbEntity
  8
ZUWAKU
  6
CONTINUOUS
 62
      32
100
AcDbPolyline
 90
        2
 70
       0
 43
0.25
 10
548.59695851
 20
-1115.87298698
 40
0.25
 41
0.25
 10
551.10095851
 20
-1113.36898698
 40
0.25
 41
0.25
  0
LWPOLYLINE
  5
27A
100
AcDbEntity
  8
ZUWAKU
  6
CONTINUOUS
 62
      32
100
AcDbPolyline
 90
        2
 70
       0
 43
0.25
 10
550.89381073
 20
-1122.62710156
 40
0.25
 41
0.25
 10
553.2195991
 20
-1120.30131319
 40
0.25
 41
0.25
  0
LWPOLYLINE
  5
27B
100
AcDbEntity
  8
ZUWAKU
  6
CONTINUOUS
 62
      32
100
AcDbPolyline
 90
        2
 70
       0
 43
0.25
 10
549.96777544
 20
-1121.26250169
 40
0.25
 41
0.25
 10
552.27441218
 20
-1118.95586495
 40
0.25
 41
0.25
  0
LWPOLYLINE
  5
27C
100
AcDbEntity
  8
ZUWAKU
  6
CONTINUOUS
 62
      32
100
AcDbPolyline
 90
        2
 70
       0
 43
0.25
 10
553.52512243
 20
-1117.7051547
 40
0.25
 41
0.25
 10
557.86129014
 20
-1113.36898698
 40
0.25
 41
0.25
  0
LWPOLYLINE
  5
27D
100
AcDbEntity
  8
ZUWAKU
  6
CONTINUOUS
 62
      32
100
AcDbPolyline
 90
        2
 70
       0
 43
0.25
 10
552.58194358
 20
-1123.17381695
 40
0.25
 41
0.25
 10
556.85659078
 20
-1118.89916974
 40
0.25
 41
0.25
  0
LWPOLYLINE
  5
27E
100
AcDbEntity
  8
ZUWAKU
  6
CONTINUOUS
 62
      32
100
AcDbPolyline
 90
        2
 70
       0
 43
0.25
 10
559.88277354
 20
-1115.87298698
 40
0.25
 41
0.25
 10
562.38677354
 20
-1113.36898698
 40
0.25
 41
0.25
  0
LWPOLYLINE
  5
27F
100
AcDbEntity
  8
ZUWAKU
  6
CONTINUOUS
 62
      32
100
AcDbPolyline
 90
        2
 70
       0
 43
0.25
 10
554.42186488
 20
-1119.09904741
 40
0.25
 41
0.25
 10
556.74765325
 20
-1116.77325904
 40
0.25
 41
0.25
  0
LWPOLYLINE
  5
280
100
AcDbEntity
  8
ZUWAKU
  6
CONTINUOUS
 62
      32
100
AcDbPolyline
 90
        2
 70
       0
 43
0.25
 10
557.64792531
 20
-1115.87298698
 40
0.25
 41
0.25
 10
560.15192531
 20
-1113.36898698
 40
0.25
 41
0.25
  0
LWPOLYLINE
  5
281
100
AcDbEntity
  8
ZUWAKU
  6
CONTINUOUS
 62
      32
100
AcDbPolyline
 90
        2
 70
       0
 43
0.25
 10
549.84349488
 20
-1119.15193401
 40
0.25
 41
0.25
 10
555.36520565
 20
-1113.63022324
 40
0.25
 41
0.25
  0
LWPOLYLINE
  5
282
100
AcDbEntity
  8
ZUWAKU
  6
CONTINUOUS
 62
      32
100
AcDbPolyline
 90
        2
 70
       0
 43
0.25
 10
550.83180674
 20
-1115.87298698
 40
0.25
 41
0.25
 10
553.14855725
 20
-1113.55623647
 40
0.25
 41
0.25
  0
LWPOLYLINE
  5
283
100
AcDbEntity
  8
ZUWAKU
  6
CONTINUOUS
 62
      32
100
AcDbPolyline
 90
        2
 70
       0
 43
0.25
 10
562.17340871
 20
-1115.87298698
 40
0.25
 41
0.25
 10
564.67740871
 20
-1113.36898698
 40
0.25
 41
0.25
  0
LWPOLYLINE
  5
284
100
AcDbEntity
  8
ZUWAKU
  6
CONTINUOUS
 62
      32
100
AcDbPolyline
 90
        2
 70
       0
 43
0.25
 10
564.40825694
 20
-1115.87298698
 40
0.25
 41
0.25
 10
566.91225694
 20
-1113.36898698
 40
0.25
 41
0.25
  0
LWPOLYLINE
  5
285
100
AcDbEntity
  8
ZUWAKU
  6
CONTINUOUS
 62
      32
100
AcDbPolyline
 90
        2
 70
       0
 43
0.25
 10
562.82593335
 20
-1121.98079398
 40
0.25
 41
0.25
 10
564.52943152
 20
-1120.2772958
 40
0.25
 41
0.25
  0
LWPOLYLINE
  5
286
100
AcDbEntity
  8
ZUWAKU
  6
CONTINUOUS
 62
      32
100
AcDbPolyline
 90
        2
 70
       0
 43
0.25
 10
566.49634014
 20
-1116.07553895
 40
0.25
 41
0.25
 10
568.25344009
 20
-1114.318439
 40
0.25
 41
0.25
  0
LWPOLYLINE
  5
287
100
AcDbEntity
  8
ZUWAKU
  6
CONTINUOUS
 62
      32
100
AcDbPolyline
 90
        2
 70
       0
 43
0.25
 10
567.63259104
 20
-1117.17413628
 40
0.25
 41
0.25
 10
571.13476061
 20
-1113.67196671
 40
0.25
 41
0.25
  0
LWPOLYLINE
  5
288
100
AcDbEntity
  8
ZUWAKU
  6
CONTINUOUS
 62
      32
100
AcDbPolyline
 90
        2
 70
       0
 43
0.25
 10
566.55491514
 20
-1122.77729559
 40
0.25
 41
0.25
 10
570.13259083
 20
-1119.1996199
 40
0.25
 41
0.25
  0
LWPOLYLINE
  5
289
100
AcDbEntity
  8
ZUWAKU
  6
CONTINUOUS
 62
      32
100
AcDbPolyline
 90
        2
 70
       0
 43
0.25
 10
573.45922374
 20
-1115.87298698
 40
0.25
 41
0.25
 10
575.96322374
 20
-1113.36898698
 40
0.25
 41
0.25
  0
LWPOLYLINE
  5
28A
100
AcDbEntity
  8
ZUWAKU
  6
CONTINUOUS
 62
      32
100
AcDbPolyline
 90
        2
 70
       0
 43
0.25
 10
575.74985891
 20
-1115.87298698
 40
0.25
 41
0.25
 10
578.25385891
 20
-1113.36898698
 40
0.25
 41
0.25
  0
LWPOLYLINE
  5
28B
100
AcDbEntity
  8
ZUWAKU
  6
CONTINUOUS
 62
      32
100
AcDbPolyline
 90
        2
 70
       0
 43
0.25
 10
576.12550068
 20
-1117.73219344
 40
0.25
 41
0.25
 10
580.48870714
 20
-1113.36898698
 40
0.25
 41
0.25
  0
LWPOLYLINE
  5
28C
100
AcDbEntity
  8
ZUWAKU
  6
CONTINUOUS
 62
      32
100
AcDbPolyline
 90
        2
 70
       0
 43
0.25
 10
574.84924286
 20
-1121.29908643
 40
0.25
 41
0.25
 10
579.45942344
 20
-1116.68890585
 40
0.25
 41
0.25
  0
LWPOLYLINE
  5
28D
100
AcDbEntity
  8
ZUWAKU
  6
CONTINUOUS
 62
      32
100
AcDbPolyline
 90
        2
 70
       0
 43
0.25
 10
575.62504001
 20
-1122.78603098
 40
0.25
 41
0.25
 10
579.04208401
 20
-1119.36898698
 40
0.25
 41
0.25
  0
LWPOLYLINE
  5
28E
100
AcDbEntity
  8
ZUWAKU
  6
CONTINUOUS
 62
      32
100
AcDbPolyline
 90
        2
 70
       0
 43
0.25
 10
583.40671984
 20
-1115.00435115
 40
0.25
 41
0.25
 10
585.04208401
 20
-1113.36898698
 40
0.25
 41
0.25
  0
LWPOLYLINE
  5
28F
100
AcDbEntity
  8
ZUWAKU
  6
CONTINUOUS
 62
      32
100
AcDbPolyline
 90
        2
 70
       0
 43
0.25
 10
577.80482571
 20
-1122.86898698
 40
0.25
 41
0.25
 10
581.30482571
 20
-1119.36898698
 40
0.25
 41
0.25
  0
LWPOLYLINE
  5
290
100
AcDbEntity
  8
ZUWAKU
  6
CONTINUOUS
 62
      32
100
AcDbPolyline
 90
        2
 70
       0
 43
0.25
 10
582.11372459
 20
-1118.5600881
 40
0.25
 41
0.25
 10
586.65315456
 20
-1114.02065813
 40
0.25
 41
0.25
  0
LWPOLYLINE
  5
291
100
AcDbEntity
  8
ZUWAKU
  6
CONTINUOUS
 62
      32
100
AcDbPolyline
 90
        2
 70
       0
 43
0.25
 10
580.95576041
 20
-1121.98079398
 40
0.25
 41
0.25
 10
588.87387258
 20
-1114.06268181
 40
0.25
 41
0.25
  0
LWPOLYLINE
  5
292
100
AcDbEntity
  8
ZUWAKU
  6
CONTINUOUS
 62
      32
100
AcDbPolyline
 90
        2
 70
       0
 43
0.25
 10
-795.83333333
 20
443.13101302
 40
0.25
 41
0.25
 10
-839.83333333
 20
443.13101302
 40
0.25
 41
0.25
  0
LWPOLYLINE
  5
293
100
AcDbEntity
  8
ZUWAKU
  6
CONTINUOUS
 62
      32
100
AcDbPolyline
 90
        2
 70
       0
 43
0.25
 10
-795.83333333
 20
403.13101302
 40
0.25
 41
0.25
 10
-839.83333333
 20
403.13101302
 40
0.25
 41
0.25
  0
LWPOLYLINE
  5
294
100
AcDbEntity
  8
ZUWAKU
  6
CONTINUOUS
 62
      32
100
AcDbPolyline
 90
        2
 70
       0
 43
0.25
 10
-839.83333333
 20
403.13101302
 40
0.25
 41
0.25
 10
-839.83333333
 20
443.13101302
 40
0.25
 41
0.25
  0
LWPOLYLINE
  5
295
100
AcDbEntity
  8
ZUWAKU
  6
CONTINUOUS
 62
      32
100
AcDbPolyline
 90
        2
 70
       0
 43
0.25
 10
-795.83333333
 20
403.13101302
 40
0.25
 41
0.25
 10
-795.83333333
 20
443.13101302
 40
0.25
 41
0.25
  0
LWPOLYLINE
  5
296
100
AcDbEntity
  8
ZUWAKU
  6
CONTINUOUS
 62
      32
100
AcDbPolyline
 90
        2
 70
       0
 43
0.25
 10
-839.83333333
 20
442.99173446
 40
0.25
 41
0.25
 10
-839.69405478
 20
443.13101302
 40
0.25
 41
0.25
  0
LWPOLYLINE
  5
297
100
AcDbEntity
  8
ZUWAKU
  6
CONTINUOUS
 62
      32
100
AcDbPolyline
 90
        2
 70
       0
 43
0.25
 10
-816.35643875
 20
403.13101302
 40
0.25
 41
0.25
 10
-795.83333333
 20
423.65411843
 40
0.25
 41
0.25
  0
LWPOLYLINE
  5
298
100
AcDbEntity
  8
ZUWAKU
  6
CONTINUOUS
 62
      32
100
AcDbPolyline
 90
        2
 70
       0
 43
0.25
 10
-814.09369705
 20
403.13101302
 40
0.25
 41
0.25
 10
-795.83333333
 20
421.39137673
 40
0.25
 41
0.25
  0
LWPOLYLINE
  5
299
100
AcDbEntity
  8
ZUWAKU
  6
CONTINUOUS
 62
      32
100
AcDbPolyline
 90
        2
 70
       0
 43
0.25
 10
-811.83095535
 20
403.13101302
 40
0.25
 41
0.25
 10
-795.83333333
 20
419.12863503
 40
0.25
 41
0.25
  0
LWPOLYLINE
  5
29A
100
AcDbEntity
  8
ZUWAKU
  6
CONTINUOUS
 62
      32
100
AcDbPolyline
 90
        2
 70
       0
 43
0.25
 10
-809.56821365
 20
403.13101302
 40
0.25
 41
0.25
 10
-795.83333333
 20
416.86589333
 40
0.25
 41
0.25
  0
LWPOLYLINE
  5
29B
100
AcDbEntity
  8
ZUWAKU
  6
CONTINUOUS
 62
      32
100
AcDbPolyline
 90
        2
 70
       0
 43
0.25
 10
-807.30547195
 20
403.13101302
 40
0.25
 41
0.25
 10
-795.83333333
 20
414.60315163
 40
0.25
 41
0.25
  0
LWPOLYLINE
  5
29C
100
AcDbEntity
  8
ZUWAKU
  6
CONTINUOUS
 62
      32
100
AcDbPolyline
 90
        2
 70
       0
 43
0.25
 10
-805.04273025
 20
403.13101302
 40
0.25
 41
0.25
 10
-795.83333333
 20
412.34040993
 40
0.25
 41
0.25
  0
LWPOLYLINE
  5
29D
100
AcDbEntity
  8
ZUWAKU
  6
CONTINUOUS
 62
      32
100
AcDbPolyline
 90
        2
 70
       0
 43
0.25
 10
-802.77998855
 20
403.13101302
 40
0.25
 41
0.25
 10
-795.83333333
 20
410.07766824
 40
0.25
 41
0.25
  0
LWPOLYLINE
  5
29E
100
AcDbEntity
  8
ZUWAKU
  6
CONTINUOUS
 62
      32
100
AcDbPolyline
 90
        2
 70
       0
 43
0.25
 10
-800.51724685
 20
403.13101302
 40
0.25
 41
0.25
 10
-795.83333333
 20
407.81492654
 40
0.25
 41
0.25
  0
LWPOLYLINE
  5
29F
100
AcDbEntity
  8
ZUWAKU
  6
CONTINUOUS
 62
      32
100
AcDbPolyline
 90
        2
 70
       0
 43
0.25
 10
-798.25450515
 20
403.13101302
 40
0.25
 41
0.25
 10
-795.83333333
 20
405.55218484
 40
0.25
 41
0.25
  0
LWPOLYLINE
  5
2A0
100
AcDbEntity
  8
ZUWAKU
  6
CONTINUOUS
 62
      32
100
AcDbPolyline
 90
        2
 70
       0
 43
0.25
 10
-818.61918045
 20
403.13101302
 40
0.25
 41
0.25
 10
-795.83333333
 20
425.91686013
 40
0.25
 41
0.25
  0
LWPOLYLINE
  5
2A1
100
AcDbEntity
  8
ZUWAKU
  6
CONTINUOUS
 62
      32
100
AcDbPolyline
 90
        2
 70
       0
 43
0.25
 10
-820.88192215
 20
403.13101302
 40
0.25
 41
0.25
 10
-795.83333333
 20
428.17960183
 40
0.25
 41
0.25
  0
LWPOLYLINE
  5
2A2
100
AcDbEntity
  8
ZUWAKU
  6
CONTINUOUS
 62
      32
100
AcDbPolyline
 90
        2
 70
       0
 43
0.25
 10
-823.14466385
 20
403.13101302
 40
0.25
 41
0.25
 10
-795.83333333
 20
430.44234353
 40
0.25
 41
0.25
  0
LWPOLYLINE
  5
2A3
100
AcDbEntity
  8
ZUWAKU
  6
CONTINUOUS
 62
      32
100
AcDbPolyline
 90
        2
 70
       0
 43
0.25
 10
-825.40740555
 20
403.13101302
 40
0.25
 41
0.25
 10
-795.83333333
 20
432.70508523
 40
0.25
 41
0.25
  0
LWPOLYLINE
  5
2A4
100
AcDbEntity
  8
ZUWAKU
  6
CONTINUOUS
 62
      32
100
AcDbPolyline
 90
        2
 70
       0
 43
0.25
 10
-827.67014725
 20
403.13101302
 40
0.25
 41
0.25
 10
-795.83333333
 20
434.96782693
 40
0.25
 41
0.25
  0
LWPOLYLINE
  5
2A5
100
AcDbEntity
  8
ZUWAKU
  6
CONTINUOUS
 62
      32
100
AcDbPolyline
 90
        2
 70
       0
 43
0.25
 10
-829.93288895
 20
403.13101302
 40
0.25
 41
0.25
 10
-795.83333333
 20
437.23056863
 40
0.25
 41
0.25
  0
LWPOLYLINE
  5
2A6
100
AcDbEntity
  8
ZUWAKU
  6
CONTINUOUS
 62
      32
100
AcDbPolyline
 90
        2
 70
       0
 43
0.25
 10
-832.19563065
 20
403.13101302
 40
0.25
 41
0.25
 10
-795.83333333
 20
439.49331033
 40
0.25
 41
0.25
  0
LWPOLYLINE
  5
2A7
100
AcDbEntity
  8
ZUWAKU
  6
CONTINUOUS
 62
      32
100
AcDbPolyline
 90
        2
 70
       0
 43
0.25
 10
-834.45837235
 20
403.13101302
 40
0.25
 41
0.25
 10
-795.83333333
 20
441.75605203
 40
0.25
 41
0.25
  0
LWPOLYLINE
  5
2A8
100
AcDbEntity
  8
ZUWAKU
  6
CONTINUOUS
 62
      32
100
AcDbPolyline
 90
        2
 70
       0
 43
0.25
 10
-836.72111405
 20
403.13101302
 40
0.25
 41
0.25
 10
-796.72111405
 20
443.13101302
 40
0.25
 41
0.25
  0
LWPOLYLINE
  5
2A9
100
AcDbEntity
  8
ZUWAKU
  6
CONTINUOUS
 62
      32
100
AcDbPolyline
 90
        2
 70
       0
 43
0.25
 10
-838.98385575
 20
403.13101302
 40
0.25
 41
0.25
 10
-798.98385575
 20
443.13101302
 40
0.25
 41
0.25
  0
LWPOLYLINE
  5
2AA
100
AcDbEntity
  8
ZUWAKU
  6
CONTINUOUS
 62
      32
100
AcDbPolyline
 90
        2
 70
       0
 43
0.25
 10
-839.83333333
 20
404.54427713
 40
0.25
 41
0.25
 10
-801.24659745
 20
443.13101302
 40
0.25
 41
0.25
  0
LWPOLYLINE
  5
2AB
100
AcDbEntity
  8
ZUWAKU
  6
CONTINUOUS
 62
      32
100
AcDbPolyline
 90
        2
 70
       0
 43
0.25
 10
-839.83333333
 20
406.80701883
 40
0.25
 41
0.25
 10
-803.50933915
 20
443.13101302
 40
0.25
 41
0.25
  0
LWPOLYLINE
  5
2AC
100
AcDbEntity
  8
ZUWAKU
  6
CONTINUOUS
 62
      32
100
AcDbPolyline
 90
        2
 70
       0
 43
0.25
 10
-839.83333333
 20
409.06976053
 40
0.25
 41
0.25
 10
-805.77208085
 20
443.13101302
 40
0.25
 41
0.25
  0
LWPOLYLINE
  5
2AD
100
AcDbEntity
  8
ZUWAKU
  6
CONTINUOUS
 62
      32
100
AcDbPolyline
 90
        2
 70
       0
 43
0.25
 10
-839.83333333
 20
411.33250223
 40
0.25
 41
0.25
 10
-808.03482255
 20
443.13101302
 40
0.25
 41
0.25
  0
LWPOLYLINE
  5
2AE
100
AcDbEntity
  8
ZUWAKU
  6
CONTINUOUS
 62
      32
100
AcDbPolyline
 90
        2
 70
       0
 43
0.25
 10
-839.83333333
 20
413.59524393
 40
0.25
 41
0.25
 10
-810.29756425
 20
443.13101302
 40
0.25
 41
0.25
  0
LWPOLYLINE
  5
2AF
100
AcDbEntity
  8
ZUWAKU
  6
CONTINUOUS
 62
      32
100
AcDbPolyline
 90
        2
 70
       0
 43
0.25
 10
-839.83333333
 20
415.85798563
 40
0.25
 41
0.25
 10
-812.56030595
 20
443.13101302
 40
0.25
 41
0.25
  0
LWPOLYLINE
  5
2B0
100
AcDbEntity
  8
ZUWAKU
  6
CONTINUOUS
 62
      32
100
AcDbPolyline
 90
        2
 70
       0
 43
0.25
 10
-839.83333333
 20
418.12072733
 40
0.25
 41
0.25
 10
-814.82304765
 20
443.13101302
 40
0.25
 41
0.25
  0
LWPOLYLINE
  5
2B1
100
AcDbEntity
  8
ZUWAKU
  6
CONTINUOUS
 62
      32
100
AcDbPolyline
 90
        2
 70
       0
 43
0.25
 10
-839.83333333
 20
420.38346903
 40
0.25
 41
0.25
 10
-817.08578935
 20
443.13101302
 40
0.25
 41
0.25
  0
LWPOLYLINE
  5
2B2
100
AcDbEntity
  8
ZUWAKU
  6
CONTINUOUS
 62
      32
100
AcDbPolyline
 90
        2
 70
       0
 43
0.25
 10
-839.83333333
 20
422.64621073
 40
0.25
 41
0.25
 10
-819.34853105
 20
443.13101302
 40
0.25
 41
0.25
  0
LWPOLYLINE
  5
2B3
100
AcDbEntity
  8
ZUWAKU
  6
CONTINUOUS
 62
      32
100
AcDbPolyline
 90
        2
 70
       0
 43
0.25
 10
-839.83333333
 20
424.90895243
 40
0.25
 41
0.25
 10
-821.61127275
 20
443.13101302
 40
0.25
 41
0.25
  0
LWPOLYLINE
  5
2B4
100
AcDbEntity
  8
ZUWAKU
  6
CONTINUOUS
 62
      32
100
AcDbPolyline
 90
        2
 70
       0
 43
0.25
 10
-839.83333333
 20
427.17169413
 40
0.25
 41
0.25
 10
-823.87401445
 20
443.13101302
 40
0.25
 41
0.25
  0
LWPOLYLINE
  5
2B5
100
AcDbEntity
  8
ZUWAKU
  6
CONTINUOUS
 62
      32
100
AcDbPolyline
 90
        2
 70
       0
 43
0.25
 10
-839.83333333
 20
429.43443583
 40
0.25
 41
0.25
 10
-826.13675615
 20
443.13101302
 40
0.25
 41
0.25
  0
LWPOLYLINE
  5
2B6
100
AcDbEntity
  8
ZUWAKU
  6
CONTINUOUS
 62
      32
100
AcDbPolyline
 90
        2
 70
       0
 43
0.25
 10
-839.83333333
 20
431.69717753
 40
0.25
 41
0.25
 10
-828.39949785
 20
443.13101302
 40
0.25
 41
0.25
  0
LWPOLYLINE
  5
2B7
100
AcDbEntity
  8
ZUWAKU
  6
CONTINUOUS
 62
      32
100
AcDbPolyline
 90
        2
 70
       0
 43
0.25
 10
-839.83333333
 20
433.95991923
 40
0.25
 41
0.25
 10
-830.66223955
 20
443.13101302
 40
0.25
 41
0.25
  0
LWPOLYLINE
  5
2B8
100
AcDbEntity
  8
ZUWAKU
  6
CONTINUOUS
 62
      32
100
AcDbPolyline
 90
        2
 70
       0
 43
0.25
 10
-839.83333333
 20
436.22266093
 40
0.25
 41
0.25
 10
-832.92498125
 20
443.13101302
 40
0.25
 41
0.25
  0
LWPOLYLINE
  5
2B9
100
AcDbEntity
  8
ZUWAKU
  6
CONTINUOUS
 62
      32
100
AcDbPolyline
 90
        2
 70
       0
 43
0.25
 10
-839.83333333
 20
438.48540263
 40
0.25
 41
0.25
 10
-835.18772295
 20
443.13101302
 40
0.25
 41
0.25
  0
LWPOLYLINE
  5
2BA
100
AcDbEntity
  8
ZUWAKU
  6
CONTINUOUS
 62
      32
100
AcDbPolyline
 90
        2
 70
       0
 43
0.25
 10
-839.83333333
 20
440.74814433
 40
0.25
 41
0.25
 10
-837.45046465
 20
443.13101302
 40
0.25
 41
0.25
  0
LWPOLYLINE
  5
2BB
100
AcDbEntity
  8
ZUWAKU
  6
CONTINUOUS
 62
      32
100
AcDbPolyline
 90
        2
 70
       0
 43
0.25
 10
-839.83333333
 20
443.01088603
 40
0.25
 41
0.25
 10
-839.71320635
 20
443.13101302
 40
0.25
 41
0.25
  0
TEXT
  5
2BC
100
AcDbEntity
  8
ZUWAKU
 62
      32
100
AcDbText
 10
672.57616791
 20
1108.63101302
 30
0.0
 40
27.2
  1
株式会社
 50
180.0
 41
0.8
 72
       5
 11
585.53616791
 21
1108.63101302
 31
0.0
100
AcDbText
  0
LWPOLYLINE
  5
2BD
100
AcDbEntity
  8
ZUWAKU
  6
CONTINUOUS
 62
      43
100
AcDbPolyline
 90
        2
 70
       0
 43
0.25
 10
730.66666667
 20
-1067.1198899
 40
0.25
 41
0.25
 10
-754.83333333
 20
-1067.1198899
 40
0.25
 41
0.25
  0
LWPOLYLINE
  5
2BE
100
AcDbEntity
  8
ZUWAKU
  6
CONTINUOUS
 62
      43
100
AcDbPolyline
 90
        2
 70
       0
 43
0.25
 10
728.66666667
 20
1129.13101302
 40
0.25
 41
0.25
 10
-746.83333333
 20
1129.13101302
 40
0.25
 41
0.25
  0
LWPOLYLINE
  5
2BF
100
AcDbEntity
  8
ZUWAKU
  6
CONTINUOUS
 62
      43
100
AcDbPolyline
 90
        2
 70
       0
 43
0.25
 10
728.66666667
 20
1032.63101302
 40
0.25
 41
0.25
 10
-746.83333333
 20
1032.63101302
 40
0.25
 41
0.25
  0
ELLIPSE
  5
2C0
100
AcDbEntity
  8
ZUWAKU
  6
CONTINUOUS
 62
      43
100
AcDbEllipse
 10
614.91666667
 20
-1123.10128825
 30
0.0
 11
102.25
 21
0.0
 31
0.0
210
0.0
220
0.0
230
1.0
 40
0.40365317
 41
0.0
 42
6.2831853071796004
  0
LWPOLYLINE
  5
2C1
100
AcDbEntity
  8
ZUWAKU
  6
CONTINUOUS
 62
      43
100
AcDbPolyline
 90
        2
 70
       0
 43
0.25
 10
697.16666667
 20
-1142.86898698
 40
0.25
 41
0.25
 10
697.16666667
 20
-1103.86898698
 40
0.25
 41
0.25
  0
LWPOLYLINE
  5
2C2
100
AcDbEntity
  8
ZUWAKU
  6
CONTINUOUS
 62
      43
100
AcDbPolyline
 90
        2
 70
       0
 43
0.25
 10
532.16666667
 20
-1142.86898698
 40
0.25
 41
0.25
 10
532.16666667
 20
-1103.86898698
 40
0.25
 41
0.25
  0
LWPOLYLINE
  5
2C3
100
AcDbEntity
  8
ZUWAKU
  6
CONTINUOUS
 62
      43
100
AcDbPolyline
 90
        2
 70
       0
 43
0.25
 10
697.16666667
 20
-1142.86898698
 40
0.25
 41
0.25
 10
532.16666667
 20
-1142.86898698
 40
0.25
 41
0.25
  0
LWPOLYLINE
  5
2C4
100
AcDbEntity
  8
ZUWAKU
  6
CONTINUOUS
 62
      43
100
AcDbPolyline
 90
        2
 70
       0
 43
0.25
 10
697.16666667
 20
-1103.86898698
 40
0.25
 41
0.25
 10
532.16666667
 20
-1103.86898698
 40
0.25
 41
0.25
  0
LWPOLYLINE
  5
2C5
100
AcDbEntity
  8
ZUWAKU
  6
CONTINUOUS
 62
      43
100
AcDbPolyline
 90
        2
 70
       0
 43
0.25
 10
625.10748094
 20
-1164.16932334
 40
0.25
 41
0.25
 10
646.4078173
 20
-1142.86898698
 40
0.25
 41
0.25
  0
LWPOLYLINE
  5
2C6
100
AcDbEntity
  8
ZUWAKU
  6
CONTINUOUS
 62
      43
100
AcDbPolyline
 90
        2
 70
       0
 43
0.25
 10
627.47731973
 20
-1164.06222625
 40
0.25
 41
0.25
 10
648.670559
 20
-1142.86898698
 40
0.25
 41
0.25
  0
LWPOLYLINE
  5
2C7
100
AcDbEntity
  8
ZUWAKU
  6
CONTINUOUS
 62
      43
100
AcDbPolyline
 90
        2
 70
       0
 43
0.25
 10
629.87128271
 20
-1163.93100497
 40
0.25
 41
0.25
 10
650.9333007
 20
-1142.86898698
 40
0.25
 41
0.25
  0
LWPOLYLINE
  5
2C8
100
AcDbEntity
  8
ZUWAKU
  6
CONTINUOUS
 62
      43
100
AcDbPolyline
 90
        2
 70
       0
 43
0.25
 10
632.29036678
 20
-1163.7746626
 40
0.25
 41
0.25
 10
653.1960424
 20
-1142.86898698
 40
0.25
 41
0.25
  0
LWPOLYLINE
  5
2C9
100
AcDbEntity
  8
ZUWAKU
  6
CONTINUOUS
 62
      43
100
AcDbPolyline
 90
        2
 70
       0
 43
0.25
 10
634.73568535
 20
-1163.59208573
 40
0.25
 41
0.25
 10
655.4587841
 20
-1142.86898698
 40
0.25
 41
0.25
  0
LWPOLYLINE
  5
2CA
100
AcDbEntity
  8
ZUWAKU
  6
CONTINUOUS
 62
      43
100
AcDbPolyline
 90
        2
 70
       0
 43
0.25
 10
637.2084861
 20
-1163.38202668
 40
0.25
 41
0.25
 10
657.7215258
 20
-1142.86898698
 40
0.25
 41
0.25
  0
LWPOLYLINE
  5
2CB
100
AcDbEntity
  8
ZUWAKU
  6
CONTINUOUS
 62
      43
100
AcDbPolyline
 90
        2
 70
       0
 43
0.25
 10
639.71017274
 20
-1163.14308174
 40
0.25
 41
0.25
 10
659.9842675
 20
-1142.86898698
 40
0.25
 41
0.25
  0
LWPOLYLINE
  5
2CC
100
AcDbEntity
  8
ZUWAKU
  6
CONTINUOUS
 62
      43
100
AcDbPolyline
 90
        2
 70
       0
 43
0.25
 10
642.24233155
 20
-1162.87366463
 40
0.25
 41
0.25
 10
662.2470092
 20
-1142.86898698
 40
0.25
 41
0.25
  0
LWPOLYLINE
  5
2CD
100
AcDbEntity
  8
ZUWAKU
  6
CONTINUOUS
 62
      43
100
AcDbPolyline
 90
        2
 70
       0
 43
0.25
 10
644.80676435
 20
-1162.57197353
 40
0.25
 41
0.25
 10
664.5097509
 20
-1142.86898698
 40
0.25
 41
0.25
  0
LWPOLYLINE
  5
2CE
100
AcDbEntity
  8
ZUWAKU
  6
CONTINUOUS
 62
      43
100
AcDbPolyline
 90
        2
 70
       0
 43
0.25
 10
647.40552971
 20
-1162.23594987
 40
0.25
 41
0.25
 10
666.7724926
 20
-1142.86898698
 40
0.25
 41
0.25
  0
LWPOLYLINE
  5
2CF
100
AcDbEntity
  8
ZUWAKU
  6
CONTINUOUS
 62
      43
100
AcDbPolyline
 90
        2
 70
       0
 43
0.25
 10
650.04099509
 20
-1161.86322619
 40
0.25
 41
0.25
 10
669.0352343
 20
-1142.86898698
 40
0.25
 41
0.25
  0
LWPOLYLINE
  5
2D0
100
AcDbEntity
  8
ZUWAKU
  6
CONTINUOUS
 62
      43
100
AcDbPolyline
 90
        2
 70
       0
 43
0.25
 10
652.71590385
 20
-1161.45105913
 40
0.25
 41
0.25
 10
671.297976
 20
-1142.86898698
 40
0.25
 41
0.25
  0
LWPOLYLINE
  5
2D1
100
AcDbEntity
  8
ZUWAKU
  6
CONTINUOUS
 62
      43
100
AcDbPolyline
 90
        2
 70
       0
 43
0.25
 10
655.43346238
 20
-1160.9962423
 40
0.25
 41
0.25
 10
673.5607177
 20
-1142.86898698
 40
0.25
 41
0.25
  0
LWPOLYLINE
  5
2D2
100
AcDbEntity
  8
ZUWAKU
  6
CONTINUOUS
 62
      43
100
AcDbPolyline
 90
        2
 70
       0
 43
0.25
 10
658.19745554
 20
-1160.49499084
 40
0.25
 41
0.25
 10
675.82345939
 20
-1142.86898698
 40
0.25
 41
0.25
  0
LWPOLYLINE
  5
2D3
100
AcDbEntity
  8
ZUWAKU
  6
CONTINUOUS
 62
      43
100
AcDbPolyline
 90
        2
 70
       0
 43
0.25
 10
661.01240249
 20
-1159.94278558
 40
0.25
 41
0.25
 10
678.08620109
 20
-1142.86898698
 40
0.25
 41
0.25
  0
LWPOLYLINE
  5
2D4
100
AcDbEntity
  8
ZUWAKU
  6
CONTINUOUS
 62
      43
100
AcDbPolyline
 90
        2
 70
       0
 43
0.25
 10
697.16666667
 20
-1123.78852141
 40
0.25
 41
0.25
 10
697.58620109
 20
-1123.36898698
 40
0.25
 41
0.25
  0
LWPOLYLINE
  5
2D5
100
AcDbEntity
  8
ZUWAKU
  6
CONTINUOUS
 62
      43
100
AcDbPolyline
 90
        2
 70
       0
 43
0.25
 10
663.88377157
 20
-1159.33415821
 40
0.25
 41
0.25
 10
680.34894279
 20
-1142.86898698
 40
0.25
 41
0.25
  0
LWPOLYLINE
  5
2D6
100
AcDbEntity
  8
ZUWAKU
  6
CONTINUOUS
 62
      43
100
AcDbPolyline
 90
        2
 70
       0
 43
0.25
 10
697.16666667
 20
-1126.05126311
 40
0.25
 41
0.25
 10
699.84894279
 20
-1123.36898698
 40
0.25
 41
0.25
  0
LWPOLYLINE
  5
2D7
100
AcDbEntity
  8
ZUWAKU
  6
CONTINUOUS
 62
      43
100
AcDbPolyline
 90
        2
 70
       0
 43
0.25
 10
666.81828434
 20
-1158.66238714
 40
0.25
 41
0.25
 10
682.61168449
 20
-1142.86898698
 40
0.25
 41
0.25
  0
LWPOLYLINE
  5
2D8
100
AcDbEntity
  8
ZUWAKU
  6
CONTINUOUS
 62
      43
100
AcDbPolyline
 90
        2
 70
       0
 43
0.25
 10
697.16666667
 20
-1128.31400481
 40
0.25
 41
0.25
 10
702.11168449
 20
-1123.36898698
 40
0.25
 41
0.25
  0
LWPOLYLINE
  5
2D9
100
AcDbEntity
  8
ZUWAKU
  6
CONTINUOUS
 62
      43
100
AcDbPolyline
 90
        2
 70
       0
 43
0.25
 10
669.82435891
 20
-1157.91905426
 40
0.25
 41
0.25
 10
684.87442619
 20
-1142.86898698
 40
0.25
 41
0.25
  0
LWPOLYLINE
  5
2DA
100
AcDbEntity
  8
ZUWAKU
  6
CONTINUOUS
 62
      43
100
AcDbPolyline
 90
        2
 70
       0
 43
0.25
 10
697.16666667
 20
-1130.57674651
 40
0.25
 41
0.25
 10
704.37442619
 20
-1123.36898698
 40
0.25
 41
0.25
  0
LWPOLYLINE
  5
2DB
100
AcDbEntity
  8
ZUWAKU
  6
CONTINUOUS
 62
      43
100
AcDbPolyline
 90
        2
 70
       0
 43
0.25
 10
672.91277935
 20
-1157.09337553
 40
0.25
 41
0.25
 10
687.13716789
 20
-1142.86898698
 40
0.25
 41
0.25
  0
LWPOLYLINE
  5
2DC
100
AcDbEntity
  8
ZUWAKU
  6
CONTINUOUS
 62
      43
100
AcDbPolyline
 90
        2
 70
       0
 43
0.25
 10
697.16666667
 20
-1132.83948821
 40
0.25
 41
0.25
 10
706.63716789
 20
-1123.36898698
 40
0.25
 41
0.25
  0
LWPOLYLINE
  5
2DD
100
AcDbEntity
  8
ZUWAKU
  6
CONTINUOUS
 62
      43
100
AcDbPolyline
 90
        2
 70
       0
 43
0.25
 10
676.09775134
 20
-1156.17114523
 40
0.25
 41
0.25
 10
689.39990959
 20
-1142.86898698
 40
0.25
 41
0.25
  0
LWPOLYLINE
  5
2DE
100
AcDbEntity
  8
ZUWAKU
  6
CONTINUOUS
 62
      43
100
AcDbPolyline
 90
        2
 70
       0
 43
0.25
 10
697.16666667
 20
-1135.10222991
 40
0.25
 41
0.25
 10
708.89990959
 20
-1123.36898698
 40
0.25
 41
0.25
  0
LWPOLYLINE
  5
2DF
100
AcDbEntity
  8
ZUWAKU
  6
CONTINUOUS
 62
      43
100
AcDbPolyline
 90
        2
 70
       0
 43
0.25
 10
679.39865793
 20
-1155.13298035
 40
0.25
 41
0.25
 10
691.66265129
 20
-1142.86898698
 40
0.25
 41
0.25
  0
LWPOLYLINE
  5
2E0
100
AcDbEntity
  8
ZUWAKU
  6
CONTINUOUS
 62
      43
100
AcDbPolyline
 90
        2
 70
       0
 43
0.25
 10
697.16666667
 20
-1137.36497161
 40
0.25
 41
0.25
 10
711.16265129
 20
-1123.36898698
 40
0.25
 41
0.25
  0
LWPOLYLINE
  5
2E1
100
AcDbEntity
  8
ZUWAKU
  6
CONTINUOUS
 62
      43
100
AcDbPolyline
 90
        2
 70
       0
 43
0.25
 10
682.84318522
 20
-1153.95119475
 40
0.25
 41
0.25
 10
693.92539299
 20
-1142.86898698
 40
0.25
 41
0.25
  0
LWPOLYLINE
  5
2E2
100
AcDbEntity
  8
ZUWAKU
  6
CONTINUOUS
 62
      43
100
AcDbPolyline
 90
        2
 70
       0
 43
0.25
 10
697.16666667
 20
-1139.62771331
 40
0.25
 41
0.25
 10
713.42539299
 20
-1123.36898698
 40
0.25
 41
0.25
  0
LWPOLYLINE
  5
2E3
100
AcDbEntity
  8
ZUWAKU
  6
CONTINUOUS
 62
      43
100
AcDbPolyline
 90
        2
 70
       0
 43
0.25
 10
686.47341155
 20
-1152.58371012
 40
0.25
 41
0.25
 10
696.18813469
 20
-1142.86898698
 40
0.25
 41
0.25
  0
LWPOLYLINE
  5
2E4
100
AcDbEntity
  8
ZUWAKU
  6
CONTINUOUS
 62
      43
100
AcDbPolyline
 90
        2
 70
       0
 43
0.25
 10
697.16666667
 20
-1141.89045501
 40
0.25
 41
0.25
 10
715.68813469
 20
-1123.36898698
 40
0.25
 41
0.25
  0
LWPOLYLINE
  5
2E5
100
AcDbEntity
  8
ZUWAKU
  6
CONTINUOUS
 62
      43
100
AcDbPolyline
 90
        2
 70
       0
 43
0.25
 10
690.35926033
 20
-1150.96060305
 40
0.25
 41
0.25
 10
717.13117345
 20
-1124.18868992
 40
0.25
 41
0.25
  0
LWPOLYLINE
  5
2E6
100
AcDbEntity
  8
ZUWAKU
  6
CONTINUOUS
 62
      43
100
AcDbPolyline
 90
        2
 70
       0
 43
0.25
 10
694.63448884
 20
-1148.94811623
 40
0.25
 41
0.25
 10
716.74737478
 20
-1126.83523029
 40
0.25
 41
0.25
  0
LWPOLYLINE
  5
2E7
100
AcDbEntity
  8
ZUWAKU
  6
CONTINUOUS
 62
      43
100
AcDbPolyline
 90
        2
 70
       0
 43
0.25
 10
699.63212665
 20
-1146.21322012
 40
0.25
 41
0.25
 10
715.64116682
 20
-1130.20417996
 40
0.25
 41
0.25
  0
LWPOLYLINE
  5
2E8
100
AcDbEntity
  8
ZUWAKU
  6
CONTINUOUS
 62
      43
100
AcDbPolyline
 90
        2
 70
       0
 43
0.25
 10
707.42225404
 20
-1140.68583443
 40
0.25
 41
0.25
 10
711.74246927
 20
-1136.36561921
 40
0.25
 41
0.25
  0
LWPOLYLINE
  5
2E9
100
AcDbEntity
  8
ZUWAKU
  6
CONTINUOUS
 62
      43
100
AcDbPolyline
 90
        2
 70
       0
 43
0.25
 10
622.76087109
 20
-1164.25319149
 40
0.25
 41
0.25
 10
644.1450756
 20
-1142.86898698
 40
0.25
 41
0.25
  0
LWPOLYLINE
  5
2EA
100
AcDbEntity
  8
ZUWAKU
  6
CONTINUOUS
 62
      43
100
AcDbPolyline
 90
        2
 70
       0
 43
0.25
 10
620.43668427
 20
-1164.31463662
 40
0.25
 41
0.25
 10
641.8823339
 20
-1142.86898698
 40
0.25
 41
0.25
  0
LWPOLYLINE
  5
2EB
100
AcDbEntity
  8
ZUWAKU
  6
CONTINUOUS
 62
      43
100
AcDbPolyline
 90
        2
 70
       0
 43
0.25
 10
618.13419352
 20
-1164.35438567
 40
0.25
 41
0.25
 10
639.6195922
 20
-1142.86898698
 40
0.25
 41
0.25
  0
LWPOLYLINE
  5
2EC
100
AcDbEntity
  8
ZUWAKU
  6
CONTINUOUS
 62
      43
100
AcDbPolyline
 90
        2
 70
       0
 43
0.25
 10
615.85274207
 20
-1164.37309541
 40
0.25
 41
0.25
 10
637.3568505
 20
-1142.86898698
 40
0.25
 41
0.25
  0
LWPOLYLINE
  5
2ED
100
AcDbEntity
  8
ZUWAKU
  6
CONTINUOUS
 62
      43
100
AcDbPolyline
 90
        2
 70
       0
 43
0.25
 10
613.5917359
 20
-1164.37135988
 40
0.25
 41
0.25
 10
635.0941088
 20
-1142.86898698
 40
0.25
 41
0.25
  0
LWPOLYLINE
  5
2EE
100
AcDbEntity
  8
ZUWAKU
  6
CONTINUOUS
 62
      43
100
AcDbPolyline
 90
        2
 70
       0
 43
0.25
 10
611.35063735
 20
-1164.34971673
 40
0.25
 41
0.25
 10
632.8313671
 20
-1142.86898698
 40
0.25
 41
0.25
  0
LWPOLYLINE
  5
2EF
100
AcDbEntity
  8
ZUWAKU
  6
CONTINUOUS
 62
      43
100
AcDbPolyline
 90
        2
 70
       0
 43
0.25
 10
609.1289597
 20
-1164.30865268
 40
0.25
 41
0.25
 10
630.5686254
 20
-1142.86898698
 40
0.25
 41
0.25
  0
LWPOLYLINE
  5
2F0
100
AcDbEntity
  8
ZUWAKU
  6
CONTINUOUS
 62
      43
100
AcDbPolyline
 90
        2
 70
       0
 43
0.25
 10
606.92626246
 20
-1164.24860823
 40
0.25
 41
0.25
 10
628.3058837
 20
-1142.86898698
 40
0.25
 41
0.25
  0
LWPOLYLINE
  5
2F1
100
AcDbEntity
  8
ZUWAKU
  6
CONTINUOUS
 62
      43
100
AcDbPolyline
 90
        2
 70
       0
 43
0.25
 10
604.74214734
 20
-1164.16998164
 40
0.25
 41
0.25
 10
626.043142
 20
-1142.86898698
 40
0.25
 41
0.25
  0
LWPOLYLINE
  5
2F2
100
AcDbEntity
  8
ZUWAKU
  6
CONTINUOUS
 62
      43
100
AcDbPolyline
 90
        2
 70
       0
 43
0.25
 10
602.57625478
 20
-1164.0731325
 40
0.25
 41
0.25
 10
623.7804003
 20
-1142.86898698
 40
0.25
 41
0.25
  0
LWPOLYLINE
  5
2F3
100
AcDbEntity
  8
ZUWAKU
  6
CONTINUOUS
 62
      43
100
AcDbPolyline
 90
        2
 70
       0
 43
0.25
 10
600.42826089
 20
-1163.95838469
 40
0.25
 41
0.25
 10
621.5176586
 20
-1142.86898698
 40
0.25
 41
0.25
  0
LWPOLYLINE
  5
2F4
100
AcDbEntity
  8
ZUWAKU
  6
CONTINUOUS
 62
      43
100
AcDbPolyline
 90
        2
 70
       0
 43
0.25
 10
598.29787483
 20
-1163.82602905
 40
0.25
 41
0.25
 10
619.2549169
 20
-1142.86898698
 40
0.25
 41
0.25
  0
LWPOLYLINE
  5
2F5
100
AcDbEntity
  8
ZUWAKU
  6
CONTINUOUS
 62
      43
100
AcDbPolyline
 90
        2
 70
       0
 43
0.25
 10
596.18483658
 20
-1163.67632561
 40
0.25
 41
0.25
 10
616.9921752
 20
-1142.86898698
 40
0.25
 41
0.25
  0
LWPOLYLINE
  5
2F6
100
AcDbEntity
  8
ZUWAKU
  6
CONTINUOUS
 62
      43
100
AcDbPolyline
 90
        2
 70
       0
 43
0.25
 10
594.08891493
 20
-1163.50950556
 40
0.25
 41
0.25
 10
614.7294335
 20
-1142.86898698
 40
0.25
 41
0.25
  0
LWPOLYLINE
  5
2F7
100
AcDbEntity
  8
ZUWAKU
  6
CONTINUOUS
 62
      43
100
AcDbPolyline
 90
        2
 70
       0
 43
0.25
 10
592.00990582
 20
-1163.32577296
 40
0.25
 41
0.25
 10
612.4666918
 20
-1142.86898698
 40
0.25
 41
0.25
  0
LWPOLYLINE
  5
2F8
100
AcDbEntity
  8
ZUWAKU
  6
CONTINUOUS
 62
      43
100
AcDbPolyline
 90
        2
 70
       0
 43
0.25
 10
589.94763088
 20
-1163.1253062
 40
0.25
 41
0.25
 10
610.2039501
 20
-1142.86898698
 40
0.25
 41
0.25
  0
LWPOLYLINE
  5
2F9
100
AcDbEntity
  8
ZUWAKU
  6
CONTINUOUS
 62
      43
100
AcDbPolyline
 90
        2
 70
       0
 43
0.25
 10
587.90193618
 20
-1162.9082592
 40
0.25
 41
0.25
 10
607.9412084
 20
-1142.86898698
 40
0.25
 41
0.25
  0
LWPOLYLINE
  5
2FA
100
AcDbEntity
  8
ZUWAKU
  6
CONTINUOUS
 62
      43
100
AcDbPolyline
 90
        2
 70
       0
 43
0.25
 10
585.87269119
 20
-1162.67476249
 40
0.25
 41
0.25
 10
605.6784667
 20
-1142.86898698
 40
0.25
 41
0.25
  0
LWPOLYLINE
  5
2FB
100
AcDbEntity
  8
ZUWAKU
  6
CONTINUOUS
 62
      43
100
AcDbPolyline
 90
        2
 70
       0
 43
0.25
 10
583.8597879
 20
-1162.42492409
 40
0.25
 41
0.25
 10
603.415725
 20
-1142.86898698
 40
0.25
 41
0.25
  0
LWPOLYLINE
  5
2FC
100
AcDbEntity
  8
ZUWAKU
  6
CONTINUOUS
 62
      43
100
AcDbPolyline
 90
        2
 70
       0
 43
0.25
 10
581.86314011
 20
-1162.15883018
 40
0.25
 41
0.25
 10
601.1529833
 20
-1142.86898698
 40
0.25
 41
0.25
  0
LWPOLYLINE
  5
2FD
100
AcDbEntity
  8
ZUWAKU
  6
CONTINUOUS
 62
      43
100
AcDbPolyline
 90
        2
 70
       0
 43
0.25
 10
579.88268289
 20
-1161.87654569
 40
0.25
 41
0.25
 10
598.8902416
 20
-1142.86898698
 40
0.25
 41
0.25
  0
LWPOLYLINE
  5
2FE
100
AcDbEntity
  8
ZUWAKU
  6
CONTINUOUS
 62
      43
100
AcDbPolyline
 90
        2
 70
       0
 43
0.25
 10
577.91837215
 20
-1161.57811473
 40
0.25
 41
0.25
 10
596.6274999
 20
-1142.86898698
 40
0.25
 41
0.25
  0
LWPOLYLINE
  5
2FF
100
AcDbEntity
  8
ZUWAKU
  6
CONTINUOUS
 62
      43
100
AcDbPolyline
 90
        2
 70
       0
 43
0.25
 10
575.97018435
 20
-1161.26356083
 40
0.25
 41
0.25
 10
594.3647582
 20
-1142.86898698
 40
0.25
 41
0.25
  0
LWPOLYLINE
  5
300
100
AcDbEntity
  8
ZUWAKU
  6
CONTINUOUS
 62
      43
100
AcDbPolyline
 90
        2
 70
       0
 43
0.25
 10
574.03811637
 20
-1160.93288712
 40
0.25
 41
0.25
 10
592.1020165
 20
-1142.86898698
 40
0.25
 41
0.25
  0
LWPOLYLINE
  5
301
100
AcDbEntity
  8
ZUWAKU
  6
CONTINUOUS
 62
      43
100
AcDbPolyline
 90
        2
 70
       0
 43
0.25
 10
572.12218546
 20
-1160.58607632
 40
0.25
 41
0.25
 10
589.8392748
 20
-1142.86898698
 40
0.25
 41
0.25
  0
LWPOLYLINE
  5
302
100
AcDbEntity
  8
ZUWAKU
  6
CONTINUOUS
 62
      43
100
AcDbPolyline
 90
        2
 70
       0
 43
0.25
 10
570.2224294
 20
-1160.22309069
 40
0.25
 41
0.25
 10
587.5765331
 20
-1142.86898698
 40
0.25
 41
0.25
  0
LWPOLYLINE
  5
303
100
AcDbEntity
  8
ZUWAKU
  6
CONTINUOUS
 62
      43
100
AcDbPolyline
 90
        2
 70
       0
 43
0.25
 10
568.33890668
 20
-1159.84387171
 40
0.25
 41
0.25
 10
585.3137914
 20
-1142.86898698
 40
0.25
 41
0.25
  0
LWPOLYLINE
  5
304
100
AcDbEntity
  8
ZUWAKU
  6
CONTINUOUS
 62
      43
100
AcDbPolyline
 90
        2
 70
       0
 43
0.25
 10
566.47169692
 20
-1159.44833977
 40
0.25
 41
0.25
 10
583.0510497
 20
-1142.86898698
 40
0.25
 41
0.25
  0
LWPOLYLINE
  5
305
100
AcDbEntity
  8
ZUWAKU
  6
CONTINUOUS
 62
      43
100
AcDbPolyline
 90
        2
 70
       0
 43
0.25
 10
564.62090136
 20
-1159.03639363
 40
0.25
 41
0.25
 10
580.788308
 20
-1142.86898698
 40
0.25
 41
0.25
  0
LWPOLYLINE
  5
306
100
AcDbEntity
  8
ZUWAKU
  6
CONTINUOUS
 62
      43
100
AcDbPolyline
 90
        2
 70
       0
 43
0.25
 10
562.78664354
 20
-1158.60790975
 40
0.25
 41
0.25
 10
578.5255663
 20
-1142.86898698
 40
0.25
 41
0.25
  0
LWPOLYLINE
  5
307
100
AcDbEntity
  8
ZUWAKU
  6
CONTINUOUS
 62
      43
100
AcDbPolyline
 90
        2
 70
       0
 43
0.25
 10
560.96907011
 20
-1158.16274148
 40
0.25
 41
0.25
 10
576.2628246
 20
-1142.86898698
 40
0.25
 41
0.25
  0
LWPOLYLINE
  5
308
100
AcDbEntity
  8
ZUWAKU
  6
CONTINUOUS
 62
      43
100
AcDbPolyline
 90
        2
 70
       0
 43
0.25
 10
559.16835181
 20
-1157.70071807
 40
0.25
 41
0.25
 10
574.0000829
 20
-1142.86898698
 40
0.25
 41
0.25
  0
LWPOLYLINE
  5
309
100
AcDbEntity
  8
ZUWAKU
  6
CONTINUOUS
 62
      43
100
AcDbPolyline
 90
        2
 70
       0
 43
0.25
 10
557.3846847
 20
-1157.22164349
 40
0.25
 41
0.25
 10
571.7373412
 20
-1142.86898698
 40
0.25
 41
0.25
  0
LWPOLYLINE
  5
30A
100
AcDbEntity
  8
ZUWAKU
  6
CONTINUOUS
 62
      43
100
AcDbPolyline
 90
        2
 70
       0
 43
0.25
 10
555.61829146
 20
-1156.72529503
 40
0.25
 41
0.25
 10
569.4745995
 20
-1142.86898698
 40
0.25
 41
0.25
  0
LWPOLYLINE
  5
30B
100
AcDbEntity
  8
ZUWAKU
  6
CONTINUOUS
 62
      43
100
AcDbPolyline
 90
        2
 70
       0
 43
0.25
 10
553.86942308
 20
-1156.2114217
 40
0.25
 41
0.25
 10
567.2118578
 20
-1142.86898698
 40
0.25
 41
0.25
  0
LWPOLYLINE
  5
30C
100
AcDbEntity
  8
ZUWAKU
  6
CONTINUOUS
 62
      43
100
AcDbPolyline
 90
        2
 70
       0
 43
0.25
 10
552.13836073
 20
-1155.67974236
 40
0.25
 41
0.25
 10
564.9491161
 20
-1142.86898698
 40
0.25
 41
0.25
  0
LWPOLYLINE
  5
30D
100
AcDbEntity
  8
ZUWAKU
  6
CONTINUOUS
 62
      43
100
AcDbPolyline
 90
        2
 70
       0
 43
0.25
 10
550.42541788
 20
-1155.12994351
 40
0.25
 41
0.25
 10
562.6863744
 20
-1142.86898698
 40
0.25
 41
0.25
  0
LWPOLYLINE
  5
30E
100
AcDbEntity
  8
ZUWAKU
  6
CONTINUOUS
 62
      43
100
AcDbPolyline
 90
        2
 70
       0
 43
0.25
 10
548.73094285
 20
-1154.56167683
 40
0.25
 41
0.25
 10
560.42363271
 20
-1142.86898698
 40
0.25
 41
0.25
  0
LWPOLYLINE
  5
30F
100
AcDbEntity
  8
ZUWAKU
  6
CONTINUOUS
 62
      43
100
AcDbPolyline
 90
        2
 70
       0
 43
0.25
 10
547.05532171
 20
-1153.97455628
 40
0.25
 41
0.25
 10
558.16089101
 20
-1142.86898698
 40
0.25
 41
0.25
  0
LWPOLYLINE
  5
310
100
AcDbEntity
  8
ZUWAKU
  6
CONTINUOUS
 62
      43
100
AcDbPolyline
 90
        2
 70
       0
 43
0.25
 10
545.39898158
 20
-1153.36815471
 40
0.25
 41
0.25
 10
555.89814931
 20
-1142.86898698
 40
0.25
 41
0.25
  0
LWPOLYLINE
  5
311
100
AcDbEntity
  8
ZUWAKU
  6
CONTINUOUS
 62
      43
100
AcDbPolyline
 90
        2
 70
       0
 43
0.25
 10
543.76239454
 20
-1152.74200005
 40
0.25
 41
0.25
 10
553.63540761
 20
-1142.86898698
 40
0.25
 41
0.25
  0
LWPOLYLINE
  5
312
100
AcDbEntity
  8
ZUWAKU
  6
CONTINUOUS
 62
      43
100
AcDbPolyline
 90
        2
 70
       0
 43
0.25
 10
542.14608206
 20
-1152.09557083
 40
0.25
 41
0.25
 10
551.37266591
 20
-1142.86898698
 40
0.25
 41
0.25
  0
LWPOLYLINE
  5
313
100
AcDbEntity
  8
ZUWAKU
  6
CONTINUOUS
 62
      43
100
AcDbPolyline
 90
        2
 70
       0
 43
0.25
 10
540.55062025
 20
-1151.42829094
 40
0.25
 41
0.25
 10
549.10992421
 20
-1142.86898698
 40
0.25
 41
0.25
  0
LWPOLYLINE
  5
314
100
AcDbEntity
  8
ZUWAKU
  6
CONTINUOUS
 62
      43
100
AcDbPolyline
 90
        2
 70
       0
 43
0.25
 10
538.97664589
 20
-1150.7395236
 40
0.25
 41
0.25
 10
546.84718251
 20
-1142.86898698
 40
0.25
 41
0.25
  0
LWPOLYLINE
  5
315
100
AcDbEntity
  8
ZUWAKU
  6
CONTINUOUS
 62
      43
100
AcDbPolyline
 90
        2
 70
       0
 43
0.25
 10
537.42486354
 20
-1150.02856425
 40
0.25
 41
0.25
 10
544.58444081
 20
-1142.86898698
 40
0.25
 41
0.25
  0
LWPOLYLINE
  5
316
100
AcDbEntity
  8
ZUWAKU
  6
CONTINUOUS
 62
      43
100
AcDbPolyline
 90
        2
 70
       0
 43
0.25
 10
535.89605384
 20
-1149.29463225
 40
0.25
 41
0.25
 10
542.32169911
 20
-1142.86898698
 40
0.25
 41
0.25
  0
LWPOLYLINE
  5
317
100
AcDbEntity
  8
ZUWAKU
  6
CONTINUOUS
 62
      43
100
AcDbPolyline
 90
        2
 70
       0
 43
0.25
 10
534.39108342
 20
-1148.53686097
 40
0.25
 41
0.25
 10
540.05895741
 20
-1142.86898698
 40
0.25
 41
0.25
  0
LWPOLYLINE
  5
318
100
AcDbEntity
  8
ZUWAKU
  6
CONTINUOUS
 62
      43
100
AcDbPolyline
 90
        2
 70
       0
 43
0.25
 10
532.91091656
 20
-1147.75428614
 40
0.25
 41
0.25
 10
537.79621571
 20
-1142.86898698
 40
0.25
 41
0.25
  0
LWPOLYLINE
  5
319
100
AcDbEntity
  8
ZUWAKU
  6
CONTINUOUS
 62
      43
100
AcDbPolyline
 90
        2
 70
       0
 43
0.25
 10
531.45662915
 20
-1146.94583185
 40
0.25
 41
0.25
 10
535.53347401
 20
-1142.86898698
 40
0.25
 41
0.25
  0
LWPOLYLINE
  5
31A
100
AcDbEntity
  8
ZUWAKU
  6
CONTINUOUS
 62
      43
100
AcDbPolyline
 90
        2
 70
       0
 43
0.25
 10
530.02942557
 20
-1146.11029372
 40
0.25
 41
0.25
 10
533.27073231
 20
-1142.86898698
 40
0.25
 41
0.25
  0
LWPOLYLINE
  5
31B
100
AcDbEntity
  8
ZUWAKU
  6
CONTINUOUS
 62
      43
100
AcDbPolyline
 90
        2
 70
       0
 43
0.25
 10
528.63065907
 20
-1145.24631852
 40
0.25
 41
0.25
 10
532.16666667
 20
-1141.71031092
 40
0.25
 41
0.25
  0
LWPOLYLINE
  5
31C
100
AcDbEntity
  8
ZUWAKU
  6
CONTINUOUS
 62
      43
100
AcDbPolyline
 90
        2
 70
       0
 43
0.25
 10
527.26185675
 20
-1144.35237914
 40
0.25
 41
0.25
 10
532.16666667
 20
-1139.44756922
 40
0.25
 41
0.25
  0
LWPOLYLINE
  5
31D
100
AcDbEntity
  8
ZUWAKU
  6
CONTINUOUS
 62
      43
100
AcDbPolyline
 90
        2
 70
       0
 43
0.25
 10
525.92475032
 20
-1143.42674387
 40
0.25
 41
0.25
 10
532.16666667
 20
-1137.18482753
 40
0.25
 41
0.25
  0
LWPOLYLINE
  5
31E
100
AcDbEntity
  8
ZUWAKU
  6
CONTINUOUS
 62
      43
100
AcDbPolyline
 90
        2
 70
       0
 43
0.25
 10
524.62131459
 20
-1142.4674379
 40
0.25
 41
0.25
 10
532.16666667
 20
-1134.92208583
 40
0.25
 41
0.25
  0
LWPOLYLINE
  5
31F
100
AcDbEntity
  8
ZUWAKU
  6
CONTINUOUS
 62
      43
100
AcDbPolyline
 90
        2
 70
       0
 43
0.25
 10
523.35381589
 20
-1141.4721949
 40
0.25
 41
0.25
 10
532.16666667
 20
-1132.65934413
 40
0.25
 41
0.25
  0
LWPOLYLINE
  5
320
100
AcDbEntity
  8
ZUWAKU
  6
CONTINUOUS
 62
      43
100
AcDbPolyline
 90
        2
 70
       0
 43
0.25
 10
522.12487404
 20
-1140.43839505
 40
0.25
 41
0.25
 10
532.16666667
 20
-1130.39660243
 40
0.25
 41
0.25
  0
LWPOLYLINE
  5
321
100
AcDbEntity
  8
ZUWAKU
  6
CONTINUOUS
 62
      43
100
AcDbPolyline
 90
        2
 70
       0
 43
0.25
 10
520.93754256
 20
-1139.36298483
 40
0.25
 41
0.25
 10
532.16666667
 20
-1128.13386073
 40
0.25
 41
0.25
  0
LWPOLYLINE
  5
322
100
AcDbEntity
  8
ZUWAKU
  6
CONTINUOUS
 62
      43
100
AcDbPolyline
 90
        2
 70
       0
 43
0.25
 10
519.79541442
 20
-1138.24237127
 40
0.25
 41
0.25
 10
532.16666667
 20
-1125.87111903
 40
0.25
 41
0.25
  0
LWPOLYLINE
  5
323
100
AcDbEntity
  8
ZUWAKU
  6
CONTINUOUS
 62
      43
100
AcDbPolyline
 90
        2
 70
       0
 43
0.25
 10
518.7027638
 20
-1137.0722802
 40
0.25
 41
0.25
 10
532.16666667
 20
-1123.60837733
 40
0.25
 41
0.25
  0
LWPOLYLINE
  5
324
100
AcDbEntity
  8
ZUWAKU
  6
CONTINUOUS
 62
      43
100
AcDbPolyline
 90
        2
 70
       0
 43
0.25
 10
517.66474031
 20
-1135.84756198
 40
0.25
 41
0.25
 10
530.14331531
 20
-1123.36898698
 40
0.25
 41
0.25
  0
LWPOLYLINE
  5
325
100
AcDbEntity
  8
ZUWAKU
  6
CONTINUOUS
 62
      43
100
AcDbPolyline
 90
        2
 70
       0
 43
0.25
 10
516.68764157
 20
-1134.56191902
 40
0.25
 41
0.25
 10
527.88057361
 20
-1123.36898698
 40
0.25
 41
0.25
  0
LWPOLYLINE
  5
326
100
AcDbEntity
  8
ZUWAKU
  6
CONTINUOUS
 62
      43
100
AcDbPolyline
 90
        2
 70
       0
 43
0.25
 10
515.77930666
 20
-1133.20751224
 40
0.25
 41
0.25
 10
525.61783191
 20
-1123.36898698
 40
0.25
 41
0.25
  0
LWPOLYLINE
  5
327
100
AcDbEntity
  8
ZUWAKU
  6
CONTINUOUS
 62
      43
100
AcDbPolyline
 90
        2
 70
       0
 43
0.25
 10
514.94970354
 20
-1131.77437366
 40
0.25
 41
0.25
 10
523.35509021
 20
-1123.36898698
 40
0.25
 41
0.25
  0
LWPOLYLINE
  5
328
100
AcDbEntity
  8
ZUWAKU
  6
CONTINUOUS
 62
      43
100
AcDbPolyline
 90
        2
 70
       0
 43
0.25
 10
514.21184236
 20
-1130.24949313
 40
0.25
 41
0.25
 10
521.09234851
 20
-1123.36898698
 40
0.25
 41
0.25
  0
LWPOLYLINE
  5
329
100
AcDbEntity
  8
ZUWAKU
  6
CONTINUOUS
 62
      43
100
AcDbPolyline
 90
        2
 70
       0
 43
0.25
 10
513.58326777
 20
-1128.61532602
 40
0.25
 41
0.25
 10
518.82960681
 20
-1123.36898698
 40
0.25
 41
0.25
  0
LWPOLYLINE
  5
32A
100
AcDbEntity
  8
ZUWAKU
  6
CONTINUOUS
 62
      43
100
AcDbPolyline
 90
        2
 70
       0
 43
0.25
 10
513.08865581
 20
-1126.84719629
 40
0.25
 41
0.25
 10
516.56686511
 20
-1123.36898698
 40
0.25
 41
0.25
  0
LWPOLYLINE
  5
32B
100
AcDbEntity
  8
ZUWAKU
  6
CONTINUOUS
 62
      43
100
AcDbPolyline
 90
        2
 70
       0
 43
0.25
 10
512.76472026
 20
-1124.90839013
 40
0.25
 41
0.25
 10
514.30412341
 20
-1123.36898698
 40
0.25
 41
0.25
  0
LWPOLYLINE
  5
32C
100
AcDbEntity
  8
ZUWAKU
  6
CONTINUOUS
 62
      43
100
AcDbPolyline
 90
        2
 70
       0
 43
0.25
 10
583.15781965
 20
-1103.86898698
 40
0.25
 41
0.25
 10
605.00467086
 20
-1082.02213577
 40
0.25
 41
0.25
  0
LWPOLYLINE
  5
32D
100
AcDbEntity
  8
ZUWAKU
  6
CONTINUOUS
 62
      43
100
AcDbPolyline
 90
        2
 70
       0
 43
0.25
 10
585.42056135
 20
-1103.86898698
 40
0.25
 41
0.25
 10
607.34858748
 20
-1081.94096086
 40
0.25
 41
0.25
  0
LWPOLYLINE
  5
32E
100
AcDbEntity
  8
ZUWAKU
  6
CONTINUOUS
 62
      43
100
AcDbPolyline
 90
        2
 70
       0
 43
0.25
 10
587.68330305
 20
-1103.86898698
 40
0.25
 41
0.25
 10
609.670171
 20
-1081.88211904
 40
0.25
 41
0.25
  0
LWPOLYLINE
  5
32F
100
AcDbEntity
  8
ZUWAKU
  6
CONTINUOUS
 62
      43
100
AcDbPolyline
 90
        2
 70
       0
 43
0.25
 10
589.94604475
 20
-1103.86898698
 40
0.25
 41
0.25
 10
611.97013965
 20
-1081.84489208
 40
0.25
 41
0.25
  0
LWPOLYLINE
  5
330
100
AcDbEntity
  8
ZUWAKU
  6
CONTINUOUS
 62
      43
100
AcDbPolyline
 90
        2
 70
       0
 43
0.25
 10
592.20878645
 20
-1103.86898698
 40
0.25
 41
0.25
 10
614.24914242
 20
-1081.82863102
 40
0.25
 41
0.25
  0
LWPOLYLINE
  5
331
100
AcDbEntity
  8
ZUWAKU
  6
CONTINUOUS
 62
      43
100
AcDbPolyline
 90
        2
 70
       0
 43
0.25
 10
594.47152815
 20
-1103.86898698
 40
0.25
 41
0.25
 10
616.50776635
 20
-1081.83274879
 40
0.25
 41
0.25
  0
LWPOLYLINE
  5
332
100
AcDbEntity
  8
ZUWAKU
  6
CONTINUOUS
 62
      43
100
AcDbPolyline
 90
        2
 70
       0
 43
0.25
 10
596.73426985
 20
-1103.86898698
 40
0.25
 41
0.25
 10
618.7465428
 20
-1081.85671404
 40
0.25
 41
0.25
  0
LWPOLYLINE
  5
333
100
AcDbEntity
  8
ZUWAKU
  6
CONTINUOUS
 62
      43
100
AcDbPolyline
 90
        2
 70
       0
 43
0.25
 10
598.99701155
 20
-1103.86898698
 40
0.25
 41
0.25
 10
620.96595279
 20
-1081.90004574
 40
0.25
 41
0.25
  0
LWPOLYLINE
  5
334
100
AcDbEntity
  8
ZUWAKU
  6
CONTINUOUS
 62
      43
100
AcDbPolyline
 90
        2
 70
       0
 43
0.25
 10
601.25975325
 20
-1103.86898698
 40
0.25
 41
0.25
 10
623.16643163
 20
-1081.96230861
 40
0.25
 41
0.25
  0
LWPOLYLINE
  5
335
100
AcDbEntity
  8
ZUWAKU
  6
CONTINUOUS
 62
      43
100
AcDbPolyline
 90
        2
 70
       0
 43
0.25
 10
603.52249495
 20
-1103.86898698
 40
0.25
 41
0.25
 10
625.34837283
 20
-1082.04310911
 40
0.25
 41
0.25
  0
LWPOLYLINE
  5
336
100
AcDbEntity
  8
ZUWAKU
  6
CONTINUOUS
 62
      43
100
AcDbPolyline
 90
        2
 70
       0
 43
0.25
 10
605.78523665
 20
-1103.86898698
 40
0.25
 41
0.25
 10
627.5121316
 20
-1082.14209204
 40
0.25
 41
0.25
  0
LWPOLYLINE
  5
337
100
AcDbEntity
  8
ZUWAKU
  6
CONTINUOUS
 62
      43
100
AcDbPolyline
 90
        2
 70
       0
 43
0.25
 10
608.04797835
 20
-1103.86898698
 40
0.25
 41
0.25
 10
629.65802779
 20
-1082.25893755
 40
0.25
 41
0.25
  0
LWPOLYLINE
  5
338
100
AcDbEntity
  8
ZUWAKU
  6
CONTINUOUS
 62
      43
100
AcDbPolyline
 90
        2
 70
       0
 43
0.25
 10
610.31072005
 20
-1103.86898698
 40
0.25
 41
0.25
 10
631.78634847
 20
-1082.39335856
 40
0.25
 41
0.25
  0
LWPOLYLINE
  5
339
100
AcDbEntity
  8
ZUWAKU
  6
CONTINUOUS
 62
      43
100
AcDbPolyline
 90
        2
 70
       0
 43
0.25
 10
612.57346175
 20
-1103.86898698
 40
0.25
 41
0.25
 10
633.89735018
 20
-1082.54509856
 40
0.25
 41
0.25
  0
LWPOLYLINE
  5
33A
100
AcDbEntity
  8
ZUWAKU
  6
CONTINUOUS
 62
      43
100
AcDbPolyline
 90
        2
 70
       0
 43
0.25
 10
614.83620345
 20
-1103.86898698
 40
0.25
 41
0.25
 10
635.9912608
 20
-1082.71392963
 40
0.25
 41
0.25
  0
LWPOLYLINE
  5
33B
100
AcDbEntity
  8
ZUWAKU
  6
CONTINUOUS
 62
      43
100
AcDbPolyline
 90
        2
 70
       0
 43
0.25
 10
617.09894515
 20
-1103.86898698
 40
0.25
 41
0.25
 10
638.0682813
 20
-1082.89965084
 40
0.25
 41
0.25
  0
LWPOLYLINE
  5
33C
100
AcDbEntity
  8
ZUWAKU
  6
CONTINUOUS
 62
      43
100
AcDbPolyline
 90
        2
 70
       0
 43
0.25
 10
619.36168685
 20
-1103.86898698
 40
0.25
 41
0.25
 10
640.12858709
 20
-1083.10208674
 40
0.25
 41
0.25
  0
LWPOLYLINE
  5
33D
100
AcDbEntity
  8
ZUWAKU
  6
CONTINUOUS
 62
      43
100
AcDbPolyline
 90
        2
 70
       0
 43
0.25
 10
621.62442855
 20
-1103.86898698
 40
0.25
 41
0.25
 10
642.17232929
 20
-1083.32108624
 40
0.25
 41
0.25
  0
LWPOLYLINE
  5
33E
100
AcDbEntity
  8
ZUWAKU
  6
CONTINUOUS
 62
      43
100
AcDbPolyline
 90
        2
 70
       0
 43
0.25
 10
623.88717025
 20
-1103.86898698
 40
0.25
 41
0.25
 10
644.19963572
 20
-1083.55652151
 40
0.25
 41
0.25
  0
LWPOLYLINE
  5
33F
100
AcDbEntity
  8
ZUWAKU
  6
CONTINUOUS
 62
      43
100
AcDbPolyline
 90
        2
 70
       0
 43
0.25
 10
626.14991195
 20
-1103.86898698
 40
0.25
 41
0.25
 10
646.21061178
 20
-1083.80828715
 40
0.25
 41
0.25
  0
LWPOLYLINE
  5
340
100
AcDbEntity
  8
ZUWAKU
  6
CONTINUOUS
 62
      43
100
AcDbPolyline
 90
        2
 70
       0
 43
0.25
 10
628.41265365
 20
-1103.86898698
 40
0.25
 41
0.25
 10
648.20534111
 20
-1084.07629952
 40
0.25
 41
0.25
  0
LWPOLYLINE
  5
341
100
AcDbEntity
  8
ZUWAKU
  6
CONTINUOUS
 62
      43
100
AcDbPolyline
 90
        2
 70
       0
 43
0.25
 10
630.67539535
 20
-1103.86898698
 40
0.25
 41
0.25
 10
650.18388617
 20
-1084.36049617
 40
0.25
 41
0.25
  0
LWPOLYLINE
  5
342
100
AcDbEntity
  8
ZUWAKU
  6
CONTINUOUS
 62
      43
100
AcDbPolyline
 90
        2
 70
       0
 43
0.25
 10
632.93813705
 20
-1103.86898698
 40
0.25
 41
0.25
 10
652.1462886
 20
-1084.66083543
 40
0.25
 41
0.25
  0
LWPOLYLINE
  5
343
100
AcDbEntity
  8
ZUWAKU
  6
CONTINUOUS
 62
      43
100
AcDbPolyline
 90
        2
 70
       0
 43
0.25
 10
635.20087875
 20
-1103.86898698
 40
0.25
 41
0.25
 10
654.09256952
 20
-1084.97729621
 40
0.25
 41
0.25
  0
LWPOLYLINE
  5
344
100
AcDbEntity
  8
ZUWAKU
  6
CONTINUOUS
 62
      43
100
AcDbPolyline
 90
        2
 70
       0
 43
0.25
 10
637.46362045
 20
-1103.86898698
 40
0.25
 41
0.25
 10
656.02272965
 20
-1085.30987778
 40
0.25
 41
0.25
  0
LWPOLYLINE
  5
345
100
AcDbEntity
  8
ZUWAKU
  6
CONTINUOUS
 62
      43
100
AcDbPolyline
 90
        2
 70
       0
 43
0.25
 10
639.72636215
 20
-1103.86898698
 40
0.25
 41
0.25
 10
657.93674931
 20
-1085.65859982
 40
0.25
 41
0.25
  0
LWPOLYLINE
  5
346
100
AcDbEntity
  8
ZUWAKU
  6
CONTINUOUS
 62
      43
100
AcDbPolyline
 90
        2
 70
       0
 43
0.25
 10
641.98910385
 20
-1103.86898698
 40
0.25
 41
0.25
 10
659.8345883
 20
-1086.02350254
 40
0.25
 41
0.25
  0
LWPOLYLINE
  5
347
100
AcDbEntity
  8
ZUWAKU
  6
CONTINUOUS
 62
      43
100
AcDbPolyline
 90
        2
 70
       0
 43
0.25
 10
644.25184555
 20
-1103.86898698
 40
0.25
 41
0.25
 10
661.71618563
 20
-1086.40464691
 40
0.25
 41
0.25
  0
LWPOLYLINE
  5
348
100
AcDbEntity
  8
ZUWAKU
  6
CONTINUOUS
 62
      43
100
AcDbPolyline
 90
        2
 70
       0
 43
0.25
 10
646.51458725
 20
-1103.86898698
 40
0.25
 41
0.25
 10
663.58145916
 20
-1086.80211507
 40
0.25
 41
0.25
  0
LWPOLYLINE
  5
349
100
AcDbEntity
  8
ZUWAKU
  6
CONTINUOUS
 62
      43
100
AcDbPolyline
 90
        2
 70
       0
 43
0.25
 10
648.77732895
 20
-1103.86898698
 40
0.25
 41
0.25
 10
665.43030505
 20
-1087.21601088
 40
0.25
 41
0.25
  0
LWPOLYLINE
  5
34A
100
AcDbEntity
  8
ZUWAKU
  6
CONTINUOUS
 62
      43
100
AcDbPolyline
 90
        2
 70
       0
 43
0.25
 10
651.04007065
 20
-1103.86898698
 40
0.25
 41
0.25
 10
667.26259708
 20
-1087.64646056
 40
0.25
 41
0.25
  0
LWPOLYLINE
  5
34B
100
AcDbEntity
  8
ZUWAKU
  6
CONTINUOUS
 62
      43
100
AcDbPolyline
 90
        2
 70
       0
 43
0.25
 10
653.30281235
 20
-1103.86898698
 40
0.25
 41
0.25
 10
669.07818579
 20
-1088.09361354
 40
0.25
 41
0.25
  0
LWPOLYLINE
  5
34C
100
AcDbEntity
  8
ZUWAKU
  6
CONTINUOUS
 62
      43
100
AcDbPolyline
 90
        2
 70
       0
 43
0.25
 10
655.56555405
 20
-1103.86898698
 40
0.25
 41
0.25
 10
670.87689752
 20
-1088.55764351
 40
0.25
 41
0.25
  0
LWPOLYLINE
  5
34D
100
AcDbEntity
  8
ZUWAKU
  6
CONTINUOUS
 62
      43
100
AcDbPolyline
 90
        2
 70
       0
 43
0.25
 10
657.82829575
 20
-1103.86898698
 40
0.25
 41
0.25
 10
672.65853314
 20
-1089.03874959
 40
0.25
 41
0.25
  0
LWPOLYLINE
  5
34E
100
AcDbEntity
  8
ZUWAKU
  6
CONTINUOUS
 62
      43
100
AcDbPolyline
 90
        2
 70
       0
 43
0.25
 10
660.09103745
 20
-1103.86898698
 40
0.25
 41
0.25
 10
674.4228667
 20
-1089.53715773
 40
0.25
 41
0.25
  0
LWPOLYLINE
  5
34F
100
AcDbEntity
  8
ZUWAKU
  6
CONTINUOUS
 62
      43
100
AcDbPolyline
 90
        2
 70
       0
 43
0.25
 10
662.35377915
 20
-1103.86898698
 40
0.25
 41
0.25
 10
676.16964375
 20
-1090.05312238
 40
0.25
 41
0.25
  0
LWPOLYLINE
  5
350
100
AcDbEntity
  8
ZUWAKU
  6
CONTINUOUS
 62
      43
100
AcDbPolyline
 90
        2
 70
       0
 43
0.25
 10
664.61652085
 20
-1103.86898698
 40
0.25
 41
0.25
 10
677.89857942
 20
-1090.58692841
 40
0.25
 41
0.25
  0
LWPOLYLINE
  5
351
100
AcDbEntity
  8
ZUWAKU
  6
CONTINUOUS
 62
      43
100
AcDbPolyline
 90
        2
 70
       0
 43
0.25
 10
666.87926255
 20
-1103.86898698
 40
0.25
 41
0.25
 10
679.60935624
 20
-1091.13889329
 40
0.25
 41
0.25
  0
LWPOLYLINE
  5
352
100
AcDbEntity
  8
ZUWAKU
  6
CONTINUOUS
 62
      43
100
AcDbPolyline
 90
        2
 70
       0
 43
0.25
 10
669.14200425
 20
-1103.86898698
 40
0.25
 41
0.25
 10
681.3016216
 20
-1091.70936963
 40
0.25
 41
0.25
  0
LWPOLYLINE
  5
353
100
AcDbEntity
  8
ZUWAKU
  6
CONTINUOUS
 62
      43
100
AcDbPolyline
 90
        2
 70
       0
 43
0.25
 10
671.40474595
 20
-1103.86898698
 40
0.25
 41
0.25
 10
682.97498475
 20
-1092.29874818
 40
0.25
 41
0.25
  0
LWPOLYLINE
  5
354
100
AcDbEntity
  8
ZUWAKU
  6
CONTINUOUS
 62
      43
100
AcDbPolyline
 90
        2
 70
       0
 43
0.25
 10
673.66748765
 20
-1103.86898698
 40
0.25
 41
0.25
 10
684.62901347
 20
-1092.90746116
 40
0.25
 41
0.25
  0
LWPOLYLINE
  5
355
100
AcDbEntity
  8
ZUWAKU
  6
CONTINUOUS
 62
      43
100
AcDbPolyline
 90
        2
 70
       0
 43
0.25
 10
675.93022935
 20
-1103.86898698
 40
0.25
 41
0.25
 10
686.26323007
 20
-1093.53598626
 40
0.25
 41
0.25
  0
LWPOLYLINE
  5
356
100
AcDbEntity
  8
ZUWAKU
  6
CONTINUOUS
 62
      43
100
AcDbPolyline
 90
        2
 70
       0
 43
0.25
 10
678.19297105
 20
-1103.86898698
 40
0.25
 41
0.25
 10
687.87710691
 20
-1094.18485112
 40
0.25
 41
0.25
  0
LWPOLYLINE
  5
357
100
AcDbEntity
  8
ZUWAKU
  6
CONTINUOUS
 62
      43
100
AcDbPolyline
 90
        2
 70
       0
 43
0.25
 10
680.45571275
 20
-1103.86898698
 40
0.25
 41
0.25
 10
689.47006103
 20
-1094.8546387
 40
0.25
 41
0.25
  0
LWPOLYLINE
  5
358
100
AcDbEntity
  8
ZUWAKU
  6
CONTINUOUS
 62
      43
100
AcDbPolyline
 90
        2
 70
       0
 43
0.25
 10
682.71845445
 20
-1103.86898698
 40
0.25
 41
0.25
 10
691.04144804
 20
-1095.54599339
 40
0.25
 41
0.25
  0
LWPOLYLINE
  5
359
100
AcDbEntity
  8
ZUWAKU
  6
CONTINUOUS
 62
      43
100
AcDbPolyline
 90
        2
 70
       0
 43
0.25
 10
684.98119615
 20
-1103.86898698
 40
0.25
 41
0.25
 10
692.59055483
 20
-1096.2596283
 40
0.25
 41
0.25
  0
LWPOLYLINE
  5
35A
100
AcDbEntity
  8
ZUWAKU
  6
CONTINUOUS
 62
      43
100
AcDbPolyline
 90
        2
 70
       0
 43
0.25
 10
687.24393784
 20
-1103.86898698
 40
0.25
 41
0.25
 10
694.11659112
 20
-1096.9963337
 40
0.25
 41
0.25
  0
LWPOLYLINE
  5
35B
100
AcDbEntity
  8
ZUWAKU
  6
CONTINUOUS
 62
      43
100
AcDbPolyline
 90
        2
 70
       0
 43
0.25
 10
689.50667954
 20
-1103.86898698
 40
0.25
 41
0.25
 10
695.6186794
 20
-1097.75698713
 40
0.25
 41
0.25
  0
LWPOLYLINE
  5
35C
100
AcDbEntity
  8
ZUWAKU
  6
CONTINUOUS
 62
      43
100
AcDbPolyline
 90
        2
 70
       0
 43
0.25
 10
691.76942124
 20
-1103.86898698
 40
0.25
 41
0.25
 10
697.09584296
 20
-1098.54256527
 40
0.25
 41
0.25
  0
LWPOLYLINE
  5
35D
100
AcDbEntity
  8
ZUWAKU
  6
CONTINUOUS
 62
      43
100
AcDbPolyline
 90
        2
 70
       0
 43
0.25
 10
694.03216294
 20
-1103.86898698
 40
0.25
 41
0.25
 10
698.54699164
 20
-1099.35415829
 40
0.25
 41
0.25
  0
LWPOLYLINE
  5
35E
100
AcDbEntity
  8
ZUWAKU
  6
CONTINUOUS
 62
      43
100
AcDbPolyline
 90
        2
 70
       0
 43
0.25
 10
696.29490464
 20
-1103.86898698
 40
0.25
 41
0.25
 10
699.97090458
 20
-1100.19298705
 40
0.25
 41
0.25
  0
LWPOLYLINE
  5
35F
100
AcDbEntity
  8
ZUWAKU
  6
CONTINUOUS
 62
      43
100
AcDbPolyline
 90
        2
 70
       0
 43
0.25
 10
697.16666667
 20
-1105.25996666
 40
0.25
 41
0.25
 10
701.36620938
 20
-1101.06042394
 40
0.25
 41
0.25
  0
LWPOLYLINE
  5
360
100
AcDbEntity
  8
ZUWAKU
  6
CONTINUOUS
 62
      43
100
AcDbPolyline
 90
        2
 70
       0
 43
0.25
 10
697.16666667
 20
-1107.52270836
 40
0.25
 41
0.25
 10
702.73135648
 20
-1101.95801854
 40
0.25
 41
0.25
  0
LWPOLYLINE
  5
361
100
AcDbEntity
  8
ZUWAKU
  6
CONTINUOUS
 62
      43
100
AcDbPolyline
 90
        2
 70
       0
 43
0.25
 10
697.16666667
 20
-1109.78545006
 40
0.25
 41
0.25
 10
704.06458757
 20
-1102.88752916
 40
0.25
 41
0.25
  0
LWPOLYLINE
  5
362
100
AcDbEntity
  8
ZUWAKU
  6
CONTINUOUS
 62
      43
100
AcDbPolyline
 90
        2
 70
       0
 43
0.25
 10
697.16666667
 20
-1112.04819176
 40
0.25
 41
0.25
 10
705.3638961
 20
-1103.85096233
 40
0.25
 41
0.25
  0
LWPOLYLINE
  5
363
100
AcDbEntity
  8
ZUWAKU
  6
CONTINUOUS
 62
      43
100
AcDbPolyline
 90
        2
 70
       0
 43
0.25
 10
697.16666667
 20
-1114.31093346
 40
0.25
 41
0.25
 10
706.62697745
 20
-1104.85062268
 40
0.25
 41
0.25
  0
LWPOLYLINE
  5
364
100
AcDbEntity
  8
ZUWAKU
  6
CONTINUOUS
 62
      43
100
AcDbPolyline
 90
        2
 70
       0
 43
0.25
 10
697.16666667
 20
-1116.57367516
 40
0.25
 41
0.25
 10
707.85116512
 20
-1105.88917671
 40
0.25
 41
0.25
  0
LWPOLYLINE
  5
365
100
AcDbEntity
  8
ZUWAKU
  6
CONTINUOUS
 62
      43
100
AcDbPolyline
 90
        2
 70
       0
 43
0.25
 10
697.16666667
 20
-1118.83641686
 40
0.25
 41
0.25
 10
709.03334784
 20
-1106.96973569
 40
0.25
 41
0.25
  0
LWPOLYLINE
  5
366
100
AcDbEntity
  8
ZUWAKU
  6
CONTINUOUS
 62
      43
100
AcDbPolyline
 90
        2
 70
       0
 43
0.25
 10
697.16666667
 20
-1121.09915856
 40
0.25
 41
0.25
 10
710.1698603
 20
-1108.09596492
 40
0.25
 41
0.25
  0
LWPOLYLINE
  5
367
100
AcDbEntity
  8
ZUWAKU
  6
CONTINUOUS
 62
      43
100
AcDbPolyline
 90
        2
 70
       0
 43
0.25
 10
697.15957994
 20
-1123.36898698
 40
0.25
 41
0.25
 10
711.25633612
 20
-1109.27223081
 40
0.25
 41
0.25
  0
LWPOLYLINE
  5
368
100
AcDbEntity
  8
ZUWAKU
  6
CONTINUOUS
 62
      43
100
AcDbPolyline
 90
        2
 70
       0
 43
0.25
 10
699.42232164
 20
-1123.36898698
 40
0.25
 41
0.25
 10
712.28750595
 20
-1110.50380268
 40
0.25
 41
0.25
  0
LWPOLYLINE
  5
369
100
AcDbEntity
  8
ZUWAKU
  6
CONTINUOUS
 62
      43
100
AcDbPolyline
 90
        2
 70
       0
 43
0.25
 10
701.68506334
 20
-1123.36898698
 40
0.25
 41
0.25
 10
713.25691327
 20
-1111.79713705
 40
0.25
 41
0.25
  0
LWPOLYLINE
  5
36A
100
AcDbEntity
  8
ZUWAKU
  6
CONTINUOUS
 62
      43
100
AcDbPolyline
 90
        2
 70
       0
 43
0.25
 10
703.94780504
 20
-1123.36898698
 40
0.25
 41
0.25
 10
714.15650262
 20
-1113.16028941
 40
0.25
 41
0.25
  0
LWPOLYLINE
  5
36B
100
AcDbEntity
  8
ZUWAKU
  6
CONTINUOUS
 62
      43
100
AcDbPolyline
 90
        2
 70
       0
 43
0.25
 10
706.21054674
 20
-1123.36898698
 40
0.25
 41
0.25
 10
714.97600199
 20
-1114.60353173
 40
0.25
 41
0.25
  0
LWPOLYLINE
  5
36C
100
AcDbEntity
  8
ZUWAKU
  6
CONTINUOUS
 62
      43
100
AcDbPolyline
 90
        2
 70
       0
 43
0.25
 10
708.47328844
 20
-1123.36898698
 40
0.25
 41
0.25
 10
715.70195775
 20
-1116.14031767
 40
0.25
 41
0.25
  0
LWPOLYLINE
  5
36D
100
AcDbEntity
  8
ZUWAKU
  6
CONTINUOUS
 62
      43
100
AcDbPolyline
 90
        2
 70
       0
 43
0.25
 10
710.73603014
 20
-1123.36898698
 40
0.25
 41
0.25
 10
716.31614686
 20
-1117.78887027
 40
0.25
 41
0.25
  0
LWPOLYLINE
  5
36E
100
AcDbEntity
  8
ZUWAKU
  6
CONTINUOUS
 62
      43
100
AcDbPolyline
 90
        2
 70
       0
 43
0.25
 10
712.99877184
 20
-1123.36898698
 40
0.25
 41
0.25
 10
716.79279028
 20
-1119.57496855
 40
0.25
 41
0.25
  0
LWPOLYLINE
  5
36F
100
AcDbEntity
  8
ZUWAKU
  6
CONTINUOUS
 62
      43
100
AcDbPolyline
 90
        2
 70
       0
 43
0.25
 10
715.26151354
 20
-1123.36898698
 40
0.25
 41
0.25
 10
717.09322748
 20
-1121.53727305
 40
0.25
 41
0.25
  0
LWPOLYLINE
  5
370
100
AcDbEntity
  8
ZUWAKU
  6
CONTINUOUS
 62
      43
100
AcDbPolyline
 90
        2
 70
       0
 43
0.25
 10
580.89507795
 20
-1103.86898698
 40
0.25
 41
0.25
 10
602.6376251
 20
-1082.12643984
 40
0.25
 41
0.25
  0
LWPOLYLINE
  5
371
100
AcDbEntity
  8
ZUWAKU
  6
CONTINUOUS
 62
      43
100
AcDbPolyline
 90
        2
 70
       0
 43
0.25
 10
578.63233625
 20
-1103.86898698
 40
0.25
 41
0.25
 10
600.24656611
 20
-1082.25475713
 40
0.25
 41
0.25
  0
LWPOLYLINE
  5
372
100
AcDbEntity
  8
ZUWAKU
  6
CONTINUOUS
 62
      43
100
AcDbPolyline
 90
        2
 70
       0
 43
0.25
 10
576.36959455
 20
-1103.86898698
 40
0.25
 41
0.25
 10
597.83050973
 20
-1082.40807181
 40
0.25
 41
0.25
  0
LWPOLYLINE
  5
373
100
AcDbEntity
  8
ZUWAKU
  6
CONTINUOUS
 62
      43
100
AcDbPolyline
 90
        2
 70
       0
 43
0.25
 10
574.10685286
 20
-1103.86898698
 40
0.25
 41
0.25
 10
595.3883572
 20
-1082.58748264
 40
0.25
 41
0.25
  0
LWPOLYLINE
  5
374
100
AcDbEntity
  8
ZUWAKU
  6
CONTINUOUS
 62
      43
100
AcDbPolyline
 90
        2
 70
       0
 43
0.25
 10
571.84411116
 20
-1103.86898698
 40
0.25
 41
0.25
 10
592.91887777
 20
-1082.79422037
 40
0.25
 41
0.25
  0
LWPOLYLINE
  5
375
100
AcDbEntity
  8
ZUWAKU
  6
CONTINUOUS
 62
      43
100
AcDbPolyline
 90
        2
 70
       0
 43
0.25
 10
569.58136946
 20
-1103.86898698
 40
0.25
 41
0.25
 10
590.42068748
 20
-1083.02966896
 40
0.25
 41
0.25
  0
LWPOLYLINE
  5
376
100
AcDbEntity
  8
ZUWAKU
  6
CONTINUOUS
 62
      43
100
AcDbPolyline
 90
        2
 70
       0
 43
0.25
 10
567.31862776
 20
-1103.86898698
 40
0.25
 41
0.25
 10
587.89222323
 20
-1083.29539151
 40
0.25
 41
0.25
  0
LWPOLYLINE
  5
377
100
AcDbEntity
  8
ZUWAKU
  6
CONTINUOUS
 62
      43
100
AcDbPolyline
 90
        2
 70
       0
 43
0.25
 10
565.05588606
 20
-1103.86898698
 40
0.25
 41
0.25
 10
585.33171065
 20
-1083.59316239
 40
0.25
 41
0.25
  0
LWPOLYLINE
  5
378
100
AcDbEntity
  8
ZUWAKU
  6
CONTINUOUS
 62
      43
100
AcDbPolyline
 90
        2
 70
       0
 43
0.25
 10
562.79314436
 20
-1103.86898698
 40
0.25
 41
0.25
 10
582.73712404
 20
-1083.9250073
 40
0.25
 41
0.25
  0
LWPOLYLINE
  5
379
100
AcDbEntity
  8
ZUWAKU
  6
CONTINUOUS
 62
      43
100
AcDbPolyline
 90
        2
 70
       0
 43
0.25
 10
560.53040266
 20
-1103.86898698
 40
0.25
 41
0.25
 10
580.10613564
 20
-1084.293254
 40
0.25
 41
0.25
  0
LWPOLYLINE
  5
37A
100
AcDbEntity
  8
ZUWAKU
  6
CONTINUOUS
 62
      43
100
AcDbPolyline
 90
        2
 70
       0
 43
0.25
 10
558.26766096
 20
-1103.86898698
 40
0.25
 41
0.25
 10
577.43605067
 20
-1084.70059727
 40
0.25
 41
0.25
  0
LWPOLYLINE
  5
37B
100
AcDbEntity
  8
ZUWAKU
  6
CONTINUOUS
 62
      43
100
AcDbPolyline
 90
        2
 70
       0
 43
0.25
 10
556.00491926
 20
-1103.86898698
 40
0.25
 41
0.25
 10
574.72372288
 20
-1085.15018336
 40
0.25
 41
0.25
  0
LWPOLYLINE
  5
37C
100
AcDbEntity
  8
ZUWAKU
  6
CONTINUOUS
 62
      43
100
AcDbPolyline
 90
        2
 70
       0
 43
0.25
 10
553.74217756
 20
-1103.86898698
 40
0.25
 41
0.25
 10
571.96544305
 20
-1085.64572149
 40
0.25
 41
0.25
  0
LWPOLYLINE
  5
37D
100
AcDbEntity
  8
ZUWAKU
  6
CONTINUOUS
 62
      43
100
AcDbPolyline
 90
        2
 70
       0
 43
0.25
 10
531.97943586
 20
-1123.36898698
 40
0.25
 41
0.25
 10
532.16666667
 20
-1123.18175617
 40
0.25
 41
0.25
  0
LWPOLYLINE
  5
37E
100
AcDbEntity
  8
ZUWAKU
  6
CONTINUOUS
 62
      43
100
AcDbPolyline
 90
        2
 70
       0
 43
0.25
 10
551.47943586
 20
-1103.86898698
 40
0.25
 41
0.25
 10
569.15678874
 20
-1086.1916341
 40
0.25
 41
0.25
  0
LWPOLYLINE
  5
37F
100
AcDbEntity
  8
ZUWAKU
  6
CONTINUOUS
 62
      43
100
AcDbPolyline
 90
        2
 70
       0
 43
0.25
 10
529.71669416
 20
-1123.36898698
 40
0.25
 41
0.25
 10
532.16666667
 20
-1120.91901447
 40
0.25
 41
0.25
  0
LWPOLYLINE
  5
380
100
AcDbEntity
  8
ZUWAKU
  6
CONTINUOUS
 62
      43
100
AcDbPolyline
 90
        2
 70
       0
 43
0.25
 10
549.21669416
 20
-1103.86898698
 40
0.25
 41
0.25
 10
566.29241768
 20
-1086.79326346
 40
0.25
 41
0.25
  0
LWPOLYLINE
  5
381
100
AcDbEntity
  8
ZUWAKU
  6
CONTINUOUS
 62
      43
100
AcDbPolyline
 90
        2
 70
       0
 43
0.25
 10
527.45395246
 20
-1123.36898698
 40
0.25
 41
0.25
 10
532.16666667
 20
-1118.65627277
 40
0.25
 41
0.25
  0
LWPOLYLINE
  5
382
100
AcDbEntity
  8
ZUWAKU
  6
CONTINUOUS
 62
      43
100
AcDbPolyline
 90
        2
 70
       0
 43
0.25
 10
546.95395246
 20
-1103.86898698
 40
0.25
 41
0.25
 10
563.36577636
 20
-1087.45716308
 40
0.25
 41
0.25
  0
LWPOLYLINE
  5
383
100
AcDbEntity
  8
ZUWAKU
  6
CONTINUOUS
 62
      43
100
AcDbPolyline
 90
        2
 70
       0
 43
0.25
 10
525.19121076
 20
-1123.36898698
 40
0.25
 41
0.25
 10
532.16666667
 20
-1116.39353107
 40
0.25
 41
0.25
  0
LWPOLYLINE
  5
384
100
AcDbEntity
  8
ZUWAKU
  6
CONTINUOUS
 62
      43
100
AcDbPolyline
 90
        2
 70
       0
 43
0.25
 10
544.69121076
 20
-1103.86898698
 40
0.25
 41
0.25
 10
560.36867685
 20
-1088.19152089
 40
0.25
 41
0.25
  0
LWPOLYLINE
  5
385
100
AcDbEntity
  8
ZUWAKU
  6
CONTINUOUS
 62
      43
100
AcDbPolyline
 90
        2
 70
       0
 43
0.25
 10
522.92846906
 20
-1123.36898698
 40
0.25
 41
0.25
 10
532.16666667
 20
-1114.13078937
 40
0.25
 41
0.25
  0
LWPOLYLINE
  5
386
100
AcDbEntity
  8
ZUWAKU
  6
CONTINUOUS
 62
      43
100
AcDbPolyline
 90
        2
 70
       0
 43
0.25
 10
542.42846906
 20
-1103.86898698
 40
0.25
 41
0.25
 10
557.29066047
 20
-1089.00679557
 40
0.25
 41
0.25
  0
LWPOLYLINE
  5
387
100
AcDbEntity
  8
ZUWAKU
  6
CONTINUOUS
 62
      43
100
AcDbPolyline
 90
        2
 70
       0
 43
0.25
 10
520.66572736
 20
-1123.36898698
 40
0.25
 41
0.25
 10
532.16666667
 20
-1111.86804767
 40
0.25
 41
0.25
  0
LWPOLYLINE
  5
388
100
AcDbEntity
  8
ZUWAKU
  6
CONTINUOUS
 62
      43
100
AcDbPolyline
 90
        2
 70
       0
 43
0.25
 10
540.16572736
 20
-1103.86898698
 40
0.25
 41
0.25
 10
554.11800016
 20
-1089.91671418
 40
0.25
 41
0.25
  0
LWPOLYLINE
  5
389
100
AcDbEntity
  8
ZUWAKU
  6
CONTINUOUS
 62
      43
100
AcDbPolyline
 90
        2
 70
       0
 43
0.25
 10
518.40298566
 20
-1123.36898698
 40
0.25
 41
0.25
 10
532.16666667
 20
-1109.60530598
 40
0.25
 41
0.25
  0
LWPOLYLINE
  5
38A
100
AcDbEntity
  8
ZUWAKU
  6
CONTINUOUS
 62
      43
100
AcDbPolyline
 90
        2
 70
       0
 43
0.25
 10
537.90298566
 20
-1103.86898698
 40
0.25
 41
0.25
 10
550.83205253
 20
-1090.93992011
 40
0.25
 41
0.25
  0
LWPOLYLINE
  5
38B
100
AcDbEntity
  8
ZUWAKU
  6
CONTINUOUS
 62
      43
100
AcDbPolyline
 90
        2
 70
       0
 43
0.25
 10
516.14024396
 20
-1123.36898698
 40
0.25
 41
0.25
 10
532.16666667
 20
-1107.34256428
 40
0.25
 41
0.25
  0
LWPOLYLINE
  5
38C
100
AcDbEntity
  8
ZUWAKU
  6
CONTINUOUS
 62
      43
100
AcDbPolyline
 90
        2
 70
       0
 43
0.25
 10
535.64024396
 20
-1103.86898698
 40
0.25
 41
0.25
 10
547.4063505
 20
-1092.10288044
 40
0.25
 41
0.25
  0
LWPOLYLINE
  5
38D
100
AcDbEntity
  8
ZUWAKU
  6
CONTINUOUS
 62
      43
100
AcDbPolyline
 90
        2
 70
       0
 43
0.25
 10
513.87750226
 20
-1123.36898698
 40
0.25
 41
0.25
 10
532.16666667
 20
-1105.07982258
 40
0.25
 41
0.25
  0
LWPOLYLINE
  5
38E
100
AcDbEntity
  8
ZUWAKU
  6
CONTINUOUS
 62
      43
100
AcDbPolyline
 90
        2
 70
       0
 43
0.25
 10
533.37750226
 20
-1103.86898698
 40
0.25
 41
0.25
 10
543.80100804
 20
-1093.4454812
 40
0.25
 41
0.25
  0
LWPOLYLINE
  5
38F
100
AcDbEntity
  8
ZUWAKU
  6
CONTINUOUS
 62
      43
100
AcDbPolyline
 90
        2
 70
       0
 43
0.25
 10
512.68604871
 20
-1122.29769883
 40
0.25
 41
0.25
 10
539.95057258
 20
-1095.03317497
 40
0.25
 41
0.25
  0
LWPOLYLINE
  5
390
100
AcDbEntity
  8
ZUWAKU
  6
CONTINUOUS
 62
      43
100
AcDbPolyline
 90
        2
 70
       0
 43
0.25
 10
513.01277094
 20
-1119.7082349
 40
0.25
 41
0.25
 10
535.7324205
 20
-1096.98858535
 40
0.25
 41
0.25
  0
LWPOLYLINE
  5
391
100
AcDbEntity
  8
ZUWAKU
  6
CONTINUOUS
 62
      43
100
AcDbPolyline
 90
        2
 70
       0
 43
0.25
 10
513.99960455
 20
-1116.4586596
 40
0.25
 41
0.25
 10
530.85415705
 20
-1099.60410709
 40
0.25
 41
0.25
  0
LWPOLYLINE
  5
392
100
AcDbEntity
  8
ZUWAKU
  6
CONTINUOUS
 62
      43
100
AcDbPolyline
 90
        2
 70
       0
 43
0.25
 10
517.05207509
 20
-1111.14344735
 40
0.25
 41
0.25
 10
523.91025666
 20
-1104.28526578
 40
0.25
 41
0.25
  0
LWPOLYLINE
  5
393
100
AcDbEntity
  8
ZUWAKU
  6
CONTINUOUS
 62
      43
100
AcDbPolyline
 90
        2
 70
       0
 43
0.25
 10
728.66666667
 20
1019.13101302
 40
0.25
 41
0.25
 10
728.66666667
 20
699.13101302
 40
0.25
 41
0.25
  0
LWPOLYLINE
  5
394
100
AcDbEntity
  8
ZUWAKU
  6
CONTINUOUS
 62
      43
100
AcDbPolyline
 90
        2
 70
       0
 43
0.25
 10
728.66666667
 20
1019.13101302
 40
0.25
 41
0.25
 10
-746.83333333
 20
1019.13101302
 40
0.25
 41
0.25
  0
LWPOLYLINE
  5
395
100
AcDbEntity
  8
ZUWAKU
  6
CONTINUOUS
 62
      43
100
AcDbPolyline
 90
        2
 70
       0
 43
0.25
 10
-746.83333333
 20
1019.13101302
 40
0.25
 41
0.25
 10
-746.83333333
 20
699.13101302
 40
0.25
 41
0.25
  0
LWPOLYLINE
  5
396
100
AcDbEntity
  8
ZUWAKU
  6
CONTINUOUS
 62
      43
100
AcDbPolyline
 90
        2
 70
       0
 43
0.25
 10
728.66666667
 20
699.13101302
 40
0.25
 41
0.25
 10
-746.83333333
 20
699.13101302
 40
0.25
 41
0.25
  0
LWPOLYLINE
  5
397
100
AcDbEntity
  8
ZUWAKU
  6
CONTINUOUS
 62
       3
100
AcDbPolyline
 90
        2
 70
       0
 43
0.25
 10
-249.83333333
 20
-1146.36898698
 40
0.25
 41
0.25
 10
-754.83333333
 20
-1146.36898698
 40
0.25
 41
0.25
  0
LWPOLYLINE
  5
398
100
AcDbEntity
  8
ZUWAKU
  6
CONTINUOUS
 62
       3
100
AcDbPolyline
 90
        2
 70
       0
 43
0.25
 10
-249.83333333
 20
-1146.36898698
 40
0.25
 41
0.25
 10
-249.83333333
 20
-1067.1198899
 40
0.25
 41
0.25
  0
LWPOLYLINE
  5
399
100
AcDbEntity
  8
ZUWAKU
  6
CONTINUOUS
 62
       3
100
AcDbPolyline
 90
        2
 70
       0
 43
0.25
 10
-754.83333333
 20
-1146.36898698
 40
0.25
 41
0.25
 10
-754.83333333
 20
-1067.1198899
 40
0.25
 41
0.25
  0
LWPOLYLINE
  5
39A
100
AcDbEntity
  8
ZUWAKU
  6
CONTINUOUS
 62
       3
100
AcDbPolyline
 90
        2
 70
       0
 43
0.25
 10
-247.83333333
 20
1129.13101302
 40
0.25
 41
0.25
 10
-247.83333333
 20
1032.63101302
 40
0.25
 41
0.25
  0
LWPOLYLINE
  5
39B
100
AcDbEntity
  8
ZUWAKU
  6
CONTINUOUS
 62
       3
100
AcDbPolyline
 90
        2
 70
       0
 43
0.25
 10
-207.83333333
 20
1129.13101302
 40
0.25
 41
0.25
 10
-207.83333333
 20
1032.63101302
 40
0.25
 41
0.25
  0
LWPOLYLINE
  5
39C
100
AcDbEntity
  8
ZUWAKU
  6
CONTINUOUS
 62
       3
100
AcDbPolyline
 90
        2
 70
       0
 43
0.25
 10
292.66666667
 20
1129.13101302
 40
0.25
 41
0.25
 10
292.66666667
 20
1032.63101302
 40
0.25
 41
0.25
  0
LWPOLYLINE
  5
39D
100
AcDbEntity
  8
ZUWAKU
  6
CONTINUOUS
 62
       3
100
AcDbPolyline
 90
        2
 70
       0
 43
0.25
 10
332.66666667
 20
1129.13101302
 40
0.25
 41
0.25
 10
332.66666667
 20
1032.63101302
 40
0.25
 41
0.25
  0
LWPOLYLINE
  5
39E
100
AcDbEntity
  8
ZUWAKU
  6
CONTINUOUS
 62
       3
100
AcDbPolyline
 90
        2
 70
       0
 43
0.25
 10
673.16666667
 20
1019.13101302
 40
0.25
 41
0.25
 10
673.16666667
 20
699.13101302
 40
0.25
 41
0.25
  0
LWPOLYLINE
  5
39F
100
AcDbEntity
  8
ZUWAKU
  6
CONTINUOUS
 62
       3
100
AcDbPolyline
 90
        2
 70
       0
 43
0.25
 10
300.66666667
 20
1019.13101302
 40
0.25
 41
0.25
 10
300.66666667
 20
699.13101302
 40
0.25
 41
0.25
  0
LWPOLYLINE
  5
3A0
100
AcDbEntity
  8
ZUWAKU
  6
CONTINUOUS
 62
       3
100
AcDbPolyline
 90
        2
 70
       0
 43
0.25
 10
-124.33333333
 20
1019.13101302
 40
0.25
 41
0.25
 10
-124.33333333
 20
699.13101302
 40
0.25
 41
0.25
  0
LWPOLYLINE
  5
3A1
100
AcDbEntity
  8
ZUWAKU
  6
CONTINUOUS
 62
       3
100
AcDbPolyline
 90
        2
 70
       0
 43
0.25
 10
-213.33333333
 20
1019.13101302
 40
0.25
 41
0.25
 10
-213.33333333
 20
699.13101302
 40
0.25
 41
0.25
  0
LWPOLYLINE
  5
3A2
100
AcDbEntity
  8
ZUWAKU
  6
CONTINUOUS
 62
       3
100
AcDbPolyline
 90
        2
 70
       0
 43
0.25
 10
728.66666667
 20
979.13101302
 40
0.25
 41
0.25
 10
-746.83333333
 20
979.13101302
 40
0.25
 41
0.25
  0
LWPOLYLINE
  5
3A3
100
AcDbEntity
  8
ZUWAKU
  6
CONTINUOUS
 62
       3
100
AcDbPolyline
 90
        2
 70
       0
 43
0.25
 10
728.66666667
 20
939.13101302
 40
0.25
 41
0.25
 10
-746.83333333
 20
939.13101302
 40
0.25
 41
0.25
  0
LWPOLYLINE
  5
3A4
100
AcDbEntity
  8
ZUWAKU
  6
CONTINUOUS
 62
       3
100
AcDbPolyline
 90
        2
 70
       0
 43
0.25
 10
728.66666667
 20
899.13101302
 40
0.25
 41
0.25
 10
-746.83333333
 20
899.13101302
 40
0.25
 41
0.25
  0
LWPOLYLINE
  5
3A5
100
AcDbEntity
  8
ZUWAKU
  6
CONTINUOUS
 62
       3
100
AcDbPolyline
 90
        2
 70
       0
 43
0.25
 10
728.66666667
 20
859.13101302
 40
0.25
 41
0.25
 10
-746.83333333
 20
859.13101302
 40
0.25
 41
0.25
  0
LWPOLYLINE
  5
3A6
100
AcDbEntity
  8
ZUWAKU
  6
CONTINUOUS
 62
       3
100
AcDbPolyline
 90
        2
 70
       0
 43
0.25
 10
728.66666667
 20
819.13101302
 40
0.25
 41
0.25
 10
-746.83333333
 20
819.13101302
 40
0.25
 41
0.25
  0
LWPOLYLINE
  5
3A7
100
AcDbEntity
  8
ZUWAKU
  6
CONTINUOUS
 62
       3
100
AcDbPolyline
 90
        2
 70
       0
 43
0.25
 10
728.66666667
 20
779.13101302
 40
0.25
 41
0.25
 10
-746.83333333
 20
779.13101302
 40
0.25
 41
0.25
  0
LWPOLYLINE
  5
3A8
100
AcDbEntity
  8
ZUWAKU
  6
CONTINUOUS
 62
       3
100
AcDbPolyline
 90
        2
 70
       0
 43
0.25
 10
728.66666667
 20
739.13101302
 40
0.25
 41
0.25
 10
-746.83333333
 20
739.13101302
 40
0.25
 41
0.25
  0
TEXT
  5
3A9
100
AcDbEntity
  8
ZUWAKU
 62
       4
100
AcDbText
 10
-593.29545485
 20
1173.17863601
 30
0.0
 40
32.0
  1
06.01.23
 50
180.0
 41
0.8
 72
       5
 11
-798.09545485
 21
1173.17863601
 31
0.0
100
AcDbText
  0
TEXT
  5
3AA
100
AcDbEntity
  8
ZUWAKU
 62
       4
100
AcDbText
 10
312.67062414
 20
1039.4938856
 30
0.0
 40
24.0
  1
品 名
 50
180.0
 41
1.03494498
  7
FDASTYLE1
100
AcDbText
  0
TEXT
  5
3AB
100
AcDbEntity
  8
ZUWAKU
 62
       4
100
AcDbText
 10
-227.34728287
 20
1039.63465735
 30
0.0
 40
24.0
  1
品　番
 50
180.0
 41
1.03494498
  7
FDASTYLE1
100
AcDbText
  0
TEXT
  5
3AC
100
AcDbEntity
  8
ZUWAKU
 62
       4
100
AcDbText
 10
-795.89126799
 20
448.65328497
 30
0.0
 40
32.0
  1
洗面台
 50
90.0
 41
0.8
 72
       5
 11
-795.89126799
 21
525.45328497
 31
0.0
100
AcDbText
  0
TEXT
  5
3AD
100
AcDbEntity
  8
ZUWAKU
 62
       4
100
AcDbText
 10
714.97263731
 20
974.81128023
 30
0.0
 40
32.0
  1
1
 50
180.0
 41
0.8
 72
       5
 11
689.37263731
 21
974.81128023
 31
0.0
100
AcDbText
  0
TEXT
  5
3AE
100
AcDbEntity
  8
ZUWAKU
 62
       4
100
AcDbText
 10
714.97263731
 20
934.81128023
 30
0.0
 40
32.0
  1
2
 50
180.0
 41
0.8
 72
       5
 11
689.37263731
 21
934.81128023
 31
0.0
100
AcDbText
  0
TEXT
  5
3AF
100
AcDbEntity
  8
ZUWAKU
 62
       4
100
AcDbText
 10
714.97263731
 20
894.81128023
 30
0.0
 40
32.0
  1
3
 50
180.0
 41
0.8
 72
       5
 11
689.37263731
 21
894.81128023
 31
0.0
100
AcDbText
  0
TEXT
  5
3B0
100
AcDbEntity
  8
ZUWAKU
 62
       4
100
AcDbText
 10
714.97263731
 20
854.81128023
 30
0.0
 40
32.0
  1
4
 50
180.0
 41
0.8
 72
       5
 11
689.37263731
 21
854.81128023
 31
0.0
100
AcDbText
  0
TEXT
  5
3B1
100
AcDbEntity
  8
ZUWAKU
 62
       4
100
AcDbText
 10
714.97263731
 20
814.81128023
 30
0.0
 40
32.0
  1
5
 50
180.0
 41
0.8
 72
       5
 11
689.37263731
 21
814.81128023
 31
0.0
100
AcDbText
  0
TEXT
  5
3B2
100
AcDbEntity
  8
ZUWAKU
 62
       4
100
AcDbText
 10
714.97263731
 20
774.81128023
 30
0.0
 40
32.0
  1
6
 50
180.0
 41
0.8
 72
       5
 11
689.37263731
 21
774.81128023
 31
0.0
100
AcDbText
  0
TEXT
  5
3B3
100
AcDbEntity
  8
ZUWAKU
 62
       4
100
AcDbText
 10
714.97263731
 20
734.81128023
 30
0.0
 40
32.0
  1
7
 50
180.0
 41
0.8
 72
       5
 11
689.37263731
 21
734.81128023
 31
0.0
100
AcDbText
  0
TEXT
  5
3B4
100
AcDbEntity
  8
ZUWAKU
 62
       4
100
AcDbText
 10
-414.81014293
 20
1014.65341106
 30
0.0
 40
32.0
  1
摘要・仕上
 50
180.0
 41
0.8
 72
       5
 11
-542.81014293
 21
1014.65341106
 31
0.0
100
AcDbText
  0
TEXT
  5
3B5
100
AcDbEntity
  8
ZUWAKU
 62
       4
100
AcDbText
 10
-129.72502368
 20
1014.65341106
 30
0.0
 40
32.0
  1
個　数
 50
180.0
 41
0.8
 72
       5
 11
-206.52502368
 21
1014.65341106
 31
0.0
100
AcDbText
  0
TEXT
  5
3B6
100
AcDbEntity
  8
ZUWAKU
 62
       4
100
AcDbText
 10
139.04225073
 20
1014.65341106
 30
0.0
 40
32.0
  1
材　　質
 50
180.0
 41
0.8
 72
       5
 11
36.64225073
 21
1014.65341106
 31
0.0
100
AcDbText
  0
TEXT
  5
3B7
100
AcDbEntity
  8
ZUWAKU
 62
       4
100
AcDbText
 10
551.18160881
 20
1014.65341106
 30
0.0
 40
32.0
  1
部　品　名
 50
180.0
 41
0.8
 72
       5
 11
423.18160881
 21
1014.65341106
 31
0.0
100
AcDbText
  0
TEXT
  5
3B8
100
AcDbEntity
  8
ZUWAKU
 62
       4
100
AcDbText
 10
727.51851506
 20
1014.65341106
 30
0.0
 40
32.0
  1
部番
 50
180.0
 41
0.8
 72
       5
 11
676.31851506
 21
1014.65341106
 31
0.0
100
AcDbText
  0
POINT
  5
3B9
100
AcDbEntity
  8
ZUWAKU
  6
CONTINUOUS
 62
       9
100
AcDbPoint
 10
-502.33333333
 20
-1106.74443844
 30
0.0
  0
POINT
  5
3BA
100
AcDbEntity
  8
ZUWAKU
  6
CONTINUOUS
 62
       9
100
AcDbPoint
 10
119.38875969
 20
-1106.74443844
 30
0.0
  0
POINT
  5
3BB
100
AcDbEntity
  8
ZUWAKU
  6
CONTINUOUS
 62
       9
100
AcDbPoint
 10
-497.33333333
 20
1080.88101302
 30
0.0
  0
POINT
  5
3BC
100
AcDbEntity
  8
ZUWAKU
  6
CONTINUOUS
 62
       9
100
AcDbPoint
 10
42.41666667
 20
1080.88101302
 30
0.0
  0
LWPOLYLINE
  5
3BD
100
AcDbEntity
  8
ZUWAKU
  6
CONTINUOUS
 62
       9
100
AcDbPolyline
 90
        2
 70
       0
 43
0.25
 10
840.16666667
 20
-1227.83333333
 40
0.25
 41
0.25
 10
840.16666667
 20
-1187.83333333
 40
0.25
 41
0.25
  0
LWPOLYLINE
  5
3BE
100
AcDbEntity
  8
ZUWAKU
  6
CONTINUOUS
 62
       9
100
AcDbPolyline
 90
        2
 70
       0
 43
0.25
 10
840.16666667
 20
-1187.83333333
 40
0.25
 41
0.25
 10
880.16666667
 20
-1187.83333333
 40
0.25
 41
0.25
  0
LWPOLYLINE
  5
3BF
100
AcDbEntity
  8
ZUWAKU
  6
CONTINUOUS
 62
       9
100
AcDbPolyline
 90
        2
 70
       0
 43
0.25
 10
-839.83333333
 20
-1187.83333333
 40
0.25
 41
0.25
 10
-879.83333333
 20
-1187.83333333
 40
0.25
 41
0.25
  0
LWPOLYLINE
  5
3C0
100
AcDbEntity
  8
ZUWAKU
  6
CONTINUOUS
 62
       9
100
AcDbPolyline
 90
        2
 70
       0
 43
0.25
 10
-839.83333333
 20
-1187.83333333
 40
0.25
 41
0.25
 10
-839.83333333
 20
-1227.83333333
 40
0.25
 41
0.25
  0
LWPOLYLINE
  5
3C1
100
AcDbEntity
  8
ZUWAKU
  6
CONTINUOUS
 62
       9
100
AcDbPolyline
 90
        2
 70
       0
 43
0.25
 10
-839.83333333
 20
1228.16666667
 40
0.25
 41
0.25
 10
-839.83333333
 20
1188.16666667
 40
0.25
 41
0.25
  0
LWPOLYLINE
  5
3C2
100
AcDbEntity
  8
ZUWAKU
  6
CONTINUOUS
 62
       9
100
AcDbPolyline
 90
        2
 70
       0
 43
0.25
 10
-839.83333333
 20
1188.16666667
 40
0.25
 41
0.25
 10
-879.83333333
 20
1188.16666667
 40
0.25
 41
0.25
  0
LWPOLYLINE
  5
3C3
100
AcDbEntity
  8
ZUWAKU
  6
CONTINUOUS
 62
       9
100
AcDbPolyline
 90
        2
 70
       0
 43
0.25
 10
880.35165142
 20
1188.16666667
 40
0.25
 41
0.25
 10
840.16666667
 20
1188.16666667
 40
0.25
 41
0.25
  0
LWPOLYLINE
  5
3C4
100
AcDbEntity
  8
ZUWAKU
  6
CONTINUOUS
 62
       9
100
AcDbPolyline
 90
        2
 70
       0
 43
0.25
 10
840.16666667
 20
1188.44275187
 40
0.25
 41
0.25
 10
840.16666667
 20
1228.16623892
 40
0.25
 41
0.25
  0
POINT
  5
3C5
100
AcDbEntity
  8
ZUWAKU
  6
CONTINUOUS
 62
       9
100
AcDbPoint
 10
-168.83333333
 20
959.13101302
 30
0.0
  0
POINT
  5
3C6
100
AcDbEntity
  8
ZUWAKU
  6
CONTINUOUS
 62
       9
100
AcDbPoint
 10
665.16666667
 20
959.13101302
 30
0.0
  0
POINT
  5
3C7
100
AcDbEntity
  8
ZUWAKU
  6
CONTINUOUS
 62
       9
100
AcDbPoint
 10
292.66666667
 20
959.13101302
 30
0.0
  0
POINT
  5
3C8
100
AcDbEntity
  8
ZUWAKU
  6
CONTINUOUS
 62
       9
100
AcDbPoint
 10
-221.33333333
 20
959.13101302
 30
0.0
  0
POINT
  5
3C9
100
AcDbEntity
  8
ZUWAKU
  6
CONTINUOUS
 62
       9
100
AcDbPoint
 10
-168.83333333
 20
919.13101302
 30
0.0
  0
POINT
  5
3CA
100
AcDbEntity
  8
ZUWAKU
  6
CONTINUOUS
 62
       9
100
AcDbPoint
 10
665.16666667
 20
919.13101302
 30
0.0
  0
POINT
  5
3CB
100
AcDbEntity
  8
ZUWAKU
  6
CONTINUOUS
 62
       9
100
AcDbPoint
 10
292.66666667
 20
919.13101302
 30
0.0
  0
POINT
  5
3CC
100
AcDbEntity
  8
ZUWAKU
  6
CONTINUOUS
 62
       9
100
AcDbPoint
 10
-221.33333333
 20
919.13101302
 30
0.0
  0
POINT
  5
3CD
100
AcDbEntity
  8
ZUWAKU
  6
CONTINUOUS
 62
       9
100
AcDbPoint
 10
-168.83333333
 20
879.13101302
 30
0.0
  0
POINT
  5
3CE
100
AcDbEntity
  8
ZUWAKU
  6
CONTINUOUS
 62
       9
100
AcDbPoint
 10
665.16666667
 20
879.13101302
 30
0.0
  0
POINT
  5
3CF
100
AcDbEntity
  8
ZUWAKU
  6
CONTINUOUS
 62
       9
100
AcDbPoint
 10
292.66666667
 20
879.13101302
 30
0.0
  0
POINT
  5
3D0
100
AcDbEntity
  8
ZUWAKU
  6
CONTINUOUS
 62
       9
100
AcDbPoint
 10
-221.33333333
 20
879.13101302
 30
0.0
  0
POINT
  5
3D1
100
AcDbEntity
  8
ZUWAKU
  6
CONTINUOUS
 62
       9
100
AcDbPoint
 10
-168.83333333
 20
839.13101302
 30
0.0
  0
POINT
  5
3D2
100
AcDbEntity
  8
ZUWAKU
  6
CONTINUOUS
 62
       9
100
AcDbPoint
 10
665.16666667
 20
839.13101302
 30
0.0
  0
POINT
  5
3D3
100
AcDbEntity
  8
ZUWAKU
  6
CONTINUOUS
 62
       9
100
AcDbPoint
 10
292.66666667
 20
839.13101302
 30
0.0
  0
POINT
  5
3D4
100
AcDbEntity
  8
ZUWAKU
  6
CONTINUOUS
 62
       9
100
AcDbPoint
 10
-221.33333333
 20
839.13101302
 30
0.0
  0
POINT
  5
3D5
100
AcDbEntity
  8
ZUWAKU
  6
CONTINUOUS
 62
       9
100
AcDbPoint
 10
-168.83333333
 20
799.13101302
 30
0.0
  0
POINT
  5
3D6
100
AcDbEntity
  8
ZUWAKU
  6
CONTINUOUS
 62
       9
100
AcDbPoint
 10
665.16666667
 20
799.13101302
 30
0.0
  0
POINT
  5
3D7
100
AcDbEntity
  8
ZUWAKU
  6
CONTINUOUS
 62
       9
100
AcDbPoint
 10
292.66666667
 20
799.13101302
 30
0.0
  0
POINT
  5
3D8
100
AcDbEntity
  8
ZUWAKU
  6
CONTINUOUS
 62
       9
100
AcDbPoint
 10
-221.33333333
 20
799.13101302
 30
0.0
  0
POINT
  5
3D9
100
AcDbEntity
  8
ZUWAKU
  6
CONTINUOUS
 62
       9
100
AcDbPoint
 10
-168.83333333
 20
759.13101302
 30
0.0
  0
POINT
  5
3DA
100
AcDbEntity
  8
ZUWAKU
  6
CONTINUOUS
 62
       9
100
AcDbPoint
 10
665.16666667
 20
759.13101302
 30
0.0
  0
POINT
  5
3DB
100
AcDbEntity
  8
ZUWAKU
  6
CONTINUOUS
 62
       9
100
AcDbPoint
 10
292.66666667
 20
759.13101302
 30
0.0
  0
POINT
  5
3DC
100
AcDbEntity
  8
ZUWAKU
  6
CONTINUOUS
 62
       9
100
AcDbPoint
 10
-221.33333333
 20
759.13101302
 30
0.0
  0
POINT
  5
3DD
100
AcDbEntity
  8
ZUWAKU
  6
CONTINUOUS
 62
       9
100
AcDbPoint
 10
-168.83333333
 20
719.13101302
 30
0.0
  0
POINT
  5
3DE
100
AcDbEntity
  8
ZUWAKU
  6
CONTINUOUS
 62
       9
100
AcDbPoint
 10
665.16666667
 20
719.13101302
 30
0.0
  0
POINT
  5
3DF
100
AcDbEntity
  8
ZUWAKU
  6
CONTINUOUS
 62
       9
100
AcDbPoint
 10
292.66666667
 20
719.13101302
 30
0.0
  0
POINT
  5
3E0
100
AcDbEntity
  8
ZUWAKU
  6
CONTINUOUS
 62
       9
100
AcDbPoint
 10
-221.33333333
 20
719.13101302
 30
0.0
  0
TEXT
  5
3E1
100
AcDbEntity
  8
LAYER0240
 62
       7
100
AcDbText
 10
-382.13333333
 20
1096.88101302
 30
0.0
 40
32.0
  1
7313.53.01
 50
180.0
 41
0.8
 72
       5
 11
-638.13333333
 21
1096.88101302
 31
0.0
100
AcDbText
  0
TEXT
  5
3E2
100
AcDbEntity
  8
LAYER0240
 62
       7
100
AcDbText
 10
282.41666667
 20
1096.88101302
 30
0.0
 40
32.0
  1
ビレロイ＆ボッホ　壁付手洗器　PURE　BASIC
 50
180.0
 41
0.6
 72
       5
 11
-197.58333333
 21
1096.88101302
 31
0.0
100
AcDbText
  0
TEXT
  5
3E3
100
AcDbEntity
  8
LAYER0240
 62
       7
100
AcDbText
 10
439.38875969
 20
-1090.74443844
 30
0.0
 40
32.0
  1
ビレロイ＆ボッホ　壁付手洗器　PURE　BASIC
 50
180.0
 41
0.8
 72
       5
 11
-200.61124031
 21
-1090.74443844
 31
0.0
100
AcDbText
  0
TEXT
  5
3E4
100
AcDbEntity
  8
LAYER0240
 62
       7
100
AcDbText
 10
-382.13333333
 20
-1089.91356169
 30
0.0
 40
32.0
  1
7313.53.01
 50
180.0
 41
0.8
 72
       5
 11
-638.13333333
 21
-1089.91356169
 31
0.0
100
AcDbText
  0
TEXT
  5
3E5
100
AcDbEntity
  8
LAYER0240
 62
       7
100
AcDbText
 10
-459.47414217
 20
507.88254146
 30
0.0
 40
32.0
  1
重量　12ｋｇ
 50
180.0
 41
0.8
 72
       5
 11
-638.67414217
 21
507.88254146
 31
0.0
100
AcDbText
  0
TEXT
  5
3E6
100
AcDbEntity
  8
LAYER0240
 62
       7
100
AcDbText
 10
-459.47414217
 20
547.88254146
 30
0.0
 40
32.0
  1
容量　4.2L
 50
180.0
 41
0.8
 72
       5
 11
-638.67414217
 21
547.88254146
 31
0.0
100
AcDbText
  0
TEXT
  5
3E7
100
AcDbEntity
  8
LAYER0240
 62
       7
100
AcDbText
 10
665.16666667
 20
975.13101302
 30
0.0
 40
32.0
  1
手洗器本体
 50
180.0
 41
0.8
 72
       5
 11
537.16666667
 21
975.13101302
 31
0.0
100
AcDbText
  0
TEXT
  5
3E8
100
AcDbEntity
  8
LAYER0240
 62
       7
100
AcDbText
 10
292.66666667
 20
975.13101302
 30
0.0
 40
32.0
  1
陶器
 50
180.0
 41
0.8
 72
       5
 11
241.46666667
 21
975.13101302
 31
0.0
100
AcDbText
  0
TEXT
  5
3E9
100
AcDbEntity
  8
LAYER0240
 62
       7
100
AcDbText
 10
-156.03333333
 20
975.13101302
 30
0.0
 40
32.0
  1
１
 50
180.0
 41
0.8
 72
       5
 11
-181.63333333
 21
975.13101302
 31
0.0
100
AcDbText
  0
TEXT
  5
3EA
100
AcDbEntity
  8
LAYER0240
 62
       7
100
AcDbText
 10
665.16666667
 20
935.13101302
 30
0.0
 40
32.0
  1
固定金具
 50
180.0
 41
0.8
 72
       5
 11
562.76666667
 21
935.13101302
 31
0.0
100
AcDbText
  0
TEXT
  5
3EB
100
AcDbEntity
  8
LAYER0240
 62
       7
100
AcDbText
 10
-117.63333333
 20
935.13101302
 30
0.0
 40
32.0
  1
1set
 50
180.0
 41
0.8
 72
       5
 11
-220.03333333
 21
935.13101302
 31
0.0
100
AcDbText
  0
TEXT
  5
3EC
100
AcDbEntity
  8
LAYER0240
 62
       7
100
AcDbText
 10
292.66666667
 20
935.13101302
 30
0.0
 40
32.0
  1
―
 50
180.0
 41
0.8
 72
       5
 11
267.06666667
 21
935.13101302
 31
0.0
100
AcDbText
  0
TEXT
  5
3ED
100
AcDbEntity
  8
LAYER0240
 62
       4
100
AcDbText
 10
664.79423396
 20
553.25275746
 30
0.0
 40
32.0
  1
　　　現物あわせにて取付けをお願いします。
 50
180.0
 41
0.8
 72
       5
 11
127.19423396
 21
553.25275746
 31
0.0
100
AcDbText
  0
TEXT
  5
3EE
100
AcDbEntity
  8
LAYER0240
 62
       4
100
AcDbText
 10
637.7857133
 20
510.05624607
 30
0.0
 40
32.0
  1
※、本製品は陶磁器のため、出来上がりに多少の寸法誤差が生じる場合があります。
 50
180.0
 41
0.8
 72
       5
 11
-335.0142867
 21
510.05624607
 31
0.0
100
AcDbText
  0
TEXT
  5
3EF
100
AcDbEntity
  8
LAYER0240
 62
       4
100
AcDbText
 10
-220.03333333
 20
935.13101302
 30
0.0
 40
32.0
  1
フィッシャー　M10X120
 50
180.0
 41
0.8
 72
       5
 11
-578.43333333
 21
935.13101302
 31
0.0
100
AcDbText
  0
TEXT
  5
3F0
100
AcDbEntity
  8
LAYER0240
 62
       4
100
AcDbText
 10
637.7857133
 20
596.45624607
 30
0.0
 40
32.0
  1
※、オーバーフロー無し
 50
180.0
 41
0.8
 72
       5
 11
356.1857133
 21
596.45624607
 31
0.0
100
AcDbText
  0
LWPOLYLINE
  5
3F1
100
AcDbEntity
  8
LAYER0240
  6
CONTINUOUS
 62
       9
100
AcDbPolyline
 90
        2
 70
       0
 43
0.25
 10
642.0945668
 20
515.32841831
 40
0.25
 41
0.25
 10
-330.74322415
 20
515.32841831
 40
0.25
 41
0.25
  0
LWPOLYLINE
  5
3F2
100
AcDbEntity
  8
LAYER0240
  6
CONTINUOUS
 62
       9
100
AcDbPolyline
 90
        2
 70
       0
 43
0.25
 10
642.0945668
 20
558.49086483
 40
0.25
 41
0.25
 10
127.11550703
 20
558.49086483
 40
0.25
 41
0.25
  0
LWPOLYLINE
  5
3F3
100
AcDbEntity
  8
LAYER0240
  6
CONTINUOUS
 62
       9
100
AcDbPolyline
 90
        2
 70
       0
 43
0.25
 10
642.0945668
 20
601.72841831
 40
0.25
 41
0.25
 10
333.73872832
 20
601.72841831
 40
0.25
 41
0.25
  0
LWPOLYLINE
  5
3F4
100
AcDbEntity
  8
0
  6
CENTER
 62
       9
100
AcDbPolyline
 90
        2
 70
       0
 43
0.25
 10
132.36842105
 20
26.41829666
 40
0.25
 41
0.25
 10
132.36842105
 20
252.53294532
 40
0.25
 41
0.25
  0
LWPOLYLINE
  5
3F5
100
AcDbEntity
  8
0
  6
CENTER
 62
       9
100
AcDbPolyline
 90
        2
 70
       0
 43
0.25
 10
132.36842105
 20
-589.61005493
 40
0.25
 41
0.25
 10
132.36842105
 20
-448.65918468
 40
0.25
 41
0.25
  0
LWPOLYLINE
  5
3F6
100
AcDbEntity
  8
0
  6
CENTER
 62
       9
100
AcDbPolyline
 90
        2
 70
       0
 43
0.25
 10
214.02197402
 20
-520.42763084
 40
0.25
 41
0.25
 10
47.95916712
 20
-520.42763084
 40
0.25
 41
0.25
  0
LWPOLYLINE
  5
3F7
100
AcDbEntity
  8
0
  6
CENTER
 62
       9
100
AcDbPolyline
 90
        2
 70
       0
 43
0.25
 10
-41.95776735
 20
-540.42763084
 40
0.25
 41
0.25
 10
-94.61182808
 20
-540.42763084
 40
0.25
 41
0.25
  0
LWPOLYLINE
  5
3F8
100
AcDbEntity
  8
0
  6
CENTER
 62
       9
100
AcDbPolyline
 90
        2
 70
       0
 43
0.25
 10
-68.13157895
 20
-570.43142933
 40
0.25
 41
0.25
 10
-68.13157895
 20
-506.43649399
 40
0.25
 41
0.25
  0
LWPOLYLINE
  5
3F9
100
AcDbEntity
  8
0
  6
CENTER
 62
       9
100
AcDbPolyline
 90
        2
 70
       0
 43
0.25
 10
-68.13157895
 20
28.99962935
 40
0.25
 41
0.25
 10
-68.13157895
 20
87.44119579
 40
0.25
 41
0.25
  0
LWPOLYLINE
  5
3FA
100
AcDbEntity
  8
0
  6
CENTER
 62
       9
100
AcDbPolyline
 90
        2
 70
       0
 43
0.25
 10
-41.36560153
 20
123.62384632
 40
0.25
 41
0.25
 10
-89.41028481
 20
123.62384632
 40
0.25
 41
0.25
  0
LWPOLYLINE
  5
3FB
100
AcDbEntity
  8
0
  6
CENTER
 62
       9
100
AcDbPolyline
 90
        2
 70
       0
 43
0.25
 10
350.99931189
 20
123.62384632
 40
0.25
 41
0.25
 10
305.95742132
 20
123.62384632
 40
0.25
 41
0.25
  0
LWPOLYLINE
  5
3FC
100
AcDbEntity
  8
0
  6
CENTER
 62
       9
100
AcDbPolyline
 90
        2
 70
       0
 43
0.25
 10
-62.63157895
 20
97.57562117
 40
0.25
 41
0.25
 10
-62.63157895
 20
148.24774806
 40
0.25
 41
0.25
  0
LWPOLYLINE
  5
3FD
100
AcDbEntity
  8
0
  6
CENTER
 62
       9
100
AcDbPolyline
 90
        2
 70
       0
 43
0.25
 10
327.36842105
 20
97.57562117
 40
0.25
 41
0.25
 10
327.36842105
 20
148.24774806
 40
0.25
 41
0.25
  0
LWPOLYLINE
  5
3FE
100
AcDbEntity
  8
0
  6
CENTER
 62
       9
100
AcDbPolyline
 90
        2
 70
       0
 43
0.25
 10
-62.63157895
 20
-599.704301
 40
0.25
 41
0.25
 10
-62.63157895
 20
-657.19291455
 40
0.25
 41
0.25
  0
LWPOLYLINE
  5
3FF
100
AcDbEntity
  8
0
  6
CENTER
 62
       9
100
AcDbPolyline
 90
        2
 70
       0
 43
0.25
 10
327.36842105
 20
-599.704301
 40
0.25
 41
0.25
 10
327.36842105
 20
-657.19291455
 40
0.25
 41
0.25
  0
LWPOLYLINE
  5
400
100
AcDbEntity
  8
0
  6
CENTER
 62
       9
100
AcDbPolyline
 90
        2
 70
       0
 43
0.25
 10
-491.69900134
 20
-2.01432805
 40
0.25
 41
0.25
 10
-491.69900134
 20
252.53294532
 40
0.25
 41
0.25
  0
LWPOLYLINE
  5
401
100
AcDbEntity
  8
0
  6
CENTER
 62
       9
100
AcDbPolyline
 90
        2
 70
       0
 43
0.25
 10
-511.69900134
 20
-7.54996528
 40
0.25
 41
0.25
 10
-511.69900134
 20
99.51278511
 40
0.25
 41
0.25
  0
LWPOLYLINE
  5
402
100
AcDbEntity
  8
0
  6
CENTER
 62
       9
100
AcDbPolyline
 90
        2
 70
       0
 43
0.25
 10
-558.36756582
 20
120.62384632
 40
0.25
 41
0.25
 10
-628.30074762
 20
120.62384632
 40
0.25
 41
0.25
  0
LWPOLYLINE
  5
403
100
AcDbEntity
  8
0
  6
CONTINUOUS
 62
       9
100
AcDbPolyline
 90
        2
 70
       0
 43
0.25
 10
41.89561976
 20
-568.42763084
 40
0.25
 41
0.25
 10
222.04548835
 20
-568.42763084
 40
0.25
 41
0.25
  0
LWPOLYLINE
  5
404
100
AcDbEntity
  8
0
  6
CONTINUOUS
 62
       9
100
AcDbPolyline
 90
        2
 70
       0
 43
0.25
 10
222.04548835
 20
-458.42763084
 40
0.25
 41
0.25
 10
42.64876244
 20
-458.42763084
 40
0.25
 41
0.25
  0
LWPOLYLINE
  5
405
100
AcDbEntity
  8
0
  6
CONTINUOUS
 62
       9
100
AcDbPolyline
 90
        2
 70
       0
 43
0.25
 10
37.36842105
 20
-464.06919093
 40
0.25
 41
0.25
 10
37.36842105
 20
-563.48402422
 40
0.25
 41
0.25
  0
LWPOLYLINE
  5
406
100
AcDbEntity
  8
0
  6
CONTINUOUS
 62
       9
100
AcDbPolyline
 90
        2
 70
       0
 43
0.25
 10
227.36842105
 20
-464.06919093
 40
0.25
 41
0.25
 10
227.36842105
 20
-563.48402422
 40
0.25
 41
0.25
  0
LWPOLYLINE
  5
407
100
AcDbEntity
  8
0
  6
CONTINUOUS
 62
       9
100
AcDbPolyline
 90
        2
 70
       0
 43
0.25
 10
35.29794502
 20
-456.35715481
 40
0.25
 41
0.25
 10
-32.63157895
 20
-388.42763084
 40
0.25
 41
0.25
  0
LWPOLYLINE
  5
408
100
AcDbEntity
  8
0
  6
CONTINUOUS
 62
       9
100
AcDbPolyline
 90
        2
 70
       0
 43
0.25
 10
31.85783394
 20
-569.52974826
 40
0.25
 41
0.25
 10
-26.99350725
 20
-581.3000165
 40
0.25
 41
0.25
  0
LWPOLYLINE
  5
409
100
AcDbEntity
  8
0
  6
CONTINUOUS
 62
       9
100
AcDbPolyline
 90
        2
 70
       0
 43
0.25
 10
229.43889708
 20
-456.35715481
 40
0.25
 41
0.25
 10
297.36842105
 20
-388.42763084
 40
0.25
 41
0.25
  0
LWPOLYLINE
  5
40A
100
AcDbEntity
  8
0
  6
CONTINUOUS
 62
       9
100
AcDbPolyline
 90
        2
 70
       0
 43
0.25
 10
232.87900817
 20
-569.52974826
 40
0.25
 41
0.25
 10
291.73034936
 20
-581.3000165
 40
0.25
 41
0.25
  0
LWPOLYLINE
  5
40B
100
AcDbEntity
  8
0
  6
CONTINUOUS
 62
       9
100
AcDbPolyline
 90
        2
 70
       0
 43
0.25
 10
-55.19219602
 20
-552.20992135
 40
0.25
 41
0.25
 10
-81.07096187
 20
-528.64534034
 40
0.25
 41
0.25
  0
LWPOLYLINE
  5
40C
100
AcDbEntity
  8
0
  6
CONTINUOUS
 62
       9
100
AcDbPolyline
 90
        2
 70
       0
 43
0.25
 10
116.82475641
 20
-489.06850953
 40
0.25
 41
0.25
 10
147.9120857
 20
-551.78675215
 40
0.25
 41
0.25
  0
LWPOLYLINE
  5
40D
100
AcDbEntity
  8
0
  6
CONTINUOUS
 62
       9
100
AcDbPolyline
 90
        2
 70
       0
 43
0.25
 10
139.35333848
 20
-496.4232369
 40
0.25
 41
0.25
 10
125.38350363
 20
-544.43202478
 40
0.25
 41
0.25
  0
LWPOLYLINE
  5
40E
100
AcDbEntity
  8
0
  6
CONTINUOUS
 62
       9
100
AcDbPolyline
 90
        2
 70
       0
 43
0.25
 10
405.86842105
 20
199.62384632
 40
0.25
 41
0.25
 10
496.89766924
 20
199.62384632
 40
0.25
 41
0.25
  0
LWPOLYLINE
  5
40F
100
AcDbEntity
  8
0
  6
CONTINUOUS
 62
       9
100
AcDbPolyline
 90
        2
 70
       0
 43
0.25
 10
397.86842105
 20
73.62384632
 40
0.25
 41
0.25
 10
496.89766924
 20
73.62384632
 40
0.25
 41
0.25
  0
LWPOLYLINE
  5
410
100
AcDbEntity
  8
0
  6
CONTINUOUS
 62
       9
100
AcDbPolyline
 90
        2
 70
       0
 43
0.25
 10
327.36842105
 20
89.57562117
 40
0.25
 41
0.25
 10
327.36842105
 20
-25.30369923
 40
0.25
 41
0.25
  0
LWPOLYLINE
  5
411
100
AcDbEntity
  8
0
  6
CONTINUOUS
 62
       9
100
AcDbPolyline
 90
        2
 70
       0
 43
0.25
 10
-62.63157895
 20
89.57562117
 40
0.25
 41
0.25
 10
-62.63157895
 20
-25.30369923
 40
0.25
 41
0.25
  0
LWPOLYLINE
  5
412
100
AcDbEntity
  8
0
  6
CONTINUOUS
 62
       9
100
AcDbPolyline
 90
        2
 70
       0
 43
0.25
 10
-198.94736842
 20
123.62384632
 40
0.25
 41
0.25
 10
-198.94736842
 20
73.62384632
 40
0.25
 41
0.25
  0
LWPOLYLINE
  5
413
100
AcDbEntity
  8
0
  6
CONTINUOUS
 62
       9
100
AcDbPolyline
 90
        2
 70
       0
 43
0.25
 10
-97.41028481
 20
123.62384632
 40
0.25
 41
0.25
 10
-206.94736842
 20
123.62384632
 40
0.25
 41
0.25
  0
LWPOLYLINE
  5
414
100
AcDbEntity
  8
0
  6
CONTINUOUS
 62
       9
100
AcDbPolyline
 90
        2
 70
       0
 43
0.25
 10
-133.13157895
 20
73.62384632
 40
0.25
 41
0.25
 10
-206.94736842
 20
73.62384632
 40
0.25
 41
0.25
  0
LWPOLYLINE
  5
415
100
AcDbEntity
  8
0
  6
CONTINUOUS
 62
       9
100
AcDbPolyline
 90
        2
 70
       0
 43
0.25
 10
-273.34697604
 20
-540.42763084
 40
0.25
 41
0.25
 10
-273.34697604
 20
-618.42763084
 40
0.25
 41
0.25
  0
LWPOLYLINE
  5
416
100
AcDbEntity
  8
0
  6
CONTINUOUS
 62
       9
100
AcDbPolyline
 90
        2
 70
       0
 43
0.25
 10
-102.61182808
 20
-540.42763084
 40
0.25
 41
0.25
 10
-281.34697604
 20
-540.42763084
 40
0.25
 41
0.25
  0
LWPOLYLINE
  5
417
100
AcDbEntity
  8
0
  6
CONTINUOUS
 62
       9
100
AcDbPolyline
 90
        2
 70
       0
 43
0.25
 10
-133.13157895
 20
-618.42763084
 40
0.25
 41
0.25
 10
-281.34697604
 20
-618.42763084
 40
0.25
 41
0.25
  0
LWPOLYLINE
  5
418
100
AcDbEntity
  8
0
  6
CONTINUOUS
 62
       9
100
AcDbPolyline
 90
        2
 70
       0
 43
0.25
 10
-68.13157895
 20
-578.43142933
 40
0.25
 41
0.25
 10
-68.13157895
 20
-701.5054516
 40
0.25
 41
0.25
  0
LWPOLYLINE
  5
419
100
AcDbEntity
  8
0
  6
CONTINUOUS
 62
       9
100
AcDbPolyline
 90
        2
 70
       0
 43
0.25
 10
-130.13157895
 20
-621.42763084
 40
0.25
 41
0.25
 10
-130.13157895
 20
-701.5054516
 40
0.25
 41
0.25
  0
LWPOLYLINE
  5
41A
100
AcDbEntity
  8
0
  6
CONTINUOUS
 62
       9
100
AcDbPolyline
 90
        2
 70
       0
 43
0.25
 10
394.86842105
 20
70.62384632
 40
0.25
 41
0.25
 10
394.86842105
 20
-99.10283561
 40
0.25
 41
0.25
  0
LWPOLYLINE
  5
41B
100
AcDbEntity
  8
0
  6
CONTINUOUS
 62
       9
100
AcDbPolyline
 90
        2
 70
       0
 43
0.25
 10
-130.13157895
 20
70.62384632
 40
0.25
 41
0.25
 10
-130.13157895
 20
-99.10283561
 40
0.25
 41
0.25
  0
LWPOLYLINE
  5
41C
100
AcDbEntity
  8
0
  6
CONTINUOUS
 62
       9
100
AcDbPolyline
 90
        2
 70
       0
 43
0.25
 10
558.94736842
 20
-368.42763084
 40
0.25
 41
0.25
 10
558.94736842
 20
-383.42763084
 40
0.25
 41
0.25
  0
LWPOLYLINE
  5
41D
100
AcDbEntity
  8
0
  6
CONTINUOUS
 62
       9
100
AcDbPolyline
 90
        2
 70
       0
 43
0.25
 10
397.86842105
 20
-368.42763084
 40
0.25
 41
0.25
 10
566.94736842
 20
-368.42763084
 40
0.25
 41
0.25
  0
LWPOLYLINE
  5
41E
100
AcDbEntity
  8
0
  6
CONTINUOUS
 62
       9
100
AcDbPolyline
 90
        2
 70
       0
 43
0.25
 10
305.36842105
 20
-383.42763084
 40
0.25
 41
0.25
 10
566.94736842
 20
-383.42763084
 40
0.25
 41
0.25
  0
LWPOLYLINE
  5
41F
100
AcDbEntity
  8
0
  6
CONTINUOUS
 62
       9
100
AcDbPolyline
 90
        2
 70
       0
 43
0.25
 10
305.36842105
 20
-583.42763084
 40
0.25
 41
0.25
 10
566.94736842
 20
-583.42763084
 40
0.25
 41
0.25
  0
LWPOLYLINE
  5
420
100
AcDbEntity
  8
0
  6
CONTINUOUS
 62
       9
100
AcDbPolyline
 90
        2
 70
       0
 43
0.25
 10
397.86842105
 20
-368.42763084
 40
0.25
 41
0.25
 10
636.42105263
 20
-368.42763084
 40
0.25
 41
0.25
  0
LWPOLYLINE
  5
421
100
AcDbEntity
  8
0
  6
CONTINUOUS
 62
       9
100
AcDbPolyline
 90
        2
 70
       0
 43
0.25
 10
397.86842105
 20
-618.42763084
 40
0.25
 41
0.25
 10
636.42105263
 20
-618.42763084
 40
0.25
 41
0.25
  0
LWPOLYLINE
  5
422
100
AcDbEntity
  8
0
  6
CONTINUOUS
 62
       9
100
AcDbPolyline
 90
        2
 70
       0
 43
0.25
 10
124.36842105
 20
216.62384632
 40
0.25
 41
0.25
 10
-281.34697604
 20
216.62384632
 40
0.25
 41
0.25
  0
LWPOLYLINE
  5
423
100
AcDbEntity
  8
0
  6
CONTINUOUS
 62
       9
100
AcDbPolyline
 90
        2
 70
       0
 43
0.25
 10
124.36842105
 20
73.62384632
 40
0.25
 41
0.25
 10
-281.34697604
 20
73.62384632
 40
0.25
 41
0.25
  0
LWPOLYLINE
  5
424
100
AcDbEntity
  8
0
  6
CONTINUOUS
 62
       9
100
AcDbPolyline
 90
        2
 70
       0
 43
0.25
 10
302.36842105
 20
-380.42763084
 40
0.25
 41
0.25
 10
302.36842105
 20
-276.11596152
 40
0.25
 41
0.25
  0
LWPOLYLINE
  5
425
100
AcDbEntity
  8
0
  6
CONTINUOUS
 62
       9
100
AcDbPolyline
 90
        2
 70
       0
 43
0.25
 10
-37.63157895
 20
-380.42763084
 40
0.25
 41
0.25
 10
-37.63157895
 20
-276.11596152
 40
0.25
 41
0.25
  0
LWPOLYLINE
  5
426
100
AcDbEntity
  8
0
  6
CONTINUOUS
 62
       9
100
AcDbPolyline
 90
        2
 70
       0
 43
0.25
 10
496.89766924
 20
-520.42763084
 40
0.25
 41
0.25
 10
496.89766924
 20
-618.42763084
 40
0.25
 41
0.25
  0
LWPOLYLINE
  5
427
100
AcDbEntity
  8
0
  6
CONTINUOUS
 62
       9
100
AcDbPolyline
 90
        2
 70
       0
 43
0.25
 10
222.02197402
 20
-520.42763084
 40
0.25
 41
0.25
 10
504.89766924
 20
-520.42763084
 40
0.25
 41
0.25
  0
LWPOLYLINE
  5
428
100
AcDbEntity
  8
0
  6
CONTINUOUS
 62
       9
100
AcDbPolyline
 90
        2
 70
       0
 43
0.25
 10
124.36842105
 20
183.62384632
 40
0.25
 41
0.25
 10
52.61365212
 20
183.62384632
 40
0.25
 41
0.25
  0
LWPOLYLINE
  5
429
100
AcDbEntity
  8
0
  6
CONTINUOUS
 62
       9
100
AcDbPolyline
 90
        2
 70
       0
 43
0.25
 10
124.36842105
 20
73.62384632
 40
0.25
 41
0.25
 10
52.61365212
 20
73.62384632
 40
0.25
 41
0.25
  0
LWPOLYLINE
  5
42A
100
AcDbEntity
  8
0
  6
CONTINUOUS
 62
       9
100
AcDbPolyline
 90
        2
 70
       0
 43
0.25
 10
-533.89857309
 20
205.62384632
 40
0.25
 41
0.25
 10
-735.47368421
 20
205.62384632
 40
0.25
 41
0.25
  0
LWPOLYLINE
  5
42B
100
AcDbEntity
  8
0
  6
CONTINUOUS
 62
       9
100
AcDbPolyline
 90
        2
 70
       0
 43
0.25
 10
-590.69900134
 20
196.62384632
 40
0.25
 41
0.25
 10
-735.47368421
 20
196.62384632
 40
0.25
 41
0.25
  0
LWPOLYLINE
  5
42C
100
AcDbEntity
  8
0
  6
CONTINUOUS
 62
       9
100
AcDbPolyline
 90
        2
 70
       0
 43
0.25
 10
-729.47368421
 20
205.62384632
 40
0.25
 41
0.25
 10
-729.47368421
 20
196.62384632
 40
0.25
 41
0.25
  0
LWPOLYLINE
  5
42D
100
AcDbEntity
  8
0
  6
CONTINUOUS
 62
       9
100
AcDbPolyline
 90
        2
 70
       0
 43
0.25
 10
-590.69900134
 20
70.62384632
 40
0.25
 41
0.25
 10
-735.47368421
 20
70.62384632
 40
0.25
 41
0.25
  0
LWPOLYLINE
  5
42E
100
AcDbEntity
  8
0
  6
CONTINUOUS
 62
       9
100
AcDbPolyline
 90
        2
 70
       0
 43
0.25
 10
-349.04848366
 20
325.26315789
 40
0.25
 41
0.25
 10
-374.9728328
 20
325.26315789
 40
0.25
 41
0.25
  0
LWPOLYLINE
  5
42F
100
AcDbEntity
  8
0
  6
CONTINUOUS
 62
       9
100
AcDbPolyline
 90
        2
 70
       0
 43
0.25
 10
-349.04848366
 20
210.3214434
 40
0.25
 41
0.25
 10
-349.04848366
 20
333.26315789
 40
0.25
 41
0.25
  0
LWPOLYLINE
  5
430
100
AcDbEntity
  8
0
  6
CONTINUOUS
 62
       9
100
AcDbPolyline
 90
        2
 70
       0
 43
0.25
 10
-374.9728328
 20
209.62384632
 40
0.25
 41
0.25
 10
-374.9728328
 20
333.26315789
 40
0.25
 41
0.25
  0
LWPOLYLINE
  5
431
100
AcDbEntity
  8
0
  6
CONTINUOUS
 62
       9
100
AcDbPolyline
 90
        2
 70
       0
 43
0.25
 10
-206.72509623
 20
-414.2277114
 40
0.25
 41
0.25
 10
-98.21175605
 20
-513.03734591
 40
0.25
 41
0.25
  0
INSERT
  5
432
100
AcDbEntity
  8
0
  6
CONTINUOUS
 62
       9
100
AcDbBlockReference
  2
_OPEN30
 10
-81.07096187
 20
-528.64534034
 30
0.0
 41
24.0000223
 42
23.99991419
 50
317.6797605
  0
LWPOLYLINE
  5
433
100
AcDbEntity
  8
0
  6
CONTINUOUS
 62
       9
100
AcDbPolyline
 90
        2
 70
       0
 43
0.25
 10
-25.61646362
 20
-579.14087107
 40
0.25
 41
0.25
 10
-38.05140184
 20
-567.81791577
 40
0.25
 41
0.25
  0
INSERT
  5
434
100
AcDbEntity
  8
0
  6
CONTINUOUS
 62
       9
100
AcDbBlockReference
  2
_OPEN30
 10
-55.19219602
 20
-552.20992135
 30
0.0
 41
24.0000223
 42
23.99991419
 50
137.6797605
  0
LWPOLYLINE
  5
435
100
AcDbEntity
  8
0
  6
CONTINUOUS
 62
       9
100
AcDbPolyline
 90
        2
 70
       0
 43
0.25
 10
232.005515
 20
-721.44404414
 40
0.25
 41
0.25
 10
158.20742814
 20
-572.55745842
 40
0.25
 41
0.25
  0
INSERT
  5
436
100
AcDbEntity
  8
0
  6
CONTINUOUS
 62
       9
100
AcDbBlockReference
  2
_OPEN30
 10
147.9120857
 20
-551.78675215
 30
0.0
 41
24.0000223
 42
23.99991419
 50
116.36607221
  0
LWPOLYLINE
  5
437
100
AcDbEntity
  8
0
  6
CONTINUOUS
 62
       9
100
AcDbPolyline
 90
        2
 70
       0
 43
0.25
 10
99.06056825
 20
-453.22951374
 40
0.25
 41
0.25
 10
106.52941396
 20
-468.29780326
 40
0.25
 41
0.25
  0
INSERT
  5
438
100
AcDbEntity
  8
0
  6
CONTINUOUS
 62
       9
100
AcDbBlockReference
  2
_OPEN30
 10
116.82475641
 20
-489.06850953
 30
0.0
 41
24.0000223
 42
23.99991419
 50
296.36607221
  0
LWPOLYLINE
  5
439
100
AcDbEntity
  8
0
  6
CONTINUOUS
 62
       9
100
AcDbPolyline
 90
        2
 70
       0
 43
0.25
 10
71.20334989
 20
-730.62774839
 40
0.25
 41
0.25
 10
118.90646196
 20
-566.69105096
 40
0.25
 41
0.25
  0
INSERT
  5
43A
100
AcDbEntity
  8
0
  6
CONTINUOUS
 62
       9
100
AcDbBlockReference
  2
_OPEN30
 10
125.38350363
 20
-544.43202478
 30
0.0
 41
24.0000223
 42
23.99991419
 50
73.77579899
  0
LWPOLYLINE
  5
43B
100
AcDbEntity
  8
0
  6
CONTINUOUS
 62
       9
100
AcDbPolyline
 90
        2
 70
       0
 43
0.25
 10
150.52920636
 20
-458.01620659
 40
0.25
 41
0.25
 10
145.83038015
 20
-474.16421072
 40
0.25
 41
0.25
  0
INSERT
  5
43C
100
AcDbEntity
  8
0
  6
CONTINUOUS
 62
       9
100
AcDbBlockReference
  2
_OPEN30
 10
139.35333848
 20
-496.4232369
 30
0.0
 41
24.0000223
 42
23.99991419
 50
253.77579899
  0
LWPOLYLINE
  5
43D
100
AcDbEntity
  8
0
  6
CONTINUOUS
 62
       9
100
AcDbPolyline
 90
        2
 70
       0
 43
0.25
 10
-198.94736842
 20
-16.75839368
 40
0.25
 41
0.25
 10
-198.94736842
 20
50.44160494
 40
0.25
 41
0.25
  0
INSERT
  5
43E
100
AcDbEntity
  8
0
  6
CONTINUOUS
 62
       9
100
AcDbBlockReference
  2
_OPEN30
 10
-198.94736842
 20
73.62384632
 30
0.0
 41
24.0000223
 42
23.99991419
 50
90.0
  0
LWPOLYLINE
  5
43F
100
AcDbEntity
  8
0
  6
CONTINUOUS
 62
       9
100
AcDbPolyline
 90
        2
 70
       0
 43
0.25
 10
-198.94736842
 20
163.62384632
 40
0.25
 41
0.25
 10
-198.94736842
 20
146.80608769
 40
0.25
 41
0.25
  0
INSERT
  5
440
100
AcDbEntity
  8
0
  6
CONTINUOUS
 62
       9
100
AcDbBlockReference
  2
_OPEN30
 10
-198.94736842
 20
123.62384632
 30
0.0
 41
24.0000223
 42
23.99991419
 50
270.0
  0
LWPOLYLINE
  5
441
100
AcDbEntity
  8
0
  6
CONTINUOUS
 62
       9
100
AcDbPolyline
 90
        2
 70
       0
 43
0.25
 10
-273.34697604
 20
-708.80987084
 40
0.25
 41
0.25
 10
-273.34697604
 20
-641.60987221
 40
0.25
 41
0.25
  0
INSERT
  5
442
100
AcDbEntity
  8
0
  6
CONTINUOUS
 62
       9
100
AcDbBlockReference
  2
_OPEN30
 10
-273.34697604
 20
-618.42763084
 30
0.0
 41
24.0000223
 42
23.99991419
 50
90.0
  0
LWPOLYLINE
  5
443
100
AcDbEntity
  8
0
  6
CONTINUOUS
 62
       9
100
AcDbPolyline
 90
        2
 70
       0
 43
0.25
 10
-273.34697604
 20
-500.42763084
 40
0.25
 41
0.25
 10
-273.34697604
 20
-517.24538947
 40
0.25
 41
0.25
  0
INSERT
  5
444
100
AcDbEntity
  8
0
  6
CONTINUOUS
 62
       9
100
AcDbBlockReference
  2
_OPEN30
 10
-273.34697604
 20
-540.42763084
 30
0.0
 41
24.0000223
 42
23.99991419
 50
270.0
  0
LWPOLYLINE
  5
445
100
AcDbEntity
  8
0
  6
CONTINUOUS
 62
       9
100
AcDbPolyline
 90
        2
 70
       0
 43
0.25
 10
558.94736842
 20
-278.04539084
 40
0.25
 41
0.25
 10
558.94736842
 20
-345.24538947
 40
0.25
 41
0.25
  0
INSERT
  5
446
100
AcDbEntity
  8
0
  6
CONTINUOUS
 62
       9
100
AcDbBlockReference
  2
_OPEN30
 10
558.94736842
 20
-368.42763084
 30
0.0
 41
24.0000223
 42
23.99991419
 50
270.0
  0
LWPOLYLINE
  5
447
100
AcDbEntity
  8
0
  6
CONTINUOUS
 62
       9
100
AcDbPolyline
 90
        2
 70
       0
 43
0.25
 10
496.89766924
 20
-708.80987084
 40
0.25
 41
0.25
 10
496.89766924
 20
-641.60987221
 40
0.25
 41
0.25
  0
INSERT
  5
448
100
AcDbEntity
  8
0
  6
CONTINUOUS
 62
       9
100
AcDbBlockReference
  2
_OPEN30
 10
496.89766924
 20
-618.42763084
 30
0.0
 41
24.0000223
 42
23.99991419
 50
90.0
  0
LWPOLYLINE
  5
449
100
AcDbEntity
  8
0
  6
CONTINUOUS
 62
       9
100
AcDbPolyline
 90
        2
 70
       0
 43
0.25
 10
496.89766924
 20
-480.42763084
 40
0.25
 41
0.25
 10
496.89766924
 20
-497.24538947
 40
0.25
 41
0.25
  0
INSERT
  5
44A
100
AcDbEntity
  8
0
  6
CONTINUOUS
 62
       9
100
AcDbBlockReference
  2
_OPEN30
 10
496.89766924
 20
-520.42763084
 30
0.0
 41
24.0000223
 42
23.99991419
 50
270.0
  0
LWPOLYLINE
  5
44B
100
AcDbEntity
  8
0
  6
CONTINUOUS
 62
       9
100
AcDbPolyline
 90
        2
 70
       0
 43
0.25
 10
-729.47368421
 20
262.61052632
 40
0.25
 41
0.25
 10
-729.47368421
 20
228.80608769
 40
0.25
 41
0.25
  0
INSERT
  5
44C
100
AcDbEntity
  8
0
  6
CONTINUOUS
 62
       9
100
AcDbBlockReference
  2
_OPEN30
 10
-729.47368421
 20
205.62384632
 30
0.0
 41
24.0000223
 42
23.99991419
 50
270.0
  0
LWPOLYLINE
  5
44D
100
AcDbEntity
  8
0
  6
CONTINUOUS
 62
       9
100
AcDbPolyline
 90
        2
 70
       0
 43
0.25
 10
-281.26180366
 20
325.26315789
 40
0.25
 41
0.25
 10
-325.86624228
 20
325.26315789
 40
0.25
 41
0.25
  0
INSERT
  5
44E
100
AcDbEntity
  8
0
  6
CONTINUOUS
 62
       9
100
AcDbBlockReference
  2
_OPEN30
 10
-349.04848366
 20
325.26315789
 30
0.0
 41
24.0000223
 42
23.99991419
 50
180.0
  0
LWPOLYLINE
  5
44F
100
AcDbEntity
  8
0
  6
CONTINUOUS
 62
       9
100
AcDbPolyline
 90
        2
 70
       0
 43
0.25
 10
-404.9728328
 20
325.26315789
 40
0.25
 41
0.25
 10
-398.15507417
 20
325.26315789
 40
0.25
 41
0.25
  0
INSERT
  5
450
100
AcDbEntity
  8
0
  6
CONTINUOUS
 62
       9
100
AcDbBlockReference
  2
_OPEN30
 10
-374.9728328
 20
325.26315789
 30
0.0
 41
24.0000223
 42
23.99991419
 50
360.0
  0
LWPOLYLINE
  5
451
100
AcDbEntity
  8
0
  6
CONTINUOUS
 62
       9
100
AcDbPolyline
 90
        2
 70
       0
 43
0.25
 10
488.89766924
 20
176.44160494
 40
0.25
 41
0.25
 10
488.89766924
 20
96.80608769
 40
0.25
 41
0.25
  0
INSERT
  5
452
100
AcDbEntity
  8
0
  6
CONTINUOUS
 62
       9
100
AcDbBlockReference
  2
_OPEN30
 10
488.89766924
 20
199.62384632
 30
0.0
 41
24.0000223
 42
23.99991419
 50
90.0
  0
INSERT
  5
453
100
AcDbEntity
  8
0
  6
CONTINUOUS
 62
       9
100
AcDbBlockReference
  2
_OPEN30
 10
488.89766924
 20
73.62384632
 30
0.0
 41
24.0000223
 42
23.99991419
 50
270.0
  0
LWPOLYLINE
  5
454
100
AcDbEntity
  8
0
  6
CONTINUOUS
 62
       9
100
AcDbPolyline
 90
        2
 70
       0
 43
0.25
 10
304.18617968
 20
-17.30369923
 40
0.25
 41
0.25
 10
-39.44933757
 20
-17.30369923
 40
0.25
 41
0.25
  0
INSERT
  5
455
100
AcDbEntity
  8
0
  6
CONTINUOUS
 62
       9
100
AcDbBlockReference
  2
_OPEN30
 10
327.36842105
 20
-17.30369923
 30
0.0
 41
24.0000223
 42
23.99991419
 50
360.0
  0
INSERT
  5
456
100
AcDbEntity
  8
0
  6
CONTINUOUS
 62
       9
100
AcDbBlockReference
  2
_OPEN30
 10
-62.63157895
 20
-17.30369923
 30
0.0
 41
24.0000223
 42
23.99991419
 50
180.0
  0
LWPOLYLINE
  5
457
100
AcDbEntity
  8
0
  6
CONTINUOUS
 62
       9
100
AcDbPolyline
 90
        2
 70
       0
 43
0.25
 10
-91.31382032
 20
-693.5054516
 40
0.25
 41
0.25
 10
-106.94933757
 20
-693.5054516
 40
0.25
 41
0.25
  0
INSERT
  5
458
100
AcDbEntity
  8
0
  6
CONTINUOUS
 62
       9
100
AcDbBlockReference
  2
_OPEN30
 10
-68.13157895
 20
-693.5054516
 30
0.0
 41
24.0000223
 42
23.99991419
 50
360.0
  0
INSERT
  5
459
100
AcDbEntity
  8
0
  6
CONTINUOUS
 62
       9
100
AcDbBlockReference
  2
_OPEN30
 10
-130.13157895
 20
-693.5054516
 30
0.0
 41
24.0000223
 42
23.99991419
 50
180.0
  0
LWPOLYLINE
  5
45A
100
AcDbEntity
  8
0
  6
CONTINUOUS
 62
       9
100
AcDbPolyline
 90
        2
 70
       0
 43
0.25
 10
371.68617968
 20
-91.10283561
 40
0.25
 41
0.25
 10
-106.94933757
 20
-91.10283561
 40
0.25
 41
0.25
  0
INSERT
  5
45B
100
AcDbEntity
  8
0
  6
CONTINUOUS
 62
       9
100
AcDbBlockReference
  2
_OPEN30
 10
394.86842105
 20
-91.10283561
 30
0.0
 41
24.0000223
 42
23.99991419
 50
360.0
  0
INSERT
  5
45C
100
AcDbEntity
  8
0
  6
CONTINUOUS
 62
       9
100
AcDbBlockReference
  2
_OPEN30
 10
-130.13157895
 20
-91.10283561
 30
0.0
 41
24.0000223
 42
23.99991419
 50
180.0
  0
LWPOLYLINE
  5
45D
100
AcDbEntity
  8
0
  6
CONTINUOUS
 62
       9
100
AcDbPolyline
 90
        2
 70
       0
 43
0.25
 10
558.94736842
 20
-406.60987221
 40
0.25
 41
0.25
 10
558.94736842
 20
-560.24538947
 40
0.25
 41
0.25
  0
INSERT
  5
45E
100
AcDbEntity
  8
0
  6
CONTINUOUS
 62
       9
100
AcDbBlockReference
  2
_OPEN30
 10
558.94736842
 20
-383.42763084
 30
0.0
 41
24.0000223
 42
23.99991419
 50
90.0
  0
INSERT
  5
45F
100
AcDbEntity
  8
0
  6
CONTINUOUS
 62
       9
100
AcDbBlockReference
  2
_OPEN30
 10
558.94736842
 20
-583.42763084
 30
0.0
 41
24.0000223
 42
23.99991419
 50
270.0
  0
LWPOLYLINE
  5
460
100
AcDbEntity
  8
0
  6
CONTINUOUS
 62
       9
100
AcDbPolyline
 90
        2
 70
       0
 43
0.25
 10
628.42105263
 20
-391.60987221
 40
0.25
 41
0.25
 10
628.42105263
 20
-595.24538947
 40
0.25
 41
0.25
  0
INSERT
  5
461
100
AcDbEntity
  8
0
  6
CONTINUOUS
 62
       9
100
AcDbBlockReference
  2
_OPEN30
 10
628.42105263
 20
-368.42763084
 30
0.0
 41
24.0000223
 42
23.99991419
 50
90.0
  0
INSERT
  5
462
100
AcDbEntity
  8
0
  6
CONTINUOUS
 62
       9
100
AcDbBlockReference
  2
_OPEN30
 10
628.42105263
 20
-618.42763084
 30
0.0
 41
24.0000223
 42
23.99991419
 50
270.0
  0
LWPOLYLINE
  5
463
100
AcDbEntity
  8
0
  6
CONTINUOUS
 62
       9
100
AcDbPolyline
 90
        2
 70
       0
 43
0.25
 10
-273.34697604
 20
193.44160494
 40
0.25
 41
0.25
 10
-273.34697604
 20
96.80608769
 40
0.25
 41
0.25
  0
INSERT
  5
464
100
AcDbEntity
  8
0
  6
CONTINUOUS
 62
       9
100
AcDbBlockReference
  2
_OPEN30
 10
-273.34697604
 20
216.62384632
 30
0.0
 41
24.0000223
 42
23.99991419
 50
90.0
  0
INSERT
  5
465
100
AcDbEntity
  8
0
  6
CONTINUOUS
 62
       9
100
AcDbBlockReference
  2
_OPEN30
 10
-273.34697604
 20
73.62384632
 30
0.0
 41
24.0000223
 42
23.99991419
 50
270.0
  0
LWPOLYLINE
  5
466
100
AcDbEntity
  8
0
  6
CONTINUOUS
 62
       9
100
AcDbPolyline
 90
        2
 70
       0
 43
0.25
 10
279.18617968
 20
-284.11596152
 40
0.25
 41
0.25
 10
-14.44933757
 20
-284.11596152
 40
0.25
 41
0.25
  0
INSERT
  5
467
100
AcDbEntity
  8
0
  6
CONTINUOUS
 62
       9
100
AcDbBlockReference
  2
_OPEN30
 10
302.36842105
 20
-284.11596152
 30
0.0
 41
24.0000223
 42
23.99991419
 50
360.0
  0
INSERT
  5
468
100
AcDbEntity
  8
0
  6
CONTINUOUS
 62
       9
100
AcDbBlockReference
  2
_OPEN30
 10
-37.63157895
 20
-284.11596152
 30
0.0
 41
24.0000223
 42
23.99991419
 50
180.0
  0
LWPOLYLINE
  5
469
100
AcDbEntity
  8
0
  6
CONTINUOUS
 62
       9
100
AcDbPolyline
 90
        2
 70
       0
 43
0.25
 10
60.61365212
 20
160.44160494
 40
0.25
 41
0.25
 10
60.61365212
 20
96.80608769
 40
0.25
 41
0.25
  0
INSERT
  5
46A
100
AcDbEntity
  8
0
  6
CONTINUOUS
 62
       9
100
AcDbBlockReference
  2
_OPEN30
 10
60.61365212
 20
183.62384632
 30
0.0
 41
24.0000223
 42
23.99991419
 50
90.0
  0
INSERT
  5
46B
100
AcDbEntity
  8
0
  6
CONTINUOUS
 62
       9
100
AcDbBlockReference
  2
_OPEN30
 10
60.61365212
 20
73.62384632
 30
0.0
 41
24.0000223
 42
23.99991419
 50
270.0
  0
LWPOLYLINE
  5
46C
100
AcDbEntity
  8
0
  6
CONTINUOUS
 62
       9
100
AcDbPolyline
 90
        2
 70
       0
 43
0.25
 10
-729.47368421
 20
173.44160494
 40
0.25
 41
0.25
 10
-729.47368421
 20
93.80608769
 40
0.25
 41
0.25
  0
INSERT
  5
46D
100
AcDbEntity
  8
0
  6
CONTINUOUS
 62
       9
100
AcDbBlockReference
  2
_OPEN30
 10
-729.47368421
 20
196.62384632
 30
0.0
 41
24.0000223
 42
23.99991419
 50
90.0
  0
INSERT
  5
46E
100
AcDbEntity
  8
0
  6
CONTINUOUS
 62
       9
100
AcDbBlockReference
  2
_OPEN30
 10
-729.47368421
 20
70.62384632
 30
0.0
 41
24.0000223
 42
23.99991419
 50
270.0
  0
LWPOLYLINE
  5
46F
100
AcDbEntity
  8
0
  6
CONTINUOUS
 62
       3
100
AcDbPolyline
 90
        2
 70
       0
 43
0.25
 10
389.86842105
 20
-618.42763084
 40
0.25
 41
0.25
 10
-125.13157895
 20
-618.42763084
 40
0.25
 41
0.25
  0
LWPOLYLINE
  5
470
100
AcDbEntity
  8
0
  6
CONTINUOUS
 62
       3
100
AcDbPolyline
 90
        2
 70
       0
 43
0.25
 10
394.86842105
 20
-613.42763084
 40
0.25
 41
0.25
 10
394.86842105
 20
-373.42763084
 40
0.25
 41
0.25
  0
LWPOLYLINE
  5
471
100
AcDbEntity
  8
0
  6
CONTINUOUS
 62
       3
100
AcDbPolyline
 90
        2
 70
       0
 43
0.25
 10
389.86842105
 20
-368.42763084
 40
0.25
 41
0.25
 10
-125.13157895
 20
-368.42763084
 40
0.25
 41
0.25
  0
LWPOLYLINE
  5
472
100
AcDbEntity
  8
0
  6
CONTINUOUS
 62
       3
100
AcDbPolyline
 90
        2
 70
       0
 43
0.25
 10
-130.13157895
 20
-613.42763084
 40
0.25
 41
0.25
 10
-130.13157895
 20
-373.42763084
 40
0.25
 41
0.25
  0
LWPOLYLINE
  5
473
100
AcDbEntity
  8
0
  6
CONTINUOUS
 62
       3
100
AcDbPolyline
 90
        2
 70
       0
 43
0.25
 10
302.36842105
 20
-578.42763084
 40
0.25
 41
0.25
 10
302.36842105
 20
-388.42763084
 40
0.25
 41
0.25
  0
LWPOLYLINE
  5
474
100
AcDbEntity
  8
0
  6
CONTINUOUS
 62
       3
100
AcDbPolyline
 90
        2
 70
       0
 43
0.25
 10
-37.63157895
 20
-578.42763084
 40
0.25
 41
0.25
 10
-37.63157895
 20
-388.42763084
 40
0.25
 41
0.25
  0
LWPOLYLINE
  5
475
100
AcDbEntity
  8
0
  6
CONTINUOUS
 62
       3
100
AcDbPolyline
 90
        2
 70
       0
 43
0.25
 10
297.36842105
 20
-383.42763084
 40
0.25
 41
0.25
 10
-32.63157895
 20
-383.42763084
 40
0.25
 41
0.25
  0
LWPOLYLINE
  5
476
100
AcDbEntity
  8
0
  6
CONTINUOUS
 62
       3
100
AcDbPolyline
 90
        2
 70
       0
 43
0.25
 10
297.36842105
 20
-583.42763084
 40
0.25
 41
0.25
 10
-32.63157895
 20
-583.42763084
 40
0.25
 41
0.25
  0
CIRCLE
  5
477
100
AcDbEntity
  8
0
  6
CONTINUOUS
 62
       3
100
AcDbCircle
 10
132.36842105
 20
-520.42763084
 30
0.0
 40
35.0
  0
CIRCLE
  5
478
100
AcDbEntity
  8
0
  6
CONTINUOUS
 62
       3
100
AcDbCircle
 10
132.36842105
 20
-520.42763084
 30
0.0
 40
25.0
  0
CIRCLE
  5
479
100
AcDbEntity
  8
0
  6
CONTINUOUS
 62
       3
100
AcDbCircle
 10
-68.13157895
 20
-540.42763084
 30
0.0
 40
17.5
  0
LWPOLYLINE
  5
47A
100
AcDbEntity
  8
0
  6
CONTINUOUS
 62
       3
100
AcDbPolyline
 90
        2
 70
       0
 43
0.25
 10
394.86842105
 20
78.62384632
 40
0.25
 41
0.25
 10
394.86842105
 20
195.22728633
 40
0.25
 41
0.25
  0
LWPOLYLINE
  5
47B
100
AcDbEntity
  8
0
  6
CONTINUOUS
 62
       3
100
AcDbPolyline
 90
        2
 70
       0
 43
0.25
 10
389.86842105
 20
73.62384632
 40
0.25
 41
0.25
 10
-125.13157895
 20
73.62384632
 40
0.25
 41
0.25
  0
LWPOLYLINE
  5
47C
100
AcDbEntity
  8
0
  6
CONTINUOUS
 62
       3
100
AcDbPolyline
 90
        2
 70
       0
 43
0.25
 10
-130.13157895
 20
78.62384632
 40
0.25
 41
0.25
 10
-130.13157895
 20
195.22728633
 40
0.25
 41
0.25
  0
ARC
  5
47D
100
AcDbEntity
  8
0
  6
CONTINUOUS
 62
       3
100
AcDbCircle
 10
132.36842105
 20
-1818.53056545
 30
0.0
 40
2035.15441176
100
AcDbArc
 50
82.71311026
 51
97.28688974
  0
LWPOLYLINE
  5
47E
100
AcDbEntity
  8
0
  6
CONTINUOUS
 62
       3
100
AcDbPolyline
 90
        2
 70
       0
 43
0.25
 10
-340.0730432
 20
75.97264486
 40
0.25
 41
0.25
 10
-349.04848366
 20
204.3214434
 40
0.25
 41
0.25
  0
ARC
  5
47F
100
AcDbEntity
  8
0
  6
CONTINUOUS
 62
       3
100
AcDbCircle
 10
-345.06086232
 20
75.62384632
 30
0.0
 40
5.0
100
AcDbArc
 50
270.0
 51
364.00018576
  0
ARC
  5
480
100
AcDbEntity
  8
0
  6
CONTINUOUS
 62
       3
100
AcDbCircle
 10
389.86842105
 20
78.62384632
 30
0.0
 40
5.0
100
AcDbArc
 50
270.0
 51
360.0
  0
ARC
  5
481
100
AcDbEntity
  8
0
  6
CONTINUOUS
 62
       3
100
AcDbCircle
 10
389.86842105
 20
195.22728633
 30
0.0
 40
5.0
100
AcDbArc
 50
360.0
 51
442.71311026
  0
ARC
  5
482
100
AcDbEntity
  8
0
  6
CONTINUOUS
 62
       3
100
AcDbCircle
 10
-125.13157895
 20
195.22728633
 30
0.0
 40
5.0
100
AcDbArc
 50
97.28688974
 51
180.0
  0
ARC
  5
483
100
AcDbEntity
  8
0
  6
CONTINUOUS
 62
       3
100
AcDbCircle
 10
297.36842105
 20
-578.42763084
 30
0.0
 40
5.0
100
AcDbArc
 50
270.0
 51
360.0
  0
ARC
  5
484
100
AcDbEntity
  8
0
  6
CONTINUOUS
 62
       3
100
AcDbCircle
 10
-32.63157895
 20
-578.42763084
 30
0.0
 40
5.0
100
AcDbArc
 50
180.0
 51
270.0
  0
ARC
  5
485
100
AcDbEntity
  8
0
  6
CONTINUOUS
 62
       3
100
AcDbCircle
 10
-32.63157895
 20
-388.42763084
 30
0.0
 40
5.0
100
AcDbArc
 50
90.0
 51
180.0
  0
ARC
  5
486
100
AcDbEntity
  8
0
  6
CONTINUOUS
 62
       3
100
AcDbCircle
 10
297.36842105
 20
-388.42763084
 30
0.0
 40
5.0
100
AcDbArc
 50
360.0
 51
450.0
  0
ARC
  5
487
100
AcDbEntity
  8
0
  6
CONTINUOUS
 62
       3
100
AcDbCircle
 10
389.86842105
 20
-373.42763084
 30
0.0
 40
5.0
100
AcDbArc
 50
360.0
 51
450.0
  0
ARC
  5
488
100
AcDbEntity
  8
0
  6
CONTINUOUS
 62
       3
100
AcDbCircle
 10
389.86842105
 20
-613.42763084
 30
0.0
 40
5.0
100
AcDbArc
 50
270.0
 51
360.0
  0
ARC
  5
489
100
AcDbEntity
  8
0
  6
CONTINUOUS
 62
       3
100
AcDbCircle
 10
-125.13157895
 20
-613.42763084
 30
0.0
 40
5.0
100
AcDbArc
 50
180.0
 51
270.0
  0
ARC
  5
48A
100
AcDbEntity
  8
0
  6
CONTINUOUS
 62
       3
100
AcDbCircle
 10
-125.13157895
 20
-373.42763084
 30
0.0
 40
5.0
100
AcDbArc
 50
90.0
 51
180.0
  0
ARC
  5
48B
100
AcDbEntity
  8
0
  6
CONTINUOUS
 62
       3
100
AcDbCircle
 10
-125.13157895
 20
78.62384632
 30
0.0
 40
5.0
100
AcDbArc
 50
180.0
 51
270.0
  0
LWPOLYLINE
  5
48C
100
AcDbEntity
  8
0
  6
CONTINUOUS
 62
       3
100
AcDbPolyline
 90
        2
 70
       0
 43
0.25
 10
-345.06086232
 20
70.62384632
 40
0.25
 41
0.25
 10
-584.69900134
 20
70.62384632
 40
0.25
 41
0.25
  0
LWPOLYLINE
  5
48D
100
AcDbEntity
  8
0
  6
CONTINUOUS
 62
       3
100
AcDbPolyline
 90
        2
 70
       0
 43
0.25
 10
-584.69900134
 20
196.62384632
 40
0.25
 41
0.25
 10
-379.9728328
 20
196.62384632
 40
0.25
 41
0.25
  0
LWPOLYLINE
  5
48E
100
AcDbEntity
  8
0
  6
CONTINUOUS
 62
       3
100
AcDbPolyline
 90
        2
 70
       0
 43
0.25
 10
-359.0241219
 20
213.62384632
 40
0.25
 41
0.25
 10
-364.9728328
 20
213.62384632
 40
0.25
 41
0.25
  0
LWPOLYLINE
  5
48F
100
AcDbEntity
  8
0
  6
CONTINUOUS
 62
       3
100
AcDbPolyline
 90
        2
 70
       0
 43
0.25
 10
-589.69900134
 20
75.62384632
 40
0.25
 41
0.25
 10
-589.69900134
 20
191.62384632
 40
0.25
 41
0.25
  0
LWPOLYLINE
  5
490
100
AcDbEntity
  8
0
  6
CONTINUOUS
 62
       3
100
AcDbPolyline
 90
        2
 70
       0
 43
0.25
 10
-374.9728328
 20
201.62384632
 40
0.25
 41
0.25
 10
-374.9728328
 20
203.62384632
 40
0.25
 41
0.25
  0
ARC
  5
491
100
AcDbEntity
  8
0
  6
CONTINUOUS
 62
       3
100
AcDbCircle
 10
-364.9728328
 20
203.62384632
 30
0.0
 40
10.0
100
AcDbArc
 50
90.0
 51
180.0
  0
ARC
  5
492
100
AcDbEntity
  8
0
  6
CONTINUOUS
 62
       3
100
AcDbCircle
 10
-359.0241219
 20
203.62384632
 30
0.0
 40
10.0
100
AcDbArc
 50
4.00018576
 51
90.0
  0
LWPOLYLINE
  5
493
100
AcDbEntity
  8
0
  6
CONTINUOUS
 62
       3
100
AcDbPolyline
 90
        2
 70
       0
 43
0.25
 10
-534.19900134
 20
196.62384632
 40
0.25
 41
0.25
 10
-532.71616264
 20
201.96206563
 40
0.25
 41
0.25
  0
LWPOLYLINE
  5
494
100
AcDbEntity
  8
0
  6
CONTINUOUS
 62
       3
100
AcDbPolyline
 90
        2
 70
       0
 43
0.25
 10
-455.49942959
 20
205.62384632
 40
0.25
 41
0.25
 10
-527.89857309
 20
205.62384632
 40
0.25
 41
0.25
  0
LWPOLYLINE
  5
495
100
AcDbEntity
  8
0
  6
CONTINUOUS
 62
       3
100
AcDbPolyline
 90
        2
 70
       0
 43
0.25
 10
-449.19900134
 20
196.62384632
 40
0.25
 41
0.25
 10
-450.68184004
 20
201.96206563
 40
0.25
 41
0.25
  0
ARC
  5
496
100
AcDbEntity
  8
0
  6
CONTINUOUS
 62
       3
100
AcDbCircle
 10
-584.69900134
 20
191.62384632
 30
0.0
 40
5.0
100
AcDbArc
 50
90.0
 51
180.0
  0
ARC
  5
497
100
AcDbEntity
  8
0
  6
CONTINUOUS
 62
       3
100
AcDbCircle
 10
-584.69900134
 20
75.62384632
 30
0.0
 40
5.0
100
AcDbArc
 50
180.0
 51
270.0
  0
ARC
  5
498
100
AcDbEntity
  8
0
  6
CONTINUOUS
 62
       3
100
AcDbCircle
 10
-379.9728328
 20
201.62384632
 30
0.0
 40
5.0
100
AcDbArc
 50
270.0
 51
360.0
  0
ARC
  5
499
100
AcDbEntity
  8
0
  6
CONTINUOUS
 62
       3
100
AcDbCircle
 10
-455.49942959
 20
200.62384632
 30
0.0
 40
5.0
100
AcDbArc
 50
15.524111
 51
90.0
  0
ARC
  5
49A
100
AcDbEntity
  8
0
  6
CONTINUOUS
 62
       3
100
AcDbCircle
 10
-527.89857309
 20
200.62384632
 30
0.0
 40
5.0
100
AcDbArc
 50
90.0
 51
164.475889
  0
LWPOLYLINE
  5
49B
100
AcDbEntity
  8
0
  6
DASHED2
 62
       2
100
AcDbPolyline
 90
        2
 70
       0
 43
0.25
 10
302.36842105
 20
73.62384632
 40
0.25
 41
0.25
 10
228.85704551
 20
181.44053044
 40
0.25
 41
0.25
  0
LWPOLYLINE
  5
49C
100
AcDbEntity
  8
0
  6
DASHED2
 62
       2
100
AcDbPolyline
 90
        2
 70
       0
 43
0.25
 10
224.7259088
 20
183.62384632
 40
0.25
 41
0.25
 10
40.01093331
 20
183.62384632
 40
0.25
 41
0.25
  0
LWPOLYLINE
  5
49D
100
AcDbEntity
  8
0
  6
DASHED2
 62
       2
100
AcDbPolyline
 90
        2
 70
       0
 43
0.25
 10
35.87979659
 20
181.44053044
 40
0.25
 41
0.25
 10
-37.63157895
 20
73.62384632
 40
0.25
 41
0.25
  0
ARC
  5
49E
100
AcDbEntity
  8
0
  6
DASHED2
 62
       2
100
AcDbCircle
 10
40.01093331
 20
178.62384632
 30
0.0
 40
5.0
100
AcDbArc
 50
90.0
 51
145.71312302
  0
ARC
  5
49F
100
AcDbEntity
  8
0
  6
DASHED2
 62
       2
100
AcDbCircle
 10
224.7259088
 20
178.62384632
 30
0.0
 40
5.0
100
AcDbArc
 50
34.28687698
 51
90.0
  0
LWPOLYLINE
  5
4A0
100
AcDbEntity
  8
0
  6
DASHED2
 62
       2
100
AcDbPolyline
 90
        2
 70
       0
 43
0.25
 10
-432.34151359
 20
180.62384632
 40
0.25
 41
0.25
 10
-535.33454604
 20
180.62384632
 40
0.25
 41
0.25
  0
LWPOLYLINE
  5
4A1
100
AcDbEntity
  8
0
  6
DASHED2
 62
       2
100
AcDbPolyline
 90
        2
 70
       0
 43
0.25
 10
-354.69900134
 20
70.62384632
 40
0.25
 41
0.25
 10
-428.21037688
 20
178.44053044
 40
0.25
 41
0.25
  0
LWPOLYLINE
  5
4A2
100
AcDbEntity
  8
0
  6
DASHED2
 62
       2
100
AcDbPolyline
 90
        2
 70
       0
 43
0.25
 10
-540.28869688
 20
176.29941234
 40
0.25
 41
0.25
 10
-554.69900134
 20
70.62384632
 40
0.25
 41
0.25
  0
ARC
  5
4A3
100
AcDbEntity
  8
0
  6
DASHED2
 62
       2
100
AcDbCircle
 10
-535.33454604
 20
175.62384632
 30
0.0
 40
5.0
100
AcDbArc
 50
90.0
 51
172.23483398
  0
ARC
  5
4A4
100
AcDbEntity
  8
0
  6
DASHED2
 62
       2
100
AcDbCircle
 10
-432.34151359
 20
175.62384632
 30
0.0
 40
5.0
100
AcDbArc
 50
34.28687698
 51
90.0
  0
TEXT
  5
4A5
100
AcDbEntity
  8
0
 62
       7
100
AcDbText
 10
-149.41073349
 20
-477.23647129
 30
0.0
 40
32.0
  1
φ35
 50
137.6797605
 41
0.8
 72
       5
 11
-206.1961397
 21
-425.52904782
 31
0.0
100
AcDbText
  0
TEXT
  5
4A6
100
AcDbEntity
  8
0
 62
       7
100
AcDbText
 10
221.28487821
 20
-717.82908262
 30
0.0
 40
32.0
  1
φ70
 50
116.36607221
 41
0.8
 72
       5
 11
187.17763693
 21
-649.01821071
 31
0.0
100
AcDbText
  0
TEXT
  5
4A7
100
AcDbEntity
  8
0
 62
       7
100
AcDbText
 10
102.57759586
 20
-651.44001771
 30
0.0
 40
32.0
  1
φ47
 50
-106.22420101
 41
0.8
 72
       5
 11
81.11992953
 21
-725.1815159
 31
0.0
100
AcDbText
  0
TEXT
  5
4A8
100
AcDbEntity
  8
0
 62
       7
100
AcDbText
 10
496.89766924
 20
175.02384632
 30
0.0
 40
32.0
  1
126
 50
-90.0
 41
0.8
 72
       5
 11
496.89766924
 21
98.22384632
 31
0.0
100
AcDbText
  0
TEXT
  5
4A9
100
AcDbEntity
  8
0
 62
       7
100
AcDbText
 10
170.76842105
 20
-23.30369923
 30
0.0
 40
32.0
  1
390
 50
180.0
 41
0.8
 72
       5
 11
93.96842105
 21
-23.30369923
 31
0.0
100
AcDbText
  0
TEXT
  5
4AA
100
AcDbEntity
  8
0
 62
       7
100
AcDbText
 10
-190.94736842
 20
42.44160632
 30
0.0
 40
32.0
  1
50
 50
-90.0
 41
0.8
 72
       5
 11
-190.94736842
 21
-8.75839368
 31
0.0
100
AcDbText
  0
TEXT
  5
4AB
100
AcDbEntity
  8
0
 62
       7
100
AcDbText
 10
-265.34697604
 20
-649.60987084
 30
0.0
 40
32.0
  1
78
 50
-90.0
 41
0.8
 72
       5
 11
-265.34697604
 21
-700.80987084
 31
0.0
100
AcDbText
  0
TEXT
  5
4AC
100
AcDbEntity
  8
0
 62
       7
100
AcDbText
 10
-73.53157895
 20
-701.5054516
 30
0.0
 40
32.0
  1
62
 50
180.0
 41
0.8
 72
       5
 11
-124.73157895
 21
-701.5054516
 31
0.0
100
AcDbText
  0
TEXT
  5
4AD
100
AcDbEntity
  8
0
 62
       7
100
AcDbText
 10
170.76842105
 20
-99.10283561
 30
0.0
 40
32.0
  1
525
 50
180.0
 41
0.8
 72
       5
 11
93.96842105
 21
-99.10283561
 31
0.0
100
AcDbText
  0
TEXT
  5
4AE
100
AcDbEntity
  8
0
 62
       7
100
AcDbText
 10
566.94736842
 20
-286.04539084
 30
0.0
 40
32.0
  1
15
 50
-90.0
 41
0.8
 72
       5
 11
566.94736842
 21
-337.24539084
 31
0.0
100
AcDbText
  0
TEXT
  5
4AF
100
AcDbEntity
  8
0
 62
       7
100
AcDbText
 10
566.94736842
 20
-445.02763084
 30
0.0
 40
32.0
  1
200
 50
-90.0
 41
0.8
 72
       5
 11
566.94736842
 21
-521.82763084
 31
0.0
100
AcDbText
  0
TEXT
  5
4B0
100
AcDbEntity
  8
0
 62
       7
100
AcDbText
 10
636.42105263
 20
-455.02763084
 30
0.0
 40
32.0
  1
250
 50
-90.0
 41
0.8
 72
       5
 11
636.42105263
 21
-531.82763084
 31
0.0
100
AcDbText
  0
TEXT
  5
4B1
100
AcDbEntity
  8
0
 62
       7
100
AcDbText
 10
-265.34697604
 20
183.52384632
 30
0.0
 40
32.0
  1
143
 50
-90.0
 41
0.8
 72
       5
 11
-265.34697604
 21
106.72384632
 31
0.0
100
AcDbText
  0
TEXT
  5
4B2
100
AcDbEntity
  8
0
 62
       7
100
AcDbText
 10
170.76842105
 20
-292.11596152
 30
0.0
 40
32.0
  1
340
 50
180.0
 41
0.8
 72
       5
 11
93.96842105
 21
-292.11596152
 31
0.0
100
AcDbText
  0
TEXT
  5
4B3
100
AcDbEntity
  8
0
 62
       7
100
AcDbText
 10
504.89766924
 20
-649.60987084
 30
0.0
 40
32.0
  1
98
 50
-90.0
 41
0.8
 72
       5
 11
504.89766924
 21
-700.80987084
 31
0.0
100
AcDbText
  0
TEXT
  5
4B4
100
AcDbEntity
  8
0
 62
       7
100
AcDbText
 10
68.61365212
 20
167.02384632
 30
0.0
 40
32.0
  1
110
 50
-90.0
 41
0.8
 72
       5
 11
68.61365212
 21
90.22384632
 31
0.0
100
AcDbText
  0
TEXT
  5
4B5
100
AcDbEntity
  8
0
 62
       7
100
AcDbText
 10
-723.47368421
 20
254.61052632
 30
0.0
 40
32.0
  1
9
 50
-90.0
 41
0.8
 72
       5
 11
-723.47368421
 21
229.01052632
 31
0.0
100
AcDbText
  0
TEXT
  5
4B6
100
AcDbEntity
  8
0
 62
       7
100
AcDbText
 10
-723.47368421
 20
172.02384632
 30
0.0
 40
32.0
  1
126
 50
-90.0
 41
0.8
 72
       5
 11
-723.47368421
 21
95.22384632
 31
0.0
100
AcDbText
  0
TEXT
  5
4B7
100
AcDbEntity
  8
0
 62
       7
100
AcDbText
 10
-274.46180366
 20
319.26315789
 30
0.0
 40
32.0
  1
26
 50
180.0
 41
0.8
 72
       5
 11
-325.66180366
 21
319.26315789
 31
0.0
100
AcDbText
  0
LWPOLYLINE
  5
4B8
100
AcDbEntity
  8
0
  6
DIVIDE
 62
       6
100
AcDbPolyline
 90
        2
 70
       0
 43
0.25
 10
-379.9728328
 20
196.62384632
 40
0.25
 41
0.25
 10
-589.69900134
 20
196.62384632
 40
0.25
 41
0.25
  0
LWPOLYLINE
  5
4B9
100
AcDbEntity
  8
0
  6
DIVIDE
 62
       6
100
AcDbPolyline
 90
        2
 70
       0
 43
0.25
 10
-589.69900134
 20
-21.96260095
 40
0.25
 41
0.25
 10
-589.69900134
 20
271.32614146
 40
0.25
 41
0.25
  0
ENDSEC
  0
SECTION
  2
OBJECTS
  0
DICTIONARY
  5
19
100
AcDbDictionary
  3
ACAD_GROUP
350
1A
  3
ACAD_MLINESTYLE
350
1B
  0
DICTIONARY
  5
1A
102
{ACAD_REACTORS
330
19
102
}
100
AcDbDictionary
  0
DICTIONARY
  5
1B
102
{ACAD_REACTORS
330
19
102
}
100
AcDbDictionary
  3
STANDARD
350
1C
  0
MLINESTYLE
  5
1C
102
{ACAD_REACTORS
330
1B
102
}
100
AcDbMlineStyle
  2
STANDARD
 70
       0
  3

 62
       0
 51
90.0
 52
90.0
 71
       2
 49
0.5
 62
     256
  6
BYLAYER
 49
-0.5
 62
     256
  6
BYLAYER
  0
ENDSEC
  0
EOF
