  0
SECTION
  2
HEADER
  9
$ACADVER
  1
AC1015
  9
$ACADMAINTVER
 70
     6
  9
$DWGCODEPAGE
  3
ANSI_932
  9
$INSBASE
 10
0.0
 20
0.0
 30
0.0
  9
$EXTMIN
 10
23.283333
 20
26.811111
 30
1.000000E+20
  9
$EXTMAX
 10
198.966667
 20
276.930556
 30
-1.000000E+20
  9
$LIMMIN
 10
23.283333
 20
26.811111
  9
$LIMMAX
 10
198.966667
 20
276.930556
  9
$ORTHOMODE
 70
     0
  9
$REGENMODE
 70
     1
  9
$FILLMODE
 70
     1
  9
$QTEXTMODE
 70
     0
  9
$MIRRTEXT
 70
     1
  9
$LTSCALE
 40
1.0
  9
$ATTMODE
 70
     1
  9
$TEXTSIZE
 40
0.2
  9
$TRACEWID
 40
0.05
  9
$TEXTSTYLE
  7
Standard
  9
$CLAYER
  8
0
  9
$CELTYPE
  6
Continuous
  9
$CECOLOR
 62
   256
  9
$CELTSCALE
 40
1.0
  9
$DISPSILH
 70
     0
  9
$DIMSCALE
 40
1.0
  9
$DIMASZ
 40
0.18
  9
$DIMEXO
 40
0.0625
  9
$DIMDLI
 40
0.38
  9
$DIMRND
 40
0.0
  9
$DIMDLE
 40
0.0
  9
$DIMEXE
 40
0.18
  9
$DIMTP
 40
0.0
  9
$DIMTM
 40
0.0
  9
$DIMTXT
 40
0.18
  9
$DIMCEN
 40
0.09
  9
$DIMTSZ
 40
0.0
  9
$DIMTOL
 70
     0
  9
$DIMLIM
 70
     0
  9
$DIMTIH
 70
     1
  9
$DIMTOH
 70
     1
  9
$DIMSE1
 70
     0
  9
$DIMSE2
 70
     0
  9
$DIMTAD
 70
     0
  9
$DIMZIN
 70
     0
  9
$DIMBLK
  1

  9
$DIMASO
 70
     1
  9
$DIMSHO
 70
     1
  9
$DIMPOST
  1

  9
$DIMAPOST
  1

  9
$DIMALT
 70
     0
  9
$DIMALTD
 70
     2
  9
$DIMALTF
 40
25.4
  9
$DIMLFAC
 40
1.0
  9
$DIMTOFL
 70
     0
  9
$DIMTVP
 40
0.0
  9
$DIMTIX
 70
     0
  9
$DIMSOXD
 70
     0
  9
$DIMSAH
 70
     0
  9
$DIMBLK1
  1

  9
$DIMBLK2
  1

  9
$DIMSTYLE
  2
Standard
  9
$DIMCLRD
 70
     0
  9
$DIMCLRE
 70
     0
  9
$DIMCLRT
 70
     0
  9
$DIMTFAC
 40
1.0
  9
$DIMGAP
 40
0.09
  9
$DIMJUST
 70
     0
  9
$DIMSD1
 70
     0
  9
$DIMSD2
 70
     0
  9
$DIMTOLJ
 70
     1
  9
$DIMTZIN
 70
     0
  9
$DIMALTZ
 70
     0
  9
$DIMALTTZ
 70
     0
  9
$DIMUPT
 70
     0
  9
$DIMDEC
 70
     4
  9
$DIMTDEC
 70
     4
  9
$DIMALTU
 70
     2
  9
$DIMALTTD
 70
     2
  9
$DIMTXSTY
  7
Standard
  9
$DIMAUNIT
 70
     0
  9
$DIMADEC
 70
     0
  9
$DIMALTRND
 40
0.0
  9
$DIMAZIN
 70
     0
  9
$DIMDSEP
 70
     0
  9
$DIMATFIT
 70
     3
  9
$DIMFRAC
 70
     0
  9
$DIMLDRBLK
  1

  9
$DIMLUNIT
 70
     2
  9
$DIMLWD
 70
     0
  9
$DIMLWE
 70
     0
  9
$DIMTMOVE
 70
     0
  9
$LUNITS
 70
     2
  9
$LUPREC
 70
     4
  9
$SKETCHINC
 40
0.1
  9
$FILLETRAD
 40
0.0
  9
$AUNITS
 70
     0
  9
$AUPREC
 70
     0
  9
$MENU
  1
acad
  9
$ELEVATION
 40
0.0
  9
$PELEVATION
 40
0.0
  9
$THICKNESS
 40
0.0
  9
$LIMCHECK
 70
     0
  9
$CHAMFERA
 40
0.0
  9
$CHAMFERB
 40
0.0
  9
$CHAMFERC
 40
0.0
  9
$CHAMFERD
 40
0.0
  9
$SKPOLY
 70
     0
  9
$TDCREATE
 40
0.000000000
  9
$TDUCREATE
 40
0.000000000
  9
$TDUPDATE
 40
0.000000000
  9
$TDUUPDATE
 40
0.000000000
  9
$TDINDWG
 40
0.0000000000
  9
$TDUSRTIMER
 40
0.0000000000
  9
$USRTIMER
 70
     1
  9
$ANGBASE
 50
0.0
  9
$ANGDIR
 70
     0
  9
$PDMODE
 70
     0
  9
$PDSIZE
 40
0.0
  9
$PLINEWID
 40
0.0
  9
$SPLFRAME
 70
     0
  9
$SPLINETYPE
 70
     6
  9
$SPLINESEGS
 70
     8
  9
$HANDSEED
  5
C5
  9
$SURFTAB1
 70
     6
  9
$SURFTAB2
 70
     6
  9
$SURFTYPE
 70
     6
  9
$SURFU
 70
     6
  9
$SURFV
 70
     6
  9
$UCSBASE
  2

  9
$UCSNAME
  2

  9
$UCSORG
 10
0.0
 20
0.0
 30
0.0
  9
$UCSXDIR
 10
1.0
 20
0.0
 30
0.0
  9
$UCSYDIR
 10
0.0
 20
1.0
 30
0.0
  9
$UCSORTHOREF
  2

  9
$UCSORTHOVIEW
 70
     0
  9
$UCSORGTOP
 10
0.0
 20
0.0
 30
0.0
  9
$UCSORGBOTTOM
 10
0.0
 20
0.0
 30
0.0
  9
$UCSORGLEFT
 10
0.0
 20
0.0
 30
0.0
  9
$UCSORGRIGHT
 10
0.0
 20
0.0
 30
0.0
  9
$UCSORGFRONT
 10
0.0
 20
0.0
 30
0.0
  9
$UCSORGBACK
 10
0.0
 20
0.0
 30
0.0
  9
$PUCSBASE
  2

  9
$PUCSNAME
  2

  9
$PUCSORG
 10
0.0
 20
0.0
 30
0.0
  9
$PUCSXDIR
 10
1.0
 20
0.0
 30
0.0
  9
$PUCSYDIR
 10
0.0
 20
1.0
 30
0.0
  9
$PUCSORTHOREF
  2

  9
$PUCSORTHOVIEW
 70
     0
  9
$PUCSORGTOP
 10
0.0
 20
0.0
 30
0.0
  9
$PUCSORGBOTTOM
 10
0.0
 20
0.0
 30
0.0
  9
$PUCSORGLEFT
 10
0.0
 20
0.0
 30
0.0
  9
$PUCSORGRIGHT
 10
0.0
 20
0.0
 30
0.0
  9
$PUCSORGFRONT
 10
0.0
 20
0.0
 30
0.0
  9
$PUCSORGBACK
 10
0.0
 20
0.0
 30
0.0
  9
$USERI1
 70
     0
  9
$USERI2
 70
     0
  9
$USERI3
 70
     0
  9
$USERI4
 70
     0
  9
$USERI5
 70
     0
  9
$USERR1
 40
0.0
  9
$USERR2
 40
0.0
  9
$USERR3
 40
0.0
  9
$USERR4
 40
0.0
  9
$USERR5
 40
0.0
  9
$WORLDVIEW
 70
     1
  9
$SHADEDGE
 70
     3
  9
$SHADEDIF
 70
    70
  9
$TILEMODE
 70
     1
  9
$MAXACTVP
 70
    16
  9
$PINSBASE
 10
0.0
 20
0.0
 30
0.0
  9
$PLIMCHECK
 70
     0
  9
$PEXTMIN
 10
1.000000E+20
 20
1.000000E+20
 30
1.000000E+20
  9
$PEXTMAX
 10
-1.000000E+20
 20
-1.000000E+20
 30
-1.000000E+20
  9
$PLIMMIN
 10
0.0
 20
0.0
  9
$PLIMMAX
 10
12.0
 20
9.0
  9
$UNITMODE
 70
     0
  9
$VISRETAIN
 70
     0
  9
$PLINEGEN
 70
     1
  9
$PSLTSCALE
 70
     0
  9
$TREEDEPTH
 70
  3020
  9
$CMLSTYLE
  2
Standard
  9
$CMLJUST
 70
     0
  9
$CMLSCALE
 40
1.0
  9
$PROXYGRAPHICS
 70
     0
  9
$MEASUREMENT
 70
     1
  9
$CELWEIGHT
370
     0
  9
$ENDCAPS
280
     0
  9
$JOINSTYLE
280
     0
  9
$LWDISPLAY
290
     0
  9
$INSUNITS
 70
     0
  9
$HYPERLINKBASE
  1

  9
$STYLESHEET
  1

  9
$XEDIT
290
     1
  9
$CEPSNTYPE
380
     0
  9
$PSTYLEMODE
290
     1
  9
$FINGERPRINTGUID
  2

  9
$VERSIONGUID
  2

  9
$EXTNAMES
290
     1
  9
$PSVPSCALE
 40
0.0
  0
ENDSEC
  0
SECTION
  2
CLASSES
  0
CLASS
  1
LWPOLYLINE
  2
AcDbPolyline
  3
AutoCAD 2000
 90
    32768
280
     0
281
     1
  0
CLASS
  1
IMAGE
  2
AcDbRasterImage
  3
ISM
 90
      127
280
     0
281
     1
  0
CLASS
  1
OLE2FRAME
  2
AcDbOle2Frame
  3
AutoCAD 2000
 90
    32768
280
     0
281
     1
  0
CLASS
  1
HATCH
  2
AcDbHatch
  3
AutoCAD 2000
 90
    32768
280
     0
281
     1
  0
CLASS
  1
DICTIONARYVAR
  2
AcDbDictionaryVar
  3
AutoCAD 2000
 90
    32768
280
     0
281
     0
  0
CLASS
  1
RASTERVARIABLES
  2
AcDbRasterVariables
  3
ISM
 90
    32768
280
     0
281
     0
  0
CLASS
  1
IMAGEDEF
  2
AcDbRasterImageDef
  3
ISM
 90
        0
280
     0
281
     0
  0
CLASS
  1
IMAGEDEF_REACTOR
  2
AcDbRasterImageDefReactor
  3
ISM
 90
        1
280
     0
281
     0
  0
CLASS
  1
IDBUFFER
  2
AcDbIdBuffer
  3
AutoCAD 2000
 90
    32768
280
     0
281
     0
  0
CLASS
  1
SPATIAL_FILTER
  2
AcDbSpatialFilter
  3
AutoCAD 2000
 90
    32768
280
     0
281
     0
  0
CLASS
  1
XRECORD
  2
AcDbXrecord
  3
AutoCAD 2000
 90
    32768
280
     0
281
     0
  0
CLASS
  1
SORTENTSTABLE
  2
AcDbSortentsTable
  3
AutoCAD 2000
 90
    32768
280
     0
281
     0
  0
CLASS
  1
LAYER_INDEX
  2
AcDbLayerIndex
  3
AutoCAD 2000
 90
    32768
280
     0
281
     0
  0
CLASS
  1
SPATIAL_INDEX
  2
AcDbSpatialIndex
  3
AutoCAD 2000
 90
    32768
280
     0
281
     0
  0
CLASS
  1
OBJECT_PTR
  2
CAseDLPNTableRecord
  3
"ASE-LPNTableRecord"
 90
    32769
280
     0
281
     0
  0
CLASS
  1
LAYOUT
  2
AcDbLayout
  3
AutoCAD 2000
 90
        0
280
     0
281
     0
  0
CLASS
  1
PLOTSETTINGS
  2
AcDbPlotSettings
  3
AutoCAD 2000
 90
    32768
280
     0
281
     0
  0
CLASS
  1
ACDBDICTIONARYWDFLT
  2
AcDbDictionaryWithDefault
  3
AutoCAD 2000
 90
        0
280
     0
281
     0
  0
CLASS
  1
ACDBPLACEHOLDER
  2
AcDbPlaceHolder
  3
AutoCAD 2000
 90
        0
280
     0
281
     0
  0
CLASS
  1
VBA_PROJECT
  2
AcDbVbaProject
  3
acadvba
 90
    32768
280
     0
281
     0
  0
CLASS
  1
WIPEOUT
  2
AcDbWipeout
  3
WipeOut|AutoCAD Express Tool|expresstools@autodesk.com
 90
    32895
280
     0
281
     1
  0
CLASS
  1
WIPEOUTVARIABLES
  2
AcDbWipeoutVariables
  3
WipeOut|AutoCAD Express Tool|expresstools@autodesk.com
 90
        0
280
     0
281
     0
  0
CLASS
  1
RTEXT
  2
RText
  3
RText|AutoCAD Express Tool|expresstools@autodesk.com
 90
    32768
280
     0
281
     1
  0
CLASS
  1
ARCALIGNEDTEXT
  2
AcDbArcAlignedText
  3
ATEXT|AutoCAD Express Tool|expresstools@autodesk.com
 90
    32768
280
     0
281
     1
  0
ENDSEC
  0
SECTION
  2
TABLES
  0
TABLE
  2
VPORT
  5
7
100
AcDbSymbolTable
 70
     1
  0
VPORT
  5
15
100
AcDbSymbolTableRecord
100
AcDbViewportTableRecord
  2
*ACTIVE
 70
     0
 10
0.0
 20
0.0
 11
1.0
 21
1.0
 12
6.591288
 22
4.579184
 13
0.0
 23
0.0
 14
1.0
 24
1.0
 15
0.0
 25
0.0
 16
0.0
 26
0.0
 36
1.0
 17
0.0
 27
0.0
 37
0.0
 40
9.158369
 41
0.688564
 42
50.0
 43
0.0
 44
0.0
 50
0.0
 51
0.0
 71
     0
 72
   100
 73
     1
 74
     1
 75
     0
 76
     0
 77
     0
 78
     0
281
     0
 65
     0
110
0.0
120
0.0
130
0.0
111
1.0
121
0.0
131
0.0
112
0.0
122
1.0
132
0.0
345
0
346
0
 79
     0
146
0.0
  0
ENDTAB
  0
TABLE
  2
LTYPE
  5
4
100
AcDbSymbolTable
 70
     3
  0
LTYPE
  5
11
100
AcDbSymbolTableRecord
100
AcDbLinetypeTableRecord
  2
ByBlock
 70
    64
  3

 72
    65
 73
     0
 40
0.0
  0
LTYPE
  5
12
100
AcDbSymbolTableRecord
100
AcDbLinetypeTableRecord
  2
ByLayer
 70
    64
  3

 72
    65
 73
     0
 40
0.0
  0
LTYPE
  5
13
100
AcDbSymbolTableRecord
100
AcDbLinetypeTableRecord
  2
Continuous
 70
    64
  3
Solid line
 72
    65
 73
     0
 40
0.0
  0
ENDTAB
  0
TABLE
  2
LAYER
  5
2
100
AcDbSymbolTable
 70
     3
  0
LAYER
  5
14
100
AcDbSymbolTableRecord
100
AcDbLayerTableRecord
  2
0
 70
     0
 62
     7
  6
Continuous
290
     1
370
    -3
390
1D
  0
LAYER
  5
28
100
AcDbSymbolTableRecord
100
AcDbLayerTableRecord
  2
レイヤー_2
 70
     0
 62
     1
  6
Continuous
290
     1
370
    -3
390
1D
  0
LAYER
  5
AA
100
AcDbSymbolTableRecord
100
AcDbLayerTableRecord
  2
レイヤー_1
 70
     0
 62
   160
  6
Continuous
290
     1
370
    -3
390
1D
  0
ENDTAB
  0
TABLE
  2
STYLE
  5
3
100
AcDbSymbolTable
 70
     5
  0
STYLE
  5
17
100
AcDbSymbolTableRecord
100
AcDbTextStyleTableRecord
  2
Standard
 70
     0
 40
0.0
 41
1.0
 50
0.0
 71
     0
 42
0.0
  3
txt
  4

  0
STYLE
  5
24
100
AcDbSymbolTableRecord
100
AcDbTextStyleTableRecord
  2
STD
 70
     0
 40
0.0
 41
1.0
 50
0.0
 71
     0
 42
0.0
  3
txt
  4

  0
STYLE
  5
25
100
AcDbSymbolTableRecord
100
AcDbTextStyleTableRecord
  2
TATESTD
 70
     4
 40
0.0
 41
1.0
 50
0.0
 71
     0
 42
0.0
  3
txt
  4

  0
STYLE
  5
26
100
AcDbSymbolTableRecord
100
AcDbTextStyleTableRecord
  2
KANJISTD
 70
     0
 40
0.0
 41
1.0
 50
0.0
 71
     0
 42
0.0
  3
txt
  4
extfont
  0
STYLE
  5
27
100
AcDbSymbolTableRecord
100
AcDbTextStyleTableRecord
  2
KANJITATE
 70
     4
 40
0.0
 41
1.0
 50
0.0
 71
     0
 42
0.0
  3
txt
  4
extfont
  0
ENDTAB
  0
TABLE
  2
VIEW
  5
5
100
AcDbSymbolTable
 70
     0
  0
ENDTAB
  0
TABLE
  2
UCS
  5
6
100
AcDbSymbolTable
 70
     0
  0
ENDTAB
  0
TABLE
  2
APPID
  5
8
100
AcDbSymbolTable
 70
     1
  0
APPID
  5
16
100
AcDbSymbolTableRecord
100
AcDbRegAppTableRecord
  2
ACAD
 70
     0
  0
ENDTAB
  0
TABLE
  2
DIMSTYLE
  5
9
100
AcDbSymbolTable
 70
     1
100
AcDbDimStyleTable
 71
     0
  0
DIMSTYLE
105
18
100
AcDbSymbolTableRecord
100
AcDbDimStyleTableRecord
  2
Standard
 70
     0
  3

  4

 40
1.0
 41
0.18
 42
0.0625
 43
0.38
 44
0.18
 45
0.0
 46
0.0
 47
0.0
 48
0.0
 71
     0
 72
     0
 73
     1
 74
     1
 75
     0
 76
     0
 77
     0
 78
     0
 79
     0
140
0.18
141
0.09
142
0.0
143
25.4
144
1.0
145
0.0
146
1.0
147
0.09
148
0.0
170
     0
171
     2
172
     0
173
     0
174
     0
175
     0
176
     0
177
     0
178
     0
179
     0
271
     4
272
     4
273
     2
274
     2
275
     0
276
     0
277
     2
278
    46
279
     0
280
     0
281
     0
282
     0
283
     1
284
     0
285
     0
286
     0
288
     0
340
17
341
0
342
0
343
0
344
0
371
    -2
372
    -2
  0
ENDTAB
  0
TABLE
  2
BLOCK_RECORD
  5
1
100
AcDbSymbolTable
 70
     0
  0
BLOCK_RECORD
  5
A
100
AcDbSymbolTableRecord
100
AcDbBlockTableRecord
  2
*MODEL_SPACE
340
20
  0
BLOCK_RECORD
  5
B
100
AcDbSymbolTableRecord
100
AcDbBlockTableRecord
  2
*PAPER_SPACE
340
21
  0
ENDTAB
  0
ENDSEC
  0
SECTION
  2
BLOCKS
  0
BLOCK
  5
D
100
AcDbEntity
  8
0
100
AcDbBlockBegin
  2
*MODEL_SPACE
 70
     0
 10
0.0
 20
0.0
 30
0.0
  3
*MODEL_SPACE
  1

  0
ENDBLK
  5
E
100
AcDbEntity
  8
0
100
AcDbBlockEnd
  0
BLOCK
  5
F
100
AcDbEntity
 67
     1
  8
0
100
AcDbBlockBegin
  2
*PAPER_SPACE
 70
     0
 10
0.0
 20
0.0
 30
0.0
  3
*PAPER_SPACE
  1

  0
ENDBLK
  5
10
100
AcDbEntity
 67
     1
  8
0
100
AcDbBlockEnd
  0
ENDSEC
  0
SECTION
  2
ENTITIES
  0
MTEXT
  5
C4
100
AcDbEntity
  8
レイヤー_1
 62
     7
100
AcDbMText
 10
47.801389
 20
55.180324
 30
0.0
 40
3.674768
 41
0.0
 71
     1
 72
     2
  1
\fMS Gothic|b0|i0|c128;\H3.6748;\C7;\U+0038\U+0033\U+002E\U+0030\U+0036\U+0030\U+002E\U+0037\U+0033\U+0030\U+002E\U+0058\U+0058
  7
STD
210
0.0
220
0.0
230
1.0
 73
     1
 44
1.0
  0
MTEXT
  5
C3
100
AcDbEntity
  8
レイヤー_1
 62
     7
100
AcDbMText
 10
39.6875
 20
57.666567
 30
0.0
 40
1.574901
 41
0.0
 71
     1
 72
     2
  1
\fOsaka|b0|i0|c128;\H1.5749;\C7;\U+54C1\U+756A
  7
STD
210
0.0
220
0.0
230
1.0
 73
     1
 44
1.0
  0
MTEXT
  5
C2
100
AcDbEntity
  8
レイヤー_1
 62
     7
100
AcDbMText
 10
47.801389
 20
34.017542
 30
0.0
 40
3.149486
 41
0.0
 71
     1
 72
     2
  1
\fOsaka|b0|i0|c128;\H3.1495;\C7;\U+30BF\U+30AA\U+30EB\U+639B
  7
STD
210
0.0
220
0.0
230
1.0
 73
     1
 44
1.0
  0
MTEXT
  5
C1
100
AcDbEntity
  8
レイヤー_1
 62
     7
100
AcDbMText
 10
39.6875
 20
36.499901
 30
0.0
 40
1.574901
 41
0.0
 71
     1
 72
     2
  1
\fOsaka|b0|i0|c128;\H1.5749;\C7;\U+54C1
  7
STD
210
0.0
220
0.0
230
1.0
 73
     1
 44
1.0
  0
MTEXT
  5
C0
100
AcDbEntity
  8
レイヤー_1
 62
     7
100
AcDbMText
 10
47.801389
 20
44.013142
 30
0.0
 40
3.149486
 41
0.0
 71
     1
 72
     2
  1
\fMS Gothic|b0|i0|c128;\H3.1495;\C7;\U+0053\U+0055\U+0050\U+0045\U+0052\U+004E\U+004F\U+0056\U+0041
  7
STD
210
0.0
220
0.0
230
1.0
 73
     1
 44
1.0
  0
POLYLINE
  5
BA
100
AcDbEntity
  8
レイヤー_1
 62
     7
100
AcDb2dPolyline
 66
     1
 10
0.0
 20
0.0
 30
0.0
 70
     1
  0
VERTEX
  5
BB
100
AcDbEntity
  8
レイヤー_1
 62
     7
100
AcDbVertex
100
AcDb2dVertex
 10
23.636111
 20
27.163889
 30
0.0
  0
VERTEX
  5
BC
100
AcDbEntity
  8
レイヤー_1
 62
     7
100
AcDbVertex
100
AcDb2dVertex
 10
198.613889
 20
27.163889
 30
0.0
  0
VERTEX
  5
BD
100
AcDbEntity
  8
レイヤー_1
 62
     7
100
AcDbVertex
100
AcDb2dVertex
 10
198.613889
 20
276.577778
 30
0.0
  0
VERTEX
  5
BE
100
AcDbEntity
  8
レイヤー_1
 62
     7
100
AcDbVertex
100
AcDb2dVertex
 10
23.636111
 20
276.577778
 30
0.0
  0
SEQEND
  5
BF
100
AcDbEntity
  8
レイヤー_1
 62
     7
  0
LINE
  5
B9
100
AcDbEntity
  8
レイヤー_1
 62
     7
100
AcDbLine
 10
170.568056
 20
37.570833
 30
0.0
 11
27.693056
 21
37.570833
 31
0.0
  0
LINE
  5
B8
100
AcDbEntity
  8
レイヤー_1
 62
     7
100
AcDbLine
 10
170.568056
 20
48.154167
 30
0.0
 11
27.693056
 21
48.154167
 31
0.0
  0
LINE
  5
B7
100
AcDbEntity
  8
レイヤー_1
 62
     7
100
AcDbLine
 10
23.636111
 20
58.913889
 30
0.0
 11
198.261111
 21
58.913889
 31
0.0
  0
LINE
  5
B6
100
AcDbEntity
  8
レイヤー_1
 62
     7
100
AcDbLine
 10
170.744444
 20
58.913889
 30
0.0
 11
170.744444
 21
27.516667
 31
0.0
  0
MTEXT
  5
B5
100
AcDbEntity
  8
レイヤー_1
 62
     7
100
AcDbMText
 10
29.104167
 20
47.083234
 30
0.0
 40
1.574901
 41
0.0
 71
     1
 72
     2
  1
\fOsaka|b0|i0|c128;\H1.5749;\C7;\U+30BB\U+30EC\U+30AF\U+30B7\U+30E7\U+30F3
  7
STD
210
0.0
220
0.0
230
1.0
 73
     1
 44
1.0
  0
MTEXT
  5
B4
100
AcDbEntity
  8
レイヤー_1
 62
     7
100
AcDbMText
 10
174.095833
 20
55.713375
 30
0.0
 40
3.149801
 41
0.0
 71
     1
 72
     2
  1
\fHeiseiKakuGothicCAN W9|b0|i0|c128;\H3.1498;\C253;\U+5BF8\U+6CD5\U+53C2\U+8003\U+56F3
  7
STD
210
0.0
220
0.0
230
1.0
 11
0.9999
 21
0.0
 31
0.0
 73
     1
 44
1.0
  0
LINE
  5
B3
100
AcDbEntity
  8
レイヤー_1
 62
     7
100
AcDbLine
 10
27.516667
 20
58.913889
 30
0.0
 11
27.516667
 21
27.516667
 31
0.0
  0
IMAGE
  5
B0
100
AcDbEntity
  8
レイヤー_1
 62
     7
 92
        0
100
AcDbRasterImage
 90
        0
 10
172.155556
 20
29.633016
 30
0.0
 11
0.352531
 21
0.0
 31
0.0
 12
0.0
 22
0.352813
 32
0.0
 13
70.0
 23
9.0
340
B2
 70
     7
280
     0
281
    50
282
    50
283
     0
360
B1
 71
     1
 91
        2
 14
-0.5
 24
-0.5
 14
69.5
 24
8.5
  0
IMAGE
  5
AD
100
AcDbEntity
  8
レイヤー_1
 62
     7
 92
        0
100
AcDbRasterImage
 90
        0
 10
172.155556
 20
29.633016
 30
0.0
 11
0.352531
 21
0.0
 31
0.0
 12
0.0
 22
0.352813
 32
0.0
 13
70.0
 23
9.0
340
AF
 70
     7
280
     0
281
    50
282
    50
283
     0
360
AE
 71
     1
 91
        2
 14
-0.5
 24
-0.5
 14
69.5
 24
8.5
  0
MTEXT
  5
AC
100
AcDbEntity
  8
レイヤー_1
 62
     7
100
AcDbMText
 10
113.418056
 20
47.083234
 30
0.0
 40
1.574901
 41
0.0
 71
     1
 72
     2
  1
\fOsaka|b0|i0|c128;\H1.5749;\C7;\U+4ED5\U+4E0A
  7
STD
210
0.0
220
0.0
230
1.0
 73
     1
 44
1.0
  0
MTEXT
  5
AB
100
AcDbEntity
  8
レイヤー_1
 62
     7
100
AcDbMText
 10
124.765511
 20
42.026497
 30
0.0
 40
1.162842
 41
0.0
 71
     1
 72
     2
  1
\fOsaka|b0|i0|c128;\H1.1628;\W2.71;\C7;
  7
STD
210
0.0
220
0.0
230
1.0
 73
     1
 44
1.0
  0
MTEXT
  5
A9
100
AcDbEntity
  8
レイヤー_2
 62
     7
100
AcDbMText
 10
108.07678
 20
200.808316
 30
0.0
 40
6.299603
 41
0.0
 71
     1
 72
     2
  1
\fMS PGothic|b0|i0|c128;\H6.2996;\C7;\Q-15.00;\U+0036\U+0030\U+0030
  7
STD
210
0.0
220
0.0
230
1.0
 11
0.96593
 21
-0.25882
 31
0.0
 73
     1
 44
1.0
  0
MTEXT
  5
A8
100
AcDbEntity
  8
レイヤー_2
 62
     7
100
AcDbMText
 10
170.244561
 20
171.183251
 30
0.0
 40
6.299603
 41
0.0
 71
     1
 72
     2
  1
\fMS PGothic|b0|i0|c128;\H6.2996;\C7;\Q-15.00;\U+0034\U+0035
  7
STD
210
0.0
220
0.0
230
1.0
 11
0.96593
 21
-0.25882
 31
0.0
 73
     1
 44
1.0
  0
MTEXT
  5
A7
100
AcDbEntity
  8
レイヤー_2
 62
     7
100
AcDbMText
 10
42.922789
 20
210.343268
 30
0.0
 40
6.422727
 41
0.0
 71
     1
 72
     2
  1
\fMS PGothic|b0|i0|c128;\H6.4227;\W0.98;\C7;\Q10.00;\U+0039\U+0030
  7
STD
210
0.0
220
0.0
230
0.9999999999999999
 11
0.98481
 21
0.17365
 31
0.0
 73
     1
 44
1.0
  0
MTEXT
  5
A6
100
AcDbEntity
  8
レイヤー_2
 62
     7
100
AcDbMText
 10
178.056832
 20
137.092889
 30
0.0
 40
6.990021
 41
0.0
 71
     1
 72
     2
  1
\fMS PGothic|b0|i0|c128;\H6.9900;\W0.93;\C7;\Q15.00;\U+0036\U+0030
  7
STD
210
0.0
220
0.0
230
1.0
 11
0.0
 21
1.0
 31
0.0
 73
     1
 44
1.0
  0
LINE
  5
A5
100
AcDbEntity
  8
レイヤー_2
 62
     7
100
AcDbLine
 10
145.174946
 20
146.592258
 30
0.0
 11
145.478114
 21
146.62602
 31
0.0
  0
POLYLINE
  5
A0
100
AcDbEntity
  8
レイヤー_2
 62
     7
100
AcDb2dPolyline
 66
     1
 10
0.0
 20
0.0
 30
0.0
  0
VERTEX
  5
A1
100
AcDbEntity
  8
レイヤー_2
 62
     7
100
AcDbVertex
100
AcDb2dVertex
 10
145.146007
 20
146.595703
 30
0.0
  0
VERTEX
  5
A2
100
AcDbEntity
  8
レイヤー_2
 62
     7
100
AcDbVertex
100
AcDb2dVertex
 10
145.171156
 20
146.592258
 30
0.0
  0
VERTEX
  5
A3
100
AcDbEntity
  8
レイヤー_2
 62
     7
100
AcDbVertex
100
AcDb2dVertex
 10
145.174946
 20
146.592258
 30
0.0
  0
SEQEND
  5
A4
100
AcDbEntity
  8
レイヤー_2
 62
     7
  0
LINE
  5
9F
100
AcDbEntity
  8
レイヤー_2
 62
     7
100
AcDbLine
 10
47.070856
 20
172.870241
 30
0.0
 11
145.144629
 21
146.595703
 31
0.0
  0
LINE
  5
9E
100
AcDbEntity
  8
レイヤー_2
 62
     7
100
AcDbLine
 10
149.714548
 20
150.212192
 30
0.0
 11
149.695945
 21
150.331392
 31
0.0
  0
POLYLINE
  5
97
100
AcDbEntity
  8
レイヤー_2
 62
     7
100
AcDb2dPolyline
 66
     1
 10
0.0
 20
0.0
 30
0.0
  0
VERTEX
  5
98
100
AcDbEntity
  8
レイヤー_2
 62
     7
100
AcDbVertex
100
AcDb2dVertex
 10
149.695945
 20
150.331392
 30
0.0
  0
VERTEX
  5
99
100
AcDbEntity
  8
レイヤー_2
 62
     7
100
AcDbVertex
100
AcDb2dVertex
 10
149.687676
 20
150.357575
 30
0.0
  0
VERTEX
  5
9A
100
AcDbEntity
  8
レイヤー_2
 62
     7
100
AcDbVertex
100
AcDb2dVertex
 10
149.670451
 20
150.38238
 30
0.0
  0
VERTEX
  5
9B
100
AcDbEntity
  8
レイヤー_2
 62
     7
100
AcDbVertex
100
AcDb2dVertex
 10
149.645991
 20
150.398916
 30
0.0
  0
VERTEX
  5
9C
100
AcDbEntity
  8
レイヤー_2
 62
     7
100
AcDbVertex
100
AcDb2dVertex
 10
149.634622
 20
150.401672
 30
0.0
  0
SEQEND
  5
9D
100
AcDbEntity
  8
レイヤー_2
 62
     7
  0
LINE
  5
96
100
AcDbEntity
  8
レイヤー_2
 62
     7
100
AcDbLine
 10
149.634622
 20
150.40305
 30
0.0
 11
52.299478
 21
176.480356
 31
0.0
  0
SPLINE
  5
95
100
AcDbEntity
  8
レイヤー_2
 62
     7
100
AcDbSpline
210
0.0
220
0.0
230
1.0
 70
     8
 71
     3
 72
    17
 73
    13
 74
     0
 42
0.00000001
 43
0.00000001
 40
0.0
 40
0.0
 40
0.0
 40
0.0
 40
1.0
 40
1.0
 40
1.0
 40
2.0
 40
2.0
 40
2.0
 40
3.0
 40
3.0
 40
3.0
 40
4.0
 40
4.0
 40
4.0
 40
4.0
 10
47.078091091579857
 20
175.09267171223956
 30
0.0
 10
47.078091091579857
 20
175.09267171223956
 30
0.0
 10
47.049841308593749
 20
175.07889133029514
 30
0.0
 10
47.049841308593749
 20
175.07889133029514
 30
0.0
 10
47.049841308593749
 20
175.07889133029514
 30
0.0
 10
47.031926812065969
 20
175.06097683376734
 30
0.0
 10
47.031926812065969
 20
175.06097683376734
 30
0.0
 10
47.031926812065969
 20
175.06097683376734
 30
0.0
 10
47.017112901475691
 20
175.0347941080729
 30
0.0
 10
47.017112901475691
 20
175.0347941080729
 30
0.0
 10
47.017112901475691
 20
175.0347941080729
 30
0.0
 10
47.012634277343743
 20
175.01412353515624
 30
0.0
 10
47.011600748697916
 20
175.00344373914928
 30
0.0
  0
LINE
  5
94
100
AcDbEntity
  8
レイヤー_2
 62
     7
100
AcDbLine
 10
47.011601
 20
175.003444
 30
0.0
 11
47.011601
 21
172.949478
 31
0.0
  0
LINE
  5
93
100
AcDbEntity
  8
レイヤー_2
 62
     7
100
AcDbLine
 10
52.257448
 20
176.479667
 30
0.0
 11
47.078091
 21
175.092672
 31
0.0
  0
POLYLINE
  5
8C
100
AcDbEntity
  8
レイヤー_2
 62
     7
100
AcDb2dPolyline
 66
     1
 10
0.0
 20
0.0
 30
0.0
  0
VERTEX
  5
8D
100
AcDbEntity
  8
レイヤー_2
 62
     7
100
AcDbVertex
100
AcDb2dVertex
 10
47.011601
 20
172.949478
 30
0.0
  0
VERTEX
  5
8E
100
AcDbEntity
  8
レイヤー_2
 62
     7
100
AcDbVertex
100
AcDb2dVertex
 10
47.015735
 20
172.923984
 30
0.0
  0
VERTEX
  5
8F
100
AcDbEntity
  8
レイヤー_2
 62
     7
100
AcDbVertex
100
AcDb2dVertex
 10
47.028482
 20
172.89849
 30
0.0
  0
VERTEX
  5
90
100
AcDbEntity
  8
レイヤー_2
 62
     7
100
AcDbVertex
100
AcDb2dVertex
 10
47.049497
 20
172.879887
 30
0.0
  0
VERTEX
  5
91
100
AcDbEntity
  8
レイヤー_2
 62
     7
100
AcDbVertex
100
AcDb2dVertex
 10
47.072579
 20
172.870585
 30
0.0
  0
SEQEND
  5
92
100
AcDbEntity
  8
レイヤー_2
 62
     7
  0
POLYLINE
  5
87
100
AcDbEntity
  8
レイヤー_2
 62
     7
100
AcDb2dPolyline
 66
     1
 10
0.0
 20
0.0
 30
0.0
  0
VERTEX
  5
88
100
AcDbEntity
  8
レイヤー_2
 62
     7
100
AcDbVertex
100
AcDb2dVertex
 10
52.298789
 20
176.478978
 30
0.0
  0
VERTEX
  5
89
100
AcDbEntity
  8
レイヤー_2
 62
     7
100
AcDbVertex
100
AcDb2dVertex
 10
52.278118
 20
176.482423
 30
0.0
  0
VERTEX
  5
8A
100
AcDbEntity
  8
レイヤー_2
 62
     7
100
AcDbVertex
100
AcDb2dVertex
 10
52.257448
 20
176.479667
 30
0.0
  0
SEQEND
  5
8B
100
AcDbEntity
  8
レイヤー_2
 62
     7
  0
SPLINE
  5
86
100
AcDbEntity
  8
レイヤー_2
 62
     7
100
AcDbSpline
210
0.0
220
0.0
230
1.0
 70
     8
 71
     3
 72
     8
 73
     4
 74
     0
 42
0.00000001
 43
0.00000001
 40
0.0
 40
0.0
 40
0.0
 40
0.0
 40
1.0
 40
1.0
 40
1.0
 40
1.0
 10
152.60636121961804
 20
144.61339518229164
 30
0.0
 10
152.62324218749998
 20
144.60857204861111
 30
0.0
 10
152.63943413628471
 20
144.60788302951389
 30
0.0
 10
152.65493706597221
 20
144.60995008680555
 30
0.0
  0
LINE
  5
85
100
AcDbEntity
  8
レイヤー_2
 62
     7
100
AcDbLine
 10
152.654937
 20
144.60995
 30
0.0
 11
164.235281
 21
146.096164
 31
0.0
  0
LINE
  5
84
100
AcDbEntity
  8
レイヤー_2
 62
     7
100
AcDbLine
 10
145.581123
 20
146.495106
 30
0.0
 11
152.606361
 21
144.613395
 31
0.0
  0
LINE
  5
83
100
AcDbEntity
  8
レイヤー_2
 62
     7
100
AcDbLine
 10
144.785305
 20
148.754917
 30
0.0
 11
145.493962
 21
146.5771
 31
0.0
  0
SPLINE
  5
82
100
AcDbEntity
  8
レイヤー_2
 62
     7
100
AcDbSpline
210
0.0
220
0.0
230
1.0
 70
     8
 71
     3
 72
    11
 73
     7
 74
     0
 42
0.00000001
 43
0.00000001
 40
0.0
 40
0.0
 40
0.0
 40
0.0
 40
1.0
 40
1.0
 40
1.0
 40
2.0
 40
2.0
 40
2.0
 40
2.0
 10
144.87212185329861
 20
148.91442464192707
 30
0.0
 10
144.81596679687499
 20
148.90029975043402
 30
0.0
 10
144.77910427517361
 20
148.84965684678818
 30
0.0
 10
144.77910427517361
 20
148.79419080946178
 30
0.0
 10
144.77910427517361
 20
148.78041042751735
 30
0.0
 10
144.7818603515625
 20
148.76731906467012
 30
0.0
 10
144.78530544704859
 20
148.75491672092014
 30
0.0
  0
LINE
  5
81
100
AcDbEntity
  8
レイヤー_2
 62
     7
100
AcDbLine
 10
160.529736
 20
153.109862
 30
0.0
 11
144.872122
 21
148.914425
 31
0.0
  0
SPLINE
  5
80
100
AcDbEntity
  8
レイヤー_2
 62
     7
100
AcDbSpline
210
0.0
220
0.0
230
1.0
 70
     8
 71
     3
 72
     8
 73
     4
 74
     0
 42
0.00000001
 43
0.00000001
 40
0.0
 40
0.0
 40
0.0
 40
0.0
 40
1.0
 40
1.0
 40
1.0
 40
1.0
 10
145.49396158854165
 20
146.57709960937498
 30
0.0
 10
145.50774197048611
 20
146.53575846354164
 30
0.0
 10
145.54081488715278
 20
146.50613064236109
 30
0.0
 10
145.58112250434027
 20
146.49510633680555
 30
0.0
  0
SPLINE
  5
7F
100
AcDbEntity
  8
レイヤー_2
 62
     7
100
AcDbSpline
210
0.0
220
0.0
230
1.0
 70
     8
 71
     3
 72
     8
 73
     4
 74
     0
 42
0.00000001
 43
0.00000001
 40
0.0
 40
0.0
 40
0.0
 40
0.0
 40
1.0
 40
1.0
 40
1.0
 40
1.0
 10
168.51512315538193
 20
150.93049452039929
 30
0.0
 10
168.51581217447915
 20
150.93359510633678
 30
0.0
 10
168.51581217447915
 20
150.93635118272567
 30
0.0
 10
168.51581217447915
 20
150.93876274956597
 30
0.0
  0
SPLINE
  5
7E
100
AcDbEntity
  8
レイヤー_2
 62
     7
100
AcDbSpline
210
0.0
220
0.0
230
1.0
 70
     8
 71
     3
 72
     8
 73
     4
 74
     0
 42
0.00000001
 43
0.00000001
 40
0.0
 40
0.0
 40
0.0
 40
0.0
 40
1.0
 40
1.0
 40
1.0
 40
1.0
 10
168.51581217447915
 20
150.93876274956597
 30
0.0
 10
168.51581217447915
 20
150.99698486328123
 30
0.0
 10
168.4768825954861
 20
151.0452162000868
 30
0.0
 10
168.42313910590275
 20
151.06037462022567
 30
0.0
  0
SPLINE
  5
7D
100
AcDbEntity
  8
レイヤー_2
 62
     7
100
AcDbSpline
210
0.0
220
0.0
230
1.0
 70
     8
 71
     3
 72
    11
 73
     7
 74
     0
 42
0.00000001
 43
0.00000001
 40
0.0
 40
0.0
 40
0.0
 40
0.0
 40
1.0
 40
1.0
 40
1.0
 40
2.0
 40
2.0
 40
2.0
 40
2.0
 10
168.51271158854166
 20
150.8595255533854
 30
0.0
 10
168.51271158854166
 20
150.8595255533854
 30
0.0
 10
168.51305609809026
 20
150.87709554036456
 30
0.0
 10
168.51305609809026
 20
150.87709554036456
 30
0.0
 10
168.51305609809026
 20
150.89466552734373
 30
0.0
 10
168.51443413628471
 20
150.91258002387153
 30
0.0
 10
168.51512315538193
 20
150.93049452039929
 30
0.0
  0
LINE
  5
7C
100
AcDbEntity
  8
レイヤー_2
 62
     7
100
AcDbLine
 10
168.512712
 20
136.72895
 30
0.0
 11
168.512712
 21
150.859526
 31
0.0
  0
LINE
  5
7B
100
AcDbEntity
  8
レイヤー_2
 62
     7
100
AcDbLine
 10
168.423139
 20
151.060375
 30
0.0
 11
160.678564
 21
153.134667
 31
0.0
  0
LINE
  5
7A
100
AcDbEntity
  8
レイヤー_2
 62
     7
100
AcDbLine
 10
166.479761
 20
136.261106
 30
0.0
 11
168.409703
 21
136.606304
 31
0.0
  0
SPLINE
  5
79
100
AcDbEntity
  8
レイヤー_2
 62
     7
100
AcDbSpline
210
0.0
220
0.0
230
1.0
 70
     8
 71
     3
 72
     8
 73
     4
 74
     0
 42
0.00000001
 43
0.00000001
 40
0.0
 40
0.0
 40
0.0
 40
0.0
 40
1.0
 40
1.0
 40
1.0
 40
1.0
 10
166.42567274305554
 20
136.26317274305555
 30
0.0
 10
166.44427625868053
 20
136.25834960937499
 30
0.0
 10
166.46287977430555
 20
136.25834960937499
 30
0.0
 10
166.47976074218749
 20
136.26110568576388
 30
0.0
  0
LINE
  5
78
100
AcDbEntity
  8
レイヤー_2
 62
     7
100
AcDbLine
 10
159.329121
 20
138.165554
 30
0.0
 11
166.425673
 21
136.263173
 31
0.0
  0
SPLINE
  5
77
100
AcDbEntity
  8
レイヤー_2
 62
     7
100
AcDbSpline
210
0.0
220
0.0
230
1.0
 70
     8
 71
     3
 72
     8
 73
     4
 74
     0
 42
0.00000001
 43
0.00000001
 40
0.0
 40
0.0
 40
0.0
 40
0.0
 40
1.0
 40
1.0
 40
1.0
 40
1.0
 10
168.40970323350692
 20
136.60630425347222
 30
0.0
 10
168.47033691406247
 20
136.61732855902775
 30
0.0
 10
168.51271158854166
 20
136.66900499131944
 30
0.0
 10
168.51271158854166
 20
136.72894965277777
 30
0.0
  0
LINE
  5
76
100
AcDbEntity
  8
レイヤー_2
 62
     7
100
AcDbLine
 10
158.268031
 20
145.329975
 30
0.0
 11
159.237481
 21
138.268907
 31
0.0
  0
SPLINE
  5
75
100
AcDbEntity
  8
レイヤー_2
 62
     7
100
AcDbSpline
210
0.0
220
0.0
230
1.0
 70
     8
 71
     3
 72
    11
 73
     7
 74
     0
 42
0.00000001
 43
0.00000001
 40
0.0
 40
0.0
 40
0.0
 40
0.0
 40
1.0
 40
1.0
 40
1.0
 40
2.0
 40
2.0
 40
2.0
 40
2.0
 10
160.60587293836804
 20
153.13259955512152
 30
0.0
 10
160.60587293836804
 20
153.13259955512152
 30
0.0
 10
160.58795844184027
 20
153.12674289279514
 30
0.0
 10
160.58795844184027
 20
153.12674289279514
 30
0.0
 10
160.57004394531248
 20
153.12088623046873
 30
0.0
 10
160.54971788194442
 20
153.11502956814235
 30
0.0
 10
160.52973632812498
 20
153.10986192491319
 30
0.0
  0
SPLINE
  5
74
100
AcDbEntity
  8
レイヤー_2
 62
     7
100
AcDbSpline
210
0.0
220
0.0
230
1.0
 70
     8
 71
     3
 72
     8
 73
     4
 74
     0
 42
0.00000001
 43
0.00000001
 40
0.0
 40
0.0
 40
0.0
 40
0.0
 40
1.0
 40
1.0
 40
1.0
 40
1.0
 10
160.67856445312498
 20
153.13466661241318
 30
0.0
 10
160.65341525607639
 20
153.14121229383679
 30
0.0
 10
160.62792154947914
 20
153.14052327473956
 30
0.0
 10
160.60587293836804
 20
153.13259955512152
 30
0.0
  0
SPLINE
  5
73
100
AcDbEntity
  8
レイヤー_2
 62
     7
100
AcDbSpline
210
0.0
220
0.0
230
1.0
 70
     8
 71
     3
 72
     8
 73
     4
 74
     0
 42
0.00000001
 43
0.00000001
 40
0.0
 40
0.0
 40
0.0
 40
0.0
 40
1.0
 40
1.0
 40
1.0
 40
1.0
 10
159.2374810112847
 20
138.26890733506943
 30
0.0
 10
159.24471571180555
 20
138.21791992187499
 30
0.0
 10
159.28192274305553
 20
138.1779568142361
 30
0.0
 10
159.32912055121525
 20
138.16555447048609
 30
0.0
  0
SPLINE
  5
72
100
AcDbEntity
  8
レイヤー_2
 62
     7
100
AcDbSpline
210
0.0
220
0.0
230
1.0
 70
     8
 71
     3
 72
     8
 73
     4
 74
     0
 42
0.00000001
 43
0.00000001
 40
0.0
 40
0.0
 40
0.0
 40
0.0
 40
1.0
 40
1.0
 40
1.0
 40
1.0
 10
46.689139811197911
 20
172.98909640842012
 30
0.0
 10
46.705331759982634
 20
172.98496229383679
 30
0.0
 10
46.721868218315969
 20
172.98461778428819
 30
0.0
 10
46.736682128906246
 20
172.98634033203123
 30
0.0
  0
LINE
  5
71
100
AcDbEntity
  8
レイヤー_2
 62
     7
100
AcDbLine
 10
46.737716
 20
172.98634
 30
0.0
 11
47.011601
 21
173.02148
 31
0.0
  0
LINE
  5
70
100
AcDbEntity
  8
レイヤー_2
 62
     7
100
AcDbLine
 10
39.663212
 20
174.872186
 30
0.0
 11
46.68914
 21
172.989096
 31
0.0
  0
LINE
  5
6F
100
AcDbEntity
  8
レイヤー_2
 62
     7
100
AcDbLine
 10
38.86774
 20
177.131824
 30
0.0
 11
39.576051
 21
174.954179
 31
0.0
  0
SPLINE
  5
6E
100
AcDbEntity
  8
レイヤー_2
 62
     7
100
AcDbSpline
210
0.0
220
0.0
230
1.0
 70
     8
 71
     3
 72
    11
 73
     7
 74
     0
 42
0.00000001
 43
0.00000001
 40
0.0
 40
0.0
 40
0.0
 40
0.0
 40
1.0
 40
1.0
 40
1.0
 40
2.0
 40
2.0
 40
2.0
 40
2.0
 10
38.954211425781246
 20
177.2916761610243
 30
0.0
 10
38.898745388454856
 20
177.2761732313368
 30
0.0
 10
38.861882866753469
 20
177.22587483723956
 30
0.0
 10
38.861882866753469
 20
177.17075330946179
 30
0.0
 10
38.861882866753469
 20
177.15662841796873
 30
0.0
 10
38.863949924045137
 20
177.14388156467012
 30
0.0
 10
38.867739529079856
 20
177.13182373046874
 30
0.0
  0
LINE
  5
6D
100
AcDbEntity
  8
レイヤー_2
 62
     7
100
AcDbLine
 10
54.612515
 20
181.486769
 30
0.0
 11
38.954211
 21
177.291676
 31
0.0
  0
SPLINE
  5
6C
100
AcDbEntity
  8
レイヤー_2
 62
     7
100
AcDbSpline
210
0.0
220
0.0
230
1.0
 70
     8
 71
     3
 72
     8
 73
     4
 74
     0
 42
0.00000001
 43
0.00000001
 40
0.0
 40
0.0
 40
0.0
 40
0.0
 40
1.0
 40
1.0
 40
1.0
 40
1.0
 10
39.576051161024303
 20
174.95417887369791
 30
0.0
 10
39.589831542968746
 20
174.91283772786457
 30
0.0
 10
39.623593478732637
 20
174.88286539713539
 30
0.0
 10
39.663212076822916
 20
174.87218560112845
 30
0.0
  0
SPLINE
  5
6B
100
AcDbEntity
  8
レイヤー_2
 62
     7
100
AcDbSpline
210
0.0
220
0.0
230
1.0
 70
     8
 71
     3
 72
     8
 73
     4
 74
     0
 42
0.00000001
 43
0.00000001
 40
0.0
 40
0.0
 40
0.0
 40
0.0
 40
1.0
 40
1.0
 40
1.0
 40
1.0
 10
62.598246256510414
 20
179.3074015299479
 30
0.0
 10
62.598246256510414
 20
179.30946858723956
 30
0.0
 10
62.598246256510414
 20
179.31291368272568
 30
0.0
 10
62.598246256510414
 20
179.31532524956594
 30
0.0
  0
SPLINE
  5
6A
100
AcDbEntity
  8
レイヤー_2
 62
     7
100
AcDbSpline
210
0.0
220
0.0
230
1.0
 70
     8
 71
     3
 72
     8
 73
     4
 74
     0
 42
0.00000001
 43
0.00000001
 40
0.0
 40
0.0
 40
0.0
 40
0.0
 40
1.0
 40
1.0
 40
1.0
 40
1.0
 10
62.598246256510414
 20
179.31532524956594
 30
0.0
 10
62.598246256510414
 20
179.37320285373264
 30
0.0
 10
62.558627658420136
 20
179.42143419053818
 30
0.0
 10
62.505573187934019
 20
179.43659261067705
 30
0.0
  0
SPLINE
  5
69
100
AcDbEntity
  8
レイヤー_2
 62
     7
100
AcDbSpline
210
0.0
220
0.0
230
1.0
 70
     8
 71
     3
 72
    11
 73
     7
 74
     0
 42
0.00000001
 43
0.00000001
 40
0.0
 40
0.0
 40
0.0
 40
0.0
 40
1.0
 40
1.0
 40
1.0
 40
2.0
 40
2.0
 40
2.0
 40
2.0
 10
62.595145670572911
 20
179.23574354383678
 30
0.0
 10
62.595145670572911
 20
179.23574354383678
 30
0.0
 10
62.595145670572911
 20
179.25365804036457
 30
0.0
 10
62.595145670572911
 20
179.25365804036457
 30
0.0
 10
62.596179199218746
 20
179.27157253689234
 30
0.0
 10
62.596868218315969
 20
179.2891425238715
 30
0.0
 10
62.598246256510414
 20
179.3074015299479
 30
0.0
  0
LINE
  5
68
100
AcDbEntity
  8
レイヤー_2
 62
     7
100
AcDbLine
 10
62.595146
 20
165.10534
 30
0.0
 11
62.595146
 21
168.710977
 31
0.0
  0
LINE
  5
67
100
AcDbEntity
  8
レイヤー_2
 62
     7
100
AcDbLine
 10
62.595146
 20
173.721868
 30
0.0
 11
62.595146
 21
179.235744
 31
0.0
  0
LINE
  5
66
100
AcDbEntity
  8
レイヤー_2
 62
     7
100
AcDbLine
 10
62.505573
 20
179.436593
 30
0.0
 11
54.760654
 21
181.511574
 31
0.0
  0
LINE
  5
65
100
AcDbEntity
  8
レイヤー_2
 62
     7
100
AcDbLine
 10
60.562195
 20
164.63784
 30
0.0
 11
62.492482
 21
164.982005
 31
0.0
  0
SPLINE
  5
64
100
AcDbEntity
  8
レイヤー_2
 62
     7
100
AcDbSpline
210
0.0
220
0.0
230
1.0
 70
     8
 71
     3
 72
     8
 73
     4
 74
     0
 42
0.00000001
 43
0.00000001
 40
0.0
 40
0.0
 40
0.0
 40
0.0
 40
1.0
 40
1.0
 40
1.0
 40
1.0
 10
60.507762315538187
 20
164.63990749782985
 30
0.0
 10
60.52636583116319
 20
164.63508436414929
 30
0.0
 10
60.544969346788186
 20
164.63405083550344
 30
0.0
 10
60.562194824218743
 20
164.63784044053818
 30
0.0
  0
LINE
  5
63
100
AcDbEntity
  8
レイヤー_2
 62
     7
100
AcDbLine
 10
53.411899
 20
166.541256
 30
0.0
 11
60.507762
 21
164.639907
 31
0.0
  0
SPLINE
  5
62
100
AcDbEntity
  8
レイヤー_2
 62
     7
100
AcDbSpline
210
0.0
220
0.0
230
1.0
 70
     8
 71
     3
 72
     8
 73
     4
 74
     0
 42
0.00000001
 43
0.00000001
 40
0.0
 40
0.0
 40
0.0
 40
0.0
 40
1.0
 40
1.0
 40
1.0
 40
1.0
 10
62.492481825086799
 20
164.98200547960067
 30
0.0
 10
62.55242648654513
 20
164.99302978515624
 30
0.0
 10
62.5948011610243
 20
165.04573974609374
 30
0.0
 10
62.595145670572911
 20
165.10533989800345
 30
0.0
  0
LINE
  5
61
100
AcDbEntity
  8
レイヤー_2
 62
     7
100
AcDbLine
 10
52.670859
 20
171.370246
 30
0.0
 11
53.319915
 21
166.644953
 31
0.0
  0
SPLINE
  5
60
100
AcDbEntity
  8
レイヤー_2
 62
     7
100
AcDbSpline
210
0.0
220
0.0
230
1.0
 70
     8
 71
     3
 72
    11
 73
     7
 74
     0
 42
0.00000001
 43
0.00000001
 40
0.0
 40
0.0
 40
0.0
 40
0.0
 40
1.0
 40
1.0
 40
1.0
 40
2.0
 40
2.0
 40
2.0
 40
2.0
 10
54.688651529947911
 20
181.50916205512152
 30
0.0
 10
54.688651529947911
 20
181.50916205512152
 30
0.0
 10
54.670048014322909
 20
181.50330539279511
 30
0.0
 10
54.670048014322909
 20
181.50330539279511
 30
0.0
 10
54.652133517795136
 20
181.49744873046873
 30
0.0
 10
54.631807454427076
 20
181.49124755859373
 30
0.0
 10
54.612514919704857
 20
181.48676893446179
 30
0.0
  0
SPLINE
  5
5F
100
AcDbEntity
  8
レイヤー_2
 62
     7
100
AcDbSpline
210
0.0
220
0.0
230
1.0
 70
     8
 71
     3
 72
     8
 73
     4
 74
     0
 42
0.00000001
 43
0.00000001
 40
0.0
 40
0.0
 40
0.0
 40
0.0
 40
1.0
 40
1.0
 40
1.0
 40
1.0
 10
54.760654025607636
 20
181.51157362196179
 30
0.0
 10
54.735160319010411
 20
181.51811930338539
 30
0.0
 10
54.71035563151041
 20
181.51674126519094
 30
0.0
 10
54.688651529947911
 20
181.50916205512152
 30
0.0
  0
SPLINE
  5
5E
100
AcDbEntity
  8
レイヤー_2
 62
     7
100
AcDbSpline
210
0.0
220
0.0
230
1.0
 70
     8
 71
     3
 72
     8
 73
     4
 74
     0
 42
0.00000001
 43
0.00000001
 40
0.0
 40
0.0
 40
0.0
 40
0.0
 40
1.0
 40
1.0
 40
1.0
 40
1.0
 10
53.31991509331597
 20
166.64495307074651
 30
0.0
 10
53.327149793836803
 20
166.59431016710067
 30
0.0
 10
53.36401231553819
 20
166.5543470594618
 30
0.0
 10
53.411899142795136
 20
166.54125569661457
 30
0.0
  0
LINE
  5
5D
100
AcDbEntity
  8
レイヤー_2
 62
     7
100
AcDbLine
 10
144.43425
 20
148.907879
 30
0.0
 11
145.167022
 21
146.657715
 31
0.0
  0
LINE
  5
5C
100
AcDbEntity
  8
レイヤー_2
 62
     7
100
AcDbLine
 10
149.638411
 20
150.384447
 30
0.0
 11
144.459399
 21
148.996762
 31
0.0
  0
LINE
  5
5B
100
AcDbEntity
  8
レイヤー_2
 62
     7
100
AcDbLine
 10
144.381196
 20
148.96369
 30
0.0
 11
47.041918
 21
175.042373
 31
0.0
  0
SPLINE
  5
5A
100
AcDbEntity
  8
レイヤー_2
 62
     7
100
AcDbSpline
210
0.0
220
0.0
230
1.0
 70
     8
 71
     3
 72
     8
 73
     4
 74
     0
 42
0.00000001
 43
0.00000001
 40
0.0
 40
0.0
 40
0.0
 40
0.0
 40
1.0
 40
1.0
 40
1.0
 40
1.0
 10
145.14462890624998
 20
146.595703125
 30
0.0
 10
145.15083007812498
 20
146.59432508680555
 30
0.0
 10
145.15565321180554
 20
146.59363606770833
 30
0.0
 10
145.16116536458333
 20
146.59432508680555
 30
0.0
  0
LINE
  5
59
100
AcDbEntity
  8
レイヤー_2
 62
     7
100
AcDbLine
 10
152.654248
 20
146.65427
 30
0.0
 11
152.654248
 21
144.665761
 31
0.0
  0
LINE
  5
58
100
AcDbEntity
  8
レイヤー_2
 62
     7
100
AcDbLine
 10
152.553651
 20
146.73833
 30
0.0
 11
144.819067
 21
148.810383
 31
0.0
  0
LINE
  5
57
100
AcDbEntity
  8
レイヤー_2
 62
     7
100
AcDbLine
 10
168.390755
 20
150.938763
 30
0.0
 11
152.732796
 21
146.743842
 31
0.0
  0
SPLINE
  5
56
100
AcDbEntity
  8
レイヤー_2
 62
     7
100
AcDbSpline
210
0.0
220
0.0
230
1.0
 70
     8
 71
     3
 72
     8
 73
     4
 74
     0
 42
0.00000001
 43
0.00000001
 40
0.0
 40
0.0
 40
0.0
 40
0.0
 40
1.0
 40
1.0
 40
1.0
 40
1.0
 10
160.56246473524305
 20
153.10882839626734
 30
0.0
 10
160.59278157552083
 20
153.11744113498261
 30
0.0
 10
160.62172037760416
 20
153.12674289279514
 30
0.0
 10
160.64549153645831
 20
153.13466661241318
 30
0.0
  0
LINE
  5
55
100
AcDbEntity
  8
レイヤー_2
 62
     7
100
AcDbLine
 10
168.42624
 20
150.863315
 30
0.0
 11
164.479538
 21
146.117524
 31
0.0
  0
SPLINE
  5
54
100
AcDbEntity
  8
レイヤー_2
 62
     7
100
AcDbSpline
210
0.0
220
0.0
230
1.0
 70
     8
 71
     3
 72
     8
 73
     4
 74
     0
 42
0.00000001
 43
0.00000001
 40
0.0
 40
0.0
 40
0.0
 40
0.0
 40
1.0
 40
1.0
 40
1.0
 40
1.0
 10
164.31486273871525
 20
146.07411566840275
 30
0.0
 10
164.28523491753469
 20
146.09616427951389
 30
0.0
 10
164.24837239583331
 20
146.10305447048609
 30
0.0
 10
164.20978732638886
 20
146.09754231770833
 30
0.0
  0
LINE
  5
53
100
AcDbEntity
  8
レイヤー_2
 62
     7
100
AcDbLine
 10
166.437042
 20
136.325873
 30
0.0
 11
164.441298
 21
145.877745
 31
0.0
  0
SPLINE
  5
52
100
AcDbEntity
  8
レイヤー_2
 62
     7
100
AcDbSpline
210
0.0
220
0.0
230
1.0
 70
     8
 71
     3
 72
     8
 73
     4
 74
     0
 42
0.00000001
 43
0.00000001
 40
0.0
 40
0.0
 40
0.0
 40
0.0
 40
1.0
 40
1.0
 40
1.0
 40
1.0
 10
164.44129774305554
 20
145.87774522569444
 30
0.0
 10
164.42923990885416
 20
145.93424479166666
 30
0.0
 10
164.40512424045139
 20
145.98178710937498
 30
0.0
 10
164.37274034288194
 20
146.01830512152776
 30
0.0
  0
SPLINE
  5
51
100
AcDbEntity
  8
レイヤー_2
 62
     7
100
AcDbSpline
210
0.0
220
0.0
230
1.0
 70
     8
 71
     3
 72
    11
 73
     7
 74
     0
 42
0.00000001
 43
0.00000001
 40
0.0
 40
0.0
 40
0.0
 40
0.0
 40
1.0
 40
1.0
 40
1.0
 40
2.0
 40
2.0
 40
2.0
 40
2.0
 10
164.37274034288194
 20
146.01830512152776
 30
0.0
 10
164.35723741319444
 20
146.03484157986111
 30
0.0
 10
164.34207899305554
 20
146.05206705729165
 30
0.0
 10
164.32760959201389
 20
146.06446940104166
 30
0.0
 10
164.32760959201389
 20
146.06446940104166
 30
0.0
 10
164.31486273871525
 20
146.07411566840275
 30
0.0
 10
164.31486273871525
 20
146.07411566840275
 30
0.0
  0
LINE
  5
50
100
AcDbEntity
  8
レイヤー_2
 62
     7
100
AcDbLine
 10
46.718768
 20
175.055809
 30
0.0
 11
46.718768
 21
173.068334
 31
0.0
  0
LINE
  5
4F
100
AcDbEntity
  8
レイヤー_2
 62
     7
100
AcDbLine
 10
38.909425
 20
177.212094
 30
0.0
 11
46.644009
 21
175.13987
 31
0.0
  0
LINE
  5
4E
100
AcDbEntity
  8
レイヤー_2
 62
     7
100
AcDbLine
 10
46.796971
 20
175.144004
 30
0.0
 11
62.454586
 21
179.339096
 31
0.0
  0
SPLINE
  5
4D
100
AcDbEntity
  8
レイヤー_2
 62
     7
100
AcDbSpline
210
0.0
220
0.0
230
1.0
 70
     8
 71
     3
 72
     8
 73
     4
 74
     0
 42
0.00000001
 43
0.00000001
 40
0.0
 40
0.0
 40
0.0
 40
0.0
 40
1.0
 40
1.0
 40
1.0
 40
1.0
 10
52.299477810329854
 20
176.48035617404511
 30
0.0
 10
52.292243109809021
 20
176.48207872178818
 30
0.0
 10
52.283974880642354
 20
176.48207872178818
 30
0.0
 10
52.27639567057291
 20
176.47966715494789
 30
0.0
  0
SPLINE
  5
4C
100
AcDbEntity
  8
レイヤー_2
 62
     7
100
AcDbSpline
210
0.0
220
0.0
230
1.0
 70
     8
 71
     3
 72
     8
 73
     4
 74
     0
 42
0.00000001
 43
0.00000001
 40
0.0
 40
0.0
 40
0.0
 40
0.0
 40
1.0
 40
1.0
 40
1.0
 40
1.0
 10
47.097383626302076
 20
175.09232720269097
 30
0.0
 10
47.090493435329854
 20
175.09404975043401
 30
0.0
 10
47.083258734809021
 20
175.09404975043401
 30
0.0
 10
47.078091091579857
 20
175.09267171223956
 30
0.0
  0
SPLINE
  5
4B
100
AcDbEntity
  8
レイヤー_2
 62
     7
100
AcDbSpline
210
0.0
220
0.0
230
1.0
 70
     8
 71
     3
 72
     8
 73
     4
 74
     0
 42
0.00000001
 43
0.00000001
 40
0.0
 40
0.0
 40
0.0
 40
0.0
 40
1.0
 40
1.0
 40
1.0
 40
1.0
 10
52.277429199218744
 20
176.47966715494789
 30
0.0
 10
52.270194498697911
 20
176.48173421223956
 30
0.0
 10
52.26330430772569
 20
176.48173421223956
 30
0.0
 10
52.257447645399303
 20
176.47966715494789
 30
0.0
  0
POLYLINE
  5
46
100
AcDbEntity
  8
レイヤー_2
 62
     7
100
AcDb2dPolyline
 66
     1
 10
0.0
 20
0.0
 30
0.0
  0
VERTEX
  5
47
100
AcDbEntity
  8
レイヤー_2
 62
     7
100
AcDbVertex
100
AcDb2dVertex
 10
160.529736
 20
153.109862
 30
0.0
  0
VERTEX
  5
48
100
AcDbEntity
  8
レイヤー_2
 62
     7
100
AcDbVertex
100
AcDb2dVertex
 10
160.542828
 20
153.111584
 30
0.0
  0
VERTEX
  5
49
100
AcDbEntity
  8
レイヤー_2
 62
     7
100
AcDbVertex
100
AcDb2dVertex
 10
160.562465
 20
153.108828
 30
0.0
  0
SEQEND
  5
4A
100
AcDbEntity
  8
レイヤー_2
 62
     7
  0
POLYLINE
  5
41
100
AcDbEntity
  8
レイヤー_2
 62
     7
100
AcDb2dPolyline
 66
     1
 10
0.0
 20
0.0
 30
0.0
  0
VERTEX
  5
42
100
AcDbEntity
  8
レイヤー_2
 62
     7
100
AcDbVertex
100
AcDb2dVertex
 10
160.646181
 20
153.134667
 30
0.0
  0
VERTEX
  5
43
100
AcDbEntity
  8
レイヤー_2
 62
     7
100
AcDbVertex
100
AcDb2dVertex
 10
160.663751
 20
153.136734
 30
0.0
  0
VERTEX
  5
44
100
AcDbEntity
  8
レイヤー_2
 62
     7
100
AcDbVertex
100
AcDb2dVertex
 10
160.678564
 20
153.134667
 30
0.0
  0
SEQEND
  5
45
100
AcDbEntity
  8
レイヤー_2
 62
     7
  0
SPLINE
  5
40
100
AcDbEntity
  8
レイヤー_2
 62
     7
100
AcDbSpline
210
0.0
220
0.0
230
1.0
 70
     8
 71
     3
 72
     8
 73
     4
 74
     0
 42
0.00000001
 43
0.00000001
 40
0.0
 40
0.0
 40
0.0
 40
0.0
 40
1.0
 40
1.0
 40
1.0
 40
1.0
 10
160.64618055555553
 20
153.13466661241318
 30
0.0
 10
160.63171115451388
 20
153.13776719835067
 30
0.0
 10
160.61793077256942
 20
153.13673366970485
 30
0.0
 10
160.60587293836804
 20
153.13259955512152
 30
0.0
  0
LINE
  5
3F
100
AcDbEntity
  8
レイヤー_2
 62
     7
100
AcDbLine
 10
58.776602
 20
174.744717
 30
0.0
 11
62.509363
 21
179.232643
 31
0.0
  0
LINE
  5
3E
100
AcDbEntity
  8
レイヤー_2
 62
     7
100
AcDbLine
 10
60.532567
 20
164.720867
 30
0.0
 11
59.554504
 21
169.556403
 31
0.0
  0
LINE
  5
3D
100
AcDbEntity
  8
レイヤー_2
 62
     7
100
AcDbLine
 10
54.855739
 20
182.2974
 30
0.0
 11
54.855739
 21
206.72795
 31
0.0
  0
LINE
  5
3C
100
AcDbEntity
  8
レイヤー_2
 62
     7
100
AcDbLine
 10
169.801522
 20
136.456787
 30
0.0
 11
186.45408
 21
131.995388
 31
0.0
  0
LINE
  5
3B
100
AcDbEntity
  8
レイヤー_2
 62
     7
100
AcDbLine
 10
39.724535
 20
203.213953
 30
0.0
 11
39.724535
 21
178.737238
 31
0.0
  0
LINE
  5
3A
100
AcDbEntity
  8
レイヤー_2
 62
     7
100
AcDbLine
 10
40.88002
 20
202.898037
 30
0.0
 11
38.734414
 21
200.752776
 31
0.0
  0
LINE
  5
39
100
AcDbEntity
  8
レイヤー_2
 62
     7
100
AcDbLine
 10
185.611065
 20
148.0516
 30
0.0
 11
185.611065
 21
130.881245
 31
0.0
  0
LINE
  5
38
100
AcDbEntity
  8
レイヤー_2
 62
     7
100
AcDbLine
 10
55.954724
 20
206.065458
 30
0.0
 11
38.689973
 21
201.439384
 31
0.0
  0
LINE
  5
37
100
AcDbEntity
  8
レイヤー_2
 62
     7
100
AcDbLine
 10
186.436854
 20
130.779959
 30
0.0
 11
184.772873
 21
133.660748
 31
0.0
  0
LINE
  5
36
100
AcDbEntity
  8
レイヤー_2
 62
     7
100
AcDbLine
 10
55.8841
 20
206.860931
 30
0.0
 11
53.585876
 21
204.562708
 31
0.0
  0
LINE
  5
35
100
AcDbEntity
  8
レイヤー_2
 62
     7
100
AcDbLine
 10
169.104924
 20
151.840344
 30
0.0
 11
169.104924
 21
165.808139
 31
0.0
  0
LINE
  5
34
100
AcDbEntity
  8
レイヤー_2
 62
     7
100
AcDbLine
 10
165.895473
 20
179.101385
 30
0.0
 11
163.597594
 21
176.802473
 31
0.0
  0
LINE
  5
33
100
AcDbEntity
  8
レイヤー_2
 62
     7
100
AcDbLine
 10
58.478601
 20
206.27492
 30
0.0
 11
166.33989
 21
177.374014
 31
0.0
  0
LINE
  5
32
100
AcDbEntity
  8
レイヤー_2
 62
     7
100
AcDbLine
 10
169.599639
 20
150.842989
 30
0.0
 11
186.664575
 21
146.269797
 31
0.0
  0
LINE
  5
31
100
AcDbEntity
  8
レイヤー_2
 62
     7
100
AcDbLine
 10
186.436854
 20
145.113623
 30
0.0
 11
184.772873
 21
147.994412
 31
0.0
  0
LINE
  5
30
100
AcDbEntity
  8
レイヤー_2
 62
     7
100
AcDbLine
 10
159.817635
 20
166.804461
 30
0.0
 11
178.048736
 21
161.91966
 31
0.0
  0
LINE
  5
2F
100
AcDbEntity
  8
レイヤー_2
 62
     7
100
AcDbLine
 10
164.764792
 20
153.266958
 30
0.0
 11
164.764792
 21
164.741193
 31
0.0
  0
LINE
  5
2E
100
AcDbEntity
  8
レイヤー_2
 62
     7
100
AcDbLine
 10
164.764792
 20
166.10304
 30
0.0
 11
164.764792
 21
179.21335
 31
0.0
  0
LINE
  5
2D
100
AcDbEntity
  8
レイヤー_2
 62
     7
100
AcDbLine
 10
170.235604
 20
165.527709
 30
0.0
 11
167.937381
 21
163.22983
 31
0.0
  0
LINE
  5
2C
100
AcDbEntity
  8
レイヤー_2
 62
     7
100
AcDbLine
 10
160.982766
 20
153.886731
 30
0.0
 11
160.982766
 21
167.841779
 31
0.0
  0
LINE
  5
2B
100
AcDbEntity
  8
レイヤー_2
 62
     7
100
AcDbLine
 10
162.113447
 20
167.51794
 30
0.0
 11
159.815568
 21
165.220406
 31
0.0
  0
LINE
  5
2A
100
AcDbEntity
  8
レイヤー_2
 62
     7
100
AcDbLine
 10
59.576898
 20
181.032361
 30
0.0
 11
59.576898
 21
206.857486
 31
0.0
  0
LINE
  5
29
100
AcDbEntity
  8
レイヤー_2
 62
     7
100
AcDbLine
 10
60.722047
 20
207.117935
 30
0.0
 11
58.424169
 21
204.819712
 31
0.0
  0
ENDSEC
  0
SECTION
  2
OBJECTS
  0
DICTIONARY
  5
19
100
AcDbDictionary
280
     0
281
     1
  3
ACAD_GROUP
350
1A
  3
ACAD_MLINESTYLE
350
1B
  3
ACAD_LAYOUT
350
1E
  3
ACAD_PLOTSETTINGS
350
22
  3
ACAD_PLOTSTYLENAME
350
1F
  3
ACAD_WIPEOUT_VARS
350
23
  0
DICTIONARY
  5
1A
102
{ACAD_REACTORS
330
19
102
}
100
AcDbDictionary
280
     0
281
     1
  0
DICTIONARY
  5
1B
102
{ACAD_REACTORS
330
19
102
}
100
AcDbDictionary
280
     0
281
     1
  3
Standard
350
1C
  0
MLINESTYLE
  5
1C
102
{ACAD_REACTORS
330
1B
102
}
100
AcDbMlineStyle
  2
Standard
 70
     0
  3

 62
     0
 51
90.0
 52
90.0
 71
     2
 49
0.5
 62
   256
  6
ByLayer
 49
-0.5
 62
   256
  6
ByLayer
  0
ACDBDICTIONARYWDFLT
  5
1F
102
{ACAD_REACTORS
330
19
102
}
100
AcDbDictionary
281
     1
  3
Normal
350
1D
100
AcDbDictionaryWithDefault
340
1D
  0
ACDBPLACEHOLDER
  5
1D
102
{ACAD_REACTORS
330
1F
102
}
  0
LAYOUT
  5
20
102
{ACAD_REACTORS
330
1E
102
}
100
AcDbPlotSettings
  1

  2

  4

  6

 40
0.0
 41
0.0
 42
0.0
 43
0.0
 44
0.0
 45
0.0
 46
0.0
 47
0.0
 48
0.0
 49
0.0
140
0.0
141
0.0
142
1.0
143
1.0
 70
  1024
 72
     0
 73
     0
 74
     0
  7

 75
     0
147
1.0
148
0.0
149
0.0
100
AcDbLayout
  1
Model
 70
     0
 71
     0
 10
0.0
 20
0.0
 11
0.0
 21
0.0
 12
0.0
 22
0.0
 32
0.0
 14
0.0
 24
0.0
 34
0.0
 15
0.0
 25
0.0
 35
0.0
146
0.0
 13
0.0
 23
0.0
 33
0.0
 16
0.0
 26
0.0
 36
0.0
 17
0.0
 27
0.0
 37
0.0
 76
     0
330
A
331
0
345
0
346
0
  0
LAYOUT
  5
21
102
{ACAD_REACTORS
330
1E
102
}
100
AcDbPlotSettings
  1

  2

  4

  6

 40
0.0
 41
0.0
 42
0.0
 43
0.0
 44
0.0
 45
0.0
 46
0.0
 47
0.0
 48
0.0
 49
0.0
140
0.0
141
0.0
142
1.0
143
1.0
 70
     0
 72
     0
 73
     0
 74
     0
  7

 75
     0
147
1.0
148
0.0
149
0.0
100
AcDbLayout
  1
Layout1
 70
     0
 71
     0
 10
0.0
 20
0.0
 11
0.0
 21
0.0
 12
0.0
 22
0.0
 32
0.0
 14
0.0
 24
0.0
 34
0.0
 15
0.0
 25
0.0
 35
0.0
146
0.0
 13
0.0
 23
0.0
 33
0.0
 16
0.0
 26
0.0
 36
0.0
 17
0.0
 27
0.0
 37
0.0
 76
     0
330
B
331
0
345
0
346
0
  0
DICTIONARY
  5
1E
102
{ACAD_REACTORS
330
19
102
}
100
AcDbDictionary
280
     0
281
     1
  3
Layout1
350
21
  3
Model
350
20
  0
DICTIONARY
  5
22
102
{ACAD_REACTORS
330
19
102
}
100
AcDbDictionary
280
     0
281
     1
  0
WIPEOUTVARIABLES
  5
23
100
AcDbWipeoutVariables
 70
     1
  0
IMAGEDEF_REACTOR
  5
AE
100
AcDbRasterImageDefReactor
 90
        2
330
AD
  0
IMAGEDEF
  5
AF
100
AcDbRasterImageDef
 90
        0
  1
\\192.168.6.3\free(2009_04\一過性\DB_WEB用DXF_丸茂\SUPERNOVA\83060730_1.bmp
 10
70.0
 20
9.0
 11
0.352778
 21
0.352778
280
     1
281
     0
  0
IMAGEDEF_REACTOR
  5
B1
100
AcDbRasterImageDefReactor
 90
        2
330
B0
  0
IMAGEDEF
  5
B2
100
AcDbRasterImageDef
 90
        0
  1
\\192.168.6.3\free(2009_04\一過性\DB_WEB用DXF_丸茂\SUPERNOVA\83060730_2.bmp
 10
70.0
 20
9.0
 11
0.352778
 21
0.352778
280
     1
281
     0
  0
ENDSEC
  0
EOF
