  0
SECTION
  2
HEADER
  9
$ACADVER
  1
AC1015
  9
$ACADMAINTVER
 70
     6
  9
$DWGCODEPAGE
  3
ANSI_932
  9
$INSBASE
 10
0.0
 20
0.0
 30
0.0
  9
$EXTMIN
 10
16.698206
 20
23.015305
 30
1.000000E+20
  9
$EXTMAX
 10
192.381711
 20
273.134922
 30
-1.000000E+20
  9
$LIMMIN
 10
16.698206
 20
23.015305
  9
$LIMMAX
 10
192.381711
 20
273.134922
  9
$ORTHOMODE
 70
     0
  9
$REGENMODE
 70
     1
  9
$FILLMODE
 70
     1
  9
$QTEXTMODE
 70
     0
  9
$MIRRTEXT
 70
     1
  9
$LTSCALE
 40
1.0
  9
$ATTMODE
 70
     1
  9
$TEXTSIZE
 40
0.2
  9
$TRACEWID
 40
0.05
  9
$TEXTSTYLE
  7
Standard
  9
$CLAYER
  8
0
  9
$CELTYPE
  6
Continuous
  9
$CECOLOR
 62
   256
  9
$CELTSCALE
 40
1.0
  9
$DISPSILH
 70
     0
  9
$DIMSCALE
 40
1.0
  9
$DIMASZ
 40
0.18
  9
$DIMEXO
 40
0.0625
  9
$DIMDLI
 40
0.38
  9
$DIMRND
 40
0.0
  9
$DIMDLE
 40
0.0
  9
$DIMEXE
 40
0.18
  9
$DIMTP
 40
0.0
  9
$DIMTM
 40
0.0
  9
$DIMTXT
 40
0.18
  9
$DIMCEN
 40
0.09
  9
$DIMTSZ
 40
0.0
  9
$DIMTOL
 70
     0
  9
$DIMLIM
 70
     0
  9
$DIMTIH
 70
     1
  9
$DIMTOH
 70
     1
  9
$DIMSE1
 70
     0
  9
$DIMSE2
 70
     0
  9
$DIMTAD
 70
     0
  9
$DIMZIN
 70
     0
  9
$DIMBLK
  1

  9
$DIMASO
 70
     1
  9
$DIMSHO
 70
     1
  9
$DIMPOST
  1

  9
$DIMAPOST
  1

  9
$DIMALT
 70
     0
  9
$DIMALTD
 70
     2
  9
$DIMALTF
 40
25.4
  9
$DIMLFAC
 40
1.0
  9
$DIMTOFL
 70
     0
  9
$DIMTVP
 40
0.0
  9
$DIMTIX
 70
     0
  9
$DIMSOXD
 70
     0
  9
$DIMSAH
 70
     0
  9
$DIMBLK1
  1

  9
$DIMBLK2
  1

  9
$DIMSTYLE
  2
Standard
  9
$DIMCLRD
 70
     0
  9
$DIMCLRE
 70
     0
  9
$DIMCLRT
 70
     0
  9
$DIMTFAC
 40
1.0
  9
$DIMGAP
 40
0.09
  9
$DIMJUST
 70
     0
  9
$DIMSD1
 70
     0
  9
$DIMSD2
 70
     0
  9
$DIMTOLJ
 70
     1
  9
$DIMTZIN
 70
     0
  9
$DIMALTZ
 70
     0
  9
$DIMALTTZ
 70
     0
  9
$DIMUPT
 70
     0
  9
$DIMDEC
 70
     4
  9
$DIMTDEC
 70
     4
  9
$DIMALTU
 70
     2
  9
$DIMALTTD
 70
     2
  9
$DIMTXSTY
  7
Standard
  9
$DIMAUNIT
 70
     0
  9
$DIMADEC
 70
     0
  9
$DIMALTRND
 40
0.0
  9
$DIMAZIN
 70
     0
  9
$DIMDSEP
 70
     0
  9
$DIMATFIT
 70
     3
  9
$DIMFRAC
 70
     0
  9
$DIMLDRBLK
  1

  9
$DIMLUNIT
 70
     2
  9
$DIMLWD
 70
     0
  9
$DIMLWE
 70
     0
  9
$DIMTMOVE
 70
     0
  9
$LUNITS
 70
     2
  9
$LUPREC
 70
     4
  9
$SKETCHINC
 40
0.1
  9
$FILLETRAD
 40
0.0
  9
$AUNITS
 70
     0
  9
$AUPREC
 70
     0
  9
$MENU
  1
acad
  9
$ELEVATION
 40
0.0
  9
$PELEVATION
 40
0.0
  9
$THICKNESS
 40
0.0
  9
$LIMCHECK
 70
     0
  9
$CHAMFERA
 40
0.0
  9
$CHAMFERB
 40
0.0
  9
$CHAMFERC
 40
0.0
  9
$CHAMFERD
 40
0.0
  9
$SKPOLY
 70
     0
  9
$TDCREATE
 40
0.000000000
  9
$TDUCREATE
 40
0.000000000
  9
$TDUPDATE
 40
0.000000000
  9
$TDUUPDATE
 40
0.000000000
  9
$TDINDWG
 40
0.0000000000
  9
$TDUSRTIMER
 40
0.0000000000
  9
$USRTIMER
 70
     1
  9
$ANGBASE
 50
0.0
  9
$ANGDIR
 70
     0
  9
$PDMODE
 70
     0
  9
$PDSIZE
 40
0.0
  9
$PLINEWID
 40
0.0
  9
$SPLFRAME
 70
     0
  9
$SPLINETYPE
 70
     6
  9
$SPLINESEGS
 70
     8
  9
$HANDSEED
  5
C0
  9
$SURFTAB1
 70
     6
  9
$SURFTAB2
 70
     6
  9
$SURFTYPE
 70
     6
  9
$SURFU
 70
     6
  9
$SURFV
 70
     6
  9
$UCSBASE
  2

  9
$UCSNAME
  2

  9
$UCSORG
 10
0.0
 20
0.0
 30
0.0
  9
$UCSXDIR
 10
1.0
 20
0.0
 30
0.0
  9
$UCSYDIR
 10
0.0
 20
1.0
 30
0.0
  9
$UCSORTHOREF
  2

  9
$UCSORTHOVIEW
 70
     0
  9
$UCSORGTOP
 10
0.0
 20
0.0
 30
0.0
  9
$UCSORGBOTTOM
 10
0.0
 20
0.0
 30
0.0
  9
$UCSORGLEFT
 10
0.0
 20
0.0
 30
0.0
  9
$UCSORGRIGHT
 10
0.0
 20
0.0
 30
0.0
  9
$UCSORGFRONT
 10
0.0
 20
0.0
 30
0.0
  9
$UCSORGBACK
 10
0.0
 20
0.0
 30
0.0
  9
$PUCSBASE
  2

  9
$PUCSNAME
  2

  9
$PUCSORG
 10
0.0
 20
0.0
 30
0.0
  9
$PUCSXDIR
 10
1.0
 20
0.0
 30
0.0
  9
$PUCSYDIR
 10
0.0
 20
1.0
 30
0.0
  9
$PUCSORTHOREF
  2

  9
$PUCSORTHOVIEW
 70
     0
  9
$PUCSORGTOP
 10
0.0
 20
0.0
 30
0.0
  9
$PUCSORGBOTTOM
 10
0.0
 20
0.0
 30
0.0
  9
$PUCSORGLEFT
 10
0.0
 20
0.0
 30
0.0
  9
$PUCSORGRIGHT
 10
0.0
 20
0.0
 30
0.0
  9
$PUCSORGFRONT
 10
0.0
 20
0.0
 30
0.0
  9
$PUCSORGBACK
 10
0.0
 20
0.0
 30
0.0
  9
$USERI1
 70
     0
  9
$USERI2
 70
     0
  9
$USERI3
 70
     0
  9
$USERI4
 70
     0
  9
$USERI5
 70
     0
  9
$USERR1
 40
0.0
  9
$USERR2
 40
0.0
  9
$USERR3
 40
0.0
  9
$USERR4
 40
0.0
  9
$USERR5
 40
0.0
  9
$WORLDVIEW
 70
     1
  9
$SHADEDGE
 70
     3
  9
$SHADEDIF
 70
    70
  9
$TILEMODE
 70
     1
  9
$MAXACTVP
 70
    16
  9
$PINSBASE
 10
0.0
 20
0.0
 30
0.0
  9
$PLIMCHECK
 70
     0
  9
$PEXTMIN
 10
1.000000E+20
 20
1.000000E+20
 30
1.000000E+20
  9
$PEXTMAX
 10
-1.000000E+20
 20
-1.000000E+20
 30
-1.000000E+20
  9
$PLIMMIN
 10
0.0
 20
0.0
  9
$PLIMMAX
 10
12.0
 20
9.0
  9
$UNITMODE
 70
     0
  9
$VISRETAIN
 70
     0
  9
$PLINEGEN
 70
     1
  9
$PSLTSCALE
 70
     0
  9
$TREEDEPTH
 70
  3020
  9
$CMLSTYLE
  2
Standard
  9
$CMLJUST
 70
     0
  9
$CMLSCALE
 40
1.0
  9
$PROXYGRAPHICS
 70
     0
  9
$MEASUREMENT
 70
     1
  9
$CELWEIGHT
370
     0
  9
$ENDCAPS
280
     0
  9
$JOINSTYLE
280
     0
  9
$LWDISPLAY
290
     0
  9
$INSUNITS
 70
     0
  9
$HYPERLINKBASE
  1

  9
$STYLESHEET
  1

  9
$XEDIT
290
     1
  9
$CEPSNTYPE
380
     0
  9
$PSTYLEMODE
290
     1
  9
$FINGERPRINTGUID
  2

  9
$VERSIONGUID
  2

  9
$EXTNAMES
290
     1
  9
$PSVPSCALE
 40
0.0
  0
ENDSEC
  0
SECTION
  2
CLASSES
  0
CLASS
  1
LWPOLYLINE
  2
AcDbPolyline
  3
AutoCAD 2000
 90
    32768
280
     0
281
     1
  0
CLASS
  1
IMAGE
  2
AcDbRasterImage
  3
ISM
 90
      127
280
     0
281
     1
  0
CLASS
  1
OLE2FRAME
  2
AcDbOle2Frame
  3
AutoCAD 2000
 90
    32768
280
     0
281
     1
  0
CLASS
  1
HATCH
  2
AcDbHatch
  3
AutoCAD 2000
 90
    32768
280
     0
281
     1
  0
CLASS
  1
DICTIONARYVAR
  2
AcDbDictionaryVar
  3
AutoCAD 2000
 90
    32768
280
     0
281
     0
  0
CLASS
  1
RASTERVARIABLES
  2
AcDbRasterVariables
  3
ISM
 90
    32768
280
     0
281
     0
  0
CLASS
  1
IMAGEDEF
  2
AcDbRasterImageDef
  3
ISM
 90
        0
280
     0
281
     0
  0
CLASS
  1
IMAGEDEF_REACTOR
  2
AcDbRasterImageDefReactor
  3
ISM
 90
        1
280
     0
281
     0
  0
CLASS
  1
IDBUFFER
  2
AcDbIdBuffer
  3
AutoCAD 2000
 90
    32768
280
     0
281
     0
  0
CLASS
  1
SPATIAL_FILTER
  2
AcDbSpatialFilter
  3
AutoCAD 2000
 90
    32768
280
     0
281
     0
  0
CLASS
  1
XRECORD
  2
AcDbXrecord
  3
AutoCAD 2000
 90
    32768
280
     0
281
     0
  0
CLASS
  1
SORTENTSTABLE
  2
AcDbSortentsTable
  3
AutoCAD 2000
 90
    32768
280
     0
281
     0
  0
CLASS
  1
LAYER_INDEX
  2
AcDbLayerIndex
  3
AutoCAD 2000
 90
    32768
280
     0
281
     0
  0
CLASS
  1
SPATIAL_INDEX
  2
AcDbSpatialIndex
  3
AutoCAD 2000
 90
    32768
280
     0
281
     0
  0
CLASS
  1
OBJECT_PTR
  2
CAseDLPNTableRecord
  3
"ASE-LPNTableRecord"
 90
    32769
280
     0
281
     0
  0
CLASS
  1
LAYOUT
  2
AcDbLayout
  3
AutoCAD 2000
 90
        0
280
     0
281
     0
  0
CLASS
  1
PLOTSETTINGS
  2
AcDbPlotSettings
  3
AutoCAD 2000
 90
    32768
280
     0
281
     0
  0
CLASS
  1
ACDBDICTIONARYWDFLT
  2
AcDbDictionaryWithDefault
  3
AutoCAD 2000
 90
        0
280
     0
281
     0
  0
CLASS
  1
ACDBPLACEHOLDER
  2
AcDbPlaceHolder
  3
AutoCAD 2000
 90
        0
280
     0
281
     0
  0
CLASS
  1
VBA_PROJECT
  2
AcDbVbaProject
  3
acadvba
 90
    32768
280
     0
281
     0
  0
CLASS
  1
WIPEOUT
  2
AcDbWipeout
  3
WipeOut|AutoCAD Express Tool|expresstools@autodesk.com
 90
    32895
280
     0
281
     1
  0
CLASS
  1
WIPEOUTVARIABLES
  2
AcDbWipeoutVariables
  3
WipeOut|AutoCAD Express Tool|expresstools@autodesk.com
 90
        0
280
     0
281
     0
  0
CLASS
  1
RTEXT
  2
RText
  3
RText|AutoCAD Express Tool|expresstools@autodesk.com
 90
    32768
280
     0
281
     1
  0
CLASS
  1
ARCALIGNEDTEXT
  2
AcDbArcAlignedText
  3
ATEXT|AutoCAD Express Tool|expresstools@autodesk.com
 90
    32768
280
     0
281
     1
  0
ENDSEC
  0
SECTION
  2
TABLES
  0
TABLE
  2
VPORT
  5
7
100
AcDbSymbolTable
 70
     1
  0
VPORT
  5
15
100
AcDbSymbolTableRecord
100
AcDbViewportTableRecord
  2
*ACTIVE
 70
     0
 10
0.0
 20
0.0
 11
1.0
 21
1.0
 12
6.591288
 22
4.579184
 13
0.0
 23
0.0
 14
1.0
 24
1.0
 15
0.0
 25
0.0
 16
0.0
 26
0.0
 36
1.0
 17
0.0
 27
0.0
 37
0.0
 40
9.158369
 41
0.688564
 42
50.0
 43
0.0
 44
0.0
 50
0.0
 51
0.0
 71
     0
 72
   100
 73
     1
 74
     1
 75
     0
 76
     0
 77
     0
 78
     0
281
     0
 65
     0
110
0.0
120
0.0
130
0.0
111
1.0
121
0.0
131
0.0
112
0.0
122
1.0
132
0.0
345
0
346
0
 79
     0
146
0.0
  0
ENDTAB
  0
TABLE
  2
LTYPE
  5
4
100
AcDbSymbolTable
 70
     3
  0
LTYPE
  5
11
100
AcDbSymbolTableRecord
100
AcDbLinetypeTableRecord
  2
ByBlock
 70
    64
  3

 72
    65
 73
     0
 40
0.0
  0
LTYPE
  5
12
100
AcDbSymbolTableRecord
100
AcDbLinetypeTableRecord
  2
ByLayer
 70
    64
  3

 72
    65
 73
     0
 40
0.0
  0
LTYPE
  5
13
100
AcDbSymbolTableRecord
100
AcDbLinetypeTableRecord
  2
Continuous
 70
    64
  3
Solid line
 72
    65
 73
     0
 40
0.0
  0
ENDTAB
  0
TABLE
  2
LAYER
  5
2
100
AcDbSymbolTable
 70
     2
  0
LAYER
  5
14
100
AcDbSymbolTableRecord
100
AcDbLayerTableRecord
  2
0
 70
     0
 62
     7
  6
Continuous
290
     1
370
    -3
390
1D
  0
LAYER
  5
28
100
AcDbSymbolTableRecord
100
AcDbLayerTableRecord
  2
レイヤー_1
 70
     0
 62
   160
  6
Continuous
290
     1
370
    -3
390
1D
  0
ENDTAB
  0
TABLE
  2
STYLE
  5
3
100
AcDbSymbolTable
 70
     5
  0
STYLE
  5
17
100
AcDbSymbolTableRecord
100
AcDbTextStyleTableRecord
  2
Standard
 70
     0
 40
0.0
 41
1.0
 50
0.0
 71
     0
 42
0.0
  3
txt
  4

  0
STYLE
  5
24
100
AcDbSymbolTableRecord
100
AcDbTextStyleTableRecord
  2
STD
 70
     0
 40
0.0
 41
1.0
 50
0.0
 71
     0
 42
0.0
  3
txt
  4

  0
STYLE
  5
25
100
AcDbSymbolTableRecord
100
AcDbTextStyleTableRecord
  2
TATESTD
 70
     4
 40
0.0
 41
1.0
 50
0.0
 71
     0
 42
0.0
  3
txt
  4

  0
STYLE
  5
26
100
AcDbSymbolTableRecord
100
AcDbTextStyleTableRecord
  2
KANJISTD
 70
     0
 40
0.0
 41
1.0
 50
0.0
 71
     0
 42
0.0
  3
txt
  4
extfont
  0
STYLE
  5
27
100
AcDbSymbolTableRecord
100
AcDbTextStyleTableRecord
  2
KANJITATE
 70
     4
 40
0.0
 41
1.0
 50
0.0
 71
     0
 42
0.0
  3
txt
  4
extfont
  0
ENDTAB
  0
TABLE
  2
VIEW
  5
5
100
AcDbSymbolTable
 70
     0
  0
ENDTAB
  0
TABLE
  2
UCS
  5
6
100
AcDbSymbolTable
 70
     0
  0
ENDTAB
  0
TABLE
  2
APPID
  5
8
100
AcDbSymbolTable
 70
     1
  0
APPID
  5
16
100
AcDbSymbolTableRecord
100
AcDbRegAppTableRecord
  2
ACAD
 70
     0
  0
ENDTAB
  0
TABLE
  2
DIMSTYLE
  5
9
100
AcDbSymbolTable
 70
     1
100
AcDbDimStyleTable
 71
     0
  0
DIMSTYLE
105
18
100
AcDbSymbolTableRecord
100
AcDbDimStyleTableRecord
  2
Standard
 70
     0
  3

  4

 40
1.0
 41
0.18
 42
0.0625
 43
0.38
 44
0.18
 45
0.0
 46
0.0
 47
0.0
 48
0.0
 71
     0
 72
     0
 73
     1
 74
     1
 75
     0
 76
     0
 77
     0
 78
     0
 79
     0
140
0.18
141
0.09
142
0.0
143
25.4
144
1.0
145
0.0
146
1.0
147
0.09
148
0.0
170
     0
171
     2
172
     0
173
     0
174
     0
175
     0
176
     0
177
     0
178
     0
179
     0
271
     4
272
     4
273
     2
274
     2
275
     0
276
     0
277
     2
278
    46
279
     0
280
     0
281
     0
282
     0
283
     1
284
     0
285
     0
286
     0
288
     0
340
17
341
0
342
0
343
0
344
0
371
    -2
372
    -2
  0
ENDTAB
  0
TABLE
  2
BLOCK_RECORD
  5
1
100
AcDbSymbolTable
 70
     0
  0
BLOCK_RECORD
  5
A
100
AcDbSymbolTableRecord
100
AcDbBlockTableRecord
  2
*MODEL_SPACE
340
20
  0
BLOCK_RECORD
  5
B
100
AcDbSymbolTableRecord
100
AcDbBlockTableRecord
  2
*PAPER_SPACE
340
21
  0
ENDTAB
  0
ENDSEC
  0
SECTION
  2
BLOCKS
  0
BLOCK
  5
D
100
AcDbEntity
  8
0
100
AcDbBlockBegin
  2
*MODEL_SPACE
 70
     0
 10
0.0
 20
0.0
 30
0.0
  3
*MODEL_SPACE
  1

  0
ENDBLK
  5
E
100
AcDbEntity
  8
0
100
AcDbBlockEnd
  0
BLOCK
  5
F
100
AcDbEntity
 67
     1
  8
0
100
AcDbBlockBegin
  2
*PAPER_SPACE
 70
     0
 10
0.0
 20
0.0
 30
0.0
  3
*PAPER_SPACE
  1

  0
ENDBLK
  5
10
100
AcDbEntity
 67
     1
  8
0
100
AcDbBlockEnd
  0
ENDSEC
  0
SECTION
  2
ENTITIES
  0
MTEXT
  5
BF
100
AcDbEntity
  8
レイヤー_1
 62
     7
100
AcDbMText
 10
41.216261
 20
51.384518
 30
0.0
 40
3.674768
 41
0.0
 71
     1
 72
     2
  1
\fMS PGothic|b0|i0|c128;\H3.6748;\C7;\U+0038\U+0033\U+002E\U+0030\U+0036\U+0030\U+002E\U+0037\U+0038\U+0030\U+0058\U+0058
  7
STD
210
0.0
220
0.0
230
1.0
 73
     1
 44
1.0
  0
MTEXT
  5
BE
100
AcDbEntity
  8
レイヤー_1
 62
     7
100
AcDbMText
 10
33.102372
 20
53.870761
 30
0.0
 40
1.574901
 41
0.0
 71
     1
 72
     2
  1
\fOsaka|b0|i0|c128;\H1.5749;\C7;\U+54C1\U+756A
  7
STD
210
0.0
220
0.0
230
1.0
 73
     1
 44
1.0
  0
MTEXT
  5
BD
100
AcDbEntity
  8
レイヤー_1
 62
     7
100
AcDbMText
 10
41.216261
 20
30.221735
 30
0.0
 40
3.149486
 41
0.0
 71
     1
 72
     2
  1
\fMS PGothic|b0|i0|c128;\H3.1495;\C7;\U+30BF\U+30AA\U+30EB\U+639B\U+FF08\U+FF16\U+FF10\U+FF10\U+FF4D\U+FF4D\U+FF09
  7
STD
210
0.0
220
0.0
230
1.0
 73
     1
 44
1.0
  0
MTEXT
  5
BC
100
AcDbEntity
  8
レイヤー_1
 62
     7
100
AcDbMText
 10
33.102372
 20
32.704094
 30
0.0
 40
1.574901
 41
0.0
 71
     1
 72
     2
  1
\fOsaka|b0|i0|c128;\H1.5749;\C7;\U+54C1
  7
STD
210
0.0
220
0.0
230
1.0
 73
     1
 44
1.0
  0
MTEXT
  5
BB
100
AcDbEntity
  8
レイヤー_1
 62
     7
100
AcDbMText
 10
41.216261
 20
40.217335
 30
0.0
 40
3.149486
 41
0.0
 71
     1
 72
     2
  1
\fMS PGothic|b0|i0|c128;\H3.1495;\C7;\U+FF2D\U+FF25\U+FF2D
  7
STD
210
0.0
220
0.0
230
1.0
 73
     1
 44
1.0
  0
POLYLINE
  5
B5
100
AcDbEntity
  8
レイヤー_1
 62
     7
100
AcDb2dPolyline
 66
     1
 10
0.0
 20
0.0
 30
0.0
 70
     1
  0
VERTEX
  5
B6
100
AcDbEntity
  8
レイヤー_1
 62
     7
100
AcDbVertex
100
AcDb2dVertex
 10
17.050983
 20
23.368083
 30
0.0
  0
VERTEX
  5
B7
100
AcDbEntity
  8
レイヤー_1
 62
     7
100
AcDbVertex
100
AcDb2dVertex
 10
192.028933
 20
23.368083
 30
0.0
  0
VERTEX
  5
B8
100
AcDbEntity
  8
レイヤー_1
 62
     7
100
AcDbVertex
100
AcDb2dVertex
 10
192.028933
 20
272.782144
 30
0.0
  0
VERTEX
  5
B9
100
AcDbEntity
  8
レイヤー_1
 62
     7
100
AcDbVertex
100
AcDb2dVertex
 10
17.050983
 20
272.782144
 30
0.0
  0
SEQEND
  5
BA
100
AcDbEntity
  8
レイヤー_1
 62
     7
  0
LINE
  5
B4
100
AcDbEntity
  8
レイヤー_1
 62
     7
100
AcDbLine
 10
163.9831
 20
33.775027
 30
0.0
 11
21.107928
 21
33.775027
 31
0.0
  0
LINE
  5
B3
100
AcDbEntity
  8
レイヤー_1
 62
     7
100
AcDbLine
 10
163.9831
 20
44.35836
 30
0.0
 11
21.107928
 21
44.35836
 31
0.0
  0
LINE
  5
B2
100
AcDbEntity
  8
レイヤー_1
 62
     7
100
AcDbLine
 10
17.050983
 20
55.118083
 30
0.0
 11
191.676156
 21
55.118083
 31
0.0
  0
LINE
  5
B1
100
AcDbEntity
  8
レイヤー_1
 62
     7
100
AcDbLine
 10
164.159489
 20
55.118083
 30
0.0
 11
164.159489
 21
23.72086
 31
0.0
  0
MTEXT
  5
B0
100
AcDbEntity
  8
レイヤー_1
 62
     7
100
AcDbMText
 10
22.519039
 20
43.287428
 30
0.0
 40
1.574901
 41
0.0
 71
     1
 72
     2
  1
\fOsaka|b0|i0|c128;\H1.5749;\C7;\U+30BB\U+30EC\U+30AF\U+30B7\U+30E7\U+30F3
  7
STD
210
0.0
220
0.0
230
1.0
 73
     1
 44
1.0
  0
MTEXT
  5
AF
100
AcDbEntity
  8
レイヤー_1
 62
     7
100
AcDbMText
 10
167.510878
 20
51.917569
 30
0.0
 40
3.149486
 41
0.0
 71
     1
 72
     2
  1
\fHeiseiKakuGothicCAN W9|b0|i0|c128;\H3.1495;\C253;\U+5BF8\U+6CD5\U+53C2\U+8003\U+56F3
  7
STD
210
0.0
220
0.0
230
1.0
 73
     1
 44
1.0
  0
LINE
  5
AE
100
AcDbEntity
  8
レイヤー_1
 62
     7
100
AcDbLine
 10
20.931539
 20
55.118083
 30
0.0
 11
20.931539
 21
23.72086
 31
0.0
  0
IMAGE
  5
AB
100
AcDbEntity
  8
レイヤー_1
 62
     7
 92
        0
100
AcDbRasterImage
 90
        0
 10
165.5706
 20
25.83721
 30
0.0
 11
0.352531
 21
0.0
 31
0.0
 12
0.0
 22
0.352813
 32
0.0
 13
70.0
 23
9.0
340
AD
 70
     7
280
     0
281
    50
282
    50
283
     0
360
AC
 71
     1
 91
        2
 14
-0.5
 24
-0.5
 14
69.5
 24
8.5
  0
IMAGE
  5
A8
100
AcDbEntity
  8
レイヤー_1
 62
     7
 92
        0
100
AcDbRasterImage
 90
        0
 10
165.5706
 20
25.83721
 30
0.0
 11
0.352531
 21
0.0
 31
0.0
 12
0.0
 22
0.352813
 32
0.0
 13
70.0
 23
9.0
340
AA
 70
     7
280
     0
281
    50
282
    50
283
     0
360
A9
 71
     1
 91
        2
 14
-0.5
 24
-0.5
 14
69.5
 24
8.5
  0
MTEXT
  5
A7
100
AcDbEntity
  8
レイヤー_1
 62
     7
100
AcDbMText
 10
106.8331
 20
43.287428
 30
0.0
 40
1.574901
 41
0.0
 71
     1
 72
     2
  1
\fOsaka|b0|i0|c128;\H1.5749;\C7;\U+4ED5\U+4E0A
  7
STD
210
0.0
220
0.0
230
1.0
 73
     1
 44
1.0
  0
MTEXT
  5
A6
100
AcDbEntity
  8
レイヤー_1
 62
     7
100
AcDbMText
 10
118.180556
 20
38.230693
 30
0.0
 40
1.162843
 41
0.0
 71
     1
 72
     2
  1
\fOsaka|b0|i0|c128;\H1.1628;\W2.71;\C7;
  7
STD
210
0.0
220
0.0
230
1.0
 73
     1
 44
1.0
  0
POLYLINE
  5
A1
100
AcDbEntity
  8
レイヤー_1
 62
     7
100
AcDb2dPolyline
 66
     1
 10
0.0
 20
0.0
 30
0.0
  0
VERTEX
  5
A2
100
AcDbEntity
  8
レイヤー_1
 62
     7
100
AcDbVertex
100
AcDb2dVertex
 10
155.446153
 20
150.697778
 30
0.0
  0
VERTEX
  5
A3
100
AcDbEntity
  8
レイヤー_1
 62
     7
100
AcDbVertex
100
AcDb2dVertex
 10
155.446153
 20
150.740153
 30
0.0
  0
VERTEX
  5
A4
100
AcDbEntity
  8
レイヤー_1
 62
     7
100
AcDbVertex
100
AcDb2dVertex
 10
155.403434
 20
150.740153
 30
0.0
  0
SEQEND
  5
A5
100
AcDbEntity
  8
レイヤー_1
 62
     7
  0
LINE
  5
A0
100
AcDbEntity
  8
レイヤー_1
 62
     7
100
AcDbLine
 10
155.572933
 20
150.697778
 30
0.0
 11
57.91016
 21
176.902208
 31
0.0
  0
POLYLINE
  5
9B
100
AcDbEntity
  8
レイヤー_1
 62
     7
100
AcDb2dPolyline
 66
     1
 10
0.0
 20
0.0
 30
0.0
  0
VERTEX
  5
9C
100
AcDbEntity
  8
レイヤー_1
 62
     7
100
AcDbVertex
100
AcDb2dVertex
 10
56.343675
 20
176.478806
 30
0.0
  0
VERTEX
  5
9D
100
AcDbEntity
  8
レイヤー_1
 62
     7
100
AcDbVertex
100
AcDb2dVertex
 10
56.301473
 20
176.436431
 30
0.0
  0
VERTEX
  5
9E
100
AcDbEntity
  8
レイヤー_1
 62
     7
100
AcDbVertex
100
AcDb2dVertex
 10
56.259098
 20
176.394057
 30
0.0
  0
SEQEND
  5
9F
100
AcDbEntity
  8
レイヤー_1
 62
     7
  0
LINE
  5
9A
100
AcDbEntity
  8
レイヤー_1
 62
     7
100
AcDbLine
 10
56.259098
 20
176.394057
 30
0.0
 11
56.259098
 21
170.721362
 31
0.0
  0
LINE
  5
99
100
AcDbEntity
  8
レイヤー_1
 62
     7
100
AcDbLine
 10
57.867786
 20
176.902208
 30
0.0
 11
56.343675
 21
176.478806
 31
0.0
  0
LINE
  5
98
100
AcDbEntity
  8
レイヤー_1
 62
     7
100
AcDbLine
 10
57.91016
 20
176.902208
 30
0.0
 11
57.867786
 21
176.902208
 31
0.0
  0
LINE
  5
97
100
AcDbEntity
  8
レイヤー_1
 62
     7
100
AcDbLine
 10
44.659806
 20
173.896362
 30
0.0
 11
44.617432
 21
173.853988
 31
0.0
  0
LINE
  5
96
100
AcDbEntity
  8
レイヤー_1
 62
     7
100
AcDbLine
 10
56.851827
 20
177.156112
 30
0.0
 11
44.659806
 21
173.896362
 31
0.0
  0
POLYLINE
  5
91
100
AcDbEntity
  8
レイヤー_1
 62
     7
100
AcDb2dPolyline
 66
     1
 10
0.0
 20
0.0
 30
0.0
  0
VERTEX
  5
92
100
AcDbEntity
  8
レイヤー_1
 62
     7
100
AcDbVertex
100
AcDb2dVertex
 10
57.825411
 20
176.859833
 30
0.0
  0
VERTEX
  5
93
100
AcDbEntity
  8
レイヤー_1
 62
     7
100
AcDbVertex
100
AcDb2dVertex
 10
57.825411
 20
176.902208
 30
0.0
  0
VERTEX
  5
94
100
AcDbEntity
  8
レイヤー_1
 62
     7
100
AcDbVertex
100
AcDb2dVertex
 10
57.783036
 20
176.902208
 30
0.0
  0
SEQEND
  5
95
100
AcDbEntity
  8
レイヤー_1
 62
     7
  0
LINE
  5
90
100
AcDbEntity
  8
レイヤー_1
 62
     7
100
AcDbLine
 10
57.783036
 20
176.902208
 30
0.0
 11
56.894029
 21
177.156112
 31
0.0
  0
LINE
  5
8F
100
AcDbEntity
  8
レイヤー_1
 62
     7
100
AcDbLine
 10
56.894029
 20
177.156112
 30
0.0
 11
56.851827
 21
177.156112
 31
0.0
  0
POLYLINE
  5
8A
100
AcDbEntity
  8
レイヤー_1
 62
     7
100
AcDb2dPolyline
 66
     1
 10
0.0
 20
0.0
 30
0.0
  0
VERTEX
  5
8B
100
AcDbEntity
  8
レイヤー_1
 62
     7
100
AcDbVertex
100
AcDb2dVertex
 10
143.33871
 20
147.438029
 30
0.0
  0
VERTEX
  5
8C
100
AcDbEntity
  8
レイヤー_1
 62
     7
100
AcDbVertex
100
AcDb2dVertex
 10
143.29668
 20
147.438029
 30
0.0
  0
VERTEX
  5
8D
100
AcDbEntity
  8
レイヤー_1
 62
     7
100
AcDbVertex
100
AcDb2dVertex
 10
143.253961
 20
147.395654
 30
0.0
  0
SEQEND
  5
8E
100
AcDbEntity
  8
レイヤー_1
 62
     7
  0
LINE
  5
89
100
AcDbEntity
  8
レイヤー_1
 62
     7
100
AcDbLine
 10
155.488184
 20
150.740153
 30
0.0
 11
143.33871
 21
147.480404
 31
0.0
  0
POLYLINE
  5
84
100
AcDbEntity
  8
レイヤー_1
 62
     7
100
AcDb2dPolyline
 66
     1
 10
0.0
 20
0.0
 30
0.0
  0
VERTEX
  5
85
100
AcDbEntity
  8
レイヤー_1
 62
     7
100
AcDbVertex
100
AcDb2dVertex
 10
144.185514
 20
139.310015
 30
0.0
  0
VERTEX
  5
86
100
AcDbEntity
  8
レイヤー_1
 62
     7
100
AcDbVertex
100
AcDb2dVertex
 10
144.227544
 20
139.267641
 30
0.0
  0
VERTEX
  5
87
100
AcDbEntity
  8
レイヤー_1
 62
     7
100
AcDbVertex
100
AcDb2dVertex
 10
144.227544
 20
139.310015
 30
0.0
  0
SEQEND
  5
88
100
AcDbEntity
  8
レイヤー_1
 62
     7
  0
LINE
  5
83
100
AcDbEntity
  8
レイヤー_1
 62
     7
100
AcDbLine
 10
144.227544
 20
139.310015
 30
0.0
 11
156.419737
 21
142.569765
 31
0.0
  0
POLYLINE
  5
7E
100
AcDbEntity
  8
レイヤー_1
 62
     7
100
AcDb2dPolyline
 66
     1
 10
0.0
 20
0.0
 30
0.0
  0
VERTEX
  5
7F
100
AcDbEntity
  8
レイヤー_1
 62
     7
100
AcDbVertex
100
AcDb2dVertex
 10
156.461768
 20
150.4015
 30
0.0
  0
VERTEX
  5
80
100
AcDbEntity
  8
レイヤー_1
 62
     7
100
AcDbVertex
100
AcDb2dVertex
 10
156.461768
 20
150.486249
 30
0.0
  0
VERTEX
  5
81
100
AcDbEntity
  8
レイヤー_1
 62
     7
100
AcDbVertex
100
AcDb2dVertex
 10
156.419737
 20
150.486249
 30
0.0
  0
SEQEND
  5
82
100
AcDbEntity
  8
レイヤー_1
 62
     7
  0
LINE
  5
7D
100
AcDbEntity
  8
レイヤー_1
 62
     7
100
AcDbLine
 10
156.461768
 20
142.654514
 30
0.0
 11
156.461768
 21
150.4015
 31
0.0
  0
LINE
  5
7C
100
AcDbEntity
  8
レイヤー_1
 62
     7
100
AcDbLine
 10
156.419737
 20
150.486249
 30
0.0
 11
155.530903
 21
150.740153
 31
0.0
  0
POLYLINE
  5
77
100
AcDbEntity
  8
レイヤー_1
 62
     7
100
AcDb2dPolyline
 66
     1
 10
0.0
 20
0.0
 30
0.0
  0
VERTEX
  5
78
100
AcDbEntity
  8
レイヤー_1
 62
     7
100
AcDbVertex
100
AcDb2dVertex
 10
155.530903
 20
150.740153
 30
0.0
  0
VERTEX
  5
79
100
AcDbEntity
  8
レイヤー_1
 62
     7
100
AcDbVertex
100
AcDb2dVertex
 10
155.530903
 20
150.740153
 30
0.0
  0
VERTEX
  5
7A
100
AcDbEntity
  8
レイヤー_1
 62
     7
100
AcDbVertex
100
AcDb2dVertex
 10
155.488184
 20
150.740153
 30
0.0
  0
SEQEND
  5
7B
100
AcDbEntity
  8
レイヤー_1
 62
     7
  0
POLYLINE
  5
72
100
AcDbEntity
  8
レイヤー_1
 62
     7
100
AcDb2dPolyline
 66
     1
 10
0.0
 20
0.0
 30
0.0
  0
VERTEX
  5
73
100
AcDbEntity
  8
レイヤー_1
 62
     7
100
AcDbVertex
100
AcDb2dVertex
 10
156.419737
 20
142.569765
 30
0.0
  0
VERTEX
  5
74
100
AcDbEntity
  8
レイヤー_1
 62
     7
100
AcDbVertex
100
AcDb2dVertex
 10
156.461768
 20
142.612139
 30
0.0
  0
VERTEX
  5
75
100
AcDbEntity
  8
レイヤー_1
 62
     7
100
AcDbVertex
100
AcDb2dVertex
 10
156.461768
 20
142.654514
 30
0.0
  0
SEQEND
  5
76
100
AcDbEntity
  8
レイヤー_1
 62
     7
  0
POLYLINE
  5
6D
100
AcDbEntity
  8
レイヤー_1
 62
     7
100
AcDb2dPolyline
 66
     1
 10
0.0
 20
0.0
 30
0.0
  0
VERTEX
  5
6E
100
AcDbEntity
  8
レイヤー_1
 62
     7
100
AcDbVertex
100
AcDb2dVertex
 10
144.185514
 20
147.099376
 30
0.0
  0
VERTEX
  5
6F
100
AcDbEntity
  8
レイヤー_1
 62
     7
100
AcDbVertex
100
AcDb2dVertex
 10
144.142795
 20
147.141751
 30
0.0
  0
VERTEX
  5
70
100
AcDbEntity
  8
レイヤー_1
 62
     7
100
AcDbVertex
100
AcDb2dVertex
 10
144.100765
 20
147.184125
 30
0.0
  0
SEQEND
  5
71
100
AcDbEntity
  8
レイヤー_1
 62
     7
  0
LINE
  5
6C
100
AcDbEntity
  8
レイヤー_1
 62
     7
100
AcDbLine
 10
144.185514
 20
139.35239
 30
0.0
 11
144.185514
 21
147.099376
 31
0.0
  0
LINE
  5
6B
100
AcDbEntity
  8
レイヤー_1
 62
     7
100
AcDbLine
 10
144.100765
 20
147.184125
 30
0.0
 11
44.575057
 21
173.853988
 31
0.0
  0
LINE
  5
6A
100
AcDbEntity
  8
レイヤー_1
 62
     7
100
AcDbLine
 10
143.21193
 20
139.013737
 30
0.0
 11
143.253961
 21
139.013737
 31
0.0
  0
LINE
  5
69
100
AcDbEntity
  8
レイヤー_1
 62
     7
100
AcDbLine
 10
143.253961
 20
139.013737
 30
0.0
 11
144.100765
 21
139.267641
 31
0.0
  0
LINE
  5
68
100
AcDbEntity
  8
レイヤー_1
 62
     7
100
AcDbLine
 10
43.68605
 20
165.683599
 30
0.0
 11
143.169211
 21
139.013737
 31
0.0
  0
POLYLINE
  5
63
100
AcDbEntity
  8
レイヤー_1
 62
     7
100
AcDb2dPolyline
 66
     1
 10
0.0
 20
0.0
 30
0.0
  0
VERTEX
  5
64
100
AcDbEntity
  8
レイヤー_1
 62
     7
100
AcDbVertex
100
AcDb2dVertex
 10
144.100765
 20
139.267641
 30
0.0
  0
VERTEX
  5
65
100
AcDbEntity
  8
レイヤー_1
 62
     7
100
AcDbVertex
100
AcDb2dVertex
 10
144.142795
 20
139.267641
 30
0.0
  0
VERTEX
  5
66
100
AcDbEntity
  8
レイヤー_1
 62
     7
100
AcDbVertex
100
AcDb2dVertex
 10
144.185514
 20
139.35239
 30
0.0
  0
SEQEND
  5
67
100
AcDbEntity
  8
レイヤー_1
 62
     7
  0
POLYLINE
  5
5E
100
AcDbEntity
  8
レイヤー_1
 62
     7
100
AcDb2dPolyline
 66
     1
 10
0.0
 20
0.0
 30
0.0
  0
VERTEX
  5
5F
100
AcDbEntity
  8
レイヤー_1
 62
     7
100
AcDbVertex
100
AcDb2dVertex
 10
43.68605
 20
173.600084
 30
0.0
  0
VERTEX
  5
60
100
AcDbEntity
  8
レイヤー_1
 62
     7
100
AcDbVertex
100
AcDb2dVertex
 10
43.643675
 20
173.600084
 30
0.0
  0
VERTEX
  5
61
100
AcDbEntity
  8
レイヤー_1
 62
     7
100
AcDbVertex
100
AcDb2dVertex
 10
43.601473
 20
173.515335
 30
0.0
  0
SEQEND
  5
62
100
AcDbEntity
  8
レイヤー_1
 62
     7
  0
LINE
  5
5D
100
AcDbEntity
  8
レイヤー_1
 62
     7
100
AcDbLine
 10
43.601473
 20
173.515335
 30
0.0
 11
43.601473
 21
165.768349
 31
0.0
  0
LINE
  5
5C
100
AcDbEntity
  8
レイヤー_1
 62
     7
100
AcDbLine
 10
44.532682
 20
173.853988
 30
0.0
 11
43.68605
 21
173.600084
 31
0.0
  0
LINE
  5
5B
100
AcDbEntity
  8
レイヤー_1
 62
     7
100
AcDbLine
 10
44.575057
 20
173.853988
 30
0.0
 11
44.532682
 21
173.853988
 31
0.0
  0
POLYLINE
  5
56
100
AcDbEntity
  8
レイヤー_1
 62
     7
100
AcDb2dPolyline
 66
     1
 10
0.0
 20
0.0
 30
0.0
  0
VERTEX
  5
57
100
AcDbEntity
  8
レイヤー_1
 62
     7
100
AcDbVertex
100
AcDb2dVertex
 10
43.601473
 20
165.768349
 30
0.0
  0
VERTEX
  5
58
100
AcDbEntity
  8
レイヤー_1
 62
     7
100
AcDbVertex
100
AcDb2dVertex
 10
43.643675
 20
165.725974
 30
0.0
  0
VERTEX
  5
59
100
AcDbEntity
  8
レイヤー_1
 62
     7
100
AcDbVertex
100
AcDb2dVertex
 10
43.68605
 20
165.683599
 30
0.0
  0
SEQEND
  5
5A
100
AcDbEntity
  8
レイヤー_1
 62
     7
  0
LINE
  5
55
100
AcDbEntity
  8
レイヤー_1
 62
     7
100
AcDbLine
 10
156.461768
 20
150.4015
 30
0.0
 11
144.270264
 21
147.141751
 31
0.0
  0
LINE
  5
54
100
AcDbEntity
  8
レイヤー_1
 62
     7
100
AcDbLine
 10
143.21193
 20
146.803098
 30
0.0
 11
143.21193
 21
139.056112
 31
0.0
  0
LINE
  5
53
100
AcDbEntity
  8
レイヤー_1
 62
     7
100
AcDbLine
 10
144.142795
 20
147.099376
 30
0.0
 11
143.253961
 21
146.887847
 31
0.0
  0
LINE
  5
52
100
AcDbEntity
  8
レイヤー_1
 62
     7
100
AcDbLine
 10
153.625765
 20
150.274376
 30
0.0
 11
56.301473
 21
176.351682
 31
0.0
  0
POLYLINE
  5
4D
100
AcDbEntity
  8
レイヤー_1
 62
     7
100
AcDb2dPolyline
 66
     1
 10
0.0
 20
0.0
 30
0.0
  0
VERTEX
  5
4E
100
AcDbEntity
  8
レイヤー_1
 62
     7
100
AcDbVertex
100
AcDb2dVertex
 10
155.403434
 20
150.740153
 30
0.0
  0
VERTEX
  5
4F
100
AcDbEntity
  8
レイヤー_1
 62
     7
100
AcDbVertex
100
AcDb2dVertex
 10
155.403434
 20
150.782528
 30
0.0
  0
VERTEX
  5
50
100
AcDbEntity
  8
レイヤー_1
 62
     7
100
AcDbVertex
100
AcDb2dVertex
 10
155.403434
 20
150.740153
 30
0.0
  0
SEQEND
  5
51
100
AcDbEntity
  8
レイヤー_1
 62
     7
  0
LINE
  5
4C
100
AcDbEntity
  8
レイヤー_1
 62
     7
100
AcDbLine
 10
56.259098
 20
176.394057
 30
0.0
 11
45.71814
 21
173.557709
 31
0.0
  0
LINE
  5
4B
100
AcDbEntity
  8
レイヤー_1
 62
     7
100
AcDbLine
 10
56.894029
 20
177.156112
 30
0.0
 11
56.851827
 21
177.156112
 31
0.0
  0
LINE
  5
4A
100
AcDbEntity
  8
レイヤー_1
 62
     7
100
AcDbLine
 10
144.270264
 20
147.099376
 30
0.0
 11
144.185514
 21
147.099376
 31
0.0
  0
LINE
  5
49
100
AcDbEntity
  8
レイヤー_1
 62
     7
100
AcDbLine
 10
155.530903
 20
150.740153
 30
0.0
 11
155.488184
 21
150.740153
 31
0.0
  0
POLYLINE
  5
43
100
AcDbEntity
  8
レイヤー_1
 62
     7
100
AcDb2dPolyline
 66
     1
 10
0.0
 20
0.0
 30
0.0
  0
VERTEX
  5
44
100
AcDbEntity
  8
レイヤー_1
 62
     7
100
AcDbVertex
100
AcDb2dVertex
 10
156.419737
 20
142.569765
 30
0.0
  0
VERTEX
  5
45
100
AcDbEntity
  8
レイヤー_1
 62
     7
100
AcDbVertex
100
AcDb2dVertex
 10
156.419737
 20
142.612139
 30
0.0
  0
VERTEX
  5
46
100
AcDbEntity
  8
レイヤー_1
 62
     7
100
AcDbVertex
100
AcDb2dVertex
 10
156.461768
 20
142.612139
 30
0.0
  0
VERTEX
  5
47
100
AcDbEntity
  8
レイヤー_1
 62
     7
100
AcDbVertex
100
AcDb2dVertex
 10
156.461768
 20
142.654514
 30
0.0
  0
SEQEND
  5
48
100
AcDbEntity
  8
レイヤー_1
 62
     7
  0
LINE
  5
42
100
AcDbEntity
  8
レイヤー_1
 62
     7
100
AcDbLine
 10
156.419737
 20
150.486249
 30
0.0
 11
156.377707
 21
150.486249
 31
0.0
  0
LINE
  5
41
100
AcDbEntity
  8
レイヤー_1
 62
     7
100
AcDbLine
 10
155.530903
 20
150.740153
 30
0.0
 11
155.530903
 21
150.740153
 31
0.0
  0
POLYLINE
  5
3C
100
AcDbEntity
  8
レイヤー_1
 62
     7
100
AcDb2dPolyline
 66
     1
 10
0.0
 20
0.0
 30
0.0
  0
VERTEX
  5
3D
100
AcDbEntity
  8
レイヤー_1
 62
     7
100
AcDbVertex
100
AcDb2dVertex
 10
43.643675
 20
165.768349
 30
0.0
  0
VERTEX
  5
3E
100
AcDbEntity
  8
レイヤー_1
 62
     7
100
AcDbVertex
100
AcDb2dVertex
 10
43.643675
 20
165.683599
 30
0.0
  0
VERTEX
  5
3F
100
AcDbEntity
  8
レイヤー_1
 62
     7
100
AcDbVertex
100
AcDb2dVertex
 10
43.68605
 20
165.683599
 30
0.0
  0
SEQEND
  5
40
100
AcDbEntity
  8
レイヤー_1
 62
     7
  0
LINE
  5
3B
100
AcDbEntity
  8
レイヤー_1
 62
     7
100
AcDbLine
 10
43.643675
 20
165.768349
 30
0.0
 11
43.601473
 21
165.768349
 31
0.0
  0
LINE
  5
3A
100
AcDbEntity
  8
レイヤー_1
 62
     7
100
AcDbLine
 10
44.532682
 20
173.853988
 30
0.0
 11
44.575057
 21
173.853988
 31
0.0
  0
LINE
  5
39
100
AcDbEntity
  8
レイヤー_1
 62
     7
100
AcDbLine
 10
43.643675
 20
173.557709
 30
0.0
 11
143.253961
 21
146.887847
 31
0.0
  0
LINE
  5
38
100
AcDbEntity
  8
レイヤー_1
 62
     7
100
AcDbLine
 10
56.894029
 20
178.045119
 30
0.0
 11
56.894029
 21
201.921181
 31
0.0
  0
LINE
  5
37
100
AcDbEntity
  8
レイヤー_1
 62
     7
100
AcDbLine
 10
157.520101
 20
142.358236
 30
0.0
 11
173.522569
 21
138.082528
 31
0.0
  0
LINE
  5
36
100
AcDbEntity
  8
レイヤー_1
 62
     7
100
AcDbLine
 10
43.643675
 20
198.619057
 30
0.0
 11
43.643675
 21
174.192641
 31
0.0
  0
LINE
  5
35
100
AcDbEntity
  8
レイヤー_1
 62
     7
100
AcDbLine
 10
44.829133
 20
198.703806
 30
0.0
 11
42.839418
 21
196.671716
 31
0.0
  0
LINE
  5
34
100
AcDbEntity
  8
レイヤー_1
 62
     7
100
AcDbLine
 10
172.464236
 20
147.268875
 30
0.0
 11
172.464236
 21
129.488737
 31
0.0
  0
LINE
  5
33
100
AcDbEntity
  8
レイヤー_1
 62
     7
100
AcDbLine
 10
58.037112
 20
201.413029
 30
0.0
 11
42.670091
 21
197.30682
 31
0.0
  0
LINE
  5
32
100
AcDbEntity
  8
レイヤー_1
 62
     7
100
AcDbLine
 10
173.226291
 20
137.066569
 30
0.0
 11
171.659462
 21
139.775792
 31
0.0
  0
LINE
  5
31
100
AcDbEntity
  8
レイヤー_1
 62
     7
100
AcDbLine
 10
57.952363
 20
202.175084
 30
0.0
 11
55.793494
 21
200.016043
 31
0.0
  0
LINE
  5
30
100
AcDbEntity
  8
レイヤー_1
 62
     7
100
AcDbLine
 10
156.461768
 20
151.375084
 30
0.0
 11
156.461768
 21
175.716751
 31
0.0
  0
LINE
  5
2F
100
AcDbEntity
  8
レイヤー_1
 62
     7
100
AcDbLine
 10
157.520101
 20
175.547597
 30
0.0
 11
155.361404
 21
173.388555
 31
0.0
  0
LINE
  5
2E
100
AcDbEntity
  8
レイヤー_1
 62
     7
100
AcDbLine
 10
56.047397
 20
201.328452
 30
0.0
 11
158.240126
 21
173.938737
 31
0.0
  0
LINE
  5
2D
100
AcDbEntity
  8
レイヤー_1
 62
     7
100
AcDbLine
 10
157.436041
 20
150.147597
 30
0.0
 11
173.141542
 21
145.914263
 31
0.0
  0
LINE
  5
2C
100
AcDbEntity
  8
レイヤー_1
 62
     7
100
AcDbLine
 10
173.226291
 20
144.771181
 30
0.0
 11
171.659462
 21
147.480404
 31
0.0
  0
MTEXT
  5
2B
100
AcDbEntity
  8
レイヤー_1
 62
     7
100
AcDbMText
 10
45.21581
 20
205.609258
 30
0.0
 40
5.512152
 41
0.0
 71
     1
 72
     2
  1
\fMS PGothic|b0|i0|c128;\H5.5122;\C7;\U+0038\U+0030
  7
STD
210
0.0
220
0.0
230
1.0
 11
0.9613
 21
0.2756
 31
0.0
 73
     1
 44
1.0
  0
MTEXT
  5
2A
100
AcDbEntity
  8
レイヤー_1
 62
     7
100
AcDbMText
 10
104.88321
 20
196.353148
 30
0.0
 40
5.512152
 41
0.0
 71
     1
 72
     2
  1
\fMS PGothic|b0|i0|c128;\H5.5122;\C7;\U+0036\U+0030\U+0030
  7
STD
210
0.0
220
0.0
230
1.0
 11
0.9613
 21
-0.2756
 31
0.0
 73
     1
 44
1.0
  0
MTEXT
  5
29
100
AcDbEntity
  8
レイヤー_1
 62
     7
100
AcDbMText
 10
165.064516
 20
130.242179
 30
0.0
 40
5.512152
 41
0.0
 71
     1
 72
     2
  1
\fMS PGothic|b0|i0|c128;\H5.5122;\C7;\U+0033\U+0035
  7
STD
210
0.0
220
0.0
230
1.0
 11
0.0
 21
1.0
 31
0.0
 73
     1
 44
1.0
  0
ENDSEC
  0
SECTION
  2
OBJECTS
  0
DICTIONARY
  5
19
100
AcDbDictionary
280
     0
281
     1
  3
ACAD_GROUP
350
1A
  3
ACAD_MLINESTYLE
350
1B
  3
ACAD_LAYOUT
350
1E
  3
ACAD_PLOTSETTINGS
350
22
  3
ACAD_PLOTSTYLENAME
350
1F
  3
ACAD_WIPEOUT_VARS
350
23
  0
DICTIONARY
  5
1A
102
{ACAD_REACTORS
330
19
102
}
100
AcDbDictionary
280
     0
281
     1
  0
DICTIONARY
  5
1B
102
{ACAD_REACTORS
330
19
102
}
100
AcDbDictionary
280
     0
281
     1
  3
Standard
350
1C
  0
MLINESTYLE
  5
1C
102
{ACAD_REACTORS
330
1B
102
}
100
AcDbMlineStyle
  2
Standard
 70
     0
  3

 62
     0
 51
90.0
 52
90.0
 71
     2
 49
0.5
 62
   256
  6
ByLayer
 49
-0.5
 62
   256
  6
ByLayer
  0
ACDBDICTIONARYWDFLT
  5
1F
102
{ACAD_REACTORS
330
19
102
}
100
AcDbDictionary
281
     1
  3
Normal
350
1D
100
AcDbDictionaryWithDefault
340
1D
  0
ACDBPLACEHOLDER
  5
1D
102
{ACAD_REACTORS
330
1F
102
}
  0
LAYOUT
  5
20
102
{ACAD_REACTORS
330
1E
102
}
100
AcDbPlotSettings
  1

  2

  4

  6

 40
0.0
 41
0.0
 42
0.0
 43
0.0
 44
0.0
 45
0.0
 46
0.0
 47
0.0
 48
0.0
 49
0.0
140
0.0
141
0.0
142
1.0
143
1.0
 70
  1024
 72
     0
 73
     0
 74
     0
  7

 75
     0
147
1.0
148
0.0
149
0.0
100
AcDbLayout
  1
Model
 70
     0
 71
     0
 10
0.0
 20
0.0
 11
0.0
 21
0.0
 12
0.0
 22
0.0
 32
0.0
 14
0.0
 24
0.0
 34
0.0
 15
0.0
 25
0.0
 35
0.0
146
0.0
 13
0.0
 23
0.0
 33
0.0
 16
0.0
 26
0.0
 36
0.0
 17
0.0
 27
0.0
 37
0.0
 76
     0
330
A
331
0
345
0
346
0
  0
LAYOUT
  5
21
102
{ACAD_REACTORS
330
1E
102
}
100
AcDbPlotSettings
  1

  2

  4

  6

 40
0.0
 41
0.0
 42
0.0
 43
0.0
 44
0.0
 45
0.0
 46
0.0
 47
0.0
 48
0.0
 49
0.0
140
0.0
141
0.0
142
1.0
143
1.0
 70
     0
 72
     0
 73
     0
 74
     0
  7

 75
     0
147
1.0
148
0.0
149
0.0
100
AcDbLayout
  1
Layout1
 70
     0
 71
     0
 10
0.0
 20
0.0
 11
0.0
 21
0.0
 12
0.0
 22
0.0
 32
0.0
 14
0.0
 24
0.0
 34
0.0
 15
0.0
 25
0.0
 35
0.0
146
0.0
 13
0.0
 23
0.0
 33
0.0
 16
0.0
 26
0.0
 36
0.0
 17
0.0
 27
0.0
 37
0.0
 76
     0
330
B
331
0
345
0
346
0
  0
DICTIONARY
  5
1E
102
{ACAD_REACTORS
330
19
102
}
100
AcDbDictionary
280
     0
281
     1
  3
Layout1
350
21
  3
Model
350
20
  0
DICTIONARY
  5
22
102
{ACAD_REACTORS
330
19
102
}
100
AcDbDictionary
280
     0
281
     1
  0
WIPEOUTVARIABLES
  5
23
100
AcDbWipeoutVariables
 70
     1
  0
IMAGEDEF_REACTOR
  5
A9
100
AcDbRasterImageDefReactor
 90
        2
330
A8
  0
IMAGEDEF
  5
AA
100
AcDbRasterImageDef
 90
        0
  1
\\192.168.6.3\free(2009_04\一過性\DB_WEB用DXF_丸茂\83060780_1.bmp
 10
70.0
 20
9.0
 11
0.352778
 21
0.352778
280
     1
281
     0
  0
IMAGEDEF_REACTOR
  5
AC
100
AcDbRasterImageDefReactor
 90
        2
330
AB
  0
IMAGEDEF
  5
AD
100
AcDbRasterImageDef
 90
        0
  1
\\192.168.6.3\free(2009_04\一過性\DB_WEB用DXF_丸茂\83060780_2.bmp
 10
70.0
 20
9.0
 11
0.352778
 21
0.352778
280
     1
281
     0
  0
ENDSEC
  0
EOF
