  0
SECTION
  2
HEADER
  9
$ACADVER
  1
AC1015
  9
$ACADMAINTVER
 70
     6
  9
$DWGCODEPAGE
  3
ANSI_932
  9
$INSBASE
 10
0.0
 20
0.0
 30
0.0
  9
$EXTMIN
 10
23.283333
 20
25.752778
 30
1.000000E+20
  9
$EXTMAX
 10
198.966667
 20
276.930556
 30
-1.000000E+20
  9
$LIMMIN
 10
23.283333
 20
25.752778
  9
$LIMMAX
 10
198.966667
 20
276.930556
  9
$ORTHOMODE
 70
     0
  9
$REGENMODE
 70
     1
  9
$FILLMODE
 70
     1
  9
$QTEXTMODE
 70
     0
  9
$MIRRTEXT
 70
     1
  9
$LTSCALE
 40
1.0
  9
$ATTMODE
 70
     1
  9
$TEXTSIZE
 40
0.2
  9
$TRACEWID
 40
0.05
  9
$TEXTSTYLE
  7
Standard
  9
$CLAYER
  8
0
  9
$CELTYPE
  6
Continuous
  9
$CECOLOR
 62
   256
  9
$CELTSCALE
 40
1.0
  9
$DISPSILH
 70
     0
  9
$DIMSCALE
 40
1.0
  9
$DIMASZ
 40
0.18
  9
$DIMEXO
 40
0.0625
  9
$DIMDLI
 40
0.38
  9
$DIMRND
 40
0.0
  9
$DIMDLE
 40
0.0
  9
$DIMEXE
 40
0.18
  9
$DIMTP
 40
0.0
  9
$DIMTM
 40
0.0
  9
$DIMTXT
 40
0.18
  9
$DIMCEN
 40
0.09
  9
$DIMTSZ
 40
0.0
  9
$DIMTOL
 70
     0
  9
$DIMLIM
 70
     0
  9
$DIMTIH
 70
     1
  9
$DIMTOH
 70
     1
  9
$DIMSE1
 70
     0
  9
$DIMSE2
 70
     0
  9
$DIMTAD
 70
     0
  9
$DIMZIN
 70
     0
  9
$DIMBLK
  1

  9
$DIMASO
 70
     1
  9
$DIMSHO
 70
     1
  9
$DIMPOST
  1

  9
$DIMAPOST
  1

  9
$DIMALT
 70
     0
  9
$DIMALTD
 70
     2
  9
$DIMALTF
 40
25.4
  9
$DIMLFAC
 40
1.0
  9
$DIMTOFL
 70
     0
  9
$DIMTVP
 40
0.0
  9
$DIMTIX
 70
     0
  9
$DIMSOXD
 70
     0
  9
$DIMSAH
 70
     0
  9
$DIMBLK1
  1

  9
$DIMBLK2
  1

  9
$DIMSTYLE
  2
Standard
  9
$DIMCLRD
 70
     0
  9
$DIMCLRE
 70
     0
  9
$DIMCLRT
 70
     0
  9
$DIMTFAC
 40
1.0
  9
$DIMGAP
 40
0.09
  9
$DIMJUST
 70
     0
  9
$DIMSD1
 70
     0
  9
$DIMSD2
 70
     0
  9
$DIMTOLJ
 70
     1
  9
$DIMTZIN
 70
     0
  9
$DIMALTZ
 70
     0
  9
$DIMALTTZ
 70
     0
  9
$DIMUPT
 70
     0
  9
$DIMDEC
 70
     4
  9
$DIMTDEC
 70
     4
  9
$DIMALTU
 70
     2
  9
$DIMALTTD
 70
     2
  9
$DIMTXSTY
  7
Standard
  9
$DIMAUNIT
 70
     0
  9
$DIMADEC
 70
     0
  9
$DIMALTRND
 40
0.0
  9
$DIMAZIN
 70
     0
  9
$DIMDSEP
 70
     0
  9
$DIMATFIT
 70
     3
  9
$DIMFRAC
 70
     0
  9
$DIMLDRBLK
  1

  9
$DIMLUNIT
 70
     2
  9
$DIMLWD
 70
     0
  9
$DIMLWE
 70
     0
  9
$DIMTMOVE
 70
     0
  9
$LUNITS
 70
     2
  9
$LUPREC
 70
     4
  9
$SKETCHINC
 40
0.1
  9
$FILLETRAD
 40
0.0
  9
$AUNITS
 70
     0
  9
$AUPREC
 70
     0
  9
$MENU
  1
acad
  9
$ELEVATION
 40
0.0
  9
$PELEVATION
 40
0.0
  9
$THICKNESS
 40
0.0
  9
$LIMCHECK
 70
     0
  9
$CHAMFERA
 40
0.0
  9
$CHAMFERB
 40
0.0
  9
$CHAMFERC
 40
0.0
  9
$CHAMFERD
 40
0.0
  9
$SKPOLY
 70
     0
  9
$TDCREATE
 40
0.000000000
  9
$TDUCREATE
 40
0.000000000
  9
$TDUPDATE
 40
0.000000000
  9
$TDUUPDATE
 40
0.000000000
  9
$TDINDWG
 40
0.0000000000
  9
$TDUSRTIMER
 40
0.0000000000
  9
$USRTIMER
 70
     1
  9
$ANGBASE
 50
0.0
  9
$ANGDIR
 70
     0
  9
$PDMODE
 70
     0
  9
$PDSIZE
 40
0.0
  9
$PLINEWID
 40
0.0
  9
$SPLFRAME
 70
     0
  9
$SPLINETYPE
 70
     6
  9
$SPLINESEGS
 70
     8
  9
$HANDSEED
  5
C7
  9
$SURFTAB1
 70
     6
  9
$SURFTAB2
 70
     6
  9
$SURFTYPE
 70
     6
  9
$SURFU
 70
     6
  9
$SURFV
 70
     6
  9
$UCSBASE
  2

  9
$UCSNAME
  2

  9
$UCSORG
 10
0.0
 20
0.0
 30
0.0
  9
$UCSXDIR
 10
1.0
 20
0.0
 30
0.0
  9
$UCSYDIR
 10
0.0
 20
1.0
 30
0.0
  9
$UCSORTHOREF
  2

  9
$UCSORTHOVIEW
 70
     0
  9
$UCSORGTOP
 10
0.0
 20
0.0
 30
0.0
  9
$UCSORGBOTTOM
 10
0.0
 20
0.0
 30
0.0
  9
$UCSORGLEFT
 10
0.0
 20
0.0
 30
0.0
  9
$UCSORGRIGHT
 10
0.0
 20
0.0
 30
0.0
  9
$UCSORGFRONT
 10
0.0
 20
0.0
 30
0.0
  9
$UCSORGBACK
 10
0.0
 20
0.0
 30
0.0
  9
$PUCSBASE
  2

  9
$PUCSNAME
  2

  9
$PUCSORG
 10
0.0
 20
0.0
 30
0.0
  9
$PUCSXDIR
 10
1.0
 20
0.0
 30
0.0
  9
$PUCSYDIR
 10
0.0
 20
1.0
 30
0.0
  9
$PUCSORTHOREF
  2

  9
$PUCSORTHOVIEW
 70
     0
  9
$PUCSORGTOP
 10
0.0
 20
0.0
 30
0.0
  9
$PUCSORGBOTTOM
 10
0.0
 20
0.0
 30
0.0
  9
$PUCSORGLEFT
 10
0.0
 20
0.0
 30
0.0
  9
$PUCSORGRIGHT
 10
0.0
 20
0.0
 30
0.0
  9
$PUCSORGFRONT
 10
0.0
 20
0.0
 30
0.0
  9
$PUCSORGBACK
 10
0.0
 20
0.0
 30
0.0
  9
$USERI1
 70
     0
  9
$USERI2
 70
     0
  9
$USERI3
 70
     0
  9
$USERI4
 70
     0
  9
$USERI5
 70
     0
  9
$USERR1
 40
0.0
  9
$USERR2
 40
0.0
  9
$USERR3
 40
0.0
  9
$USERR4
 40
0.0
  9
$USERR5
 40
0.0
  9
$WORLDVIEW
 70
     1
  9
$SHADEDGE
 70
     3
  9
$SHADEDIF
 70
    70
  9
$TILEMODE
 70
     1
  9
$MAXACTVP
 70
    16
  9
$PINSBASE
 10
0.0
 20
0.0
 30
0.0
  9
$PLIMCHECK
 70
     0
  9
$PEXTMIN
 10
1.000000E+20
 20
1.000000E+20
 30
1.000000E+20
  9
$PEXTMAX
 10
-1.000000E+20
 20
-1.000000E+20
 30
-1.000000E+20
  9
$PLIMMIN
 10
0.0
 20
0.0
  9
$PLIMMAX
 10
12.0
 20
9.0
  9
$UNITMODE
 70
     0
  9
$VISRETAIN
 70
     0
  9
$PLINEGEN
 70
     1
  9
$PSLTSCALE
 70
     0
  9
$TREEDEPTH
 70
  3020
  9
$CMLSTYLE
  2
Standard
  9
$CMLJUST
 70
     0
  9
$CMLSCALE
 40
1.0
  9
$PROXYGRAPHICS
 70
     0
  9
$MEASUREMENT
 70
     1
  9
$CELWEIGHT
370
     0
  9
$ENDCAPS
280
     0
  9
$JOINSTYLE
280
     0
  9
$LWDISPLAY
290
     0
  9
$INSUNITS
 70
     0
  9
$HYPERLINKBASE
  1

  9
$STYLESHEET
  1

  9
$XEDIT
290
     1
  9
$CEPSNTYPE
380
     0
  9
$PSTYLEMODE
290
     1
  9
$FINGERPRINTGUID
  2

  9
$VERSIONGUID
  2

  9
$EXTNAMES
290
     1
  9
$PSVPSCALE
 40
0.0
  0
ENDSEC
  0
SECTION
  2
CLASSES
  0
CLASS
  1
LWPOLYLINE
  2
AcDbPolyline
  3
AutoCAD 2000
 90
    32768
280
     0
281
     1
  0
CLASS
  1
IMAGE
  2
AcDbRasterImage
  3
ISM
 90
      127
280
     0
281
     1
  0
CLASS
  1
OLE2FRAME
  2
AcDbOle2Frame
  3
AutoCAD 2000
 90
    32768
280
     0
281
     1
  0
CLASS
  1
HATCH
  2
AcDbHatch
  3
AutoCAD 2000
 90
        0
280
     0
281
     1
  0
CLASS
  1
DICTIONARYVAR
  2
AcDbDictionaryVar
  3
AutoCAD 2000
 90
    32768
280
     0
281
     0
  0
CLASS
  1
RASTERVARIABLES
  2
AcDbRasterVariables
  3
ISM
 90
    32768
280
     0
281
     0
  0
CLASS
  1
IMAGEDEF
  2
AcDbRasterImageDef
  3
ISM
 90
        0
280
     0
281
     0
  0
CLASS
  1
IMAGEDEF_REACTOR
  2
AcDbRasterImageDefReactor
  3
ISM
 90
        1
280
     0
281
     0
  0
CLASS
  1
IDBUFFER
  2
AcDbIdBuffer
  3
AutoCAD 2000
 90
    32768
280
     0
281
     0
  0
CLASS
  1
SPATIAL_FILTER
  2
AcDbSpatialFilter
  3
AutoCAD 2000
 90
    32768
280
     0
281
     0
  0
CLASS
  1
XRECORD
  2
AcDbXrecord
  3
AutoCAD 2000
 90
    32768
280
     0
281
     0
  0
CLASS
  1
SORTENTSTABLE
  2
AcDbSortentsTable
  3
AutoCAD 2000
 90
    32768
280
     0
281
     0
  0
CLASS
  1
LAYER_INDEX
  2
AcDbLayerIndex
  3
AutoCAD 2000
 90
    32768
280
     0
281
     0
  0
CLASS
  1
SPATIAL_INDEX
  2
AcDbSpatialIndex
  3
AutoCAD 2000
 90
    32768
280
     0
281
     0
  0
CLASS
  1
OBJECT_PTR
  2
CAseDLPNTableRecord
  3
"ASE-LPNTableRecord"
 90
    32769
280
     0
281
     0
  0
CLASS
  1
LAYOUT
  2
AcDbLayout
  3
AutoCAD 2000
 90
        0
280
     0
281
     0
  0
CLASS
  1
PLOTSETTINGS
  2
AcDbPlotSettings
  3
AutoCAD 2000
 90
    32768
280
     0
281
     0
  0
CLASS
  1
ACDBDICTIONARYWDFLT
  2
AcDbDictionaryWithDefault
  3
AutoCAD 2000
 90
        0
280
     0
281
     0
  0
CLASS
  1
ACDBPLACEHOLDER
  2
AcDbPlaceHolder
  3
AutoCAD 2000
 90
        0
280
     0
281
     0
  0
CLASS
  1
VBA_PROJECT
  2
AcDbVbaProject
  3
acadvba
 90
    32768
280
     0
281
     0
  0
CLASS
  1
WIPEOUT
  2
AcDbWipeout
  3
WipeOut|AutoCAD Express Tool|expresstools@autodesk.com
 90
    32895
280
     0
281
     1
  0
CLASS
  1
WIPEOUTVARIABLES
  2
AcDbWipeoutVariables
  3
WipeOut|AutoCAD Express Tool|expresstools@autodesk.com
 90
        0
280
     0
281
     0
  0
CLASS
  1
RTEXT
  2
RText
  3
RText|AutoCAD Express Tool|expresstools@autodesk.com
 90
    32768
280
     0
281
     1
  0
CLASS
  1
ARCALIGNEDTEXT
  2
AcDbArcAlignedText
  3
ATEXT|AutoCAD Express Tool|expresstools@autodesk.com
 90
    32768
280
     0
281
     1
  0
ENDSEC
  0
SECTION
  2
TABLES
  0
TABLE
  2
VPORT
  5
7
100
AcDbSymbolTable
 70
     1
  0
VPORT
  5
15
100
AcDbSymbolTableRecord
100
AcDbViewportTableRecord
  2
*ACTIVE
 70
     0
 10
0.0
 20
0.0
 11
1.0
 21
1.0
 12
6.591288
 22
4.579184
 13
0.0
 23
0.0
 14
1.0
 24
1.0
 15
0.0
 25
0.0
 16
0.0
 26
0.0
 36
1.0
 17
0.0
 27
0.0
 37
0.0
 40
9.158369
 41
0.688564
 42
50.0
 43
0.0
 44
0.0
 50
0.0
 51
0.0
 71
     0
 72
   100
 73
     1
 74
     1
 75
     0
 76
     0
 77
     0
 78
     0
281
     0
 65
     0
110
0.0
120
0.0
130
0.0
111
1.0
121
0.0
131
0.0
112
0.0
122
1.0
132
0.0
345
0
346
0
 79
     0
146
0.0
  0
ENDTAB
  0
TABLE
  2
LTYPE
  5
4
100
AcDbSymbolTable
 70
     3
  0
LTYPE
  5
11
100
AcDbSymbolTableRecord
100
AcDbLinetypeTableRecord
  2
ByBlock
 70
    64
  3

 72
    65
 73
     0
 40
0.0
  0
LTYPE
  5
12
100
AcDbSymbolTableRecord
100
AcDbLinetypeTableRecord
  2
ByLayer
 70
    64
  3

 72
    65
 73
     0
 40
0.0
  0
LTYPE
  5
13
100
AcDbSymbolTableRecord
100
AcDbLinetypeTableRecord
  2
Continuous
 70
    64
  3
Solid line
 72
    65
 73
     0
 40
0.0
  0
ENDTAB
  0
TABLE
  2
LAYER
  5
2
100
AcDbSymbolTable
 70
     3
  0
LAYER
  5
14
100
AcDbSymbolTableRecord
100
AcDbLayerTableRecord
  2
0
 70
     0
 62
     7
  6
Continuous
290
     1
370
    -3
390
1D
  0
LAYER
  5
28
100
AcDbSymbolTableRecord
100
AcDbLayerTableRecord
  2
レイヤー_2
 70
     0
 62
     1
  6
Continuous
290
     1
370
    -3
390
1D
  0
LAYER
  5
AB
100
AcDbSymbolTableRecord
100
AcDbLayerTableRecord
  2
レイヤー_1
 70
     4
 62
   160
  6
Continuous
290
     1
370
    -3
390
1D
  0
ENDTAB
  0
TABLE
  2
STYLE
  5
3
100
AcDbSymbolTable
 70
     5
  0
STYLE
  5
17
100
AcDbSymbolTableRecord
100
AcDbTextStyleTableRecord
  2
Standard
 70
     0
 40
0.0
 41
1.0
 50
0.0
 71
     0
 42
0.0
  3
txt
  4

  0
STYLE
  5
24
100
AcDbSymbolTableRecord
100
AcDbTextStyleTableRecord
  2
STD
 70
     0
 40
0.0
 41
1.0
 50
0.0
 71
     0
 42
0.0
  3
txt
  4

  0
STYLE
  5
25
100
AcDbSymbolTableRecord
100
AcDbTextStyleTableRecord
  2
TATESTD
 70
     4
 40
0.0
 41
1.0
 50
0.0
 71
     0
 42
0.0
  3
txt
  4

  0
STYLE
  5
26
100
AcDbSymbolTableRecord
100
AcDbTextStyleTableRecord
  2
KANJISTD
 70
     0
 40
0.0
 41
1.0
 50
0.0
 71
     0
 42
0.0
  3
txt
  4
extfont
  0
STYLE
  5
27
100
AcDbSymbolTableRecord
100
AcDbTextStyleTableRecord
  2
KANJITATE
 70
     4
 40
0.0
 41
1.0
 50
0.0
 71
     0
 42
0.0
  3
txt
  4
extfont
  0
ENDTAB
  0
TABLE
  2
VIEW
  5
5
100
AcDbSymbolTable
 70
     0
  0
ENDTAB
  0
TABLE
  2
UCS
  5
6
100
AcDbSymbolTable
 70
     0
  0
ENDTAB
  0
TABLE
  2
APPID
  5
8
100
AcDbSymbolTable
 70
     1
  0
APPID
  5
16
100
AcDbSymbolTableRecord
100
AcDbRegAppTableRecord
  2
ACAD
 70
     0
  0
ENDTAB
  0
TABLE
  2
DIMSTYLE
  5
9
100
AcDbSymbolTable
 70
     1
100
AcDbDimStyleTable
 71
     0
  0
DIMSTYLE
105
18
100
AcDbSymbolTableRecord
100
AcDbDimStyleTableRecord
  2
Standard
 70
     0
  3

  4

 40
1.0
 41
0.18
 42
0.0625
 43
0.38
 44
0.18
 45
0.0
 46
0.0
 47
0.0
 48
0.0
 71
     0
 72
     0
 73
     1
 74
     1
 75
     0
 76
     0
 77
     0
 78
     0
 79
     0
140
0.18
141
0.09
142
0.0
143
25.4
144
1.0
145
0.0
146
1.0
147
0.09
148
0.0
170
     0
171
     2
172
     0
173
     0
174
     0
175
     0
176
     0
177
     0
178
     0
179
     0
271
     4
272
     4
273
     2
274
     2
275
     0
276
     0
277
     2
278
    46
279
     0
280
     0
281
     0
282
     0
283
     1
284
     0
285
     0
286
     0
288
     0
340
17
341
0
342
0
343
0
344
0
371
    -2
372
    -2
  0
ENDTAB
  0
TABLE
  2
BLOCK_RECORD
  5
1
100
AcDbSymbolTable
 70
     0
  0
BLOCK_RECORD
  5
A
100
AcDbSymbolTableRecord
100
AcDbBlockTableRecord
  2
*MODEL_SPACE
340
20
  0
BLOCK_RECORD
  5
B
100
AcDbSymbolTableRecord
100
AcDbBlockTableRecord
  2
*PAPER_SPACE
340
21
  0
ENDTAB
  0
ENDSEC
  0
SECTION
  2
BLOCKS
  0
BLOCK
  5
D
100
AcDbEntity
  8
0
100
AcDbBlockBegin
  2
*MODEL_SPACE
 70
     0
 10
0.0
 20
0.0
 30
0.0
  3
*MODEL_SPACE
  1

  0
ENDBLK
  5
E
100
AcDbEntity
  8
0
100
AcDbBlockEnd
  0
BLOCK
  5
F
100
AcDbEntity
 67
     1
  8
0
100
AcDbBlockBegin
  2
*PAPER_SPACE
 70
     0
 10
0.0
 20
0.0
 30
0.0
  3
*PAPER_SPACE
  1

  0
ENDBLK
  5
10
100
AcDbEntity
 67
     1
  8
0
100
AcDbBlockEnd
  0
ENDSEC
  0
SECTION
  2
ENTITIES
  0
MTEXT
  5
C6
100
AcDbEntity
  8
レイヤー_1
 62
     7
100
AcDbMText
 10
47.801389
 20
54.121991
 30
0.0
 40
3.674768
 41
0.0
 71
     1
 72
     2
  1
\fOsaka|b0|i0|c128;\H3.6748;\C7;\U+0038\U+0033\U+002E\U+0030\U+0038\U+0030\U+002E\U+0038\U+0039\U+0032\U+002E\U+0058\U+0058
  7
STD
210
0.0
220
0.0
230
1.0
 73
     1
 44
1.0
  0
MTEXT
  5
C5
100
AcDbEntity
  8
レイヤー_1
 62
     7
100
AcDbMText
 10
39.6875
 20
56.608234
 30
0.0
 40
1.574901
 41
0.0
 71
     1
 72
     2
  1
\fOsaka|b0|i0|c128;\H1.5749;\C7;\U+54C1\U+756A
  7
STD
210
0.0
220
0.0
230
1.0
 73
     1
 44
1.0
  0
MTEXT
  5
C4
100
AcDbEntity
  8
レイヤー_1
 62
     7
100
AcDbMText
 10
47.801389
 20
32.959209
 30
0.0
 40
3.149486
 41
0.0
 71
     1
 72
     2
  1
\fOsaka|b0|i0|c128;\H3.1495;\C7;\U+30BF\U+30AA\U+30EB\U+639B
  7
STD
210
0.0
220
0.0
230
1.0
 73
     1
 44
1.0
  0
MTEXT
  5
C3
100
AcDbEntity
  8
レイヤー_1
 62
     7
100
AcDbMText
 10
39.6875
 20
35.441567
 30
0.0
 40
1.574901
 41
0.0
 71
     1
 72
     2
  1
\fOsaka|b0|i0|c128;\H1.5749;\C7;\U+54C1
  7
STD
210
0.0
220
0.0
230
1.0
 73
     1
 44
1.0
  0
MTEXT
  5
C2
100
AcDbEntity
  8
レイヤー_1
 62
     7
100
AcDbMText
 10
47.319248
 20
43.304752
 30
0.0
 40
3.499429
 41
0.0
 71
     1
 72
     2
  1
\fOsaka|b0|i0|c128;\H3.4994;\W0.90;\C7;\U+FF34\U+FF41\U+FF52\U+FF41
  7
STD
210
0.0
220
0.0
230
1.0
 73
     1
 44
1.0
  0
POLYLINE
  5
BC
100
AcDbEntity
  8
レイヤー_1
 62
     7
100
AcDb2dPolyline
 66
     1
 10
0.0
 20
0.0
 30
0.0
 70
     1
  0
VERTEX
  5
BD
100
AcDbEntity
  8
レイヤー_1
 62
     7
100
AcDbVertex
100
AcDb2dVertex
 10
23.636111
 20
26.105556
 30
0.0
  0
VERTEX
  5
BE
100
AcDbEntity
  8
レイヤー_1
 62
     7
100
AcDbVertex
100
AcDb2dVertex
 10
198.613889
 20
26.105556
 30
0.0
  0
VERTEX
  5
BF
100
AcDbEntity
  8
レイヤー_1
 62
     7
100
AcDbVertex
100
AcDb2dVertex
 10
198.613889
 20
276.577778
 30
0.0
  0
VERTEX
  5
C0
100
AcDbEntity
  8
レイヤー_1
 62
     7
100
AcDbVertex
100
AcDb2dVertex
 10
23.636111
 20
276.577778
 30
0.0
  0
SEQEND
  5
C1
100
AcDbEntity
  8
レイヤー_1
 62
     7
  0
LINE
  5
BB
100
AcDbEntity
  8
レイヤー_1
 62
     7
100
AcDbLine
 10
170.568056
 20
36.5125
 30
0.0
 11
27.693056
 21
36.5125
 31
0.0
  0
LINE
  5
BA
100
AcDbEntity
  8
レイヤー_1
 62
     7
100
AcDbLine
 10
170.568056
 20
47.095833
 30
0.0
 11
27.693056
 21
47.095833
 31
0.0
  0
LINE
  5
B9
100
AcDbEntity
  8
レイヤー_1
 62
     7
100
AcDbLine
 10
23.636111
 20
57.855556
 30
0.0
 11
198.261111
 21
57.855556
 31
0.0
  0
LINE
  5
B8
100
AcDbEntity
  8
レイヤー_1
 62
     7
100
AcDbLine
 10
170.744444
 20
57.855556
 30
0.0
 11
170.744444
 21
26.458333
 31
0.0
  0
MTEXT
  5
B7
100
AcDbEntity
  8
レイヤー_1
 62
     7
100
AcDbMText
 10
33.3375
 20
46.024901
 30
0.0
 40
1.574901
 41
0.0
 71
     1
 72
     2
  1
\fOsaka|b0|i0|c128;\H1.5749;\C7;\U+30B7\U+30EA\U+30FC\U+30BA
  7
STD
210
0.0
220
0.0
230
1.0
 73
     1
 44
1.0
  0
MTEXT
  5
B6
100
AcDbEntity
  8
レイヤー_1
 62
     7
100
AcDbMText
 10
174.095833
 20
54.655042
 30
0.0
 40
3.149486
 41
0.0
 71
     1
 72
     2
  1
\fHeiseiKakuGothicCAN W9|b0|i0|c128;\H3.1495;\C253;\U+5BF8\U+6CD5\U+53C2\U+8003\U+56F3
  7
STD
210
0.0
220
0.0
230
1.0
 73
     1
 44
1.0
  0
LINE
  5
B5
100
AcDbEntity
  8
レイヤー_1
 62
     7
100
AcDbLine
 10
27.516667
 20
57.855556
 30
0.0
 11
27.516667
 21
26.458333
 31
0.0
  0
IMAGE
  5
B2
100
AcDbEntity
  8
レイヤー_1
 62
     7
 92
        0
100
AcDbRasterImage
 90
        0
 10
172.155556
 20
28.574682
 30
0.0
 11
0.352531
 21
0.0
 31
0.0
 12
0.0
 22
0.352813
 32
0.0
 13
70.0
 23
9.0
340
B4
 70
     7
280
     0
281
    50
282
    50
283
     0
360
B3
 71
     1
 91
        2
 14
-0.5
 24
-0.5
 14
69.5
 24
8.5
  0
IMAGE
  5
AF
100
AcDbEntity
  8
レイヤー_1
 62
     7
 92
        0
100
AcDbRasterImage
 90
        0
 10
172.155556
 20
28.574682
 30
0.0
 11
0.352531
 21
0.0
 31
0.0
 12
0.0
 22
0.352813
 32
0.0
 13
70.0
 23
9.0
340
B1
 70
     7
280
     0
281
    50
282
    50
283
     0
360
B0
 71
     1
 91
        2
 14
-0.5
 24
-0.5
 14
69.5
 24
8.5
  0
MTEXT
  5
AE
100
AcDbEntity
  8
レイヤー_1
 62
     7
100
AcDbMText
 10
113.418056
 20
46.024901
 30
0.0
 40
1.574901
 41
0.0
 71
     1
 72
     2
  1
\fOsaka|b0|i0|c128;\H1.5749;\C7;\U+4ED5\U+4E0A
  7
STD
210
0.0
220
0.0
230
1.0
 73
     1
 44
1.0
  0
MTEXT
  5
AD
100
AcDbEntity
  8
レイヤー_1
 62
     7
100
AcDbMText
 10
124.765511
 20
40.968164
 30
0.0
 40
1.162842
 41
0.0
 71
     1
 72
     2
  1
\fOsaka|b0|i0|c128;\H1.1628;\W2.71;\C7;
  7
STD
210
0.0
220
0.0
230
1.0
 73
     1
 44
1.0
  0
HATCH
  5
AC
100
AcDbEntity
  8
レイヤー_1
 62
     7
100
AcDbHatch
 10
0.0
 20
0.0
 30
0.0
210
0.0
220
0.0
230
1.0
  2
SOLID
 70
     1
 71
     0
 91
        1
 92
        1
 93
        1
 72
     4
 94
        3
 73
     0
 74
     0
 95
       17
 96
       13
 40
0.0
 40
0.0
 40
0.0
 40
0.0
 40
1.0
 40
1.0
 40
1.0
 40
2.0
 40
2.0
 40
2.0
 40
3.0
 40
3.0
 40
3.0
 40
4.0
 40
4.0
 40
4.0
 40
4.0
 10
58.155967881944441
 20
40.211154513888886
 10
58.155967881944441
 20
40.016162109374996
 10
57.998010253906244
 20
39.858376736111104
 10
57.80319010416666
 20
39.858376736111104
 10
57.608369954427076
 20
39.858376736111104
 10
57.450412326388886
 20
40.016162109374996
 10
57.450412326388886
 20
40.211154513888886
 10
57.450412326388886
 20
40.406146918402776
 10
57.608369954427076
 20
40.56393229166666
 10
57.80319010416666
 20
40.56393229166666
 10
57.998010253906244
 20
40.56393229166666
 10
58.155967881944441
 20
40.406146918402776
 10
58.155967881944441
 20
40.211154513888886
 97
        0
 75
     2
 76
     1
 98
        1
 10
0.0
 20
0.0
  0
MTEXT
  5
AA
100
AcDbEntity
  8
レイヤー_2
 62
     7
100
AcDbMText
 10
104.731247
 20
196.938002
 30
0.0
 40
5.268737
 41
0.0
 71
     1
 72
     2
  1
\fMS Gothic|b0|i0|c128;\H5.2687;\W1.05;\C7;\Q-15.25;\U+0038\U+0030\U+0030
  7
STD
210
0.0
220
0.0
230
0.9999999999999999
 11
0.96481
 21
-0.26296
 31
0.0
 73
     1
 44
1.0
  0
MTEXT
  5
A9
100
AcDbEntity
  8
レイヤー_2
 62
     7
100
AcDbMText
 10
38.11223
 20
208.780454
 30
0.0
 40
5.324311
 41
0.0
 71
     1
 72
     2
  1
\fMS Gothic|b0|i0|c128;\H5.3243;\W1.04;\C7;\Q15.00;\U+0038\U+0030
  7
STD
210
0.0
220
0.0
230
1.0
 11
0.96593
 21
0.25882
 31
0.0
 73
     1
 44
1.0
  0
MTEXT
  5
A8
100
AcDbEntity
  8
レイヤー_2
 62
     7
100
AcDbMText
 10
184.430976
 20
117.332862
 30
0.0
 40
5.907882
 41
0.0
 71
     1
 72
     2
  1
\fMS Gothic|b0|i0|c128;\H5.9079;\W0.97;\C7;\Q15.00;\U+03C6\U+0035\U+0035
  7
STD
210
0.0
220
0.0
230
1.0
 11
0.0
 21
1.0
 31
0.0
 73
     1
 44
1.0
  0
SPLINE
  5
A7
100
AcDbEntity
  8
レイヤー_2
 62
     7
100
AcDbSpline
210
0.0
220
0.0
230
1.0
 70
     8
 71
     3
 72
     8
 73
     4
 74
     0
 42
0.00000001
 43
0.00000001
 40
0.0
 40
0.0
 40
0.0
 40
0.0
 40
1.0
 40
1.0
 40
1.0
 40
1.0
 10
39.043267144097221
 20
175.05839301215275
 30
0.0
 10
38.221611870659721
 20
175.43304714626734
 30
0.0
 10
37.218400065104163
 20
175.47921142578124
 30
0.0
 10
36.35609266493055
 20
175.23857150607637
 30
0.0
  0
SPLINE
  5
A6
100
AcDbEntity
  8
レイヤー_2
 62
     7
100
AcDbSpline
210
0.0
220
0.0
230
1.0
 70
     8
 71
     3
 72
     8
 73
     4
 74
     0
 42
0.00000001
 43
0.00000001
 40
0.0
 40
0.0
 40
0.0
 40
0.0
 40
1.0
 40
1.0
 40
1.0
 40
1.0
 10
41.617787000868049
 20
176.64537624782986
 30
0.0
 10
41.609691026475687
 20
176.64313693576386
 30
0.0
 10
41.601250542534721
 20
176.64038085937497
 30
0.0
 10
41.59487711588541
 20
176.63883056640623
 30
0.0
  0
SPLINE
  5
A5
100
AcDbEntity
  8
レイヤー_2
 62
     7
100
AcDbSpline
210
0.0
220
0.0
230
1.0
 70
     8
 71
     3
 72
    11
 73
     7
 74
     0
 42
0.00000001
 43
0.00000001
 40
0.0
 40
0.0
 40
0.0
 40
0.0
 40
1.0
 40
1.0
 40
1.0
 40
2.0
 40
2.0
 40
2.0
 40
2.0
 10
43.541011555989577
 20
173.90445827907985
 30
0.0
 10
43.607674153645831
 20
174.28703613281249
 30
0.0
 10
43.577357313368054
 20
174.69476318359372
 30
0.0
 10
43.472454155815967
 20
175.06924506293402
 30
0.0
 10
43.17858751085069
 20
176.13963623046874
 30
0.0
 10
42.347630479600689
 20
176.84570855034721
 30
0.0
 10
41.617787000868049
 20
176.64537624782986
 30
0.0
  0
SPLINE
  5
A4
100
AcDbEntity
  8
レイヤー_2
 62
     7
100
AcDbSpline
210
0.0
220
0.0
230
1.0
 70
     8
 71
     3
 72
    11
 73
     7
 74
     0
 42
0.00000001
 43
0.00000001
 40
0.0
 40
0.0
 40
0.0
 40
0.0
 40
1.0
 40
1.0
 40
1.0
 40
2.0
 40
2.0
 40
2.0
 40
2.0
 10
36.35075276692708
 20
175.23702121310762
 30
0.0
 10
35.256934950086801
 20
174.92179497612847
 30
0.0
 10
34.600472005208331
 20
174.21193305121525
 30
0.0
 10
34.58875868055555
 20
173.44798312717012
 30
0.0
 10
34.584969075520831
 20
172.78859185112844
 30
0.0
 10
35.067110188802083
 20
172.20189208984374
 30
0.0
 10
35.818485514322916
 20
171.83757324218749
 30
0.0
  0
LINE
  5
A3
100
AcDbEntity
  8
レイヤー_2
 62
     7
100
AcDbLine
 10
36.350408
 20
175.237021
 30
0.0
 11
41.594877
 21
176.638831
 31
0.0
  0
SPLINE
  5
A2
100
AcDbEntity
  8
レイヤー_2
 62
     7
100
AcDbSpline
210
0.0
220
0.0
230
1.0
 70
     8
 71
     3
 72
     8
 73
     4
 74
     0
 42
0.00000001
 43
0.00000001
 40
0.0
 40
0.0
 40
0.0
 40
0.0
 40
1.0
 40
1.0
 40
1.0
 40
1.0
 10
34.930339898003467
 20
172.51901312934027
 30
0.0
 10
35.229374186197916
 20
172.19259033203124
 30
0.0
 10
35.063665093315969
 20
172.34916992187499
 30
0.0
 10
35.431429036458333
 20
172.05426974826386
 30
0.0
  0
LINE
  5
A1
100
AcDbEntity
  8
レイヤー_2
 62
     7
100
AcDbLine
 10
35.431429
 20
174.818098
 30
0.0
 11
35.167362
 21
174.611736
 31
0.0
  0
SPLINE
  5
A0
100
AcDbEntity
  8
レイヤー_2
 62
     7
100
AcDbSpline
210
0.0
220
0.0
230
1.0
 70
     8
 71
     3
 72
     8
 73
     4
 74
     0
 42
0.00000001
 43
0.00000001
 40
0.0
 40
0.0
 40
0.0
 40
0.0
 40
1.0
 40
1.0
 40
1.0
 40
1.0
 10
35.15823296440972
 20
174.60260687934027
 30
0.0
 10
35.082268608940971
 20
174.52044135199651
 30
0.0
 10
35.006648763020827
 20
174.43862033420137
 30
0.0
 10
34.930339898003467
 20
174.35611029730902
 30
0.0
  0
SPLINE
  5
9F
100
AcDbEntity
  8
レイヤー_2
 62
     7
100
AcDbSpline
210
0.0
220
0.0
230
1.0
 70
     8
 71
     3
 72
     8
 73
     4
 74
     0
 42
0.00000001
 43
0.00000001
 40
0.0
 40
0.0
 40
0.0
 40
0.0
 40
1.0
 40
1.0
 40
1.0
 40
1.0
 10
34.748955620659721
 20
172.80495605468749
 30
0.0
 10
34.563953993055556
 20
173.28210177951388
 30
0.0
 10
34.572222222222216
 20
173.59250488281248
 30
0.0
 10
34.748955620659721
 20
174.07033962673609
 30
0.0
  0
SPLINE
  5
9E
100
AcDbEntity
  8
レイヤー_2
 62
     7
100
AcDbSpline
210
0.0
220
0.0
230
1.0
 70
     8
 71
     3
 72
     8
 73
     4
 74
     0
 42
0.00000001
 43
0.00000001
 40
0.0
 40
0.0
 40
0.0
 40
0.0
 40
1.0
 40
1.0
 40
1.0
 40
1.0
 10
36.89335530598958
 20
171.52251925998263
 30
0.0
 10
36.503715006510411
 20
171.60347900390624
 30
0.0
 10
36.181770833333331
 20
171.67565375434026
 30
0.0
 10
35.818485514322916
 20
171.83757324218749
 30
0.0
  0
SPLINE
  5
9D
100
AcDbEntity
  8
レイヤー_2
 62
     7
100
AcDbSpline
210
0.0
220
0.0
230
1.0
 70
     8
 71
     3
 72
     8
 73
     4
 74
     0
 42
0.00000001
 43
0.00000001
 40
0.0
 40
0.0
 40
0.0
 40
0.0
 40
1.0
 40
1.0
 40
1.0
 40
1.0
 10
168.90235188802083
 20
142.63246527777775
 30
0.0
 10
168.89270562065971
 20
142.63005371093749
 30
0.0
 10
168.88237033420137
 20
142.6272976345486
 30
0.0
 10
168.87444661458332
 20
142.62523057725693
 30
0.0
  0
SPLINE
  5
9C
100
AcDbEntity
  8
レイヤー_2
 62
     7
100
AcDbSpline
210
0.0
220
0.0
230
1.0
 70
     8
 71
     3
 72
    11
 73
     7
 74
     0
 42
0.00000001
 43
0.00000001
 40
0.0
 40
0.0
 40
0.0
 40
0.0
 40
1.0
 40
1.0
 40
1.0
 40
2.0
 40
2.0
 40
2.0
 40
2.0
 10
169.97584364149304
 20
138.72813856336805
 30
0.0
 10
170.69586859809027
 20
138.94552408854165
 30
0.0
 10
171.04210069444443
 20
139.97043999565972
 30
0.0
 10
170.75856933593749
 20
141.03221842447914
 30
0.0
 10
170.46952582465275
 20
142.11294487847221
 30
0.0
 10
169.63925781249998
 20
142.82986924913192
 30
0.0
 10
168.90235188802083
 20
142.63246527777775
 30
0.0
  0
LINE
  5
9B
100
AcDbEntity
  8
レイヤー_2
 62
     7
100
AcDbLine
 10
164.736887
 20
138.067369
 30
0.0
 11
164.736887
 21
139.332753
 31
0.0
  0
LINE
  5
9A
100
AcDbEntity
  8
レイヤー_2
 62
     7
100
AcDbLine
 10
164.732408
 20
137.595047
 30
0.0
 11
164.732408
 21
137.639144
 31
0.0
  0
LINE
  5
99
100
AcDbEntity
  8
レイヤー_2
 62
     7
100
AcDbLine
 10
164.732408
 20
138.851817
 30
0.0
 11
164.732408
 21
139.465389
 31
0.0
  0
LINE
  5
98
100
AcDbEntity
  8
レイヤー_2
 62
     7
100
AcDbLine
 10
164.732408
 20
139.051978
 30
0.0
 11
164.732408
 21
139.466078
 31
0.0
  0
LINE
  5
97
100
AcDbEntity
  8
レイヤー_2
 62
     7
100
AcDbLine
 10
164.732408
 20
139.869843
 30
0.0
 11
164.732408
 21
140.068625
 31
0.0
  0
LINE
  5
96
100
AcDbEntity
  8
レイヤー_2
 62
     7
100
AcDbLine
 10
164.732408
 20
141.517977
 30
0.0
 11
169.023964
 21
142.656581
 31
0.0
  0
LINE
  5
95
100
AcDbEntity
  8
レイヤー_2
 62
     7
100
AcDbLine
 10
164.732408
 20
141.517977
 30
0.0
 11
164.732408
 21
141.469746
 31
0.0
  0
LINE
  5
94
100
AcDbEntity
  8
レイヤー_2
 62
     7
100
AcDbLine
 10
164.732408
 20
140.182313
 30
0.0
 11
164.732408
 21
140.619151
 31
0.0
  0
LINE
  5
93
100
AcDbEntity
  8
レイヤー_2
 62
     7
100
AcDbLine
 10
164.732408
 20
137.326674
 30
0.0
 11
164.732408
 21
138.469412
 31
0.0
  0
LINE
  5
92
100
AcDbEntity
  8
レイヤー_2
 62
     7
100
AcDbLine
 10
164.732408
 20
138.290611
 30
0.0
 11
164.732408
 21
137.326674
 31
0.0
  0
LINE
  5
91
100
AcDbEntity
  8
レイヤー_2
 62
     7
100
AcDbLine
 10
169.975844
 20
138.728139
 30
0.0
 11
164.732408
 21
137.326674
 31
0.0
  0
LINE
  5
90
100
AcDbEntity
  8
レイヤー_2
 62
     7
100
AcDbLine
 10
164.732408
 20
141.517977
 30
0.0
 11
168.874791
 21
142.625231
 31
0.0
  0
LINE
  5
8F
100
AcDbEntity
  8
レイヤー_2
 62
     7
100
AcDbLine
 10
164.732408
 20
140.312538
 30
0.0
 11
164.732408
 21
140.619151
 31
0.0
  0
LINE
  5
8E
100
AcDbEntity
  8
レイヤー_2
 62
     7
100
AcDbLine
 10
164.732408
 20
140.44104
 30
0.0
 11
164.732408
 21
140.619151
 31
0.0
  0
LINE
  5
8D
100
AcDbEntity
  8
レイヤー_2
 62
     7
100
AcDbLine
 10
164.727585
 20
140.849628
 30
0.0
 11
164.732408
 21
140.931277
 31
0.0
  0
LINE
  5
8C
100
AcDbEntity
  8
レイヤー_2
 62
     7
100
AcDbLine
 10
164.732408
 20
137.326674
 30
0.0
 11
164.732408
 21
141.517977
 31
0.0
  0
LINE
  5
8B
100
AcDbEntity
  8
レイヤー_2
 62
     7
100
AcDbLine
 10
164.737231
 20
137.829658
 30
0.0
 11
164.732408
 21
137.500996
 31
0.0
  0
LINE
  5
8A
100
AcDbEntity
  8
レイヤー_2
 62
     7
100
AcDbLine
 10
164.732408
 20
140.26913
 30
0.0
 11
164.737231
 21
139.666583
 31
0.0
  0
LINE
  5
89
100
AcDbEntity
  8
レイヤー_2
 62
     7
100
AcDbLine
 10
164.732408
 20
137.358713
 30
0.0
 11
164.732408
 21
137.965739
 31
0.0
  0
SPLINE
  5
88
100
AcDbEntity
  8
レイヤー_2
 62
     7
100
AcDbSpline
210
0.0
220
0.0
230
1.0
 70
     8
 71
     3
 72
     8
 73
     4
 74
     0
 42
0.00000001
 43
0.00000001
 40
0.0
 40
0.0
 40
0.0
 40
0.0
 40
1.0
 40
1.0
 40
1.0
 40
1.0
 10
164.73240831163193
 20
137.59297960069443
 30
0.0
 10
164.73240831163193
 20
137.71769205729166
 30
0.0
 10
164.73619791666664
 20
137.84102647569443
 30
0.0
 10
164.73240831163193
 20
137.96573893229166
 30
0.0
  0
LINE
  5
87
100
AcDbEntity
  8
レイヤー_2
 62
     7
100
AcDbLine
 10
164.737231
 20
139.666583
 30
0.0
 11
164.732408
 21
140.052089
 31
0.0
  0
SPLINE
  5
86
100
AcDbEntity
  8
レイヤー_2
 62
     7
100
AcDbSpline
210
0.0
220
0.0
230
1.0
 70
     8
 71
     3
 72
     8
 73
     4
 74
     0
 42
0.00000001
 43
0.00000001
 40
0.0
 40
0.0
 40
0.0
 40
0.0
 40
1.0
 40
1.0
 40
1.0
 40
1.0
 10
164.73240831163193
 20
138.65682508680555
 30
0.0
 10
164.73240831163193
 20
139.12191297743055
 30
0.0
 10
164.73792046440971
 20
139.58665635850693
 30
0.0
 10
164.73240831163193
 20
140.05208875868055
 30
0.0
  0
SPLINE
  5
85
100
AcDbEntity
  8
レイヤー_2
 62
     7
100
AcDbSpline
210
0.0
220
0.0
230
1.0
 70
     8
 71
     3
 72
     8
 73
     4
 74
     0
 42
0.00000001
 43
0.00000001
 40
0.0
 40
0.0
 40
0.0
 40
0.0
 40
1.0
 40
1.0
 40
1.0
 40
1.0
 10
164.73240831163193
 20
140.35422363281248
 30
0.0
 10
164.73240831163193
 20
140.44310709635414
 30
0.0
 10
164.73206380208333
 20
140.53095703124998
 30
0.0
 10
164.73240831163193
 20
140.61915147569442
 30
0.0
  0
SPLINE
  5
84
100
AcDbEntity
  8
レイヤー_2
 62
     7
100
AcDbSpline
210
0.0
220
0.0
230
1.0
 70
     8
 71
     3
 72
    14
 73
    10
 74
     0
 42
0.00000001
 43
0.00000001
 40
0.0
 40
0.0
 40
0.0
 40
0.0
 40
1.0
 40
1.0
 40
1.0
 40
2.0
 40
2.0
 40
2.0
 40
3.0
 40
3.0
 40
3.0
 40
3.0
 10
38.54855143229166
 20
175.23857150607637
 30
0.0
 10
38.18543836805555
 20
175.34089084201386
 30
0.0
 10
37.80923394097222
 20
175.38860541449651
 30
0.0
 10
37.459901258680553
 20
175.38739963107636
 30
0.0
 10
35.876018608940967
 20
175.39015570746525
 30
0.0
 10
34.591514756944441
 20
174.51871880425347
 30
0.0
 10
34.589275444878467
 20
173.43988715277777
 30
0.0
 10
34.58755289713541
 20
172.80340576171872
 30
0.0
 10
35.035243055555554
 20
172.23599853515623
 30
0.0
 10
35.73476969401041
 20
171.87512478298609
 30
0.0
  0
LINE
  5
83
100
AcDbEntity
  8
レイヤー_2
 62
     7
100
AcDbLine
 10
164.731375
 20
141.509709
 30
0.0
 11
164.732408
 21
141.517977
 31
0.0
  0
LINE
  5
82
100
AcDbEntity
  8
レイヤー_2
 62
     7
100
AcDbLine
 10
164.727241
 20
139.342055
 30
0.0
 11
164.730341
 21
139.038886
 31
0.0
  0
LINE
  5
81
100
AcDbEntity
  8
レイヤー_2
 62
     7
100
AcDbLine
 10
164.726207
 20
139.332753
 30
0.0
 11
164.730341
 21
138.991344
 31
0.0
  0
LINE
  5
80
100
AcDbEntity
  8
レイヤー_2
 62
     7
100
AcDbLine
 10
35.446071
 20
172.046002
 30
0.0
 11
35.73477
 21
171.875125
 31
0.0
  0
LINE
  5
7F
100
AcDbEntity
  8
レイヤー_2
 62
     7
100
AcDbLine
 10
164.732408
 20
141.517977
 30
0.0
 11
164.732408
 21
141.469746
 31
0.0
  0
LINE
  5
7E
100
AcDbEntity
  8
レイヤー_2
 62
     7
100
AcDbLine
 10
164.732408
 20
140.619151
 30
0.0
 11
164.732408
 21
140.486515
 31
0.0
  0
LINE
  5
7D
100
AcDbEntity
  8
レイヤー_2
 62
     7
100
AcDbLine
 10
164.732408
 20
139.45781
 30
0.0
 11
164.732408
 21
139.461944
 31
0.0
  0
LINE
  5
7C
100
AcDbEntity
  8
レイヤー_2
 62
     7
100
AcDbLine
 10
164.732408
 20
137.577821
 30
0.0
 11
164.732064
 21
137.626742
 31
0.0
  0
LINE
  5
7B
100
AcDbEntity
  8
レイヤー_2
 62
     7
100
AcDbLine
 10
164.732408
 20
137.59298
 30
0.0
 11
164.732408
 21
137.714247
 31
0.0
  0
LINE
  5
7A
100
AcDbEntity
  8
レイヤー_2
 62
     7
100
AcDbLine
 10
164.732408
 20
137.602626
 30
0.0
 11
164.732408
 21
137.714247
 31
0.0
  0
LINE
  5
79
100
AcDbEntity
  8
レイヤー_2
 62
     7
100
AcDbLine
 10
164.732408
 20
138.416357
 30
0.0
 11
164.732408
 21
138.290611
 31
0.0
  0
LINE
  5
78
100
AcDbEntity
  8
レイヤー_2
 62
     7
100
AcDbLine
 10
164.732408
 20
138.416357
 30
0.0
 11
164.732408
 21
138.123524
 31
0.0
  0
LINE
  5
77
100
AcDbEntity
  8
レイヤー_2
 62
     7
100
AcDbLine
 10
164.732408
 20
137.893047
 30
0.0
 11
164.732408
 21
137.701845
 31
0.0
  0
LINE
  5
76
100
AcDbEntity
  8
レイヤー_2
 62
     7
100
AcDbLine
 10
164.732408
 20
137.893047
 30
0.0
 11
164.732408
 21
137.827591
 31
0.0
  0
LINE
  5
75
100
AcDbEntity
  8
レイヤー_2
 62
     7
100
AcDbLine
 10
164.732408
 20
138.575521
 30
0.0
 11
164.732408
 21
138.469412
 31
0.0
  0
LINE
  5
74
100
AcDbEntity
  8
レイヤー_2
 62
     7
100
AcDbLine
 10
164.732064
 20
139.870532
 30
0.0
 11
164.726207
 21
139.666583
 31
0.0
  0
LINE
  5
73
100
AcDbEntity
  8
レイヤー_2
 62
     7
100
AcDbLine
 10
164.732408
 20
138.290611
 30
0.0
 11
164.732408
 21
138.575521
 31
0.0
  0
LINE
  5
72
100
AcDbEntity
  8
レイヤー_2
 62
     7
100
AcDbLine
 10
164.732408
 20
138.267874
 30
0.0
 11
164.732408
 21
138.129725
 31
0.0
  0
LINE
  5
71
100
AcDbEntity
  8
レイヤー_2
 62
     7
100
AcDbLine
 10
164.732408
 20
137.326674
 30
0.0
 11
164.732408
 21
137.500996
 31
0.0
  0
LINE
  5
70
100
AcDbEntity
  8
レイヤー_2
 62
     7
100
AcDbLine
 10
164.732408
 20
137.346655
 30
0.0
 11
164.731375
 21
137.402121
 31
0.0
  0
LINE
  5
6F
100
AcDbEntity
  8
レイヤー_2
 62
     7
100
AcDbLine
 10
164.732408
 20
137.500996
 30
0.0
 11
164.726207
 21
137.499273
 31
0.0
  0
LINE
  5
6E
100
AcDbEntity
  8
レイヤー_2
 62
     7
100
AcDbLine
 10
164.732408
 20
137.893047
 30
0.0
 11
164.732408
 21
137.326674
 31
0.0
  0
LINE
  5
6D
100
AcDbEntity
  8
レイヤー_2
 62
     7
100
AcDbLine
 10
164.732408
 20
141.517977
 30
0.0
 11
164.732408
 21
138.742263
 31
0.0
  0
LINE
  5
6C
100
AcDbEntity
  8
レイヤー_2
 62
     7
100
AcDbLine
 10
164.732408
 20
137.326674
 30
0.0
 11
164.732408
 21
138.416357
 31
0.0
  0
LINE
  5
6B
100
AcDbEntity
  8
レイヤー_2
 62
     7
100
AcDbLine
 10
164.732408
 20
141.517977
 30
0.0
 11
38.548551
 21
175.238572
 31
0.0
  0
SPLINE
  5
6A
100
AcDbEntity
  8
レイヤー_2
 62
     7
100
AcDbSpline
210
0.0
220
0.0
230
1.0
 70
     8
 71
     3
 72
     8
 73
     4
 74
     0
 42
0.00000001
 43
0.00000001
 40
0.0
 40
0.0
 40
0.0
 40
0.0
 40
1.0
 40
1.0
 40
1.0
 40
1.0
 10
38.54855143229166
 20
175.23857150607637
 30
0.0
 10
38.171830240885413
 20
175.3295220269097
 30
0.0
 10
37.843684895833327
 20
175.36293945312499
 30
0.0
 10
37.452494303385414
 20
175.38739963107636
 30
0.0
  0
LINE
  5
69
100
AcDbEntity
  8
レイヤー_2
 62
     7
100
AcDbLine
 10
164.732408
 20
140.167499
 30
0.0
 11
164.727241
 21
139.641778
 31
0.0
  0
SPLINE
  5
68
100
AcDbEntity
  8
レイヤー_2
 62
     7
100
AcDbSpline
210
0.0
220
0.0
230
1.0
 70
     8
 71
     3
 72
     8
 73
     4
 74
     0
 42
0.00000001
 43
0.00000001
 40
0.0
 40
0.0
 40
0.0
 40
0.0
 40
1.0
 40
1.0
 40
1.0
 40
1.0
 10
164.72620713975692
 20
137.82965766059027
 30
0.0
 10
164.72930772569444
 20
137.68737521701388
 30
0.0
 10
164.73240831163193
 20
137.54440375434027
 30
0.0
 10
164.73137478298611
 20
137.40212131076387
 30
0.0
  0
SPLINE
  5
67
100
AcDbEntity
  8
レイヤー_2
 62
     7
100
AcDbSpline
210
0.0
220
0.0
230
1.0
 70
     8
 71
     3
 72
     8
 73
     4
 74
     0
 42
0.00000001
 43
0.00000001
 40
0.0
 40
0.0
 40
0.0
 40
0.0
 40
1.0
 40
1.0
 40
1.0
 40
1.0
 10
164.72930772569444
 20
137.90441623263888
 30
0.0
 10
164.73206380208333
 20
137.81174316406248
 30
0.0
 10
164.73240831163193
 20
137.7194146050347
 30
0.0
 10
164.73206380208333
 20
137.62674153645833
 30
0.0
  0
SPLINE
  5
66
100
AcDbEntity
  8
レイヤー_2
 62
     7
100
AcDbSpline
210
0.0
220
0.0
230
1.0
 70
     8
 71
     3
 72
     8
 73
     4
 74
     0
 42
0.00000001
 43
0.00000001
 40
0.0
 40
0.0
 40
0.0
 40
0.0
 40
1.0
 40
1.0
 40
1.0
 40
1.0
 10
164.73068576388889
 20
140.52406684027775
 30
0.0
 10
164.73240831163193
 20
140.23846842447915
 30
0.0
 10
164.73034125434026
 20
139.95287000868055
 30
0.0
 10
164.72620713975692
 20
139.66658257378472
 30
0.0
  0
SPLINE
  5
65
100
AcDbEntity
  8
レイヤー_2
 62
     7
100
AcDbSpline
210
0.0
220
0.0
230
1.0
 70
     8
 71
     3
 72
     8
 73
     4
 74
     0
 42
0.00000001
 43
0.00000001
 40
0.0
 40
0.0
 40
0.0
 40
0.0
 40
1.0
 40
1.0
 40
1.0
 40
1.0
 10
34.930339898003467
 20
172.51591254340275
 30
0.0
 10
35.224723307291661
 20
172.19724121093748
 30
0.0
 10
35.061942545572911
 20
172.35140923394096
 30
0.0
 10
35.424883355034716
 20
172.05737033420138
 30
0.0
  0
LINE
  5
64
100
AcDbEntity
  8
レイヤー_2
 62
     7
100
AcDbLine
 10
34.629066
 20
173.112259
 30
0.0
 11
34.748956
 21
172.8022
 31
0.0
  0
SPLINE
  5
63
100
AcDbEntity
  8
レイヤー_2
 62
     7
100
AcDbSpline
210
0.0
220
0.0
230
1.0
 70
     8
 71
     3
 72
     8
 73
     4
 74
     0
 42
0.00000001
 43
0.00000001
 40
0.0
 40
0.0
 40
0.0
 40
0.0
 40
1.0
 40
1.0
 40
1.0
 40
1.0
 10
34.930339898003467
 20
174.35335422092012
 30
0.0
 10
35.260380045572916
 20
174.71371120876734
 30
0.0
 10
35.597999403211801
 20
174.9354031032986
 30
0.0
 10
36.042588975694443
 20
175.13504638671873
 30
0.0
  0
LINE
  5
62
100
AcDbEntity
  8
レイヤー_2
 62
     7
100
AcDbLine
 10
34.748956
 20
174.067239
 30
0.0
 11
34.629066
 21
173.758386
 31
0.0
  0
SPLINE
  5
61
100
AcDbEntity
  8
レイヤー_2
 62
     7
100
AcDbSpline
210
0.0
220
0.0
230
1.0
 70
     8
 71
     3
 72
     8
 73
     4
 74
     0
 42
0.00000001
 43
0.00000001
 40
0.0
 40
0.0
 40
0.0
 40
0.0
 40
1.0
 40
1.0
 40
1.0
 40
1.0
 10
164.73240831163193
 20
140.61915147569442
 30
0.0
 10
164.73240831163193
 20
140.35284559461803
 30
0.0
 10
164.73240831163193
 20
140.08619520399304
 30
0.0
 10
164.73240831163193
 20
139.81988932291665
 30
0.0
  0
LINE
  5
60
100
AcDbEntity
  8
レイヤー_2
 62
     7
100
AcDbLine
 10
164.732408
 20
137.500996
 30
0.0
 11
164.732408
 21
137.358713
 31
0.0
  0
SPLINE
  5
5F
100
AcDbEntity
  8
レイヤー_2
 62
     7
100
AcDbSpline
210
0.0
220
0.0
230
1.0
 70
     8
 71
     3
 72
     8
 73
     4
 74
     0
 42
0.00000001
 43
0.00000001
 40
0.0
 40
0.0
 40
0.0
 40
0.0
 40
1.0
 40
1.0
 40
1.0
 40
1.0
 10
164.73240831163193
 20
139.27487521701389
 30
0.0
 10
164.73240831163193
 20
139.15498589409722
 30
0.0
 10
164.73240831163193
 20
139.03509657118053
 30
0.0
 10
164.73240831163193
 20
138.91555175781249
 30
0.0
  0
SPLINE
  5
5E
100
AcDbEntity
  8
レイヤー_2
 62
     7
100
AcDbSpline
210
0.0
220
0.0
230
1.0
 70
     8
 71
     3
 72
     8
 73
     4
 74
     0
 42
0.00000001
 43
0.00000001
 40
0.0
 40
0.0
 40
0.0
 40
0.0
 40
1.0
 40
1.0
 40
1.0
 40
1.0
 10
164.73240831163193
 20
140.16715494791666
 30
0.0
 10
164.73240831163193
 20
139.30863715277778
 30
0.0
 10
164.73240831163193
 20
138.45184190538194
 30
0.0
 10
164.73240831163193
 20
137.59297960069443
 30
0.0
  0
SPLINE
  5
5D
100
AcDbEntity
  8
レイヤー_2
 62
     7
100
AcDbSpline
210
0.0
220
0.0
230
1.0
 70
     8
 71
     3
 72
    14
 73
    10
 74
     0
 42
0.00000001
 43
0.00000001
 40
0.0
 40
0.0
 40
0.0
 40
0.0
 40
1.0
 40
1.0
 40
1.0
 40
2.0
 40
2.0
 40
2.0
 40
3.0
 40
3.0
 40
3.0
 40
3.0
 10
35.73476969401041
 20
171.87512478298609
 30
0.0
 10
36.499925401475693
 20
171.53302680121527
 30
0.0
 10
37.244755045572916
 20
171.39539523654511
 30
0.0
 10
38.087425401475691
 20
171.17060275607636
 30
0.0
 10
38.087425401475691
 20
171.17060275607636
 30
0.0
 10
162.99332411024304
 20
137.79176161024304
 30
0.0
 10
162.99332411024304
 20
137.79176161024304
 30
0.0
 10
162.99332411024304
 20
137.79176161024304
 30
0.0
 10
164.73240831163193
 20
137.32667371961804
 30
0.0
 10
164.73240831163193
 20
137.32667371961804
 30
0.0
  0
SPLINE
  5
5C
100
AcDbEntity
  8
レイヤー_2
 62
     7
100
AcDbSpline
210
0.0
220
0.0
230
1.0
 70
     8
 71
     3
 72
     8
 73
     4
 74
     0
 42
0.00000001
 43
0.00000001
 40
0.0
 40
0.0
 40
0.0
 40
0.0
 40
1.0
 40
1.0
 40
1.0
 40
1.0
 10
41.461724175347221
 20
177.98758544921873
 30
0.0
 10
40.691917588975691
 20
177.82704399956594
 30
0.0
 10
40.132950846354163
 20
177.12527804904514
 30
0.0
 10
39.929862467447911
 20
176.19355197482636
 30
0.0
  0
SPLINE
  5
5B
100
AcDbEntity
  8
レイヤー_2
 62
     7
100
AcDbSpline
210
0.0
220
0.0
230
1.0
 70
     8
 71
     3
 72
     8
 73
     4
 74
     0
 42
0.00000001
 43
0.00000001
 40
0.0
 40
0.0
 40
0.0
 40
0.0
 40
1.0
 40
1.0
 40
1.0
 40
1.0
 10
41.47567681206597
 20
177.99034152560762
 30
0.0
 10
41.47085367838541
 20
177.98913574218747
 30
0.0
 10
41.466202799479163
 20
177.98879123263887
 30
0.0
 10
41.461724175347221
 20
177.98758544921873
 30
0.0
  0
SPLINE
  5
5A
100
AcDbEntity
  8
レイヤー_2
 62
     7
100
AcDbSpline
210
0.0
220
0.0
230
1.0
 70
     8
 71
     3
 72
     8
 73
     4
 74
     0
 42
0.00000001
 43
0.00000001
 40
0.0
 40
0.0
 40
0.0
 40
0.0
 40
1.0
 40
1.0
 40
1.0
 40
1.0
 10
46.351692708333331
 20
179.3912896050347
 30
0.0
 10
46.197007921006943
 20
179.34994845920139
 30
0.0
 10
46.05196940104166
 20
179.28638644748261
 30
0.0
 10
45.930702039930551
 20
179.21145562065971
 30
0.0
  0
SPLINE
  5
59
100
AcDbEntity
  8
レイヤー_2
 62
     7
100
AcDbSpline
210
0.0
220
0.0
230
1.0
 70
     8
 71
     3
 72
    14
 73
    10
 74
     0
 42
0.00000001
 43
0.00000001
 40
0.0
 40
0.0
 40
0.0
 40
0.0
 40
1.0
 40
1.0
 40
1.0
 40
2.0
 40
2.0
 40
2.0
 40
3.0
 40
3.0
 40
3.0
 40
3.0
 10
48.056498209635414
 20
172.69764133029511
 30
0.0
 10
48.085953776041663
 20
172.70418701171874
 30
0.0
 10
48.1150648328993
 20
172.71073269314235
 30
0.0
 10
48.139180501302079
 20
172.71813964843747
 30
0.0
 10
49.394401041666661
 20
173.05369194878472
 30
0.0
 10
50.011934407552076
 20
174.82033691406249
 30
0.0
 10
49.518596733940967
 20
176.662946234809
 30
0.0
 10
49.024742296006941
 20
178.50572781032986
 30
0.0
 10
47.60708550347222
 20
179.72735866970484
 30
0.0
 10
46.351692708333331
 20
179.3912896050347
 30
0.0
  0
SPLINE
  5
58
100
AcDbEntity
  8
レイヤー_2
 62
     7
100
AcDbSpline
210
0.0
220
0.0
230
1.0
 70
     8
 71
     3
 72
     8
 73
     4
 74
     0
 42
0.00000001
 43
0.00000001
 40
0.0
 40
0.0
 40
0.0
 40
0.0
 40
1.0
 40
1.0
 40
1.0
 40
1.0
 10
41.320992024739581
 20
177.8938788519965
 30
0.0
 10
40.623360188802081
 20
177.70612114800346
 30
0.0
 10
40.13226182725694
 20
177.05809868706595
 30
0.0
 10
39.933824327256943
 20
176.19510226779514
 30
0.0
  0
SPLINE
  5
57
100
AcDbEntity
  8
レイヤー_2
 62
     7
100
AcDbSpline
210
0.0
220
0.0
230
1.0
 70
     8
 71
     3
 72
    11
 73
     7
 74
     0
 42
0.00000001
 43
0.00000001
 40
0.0
 40
0.0
 40
0.0
 40
0.0
 40
1.0
 40
1.0
 40
1.0
 40
2.0
 40
2.0
 40
2.0
 40
2.0
 10
44.49392496744791
 20
173.64952121310762
 30
0.0
 10
44.552836100260414
 20
174.20400933159721
 30
0.0
 10
44.495647515190967
 20
174.77382812499999
 30
0.0
 10
44.353365071614576
 20
175.29317626953124
 30
0.0
 10
43.879664442274304
 20
177.05275878906249
 30
0.0
 10
42.521607801649303
 20
178.21737331814234
 30
0.0
 10
41.320992024739581
 20
177.8938788519965
 30
0.0
  0
SPLINE
  5
56
100
AcDbEntity
  8
レイヤー_2
 62
     7
100
AcDbSpline
210
0.0
220
0.0
230
1.0
 70
     8
 71
     3
 72
     8
 73
     4
 74
     0
 42
0.00000001
 43
0.00000001
 40
0.0
 40
0.0
 40
0.0
 40
0.0
 40
1.0
 40
1.0
 40
1.0
 40
1.0
 10
45.805645073784717
 20
182.01025119357638
 30
0.0
 10
45.422722710503471
 20
181.90758734809026
 30
0.0
 10
45.073390028211804
 20
181.73085394965275
 30
0.0
 10
44.787791612413187
 20
181.50916205512152
 30
0.0
  0
SPLINE
  5
55
100
AcDbEntity
  8
レイヤー_2
 62
     7
100
AcDbSpline
210
0.0
220
0.0
230
1.0
 70
     8
 71
     3
 72
    11
 73
     7
 74
     0
 42
0.00000001
 43
0.00000001
 40
0.0
 40
0.0
 40
0.0
 40
0.0
 40
1.0
 40
1.0
 40
1.0
 40
2.0
 40
2.0
 40
2.0
 40
2.0
 10
51.020830620659716
 20
171.90578613281249
 30
0.0
 10
51.808207194010414
 20
173.34876437717011
 30
0.0
 10
51.911387803819437
 20
175.31109076605901
 30
0.0
 10
51.420633951822914
 20
177.16868625217012
 30
0.0
 10
50.546785481770826
 20
180.43790961371525
 30
0.0
 10
48.032554796006941
 20
182.60521918402776
 30
0.0
 10
45.805645073784717
 20
182.01025119357638
 30
0.0
  0
SPLINE
  5
54
100
AcDbEntity
  8
レイヤー_2
 62
     7
100
AcDbSpline
210
0.0
220
0.0
230
1.0
 70
     8
 71
     3
 72
     8
 73
     4
 74
     0
 42
0.00000001
 43
0.00000001
 40
0.0
 40
0.0
 40
0.0
 40
0.0
 40
1.0
 40
1.0
 40
1.0
 40
1.0
 10
47.2313978407118
 20
182.44192165798609
 30
0.0
 10
47.17954915364583
 20
182.42831353081596
 30
0.0
 10
47.127528211805554
 20
182.41298285590275
 30
0.0
 10
47.083430989583327
 20
182.3985134548611
 30
0.0
  0
SPLINE
  5
53
100
AcDbEntity
  8
レイヤー_2
 62
     7
100
AcDbSpline
210
0.0
220
0.0
230
1.0
 70
     8
 71
     3
 72
    11
 73
     7
 74
     0
 42
0.00000001
 43
0.00000001
 40
0.0
 40
0.0
 40
0.0
 40
0.0
 40
1.0
 40
1.0
 40
1.0
 40
2.0
 40
2.0
 40
2.0
 40
2.0
 10
52.068828667534717
 20
171.62587212456594
 30
0.0
 10
53.210533311631941
 20
173.041461859809
 30
0.0
 10
53.476322428385409
 20
175.35243191189235
 30
0.0
 10
52.891861979166663
 20
177.56969536675345
 30
0.0
 10
52.00871175130208
 20
180.86182861328123
 30
0.0
 10
49.47518853081597
 20
183.04395209418402
 30
0.0
 10
47.2313978407118
 20
182.44192165798609
 30
0.0
  0
SPLINE
  5
52
100
AcDbEntity
  8
レイヤー_2
 62
     7
100
AcDbSpline
210
0.0
220
0.0
230
1.0
 70
     8
 71
     3
 72
     8
 73
     4
 74
     0
 42
0.00000001
 43
0.00000001
 40
0.0
 40
0.0
 40
0.0
 40
0.0
 40
1.0
 40
1.0
 40
1.0
 40
1.0
 10
45.55294731987847
 20
181.94048800998263
 30
0.0
 10
44.256730143229163
 20
181.43302544487847
 30
0.0
 10
43.425945366753467
 20
180.12819552951387
 30
0.0
 10
43.156194390190969
 20
178.461286078559
 30
0.0
  0
SPLINE
  5
51
100
AcDbEntity
  8
レイヤー_2
 62
     7
100
AcDbSpline
210
0.0
220
0.0
230
1.0
 70
     8
 71
     3
 72
     8
 73
     4
 74
     0
 42
0.00000001
 43
0.00000001
 40
0.0
 40
0.0
 40
0.0
 40
0.0
 40
1.0
 40
1.0
 40
1.0
 40
1.0
 10
45.690751139322913
 20
181.99009738498262
 30
0.0
 10
45.642003038194439
 20
181.97407769097219
 30
0.0
 10
45.593943956163187
 20
181.9556464301215
 30
0.0
 10
45.55294731987847
 20
181.94048800998263
 30
0.0
  0
LINE
  5
50
100
AcDbEntity
  8
レイヤー_2
 62
     7
100
AcDbLine
 10
46.382354
 20
179.36459
 30
0.0
 11
41.475677
 21
177.990342
 31
0.0
  0
LINE
  5
4F
100
AcDbEntity
  8
レイヤー_2
 62
     7
100
AcDbLine
 10
45.690923
 20
181.990097
 30
0.0
 11
47.08412
 21
182.398513
 31
0.0
  0
SPLINE
  5
4E
100
AcDbEntity
  8
レイヤー_2
 62
     7
100
AcDbSpline
210
0.0
220
0.0
230
1.0
 70
     8
 71
     3
 72
     8
 73
     4
 74
     0
 42
0.00000001
 43
0.00000001
 40
0.0
 40
0.0
 40
0.0
 40
0.0
 40
1.0
 40
1.0
 40
1.0
 40
1.0
 10
168.74146592881942
 20
143.97364095052083
 30
0.0
 10
167.97114257812498
 20
143.81275499131942
 30
0.0
 10
167.41303710937498
 20
143.11167805989581
 30
0.0
 10
167.20977647569444
 20
142.17943522135414
 30
0.0
  0
SPLINE
  5
4D
100
AcDbEntity
  8
レイヤー_2
 62
     7
100
AcDbSpline
210
0.0
220
0.0
230
1.0
 70
     8
 71
     3
 72
     8
 73
     4
 74
     0
 42
0.00000001
 43
0.00000001
 40
0.0
 40
0.0
 40
0.0
 40
0.0
 40
1.0
 40
1.0
 40
1.0
 40
1.0
 10
168.7559353298611
 20
143.97708604600692
 30
0.0
 10
168.75076768663192
 20
143.97467447916665
 30
0.0
 10
168.74560004340276
 20
143.97432996961805
 30
0.0
 10
168.74146592881942
 20
143.97364095052083
 30
0.0
  0
SPLINE
  5
4C
100
AcDbEntity
  8
レイヤー_2
 62
     7
100
AcDbSpline
210
0.0
220
0.0
230
1.0
 70
     8
 71
     3
 72
     8
 73
     4
 74
     0
 42
0.00000001
 43
0.00000001
 40
0.0
 40
0.0
 40
0.0
 40
0.0
 40
1.0
 40
1.0
 40
1.0
 40
1.0
 10
173.63108995225693
 20
145.37682834201388
 30
0.0
 10
173.47674967447915
 20
145.33583170572916
 30
0.0
 10
173.33171115451387
 20
145.27244194878472
 30
0.0
 10
173.21147732204861
 20
145.19802788628471
 30
0.0
  0
SPLINE
  5
4B
100
AcDbEntity
  8
レイヤー_2
 62
     7
100
AcDbSpline
210
0.0
220
0.0
230
1.0
 70
     8
 71
     3
 72
    14
 73
    10
 74
     0
 42
0.00000001
 43
0.00000001
 40
0.0
 40
0.0
 40
0.0
 40
0.0
 40
1.0
 40
1.0
 40
1.0
 40
2.0
 40
2.0
 40
2.0
 40
3.0
 40
3.0
 40
3.0
 40
3.0
 10
174.92851291232637
 20
138.64752332899303
 30
0.0
 10
175.10421278211803
 20
138.64097764756943
 30
0.0
 10
175.27198893229166
 20
138.66061469184027
 30
0.0
 10
175.4159939236111
 20
138.70092230902776
 30
0.0
 10
176.67242024739582
 20
139.0371636284722
 30
0.0
 10
177.29150390624997
 20
140.80380859374998
 30
0.0
 10
176.79851074218749
 20
142.64727918836803
 30
0.0
 10
176.30551757812498
 20
144.49074978298609
 30
0.0
 10
174.88717176649303
 20
145.71272515190972
 30
0.0
 10
173.63108995225693
 20
145.37682834201388
 30
0.0
  0
SPLINE
  5
4A
100
AcDbEntity
  8
レイヤー_2
 62
     7
100
AcDbSpline
210
0.0
220
0.0
230
1.0
 70
     8
 71
     3
 72
     8
 73
     4
 74
     0
 42
0.00000001
 43
0.00000001
 40
0.0
 40
0.0
 40
0.0
 40
0.0
 40
1.0
 40
1.0
 40
1.0
 40
1.0
 10
168.26087510850692
 20
138.26925184461805
 30
0.0
 10
168.69667968749999
 20
137.77625868055554
 30
0.0
 10
169.19690755208333
 20
137.49686143663195
 30
0.0
 10
169.68507758246525
 20
137.42279188368053
 30
0.0
  0
SPLINE
  5
49
100
AcDbEntity
  8
レイヤー_2
 62
     7
100
AcDbSpline
210
0.0
220
0.0
230
1.0
 70
     8
 71
     3
 72
     8
 73
     4
 74
     0
 42
0.00000001
 43
0.00000001
 40
0.0
 40
0.0
 40
0.0
 40
0.0
 40
1.0
 40
1.0
 40
1.0
 40
1.0
 10
173.08538682725694
 20
147.99613444010416
 30
0.0
 10
172.70263671874997
 20
147.89381510416666
 30
0.0
 10
172.35364854600692
 20
147.71708170572916
 30
0.0
 10
172.06770562065969
 20
147.49556206597222
 30
0.0
  0
SPLINE
  5
48
100
AcDbEntity
  8
レイヤー_2
 62
     7
100
AcDbSpline
210
0.0
220
0.0
230
1.0
 70
     8
 71
     3
 72
    14
 73
    10
 74
     0
 42
0.00000001
 43
0.00000001
 40
0.0
 40
0.0
 40
0.0
 40
0.0
 40
1.0
 40
1.0
 40
1.0
 40
2.0
 40
2.0
 40
2.0
 40
3.0
 40
3.0
 40
3.0
 40
3.0
 10
175.02704264322915
 20
136.09608561197916
 30
0.0
 10
175.46732584635416
 20
136.02821723090275
 30
0.0
 10
175.88659396701388
 20
136.05474446614582
 30
0.0
 10
176.24591742621527
 20
136.15706380208331
 30
0.0
 10
178.47420518663193
 20
136.7516872829861
 30
0.0
 10
179.57387966579859
 20
139.88431260850695
 30
0.0
 10
178.70054796006943
 20
143.15336371527778
 30
0.0
 10
177.82721625434027
 20
146.42310384114583
 30
0.0
 10
175.31333007812498
 20
148.59127468532984
 30
0.0
 10
173.08538682725694
 20
147.99613444010416
 30
0.0
  0
SPLINE
  5
47
100
AcDbEntity
  8
レイヤー_2
 62
     7
100
AcDbSpline
210
0.0
220
0.0
230
1.0
 70
     8
 71
     3
 72
     8
 73
     4
 74
     0
 42
0.00000001
 43
0.00000001
 40
0.0
 40
0.0
 40
0.0
 40
0.0
 40
1.0
 40
1.0
 40
1.0
 40
1.0
 10
168.62295464409721
 20
143.9295437282986
 30
0.0
 10
168.41383734809025
 20
143.8737331814236
 30
0.0
 10
168.22297905815969
 20
143.77692599826386
 30
0.0
 10
168.06726074218747
 20
143.65565863715275
 30
0.0
  0
SPLINE
  5
46
100
AcDbEntity
  8
レイヤー_2
 62
     7
100
AcDbSpline
210
0.0
220
0.0
230
1.0
 70
     8
 71
     3
 72
    14
 73
    10
 74
     0
 42
0.00000001
 43
0.00000001
 40
0.0
 40
0.0
 40
0.0
 40
0.0
 40
1.0
 40
1.0
 40
1.0
 40
2.0
 40
2.0
 40
2.0
 40
3.0
 40
3.0
 40
3.0
 40
3.0
 10
169.68542209201388
 20
137.42279188368053
 30
0.0
 10
169.92623426649305
 20
137.38558485243055
 30
0.0
 10
170.15533311631944
 20
137.40039876302083
 30
0.0
 10
170.3527370876736
 20
137.4555202907986
 30
0.0
 10
171.5712673611111
 20
137.78177083333333
 30
0.0
 10
172.17140299479166
 20
139.49432779947915
 30
0.0
 10
171.69425726996525
 20
141.28198784722221
 30
0.0
 10
171.21642252604164
 20
143.06999240451387
 30
0.0
 10
169.8411404079861
 20
144.25544976128472
 30
0.0
 10
168.62295464409721
 20
143.9295437282986
 30
0.0
  0
SPLINE
  5
45
100
AcDbEntity
  8
レイヤー_2
 62
     7
100
AcDbSpline
210
0.0
220
0.0
230
1.0
 70
     8
 71
     3
 72
     8
 73
     4
 74
     0
 42
0.00000001
 43
0.00000001
 40
0.0
 40
0.0
 40
0.0
 40
0.0
 40
1.0
 40
1.0
 40
1.0
 40
1.0
 10
172.18104926215275
 20
137.90992838541666
 30
0.0
 10
173.36650661892361
 20
136.45609809027778
 30
0.0
 10
174.79691026475692
 20
135.8680202907986
 30
0.0
 10
176.11293674045137
 20
136.11331108940971
 30
0.0
  0
SPLINE
  5
44
100
AcDbEntity
  8
レイヤー_2
 62
     7
100
AcDbSpline
210
0.0
220
0.0
230
1.0
 70
     8
 71
     3
 72
     8
 73
     4
 74
     0
 42
0.00000001
 43
0.00000001
 40
0.0
 40
0.0
 40
0.0
 40
0.0
 40
1.0
 40
1.0
 40
1.0
 40
1.0
 10
174.51234537760416
 20
148.42849392361109
 30
0.0
 10
174.45997992621525
 20
148.41419677734373
 30
0.0
 10
174.40761447482637
 20
148.39903835720486
 30
0.0
 10
174.36386176215277
 20
148.38405219184025
 30
0.0
  0
SPLINE
  5
43
100
AcDbEntity
  8
レイヤー_2
 62
     7
100
AcDbSpline
210
0.0
220
0.0
230
1.0
 70
     8
 71
     3
 72
    14
 73
    10
 74
     0
 42
0.00000001
 43
0.00000001
 40
0.0
 40
0.0
 40
0.0
 40
0.0
 40
1.0
 40
1.0
 40
1.0
 40
2.0
 40
2.0
 40
2.0
 40
3.0
 40
3.0
 40
3.0
 40
3.0
 10
177.52232530381943
 20
136.45437554253471
 30
0.0
 10
177.5864040798611
 20
136.46712239583331
 30
0.0
 10
177.64979383680554
 20
136.48193630642359
 30
0.0
 10
177.70319281684027
 20
136.49675021701387
 30
0.0
 10
179.94870605468748
 20
137.09688585069443
 30
0.0
 10
181.05389268663194
 20
140.25431586371528
 30
0.0
 10
180.17332628038193
 20
143.54954969618055
 30
0.0
 10
179.29207085503469
 20
146.84443901909722
 30
0.0
 10
176.75751410590277
 20
149.02880181206595
 30
0.0
 10
174.51234537760416
 20
148.42849392361109
 30
0.0
  0
SPLINE
  5
42
100
AcDbEntity
  8
レイヤー_2
 62
     7
100
AcDbSpline
210
0.0
220
0.0
230
1.0
 70
     8
 71
     3
 72
     8
 73
     4
 74
     0
 42
0.00000001
 43
0.00000001
 40
0.0
 40
0.0
 40
0.0
 40
0.0
 40
1.0
 40
1.0
 40
1.0
 40
1.0
 10
172.83527289496527
 20
147.92723253038193
 30
0.0
 10
171.53716091579861
 20
147.42011447482636
 30
0.0
 10
170.70482584635414
 20
146.11442328559028
 30
0.0
 10
170.43541937934026
 20
144.44596354166666
 30
0.0
  0
SPLINE
  5
41
100
AcDbEntity
  8
レイヤー_2
 62
     7
100
AcDbSpline
210
0.0
220
0.0
230
1.0
 70
     8
 71
     3
 72
     8
 73
     4
 74
     0
 42
0.00000001
 43
0.00000001
 40
0.0
 40
0.0
 40
0.0
 40
0.0
 40
1.0
 40
1.0
 40
1.0
 40
1.0
 10
172.97032063802081
 20
147.9758083767361
 30
0.0
 10
172.92208930121527
 20
147.95961642795137
 30
0.0
 10
172.87489149305554
 20
147.94273546006943
 30
0.0
 10
172.83527289496527
 20
147.92723253038193
 30
0.0
  0
LINE
  5
40
100
AcDbEntity
  8
レイヤー_2
 62
     7
100
AcDbLine
 10
173.66244
 20
145.35099
 30
0.0
 11
168.755246
 21
143.976397
 31
0.0
  0
LINE
  5
3F
100
AcDbEntity
  8
レイヤー_2
 62
     7
100
AcDbLine
 10
168.265698
 20
138.270974
 30
0.0
 11
168.356993
 21
138.166243
 31
0.0
  0
LINE
  5
3E
100
AcDbEntity
  8
レイヤー_2
 62
     7
100
AcDbLine
 10
177.523359
 20
136.454376
 30
0.0
 11
176.112592
 21
136.113311
 31
0.0
  0
LINE
  5
3D
100
AcDbEntity
  8
レイヤー_2
 62
     7
100
AcDbLine
 10
172.970665
 20
147.976153
 30
0.0
 11
174.363862
 21
148.384052
 31
0.0
  0
POLYLINE
  5
36
100
AcDbEntity
  8
レイヤー_2
 62
     7
100
AcDb2dPolyline
 66
     1
 10
0.0
 20
0.0
 30
0.0
  0
VERTEX
  5
37
100
AcDbEntity
  8
レイヤー_2
 62
     7
100
AcDbVertex
100
AcDb2dVertex
 10
169.920722
 20
137.400399
 30
0.0
  0
VERTEX
  5
38
100
AcDbEntity
  8
レイヤー_2
 62
     7
100
AcDbVertex
100
AcDb2dVertex
 10
170.29796
 20
137.430371
 30
0.0
  0
VERTEX
  5
39
100
AcDbEntity
  8
レイヤー_2
 62
     7
100
AcDbVertex
100
AcDb2dVertex
 10
172.042212
 20
137.874788
 30
0.0
  0
VERTEX
  5
3A
100
AcDbEntity
  8
レイヤー_2
 62
     7
100
AcDbVertex
100
AcDb2dVertex
 10
173.488463
 20
138.242725
 30
0.0
  0
VERTEX
  5
3B
100
AcDbEntity
  8
レイヤー_2
 62
     7
100
AcDbVertex
100
AcDb2dVertex
 10
175.233059
 20
138.687142
 30
0.0
  0
SEQEND
  5
3C
100
AcDbEntity
  8
レイヤー_2
 62
     7
  0
LINE
  5
35
100
AcDbEntity
  8
レイヤー_2
 62
     7
100
AcDbLine
 10
49.078314
 20
183.498877
 30
0.0
 11
49.078314
 21
206.348645
 31
0.0
  0
LINE
  5
34
100
AcDbEntity
  8
レイヤー_2
 62
     7
100
AcDbLine
 10
178.871425
 20
136.329319
 30
0.0
 11
192.224959
 21
132.750898
 31
0.0
  0
LINE
  5
33
100
AcDbEntity
  8
レイヤー_2
 62
     7
100
AcDbLine
 10
35.024736
 20
202.585739
 30
0.0
 11
35.024736
 21
175.453201
 31
0.0
  0
LINE
  5
32
100
AcDbEntity
  8
レイヤー_2
 62
     7
100
AcDbLine
 10
36.094438
 20
202.88908
 30
0.0
 11
34.163978
 21
200.958621
 31
0.0
  0
LINE
  5
31
100
AcDbEntity
  8
レイヤー_2
 62
     7
100
AcDbLine
 10
191.45188
 20
145.520144
 30
0.0
 11
191.45188
 21
117.155295
 31
0.0
  0
LINE
  5
30
100
AcDbEntity
  8
レイヤー_2
 62
     7
100
AcDbLine
 10
50.17282
 20
205.866159
 30
0.0
 11
33.838417
 21
201.489682
 31
0.0
  0
LINE
  5
2F
100
AcDbEntity
  8
レイヤー_2
 62
     7
100
AcDbLine
 10
192.194642
 20
131.717025
 30
0.0
 11
190.698093
 21
134.309804
 31
0.0
  0
LINE
  5
2E
100
AcDbEntity
  8
レイヤー_2
 62
     7
100
AcDbLine
 10
50.108742
 20
206.582739
 30
0.0
 11
48.040306
 21
204.513959
 31
0.0
  0
LINE
  5
2D
100
AcDbEntity
  8
レイヤー_2
 62
     7
100
AcDbLine
 10
177.276345
 20
149.127332
 30
0.0
 11
177.276345
 21
172.305417
 31
0.0
  0
LINE
  5
2C
100
AcDbEntity
  8
レイヤー_2
 62
     7
100
AcDbLine
 10
178.294371
 20
172.293015
 30
0.0
 11
176.22628
 21
170.225269
 31
0.0
  0
LINE
  5
2B
100
AcDbEntity
  8
レイヤー_2
 62
     7
100
AcDbLine
 10
48.125572
 20
205.814655
 30
0.0
 11
178.326066
 21
170.927551
 31
0.0
  0
LINE
  5
2A
100
AcDbEntity
  8
レイヤー_2
 62
     7
100
AcDbLine
 10
179.010607
 20
147.752566
 30
0.0
 11
192.115061
 21
144.24098
 31
0.0
  0
LINE
  5
29
100
AcDbEntity
  8
レイヤー_2
 62
     7
100
AcDbLine
 10
192.194642
 20
143.124425
 30
0.0
 11
190.698093
 21
145.716859
 31
0.0
  0
ENDSEC
  0
SECTION
  2
OBJECTS
  0
DICTIONARY
  5
19
100
AcDbDictionary
280
     0
281
     1
  3
ACAD_GROUP
350
1A
  3
ACAD_MLINESTYLE
350
1B
  3
ACAD_LAYOUT
350
1E
  3
ACAD_PLOTSETTINGS
350
22
  3
ACAD_PLOTSTYLENAME
350
1F
  3
ACAD_WIPEOUT_VARS
350
23
  0
DICTIONARY
  5
1A
102
{ACAD_REACTORS
330
19
102
}
100
AcDbDictionary
280
     0
281
     1
  0
DICTIONARY
  5
1B
102
{ACAD_REACTORS
330
19
102
}
100
AcDbDictionary
280
     0
281
     1
  3
Standard
350
1C
  0
MLINESTYLE
  5
1C
102
{ACAD_REACTORS
330
1B
102
}
100
AcDbMlineStyle
  2
Standard
 70
     0
  3

 62
     0
 51
90.0
 52
90.0
 71
     2
 49
0.5
 62
   256
  6
ByLayer
 49
-0.5
 62
   256
  6
ByLayer
  0
ACDBDICTIONARYWDFLT
  5
1F
102
{ACAD_REACTORS
330
19
102
}
100
AcDbDictionary
281
     1
  3
Normal
350
1D
100
AcDbDictionaryWithDefault
340
1D
  0
ACDBPLACEHOLDER
  5
1D
102
{ACAD_REACTORS
330
1F
102
}
  0
LAYOUT
  5
20
102
{ACAD_REACTORS
330
1E
102
}
100
AcDbPlotSettings
  1

  2

  4

  6

 40
0.0
 41
0.0
 42
0.0
 43
0.0
 44
0.0
 45
0.0
 46
0.0
 47
0.0
 48
0.0
 49
0.0
140
0.0
141
0.0
142
1.0
143
1.0
 70
  1024
 72
     0
 73
     0
 74
     0
  7

 75
     0
147
1.0
148
0.0
149
0.0
100
AcDbLayout
  1
Model
 70
     0
 71
     0
 10
0.0
 20
0.0
 11
0.0
 21
0.0
 12
0.0
 22
0.0
 32
0.0
 14
0.0
 24
0.0
 34
0.0
 15
0.0
 25
0.0
 35
0.0
146
0.0
 13
0.0
 23
0.0
 33
0.0
 16
0.0
 26
0.0
 36
0.0
 17
0.0
 27
0.0
 37
0.0
 76
     0
330
A
331
0
345
0
346
0
  0
LAYOUT
  5
21
102
{ACAD_REACTORS
330
1E
102
}
100
AcDbPlotSettings
  1

  2

  4

  6

 40
0.0
 41
0.0
 42
0.0
 43
0.0
 44
0.0
 45
0.0
 46
0.0
 47
0.0
 48
0.0
 49
0.0
140
0.0
141
0.0
142
1.0
143
1.0
 70
     0
 72
     0
 73
     0
 74
     0
  7

 75
     0
147
1.0
148
0.0
149
0.0
100
AcDbLayout
  1
Layout1
 70
     0
 71
     0
 10
0.0
 20
0.0
 11
0.0
 21
0.0
 12
0.0
 22
0.0
 32
0.0
 14
0.0
 24
0.0
 34
0.0
 15
0.0
 25
0.0
 35
0.0
146
0.0
 13
0.0
 23
0.0
 33
0.0
 16
0.0
 26
0.0
 36
0.0
 17
0.0
 27
0.0
 37
0.0
 76
     0
330
B
331
0
345
0
346
0
  0
DICTIONARY
  5
1E
102
{ACAD_REACTORS
330
19
102
}
100
AcDbDictionary
280
     0
281
     1
  3
Layout1
350
21
  3
Model
350
20
  0
DICTIONARY
  5
22
102
{ACAD_REACTORS
330
19
102
}
100
AcDbDictionary
280
     0
281
     1
  0
WIPEOUTVARIABLES
  5
23
100
AcDbWipeoutVariables
 70
     1
  0
IMAGEDEF_REACTOR
  5
B0
100
AcDbRasterImageDefReactor
 90
        2
330
AF
  0
IMAGEDEF
  5
B1
100
AcDbRasterImageDef
 90
        0
  1
\\192.168.6.3\free(2009_04\一過性\DB_WEB用DXF_丸茂\Tara．\83080892_1.bmp
 10
70.0
 20
9.0
 11
0.352778
 21
0.352778
280
     1
281
     0
  0
IMAGEDEF_REACTOR
  5
B3
100
AcDbRasterImageDefReactor
 90
        2
330
B2
  0
IMAGEDEF
  5
B4
100
AcDbRasterImageDef
 90
        0
  1
\\192.168.6.3\free(2009_04\一過性\DB_WEB用DXF_丸茂\Tara．\83080892_2.bmp
 10
70.0
 20
9.0
 11
0.352778
 21
0.352778
280
     1
281
     0
  0
ENDSEC
  0
EOF
