  0
SECTION
  2
HEADER
  9
$ACADVER
  1
AC1015
  9
$ACADMAINTVER
 70
     6
  9
$DWGCODEPAGE
  3
ANSI_932
  9
$INSBASE
 10
0.0
 20
0.0
 30
0.0
  9
$EXTMIN
 10
23.283333
 20
25.752778
 30
1.000000E+20
  9
$EXTMAX
 10
198.966667
 20
276.930556
 30
-1.000000E+20
  9
$LIMMIN
 10
23.283333
 20
25.752778
  9
$LIMMAX
 10
198.966667
 20
276.930556
  9
$ORTHOMODE
 70
     0
  9
$REGENMODE
 70
     1
  9
$FILLMODE
 70
     1
  9
$QTEXTMODE
 70
     0
  9
$MIRRTEXT
 70
     1
  9
$LTSCALE
 40
1.0
  9
$ATTMODE
 70
     1
  9
$TEXTSIZE
 40
0.2
  9
$TRACEWID
 40
0.05
  9
$TEXTSTYLE
  7
Standard
  9
$CLAYER
  8
0
  9
$CELTYPE
  6
Continuous
  9
$CECOLOR
 62
   256
  9
$CELTSCALE
 40
1.0
  9
$DISPSILH
 70
     0
  9
$DIMSCALE
 40
1.0
  9
$DIMASZ
 40
0.18
  9
$DIMEXO
 40
0.0625
  9
$DIMDLI
 40
0.38
  9
$DIMRND
 40
0.0
  9
$DIMDLE
 40
0.0
  9
$DIMEXE
 40
0.18
  9
$DIMTP
 40
0.0
  9
$DIMTM
 40
0.0
  9
$DIMTXT
 40
0.18
  9
$DIMCEN
 40
0.09
  9
$DIMTSZ
 40
0.0
  9
$DIMTOL
 70
     0
  9
$DIMLIM
 70
     0
  9
$DIMTIH
 70
     1
  9
$DIMTOH
 70
     1
  9
$DIMSE1
 70
     0
  9
$DIMSE2
 70
     0
  9
$DIMTAD
 70
     0
  9
$DIMZIN
 70
     0
  9
$DIMBLK
  1

  9
$DIMASO
 70
     1
  9
$DIMSHO
 70
     1
  9
$DIMPOST
  1

  9
$DIMAPOST
  1

  9
$DIMALT
 70
     0
  9
$DIMALTD
 70
     2
  9
$DIMALTF
 40
25.4
  9
$DIMLFAC
 40
1.0
  9
$DIMTOFL
 70
     0
  9
$DIMTVP
 40
0.0
  9
$DIMTIX
 70
     0
  9
$DIMSOXD
 70
     0
  9
$DIMSAH
 70
     0
  9
$DIMBLK1
  1

  9
$DIMBLK2
  1

  9
$DIMSTYLE
  2
Standard
  9
$DIMCLRD
 70
     0
  9
$DIMCLRE
 70
     0
  9
$DIMCLRT
 70
     0
  9
$DIMTFAC
 40
1.0
  9
$DIMGAP
 40
0.09
  9
$DIMJUST
 70
     0
  9
$DIMSD1
 70
     0
  9
$DIMSD2
 70
     0
  9
$DIMTOLJ
 70
     1
  9
$DIMTZIN
 70
     0
  9
$DIMALTZ
 70
     0
  9
$DIMALTTZ
 70
     0
  9
$DIMUPT
 70
     0
  9
$DIMDEC
 70
     4
  9
$DIMTDEC
 70
     4
  9
$DIMALTU
 70
     2
  9
$DIMALTTD
 70
     2
  9
$DIMTXSTY
  7
Standard
  9
$DIMAUNIT
 70
     0
  9
$DIMADEC
 70
     0
  9
$DIMALTRND
 40
0.0
  9
$DIMAZIN
 70
     0
  9
$DIMDSEP
 70
     0
  9
$DIMATFIT
 70
     3
  9
$DIMFRAC
 70
     0
  9
$DIMLDRBLK
  1

  9
$DIMLUNIT
 70
     2
  9
$DIMLWD
 70
     0
  9
$DIMLWE
 70
     0
  9
$DIMTMOVE
 70
     0
  9
$LUNITS
 70
     2
  9
$LUPREC
 70
     4
  9
$SKETCHINC
 40
0.1
  9
$FILLETRAD
 40
0.0
  9
$AUNITS
 70
     0
  9
$AUPREC
 70
     0
  9
$MENU
  1
acad
  9
$ELEVATION
 40
0.0
  9
$PELEVATION
 40
0.0
  9
$THICKNESS
 40
0.0
  9
$LIMCHECK
 70
     0
  9
$CHAMFERA
 40
0.0
  9
$CHAMFERB
 40
0.0
  9
$CHAMFERC
 40
0.0
  9
$CHAMFERD
 40
0.0
  9
$SKPOLY
 70
     0
  9
$TDCREATE
 40
0.000000000
  9
$TDUCREATE
 40
0.000000000
  9
$TDUPDATE
 40
0.000000000
  9
$TDUUPDATE
 40
0.000000000
  9
$TDINDWG
 40
0.0000000000
  9
$TDUSRTIMER
 40
0.0000000000
  9
$USRTIMER
 70
     1
  9
$ANGBASE
 50
0.0
  9
$ANGDIR
 70
     0
  9
$PDMODE
 70
     0
  9
$PDSIZE
 40
0.0
  9
$PLINEWID
 40
0.0
  9
$SPLFRAME
 70
     0
  9
$SPLINETYPE
 70
     6
  9
$SPLINESEGS
 70
     8
  9
$HANDSEED
  5
A3
  9
$SURFTAB1
 70
     6
  9
$SURFTAB2
 70
     6
  9
$SURFTYPE
 70
     6
  9
$SURFU
 70
     6
  9
$SURFV
 70
     6
  9
$UCSBASE
  2

  9
$UCSNAME
  2

  9
$UCSORG
 10
0.0
 20
0.0
 30
0.0
  9
$UCSXDIR
 10
1.0
 20
0.0
 30
0.0
  9
$UCSYDIR
 10
0.0
 20
1.0
 30
0.0
  9
$UCSORTHOREF
  2

  9
$UCSORTHOVIEW
 70
     0
  9
$UCSORGTOP
 10
0.0
 20
0.0
 30
0.0
  9
$UCSORGBOTTOM
 10
0.0
 20
0.0
 30
0.0
  9
$UCSORGLEFT
 10
0.0
 20
0.0
 30
0.0
  9
$UCSORGRIGHT
 10
0.0
 20
0.0
 30
0.0
  9
$UCSORGFRONT
 10
0.0
 20
0.0
 30
0.0
  9
$UCSORGBACK
 10
0.0
 20
0.0
 30
0.0
  9
$PUCSBASE
  2

  9
$PUCSNAME
  2

  9
$PUCSORG
 10
0.0
 20
0.0
 30
0.0
  9
$PUCSXDIR
 10
1.0
 20
0.0
 30
0.0
  9
$PUCSYDIR
 10
0.0
 20
1.0
 30
0.0
  9
$PUCSORTHOREF
  2

  9
$PUCSORTHOVIEW
 70
     0
  9
$PUCSORGTOP
 10
0.0
 20
0.0
 30
0.0
  9
$PUCSORGBOTTOM
 10
0.0
 20
0.0
 30
0.0
  9
$PUCSORGLEFT
 10
0.0
 20
0.0
 30
0.0
  9
$PUCSORGRIGHT
 10
0.0
 20
0.0
 30
0.0
  9
$PUCSORGFRONT
 10
0.0
 20
0.0
 30
0.0
  9
$PUCSORGBACK
 10
0.0
 20
0.0
 30
0.0
  9
$USERI1
 70
     0
  9
$USERI2
 70
     0
  9
$USERI3
 70
     0
  9
$USERI4
 70
     0
  9
$USERI5
 70
     0
  9
$USERR1
 40
0.0
  9
$USERR2
 40
0.0
  9
$USERR3
 40
0.0
  9
$USERR4
 40
0.0
  9
$USERR5
 40
0.0
  9
$WORLDVIEW
 70
     1
  9
$SHADEDGE
 70
     3
  9
$SHADEDIF
 70
    70
  9
$TILEMODE
 70
     1
  9
$MAXACTVP
 70
    16
  9
$PINSBASE
 10
0.0
 20
0.0
 30
0.0
  9
$PLIMCHECK
 70
     0
  9
$PEXTMIN
 10
1.000000E+20
 20
1.000000E+20
 30
1.000000E+20
  9
$PEXTMAX
 10
-1.000000E+20
 20
-1.000000E+20
 30
-1.000000E+20
  9
$PLIMMIN
 10
0.0
 20
0.0
  9
$PLIMMAX
 10
12.0
 20
9.0
  9
$UNITMODE
 70
     0
  9
$VISRETAIN
 70
     0
  9
$PLINEGEN
 70
     1
  9
$PSLTSCALE
 70
     0
  9
$TREEDEPTH
 70
  3020
  9
$CMLSTYLE
  2
Standard
  9
$CMLJUST
 70
     0
  9
$CMLSCALE
 40
1.0
  9
$PROXYGRAPHICS
 70
     0
  9
$MEASUREMENT
 70
     1
  9
$CELWEIGHT
370
     0
  9
$ENDCAPS
280
     0
  9
$JOINSTYLE
280
     0
  9
$LWDISPLAY
290
     0
  9
$INSUNITS
 70
     0
  9
$HYPERLINKBASE
  1

  9
$STYLESHEET
  1

  9
$XEDIT
290
     1
  9
$CEPSNTYPE
380
     0
  9
$PSTYLEMODE
290
     1
  9
$FINGERPRINTGUID
  2

  9
$VERSIONGUID
  2

  9
$EXTNAMES
290
     1
  9
$PSVPSCALE
 40
0.0
  0
ENDSEC
  0
SECTION
  2
CLASSES
  0
CLASS
  1
LWPOLYLINE
  2
AcDbPolyline
  3
AutoCAD 2000
 90
    32768
280
     0
281
     1
  0
CLASS
  1
IMAGE
  2
AcDbRasterImage
  3
ISM
 90
      127
280
     0
281
     1
  0
CLASS
  1
OLE2FRAME
  2
AcDbOle2Frame
  3
AutoCAD 2000
 90
    32768
280
     0
281
     1
  0
CLASS
  1
HATCH
  2
AcDbHatch
  3
AutoCAD 2000
 90
        0
280
     0
281
     1
  0
CLASS
  1
DICTIONARYVAR
  2
AcDbDictionaryVar
  3
AutoCAD 2000
 90
    32768
280
     0
281
     0
  0
CLASS
  1
RASTERVARIABLES
  2
AcDbRasterVariables
  3
ISM
 90
    32768
280
     0
281
     0
  0
CLASS
  1
IMAGEDEF
  2
AcDbRasterImageDef
  3
ISM
 90
        0
280
     0
281
     0
  0
CLASS
  1
IMAGEDEF_REACTOR
  2
AcDbRasterImageDefReactor
  3
ISM
 90
        1
280
     0
281
     0
  0
CLASS
  1
IDBUFFER
  2
AcDbIdBuffer
  3
AutoCAD 2000
 90
    32768
280
     0
281
     0
  0
CLASS
  1
SPATIAL_FILTER
  2
AcDbSpatialFilter
  3
AutoCAD 2000
 90
    32768
280
     0
281
     0
  0
CLASS
  1
XRECORD
  2
AcDbXrecord
  3
AutoCAD 2000
 90
    32768
280
     0
281
     0
  0
CLASS
  1
SORTENTSTABLE
  2
AcDbSortentsTable
  3
AutoCAD 2000
 90
    32768
280
     0
281
     0
  0
CLASS
  1
LAYER_INDEX
  2
AcDbLayerIndex
  3
AutoCAD 2000
 90
    32768
280
     0
281
     0
  0
CLASS
  1
SPATIAL_INDEX
  2
AcDbSpatialIndex
  3
AutoCAD 2000
 90
    32768
280
     0
281
     0
  0
CLASS
  1
OBJECT_PTR
  2
CAseDLPNTableRecord
  3
"ASE-LPNTableRecord"
 90
    32769
280
     0
281
     0
  0
CLASS
  1
LAYOUT
  2
AcDbLayout
  3
AutoCAD 2000
 90
        0
280
     0
281
     0
  0
CLASS
  1
PLOTSETTINGS
  2
AcDbPlotSettings
  3
AutoCAD 2000
 90
    32768
280
     0
281
     0
  0
CLASS
  1
ACDBDICTIONARYWDFLT
  2
AcDbDictionaryWithDefault
  3
AutoCAD 2000
 90
        0
280
     0
281
     0
  0
CLASS
  1
ACDBPLACEHOLDER
  2
AcDbPlaceHolder
  3
AutoCAD 2000
 90
        0
280
     0
281
     0
  0
CLASS
  1
VBA_PROJECT
  2
AcDbVbaProject
  3
acadvba
 90
    32768
280
     0
281
     0
  0
CLASS
  1
WIPEOUT
  2
AcDbWipeout
  3
WipeOut|AutoCAD Express Tool|expresstools@autodesk.com
 90
    32895
280
     0
281
     1
  0
CLASS
  1
WIPEOUTVARIABLES
  2
AcDbWipeoutVariables
  3
WipeOut|AutoCAD Express Tool|expresstools@autodesk.com
 90
        0
280
     0
281
     0
  0
CLASS
  1
RTEXT
  2
RText
  3
RText|AutoCAD Express Tool|expresstools@autodesk.com
 90
    32768
280
     0
281
     1
  0
CLASS
  1
ARCALIGNEDTEXT
  2
AcDbArcAlignedText
  3
ATEXT|AutoCAD Express Tool|expresstools@autodesk.com
 90
    32768
280
     0
281
     1
  0
ENDSEC
  0
SECTION
  2
TABLES
  0
TABLE
  2
VPORT
  5
7
100
AcDbSymbolTable
 70
     1
  0
VPORT
  5
15
100
AcDbSymbolTableRecord
100
AcDbViewportTableRecord
  2
*ACTIVE
 70
     0
 10
0.0
 20
0.0
 11
1.0
 21
1.0
 12
6.591288
 22
4.579184
 13
0.0
 23
0.0
 14
1.0
 24
1.0
 15
0.0
 25
0.0
 16
0.0
 26
0.0
 36
1.0
 17
0.0
 27
0.0
 37
0.0
 40
9.158369
 41
0.688564
 42
50.0
 43
0.0
 44
0.0
 50
0.0
 51
0.0
 71
     0
 72
   100
 73
     1
 74
     1
 75
     0
 76
     0
 77
     0
 78
     0
281
     0
 65
     0
110
0.0
120
0.0
130
0.0
111
1.0
121
0.0
131
0.0
112
0.0
122
1.0
132
0.0
345
0
346
0
 79
     0
146
0.0
  0
ENDTAB
  0
TABLE
  2
LTYPE
  5
4
100
AcDbSymbolTable
 70
     3
  0
LTYPE
  5
11
100
AcDbSymbolTableRecord
100
AcDbLinetypeTableRecord
  2
ByBlock
 70
    64
  3

 72
    65
 73
     0
 40
0.0
  0
LTYPE
  5
12
100
AcDbSymbolTableRecord
100
AcDbLinetypeTableRecord
  2
ByLayer
 70
    64
  3

 72
    65
 73
     0
 40
0.0
  0
LTYPE
  5
13
100
AcDbSymbolTableRecord
100
AcDbLinetypeTableRecord
  2
Continuous
 70
    64
  3
Solid line
 72
    65
 73
     0
 40
0.0
  0
ENDTAB
  0
TABLE
  2
LAYER
  5
2
100
AcDbSymbolTable
 70
     3
  0
LAYER
  5
14
100
AcDbSymbolTableRecord
100
AcDbLayerTableRecord
  2
0
 70
     0
 62
     7
  6
Continuous
290
     1
370
    -3
390
1D
  0
LAYER
  5
28
100
AcDbSymbolTableRecord
100
AcDbLayerTableRecord
  2
レイヤー_2
 70
     0
 62
     1
  6
Continuous
290
     1
370
    -3
390
1D
  0
LAYER
  5
87
100
AcDbSymbolTableRecord
100
AcDbLayerTableRecord
  2
レイヤー_1
 70
     4
 62
   160
  6
Continuous
290
     1
370
    -3
390
1D
  0
ENDTAB
  0
TABLE
  2
STYLE
  5
3
100
AcDbSymbolTable
 70
     5
  0
STYLE
  5
17
100
AcDbSymbolTableRecord
100
AcDbTextStyleTableRecord
  2
Standard
 70
     0
 40
0.0
 41
1.0
 50
0.0
 71
     0
 42
0.0
  3
txt
  4

  0
STYLE
  5
24
100
AcDbSymbolTableRecord
100
AcDbTextStyleTableRecord
  2
STD
 70
     0
 40
0.0
 41
1.0
 50
0.0
 71
     0
 42
0.0
  3
txt
  4

  0
STYLE
  5
25
100
AcDbSymbolTableRecord
100
AcDbTextStyleTableRecord
  2
TATESTD
 70
     4
 40
0.0
 41
1.0
 50
0.0
 71
     0
 42
0.0
  3
txt
  4

  0
STYLE
  5
26
100
AcDbSymbolTableRecord
100
AcDbTextStyleTableRecord
  2
KANJISTD
 70
     0
 40
0.0
 41
1.0
 50
0.0
 71
     0
 42
0.0
  3
txt
  4
extfont
  0
STYLE
  5
27
100
AcDbSymbolTableRecord
100
AcDbTextStyleTableRecord
  2
KANJITATE
 70
     4
 40
0.0
 41
1.0
 50
0.0
 71
     0
 42
0.0
  3
txt
  4
extfont
  0
ENDTAB
  0
TABLE
  2
VIEW
  5
5
100
AcDbSymbolTable
 70
     0
  0
ENDTAB
  0
TABLE
  2
UCS
  5
6
100
AcDbSymbolTable
 70
     0
  0
ENDTAB
  0
TABLE
  2
APPID
  5
8
100
AcDbSymbolTable
 70
     1
  0
APPID
  5
16
100
AcDbSymbolTableRecord
100
AcDbRegAppTableRecord
  2
ACAD
 70
     0
  0
ENDTAB
  0
TABLE
  2
DIMSTYLE
  5
9
100
AcDbSymbolTable
 70
     1
100
AcDbDimStyleTable
 71
     0
  0
DIMSTYLE
105
18
100
AcDbSymbolTableRecord
100
AcDbDimStyleTableRecord
  2
Standard
 70
     0
  3

  4

 40
1.0
 41
0.18
 42
0.0625
 43
0.38
 44
0.18
 45
0.0
 46
0.0
 47
0.0
 48
0.0
 71
     0
 72
     0
 73
     1
 74
     1
 75
     0
 76
     0
 77
     0
 78
     0
 79
     0
140
0.18
141
0.09
142
0.0
143
25.4
144
1.0
145
0.0
146
1.0
147
0.09
148
0.0
170
     0
171
     2
172
     0
173
     0
174
     0
175
     0
176
     0
177
     0
178
     0
179
     0
271
     4
272
     4
273
     2
274
     2
275
     0
276
     0
277
     2
278
    46
279
     0
280
     0
281
     0
282
     0
283
     1
284
     0
285
     0
286
     0
288
     0
340
17
341
0
342
0
343
0
344
0
371
    -2
372
    -2
  0
ENDTAB
  0
TABLE
  2
BLOCK_RECORD
  5
1
100
AcDbSymbolTable
 70
     0
  0
BLOCK_RECORD
  5
A
100
AcDbSymbolTableRecord
100
AcDbBlockTableRecord
  2
*MODEL_SPACE
340
20
  0
BLOCK_RECORD
  5
B
100
AcDbSymbolTableRecord
100
AcDbBlockTableRecord
  2
*PAPER_SPACE
340
21
  0
ENDTAB
  0
ENDSEC
  0
SECTION
  2
BLOCKS
  0
BLOCK
  5
D
100
AcDbEntity
  8
0
100
AcDbBlockBegin
  2
*MODEL_SPACE
 70
     0
 10
0.0
 20
0.0
 30
0.0
  3
*MODEL_SPACE
  1

  0
ENDBLK
  5
E
100
AcDbEntity
  8
0
100
AcDbBlockEnd
  0
BLOCK
  5
F
100
AcDbEntity
 67
     1
  8
0
100
AcDbBlockBegin
  2
*PAPER_SPACE
 70
     0
 10
0.0
 20
0.0
 30
0.0
  3
*PAPER_SPACE
  1

  0
ENDBLK
  5
10
100
AcDbEntity
 67
     1
  8
0
100
AcDbBlockEnd
  0
ENDSEC
  0
SECTION
  2
ENTITIES
  0
MTEXT
  5
A2
100
AcDbEntity
  8
レイヤー_1
 62
     7
100
AcDbMText
 10
47.801389
 20
54.121991
 30
0.0
 40
3.674768
 41
0.0
 71
     1
 72
     2
  1
\fOsaka|b0|i0|c128;\H3.6748;\C7;\U+0038\U+0033\U+002E\U+0032\U+0030\U+0030\U+002E\U+0038\U+0039\U+0032\U+002E\U+0058\U+0058
  7
STD
210
0.0
220
0.0
230
1.0
 73
     1
 44
1.0
  0
MTEXT
  5
A1
100
AcDbEntity
  8
レイヤー_1
 62
     7
100
AcDbMText
 10
39.6875
 20
56.608234
 30
0.0
 40
1.574901
 41
0.0
 71
     1
 72
     2
  1
\fOsaka|b0|i0|c128;\H1.5749;\C7;\U+54C1\U+756A
  7
STD
210
0.0
220
0.0
230
1.0
 73
     1
 44
1.0
  0
MTEXT
  5
A0
100
AcDbEntity
  8
レイヤー_1
 62
     7
100
AcDbMText
 10
47.801389
 20
32.959209
 30
0.0
 40
3.149486
 41
0.0
 71
     1
 72
     2
  1
\fOsaka|b0|i0|c128;\H3.1495;\C7;\U+30BF\U+30AA\U+30EB\U+30EA\U+30F3\U+30B0
  7
STD
210
0.0
220
0.0
230
1.0
 73
     1
 44
1.0
  0
MTEXT
  5
9F
100
AcDbEntity
  8
レイヤー_1
 62
     7
100
AcDbMText
 10
39.6875
 20
35.441567
 30
0.0
 40
1.574901
 41
0.0
 71
     1
 72
     2
  1
\fOsaka|b0|i0|c128;\H1.5749;\C7;\U+54C1
  7
STD
210
0.0
220
0.0
230
1.0
 73
     1
 44
1.0
  0
MTEXT
  5
9E
100
AcDbEntity
  8
レイヤー_1
 62
     7
100
AcDbMText
 10
47.319248
 20
43.304752
 30
0.0
 40
3.499429
 41
0.0
 71
     1
 72
     2
  1
\fOsaka|b0|i0|c128;\H3.4994;\W0.90;\C7;\U+FF34\U+FF41\U+FF52\U+FF41
  7
STD
210
0.0
220
0.0
230
1.0
 73
     1
 44
1.0
  0
POLYLINE
  5
98
100
AcDbEntity
  8
レイヤー_1
 62
     7
100
AcDb2dPolyline
 66
     1
 10
0.0
 20
0.0
 30
0.0
 70
     1
  0
VERTEX
  5
99
100
AcDbEntity
  8
レイヤー_1
 62
     7
100
AcDbVertex
100
AcDb2dVertex
 10
23.636111
 20
26.105556
 30
0.0
  0
VERTEX
  5
9A
100
AcDbEntity
  8
レイヤー_1
 62
     7
100
AcDbVertex
100
AcDb2dVertex
 10
198.613889
 20
26.105556
 30
0.0
  0
VERTEX
  5
9B
100
AcDbEntity
  8
レイヤー_1
 62
     7
100
AcDbVertex
100
AcDb2dVertex
 10
198.613889
 20
276.577778
 30
0.0
  0
VERTEX
  5
9C
100
AcDbEntity
  8
レイヤー_1
 62
     7
100
AcDbVertex
100
AcDb2dVertex
 10
23.636111
 20
276.577778
 30
0.0
  0
SEQEND
  5
9D
100
AcDbEntity
  8
レイヤー_1
 62
     7
  0
LINE
  5
97
100
AcDbEntity
  8
レイヤー_1
 62
     7
100
AcDbLine
 10
170.568056
 20
36.5125
 30
0.0
 11
27.693056
 21
36.5125
 31
0.0
  0
LINE
  5
96
100
AcDbEntity
  8
レイヤー_1
 62
     7
100
AcDbLine
 10
170.568056
 20
47.095833
 30
0.0
 11
27.693056
 21
47.095833
 31
0.0
  0
LINE
  5
95
100
AcDbEntity
  8
レイヤー_1
 62
     7
100
AcDbLine
 10
23.636111
 20
57.855556
 30
0.0
 11
198.261111
 21
57.855556
 31
0.0
  0
LINE
  5
94
100
AcDbEntity
  8
レイヤー_1
 62
     7
100
AcDbLine
 10
170.744444
 20
57.855556
 30
0.0
 11
170.744444
 21
26.458333
 31
0.0
  0
MTEXT
  5
93
100
AcDbEntity
  8
レイヤー_1
 62
     7
100
AcDbMText
 10
33.3375
 20
46.024901
 30
0.0
 40
1.574901
 41
0.0
 71
     1
 72
     2
  1
\fOsaka|b0|i0|c128;\H1.5749;\C7;\U+30B7\U+30EA\U+30FC\U+30BA
  7
STD
210
0.0
220
0.0
230
1.0
 73
     1
 44
1.0
  0
MTEXT
  5
92
100
AcDbEntity
  8
レイヤー_1
 62
     7
100
AcDbMText
 10
174.095833
 20
54.655042
 30
0.0
 40
3.149486
 41
0.0
 71
     1
 72
     2
  1
\fHeiseiKakuGothicCAN W9|b0|i0|c128;\H3.1495;\C253;\U+5BF8\U+6CD5\U+53C2\U+8003\U+56F3
  7
STD
210
0.0
220
0.0
230
1.0
 73
     1
 44
1.0
  0
LINE
  5
91
100
AcDbEntity
  8
レイヤー_1
 62
     7
100
AcDbLine
 10
27.516667
 20
57.855556
 30
0.0
 11
27.516667
 21
26.458333
 31
0.0
  0
IMAGE
  5
8E
100
AcDbEntity
  8
レイヤー_1
 62
     7
 92
        0
100
AcDbRasterImage
 90
        0
 10
172.155556
 20
28.574682
 30
0.0
 11
0.352531
 21
0.0
 31
0.0
 12
0.0
 22
0.352813
 32
0.0
 13
70.0
 23
9.0
340
90
 70
     7
280
     0
281
    50
282
    50
283
     0
360
8F
 71
     1
 91
        2
 14
-0.5
 24
-0.5
 14
69.5
 24
8.5
  0
IMAGE
  5
8B
100
AcDbEntity
  8
レイヤー_1
 62
     7
 92
        0
100
AcDbRasterImage
 90
        0
 10
172.155556
 20
28.574682
 30
0.0
 11
0.352531
 21
0.0
 31
0.0
 12
0.0
 22
0.352813
 32
0.0
 13
70.0
 23
9.0
340
8D
 70
     7
280
     0
281
    50
282
    50
283
     0
360
8C
 71
     1
 91
        2
 14
-0.5
 24
-0.5
 14
69.5
 24
8.5
  0
MTEXT
  5
8A
100
AcDbEntity
  8
レイヤー_1
 62
     7
100
AcDbMText
 10
113.418056
 20
46.024901
 30
0.0
 40
1.574901
 41
0.0
 71
     1
 72
     2
  1
\fOsaka|b0|i0|c128;\H1.5749;\C7;\U+4ED5\U+4E0A
  7
STD
210
0.0
220
0.0
230
1.0
 73
     1
 44
1.0
  0
MTEXT
  5
89
100
AcDbEntity
  8
レイヤー_1
 62
     7
100
AcDbMText
 10
124.765511
 20
40.968164
 30
0.0
 40
1.162842
 41
0.0
 71
     1
 72
     2
  1
\fOsaka|b0|i0|c128;\H1.1628;\W2.71;\C7;
  7
STD
210
0.0
220
0.0
230
1.0
 73
     1
 44
1.0
  0
HATCH
  5
88
100
AcDbEntity
  8
レイヤー_1
 62
     7
100
AcDbHatch
 10
0.0
 20
0.0
 30
0.0
210
0.0
220
0.0
230
1.0
  2
SOLID
 70
     1
 71
     0
 91
        1
 92
        1
 93
        1
 72
     4
 94
        3
 73
     0
 74
     0
 95
       17
 96
       13
 40
0.0
 40
0.0
 40
0.0
 40
0.0
 40
1.0
 40
1.0
 40
1.0
 40
2.0
 40
2.0
 40
2.0
 40
3.0
 40
3.0
 40
3.0
 40
4.0
 40
4.0
 40
4.0
 40
4.0
 10
58.155967881944441
 20
40.211154513888886
 10
58.155967881944441
 20
40.016162109374996
 10
57.998010253906244
 20
39.858376736111104
 10
57.80319010416666
 20
39.858376736111104
 10
57.608369954427076
 20
39.858376736111104
 10
57.450412326388886
 20
40.016162109374996
 10
57.450412326388886
 20
40.211154513888886
 10
57.450412326388886
 20
40.406146918402776
 10
57.608369954427076
 20
40.56393229166666
 10
57.80319010416666
 20
40.56393229166666
 10
57.998010253906244
 20
40.56393229166666
 10
58.155967881944441
 20
40.406146918402776
 10
58.155967881944441
 20
40.211154513888886
 97
        0
 75
     2
 76
     1
 98
        1
 10
0.0
 20
0.0
  0
MTEXT
  5
86
100
AcDbEntity
  8
レイヤー_2
 62
     7
100
AcDbMText
 10
98.789147
 20
122.358575
 30
0.0
 40
5.268737
 41
0.0
 71
     1
 72
     2
  1
\fMS Gothic|b0|i0|c128;\H5.2687;\W1.05;\C7;\Q-15.25;\U+03C6\U+0031\U+0038\U+0035
  7
STD
210
0.0
220
0.0
230
0.9999999999999999
 11
0.96481
 21
-0.26296
 31
0.0
 73
     1
 44
1.0
  0
MTEXT
  5
85
100
AcDbEntity
  8
レイヤー_2
 62
     7
100
AcDbMText
 10
109.278429
 20
213.558457
 30
0.0
 40
5.324311
 41
0.0
 71
     1
 72
     2
  1
\fMS Gothic|b0|i0|c128;\H5.3243;\W1.04;\C7;\Q15.00;\U+0038\U+0030
  7
STD
210
0.0
220
0.0
230
1.0
 11
0.96593
 21
0.25882
 31
0.0
 73
     1
 44
1.0
  0
MTEXT
  5
84
100
AcDbEntity
  8
レイヤー_2
 62
     7
100
AcDbMText
 10
134.781293
 20
156.087086
 30
0.0
 40
5.907882
 41
0.0
 71
     1
 72
     2
  1
\fMS Gothic|b0|i0|c128;\H5.9079;\W0.97;\C7;\Q15.00;\U+03C6\U+0035\U+0035
  7
STD
210
0.0
220
0.0
230
1.0
 11
0.0
 21
1.0
 31
0.0
 73
     1
 44
1.0
  0
SPLINE
  5
83
100
AcDbEntity
  8
レイヤー_2
 62
     7
100
AcDbSpline
210
0.0
220
0.0
230
1.0
 70
     8
 71
     3
 72
     8
 73
     4
 74
     0
 42
0.00000001
 43
0.00000001
 40
0.0
 40
0.0
 40
0.0
 40
0.0
 40
1.0
 40
1.0
 40
1.0
 40
1.0
 10
103.94232042100694
 20
182.73027615017361
 30
0.0
 10
101.5011257595486
 20
182.56870117187498
 30
0.0
 10
99.086458333333326
 20
181.4933146158854
 30
0.0
 10
97.272271050347214
 20
179.92786322699652
 30
0.0
  0
SPLINE
  5
82
100
AcDbEntity
  8
レイヤー_2
 62
     7
100
AcDbSpline
210
0.0
220
0.0
230
1.0
 70
     8
 71
     3
 72
     8
 73
     4
 74
     0
 42
0.00000001
 43
0.00000001
 40
0.0
 40
0.0
 40
0.0
 40
0.0
 40
1.0
 40
1.0
 40
1.0
 40
1.0
 10
97.124131944444429
 20
179.79832763671874
 30
0.0
 10
92.823963758680549
 20
176.08434244791664
 30
0.0
 10
90.777577039930549
 20
169.42583414713539
 30
0.0
 10
91.208558485243046
 20
162.27174886067706
 30
0.0
  0
SPLINE
  5
81
100
AcDbEntity
  8
レイヤー_2
 62
     7
100
AcDbSpline
210
0.0
220
0.0
230
1.0
 70
     8
 71
     3
 72
     8
 73
     4
 74
     0
 42
0.00000001
 43
0.00000001
 40
0.0
 40
0.0
 40
0.0
 40
0.0
 40
1.0
 40
1.0
 40
1.0
 40
1.0
 10
91.792846679687486
 20
157.85789252387153
 30
0.0
 10
92.420543077256937
 20
154.76212972005206
 30
0.0
 10
93.44683702256944
 20
151.87961832682291
 30
0.0
 10
94.70498589409722
 20
149.47494167751734
 30
0.0
  0
SPLINE
  5
80
100
AcDbEntity
  8
レイヤー_2
 62
     7
100
AcDbSpline
210
0.0
220
0.0
230
1.0
 70
     8
 71
     3
 72
    11
 73
     7
 74
     0
 42
0.00000001
 43
0.00000001
 40
0.0
 40
0.0
 40
0.0
 40
0.0
 40
1.0
 40
1.0
 40
1.0
 40
2.0
 40
2.0
 40
2.0
 40
2.0
 10
100.31601291232639
 20
141.91864149305553
 30
0.0
 10
104.6606228298611
 20
137.90855034722222
 30
0.0
 10
109.54335666232637
 20
136.5718532986111
 30
0.0
 10
113.8135525173611
 20
137.69564344618055
 30
0.0
 10
120.22143012152776
 20
139.39752061631944
 30
0.0
 10
124.26597222222222
 20
146.34352213541666
 30
0.0
 10
124.56569552951387
 20
154.96091172960067
 30
0.0
  0
SPLINE
  5
7F
100
AcDbEntity
  8
レイヤー_2
 62
     7
100
AcDbSpline
210
0.0
220
0.0
230
1.0
 70
     8
 71
     3
 72
     8
 73
     4
 74
     0
 42
0.00000001
 43
0.00000001
 40
0.0
 40
0.0
 40
0.0
 40
0.0
 40
1.0
 40
1.0
 40
1.0
 40
1.0
 10
124.56569552951387
 20
154.96194525824652
 30
0.0
 10
124.75138617621526
 20
161.06424289279514
 30
0.0
 10
123.10221896701388
 20
167.09367675781249
 30
0.0
 10
120.26208224826388
 20
172.01068929036458
 30
0.0
  0
SPLINE
  5
7E
100
AcDbEntity
  8
レイヤー_2
 62
     7
100
AcDbSpline
210
0.0
220
0.0
230
1.0
 70
     8
 71
     3
 72
     8
 73
     4
 74
     0
 42
0.00000001
 43
0.00000001
 40
0.0
 40
0.0
 40
0.0
 40
0.0
 40
1.0
 40
1.0
 40
1.0
 40
1.0
 10
119.89621310763887
 20
172.62787814670136
 30
0.0
 10
117.1559841579861
 20
177.13974745008679
 30
0.0
 10
113.52209743923611
 20
180.30337863498264
 30
0.0
 10
109.86443956163194
 20
181.76806098090276
 30
0.0
  0
SPLINE
  5
7D
100
AcDbEntity
  8
レイヤー_2
 62
     7
100
AcDbSpline
210
0.0
220
0.0
230
1.0
 70
     8
 71
     3
 72
     8
 73
     4
 74
     0
 42
0.00000001
 43
0.00000001
 40
0.0
 40
0.0
 40
0.0
 40
0.0
 40
1.0
 40
1.0
 40
1.0
 40
1.0
 10
98.811884223090274
 20
177.97001546223956
 30
0.0
 10
97.845879448784714
 20
177.13854166666664
 30
0.0
 10
96.972203233506931
 20
176.06022677951387
 30
0.0
 10
96.28972981770832
 20
174.9262736002604
 30
0.0
  0
SPLINE
  5
7C
100
AcDbEntity
  8
レイヤー_2
 62
     7
100
AcDbSpline
210
0.0
220
0.0
230
1.0
 70
     8
 71
     3
 72
     8
 73
     4
 74
     0
 42
0.00000001
 43
0.00000001
 40
0.0
 40
0.0
 40
0.0
 40
0.0
 40
1.0
 40
1.0
 40
1.0
 40
1.0
 10
96.342095269097214
 20
175.00619981553817
 30
0.0
 10
95.578662109374989
 20
173.74925672743055
 30
0.0
 10
94.977837456597214
 20
172.34038492838539
 30
0.0
 10
94.570971679687489
 20
170.94718831380206
 30
0.0
  0
SPLINE
  5
7B
100
AcDbEntity
  8
レイヤー_2
 62
     7
100
AcDbSpline
210
0.0
220
0.0
230
1.0
 70
     8
 71
     3
 72
     8
 73
     4
 74
     0
 42
0.00000001
 43
0.00000001
 40
0.0
 40
0.0
 40
0.0
 40
0.0
 40
1.0
 40
1.0
 40
1.0
 40
1.0
 10
94.59646538628472
 20
171.02470296223956
 30
0.0
 10
93.856803385416654
 20
168.5542249891493
 30
0.0
 10
93.561903211805543
 20
165.87187364366318
 30
0.0
 10
93.658365885416657
 20
163.29632025824651
 30
0.0
  0
SPLINE
  5
7A
100
AcDbEntity
  8
レイヤー_2
 62
     7
100
AcDbSpline
210
0.0
220
0.0
230
1.0
 70
     8
 71
     3
 72
     8
 73
     4
 74
     0
 42
0.00000001
 43
0.00000001
 40
0.0
 40
0.0
 40
0.0
 40
0.0
 40
1.0
 40
1.0
 40
1.0
 40
1.0
 10
93.884019639756943
 20
160.47961018880207
 30
0.0
 10
94.254367404513886
 20
157.6184583875868
 30
0.0
 10
95.040538194444437
 20
154.83378770616318
 30
0.0
 10
96.058219401041654
 20
152.46976318359373
 30
0.0
  0
SPLINE
  5
79
100
AcDbEntity
  8
レイヤー_2
 62
     7
100
AcDbSpline
210
0.0
220
0.0
230
1.0
 70
     8
 71
     3
 72
     8
 73
     4
 74
     0
 42
0.00000001
 43
0.00000001
 40
0.0
 40
0.0
 40
0.0
 40
0.0
 40
1.0
 40
1.0
 40
1.0
 40
1.0
 10
101.93865288628471
 20
143.81275499131942
 30
0.0
 10
103.23642035590277
 20
142.61592881944443
 30
0.0
 10
104.58586425781249
 20
141.68368598090277
 30
0.0
 10
105.83367784288194
 20
141.06494683159721
 30
0.0
  0
SPLINE
  5
78
100
AcDbEntity
  8
レイヤー_2
 62
     7
100
AcDbSpline
210
0.0
220
0.0
230
1.0
 70
     8
 71
     3
 72
     8
 73
     4
 74
     0
 42
0.00000001
 43
0.00000001
 40
0.0
 40
0.0
 40
0.0
 40
0.0
 40
1.0
 40
1.0
 40
1.0
 40
1.0
 10
105.81300726996527
 20
141.07459309895833
 30
0.0
 10
106.66980251736111
 20
140.64740125868053
 30
0.0
 10
107.50868326822916
 20
140.33389756944445
 30
0.0
 10
108.24248860677082
 20
140.15130750868053
 30
0.0
  0
SPLINE
  5
77
100
AcDbEntity
  8
レイヤー_2
 62
     7
100
AcDbSpline
210
0.0
220
0.0
230
1.0
 70
     8
 71
     3
 72
     8
 73
     4
 74
     0
 42
0.00000001
 43
0.00000001
 40
0.0
 40
0.0
 40
0.0
 40
0.0
 40
1.0
 40
1.0
 40
1.0
 40
1.0
 10
108.66210123697915
 20
140.04037543402777
 30
0.0
 10
109.91094835069444
 20
139.77372504340278
 30
0.0
 10
111.13602430555555
 20
139.74065212673611
 30
0.0
 10
112.22191840277777
 20
139.90601671006942
 30
0.0
  0
SPLINE
  5
76
100
AcDbEntity
  8
レイヤー_2
 62
     7
100
AcDbSpline
210
0.0
220
0.0
230
1.0
 70
     8
 71
     3
 72
     8
 73
     4
 74
     0
 42
0.00000001
 43
0.00000001
 40
0.0
 40
0.0
 40
0.0
 40
0.0
 40
1.0
 40
1.0
 40
1.0
 40
1.0
 10
112.0276150173611
 20
139.88396809895832
 30
0.0
 10
112.95847981770832
 20
140.01419270833333
 30
0.0
 10
113.83973524305554
 20
140.27326388888886
 30
0.0
 10
114.57836371527777
 20
140.60537109374999
 30
0.0
  0
SPLINE
  5
75
100
AcDbEntity
  8
レイヤー_2
 62
     7
100
AcDbSpline
210
0.0
220
0.0
230
1.0
 70
     8
 71
     3
 72
     8
 73
     4
 74
     0
 42
0.00000001
 43
0.00000001
 40
0.0
 40
0.0
 40
0.0
 40
0.0
 40
1.0
 40
1.0
 40
1.0
 40
1.0
 10
114.55011393229165
 20
140.59159071180554
 30
0.0
 10
115.25911458333333
 20
140.91405164930555
 30
0.0
 10
115.90885959201388
 20
141.31092664930554
 30
0.0
 10
116.43940429687498
 20
141.72847222222222
 30
0.0
  0
SPLINE
  5
74
100
AcDbEntity
  8
レイヤー_2
 62
     7
100
AcDbSpline
210
0.0
220
0.0
230
1.0
 70
     8
 71
     3
 72
     8
 73
     4
 74
     0
 42
0.00000001
 43
0.00000001
 40
0.0
 40
0.0
 40
0.0
 40
0.0
 40
1.0
 40
1.0
 40
1.0
 40
1.0
 10
116.71983506944443
 20
141.94000108506944
 30
0.0
 10
117.68790690104166
 20
142.74959852430555
 30
0.0
 10
118.52851019965277
 20
143.7280056423611
 30
0.0
 10
119.18032226562499
 20
144.74982096354165
 30
0.0
  0
SPLINE
  5
73
100
AcDbEntity
  8
レイヤー_2
 62
     7
100
AcDbSpline
210
0.0
220
0.0
230
1.0
 70
     8
 71
     3
 72
     8
 73
     4
 74
     0
 42
0.00000001
 43
0.00000001
 40
0.0
 40
0.0
 40
0.0
 40
0.0
 40
1.0
 40
1.0
 40
1.0
 40
1.0
 10
119.15827365451388
 20
144.71261393229165
 30
0.0
 10
119.92721896701387
 20
145.90254991319443
 30
0.0
 10
120.53906792534721
 20
147.22753363715276
 30
0.0
 10
120.96143663194444
 20
148.52271728515623
 30
0.0
  0
SPLINE
  5
72
100
AcDbEntity
  8
レイヤー_2
 62
     7
100
AcDbSpline
210
0.0
220
0.0
230
1.0
 70
     8
 71
     3
 72
     8
 73
     4
 74
     0
 42
0.00000001
 43
0.00000001
 40
0.0
 40
0.0
 40
0.0
 40
0.0
 40
1.0
 40
1.0
 40
1.0
 40
1.0
 10
122.06937934027776
 20
155.06977674696179
 30
0.0
 10
122.21958550347222
 20
159.69447292751735
 30
0.0
 10
121.17365451388888
 20
164.38186984592014
 30
0.0
 10
119.32708333333332
 20
168.39041069878471
 30
0.0
  0
SPLINE
  5
71
100
AcDbEntity
  8
レイヤー_2
 62
     7
100
AcDbSpline
210
0.0
220
0.0
230
1.0
 70
     8
 71
     3
 72
     8
 73
     4
 74
     0
 42
0.00000001
 43
0.00000001
 40
0.0
 40
0.0
 40
0.0
 40
0.0
 40
1.0
 40
1.0
 40
1.0
 40
1.0
 10
117.77954644097221
 20
171.30168863932289
 30
0.0
 10
116.47936740451388
 20
173.43092990451387
 30
0.0
 10
115.00142144097221
 20
175.20687662760415
 30
0.0
 10
113.52209743923611
 20
176.51377360026041
 30
0.0
  0
SPLINE
  5
70
100
AcDbEntity
  8
レイヤー_2
 62
     7
100
AcDbSpline
210
0.0
220
0.0
230
1.0
 70
     8
 71
     3
 72
     8
 73
     4
 74
     0
 42
0.00000001
 43
0.00000001
 40
0.0
 40
0.0
 40
0.0
 40
0.0
 40
1.0
 40
1.0
 40
1.0
 40
1.0
 10
113.55861545138887
 20
176.47897813585067
 30
0.0
 10
112.4616970486111
 20
177.46789279513888
 30
0.0
 10
111.31000162760415
 20
178.27215033637151
 30
0.0
 10
110.23134223090277
 20
178.84248589409719
 30
0.0
  0
LINE
  5
6F
100
AcDbEntity
  8
レイヤー_2
 62
     7
100
AcDbLine
 10
97.123787
 20
179.798328
 30
0.0
 11
97.272271
 21
179.927863
 31
0.0
  0
LINE
  5
6E
100
AcDbEntity
  8
レイヤー_2
 62
     7
100
AcDbLine
 10
119.896213
 20
172.627878
 30
0.0
 11
120.262082
 21
172.011551
 31
0.0
  0
LINE
  5
6D
100
AcDbEntity
  8
レイヤー_2
 62
     7
100
AcDbLine
 10
100.898234
 20
179.364418
 30
0.0
 11
101.076001
 21
179.441071
 31
0.0
  0
LINE
  5
6C
100
AcDbEntity
  8
レイヤー_2
 62
     7
100
AcDbLine
 10
108.2418
 20
140.151997
 30
0.0
 11
108.811963
 21
140.012815
 31
0.0
  0
LINE
  5
6B
100
AcDbEntity
  8
レイヤー_2
 62
     7
100
AcDbLine
 10
112.027615
 20
139.883968
 30
0.0
 11
112.221574
 21
139.906017
 31
0.0
  0
LINE
  5
6A
100
AcDbEntity
  8
レイヤー_2
 62
     7
100
AcDbLine
 10
116.438371
 20
141.727783
 30
0.0
 11
116.85695
 21
142.060579
 31
0.0
  0
SPLINE
  5
69
100
AcDbEntity
  8
レイヤー_2
 62
     7
100
AcDbSpline
210
0.0
220
0.0
230
1.0
 70
     8
 71
     3
 72
     8
 73
     4
 74
     0
 42
0.00000001
 43
0.00000001
 40
0.0
 40
0.0
 40
0.0
 40
0.0
 40
1.0
 40
1.0
 40
1.0
 40
1.0
 10
91.793535698784709
 20
157.85616997612846
 30
0.0
 10
91.52206217447916
 20
159.32515869140624
 30
0.0
 10
91.327758789062486
 20
160.78002251519095
 30
0.0
 10
91.208558485243046
 20
162.2693372938368
 30
0.0
  0
SPLINE
  5
68
100
AcDbEntity
  8
レイヤー_2
 62
     7
100
AcDbSpline
210
0.0
220
0.0
230
1.0
 70
     8
 71
     3
 72
     8
 73
     4
 74
     0
 42
0.00000001
 43
0.00000001
 40
0.0
 40
0.0
 40
0.0
 40
0.0
 40
1.0
 40
1.0
 40
1.0
 40
1.0
 10
100.31739095052082
 20
141.91795247395831
 30
0.0
 10
98.002631293402771
 20
144.11730143229164
 30
0.0
 10
96.187410481770826
 20
146.65082465277777
 30
0.0
 10
94.705674913194443
 20
149.47356363932289
 30
0.0
  0
SPLINE
  5
67
100
AcDbEntity
  8
レイヤー_2
 62
     7
100
AcDbSpline
210
0.0
220
0.0
230
1.0
 70
     8
 71
     3
 72
     8
 73
     4
 74
     0
 42
0.00000001
 43
0.00000001
 40
0.0
 40
0.0
 40
0.0
 40
0.0
 40
1.0
 40
1.0
 40
1.0
 40
1.0
 10
100.89823404947916
 20
179.36441786024304
 30
0.0
 10
101.79189181857637
 20
179.73941650390623
 30
0.0
 10
102.66866861979166
 20
180.05860460069442
 30
0.0
 10
103.63639594184026
 20
180.18486735026039
 30
0.0
  0
SPLINE
  5
66
100
AcDbEntity
  8
レイヤー_2
 62
     7
100
AcDbSpline
210
0.0
220
0.0
230
1.0
 70
     8
 71
     3
 72
     8
 73
     4
 74
     0
 42
0.00000001
 43
0.00000001
 40
0.0
 40
0.0
 40
0.0
 40
0.0
 40
1.0
 40
1.0
 40
1.0
 40
1.0
 10
101.0760009765625
 20
179.44107123480902
 30
0.0
 10
100.23160807291666
 20
178.99407009548611
 30
0.0
 10
99.500214301215266
 20
178.51089545355902
 30
0.0
 10
98.74883897569444
 20
177.91954481336805
 30
0.0
  0
LINE
  5
65
100
AcDbEntity
  8
レイヤー_2
 62
     7
100
AcDbLine
 10
93.658366
 20
163.298043
 30
0.0
 11
93.896766
 21
160.383492
 31
0.0
  0
SPLINE
  5
64
100
AcDbEntity
  8
レイヤー_2
 62
     7
100
AcDbSpline
210
0.0
220
0.0
230
1.0
 70
     8
 71
     3
 72
     8
 73
     4
 74
     0
 42
0.00000001
 43
0.00000001
 40
0.0
 40
0.0
 40
0.0
 40
0.0
 40
1.0
 40
1.0
 40
1.0
 40
1.0
 10
96.050984700520829
 20
152.4873331705729
 30
0.0
 10
97.529619683159709
 20
149.21414794921873
 30
0.0
 10
99.382736545138883
 20
146.25946180555553
 30
0.0
 10
101.99205186631943
 20
143.7652126736111
 30
0.0
  0
SPLINE
  5
63
100
AcDbEntity
  8
レイヤー_2
 62
     7
100
AcDbSpline
210
0.0
220
0.0
230
1.0
 70
     8
 71
     3
 72
     8
 73
     4
 74
     0
 42
0.00000001
 43
0.00000001
 40
0.0
 40
0.0
 40
0.0
 40
0.0
 40
1.0
 40
1.0
 40
1.0
 40
1.0
 10
122.06937934027776
 20
155.07149929470484
 30
0.0
 10
121.96051432291665
 20
152.80187038845486
 30
0.0
 10
121.60498046874999
 20
150.64110649956595
 30
0.0
 10
120.94421115451388
 20
148.46518419053817
 30
0.0
  0
SPLINE
  5
62
100
AcDbEntity
  8
レイヤー_2
 62
     7
100
AcDbSpline
210
0.0
220
0.0
230
1.0
 70
     8
 71
     3
 72
     8
 73
     4
 74
     0
 42
0.00000001
 43
0.00000001
 40
0.0
 40
0.0
 40
0.0
 40
0.0
 40
1.0
 40
1.0
 40
1.0
 40
1.0
 10
117.77989095052082
 20
171.30082736545137
 30
0.0
 10
118.3497097439236
 20
170.34016248914929
 30
0.0
 10
118.85028211805555
 20
169.36830105251735
 30
0.0
 10
119.33879665798609
 20
168.36319444444442
 30
0.0
  0
POLYLINE
  5
5D
100
AcDbEntity
  8
レイヤー_2
 62
     7
100
AcDb2dPolyline
 66
     1
 10
0.0
 20
0.0
 30
0.0
  0
VERTEX
  5
5E
100
AcDbEntity
  8
レイヤー_2
 62
     7
100
AcDbVertex
100
AcDb2dVertex
 10
110.255458
 20
178.828878
 30
0.0
  0
VERTEX
  5
5F
100
AcDbEntity
  8
レイヤー_2
 62
     7
100
AcDbVertex
100
AcDb2dVertex
 10
109.498226
 20
179.204393
 30
0.0
  0
VERTEX
  5
60
100
AcDbEntity
  8
レイヤー_2
 62
     7
100
AcDbVertex
100
AcDb2dVertex
 10
108.878798
 20
179.466909
 30
0.0
  0
SEQEND
  5
61
100
AcDbEntity
  8
レイヤー_2
 62
     7
  0
SPLINE
  5
5C
100
AcDbEntity
  8
レイヤー_2
 62
     7
100
AcDbSpline
210
0.0
220
0.0
230
1.0
 70
     8
 71
     3
 72
    14
 73
    10
 74
     0
 42
0.00000001
 43
0.00000001
 40
0.0
 40
0.0
 40
0.0
 40
0.0
 40
1.0
 40
1.0
 40
1.0
 40
2.0
 40
2.0
 40
2.0
 40
3.0
 40
3.0
 40
3.0
 40
3.0
 10
110.10766330295138
 20
183.11802164713541
 30
0.0
 10
109.1316677517361
 20
183.26082085503469
 30
0.0
 10
108.10330674913193
 20
182.29309353298609
 30
0.0
 10
107.73295898437499
 20
180.91505533854166
 30
0.0
 10
107.34125162760415
 20
179.44778917100692
 30
0.0
 10
107.83321126302083
 20
178.04150119357638
 30
0.0
 10
108.83366699218749
 20
177.77485080295136
 30
0.0
 10
108.88396538628471
 20
177.76124267578123
 30
0.0
 10
108.93460828993055
 20
177.75107964409722
 30
0.0
 10
108.97870551215277
 20
177.74436170789929
 30
0.0
  0
SPLINE
  5
5B
100
AcDbEntity
  8
レイヤー_2
 62
     7
100
AcDbSpline
210
0.0
220
0.0
230
1.0
 70
     8
 71
     3
 72
    14
 73
    10
 74
     0
 42
0.00000001
 43
0.00000001
 40
0.0
 40
0.0
 40
0.0
 40
0.0
 40
1.0
 40
1.0
 40
1.0
 40
2.0
 40
2.0
 40
2.0
 40
3.0
 40
3.0
 40
3.0
 40
3.0
 10
109.05243055555555
 20
181.30159505208331
 30
0.0
 10
108.89498969184027
 20
181.11693793402776
 30
0.0
 10
108.78233506944443
 20
180.88628879123263
 30
0.0
 10
108.71997884114582
 20
180.65047200520831
 30
0.0
 10
108.5425564236111
 20
179.98367377387152
 30
0.0
 10
108.76579861111109
 20
179.34529758029512
 30
0.0
 10
109.22055121527777
 20
179.22385796440972
 30
0.0
 10
109.23329806857637
 20
179.2209296332465
 30
0.0
 10
109.246044921875
 20
179.21800130208331
 30
0.0
 10
109.25706922743055
 20
179.21541748046874
 30
0.0
  0
SPLINE
  5
5A
100
AcDbEntity
  8
レイヤー_2
 62
     7
100
AcDbSpline
210
0.0
220
0.0
230
1.0
 70
     8
 71
     3
 72
     8
 73
     4
 74
     0
 42
0.00000001
 43
0.00000001
 40
0.0
 40
0.0
 40
0.0
 40
0.0
 40
1.0
 40
1.0
 40
1.0
 40
1.0
 10
108.97870551215277
 20
177.74436170789929
 30
0.0
 10
109.57918565538193
 20
177.65633951822915
 30
0.0
 10
110.20343695746527
 20
177.99154730902777
 30
0.0
 10
110.67679307725693
 20
178.58462049696178
 30
0.0
  0
SPLINE
  5
59
100
AcDbEntity
  8
レイヤー_2
 62
     7
100
AcDbSpline
210
0.0
220
0.0
230
1.0
 70
     8
 71
     3
 72
     8
 73
     4
 74
     0
 42
0.00000001
 43
0.00000001
 40
0.0
 40
0.0
 40
0.0
 40
0.0
 40
1.0
 40
1.0
 40
1.0
 40
1.0
 10
110.24340006510415
 20
183.09097764756942
 30
0.0
 10
110.19654676649304
 20
183.1028632269965
 30
0.0
 10
110.14934895833332
 20
183.112164984809
 30
0.0
 10
110.10766330295138
 20
183.11802164713541
 30
0.0
  0
SPLINE
  5
58
100
AcDbEntity
  8
レイヤー_2
 62
     7
100
AcDbSpline
210
0.0
220
0.0
230
1.0
 70
     8
 71
     3
 72
     8
 73
     4
 74
     0
 42
0.00000001
 43
0.00000001
 40
0.0
 40
0.0
 40
0.0
 40
0.0
 40
1.0
 40
1.0
 40
1.0
 40
1.0
 10
111.48604600694443
 20
181.00066596137151
 30
0.0
 10
111.47398817274305
 20
182.0953450520833
 30
0.0
 10
110.96583658854166
 20
182.89667426215277
 30
0.0
 10
110.24340006510415
 20
183.09097764756942
 30
0.0
  0
SPLINE
  5
57
100
AcDbEntity
  8
レイヤー_2
 62
     7
100
AcDbSpline
210
0.0
220
0.0
230
1.0
 70
     8
 71
     3
 72
    14
 73
    10
 74
     0
 42
0.00000001
 43
0.00000001
 40
0.0
 40
0.0
 40
0.0
 40
0.0
 40
1.0
 40
1.0
 40
1.0
 40
2.0
 40
2.0
 40
2.0
 40
3.0
 40
3.0
 40
3.0
 40
3.0
 10
106.10756293402777
 20
184.19289143880206
 30
0.0
 10
105.12054307725694
 20
184.39098442925345
 30
0.0
 10
104.04774034288194
 20
183.41998426649303
 30
0.0
 10
103.66671278211804
 20
182.00129394531248
 30
0.0
 10
103.27534993489583
 20
180.53488905164929
 30
0.0
 10
103.7676540798611
 20
179.12911783854165
 30
0.0
 10
104.76673177083332
 20
178.86195068359373
 30
0.0
 10
104.79498155381944
 20
178.85437147352428
 30
0.0
 10
104.82254231770833
 20
178.84748128255205
 30
0.0
 10
104.84700249565971
 20
178.84334716796874
 30
0.0
  0
LINE
  5
56
100
AcDbEntity
  8
レイヤー_2
 62
     7
100
AcDbLine
 10
106.108252
 20
184.192891
 30
0.0
 11
110.173465
 21
183.106308
 31
0.0
  0
LINE
  5
55
100
AcDbEntity
  8
レイヤー_2
 62
     7
100
AcDbLine
 10
108.91256
 20
177.756592
 30
0.0
 11
104.847002
 21
178.843347
 31
0.0
  0
SPLINE
  5
54
100
AcDbEntity
  8
レイヤー_2
 62
     7
100
AcDbSpline
210
0.0
220
0.0
230
1.0
 70
     8
 71
     3
 72
     8
 73
     4
 74
     0
 42
0.00000001
 43
0.00000001
 40
0.0
 40
0.0
 40
0.0
 40
0.0
 40
1.0
 40
1.0
 40
1.0
 40
1.0
 10
109.20539279513888
 20
179.22816433376735
 30
0.0
 10
109.40348578559026
 20
179.19922553168402
 30
0.0
 10
109.31563585069443
 20
179.19681396484373
 30
0.0
 10
109.46894259982638
 20
179.21714002821179
 30
0.0
  0
SPLINE
  5
53
100
AcDbEntity
  8
レイヤー_2
 62
     7
100
AcDbSpline
210
0.0
220
0.0
230
1.0
 70
     8
 71
     3
 72
     8
 73
     4
 74
     0
 42
0.00000001
 43
0.00000001
 40
0.0
 40
0.0
 40
0.0
 40
0.0
 40
1.0
 40
1.0
 40
1.0
 40
1.0
 10
111.98282877604166
 20
183.96947699652776
 30
0.0
 10
111.26555989583332
 20
183.8716362847222
 30
0.0
 10
110.14590386284721
 20
183.48974745008678
 30
0.0
 10
109.4417263454861
 20
183.30181749131944
 30
0.0
  0
LINE
  5
52
100
AcDbEntity
  8
レイヤー_2
 62
     7
100
AcDbLine
 10
112.872697
 20
180.600174
 30
0.0
 11
112.40313
 21
180.471499
 31
0.0
  0
SPLINE
  5
51
100
AcDbEntity
  8
レイヤー_2
 62
     7
100
AcDbSpline
210
0.0
220
0.0
230
1.0
 70
     8
 71
     3
 72
     8
 73
     4
 74
     0
 42
0.00000001
 43
0.00000001
 40
0.0
 40
0.0
 40
0.0
 40
0.0
 40
1.0
 40
1.0
 40
1.0
 40
1.0
 10
110.91553819444444
 20
185.72837049696179
 30
0.0
 10
110.07390136718749
 20
185.35922851562498
 30
0.0
 10
109.57608506944443
 20
184.44955105251734
 30
0.0
 10
109.47652180989583
 20
183.31025797526041
 30
0.0
  0
SPLINE
  5
50
100
AcDbEntity
  8
レイヤー_2
 62
     7
100
AcDbSpline
210
0.0
220
0.0
230
1.0
 70
     8
 71
     3
 72
     8
 73
     4
 74
     0
 42
0.00000001
 43
0.00000001
 40
0.0
 40
0.0
 40
0.0
 40
0.0
 40
1.0
 40
1.0
 40
1.0
 40
1.0
 10
111.27382812499999
 20
185.84602050781248
 30
0.0
 10
111.14291449652777
 20
185.81690945095485
 30
0.0
 10
111.01923556857638
 20
185.77487928602429
 30
0.0
 10
110.91553819444444
 20
185.72837049696179
 30
0.0
  0
SPLINE
  5
4F
100
AcDbEntity
  8
レイヤー_2
 62
     7
100
AcDbSpline
210
0.0
220
0.0
230
1.0
 70
     8
 71
     3
 72
     8
 73
     4
 74
     0
 42
0.00000001
 43
0.00000001
 40
0.0
 40
0.0
 40
0.0
 40
0.0
 40
1.0
 40
1.0
 40
1.0
 40
1.0
 10
116.69158528645832
 20
187.40182562934027
 30
0.0
 10
116.52001953124999
 20
187.35566134982636
 30
0.0
 10
116.35810004340277
 20
187.28624267578124
 30
0.0
 10
116.22443033854165
 20
187.20321587456596
 30
0.0
  0
SPLINE
  5
4E
100
AcDbEntity
  8
レイヤー_2
 62
     7
100
AcDbSpline
210
0.0
220
0.0
230
1.0
 70
     8
 71
     3
 72
    14
 73
    10
 74
     0
 42
0.00000001
 43
0.00000001
 40
0.0
 40
0.0
 40
0.0
 40
0.0
 40
1.0
 40
1.0
 40
1.0
 40
2.0
 40
2.0
 40
2.0
 40
3.0
 40
3.0
 40
3.0
 40
3.0
 10
118.13335774739582
 20
179.92527940538193
 30
0.0
 10
118.32869466145833
 20
179.91735568576388
 30
0.0
 10
118.51541883680555
 20
179.93974880642361
 30
0.0
 10
118.67458224826387
 20
179.98505181206596
 30
0.0
 10
120.07087944878471
 20
180.35832790798611
 30
0.0
 10
120.75817599826388
 20
182.3209988064236
 30
0.0
 10
120.21040581597221
 20
184.36945258246527
 30
0.0
 10
119.66263563368055
 20
186.41721733940972
 30
0.0
 10
118.08753797743054
 20
187.77527398003471
 30
0.0
 10
116.69158528645832
 20
187.40182562934027
 30
0.0
  0
SPLINE
  5
4D
100
AcDbEntity
  8
レイヤー_2
 62
     7
100
AcDbSpline
210
0.0
220
0.0
230
1.0
 70
     8
 71
     3
 72
     8
 73
     4
 74
     0
 42
0.00000001
 43
0.00000001
 40
0.0
 40
0.0
 40
0.0
 40
0.0
 40
1.0
 40
1.0
 40
1.0
 40
1.0
 10
115.08134765624999
 20
179.10534667968747
 30
0.0
 10
116.39737413194443
 20
177.49028591579861
 30
0.0
 10
117.98625217013888
 20
176.83675130208331
 30
0.0
 10
119.44903971354165
 20
177.10891384548609
 30
0.0
  0
SPLINE
  5
4C
100
AcDbEntity
  8
レイヤー_2
 62
     7
100
AcDbSpline
210
0.0
220
0.0
230
1.0
 70
     8
 71
     3
 72
     8
 73
     4
 74
     0
 42
0.00000001
 43
0.00000001
 40
0.0
 40
0.0
 40
0.0
 40
0.0
 40
1.0
 40
1.0
 40
1.0
 40
1.0
 10
117.6706814236111
 20
190.7923163519965
 30
0.0
 10
117.6117702907986
 20
190.77750244140623
 30
0.0
 10
117.55423719618055
 20
190.75976019965276
 30
0.0
 10
117.50600585937499
 20
190.74356825086804
 30
0.0
  0
SPLINE
  5
4B
100
AcDbEntity
  8
レイヤー_2
 62
     7
100
AcDbSpline
210
0.0
220
0.0
230
1.0
 70
     8
 71
     3
 72
    14
 73
    10
 74
     0
 42
0.00000001
 43
0.00000001
 40
0.0
 40
0.0
 40
0.0
 40
0.0
 40
1.0
 40
1.0
 40
1.0
 40
2.0
 40
2.0
 40
2.0
 40
3.0
 40
3.0
 40
3.0
 40
3.0
 10
121.01518012152776
 20
177.48770209418402
 30
0.0
 10
121.08614908854166
 20
177.50217149522567
 30
0.0
 10
121.15642903645832
 20
177.51870795355902
 30
0.0
 10
121.21602918836804
 20
177.53472764756944
 30
0.0
 10
123.70993381076387
 20
178.20187038845484
 30
0.0
 10
124.93914388020832
 20
181.71052788628469
 30
0.0
 10
123.96004774305554
 20
185.37145860460069
 30
0.0
 10
122.98129611545137
 20
189.03290608723955
 30
0.0
 10
120.16527506510415
 20
191.45980360243053
 30
0.0
 10
117.6706814236111
 20
190.7923163519965
 30
0.0
  0
SPLINE
  5
4A
100
AcDbEntity
  8
レイヤー_2
 62
     7
100
AcDbSpline
210
0.0
220
0.0
230
1.0
 70
     8
 71
     3
 72
     8
 73
     4
 74
     0
 42
0.00000001
 43
0.00000001
 40
0.0
 40
0.0
 40
0.0
 40
0.0
 40
1.0
 40
1.0
 40
1.0
 40
1.0
 10
115.80481770833332
 20
190.23472764756943
 30
0.0
 10
114.36442328559026
 20
189.67128228081594
 30
0.0
 10
113.44113769531249
 20
188.2214138454861
 30
0.0
 10
113.14106987847221
 20
186.37019178602429
 30
0.0
  0
SPLINE
  5
49
100
AcDbEntity
  8
レイヤー_2
 62
     7
100
AcDbSpline
210
0.0
220
0.0
230
1.0
 70
     8
 71
     3
 72
     8
 73
     4
 74
     0
 42
0.00000001
 43
0.00000001
 40
0.0
 40
0.0
 40
0.0
 40
0.0
 40
1.0
 40
1.0
 40
1.0
 40
1.0
 10
115.95743543836805
 20
190.29071044921872
 30
0.0
 10
115.90369194878471
 20
190.27193467881943
 30
0.0
 10
115.85029296874998
 20
190.2524698893229
 30
0.0
 10
115.80481770833332
 20
190.23472764756943
 30
0.0
  0
SPLINE
  5
48
100
AcDbEntity
  8
レイヤー_2
 62
     7
100
AcDbSpline
210
0.0
220
0.0
230
1.0
 70
     8
 71
     3
 72
    11
 73
     7
 74
     0
 42
0.00000001
 43
0.00000001
 40
0.0
 40
0.0
 40
0.0
 40
0.0
 40
1.0
 40
1.0
 40
1.0
 40
2.0
 40
2.0
 40
2.0
 40
2.0
 10
113.36431206597221
 20
181.82903917100694
 30
0.0
 10
113.36431206597221
 20
182.04539116753472
 30
0.0
 10
113.33675130208333
 20
182.26002061631942
 30
0.0
 10
113.28851996527777
 20
182.45139567057291
 30
0.0
 10
113.07630208333332
 20
183.33023952907985
 30
0.0
 10
112.47099880642359
 20
183.96017523871527
 30
0.0
 10
111.85536024305554
 20
183.9889417860243
 30
0.0
  0
SPLINE
  5
47
100
AcDbEntity
  8
レイヤー_2
 62
     7
100
AcDbSpline
210
0.0
220
0.0
230
1.0
 70
     8
 71
     3
 72
     8
 73
     4
 74
     0
 42
0.00000001
 43
0.00000001
 40
0.0
 40
0.0
 40
0.0
 40
0.0
 40
1.0
 40
1.0
 40
1.0
 40
1.0
 10
112.84582519531249
 20
180.57519666883678
 30
0.0
 10
113.18310004340277
 20
180.82996148003471
 30
0.0
 10
113.3608669704861
 20
181.30659044053817
 30
0.0
 10
113.36327853732638
 20
181.84557562934026
 30
0.0
  0
SPLINE
  5
46
100
AcDbEntity
  8
レイヤー_2
 62
     7
100
AcDbSpline
210
0.0
220
0.0
230
1.0
 70
     8
 71
     3
 72
     8
 73
     4
 74
     0
 42
0.00000001
 43
0.00000001
 40
0.0
 40
0.0
 40
0.0
 40
0.0
 40
1.0
 40
1.0
 40
1.0
 40
1.0
 10
116.08524848090276
 20
190.31224229600693
 30
0.0
 10
115.65977918836805
 20
190.19838189019094
 30
0.0
 10
115.27220594618055
 20
190.00235595703123
 30
0.0
 10
114.95387912326387
 20
189.75551486545137
 30
0.0
  0
SPLINE
  5
45
100
AcDbEntity
  8
レイヤー_2
 62
     7
100
AcDbSpline
210
0.0
220
0.0
230
1.0
 70
     8
 71
     3
 72
    14
 73
    10
 74
     0
 42
0.00000001
 43
0.00000001
 40
0.0
 40
0.0
 40
0.0
 40
0.0
 40
1.0
 40
1.0
 40
1.0
 40
2.0
 40
2.0
 40
2.0
 40
3.0
 40
3.0
 40
3.0
 40
3.0
 10
118.24256727430554
 20
177.08944905598958
 30
0.0
 10
118.73108181423611
 20
177.01486273871527
 30
0.0
 10
119.19754774305555
 20
177.04449055989582
 30
0.0
 10
119.59683430989583
 20
177.15714518229166
 30
0.0
 10
122.0735134548611
 20
177.8187757703993
 30
0.0
 10
123.29445529513887
 20
181.29901123046872
 30
0.0
 10
122.32397189670138
 20
184.93169216579858
 30
0.0
 10
121.35417751736109
 20
188.56385633680554
 30
0.0
 10
118.56054958767361
 20
190.97301161024305
 30
0.0
 10
116.08524848090276
 20
190.31224229600693
 30
0.0
  0
SPLINE
  5
44
100
AcDbEntity
  8
レイヤー_2
 62
     7
100
AcDbSpline
210
0.0
220
0.0
230
1.0
 70
     8
 71
     3
 72
     8
 73
     4
 74
     0
 42
0.00000001
 43
0.00000001
 40
0.0
 40
0.0
 40
0.0
 40
0.0
 40
1.0
 40
1.0
 40
1.0
 40
1.0
 10
111.12155490451389
 20
185.79434407552083
 30
0.0
 10
110.89142252604165
 20
185.73129882812498
 30
0.0
 10
110.68092719184027
 20
185.62381184895833
 30
0.0
 10
110.50867241753471
 20
185.48996988932291
 30
0.0
  0
SPLINE
  5
43
100
AcDbEntity
  8
レイヤー_2
 62
     7
100
AcDbSpline
210
0.0
220
0.0
230
1.0
 70
     8
 71
     3
 72
    11
 73
     7
 74
     0
 42
0.00000001
 43
0.00000001
 40
0.0
 40
0.0
 40
0.0
 40
0.0
 40
1.0
 40
1.0
 40
1.0
 40
2.0
 40
2.0
 40
2.0
 40
2.0
 10
114.06022135416666
 20
179.3072292751736
 30
0.0
 10
114.73614908854165
 20
180.16281873914929
 30
0.0
 10
114.88773328993055
 20
181.54671359592012
 30
0.0
 10
114.53323296440971
 20
182.8730753580729
 30
0.0
 10
113.9964870876736
 20
184.85211046006944
 30
0.0
 10
112.46824273003472
 20
186.1596964518229
 30
0.0
 10
111.12155490451389
 20
185.79434407552083
 30
0.0
  0
LINE
  5
42
100
AcDbEntity
  8
レイヤー_2
 62
     7
100
AcDbLine
 10
116.725692
 20
187.372542
 30
0.0
 11
111.273828
 21
185.846021
 31
0.0
  0
LINE
  5
41
100
AcDbEntity
  8
レイヤー_2
 62
     7
100
AcDbLine
 10
114.496026
 20
178.956691
 30
0.0
 11
118.470633
 21
179.968515
 31
0.0
  0
LINE
  5
40
100
AcDbEntity
  8
レイヤー_2
 62
     7
100
AcDbLine
 10
121.015869
 20
177.488219
 30
0.0
 11
119.448695
 21
177.108914
 31
0.0
  0
LINE
  5
3F
100
AcDbEntity
  8
レイヤー_2
 62
     7
100
AcDbLine
 10
115.957435
 20
190.29071
 30
0.0
 11
117.505317
 21
190.743568
 31
0.0
  0
LINE
  5
3E
100
AcDbEntity
  8
レイヤー_2
 62
     7
100
AcDbLine
 10
112.699064
 20
180.491825
 30
0.0
 11
112.527498
 21
180.44101
 31
0.0
  0
SPLINE
  5
3D
100
AcDbEntity
  8
レイヤー_2
 62
     7
100
AcDbSpline
210
0.0
220
0.0
230
1.0
 70
     8
 71
     3
 72
     8
 73
     4
 74
     0
 42
0.00000001
 43
0.00000001
 40
0.0
 40
0.0
 40
0.0
 40
0.0
 40
1.0
 40
1.0
 40
1.0
 40
1.0
 10
112.86132812499999
 20
180.58914930555554
 30
0.0
 10
112.65910101996526
 20
180.46805419921873
 30
0.0
 10
112.76934407552082
 20
180.51886935763886
 30
0.0
 10
112.52749837239583
 20
180.44101019965277
 30
0.0
  0
SPLINE
  5
3C
100
AcDbEntity
  8
レイヤー_2
 62
     7
100
AcDbSpline
210
0.0
220
0.0
230
1.0
 70
     8
 71
     3
 72
     8
 73
     4
 74
     0
 42
0.00000001
 43
0.00000001
 40
0.0
 40
0.0
 40
0.0
 40
0.0
 40
1.0
 40
1.0
 40
1.0
 40
1.0
 10
111.85536024305554
 20
183.9889417860243
 30
0.0
 10
111.60938042534721
 20
183.96947699652776
 30
0.0
 10
111.47950032552082
 20
183.92365722656248
 30
0.0
 10
111.2710720486111
 20
183.79084879557291
 30
0.0
  0
SPLINE
  5
3B
100
AcDbEntity
  8
レイヤー_2
 62
     7
100
AcDbSpline
210
0.0
220
0.0
230
1.0
 70
     8
 71
     3
 72
     8
 73
     4
 74
     0
 42
0.00000001
 43
0.00000001
 40
0.0
 40
0.0
 40
0.0
 40
0.0
 40
1.0
 40
1.0
 40
1.0
 40
1.0
 10
112.49132486979165
 20
180.414655219184
 30
0.0
 10
112.74040527343749
 20
180.49423692491317
 30
0.0
 10
112.62189398871527
 20
180.44101019965277
 30
0.0
 10
112.84582519531249
 20
180.57519666883678
 30
0.0
  0
SPLINE
  5
3A
100
AcDbEntity
  8
レイヤー_2
 62
     7
100
AcDbSpline
210
0.0
220
0.0
230
1.0
 70
     8
 71
     3
 72
     8
 73
     4
 74
     0
 42
0.00000001
 43
0.00000001
 40
0.0
 40
0.0
 40
0.0
 40
0.0
 40
1.0
 40
1.0
 40
1.0
 40
1.0
 10
109.05243055555555
 20
181.30159505208331
 30
0.0
 10
109.05243055555555
 20
181.30159505208331
 30
0.0
 10
109.58331976996527
 20
181.97717827690971
 30
0.0
 10
109.86340603298611
 20
181.76892225477428
 30
0.0
  0
LINE
  5
39
100
AcDbEntity
  8
レイヤー_2
 62
     7
100
AcDbLine
 10
120.13358
 20
191.463765
 30
0.0
 11
120.13358
 21
210.570437
 31
0.0
  0
LINE
  5
38
100
AcDbEntity
  8
レイヤー_2
 62
     7
100
AcDbLine
 10
122.171354
 20
190.069191
 30
0.0
 11
143.49684
 21
184.354639
 31
0.0
  0
LINE
  5
37
100
AcDbEntity
  8
レイヤー_2
 62
     7
100
AcDbLine
 10
121.65459
 20
176.655884
 30
0.0
 11
143.154053
 21
170.894823
 31
0.0
  0
LINE
  5
36
100
AcDbEntity
  8
レイヤー_2
 62
     7
100
AcDbLine
 10
105.793715
 20
206.953432
 30
0.0
 11
105.793715
 21
185.419345
 31
0.0
  0
LINE
  5
35
100
AcDbEntity
  8
レイヤー_2
 62
     7
100
AcDbLine
 10
106.827243
 20
207.516705
 30
0.0
 11
104.681982
 21
205.371788
 31
0.0
  0
LINE
  5
34
100
AcDbEntity
  8
レイヤー_2
 62
     7
100
AcDbLine
 10
121.234977
 20
211.404667
 30
0.0
 11
118.937099
 21
209.106444
 31
0.0
  0
LINE
  5
33
100
AcDbEntity
  8
レイヤー_2
 62
     7
100
AcDbLine
 10
121.058244
 20
210.516177
 30
0.0
 11
104.541767
 21
206.090091
 31
0.0
  0
LINE
  5
32
100
AcDbEntity
  8
レイヤー_2
 62
     7
100
AcDbLine
 10
142.991789
 20
183.310602
 30
0.0
 11
142.168411
 21
184.736872
 31
0.0
  0
LINE
  5
31
100
AcDbEntity
  8
レイヤー_2
 62
     7
100
AcDbLine
 10
142.168411
 20
184.736872
 30
0.0
 11
141.344344
 21
186.164003
 31
0.0
  0
LINE
  5
30
100
AcDbEntity
  8
レイヤー_2
 62
     7
100
AcDbLine
 10
142.989033
 20
169.744161
 30
0.0
 11
142.165655
 21
171.170775
 31
0.0
  0
LINE
  5
2F
100
AcDbEntity
  8
レイヤー_2
 62
     7
100
AcDbLine
 10
142.165655
 20
171.170775
 30
0.0
 11
141.342622
 21
172.597045
 31
0.0
  0
LINE
  5
2E
100
AcDbEntity
  8
レイヤー_2
 62
     7
100
AcDbLine
 10
142.168411
 20
185.653784
 30
0.0
 11
142.168411
 21
154.773671
 31
0.0
  0
LINE
  5
2D
100
AcDbEntity
  8
レイヤー_2
 62
     7
100
AcDbLine
 10
124.430648
 20
149.961389
 30
0.0
 11
124.430648
 21
107.779812
 31
0.0
  0
LINE
  5
2C
100
AcDbEntity
  8
レイヤー_2
 62
     7
100
AcDbLine
 10
90.716599
 20
158.995463
 30
0.0
 11
90.716599
 21
116.814231
 31
0.0
  0
LINE
  5
2B
100
AcDbEntity
  8
レイヤー_2
 62
     7
100
AcDbLine
 10
91.815584
 20
119.082482
 30
0.0
 11
89.669979
 21
116.937565
 31
0.0
  0
LINE
  5
2A
100
AcDbEntity
  8
レイヤー_2
 62
     7
100
AcDbLine
 10
125.456597
 20
110.035661
 30
0.0
 11
123.311681
 21
107.890744
 31
0.0
  0
LINE
  5
29
100
AcDbEntity
  8
レイヤー_2
 62
     7
100
AcDbLine
 10
89.789179
 20
118.266683
 30
0.0
 11
125.38115
 21
108.72997
 31
0.0
  0
ENDSEC
  0
SECTION
  2
OBJECTS
  0
DICTIONARY
  5
19
100
AcDbDictionary
280
     0
281
     1
  3
ACAD_GROUP
350
1A
  3
ACAD_MLINESTYLE
350
1B
  3
ACAD_LAYOUT
350
1E
  3
ACAD_PLOTSETTINGS
350
22
  3
ACAD_PLOTSTYLENAME
350
1F
  3
ACAD_WIPEOUT_VARS
350
23
  0
DICTIONARY
  5
1A
102
{ACAD_REACTORS
330
19
102
}
100
AcDbDictionary
280
     0
281
     1
  0
DICTIONARY
  5
1B
102
{ACAD_REACTORS
330
19
102
}
100
AcDbDictionary
280
     0
281
     1
  3
Standard
350
1C
  0
MLINESTYLE
  5
1C
102
{ACAD_REACTORS
330
1B
102
}
100
AcDbMlineStyle
  2
Standard
 70
     0
  3

 62
     0
 51
90.0
 52
90.0
 71
     2
 49
0.5
 62
   256
  6
ByLayer
 49
-0.5
 62
   256
  6
ByLayer
  0
ACDBDICTIONARYWDFLT
  5
1F
102
{ACAD_REACTORS
330
19
102
}
100
AcDbDictionary
281
     1
  3
Normal
350
1D
100
AcDbDictionaryWithDefault
340
1D
  0
ACDBPLACEHOLDER
  5
1D
102
{ACAD_REACTORS
330
1F
102
}
  0
LAYOUT
  5
20
102
{ACAD_REACTORS
330
1E
102
}
100
AcDbPlotSettings
  1

  2

  4

  6

 40
0.0
 41
0.0
 42
0.0
 43
0.0
 44
0.0
 45
0.0
 46
0.0
 47
0.0
 48
0.0
 49
0.0
140
0.0
141
0.0
142
1.0
143
1.0
 70
  1024
 72
     0
 73
     0
 74
     0
  7

 75
     0
147
1.0
148
0.0
149
0.0
100
AcDbLayout
  1
Model
 70
     0
 71
     0
 10
0.0
 20
0.0
 11
0.0
 21
0.0
 12
0.0
 22
0.0
 32
0.0
 14
0.0
 24
0.0
 34
0.0
 15
0.0
 25
0.0
 35
0.0
146
0.0
 13
0.0
 23
0.0
 33
0.0
 16
0.0
 26
0.0
 36
0.0
 17
0.0
 27
0.0
 37
0.0
 76
     0
330
A
331
0
345
0
346
0
  0
LAYOUT
  5
21
102
{ACAD_REACTORS
330
1E
102
}
100
AcDbPlotSettings
  1

  2

  4

  6

 40
0.0
 41
0.0
 42
0.0
 43
0.0
 44
0.0
 45
0.0
 46
0.0
 47
0.0
 48
0.0
 49
0.0
140
0.0
141
0.0
142
1.0
143
1.0
 70
     0
 72
     0
 73
     0
 74
     0
  7

 75
     0
147
1.0
148
0.0
149
0.0
100
AcDbLayout
  1
Layout1
 70
     0
 71
     0
 10
0.0
 20
0.0
 11
0.0
 21
0.0
 12
0.0
 22
0.0
 32
0.0
 14
0.0
 24
0.0
 34
0.0
 15
0.0
 25
0.0
 35
0.0
146
0.0
 13
0.0
 23
0.0
 33
0.0
 16
0.0
 26
0.0
 36
0.0
 17
0.0
 27
0.0
 37
0.0
 76
     0
330
B
331
0
345
0
346
0
  0
DICTIONARY
  5
1E
102
{ACAD_REACTORS
330
19
102
}
100
AcDbDictionary
280
     0
281
     1
  3
Layout1
350
21
  3
Model
350
20
  0
DICTIONARY
  5
22
102
{ACAD_REACTORS
330
19
102
}
100
AcDbDictionary
280
     0
281
     1
  0
WIPEOUTVARIABLES
  5
23
100
AcDbWipeoutVariables
 70
     1
  0
IMAGEDEF_REACTOR
  5
8C
100
AcDbRasterImageDefReactor
 90
        2
330
8B
  0
IMAGEDEF
  5
8D
100
AcDbRasterImageDef
 90
        0
  1
\\192.168.6.3\free(2009_04\一過性\DB_WEB用DXF_丸茂\Tara．\83200892_1.bmp
 10
70.0
 20
9.0
 11
0.352778
 21
0.352778
280
     1
281
     0
  0
IMAGEDEF_REACTOR
  5
8F
100
AcDbRasterImageDefReactor
 90
        2
330
8E
  0
IMAGEDEF
  5
90
100
AcDbRasterImageDef
 90
        0
  1
\\192.168.6.3\free(2009_04\一過性\DB_WEB用DXF_丸茂\Tara．\83200892_2.bmp
 10
70.0
 20
9.0
 11
0.352778
 21
0.352778
280
     1
281
     0
  0
ENDSEC
  0
EOF
