  0
SECTION
  2
HEADER
  9
$ACADVER
  1
AC1015
  9
$ACADMAINTVER
 70
     6
  9
$DWGCODEPAGE
  3
ANSI_932
  9
$INSBASE
 10
0.0
 20
0.0
 30
0.0
  9
$EXTMIN
 10
23.283333
 20
25.752778
 30
1.000000E+20
  9
$EXTMAX
 10
198.966667
 20
276.930556
 30
-1.000000E+20
  9
$LIMMIN
 10
23.283333
 20
25.752778
  9
$LIMMAX
 10
198.966667
 20
276.930556
  9
$ORTHOMODE
 70
     0
  9
$REGENMODE
 70
     1
  9
$FILLMODE
 70
     1
  9
$QTEXTMODE
 70
     0
  9
$MIRRTEXT
 70
     1
  9
$LTSCALE
 40
1.0
  9
$ATTMODE
 70
     1
  9
$TEXTSIZE
 40
0.2
  9
$TRACEWID
 40
0.05
  9
$TEXTSTYLE
  7
Standard
  9
$CLAYER
  8
0
  9
$CELTYPE
  6
Continuous
  9
$CECOLOR
 62
   256
  9
$CELTSCALE
 40
1.0
  9
$DISPSILH
 70
     0
  9
$DIMSCALE
 40
1.0
  9
$DIMASZ
 40
0.18
  9
$DIMEXO
 40
0.0625
  9
$DIMDLI
 40
0.38
  9
$DIMRND
 40
0.0
  9
$DIMDLE
 40
0.0
  9
$DIMEXE
 40
0.18
  9
$DIMTP
 40
0.0
  9
$DIMTM
 40
0.0
  9
$DIMTXT
 40
0.18
  9
$DIMCEN
 40
0.09
  9
$DIMTSZ
 40
0.0
  9
$DIMTOL
 70
     0
  9
$DIMLIM
 70
     0
  9
$DIMTIH
 70
     1
  9
$DIMTOH
 70
     1
  9
$DIMSE1
 70
     0
  9
$DIMSE2
 70
     0
  9
$DIMTAD
 70
     0
  9
$DIMZIN
 70
     0
  9
$DIMBLK
  1

  9
$DIMASO
 70
     1
  9
$DIMSHO
 70
     1
  9
$DIMPOST
  1

  9
$DIMAPOST
  1

  9
$DIMALT
 70
     0
  9
$DIMALTD
 70
     2
  9
$DIMALTF
 40
25.4
  9
$DIMLFAC
 40
1.0
  9
$DIMTOFL
 70
     0
  9
$DIMTVP
 40
0.0
  9
$DIMTIX
 70
     0
  9
$DIMSOXD
 70
     0
  9
$DIMSAH
 70
     0
  9
$DIMBLK1
  1

  9
$DIMBLK2
  1

  9
$DIMSTYLE
  2
Standard
  9
$DIMCLRD
 70
     0
  9
$DIMCLRE
 70
     0
  9
$DIMCLRT
 70
     0
  9
$DIMTFAC
 40
1.0
  9
$DIMGAP
 40
0.09
  9
$DIMJUST
 70
     0
  9
$DIMSD1
 70
     0
  9
$DIMSD2
 70
     0
  9
$DIMTOLJ
 70
     1
  9
$DIMTZIN
 70
     0
  9
$DIMALTZ
 70
     0
  9
$DIMALTTZ
 70
     0
  9
$DIMUPT
 70
     0
  9
$DIMDEC
 70
     4
  9
$DIMTDEC
 70
     4
  9
$DIMALTU
 70
     2
  9
$DIMALTTD
 70
     2
  9
$DIMTXSTY
  7
Standard
  9
$DIMAUNIT
 70
     0
  9
$DIMADEC
 70
     0
  9
$DIMALTRND
 40
0.0
  9
$DIMAZIN
 70
     0
  9
$DIMDSEP
 70
     0
  9
$DIMATFIT
 70
     3
  9
$DIMFRAC
 70
     0
  9
$DIMLDRBLK
  1

  9
$DIMLUNIT
 70
     2
  9
$DIMLWD
 70
     0
  9
$DIMLWE
 70
     0
  9
$DIMTMOVE
 70
     0
  9
$LUNITS
 70
     2
  9
$LUPREC
 70
     4
  9
$SKETCHINC
 40
0.1
  9
$FILLETRAD
 40
0.0
  9
$AUNITS
 70
     0
  9
$AUPREC
 70
     0
  9
$MENU
  1
acad
  9
$ELEVATION
 40
0.0
  9
$PELEVATION
 40
0.0
  9
$THICKNESS
 40
0.0
  9
$LIMCHECK
 70
     0
  9
$CHAMFERA
 40
0.0
  9
$CHAMFERB
 40
0.0
  9
$CHAMFERC
 40
0.0
  9
$CHAMFERD
 40
0.0
  9
$SKPOLY
 70
     0
  9
$TDCREATE
 40
0.000000000
  9
$TDUCREATE
 40
0.000000000
  9
$TDUPDATE
 40
0.000000000
  9
$TDUUPDATE
 40
0.000000000
  9
$TDINDWG
 40
0.0000000000
  9
$TDUSRTIMER
 40
0.0000000000
  9
$USRTIMER
 70
     1
  9
$ANGBASE
 50
0.0
  9
$ANGDIR
 70
     0
  9
$PDMODE
 70
     0
  9
$PDSIZE
 40
0.0
  9
$PLINEWID
 40
0.0
  9
$SPLFRAME
 70
     0
  9
$SPLINETYPE
 70
     6
  9
$SPLINESEGS
 70
     8
  9
$HANDSEED
  5
197
  9
$SURFTAB1
 70
     6
  9
$SURFTAB2
 70
     6
  9
$SURFTYPE
 70
     6
  9
$SURFU
 70
     6
  9
$SURFV
 70
     6
  9
$UCSBASE
  2

  9
$UCSNAME
  2

  9
$UCSORG
 10
0.0
 20
0.0
 30
0.0
  9
$UCSXDIR
 10
1.0
 20
0.0
 30
0.0
  9
$UCSYDIR
 10
0.0
 20
1.0
 30
0.0
  9
$UCSORTHOREF
  2

  9
$UCSORTHOVIEW
 70
     0
  9
$UCSORGTOP
 10
0.0
 20
0.0
 30
0.0
  9
$UCSORGBOTTOM
 10
0.0
 20
0.0
 30
0.0
  9
$UCSORGLEFT
 10
0.0
 20
0.0
 30
0.0
  9
$UCSORGRIGHT
 10
0.0
 20
0.0
 30
0.0
  9
$UCSORGFRONT
 10
0.0
 20
0.0
 30
0.0
  9
$UCSORGBACK
 10
0.0
 20
0.0
 30
0.0
  9
$PUCSBASE
  2

  9
$PUCSNAME
  2

  9
$PUCSORG
 10
0.0
 20
0.0
 30
0.0
  9
$PUCSXDIR
 10
1.0
 20
0.0
 30
0.0
  9
$PUCSYDIR
 10
0.0
 20
1.0
 30
0.0
  9
$PUCSORTHOREF
  2

  9
$PUCSORTHOVIEW
 70
     0
  9
$PUCSORGTOP
 10
0.0
 20
0.0
 30
0.0
  9
$PUCSORGBOTTOM
 10
0.0
 20
0.0
 30
0.0
  9
$PUCSORGLEFT
 10
0.0
 20
0.0
 30
0.0
  9
$PUCSORGRIGHT
 10
0.0
 20
0.0
 30
0.0
  9
$PUCSORGFRONT
 10
0.0
 20
0.0
 30
0.0
  9
$PUCSORGBACK
 10
0.0
 20
0.0
 30
0.0
  9
$USERI1
 70
     0
  9
$USERI2
 70
     0
  9
$USERI3
 70
     0
  9
$USERI4
 70
     0
  9
$USERI5
 70
     0
  9
$USERR1
 40
0.0
  9
$USERR2
 40
0.0
  9
$USERR3
 40
0.0
  9
$USERR4
 40
0.0
  9
$USERR5
 40
0.0
  9
$WORLDVIEW
 70
     1
  9
$SHADEDGE
 70
     3
  9
$SHADEDIF
 70
    70
  9
$TILEMODE
 70
     1
  9
$MAXACTVP
 70
    16
  9
$PINSBASE
 10
0.0
 20
0.0
 30
0.0
  9
$PLIMCHECK
 70
     0
  9
$PEXTMIN
 10
1.000000E+20
 20
1.000000E+20
 30
1.000000E+20
  9
$PEXTMAX
 10
-1.000000E+20
 20
-1.000000E+20
 30
-1.000000E+20
  9
$PLIMMIN
 10
0.0
 20
0.0
  9
$PLIMMAX
 10
12.0
 20
9.0
  9
$UNITMODE
 70
     0
  9
$VISRETAIN
 70
     0
  9
$PLINEGEN
 70
     1
  9
$PSLTSCALE
 70
     0
  9
$TREEDEPTH
 70
  3020
  9
$CMLSTYLE
  2
Standard
  9
$CMLJUST
 70
     0
  9
$CMLSCALE
 40
1.0
  9
$PROXYGRAPHICS
 70
     0
  9
$MEASUREMENT
 70
     1
  9
$CELWEIGHT
370
     0
  9
$ENDCAPS
280
     0
  9
$JOINSTYLE
280
     0
  9
$LWDISPLAY
290
     0
  9
$INSUNITS
 70
     0
  9
$HYPERLINKBASE
  1

  9
$STYLESHEET
  1

  9
$XEDIT
290
     1
  9
$CEPSNTYPE
380
     0
  9
$PSTYLEMODE
290
     1
  9
$FINGERPRINTGUID
  2

  9
$VERSIONGUID
  2

  9
$EXTNAMES
290
     1
  9
$PSVPSCALE
 40
0.0
  0
ENDSEC
  0
SECTION
  2
CLASSES
  0
CLASS
  1
LWPOLYLINE
  2
AcDbPolyline
  3
AutoCAD 2000
 90
    32768
280
     0
281
     1
  0
CLASS
  1
IMAGE
  2
AcDbRasterImage
  3
ISM
 90
      127
280
     0
281
     1
  0
CLASS
  1
OLE2FRAME
  2
AcDbOle2Frame
  3
AutoCAD 2000
 90
    32768
280
     0
281
     1
  0
CLASS
  1
HATCH
  2
AcDbHatch
  3
AutoCAD 2000
 90
    32768
280
     0
281
     1
  0
CLASS
  1
DICTIONARYVAR
  2
AcDbDictionaryVar
  3
AutoCAD 2000
 90
    32768
280
     0
281
     0
  0
CLASS
  1
RASTERVARIABLES
  2
AcDbRasterVariables
  3
ISM
 90
    32768
280
     0
281
     0
  0
CLASS
  1
IMAGEDEF
  2
AcDbRasterImageDef
  3
ISM
 90
        0
280
     0
281
     0
  0
CLASS
  1
IMAGEDEF_REACTOR
  2
AcDbRasterImageDefReactor
  3
ISM
 90
        1
280
     0
281
     0
  0
CLASS
  1
IDBUFFER
  2
AcDbIdBuffer
  3
AutoCAD 2000
 90
    32768
280
     0
281
     0
  0
CLASS
  1
SPATIAL_FILTER
  2
AcDbSpatialFilter
  3
AutoCAD 2000
 90
    32768
280
     0
281
     0
  0
CLASS
  1
XRECORD
  2
AcDbXrecord
  3
AutoCAD 2000
 90
    32768
280
     0
281
     0
  0
CLASS
  1
SORTENTSTABLE
  2
AcDbSortentsTable
  3
AutoCAD 2000
 90
    32768
280
     0
281
     0
  0
CLASS
  1
LAYER_INDEX
  2
AcDbLayerIndex
  3
AutoCAD 2000
 90
    32768
280
     0
281
     0
  0
CLASS
  1
SPATIAL_INDEX
  2
AcDbSpatialIndex
  3
AutoCAD 2000
 90
    32768
280
     0
281
     0
  0
CLASS
  1
OBJECT_PTR
  2
CAseDLPNTableRecord
  3
"ASE-LPNTableRecord"
 90
    32769
280
     0
281
     0
  0
CLASS
  1
LAYOUT
  2
AcDbLayout
  3
AutoCAD 2000
 90
        0
280
     0
281
     0
  0
CLASS
  1
PLOTSETTINGS
  2
AcDbPlotSettings
  3
AutoCAD 2000
 90
    32768
280
     0
281
     0
  0
CLASS
  1
ACDBDICTIONARYWDFLT
  2
AcDbDictionaryWithDefault
  3
AutoCAD 2000
 90
        0
280
     0
281
     0
  0
CLASS
  1
ACDBPLACEHOLDER
  2
AcDbPlaceHolder
  3
AutoCAD 2000
 90
        0
280
     0
281
     0
  0
CLASS
  1
VBA_PROJECT
  2
AcDbVbaProject
  3
acadvba
 90
    32768
280
     0
281
     0
  0
CLASS
  1
WIPEOUT
  2
AcDbWipeout
  3
WipeOut|AutoCAD Express Tool|expresstools@autodesk.com
 90
    32895
280
     0
281
     1
  0
CLASS
  1
WIPEOUTVARIABLES
  2
AcDbWipeoutVariables
  3
WipeOut|AutoCAD Express Tool|expresstools@autodesk.com
 90
        0
280
     0
281
     0
  0
CLASS
  1
RTEXT
  2
RText
  3
RText|AutoCAD Express Tool|expresstools@autodesk.com
 90
    32768
280
     0
281
     1
  0
CLASS
  1
ARCALIGNEDTEXT
  2
AcDbArcAlignedText
  3
ATEXT|AutoCAD Express Tool|expresstools@autodesk.com
 90
    32768
280
     0
281
     1
  0
ENDSEC
  0
SECTION
  2
TABLES
  0
TABLE
  2
VPORT
  5
7
100
AcDbSymbolTable
 70
     1
  0
VPORT
  5
15
100
AcDbSymbolTableRecord
100
AcDbViewportTableRecord
  2
*ACTIVE
 70
     0
 10
0.0
 20
0.0
 11
1.0
 21
1.0
 12
6.591288
 22
4.579184
 13
0.0
 23
0.0
 14
1.0
 24
1.0
 15
0.0
 25
0.0
 16
0.0
 26
0.0
 36
1.0
 17
0.0
 27
0.0
 37
0.0
 40
9.158369
 41
0.688564
 42
50.0
 43
0.0
 44
0.0
 50
0.0
 51
0.0
 71
     0
 72
   100
 73
     1
 74
     1
 75
     0
 76
     0
 77
     0
 78
     0
281
     0
 65
     0
110
0.0
120
0.0
130
0.0
111
1.0
121
0.0
131
0.0
112
0.0
122
1.0
132
0.0
345
0
346
0
 79
     0
146
0.0
  0
ENDTAB
  0
TABLE
  2
LTYPE
  5
4
100
AcDbSymbolTable
 70
     3
  0
LTYPE
  5
11
100
AcDbSymbolTableRecord
100
AcDbLinetypeTableRecord
  2
ByBlock
 70
    64
  3

 72
    65
 73
     0
 40
0.0
  0
LTYPE
  5
12
100
AcDbSymbolTableRecord
100
AcDbLinetypeTableRecord
  2
ByLayer
 70
    64
  3

 72
    65
 73
     0
 40
0.0
  0
LTYPE
  5
13
100
AcDbSymbolTableRecord
100
AcDbLinetypeTableRecord
  2
Continuous
 70
    64
  3
Solid line
 72
    65
 73
     0
 40
0.0
  0
ENDTAB
  0
TABLE
  2
LAYER
  5
2
100
AcDbSymbolTable
 70
     3
  0
LAYER
  5
14
100
AcDbSymbolTableRecord
100
AcDbLayerTableRecord
  2
0
 70
     0
 62
     7
  6
Continuous
290
     1
370
    -3
390
1D
  0
LAYER
  5
28
100
AcDbSymbolTableRecord
100
AcDbLayerTableRecord
  2
レイヤー_2
 70
     0
 62
     1
  6
Continuous
290
     1
370
    -3
390
1D
  0
LAYER
  5
17C
100
AcDbSymbolTableRecord
100
AcDbLayerTableRecord
  2
レイヤー_1
 70
     0
 62
   160
  6
Continuous
290
     1
370
    -3
390
1D
  0
ENDTAB
  0
TABLE
  2
STYLE
  5
3
100
AcDbSymbolTable
 70
     5
  0
STYLE
  5
17
100
AcDbSymbolTableRecord
100
AcDbTextStyleTableRecord
  2
Standard
 70
     0
 40
0.0
 41
1.0
 50
0.0
 71
     0
 42
0.0
  3
txt
  4

  0
STYLE
  5
24
100
AcDbSymbolTableRecord
100
AcDbTextStyleTableRecord
  2
STD
 70
     0
 40
0.0
 41
1.0
 50
0.0
 71
     0
 42
0.0
  3
txt
  4

  0
STYLE
  5
25
100
AcDbSymbolTableRecord
100
AcDbTextStyleTableRecord
  2
TATESTD
 70
     4
 40
0.0
 41
1.0
 50
0.0
 71
     0
 42
0.0
  3
txt
  4

  0
STYLE
  5
26
100
AcDbSymbolTableRecord
100
AcDbTextStyleTableRecord
  2
KANJISTD
 70
     0
 40
0.0
 41
1.0
 50
0.0
 71
     0
 42
0.0
  3
txt
  4
extfont
  0
STYLE
  5
27
100
AcDbSymbolTableRecord
100
AcDbTextStyleTableRecord
  2
KANJITATE
 70
     4
 40
0.0
 41
1.0
 50
0.0
 71
     0
 42
0.0
  3
txt
  4
extfont
  0
ENDTAB
  0
TABLE
  2
VIEW
  5
5
100
AcDbSymbolTable
 70
     0
  0
ENDTAB
  0
TABLE
  2
UCS
  5
6
100
AcDbSymbolTable
 70
     0
  0
ENDTAB
  0
TABLE
  2
APPID
  5
8
100
AcDbSymbolTable
 70
     1
  0
APPID
  5
16
100
AcDbSymbolTableRecord
100
AcDbRegAppTableRecord
  2
ACAD
 70
     0
  0
ENDTAB
  0
TABLE
  2
DIMSTYLE
  5
9
100
AcDbSymbolTable
 70
     1
100
AcDbDimStyleTable
 71
     0
  0
DIMSTYLE
105
18
100
AcDbSymbolTableRecord
100
AcDbDimStyleTableRecord
  2
Standard
 70
     0
  3

  4

 40
1.0
 41
0.18
 42
0.0625
 43
0.38
 44
0.18
 45
0.0
 46
0.0
 47
0.0
 48
0.0
 71
     0
 72
     0
 73
     1
 74
     1
 75
     0
 76
     0
 77
     0
 78
     0
 79
     0
140
0.18
141
0.09
142
0.0
143
25.4
144
1.0
145
0.0
146
1.0
147
0.09
148
0.0
170
     0
171
     2
172
     0
173
     0
174
     0
175
     0
176
     0
177
     0
178
     0
179
     0
271
     4
272
     4
273
     2
274
     2
275
     0
276
     0
277
     2
278
    46
279
     0
280
     0
281
     0
282
     0
283
     1
284
     0
285
     0
286
     0
288
     0
340
17
341
0
342
0
343
0
344
0
371
    -2
372
    -2
  0
ENDTAB
  0
TABLE
  2
BLOCK_RECORD
  5
1
100
AcDbSymbolTable
 70
     1
  0
BLOCK_RECORD
  5
A
100
AcDbSymbolTableRecord
100
AcDbBlockTableRecord
  2
*MODEL_SPACE
340
20
  0
BLOCK_RECORD
  5
B
100
AcDbSymbolTableRecord
100
AcDbBlockTableRecord
  2
*PAPER_SPACE
340
21
  0
BLOCK_RECORD
  5
29
100
AcDbSymbolTableRecord
100
AcDbBlockTableRecord
  2
AI9-BLK1
340
0
102
{BLKREFS
331
2A
102
}
  0
ENDTAB
  0
ENDSEC
  0
SECTION
  2
BLOCKS
  0
BLOCK
  5
D
100
AcDbEntity
  8
0
100
AcDbBlockBegin
  2
*MODEL_SPACE
 70
     0
 10
0.0
 20
0.0
 30
0.0
  3
*MODEL_SPACE
  1

  0
ENDBLK
  5
E
100
AcDbEntity
  8
0
100
AcDbBlockEnd
  0
BLOCK
  5
F
100
AcDbEntity
 67
     1
  8
0
100
AcDbBlockBegin
  2
*PAPER_SPACE
 70
     0
 10
0.0
 20
0.0
 30
0.0
  3
*PAPER_SPACE
  1

  0
ENDBLK
  5
10
100
AcDbEntity
 67
     1
  8
0
100
AcDbBlockEnd
  0
BLOCK
  5
2B
100
AcDbEntity
  8
レイヤー_2
 62
     7
100
AcDbBlockBegin
  2
AI9-BLK1
 70
     0
 10
0.0
 20
0.0
 30
0.0
  3
AI9-BLK1
  1

  0
POLYLINE
  5
121
100
AcDbEntity
  8
レイヤー_2
 62
     7
100
AcDb2dPolyline
 66
     1
 10
0.0
 20
0.0
 30
0.0
  0
VERTEX
  5
122
100
AcDbEntity
  8
レイヤー_2
 62
     7
100
AcDbVertex
100
AcDb2dVertex
 10
-10.735004
 20
34.773846
 30
0.0
  0
VERTEX
  5
123
100
AcDbEntity
  8
レイヤー_2
 62
     7
100
AcDbVertex
100
AcDb2dVertex
 10
-11.873952
 20
34.899076
 30
0.0
  0
VERTEX
  5
124
100
AcDbEntity
  8
レイヤー_2
 62
     7
100
AcDbVertex
100
AcDb2dVertex
 10
-13.13968
 20
35.026889
 30
0.0
  0
VERTEX
  5
125
100
AcDbEntity
  8
レイヤー_2
 62
     7
100
AcDbVertex
100
AcDb2dVertex
 10
-14.404892
 20
35.026889
 30
0.0
  0
VERTEX
  5
126
100
AcDbEntity
  8
レイヤー_2
 62
     7
100
AcDbVertex
100
AcDb2dVertex
 10
-15.670792
 20
34.899076
 30
0.0
  0
VERTEX
  5
127
100
AcDbEntity
  8
レイヤー_2
 62
     7
100
AcDbVertex
100
AcDb2dVertex
 10
-18.203282
 20
34.39368
 30
0.0
  0
VERTEX
  5
128
100
AcDbEntity
  8
レイヤー_2
 62
     7
100
AcDbVertex
100
AcDb2dVertex
 10
-19.342402
 20
34.013514
 30
0.0
  0
VERTEX
  5
129
100
AcDbEntity
  8
レイヤー_2
 62
     7
100
AcDbVertex
100
AcDb2dVertex
 10
-20.608131
 20
33.507774
 30
0.0
  0
VERTEX
  5
12A
100
AcDbEntity
  8
レイヤー_2
 62
     7
100
AcDbVertex
100
AcDb2dVertex
 10
-21.746218
 20
33.002206
 30
0.0
  0
VERTEX
  5
12B
100
AcDbEntity
  8
レイヤー_2
 62
     7
100
AcDbVertex
100
AcDb2dVertex
 10
-22.759765
 20
32.368309
 30
0.0
  0
VERTEX
  5
12C
100
AcDbEntity
  8
レイヤー_2
 62
     7
100
AcDbVertex
100
AcDb2dVertex
 10
-23.898886
 20
31.609354
 30
0.0
  0
VERTEX
  5
12D
100
AcDbEntity
  8
レイヤー_2
 62
     7
100
AcDbVertex
100
AcDb2dVertex
 10
-24.91071
 20
30.849021
 30
0.0
  0
VERTEX
  5
12E
100
AcDbEntity
  8
レイヤー_2
 62
     7
100
AcDbVertex
100
AcDb2dVertex
 10
-25.924257
 20
29.96346
 30
0.0
  0
VERTEX
  5
12F
100
AcDbEntity
  8
レイヤー_2
 62
     7
100
AcDbVertex
100
AcDb2dVertex
 10
-27.696415
 20
27.93826
 30
0.0
  0
VERTEX
  5
130
100
AcDbEntity
  8
レイヤー_2
 62
     7
100
AcDbVertex
100
AcDb2dVertex
 10
-28.582149
 20
26.799312
 30
0.0
  0
VERTEX
  5
131
100
AcDbEntity
  8
レイヤー_2
 62
     7
100
AcDbVertex
100
AcDb2dVertex
 10
-29.34162
 20
25.658985
 30
0.0
  0
VERTEX
  5
132
100
AcDbEntity
  8
レイヤー_2
 62
     7
100
AcDbVertex
100
AcDb2dVertex
 10
-30.101263
 20
24.393774
 30
0.0
  0
VERTEX
  5
133
100
AcDbEntity
  8
レイヤー_2
 62
     7
100
AcDbVertex
100
AcDb2dVertex
 10
-31.999683
 20
20.216768
 30
0.0
  0
VERTEX
  5
134
100
AcDbEntity
  8
レイヤー_2
 62
     7
100
AcDbVertex
100
AcDb2dVertex
 10
-32.506112
 20
18.697653
 30
0.0
  0
VERTEX
  5
135
100
AcDbEntity
  8
レイヤー_2
 62
     7
100
AcDbVertex
100
AcDb2dVertex
 10
-32.886106
 20
17.180261
 30
0.0
  0
VERTEX
  5
136
100
AcDbEntity
  8
レイヤー_2
 62
     7
100
AcDbVertex
100
AcDb2dVertex
 10
-33.265584
 20
15.533333
 30
0.0
  0
VERTEX
  5
137
100
AcDbEntity
  8
レイヤー_2
 62
     7
100
AcDbVertex
100
AcDb2dVertex
 10
-33.518626
 20
14.015768
 30
0.0
  0
VERTEX
  5
138
100
AcDbEntity
  8
レイヤー_2
 62
     7
100
AcDbVertex
100
AcDb2dVertex
 10
-33.77184
 20
12.369012
 30
0.0
  0
VERTEX
  5
139
100
AcDbEntity
  8
レイヤー_2
 62
     7
100
AcDbVertex
100
AcDb2dVertex
 10
-33.898103
 20
10.597544
 30
0.0
  0
VERTEX
  5
13A
100
AcDbEntity
  8
レイヤー_2
 62
     7
100
AcDbVertex
100
AcDb2dVertex
 10
-34.025055
 20
8.950616
 30
0.0
  0
VERTEX
  5
13B
100
AcDbEntity
  8
レイヤー_2
 62
     7
100
AcDbVertex
100
AcDb2dVertex
 10
-34.025055
 20
5.40768
 30
0.0
  0
VERTEX
  5
13C
100
AcDbEntity
  8
レイヤー_2
 62
     7
100
AcDbVertex
100
AcDb2dVertex
 10
-33.77184
 20
1.861643
 30
0.0
  0
VERTEX
  5
13D
100
AcDbEntity
  8
レイヤー_2
 62
     7
100
AcDbVertex
100
AcDb2dVertex
 10
-33.518626
 20
0.217988
 30
0.0
  0
VERTEX
  5
13E
100
AcDbEntity
  8
レイヤー_2
 62
     7
100
AcDbVertex
100
AcDb2dVertex
 10
-32.379161
 20
-5.099516
 30
0.0
  0
VERTEX
  5
13F
100
AcDbEntity
  8
レイヤー_2
 62
     7
100
AcDbVertex
100
AcDb2dVertex
 10
-31.873421
 20
-6.744894
 30
0.0
  0
VERTEX
  5
140
100
AcDbEntity
  8
レイヤー_2
 62
     7
100
AcDbVertex
100
AcDb2dVertex
 10
-31.366302
 20
-8.516362
 30
0.0
  0
VERTEX
  5
141
100
AcDbEntity
  8
レイヤー_2
 62
     7
100
AcDbVertex
100
AcDb2dVertex
 10
-30.733783
 20
-10.161568
 30
0.0
  0
VERTEX
  5
142
100
AcDbEntity
  8
レイヤー_2
 62
     7
100
AcDbVertex
100
AcDb2dVertex
 10
-29.974312
 20
-11.806773
 30
0.0
  0
VERTEX
  5
143
100
AcDbEntity
  8
レイヤー_2
 62
     7
100
AcDbVertex
100
AcDb2dVertex
 10
-29.34162
 20
-13.453529
 30
0.0
  0
VERTEX
  5
144
100
AcDbEntity
  8
レイヤー_2
 62
     7
100
AcDbVertex
100
AcDb2dVertex
 10
-28.455025
 20
-14.970749
 30
0.0
  0
VERTEX
  5
145
100
AcDbEntity
  8
レイヤー_2
 62
     7
100
AcDbVertex
100
AcDb2dVertex
 10
-27.696415
 20
-16.489347
 30
0.0
  0
VERTEX
  5
146
100
AcDbEntity
  8
レイヤー_2
 62
     7
100
AcDbVertex
100
AcDb2dVertex
 10
-26.809819
 20
-18.008634
 30
0.0
  0
VERTEX
  5
147
100
AcDbEntity
  8
レイヤー_2
 62
     7
100
AcDbVertex
100
AcDb2dVertex
 10
-24.784448
 20
-20.79296
 30
0.0
  0
VERTEX
  5
148
100
AcDbEntity
  8
レイヤー_2
 62
     7
100
AcDbVertex
100
AcDb2dVertex
 10
-22.759765
 20
-23.324416
 30
0.0
  0
VERTEX
  5
149
100
AcDbEntity
  8
レイヤー_2
 62
     7
100
AcDbVertex
100
AcDb2dVertex
 10
-20.481179
 20
-25.602313
 30
0.0
  0
VERTEX
  5
14A
100
AcDbEntity
  8
レイヤー_2
 62
     7
100
AcDbVertex
100
AcDb2dVertex
 10
-19.342402
 20
-26.616894
 30
0.0
  0
VERTEX
  5
14B
100
AcDbEntity
  8
レイヤー_2
 62
     7
100
AcDbVertex
100
AcDb2dVertex
 10
-15.544529
 20
-29.274785
 30
0.0
  0
VERTEX
  5
14C
100
AcDbEntity
  8
レイヤー_2
 62
     7
100
AcDbVertex
100
AcDb2dVertex
 10
-13.013762
 20
-30.539824
 30
0.0
  0
VERTEX
  5
14D
100
AcDbEntity
  8
レイヤー_2
 62
     7
100
AcDbVertex
100
AcDb2dVertex
 10
-10.481789
 20
-31.552338
 30
0.0
  0
VERTEX
  5
14E
100
AcDbEntity
  8
レイヤー_2
 62
     7
100
AcDbVertex
100
AcDb2dVertex
 10
-9.088937
 20
-31.806586
 30
0.0
  0
VERTEX
  5
14F
100
AcDbEntity
  8
レイヤー_2
 62
     7
100
AcDbVertex
100
AcDb2dVertex
 10
-7.823898
 20
-32.060489
 30
0.0
  0
VERTEX
  5
150
100
AcDbEntity
  8
レイヤー_2
 62
     7
100
AcDbVertex
100
AcDb2dVertex
 10
-6.557825
 20
-32.184857
 30
0.0
  0
VERTEX
  5
151
100
AcDbEntity
  8
レイヤー_2
 62
     7
100
AcDbVertex
100
AcDb2dVertex
 10
-5.164284
 20
-32.311292
 30
0.0
  0
VERTEX
  5
152
100
AcDbEntity
  8
レイヤー_2
 62
     7
100
AcDbVertex
100
AcDb2dVertex
 10
-3.898728
 20
-32.311292
 30
0.0
  0
VERTEX
  5
153
100
AcDbEntity
  8
レイヤー_2
 62
     7
100
AcDbVertex
100
AcDb2dVertex
 10
-2.633345
 20
-32.184857
 30
0.0
  0
VERTEX
  5
154
100
AcDbEntity
  8
レイヤー_2
 62
     7
100
AcDbVertex
100
AcDb2dVertex
 10
-1.366583
 20
-31.932332
 30
0.0
  0
VERTEX
  5
155
100
AcDbEntity
  8
レイヤー_2
 62
     7
100
AcDbVertex
100
AcDb2dVertex
 10
-0.227635
 20
-31.678428
 30
0.0
  0
VERTEX
  5
156
100
AcDbEntity
  8
レイヤー_2
 62
     7
100
AcDbVertex
100
AcDb2dVertex
 10
1.037404
 20
-31.300157
 30
0.0
  0
VERTEX
  5
157
100
AcDbEntity
  8
レイヤー_2
 62
     7
100
AcDbVertex
100
AcDb2dVertex
 10
2.177731
 20
-30.79235
 30
0.0
  0
VERTEX
  5
158
100
AcDbEntity
  8
レイヤー_2
 62
     7
100
AcDbVertex
100
AcDb2dVertex
 10
4.455973
 20
-29.526966
 30
0.0
  0
VERTEX
  5
159
100
AcDbEntity
  8
レイヤー_2
 62
     7
100
AcDbVertex
100
AcDb2dVertex
 10
6.481
 20
-28.008023
 30
0.0
  0
VERTEX
  5
15A
100
AcDbEntity
  8
レイヤー_2
 62
     7
100
AcDbVertex
100
AcDb2dVertex
 10
8.380281
 20
-26.110465
 30
0.0
  0
VERTEX
  5
15B
100
AcDbEntity
  8
レイヤー_2
 62
     7
100
AcDbVertex
100
AcDb2dVertex
 10
10.151749
 20
-23.830845
 30
0.0
  0
VERTEX
  5
15C
100
AcDbEntity
  8
レイヤー_2
 62
     7
100
AcDbVertex
100
AcDb2dVertex
 10
10.912082
 20
-22.692241
 30
0.0
  0
VERTEX
  5
15D
100
AcDbEntity
  8
レイヤー_2
 62
     7
100
AcDbVertex
100
AcDb2dVertex
 10
11.671036
 20
-21.426858
 30
0.0
  0
VERTEX
  5
15E
100
AcDbEntity
  8
レイヤー_2
 62
     7
100
AcDbVertex
100
AcDb2dVertex
 10
12.936075
 20
-18.641153
 30
0.0
  0
VERTEX
  5
15F
100
AcDbEntity
  8
レイヤー_2
 62
     7
100
AcDbVertex
100
AcDb2dVertex
 10
13.442504
 20
-17.250024
 30
0.0
  0
VERTEX
  5
160
100
AcDbEntity
  8
レイヤー_2
 62
     7
100
AcDbVertex
100
AcDb2dVertex
 10
13.948933
 20
-15.730737
 30
0.0
  0
VERTEX
  5
161
100
AcDbEntity
  8
レイヤー_2
 62
     7
100
AcDbVertex
100
AcDb2dVertex
 10
14.329272
 20
-14.21076
 30
0.0
  0
VERTEX
  5
162
100
AcDbEntity
  8
レイヤー_2
 62
     7
100
AcDbVertex
100
AcDb2dVertex
 10
14.708921
 20
-12.567105
 30
0.0
  0
VERTEX
  5
163
100
AcDbEntity
  8
レイヤー_2
 62
     7
100
AcDbVertex
100
AcDb2dVertex
 10
15.213972
 20
-9.274972
 30
0.0
  0
VERTEX
  5
164
100
AcDbEntity
  8
レイヤー_2
 62
     7
100
AcDbVertex
100
AcDb2dVertex
 10
15.341441
 20
-7.631317
 30
0.0
  0
VERTEX
  5
165
100
AcDbEntity
  8
レイヤー_2
 62
     7
100
AcDbVertex
100
AcDb2dVertex
 10
15.467876
 20
-5.856748
 30
0.0
  0
VERTEX
  5
166
100
AcDbEntity
  8
レイヤー_2
 62
     7
100
AcDbVertex
100
AcDb2dVertex
 10
15.467876
 20
-4.213093
 30
0.0
  0
VERTEX
  5
167
100
AcDbEntity
  8
レイヤー_2
 62
     7
100
AcDbVertex
100
AcDb2dVertex
 10
15.08926
 20
1.104411
 30
0.0
  0
VERTEX
  5
168
100
AcDbEntity
  8
レイヤー_2
 62
     7
100
AcDbVertex
100
AcDb2dVertex
 10
14.835012
 20
2.87588
 30
0.0
  0
VERTEX
  5
169
100
AcDbEntity
  8
レイヤー_2
 62
     7
100
AcDbVertex
100
AcDb2dVertex
 10
14.076746
 20
6.418816
 30
0.0
  0
VERTEX
  5
16A
100
AcDbEntity
  8
レイヤー_2
 62
     7
100
AcDbVertex
100
AcDb2dVertex
 10
13.696408
 20
8.065744
 30
0.0
  0
VERTEX
  5
16B
100
AcDbEntity
  8
レイヤー_2
 62
     7
100
AcDbVertex
100
AcDb2dVertex
 10
13.188601
 20
9.837212
 30
0.0
  0
VERTEX
  5
16C
100
AcDbEntity
  8
レイヤー_2
 62
     7
100
AcDbVertex
100
AcDb2dVertex
 10
11.290698
 20
14.77455
 30
0.0
  0
VERTEX
  5
16D
100
AcDbEntity
  8
レイヤー_2
 62
     7
100
AcDbVertex
100
AcDb2dVertex
 10
10.531743
 20
16.419756
 30
0.0
  0
VERTEX
  5
16E
100
AcDbEntity
  8
レイヤー_2
 62
     7
100
AcDbVertex
100
AcDb2dVertex
 10
9.77141
 20
17.938871
 30
0.0
  0
VERTEX
  5
16F
100
AcDbEntity
  8
レイヤー_2
 62
     7
100
AcDbVertex
100
AcDb2dVertex
 10
8.000287
 20
20.9771
 30
0.0
  0
VERTEX
  5
170
100
AcDbEntity
  8
レイヤー_2
 62
     7
100
AcDbVertex
100
AcDb2dVertex
 10
5.974571
 20
23.762804
 30
0.0
  0
VERTEX
  5
171
100
AcDbEntity
  8
レイヤー_2
 62
     7
100
AcDbVertex
100
AcDb2dVertex
 10
3.949544
 20
26.292883
 30
0.0
  0
VERTEX
  5
172
100
AcDbEntity
  8
レイヤー_2
 62
     7
100
AcDbVertex
100
AcDb2dVertex
 10
2.810595
 20
27.432003
 30
0.0
  0
VERTEX
  5
173
100
AcDbEntity
  8
レイヤー_2
 62
     7
100
AcDbVertex
100
AcDb2dVertex
 10
1.669924
 20
28.444517
 30
0.0
  0
VERTEX
  5
174
100
AcDbEntity
  8
レイヤー_2
 62
     7
100
AcDbVertex
100
AcDb2dVertex
 10
0.406607
 20
29.457375
 30
0.0
  0
VERTEX
  5
175
100
AcDbEntity
  8
レイヤー_2
 62
     7
100
AcDbVertex
100
AcDb2dVertex
 10
-0.734064
 20
30.469716
 30
0.0
  0
VERTEX
  5
176
100
AcDbEntity
  8
レイヤー_2
 62
     7
100
AcDbVertex
100
AcDb2dVertex
 10
-1.999103
 20
31.229188
 30
0.0
  0
VERTEX
  5
177
100
AcDbEntity
  8
レイヤー_2
 62
     7
100
AcDbVertex
100
AcDb2dVertex
 10
-3.265864
 20
32.115783
 30
0.0
  0
VERTEX
  5
178
100
AcDbEntity
  8
レイヤー_2
 62
     7
100
AcDbVertex
100
AcDb2dVertex
 10
-5.798526
 20
33.380822
 30
0.0
  0
VERTEX
  5
179
100
AcDbEntity
  8
レイヤー_2
 62
     7
100
AcDbVertex
100
AcDb2dVertex
 10
-6.684949
 20
33.634037
 30
0.0
  0
SEQEND
  5
17A
100
AcDbEntity
  8
レイヤー_2
 62
     7
  0
POLYLINE
  5
11C
100
AcDbEntity
  8
レイヤー_2
 62
     7
100
AcDb2dPolyline
 66
     1
 10
0.0
 20
0.0
 30
0.0
  0
VERTEX
  5
11D
100
AcDbEntity
  8
レイヤー_2
 62
     7
100
AcDbVertex
100
AcDb2dVertex
 10
-11.114998
 20
34.773846
 30
0.0
  0
VERTEX
  5
11E
100
AcDbEntity
  8
レイヤー_2
 62
     7
100
AcDbVertex
100
AcDb2dVertex
 10
-11.493786
 20
34.773846
 30
0.0
  0
VERTEX
  5
11F
100
AcDbEntity
  8
レイヤー_2
 62
     7
100
AcDbVertex
100
AcDb2dVertex
 10
-12.127856
 20
34.141155
 30
0.0
  0
SEQEND
  5
120
100
AcDbEntity
  8
レイヤー_2
 62
     7
  0
POLYLINE
  5
115
100
AcDbEntity
  8
レイヤー_2
 62
     7
100
AcDb2dPolyline
 66
     1
 10
0.0
 20
0.0
 30
0.0
  0
VERTEX
  5
116
100
AcDbEntity
  8
レイヤー_2
 62
     7
100
AcDbVertex
100
AcDb2dVertex
 10
1.291652
 20
36.545315
 30
0.0
  0
VERTEX
  5
117
100
AcDbEntity
  8
レイヤー_2
 62
     7
100
AcDbVertex
100
AcDb2dVertex
 10
1.543833
 20
36.166526
 30
0.0
  0
VERTEX
  5
118
100
AcDbEntity
  8
レイヤー_2
 62
     7
100
AcDbVertex
100
AcDb2dVertex
 10
1.797737
 20
35.532456
 30
0.0
  0
VERTEX
  5
119
100
AcDbEntity
  8
レイヤー_2
 62
     7
100
AcDbVertex
100
AcDb2dVertex
 10
1.923827
 20
35.026889
 30
0.0
  0
VERTEX
  5
11A
100
AcDbEntity
  8
レイヤー_2
 62
     7
100
AcDbVertex
100
AcDb2dVertex
 10
1.923827
 20
34.39368
 30
0.0
  0
SEQEND
  5
11B
100
AcDbEntity
  8
レイヤー_2
 62
     7
  0
POLYLINE
  5
10F
100
AcDbEntity
  8
レイヤー_2
 62
     7
100
AcDb2dPolyline
 66
     1
 10
0.0
 20
0.0
 30
0.0
  0
VERTEX
  5
110
100
AcDbEntity
  8
レイヤー_2
 62
     7
100
AcDbVertex
100
AcDb2dVertex
 10
0.026269
 20
37.430876
 30
0.0
  0
VERTEX
  5
111
100
AcDbEntity
  8
レイヤー_2
 62
     7
100
AcDbVertex
100
AcDb2dVertex
 10
-0.353725
 20
37.430876
 30
0.0
  0
VERTEX
  5
112
100
AcDbEntity
  8
レイヤー_2
 62
     7
100
AcDbVertex
100
AcDb2dVertex
 10
-0.734064
 20
37.305475
 30
0.0
  0
VERTEX
  5
113
100
AcDbEntity
  8
レイヤー_2
 62
     7
100
AcDbVertex
100
AcDb2dVertex
 10
-0.860154
 20
37.177662
 30
0.0
  0
SEQEND
  5
114
100
AcDbEntity
  8
レイヤー_2
 62
     7
  0
POLYLINE
  5
108
100
AcDbEntity
  8
レイヤー_2
 62
     7
100
AcDb2dPolyline
 66
     1
 10
0.0
 20
0.0
 30
0.0
  0
VERTEX
  5
109
100
AcDbEntity
  8
レイヤー_2
 62
     7
100
AcDbVertex
100
AcDb2dVertex
 10
1.291652
 20
36.545315
 30
0.0
  0
VERTEX
  5
10A
100
AcDbEntity
  8
レイヤー_2
 62
     7
100
AcDbVertex
100
AcDb2dVertex
 10
0.911314
 20
36.925481
 30
0.0
  0
VERTEX
  5
10B
100
AcDbEntity
  8
レイヤー_2
 62
     7
100
AcDbVertex
100
AcDb2dVertex
 10
0.53132
 20
37.177662
 30
0.0
  0
VERTEX
  5
10C
100
AcDbEntity
  8
レイヤー_2
 62
     7
100
AcDbVertex
100
AcDb2dVertex
 10
0.152704
 20
37.430876
 30
0.0
  0
VERTEX
  5
10D
100
AcDbEntity
  8
レイヤー_2
 62
     7
100
AcDbVertex
100
AcDb2dVertex
 10
0.026269
 20
37.430876
 30
0.0
  0
SEQEND
  5
10E
100
AcDbEntity
  8
レイヤー_2
 62
     7
  0
POLYLINE
  5
101
100
AcDbEntity
  8
レイヤー_2
 62
     7
100
AcDb2dPolyline
 66
     1
 10
0.0
 20
0.0
 30
0.0
  0
VERTEX
  5
102
100
AcDbEntity
  8
レイヤー_2
 62
     7
100
AcDbVertex
100
AcDb2dVertex
 10
1.291652
 20
32.74813
 30
0.0
  0
VERTEX
  5
103
100
AcDbEntity
  8
レイヤー_2
 62
     7
100
AcDbVertex
100
AcDb2dVertex
 10
1.543833
 20
33.002206
 30
0.0
  0
VERTEX
  5
104
100
AcDbEntity
  8
レイヤー_2
 62
     7
100
AcDbVertex
100
AcDb2dVertex
 10
1.797737
 20
33.380822
 30
0.0
  0
VERTEX
  5
105
100
AcDbEntity
  8
レイヤー_2
 62
     7
100
AcDbVertex
100
AcDb2dVertex
 10
1.923827
 20
33.88794
 30
0.0
  0
VERTEX
  5
106
100
AcDbEntity
  8
レイヤー_2
 62
     7
100
AcDbVertex
100
AcDb2dVertex
 10
1.923827
 20
34.520632
 30
0.0
  0
SEQEND
  5
107
100
AcDbEntity
  8
レイヤー_2
 62
     7
  0
POLYLINE
  5
FB
100
AcDbEntity
  8
レイヤー_2
 62
     7
100
AcDb2dPolyline
 66
     1
 10
0.0
 20
0.0
 30
0.0
  0
VERTEX
  5
FC
100
AcDbEntity
  8
レイヤー_2
 62
     7
100
AcDbVertex
100
AcDb2dVertex
 10
0.406607
 20
32.49526
 30
0.0
  0
VERTEX
  5
FD
100
AcDbEntity
  8
レイヤー_2
 62
     7
100
AcDbVertex
100
AcDb2dVertex
 10
0.911314
 20
32.622212
 30
0.0
  0
VERTEX
  5
FE
100
AcDbEntity
  8
レイヤー_2
 62
     7
100
AcDbVertex
100
AcDb2dVertex
 10
1.165562
 20
32.74813
 30
0.0
  0
VERTEX
  5
FF
100
AcDbEntity
  8
レイヤー_2
 62
     7
100
AcDbVertex
100
AcDb2dVertex
 10
1.291652
 20
32.74813
 30
0.0
  0
SEQEND
  5
100
100
AcDbEntity
  8
レイヤー_2
 62
     7
  0
LINE
  5
FA
100
AcDbEntity
  8
レイヤー_2
 62
     7
100
AcDbLine
 10
1.037404
 20
43.000907
 30
0.0
 11
-1.746922
 21
42.242124
 31
0.0
  0
LINE
  5
F9
100
AcDbEntity
  8
レイヤー_2
 62
     7
100
AcDbLine
 10
0.026269
 20
37.430876
 30
0.0
 11
-12.380381
 21
34.141155
 31
0.0
  0
LINE
  5
F8
100
AcDbEntity
  8
レイヤー_2
 62
     7
100
AcDbLine
 10
-11.240571
 20
29.457375
 30
0.0
 11
-8.076251
 21
30.216674
 31
0.0
  0
LINE
  5
F7
100
AcDbEntity
  8
レイヤー_2
 62
     7
100
AcDbLine
 10
-2.633345
 20
31.734755
 30
0.0
 11
1.291652
 21
32.74813
 31
0.0
  0
LINE
  5
F6
100
AcDbEntity
  8
レイヤー_2
 62
     7
100
AcDbLine
 10
-8.456418
 20
30.343626
 30
0.0
 11
-7.823898
 21
30.216674
 31
0.0
  0
LINE
  5
F5
100
AcDbEntity
  8
レイヤー_2
 62
     7
100
AcDbLine
 10
-6.684949
 20
33.634037
 30
0.0
 11
-7.570683
 21
33.88794
 31
0.0
  0
LINE
  5
F4
100
AcDbEntity
  8
レイヤー_2
 62
     7
100
AcDbLine
 10
-10.227886
 20
34.646895
 30
0.0
 11
-10.735004
 21
34.773846
 31
0.0
  0
POLYLINE
  5
98
100
AcDbEntity
  8
レイヤー_2
 62
     7
100
AcDb2dPolyline
 66
     1
 10
0.0
 20
0.0
 30
0.0
  0
VERTEX
  5
99
100
AcDbEntity
  8
レイヤー_2
 62
     7
100
AcDbVertex
100
AcDb2dVertex
 10
-7.823898
 20
30.216674
 30
0.0
  0
VERTEX
  5
9A
100
AcDbEntity
  8
レイヤー_2
 62
     7
100
AcDbVertex
100
AcDb2dVertex
 10
-7.063565
 20
29.837541
 30
0.0
  0
VERTEX
  5
9B
100
AcDbEntity
  8
レイヤー_2
 62
     7
100
AcDbVertex
100
AcDb2dVertex
 10
-5.924617
 20
29.331112
 30
0.0
  0
VERTEX
  5
9C
100
AcDbEntity
  8
レイヤー_2
 62
     7
100
AcDbVertex
100
AcDb2dVertex
 10
-4.785668
 20
28.698593
 30
0.0
  0
VERTEX
  5
9D
100
AcDbEntity
  8
レイヤー_2
 62
     7
100
AcDbVertex
100
AcDb2dVertex
 10
-2.50691
 20
27.179478
 30
0.0
  0
VERTEX
  5
9E
100
AcDbEntity
  8
レイヤー_2
 62
     7
100
AcDbVertex
100
AcDb2dVertex
 10
-1.494396
 20
26.292883
 30
0.0
  0
VERTEX
  5
9F
100
AcDbEntity
  8
レイヤー_2
 62
     7
100
AcDbVertex
100
AcDb2dVertex
 10
-0.353725
 20
25.280369
 30
0.0
  0
VERTEX
  5
A0
100
AcDbEntity
  8
レイヤー_2
 62
     7
100
AcDbVertex
100
AcDb2dVertex
 10
0.659133
 20
24.267511
 30
0.0
  0
VERTEX
  5
A1
100
AcDbEntity
  8
レイヤー_2
 62
     7
100
AcDbVertex
100
AcDb2dVertex
 10
2.682782
 20
21.989614
 30
0.0
  0
VERTEX
  5
A2
100
AcDbEntity
  8
レイヤー_2
 62
     7
100
AcDbVertex
100
AcDb2dVertex
 10
3.570928
 20
20.849287
 30
0.0
  0
VERTEX
  5
A3
100
AcDbEntity
  8
レイヤー_2
 62
     7
100
AcDbVertex
100
AcDb2dVertex
 10
4.455973
 20
19.457985
 30
0.0
  0
VERTEX
  5
A4
100
AcDbEntity
  8
レイヤー_2
 62
     7
100
AcDbVertex
100
AcDb2dVertex
 10
5.342396
 20
18.191396
 30
0.0
  0
VERTEX
  5
A5
100
AcDbEntity
  8
レイヤー_2
 62
     7
100
AcDbVertex
100
AcDb2dVertex
 10
6.101006
 20
16.800094
 30
0.0
  0
VERTEX
  5
A6
100
AcDbEntity
  8
レイヤー_2
 62
     7
100
AcDbVertex
100
AcDb2dVertex
 10
6.859616
 20
15.280979
 30
0.0
  0
VERTEX
  5
A7
100
AcDbEntity
  8
レイヤー_2
 62
     7
100
AcDbVertex
100
AcDb2dVertex
 10
7.619948
 20
13.888127
 30
0.0
  0
VERTEX
  5
A8
100
AcDbEntity
  8
レイヤー_2
 62
     7
100
AcDbVertex
100
AcDb2dVertex
 10
8.252812
 20
12.369012
 30
0.0
  0
VERTEX
  5
A9
100
AcDbEntity
  8
レイヤー_2
 62
     7
100
AcDbVertex
100
AcDb2dVertex
 10
8.885332
 20
10.723807
 30
0.0
  0
VERTEX
  5
AA
100
AcDbEntity
  8
レイヤー_2
 62
     7
100
AcDbVertex
100
AcDb2dVertex
 10
9.519574
 20
9.20452
 30
0.0
  0
VERTEX
  5
AB
100
AcDbEntity
  8
レイヤー_2
 62
     7
100
AcDbVertex
100
AcDb2dVertex
 10
10.023936
 20
7.559315
 30
0.0
  0
VERTEX
  5
AC
100
AcDbEntity
  8
レイヤー_2
 62
     7
100
AcDbVertex
100
AcDb2dVertex
 10
10.784269
 20
4.268904
 30
0.0
  0
VERTEX
  5
AD
100
AcDbEntity
  8
レイヤー_2
 62
     7
100
AcDbVertex
100
AcDb2dVertex
 10
11.544601
 20
-0.667057
 30
0.0
  0
VERTEX
  5
AE
100
AcDbEntity
  8
レイヤー_2
 62
     7
100
AcDbVertex
100
AcDb2dVertex
 10
11.671036
 20
-2.31364
 30
0.0
  0
VERTEX
  5
AF
100
AcDbEntity
  8
レイヤー_2
 62
     7
100
AcDbVertex
100
AcDb2dVertex
 10
11.671036
 20
-3.95919
 30
0.0
  0
VERTEX
  5
B0
100
AcDbEntity
  8
レイヤー_2
 62
     7
100
AcDbVertex
100
AcDb2dVertex
 10
11.671036
 20
-5.605946
 30
0.0
  0
VERTEX
  5
B1
100
AcDbEntity
  8
レイヤー_2
 62
     7
100
AcDbVertex
100
AcDb2dVertex
 10
11.671036
 20
-7.123338
 30
0.0
  0
VERTEX
  5
B2
100
AcDbEntity
  8
レイヤー_2
 62
     7
100
AcDbVertex
100
AcDb2dVertex
 10
11.544601
 20
-8.770266
 30
0.0
  0
VERTEX
  5
B3
100
AcDbEntity
  8
レイヤー_2
 62
     7
100
AcDbVertex
100
AcDb2dVertex
 10
11.036794
 20
-11.806773
 30
0.0
  0
VERTEX
  5
B4
100
AcDbEntity
  8
レイヤー_2
 62
     7
100
AcDbVertex
100
AcDb2dVertex
 10
10.784269
 20
-13.199625
 30
0.0
  0
VERTEX
  5
B5
100
AcDbEntity
  8
レイヤー_2
 62
     7
100
AcDbVertex
100
AcDb2dVertex
 10
10.404274
 20
-14.592649
 30
0.0
  0
VERTEX
  5
B6
100
AcDbEntity
  8
レイヤー_2
 62
     7
100
AcDbVertex
100
AcDb2dVertex
 10
9.391761
 20
-17.374736
 30
0.0
  0
VERTEX
  5
B7
100
AcDbEntity
  8
レイヤー_2
 62
     7
100
AcDbVertex
100
AcDb2dVertex
 10
8.885332
 20
-18.641153
 30
0.0
  0
VERTEX
  5
B8
100
AcDbEntity
  8
レイヤー_2
 62
     7
100
AcDbVertex
100
AcDb2dVertex
 10
7.619948
 20
-20.920428
 30
0.0
  0
VERTEX
  5
B9
100
AcDbEntity
  8
レイヤー_2
 62
     7
100
AcDbVertex
100
AcDb2dVertex
 10
6.859616
 20
-21.931909
 30
0.0
  0
VERTEX
  5
BA
100
AcDbEntity
  8
レイヤー_2
 62
     7
100
AcDbVertex
100
AcDb2dVertex
 10
6.227096
 20
-22.946145
 30
0.0
  0
VERTEX
  5
BB
100
AcDbEntity
  8
レイヤー_2
 62
     7
100
AcDbVertex
100
AcDb2dVertex
 10
5.342396
 20
-23.830845
 30
0.0
  0
VERTEX
  5
BC
100
AcDbEntity
  8
レイヤー_2
 62
     7
100
AcDbVertex
100
AcDb2dVertex
 10
4.582063
 20
-24.717268
 30
0.0
  0
VERTEX
  5
BD
100
AcDbEntity
  8
レイヤー_2
 62
     7
100
AcDbVertex
100
AcDb2dVertex
 10
3.69564
 20
-25.477601
 30
0.0
  0
VERTEX
  5
BE
100
AcDbEntity
  8
レイヤー_2
 62
     7
100
AcDbVertex
100
AcDb2dVertex
 10
2.682782
 20
-26.235177
 30
0.0
  0
VERTEX
  5
BF
100
AcDbEntity
  8
レイヤー_2
 62
     7
100
AcDbVertex
100
AcDb2dVertex
 10
1.797737
 20
-26.742984
 30
0.0
  0
VERTEX
  5
C0
100
AcDbEntity
  8
レイヤー_2
 62
     7
100
AcDbVertex
100
AcDb2dVertex
 10
-0.227635
 20
-27.755498
 30
0.0
  0
VERTEX
  5
C1
100
AcDbEntity
  8
レイヤー_2
 62
     7
100
AcDbVertex
100
AcDb2dVertex
 10
-1.240493
 20
-28.135492
 30
0.0
  0
VERTEX
  5
C2
100
AcDbEntity
  8
レイヤー_2
 62
     7
100
AcDbVertex
100
AcDb2dVertex
 10
-2.379441
 20
-28.388017
 30
0.0
  0
VERTEX
  5
C3
100
AcDbEntity
  8
レイヤー_2
 62
     7
100
AcDbVertex
100
AcDb2dVertex
 10
-3.51839
 20
-28.514108
 30
0.0
  0
VERTEX
  5
C4
100
AcDbEntity
  8
レイヤー_2
 62
     7
100
AcDbVertex
100
AcDb2dVertex
 10
-4.531592
 20
-28.641921
 30
0.0
  0
VERTEX
  5
C5
100
AcDbEntity
  8
レイヤー_2
 62
     7
100
AcDbVertex
100
AcDb2dVertex
 10
-5.672264
 20
-28.641921
 30
0.0
  0
VERTEX
  5
C6
100
AcDbEntity
  8
レイヤー_2
 62
     7
100
AcDbVertex
100
AcDb2dVertex
 10
-6.81104
 20
-28.514108
 30
0.0
  0
VERTEX
  5
C7
100
AcDbEntity
  8
レイヤー_2
 62
     7
100
AcDbVertex
100
AcDb2dVertex
 10
-8.076251
 20
-28.260204
 30
0.0
  0
VERTEX
  5
C8
100
AcDbEntity
  8
レイヤー_2
 62
     7
100
AcDbVertex
100
AcDb2dVertex
 10
-9.2152
 20
-28.008023
 30
0.0
  0
VERTEX
  5
C9
100
AcDbEntity
  8
レイヤー_2
 62
     7
100
AcDbVertex
100
AcDb2dVertex
 10
-10.354837
 20
-27.627685
 30
0.0
  0
VERTEX
  5
CA
100
AcDbEntity
  8
レイヤー_2
 62
     7
100
AcDbVertex
100
AcDb2dVertex
 10
-12.633424
 20
-26.616894
 30
0.0
  0
VERTEX
  5
CB
100
AcDbEntity
  8
レイヤー_2
 62
     7
100
AcDbVertex
100
AcDb2dVertex
 10
-14.912182
 20
-25.350132
 30
0.0
  0
VERTEX
  5
CC
100
AcDbEntity
  8
レイヤー_2
 62
     7
100
AcDbVertex
100
AcDb2dVertex
 10
-16.050958
 20
-24.463365
 30
0.0
  0
VERTEX
  5
CD
100
AcDbEntity
  8
レイヤー_2
 62
     7
100
AcDbVertex
100
AcDb2dVertex
 10
-17.063816
 20
-23.57832
 30
0.0
  0
VERTEX
  5
CE
100
AcDbEntity
  8
レイヤー_2
 62
     7
100
AcDbVertex
100
AcDb2dVertex
 10
-18.203282
 20
-22.692241
 30
0.0
  0
VERTEX
  5
CF
100
AcDbEntity
  8
レイヤー_2
 62
     7
100
AcDbVertex
100
AcDb2dVertex
 10
-19.215451
 20
-21.679383
 30
0.0
  0
VERTEX
  5
D0
100
AcDbEntity
  8
レイヤー_2
 62
     7
100
AcDbVertex
100
AcDb2dVertex
 10
-20.227964
 20
-20.538712
 30
0.0
  0
VERTEX
  5
D1
100
AcDbEntity
  8
レイヤー_2
 62
     7
100
AcDbVertex
100
AcDb2dVertex
 10
-21.113871
 20
-19.401486
 30
0.0
  0
VERTEX
  5
D2
100
AcDbEntity
  8
レイヤー_2
 62
     7
100
AcDbVertex
100
AcDb2dVertex
 10
-22.126384
 20
-18.262537
 30
0.0
  0
VERTEX
  5
D3
100
AcDbEntity
  8
レイヤー_2
 62
     7
100
AcDbVertex
100
AcDb2dVertex
 10
-23.01229
 20
-16.869685
 30
0.0
  0
VERTEX
  5
D4
100
AcDbEntity
  8
レイヤー_2
 62
     7
100
AcDbVertex
100
AcDb2dVertex
 10
-23.898886
 20
-15.602924
 30
0.0
  0
VERTEX
  5
D5
100
AcDbEntity
  8
レイヤー_2
 62
     7
100
AcDbVertex
100
AcDb2dVertex
 10
-25.417828
 20
-12.821181
 30
0.0
  0
VERTEX
  5
D6
100
AcDbEntity
  8
レイヤー_2
 62
     7
100
AcDbVertex
100
AcDb2dVertex
 10
-26.176438
 20
-11.300344
 30
0.0
  0
VERTEX
  5
D7
100
AcDbEntity
  8
レイヤー_2
 62
     7
100
AcDbVertex
100
AcDb2dVertex
 10
-27.4432
 20
-8.263837
 30
0.0
  0
VERTEX
  5
D8
100
AcDbEntity
  8
レイヤー_2
 62
     7
100
AcDbVertex
100
AcDb2dVertex
 10
-28.074858
 20
-6.616909
 30
0.0
  0
VERTEX
  5
D9
100
AcDbEntity
  8
レイヤー_2
 62
     7
100
AcDbVertex
100
AcDb2dVertex
 10
-28.582149
 20
-4.971703
 30
0.0
  0
VERTEX
  5
DA
100
AcDbEntity
  8
レイヤー_2
 62
     7
100
AcDbVertex
100
AcDb2dVertex
 10
-28.961454
 20
-3.326498
 30
0.0
  0
VERTEX
  5
DB
100
AcDbEntity
  8
レイヤー_2
 62
     7
100
AcDbVertex
100
AcDb2dVertex
 10
-29.34162
 20
-1.807555
 30
0.0
  0
VERTEX
  5
DC
100
AcDbEntity
  8
レイヤー_2
 62
     7
100
AcDbVertex
100
AcDb2dVertex
 10
-29.721097
 20
-0.034365
 30
0.0
  0
VERTEX
  5
DD
100
AcDbEntity
  8
レイヤー_2
 62
     7
100
AcDbVertex
100
AcDb2dVertex
 10
-29.974312
 20
1.610841
 30
0.0
  0
VERTEX
  5
DE
100
AcDbEntity
  8
レイヤー_2
 62
     7
100
AcDbVertex
100
AcDb2dVertex
 10
-30.353444
 20
6.546629
 30
0.0
  0
VERTEX
  5
DF
100
AcDbEntity
  8
レイヤー_2
 62
     7
100
AcDbVertex
100
AcDb2dVertex
 10
-30.353444
 20
8.065744
 30
0.0
  0
VERTEX
  5
E0
100
AcDbEntity
  8
レイヤー_2
 62
     7
100
AcDbVertex
100
AcDb2dVertex
 10
-30.101263
 20
11.356154
 30
0.0
  0
VERTEX
  5
E1
100
AcDbEntity
  8
レイヤー_2
 62
     7
100
AcDbVertex
100
AcDb2dVertex
 10
-29.974312
 20
12.875269
 30
0.0
  0
VERTEX
  5
E2
100
AcDbEntity
  8
レイヤー_2
 62
     7
100
AcDbVertex
100
AcDb2dVertex
 10
-29.721097
 20
14.394384
 30
0.0
  0
VERTEX
  5
E3
100
AcDbEntity
  8
レイヤー_2
 62
     7
100
AcDbVertex
100
AcDb2dVertex
 10
-29.467883
 20
15.787236
 30
0.0
  0
VERTEX
  5
E4
100
AcDbEntity
  8
レイヤー_2
 62
     7
100
AcDbVertex
100
AcDb2dVertex
 10
-29.088405
 20
17.180261
 30
0.0
  0
VERTEX
  5
E5
100
AcDbEntity
  8
レイヤー_2
 62
     7
100
AcDbVertex
100
AcDb2dVertex
 10
-28.074858
 20
19.964242
 30
0.0
  0
VERTEX
  5
E6
100
AcDbEntity
  8
レイヤー_2
 62
     7
100
AcDbVertex
100
AcDb2dVertex
 10
-27.569463
 20
21.229454
 30
0.0
  0
VERTEX
  5
E7
100
AcDbEntity
  8
レイヤー_2
 62
     7
100
AcDbVertex
100
AcDb2dVertex
 10
-25.671043
 20
24.647677
 30
0.0
  0
VERTEX
  5
E8
100
AcDbEntity
  8
レイヤー_2
 62
     7
100
AcDbVertex
100
AcDb2dVertex
 10
-24.91071
 20
25.534273
 30
0.0
  0
VERTEX
  5
E9
100
AcDbEntity
  8
レイヤー_2
 62
     7
100
AcDbVertex
100
AcDb2dVertex
 10
-24.024804
 20
26.545408
 30
0.0
  0
VERTEX
  5
EA
100
AcDbEntity
  8
レイヤー_2
 62
     7
100
AcDbVertex
100
AcDb2dVertex
 10
-22.379599
 20
28.190613
 30
0.0
  0
VERTEX
  5
EB
100
AcDbEntity
  8
レイヤー_2
 62
     7
100
AcDbVertex
100
AcDb2dVertex
 10
-21.494037
 20
28.823305
 30
0.0
  0
VERTEX
  5
EC
100
AcDbEntity
  8
レイヤー_2
 62
     7
100
AcDbVertex
100
AcDb2dVertex
 10
-20.481179
 20
29.457375
 30
0.0
  0
VERTEX
  5
ED
100
AcDbEntity
  8
レイヤー_2
 62
     7
100
AcDbVertex
100
AcDb2dVertex
 10
-18.456496
 20
30.469716
 30
0.0
  0
VERTEX
  5
EE
100
AcDbEntity
  8
レイヤー_2
 62
     7
100
AcDbVertex
100
AcDb2dVertex
 10
-17.443983
 20
30.72362
 30
0.0
  0
VERTEX
  5
EF
100
AcDbEntity
  8
レイヤー_2
 62
     7
100
AcDbVertex
100
AcDb2dVertex
 10
-16.304862
 20
31.102236
 30
0.0
  0
VERTEX
  5
F0
100
AcDbEntity
  8
レイヤー_2
 62
     7
100
AcDbVertex
100
AcDb2dVertex
 10
-15.292348
 20
31.229188
 30
0.0
  0
VERTEX
  5
F1
100
AcDbEntity
  8
レイヤー_2
 62
     7
100
AcDbVertex
100
AcDb2dVertex
 10
-14.152538
 20
31.356139
 30
0.0
  0
VERTEX
  5
F2
100
AcDbEntity
  8
レイヤー_2
 62
     7
100
AcDbVertex
100
AcDb2dVertex
 10
-13.392206
 20
31.356139
 30
0.0
  0
SEQEND
  5
F3
100
AcDbEntity
  8
レイヤー_2
 62
     7
  0
POLYLINE
  5
91
100
AcDbEntity
  8
レイヤー_2
 62
     7
100
AcDb2dPolyline
 66
     1
 10
0.0
 20
0.0
 30
0.0
  0
VERTEX
  5
92
100
AcDbEntity
  8
レイヤー_2
 62
     7
100
AcDbVertex
100
AcDb2dVertex
 10
-8.836412
 20
31.609354
 30
0.0
  0
VERTEX
  5
93
100
AcDbEntity
  8
レイヤー_2
 62
     7
100
AcDbVertex
100
AcDb2dVertex
 10
-8.836412
 20
31.229188
 30
0.0
  0
VERTEX
  5
94
100
AcDbEntity
  8
レイヤー_2
 62
     7
100
AcDbVertex
100
AcDb2dVertex
 10
-8.709632
 20
30.849021
 30
0.0
  0
VERTEX
  5
95
100
AcDbEntity
  8
レイヤー_2
 62
     7
100
AcDbVertex
100
AcDb2dVertex
 10
-8.709632
 20
30.469716
 30
0.0
  0
VERTEX
  5
96
100
AcDbEntity
  8
レイヤー_2
 62
     7
100
AcDbVertex
100
AcDb2dVertex
 10
-8.456418
 20
30.343626
 30
0.0
  0
SEQEND
  5
97
100
AcDbEntity
  8
レイヤー_2
 62
     7
  0
POLYLINE
  5
88
100
AcDbEntity
  8
レイヤー_2
 62
     7
100
AcDb2dPolyline
 66
     1
 10
0.0
 20
0.0
 30
0.0
  0
VERTEX
  5
89
100
AcDbEntity
  8
レイヤー_2
 62
     7
100
AcDbVertex
100
AcDb2dVertex
 10
-7.570683
 20
33.88794
 30
0.0
  0
VERTEX
  5
8A
100
AcDbEntity
  8
レイヤー_2
 62
     7
100
AcDbVertex
100
AcDb2dVertex
 10
-7.95085
 20
34.013514
 30
0.0
  0
VERTEX
  5
8B
100
AcDbEntity
  8
レイヤー_2
 62
     7
100
AcDbVertex
100
AcDb2dVertex
 10
-8.329466
 20
33.88794
 30
0.0
  0
VERTEX
  5
8C
100
AcDbEntity
  8
レイヤー_2
 62
     7
100
AcDbVertex
100
AcDb2dVertex
 10
-8.709632
 20
33.127608
 30
0.0
  0
VERTEX
  5
8D
100
AcDbEntity
  8
レイヤー_2
 62
     7
100
AcDbVertex
100
AcDb2dVertex
 10
-8.709632
 20
32.49526
 30
0.0
  0
VERTEX
  5
8E
100
AcDbEntity
  8
レイヤー_2
 62
     7
100
AcDbVertex
100
AcDb2dVertex
 10
-8.836412
 20
31.98797
 30
0.0
  0
VERTEX
  5
8F
100
AcDbEntity
  8
レイヤー_2
 62
     7
100
AcDbVertex
100
AcDb2dVertex
 10
-8.836412
 20
31.609354
 30
0.0
  0
SEQEND
  5
90
100
AcDbEntity
  8
レイヤー_2
 62
     7
  0
LINE
  5
87
100
AcDbEntity
  8
レイヤー_2
 62
     7
100
AcDbLine
 10
-7.95085
 20
30.216674
 30
0.0
 11
-7.823898
 21
30.216674
 31
0.0
  0
POLYLINE
  5
7A
100
AcDbEntity
  8
レイヤー_2
 62
     7
100
AcDb2dPolyline
 66
     1
 10
0.0
 20
0.0
 30
0.0
  0
VERTEX
  5
7B
100
AcDbEntity
  8
レイヤー_2
 62
     7
100
AcDbVertex
100
AcDb2dVertex
 10
-6.684949
 20
33.634037
 30
0.0
  0
VERTEX
  5
7C
100
AcDbEntity
  8
レイヤー_2
 62
     7
100
AcDbVertex
100
AcDb2dVertex
 10
-6.938164
 20
33.760988
 30
0.0
  0
VERTEX
  5
7D
100
AcDbEntity
  8
レイヤー_2
 62
     7
100
AcDbVertex
100
AcDb2dVertex
 10
-7.31678
 20
33.760988
 30
0.0
  0
VERTEX
  5
7E
100
AcDbEntity
  8
レイヤー_2
 62
     7
100
AcDbVertex
100
AcDb2dVertex
 10
-7.696946
 20
33.507774
 30
0.0
  0
VERTEX
  5
7F
100
AcDbEntity
  8
レイヤー_2
 62
     7
100
AcDbVertex
100
AcDb2dVertex
 10
-8.076251
 20
33.002206
 30
0.0
  0
VERTEX
  5
80
100
AcDbEntity
  8
レイヤー_2
 62
     7
100
AcDbVertex
100
AcDb2dVertex
 10
-8.329466
 20
32.49526
 30
0.0
  0
VERTEX
  5
81
100
AcDbEntity
  8
レイヤー_2
 62
     7
100
AcDbVertex
100
AcDb2dVertex
 10
-8.583369
 20
31.862568
 30
0.0
  0
VERTEX
  5
82
100
AcDbEntity
  8
レイヤー_2
 62
     7
100
AcDbVertex
100
AcDb2dVertex
 10
-8.583369
 20
31.356139
 30
0.0
  0
VERTEX
  5
83
100
AcDbEntity
  8
レイヤー_2
 62
     7
100
AcDbVertex
100
AcDb2dVertex
 10
-8.456418
 20
30.72362
 30
0.0
  0
VERTEX
  5
84
100
AcDbEntity
  8
レイヤー_2
 62
     7
100
AcDbVertex
100
AcDb2dVertex
 10
-8.203203
 20
30.343626
 30
0.0
  0
VERTEX
  5
85
100
AcDbEntity
  8
レイヤー_2
 62
     7
100
AcDbVertex
100
AcDb2dVertex
 10
-7.95085
 20
30.216674
 30
0.0
  0
SEQEND
  5
86
100
AcDbEntity
  8
レイヤー_2
 62
     7
  0
LINE
  5
79
100
AcDbEntity
  8
レイヤー_2
 62
     7
100
AcDbLine
 10
4.962402
 20
28.444517
 30
0.0
 11
2.304166
 21
27.81217
 31
0.0
  0
POLYLINE
  5
70
100
AcDbEntity
  8
レイヤー_2
 62
     7
100
AcDb2dPolyline
 66
     1
 10
0.0
 20
0.0
 30
0.0
  0
VERTEX
  5
71
100
AcDbEntity
  8
レイヤー_2
 62
     7
100
AcDbVertex
100
AcDb2dVertex
 10
-11.240571
 20
29.457375
 30
0.0
  0
VERTEX
  5
72
100
AcDbEntity
  8
レイヤー_2
 62
     7
100
AcDbVertex
100
AcDb2dVertex
 10
-10.481789
 20
29.96346
 30
0.0
  0
VERTEX
  5
73
100
AcDbEntity
  8
レイヤー_2
 62
     7
100
AcDbVertex
100
AcDb2dVertex
 10
-10.102484
 20
30.976834
 30
0.0
  0
VERTEX
  5
74
100
AcDbEntity
  8
レイヤー_2
 62
     7
100
AcDbVertex
100
AcDb2dVertex
 10
-10.227886
 20
32.242046
 30
0.0
  0
VERTEX
  5
75
100
AcDbEntity
  8
レイヤー_2
 62
     7
100
AcDbVertex
100
AcDb2dVertex
 10
-10.735004
 20
33.255421
 30
0.0
  0
VERTEX
  5
76
100
AcDbEntity
  8
レイヤー_2
 62
     7
100
AcDbVertex
100
AcDb2dVertex
 10
-11.620738
 20
34.013514
 30
0.0
  0
VERTEX
  5
77
100
AcDbEntity
  8
レイヤー_2
 62
     7
100
AcDbVertex
100
AcDb2dVertex
 10
-12.380381
 20
34.141155
 30
0.0
  0
SEQEND
  5
78
100
AcDbEntity
  8
レイヤー_2
 62
     7
  0
POLYLINE
  5
67
100
AcDbEntity
  8
レイヤー_2
 62
     7
100
AcDb2dPolyline
 66
     1
 10
0.0
 20
0.0
 30
0.0
  0
VERTEX
  5
68
100
AcDbEntity
  8
レイヤー_2
 62
     7
100
AcDbVertex
100
AcDb2dVertex
 10
-12.380381
 20
34.141155
 30
0.0
  0
VERTEX
  5
69
100
AcDbEntity
  8
レイヤー_2
 62
     7
100
AcDbVertex
100
AcDb2dVertex
 10
-13.13968
 20
33.507774
 30
0.0
  0
VERTEX
  5
6A
100
AcDbEntity
  8
レイヤー_2
 62
     7
100
AcDbVertex
100
AcDb2dVertex
 10
-13.519158
 20
32.49526
 30
0.0
  0
VERTEX
  5
6B
100
AcDbEntity
  8
レイヤー_2
 62
     7
100
AcDbVertex
100
AcDb2dVertex
 10
-13.392206
 20
31.356139
 30
0.0
  0
VERTEX
  5
6C
100
AcDbEntity
  8
レイヤー_2
 62
     7
100
AcDbVertex
100
AcDb2dVertex
 10
-12.886638
 20
30.216674
 30
0.0
  0
VERTEX
  5
6D
100
AcDbEntity
  8
レイヤー_2
 62
     7
100
AcDbVertex
100
AcDb2dVertex
 10
-12.127856
 20
29.583638
 30
0.0
  0
VERTEX
  5
6E
100
AcDbEntity
  8
レイヤー_2
 62
     7
100
AcDbVertex
100
AcDb2dVertex
 10
-11.240571
 20
29.457375
 30
0.0
  0
SEQEND
  5
6F
100
AcDbEntity
  8
レイヤー_2
 62
     7
  0
POLYLINE
  5
58
100
AcDbEntity
  8
レイヤー_2
 62
     7
100
AcDb2dPolyline
 66
     1
 10
0.0
 20
0.0
 30
0.0
  0
VERTEX
  5
59
100
AcDbEntity
  8
レイヤー_2
 62
     7
100
AcDbVertex
100
AcDb2dVertex
 10
2.304166
 20
27.81217
 30
0.0
  0
VERTEX
  5
5A
100
AcDbEntity
  8
レイヤー_2
 62
     7
100
AcDbVertex
100
AcDb2dVertex
 10
3.317024
 20
28.318599
 30
0.0
  0
VERTEX
  5
5B
100
AcDbEntity
  8
レイヤー_2
 62
     7
100
AcDbVertex
100
AcDb2dVertex
 10
4.329538
 20
29.331112
 30
0.0
  0
VERTEX
  5
5C
100
AcDbEntity
  8
レイヤー_2
 62
     7
100
AcDbVertex
100
AcDb2dVertex
 10
4.962402
 20
30.72362
 30
0.0
  0
VERTEX
  5
5D
100
AcDbEntity
  8
レイヤー_2
 62
     7
100
AcDbVertex
100
AcDb2dVertex
 10
5.342396
 20
32.49526
 30
0.0
  0
VERTEX
  5
5E
100
AcDbEntity
  8
レイヤー_2
 62
     7
100
AcDbVertex
100
AcDb2dVertex
 10
5.468486
 20
34.39368
 30
0.0
  0
VERTEX
  5
5F
100
AcDbEntity
  8
レイヤー_2
 62
     7
100
AcDbVertex
100
AcDb2dVertex
 10
5.088492
 20
36.2921
 30
0.0
  0
VERTEX
  5
60
100
AcDbEntity
  8
レイヤー_2
 62
     7
100
AcDbVertex
100
AcDb2dVertex
 10
4.455973
 20
38.063568
 30
0.0
  0
VERTEX
  5
61
100
AcDbEntity
  8
レイヤー_2
 62
     7
100
AcDbVertex
100
AcDb2dVertex
 10
3.443115
 20
39.709462
 30
0.0
  0
VERTEX
  5
62
100
AcDbEntity
  8
レイヤー_2
 62
     7
100
AcDbVertex
100
AcDb2dVertex
 10
2.304166
 20
40.976224
 30
0.0
  0
VERTEX
  5
63
100
AcDbEntity
  8
レイヤー_2
 62
     7
100
AcDbVertex
100
AcDb2dVertex
 10
0.911314
 20
41.861958
 30
0.0
  0
VERTEX
  5
64
100
AcDbEntity
  8
レイヤー_2
 62
     7
100
AcDbVertex
100
AcDb2dVertex
 10
-0.481538
 20
42.242124
 30
0.0
  0
VERTEX
  5
65
100
AcDbEntity
  8
レイヤー_2
 62
     7
100
AcDbVertex
100
AcDb2dVertex
 10
-1.746922
 20
42.242124
 30
0.0
  0
SEQEND
  5
66
100
AcDbEntity
  8
レイヤー_2
 62
     7
  0
POLYLINE
  5
50
100
AcDbEntity
  8
レイヤー_2
 62
     7
100
AcDb2dPolyline
 66
     1
 10
0.0
 20
0.0
 30
0.0
  0
VERTEX
  5
51
100
AcDbEntity
  8
レイヤー_2
 62
     7
100
AcDbVertex
100
AcDb2dVertex
 10
-1.746922
 20
42.242124
 30
0.0
  0
VERTEX
  5
52
100
AcDbEntity
  8
レイヤー_2
 62
     7
100
AcDbVertex
100
AcDb2dVertex
 10
-3.011961
 20
41.609433
 30
0.0
  0
VERTEX
  5
53
100
AcDbEntity
  8
レイヤー_2
 62
     7
100
AcDbVertex
100
AcDb2dVertex
 10
-4.025163
 20
40.596058
 30
0.0
  0
VERTEX
  5
54
100
AcDbEntity
  8
レイヤー_2
 62
     7
100
AcDbVertex
100
AcDb2dVertex
 10
-4.659578
 20
39.203033
 30
0.0
  0
VERTEX
  5
55
100
AcDbEntity
  8
レイヤー_2
 62
     7
100
AcDbVertex
100
AcDb2dVertex
 10
-5.038022
 20
37.430876
 30
0.0
  0
VERTEX
  5
56
100
AcDbEntity
  8
レイヤー_2
 62
     7
100
AcDbVertex
100
AcDb2dVertex
 10
-5.164284
 20
36.038885
 30
0.0
  0
SEQEND
  5
57
100
AcDbEntity
  8
レイヤー_2
 62
     7
  0
POLYLINE
  5
41
100
AcDbEntity
  8
レイヤー_2
 62
     7
100
AcDb2dPolyline
 66
     1
 10
0.0
 20
0.0
 30
0.0
  0
VERTEX
  5
42
100
AcDbEntity
  8
レイヤー_2
 62
     7
100
AcDbVertex
100
AcDb2dVertex
 10
4.962402
 20
28.444517
 30
0.0
  0
VERTEX
  5
43
100
AcDbEntity
  8
レイヤー_2
 62
     7
100
AcDbVertex
100
AcDb2dVertex
 10
6.227096
 20
29.077209
 30
0.0
  0
VERTEX
  5
44
100
AcDbEntity
  8
レイヤー_2
 62
     7
100
AcDbVertex
100
AcDb2dVertex
 10
7.113864
 20
30.0911
 30
0.0
  0
VERTEX
  5
45
100
AcDbEntity
  8
レイヤー_2
 62
     7
100
AcDbVertex
100
AcDb2dVertex
 10
7.872474
 20
31.482402
 30
0.0
  0
VERTEX
  5
46
100
AcDbEntity
  8
レイヤー_2
 62
     7
100
AcDbVertex
100
AcDb2dVertex
 10
8.252812
 20
33.255421
 30
0.0
  0
VERTEX
  5
47
100
AcDbEntity
  8
レイヤー_2
 62
     7
100
AcDbVertex
100
AcDb2dVertex
 10
8.252812
 20
35.152979
 30
0.0
  0
VERTEX
  5
48
100
AcDbEntity
  8
レイヤー_2
 62
     7
100
AcDbVertex
100
AcDb2dVertex
 10
8.000287
 20
37.05226
 30
0.0
  0
VERTEX
  5
49
100
AcDbEntity
  8
レイヤー_2
 62
     7
100
AcDbVertex
100
AcDb2dVertex
 10
7.239954
 20
38.823901
 30
0.0
  0
VERTEX
  5
4A
100
AcDbEntity
  8
レイヤー_2
 62
     7
100
AcDbVertex
100
AcDb2dVertex
 10
6.354909
 20
40.469795
 30
0.0
  0
VERTEX
  5
4B
100
AcDbEntity
  8
レイヤー_2
 62
     7
100
AcDbVertex
100
AcDb2dVertex
 10
5.088492
 20
41.735006
 30
0.0
  0
VERTEX
  5
4C
100
AcDbEntity
  8
レイヤー_2
 62
     7
100
AcDbVertex
100
AcDb2dVertex
 10
3.823109
 20
42.62074
 30
0.0
  0
VERTEX
  5
4D
100
AcDbEntity
  8
レイヤー_2
 62
     7
100
AcDbVertex
100
AcDb2dVertex
 10
2.430256
 20
43.000907
 30
0.0
  0
VERTEX
  5
4E
100
AcDbEntity
  8
レイヤー_2
 62
     7
100
AcDbVertex
100
AcDb2dVertex
 10
1.037404
 20
43.000907
 30
0.0
  0
SEQEND
  5
4F
100
AcDbEntity
  8
レイヤー_2
 62
     7
  0
LINE
  5
40
100
AcDbEntity
  8
レイヤー_2
 62
     7
100
AcDbLine
 10
1.037404
 20
43.000907
 30
0.0
 11
-1.746922
 21
42.242124
 31
0.0
  0
LINE
  5
3F
100
AcDbEntity
  8
レイヤー_2
 62
     7
100
AcDbLine
 10
3.062776
 20
45.152541
 30
0.0
 11
3.062776
 21
74.518707
 31
0.0
  0
LINE
  5
3E
100
AcDbEntity
  8
レイヤー_2
 62
     7
100
AcDbLine
 10
-11.873952
 20
70.089348
 30
0.0
 11
-11.873952
 21
36.545315
 31
0.0
  0
LINE
  5
3D
100
AcDbEntity
  8
レイヤー_2
 62
     7
100
AcDbLine
 10
-10.227886
 20
70.214749
 30
0.0
 11
-13.392206
 21
67.050429
 31
0.0
  0
LINE
  5
3C
100
AcDbEntity
  8
レイヤー_2
 62
     7
100
AcDbLine
 10
4.708154
 20
73.126027
 30
0.0
 11
-13.392206
 21
68.31633
 31
0.0
  0
LINE
  5
3B
100
AcDbEntity
  8
レイヤー_2
 62
     7
100
AcDbLine
 10
4.708154
 20
74.264804
 30
0.0
 11
1.291652
 21
70.847441
 31
0.0
  0
LINE
  5
3A
100
AcDbEntity
  8
レイヤー_2
 62
     7
100
AcDbLine
 10
7.367767
 20
27.179478
 30
0.0
 11
35.340565
 21
19.710339
 31
0.0
  0
LINE
  5
39
100
AcDbEntity
  8
レイヤー_2
 62
     7
100
AcDbLine
 10
34.075181
 20
36.925481
 30
0.0
 11
34.075181
 21
-10.795637
 31
0.0
  0
LINE
  5
38
100
AcDbEntity
  8
レイヤー_2
 62
     7
100
AcDbLine
 10
35.340565
 20
32.622212
 30
0.0
 11
34.075181
 21
34.773846
 31
0.0
  0
LINE
  5
37
100
AcDbEntity
  8
レイヤー_2
 62
     7
100
AcDbLine
 10
34.075181
 20
34.773846
 30
0.0
 11
32.936233
 21
36.799218
 31
0.0
  0
LINE
  5
36
100
AcDbEntity
  8
レイヤー_2
 62
     7
100
AcDbLine
 10
35.214474
 20
17.938871
 30
0.0
 11
33.949091
 21
20.090505
 31
0.0
  0
LINE
  5
35
100
AcDbEntity
  8
レイヤー_2
 62
     7
100
AcDbLine
 10
33.949091
 20
20.090505
 30
0.0
 11
32.808419
 21
22.115877
 31
0.0
  0
LINE
  5
34
100
AcDbEntity
  8
レイヤー_2
 62
     7
100
AcDbLine
 10
7.367767
 20
41.861958
 30
0.0
 11
36.100897
 21
34.141155
 31
0.0
  0
LINE
  5
33
100
AcDbEntity
  8
レイヤー_2
 62
     7
100
AcDbLine
 10
15.467876
 20
-21.931909
 30
0.0
 11
15.467876
 21
-77.119927
 31
0.0
  0
LINE
  5
32
100
AcDbEntity
  8
レイヤー_2
 62
     7
100
AcDbLine
 10
-34.530795
 20
-8.770266
 30
0.0
 11
-34.530795
 21
-63.703691
 31
0.0
  0
LINE
  5
31
100
AcDbEntity
  8
レイヤー_2
 62
     7
100
AcDbLine
 10
-32.886106
 20
-60.411903
 30
0.0
 11
-36.050599
 21
-63.575878
 31
0.0
  0
LINE
  5
30
100
AcDbEntity
  8
レイヤー_2
 62
     7
100
AcDbLine
 10
16.986818
 20
-73.829516
 30
0.0
 11
13.822843
 21
-76.993836
 31
0.0
  0
LINE
  5
2F
100
AcDbEntity
  8
レイヤー_2
 62
     7
100
AcDbLine
 10
-35.796523
 20
-61.550851
 30
0.0
 11
16.860728
 21
-75.727075
 31
0.0
  0
MTEXT
  5
2E
100
AcDbEntity
  8
レイヤー_2
 62
     7
100
AcDbMText
 10
-8.430924
 20
76.345214
 30
0.0
 40
4.023961
 41
0.0
 71
     1
 72
     2
  1
\fGothicBBB Medium|b0|i0|c128;\H4.0240;\W1.03;\C7;\U+0035\U+0035
  7
STD
210
0.0
220
0.0
230
1.0
 73
     1
 44
1.0
  0
MTEXT
  5
2D
100
AcDbEntity
  8
レイヤー_2
 62
     7
100
AcDbMText
 10
28.653899
 20
0.174408
 30
0.0
 40
4.301281
 41
0.0
 71
     1
 72
     2
  1
\fGothicBBB Medium|b0|i0|c128;\H4.3013;\W0.97;\C7;\U+03C6\U+0034\U+0030
  7
STD
210
0.0
220
0.0
230
1.0
 11
0.0
 21
1.0
 31
0.0
 73
     1
 44
1.0
  0
MTEXT
  5
2C
100
AcDbEntity
  8
レイヤー_2
 62
     7
100
AcDbMText
 10
-17.301356
 20
-60.375093
 30
0.0
 40
4.064126
 41
0.0
 71
     1
 72
     2
  1
\fGothicBBB Medium|b0|i0|c128;\H4.0641;\W1.02;\C7;\U+03C6\U+0031\U+0038\U+0035
  7
STD
210
0.0
220
0.0
230
1.0
 73
     1
 44
1.0
  0
ENDBLK
  5
17B
100
AcDbEntity
  8
レイヤー_2
100
AcDbBlockEnd
  0
ENDSEC
  0
SECTION
  2
ENTITIES
  0
MTEXT
  5
196
100
AcDbEntity
  8
レイヤー_1
 62
     7
100
AcDbMText
 10
47.801389
 20
54.121991
 30
0.0
 40
3.674768
 41
0.0
 71
     1
 72
     2
  1
\fOsaka|b0|i0|c128;\H3.6748;\C7;\U+0038\U+0033\U+002E\U+0032\U+0030\U+0030\U+002E\U+0039\U+0037\U+0039\U+002E\U+0058\U+0058
  7
STD
210
0.0
220
0.0
230
1.0
 73
     1
 44
1.0
  0
MTEXT
  5
195
100
AcDbEntity
  8
レイヤー_1
 62
     7
100
AcDbMText
 10
39.6875
 20
56.608234
 30
0.0
 40
1.574901
 41
0.0
 71
     1
 72
     2
  1
\fOsaka|b0|i0|c128;\H1.5749;\C7;\U+54C1\U+756A
  7
STD
210
0.0
220
0.0
230
1.0
 73
     1
 44
1.0
  0
MTEXT
  5
194
100
AcDbEntity
  8
レイヤー_1
 62
     7
100
AcDbMText
 10
47.801389
 20
32.959208
 30
0.0
 40
3.149486
 41
0.0
 71
     1
 72
     2
  1
\fOsaka|b0|i0|c128;\H3.1495;\C7;\U+30BF\U+30AA\U+30EB\U+30EA\U+30F3\U+30B0
  7
STD
210
0.0
220
0.0
230
1.0
 73
     1
 44
1.0
  0
MTEXT
  5
193
100
AcDbEntity
  8
レイヤー_1
 62
     7
100
AcDbMText
 10
39.6875
 20
35.441567
 30
0.0
 40
1.574901
 41
0.0
 71
     1
 72
     2
  1
\fOsaka|b0|i0|c128;\H1.5749;\C7;\U+54C1
  7
STD
210
0.0
220
0.0
230
1.0
 73
     1
 44
1.0
  0
MTEXT
  5
192
100
AcDbEntity
  8
レイヤー_1
 62
     7
100
AcDbMText
 10
47.801389
 20
42.954808
 30
0.0
 40
3.149486
 41
0.0
 71
     1
 72
     2
  1
\fOsaka|b0|i0|c128;\H3.1495;\C7;\U+004D\U+0045\U+0054\U+0041\U+002E\U+0030\U+0032
  7
STD
210
0.0
220
0.0
230
1.0
 73
     1
 44
1.0
  0
POLYLINE
  5
18C
100
AcDbEntity
  8
レイヤー_1
 62
     7
100
AcDb2dPolyline
 66
     1
 10
0.0
 20
0.0
 30
0.0
 70
     1
  0
VERTEX
  5
18D
100
AcDbEntity
  8
レイヤー_1
 62
     7
100
AcDbVertex
100
AcDb2dVertex
 10
23.636111
 20
26.105556
 30
0.0
  0
VERTEX
  5
18E
100
AcDbEntity
  8
レイヤー_1
 62
     7
100
AcDbVertex
100
AcDb2dVertex
 10
198.613889
 20
26.105556
 30
0.0
  0
VERTEX
  5
18F
100
AcDbEntity
  8
レイヤー_1
 62
     7
100
AcDbVertex
100
AcDb2dVertex
 10
198.613889
 20
276.577778
 30
0.0
  0
VERTEX
  5
190
100
AcDbEntity
  8
レイヤー_1
 62
     7
100
AcDbVertex
100
AcDb2dVertex
 10
23.636111
 20
276.577778
 30
0.0
  0
SEQEND
  5
191
100
AcDbEntity
  8
レイヤー_1
 62
     7
  0
LINE
  5
18B
100
AcDbEntity
  8
レイヤー_1
 62
     7
100
AcDbLine
 10
170.568056
 20
36.5125
 30
0.0
 11
27.693056
 21
36.5125
 31
0.0
  0
LINE
  5
18A
100
AcDbEntity
  8
レイヤー_1
 62
     7
100
AcDbLine
 10
170.568056
 20
47.095833
 30
0.0
 11
27.693056
 21
47.095833
 31
0.0
  0
LINE
  5
189
100
AcDbEntity
  8
レイヤー_1
 62
     7
100
AcDbLine
 10
23.636111
 20
57.855556
 30
0.0
 11
198.261111
 21
57.855556
 31
0.0
  0
LINE
  5
188
100
AcDbEntity
  8
レイヤー_1
 62
     7
100
AcDbLine
 10
170.744444
 20
57.855556
 30
0.0
 11
170.744444
 21
26.458333
 31
0.0
  0
MTEXT
  5
187
100
AcDbEntity
  8
レイヤー_1
 62
     7
100
AcDbMText
 10
33.3375
 20
46.024901
 30
0.0
 40
1.574901
 41
0.0
 71
     1
 72
     2
  1
\fOsaka|b0|i0|c128;\H1.5749;\C7;\U+30B7\U+30EA\U+30FC\U+30BA
  7
STD
210
0.0
220
0.0
230
1.0
 73
     1
 44
1.0
  0
MTEXT
  5
186
100
AcDbEntity
  8
レイヤー_1
 62
     7
100
AcDbMText
 10
174.095833
 20
54.655042
 30
0.0
 40
3.149486
 41
0.0
 71
     1
 72
     2
  1
\fHeiseiKakuGothicCAN W9|b0|i0|c128;\H3.1495;\C253;\U+5BF8\U+6CD5\U+53C2\U+8003\U+56F3
  7
STD
210
0.0
220
0.0
230
1.0
 73
     1
 44
1.0
  0
LINE
  5
185
100
AcDbEntity
  8
レイヤー_1
 62
     7
100
AcDbLine
 10
27.516667
 20
57.855556
 30
0.0
 11
27.516667
 21
26.458333
 31
0.0
  0
IMAGE
  5
182
100
AcDbEntity
  8
レイヤー_1
 62
     7
 92
        0
100
AcDbRasterImage
 90
        0
 10
172.155556
 20
28.574682
 30
0.0
 11
0.352531
 21
0.0
 31
0.0
 12
0.0
 22
0.352813
 32
0.0
 13
70.0
 23
9.0
340
184
 70
     7
280
     0
281
    50
282
    50
283
     0
360
183
 71
     1
 91
        2
 14
-0.5
 24
-0.5
 14
69.5
 24
8.5
  0
IMAGE
  5
17F
100
AcDbEntity
  8
レイヤー_1
 62
     7
 92
        0
100
AcDbRasterImage
 90
        0
 10
172.155556
 20
28.574682
 30
0.0
 11
0.352531
 21
0.0
 31
0.0
 12
0.0
 22
0.352813
 32
0.0
 13
70.0
 23
9.0
340
181
 70
     7
280
     0
281
    50
282
    50
283
     0
360
180
 71
     1
 91
        2
 14
-0.5
 24
-0.5
 14
69.5
 24
8.5
  0
MTEXT
  5
17E
100
AcDbEntity
  8
レイヤー_1
 62
     7
100
AcDbMText
 10
113.418056
 20
46.024901
 30
0.0
 40
1.574901
 41
0.0
 71
     1
 72
     2
  1
\fOsaka|b0|i0|c128;\H1.5749;\C7;\U+4ED5\U+4E0A
  7
STD
210
0.0
220
0.0
230
1.0
 73
     1
 44
1.0
  0
MTEXT
  5
17D
100
AcDbEntity
  8
レイヤー_1
 62
     7
100
AcDbMText
 10
124.765511
 20
40.968165
 30
0.0
 40
1.162843
 41
0.0
 71
     1
 72
     2
  1
\fOsaka|b0|i0|c128;\H1.1628;\W2.71;\C7;
  7
STD
210
0.0
220
0.0
230
1.0
 73
     1
 44
1.0
  0
INSERT
  5
2A
100
AcDbEntity
  8
レイヤー_2
 62
     7
100
AcDbBlockReference
  2
AI9-BLK1
 10
109.773058
 20
163.51672
 30
0.0
  0
ENDSEC
  0
SECTION
  2
OBJECTS
  0
DICTIONARY
  5
19
100
AcDbDictionary
280
     0
281
     1
  3
ACAD_GROUP
350
1A
  3
ACAD_MLINESTYLE
350
1B
  3
ACAD_LAYOUT
350
1E
  3
ACAD_PLOTSETTINGS
350
22
  3
ACAD_PLOTSTYLENAME
350
1F
  3
ACAD_WIPEOUT_VARS
350
23
  0
DICTIONARY
  5
1A
102
{ACAD_REACTORS
330
19
102
}
100
AcDbDictionary
280
     0
281
     1
  0
DICTIONARY
  5
1B
102
{ACAD_REACTORS
330
19
102
}
100
AcDbDictionary
280
     0
281
     1
  3
Standard
350
1C
  0
MLINESTYLE
  5
1C
102
{ACAD_REACTORS
330
1B
102
}
100
AcDbMlineStyle
  2
Standard
 70
     0
  3

 62
     0
 51
90.0
 52
90.0
 71
     2
 49
0.5
 62
   256
  6
ByLayer
 49
-0.5
 62
   256
  6
ByLayer
  0
ACDBDICTIONARYWDFLT
  5
1F
102
{ACAD_REACTORS
330
19
102
}
100
AcDbDictionary
281
     1
  3
Normal
350
1D
100
AcDbDictionaryWithDefault
340
1D
  0
ACDBPLACEHOLDER
  5
1D
102
{ACAD_REACTORS
330
1F
102
}
  0
LAYOUT
  5
20
102
{ACAD_REACTORS
330
1E
102
}
100
AcDbPlotSettings
  1

  2

  4

  6

 40
0.0
 41
0.0
 42
0.0
 43
0.0
 44
0.0
 45
0.0
 46
0.0
 47
0.0
 48
0.0
 49
0.0
140
0.0
141
0.0
142
1.0
143
1.0
 70
  1024
 72
     0
 73
     0
 74
     0
  7

 75
     0
147
1.0
148
0.0
149
0.0
100
AcDbLayout
  1
Model
 70
     0
 71
     0
 10
0.0
 20
0.0
 11
0.0
 21
0.0
 12
0.0
 22
0.0
 32
0.0
 14
0.0
 24
0.0
 34
0.0
 15
0.0
 25
0.0
 35
0.0
146
0.0
 13
0.0
 23
0.0
 33
0.0
 16
0.0
 26
0.0
 36
0.0
 17
0.0
 27
0.0
 37
0.0
 76
     0
330
A
331
0
345
0
346
0
  0
LAYOUT
  5
21
102
{ACAD_REACTORS
330
1E
102
}
100
AcDbPlotSettings
  1

  2

  4

  6

 40
0.0
 41
0.0
 42
0.0
 43
0.0
 44
0.0
 45
0.0
 46
0.0
 47
0.0
 48
0.0
 49
0.0
140
0.0
141
0.0
142
1.0
143
1.0
 70
     0
 72
     0
 73
     0
 74
     0
  7

 75
     0
147
1.0
148
0.0
149
0.0
100
AcDbLayout
  1
Layout1
 70
     0
 71
     0
 10
0.0
 20
0.0
 11
0.0
 21
0.0
 12
0.0
 22
0.0
 32
0.0
 14
0.0
 24
0.0
 34
0.0
 15
0.0
 25
0.0
 35
0.0
146
0.0
 13
0.0
 23
0.0
 33
0.0
 16
0.0
 26
0.0
 36
0.0
 17
0.0
 27
0.0
 37
0.0
 76
     0
330
B
331
0
345
0
346
0
  0
DICTIONARY
  5
1E
102
{ACAD_REACTORS
330
19
102
}
100
AcDbDictionary
280
     0
281
     1
  3
Layout1
350
21
  3
Model
350
20
  0
DICTIONARY
  5
22
102
{ACAD_REACTORS
330
19
102
}
100
AcDbDictionary
280
     0
281
     1
  0
WIPEOUTVARIABLES
  5
23
100
AcDbWipeoutVariables
 70
     1
  0
IMAGEDEF_REACTOR
  5
180
100
AcDbRasterImageDefReactor
 90
        2
330
17F
  0
IMAGEDEF
  5
181
100
AcDbRasterImageDef
 90
        0
  1
\\192.168.6.3\free(2009_04\一過性\DB_WEB用DXF_丸茂\Meta.02\83200979_1.bmp
 10
70.0
 20
9.0
 11
0.352778
 21
0.352778
280
     1
281
     0
  0
IMAGEDEF_REACTOR
  5
183
100
AcDbRasterImageDefReactor
 90
        2
330
182
  0
IMAGEDEF
  5
184
100
AcDbRasterImageDef
 90
        0
  1
\\192.168.6.3\free(2009_04\一過性\DB_WEB用DXF_丸茂\Meta.02\83200979_2.bmp
 10
70.0
 20
9.0
 11
0.352778
 21
0.352778
280
     1
281
     0
  0
ENDSEC
  0
EOF
