  0
SECTION
  2
HEADER
  9
$ACADVER
  1
AC1015
  9
$ACADMAINTVER
 70
     6
  9
$DWGCODEPAGE
  3
ANSI_932
  9
$INSBASE
 10
0.0
 20
0.0
 30
0.0
  9
$EXTMIN
 10
23.283333
 20
25.752778
 30
1.000000E+20
  9
$EXTMAX
 10
198.966667
 20
276.930556
 30
-1.000000E+20
  9
$LIMMIN
 10
23.283333
 20
25.752778
  9
$LIMMAX
 10
198.966667
 20
276.930556
  9
$ORTHOMODE
 70
     0
  9
$REGENMODE
 70
     1
  9
$FILLMODE
 70
     1
  9
$QTEXTMODE
 70
     0
  9
$MIRRTEXT
 70
     1
  9
$LTSCALE
 40
1.0
  9
$ATTMODE
 70
     1
  9
$TEXTSIZE
 40
0.2
  9
$TRACEWID
 40
0.05
  9
$TEXTSTYLE
  7
Standard
  9
$CLAYER
  8
0
  9
$CELTYPE
  6
Continuous
  9
$CECOLOR
 62
   256
  9
$CELTSCALE
 40
1.0
  9
$DISPSILH
 70
     0
  9
$DIMSCALE
 40
1.0
  9
$DIMASZ
 40
0.18
  9
$DIMEXO
 40
0.0625
  9
$DIMDLI
 40
0.38
  9
$DIMRND
 40
0.0
  9
$DIMDLE
 40
0.0
  9
$DIMEXE
 40
0.18
  9
$DIMTP
 40
0.0
  9
$DIMTM
 40
0.0
  9
$DIMTXT
 40
0.18
  9
$DIMCEN
 40
0.09
  9
$DIMTSZ
 40
0.0
  9
$DIMTOL
 70
     0
  9
$DIMLIM
 70
     0
  9
$DIMTIH
 70
     1
  9
$DIMTOH
 70
     1
  9
$DIMSE1
 70
     0
  9
$DIMSE2
 70
     0
  9
$DIMTAD
 70
     0
  9
$DIMZIN
 70
     0
  9
$DIMBLK
  1

  9
$DIMASO
 70
     1
  9
$DIMSHO
 70
     1
  9
$DIMPOST
  1

  9
$DIMAPOST
  1

  9
$DIMALT
 70
     0
  9
$DIMALTD
 70
     2
  9
$DIMALTF
 40
25.4
  9
$DIMLFAC
 40
1.0
  9
$DIMTOFL
 70
     0
  9
$DIMTVP
 40
0.0
  9
$DIMTIX
 70
     0
  9
$DIMSOXD
 70
     0
  9
$DIMSAH
 70
     0
  9
$DIMBLK1
  1

  9
$DIMBLK2
  1

  9
$DIMSTYLE
  2
Standard
  9
$DIMCLRD
 70
     0
  9
$DIMCLRE
 70
     0
  9
$DIMCLRT
 70
     0
  9
$DIMTFAC
 40
1.0
  9
$DIMGAP
 40
0.09
  9
$DIMJUST
 70
     0
  9
$DIMSD1
 70
     0
  9
$DIMSD2
 70
     0
  9
$DIMTOLJ
 70
     1
  9
$DIMTZIN
 70
     0
  9
$DIMALTZ
 70
     0
  9
$DIMALTTZ
 70
     0
  9
$DIMUPT
 70
     0
  9
$DIMDEC
 70
     4
  9
$DIMTDEC
 70
     4
  9
$DIMALTU
 70
     2
  9
$DIMALTTD
 70
     2
  9
$DIMTXSTY
  7
Standard
  9
$DIMAUNIT
 70
     0
  9
$DIMADEC
 70
     0
  9
$DIMALTRND
 40
0.0
  9
$DIMAZIN
 70
     0
  9
$DIMDSEP
 70
     0
  9
$DIMATFIT
 70
     3
  9
$DIMFRAC
 70
     0
  9
$DIMLDRBLK
  1

  9
$DIMLUNIT
 70
     2
  9
$DIMLWD
 70
     0
  9
$DIMLWE
 70
     0
  9
$DIMTMOVE
 70
     0
  9
$LUNITS
 70
     2
  9
$LUPREC
 70
     4
  9
$SKETCHINC
 40
0.1
  9
$FILLETRAD
 40
0.0
  9
$AUNITS
 70
     0
  9
$AUPREC
 70
     0
  9
$MENU
  1
acad
  9
$ELEVATION
 40
0.0
  9
$PELEVATION
 40
0.0
  9
$THICKNESS
 40
0.0
  9
$LIMCHECK
 70
     0
  9
$CHAMFERA
 40
0.0
  9
$CHAMFERB
 40
0.0
  9
$CHAMFERC
 40
0.0
  9
$CHAMFERD
 40
0.0
  9
$SKPOLY
 70
     0
  9
$TDCREATE
 40
0.000000000
  9
$TDUCREATE
 40
0.000000000
  9
$TDUPDATE
 40
0.000000000
  9
$TDUUPDATE
 40
0.000000000
  9
$TDINDWG
 40
0.0000000000
  9
$TDUSRTIMER
 40
0.0000000000
  9
$USRTIMER
 70
     1
  9
$ANGBASE
 50
0.0
  9
$ANGDIR
 70
     0
  9
$PDMODE
 70
     0
  9
$PDSIZE
 40
0.0
  9
$PLINEWID
 40
0.0
  9
$SPLFRAME
 70
     0
  9
$SPLINETYPE
 70
     6
  9
$SPLINESEGS
 70
     8
  9
$HANDSEED
  5
A3
  9
$SURFTAB1
 70
     6
  9
$SURFTAB2
 70
     6
  9
$SURFTYPE
 70
     6
  9
$SURFU
 70
     6
  9
$SURFV
 70
     6
  9
$UCSBASE
  2

  9
$UCSNAME
  2

  9
$UCSORG
 10
0.0
 20
0.0
 30
0.0
  9
$UCSXDIR
 10
1.0
 20
0.0
 30
0.0
  9
$UCSYDIR
 10
0.0
 20
1.0
 30
0.0
  9
$UCSORTHOREF
  2

  9
$UCSORTHOVIEW
 70
     0
  9
$UCSORGTOP
 10
0.0
 20
0.0
 30
0.0
  9
$UCSORGBOTTOM
 10
0.0
 20
0.0
 30
0.0
  9
$UCSORGLEFT
 10
0.0
 20
0.0
 30
0.0
  9
$UCSORGRIGHT
 10
0.0
 20
0.0
 30
0.0
  9
$UCSORGFRONT
 10
0.0
 20
0.0
 30
0.0
  9
$UCSORGBACK
 10
0.0
 20
0.0
 30
0.0
  9
$PUCSBASE
  2

  9
$PUCSNAME
  2

  9
$PUCSORG
 10
0.0
 20
0.0
 30
0.0
  9
$PUCSXDIR
 10
1.0
 20
0.0
 30
0.0
  9
$PUCSYDIR
 10
0.0
 20
1.0
 30
0.0
  9
$PUCSORTHOREF
  2

  9
$PUCSORTHOVIEW
 70
     0
  9
$PUCSORGTOP
 10
0.0
 20
0.0
 30
0.0
  9
$PUCSORGBOTTOM
 10
0.0
 20
0.0
 30
0.0
  9
$PUCSORGLEFT
 10
0.0
 20
0.0
 30
0.0
  9
$PUCSORGRIGHT
 10
0.0
 20
0.0
 30
0.0
  9
$PUCSORGFRONT
 10
0.0
 20
0.0
 30
0.0
  9
$PUCSORGBACK
 10
0.0
 20
0.0
 30
0.0
  9
$USERI1
 70
     0
  9
$USERI2
 70
     0
  9
$USERI3
 70
     0
  9
$USERI4
 70
     0
  9
$USERI5
 70
     0
  9
$USERR1
 40
0.0
  9
$USERR2
 40
0.0
  9
$USERR3
 40
0.0
  9
$USERR4
 40
0.0
  9
$USERR5
 40
0.0
  9
$WORLDVIEW
 70
     1
  9
$SHADEDGE
 70
     3
  9
$SHADEDIF
 70
    70
  9
$TILEMODE
 70
     1
  9
$MAXACTVP
 70
    16
  9
$PINSBASE
 10
0.0
 20
0.0
 30
0.0
  9
$PLIMCHECK
 70
     0
  9
$PEXTMIN
 10
1.000000E+20
 20
1.000000E+20
 30
1.000000E+20
  9
$PEXTMAX
 10
-1.000000E+20
 20
-1.000000E+20
 30
-1.000000E+20
  9
$PLIMMIN
 10
0.0
 20
0.0
  9
$PLIMMAX
 10
12.0
 20
9.0
  9
$UNITMODE
 70
     0
  9
$VISRETAIN
 70
     0
  9
$PLINEGEN
 70
     1
  9
$PSLTSCALE
 70
     0
  9
$TREEDEPTH
 70
  3020
  9
$CMLSTYLE
  2
Standard
  9
$CMLJUST
 70
     0
  9
$CMLSCALE
 40
1.0
  9
$PROXYGRAPHICS
 70
     0
  9
$MEASUREMENT
 70
     1
  9
$CELWEIGHT
370
     0
  9
$ENDCAPS
280
     0
  9
$JOINSTYLE
280
     0
  9
$LWDISPLAY
290
     0
  9
$INSUNITS
 70
     0
  9
$HYPERLINKBASE
  1

  9
$STYLESHEET
  1

  9
$XEDIT
290
     1
  9
$CEPSNTYPE
380
     0
  9
$PSTYLEMODE
290
     1
  9
$FINGERPRINTGUID
  2

  9
$VERSIONGUID
  2

  9
$EXTNAMES
290
     1
  9
$PSVPSCALE
 40
0.0
  0
ENDSEC
  0
SECTION
  2
CLASSES
  0
CLASS
  1
LWPOLYLINE
  2
AcDbPolyline
  3
AutoCAD 2000
 90
    32768
280
     0
281
     1
  0
CLASS
  1
IMAGE
  2
AcDbRasterImage
  3
ISM
 90
      127
280
     0
281
     1
  0
CLASS
  1
OLE2FRAME
  2
AcDbOle2Frame
  3
AutoCAD 2000
 90
    32768
280
     0
281
     1
  0
CLASS
  1
HATCH
  2
AcDbHatch
  3
AutoCAD 2000
 90
        0
280
     0
281
     1
  0
CLASS
  1
DICTIONARYVAR
  2
AcDbDictionaryVar
  3
AutoCAD 2000
 90
    32768
280
     0
281
     0
  0
CLASS
  1
RASTERVARIABLES
  2
AcDbRasterVariables
  3
ISM
 90
    32768
280
     0
281
     0
  0
CLASS
  1
IMAGEDEF
  2
AcDbRasterImageDef
  3
ISM
 90
        0
280
     0
281
     0
  0
CLASS
  1
IMAGEDEF_REACTOR
  2
AcDbRasterImageDefReactor
  3
ISM
 90
        1
280
     0
281
     0
  0
CLASS
  1
IDBUFFER
  2
AcDbIdBuffer
  3
AutoCAD 2000
 90
    32768
280
     0
281
     0
  0
CLASS
  1
SPATIAL_FILTER
  2
AcDbSpatialFilter
  3
AutoCAD 2000
 90
    32768
280
     0
281
     0
  0
CLASS
  1
XRECORD
  2
AcDbXrecord
  3
AutoCAD 2000
 90
    32768
280
     0
281
     0
  0
CLASS
  1
SORTENTSTABLE
  2
AcDbSortentsTable
  3
AutoCAD 2000
 90
    32768
280
     0
281
     0
  0
CLASS
  1
LAYER_INDEX
  2
AcDbLayerIndex
  3
AutoCAD 2000
 90
    32768
280
     0
281
     0
  0
CLASS
  1
SPATIAL_INDEX
  2
AcDbSpatialIndex
  3
AutoCAD 2000
 90
    32768
280
     0
281
     0
  0
CLASS
  1
OBJECT_PTR
  2
CAseDLPNTableRecord
  3
"ASE-LPNTableRecord"
 90
    32769
280
     0
281
     0
  0
CLASS
  1
LAYOUT
  2
AcDbLayout
  3
AutoCAD 2000
 90
        0
280
     0
281
     0
  0
CLASS
  1
PLOTSETTINGS
  2
AcDbPlotSettings
  3
AutoCAD 2000
 90
    32768
280
     0
281
     0
  0
CLASS
  1
ACDBDICTIONARYWDFLT
  2
AcDbDictionaryWithDefault
  3
AutoCAD 2000
 90
        0
280
     0
281
     0
  0
CLASS
  1
ACDBPLACEHOLDER
  2
AcDbPlaceHolder
  3
AutoCAD 2000
 90
        0
280
     0
281
     0
  0
CLASS
  1
VBA_PROJECT
  2
AcDbVbaProject
  3
acadvba
 90
    32768
280
     0
281
     0
  0
CLASS
  1
WIPEOUT
  2
AcDbWipeout
  3
WipeOut|AutoCAD Express Tool|expresstools@autodesk.com
 90
    32895
280
     0
281
     1
  0
CLASS
  1
WIPEOUTVARIABLES
  2
AcDbWipeoutVariables
  3
WipeOut|AutoCAD Express Tool|expresstools@autodesk.com
 90
        0
280
     0
281
     0
  0
CLASS
  1
RTEXT
  2
RText
  3
RText|AutoCAD Express Tool|expresstools@autodesk.com
 90
    32768
280
     0
281
     1
  0
CLASS
  1
ARCALIGNEDTEXT
  2
AcDbArcAlignedText
  3
ATEXT|AutoCAD Express Tool|expresstools@autodesk.com
 90
    32768
280
     0
281
     1
  0
ENDSEC
  0
SECTION
  2
TABLES
  0
TABLE
  2
VPORT
  5
7
100
AcDbSymbolTable
 70
     1
  0
VPORT
  5
15
100
AcDbSymbolTableRecord
100
AcDbViewportTableRecord
  2
*ACTIVE
 70
     0
 10
0.0
 20
0.0
 11
1.0
 21
1.0
 12
6.591288
 22
4.579184
 13
0.0
 23
0.0
 14
1.0
 24
1.0
 15
0.0
 25
0.0
 16
0.0
 26
0.0
 36
1.0
 17
0.0
 27
0.0
 37
0.0
 40
9.158369
 41
0.688564
 42
50.0
 43
0.0
 44
0.0
 50
0.0
 51
0.0
 71
     0
 72
   100
 73
     1
 74
     1
 75
     0
 76
     0
 77
     0
 78
     0
281
     0
 65
     0
110
0.0
120
0.0
130
0.0
111
1.0
121
0.0
131
0.0
112
0.0
122
1.0
132
0.0
345
0
346
0
 79
     0
146
0.0
  0
ENDTAB
  0
TABLE
  2
LTYPE
  5
4
100
AcDbSymbolTable
 70
     3
  0
LTYPE
  5
11
100
AcDbSymbolTableRecord
100
AcDbLinetypeTableRecord
  2
ByBlock
 70
    64
  3

 72
    65
 73
     0
 40
0.0
  0
LTYPE
  5
12
100
AcDbSymbolTableRecord
100
AcDbLinetypeTableRecord
  2
ByLayer
 70
    64
  3

 72
    65
 73
     0
 40
0.0
  0
LTYPE
  5
13
100
AcDbSymbolTableRecord
100
AcDbLinetypeTableRecord
  2
Continuous
 70
    64
  3
Solid line
 72
    65
 73
     0
 40
0.0
  0
ENDTAB
  0
TABLE
  2
LAYER
  5
2
100
AcDbSymbolTable
 70
     3
  0
LAYER
  5
14
100
AcDbSymbolTableRecord
100
AcDbLayerTableRecord
  2
0
 70
     0
 62
     7
  6
Continuous
290
     1
370
    -3
390
1D
  0
LAYER
  5
28
100
AcDbSymbolTableRecord
100
AcDbLayerTableRecord
  2
レイヤー_2
 70
     0
 62
     1
  6
Continuous
290
     1
370
    -3
390
1D
  0
LAYER
  5
87
100
AcDbSymbolTableRecord
100
AcDbLayerTableRecord
  2
レイヤー_1
 70
     4
 62
   160
  6
Continuous
290
     1
370
    -3
390
1D
  0
ENDTAB
  0
TABLE
  2
STYLE
  5
3
100
AcDbSymbolTable
 70
     5
  0
STYLE
  5
17
100
AcDbSymbolTableRecord
100
AcDbTextStyleTableRecord
  2
Standard
 70
     0
 40
0.0
 41
1.0
 50
0.0
 71
     0
 42
0.0
  3
txt
  4

  0
STYLE
  5
24
100
AcDbSymbolTableRecord
100
AcDbTextStyleTableRecord
  2
STD
 70
     0
 40
0.0
 41
1.0
 50
0.0
 71
     0
 42
0.0
  3
txt
  4

  0
STYLE
  5
25
100
AcDbSymbolTableRecord
100
AcDbTextStyleTableRecord
  2
TATESTD
 70
     4
 40
0.0
 41
1.0
 50
0.0
 71
     0
 42
0.0
  3
txt
  4

  0
STYLE
  5
26
100
AcDbSymbolTableRecord
100
AcDbTextStyleTableRecord
  2
KANJISTD
 70
     0
 40
0.0
 41
1.0
 50
0.0
 71
     0
 42
0.0
  3
txt
  4
extfont
  0
STYLE
  5
27
100
AcDbSymbolTableRecord
100
AcDbTextStyleTableRecord
  2
KANJITATE
 70
     4
 40
0.0
 41
1.0
 50
0.0
 71
     0
 42
0.0
  3
txt
  4
extfont
  0
ENDTAB
  0
TABLE
  2
VIEW
  5
5
100
AcDbSymbolTable
 70
     0
  0
ENDTAB
  0
TABLE
  2
UCS
  5
6
100
AcDbSymbolTable
 70
     0
  0
ENDTAB
  0
TABLE
  2
APPID
  5
8
100
AcDbSymbolTable
 70
     1
  0
APPID
  5
16
100
AcDbSymbolTableRecord
100
AcDbRegAppTableRecord
  2
ACAD
 70
     0
  0
ENDTAB
  0
TABLE
  2
DIMSTYLE
  5
9
100
AcDbSymbolTable
 70
     1
100
AcDbDimStyleTable
 71
     0
  0
DIMSTYLE
105
18
100
AcDbSymbolTableRecord
100
AcDbDimStyleTableRecord
  2
Standard
 70
     0
  3

  4

 40
1.0
 41
0.18
 42
0.0625
 43
0.38
 44
0.18
 45
0.0
 46
0.0
 47
0.0
 48
0.0
 71
     0
 72
     0
 73
     1
 74
     1
 75
     0
 76
     0
 77
     0
 78
     0
 79
     0
140
0.18
141
0.09
142
0.0
143
25.4
144
1.0
145
0.0
146
1.0
147
0.09
148
0.0
170
     0
171
     2
172
     0
173
     0
174
     0
175
     0
176
     0
177
     0
178
     0
179
     0
271
     4
272
     4
273
     2
274
     2
275
     0
276
     0
277
     2
278
    46
279
     0
280
     0
281
     0
282
     0
283
     1
284
     0
285
     0
286
     0
288
     0
340
17
341
0
342
0
343
0
344
0
371
    -2
372
    -2
  0
ENDTAB
  0
TABLE
  2
BLOCK_RECORD
  5
1
100
AcDbSymbolTable
 70
     0
  0
BLOCK_RECORD
  5
A
100
AcDbSymbolTableRecord
100
AcDbBlockTableRecord
  2
*MODEL_SPACE
340
20
  0
BLOCK_RECORD
  5
B
100
AcDbSymbolTableRecord
100
AcDbBlockTableRecord
  2
*PAPER_SPACE
340
21
  0
ENDTAB
  0
ENDSEC
  0
SECTION
  2
BLOCKS
  0
BLOCK
  5
D
100
AcDbEntity
  8
0
100
AcDbBlockBegin
  2
*MODEL_SPACE
 70
     0
 10
0.0
 20
0.0
 30
0.0
  3
*MODEL_SPACE
  1

  0
ENDBLK
  5
E
100
AcDbEntity
  8
0
100
AcDbBlockEnd
  0
BLOCK
  5
F
100
AcDbEntity
 67
     1
  8
0
100
AcDbBlockBegin
  2
*PAPER_SPACE
 70
     0
 10
0.0
 20
0.0
 30
0.0
  3
*PAPER_SPACE
  1

  0
ENDBLK
  5
10
100
AcDbEntity
 67
     1
  8
0
100
AcDbBlockEnd
  0
ENDSEC
  0
SECTION
  2
ENTITIES
  0
MTEXT
  5
A2
100
AcDbEntity
  8
レイヤー_1
 62
     7
100
AcDbMText
 10
47.801389
 20
54.121991
 30
0.0
 40
3.674768
 41
0.0
 71
     1
 72
     2
  1
\fOsaka|b0|i0|c128;\H3.6748;\C7;\U+0038\U+0033\U+002E\U+0034\U+0030\U+0030\U+002E\U+0038\U+0039\U+0032\U+002E\U+0058\U+0058
  7
STD
210
0.0
220
0.0
230
1.0
 73
     1
 44
1.0
  0
MTEXT
  5
A1
100
AcDbEntity
  8
レイヤー_1
 62
     7
100
AcDbMText
 10
39.6875
 20
56.608234
 30
0.0
 40
1.574901
 41
0.0
 71
     1
 72
     2
  1
\fOsaka|b0|i0|c128;\H1.5749;\C7;\U+54C1\U+756A
  7
STD
210
0.0
220
0.0
230
1.0
 73
     1
 44
1.0
  0
MTEXT
  5
A0
100
AcDbEntity
  8
レイヤー_1
 62
     7
100
AcDbMText
 10
47.801389
 20
32.959209
 30
0.0
 40
3.149486
 41
0.0
 71
     1
 72
     2
  1
\fOsaka|b0|i0|c128;\H3.1495;\C7;\U+30BF\U+30F3\U+30D6\U+30E9\U+30FC\U+30DB\U+30EB\U+30C0\U+30FC
  7
STD
210
0.0
220
0.0
230
1.0
 73
     1
 44
1.0
  0
MTEXT
  5
9F
100
AcDbEntity
  8
レイヤー_1
 62
     7
100
AcDbMText
 10
39.6875
 20
35.441567
 30
0.0
 40
1.574901
 41
0.0
 71
     1
 72
     2
  1
\fOsaka|b0|i0|c128;\H1.5749;\C7;\U+54C1
  7
STD
210
0.0
220
0.0
230
1.0
 73
     1
 44
1.0
  0
MTEXT
  5
9E
100
AcDbEntity
  8
レイヤー_1
 62
     7
100
AcDbMText
 10
47.319248
 20
43.304752
 30
0.0
 40
3.499429
 41
0.0
 71
     1
 72
     2
  1
\fOsaka|b0|i0|c128;\H3.4994;\W0.90;\C7;\U+FF34\U+FF41\U+FF52\U+FF41
  7
STD
210
0.0
220
0.0
230
1.0
 73
     1
 44
1.0
  0
POLYLINE
  5
98
100
AcDbEntity
  8
レイヤー_1
 62
     7
100
AcDb2dPolyline
 66
     1
 10
0.0
 20
0.0
 30
0.0
 70
     1
  0
VERTEX
  5
99
100
AcDbEntity
  8
レイヤー_1
 62
     7
100
AcDbVertex
100
AcDb2dVertex
 10
23.636111
 20
26.105556
 30
0.0
  0
VERTEX
  5
9A
100
AcDbEntity
  8
レイヤー_1
 62
     7
100
AcDbVertex
100
AcDb2dVertex
 10
198.613889
 20
26.105556
 30
0.0
  0
VERTEX
  5
9B
100
AcDbEntity
  8
レイヤー_1
 62
     7
100
AcDbVertex
100
AcDb2dVertex
 10
198.613889
 20
276.577778
 30
0.0
  0
VERTEX
  5
9C
100
AcDbEntity
  8
レイヤー_1
 62
     7
100
AcDbVertex
100
AcDb2dVertex
 10
23.636111
 20
276.577778
 30
0.0
  0
SEQEND
  5
9D
100
AcDbEntity
  8
レイヤー_1
 62
     7
  0
LINE
  5
97
100
AcDbEntity
  8
レイヤー_1
 62
     7
100
AcDbLine
 10
170.568056
 20
36.5125
 30
0.0
 11
27.693056
 21
36.5125
 31
0.0
  0
LINE
  5
96
100
AcDbEntity
  8
レイヤー_1
 62
     7
100
AcDbLine
 10
170.568056
 20
47.095833
 30
0.0
 11
27.693056
 21
47.095833
 31
0.0
  0
LINE
  5
95
100
AcDbEntity
  8
レイヤー_1
 62
     7
100
AcDbLine
 10
23.636111
 20
57.855556
 30
0.0
 11
198.261111
 21
57.855556
 31
0.0
  0
LINE
  5
94
100
AcDbEntity
  8
レイヤー_1
 62
     7
100
AcDbLine
 10
170.744444
 20
57.855556
 30
0.0
 11
170.744444
 21
26.458333
 31
0.0
  0
MTEXT
  5
93
100
AcDbEntity
  8
レイヤー_1
 62
     7
100
AcDbMText
 10
33.3375
 20
46.024901
 30
0.0
 40
1.574901
 41
0.0
 71
     1
 72
     2
  1
\fOsaka|b0|i0|c128;\H1.5749;\C7;\U+30B7\U+30EA\U+30FC\U+30BA
  7
STD
210
0.0
220
0.0
230
1.0
 73
     1
 44
1.0
  0
MTEXT
  5
92
100
AcDbEntity
  8
レイヤー_1
 62
     7
100
AcDbMText
 10
174.095833
 20
54.655042
 30
0.0
 40
3.149486
 41
0.0
 71
     1
 72
     2
  1
\fHeiseiKakuGothicCAN W9|b0|i0|c128;\H3.1495;\C253;\U+5BF8\U+6CD5\U+53C2\U+8003\U+56F3
  7
STD
210
0.0
220
0.0
230
1.0
 73
     1
 44
1.0
  0
LINE
  5
91
100
AcDbEntity
  8
レイヤー_1
 62
     7
100
AcDbLine
 10
27.516667
 20
57.855556
 30
0.0
 11
27.516667
 21
26.458333
 31
0.0
  0
IMAGE
  5
8E
100
AcDbEntity
  8
レイヤー_1
 62
     7
 92
        0
100
AcDbRasterImage
 90
        0
 10
172.155556
 20
28.574682
 30
0.0
 11
0.352531
 21
0.0
 31
0.0
 12
0.0
 22
0.352813
 32
0.0
 13
70.0
 23
9.0
340
90
 70
     7
280
     0
281
    50
282
    50
283
     0
360
8F
 71
     1
 91
        2
 14
-0.5
 24
-0.5
 14
69.5
 24
8.5
  0
IMAGE
  5
8B
100
AcDbEntity
  8
レイヤー_1
 62
     7
 92
        0
100
AcDbRasterImage
 90
        0
 10
172.155556
 20
28.574682
 30
0.0
 11
0.352531
 21
0.0
 31
0.0
 12
0.0
 22
0.352813
 32
0.0
 13
70.0
 23
9.0
340
8D
 70
     7
280
     0
281
    50
282
    50
283
     0
360
8C
 71
     1
 91
        2
 14
-0.5
 24
-0.5
 14
69.5
 24
8.5
  0
MTEXT
  5
8A
100
AcDbEntity
  8
レイヤー_1
 62
     7
100
AcDbMText
 10
113.418056
 20
46.024901
 30
0.0
 40
1.574901
 41
0.0
 71
     1
 72
     2
  1
\fOsaka|b0|i0|c128;\H1.5749;\C7;\U+4ED5\U+4E0A
  7
STD
210
0.0
220
0.0
230
1.0
 73
     1
 44
1.0
  0
MTEXT
  5
89
100
AcDbEntity
  8
レイヤー_1
 62
     7
100
AcDbMText
 10
124.765511
 20
40.968164
 30
0.0
 40
1.162842
 41
0.0
 71
     1
 72
     2
  1
\fOsaka|b0|i0|c128;\H1.1628;\W2.71;\C7;
  7
STD
210
0.0
220
0.0
230
1.0
 73
     1
 44
1.0
  0
HATCH
  5
88
100
AcDbEntity
  8
レイヤー_1
 62
     7
100
AcDbHatch
 10
0.0
 20
0.0
 30
0.0
210
0.0
220
0.0
230
1.0
  2
SOLID
 70
     1
 71
     0
 91
        1
 92
        1
 93
        1
 72
     4
 94
        3
 73
     0
 74
     0
 95
       17
 96
       13
 40
0.0
 40
0.0
 40
0.0
 40
0.0
 40
1.0
 40
1.0
 40
1.0
 40
2.0
 40
2.0
 40
2.0
 40
3.0
 40
3.0
 40
3.0
 40
4.0
 40
4.0
 40
4.0
 40
4.0
 10
58.155967881944441
 20
40.211154513888886
 10
58.155967881944441
 20
40.016162109374996
 10
57.998010253906244
 20
39.858376736111104
 10
57.80319010416666
 20
39.858376736111104
 10
57.608369954427076
 20
39.858376736111104
 10
57.450412326388886
 20
40.016162109374996
 10
57.450412326388886
 20
40.211154513888886
 10
57.450412326388886
 20
40.406146918402776
 10
57.608369954427076
 20
40.56393229166666
 10
57.80319010416666
 20
40.56393229166666
 10
57.998010253906244
 20
40.56393229166666
 10
58.155967881944441
 20
40.406146918402776
 10
58.155967881944441
 20
40.211154513888886
 97
        0
 75
     2
 76
     1
 98
        1
 10
0.0
 20
0.0
  0
MTEXT
  5
86
100
AcDbEntity
  8
レイヤー_2
 62
     7
100
AcDbMText
 10
118.213973
 20
202.714738
 30
0.0
 40
5.268737
 41
0.0
 71
     1
 72
     2
  1
\fMS Gothic|b0|i0|c128;\H5.2687;\W1.05;\C7;\Q-15.25;\U+03C6\U+0036\U+0035
  7
STD
210
0.0
220
0.0
230
0.9999999999999999
 11
0.96481
 21
-0.26296
 31
0.0
 73
     1
 44
1.0
  0
MTEXT
  5
85
100
AcDbEntity
  8
レイヤー_2
 62
     7
100
AcDbMText
 10
104.637196
 20
136.884239
 30
0.0
 40
5.324311
 41
0.0
 71
     1
 72
     2
  1
\fMS Gothic|b0|i0|c128;\H5.3243;\W1.04;\C7;\Q15.00;\U+0031\U+0032\U+0033
  7
STD
210
0.0
220
0.0
230
1.0
 11
0.96593
 21
0.25882
 31
0.0
 73
     1
 44
1.0
  0
MTEXT
  5
84
100
AcDbEntity
  8
レイヤー_2
 62
     7
100
AcDbMText
 10
132.620529
 20
137.378839
 30
0.0
 40
5.907882
 41
0.0
 71
     1
 72
     2
  1
\fMS Gothic|b0|i0|c128;\H5.9079;\W0.97;\C7;\Q15.00;\U+03C6\U+0035\U+0035
  7
STD
210
0.0
220
0.0
230
1.0
 11
0.0
 21
1.0
 31
0.0
 73
     1
 44
1.0
  0
SPLINE
  5
83
100
AcDbEntity
  8
レイヤー_2
 62
     7
100
AcDbSpline
210
0.0
220
0.0
230
1.0
 70
     8
 71
     3
 72
     8
 73
     4
 74
     0
 42
0.00000001
 43
0.00000001
 40
0.0
 40
0.0
 40
0.0
 40
0.0
 40
1.0
 40
1.0
 40
1.0
 40
1.0
 10
100.30257703993054
 20
189.99339870876733
 30
0.0
 10
98.311656358506937
 20
189.53451199001734
 30
0.0
 10
97.407663302951377
 20
188.86564670138887
 30
0.0
 10
97.650887044270831
 20
188.20815022786456
 30
0.0
  0
SPLINE
  5
82
100
AcDbEntity
  8
レイヤー_2
 62
     7
100
AcDbSpline
210
0.0
220
0.0
230
1.0
 70
     8
 71
     3
 72
     8
 73
     4
 74
     0
 42
0.00000001
 43
0.00000001
 40
0.0
 40
0.0
 40
0.0
 40
0.0
 40
1.0
 40
1.0
 40
1.0
 40
1.0
 10
113.13693576388887
 20
188.42329644097219
 30
0.0
 10
113.13452419704861
 20
189.04375813802082
 30
0.0
 10
112.1206325954861
 20
189.59755723741318
 30
0.0
 10
110.50074869791666
 20
189.9797905815972
 30
0.0
  0
SPLINE
  5
81
100
AcDbEntity
  8
レイヤー_2
 62
     7
100
AcDbSpline
210
0.0
220
0.0
230
1.0
 70
     8
 71
     3
 72
     8
 73
     4
 74
     0
 42
0.00000001
 43
0.00000001
 40
0.0
 40
0.0
 40
0.0
 40
0.0
 40
1.0
 40
1.0
 40
1.0
 40
1.0
 10
113.11419813368055
 20
188.26068793402777
 30
0.0
 10
113.13004557291666
 20
188.31735975477429
 30
0.0
 10
113.13762478298609
 20
188.37454833984373
 30
0.0
 10
113.13693576388887
 20
188.42329644097219
 30
0.0
  0
SPLINE
  5
80
100
AcDbEntity
  8
レイヤー_2
 62
     7
100
AcDbSpline
210
0.0
220
0.0
230
1.0
 70
     8
 71
     3
 72
     8
 73
     4
 74
     0
 42
0.00000001
 43
0.00000001
 40
0.0
 40
0.0
 40
0.0
 40
0.0
 40
1.0
 40
1.0
 40
1.0
 40
1.0
 10
97.249188910590263
 20
188.34784884982636
 30
0.0
 10
97.271926540798603
 20
187.64849446614582
 30
0.0
 10
98.528008355034714
 20
187.03044433593749
 30
0.0
 10
100.48344455295138
 20
186.63253580729165
 30
0.0
  0
SPLINE
  5
7F
100
AcDbEntity
  8
レイヤー_2
 62
     7
100
AcDbSpline
210
0.0
220
0.0
230
1.0
 70
     8
 71
     3
 72
     8
 73
     4
 74
     0
 42
0.00000001
 43
0.00000001
 40
0.0
 40
0.0
 40
0.0
 40
0.0
 40
1.0
 40
1.0
 40
1.0
 40
1.0
 10
113.49832628038193
 20
188.36903618706594
 30
0.0
 10
113.49832628038193
 20
188.37540961371525
 30
0.0
 10
113.49832628038193
 20
188.38126627604166
 30
0.0
 10
113.49832628038193
 20
188.38729519314234
 30
0.0
  0
SPLINE
  5
7E
100
AcDbEntity
  8
レイヤー_2
 62
     7
100
AcDbSpline
210
0.0
220
0.0
230
1.0
 70
     8
 71
     3
 72
     8
 73
     4
 74
     0
 42
0.00000001
 43
0.00000001
 40
0.0
 40
0.0
 40
0.0
 40
0.0
 40
1.0
 40
1.0
 40
1.0
 40
1.0
 10
111.09640570746527
 20
186.82683919270832
 30
0.0
 10
112.69561903211805
 20
187.25024142795138
 30
0.0
 10
113.49901529947915
 20
187.8093804253472
 30
0.0
 10
113.49832628038193
 20
188.36903618706594
 30
0.0
  0
SPLINE
  5
7D
100
AcDbEntity
  8
レイヤー_2
 62
     7
100
AcDbSpline
210
0.0
220
0.0
230
1.0
 70
     8
 71
     3
 72
     8
 73
     4
 74
     0
 42
0.00000001
 43
0.00000001
 40
0.0
 40
0.0
 40
0.0
 40
0.0
 40
1.0
 40
1.0
 40
1.0
 40
1.0
 10
100.11137424045138
 20
190.10605333116317
 30
0.0
 10
98.157660590277771
 20
189.65250651041666
 30
0.0
 10
97.236097547743043
 20
189.03583441840277
 30
0.0
 10
97.249188910590263
 20
188.34922688802081
 30
0.0
  0
SPLINE
  5
7C
100
AcDbEntity
  8
レイヤー_2
 62
     7
100
AcDbSpline
210
0.0
220
0.0
230
1.0
 70
     8
 71
     3
 72
     8
 73
     4
 74
     0
 42
0.00000001
 43
0.00000001
 40
0.0
 40
0.0
 40
0.0
 40
0.0
 40
1.0
 40
1.0
 40
1.0
 40
1.0
 10
113.49763726128471
 20
188.40245361328124
 30
0.0
 10
113.45836317274305
 20
189.1052530924479
 30
0.0
 10
112.40106336805555
 20
189.69246961805553
 30
0.0
 10
110.69539659288193
 20
190.09158393012152
 30
0.0
  0
SPLINE
  5
7B
100
AcDbEntity
  8
レイヤー_2
 62
     7
100
AcDbSpline
210
0.0
220
0.0
230
1.0
 70
     8
 71
     3
 72
     8
 73
     4
 74
     0
 42
0.00000001
 43
0.00000001
 40
0.0
 40
0.0
 40
0.0
 40
0.0
 40
1.0
 40
1.0
 40
1.0
 40
1.0
 10
113.49832628038193
 20
188.38729519314234
 30
0.0
 10
113.49832628038193
 20
188.39229058159719
 30
0.0
 10
113.49763726128471
 20
188.3983194986979
 30
0.0
 10
113.49763726128471
 20
188.40245361328124
 30
0.0
  0
SPLINE
  5
7A
100
AcDbEntity
  8
レイヤー_2
 62
     7
100
AcDbSpline
210
0.0
220
0.0
230
1.0
 70
     8
 71
     3
 72
     8
 73
     4
 74
     0
 42
0.00000001
 43
0.00000001
 40
0.0
 40
0.0
 40
0.0
 40
0.0
 40
1.0
 40
1.0
 40
1.0
 40
1.0
 10
97.249188910590263
 20
165.58231336805554
 30
0.0
 10
97.24849989149304
 20
165.06589355468748
 30
0.0
 10
97.641240776909711
 20
164.51295572916666
 30
0.0
 10
98.195212131076374
 20
164.20186360677081
 30
0.0
  0
LINE
  5
79
100
AcDbEntity
  8
レイヤー_2
 62
     7
100
AcDbLine
 10
112.975016
 20
189.153484
 30
0.0
 11
112.980528
 21
189.149695
 31
0.0
  0
LINE
  5
78
100
AcDbEntity
  8
レイヤー_2
 62
     7
100
AcDbLine
 10
97.249189
 20
188.347849
 30
0.0
 11
97.249189
 21
165.582313
 31
0.0
  0
SPLINE
  5
77
100
AcDbEntity
  8
レイヤー_2
 62
     7
100
AcDbSpline
210
0.0
220
0.0
230
1.0
 70
     8
 71
     3
 72
     8
 73
     4
 74
     0
 42
0.00000001
 43
0.00000001
 40
0.0
 40
0.0
 40
0.0
 40
0.0
 40
1.0
 40
1.0
 40
1.0
 40
1.0
 10
110.92070583767359
 20
186.994098578559
 30
0.0
 10
109.11478678385416
 20
186.5470974392361
 30
0.0
 10
107.27303873697916
 20
186.40688205295137
 30
0.0
 10
105.41751030815971
 20
186.3827663845486
 30
0.0
  0
SPLINE
  5
76
100
AcDbEntity
  8
レイヤー_2
 62
     7
100
AcDbSpline
210
0.0
220
0.0
230
1.0
 70
     8
 71
     3
 72
    11
 73
     7
 74
     0
 42
0.00000001
 43
0.00000001
 40
0.0
 40
0.0
 40
0.0
 40
0.0
 40
1.0
 40
1.0
 40
1.0
 40
2.0
 40
2.0
 40
2.0
 40
2.0
 10
110.50109320746527
 20
189.9797905815972
 30
0.0
 10
108.79680447048609
 20
190.35410020616317
 30
0.0
 10
107.07253417968749
 20
190.47932942708331
 30
0.0
 10
105.33069390190971
 20
190.49707166883678
 30
0.0
 10
103.63639594184026
 20
190.47519531249998
 30
0.0
 10
101.96173502604165
 20
190.34858805338541
 30
0.0
 10
100.30257703993054
 20
189.99339870876733
 30
0.0
  0
SPLINE
  5
75
100
AcDbEntity
  8
レイヤー_2
 62
     7
100
AcDbSpline
210
0.0
220
0.0
230
1.0
 70
     8
 71
     3
 72
    11
 73
     7
 74
     0
 42
0.00000001
 43
0.00000001
 40
0.0
 40
0.0
 40
0.0
 40
0.0
 40
1.0
 40
1.0
 40
1.0
 40
2.0
 40
2.0
 40
2.0
 40
2.0
 10
111.09709472656249
 20
186.8259779188368
 30
0.0
 10
109.23433159722221
 20
186.36536865234373
 30
0.0
 10
107.33298339843749
 20
186.22067464192708
 30
0.0
 10
105.41923285590276
 20
186.19569769965275
 30
0.0
 10
103.75766330295139
 20
186.21292317708333
 30
0.0
 10
102.11883138020832
 20
186.3298841688368
 30
0.0
 10
100.48344455295138
 20
186.63253580729165
 30
0.0
  0
SPLINE
  5
74
100
AcDbEntity
  8
レイヤー_2
 62
     7
100
AcDbSpline
210
0.0
220
0.0
230
1.0
 70
     8
 71
     3
 72
     8
 73
     4
 74
     0
 42
0.00000001
 43
0.00000001
 40
0.0
 40
0.0
 40
0.0
 40
0.0
 40
1.0
 40
1.0
 40
1.0
 40
1.0
 10
112.88992241753471
 20
187.90463731553817
 30
0.0
 10
113.07354600694444
 20
188.13287489149303
 30
0.0
 10
113.00050998263887
 20
188.01298556857637
 30
0.0
 10
113.11419813368055
 20
188.26068793402777
 30
0.0
  0
LINE
  5
73
100
AcDbEntity
  8
レイヤー_2
 62
     7
100
AcDbLine
 10
113.100418
 20
188.206428
 30
0.0
 11
113.1235
 21
188.385573
 31
0.0
  0
SPLINE
  5
72
100
AcDbEntity
  8
レイヤー_2
 62
     7
100
AcDbSpline
210
0.0
220
0.0
230
1.0
 70
     8
 71
     3
 72
    11
 73
     7
 74
     0
 42
0.00000001
 43
0.00000001
 40
0.0
 40
0.0
 40
0.0
 40
0.0
 40
1.0
 40
1.0
 40
1.0
 40
2.0
 40
2.0
 40
2.0
 40
2.0
 10
106.70218641493055
 20
186.41618381076387
 30
0.0
 10
107.97170410156249
 20
186.48904758029514
 30
0.0
 10
109.23846571180555
 20
186.60721435546873
 30
0.0
 10
110.48007812499999
 20
186.89281277126733
 30
0.0
 10
111.35513237847221
 20
187.09400634765623
 30
0.0
 10
112.23122016059027
 20
187.35772840711803
 30
0.0
 10
112.93126356336805
 20
187.93857150607639
 30
0.0
  0
SPLINE
  5
71
100
AcDbEntity
  8
レイヤー_2
 62
     7
100
AcDbSpline
210
0.0
220
0.0
230
1.0
 70
     8
 71
     3
 72
    11
 73
     7
 74
     0
 42
0.00000001
 43
0.00000001
 40
0.0
 40
0.0
 40
0.0
 40
0.0
 40
1.0
 40
1.0
 40
1.0
 40
2.0
 40
2.0
 40
2.0
 40
2.0
 10
97.944753689236109
 20
187.82333306206596
 30
0.0
 10
98.605523003472214
 20
187.33309597439234
 30
0.0
 10
99.418221028645817
 20
187.09228379991319
 30
0.0
 10
100.21024848090276
 20
186.90607638888886
 30
0.0
 10
101.91419270833332
 20
186.50472276475693
 30
0.0
 10
103.67256944444443
 20
186.40257568359374
 30
0.0
 10
105.4168212890625
 20
186.38535020616317
 30
0.0
  0
SPLINE
  5
70
100
AcDbEntity
  8
レイヤー_2
 62
     7
100
AcDbSpline
210
0.0
220
0.0
230
1.0
 70
     8
 71
     3
 72
     8
 73
     4
 74
     0
 42
0.00000001
 43
0.00000001
 40
0.0
 40
0.0
 40
0.0
 40
0.0
 40
1.0
 40
1.0
 40
1.0
 40
1.0
 10
97.959912109374997
 20
187.81230875651039
 30
0.0
 10
97.786279296874994
 20
187.98594156901041
 30
0.0
 10
97.674658203124991
 20
188.10651991102429
 30
0.0
 10
97.624015299479154
 20
188.34922688802081
 30
0.0
  0
SPLINE
  5
6F
100
AcDbEntity
  8
レイヤー_2
 62
     7
100
AcDbSpline
210
0.0
220
0.0
230
1.0
 70
     8
 71
     3
 72
    11
 73
     7
 74
     0
 42
0.00000001
 43
0.00000001
 40
0.0
 40
0.0
 40
0.0
 40
0.0
 40
1.0
 40
1.0
 40
1.0
 40
2.0
 40
2.0
 40
2.0
 40
2.0
 10
110.69470757378471
 20
190.09123942057289
 30
0.0
 10
108.92599555121527
 20
190.47898491753472
 30
0.0
 10
107.13695746527777
 20
190.60938178168402
 30
0.0
 10
105.32931586371527
 20
190.62832980685764
 30
0.0
 10
103.57093912760416
 20
190.60559217664928
 30
0.0
 10
101.83288845486111
 20
190.47433403862846
 30
0.0
 10
100.11137424045138
 20
190.10519205729165
 30
0.0
  0
SPLINE
  5
6E
100
AcDbEntity
  8
レイヤー_2
 62
     7
100
AcDbSpline
210
0.0
220
0.0
230
1.0
 70
     8
 71
     3
 72
    23
 73
    19
 74
     0
 42
0.00000001
 43
0.00000001
 40
0.0
 40
0.0
 40
0.0
 40
0.0
 40
1.0
 40
1.0
 40
1.0
 40
2.0
 40
2.0
 40
2.0
 40
3.0
 40
3.0
 40
3.0
 40
4.0
 40
4.0
 40
4.0
 40
5.0
 40
5.0
 40
5.0
 40
6.0
 40
6.0
 40
6.0
 40
6.0
 10
98.195212131076374
 20
164.20186360677081
 30
0.0
 10
98.833243815104154
 20
163.80550537109374
 30
0.0
 10
99.55016818576388
 20
163.58036838107637
 30
0.0
 10
100.27777235243055
 20
163.40931939019094
 30
0.0
 10
101.55107964409721
 20
163.11080186631943
 30
0.0
 10
102.85573730468749
 20
162.96352403428818
 30
0.0
 10
104.16177300347221
 20
162.90719672309027
 30
0.0
 10
106.37455783420138
 20
162.81159532335067
 30
0.0
 10
108.65934516059026
 20
162.92545572916666
 30
0.0
 10
110.80908474392361
 20
163.4944132486979
 30
0.0
 10
111.69723036024304
 20
163.72936876085069
 30
0.0
 10
112.7996609157986
 20
164.08783094618053
 30
0.0
 10
113.30746799045137
 20
164.9206827799479
 30
0.0
 10
113.72949218749999
 20
165.61280246310761
 30
0.0
 10
113.49832628038193
 20
167.17859836154511
 30
0.0
 10
113.49832628038193
 20
167.62112087673609
 30
0.0
 10
113.49832628038193
 20
167.62112087673609
 30
0.0
 10
113.49832628038193
 20
188.38729519314234
 30
0.0
 10
113.49832628038193
 20
188.38729519314234
 30
0.0
  0
SPLINE
  5
6D
100
AcDbEntity
  8
レイヤー_2
 62
     7
100
AcDbSpline
210
0.0
220
0.0
230
1.0
 70
     8
 71
     3
 72
    14
 73
    10
 74
     0
 42
0.00000001
 43
0.00000001
 40
0.0
 40
0.0
 40
0.0
 40
0.0
 40
1.0
 40
1.0
 40
1.0
 40
2.0
 40
2.0
 40
2.0
 40
3.0
 40
3.0
 40
3.0
 40
3.0
 10
111.79610460069443
 20
163.81566840277776
 30
0.0
 10
109.86237250434027
 20
162.84070638020833
 30
0.0
 10
107.49731445312499
 20
162.75320095486109
 30
0.0
 10
105.37341308593749
 20
162.73373616536458
 30
0.0
 10
104.01673448350694
 20
162.74717203776041
 30
0.0
 10
102.66350097656249
 20
162.82640923394095
 30
0.0
 10
101.32680392795137
 20
163.07101101345484
 30
0.0
 10
100.5244411892361
 20
163.21794433593749
 30
0.0
 10
99.678325737847217
 20
163.40811360677083
 30
0.0
 10
98.962434895833326
 20
163.81325683593749
 30
0.0
  0
POLYLINE
  5
68
100
AcDbEntity
  8
レイヤー_2
 62
     7
100
AcDb2dPolyline
 66
     1
 10
0.0
 20
0.0
 30
0.0
  0
VERTEX
  5
69
100
AcDbEntity
  8
レイヤー_2
 62
     7
100
AcDbVertex
100
AcDb2dVertex
 10
114.80574
 20
161.739654
 30
0.0
  0
VERTEX
  5
6A
100
AcDbEntity
  8
レイヤー_2
 62
     7
100
AcDbVertex
100
AcDb2dVertex
 10
114.711689
 20
161.709682
 30
0.0
  0
VERTEX
  5
6B
100
AcDbEntity
  8
レイヤー_2
 62
     7
100
AcDbVertex
100
AcDb2dVertex
 10
113.499015
 20
161.384981
 30
0.0
  0
SEQEND
  5
6C
100
AcDbEntity
  8
レイヤー_2
 62
     7
  0
SPLINE
  5
67
100
AcDbEntity
  8
レイヤー_2
 62
     7
100
AcDbSpline
210
0.0
220
0.0
230
1.0
 70
     8
 71
     3
 72
     8
 73
     4
 74
     0
 42
0.00000001
 43
0.00000001
 40
0.0
 40
0.0
 40
0.0
 40
0.0
 40
1.0
 40
1.0
 40
1.0
 40
1.0
 10
97.248844401041652
 20
164.63870171440971
 30
0.0
 10
97.24849989149304
 20
163.69336751302083
 30
0.0
 10
99.511583116319429
 20
162.88773193359373
 30
0.0
 10
102.72516818576388
 20
162.58542480468748
 30
0.0
  0
SPLINE
  5
66
100
AcDbEntity
  8
レイヤー_2
 62
     7
100
AcDbSpline
210
0.0
220
0.0
230
1.0
 70
     8
 71
     3
 72
     8
 73
     4
 74
     0
 42
0.00000001
 43
0.00000001
 40
0.0
 40
0.0
 40
0.0
 40
0.0
 40
1.0
 40
1.0
 40
1.0
 40
1.0
 10
113.49901529947915
 20
164.64249131944442
 30
0.0
 10
113.49901529947915
 20
164.64421386718749
 30
0.0
 10
113.49901529947915
 20
164.64593641493053
 30
0.0
 10
113.49901529947915
 20
164.6474867078993
 30
0.0
  0
SPLINE
  5
65
100
AcDbEntity
  8
レイヤー_2
 62
     7
100
AcDbSpline
210
0.0
220
0.0
230
1.0
 70
     8
 71
     3
 72
     8
 73
     4
 74
     0
 42
0.00000001
 43
0.00000001
 40
0.0
 40
0.0
 40
0.0
 40
0.0
 40
1.0
 40
1.0
 40
1.0
 40
1.0
 10
110.08837076822915
 20
162.86912841796874
 30
0.0
 10
112.27531738281249
 20
163.28064507378471
 30
0.0
 10
113.50556098090277
 20
163.96380750868053
 30
0.0
 10
113.49901529947915
 20
164.64249131944442
 30
0.0
  0
SPLINE
  5
64
100
AcDbEntity
  8
レイヤー_2
 62
     7
100
AcDbSpline
210
0.0
220
0.0
230
1.0
 70
     8
 71
     3
 72
     8
 73
     4
 74
     0
 42
0.00000001
 43
0.00000001
 40
0.0
 40
0.0
 40
0.0
 40
0.0
 40
1.0
 40
1.0
 40
1.0
 40
1.0
 10
97.248844401041652
 20
158.60565049913194
 30
0.0
 10
97.26400282118054
 20
157.66341688368055
 30
0.0
 10
99.524329969618051
 20
156.86381022135416
 30
0.0
 10
102.7258572048611
 20
156.56236436631943
 30
0.0
  0
SPLINE
  5
63
100
AcDbEntity
  8
レイヤー_2
 62
     7
100
AcDbSpline
210
0.0
220
0.0
230
1.0
 70
     8
 71
     3
 72
     8
 73
     4
 74
     0
 42
0.00000001
 43
0.00000001
 40
0.0
 40
0.0
 40
0.0
 40
0.0
 40
1.0
 40
1.0
 40
1.0
 40
1.0
 10
113.49901529947915
 20
158.61977539062499
 30
0.0
 10
113.49901529947915
 20
158.62149793836804
 30
0.0
 10
113.49901529947915
 20
158.62322048611111
 30
0.0
 10
113.49901529947915
 20
158.62528754340278
 30
0.0
  0
SPLINE
  5
62
100
AcDbEntity
  8
レイヤー_2
 62
     7
100
AcDbSpline
210
0.0
220
0.0
230
1.0
 70
     8
 71
     3
 72
     8
 73
     4
 74
     0
 42
0.00000001
 43
0.00000001
 40
0.0
 40
0.0
 40
0.0
 40
0.0
 40
1.0
 40
1.0
 40
1.0
 40
1.0
 10
110.08837076822915
 20
156.84692925347221
 30
0.0
 10
112.27531738281249
 20
157.25792914496526
 30
0.0
 10
113.50556098090277
 20
157.94143608940971
 30
0.0
 10
113.49901529947915
 20
158.61977539062499
 30
0.0
  0
SPLINE
  5
61
100
AcDbEntity
  8
レイヤー_2
 62
     7
100
AcDbSpline
210
0.0
220
0.0
230
1.0
 70
     8
 71
     3
 72
    11
 73
     7
 74
     0
 42
0.00000001
 43
0.00000001
 40
0.0
 40
0.0
 40
0.0
 40
0.0
 40
1.0
 40
1.0
 40
1.0
 40
2.0
 40
2.0
 40
2.0
 40
2.0
 10
110.08905978732638
 20
162.86912841796874
 30
0.0
 10
108.51361762152777
 20
162.59610460069442
 30
0.0
 10
106.93714192708332
 20
162.48000488281249
 30
0.0
 10
105.33896213107639
 20
162.46656901041666
 30
0.0
 10
104.46494140624999
 20
162.47587076822916
 30
0.0
 10
103.59677734374999
 20
162.51307779947916
 30
0.0
 10
102.7258572048611
 20
162.58542480468748
 30
0.0
  0
SPLINE
  5
60
100
AcDbEntity
  8
レイヤー_2
 62
     7
100
AcDbSpline
210
0.0
220
0.0
230
1.0
 70
     8
 71
     3
 72
    11
 73
     7
 74
     0
 42
0.00000001
 43
0.00000001
 40
0.0
 40
0.0
 40
0.0
 40
0.0
 40
1.0
 40
1.0
 40
1.0
 40
2.0
 40
2.0
 40
2.0
 40
2.0
 10
97.248844401041652
 20
158.60599500868054
 30
0.0
 10
97.248844401041652
 20
158.60599500868054
 30
0.0
 10
97.248844401041652
 20
162.62831624348956
 30
0.0
 10
97.248844401041652
 20
162.62831624348956
 30
0.0
 10
97.248844401041652
 20
163.17315809461803
 30
0.0
 10
97.010788302951383
 20
164.35172526041666
 30
0.0
 10
97.386303710937497
 20
165.0290310329861
 30
0.0
  0
SPLINE
  5
5F
100
AcDbEntity
  8
レイヤー_2
 62
     7
100
AcDbSpline
210
0.0
220
0.0
230
1.0
 70
     8
 71
     3
 72
    11
 73
     7
 74
     0
 42
0.00000001
 43
0.00000001
 40
0.0
 40
0.0
 40
0.0
 40
0.0
 40
1.0
 40
1.0
 40
1.0
 40
2.0
 40
2.0
 40
2.0
 40
2.0
 10
110.08905978732638
 20
156.84692925347221
 30
0.0
 10
108.51361762152777
 20
156.57373318142359
 30
0.0
 10
106.93714192708332
 20
156.45763346354164
 30
0.0
 10
105.33896213107639
 20
156.44385308159721
 30
0.0
 10
104.46494140624999
 20
156.45315483940971
 30
0.0
 10
103.59677734374999
 20
156.49036187065971
 30
0.0
 10
102.7258572048611
 20
156.56270887586805
 30
0.0
  0
SPLINE
  5
5E
100
AcDbEntity
  8
レイヤー_2
 62
     7
100
AcDbSpline
210
0.0
220
0.0
230
1.0
 70
     8
 71
     3
 72
    11
 73
     7
 74
     0
 42
0.00000001
 43
0.00000001
 40
0.0
 40
0.0
 40
0.0
 40
0.0
 40
1.0
 40
1.0
 40
1.0
 40
2.0
 40
2.0
 40
2.0
 40
2.0
 10
113.35914442274304
 20
165.03282063802081
 30
0.0
 10
113.73879394531249
 20
164.2754163953993
 30
0.0
 10
113.49901529947915
 20
163.64375813802081
 30
0.0
 10
113.49901529947915
 20
162.64691975911458
 30
0.0
 10
113.49901529947915
 20
162.64691975911458
 30
0.0
 10
113.49901529947915
 20
158.62425401475693
 30
0.0
 10
113.49901529947915
 20
158.62425401475693
 30
0.0
  0
SPLINE
  5
5D
100
AcDbEntity
  8
レイヤー_2
 62
     7
100
AcDbSpline
210
0.0
220
0.0
230
1.0
 70
     8
 71
     3
 72
    14
 73
    10
 74
     0
 42
0.00000001
 43
0.00000001
 40
0.0
 40
0.0
 40
0.0
 40
0.0
 40
1.0
 40
1.0
 40
1.0
 40
2.0
 40
2.0
 40
2.0
 40
3.0
 40
3.0
 40
3.0
 40
3.0
 10
120.40057508680555
 20
161.10472276475693
 30
0.0
 10
120.43916015624998
 20
161.11230197482638
 30
0.0
 10
120.47843424479166
 20
161.12160373263887
 30
0.0
 10
120.51047363281249
 20
161.13021647135415
 30
0.0
 10
121.89436848958333
 20
161.49970296223958
 30
0.0
 10
122.57546386718749
 20
163.44618191189235
 30
0.0
 10
122.03320583767361
 20
165.47637668185763
 30
0.0
 10
121.50576171874999
 20
167.45127766927081
 30
0.0
 10
120.01437988281249
 20
168.77850070529513
 30
0.0
 10
118.65494520399305
 20
168.50874972873262
 30
0.0
  0
SPLINE
  5
5C
100
AcDbEntity
  8
レイヤー_2
 62
     7
100
AcDbSpline
210
0.0
220
0.0
230
1.0
 70
     8
 71
     3
 72
     8
 73
     4
 74
     0
 42
0.00000001
 43
0.00000001
 40
0.0
 40
0.0
 40
0.0
 40
0.0
 40
1.0
 40
1.0
 40
1.0
 40
1.0
 10
117.00991210937499
 20
160.24138183593749
 30
0.0
 10
118.32628309461805
 20
158.62701009114582
 30
0.0
 10
119.91516113281249
 20
157.97381998697915
 30
0.0
 10
121.37794867621527
 20
158.2449490017361
 30
0.0
  0
SPLINE
  5
5B
100
AcDbEntity
  8
レイヤー_2
 62
     7
100
AcDbSpline
210
0.0
220
0.0
230
1.0
 70
     8
 71
     3
 72
     8
 73
     4
 74
     0
 42
0.00000001
 43
0.00000001
 40
0.0
 40
0.0
 40
0.0
 40
0.0
 40
1.0
 40
1.0
 40
1.0
 40
1.0
 10
119.59993489583333
 20
171.92886827256942
 30
0.0
 10
119.54136827256943
 20
171.91319308810762
 30
0.0
 10
119.48349066840277
 20
171.89579535590275
 30
0.0
 10
119.43457031249999
 20
171.88029242621525
 30
0.0
  0
SPLINE
  5
5A
100
AcDbEntity
  8
レイヤー_2
 62
     7
100
AcDbSpline
210
0.0
220
0.0
230
1.0
 70
     8
 71
     3
 72
    14
 73
    10
 74
     0
 42
0.00000001
 43
0.00000001
 40
0.0
 40
0.0
 40
0.0
 40
0.0
 40
1.0
 40
1.0
 40
1.0
 40
2.0
 40
2.0
 40
2.0
 40
3.0
 40
3.0
 40
3.0
 40
3.0
 10
122.94443359374999
 20
158.62425401475693
 30
0.0
 10
123.01540256076387
 20
158.63837890624998
 30
0.0
 10
123.08499348958333
 20
158.65457085503471
 30
0.0
 10
123.14424913194443
 20
158.67110731336805
 30
0.0
 10
125.6391872829861
 20
159.33807779947915
 30
0.0
 10
126.86805284288194
 20
162.84707980685764
 30
0.0
 10
125.88930121527777
 20
166.5081827799479
 30
0.0
 10
124.91089409722221
 20
170.16911349826387
 30
0.0
 10
122.09487304687499
 20
172.59601101345484
 30
0.0
 10
119.59993489583333
 20
171.92886827256942
 30
0.0
  0
SPLINE
  5
59
100
AcDbEntity
  8
レイヤー_2
 62
     7
100
AcDbSpline
210
0.0
220
0.0
230
1.0
 70
     8
 71
     3
 72
     8
 73
     4
 74
     0
 42
0.00000001
 43
0.00000001
 40
0.0
 40
0.0
 40
0.0
 40
0.0
 40
1.0
 40
1.0
 40
1.0
 40
1.0
 10
117.73613823784721
 20
171.37145182291664
 30
0.0
 10
116.2940212673611
 20
170.80869547526041
 30
0.0
 10
115.37039116753471
 20
169.35848253038193
 30
0.0
 10
115.07066786024305
 20
167.50639919704861
 30
0.0
  0
SPLINE
  5
58
100
AcDbEntity
  8
レイヤー_2
 62
     7
100
AcDbSpline
210
0.0
220
0.0
230
1.0
 70
     8
 71
     3
 72
     8
 73
     4
 74
     0
 42
0.00000001
 43
0.00000001
 40
0.0
 40
0.0
 40
0.0
 40
0.0
 40
1.0
 40
1.0
 40
1.0
 40
1.0
 10
117.88737792968749
 20
171.42640109592011
 30
0.0
 10
117.83328993055555
 20
171.40900336371527
 30
0.0
 10
117.78057996961805
 20
171.38919406467014
 30
0.0
 10
117.73613823784721
 20
171.37145182291664
 30
0.0
  0
SPLINE
  5
57
100
AcDbEntity
  8
レイヤー_2
 62
     7
100
AcDbSpline
210
0.0
220
0.0
230
1.0
 70
     8
 71
     3
 72
    11
 73
     7
 74
     0
 42
0.00000001
 43
0.00000001
 40
0.0
 40
0.0
 40
0.0
 40
0.0
 40
1.0
 40
1.0
 40
1.0
 40
2.0
 40
2.0
 40
2.0
 40
2.0
 10
115.29287651909721
 20
162.96524658203123
 30
0.0
 10
115.29287651909721
 20
163.181598578559
 30
0.0
 10
115.26600477430554
 20
163.39571126302081
 30
0.0
 10
115.2181179470486
 20
163.58760308159719
 30
0.0
 10
115.00555555555555
 20
164.46644694010416
 30
0.0
 10
114.40059678819443
 20
165.09621039496525
 30
0.0
 10
113.78461371527777
 20
165.12549370659721
 30
0.0
  0
SPLINE
  5
56
100
AcDbEntity
  8
レイヤー_2
 62
     7
100
AcDbSpline
210
0.0
220
0.0
230
1.0
 70
     8
 71
     3
 72
     8
 73
     4
 74
     0
 42
0.00000001
 43
0.00000001
 40
0.0
 40
0.0
 40
0.0
 40
0.0
 40
1.0
 40
1.0
 40
1.0
 40
1.0
 10
114.7747341579861
 20
161.71088731553817
 30
0.0
 10
115.11166449652777
 20
161.96616889105903
 30
0.0
 10
115.29012044270833
 20
162.44331461588541
 30
0.0
 10
115.29149848090277
 20
162.98126627604165
 30
0.0
  0
SPLINE
  5
55
100
AcDbEntity
  8
レイヤー_2
 62
     7
100
AcDbSpline
210
0.0
220
0.0
230
1.0
 70
     8
 71
     3
 72
     8
 73
     4
 74
     0
 42
0.00000001
 43
0.00000001
 40
0.0
 40
0.0
 40
0.0
 40
0.0
 40
1.0
 40
1.0
 40
1.0
 40
1.0
 10
118.04964192708333
 20
171.47514919704861
 30
0.0
 10
117.99210883246526
 20
171.45895724826389
 30
0.0
 10
117.93457573784721
 20
171.44207628038194
 30
0.0
 10
117.88668891059027
 20
171.42640109592011
 30
0.0
  0
SPLINE
  5
54
100
AcDbEntity
  8
レイヤー_2
 62
     7
100
AcDbSpline
210
0.0
220
0.0
230
1.0
 70
     8
 71
     3
 72
    14
 73
    10
 74
     0
 42
0.00000001
 43
0.00000001
 40
0.0
 40
0.0
 40
0.0
 40
0.0
 40
1.0
 40
1.0
 40
1.0
 40
2.0
 40
2.0
 40
2.0
 40
3.0
 40
3.0
 40
3.0
 40
3.0
 10
121.37829318576388
 20
158.24598253038192
 30
0.0
 10
121.44822862413193
 20
158.25941840277775
 30
0.0
 10
121.51816406249999
 20
158.2759548611111
 30
0.0
 10
121.57638617621527
 20
158.2918023003472
 30
0.0
 10
124.0578884548611
 20
158.95532769097221
 30
0.0
 10
125.2795193142361
 20
162.44538167317708
 30
0.0
 10
124.3059353298611
 20
166.08512505425347
 30
0.0
 10
123.33097330729166
 20
169.72538519965275
 30
0.0
 10
120.53011067708333
 20
172.13884684244789
 30
0.0
 10
118.04964192708333
 20
171.47514919704861
 30
0.0
  0
SPLINE
  5
53
100
AcDbEntity
  8
レイヤー_2
 62
     7
100
AcDbSpline
210
0.0
220
0.0
230
1.0
 70
     8
 71
     3
 72
    14
 73
    10
 74
     0
 42
0.00000001
 43
0.00000001
 40
0.0
 40
0.0
 40
0.0
 40
0.0
 40
1.0
 40
1.0
 40
1.0
 40
2.0
 40
2.0
 40
2.0
 40
3.0
 40
3.0
 40
3.0
 40
3.0
 10
114.23729926215277
 20
159.70015733506943
 30
0.0
 10
114.50326063368054
 20
159.65950520833331
 30
0.0
 10
114.75647515190971
 20
159.67500813802081
 30
0.0
 10
114.97454969618055
 20
159.73598632812499
 30
0.0
 10
116.32640516493055
 20
160.09393174913194
 30
0.0
 10
116.99716525607637
 20
161.99321289062499
 30
0.0
 10
116.47144368489582
 20
163.97827690972221
 30
0.0
 10
116.00256618923611
 20
165.74905598958333
 30
0.0
 10
114.74097222222221
 20
166.98980712890622
 30
0.0
 10
113.49832628038193
 20
166.9822279188368
 30
0.0
  0
SPLINE
  5
52
100
AcDbEntity
  8
レイヤー_2
 62
     7
100
AcDbSpline
210
0.0
220
0.0
230
1.0
 70
     8
 71
     3
 72
     8
 73
     4
 74
     0
 42
0.00000001
 43
0.00000001
 40
0.0
 40
0.0
 40
0.0
 40
0.0
 40
1.0
 40
1.0
 40
1.0
 40
1.0
 10
114.11051974826388
 20
161.54879557291665
 30
0.0
 10
114.30689019097221
 20
161.49625786675347
 30
0.0
 10
114.59731174045137
 20
161.56860487196178
 30
0.0
 10
114.7747341579861
 20
161.71088731553817
 30
0.0
  0
LINE
  5
51
100
AcDbEntity
  8
レイヤー_2
 62
     7
100
AcDbLine
 10
118.654945
 20
168.50875
 30
0.0
 11
113.498326
 21
167.065255
 31
0.0
  0
LINE
  5
50
100
AcDbEntity
  8
レイヤー_2
 62
     7
100
AcDbLine
 10
121.295611
 20
167.67607
 30
0.0
 11
121.301812
 21
167.667974
 31
0.0
  0
LINE
  5
4F
100
AcDbEntity
  8
レイヤー_2
 62
     7
100
AcDbLine
 10
118.104763
 20
168.522702
 30
0.0
 11
118.11062
 21
168.527353
 31
0.0
  0
LINE
  5
4E
100
AcDbEntity
  8
レイヤー_2
 62
     7
100
AcDbLine
 10
122.945123
 20
158.624254
 30
0.0
 11
121.377949
 21
158.245983
 31
0.0
  0
LINE
  5
4D
100
AcDbEntity
  8
レイヤー_2
 62
     7
100
AcDbLine
 10
117.886689
 20
171.426401
 30
0.0
 11
119.43457
 21
171.880292
 31
0.0
  0
LINE
  5
4C
100
AcDbEntity
  8
レイヤー_2
 62
     7
100
AcDbLine
 10
113.625795
 20
165.103962
 30
0.0
 11
113.821476
 21
165.11912
 31
0.0
  0
LINE
  5
4B
100
AcDbEntity
  8
レイヤー_2
 62
     7
100
AcDbLine
 10
114.628662
 20
161.627861
 30
0.0
 11
114.457441
 21
161.577907
 31
0.0
  0
LINE
  5
4A
100
AcDbEntity
  8
レイヤー_2
 62
     7
100
AcDbLine
 10
113.683672
 20
165.108613
 30
0.0
 11
113.410821
 21
164.9541
 31
0.0
  0
LINE
  5
49
100
AcDbEntity
  8
レイヤー_2
 62
     7
100
AcDbLine
 10
115.787937
 20
160.383664
 30
0.0
 11
115.780358
 21
160.375396
 31
0.0
  0
POLYLINE
  5
42
100
AcDbEntity
  8
レイヤー_2
 62
     7
100
AcDb2dPolyline
 66
     1
 10
0.0
 20
0.0
 30
0.0
  0
VERTEX
  5
43
100
AcDbEntity
  8
レイヤー_2
 62
     7
100
AcDbVertex
100
AcDb2dVertex
 10
114.497748
 20
159.675353
 30
0.0
  0
VERTEX
  5
44
100
AcDbEntity
  8
レイヤー_2
 62
     7
100
AcDbVertex
100
AcDb2dVertex
 10
114.917017
 20
159.709459
 30
0.0
  0
VERTEX
  5
45
100
AcDbEntity
  8
レイヤー_2
 62
     7
100
AcDbVertex
100
AcDb2dVertex
 10
116.854883
 20
160.202108
 30
0.0
  0
VERTEX
  5
46
100
AcDbEntity
  8
レイヤー_2
 62
     7
100
AcDbVertex
100
AcDb2dVertex
 10
118.46202
 20
160.611041
 30
0.0
  0
VERTEX
  5
47
100
AcDbEntity
  8
レイヤー_2
 62
     7
100
AcDbVertex
100
AcDb2dVertex
 10
120.400575
 20
161.104723
 30
0.0
  0
SEQEND
  5
48
100
AcDbEntity
  8
レイヤー_2
 62
     7
  0
SPLINE
  5
41
100
AcDbEntity
  8
レイヤー_2
 62
     7
100
AcDbSpline
210
0.0
220
0.0
230
1.0
 70
     8
 71
     3
 72
     8
 73
     4
 74
     0
 42
0.00000001
 43
0.00000001
 40
0.0
 40
0.0
 40
0.0
 40
0.0
 40
1.0
 40
1.0
 40
1.0
 40
1.0
 10
114.23729926215277
 20
159.70015733506943
 30
0.0
 10
113.96169162326387
 20
159.75906846788192
 30
0.0
 10
113.75360785590277
 20
159.83933919270831
 30
0.0
 10
113.49901529947915
 20
159.96370713975693
 30
0.0
  0
SPLINE
  5
40
100
AcDbEntity
  8
レイヤー_2
 62
     7
100
AcDbSpline
210
0.0
220
0.0
230
1.0
 70
     8
 71
     3
 72
     8
 73
     4
 74
     0
 42
0.00000001
 43
0.00000001
 40
0.0
 40
0.0
 40
0.0
 40
0.0
 40
1.0
 40
1.0
 40
1.0
 40
1.0
 10
114.79058159722221
 20
161.72570122612845
 30
0.0
 10
114.58904351128471
 20
161.60426161024304
 30
0.0
 10
114.69859754774305
 20
161.6559380425347
 30
0.0
 10
114.45744086371526
 20
161.5779066297743
 30
0.0
  0
LINE
  5
3F
100
AcDbEntity
  8
レイヤー_2
 62
     7
100
AcDbLine
 10
124.540202
 20
171.2147
 30
0.0
 11
141.16141
 21
166.760881
 31
0.0
  0
LINE
  5
3E
100
AcDbEntity
  8
レイヤー_2
 62
     7
100
AcDbLine
 10
123.402287
 20
157.978643
 30
0.0
 11
140.972274
 21
153.270576
 31
0.0
  0
LINE
  5
3D
100
AcDbEntity
  8
レイヤー_2
 62
     7
100
AcDbLine
 10
140.656359
 20
165.716844
 30
0.0
 11
139.831947
 21
167.143458
 31
0.0
  0
LINE
  5
3C
100
AcDbEntity
  8
レイヤー_2
 62
     7
100
AcDbLine
 10
139.831947
 20
167.143458
 30
0.0
 11
139.008569
 21
168.569728
 31
0.0
  0
LINE
  5
3B
100
AcDbEntity
  8
レイヤー_2
 62
     7
100
AcDbLine
 10
140.653602
 20
152.150231
 30
0.0
 11
139.830225
 21
153.576845
 31
0.0
  0
LINE
  5
3A
100
AcDbEntity
  8
レイヤー_2
 62
     7
100
AcDbLine
 10
139.830225
 20
153.576845
 30
0.0
 11
139.006847
 21
155.003114
 31
0.0
  0
LINE
  5
39
100
AcDbEntity
  8
レイヤー_2
 62
     7
100
AcDbLine
 10
139.831947
 20
168.060887
 30
0.0
 11
139.831947
 21
136.07886
 31
0.0
  0
LINE
  5
38
100
AcDbEntity
  8
レイヤー_2
 62
     7
100
AcDbLine
 10
122.453852
 20
157.115647
 30
0.0
 11
122.453852
 21
133.800963
 31
0.0
  0
LINE
  5
37
100
AcDbEntity
  8
レイヤー_2
 62
     7
100
AcDbLine
 10
97.420066
 20
127.179489
 30
0.0
 11
97.420066
 21
157.03572
 31
0.0
  0
LINE
  5
36
100
AcDbEntity
  8
レイヤー_2
 62
     7
100
AcDbLine
 10
96.446137
 20
127.165709
 30
0.0
 11
98.396061
 21
129.489426
 31
0.0
  0
LINE
  5
35
100
AcDbEntity
  8
レイヤー_2
 62
     7
100
AcDbLine
 10
121.474756
 20
133.712769
 30
0.0
 11
123.339586
 21
136.375138
 31
0.0
  0
LINE
  5
34
100
AcDbEntity
  8
レイヤー_2
 62
     7
100
AcDbLine
 10
123.361635
 20
135.317494
 30
0.0
 11
96.317291
 21
128.070736
 31
0.0
  0
LINE
  5
33
100
AcDbEntity
  8
レイヤー_2
 62
     7
100
AcDbLine
 10
95.048806
 20
188.780897
 30
0.0
 11
81.269113
 21
185.088272
 31
0.0
  0
LINE
  5
32
100
AcDbEntity
  8
レイヤー_2
 62
     7
100
AcDbLine
 10
82.641984
 20
186.828562
 30
0.0
 11
82.641984
 21
146.871655
 31
0.0
  0
LINE
  5
31
100
AcDbEntity
  8
レイヤー_2
 62
     7
100
AcDbLine
 10
83.729256
 20
184.341375
 30
0.0
 11
81.584684
 21
186.486464
 31
0.0
  0
LINE
  5
30
100
AcDbEntity
  8
レイヤー_2
 62
     7
100
AcDbLine
 10
83.640373
 20
146.972252
 30
0.0
 11
81.495801
 21
149.116824
 31
0.0
  0
LINE
  5
2F
100
AcDbEntity
  8
レイヤー_2
 62
     7
100
AcDbLine
 10
118.136803
 20
157.372306
 30
0.0
 11
81.627059
 21
147.589613
 31
0.0
  0
LINE
  5
2E
100
AcDbEntity
  8
レイヤー_2
 62
     7
100
AcDbLine
 10
112.624306
 20
187.169282
 30
0.0
 11
131.861374
 21
192.323834
 31
0.0
  0
LINE
  5
2D
100
AcDbEntity
  8
レイヤー_2
 62
     7
100
AcDbLine
 10
101.046029
 20
190.481052
 30
0.0
 11
119.98992
 21
195.557228
 31
0.0
  0
LINE
  5
2C
100
AcDbEntity
  8
レイヤー_2
 62
     7
100
AcDbLine
 10
131.961282
 20
191.930059
 30
0.0
 11
128.927186
 21
191.930576
 31
0.0
  0
LINE
  5
2B
100
AcDbEntity
  8
レイヤー_2
 62
     7
100
AcDbLine
 10
117.086738
 20
195.529323
 30
0.0
 11
131.831746
 21
191.578315
 31
0.0
  0
LINE
  5
2A
100
AcDbEntity
  8
レイヤー_2
 62
     7
100
AcDbLine
 10
120.019548
 20
195.129692
 30
0.0
 11
116.986141
 21
195.129692
 31
0.0
  0
MTEXT
  5
29
100
AcDbEntity
  8
レイヤー_2
 62
     7
100
AcDbMText
 10
75.731323
 20
159.318468
 30
0.0
 40
5.907882
 41
0.0
 71
     1
 72
     2
  1
\fMS Gothic|b0|i0|c128;\H5.9079;\W0.97;\C7;\Q-15.00;\U+0031\U+0032\U+0035
  7
STD
210
0.0
220
0.0
230
1.0
 11
0.0
 21
1.0
 31
0.0
 73
     1
 44
1.0
  0
ENDSEC
  0
SECTION
  2
OBJECTS
  0
DICTIONARY
  5
19
100
AcDbDictionary
280
     0
281
     1
  3
ACAD_GROUP
350
1A
  3
ACAD_MLINESTYLE
350
1B
  3
ACAD_LAYOUT
350
1E
  3
ACAD_PLOTSETTINGS
350
22
  3
ACAD_PLOTSTYLENAME
350
1F
  3
ACAD_WIPEOUT_VARS
350
23
  0
DICTIONARY
  5
1A
102
{ACAD_REACTORS
330
19
102
}
100
AcDbDictionary
280
     0
281
     1
  0
DICTIONARY
  5
1B
102
{ACAD_REACTORS
330
19
102
}
100
AcDbDictionary
280
     0
281
     1
  3
Standard
350
1C
  0
MLINESTYLE
  5
1C
102
{ACAD_REACTORS
330
1B
102
}
100
AcDbMlineStyle
  2
Standard
 70
     0
  3

 62
     0
 51
90.0
 52
90.0
 71
     2
 49
0.5
 62
   256
  6
ByLayer
 49
-0.5
 62
   256
  6
ByLayer
  0
ACDBDICTIONARYWDFLT
  5
1F
102
{ACAD_REACTORS
330
19
102
}
100
AcDbDictionary
281
     1
  3
Normal
350
1D
100
AcDbDictionaryWithDefault
340
1D
  0
ACDBPLACEHOLDER
  5
1D
102
{ACAD_REACTORS
330
1F
102
}
  0
LAYOUT
  5
20
102
{ACAD_REACTORS
330
1E
102
}
100
AcDbPlotSettings
  1

  2

  4

  6

 40
0.0
 41
0.0
 42
0.0
 43
0.0
 44
0.0
 45
0.0
 46
0.0
 47
0.0
 48
0.0
 49
0.0
140
0.0
141
0.0
142
1.0
143
1.0
 70
  1024
 72
     0
 73
     0
 74
     0
  7

 75
     0
147
1.0
148
0.0
149
0.0
100
AcDbLayout
  1
Model
 70
     0
 71
     0
 10
0.0
 20
0.0
 11
0.0
 21
0.0
 12
0.0
 22
0.0
 32
0.0
 14
0.0
 24
0.0
 34
0.0
 15
0.0
 25
0.0
 35
0.0
146
0.0
 13
0.0
 23
0.0
 33
0.0
 16
0.0
 26
0.0
 36
0.0
 17
0.0
 27
0.0
 37
0.0
 76
     0
330
A
331
0
345
0
346
0
  0
LAYOUT
  5
21
102
{ACAD_REACTORS
330
1E
102
}
100
AcDbPlotSettings
  1

  2

  4

  6

 40
0.0
 41
0.0
 42
0.0
 43
0.0
 44
0.0
 45
0.0
 46
0.0
 47
0.0
 48
0.0
 49
0.0
140
0.0
141
0.0
142
1.0
143
1.0
 70
     0
 72
     0
 73
     0
 74
     0
  7

 75
     0
147
1.0
148
0.0
149
0.0
100
AcDbLayout
  1
Layout1
 70
     0
 71
     0
 10
0.0
 20
0.0
 11
0.0
 21
0.0
 12
0.0
 22
0.0
 32
0.0
 14
0.0
 24
0.0
 34
0.0
 15
0.0
 25
0.0
 35
0.0
146
0.0
 13
0.0
 23
0.0
 33
0.0
 16
0.0
 26
0.0
 36
0.0
 17
0.0
 27
0.0
 37
0.0
 76
     0
330
B
331
0
345
0
346
0
  0
DICTIONARY
  5
1E
102
{ACAD_REACTORS
330
19
102
}
100
AcDbDictionary
280
     0
281
     1
  3
Layout1
350
21
  3
Model
350
20
  0
DICTIONARY
  5
22
102
{ACAD_REACTORS
330
19
102
}
100
AcDbDictionary
280
     0
281
     1
  0
WIPEOUTVARIABLES
  5
23
100
AcDbWipeoutVariables
 70
     1
  0
IMAGEDEF_REACTOR
  5
8C
100
AcDbRasterImageDefReactor
 90
        2
330
8B
  0
IMAGEDEF
  5
8D
100
AcDbRasterImageDef
 90
        0
  1
\\192.168.6.3\free(2009_04\一過性\DB_WEB用DXF_丸茂\Tara．\83400892_1.bmp
 10
70.0
 20
9.0
 11
0.352778
 21
0.352778
280
     1
281
     0
  0
IMAGEDEF_REACTOR
  5
8F
100
AcDbRasterImageDefReactor
 90
        2
330
8E
  0
IMAGEDEF
  5
90
100
AcDbRasterImageDef
 90
        0
  1
\\192.168.6.3\free(2009_04\一過性\DB_WEB用DXF_丸茂\Tara．\83400892_2.bmp
 10
70.0
 20
9.0
 11
0.352778
 21
0.352778
280
     1
281
     0
  0
ENDSEC
  0
EOF
