  0
SECTION
  2
HEADER
  9
$ACADVER
  1
AC1015
  9
$ACADMAINTVER
 70
     6
  9
$DWGCODEPAGE
  3
ANSI_932
  9
$INSBASE
 10
0.0
 20
0.0
 30
0.0
  9
$EXTMIN
 10
16.698206
 20
23.015305
 30
1.000000E+20
  9
$EXTMAX
 10
192.381711
 20
273.134922
 30
-1.000000E+20
  9
$LIMMIN
 10
16.698206
 20
23.015305
  9
$LIMMAX
 10
192.381711
 20
273.134922
  9
$ORTHOMODE
 70
     0
  9
$REGENMODE
 70
     1
  9
$FILLMODE
 70
     1
  9
$QTEXTMODE
 70
     0
  9
$MIRRTEXT
 70
     1
  9
$LTSCALE
 40
1.0
  9
$ATTMODE
 70
     1
  9
$TEXTSIZE
 40
0.2
  9
$TRACEWID
 40
0.05
  9
$TEXTSTYLE
  7
Standard
  9
$CLAYER
  8
0
  9
$CELTYPE
  6
Continuous
  9
$CECOLOR
 62
   256
  9
$CELTSCALE
 40
1.0
  9
$DISPSILH
 70
     0
  9
$DIMSCALE
 40
1.0
  9
$DIMASZ
 40
0.18
  9
$DIMEXO
 40
0.0625
  9
$DIMDLI
 40
0.38
  9
$DIMRND
 40
0.0
  9
$DIMDLE
 40
0.0
  9
$DIMEXE
 40
0.18
  9
$DIMTP
 40
0.0
  9
$DIMTM
 40
0.0
  9
$DIMTXT
 40
0.18
  9
$DIMCEN
 40
0.09
  9
$DIMTSZ
 40
0.0
  9
$DIMTOL
 70
     0
  9
$DIMLIM
 70
     0
  9
$DIMTIH
 70
     1
  9
$DIMTOH
 70
     1
  9
$DIMSE1
 70
     0
  9
$DIMSE2
 70
     0
  9
$DIMTAD
 70
     0
  9
$DIMZIN
 70
     0
  9
$DIMBLK
  1

  9
$DIMASO
 70
     1
  9
$DIMSHO
 70
     1
  9
$DIMPOST
  1

  9
$DIMAPOST
  1

  9
$DIMALT
 70
     0
  9
$DIMALTD
 70
     2
  9
$DIMALTF
 40
25.4
  9
$DIMLFAC
 40
1.0
  9
$DIMTOFL
 70
     0
  9
$DIMTVP
 40
0.0
  9
$DIMTIX
 70
     0
  9
$DIMSOXD
 70
     0
  9
$DIMSAH
 70
     0
  9
$DIMBLK1
  1

  9
$DIMBLK2
  1

  9
$DIMSTYLE
  2
Standard
  9
$DIMCLRD
 70
     0
  9
$DIMCLRE
 70
     0
  9
$DIMCLRT
 70
     0
  9
$DIMTFAC
 40
1.0
  9
$DIMGAP
 40
0.09
  9
$DIMJUST
 70
     0
  9
$DIMSD1
 70
     0
  9
$DIMSD2
 70
     0
  9
$DIMTOLJ
 70
     1
  9
$DIMTZIN
 70
     0
  9
$DIMALTZ
 70
     0
  9
$DIMALTTZ
 70
     0
  9
$DIMUPT
 70
     0
  9
$DIMDEC
 70
     4
  9
$DIMTDEC
 70
     4
  9
$DIMALTU
 70
     2
  9
$DIMALTTD
 70
     2
  9
$DIMTXSTY
  7
Standard
  9
$DIMAUNIT
 70
     0
  9
$DIMADEC
 70
     0
  9
$DIMALTRND
 40
0.0
  9
$DIMAZIN
 70
     0
  9
$DIMDSEP
 70
     0
  9
$DIMATFIT
 70
     3
  9
$DIMFRAC
 70
     0
  9
$DIMLDRBLK
  1

  9
$DIMLUNIT
 70
     2
  9
$DIMLWD
 70
     0
  9
$DIMLWE
 70
     0
  9
$DIMTMOVE
 70
     0
  9
$LUNITS
 70
     2
  9
$LUPREC
 70
     4
  9
$SKETCHINC
 40
0.1
  9
$FILLETRAD
 40
0.0
  9
$AUNITS
 70
     0
  9
$AUPREC
 70
     0
  9
$MENU
  1
acad
  9
$ELEVATION
 40
0.0
  9
$PELEVATION
 40
0.0
  9
$THICKNESS
 40
0.0
  9
$LIMCHECK
 70
     0
  9
$CHAMFERA
 40
0.0
  9
$CHAMFERB
 40
0.0
  9
$CHAMFERC
 40
0.0
  9
$CHAMFERD
 40
0.0
  9
$SKPOLY
 70
     0
  9
$TDCREATE
 40
0.000000000
  9
$TDUCREATE
 40
0.000000000
  9
$TDUPDATE
 40
0.000000000
  9
$TDUUPDATE
 40
0.000000000
  9
$TDINDWG
 40
0.0000000000
  9
$TDUSRTIMER
 40
0.0000000000
  9
$USRTIMER
 70
     1
  9
$ANGBASE
 50
0.0
  9
$ANGDIR
 70
     0
  9
$PDMODE
 70
     0
  9
$PDSIZE
 40
0.0
  9
$PLINEWID
 40
0.0
  9
$SPLFRAME
 70
     0
  9
$SPLINETYPE
 70
     6
  9
$SPLINESEGS
 70
     8
  9
$HANDSEED
  5
F2
  9
$SURFTAB1
 70
     6
  9
$SURFTAB2
 70
     6
  9
$SURFTYPE
 70
     6
  9
$SURFU
 70
     6
  9
$SURFV
 70
     6
  9
$UCSBASE
  2

  9
$UCSNAME
  2

  9
$UCSORG
 10
0.0
 20
0.0
 30
0.0
  9
$UCSXDIR
 10
1.0
 20
0.0
 30
0.0
  9
$UCSYDIR
 10
0.0
 20
1.0
 30
0.0
  9
$UCSORTHOREF
  2

  9
$UCSORTHOVIEW
 70
     0
  9
$UCSORGTOP
 10
0.0
 20
0.0
 30
0.0
  9
$UCSORGBOTTOM
 10
0.0
 20
0.0
 30
0.0
  9
$UCSORGLEFT
 10
0.0
 20
0.0
 30
0.0
  9
$UCSORGRIGHT
 10
0.0
 20
0.0
 30
0.0
  9
$UCSORGFRONT
 10
0.0
 20
0.0
 30
0.0
  9
$UCSORGBACK
 10
0.0
 20
0.0
 30
0.0
  9
$PUCSBASE
  2

  9
$PUCSNAME
  2

  9
$PUCSORG
 10
0.0
 20
0.0
 30
0.0
  9
$PUCSXDIR
 10
1.0
 20
0.0
 30
0.0
  9
$PUCSYDIR
 10
0.0
 20
1.0
 30
0.0
  9
$PUCSORTHOREF
  2

  9
$PUCSORTHOVIEW
 70
     0
  9
$PUCSORGTOP
 10
0.0
 20
0.0
 30
0.0
  9
$PUCSORGBOTTOM
 10
0.0
 20
0.0
 30
0.0
  9
$PUCSORGLEFT
 10
0.0
 20
0.0
 30
0.0
  9
$PUCSORGRIGHT
 10
0.0
 20
0.0
 30
0.0
  9
$PUCSORGFRONT
 10
0.0
 20
0.0
 30
0.0
  9
$PUCSORGBACK
 10
0.0
 20
0.0
 30
0.0
  9
$USERI1
 70
     0
  9
$USERI2
 70
     0
  9
$USERI3
 70
     0
  9
$USERI4
 70
     0
  9
$USERI5
 70
     0
  9
$USERR1
 40
0.0
  9
$USERR2
 40
0.0
  9
$USERR3
 40
0.0
  9
$USERR4
 40
0.0
  9
$USERR5
 40
0.0
  9
$WORLDVIEW
 70
     1
  9
$SHADEDGE
 70
     3
  9
$SHADEDIF
 70
    70
  9
$TILEMODE
 70
     1
  9
$MAXACTVP
 70
    16
  9
$PINSBASE
 10
0.0
 20
0.0
 30
0.0
  9
$PLIMCHECK
 70
     0
  9
$PEXTMIN
 10
1.000000E+20
 20
1.000000E+20
 30
1.000000E+20
  9
$PEXTMAX
 10
-1.000000E+20
 20
-1.000000E+20
 30
-1.000000E+20
  9
$PLIMMIN
 10
0.0
 20
0.0
  9
$PLIMMAX
 10
12.0
 20
9.0
  9
$UNITMODE
 70
     0
  9
$VISRETAIN
 70
     0
  9
$PLINEGEN
 70
     1
  9
$PSLTSCALE
 70
     0
  9
$TREEDEPTH
 70
  3020
  9
$CMLSTYLE
  2
Standard
  9
$CMLJUST
 70
     0
  9
$CMLSCALE
 40
1.0
  9
$PROXYGRAPHICS
 70
     0
  9
$MEASUREMENT
 70
     1
  9
$CELWEIGHT
370
     0
  9
$ENDCAPS
280
     0
  9
$JOINSTYLE
280
     0
  9
$LWDISPLAY
290
     0
  9
$INSUNITS
 70
     0
  9
$HYPERLINKBASE
  1

  9
$STYLESHEET
  1

  9
$XEDIT
290
     1
  9
$CEPSNTYPE
380
     0
  9
$PSTYLEMODE
290
     1
  9
$FINGERPRINTGUID
  2

  9
$VERSIONGUID
  2

  9
$EXTNAMES
290
     1
  9
$PSVPSCALE
 40
0.0
  0
ENDSEC
  0
SECTION
  2
CLASSES
  0
CLASS
  1
LWPOLYLINE
  2
AcDbPolyline
  3
AutoCAD 2000
 90
    32768
280
     0
281
     1
  0
CLASS
  1
IMAGE
  2
AcDbRasterImage
  3
ISM
 90
      127
280
     0
281
     1
  0
CLASS
  1
OLE2FRAME
  2
AcDbOle2Frame
  3
AutoCAD 2000
 90
    32768
280
     0
281
     1
  0
CLASS
  1
HATCH
  2
AcDbHatch
  3
AutoCAD 2000
 90
    32768
280
     0
281
     1
  0
CLASS
  1
DICTIONARYVAR
  2
AcDbDictionaryVar
  3
AutoCAD 2000
 90
    32768
280
     0
281
     0
  0
CLASS
  1
RASTERVARIABLES
  2
AcDbRasterVariables
  3
ISM
 90
    32768
280
     0
281
     0
  0
CLASS
  1
IMAGEDEF
  2
AcDbRasterImageDef
  3
ISM
 90
        0
280
     0
281
     0
  0
CLASS
  1
IMAGEDEF_REACTOR
  2
AcDbRasterImageDefReactor
  3
ISM
 90
        1
280
     0
281
     0
  0
CLASS
  1
IDBUFFER
  2
AcDbIdBuffer
  3
AutoCAD 2000
 90
    32768
280
     0
281
     0
  0
CLASS
  1
SPATIAL_FILTER
  2
AcDbSpatialFilter
  3
AutoCAD 2000
 90
    32768
280
     0
281
     0
  0
CLASS
  1
XRECORD
  2
AcDbXrecord
  3
AutoCAD 2000
 90
    32768
280
     0
281
     0
  0
CLASS
  1
SORTENTSTABLE
  2
AcDbSortentsTable
  3
AutoCAD 2000
 90
    32768
280
     0
281
     0
  0
CLASS
  1
LAYER_INDEX
  2
AcDbLayerIndex
  3
AutoCAD 2000
 90
    32768
280
     0
281
     0
  0
CLASS
  1
SPATIAL_INDEX
  2
AcDbSpatialIndex
  3
AutoCAD 2000
 90
    32768
280
     0
281
     0
  0
CLASS
  1
OBJECT_PTR
  2
CAseDLPNTableRecord
  3
"ASE-LPNTableRecord"
 90
    32769
280
     0
281
     0
  0
CLASS
  1
LAYOUT
  2
AcDbLayout
  3
AutoCAD 2000
 90
        0
280
     0
281
     0
  0
CLASS
  1
PLOTSETTINGS
  2
AcDbPlotSettings
  3
AutoCAD 2000
 90
    32768
280
     0
281
     0
  0
CLASS
  1
ACDBDICTIONARYWDFLT
  2
AcDbDictionaryWithDefault
  3
AutoCAD 2000
 90
        0
280
     0
281
     0
  0
CLASS
  1
ACDBPLACEHOLDER
  2
AcDbPlaceHolder
  3
AutoCAD 2000
 90
        0
280
     0
281
     0
  0
CLASS
  1
VBA_PROJECT
  2
AcDbVbaProject
  3
acadvba
 90
    32768
280
     0
281
     0
  0
CLASS
  1
WIPEOUT
  2
AcDbWipeout
  3
WipeOut|AutoCAD Express Tool|expresstools@autodesk.com
 90
    32895
280
     0
281
     1
  0
CLASS
  1
WIPEOUTVARIABLES
  2
AcDbWipeoutVariables
  3
WipeOut|AutoCAD Express Tool|expresstools@autodesk.com
 90
        0
280
     0
281
     0
  0
CLASS
  1
RTEXT
  2
RText
  3
RText|AutoCAD Express Tool|expresstools@autodesk.com
 90
    32768
280
     0
281
     1
  0
CLASS
  1
ARCALIGNEDTEXT
  2
AcDbArcAlignedText
  3
ATEXT|AutoCAD Express Tool|expresstools@autodesk.com
 90
    32768
280
     0
281
     1
  0
ENDSEC
  0
SECTION
  2
TABLES
  0
TABLE
  2
VPORT
  5
7
100
AcDbSymbolTable
 70
     1
  0
VPORT
  5
15
100
AcDbSymbolTableRecord
100
AcDbViewportTableRecord
  2
*ACTIVE
 70
     0
 10
0.0
 20
0.0
 11
1.0
 21
1.0
 12
6.591288
 22
4.579184
 13
0.0
 23
0.0
 14
1.0
 24
1.0
 15
0.0
 25
0.0
 16
0.0
 26
0.0
 36
1.0
 17
0.0
 27
0.0
 37
0.0
 40
9.158369
 41
0.688564
 42
50.0
 43
0.0
 44
0.0
 50
0.0
 51
0.0
 71
     0
 72
   100
 73
     1
 74
     1
 75
     0
 76
     0
 77
     0
 78
     0
281
     0
 65
     0
110
0.0
120
0.0
130
0.0
111
1.0
121
0.0
131
0.0
112
0.0
122
1.0
132
0.0
345
0
346
0
 79
     0
146
0.0
  0
ENDTAB
  0
TABLE
  2
LTYPE
  5
4
100
AcDbSymbolTable
 70
     3
  0
LTYPE
  5
11
100
AcDbSymbolTableRecord
100
AcDbLinetypeTableRecord
  2
ByBlock
 70
    64
  3

 72
    65
 73
     0
 40
0.0
  0
LTYPE
  5
12
100
AcDbSymbolTableRecord
100
AcDbLinetypeTableRecord
  2
ByLayer
 70
    64
  3

 72
    65
 73
     0
 40
0.0
  0
LTYPE
  5
13
100
AcDbSymbolTableRecord
100
AcDbLinetypeTableRecord
  2
Continuous
 70
    64
  3
Solid line
 72
    65
 73
     0
 40
0.0
  0
ENDTAB
  0
TABLE
  2
LAYER
  5
2
100
AcDbSymbolTable
 70
     2
  0
LAYER
  5
14
100
AcDbSymbolTableRecord
100
AcDbLayerTableRecord
  2
0
 70
     0
 62
     7
  6
Continuous
290
     1
370
    -3
390
1D
  0
LAYER
  5
28
100
AcDbSymbolTableRecord
100
AcDbLayerTableRecord
  2
レイヤー_1
 70
     0
 62
   160
  6
Continuous
290
     1
370
    -3
390
1D
  0
ENDTAB
  0
TABLE
  2
STYLE
  5
3
100
AcDbSymbolTable
 70
     5
  0
STYLE
  5
17
100
AcDbSymbolTableRecord
100
AcDbTextStyleTableRecord
  2
Standard
 70
     0
 40
0.0
 41
1.0
 50
0.0
 71
     0
 42
0.0
  3
txt
  4

  0
STYLE
  5
24
100
AcDbSymbolTableRecord
100
AcDbTextStyleTableRecord
  2
STD
 70
     0
 40
0.0
 41
1.0
 50
0.0
 71
     0
 42
0.0
  3
txt
  4

  0
STYLE
  5
25
100
AcDbSymbolTableRecord
100
AcDbTextStyleTableRecord
  2
TATESTD
 70
     4
 40
0.0
 41
1.0
 50
0.0
 71
     0
 42
0.0
  3
txt
  4

  0
STYLE
  5
26
100
AcDbSymbolTableRecord
100
AcDbTextStyleTableRecord
  2
KANJISTD
 70
     0
 40
0.0
 41
1.0
 50
0.0
 71
     0
 42
0.0
  3
txt
  4
extfont
  0
STYLE
  5
27
100
AcDbSymbolTableRecord
100
AcDbTextStyleTableRecord
  2
KANJITATE
 70
     4
 40
0.0
 41
1.0
 50
0.0
 71
     0
 42
0.0
  3
txt
  4
extfont
  0
ENDTAB
  0
TABLE
  2
VIEW
  5
5
100
AcDbSymbolTable
 70
     0
  0
ENDTAB
  0
TABLE
  2
UCS
  5
6
100
AcDbSymbolTable
 70
     0
  0
ENDTAB
  0
TABLE
  2
APPID
  5
8
100
AcDbSymbolTable
 70
     1
  0
APPID
  5
16
100
AcDbSymbolTableRecord
100
AcDbRegAppTableRecord
  2
ACAD
 70
     0
  0
ENDTAB
  0
TABLE
  2
DIMSTYLE
  5
9
100
AcDbSymbolTable
 70
     1
100
AcDbDimStyleTable
 71
     0
  0
DIMSTYLE
105
18
100
AcDbSymbolTableRecord
100
AcDbDimStyleTableRecord
  2
Standard
 70
     0
  3

  4

 40
1.0
 41
0.18
 42
0.0625
 43
0.38
 44
0.18
 45
0.0
 46
0.0
 47
0.0
 48
0.0
 71
     0
 72
     0
 73
     1
 74
     1
 75
     0
 76
     0
 77
     0
 78
     0
 79
     0
140
0.18
141
0.09
142
0.0
143
25.4
144
1.0
145
0.0
146
1.0
147
0.09
148
0.0
170
     0
171
     2
172
     0
173
     0
174
     0
175
     0
176
     0
177
     0
178
     0
179
     0
271
     4
272
     4
273
     2
274
     2
275
     0
276
     0
277
     2
278
    46
279
     0
280
     0
281
     0
282
     0
283
     1
284
     0
285
     0
286
     0
288
     0
340
17
341
0
342
0
343
0
344
0
371
    -2
372
    -2
  0
ENDTAB
  0
TABLE
  2
BLOCK_RECORD
  5
1
100
AcDbSymbolTable
 70
     0
  0
BLOCK_RECORD
  5
A
100
AcDbSymbolTableRecord
100
AcDbBlockTableRecord
  2
*MODEL_SPACE
340
20
  0
BLOCK_RECORD
  5
B
100
AcDbSymbolTableRecord
100
AcDbBlockTableRecord
  2
*PAPER_SPACE
340
21
  0
ENDTAB
  0
ENDSEC
  0
SECTION
  2
BLOCKS
  0
BLOCK
  5
D
100
AcDbEntity
  8
0
100
AcDbBlockBegin
  2
*MODEL_SPACE
 70
     0
 10
0.0
 20
0.0
 30
0.0
  3
*MODEL_SPACE
  1

  0
ENDBLK
  5
E
100
AcDbEntity
  8
0
100
AcDbBlockEnd
  0
BLOCK
  5
F
100
AcDbEntity
 67
     1
  8
0
100
AcDbBlockBegin
  2
*PAPER_SPACE
 70
     0
 10
0.0
 20
0.0
 30
0.0
  3
*PAPER_SPACE
  1

  0
ENDBLK
  5
10
100
AcDbEntity
 67
     1
  8
0
100
AcDbBlockEnd
  0
ENDSEC
  0
SECTION
  2
ENTITIES
  0
MTEXT
  5
F1
100
AcDbEntity
  8
レイヤー_1
 62
     7
100
AcDbMText
 10
41.216261
 20
51.384518
 30
0.0
 40
3.674768
 41
0.0
 71
     1
 72
     2
  1
\fMS PGothic|b0|i0|c128;\H3.6748;\C7;\U+0038\U+0033\U+002E\U+0034\U+0031\U+0030\U+002E\U+0037\U+0038\U+0030\U+002E\U+0058\U+0058
  7
STD
210
0.0
220
0.0
230
1.0
 73
     1
 44
1.0
  0
MTEXT
  5
F0
100
AcDbEntity
  8
レイヤー_1
 62
     7
100
AcDbMText
 10
33.102372
 20
53.870761
 30
0.0
 40
1.574901
 41
0.0
 71
     1
 72
     2
  1
\fOsaka|b0|i0|c128;\H1.5749;\C7;\U+54C1\U+756A
  7
STD
210
0.0
220
0.0
230
1.0
 73
     1
 44
1.0
  0
MTEXT
  5
EF
100
AcDbEntity
  8
レイヤー_1
 62
     7
100
AcDbMText
 10
41.216261
 20
30.221735
 30
0.0
 40
3.149486
 41
0.0
 71
     1
 72
     2
  1
\fMS PGothic|b0|i0|c128;\H3.1495;\C7;\U+30BD\U+30FC\U+30D7\U+30C7\U+30A3\U+30C3\U+30B7\U+30E5\U+0020
  7
STD
210
0.0
220
0.0
230
1.0
 73
     1
 44
1.0
  0
MTEXT
  5
EE
100
AcDbEntity
  8
レイヤー_1
 62
     7
100
AcDbMText
 10
33.102372
 20
32.704094
 30
0.0
 40
1.574901
 41
0.0
 71
     1
 72
     2
  1
\fOsaka|b0|i0|c128;\H1.5749;\C7;\U+54C1
  7
STD
210
0.0
220
0.0
230
1.0
 73
     1
 44
1.0
  0
MTEXT
  5
ED
100
AcDbEntity
  8
レイヤー_1
 62
     7
100
AcDbMText
 10
41.216261
 20
40.217335
 30
0.0
 40
3.149486
 41
0.0
 71
     1
 72
     2
  1
\fMS PGothic|b0|i0|c128;\H3.1495;\C7;\U+FF2D\U+FF25\U+FF2D
  7
STD
210
0.0
220
0.0
230
1.0
 73
     1
 44
1.0
  0
POLYLINE
  5
E7
100
AcDbEntity
  8
レイヤー_1
 62
     7
100
AcDb2dPolyline
 66
     1
 10
0.0
 20
0.0
 30
0.0
 70
     1
  0
VERTEX
  5
E8
100
AcDbEntity
  8
レイヤー_1
 62
     7
100
AcDbVertex
100
AcDb2dVertex
 10
17.050983
 20
23.368083
 30
0.0
  0
VERTEX
  5
E9
100
AcDbEntity
  8
レイヤー_1
 62
     7
100
AcDbVertex
100
AcDb2dVertex
 10
192.028933
 20
23.368083
 30
0.0
  0
VERTEX
  5
EA
100
AcDbEntity
  8
レイヤー_1
 62
     7
100
AcDbVertex
100
AcDb2dVertex
 10
192.028933
 20
272.782144
 30
0.0
  0
VERTEX
  5
EB
100
AcDbEntity
  8
レイヤー_1
 62
     7
100
AcDbVertex
100
AcDb2dVertex
 10
17.050983
 20
272.782144
 30
0.0
  0
SEQEND
  5
EC
100
AcDbEntity
  8
レイヤー_1
 62
     7
  0
LINE
  5
E6
100
AcDbEntity
  8
レイヤー_1
 62
     7
100
AcDbLine
 10
163.9831
 20
33.775027
 30
0.0
 11
21.107928
 21
33.775027
 31
0.0
  0
LINE
  5
E5
100
AcDbEntity
  8
レイヤー_1
 62
     7
100
AcDbLine
 10
163.9831
 20
44.35836
 30
0.0
 11
21.107928
 21
44.35836
 31
0.0
  0
LINE
  5
E4
100
AcDbEntity
  8
レイヤー_1
 62
     7
100
AcDbLine
 10
17.050983
 20
55.118083
 30
0.0
 11
191.676156
 21
55.118083
 31
0.0
  0
LINE
  5
E3
100
AcDbEntity
  8
レイヤー_1
 62
     7
100
AcDbLine
 10
164.159489
 20
55.118083
 30
0.0
 11
164.159489
 21
23.72086
 31
0.0
  0
MTEXT
  5
E2
100
AcDbEntity
  8
レイヤー_1
 62
     7
100
AcDbMText
 10
22.519039
 20
43.287428
 30
0.0
 40
1.574901
 41
0.0
 71
     1
 72
     2
  1
\fOsaka|b0|i0|c128;\H1.5749;\C7;\U+30BB\U+30EC\U+30AF\U+30B7\U+30E7\U+30F3
  7
STD
210
0.0
220
0.0
230
1.0
 73
     1
 44
1.0
  0
MTEXT
  5
E1
100
AcDbEntity
  8
レイヤー_1
 62
     7
100
AcDbMText
 10
167.510878
 20
51.917569
 30
0.0
 40
3.149486
 41
0.0
 71
     1
 72
     2
  1
\fHeiseiKakuGothicCAN W9|b0|i0|c128;\H3.1495;\C253;\U+5BF8\U+6CD5\U+53C2\U+8003\U+56F3
  7
STD
210
0.0
220
0.0
230
1.0
 73
     1
 44
1.0
  0
LINE
  5
E0
100
AcDbEntity
  8
レイヤー_1
 62
     7
100
AcDbLine
 10
20.931539
 20
55.118083
 30
0.0
 11
20.931539
 21
23.72086
 31
0.0
  0
IMAGE
  5
DD
100
AcDbEntity
  8
レイヤー_1
 62
     7
 92
        0
100
AcDbRasterImage
 90
        0
 10
165.5706
 20
25.83721
 30
0.0
 11
0.352531
 21
0.0
 31
0.0
 12
0.0
 22
0.352813
 32
0.0
 13
70.0
 23
9.0
340
DF
 70
     7
280
     0
281
    50
282
    50
283
     0
360
DE
 71
     1
 91
        2
 14
-0.5
 24
-0.5
 14
69.5
 24
8.5
  0
IMAGE
  5
DA
100
AcDbEntity
  8
レイヤー_1
 62
     7
 92
        0
100
AcDbRasterImage
 90
        0
 10
165.5706
 20
25.83721
 30
0.0
 11
0.352531
 21
0.0
 31
0.0
 12
0.0
 22
0.352813
 32
0.0
 13
70.0
 23
9.0
340
DC
 70
     7
280
     0
281
    50
282
    50
283
     0
360
DB
 71
     1
 91
        2
 14
-0.5
 24
-0.5
 14
69.5
 24
8.5
  0
MTEXT
  5
D9
100
AcDbEntity
  8
レイヤー_1
 62
     7
100
AcDbMText
 10
106.8331
 20
43.287428
 30
0.0
 40
1.574901
 41
0.0
 71
     1
 72
     2
  1
\fOsaka|b0|i0|c128;\H1.5749;\C7;\U+4ED5\U+4E0A
  7
STD
210
0.0
220
0.0
230
1.0
 73
     1
 44
1.0
  0
MTEXT
  5
D8
100
AcDbEntity
  8
レイヤー_1
 62
     7
100
AcDbMText
 10
118.180556
 20
38.230693
 30
0.0
 40
1.162843
 41
0.0
 71
     1
 72
     2
  1
\fOsaka|b0|i0|c128;\H1.1628;\W2.71;\C7;
  7
STD
210
0.0
220
0.0
230
1.0
 73
     1
 44
1.0
  0
LINE
  5
D7
100
AcDbEntity
  8
レイヤー_1
 62
     7
100
AcDbLine
 10
123.315815
 20
159.35582
 30
0.0
 11
123.259315
 21
159.35582
 31
0.0
  0
LINE
  5
D6
100
AcDbEntity
  8
レイヤー_1
 62
     7
100
AcDbLine
 10
121.176066
 20
148.263818
 30
0.0
 11
121.232566
 21
148.263818
 31
0.0
  0
LINE
  5
D5
100
AcDbEntity
  8
レイヤー_1
 62
     7
100
AcDbLine
 10
121.232566
 20
148.263818
 30
0.0
 11
123.315815
 21
148.826747
 31
0.0
  0
LINE
  5
D4
100
AcDbEntity
  8
レイヤー_1
 62
     7
100
AcDbLine
 10
101.526103
 20
153.500019
 30
0.0
 11
121.176066
 21
148.263818
 31
0.0
  0
LINE
  5
D3
100
AcDbEntity
  8
レイヤー_1
 62
     7
100
AcDbLine
 10
96.853003
 20
152.261507
 30
0.0
 11
96.909502
 21
152.261507
 31
0.0
  0
LINE
  5
D2
100
AcDbEntity
  8
レイヤー_1
 62
     7
100
AcDbLine
 10
96.909502
 20
152.261507
 30
0.0
 11
123.259315
 21
159.35582
 31
0.0
  0
LINE
  5
D1
100
AcDbEntity
  8
レイヤー_1
 62
     7
100
AcDbLine
 10
70.50319
 20
159.35582
 30
0.0
 11
96.853003
 21
152.261507
 31
0.0
  0
POLYLINE
  5
CC
100
AcDbEntity
  8
レイヤー_1
 62
     7
100
AcDb2dPolyline
 66
     1
 10
0.0
 20
0.0
 30
0.0
  0
VERTEX
  5
CD
100
AcDbEntity
  8
レイヤー_1
 62
     7
100
AcDbVertex
100
AcDb2dVertex
 10
123.372314
 20
162.22679
 30
0.0
  0
VERTEX
  5
CE
100
AcDbEntity
  8
レイヤー_1
 62
     7
100
AcDbVertex
100
AcDb2dVertex
 10
123.315815
 20
162.339617
 30
0.0
  0
VERTEX
  5
CF
100
AcDbEntity
  8
レイヤー_1
 62
     7
100
AcDbVertex
100
AcDb2dVertex
 10
123.259315
 20
162.339617
 30
0.0
  0
SEQEND
  5
D0
100
AcDbEntity
  8
レイヤー_1
 62
     7
  0
POLYLINE
  5
C7
100
AcDbEntity
  8
レイヤー_1
 62
     7
100
AcDb2dPolyline
 66
     1
 10
0.0
 20
0.0
 30
0.0
  0
VERTEX
  5
C8
100
AcDbEntity
  8
レイヤー_1
 62
     7
100
AcDbVertex
100
AcDb2dVertex
 10
70.50319
 20
162.339617
 30
0.0
  0
VERTEX
  5
C9
100
AcDbEntity
  8
レイヤー_1
 62
     7
100
AcDbVertex
100
AcDb2dVertex
 10
70.447035
 20
162.339617
 30
0.0
  0
VERTEX
  5
CA
100
AcDbEntity
  8
レイヤー_1
 62
     7
100
AcDbVertex
100
AcDb2dVertex
 10
70.447035
 20
162.22679
 30
0.0
  0
SEQEND
  5
CB
100
AcDbEntity
  8
レイヤー_1
 62
     7
  0
LINE
  5
C6
100
AcDbEntity
  8
レイヤー_1
 62
     7
100
AcDbLine
 10
123.372314
 20
159.467958
 30
0.0
 11
123.372314
 21
162.22679
 31
0.0
  0
LINE
  5
C5
100
AcDbEntity
  8
レイヤー_1
 62
     7
100
AcDbLine
 10
70.447035
 20
162.22679
 30
0.0
 11
70.447035
 21
159.467958
 31
0.0
  0
LINE
  5
C4
100
AcDbEntity
  8
レイヤー_1
 62
     7
100
AcDbLine
 10
123.259315
 20
162.339617
 30
0.0
 11
96.909502
 21
169.433758
 31
0.0
  0
LINE
  5
C3
100
AcDbEntity
  8
レイヤー_1
 62
     7
100
AcDbLine
 10
96.853003
 20
169.433758
 30
0.0
 11
70.50319
 21
162.339617
 31
0.0
  0
POLYLINE
  5
BE
100
AcDbEntity
  8
レイヤー_1
 62
     7
100
AcDb2dPolyline
 66
     1
 10
0.0
 20
0.0
 30
0.0
  0
VERTEX
  5
BF
100
AcDbEntity
  8
レイヤー_1
 62
     7
100
AcDbVertex
100
AcDb2dVertex
 10
123.259315
 20
159.35582
 30
0.0
  0
VERTEX
  5
C0
100
AcDbEntity
  8
レイヤー_1
 62
     7
100
AcDbVertex
100
AcDb2dVertex
 10
123.315815
 20
159.35582
 30
0.0
  0
VERTEX
  5
C1
100
AcDbEntity
  8
レイヤー_1
 62
     7
100
AcDbVertex
100
AcDb2dVertex
 10
123.372314
 20
159.467958
 30
0.0
  0
SEQEND
  5
C2
100
AcDbEntity
  8
レイヤー_1
 62
     7
  0
POLYLINE
  5
B9
100
AcDbEntity
  8
レイヤー_1
 62
     7
100
AcDb2dPolyline
 66
     1
 10
0.0
 20
0.0
 30
0.0
  0
VERTEX
  5
BA
100
AcDbEntity
  8
レイヤー_1
 62
     7
100
AcDbVertex
100
AcDb2dVertex
 10
70.447035
 20
159.467958
 30
0.0
  0
VERTEX
  5
BB
100
AcDbEntity
  8
レイヤー_1
 62
     7
100
AcDbVertex
100
AcDb2dVertex
 10
70.447035
 20
159.35582
 30
0.0
  0
VERTEX
  5
BC
100
AcDbEntity
  8
レイヤー_1
 62
     7
100
AcDbVertex
100
AcDb2dVertex
 10
70.50319
 20
159.35582
 30
0.0
  0
SEQEND
  5
BD
100
AcDbEntity
  8
レイヤー_1
 62
     7
  0
LINE
  5
B8
100
AcDbEntity
  8
レイヤー_1
 62
     7
100
AcDbLine
 10
96.909502
 20
169.433758
 30
0.0
 11
96.853003
 21
169.433758
 31
0.0
  0
LINE
  5
B7
100
AcDbEntity
  8
レイヤー_1
 62
     7
100
AcDbLine
 10
121.232566
 20
158.623565
 30
0.0
 11
121.232566
 21
148.319973
 31
0.0
  0
POLYLINE
  5
B0
100
AcDbEntity
  8
レイヤー_1
 62
     7
100
AcDb2dPolyline
 66
     1
 10
0.0
 20
0.0
 30
0.0
  0
VERTEX
  5
B1
100
AcDbEntity
  8
レイヤー_1
 62
     7
100
AcDbVertex
100
AcDb2dVertex
 10
123.428125
 20
159.242993
 30
0.0
  0
VERTEX
  5
B2
100
AcDbEntity
  8
レイヤー_1
 62
     7
100
AcDbVertex
100
AcDb2dVertex
 10
123.372314
 20
159.299493
 30
0.0
  0
VERTEX
  5
B3
100
AcDbEntity
  8
レイヤー_1
 62
     7
100
AcDbVertex
100
AcDb2dVertex
 10
123.315815
 20
159.299493
 30
0.0
  0
VERTEX
  5
B4
100
AcDbEntity
  8
レイヤー_1
 62
     7
100
AcDbVertex
100
AcDb2dVertex
 10
123.315815
 20
159.35582
 30
0.0
  0
VERTEX
  5
B5
100
AcDbEntity
  8
レイヤー_1
 62
     7
100
AcDbVertex
100
AcDb2dVertex
 10
123.259315
 20
159.35582
 30
0.0
  0
SEQEND
  5
B6
100
AcDbEntity
  8
レイヤー_1
 62
     7
  0
LINE
  5
AF
100
AcDbEntity
  8
レイヤー_1
 62
     7
100
AcDbLine
 10
123.428125
 20
148.939574
 30
0.0
 11
123.428125
 21
159.242993
 31
0.0
  0
POLYLINE
  5
A8
100
AcDbEntity
  8
レイヤー_1
 62
     7
100
AcDb2dPolyline
 66
     1
 10
0.0
 20
0.0
 30
0.0
  0
VERTEX
  5
A9
100
AcDbEntity
  8
レイヤー_1
 62
     7
100
AcDbVertex
100
AcDb2dVertex
 10
123.315815
 20
148.826747
 30
0.0
  0
VERTEX
  5
AA
100
AcDbEntity
  8
レイヤー_1
 62
     7
100
AcDbVertex
100
AcDb2dVertex
 10
123.372314
 20
148.826747
 30
0.0
  0
VERTEX
  5
AB
100
AcDbEntity
  8
レイヤー_1
 62
     7
100
AcDbVertex
100
AcDb2dVertex
 10
123.372314
 20
148.883074
 30
0.0
  0
VERTEX
  5
AC
100
AcDbEntity
  8
レイヤー_1
 62
     7
100
AcDbVertex
100
AcDb2dVertex
 10
123.428125
 20
148.883074
 30
0.0
  0
VERTEX
  5
AD
100
AcDbEntity
  8
レイヤー_1
 62
     7
100
AcDbVertex
100
AcDb2dVertex
 10
123.428125
 20
148.939574
 30
0.0
  0
SEQEND
  5
AE
100
AcDbEntity
  8
レイヤー_1
 62
     7
  0
LINE
  5
A7
100
AcDbEntity
  8
レイヤー_1
 62
     7
100
AcDbLine
 10
96.909502
 20
155.188977
 30
0.0
 11
96.909502
 21
152.430145
 31
0.0
  0
LINE
  5
A6
100
AcDbEntity
  8
レイヤー_1
 62
     7
100
AcDbLine
 10
123.315815
 20
162.283118
 30
0.0
 11
96.96583
 21
155.245304
 31
0.0
  0
LINE
  5
A5
100
AcDbEntity
  8
レイヤー_1
 62
     7
100
AcDbLine
 10
96.853003
 20
155.188977
 30
0.0
 11
70.50319
 21
162.283118
 31
0.0
  0
POLYLINE
  5
88
100
AcDbEntity
  8
レイヤー_1
 62
     7
100
AcDb2dPolyline
 66
     1
 10
0.0
 20
0.0
 30
0.0
  0
VERTEX
  5
89
100
AcDbEntity
  8
レイヤー_1
 62
     7
100
AcDbVertex
100
AcDb2dVertex
 10
109.071034
 20
159.074011
 30
0.0
  0
VERTEX
  5
8A
100
AcDbEntity
  8
レイヤー_1
 62
     7
100
AcDbVertex
100
AcDb2dVertex
 10
107.606868
 20
158.73622
 30
0.0
  0
VERTEX
  5
8B
100
AcDbEntity
  8
レイヤー_1
 62
     7
100
AcDbVertex
100
AcDb2dVertex
 10
106.818975
 20
158.567238
 30
0.0
  0
VERTEX
  5
8C
100
AcDbEntity
  8
レイヤー_1
 62
     7
100
AcDbVertex
100
AcDb2dVertex
 10
106.030393
 20
158.454411
 30
0.0
  0
VERTEX
  5
8D
100
AcDbEntity
  8
レイヤー_1
 62
     7
100
AcDbVertex
100
AcDb2dVertex
 10
105.186344
 20
158.342101
 30
0.0
  0
VERTEX
  5
8E
100
AcDbEntity
  8
レイヤー_1
 62
     7
100
AcDbVertex
100
AcDb2dVertex
 10
104.341435
 20
158.173119
 30
0.0
  0
VERTEX
  5
8F
100
AcDbEntity
  8
レイヤー_1
 62
     7
100
AcDbVertex
100
AcDb2dVertex
 10
103.440715
 20
158.116791
 30
0.0
  0
VERTEX
  5
90
100
AcDbEntity
  8
レイヤー_1
 62
     7
100
AcDbVertex
100
AcDb2dVertex
 10
102.539822
 20
158.004137
 30
0.0
  0
VERTEX
  5
91
100
AcDbEntity
  8
レイヤー_1
 62
     7
100
AcDbVertex
100
AcDb2dVertex
 10
101.582602
 20
157.891827
 30
0.0
  0
VERTEX
  5
92
100
AcDbEntity
  8
レイヤー_1
 62
     7
100
AcDbVertex
100
AcDb2dVertex
 10
99.668163
 20
157.779
 30
0.0
  0
VERTEX
  5
93
100
AcDbEntity
  8
レイヤー_1
 62
     7
100
AcDbVertex
100
AcDb2dVertex
 10
98.711115
 20
157.779
 30
0.0
  0
VERTEX
  5
94
100
AcDbEntity
  8
レイヤー_1
 62
     7
100
AcDbVertex
100
AcDb2dVertex
 10
97.753895
 20
157.722845
 30
0.0
  0
VERTEX
  5
95
100
AcDbEntity
  8
レイヤー_1
 62
     7
100
AcDbVertex
100
AcDb2dVertex
 10
96.796848
 20
157.722845
 30
0.0
  0
VERTEX
  5
96
100
AcDbEntity
  8
レイヤー_1
 62
     7
100
AcDbVertex
100
AcDb2dVertex
 10
95.783473
 20
157.779
 30
0.0
  0
VERTEX
  5
97
100
AcDbEntity
  8
レイヤー_1
 62
     7
100
AcDbVertex
100
AcDb2dVertex
 10
94.826253
 20
157.779
 30
0.0
  0
VERTEX
  5
98
100
AcDbEntity
  8
レイヤー_1
 62
     7
100
AcDbVertex
100
AcDb2dVertex
 10
91.954766
 20
157.948154
 30
0.0
  0
VERTEX
  5
99
100
AcDbEntity
  8
レイヤー_1
 62
     7
100
AcDbVertex
100
AcDb2dVertex
 10
91.053874
 20
158.004137
 30
0.0
  0
VERTEX
  5
9A
100
AcDbEntity
  8
レイヤー_1
 62
     7
100
AcDbVertex
100
AcDb2dVertex
 10
89.252261
 20
158.229618
 30
0.0
  0
VERTEX
  5
9B
100
AcDbEntity
  8
レイヤー_1
 62
     7
100
AcDbVertex
100
AcDb2dVertex
 10
87.563131
 20
158.454411
 30
0.0
  0
VERTEX
  5
9C
100
AcDbEntity
  8
レイヤー_1
 62
     7
100
AcDbVertex
100
AcDb2dVertex
 10
85.986655
 20
158.792719
 30
0.0
  0
VERTEX
  5
9D
100
AcDbEntity
  8
レイヤー_1
 62
     7
100
AcDbVertex
100
AcDb2dVertex
 10
85.254744
 20
158.961184
 30
0.0
  0
VERTEX
  5
9E
100
AcDbEntity
  8
レイヤー_1
 62
     7
100
AcDbVertex
100
AcDb2dVertex
 10
84.579161
 20
159.130166
 30
0.0
  0
VERTEX
  5
9F
100
AcDbEntity
  8
レイヤー_1
 62
     7
100
AcDbVertex
100
AcDb2dVertex
 10
83.903234
 20
159.35582
 30
0.0
  0
VERTEX
  5
A0
100
AcDbEntity
  8
レイヤー_1
 62
     7
100
AcDbVertex
100
AcDb2dVertex
 10
83.283978
 20
159.524285
 30
0.0
  0
VERTEX
  5
A1
100
AcDbEntity
  8
レイヤー_1
 62
     7
100
AcDbVertex
100
AcDb2dVertex
 10
82.157948
 20
159.974731
 30
0.0
  0
VERTEX
  5
A2
100
AcDbEntity
  8
レイヤー_1
 62
     7
100
AcDbVertex
100
AcDb2dVertex
 10
81.257228
 20
160.425178
 30
0.0
  0
VERTEX
  5
A3
100
AcDbEntity
  8
レイヤー_1
 62
     7
100
AcDbVertex
100
AcDb2dVertex
 10
81.031919
 20
160.59416
 30
0.0
  0
SEQEND
  5
A4
100
AcDbEntity
  8
レイヤー_1
 62
     7
  0
POLYLINE
  5
6A
100
AcDbEntity
  8
レイヤー_1
 62
     7
100
AcDb2dPolyline
 66
     1
 10
0.0
 20
0.0
 30
0.0
  0
VERTEX
  5
6B
100
AcDbEntity
  8
レイヤー_1
 62
     7
100
AcDbVertex
100
AcDb2dVertex
 10
82.49574
 20
164.873485
 30
0.0
  0
VERTEX
  5
6C
100
AcDbEntity
  8
レイヤー_1
 62
     7
100
AcDbVertex
100
AcDb2dVertex
 10
82.552067
 20
164.92964
 30
0.0
  0
VERTEX
  5
6D
100
AcDbEntity
  8
レイヤー_1
 62
     7
100
AcDbVertex
100
AcDb2dVertex
 10
83.115168
 20
165.098277
 30
0.0
  0
VERTEX
  5
6E
100
AcDbEntity
  8
レイヤー_1
 62
     7
100
AcDbVertex
100
AcDb2dVertex
 10
83.734424
 20
165.323759
 30
0.0
  0
VERTEX
  5
6F
100
AcDbEntity
  8
レイヤー_1
 62
     7
100
AcDbVertex
100
AcDb2dVertex
 10
84.410007
 20
165.492396
 30
0.0
  0
VERTEX
  5
70
100
AcDbEntity
  8
レイヤー_1
 62
     7
100
AcDbVertex
100
AcDb2dVertex
 10
85.085763
 20
165.717878
 30
0.0
  0
VERTEX
  5
71
100
AcDbEntity
  8
レイヤー_1
 62
     7
100
AcDbVertex
100
AcDb2dVertex
 10
86.549584
 20
166.055497
 30
0.0
  0
VERTEX
  5
72
100
AcDbEntity
  8
レイヤー_1
 62
     7
100
AcDbVertex
100
AcDb2dVertex
 10
87.394149
 20
166.168152
 30
0.0
  0
VERTEX
  5
73
100
AcDbEntity
  8
レイヤー_1
 62
     7
100
AcDbVertex
100
AcDb2dVertex
 10
88.182387
 20
166.337306
 30
0.0
  0
VERTEX
  5
74
100
AcDbEntity
  8
レイヤー_1
 62
     7
100
AcDbVertex
100
AcDb2dVertex
 10
89.027124
 20
166.449961
 30
0.0
  0
VERTEX
  5
75
100
AcDbEntity
  8
レイヤー_1
 62
     7
100
AcDbVertex
100
AcDb2dVertex
 10
90.828737
 20
166.674925
 30
0.0
  0
VERTEX
  5
76
100
AcDbEntity
  8
レイヤー_1
 62
     7
100
AcDbVertex
100
AcDb2dVertex
 10
91.729629
 20
166.731425
 30
0.0
  0
VERTEX
  5
77
100
AcDbEntity
  8
レイヤー_1
 62
     7
100
AcDbVertex
100
AcDb2dVertex
 10
92.686677
 20
166.84408
 30
0.0
  0
VERTEX
  5
78
100
AcDbEntity
  8
レイヤー_1
 62
     7
100
AcDbVertex
100
AcDb2dVertex
 10
93.643896
 20
166.89989
 30
0.0
  0
VERTEX
  5
79
100
AcDbEntity
  8
レイヤー_1
 62
     7
100
AcDbVertex
100
AcDb2dVertex
 10
94.600944
 20
166.89989
 30
0.0
  0
VERTEX
  5
7A
100
AcDbEntity
  8
レイヤー_1
 62
     7
100
AcDbVertex
100
AcDb2dVertex
 10
95.558164
 20
166.956734
 30
0.0
  0
VERTEX
  5
7B
100
AcDbEntity
  8
レイヤー_1
 62
     7
100
AcDbVertex
100
AcDb2dVertex
 10
98.485806
 20
166.956734
 30
0.0
  0
VERTEX
  5
7C
100
AcDbEntity
  8
レイヤー_1
 62
     7
100
AcDbVertex
100
AcDb2dVertex
 10
102.314685
 20
166.731425
 30
0.0
  0
VERTEX
  5
7D
100
AcDbEntity
  8
レイヤー_1
 62
     7
100
AcDbVertex
100
AcDb2dVertex
 10
103.215405
 20
166.618598
 30
0.0
  0
VERTEX
  5
7E
100
AcDbEntity
  8
レイヤー_1
 62
     7
100
AcDbVertex
100
AcDb2dVertex
 10
104.115953
 20
166.562271
 30
0.0
  0
VERTEX
  5
7F
100
AcDbEntity
  8
レイヤー_1
 62
     7
100
AcDbVertex
100
AcDb2dVertex
 10
104.961035
 20
166.449961
 30
0.0
  0
VERTEX
  5
80
100
AcDbEntity
  8
レイヤー_1
 62
     7
100
AcDbVertex
100
AcDb2dVertex
 10
105.805428
 20
166.280979
 30
0.0
  0
VERTEX
  5
81
100
AcDbEntity
  8
レイヤー_1
 62
     7
100
AcDbVertex
100
AcDb2dVertex
 10
106.649821
 20
166.168152
 30
0.0
  0
VERTEX
  5
82
100
AcDbEntity
  8
レイヤー_1
 62
     7
100
AcDbVertex
100
AcDb2dVertex
 10
107.437714
 20
165.99917
 30
0.0
  0
VERTEX
  5
83
100
AcDbEntity
  8
レイヤー_1
 62
     7
100
AcDbVertex
100
AcDb2dVertex
 10
108.902224
 20
165.661551
 30
0.0
  0
VERTEX
  5
84
100
AcDbEntity
  8
レイヤー_1
 62
     7
100
AcDbVertex
100
AcDb2dVertex
 10
109.577463
 20
165.492396
 30
0.0
  0
VERTEX
  5
85
100
AcDbEntity
  8
レイヤー_1
 62
     7
100
AcDbVertex
100
AcDb2dVertex
 10
110.197236
 20
165.267432
 30
0.0
  0
VERTEX
  5
86
100
AcDbEntity
  8
レイヤー_1
 62
     7
100
AcDbVertex
100
AcDb2dVertex
 10
110.75982
 20
165.098277
 30
0.0
  0
SEQEND
  5
87
100
AcDbEntity
  8
レイヤー_1
 62
     7
  0
POLYLINE
  5
61
100
AcDbEntity
  8
レイヤー_1
 62
     7
100
AcDb2dPolyline
 66
     1
 10
0.0
 20
0.0
 30
0.0
  0
VERTEX
  5
62
100
AcDbEntity
  8
レイヤー_1
 62
     7
100
AcDbVertex
100
AcDb2dVertex
 10
112.618449
 20
160.481677
 30
0.0
  0
VERTEX
  5
63
100
AcDbEntity
  8
レイヤー_1
 62
     7
100
AcDbVertex
100
AcDb2dVertex
 10
112.449295
 20
160.36885
 30
0.0
  0
VERTEX
  5
64
100
AcDbEntity
  8
レイヤー_1
 62
     7
100
AcDbVertex
100
AcDb2dVertex
 10
111.998676
 20
160.143886
 30
0.0
  0
VERTEX
  5
65
100
AcDbEntity
  8
レイヤー_1
 62
     7
100
AcDbVertex
100
AcDb2dVertex
 10
111.492247
 20
159.918404
 30
0.0
  0
VERTEX
  5
66
100
AcDbEntity
  8
レイヤー_1
 62
     7
100
AcDbVertex
100
AcDb2dVertex
 10
110.365701
 20
159.467958
 30
0.0
  0
VERTEX
  5
67
100
AcDbEntity
  8
レイヤー_1
 62
     7
100
AcDbVertex
100
AcDb2dVertex
 10
109.746617
 20
159.299493
 30
0.0
  0
VERTEX
  5
68
100
AcDbEntity
  8
レイヤー_1
 62
     7
100
AcDbVertex
100
AcDb2dVertex
 10
109.071034
 20
159.074011
 30
0.0
  0
SEQEND
  5
69
100
AcDbEntity
  8
レイヤー_1
 62
     7
  0
POLYLINE
  5
4D
100
AcDbEntity
  8
レイヤー_1
 62
     7
100
AcDb2dPolyline
 66
     1
 10
0.0
 20
0.0
 30
0.0
  0
VERTEX
  5
4E
100
AcDbEntity
  8
レイヤー_1
 62
     7
100
AcDbVertex
100
AcDb2dVertex
 10
81.031919
 20
160.59416
 30
0.0
  0
VERTEX
  5
4F
100
AcDbEntity
  8
レイヤー_1
 62
     7
100
AcDbVertex
100
AcDb2dVertex
 10
80.862937
 20
160.650659
 30
0.0
  0
VERTEX
  5
50
100
AcDbEntity
  8
レイヤー_1
 62
     7
100
AcDbVertex
100
AcDb2dVertex
 10
80.581645
 20
160.931951
 30
0.0
  0
VERTEX
  5
51
100
AcDbEntity
  8
レイヤー_1
 62
     7
100
AcDbVertex
100
AcDb2dVertex
 10
80.300008
 20
161.157433
 30
0.0
  0
VERTEX
  5
52
100
AcDbEntity
  8
レイヤー_1
 62
     7
100
AcDbVertex
100
AcDb2dVertex
 10
80.074871
 20
161.438725
 30
0.0
  0
VERTEX
  5
53
100
AcDbEntity
  8
レイヤー_1
 62
     7
100
AcDbVertex
100
AcDb2dVertex
 10
79.905717
 20
161.664034
 30
0.0
  0
VERTEX
  5
54
100
AcDbEntity
  8
レイヤー_1
 62
     7
100
AcDbVertex
100
AcDb2dVertex
 10
79.793235
 20
161.945498
 30
0.0
  0
VERTEX
  5
55
100
AcDbEntity
  8
レイヤー_1
 62
     7
100
AcDbVertex
100
AcDb2dVertex
 10
79.680408
 20
162.170808
 30
0.0
  0
VERTEX
  5
56
100
AcDbEntity
  8
レイヤー_1
 62
     7
100
AcDbVertex
100
AcDb2dVertex
 10
79.680408
 20
162.4521
 30
0.0
  0
VERTEX
  5
57
100
AcDbEntity
  8
レイヤー_1
 62
     7
100
AcDbVertex
100
AcDb2dVertex
 10
79.736907
 20
162.733564
 30
0.0
  0
VERTEX
  5
58
100
AcDbEntity
  8
レイヤー_1
 62
     7
100
AcDbVertex
100
AcDb2dVertex
 10
79.849734
 20
162.959045
 30
0.0
  0
VERTEX
  5
59
100
AcDbEntity
  8
レイヤー_1
 62
     7
100
AcDbVertex
100
AcDb2dVertex
 10
80.018372
 20
163.240337
 30
0.0
  0
VERTEX
  5
5A
100
AcDbEntity
  8
レイヤー_1
 62
     7
100
AcDbVertex
100
AcDb2dVertex
 10
80.243681
 20
163.465819
 30
0.0
  0
VERTEX
  5
5B
100
AcDbEntity
  8
レイヤー_1
 62
     7
100
AcDbVertex
100
AcDb2dVertex
 10
80.468818
 20
163.747111
 30
0.0
  0
VERTEX
  5
5C
100
AcDbEntity
  8
レイヤー_1
 62
     7
100
AcDbVertex
100
AcDb2dVertex
 10
81.144401
 20
164.197557
 30
0.0
  0
VERTEX
  5
5D
100
AcDbEntity
  8
レイヤー_1
 62
     7
100
AcDbVertex
100
AcDb2dVertex
 10
81.594847
 20
164.478849
 30
0.0
  0
VERTEX
  5
5E
100
AcDbEntity
  8
レイヤー_1
 62
     7
100
AcDbVertex
100
AcDb2dVertex
 10
82.045294
 20
164.704159
 30
0.0
  0
VERTEX
  5
5F
100
AcDbEntity
  8
レイヤー_1
 62
     7
100
AcDbVertex
100
AcDb2dVertex
 10
82.49574
 20
164.873485
 30
0.0
  0
SEQEND
  5
60
100
AcDbEntity
  8
レイヤー_1
 62
     7
  0
POLYLINE
  5
3A
100
AcDbEntity
  8
レイヤー_1
 62
     7
100
AcDb2dPolyline
 66
     1
 10
0.0
 20
0.0
 30
0.0
  0
VERTEX
  5
3B
100
AcDbEntity
  8
レイヤー_1
 62
     7
100
AcDbVertex
100
AcDb2dVertex
 10
110.75982
 20
165.098277
 30
0.0
  0
VERTEX
  5
3C
100
AcDbEntity
  8
レイヤー_1
 62
     7
100
AcDbVertex
100
AcDb2dVertex
 10
110.816319
 20
165.042467
 30
0.0
  0
VERTEX
  5
3D
100
AcDbEntity
  8
レイヤー_1
 62
     7
100
AcDbVertex
100
AcDb2dVertex
 10
111.379248
 20
164.873485
 30
0.0
  0
VERTEX
  5
3E
100
AcDbEntity
  8
レイヤー_1
 62
     7
100
AcDbVertex
100
AcDb2dVertex
 10
111.886366
 20
164.648003
 30
0.0
  0
VERTEX
  5
3F
100
AcDbEntity
  8
レイヤー_1
 62
     7
100
AcDbVertex
100
AcDb2dVertex
 10
112.33664
 20
164.422866
 30
0.0
  0
VERTEX
  5
40
100
AcDbEntity
  8
レイヤー_1
 62
     7
100
AcDbVertex
100
AcDb2dVertex
 10
112.730759
 20
164.141574
 30
0.0
  0
VERTEX
  5
41
100
AcDbEntity
  8
レイヤー_1
 62
     7
100
AcDbVertex
100
AcDb2dVertex
 10
113.406342
 20
163.690784
 30
0.0
  0
VERTEX
  5
42
100
AcDbEntity
  8
レイヤー_1
 62
     7
100
AcDbVertex
100
AcDb2dVertex
 10
113.631307
 20
163.409492
 30
0.0
  0
VERTEX
  5
43
100
AcDbEntity
  8
レイヤー_1
 62
     7
100
AcDbVertex
100
AcDb2dVertex
 10
113.856616
 20
163.18401
 30
0.0
  0
VERTEX
  5
44
100
AcDbEntity
  8
レイヤー_1
 62
     7
100
AcDbVertex
100
AcDb2dVertex
 10
114.081581
 20
162.621426
 30
0.0
  0
VERTEX
  5
45
100
AcDbEntity
  8
レイヤー_1
 62
     7
100
AcDbVertex
100
AcDb2dVertex
 10
114.081581
 20
162.114653
 30
0.0
  0
VERTEX
  5
46
100
AcDbEntity
  8
レイヤー_1
 62
     7
100
AcDbVertex
100
AcDb2dVertex
 10
114.026115
 20
161.889171
 30
0.0
  0
VERTEX
  5
47
100
AcDbEntity
  8
レイヤー_1
 62
     7
100
AcDbVertex
100
AcDb2dVertex
 10
113.687462
 20
161.32607
 30
0.0
  0
VERTEX
  5
48
100
AcDbEntity
  8
レイヤー_1
 62
     7
100
AcDbVertex
100
AcDb2dVertex
 10
113.462842
 20
161.100933
 30
0.0
  0
VERTEX
  5
49
100
AcDbEntity
  8
レイヤー_1
 62
     7
100
AcDbVertex
100
AcDb2dVertex
 10
113.181033
 20
160.875624
 30
0.0
  0
VERTEX
  5
4A
100
AcDbEntity
  8
レイヤー_1
 62
     7
100
AcDbVertex
100
AcDb2dVertex
 10
112.843069
 20
160.59416
 30
0.0
  0
VERTEX
  5
4B
100
AcDbEntity
  8
レイヤー_1
 62
     7
100
AcDbVertex
100
AcDb2dVertex
 10
112.618449
 20
160.481677
 30
0.0
  0
SEQEND
  5
4C
100
AcDbEntity
  8
レイヤー_1
 62
     7
  0
LINE
  5
39
100
AcDbEntity
  8
レイヤー_1
 62
     7
100
AcDbLine
 10
123.372314
 20
162.22679
 30
0.0
 11
123.315815
 21
162.22679
 31
0.0
  0
LINE
  5
38
100
AcDbEntity
  8
レイヤー_1
 62
     7
100
AcDbLine
 10
70.559345
 20
162.339617
 30
0.0
 11
70.50319
 21
162.339617
 31
0.0
  0
LINE
  5
37
100
AcDbEntity
  8
レイヤー_1
 62
     7
100
AcDbLine
 10
96.853003
 20
169.433758
 30
0.0
 11
96.909502
 21
169.433758
 31
0.0
  0
LINE
  5
36
100
AcDbEntity
  8
レイヤー_1
 62
     7
100
AcDbLine
 10
123.428125
 20
163.296665
 30
0.0
 11
123.428125
 21
184.185312
 31
0.0
  0
LINE
  5
35
100
AcDbEntity
  8
レイヤー_1
 62
     7
100
AcDbLine
 10
95.163873
 20
190.153423
 30
0.0
 11
125.004601
 21
182.15839
 31
0.0
  0
LINE
  5
34
100
AcDbEntity
  8
レイヤー_1
 62
     7
100
AcDbLine
 10
124.216707
 20
148.545627
 30
0.0
 11
143.979153
 21
143.252582
 31
0.0
  0
LINE
  5
33
100
AcDbEntity
  8
レイヤー_1
 62
     7
100
AcDbLine
 10
96.96583
 20
191.617417
 30
0.0
 11
96.96583
 21
170.503632
 31
0.0
  0
LINE
  5
32
100
AcDbEntity
  8
レイヤー_1
 62
     7
100
AcDbLine
 10
143.753844
 20
155.301632
 30
0.0
 11
142.740297
 21
157.103244
 31
0.0
  0
LINE
  5
31
100
AcDbEntity
  8
レイヤー_1
 62
     7
100
AcDbLine
 10
142.740297
 20
157.103244
 30
0.0
 11
141.72675
 21
158.904857
 31
0.0
  0
LINE
  5
30
100
AcDbEntity
  8
レイヤー_1
 62
     7
100
AcDbLine
 10
143.753844
 20
141.788761
 30
0.0
 11
142.740297
 21
143.590546
 31
0.0
  0
LINE
  5
2F
100
AcDbEntity
  8
レイヤー_1
 62
     7
100
AcDbLine
 10
142.740297
 20
143.590546
 30
0.0
 11
141.72675
 21
145.392331
 31
0.0
  0
LINE
  5
2E
100
AcDbEntity
  8
レイヤー_1
 62
     7
100
AcDbLine
 10
142.740297
 20
158.229618
 30
0.0
 11
142.740297
 21
141.732606
 31
0.0
  0
LINE
  5
2D
100
AcDbEntity
  8
レイヤー_1
 62
     7
100
AcDbLine
 10
98.260669
 20
191.166798
 30
0.0
 11
95.614663
 21
188.464465
 31
0.0
  0
LINE
  5
2C
100
AcDbEntity
  8
レイヤー_1
 62
     7
100
AcDbLine
 10
124.77998
 20
184.016503
 30
0.0
 11
122.076959
 21
181.313653
 31
0.0
  0
LINE
  5
2B
100
AcDbEntity
  8
レイヤー_1
 62
     7
100
AcDbLine
 10
124.272862
 20
162.001826
 30
0.0
 11
144.429772
 21
156.596471
 31
0.0
  0
MTEXT
  5
2A
100
AcDbEntity
  8
レイヤー_1
 62
     7
100
AcDbMText
 10
102.961447
 20
197.491708
 30
0.0
 40
6.299603
 41
0.0
 71
     1
 72
     2
  1
\fMS PGothic|b0|i0|c128;\H6.2996;\C7;\U+25A1\U+0031\U+0032\U+0030
  7
STD
210
0.0
220
0.0
230
1.0
 11
0.9659
 21
-0.2588
 31
0.0
 73
     1
 44
1.0
  0
MTEXT
  5
29
100
AcDbEntity
  8
レイヤー_1
 62
     7
100
AcDbMText
 10
134.9305
 20
147.625961
 30
0.0
 40
6.495453
 41
0.0
 71
     1
 72
     2
  1
\fMS PGothic|b0|i0|c128;\H6.4955;\W0.98;\C7;\Q10.00;\U+0034\U+0035
  7
STD
210
0.0
220
0.0
230
1.0
 11
-0.0349
 21
0.9994
 31
0.0
 73
     1
 44
1.0
  0
ENDSEC
  0
SECTION
  2
OBJECTS
  0
DICTIONARY
  5
19
100
AcDbDictionary
280
     0
281
     1
  3
ACAD_GROUP
350
1A
  3
ACAD_MLINESTYLE
350
1B
  3
ACAD_LAYOUT
350
1E
  3
ACAD_PLOTSETTINGS
350
22
  3
ACAD_PLOTSTYLENAME
350
1F
  3
ACAD_WIPEOUT_VARS
350
23
  0
DICTIONARY
  5
1A
102
{ACAD_REACTORS
330
19
102
}
100
AcDbDictionary
280
     0
281
     1
  0
DICTIONARY
  5
1B
102
{ACAD_REACTORS
330
19
102
}
100
AcDbDictionary
280
     0
281
     1
  3
Standard
350
1C
  0
MLINESTYLE
  5
1C
102
{ACAD_REACTORS
330
1B
102
}
100
AcDbMlineStyle
  2
Standard
 70
     0
  3

 62
     0
 51
90.0
 52
90.0
 71
     2
 49
0.5
 62
   256
  6
ByLayer
 49
-0.5
 62
   256
  6
ByLayer
  0
ACDBDICTIONARYWDFLT
  5
1F
102
{ACAD_REACTORS
330
19
102
}
100
AcDbDictionary
281
     1
  3
Normal
350
1D
100
AcDbDictionaryWithDefault
340
1D
  0
ACDBPLACEHOLDER
  5
1D
102
{ACAD_REACTORS
330
1F
102
}
  0
LAYOUT
  5
20
102
{ACAD_REACTORS
330
1E
102
}
100
AcDbPlotSettings
  1

  2

  4

  6

 40
0.0
 41
0.0
 42
0.0
 43
0.0
 44
0.0
 45
0.0
 46
0.0
 47
0.0
 48
0.0
 49
0.0
140
0.0
141
0.0
142
1.0
143
1.0
 70
  1024
 72
     0
 73
     0
 74
     0
  7

 75
     0
147
1.0
148
0.0
149
0.0
100
AcDbLayout
  1
Model
 70
     0
 71
     0
 10
0.0
 20
0.0
 11
0.0
 21
0.0
 12
0.0
 22
0.0
 32
0.0
 14
0.0
 24
0.0
 34
0.0
 15
0.0
 25
0.0
 35
0.0
146
0.0
 13
0.0
 23
0.0
 33
0.0
 16
0.0
 26
0.0
 36
0.0
 17
0.0
 27
0.0
 37
0.0
 76
     0
330
A
331
0
345
0
346
0
  0
LAYOUT
  5
21
102
{ACAD_REACTORS
330
1E
102
}
100
AcDbPlotSettings
  1

  2

  4

  6

 40
0.0
 41
0.0
 42
0.0
 43
0.0
 44
0.0
 45
0.0
 46
0.0
 47
0.0
 48
0.0
 49
0.0
140
0.0
141
0.0
142
1.0
143
1.0
 70
     0
 72
     0
 73
     0
 74
     0
  7

 75
     0
147
1.0
148
0.0
149
0.0
100
AcDbLayout
  1
Layout1
 70
     0
 71
     0
 10
0.0
 20
0.0
 11
0.0
 21
0.0
 12
0.0
 22
0.0
 32
0.0
 14
0.0
 24
0.0
 34
0.0
 15
0.0
 25
0.0
 35
0.0
146
0.0
 13
0.0
 23
0.0
 33
0.0
 16
0.0
 26
0.0
 36
0.0
 17
0.0
 27
0.0
 37
0.0
 76
     0
330
B
331
0
345
0
346
0
  0
DICTIONARY
  5
1E
102
{ACAD_REACTORS
330
19
102
}
100
AcDbDictionary
280
     0
281
     1
  3
Layout1
350
21
  3
Model
350
20
  0
DICTIONARY
  5
22
102
{ACAD_REACTORS
330
19
102
}
100
AcDbDictionary
280
     0
281
     1
  0
WIPEOUTVARIABLES
  5
23
100
AcDbWipeoutVariables
 70
     1
  0
IMAGEDEF_REACTOR
  5
DB
100
AcDbRasterImageDefReactor
 90
        2
330
DA
  0
IMAGEDEF
  5
DC
100
AcDbRasterImageDef
 90
        0
  1
\\192.168.6.3\free(2009_04\一過性\DB_WEB用DXF_丸茂\83410780_1.bmp
 10
70.0
 20
9.0
 11
0.352778
 21
0.352778
280
     1
281
     0
  0
IMAGEDEF_REACTOR
  5
DE
100
AcDbRasterImageDefReactor
 90
        2
330
DD
  0
IMAGEDEF
  5
DF
100
AcDbRasterImageDef
 90
        0
  1
\\192.168.6.3\free(2009_04\一過性\DB_WEB用DXF_丸茂\83410780_2.bmp
 10
70.0
 20
9.0
 11
0.352778
 21
0.352778
280
     1
281
     0
  0
ENDSEC
  0
EOF
