  0
SECTION
  2
HEADER
  9
$ACADVER
  1
AC1015
  9
$ACADMAINTVER
 70
     6
  9
$DWGCODEPAGE
  3
ANSI_932
  9
$INSBASE
 10
0.0
 20
0.0
 30
0.0
  9
$EXTMIN
 10
23.283333
 20
25.752778
 30
1.000000E+20
  9
$EXTMAX
 10
198.966667
 20
276.930556
 30
-1.000000E+20
  9
$LIMMIN
 10
23.283333
 20
25.752778
  9
$LIMMAX
 10
198.966667
 20
276.930556
  9
$ORTHOMODE
 70
     0
  9
$REGENMODE
 70
     1
  9
$FILLMODE
 70
     1
  9
$QTEXTMODE
 70
     0
  9
$MIRRTEXT
 70
     1
  9
$LTSCALE
 40
1.0
  9
$ATTMODE
 70
     1
  9
$TEXTSIZE
 40
0.2
  9
$TRACEWID
 40
0.05
  9
$TEXTSTYLE
  7
Standard
  9
$CLAYER
  8
0
  9
$CELTYPE
  6
Continuous
  9
$CECOLOR
 62
   256
  9
$CELTSCALE
 40
1.0
  9
$DISPSILH
 70
     0
  9
$DIMSCALE
 40
1.0
  9
$DIMASZ
 40
0.18
  9
$DIMEXO
 40
0.0625
  9
$DIMDLI
 40
0.38
  9
$DIMRND
 40
0.0
  9
$DIMDLE
 40
0.0
  9
$DIMEXE
 40
0.18
  9
$DIMTP
 40
0.0
  9
$DIMTM
 40
0.0
  9
$DIMTXT
 40
0.18
  9
$DIMCEN
 40
0.09
  9
$DIMTSZ
 40
0.0
  9
$DIMTOL
 70
     0
  9
$DIMLIM
 70
     0
  9
$DIMTIH
 70
     1
  9
$DIMTOH
 70
     1
  9
$DIMSE1
 70
     0
  9
$DIMSE2
 70
     0
  9
$DIMTAD
 70
     0
  9
$DIMZIN
 70
     0
  9
$DIMBLK
  1

  9
$DIMASO
 70
     1
  9
$DIMSHO
 70
     1
  9
$DIMPOST
  1

  9
$DIMAPOST
  1

  9
$DIMALT
 70
     0
  9
$DIMALTD
 70
     2
  9
$DIMALTF
 40
25.4
  9
$DIMLFAC
 40
1.0
  9
$DIMTOFL
 70
     0
  9
$DIMTVP
 40
0.0
  9
$DIMTIX
 70
     0
  9
$DIMSOXD
 70
     0
  9
$DIMSAH
 70
     0
  9
$DIMBLK1
  1

  9
$DIMBLK2
  1

  9
$DIMSTYLE
  2
Standard
  9
$DIMCLRD
 70
     0
  9
$DIMCLRE
 70
     0
  9
$DIMCLRT
 70
     0
  9
$DIMTFAC
 40
1.0
  9
$DIMGAP
 40
0.09
  9
$DIMJUST
 70
     0
  9
$DIMSD1
 70
     0
  9
$DIMSD2
 70
     0
  9
$DIMTOLJ
 70
     1
  9
$DIMTZIN
 70
     0
  9
$DIMALTZ
 70
     0
  9
$DIMALTTZ
 70
     0
  9
$DIMUPT
 70
     0
  9
$DIMDEC
 70
     4
  9
$DIMTDEC
 70
     4
  9
$DIMALTU
 70
     2
  9
$DIMALTTD
 70
     2
  9
$DIMTXSTY
  7
Standard
  9
$DIMAUNIT
 70
     0
  9
$DIMADEC
 70
     0
  9
$DIMALTRND
 40
0.0
  9
$DIMAZIN
 70
     0
  9
$DIMDSEP
 70
     0
  9
$DIMATFIT
 70
     3
  9
$DIMFRAC
 70
     0
  9
$DIMLDRBLK
  1

  9
$DIMLUNIT
 70
     2
  9
$DIMLWD
 70
     0
  9
$DIMLWE
 70
     0
  9
$DIMTMOVE
 70
     0
  9
$LUNITS
 70
     2
  9
$LUPREC
 70
     4
  9
$SKETCHINC
 40
0.1
  9
$FILLETRAD
 40
0.0
  9
$AUNITS
 70
     0
  9
$AUPREC
 70
     0
  9
$MENU
  1
acad
  9
$ELEVATION
 40
0.0
  9
$PELEVATION
 40
0.0
  9
$THICKNESS
 40
0.0
  9
$LIMCHECK
 70
     0
  9
$CHAMFERA
 40
0.0
  9
$CHAMFERB
 40
0.0
  9
$CHAMFERC
 40
0.0
  9
$CHAMFERD
 40
0.0
  9
$SKPOLY
 70
     0
  9
$TDCREATE
 40
0.000000000
  9
$TDUCREATE
 40
0.000000000
  9
$TDUPDATE
 40
0.000000000
  9
$TDUUPDATE
 40
0.000000000
  9
$TDINDWG
 40
0.0000000000
  9
$TDUSRTIMER
 40
0.0000000000
  9
$USRTIMER
 70
     1
  9
$ANGBASE
 50
0.0
  9
$ANGDIR
 70
     0
  9
$PDMODE
 70
     0
  9
$PDSIZE
 40
0.0
  9
$PLINEWID
 40
0.0
  9
$SPLFRAME
 70
     0
  9
$SPLINETYPE
 70
     6
  9
$SPLINESEGS
 70
     8
  9
$HANDSEED
  5
192
  9
$SURFTAB1
 70
     6
  9
$SURFTAB2
 70
     6
  9
$SURFTYPE
 70
     6
  9
$SURFU
 70
     6
  9
$SURFV
 70
     6
  9
$UCSBASE
  2

  9
$UCSNAME
  2

  9
$UCSORG
 10
0.0
 20
0.0
 30
0.0
  9
$UCSXDIR
 10
1.0
 20
0.0
 30
0.0
  9
$UCSYDIR
 10
0.0
 20
1.0
 30
0.0
  9
$UCSORTHOREF
  2

  9
$UCSORTHOVIEW
 70
     0
  9
$UCSORGTOP
 10
0.0
 20
0.0
 30
0.0
  9
$UCSORGBOTTOM
 10
0.0
 20
0.0
 30
0.0
  9
$UCSORGLEFT
 10
0.0
 20
0.0
 30
0.0
  9
$UCSORGRIGHT
 10
0.0
 20
0.0
 30
0.0
  9
$UCSORGFRONT
 10
0.0
 20
0.0
 30
0.0
  9
$UCSORGBACK
 10
0.0
 20
0.0
 30
0.0
  9
$PUCSBASE
  2

  9
$PUCSNAME
  2

  9
$PUCSORG
 10
0.0
 20
0.0
 30
0.0
  9
$PUCSXDIR
 10
1.0
 20
0.0
 30
0.0
  9
$PUCSYDIR
 10
0.0
 20
1.0
 30
0.0
  9
$PUCSORTHOREF
  2

  9
$PUCSORTHOVIEW
 70
     0
  9
$PUCSORGTOP
 10
0.0
 20
0.0
 30
0.0
  9
$PUCSORGBOTTOM
 10
0.0
 20
0.0
 30
0.0
  9
$PUCSORGLEFT
 10
0.0
 20
0.0
 30
0.0
  9
$PUCSORGRIGHT
 10
0.0
 20
0.0
 30
0.0
  9
$PUCSORGFRONT
 10
0.0
 20
0.0
 30
0.0
  9
$PUCSORGBACK
 10
0.0
 20
0.0
 30
0.0
  9
$USERI1
 70
     0
  9
$USERI2
 70
     0
  9
$USERI3
 70
     0
  9
$USERI4
 70
     0
  9
$USERI5
 70
     0
  9
$USERR1
 40
0.0
  9
$USERR2
 40
0.0
  9
$USERR3
 40
0.0
  9
$USERR4
 40
0.0
  9
$USERR5
 40
0.0
  9
$WORLDVIEW
 70
     1
  9
$SHADEDGE
 70
     3
  9
$SHADEDIF
 70
    70
  9
$TILEMODE
 70
     1
  9
$MAXACTVP
 70
    16
  9
$PINSBASE
 10
0.0
 20
0.0
 30
0.0
  9
$PLIMCHECK
 70
     0
  9
$PEXTMIN
 10
1.000000E+20
 20
1.000000E+20
 30
1.000000E+20
  9
$PEXTMAX
 10
-1.000000E+20
 20
-1.000000E+20
 30
-1.000000E+20
  9
$PLIMMIN
 10
0.0
 20
0.0
  9
$PLIMMAX
 10
12.0
 20
9.0
  9
$UNITMODE
 70
     0
  9
$VISRETAIN
 70
     0
  9
$PLINEGEN
 70
     1
  9
$PSLTSCALE
 70
     0
  9
$TREEDEPTH
 70
  3020
  9
$CMLSTYLE
  2
Standard
  9
$CMLJUST
 70
     0
  9
$CMLSCALE
 40
1.0
  9
$PROXYGRAPHICS
 70
     0
  9
$MEASUREMENT
 70
     1
  9
$CELWEIGHT
370
     0
  9
$ENDCAPS
280
     0
  9
$JOINSTYLE
280
     0
  9
$LWDISPLAY
290
     0
  9
$INSUNITS
 70
     0
  9
$HYPERLINKBASE
  1

  9
$STYLESHEET
  1

  9
$XEDIT
290
     1
  9
$CEPSNTYPE
380
     0
  9
$PSTYLEMODE
290
     1
  9
$FINGERPRINTGUID
  2

  9
$VERSIONGUID
  2

  9
$EXTNAMES
290
     1
  9
$PSVPSCALE
 40
0.0
  0
ENDSEC
  0
SECTION
  2
CLASSES
  0
CLASS
  1
LWPOLYLINE
  2
AcDbPolyline
  3
AutoCAD 2000
 90
    32768
280
     0
281
     1
  0
CLASS
  1
IMAGE
  2
AcDbRasterImage
  3
ISM
 90
      127
280
     0
281
     1
  0
CLASS
  1
OLE2FRAME
  2
AcDbOle2Frame
  3
AutoCAD 2000
 90
    32768
280
     0
281
     1
  0
CLASS
  1
HATCH
  2
AcDbHatch
  3
AutoCAD 2000
 90
    32768
280
     0
281
     1
  0
CLASS
  1
DICTIONARYVAR
  2
AcDbDictionaryVar
  3
AutoCAD 2000
 90
    32768
280
     0
281
     0
  0
CLASS
  1
RASTERVARIABLES
  2
AcDbRasterVariables
  3
ISM
 90
    32768
280
     0
281
     0
  0
CLASS
  1
IMAGEDEF
  2
AcDbRasterImageDef
  3
ISM
 90
        0
280
     0
281
     0
  0
CLASS
  1
IMAGEDEF_REACTOR
  2
AcDbRasterImageDefReactor
  3
ISM
 90
        1
280
     0
281
     0
  0
CLASS
  1
IDBUFFER
  2
AcDbIdBuffer
  3
AutoCAD 2000
 90
    32768
280
     0
281
     0
  0
CLASS
  1
SPATIAL_FILTER
  2
AcDbSpatialFilter
  3
AutoCAD 2000
 90
    32768
280
     0
281
     0
  0
CLASS
  1
XRECORD
  2
AcDbXrecord
  3
AutoCAD 2000
 90
    32768
280
     0
281
     0
  0
CLASS
  1
SORTENTSTABLE
  2
AcDbSortentsTable
  3
AutoCAD 2000
 90
    32768
280
     0
281
     0
  0
CLASS
  1
LAYER_INDEX
  2
AcDbLayerIndex
  3
AutoCAD 2000
 90
    32768
280
     0
281
     0
  0
CLASS
  1
SPATIAL_INDEX
  2
AcDbSpatialIndex
  3
AutoCAD 2000
 90
    32768
280
     0
281
     0
  0
CLASS
  1
OBJECT_PTR
  2
CAseDLPNTableRecord
  3
"ASE-LPNTableRecord"
 90
    32769
280
     0
281
     0
  0
CLASS
  1
LAYOUT
  2
AcDbLayout
  3
AutoCAD 2000
 90
        0
280
     0
281
     0
  0
CLASS
  1
PLOTSETTINGS
  2
AcDbPlotSettings
  3
AutoCAD 2000
 90
    32768
280
     0
281
     0
  0
CLASS
  1
ACDBDICTIONARYWDFLT
  2
AcDbDictionaryWithDefault
  3
AutoCAD 2000
 90
        0
280
     0
281
     0
  0
CLASS
  1
ACDBPLACEHOLDER
  2
AcDbPlaceHolder
  3
AutoCAD 2000
 90
        0
280
     0
281
     0
  0
CLASS
  1
VBA_PROJECT
  2
AcDbVbaProject
  3
acadvba
 90
    32768
280
     0
281
     0
  0
CLASS
  1
WIPEOUT
  2
AcDbWipeout
  3
WipeOut|AutoCAD Express Tool|expresstools@autodesk.com
 90
    32895
280
     0
281
     1
  0
CLASS
  1
WIPEOUTVARIABLES
  2
AcDbWipeoutVariables
  3
WipeOut|AutoCAD Express Tool|expresstools@autodesk.com
 90
        0
280
     0
281
     0
  0
CLASS
  1
RTEXT
  2
RText
  3
RText|AutoCAD Express Tool|expresstools@autodesk.com
 90
    32768
280
     0
281
     1
  0
CLASS
  1
ARCALIGNEDTEXT
  2
AcDbArcAlignedText
  3
ATEXT|AutoCAD Express Tool|expresstools@autodesk.com
 90
    32768
280
     0
281
     1
  0
ENDSEC
  0
SECTION
  2
TABLES
  0
TABLE
  2
VPORT
  5
7
100
AcDbSymbolTable
 70
     1
  0
VPORT
  5
15
100
AcDbSymbolTableRecord
100
AcDbViewportTableRecord
  2
*ACTIVE
 70
     0
 10
0.0
 20
0.0
 11
1.0
 21
1.0
 12
6.591288
 22
4.579184
 13
0.0
 23
0.0
 14
1.0
 24
1.0
 15
0.0
 25
0.0
 16
0.0
 26
0.0
 36
1.0
 17
0.0
 27
0.0
 37
0.0
 40
9.158369
 41
0.688564
 42
50.0
 43
0.0
 44
0.0
 50
0.0
 51
0.0
 71
     0
 72
   100
 73
     1
 74
     1
 75
     0
 76
     0
 77
     0
 78
     0
281
     0
 65
     0
110
0.0
120
0.0
130
0.0
111
1.0
121
0.0
131
0.0
112
0.0
122
1.0
132
0.0
345
0
346
0
 79
     0
146
0.0
  0
ENDTAB
  0
TABLE
  2
LTYPE
  5
4
100
AcDbSymbolTable
 70
     3
  0
LTYPE
  5
11
100
AcDbSymbolTableRecord
100
AcDbLinetypeTableRecord
  2
ByBlock
 70
    64
  3

 72
    65
 73
     0
 40
0.0
  0
LTYPE
  5
12
100
AcDbSymbolTableRecord
100
AcDbLinetypeTableRecord
  2
ByLayer
 70
    64
  3

 72
    65
 73
     0
 40
0.0
  0
LTYPE
  5
13
100
AcDbSymbolTableRecord
100
AcDbLinetypeTableRecord
  2
Continuous
 70
    64
  3
Solid line
 72
    65
 73
     0
 40
0.0
  0
ENDTAB
  0
TABLE
  2
LAYER
  5
2
100
AcDbSymbolTable
 70
     3
  0
LAYER
  5
14
100
AcDbSymbolTableRecord
100
AcDbLayerTableRecord
  2
0
 70
     0
 62
     7
  6
Continuous
290
     1
370
    -3
390
1D
  0
LAYER
  5
28
100
AcDbSymbolTableRecord
100
AcDbLayerTableRecord
  2
レイヤー_2
 70
     0
 62
     1
  6
Continuous
290
     1
370
    -3
390
1D
  0
LAYER
  5
177
100
AcDbSymbolTableRecord
100
AcDbLayerTableRecord
  2
レイヤー_1
 70
     0
 62
   160
  6
Continuous
290
     1
370
    -3
390
1D
  0
ENDTAB
  0
TABLE
  2
STYLE
  5
3
100
AcDbSymbolTable
 70
     5
  0
STYLE
  5
17
100
AcDbSymbolTableRecord
100
AcDbTextStyleTableRecord
  2
Standard
 70
     0
 40
0.0
 41
1.0
 50
0.0
 71
     0
 42
0.0
  3
txt
  4

  0
STYLE
  5
24
100
AcDbSymbolTableRecord
100
AcDbTextStyleTableRecord
  2
STD
 70
     0
 40
0.0
 41
1.0
 50
0.0
 71
     0
 42
0.0
  3
txt
  4

  0
STYLE
  5
25
100
AcDbSymbolTableRecord
100
AcDbTextStyleTableRecord
  2
TATESTD
 70
     4
 40
0.0
 41
1.0
 50
0.0
 71
     0
 42
0.0
  3
txt
  4

  0
STYLE
  5
26
100
AcDbSymbolTableRecord
100
AcDbTextStyleTableRecord
  2
KANJISTD
 70
     0
 40
0.0
 41
1.0
 50
0.0
 71
     0
 42
0.0
  3
txt
  4
extfont
  0
STYLE
  5
27
100
AcDbSymbolTableRecord
100
AcDbTextStyleTableRecord
  2
KANJITATE
 70
     4
 40
0.0
 41
1.0
 50
0.0
 71
     0
 42
0.0
  3
txt
  4
extfont
  0
ENDTAB
  0
TABLE
  2
VIEW
  5
5
100
AcDbSymbolTable
 70
     0
  0
ENDTAB
  0
TABLE
  2
UCS
  5
6
100
AcDbSymbolTable
 70
     0
  0
ENDTAB
  0
TABLE
  2
APPID
  5
8
100
AcDbSymbolTable
 70
     1
  0
APPID
  5
16
100
AcDbSymbolTableRecord
100
AcDbRegAppTableRecord
  2
ACAD
 70
     0
  0
ENDTAB
  0
TABLE
  2
DIMSTYLE
  5
9
100
AcDbSymbolTable
 70
     1
100
AcDbDimStyleTable
 71
     0
  0
DIMSTYLE
105
18
100
AcDbSymbolTableRecord
100
AcDbDimStyleTableRecord
  2
Standard
 70
     0
  3

  4

 40
1.0
 41
0.18
 42
0.0625
 43
0.38
 44
0.18
 45
0.0
 46
0.0
 47
0.0
 48
0.0
 71
     0
 72
     0
 73
     1
 74
     1
 75
     0
 76
     0
 77
     0
 78
     0
 79
     0
140
0.18
141
0.09
142
0.0
143
25.4
144
1.0
145
0.0
146
1.0
147
0.09
148
0.0
170
     0
171
     2
172
     0
173
     0
174
     0
175
     0
176
     0
177
     0
178
     0
179
     0
271
     4
272
     4
273
     2
274
     2
275
     0
276
     0
277
     2
278
    46
279
     0
280
     0
281
     0
282
     0
283
     1
284
     0
285
     0
286
     0
288
     0
340
17
341
0
342
0
343
0
344
0
371
    -2
372
    -2
  0
ENDTAB
  0
TABLE
  2
BLOCK_RECORD
  5
1
100
AcDbSymbolTable
 70
     1
  0
BLOCK_RECORD
  5
A
100
AcDbSymbolTableRecord
100
AcDbBlockTableRecord
  2
*MODEL_SPACE
340
20
  0
BLOCK_RECORD
  5
B
100
AcDbSymbolTableRecord
100
AcDbBlockTableRecord
  2
*PAPER_SPACE
340
21
  0
BLOCK_RECORD
  5
29
100
AcDbSymbolTableRecord
100
AcDbBlockTableRecord
  2
AI9-BLK1
340
0
102
{BLKREFS
331
2A
102
}
  0
ENDTAB
  0
ENDSEC
  0
SECTION
  2
BLOCKS
  0
BLOCK
  5
D
100
AcDbEntity
  8
0
100
AcDbBlockBegin
  2
*MODEL_SPACE
 70
     0
 10
0.0
 20
0.0
 30
0.0
  3
*MODEL_SPACE
  1

  0
ENDBLK
  5
E
100
AcDbEntity
  8
0
100
AcDbBlockEnd
  0
BLOCK
  5
F
100
AcDbEntity
 67
     1
  8
0
100
AcDbBlockBegin
  2
*PAPER_SPACE
 70
     0
 10
0.0
 20
0.0
 30
0.0
  3
*PAPER_SPACE
  1

  0
ENDBLK
  5
10
100
AcDbEntity
 67
     1
  8
0
100
AcDbBlockEnd
  0
BLOCK
  5
2B
100
AcDbEntity
  8
レイヤー_2
 62
     7
100
AcDbBlockBegin
  2
AI9-BLK1
 70
     0
 10
0.0
 20
0.0
 30
0.0
  3
AI9-BLK1
  1

  0
LINE
  5
175
100
AcDbEntity
  8
レイヤー_2
 62
     7
100
AcDbLine
 10
-18.809016
 20
-15.159109
 30
0.0
 11
-18.952332
 21
-15.443674
 31
0.0
  0
LINE
  5
174
100
AcDbEntity
  8
レイヤー_2
 62
     7
100
AcDbLine
 10
20.579795
 20
-30.998969
 30
0.0
 11
18.296385
 21
-30.427772
 31
0.0
  0
LINE
  5
173
100
AcDbEntity
  8
レイヤー_2
 62
     7
100
AcDbLine
 10
-20.378601
 20
-25.719016
 30
0.0
 11
23.862282
 21
-37.563254
 31
0.0
  0
LINE
  5
172
100
AcDbEntity
  8
レイヤー_2
 62
     7
100
AcDbLine
 10
24.861359
 20
-8.450819
 30
0.0
 11
20.436479
 21
-31.998736
 31
0.0
  0
LINE
  5
171
100
AcDbEntity
  8
レイヤー_2
 62
     7
100
AcDbLine
 10
25.003297
 20
-36.850119
 30
0.0
 11
30.854447
 21
-5.596902
 31
0.0
  0
LINE
  5
170
100
AcDbEntity
  8
レイヤー_2
 62
     7
100
AcDbLine
 10
-18.952332
 20
-15.443674
 30
0.0
 11
-20.663855
 21
-25.005192
 31
0.0
  0
LINE
  5
16F
100
AcDbEntity
  8
レイヤー_2
 62
     7
100
AcDbLine
 10
30.427256
 20
-4.883078
 30
0.0
 11
26.430945
 21
-3.88469
 31
0.0
  0
LINE
  5
16E
100
AcDbEntity
  8
レイヤー_2
 62
     7
100
AcDbLine
 10
22.863204
 20
-8.450819
 30
0.0
 11
24.576105
 21
-8.879389
 31
0.0
  0
LINE
  5
16D
100
AcDbEntity
  8
レイヤー_2
 62
     7
100
AcDbLine
 10
17.582562
 20
-34.709337
 30
0.0
 11
17.867815
 21
-34.56671
 31
0.0
  0
POLYLINE
  5
165
100
AcDbEntity
  8
レイヤー_2
 62
     7
100
AcDb2dPolyline
 66
     1
 10
0.0
 20
0.0
 30
0.0
  0
VERTEX
  5
166
100
AcDbEntity
  8
レイヤー_2
 62
     7
100
AcDbVertex
100
AcDb2dVertex
 10
-16.954176
 20
-15.301047
 30
0.0
  0
VERTEX
  5
167
100
AcDbEntity
  8
レイヤー_2
 62
     7
100
AcDbVertex
100
AcDb2dVertex
 10
-17.23943
 20
-15.159109
 30
0.0
  0
VERTEX
  5
168
100
AcDbEntity
  8
レイヤー_2
 62
     7
100
AcDbVertex
100
AcDb2dVertex
 10
-18.095192
 20
-15.159109
 30
0.0
  0
VERTEX
  5
169
100
AcDbEntity
  8
レイヤー_2
 62
     7
100
AcDbVertex
100
AcDb2dVertex
 10
-18.380446
 20
-15.015793
 30
0.0
  0
VERTEX
  5
16A
100
AcDbEntity
  8
レイヤー_2
 62
     7
100
AcDbVertex
100
AcDb2dVertex
 10
-18.809016
 20
-15.015793
 30
0.0
  0
VERTEX
  5
16B
100
AcDbEntity
  8
レイヤー_2
 62
     7
100
AcDbVertex
100
AcDb2dVertex
 10
-18.809016
 20
-15.159109
 30
0.0
  0
SEQEND
  5
16C
100
AcDbEntity
  8
レイヤー_2
 62
     7
  0
POLYLINE
  5
15C
100
AcDbEntity
  8
レイヤー_2
 62
     7
100
AcDb2dPolyline
 66
     1
 10
0.0
 20
0.0
 30
0.0
  0
VERTEX
  5
15D
100
AcDbEntity
  8
レイヤー_2
 62
     7
100
AcDbVertex
100
AcDb2dVertex
 10
-18.809016
 20
-15.159109
 30
0.0
  0
VERTEX
  5
15E
100
AcDbEntity
  8
レイヤー_2
 62
     7
100
AcDbVertex
100
AcDb2dVertex
 10
-18.667078
 20
-15.301047
 30
0.0
  0
VERTEX
  5
15F
100
AcDbEntity
  8
レイヤー_2
 62
     7
100
AcDbVertex
100
AcDb2dVertex
 10
-18.380446
 20
-15.301047
 30
0.0
  0
VERTEX
  5
160
100
AcDbEntity
  8
レイヤー_2
 62
     7
100
AcDbVertex
100
AcDb2dVertex
 10
-18.095192
 20
-15.443674
 30
0.0
  0
VERTEX
  5
161
100
AcDbEntity
  8
レイヤー_2
 62
     7
100
AcDbVertex
100
AcDb2dVertex
 10
-17.668
 20
-15.586301
 30
0.0
  0
VERTEX
  5
162
100
AcDbEntity
  8
レイヤー_2
 62
     7
100
AcDbVertex
100
AcDb2dVertex
 10
-17.23943
 20
-15.586301
 30
0.0
  0
VERTEX
  5
163
100
AcDbEntity
  8
レイヤー_2
 62
     7
100
AcDbVertex
100
AcDb2dVertex
 10
-16.954176
 20
-15.729617
 30
0.0
  0
SEQEND
  5
164
100
AcDbEntity
  8
レイヤー_2
 62
     7
  0
POLYLINE
  5
151
100
AcDbEntity
  8
レイヤー_2
 62
     7
100
AcDb2dPolyline
 66
     1
 10
0.0
 20
0.0
 30
0.0
  0
VERTEX
  5
152
100
AcDbEntity
  8
レイヤー_2
 62
     7
100
AcDbVertex
100
AcDb2dVertex
 10
-18.952332
 20
-15.443674
 30
0.0
  0
VERTEX
  5
153
100
AcDbEntity
  8
レイヤー_2
 62
     7
100
AcDbVertex
100
AcDb2dVertex
 10
-18.952332
 20
-15.586301
 30
0.0
  0
VERTEX
  5
154
100
AcDbEntity
  8
レイヤー_2
 62
     7
100
AcDbVertex
100
AcDb2dVertex
 10
-18.809016
 20
-15.586301
 30
0.0
  0
VERTEX
  5
155
100
AcDbEntity
  8
レイヤー_2
 62
     7
100
AcDbVertex
100
AcDb2dVertex
 10
-18.667078
 20
-15.729617
 30
0.0
  0
VERTEX
  5
156
100
AcDbEntity
  8
レイヤー_2
 62
     7
100
AcDbVertex
100
AcDb2dVertex
 10
-18.380446
 20
-15.729617
 30
0.0
  0
VERTEX
  5
157
100
AcDbEntity
  8
レイヤー_2
 62
     7
100
AcDbVertex
100
AcDb2dVertex
 10
-18.095192
 20
-15.872244
 30
0.0
  0
VERTEX
  5
158
100
AcDbEntity
  8
レイヤー_2
 62
     7
100
AcDbVertex
100
AcDb2dVertex
 10
-17.668
 20
-15.872244
 30
0.0
  0
VERTEX
  5
159
100
AcDbEntity
  8
レイヤー_2
 62
     7
100
AcDbVertex
100
AcDb2dVertex
 10
-17.382746
 20
-16.014871
 30
0.0
  0
VERTEX
  5
15A
100
AcDbEntity
  8
レイヤー_2
 62
     7
100
AcDbVertex
100
AcDb2dVertex
 10
-16.954176
 20
-16.157498
 30
0.0
  0
SEQEND
  5
15B
100
AcDbEntity
  8
レイヤー_2
 62
     7
  0
POLYLINE
  5
14A
100
AcDbEntity
  8
レイヤー_2
 62
     7
100
AcDb2dPolyline
 66
     1
 10
0.0
 20
0.0
 30
0.0
  0
VERTEX
  5
14B
100
AcDbEntity
  8
レイヤー_2
 62
     7
100
AcDbVertex
100
AcDb2dVertex
 10
-20.378601
 20
-25.719016
 30
0.0
  0
VERTEX
  5
14C
100
AcDbEntity
  8
レイヤー_2
 62
     7
100
AcDbVertex
100
AcDb2dVertex
 10
-20.521917
 20
-25.5757
 30
0.0
  0
VERTEX
  5
14D
100
AcDbEntity
  8
レイヤー_2
 62
     7
100
AcDbVertex
100
AcDb2dVertex
 10
-20.663855
 20
-25.433762
 30
0.0
  0
VERTEX
  5
14E
100
AcDbEntity
  8
レイヤー_2
 62
     7
100
AcDbVertex
100
AcDb2dVertex
 10
-20.663855
 20
-25.291135
 30
0.0
  0
VERTEX
  5
14F
100
AcDbEntity
  8
レイヤー_2
 62
     7
100
AcDbVertex
100
AcDb2dVertex
 10
-20.807171
 20
-25.148508
 30
0.0
  0
SEQEND
  5
150
100
AcDbEntity
  8
レイヤー_2
 62
     7
  0
POLYLINE
  5
141
100
AcDbEntity
  8
レイヤー_2
 62
     7
100
AcDb2dPolyline
 66
     1
 10
0.0
 20
0.0
 30
0.0
  0
VERTEX
  5
142
100
AcDbEntity
  8
レイヤー_2
 62
     7
100
AcDbVertex
100
AcDb2dVertex
 10
-20.807171
 20
-25.148508
 30
0.0
  0
VERTEX
  5
143
100
AcDbEntity
  8
レイヤー_2
 62
     7
100
AcDbVertex
100
AcDb2dVertex
 10
-20.378601
 20
-24.292057
 30
0.0
  0
VERTEX
  5
144
100
AcDbEntity
  8
レイヤー_2
 62
     7
100
AcDbVertex
100
AcDb2dVertex
 10
-20.093347
 20
-24.006114
 30
0.0
  0
VERTEX
  5
145
100
AcDbEntity
  8
レイヤー_2
 62
     7
100
AcDbVertex
100
AcDb2dVertex
 10
-19.808093
 20
-23.578923
 30
0.0
  0
VERTEX
  5
146
100
AcDbEntity
  8
レイヤー_2
 62
     7
100
AcDbVertex
100
AcDb2dVertex
 10
-19.522839
 20
-23.29298
 30
0.0
  0
VERTEX
  5
147
100
AcDbEntity
  8
レイヤー_2
 62
     7
100
AcDbVertex
100
AcDb2dVertex
 10
-18.238508
 20
-22.436529
 30
0.0
  0
VERTEX
  5
148
100
AcDbEntity
  8
レイヤー_2
 62
     7
100
AcDbVertex
100
AcDb2dVertex
 10
-17.382746
 20
-22.007959
 30
0.0
  0
SEQEND
  5
149
100
AcDbEntity
  8
レイヤー_2
 62
     7
  0
POLYLINE
  5
133
100
AcDbEntity
  8
レイヤー_2
 62
     7
100
AcDb2dPolyline
 66
     1
 10
0.0
 20
0.0
 30
0.0
  0
VERTEX
  5
134
100
AcDbEntity
  8
レイヤー_2
 62
     7
100
AcDbVertex
100
AcDb2dVertex
 10
24.147536
 20
-37.563254
 30
0.0
  0
VERTEX
  5
135
100
AcDbEntity
  8
レイヤー_2
 62
     7
100
AcDbVertex
100
AcDb2dVertex
 10
23.862282
 20
-37.563254
 30
0.0
  0
VERTEX
  5
136
100
AcDbEntity
  8
レイヤー_2
 62
     7
100
AcDbVertex
100
AcDb2dVertex
 10
23.577028
 20
-37.421316
 30
0.0
  0
VERTEX
  5
137
100
AcDbEntity
  8
レイヤー_2
 62
     7
100
AcDbVertex
100
AcDb2dVertex
 10
23.148458
 20
-37.136062
 30
0.0
  0
VERTEX
  5
138
100
AcDbEntity
  8
レイヤー_2
 62
     7
100
AcDbVertex
100
AcDb2dVertex
 10
22.863204
 20
-36.850119
 30
0.0
  0
VERTEX
  5
139
100
AcDbEntity
  8
レイヤー_2
 62
     7
100
AcDbVertex
100
AcDb2dVertex
 10
22.434634
 20
-36.564865
 30
0.0
  0
VERTEX
  5
13A
100
AcDbEntity
  8
レイヤー_2
 62
     7
100
AcDbVertex
100
AcDb2dVertex
 10
22.14938
 20
-36.136985
 30
0.0
  0
VERTEX
  5
13B
100
AcDbEntity
  8
レイヤー_2
 62
     7
100
AcDbVertex
100
AcDb2dVertex
 10
21.72081
 20
-35.708415
 30
0.0
  0
VERTEX
  5
13C
100
AcDbEntity
  8
レイヤー_2
 62
     7
100
AcDbVertex
100
AcDb2dVertex
 10
21.150302
 20
-34.852653
 30
0.0
  0
VERTEX
  5
13D
100
AcDbEntity
  8
レイヤー_2
 62
     7
100
AcDbVertex
100
AcDb2dVertex
 10
20.865049
 20
-34.282145
 30
0.0
  0
VERTEX
  5
13E
100
AcDbEntity
  8
レイヤー_2
 62
     7
100
AcDbVertex
100
AcDb2dVertex
 10
20.436479
 20
-32.997125
 30
0.0
  0
VERTEX
  5
13F
100
AcDbEntity
  8
レイヤー_2
 62
     7
100
AcDbVertex
100
AcDb2dVertex
 10
20.436479
 20
-31.998736
 30
0.0
  0
SEQEND
  5
140
100
AcDbEntity
  8
レイヤー_2
 62
     7
  0
POLYLINE
  5
12B
100
AcDbEntity
  8
レイヤー_2
 62
     7
100
AcDb2dPolyline
 66
     1
 10
0.0
 20
0.0
 30
0.0
  0
VERTEX
  5
12C
100
AcDbEntity
  8
レイヤー_2
 62
     7
100
AcDbVertex
100
AcDb2dVertex
 10
25.003297
 20
-36.850119
 30
0.0
  0
VERTEX
  5
12D
100
AcDbEntity
  8
レイヤー_2
 62
     7
100
AcDbVertex
100
AcDb2dVertex
 10
25.003297
 20
-37.136062
 30
0.0
  0
VERTEX
  5
12E
100
AcDbEntity
  8
レイヤー_2
 62
     7
100
AcDbVertex
100
AcDb2dVertex
 10
24.861359
 20
-37.278689
 30
0.0
  0
VERTEX
  5
12F
100
AcDbEntity
  8
レイヤー_2
 62
     7
100
AcDbVertex
100
AcDb2dVertex
 10
24.576105
 20
-37.421316
 30
0.0
  0
VERTEX
  5
130
100
AcDbEntity
  8
レイヤー_2
 62
     7
100
AcDbVertex
100
AcDb2dVertex
 10
24.432789
 20
-37.563254
 30
0.0
  0
VERTEX
  5
131
100
AcDbEntity
  8
レイヤー_2
 62
     7
100
AcDbVertex
100
AcDb2dVertex
 10
24.147536
 20
-37.563254
 30
0.0
  0
SEQEND
  5
132
100
AcDbEntity
  8
レイヤー_2
 62
     7
  0
POLYLINE
  5
11E
100
AcDbEntity
  8
レイヤー_2
 62
     7
100
AcDb2dPolyline
 66
     1
 10
0.0
 20
0.0
 30
0.0
  0
VERTEX
  5
11F
100
AcDbEntity
  8
レイヤー_2
 62
     7
100
AcDbVertex
100
AcDb2dVertex
 10
30.28394
 20
-4.883078
 30
0.0
  0
VERTEX
  5
120
100
AcDbEntity
  8
レイヤー_2
 62
     7
100
AcDbVertex
100
AcDb2dVertex
 10
29.570116
 20
-4.883078
 30
0.0
  0
VERTEX
  5
121
100
AcDbEntity
  8
レイヤー_2
 62
     7
100
AcDbVertex
100
AcDb2dVertex
 10
28.285784
 20
-5.311648
 30
0.0
  0
VERTEX
  5
122
100
AcDbEntity
  8
レイヤー_2
 62
     7
100
AcDbVertex
100
AcDb2dVertex
 10
27.857214
 20
-5.596902
 30
0.0
  0
VERTEX
  5
123
100
AcDbEntity
  8
レイヤー_2
 62
     7
100
AcDbVertex
100
AcDb2dVertex
 10
27.286707
 20
-5.882845
 30
0.0
  0
VERTEX
  5
124
100
AcDbEntity
  8
レイヤー_2
 62
     7
100
AcDbVertex
100
AcDb2dVertex
 10
26.002375
 20
-6.739296
 30
0.0
  0
VERTEX
  5
125
100
AcDbEntity
  8
レイヤー_2
 62
     7
100
AcDbVertex
100
AcDb2dVertex
 10
25.717121
 20
-7.02455
 30
0.0
  0
VERTEX
  5
126
100
AcDbEntity
  8
レイヤー_2
 62
     7
100
AcDbVertex
100
AcDb2dVertex
 10
25.431867
 20
-7.452431
 30
0.0
  0
VERTEX
  5
127
100
AcDbEntity
  8
レイヤー_2
 62
     7
100
AcDbVertex
100
AcDb2dVertex
 10
25.146613
 20
-7.737684
 30
0.0
  0
VERTEX
  5
128
100
AcDbEntity
  8
レイヤー_2
 62
     7
100
AcDbVertex
100
AcDb2dVertex
 10
24.861359
 20
-8.308881
 30
0.0
  0
VERTEX
  5
129
100
AcDbEntity
  8
レイヤー_2
 62
     7
100
AcDbVertex
100
AcDb2dVertex
 10
24.861359
 20
-8.450819
 30
0.0
  0
SEQEND
  5
12A
100
AcDbEntity
  8
レイヤー_2
 62
     7
  0
POLYLINE
  5
117
100
AcDbEntity
  8
レイヤー_2
 62
     7
100
AcDb2dPolyline
 66
     1
 10
0.0
 20
0.0
 30
0.0
  0
VERTEX
  5
118
100
AcDbEntity
  8
レイヤー_2
 62
     7
100
AcDbVertex
100
AcDb2dVertex
 10
30.854447
 20
-5.596902
 30
0.0
  0
VERTEX
  5
119
100
AcDbEntity
  8
レイヤー_2
 62
     7
100
AcDbVertex
100
AcDb2dVertex
 10
30.854447
 20
-5.16971
 30
0.0
  0
VERTEX
  5
11A
100
AcDbEntity
  8
レイヤー_2
 62
     7
100
AcDbVertex
100
AcDb2dVertex
 10
30.712509
 20
-5.026394
 30
0.0
  0
VERTEX
  5
11B
100
AcDbEntity
  8
レイヤー_2
 62
     7
100
AcDbVertex
100
AcDb2dVertex
 10
30.427256
 20
-4.883078
 30
0.0
  0
VERTEX
  5
11C
100
AcDbEntity
  8
レイヤー_2
 62
     7
100
AcDbVertex
100
AcDb2dVertex
 10
30.28394
 20
-4.883078
 30
0.0
  0
SEQEND
  5
11D
100
AcDbEntity
  8
レイヤー_2
 62
     7
  0
POLYLINE
  5
110
100
AcDbEntity
  8
レイヤー_2
 62
     7
100
AcDb2dPolyline
 66
     1
 10
0.0
 20
0.0
 30
0.0
  0
VERTEX
  5
111
100
AcDbEntity
  8
レイヤー_2
 62
     7
100
AcDbVertex
100
AcDb2dVertex
 10
30.854447
 20
-5.596902
 30
0.0
  0
VERTEX
  5
112
100
AcDbEntity
  8
レイヤー_2
 62
     7
100
AcDbVertex
100
AcDb2dVertex
 10
30.854447
 20
-5.16971
 30
0.0
  0
VERTEX
  5
113
100
AcDbEntity
  8
レイヤー_2
 62
     7
100
AcDbVertex
100
AcDb2dVertex
 10
30.712509
 20
-5.026394
 30
0.0
  0
VERTEX
  5
114
100
AcDbEntity
  8
レイヤー_2
 62
     7
100
AcDbVertex
100
AcDb2dVertex
 10
30.427256
 20
-4.883078
 30
0.0
  0
VERTEX
  5
115
100
AcDbEntity
  8
レイヤー_2
 62
     7
100
AcDbVertex
100
AcDb2dVertex
 10
30.28394
 20
-4.883078
 30
0.0
  0
SEQEND
  5
116
100
AcDbEntity
  8
レイヤー_2
 62
     7
  0
LINE
  5
10F
100
AcDbEntity
  8
レイヤー_2
 62
     7
100
AcDbLine
 10
11.874727
 20
-3.742063
 30
0.0
 11
11.874727
 21
-3.88469
 31
0.0
  0
POLYLINE
  5
104
100
AcDbEntity
  8
レイヤー_2
 62
     7
100
AcDb2dPolyline
 66
     1
 10
0.0
 20
0.0
 30
0.0
  0
VERTEX
  5
105
100
AcDbEntity
  8
レイヤー_2
 62
     7
100
AcDbVertex
100
AcDb2dVertex
 10
14.585329
 20
-0.602203
 30
0.0
  0
VERTEX
  5
106
100
AcDbEntity
  8
レイヤー_2
 62
     7
100
AcDbVertex
100
AcDb2dVertex
 10
13.872883
 20
-0.602203
 30
0.0
  0
VERTEX
  5
107
100
AcDbEntity
  8
レイヤー_2
 62
     7
100
AcDbVertex
100
AcDb2dVertex
 10
13.587629
 20
-0.74483
 30
0.0
  0
VERTEX
  5
108
100
AcDbEntity
  8
レイヤー_2
 62
     7
100
AcDbVertex
100
AcDb2dVertex
 10
13.159059
 20
-0.888146
 30
0.0
  0
VERTEX
  5
109
100
AcDbEntity
  8
レイヤー_2
 62
     7
100
AcDbVertex
100
AcDb2dVertex
 10
12.588551
 20
-1.458653
 30
0.0
  0
VERTEX
  5
10A
100
AcDbEntity
  8
レイヤー_2
 62
     7
100
AcDbVertex
100
AcDb2dVertex
 10
12.301919
 20
-1.886534
 30
0.0
  0
VERTEX
  5
10B
100
AcDbEntity
  8
レイヤー_2
 62
     7
100
AcDbVertex
100
AcDb2dVertex
 10
12.016665
 20
-2.742985
 30
0.0
  0
VERTEX
  5
10C
100
AcDbEntity
  8
レイヤー_2
 62
     7
100
AcDbVertex
100
AcDb2dVertex
 10
11.874727
 20
-3.313493
 30
0.0
  0
VERTEX
  5
10D
100
AcDbEntity
  8
レイヤー_2
 62
     7
100
AcDbVertex
100
AcDb2dVertex
 10
11.874727
 20
-3.742063
 30
0.0
  0
SEQEND
  5
10E
100
AcDbEntity
  8
レイヤー_2
 62
     7
  0
POLYLINE
  5
F5
100
AcDbEntity
  8
レイヤー_2
 62
     7
100
AcDb2dPolyline
 66
     1
 10
0.0
 20
0.0
 30
0.0
  0
VERTEX
  5
F6
100
AcDbEntity
  8
レイヤー_2
 62
     7
100
AcDbVertex
100
AcDb2dVertex
 10
25.717121
 20
-3.742063
 30
0.0
  0
VERTEX
  5
F7
100
AcDbEntity
  8
レイヤー_2
 62
     7
100
AcDbVertex
100
AcDb2dVertex
 10
25.288551
 20
-3.88469
 30
0.0
  0
VERTEX
  5
F8
100
AcDbEntity
  8
レイヤー_2
 62
     7
100
AcDbVertex
100
AcDb2dVertex
 10
25.003297
 20
-4.027317
 30
0.0
  0
VERTEX
  5
F9
100
AcDbEntity
  8
レイヤー_2
 62
     7
100
AcDbVertex
100
AcDb2dVertex
 10
24.576105
 20
-4.169944
 30
0.0
  0
VERTEX
  5
FA
100
AcDbEntity
  8
レイヤー_2
 62
     7
100
AcDbVertex
100
AcDb2dVertex
 10
24.290852
 20
-4.455887
 30
0.0
  0
VERTEX
  5
FB
100
AcDbEntity
  8
レイヤー_2
 62
     7
100
AcDbVertex
100
AcDb2dVertex
 10
24.147536
 20
-4.883078
 30
0.0
  0
VERTEX
  5
FC
100
AcDbEntity
  8
レイヤー_2
 62
     7
100
AcDbVertex
100
AcDb2dVertex
 10
23.862282
 20
-5.311648
 30
0.0
  0
VERTEX
  5
FD
100
AcDbEntity
  8
レイヤー_2
 62
     7
100
AcDbVertex
100
AcDb2dVertex
 10
23.577028
 20
-6.168099
 30
0.0
  0
VERTEX
  5
FE
100
AcDbEntity
  8
レイヤー_2
 62
     7
100
AcDbVertex
100
AcDb2dVertex
 10
23.577028
 20
-7.595058
 30
0.0
  0
VERTEX
  5
FF
100
AcDbEntity
  8
レイヤー_2
 62
     7
100
AcDbVertex
100
AcDb2dVertex
 10
23.718966
 20
-8.023627
 30
0.0
  0
VERTEX
  5
100
100
AcDbEntity
  8
レイヤー_2
 62
     7
100
AcDbVertex
100
AcDb2dVertex
 10
23.862282
 20
-8.308881
 30
0.0
  0
VERTEX
  5
101
100
AcDbEntity
  8
レイヤー_2
 62
     7
100
AcDbVertex
100
AcDb2dVertex
 10
24.147536
 20
-8.594135
 30
0.0
  0
VERTEX
  5
102
100
AcDbEntity
  8
レイヤー_2
 62
     7
100
AcDbVertex
100
AcDb2dVertex
 10
24.432789
 20
-8.736762
 30
0.0
  0
SEQEND
  5
103
100
AcDbEntity
  8
レイヤー_2
 62
     7
  0
POLYLINE
  5
EB
100
AcDbEntity
  8
レイヤー_2
 62
     7
100
AcDb2dPolyline
 66
     1
 10
0.0
 20
0.0
 30
0.0
  0
VERTEX
  5
EC
100
AcDbEntity
  8
レイヤー_2
 62
     7
100
AcDbVertex
100
AcDb2dVertex
 10
23.718966
 20
-5.311648
 30
0.0
  0
VERTEX
  5
ED
100
AcDbEntity
  8
レイヤー_2
 62
     7
100
AcDbVertex
100
AcDb2dVertex
 10
24.00422
 20
-4.883078
 30
0.0
  0
VERTEX
  5
EE
100
AcDbEntity
  8
レイヤー_2
 62
     7
100
AcDbVertex
100
AcDb2dVertex
 10
24.147536
 20
-4.598513
 30
0.0
  0
VERTEX
  5
EF
100
AcDbEntity
  8
レイヤー_2
 62
     7
100
AcDbVertex
100
AcDb2dVertex
 10
24.576105
 20
-4.169944
 30
0.0
  0
VERTEX
  5
F0
100
AcDbEntity
  8
レイヤー_2
 62
     7
100
AcDbVertex
100
AcDb2dVertex
 10
25.146613
 20
-3.88469
 30
0.0
  0
VERTEX
  5
F1
100
AcDbEntity
  8
レイヤー_2
 62
     7
100
AcDbVertex
100
AcDb2dVertex
 10
25.575183
 20
-3.742063
 30
0.0
  0
VERTEX
  5
F2
100
AcDbEntity
  8
レイヤー_2
 62
     7
100
AcDbVertex
100
AcDb2dVertex
 10
25.860437
 20
-3.742063
 30
0.0
  0
VERTEX
  5
F3
100
AcDbEntity
  8
レイヤー_2
 62
     7
100
AcDbVertex
100
AcDb2dVertex
 10
26.430945
 20
-3.88469
 30
0.0
  0
SEQEND
  5
F4
100
AcDbEntity
  8
レイヤー_2
 62
     7
  0
POLYLINE
  5
DD
100
AcDbEntity
  8
レイヤー_2
 62
     7
100
AcDb2dPolyline
 66
     1
 10
0.0
 20
0.0
 30
0.0
  0
VERTEX
  5
DE
100
AcDbEntity
  8
レイヤー_2
 62
     7
100
AcDbVertex
100
AcDb2dVertex
 10
18.296385
 20
-33.995513
 30
0.0
  0
VERTEX
  5
DF
100
AcDbEntity
  8
レイヤー_2
 62
     7
100
AcDbVertex
100
AcDb2dVertex
 10
18.296385
 20
-31.998736
 30
0.0
  0
VERTEX
  5
E0
100
AcDbEntity
  8
レイヤー_2
 62
     7
100
AcDbVertex
100
AcDb2dVertex
 10
18.439701
 20
-29.857265
 30
0.0
  0
VERTEX
  5
E1
100
AcDbEntity
  8
レイヤー_2
 62
     7
100
AcDbVertex
100
AcDb2dVertex
 10
18.581639
 20
-27.859798
 30
0.0
  0
VERTEX
  5
E2
100
AcDbEntity
  8
レイヤー_2
 62
     7
100
AcDbVertex
100
AcDb2dVertex
 10
18.724955
 20
-25.719016
 30
0.0
  0
VERTEX
  5
E3
100
AcDbEntity
  8
レイヤー_2
 62
     7
100
AcDbVertex
100
AcDb2dVertex
 10
19.010209
 20
-23.721549
 30
0.0
  0
VERTEX
  5
E4
100
AcDbEntity
  8
レイヤー_2
 62
     7
100
AcDbVertex
100
AcDb2dVertex
 10
19.295463
 20
-21.580767
 30
0.0
  0
VERTEX
  5
E5
100
AcDbEntity
  8
レイヤー_2
 62
     7
100
AcDbVertex
100
AcDb2dVertex
 10
20.151225
 20
-17.584456
 30
0.0
  0
VERTEX
  5
E6
100
AcDbEntity
  8
レイヤー_2
 62
     7
100
AcDbVertex
100
AcDb2dVertex
 10
20.579795
 20
-15.443674
 30
0.0
  0
VERTEX
  5
E7
100
AcDbEntity
  8
レイヤー_2
 62
     7
100
AcDbVertex
100
AcDb2dVertex
 10
21.150302
 20
-13.446208
 30
0.0
  0
VERTEX
  5
E8
100
AcDbEntity
  8
レイヤー_2
 62
     7
100
AcDbVertex
100
AcDb2dVertex
 10
23.291774
 20
-7.452431
 30
0.0
  0
VERTEX
  5
E9
100
AcDbEntity
  8
レイヤー_2
 62
     7
100
AcDbVertex
100
AcDb2dVertex
 10
23.577028
 20
-6.881234
 30
0.0
  0
SEQEND
  5
EA
100
AcDbEntity
  8
レイヤー_2
 62
     7
  0
POLYLINE
  5
CC
100
AcDbEntity
  8
レイヤー_2
 62
     7
100
AcDb2dPolyline
 66
     1
 10
0.0
 20
0.0
 30
0.0
  0
VERTEX
  5
CD
100
AcDbEntity
  8
レイヤー_2
 62
     7
100
AcDbVertex
100
AcDb2dVertex
 10
17.867815
 20
-34.138829
 30
0.0
  0
VERTEX
  5
CE
100
AcDbEntity
  8
レイヤー_2
 62
     7
100
AcDbVertex
100
AcDb2dVertex
 10
18.011131
 20
-31.998736
 30
0.0
  0
VERTEX
  5
CF
100
AcDbEntity
  8
レイヤー_2
 62
     7
100
AcDbVertex
100
AcDb2dVertex
 10
18.011131
 20
-30.000581
 30
0.0
  0
VERTEX
  5
D0
100
AcDbEntity
  8
レイヤー_2
 62
     7
100
AcDbVertex
100
AcDb2dVertex
 10
18.153069
 20
-27.859798
 30
0.0
  0
VERTEX
  5
D1
100
AcDbEntity
  8
レイヤー_2
 62
     7
100
AcDbVertex
100
AcDb2dVertex
 10
18.439701
 20
-25.861643
 30
0.0
  0
VERTEX
  5
D2
100
AcDbEntity
  8
レイヤー_2
 62
     7
100
AcDbVertex
100
AcDb2dVertex
 10
18.581639
 20
-23.721549
 30
0.0
  0
VERTEX
  5
D3
100
AcDbEntity
  8
レイヤー_2
 62
     7
100
AcDbVertex
100
AcDb2dVertex
 10
19.010209
 20
-21.580767
 30
0.0
  0
VERTEX
  5
D4
100
AcDbEntity
  8
レイヤー_2
 62
     7
100
AcDbVertex
100
AcDb2dVertex
 10
19.295463
 20
-19.582612
 30
0.0
  0
VERTEX
  5
D5
100
AcDbEntity
  8
レイヤー_2
 62
     7
100
AcDbVertex
100
AcDb2dVertex
 10
19.865971
 20
-17.441829
 30
0.0
  0
VERTEX
  5
D6
100
AcDbEntity
  8
レイヤー_2
 62
     7
100
AcDbVertex
100
AcDb2dVertex
 10
20.294541
 20
-15.443674
 30
0.0
  0
VERTEX
  5
D7
100
AcDbEntity
  8
レイヤー_2
 62
     7
100
AcDbVertex
100
AcDb2dVertex
 10
20.865049
 20
-13.302892
 30
0.0
  0
VERTEX
  5
D8
100
AcDbEntity
  8
レイヤー_2
 62
     7
100
AcDbVertex
100
AcDb2dVertex
 10
21.578872
 20
-11.305425
 30
0.0
  0
VERTEX
  5
D9
100
AcDbEntity
  8
レイヤー_2
 62
     7
100
AcDbVertex
100
AcDb2dVertex
 10
22.14938
 20
-9.307959
 30
0.0
  0
VERTEX
  5
DA
100
AcDbEntity
  8
レイヤー_2
 62
     7
100
AcDbVertex
100
AcDb2dVertex
 10
23.005142
 20
-7.309804
 30
0.0
  0
VERTEX
  5
DB
100
AcDbEntity
  8
レイヤー_2
 62
     7
100
AcDbVertex
100
AcDb2dVertex
 10
23.718966
 20
-5.311648
 30
0.0
  0
SEQEND
  5
DC
100
AcDbEntity
  8
レイヤー_2
 62
     7
  0
POLYLINE
  5
C5
100
AcDbEntity
  8
レイヤー_2
 62
     7
100
AcDb2dPolyline
 66
     1
 10
0.0
 20
0.0
 30
0.0
  0
VERTEX
  5
C6
100
AcDbEntity
  8
レイヤー_2
 62
     7
100
AcDbVertex
100
AcDb2dVertex
 10
11.874727
 20
-4.027317
 30
0.0
  0
VERTEX
  5
C7
100
AcDbEntity
  8
レイヤー_2
 62
     7
100
AcDbVertex
100
AcDb2dVertex
 10
11.731411
 20
-4.312571
 30
0.0
  0
VERTEX
  5
C8
100
AcDbEntity
  8
レイヤー_2
 62
     7
100
AcDbVertex
100
AcDb2dVertex
 10
11.589473
 20
-4.455887
 30
0.0
  0
VERTEX
  5
C9
100
AcDbEntity
  8
レイヤー_2
 62
     7
100
AcDbVertex
100
AcDb2dVertex
 10
11.30422
 20
-4.598513
 30
0.0
  0
VERTEX
  5
CA
100
AcDbEntity
  8
レイヤー_2
 62
     7
100
AcDbVertex
100
AcDb2dVertex
 10
11.017588
 20
-4.598513
 30
0.0
  0
SEQEND
  5
CB
100
AcDbEntity
  8
レイヤー_2
 62
     7
  0
POLYLINE
  5
BB
100
AcDbEntity
  8
レイヤー_2
 62
     7
100
AcDb2dPolyline
 66
     1
 10
0.0
 20
0.0
 30
0.0
  0
VERTEX
  5
BC
100
AcDbEntity
  8
レイヤー_2
 62
     7
100
AcDbVertex
100
AcDb2dVertex
 10
11.874727
 20
-4.027317
 30
0.0
  0
VERTEX
  5
BD
100
AcDbEntity
  8
レイヤー_2
 62
     7
100
AcDbVertex
100
AcDb2dVertex
 10
11.874727
 20
-3.742063
 30
0.0
  0
VERTEX
  5
BE
100
AcDbEntity
  8
レイヤー_2
 62
     7
100
AcDbVertex
100
AcDb2dVertex
 10
12.159981
 20
-3.456809
 30
0.0
  0
VERTEX
  5
BF
100
AcDbEntity
  8
レイヤー_2
 62
     7
100
AcDbVertex
100
AcDb2dVertex
 10
12.159981
 20
-3.171555
 30
0.0
  0
VERTEX
  5
C0
100
AcDbEntity
  8
レイヤー_2
 62
     7
100
AcDbVertex
100
AcDb2dVertex
 10
12.301919
 20
-3.028239
 30
0.0
  0
VERTEX
  5
C1
100
AcDbEntity
  8
レイヤー_2
 62
     7
100
AcDbVertex
100
AcDb2dVertex
 10
12.301919
 20
-2.742985
 30
0.0
  0
VERTEX
  5
C2
100
AcDbEntity
  8
レイヤー_2
 62
     7
100
AcDbVertex
100
AcDb2dVertex
 10
12.445235
 20
-2.600358
 30
0.0
  0
VERTEX
  5
C3
100
AcDbEntity
  8
レイヤー_2
 62
     7
100
AcDbVertex
100
AcDb2dVertex
 10
12.588551
 20
-2.315104
 30
0.0
  0
SEQEND
  5
C4
100
AcDbEntity
  8
レイヤー_2
 62
     7
  0
LINE
  5
BA
100
AcDbEntity
  8
レイヤー_2
 62
     7
100
AcDbLine
 10
17.297308
 20
-34.709337
 30
0.0
 11
17.582562
 21
-34.709337
 31
0.0
  0
POLYLINE
  5
B3
100
AcDbEntity
  8
レイヤー_2
 62
     7
100
AcDb2dPolyline
 66
     1
 10
0.0
 20
0.0
 30
0.0
  0
VERTEX
  5
B4
100
AcDbEntity
  8
レイヤー_2
 62
     7
100
AcDbVertex
100
AcDb2dVertex
 10
17.582562
 20
-34.709337
 30
0.0
  0
VERTEX
  5
B5
100
AcDbEntity
  8
レイヤー_2
 62
     7
100
AcDbVertex
100
AcDb2dVertex
 10
17.725878
 20
-34.709337
 30
0.0
  0
VERTEX
  5
B6
100
AcDbEntity
  8
レイヤー_2
 62
     7
100
AcDbVertex
100
AcDb2dVertex
 10
17.867815
 20
-34.424083
 30
0.0
  0
VERTEX
  5
B7
100
AcDbEntity
  8
レイヤー_2
 62
     7
100
AcDbVertex
100
AcDb2dVertex
 10
17.867815
 20
-34.282145
 30
0.0
  0
VERTEX
  5
B8
100
AcDbEntity
  8
レイヤー_2
 62
     7
100
AcDbVertex
100
AcDb2dVertex
 10
17.867815
 20
-34.138829
 30
0.0
  0
SEQEND
  5
B9
100
AcDbEntity
  8
レイヤー_2
 62
     7
  0
LINE
  5
B2
100
AcDbEntity
  8
レイヤー_2
 62
     7
100
AcDbLine
 10
-16.81086
 20
-25.5757
 30
0.0
 11
17.297308
 21
-34.709337
 31
0.0
  0
POLYLINE
  5
AA
100
AcDbEntity
  8
レイヤー_2
 62
     7
100
AcDb2dPolyline
 66
     1
 10
0.0
 20
0.0
 30
0.0
  0
VERTEX
  5
AB
100
AcDbEntity
  8
レイヤー_2
 62
     7
100
AcDbVertex
100
AcDb2dVertex
 10
-17.524684
 20
-24.577311
 30
0.0
  0
VERTEX
  5
AC
100
AcDbEntity
  8
レイヤー_2
 62
     7
100
AcDbVertex
100
AcDb2dVertex
 10
-17.382746
 20
-24.863254
 30
0.0
  0
VERTEX
  5
AD
100
AcDbEntity
  8
レイヤー_2
 62
     7
100
AcDbVertex
100
AcDb2dVertex
 10
-17.382746
 20
-25.148508
 30
0.0
  0
VERTEX
  5
AE
100
AcDbEntity
  8
レイヤー_2
 62
     7
100
AcDbVertex
100
AcDb2dVertex
 10
-17.23943
 20
-25.291135
 30
0.0
  0
VERTEX
  5
AF
100
AcDbEntity
  8
レイヤー_2
 62
     7
100
AcDbVertex
100
AcDb2dVertex
 10
-16.954176
 20
-25.433762
 30
0.0
  0
VERTEX
  5
B0
100
AcDbEntity
  8
レイヤー_2
 62
     7
100
AcDbVertex
100
AcDb2dVertex
 10
-16.81086
 20
-25.5757
 30
0.0
  0
SEQEND
  5
B1
100
AcDbEntity
  8
レイヤー_2
 62
     7
  0
POLYLINE
  5
9F
100
AcDbEntity
  8
レイヤー_2
 62
     7
100
AcDb2dPolyline
 66
     1
 10
0.0
 20
0.0
 30
0.0
  0
VERTEX
  5
A0
100
AcDbEntity
  8
レイヤー_2
 62
     7
100
AcDbVertex
100
AcDb2dVertex
 10
-17.524684
 20
-24.577311
 30
0.0
  0
VERTEX
  5
A1
100
AcDbEntity
  8
レイヤー_2
 62
     7
100
AcDbVertex
100
AcDb2dVertex
 10
-17.382746
 20
-22.436529
 30
0.0
  0
VERTEX
  5
A2
100
AcDbEntity
  8
レイヤー_2
 62
     7
100
AcDbVertex
100
AcDb2dVertex
 10
-17.382746
 20
-20.296436
 30
0.0
  0
VERTEX
  5
A3
100
AcDbEntity
  8
レイヤー_2
 62
     7
100
AcDbVertex
100
AcDb2dVertex
 10
-17.23943
 20
-18.155653
 30
0.0
  0
VERTEX
  5
A4
100
AcDbEntity
  8
レイヤー_2
 62
     7
100
AcDbVertex
100
AcDb2dVertex
 10
-16.383668
 20
-11.733306
 30
0.0
  0
VERTEX
  5
A5
100
AcDbEntity
  8
レイヤー_2
 62
     7
100
AcDbVertex
100
AcDb2dVertex
 10
-15.526529
 20
-7.452431
 30
0.0
  0
VERTEX
  5
A6
100
AcDbEntity
  8
レイヤー_2
 62
     7
100
AcDbVertex
100
AcDb2dVertex
 10
-14.385513
 20
-3.171555
 30
0.0
  0
VERTEX
  5
A7
100
AcDbEntity
  8
レイヤー_2
 62
     7
100
AcDbVertex
100
AcDb2dVertex
 10
-13.671689
 20
-1.1734
 30
0.0
  0
VERTEX
  5
A8
100
AcDbEntity
  8
レイヤー_2
 62
     7
100
AcDbVertex
100
AcDb2dVertex
 10
-12.957865
 20
0.967383
 30
0.0
  0
SEQEND
  5
A9
100
AcDbEntity
  8
レイヤー_2
 62
     7
  0
POLYLINE
  5
99
100
AcDbEntity
  8
レイヤー_2
 62
     7
100
AcDb2dPolyline
 66
     1
 10
0.0
 20
0.0
 30
0.0
  0
VERTEX
  5
9A
100
AcDbEntity
  8
レイヤー_2
 62
     7
100
AcDbVertex
100
AcDb2dVertex
 10
-12.102104
 20
1.53858
 30
0.0
  0
VERTEX
  5
9B
100
AcDbEntity
  8
レイヤー_2
 62
     7
100
AcDbVertex
100
AcDb2dVertex
 10
-12.529296
 20
1.53858
 30
0.0
  0
VERTEX
  5
9C
100
AcDbEntity
  8
レイヤー_2
 62
     7
100
AcDbVertex
100
AcDb2dVertex
 10
-12.672611
 20
1.252637
 30
0.0
  0
VERTEX
  5
9D
100
AcDbEntity
  8
レイヤー_2
 62
     7
100
AcDbVertex
100
AcDb2dVertex
 10
-12.957865
 20
0.967383
 30
0.0
  0
SEQEND
  5
9E
100
AcDbEntity
  8
レイヤー_2
 62
     7
  0
LINE
  5
98
100
AcDbEntity
  8
レイヤー_2
 62
     7
100
AcDbLine
 10
-12.102104
 20
1.53858
 30
0.0
 11
11.017588
 21
-4.598513
 31
0.0
  0
LINE
  5
97
100
AcDbEntity
  8
レイヤー_2
 62
     7
100
AcDbLine
 10
23.148458
 20
-7.737684
 30
0.0
 11
23.718966
 21
-8.023627
 31
0.0
  0
POLYLINE
  5
90
100
AcDbEntity
  8
レイヤー_2
 62
     7
100
AcDb2dPolyline
 66
     1
 10
0.0
 20
0.0
 30
0.0
  0
VERTEX
  5
91
100
AcDbEntity
  8
レイヤー_2
 62
     7
100
AcDbVertex
100
AcDb2dVertex
 10
18.296385
 20
-33.995513
 30
0.0
  0
VERTEX
  5
92
100
AcDbEntity
  8
レイヤー_2
 62
     7
100
AcDbVertex
100
AcDb2dVertex
 10
18.296385
 20
-34.282145
 30
0.0
  0
VERTEX
  5
93
100
AcDbEntity
  8
レイヤー_2
 62
     7
100
AcDbVertex
100
AcDb2dVertex
 10
18.153069
 20
-34.424083
 30
0.0
  0
VERTEX
  5
94
100
AcDbEntity
  8
レイヤー_2
 62
     7
100
AcDbVertex
100
AcDb2dVertex
 10
18.011131
 20
-34.56671
 30
0.0
  0
VERTEX
  5
95
100
AcDbEntity
  8
レイヤー_2
 62
     7
100
AcDbVertex
100
AcDb2dVertex
 10
17.867815
 20
-34.56671
 30
0.0
  0
SEQEND
  5
96
100
AcDbEntity
  8
レイヤー_2
 62
     7
  0
LINE
  5
8F
100
AcDbEntity
  8
レイヤー_2
 62
     7
100
AcDbLine
 10
14.87196
 20
8.958626
 30
0.0
 11
11.589473
 21
8.102865
 31
0.0
  0
LINE
  5
8E
100
AcDbEntity
  8
レイヤー_2
 62
     7
100
AcDbLine
 10
13.587629
 20
2.679595
 30
0.0
 11
8.021733
 21
1.11001
 31
0.0
  0
LINE
  5
8D
100
AcDbEntity
  8
レイヤー_2
 62
     7
100
AcDbLine
 10
14.585329
 20
-0.602203
 30
0.0
 11
9.306064
 21
0.68144
 31
0.0
  0
LINE
  5
8C
100
AcDbEntity
  8
レイヤー_2
 62
     7
100
AcDbLine
 10
8.021733
 20
1.11001
 30
0.0
 11
2.74109
 21
2.536968
 31
0.0
  0
POLYLINE
  5
7F
100
AcDbEntity
  8
レイヤー_2
 62
     7
100
AcDb2dPolyline
 66
     1
 10
0.0
 20
0.0
 30
0.0
  0
VERTEX
  5
80
100
AcDbEntity
  8
レイヤー_2
 62
     7
100
AcDbVertex
100
AcDb2dVertex
 10
12.445235
 20
2.394341
 30
0.0
  0
VERTEX
  5
81
100
AcDbEntity
  8
レイヤー_2
 62
     7
100
AcDbVertex
100
AcDb2dVertex
 10
12.588551
 20
2.536968
 30
0.0
  0
VERTEX
  5
82
100
AcDbEntity
  8
レイヤー_2
 62
     7
100
AcDbVertex
100
AcDb2dVertex
 10
12.873805
 20
2.679595
 30
0.0
  0
VERTEX
  5
83
100
AcDbEntity
  8
レイヤー_2
 62
     7
100
AcDbVertex
100
AcDb2dVertex
 10
13.587629
 20
2.679595
 30
0.0
  0
VERTEX
  5
84
100
AcDbEntity
  8
レイヤー_2
 62
     7
100
AcDbVertex
100
AcDb2dVertex
 10
14.014821
 20
2.536968
 30
0.0
  0
VERTEX
  5
85
100
AcDbEntity
  8
レイヤー_2
 62
     7
100
AcDbVertex
100
AcDb2dVertex
 10
14.300075
 20
2.394341
 30
0.0
  0
VERTEX
  5
86
100
AcDbEntity
  8
レイヤー_2
 62
     7
100
AcDbVertex
100
AcDb2dVertex
 10
15.157214
 20
1.53858
 30
0.0
  0
VERTEX
  5
87
100
AcDbEntity
  8
レイヤー_2
 62
     7
100
AcDbVertex
100
AcDb2dVertex
 10
15.442468
 20
1.11001
 30
0.0
  0
VERTEX
  5
88
100
AcDbEntity
  8
レイヤー_2
 62
     7
100
AcDbVertex
100
AcDb2dVertex
 10
15.584406
 20
0.68144
 30
0.0
  0
VERTEX
  5
89
100
AcDbEntity
  8
レイヤー_2
 62
     7
100
AcDbVertex
100
AcDb2dVertex
 10
15.727722
 20
0.110932
 30
0.0
  0
VERTEX
  5
8A
100
AcDbEntity
  8
レイヤー_2
 62
     7
100
AcDbVertex
100
AcDb2dVertex
 10
15.727722
 20
-1.030773
 30
0.0
  0
SEQEND
  5
8B
100
AcDbEntity
  8
レイヤー_2
 62
     7
  0
LINE
  5
7E
100
AcDbEntity
  8
レイヤー_2
 62
     7
100
AcDbLine
 10
8.021733
 20
1.11001
 30
0.0
 11
8.021733
 21
0.967383
 31
0.0
  0
POLYLINE
  5
78
100
AcDbEntity
  8
レイヤー_2
 62
     7
100
AcDb2dPolyline
 66
     1
 10
0.0
 20
0.0
 30
0.0
  0
VERTEX
  5
79
100
AcDbEntity
  8
レイヤー_2
 62
     7
100
AcDbVertex
100
AcDb2dVertex
 10
8.021733
 20
0.967383
 30
0.0
  0
VERTEX
  5
7A
100
AcDbEntity
  8
レイヤー_2
 62
     7
100
AcDbVertex
100
AcDb2dVertex
 10
8.59224
 20
0.967383
 30
0.0
  0
VERTEX
  5
7B
100
AcDbEntity
  8
レイヤー_2
 62
     7
100
AcDbVertex
100
AcDb2dVertex
 10
9.02081
 20
0.824756
 30
0.0
  0
VERTEX
  5
7C
100
AcDbEntity
  8
レイヤー_2
 62
     7
100
AcDbVertex
100
AcDb2dVertex
 10
9.306064
 20
0.68144
 30
0.0
  0
SEQEND
  5
7D
100
AcDbEntity
  8
レイヤー_2
 62
     7
  0
POLYLINE
  5
70
100
AcDbEntity
  8
レイヤー_2
 62
     7
100
AcDb2dPolyline
 66
     1
 10
0.0
 20
0.0
 30
0.0
  0
VERTEX
  5
71
100
AcDbEntity
  8
レイヤー_2
 62
     7
100
AcDbVertex
100
AcDb2dVertex
 10
2.74109
 20
2.536968
 30
0.0
  0
VERTEX
  5
72
100
AcDbEntity
  8
レイヤー_2
 62
     7
100
AcDbVertex
100
AcDb2dVertex
 10
1.742013
 20
2.394341
 30
0.0
  0
VERTEX
  5
73
100
AcDbEntity
  8
レイヤー_2
 62
     7
100
AcDbVertex
100
AcDb2dVertex
 10
0.886251
 20
1.681207
 30
0.0
  0
VERTEX
  5
74
100
AcDbEntity
  8
レイヤー_2
 62
     7
100
AcDbVertex
100
AcDb2dVertex
 10
0.314365
 20
0.396186
 30
0.0
  0
VERTEX
  5
75
100
AcDbEntity
  8
レイヤー_2
 62
     7
100
AcDbVertex
100
AcDb2dVertex
 10
0.172427
 20
-1.030773
 30
0.0
  0
VERTEX
  5
76
100
AcDbEntity
  8
レイヤー_2
 62
     7
100
AcDbVertex
100
AcDb2dVertex
 10
0.314365
 20
-1.743907
 30
0.0
  0
SEQEND
  5
77
100
AcDbEntity
  8
レイヤー_2
 62
     7
  0
POLYLINE
  5
65
100
AcDbEntity
  8
レイヤー_2
 62
     7
100
AcDb2dPolyline
 66
     1
 10
0.0
 20
0.0
 30
0.0
  0
VERTEX
  5
66
100
AcDbEntity
  8
レイヤー_2
 62
     7
100
AcDbVertex
100
AcDb2dVertex
 10
19.724033
 20
-2.029161
 30
0.0
  0
VERTEX
  5
67
100
AcDbEntity
  8
レイヤー_2
 62
     7
100
AcDbVertex
100
AcDb2dVertex
 10
19.724033
 20
-0.74483
 30
0.0
  0
VERTEX
  5
68
100
AcDbEntity
  8
レイヤー_2
 62
     7
100
AcDbVertex
100
AcDb2dVertex
 10
19.295463
 20
1.395264
 30
0.0
  0
VERTEX
  5
69
100
AcDbEntity
  8
レイヤー_2
 62
     7
100
AcDbVertex
100
AcDb2dVertex
 10
18.581639
 20
3.393419
 30
0.0
  0
VERTEX
  5
6A
100
AcDbEntity
  8
レイヤー_2
 62
     7
100
AcDbVertex
100
AcDb2dVertex
 10
17.440624
 20
5.248947
 30
0.0
  0
VERTEX
  5
6B
100
AcDbEntity
  8
レイヤー_2
 62
     7
100
AcDbVertex
100
AcDb2dVertex
 10
16.156292
 20
6.675906
 30
0.0
  0
VERTEX
  5
6C
100
AcDbEntity
  8
レイヤー_2
 62
     7
100
AcDbVertex
100
AcDb2dVertex
 10
14.585329
 20
7.674984
 30
0.0
  0
VERTEX
  5
6D
100
AcDbEntity
  8
レイヤー_2
 62
     7
100
AcDbVertex
100
AcDb2dVertex
 10
13.159059
 20
8.102865
 30
0.0
  0
VERTEX
  5
6E
100
AcDbEntity
  8
レイヤー_2
 62
     7
100
AcDbVertex
100
AcDb2dVertex
 10
11.589473
 20
8.102865
 30
0.0
  0
SEQEND
  5
6F
100
AcDbEntity
  8
レイヤー_2
 62
     7
  0
POLYLINE
  5
5D
100
AcDbEntity
  8
レイヤー_2
 62
     7
100
AcDb2dPolyline
 66
     1
 10
0.0
 20
0.0
 30
0.0
  0
VERTEX
  5
5E
100
AcDbEntity
  8
レイヤー_2
 62
     7
100
AcDbVertex
100
AcDb2dVertex
 10
11.589473
 20
8.102865
 30
0.0
  0
VERTEX
  5
5F
100
AcDbEntity
  8
レイヤー_2
 62
     7
100
AcDbVertex
100
AcDb2dVertex
 10
10.161826
 20
7.389041
 30
0.0
  0
VERTEX
  5
60
100
AcDbEntity
  8
レイヤー_2
 62
     7
100
AcDbVertex
100
AcDb2dVertex
 10
9.162748
 20
6.247336
 30
0.0
  0
VERTEX
  5
61
100
AcDbEntity
  8
レイヤー_2
 62
     7
100
AcDbVertex
100
AcDb2dVertex
 10
8.306986
 20
4.535124
 30
0.0
  0
VERTEX
  5
62
100
AcDbEntity
  8
レイヤー_2
 62
     7
100
AcDbVertex
100
AcDb2dVertex
 10
7.878417
 20
2.679595
 30
0.0
  0
VERTEX
  5
63
100
AcDbEntity
  8
レイヤー_2
 62
     7
100
AcDbVertex
100
AcDb2dVertex
 10
7.736479
 20
1.11001
 30
0.0
  0
SEQEND
  5
64
100
AcDbEntity
  8
レイヤー_2
 62
     7
  0
POLYLINE
  5
51
100
AcDbEntity
  8
レイヤー_2
 62
     7
100
AcDb2dPolyline
 66
     1
 10
0.0
 20
0.0
 30
0.0
  0
VERTEX
  5
52
100
AcDbEntity
  8
レイヤー_2
 62
     7
100
AcDbVertex
100
AcDb2dVertex
 10
22.57795
 20
-2.742985
 30
0.0
  0
VERTEX
  5
53
100
AcDbEntity
  8
レイヤー_2
 62
     7
100
AcDbVertex
100
AcDb2dVertex
 10
22.719888
 20
-2.029161
 30
0.0
  0
VERTEX
  5
54
100
AcDbEntity
  8
レイヤー_2
 62
     7
100
AcDbVertex
100
AcDb2dVertex
 10
22.719888
 20
-0.031006
 30
0.0
  0
VERTEX
  5
55
100
AcDbEntity
  8
レイヤー_2
 62
     7
100
AcDbVertex
100
AcDb2dVertex
 10
22.434634
 20
2.252403
 30
0.0
  0
VERTEX
  5
56
100
AcDbEntity
  8
レイヤー_2
 62
     7
100
AcDbVertex
100
AcDb2dVertex
 10
21.72081
 20
4.249181
 30
0.0
  0
VERTEX
  5
57
100
AcDbEntity
  8
レイヤー_2
 62
     7
100
AcDbVertex
100
AcDb2dVertex
 10
20.579795
 20
6.104709
 30
0.0
  0
VERTEX
  5
58
100
AcDbEntity
  8
レイヤー_2
 62
     7
100
AcDbVertex
100
AcDb2dVertex
 10
19.295463
 20
7.531668
 30
0.0
  0
VERTEX
  5
59
100
AcDbEntity
  8
レイヤー_2
 62
     7
100
AcDbVertex
100
AcDb2dVertex
 10
17.725878
 20
8.530745
 30
0.0
  0
VERTEX
  5
5A
100
AcDbEntity
  8
レイヤー_2
 62
     7
100
AcDbVertex
100
AcDb2dVertex
 10
16.156292
 20
8.958626
 30
0.0
  0
VERTEX
  5
5B
100
AcDbEntity
  8
レイヤー_2
 62
     7
100
AcDbVertex
100
AcDb2dVertex
 10
14.728644
 20
8.815999
 30
0.0
  0
SEQEND
  5
5C
100
AcDbEntity
  8
レイヤー_2
 62
     7
  0
LINE
  5
50
100
AcDbEntity
  8
レイヤー_2
 62
     7
100
AcDbLine
 10
14.585329
 20
-0.602203
 30
0.0
 11
14.728644
 21
-0.74483
 31
0.0
  0
LINE
  5
4F
100
AcDbEntity
  8
レイヤー_2
 62
     7
100
AcDbLine
 10
14.728644
 20
-0.74483
 30
0.0
 11
25.575183
 21
-3.742063
 31
0.0
  0
POLYLINE
  5
47
100
AcDbEntity
  8
レイヤー_2
 62
     7
100
AcDb2dPolyline
 66
     1
 10
0.0
 20
0.0
 30
0.0
  0
VERTEX
  5
48
100
AcDbEntity
  8
レイヤー_2
 62
     7
100
AcDbVertex
100
AcDb2dVertex
 10
14.728644
 20
-0.74483
 30
0.0
  0
VERTEX
  5
49
100
AcDbEntity
  8
レイヤー_2
 62
     7
100
AcDbVertex
100
AcDb2dVertex
 10
14.158137
 20
-0.74483
 30
0.0
  0
VERTEX
  5
4A
100
AcDbEntity
  8
レイヤー_2
 62
     7
100
AcDbVertex
100
AcDb2dVertex
 10
13.587629
 20
-1.030773
 30
0.0
  0
VERTEX
  5
4B
100
AcDbEntity
  8
レイヤー_2
 62
     7
100
AcDbVertex
100
AcDb2dVertex
 10
13.159059
 20
-1.315337
 30
0.0
  0
VERTEX
  5
4C
100
AcDbEntity
  8
レイヤー_2
 62
     7
100
AcDbVertex
100
AcDb2dVertex
 10
12.873805
 20
-1.743907
 30
0.0
  0
VERTEX
  5
4D
100
AcDbEntity
  8
レイヤー_2
 62
     7
100
AcDbVertex
100
AcDb2dVertex
 10
12.588551
 20
-2.315104
 30
0.0
  0
SEQEND
  5
4E
100
AcDbEntity
  8
レイヤー_2
 62
     7
  0
LINE
  5
46
100
AcDbEntity
  8
レイヤー_2
 62
     7
100
AcDbLine
 10
20.723111
 20
7.816922
 30
0.0
 11
57.389262
 21
-1.86862
 31
0.0
  0
LINE
  5
45
100
AcDbEntity
  8
レイヤー_2
 62
     7
100
AcDbLine
 10
32.138779
 20
-9.73584
 30
0.0
 11
48.693152
 21
-14.160031
 31
0.0
  0
LINE
  5
44
100
AcDbEntity
  8
レイヤー_2
 62
     7
100
AcDbLine
 10
48.407898
 20
-1.601969
 30
0.0
 11
47.123566
 21
0.68144
 31
0.0
  0
LINE
  5
43
100
AcDbEntity
  8
レイヤー_2
 62
     7
100
AcDbLine
 10
47.123566
 20
0.68144
 30
0.0
 11
45.695919
 21
3.108165
 31
0.0
  0
LINE
  5
42
100
AcDbEntity
  8
レイヤー_2
 62
     7
100
AcDbLine
 10
48.407898
 20
-16.157498
 30
0.0
 11
47.123566
 21
-13.731462
 31
0.0
  0
LINE
  5
41
100
AcDbEntity
  8
レイヤー_2
 62
     7
100
AcDbLine
 10
47.123566
 20
-13.731462
 30
0.0
 11
45.695919
 21
-11.305425
 31
0.0
  0
LINE
  5
40
100
AcDbEntity
  8
レイヤー_2
 62
     7
100
AcDbLine
 10
47.123566
 20
15.389931
 30
0.0
 11
47.123566
 21
-15.015793
 31
0.0
  0
LINE
  5
3F
100
AcDbEntity
  8
レイヤー_2
 62
     7
100
AcDbLine
 10
16.868738
 20
47.347325
 30
0.0
 11
16.868738
 21
9.958393
 31
0.0
  0
LINE
  5
3E
100
AcDbEntity
  8
レイヤー_2
 62
     7
100
AcDbLine
 10
2.028644
 20
39.784652
 30
0.0
 11
5.167815
 21
43.636957
 31
0.0
  0
LINE
  5
3D
100
AcDbEntity
  8
レイヤー_2
 62
     7
100
AcDbLine
 10
15.442468
 20
43.352393
 30
0.0
 11
18.581639
 21
47.775895
 31
0.0
  0
LINE
  5
3C
100
AcDbEntity
  8
レイヤー_2
 62
     7
100
AcDbLine
 10
18.724955
 20
45.920367
 30
0.0
 11
1.600075
 21
41.210921
 31
0.0
  0
LINE
  5
3B
100
AcDbEntity
  8
レイヤー_2
 62
     7
100
AcDbLine
 10
-9.190309
 20
-47.284625
 30
0.0
 11
-14.184319
 21
-47.284625
 31
0.0
  0
LINE
  5
3A
100
AcDbEntity
  8
レイヤー_2
 62
     7
100
AcDbLine
 10
57.245946
 20
-48.105935
 30
0.0
 11
55.818298
 21
-45.679899
 31
0.0
  0
LINE
  5
39
100
AcDbEntity
  8
レイヤー_2
 62
     7
100
AcDbLine
 10
55.818298
 20
-45.679899
 30
0.0
 11
54.533967
 21
-43.39649
 31
0.0
  0
LINE
  5
38
100
AcDbEntity
  8
レイヤー_2
 62
     7
100
AcDbLine
 10
57.245946
 20
-3.866775
 30
0.0
 11
55.818298
 21
-1.583366
 31
0.0
  0
LINE
  5
37
100
AcDbEntity
  8
レイヤー_2
 62
     7
100
AcDbLine
 10
55.818298
 20
-1.583366
 30
0.0
 11
54.533967
 21
0.84267
 31
0.0
  0
LINE
  5
36
100
AcDbEntity
  8
レイヤー_2
 62
     7
100
AcDbLine
 10
55.818298
 20
0.700043
 30
0.0
 11
55.818298
 21
-48.962386
 31
0.0
  0
LINE
  5
35
100
AcDbEntity
  8
レイヤー_2
 62
     7
100
AcDbLine
 10
20.865049
 20
-38.420394
 30
0.0
 11
-14.042381
 21
-47.855132
 31
0.0
  0
LINE
  5
34
100
AcDbEntity
  8
レイヤー_2
 62
     7
100
AcDbLine
 10
-57.42578
 20
-35.011816
 30
0.0
 11
-9.332247
 21
-47.855132
 31
0.0
  0
LINE
  5
33
100
AcDbEntity
  8
レイヤー_2
 62
     7
100
AcDbLine
 10
3.596852
 20
2.822911
 30
0.0
 11
3.596852
 21
43.494331
 31
0.0
  0
LINE
  5
32
100
AcDbEntity
  8
レイヤー_2
 62
     7
100
AcDbLine
 10
-23.51915
 20
-27.003347
 30
0.0
 11
-57.567718
 21
-36.296148
 31
0.0
  0
LINE
  5
31
100
AcDbEntity
  8
レイヤー_2
 62
     7
100
AcDbLine
 10
27.715276
 20
-38.420394
 30
0.0
 11
57.816454
 21
-46.393034
 31
0.0
  0
LINE
  5
30
100
AcDbEntity
  8
レイヤー_2
 62
     7
100
AcDbLine
 10
-52.715645
 20
-35.583013
 30
0.0
 11
-57.852972
 21
-35.583013
 31
0.0
  0
MTEXT
  5
2F
100
AcDbEntity
  8
レイヤー_2
 62
     7
100
AcDbMText
 10
-30.229507
 20
-37.595924
 30
0.0
 40
3.54954
 41
0.0
 71
     1
 72
     2
  1
\fGothicBBB Medium|b0|i0|c128;\H3.5495;\W1.04;\C7;\U+0031\U+0035\U+0030
  7
STD
210
0.0
220
0.0
230
1.0
 73
     1
 44
1.0
  0
MTEXT
  5
2E
100
AcDbEntity
  8
レイヤー_2
 62
     7
100
AcDbMText
 10
6.811126
 20
48.277126
 30
0.0
 40
3.559098
 41
0.0
 71
     1
 72
     2
  1
\fGothicBBB Medium|b0|i0|c128;\H3.5591;\W1.03;\C7;\U+0034\U+0030
  7
STD
210
0.0
220
0.0
230
1.0
 73
     1
 44
1.0
  0
MTEXT
  5
2D
100
AcDbEntity
  8
レイヤー_2
 62
     7
100
AcDbMText
 10
41.683451
 20
4.838981
 30
0.0
 40
3.804384
 41
0.0
 71
     1
 72
     2
  1
\fGothicBBB Medium|b0|i0|c128;\H3.8044;\W0.97;\C7;\U+03C6\U+0034\U+0030
  7
STD
210
0.0
220
0.0
230
1.0
 11
0.0
 21
1.0
 31
0.0
 73
     1
 44
1.0
  0
MTEXT
  5
2C
100
AcDbEntity
  8
レイヤー_2
 62
     7
100
AcDbMText
 10
50.974874
 20
-25.941569
 30
0.0
 40
3.804384
 41
0.0
 71
     1
 72
     2
  1
\fGothicBBB Medium|b0|i0|c128;\H3.8044;\W0.97;\C7;\U+0039\U+0035
  7
STD
210
0.0
220
0.0
230
1.0
 11
0.0
 21
1.0
 31
0.0
 73
     1
 44
1.0
  0
ENDBLK
  5
176
100
AcDbEntity
  8
レイヤー_2
100
AcDbBlockEnd
  0
ENDSEC
  0
SECTION
  2
ENTITIES
  0
MTEXT
  5
191
100
AcDbEntity
  8
レイヤー_1
 62
     7
100
AcDbMText
 10
47.801389
 20
54.121991
 30
0.0
 40
3.674768
 41
0.0
 71
     1
 72
     2
  1
\fOsaka|b0|i0|c128;\H3.6748;\C7;\U+0038\U+0033\U+002E\U+0035\U+0031\U+0030\U+002E\U+0039\U+0037\U+0039\U+002E\U+0058\U+0058
  7
STD
210
0.0
220
0.0
230
1.0
 73
     1
 44
1.0
  0
MTEXT
  5
190
100
AcDbEntity
  8
レイヤー_1
 62
     7
100
AcDbMText
 10
39.6875
 20
56.608234
 30
0.0
 40
1.574901
 41
0.0
 71
     1
 72
     2
  1
\fOsaka|b0|i0|c128;\H1.5749;\C7;\U+54C1\U+756A
  7
STD
210
0.0
220
0.0
230
1.0
 73
     1
 44
1.0
  0
MTEXT
  5
18F
100
AcDbEntity
  8
レイヤー_1
 62
     7
100
AcDbMText
 10
47.801389
 20
32.959209
 30
0.0
 40
3.149486
 41
0.0
 71
     1
 72
     2
  1
\fOsaka|b0|i0|c128;\H3.1495;\C7;\U+30DA\U+30FC\U+30D1\U+30FC\U+30DB\U+30EB\U+30C0\U+30FC
  7
STD
210
0.0
220
0.0
230
1.0
 73
     1
 44
1.0
  0
MTEXT
  5
18E
100
AcDbEntity
  8
レイヤー_1
 62
     7
100
AcDbMText
 10
39.6875
 20
35.441567
 30
0.0
 40
1.574901
 41
0.0
 71
     1
 72
     2
  1
\fOsaka|b0|i0|c128;\H1.5749;\C7;\U+54C1
  7
STD
210
0.0
220
0.0
230
1.0
 73
     1
 44
1.0
  0
MTEXT
  5
18D
100
AcDbEntity
  8
レイヤー_1
 62
     7
100
AcDbMText
 10
47.801389
 20
42.954809
 30
0.0
 40
3.149486
 41
0.0
 71
     1
 72
     2
  1
\fOsaka|b0|i0|c128;\H3.1495;\C7;\U+004D\U+0045\U+0054\U+0041\U+002E\U+0030\U+0032
  7
STD
210
0.0
220
0.0
230
1.0
 73
     1
 44
1.0
  0
POLYLINE
  5
187
100
AcDbEntity
  8
レイヤー_1
 62
     7
100
AcDb2dPolyline
 66
     1
 10
0.0
 20
0.0
 30
0.0
 70
     1
  0
VERTEX
  5
188
100
AcDbEntity
  8
レイヤー_1
 62
     7
100
AcDbVertex
100
AcDb2dVertex
 10
23.636111
 20
26.105556
 30
0.0
  0
VERTEX
  5
189
100
AcDbEntity
  8
レイヤー_1
 62
     7
100
AcDbVertex
100
AcDb2dVertex
 10
198.613889
 20
26.105556
 30
0.0
  0
VERTEX
  5
18A
100
AcDbEntity
  8
レイヤー_1
 62
     7
100
AcDbVertex
100
AcDb2dVertex
 10
198.613889
 20
276.577778
 30
0.0
  0
VERTEX
  5
18B
100
AcDbEntity
  8
レイヤー_1
 62
     7
100
AcDbVertex
100
AcDb2dVertex
 10
23.636111
 20
276.577778
 30
0.0
  0
SEQEND
  5
18C
100
AcDbEntity
  8
レイヤー_1
 62
     7
  0
LINE
  5
186
100
AcDbEntity
  8
レイヤー_1
 62
     7
100
AcDbLine
 10
170.568056
 20
36.5125
 30
0.0
 11
27.693056
 21
36.5125
 31
0.0
  0
LINE
  5
185
100
AcDbEntity
  8
レイヤー_1
 62
     7
100
AcDbLine
 10
170.568056
 20
47.095833
 30
0.0
 11
27.693056
 21
47.095833
 31
0.0
  0
LINE
  5
184
100
AcDbEntity
  8
レイヤー_1
 62
     7
100
AcDbLine
 10
23.636111
 20
57.855556
 30
0.0
 11
198.261111
 21
57.855556
 31
0.0
  0
LINE
  5
183
100
AcDbEntity
  8
レイヤー_1
 62
     7
100
AcDbLine
 10
170.744444
 20
57.855556
 30
0.0
 11
170.744444
 21
26.458333
 31
0.0
  0
MTEXT
  5
182
100
AcDbEntity
  8
レイヤー_1
 62
     7
100
AcDbMText
 10
33.3375
 20
46.024901
 30
0.0
 40
1.574901
 41
0.0
 71
     1
 72
     2
  1
\fOsaka|b0|i0|c128;\H1.5749;\C7;\U+30B7\U+30EA\U+30FC\U+30BA
  7
STD
210
0.0
220
0.0
230
1.0
 73
     1
 44
1.0
  0
MTEXT
  5
181
100
AcDbEntity
  8
レイヤー_1
 62
     7
100
AcDbMText
 10
174.095833
 20
54.655042
 30
0.0
 40
3.149486
 41
0.0
 71
     1
 72
     2
  1
\fHeiseiKakuGothicCAN W9|b0|i0|c128;\H3.1495;\C253;\U+5BF8\U+6CD5\U+53C2\U+8003\U+56F3
  7
STD
210
0.0
220
0.0
230
1.0
 73
     1
 44
1.0
  0
LINE
  5
180
100
AcDbEntity
  8
レイヤー_1
 62
     7
100
AcDbLine
 10
27.516667
 20
57.855556
 30
0.0
 11
27.516667
 21
26.458333
 31
0.0
  0
IMAGE
  5
17D
100
AcDbEntity
  8
レイヤー_1
 62
     7
 92
        0
100
AcDbRasterImage
 90
        0
 10
172.155556
 20
28.574682
 30
0.0
 11
0.352531
 21
0.0
 31
0.0
 12
0.0
 22
0.352813
 32
0.0
 13
70.0
 23
9.0
340
17F
 70
     7
280
     0
281
    50
282
    50
283
     0
360
17E
 71
     1
 91
        2
 14
-0.5
 24
-0.5
 14
69.5
 24
8.5
  0
IMAGE
  5
17A
100
AcDbEntity
  8
レイヤー_1
 62
     7
 92
        0
100
AcDbRasterImage
 90
        0
 10
172.155556
 20
28.574682
 30
0.0
 11
0.352531
 21
0.0
 31
0.0
 12
0.0
 22
0.352813
 32
0.0
 13
70.0
 23
9.0
340
17C
 70
     7
280
     0
281
    50
282
    50
283
     0
360
17B
 71
     1
 91
        2
 14
-0.5
 24
-0.5
 14
69.5
 24
8.5
  0
MTEXT
  5
179
100
AcDbEntity
  8
レイヤー_1
 62
     7
100
AcDbMText
 10
113.418056
 20
46.024901
 30
0.0
 40
1.574901
 41
0.0
 71
     1
 72
     2
  1
\fOsaka|b0|i0|c128;\H1.5749;\C7;\U+4ED5\U+4E0A
  7
STD
210
0.0
220
0.0
230
1.0
 73
     1
 44
1.0
  0
MTEXT
  5
178
100
AcDbEntity
  8
レイヤー_1
 62
     7
100
AcDbMText
 10
124.765511
 20
40.968164
 30
0.0
 40
1.162842
 41
0.0
 71
     1
 72
     2
  1
\fOsaka|b0|i0|c128;\H1.1628;\W2.71;\C7;
  7
STD
210
0.0
220
0.0
230
1.0
 73
     1
 44
1.0
  0
INSERT
  5
2A
100
AcDbEntity
  8
レイヤー_2
 62
     7
100
AcDbBlockReference
  2
AI9-BLK1
 10
106.438809
 20
160.620342
 30
0.0
  0
ENDSEC
  0
SECTION
  2
OBJECTS
  0
DICTIONARY
  5
19
100
AcDbDictionary
280
     0
281
     1
  3
ACAD_GROUP
350
1A
  3
ACAD_MLINESTYLE
350
1B
  3
ACAD_LAYOUT
350
1E
  3
ACAD_PLOTSETTINGS
350
22
  3
ACAD_PLOTSTYLENAME
350
1F
  3
ACAD_WIPEOUT_VARS
350
23
  0
DICTIONARY
  5
1A
102
{ACAD_REACTORS
330
19
102
}
100
AcDbDictionary
280
     0
281
     1
  0
DICTIONARY
  5
1B
102
{ACAD_REACTORS
330
19
102
}
100
AcDbDictionary
280
     0
281
     1
  3
Standard
350
1C
  0
MLINESTYLE
  5
1C
102
{ACAD_REACTORS
330
1B
102
}
100
AcDbMlineStyle
  2
Standard
 70
     0
  3

 62
     0
 51
90.0
 52
90.0
 71
     2
 49
0.5
 62
   256
  6
ByLayer
 49
-0.5
 62
   256
  6
ByLayer
  0
ACDBDICTIONARYWDFLT
  5
1F
102
{ACAD_REACTORS
330
19
102
}
100
AcDbDictionary
281
     1
  3
Normal
350
1D
100
AcDbDictionaryWithDefault
340
1D
  0
ACDBPLACEHOLDER
  5
1D
102
{ACAD_REACTORS
330
1F
102
}
  0
LAYOUT
  5
20
102
{ACAD_REACTORS
330
1E
102
}
100
AcDbPlotSettings
  1

  2

  4

  6

 40
0.0
 41
0.0
 42
0.0
 43
0.0
 44
0.0
 45
0.0
 46
0.0
 47
0.0
 48
0.0
 49
0.0
140
0.0
141
0.0
142
1.0
143
1.0
 70
  1024
 72
     0
 73
     0
 74
     0
  7

 75
     0
147
1.0
148
0.0
149
0.0
100
AcDbLayout
  1
Model
 70
     0
 71
     0
 10
0.0
 20
0.0
 11
0.0
 21
0.0
 12
0.0
 22
0.0
 32
0.0
 14
0.0
 24
0.0
 34
0.0
 15
0.0
 25
0.0
 35
0.0
146
0.0
 13
0.0
 23
0.0
 33
0.0
 16
0.0
 26
0.0
 36
0.0
 17
0.0
 27
0.0
 37
0.0
 76
     0
330
A
331
0
345
0
346
0
  0
LAYOUT
  5
21
102
{ACAD_REACTORS
330
1E
102
}
100
AcDbPlotSettings
  1

  2

  4

  6

 40
0.0
 41
0.0
 42
0.0
 43
0.0
 44
0.0
 45
0.0
 46
0.0
 47
0.0
 48
0.0
 49
0.0
140
0.0
141
0.0
142
1.0
143
1.0
 70
     0
 72
     0
 73
     0
 74
     0
  7

 75
     0
147
1.0
148
0.0
149
0.0
100
AcDbLayout
  1
Layout1
 70
     0
 71
     0
 10
0.0
 20
0.0
 11
0.0
 21
0.0
 12
0.0
 22
0.0
 32
0.0
 14
0.0
 24
0.0
 34
0.0
 15
0.0
 25
0.0
 35
0.0
146
0.0
 13
0.0
 23
0.0
 33
0.0
 16
0.0
 26
0.0
 36
0.0
 17
0.0
 27
0.0
 37
0.0
 76
     0
330
B
331
0
345
0
346
0
  0
DICTIONARY
  5
1E
102
{ACAD_REACTORS
330
19
102
}
100
AcDbDictionary
280
     0
281
     1
  3
Layout1
350
21
  3
Model
350
20
  0
DICTIONARY
  5
22
102
{ACAD_REACTORS
330
19
102
}
100
AcDbDictionary
280
     0
281
     1
  0
WIPEOUTVARIABLES
  5
23
100
AcDbWipeoutVariables
 70
     1
  0
IMAGEDEF_REACTOR
  5
17B
100
AcDbRasterImageDefReactor
 90
        2
330
17A
  0
IMAGEDEF
  5
17C
100
AcDbRasterImageDef
 90
        0
  1
\\192.168.6.3\free(2009_04\一過性\DB_WEB用DXF_丸茂\Meta.02\83510979_1.bmp
 10
70.0
 20
9.0
 11
0.352778
 21
0.352778
280
     1
281
     0
  0
IMAGEDEF_REACTOR
  5
17E
100
AcDbRasterImageDefReactor
 90
        2
330
17D
  0
IMAGEDEF
  5
17F
100
AcDbRasterImageDef
 90
        0
  1
\\192.168.6.3\free(2009_04\一過性\DB_WEB用DXF_丸茂\Meta.02\83510979_2.bmp
 10
70.0
 20
9.0
 11
0.352778
 21
0.352778
280
     1
281
     0
  0
ENDSEC
  0
EOF
