  0
SECTION
  2
HEADER
  9
$ACADVER
  1
AC1015
  9
$ACADMAINTVER
 70
     6
  9
$DWGCODEPAGE
  3
ANSI_1252
  9
$INSBASE
 10
0.0
 20
0.0
 30
0.0
  9
$EXTMIN
 10
42.798576
 20
3.180404
 30
0.0
  9
$EXTMAX
 10
293.614227
 20
194.823502
 30
0.0
  9
$LIMMIN
 10
0.0
 20
0.0
  9
$LIMMAX
 10
0.0
 20
0.0
  9
$ORTHOMODE
 70
     0
  9
$REGENMODE
 70
     1
  9
$FILLMODE
 70
     1
  9
$QTEXTMODE
 70
     0
  9
$MIRRTEXT
 70
     1
  9
$LTSCALE
 40
1.0
  9
$ATTMODE
 70
     1
  9
$TEXTSIZE
 40
0.2
  9
$TRACEWID
 40
0.05
  9
$TEXTSTYLE
  7
Standard
  9
$CLAYER
  8
0
  9
$CELTYPE
  6
Continuous
  9
$CECOLOR
 62
   256
  9
$CELTSCALE
 40
1.0
  9
$DISPSILH
 70
     0
  9
$DIMSCALE
 40
1.0
  9
$DIMASZ
 40
0.18
  9
$DIMEXO
 40
0.0625
  9
$DIMDLI
 40
0.38
  9
$DIMRND
 40
0.0
  9
$DIMDLE
 40
0.0
  9
$DIMEXE
 40
0.18
  9
$DIMTP
 40
0.0
  9
$DIMTM
 40
0.0
  9
$DIMTXT
 40
0.18
  9
$DIMCEN
 40
0.09
  9
$DIMTSZ
 40
0.0
  9
$DIMTOL
 70
     0
  9
$DIMLIM
 70
     0
  9
$DIMTIH
 70
     1
  9
$DIMTOH
 70
     1
  9
$DIMSE1
 70
     0
  9
$DIMSE2
 70
     0
  9
$DIMTAD
 70
     0
  9
$DIMZIN
 70
     0
  9
$DIMBLK
  1

  9
$DIMASO
 70
     1
  9
$DIMSHO
 70
     1
  9
$DIMPOST
  1

  9
$DIMAPOST
  1

  9
$DIMALT
 70
     0
  9
$DIMALTD
 70
     2
  9
$DIMALTF
 40
25.4
  9
$DIMLFAC
 40
1.0
  9
$DIMTOFL
 70
     0
  9
$DIMTVP
 40
0.0
  9
$DIMTIX
 70
     0
  9
$DIMSOXD
 70
     0
  9
$DIMSAH
 70
     0
  9
$DIMBLK1
  1

  9
$DIMBLK2
  1

  9
$DIMSTYLE
  2
Standard
  9
$DIMCLRD
 70
     0
  9
$DIMCLRE
 70
     0
  9
$DIMCLRT
 70
     0
  9
$DIMTFAC
 40
1.0
  9
$DIMGAP
 40
0.09
  9
$DIMJUST
 70
     0
  9
$DIMSD1
 70
     0
  9
$DIMSD2
 70
     0
  9
$DIMTOLJ
 70
     1
  9
$DIMTZIN
 70
     0
  9
$DIMALTZ
 70
     0
  9
$DIMALTTZ
 70
     0
  9
$DIMUPT
 70
     0
  9
$DIMDEC
 70
     4
  9
$DIMTDEC
 70
     4
  9
$DIMALTU
 70
     2
  9
$DIMALTTD
 70
     2
  9
$DIMTXSTY
  7
Standard
  9
$DIMAUNIT
 70
     0
  9
$DIMADEC
 70
     0
  9
$DIMALTRND
 40
0.0
  9
$DIMAZIN
 70
     0
  9
$DIMDSEP
 70
     0
  9
$DIMATFIT
 70
     3
  9
$DIMFRAC
 70
     0
  9
$DIMLDRBLK
  1

  9
$DIMLUNIT
 70
     2
  9
$DIMLWD
 70
     0
  9
$DIMLWE
 70
     0
  9
$DIMTMOVE
 70
     0
  9
$LUNITS
 70
     2
  9
$LUPREC
 70
     4
  9
$SKETCHINC
 40
0.1
  9
$FILLETRAD
 40
0.0
  9
$AUNITS
 70
     0
  9
$AUPREC
 70
     0
  9
$MENU
  1
acad
  9
$ELEVATION
 40
0.0
  9
$PELEVATION
 40
0.0
  9
$THICKNESS
 40
0.0
  9
$LIMCHECK
 70
     0
  9
$CHAMFERA
 40
0.0
  9
$CHAMFERB
 40
0.0
  9
$CHAMFERC
 40
0.0
  9
$CHAMFERD
 40
0.0
  9
$SKPOLY
 70
     0
  9
$TDCREATE
 40
0.000000000
  9
$TDUCREATE
 40
0.000000000
  9
$TDUPDATE
 40
0.000000000
  9
$TDUUPDATE
 40
0.000000000
  9
$TDINDWG
 40
0.0000000000
  9
$TDUSRTIMER
 40
0.0000000000
  9
$USRTIMER
 70
     1
  9
$ANGBASE
 50
0.0
  9
$ANGDIR
 70
     0
  9
$PDMODE
 70
     0
  9
$PDSIZE
 40
0.0
  9
$PLINEWID
 40
0.0
  9
$SPLFRAME
 70
     0
  9
$SPLINETYPE
 70
     6
  9
$SPLINESEGS
 70
     8
  9
$HANDSEED
  5
390
  9
$SURFTAB1
 70
     6
  9
$SURFTAB2
 70
     6
  9
$SURFTYPE
 70
     6
  9
$SURFU
 70
     6
  9
$SURFV
 70
     6
  9
$UCSBASE
  2

  9
$UCSNAME
  2

  9
$UCSORG
 10
0.0
 20
0.0
 30
0.0
  9
$UCSXDIR
 10
1.0
 20
0.0
 30
0.0
  9
$UCSYDIR
 10
0.0
 20
1.0
 30
0.0
  9
$UCSORTHOREF
  2

  9
$UCSORTHOVIEW
 70
     0
  9
$UCSORGTOP
 10
0.0
 20
0.0
 30
0.0
  9
$UCSORGBOTTOM
 10
0.0
 20
0.0
 30
0.0
  9
$UCSORGLEFT
 10
0.0
 20
0.0
 30
0.0
  9
$UCSORGRIGHT
 10
0.0
 20
0.0
 30
0.0
  9
$UCSORGFRONT
 10
0.0
 20
0.0
 30
0.0
  9
$UCSORGBACK
 10
0.0
 20
0.0
 30
0.0
  9
$PUCSBASE
  2

  9
$PUCSNAME
  2

  9
$PUCSORG
 10
0.0
 20
0.0
 30
0.0
  9
$PUCSXDIR
 10
1.0
 20
0.0
 30
0.0
  9
$PUCSYDIR
 10
0.0
 20
1.0
 30
0.0
  9
$PUCSORTHOREF
  2

  9
$PUCSORTHOVIEW
 70
     0
  9
$PUCSORGTOP
 10
0.0
 20
0.0
 30
0.0
  9
$PUCSORGBOTTOM
 10
0.0
 20
0.0
 30
0.0
  9
$PUCSORGLEFT
 10
0.0
 20
0.0
 30
0.0
  9
$PUCSORGRIGHT
 10
0.0
 20
0.0
 30
0.0
  9
$PUCSORGFRONT
 10
0.0
 20
0.0
 30
0.0
  9
$PUCSORGBACK
 10
0.0
 20
0.0
 30
0.0
  9
$USERI1
 70
     0
  9
$USERI2
 70
     0
  9
$USERI3
 70
     0
  9
$USERI4
 70
     0
  9
$USERI5
 70
     0
  9
$USERR1
 40
0.0
  9
$USERR2
 40
0.0
  9
$USERR3
 40
0.0
  9
$USERR4
 40
0.0
  9
$USERR5
 40
0.0
  9
$WORLDVIEW
 70
     1
  9
$SHADEDGE
 70
     3
  9
$SHADEDIF
 70
    70
  9
$TILEMODE
 70
     1
  9
$MAXACTVP
 70
    16
  9
$PINSBASE
 10
0.0
 20
0.0
 30
0.0
  9
$PLIMCHECK
 70
     0
  9
$PEXTMIN
 10
1.000000E+20
 20
1.000000E+20
 30
1.000000E+20
  9
$PEXTMAX
 10
-1.000000E+20
 20
-1.000000E+20
 30
-1.000000E+20
  9
$PLIMMIN
 10
0.0
 20
0.0
  9
$PLIMMAX
 10
12.0
 20
9.0
  9
$UNITMODE
 70
     0
  9
$VISRETAIN
 70
     0
  9
$PLINEGEN
 70
     1
  9
$PSLTSCALE
 70
     0
  9
$TREEDEPTH
 70
  3020
  9
$CMLSTYLE
  2
Standard
  9
$CMLJUST
 70
     0
  9
$CMLSCALE
 40
1.0
  9
$PROXYGRAPHICS
 70
     0
  9
$MEASUREMENT
 70
     0
  9
$CELWEIGHT
370
     0
  9
$ENDCAPS
280
     0
  9
$JOINSTYLE
280
     0
  9
$LWDISPLAY
290
     0
  9
$INSUNITS
 70
     0
  9
$HYPERLINKBASE
  1

  9
$STYLESHEET
  1

  9
$XEDIT
290
     1
  9
$CEPSNTYPE
380
     0
  9
$PSTYLEMODE
290
     1
  9
$FINGERPRINTGUID
  2

  9
$VERSIONGUID
  2

  9
$EXTNAMES
290
     1
  9
$PSVPSCALE
 40
0.0
  0
ENDSEC
  0
SECTION
  2
CLASSES
  0
CLASS
  1
LWPOLYLINE
  2
AcDbPolyline
  3
AutoCAD 2000
 90
        0
280
     0
281
     1
  0
CLASS
  1
IMAGE
  2
AcDbRasterImage
  3
ISM
 90
      127
280
     0
281
     1
  0
CLASS
  1
OLE2FRAME
  2
AcDbOle2Frame
  3
AutoCAD 2000
 90
        0
280
     0
281
     1
  0
CLASS
  1
HATCH
  2
AcDbHatch
  3
AutoCAD 2000
 90
        0
280
     0
281
     1
  0
CLASS
  1
DICTIONARYVAR
  2
AcDbDictionaryVar
  3
AutoCAD 2000
 90
        0
280
     0
281
     0
  0
CLASS
  1
RASTERVARIABLES
  2
AcDbRasterVariables
  3
ISM
 90
        0
280
     0
281
     0
  0
CLASS
  1
IMAGEDEF
  2
AcDbRasterImageDef
  3
ISM
 90
        0
280
     0
281
     0
  0
CLASS
  1
IMAGEDEF_REACTOR
  2
AcDbRasterImageDefReactor
  3
ISM
 90
        1
280
     0
281
     0
  0
CLASS
  1
IDBUFFER
  2
AcDbIdBuffer
  3
AutoCAD 2000
 90
        0
280
     0
281
     0
  0
CLASS
  1
SPATIAL_FILTER
  2
AcDbSpatialFilter
  3
AutoCAD 2000
 90
        0
280
     0
281
     0
  0
CLASS
  1
XRECORD
  2
AcDbXrecord
  3
AutoCAD 2000
 90
        0
280
     0
281
     0
  0
CLASS
  1
SORTENTSTABLE
  2
AcDbSortentsTable
  3
AutoCAD 2000
 90
        0
280
     0
281
     0
  0
CLASS
  1
LAYER_INDEX
  2
AcDbLayerIndex
  3
AutoCAD 2000
 90
        0
280
     0
281
     0
  0
CLASS
  1
SPATIAL_INDEX
  2
AcDbSpatialIndex
  3
AutoCAD 2000
 90
        0
280
     0
281
     0
  0
CLASS
  1
OBJECT_PTR
  2
CAseDLPNTableRecord
  3
"ASE-LPNTableRecord"
 90
        1
280
     0
281
     0
  0
CLASS
  1
LAYOUT
  2
AcDbLayout
  3
AutoCAD 2000
 90
        0
280
     0
281
     0
  0
CLASS
  1
PLOTSETTINGS
  2
AcDbPlotSettings
  3
AutoCAD 2000
 90
        0
280
     0
281
     0
  0
CLASS
  1
ACDBDICTIONARYWDFLT
  2
AcDbDictionaryWithDefault
  3
AutoCAD 2000
 90
        0
280
     0
281
     0
  0
CLASS
  1
ACDBPLACEHOLDER
  2
AcDbPlaceHolder
  3
AutoCAD 2000
 90
        0
280
     0
281
     0
  0
CLASS
  1
VBA_PROJECT
  2
AcDbVbaProject
  3
acadvba
 90
        0
280
     0
281
     0
  0
CLASS
  1
WIPEOUT
  2
AcDbWipeout
  3
WipeOut|AutoCAD Express Tool|expresstools@autodesk.com
 90
      127
280
     0
281
     1
  0
CLASS
  1
WIPEOUTVARIABLES
  2
AcDbWipeoutVariables
  3
WipeOut|AutoCAD Express Tool|expresstools@autodesk.com
 90
        0
280
     0
281
     0
  0
CLASS
  1
RTEXT
  2
RText
  3
RText|AutoCAD Express Tool|expresstools@autodesk.com
 90
        0
280
     0
281
     1
  0
CLASS
  1
ARCALIGNEDTEXT
  2
AcDbArcAlignedText
  3
ATEXT|AutoCAD Express Tool|expresstools@autodesk.com
 90
        0
280
     0
281
     1
  0
ENDSEC
  0
SECTION
  2
TABLES
  0
TABLE
  2
VPORT
  5
7
100
AcDbSymbolTable
 70
     1
  0
VPORT
  5
15
100
AcDbSymbolTableRecord
100
AcDbViewportTableRecord
  2
*ACTIVE
 70
     0
 10
0.0
 20
0.0
 11
1.0
 21
1.0
 12
6.591288
 22
4.579184
 13
0.0
 23
0.0
 14
1.0
 24
1.0
 15
0.0
 25
0.0
 16
0.0
 26
0.0
 36
1.0
 17
0.0
 27
0.0
 37
0.0
 40
9.158369
 41
0.688564
 42
50.0
 43
0.0
 44
0.0
 50
0.0
 51
0.0
 71
     0
 72
   100
 73
     1
 74
     1
 75
     0
 76
     0
 77
     0
 78
     0
281
     0
 65
     0
110
0.0
120
0.0
130
0.0
111
1.0
121
0.0
131
0.0
112
0.0
122
1.0
132
0.0
345
0
346
0
 79
     0
146
0.0
  0
ENDTAB
  0
TABLE
  2
LTYPE
  5
4
100
AcDbSymbolTable
 70
   186
  0
LTYPE
  5
11
100
AcDbSymbolTableRecord
100
AcDbLinetypeTableRecord
  2
ByBlock
 70
    64
  3

 72
    65
 73
     0
 40
0.0
  0
LTYPE
  5
12
100
AcDbSymbolTableRecord
100
AcDbLinetypeTableRecord
  2
ByLayer
 70
    64
  3

 72
    65
 73
     0
 40
0.0
  0
LTYPE
  5
13
100
AcDbSymbolTableRecord
100
AcDbLinetypeTableRecord
  2
Continuous
 70
    64
  3
Solid line
 72
    65
 73
     0
 40
0.0
  0
LTYPE
  5
25
100
AcDbSymbolTableRecord
100
AcDbLinetypeTableRecord
  2
DURCHGEHEND
 70
    64
  3

 72
    65
 73
     0
 40
0.0
  0
LTYPE
  5
26
100
AcDbSymbolTableRecord
100
AcDbLinetypeTableRecord
  2
GESTRICHELT
 70
    64
  3

 72
    65
 73
     2
 40
10.0
 49
5.0
 74
     0
 49
-5.0
 74
     0
  0
LTYPE
  5
27
100
AcDbSymbolTableRecord
100
AcDbLinetypeTableRecord
  2
MITTELLINIE
 70
    64
  3

 72
    65
 73
     4
 40
20.0
 49
10.0
 74
     0
 49
-2.0
 74
     0
 49
5.0
 74
     0
 49
-3.0
 74
     0
  0
LTYPE
  5
28
100
AcDbSymbolTableRecord
100
AcDbLinetypeTableRecord
  2
PUNKTIERT
 70
    64
  3

 72
    65
 73
     2
 40
0.25
 49
0.0
 74
     0
 49
-0.25
 74
     0
  0
LTYPE
  5
29
100
AcDbSymbolTableRecord
100
AcDbLinetypeTableRecord
  2
STRICHPUNKTIERT
 70
    64
  3

 72
    65
 73
     4
 40
12.0
 49
5.0
 74
     0
 49
-3.0
 74
     0
 49
1.0
 74
     0
 49
-3.0
 74
     0
  0
LTYPE
  5
2A
100
AcDbSymbolTableRecord
100
AcDbLinetypeTableRecord
  2
STRICH-PUNKT-PUNKT
 70
    64
  3

 72
    65
 73
     6
 40
10.0
 49
5.0
 74
     0
 49
-1.0
 74
     0
 49
1.0
 74
     0
 49
-1.0
 74
     0
 49
1.0
 74
     0
 49
-1.0
 74
     0
  0
LTYPE
  5
2B
100
AcDbSymbolTableRecord
100
AcDbLinetypeTableRecord
  2
STARTPFEIL
 70
    64
  3

 72
    65
 73
     0
 40
0.0
  0
LTYPE
  5
2C
100
AcDbSymbolTableRecord
100
AcDbLinetypeTableRecord
  2
ENDPFEIL
 70
    64
  3

 72
    65
 73
     0
 40
0.0
  0
LTYPE
  5
2D
100
AcDbSymbolTableRecord
100
AcDbLinetypeTableRecord
  2
ENDPUNKT
 70
    64
  3

 72
    65
 73
     0
 40
0.0
  0
LTYPE
  5
2E
100
AcDbSymbolTableRecord
100
AcDbLinetypeTableRecord
  2
PFEIL
 70
    64
  3

 72
    65
 73
     0
 40
0.0
  0
LTYPE
  5
2F
100
AcDbSymbolTableRecord
100
AcDbLinetypeTableRecord
  2
STITCHLINE
 70
    64
  3

 72
    65
 73
     2
 40
6.0
 49
3.0
 74
     0
 49
-3.0
 74
     0
  0
LTYPE
  5
30
100
AcDbSymbolTableRecord
100
AcDbLinetypeTableRecord
  2
MITTELLINIE_2
 70
    64
  3

 72
    65
 73
     4
 40
17.0
 49
10.0
 74
     0
 49
-2.0
 74
     0
 49
3.0
 74
     0
 49
-2.0
 74
     0
  0
LTYPE
  5
31
100
AcDbSymbolTableRecord
100
AcDbLinetypeTableRecord
  2
VERDECKTE_LINIE
 70
    64
  3

 72
    65
 73
     2
 40
4.0
 49
2.0
 74
     0
 49
-2.0
 74
     0
  0
LTYPE
  5
32
100
AcDbSymbolTableRecord
100
AcDbLinetypeTableRecord
  2
PHANTOMLINIE
 70
    64
  3

 72
    65
 73
     6
 40
21.0
 49
10.0
 74
     0
 49
-2.0
 74
     0
 49
3.0
 74
     0
 49
-1.0
 74
     0
 49
3.0
 74
     0
 49
-2.0
 74
     0
  0
LTYPE
  5
33
100
AcDbSymbolTableRecord
100
AcDbLinetypeTableRecord
  2
BRUCHLINIE_1
 70
    64
  3

 72
    65
 73
     0
 40
0.0
  0
LTYPE
  5
34
100
AcDbSymbolTableRecord
100
AcDbLinetypeTableRecord
  2
BRUCHLINIE_2
 70
    64
  3

 72
    65
 73
     0
 40
0.0
  0
LTYPE
  5
35
100
AcDbSymbolTableRecord
100
AcDbLinetypeTableRecord
  2
_DURCHGEHEND
 70
    64
  3

 72
    65
 73
     0
 40
0.0
  0
LTYPE
  5
36
100
AcDbSymbolTableRecord
100
AcDbLinetypeTableRecord
  2
_GESTRICHELT
 70
    64
  3

 72
    65
 73
     2
 40
10.0
 49
5.0
 74
     0
 49
-5.0
 74
     0
  0
LTYPE
  5
37
100
AcDbSymbolTableRecord
100
AcDbLinetypeTableRecord
  2
_MITTELLINIE
 70
    64
  3

 72
    65
 73
     4
 40
20.0
 49
10.0
 74
     0
 49
-2.0
 74
     0
 49
5.0
 74
     0
 49
-3.0
 74
     0
  0
LTYPE
  5
38
100
AcDbSymbolTableRecord
100
AcDbLinetypeTableRecord
  2
_PUNKTIERT
 70
    64
  3

 72
    65
 73
     2
 40
0.25
 49
0.0
 74
     0
 49
-0.25
 74
     0
  0
LTYPE
  5
39
100
AcDbSymbolTableRecord
100
AcDbLinetypeTableRecord
  2
_STRICHPUNKTIERT
 70
    64
  3

 72
    65
 73
     4
 40
8.0
 49
5.0
 74
     0
 49
-1.0
 74
     0
 49
1.0
 74
     0
 49
-1.0
 74
     0
  0
LTYPE
  5
3A
100
AcDbSymbolTableRecord
100
AcDbLinetypeTableRecord
  2
_STRICH-PUNKT-PUNKT
 70
    64
  3

 72
    65
 73
     6
 40
10.0
 49
5.0
 74
     0
 49
-1.0
 74
     0
 49
1.0
 74
     0
 49
-1.0
 74
     0
 49
1.0
 74
     0
 49
-1.0
 74
     0
  0
LTYPE
  5
3B
100
AcDbSymbolTableRecord
100
AcDbLinetypeTableRecord
  2
_STARTPFEIL
 70
    64
  3

 72
    65
 73
     0
 40
0.0
  0
LTYPE
  5
3C
100
AcDbSymbolTableRecord
100
AcDbLinetypeTableRecord
  2
_ENDPFEIL
 70
    64
  3

 72
    65
 73
     0
 40
0.0
  0
LTYPE
  5
3D
100
AcDbSymbolTableRecord
100
AcDbLinetypeTableRecord
  2
_ENDPUNKT
 70
    64
  3

 72
    65
 73
     0
 40
0.0
  0
LTYPE
  5
3E
100
AcDbSymbolTableRecord
100
AcDbLinetypeTableRecord
  2
_PFEIL
 70
    64
  3

 72
    65
 73
     0
 40
0.0
  0
LTYPE
  5
3F
100
AcDbSymbolTableRecord
100
AcDbLinetypeTableRecord
  2
_STITCHLINE
 70
    64
  3

 72
    65
 73
     2
 40
6.0
 49
3.0
 74
     0
 49
-3.0
 74
     0
  0
LTYPE
  5
40
100
AcDbSymbolTableRecord
100
AcDbLinetypeTableRecord
  2
_MITTELLINIE_2
 70
    64
  3

 72
    65
 73
     4
 40
17.0
 49
10.0
 74
     0
 49
-2.0
 74
     0
 49
3.0
 74
     0
 49
-2.0
 74
     0
  0
LTYPE
  5
41
100
AcDbSymbolTableRecord
100
AcDbLinetypeTableRecord
  2
_VERDECKTE_LINIE
 70
    64
  3

 72
    65
 73
     2
 40
4.0
 49
2.0
 74
     0
 49
-2.0
 74
     0
  0
LTYPE
  5
42
100
AcDbSymbolTableRecord
100
AcDbLinetypeTableRecord
  2
_PHANTOMLINIE
 70
    64
  3

 72
    65
 73
     6
 40
21.0
 49
10.0
 74
     0
 49
-2.0
 74
     0
 49
3.0
 74
     0
 49
-1.0
 74
     0
 49
3.0
 74
     0
 49
-2.0
 74
     0
  0
LTYPE
  5
43
100
AcDbSymbolTableRecord
100
AcDbLinetypeTableRecord
  2
_BRUCHLINIE_1
 70
    64
  3

 72
    65
 73
     0
 40
0.0
  0
LTYPE
  5
44
100
AcDbSymbolTableRecord
100
AcDbLinetypeTableRecord
  2
_BRUCHLINIE_2
 70
    64
  3

 72
    65
 73
     0
 40
0.0
  0
LTYPE
  5
45
100
AcDbSymbolTableRecord
100
AcDbLinetypeTableRecord
  2
CONTINUOUS
 70
    64
  3

 72
    65
 73
     0
 40
0.0
  0
LTYPE
  5
46
100
AcDbSymbolTableRecord
100
AcDbLinetypeTableRecord
  2
_DURCHGEHEND
 70
    64
  3

 72
    65
 73
     0
 40
0.0
  0
LTYPE
  5
47
100
AcDbSymbolTableRecord
100
AcDbLinetypeTableRecord
  2
_GESTRICHELT
 70
    64
  3

 72
    65
 73
     2
 40
10.0
 49
5.0
 74
     0
 49
-5.0
 74
     0
  0
LTYPE
  5
48
100
AcDbSymbolTableRecord
100
AcDbLinetypeTableRecord
  2
_MITTELLINIE
 70
    64
  3

 72
    65
 73
     4
 40
20.0
 49
10.0
 74
     0
 49
-2.0
 74
     0
 49
5.0
 74
     0
 49
-3.0
 74
     0
  0
LTYPE
  5
49
100
AcDbSymbolTableRecord
100
AcDbLinetypeTableRecord
  2
_PUNKTIERT
 70
    64
  3

 72
    65
 73
     2
 40
0.25
 49
0.0
 74
     0
 49
-0.25
 74
     0
  0
LTYPE
  5
4A
100
AcDbSymbolTableRecord
100
AcDbLinetypeTableRecord
  2
_STRICHPUNKTIERT
 70
    64
  3

 72
    65
 73
     4
 40
8.0
 49
5.0
 74
     0
 49
-1.0
 74
     0
 49
1.0
 74
     0
 49
-1.0
 74
     0
  0
LTYPE
  5
4B
100
AcDbSymbolTableRecord
100
AcDbLinetypeTableRecord
  2
_STRICH-PUNKT-PUNKT
 70
    64
  3

 72
    65
 73
     6
 40
10.0
 49
5.0
 74
     0
 49
-1.0
 74
     0
 49
1.0
 74
     0
 49
-1.0
 74
     0
 49
1.0
 74
     0
 49
-1.0
 74
     0
  0
LTYPE
  5
4C
100
AcDbSymbolTableRecord
100
AcDbLinetypeTableRecord
  2
_STARTPFEIL
 70
    64
  3

 72
    65
 73
     0
 40
0.0
  0
LTYPE
  5
4D
100
AcDbSymbolTableRecord
100
AcDbLinetypeTableRecord
  2
_ENDPFEIL
 70
    64
  3

 72
    65
 73
     0
 40
0.0
  0
LTYPE
  5
4E
100
AcDbSymbolTableRecord
100
AcDbLinetypeTableRecord
  2
_ENDPUNKT
 70
    64
  3

 72
    65
 73
     0
 40
0.0
  0
LTYPE
  5
4F
100
AcDbSymbolTableRecord
100
AcDbLinetypeTableRecord
  2
_PFEIL
 70
    64
  3

 72
    65
 73
     0
 40
0.0
  0
LTYPE
  5
50
100
AcDbSymbolTableRecord
100
AcDbLinetypeTableRecord
  2
_STITCHLINE
 70
    64
  3

 72
    65
 73
     2
 40
6.0
 49
3.0
 74
     0
 49
-3.0
 74
     0
  0
LTYPE
  5
51
100
AcDbSymbolTableRecord
100
AcDbLinetypeTableRecord
  2
_MITTELLINIE_2
 70
    64
  3

 72
    65
 73
     4
 40
17.0
 49
10.0
 74
     0
 49
-2.0
 74
     0
 49
3.0
 74
     0
 49
-2.0
 74
     0
  0
LTYPE
  5
52
100
AcDbSymbolTableRecord
100
AcDbLinetypeTableRecord
  2
_VERDECKTE_LINIE
 70
    64
  3

 72
    65
 73
     2
 40
4.0
 49
2.0
 74
     0
 49
-2.0
 74
     0
  0
LTYPE
  5
53
100
AcDbSymbolTableRecord
100
AcDbLinetypeTableRecord
  2
_PHANTOMLINIE
 70
    64
  3

 72
    65
 73
     6
 40
21.0
 49
10.0
 74
     0
 49
-2.0
 74
     0
 49
3.0
 74
     0
 49
-1.0
 74
     0
 49
3.0
 74
     0
 49
-2.0
 74
     0
  0
LTYPE
  5
54
100
AcDbSymbolTableRecord
100
AcDbLinetypeTableRecord
  2
_BRUCHLINIE_1
 70
    64
  3

 72
    65
 73
     0
 40
0.0
  0
LTYPE
  5
55
100
AcDbSymbolTableRecord
100
AcDbLinetypeTableRecord
  2
_BRUCHLINIE_2
 70
    64
  3

 72
    65
 73
     0
 40
0.0
  0
LTYPE
  5
56
100
AcDbSymbolTableRecord
100
AcDbLinetypeTableRecord
  2
_DURCHGEHEND
 70
    64
  3

 72
    65
 73
     0
 40
0.0
  0
LTYPE
  5
57
100
AcDbSymbolTableRecord
100
AcDbLinetypeTableRecord
  2
_GESTRICHELT
 70
    64
  3

 72
    65
 73
     2
 40
10.0
 49
5.0
 74
     0
 49
-5.0
 74
     0
  0
LTYPE
  5
58
100
AcDbSymbolTableRecord
100
AcDbLinetypeTableRecord
  2
_MITTELLINIE
 70
    64
  3

 72
    65
 73
     4
 40
20.0
 49
10.0
 74
     0
 49
-2.0
 74
     0
 49
5.0
 74
     0
 49
-3.0
 74
     0
  0
LTYPE
  5
59
100
AcDbSymbolTableRecord
100
AcDbLinetypeTableRecord
  2
_PUNKTIERT
 70
    64
  3

 72
    65
 73
     2
 40
0.25
 49
0.0
 74
     0
 49
-0.25
 74
     0
  0
LTYPE
  5
5A
100
AcDbSymbolTableRecord
100
AcDbLinetypeTableRecord
  2
_STRICHPUNKTIERT
 70
    64
  3

 72
    65
 73
     4
 40
8.0
 49
5.0
 74
     0
 49
-1.0
 74
     0
 49
1.0
 74
     0
 49
-1.0
 74
     0
  0
LTYPE
  5
5B
100
AcDbSymbolTableRecord
100
AcDbLinetypeTableRecord
  2
_STRICH-PUNKT-PUNKT
 70
    64
  3

 72
    65
 73
     6
 40
10.0
 49
5.0
 74
     0
 49
-1.0
 74
     0
 49
1.0
 74
     0
 49
-1.0
 74
     0
 49
1.0
 74
     0
 49
-1.0
 74
     0
  0
LTYPE
  5
5C
100
AcDbSymbolTableRecord
100
AcDbLinetypeTableRecord
  2
_STARTPFEIL
 70
    64
  3

 72
    65
 73
     0
 40
0.0
  0
LTYPE
  5
5D
100
AcDbSymbolTableRecord
100
AcDbLinetypeTableRecord
  2
_ENDPFEIL
 70
    64
  3

 72
    65
 73
     0
 40
0.0
  0
LTYPE
  5
5E
100
AcDbSymbolTableRecord
100
AcDbLinetypeTableRecord
  2
_ENDPUNKT
 70
    64
  3

 72
    65
 73
     0
 40
0.0
  0
LTYPE
  5
5F
100
AcDbSymbolTableRecord
100
AcDbLinetypeTableRecord
  2
_PFEIL
 70
    64
  3

 72
    65
 73
     0
 40
0.0
  0
LTYPE
  5
60
100
AcDbSymbolTableRecord
100
AcDbLinetypeTableRecord
  2
_STITCHLINE
 70
    64
  3

 72
    65
 73
     2
 40
6.0
 49
3.0
 74
     0
 49
-3.0
 74
     0
  0
LTYPE
  5
61
100
AcDbSymbolTableRecord
100
AcDbLinetypeTableRecord
  2
_MITTELLINIE_2
 70
    64
  3

 72
    65
 73
     4
 40
17.0
 49
10.0
 74
     0
 49
-2.0
 74
     0
 49
3.0
 74
     0
 49
-2.0
 74
     0
  0
LTYPE
  5
62
100
AcDbSymbolTableRecord
100
AcDbLinetypeTableRecord
  2
_VERDECKTE_LINIE
 70
    64
  3

 72
    65
 73
     2
 40
4.0
 49
2.0
 74
     0
 49
-2.0
 74
     0
  0
LTYPE
  5
63
100
AcDbSymbolTableRecord
100
AcDbLinetypeTableRecord
  2
_PHANTOMLINIE
 70
    64
  3

 72
    65
 73
     6
 40
21.0
 49
10.0
 74
     0
 49
-2.0
 74
     0
 49
3.0
 74
     0
 49
-1.0
 74
     0
 49
3.0
 74
     0
 49
-2.0
 74
     0
  0
LTYPE
  5
64
100
AcDbSymbolTableRecord
100
AcDbLinetypeTableRecord
  2
_BRUCHLINIE_1
 70
    64
  3

 72
    65
 73
     0
 40
0.0
  0
LTYPE
  5
65
100
AcDbSymbolTableRecord
100
AcDbLinetypeTableRecord
  2
_BRUCHLINIE_2
 70
    64
  3

 72
    65
 73
     0
 40
0.0
  0
LTYPE
  5
66
100
AcDbSymbolTableRecord
100
AcDbLinetypeTableRecord
  2
SLDCENTERLINES0
 70
    64
  3

 72
    65
 73
     4
 40
19.05
 49
15.24
 74
     0
 49
-1.27
 74
     0
 49
1.27
 74
     0
 49
-1.27
 74
     0
  0
LTYPE
  5
67
100
AcDbSymbolTableRecord
100
AcDbLinetypeTableRecord
  2
SLDTANVISIBLE0
 70
    64
  3

 72
    65
 73
     6
 40
12.7
 49
6.35
 74
     0
 49
-1.27
 74
     0
 49
1.27
 74
     0
 49
-1.27
 74
     0
 49
1.27
 74
     0
 49
-1.27
 74
     0
  0
LTYPE
  5
68
100
AcDbSymbolTableRecord
100
AcDbLinetypeTableRecord
  2
_DURCHGEHEND
 70
    64
  3

 72
    65
 73
     0
 40
0.0
  0
LTYPE
  5
69
100
AcDbSymbolTableRecord
100
AcDbLinetypeTableRecord
  2
_GESTRICHELT
 70
    64
  3

 72
    65
 73
     2
 40
10.0
 49
5.0
 74
     0
 49
-5.0
 74
     0
  0
LTYPE
  5
6A
100
AcDbSymbolTableRecord
100
AcDbLinetypeTableRecord
  2
_MITTELLINIE
 70
    64
  3

 72
    65
 73
     4
 40
20.0
 49
10.0
 74
     0
 49
-2.0
 74
     0
 49
5.0
 74
     0
 49
-3.0
 74
     0
  0
LTYPE
  5
6B
100
AcDbSymbolTableRecord
100
AcDbLinetypeTableRecord
  2
_PUNKTIERT
 70
    64
  3

 72
    65
 73
     2
 40
0.25
 49
0.0
 74
     0
 49
-0.25
 74
     0
  0
LTYPE
  5
6C
100
AcDbSymbolTableRecord
100
AcDbLinetypeTableRecord
  2
_STRICHPUNKTIERT
 70
    64
  3

 72
    65
 73
     4
 40
8.0
 49
5.0
 74
     0
 49
-1.0
 74
     0
 49
1.0
 74
     0
 49
-1.0
 74
     0
  0
LTYPE
  5
6D
100
AcDbSymbolTableRecord
100
AcDbLinetypeTableRecord
  2
_STRICH-PUNKT-PUNKT
 70
    64
  3

 72
    65
 73
     6
 40
10.0
 49
5.0
 74
     0
 49
-1.0
 74
     0
 49
1.0
 74
     0
 49
-1.0
 74
     0
 49
1.0
 74
     0
 49
-1.0
 74
     0
  0
LTYPE
  5
6E
100
AcDbSymbolTableRecord
100
AcDbLinetypeTableRecord
  2
_STARTPFEIL
 70
    64
  3

 72
    65
 73
     0
 40
0.0
  0
LTYPE
  5
6F
100
AcDbSymbolTableRecord
100
AcDbLinetypeTableRecord
  2
_ENDPFEIL
 70
    64
  3

 72
    65
 73
     0
 40
0.0
  0
LTYPE
  5
70
100
AcDbSymbolTableRecord
100
AcDbLinetypeTableRecord
  2
_ENDPUNKT
 70
    64
  3

 72
    65
 73
     0
 40
0.0
  0
LTYPE
  5
71
100
AcDbSymbolTableRecord
100
AcDbLinetypeTableRecord
  2
_PFEIL
 70
    64
  3

 72
    65
 73
     0
 40
0.0
  0
LTYPE
  5
72
100
AcDbSymbolTableRecord
100
AcDbLinetypeTableRecord
  2
_STITCHLINE
 70
    64
  3

 72
    65
 73
     2
 40
6.0
 49
3.0
 74
     0
 49
-3.0
 74
     0
  0
LTYPE
  5
73
100
AcDbSymbolTableRecord
100
AcDbLinetypeTableRecord
  2
_MITTELLINIE_2
 70
    64
  3

 72
    65
 73
     4
 40
17.0
 49
10.0
 74
     0
 49
-2.0
 74
     0
 49
3.0
 74
     0
 49
-2.0
 74
     0
  0
LTYPE
  5
74
100
AcDbSymbolTableRecord
100
AcDbLinetypeTableRecord
  2
_VERDECKTE_LINIE
 70
    64
  3

 72
    65
 73
     2
 40
4.0
 49
2.0
 74
     0
 49
-2.0
 74
     0
  0
LTYPE
  5
75
100
AcDbSymbolTableRecord
100
AcDbLinetypeTableRecord
  2
_PHANTOMLINIE
 70
    64
  3

 72
    65
 73
     6
 40
21.0
 49
10.0
 74
     0
 49
-2.0
 74
     0
 49
3.0
 74
     0
 49
-1.0
 74
     0
 49
3.0
 74
     0
 49
-2.0
 74
     0
  0
LTYPE
  5
76
100
AcDbSymbolTableRecord
100
AcDbLinetypeTableRecord
  2
_BRUCHLINIE_1
 70
    64
  3

 72
    65
 73
     0
 40
0.0
  0
LTYPE
  5
77
100
AcDbSymbolTableRecord
100
AcDbLinetypeTableRecord
  2
_BRUCHLINIE_2
 70
    64
  3

 72
    65
 73
     0
 40
0.0
  0
LTYPE
  5
78
100
AcDbSymbolTableRecord
100
AcDbLinetypeTableRecord
  2
_DURCHGEHEND
 70
    64
  3

 72
    65
 73
     0
 40
0.0
  0
LTYPE
  5
79
100
AcDbSymbolTableRecord
100
AcDbLinetypeTableRecord
  2
_GESTRICHELT
 70
    64
  3

 72
    65
 73
     2
 40
10.0
 49
5.0
 74
     0
 49
-5.0
 74
     0
  0
LTYPE
  5
7A
100
AcDbSymbolTableRecord
100
AcDbLinetypeTableRecord
  2
_MITTELLINIE
 70
    64
  3

 72
    65
 73
     4
 40
20.0
 49
10.0
 74
     0
 49
-2.0
 74
     0
 49
5.0
 74
     0
 49
-3.0
 74
     0
  0
LTYPE
  5
7B
100
AcDbSymbolTableRecord
100
AcDbLinetypeTableRecord
  2
_PUNKTIERT
 70
    64
  3

 72
    65
 73
     2
 40
0.25
 49
0.0
 74
     0
 49
-0.25
 74
     0
  0
LTYPE
  5
7C
100
AcDbSymbolTableRecord
100
AcDbLinetypeTableRecord
  2
_STRICHPUNKTIERT
 70
    64
  3

 72
    65
 73
     4
 40
8.0
 49
5.0
 74
     0
 49
-1.0
 74
     0
 49
1.0
 74
     0
 49
-1.0
 74
     0
  0
LTYPE
  5
7D
100
AcDbSymbolTableRecord
100
AcDbLinetypeTableRecord
  2
_STRICH-PUNKT-PUNKT
 70
    64
  3

 72
    65
 73
     6
 40
10.0
 49
5.0
 74
     0
 49
-1.0
 74
     0
 49
1.0
 74
     0
 49
-1.0
 74
     0
 49
1.0
 74
     0
 49
-1.0
 74
     0
  0
LTYPE
  5
7E
100
AcDbSymbolTableRecord
100
AcDbLinetypeTableRecord
  2
_STARTPFEIL
 70
    64
  3

 72
    65
 73
     0
 40
0.0
  0
LTYPE
  5
7F
100
AcDbSymbolTableRecord
100
AcDbLinetypeTableRecord
  2
_ENDPFEIL
 70
    64
  3

 72
    65
 73
     0
 40
0.0
  0
LTYPE
  5
80
100
AcDbSymbolTableRecord
100
AcDbLinetypeTableRecord
  2
_ENDPUNKT
 70
    64
  3

 72
    65
 73
     0
 40
0.0
  0
LTYPE
  5
81
100
AcDbSymbolTableRecord
100
AcDbLinetypeTableRecord
  2
_PFEIL
 70
    64
  3

 72
    65
 73
     0
 40
0.0
  0
LTYPE
  5
82
100
AcDbSymbolTableRecord
100
AcDbLinetypeTableRecord
  2
_STITCHLINE
 70
    64
  3

 72
    65
 73
     2
 40
6.0
 49
3.0
 74
     0
 49
-3.0
 74
     0
  0
LTYPE
  5
83
100
AcDbSymbolTableRecord
100
AcDbLinetypeTableRecord
  2
_MITTELLINIE_2
 70
    64
  3

 72
    65
 73
     4
 40
17.0
 49
10.0
 74
     0
 49
-2.0
 74
     0
 49
3.0
 74
     0
 49
-2.0
 74
     0
  0
LTYPE
  5
84
100
AcDbSymbolTableRecord
100
AcDbLinetypeTableRecord
  2
_VERDECKTE_LINIE
 70
    64
  3

 72
    65
 73
     2
 40
4.0
 49
2.0
 74
     0
 49
-2.0
 74
     0
  0
LTYPE
  5
85
100
AcDbSymbolTableRecord
100
AcDbLinetypeTableRecord
  2
_PHANTOMLINIE
 70
    64
  3

 72
    65
 73
     6
 40
21.0
 49
10.0
 74
     0
 49
-2.0
 74
     0
 49
3.0
 74
     0
 49
-1.0
 74
     0
 49
3.0
 74
     0
 49
-2.0
 74
     0
  0
LTYPE
  5
86
100
AcDbSymbolTableRecord
100
AcDbLinetypeTableRecord
  2
_BRUCHLINIE_1
 70
    64
  3

 72
    65
 73
     0
 40
0.0
  0
LTYPE
  5
87
100
AcDbSymbolTableRecord
100
AcDbLinetypeTableRecord
  2
_BRUCHLINIE_2
 70
    64
  3

 72
    65
 73
     0
 40
0.0
  0
LTYPE
  5
88
100
AcDbSymbolTableRecord
100
AcDbLinetypeTableRecord
  2
_DURCHGEHEND
 70
    64
  3

 72
    65
 73
     0
 40
0.0
  0
LTYPE
  5
89
100
AcDbSymbolTableRecord
100
AcDbLinetypeTableRecord
  2
_GESTRICHELT
 70
    64
  3

 72
    65
 73
     2
 40
10.0
 49
5.0
 74
     0
 49
-5.0
 74
     0
  0
LTYPE
  5
8A
100
AcDbSymbolTableRecord
100
AcDbLinetypeTableRecord
  2
_MITTELLINIE
 70
    64
  3

 72
    65
 73
     4
 40
20.0
 49
10.0
 74
     0
 49
-2.0
 74
     0
 49
5.0
 74
     0
 49
-3.0
 74
     0
  0
LTYPE
  5
8B
100
AcDbSymbolTableRecord
100
AcDbLinetypeTableRecord
  2
_PUNKTIERT
 70
    64
  3

 72
    65
 73
     2
 40
0.25
 49
0.0
 74
     0
 49
-0.25
 74
     0
  0
LTYPE
  5
8C
100
AcDbSymbolTableRecord
100
AcDbLinetypeTableRecord
  2
_STRICHPUNKTIERT
 70
    64
  3

 72
    65
 73
     4
 40
8.0
 49
5.0
 74
     0
 49
-1.0
 74
     0
 49
1.0
 74
     0
 49
-1.0
 74
     0
  0
LTYPE
  5
8D
100
AcDbSymbolTableRecord
100
AcDbLinetypeTableRecord
  2
_STRICH-PUNKT-PUNKT
 70
    64
  3

 72
    65
 73
     6
 40
10.0
 49
5.0
 74
     0
 49
-1.0
 74
     0
 49
1.0
 74
     0
 49
-1.0
 74
     0
 49
1.0
 74
     0
 49
-1.0
 74
     0
  0
LTYPE
  5
8E
100
AcDbSymbolTableRecord
100
AcDbLinetypeTableRecord
  2
_STARTPFEIL
 70
    64
  3

 72
    65
 73
     0
 40
0.0
  0
LTYPE
  5
8F
100
AcDbSymbolTableRecord
100
AcDbLinetypeTableRecord
  2
_ENDPFEIL
 70
    64
  3

 72
    65
 73
     0
 40
0.0
  0
LTYPE
  5
90
100
AcDbSymbolTableRecord
100
AcDbLinetypeTableRecord
  2
_ENDPUNKT
 70
    64
  3

 72
    65
 73
     0
 40
0.0
  0
LTYPE
  5
91
100
AcDbSymbolTableRecord
100
AcDbLinetypeTableRecord
  2
_PFEIL
 70
    64
  3

 72
    65
 73
     0
 40
0.0
  0
LTYPE
  5
92
100
AcDbSymbolTableRecord
100
AcDbLinetypeTableRecord
  2
_STITCHLINE
 70
    64
  3

 72
    65
 73
     2
 40
6.0
 49
3.0
 74
     0
 49
-3.0
 74
     0
  0
LTYPE
  5
93
100
AcDbSymbolTableRecord
100
AcDbLinetypeTableRecord
  2
_MITTELLINIE_2
 70
    64
  3

 72
    65
 73
     4
 40
17.0
 49
10.0
 74
     0
 49
-2.0
 74
     0
 49
3.0
 74
     0
 49
-2.0
 74
     0
  0
LTYPE
  5
94
100
AcDbSymbolTableRecord
100
AcDbLinetypeTableRecord
  2
_VERDECKTE_LINIE
 70
    64
  3

 72
    65
 73
     2
 40
4.0
 49
2.0
 74
     0
 49
-2.0
 74
     0
  0
LTYPE
  5
95
100
AcDbSymbolTableRecord
100
AcDbLinetypeTableRecord
  2
_PHANTOMLINIE
 70
    64
  3

 72
    65
 73
     6
 40
21.0
 49
10.0
 74
     0
 49
-2.0
 74
     0
 49
3.0
 74
     0
 49
-1.0
 74
     0
 49
3.0
 74
     0
 49
-2.0
 74
     0
  0
LTYPE
  5
96
100
AcDbSymbolTableRecord
100
AcDbLinetypeTableRecord
  2
_BRUCHLINIE_1
 70
    64
  3

 72
    65
 73
     0
 40
0.0
  0
LTYPE
  5
97
100
AcDbSymbolTableRecord
100
AcDbLinetypeTableRecord
  2
_BRUCHLINIE_2
 70
    64
  3

 72
    65
 73
     0
 40
0.0
  0
LTYPE
  5
98
100
AcDbSymbolTableRecord
100
AcDbLinetypeTableRecord
  2
_DURCHGEHEND
 70
    64
  3

 72
    65
 73
     0
 40
0.0
  0
LTYPE
  5
99
100
AcDbSymbolTableRecord
100
AcDbLinetypeTableRecord
  2
_GESTRICHELT
 70
    64
  3

 72
    65
 73
     2
 40
10.0
 49
5.0
 74
     0
 49
-5.0
 74
     0
  0
LTYPE
  5
9A
100
AcDbSymbolTableRecord
100
AcDbLinetypeTableRecord
  2
_MITTELLINIE
 70
    64
  3

 72
    65
 73
     4
 40
20.0
 49
10.0
 74
     0
 49
-2.0
 74
     0
 49
5.0
 74
     0
 49
-3.0
 74
     0
  0
LTYPE
  5
9B
100
AcDbSymbolTableRecord
100
AcDbLinetypeTableRecord
  2
_PUNKTIERT
 70
    64
  3

 72
    65
 73
     2
 40
0.25
 49
0.0
 74
     0
 49
-0.25
 74
     0
  0
LTYPE
  5
9C
100
AcDbSymbolTableRecord
100
AcDbLinetypeTableRecord
  2
_STRICHPUNKTIERT
 70
    64
  3

 72
    65
 73
     4
 40
8.0
 49
5.0
 74
     0
 49
-1.0
 74
     0
 49
1.0
 74
     0
 49
-1.0
 74
     0
  0
LTYPE
  5
9D
100
AcDbSymbolTableRecord
100
AcDbLinetypeTableRecord
  2
_STRICH-PUNKT-PUNKT
 70
    64
  3

 72
    65
 73
     6
 40
10.0
 49
5.0
 74
     0
 49
-1.0
 74
     0
 49
1.0
 74
     0
 49
-1.0
 74
     0
 49
1.0
 74
     0
 49
-1.0
 74
     0
  0
LTYPE
  5
9E
100
AcDbSymbolTableRecord
100
AcDbLinetypeTableRecord
  2
_STARTPFEIL
 70
    64
  3

 72
    65
 73
     0
 40
0.0
  0
LTYPE
  5
9F
100
AcDbSymbolTableRecord
100
AcDbLinetypeTableRecord
  2
_ENDPFEIL
 70
    64
  3

 72
    65
 73
     0
 40
0.0
  0
LTYPE
  5
A0
100
AcDbSymbolTableRecord
100
AcDbLinetypeTableRecord
  2
_ENDPUNKT
 70
    64
  3

 72
    65
 73
     0
 40
0.0
  0
LTYPE
  5
A1
100
AcDbSymbolTableRecord
100
AcDbLinetypeTableRecord
  2
_PFEIL
 70
    64
  3

 72
    65
 73
     0
 40
0.0
  0
LTYPE
  5
A2
100
AcDbSymbolTableRecord
100
AcDbLinetypeTableRecord
  2
_STITCHLINE
 70
    64
  3

 72
    65
 73
     2
 40
6.0
 49
3.0
 74
     0
 49
-3.0
 74
     0
  0
LTYPE
  5
A3
100
AcDbSymbolTableRecord
100
AcDbLinetypeTableRecord
  2
_MITTELLINIE_2
 70
    64
  3

 72
    65
 73
     4
 40
17.0
 49
10.0
 74
     0
 49
-2.0
 74
     0
 49
3.0
 74
     0
 49
-2.0
 74
     0
  0
LTYPE
  5
A4
100
AcDbSymbolTableRecord
100
AcDbLinetypeTableRecord
  2
_VERDECKTE_LINIE
 70
    64
  3

 72
    65
 73
     2
 40
4.0
 49
2.0
 74
     0
 49
-2.0
 74
     0
  0
LTYPE
  5
A5
100
AcDbSymbolTableRecord
100
AcDbLinetypeTableRecord
  2
_PHANTOMLINIE
 70
    64
  3

 72
    65
 73
     6
 40
21.0
 49
10.0
 74
     0
 49
-2.0
 74
     0
 49
3.0
 74
     0
 49
-1.0
 74
     0
 49
3.0
 74
     0
 49
-2.0
 74
     0
  0
LTYPE
  5
A6
100
AcDbSymbolTableRecord
100
AcDbLinetypeTableRecord
  2
_BRUCHLINIE_1
 70
    64
  3

 72
    65
 73
     0
 40
0.0
  0
LTYPE
  5
A7
100
AcDbSymbolTableRecord
100
AcDbLinetypeTableRecord
  2
_BRUCHLINIE_2
 70
    64
  3

 72
    65
 73
     0
 40
0.0
  0
LTYPE
  5
A8
100
AcDbSymbolTableRecord
100
AcDbLinetypeTableRecord
  2
_DURCHGEHEND
 70
    64
  3

 72
    65
 73
     0
 40
0.0
  0
LTYPE
  5
A9
100
AcDbSymbolTableRecord
100
AcDbLinetypeTableRecord
  2
_GESTRICHELT
 70
    64
  3

 72
    65
 73
     2
 40
10.0
 49
5.0
 74
     0
 49
-5.0
 74
     0
  0
LTYPE
  5
AA
100
AcDbSymbolTableRecord
100
AcDbLinetypeTableRecord
  2
_MITTELLINIE
 70
    64
  3

 72
    65
 73
     4
 40
20.0
 49
10.0
 74
     0
 49
-2.0
 74
     0
 49
5.0
 74
     0
 49
-3.0
 74
     0
  0
LTYPE
  5
AB
100
AcDbSymbolTableRecord
100
AcDbLinetypeTableRecord
  2
_PUNKTIERT
 70
    64
  3

 72
    65
 73
     2
 40
0.25
 49
0.0
 74
     0
 49
-0.25
 74
     0
  0
LTYPE
  5
AC
100
AcDbSymbolTableRecord
100
AcDbLinetypeTableRecord
  2
_STRICHPUNKTIERT
 70
    64
  3

 72
    65
 73
     4
 40
8.0
 49
5.0
 74
     0
 49
-1.0
 74
     0
 49
1.0
 74
     0
 49
-1.0
 74
     0
  0
LTYPE
  5
AD
100
AcDbSymbolTableRecord
100
AcDbLinetypeTableRecord
  2
_STRICH-PUNKT-PUNKT
 70
    64
  3

 72
    65
 73
     6
 40
10.0
 49
5.0
 74
     0
 49
-1.0
 74
     0
 49
1.0
 74
     0
 49
-1.0
 74
     0
 49
1.0
 74
     0
 49
-1.0
 74
     0
  0
LTYPE
  5
AE
100
AcDbSymbolTableRecord
100
AcDbLinetypeTableRecord
  2
_STARTPFEIL
 70
    64
  3

 72
    65
 73
     0
 40
0.0
  0
LTYPE
  5
AF
100
AcDbSymbolTableRecord
100
AcDbLinetypeTableRecord
  2
_ENDPFEIL
 70
    64
  3

 72
    65
 73
     0
 40
0.0
  0
LTYPE
  5
B0
100
AcDbSymbolTableRecord
100
AcDbLinetypeTableRecord
  2
_ENDPUNKT
 70
    64
  3

 72
    65
 73
     0
 40
0.0
  0
LTYPE
  5
B1
100
AcDbSymbolTableRecord
100
AcDbLinetypeTableRecord
  2
_PFEIL
 70
    64
  3

 72
    65
 73
     0
 40
0.0
  0
LTYPE
  5
B2
100
AcDbSymbolTableRecord
100
AcDbLinetypeTableRecord
  2
_STITCHLINE
 70
    64
  3

 72
    65
 73
     2
 40
6.0
 49
3.0
 74
     0
 49
-3.0
 74
     0
  0
LTYPE
  5
B3
100
AcDbSymbolTableRecord
100
AcDbLinetypeTableRecord
  2
_MITTELLINIE_2
 70
    64
  3

 72
    65
 73
     4
 40
17.0
 49
10.0
 74
     0
 49
-2.0
 74
     0
 49
3.0
 74
     0
 49
-2.0
 74
     0
  0
LTYPE
  5
B4
100
AcDbSymbolTableRecord
100
AcDbLinetypeTableRecord
  2
_VERDECKTE_LINIE
 70
    64
  3

 72
    65
 73
     2
 40
4.0
 49
2.0
 74
     0
 49
-2.0
 74
     0
  0
LTYPE
  5
B5
100
AcDbSymbolTableRecord
100
AcDbLinetypeTableRecord
  2
_PHANTOMLINIE
 70
    64
  3

 72
    65
 73
     6
 40
21.0
 49
10.0
 74
     0
 49
-2.0
 74
     0
 49
3.0
 74
     0
 49
-1.0
 74
     0
 49
3.0
 74
     0
 49
-2.0
 74
     0
  0
LTYPE
  5
B6
100
AcDbSymbolTableRecord
100
AcDbLinetypeTableRecord
  2
_BRUCHLINIE_1
 70
    64
  3

 72
    65
 73
     0
 40
0.0
  0
LTYPE
  5
B7
100
AcDbSymbolTableRecord
100
AcDbLinetypeTableRecord
  2
_BRUCHLINIE_2
 70
    64
  3

 72
    65
 73
     0
 40
0.0
  0
LTYPE
  5
B8
100
AcDbSymbolTableRecord
100
AcDbLinetypeTableRecord
  2
4_2-0_7-0_7-0_7
 70
    64
  3

 72
    65
 73
     4
 40
6.35
 49
4.233334
 74
     0
 49
-0.705556
 74
     0
 49
0.705556
 74
     0
 49
-0.705556
 74
     0
  0
LTYPE
  5
B9
100
AcDbSymbolTableRecord
100
AcDbLinetypeTableRecord
  2
0_7-0_7
 70
    64
  3

 72
    65
 73
     2
 40
1.411111
 49
0.705556
 74
     0
 49
-0.705556
 74
     0
  0
LTYPE
  5
BA
100
AcDbSymbolTableRecord
100
AcDbLinetypeTableRecord
  2
_DURCHGEHEND
 70
    64
  3

 72
    65
 73
     0
 40
0.0
  0
LTYPE
  5
BB
100
AcDbSymbolTableRecord
100
AcDbLinetypeTableRecord
  2
_GESTRICHELT
 70
    64
  3

 72
    65
 73
     2
 40
10.0
 49
5.0
 74
     0
 49
-5.0
 74
     0
  0
LTYPE
  5
BC
100
AcDbSymbolTableRecord
100
AcDbLinetypeTableRecord
  2
_MITTELLINIE
 70
    64
  3

 72
    65
 73
     4
 40
20.0
 49
10.0
 74
     0
 49
-2.0
 74
     0
 49
5.0
 74
     0
 49
-3.0
 74
     0
  0
LTYPE
  5
BD
100
AcDbSymbolTableRecord
100
AcDbLinetypeTableRecord
  2
_PUNKTIERT
 70
    64
  3

 72
    65
 73
     2
 40
0.25
 49
0.0
 74
     0
 49
-0.25
 74
     0
  0
LTYPE
  5
BE
100
AcDbSymbolTableRecord
100
AcDbLinetypeTableRecord
  2
_STRICHPUNKTIERT
 70
    64
  3

 72
    65
 73
     4
 40
8.0
 49
5.0
 74
     0
 49
-1.0
 74
     0
 49
1.0
 74
     0
 49
-1.0
 74
     0
  0
LTYPE
  5
BF
100
AcDbSymbolTableRecord
100
AcDbLinetypeTableRecord
  2
_STRICH-PUNKT-PUNKT
 70
    64
  3

 72
    65
 73
     6
 40
10.0
 49
5.0
 74
     0
 49
-1.0
 74
     0
 49
1.0
 74
     0
 49
-1.0
 74
     0
 49
1.0
 74
     0
 49
-1.0
 74
     0
  0
LTYPE
  5
C0
100
AcDbSymbolTableRecord
100
AcDbLinetypeTableRecord
  2
_STARTPFEIL
 70
    64
  3

 72
    65
 73
     0
 40
0.0
  0
LTYPE
  5
C1
100
AcDbSymbolTableRecord
100
AcDbLinetypeTableRecord
  2
_ENDPFEIL
 70
    64
  3

 72
    65
 73
     0
 40
0.0
  0
LTYPE
  5
C2
100
AcDbSymbolTableRecord
100
AcDbLinetypeTableRecord
  2
_ENDPUNKT
 70
    64
  3

 72
    65
 73
     0
 40
0.0
  0
LTYPE
  5
C3
100
AcDbSymbolTableRecord
100
AcDbLinetypeTableRecord
  2
_PFEIL
 70
    64
  3

 72
    65
 73
     0
 40
0.0
  0
LTYPE
  5
C4
100
AcDbSymbolTableRecord
100
AcDbLinetypeTableRecord
  2
_STITCHLINE
 70
    64
  3

 72
    65
 73
     2
 40
6.0
 49
3.0
 74
     0
 49
-3.0
 74
     0
  0
LTYPE
  5
C5
100
AcDbSymbolTableRecord
100
AcDbLinetypeTableRecord
  2
_MITTELLINIE_2
 70
    64
  3

 72
    65
 73
     4
 40
17.0
 49
10.0
 74
     0
 49
-2.0
 74
     0
 49
3.0
 74
     0
 49
-2.0
 74
     0
  0
LTYPE
  5
C6
100
AcDbSymbolTableRecord
100
AcDbLinetypeTableRecord
  2
_VERDECKTE_LINIE
 70
    64
  3

 72
    65
 73
     2
 40
4.0
 49
2.0
 74
     0
 49
-2.0
 74
     0
  0
LTYPE
  5
C7
100
AcDbSymbolTableRecord
100
AcDbLinetypeTableRecord
  2
_PHANTOMLINIE
 70
    64
  3

 72
    65
 73
     6
 40
21.0
 49
10.0
 74
     0
 49
-2.0
 74
     0
 49
3.0
 74
     0
 49
-1.0
 74
     0
 49
3.0
 74
     0
 49
-2.0
 74
     0
  0
LTYPE
  5
C8
100
AcDbSymbolTableRecord
100
AcDbLinetypeTableRecord
  2
_BRUCHLINIE_1
 70
    64
  3

 72
    65
 73
     0
 40
0.0
  0
LTYPE
  5
C9
100
AcDbSymbolTableRecord
100
AcDbLinetypeTableRecord
  2
_BRUCHLINIE_2
 70
    64
  3

 72
    65
 73
     0
 40
0.0
  0
LTYPE
  5
CA
100
AcDbSymbolTableRecord
100
AcDbLinetypeTableRecord
  2
_DURCHGEHEND
 70
    64
  3

 72
    65
 73
     0
 40
0.0
  0
LTYPE
  5
CB
100
AcDbSymbolTableRecord
100
AcDbLinetypeTableRecord
  2
_GESTRICHELT
 70
    64
  3

 72
    65
 73
     2
 40
10.0
 49
5.0
 74
     0
 49
-5.0
 74
     0
  0
LTYPE
  5
CC
100
AcDbSymbolTableRecord
100
AcDbLinetypeTableRecord
  2
_MITTELLINIE
 70
    64
  3

 72
    65
 73
     4
 40
20.0
 49
10.0
 74
     0
 49
-2.0
 74
     0
 49
5.0
 74
     0
 49
-3.0
 74
     0
  0
LTYPE
  5
CD
100
AcDbSymbolTableRecord
100
AcDbLinetypeTableRecord
  2
_PUNKTIERT
 70
    64
  3

 72
    65
 73
     2
 40
0.25
 49
0.0
 74
     0
 49
-0.25
 74
     0
  0
LTYPE
  5
CE
100
AcDbSymbolTableRecord
100
AcDbLinetypeTableRecord
  2
_STRICHPUNKTIERT
 70
    64
  3

 72
    65
 73
     4
 40
8.0
 49
5.0
 74
     0
 49
-1.0
 74
     0
 49
1.0
 74
     0
 49
-1.0
 74
     0
  0
LTYPE
  5
CF
100
AcDbSymbolTableRecord
100
AcDbLinetypeTableRecord
  2
_STRICH-PUNKT-PUNKT
 70
    64
  3

 72
    65
 73
     6
 40
10.0
 49
5.0
 74
     0
 49
-1.0
 74
     0
 49
1.0
 74
     0
 49
-1.0
 74
     0
 49
1.0
 74
     0
 49
-1.0
 74
     0
  0
LTYPE
  5
D0
100
AcDbSymbolTableRecord
100
AcDbLinetypeTableRecord
  2
_STARTPFEIL
 70
    64
  3

 72
    65
 73
     0
 40
0.0
  0
LTYPE
  5
D1
100
AcDbSymbolTableRecord
100
AcDbLinetypeTableRecord
  2
_ENDPFEIL
 70
    64
  3

 72
    65
 73
     0
 40
0.0
  0
LTYPE
  5
D2
100
AcDbSymbolTableRecord
100
AcDbLinetypeTableRecord
  2
_ENDPUNKT
 70
    64
  3

 72
    65
 73
     0
 40
0.0
  0
LTYPE
  5
D3
100
AcDbSymbolTableRecord
100
AcDbLinetypeTableRecord
  2
_PFEIL
 70
    64
  3

 72
    65
 73
     0
 40
0.0
  0
LTYPE
  5
D4
100
AcDbSymbolTableRecord
100
AcDbLinetypeTableRecord
  2
_STITCHLINE
 70
    64
  3

 72
    65
 73
     2
 40
6.0
 49
3.0
 74
     0
 49
-3.0
 74
     0
  0
LTYPE
  5
D5
100
AcDbSymbolTableRecord
100
AcDbLinetypeTableRecord
  2
_MITTELLINIE_2
 70
    64
  3

 72
    65
 73
     4
 40
17.0
 49
10.0
 74
     0
 49
-2.0
 74
     0
 49
3.0
 74
     0
 49
-2.0
 74
     0
  0
LTYPE
  5
D6
100
AcDbSymbolTableRecord
100
AcDbLinetypeTableRecord
  2
_VERDECKTE_LINIE
 70
    64
  3

 72
    65
 73
     2
 40
4.0
 49
2.0
 74
     0
 49
-2.0
 74
     0
  0
LTYPE
  5
D7
100
AcDbSymbolTableRecord
100
AcDbLinetypeTableRecord
  2
_PHANTOMLINIE
 70
    64
  3

 72
    65
 73
     6
 40
21.0
 49
10.0
 74
     0
 49
-2.0
 74
     0
 49
3.0
 74
     0
 49
-1.0
 74
     0
 49
3.0
 74
     0
 49
-2.0
 74
     0
  0
LTYPE
  5
D8
100
AcDbSymbolTableRecord
100
AcDbLinetypeTableRecord
  2
_BRUCHLINIE_1
 70
    64
  3

 72
    65
 73
     0
 40
0.0
  0
LTYPE
  5
D9
100
AcDbSymbolTableRecord
100
AcDbLinetypeTableRecord
  2
_BRUCHLINIE_2
 70
    64
  3

 72
    65
 73
     0
 40
0.0
  0
LTYPE
  5
DA
100
AcDbSymbolTableRecord
100
AcDbLinetypeTableRecord
  2
SLDUSER-DASHED0
 70
    64
  3

 72
    65
 73
     2
 40
1.905
 49
1.27
 74
     0
 49
-0.635
 74
     0
  0
LTYPE
  5
DB
100
AcDbSymbolTableRecord
100
AcDbLinetypeTableRecord
  2
STRICHPUNKTIERT-1
 70
    64
  3

 72
    65
 73
     4
 40
8.0
 49
5.0
 74
     0
 49
-1.0
 74
     0
 49
1.0
 74
     0
 49
-1.0
 74
     0
  0
ENDTAB
  0
TABLE
  2
LAYER
  5
2
100
AcDbSymbolTable
 70
     8
  0
LAYER
  5
14
100
AcDbSymbolTableRecord
100
AcDbLayerTableRecord
  2
0
 70
     0
 62
     7
  6
Continuous
290
     1
370
    -3
390
1D
  0
LAYER
  5
DC
100
AcDbSymbolTableRecord
100
AcDbLayerTableRecord
  2
STANDARDEBENE
 70
     0
 62
     7
  6
Continuous
290
     1
370
    -3
390
1D
  0
LAYER
  5
DD
100
AcDbSymbolTableRecord
100
AcDbLayerTableRecord
  2
ARMATUR
 70
     0
 62
     7
  6
Continuous
290
     1
370
    -3
390
1D
  0
LAYER
  5
DE
100
AcDbSymbolTableRecord
100
AcDbLayerTableRecord
  2
ACHSEN
 70
     0
 62
     7
  6
Continuous
290
     1
370
    -3
390
1D
  0
LAYER
  5
DF
100
AcDbSymbolTableRecord
100
AcDbLayerTableRecord
  2
BEMASSUNG
 70
     0
 62
     7
  6
Continuous
290
     1
370
    -3
390
1D
  0
LAYER
  5
E0
100
AcDbSymbolTableRecord
100
AcDbLayerTableRecord
  2
WAND
 70
     0
 62
     7
  6
Continuous
290
     1
370
    -3
390
1D
  0
LAYER
  5
E1
100
AcDbSymbolTableRecord
100
AcDbLayerTableRecord
  2
ANSICHT
 70
     0
 62
     7
  6
Continuous
290
     1
370
    -3
390
1D
  0
LAYER
  5
E2
100
AcDbSymbolTableRecord
100
AcDbLayerTableRecord
  2
TEXT
 70
     0
 62
     7
  6
Continuous
290
     1
370
    -3
390
1D
  0
ENDTAB
  0
TABLE
  2
STYLE
  5
3
100
AcDbSymbolTable
 70
     1
  0
STYLE
  5
17
100
AcDbSymbolTableRecord
100
AcDbTextStyleTableRecord
  2
Standard
 70
     0
 40
0.0
 41
1.0
 50
0.0
 71
     0
 42
0.0
  3
txt
  4

  0
ENDTAB
  0
TABLE
  2
VIEW
  5
5
100
AcDbSymbolTable
 70
     0
  0
ENDTAB
  0
TABLE
  2
UCS
  5
6
100
AcDbSymbolTable
 70
     1
  0
UCS
  5
24
100
AcDbSymbolTableRecord
100
AcDbUCSTableRecord
  2
ISODRAW_6_2
 70
     0
 10
0.0
 20
0.0
 30
0.0
 11
0.0
 21
1.0
 31
0.0
 12
0.0
 22
0.0
 32
1.0
 79
     0
146
0.0
  0
ENDTAB
  0
TABLE
  2
APPID
  5
8
100
AcDbSymbolTable
 70
     1
  0
APPID
  5
16
100
AcDbSymbolTableRecord
100
AcDbRegAppTableRecord
  2
ACAD
 70
     0
  0
ENDTAB
  0
TABLE
  2
DIMSTYLE
  5
9
100
AcDbSymbolTable
 70
     1
100
AcDbDimStyleTable
 71
     0
  0
DIMSTYLE
105
18
100
AcDbSymbolTableRecord
100
AcDbDimStyleTableRecord
  2
Standard
 70
     0
  3

  4

 40
1.0
 41
0.18
 42
0.0625
 43
0.38
 44
0.18
 45
0.0
 46
0.0
 47
0.0
 48
0.0
 71
     0
 72
     0
 73
     1
 74
     1
 75
     0
 76
     0
 77
     0
 78
     0
 79
     0
140
0.18
141
0.09
142
0.0
143
25.4
144
1.0
145
0.0
146
1.0
147
0.09
148
0.0
170
     0
171
     2
172
     0
173
     0
174
     0
175
     0
176
     0
177
     0
178
     0
179
     0
271
     4
272
     4
273
     2
274
     2
275
     0
276
     0
277
     2
278
    46
279
     0
280
     0
281
     0
282
     0
283
     1
284
     0
285
     0
286
     0
288
     0
289
     3
340
17
341
0
342
0
343
0
344
0
371
    -2
372
    -2
  0
ENDTAB
  0
TABLE
  2
BLOCK_RECORD
  5
1
100
AcDbSymbolTable
 70
     0
  0
BLOCK_RECORD
  5
A
100
AcDbSymbolTableRecord
100
AcDbBlockTableRecord
  2
*MODEL_SPACE
340
20
  0
BLOCK_RECORD
  5
B
100
AcDbSymbolTableRecord
100
AcDbBlockTableRecord
  2
*PAPER_SPACE
340
21
  0
ENDTAB
  0
ENDSEC
  0
SECTION
  2
BLOCKS
  0
BLOCK
  5
D
100
AcDbEntity
  8
0
390
0
100
AcDbBlockBegin
  2
*MODEL_SPACE
 70
     0
 10
0.0
 20
0.0
 30
0.0
  3
*MODEL_SPACE
  1

  0
ENDBLK
  5
E
100
AcDbEntity
  8
0
390
0
100
AcDbBlockEnd
  0
BLOCK
  5
F
100
AcDbEntity
 67
     1
  8
0
390
0
100
AcDbBlockBegin
  2
*PAPER_SPACE
 70
     0
 10
0.0
 20
0.0
 30
0.0
  3
*PAPER_SPACE
  1

  0
ENDBLK
  5
10
100
AcDbEntity
 67
     1
  8
0
390
0
100
AcDbBlockEnd
  0
ENDSEC
  0
SECTION
  2
ENTITIES
  0
LINE
  5
E3
100
AcDbEntity
  8
ARMATUR
390
0
  6
DURCHGEHEND
 62
     1
100
AcDbLine
 10
194.074234
 20
125.932831
 30
0.0
 11
194.168259
 21
125.945206
 31
0.0
  0
LINE
  5
E4
100
AcDbEntity
  8
ARMATUR
390
0
  6
DURCHGEHEND
 62
     1
100
AcDbLine
 10
194.023743
 20
125.912735
 30
0.0
 11
193.983124
 21
125.89592
 31
0.0
  0
LINE
  5
E5
100
AcDbEntity
  8
ARMATUR
390
0
  6
DURCHGEHEND
 62
     1
100
AcDbLine
 10
193.842667
 20
125.755478
 30
0.0
 11
193.825851
 21
125.714859
 31
0.0
  0
LINE
  5
E6
100
AcDbEntity
  8
ARMATUR
390
0
  6
DURCHGEHEND
 62
     1
100
AcDbLine
 10
193.805756
 20
125.664352
 30
0.0
 11
193.793381
 21
125.570282
 31
0.0
  0
ELLIPSE
  5
E7
100
AcDbEntity
  8
ARMATUR
390
0
  6
DURCHGEHEND
 62
     1
100
AcDbEllipse
 10
82.30751
 20
128.345444
 30
0.0
 11
0.0788629800081253
 21
0.0968055635495134
 31
0.0
210
0.0
220
0.0
230
1.0
 40
0.998518
 41
0.9447467427497276
 42
2.2554889177910895
  0
ELLIPSE
  5
E8
100
AcDbEntity
  8
ARMATUR
390
0
  6
DURCHGEHEND
 62
     1
100
AcDbEllipse
 10
82.307678
 20
126.095139
 30
0.0
 11
0.0938644409179688
 21
-0.0824688902986516
 31
0.0
210
0.0
220
0.0
230
1.0
 40
0.999387
 41
3.8617154071014008
 42
5.4333844517906229
  0
ELLIPSE
  5
E9
100
AcDbEntity
  8
ARMATUR
390
0
  6
DURCHGEHEND
 62
     1
100
AcDbEllipse
 10
145.307922
 20
126.095078
 30
0.0
 11
0.0875709429383278
 21
0.0890699143547173
 31
0.0
210
0.0
220
0.0
230
1.0
 40
0.998928
 41
3.9177405932696887
 42
5.489932949113113
  0
ELLIPSE
  5
EA
100
AcDbEntity
  8
ARMATUR
390
0
  6
DURCHGEHEND
 62
     1
100
AcDbEllipse
 10
145.3078
 20
128.345261
 30
0.0
 11
-0.0851874947547913
 21
0.0914355612836051
 31
0.0
210
0.0
220
0.0
230
1.0
 40
0.999716
 41
3.9622465424589106
 42
5.5335661804131124
  0
LINE
  5
EB
100
AcDbEntity
  8
ARMATUR
390
0
  6
DURCHGEHEND
 62
     1
100
AcDbLine
 10
145.682755
 20
128.22023
 30
0.0
 11
145.432755
 21
128.22023
 31
0.0
  0
LINE
  5
EC
100
AcDbEntity
  8
ARMATUR
390
0
  6
DURCHGEHEND
 62
     1
100
AcDbLine
 10
145.432755
 20
128.173935
 30
0.0
 11
145.432755
 21
128.34523
 31
0.0
  0
LINE
  5
ED
100
AcDbEntity
  8
ARMATUR
390
0
  6
DURCHGEHEND
 62
     1
100
AcDbLine
 10
145.432755
 20
128.214523
 30
0.0
 11
145.432755
 21
128.34523
 31
0.0
  0
LINE
  5
EE
100
AcDbEntity
  8
ARMATUR
390
0
  6
DURCHGEHEND
 62
     1
100
AcDbLine
 10
145.682755
 20
128.145218
 30
0.0
 11
145.682755
 21
128.214523
 31
0.0
  0
LINE
  5
EF
100
AcDbEntity
  8
ARMATUR
390
0
  6
DURCHGEHEND
 62
     1
100
AcDbLine
 10
145.682755
 20
128.145218
 30
0.0
 11
145.682755
 21
128.198257
 31
0.0
  0
LINE
  5
F0
100
AcDbEntity
  8
ARMATUR
390
0
  6
DURCHGEHEND
 62
     1
100
AcDbLine
 10
145.432755
 20
128.34523
 30
0.0
 11
145.432755
 21
126.09523
 31
0.0
  0
LINE
  5
F1
100
AcDbEntity
  8
ARMATUR
390
0
  6
DURCHGEHEND
 62
     1
100
AcDbLine
 10
145.432755
 20
126.266525
 30
0.0
 11
145.432755
 21
126.09523
 31
0.0
  0
LINE
  5
F2
100
AcDbEntity
  8
ARMATUR
390
0
  6
DURCHGEHEND
 62
     1
100
AcDbLine
 10
145.432755
 20
126.242203
 30
0.0
 11
145.432755
 21
126.09523
 31
0.0
  0
LINE
  5
F3
100
AcDbEntity
  8
ARMATUR
390
0
  6
DURCHGEHEND
 62
     1
100
AcDbLine
 10
145.432755
 20
126.225937
 30
0.0
 11
145.432755
 21
126.09523
 31
0.0
  0
LINE
  5
F4
100
AcDbEntity
  8
ARMATUR
390
0
  6
DURCHGEHEND
 62
     1
100
AcDbLine
 10
145.432755
 20
126.22023
 30
0.0
 11
145.682755
 21
126.22023
 31
0.0
  0
LINE
  5
F5
100
AcDbEntity
  8
ARMATUR
390
0
  6
DURCHGEHEND
 62
     1
100
AcDbLine
 10
145.432755
 20
126.295227
 30
0.0
 11
145.432755
 21
126.09523
 31
0.0
  0
LINE
  5
F6
100
AcDbEntity
  8
ARMATUR
390
0
  6
DURCHGEHEND
 62
     1
100
AcDbLine
 10
145.682755
 20
126.266525
 30
0.0
 11
145.682755
 21
126.22023
 31
0.0
  0
LINE
  5
F7
100
AcDbEntity
  8
ARMATUR
390
0
  6
DURCHGEHEND
 62
     1
100
AcDbLine
 10
145.682755
 20
128.22023
 30
0.0
 11
145.682755
 21
126.22023
 31
0.0
  0
LINE
  5
F8
100
AcDbEntity
  8
ARMATUR
390
0
  6
DURCHGEHEND
 62
     1
100
AcDbLine
 10
145.432755
 20
128.198257
 30
0.0
 11
145.432755
 21
128.34523
 31
0.0
  0
LINE
  5
F9
100
AcDbEntity
  8
ARMATUR
390
0
  6
DURCHGEHEND
 62
     1
100
AcDbLine
 10
82.182762
 20
126.22023
 30
0.0
 11
81.932762
 21
126.22023
 31
0.0
  0
LINE
  5
FA
100
AcDbEntity
  8
ARMATUR
390
0
  6
DURCHGEHEND
 62
     1
100
AcDbLine
 10
82.182762
 20
126.225937
 30
0.0
 11
82.182762
 21
126.09523
 31
0.0
  0
LINE
  5
FB
100
AcDbEntity
  8
ARMATUR
390
0
  6
DURCHGEHEND
 62
     1
100
AcDbLine
 10
82.182762
 20
126.266525
 30
0.0
 11
82.182762
 21
126.09523
 31
0.0
  0
LINE
  5
FC
100
AcDbEntity
  8
ARMATUR
390
0
  6
DURCHGEHEND
 62
     1
100
AcDbLine
 10
82.182762
 20
126.242203
 30
0.0
 11
82.182762
 21
126.09523
 31
0.0
  0
LINE
  5
FD
100
AcDbEntity
  8
ARMATUR
390
0
  6
DURCHGEHEND
 62
     1
100
AcDbLine
 10
81.932762
 20
126.22023
 30
0.0
 11
81.932762
 21
126.295227
 31
0.0
  0
LINE
  5
FE
100
AcDbEntity
  8
ARMATUR
390
0
  6
DURCHGEHEND
 62
     1
100
AcDbLine
 10
82.182762
 20
128.145218
 30
0.0
 11
82.182762
 21
128.34523
 31
0.0
  0
LINE
  5
FF
100
AcDbEntity
  8
ARMATUR
390
0
  6
DURCHGEHEND
 62
     1
100
AcDbLine
 10
82.182762
 20
128.214523
 30
0.0
 11
82.182762
 21
128.34523
 31
0.0
  0
LINE
  5
100
100
AcDbEntity
  8
ARMATUR
390
0
  6
DURCHGEHEND
 62
     1
100
AcDbLine
 10
82.182762
 20
128.173935
 30
0.0
 11
82.182762
 21
128.34523
 31
0.0
  0
LINE
  5
101
100
AcDbEntity
  8
ARMATUR
390
0
  6
DURCHGEHEND
 62
     1
100
AcDbLine
 10
81.932762
 20
128.22023
 30
0.0
 11
82.182762
 21
128.22023
 31
0.0
  0
LINE
  5
102
100
AcDbEntity
  8
ARMATUR
390
0
  6
DURCHGEHEND
 62
     1
100
AcDbLine
 10
82.182762
 20
126.09523
 30
0.0
 11
82.182762
 21
128.34523
 31
0.0
  0
LINE
  5
103
100
AcDbEntity
  8
ARMATUR
390
0
  6
DURCHGEHEND
 62
     1
100
AcDbLine
 10
81.932762
 20
128.173935
 30
0.0
 11
81.932762
 21
128.22023
 31
0.0
  0
LINE
  5
104
100
AcDbEntity
  8
ARMATUR
390
0
  6
DURCHGEHEND
 62
     1
100
AcDbLine
 10
82.182762
 20
128.198257
 30
0.0
 11
82.182762
 21
128.34523
 31
0.0
  0
LINE
  5
105
100
AcDbEntity
  8
ARMATUR
390
0
  6
DURCHGEHEND
 62
     1
100
AcDbLine
 10
82.182762
 20
126.09523
 30
0.0
 11
82.182762
 21
128.34523
 31
0.0
  0
LINE
  5
106
100
AcDbEntity
  8
ARMATUR
390
0
  6
DURCHGEHEND
 62
     1
100
AcDbLine
 10
145.30777
 20
125.97023
 30
0.0
 11
82.307762
 21
125.97023
 31
0.0
  0
LINE
  5
107
100
AcDbEntity
  8
ARMATUR
390
0
  6
DURCHGEHEND
 62
     1
100
AcDbLine
 10
145.432755
 20
128.34523
 30
0.0
 11
145.432755
 21
126.09523
 31
0.0
  0
LINE
  5
108
100
AcDbEntity
  8
ARMATUR
390
0
  6
DURCHGEHEND
 62
     1
100
AcDbLine
 10
81.932762
 20
126.225937
 30
0.0
 11
81.932762
 21
128.22023
 31
0.0
  0
POLYLINE
  5
109
100
AcDbEntity
  8
ARMATUR
390
0
  6
DURCHGEHEND
 62
     1
100
AcDb3dPolyline
 66
     1
 10
0.0
 20
0.0
 30
0.0
 70
    12
 75
     5
  0
VERTEX
  5
10A
100
AcDbEntity
  8
0
390
0
100
AcDbVertex
100
AcDb3dPolylineVertex
 10
145.432755
 20
128.34523
 30
0.0
 70
    48
  0
VERTEX
  5
10B
100
AcDbEntity
  8
0
390
0
100
AcDbVertex
100
AcDb3dPolylineVertex
 10
145.432755
 20
128.34523
 30
0.0
 70
    40
  0
VERTEX
  5
10C
100
AcDbEntity
  8
0
390
0
100
AcDbVertex
100
AcDb3dPolylineVertex
 10
145.432755
 20
127.97023
 30
0.0
 70
    40
  0
VERTEX
  5
10D
100
AcDbEntity
  8
0
390
0
100
AcDbVertex
100
AcDb3dPolylineVertex
 10
145.432755
 20
127.59523
 30
0.0
 70
    40
  0
VERTEX
  5
10E
100
AcDbEntity
  8
0
390
0
100
AcDbVertex
100
AcDb3dPolylineVertex
 10
145.432755
 20
127.22023
 30
0.0
 70
    40
  0
VERTEX
  5
10F
100
AcDbEntity
  8
0
390
0
100
AcDbVertex
100
AcDb3dPolylineVertex
 10
145.432755
 20
126.84523
 30
0.0
 70
    40
  0
VERTEX
  5
110
100
AcDbEntity
  8
0
390
0
100
AcDbVertex
100
AcDb3dPolylineVertex
 10
145.432755
 20
126.47023
 30
0.0
 70
    40
  0
VERTEX
  5
111
100
AcDbEntity
  8
0
390
0
100
AcDbVertex
100
AcDb3dPolylineVertex
 10
145.432755
 20
126.09523
 30
0.0
 70
    40
  0
VERTEX
  5
112
100
AcDbEntity
  8
0
390
0
100
AcDbVertex
100
AcDb3dPolylineVertex
 10
145.432755
 20
127.59523
 30
0.0
 70
    48
  0
VERTEX
  5
113
100
AcDbEntity
  8
0
390
0
100
AcDbVertex
100
AcDb3dPolylineVertex
 10
145.432755
 20
126.84523
 30
0.0
 70
    48
  0
VERTEX
  5
114
100
AcDbEntity
  8
0
390
0
100
AcDbVertex
100
AcDb3dPolylineVertex
 10
145.432755
 20
126.09523
 30
0.0
 70
    48
  0
SEQEND
  5
115
100
AcDbEntity
  8
0
390
0
  0
POLYLINE
  5
116
100
AcDbEntity
  8
ARMATUR
390
0
  6
DURCHGEHEND
 62
     1
100
AcDb3dPolyline
 66
     1
 10
0.0
 20
0.0
 30
0.0
 70
    12
 75
     5
  0
VERTEX
  5
117
100
AcDbEntity
  8
0
390
0
100
AcDbVertex
100
AcDb3dPolylineVertex
 10
145.682755
 20
126.242203
 30
0.0
 70
    48
  0
VERTEX
  5
118
100
AcDbEntity
  8
0
390
0
100
AcDbVertex
100
AcDb3dPolylineVertex
 10
145.682755
 20
126.242203
 30
0.0
 70
    40
  0
VERTEX
  5
119
100
AcDbEntity
  8
0
390
0
100
AcDbVertex
100
AcDb3dPolylineVertex
 10
145.682755
 20
126.22023
 30
0.0
 70
    40
  0
VERTEX
  5
11A
100
AcDbEntity
  8
0
390
0
100
AcDbVertex
100
AcDb3dPolylineVertex
 10
145.682755
 20
126.242203
 30
0.0
 70
    48
  0
VERTEX
  5
11B
100
AcDbEntity
  8
0
390
0
100
AcDbVertex
100
AcDb3dPolylineVertex
 10
145.682755
 20
126.22023
 30
0.0
 70
    48
  0
VERTEX
  5
11C
100
AcDbEntity
  8
0
390
0
100
AcDbVertex
100
AcDb3dPolylineVertex
 10
145.682755
 20
126.22023
 30
0.0
 70
    48
  0
SEQEND
  5
11D
100
AcDbEntity
  8
0
390
0
  0
POLYLINE
  5
11E
100
AcDbEntity
  8
ARMATUR
390
0
  6
DURCHGEHEND
 62
     1
100
AcDb3dPolyline
 66
     1
 10
0.0
 20
0.0
 30
0.0
 70
    12
 75
     5
  0
VERTEX
  5
11F
100
AcDbEntity
  8
0
390
0
100
AcDbVertex
100
AcDb3dPolylineVertex
 10
81.932762
 20
126.242203
 30
0.0
 70
    48
  0
VERTEX
  5
120
100
AcDbEntity
  8
0
390
0
100
AcDbVertex
100
AcDb3dPolylineVertex
 10
81.932762
 20
126.242203
 30
0.0
 70
    40
  0
VERTEX
  5
121
100
AcDbEntity
  8
0
390
0
100
AcDbVertex
100
AcDb3dPolylineVertex
 10
81.932762
 20
126.251038
 30
0.0
 70
    40
  0
VERTEX
  5
122
100
AcDbEntity
  8
0
390
0
100
AcDbVertex
100
AcDb3dPolylineVertex
 10
81.932762
 20
126.259872
 30
0.0
 70
    40
  0
VERTEX
  5
123
100
AcDbEntity
  8
0
390
0
100
AcDbVertex
100
AcDb3dPolylineVertex
 10
81.932762
 20
126.268707
 30
0.0
 70
    40
  0
VERTEX
  5
124
100
AcDbEntity
  8
0
390
0
100
AcDbVertex
100
AcDb3dPolylineVertex
 10
81.932762
 20
126.27755
 30
0.0
 70
    40
  0
VERTEX
  5
125
100
AcDbEntity
  8
0
390
0
100
AcDbVertex
100
AcDb3dPolylineVertex
 10
81.932762
 20
126.286385
 30
0.0
 70
    40
  0
VERTEX
  5
126
100
AcDbEntity
  8
0
390
0
100
AcDbVertex
100
AcDb3dPolylineVertex
 10
81.932762
 20
126.295227
 30
0.0
 70
    40
  0
VERTEX
  5
127
100
AcDbEntity
  8
0
390
0
100
AcDbVertex
100
AcDb3dPolylineVertex
 10
81.932762
 20
126.259872
 30
0.0
 70
    48
  0
VERTEX
  5
128
100
AcDbEntity
  8
0
390
0
100
AcDbVertex
100
AcDb3dPolylineVertex
 10
81.932762
 20
126.277542
 30
0.0
 70
    48
  0
VERTEX
  5
129
100
AcDbEntity
  8
0
390
0
100
AcDbVertex
100
AcDb3dPolylineVertex
 10
81.932762
 20
126.295227
 30
0.0
 70
    48
  0
SEQEND
  5
12A
100
AcDbEntity
  8
0
390
0
  0
POLYLINE
  5
12B
100
AcDbEntity
  8
ARMATUR
390
0
  6
DURCHGEHEND
 62
     1
100
AcDb3dPolyline
 66
     1
 10
0.0
 20
0.0
 30
0.0
 70
    12
 75
     5
  0
VERTEX
  5
12C
100
AcDbEntity
  8
0
390
0
100
AcDbVertex
100
AcDb3dPolylineVertex
 10
82.182762
 20
126.09523
 30
0.0
 70
    48
  0
VERTEX
  5
12D
100
AcDbEntity
  8
0
390
0
100
AcDbVertex
100
AcDb3dPolylineVertex
 10
82.182762
 20
126.09523
 30
0.0
 70
    40
  0
VERTEX
  5
12E
100
AcDbEntity
  8
0
390
0
100
AcDbVertex
100
AcDb3dPolylineVertex
 10
82.182762
 20
126.47023
 30
0.0
 70
    40
  0
VERTEX
  5
12F
100
AcDbEntity
  8
0
390
0
100
AcDbVertex
100
AcDb3dPolylineVertex
 10
82.182762
 20
126.84523
 30
0.0
 70
    40
  0
VERTEX
  5
130
100
AcDbEntity
  8
0
390
0
100
AcDbVertex
100
AcDb3dPolylineVertex
 10
82.182762
 20
127.22023
 30
0.0
 70
    40
  0
VERTEX
  5
131
100
AcDbEntity
  8
0
390
0
100
AcDbVertex
100
AcDb3dPolylineVertex
 10
82.182762
 20
127.59523
 30
0.0
 70
    40
  0
VERTEX
  5
132
100
AcDbEntity
  8
0
390
0
100
AcDbVertex
100
AcDb3dPolylineVertex
 10
82.182762
 20
127.97023
 30
0.0
 70
    40
  0
VERTEX
  5
133
100
AcDbEntity
  8
0
390
0
100
AcDbVertex
100
AcDb3dPolylineVertex
 10
82.182762
 20
128.34523
 30
0.0
 70
    40
  0
VERTEX
  5
134
100
AcDbEntity
  8
0
390
0
100
AcDbVertex
100
AcDb3dPolylineVertex
 10
82.182762
 20
126.84523
 30
0.0
 70
    48
  0
VERTEX
  5
135
100
AcDbEntity
  8
0
390
0
100
AcDbVertex
100
AcDb3dPolylineVertex
 10
82.182762
 20
127.59523
 30
0.0
 70
    48
  0
VERTEX
  5
136
100
AcDbEntity
  8
0
390
0
100
AcDbVertex
100
AcDb3dPolylineVertex
 10
82.182762
 20
128.34523
 30
0.0
 70
    48
  0
SEQEND
  5
137
100
AcDbEntity
  8
0
390
0
  0
POLYLINE
  5
138
100
AcDbEntity
  8
ARMATUR
390
0
  6
DURCHGEHEND
 62
     1
100
AcDb3dPolyline
 66
     1
 10
0.0
 20
0.0
 30
0.0
 70
    12
 75
     5
  0
VERTEX
  5
139
100
AcDbEntity
  8
0
390
0
100
AcDbVertex
100
AcDb3dPolylineVertex
 10
81.932762
 20
128.198257
 30
0.0
 70
    48
  0
VERTEX
  5
13A
100
AcDbEntity
  8
0
390
0
100
AcDbVertex
100
AcDb3dPolylineVertex
 10
81.932762
 20
128.198257
 30
0.0
 70
    40
  0
VERTEX
  5
13B
100
AcDbEntity
  8
0
390
0
100
AcDbVertex
100
AcDb3dPolylineVertex
 10
81.932762
 20
128.22023
 30
0.0
 70
    40
  0
VERTEX
  5
13C
100
AcDbEntity
  8
0
390
0
100
AcDbVertex
100
AcDb3dPolylineVertex
 10
81.932762
 20
128.198257
 30
0.0
 70
    48
  0
VERTEX
  5
13D
100
AcDbEntity
  8
0
390
0
100
AcDbVertex
100
AcDb3dPolylineVertex
 10
81.932762
 20
128.22023
 30
0.0
 70
    48
  0
VERTEX
  5
13E
100
AcDbEntity
  8
0
390
0
100
AcDbVertex
100
AcDb3dPolylineVertex
 10
81.932762
 20
128.22023
 30
0.0
 70
    48
  0
SEQEND
  5
13F
100
AcDbEntity
  8
0
390
0
  0
POLYLINE
  5
140
100
AcDbEntity
  8
ARMATUR
390
0
  6
DURCHGEHEND
 62
     1
100
AcDb3dPolyline
 66
     1
 10
0.0
 20
0.0
 30
0.0
 70
    12
 75
     5
  0
VERTEX
  5
141
100
AcDbEntity
  8
0
390
0
100
AcDbVertex
100
AcDb3dPolylineVertex
 10
82.275414
 20
128.465958
 30
0.0
 70
    48
  0
VERTEX
  5
142
100
AcDbEntity
  8
0
390
0
100
AcDbVertex
100
AcDb3dPolylineVertex
 10
82.275414
 20
128.465958
 30
0.0
 70
    40
  0
VERTEX
  5
143
100
AcDbEntity
  8
0
390
0
100
AcDbVertex
100
AcDb3dPolylineVertex
 10
82.307762
 20
128.47023
 30
0.0
 70
    40
  0
VERTEX
  5
144
100
AcDbEntity
  8
0
390
0
100
AcDbVertex
100
AcDb3dPolylineVertex
 10
82.275414
 20
128.465958
 30
0.0
 70
    48
  0
VERTEX
  5
145
100
AcDbEntity
  8
0
390
0
100
AcDbVertex
100
AcDb3dPolylineVertex
 10
82.307762
 20
128.47023
 30
0.0
 70
    48
  0
VERTEX
  5
146
100
AcDbEntity
  8
0
390
0
100
AcDbVertex
100
AcDb3dPolylineVertex
 10
82.307762
 20
128.47023
 30
0.0
 70
    48
  0
VERTEX
  5
147
100
AcDbEntity
  8
0
390
0
100
AcDbVertex
100
AcDb3dPolylineVertex
 10
82.807762
 20
128.47023
 30
0.0
 70
    40
  0
VERTEX
  5
148
100
AcDbEntity
  8
0
390
0
100
AcDbVertex
100
AcDb3dPolylineVertex
 10
82.307762
 20
128.47023
 30
0.0
 70
    48
  0
VERTEX
  5
149
100
AcDbEntity
  8
0
390
0
100
AcDbVertex
100
AcDb3dPolylineVertex
 10
82.807762
 20
128.47023
 30
0.0
 70
    48
  0
VERTEX
  5
14A
100
AcDbEntity
  8
0
390
0
100
AcDbVertex
100
AcDb3dPolylineVertex
 10
82.807762
 20
128.47023
 30
0.0
 70
    48
  0
VERTEX
  5
14B
100
AcDbEntity
  8
0
390
0
100
AcDbVertex
100
AcDb3dPolylineVertex
 10
144.807755
 20
128.47023
 30
0.0
 70
    40
  0
VERTEX
  5
14C
100
AcDbEntity
  8
0
390
0
100
AcDbVertex
100
AcDb3dPolylineVertex
 10
82.807762
 20
128.47023
 30
0.0
 70
    48
  0
VERTEX
  5
14D
100
AcDbEntity
  8
0
390
0
100
AcDbVertex
100
AcDb3dPolylineVertex
 10
144.807755
 20
128.47023
 30
0.0
 70
    48
  0
VERTEX
  5
14E
100
AcDbEntity
  8
0
390
0
100
AcDbVertex
100
AcDb3dPolylineVertex
 10
144.807755
 20
128.47023
 30
0.0
 70
    48
  0
VERTEX
  5
14F
100
AcDbEntity
  8
0
390
0
100
AcDbVertex
100
AcDb3dPolylineVertex
 10
145.307755
 20
128.47023
 30
0.0
 70
    40
  0
VERTEX
  5
150
100
AcDbEntity
  8
0
390
0
100
AcDbVertex
100
AcDb3dPolylineVertex
 10
144.807755
 20
128.47023
 30
0.0
 70
    48
  0
VERTEX
  5
151
100
AcDbEntity
  8
0
390
0
100
AcDbVertex
100
AcDb3dPolylineVertex
 10
145.307755
 20
128.47023
 30
0.0
 70
    48
  0
VERTEX
  5
152
100
AcDbEntity
  8
0
390
0
100
AcDbVertex
100
AcDb3dPolylineVertex
 10
145.307755
 20
128.47023
 30
0.0
 70
    48
  0
SEQEND
  5
153
100
AcDbEntity
  8
0
390
0
  0
ELLIPSE
  5
154
100
AcDbEntity
  8
ARMATUR
390
0
  6
DURCHGEHEND
 62
     1
100
AcDbEllipse
 10
70.855431
 20
126.12384
 30
0.0
 11
0.1298009902238846
 21
0.1479054752076202
 31
0.0
210
0.0
220
0.0
230
1.0
 40
0.772166
 41
2.4710371869395331
 42
3.7114425478515565
  0
ELLIPSE
  5
155
100
AcDbEntity
  8
ARMATUR
390
0
  6
DURCHGEHEND
 62
     1
100
AcDbEllipse
 10
81.807846
 20
126.070145
 30
0.0
 11
0.0838740468025208
 21
0.0926212845185959
 31
0.0
210
0.0
220
0.0
230
1.0
 40
0.999465
 41
3.8770743897401556
 42
5.4485687310618678
  0
ELLIPSE
  5
156
100
AcDbEntity
  8
ARMATUR
390
0
  6
DURCHGEHEND
 62
     1
100
AcDbEllipse
 10
81.807999
 20
128.370468
 30
0.0
 11
0.0907046943902969
 21
-0.0858099324843005
 31
0.0
210
0.0
220
0.0
230
1.0
 40
0.998387
 41
0.7566002041103891
 42
2.3294909739496887
  0
ELLIPSE
  5
157
100
AcDbEntity
  8
ARMATUR
390
0
  6
DURCHGEHEND
 62
     1
100
AcDbEllipse
 10
70.807625
 20
128.370377
 30
0.0
 11
0.0867463573813438
 21
0.0898943938698977
 31
0.0
210
0.0
220
0.0
230
1.0
 40
0.999049
 41
0.7667231457299222
 42
2.3387411976800001
  0
ELLIPSE
  5
158
100
AcDbEntity
  8
ARMATUR
390
0
  6
DURCHGEHEND
 62
     1
100
AcDbEllipse
 10
70.807755
 20
113.620224
 30
0.0
 11
-0.0829502940177917
 21
0.0935004894303625
 31
0.0
210
0.0
220
0.0
230
1.0
 40
0.999931
 41
0.8450883918604669
 42
2.4158847186604668
  0
LINE
  5
159
100
AcDbEntity
  8
ARMATUR
390
0
  6
DURCHGEHEND
 62
     1
100
AcDbLine
 10
70.696426
 20
125.570236
 30
0.0
 11
70.696426
 21
126.013412
 31
0.0
  0
LINE
  5
15A
100
AcDbEntity
  8
ARMATUR
390
0
  6
DURCHGEHEND
 62
     1
100
AcDbLine
 10
70.682762
 20
125.923782
 30
0.0
 11
70.682762
 21
126.070236
 31
0.0
  0
LINE
  5
15B
100
AcDbEntity
  8
ARMATUR
390
0
  6
DURCHGEHEND
 62
     1
100
AcDbLine
 10
70.696426
 20
126.013412
 30
0.0
 11
70.750938
 21
125.958893
 31
0.0
  0
LINE
  5
15C
100
AcDbEntity
  8
ARMATUR
390
0
  6
DURCHGEHEND
 62
     1
100
AcDbLine
 10
81.932762
 20
125.923782
 30
0.0
 11
81.932762
 21
126.070236
 31
0.0
  0
LINE
  5
15D
100
AcDbEntity
  8
ARMATUR
390
0
  6
DURCHGEHEND
 62
     1
100
AcDbLine
 10
81.932762
 20
125.985977
 30
0.0
 11
81.932762
 21
126.070236
 31
0.0
  0
LINE
  5
15E
100
AcDbEntity
  8
ARMATUR
390
0
  6
DURCHGEHEND
 62
     1
100
AcDbLine
 10
70.807755
 20
125.945236
 30
0.0
 11
81.807762
 21
125.945236
 31
0.0
  0
LINE
  5
15F
100
AcDbEntity
  8
ARMATUR
390
0
  6
DURCHGEHEND
 62
     1
100
AcDbLine
 10
81.932762
 20
128.370224
 30
0.0
 11
81.932762
 21
128.22023
 31
0.0
  0
LINE
  5
160
100
AcDbEntity
  8
ARMATUR
390
0
  6
DURCHGEHEND
 62
     1
100
AcDbLine
 10
70.807762
 20
128.495224
 30
0.0
 11
81.807762
 21
128.495224
 31
0.0
  0
LINE
  5
161
100
AcDbEntity
  8
ARMATUR
390
0
  6
DURCHGEHEND
 62
     1
100
AcDbLine
 10
70.750938
 20
128.481552
 30
0.0
 11
70.696426
 21
128.427048
 31
0.0
  0
LINE
  5
162
100
AcDbEntity
  8
ARMATUR
390
0
  6
DURCHGEHEND
 62
     1
100
AcDbLine
 10
70.807762
 20
113.495224
 30
0.0
 11
81.932762
 21
113.495224
 31
0.0
  0
LINE
  5
163
100
AcDbEntity
  8
ARMATUR
390
0
  6
DURCHGEHEND
 62
     1
100
AcDbLine
 10
81.932762
 20
126.22023
 30
0.0
 11
81.932762
 21
113.495224
 31
0.0
  0
POLYLINE
  5
164
100
AcDbEntity
  8
ARMATUR
390
0
  6
DURCHGEHEND
 62
     1
100
AcDb3dPolyline
 66
     1
 10
0.0
 20
0.0
 30
0.0
 70
    12
 75
     5
  0
VERTEX
  5
165
100
AcDbEntity
  8
0
390
0
100
AcDbVertex
100
AcDb3dPolylineVertex
 10
70.682762
 20
126.032181
 30
0.0
 70
    48
  0
VERTEX
  5
166
100
AcDbEntity
  8
0
390
0
100
AcDbVertex
100
AcDb3dPolylineVertex
 10
70.682762
 20
126.032181
 30
0.0
 70
    40
  0
VERTEX
  5
167
100
AcDbEntity
  8
0
390
0
100
AcDbVertex
100
AcDb3dPolylineVertex
 10
70.682762
 20
126.070236
 30
0.0
 70
    40
  0
VERTEX
  5
168
100
AcDbEntity
  8
0
390
0
100
AcDbVertex
100
AcDb3dPolylineVertex
 10
70.682762
 20
126.032181
 30
0.0
 70
    48
  0
VERTEX
  5
169
100
AcDbEntity
  8
0
390
0
100
AcDbVertex
100
AcDb3dPolylineVertex
 10
70.682762
 20
126.070236
 30
0.0
 70
    48
  0
VERTEX
  5
16A
100
AcDbEntity
  8
0
390
0
100
AcDbVertex
100
AcDb3dPolylineVertex
 10
70.682762
 20
126.070236
 30
0.0
 70
    48
  0
SEQEND
  5
16B
100
AcDbEntity
  8
0
390
0
  0
POLYLINE
  5
16C
100
AcDbEntity
  8
ARMATUR
390
0
  6
DURCHGEHEND
 62
     1
100
AcDb3dPolyline
 66
     1
 10
0.0
 20
0.0
 30
0.0
 70
    12
 75
     5
  0
VERTEX
  5
16D
100
AcDbEntity
  8
0
390
0
100
AcDbVertex
100
AcDb3dPolylineVertex
 10
70.682762
 20
126.070236
 30
0.0
 70
    48
  0
VERTEX
  5
16E
100
AcDbEntity
  8
0
390
0
100
AcDbVertex
100
AcDb3dPolylineVertex
 10
70.682762
 20
126.070236
 30
0.0
 70
    40
  0
VERTEX
  5
16F
100
AcDbEntity
  8
0
390
0
100
AcDbVertex
100
AcDb3dPolylineVertex
 10
70.682762
 20
125.985962
 30
0.0
 70
    40
  0
VERTEX
  5
170
100
AcDbEntity
  8
0
390
0
100
AcDbVertex
100
AcDb3dPolylineVertex
 10
70.682762
 20
126.070236
 30
0.0
 70
    48
  0
VERTEX
  5
171
100
AcDbEntity
  8
0
390
0
100
AcDbVertex
100
AcDb3dPolylineVertex
 10
70.682762
 20
125.985962
 30
0.0
 70
    48
  0
VERTEX
  5
172
100
AcDbEntity
  8
0
390
0
100
AcDbVertex
100
AcDb3dPolylineVertex
 10
70.682762
 20
125.985962
 30
0.0
 70
    48
  0
SEQEND
  5
173
100
AcDbEntity
  8
0
390
0
  0
POLYLINE
  5
174
100
AcDbEntity
  8
ARMATUR
390
0
  6
DURCHGEHEND
 62
     1
100
AcDb3dPolyline
 66
     1
 10
0.0
 20
0.0
 30
0.0
 70
    12
 75
     5
  0
VERTEX
  5
175
100
AcDbEntity
  8
0
390
0
100
AcDbVertex
100
AcDb3dPolylineVertex
 10
70.682762
 20
126.070236
 30
0.0
 70
    48
  0
VERTEX
  5
176
100
AcDbEntity
  8
0
390
0
100
AcDbVertex
100
AcDb3dPolylineVertex
 10
70.682762
 20
126.070236
 30
0.0
 70
    40
  0
VERTEX
  5
177
100
AcDbEntity
  8
0
390
0
100
AcDbVertex
100
AcDb3dPolylineVertex
 10
70.684639
 20
126.054688
 30
0.0
 70
    40
  0
VERTEX
  5
178
100
AcDbEntity
  8
0
390
0
100
AcDbVertex
100
AcDb3dPolylineVertex
 10
70.68557
 20
126.045723
 30
0.0
 70
    40
  0
VERTEX
  5
179
100
AcDbEntity
  8
0
390
0
100
AcDbVertex
100
AcDb3dPolylineVertex
 10
70.686333
 20
126.040436
 30
0.0
 70
    40
  0
VERTEX
  5
17A
100
AcDbEntity
  8
0
390
0
100
AcDbVertex
100
AcDb3dPolylineVertex
 10
70.687714
 20
126.035927
 30
0.0
 70
    40
  0
VERTEX
  5
17B
100
AcDbEntity
  8
0
390
0
100
AcDbVertex
100
AcDb3dPolylineVertex
 10
70.690475
 20
126.029289
 30
0.0
 70
    40
  0
VERTEX
  5
17C
100
AcDbEntity
  8
0
390
0
100
AcDbVertex
100
AcDb3dPolylineVertex
 10
70.695412
 20
126.017624
 30
0.0
 70
    40
  0
VERTEX
  5
17D
100
AcDbEntity
  8
0
390
0
100
AcDbVertex
100
AcDb3dPolylineVertex
 10
70.687981
 20
126.030624
 30
0.0
 70
    48
  0
VERTEX
  5
17E
100
AcDbEntity
  8
0
390
0
100
AcDbVertex
100
AcDb3dPolylineVertex
 10
70.682854
 20
126.047928
 30
0.0
 70
    48
  0
VERTEX
  5
17F
100
AcDbEntity
  8
0
390
0
100
AcDbVertex
100
AcDb3dPolylineVertex
 10
70.695412
 20
126.017624
 30
0.0
 70
    48
  0
SEQEND
  5
180
100
AcDbEntity
  8
0
390
0
  0
POLYLINE
  5
181
100
AcDbEntity
  8
ARMATUR
390
0
  6
DURCHGEHEND
 62
     1
100
AcDb3dPolyline
 66
     1
 10
0.0
 20
0.0
 30
0.0
 70
    12
 75
     5
  0
VERTEX
  5
182
100
AcDbEntity
  8
0
390
0
100
AcDbVertex
100
AcDb3dPolylineVertex
 10
81.932762
 20
128.370224
 30
0.0
 70
    48
  0
VERTEX
  5
183
100
AcDbEntity
  8
0
390
0
100
AcDbVertex
100
AcDb3dPolylineVertex
 10
81.932762
 20
128.370224
 30
0.0
 70
    40
  0
VERTEX
  5
184
100
AcDbEntity
  8
0
390
0
100
AcDbVertex
100
AcDb3dPolylineVertex
 10
81.932762
 20
127.980545
 30
0.0
 70
    40
  0
VERTEX
  5
185
100
AcDbEntity
  8
0
390
0
100
AcDbVertex
100
AcDb3dPolylineVertex
 10
81.932762
 20
127.590866
 30
0.0
 70
    40
  0
VERTEX
  5
186
100
AcDbEntity
  8
0
390
0
100
AcDbVertex
100
AcDb3dPolylineVertex
 10
81.932762
 20
127.201187
 30
0.0
 70
    40
  0
VERTEX
  5
187
100
AcDbEntity
  8
0
390
0
100
AcDbVertex
100
AcDb3dPolylineVertex
 10
81.932762
 20
126.811516
 30
0.0
 70
    40
  0
VERTEX
  5
188
100
AcDbEntity
  8
0
390
0
100
AcDbVertex
100
AcDb3dPolylineVertex
 10
81.932762
 20
126.421844
 30
0.0
 70
    40
  0
VERTEX
  5
189
100
AcDbEntity
  8
0
390
0
100
AcDbVertex
100
AcDb3dPolylineVertex
 10
81.932762
 20
126.032181
 30
0.0
 70
    40
  0
VERTEX
  5
18A
100
AcDbEntity
  8
0
390
0
100
AcDbVertex
100
AcDb3dPolylineVertex
 10
81.932762
 20
127.590866
 30
0.0
 70
    48
  0
VERTEX
  5
18B
100
AcDbEntity
  8
0
390
0
100
AcDbVertex
100
AcDb3dPolylineVertex
 10
81.932762
 20
126.811508
 30
0.0
 70
    48
  0
VERTEX
  5
18C
100
AcDbEntity
  8
0
390
0
100
AcDbVertex
100
AcDb3dPolylineVertex
 10
81.932762
 20
126.032181
 30
0.0
 70
    48
  0
SEQEND
  5
18D
100
AcDbEntity
  8
0
390
0
  0
POLYLINE
  5
18E
100
AcDbEntity
  8
ARMATUR
390
0
  6
DURCHGEHEND
 62
     1
100
AcDb3dPolyline
 66
     1
 10
0.0
 20
0.0
 30
0.0
 70
    12
 75
     5
  0
VERTEX
  5
18F
100
AcDbEntity
  8
0
390
0
100
AcDbVertex
100
AcDb3dPolylineVertex
 10
70.695412
 20
128.422836
 30
0.0
 70
    48
  0
VERTEX
  5
190
100
AcDbEntity
  8
0
390
0
100
AcDbVertex
100
AcDb3dPolylineVertex
 10
70.695412
 20
128.422836
 30
0.0
 70
    40
  0
VERTEX
  5
191
100
AcDbEntity
  8
0
390
0
100
AcDbVertex
100
AcDb3dPolylineVertex
 10
70.682762
 20
128.370224
 30
0.0
 70
    40
  0
VERTEX
  5
192
100
AcDbEntity
  8
0
390
0
100
AcDbVertex
100
AcDb3dPolylineVertex
 10
70.695412
 20
128.422836
 30
0.0
 70
    48
  0
VERTEX
  5
193
100
AcDbEntity
  8
0
390
0
100
AcDbVertex
100
AcDb3dPolylineVertex
 10
70.682762
 20
128.370224
 30
0.0
 70
    48
  0
VERTEX
  5
194
100
AcDbEntity
  8
0
390
0
100
AcDbVertex
100
AcDb3dPolylineVertex
 10
70.682762
 20
128.370224
 30
0.0
 70
    48
  0
VERTEX
  5
195
100
AcDbEntity
  8
0
390
0
100
AcDbVertex
100
AcDb3dPolylineVertex
 10
70.682762
 20
127.870224
 30
0.0
 70
    40
  0
VERTEX
  5
196
100
AcDbEntity
  8
0
390
0
100
AcDbVertex
100
AcDb3dPolylineVertex
 10
70.682762
 20
128.370224
 30
0.0
 70
    48
  0
VERTEX
  5
197
100
AcDbEntity
  8
0
390
0
100
AcDbVertex
100
AcDb3dPolylineVertex
 10
70.682762
 20
127.870224
 30
0.0
 70
    48
  0
VERTEX
  5
198
100
AcDbEntity
  8
0
390
0
100
AcDbVertex
100
AcDb3dPolylineVertex
 10
70.682762
 20
127.870224
 30
0.0
 70
    48
  0
VERTEX
  5
199
100
AcDbEntity
  8
0
390
0
100
AcDbVertex
100
AcDb3dPolylineVertex
 10
70.682762
 20
114.120224
 30
0.0
 70
    40
  0
VERTEX
  5
19A
100
AcDbEntity
  8
0
390
0
100
AcDbVertex
100
AcDb3dPolylineVertex
 10
70.682762
 20
127.870224
 30
0.0
 70
    48
  0
VERTEX
  5
19B
100
AcDbEntity
  8
0
390
0
100
AcDbVertex
100
AcDb3dPolylineVertex
 10
70.682762
 20
114.120224
 30
0.0
 70
    48
  0
VERTEX
  5
19C
100
AcDbEntity
  8
0
390
0
100
AcDbVertex
100
AcDb3dPolylineVertex
 10
70.682762
 20
114.120224
 30
0.0
 70
    48
  0
VERTEX
  5
19D
100
AcDbEntity
  8
0
390
0
100
AcDbVertex
100
AcDb3dPolylineVertex
 10
70.682762
 20
113.620224
 30
0.0
 70
    40
  0
VERTEX
  5
19E
100
AcDbEntity
  8
0
390
0
100
AcDbVertex
100
AcDb3dPolylineVertex
 10
70.682762
 20
114.120224
 30
0.0
 70
    48
  0
VERTEX
  5
19F
100
AcDbEntity
  8
0
390
0
100
AcDbVertex
100
AcDb3dPolylineVertex
 10
70.682762
 20
113.620224
 30
0.0
 70
    48
  0
VERTEX
  5
1A0
100
AcDbEntity
  8
0
390
0
100
AcDbVertex
100
AcDb3dPolylineVertex
 10
70.682762
 20
113.620224
 30
0.0
 70
    48
  0
SEQEND
  5
1A1
100
AcDbEntity
  8
0
390
0
  0
ELLIPSE
  5
1A2
100
AcDbEntity
  8
ARMATUR
390
0
  6
DURCHGEHEND
 62
     1
100
AcDbEllipse
 10
156.7547
 20
126.117355
 30
0.0
 11
0.1473991721868515
 21
-0.1292096407992676
 31
0.0
210
0.0
220
0.0
230
1.0
 40
0.773856
 41
0.0
 42
0.5707226787198054
  0
ELLIPSE
  5
1A3
100
AcDbEntity
  8
ARMATUR
390
0
  6
DURCHGEHEND
 62
     1
100
AcDbEllipse
 10
156.7547
 20
126.117355
 30
0.0
 11
0.1473991721868515
 21
-0.1292096407992676
 31
0.0
210
0.0
220
0.0
230
1.0
 40
0.773856
 41
5.6110588418124907
 42
6.2831853072000001
  0
ELLIPSE
  5
1A4
100
AcDbEntity
  8
ARMATUR
390
0
  6
DURCHGEHEND
 62
     1
100
AcDbEllipse
 10
145.807678
 20
126.070145
 30
0.0
 11
0.0926213040947914
 21
-0.0838740278885104
 31
0.0
210
0.0
220
0.0
230
1.0
 40
0.999465
 41
3.8770743897401556
 42
5.4485687310618678
  0
ELLIPSE
  5
1A5
100
AcDbEntity
  8
ARMATUR
390
0
  6
DURCHGEHEND
 62
     1
100
AcDbEllipse
 10
156.807953
 20
128.370438
 30
0.0
 11
0.0921712890267372
 21
-0.0842778876291884
 31
0.0
210
0.0
220
0.0
230
1.0
 40
0.998632
 41
0.7398450592701557
 42
2.3123868218485994
  0
ELLIPSE
  5
1A6
100
AcDbEntity
  8
ARMATUR
390
0
  6
DURCHGEHEND
 62
     1
100
AcDbEllipse
 10
145.807587
 20
113.620071
 30
0.0
 11
-0.0875709354877472
 21
0.0890699260145994
 31
0.0
210
0.0
220
0.0
230
1.0
 40
0.998928
 41
0.7932521583498055
 42
2.3654447139303114
  0
ELLIPSE
  5
1A7
100
AcDbEntity
  8
ARMATUR
390
0
  6
DURCHGEHEND
 62
     1
100
AcDbEllipse
 10
145.807556
 20
128.370438
 30
0.0
 11
0.0921600237488747
 21
0.0842675910046031
 31
0.0
210
0.0
220
0.0
230
1.0
 40
0.998632
 41
0.829205898330428
 42
2.4017475943298443
  0
LINE
  5
1A8
100
AcDbEntity
  8
ARMATUR
390
0
  6
DURCHGEHEND
 62
     1
100
AcDbLine
 10
145.682755
 20
128.22023
 30
0.0
 11
145.682755
 21
128.370224
 31
0.0
  0
LINE
  5
1A9
100
AcDbEntity
  8
ARMATUR
390
0
  6
DURCHGEHEND
 62
     1
100
AcDbLine
 10
145.682755
 20
125.923782
 30
0.0
 11
145.682755
 21
126.070236
 31
0.0
  0
LINE
  5
1AA
100
AcDbEntity
  8
ARMATUR
390
0
  6
DURCHGEHEND
 62
     1
100
AcDbLine
 10
156.93277
 20
125.923782
 30
0.0
 11
156.93277
 21
126.070236
 31
0.0
  0
LINE
  5
1AB
100
AcDbEntity
  8
ARMATUR
390
0
  6
DURCHGEHEND
 62
     1
100
AcDbLine
 10
156.864594
 20
125.958893
 30
0.0
 11
156.919098
 21
126.013412
 31
0.0
  0
LINE
  5
1AC
100
AcDbEntity
  8
ARMATUR
390
0
  6
DURCHGEHEND
 62
     1
100
AcDbLine
 10
145.807755
 20
125.945236
 30
0.0
 11
156.80777
 21
125.945236
 31
0.0
  0
LINE
  5
1AD
100
AcDbEntity
  8
ARMATUR
390
0
  6
DURCHGEHEND
 62
     1
100
AcDbLine
 10
145.682755
 20
126.22023
 30
0.0
 11
145.682755
 21
126.070236
 31
0.0
  0
LINE
  5
1AE
100
AcDbEntity
  8
ARMATUR
390
0
  6
DURCHGEHEND
 62
     1
100
AcDbLine
 10
156.928497
 20
128.402573
 30
0.0
 11
156.920105
 21
128.422836
 31
0.0
  0
LINE
  5
1AF
100
AcDbEntity
  8
ARMATUR
390
0
  6
DURCHGEHEND
 62
     1
100
AcDbLine
 10
156.93277
 20
128.370224
 30
0.0
 11
156.93277
 21
113.495224
 31
0.0
  0
LINE
  5
1B0
100
AcDbEntity
  8
ARMATUR
390
0
  6
DURCHGEHEND
 62
     1
100
AcDbLine
 10
145.807755
 20
113.495224
 30
0.0
 11
156.93277
 21
113.495224
 31
0.0
  0
LINE
  5
1B1
100
AcDbEntity
  8
ARMATUR
390
0
  6
DURCHGEHEND
 62
     1
100
AcDbLine
 10
145.682755
 20
128.370224
 30
0.0
 11
145.682755
 21
113.620224
 31
0.0
  0
POLYLINE
  5
1B2
100
AcDbEntity
  8
ARMATUR
390
0
  6
DURCHGEHEND
 62
     1
100
AcDb3dPolyline
 66
     1
 10
0.0
 20
0.0
 30
0.0
 70
    12
 75
     5
  0
VERTEX
  5
1B3
100
AcDbEntity
  8
0
390
0
100
AcDbVertex
100
AcDb3dPolylineVertex
 10
145.682755
 20
126.032181
 30
0.0
 70
    48
  0
VERTEX
  5
1B4
100
AcDbEntity
  8
0
390
0
100
AcDbVertex
100
AcDb3dPolylineVertex
 10
145.682755
 20
126.032181
 30
0.0
 70
    40
  0
VERTEX
  5
1B5
100
AcDbEntity
  8
0
390
0
100
AcDbVertex
100
AcDb3dPolylineVertex
 10
145.682755
 20
126.070236
 30
0.0
 70
    40
  0
VERTEX
  5
1B6
100
AcDbEntity
  8
0
390
0
100
AcDbVertex
100
AcDb3dPolylineVertex
 10
145.682755
 20
126.032181
 30
0.0
 70
    48
  0
VERTEX
  5
1B7
100
AcDbEntity
  8
0
390
0
100
AcDbVertex
100
AcDb3dPolylineVertex
 10
145.682755
 20
126.070236
 30
0.0
 70
    48
  0
VERTEX
  5
1B8
100
AcDbEntity
  8
0
390
0
100
AcDbVertex
100
AcDb3dPolylineVertex
 10
145.682755
 20
126.070236
 30
0.0
 70
    48
  0
SEQEND
  5
1B9
100
AcDbEntity
  8
0
390
0
  0
POLYLINE
  5
1BA
100
AcDbEntity
  8
ARMATUR
390
0
  6
DURCHGEHEND
 62
     1
100
AcDb3dPolyline
 66
     1
 10
0.0
 20
0.0
 30
0.0
 70
    12
 75
     5
  0
VERTEX
  5
1BB
100
AcDbEntity
  8
0
390
0
100
AcDbVertex
100
AcDb3dPolylineVertex
 10
145.682755
 20
126.070236
 30
0.0
 70
    48
  0
VERTEX
  5
1BC
100
AcDbEntity
  8
0
390
0
100
AcDbVertex
100
AcDb3dPolylineVertex
 10
145.682755
 20
126.070236
 30
0.0
 70
    40
  0
VERTEX
  5
1BD
100
AcDbEntity
  8
0
390
0
100
AcDbVertex
100
AcDb3dPolylineVertex
 10
145.682755
 20
125.985962
 30
0.0
 70
    40
  0
VERTEX
  5
1BE
100
AcDbEntity
  8
0
390
0
100
AcDbVertex
100
AcDb3dPolylineVertex
 10
145.682755
 20
126.070236
 30
0.0
 70
    48
  0
VERTEX
  5
1BF
100
AcDbEntity
  8
0
390
0
100
AcDbVertex
100
AcDb3dPolylineVertex
 10
145.682755
 20
125.985962
 30
0.0
 70
    48
  0
VERTEX
  5
1C0
100
AcDbEntity
  8
0
390
0
100
AcDbVertex
100
AcDb3dPolylineVertex
 10
145.682755
 20
125.985962
 30
0.0
 70
    48
  0
SEQEND
  5
1C1
100
AcDbEntity
  8
0
390
0
  0
POLYLINE
  5
1C2
100
AcDbEntity
  8
ARMATUR
390
0
  6
DURCHGEHEND
 62
     1
100
AcDb3dPolyline
 66
     1
 10
0.0
 20
0.0
 30
0.0
 70
    12
 75
     5
  0
VERTEX
  5
1C3
100
AcDbEntity
  8
0
390
0
100
AcDbVertex
100
AcDb3dPolylineVertex
 10
156.93277
 20
126.070236
 30
0.0
 70
    48
  0
VERTEX
  5
1C4
100
AcDbEntity
  8
0
390
0
100
AcDbVertex
100
AcDb3dPolylineVertex
 10
156.93277
 20
126.070236
 30
0.0
 70
    40
  0
VERTEX
  5
1C5
100
AcDbEntity
  8
0
390
0
100
AcDbVertex
100
AcDb3dPolylineVertex
 10
156.93277
 20
125.985977
 30
0.0
 70
    40
  0
VERTEX
  5
1C6
100
AcDbEntity
  8
0
390
0
100
AcDbVertex
100
AcDb3dPolylineVertex
 10
156.93277
 20
126.070236
 30
0.0
 70
    48
  0
VERTEX
  5
1C7
100
AcDbEntity
  8
0
390
0
100
AcDbVertex
100
AcDb3dPolylineVertex
 10
156.93277
 20
125.985977
 30
0.0
 70
    48
  0
VERTEX
  5
1C8
100
AcDbEntity
  8
0
390
0
100
AcDbVertex
100
AcDb3dPolylineVertex
 10
156.93277
 20
125.985977
 30
0.0
 70
    48
  0
SEQEND
  5
1C9
100
AcDbEntity
  8
0
390
0
  0
POLYLINE
  5
1CA
100
AcDbEntity
  8
ARMATUR
390
0
  6
DURCHGEHEND
 62
     1
100
AcDb3dPolyline
 66
     1
 10
0.0
 20
0.0
 30
0.0
 70
    12
 75
     5
  0
VERTEX
  5
1CB
100
AcDbEntity
  8
0
390
0
100
AcDbVertex
100
AcDb3dPolylineVertex
 10
156.80777
 20
128.495224
 30
0.0
 70
    48
  0
VERTEX
  5
1CC
100
AcDbEntity
  8
0
390
0
100
AcDbVertex
100
AcDb3dPolylineVertex
 10
156.80777
 20
128.495224
 30
0.0
 70
    40
  0
VERTEX
  5
1CD
100
AcDbEntity
  8
0
390
0
100
AcDbVertex
100
AcDb3dPolylineVertex
 10
156.843018
 20
128.484863
 30
0.0
 70
    40
  0
VERTEX
  5
1CE
100
AcDbEntity
  8
0
390
0
100
AcDbVertex
100
AcDb3dPolylineVertex
 10
156.870911
 20
128.471893
 30
0.0
 70
    40
  0
VERTEX
  5
1CF
100
AcDbEntity
  8
0
390
0
100
AcDbVertex
100
AcDb3dPolylineVertex
 10
156.892654
 20
128.455124
 30
0.0
 70
    40
  0
VERTEX
  5
1D0
100
AcDbEntity
  8
0
390
0
100
AcDbVertex
100
AcDb3dPolylineVertex
 10
156.909424
 20
128.43338
 30
0.0
 70
    40
  0
VERTEX
  5
1D1
100
AcDbEntity
  8
0
390
0
100
AcDbVertex
100
AcDb3dPolylineVertex
 10
156.922394
 20
128.405472
 30
0.0
 70
    40
  0
VERTEX
  5
1D2
100
AcDbEntity
  8
0
390
0
100
AcDbVertex
100
AcDb3dPolylineVertex
 10
156.93277
 20
128.370224
 30
0.0
 70
    40
  0
VERTEX
  5
1D3
100
AcDbEntity
  8
0
390
0
100
AcDbVertex
100
AcDb3dPolylineVertex
 10
156.886383
 20
128.476334
 30
0.0
 70
    48
  0
VERTEX
  5
1D4
100
AcDbEntity
  8
0
390
0
100
AcDbVertex
100
AcDb3dPolylineVertex
 10
156.913849
 20
128.448837
 30
0.0
 70
    48
  0
VERTEX
  5
1D5
100
AcDbEntity
  8
0
390
0
100
AcDbVertex
100
AcDb3dPolylineVertex
 10
156.93277
 20
128.370224
 30
0.0
 70
    48
  0
SEQEND
  5
1D6
100
AcDbEntity
  8
0
390
0
  0
POLYLINE
  5
1D7
100
AcDbEntity
  8
ARMATUR
390
0
  6
DURCHGEHEND
 62
     1
100
AcDb3dPolyline
 66
     1
 10
0.0
 20
0.0
 30
0.0
 70
    12
 75
     5
  0
VERTEX
  5
1D8
100
AcDbEntity
  8
0
390
0
100
AcDbVertex
100
AcDb3dPolylineVertex
 10
155.43277
 20
128.495224
 30
0.0
 70
    48
  0
VERTEX
  5
1D9
100
AcDbEntity
  8
0
390
0
100
AcDbVertex
100
AcDb3dPolylineVertex
 10
155.43277
 20
128.495224
 30
0.0
 70
    40
  0
VERTEX
  5
1DA
100
AcDbEntity
  8
0
390
0
100
AcDbVertex
100
AcDb3dPolylineVertex
 10
155.661926
 20
128.495224
 30
0.0
 70
    40
  0
VERTEX
  5
1DB
100
AcDbEntity
  8
0
390
0
100
AcDbVertex
100
AcDb3dPolylineVertex
 10
155.891098
 20
128.495224
 30
0.0
 70
    40
  0
VERTEX
  5
1DC
100
AcDbEntity
  8
0
390
0
100
AcDbVertex
100
AcDb3dPolylineVertex
 10
156.120255
 20
128.495224
 30
0.0
 70
    40
  0
VERTEX
  5
1DD
100
AcDbEntity
  8
0
390
0
100
AcDbVertex
100
AcDb3dPolylineVertex
 10
156.349426
 20
128.495224
 30
0.0
 70
    40
  0
VERTEX
  5
1DE
100
AcDbEntity
  8
0
390
0
100
AcDbVertex
100
AcDb3dPolylineVertex
 10
156.578598
 20
128.495224
 30
0.0
 70
    40
  0
VERTEX
  5
1DF
100
AcDbEntity
  8
0
390
0
100
AcDbVertex
100
AcDb3dPolylineVertex
 10
156.80777
 20
128.495224
 30
0.0
 70
    40
  0
VERTEX
  5
1E0
100
AcDbEntity
  8
0
390
0
100
AcDbVertex
100
AcDb3dPolylineVertex
 10
155.891083
 20
128.495224
 30
0.0
 70
    48
  0
VERTEX
  5
1E1
100
AcDbEntity
  8
0
390
0
100
AcDbVertex
100
AcDb3dPolylineVertex
 10
156.349426
 20
128.495224
 30
0.0
 70
    48
  0
VERTEX
  5
1E2
100
AcDbEntity
  8
0
390
0
100
AcDbVertex
100
AcDb3dPolylineVertex
 10
156.80777
 20
128.495224
 30
0.0
 70
    48
  0
VERTEX
  5
1E3
100
AcDbEntity
  8
0
390
0
100
AcDbVertex
100
AcDb3dPolylineVertex
 10
145.807755
 20
128.495224
 30
0.0
 70
    40
  0
VERTEX
  5
1E4
100
AcDbEntity
  8
0
390
0
100
AcDbVertex
100
AcDb3dPolylineVertex
 10
156.80777
 20
128.495224
 30
0.0
 70
    48
  0
VERTEX
  5
1E5
100
AcDbEntity
  8
0
390
0
100
AcDbVertex
100
AcDb3dPolylineVertex
 10
145.807755
 20
128.495224
 30
0.0
 70
    48
  0
VERTEX
  5
1E6
100
AcDbEntity
  8
0
390
0
100
AcDbVertex
100
AcDb3dPolylineVertex
 10
145.807755
 20
128.495224
 30
0.0
 70
    48
  0
SEQEND
  5
1E7
100
AcDbEntity
  8
0
390
0
  0
ELLIPSE
  5
1E8
100
AcDbEntity
  8
ARMATUR
390
0
  6
DURCHGEHEND
 62
     1
100
AcDbEllipse
 10
211.065536
 20
128.323349
 30
0.0
 11
0.147211104631424
 21
0.1289148838464385
 31
0.0
210
0.0
220
0.0
230
1.0
 40
0.774594
 41
0.0
 42
0.6731734871700779
  0
ELLIPSE
  5
1E9
100
AcDbEntity
  8
ARMATUR
390
0
  6
DURCHGEHEND
 62
     1
100
AcDbEllipse
 10
211.065536
 20
128.323349
 30
0.0
 11
0.147211104631424
 21
0.1289148838464385
 31
0.0
210
0.0
220
0.0
230
1.0
 40
0.774594
 41
5.7124624287431125
 42
6.2831853072000001
  0
ELLIPSE
  5
1EA
100
AcDbEntity
  8
ARMATUR
390
0
  6
DURCHGEHEND
 62
     1
100
AcDbEllipse
 10
193.668304
 20
113.620285
 30
0.0
 11
-0.0824052020907402
 21
0.0941131168964702
 31
0.0
210
0.0
220
0.0
230
1.0
 40
0.999524
 41
2.4228661954581323
 42
3.9929642414203115
  0
ELLIPSE
  5
1EB
100
AcDbEntity
  8
ARMATUR
390
0
  6
DURCHGEHEND
 62
     1
100
AcDbEllipse
 10
191.36821
 20
113.620071
 30
0.0
 11
-0.0875709354877472
 21
0.0890699260145994
 31
0.0
210
0.0
220
0.0
230
1.0
 40
0.998928
 41
0.7932521583498055
 42
2.3654447139303114
  0
ELLIPSE
  5
1EC
100
AcDbEntity
  8
ARMATUR
390
0
  6
DURCHGEHEND
 62
     1
100
AcDbEllipse
 10
194.043442
 20
125.761551
 30
0.0
 11
0.2079182416200638
 21
0.1393378988229938
 31
0.0
210
0.0
220
0.0
230
1.0
 40
0.584108
 41
0.6037093909299611
 42
2.5427702298493773
  0
ELLIPSE
  5
1ED
100
AcDbEntity
  8
ARMATUR
390
0
  6
DURCHGEHEND
 62
     1
100
AcDbEllipse
 10
210.975311
 20
126.162872
 30
0.0
 11
0.2477654665708542
 21
-0.1610109280959138
 31
0.0
210
0.0
220
0.0
230
1.0
 40
0.63589
 41
0.0
 42
0.3722787281200194
  0
ELLIPSE
  5
1EE
100
AcDbEntity
  8
ARMATUR
390
0
  6
DURCHGEHEND
 62
     1
100
AcDbEllipse
 10
210.975311
 20
126.162872
 30
0.0
 11
0.2477654665708542
 21
-0.1610109280959138
 31
0.0
210
0.0
220
0.0
230
1.0
 40
0.63589
 41
5.247855867081868
 42
6.2831853072000001
  0
ELLIPSE
  5
1EF
100
AcDbEntity
  8
ARMATUR
390
0
  6
DURCHGEHEND
 62
     1
100
AcDbEllipse
 10
191.368118
 20
128.370468
 30
0.0
 11
0.0858204290270805
 21
0.090715770171593
 31
0.0
210
0.0
220
0.0
230
1.0
 40
0.998387
 41
0.7566002041103891
 42
2.3294909739496887
  0
LINE
  5
1F0
100
AcDbEntity
  8
ARMATUR
390
0
  6
DURCHGEHEND
 62
     1
100
AcDbLine
 10
211.229706
 20
128.427048
 30
0.0
 11
211.175186
 21
128.481552
 31
0.0
  0
LINE
  5
1F1
100
AcDbEntity
  8
ARMATUR
390
0
  6
DURCHGEHEND
 62
     1
100
AcDbLine
 10
191.243362
 20
116.248032
 30
0.0
 11
191.243362
 21
113.620224
 31
0.0
  0
LINE
  5
1F2
100
AcDbEntity
  8
ARMATUR
390
0
  6
DURCHGEHEND
 62
     1
100
AcDbLine
 10
191.243362
 20
116.109406
 30
0.0
 11
191.243362
 21
113.620224
 31
0.0
  0
LINE
  5
1F3
100
AcDbEntity
  8
ARMATUR
390
0
  6
DURCHGEHEND
 62
     1
100
AcDbLine
 10
191.243362
 20
116.024048
 30
0.0
 11
191.243362
 21
113.620224
 31
0.0
  0
LINE
  5
1F4
100
AcDbEntity
  8
ARMATUR
390
0
  6
DURCHGEHEND
 62
     1
100
AcDbLine
 10
191.243362
 20
116.434555
 30
0.0
 11
191.243362
 21
113.620224
 31
0.0
  0
LINE
  5
1F5
100
AcDbEntity
  8
ARMATUR
390
0
  6
DURCHGEHEND
 62
     1
100
AcDbLine
 10
191.243362
 20
117.202591
 30
0.0
 11
191.243362
 21
113.620224
 31
0.0
  0
LINE
  5
1F6
100
AcDbEntity
  8
ARMATUR
390
0
  6
DURCHGEHEND
 62
     1
100
AcDbLine
 10
191.243362
 20
116.66188
 30
0.0
 11
191.243362
 21
113.620224
 31
0.0
  0
LINE
  5
1F7
100
AcDbEntity
  8
ARMATUR
390
0
  6
DURCHGEHEND
 62
     1
100
AcDbLine
 10
191.243362
 20
117.495224
 30
0.0
 11
191.243362
 21
113.620224
 31
0.0
  0
LINE
  5
1F8
100
AcDbEntity
  8
ARMATUR
390
0
  6
DURCHGEHEND
 62
     1
100
AcDbLine
 10
191.243362
 20
116.921188
 30
0.0
 11
191.243362
 21
113.620224
 31
0.0
  0
LINE
  5
1F9
100
AcDbEntity
  8
ARMATUR
390
0
  6
DURCHGEHEND
 62
     1
100
AcDbLine
 10
191.243362
 20
113.620224
 30
0.0
 11
191.243362
 21
128.370224
 31
0.0
  0
LINE
  5
1FA
100
AcDbEntity
  8
ARMATUR
390
0
  6
DURCHGEHEND
 62
     1
100
AcDbLine
 10
191.243362
 20
125.742416
 30
0.0
 11
191.243362
 21
128.370224
 31
0.0
  0
LINE
  5
1FB
100
AcDbEntity
  8
ARMATUR
390
0
  6
DURCHGEHEND
 62
     1
100
AcDbLine
 10
191.243362
 20
125.06926
 30
0.0
 11
191.243362
 21
128.370224
 31
0.0
  0
LINE
  5
1FC
100
AcDbEntity
  8
ARMATUR
390
0
  6
DURCHGEHEND
 62
     1
100
AcDbLine
 10
191.243362
 20
125.555893
 30
0.0
 11
191.243362
 21
128.370224
 31
0.0
  0
LINE
  5
1FD
100
AcDbEntity
  8
ARMATUR
390
0
  6
DURCHGEHEND
 62
     1
100
AcDbLine
 10
191.243362
 20
124.787857
 30
0.0
 11
191.243362
 21
128.370224
 31
0.0
  0
LINE
  5
1FE
100
AcDbEntity
  8
ARMATUR
390
0
  6
DURCHGEHEND
 62
     1
100
AcDbLine
 10
191.243362
 20
125.881042
 30
0.0
 11
191.243362
 21
128.370224
 31
0.0
  0
LINE
  5
1FF
100
AcDbEntity
  8
ARMATUR
390
0
  6
DURCHGEHEND
 62
     1
100
AcDbLine
 10
191.243362
 20
113.620224
 30
0.0
 11
191.243362
 21
128.370224
 31
0.0
  0
LINE
  5
200
100
AcDbEntity
  8
ARMATUR
390
0
  6
DURCHGEHEND
 62
     1
100
AcDbLine
 10
191.243362
 20
125.328568
 30
0.0
 11
191.243362
 21
128.370224
 31
0.0
  0
LINE
  5
201
100
AcDbEntity
  8
ARMATUR
390
0
  6
DURCHGEHEND
 62
     1
100
AcDbLine
 10
191.368362
 20
113.495224
 30
0.0
 11
193.668365
 21
113.495224
 31
0.0
  0
LINE
  5
202
100
AcDbEntity
  8
ARMATUR
390
0
  6
DURCHGEHEND
 62
     1
100
AcDbLine
 10
191.243362
 20
128.370224
 30
0.0
 11
191.243362
 21
113.620224
 31
0.0
  0
LINE
  5
203
100
AcDbEntity
  8
ARMATUR
390
0
  6
DURCHGEHEND
 62
     1
100
AcDbLine
 10
211.175186
 20
125.958878
 30
0.0
 11
211.229706
 21
126.013397
 31
0.0
  0
LINE
  5
204
100
AcDbEntity
  8
ARMATUR
390
0
  6
DURCHGEHEND
 62
     1
100
AcDbLine
 10
191.243362
 20
125.9664
 30
0.0
 11
191.243362
 21
128.370224
 31
0.0
  0
POLYLINE
  5
205
100
AcDbEntity
  8
ARMATUR
390
0
  6
DURCHGEHEND
 62
     1
100
AcDb3dPolyline
 66
     1
 10
0.0
 20
0.0
 30
0.0
 70
    12
 75
     5
  0
VERTEX
  5
206
100
AcDbEntity
  8
0
390
0
100
AcDbVertex
100
AcDb3dPolylineVertex
 10
193.793365
 20
113.620224
 30
0.0
 70
    48
  0
VERTEX
  5
207
100
AcDbEntity
  8
0
390
0
100
AcDbVertex
100
AcDb3dPolylineVertex
 10
193.793365
 20
113.620224
 30
0.0
 70
    40
  0
VERTEX
  5
208
100
AcDbEntity
  8
0
390
0
100
AcDbVertex
100
AcDb3dPolylineVertex
 10
193.793365
 20
114.120224
 30
0.0
 70
    40
  0
VERTEX
  5
209
100
AcDbEntity
  8
0
390
0
100
AcDbVertex
100
AcDb3dPolylineVertex
 10
193.793365
 20
113.620224
 30
0.0
 70
    48
  0
VERTEX
  5
20A
100
AcDbEntity
  8
0
390
0
100
AcDbVertex
100
AcDb3dPolylineVertex
 10
193.793365
 20
114.120224
 30
0.0
 70
    48
  0
VERTEX
  5
20B
100
AcDbEntity
  8
0
390
0
100
AcDbVertex
100
AcDb3dPolylineVertex
 10
193.793365
 20
114.120224
 30
0.0
 70
    48
  0
VERTEX
  5
20C
100
AcDbEntity
  8
0
390
0
100
AcDbVertex
100
AcDb3dPolylineVertex
 10
193.793365
 20
125.070236
 30
0.0
 70
    40
  0
VERTEX
  5
20D
100
AcDbEntity
  8
0
390
0
100
AcDbVertex
100
AcDb3dPolylineVertex
 10
193.793365
 20
114.120224
 30
0.0
 70
    48
  0
VERTEX
  5
20E
100
AcDbEntity
  8
0
390
0
100
AcDbVertex
100
AcDb3dPolylineVertex
 10
193.793365
 20
125.070236
 30
0.0
 70
    48
  0
VERTEX
  5
20F
100
AcDbEntity
  8
0
390
0
100
AcDbVertex
100
AcDb3dPolylineVertex
 10
193.793365
 20
125.070236
 30
0.0
 70
    48
  0
VERTEX
  5
210
100
AcDbEntity
  8
0
390
0
100
AcDbVertex
100
AcDb3dPolylineVertex
 10
193.790649
 20
125.197411
 30
0.0
 70
    40
  0
VERTEX
  5
211
100
AcDbEntity
  8
0
390
0
100
AcDbVertex
100
AcDb3dPolylineVertex
 10
193.785736
 20
125.315147
 30
0.0
 70
    40
  0
VERTEX
  5
212
100
AcDbEntity
  8
0
390
0
100
AcDbVertex
100
AcDb3dPolylineVertex
 10
193.783478
 20
125.426544
 30
0.0
 70
    40
  0
VERTEX
  5
213
100
AcDbEntity
  8
0
390
0
100
AcDbVertex
100
AcDb3dPolylineVertex
 10
193.788742
 20
125.534691
 30
0.0
 70
    40
  0
VERTEX
  5
214
100
AcDbEntity
  8
0
390
0
100
AcDbVertex
100
AcDb3dPolylineVertex
 10
193.806381
 20
125.642685
 30
0.0
 70
    40
  0
VERTEX
  5
215
100
AcDbEntity
  8
0
390
0
100
AcDbVertex
100
AcDb3dPolylineVertex
 10
193.841263
 20
125.753616
 30
0.0
 70
    40
  0
VERTEX
  5
216
100
AcDbEntity
  8
0
390
0
100
AcDbVertex
100
AcDb3dPolylineVertex
 10
193.793365
 20
125.336075
 30
0.0
 70
    48
  0
VERTEX
  5
217
100
AcDbEntity
  8
0
390
0
100
AcDbVertex
100
AcDb3dPolylineVertex
 10
193.751022
 20
125.526749
 30
0.0
 70
    48
  0
VERTEX
  5
218
100
AcDbEntity
  8
0
390
0
100
AcDbVertex
100
AcDb3dPolylineVertex
 10
193.841263
 20
125.753616
 30
0.0
 70
    48
  0
SEQEND
  5
219
100
AcDbEntity
  8
0
390
0
  0
POLYLINE
  5
21A
100
AcDbEntity
  8
ARMATUR
390
0
  6
DURCHGEHEND
 62
     1
100
AcDb3dPolyline
 66
     1
 10
0.0
 20
0.0
 30
0.0
 70
    12
 75
     5
  0
VERTEX
  5
21B
100
AcDbEntity
  8
0
390
0
100
AcDbVertex
100
AcDb3dPolylineVertex
 10
194.168365
 20
125.945236
 30
0.0
 70
    48
  0
VERTEX
  5
21C
100
AcDbEntity
  8
0
390
0
100
AcDbVertex
100
AcDb3dPolylineVertex
 10
194.168365
 20
125.945236
 30
0.0
 70
    40
  0
VERTEX
  5
21D
100
AcDbEntity
  8
0
390
0
100
AcDbVertex
100
AcDb3dPolylineVertex
 10
194.668365
 20
125.945236
 30
0.0
 70
    40
  0
VERTEX
  5
21E
100
AcDbEntity
  8
0
390
0
100
AcDbVertex
100
AcDb3dPolylineVertex
 10
194.168365
 20
125.945236
 30
0.0
 70
    48
  0
VERTEX
  5
21F
100
AcDbEntity
  8
0
390
0
100
AcDbVertex
100
AcDb3dPolylineVertex
 10
194.668365
 20
125.945236
 30
0.0
 70
    48
  0
VERTEX
  5
220
100
AcDbEntity
  8
0
390
0
100
AcDbVertex
100
AcDb3dPolylineVertex
 10
194.668365
 20
125.945236
 30
0.0
 70
    48
  0
VERTEX
  5
221
100
AcDbEntity
  8
0
390
0
100
AcDbVertex
100
AcDb3dPolylineVertex
 10
210.618362
 20
125.945221
 30
0.0
 70
    40
  0
VERTEX
  5
222
100
AcDbEntity
  8
0
390
0
100
AcDbVertex
100
AcDb3dPolylineVertex
 10
194.668365
 20
125.945236
 30
0.0
 70
    48
  0
VERTEX
  5
223
100
AcDbEntity
  8
0
390
0
100
AcDbVertex
100
AcDb3dPolylineVertex
 10
210.618362
 20
125.945221
 30
0.0
 70
    48
  0
VERTEX
  5
224
100
AcDbEntity
  8
0
390
0
100
AcDbVertex
100
AcDb3dPolylineVertex
 10
210.618362
 20
125.945221
 30
0.0
 70
    48
  0
VERTEX
  5
225
100
AcDbEntity
  8
0
390
0
100
AcDbVertex
100
AcDb3dPolylineVertex
 10
211.118362
 20
125.945221
 30
0.0
 70
    40
  0
VERTEX
  5
226
100
AcDbEntity
  8
0
390
0
100
AcDbVertex
100
AcDb3dPolylineVertex
 10
210.618362
 20
125.945221
 30
0.0
 70
    48
  0
VERTEX
  5
227
100
AcDbEntity
  8
0
390
0
100
AcDbVertex
100
AcDb3dPolylineVertex
 10
211.118362
 20
125.945221
 30
0.0
 70
    48
  0
VERTEX
  5
228
100
AcDbEntity
  8
0
390
0
100
AcDbVertex
100
AcDb3dPolylineVertex
 10
211.118362
 20
125.945221
 30
0.0
 70
    48
  0
VERTEX
  5
229
100
AcDbEntity
  8
0
390
0
100
AcDbVertex
100
AcDb3dPolylineVertex
 10
211.170975
 20
125.95787
 30
0.0
 70
    40
  0
VERTEX
  5
22A
100
AcDbEntity
  8
0
390
0
100
AcDbVertex
100
AcDb3dPolylineVertex
 10
211.118362
 20
125.945221
 30
0.0
 70
    48
  0
VERTEX
  5
22B
100
AcDbEntity
  8
0
390
0
100
AcDbVertex
100
AcDb3dPolylineVertex
 10
211.170975
 20
125.95787
 30
0.0
 70
    48
  0
VERTEX
  5
22C
100
AcDbEntity
  8
0
390
0
100
AcDbVertex
100
AcDb3dPolylineVertex
 10
211.170975
 20
125.95787
 30
0.0
 70
    48
  0
SEQEND
  5
22D
100
AcDbEntity
  8
0
390
0
  0
POLYLINE
  5
22E
100
AcDbEntity
  8
ARMATUR
390
0
  6
DURCHGEHEND
 62
     1
100
AcDb3dPolyline
 66
     1
 10
0.0
 20
0.0
 30
0.0
 70
    12
 75
     5
  0
VERTEX
  5
22F
100
AcDbEntity
  8
0
390
0
100
AcDbVertex
100
AcDb3dPolylineVertex
 10
211.230728
 20
128.422836
 30
0.0
 70
    48
  0
VERTEX
  5
230
100
AcDbEntity
  8
0
390
0
100
AcDbVertex
100
AcDb3dPolylineVertex
 10
211.230728
 20
128.422836
 30
0.0
 70
    40
  0
VERTEX
  5
231
100
AcDbEntity
  8
0
390
0
100
AcDbVertex
100
AcDb3dPolylineVertex
 10
211.243362
 20
128.370224
 30
0.0
 70
    40
  0
VERTEX
  5
232
100
AcDbEntity
  8
0
390
0
100
AcDbVertex
100
AcDb3dPolylineVertex
 10
211.230728
 20
128.422836
 30
0.0
 70
    48
  0
VERTEX
  5
233
100
AcDbEntity
  8
0
390
0
100
AcDbVertex
100
AcDb3dPolylineVertex
 10
211.243362
 20
128.370224
 30
0.0
 70
    48
  0
VERTEX
  5
234
100
AcDbEntity
  8
0
390
0
100
AcDbVertex
100
AcDb3dPolylineVertex
 10
211.243362
 20
128.370224
 30
0.0
 70
    48
  0
VERTEX
  5
235
100
AcDbEntity
  8
0
390
0
100
AcDbVertex
100
AcDb3dPolylineVertex
 10
211.243362
 20
127.870224
 30
0.0
 70
    40
  0
VERTEX
  5
236
100
AcDbEntity
  8
0
390
0
100
AcDbVertex
100
AcDb3dPolylineVertex
 10
211.243362
 20
128.370224
 30
0.0
 70
    48
  0
VERTEX
  5
237
100
AcDbEntity
  8
0
390
0
100
AcDbVertex
100
AcDb3dPolylineVertex
 10
211.243362
 20
127.870224
 30
0.0
 70
    48
  0
VERTEX
  5
238
100
AcDbEntity
  8
0
390
0
100
AcDbVertex
100
AcDb3dPolylineVertex
 10
211.243362
 20
127.870224
 30
0.0
 70
    48
  0
VERTEX
  5
239
100
AcDbEntity
  8
0
390
0
100
AcDbVertex
100
AcDb3dPolylineVertex
 10
211.243362
 20
126.570236
 30
0.0
 70
    40
  0
VERTEX
  5
23A
100
AcDbEntity
  8
0
390
0
100
AcDbVertex
100
AcDb3dPolylineVertex
 10
211.243362
 20
127.870224
 30
0.0
 70
    48
  0
VERTEX
  5
23B
100
AcDbEntity
  8
0
390
0
100
AcDbVertex
100
AcDb3dPolylineVertex
 10
211.243362
 20
126.570236
 30
0.0
 70
    48
  0
VERTEX
  5
23C
100
AcDbEntity
  8
0
390
0
100
AcDbVertex
100
AcDb3dPolylineVertex
 10
211.243362
 20
126.570236
 30
0.0
 70
    48
  0
VERTEX
  5
23D
100
AcDbEntity
  8
0
390
0
100
AcDbVertex
100
AcDb3dPolylineVertex
 10
211.243362
 20
126.070236
 30
0.0
 70
    40
  0
VERTEX
  5
23E
100
AcDbEntity
  8
0
390
0
100
AcDbVertex
100
AcDb3dPolylineVertex
 10
211.243362
 20
126.570236
 30
0.0
 70
    48
  0
VERTEX
  5
23F
100
AcDbEntity
  8
0
390
0
100
AcDbVertex
100
AcDb3dPolylineVertex
 10
211.243362
 20
126.070236
 30
0.0
 70
    48
  0
VERTEX
  5
240
100
AcDbEntity
  8
0
390
0
100
AcDbVertex
100
AcDb3dPolylineVertex
 10
211.243362
 20
126.070236
 30
0.0
 70
    48
  0
VERTEX
  5
241
100
AcDbEntity
  8
0
390
0
100
AcDbVertex
100
AcDb3dPolylineVertex
 10
211.230728
 20
126.017624
 30
0.0
 70
    40
  0
VERTEX
  5
242
100
AcDbEntity
  8
0
390
0
100
AcDbVertex
100
AcDb3dPolylineVertex
 10
211.243362
 20
126.070236
 30
0.0
 70
    48
  0
VERTEX
  5
243
100
AcDbEntity
  8
0
390
0
100
AcDbVertex
100
AcDb3dPolylineVertex
 10
211.230728
 20
126.017624
 30
0.0
 70
    48
  0
VERTEX
  5
244
100
AcDbEntity
  8
0
390
0
100
AcDbVertex
100
AcDb3dPolylineVertex
 10
211.230728
 20
126.017624
 30
0.0
 70
    48
  0
SEQEND
  5
245
100
AcDbEntity
  8
0
390
0
  0
POLYLINE
  5
246
100
AcDbEntity
  8
ARMATUR
390
0
  6
DURCHGEHEND
 62
     1
100
AcDb3dPolyline
 66
     1
 10
0.0
 20
0.0
 30
0.0
 70
    12
 75
     5
  0
VERTEX
  5
247
100
AcDbEntity
  8
0
390
0
100
AcDbVertex
100
AcDb3dPolylineVertex
 10
191.368362
 20
128.495224
 30
0.0
 70
    48
  0
VERTEX
  5
248
100
AcDbEntity
  8
0
390
0
100
AcDbVertex
100
AcDb3dPolylineVertex
 10
191.368362
 20
128.495224
 30
0.0
 70
    40
  0
VERTEX
  5
249
100
AcDbEntity
  8
0
390
0
100
AcDbVertex
100
AcDb3dPolylineVertex
 10
191.868362
 20
128.495224
 30
0.0
 70
    40
  0
VERTEX
  5
24A
100
AcDbEntity
  8
0
390
0
100
AcDbVertex
100
AcDb3dPolylineVertex
 10
191.368362
 20
128.495224
 30
0.0
 70
    48
  0
VERTEX
  5
24B
100
AcDbEntity
  8
0
390
0
100
AcDbVertex
100
AcDb3dPolylineVertex
 10
191.868362
 20
128.495224
 30
0.0
 70
    48
  0
VERTEX
  5
24C
100
AcDbEntity
  8
0
390
0
100
AcDbVertex
100
AcDb3dPolylineVertex
 10
191.868362
 20
128.495224
 30
0.0
 70
    48
  0
VERTEX
  5
24D
100
AcDbEntity
  8
0
390
0
100
AcDbVertex
100
AcDb3dPolylineVertex
 10
210.618362
 20
128.495224
 30
0.0
 70
    40
  0
VERTEX
  5
24E
100
AcDbEntity
  8
0
390
0
100
AcDbVertex
100
AcDb3dPolylineVertex
 10
191.868362
 20
128.495224
 30
0.0
 70
    48
  0
VERTEX
  5
24F
100
AcDbEntity
  8
0
390
0
100
AcDbVertex
100
AcDb3dPolylineVertex
 10
210.618362
 20
128.495224
 30
0.0
 70
    48
  0
VERTEX
  5
250
100
AcDbEntity
  8
0
390
0
100
AcDbVertex
100
AcDb3dPolylineVertex
 10
210.618362
 20
128.495224
 30
0.0
 70
    48
  0
VERTEX
  5
251
100
AcDbEntity
  8
0
390
0
100
AcDbVertex
100
AcDb3dPolylineVertex
 10
211.118362
 20
128.495224
 30
0.0
 70
    40
  0
VERTEX
  5
252
100
AcDbEntity
  8
0
390
0
100
AcDbVertex
100
AcDb3dPolylineVertex
 10
210.618362
 20
128.495224
 30
0.0
 70
    48
  0
VERTEX
  5
253
100
AcDbEntity
  8
0
390
0
100
AcDbVertex
100
AcDb3dPolylineVertex
 10
211.118362
 20
128.495224
 30
0.0
 70
    48
  0
VERTEX
  5
254
100
AcDbEntity
  8
0
390
0
100
AcDbVertex
100
AcDb3dPolylineVertex
 10
211.118362
 20
128.495224
 30
0.0
 70
    48
  0
VERTEX
  5
255
100
AcDbEntity
  8
0
390
0
100
AcDbVertex
100
AcDb3dPolylineVertex
 10
211.170975
 20
128.482574
 30
0.0
 70
    40
  0
VERTEX
  5
256
100
AcDbEntity
  8
0
390
0
100
AcDbVertex
100
AcDb3dPolylineVertex
 10
211.118362
 20
128.495224
 30
0.0
 70
    48
  0
VERTEX
  5
257
100
AcDbEntity
  8
0
390
0
100
AcDbVertex
100
AcDb3dPolylineVertex
 10
211.170975
 20
128.482574
 30
0.0
 70
    48
  0
VERTEX
  5
258
100
AcDbEntity
  8
0
390
0
100
AcDbVertex
100
AcDb3dPolylineVertex
 10
211.170975
 20
128.482574
 30
0.0
 70
    48
  0
SEQEND
  5
259
100
AcDbEntity
  8
0
390
0
  0
LINE
  5
25A
100
AcDbEntity
  8
ACHSEN
390
0
  6
STRICHPUNKTIERT-1
 62
     4
100
AcDbLine
 10
76.307564
 20
130.377853
 30
0.0
 11
76.307564
 21
111.896301
 31
0.0
  0
LINE
  5
25B
100
AcDbEntity
  8
ACHSEN
390
0
  6
STRICHPUNKTIERT-1
 62
     4
100
AcDbLine
 10
151.307739
 20
129.826172
 30
0.0
 11
151.307739
 21
111.206696
 31
0.0
  0
LINE
  5
25C
100
AcDbEntity
  8
ACHSEN
390
0
  6
STRICHPUNKTIERT-1
 62
     4
100
AcDbLine
 10
189.625488
 20
120.995224
 30
0.0
 11
195.436676
 21
120.995224
 31
0.0
  0
LINE
  5
25D
100
AcDbEntity
  8
ACHSEN
390
0
  6
STRICHPUNKTIERT-1
 62
     4
100
AcDbLine
 10
149.503174
 20
120.999161
 30
0.0
 11
153.640839
 21
120.999161
 31
0.0
  0
LINE
  5
25E
100
AcDbEntity
  8
ACHSEN
390
0
  6
STRICHPUNKTIERT-1
 62
     4
100
AcDbLine
 10
78.197464
 20
120.999161
 30
0.0
 11
74.197723
 21
120.999161
 31
0.0
  0
LINE
  5
25F
100
AcDbEntity
  8
BEMASSUNG
390
0
  6
DURCHGEHEND
 62
     3
100
AcDbLine
 10
70.695412
 20
128.904556
 30
0.0
 11
70.695412
 21
154.741257
 31
0.0
  0
LINE
  5
260
100
AcDbEntity
  8
BEMASSUNG
390
0
  6
DURCHGEHEND
 62
     3
100
AcDbLine
 10
75.414604
 20
141.08522
 30
0.0
 11
152.546448
 21
141.08522
 31
0.0
  0
LINE
  5
261
100
AcDbEntity
  8
BEMASSUNG
390
0
  6
DURCHGEHEND
 62
     3
100
AcDbLine
 10
190.868362
 20
128.495224
 30
0.0
 11
179.959
 21
128.495224
 31
0.0
  0
LINE
  5
262
100
AcDbEntity
  8
BEMASSUNG
390
0
  6
DURCHGEHEND
 62
     3
100
AcDbLine
 10
190.868362
 20
113.495224
 30
0.0
 11
180.228012
 21
113.495224
 31
0.0
  0
LINE
  5
263
100
AcDbEntity
  8
BEMASSUNG
390
0
  6
DURCHGEHEND
 62
     3
100
AcDbLine
 10
181.235504
 20
129.71344
 30
0.0
 11
181.235504
 21
112.590027
 31
0.0
  0
LINE
  5
264
100
AcDbEntity
  8
BEMASSUNG
390
0
  6
DURCHGEHEND
 62
     3
100
AcDbLine
 10
71.75573
 20
154.757751
 30
0.0
 11
69.581841
 21
152.3116
 31
0.0
  0
LINE
  5
265
100
AcDbEntity
  8
BEMASSUNG
390
0
  6
DURCHGEHEND
 62
     3
100
AcDbLine
 10
179.989502
 20
129.600357
 30
0.0
 11
182.435608
 21
127.426468
 31
0.0
  0
LINE
  5
266
100
AcDbEntity
  8
BEMASSUNG
390
0
  6
DURCHGEHEND
 62
     3
100
AcDbLine
 10
179.888382
 20
114.711349
 30
0.0
 11
182.334518
 21
112.537491
 31
0.0
  0
LINE
  5
267
100
AcDbEntity
  8
BEMASSUNG
390
0
  6
DURCHGEHEND
 62
     3
100
AcDbLine
 10
151.307556
 20
130.859573
 30
0.0
 11
151.307556
 21
142.052536
 31
0.0
  0
LINE
  5
268
100
AcDbEntity
  8
BEMASSUNG
390
0
  6
DURCHGEHEND
 62
     3
100
AcDbLine
 10
152.367874
 20
142.261276
 30
0.0
 11
150.193985
 21
139.815109
 31
0.0
  0
LINE
  5
269
100
AcDbEntity
  8
BEMASSUNG
390
0
  6
DURCHGEHEND
 62
     3
100
AcDbLine
 10
156.945404
 20
128.904556
 30
0.0
 11
156.945404
 21
154.741257
 31
0.0
  0
LINE
  5
26A
100
AcDbEntity
  8
BEMASSUNG
390
0
  6
DURCHGEHEND
 62
     3
100
AcDbLine
 10
158.005722
 20
154.757751
 30
0.0
 11
155.831833
 21
152.3116
 31
0.0
  0
LINE
  5
26B
100
AcDbEntity
  8
BEMASSUNG
390
0
  6
DURCHGEHEND
 62
     3
100
AcDbLine
 10
76.307564
 20
130.859573
 30
0.0
 11
76.307564
 21
142.052536
 31
0.0
  0
LINE
  5
26C
100
AcDbEntity
  8
BEMASSUNG
390
0
  6
DURCHGEHEND
 62
     3
100
AcDbLine
 10
77.367882
 20
142.261276
 30
0.0
 11
75.193993
 21
139.815109
 31
0.0
  0
LINE
  5
26D
100
AcDbEntity
  8
BEMASSUNG
390
0
  6
DURCHGEHEND
 62
     3
100
AcDbLine
 10
69.435905
 20
153.586136
 30
0.0
 11
158.297546
 21
153.586136
 31
0.0
  0
LINE
  5
26E
100
AcDbEntity
  8
BEMASSUNG
390
0
  6
DURCHGEHEND
 62
     3
100
AcDbLine
 10
190.350403
 20
141.08522
 30
0.0
 11
213.321945
 21
141.08522
 31
0.0
  0
LINE
  5
26F
100
AcDbEntity
  8
BEMASSUNG
390
0
  6
DURCHGEHEND
 62
     3
100
AcDbLine
 10
191.243362
 20
134.837936
 30
0.0
 11
191.243362
 21
142.052536
 31
0.0
  0
LINE
  5
270
100
AcDbEntity
  8
BEMASSUNG
390
0
  6
DURCHGEHEND
 62
     3
100
AcDbLine
 10
192.30368
 20
142.261276
 30
0.0
 11
190.129791
 21
139.815109
 31
0.0
  0
LINE
  5
271
100
AcDbEntity
  8
BEMASSUNG
390
0
  6
DURCHGEHEND
 62
     3
100
AcDbLine
 10
211.243362
 20
128.999237
 30
0.0
 11
211.243362
 21
142.052536
 31
0.0
  0
LINE
  5
272
100
AcDbEntity
  8
BEMASSUNG
390
0
  6
DURCHGEHEND
 62
     3
100
AcDbLine
 10
212.30368
 20
142.261276
 30
0.0
 11
210.129791
 21
139.815109
 31
0.0
  0
LINE
  5
273
100
AcDbEntity
  8
BEMASSUNG
390
0
  6
DURCHGEHEND
 62
     3
100
AcDbLine
 10
156.934448
 20
112.887344
 30
0.0
 11
156.934448
 21
101.138176
 31
0.0
  0
LINE
  5
274
100
AcDbEntity
  8
BEMASSUNG
390
0
  6
DURCHGEHEND
 62
     3
100
AcDbLine
 10
145.682755
 20
113.010887
 30
0.0
 11
145.682755
 21
101.247154
 31
0.0
  0
LINE
  5
275
100
AcDbEntity
  8
BEMASSUNG
390
0
  6
DURCHGEHEND
 62
     3
100
AcDbLine
 10
132.007828
 20
102.569176
 30
0.0
 11
158.282425
 21
102.569176
 31
0.0
  0
LINE
  5
276
100
AcDbEntity
  8
BEMASSUNG
390
0
  6
DURCHGEHEND
 62
     3
100
AcDbLine
 10
146.752487
 20
103.762924
 30
0.0
 11
144.578598
 21
101.316765
 31
0.0
  0
LINE
  5
277
100
AcDbEntity
  8
BEMASSUNG
390
0
  6
DURCHGEHEND
 62
     3
100
AcDbLine
 10
158.002487
 20
103.762924
 30
0.0
 11
155.828598
 21
101.316765
 31
0.0
  0
TEXT
  5
278
100
AcDbEntity
  8
BEMASSUNG
390
0
100
AcDbText
 10
107.032654
 20
143.042374
 30
0.0
 40
7.055555
  1
300
100
AcDbText
  0
TEXT
  5
279
100
AcDbEntity
  8
BEMASSUNG
390
0
100
AcDbText
 10
105.583267
 20
154.999756
 30
0.0
 40
7.055555
  1
345
100
AcDbText
  0
TEXT
  5
27A
100
AcDbEntity
  8
BEMASSUNG
390
0
100
AcDbText
 10
195.751236
 20
142.959671
 30
0.0
 40
7.055555
  1
80
100
AcDbText
  0
TEXT
  5
27B
100
AcDbEntity
  8
BEMASSUNG
390
0
100
AcDbText
 10
179.51683
 20
116.62355
 30
0.0
 40
7.055555
  1
60
 50
90.0
100
AcDbText
  0
TEXT
  5
27C
100
AcDbEntity
  8
BEMASSUNG
390
0
100
AcDbText
 10
133.103134
 20
103.554924
 30
0.0
 40
7.055555
  1
45
100
AcDbText
  0
LINE
  5
27D
100
AcDbEntity
  8
WAND
390
0
  6
DURCHGEHEND
 62
     6
100
AcDbLine
 10
191.243362
 20
133.77066
 30
0.0
 11
191.243362
 21
107.436279
 31
0.0
  0
ELLIPSE
  5
27E
100
AcDbEntity
  8
ANSICHT
390
0
  6
DURCHGEHEND
 62
     1
100
AcDbEllipse
 10
145.307816
 20
60.674389
 30
0.0
 11
0.1006523445248604
 21
-0.0740707578173159
 31
0.0
210
0.0
220
0.0
230
1.0
 40
0.999623
 41
0.6340781492095331
 42
2.2053980534798443
  0
ELLIPSE
  5
27F
100
AcDbEntity
  8
ANSICHT
390
0
  6
DURCHGEHEND
 62
     1
100
AcDbEllipse
 10
82.30761
 20
60.674488
 30
0.0
 11
0.0875709429383278
 21
0.0890699143547173
 31
0.0
210
0.0
220
0.0
230
1.0
 40
0.998928
 41
0.7761479396696888
 42
2.3485149988806224
  0
ELLIPSE
  5
280
100
AcDbEntity
  8
ANSICHT
390
0
  6
DURCHGEHEND
 62
     1
100
AcDbEllipse
 10
145.307816
 20
53.424274
 30
0.0
 11
0.100652351975441
 21
0.0740707444166995
 31
0.0
210
0.0
220
0.0
230
1.0
 40
0.999623
 41
4.0777872537201558
 42
5.6491074243065755
  0
ELLIPSE
  5
281
100
AcDbEntity
  8
ANSICHT
390
0
  6
DURCHGEHEND
 62
     1
100
AcDbEllipse
 10
82.30761
 20
53.424175
 30
0.0
 11
-0.0875709354877472
 21
0.0890699260145994
 31
0.0
210
0.0
220
0.0
230
1.0
 40
0.998928
 41
0.7932521583498055
 42
2.3654447139303114
  0
LINE
  5
282
100
AcDbEntity
  8
ANSICHT
390
0
  6
DURCHGEHEND
 62
     1
100
AcDbLine
 10
81.932762
 20
60.549335
 30
0.0
 11
82.182762
 21
60.549328
 31
0.0
  0
LINE
  5
283
100
AcDbEntity
  8
ANSICHT
390
0
  6
DURCHGEHEND
 62
     1
100
AcDbLine
 10
82.182762
 20
60.527363
 30
0.0
 11
82.182762
 21
60.674328
 31
0.0
  0
LINE
  5
284
100
AcDbEntity
  8
ANSICHT
390
0
  6
DURCHGEHEND
 62
     1
100
AcDbLine
 10
82.182762
 20
60.503033
 30
0.0
 11
82.182762
 21
60.674328
 31
0.0
  0
LINE
  5
285
100
AcDbEntity
  8
ANSICHT
390
0
  6
DURCHGEHEND
 62
     1
100
AcDbLine
 10
82.182762
 20
60.674335
 30
0.0
 11
82.182762
 21
53.424328
 31
0.0
  0
LINE
  5
286
100
AcDbEntity
  8
ANSICHT
390
0
  6
DURCHGEHEND
 62
     1
100
AcDbLine
 10
82.182762
 20
53.549335
 30
0.0
 11
81.932762
 21
53.549328
 31
0.0
  0
LINE
  5
287
100
AcDbEntity
  8
ANSICHT
390
0
  6
DURCHGEHEND
 62
     1
100
AcDbLine
 10
82.182762
 20
53.555042
 30
0.0
 11
82.182762
 21
53.424328
 31
0.0
  0
LINE
  5
288
100
AcDbEntity
  8
ANSICHT
390
0
  6
DURCHGEHEND
 62
     1
100
AcDbLine
 10
82.182762
 20
53.571301
 30
0.0
 11
82.182762
 21
53.424328
 31
0.0
  0
LINE
  5
289
100
AcDbEntity
  8
ANSICHT
390
0
  6
DURCHGEHEND
 62
     1
100
AcDbLine
 10
82.182762
 20
53.624332
 30
0.0
 11
82.182762
 21
53.424328
 31
0.0
  0
LINE
  5
28A
100
AcDbEntity
  8
ANSICHT
390
0
  6
DURCHGEHEND
 62
     1
100
AcDbLine
 10
82.182762
 20
60.674335
 30
0.0
 11
82.182762
 21
53.424328
 31
0.0
  0
LINE
  5
28B
100
AcDbEntity
  8
ANSICHT
390
0
  6
DURCHGEHEND
 62
     1
100
AcDbLine
 10
81.932762
 20
53.571301
 30
0.0
 11
81.932762
 21
53.624325
 31
0.0
  0
LINE
  5
28C
100
AcDbEntity
  8
ANSICHT
390
0
  6
DURCHGEHEND
 62
     1
100
AcDbLine
 10
81.932762
 20
53.555042
 30
0.0
 11
81.932762
 21
53.624325
 31
0.0
  0
LINE
  5
28D
100
AcDbEntity
  8
ANSICHT
390
0
  6
DURCHGEHEND
 62
     1
100
AcDbLine
 10
81.932762
 20
60.474331
 30
0.0
 11
81.932762
 21
60.543621
 31
0.0
  0
LINE
  5
28E
100
AcDbEntity
  8
ANSICHT
390
0
  6
DURCHGEHEND
 62
     1
100
AcDbLine
 10
145.682755
 20
60.474331
 30
0.0
 11
145.682755
 21
60.527355
 31
0.0
  0
LINE
  5
28F
100
AcDbEntity
  8
ANSICHT
390
0
  6
DURCHGEHEND
 62
     1
100
AcDbLine
 10
145.682755
 20
60.474331
 30
0.0
 11
145.682755
 21
60.543621
 31
0.0
  0
LINE
  5
290
100
AcDbEntity
  8
ANSICHT
390
0
  6
DURCHGEHEND
 62
     1
100
AcDbLine
 10
145.432755
 20
60.474331
 30
0.0
 11
145.432755
 21
60.674328
 31
0.0
  0
LINE
  5
291
100
AcDbEntity
  8
ANSICHT
390
0
  6
DURCHGEHEND
 62
     1
100
AcDbLine
 10
145.432755
 20
60.503033
 30
0.0
 11
145.432755
 21
60.674328
 31
0.0
  0
LINE
  5
292
100
AcDbEntity
  8
ANSICHT
390
0
  6
DURCHGEHEND
 62
     1
100
AcDbLine
 10
145.432755
 20
60.527363
 30
0.0
 11
145.432755
 21
60.674328
 31
0.0
  0
LINE
  5
293
100
AcDbEntity
  8
ANSICHT
390
0
  6
DURCHGEHEND
 62
     1
100
AcDbLine
 10
145.432755
 20
60.549335
 30
0.0
 11
145.682755
 21
60.549328
 31
0.0
  0
LINE
  5
294
100
AcDbEntity
  8
ANSICHT
390
0
  6
DURCHGEHEND
 62
     1
100
AcDbLine
 10
145.682755
 20
53.624332
 30
0.0
 11
145.682755
 21
53.559368
 31
0.0
  0
LINE
  5
295
100
AcDbEntity
  8
ANSICHT
390
0
  6
DURCHGEHEND
 62
     1
100
AcDbLine
 10
145.682755
 20
53.549335
 30
0.0
 11
145.682755
 21
53.595623
 31
0.0
  0
LINE
  5
296
100
AcDbEntity
  8
ANSICHT
390
0
  6
DURCHGEHEND
 62
     1
100
AcDbLine
 10
145.432755
 20
53.555042
 30
0.0
 11
145.432755
 21
53.424328
 31
0.0
  0
LINE
  5
297
100
AcDbEntity
  8
ANSICHT
390
0
  6
DURCHGEHEND
 62
     1
100
AcDbLine
 10
145.682755
 20
53.549335
 30
0.0
 11
145.432755
 21
53.549328
 31
0.0
  0
LINE
  5
298
100
AcDbEntity
  8
ANSICHT
390
0
  6
DURCHGEHEND
 62
     1
100
AcDbLine
 10
145.432755
 20
60.674335
 30
0.0
 11
145.432755
 21
53.424328
 31
0.0
  0
LINE
  5
299
100
AcDbEntity
  8
ANSICHT
390
0
  6
DURCHGEHEND
 62
     1
100
AcDbLine
 10
145.432755
 20
53.571301
 30
0.0
 11
145.432755
 21
53.424328
 31
0.0
  0
LINE
  5
29A
100
AcDbEntity
  8
ANSICHT
390
0
  6
DURCHGEHEND
 62
     1
100
AcDbLine
 10
145.432755
 20
60.674335
 30
0.0
 11
145.432755
 21
53.424328
 31
0.0
  0
LINE
  5
29B
100
AcDbEntity
  8
ANSICHT
390
0
  6
DURCHGEHEND
 62
     1
100
AcDbLine
 10
145.432755
 20
60.674335
 30
0.0
 11
145.432755
 21
60.543621
 31
0.0
  0
LINE
  5
29C
100
AcDbEntity
  8
ANSICHT
390
0
  6
DURCHGEHEND
 62
     1
100
AcDbLine
 10
82.307762
 20
60.799335
 30
0.0
 11
145.307755
 21
60.799328
 31
0.0
  0
LINE
  5
29D
100
AcDbEntity
  8
ANSICHT
390
0
  6
DURCHGEHEND
 62
     1
100
AcDbLine
 10
82.182762
 20
60.543621
 30
0.0
 11
82.182762
 21
60.674328
 31
0.0
  0
LINE
  5
29E
100
AcDbEntity
  8
ANSICHT
390
0
  6
DURCHGEHEND
 62
     1
100
AcDbLine
 10
145.682755
 20
53.549335
 30
0.0
 11
145.682755
 21
60.539272
 31
0.0
  0
LINE
  5
29F
100
AcDbEntity
  8
ANSICHT
390
0
  6
DURCHGEHEND
 62
     1
100
AcDbLine
 10
145.432755
 20
53.424335
 30
0.0
 11
145.432755
 21
53.595623
 31
0.0
  0
LINE
  5
2A0
100
AcDbEntity
  8
ANSICHT
390
0
  6
DURCHGEHEND
 62
     1
100
AcDbLine
 10
82.307762
 20
53.299335
 30
0.0
 11
145.307755
 21
53.299328
 31
0.0
  0
LINE
  5
2A1
100
AcDbEntity
  8
ANSICHT
390
0
  6
DURCHGEHEND
 62
     1
100
AcDbLine
 10
82.182762
 20
53.595631
 30
0.0
 11
82.182762
 21
53.424328
 31
0.0
  0
LINE
  5
2A2
100
AcDbEntity
  8
ANSICHT
390
0
  6
DURCHGEHEND
 62
     1
100
AcDbLine
 10
81.932762
 20
60.53928
 30
0.0
 11
81.932762
 21
53.559368
 31
0.0
  0
POLYLINE
  5
2A3
100
AcDbEntity
  8
ANSICHT
390
0
  6
DURCHGEHEND
 62
     1
100
AcDb3dPolyline
 66
     1
 10
0.0
 20
0.0
 30
0.0
 70
    12
 75
     5
  0
VERTEX
  5
2A4
100
AcDbEntity
  8
0
390
0
100
AcDbVertex
100
AcDb3dPolylineVertex
 10
82.182762
 20
60.674335
 30
0.0
 70
    48
  0
VERTEX
  5
2A5
100
AcDbEntity
  8
0
390
0
100
AcDbVertex
100
AcDb3dPolylineVertex
 10
82.182762
 20
60.674335
 30
0.0
 70
    40
  0
VERTEX
  5
2A6
100
AcDbEntity
  8
0
390
0
100
AcDbVertex
100
AcDb3dPolylineVertex
 10
82.182762
 20
59.465996
 30
0.0
 70
    40
  0
VERTEX
  5
2A7
100
AcDbEntity
  8
0
390
0
100
AcDbVertex
100
AcDb3dPolylineVertex
 10
82.182762
 20
58.257664
 30
0.0
 70
    40
  0
VERTEX
  5
2A8
100
AcDbEntity
  8
0
390
0
100
AcDbVertex
100
AcDb3dPolylineVertex
 10
82.182762
 20
57.049328
 30
0.0
 70
    40
  0
VERTEX
  5
2A9
100
AcDbEntity
  8
0
390
0
100
AcDbVertex
100
AcDb3dPolylineVertex
 10
82.182762
 20
55.840996
 30
0.0
 70
    40
  0
VERTEX
  5
2AA
100
AcDbEntity
  8
0
390
0
100
AcDbVertex
100
AcDb3dPolylineVertex
 10
82.182762
 20
54.632664
 30
0.0
 70
    40
  0
VERTEX
  5
2AB
100
AcDbEntity
  8
0
390
0
100
AcDbVertex
100
AcDb3dPolylineVertex
 10
82.182762
 20
53.424328
 30
0.0
 70
    40
  0
VERTEX
  5
2AC
100
AcDbEntity
  8
0
390
0
100
AcDbVertex
100
AcDb3dPolylineVertex
 10
82.182762
 20
58.257656
 30
0.0
 70
    48
  0
VERTEX
  5
2AD
100
AcDbEntity
  8
0
390
0
100
AcDbVertex
100
AcDb3dPolylineVertex
 10
82.182762
 20
55.841
 30
0.0
 70
    48
  0
VERTEX
  5
2AE
100
AcDbEntity
  8
0
390
0
100
AcDbVertex
100
AcDb3dPolylineVertex
 10
82.182762
 20
53.424328
 30
0.0
 70
    48
  0
SEQEND
  5
2AF
100
AcDbEntity
  8
0
390
0
  0
POLYLINE
  5
2B0
100
AcDbEntity
  8
ANSICHT
390
0
  6
DURCHGEHEND
 62
     1
100
AcDb3dPolyline
 66
     1
 10
0.0
 20
0.0
 30
0.0
 70
    12
 75
     5
  0
VERTEX
  5
2B1
100
AcDbEntity
  8
0
390
0
100
AcDbVertex
100
AcDb3dPolylineVertex
 10
81.932762
 20
60.474331
 30
0.0
 70
    48
  0
VERTEX
  5
2B2
100
AcDbEntity
  8
0
390
0
100
AcDbVertex
100
AcDb3dPolylineVertex
 10
81.932762
 20
60.474331
 30
0.0
 70
    40
  0
VERTEX
  5
2B3
100
AcDbEntity
  8
0
390
0
100
AcDbVertex
100
AcDb3dPolylineVertex
 10
81.932762
 20
60.483166
 30
0.0
 70
    40
  0
VERTEX
  5
2B4
100
AcDbEntity
  8
0
390
0
100
AcDbVertex
100
AcDb3dPolylineVertex
 10
81.932762
 20
60.492004
 30
0.0
 70
    40
  0
VERTEX
  5
2B5
100
AcDbEntity
  8
0
390
0
100
AcDbVertex
100
AcDb3dPolylineVertex
 10
81.932762
 20
60.500843
 30
0.0
 70
    40
  0
VERTEX
  5
2B6
100
AcDbEntity
  8
0
390
0
100
AcDbVertex
100
AcDb3dPolylineVertex
 10
81.932762
 20
60.509682
 30
0.0
 70
    40
  0
VERTEX
  5
2B7
100
AcDbEntity
  8
0
390
0
100
AcDbVertex
100
AcDb3dPolylineVertex
 10
81.932762
 20
60.51852
 30
0.0
 70
    40
  0
VERTEX
  5
2B8
100
AcDbEntity
  8
0
390
0
100
AcDbVertex
100
AcDb3dPolylineVertex
 10
81.932762
 20
60.527355
 30
0.0
 70
    40
  0
VERTEX
  5
2B9
100
AcDbEntity
  8
0
390
0
100
AcDbVertex
100
AcDb3dPolylineVertex
 10
81.932762
 20
60.492001
 30
0.0
 70
    48
  0
VERTEX
  5
2BA
100
AcDbEntity
  8
0
390
0
100
AcDbVertex
100
AcDb3dPolylineVertex
 10
81.932762
 20
60.509686
 30
0.0
 70
    48
  0
VERTEX
  5
2BB
100
AcDbEntity
  8
0
390
0
100
AcDbVertex
100
AcDb3dPolylineVertex
 10
81.932762
 20
60.527355
 30
0.0
 70
    48
  0
SEQEND
  5
2BC
100
AcDbEntity
  8
0
390
0
  0
POLYLINE
  5
2BD
100
AcDbEntity
  8
ANSICHT
390
0
  6
DURCHGEHEND
 62
     1
100
AcDb3dPolyline
 66
     1
 10
0.0
 20
0.0
 30
0.0
 70
    12
 75
     5
  0
VERTEX
  5
2BE
100
AcDbEntity
  8
0
390
0
100
AcDbVertex
100
AcDb3dPolylineVertex
 10
145.432755
 20
60.674335
 30
0.0
 70
    48
  0
VERTEX
  5
2BF
100
AcDbEntity
  8
0
390
0
100
AcDbVertex
100
AcDb3dPolylineVertex
 10
145.432755
 20
60.674335
 30
0.0
 70
    40
  0
VERTEX
  5
2C0
100
AcDbEntity
  8
0
390
0
100
AcDbVertex
100
AcDb3dPolylineVertex
 10
145.432755
 20
59.465996
 30
0.0
 70
    40
  0
VERTEX
  5
2C1
100
AcDbEntity
  8
0
390
0
100
AcDbVertex
100
AcDb3dPolylineVertex
 10
145.432755
 20
58.25766
 30
0.0
 70
    40
  0
VERTEX
  5
2C2
100
AcDbEntity
  8
0
390
0
100
AcDbVertex
100
AcDb3dPolylineVertex
 10
145.432755
 20
57.049324
 30
0.0
 70
    40
  0
VERTEX
  5
2C3
100
AcDbEntity
  8
0
390
0
100
AcDbVertex
100
AcDb3dPolylineVertex
 10
145.432755
 20
55.840988
 30
0.0
 70
    40
  0
VERTEX
  5
2C4
100
AcDbEntity
  8
0
390
0
100
AcDbVertex
100
AcDb3dPolylineVertex
 10
145.432755
 20
54.632656
 30
0.0
 70
    40
  0
VERTEX
  5
2C5
100
AcDbEntity
  8
0
390
0
100
AcDbVertex
100
AcDb3dPolylineVertex
 10
145.432755
 20
53.424328
 30
0.0
 70
    40
  0
VERTEX
  5
2C6
100
AcDbEntity
  8
0
390
0
100
AcDbVertex
100
AcDb3dPolylineVertex
 10
145.432755
 20
58.257656
 30
0.0
 70
    48
  0
VERTEX
  5
2C7
100
AcDbEntity
  8
0
390
0
100
AcDbVertex
100
AcDb3dPolylineVertex
 10
145.432755
 20
55.840984
 30
0.0
 70
    48
  0
VERTEX
  5
2C8
100
AcDbEntity
  8
0
390
0
100
AcDbVertex
100
AcDb3dPolylineVertex
 10
145.432755
 20
53.424328
 30
0.0
 70
    48
  0
SEQEND
  5
2C9
100
AcDbEntity
  8
0
390
0
  0
ELLIPSE
  5
2CA
100
AcDbEntity
  8
ANSICHT
390
0
  6
DURCHGEHEND
 62
     1
100
AcDbEllipse
 10
81.807854
 20
53.424236
 30
0.0
 11
0.0938587114214897
 21
0.0824638546474993
 31
0.0
210
0.0
220
0.0
230
1.0
 40
0.999386
 41
3.9913935090093773
 42
5.5630622873824906
  0
ELLIPSE
  5
2CB
100
AcDbEntity
  8
ANSICHT
390
0
  6
DURCHGEHEND
 62
     1
100
AcDbEllipse
 10
72.145729
 20
54.714802
 30
0.0
 11
1.3323317766189575
 21
-0.584969056906431
 31
0.0
210
0.0
220
0.0
230
1.0
 40
0.967435
 41
4.1891393452189103
 42
5.1396457730371985
  0
ELLIPSE
  5
2CC
100
AcDbEntity
  8
ANSICHT
390
0
  6
DURCHGEHEND
 62
     1
100
AcDbEllipse
 10
72.151695
 20
54.788555
 30
0.0
 11
-0.4873358011245728
 21
1.4016112787749062
 31
0.0
210
0.0
220
0.0
230
1.0
 40
0.988675
 41
1.2325515656992996
 42
2.1631611175393775
  0
ELLIPSE
  5
2CD
100
AcDbEntity
  8
ANSICHT
390
0
  6
DURCHGEHEND
 62
     1
100
AcDbEllipse
 10
70.807762
 20
73.174347
 30
0.0
 11
0.0934650897979736
 21
0.0829786894369795
 31
0.0
210
0.0
220
0.0
230
1.0
 40
0.999931
 41
0.844739384599611
 42
2.4155355782415566
  0
ELLIPSE
  5
2CE
100
AcDbEntity
  8
ANSICHT
390
0
  6
DURCHGEHEND
 62
     1
100
AcDbEllipse
 10
81.80793
 20
73.174492
 30
0.0
 11
-0.0875709354877472
 21
0.0890699260145994
 31
0.0
210
0.0
220
0.0
230
1.0
 40
0.998928
 41
3.9348447453707784
 42
5.5070373675303115
  0
LINE
  5
2CF
100
AcDbEntity
  8
ANSICHT
390
0
  6
DURCHGEHEND
 62
     1
100
AcDbLine
 10
81.932762
 20
53.424335
 30
0.0
 11
81.932762
 21
73.174332
 31
0.0
  0
LINE
  5
2D0
100
AcDbEntity
  8
ANSICHT
390
0
  6
DURCHGEHEND
 62
     1
100
AcDbLine
 10
72.182762
 20
53.299328
 30
0.0
 11
81.807762
 21
53.299328
 31
0.0
  0
LINE
  5
2D1
100
AcDbEntity
  8
ANSICHT
390
0
  6
DURCHGEHEND
 62
     1
100
AcDbLine
 10
81.807762
 20
73.299332
 30
0.0
 11
70.807762
 21
73.299332
 31
0.0
  0
LINE
  5
2D2
100
AcDbEntity
  8
ANSICHT
390
0
  6
DURCHGEHEND
 62
     1
100
AcDbLine
 10
81.932762
 20
60.549335
 30
0.0
 11
81.932762
 21
73.174332
 31
0.0
  0
POLYLINE
  5
2D3
100
AcDbEntity
  8
ANSICHT
390
0
  6
DURCHGEHEND
 62
     1
100
AcDb3dPolyline
 66
     1
 10
0.0
 20
0.0
 30
0.0
 70
    12
 75
     5
  0
VERTEX
  5
2D4
100
AcDbEntity
  8
0
390
0
100
AcDbVertex
100
AcDb3dPolylineVertex
 10
70.682762
 20
70.618858
 30
0.0
 70
    48
  0
VERTEX
  5
2D5
100
AcDbEntity
  8
0
390
0
100
AcDbVertex
100
AcDb3dPolylineVertex
 10
70.682762
 20
70.618858
 30
0.0
 70
    40
  0
VERTEX
  5
2D6
100
AcDbEntity
  8
0
390
0
100
AcDbVertex
100
AcDb3dPolylineVertex
 10
70.682762
 20
70.810455
 30
0.0
 70
    40
  0
VERTEX
  5
2D7
100
AcDbEntity
  8
0
390
0
100
AcDbVertex
100
AcDb3dPolylineVertex
 10
70.682762
 20
70.618858
 30
0.0
 70
    48
  0
VERTEX
  5
2D8
100
AcDbEntity
  8
0
390
0
100
AcDbVertex
100
AcDb3dPolylineVertex
 10
70.682762
 20
70.810455
 30
0.0
 70
    48
  0
VERTEX
  5
2D9
100
AcDbEntity
  8
0
390
0
100
AcDbVertex
100
AcDb3dPolylineVertex
 10
70.682762
 20
70.810455
 30
0.0
 70
    48
  0
SEQEND
  5
2DA
100
AcDbEntity
  8
0
390
0
  0
POLYLINE
  5
2DB
100
AcDbEntity
  8
ANSICHT
390
0
  6
DURCHGEHEND
 62
     1
100
AcDb3dPolyline
 66
     1
 10
0.0
 20
0.0
 30
0.0
 70
    12
 75
     5
  0
VERTEX
  5
2DC
100
AcDbEntity
  8
0
390
0
100
AcDbVertex
100
AcDb3dPolylineVertex
 10
81.932762
 20
70.810463
 30
0.0
 70
    48
  0
VERTEX
  5
2DD
100
AcDbEntity
  8
0
390
0
100
AcDbVertex
100
AcDb3dPolylineVertex
 10
81.932762
 20
70.810463
 30
0.0
 70
    40
  0
VERTEX
  5
2DE
100
AcDbEntity
  8
0
390
0
100
AcDbVertex
100
AcDb3dPolylineVertex
 10
81.932762
 20
70.618851
 30
0.0
 70
    40
  0
VERTEX
  5
2DF
100
AcDbEntity
  8
0
390
0
100
AcDbVertex
100
AcDb3dPolylineVertex
 10
81.932762
 20
70.810463
 30
0.0
 70
    48
  0
VERTEX
  5
2E0
100
AcDbEntity
  8
0
390
0
100
AcDbVertex
100
AcDb3dPolylineVertex
 10
81.932762
 20
70.618851
 30
0.0
 70
    48
  0
VERTEX
  5
2E1
100
AcDbEntity
  8
0
390
0
100
AcDbVertex
100
AcDb3dPolylineVertex
 10
81.932762
 20
70.618851
 30
0.0
 70
    48
  0
SEQEND
  5
2E2
100
AcDbEntity
  8
0
390
0
  0
POLYLINE
  5
2E3
100
AcDbEntity
  8
ANSICHT
390
0
  6
DURCHGEHEND
 62
     1
100
AcDb3dPolyline
 66
     1
 10
0.0
 20
0.0
 30
0.0
 70
    12
 75
     5
  0
VERTEX
  5
2E4
100
AcDbEntity
  8
0
390
0
100
AcDbVertex
100
AcDb3dPolylineVertex
 10
70.731651
 20
54.422321
 30
0.0
 70
    48
  0
VERTEX
  5
2E5
100
AcDbEntity
  8
0
390
0
100
AcDbVertex
100
AcDb3dPolylineVertex
 10
70.731651
 20
54.422321
 30
0.0
 70
    40
  0
VERTEX
  5
2E6
100
AcDbEntity
  8
0
390
0
100
AcDbVertex
100
AcDb3dPolylineVertex
 10
70.761238
 20
54.330486
 30
0.0
 70
    40
  0
VERTEX
  5
2E7
100
AcDbEntity
  8
0
390
0
100
AcDbVertex
100
AcDb3dPolylineVertex
 10
70.731651
 20
54.422321
 30
0.0
 70
    48
  0
VERTEX
  5
2E8
100
AcDbEntity
  8
0
390
0
100
AcDbVertex
100
AcDb3dPolylineVertex
 10
70.761238
 20
54.330486
 30
0.0
 70
    48
  0
VERTEX
  5
2E9
100
AcDbEntity
  8
0
390
0
100
AcDbVertex
100
AcDb3dPolylineVertex
 10
70.761238
 20
54.330486
 30
0.0
 70
    48
  0
SEQEND
  5
2EA
100
AcDbEntity
  8
0
390
0
  0
POLYLINE
  5
2EB
100
AcDbEntity
  8
ANSICHT
390
0
  6
DURCHGEHEND
 62
     1
100
AcDb3dPolyline
 66
     1
 10
0.0
 20
0.0
 30
0.0
 70
    12
 75
     5
  0
VERTEX
  5
2EC
100
AcDbEntity
  8
0
390
0
100
AcDbVertex
100
AcDb3dPolylineVertex
 10
70.950493
 20
53.949421
 30
0.0
 70
    48
  0
VERTEX
  5
2ED
100
AcDbEntity
  8
0
390
0
100
AcDbVertex
100
AcDb3dPolylineVertex
 10
70.950493
 20
53.949421
 30
0.0
 70
    40
  0
VERTEX
  5
2EE
100
AcDbEntity
  8
0
390
0
100
AcDbVertex
100
AcDb3dPolylineVertex
 10
70.879448
 20
54.058025
 30
0.0
 70
    40
  0
VERTEX
  5
2EF
100
AcDbEntity
  8
0
390
0
100
AcDbVertex
100
AcDb3dPolylineVertex
 10
70.950493
 20
53.949421
 30
0.0
 70
    48
  0
VERTEX
  5
2F0
100
AcDbEntity
  8
0
390
0
100
AcDbVertex
100
AcDb3dPolylineVertex
 10
70.879448
 20
54.058025
 30
0.0
 70
    48
  0
VERTEX
  5
2F1
100
AcDbEntity
  8
0
390
0
100
AcDbVertex
100
AcDb3dPolylineVertex
 10
70.879448
 20
54.058025
 30
0.0
 70
    48
  0
SEQEND
  5
2F2
100
AcDbEntity
  8
0
390
0
  0
POLYLINE
  5
2F3
100
AcDbEntity
  8
ANSICHT
390
0
  6
DURCHGEHEND
 62
     1
100
AcDb3dPolyline
 66
     1
 10
0.0
 20
0.0
 30
0.0
 70
    12
 75
     5
  0
VERTEX
  5
2F4
100
AcDbEntity
  8
0
390
0
100
AcDbVertex
100
AcDb3dPolylineVertex
 10
70.840523
 20
54.136944
 30
0.0
 70
    48
  0
VERTEX
  5
2F5
100
AcDbEntity
  8
0
390
0
100
AcDbVertex
100
AcDb3dPolylineVertex
 10
70.840523
 20
54.136944
 30
0.0
 70
    40
  0
VERTEX
  5
2F6
100
AcDbEntity
  8
0
390
0
100
AcDbVertex
100
AcDb3dPolylineVertex
 10
70.793083
 20
54.236675
 30
0.0
 70
    40
  0
VERTEX
  5
2F7
100
AcDbEntity
  8
0
390
0
100
AcDbVertex
100
AcDb3dPolylineVertex
 10
70.840523
 20
54.136944
 30
0.0
 70
    48
  0
VERTEX
  5
2F8
100
AcDbEntity
  8
0
390
0
100
AcDbVertex
100
AcDb3dPolylineVertex
 10
70.793083
 20
54.236675
 30
0.0
 70
    48
  0
VERTEX
  5
2F9
100
AcDbEntity
  8
0
390
0
100
AcDbVertex
100
AcDb3dPolylineVertex
 10
70.793083
 20
54.236675
 30
0.0
 70
    48
  0
SEQEND
  5
2FA
100
AcDbEntity
  8
0
390
0
  0
POLYLINE
  5
2FB
100
AcDbEntity
  8
ANSICHT
390
0
  6
DURCHGEHEND
 62
     1
100
AcDb3dPolyline
 66
     1
 10
0.0
 20
0.0
 30
0.0
 70
    12
 75
     5
  0
VERTEX
  5
2FC
100
AcDbEntity
  8
0
390
0
100
AcDbVertex
100
AcDb3dPolylineVertex
 10
71.332939
 20
53.566998
 30
0.0
 70
    48
  0
VERTEX
  5
2FD
100
AcDbEntity
  8
0
390
0
100
AcDbVertex
100
AcDb3dPolylineVertex
 10
71.332939
 20
53.566998
 30
0.0
 70
    40
  0
VERTEX
  5
2FE
100
AcDbEntity
  8
0
390
0
100
AcDbVertex
100
AcDb3dPolylineVertex
 10
71.44146
 20
53.495998
 30
0.0
 70
    40
  0
VERTEX
  5
2FF
100
AcDbEntity
  8
0
390
0
100
AcDbVertex
100
AcDb3dPolylineVertex
 10
71.332939
 20
53.566998
 30
0.0
 70
    48
  0
VERTEX
  5
300
100
AcDbEntity
  8
0
390
0
100
AcDbVertex
100
AcDb3dPolylineVertex
 10
71.44146
 20
53.495998
 30
0.0
 70
    48
  0
VERTEX
  5
301
100
AcDbEntity
  8
0
390
0
100
AcDbVertex
100
AcDb3dPolylineVertex
 10
71.44146
 20
53.495998
 30
0.0
 70
    48
  0
SEQEND
  5
302
100
AcDbEntity
  8
0
390
0
  0
POLYLINE
  5
303
100
AcDbEntity
  8
ANSICHT
390
0
  6
DURCHGEHEND
 62
     1
100
AcDb3dPolyline
 66
     1
 10
0.0
 20
0.0
 30
0.0
 70
    12
 75
     5
  0
VERTEX
  5
304
100
AcDbEntity
  8
0
390
0
100
AcDbVertex
100
AcDb3dPolylineVertex
 10
71.714027
 20
53.377773
 30
0.0
 70
    48
  0
VERTEX
  5
305
100
AcDbEntity
  8
0
390
0
100
AcDbVertex
100
AcDb3dPolylineVertex
 10
71.714027
 20
53.377773
 30
0.0
 70
    40
  0
VERTEX
  5
306
100
AcDbEntity
  8
0
390
0
100
AcDbVertex
100
AcDb3dPolylineVertex
 10
71.805748
 20
53.348202
 30
0.0
 70
    40
  0
VERTEX
  5
307
100
AcDbEntity
  8
0
390
0
100
AcDbVertex
100
AcDb3dPolylineVertex
 10
71.714027
 20
53.377773
 30
0.0
 70
    48
  0
VERTEX
  5
308
100
AcDbEntity
  8
0
390
0
100
AcDbVertex
100
AcDb3dPolylineVertex
 10
71.805748
 20
53.348202
 30
0.0
 70
    48
  0
VERTEX
  5
309
100
AcDbEntity
  8
0
390
0
100
AcDbVertex
100
AcDb3dPolylineVertex
 10
71.805748
 20
53.348202
 30
0.0
 70
    48
  0
SEQEND
  5
30A
100
AcDbEntity
  8
0
390
0
  0
POLYLINE
  5
30B
100
AcDbEntity
  8
ANSICHT
390
0
  6
DURCHGEHEND
 62
     1
100
AcDb3dPolyline
 66
     1
 10
0.0
 20
0.0
 30
0.0
 70
    12
 75
     5
  0
VERTEX
  5
30C
100
AcDbEntity
  8
0
390
0
100
AcDbVertex
100
AcDb3dPolylineVertex
 10
71.834679
 20
53.342457
 30
0.0
 70
    48
  0
VERTEX
  5
30D
100
AcDbEntity
  8
0
390
0
100
AcDbVertex
100
AcDb3dPolylineVertex
 10
71.834679
 20
53.342457
 30
0.0
 70
    40
  0
VERTEX
  5
30E
100
AcDbEntity
  8
0
390
0
100
AcDbVertex
100
AcDb3dPolylineVertex
 10
71.918427
 20
53.325439
 30
0.0
 70
    40
  0
VERTEX
  5
30F
100
AcDbEntity
  8
0
390
0
100
AcDbVertex
100
AcDb3dPolylineVertex
 10
71.966125
 20
53.315746
 30
0.0
 70
    40
  0
VERTEX
  5
310
100
AcDbEntity
  8
0
390
0
100
AcDbVertex
100
AcDb3dPolylineVertex
 10
71.997093
 20
53.310829
 30
0.0
 70
    40
  0
VERTEX
  5
311
100
AcDbEntity
  8
0
390
0
100
AcDbVertex
100
AcDb3dPolylineVertex
 10
72.030632
 20
53.308151
 30
0.0
 70
    40
  0
VERTEX
  5
312
100
AcDbEntity
  8
0
390
0
100
AcDbVertex
100
AcDb3dPolylineVertex
 10
72.086075
 20
53.305164
 30
0.0
 70
    40
  0
VERTEX
  5
313
100
AcDbEntity
  8
0
390
0
100
AcDbVertex
100
AcDb3dPolylineVertex
 10
72.182732
 20
53.299328
 30
0.0
 70
    40
  0
VERTEX
  5
314
100
AcDbEntity
  8
0
390
0
100
AcDbVertex
100
AcDb3dPolylineVertex
 10
72.051109
 20
53.299404
 30
0.0
 70
    48
  0
VERTEX
  5
315
100
AcDbEntity
  8
0
390
0
100
AcDbVertex
100
AcDb3dPolylineVertex
 10
71.935326
 20
53.315548
 30
0.0
 70
    48
  0
VERTEX
  5
316
100
AcDbEntity
  8
0
390
0
100
AcDbVertex
100
AcDb3dPolylineVertex
 10
72.182732
 20
53.299328
 30
0.0
 70
    48
  0
SEQEND
  5
317
100
AcDbEntity
  8
0
390
0
  0
POLYLINE
  5
318
100
AcDbEntity
  8
ANSICHT
390
0
  6
DURCHGEHEND
 62
     1
100
AcDb3dPolyline
 66
     1
 10
0.0
 20
0.0
 30
0.0
 70
    12
 75
     5
  0
VERTEX
  5
319
100
AcDbEntity
  8
0
390
0
100
AcDbVertex
100
AcDb3dPolylineVertex
 10
71.520485
 20
53.457035
 30
0.0
 70
    48
  0
VERTEX
  5
31A
100
AcDbEntity
  8
0
390
0
100
AcDbVertex
100
AcDb3dPolylineVertex
 10
71.520485
 20
53.457035
 30
0.0
 70
    40
  0
VERTEX
  5
31B
100
AcDbEntity
  8
0
390
0
100
AcDbVertex
100
AcDb3dPolylineVertex
 10
71.620094
 20
53.409664
 30
0.0
 70
    40
  0
VERTEX
  5
31C
100
AcDbEntity
  8
0
390
0
100
AcDbVertex
100
AcDb3dPolylineVertex
 10
71.520485
 20
53.457035
 30
0.0
 70
    48
  0
VERTEX
  5
31D
100
AcDbEntity
  8
0
390
0
100
AcDbVertex
100
AcDb3dPolylineVertex
 10
71.620094
 20
53.409664
 30
0.0
 70
    48
  0
VERTEX
  5
31E
100
AcDbEntity
  8
0
390
0
100
AcDbVertex
100
AcDb3dPolylineVertex
 10
71.620094
 20
53.409664
 30
0.0
 70
    48
  0
SEQEND
  5
31F
100
AcDbEntity
  8
0
390
0
  0
POLYLINE
  5
320
100
AcDbEntity
  8
ANSICHT
390
0
  6
DURCHGEHEND
 62
     1
100
AcDb3dPolyline
 66
     1
 10
0.0
 20
0.0
 30
0.0
 70
    12
 75
     5
  0
VERTEX
  5
321
100
AcDbEntity
  8
0
390
0
100
AcDbVertex
100
AcDb3dPolylineVertex
 10
70.682762
 20
73.174332
 30
0.0
 70
    48
  0
VERTEX
  5
322
100
AcDbEntity
  8
0
390
0
100
AcDbVertex
100
AcDb3dPolylineVertex
 10
70.682762
 20
73.174332
 30
0.0
 70
    40
  0
VERTEX
  5
323
100
AcDbEntity
  8
0
390
0
100
AcDbVertex
100
AcDb3dPolylineVertex
 10
70.682762
 20
72.674332
 30
0.0
 70
    40
  0
VERTEX
  5
324
100
AcDbEntity
  8
0
390
0
100
AcDbVertex
100
AcDb3dPolylineVertex
 10
70.682762
 20
73.174332
 30
0.0
 70
    48
  0
VERTEX
  5
325
100
AcDbEntity
  8
0
390
0
100
AcDbVertex
100
AcDb3dPolylineVertex
 10
70.682762
 20
72.674332
 30
0.0
 70
    48
  0
VERTEX
  5
326
100
AcDbEntity
  8
0
390
0
100
AcDbVertex
100
AcDb3dPolylineVertex
 10
70.682762
 20
72.674332
 30
0.0
 70
    48
  0
VERTEX
  5
327
100
AcDbEntity
  8
0
390
0
100
AcDbVertex
100
AcDb3dPolylineVertex
 10
70.682762
 20
55.299328
 30
0.0
 70
    40
  0
VERTEX
  5
328
100
AcDbEntity
  8
0
390
0
100
AcDbVertex
100
AcDb3dPolylineVertex
 10
70.682762
 20
72.674332
 30
0.0
 70
    48
  0
VERTEX
  5
329
100
AcDbEntity
  8
0
390
0
100
AcDbVertex
100
AcDb3dPolylineVertex
 10
70.682762
 20
55.299328
 30
0.0
 70
    48
  0
VERTEX
  5
32A
100
AcDbEntity
  8
0
390
0
100
AcDbVertex
100
AcDb3dPolylineVertex
 10
70.682762
 20
55.299328
 30
0.0
 70
    48
  0
VERTEX
  5
32B
100
AcDbEntity
  8
0
390
0
100
AcDbVertex
100
AcDb3dPolylineVertex
 10
70.681999
 20
55.153191
 30
0.0
 70
    40
  0
VERTEX
  5
32C
100
AcDbEntity
  8
0
390
0
100
AcDbVertex
100
AcDb3dPolylineVertex
 10
70.681274
 20
55.011021
 30
0.0
 70
    40
  0
VERTEX
  5
32D
100
AcDbEntity
  8
0
390
0
100
AcDbVertex
100
AcDb3dPolylineVertex
 10
70.682953
 20
54.871277
 30
0.0
 70
    40
  0
VERTEX
  5
32E
100
AcDbEntity
  8
0
390
0
100
AcDbVertex
100
AcDb3dPolylineVertex
 10
70.689377
 20
54.732426
 30
0.0
 70
    40
  0
VERTEX
  5
32F
100
AcDbEntity
  8
0
390
0
100
AcDbVertex
100
AcDb3dPolylineVertex
 10
70.702911
 20
54.592922
 30
0.0
 70
    40
  0
VERTEX
  5
330
100
AcDbEntity
  8
0
390
0
100
AcDbVertex
100
AcDb3dPolylineVertex
 10
70.725899
 20
54.451229
 30
0.0
 70
    40
  0
VERTEX
  5
331
100
AcDbEntity
  8
0
390
0
100
AcDbVertex
100
AcDb3dPolylineVertex
 10
70.682762
 20
55.002056
 30
0.0
 70
    48
  0
VERTEX
  5
332
100
AcDbEntity
  8
0
390
0
100
AcDbVertex
100
AcDb3dPolylineVertex
 10
70.668892
 20
54.737835
 30
0.0
 70
    48
  0
VERTEX
  5
333
100
AcDbEntity
  8
0
390
0
100
AcDbVertex
100
AcDb3dPolylineVertex
 10
70.725899
 20
54.451229
 30
0.0
 70
    48
  0
SEQEND
  5
334
100
AcDbEntity
  8
0
390
0
  0
ELLIPSE
  5
335
100
AcDbEntity
  8
ANSICHT
390
0
  6
DURCHGEHEND
 62
     1
100
AcDbEllipse
 10
155.444229
 20
54.766521
 30
0.0
 11
1.3997882604598999
 21
0.4898286714857071
 31
0.0
210
0.0
220
0.0
230
1.0
 40
0.988012
 41
4.3718753392085992
 42
5.3031830387284433
  0
ELLIPSE
  5
336
100
AcDbEntity
  8
ANSICHT
390
0
  6
DURCHGEHEND
 62
     1
100
AcDbEllipse
 10
145.807602
 20
53.424175
 30
0.0
 11
-0.0875709354877472
 21
0.0890699260145994
 31
0.0
210
0.0
220
0.0
230
1.0
 40
0.998928
 41
0.7932521583498055
 42
2.3654447139303114
  0
ELLIPSE
  5
337
100
AcDbEntity
  8
ANSICHT
390
0
  6
DURCHGEHEND
 62
     1
100
AcDbEllipse
 10
155.518661
 20
54.761417
 30
0.0
 11
0.5887030363082886
 21
1.3298184027708879
 31
0.0
210
0.0
220
0.0
230
1.0
 40
0.966844
 41
4.1917572325704668
 42
5.142787237859066
  0
ELLIPSE
  5
338
100
AcDbEntity
  8
ANSICHT
390
0
  6
DURCHGEHEND
 62
     1
100
AcDbEllipse
 10
145.807602
 20
73.174492
 30
0.0
 11
0.0875457599759102
 21
0.0890946724531361
 31
0.0
210
0.0
220
0.0
230
1.0
 40
0.998928
 41
0.7761479396696888
 42
2.3483405618292217
  0
LINE
  5
339
100
AcDbEntity
  8
ANSICHT
390
0
  6
DURCHGEHEND
 62
     1
100
AcDbLine
 10
145.807755
 20
53.299335
 30
0.0
 11
155.432755
 21
53.299328
 31
0.0
  0
LINE
  5
33A
100
AcDbEntity
  8
ANSICHT
390
0
  6
DURCHGEHEND
 62
     1
100
AcDbLine
 10
145.682755
 20
73.174332
 30
0.0
 11
145.682755
 21
53.424328
 31
0.0
  0
LINE
  5
33B
100
AcDbEntity
  8
ANSICHT
390
0
  6
DURCHGEHEND
 62
     1
100
AcDbLine
 10
145.807755
 20
73.299332
 30
0.0
 11
156.932755
 21
73.299332
 31
0.0
  0
LINE
  5
33C
100
AcDbEntity
  8
ANSICHT
390
0
  6
DURCHGEHEND
 62
     1
100
AcDbLine
 10
145.682755
 20
60.549335
 30
0.0
 11
145.682755
 21
73.174332
 31
0.0
  0
POLYLINE
  5
33D
100
AcDbEntity
  8
ANSICHT
390
0
  6
DURCHGEHEND
 62
     1
100
AcDb3dPolyline
 66
     1
 10
0.0
 20
0.0
 30
0.0
 70
    12
 75
     5
  0
VERTEX
  5
33E
100
AcDbEntity
  8
0
390
0
100
AcDbVertex
100
AcDb3dPolylineVertex
 10
156.174088
 20
53.496021
 30
0.0
 70
    48
  0
VERTEX
  5
33F
100
AcDbEntity
  8
0
390
0
100
AcDbVertex
100
AcDb3dPolylineVertex
 10
156.174088
 20
53.496021
 30
0.0
 70
    40
  0
VERTEX
  5
340
100
AcDbEntity
  8
0
390
0
100
AcDbVertex
100
AcDb3dPolylineVertex
 10
156.282394
 20
53.566875
 30
0.0
 70
    40
  0
VERTEX
  5
341
100
AcDbEntity
  8
0
390
0
100
AcDbVertex
100
AcDb3dPolylineVertex
 10
156.174088
 20
53.496021
 30
0.0
 70
    48
  0
VERTEX
  5
342
100
AcDbEntity
  8
0
390
0
100
AcDbVertex
100
AcDb3dPolylineVertex
 10
156.282394
 20
53.566875
 30
0.0
 70
    48
  0
VERTEX
  5
343
100
AcDbEntity
  8
0
390
0
100
AcDbVertex
100
AcDb3dPolylineVertex
 10
156.282394
 20
53.566875
 30
0.0
 70
    48
  0
SEQEND
  5
344
100
AcDbEntity
  8
0
390
0
  0
POLYLINE
  5
345
100
AcDbEntity
  8
ANSICHT
390
0
  6
DURCHGEHEND
 62
     1
100
AcDb3dPolyline
 66
     1
 10
0.0
 20
0.0
 30
0.0
 70
    12
 75
     5
  0
VERTEX
  5
346
100
AcDbEntity
  8
0
390
0
100
AcDbVertex
100
AcDb3dPolylineVertex
 10
155.901413
 20
53.37775
 30
0.0
 70
    48
  0
VERTEX
  5
347
100
AcDbEntity
  8
0
390
0
100
AcDbVertex
100
AcDb3dPolylineVertex
 10
155.901413
 20
53.37775
 30
0.0
 70
    40
  0
VERTEX
  5
348
100
AcDbEntity
  8
0
390
0
100
AcDbVertex
100
AcDb3dPolylineVertex
 10
155.809769
 20
53.348202
 30
0.0
 70
    40
  0
VERTEX
  5
349
100
AcDbEntity
  8
0
390
0
100
AcDbVertex
100
AcDb3dPolylineVertex
 10
155.901413
 20
53.37775
 30
0.0
 70
    48
  0
VERTEX
  5
34A
100
AcDbEntity
  8
0
390
0
100
AcDbVertex
100
AcDb3dPolylineVertex
 10
155.809769
 20
53.348202
 30
0.0
 70
    48
  0
VERTEX
  5
34B
100
AcDbEntity
  8
0
390
0
100
AcDbVertex
100
AcDb3dPolylineVertex
 10
155.809769
 20
53.348202
 30
0.0
 70
    48
  0
SEQEND
  5
34C
100
AcDbEntity
  8
0
390
0
  0
POLYLINE
  5
34D
100
AcDbEntity
  8
ANSICHT
390
0
  6
DURCHGEHEND
 62
     1
100
AcDb3dPolyline
 66
     1
 10
0.0
 20
0.0
 30
0.0
 70
    12
 75
     5
  0
VERTEX
  5
34E
100
AcDbEntity
  8
0
390
0
100
AcDbVertex
100
AcDb3dPolylineVertex
 10
156.094894
 20
53.456966
 30
0.0
 70
    48
  0
VERTEX
  5
34F
100
AcDbEntity
  8
0
390
0
100
AcDbVertex
100
AcDb3dPolylineVertex
 10
156.094894
 20
53.456966
 30
0.0
 70
    40
  0
VERTEX
  5
350
100
AcDbEntity
  8
0
390
0
100
AcDbVertex
100
AcDb3dPolylineVertex
 10
155.995438
 20
53.409664
 30
0.0
 70
    40
  0
VERTEX
  5
351
100
AcDbEntity
  8
0
390
0
100
AcDbVertex
100
AcDb3dPolylineVertex
 10
156.094894
 20
53.456966
 30
0.0
 70
    48
  0
VERTEX
  5
352
100
AcDbEntity
  8
0
390
0
100
AcDbVertex
100
AcDb3dPolylineVertex
 10
155.995438
 20
53.409664
 30
0.0
 70
    48
  0
VERTEX
  5
353
100
AcDbEntity
  8
0
390
0
100
AcDbVertex
100
AcDb3dPolylineVertex
 10
155.995438
 20
53.409664
 30
0.0
 70
    48
  0
SEQEND
  5
354
100
AcDbEntity
  8
0
390
0
  0
POLYLINE
  5
355
100
AcDbEntity
  8
ANSICHT
390
0
  6
DURCHGEHEND
 62
     1
100
AcDb3dPolyline
 66
     1
 10
0.0
 20
0.0
 30
0.0
 70
    12
 75
     5
  0
VERTEX
  5
356
100
AcDbEntity
  8
0
390
0
100
AcDbVertex
100
AcDb3dPolylineVertex
 10
155.432785
 20
53.299335
 30
0.0
 70
    48
  0
VERTEX
  5
357
100
AcDbEntity
  8
0
390
0
100
AcDbVertex
100
AcDb3dPolylineVertex
 10
155.432785
 20
53.299335
 30
0.0
 70
    40
  0
VERTEX
  5
358
100
AcDbEntity
  8
0
390
0
100
AcDbVertex
100
AcDb3dPolylineVertex
 10
155.529434
 20
53.305168
 30
0.0
 70
    40
  0
VERTEX
  5
359
100
AcDbEntity
  8
0
390
0
100
AcDbVertex
100
AcDb3dPolylineVertex
 10
155.584885
 20
53.308151
 30
0.0
 70
    40
  0
VERTEX
  5
35A
100
AcDbEntity
  8
0
390
0
100
AcDbVertex
100
AcDb3dPolylineVertex
 10
155.618423
 20
53.310829
 30
0.0
 70
    40
  0
VERTEX
  5
35B
100
AcDbEntity
  8
0
390
0
100
AcDbVertex
100
AcDb3dPolylineVertex
 10
155.649384
 20
53.315742
 30
0.0
 70
    40
  0
VERTEX
  5
35C
100
AcDbEntity
  8
0
390
0
100
AcDbVertex
100
AcDb3dPolylineVertex
 10
155.697083
 20
53.325436
 30
0.0
 70
    40
  0
VERTEX
  5
35D
100
AcDbEntity
  8
0
390
0
100
AcDbVertex
100
AcDb3dPolylineVertex
 10
155.780838
 20
53.342449
 30
0.0
 70
    40
  0
VERTEX
  5
35E
100
AcDbEntity
  8
0
390
0
100
AcDbVertex
100
AcDb3dPolylineVertex
 10
155.680191
 20
53.315548
 30
0.0
 70
    48
  0
VERTEX
  5
35F
100
AcDbEntity
  8
0
390
0
100
AcDbVertex
100
AcDb3dPolylineVertex
 10
155.564407
 20
53.299404
 30
0.0
 70
    48
  0
VERTEX
  5
360
100
AcDbEntity
  8
0
390
0
100
AcDbVertex
100
AcDb3dPolylineVertex
 10
155.780838
 20
53.342449
 30
0.0
 70
    48
  0
SEQEND
  5
361
100
AcDbEntity
  8
0
390
0
  0
POLYLINE
  5
362
100
AcDbEntity
  8
ANSICHT
390
0
  6
DURCHGEHEND
 62
     1
100
AcDb3dPolyline
 66
     1
 10
0.0
 20
0.0
 30
0.0
 70
    12
 75
     5
  0
VERTEX
  5
363
100
AcDbEntity
  8
0
390
0
100
AcDbVertex
100
AcDb3dPolylineVertex
 10
156.664963
 20
53.949329
 30
0.0
 70
    48
  0
VERTEX
  5
364
100
AcDbEntity
  8
0
390
0
100
AcDbVertex
100
AcDb3dPolylineVertex
 10
156.664963
 20
53.949329
 30
0.0
 70
    40
  0
VERTEX
  5
365
100
AcDbEntity
  8
0
390
0
100
AcDbVertex
100
AcDb3dPolylineVertex
 10
156.736099
 20
54.058056
 30
0.0
 70
    40
  0
VERTEX
  5
366
100
AcDbEntity
  8
0
390
0
100
AcDbVertex
100
AcDb3dPolylineVertex
 10
156.664963
 20
53.949329
 30
0.0
 70
    48
  0
VERTEX
  5
367
100
AcDbEntity
  8
0
390
0
100
AcDbVertex
100
AcDb3dPolylineVertex
 10
156.736099
 20
54.058056
 30
0.0
 70
    48
  0
VERTEX
  5
368
100
AcDbEntity
  8
0
390
0
100
AcDbVertex
100
AcDb3dPolylineVertex
 10
156.736099
 20
54.058056
 30
0.0
 70
    48
  0
SEQEND
  5
369
100
AcDbEntity
  8
0
390
0
  0
POLYLINE
  5
36A
100
AcDbEntity
  8
ANSICHT
390
0
  6
DURCHGEHEND
 62
     1
100
AcDb3dPolyline
 66
     1
 10
0.0
 20
0.0
 30
0.0
 70
    12
 75
     5
  0
VERTEX
  5
36B
100
AcDbEntity
  8
0
390
0
100
AcDbVertex
100
AcDb3dPolylineVertex
 10
156.883896
 20
54.422337
 30
0.0
 70
    48
  0
VERTEX
  5
36C
100
AcDbEntity
  8
0
390
0
100
AcDbVertex
100
AcDb3dPolylineVertex
 10
156.883896
 20
54.422337
 30
0.0
 70
    40
  0
VERTEX
  5
36D
100
AcDbEntity
  8
0
390
0
100
AcDbVertex
100
AcDb3dPolylineVertex
 10
156.854263
 20
54.33041
 30
0.0
 70
    40
  0
VERTEX
  5
36E
100
AcDbEntity
  8
0
390
0
100
AcDbVertex
100
AcDb3dPolylineVertex
 10
156.883896
 20
54.422337
 30
0.0
 70
    48
  0
VERTEX
  5
36F
100
AcDbEntity
  8
0
390
0
100
AcDbVertex
100
AcDb3dPolylineVertex
 10
156.854263
 20
54.33041
 30
0.0
 70
    48
  0
VERTEX
  5
370
100
AcDbEntity
  8
0
390
0
100
AcDbVertex
100
AcDb3dPolylineVertex
 10
156.854263
 20
54.33041
 30
0.0
 70
    48
  0
SEQEND
  5
371
100
AcDbEntity
  8
0
390
0
  0
POLYLINE
  5
372
100
AcDbEntity
  8
ANSICHT
390
0
  6
DURCHGEHEND
 62
     1
100
AcDb3dPolyline
 66
     1
 10
0.0
 20
0.0
 30
0.0
 70
    12
 75
     5
  0
VERTEX
  5
373
100
AcDbEntity
  8
0
390
0
100
AcDbVertex
100
AcDb3dPolylineVertex
 10
156.774887
 20
54.136723
 30
0.0
 70
    48
  0
VERTEX
  5
374
100
AcDbEntity
  8
0
390
0
100
AcDbVertex
100
AcDb3dPolylineVertex
 10
156.774887
 20
54.136723
 30
0.0
 70
    40
  0
VERTEX
  5
375
100
AcDbEntity
  8
0
390
0
100
AcDbVertex
100
AcDb3dPolylineVertex
 10
156.822433
 20
54.236675
 30
0.0
 70
    40
  0
VERTEX
  5
376
100
AcDbEntity
  8
0
390
0
100
AcDbVertex
100
AcDb3dPolylineVertex
 10
156.774887
 20
54.136723
 30
0.0
 70
    48
  0
VERTEX
  5
377
100
AcDbEntity
  8
0
390
0
100
AcDbVertex
100
AcDb3dPolylineVertex
 10
156.822433
 20
54.236675
 30
0.0
 70
    48
  0
VERTEX
  5
378
100
AcDbEntity
  8
0
390
0
100
AcDbVertex
100
AcDb3dPolylineVertex
 10
156.822433
 20
54.236675
 30
0.0
 70
    48
  0
SEQEND
  5
379
100
AcDbEntity
  8
0
390
0
  0
POLYLINE
  5
37A
100
AcDbEntity
  8
ANSICHT
390
0
  6
DURCHGEHEND
 62
     1
100
AcDb3dPolyline
 66
     1
 10
0.0
 20
0.0
 30
0.0
 70
    12
 75
     5
  0
VERTEX
  5
37B
100
AcDbEntity
  8
0
390
0
100
AcDbVertex
100
AcDb3dPolylineVertex
 10
156.889633
 20
54.451206
 30
0.0
 70
    48
  0
VERTEX
  5
37C
100
AcDbEntity
  8
0
390
0
100
AcDbVertex
100
AcDb3dPolylineVertex
 10
156.889633
 20
54.451206
 30
0.0
 70
    40
  0
VERTEX
  5
37D
100
AcDbEntity
  8
0
390
0
100
AcDbVertex
100
AcDb3dPolylineVertex
 10
156.912628
 20
54.592903
 30
0.0
 70
    40
  0
VERTEX
  5
37E
100
AcDbEntity
  8
0
390
0
100
AcDbVertex
100
AcDb3dPolylineVertex
 10
156.926147
 20
54.73241
 30
0.0
 70
    40
  0
VERTEX
  5
37F
100
AcDbEntity
  8
0
390
0
100
AcDbVertex
100
AcDb3dPolylineVertex
 10
156.932571
 20
54.871265
 30
0.0
 70
    40
  0
VERTEX
  5
380
100
AcDbEntity
  8
0
390
0
100
AcDbVertex
100
AcDb3dPolylineVertex
 10
156.93425
 20
55.011009
 30
0.0
 70
    40
  0
VERTEX
  5
381
100
AcDbEntity
  8
0
390
0
100
AcDbVertex
100
AcDb3dPolylineVertex
 10
156.933517
 20
55.153183
 30
0.0
 70
    40
  0
VERTEX
  5
382
100
AcDbEntity
  8
0
390
0
100
AcDbVertex
100
AcDb3dPolylineVertex
 10
156.932755
 20
55.299328
 30
0.0
 70
    40
  0
VERTEX
  5
383
100
AcDbEntity
  8
0
390
0
100
AcDbVertex
100
AcDb3dPolylineVertex
 10
156.94664
 20
54.73782
 30
0.0
 70
    48
  0
VERTEX
  5
384
100
AcDbEntity
  8
0
390
0
100
AcDbVertex
100
AcDb3dPolylineVertex
 10
156.932755
 20
55.002041
 30
0.0
 70
    48
  0
VERTEX
  5
385
100
AcDbEntity
  8
0
390
0
100
AcDbVertex
100
AcDb3dPolylineVertex
 10
156.932755
 20
55.299328
 30
0.0
 70
    48
  0
VERTEX
  5
386
100
AcDbEntity
  8
0
390
0
100
AcDbVertex
100
AcDb3dPolylineVertex
 10
156.932755
 20
72.799332
 30
0.0
 70
    40
  0
VERTEX
  5
387
100
AcDbEntity
  8
0
390
0
100
AcDbVertex
100
AcDb3dPolylineVertex
 10
156.932755
 20
55.299328
 30
0.0
 70
    48
  0
VERTEX
  5
388
100
AcDbEntity
  8
0
390
0
100
AcDbVertex
100
AcDb3dPolylineVertex
 10
156.932755
 20
72.799332
 30
0.0
 70
    48
  0
VERTEX
  5
389
100
AcDbEntity
  8
0
390
0
100
AcDbVertex
100
AcDb3dPolylineVertex
 10
156.932755
 20
72.799332
 30
0.0
 70
    48
  0
VERTEX
  5
38A
100
AcDbEntity
  8
0
390
0
100
AcDbVertex
100
AcDb3dPolylineVertex
 10
156.932755
 20
73.299332
 30
0.0
 70
    40
  0
VERTEX
  5
38B
100
AcDbEntity
  8
0
390
0
100
AcDbVertex
100
AcDb3dPolylineVertex
 10
156.932755
 20
72.799332
 30
0.0
 70
    48
  0
VERTEX
  5
38C
100
AcDbEntity
  8
0
390
0
100
AcDbVertex
100
AcDb3dPolylineVertex
 10
156.932755
 20
73.299332
 30
0.0
 70
    48
  0
VERTEX
  5
38D
100
AcDbEntity
  8
0
390
0
100
AcDbVertex
100
AcDb3dPolylineVertex
 10
156.932755
 20
73.299332
 30
0.0
 70
    48
  0
SEQEND
  5
38E
100
AcDbEntity
  8
0
390
0
  0
LINE
  5
38F
100
AcDbEntity
  8
ANSICHT
390
0
  6
DURCHGEHEND
 62
     6
100
AcDbLine
 10
164.27655
 20
73.314285
 30
0.0
 11
63.444931
 21
73.314285
 31
0.0
  0
ENDSEC
  0
SECTION
  2
OBJECTS
  0
DICTIONARY
  5
19
100
AcDbDictionary
280
     0
281
     1
  3
ACAD_GROUP
350
1A
  3
ACAD_MLINESTYLE
350
1B
  3
ACAD_LAYOUT
350
1E
  3
ACAD_PLOTSETTINGS
350
22
  3
ACAD_PLOTSTYLENAME
350
1F
  3
ACAD_WIPEOUT_VARS
350
23
  0
DICTIONARY
  5
1A
102
{ACAD_REACTORS
330
19
102
}
100
AcDbDictionary
280
     0
281
     1
  0
DICTIONARY
  5
1B
102
{ACAD_REACTORS
330
19
102
}
100
AcDbDictionary
280
     0
281
     1
  3
Standard
350
1C
  0
MLINESTYLE
  5
1C
102
{ACAD_REACTORS
330
1B
102
}
100
AcDbMlineStyle
  2
Standard
 70
     0
  3

 62
     0
 51
90.0
 52
90.0
 71
     2
 49
0.5
 62
   256
  6
ByLayer
 49
-0.5
 62
   256
  6
ByLayer
  0
ACDBDICTIONARYWDFLT
  5
1F
102
{ACAD_REACTORS
330
19
102
}
100
AcDbDictionary
281
     1
  3
Normal
350
1D
100
AcDbDictionaryWithDefault
340
1D
  0
ACDBPLACEHOLDER
  5
1D
102
{ACAD_REACTORS
330
1F
102
}
  0
LAYOUT
  5
20
102
{ACAD_REACTORS
330
1E
102
}
100
AcDbPlotSettings
  1

  2

  4

  6

 40
0.0
 41
0.0
 42
0.0
 43
0.0
 44
0.0
 45
0.0
 46
0.0
 47
0.0
 48
0.0
 49
0.0
140
0.0
141
0.0
142
1.0
143
1.0
 70
  1024
 72
     0
 73
     0
 74
     0
  7

 75
     0
147
1.0
148
0.0
149
0.0
100
AcDbLayout
  1
Model
 70
     0
 71
     0
 10
0.0
 20
0.0
 11
0.0
 21
0.0
 12
0.0
 22
0.0
 32
0.0
 14
0.0
 24
0.0
 34
0.0
 15
0.0
 25
0.0
 35
0.0
146
0.0
 13
0.0
 23
0.0
 33
0.0
 16
0.0
 26
0.0
 36
0.0
 17
0.0
 27
0.0
 37
0.0
 76
     0
330
A
331
0
345
0
346
0
  0
LAYOUT
  5
21
102
{ACAD_REACTORS
330
1E
102
}
100
AcDbPlotSettings
  1

  2

  4

  6

 40
0.0
 41
0.0
 42
0.0
 43
0.0
 44
0.0
 45
0.0
 46
0.0
 47
0.0
 48
0.0
 49
0.0
140
0.0
141
0.0
142
1.0
143
1.0
 70
     0
 72
     0
 73
     0
 74
     0
  7

 75
     0
147
1.0
148
0.0
149
0.0
100
AcDbLayout
  1
Layout1
 70
     0
 71
     0
 10
0.0
 20
0.0
 11
0.0
 21
0.0
 12
0.0
 22
0.0
 32
0.0
 14
0.0
 24
0.0
 34
0.0
 15
0.0
 25
0.0
 35
0.0
146
0.0
 13
0.0
 23
0.0
 33
0.0
 16
0.0
 26
0.0
 36
0.0
 17
0.0
 27
0.0
 37
0.0
 76
     0
330
B
331
0
345
0
346
0
  0
DICTIONARY
  5
1E
102
{ACAD_REACTORS
330
19
102
}
100
AcDbDictionary
280
     0
281
     1
  3
Layout1
350
21
  3
Model
350
20
  0
DICTIONARY
  5
22
102
{ACAD_REACTORS
330
19
102
}
100
AcDbDictionary
280
     0
281
     1
  0
WIPEOUTVARIABLES
  5
23
100
AcDbWipeoutVariables
 70
     1
  0
ENDSEC
  0
EOF
