  0
SECTION
  2
HEADER
  9
$ACADVER
  1
AC1009
  9
$LUNITS
 70
2
  9
$LUPREC
 70
4
  9
$LTSCALE
 40
1.0
  9
$EXTMIN
 10
33.7873
 20
-259.334
 30
0
  9
$EXTMAX
 10
230.7955
 20
22.6587
 30
0
  0
ENDSEC
  0
SECTION
  2
TABLES
  0
TABLE
  2
LTYPE
 70
256
  0
ENDTAB
  0
TABLE
  2
LAYER
 70
6
  0
LAYER
  2
LAYER_1
 70
64
 62
7
  6
CONTINUOUS
  0
LAYER
  2
LAYER_2
 70
64
 62
7
  6
CONTINUOUS
  0
LAYER
  2
LAYER_3
 70
64
 62
7
  6
CONTINUOUS
  0
LAYER
  2
LAYER_4
 70
64
 62
7
  6
CONTINUOUS
  0
LAYER
  2
LAYER_5
 70
64
 62
7
  6
CONTINUOUS
  0
LAYER
  2
LAYER_6
 70
64
 62
7
  6
CONTINUOUS
  0
ENDTAB
  0
TABLE
  2
STYLE
 70
6
  0
STYLE
  2
STANDARD
 70
0
 40
0
 50
0
 71
0
 41
0
 42
0
  3
TXT
  4
BIGFONT
  0
ENDTAB
  0
ENDSEC
  0
SECTION
  2
BLOCKS
  0
BLOCK
  8
LAYER_1
  2
AIGNBL01040005
 70
64
 10
0
 20
0
 30
0
  3
AIGNBL01040005
  0
POLYLINE
  8
LAYER_1
 40
0.05
 41
0.05
 66
1
 10
0
 20
0
 30
0
 70
1
  0
VERTEX
  8
LAYER_1
 10
138.3767
 20
-249.1011
  0
VERTEX
  8
LAYER_1
 10
137.891
 20
-250.2793
  0
VERTEX
  8
LAYER_1
 10
137.2664
 20
-250.2793
  0
VERTEX
  8
LAYER_1
 10
138.857
 20
-246.5355
  0
VERTEX
  8
LAYER_1
 10
139.586
 20
-246.5355
  0
VERTEX
  8
LAYER_1
 10
141.1828
 20
-250.2793
  0
VERTEX
  8
LAYER_1
 10
140.5365
 20
-250.2793
  0
VERTEX
  8
LAYER_1
 10
140.0369
 20
-249.1011
  0
SEQEND
  0
POLYLINE
  8
LAYER_1
 40
0.05
 41
0.05
 66
1
 10
0
 20
0
 30
0
 70
1
  0
VERTEX
  8
LAYER_1
 10
139.9115
 20
-248.7245
  0
VERTEX
  8
LAYER_1
 10
139.4533
 20
-247.6459
  0
VERTEX
  8
LAYER_1
 10
139.2101
 20
-246.963
  0
VERTEX
  8
LAYER_1
 10
139.1967
 20
-246.963
  0
VERTEX
  8
LAYER_1
 10
138.9603
 20
-247.6414
  0
VERTEX
  8
LAYER_1
 10
138.5021
 20
-248.7245
  0
SEQEND
  0
ENDBLK
  0
BLOCK
  8
LAYER_1
  2
AIGNBL01040006
 70
64
 10
0
 20
0
 30
0
  3
AIGNBL01040006
  0
POLYLINE
  8
LAYER_1
 40
0.05
 41
0.05
 66
1
 10
0
 20
0
 30
0
 70
1
  0
VERTEX
  8
LAYER_1
 10
145.5226
 20
-250.8295
 42
-0.01588995579
  0
VERTEX
  8
LAYER_1
 10
143.7311
 20
-250.3954
  0
VERTEX
  8
LAYER_1
 10
143.4465
 20
-250.3406
 42
-0.08603985201
  0
VERTEX
  8
LAYER_1
 10
142.5648
 20
-250.1665
 42
-0.09807603942
  0
VERTEX
  8
LAYER_1
 10
141.9131
 20
-249.7557
 42
-0.2094886647
  0
VERTEX
  8
LAYER_1
 10
141.3839
 20
-248.4469
 42
-0.09686882676
  0
VERTEX
  8
LAYER_1
 10
141.5276
 20
-247.6779
 42
-0.2046492491
  0
VERTEX
  8
LAYER_1
 10
142.5693
 20
-246.6597
 42
-0.09822810302
  0
VERTEX
  8
LAYER_1
 10
143.5644
 20
-246.4745
 42
-0.08551091506
  0
VERTEX
  8
LAYER_1
 10
144.4282
 20
-246.615
 42
-0.1004264881
  0
VERTEX
  8
LAYER_1
 10
145.0896
 20
-247.0069
 42
-0.2141381959
  0
VERTEX
  8
LAYER_1
 10
145.6617
 20
-248.3686
 42
-0.09538251124
  0
VERTEX
  8
LAYER_1
 10
145.5236
 20
-249.1322
 42
-0.2145004706
  0
VERTEX
  8
LAYER_1
 10
144.5063
 20
-250.1049
 42
-0.02339472194
  0
VERTEX
  8
LAYER_1
 10
144.3281
 20
-250.1628
  0
VERTEX
  8
LAYER_1
 10
144.3281
 20
-250.1852
  0
VERTEX
  8
LAYER_1
 10
145.6965
 20
-250.424
  0
SEQEND
  0
POLYLINE
  8
LAYER_1
 40
0.05
 41
0.05
 66
1
 10
0
 20
0
 30
0
 70
1
  0
VERTEX
  8
LAYER_1
 10
145.0233
 20
-248.39
 42
0.1071465477
  0
VERTEX
  8
LAYER_1
 10
144.8729
 20
-247.6894
 42
0.2977221891
  0
VERTEX
  8
LAYER_1
 10
143.5433
 20
-246.8687
 42
0.1072160189
  0
VERTEX
  8
LAYER_1
 10
142.8575
 20
-247.0073
 42
0.2385375056
  0
VERTEX
  8
LAYER_1
 10
142.0749
 20
-248.007
 42
0.05759145292
  0
VERTEX
  8
LAYER_1
 10
142.0296
 20
-248.4344
 42
0.2182236294
  0
VERTEX
  8
LAYER_1
 10
142.5575
 20
-249.6231
 42
0.1771891839
  0
VERTEX
  8
LAYER_1
 10
143.5161
 20
-249.9468
 42
0.1075696895
  0
VERTEX
  8
LAYER_1
 10
144.1932
 20
-249.8086
 42
0.236982977
  0
VERTEX
  8
LAYER_1
 10
144.9758
 20
-248.8146
 42
0.05604944619
  0
SEQEND
  0
ENDBLK
  0
BLOCK
  8
LAYER_1
  2
AIGNBL01040007
 70
64
 10
0
 20
0
 30
0
  3
AIGNBL01040007
  0
POLYLINE
  8
LAYER_1
 40
0.05
 41
0.05
 66
1
 10
0
 20
0
 30
0
 70
1
  0
VERTEX
  8
LAYER_1
 10
146.9815
 20
-246.5355
  0
VERTEX
  8
LAYER_1
 10
146.9815
 20
-248.7517
 42
0.114472655
  0
VERTEX
  8
LAYER_1
 10
147.1146
 20
-249.4136
 42
0.1464766
  0
VERTEX
  8
LAYER_1
 10
147.4628
 20
-249.7966
 42
0.1363197034
  0
VERTEX
  8
LAYER_1
 10
148.0716
 20
-249.9468
 42
0.1219363095
  0
VERTEX
  8
LAYER_1
 10
148.6913
 20
-249.8128
 42
0.1503291203
  0
VERTEX
  8
LAYER_1
 10
149.0609
 20
-249.446
 42
0.1255921242
  0
VERTEX
  8
LAYER_1
 10
149.2105
 20
-248.7517
  0
VERTEX
  8
LAYER_1
 10
149.2105
 20
-246.5355
  0
VERTEX
  8
LAYER_1
 10
149.8217
 20
-246.5355
  0
VERTEX
  8
LAYER_1
 10
149.8217
 20
-248.7187
 42
-0.1000186514
  0
VERTEX
  8
LAYER_1
 10
149.6875
 20
-249.4569
 42
-0.1214826848
  0
VERTEX
  8
LAYER_1
 10
149.3164
 20
-249.9606
 42
-0.1105884685
  0
VERTEX
  8
LAYER_1
 10
148.6945
 20
-250.2654
 42
-0.06129767201
  0
VERTEX
  8
LAYER_1
 10
148.0509
 20
-250.3406
 42
-0.09420892198
  0
VERTEX
  8
LAYER_1
 10
147.2365
 20
-250.2032
 42
-0.2431575096
  0
VERTEX
  8
LAYER_1
 10
146.4378
 20
-249.2978
 42
-0.06319469768
  0
VERTEX
  8
LAYER_1
 10
146.3707
 20
-248.7404
  0
VERTEX
  8
LAYER_1
 10
146.3707
 20
-246.5355
  0
SEQEND
  0
ENDBLK
  0
BLOCK
  8
LAYER_1
  2
AIGNBL01040008
 70
64
 10
0
 20
0
 30
0
  3
AIGNBL01040008
  0
POLYLINE
  8
LAYER_1
 40
0.05
 41
0.05
 66
1
 10
0
 20
0
 30
0
 70
1
  0
VERTEX
  8
LAYER_1
 10
151.5573
 20
-249.1011
  0
VERTEX
  8
LAYER_1
 10
151.0709
 20
-250.2793
  0
VERTEX
  8
LAYER_1
 10
150.447
 20
-250.2793
  0
VERTEX
  8
LAYER_1
 10
152.0365
 20
-246.5355
  0
VERTEX
  8
LAYER_1
 10
152.7655
 20
-246.5355
  0
VERTEX
  8
LAYER_1
 10
154.3623
 20
-250.2793
  0
VERTEX
  8
LAYER_1
 10
153.7167
 20
-250.2793
  0
VERTEX
  8
LAYER_1
 10
153.2175
 20
-249.1011
  0
SEQEND
  0
POLYLINE
  8
LAYER_1
 40
0.05
 41
0.05
 66
1
 10
0
 20
0
 30
0
 70
1
  0
VERTEX
  8
LAYER_1
 10
153.0921
 20
-248.7245
  0
VERTEX
  8
LAYER_1
 10
152.6332
 20
-247.6459
  0
VERTEX
  8
LAYER_1
 10
152.3897
 20
-246.963
  0
VERTEX
  8
LAYER_1
 10
152.3759
 20
-246.963
  0
VERTEX
  8
LAYER_1
 10
152.1402
 20
-247.6414
  0
VERTEX
  8
LAYER_1
 10
151.682
 20
-248.7245
  0
SEQEND
  0
ENDBLK
  0
BLOCK
  8
LAYER_1
  2
AIGNBL01040009
 70
64
 10
0
 20
0
 30
0
  3
AIGNBL01040009
  0
POLYLINE
  8
LAYER_1
 40
0.05
 41
0.05
 66
1
 10
0
 20
0
 30
0
 70
1
  0
VERTEX
  8
LAYER_1
 10
155.3969
 20
-246.58
 42
-0.03256094069
  0
VERTEX
  8
LAYER_1
 10
156.5576
 20
-246.5072
 42
-0.08241612935
  0
VERTEX
  8
LAYER_1
 10
157.5173
 20
-246.6416
 42
-0.07669938049
  0
VERTEX
  8
LAYER_1
 10
157.8691
 20
-246.8184
 42
-0.2484913661
  0
VERTEX
  8
LAYER_1
 10
158.279
 20
-247.6018
 42
-0.2263535337
  0
VERTEX
  8
LAYER_1
 10
157.9177
 20
-248.4014
 42
-0.1098394792
  0
VERTEX
  8
LAYER_1
 10
157.2932
 20
-248.7128
 42
-0.0656406839
  0
VERTEX
  8
LAYER_1
 10
156.4872
 20
-248.8127
 42
-0.06243203296
  0
VERTEX
  8
LAYER_1
 10
156.0015
 20
-248.7793
  0
VERTEX
  8
LAYER_1
 10
156.0015
 20
-250.2793
  0
VERTEX
  8
LAYER_1
 10
155.3969
 20
-250.2793
  0
SEQEND
  0
POLYLINE
  8
LAYER_1
 40
0.05
 41
0.05
 66
1
 10
0
 20
0
 30
0
 70
1
  0
VERTEX
  8
LAYER_1
 10
156.0015
 20
-248.3852
 42
0.04167858666
  0
VERTEX
  8
LAYER_1
 10
156.501
 20
-248.4245
 42
0.1033682296
  0
VERTEX
  8
LAYER_1
 10
157.216
 20
-248.2977
 42
0.300261568
  0
VERTEX
  8
LAYER_1
 10
157.6751
 20
-247.6242
 42
0.1736095203
  0
VERTEX
  8
LAYER_1
 10
157.5412
 20
-247.2193
 42
0.1518049397
  0
VERTEX
  8
LAYER_1
 10
157.1227
 20
-246.9614
 42
0.06878721899
  0
VERTEX
  8
LAYER_1
 10
156.5713
 20
-246.891
 42
0.0640598863
  0
VERTEX
  8
LAYER_1
 10
156.0015
 20
-246.93
  0
SEQEND
  0
ENDBLK
  0
BLOCK
  8
LAYER_1
  2
AIGNBL0104000A
 70
64
 10
0
 20
0
 30
0
  3
AIGNBL0104000A
  0
POLYLINE
  8
LAYER_1
 40
0.05
 41
0.05
 66
1
 10
0
 20
0
 30
0
 70
1
  0
VERTEX
  8
LAYER_1
 10
159.8218
 20
-246.8352
 42
-0.2759870412
  0
VERTEX
  8
LAYER_1
 10
159.6829
 20
-247.0742
 42
-0.1267055018
  0
VERTEX
  8
LAYER_1
 10
159.4325
 20
-247.1356
 42
-0.2239956238
  0
VERTEX
  8
LAYER_1
 10
159.1241
 20
-247.0039
 42
-0.1705452753
  0
VERTEX
  8
LAYER_1
 10
159.0645
 20
-246.8352
 42
-0.2641883957
  0
VERTEX
  8
LAYER_1
 10
159.2127
 20
-246.5896
 42
-0.1291792354
  0
VERTEX
  8
LAYER_1
 10
159.4459
 20
-246.53
 42
-0.2251681707
  0
VERTEX
  8
LAYER_1
 10
159.761
 20
-246.6599
 42
-0.1693099844
  0
SEQEND
  0
POLYLINE
  8
LAYER_1
 40
0.05
 41
0.05
 66
1
 10
0
 20
0
 30
0
 70
1
  0
VERTEX
  8
LAYER_1
 10
159.1407
 20
-250.2793
  0
VERTEX
  8
LAYER_1
 10
159.1407
 20
-247.5907
  0
VERTEX
  8
LAYER_1
 10
159.7515
 20
-247.5907
  0
VERTEX
  8
LAYER_1
 10
159.7515
 20
-250.2793
  0
SEQEND
  0
ENDBLK
  0
BLOCK
  8
LAYER_1
  2
AIGNBL0104000B
 70
64
 10
0
 20
0
 30
0
  3
AIGNBL0104000B
  0
POLYLINE
  8
LAYER_1
 40
0.05
 41
0.05
 66
1
 10
0
 20
0
 30
0
 70
1
  0
VERTEX
  8
LAYER_1
 10
161.6118
 20
-249.1011
  0
VERTEX
  8
LAYER_1
 10
161.1271
 20
-250.2793
  0
VERTEX
  8
LAYER_1
 10
160.5015
 20
-250.2793
  0
VERTEX
  8
LAYER_1
 10
162.0918
 20
-246.5355
  0
VERTEX
  8
LAYER_1
 10
162.8211
 20
-246.5355
  0
VERTEX
  8
LAYER_1
 10
164.4186
 20
-250.2793
  0
VERTEX
  8
LAYER_1
 10
163.7719
 20
-250.2793
  0
VERTEX
  8
LAYER_1
 10
163.2727
 20
-249.1011
  0
SEQEND
  0
POLYLINE
  8
LAYER_1
 40
0.05
 41
0.05
 66
1
 10
0
 20
0
 30
0
 70
1
  0
VERTEX
  8
LAYER_1
 10
163.1473
 20
-248.7245
  0
VERTEX
  8
LAYER_1
 10
162.6891
 20
-247.6459
  0
VERTEX
  8
LAYER_1
 10
162.4466
 20
-246.963
  0
VERTEX
  8
LAYER_1
 10
162.4321
 20
-246.963
  0
VERTEX
  8
LAYER_1
 10
162.1961
 20
-247.6414
  0
VERTEX
  8
LAYER_1
 10
161.7379
 20
-248.7245
  0
SEQEND
  0
ENDBLK
  0
BLOCK
  8
LAYER_1
  2
AIGNBL01030004
 70
64
 10
0
 20
0
 30
0
  3
AIGNBL01030004
  0
INSERT
  8
LAYER_1
  2
AIGNBL01040005
 10
0
 20
0
 30
0
  0
INSERT
  8
LAYER_1
  2
AIGNBL01040006
 10
0
 20
0
 30
0
  0
INSERT
  8
LAYER_1
  2
AIGNBL01040007
 10
0
 20
0
 30
0
  0
INSERT
  8
LAYER_1
  2
AIGNBL01040008
 10
0
 20
0
 30
0
  0
INSERT
  8
LAYER_1
  2
AIGNBL01040009
 10
0
 20
0
 30
0
  0
INSERT
  8
LAYER_1
  2
AIGNBL0104000A
 10
0
 20
0
 30
0
  0
INSERT
  8
LAYER_1
  2
AIGNBL0104000B
 10
0
 20
0
 30
0
  0
ENDBLK
  0
BLOCK
  8
LAYER_1
  2
AIGNBL0103000D
 70
64
 10
0
 20
0
 30
0
  3
AIGNBL0103000D
  0
POLYLINE
  8
LAYER_1
 40
0.05
 41
0.05
 66
1
 10
0
 20
0
 30
0
 70
1
  0
VERTEX
  8
LAYER_1
 10
137.3756
 20
-252.1676
  0
VERTEX
  8
LAYER_1
 10
137.9258
 20
-252.1676
  0
VERTEX
  8
LAYER_1
 10
137.9258
 20
-252.2609
  0
VERTEX
  8
LAYER_1
 10
137.2715
 20
-252.2609
  0
VERTEX
  8
LAYER_1
 10
137.2715
 20
-251.2339
  0
VERTEX
  8
LAYER_1
 10
137.9082
 20
-251.2339
  0
VERTEX
  8
LAYER_1
 10
137.9082
 20
-251.3266
  0
VERTEX
  8
LAYER_1
 10
137.3756
 20
-251.3266
  0
VERTEX
  8
LAYER_1
 10
137.3756
 20
-251.6787
  0
VERTEX
  8
LAYER_1
 10
137.8734
 20
-251.6787
  0
VERTEX
  8
LAYER_1
 10
137.8734
 20
-251.7717
  0
VERTEX
  8
LAYER_1
 10
137.3756
 20
-251.7717
  0
SEQEND
  0
ENDBLK
  0
BLOCK
  8
LAYER_1
  2
AIGNBL0103000E
 70
64
 10
0
 20
0
 30
0
  3
AIGNBL0103000E
  0
POLYLINE
  8
LAYER_1
 40
0.05
 41
0.05
 66
1
 10
0
 20
0
 30
0
 70
1
  0
VERTEX
  8
LAYER_1
 10
139.0589
 20
-252.1079
  0
VERTEX
  8
LAYER_1
 10
139.0613
 20
-252.1079
  0
VERTEX
  8
LAYER_1
 10
139.0613
 20
-251.2339
  0
VERTEX
  8
LAYER_1
 10
139.1663
 20
-251.2339
  0
VERTEX
  8
LAYER_1
 10
139.1663
 20
-252.2609
  0
VERTEX
  8
LAYER_1
 10
139.0365
 20
-252.2609
  0
VERTEX
  8
LAYER_1
 10
138.4384
 20
-251.3772
  0
VERTEX
  8
LAYER_1
 10
138.435
 20
-251.3772
  0
VERTEX
  8
LAYER_1
 10
138.435
 20
-252.2609
  0
VERTEX
  8
LAYER_1
 10
138.3306
 20
-252.2609
  0
VERTEX
  8
LAYER_1
 10
138.3306
 20
-251.2339
  0
VERTEX
  8
LAYER_1
 10
138.4611
 20
-251.2339
  0
SEQEND
  0
ENDBLK
  0
BLOCK
  8
LAYER_1
  2
AIGNBL0103000F
 70
64
 10
0
 20
0
 30
0
  3
AIGNBL0103000F
  0
POLYLINE
  8
LAYER_1
 40
0.05
 41
0.05
 66
1
 10
0
 20
0
 30
0
 70
1
  0
VERTEX
  8
LAYER_1
 10
139.637
 20
-252.0501
  0
VERTEX
  8
LAYER_1
 10
139.691
 20
-252.1527
 42
0.1791739205
  0
VERTEX
  8
LAYER_1
 10
139.8034
 20
-252.1937
  0
VERTEX
  8
LAYER_1
 10
139.8922
 20
-252.1744
  0
VERTEX
  8
LAYER_1
 10
139.948
 20
-252.1214
  0
VERTEX
  8
LAYER_1
 10
139.9763
 20
-252.0453
  0
VERTEX
  8
LAYER_1
 10
139.9853
 20
-251.956
  0
VERTEX
  8
LAYER_1
 10
139.9853
 20
-251.2339
  0
VERTEX
  8
LAYER_1
 10
140.0893
 20
-251.2339
  0
VERTEX
  8
LAYER_1
 10
140.0893
 20
-251.965
  0
VERTEX
  8
LAYER_1
 10
140.0783
 20
-252.0718
  0
VERTEX
  8
LAYER_1
 10
140.0369
 20
-252.1765
  0
VERTEX
  8
LAYER_1
 10
139.9529
 20
-252.2554
  0
VERTEX
  8
LAYER_1
 10
139.8147
 20
-252.2868
 42
-0.18823279
  0
VERTEX
  8
LAYER_1
 10
139.6311
 20
-252.2268
 42
-0.1779708983
  0
VERTEX
  8
LAYER_1
 10
139.5391
 20
-252.0769
  0
SEQEND
  0
ENDBLK
  0
BLOCK
  8
LAYER_1
  2
AIGNBL01030010
 70
64
 10
0
 20
0
 30
0
  3
AIGNBL01030010
  0
POLYLINE
  8
LAYER_1
 40
0.05
 41
0.05
 66
1
 10
0
 20
0
 30
0
 70
1
  0
VERTEX
  8
LAYER_1
 10
141.5693
 20
-251.7469
 42
-0.104348301
  0
VERTEX
  8
LAYER_1
 10
141.5279
 20
-251.9629
 42
-0.1013865216
  0
VERTEX
  8
LAYER_1
 10
141.4163
 20
-252.1338
  0
VERTEX
  8
LAYER_1
 10
141.2458
 20
-252.2461
 42
-0.09497960855
  0
VERTEX
  8
LAYER_1
 10
141.0332
 20
-252.2868
 42
-0.1003676177
  0
VERTEX
  8
LAYER_1
 10
140.8207
 20
-252.2461
  0
VERTEX
  8
LAYER_1
 10
140.6512
 20
-252.1338
 42
-0.09474436642
  0
VERTEX
  8
LAYER_1
 10
140.5389
 20
-251.9629
 42
-0.09317427323
  0
VERTEX
  8
LAYER_1
 10
140.4986
 20
-251.7469
 42
-0.1052531491
  0
VERTEX
  8
LAYER_1
 10
140.5389
 20
-251.5306
 42
-0.1000138279
  0
VERTEX
  8
LAYER_1
 10
140.6512
 20
-251.3604
 42
-0.09581503346
  0
VERTEX
  8
LAYER_1
 10
140.8207
 20
-251.2481
 42
-0.09561956468
  0
VERTEX
  8
LAYER_1
 10
141.0332
 20
-251.2071
 42
-0.1024782491
  0
VERTEX
  8
LAYER_1
 10
141.2458
 20
-251.2481
 42
-0.1014786584
  0
VERTEX
  8
LAYER_1
 10
141.4163
 20
-251.3604
 42
-0.09815577957
  0
VERTEX
  8
LAYER_1
 10
141.5279
 20
-251.5306
 42
-0.09523735002
  0
SEQEND
  0
POLYLINE
  8
LAYER_1
 40
0.05
 41
0.05
 66
1
 10
0
 20
0
 30
0
 70
1
  0
VERTEX
  8
LAYER_1
 10
141.4584
 20
-251.7476
  0
VERTEX
  8
LAYER_1
 10
141.4301
 20
-251.5767
  0
VERTEX
  8
LAYER_1
 10
141.3454
 20
-251.4344
  0
VERTEX
  8
LAYER_1
 10
141.211
 20
-251.337
 42
0.1026237584
  0
VERTEX
  8
LAYER_1
 10
141.0332
 20
-251.3001
 42
0.1147987019
  0
VERTEX
  8
LAYER_1
 10
140.8558
 20
-251.337
  0
VERTEX
  8
LAYER_1
 10
140.7225
 20
-251.4344
  0
VERTEX
  8
LAYER_1
 10
140.6374
 20
-251.5767
  0
VERTEX
  8
LAYER_1
 10
140.6081
 20
-251.7476
  0
VERTEX
  8
LAYER_1
 10
140.6374
 20
-251.9188
  0
VERTEX
  8
LAYER_1
 10
140.7225
 20
-252.0607
  0
VERTEX
  8
LAYER_1
 10
140.8558
 20
-252.1575
  0
VERTEX
  8
LAYER_1
 10
141.0332
 20
-252.1937
 42
0.1185100977
  0
VERTEX
  8
LAYER_1
 10
141.211
 20
-252.1575
  0
VERTEX
  8
LAYER_1
 10
141.3454
 20
-252.0607
  0
VERTEX
  8
LAYER_1
 10
141.4301
 20
-251.9188
  0
SEQEND
  0
ENDBLK
  0
BLOCK
  8
LAYER_1
  2
AIGNBL01030011
 70
64
 10
0
 20
0
 30
0
  3
AIGNBL01030011
  0
POLYLINE
  8
LAYER_1
 40
0.05
 41
0.05
 66
1
 10
0
 20
0
 30
0
 70
1
  0
VERTEX
  8
LAYER_1
 10
142.3393
 20
-252.2609
  0
VERTEX
  8
LAYER_1
 10
142.2349
 20
-252.2609
  0
VERTEX
  8
LAYER_1
 10
142.2349
 20
-251.8182
  0
VERTEX
  8
LAYER_1
 10
141.8504
 20
-251.2339
  0
VERTEX
  8
LAYER_1
 10
141.9813
 20
-251.2339
  0
VERTEX
  8
LAYER_1
 10
142.2904
 20
-251.7311
  0
VERTEX
  8
LAYER_1
 10
142.6022
 20
-251.2339
  0
VERTEX
  8
LAYER_1
 10
142.7234
 20
-251.2339
  0
VERTEX
  8
LAYER_1
 10
142.3393
 20
-251.8182
  0
SEQEND
  0
ENDBLK
  0
BLOCK
  8
LAYER_1
  2
AIGNBL01030012
 70
64
 10
0
 20
0
 30
0
  3
AIGNBL01030012
  0
POLYLINE
  8
LAYER_1
 40
0.05
 41
0.05
 66
1
 10
0
 20
0
 30
0
 70
1
  0
VERTEX
  8
LAYER_1
 10
143.6236
 20
-251.2339
  0
VERTEX
  8
LAYER_1
 10
143.9288
 20
-251.2339
  0
VERTEX
  8
LAYER_1
 10
144.047
 20
-251.2457
  0
VERTEX
  8
LAYER_1
 10
144.1528
 20
-251.288
  0
VERTEX
  8
LAYER_1
 10
144.2307
 20
-251.3686
  0
VERTEX
  8
LAYER_1
 10
144.2603
 20
-251.4961
 42
-0.1778951175
  0
VERTEX
  8
LAYER_1
 10
144.2103
 20
-251.6373
 42
-0.1614829203
  0
VERTEX
  8
LAYER_1
 10
144.078
 20
-251.7166
  0
VERTEX
  8
LAYER_1
 10
144.078
 20
-251.7194
 42
-0.1736511409
  0
VERTEX
  8
LAYER_1
 10
144.2434
 20
-251.7969
 42
-0.1925337955
  0
VERTEX
  8
LAYER_1
 10
144.3099
 20
-251.9764
  0
VERTEX
  8
LAYER_1
 10
144.2823
 20
-252.0928
  0
VERTEX
  8
LAYER_1
 10
144.2062
 20
-252.1831
  0
VERTEX
  8
LAYER_1
 10
144.0866
 20
-252.2402
  0
VERTEX
  8
LAYER_1
 10
143.9275
 20
-252.2609
  0
VERTEX
  8
LAYER_1
 10
143.6236
 20
-252.2609
  0
SEQEND
  0
POLYLINE
  8
LAYER_1
 40
0.05
 41
0.05
 66
1
 10
0
 20
0
 30
0
 70
1
  0
VERTEX
  8
LAYER_1
 10
143.7277
 20
-251.6832
  0
VERTEX
  8
LAYER_1
 10
143.9382
 20
-251.6832
  0
VERTEX
  8
LAYER_1
 10
144.0146
 20
-251.6742
  0
VERTEX
  8
LAYER_1
 10
144.0842
 20
-251.6453
  0
VERTEX
  8
LAYER_1
 10
144.1362
 20
-251.5888
  0
VERTEX
  8
LAYER_1
 10
144.1552
 20
-251.5034
  0
VERTEX
  8
LAYER_1
 10
144.1362
 20
-251.4203
  0
VERTEX
  8
LAYER_1
 10
144.0835
 20
-251.3638
  0
VERTEX
  8
LAYER_1
 10
144.005
 20
-251.3328
  0
VERTEX
  8
LAYER_1
 10
143.9089
 20
-251.3235
  0
VERTEX
  8
LAYER_1
 10
143.7277
 20
-251.3235
  0
SEQEND
  0
POLYLINE
  8
LAYER_1
 40
0.05
 41
0.05
 66
1
 10
0
 20
0
 30
0
 70
1
  0
VERTEX
  8
LAYER_1
 10
143.7277
 20
-252.171
  0
VERTEX
  8
LAYER_1
 10
143.9223
 20
-252.171
  0
VERTEX
  8
LAYER_1
 10
144.0301
 20
-252.1596
  0
VERTEX
  8
LAYER_1
 10
144.1204
 20
-252.1252
  0
VERTEX
  8
LAYER_1
 10
144.181
 20
-252.0625
  0
VERTEX
  8
LAYER_1
 10
144.2048
 20
-251.9705
 42
0.2546661425
  0
VERTEX
  8
LAYER_1
 10
144.1362
 20
-251.8189
 42
0.138509597
  0
VERTEX
  8
LAYER_1
 10
143.9413
 20
-251.7686
  0
VERTEX
  8
LAYER_1
 10
143.7277
 20
-251.7686
  0
SEQEND
  0
ENDBLK
  0
BLOCK
  8
LAYER_1
  2
AIGNBL01030013
 70
64
 10
0
 20
0
 30
0
  3
AIGNBL01030013
  0
POLYLINE
  8
LAYER_1
 40
0.05
 41
0.05
 66
1
 10
0
 20
0
 30
0
 70
1
  0
VERTEX
  8
LAYER_1
 10
144.7388
 20
-252.2609
  0
VERTEX
  8
LAYER_1
 10
144.6241
 20
-252.2609
  0
VERTEX
  8
LAYER_1
 10
145.0685
 20
-251.2339
  0
VERTEX
  8
LAYER_1
 10
145.1705
 20
-251.2339
  0
VERTEX
  8
LAYER_1
 10
145.6111
 20
-252.2609
  0
VERTEX
  8
LAYER_1
 10
145.4943
 20
-252.2609
  0
VERTEX
  8
LAYER_1
 10
145.3813
 20
-251.9912
  0
VERTEX
  8
LAYER_1
 10
144.8504
 20
-251.9912
  0
SEQEND
  0
POLYLINE
  8
LAYER_1
 40
0.05
 41
0.05
 66
1
 10
0
 20
0
 30
0
 70
1
  0
VERTEX
  8
LAYER_1
 10
144.8894
 20
-251.8947
  0
VERTEX
  8
LAYER_1
 10
145.3424
 20
-251.8947
  0
VERTEX
  8
LAYER_1
 10
145.1164
 20
-251.3493
  0
SEQEND
  0
ENDBLK
  0
BLOCK
  8
LAYER_1
  2
AIGNBL01030014
 70
64
 10
0
 20
0
 30
0
  3
AIGNBL01030014
  0
POLYLINE
  8
LAYER_1
 40
0.05
 41
0.05
 66
1
 10
0
 20
0
 30
0
 70
1
  0
VERTEX
  8
LAYER_1
 10
146.2915
 20
-252.2609
  0
VERTEX
  8
LAYER_1
 10
146.1871
 20
-252.2609
  0
VERTEX
  8
LAYER_1
 10
146.1871
 20
-251.3266
  0
VERTEX
  8
LAYER_1
 10
145.8426
 20
-251.3266
  0
VERTEX
  8
LAYER_1
 10
145.8426
 20
-251.2339
  0
VERTEX
  8
LAYER_1
 10
146.635
 20
-251.2339
  0
VERTEX
  8
LAYER_1
 10
146.635
 20
-251.3266
  0
VERTEX
  8
LAYER_1
 10
146.2915
 20
-251.3266
  0
SEQEND
  0
ENDBLK
  0
BLOCK
  8
LAYER_1
  2
AIGNBL01030015
 70
64
 10
0
 20
0
 30
0
  3
AIGNBL01030015
  0
POLYLINE
  8
LAYER_1
 40
0.05
 41
0.05
 66
1
 10
0
 20
0
 30
0
 70
1
  0
VERTEX
  8
LAYER_1
 10
146.9888
 20
-251.2339
  0
VERTEX
  8
LAYER_1
 10
147.0932
 20
-251.2339
  0
VERTEX
  8
LAYER_1
 10
147.0932
 20
-251.6787
  0
VERTEX
  8
LAYER_1
 10
147.654
 20
-251.6787
  0
VERTEX
  8
LAYER_1
 10
147.654
 20
-251.2339
  0
VERTEX
  8
LAYER_1
 10
147.7581
 20
-251.2339
  0
VERTEX
  8
LAYER_1
 10
147.7581
 20
-252.2609
  0
VERTEX
  8
LAYER_1
 10
147.654
 20
-252.2609
  0
VERTEX
  8
LAYER_1
 10
147.654
 20
-251.7745
  0
VERTEX
  8
LAYER_1
 10
147.0932
 20
-251.7745
  0
VERTEX
  8
LAYER_1
 10
147.0932
 20
-252.2609
  0
VERTEX
  8
LAYER_1
 10
146.9888
 20
-252.2609
  0
SEQEND
  0
ENDBLK
  0
BLOCK
  8
LAYER_1
  2
AIGNBL01030016
 70
64
 10
0
 20
0
 30
0
  3
AIGNBL01030016
  0
POLYLINE
  8
LAYER_1
 40
0.05
 41
0.05
 66
1
 10
0
 20
0
 30
0
 70
1
  0
VERTEX
  8
LAYER_1
 10
148.3351
 20
-252.2609
  0
VERTEX
  8
LAYER_1
 10
148.2311
 20
-252.2609
  0
VERTEX
  8
LAYER_1
 10
148.2311
 20
-251.2339
  0
VERTEX
  8
LAYER_1
 10
148.5322
 20
-251.2339
  0
VERTEX
  8
LAYER_1
 10
148.6724
 20
-251.2481
  0
VERTEX
  8
LAYER_1
 10
148.7844
 20
-251.2953
  0
VERTEX
  8
LAYER_1
 10
148.8571
 20
-251.38
  0
VERTEX
  8
LAYER_1
 10
148.8829
 20
-251.5078
  0
VERTEX
  8
LAYER_1
 10
148.8636
 20
-251.6108
  0
VERTEX
  8
LAYER_1
 10
148.8088
 20
-251.6911
  0
VERTEX
  8
LAYER_1
 10
148.7258
 20
-251.7459
  0
VERTEX
  8
LAYER_1
 10
148.6214
 20
-251.7717
  0
VERTEX
  8
LAYER_1
 10
148.9211
 20
-252.2609
  0
VERTEX
  8
LAYER_1
 10
148.7937
 20
-252.2609
  0
VERTEX
  8
LAYER_1
 10
148.5098
 20
-251.7807
  0
VERTEX
  8
LAYER_1
 10
148.3351
 20
-251.7807
  0
SEQEND
  0
POLYLINE
  8
LAYER_1
 40
0.05
 41
0.05
 66
1
 10
0
 20
0
 30
0
 70
1
  0
VERTEX
  8
LAYER_1
 10
148.3351
 20
-251.6904
  0
VERTEX
  8
LAYER_1
 10
148.517
 20
-251.6904
 42
0.1622417858
  0
VERTEX
  8
LAYER_1
 10
148.711
 20
-251.6453
 42
0.2500476248
  0
VERTEX
  8
LAYER_1
 10
148.7799
 20
-251.5078
  0
VERTEX
  8
LAYER_1
 10
148.7602
 20
-251.4224
  0
VERTEX
  8
LAYER_1
 10
148.7079
 20
-251.3652
  0
VERTEX
  8
LAYER_1
 10
148.6269
 20
-251.3338
  0
VERTEX
  8
LAYER_1
 10
148.5212
 20
-251.3235
  0
VERTEX
  8
LAYER_1
 10
148.3351
 20
-251.3235
  0
SEQEND
  0
ENDBLK
  0
BLOCK
  8
LAYER_1
  2
AIGNBL01030017
 70
64
 10
0
 20
0
 30
0
  3
AIGNBL01030017
  0
POLYLINE
  8
LAYER_1
 40
0.05
 41
0.05
 66
1
 10
0
 20
0
 30
0
 70
1
  0
VERTEX
  8
LAYER_1
 10
150.3154
 20
-251.7469
 42
-0.1015060182
  0
VERTEX
  8
LAYER_1
 10
150.2747
 20
-251.9629
 42
-0.09993540575
  0
VERTEX
  8
LAYER_1
 10
150.1624
 20
-252.1338
 42
-0.09525489566
  0
VERTEX
  8
LAYER_1
 10
149.9926
 20
-252.2461
 42
-0.09491251156
  0
VERTEX
  8
LAYER_1
 10
149.78
 20
-252.2868
 42
-0.1002015795
  0
VERTEX
  8
LAYER_1
 10
149.5674
 20
-252.2461
 42
-0.1016690689
  0
VERTEX
  8
LAYER_1
 10
149.3979
 20
-252.1338
 42
-0.09667300425
  0
VERTEX
  8
LAYER_1
 10
149.2856
 20
-251.9629
 42
-0.09262920428
  0
VERTEX
  8
LAYER_1
 10
149.2453
 20
-251.7469
 42
-0.09846568495
  0
VERTEX
  8
LAYER_1
 10
149.2856
 20
-251.5306
 42
-0.09950302227
  0
VERTEX
  8
LAYER_1
 10
149.3979
 20
-251.3604
 42
-0.09832237419
  0
VERTEX
  8
LAYER_1
 10
149.5674
 20
-251.2481
 42
-0.09564774702
  0
VERTEX
  8
LAYER_1
 10
149.78
 20
-251.2071
 42
-0.1014301699
  0
VERTEX
  8
LAYER_1
 10
149.9926
 20
-251.2481
 42
-0.1041253763
  0
VERTEX
  8
LAYER_1
 10
150.1624
 20
-251.3604
 42
-0.09489987116
  0
VERTEX
  8
LAYER_1
 10
150.2747
 20
-251.5306
 42
-0.09342113907
  0
SEQEND
  0
POLYLINE
  8
LAYER_1
 40
0.05
 41
0.05
 66
1
 10
0
 20
0
 30
0
 70
1
  0
VERTEX
  8
LAYER_1
 10
150.2051
 20
-251.7476
  0
VERTEX
  8
LAYER_1
 10
150.1762
 20
-251.5767
  0
VERTEX
  8
LAYER_1
 10
150.0921
 20
-251.4344
  0
VERTEX
  8
LAYER_1
 10
149.9581
 20
-251.337
 42
0.1022827687
  0
VERTEX
  8
LAYER_1
 10
149.78
 20
-251.3001
 42
0.1183846388
  0
VERTEX
  8
LAYER_1
 10
149.6026
 20
-251.337
  0
VERTEX
  8
LAYER_1
 10
149.4682
 20
-251.4344
  0
VERTEX
  8
LAYER_1
 10
149.3842
 20
-251.5767
  0
VERTEX
  8
LAYER_1
 10
149.3549
 20
-251.7476
  0
VERTEX
  8
LAYER_1
 10
149.3842
 20
-251.9188
  0
VERTEX
  8
LAYER_1
 10
149.4682
 20
-252.0607
  0
VERTEX
  8
LAYER_1
 10
149.6026
 20
-252.1575
 42
0.1007973502
  0
VERTEX
  8
LAYER_1
 10
149.78
 20
-252.1937
  0
VERTEX
  8
LAYER_1
 10
149.9581
 20
-252.1575
  0
VERTEX
  8
LAYER_1
 10
150.0921
 20
-252.0607
  0
VERTEX
  8
LAYER_1
 10
150.1762
 20
-251.9188
  0
SEQEND
  0
ENDBLK
  0
BLOCK
  8
LAYER_1
  2
AIGNBL01030018
 70
64
 10
0
 20
0
 30
0
  3
AIGNBL01030018
  0
POLYLINE
  8
LAYER_1
 40
0.05
 41
0.05
 66
1
 10
0
 20
0
 30
0
 70
1
  0
VERTEX
  8
LAYER_1
 10
151.7489
 20
-251.7469
 42
-0.1017020442
  0
VERTEX
  8
LAYER_1
 10
151.7086
 20
-251.9629
  0
VERTEX
  8
LAYER_1
 10
151.5963
 20
-252.1338
  0
VERTEX
  8
LAYER_1
 10
151.4264
 20
-252.2461
 42
-0.09495021158
  0
VERTEX
  8
LAYER_1
 10
151.2139
 20
-252.2868
 42
-0.1019502388
  0
VERTEX
  8
LAYER_1
 10
151.0013
 20
-252.2461
 42
-0.1021914323
  0
VERTEX
  8
LAYER_1
 10
150.8318
 20
-252.1338
 42
-0.09636018285
  0
VERTEX
  8
LAYER_1
 10
150.7188
 20
-251.9629
 42
-0.09364604827
  0
VERTEX
  8
LAYER_1
 10
150.6781
 20
-251.7469
 42
-0.1001287453
  0
VERTEX
  8
LAYER_1
 10
150.7188
 20
-251.5306
 42
-0.1037227634
  0
VERTEX
  8
LAYER_1
 10
150.8318
 20
-251.3604
 42
-0.0985967677
  0
VERTEX
  8
LAYER_1
 10
151.0013
 20
-251.2481
 42
-0.0957287822
  0
VERTEX
  8
LAYER_1
 10
151.2139
 20
-251.2071
 42
-0.1016365741
  0
VERTEX
  8
LAYER_1
 10
151.4264
 20
-251.2481
 42
-0.09861864621
  0
VERTEX
  8
LAYER_1
 10
151.5963
 20
-251.3604
 42
-0.09487953686
  0
VERTEX
  8
LAYER_1
 10
151.7086
 20
-251.5306
 42
-0.09256741039
  0
SEQEND
  0
POLYLINE
  8
LAYER_1
 40
0.05
 41
0.05
 66
1
 10
0
 20
0
 30
0
 70
1
  0
VERTEX
  8
LAYER_1
 10
151.639
 20
-251.7476
  0
VERTEX
  8
LAYER_1
 10
151.61
 20
-251.5767
  0
VERTEX
  8
LAYER_1
 10
151.526
 20
-251.4344
  0
VERTEX
  8
LAYER_1
 10
151.3916
 20
-251.337
 42
0.1025075331
  0
VERTEX
  8
LAYER_1
 10
151.2139
 20
-251.3001
 42
0.118884027
  0
VERTEX
  8
LAYER_1
 10
151.0361
 20
-251.337
  0
VERTEX
  8
LAYER_1
 10
150.9017
 20
-251.4344
  0
VERTEX
  8
LAYER_1
 10
150.818
 20
-251.5767
  0
VERTEX
  8
LAYER_1
 10
150.7887
 20
-251.7476
  0
VERTEX
  8
LAYER_1
 10
150.818
 20
-251.9188
  0
VERTEX
  8
LAYER_1
 10
150.9017
 20
-252.0607
  0
VERTEX
  8
LAYER_1
 10
151.0361
 20
-252.1575
 42
0.100589677
  0
VERTEX
  8
LAYER_1
 10
151.2139
 20
-252.1937
  0
VERTEX
  8
LAYER_1
 10
151.3916
 20
-252.1575
  0
VERTEX
  8
LAYER_1
 10
151.526
 20
-252.0607
  0
VERTEX
  8
LAYER_1
 10
151.61
 20
-251.9188
  0
SEQEND
  0
ENDBLK
  0
BLOCK
  8
LAYER_1
  2
AIGNBL01030019
 70
64
 10
0
 20
0
 30
0
  3
AIGNBL01030019
  0
POLYLINE
  8
LAYER_1
 40
0.05
 41
0.05
 66
1
 10
0
 20
0
 30
0
 70
1
  0
VERTEX
  8
LAYER_1
 10
152.6742
 20
-252.0839
  0
VERTEX
  8
LAYER_1
 10
152.6756
 20
-252.0839
  0
VERTEX
  8
LAYER_1
 10
153.0194
 20
-251.2339
  0
VERTEX
  8
LAYER_1
 10
153.1793
 20
-251.2339
  0
VERTEX
  8
LAYER_1
 10
153.1793
 20
-252.2609
  0
VERTEX
  8
LAYER_1
 10
153.0749
 20
-252.2609
  0
VERTEX
  8
LAYER_1
 10
153.0749
 20
-251.3686
  0
VERTEX
  8
LAYER_1
 10
153.0718
 20
-251.3686
  0
VERTEX
  8
LAYER_1
 10
152.7007
 20
-252.2609
  0
VERTEX
  8
LAYER_1
 10
152.646
 20
-252.2609
  0
VERTEX
  8
LAYER_1
 10
152.2743
 20
-251.3686
  0
VERTEX
  8
LAYER_1
 10
152.2708
 20
-251.3686
  0
VERTEX
  8
LAYER_1
 10
152.2708
 20
-252.2609
  0
VERTEX
  8
LAYER_1
 10
152.1668
 20
-252.2609
  0
VERTEX
  8
LAYER_1
 10
152.1668
 20
-251.2339
  0
VERTEX
  8
LAYER_1
 10
152.327
 20
-251.2339
  0
SEQEND
  0
ENDBLK
  0
BLOCK
  8
LAYER_1
  2
AIGNBL0103001A
 70
64
 10
0
 20
0
 30
0
  3
AIGNBL0103001A
  0
POLYLINE
  8
LAYER_1
 40
0.05
 41
0.05
 66
1
 10
0
 20
0
 30
0
 70
1
  0
VERTEX
  8
LAYER_1
 10
154.3196
 20
-252.1676
  0
VERTEX
  8
LAYER_1
 10
154.8694
 20
-252.1676
  0
VERTEX
  8
LAYER_1
 10
154.8694
 20
-252.2609
  0
VERTEX
  8
LAYER_1
 10
154.2145
 20
-252.2609
  0
VERTEX
  8
LAYER_1
 10
154.2145
 20
-251.2339
  0
VERTEX
  8
LAYER_1
 10
154.8522
 20
-251.2339
  0
VERTEX
  8
LAYER_1
 10
154.8522
 20
-251.3263
  0
VERTEX
  8
LAYER_1
 10
154.3196
 20
-251.3263
  0
VERTEX
  8
LAYER_1
 10
154.3196
 20
-251.6787
  0
VERTEX
  8
LAYER_1
 10
154.8167
 20
-251.6787
  0
VERTEX
  8
LAYER_1
 10
154.8167
 20
-251.7717
  0
VERTEX
  8
LAYER_1
 10
154.3196
 20
-251.7717
  0
SEQEND
  0
ENDBLK
  0
BLOCK
  8
LAYER_1
  2
AIGNBL0103001B
 70
64
 10
0
 20
0
 30
0
  3
AIGNBL0103001B
  0
POLYLINE
  8
LAYER_1
 40
0.05
 41
0.05
 66
1
 10
0
 20
0
 30
0
 70
1
  0
VERTEX
  8
LAYER_1
 10
155.6101
 20
-251.6484
  0
VERTEX
  8
LAYER_1
 10
155.8906
 20
-251.2339
  0
VERTEX
  8
LAYER_1
 10
156.0153
 20
-251.2339
  0
VERTEX
  8
LAYER_1
 10
155.6749
 20
-251.7221
  0
VERTEX
  8
LAYER_1
 10
156.0518
 20
-252.2609
  0
VERTEX
  8
LAYER_1
 10
155.9216
 20
-252.2609
  0
VERTEX
  8
LAYER_1
 10
155.6081
 20
-251.7979
  0
VERTEX
  8
LAYER_1
 10
155.296
 20
-252.2609
  0
VERTEX
  8
LAYER_1
 10
155.165
 20
-252.2609
  0
VERTEX
  8
LAYER_1
 10
155.5426
 20
-251.7211
  0
VERTEX
  8
LAYER_1
 10
155.1988
 20
-251.2339
  0
VERTEX
  8
LAYER_1
 10
155.329
 20
-251.2339
  0
SEQEND
  0
ENDBLK
  0
BLOCK
  8
LAYER_1
  2
AIGNBL0103001C
 70
64
 10
0
 20
0
 30
0
  3
AIGNBL0103001C
  0
POLYLINE
  8
LAYER_1
 40
0.05
 41
0.05
 66
1
 10
0
 20
0
 30
0
 70
1
  0
VERTEX
  8
LAYER_1
 10
156.4159
 20
-251.2339
  0
VERTEX
  8
LAYER_1
 10
156.706
 20
-251.2339
  0
VERTEX
  8
LAYER_1
 10
156.8487
 20
-251.2498
  0
VERTEX
  8
LAYER_1
 10
156.9575
 20
-251.3015
  0
VERTEX
  8
LAYER_1
 10
157.0288
 20
-251.3866
  0
VERTEX
  8
LAYER_1
 10
157.053
 20
-251.5078
  0
VERTEX
  8
LAYER_1
 10
157.0281
 20
-251.6291
  0
VERTEX
  8
LAYER_1
 10
156.9568
 20
-251.7145
  0
VERTEX
  8
LAYER_1
 10
156.8459
 20
-251.7659
  0
VERTEX
  8
LAYER_1
 10
156.7032
 20
-251.7831
  0
VERTEX
  8
LAYER_1
 10
156.5203
 20
-251.7831
  0
VERTEX
  8
LAYER_1
 10
156.5203
 20
-252.2609
  0
VERTEX
  8
LAYER_1
 10
156.4159
 20
-252.2609
  0
SEQEND
  0
POLYLINE
  8
LAYER_1
 40
0.05
 41
0.05
 66
1
 10
0
 20
0
 30
0
 70
1
  0
VERTEX
  8
LAYER_1
 10
156.5203
 20
-251.6949
  0
VERTEX
  8
LAYER_1
 10
156.6974
 20
-251.6949
 42
0.179800284
  0
VERTEX
  8
LAYER_1
 10
156.8848
 20
-251.6474
 42
0.2343125845
  0
VERTEX
  8
LAYER_1
 10
156.9489
 20
-251.5078
 42
0.2635647854
  0
VERTEX
  8
LAYER_1
 10
156.8824
 20
-251.3676
 42
0.1265134521
  0
VERTEX
  8
LAYER_1
 10
156.6974
 20
-251.3235
  0
VERTEX
  8
LAYER_1
 10
156.5203
 20
-251.3235
  0
SEQEND
  0
ENDBLK
  0
BLOCK
  8
LAYER_1
  2
AIGNBL0103001D
 70
64
 10
0
 20
0
 30
0
  3
AIGNBL0103001D
  0
POLYLINE
  8
LAYER_1
 40
0.05
 41
0.05
 66
1
 10
0
 20
0
 30
0
 70
1
  0
VERTEX
  8
LAYER_1
 10
157.5621
 20
-252.1676
  0
VERTEX
  8
LAYER_1
 10
158.1116
 20
-252.1676
  0
VERTEX
  8
LAYER_1
 10
158.1116
 20
-252.2609
  0
VERTEX
  8
LAYER_1
 10
157.4577
 20
-252.2609
  0
VERTEX
  8
LAYER_1
 10
157.4577
 20
-251.2339
  0
VERTEX
  8
LAYER_1
 10
158.0947
 20
-251.2339
  0
VERTEX
  8
LAYER_1
 10
158.0947
 20
-251.3263
  0
VERTEX
  8
LAYER_1
 10
157.5621
 20
-251.3263
  0
VERTEX
  8
LAYER_1
 10
157.5621
 20
-251.6787
  0
VERTEX
  8
LAYER_1
 10
158.0599
 20
-251.6787
  0
VERTEX
  8
LAYER_1
 10
158.0599
 20
-251.7717
  0
VERTEX
  8
LAYER_1
 10
157.5621
 20
-251.7717
  0
SEQEND
  0
ENDBLK
  0
BLOCK
  8
LAYER_1
  2
AIGNBL0103001E
 70
64
 10
0
 20
0
 30
0
  3
AIGNBL0103001E
  0
POLYLINE
  8
LAYER_1
 40
0.05
 41
0.05
 66
1
 10
0
 20
0
 30
0
 70
1
  0
VERTEX
  8
LAYER_1
 10
158.6208
 20
-252.2609
  0
VERTEX
  8
LAYER_1
 10
158.5168
 20
-252.2609
  0
VERTEX
  8
LAYER_1
 10
158.5168
 20
-251.2339
  0
VERTEX
  8
LAYER_1
 10
158.8185
 20
-251.2339
  0
VERTEX
  8
LAYER_1
 10
158.9584
 20
-251.2481
  0
VERTEX
  8
LAYER_1
 10
159.07
 20
-251.2953
  0
VERTEX
  8
LAYER_1
 10
159.1438
 20
-251.38
  0
VERTEX
  8
LAYER_1
 10
159.1696
 20
-251.5078
  0
VERTEX
  8
LAYER_1
 10
159.1493
 20
-251.6105
  0
VERTEX
  8
LAYER_1
 10
159.0945
 20
-251.6915
  0
VERTEX
  8
LAYER_1
 10
159.0111
 20
-251.7459
  0
VERTEX
  8
LAYER_1
 10
158.9067
 20
-251.7717
  0
VERTEX
  8
LAYER_1
 10
159.2075
 20
-252.2609
  0
VERTEX
  8
LAYER_1
 10
159.08
 20
-252.2609
  0
VERTEX
  8
LAYER_1
 10
158.7955
 20
-251.7803
  0
VERTEX
  8
LAYER_1
 10
158.6208
 20
-251.7803
  0
SEQEND
  0
POLYLINE
  8
LAYER_1
 40
0.05
 41
0.05
 66
1
 10
0
 20
0
 30
0
 70
1
  0
VERTEX
  8
LAYER_1
 10
158.6208
 20
-251.69
  0
VERTEX
  8
LAYER_1
 10
158.8027
 20
-251.69
 42
0.1625850216
  0
VERTEX
  8
LAYER_1
 10
158.9974
 20
-251.6453
 42
0.2500143464
  0
VERTEX
  8
LAYER_1
 10
159.0652
 20
-251.5078
  0
VERTEX
  8
LAYER_1
 10
159.047
 20
-251.4224
  0
VERTEX
  8
LAYER_1
 10
158.9943
 20
-251.3652
  0
VERTEX
  8
LAYER_1
 10
158.9123
 20
-251.3338
  0
VERTEX
  8
LAYER_1
 10
158.8065
 20
-251.3235
  0
VERTEX
  8
LAYER_1
 10
158.6208
 20
-251.3235
  0
SEQEND
  0
ENDBLK
  0
BLOCK
  8
LAYER_1
  2
AIGNBL0103001F
 70
64
 10
0
 20
0
 30
0
  3
AIGNBL0103001F
  0
POLYLINE
  8
LAYER_1
 40
0.05
 41
0.05
 66
1
 10
0
 20
0
 30
0
 70
1
  0
VERTEX
  8
LAYER_1
 10
159.6898
 20
-252.2609
  0
VERTEX
  8
LAYER_1
 10
159.5865
 20
-252.2609
  0
VERTEX
  8
LAYER_1
 10
159.5865
 20
-251.2339
  0
VERTEX
  8
LAYER_1
 10
159.6898
 20
-251.2339
  0
SEQEND
  0
ENDBLK
  0
BLOCK
  8
LAYER_1
  2
AIGNBL01030020
 70
64
 10
0
 20
0
 30
0
  3
AIGNBL01030020
  0
POLYLINE
  8
LAYER_1
 40
0.05
 41
0.05
 66
1
 10
0
 20
0
 30
0
 70
1
  0
VERTEX
  8
LAYER_1
 10
160.2676
 20
-252.1676
  0
VERTEX
  8
LAYER_1
 10
160.8174
 20
-252.1676
  0
VERTEX
  8
LAYER_1
 10
160.8174
 20
-252.2609
  0
VERTEX
  8
LAYER_1
 10
160.1639
 20
-252.2609
  0
VERTEX
  8
LAYER_1
 10
160.1639
 20
-251.2339
  0
VERTEX
  8
LAYER_1
 10
160.8005
 20
-251.2339
  0
VERTEX
  8
LAYER_1
 10
160.8005
 20
-251.3263
  0
VERTEX
  8
LAYER_1
 10
160.2676
 20
-251.3263
  0
VERTEX
  8
LAYER_1
 10
160.2676
 20
-251.6787
  0
VERTEX
  8
LAYER_1
 10
160.7654
 20
-251.6787
  0
VERTEX
  8
LAYER_1
 10
160.7654
 20
-251.7717
  0
VERTEX
  8
LAYER_1
 10
160.2676
 20
-251.7717
  0
SEQEND
  0
ENDBLK
  0
BLOCK
  8
LAYER_1
  2
AIGNBL01030021
 70
64
 10
0
 20
0
 30
0
  3
AIGNBL01030021
  0
POLYLINE
  8
LAYER_1
 40
0.05
 41
0.05
 66
1
 10
0
 20
0
 30
0
 70
1
  0
VERTEX
  8
LAYER_1
 10
161.9505
 20
-252.1079
  0
VERTEX
  8
LAYER_1
 10
161.9536
 20
-252.1079
  0
VERTEX
  8
LAYER_1
 10
161.9536
 20
-251.2339
  0
VERTEX
  8
LAYER_1
 10
162.058
 20
-251.2339
  0
VERTEX
  8
LAYER_1
 10
162.058
 20
-252.2609
  0
VERTEX
  8
LAYER_1
 10
161.9277
 20
-252.2609
  0
VERTEX
  8
LAYER_1
 10
161.3297
 20
-251.3772
  0
VERTEX
  8
LAYER_1
 10
161.3266
 20
-251.3772
  0
VERTEX
  8
LAYER_1
 10
161.3266
 20
-252.2609
  0
VERTEX
  8
LAYER_1
 10
161.2222
 20
-252.2609
  0
VERTEX
  8
LAYER_1
 10
161.2222
 20
-251.2339
  0
VERTEX
  8
LAYER_1
 10
161.3535
 20
-251.2339
  0
SEQEND
  0
ENDBLK
  0
BLOCK
  8
LAYER_1
  2
AIGNBL01030022
 70
64
 10
0
 20
0
 30
0
  3
AIGNBL01030022
  0
POLYLINE
  8
LAYER_1
 40
0.05
 41
0.05
 66
1
 10
0
 20
0
 30
0
 70
1
  0
VERTEX
  8
LAYER_1
 10
163.396
 20
-252.0942
  0
VERTEX
  8
LAYER_1
 10
163.3323
 20
-252.1679
  0
VERTEX
  8
LAYER_1
 10
163.2469
 20
-252.2295
  0
VERTEX
  8
LAYER_1
 10
163.1394
 20
-252.2716
  0
VERTEX
  8
LAYER_1
 10
163.0112
 20
-252.2868
 42
-0.1009164681
  0
VERTEX
  8
LAYER_1
 10
162.7966
 20
-252.2461
 42
-0.1027581013
  0
VERTEX
  8
LAYER_1
 10
162.6271
 20
-252.1335
 42
-0.1010578842
  0
VERTEX
  8
LAYER_1
 10
162.5162
 20
-251.9633
 42
-0.09298732079
  0
VERTEX
  8
LAYER_1
 10
162.4759
 20
-251.7469
 42
-0.1023262951
  0
VERTEX
  8
LAYER_1
 10
162.5169
 20
-251.5306
 42
-0.1009138363
  0
VERTEX
  8
LAYER_1
 10
162.6285
 20
-251.3604
  0
VERTEX
  8
LAYER_1
 10
162.798
 20
-251.2481
 42
-0.09535690024
  0
VERTEX
  8
LAYER_1
 10
163.0112
 20
-251.2071
  0
VERTEX
  8
LAYER_1
 10
163.1222
 20
-251.2191
  0
VERTEX
  8
LAYER_1
 10
163.2252
 20
-251.2522
  0
VERTEX
  8
LAYER_1
 10
163.3117
 20
-251.3035
  0
VERTEX
  8
LAYER_1
 10
163.3767
 20
-251.3711
  0
VERTEX
  8
LAYER_1
 10
163.2906
 20
-251.4355
  0
VERTEX
  8
LAYER_1
 10
163.2469
 20
-251.3858
  0
VERTEX
  8
LAYER_1
 10
163.1835
 20
-251.3421
  0
VERTEX
  8
LAYER_1
 10
163.1043
 20
-251.3114
  0
VERTEX
  8
LAYER_1
 10
163.0126
 20
-251.3001
  0
VERTEX
  8
LAYER_1
 10
162.8338
 20
-251.3362
  0
VERTEX
  8
LAYER_1
 10
162.6998
 20
-251.4338
  0
VERTEX
  8
LAYER_1
 10
162.6147
 20
-251.5764
  0
VERTEX
  8
LAYER_1
 10
162.5868
 20
-251.7469
  0
VERTEX
  8
LAYER_1
 10
162.6164
 20
-251.9178
  0
VERTEX
  8
LAYER_1
 10
162.7012
 20
-252.0601
  0
VERTEX
  8
LAYER_1
 10
162.8356
 20
-252.1575
 42
0.1012189446
  0
VERTEX
  8
LAYER_1
 10
163.0126
 20
-252.1937
  0
VERTEX
  8
LAYER_1
 10
163.1804
 20
-252.1575
 42
0.1297589768
  0
VERTEX
  8
LAYER_1
 10
163.3148
 20
-252.0414
  0
SEQEND
  0
ENDBLK
  0
BLOCK
  8
LAYER_1
  2
AIGNBL01030023
 70
64
 10
0
 20
0
 30
0
  3
AIGNBL01030023
  0
POLYLINE
  8
LAYER_1
 40
0.05
 41
0.05
 66
1
 10
0
 20
0
 30
0
 70
1
  0
VERTEX
  8
LAYER_1
 10
163.8801
 20
-252.1676
  0
VERTEX
  8
LAYER_1
 10
164.4299
 20
-252.1676
  0
VERTEX
  8
LAYER_1
 10
164.4299
 20
-252.2609
  0
VERTEX
  8
LAYER_1
 10
163.7764
 20
-252.2609
  0
VERTEX
  8
LAYER_1
 10
163.7764
 20
-251.2339
  0
VERTEX
  8
LAYER_1
 10
164.4127
 20
-251.2339
  0
VERTEX
  8
LAYER_1
 10
164.4127
 20
-251.3263
  0
VERTEX
  8
LAYER_1
 10
163.8801
 20
-251.3263
  0
VERTEX
  8
LAYER_1
 10
163.8801
 20
-251.6787
  0
VERTEX
  8
LAYER_1
 10
164.3782
 20
-251.6787
  0
VERTEX
  8
LAYER_1
 10
164.3782
 20
-251.7717
  0
VERTEX
  8
LAYER_1
 10
163.8801
 20
-251.7717
  0
SEQEND
  0
ENDBLK
  0
BLOCK
  8
LAYER_1
  2
AIGNBL01020003
 70
64
 10
0
 20
0
 30
0
  3
AIGNBL01020003
  0
INSERT
  8
LAYER_1
  2
AIGNBL01030004
 10
0
 20
0
 30
0
  0
ENDBLK
  0
BLOCK
  8
LAYER_1
  2
AIGNBL0102000C
 70
64
 10
0
 20
0
 30
0
  3
AIGNBL0102000C
  0
INSERT
  8
LAYER_1
  2
AIGNBL0103000D
 10
0
 20
0
 30
0
  0
INSERT
  8
LAYER_1
  2
AIGNBL0103000E
 10
0
 20
0
 30
0
  0
INSERT
  8
LAYER_1
  2
AIGNBL0103000F
 10
0
 20
0
 30
0
  0
INSERT
  8
LAYER_1
  2
AIGNBL01030010
 10
0
 20
0
 30
0
  0
INSERT
  8
LAYER_1
  2
AIGNBL01030011
 10
0
 20
0
 30
0
  0
INSERT
  8
LAYER_1
  2
AIGNBL01030012
 10
0
 20
0
 30
0
  0
INSERT
  8
LAYER_1
  2
AIGNBL01030013
 10
0
 20
0
 30
0
  0
INSERT
  8
LAYER_1
  2
AIGNBL01030014
 10
0
 20
0
 30
0
  0
INSERT
  8
LAYER_1
  2
AIGNBL01030015
 10
0
 20
0
 30
0
  0
INSERT
  8
LAYER_1
  2
AIGNBL01030016
 10
0
 20
0
 30
0
  0
INSERT
  8
LAYER_1
  2
AIGNBL01030017
 10
0
 20
0
 30
0
  0
INSERT
  8
LAYER_1
  2
AIGNBL01030018
 10
0
 20
0
 30
0
  0
INSERT
  8
LAYER_1
  2
AIGNBL01030019
 10
0
 20
0
 30
0
  0
INSERT
  8
LAYER_1
  2
AIGNBL0103001A
 10
0
 20
0
 30
0
  0
INSERT
  8
LAYER_1
  2
AIGNBL0103001B
 10
0
 20
0
 30
0
  0
INSERT
  8
LAYER_1
  2
AIGNBL0103001C
 10
0
 20
0
 30
0
  0
INSERT
  8
LAYER_1
  2
AIGNBL0103001D
 10
0
 20
0
 30
0
  0
INSERT
  8
LAYER_1
  2
AIGNBL0103001E
 10
0
 20
0
 30
0
  0
INSERT
  8
LAYER_1
  2
AIGNBL0103001F
 10
0
 20
0
 30
0
  0
INSERT
  8
LAYER_1
  2
AIGNBL01030020
 10
0
 20
0
 30
0
  0
INSERT
  8
LAYER_1
  2
AIGNBL01030021
 10
0
 20
0
 30
0
  0
INSERT
  8
LAYER_1
  2
AIGNBL01030022
 10
0
 20
0
 30
0
  0
INSERT
  8
LAYER_1
  2
AIGNBL01030023
 10
0
 20
0
 30
0
  0
ENDBLK
  0
BLOCK
  8
LAYER_1
  2
AIGNBL01010002
 70
64
 10
0
 20
0
 30
0
  3
AIGNBL01010002
  0
INSERT
  8
LAYER_1
  2
AIGNBL01020003
 10
0
 20
0
 30
0
  0
INSERT
  8
LAYER_1
  2
AIGNBL0102000C
 10
0
 20
0
 30
0
  0
ENDBLK
  0
BLOCK
  8
LAYER_6
  2
AIGNBL06010002
 70
64
 10
0
 20
0
 30
0
  3
AIGNBL06010002
  0
POLYLINE
  8
LAYER_6
 40
0.7056
 41
0.7056
 66
1
 10
0
 20
0
 30
0
 70
1
  0
VERTEX
  8
LAYER_6
 10
33.7873
 20
22.6587
  0
VERTEX
  8
LAYER_6
 10
230.7955
 20
22.6587
  0
VERTEX
  8
LAYER_6
 10
230.7955
 20
-259.334
  0
VERTEX
  8
LAYER_6
 10
33.7873
 20
-259.334
  0
SEQEND
  0
ENDBLK
  0
ENDSEC
  0
SECTION
  2
ENTITIES
  0
INSERT
  8
LAYER_1
  2
AIGNBL01010002
 10
0
 20
0
 30
0
  0
POLYLINE
  8
LAYER_3
 40
0.1764
 41
0.1764
 66
1
 10
0
 20
0
 30
0
  0
VERTEX
  8
LAYER_3
 10
97.2299
 20
-138.0241
  0
VERTEX
  8
LAYER_3
 10
144.1988
 20
-138.0241
  0
SEQEND
  0
POLYLINE
  8
LAYER_3
 40
0.1764
 41
0.1764
 66
1
 10
0
 20
0
 30
0
  0
VERTEX
  8
LAYER_3
 10
141.7011
 20
-141.0086
  0
VERTEX
  8
LAYER_3
 10
139.7114
 20
-141.0086
  0
SEQEND
  0
POLYLINE
  8
LAYER_3
 40
0.1764
 41
0.1764
 66
1
 10
0
 20
0
 30
0
  0
VERTEX
  8
LAYER_3
 10
99.7276
 20
-141.0086
  0
VERTEX
  8
LAYER_3
 10
101.2093
 20
-141.0086
  0
SEQEND
  0
POLYLINE
  8
LAYER_3
 40
0.1764
 41
0.1764
 66
1
 10
0
 20
0
 30
0
  0
VERTEX
  8
LAYER_3
 10
106.1199
 20
-138.2146
  0
VERTEX
  8
LAYER_3
 10
106.1199
 20
-139.8233
  0
VERTEX
  8
LAYER_3
 10
108.9139
 20
-139.8233
  0
SEQEND
  0
POLYLINE
  8
LAYER_3
 40
0.1764
 41
0.1764
 66
1
 10
0
 20
0
 30
0
  0
VERTEX
  8
LAYER_3
 10
108.9139
 20
-138.2146
  0
VERTEX
  8
LAYER_3
 10
108.9139
 20
-139.8233
  0
SEQEND
  0
POLYLINE
  8
LAYER_3
 40
0.1764
 41
0.1764
 66
1
 10
0
 20
0
 30
0
  0
VERTEX
  8
LAYER_3
 10
110.2051
 20
-138.511
  0
VERTEX
  8
LAYER_3
 10
109.7183
 20
-138.0241
  0
SEQEND
  0
POLYLINE
  8
LAYER_3
 40
0.1764
 41
0.1764
 66
1
 10
0
 20
0
 30
0
  0
VERTEX
  8
LAYER_3
 10
110.2051
 20
-138.511
  0
VERTEX
  8
LAYER_3
 10
110.2051
 20
-145.5171
  0
SEQEND
  0
POLYLINE
  8
LAYER_3
 40
0.1764
 41
0.1764
 66
1
 10
0
 20
0
 30
0
  0
VERTEX
  8
LAYER_3
 10
108.9139
 20
-138.2146
  0
VERTEX
  8
LAYER_3
 10
109.1044
 20
-138.0241
  0
SEQEND
  0
POLYLINE
  8
LAYER_3
 40
0.1764
 41
0.1764
 66
1
 10
0
 20
0
 30
0
  0
VERTEX
  8
LAYER_3
 10
106.1199
 20
-138.2146
  0
VERTEX
  8
LAYER_3
 10
105.9083
 20
-138.0241
  0
SEQEND
  0
POLYLINE
  8
LAYER_3
 40
0.1764
 41
0.1764
 66
1
 10
0
 20
0
 30
0
  0
VERTEX
  8
LAYER_3
 10
96.7219
 20
-138.511
  0
VERTEX
  8
LAYER_3
 10
96.7219
 20
-140.5218
  0
SEQEND
  0
POLYLINE
  8
LAYER_3
 40
0.1764
 41
0.1764
 66
1
 10
0
 20
0
 30
0
  0
VERTEX
  8
LAYER_3
 10
97.2299
 20
-141.0086
  0
VERTEX
  8
LAYER_3
 10
103.7069
 20
-141.0086
  0
VERTEX
  8
LAYER_3
 10
103.7069
 20
-145.5171
  0
SEQEND
  0
POLYLINE
  8
LAYER_3
 40
0.1764
 41
0.1764
 66
1
 10
0
 20
0
 30
0
  0
VERTEX
  8
LAYER_3
 10
97.2299
 20
-138.0241
  0
VERTEX
  8
LAYER_3
 10
96.7219
 20
-138.511
  0
SEQEND
  0
POLYLINE
  8
LAYER_3
 40
0.1764
 41
0.1764
 66
1
 10
0
 20
0
 30
0
  0
VERTEX
  8
LAYER_3
 10
97.2299
 20
-141.0086
  0
VERTEX
  8
LAYER_3
 10
96.7219
 20
-140.5218
  0
SEQEND
  0
POLYLINE
  8
LAYER_3
 40
0.1764
 41
0.1764
 66
1
 10
0
 20
0
 30
0
  0
VERTEX
  8
LAYER_3
 10
103.7069
 20
-145.5171
  0
VERTEX
  8
LAYER_3
 10
104.2149
 20
-146.004
  0
VERTEX
  8
LAYER_3
 10
137.1926
 20
-146.004
  0
SEQEND
  0
POLYLINE
  8
LAYER_3
 40
0.1764
 41
0.1764
 66
1
 10
0
 20
0
 30
0
  0
VERTEX
  8
LAYER_3
 10
144.7068
 20
-138.511
  0
VERTEX
  8
LAYER_3
 10
144.7068
 20
-140.5218
  0
SEQEND
  0
POLYLINE
  8
LAYER_3
 40
0.1764
 41
0.1764
 66
1
 10
0
 20
0
 30
0
  0
VERTEX
  8
LAYER_3
 10
144.1988
 20
-141.0086
  0
VERTEX
  8
LAYER_3
 10
137.7006
 20
-141.0086
  0
VERTEX
  8
LAYER_3
 10
137.7006
 20
-145.5171
  0
SEQEND
  0
POLYLINE
  8
LAYER_3
 40
0.1764
 41
0.1764
 66
1
 10
0
 20
0
 30
0
  0
VERTEX
  8
LAYER_3
 10
144.1988
 20
-138.0241
  0
VERTEX
  8
LAYER_3
 10
144.7068
 20
-138.511
  0
SEQEND
  0
POLYLINE
  8
LAYER_3
 40
0.1764
 41
0.1764
 66
1
 10
0
 20
0
 30
0
  0
VERTEX
  8
LAYER_3
 10
144.1988
 20
-141.0086
  0
VERTEX
  8
LAYER_3
 10
144.7068
 20
-140.5218
  0
SEQEND
  0
POLYLINE
  8
LAYER_3
 40
0.1764
 41
0.1764
 66
1
 10
0
 20
0
 30
0
  0
VERTEX
  8
LAYER_3
 10
137.7006
 20
-145.5171
  0
VERTEX
  8
LAYER_3
 10
137.1926
 20
-146.004
  0
SEQEND
  0
POLYLINE
  8
LAYER_3
 40
0.1764
 41
0.1764
 66
1
 10
0
 20
0
 30
0
  0
VERTEX
  8
LAYER_3
 10
137.7006
 20
-141.0086
  0
VERTEX
  8
LAYER_3
 10
120.7038
 20
-141.0086
  0
SEQEND
  0
POLYLINE
  8
LAYER_3
 40
0.1764
 41
0.1764
 66
1
 10
0
 20
0
 30
0
  0
VERTEX
  8
LAYER_3
 10
110.2051
 20
-145.5171
  0
VERTEX
  8
LAYER_3
 10
109.7183
 20
-146.004
  0
SEQEND
  0
POLYLINE
  8
LAYER_3
 40
0.1764
 41
0.1764
 66
1
 10
0
 20
0
 30
0
  0
VERTEX
  8
LAYER_3
 10
120.7038
 20
-90.7166
  0
VERTEX
  8
LAYER_3
 10
121.6986
 20
-90.6955
  0
VERTEX
  8
LAYER_3
 10
122.7146
 20
-90.632
  0
VERTEX
  8
LAYER_3
 10
123.6883
 20
-90.5261
  0
VERTEX
  8
LAYER_3
 10
124.6831
 20
-90.378
  0
VERTEX
  8
LAYER_3
 10
125.6568
 20
-90.1875
  0
VERTEX
  8
LAYER_3
 10
126.6516
 20
-89.9758
  0
VERTEX
  8
LAYER_3
 10
127.6041
 20
-89.7006
  0
VERTEX
  8
LAYER_3
 10
128.5566
 20
-89.4043
  0
VERTEX
  8
LAYER_3
 10
129.4879
 20
-89.0445
  0
VERTEX
  8
LAYER_3
 10
130.4193
 20
-88.6635
  0
VERTEX
  8
LAYER_3
 10
131.3294
 20
-88.2401
  0
VERTEX
  8
LAYER_3
 10
132.2184
 20
-87.7745
  0
VERTEX
  8
LAYER_3
 10
133.0651
 20
-87.2877
  0
VERTEX
  8
LAYER_3
 10
133.9329
 20
-86.7373
  0
VERTEX
  8
LAYER_3
 10
134.7373
 20
-86.187
  0
VERTEX
  8
LAYER_3
 10
135.5416
 20
-85.5731
  0
VERTEX
  8
LAYER_3
 10
136.3036
 20
-84.9381
  0
VERTEX
  8
LAYER_3
 10
137.0656
 20
-84.282
  0
VERTEX
  8
LAYER_3
 10
137.7853
 20
-83.5835
  0
VERTEX
  8
LAYER_3
 10
138.4626
 20
-82.8638
  0
VERTEX
  8
LAYER_3
 10
139.1188
 20
-82.1018
  0
VERTEX
  8
LAYER_3
 10
139.7538
 20
-81.3186
  0
VERTEX
  8
LAYER_3
 10
140.3464
 20
-80.5143
  0
VERTEX
  8
LAYER_3
 10
140.8968
 20
-79.6888
  0
VERTEX
  8
LAYER_3
 10
141.4259
 20
-78.821
  0
VERTEX
  8
LAYER_3
 10
141.9128
 20
-77.9531
  0
VERTEX
  8
LAYER_3
 10
142.3573
 20
-77.0641
  0
VERTEX
  8
LAYER_3
 10
142.7594
 20
-76.154
  0
VERTEX
  8
LAYER_3
 10
143.1404
 20
-75.2226
  0
VERTEX
  8
LAYER_3
 10
143.4791
 20
-74.2913
  0
VERTEX
  8
LAYER_3
 10
143.7754
 20
-73.3388
  0
VERTEX
  8
LAYER_3
 10
144.0294
 20
-72.3651
  0
VERTEX
  8
LAYER_3
 10
144.2411
 20
-71.3915
  0
VERTEX
  8
LAYER_3
 10
144.4104
 20
-70.3966
  0
VERTEX
  8
LAYER_3
 10
144.5586
 20
-69.423
  0
VERTEX
  8
LAYER_3
 10
144.6433
 20
-68.4281
  0
VERTEX
  8
LAYER_3
 10
144.6856
 20
-67.4333
  0
VERTEX
  8
LAYER_3
 10
144.7068
 20
-66.4173
  0
VERTEX
  8
LAYER_3
 10
144.6644
 20
-65.4225
  0
VERTEX
  8
LAYER_3
 10
144.5798
 20
-64.4276
  0
VERTEX
  8
LAYER_3
 10
144.4739
 20
-63.4328
  0
VERTEX
  8
LAYER_3
 10
144.3258
 20
-62.4591
  0
VERTEX
  8
LAYER_3
 10
144.1141
 20
-61.4643
  0
VERTEX
  8
LAYER_3
 10
143.8813
 20
-60.4906
  0
VERTEX
  8
LAYER_3
 10
143.6061
 20
-59.5381
  0
VERTEX
  8
LAYER_3
 10
143.2886
 20
-58.5856
  0
VERTEX
  8
LAYER_3
 10
142.9288
 20
-57.6543
  0
VERTEX
  8
LAYER_3
 10
142.5266
 20
-56.7441
  0
VERTEX
  8
LAYER_3
 10
142.0821
 20
-55.834
  0
VERTEX
  8
LAYER_3
 10
141.6164
 20
-54.9662
  0
VERTEX
  8
LAYER_3
 10
141.1084
 20
-54.0983
  0
VERTEX
  8
LAYER_3
 10
140.5581
 20
-53.2728
  0
VERTEX
  8
LAYER_3
 10
139.9866
 20
-52.4473
  0
VERTEX
  8
LAYER_3
 10
139.3728
 20
-51.6641
  0
VERTEX
  8
LAYER_3
 10
138.7378
 20
-50.9021
  0
VERTEX
  8
LAYER_3
 10
138.0604
 20
-50.1613
  0
VERTEX
  8
LAYER_3
 10
137.3619
 20
-49.4416
  0
VERTEX
  8
LAYER_3
 10
136.6211
 20
-48.7643
  0
VERTEX
  8
LAYER_3
 10
135.8591
 20
-48.1293
  0
VERTEX
  8
LAYER_3
 10
135.0548
 20
-47.5155
  0
VERTEX
  8
LAYER_3
 10
134.2504
 20
-46.9228
  0
VERTEX
  8
LAYER_3
 10
133.4038
 20
-46.3725
  0
VERTEX
  8
LAYER_3
 10
132.5571
 20
-45.8645
  0
VERTEX
  8
LAYER_3
 10
131.6893
 20
-45.3988
  0
VERTEX
  8
LAYER_3
 10
130.7791
 20
-44.9543
  0
VERTEX
  8
LAYER_3
 10
129.8689
 20
-44.5521
  0
VERTEX
  8
LAYER_3
 10
128.9376
 20
-44.1923
  0
VERTEX
  8
LAYER_3
 10
127.9851
 20
-43.8748
  0
VERTEX
  8
LAYER_3
 10
127.0326
 20
-43.5785
  0
VERTEX
  8
LAYER_3
 10
126.0589
 20
-43.3456
  0
VERTEX
  8
LAYER_3
 10
125.0853
 20
-43.134
  0
VERTEX
  8
LAYER_3
 10
124.0904
 20
-42.9858
  0
VERTEX
  8
LAYER_3
 10
123.1168
 20
-42.8588
  0
VERTEX
  8
LAYER_3
 10
122.1008
 20
-42.7741
  0
VERTEX
  8
LAYER_3
 10
121.1059
 20
-42.7318
  0
VERTEX
  8
LAYER_3
 10
120.1111
 20
-42.753
  0
VERTEX
  8
LAYER_3
 10
119.1163
 20
-42.7953
  0
VERTEX
  8
LAYER_3
 10
118.1003
 20
-42.88
  0
VERTEX
  8
LAYER_3
 10
117.1266
 20
-43.007
  0
VERTEX
  8
LAYER_3
 10
116.1318
 20
-43.1763
  0
VERTEX
  8
LAYER_3
 10
115.1581
 20
-43.388
  0
VERTEX
  8
LAYER_3
 10
114.1844
 20
-43.642
  0
VERTEX
  8
LAYER_3
 10
113.2531
 20
-43.9171
  0
VERTEX
  8
LAYER_3
 10
112.3006
 20
-44.2558
  0
VERTEX
  8
LAYER_3
 10
111.3693
 20
-44.6368
  0
VERTEX
  8
LAYER_3
 10
110.4591
 20
-45.039
  0
VERTEX
  8
LAYER_3
 10
109.5701
 20
-45.4835
  0
VERTEX
  8
LAYER_3
 10
108.6811
 20
-45.9703
  0
VERTEX
  8
LAYER_3
 10
107.8344
 20
-46.4783
  0
VERTEX
  8
LAYER_3
 10
106.9878
 20
-47.0498
  0
VERTEX
  8
LAYER_3
 10
106.2046
 20
-47.6213
  0
VERTEX
  8
LAYER_3
 10
105.4003
 20
-48.2563
  0
VERTEX
  8
LAYER_3
 10
104.6594
 20
-48.9125
  0
VERTEX
  8
LAYER_3
 10
103.9186
 20
-49.5898
  0
VERTEX
  8
LAYER_3
 10
103.2201
 20
-50.3095
  0
VERTEX
  8
LAYER_3
 10
102.5639
 20
-51.0503
  0
VERTEX
  8
LAYER_3
 10
101.9078
 20
-51.8123
  0
VERTEX
  8
LAYER_3
 10
101.3151
 20
-52.6166
  0
VERTEX
  8
LAYER_3
 10
100.7436
 20
-53.4421
  0
VERTEX
  8
LAYER_3
 10
100.2144
 20
-54.2676
  0
VERTEX
  8
LAYER_3
 10
99.7064
 20
-55.1355
  0
VERTEX
  8
LAYER_3
 10
99.2408
 20
-56.0245
  0
VERTEX
  8
LAYER_3
 10
98.8174
 20
-56.9346
  0
VERTEX
  8
LAYER_3
 10
98.4153
 20
-57.8448
  0
VERTEX
  8
LAYER_3
 10
98.0766
 20
-58.7761
  0
VERTEX
  8
LAYER_3
 10
97.7591
 20
-59.7287
  0
VERTEX
  8
LAYER_3
 10
97.4839
 20
-60.7023
  0
VERTEX
  8
LAYER_3
 10
97.2511
 20
-61.676
  0
VERTEX
  8
LAYER_3
 10
97.0606
 20
-62.6496
  0
VERTEX
  8
LAYER_3
 10
96.9124
 20
-63.6445
  0
VERTEX
  8
LAYER_3
 10
96.8066
 20
-64.6181
  0
VERTEX
  8
LAYER_3
 10
96.7431
 20
-65.6341
  0
VERTEX
  8
LAYER_3
 10
96.7219
 20
-66.629
  0
VERTEX
  8
LAYER_3
 10
96.7431
 20
-67.6238
  0
VERTEX
  8
LAYER_3
 10
96.8066
 20
-68.6186
  0
VERTEX
  8
LAYER_3
 10
96.8913
 20
-69.6135
  0
VERTEX
  8
LAYER_3
 10
97.0394
 20
-70.6083
  0
VERTEX
  8
LAYER_3
 10
97.2299
 20
-71.6031
  0
VERTEX
  8
LAYER_3
 10
97.4416
 20
-72.5556
  0
VERTEX
  8
LAYER_3
 10
97.7168
 20
-73.5293
  0
VERTEX
  8
LAYER_3
 10
98.0131
 20
-74.4818
  0
VERTEX
  8
LAYER_3
 10
98.3518
 20
-75.4131
  0
VERTEX
  8
LAYER_3
 10
98.7328
 20
-76.3445
  0
VERTEX
  8
LAYER_3
 10
99.1561
 20
-77.2546
  0
VERTEX
  8
LAYER_3
 10
99.6006
 20
-78.1436
  0
VERTEX
  8
LAYER_3
 10
100.1086
 20
-79.0115
  0
VERTEX
  8
LAYER_3
 10
100.6378
 20
-79.8581
  0
VERTEX
  8
LAYER_3
 10
101.1881
 20
-80.6836
  0
VERTEX
  8
LAYER_3
 10
101.8019
 20
-81.488
  0
VERTEX
  8
LAYER_3
 10
102.4369
 20
-82.25
  0
VERTEX
  8
LAYER_3
 10
103.0931
 20
-83.012
  0
VERTEX
  8
LAYER_3
 10
103.7916
 20
-83.7316
  0
VERTEX
  8
LAYER_3
 10
104.5113
 20
-84.409
  0
VERTEX
  8
LAYER_3
 10
105.2521
 20
-85.0863
  0
VERTEX
  8
LAYER_3
 10
106.0353
 20
-85.7002
  0
VERTEX
  8
LAYER_3
 10
106.8396
 20
-86.2928
  0
VERTEX
  8
LAYER_3
 10
107.6651
 20
-86.8643
  0
VERTEX
  8
LAYER_3
 10
108.5118
 20
-87.3935
  0
VERTEX
  8
LAYER_3
 10
109.3796
 20
-87.8803
  0
VERTEX
  8
LAYER_3
 10
110.2898
 20
-88.3248
  0
VERTEX
  8
LAYER_3
 10
111.1788
 20
-88.7481
  0
VERTEX
  8
LAYER_3
 10
112.1101
 20
-89.1291
  0
VERTEX
  8
LAYER_3
 10
113.0626
 20
-89.4466
  0
VERTEX
  8
LAYER_3
 10
114.0151
 20
-89.7641
  0
VERTEX
  8
LAYER_3
 10
114.9676
 20
-90.0181
  0
VERTEX
  8
LAYER_3
 10
115.9413
 20
-90.2298
  0
VERTEX
  8
LAYER_3
 10
116.9361
 20
-90.4203
  0
VERTEX
  8
LAYER_3
 10
117.9309
 20
-90.5473
  0
VERTEX
  8
LAYER_3
 10
118.9258
 20
-90.6531
  0
VERTEX
  8
LAYER_3
 10
119.8994
 20
-90.6955
  0
VERTEX
  8
LAYER_3
 10
120.7038
 20
-90.7166
  0
SEQEND
  0
POLYLINE
  8
LAYER_3
 40
0.1764
 41
0.1764
 66
1
 10
0
 20
0
 30
0
  0
VERTEX
  8
LAYER_3
 10
120.7038
 20
-77.2123
  0
VERTEX
  8
LAYER_3
 10
121.6986
 20
-77.17
  0
VERTEX
  8
LAYER_3
 10
122.6934
 20
-77.0218
  0
VERTEX
  8
LAYER_3
 10
123.6671
 20
-76.789
  0
VERTEX
  8
LAYER_3
 10
124.5984
 20
-76.4715
  0
VERTEX
  8
LAYER_3
 10
125.5086
 20
-76.0481
  0
VERTEX
  8
LAYER_3
 10
126.3764
 20
-75.5613
  0
VERTEX
  8
LAYER_3
 10
127.2019
 20
-74.9686
  0
VERTEX
  8
LAYER_3
 10
127.9639
 20
-74.3336
  0
VERTEX
  8
LAYER_3
 10
128.6413
 20
-73.5928
  0
VERTEX
  8
LAYER_3
 10
129.2763
 20
-72.8096
  0
VERTEX
  8
LAYER_3
 10
129.8054
 20
-71.9841
  0
VERTEX
  8
LAYER_3
 10
130.2499
 20
-71.0951
  0
VERTEX
  8
LAYER_3
 10
130.6309
 20
-70.1638
  0
VERTEX
  8
LAYER_3
 10
130.9061
 20
-69.1901
  0
VERTEX
  8
LAYER_3
 10
131.0966
 20
-68.2165
  0
VERTEX
  8
LAYER_3
 10
131.2024
 20
-67.2216
  0
VERTEX
  8
LAYER_3
 10
131.2024
 20
-66.2268
  0
VERTEX
  8
LAYER_3
 10
131.0966
 20
-65.232
  0
VERTEX
  8
LAYER_3
 10
130.9061
 20
-64.2583
  0
VERTEX
  8
LAYER_3
 10
130.6309
 20
-63.2846
  0
VERTEX
  8
LAYER_3
 10
130.2499
 20
-62.3533
  0
VERTEX
  8
LAYER_3
 10
129.8054
 20
-61.4643
  0
VERTEX
  8
LAYER_3
 10
129.2551
 20
-60.6388
  0
VERTEX
  8
LAYER_3
 10
128.6413
 20
-59.8556
  0
SEQEND
  0
POLYLINE
  8
LAYER_3
 40
0.1764
 41
0.1764
 66
1
 10
0
 20
0
 30
0
  0
VERTEX
  8
LAYER_3
 10
128.6413
 20
-59.8556
  0
VERTEX
  8
LAYER_3
 10
127.9428
 20
-59.1148
  0
VERTEX
  8
LAYER_3
 10
127.1808
 20
-58.4798
  0
VERTEX
  8
LAYER_3
 10
126.3764
 20
-57.8871
  0
VERTEX
  8
LAYER_3
 10
125.5086
 20
-57.4003
  0
VERTEX
  8
LAYER_3
 10
124.5984
 20
-56.977
  0
VERTEX
  8
LAYER_3
 10
123.6671
 20
-56.6595
  0
VERTEX
  8
LAYER_3
 10
122.6934
 20
-56.4267
  0
VERTEX
  8
LAYER_3
 10
121.6986
 20
-56.2785
  0
VERTEX
  8
LAYER_3
 10
120.7038
 20
-56.2361
  0
VERTEX
  8
LAYER_3
 10
119.7089
 20
-56.2785
  0
VERTEX
  8
LAYER_3
 10
118.7141
 20
-56.4267
  0
VERTEX
  8
LAYER_3
 10
117.7404
 20
-56.6595
  0
VERTEX
  8
LAYER_3
 10
116.7879
 20
-56.9982
  0
VERTEX
  8
LAYER_3
 10
115.8989
 20
-57.4003
  0
VERTEX
  8
LAYER_3
 10
115.0311
 20
-57.9083
  0
VERTEX
  8
LAYER_3
 10
114.2056
 20
-58.501
  0
VERTEX
  8
LAYER_3
 10
113.4436
 20
-59.136
  0
VERTEX
  8
LAYER_3
 10
112.7663
 20
-59.8768
  0
VERTEX
  8
LAYER_3
 10
112.1524
 20
-60.66
  0
VERTEX
  8
LAYER_3
 10
111.6233
 20
-61.4855
  0
VERTEX
  8
LAYER_3
 10
111.1576
 20
-62.3745
  0
VERTEX
  8
LAYER_3
 10
110.7766
 20
-63.3058
  0
VERTEX
  8
LAYER_3
 10
110.5014
 20
-64.2583
  0
VERTEX
  8
LAYER_3
 10
110.3321
 20
-65.2531
  0
VERTEX
  8
LAYER_3
 10
110.2263
 20
-66.248
  0
VERTEX
  8
LAYER_3
 10
110.2263
 20
-67.2428
  0
VERTEX
  8
LAYER_3
 10
110.3321
 20
-68.2377
  0
VERTEX
  8
LAYER_3
 10
110.5226
 20
-69.2113
  0
VERTEX
  8
LAYER_3
 10
110.7978
 20
-70.185
  0
VERTEX
  8
LAYER_3
 10
111.1788
 20
-71.0951
  0
VERTEX
  8
LAYER_3
 10
111.6233
 20
-71.9841
  0
VERTEX
  8
LAYER_3
 10
112.1736
 20
-72.8308
  0
VERTEX
  8
LAYER_3
 10
112.7874
 20
-73.614
  0
VERTEX
  8
LAYER_3
 10
113.4859
 20
-74.3336
  0
VERTEX
  8
LAYER_3
 10
114.2479
 20
-74.9898
  0
VERTEX
  8
LAYER_3
 10
115.0523
 20
-75.5825
  0
VERTEX
  8
LAYER_3
 10
115.9201
 20
-76.0693
  0
VERTEX
  8
LAYER_3
 10
116.8303
 20
-76.4926
  0
VERTEX
  8
LAYER_3
 10
117.7828
 20
-76.8101
  0
VERTEX
  8
LAYER_3
 10
118.7564
 20
-77.0218
  0
VERTEX
  8
LAYER_3
 10
119.7301
 20
-77.17
  0
VERTEX
  8
LAYER_3
 10
120.7038
 20
-77.2123
  0
SEQEND
  0
POLYLINE
  8
LAYER_3
 40
0.1764
 41
0.1764
 66
1
 10
0
 20
0
 30
0
  0
VERTEX
  8
LAYER_3
 10
120.7038
 20
-78.5246
  0
VERTEX
  8
LAYER_3
 10
121.6986
 20
-78.4823
  0
VERTEX
  8
LAYER_3
 10
122.6934
 20
-78.3553
  0
VERTEX
  8
LAYER_3
 10
123.6883
 20
-78.1436
  0
VERTEX
  8
LAYER_3
 10
124.6196
 20
-77.8473
  0
VERTEX
  8
LAYER_3
 10
125.5509
 20
-77.4875
  0
VERTEX
  8
LAYER_3
 10
126.4611
 20
-77.0218
  0
VERTEX
  8
LAYER_3
 10
127.3078
 20
-76.4926
  0
VERTEX
  8
LAYER_3
 10
128.1121
 20
-75.9211
  0
VERTEX
  8
LAYER_3
 10
128.8529
 20
-75.2438
  0
VERTEX
  8
LAYER_3
 10
129.5514
 20
-74.5241
  0
VERTEX
  8
LAYER_3
 10
130.1864
 20
-73.7621
  0
VERTEX
  8
LAYER_3
 10
130.7368
 20
-72.9366
  0
VERTEX
  8
LAYER_3
 10
131.2448
 20
-72.0476
  0
VERTEX
  8
LAYER_3
 10
131.6469
 20
-71.1375
  0
VERTEX
  8
LAYER_3
 10
131.9856
 20
-70.2061
  0
VERTEX
  8
LAYER_3
 10
132.2396
 20
-69.2536
  0
VERTEX
  8
LAYER_3
 10
132.4089
 20
-68.2588
  0
VERTEX
  8
LAYER_3
 10
132.4936
 20
-67.264
  0
VERTEX
  8
LAYER_3
 10
132.4936
 20
-66.248
  0
VERTEX
  8
LAYER_3
 10
132.4089
 20
-65.2743
  0
VERTEX
  8
LAYER_3
 10
132.2396
 20
-64.2795
  0
VERTEX
  8
LAYER_3
 10
132.0068
 20
-63.3058
  0
VERTEX
  8
LAYER_3
 10
131.6681
 20
-62.3745
  0
VERTEX
  8
LAYER_3
 10
131.2659
 20
-61.4643
  0
VERTEX
  8
LAYER_3
 10
130.7791
 20
-60.5753
  0
VERTEX
  8
LAYER_3
 10
130.2288
 20
-59.7498
  0
VERTEX
  8
LAYER_3
 10
129.5938
 20
-58.9666
  0
VERTEX
  8
LAYER_3
 10
128.9164
 20
-58.247
  0
VERTEX
  8
LAYER_3
 10
128.1756
 20
-57.5908
  0
VERTEX
  8
LAYER_3
 10
127.3713
 20
-56.977
  0
VERTEX
  8
LAYER_3
 10
126.5246
 20
-56.469
  0
VERTEX
  8
LAYER_3
 10
125.6356
 20
-56.0033
  0
VERTEX
  8
LAYER_3
 10
124.7043
 20
-55.6223
  0
VERTEX
  8
LAYER_3
 10
123.7518
 20
-55.326
  0
VERTEX
  8
LAYER_3
 10
122.7781
 20
-55.1143
  0
VERTEX
  8
LAYER_3
 10
121.7833
 20
-54.9873
  0
VERTEX
  8
LAYER_3
 10
120.7884
 20
-54.9238
  0
VERTEX
  8
LAYER_3
 10
119.7724
 20
-54.9662
  0
VERTEX
  8
LAYER_3
 10
118.7988
 20
-55.0931
  0
VERTEX
  8
LAYER_3
 10
117.8039
 20
-55.2836
  0
VERTEX
  8
LAYER_3
 10
116.8514
 20
-55.58
  0
VERTEX
  8
LAYER_3
 10
115.9201
 20
-55.9398
  0
VERTEX
  8
LAYER_3
 10
115.0311
 20
-56.3843
  0
VERTEX
  8
LAYER_3
 10
114.1633
 20
-56.9135
  0
VERTEX
  8
LAYER_3
 10
113.3801
 20
-57.485
  0
VERTEX
  8
LAYER_3
 10
112.6181
 20
-58.1412
  0
VERTEX
  8
LAYER_3
 10
111.9196
 20
-58.8608
  0
VERTEX
  8
LAYER_3
 10
111.2846
 20
-59.644
  0
VERTEX
  8
LAYER_3
 10
110.7131
 20
-60.4695
  0
VERTEX
  8
LAYER_3
 10
110.2263
 20
-61.3373
  0
VERTEX
  8
LAYER_3
 10
109.8029
 20
-62.2475
  0
VERTEX
  8
LAYER_3
 10
109.4643
 20
-63.1788
  0
VERTEX
  8
LAYER_3
 10
109.2103
 20
-64.1313
  0
VERTEX
  8
LAYER_3
 10
109.0198
 20
-65.1261
  0
VERTEX
  8
LAYER_3
 10
108.9351
 20
-66.121
  0
VERTEX
  8
LAYER_3
 10
108.9139
 20
-67.1158
  0
VERTEX
  8
LAYER_3
 10
108.9986
 20
-68.1106
  0
VERTEX
  8
LAYER_3
 10
109.1468
 20
-69.1055
  0
VERTEX
  8
LAYER_3
 10
109.4008
 20
-70.0791
  0
VERTEX
  8
LAYER_3
 10
109.7183
 20
-71.0105
  0
VERTEX
  8
LAYER_3
 10
110.1204
 20
-71.9418
  0
VERTEX
  8
LAYER_3
 10
110.6073
 20
-72.8096
  0
VERTEX
  8
LAYER_3
 10
111.1576
 20
-73.6351
  0
VERTEX
  8
LAYER_3
 10
111.7714
 20
-74.4183
  0
VERTEX
  8
LAYER_3
 10
112.4699
 20
-75.1591
  0
VERTEX
  8
LAYER_3
 10
113.2108
 20
-75.8153
  0
VERTEX
  8
LAYER_3
 10
113.9939
 20
-76.4291
  0
VERTEX
  8
LAYER_3
 10
114.8406
 20
-76.9583
  0
VERTEX
  8
LAYER_3
 10
115.7296
 20
-77.424
  0
VERTEX
  8
LAYER_3
 10
116.6609
 20
-77.805
  0
VERTEX
  8
LAYER_3
 10
117.6134
 20
-78.1013
  0
VERTEX
  8
LAYER_3
 10
118.5871
 20
-78.3341
  0
VERTEX
  8
LAYER_3
 10
119.5608
 20
-78.4611
  0
VERTEX
  8
LAYER_3
 10
120.5768
 20
-78.5246
  0
VERTEX
  8
LAYER_3
 10
120.7038
 20
-78.5246
  0
SEQEND
  0
POLYLINE
  8
LAYER_3
 40
0.1764
 41
0.1764
 66
1
 10
0
 20
0
 30
0
  0
VERTEX
  8
LAYER_3
 10
120.7038
 20
-81.3186
  0
VERTEX
  8
LAYER_3
 10
121.6986
 20
-81.2763
  0
VERTEX
  8
LAYER_3
 10
122.6934
 20
-81.1705
  0
VERTEX
  8
LAYER_3
 10
123.6883
 20
-81.0011
  0
VERTEX
  8
LAYER_3
 10
124.6619
 20
-80.7683
  0
VERTEX
  8
LAYER_3
 10
125.6144
 20
-80.472
  0
VERTEX
  8
LAYER_3
 10
126.5458
 20
-80.091
  0
VERTEX
  8
LAYER_3
 10
127.4559
 20
-79.6676
  0
VERTEX
  8
LAYER_3
 10
128.3238
 20
-79.1808
  0
VERTEX
  8
LAYER_3
 10
129.1493
 20
-78.6305
  0
VERTEX
  8
LAYER_3
 10
129.9536
 20
-78.0378
  0
VERTEX
  8
LAYER_3
 10
130.6944
 20
-77.3816
  0
VERTEX
  8
LAYER_3
 10
131.3929
 20
-76.662
  0
VERTEX
  8
LAYER_3
 10
132.0491
 20
-75.9
  0
VERTEX
  8
LAYER_3
 10
132.6629
 20
-75.1168
  0
VERTEX
  8
LAYER_3
 10
133.2133
 20
-74.2701
  0
VERTEX
  8
LAYER_3
 10
133.7001
 20
-73.4023
  0
VERTEX
  8
LAYER_3
 10
134.1234
 20
-72.4921
  0
VERTEX
  8
LAYER_3
 10
134.4833
 20
-71.5608
  0
VERTEX
  8
LAYER_3
 10
134.7796
 20
-70.6083
  0
VERTEX
  8
LAYER_3
 10
135.0124
 20
-69.6346
  0
VERTEX
  8
LAYER_3
 10
135.1818
 20
-68.661
  0
VERTEX
  8
LAYER_3
 10
135.2664
 20
-67.6661
  0
VERTEX
  8
LAYER_3
 10
135.3088
 20
-66.6501
  0
VERTEX
  8
LAYER_3
 10
135.2664
 20
-65.6553
  0
VERTEX
  8
LAYER_3
 10
135.1606
 20
-64.6605
  0
VERTEX
  8
LAYER_3
 10
134.9913
 20
-63.6868
  0
VERTEX
  8
LAYER_3
 10
134.7373
 20
-62.7131
  0
VERTEX
  8
LAYER_3
 10
134.4409
 20
-61.7606
  0
VERTEX
  8
LAYER_3
 10
134.0599
 20
-60.8293
  0
VERTEX
  8
LAYER_3
 10
133.6154
 20
-59.9403
  0
VERTEX
  8
LAYER_3
 10
133.1286
 20
-59.0725
  0
VERTEX
  8
LAYER_3
 10
132.5783
 20
-58.2258
  0
VERTEX
  8
LAYER_3
 10
131.9644
 20
-57.4426
  0
VERTEX
  8
LAYER_3
 10
131.3083
 20
-56.7018
  0
VERTEX
  8
LAYER_3
 10
130.5886
 20
-55.9821
  0
VERTEX
  8
LAYER_3
 10
129.8266
 20
-55.3471
  0
VERTEX
  8
LAYER_3
 10
129.0434
 20
-54.7333
  0
VERTEX
  8
LAYER_3
 10
128.1968
 20
-54.2041
  0
VERTEX
  8
LAYER_3
 10
127.3289
 20
-53.7173
  0
VERTEX
  8
LAYER_3
 10
126.4188
 20
-53.294
  0
VERTEX
  8
LAYER_3
 10
125.4874
 20
-52.9341
  0
VERTEX
  8
LAYER_3
 10
124.5349
 20
-52.6378
  0
VERTEX
  8
LAYER_3
 10
123.5613
 20
-52.405
  0
VERTEX
  8
LAYER_3
 10
122.5664
 20
-52.2568
  0
VERTEX
  8
LAYER_3
 10
121.5716
 20
-52.151
  0
VERTEX
  8
LAYER_3
 10
120.5768
 20
-52.1298
  0
VERTEX
  8
LAYER_3
 10
119.5819
 20
-52.1721
  0
VERTEX
  8
LAYER_3
 10
118.5871
 20
-52.278
  0
VERTEX
  8
LAYER_3
 10
117.5923
 20
-52.4685
  0
VERTEX
  8
LAYER_3
 10
116.6398
 20
-52.7225
  0
VERTEX
  8
LAYER_3
 10
115.6873
 20
-53.0188
  0
VERTEX
  8
LAYER_3
 10
114.7559
 20
-53.3998
  0
VERTEX
  8
LAYER_3
 10
113.8669
 20
-53.8443
  0
VERTEX
  8
LAYER_3
 10
112.9991
 20
-54.3523
  0
VERTEX
  8
LAYER_3
 10
112.1736
 20
-54.9026
  0
VERTEX
  8
LAYER_3
 10
111.3693
 20
-55.5165
  0
VERTEX
  8
LAYER_3
 10
110.6284
 20
-56.1726
  0
VERTEX
  8
LAYER_3
 10
109.9299
 20
-56.8923
  0
VERTEX
  8
LAYER_3
 10
109.2738
 20
-57.6543
  0
VERTEX
  8
LAYER_3
 10
108.6811
 20
-58.4586
  0
VERTEX
  8
LAYER_3
 10
108.1519
 20
-59.2841
  0
VERTEX
  8
LAYER_3
 10
107.6651
 20
-60.1731
  0
VERTEX
  8
LAYER_3
 10
107.2629
 20
-61.0833
  0
VERTEX
  8
LAYER_3
 10
106.9031
 20
-62.0146
  0
VERTEX
  8
LAYER_3
 10
106.6068
 20
-62.9671
  0
VERTEX
  8
LAYER_3
 10
106.3951
 20
-63.9408
  0
VERTEX
  8
LAYER_3
 10
106.2258
 20
-64.9356
  0
VERTEX
  8
LAYER_3
 10
106.1411
 20
-65.9305
  0
VERTEX
  8
LAYER_3
 10
106.1199
 20
-66.9253
  0
VERTEX
  8
LAYER_3
 10
106.1623
 20
-67.9201
  0
VERTEX
  8
LAYER_3
 10
106.2893
 20
-68.915
  0
VERTEX
  8
LAYER_3
 10
106.4586
 20
-69.8886
  0
VERTEX
  8
LAYER_3
 10
106.7126
 20
-70.8623
  0
VERTEX
  8
LAYER_3
 10
107.0301
 20
-71.8148
  0
VERTEX
  8
LAYER_3
 10
107.4111
 20
-72.725
  0
VERTEX
  8
LAYER_3
 10
107.8556
 20
-73.6351
  0
VERTEX
  8
LAYER_3
 10
108.3636
 20
-74.503
  0
VERTEX
  8
LAYER_3
 10
108.9139
 20
-75.3285
  0
VERTEX
  8
LAYER_3
 10
109.5278
 20
-76.1116
  0
VERTEX
  8
LAYER_3
 10
110.2051
 20
-76.8525
  0
VERTEX
  8
LAYER_3
 10
110.9248
 20
-77.551
  0
VERTEX
  8
LAYER_3
 10
111.6868
 20
-78.186
  0
VERTEX
  8
LAYER_3
 10
112.4911
 20
-78.7786
  0
SEQEND
  0
POLYLINE
  8
LAYER_3
 40
0.1764
 41
0.1764
 66
1
 10
0
 20
0
 30
0
  0
VERTEX
  8
LAYER_3
 10
112.4911
 20
-78.7787
  0
VERTEX
  8
LAYER_3
 10
113.3378
 20
-79.329
  0
VERTEX
  8
LAYER_3
 10
114.2056
 20
-79.7947
  0
VERTEX
  8
LAYER_3
 10
115.1158
 20
-80.218
  0
VERTEX
  8
LAYER_3
 10
116.0683
 20
-80.5566
  0
VERTEX
  8
LAYER_3
 10
117.0208
 20
-80.8318
  0
VERTEX
  8
LAYER_3
 10
117.9944
 20
-81.0646
  0
VERTEX
  8
LAYER_3
 10
118.9893
 20
-81.2128
  0
VERTEX
  8
LAYER_3
 10
119.9841
 20
-81.2975
  0
VERTEX
  8
LAYER_3
 10
120.7038
 20
-81.3187
  0
SEQEND
  0
POLYLINE
  8
LAYER_3
 40
0.1764
 41
0.1764
 66
1
 10
0
 20
0
 30
0
  0
VERTEX
  8
LAYER_3
 10
120.7038
 20
-132.6055
  0
VERTEX
  8
LAYER_3
 10
120.7038
 20
-139.4211
  0
SEQEND
  0
POLYLINE
  8
LAYER_3
 40
0.1764
 41
0.1764
 66
1
 10
0
 20
0
 30
0
  0
VERTEX
  8
LAYER_3
 10
120.7038
 20
-140.416
  0
VERTEX
  8
LAYER_3
 10
120.7038
 20
-141.4108
  0
SEQEND
  0
POLYLINE
  8
LAYER_3
 40
0.1764
 41
0.1764
 66
1
 10
0
 20
0
 30
0
  0
VERTEX
  8
LAYER_3
 10
120.7038
 20
-142.4056
  0
VERTEX
  8
LAYER_3
 10
120.7038
 20
-149.2213
  0
SEQEND
  0
POLYLINE
  8
LAYER_3
 40
0.1764
 41
0.1764
 66
1
 10
0
 20
0
 30
0
  0
VERTEX
  8
LAYER_3
 10
144.7068
 20
-138.511
  0
VERTEX
  8
LAYER_3
 10
120.7038
 20
-138.511
  0
SEQEND
  0
POLYLINE
  8
LAYER_3
 40
0.1764
 41
0.1764
 66
1
 10
0
 20
0
 30
0
  0
VERTEX
  8
LAYER_3
 10
144.7068
 20
-140.5218
  0
VERTEX
  8
LAYER_3
 10
120.7038
 20
-140.5218
  0
SEQEND
  0
POLYLINE
  8
LAYER_3
 40
0.1764
 41
0.1764
 66
1
 10
0
 20
0
 30
0
  0
VERTEX
  8
LAYER_3
 10
137.7006
 20
-145.5171
  0
VERTEX
  8
LAYER_3
 10
120.7038
 20
-145.5171
  0
SEQEND
  0
POLYLINE
  8
LAYER_3
 40
0.1764
 41
0.1764
 66
1
 10
0
 20
0
 30
0
  0
VERTEX
  8
LAYER_3
 10
110.2051
 20
-138.511
  0
VERTEX
  8
LAYER_3
 10
120.7038
 20
-138.511
  0
SEQEND
  0
POLYLINE
  8
LAYER_3
 40
0.1764
 41
0.1764
 66
1
 10
0
 20
0
 30
0
  0
VERTEX
  8
LAYER_3
 10
106.1199
 20
-138.2147
  0
VERTEX
  8
LAYER_3
 10
108.9139
 20
-138.2147
  0
SEQEND
  0
POLYLINE
  8
LAYER_3
 40
0.1764
 41
0.1764
 66
1
 10
0
 20
0
 30
0
  0
VERTEX
  8
LAYER_3
 10
110.2051
 20
-145.5172
  0
VERTEX
  8
LAYER_3
 10
120.7038
 20
-145.5172
  0
SEQEND
  0
POLYLINE
  8
LAYER_3
 40
0.1764
 41
0.1764
 66
1
 10
0
 20
0
 30
0
  0
VERTEX
  8
LAYER_3
 10
120.7038
 20
-90.2087
  0
VERTEX
  8
LAYER_3
 10
121.6986
 20
-90.1875
  0
VERTEX
  8
LAYER_3
 10
122.7146
 20
-90.124
  0
VERTEX
  8
LAYER_3
 10
123.6883
 20
-90.0182
  0
VERTEX
  8
LAYER_3
 10
124.6831
 20
-89.87
  0
VERTEX
  8
LAYER_3
 10
125.6568
 20
-89.6795
  0
VERTEX
  8
LAYER_3
 10
126.6516
 20
-89.4467
  0
VERTEX
  8
LAYER_3
 10
127.6041
 20
-89.1715
  0
VERTEX
  8
LAYER_3
 10
128.5566
 20
-88.8752
  0
VERTEX
  8
LAYER_3
 10
129.4879
 20
-88.5153
  0
VERTEX
  8
LAYER_3
 10
130.3981
 20
-88.1132
  0
VERTEX
  8
LAYER_3
 10
131.3083
 20
-87.6898
  0
VERTEX
  8
LAYER_3
 10
132.1973
 20
-87.2242
  0
VERTEX
  8
LAYER_3
 10
133.0439
 20
-86.7162
  0
VERTEX
  8
LAYER_3
 10
133.8906
 20
-86.1658
  0
VERTEX
  8
LAYER_3
 10
134.6949
 20
-85.5943
  0
VERTEX
  8
LAYER_3
 10
135.4993
 20
-84.9805
  0
VERTEX
  8
LAYER_3
 10
136.2613
 20
-84.3243
  0
VERTEX
  8
LAYER_3
 10
137.0021
 20
-83.6682
  0
VERTEX
  8
LAYER_3
 10
137.7006
 20
-82.9485
  0
VERTEX
  8
LAYER_3
 10
138.3779
 20
-82.2077
  0
VERTEX
  8
LAYER_3
 10
139.0129
 20
-81.4457
  0
VERTEX
  8
LAYER_3
 10
139.6268
 20
-80.6413
  0
VERTEX
  8
LAYER_3
 10
140.1983
 20
-79.837
  0
VERTEX
  8
LAYER_3
 10
140.7486
 20
-78.9903
  0
VERTEX
  8
LAYER_3
 10
141.2566
 20
-78.1225
  0
VERTEX
  8
LAYER_3
 10
141.7011
 20
-77.2335
  0
VERTEX
  8
LAYER_3
 10
142.1456
 20
-76.3445
  0
VERTEX
  8
LAYER_3
 10
142.5266
 20
-75.4132
  0
VERTEX
  8
LAYER_3
 10
142.8864
 20
-74.4818
  0
VERTEX
  8
LAYER_3
 10
143.1828
 20
-73.5293
  0
VERTEX
  8
LAYER_3
 10
143.4579
 20
-72.5768
  0
VERTEX
  8
LAYER_3
 10
143.6908
 20
-71.6032
  0
VERTEX
  8
LAYER_3
 10
143.8813
 20
-70.6083
  0
VERTEX
  8
LAYER_3
 10
144.0294
 20
-69.6347
  0
VERTEX
  8
LAYER_3
 10
144.1141
 20
-68.6398
  0
VERTEX
  8
LAYER_3
 10
144.1776
 20
-67.645
  0
VERTEX
  8
LAYER_3
 10
144.1988
 20
-66.629
  0
VERTEX
  8
LAYER_3
 10
144.1776
 20
-65.6341
  0
VERTEX
  8
LAYER_3
 10
144.1141
 20
-64.6393
  0
VERTEX
  8
LAYER_3
 10
144.0083
 20
-63.6445
  0
VERTEX
  8
LAYER_3
 10
143.8389
 20
-62.6497
  0
VERTEX
  8
LAYER_3
 10
143.6484
 20
-61.676
  0
VERTEX
  8
LAYER_3
 10
143.4156
 20
-60.7023
  0
VERTEX
  8
LAYER_3
 10
143.1404
 20
-59.7498
  0
VERTEX
  8
LAYER_3
 10
142.8229
 20
-58.7973
  0
VERTEX
  8
LAYER_3
 10
142.4631
 20
-57.866
  0
VERTEX
  8
LAYER_3
 10
142.0609
 20
-56.9558
  0
VERTEX
  8
LAYER_3
 10
141.6376
 20
-56.0457
  0
VERTEX
  8
LAYER_3
 10
141.1508
 20
-55.1778
  0
VERTEX
  8
LAYER_3
 10
140.6428
 20
-54.31
  0
VERTEX
  8
LAYER_3
 10
140.0924
 20
-53.4633
  0
VERTEX
  8
LAYER_3
 10
139.5209
 20
-52.659
  0
VERTEX
  8
LAYER_3
 10
138.9071
 20
-51.8758
  0
VERTEX
  8
LAYER_3
 10
138.2721
 20
-51.1138
  0
VERTEX
  8
LAYER_3
 10
137.5736
 20
-50.3942
  0
VERTEX
  8
LAYER_3
 10
136.8751
 20
-49.6745
  0
VERTEX
  8
LAYER_3
 10
136.1343
 20
-48.9972
  0
VERTEX
  8
LAYER_3
 10
135.3723
 20
-48.3622
  0
VERTEX
  8
LAYER_3
 10
134.5679
 20
-47.7483
  0
VERTEX
  8
LAYER_3
 10
133.7424
 20
-47.1768
  0
VERTEX
  8
LAYER_3
 10
132.8958
 20
-46.6477
  0
VERTEX
  8
LAYER_3
 10
132.0491
 20
-46.1397
  0
VERTEX
  8
LAYER_3
 10
131.1601
 20
-45.6952
  0
VERTEX
  8
LAYER_3
 10
130.2499
 20
-45.2507
  0
VERTEX
  8
LAYER_3
 10
129.3186
 20
-44.8697
  0
VERTEX
  8
LAYER_3
 10
128.3873
 20
-44.531
  0
VERTEX
  8
LAYER_3
 10
127.4348
 20
-44.2135
  0
VERTEX
  8
LAYER_3
 10
126.4823
 20
-43.9595
  0
VERTEX
  8
LAYER_3
 10
125.4874
 20
-43.7267
  0
VERTEX
  8
LAYER_3
 10
124.5138
 20
-43.5573
  0
VERTEX
  8
LAYER_3
 10
123.5189
 20
-43.4091
  0
VERTEX
  8
LAYER_3
 10
122.5453
 20
-43.3033
  0
VERTEX
  8
LAYER_3
 10
121.5293
 20
-43.2398
  0
VERTEX
  8
LAYER_3
 10
120.5344
 20
-43.2398
  0
VERTEX
  8
LAYER_3
 10
119.5396
 20
-43.261
  0
VERTEX
  8
LAYER_3
 10
118.5448
 20
-43.3457
  0
VERTEX
  8
LAYER_3
 10
117.5499
 20
-43.4515
  0
VERTEX
  8
LAYER_3
 10
116.5551
 20
-43.5997
  0
VERTEX
  8
LAYER_3
 10
115.5814
 20
-43.8113
  0
VERTEX
  8
LAYER_3
 10
114.6078
 20
-44.0442
  0
VERTEX
  8
LAYER_3
 10
113.6553
 20
-44.3193
  0
VERTEX
  8
LAYER_3
 10
112.7028
 20
-44.6368
  0
VERTEX
  8
LAYER_3
 10
111.7714
 20
-44.9966
  0
VERTEX
  8
LAYER_3
 10
110.8613
 20
-45.3988
  0
VERTEX
  8
LAYER_3
 10
109.9511
 20
-45.8433
  0
VERTEX
  8
LAYER_3
 10
109.0833
 20
-46.309
  0
VERTEX
  8
LAYER_3
 10
108.2154
 20
-46.8382
  0
VERTEX
  8
LAYER_3
 10
107.3899
 20
-47.3673
  0
VERTEX
  8
LAYER_3
 10
106.5856
 20
-47.96
  0
VERTEX
  8
LAYER_3
 10
105.8024
 20
-48.595
  0
VERTEX
  8
LAYER_3
 10
105.0404
 20
-49.23
  0
VERTEX
  8
LAYER_3
 10
104.2996
 20
-49.9073
  0
VERTEX
  8
LAYER_3
 10
103.6011
 20
-50.627
  0
VERTEX
  8
LAYER_3
 10
102.9449
 20
-51.3678
  0
VERTEX
  8
LAYER_3
 10
102.2888
 20
-52.151
  0
VERTEX
  8
LAYER_3
 10
101.6961
 20
-52.9341
  0
VERTEX
  8
LAYER_3
 10
101.1246
 20
-53.7597
  0
VERTEX
  8
LAYER_3
 10
100.5954
 20
-54.6063
  0
VERTEX
  8
LAYER_3
 10
100.0874
 20
-55.4742
  0
VERTEX
  8
LAYER_3
 10
99.6218
 20
-56.3632
  0
VERTEX
  8
LAYER_3
 10
99.1984
 20
-57.2522
  0
VERTEX
  8
LAYER_3
 10
98.8386
 20
-58.1835
  0
VERTEX
  8
LAYER_3
 10
98.4788
 20
-59.136
  0
VERTEX
  8
LAYER_3
 10
98.1824
 20
-60.0885
  0
VERTEX
  8
LAYER_3
 10
97.9284
 20
-61.041
  0
VERTEX
  8
LAYER_3
 10
97.6956
 20
-62.0147
  0
VERTEX
  8
LAYER_3
 10
97.5263
 20
-62.9883
  0
VERTEX
  8
LAYER_3
 10
97.3781
 20
-63.9832
  0
VERTEX
  8
LAYER_3
 10
97.2934
 20
-64.978
  0
VERTEX
  8
LAYER_3
 10
97.2299
 20
-65.994
  0
VERTEX
  8
LAYER_3
 10
97.2299
 20
-66.9888
  0
VERTEX
  8
LAYER_3
 10
97.2511
 20
-67.9837
  0
VERTEX
  8
LAYER_3
 10
97.3358
 20
-68.9785
  0
VERTEX
  8
LAYER_3
 10
97.4416
 20
-69.9733
  0
VERTEX
  8
LAYER_3
 10
97.6109
 20
-70.947
  0
VERTEX
  8
LAYER_3
 10
97.8014
 20
-71.9418
  0
VERTEX
  8
LAYER_3
 10
98.0554
 20
-72.8943
  0
VERTEX
  8
LAYER_3
 10
98.3306
 20
-73.868
  0
VERTEX
  8
LAYER_3
 10
98.6693
 20
-74.8205
  0
VERTEX
  8
LAYER_3
 10
99.0291
 20
-75.7518
  0
VERTEX
  8
LAYER_3
 10
99.4101
 20
-76.662
  0
VERTEX
  8
LAYER_3
 10
99.8758
 20
-77.551
  0
VERTEX
  8
LAYER_3
 10
100.3414
 20
-78.44
  0
VERTEX
  8
LAYER_3
 10
100.8494
 20
-79.2867
  0
VERTEX
  8
LAYER_3
 10
101.4209
 20
-80.1122
  0
VERTEX
  8
LAYER_3
 10
101.9924
 20
-80.9377
  0
VERTEX
  8
LAYER_3
 10
102.6274
 20
-81.6997
  0
VERTEX
  8
LAYER_3
 10
103.2836
 20
-82.4617
  0
VERTEX
  8
LAYER_3
 10
103.9609
 20
-83.2025
  0
VERTEX
  8
LAYER_3
 10
104.6806
 20
-83.8798
  0
VERTEX
  8
LAYER_3
 10
105.4214
 20
-84.5572
  0
VERTEX
  8
LAYER_3
 10
106.2046
 20
-85.1922
  0
VERTEX
  8
LAYER_3
 10
106.9878
 20
-85.806
  0
VERTEX
  8
LAYER_3
 10
107.8133
 20
-86.3563
  0
VERTEX
  8
LAYER_3
 10
108.6599
 20
-86.8855
  0
VERTEX
  8
LAYER_3
 10
109.5278
 20
-87.3935
  0
VERTEX
  8
LAYER_3
 10
110.4168
 20
-87.838
  0
VERTEX
  8
LAYER_3
 10
111.3269
 20
-88.2613
  0
VERTEX
  8
LAYER_3
 10
112.2583
 20
-88.6423
  0
VERTEX
  8
LAYER_3
 10
113.1896
 20
-88.981
  0
VERTEX
  8
LAYER_3
 10
114.1421
 20
-89.2773
  0
VERTEX
  8
LAYER_3
 10
115.1158
 20
-89.5313
  0
VERTEX
  8
LAYER_3
 10
116.0894
 20
-89.7642
  0
VERTEX
  8
LAYER_3
 10
117.0631
 20
-89.9335
  0
VERTEX
  8
LAYER_3
 10
118.0579
 20
-90.0605
  0
VERTEX
  8
LAYER_3
 10
119.0528
 20
-90.1663
  0
VERTEX
  8
LAYER_3
 10
120.0688
 20
-90.2087
  0
VERTEX
  8
LAYER_3
 10
120.7038
 20
-90.2087
  0
SEQEND
  0
POLYLINE
  8
LAYER_3
 40
0.1058
 41
0.1058
 66
1
 10
0
 20
0
 30
0
  0
VERTEX
  8
LAYER_3
 10
93.7163
 20
-66.7348
  0
VERTEX
  8
LAYER_3
 10
101.2093
 20
-66.7348
  0
SEQEND
  0
POLYLINE
  8
LAYER_3
 40
0.1058
 41
0.1058
 66
1
 10
0
 20
0
 30
0
  0
VERTEX
  8
LAYER_3
 10
102.2253
 20
-66.7348
  0
VERTEX
  8
LAYER_3
 10
103.2201
 20
-66.7348
  0
SEQEND
  0
POLYLINE
  8
LAYER_3
 40
0.1058
 41
0.1058
 66
1
 10
0
 20
0
 30
0
  0
VERTEX
  8
LAYER_3
 10
104.2149
 20
-66.7348
  0
VERTEX
  8
LAYER_3
 10
113.2108
 20
-66.7348
  0
SEQEND
  0
POLYLINE
  8
LAYER_3
 40
0.1058
 41
0.1058
 66
1
 10
0
 20
0
 30
0
  0
VERTEX
  8
LAYER_3
 10
114.2056
 20
-66.7348
  0
VERTEX
  8
LAYER_3
 10
115.2216
 20
-66.7348
  0
SEQEND
  0
POLYLINE
  8
LAYER_3
 40
0.1058
 41
0.1058
 66
1
 10
0
 20
0
 30
0
  0
VERTEX
  8
LAYER_3
 10
116.2164
 20
-66.7348
  0
VERTEX
  8
LAYER_3
 10
125.2123
 20
-66.7348
  0
SEQEND
  0
POLYLINE
  8
LAYER_3
 40
0.1058
 41
0.1058
 66
1
 10
0
 20
0
 30
0
  0
VERTEX
  8
LAYER_3
 10
126.2071
 20
-66.7348
  0
VERTEX
  8
LAYER_3
 10
127.2019
 20
-66.7348
  0
SEQEND
  0
POLYLINE
  8
LAYER_3
 40
0.1058
 41
0.1058
 66
1
 10
0
 20
0
 30
0
  0
VERTEX
  8
LAYER_3
 10
128.1968
 20
-66.7348
  0
VERTEX
  8
LAYER_3
 10
137.1926
 20
-66.7348
  0
SEQEND
  0
POLYLINE
  8
LAYER_3
 40
0.1058
 41
0.1058
 66
1
 10
0
 20
0
 30
0
  0
VERTEX
  8
LAYER_3
 10
138.2086
 20
-66.7348
  0
VERTEX
  8
LAYER_3
 10
139.2034
 20
-66.7348
  0
SEQEND
  0
POLYLINE
  8
LAYER_3
 40
0.1058
 41
0.1058
 66
1
 10
0
 20
0
 30
0
  0
VERTEX
  8
LAYER_3
 10
140.1983
 20
-66.7348
  0
VERTEX
  8
LAYER_3
 10
147.6913
 20
-66.7348
  0
SEQEND
  0
POLYLINE
  8
LAYER_3
 40
0.1058
 41
0.1058
 66
1
 10
0
 20
0
 30
0
  0
VERTEX
  8
LAYER_3
 10
120.7038
 20
-93.7223
  0
VERTEX
  8
LAYER_3
 10
120.7038
 20
-86.2082
  0
SEQEND
  0
POLYLINE
  8
LAYER_3
 40
0.1058
 41
0.1058
 66
1
 10
0
 20
0
 30
0
  0
VERTEX
  8
LAYER_3
 10
120.7038
 20
-85.2133
  0
VERTEX
  8
LAYER_3
 10
120.7038
 20
-84.2185
  0
SEQEND
  0
POLYLINE
  8
LAYER_3
 40
0.1058
 41
0.1058
 66
1
 10
0
 20
0
 30
0
  0
VERTEX
  8
LAYER_3
 10
120.7038
 20
-83.2237
  0
VERTEX
  8
LAYER_3
 10
120.7038
 20
-74.2278
  0
SEQEND
  0
POLYLINE
  8
LAYER_3
 40
0.1058
 41
0.1058
 66
1
 10
0
 20
0
 30
0
  0
VERTEX
  8
LAYER_3
 10
120.7038
 20
-73.233
  0
VERTEX
  8
LAYER_3
 10
120.7038
 20
-72.217
  0
SEQEND
  0
POLYLINE
  8
LAYER_3
 40
0.1058
 41
0.1058
 66
1
 10
0
 20
0
 30
0
  0
VERTEX
  8
LAYER_3
 10
120.7038
 20
-71.2222
  0
VERTEX
  8
LAYER_3
 10
120.7038
 20
-62.2263
  0
SEQEND
  0
POLYLINE
  8
LAYER_3
 40
0.1058
 41
0.1058
 66
1
 10
0
 20
0
 30
0
  0
VERTEX
  8
LAYER_3
 10
120.7038
 20
-61.2315
  0
VERTEX
  8
LAYER_3
 10
120.7038
 20
-60.2367
  0
SEQEND
  0
POLYLINE
  8
LAYER_3
 40
0.1058
 41
0.1058
 66
1
 10
0
 20
0
 30
0
  0
VERTEX
  8
LAYER_3
 10
120.7038
 20
-59.2207
  0
VERTEX
  8
LAYER_3
 10
120.7038
 20
-50.2248
  0
SEQEND
  0
POLYLINE
  8
LAYER_3
 40
0.1058
 41
0.1058
 66
1
 10
0
 20
0
 30
0
  0
VERTEX
  8
LAYER_3
 10
120.7038
 20
-49.23
  0
VERTEX
  8
LAYER_3
 10
120.7038
 20
-48.2351
  0
SEQEND
  0
POLYLINE
  8
LAYER_3
 40
0.1058
 41
0.1058
 66
1
 10
0
 20
0
 30
0
  0
VERTEX
  8
LAYER_3
 10
120.7038
 20
-47.2403
  0
VERTEX
  8
LAYER_3
 10
120.7038
 20
-39.7473
  0
SEQEND
  0
POLYLINE
  8
LAYER_3
 40
0.1764
 41
0.1764
 66
1
 10
0
 20
0
 30
0
  0
VERTEX
  8
LAYER_3
 10
120.7038
 20
-135.0185
  0
VERTEX
  8
LAYER_3
 10
121.6774
 20
-135.0185
  0
SEQEND
  0
POLYLINE
  8
LAYER_3
 40
0.1764
 41
0.1764
 66
1
 10
0
 20
0
 30
0
  0
VERTEX
  8
LAYER_3
 10
122.4818
 20
-135.0185
  0
VERTEX
  8
LAYER_3
 10
123.6883
 20
-135.0185
  0
SEQEND
  0
POLYLINE
  8
LAYER_3
 40
0.1764
 41
0.1764
 66
1
 10
0
 20
0
 30
0
  0
VERTEX
  8
LAYER_3
 10
124.4715
 20
-135.0185
  0
VERTEX
  8
LAYER_3
 10
125.678
 20
-135.0185
  0
SEQEND
  0
POLYLINE
  8
LAYER_3
 40
0.1764
 41
0.1764
 66
1
 10
0
 20
0
 30
0
  0
VERTEX
  8
LAYER_3
 10
126.4823
 20
-135.0185
  0
VERTEX
  8
LAYER_3
 10
127.6676
 20
-135.0185
  0
SEQEND
  0
POLYLINE
  8
LAYER_3
 40
0.1764
 41
0.1764
 66
1
 10
0
 20
0
 30
0
  0
VERTEX
  8
LAYER_3
 10
128.472
 20
-135.0185
  0
VERTEX
  8
LAYER_3
 10
129.6785
 20
-135.0185
  0
SEQEND
  0
POLYLINE
  8
LAYER_3
 40
0.1764
 41
0.1764
 66
1
 10
0
 20
0
 30
0
  0
VERTEX
  8
LAYER_3
 10
130.4828
 20
-135.0185
  0
VERTEX
  8
LAYER_3
 10
131.6681
 20
-135.0185
  0
SEQEND
  0
POLYLINE
  8
LAYER_3
 40
0.1764
 41
0.1764
 66
1
 10
0
 20
0
 30
0
  0
VERTEX
  8
LAYER_3
 10
132.4725
 20
-135.0185
  0
VERTEX
  8
LAYER_3
 10
133.679
 20
-135.0185
  0
SEQEND
  0
POLYLINE
  8
LAYER_3
 40
0.1764
 41
0.1764
 66
1
 10
0
 20
0
 30
0
  0
VERTEX
  8
LAYER_3
 10
134.4833
 20
-135.0185
  0
VERTEX
  8
LAYER_3
 10
135.6686
 20
-135.0185
  0
SEQEND
  0
POLYLINE
  8
LAYER_3
 40
0.1764
 41
0.1764
 66
1
 10
0
 20
0
 30
0
  0
VERTEX
  8
LAYER_3
 10
136.473
 20
-135.0185
  0
VERTEX
  8
LAYER_3
 10
137.6795
 20
-135.0185
  0
SEQEND
  0
POLYLINE
  8
LAYER_3
 40
0.1764
 41
0.1764
 66
1
 10
0
 20
0
 30
0
  0
VERTEX
  8
LAYER_3
 10
138.4627
 20
-135.0185
  0
VERTEX
  8
LAYER_3
 10
139.6692
 20
-135.0185
  0
SEQEND
  0
POLYLINE
  8
LAYER_3
 40
0.1764
 41
0.1764
 66
1
 10
0
 20
0
 30
0
  0
VERTEX
  8
LAYER_3
 10
140.4735
 20
-135.0185
  0
VERTEX
  8
LAYER_3
 10
141.68
 20
-135.0185
  0
SEQEND
  0
POLYLINE
  8
LAYER_3
 40
0.1764
 41
0.1764
 66
1
 10
0
 20
0
 30
0
  0
VERTEX
  8
LAYER_3
 10
142.4632
 20
-135.0185
  0
VERTEX
  8
LAYER_3
 10
143.6697
 20
-135.0185
  0
SEQEND
  0
POLYLINE
  8
LAYER_3
 40
0.1764
 41
0.1764
 66
1
 10
0
 20
0
 30
0
  0
VERTEX
  8
LAYER_3
 10
144.474
 20
-135.0185
  0
VERTEX
  8
LAYER_3
 10
145.4477
 20
-135.0185
  0
SEQEND
  0
POLYLINE
  8
LAYER_3
 40
0.1764
 41
0.1764
 66
1
 10
0
 20
0
 30
0
  0
VERTEX
  8
LAYER_3
 10
147.6913
 20
-137.2833
  0
VERTEX
  8
LAYER_3
 10
147.6913
 20
-137.749
  0
SEQEND
  0
POLYLINE
  8
LAYER_3
 40
0.1764
 41
0.1764
 66
1
 10
0
 20
0
 30
0
  0
VERTEX
  8
LAYER_3
 10
147.6913
 20
-138.5533
  0
VERTEX
  8
LAYER_3
 10
147.6913
 20
-139.7386
  0
SEQEND
  0
POLYLINE
  8
LAYER_3
 40
0.1764
 41
0.1764
 66
1
 10
0
 20
0
 30
0
  0
VERTEX
  8
LAYER_3
 10
147.6913
 20
-140.543
  0
VERTEX
  8
LAYER_3
 10
147.6913
 20
-141.0087
  0
SEQEND
  0
POLYLINE
  8
LAYER_3
 40
0.1764
 41
0.1764
 66
1
 10
0
 20
0
 30
0
  0
VERTEX
  8
LAYER_3
 10
147.6913
 20
-137.2833
  0
VERTEX
  8
LAYER_3
 10
146.8658
 20
-136.4155
  0
SEQEND
  0
POLYLINE
  8
LAYER_3
 40
0.1764
 41
0.1764
 66
1
 10
0
 20
0
 30
0
  0
VERTEX
  8
LAYER_3
 10
146.2943
 20
-135.8652
  0
VERTEX
  8
LAYER_3
 10
145.4477
 20
-135.0185
  0
SEQEND
  0
POLYLINE
  8
LAYER_3
 40
0.1764
 41
0.1764
 66
1
 10
0
 20
0
 30
0
  0
VERTEX
  8
LAYER_3
 10
120.7038
 20
-77.7203
  0
VERTEX
  8
LAYER_3
 10
121.6987
 20
-77.678
  0
VERTEX
  8
LAYER_3
 10
122.6935
 20
-77.551
  0
VERTEX
  8
LAYER_3
 10
123.6672
 20
-77.3181
  0
VERTEX
  8
LAYER_3
 10
124.6197
 20
-77.0007
  0
VERTEX
  8
LAYER_3
 10
125.5298
 20
-76.5985
  0
VERTEX
  8
LAYER_3
 10
126.4188
 20
-76.1328
  0
VERTEX
  8
LAYER_3
 10
127.2443
 20
-75.5825
  0
SEQEND
  0
POLYLINE
  8
LAYER_3
 40
0.1764
 41
0.1764
 66
1
 10
0
 20
0
 30
0
  0
VERTEX
  8
LAYER_3
 10
127.2443
 20
-75.5825
  0
VERTEX
  8
LAYER_3
 10
128.0063
 20
-74.9475
  0
VERTEX
  8
LAYER_3
 10
128.7259
 20
-74.249
  0
VERTEX
  8
LAYER_3
 10
129.3821
 20
-73.487
  0
VERTEX
  8
LAYER_3
 10
129.9748
 20
-72.6615
  0
VERTEX
  8
LAYER_3
 10
130.4616
 20
-71.8148
  0
VERTEX
  8
LAYER_3
 10
130.8849
 20
-70.9046
  0
VERTEX
  8
LAYER_3
 10
131.2236
 20
-69.9521
  0
VERTEX
  8
LAYER_3
 10
131.4776
 20
-68.9785
  0
VERTEX
  8
LAYER_3
 10
131.6258
 20
-68.0048
  0
VERTEX
  8
LAYER_3
 10
131.7104
 20
-67.01
  0
VERTEX
  8
LAYER_3
 10
131.6893
 20
-66.0152
  0
VERTEX
  8
LAYER_3
 10
131.5834
 20
-64.9992
  0
VERTEX
  8
LAYER_3
 10
131.3718
 20
-64.0466
  0
VERTEX
  8
LAYER_3
 10
131.0754
 20
-63.073
  0
VERTEX
  8
LAYER_3
 10
130.7156
 20
-62.1417
  0
VERTEX
  8
LAYER_3
 10
130.2499
 20
-61.2527
  0
VERTEX
  8
LAYER_3
 10
129.7208
 20
-60.4271
  0
VERTEX
  8
LAYER_3
 10
129.1069
 20
-59.6228
  0
VERTEX
  8
LAYER_3
 10
128.4296
 20
-58.882
  0
VERTEX
  8
LAYER_3
 10
127.6888
 20
-58.2258
  0
VERTEX
  8
LAYER_3
 10
126.8844
 20
-57.6332
  0
VERTEX
  8
LAYER_3
 10
126.0378
 20
-57.104
  0
VERTEX
  8
LAYER_3
 10
125.1276
 20
-56.6595
  0
VERTEX
  8
LAYER_3
 10
124.2174
 20
-56.2997
  0
VERTEX
  8
LAYER_3
 10
123.2438
 20
-56.0245
  0
VERTEX
  8
LAYER_3
 10
122.2489
 20
-55.834
  0
VERTEX
  8
LAYER_3
 10
121.2753
 20
-55.7493
  0
VERTEX
  8
LAYER_3
 10
120.2593
 20
-55.7493
  0
VERTEX
  8
LAYER_3
 10
119.2644
 20
-55.8128
  0
VERTEX
  8
LAYER_3
 10
118.2908
 20
-56.0033
  0
VERTEX
  8
LAYER_3
 10
117.3171
 20
-56.2573
  0
VERTEX
  8
LAYER_3
 10
116.3858
 20
-56.6171
  0
VERTEX
  8
LAYER_3
 10
115.4968
 20
-57.0617
  0
VERTEX
  8
LAYER_3
 10
114.6289
 20
-57.5697
  0
VERTEX
  8
LAYER_3
 10
113.8246
 20
-58.1412
  0
VERTEX
  8
LAYER_3
 10
113.0626
 20
-58.8185
  0
VERTEX
  8
LAYER_3
 10
112.3853
 20
-59.5382
  0
VERTEX
  8
LAYER_3
 10
111.7714
 20
-60.3213
  0
VERTEX
  8
LAYER_3
 10
111.2211
 20
-61.168
  0
VERTEX
  8
LAYER_3
 10
110.7554
 20
-62.057
  0
VERTEX
  8
LAYER_3
 10
110.3744
 20
-62.9671
  0
VERTEX
  8
LAYER_3
 10
110.0781
 20
-63.9197
  0
VERTEX
  8
LAYER_3
 10
109.8664
 20
-64.8933
  0
VERTEX
  8
LAYER_3
 10
109.7394
 20
-65.8882
  0
VERTEX
  8
LAYER_3
 10
109.7183
 20
-66.883
  0
VERTEX
  8
LAYER_3
 10
109.7818
 20
-67.8778
  0
VERTEX
  8
LAYER_3
 10
109.9299
 20
-68.8726
  0
VERTEX
  8
LAYER_3
 10
110.1628
 20
-69.8463
  0
VERTEX
  8
LAYER_3
 10
110.5014
 20
-70.7777
  0
VERTEX
  8
LAYER_3
 10
110.9036
 20
-71.709
  0
VERTEX
  8
LAYER_3
 10
111.3904
 20
-72.5768
  0
VERTEX
  8
LAYER_3
 10
111.9619
 20
-73.4023
  0
VERTEX
  8
LAYER_3
 10
112.5969
 20
-74.1431
  0
VERTEX
  8
LAYER_3
 10
113.3166
 20
-74.8628
  0
VERTEX
  8
LAYER_3
 10
114.0786
 20
-75.4978
  0
VERTEX
  8
LAYER_3
 10
114.9041
 20
-76.0693
  0
VERTEX
  8
LAYER_3
 10
115.7719
 20
-76.5562
  0
VERTEX
  8
LAYER_3
 10
116.6821
 20
-76.9583
  0
VERTEX
  8
LAYER_3
 10
117.6346
 20
-77.2758
  0
VERTEX
  8
LAYER_3
 10
118.6083
 20
-77.5298
  0
VERTEX
  8
LAYER_3
 10
119.6031
 20
-77.6568
  0
VERTEX
  8
LAYER_3
 10
120.5979
 20
-77.7203
  0
VERTEX
  8
LAYER_3
 10
120.7038
 20
-77.7203
  0
SEQEND
  0
POLYLINE
  8
LAYER_3
 40
0.1764
 41
0.1764
 66
1
 10
0
 20
0
 30
0
  0
VERTEX
  8
LAYER_3
 10
120.7038
 20
-81.5303
  0
VERTEX
  8
LAYER_3
 10
121.6986
 20
-81.488
  0
VERTEX
  8
LAYER_3
 10
122.6934
 20
-81.3822
  0
VERTEX
  8
LAYER_3
 10
123.6883
 20
-81.2128
  0
VERTEX
  8
LAYER_3
 10
124.6619
 20
-80.98
  0
VERTEX
  8
LAYER_3
 10
125.6144
 20
-80.6836
  0
VERTEX
  8
LAYER_3
 10
126.5458
 20
-80.3238
  0
VERTEX
  8
LAYER_3
 10
127.4559
 20
-79.9005
  0
VERTEX
  8
LAYER_3
 10
128.3238
 20
-79.4136
  0
VERTEX
  8
LAYER_3
 10
129.1704
 20
-78.8633
  0
VERTEX
  8
LAYER_3
 10
129.9748
 20
-78.2707
  0
VERTEX
  8
LAYER_3
 10
130.7156
 20
-77.6145
  0
VERTEX
  8
LAYER_3
 10
131.4353
 20
-76.916
  0
VERTEX
  8
LAYER_3
 10
132.0914
 20
-76.1752
  0
VERTEX
  8
LAYER_3
 10
132.7053
 20
-75.392
  0
VERTEX
  8
LAYER_3
 10
133.2556
 20
-74.5453
  0
VERTEX
  8
LAYER_3
 10
133.7636
 20
-73.6775
  0
VERTEX
  8
LAYER_3
 10
134.2081
 20
-72.7885
  0
VERTEX
  8
LAYER_3
 10
134.5891
 20
-71.8572
  0
VERTEX
  8
LAYER_3
 10
134.9066
 20
-70.9046
  0
VERTEX
  8
LAYER_3
 10
135.1606
 20
-69.9521
  0
VERTEX
  8
LAYER_3
 10
135.3299
 20
-68.9573
  0
VERTEX
  8
LAYER_3
 10
135.4569
 20
-67.9836
  0
VERTEX
  8
LAYER_3
 10
135.4993
 20
-66.9677
  0
VERTEX
  8
LAYER_3
 10
135.4781
 20
-65.9728
  0
VERTEX
  8
LAYER_3
 10
135.3934
 20
-64.978
  0
VERTEX
  8
LAYER_3
 10
135.2453
 20
-63.9832
  0
VERTEX
  8
LAYER_3
 10
135.0336
 20
-63.0095
  0
VERTEX
  8
LAYER_3
 10
134.7373
 20
-62.057
  0
VERTEX
  8
LAYER_3
 10
134.3986
 20
-61.1256
  0
VERTEX
  8
LAYER_3
 10
133.9964
 20
-60.2155
  0
VERTEX
  8
LAYER_3
 10
133.5308
 20
-59.3265
  0
VERTEX
  8
LAYER_3
 10
133.0016
 20
-58.4798
  0
VERTEX
  8
LAYER_3
 10
132.4089
 20
-57.6755
  0
VERTEX
  8
LAYER_3
 10
131.7739
 20
-56.8923
  0
VERTEX
  8
LAYER_3
 10
131.0754
 20
-56.1726
  0
VERTEX
  8
LAYER_3
 10
130.3558
 20
-55.4953
  0
VERTEX
  8
LAYER_3
 10
129.5726
 20
-54.8815
  0
VERTEX
  8
LAYER_3
 10
128.7471
 20
-54.31
  0
VERTEX
  8
LAYER_3
 10
127.8793
 20
-53.802
  0
VERTEX
  8
LAYER_3
 10
126.9903
 20
-53.3363
  0
VERTEX
  8
LAYER_3
 10
126.0801
 20
-52.9341
  0
VERTEX
  8
LAYER_3
 10
125.1276
 20
-52.6166
  0
VERTEX
  8
LAYER_3
 10
124.1751
 20
-52.3415
  0
VERTEX
  8
LAYER_3
 10
123.1803
 20
-52.151
  0
VERTEX
  8
LAYER_3
 10
122.2066
 20
-52.0028
  0
VERTEX
  8
LAYER_3
 10
121.2118
 20
-51.9393
  0
VERTEX
  8
LAYER_3
 10
120.2169
 20
-51.9393
  0
VERTEX
  8
LAYER_3
 10
119.2009
 20
-52.024
  0
VERTEX
  8
LAYER_3
 10
118.2273
 20
-52.151
  0
VERTEX
  8
LAYER_3
 10
117.2324
 20
-52.3415
  0
VERTEX
  8
LAYER_3
 10
116.2799
 20
-52.6166
  0
VERTEX
  8
LAYER_3
 10
115.3274
 20
-52.9341
  0
VERTEX
  8
LAYER_3
 10
114.4173
 20
-53.3363
  0
VERTEX
  8
LAYER_3
 10
113.5283
 20
-53.802
  0
VERTEX
  8
LAYER_3
 10
112.6816
 20
-54.31
  0
VERTEX
  8
LAYER_3
 10
111.8561
 20
-54.8815
  0
VERTEX
  8
LAYER_3
 10
111.0729
 20
-55.4953
  0
VERTEX
  8
LAYER_3
 10
110.3321
 20
-56.1726
  0
VERTEX
  8
LAYER_3
 10
109.6336
 20
-56.8923
  0
VERTEX
  8
LAYER_3
 10
108.9986
 20
-57.6755
  0
VERTEX
  8
LAYER_3
 10
108.4271
 20
-58.501
  0
VERTEX
  8
LAYER_3
 10
107.8979
 20
-59.3265
  0
VERTEX
  8
LAYER_3
 10
107.4323
 20
-60.2155
  0
VERTEX
  8
LAYER_3
 10
107.0089
 20
-61.1256
  0
VERTEX
  8
LAYER_3
 10
106.6703
 20
-62.0781
  0
VERTEX
  8
LAYER_3
 10
106.3951
 20
-63.0306
  0
VERTEX
  8
LAYER_3
 10
106.1623
 20
-64.0043
  0
VERTEX
  8
LAYER_3
 10
106.0141
 20
-64.978
  0
VERTEX
  8
LAYER_3
 10
105.9294
 20
-65.994
  0
VERTEX
  8
LAYER_3
 10
105.9083
 20
-66.9888
  0
VERTEX
  8
LAYER_3
 10
105.9718
 20
-67.9836
  0
VERTEX
  8
LAYER_3
 10
106.0776
 20
-68.9785
  0
VERTEX
  8
LAYER_3
 10
106.2681
 20
-69.9521
  0
VERTEX
  8
LAYER_3
 10
106.5221
 20
-70.9258
  0
VERTEX
  8
LAYER_3
 10
106.8396
 20
-71.8783
  0
VERTEX
  8
LAYER_3
 10
107.2206
 20
-72.7885
  0
VERTEX
  8
LAYER_3
 10
107.6651
 20
-73.6986
  0
VERTEX
  8
LAYER_3
 10
108.1519
 20
-74.5453
  0
VERTEX
  8
LAYER_3
 10
108.7234
 20
-75.392
  0
VERTEX
  8
LAYER_3
 10
109.3373
 20
-76.1752
  0
VERTEX
  8
LAYER_3
 10
109.9934
 20
-76.916
  0
VERTEX
  8
LAYER_3
 10
110.7131
 20
-77.6145
  0
VERTEX
  8
LAYER_3
 10
111.4539
 20
-78.2707
  0
VERTEX
  8
LAYER_3
 10
112.2583
 20
-78.8633
  0
VERTEX
  8
LAYER_3
 10
113.1049
 20
-79.4136
  0
VERTEX
  8
LAYER_3
 10
113.9728
 20
-79.9005
  0
VERTEX
  8
LAYER_3
 10
114.8829
 20
-80.3238
  0
VERTEX
  8
LAYER_3
 10
115.8143
 20
-80.6836
  0
VERTEX
  8
LAYER_3
 10
116.7668
 20
-80.98
  0
VERTEX
  8
LAYER_3
 10
117.7404
 20
-81.2128
  0
VERTEX
  8
LAYER_3
 10
118.7353
 20
-81.3822
  0
VERTEX
  8
LAYER_3
 10
119.7301
 20
-81.488
  0
VERTEX
  8
LAYER_3
 10
120.7038
 20
-81.5303
  0
SEQEND
  0
POLYLINE
  8
LAYER_3
 40
0.1764
 41
0.1764
 66
1
 10
0
 20
0
 30
0
  0
VERTEX
  8
LAYER_3
 10
120.7038
 20
-78.313
  0
VERTEX
  8
LAYER_3
 10
121.6986
 20
-78.2918
  0
VERTEX
  8
LAYER_3
 10
122.6934
 20
-78.1437
  0
VERTEX
  8
LAYER_3
 10
123.6883
 20
-77.932
  0
VERTEX
  8
LAYER_3
 10
124.6196
 20
-77.6357
  0
VERTEX
  8
LAYER_3
 10
125.5509
 20
-77.2546
  0
VERTEX
  8
LAYER_3
 10
126.4399
 20
-76.8101
  0
VERTEX
  8
LAYER_3
 10
127.2866
 20
-76.281
  0
VERTEX
  8
LAYER_3
 10
128.0909
 20
-75.6671
  0
VERTEX
  8
LAYER_3
 10
128.8318
 20
-75.011
  0
VERTEX
  8
LAYER_3
 10
129.5091
 20
-74.2701
  0
VERTEX
  8
LAYER_3
 10
130.1229
 20
-73.487
  0
VERTEX
  8
LAYER_3
 10
130.6733
 20
-72.6615
  0
VERTEX
  8
LAYER_3
 10
131.1601
 20
-71.7725
  0
VERTEX
  8
LAYER_3
 10
131.5411
 20
-70.8623
  0
VERTEX
  8
LAYER_3
 10
131.8586
 20
-69.9098
  0
VERTEX
  8
LAYER_3
 10
132.0914
 20
-68.9361
  0
VERTEX
  8
LAYER_3
 10
132.2396
 20
-67.9413
  0
VERTEX
  8
LAYER_3
 10
132.3031
 20
-66.9465
  0
VERTEX
  8
LAYER_3
 10
132.2819
 20
-65.9517
  0
VERTEX
  8
LAYER_3
 10
132.1549
 20
-64.9568
  0
VERTEX
  8
LAYER_3
 10
131.9644
 20
-63.9832
  0
VERTEX
  8
LAYER_3
 10
131.6893
 20
-63.0095
  0
VERTEX
  8
LAYER_3
 10
131.3294
 20
-62.0781
  0
VERTEX
  8
LAYER_3
 10
130.8849
 20
-61.1892
  0
VERTEX
  8
LAYER_3
 10
130.3769
 20
-60.3213
  0
VERTEX
  8
LAYER_3
 10
129.8054
 20
-59.517
  0
VERTEX
  8
LAYER_3
 10
129.1281
 20
-58.755
  0
VERTEX
  8
LAYER_3
 10
128.4296
 20
-58.0777
  0
VERTEX
  8
LAYER_3
 10
127.6464
 20
-57.4427
  0
VERTEX
  8
LAYER_3
 10
126.8209
 20
-56.8712
  0
VERTEX
  8
LAYER_3
 10
125.9531
 20
-56.3843
  0
VERTEX
  8
LAYER_3
 10
125.0429
 20
-55.9822
  0
VERTEX
  8
LAYER_3
 10
124.0904
 20
-55.6435
  0
VERTEX
  8
LAYER_3
 10
123.1379
 20
-55.3895
  0
VERTEX
  8
LAYER_3
 10
122.1431
 20
-55.2201
  0
VERTEX
  8
LAYER_3
 10
121.1483
 20
-55.1355
  0
VERTEX
  8
LAYER_3
 10
120.1534
 20
-55.1355
  0
VERTEX
  8
LAYER_3
 10
119.1586
 20
-55.2413
  0
VERTEX
  8
LAYER_3
 10
118.1638
 20
-55.4107
  0
VERTEX
  8
LAYER_3
 10
117.2113
 20
-55.6646
  0
VERTEX
  8
LAYER_3
 10
116.2799
 20
-56.0033
  0
VERTEX
  8
LAYER_3
 10
115.3698
 20
-56.4478
  0
VERTEX
  8
LAYER_3
 10
114.5019
 20
-56.9347
  0
VERTEX
  8
LAYER_3
 10
113.6764
 20
-57.5062
  0
SEQEND
  0
POLYLINE
  8
LAYER_3
 40
0.1764
 41
0.1764
 66
1
 10
0
 20
0
 30
0
  0
VERTEX
  8
LAYER_3
 10
113.6764
 20
-57.5061
  0
VERTEX
  8
LAYER_3
 10
112.9144
 20
-58.1411
  0
VERTEX
  8
LAYER_3
 10
112.1948
 20
-58.8608
  0
VERTEX
  8
LAYER_3
 10
111.5598
 20
-59.6016
  0
VERTEX
  8
LAYER_3
 10
110.9671
 20
-60.4271
  0
VERTEX
  8
LAYER_3
 10
110.4803
 20
-61.295
  0
VERTEX
  8
LAYER_3
 10
110.0358
 20
-62.184
  0
VERTEX
  8
LAYER_3
 10
109.6759
 20
-63.1365
  0
VERTEX
  8
LAYER_3
 10
109.4219
 20
-64.089
  0
VERTEX
  8
LAYER_3
 10
109.2314
 20
-65.0626
  0
VERTEX
  8
LAYER_3
 10
109.1256
 20
-66.0575
  0
VERTEX
  8
LAYER_3
 10
109.1256
 20
-67.0735
  0
VERTEX
  8
LAYER_3
 10
109.1891
 20
-68.0471
  0
VERTEX
  8
LAYER_3
 10
109.3584
 20
-69.042
  0
VERTEX
  8
LAYER_3
 10
109.5913
 20
-70.0156
  0
VERTEX
  8
LAYER_3
 10
109.9088
 20
-70.9681
  0
VERTEX
  8
LAYER_3
 10
110.3321
 20
-71.8783
  0
VERTEX
  8
LAYER_3
 10
110.7978
 20
-72.7461
  0
VERTEX
  8
LAYER_3
 10
111.3481
 20
-73.5928
  0
VERTEX
  8
LAYER_3
 10
111.9831
 20
-74.3548
  0
VERTEX
  8
LAYER_3
 10
112.6816
 20
-75.0745
  0
VERTEX
  8
LAYER_3
 10
113.4224
 20
-75.7518
  0
VERTEX
  8
LAYER_3
 10
114.2268
 20
-76.3445
  0
VERTEX
  8
LAYER_3
 10
115.0734
 20
-76.8525
  0
VERTEX
  8
LAYER_3
 10
115.9624
 20
-77.3181
  0
VERTEX
  8
LAYER_3
 10
116.8938
 20
-77.678
  0
VERTEX
  8
LAYER_3
 10
117.8674
 20
-77.9531
  0
VERTEX
  8
LAYER_3
 10
118.8199
 20
-78.1648
  0
VERTEX
  8
LAYER_3
 10
119.8359
 20
-78.2918
  0
VERTEX
  8
LAYER_3
 10
120.7038
 20
-78.313
  0
SEQEND
  0
TEXT
  8
LAYER_3
 10
162.5196
 20
-145.0829
 11
162.5196
 21
-145.0829
 40
3.6923
 41
0.5
  1
5
  0
TEXT
  8
LAYER_3
 10
175.8408
 20
-143.2384
 11
175.8408
 21
-143.2384
 40
3.6923
 41
0.5
  1
8
  0
TEXT
  8
LAYER_3
 10
114.3089
 20
-173.7873
 11
114.3089
 21
-173.7873
 40
4.6971
 41
0.5
  1
48
  0
TEXT
  8
LAYER_3
 10
113.011
 20
-166.9081
 11
113.011
 21
-166.9081
 40
4.6971
 41
0.5
  1
34
  0
TEXT
  8
LAYER_3
 10
122.4607
 20
-165.3351
 11
122.4607
 21
-165.3351
 40
2.3485
 41
0.5
  1
+0
  0
TEXT
  8
LAYER_3
 10
122.4607
 20
-167.0707
 11
122.4607
 21
-167.0707
 40
2.3485
 41
0.5
  1
-0.1
  0
POLYLINE
  8
LAYER_3
 40
0.1058
 41
0.1058
 66
1
 10
0
 20
0
 30
0
  0
VERTEX
  8
LAYER_3
 10
161.8747
 20
-146.004
  0
VERTEX
  8
LAYER_3
 10
161.8747
 20
-141.0086
  0
SEQEND
  0
POLYLINE
  8
LAYER_3
 40
0.1058
 41
0.1058
 66
1
 10
0
 20
0
 30
0
  0
VERTEX
  8
LAYER_3
 10
158.8897
 20
-141.0086
  0
VERTEX
  8
LAYER_3
 10
158.8897
 20
-138.0086
  0
SEQEND
  0
POLYLINE
  8
LAYER_3
 40
0.1058
 41
0.1058
 66
1
 10
0
 20
0
 30
0
  0
VERTEX
  8
LAYER_3
 10
96.7219
 20
-141.5166
  0
VERTEX
  8
LAYER_3
 10
96.7219
 20
-175.6373
  0
SEQEND
  0
POLYLINE
  8
LAYER_3
 40
0.1058
 41
0.1058
 66
1
 10
0
 20
0
 30
0
  0
VERTEX
  8
LAYER_3
 10
96.7219
 20
-174.6424
  0
VERTEX
  8
LAYER_3
 10
144.7068
 20
-174.6424
  0
SEQEND
  0
POLYLINE
  8
LAYER_3
 40
0.1058
 41
0.1058
 66
1
 10
0
 20
0
 30
0
  0
VERTEX
  8
LAYER_3
 10
144.7068
 20
-175.6373
  0
VERTEX
  8
LAYER_3
 10
144.7068
 20
-141.5166
  0
SEQEND
  0
POLYLINE
  8
LAYER_3
 40
0.1058
 41
0.1058
 66
1
 10
0
 20
0
 30
0
  0
VERTEX
  8
LAYER_3
 10
142.6959
 20
-141.0086
  0
VERTEX
  8
LAYER_3
 10
163.0842
 20
-141.0086
  0
SEQEND
  0
POLYLINE
  8
LAYER_3
 40
0.1058
 41
0.1058
 66
1
 10
0
 20
0
 30
0
  0
VERTEX
  8
LAYER_3
 10
168.7309
 20
-141.0086
  0
VERTEX
  8
LAYER_3
 10
168.7309
 20
-146.004
  0
SEQEND
  0
POLYLINE
  8
LAYER_3
 40
0.1058
 41
0.1058
 66
1
 10
0
 20
0
 30
0
  0
VERTEX
  8
LAYER_3
 10
168.7309
 20
-141.0086
  0
VERTEX
  8
LAYER_3
 10
168.7309
 20
-138.0241
  0
SEQEND
  0
POLYLINE
  8
LAYER_3
 40
0.1058
 41
0.1058
 66
1
 10
0
 20
0
 30
0
  0
VERTEX
  8
LAYER_3
 10
138.2086
 20
-146.0039
  0
VERTEX
  8
LAYER_3
 10
179.5683
 20
-146.0039
  0
SEQEND
  0
POLYLINE
  8
LAYER_3
 40
0.1058
 41
0.1058
 66
1
 10
0
 20
0
 30
0
  0
VERTEX
  8
LAYER_3
 10
178.5734
 20
-146.0039
  0
VERTEX
  8
LAYER_3
 10
178.5734
 20
-138.0241
  0
SEQEND
  0
POLYLINE
  8
LAYER_3
 40
0.1058
 41
0.1058
 66
1
 10
0
 20
0
 30
0
  0
VERTEX
  8
LAYER_3
 10
179.5683
 20
-138.0241
  0
VERTEX
  8
LAYER_3
 10
145.1936
 20
-138.0241
  0
SEQEND
  0
POLYLINE
  8
LAYER_3
 40
0.1058
 41
0.1058
 66
1
 10
0
 20
0
 30
0
  0
VERTEX
  8
LAYER_3
 10
103.707
 20
-146.5119
  0
VERTEX
  8
LAYER_3
 10
103.707
 20
-168.7793
  0
SEQEND
  0
POLYLINE
  8
LAYER_3
 40
0.1058
 41
0.1058
 66
1
 10
0
 20
0
 30
0
  0
VERTEX
  8
LAYER_3
 10
103.707
 20
-167.7633
  0
VERTEX
  8
LAYER_3
 10
137.7006
 20
-167.7633
  0
SEQEND
  0
POLYLINE
  8
LAYER_3
 40
0.1058
 41
0.1058
 66
1
 10
0
 20
0
 30
0
  0
VERTEX
  8
LAYER_3
 10
137.7006
 20
-168.7793
  0
VERTEX
  8
LAYER_3
 10
137.7006
 20
-146.5119
  0
SEQEND
  0
TEXT
  8
LAYER_3
 10
159.4375
 20
-140.8636
 11
159.4375
 21
-140.8636
 40
3.6923
 41
0.5
  1
3
  0
INSERT
  8
LAYER_6
  2
AIGNBL06010002
 10
0
 20
0
 30
0
  0
POLYLINE
  8
LAYER_6
 40
0.3528
 41
0.3528
 66
1
 10
0
 20
0
 30
0
  0
VERTEX
  8
LAYER_6
 10
34.7876
 20
-258.3332
  0
VERTEX
  8
LAYER_6
 10
229.7955
 20
-258.3332
  0
VERTEX
  8
LAYER_6
 10
229.7955
 20
21.6583
  0
VERTEX
  8
LAYER_6
 10
34.7876
 20
21.6583
  0
VERTEX
  8
LAYER_6
 10
34.7876
 20
-258.3332
  0
SEQEND
  0
TEXT
  8
LAYER_6
 10
166.4505
 20
-248.7955
 11
166.4505
 21
-248.7955
 40
3.3853
 41
0.5
  1
●TEL 0120-65-1232●FAX 06-6532-1580
  0
TEXT
  8
LAYER_6
 10
166.4505
 20
-252.3102
 11
166.4505
 21
-252.3102
 40
3.3853
 41
0.5
  1
hits@hiratatile.co.jp
  0
TEXT
  8
LAYER_6
 10
218.9756
 20
18.4461
 11
218.9756
 21
18.4461
 40
2.0732
 41
0.5
  1
211214RT
  0
TEXT
  8
LAYER_6
 10
37.8495
 20
-250.3797
 11
37.8495
 21
-250.3797
 40
3.2995
 41
0.5
  1
仕様
  0
POLYLINE
  8
LAYER_6
 40
0.3528
 41
0.3528
 66
1
 10
0
 20
0
 30
0
  0
VERTEX
  8
LAYER_6
 10
229.7955
 20
-241.6001
  0
VERTEX
  8
LAYER_6
 10
34.7874
 20
-241.6001
  0
SEQEND
  0
POLYLINE
  8
LAYER_6
 40
0.3528
 41
0.3528
 66
1
 10
0
 20
0
 30
0
  0
VERTEX
  8
LAYER_6
 10
229.7955
 20
-223.3039
  0
VERTEX
  8
LAYER_6
 10
34.7874
 20
-223.3039
  0
SEQEND
  0
TEXT
  8
LAYER_6
 10
35.9444
 20
-225.7804
 11
35.9444
 21
-225.7804
 40
2.1997
 41
0.5
  1
品名
  0
TEXT
  8
LAYER_6
 10
48.8795
 20
-228.8727
 11
48.8795
 21
-228.8727
 40
4.6971
 41
0.5
  1
単水栓取付用アダプター（35mm用）
  0
TEXT
  8
LAYER_6
 10
48.4217
 20
-248.6883
 11
48.4217
 21
-248.6883
 40
3.5541
 41
0.5
  1
●TD-ML054／TD-ML054L用
  0
TEXT
  8
LAYER_6
 10
48.4217
 20
-253.4384
 11
48.4217
 21
-253.4384
 40
3.1177
 41
0.5
  1
●クロム／焼付塗装
  0
TEXT
  8
LAYER_6
 10
116.9486
 20
-225.7806
 11
116.9486
 21
-225.7806
 40
2.1997
 41
0.5
  1
品番
  0
TEXT
  8
LAYER_6
 10
122.9706
 20
-228.9267
 11
122.9706
 21
-228.9267
 40
5.3134
 41
0.5
  1
AD-35（クロム）
  0
TEXT
  8
LAYER_6
 10
122.9706
 20
-233.9266
 11
122.9706
 21
-233.9266
 40
5.3134
 41
0.5
  1
AD-35-BL（マットブラック）
  0
TEXT
  8
LAYER_6
 10
122.9706
 20
-238.9268
 11
122.9706
 21
-238.9268
 40
5.3134
 41
0.5
  1
AD-35-WH（ホワイト）
  0
ENDSEC
  0
EOF
