  0
SECTION
  2
HEADER
  9
$ACADVER
  1
AC1015
  9
$ACADMAINTVER
 70
     6
  9
$DWGCODEPAGE
  3
DOS932
  9
$INSBASE
 10
0.0
 20
0.0
 30
0.0
  9
$EXTMIN
 10
0.0
 20
0.0
 30
0.0
  9
$EXTMAX
 10
420.0
 20
297.0
 30
0.0
  9
$LIMMIN
 10
0.0
 20
0.0
  9
$LIMMAX
 10
420.0
 20
297.0
  9
$ORTHOMODE
 70
     0
  9
$REGENMODE
 70
     1
  9
$FILLMODE
 70
     1
  9
$QTEXTMODE
 70
     0
  9
$MIRRTEXT
 70
     1
  9
$LTSCALE
 40
1.0
  9
$ATTMODE
 70
     1
  9
$TEXTSIZE
 40
3.8805555556
  9
$TRACEWID
 40
1.0
  9
$TEXTSTYLE
  7
Standard
  9
$CLAYER
  8
0
  9
$CELTYPE
  6
ByLayer
  9
$CECOLOR
 62
   256
  9
$CELTSCALE
 40
1.0
  9
$DISPSILH
 70
     0
  9
$DIMSCALE
 40
1.0
  9
$DIMASZ
 40
3.0
  9
$DIMEXO
 40
0.0
  9
$DIMDLI
 40
3.75
  9
$DIMRND
 40
0.0
  9
$DIMDLE
 40
0.0
  9
$DIMEXE
 40
1.0
  9
$DIMTP
 40
0.0
  9
$DIMTM
 40
0.0
  9
$DIMTXT
 40
3.5277777778
  9
$DIMCEN
 40
2.5
  9
$DIMTSZ
 40
0.0
  9
$DIMTOL
 70
     0
  9
$DIMLIM
 70
     0
  9
$DIMTIH
 70
     1
  9
$DIMTOH
 70
     1
  9
$DIMSE1
 70
     0
  9
$DIMSE2
 70
     0
  9
$DIMTAD
 70
     1
  9
$DIMZIN
 70
     0
  9
$DIMBLK
  1

  9
$DIMASO
 70
     1
  9
$DIMSHO
 70
     1
  9
$DIMPOST
  1

  9
$DIMAPOST
  1

  9
$DIMALT
 70
     0
  9
$DIMALTD
 70
     3
  9
$DIMALTF
 40
0.0393700787
  9
$DIMLFAC
 40
1.0
  9
$DIMTOFL
 70
     1
  9
$DIMTVP
 40
0.0
  9
$DIMTIX
 70
     0
  9
$DIMSOXD
 70
     0
  9
$DIMSAH
 70
     0
  9
$DIMBLK1
  1

  9
$DIMBLK2
  1

  9
$DIMSTYLE
  2
ISO-25
  9
$DIMCLRD
 70
     0
  9
$DIMCLRE
 70
     0
  9
$DIMCLRT
 70
     0
  9
$DIMTFAC
 40
1.0
  9
$DIMGAP
 40
1.0
  9
$DIMJUST
 70
     0
  9
$DIMSD1
 70
     0
  9
$DIMSD2
 70
     0
  9
$DIMTOLJ
 70
     0
  9
$DIMTZIN
 70
     0
  9
$DIMALTZ
 70
     0
  9
$DIMALTTZ
 70
     0
  9
$DIMUPT
 70
     0
  9
$DIMDEC
 70
     2
  9
$DIMTDEC
 70
     2
  9
$DIMALTU
 70
     2
  9
$DIMALTTD
 70
     3
  9
$DIMTXSTY
  7
Standard
  9
$DIMAUNIT
 70
     0
  9
$DIMADEC
 70
     2
  9
$DIMALTRND
 40
0.0
  9
$DIMAZIN
 70
     0
  9
$DIMDSEP
 70
    44
  9
$DIMATFIT
 70
     3
  9
$DIMFRAC
 70
     0
  9
$DIMLDRBLK
  1

  9
$DIMLUNIT
 70
     2
  9
$DIMLWD
 70
    -2
  9
$DIMLWE
 70
    -2
  9
$DIMTMOVE
 70
     0
  9
$LUNITS
 70
     2
  9
$LUPREC
 70
     2
  9
$SKETCHINC
 40
1.0
  9
$FILLETRAD
 40
10.0
  9
$AUNITS
 70
     0
  9
$AUPREC
 70
     2
  9
$MENU
  1
.
  9
$ELEVATION
 40
0.0
  9
$PELEVATION
 40
0.0
  9
$THICKNESS
 40
0.0
  9
$LIMCHECK
 70
     0
  9
$CHAMFERA
 40
0.0
  9
$CHAMFERB
 40
0.0
  9
$CHAMFERC
 40
0.0
  9
$CHAMFERD
 40
0.0
  9
$SKPOLY
 70
     0
  9
$TDCREATE
 40
2458620.821697488
  9
$TDUCREATE
 40
2458620.446697488
  9
$TDUPDATE
 40
2458620.821698183
  9
$TDUUPDATE
 40
2458620.446698183
  9
$TDINDWG
 40
0.0000000116
  9
$TDUSRTIMER
 40
0.0000000116
  9
$USRTIMER
 70
     1
  9
$ANGBASE
 50
0.0
  9
$ANGDIR
 70
     0
  9
$PDMODE
 70
     0
  9
$PDSIZE
 40
-1.0
  9
$PLINEWID
 40
0.0
  9
$SPLFRAME
 70
     0
  9
$SPLINETYPE
 70
     6
  9
$SPLINESEGS
 70
     8
  9
$HANDSEED
  5
171
  9
$SURFTAB1
 70
     6
  9
$SURFTAB2
 70
     6
  9
$SURFTYPE
 70
     6
  9
$SURFU
 70
     6
  9
$SURFV
 70
     6
  9
$UCSBASE
  2

  9
$UCSNAME
  2

  9
$UCSORG
 10
0.0
 20
0.0
 30
0.0
  9
$UCSXDIR
 10
1.0
 20
0.0
 30
0.0
  9
$UCSYDIR
 10
0.0
 20
1.0
 30
0.0
  9
$UCSORTHOREF
  2

  9
$UCSORTHOVIEW
 70
     0
  9
$UCSORGTOP
 10
0.0
 20
0.0
 30
0.0
  9
$UCSORGBOTTOM
 10
0.0
 20
0.0
 30
0.0
  9
$UCSORGLEFT
 10
0.0
 20
0.0
 30
0.0
  9
$UCSORGRIGHT
 10
0.0
 20
0.0
 30
0.0
  9
$UCSORGFRONT
 10
0.0
 20
0.0
 30
0.0
  9
$UCSORGBACK
 10
0.0
 20
0.0
 30
0.0
  9
$PUCSBASE
  2

  9
$PUCSNAME
  2

  9
$PUCSORG
 10
0.0
 20
0.0
 30
0.0
  9
$PUCSXDIR
 10
1.0
 20
0.0
 30
0.0
  9
$PUCSYDIR
 10
0.0
 20
1.0
 30
0.0
  9
$PUCSORTHOREF
  2

  9
$PUCSORTHOVIEW
 70
     0
  9
$PUCSORGTOP
 10
0.0
 20
0.0
 30
0.0
  9
$PUCSORGBOTTOM
 10
0.0
 20
0.0
 30
0.0
  9
$PUCSORGLEFT
 10
0.0
 20
0.0
 30
0.0
  9
$PUCSORGRIGHT
 10
0.0
 20
0.0
 30
0.0
  9
$PUCSORGFRONT
 10
0.0
 20
0.0
 30
0.0
  9
$PUCSORGBACK
 10
0.0
 20
0.0
 30
0.0
  9
$USERI1
 70
     0
  9
$USERI2
 70
     0
  9
$USERI3
 70
     0
  9
$USERI4
 70
     0
  9
$USERI5
 70
     0
  9
$USERR1
 40
0.0
  9
$USERR2
 40
0.0
  9
$USERR3
 40
0.0
  9
$USERR4
 40
0.0
  9
$USERR5
 40
0.0
  9
$WORLDVIEW
 70
     1
  9
$SHADEDGE
 70
     3
  9
$SHADEDIF
 70
    70
  9
$TILEMODE
 70
     1
  9
$MAXACTVP
 70
    64
  9
$PINSBASE
 10
0.0
 20
0.0
 30
0.0
  9
$PLIMCHECK
 70
     0
  9
$PEXTMIN
 10
1.0000000000E+20
 20
1.0000000000E+20
 30
1.0000000000E+20
  9
$PEXTMAX
 10
-1.0000000000E+20
 20
-1.0000000000E+20
 30
-1.0000000000E+20
  9
$PLIMMIN
 10
0.0
 20
0.0
  9
$PLIMMAX
 10
420.0
 20
297.0
  9
$UNITMODE
 70
     0
  9
$VISRETAIN
 70
     1
  9
$PLINEGEN
 70
     0
  9
$PSLTSCALE
 70
     1
  9
$TREEDEPTH
 70
  3020
  9
$CMLSTYLE
  2
Standard
  9
$CMLJUST
 70
     0
  9
$CMLSCALE
 40
20.0
  9
$PROXYGRAPHICS
 70
     1
  9
$MEASUREMENT
 70
     1
  9
$CELWEIGHT
370
    -1
  9
$ENDCAPS
280
     0
  9
$JOINSTYLE
280
     0
  9
$LWDISPLAY
290
     1
  9
$INSUNITS
 70
     4
  9
$HYPERLINKBASE
  1

  9
$STYLESHEET
  1

  9
$XEDIT
290
     1
  9
$CEPSNTYPE
380
     0
  9
$PSTYLEMODE
290
     1
  9
$FINGERPRINTGUID
  2
{9D2E0C63-1723-40D4-969E-F403D952F7BB}
  9
$VERSIONGUID
  2
{FAEB1C32-E019-11D5-929B-00C0DF256EC4}
  9
$EXTNAMES
290
     1
  9
$PSVPSCALE
 40
0.0
  9
$OLESTARTUP
290
     0
  0
ENDSEC
  0
SECTION
  2
CLASSES
  0
CLASS
  1
ACDBDICTIONARYWDFLT
  2
AcDbDictionaryWithDefault
  3
ObjectDBX Classes
 90
        0
280
     0
281
     0
  0
CLASS
  1
VISUALSTYLE
  2
AcDbVisualStyle
  3
ObjectDBX Classes
 90
     4095
280
     0
281
     0
  0
CLASS
  1
MATERIAL
  2
AcDbMaterial
  3
ObjectDBX Classes
 90
     1153
280
     0
281
     0
  0
CLASS
  1
SCALE
  2
AcDbScale
  3
ObjectDBX Classes
 90
     1153
280
     0
281
     0
  0
CLASS
  1
TABLESTYLE
  2
AcDbTableStyle
  3
ObjectDBX Classes
 90
     4095
280
     0
281
     0
  0
CLASS
  1
MLEADERSTYLE
  2
AcDbMLeaderStyle
  3
ACDB_MLEADERSTYLE_CLASS
 90
     4095
280
     0
281
     0
  0
CLASS
  1
SUN
  2
AcDbSun
  3
SCENEOE
 90
     1153
280
     0
281
     0
  0
CLASS
  1
ACDBPLACEHOLDER
  2
AcDbPlaceHolder
  3
ObjectDBX Classes
 90
        0
280
     0
281
     0
  0
CLASS
  1
LAYOUT
  2
AcDbLayout
  3
ObjectDBX Classes
 90
        0
280
     0
281
     0
  0
ENDSEC
  0
SECTION
  2
TABLES
  0
TABLE
  2
VPORT
  5
8
330
0
100
AcDbSymbolTable
 70
     1
  0
VPORT
  5
29
330
8
100
AcDbSymbolTableRecord
100
AcDbViewportTableRecord
  2
*Active
 70
     0
 10
0.0
 20
0.0
 11
1.0
 21
1.0
 12
210.0
 22
148.5
 13
0.0
 23
0.0
 14
10.0
 24
10.0
 15
10.0
 25
10.0
 16
0.0
 26
0.0
 36
1.0
 17
0.0
 27
0.0
 37
0.0
 40
297.0
 41
1.4141414141
 42
50.0
 43
0.0
 44
0.0
 50
0.0
 51
0.0
 71
     0
 72
  2000
 73
     1
 74
     3
 75
     0
 76
     0
 77
     0
 78
     0
281
     0
 65
     1
110
0.0
120
0.0
130
0.0
111
1.0
121
0.0
131
0.0
112
0.0
122
1.0
132
0.0
 79
     0
146
0.0
  0
ENDTAB
  0
TABLE
  2
LTYPE
  5
5
330
0
100
AcDbSymbolTable
 70
     6
  0
LTYPE
  5
14
330
5
100
AcDbSymbolTableRecord
100
AcDbLinetypeTableRecord
  2
ByBlock
 70
     0
  3

 72
    65
 73
     0
 40
0.0
  0
LTYPE
  5
15
330
5
100
AcDbSymbolTableRecord
100
AcDbLinetypeTableRecord
  2
ByLayer
 70
     0
  3

 72
    65
 73
     0
 40
0.0
  0
LTYPE
  5
16
330
5
100
AcDbSymbolTableRecord
100
AcDbLinetypeTableRecord
  2
Continuous
 70
     0
  3
Solid line
 72
    65
 73
     0
 40
0.0
  0
LTYPE
  5
6E
330
5
100
AcDbSymbolTableRecord
100
AcDbLinetypeTableRecord
  2
HIDDEN
 70
     0
  3
Hidden __ __ __ __ __ __ __ __ __ __ __ __ __ __
 72
    65
 73
     2
 40
1.905
 49
1.27
 74
     0
 49
-0.635
 74
     0
  0
LTYPE
  5
6F
330
5
100
AcDbSymbolTableRecord
100
AcDbLinetypeTableRecord
  2
PHANTOM
 70
     0
  3
Phantom ______  __  __  ______  __  __  ______
 72
    65
 73
     6
 40
12.7
 49
6.35
 74
     0
 49
-1.27
 74
     0
 49
1.27
 74
     0
 49
-1.27
 74
     0
 49
1.27
 74
     0
 49
-1.27
 74
     0
  0
LTYPE
  5
70
330
5
100
AcDbSymbolTableRecord
100
AcDbLinetypeTableRecord
  2
CENTER
 70
     0
  3
Center ____ _ ____ _ ____ _ ____ _ ____ _ ____
 72
    65
 73
     4
 40
10.16
 49
6.35
 74
     0
 49
-1.27
 74
     0
 49
1.27
 74
     0
 49
-1.27
 74
     0
  0
LTYPE
  5
71
330
5
100
AcDbSymbolTableRecord
100
AcDbLinetypeTableRecord
  2
CENTERX2
 70
     0
  3
Center (2x) ________  __  ________  __  _____
 72
    65
 73
     4
 40
20.32
 49
12.7
 74
     0
 49
-2.54
 74
     0
 49
2.54
 74
     0
 49
-2.54
 74
     0
  0
LTYPE
  5
72
330
5
100
AcDbSymbolTableRecord
100
AcDbLinetypeTableRecord
  2
DOT2
 70
     0
  3
Dot (.5x) ........................................
 72
    65
 73
     2
 40
0.635
 49
0.0
 74
     0
 49
-0.635
 74
     0
  0
ENDTAB
  0
TABLE
  2
LAYER
  5
2
330
0
100
AcDbSymbolTable
 70
     6
  0
LAYER
  5
10
330
2
100
AcDbSymbolTableRecord
100
AcDbLayerTableRecord
  2
0
 70
     0
 62
     7
  6
Continuous
370
    -3
390
F
  0
LAYER
  5
73
330
2
100
AcDbSymbolTableRecord
100
AcDbLayerTableRecord
  2
SLD-0
 70
     0
 62
     7
  6
Continuous
370
    -3
390
F
  0
LAYER
  5
74
330
2
100
AcDbSymbolTableRecord
100
AcDbLayerTableRecord
  2
8
 70
     0
 62
     7
  6
Continuous
370
    15
390
F
  0
LAYER
  5
75
330
2
100
AcDbSymbolTableRecord
100
AcDbLayerTableRecord
  2
9
 70
     0
 62
     7
  6
Continuous
370
    -3
390
F
  0
LAYER
  5
76
330
2
100
AcDbSymbolTableRecord
100
AcDbLayerTableRecord
  2
10
 70
     0
 62
     1
  6
Continuous
370
    -3
390
F
  0
LAYER
  5
77
330
2
100
AcDbSymbolTableRecord
100
AcDbLayerTableRecord
  2
11
 70
     0
 62
     7
  6
Continuous
370
    -3
390
F
  0
ENDTAB
  0
TABLE
  2
STYLE
  5
3
330
0
100
AcDbSymbolTable
 70
     2
  0
STYLE
  5
11
330
3
100
AcDbSymbolTableRecord
100
AcDbTextStyleTableRecord
  2
Standard
 70
     0
 40
0.0
 41
1.0
 50
0.0
 71
     0
 42
3.8805555556
  3
txt
  4
bigfont
  0
STYLE
  5
78
330
3
100
AcDbSymbolTableRecord
100
AcDbTextStyleTableRecord
  2
SLDTEXTSTYLE0
 70
     0
 40
0.0
 41
0.7
 50
0.0
 71
     0
 42
3.8805555556
  3
TXT
  4
bigfont
  0
ENDTAB
  0
TABLE
  2
VIEW
  5
6
330
0
100
AcDbSymbolTable
 70
     0
  0
ENDTAB
  0
TABLE
  2
UCS
  5
7
330
0
100
AcDbSymbolTable
 70
     0
  0
ENDTAB
  0
TABLE
  2
APPID
  5
9
330
0
100
AcDbSymbolTable
 70
     1
  0
APPID
  5
12
330
9
100
AcDbSymbolTableRecord
100
AcDbRegAppTableRecord
  2
ACAD
 70
     0
  0
ENDTAB
  0
TABLE
  2
DIMSTYLE
  5
A
330
0
100
AcDbSymbolTable
 70
     1
100
AcDbDimStyleTable
  0
DIMSTYLE
105
27
330
A
100
AcDbSymbolTableRecord
100
AcDbDimStyleTableRecord
  2
ISO-25
 70
     0
 41
2.5
 42
0.625
 43
3.75
 44
1.25
 73
     0
 74
     0
 77
     1
 78
     8
140
2.5
141
2.5
143
0.0393700787
147
0.625
171
     3
172
     1
178
     0
271
     2
272
     2
274
     3
278
    44
283
     0
284
     8
340
11
  0
ENDTAB
  0
TABLE
  2
BLOCK_RECORD
  5
1
330
0
100
AcDbSymbolTable
 70
     1
  0
BLOCK_RECORD
  5
1F
330
1
100
AcDbSymbolTableRecord
100
AcDbBlockTableRecord
  2
*Model_Space
340
22
  0
BLOCK_RECORD
  5
1B
330
1
100
AcDbSymbolTableRecord
100
AcDbBlockTableRecord
  2
*Paper_Space
340
1E
  0
BLOCK_RECORD
  5
23
330
1
100
AcDbSymbolTableRecord
100
AcDbBlockTableRecord
  2
*Paper_Space0
340
26
  0
ENDTAB
  0
ENDSEC
  0
SECTION
  2
BLOCKS
  0
BLOCK
  5
20
330
1F
100
AcDbEntity
  8
0
100
AcDbBlockBegin
  2
*Model_Space
 70
     0
 10
0.0
 20
0.0
 30
0.0
  3
*Model_Space
  1

  0
ENDBLK
  5
21
330
1F
100
AcDbEntity
  8
0
100
AcDbBlockEnd
  0
BLOCK
  5
1C
330
1B
100
AcDbEntity
 67
     1
  8
0
100
AcDbBlockBegin
  2
*Paper_Space
 70
     0
 10
0.0
 20
0.0
 30
0.0
  3
*Paper_Space
  1

  0
ENDBLK
  5
1D
330
1B
100
AcDbEntity
 67
     1
  8
0
100
AcDbBlockEnd
  0
BLOCK
  5
24
330
23
100
AcDbEntity
  8
0
100
AcDbBlockBegin
  2
*Paper_Space0
 70
     0
 10
0.0
 20
0.0
 30
0.0
  3
*Paper_Space0
  1

  0
ENDBLK
  5
25
330
23
100
AcDbEntity
  8
0
100
AcDbBlockEnd
  0
ENDSEC
  0
SECTION
  2
ENTITIES
  0
MTEXT
  5
79
330
1F
100
AcDbEntity
  8
9
 62
     7
100
AcDbMText
 10
22.9810592731
 20
14.7698939359
 30
0.0
 40
3.7041666667
 41
0.0
 71
     1
 72
     1
  1
2013/07/05
  7
SLDTEXTSTYLE0
 73
     1
 44
1.0
  0
MTEXT
  5
7A
330
1F
100
AcDbEntity
  8
9
 62
     7
100
AcDbMText
 10
22.9810592731
 20
39.3097759652
 30
0.0
 40
3.7041666667
 41
0.0
 71
     1
 72
     1
  1
AD-DH015
  7
SLDTEXTSTYLE0
 73
     1
 44
1.0
  0
MTEXT
  5
7B
330
1F
100
AcDbEntity
  8
9
 62
     7
100
AcDbMText
 10
22.9810592731
 20
22.271836236
 30
0.0
 40
3.7041666667
 41
0.0
 71
     1
 72
     1
  1
2019/04/02
  7
SLDTEXTSTYLE0
 73
     1
 44
1.0
  0
MTEXT
  5
7C
330
1F
100
AcDbEntity
  8
9
 62
     7
100
AcDbMText
 10
22.9810592731
 20
30.9293045781
 30
0.0
 40
3.7041666667
 41
0.0
 71
     1
 72
     1
  1
1:1
  7
SLDTEXTSTYLE0
 73
     1
 44
1.0
  0
LINE
  5
7D
330
1F
100
AcDbEntity
  8
0
  6
Continuous
 62
     7
370
    30
100
AcDbLine
 10
150.8981584769
 20
264.7857323781
 30
0.0
 11
150.8981584769
 21
265.7866135731
 31
0.0
  0
LINE
  5
7E
330
1F
100
AcDbEntity
  8
0
  6
Continuous
 62
     7
370
    30
100
AcDbLine
 10
144.8981584247
 20
265.7866135731
 30
0.0
 11
144.8981584247
 21
264.7857323781
 31
0.0
  0
LINE
  5
7F
330
1F
100
AcDbEntity
  8
0
  6
Continuous
 62
     7
370
    30
100
AcDbLine
 10
144.8981584247
 20
122.9125515118
 30
0.0
 11
144.8981584247
 21
121.9116703168
 31
0.0
  0
LINE
  5
80
330
1F
100
AcDbEntity
  8
0
  6
Continuous
 62
     7
370
    30
100
AcDbLine
 10
150.8981584769
 20
121.9116703168
 30
0.0
 11
150.8981584769
 21
122.9125515118
 31
0.0
  0
CIRCLE
  5
81
330
1F
100
AcDbEntity
  8
0
  6
Continuous
 62
     7
370
    30
100
AcDbCircle
 10
147.8981584508
 20
193.8491419449
 30
0.0
 40
69.49999999999999
  0
CIRCLE
  5
82
330
1F
100
AcDbEntity
  8
0
  6
Continuous
 62
     7
370
    30
100
AcDbCircle
 10
147.8981584508
 20
193.8491419449
 30
0.0
 40
70.99999999999999
  0
CIRCLE
  5
83
330
1F
100
AcDbEntity
  8
0
  6
Continuous
 62
     7
370
    30
100
AcDbCircle
 10
147.8981584508
 20
193.8491419449
 30
0.0
 40
72.0
  0
CIRCLE
  5
84
330
1F
100
AcDbEntity
  8
0
  6
Continuous
 62
     7
370
    30
100
AcDbCircle
 10
147.8981584508
 20
193.8491419449
 30
0.0
 40
73.5
  0
CIRCLE
  5
85
330
1F
100
AcDbEntity
  8
0
  6
Continuous
 62
     7
370
    30
100
AcDbCircle
 10
147.8981584508
 20
193.8491419449
 30
0.0
 40
85.0
  0
LINE
  5
86
330
1F
100
AcDbEntity
  8
0
  6
Continuous
 62
     7
370
    30
100
AcDbLine
 10
360.9814561798
 20
183.8491421685
 30
0.0
 11
361.9814582064
 21
184.8491423324
 31
0.0
  0
LINE
  5
87
330
1F
100
AcDbEntity
  8
0
  6
Continuous
 62
     7
370
    30
100
AcDbLine
 10
361.9814582064
 20
202.8491415575
 30
0.0
 11
360.9814561798
 21
203.8491417214
 31
0.0
  0
LINE
  5
88
330
1F
100
AcDbEntity
  8
0
  6
Continuous
 62
     7
370
    30
100
AcDbLine
 10
341.9814549281
 20
183.8491421685
 30
0.0
 11
360.9814561798
 21
183.8491421685
 31
0.0
  0
LINE
  5
89
330
1F
100
AcDbEntity
  8
0
  6
Continuous
 62
     7
370
    30
100
AcDbLine
 10
360.9814561798
 20
203.8491417214
 30
0.0
 11
341.9814549281
 21
203.8491417214
 31
0.0
  0
LINE
  5
8A
330
1F
100
AcDbEntity
  8
0
  6
Continuous
 62
     7
370
    30
100
AcDbLine
 10
305.9814564779
 20
108.8491410509
 30
0.0
 11
306.9814565254
 21
108.8491410509
 31
0.0
  0
LINE
  5
8B
330
1F
100
AcDbEntity
  8
0
  6
Continuous
 62
     7
370
    30
100
AcDbLine
 10
306.9814565254
 20
278.849142839
 30
0.0
 11
305.9814564779
 21
278.849142839
 31
0.0
  0
ARC
  5
8C
330
1F
100
AcDbEntity
  8
0
  6
Continuous
 62
     7
370
    30
100
AcDbCircle
 10
307.4814564779
 20
267.3491419449
 30
0.0
 40
0.5
100
AcDbArc
 50
180.0
 51
270.0
  0
ARC
  5
8D
330
1F
100
AcDbEntity
  8
0
  6
Continuous
 62
     7
370
    30
100
AcDbCircle
 10
307.4814564779
 20
120.3491419449
 30
0.0
 40
0.5
100
AcDbArc
 50
90.0
 51
180.0
  0
LINE
  5
8E
330
1F
100
AcDbEntity
  8
0
  6
Continuous
 62
     7
370
    30
100
AcDbLine
 10
316.9770885154
 20
120.8491430178
 30
0.0
 11
337.0134785666
 21
120.8491430178
 31
0.0
  0
LINE
  5
8F
330
1F
100
AcDbEntity
  8
0
  6
Continuous
 62
     7
370
    30
100
AcDbLine
 10
307.4814564909
 20
120.8491430178
 30
0.0
 11
311.0164950497
 21
120.8491430178
 31
0.0
  0
LINE
  5
90
330
1F
100
AcDbEntity
  8
0
  6
Continuous
 62
     7
370
    30
100
AcDbLine
 10
311.019954913
 20
266.8491408721
 30
0.0
 11
307.4814564909
 21
266.8491408721
 31
0.0
  0
LINE
  5
91
330
1F
100
AcDbEntity
  8
0
  6
Continuous
 62
     7
370
    30
100
AcDbLine
 10
337.0134785666
 20
266.8491408721
 30
0.0
 11
316.9432070001
 21
266.8491408721
 31
0.0
  0
SPLINE
  5
92
330
1F
100
AcDbEntity
  8
0
  6
Continuous
 62
     7
370
    30
100
AcDbSpline
210
0.0
220
0.0
230
1.0
 70
     8
 71
     3
 72
     9
 73
     5
 74
     0
 42
0.000000001
 43
0.00000001
 40
0.0
 40
0.0
 40
0.0
 40
0.0
 40
0.0582600824947141
 40
1.0
 40
1.0
 40
1.0
 40
1.0
 10
314.2255937575593
 20
266.7871222391701
 30
0.0
 10
314.2209151864445
 20
266.7870815779469
 30
0.0
 10
314.1406102690024
 20
266.7863836520019
 30
0.0
 10
314.0574881050129
 20
266.786503105532
 30
0.0
 10
313.9792086451545
 20
266.7866155996895
 30
0.0
  0
SPLINE
  5
93
330
1F
100
AcDbEntity
  8
0
  6
Continuous
 62
     7
370
    30
100
AcDbSpline
210
0.0
220
0.0
230
1.0
 70
     8
 71
     3
 72
    12
 73
     8
 74
     0
 42
0.000000001
 43
0.00000001
 40
0.0
 40
0.0
 40
0.0
 40
0.0
 40
0.0015562131466089
 40
0.253710589530149
 40
0.5048822825870455
 40
0.754706529360562
 40
1.0
 40
1.0
 40
1.0
 40
1.0
 10
316.7096918343797
 20
266.8390527859307
 30
0.0
 10
316.709251228351
 20
266.8390354414273
 30
0.0
 10
316.6374188989917
 20
266.8362077541245
 30
0.0
 10
316.3117871669304
 20
266.8242043081618
 30
0.0
 10
315.7397789519178
 20
266.8075450147215
 30
0.0
 10
315.0183793722259
 20
266.7923578263293
 30
0.0
 10
314.4882385393138
 20
266.7888567555656
 30
0.0
 10
314.2255937575593
 20
266.7871222391701
 30
0.0
  0
SPLINE
  5
94
330
1F
100
AcDbEntity
  8
0
  6
Continuous
 62
     7
370
    30
100
AcDbSpline
210
0.0
220
0.0
230
1.0
 70
     8
 71
     3
 72
     9
 73
     5
 74
     0
 42
0.000000001
 43
0.00000001
 40
0.0
 40
0.0
 40
0.0
 40
0.0
 40
0.0868110548491968
 40
1.0
 40
1.0
 40
1.0
 40
1.0
 10
316.9376646994843
 20
266.8481722965813
 30
0.0
 10
316.9377138183487
 20
266.8481738234952
 30
0.0
 10
316.9382796318197
 20
266.8481914124294
 30
0.0
 10
316.9238646501811
 20
266.8476011663066
 30
0.0
 10
316.9107010483041
 20
266.8470621600724
 30
0.0
  0
SPLINE
  5
95
330
1F
100
AcDbEntity
  8
0
  6
Continuous
 62
     7
370
    30
100
AcDbSpline
210
0.0
220
0.0
230
1.0
 70
     8
 71
     3
 72
    15
 73
    11
 74
     0
 42
0.000000001
 43
0.00000001
 40
0.0
 40
0.0
 40
0.0
 40
0.0
 40
0.0902011707848649
 40
0.2642507252175963
 40
0.4397039493195721
 40
0.6163915734544392
 40
0.7940662491453745
 40
0.9716641737634588
 40
0.9939239345110477
 40
0.9999999999999999
 40
0.9999999999999999
 40
0.9999999999999999
 40
0.9999999999999999
 10
313.9792086451545
 20
266.7866155996895
 30
0.0
 10
313.8407728529977
 20
266.7868740247087
 30
0.0
 10
313.4352153845614
 20
266.787631099125
 30
0.0
 10
312.7781428123799
 20
266.7955881332537
 30
0.0
 10
312.0838538828273
 20
266.8110417015858
 30
0.0
 10
311.5283209187188
 20
266.8285185708916
 30
0.0
 10
311.1551500337301
 20
266.8427481935947
 30
0.0
 10
311.0404769368012
 20
266.8475203854557
 30
0.0
 10
311.0249999358676
 20
266.8481883392757
 30
0.0
 10
311.0250313380631
 20
266.8481812642609
 30
0.0
 10
311.0250380716517
 20
266.8481797471619
 30
0.0
  0
SPLINE
  5
96
330
1F
100
AcDbEntity
  8
0
  6
Continuous
 62
     7
370
    30
100
AcDbSpline
210
0.0
220
0.0
230
1.0
 70
     8
 71
     3
 72
    17
 73
    13
 74
     0
 42
0.000000001
 43
0.00000001
 40
0.0
 40
0.0
 40
0.0
 40
0.0
 40
0.0008824843675326
 40
0.1152585370808136
 40
0.2290785673161679
 40
0.3426767944516765
 40
0.455602093660546
 40
0.5690597013335246
 40
0.6834397714990122
 40
0.7979644628230824
 40
0.9128725638521585
 40
1.0
 40
1.0
 40
1.0
 40
1.0
 10
311.8124489567473
 20
120.878498305378
 30
0.0
 10
311.8136363992228
 20
120.8785380241223
 30
0.0
 10
311.9687245657969
 20
120.8837255657141
 30
0.0
 10
312.4342105206944
 20
120.8958347078331
 30
0.0
 10
313.1664920289801
 20
120.9084471870466
 30
0.0
 10
313.9793157195379
 20
120.9132264664147
 30
0.0
 10
314.7855846092855
 20
120.9085562178539
 30
0.0
 10
315.5338911555053
 20
120.8958395747521
 30
0.0
 10
316.1682666767871
 20
120.878678234275
 30
0.0
 10
316.6365486897765
 20
120.8623350782401
 30
0.0
 10
316.8989714009256
 20
120.8517409447055
 30
0.0
 10
316.9268734483034
 20
120.8505556808377
 30
0.0
 10
316.9389061524763
 20
120.8500445380783
 30
0.0
  0
SPLINE
  5
97
330
1F
100
AcDbEntity
  8
0
  6
Continuous
 62
     7
370
    30
100
AcDbSpline
210
0.0
220
0.0
230
1.0
 70
     8
 71
     3
 72
    11
 73
     7
 74
     0
 42
0.000000001
 43
0.00000001
 40
0.0
 40
0.0
 40
0.0
 40
0.0
 40
0.0306183833577916
 40
0.256617147769059
 40
0.6247871420056734
 40
1.0
 40
1.0
 40
1.0
 40
1.0
 10
311.0256490192606
 20
120.8501264944649
 30
0.0
 10
311.0258506494282
 20
120.8501343193221
 30
0.0
 10
311.0275405413434
 20
120.8501999005945
 30
0.0
 10
311.0893138452377
 20
120.852715976308
 30
0.0
 10
311.3120022826294
 20
120.8620214279293
 30
0.0
 10
311.6445831003409
 20
120.8729714325125
 30
0.0
 10
311.8124489567473
 20
120.878498305378
 30
0.0
  0
LINE
  5
98
330
1F
100
AcDbEntity
  8
0
  6
Continuous
 62
     7
370
    30
100
AcDbLine
 10
360.9814561798
 20
193.8491419449
 30
0.0
 11
360.9814561798
 21
203.8491417214
 31
0.0
  0
LINE
  5
99
330
1F
100
AcDbEntity
  8
0
  6
Continuous
 62
     7
370
    30
100
AcDbLine
 10
360.9814561798
 20
183.8491421685
 30
0.0
 11
360.9814561798
 21
193.8491419449
 31
0.0
  0
LINE
  5
9A
330
1F
100
AcDbEntity
  8
0
  6
Continuous
 62
     7
370
    30
100
AcDbLine
 10
361.9814582064
 20
193.8491419449
 30
0.0
 11
361.9814582064
 21
184.8491423324
 31
0.0
  0
LINE
  5
9B
330
1F
100
AcDbEntity
  8
0
  6
Continuous
 62
     7
370
    30
100
AcDbLine
 10
361.9814582064
 20
202.8491415575
 30
0.0
 11
361.9814582064
 21
193.8491419449
 31
0.0
  0
LINE
  5
9C
330
1F
100
AcDbEntity
  8
0
  6
Continuous
 62
     7
370
    30
100
AcDbLine
 10
305.9814564779
 20
193.8491419449
 30
0.0
 11
305.9814564779
 21
278.849142839
 31
0.0
  0
LINE
  5
9D
330
1F
100
AcDbEntity
  8
0
  6
Continuous
 62
     7
370
    30
100
AcDbLine
 10
305.9814564779
 20
108.8491410509
 30
0.0
 11
305.9814564779
 21
193.8491419449
 31
0.0
  0
LINE
  5
9E
330
1F
100
AcDbEntity
  8
0
  6
Continuous
 62
     7
370
    30
100
AcDbLine
 10
306.9814565254
 20
193.8491419449
 30
0.0
 11
306.9814565254
 21
278.849142839
 31
0.0
  0
LINE
  5
9F
330
1F
100
AcDbEntity
  8
0
  6
Continuous
 62
     7
370
    30
100
AcDbLine
 10
306.9814565254
 20
108.8491410509
 30
0.0
 11
306.9814565254
 21
193.8491419449
 31
0.0
  0
SPLINE
  5
A0
330
1F
100
AcDbEntity
  8
0
  6
Continuous
 62
     7
370
    30
100
AcDbSpline
210
0.0
220
0.0
230
1.0
 70
     8
 71
     3
 72
    11
 73
     7
 74
     0
 42
0.000000001
 43
0.00000001
 40
0.0
 40
0.0
 40
0.0
 40
0.0
 40
0.1290259808397007
 40
0.5013369096790301
 40
0.8724436996686462
 40
1.0
 40
1.0
 40
1.0
 40
1.0
 10
311.0199549130394
 20
266.84753154665
 30
0.0
 10
311.0093011335954
 20
266.8479689134193
 30
0.0
 10
310.967905340065
 20
266.8496683239031
 30
0.0
 10
311.2561145651344
 20
266.8381191904973
 30
0.0
 10
311.6744164686428
 20
266.8213845321374
 30
0.0
 10
312.0574843743798
 20
266.8125764294639
 30
0.0
 10
312.1554718247845
 20
266.8103233471489
 30
0.0
  0
SPLINE
  5
A1
330
1F
100
AcDbEntity
  8
0
  6
Continuous
 62
     7
370
    30
100
AcDbSpline
210
0.0
220
0.0
230
1.0
 70
     8
 71
     3
 72
    11
 73
     7
 74
     0
 42
0.000000001
 43
0.00000001
 40
0.0
 40
0.0
 40
0.0
 40
0.0
 40
0.0807963903864506
 40
0.4556207009978993
 40
0.8317775421254957
 40
1.0
 40
1.0
 40
1.0
 40
1.0
 10
314.0837104886069
 20
266.786459137497
 30
0.0
 10
314.1562967236521
 20
266.7864000590308
 30
0.0
 10
314.5656193571986
 20
266.7860669083535
 30
0.0
 10
315.2864030603674
 20
266.7961803369413
 30
0.0
 10
316.0083832516455
 20
266.8136686059037
 30
0.0
 10
316.2728678555815
 20
266.8231055456549
 30
0.0
 10
316.3545980944529
 20
266.8260217204667
 30
0.0
  0
LINE
  5
A2
330
1F
100
AcDbEntity
  8
0
  6
Continuous
 62
     7
370
    30
100
AcDbLine
 10
316.709061329
 20
266.8382108703
 30
0.0
 11
316.848834221
 21
266.8437988058
 31
0.0
  0
SPLINE
  5
A3
330
1F
100
AcDbEntity
  8
0
  6
Continuous
 62
     7
370
    30
100
AcDbSpline
210
0.0
220
0.0
230
1.0
 70
     8
 71
     3
 72
    12
 73
     8
 74
     0
 42
0.000000001
 43
0.00000001
 40
0.0
 40
0.0
 40
0.0
 40
0.0
 40
0.2147526258340561
 40
0.4295009144167242
 40
0.6443289055033603
 40
0.859208820488337
 40
1.0
 40
1.0
 40
1.0
 40
1.0
 10
339.481457312335
 20
120.8919615045166
 30
0.0
 10
339.2005837399124
 20
120.8909951638412
 30
0.0
 10
338.6388422677301
 20
120.889062502007
 30
0.0
 10
337.8884120643177
 20
120.8754377273275
 30
0.0
 10
337.3283886100926
 20
120.8607170405401
 30
0.0
 10
337.0108626953952
 20
120.8501553241455
 30
0.0
 10
337.0127367346445
 20
120.8502093977449
 30
0.0
 10
337.0134785666361
 20
120.8502308025932
 30
0.0
  0
SPLINE
  5
A4
330
1F
100
AcDbEntity
  8
0
  6
Continuous
 62
     7
370
    30
100
AcDbSpline
210
0.0
220
0.0
230
1.0
 70
     8
 71
     3
 72
    13
 73
     9
 74
     0
 42
0.000000001
 43
0.00000001
 40
0.0
 40
0.0
 40
0.0
 40
0.0
 40
0.0739383994222608
 40
0.288456877718972
 40
0.5030219198642976
 40
0.7176964640832975
 40
0.9323726708260939
 40
1.0
 40
1.0
 40
1.0
 40
1.0
 10
337.0134785666361
 20
266.8480530872918
 30
0.0
 10
337.0047196135491
 20
266.8483492430186
 30
0.0
 10
336.9705481914013
 20
266.8495046393614
 30
0.0
 10
337.2026054105186
 20
266.8415828809124
 30
0.0
 10
337.6853964656744
 20
266.8276128555822
 30
0.0
 10
338.3891714855533
 20
266.8131528554277
 30
0.0
 10
339.0252444614923
 20
266.8068298441343
 30
0.0
 10
339.3932900206921
 20
266.8064204564002
 30
0.0
 10
339.481457312335
 20
266.8063223853684
 30
0.0
  0
LINE
  5
A5
330
1F
100
AcDbEntity
  8
0
  6
Continuous
 62
     7
370
    30
100
AcDbLine
 10
339.4814573123
 20
266.8063223854
 30
0.0
 11
340.9814566269
 21
266.8063223854
 31
0.0
  0
SPLINE
  5
A6
330
1F
100
AcDbEntity
  8
0
  6
Continuous
 62
     7
370
    30
100
AcDbSpline
210
0.0
220
0.0
230
1.0
 70
     8
 71
     3
 72
    12
 73
     8
 74
     0
 42
0.000000001
 43
0.00000001
 40
0.0
 40
0.0
 40
0.0
 40
0.0
 40
0.25
 40
0.25
 40
0.5
 40
0.5
 40
1.0
 40
1.0
 40
1.0
 40
1.0
 10
341.98145647787
 20
266.7651895613623
 30
0.0
 10
341.98145647787
 20
266.7715237007522
 30
0.0
 10
341.9555172174042
 20
266.7773706496167
 30
0.0
 10
341.855319510835
 20
266.7877168308514
 30
0.0
 10
341.7811602269647
 20
266.7921458432133
 30
0.0
 10
341.5046731827617
 20
266.8027463369447
 30
0.0
 10
341.2456876287495
 20
266.8063211667298
 30
0.0
 10
340.98145647787
 20
266.8063211667298
 30
0.0
  0
SPLINE
  5
A7
330
1F
100
AcDbEntity
  8
0
  6
Continuous
 62
     7
370
    30
100
AcDbSpline
210
0.0
220
0.0
230
1.0
 70
     8
 71
     3
 72
    12
 73
     8
 74
     0
 42
0.000000001
 43
0.00000001
 40
0.0
 40
0.0
 40
0.0
 40
0.0
 40
0.2499999999999977
 40
0.2499999999999977
 40
0.4999999999999953
 40
0.4999999999999953
 40
1.0
 40
1.0
 40
1.0
 40
1.0
 10
340.98145647787
 20
120.8919627231551
 30
0.0
 10
341.1135701927878
 20
120.8919627231551
 30
0.0
 10
341.2432090617543
 20
120.8928412518384
 30
0.0
 10
341.4853649794007
 20
120.8963848066665
 30
0.0
 10
341.5962686725966
 20
120.8990550441439
 30
0.0
 10
341.8729350914946
 20
120.9096452824144
 30
0.0
 10
341.98145647787
 20
120.9204261924362
 30
0.0
 10
341.98145647787
 20
120.9330943285227
 30
0.0
  0
LINE
  5
A8
330
1F
100
AcDbEntity
  8
0
  6
Continuous
 62
     7
370
    30
100
AcDbLine
 10
340.9814566269
 20
120.8919615045
 30
0.0
 11
339.4814573123
 21
120.8919615045
 31
0.0
  0
LINE
  5
A9
330
1F
100
AcDbEntity
  8
0
  6
Continuous
 62
     7
370
    30
100
AcDbLine
 10
341.9814549281
 20
120.93309616
 30
0.0
 11
341.9814549281
 21
266.7651877299
 31
0.0
  0
LINE
  5
AA
330
1F
100
AcDbEntity
  8
0
  6
Continuous
 62
     8
370
    30
100
AcDbLine
 10
307.4814564909
 20
266.8491408721
 30
0.0
 11
307.4814564909
 21
120.8491430178
 31
0.0
  0
SPLINE
  5
AB
330
1F
100
AcDbEntity
  8
0
  6
Continuous
 62
     8
370
    30
100
AcDbSpline
210
0.0
220
0.0
230
1.0
 70
     8
 71
     3
 72
    13
 73
     9
 74
     0
 42
0.000000001
 43
0.00000001
 40
0.0
 40
0.0
 40
0.0
 40
0.0
 40
0.0004828299401497
 40
0.2137499046381172
 40
0.4276279781049422
 40
0.6426240884899455
 40
0.858575228843527
 40
1.0
 40
1.0
 40
1.0
 40
1.0
 10
313.9814568578496
 20
266.7857438817597
 30
0.0
 10
313.9806969027474
 20
266.7857438774835
 30
0.0
 10
313.6442630631653
 20
266.7857419844188
 30
0.0
 10
312.9663490170059
 20
266.7907680904547
 30
0.0
 10
312.0668795276712
 20
266.8101155837365
 30
0.0
 10
311.3958043179617
 20
266.8321297350124
 30
0.0
 10
311.0164390773855
 20
266.8476377232785
 30
0.0
 10
311.0189580694704
 20
266.8475616508697
 30
0.0
 10
311.0199549130394
 20
266.84753154665
 30
0.0
  0
SPLINE
  5
AC
330
1F
100
AcDbEntity
  8
0
  6
Continuous
 62
     8
370
    30
100
AcDbSpline
210
0.0
220
0.0
230
1.0
 70
     8
 71
     3
 72
    12
 73
     8
 74
     0
 42
0.000000001
 43
0.00000001
 40
0.0
 40
0.0
 40
0.0
 40
0.0
 40
0.1423151167546446
 40
0.3580022500249076
 40
0.5729366305303666
 40
0.7870470141626874
 40
1.0
 40
1.0
 40
1.0
 40
1.0
 10
316.9432070001259
 20
266.8475389972306
 30
0.0
 10
316.9439374038694
 20
266.8475609091328
 30
0.0
 10
316.9457747784895
 20
266.8476160298428
 30
0.0
 10
316.5652993442329
 20
266.832023242159
 30
0.0
 10
315.8937513263105
 20
266.8102185135887
 30
0.0
 10
314.9930708125661
 20
266.7900526781832
 30
0.0
 10
314.3180517126299
 20
266.7871775499092
 30
0.0
 10
313.9814568578496
 20
266.7857438817597
 30
0.0
  0
SPLINE
  5
AD
330
1F
100
AcDbEntity
  8
0
  6
Continuous
 62
     8
370
    30
100
AcDbSpline
210
0.0
220
0.0
230
1.0
 70
     8
 71
     3
 72
    17
 73
    13
 74
     0
 42
0.000000001
 43
0.00000001
 40
0.0
 40
0.0
 40
0.0
 40
0.0
 40
0.0766471201379389
 40
0.1844455725906996
 40
0.2918641288966559
 40
0.3988712100747254
 40
0.4663065379614436
 40
0.5728791571265706
 40
0.6796692887069204
 40
0.7869535402826254
 40
0.8947785184041408
 40
1.0
 40
1.0
 40
1.0
 40
1.0
 10
311.0164950496747
 20
120.8506033316231
 30
0.0
 10
311.0192706256971
 20
120.8507347750783
 30
0.0
 10
311.0259498421865
 20
120.8510510839403
 30
0.0
 10
311.4253556641322
 20
120.8672593826034
 30
0.0
 10
312.1105801801748
 20
120.8894057362559
 30
0.0
 10
312.9106323612908
 20
120.9059772629415
 30
0.0
 10
313.7799759618947
 20
120.9138732791191
 30
0.0
 10
314.6808619751716
 20
120.9114882937356
 30
0.0
 10
315.6280432505343
 20
120.8951624599035
 30
0.0
 10
316.3826423543144
 20
120.8728750700724
 30
0.0
 10
316.8874870302524
 20
120.8532259261714
 30
0.0
 10
316.9474656731384
 20
120.8506125511352
 30
0.0
 10
316.9770885153904
 20
120.8493218317604
 30
0.0
  0
LINE
  5
AE
330
1F
100
AcDbEntity
  8
0
  6
Continuous
 62
     7
370
    30
100
AcDbLine
 10
-85.1466645238
 20
203.8491417214
 30
0.0
 11
-86.1466665504
 21
202.8491415575
 31
0.0
  0
LINE
  5
AF
330
1F
100
AcDbEntity
  8
0
  6
Continuous
 62
     7
370
    30
100
AcDbLine
 10
-86.1466665504
 20
184.8491423324
 30
0.0
 11
-85.1466645238
 21
183.8491421685
 31
0.0
  0
LINE
  5
B0
330
1F
100
AcDbEntity
  8
0
  6
Continuous
 62
     7
370
    30
100
AcDbLine
 10
-66.1466632721
 20
203.8491417214
 30
0.0
 11
-85.1466645238
 21
203.8491417214
 31
0.0
  0
LINE
  5
B1
330
1F
100
AcDbEntity
  8
0
  6
Continuous
 62
     7
370
    30
100
AcDbLine
 10
-85.1466645238
 20
183.8491421685
 30
0.0
 11
-66.1466632721
 21
183.8491421685
 31
0.0
  0
LINE
  5
B2
330
1F
100
AcDbEntity
  8
0
  6
Continuous
 62
     7
370
    30
100
AcDbLine
 10
-30.1466648218
 20
278.849142839
 30
0.0
 11
-31.1466648693
 21
278.849142839
 31
0.0
  0
LINE
  5
B3
330
1F
100
AcDbEntity
  8
0
  6
Continuous
 62
     7
370
    30
100
AcDbLine
 10
-31.1466648693
 20
108.8491410509
 30
0.0
 11
-30.1466648218
 21
108.8491410509
 31
0.0
  0
ARC
  5
B4
330
1F
100
AcDbEntity
  8
0
  6
Continuous
 62
     7
370
    30
100
AcDbCircle
 10
-31.6466648218
 20
120.3491419449
 30
0.0
 40
0.5000000000000071
100
AcDbArc
 50
0.0
 51
90.0
  0
ARC
  5
B5
330
1F
100
AcDbEntity
  8
0
  6
Continuous
 62
     7
370
    30
100
AcDbCircle
 10
-31.6466648218
 20
267.3491419449
 30
0.0
 40
0.5000000000000071
100
AcDbArc
 50
270.0
 51
0.0
  0
LINE
  5
B6
330
1F
100
AcDbEntity
  8
0
  6
Continuous
 62
     7
370
    30
100
AcDbLine
 10
-41.1084153441
 20
266.8491408721
 30
0.0
 11
-61.1786869106
 21
266.8491408721
 31
0.0
  0
LINE
  5
B7
330
1F
100
AcDbEntity
  8
0
  6
Continuous
 62
     7
370
    30
100
AcDbLine
 10
-31.6466648349
 20
266.8491408721
 30
0.0
 11
-35.185163257
 21
266.8491408721
 31
0.0
  0
LINE
  5
B8
330
1F
100
AcDbEntity
  8
0
  6
Continuous
 62
     7
370
    30
100
AcDbLine
 10
-35.1817033936
 20
120.8491430178
 30
0.0
 11
-31.6466648349
 21
120.8491430178
 31
0.0
  0
LINE
  5
B9
330
1F
100
AcDbEntity
  8
0
  6
Continuous
 62
     7
370
    30
100
AcDbLine
 10
-61.1786869106
 20
120.8491430178
 30
0.0
 11
-41.1422968593
 21
120.8491430178
 31
0.0
  0
SPLINE
  5
BA
330
1F
100
AcDbEntity
  8
0
  6
Continuous
 62
     7
370
    30
100
AcDbSpline
210
0.0
220
0.0
230
1.0
 70
     8
 71
     3
 72
    14
 73
    10
 74
     0
 42
0.000000001
 43
0.00000001
 40
0.0
 40
0.0
 40
0.0
 40
0.0
 40
0.0089152526008907
 40
0.2053558775462918
 40
0.401830851059169
 40
0.59928830022753
 40
0.7983359789930149
 40
0.9973753736665887
 40
1.0
 40
1.0
 40
1.0
 40
1.0
 10
-38.36212947340849
 20
120.9111243978119
 30
0.0
 10
-38.3502022524922
 20
120.911223914972
 30
0.0
 10
-38.07546803826384
 20
120.9135162149941
 30
0.0
 10
-37.51300034219233
 20
120.9097180130863
 30
0.0
 10
-36.75062388100699
 20
120.8993328197227
 30
0.0
 10
-36.08360793042263
 20
120.8824238356701
 30
0.0
 10
-35.58381973737233
 20
120.8658495571756
 30
0.0
 10
-35.34388164538237
 20
120.8563089507272
 30
0.0
 10
-35.29091234993203
 20
120.8542216770183
 30
0.0
 10
-35.29022296266797
 20
120.8541945114708
 30
0.0
  0
LINE
  5
BB
330
1F
100
AcDbEntity
  8
0
  6
Continuous
 62
     7
370
    30
100
AcDbLine
 10
-85.1466645238
 20
203.8491417214
 30
0.0
 11
-85.1466645238
 21
183.8491421685
 31
0.0
  0
LINE
  5
BC
330
1F
100
AcDbEntity
  8
0
  6
Continuous
 62
     7
370
    30
100
AcDbLine
 10
-86.1466665504
 20
184.8491423324
 30
0.0
 11
-86.1466665504
 21
202.8491415575
 31
0.0
  0
LINE
  5
BD
330
1F
100
AcDbEntity
  8
0
  6
Continuous
 62
     7
370
    30
100
AcDbLine
 10
-30.1466648218
 20
278.849142839
 30
0.0
 11
-30.1466648218
 21
108.8491410509
 31
0.0
  0
LINE
  5
BE
330
1F
100
AcDbEntity
  8
0
  6
Continuous
 62
     7
370
    30
100
AcDbLine
 10
-31.1466648693
 20
278.849142839
 30
0.0
 11
-31.1466648693
 21
108.8491410509
 31
0.0
  0
LINE
  5
BF
330
1F
100
AcDbEntity
  8
0
  6
Continuous
 62
     7
370
    30
100
AcDbLine
 10
-41.1084153441
 20
266.8475389972
 30
0.0
 11
-41.0727466208
 21
266.8460563317
 31
0.0
  0
SPLINE
  5
C0
330
1F
100
AcDbEntity
  8
0
  6
Continuous
 62
     7
370
    30
100
AcDbSpline
210
0.0
220
0.0
230
1.0
 70
     8
 71
     3
 72
    12
 73
     8
 74
     0
 42
0.000000001
 43
0.00000001
 40
0.0
 40
0.0
 40
0.0
 40
0.0
 40
0.094769796268174
 40
0.3510541765870803
 40
0.6083693515377605
 40
0.8670546597668741
 40
1.0
 40
1.0
 40
1.0
 40
1.0
 10
-38.14666520180347
 20
120.9125400081253
 30
0.0
 10
-38.0224955890727
 20
120.91234215462
 30
0.0
 10
-37.56253616243227
 20
120.9116092491786
 30
0.0
 10
-36.78044756008614
 20
120.9012443243182
 30
0.0
 10
-35.96534239422338
 20
120.8802904679001
 30
0.0
 10
-35.43701456153251
 20
120.861042863878
 30
0.0
 10
-35.32740372403254
 20
120.8564863512381
 30
0.0
 10
-35.29019455732944
 20
120.8549395695305
 30
0.0
  0
LINE
  5
C1
330
1F
100
AcDbEntity
  8
0
  6
Continuous
 62
     7
370
    30
100
AcDbLine
 10
-35.1609018383
 20
120.8497390643
 30
0.0
 11
-35.1817033936
 21
120.8506033316
 31
0.0
  0
SPLINE
  5
C2
330
1F
100
AcDbEntity
  8
0
  6
Continuous
 62
     7
370
    30
100
AcDbSpline
210
0.0
220
0.0
230
1.0
 70
     8
 71
     3
 72
    13
 73
     9
 74
     0
 42
0.000000001
 43
0.00000001
 40
0.0
 40
0.0
 40
0.0
 40
0.0
 40
0.0057281779111334
 40
0.2216107116612278
 40
0.4368724497244016
 40
0.6513392332935729
 40
0.8650003102390924
 40
1.0
 40
1.0
 40
1.0
 40
1.0
 10
-41.14229685934427
 20
120.8493218317604
 30
0.0
 10
-41.14374960751385
 20
120.8492632468617
 30
0.0
 10
-41.19995326611505
 20
120.8469967248898
 30
0.0
 10
-40.99849979008798
 20
120.8554857716863
 30
0.0
 10
-40.52609620757744
 20
120.8735964146096
 30
0.0
 10
-39.74631400684835
 20
120.8962204296041
 30
0.0
 10
-38.90985192406868
 20
120.9104600221588
 30
0.0
 10
-38.35968648431224
 20
120.9119594407946
 30
0.0
 10
-38.14666520180347
 20
120.9125400081253
 30
0.0
  0
SPLINE
  5
C3
330
1F
100
AcDbEntity
  8
0
  6
Continuous
 62
     7
370
    30
100
AcDbSpline
210
0.0
220
0.0
230
1.0
 70
     8
 71
     3
 72
    13
 73
     9
 74
     0
 42
0.000000001
 43
0.00000001
 40
0.0
 40
0.0
 40
0.0
 40
0.0
 40
0.0739383994222608
 40
0.288456877718972
 40
0.5030219198642976
 40
0.7176964640832975
 40
0.9323726708260939
 40
1.0
 40
1.0
 40
1.0
 40
1.0
 10
-61.17868691058996
 20
120.8502308025932
 30
0.0
 10
-61.16992795750286
 20
120.8499346468664
 30
0.0
 10
-61.13575653535509
 20
120.8487792505236
 30
0.0
 10
-61.36781375447242
 20
120.8567010089726
 30
0.0
 10
-61.85060480962824
 20
120.8706710343028
 30
0.0
 10
-62.55437982950715
 20
120.8851310344572
 30
0.0
 10
-63.19045280544611
 20
120.8914540457506
 30
0.0
 10
-63.55849836464594
 20
120.8918634334848
 30
0.0
 10
-63.64666565628889
 20
120.8919615045166
 30
0.0
  0
LINE
  5
C4
330
1F
100
AcDbEntity
  8
0
  6
Continuous
 62
     7
370
    30
100
AcDbLine
 10
-63.6466656563
 20
120.8919615045
 30
0.0
 11
-65.1466649708
 21
120.8919615045
 31
0.0
  0
SPLINE
  5
C5
330
1F
100
AcDbEntity
  8
0
  6
Continuous
 62
     7
370
    30
100
AcDbSpline
210
0.0
220
0.0
230
1.0
 70
     8
 71
     3
 72
    12
 73
     8
 74
     0
 42
0.000000001
 43
0.00000001
 40
0.0
 40
0.0
 40
0.0
 40
0.0
 40
0.25
 40
0.25
 40
0.5
 40
0.5
 40
1.0
 40
1.0
 40
1.0
 40
1.0
 10
-66.14666482182385
 20
120.9330943285227
 30
0.0
 10
-66.14666482182386
 20
120.9267601891328
 30
0.0
 10
-66.12072556135806
 20
120.9209132402683
 30
0.0
 10
-66.02052785478888
 20
120.9105670590336
 30
0.0
 10
-65.9463685709186
 20
120.9061380466716
 30
0.0
 10
-65.66988152671553
 20
120.8955375529403
 30
0.0
 10
-65.41089597270337
 20
120.8919627231551
 30
0.0
 10
-65.14666482182385
 20
120.8919627231551
 30
0.0
  0
LINE
  5
C6
330
1F
100
AcDbEntity
  8
0
  6
Continuous
 62
     7
370
    30
100
AcDbLine
 10
-66.1466632721
 20
266.7651877299
 30
0.0
 11
-66.1466632721
 21
120.93309616
 31
0.0
  0
SPLINE
  5
C7
330
1F
100
AcDbEntity
  8
0
  6
Continuous
 62
     7
370
    30
100
AcDbSpline
210
0.0
220
0.0
230
1.0
 70
     8
 71
     3
 72
    12
 73
     8
 74
     0
 42
0.000000001
 43
0.00000001
 40
0.0
 40
0.0
 40
0.0
 40
0.0
 40
0.2499999999999977
 40
0.2499999999999977
 40
0.4999999999999953
 40
0.4999999999999953
 40
1.0
 40
1.0
 40
1.0
 40
1.0
 10
-65.14666482182385
 20
266.8063211667298
 30
0.0
 10
-65.27877853674171
 20
266.8063211667298
 30
0.0
 10
-65.4084174057081
 20
266.8054426380465
 30
0.0
 10
-65.6505733233545
 20
266.8018990832185
 30
0.0
 10
-65.76147701655042
 20
266.7992288457411
 30
0.0
 10
-66.03814343544845
 20
266.7886386074706
 30
0.0
 10
-66.14666482182385
 20
266.7778576974488
 30
0.0
 10
-66.14666482182385
 20
266.7651895613623
 30
0.0
  0
LINE
  5
C8
330
1F
100
AcDbEntity
  8
0
  6
Continuous
 62
     7
370
    30
100
AcDbLine
 10
-65.1466649708
 20
266.8063223854
 30
0.0
 11
-63.6466656563
 21
266.8063223854
 31
0.0
  0
SPLINE
  5
C9
330
1F
100
AcDbEntity
  8
0
  6
Continuous
 62
     7
370
    30
100
AcDbSpline
210
0.0
220
0.0
230
1.0
 70
     8
 71
     3
 72
    12
 73
     8
 74
     0
 42
0.000000001
 43
0.00000001
 40
0.0
 40
0.0
 40
0.0
 40
0.0
 40
0.2147526258340561
 40
0.4295009144167242
 40
0.6443289055033603
 40
0.859208820488337
 40
1.0
 40
1.0
 40
1.0
 40
1.0
 10
-63.64666565628889
 20
266.8063223853684
 30
0.0
 10
-63.36579208386622
 20
266.8072887260438
 30
0.0
 10
-62.80405061168394
 20
266.809221387878
 30
0.0
 10
-62.05362040827159
 20
266.8228461625575
 30
0.0
 10
-61.49359695404637
 20
266.8375668493449
 30
0.0
 10
-61.17607103934903
 20
266.8481285657395
 30
0.0
 10
-61.17794507859839
 20
266.8480744921401
 30
0.0
 10
-61.17868691058996
 20
266.8480530872918
 30
0.0
  0
LINE
  5
CA
330
1F
100
AcDbEntity
  8
0
  6
Continuous
 62
     8
370
    30
100
AcDbLine
 10
-31.6466648349
 20
193.8491419449
 30
0.0
 11
-31.6466648349
 21
266.8491408721
 31
0.0
  0
LINE
  5
CB
330
1F
100
AcDbEntity
  8
0
  6
Continuous
 62
     8
370
    30
100
AcDbLine
 10
-31.6466648349
 20
120.8491430178
 30
0.0
 11
-31.6466648349
 21
193.8491419449
 31
0.0
  0
SPLINE
  5
CC
330
1F
100
AcDbEntity
  8
0
  6
Continuous
 62
     8
370
    30
100
AcDbSpline
210
0.0
220
0.0
230
1.0
 70
     8
 71
     3
 72
    18
 73
    14
 74
     0
 42
0.000000001
 43
0.00000001
 40
0.0
 40
0.0
 40
0.0
 40
0.0
 40
0.0373792565202089
 40
0.1452389730191083
 40
0.2527498464814622
 40
0.3598522800350868
 40
0.4665744236358221
 40
0.5338110789295792
 40
0.6404766344217785
 40
0.747521394527156
 40
0.8551134186968569
 40
0.9630932066500193
 40
1.0
 40
1.0
 40
1.0
 40
1.0
 10
-35.18516325699332
 20
266.84753154665
 30
0.0
 10
-35.17465184856036
 20
266.8479713420182
 30
0.0
 10
-35.13380924472308
 20
266.8496801889452
 30
0.0
 10
-35.41175952901833
 20
266.8379560560563
 30
0.0
 10
-35.99044132568924
 20
266.8173210238836
 30
0.0
 10
-36.83519838081209
 20
266.7957939624068
 30
0.0
 10
-37.70337271331167
 20
266.7854948334692
 30
0.0
 10
-38.59346849965927
 20
266.7855144292755
 30
0.0
 10
-39.46097611729498
 20
266.7958540702246
 30
0.0
 10
-40.30508651630551
 20
266.8173872875784
 30
0.0
 10
-40.88308451848013
 20
266.8380097857377
 30
0.0
 10
-41.16014451872049
 20
266.8497110736668
 30
0.0
 10
-41.11891714571182
 20
266.8479799614644
 30
0.0
 10
-41.10841534407976
 20
266.8475389972306
 30
0.0
  0
LINE
  5
CD
330
1F
100
AcDbEntity
  8
0
  6
Continuous
 62
     7
370
    30
100
AcDbLine
 10
137.8981586743
 20
9.8815282342
 30
0.0
 11
138.8981588382
 21
8.8815262076
 31
0.0
  0
LINE
  5
CE
330
1F
100
AcDbEntity
  8
0
  6
Continuous
 62
     7
370
    30
100
AcDbLine
 10
156.8981580634
 20
8.8815262076
 30
0.0
 11
157.8981582273
 21
9.8815282342
 31
0.0
  0
LINE
  5
CF
330
1F
100
AcDbEntity
  8
0
  6
Continuous
 62
     7
370
    30
100
AcDbLine
 10
137.8981586743
 20
28.8815294859
 30
0.0
 11
137.8981586743
 21
9.8815282342
 31
0.0
  0
LINE
  5
D0
330
1F
100
AcDbEntity
  8
0
  6
Continuous
 62
     7
370
    30
100
AcDbLine
 10
157.8981582273
 20
9.8815282342
 30
0.0
 11
157.8981582273
 21
28.8815294859
 31
0.0
  0
LINE
  5
D1
330
1F
100
AcDbEntity
  8
0
  6
Continuous
 62
     7
370
    30
100
AcDbLine
 10
62.8981575567
 20
64.8815279361
 30
0.0
 11
62.8981575567
 21
63.8815278886
 31
0.0
  0
LINE
  5
D2
330
1F
100
AcDbEntity
  8
0
  6
Continuous
 62
     7
370
    30
100
AcDbLine
 10
232.8981593449
 20
63.8815278886
 30
0.0
 11
232.8981593449
 21
64.8815279361
 31
0.0
  0
ARC
  5
D3
330
1F
100
AcDbEntity
  8
0
  6
Continuous
 62
     7
370
    30
100
AcDbCircle
 10
221.3981584508
 20
63.3815279361
 30
0.0
 40
0.5
100
AcDbArc
 50
90.0
 51
180.0
  0
ARC
  5
D4
330
1F
100
AcDbEntity
  8
0
  6
Continuous
 62
     7
370
    30
100
AcDbCircle
 10
74.3981584508
 20
63.3815279361
 30
0.0
 40
0.5
100
AcDbArc
 50
0.0
 51
90.0
  0
LINE
  5
D5
330
1F
100
AcDbEntity
  8
0
  6
Continuous
 62
     7
370
    30
100
AcDbLine
 10
74.8981595237
 20
63.3815279231
 30
0.0
 11
74.8981595237
 21
28.8815294859
 31
0.0
  0
LINE
  5
D6
330
1F
100
AcDbEntity
  8
0
  6
Continuous
 62
     7
370
    30
100
AcDbLine
 10
220.8981573779
 20
28.8815294859
 30
0.0
 11
220.8981573779
 21
63.3815279231
 31
0.0
  0
CIRCLE
  5
D7
330
1F
100
AcDbEntity
  8
0
  6
Continuous
 62
     7
370
    30
100
AcDbCircle
 10
147.8981584508
 20
56.8815279361
 30
0.0
 40
2.0
  0
CIRCLE
  5
D8
330
1F
100
AcDbEntity
  8
0
  6
Continuous
 62
     7
370
    30
100
AcDbCircle
 10
147.8981584508
 20
56.8815279361
 30
0.0
 40
1.5
  0
LINE
  5
D9
330
1F
100
AcDbEntity
  8
0
  6
Continuous
 62
     7
370
    30
100
AcDbLine
 10
137.8981586743
 20
9.8815282342
 30
0.0
 11
157.8981582273
 21
9.8815282342
 31
0.0
  0
LINE
  5
DA
330
1F
100
AcDbEntity
  8
0
  6
Continuous
 62
     7
370
    30
100
AcDbLine
 10
156.8981580634
 20
8.8815262076
 30
0.0
 11
138.8981588382
 21
8.8815262076
 31
0.0
  0
LINE
  5
DB
330
1F
100
AcDbEntity
  8
0
  6
Continuous
 62
     7
370
    30
100
AcDbLine
 10
62.8981575567
 20
64.8815279361
 30
0.0
 11
232.8981593449
 21
64.8815279361
 31
0.0
  0
LINE
  5
DC
330
1F
100
AcDbEntity
  8
0
  6
Continuous
 62
     7
370
    30
100
AcDbLine
 10
62.8981575567
 20
63.8815278886
 30
0.0
 11
232.8981593449
 21
63.8815278886
 31
0.0
  0
SPLINE
  5
DD
330
1F
100
AcDbEntity
  8
0
  6
Continuous
 62
     7
370
    30
100
AcDbSpline
210
0.0
220
0.0
230
1.0
 70
    11
 71
     3
 72
    64
 73
    60
 74
     0
 42
0.000000001
 43
0.00000001
 40
0.0
 40
0.0
 40
0.0
 40
0.0
 40
0.03125
 40
0.03125
 40
0.0625000000000001
 40
0.0625000000000001
 40
0.0937500000000001
 40
0.0937500000000001
 40
0.1250000000000002
 40
0.1250000000000002
 40
0.1562500000000002
 40
0.1562500000000002
 40
0.1875000000000003
 40
0.1875000000000003
 40
0.2187500000000003
 40
0.2187500000000003
 40
0.2500000000000004
 40
0.2500000000000004
 40
0.2812500000000004
 40
0.2812500000000004
 40
0.3125000000000005
 40
0.3125000000000005
 40
0.3750000000000006
 40
0.3750000000000006
 40
0.4062500000000007
 40
0.4062500000000007
 40
0.4375000000000008
 40
0.4375000000000008
 40
0.500000000000001
 40
0.500000000000001
 40
0.5312500000000009
 40
0.5312500000000009
 40
0.5625000000000009
 40
0.5625000000000009
 40
0.5937500000000008
 40
0.5937500000000008
 40
0.6250000000000008
 40
0.6250000000000008
 40
0.6562500000000007
 40
0.6562500000000007
 40
0.6875000000000007
 40
0.6875000000000007
 40
0.7187500000000006
 40
0.7187500000000006
 40
0.7500000000000004
 40
0.7500000000000004
 40
0.7812500000000004
 40
0.7812500000000004
 40
0.8125000000000003
 40
0.8125000000000003
 40
0.8437500000000003
 40
0.8437500000000003
 40
0.8750000000000002
 40
0.8750000000000002
 40
0.9062500000000002
 40
0.9062500000000002
 40
0.9375000000000001
 40
0.9375000000000001
 40
1.0
 40
1.0
 40
1.0
 40
1.0
 10
144.8564917841253
 20
56.881527936146
 30
0.0
 10
144.8564917841253
 20
57.08109283274555
 30
0.0
 10
144.8769238161847
 20
57.28088876510978
 30
0.0
 10
144.9560497396496
 20
57.66797890731456
 30
0.0
 10
145.0144018535889
 20
57.85577183078386
 30
0.0
 10
145.1686049829323
 20
58.21988094653735
 30
0.0
 10
145.2649845005775
 20
58.39593968436171
 30
0.0
 10
145.4870562479372
 20
58.72086319619535
 30
0.0
 10
145.613529635523
 20
58.87190782792749
 30
0.0
 10
145.8982452252808
 20
59.1505135426229
 30
0.0
 10
146.052664325849
 20
59.27417858143906
 30
0.0
 10
146.381910672207
 20
59.4894968074203
 30
0.0
 10
146.5590192683567
 20
59.5822422540185
 30
0.0
 10
146.9263866940372
 20
59.73103869070285
 30
0.0
 10
147.1150563970374
 20
59.786920676232
 30
0.0
 10
147.5021809346119
 20
59.86235630502346
 30
0.0
 10
147.7023121667941
 20
59.8816148372867
 30
0.0
 10
148.0967320336845
 20
59.88144043202445
 30
0.0
 10
148.2926227527401
 20
59.86261598790888
 30
0.0
 10
148.6817219001373
 20
59.78686585721441
 30
0.0
 10
148.8733236064269
 20
59.7298129013991
 30
0.0
 10
149.4201967606335
 20
59.50786205147733
 30
0.0
 10
149.7594337185436
 20
59.28624413374651
 30
0.0
 10
150.1813260650331
 20
58.87330375177839
 30
0.0
 10
150.3103160683889
 20
58.7196164117486
 30
0.0
 10
150.5331656013887
 20
58.39295612336254
 30
0.0
 10
150.6274404964755
 20
58.22038830367093
 30
0.0
 10
150.858642532111
 20
57.67486683655736
 30
0.0
 10
150.9401530163059
 20
57.27310936206479
 30
0.0
 10
150.9396596217394
 20
56.68203235891072
 30
0.0
 10
150.920008725193
 20
56.48623235812429
 30
0.0
 10
150.840900016954
 20
56.09713590100384
 30
0.0
 10
150.7816629449657
 20
55.90677314611215
 30
0.0
 10
150.6283520439026
 20
55.54460224425786
 30
0.0
 10
150.5331583947655
 20
55.36995944800697
 30
0.0
 10
150.3090762426923
 20
55.04175254405106
 30
0.0
 10
150.182480033072
 20
54.8910266451558
 30
0.0
 10
149.9011742221774
 20
54.61540082726899
 30
0.0
 10
149.7445632253002
 20
54.48950194881688
 30
0.0
 10
149.4141241868824
 20
54.27334555430622
 30
0.0
 10
149.2398894300935
 20
54.18209308229442
 30
0.0
 10
148.8734039843524
 20
54.03319825303432
 30
0.0
 10
148.6811573852641
 20
53.97613251269228
 30
0.0
 10
148.2947635259067
 20
53.90080446729493
 30
0.0
 10
148.0986236536977
 20
53.88161087741423
 30
0.0
 10
147.7002533211158
 20
53.88144552618145
 30
0.0
 10
147.5032958780521
 20
53.90058506253619
 30
0.0
 10
147.1170279497974
 20
53.9756490796679
 30
0.0
 10
146.9253563137239
 20
54.03235790387333
 30
0.0
 10
146.558007913882
 20
54.18130029576442
 30
0.0
 10
146.3836834824903
 20
54.2725233651284
 30
0.0
 10
146.0535574045589
 20
54.48817056597202
 30
0.0
 10
145.8967337123529
 20
54.61401583482621
 30
0.0
 10
145.614953881951
 20
54.88975993473119
 30
0.0
 10
145.4883854819051
 20
55.04034583416142
 30
0.0
 10
145.2645974615471
 20
55.36758487250123
 30
0.0
 10
145.1687831896567
 20
55.54297619658224
 30
0.0
 10
144.9384734889802
 20
56.08612649385048
 30
0.0
 10
144.8564917841253
 20
56.48239814294691
 30
0.0
 10
144.8564917841253
 20
56.881527936146
 30
0.0
  0
SPLINE
  5
DE
330
1F
100
AcDbEntity
  8
0
  6
Continuous
 62
     7
370
    30
100
AcDbSpline
210
0.0
220
0.0
230
1.0
 70
     8
 71
     3
 72
    38
 73
    34
 74
     0
 42
0.000000001
 43
0.00000001
 40
0.0
 40
0.0
 40
0.0
 40
0.0
 40
0.0625
 40
0.0625
 40
0.125
 40
0.125
 40
0.1875
 40
0.1875
 40
0.25
 40
0.25
 40
0.3125
 40
0.3125
 40
0.375
 40
0.375
 40
0.4375
 40
0.4375
 40
0.5
 40
0.5
 40
0.5625
 40
0.5625
 40
0.625
 40
0.625
 40
0.6875
 40
0.6875
 40
0.75
 40
0.75
 40
0.8125
 40
0.8125
 40
0.875
 40
0.875
 40
0.9375
 40
0.9375
 40
1.0
 40
1.0
 40
1.0
 40
1.0
 10
150.398158450792
 20
31.38152793614601
 30
0.0
 10
150.398158450792
 20
31.54668752330748
 30
0.0
 10
150.3819527104068
 20
31.70908502050983
 30
0.0
 10
150.318457596723
 20
32.02858250248337
 30
0.0
 10
150.2703973811957
 20
32.18733738418257
 30
0.0
 10
150.1449320669165
 20
32.49006513775669
 30
0.0
 10
150.0681562063642
 20
32.63364393774687
 30
0.0
 10
149.8867696084878
 20
32.90537517394288
 30
0.0
 10
149.7811989925553
 20
33.03402538086834
 30
0.0
 10
149.550589244868
 20
33.26462696634264
 30
0.0
 10
149.4247578080961
 20
33.36811002359022
 30
0.0
 10
149.1515314721362
 20
33.55087577760486
 30
0.0
 10
149.0060496247665
 20
33.62854405592918
 30
0.0
 10
148.7052747800541
 20
33.7532504171658
 30
0.0
 10
148.5477688049465
 20
33.80125288172564
 30
0.0
 10
148.2250917856907
 20
33.86551203815172
 30
0.0
 10
148.0628932715097
 20
33.88141655245701
 30
0.0
 10
147.7368218508658
 20
33.88163816504443
 30
0.0
 10
147.5712220527419
 20
33.86544176778598
 30
0.0
 10
147.2505944081481
 20
33.80172960998583
 30
0.0
 10
147.0947561834003
 20
33.75457636603429
 30
0.0
 10
146.7920790403784
 20
33.62950533632251
 30
0.0
 10
146.6456615904397
 20
33.55127055646427
 30
0.0
 10
146.3747112594181
 20
33.37040703722605
 30
0.0
 10
146.2484223001227
 20
33.26715513153212
 30
0.0
 10
146.0149319836017
 20
33.03400406610344
 30
0.0
 10
145.911247575496
 20
32.90753576417752
 30
0.0
 10
145.7300864473086
 20
32.63690776125642
 30
0.0
 10
145.6517847060944
 20
32.49089083739463
 30
0.0
 10
145.5261403107939
 20
32.18800855652881
 30
0.0
 10
145.4788016075348
 20
32.0322024516546
 30
0.0
 10
145.4147179091535
 20
31.71196391526087
 30
0.0
 10
145.398158450792
 20
31.54668746865334
 30
0.0
 10
145.398158450792
 20
31.38152793614601
 30
0.0
  0
LINE
  5
DF
330
1F
100
AcDbEntity
  8
0
  6
Continuous
 62
     7
370
    30
100
AcDbLine
 10
145.3981585067
 20
31.3815271017
 30
0.0
 11
145.3981585067
 21
29.8815277871
 31
0.0
  0
SPLINE
  5
E0
330
1F
100
AcDbEntity
  8
0
  6
Continuous
 62
     7
370
    30
100
AcDbSpline
210
0.0
220
0.0
230
1.0
 70
     8
 71
     3
 72
    12
 73
     8
 74
     0
 42
0.000000001
 43
0.00000001
 40
0.0
 40
0.0
 40
0.0
 40
0.0
 40
0.25
 40
0.25
 40
0.5
 40
0.5
 40
1.0
 40
1.0
 40
1.0
 40
1.0
 10
144.398158450792
 20
28.881527936146
 30
0.0
 10
144.530118567752
 20
28.881527936146
 30
0.0
 10
144.6596199952479
 20
28.9074671966118
 30
0.0
 10
144.901666010962
 20
29.00766490318098
 30
0.0
 10
145.0125545978835
 20
29.08182418705128
 30
0.0
 10
145.2893818387429
 20
29.35831123125433
 30
0.0
 10
145.398158450792
 20
29.61729678526649
 30
0.0
 10
145.398158450792
 20
29.88152793614601
 30
0.0
  0
LINE
  5
E1
330
1F
100
AcDbEntity
  8
0
  6
Continuous
 62
     7
370
    30
100
AcDbLine
 10
74.8981595237
 20
28.8815294859
 30
0.0
 11
144.3981583428
 21
28.8815294859
 31
0.0
  0
LINE
  5
E2
330
1F
100
AcDbEntity
  8
0
  6
Continuous
 62
     7
370
    30
100
AcDbLine
 10
151.3981585588
 20
28.8815294859
 30
0.0
 11
220.8981573779
 21
28.8815294859
 31
0.0
  0
SPLINE
  5
E3
330
1F
100
AcDbEntity
  8
0
  6
Continuous
 62
     7
370
    30
100
AcDbSpline
210
0.0
220
0.0
230
1.0
 70
     8
 71
     3
 72
    12
 73
     8
 74
     0
 42
0.000000001
 43
0.00000001
 40
0.0
 40
0.0
 40
0.0
 40
0.0
 40
0.2499999999999977
 40
0.2499999999999977
 40
0.4999999999999953
 40
0.4999999999999953
 40
1.0
 40
1.0
 40
1.0
 40
1.0
 10
150.398158450792
 20
29.88152793614601
 30
0.0
 10
150.398158450792
 20
29.74941422122816
 30
0.0
 10
150.4241651450253
 20
29.61977535226178
 30
0.0
 10
150.5245145891793
 20
29.37761943461537
 30
0.0
 10
150.598775984955
 20
29.26671574141945
 30
0.0
 10
150.8753857206898
 20
28.99004932252141
 30
0.0
 10
151.1342411896229
 20
28.881527936146
 30
0.0
 10
151.398158450792
 20
28.881527936146
 30
0.0
  0
LINE
  5
E4
330
1F
100
AcDbEntity
  8
0
  6
Continuous
 62
     7
370
    30
100
AcDbLine
 10
150.3981583949
 20
29.8815277871
 30
0.0
 11
150.3981583949
 21
31.3815271017
 31
0.0
  0
SPLINE
  5
E5
330
1F
100
AcDbEntity
  8
0
  6
Continuous
 62
     7
370
    30
100
AcDbSpline
210
0.0
220
0.0
230
1.0
 70
    11
 71
     3
 72
    58
 73
    54
 74
     0
 42
0.000000001
 43
0.00000001
 40
0.0
 40
0.0
 40
0.0
 40
0.0
 40
0.0624999999999999
 40
0.0624999999999999
 40
0.0937499999999998
 40
0.0937499999999998
 40
0.1249999999999998
 40
0.1249999999999998
 40
0.1562499999999997
 40
0.1562499999999997
 40
0.1874999999999996
 40
0.1874999999999996
 40
0.2187499999999995
 40
0.2187499999999995
 40
0.2499999999999994
 40
0.2499999999999994
 40
0.2812499999999993
 40
0.2812499999999993
 40
0.3124999999999992
 40
0.3124999999999992
 40
0.3437499999999991
 40
0.3437499999999991
 40
0.3749999999999991
 40
0.3749999999999991
 40
0.4374999999999989
 40
0.4374999999999989
 40
0.4999999999999987
 40
0.4999999999999987
 40
0.5624999999999986
 40
0.5624999999999986
 40
0.5937499999999987
 40
0.5937499999999987
 40
0.6249999999999987
 40
0.6249999999999987
 40
0.6874999999999988
 40
0.6874999999999988
 40
0.7187499999999989
 40
0.7187499999999989
 40
0.7499999999999989
 40
0.7499999999999989
 40
0.781249999999999
 40
0.781249999999999
 40
0.8124999999999991
 40
0.8124999999999991
 40
0.8749999999999993
 40
0.8749999999999993
 40
0.9062499999999994
 40
0.9062499999999994
 40
0.9374999999999997
 40
0.9374999999999997
 40
0.9687499999999998
 40
0.9687499999999998
 40
1.0
 40
1.0
 40
1.0
 40
1.0
 10
145.898158450792
 20
56.88152793614601
 30
0.0
 10
145.898158450792
 20
56.61729427437934
 30
0.0
 10
145.9512675640109
 20
56.35480325462162
 30
0.0
 10
146.1011237411633
 20
55.99404722864905
 30
0.0
 10
146.1634818567674
 20
55.87747121762546
 30
0.0
 10
146.3096052022814
 20
55.65934490709132
 30
0.0
 10
146.392373935887
 20
55.55879027248746
 30
0.0
 10
146.576979138149
 20
55.37437593451092
 30
0.0
 10
146.6799369945561
 20
55.28999509101218
 30
0.0
 10
146.8971474917745
 20
55.14514739792859
 30
0.0
 10
147.0120035173941
 20
55.08376905197274
 30
0.0
 10
147.2544107512404
 20
54.98342454830554
 30
0.0
 10
147.3811970842971
 20
54.94510918025766
 30
0.0
 10
147.6367291181129
 20
54.89441411036265
 30
0.0
 10
147.7671109512006
 20
54.88147091566151
 30
0.0
 10
148.0309406619284
 20
54.88158533278354
 30
0.0
 10
148.1607633388406
 20
54.89456538251186
 30
0.0
 10
148.416375799437
 20
54.94544108470193
 30
0.0
 10
148.543518582606
 20
54.98399029040222
 30
0.0
 10
148.7853686891486
 20
55.08430874814886
 30
0.0
 10
148.9001740913498
 20
55.14571254979914
 30
0.0
 10
149.117606253925
 20
55.29091879030433
 30
0.0
 10
149.22039705502
 20
55.37531667083184
 30
0.0
 10
149.496845923114
 20
55.65183383803829
 30
0.0
 10
149.6458624547153
 20
55.87487499899805
 30
0.0
 10
149.8453698887244
 20
56.35599293523422
 30
0.0
 10
149.8979555365135
 20
56.61901468402935
 30
0.0
 10
149.8983601630234
 20
57.14094016019033
 30
0.0
 10
149.8455719806101
 20
57.40688954001453
 30
0.0
 10
149.6951087357375
 20
57.76926423774064
 30
0.0
 10
149.6336859442311
 20
57.88405808297345
 30
0.0
 10
149.4882666758097
 20
58.10164195070032
 30
0.0
 10
149.4039063424249
 20
58.20428880711083
 30
0.0
 10
149.127416605036
 20
58.48053279225947
 30
0.0
 10
148.9042883686693
 20
58.62953749993228
 30
0.0
 10
148.5433617782805
 20
58.77907144760544
 30
0.0
 10
148.4167363678602
 20
58.81758196503981
 30
0.0
 10
148.1592586413503
 20
58.86875086006702
 30
0.0
 10
148.0295997104377
 20
58.88147052185575
 30
0.0
 10
147.768470259029
 20
58.88158496628036
 30
0.0
 10
147.6359174872802
 20
58.86855378772943
 30
0.0
 10
147.3798462927781
 20
58.81760504325185
 30
0.0
 10
147.2551599499701
 20
58.77988997064827
 30
0.0
 10
146.8913054650729
 20
58.62942639130399
 30
0.0
 10
146.671094214026
 20
58.48270713153894
 30
0.0
 10
146.3914140030566
 20
58.20330194612124
 30
0.0
 10
146.3087356827992
 20
58.10247485029393
 30
0.0
 10
146.1637619855553
 20
57.88594070187321
 30
0.0
 10
146.1009799662586
 20
57.76881388022647
 30
0.0
 10
146.0006806685444
 20
57.52705478896402
 30
0.0
 10
145.9627697639591
 20
57.40247491243714
 30
0.0
 10
145.9113990042407
 20
57.1459178428497
 30
0.0
 10
145.898158450792
 20
57.01364476702934
 30
0.0
 10
145.898158450792
 20
56.881527936146
 30
0.0
  0
LINE
  5
E6
330
1F
100
AcDbEntity
  8
0
  6
Continuous
 62
     8
370
    30
100
AcDbLine
 10
220.8981573779
 20
63.3815279231
 30
0.0
 11
74.8981595237
 21
63.3815279231
 31
0.0
  0
LINE
  5
E7
330
1F
100
AcDbEntity
  8
0
  6
Continuous
 62
     7
370
    30
100
AcDbLine
 10
157.8981582273
 20
468.3683875712
 30
0.0
 11
156.8981580634
 21
469.3683895978
 31
0.0
  0
LINE
  5
E8
330
1F
100
AcDbEntity
  8
0
  6
Continuous
 62
     7
370
    30
100
AcDbLine
 10
138.8981588382
 20
469.3683895978
 30
0.0
 11
137.8981586743
 21
468.3683875712
 31
0.0
  0
LINE
  5
E9
330
1F
100
AcDbEntity
  8
0
  6
Continuous
 62
     7
370
    30
100
AcDbLine
 10
157.8981582273
 20
449.3683863195
 30
0.0
 11
157.8981582273
 21
468.3683875712
 31
0.0
  0
LINE
  5
EA
330
1F
100
AcDbEntity
  8
0
  6
Continuous
 62
     7
370
    30
100
AcDbLine
 10
137.8981586743
 20
468.3683875712
 30
0.0
 11
137.8981586743
 21
449.3683863195
 31
0.0
  0
LINE
  5
EB
330
1F
100
AcDbEntity
  8
0
  6
Continuous
 62
     7
370
    30
100
AcDbLine
 10
232.8981593449
 20
413.3683878693
 30
0.0
 11
232.8981593449
 21
414.3683879168
 31
0.0
  0
LINE
  5
EC
330
1F
100
AcDbEntity
  8
0
  6
Continuous
 62
     7
370
    30
100
AcDbLine
 10
62.8981575567
 20
414.3683879168
 30
0.0
 11
62.8981575567
 21
413.3683878693
 31
0.0
  0
ARC
  5
ED
330
1F
100
AcDbEntity
  8
0
  6
Continuous
 62
     7
370
    30
100
AcDbCircle
 10
74.3981584508
 20
414.8683878693
 30
0.0
 40
0.5
100
AcDbArc
 50
270.0
 51
0.0
  0
ARC
  5
EE
330
1F
100
AcDbEntity
  8
0
  6
Continuous
 62
     7
370
    30
100
AcDbCircle
 10
221.3981584508
 20
414.8683878693
 30
0.0
 40
0.5
100
AcDbArc
 50
180.0
 51
270.0
  0
LINE
  5
EF
330
1F
100
AcDbEntity
  8
0
  6
Continuous
 62
     7
370
    30
100
AcDbLine
 10
220.8981573779
 20
414.8683878823
 30
0.0
 11
220.8981573779
 21
449.3683863195
 31
0.0
  0
LINE
  5
F0
330
1F
100
AcDbEntity
  8
0
  6
Continuous
 62
     7
370
    30
100
AcDbLine
 10
74.8981595237
 20
449.3683863195
 30
0.0
 11
74.8981595237
 21
414.8683878823
 31
0.0
  0
CIRCLE
  5
F1
330
1F
100
AcDbEntity
  8
0
  6
Continuous
 62
     7
370
    30
100
AcDbCircle
 10
147.8981584508
 20
421.3683878693
 30
0.0
 40
1.500000000000028
  0
CIRCLE
  5
F2
330
1F
100
AcDbEntity
  8
0
  6
Continuous
 62
     7
370
    30
100
AcDbCircle
 10
147.8981584508
 20
421.3683878693
 30
0.0
 40
2.0
  0
LINE
  5
F3
330
1F
100
AcDbEntity
  8
0
  6
Continuous
 62
     7
370
    30
100
AcDbLine
 10
157.8981582273
 20
468.3683875712
 30
0.0
 11
137.8981586743
 21
468.3683875712
 31
0.0
  0
LINE
  5
F4
330
1F
100
AcDbEntity
  8
0
  6
Continuous
 62
     7
370
    30
100
AcDbLine
 10
138.8981588382
 20
469.3683895978
 30
0.0
 11
156.8981580634
 21
469.3683895978
 31
0.0
  0
LINE
  5
F5
330
1F
100
AcDbEntity
  8
0
  6
Continuous
 62
     7
370
    30
100
AcDbLine
 10
232.8981593449
 20
413.3683878693
 30
0.0
 11
62.8981575567
 21
413.3683878693
 31
0.0
  0
LINE
  5
F6
330
1F
100
AcDbEntity
  8
0
  6
Continuous
 62
     7
370
    30
100
AcDbLine
 10
232.8981593449
 20
414.3683879168
 30
0.0
 11
62.8981575567
 21
414.3683879168
 31
0.0
  0
SPLINE
  5
F7
330
1F
100
AcDbEntity
  8
0
  6
Continuous
 62
     7
370
    30
100
AcDbSpline
210
0.0
220
0.0
230
1.0
 70
    11
 71
     3
 72
    70
 73
    66
 74
     0
 42
0.000000001
 43
0.00000001
 40
0.0
 40
0.0
 40
0.0
 40
0.0
 40
0.03125
 40
0.03125
 40
0.0625000000000001
 40
0.0625000000000001
 40
0.0937500000000001
 40
0.0937500000000001
 40
0.1250000000000001
 40
0.1250000000000001
 40
0.1562500000000001
 40
0.1562500000000001
 40
0.1875000000000002
 40
0.1875000000000002
 40
0.2187500000000002
 40
0.2187500000000002
 40
0.2500000000000002
 40
0.2500000000000002
 40
0.2812500000000002
 40
0.2812500000000002
 40
0.3125000000000003
 40
0.3125000000000003
 40
0.3437500000000002
 40
0.3437500000000002
 40
0.3750000000000002
 40
0.3750000000000002
 40
0.4062500000000002
 40
0.4062500000000002
 40
0.4375000000000002
 40
0.4375000000000002
 40
0.4687500000000001
 40
0.4687500000000001
 40
0.5000000000000001
 40
0.5000000000000001
 40
0.5312500000000001
 40
0.5312500000000001
 40
0.5625000000000001
 40
0.5625000000000001
 40
0.5937500000000002
 40
0.5937500000000002
 40
0.6250000000000002
 40
0.6250000000000002
 40
0.6562500000000002
 40
0.6562500000000002
 40
0.6875000000000002
 40
0.6875000000000002
 40
0.7187500000000003
 40
0.7187500000000003
 40
0.7500000000000003
 40
0.7500000000000003
 40
0.7812500000000003
 40
0.7812500000000003
 40
0.8125000000000003
 40
0.8125000000000003
 40
0.8437500000000004
 40
0.8437500000000004
 40
0.8750000000000004
 40
0.8750000000000004
 40
0.9062500000000003
 40
0.9062500000000003
 40
0.9375000000000002
 40
0.9375000000000002
 40
0.9687500000000002
 40
0.9687500000000002
 40
1.0
 40
1.0
 40
1.0
 40
1.0
 10
150.9398251174587
 20
421.3683878692638
 30
0.0
 10
150.9398251174587
 20
421.1687520424187
 30
0.0
 10
150.9198177953259
 20
420.9725369697928
 30
0.0
 10
150.8415480087153
 20
420.5868014484772
 30
0.0
 10
150.7822982378148
 20
420.3951964526219
 30
0.0
 10
150.6280025990682
 20
420.0305741871038
 30
0.0
 10
150.5337083009114
 20
419.8579168787933
 30
0.0
 10
150.3113267617782
 20
419.5316203372589
 30
0.0
 10
150.1821495003151
 20
419.3775076885376
 30
0.0
 10
149.9006421381603
 20
419.1017946198017
 30
0.0
 10
149.7472805112629
 20
418.9783025678633
 30
0.0
 10
149.4148911906242
 20
418.760545747611
 30
0.0
 10
149.2384110146469
 20
418.668311781259
 30
0.0
 10
148.8737951876954
 20
418.5202578315836
 30
0.0
 10
148.6830741428194
 20
418.463367718513
 30
0.0
 10
148.2928944649335
 20
418.3872984264231
 30
0.0
 10
148.0968084007124
 20
418.3684901672331
 30
0.0
 10
147.7026975187923
 20
418.368286395721
 30
0.0
 10
147.5026358403509
 20
418.3874772683575
 30
0.0
 10
147.1147939874222
 20
418.4630398543241
 30
0.0
 10
146.9261264430767
 20
418.518986490199
 30
0.0
 10
146.5593850686632
 20
418.6675214259264
 30
0.0
 10
146.3816197429152
 20
418.7605711152343
 30
0.0
 10
146.0521276543996
 20
418.9761264311982
 30
0.0
 10
145.8983046634429
 20
419.0993447012651
 30
0.0
 10
145.6134795110574
 20
419.3780564251951
 30
0.0
 10
145.4864744664326
 20
419.5297985020713
 30
0.0
 10
145.2645420970342
 20
419.8547292481523
 30
0.0
 10
145.1684376401548
 20
420.0302961693434
 30
0.0
 10
145.0139566736116
 20
420.3953295030062
 30
0.0
 10
144.9557016433969
 20
420.5832679464955
 30
0.0
 10
144.8768229505298
 20
420.9698944689522
 30
0.0
 10
144.8564924636236
 20
421.1698987836129
 30
0.0
 10
144.8564911046617
 20
421.5668566956482
 30
0.0
 10
144.8768191719596
 20
421.7668636728936
 30
0.0
 10
144.9557065312899
 20
422.1535308260827
 30
0.0
 10
145.013965374884
 20
422.3414663154675
 30
0.0
 10
145.168426744086
 20
422.7064543030009
 30
0.0
 10
145.2645500800309
 20
422.8820608889035
 30
0.0
 10
145.4864927607269
 20
423.2070013101371
 30
0.0
 10
145.6134572413577
 20
423.3586971391792
 30
0.0
 10
145.8983210083514
 20
423.637447413785
 30
0.0
 10
146.052152354854
 20
423.7606669688881
 30
0.0
 10
146.3816275981043
 20
423.9762082596451
 30
0.0
 10
146.5593647832355
 20
424.069245995233
 30
0.0
 10
146.9261440260593
 20
424.2177964711711
 30
0.0
 10
147.1148087879397
 20
424.2737378746617
 30
0.0
 10
147.5025942160385
 20
424.3492912536144
 30
0.0
 10
147.7026783006652
 20
424.3684891467161
 30
0.0
 10
148.0968211707834
 20
424.3682857707154
 30
0.0
 10
148.2928963556214
 20
424.3494745478582
 30
0.0
 10
148.6830007374137
 20
424.2734247263056
 30
0.0
 10
148.8738029309082
 20
424.2165157785208
 30
0.0
 10
149.2384304430745
 20
424.0684550524452
 30
0.0
 10
149.4148628584599
 20
423.9762480999775
 30
0.0
 10
149.7472991479184
 20
423.758461413368
 30
0.0
 10
149.9006653637827
 20
423.6349604363989
 30
0.0
 10
150.182158610727
 20
423.3592570616211
 30
0.0
 10
150.3113297355031
 20
423.2051528770016
 30
0.0
 10
150.5337230383435
 20
422.878835396584
 30
0.0
 10
150.6280092529073
 20
422.7061838408628
 30
0.0
 10
150.7822825073383
 20
422.3416184457187
 30
0.0
 10
150.8415496870324
 20
422.1499717641115
 30
0.0
 10
150.9198229595846
 20
421.7642075720332
 30
0.0
 10
150.9398251174587
 20
421.5680236961088
 30
0.0
 10
150.9398251174587
 20
421.3683878692638
 30
0.0
  0
LINE
  5
F8
330
1F
100
AcDbEntity
  8
0
  6
Continuous
 62
     7
370
    30
100
AcDbLine
 10
144.3981583428
 20
449.3683863195
 30
0.0
 11
74.8981595237
 21
449.3683863195
 31
0.0
  0
SPLINE
  5
F9
330
1F
100
AcDbEntity
  8
0
  6
Continuous
 62
     7
370
    30
100
AcDbSpline
210
0.0
220
0.0
230
1.0
 70
     8
 71
     3
 72
    12
 73
     8
 74
     0
 42
0.000000001
 43
0.00000001
 40
0.0
 40
0.0
 40
0.0
 40
0.0
 40
0.2499999999999977
 40
0.2499999999999977
 40
0.4999999999999953
 40
0.4999999999999953
 40
1.0
 40
1.0
 40
1.0
 40
1.0
 10
145.398158450792
 20
448.3683878692638
 30
0.0
 10
145.398158450792
 20
448.5005015841816
 30
0.0
 10
145.3721517565586
 20
448.630140453148
 30
0.0
 10
145.2718023124046
 20
448.8722963707944
 30
0.0
 10
145.197540916629
 20
448.9832000639903
 30
0.0
 10
144.9209311808942
 20
449.2598664828884
 30
0.0
 10
144.6620757119611
 20
449.3683878692638
 30
0.0
 10
144.398158450792
 20
449.3683878692638
 30
0.0
  0
LINE
  5
FA
330
1F
100
AcDbEntity
  8
0
  6
Continuous
 62
     7
370
    30
100
AcDbLine
 10
145.3981585067
 20
448.3683880183
 30
0.0
 11
145.3981585067
 21
446.8683887037
 31
0.0
  0
SPLINE
  5
FB
330
1F
100
AcDbEntity
  8
0
  6
Continuous
 62
     7
370
    30
100
AcDbSpline
210
0.0
220
0.0
230
1.0
 70
     8
 71
     3
 72
    38
 73
    34
 74
     0
 42
0.000000001
 43
0.00000001
 40
0.0
 40
0.0
 40
0.0
 40
0.0
 40
0.0625
 40
0.0625
 40
0.125
 40
0.125
 40
0.1875
 40
0.1875
 40
0.25
 40
0.25
 40
0.3125
 40
0.3125
 40
0.375
 40
0.375
 40
0.4375
 40
0.4375
 40
0.5
 40
0.5
 40
0.5625
 40
0.5625
 40
0.625
 40
0.625
 40
0.6875
 40
0.6875
 40
0.75
 40
0.75
 40
0.8125
 40
0.8125
 40
0.875
 40
0.875
 40
0.9375
 40
0.9375
 40
1.0
 40
1.0
 40
1.0
 40
1.0
 10
145.398158450792
 20
446.8683878692638
 30
0.0
 10
145.398158450792
 20
446.7032282821023
 30
0.0
 10
145.4143641911772
 20
446.5408307848999
 30
0.0
 10
145.477859304861
 20
446.2213333029264
 30
0.0
 10
145.5259195203883
 20
446.0625784212272
 30
0.0
 10
145.6513848346675
 20
445.759850667653
 30
0.0
 10
145.7281606952198
 20
445.6162718676629
 30
0.0
 10
145.9095472930962
 20
445.3445406314669
 30
0.0
 10
146.0151179090287
 20
445.2158904245414
 30
0.0
 10
146.245727656716
 20
444.9852888390672
 30
0.0
 10
146.3715590934878
 20
444.8818057818195
 30
0.0
 10
146.6447854294478
 20
444.6990400278049
 30
0.0
 10
146.7902672768174
 20
444.6213717494806
 30
0.0
 10
147.0910421215299
 20
444.496665388244
 30
0.0
 10
147.2485480966375
 20
444.4486629236841
 30
0.0
 10
147.5712251158933
 20
444.384403767258
 30
0.0
 10
147.7334236300742
 20
444.3684992529527
 30
0.0
 10
148.0594950507182
 20
444.3682776403654
 30
0.0
 10
148.225094848842
 20
444.3844740376238
 30
0.0
 10
148.5457224934358
 20
444.4481861954239
 30
0.0
 10
148.7015607181837
 20
444.4953394393755
 30
0.0
 10
149.0042378612056
 20
444.6204104690872
 30
0.0
 10
149.1506553111443
 20
444.6986452489455
 30
0.0
 10
149.4216056421659
 20
444.8795087681837
 30
0.0
 10
149.5478946014613
 20
444.9827606738776
 30
0.0
 10
149.7813849179822
 20
445.2159117393063
 30
0.0
 10
149.8850693260879
 20
445.3423800412322
 30
0.0
 10
150.0662304542754
 20
445.6130080441533
 30
0.0
 10
150.1445321954895
 20
445.7590249680151
 30
0.0
 10
150.2701765907901
 20
446.061907248881
 30
0.0
 10
150.3175152940491
 20
446.2177133537551
 30
0.0
 10
150.3815989924305
 20
446.5379518901489
 30
0.0
 10
150.398158450792
 20
446.7032283367564
 30
0.0
 10
150.398158450792
 20
446.8683878692638
 30
0.0
  0
LINE
  5
FC
330
1F
100
AcDbEntity
  8
0
  6
Continuous
 62
     7
370
    30
100
AcDbLine
 10
150.3981583949
 20
446.8683887037
 30
0.0
 11
150.3981583949
 21
448.3683880183
 31
0.0
  0
SPLINE
  5
FD
330
1F
100
AcDbEntity
  8
0
  6
Continuous
 62
     7
370
    30
100
AcDbSpline
210
0.0
220
0.0
230
1.0
 70
     8
 71
     3
 72
    12
 73
     8
 74
     0
 42
0.000000001
 43
0.00000001
 40
0.0
 40
0.0
 40
0.0
 40
0.0
 40
0.25
 40
0.25
 40
0.5
 40
0.5
 40
1.0
 40
1.0
 40
1.0
 40
1.0
 10
151.398158450792
 20
449.3683878692638
 30
0.0
 10
151.266198333832
 20
449.3683878692638
 30
0.0
 10
151.1366969063361
 20
449.342448608798
 30
0.0
 10
150.894650890622
 20
449.2422509022288
 30
0.0
 10
150.7837623037004
 20
449.1680916183585
 30
0.0
 10
150.5069350628411
 20
448.8916045741555
 30
0.0
 10
150.398158450792
 20
448.6326190201433
 30
0.0
 10
150.398158450792
 20
448.3683878692638
 30
0.0
  0
LINE
  5
FE
330
1F
100
AcDbEntity
  8
0
  6
Continuous
 62
     7
370
    30
100
AcDbLine
 10
220.8981573779
 20
449.3683863195
 30
0.0
 11
151.3981585588
 21
449.3683863195
 31
0.0
  0
SPLINE
  5
FF
330
1F
100
AcDbEntity
  8
0
  6
Continuous
 62
     7
370
    30
100
AcDbSpline
210
0.0
220
0.0
230
1.0
 70
    11
 71
     3
 72
    62
 73
    58
 74
     0
 42
0.000000001
 43
0.00000001
 40
0.0
 40
0.0
 40
0.0
 40
0.0
 40
0.03125
 40
0.03125
 40
0.0625000000000001
 40
0.0625000000000001
 40
0.0937500000000001
 40
0.0937500000000001
 40
0.1250000000000001
 40
0.1250000000000001
 40
0.1875000000000001
 40
0.1875000000000001
 40
0.25
 40
0.25
 40
0.2812499999999999
 40
0.2812499999999999
 40
0.3124999999999999
 40
0.3124999999999999
 40
0.3437499999999999
 40
0.3437499999999999
 40
0.3749999999999999
 40
0.3749999999999999
 40
0.4062499999999998
 40
0.4062499999999998
 40
0.4374999999999998
 40
0.4374999999999998
 40
0.4687499999999998
 40
0.4687499999999998
 40
0.4999999999999998
 40
0.4999999999999998
 40
0.5312499999999998
 40
0.5312499999999998
 40
0.5624999999999998
 40
0.5624999999999998
 40
0.5937499999999999
 40
0.5937499999999999
 40
0.6249999999999999
 40
0.6249999999999999
 40
0.6562499999999999
 40
0.6562499999999999
 40
0.6874999999999999
 40
0.6874999999999999
 40
0.71875
 40
0.71875
 40
0.75
 40
0.75
 40
0.8124999999999999
 40
0.8124999999999999
 40
0.8749999999999999
 40
0.8749999999999999
 40
0.9062499999999999
 40
0.9062499999999999
 40
0.9374999999999999
 40
0.9374999999999999
 40
0.96875
 40
0.96875
 40
1.0
 40
1.0
 40
1.0
 40
1.0
 10
149.898158450792
 20
421.3683878692638
 30
0.0
 10
149.898158450792
 20
421.5005529349216
 30
0.0
 10
149.8851866177077
 20
421.6305053464021
 30
0.0
 10
149.834363735488
 20
421.886167362343
 30
0.0
 10
149.7958917493048
 20
422.0132059374423
 30
0.0
 10
149.695496689384
 20
422.255381256741
 30
0.0
 10
149.6340659705159
 20
422.3702378887046
 30
0.0
 10
149.4889363337341
 20
422.5876106157829
 30
0.0
 10
149.4044786492349
 20
422.6905125415481
 30
0.0
 10
149.1277502738153
 20
422.9671876397024
 30
0.0
 10
148.9046754122831
 20
423.1161838007694
 30
0.0
 10
148.423363538728
 20
423.3157005374204
 30
0.0
 10
148.1601391145743
 20
423.3682517391343
 30
0.0
 10
147.7687300798783
 20
423.3684555277081
 30
0.0
 10
147.6362030663174
 20
423.3554662009597
 30
0.0
 10
147.3796883674457
 20
423.3044378924878
 30
0.0
 10
147.2550095441694
 20
423.2666836447304
 30
0.0
 10
147.0128465804738
 20
423.1665508928849
 30
0.0
 10
146.8957421046524
 20
423.1039394733155
 30
0.0
 10
146.6790302780419
 20
422.9592066520738
 30
0.0
 10
146.5780204955043
 20
422.8765847452143
 30
0.0
 10
146.3912628900871
 20
422.690011040499
 30
0.0
 10
146.3083684158272
 20
422.588853953657
 30
0.0
 10
146.1634843162765
 20
422.3723178795087
 30
0.0
 10
146.1008556050437
 20
422.2554649529126
 30
0.0
 10
146.0003972696731
 20
422.0131403575165
 30
0.0
 10
145.9625474443024
 20
421.8884704171606
 30
0.0
 10
145.9113306369446
 20
421.6321890504454
 30
0.0
 10
145.8981565518581
 20
421.4997777155683
 30
0.0
 10
145.8981603501435
 20
421.236940218643
 30
0.0
 10
145.9113389996917
 20
421.1045305646022
 30
0.0
 10
145.962555871367
 20
420.8482774357817
 30
0.0
 10
146.0004059348558
 20
420.723606617818
 30
0.0
 10
146.1008821019852
 20
420.4812547338337
 30
0.0
 10
146.1635017466745
 20
420.3644283790694
 30
0.0
 10
146.3083835551569
 20
420.1479025886071
 30
0.0
 10
146.391308643632
 20
420.0467144365729
 30
0.0
 10
146.578043821716
 20
419.8601722447198
 30
0.0
 10
146.679049435465
 20
419.7775538288037
 30
0.0
 10
146.8957752434993
 20
419.6328165969514
 30
0.0
 10
147.0129018129872
 20
419.5701987152995
 30
0.0
 10
147.2550401648696
 20
419.470082725583
 30
0.0
 10
147.3797213626182
 20
419.432327695118
 30
0.0
 10
147.6362756260203
 20
419.3812986920005
 30
0.0
 10
147.7687880680664
 20
419.3683171821497
 30
0.0
 10
148.1601638453809
 20
419.3685301316423
 30
0.0
 10
148.4234050096793
 20
419.421087515927
 30
0.0
 10
148.9046978368926
 20
419.6206061100167
 30
0.0
 10
149.1277653045212
 20
419.7695976768111
 30
0.0
 10
149.404502475619
 20
420.0462897441523
 30
0.0
 10
149.4889610098052
 20
420.149198144571
 30
0.0
 10
149.6340784605568
 20
420.366560495782
 30
0.0
 10
149.6955120623394
 20
420.4814226002232
 30
0.0
 10
149.7959164951545
 20
420.7236384617542
 30
0.0
 10
149.8343733145709
 20
420.8506483174418
 30
0.0
 10
149.8851866609496
 20
421.1062788570627
 30
0.0
 10
149.898158450792
 20
421.2362228036059
 30
0.0
 10
149.898158450792
 20
421.3683878692638
 30
0.0
  0
LINE
  5
100
330
1F
100
AcDbEntity
  8
0
  6
Continuous
 62
     8
370
    30
100
AcDbLine
 10
74.8981595237
 20
414.8683878823
 30
0.0
 11
220.8981573779
 21
414.8683878823
 31
0.0
  0
LINE
  5
101
330
1F
100
AcDbEntity
  8
0
  6
Continuous
 62
     7
370
    30
100
AcDbLine
 10
534.8904962593
 20
123.8491416469
 30
0.0
 11
534.8904962593
 21
124.3491426602
 31
0.0
  0
LINE
  5
102
330
1F
100
AcDbEntity
  8
0
  6
Continuous
 62
     7
370
    30
100
AcDbLine
 10
534.8904962593
 20
125.3491446868
 30
0.0
 11
534.8904962593
 21
184.0511832878
 31
0.0
  0
LINE
  5
103
330
1F
100
AcDbEntity
  8
0
  6
Continuous
 62
     7
370
    30
100
AcDbLine
 10
534.8904962593
 20
203.6471006021
 30
0.0
 11
534.8904962593
 21
262.3491392031
 31
0.0
  0
LINE
  5
104
330
1F
100
AcDbEntity
  8
0
  6
Continuous
 62
     7
370
    30
100
AcDbLine
 10
534.8904962593
 20
263.3491412297
 30
0.0
 11
534.8904962593
 21
263.849142243
 31
0.0
  0
LINE
  5
105
330
1F
100
AcDbEntity
  8
0
  6
Continuous
 62
     7
370
    30
100
AcDbLine
 10
530.8904960694
 20
263.849142243
 30
0.0
 11
530.8904960694
 21
263.3491412297
 31
0.0
  0
LINE
  5
106
330
1F
100
AcDbEntity
  8
0
  6
Continuous
 62
     7
370
    30
100
AcDbLine
 10
530.8904960694
 20
262.3491392031
 30
0.0
 11
530.8904960694
 21
203.6471006021
 31
0.0
  0
LINE
  5
107
330
1F
100
AcDbEntity
  8
0
  6
Continuous
 62
     7
370
    30
100
AcDbLine
 10
530.8904960694
 20
184.0511832878
 30
0.0
 11
530.8904960694
 21
125.3491446868
 31
0.0
  0
LINE
  5
108
330
1F
100
AcDbEntity
  8
0
  6
Continuous
 62
     7
370
    30
100
AcDbLine
 10
530.8904960694
 20
124.3491426602
 30
0.0
 11
530.8904960694
 21
123.8491416469
 31
0.0
  0
LINE
  5
109
330
1F
100
AcDbEntity
  8
0
  6
Continuous
 62
     7
370
    30
100
AcDbLine
 10
529.8904961383
 20
123.8491416469
 30
0.0
 11
529.8904961383
 21
121.9118193284
 31
0.0
  0
LINE
  5
10A
330
1F
100
AcDbEntity
  8
0
  6
Continuous
 62
     7
370
    30
100
AcDbLine
 10
535.8904961904
 20
121.9117299214
 30
0.0
 11
535.8904961904
 21
123.8491416469
 31
0.0
  0
LINE
  5
10B
330
1F
100
AcDbEntity
  8
0
  6
Continuous
 62
     7
370
    30
100
AcDbLine
 10
535.8904961904
 20
263.849142243
 30
0.0
 11
535.8904961904
 21
265.7864645615
 31
0.0
  0
LINE
  5
10C
330
1F
100
AcDbEntity
  8
0
  6
Continuous
 62
     7
370
    30
100
AcDbLine
 10
529.8904961383
 20
265.7865539685
 30
0.0
 11
529.8904961383
 21
263.849142243
 31
0.0
  0
CIRCLE
  5
10D
330
1F
100
AcDbEntity
  8
0
  6
Continuous
 62
     7
370
    30
100
AcDbCircle
 10
532.8904961643
 20
193.8491419449
 30
0.0
 40
10.0
  0
CIRCLE
  5
10E
330
1F
100
AcDbEntity
  8
0
  6
Continuous
 62
     7
370
    30
100
AcDbCircle
 10
532.8904961643
 20
193.8491419449
 30
0.0
 40
9.0
  0
LWPOLYLINE
  5
10F
330
1F
100
AcDbEntity
  8
0
  6
Continuous
 62
     7
370
    30
100
AcDbPolyline
 90
        3
 70
   128
 43
0.0
 10
537.7368809132
 20
124.0171075359
 10
537.4642390234
 20
124.4893551365
 10
537.2565280122
 20
124.8491287723
  0
LWPOLYLINE
  5
110
330
1F
100
AcDbEntity
  8
0
  6
Continuous
 62
     7
370
    30
100
AcDbPolyline
 90
        2
 70
   128
 43
0.0
 10
528.5244643165
 20
124.8491287723
 10
528.5244643165
 20
124.8491287723
  0
LWPOLYLINE
  5
111
330
1F
100
AcDbEntity
  8
0
  6
Continuous
 62
     7
370
    30
100
AcDbPolyline
 90
        3
 70
   128
 43
0.0
 10
528.5244643165
 20
124.8491287723
 10
528.2923037594
 20
124.4470060363
 10
528.0441114155
 20
124.0171075359
  0
LWPOLYLINE
  5
112
330
1F
100
AcDbEntity
  8
0
  6
Continuous
 62
     7
370
    30
100
AcDbPolyline
 90
        2
 70
   128
 43
0.0
 10
537.2565280122
 20
262.8491551176
 10
537.2565280122
 20
262.8491551176
  0
LWPOLYLINE
  5
113
330
1F
100
AcDbEntity
  8
0
  6
Continuous
 62
     7
370
    30
100
AcDbPolyline
 90
        3
 70
   128
 43
0.0
 10
537.2565280122
 20
262.8491551176
 10
537.4886885693
 20
263.2512778535
 10
537.7368809132
 20
263.681176354
  0
LWPOLYLINE
  5
114
330
1F
100
AcDbEntity
  8
0
  6
Continuous
 62
     7
370
    30
100
AcDbPolyline
 90
        3
 70
   128
 43
0.0
 10
528.0441114155
 20
263.681176354
 10
528.3167533053
 20
263.2089287534
 10
528.5244643165
 20
262.8491551176
  0
SPLINE
  5
115
330
1F
100
AcDbEntity
  8
0
  6
Continuous
 62
     7
370
    30
100
AcDbSpline
210
0.0
220
0.0
230
1.0
 70
    24
 71
     3
 72
     9
 73
     5
 74
     0
 42
0.000000001
 43
0.00000001
 40
0.0
 40
0.0
 40
0.0
 40
0.0
 40
0.729323361610717
 40
1.0
 40
1.0
 40
1.0
 40
1.0
 10
536.8708491733053
 20
264.1811624661065
 30
0.0
 10
536.8747079180104
 20
264.1808379173244
 30
0.0
 10
536.8799987737656
 20
264.1803929174807
 30
0.0
 10
536.8635262141402
 20
264.1817783807779
 30
0.0
 10
536.8590674770751
 20
264.1821533933258
 30
0.0
  0
ARC
  5
116
330
1F
100
AcDbEntity
  8
0
  6
Continuous
 62
     7
370
    30
100
AcDbCircle
 10
528.0441115203
 20
263.6811729614
 30
0.0
 40
1.000000000000001
100
AcDbArc
 50
29.9992722298
 51
93.9699957185
  0
LINE
  5
117
330
1F
100
AcDbEntity
  8
0
  6
Continuous
 62
     7
370
    30
100
AcDbLine
 10
527.974877361
 20
264.678771843
 30
0.0
 11
527.9821081495
 21
264.6792710319
 31
0.0
  0
SPLINE
  5
118
330
1F
100
AcDbEntity
  8
0
  6
Continuous
 62
     7
370
    30
100
AcDbSpline
210
0.0
220
0.0
230
1.0
 70
     8
 71
     3
 72
    10
 73
     6
 74
     0
 42
0.000000001
 43
0.00000001
 40
0.0
 40
0.0
 40
0.0
 40
0.0
 40
0.4678283095609928
 40
0.9288338152891424
 40
1.0
 40
1.0
 40
1.0
 40
1.0
 10
528.0623802391567
 20
264.6847919121361
 30
0.0
 10
528.2243203322105
 20
264.6951542392876
 30
0.0
 10
528.5458387854665
 20
264.7157277695051
 30
0.0
 10
529.2762277418916
 20
264.7626855282242
 30
0.0
 10
529.8180406536106
 20
264.7814629733673
 30
0.0
 10
529.8904961382725
 20
264.7839740410424
 30
0.0
  0
SPLINE
  5
119
330
1F
100
AcDbEntity
  8
0
  6
Continuous
 62
     7
370
    30
100
AcDbSpline
210
0.0
220
0.0
230
1.0
 70
     8
 71
     3
 72
    10
 73
     6
 74
     0
 42
0.000000001
 43
0.00000001
 40
0.0
 40
0.0
 40
0.0
 40
0.0
 40
0.2266765099149649
 40
0.6202198410980589
 40
1.0
 40
1.0
 40
1.0
 40
1.0
 10
535.8904961904266
 20
264.7829011574364
 30
0.0
 10
536.1464600279678
 20
264.7722708001696
 30
0.0
 10
536.8468142495244
 20
264.743184599322
 30
0.0
 10
537.5667487673411
 20
264.6947903520316
 30
0.0
 10
537.7240157308615
 20
264.6842774630153
 30
0.0
 10
537.8012497385719
 20
264.6791145697213
 30
0.0
  0
LINE
  5
11A
330
1F
100
AcDbEntity
  8
0
  6
Continuous
 62
     7
370
    30
100
AcDbLine
 10
537.802626699
 20
264.6790177122
 30
0.0
 11
537.8035072645
 21
264.6789506569
 31
0.0
  0
ARC
  5
11B
330
1F
100
AcDbEntity
  8
0
  6
Continuous
 62
     7
370
    30
100
AcDbCircle
 10
537.7368808084
 20
263.6811729614
 30
0.0
 40
1.000000000000057
100
AcDbArc
 50
86.0300042815
 51
150.0007277707
  0
LWPOLYLINE
  5
11C
330
1F
100
AcDbEntity
  8
0
  6
Continuous
 62
     7
370
    30
100
AcDbPolyline
 90
        3
 70
   128
 43
0.0
 10
528.9101431554
 20
264.1811624661
 10
528.9619451796
 20
264.091435124
 10
529.3904960563
 20
263.3491412297
  0
LWPOLYLINE
  5
11D
330
1F
100
AcDbEntity
  8
0
  6
Continuous
 62
     7
370
    30
100
AcDbPolyline
 90
        4
 70
   128
 43
0.0
 10
536.3904962724
 20
263.3491412297
 10
536.6092206387
 20
263.7279958025
 10
536.8279450049
 20
264.1068503752
 10
536.8708491733
 20
264.1811624661
  0
SPLINE
  5
11E
330
1F
100
AcDbEntity
  8
0
  6
Continuous
 62
     7
370
    30
100
AcDbSpline
210
0.0
220
0.0
230
1.0
 70
    24
 71
     3
 72
     9
 73
     5
 74
     0
 42
0.000000001
 43
0.00000001
 40
0.0
 40
0.0
 40
0.0
 40
0.0
 40
0.729323361610717
 40
1.0
 40
1.0
 40
1.0
 40
1.0
 10
528.9101431553938
 20
123.5171214237785
 30
0.0
 10
528.9062844106886
 20
123.5174459725605
 30
0.0
 10
528.9009935549335
 20
123.5178909724043
 30
0.0
 10
528.9174661145589
 20
123.516505509107
 30
0.0
 10
528.921924851624
 20
123.5161304965591
 30
0.0
  0
ARC
  5
11F
330
1F
100
AcDbEntity
  8
0
  6
Continuous
 62
     7
370
    30
100
AcDbCircle
 10
537.7368808084
 20
124.0171109285
 30
0.0
 40
0.9999999999999581
100
AcDbArc
 50
209.9992722298
 51
273.9699957185
  0
LINE
  5
120
330
1F
100
AcDbEntity
  8
0
  6
Continuous
 62
     7
370
    30
100
AcDbLine
 10
537.8061149677
 20
123.0195120469
 30
0.0
 11
537.7988841792
 21
123.019012858
 31
0.0
  0
SPLINE
  5
121
330
1F
100
AcDbEntity
  8
0
  6
Continuous
 62
     7
370
    30
100
AcDbSpline
210
0.0
220
0.0
230
1.0
 70
     8
 71
     3
 72
    10
 73
     6
 74
     0
 42
0.000000001
 43
0.00000001
 40
0.0
 40
0.0
 40
0.0
 40
0.0
 40
0.4678283095609928
 40
0.9288338152891424
 40
1.0
 40
1.0
 40
1.0
 40
1.0
 10
537.7186120895424
 20
123.0134919777489
 30
0.0
 10
537.5566719964886
 20
123.0031296505974
 30
0.0
 10
537.2351535432327
 20
122.9825561203799
 30
0.0
 10
536.5047645868075
 20
122.9355983616608
 30
0.0
 10
535.9629516750886
 20
122.9168209165177
 30
0.0
 10
535.8904961904266
 20
122.9143098488426
 30
0.0
  0
SPLINE
  5
122
330
1F
100
AcDbEntity
  8
0
  6
Continuous
 62
     7
370
    30
100
AcDbSpline
210
0.0
220
0.0
230
1.0
 70
     8
 71
     3
 72
    10
 73
     6
 74
     0
 42
0.000000001
 43
0.00000001
 40
0.0
 40
0.0
 40
0.0
 40
0.0
 40
0.2266765099149649
 40
0.6202198410980589
 40
1.0
 40
1.0
 40
1.0
 40
1.0
 10
529.8904961382725
 20
122.9153827324486
 30
0.0
 10
529.6345323007313
 20
122.9260130897154
 30
0.0
 10
528.9341780791748
 20
122.9550992905629
 30
0.0
 10
528.214243561358
 20
123.0034935378533
 30
0.0
 10
528.0569765978375
 20
123.0140064268696
 30
0.0
 10
527.9797425901272
 20
123.0191693201637
 30
0.0
  0
LINE
  5
123
330
1F
100
AcDbEntity
  8
0
  6
Continuous
 62
     7
370
    30
100
AcDbLine
 10
527.9783656297
 20
123.0192661777
 30
0.0
 11
527.9774850642
 21
123.0193332329
 31
0.0
  0
ARC
  5
124
330
1F
100
AcDbEntity
  8
0
  6
Continuous
 62
     7
370
    30
100
AcDbCircle
 10
528.0441115203
 20
124.0171109285
 30
0.0
 40
0.9999999999999786
100
AcDbArc
 50
266.0300042815
 51
330.0007277707
  0
LWPOLYLINE
  5
125
330
1F
100
AcDbEntity
  8
0
  6
Continuous
 62
     7
370
    30
100
AcDbPolyline
 90
        3
 70
   128
 43
0.0
 10
536.8708491733
 20
123.5171214238
 10
536.8190471491
 20
123.6068487659
 10
536.3904962724
 20
124.3491426602
  0
LWPOLYLINE
  5
126
330
1F
100
AcDbEntity
  8
0
  6
Continuous
 62
     7
370
    30
100
AcDbPolyline
 90
        4
 70
   128
 43
0.0
 10
529.3904960563
 20
124.3491426602
 10
529.17177169
 20
123.9702880874
 10
528.9530473238
 20
123.5914335147
 10
528.9101431554
 20
123.5171214238
  0
LINE
  5
127
330
1F
100
AcDbEntity
  8
0
  6
Continuous
 62
     7
370
    30
100
AcDbLine
 10
534.3904961774
 20
125.3491446868
 30
0.0
 11
536.3904962724
 21
125.3491446868
 31
0.0
  0
ARC
  5
128
330
1F
100
AcDbEntity
  8
0
  6
Continuous
 62
     7
370
    30
100
AcDbCircle
 10
536.3904961643
 20
124.3491419449
 30
0.0
 40
1.000000000000091
100
AcDbArc
 50
29.9992722298
 51
90.0
  0
ARC
  5
129
330
1F
100
AcDbEntity
  8
0
  6
Continuous
 62
     7
370
    30
100
AcDbCircle
 10
536.3904961643
 20
263.3491419449
 30
0.0
 40
1.0
100
AcDbArc
 50
270.0
 51
330.0007277702
  0
LINE
  5
12A
330
1F
100
AcDbEntity
  8
0
  6
Continuous
 62
     7
370
    30
100
AcDbLine
 10
536.3904962724
 20
262.3491392031
 30
0.0
 11
534.3904961774
 21
262.3491392031
 31
0.0
  0
LINE
  5
12B
330
1F
100
AcDbEntity
  8
0
  6
Continuous
 62
     7
370
    30
100
AcDbLine
 10
534.3904961774
 20
263.3491412297
 30
0.0
 11
534.3904961774
 21
262.3491392031
 31
0.0
  0
LINE
  5
12C
330
1F
100
AcDbEntity
  8
0
  6
Continuous
 62
     7
370
    30
100
AcDbLine
 10
536.3904962724
 20
263.3491412297
 30
0.0
 11
534.3904961774
 21
263.3491412297
 31
0.0
  0
LINE
  5
12D
330
1F
100
AcDbEntity
  8
0
  6
Continuous
 62
     7
370
    30
100
AcDbLine
 10
534.3904961774
 20
124.3491426602
 30
0.0
 11
536.3904962724
 21
124.3491426602
 31
0.0
  0
LINE
  5
12E
330
1F
100
AcDbEntity
  8
0
  6
Continuous
 62
     7
370
    30
100
AcDbLine
 10
534.3904961774
 20
125.3491446868
 30
0.0
 11
534.3904961774
 21
124.3491426602
 31
0.0
  0
ARC
  5
12F
330
1F
100
AcDbEntity
  8
0
  6
Continuous
 62
     7
370
    30
100
AcDbCircle
 10
532.8904961643
 20
193.8491419449
 30
0.0
 40
70.99999999999986
100
AcDbArc
 50
273.9699957185
 51
86.0300042815
  0
ARC
  5
130
330
1F
100
AcDbEntity
  8
0
  6
Continuous
 62
     7
370
    30
100
AcDbCircle
 10
532.8904961643
 20
193.8491419449
 30
0.0
 40
69.9999999999999
100
AcDbArc
 50
273.9699957185
 51
86.0300042815
  0
LINE
  5
131
330
1F
100
AcDbEntity
  8
0
  6
Continuous
 62
     7
370
    30
100
AcDbLine
 10
531.3904961513
 20
262.3491392031
 30
0.0
 11
529.3904960563
 21
262.3491392031
 31
0.0
  0
ARC
  5
132
330
1F
100
AcDbEntity
  8
0
  6
Continuous
 62
     7
370
    30
100
AcDbCircle
 10
529.3904961643
 20
263.3491419449
 30
0.0
 40
1.000000000000057
100
AcDbArc
 50
209.9992722298
 51
270.0
  0
ARC
  5
133
330
1F
100
AcDbEntity
  8
0
  6
Continuous
 62
     7
370
    30
100
AcDbCircle
 10
529.3904961643
 20
124.3491419449
 30
0.0
 40
1.000000000000014
100
AcDbArc
 50
90.0
 51
150.0007277702
  0
LINE
  5
134
330
1F
100
AcDbEntity
  8
0
  6
Continuous
 62
     7
370
    30
100
AcDbLine
 10
529.3904960563
 20
125.3491446868
 30
0.0
 11
531.3904961513
 21
125.3491446868
 31
0.0
  0
LINE
  5
135
330
1F
100
AcDbEntity
  8
0
  6
Continuous
 62
     7
370
    30
100
AcDbLine
 10
531.3904961513
 20
125.3491446868
 30
0.0
 11
531.3904961513
 21
124.3491426602
 31
0.0
  0
LINE
  5
136
330
1F
100
AcDbEntity
  8
0
  6
Continuous
 62
     7
370
    30
100
AcDbLine
 10
531.3904961513
 20
263.3491412297
 30
0.0
 11
531.3904961513
 21
262.3491392031
 31
0.0
  0
LINE
  5
137
330
1F
100
AcDbEntity
  8
0
  6
Continuous
 62
     7
370
    30
100
AcDbLine
 10
531.3904961513
 20
263.3491412297
 30
0.0
 11
529.3904960563
 21
263.3491412297
 31
0.0
  0
LINE
  5
138
330
1F
100
AcDbEntity
  8
0
  6
Continuous
 62
     7
370
    30
100
AcDbLine
 10
529.3904960563
 20
124.3491426602
 30
0.0
 11
531.3904961513
 21
124.3491426602
 31
0.0
  0
ARC
  5
139
330
1F
100
AcDbEntity
  8
0
  6
Continuous
 62
     7
370
    30
100
AcDbCircle
 10
532.8904961643
 20
193.8491419449
 30
0.0
 40
70.99999999999984
100
AcDbArc
 50
93.9699957185
 51
266.0300042815
  0
ARC
  5
13A
330
1F
100
AcDbEntity
  8
0
  6
Continuous
 62
     7
370
    30
100
AcDbCircle
 10
532.8904961643
 20
193.8491419449
 30
0.0
 40
69.99999999999984
100
AcDbArc
 50
93.9699957185
 51
266.0300042815
  0
LINE
  5
13B
330
1F
100
AcDbEntity
  8
0
  6
Continuous
 62
     7
370
    30
100
AcDbLine
 10
533.3904961881
 20
124.3491426602
 30
0.0
 11
533.3904961881
 21
125.3491446868
 31
0.0
  0
LINE
  5
13C
330
1F
100
AcDbEntity
  8
0
  6
Continuous
 62
     7
370
    30
100
AcDbLine
 10
533.3904961881
 20
125.3491446868
 30
0.0
 11
534.3904961774
 21
125.3491446868
 31
0.0
  0
LINE
  5
13D
330
1F
100
AcDbEntity
  8
0
  6
Continuous
 62
     7
370
    30
100
AcDbLine
 10
534.3904961774
 20
124.3491426602
 30
0.0
 11
533.3904961881
 21
124.3491426602
 31
0.0
  0
LINE
  5
13E
330
1F
100
AcDbEntity
  8
0
  6
Continuous
 62
     7
370
    30
100
AcDbLine
 10
533.3904961881
 20
262.3491392031
 30
0.0
 11
533.3904961881
 21
263.3491412297
 31
0.0
  0
LINE
  5
13F
330
1F
100
AcDbEntity
  8
0
  6
Continuous
 62
     7
370
    30
100
AcDbLine
 10
534.3904961774
 20
262.3491392031
 30
0.0
 11
533.3904961881
 21
262.3491392031
 31
0.0
  0
LINE
  5
140
330
1F
100
AcDbEntity
  8
0
  6
Continuous
 62
     7
370
    30
100
AcDbLine
 10
533.3904961881
 20
263.3491412297
 30
0.0
 11
534.3904961774
 21
263.3491412297
 31
0.0
  0
LINE
  5
141
330
1F
100
AcDbEntity
  8
0
  6
Continuous
 62
     7
370
    30
100
AcDbLine
 10
532.3904961406
 20
125.3491446868
 30
0.0
 11
532.3904961406
 21
124.3491426602
 31
0.0
  0
LINE
  5
142
330
1F
100
AcDbEntity
  8
0
  6
Continuous
 62
     7
370
    30
100
AcDbLine
 10
531.3904961513
 20
125.3491446868
 30
0.0
 11
532.3904961406
 21
125.3491446868
 31
0.0
  0
LINE
  5
143
330
1F
100
AcDbEntity
  8
0
  6
Continuous
 62
     7
370
    30
100
AcDbLine
 10
532.3904961406
 20
124.3491426602
 30
0.0
 11
531.3904961513
 21
124.3491426602
 31
0.0
  0
LINE
  5
144
330
1F
100
AcDbEntity
  8
0
  6
Continuous
 62
     7
370
    30
100
AcDbLine
 10
532.3904961406
 20
263.3491412297
 30
0.0
 11
532.3904961406
 21
262.3491392031
 31
0.0
  0
LINE
  5
145
330
1F
100
AcDbEntity
  8
0
  6
Continuous
 62
     7
370
    30
100
AcDbLine
 10
532.3904961406
 20
262.3491392031
 30
0.0
 11
531.3904961513
 21
262.3491392031
 31
0.0
  0
LINE
  5
146
330
1F
100
AcDbEntity
  8
0
  6
Continuous
 62
     7
370
    30
100
AcDbLine
 10
531.3904961513
 20
263.3491412297
 30
0.0
 11
532.3904961406
 21
263.3491412297
 31
0.0
  0
LINE
  5
147
330
1F
100
AcDbEntity
  8
0
  6
Continuous
 62
     7
370
    30
100
AcDbLine
 10
532.3904961406
 20
125.3491446868
 30
0.0
 11
533.3904961881
 21
125.3491446868
 31
0.0
  0
LINE
  5
148
330
1F
100
AcDbEntity
  8
0
  6
Continuous
 62
     7
370
    30
100
AcDbLine
 10
532.3904961406
 20
124.3491426602
 30
0.0
 11
533.3904961881
 21
124.3491426602
 31
0.0
  0
LINE
  5
149
330
1F
100
AcDbEntity
  8
0
  6
Continuous
 62
     7
370
    30
100
AcDbLine
 10
533.3904961881
 20
262.3491392031
 30
0.0
 11
532.3904961406
 21
262.3491392031
 31
0.0
  0
LINE
  5
14A
330
1F
100
AcDbEntity
  8
0
  6
Continuous
 62
     7
370
    30
100
AcDbLine
 10
533.3904961881
 20
263.3491412297
 30
0.0
 11
532.3904961406
 21
263.3491412297
 31
0.0
  0
LINE
  5
14B
330
1F
100
AcDbEntity
  8
0
  6
Continuous
 62
     7
370
    30
100
AcDbLine
 10
536.3904962724
 20
266.7651877299
 30
0.0
 11
536.3904962724
 21
265.7640234128
 31
0.0
  0
ARC
  5
14C
330
1F
100
AcDbEntity
  8
0
  6
Continuous
 62
     7
370
    30
100
AcDbCircle
 10
532.8904961643
 20
193.8491419449
 30
0.0
 40
73.00000000000003
100
AcDbArc
 50
272.7481114753
 51
87.2518885247
  0
LINE
  5
14D
330
1F
100
AcDbEntity
  8
0
  6
Continuous
 62
     7
370
    30
100
AcDbLine
 10
536.3904962724
 20
121.9342604771
 30
0.0
 11
536.3904962724
 21
120.93309616
 31
0.0
  0
ARC
  5
14E
330
1F
100
AcDbEntity
  8
0
  6
Continuous
 62
     7
370
    30
100
AcDbCircle
 10
532.8904961643
 20
193.8491419449
 30
0.0
 40
72.0
100
AcDbArc
 50
272.7863095999
 51
87.2136904001
  0
LINE
  5
14F
330
1F
100
AcDbEntity
  8
0
  6
Continuous
 62
     7
370
    30
100
AcDbLine
 10
535.3904961085
 20
120.8919615045
 30
0.0
 11
535.3904961085
 21
121.8925595775
 31
0.0
  0
SPLINE
  5
150
330
1F
100
AcDbEntity
  8
0
  6
Continuous
 62
     7
370
    30
100
AcDbSpline
210
0.0
220
0.0
230
1.0
 70
     8
 71
     3
 72
    12
 73
     8
 74
     0
 42
0.000000001
 43
0.00000001
 40
0.0
 40
0.0
 40
0.0
 40
0.0
 40
0.2499999999999974
 40
0.2499999999999974
 40
0.4999999999999949
 40
0.4999999999999949
 40
1.0
 40
1.0
 40
1.0
 40
1.0
 10
535.3904961643495
 20
121.8925578125644
 30
0.0
 10
535.3904961643495
 20
121.8925578125644
 30
0.0
 10
535.4165036194066
 20
121.8934485832093
 30
0.0
 10
535.5168550725608
 20
121.8970414911264
 30
0.0
 10
535.5911179643756
 20
121.899748922575
 30
0.0
 10
535.867730053214
 20
121.9104865783975
 30
0.0
 10
536.1265842563226
 20
121.9214174686977
 30
0.0
 10
536.3904961643495
 20
121.9342617044804
 30
0.0
  0
SPLINE
  5
151
330
1F
100
AcDbEntity
  8
0
  6
Continuous
 62
     7
370
    30
100
AcDbSpline
210
0.0
220
0.0
230
1.0
 70
     8
 71
     3
 72
    12
 73
     8
 74
     0
 42
0.000000001
 43
0.00000001
 40
0.0
 40
0.0
 40
0.0
 40
0.0
 40
0.25
 40
0.25
 40
0.5
 40
0.5
 40
1.0
 40
1.0
 40
1.0
 40
1.0
 10
536.3904961643495
 20
120.9330943285227
 30
0.0
 10
536.2585360473895
 20
120.9267601891328
 30
0.0
 10
536.1290346198936
 20
120.9209132402683
 30
0.0
 10
535.8869886041796
 20
120.9105670590336
 30
0.0
 10
535.776100017258
 20
120.9061380466716
 30
0.0
 10
535.4992727763986
 20
120.8955375529403
 30
0.0
 10
535.3904961643495
 20
120.8919627231551
 30
0.0
 10
535.3904961643495
 20
120.8919627231551
 30
0.0
  0
LINE
  5
152
330
1F
100
AcDbEntity
  8
0
  6
Continuous
 62
     7
370
    30
100
AcDbLine
 10
535.3904961085
 20
265.8057243124
 30
0.0
 11
535.3904961085
 21
266.8063223854
 31
0.0
  0
SPLINE
  5
153
330
1F
100
AcDbEntity
  8
0
  6
Continuous
 62
     7
370
    30
100
AcDbSpline
210
0.0
220
0.0
230
1.0
 70
     8
 71
     3
 72
    12
 73
     8
 74
     0
 42
0.000000001
 43
0.00000001
 40
0.0
 40
0.0
 40
0.0
 40
0.0
 40
0.2499999999999997
 40
0.2499999999999997
 40
0.4999999999999993
 40
0.4999999999999993
 40
1.0
 40
1.0
 40
1.0
 40
1.0
 10
536.3904961643495
 20
265.7640221854045
 30
0.0
 10
536.2585386825006
 20
265.7704443776536
 30
0.0
 10
536.1290393552317
 20
265.7763726153353
 30
0.0
 10
535.8869947269312
 20
265.7868627197595
 30
0.0
 10
535.7761060852769
 20
265.7913533594675
 30
0.0
 10
535.499275937925
 20
265.8021014351873
 30
0.0
 10
535.3904961643495
 20
265.8057260773205
 30
0.0
 10
535.3904961643495
 20
265.8057260773205
 30
0.0
  0
SPLINE
  5
154
330
1F
100
AcDbEntity
  8
0
  6
Continuous
 62
     7
370
    30
100
AcDbSpline
210
0.0
220
0.0
230
1.0
 70
     8
 71
     3
 72
    12
 73
     8
 74
     0
 42
0.000000001
 43
0.00000001
 40
0.0
 40
0.0
 40
0.0
 40
0.0
 40
0.2499999999999977
 40
0.2499999999999977
 40
0.4999999999999953
 40
0.4999999999999953
 40
1.0
 40
1.0
 40
1.0
 40
1.0
 10
535.3904961643495
 20
266.8063211667298
 30
0.0
 10
535.3904961643495
 20
266.8063211667298
 30
0.0
 10
535.4165028585829
 20
266.8054426380465
 30
0.0
 10
535.5168523027369
 20
266.8018990832185
 30
0.0
 10
535.5911136985126
 20
266.7992288457411
 30
0.0
 10
535.8677234342474
 20
266.7886386074706
 30
0.0
 10
536.1265789031805
 20
266.7778576974488
 30
0.0
 10
536.3904961643495
 20
266.7651895613623
 30
0.0
  0
LINE
  5
155
330
1F
100
AcDbEntity
  8
0
  6
Continuous
 62
     7
370
    30
100
AcDbLine
 10
530.3904962202
 20
121.8925595775
 30
0.0
 11
530.3904962202
 21
120.8919615045
 31
0.0
  0
LINE
  5
156
330
1F
100
AcDbEntity
  8
0
  6
Continuous
 62
     7
370
    30
100
AcDbLine
 10
529.3904960563
 20
120.93309616
 30
0.0
 11
529.3904960563
 21
121.9342604771
 31
0.0
  0
SPLINE
  5
157
330
1F
100
AcDbEntity
  8
0
  6
Continuous
 62
     7
370
    30
100
AcDbSpline
210
0.0
220
0.0
230
1.0
 70
     8
 71
     3
 72
    12
 73
     8
 74
     0
 42
0.000000001
 43
0.00000001
 40
0.0
 40
0.0
 40
0.0
 40
0.0
 40
0.2499999999999997
 40
0.2499999999999997
 40
0.4999999999999993
 40
0.4999999999999993
 40
1.0
 40
1.0
 40
1.0
 40
1.0
 10
529.3904961643495
 20
121.9342617044804
 30
0.0
 10
529.5224536461986
 20
121.9278395122314
 30
0.0
 10
529.6519529734675
 20
121.9219112745497
 30
0.0
 10
529.8939976017678
 20
121.9114211701255
 30
0.0
 10
530.0048862434222
 20
121.9069305304175
 30
0.0
 10
530.2817163907742
 20
121.8961824546977
 30
0.0
 10
530.3904961643495
 20
121.8925578125645
 30
0.0
 10
530.3904961643495
 20
121.8925578125645
 30
0.0
  0
SPLINE
  5
158
330
1F
100
AcDbEntity
  8
0
  6
Continuous
 62
     7
370
    30
100
AcDbSpline
210
0.0
220
0.0
230
1.0
 70
     8
 71
     3
 72
    12
 73
     8
 74
     0
 42
0.000000001
 43
0.00000001
 40
0.0
 40
0.0
 40
0.0
 40
0.0
 40
0.2499999999999977
 40
0.2499999999999977
 40
0.4999999999999953
 40
0.4999999999999953
 40
1.0
 40
1.0
 40
1.0
 40
1.0
 10
530.3904961643495
 20
120.8919627231551
 30
0.0
 10
530.3904961643495
 20
120.8919627231551
 30
0.0
 10
530.3644894701162
 20
120.8928412518384
 30
0.0
 10
530.2641400259622
 20
120.8963848066665
 30
0.0
 10
530.1898786301865
 20
120.8990550441439
 30
0.0
 10
529.9132688944518
 20
120.9096452824144
 30
0.0
 10
529.6544134255187
 20
120.9204261924362
 30
0.0
 10
529.3904961643495
 20
120.9330943285227
 30
0.0
  0
LINE
  5
159
330
1F
100
AcDbEntity
  8
0
  6
Continuous
 62
     7
370
    30
100
AcDbLine
 10
530.3904962202
 20
266.8063223854
 30
0.0
 11
530.3904962202
 21
265.8057243124
 31
0.0
  0
LINE
  5
15A
330
1F
100
AcDbEntity
  8
0
  6
Continuous
 62
     7
370
    30
100
AcDbLine
 10
529.3904960563
 20
265.7640234128
 30
0.0
 11
529.3904960563
 21
266.7651877299
 31
0.0
  0
SPLINE
  5
15B
330
1F
100
AcDbEntity
  8
0
  6
Continuous
 62
     7
370
    30
100
AcDbSpline
210
0.0
220
0.0
230
1.0
 70
     8
 71
     3
 72
    12
 73
     8
 74
     0
 42
0.000000001
 43
0.00000001
 40
0.0
 40
0.0
 40
0.0
 40
0.0
 40
0.2499999999999974
 40
0.2499999999999974
 40
0.4999999999999949
 40
0.4999999999999949
 40
1.0
 40
1.0
 40
1.0
 40
1.0
 10
530.3904961643495
 20
265.8057260773206
 30
0.0
 10
530.3904961643495
 20
265.8057260773206
 30
0.0
 10
530.3644887092925
 20
265.8048353066757
 30
0.0
 10
530.2641372561383
 20
265.8012423987586
 30
0.0
 10
530.1898743643234
 20
265.79853496731
 30
0.0
 10
529.9132622754851
 20
265.7877973114875
 30
0.0
 10
529.6544080723764
 20
265.7768664211873
 30
0.0
 10
529.3904961643495
 20
265.7640221854045
 30
0.0
  0
SPLINE
  5
15C
330
1F
100
AcDbEntity
  8
0
  6
Continuous
 62
     7
370
    30
100
AcDbSpline
210
0.0
220
0.0
230
1.0
 70
     8
 71
     3
 72
    12
 73
     8
 74
     0
 42
0.000000001
 43
0.00000001
 40
0.0
 40
0.0
 40
0.0
 40
0.0
 40
0.25
 40
0.25
 40
0.5
 40
0.5
 40
1.0
 40
1.0
 40
1.0
 40
1.0
 10
529.3904961643495
 20
266.7651895613623
 30
0.0
 10
529.5224562813096
 20
266.7715237007522
 30
0.0
 10
529.6519577088054
 20
266.7773706496167
 30
0.0
 10
529.8940037245195
 20
266.7877168308514
 30
0.0
 10
530.0048923114412
 20
266.7921458432133
 30
0.0
 10
530.2817195523005
 20
266.8027463369447
 30
0.0
 10
530.3904961643495
 20
266.8063211667298
 30
0.0
 10
530.3904961643495
 20
266.8063211667298
 30
0.0
  0
ARC
  5
15D
330
1F
100
AcDbEntity
  8
0
  6
Continuous
 62
     7
370
    30
100
AcDbCircle
 10
532.8904961643
 20
193.8491419449
 30
0.0
 40
72.0
100
AcDbArc
 50
92.7863095999
 51
267.2136904001
  0
ARC
  5
15E
330
1F
100
AcDbEntity
  8
0
  6
Continuous
 62
     7
370
    30
100
AcDbCircle
 10
532.8904961643
 20
193.8491419449
 30
0.0
 40
73.00000000000003
100
AcDbArc
 50
92.7481114753
 51
267.2518885247
  0
SPLINE
  5
15F
330
1F
100
AcDbEntity
  8
0
  6
Continuous
 62
     7
370
    30
100
AcDbSpline
210
0.0
220
0.0
230
1.0
 70
     8
 71
     3
 72
    38
 73
    34
 74
     0
 42
0.000000001
 43
0.00000001
 40
0.0
 40
0.0
 40
0.0
 40
0.0
 40
0.0624999999999998
 40
0.0624999999999998
 40
0.1249999999999996
 40
0.1249999999999996
 40
0.1874999999999994
 40
0.1874999999999994
 40
0.2499999999999992
 40
0.2499999999999992
 40
0.3124999999999989
 40
0.3124999999999989
 40
0.3749999999999988
 40
0.3749999999999988
 40
0.4374999999999986
 40
0.4374999999999986
 40
0.4999999999999983
 40
0.4999999999999983
 40
0.5624999999999981
 40
0.5624999999999981
 40
0.6249999999999979
 40
0.6249999999999979
 40
0.6874999999999982
 40
0.6874999999999982
 40
0.7499999999999986
 40
0.7499999999999986
 40
0.812499999999999
 40
0.812499999999999
 40
0.8749999999999993
 40
0.8749999999999993
 40
0.9374999999999997
 40
0.9374999999999997
 40
1.0
 40
1.0
 40
1.0
 40
1.0
 10
530.3904961643495
 20
265.8057260773206
 30
0.0
 10
530.3904961643495
 20
265.8057260773206
 30
0.0
 10
530.4067019731255
 20
265.8062943031331
 30
0.0
 10
530.4701972910435
 20
265.8084579675958
 30
0.0
 10
530.5182576712621
 20
265.8100787369137
 30
0.0
 10
530.6437230908733
 20
265.8141052965797
 30
0.0
 10
530.720498965736
 20
265.8164910992356
 30
0.0
 10
530.9018855390774
 20
265.8217315879377
 30
0.0
 10
531.0074559220144
 20
265.8246062547587
 30
0.0
 10
531.2380651047654
 20
265.8302698519238
 30
0.0
 10
531.3638962990858
 20
265.8330857306686
 30
0.0
 10
531.6371224831433
 20
265.8383614469657
 30
0.0
 10
531.7826038103582
 20
265.8407747565528
 30
0.0
 10
532.0833784717496
 20
265.8447750165396
 30
0.0
 10
532.240884828715
 20
265.8463921455325
 30
0.0
 10
532.5635619836137
 20
265.8485804523032
 30
0.0
 10
532.7257607105236
 20
265.84913807682
 30
0.0
 10
533.0518328504348
 20
265.8491457729552
 30
0.0
 10
533.2174330920628
 20
265.848578150934
 30
0.0
 10
533.5380609653411
 20
265.8464082927968
 30
0.0
 10
533.6938993424053
 20
265.8448185567069
 30
0.0
 10
533.9965768890236
 20
265.840804607245
 30
0.0
 10
534.1429938347943
 20
265.83837454164
 30
0.0
 10
534.4139436668162
 20
265.8331503633621
 30
0.0
 10
534.5402325420816
 20
265.8303339852396
 30
0.0
 10
534.7737230052727
 20
265.8246036963184
 30
0.0
 10
534.877406462264
 20
265.8217784058566
 30
0.0
 10
535.0585674976915
 20
265.8165490009175
 30
0.0
 10
535.1368694896014
 20
265.8141178538388
 30
0.0
 10
535.2625137597666
 20
265.8100860966937
 30
0.0
 10
535.3098526117834
 20
265.8084897898319
 30
0.0
 10
535.3739366188978
 20
265.8063066430477
 30
0.0
 10
535.3904961643495
 20
265.8057260773205
 30
0.0
 10
535.3904961643495
 20
265.8057260773205
 30
0.0
  0
SPLINE
  5
160
330
1F
100
AcDbEntity
  8
0
  6
Continuous
 62
     7
370
    30
100
AcDbSpline
210
0.0
220
0.0
230
1.0
 70
     8
 71
     3
 72
    38
 73
    34
 74
     0
 42
0.000000001
 43
0.00000001
 40
0.0
 40
0.0
 40
0.0
 40
0.0
 40
0.0625
 40
0.0625
 40
0.125
 40
0.125
 40
0.1875
 40
0.1875
 40
0.25
 40
0.25
 40
0.3125
 40
0.3125
 40
0.375
 40
0.375
 40
0.4375
 40
0.4375
 40
0.5
 40
0.5
 40
0.5625
 40
0.5625
 40
0.625
 40
0.625
 40
0.6875
 40
0.6875
 40
0.75
 40
0.75
 40
0.8125
 40
0.8125
 40
0.875
 40
0.875
 40
0.9375
 40
0.9375
 40
1.0
 40
1.0
 40
1.0
 40
1.0
 10
535.3904961643495
 20
266.8063211667298
 30
0.0
 10
535.3904961643495
 20
266.8063211667298
 30
0.0
 10
535.3742904239643
 20
266.8068815968927
 30
0.0
 10
535.3107953102806
 20
266.8090155816891
 30
0.0
 10
535.2627350947532
 20
266.8106141188662
 30
0.0
 10
535.1372697804741
 20
266.8145854620421
 30
0.0
 10
535.0604939199218
 20
266.8169385520349
 30
0.0
 10
534.8791073220453
 20
266.8221071965799
 30
0.0
 10
534.7735367061128
 20
266.8249424635583
 30
0.0
 10
534.5429269584255
 20
266.830528445101
 30
0.0
 10
534.4170955216538
 20
266.8333057363353
 30
0.0
 10
534.1438691856938
 20
266.8385091568585
 30
0.0
 10
533.9983873383242
 20
266.8408894059745
 30
0.0
 10
533.6976124936116
 20
266.8448348555484
 30
0.0
 10
533.540106518504
 20
266.846429823788
 30
0.0
 10
533.2174294992482
 20
266.848588147457
 30
0.0
 10
533.0552309850674
 20
266.8491381304335
 30
0.0
 10
532.7291595644233
 20
266.8491457199038
 30
0.0
 10
532.5635597662996
 20
266.8485858761005
 30
0.0
 10
532.2429321217057
 20
266.846445747736
 30
0.0
 10
532.0870938969579
 20
266.8448777935404
 30
0.0
 10
531.784416753936
 20
266.8409188490527
 30
0.0
 10
531.6379993039973
 20
266.8385220750175
 30
0.0
 10
531.3670489729756
 20
266.8333694794782
 30
0.0
 10
531.2407600136803
 20
266.8305916979496
 30
0.0
 10
531.0072696971592
 20
266.8249399569601
 30
0.0
 10
530.9035852890536
 20
266.8221533715153
 30
0.0
 10
530.7224241608661
 20
266.816995656538
 30
0.0
 10
530.6441224196519
 20
266.8145978510132
 30
0.0
 10
530.5184780243513
 20
266.8106213743313
 30
0.0
 10
530.4711393210924
 20
266.8090469634124
 30
0.0
 10
530.407055622711
 20
266.8068937669066
 30
0.0
 10
530.3904961643495
 20
266.8063211667298
 30
0.0
 10
530.3904961643495
 20
266.8063211667298
 30
0.0
  0
SPLINE
  5
161
330
1F
100
AcDbEntity
  8
0
  6
Continuous
 62
     7
370
    30
100
AcDbSpline
210
0.0
220
0.0
230
1.0
 70
     8
 71
     3
 72
    38
 73
    34
 74
     0
 42
0.000000001
 43
0.00000001
 40
0.0
 40
0.0
 40
0.0
 40
0.0
 40
0.0624999999999998
 40
0.0624999999999998
 40
0.1249999999999996
 40
0.1249999999999996
 40
0.1874999999999994
 40
0.1874999999999994
 40
0.2499999999999992
 40
0.2499999999999992
 40
0.3124999999999989
 40
0.3124999999999989
 40
0.3749999999999988
 40
0.3749999999999988
 40
0.4374999999999986
 40
0.4374999999999986
 40
0.4999999999999983
 40
0.4999999999999983
 40
0.5624999999999981
 40
0.5624999999999981
 40
0.6249999999999979
 40
0.6249999999999979
 40
0.6874999999999982
 40
0.6874999999999982
 40
0.7499999999999986
 40
0.7499999999999986
 40
0.812499999999999
 40
0.812499999999999
 40
0.8749999999999993
 40
0.8749999999999993
 40
0.9374999999999997
 40
0.9374999999999997
 40
1.0
 40
1.0
 40
1.0
 40
1.0
 10
535.3904961643495
 20
121.8925578125644
 30
0.0
 10
535.3904961643495
 20
121.8925578125644
 30
0.0
 10
535.3742903555737
 20
121.8919895867519
 30
0.0
 10
535.3107950376556
 20
121.8898259222892
 30
0.0
 10
535.2627346574371
 20
121.8882051529712
 30
0.0
 10
535.1372692378258
 20
121.8841785933053
 30
0.0
 10
535.0604933629631
 20
121.8817927906494
 30
0.0
 10
534.8791067896218
 20
121.8765523019473
 30
0.0
 10
534.7735364066848
 20
121.8736776351263
 30
0.0
 10
534.5429272239338
 20
121.8680140379612
 30
0.0
 10
534.4170960296133
 20
121.8651981592163
 30
0.0
 10
534.1438698455557
 20
121.8599224429193
 30
0.0
 10
533.9983885183409
 20
121.8575091333322
 30
0.0
 10
533.6976138569495
 20
121.8535088733454
 30
0.0
 10
533.5401074999841
 20
121.8518917443524
 30
0.0
 10
533.2174303450854
 20
121.8497034375818
 30
0.0
 10
533.0552316181755
 20
121.849145813065
 30
0.0
 10
532.7291594782644
 20
121.8491381169298
 30
0.0
 10
532.5635592366364
 20
121.8497057389509
 30
0.0
 10
532.2429313633581
 20
121.8518755970882
 30
0.0
 10
532.0870929862938
 20
121.8534653331782
 30
0.0
 10
531.7844154396755
 20
121.85747928264
 30
0.0
 10
531.6379984939047
 20
121.859909348245
 30
0.0
 10
531.367048661883
 20
121.8651335265229
 30
0.0
 10
531.2407597866176
 20
121.8679499046453
 30
0.0
 10
531.0072693234265
 20
121.8736801935666
 30
0.0
 10
530.9035858664352
 20
121.8765054840284
 30
0.0
 10
530.7224248310077
 20
121.8817348889675
 30
0.0
 10
530.6441228390978
 20
121.8841660360462
 30
0.0
 10
530.5184785689326
 20
121.8881977931913
 30
0.0
 10
530.4711397169158
 20
121.8897941000531
 30
0.0
 10
530.4070557098014
 20
121.8919772468373
 30
0.0
 10
530.3904961643495
 20
121.8925578125645
 30
0.0
 10
530.3904961643495
 20
121.8925578125645
 30
0.0
  0
SPLINE
  5
162
330
1F
100
AcDbEntity
  8
0
  6
Continuous
 62
     7
370
    30
100
AcDbSpline
210
0.0
220
0.0
230
1.0
 70
     8
 71
     3
 72
    38
 73
    34
 74
     0
 42
0.000000001
 43
0.00000001
 40
0.0
 40
0.0
 40
0.0
 40
0.0
 40
0.0625
 40
0.0625
 40
0.125
 40
0.125
 40
0.1875
 40
0.1875
 40
0.25
 40
0.25
 40
0.3125
 40
0.3125
 40
0.375
 40
0.375
 40
0.4375
 40
0.4375
 40
0.5
 40
0.5
 40
0.5625
 40
0.5625
 40
0.625
 40
0.625
 40
0.6875
 40
0.6875
 40
0.75
 40
0.75
 40
0.8125
 40
0.8125
 40
0.875
 40
0.875
 40
0.9375
 40
0.9375
 40
1.0
 40
1.0
 40
1.0
 40
1.0
 10
530.3904961643495
 20
120.8919627231551
 30
0.0
 10
530.3904961643495
 20
120.8919627231551
 30
0.0
 10
530.4067019047349
 20
120.8914022929923
 30
0.0
 10
530.4701970184186
 20
120.8892683081958
 30
0.0
 10
530.5182572339459
 20
120.8876697710188
 30
0.0
 10
530.6437225482251
 20
120.8836984278429
 30
0.0
 10
530.7204984087773
 20
120.8813453378501
 30
0.0
 10
530.9018850066537
 20
120.8761766933051
 30
0.0
 10
531.0074556225863
 20
120.8733414263267
 30
0.0
 10
531.2380653702736
 20
120.867755444784
 30
0.0
 10
531.3638968070454
 20
120.8649781535498
 30
0.0
 10
531.6371231430054
 20
120.8597747330264
 30
0.0
 10
531.782604990375
 20
120.8573944839105
 30
0.0
 10
532.0833798350875
 20
120.8534490343366
 30
0.0
 10
532.240885810195
 20
120.8518540660969
 30
0.0
 10
532.5635628294508
 20
120.849695742428
 30
0.0
 10
532.7257613436318
 20
120.8491457594515
 30
0.0
 10
533.0518327642757
 20
120.8491381699811
 30
0.0
 10
533.2174325623996
 20
120.8496980137845
 30
0.0
 10
533.5380602069935
 20
120.851838142149
 30
0.0
 10
533.6938984317412
 20
120.8534060963446
 30
0.0
 10
533.9965755747633
 20
120.8573650408323
 30
0.0
 10
534.1429930247019
 20
120.8597618148675
 30
0.0
 10
534.4139433557234
 20
120.8649144104068
 30
0.0
 10
534.5402323150189
 20
120.8676921919354
 30
0.0
 10
534.7737226315397
 20
120.8733439329249
 30
0.0
 10
534.8774070396455
 20
120.8761305183697
 30
0.0
 10
535.058568167833
 20
120.8812882333469
 30
0.0
 10
535.136869909047
 20
120.8836860388718
 30
0.0
 10
535.2625143043476
 20
120.8876625155536
 30
0.0
 10
535.3098530076066
 20
120.8892369264726
 30
0.0
 10
535.3739367059881
 20
120.8913901229784
 30
0.0
 10
535.3904961643495
 20
120.8919627231551
 30
0.0
 10
535.3904961643495
 20
120.8919627231551
 30
0.0
  0
SPLINE
  5
163
330
1F
100
AcDbEntity
  8
0
  6
Continuous
 62
     7
370
    30
100
AcDbSpline
210
0.0
220
0.0
230
1.0
 70
     8
 71
     3
 72
    10
 73
     6
 74
     0
 42
0.000000001
 43
0.00000001
 40
0.0
 40
0.0
 40
0.0
 40
0.0
 40
0.0778522289759094
 40
0.6429490355971567
 40
0.9999999999999999
 40
0.9999999999999999
 40
0.9999999999999999
 40
0.9999999999999999
 10
535.3904961084702
 20
120.8923265829659
 30
0.0
 10
535.4219339641851
 20
120.8932904832737
 30
0.0
 10
535.681566081069
 20
120.9012509332378
 30
0.0
 10
535.8744611479356
 20
120.9103777590567
 30
0.0
 10
535.9160571152457
 20
120.9119364794524
 30
0.0
 10
535.9321628639229
 20
120.9125400081253
 30
0.0
  0
SPLINE
  5
164
330
1F
100
AcDbEntity
  8
0
  6
Continuous
 62
     7
370
    30
100
AcDbSpline
210
0.0
220
0.0
230
1.0
 70
     8
 71
     3
 72
    10
 73
     6
 74
     0
 42
0.000000001
 43
0.00000001
 40
0.0
 40
0.0
 40
0.0
 40
0.0
 40
0.1823027570491819
 40
0.7573686581579603
 40
0.9999999999999999
 40
0.9999999999999999
 40
0.9999999999999999
 40
0.9999999999999999
 10
535.915056563703
 20
266.786459137497
 30
0.0
 10
535.9174693601437
 20
266.7863456274833
 30
0.0
 10
535.9274932151433
 20
266.7858740552039
 30
0.0
 10
535.7712430849388
 20
266.7931814593842
 30
0.0
 10
535.4776211290796
 20
266.8028729743684
 30
0.0
 10
535.3904961084702
 20
266.8057486906624
 30
0.0
  0
SPLINE
  5
165
330
1F
100
AcDbEntity
  8
0
  6
Continuous
 62
     7
370
    30
100
AcDbSpline
210
0.0
220
0.0
230
1.0
 70
     8
 71
     3
 72
     9
 73
     5
 74
     0
 42
0.000000001
 43
0.00000001
 40
0.0
 40
0.0
 40
0.0
 40
0.0
 40
0.4299258354552156
 40
1.0
 40
1.0
 40
1.0
 40
1.0
 10
530.3904962202289
 20
266.8060094609833
 30
0.0
 10
530.2494914777084
 20
266.8009793433708
 30
0.0
 10
529.9215169042072
 20
266.7892793774749
 30
0.0
 10
529.8752213590205
 20
266.7870275757479
 30
0.0
 10
529.8488294647761
 20
266.7857438817597
 30
0.0
  0
LINE
  5
166
330
1F
100
AcDbEntity
  8
0
  6
Continuous
 62
     7
370
    30
100
AcDbLine
 10
529.8904961383
 20
123.8491416469
 30
0.0
 11
535.8904961904
 21
123.8491416469
 31
0.0
  0
LINE
  5
167
330
1F
100
AcDbEntity
  8
0
  6
Continuous
 62
     7
370
    30
100
AcDbLine
 10
529.8904961383
 20
263.849142243
 30
0.0
 11
535.8904961904
 21
263.849142243
 31
0.0
  0
CIRCLE
  5
168
330
1F
100
AcDbEntity
  8
0
  6
Continuous
 62
     7
370
    30
100
AcDbCircle
 10
532.8904961643
 20
193.8491419449
 30
0.0
 40
73.5
  0
CIRCLE
  5
169
330
1F
100
AcDbEntity
  8
0
  6
Continuous
 62
     7
370
    30
100
AcDbCircle
 10
532.8904961643
 20
193.8491419449
 30
0.0
 40
85.0
  0
SPLINE
  5
16A
330
1F
100
AcDbEntity
  8
0
  6
Continuous
 62
     8
370
    30
100
AcDbSpline
210
0.0
220
0.0
230
1.0
 70
     8
 71
     3
 72
    11
 73
     7
 74
     0
 42
0.000000001
 43
0.00000001
 40
0.0
 40
0.0
 40
0.0
 40
0.0
 40
0.2758936612640889
 40
0.5960354975539432
 40
0.9890279196419699
 40
1.0
 40
1.0
 40
1.0
 40
1.0
 10
536.8590674770751
 20
264.1821533933258
 30
0.0
 10
536.8710466515722
 20
264.1812274701478
 30
0.0
 10
536.8969262357533
 20
264.1792271230591
 30
0.0
 10
536.6114638212586
 20
264.2016326977832
 30
0.0
 10
536.2561528498909
 20
264.2347804723465
 30
0.0
 10
535.9001651721875
 20
264.2535274093456
 30
0.0
 10
535.8904961904266
 20
264.254036594925
 30
0.0
  0
SPLINE
  5
16B
330
1F
100
AcDbEntity
  8
0
  6
Continuous
 62
     8
370
    30
100
AcDbSpline
210
0.0
220
0.0
230
1.0
 70
     8
 71
     3
 72
    10
 73
     6
 74
     0
 42
0.000000001
 43
0.00000001
 40
0.0
 40
0.0
 40
0.0
 40
0.0
 40
0.2138879671739339
 40
0.6216406274294514
 40
1.0
 40
1.0
 40
1.0
 40
1.0
 10
529.8904961382725
 20
264.2523676648713
 30
0.0
 10
529.7321698384474
 20
264.2424300934818
 30
0.0
 10
529.2720127680788
 20
264.2135476921234
 30
0.0
 10
528.916422415738
 20
264.1811985963849
 30
0.0
 10
528.9135955091615
 20
264.1812949193501
 30
0.0
 10
528.9122349058964
 20
264.1813412800408
 30
0.0
  0
SPLINE
  5
16C
330
1F
100
AcDbEntity
  8
0
  6
Continuous
 62
     8
370
    30
100
AcDbSpline
210
0.0
220
0.0
230
1.0
 70
     8
 71
     3
 72
    11
 73
     7
 74
     0
 42
0.000000001
 43
0.00000001
 40
0.0
 40
0.0
 40
0.0
 40
0.0
 40
0.2758936612640889
 40
0.5960354975539432
 40
0.9890279196419699
 40
1.0
 40
1.0
 40
1.0
 40
1.0
 10
528.921924851624
 20
123.5161304965592
 30
0.0
 10
528.9099456771268
 20
123.5170564197371
 30
0.0
 10
528.8840660929457
 20
123.5190567668258
 30
0.0
 10
529.1695285074406
 20
123.4966511921018
 30
0.0
 10
529.5248394788082
 20
123.4635034175385
 30
0.0
 10
529.8808271565115
 20
123.4447564805394
 30
0.0
 10
529.8904961382725
 20
123.44424729496
 30
0.0
  0
SPLINE
  5
16D
330
1F
100
AcDbEntity
  8
0
  6
Continuous
 62
     8
370
    30
100
AcDbSpline
210
0.0
220
0.0
230
1.0
 70
     8
 71
     3
 72
    10
 73
     6
 74
     0
 42
0.000000001
 43
0.00000001
 40
0.0
 40
0.0
 40
0.0
 40
0.0
 40
0.2138879671739339
 40
0.6216406274294514
 40
1.0
 40
1.0
 40
1.0
 40
1.0
 10
535.8904961904266
 20
123.4459162250137
 30
0.0
 10
536.0488224902516
 20
123.4558537964032
 30
0.0
 10
536.5089795606202
 20
123.4847361977616
 30
0.0
 10
536.8645699129612
 20
123.5170852935
 30
0.0
 10
536.8673968195377
 20
123.5169889705348
 30
0.0
 10
536.8687574228027
 20
123.5169426098442
 30
0.0
  0
ARC
  5
16E
330
1F
100
AcDbEntity
  8
0
  6
Continuous
 62
     8
370
    30
100
AcDbCircle
 10
532.8904961643
 20
193.8491419449
 30
0.0
 40
69.5
100
AcDbArc
 50
0.0
 51
88.3509729389
  0
ARC
  5
16F
330
1F
100
AcDbEntity
  8
0
  6
Continuous
 62
     8
370
    30
100
AcDbCircle
 10
532.8904961643
 20
193.8491419449
 30
0.0
 40
69.5
100
AcDbArc
 50
91.6490270611
 51
268.3509729389
  0
ARC
  5
170
330
1F
100
AcDbEntity
  8
0
  6
Continuous
 62
     8
370
    30
100
AcDbCircle
 10
532.8904961643
 20
193.8491419449
 30
0.0
 40
69.5
100
AcDbArc
 50
271.6490270611
 51
0.0
  0
ENDSEC
  0
SECTION
  2
OBJECTS
  0
DICTIONARY
  5
C
330
0
100
AcDbDictionary
281
     1
  3
ACAD_GROUP
350
D
  3
ACAD_LAYOUT
350
1A
  3
ACAD_MLINESTYLE
350
17
  3
ACAD_PLOTSETTINGS
350
19
  3
ACAD_PLOTSTYLENAME
350
E
  3
ACAD_SCALELIST
350
47
  0
DICTIONARY
  5
D
102
{ACAD_REACTORS
330
C
102
}
330
C
100
AcDbDictionary
281
     1
  0
DICTIONARY
  5
1A
102
{ACAD_REACTORS
330
C
102
}
330
C
100
AcDbDictionary
281
     1
  3
Layout1
350
1E
  3
Layout2
350
26
  3
Model
350
22
  0
DICTIONARY
  5
17
102
{ACAD_REACTORS
330
C
102
}
330
C
100
AcDbDictionary
281
     1
  3
Standard
350
18
  0
DICTIONARY
  5
19
102
{ACAD_REACTORS
330
C
102
}
330
C
100
AcDbDictionary
281
     1
  0
ACDBDICTIONARYWDFLT
  5
E
102
{ACAD_REACTORS
330
C
102
}
330
C
100
AcDbDictionary
281
     1
  3
Normal
350
F
100
AcDbDictionaryWithDefault
340
F
  0
DICTIONARY
  5
47
102
{ACAD_REACTORS
330
C
102
}
330
C
100
AcDbDictionary
281
     1
  3
A0
350
48
  3
A1
350
49
  3
A2
350
4A
  3
A3
350
4B
  3
A4
350
4C
  3
A5
350
4D
  3
A6
350
4E
  3
A7
350
4F
  3
A8
350
50
  3
A9
350
51
  3
B0
350
52
  3
B1
350
53
  3
B2
350
54
  3
B3
350
55
  3
B4
350
56
  3
B5
350
57
  3
B6
350
58
  3
B7
350
59
  3
B8
350
5A
  3
B9
350
5B
  3
C0
350
5C
  3
C1
350
5D
  3
C2
350
5E
  3
C3
350
5F
  3
C4
350
60
  3
C5
350
61
  3
C6
350
62
  3
C7
350
63
  3
C8
350
64
  3
C9
350
65
  3
D0
350
66
  3
D1
350
67
  3
D2
350
68
  0
LAYOUT
  5
1E
102
{ACAD_REACTORS
330
1A
102
}
330
1A
100
AcDbPlotSettings
  1

  2
none_device
  4

  6

 40
0.0
 41
0.0
 42
0.0
 43
0.0
 44
0.0
 45
0.0
 46
0.0
 47
0.0
 48
0.0
 49
0.0
140
0.0
141
0.0
142
1.0
143
1.0
 70
   688
 72
     1
 73
     0
 74
     5
  7

 75
    16
147
1.0
148
0.0
149
0.0
100
AcDbLayout
  1
Layout1
 70
     1
 71
     1
 10
0.0
 20
0.0
 11
420.0
 21
297.0
 12
0.0
 22
0.0
 32
0.0
 14
1.0000000000E+20
 24
1.0000000000E+20
 34
1.0000000000E+20
 15
-1.0000000000E+20
 25
-1.0000000000E+20
 35
-1.0000000000E+20
146
0.0
 13
0.0
 23
0.0
 33
0.0
 16
1.0
 26
0.0
 36
0.0
 17
0.0
 27
1.0
 37
0.0
 76
     0
330
1B
  0
LAYOUT
  5
26
102
{ACAD_REACTORS
330
1A
102
}
330
1A
100
AcDbPlotSettings
  1

  2
none_device
  4

  6

 40
0.0
 41
0.0
 42
0.0
 43
0.0
 44
0.0
 45
0.0
 46
0.0
 47
0.0
 48
0.0
 49
0.0
140
0.0
141
0.0
142
1.0
143
1.0
 70
   688
 72
     1
 73
     0
 74
     5
  7

 75
    16
147
1.0
148
0.0
149
0.0
100
AcDbLayout
  1
Layout2
 70
     1
 71
     2
 10
0.0
 20
0.0
 11
0.0
 21
0.0
 12
0.0
 22
0.0
 32
0.0
 14
0.0
 24
0.0
 34
0.0
 15
0.0
 25
0.0
 35
0.0
146
0.0
 13
0.0
 23
0.0
 33
0.0
 16
1.0
 26
0.0
 36
0.0
 17
0.0
 27
1.0
 37
0.0
 76
     0
330
23
  0
LAYOUT
  5
22
102
{ACAD_REACTORS
330
1A
102
}
330
1A
100
AcDbPlotSettings
  1

  2
none_device
  4
Letter_(8.50_x_11.00_Inches)
  6

 40
6.35
 41
6.35
 42
6.35000508
 43
6.35000508
 44
215.9
 45
279.4
 46
0.0
 47
0.0
 48
0.0
 49
0.0
140
0.0
141
0.0
142
1.0
143
1.0
 70
  1712
 72
     1
 73
     0
 74
     0
  7

 75
     0
147
1.0
148
0.0
149
0.0
100
AcDbLayout
  1
Model
 70
     1
 71
     0
 10
0.0
 20
0.0
 11
420.0
 21
297.0
 12
0.0
 22
0.0
 32
0.0
 14
0.0
 24
0.0
 34
0.0
 15
420.0
 25
297.0
 35
0.0
146
0.0
 13
0.0
 23
0.0
 33
0.0
 16
1.0
 26
0.0
 36
0.0
 17
0.0
 27
1.0
 37
0.0
 76
     0
330
1F
331
29
  0
MLINESTYLE
  5
18
102
{ACAD_REACTORS
330
17
102
}
330
17
100
AcDbMlineStyle
  2
Standard
 70
     0
  3

 62
   256
 51
90.0
 52
90.0
 71
     2
 49
0.5
 62
   256
  6
BYLAYER
 49
-0.5
 62
   256
  6
BYLAYER
  0
ACDBPLACEHOLDER
  5
F
102
{ACAD_REACTORS
330
E
102
}
330
E
  0
SCALE
  5
48
102
{ACAD_REACTORS
330
47
102
}
330
47
100
AcDbScale
 70
     0
300
1:1
140
1.0
141
1.0
290
     1
  0
SCALE
  5
49
102
{ACAD_REACTORS
330
47
102
}
330
47
100
AcDbScale
 70
     0
300
1:2
140
1.0
141
2.0
290
     0
  0
SCALE
  5
4A
102
{ACAD_REACTORS
330
47
102
}
330
47
100
AcDbScale
 70
     0
300
1:4
140
1.0
141
4.0
290
     0
  0
SCALE
  5
4B
102
{ACAD_REACTORS
330
47
102
}
330
47
100
AcDbScale
 70
     0
300
1:5
140
1.0
141
5.0
290
     0
  0
SCALE
  5
4C
102
{ACAD_REACTORS
330
47
102
}
330
47
100
AcDbScale
 70
     0
300
1:8
140
1.0
141
8.0
290
     0
  0
SCALE
  5
4D
102
{ACAD_REACTORS
330
47
102
}
330
47
100
AcDbScale
 70
     0
300
1:10
140
1.0
141
10.0
290
     0
  0
SCALE
  5
4E
102
{ACAD_REACTORS
330
47
102
}
330
47
100
AcDbScale
 70
     0
300
1:16
140
1.0
141
16.0
290
     0
  0
SCALE
  5
4F
102
{ACAD_REACTORS
330
47
102
}
330
47
100
AcDbScale
 70
     0
300
1:20
140
1.0
141
20.0
290
     0
  0
SCALE
  5
50
102
{ACAD_REACTORS
330
47
102
}
330
47
100
AcDbScale
 70
     0
300
1:30
140
1.0
141
30.0
290
     0
  0
SCALE
  5
51
102
{ACAD_REACTORS
330
47
102
}
330
47
100
AcDbScale
 70
     0
300
1:40
140
1.0
141
40.0
290
     0
  0
SCALE
  5
52
102
{ACAD_REACTORS
330
47
102
}
330
47
100
AcDbScale
 70
     0
300
1:50
140
1.0
141
50.0
290
     0
  0
SCALE
  5
53
102
{ACAD_REACTORS
330
47
102
}
330
47
100
AcDbScale
 70
     0
300
1:100
140
1.0
141
100.0
290
     0
  0
SCALE
  5
54
102
{ACAD_REACTORS
330
47
102
}
330
47
100
AcDbScale
 70
     0
300
2:1
140
2.0
141
1.0
290
     0
  0
SCALE
  5
55
102
{ACAD_REACTORS
330
47
102
}
330
47
100
AcDbScale
 70
     0
300
4:1
140
4.0
141
1.0
290
     0
  0
SCALE
  5
56
102
{ACAD_REACTORS
330
47
102
}
330
47
100
AcDbScale
 70
     0
300
8:1
140
8.0
141
1.0
290
     0
  0
SCALE
  5
57
102
{ACAD_REACTORS
330
47
102
}
330
47
100
AcDbScale
 70
     0
300
10:1
140
10.0
141
1.0
290
     0
  0
SCALE
  5
58
102
{ACAD_REACTORS
330
47
102
}
330
47
100
AcDbScale
 70
     0
300
100:1
140
100.0
141
1.0
290
     0
  0
SCALE
  5
59
102
{ACAD_REACTORS
330
47
102
}
330
47
100
AcDbScale
 70
     0
300
1/128" = 1'-0"
140
0.0078125
141
12.0
290
     0
  0
SCALE
  5
5A
102
{ACAD_REACTORS
330
47
102
}
330
47
100
AcDbScale
 70
     0
300
1/64" = 1'-0"
140
0.015625
141
12.0
290
     0
  0
SCALE
  5
5B
102
{ACAD_REACTORS
330
47
102
}
330
47
100
AcDbScale
 70
     0
300
1/32" = 1'-0"
140
0.03125
141
12.0
290
     0
  0
SCALE
  5
5C
102
{ACAD_REACTORS
330
47
102
}
330
47
100
AcDbScale
 70
     0
300
1/16" = 1'-0"
140
0.0625
141
12.0
290
     0
  0
SCALE
  5
5D
102
{ACAD_REACTORS
330
47
102
}
330
47
100
AcDbScale
 70
     0
300
3/32" = 1'-0"
140
0.09375
141
12.0
290
     0
  0
SCALE
  5
5E
102
{ACAD_REACTORS
330
47
102
}
330
47
100
AcDbScale
 70
     0
300
1/8" = 1'-0"
140
0.125
141
12.0
290
     0
  0
SCALE
  5
5F
102
{ACAD_REACTORS
330
47
102
}
330
47
100
AcDbScale
 70
     0
300
3/16" = 1'-0"
140
0.1875
141
12.0
290
     0
  0
SCALE
  5
60
102
{ACAD_REACTORS
330
47
102
}
330
47
100
AcDbScale
 70
     0
300
1/4" = 1'-0"
140
0.25
141
12.0
290
     0
  0
SCALE
  5
61
102
{ACAD_REACTORS
330
47
102
}
330
47
100
AcDbScale
 70
     0
300
3/8" = 1'-0"
140
0.375
141
12.0
290
     0
  0
SCALE
  5
62
102
{ACAD_REACTORS
330
47
102
}
330
47
100
AcDbScale
 70
     0
300
1/2" = 1'-0"
140
0.5
141
12.0
290
     0
  0
SCALE
  5
63
102
{ACAD_REACTORS
330
47
102
}
330
47
100
AcDbScale
 70
     0
300
3/4" = 1'-0"
140
0.75
141
12.0
290
     0
  0
SCALE
  5
64
102
{ACAD_REACTORS
330
47
102
}
330
47
100
AcDbScale
 70
     0
300
1" = 1'-0"
140
1.0
141
12.0
290
     0
  0
SCALE
  5
65
102
{ACAD_REACTORS
330
47
102
}
330
47
100
AcDbScale
 70
     0
300
1-1/2" = 1'-0"
140
1.5
141
12.0
290
     0
  0
SCALE
  5
66
102
{ACAD_REACTORS
330
47
102
}
330
47
100
AcDbScale
 70
     0
300
3" = 1'-0"
140
3.0
141
12.0
290
     0
  0
SCALE
  5
67
102
{ACAD_REACTORS
330
47
102
}
330
47
100
AcDbScale
 70
     0
300
6" = 1'-0"
140
6.0
141
12.0
290
     0
  0
SCALE
  5
68
102
{ACAD_REACTORS
330
47
102
}
330
47
100
AcDbScale
 70
     0
300
1'-0" = 1'-0"
140
12.0
141
12.0
290
     0
  0
ENDSEC
  0
EOF
