  0
SECTION
  2
HEADER
  9
$ACADVER
  1
AC1015
  9
$ACADMAINTVER
 70
     6
  9
$DWGCODEPAGE
  3
DOS932
  9
$INSBASE
 10
0.0
 20
0.0
 30
0.0
  9
$EXTMIN
 10
0.0
 20
0.0
 30
0.0
  9
$EXTMAX
 10
420.0
 20
297.0
 30
0.0
  9
$LIMMIN
 10
0.0
 20
0.0
  9
$LIMMAX
 10
420.0
 20
297.0
  9
$ORTHOMODE
 70
     0
  9
$REGENMODE
 70
     1
  9
$FILLMODE
 70
     1
  9
$QTEXTMODE
 70
     0
  9
$MIRRTEXT
 70
     1
  9
$LTSCALE
 40
1.0
  9
$ATTMODE
 70
     1
  9
$TEXTSIZE
 40
3.8805555556
  9
$TRACEWID
 40
1.0
  9
$TEXTSTYLE
  7
Standard
  9
$CLAYER
  8
0
  9
$CELTYPE
  6
ByLayer
  9
$CECOLOR
 62
   256
  9
$CELTSCALE
 40
1.0
  9
$DISPSILH
 70
     0
  9
$DIMSCALE
 40
1.0
  9
$DIMASZ
 40
3.0
  9
$DIMEXO
 40
0.0
  9
$DIMDLI
 40
3.75
  9
$DIMRND
 40
0.0
  9
$DIMDLE
 40
0.0
  9
$DIMEXE
 40
1.0
  9
$DIMTP
 40
0.0
  9
$DIMTM
 40
0.0
  9
$DIMTXT
 40
3.5277777778
  9
$DIMCEN
 40
2.5
  9
$DIMTSZ
 40
0.0
  9
$DIMTOL
 70
     0
  9
$DIMLIM
 70
     0
  9
$DIMTIH
 70
     1
  9
$DIMTOH
 70
     1
  9
$DIMSE1
 70
     0
  9
$DIMSE2
 70
     0
  9
$DIMTAD
 70
     1
  9
$DIMZIN
 70
     0
  9
$DIMBLK
  1

  9
$DIMASO
 70
     1
  9
$DIMSHO
 70
     1
  9
$DIMPOST
  1

  9
$DIMAPOST
  1

  9
$DIMALT
 70
     0
  9
$DIMALTD
 70
     3
  9
$DIMALTF
 40
0.0393700787
  9
$DIMLFAC
 40
1.0
  9
$DIMTOFL
 70
     1
  9
$DIMTVP
 40
0.0
  9
$DIMTIX
 70
     0
  9
$DIMSOXD
 70
     0
  9
$DIMSAH
 70
     0
  9
$DIMBLK1
  1

  9
$DIMBLK2
  1

  9
$DIMSTYLE
  2
ISO-25
  9
$DIMCLRD
 70
     0
  9
$DIMCLRE
 70
     0
  9
$DIMCLRT
 70
     0
  9
$DIMTFAC
 40
1.0
  9
$DIMGAP
 40
1.0
  9
$DIMJUST
 70
     0
  9
$DIMSD1
 70
     0
  9
$DIMSD2
 70
     0
  9
$DIMTOLJ
 70
     0
  9
$DIMTZIN
 70
     0
  9
$DIMALTZ
 70
     0
  9
$DIMALTTZ
 70
     0
  9
$DIMUPT
 70
     0
  9
$DIMDEC
 70
     2
  9
$DIMTDEC
 70
     2
  9
$DIMALTU
 70
     2
  9
$DIMALTTD
 70
     3
  9
$DIMTXSTY
  7
Standard
  9
$DIMAUNIT
 70
     0
  9
$DIMADEC
 70
     2
  9
$DIMALTRND
 40
0.0
  9
$DIMAZIN
 70
     0
  9
$DIMDSEP
 70
    44
  9
$DIMATFIT
 70
     3
  9
$DIMFRAC
 70
     0
  9
$DIMLDRBLK
  1

  9
$DIMLUNIT
 70
     2
  9
$DIMLWD
 70
    -2
  9
$DIMLWE
 70
    -2
  9
$DIMTMOVE
 70
     0
  9
$LUNITS
 70
     2
  9
$LUPREC
 70
     2
  9
$SKETCHINC
 40
1.0
  9
$FILLETRAD
 40
10.0
  9
$AUNITS
 70
     0
  9
$AUPREC
 70
     2
  9
$MENU
  1
.
  9
$ELEVATION
 40
0.0
  9
$PELEVATION
 40
0.0
  9
$THICKNESS
 40
0.0
  9
$LIMCHECK
 70
     0
  9
$CHAMFERA
 40
0.0
  9
$CHAMFERB
 40
0.0
  9
$CHAMFERC
 40
0.0
  9
$CHAMFERD
 40
0.0
  9
$SKPOLY
 70
     0
  9
$TDCREATE
 40
2457546.407557593
  9
$TDUCREATE
 40
2457546.032557593
  9
$TDUPDATE
 40
2457546.407558599
  9
$TDUUPDATE
 40
2457546.032558599
  9
$TDINDWG
 40
0.0000000116
  9
$TDUSRTIMER
 40
0.0000000116
  9
$USRTIMER
 70
     1
  9
$ANGBASE
 50
0.0
  9
$ANGDIR
 70
     0
  9
$PDMODE
 70
     0
  9
$PDSIZE
 40
-1.0
  9
$PLINEWID
 40
0.0
  9
$SPLFRAME
 70
     0
  9
$SPLINETYPE
 70
     6
  9
$SPLINESEGS
 70
     8
  9
$HANDSEED
  5
280
  9
$SURFTAB1
 70
     6
  9
$SURFTAB2
 70
     6
  9
$SURFTYPE
 70
     6
  9
$SURFU
 70
     6
  9
$SURFV
 70
     6
  9
$UCSBASE
  2

  9
$UCSNAME
  2

  9
$UCSORG
 10
0.0
 20
0.0
 30
0.0
  9
$UCSXDIR
 10
1.0
 20
0.0
 30
0.0
  9
$UCSYDIR
 10
0.0
 20
1.0
 30
0.0
  9
$UCSORTHOREF
  2

  9
$UCSORTHOVIEW
 70
     0
  9
$UCSORGTOP
 10
0.0
 20
0.0
 30
0.0
  9
$UCSORGBOTTOM
 10
0.0
 20
0.0
 30
0.0
  9
$UCSORGLEFT
 10
0.0
 20
0.0
 30
0.0
  9
$UCSORGRIGHT
 10
0.0
 20
0.0
 30
0.0
  9
$UCSORGFRONT
 10
0.0
 20
0.0
 30
0.0
  9
$UCSORGBACK
 10
0.0
 20
0.0
 30
0.0
  9
$PUCSBASE
  2

  9
$PUCSNAME
  2

  9
$PUCSORG
 10
0.0
 20
0.0
 30
0.0
  9
$PUCSXDIR
 10
1.0
 20
0.0
 30
0.0
  9
$PUCSYDIR
 10
0.0
 20
1.0
 30
0.0
  9
$PUCSORTHOREF
  2

  9
$PUCSORTHOVIEW
 70
     0
  9
$PUCSORGTOP
 10
0.0
 20
0.0
 30
0.0
  9
$PUCSORGBOTTOM
 10
0.0
 20
0.0
 30
0.0
  9
$PUCSORGLEFT
 10
0.0
 20
0.0
 30
0.0
  9
$PUCSORGRIGHT
 10
0.0
 20
0.0
 30
0.0
  9
$PUCSORGFRONT
 10
0.0
 20
0.0
 30
0.0
  9
$PUCSORGBACK
 10
0.0
 20
0.0
 30
0.0
  9
$USERI1
 70
     0
  9
$USERI2
 70
     0
  9
$USERI3
 70
     0
  9
$USERI4
 70
     0
  9
$USERI5
 70
     0
  9
$USERR1
 40
0.0
  9
$USERR2
 40
0.0
  9
$USERR3
 40
0.0
  9
$USERR4
 40
0.0
  9
$USERR5
 40
0.0
  9
$WORLDVIEW
 70
     1
  9
$SHADEDGE
 70
     3
  9
$SHADEDIF
 70
    70
  9
$TILEMODE
 70
     1
  9
$MAXACTVP
 70
    64
  9
$PINSBASE
 10
0.0
 20
0.0
 30
0.0
  9
$PLIMCHECK
 70
     0
  9
$PEXTMIN
 10
1.0000000000E+20
 20
1.0000000000E+20
 30
1.0000000000E+20
  9
$PEXTMAX
 10
-1.0000000000E+20
 20
-1.0000000000E+20
 30
-1.0000000000E+20
  9
$PLIMMIN
 10
0.0
 20
0.0
  9
$PLIMMAX
 10
420.0
 20
297.0
  9
$UNITMODE
 70
     0
  9
$VISRETAIN
 70
     1
  9
$PLINEGEN
 70
     0
  9
$PSLTSCALE
 70
     1
  9
$TREEDEPTH
 70
  3020
  9
$CMLSTYLE
  2
Standard
  9
$CMLJUST
 70
     0
  9
$CMLSCALE
 40
20.0
  9
$PROXYGRAPHICS
 70
     1
  9
$MEASUREMENT
 70
     1
  9
$CELWEIGHT
370
    -1
  9
$ENDCAPS
280
     0
  9
$JOINSTYLE
280
     0
  9
$LWDISPLAY
290
     1
  9
$INSUNITS
 70
     4
  9
$HYPERLINKBASE
  1

  9
$STYLESHEET
  1

  9
$XEDIT
290
     1
  9
$CEPSNTYPE
380
     0
  9
$PSTYLEMODE
290
     1
  9
$FINGERPRINTGUID
  2
{5B66D2E1-5649-4122-8B89-D0B4385D9205}
  9
$VERSIONGUID
  2
{FAEB1C32-E019-11D5-929B-00C0DF256EC4}
  9
$EXTNAMES
290
     1
  9
$PSVPSCALE
 40
0.0
  9
$OLESTARTUP
290
     0
  0
ENDSEC
  0
SECTION
  2
CLASSES
  0
CLASS
  1
ACDBDICTIONARYWDFLT
  2
AcDbDictionaryWithDefault
  3
ObjectDBX Classes
 90
        0
280
     0
281
     0
  0
CLASS
  1
VISUALSTYLE
  2
AcDbVisualStyle
  3
ObjectDBX Classes
 90
     4095
280
     0
281
     0
  0
CLASS
  1
MATERIAL
  2
AcDbMaterial
  3
ObjectDBX Classes
 90
     1153
280
     0
281
     0
  0
CLASS
  1
SCALE
  2
AcDbScale
  3
ObjectDBX Classes
 90
     1153
280
     0
281
     0
  0
CLASS
  1
TABLESTYLE
  2
AcDbTableStyle
  3
ObjectDBX Classes
 90
     4095
280
     0
281
     0
  0
CLASS
  1
MLEADERSTYLE
  2
AcDbMLeaderStyle
  3
ACDB_MLEADERSTYLE_CLASS
 90
     4095
280
     0
281
     0
  0
CLASS
  1
SUN
  2
AcDbSun
  3
SCENEOE
 90
     1153
280
     0
281
     0
  0
CLASS
  1
ACDBPLACEHOLDER
  2
AcDbPlaceHolder
  3
ObjectDBX Classes
 90
        0
280
     0
281
     0
  0
CLASS
  1
LAYOUT
  2
AcDbLayout
  3
ObjectDBX Classes
 90
        0
280
     0
281
     0
  0
ENDSEC
  0
SECTION
  2
TABLES
  0
TABLE
  2
VPORT
  5
8
330
0
100
AcDbSymbolTable
 70
     1
  0
VPORT
  5
29
330
8
100
AcDbSymbolTableRecord
100
AcDbViewportTableRecord
  2
*Active
 70
     0
 10
0.0
 20
0.0
 11
1.0
 21
1.0
 12
210.0
 22
148.5
 13
0.0
 23
0.0
 14
10.0
 24
10.0
 15
10.0
 25
10.0
 16
0.0
 26
0.0
 36
1.0
 17
0.0
 27
0.0
 37
0.0
 40
297.0
 41
1.4141414141
 42
50.0
 43
0.0
 44
0.0
 50
0.0
 51
0.0
 71
     0
 72
  2000
 73
     1
 74
     3
 75
     0
 76
     0
 77
     0
 78
     0
281
     0
 65
     1
110
0.0
120
0.0
130
0.0
111
1.0
121
0.0
131
0.0
112
0.0
122
1.0
132
0.0
 79
     0
146
0.0
  0
ENDTAB
  0
TABLE
  2
LTYPE
  5
5
330
0
100
AcDbSymbolTable
 70
     6
  0
LTYPE
  5
14
330
5
100
AcDbSymbolTableRecord
100
AcDbLinetypeTableRecord
  2
ByBlock
 70
     0
  3

 72
    65
 73
     0
 40
0.0
  0
LTYPE
  5
15
330
5
100
AcDbSymbolTableRecord
100
AcDbLinetypeTableRecord
  2
ByLayer
 70
     0
  3

 72
    65
 73
     0
 40
0.0
  0
LTYPE
  5
16
330
5
100
AcDbSymbolTableRecord
100
AcDbLinetypeTableRecord
  2
Continuous
 70
     0
  3
Solid line
 72
    65
 73
     0
 40
0.0
  0
LTYPE
  5
6E
330
5
100
AcDbSymbolTableRecord
100
AcDbLinetypeTableRecord
  2
HIDDEN
 70
     0
  3
Hidden __ __ __ __ __ __ __ __ __ __ __ __ __ __
 72
    65
 73
     2
 40
1.905
 49
1.27
 74
     0
 49
-0.635
 74
     0
  0
LTYPE
  5
6F
330
5
100
AcDbSymbolTableRecord
100
AcDbLinetypeTableRecord
  2
PHANTOM
 70
     0
  3
Phantom ______  __  __  ______  __  __  ______
 72
    65
 73
     6
 40
12.7
 49
6.35
 74
     0
 49
-1.27
 74
     0
 49
1.27
 74
     0
 49
-1.27
 74
     0
 49
1.27
 74
     0
 49
-1.27
 74
     0
  0
LTYPE
  5
70
330
5
100
AcDbSymbolTableRecord
100
AcDbLinetypeTableRecord
  2
CENTER
 70
     0
  3
Center ____ _ ____ _ ____ _ ____ _ ____ _ ____
 72
    65
 73
     4
 40
10.16
 49
6.35
 74
     0
 49
-1.27
 74
     0
 49
1.27
 74
     0
 49
-1.27
 74
     0
  0
LTYPE
  5
71
330
5
100
AcDbSymbolTableRecord
100
AcDbLinetypeTableRecord
  2
CENTERX2
 70
     0
  3
Center (2x) ________  __  ________  __  _____
 72
    65
 73
     4
 40
20.32
 49
12.7
 74
     0
 49
-2.54
 74
     0
 49
2.54
 74
     0
 49
-2.54
 74
     0
  0
LTYPE
  5
72
330
5
100
AcDbSymbolTableRecord
100
AcDbLinetypeTableRecord
  2
DOT2
 70
     0
  3
Dot (.5x) ........................................
 72
    65
 73
     2
 40
0.635
 49
0.0
 74
     0
 49
-0.635
 74
     0
  0
ENDTAB
  0
TABLE
  2
LAYER
  5
2
330
0
100
AcDbSymbolTable
 70
     6
  0
LAYER
  5
10
330
2
100
AcDbSymbolTableRecord
100
AcDbLayerTableRecord
  2
0
 70
     0
 62
     7
  6
Continuous
370
    -3
390
F
  0
LAYER
  5
73
330
2
100
AcDbSymbolTableRecord
100
AcDbLayerTableRecord
  2
SLD-0
 70
     0
 62
     7
  6
Continuous
370
    -3
390
F
  0
LAYER
  5
74
330
2
100
AcDbSymbolTableRecord
100
AcDbLayerTableRecord
  2
8
 70
     0
 62
     7
  6
Continuous
370
    15
390
F
  0
LAYER
  5
75
330
2
100
AcDbSymbolTableRecord
100
AcDbLayerTableRecord
  2
9
 70
     0
 62
     7
  6
Continuous
370
    -3
390
F
  0
LAYER
  5
76
330
2
100
AcDbSymbolTableRecord
100
AcDbLayerTableRecord
  2
10
 70
     0
 62
     1
  6
Continuous
370
    -3
390
F
  0
LAYER
  5
77
330
2
100
AcDbSymbolTableRecord
100
AcDbLayerTableRecord
  2
11
 70
     0
 62
     7
  6
Continuous
370
    -3
390
F
  0
ENDTAB
  0
TABLE
  2
STYLE
  5
3
330
0
100
AcDbSymbolTable
 70
     2
  0
STYLE
  5
11
330
3
100
AcDbSymbolTableRecord
100
AcDbTextStyleTableRecord
  2
Standard
 70
     0
 40
0.0
 41
1.0
 50
0.0
 71
     0
 42
3.8805555556
  3
txt
  4
bigfont
  0
STYLE
  5
78
330
3
100
AcDbSymbolTableRecord
100
AcDbTextStyleTableRecord
  2
SLDTEXTSTYLE0
 70
     0
 40
0.0
 41
0.7
 50
0.0
 71
     0
 42
3.8805555556
  3
TXT
  4
bigfont
  0
ENDTAB
  0
TABLE
  2
VIEW
  5
6
330
0
100
AcDbSymbolTable
 70
     0
  0
ENDTAB
  0
TABLE
  2
UCS
  5
7
330
0
100
AcDbSymbolTable
 70
     0
  0
ENDTAB
  0
TABLE
  2
APPID
  5
9
330
0
100
AcDbSymbolTable
 70
     1
  0
APPID
  5
12
330
9
100
AcDbSymbolTableRecord
100
AcDbRegAppTableRecord
  2
ACAD
 70
     0
  0
ENDTAB
  0
TABLE
  2
DIMSTYLE
  5
A
330
0
100
AcDbSymbolTable
 70
     1
100
AcDbDimStyleTable
  0
DIMSTYLE
105
27
330
A
100
AcDbSymbolTableRecord
100
AcDbDimStyleTableRecord
  2
ISO-25
 70
     0
 41
2.5
 42
0.625
 43
3.75
 44
1.25
 73
     0
 74
     0
 77
     1
 78
     8
140
2.5
141
2.5
143
0.0393700787
147
0.625
171
     3
172
     1
178
     0
271
     2
272
     2
274
     3
278
    44
283
     0
284
     8
340
11
  0
ENDTAB
  0
TABLE
  2
BLOCK_RECORD
  5
1
330
0
100
AcDbSymbolTable
 70
     1
  0
BLOCK_RECORD
  5
1F
330
1
100
AcDbSymbolTableRecord
100
AcDbBlockTableRecord
  2
*Model_Space
340
22
  0
BLOCK_RECORD
  5
1B
330
1
100
AcDbSymbolTableRecord
100
AcDbBlockTableRecord
  2
*Paper_Space
340
1E
  0
BLOCK_RECORD
  5
23
330
1
100
AcDbSymbolTableRecord
100
AcDbBlockTableRecord
  2
*Paper_Space0
340
26
  0
ENDTAB
  0
ENDSEC
  0
SECTION
  2
BLOCKS
  0
BLOCK
  5
20
330
1F
100
AcDbEntity
  8
0
100
AcDbBlockBegin
  2
*Model_Space
 70
     0
 10
0.0
 20
0.0
 30
0.0
  3
*Model_Space
  1

  0
ENDBLK
  5
21
330
1F
100
AcDbEntity
  8
0
100
AcDbBlockEnd
  0
BLOCK
  5
1C
330
1B
100
AcDbEntity
 67
     1
  8
0
100
AcDbBlockBegin
  2
*Paper_Space
 70
     0
 10
0.0
 20
0.0
 30
0.0
  3
*Paper_Space
  1

  0
ENDBLK
  5
1D
330
1B
100
AcDbEntity
 67
     1
  8
0
100
AcDbBlockEnd
  0
BLOCK
  5
24
330
23
100
AcDbEntity
  8
0
100
AcDbBlockBegin
  2
*Paper_Space0
 70
     0
 10
0.0
 20
0.0
 30
0.0
  3
*Paper_Space0
  1

  0
ENDBLK
  5
25
330
23
100
AcDbEntity
  8
0
100
AcDbBlockEnd
  0
ENDSEC
  0
SECTION
  2
ENTITIES
  0
MTEXT
  5
79
330
1F
100
AcDbEntity
  8
9
 62
     7
100
AcDbMText
 10
22.9810592731
 20
14.7698939359
 30
0.0
 40
3.7041666667
 41
0.0
 71
     1
 72
     1
  1
2016/05/30
  7
SLDTEXTSTYLE0
 73
     1
 44
1.0
  0
MTEXT
  5
7A
330
1F
100
AcDbEntity
  8
9
 62
     7
100
AcDbMText
 10
22.9810592731
 20
39.3097759652
 30
0.0
 40
3.7041666667
 41
0.0
 71
     1
 72
     1
  1
AD-GD011-HL
  7
SLDTEXTSTYLE0
 73
     1
 44
1.0
  0
MTEXT
  5
7B
330
1F
100
AcDbEntity
  8
9
 62
     7
100
AcDbMText
 10
22.9810592731
 20
22.271836236
 30
0.0
 40
3.7041666667
 41
0.0
 71
     1
 72
     1
  1
-
  7
SLDTEXTSTYLE0
 73
     1
 44
1.0
  0
MTEXT
  5
7C
330
1F
100
AcDbEntity
  8
9
 62
     7
100
AcDbMText
 10
22.9810592731
 20
30.9293045781
 30
0.0
 40
3.7041666667
 41
0.0
 71
     1
 72
     1
  1
1:1
  7
SLDTEXTSTYLE0
 73
     1
 44
1.0
  0
LINE
  5
7D
330
1F
100
AcDbEntity
  8
0
  6
Continuous
 62
     7
370
    30
100
AcDbLine
 10
91.1625574626
 20
127.4792186286
 30
0.0
 11
92.1553717593
 21
127.4618889906
 31
0.0
  0
LINE
  5
7E
330
1F
100
AcDbEntity
  8
0
  6
Continuous
 62
     7
370
    30
100
AcDbLine
 10
174.9625574626
 20
127.2837219014
 30
0.0
 11
175.1625574626
 21
127.4837219014
 31
0.0
  0
LINE
  5
7F
330
1F
100
AcDbEntity
  8
0
  6
Continuous
 62
     7
370
    30
100
AcDbLine
 10
174.0526540631
 20
127.2837219014
 30
0.0
 11
174.9625574626
 21
127.2837219014
 31
0.0
  0
SPLINE
  5
80
330
1F
100
AcDbEntity
  8
0
  6
Continuous
 62
     7
370
    30
100
AcDbSpline
210
0.0
220
0.0
230
1.0
 70
     8
 71
     3
 72
     9
 73
     5
 74
     0
 42
0.000000001
 43
0.00000001
 40
0.0
 40
0.0
 40
0.0
 40
0.0
 40
0.3797512769374012
 40
1.0
 40
1.0
 40
1.0
 40
1.0
 10
169.8984217668685
 20
121.8572559269541
 30
0.0
 10
169.9002348800679
 20
121.8593067573563
 30
0.0
 10
169.9050093556511
 20
121.8647072142519
 30
0.0
 10
169.9097630055326
 20
121.8701260172867
 30
0.0
 10
169.9127114508016
 20
121.8734870229496
 30
0.0
  0
LINE
  5
81
330
1F
100
AcDbEntity
  8
0
  6
Continuous
 62
     7
370
    30
100
AcDbLine
 10
96.4005635104
 20
121.8868901044
 30
0.0
 11
96.4267131287
 21
121.857234181
 31
0.0
  0
CIRCLE
  5
82
330
1F
100
AcDbEntity
  8
0
  6
Continuous
 62
     7
370
    30
100
AcDbCircle
 10
133.1625574626
 20
154.2837219014
 30
0.0
 40
49.00000000000001
  0
ARC
  5
83
330
1F
100
AcDbEntity
  8
0
  6
Continuous
 62
     7
370
    30
100
AcDbCircle
 10
133.1625574626
 20
106.5837219014
 30
0.0
 40
3.199999999999998
100
AcDbArc
 50
270.0
 51
337.775112249
  0
ARC
  5
84
330
1F
100
AcDbEntity
  8
0
  6
Continuous
 62
     7
370
    30
100
AcDbCircle
 10
133.1625574626
 20
106.5837219014
 30
0.0
 40
3.199999999999998
100
AcDbArc
 50
202.224887751
 51
270.0
  0
LINE
  5
85
330
1F
100
AcDbEntity
  8
0
  6
Continuous
 62
     7
370
    30
100
AcDbLine
 10
91.1625574626
 20
128.7414705238
 30
0.0
 11
91.1625574626
 21
129.0448629732
 31
0.0
  0
LINE
  5
86
330
1F
100
AcDbEntity
  8
0
  6
Continuous
 62
     7
370
    30
100
AcDbLine
 10
91.3478281365
 20
128.739086234
 30
0.0
 11
91.1625574626
 21
128.7414705238
 31
0.0
  0
LINE
  5
87
330
1F
100
AcDbEntity
  8
0
  6
Continuous
 62
     7
370
    30
100
AcDbLine
 10
91.1625574626
 20
128.0830724705
 30
0.0
 11
91.7620390923
 21
128.0730927852
 31
0.0
  0
LINE
  5
88
330
1F
100
AcDbEntity
  8
0
  6
Continuous
 62
     7
370
    30
100
AcDbLine
 10
92.008687896
 20
127.6874999951
 30
0.0
 11
91.1625574626
 21
127.7015856902
 31
0.0
  0
LINE
  5
89
330
1F
100
AcDbEntity
  8
0
  6
Continuous
 62
     7
370
    30
100
AcDbLine
 10
174.9625574626
 20
127.2837219014
 30
0.0
 11
174.9625574626
 21
128.7149909983
 31
0.0
  0
LINE
  5
8A
330
1F
100
AcDbEntity
  8
0
  6
Continuous
 62
     7
370
    30
100
AcDbLine
 10
175.1625574626
 20
129.0448629732
 30
0.0
 11
175.1625574626
 21
127.4837219014
 31
0.0
  0
LINE
  5
8B
330
1F
100
AcDbEntity
  8
0
  6
Continuous
 62
     7
370
    30
100
AcDbLine
 10
96.441969232
 20
121.8399490013
 30
0.0
 11
96.4267171112
 21
121.8572321347
 31
0.0
  0
LINE
  5
8C
330
1F
100
AcDbEntity
  8
0
  6
Continuous
 62
     7
370
    30
100
AcDbLine
 10
169.9127288295
 20
121.8734715058
 30
0.0
 11
169.9055742683
 21
121.8653642245
 31
0.0
  0
LINE
  5
8D
330
1F
100
AcDbEntity
  8
0
  6
Continuous
 62
     7
370
    30
100
AcDbLine
 10
169.8984173424
 20
121.8572542635
 30
0.0
 11
169.8831456932
 21
121.8399490012
 31
0.0
  0
CIRCLE
  5
8E
330
1F
100
AcDbEntity
  8
0
  6
Continuous
 62
     7
370
    30
100
AcDbCircle
 10
133.1625574626
 20
154.2837219014
 30
0.0
 40
52.0
  0
CIRCLE
  5
8F
330
1F
100
AcDbEntity
  8
0
  6
Continuous
 62
     7
370
    30
100
AcDbCircle
 10
133.1625574626
 20
154.2837219014
 30
0.0
 40
68.00000000000003
  0
ARC
  5
90
330
1F
100
AcDbEntity
  8
0
  6
Continuous
 62
     7
370
    30
100
AcDbCircle
 10
83.7232096668
 20
141.7637023517
 30
0.0
 40
1.000000000000003
100
AcDbArc
 50
194.2108272911
 51
245.5560452196
  0
ARC
  5
91
330
1F
100
AcDbEntity
  8
0
  6
Continuous
 62
     7
370
    30
100
AcDbCircle
 10
182.6019052584
 20
141.7637023517
 30
0.0
 40
1.000000000000044
100
AcDbArc
 50
294.4439547804
 51
345.7891727089
  0
LINE
  5
92
330
1F
100
AcDbEntity
  8
0
  6
Continuous
 62
     7
370
    30
100
AcDbLine
 10
183.0157082027
 20
140.8533358742
 30
0.0
 11
179.8350780905
 21
139.4075949141
 31
0.0
  0
LINE
  5
93
330
1F
100
AcDbEntity
  8
0
  6
Continuous
 62
     7
370
    30
100
AcDbLine
 10
86.5838077966
 20
139.3649717497
 30
0.0
 11
83.3094067225
 21
140.8533358742
 31
0.0
  0
ARC
  5
94
330
1F
100
AcDbEntity
  8
0
  6
Continuous
 62
     7
370
    30
100
AcDbCircle
 10
92.1625574626
 20
123.9522201252
 30
0.0
 40
1.0
100
AcDbArc
 50
180.0
 51
216.4937665998
  0
ARC
  5
95
330
1F
100
AcDbEntity
  8
0
  6
Continuous
 62
     7
370
    30
100
AcDbCircle
 10
174.1625574626
 20
123.9522201252
 30
0.0
 40
1.000000000000006
100
AcDbArc
 50
323.5062334002
 51
359.9999999991
  0
LINE
  5
96
330
1F
100
AcDbEntity
  8
0
  6
Continuous
 62
     7
370
    30
100
AcDbLine
 10
91.1625574626
 20
129.2334430496
 30
0.0
 11
91.1625574626
 21
123.9522201252
 31
0.0
  0
LINE
  5
97
330
1F
100
AcDbEntity
  8
0
  6
Continuous
 62
     7
370
    30
100
AcDbLine
 10
175.1625574626
 20
123.9522201252
 30
0.0
 11
175.1625574626
 21
129.1370647772
 31
0.0
  0
LINE
  5
98
330
1F
100
AcDbEntity
  8
0
  6
Continuous
 62
     7
370
    30
100
AcDbLine
 10
137.1625574626
 20
105.4472601131
 30
0.0
 11
137.1625574626
 21
102.4377963142
 31
0.0
  0
LINE
  5
99
330
1F
100
AcDbEntity
  8
0
  6
Continuous
 62
     7
370
    30
100
AcDbLine
 10
129.1625574626
 20
102.4377963142
 30
0.0
 11
129.1625574626
 21
105.4472601131
 31
0.0
  0
LINE
  5
9A
330
1F
100
AcDbEntity
  8
0
  6
Continuous
 62
     7
370
    30
100
AcDbLine
 10
183.5619109602
 20
141.4837219014
 30
0.0
 11
180.4611832355
 21
141.4837219014
 31
0.0
  0
SPLINE
  5
9B
330
1F
100
AcDbEntity
  8
0
  6
Continuous
 62
     7
370
    30
100
AcDbSpline
210
0.0
220
0.0
230
1.0
 70
     8
 71
     3
 72
     9
 73
     5
 74
     0
 42
0.000000001
 43
0.00000001
 40
0.0
 40
0.0
 40
0.0
 40
0.0
 40
0.6994604425739871
 40
1.0
 40
1.0
 40
1.0
 40
1.0
 10
260.7182365466847
 20
129.2743814865747
 30
0.0
 10
260.719041092419
 20
129.327415361671
 30
0.0
 10
260.7201913300669
 20
129.4032364830215
 30
0.0
 10
260.7189975820431
 20
129.4790520750821
 30
0.0
 10
260.7186388135404
 20
129.501837659566
 30
0.0
  0
ARC
  5
9C
330
1F
100
AcDbEntity
  8
0
  6
Continuous
 62
     7
370
    30
100
AcDbCircle
 10
259.7195990951
 20
131.2837219014
 30
0.0
 40
1.0
100
AcDbArc
 50
360.0
 51
90.0
  0
LINE
  5
9D
330
1F
100
AcDbEntity
  8
0
  6
Continuous
 62
     7
370
    30
100
AcDbLine
 10
260.7195990951
 20
129.501623144
 30
0.0
 11
260.7195990951
 21
131.2837219014
 31
0.0
  0
LINE
  5
9E
330
1F
100
AcDbEntity
  8
0
  6
Continuous
 62
     7
370
    30
100
AcDbLine
 10
222.6668495826
 20
86.2837219014
 30
0.0
 11
223.6642688645
 21
86.3555186712
 31
0.0
  0
LINE
  5
9F
330
1F
100
AcDbEntity
  8
0
  6
Continuous
 62
     7
370
    30
100
AcDbLine
 10
223.6642688645
 20
222.2119251317
 30
0.0
 11
222.6668495826
 21
222.2837219014
 31
0.0
  0
LINE
  5
A0
330
1F
100
AcDbEntity
  8
0
  6
Continuous
 62
     7
370
    30
100
AcDbLine
 10
222.6668495826
 20
222.2837219014
 30
0.0
 11
221.6694303008
 21
208.4273154409
 31
0.0
  0
LINE
  5
A1
330
1F
100
AcDbEntity
  8
0
  6
Continuous
 62
     7
370
    30
100
AcDbLine
 10
221.6694303008
 20
100.140128362
 30
0.0
 11
222.6668495826
 21
86.2837219014
 31
0.0
  0
ARC
  5
A2
330
1F
100
AcDbEntity
  8
0
  6
Continuous
 62
     7
370
    30
100
AcDbCircle
 10
223.6642688645
 20
208.2837219014
 30
0.0
 40
2.000000000000028
100
AcDbArc
 50
175.8828057298
 51
180.0
  0
ARC
  5
A3
330
1F
100
AcDbEntity
  8
0
  6
Continuous
 62
     7
370
    30
100
AcDbCircle
 10
223.6642688645
 20
100.2837219014
 30
0.0
 40
2.000000000000028
100
AcDbArc
 50
180.0
 51
184.1171942702
  0
LINE
  5
A4
330
1F
100
AcDbEntity
  8
0
  6
Continuous
 62
     7
370
    30
100
AcDbLine
 10
221.6642688645
 20
208.2837219014
 30
0.0
 11
221.6642688645
 21
100.2837219014
 31
0.0
  0
LINE
  5
A5
330
1F
100
AcDbEntity
  8
0
  6
Continuous
 62
     7
370
    30
100
AcDbLine
 10
239.2642688645
 20
101.2837219014
 30
0.0
 11
257.6642688645
 21
101.2837219014
 31
0.0
  0
LINE
  5
A6
330
1F
100
AcDbEntity
  8
0
  6
Continuous
 62
     7
370
    30
100
AcDbLine
 10
223.6642688645
 20
101.2837219014
 30
0.0
 11
228.2642688645
 21
101.2837219014
 31
0.0
  0
LINE
  5
A7
330
1F
100
AcDbEntity
  8
0
  6
Continuous
 62
     7
370
    30
100
AcDbLine
 10
257.6642688645
 20
207.2837219014
 30
0.0
 11
223.6642688645
 21
207.2837219014
 31
0.0
  0
ARC
  5
A8
330
1F
100
AcDbEntity
  8
0
  6
Continuous
 62
     7
370
    30
100
AcDbCircle
 10
228.2642688645
 20
102.2837219014
 30
0.0
 40
1.0
100
AcDbArc
 50
270.0
 51
326.6516787454
  0
LINE
  5
A9
330
1F
100
AcDbEntity
  8
0
  6
Continuous
 62
     7
370
    30
100
AcDbLine
 10
235.0174911092
 20
131.7687219014
 30
0.0
 11
236.206898405
 21
131.7687219014
 31
0.0
  0
ARC
  5
AA
330
1F
100
AcDbEntity
  8
0
  6
Continuous
 62
     7
370
    30
100
AcDbCircle
 10
213.7056397189
 20
132.2837219014
 30
0.0
 40
22.50715147360381
100
AcDbArc
 50
358.6888655394
 51
1.3111344606
  0
LINE
  5
AB
330
1F
100
AcDbEntity
  8
0
  6
Continuous
 62
     7
370
    30
100
AcDbLine
 10
236.206898405
 20
132.7987219014
 30
0.0
 11
235.0174911092
 21
132.7987219014
 31
0.0
  0
ARC
  5
AC
330
1F
100
AcDbEntity
  8
0
  6
Continuous
 62
     7
370
    30
100
AcDbCircle
 10
234.1642688645
 20
132.2837219014
 30
0.0
 40
0.9966008221959446
100
AcDbArc
 50
31.1149374946
 51
58.8850625054
  0
LINE
  5
AD
330
1F
100
AcDbEntity
  8
0
  6
Continuous
 62
     7
370
    30
100
AcDbLine
 10
234.6792688645
 20
133.1369441461
 30
0.0
 11
234.6792688645
 21
134.3263514418
 31
0.0
  0
ARC
  5
AE
330
1F
100
AcDbEntity
  8
0
  6
Continuous
 62
     7
370
    30
100
AcDbCircle
 10
234.1642688645
 20
111.8250927558
 30
0.0
 40
22.50715147364085
100
AcDbArc
 50
88.6888655394
 51
91.3111344606
  0
LINE
  5
AF
330
1F
100
AcDbEntity
  8
0
  6
Continuous
 62
     7
370
    30
100
AcDbLine
 10
233.6492688645
 20
134.3263514418
 30
0.0
 11
233.6492688645
 21
133.1369441461
 31
0.0
  0
ARC
  5
B0
330
1F
100
AcDbEntity
  8
0
  6
Continuous
 62
     7
370
    30
100
AcDbCircle
 10
234.1642688645
 20
132.2837219014
 30
0.0
 40
0.996600822195969
100
AcDbArc
 50
121.1149374946
 51
148.8850625054
  0
LINE
  5
B1
330
1F
100
AcDbEntity
  8
0
  6
Continuous
 62
     7
370
    30
100
AcDbLine
 10
233.3110466198
 20
132.7987219014
 30
0.0
 11
232.1216393241
 21
132.7987219014
 31
0.0
  0
ARC
  5
B2
330
1F
100
AcDbEntity
  8
0
  6
Continuous
 62
     7
370
    30
100
AcDbCircle
 10
254.6228980101
 20
132.2837219014
 30
0.0
 40
22.50715147363998
100
AcDbArc
 50
178.6888655394
 51
181.3111344606
  0
LINE
  5
B3
330
1F
100
AcDbEntity
  8
0
  6
Continuous
 62
     7
370
    30
100
AcDbLine
 10
232.1216393241
 20
131.7687219014
 30
0.0
 11
233.3110466198
 21
131.7687219014
 31
0.0
  0
ARC
  5
B4
330
1F
100
AcDbEntity
  8
0
  6
Continuous
 62
     7
370
    30
100
AcDbCircle
 10
234.1642688645
 20
132.2837219014
 30
0.0
 40
0.996600822195969
100
AcDbArc
 50
211.1149374946
 51
238.8850625054
  0
LINE
  5
B5
330
1F
100
AcDbEntity
  8
0
  6
Continuous
 62
     7
370
    30
100
AcDbLine
 10
233.6492688645
 20
131.4304996567
 30
0.0
 11
233.6492688645
 21
130.241092361
 31
0.0
  0
ARC
  5
B6
330
1F
100
AcDbEntity
  8
0
  6
Continuous
 62
     7
370
    30
100
AcDbCircle
 10
234.1642688645
 20
152.742351047
 30
0.0
 40
22.50715147360335
100
AcDbArc
 50
268.6888655394
 51
271.3111344606
  0
LINE
  5
B7
330
1F
100
AcDbEntity
  8
0
  6
Continuous
 62
     7
370
    30
100
AcDbLine
 10
234.6792688645
 20
130.241092361
 30
0.0
 11
234.6792688645
 21
131.4304996567
 31
0.0
  0
ARC
  5
B8
330
1F
100
AcDbEntity
  8
0
  6
Continuous
 62
     7
370
    30
100
AcDbCircle
 10
234.1642688645
 20
132.2837219014
 30
0.0
 40
0.9966008221959544
100
AcDbArc
 50
301.1149374946
 51
328.8850625054
  0
CIRCLE
  5
B9
330
1F
100
AcDbEntity
  8
0
  6
Continuous
 62
     7
370
    30
100
AcDbCircle
 10
234.1642688645
 20
132.2837219014
 30
0.0
 40
4.002144158641187
  0
ARC
  5
BA
330
1F
100
AcDbEntity
  8
0
  6
Continuous
 62
     7
370
    30
100
AcDbCircle
 10
234.1642688645
 20
132.2837219014
 30
0.0
 40
0.8510000000000075
100
AcDbArc
 50
307.2411038472
 51
322.7588961528
  0
ARC
  5
BB
330
1F
100
AcDbEntity
  8
0
  6
Continuous
 62
     7
370
    30
100
AcDbCircle
 10
234.1642688645
 20
132.2837219014
 30
0.0
 40
0.8510000000000021
100
AcDbArc
 50
37.2411038472
 51
52.7588961528
  0
ARC
  5
BC
330
1F
100
AcDbEntity
  8
0
  6
Continuous
 62
     7
370
    30
100
AcDbCircle
 10
234.1642688645
 20
132.2837219014
 30
0.0
 40
0.8510000000000247
100
AcDbArc
 50
127.2411038472
 51
142.7588961528
  0
ARC
  5
BD
330
1F
100
AcDbEntity
  8
0
  6
Continuous
 62
     7
370
    30
100
AcDbCircle
 10
234.1642688645
 20
132.2837219014
 30
0.0
 40
0.8510000000000247
100
AcDbArc
 50
217.2411038472
 51
232.7588961528
  0
LINE
  5
BE
330
1F
100
AcDbEntity
  8
0
  6
Continuous
 62
     7
370
    30
100
AcDbLine
 10
235.252290076
 20
131.7687219014
 30
0.0
 11
235.252290076
 21
132.7987219014
 31
0.0
  0
LINE
  5
BF
330
1F
100
AcDbEntity
  8
0
  6
Continuous
 62
     7
370
    30
100
AcDbLine
 10
234.6792688645
 20
133.3717431129
 30
0.0
 11
233.6492688645
 21
133.3717431129
 31
0.0
  0
LINE
  5
C0
330
1F
100
AcDbEntity
  8
0
  6
Continuous
 62
     7
370
    30
100
AcDbLine
 10
233.6492688645
 20
131.1957006899
 30
0.0
 11
234.6792688645
 21
131.1957006899
 31
0.0
  0
LINE
  5
C1
330
1F
100
AcDbEntity
  8
0
  6
Continuous
 62
     7
370
    30
100
AcDbLine
 10
233.076247653
 20
132.7987219014
 30
0.0
 11
233.076247653
 21
131.7687219014
 31
0.0
  0
CIRCLE
  5
C2
330
1F
100
AcDbEntity
  8
0
  6
Continuous
 62
     7
370
    30
100
AcDbCircle
 10
234.1642688645
 20
132.2837219014
 30
0.0
 40
4.150000000000006
  0
ARC
  5
C3
330
1F
100
AcDbEntity
  8
0
  6
Continuous
 62
     7
370
    30
100
AcDbCircle
 10
234.1642688645
 20
132.2837219014
 30
0.0
 40
0.8510000000000247
100
AcDbArc
 50
232.7588961528
 51
307.2411038472
  0
ARC
  5
C4
330
1F
100
AcDbEntity
  8
0
  6
Continuous
 62
     7
370
    30
100
AcDbCircle
 10
234.1642688645
 20
132.2837219014
 30
0.0
 40
0.8510000000000021
100
AcDbArc
 50
52.7588961528
 51
127.2411038472
  0
ARC
  5
C5
330
1F
100
AcDbEntity
  8
0
  6
Continuous
 62
     7
370
    30
100
AcDbCircle
 10
234.1642688645
 20
132.2837219014
 30
0.0
 40
0.8510000000000021
100
AcDbArc
 50
322.7588961528
 51
37.2411038472
  0
ARC
  5
C6
330
1F
100
AcDbEntity
  8
0
  6
Continuous
 62
     7
370
    30
100
AcDbCircle
 10
234.1642688645
 20
132.2837219014
 30
0.0
 40
0.8510000000000247
100
AcDbArc
 50
142.7588961528
 51
217.2411038472
  0
LINE
  5
C7
330
1F
100
AcDbEntity
  8
0
  6
Continuous
 62
     7
370
    30
100
AcDbLine
 10
260.7089871042
 20
129.2743303556
 30
0.0
 11
260.7101380362
 21
129.501623144
 31
0.0
  0
SPLINE
  5
C8
330
1F
100
AcDbEntity
  8
0
  6
Continuous
 62
     7
370
    30
100
AcDbSpline
210
0.0
220
0.0
230
1.0
 70
     8
 71
     3
 72
    11
 73
     7
 74
     0
 42
0.000000001
 43
0.00000001
 40
0.0
 40
0.0
 40
0.0
 40
0.0
 40
0.2556444687538464
 40
0.5975378797030525
 40
0.7977653218427223
 40
1.0
 40
1.0
 40
1.0
 40
1.0
 10
257.6642688645169
 20
117.9600770828782
 30
0.0
 10
258.1432908885026
 20
118.8504568150689
 30
0.0
 10
259.2629466586384
 20
120.9316112397948
 30
0.0
 10
260.1274618825985
 20
123.9862529981047
 30
0.0
 10
260.6179189722925
 20
126.8866217321269
 30
0.0
 10
260.6785302961303
 20
128.4757855539137
 30
0.0
 10
260.7089871042393
 20
129.2743303555986
 30
0.0
  0
LINE
  5
C9
330
1F
100
AcDbEntity
  8
0
  6
Continuous
 62
     7
370
    30
100
AcDbLine
 10
260.7101380362
 20
129.501623144
 30
0.0
 11
260.7101380362
 21
131.2837219014
 31
0.0
  0
ARC
  5
CA
330
1F
100
AcDbEntity
  8
0
  6
Continuous
 62
     7
370
    30
100
AcDbCircle
 10
259.714845974
 20
131.288430053
 30
0.0
 40
0.9953031978977195
100
AcDbArc
 50
359.7289688008
 51
89.7263800469
  0
LINE
  5
CB
330
1F
100
AcDbEntity
  8
0
  6
Continuous
 62
     7
370
    30
100
AcDbLine
 10
257.6642688645
 20
132.2837219014
 30
0.0
 11
259.7195990951
 21
132.2837219014
 31
0.0
  0
LINE
  5
CC
330
1F
100
AcDbEntity
  8
0
  6
Continuous
 62
     7
370
    30
100
AcDbLine
 10
260.7089871042
 20
129.2743303556
 30
0.0
 11
260.7185345196
 21
129.2743536241
 31
0.0
  0
LINE
  5
CD
330
1F
100
AcDbEntity
  8
0
  6
Continuous
 62
     7
370
    30
100
AcDbLine
 10
222.6668495826
 20
222.2837219014
 30
0.0
 11
222.6668495826
 21
86.2837219014
 31
0.0
  0
LINE
  5
CE
330
1F
100
AcDbEntity
  8
0
  6
Continuous
 62
     7
370
    30
100
AcDbLine
 10
223.6642688645
 20
222.2119251317
 30
0.0
 11
223.6642688645
 21
86.3555186712
 31
0.0
  0
SPLINE
  5
CF
330
1F
100
AcDbEntity
  8
0
  6
Continuous
 62
     7
370
    30
100
AcDbSpline
210
0.0
220
0.0
230
1.0
 70
     8
 71
     3
 72
    12
 73
     8
 74
     0
 42
0.000000001
 43
0.00000001
 40
0.0
 40
0.0
 40
0.0
 40
0.0
 40
0.499999999999998
 40
0.499999999999998
 40
0.749999999999999
 40
0.749999999999999
 40
1.0
 40
1.0
 40
1.0
 40
1.0
 10
229.4624974256677
 20
126.178164334262
 30
0.0
 10
229.4624974256677
 20
125.7878820303651
 30
0.0
 10
229.4273080231541
 20
125.4026252001532
 30
0.0
 10
229.2981013369151
 20
124.8356540269633
 30
0.0
 10
229.241326359236
 20
124.6469141376824
 30
0.0
 10
229.0952091170661
 20
124.2861508641626
 30
0.0
 10
229.0063317050862
 20
124.113392733125
 30
0.0
 10
228.8934143074554
 20
123.9522201252423
 30
0.0
  0
SPLINE
  5
D0
330
1F
100
AcDbEntity
  8
0
  6
Continuous
 62
     7
370
    30
100
AcDbSpline
210
0.0
220
0.0
230
1.0
 70
     8
 71
     3
 72
    10
 73
     6
 74
     0
 42
0.000000001
 43
0.00000001
 40
0.0
 40
0.0
 40
0.0
 40
0.0
 40
0.5
 40
0.5
 40
1.0
 40
1.0
 40
1.0
 40
1.0
 10
228.8934143074591
 20
123.9522201252412
 30
0.0
 10
228.7355854067277
 20
123.7269430991681
 30
0.0
 10
228.5695460872929
 20
123.5157533249904
 30
0.0
 10
228.2238182332259
 20
123.1165530659911
 30
0.0
 10
228.0427425887262
 20
122.9280297117
 30
0.0
 10
227.8660403033644
 20
122.7627494673507
 30
0.0
  0
SPLINE
  5
D1
330
1F
100
AcDbEntity
  8
0
  6
Continuous
 62
     7
370
    30
100
AcDbSpline
210
0.0
220
0.0
230
1.0
 70
     8
 71
     3
 72
    42
 73
    38
 74
     0
 42
0.000000001
 43
0.00000001
 40
0.0
 40
0.0
 40
0.0
 40
0.0
 40
0.1249999999999991
 40
0.1249999999999991
 40
0.2499999999999983
 40
0.2499999999999983
 40
0.3749999999999974
 40
0.3749999999999974
 40
0.3906249999999973
 40
0.3906249999999973
 40
0.4062499999999972
 40
0.4062499999999972
 40
0.4374999999999972
 40
0.4374999999999972
 40
0.4999999999999978
 40
0.4999999999999978
 40
0.5624999999999983
 40
0.5624999999999983
 40
0.5937499999999986
 40
0.5937499999999986
 40
0.6249999999999988
 40
0.6249999999999988
 40
0.656249999999999
 40
0.656249999999999
 40
0.6874999999999992
 40
0.6874999999999992
 40
0.7187499999999994
 40
0.7187499999999994
 40
0.7499999999999997
 40
0.7499999999999997
 40
0.7656249999999998
 40
0.7656249999999998
 40
0.7812499999999998
 40
0.7812499999999998
 40
0.8124999999999998
 40
0.8749999999999999
 40
1.0
 40
1.0
 40
1.0
 40
1.0
 10
227.8660403033644
 20
122.7627494673507
 30
0.0
 10
227.6975113653356
 20
123.8044018153894
 30
0.0
 10
227.5373218996351
 20
124.8744463349094
 30
0.0
 10
227.2345359188801
 20
127.0652509696357
 30
0.0
 10
227.0916391674007
 20
128.1882813042565
 30
0.0
 10
226.8242394356425
 20
130.4798392678121
 30
0.0
 10
226.6998368238714
 20
131.6472032489978
 30
0.0
 10
226.5703813125415
 20
132.9848591122284
 30
0.0
 10
226.5549036816619
 20
133.1337226139909
 30
0.0
 10
226.5323422840581
 20
133.4328069007027
 30
0.0
 10
226.524982871782
 20
133.5830052671167
 30
0.0
 10
226.5149178835409
 20
134.0356044264012
 30
0.0
 10
226.5242906994214
 20
134.3373788320584
 30
0.0
 10
226.6009303157764
 20
135.2380715360974
 30
0.0
 10
226.7157154901068
 20
135.8344487449699
 30
0.0
 10
227.094158333515
 20
137.0154374431303
 30
0.0
 10
227.3567460047904
 20
137.5911336601639
 30
0.0
 10
227.8539217597183
 20
138.3884606911195
 30
0.0
 10
228.0371090451719
 20
138.6444112068821
 30
0.0
 10
228.4415847626306
 20
139.1344312903296
 30
0.0
 10
228.6634589810674
 20
139.3685486934532
 30
0.0
 10
229.1340826223692
 20
139.799314331566
 30
0.0
 10
229.384298437413
 20
139.9978128129422
 30
0.0
 10
229.9159840461898
 20
140.3590110184427
 30
0.0
 10
230.1999297019688
 20
140.5228034167844
 30
0.0
 10
230.7836458898384
 20
140.8019259600519
 30
0.0
 10
231.0843884825225
 20
140.9183407573059
 30
0.0
 10
231.7037553308308
 20
141.1043310198916
 30
0.0
 10
232.0250254457631
 20
141.1742328366247
 30
0.0
 10
232.5113176956309
 20
141.2397446850981
 30
0.0
 10
232.6736413948273
 20
141.2550455207378
 30
0.0
 10
232.9987389416104
 20
141.2726352566957
 30
0.0
 10
233.1615889957146
 20
141.272721192866
 30
0.0
 10
233.6501480563287
 20
141.272721192866
 30
0.0
 10
234.6272661775569
 20
141.272721192866
 30
0.0
 10
236.9072084604228
 20
141.2727211928659
 30
0.0
 10
238.8614447028793
 20
141.272721192866
 30
0.0
 10
240.164268864517
 20
141.272721192866
 30
0.0
  0
SPLINE
  5
D2
330
1F
100
AcDbEntity
  8
0
  6
Continuous
 62
     7
370
    30
100
AcDbSpline
210
0.0
220
0.0
230
1.0
 70
     8
 71
     3
 72
    38
 73
    34
 74
     0
 42
0.000000001
 43
0.00000001
 40
0.0
 40
0.0
 40
0.0
 40
0.0
 40
0.2499999999999991
 40
0.3749999999999988
 40
0.4374999999999989
 40
0.4374999999999989
 40
0.4687499999999989
 40
0.4687499999999989
 40
0.4999999999999989
 40
0.4999999999999989
 40
0.5312499999999989
 40
0.5312499999999989
 40
0.5624999999999989
 40
0.5624999999999989
 40
0.624999999999999
 40
0.624999999999999
 40
0.6874999999999991
 40
0.6874999999999991
 40
0.7499999999999991
 40
0.7499999999999991
 40
0.8124999999999991
 40
0.8124999999999991
 40
0.8749999999999991
 40
0.8749999999999991
 40
0.9374999999999991
 40
0.9374999999999991
 40
0.9687499999999992
 40
0.9687499999999992
 40
0.9843749999999989
 40
0.9921874999999991
 40
0.9960937499999996
 40
0.9960937499999996
 40
1.0
 40
1.0
 40
1.0
 40
1.0
 10
240.164268864517
 20
139.9429693967552
 30
0.0
 10
238.8379304308573
 20
139.9429693967552
 30
0.0
 10
236.8484227803677
 20
139.9429693967551
 30
0.0
 10
234.5273305214632
 20
139.9429693967552
 30
0.0
 10
233.5325766962184
 20
139.9429693967551
 30
0.0
 10
233.0351997835961
 20
139.9429693967551
 30
0.0
 10
232.8696665049433
 20
139.9361922119536
 30
0.0
 10
232.5393979021108
 20
139.9017259880956
 30
0.0
 10
232.3746152963443
 20
139.8752741300877
 30
0.0
 10
232.0457775472127
 20
139.8033572224328
 30
0.0
 10
231.8817222218928
 20
139.7578967903205
 30
0.0
 10
231.5544042096765
 20
139.6463959307895
 30
0.0
 10
231.3918602169155
 20
139.5803630963242
 30
0.0
 10
230.9230366236142
 20
139.357577629199
 30
0.0
 10
230.6293972928533
 20
139.1738344694269
 30
0.0
 10
230.1002555517449
 20
138.7587727719514
 30
0.0
 10
229.8602199538617
 20
138.5246049745423
 30
0.0
 10
229.4341008443833
 20
138.0146151871315
 30
0.0
 10
229.2530615690137
 20
137.7450650291247
 30
0.0
 10
228.9453431580961
 20
137.1826377285995
 30
0.0
 10
228.8188586840225
 20
136.8879575174528
 30
0.0
 10
228.6214392544179
 20
136.2906841481472
 30
0.0
 10
228.5510278997038
 20
135.9886406996431
 30
0.0
 10
228.4601152997322
 20
135.3901297378877
 30
0.0
 10
228.4389663844987
 20
135.0919654448626
 30
0.0
 10
228.4403352403632
 20
134.6472631961258
 30
0.0
 10
228.4463601432775
 20
134.4992853281409
 30
0.0
 10
228.4635484962353
 20
134.2786095663367
 30
0.0
 10
228.4741625076598
 20
134.1687901413376
 30
0.0
 10
228.4900105473324
 20
134.0415780888837
 30
0.0
 10
228.4975390361055
 20
133.987254009815
 30
0.0
 10
228.5027210455863
 20
133.9510813912955
 30
0.0
 10
228.5055436045927
 20
133.9320341654767
 30
0.0
 10
228.5081468325692
 20
133.9149767865692
 30
0.0
  0
SPLINE
  5
D3
330
1F
100
AcDbEntity
  8
0
  6
Continuous
 62
     7
370
    30
100
AcDbSpline
210
0.0
220
0.0
230
1.0
 70
     8
 71
     3
 72
    19
 73
    15
 74
     0
 42
0.000000001
 43
0.00000001
 40
0.0
 40
0.0
 40
0.0
 40
0.0
 40
0.0039062500000002
 40
0.0039062500000002
 40
0.0078125000000004
 40
0.0156249999999999
 40
0.03125
 40
0.0625000000000001
 40
0.1250000000000004
 40
0.2500000000000011
 40
0.2500000000000011
 40
0.5000000000000003
 40
0.5000000000000003
 40
1.0
 40
1.0
 40
1.0
 40
1.0
 10
228.5081468325692
 20
133.9149767865692
 30
0.0
 10
228.5092472636337
 20
133.9052859446951
 30
0.0
 10
228.5102361297631
 20
133.8938844637628
 30
0.0
 10
228.5123277936222
 20
133.8727974750097
 30
0.0
 10
228.5154676495484
 20
133.8411723905171
 30
0.0
 10
228.5228104987362
 20
133.7674183119682
 30
0.0
 10
228.5375622540361
 20
133.6200612551097
 30
0.0
 10
228.5673298541493
 20
133.3259512262647
 30
0.0
 10
228.627920380541
 20
132.740145147697
 30
0.0
 10
228.6816609729379
 20
132.2421564102082
 30
0.0
 10
228.7915442985547
 20
131.2516736514483
 30
0.0
 10
228.8680015848562
 20
130.5986755419885
 30
0.0
 10
229.106974042683
 20
128.6616418605834
 30
0.0
 10
229.2787401525279
 20
127.4024240020072
 30
0.0
 10
229.4624974256677
 20
126.178164334262
 30
0.0
  0
LINE
  5
D4
330
1F
100
AcDbEntity
  8
0
  6
Continuous
 62
     7
370
    30
100
AcDbLine
 10
240.1642688645
 20
136.6398086311
 30
0.0
 11
233.1642688649
 21
136.6398086311
 31
0.0
  0
SPLINE
  5
D5
330
1F
100
AcDbEntity
  8
0
  6
Continuous
 62
     7
370
    30
100
AcDbSpline
210
0.0
220
0.0
230
1.0
 70
     8
 71
     3
 72
    24
 73
    20
 74
     0
 42
0.000000001
 43
0.00000001
 40
0.0
 40
0.0
 40
0.0
 40
0.0
 40
0.125
 40
0.125
 40
0.2500000000000001
 40
0.2500000000000001
 40
0.3750000000000001
 40
0.3750000000000001
 40
0.5000000000000001
 40
0.5000000000000001
 40
0.6250000000000001
 40
0.6250000000000001
 40
0.7500000000000002
 40
0.7500000000000002
 40
0.8750000000000002
 40
0.8750000000000002
 40
0.9375000000000001
 40
0.9375000000000001
 40
1.0
 40
1.0
 40
1.0
 40
1.0
 10
233.1642688648649
 20
136.6398086311206
 30
0.0
 10
232.9164214726746
 20
136.6398086310093
 30
0.0
 10
232.6695214829777
 20
136.6158173233901
 30
0.0
 10
232.1777745784264
 20
136.5158441864678
 30
0.0
 10
231.9407531935941
 20
136.4414244802823
 30
0.0
 10
231.4849835097579
 20
136.2477544521217
 30
0.0
 10
231.2637610306583
 20
136.1269810508507
 30
0.0
 10
230.8526860273347
 20
135.8446215477449
 30
0.0
 10
230.662918116732
 20
135.6838991631386
 30
0.0
 10
230.3153590317458
 20
135.3228268842567
 30
0.0
 10
230.1618466406445
 20
135.1266141162773
 30
0.0
 10
229.8975370754901
 20
134.7080547661504
 30
0.0
 10
229.7851677707745
 20
134.4824034667764
 30
0.0
 10
229.6093775244288
 20
134.0164176718303
 30
0.0
 10
229.5459218723388
 20
133.7772500367737
 30
0.0
 10
229.4877709271227
 20
133.4091421553178
 30
0.0
 10
229.4745729551528
 20
133.2843918706479
 30
0.0
 10
229.4610894464253
 20
133.0340737020376
 30
0.0
 10
229.4624974256695
 20
132.9088962118024
 30
0.0
 10
229.4624974256695
 20
132.7837219014463
 30
0.0
  0
LINE
  5
D6
330
1F
100
AcDbEntity
  8
0
  6
Continuous
 62
     7
370
    30
100
AcDbLine
 10
229.4624974257
 20
132.7837219014
 30
0.0
 11
229.4624974257
 21
126.1781643343
 31
0.0
  0
LINE
  5
D7
330
1F
100
AcDbEntity
  8
0
  6
Continuous
 62
     7
370
    30
100
AcDbLine
 10
245.6923917979
 20
138.7191369112
 30
0.0
 11
253.6642688645
 21
141.8802557135
 31
0.0
  0
SPLINE
  5
D8
330
1F
100
AcDbEntity
  8
0
  6
Continuous
 62
     7
370
    30
100
AcDbSpline
210
0.0
220
0.0
230
1.0
 70
     8
 71
     3
 72
    10
 73
     6
 74
     0
 42
0.000000001
 43
0.00000001
 40
0.0
 40
0.0
 40
0.0
 40
0.0
 40
0.5
 40
0.5
 40
1.0
 40
1.0
 40
1.0
 40
1.0
 10
245.4119056594901
 20
138.0700394407647
 30
0.0
 10
245.3636294331705
 20
138.1917849889498
 30
0.0
 10
245.3654130817514
 20
138.3285914445628
 30
0.0
 10
245.4664347814191
 20
138.5683654396773
 30
0.0
 10
245.5660147841238
 20
138.6690241521884
 30
0.0
 10
245.692391797915
 20
138.7191369112201
 30
0.0
  0
LINE
  5
D9
330
1F
100
AcDbEntity
  8
0
  6
Continuous
 62
     7
370
    30
100
AcDbLine
 10
247.3036190649
 20
133.2994162354
 30
0.0
 11
245.4119056595
 21
138.0700394408
 31
0.0
  0
SPLINE
  5
DA
330
1F
100
AcDbEntity
  8
0
  6
Continuous
 62
     7
370
    30
100
AcDbSpline
210
0.0
220
0.0
230
1.0
 70
     8
 71
     3
 72
    10
 73
     6
 74
     0
 42
0.000000001
 43
0.00000001
 40
0.0
 40
0.0
 40
0.0
 40
0.0
 40
0.5
 40
0.5
 40
1.0
 40
1.0
 40
1.0
 40
1.0
 10
247.7684108693016
 20
132.9837219014474
 30
0.0
 10
247.6647909979516
 20
132.9837219014474
 30
0.0
 10
247.5645765029852
 20
133.0162955532192
 30
0.0
 10
247.4002336786491
 20
133.1309026896791
 30
0.0
 10
247.33900885655
 20
133.210168381618
 30
0.0
 10
247.3036190648615
 20
133.2994162354322
 30
0.0
  0
LINE
  5
DB
330
1F
100
AcDbEntity
  8
0
  6
Continuous
 62
     7
370
    30
100
AcDbLine
 10
253.6642688645
 20
132.9837219014
 30
0.0
 11
247.7684108693
 21
132.9837219014
 31
0.0
  0
LINE
  5
DC
330
1F
100
AcDbEntity
  8
0
  6
Continuous
 62
     7
370
    30
100
AcDbLine
 10
253.6642688645
 20
141.8802557135
 30
0.0
 11
253.6642688645
 21
132.9837219014
 31
0.0
  0
LINE
  5
DD
330
1F
100
AcDbEntity
  8
0
  6
Continuous
 62
     7
370
    30
100
AcDbLine
 10
240.1642688645
 20
122.7627494674
 30
0.0
 11
227.8660403034
 21
122.7627494674
 31
0.0
  0
LINE
  5
DE
330
1F
100
AcDbEntity
  8
0
  6
Continuous
 62
     7
370
    30
100
AcDbLine
 10
240.1642688645
 20
141.2727211929
 30
0.0
 11
240.1642688645
 21
122.7627494674
 31
0.0
  0
LINE
  5
DF
330
1F
100
AcDbEntity
  8
0
  6
Continuous
 62
     7
370
    30
100
AcDbLine
 10
239.2642688645
 20
101.2837219014
 30
0.0
 11
239.2642688645
 21
101.6244397187
 31
0.0
  0
SPLINE
  5
E0
330
1F
100
AcDbEntity
  8
0
  6
Continuous
 62
     7
370
    30
100
AcDbSpline
210
0.0
220
0.0
230
1.0
 70
     8
 71
     3
 72
    12
 73
     8
 74
     0
 42
0.000000001
 43
0.00000001
 40
0.0
 40
0.0
 40
0.0
 40
0.0
 40
0.2500000000000012
 40
0.2500000000000012
 40
0.5000000000000023
 40
0.5000000000000023
 40
1.0
 40
1.0
 40
1.0
 40
1.0
 10
238.264268864517
 20
101.7480197551926
 30
0.0
 10
238.396822092804
 20
101.7480197551926
 30
0.0
 10
238.5269145962252
 20
101.7445086829197
 30
0.0
 10
238.7693791424612
 20
101.7312274263008
 30
0.0
 10
238.8803172865796
 20
101.7214712145564
 30
0.0
 10
239.1563896462804
 20
101.6861600977276
 30
0.0
 10
239.264268864517
 20
101.6544455160624
 30
0.0
 10
239.264268864517
 20
101.624439718721
 30
0.0
  0
LINE
  5
E1
330
1F
100
AcDbEntity
  8
0
  6
Continuous
 62
     7
370
    30
100
AcDbLine
 10
238.2642688645
 20
101.7480197552
 30
0.0
 11
229.2642688645
 21
101.7480197552
 31
0.0
  0
SPLINE
  5
E2
330
1F
100
AcDbEntity
  8
0
  6
Continuous
 62
     7
370
    30
100
AcDbSpline
210
0.0
220
0.0
230
1.0
 70
     8
 71
     3
 72
    12
 73
     8
 74
     0
 42
0.000000001
 43
0.00000001
 40
0.0
 40
0.0
 40
0.0
 40
0.0
 40
0.2499999999999997
 40
0.2499999999999997
 40
0.4999999999999993
 40
0.4999999999999993
 40
1.0
 40
1.0
 40
1.0
 40
1.0
 10
228.264268864517
 20
101.624439718721
 30
0.0
 10
228.264268864517
 20
101.6394447059058
 30
0.0
 10
228.2900665556296
 20
101.6546704070884
 30
0.0
 10
228.3898603577307
 20
101.6839846235993
 30
0.0
 10
228.4636853353397
 20
101.6978524638633
 30
0.0
 10
228.7397275652745
 20
101.7332067995709
 30
0.0
 10
228.9991269882971
 20
101.7480197551926
 30
0.0
 10
229.264268864517
 20
101.7480197551926
 30
0.0
  0
LINE
  5
E3
330
1F
100
AcDbEntity
  8
0
  6
Continuous
 62
     7
370
    30
100
AcDbLine
 10
228.2642688645
 20
101.6244397187
 30
0.0
 11
228.2642688645
 21
101.4348808546
 31
0.0
  0
LINE
  5
E4
330
1F
100
AcDbEntity
  8
0
  6
Continuous
 62
     7
370
    30
100
AcDbLine
 10
257.6642688645
 20
101.2837219014
 30
0.0
 11
257.6642688645
 21
207.2837219014
 31
0.0
  0
LINE
  5
E5
330
1F
100
AcDbEntity
  8
0
  6
Continuous
 62
     7
370
    30
100
AcDbLine
 10
252.6642688645
 20
132.9837219014
 30
0.0
 11
252.6642688645
 21
141.4837219014
 31
0.0
  0
LINE
  5
E6
330
1F
100
AcDbEntity
  8
0
  6
Continuous
 62
     7
370
    30
100
AcDbLine
 10
228.8934143075
 20
123.9522201252
 30
0.0
 11
240.1642688645
 21
123.9522201252
 31
0.0
  0
SPLINE
  5
E7
330
1F
100
AcDbEntity
  8
0
  6
Continuous
 62
     7
370
    30
100
AcDbSpline
210
0.0
220
0.0
230
1.0
 70
     8
 71
     3
 72
    10
 73
     6
 74
     0
 42
0.000000001
 43
0.00000001
 40
0.0
 40
0.0
 40
0.0
 40
0.0
 40
0.4260623200874445
 40
0.8521059257868454
 40
1.0
 40
1.0
 40
1.0
 40
1.0
 10
228.264268864517
 20
101.4348808545521
 30
0.0
 10
228.3753966716881
 20
101.4468834926094
 30
0.0
 10
228.5976474048455
 20
101.4708882415194
 30
0.0
 10
228.8439717606922
 20
101.5942299291929
 30
0.0
 10
228.9402095276191
 20
101.7104322217179
 30
0.0
 10
228.9650083793797
 20
101.7403755954951
 30
0.0
  0
SPLINE
  5
E8
330
1F
100
AcDbEntity
  8
0
  6
Continuous
 62
     8
370
    30
100
AcDbSpline
210
0.0
220
0.0
230
1.0
 70
     8
 71
     3
 72
    11
 73
     7
 74
     0
 42
0.000000001
 43
0.00000001
 40
0.0
 40
0.0
 40
0.0
 40
0.0
 40
0.1191388043740411
 40
0.3944194546654627
 40
0.6962026286663907
 40
1.0
 40
1.0
 40
1.0
 40
1.0
 10
257.6642688645169
 20
130.9584009829222
 30
0.0
 10
257.8431230889478
 20
130.8731326960808
 30
0.0
 10
258.4352356759031
 20
130.5908445585345
 30
0.0
 10
259.2625958634919
 20
130.1951211149815
 30
0.0
 10
260.1429844307232
 20
129.7736204620948
 30
0.0
 10
260.5206681015043
 20
129.5924897339472
 30
0.0
 10
260.7101380362024
 20
129.501623144023
 30
0.0
  0
LINE
  5
E9
330
1F
100
AcDbEntity
  8
0
  6
Continuous
 62
     8
370
    30
100
AcDbLine
 10
260.7101380362
 20
131.2837219014
 30
0.0
 11
257.6642688645
 21
131.2837219014
 31
0.0
  0
LINE
  5
EA
330
1F
100
AcDbEntity
  8
0
  6
Continuous
 62
     8
370
    30
100
AcDbLine
 10
260.7101380362
 20
129.501623144
 30
0.0
 11
260.7195990667
 21
129.501623144
 31
0.0
  0
LINE
  5
EB
330
1F
100
AcDbEntity
  8
0
  6
Continuous
 62
     8
370
    30
100
AcDbLine
 10
260.7101380362
 20
131.2837219014
 30
0.0
 11
260.7195990951
 21
131.2837219014
 31
0.0
  0
LINE
  5
EC
330
1F
100
AcDbEntity
  8
0
  6
Continuous
 62
     8
370
    30
100
AcDbLine
 10
221.6694303008
 20
208.4273154409
 30
0.0
 11
221.6694303008
 21
100.140128362
 31
0.0
  0
LINE
  5
ED
330
1F
100
AcDbEntity
  8
0
  6
Continuous
 62
     8
370
    30
100
AcDbLine
 10
228.2642688645
 20
101.2837219014
 30
0.0
 11
228.2642688645
 21
101.4348808546
 31
0.0
  0
SPLINE
  5
EE
330
1F
100
AcDbEntity
  8
0
  6
Continuous
 62
     7
370
    30
100
AcDbSpline
210
0.0
220
0.0
230
1.0
 70
     8
 71
     3
 72
     9
 73
     5
 74
     0
 42
0.000000001
 43
0.00000001
 40
0.0
 40
0.0
 40
0.0
 40
0.0
 40
0.6995138743882648
 40
0.9999999999999999
 40
0.9999999999999999
 40
0.9999999999999999
 40
0.9999999999999999
 10
7.056516574913265
 20
129.5016003097117
 30
0.0
 10
7.056208700810963
 20
129.4485606636528
 30
0.0
 10
7.055768575012788
 20
129.372737083877
 30
0.0
 10
7.057673050865261
 20
129.2969411647475
 30
0.0
 10
7.058245319435486
 20
129.2741655426711
 30
0.0
  0
ARC
  5
EF
330
1F
100
AcDbEntity
  8
0
  6
Continuous
 62
     7
370
    30
100
AcDbCircle
 10
8.0562183533
 20
131.2837219014
 30
0.0
 40
1.0
100
AcDbArc
 50
90.0
 51
180.0
  0
LINE
  5
F0
330
1F
100
AcDbEntity
  8
0
  6
Continuous
 62
     7
370
    30
100
AcDbLine
 10
7.0562183533
 20
131.2837219014
 30
0.0
 11
7.0562183533
 21
129.501623144
 31
0.0
  0
LINE
  5
F1
330
1F
100
AcDbEntity
  8
0
  6
Continuous
 62
     7
370
    30
100
AcDbLine
 10
45.1089678657
 20
222.2837219014
 30
0.0
 11
44.1115485839
 21
222.2119251317
 31
0.0
  0
LINE
  5
F2
330
1F
100
AcDbEntity
  8
0
  6
Continuous
 62
     7
370
    30
100
AcDbLine
 10
44.1115485839
 20
86.3555186712
 30
0.0
 11
45.1089678657
 21
86.2837219014
 31
0.0
  0
LINE
  5
F3
330
1F
100
AcDbEntity
  8
0
  6
Continuous
 62
     7
370
    30
100
AcDbLine
 10
45.1089678657
 20
86.2837219014
 30
0.0
 11
46.1063871476
 21
100.140128362
 31
0.0
  0
LINE
  5
F4
330
1F
100
AcDbEntity
  8
0
  6
Continuous
 62
     7
370
    30
100
AcDbLine
 10
46.1063871476
 20
208.4273154409
 30
0.0
 11
45.1089678657
 21
222.2837219014
 31
0.0
  0
ARC
  5
F5
330
1F
100
AcDbEntity
  8
0
  6
Continuous
 62
     7
370
    30
100
AcDbCircle
 10
44.1115485839
 20
100.2837219014
 30
0.0
 40
2.000000000000014
100
AcDbArc
 50
355.8828057298
 51
0.0
  0
ARC
  5
F6
330
1F
100
AcDbEntity
  8
0
  6
Continuous
 62
     7
370
    30
100
AcDbCircle
 10
44.1115485839
 20
208.2837219014
 30
0.0
 40
2.000000000000014
100
AcDbArc
 50
0.0
 51
4.1171942702
  0
LINE
  5
F7
330
1F
100
AcDbEntity
  8
0
  6
Continuous
 62
     7
370
    30
100
AcDbLine
 10
46.1115485839
 20
100.2837219014
 30
0.0
 11
46.1115485839
 21
208.2837219014
 31
0.0
  0
LINE
  5
F8
330
1F
100
AcDbEntity
  8
0
  6
Continuous
 62
     7
370
    30
100
AcDbLine
 10
44.1115485839
 20
207.2837219014
 30
0.0
 11
10.1115485839
 21
207.2837219014
 31
0.0
  0
LINE
  5
F9
330
1F
100
AcDbEntity
  8
0
  6
Continuous
 62
     7
370
    30
100
AcDbLine
 10
39.5115485839
 20
101.2837219014
 30
0.0
 11
44.1115485839
 21
101.2837219014
 31
0.0
  0
LINE
  5
FA
330
1F
100
AcDbEntity
  8
0
  6
Continuous
 62
     7
370
    30
100
AcDbLine
 10
10.1115485839
 20
101.2837219014
 30
0.0
 11
28.5115485839
 21
101.2837219014
 31
0.0
  0
ARC
  5
FB
330
1F
100
AcDbEntity
  8
0
  6
Continuous
 62
     7
370
    30
100
AcDbCircle
 10
39.5115485839
 20
102.2837219014
 30
0.0
 40
1.0
100
AcDbArc
 50
213.3245471009
 51
270.0
  0
LINE
  5
FC
330
1F
100
AcDbEntity
  8
0
  6
Continuous
 62
     7
370
    30
100
AcDbLine
 10
32.7583263392
 20
132.7987219014
 30
0.0
 11
31.5689190434
 21
132.7987219014
 31
0.0
  0
ARC
  5
FD
330
1F
100
AcDbEntity
  8
0
  6
Continuous
 62
     7
370
    30
100
AcDbCircle
 10
54.0701777294
 20
132.2837219014
 30
0.0
 40
22.50715147354457
100
AcDbArc
 50
178.6888655394
 51
181.3111344606
  0
LINE
  5
FE
330
1F
100
AcDbEntity
  8
0
  6
Continuous
 62
     7
370
    30
100
AcDbLine
 10
31.5689190434
 20
131.7687219014
 30
0.0
 11
32.7583263392
 21
131.7687219014
 31
0.0
  0
ARC
  5
FF
330
1F
100
AcDbEntity
  8
0
  6
Continuous
 62
     7
370
    30
100
AcDbCircle
 10
33.6115485839
 20
132.2837219014
 30
0.0
 40
0.996600822195969
100
AcDbArc
 50
211.1149374946
 51
238.8850625054
  0
LINE
  5
100
330
1F
100
AcDbEntity
  8
0
  6
Continuous
 62
     7
370
    30
100
AcDbLine
 10
33.0965485839
 20
131.4304996568
 30
0.0
 11
33.0965485839
 21
130.241092361
 31
0.0
  0
ARC
  5
101
330
1F
100
AcDbEntity
  8
0
  6
Continuous
 62
     7
370
    30
100
AcDbCircle
 10
33.6115485839
 20
152.7423510471
 30
0.0
 40
22.50715147364029
100
AcDbArc
 50
268.6888655394
 51
271.3111344606
  0
LINE
  5
102
330
1F
100
AcDbEntity
  8
0
  6
Continuous
 62
     7
370
    30
100
AcDbLine
 10
34.1265485839
 20
130.241092361
 30
0.0
 11
34.1265485839
 21
131.4304996568
 31
0.0
  0
ARC
  5
103
330
1F
100
AcDbEntity
  8
0
  6
Continuous
 62
     7
370
    30
100
AcDbCircle
 10
33.6115485839
 20
132.2837219014
 30
0.0
 40
0.9966008221959629
100
AcDbArc
 50
301.1149374946
 51
328.8850625054
  0
LINE
  5
104
330
1F
100
AcDbEntity
  8
0
  6
Continuous
 62
     7
370
    30
100
AcDbLine
 10
34.4647708285
 20
131.7687219014
 30
0.0
 11
35.6541781243
 21
131.7687219014
 31
0.0
  0
ARC
  5
105
330
1F
100
AcDbEntity
  8
0
  6
Continuous
 62
     7
370
    30
100
AcDbCircle
 10
13.1529194383
 20
132.2837219014
 30
0.0
 40
22.50715147356416
100
AcDbArc
 50
358.6888655394
 51
1.3111344606
  0
LINE
  5
106
330
1F
100
AcDbEntity
  8
0
  6
Continuous
 62
     7
370
    30
100
AcDbLine
 10
35.6541781243
 20
132.7987219014
 30
0.0
 11
34.4647708285
 21
132.7987219014
 31
0.0
  0
ARC
  5
107
330
1F
100
AcDbEntity
  8
0
  6
Continuous
 62
     7
370
    30
100
AcDbCircle
 10
33.6115485839
 20
132.2837219014
 30
0.0
 40
0.9966008221959481
100
AcDbArc
 50
31.1149374946
 51
58.8850625054
  0
LINE
  5
108
330
1F
100
AcDbEntity
  8
0
  6
Continuous
 62
     7
370
    30
100
AcDbLine
 10
34.1265485839
 20
133.1369441461
 30
0.0
 11
34.1265485839
 21
134.3263514419
 31
0.0
  0
ARC
  5
109
330
1F
100
AcDbEntity
  8
0
  6
Continuous
 62
     7
370
    30
100
AcDbCircle
 10
33.6115485839
 20
111.8250927559
 30
0.0
 40
22.50715147360413
100
AcDbArc
 50
88.6888655394
 51
91.3111344606
  0
LINE
  5
10A
330
1F
100
AcDbEntity
  8
0
  6
Continuous
 62
     7
370
    30
100
AcDbLine
 10
33.0965485839
 20
134.3263514419
 30
0.0
 11
33.0965485839
 21
133.1369441461
 31
0.0
  0
ARC
  5
10B
330
1F
100
AcDbEntity
  8
0
  6
Continuous
 62
     7
370
    30
100
AcDbCircle
 10
33.6115485839
 20
132.2837219014
 30
0.0
 40
0.9966008221959617
100
AcDbArc
 50
121.1149374946
 51
148.8850625054
  0
CIRCLE
  5
10C
330
1F
100
AcDbEntity
  8
0
  6
Continuous
 62
     7
370
    30
100
AcDbCircle
 10
33.6115485839
 20
132.2837219014
 30
0.0
 40
4.002144158641187
  0
ARC
  5
10D
330
1F
100
AcDbEntity
  8
0
  6
Continuous
 62
     7
370
    30
100
AcDbCircle
 10
33.6115485839
 20
132.2837219014
 30
0.0
 40
0.8510000000000078
100
AcDbArc
 50
217.2411038472
 51
232.7588961528
  0
ARC
  5
10E
330
1F
100
AcDbEntity
  8
0
  6
Continuous
 62
     7
370
    30
100
AcDbCircle
 10
33.6115485839
 20
132.2837219014
 30
0.0
 40
0.8510000000000162
100
AcDbArc
 50
127.2411038472
 51
142.7588961528
  0
ARC
  5
10F
330
1F
100
AcDbEntity
  8
0
  6
Continuous
 62
     7
370
    30
100
AcDbCircle
 10
33.6115485839
 20
132.2837219014
 30
0.0
 40
0.8510000000000162
100
AcDbArc
 50
307.2411038472
 51
322.7588961528
  0
ARC
  5
110
330
1F
100
AcDbEntity
  8
0
  6
Continuous
 62
     7
370
    30
100
AcDbCircle
 10
33.6115485839
 20
132.2837219014
 30
0.0
 40
0.8510000000000205
100
AcDbArc
 50
37.2411038472
 51
52.7588961528
  0
LINE
  5
111
330
1F
100
AcDbEntity
  8
0
  6
Continuous
 62
     7
370
    30
100
AcDbLine
 10
34.1265485839
 20
133.3717431129
 30
0.0
 11
33.0965485839
 21
133.3717431129
 31
0.0
  0
LINE
  5
112
330
1F
100
AcDbEntity
  8
0
  6
Continuous
 62
     7
370
    30
100
AcDbLine
 10
33.0965485839
 20
131.19570069
 30
0.0
 11
34.1265485839
 21
131.19570069
 31
0.0
  0
LINE
  5
113
330
1F
100
AcDbEntity
  8
0
  6
Continuous
 62
     7
370
    30
100
AcDbLine
 10
32.5235273724
 20
132.7987219014
 30
0.0
 11
32.5235273724
 21
131.7687219014
 31
0.0
  0
LINE
  5
114
330
1F
100
AcDbEntity
  8
0
  6
Continuous
 62
     7
370
    30
100
AcDbLine
 10
34.6995697954
 20
131.7687219014
 30
0.0
 11
34.6995697954
 21
132.7987219014
 31
0.0
  0
CIRCLE
  5
115
330
1F
100
AcDbEntity
  8
0
  6
Continuous
 62
     7
370
    30
100
AcDbCircle
 10
33.6115485839
 20
132.2837219014
 30
0.0
 40
4.150000000000006
  0
ARC
  5
116
330
1F
100
AcDbEntity
  8
0
  6
Continuous
 62
     7
370
    30
100
AcDbCircle
 10
33.6115485839
 20
132.2837219014
 30
0.0
 40
0.8510000000000078
100
AcDbArc
 50
142.7588961528
 51
217.2411038472
  0
ARC
  5
117
330
1F
100
AcDbEntity
  8
0
  6
Continuous
 62
     7
370
    30
100
AcDbCircle
 10
33.6115485839
 20
132.2837219014
 30
0.0
 40
0.8510000000000162
100
AcDbArc
 50
232.7588961528
 51
307.2411038472
  0
ARC
  5
118
330
1F
100
AcDbEntity
  8
0
  6
Continuous
 62
     7
370
    30
100
AcDbCircle
 10
33.6115485839
 20
132.2837219014
 30
0.0
 40
0.8510000000000205
100
AcDbArc
 50
52.7588961528
 51
127.2411038472
  0
ARC
  5
119
330
1F
100
AcDbEntity
  8
0
  6
Continuous
 62
     7
370
    30
100
AcDbCircle
 10
33.6115485839
 20
132.2837219014
 30
0.0
 40
0.8510000000000134
100
AcDbArc
 50
322.7588961528
 51
37.2411038472
  0
LINE
  5
11A
330
1F
100
AcDbEntity
  8
0
  6
Continuous
 62
     7
370
    30
100
AcDbLine
 10
38.4930286195
 20
133.3659199711
 30
0.0
 11
38.3021659453
 21
133.323606735
 31
0.0
  0
SPLINE
  5
11B
330
1F
100
AcDbEntity
  8
0
  6
Continuous
 62
     7
370
    30
100
AcDbSpline
210
0.0
220
0.0
230
1.0
 70
     8
 71
     3
 72
    10
 73
     6
 74
     0
 42
0.000000001
 43
0.00000001
 40
0.0
 40
0.0
 40
0.0
 40
0.0
 40
0.3322832317195827
 40
0.6742005003800576
 40
1.0
 40
1.0
 40
1.0
 40
1.0
 10
7.06683034415129
 20
129.2743303555986
 30
0.0
 10
7.145514566961043
 20
127.9532287260101
 30
0.0
 10
7.305164339583722
 20
125.2727221740784
 30
0.0
 10
8.340942771012164
 20
121.3926530747278
 30
0.0
 10
9.53092146533285
 20
119.014171744427
 30
0.0
 10
10.11154858387371
 20
117.8536377215015
 30
0.0
  0
LINE
  5
11C
330
1F
100
AcDbEntity
  8
0
  6
Continuous
 62
     7
370
    30
100
AcDbLine
 10
7.0656794122
 20
129.501623144
 30
0.0
 11
7.0668303441
 21
129.2743303556
 31
0.0
  0
LINE
  5
11D
330
1F
100
AcDbEntity
  8
0
  6
Continuous
 62
     7
370
    30
100
AcDbLine
 10
7.0656794122
 20
131.2837219014
 30
0.0
 11
7.0656794122
 21
129.501623144
 31
0.0
  0
ARC
  5
11E
330
1F
100
AcDbEntity
  8
0
  6
Continuous
 62
     7
370
    30
100
AcDbCircle
 10
8.0609714744
 20
131.288430053
 30
0.0
 40
0.9953031978972968
100
AcDbArc
 50
90.2736199531
 51
180.2710311993
  0
LINE
  5
11F
330
1F
100
AcDbEntity
  8
0
  6
Continuous
 62
     7
370
    30
100
AcDbLine
 10
8.0562183533
 20
132.2837219014
 30
0.0
 11
10.1115485839
 21
132.2837219014
 31
0.0
  0
LINE
  5
120
330
1F
100
AcDbEntity
  8
0
  6
Continuous
 62
     7
370
    30
100
AcDbLine
 10
7.057282917
 20
129.2743536539
 30
0.0
 11
7.0668303442
 21
129.2743303556
 31
0.0
  0
LINE
  5
121
330
1F
100
AcDbEntity
  8
0
  6
Continuous
 62
     7
370
    30
100
AcDbLine
 10
45.1089678657
 20
86.2837219014
 30
0.0
 11
45.1089678657
 21
222.2837219014
 31
0.0
  0
LINE
  5
122
330
1F
100
AcDbEntity
  8
0
  6
Continuous
 62
     7
370
    30
100
AcDbLine
 10
44.1115485839
 20
86.3555186712
 30
0.0
 11
44.1115485839
 21
222.2119251317
 31
0.0
  0
LINE
  5
123
330
1F
100
AcDbEntity
  8
0
  6
Continuous
 62
     7
370
    30
100
AcDbLine
 10
27.6115485839
 20
122.7627494674
 30
0.0
 11
27.6115485839
 21
141.2727211929
 31
0.0
  0
LINE
  5
124
330
1F
100
AcDbEntity
  8
0
  6
Continuous
 62
     7
370
    30
100
AcDbLine
 10
39.909777145
 20
122.7627494674
 30
0.0
 11
27.6115485839
 21
122.7627494674
 31
0.0
  0
SPLINE
  5
125
330
1F
100
AcDbEntity
  8
0
  6
Continuous
 62
     7
370
    30
100
AcDbSpline
210
0.0
220
0.0
230
1.0
 70
     8
 71
     3
 72
    46
 73
    42
 74
     0
 42
0.000000001
 43
0.00000001
 40
0.0
 40
0.0
 40
0.0
 40
0.0
 40
0.1249999999999999
 40
0.1874999999999999
 40
0.2187499999999999
 40
0.2187499999999999
 40
0.2343749999999998
 40
0.2343749999999998
 40
0.2499999999999997
 40
0.2499999999999997
 40
0.2812499999999997
 40
0.2812499999999997
 40
0.3124999999999996
 40
0.3124999999999996
 40
0.3437499999999996
 40
0.3437499999999996
 40
0.3749999999999995
 40
0.3749999999999995
 40
0.4062499999999994
 40
0.4062499999999994
 40
0.4374999999999994
 40
0.4374999999999994
 40
0.4687499999999993
 40
0.4687499999999993
 40
0.4999999999999993
 40
0.4999999999999993
 40
0.5312499999999993
 40
0.5312499999999993
 40
0.5624999999999993
 40
0.5624999999999993
 40
0.5937499999999992
 40
0.5937499999999992
 40
0.6093749999999993
 40
0.6093749999999993
 40
0.6249999999999994
 40
0.6249999999999994
 40
0.7499999999999997
 40
0.7499999999999997
 40
0.8749999999999999
 40
0.8749999999999999
 40
1.0
 40
1.0
 40
1.0
 40
1.0
 10
27.61154858387361
 20
141.272721192866
 30
0.0
 10
28.90979244552332
 20
141.272721192866
 30
0.0
 10
30.85715823799788
 20
141.2727211928659
 30
0.0
 10
33.12908499588486
 20
141.272721192866
 30
0.0
 10
34.10276789212214
 20
141.272721192866
 30
0.0
 10
34.58960934024078
 20
141.272721192866
 30
0.0
 10
34.75189927675964
 20
141.2732600975398
 30
0.0
 10
35.07617650774675
 20
141.2570818755192
 30
0.0
 10
35.23820148953613
 20
141.2425136655307
 30
0.0
 10
35.72393270874934
 20
141.1792233719176
 30
0.0
 10
36.04988631216987
 20
141.1098758454762
 30
0.0
 10
36.67567003024516
 20
140.9241217984065
 30
0.0
 10
36.97816524473939
 20
140.8077582325954
 30
0.0
 10
37.56301515855083
 20
140.5297852564207
 30
0.0
 10
37.84735853733177
 20
140.3668374438794
 30
0.0
 10
38.38641257410225
 20
140.0019093490377
 30
0.0
 10
38.63813062143065
 20
139.8023045481261
 30
0.0
 10
39.10889000071104
 20
139.3720275449761
 30
0.0
 10
39.32797857420791
 20
139.1414004305551
 30
0.0
 10
39.73434291864667
 20
138.650291961754
 30
0.0
 10
39.9220196680714
 20
138.3885122982242
 30
0.0
 10
40.25647432881257
 20
137.8516398239254
 30
0.0
 10
40.40475906265785
 20
137.5749003225426
 30
0.0
 10
40.66577937901005
 20
137.0062081130621
 30
0.0
 10
40.77900218943746
 20
136.7128501928768
 30
0.0
 10
40.96839707566205
 20
136.1194053612723
 30
0.0
 10
41.04452132432269
 20
135.8198362375406
 30
0.0
 10
41.16224368161107
 20
135.2156907832156
 30
0.0
 10
41.20393602686948
 20
134.9096392704753
 30
0.0
 10
41.25330875520136
 20
134.3020464246731
 30
0.0
 10
41.26122397258903
 20
134.0003343640311
 30
0.0
 10
41.24946600614421
 20
133.5507833099402
 30
0.0
 10
41.24159420018449
 20
133.4014365487767
 30
0.0
 10
41.21805502195715
 20
133.1037396622585
 30
0.0
 10
41.20260395759548
 20
132.9553785074218
 30
0.0
 10
41.07339096650698
 20
131.6223820401333
 30
0.0
 10
40.94891354997372
 20
130.4558111511714
 30
0.0
 10
40.68206027476892
 20
128.1713462996529
 30
0.0
 10
40.53981148516413
 20
127.0541895168912
 30
0.0
 10
40.23778162834586
 20
124.8697088191457
 30
0.0
 10
40.07786319886453
 20
123.8016644139537
 30
0.0
 10
39.9097771450262
 20
122.7627494673507
 30
0.0
  0
SPLINE
  5
126
330
1F
100
AcDbEntity
  8
0
  6
Continuous
 62
     7
370
    30
100
AcDbSpline
210
0.0
220
0.0
230
1.0
 70
     8
 71
     3
 72
    12
 73
     8
 74
     0
 42
0.000000001
 43
0.00000001
 40
0.0
 40
0.0
 40
0.0
 40
0.0
 40
0.2499999999999994
 40
0.2499999999999994
 40
0.4999999999999989
 40
0.4999999999999989
 40
1.0
 40
1.0
 40
1.0
 40
1.0
 10
38.51154858387361
 20
101.7480197551926
 30
0.0
 10
38.64410181216063
 20
101.7480197551926
 30
0.0
 10
38.77419431558181
 20
101.7445086829197
 30
0.0
 10
39.01665886181782
 20
101.7312274263008
 30
0.0
 10
39.12759700593622
 20
101.7214712145563
 30
0.0
 10
39.40366936563702
 20
101.6861600977276
 30
0.0
 10
39.51154858387362
 20
101.6544455160624
 30
0.0
 10
39.51154858387361
 20
101.624439718721
 30
0.0
  0
LINE
  5
127
330
1F
100
AcDbEntity
  8
0
  6
Continuous
 62
     7
370
    30
100
AcDbLine
 10
38.5115485839
 20
101.7480197552
 30
0.0
 11
29.5115485839
 21
101.7480197552
 31
0.0
  0
SPLINE
  5
128
330
1F
100
AcDbEntity
  8
0
  6
Continuous
 62
     7
370
    30
100
AcDbSpline
210
0.0
220
0.0
230
1.0
 70
     8
 71
     3
 72
    12
 73
     8
 74
     0
 42
0.000000001
 43
0.00000001
 40
0.0
 40
0.0
 40
0.0
 40
0.0
 40
0.2499999999999997
 40
0.2499999999999997
 40
0.4999999999999993
 40
0.4999999999999993
 40
1.0
 40
1.0
 40
1.0
 40
1.0
 10
28.51154858387362
 20
101.624439718721
 30
0.0
 10
28.51154858387362
 20
101.6394447059058
 30
0.0
 10
28.53734627498621
 20
101.6546704070884
 30
0.0
 10
28.63714007708732
 20
101.6839846235993
 30
0.0
 10
28.71096505469639
 20
101.6978524638633
 30
0.0
 10
28.98700728463112
 20
101.7332067995709
 30
0.0
 10
29.24640670765374
 20
101.7480197551926
 30
0.0
 10
29.51154858387362
 20
101.7480197551926
 30
0.0
  0
LINE
  5
129
330
1F
100
AcDbEntity
  8
0
  6
Continuous
 62
     7
370
    30
100
AcDbLine
 10
28.5115485839
 20
101.6244397187
 30
0.0
 11
28.5115485839
 21
101.2837219014
 31
0.0
  0
LINE
  5
12A
330
1F
100
AcDbEntity
  8
0
  6
Continuous
 62
     7
370
    30
100
AcDbLine
 10
39.5115485839
 20
101.4348808546
 30
0.0
 11
39.5115485839
 21
101.6244397187
 31
0.0
  0
LINE
  5
12B
330
1F
100
AcDbEntity
  8
0
  6
Continuous
 62
     7
370
    30
100
AcDbLine
 10
10.1115485839
 20
207.2837219014
 30
0.0
 11
10.1115485839
 21
101.2837219014
 31
0.0
  0
SPLINE
  5
12C
330
1F
100
AcDbEntity
  8
0
  6
Continuous
 62
     7
370
    30
100
AcDbSpline
210
0.0
220
0.0
230
1.0
 70
     8
 71
     3
 72
    10
 73
     6
 74
     0
 42
0.000000001
 43
0.00000001
 40
0.0
 40
0.0
 40
0.0
 40
0.0
 40
0.5
 40
0.5
 40
1.0
 40
1.0
 40
1.0
 40
1.0
 10
38.88240314093152
 20
123.9522201252412
 30
0.0
 10
39.04023204166288
 20
123.7269430991681
 30
0.0
 10
39.20627136109758
 20
123.5157533249903
 30
0.0
 10
39.55199921516455
 20
123.1165530659911
 30
0.0
 10
39.73307485954572
 20
122.928029711618
 30
0.0
 10
39.9097771450262
 20
122.7627494673507
 30
0.0
  0
SPLINE
  5
12D
330
1F
100
AcDbEntity
  8
0
  6
Continuous
 62
     7
370
    30
100
AcDbSpline
210
0.0
220
0.0
230
1.0
 70
     8
 71
     3
 72
    12
 73
     8
 74
     0
 42
0.000000001
 43
0.00000001
 40
0.0
 40
0.0
 40
0.0
 40
0.0
 40
0.25
 40
0.25
 40
0.5
 40
0.5
 40
1.0
 40
1.0
 40
1.0
 40
1.0
 10
38.88240314093152
 20
123.9522201252412
 30
0.0
 10
38.76938967125115
 20
124.1135298615304
 30
0.0
 10
38.68090339505539
 20
124.2857142339287
 30
0.0
 10
38.53551857130878
 20
124.6440880484347
 30
0.0
 10
38.47875628610772
 20
124.8317261064856
 30
0.0
 10
38.34845399790427
 20
125.4016102334603
 30
0.0
 10
38.31332002272103
 20
125.7877695736475
 30
0.0
 10
38.31332002272103
 20
126.1781643342494
 30
0.0
  0
SPLINE
  5
12E
330
1F
100
AcDbEntity
  8
0
  6
Continuous
 62
     7
370
    30
100
AcDbSpline
210
0.0
220
0.0
230
1.0
 70
     8
 71
     3
 72
    19
 73
    15
 74
     0
 42
0.000000001
 43
0.00000001
 40
0.0
 40
0.0
 40
0.0
 40
0.0
 40
0.500000000000001
 40
0.500000000000001
 40
0.750000000000002
 40
0.750000000000002
 40
0.8750000000000024
 40
0.9375000000000022
 40
0.968750000000002
 40
0.9843750000000016
 40
0.9921875000000008
 40
0.9960937500000004
 40
0.9960937500000004
 40
1.0
 40
1.0
 40
1.0
 40
1.0
 10
38.31332002272103
 20
126.1781643342494
 30
0.0
 10
38.49710338429843
 20
127.4025978129207
 30
0.0
 10
38.66863025107364
 20
128.6600739852241
 30
0.0
 10
38.90749197310659
 20
130.5959704628652
 30
0.0
 10
38.98408022934468
 20
131.2499742772362
 30
0.0
 10
39.09407294174121
 20
132.2413836894216
 30
0.0
 10
39.14785492651492
 20
132.7397415855907
 30
0.0
 10
39.20847297345694
 20
133.3258075708772
 30
0.0
 10
39.23824945270989
 20
133.6200040798928
 30
0.0
 10
39.25300446628667
 20
133.7673934101174
 30
0.0
 10
39.26034865416155
 20
133.8411608712532
 30
0.0
 10
39.26348902209313
 20
133.8727910996401
 30
0.0
 10
39.26558101363215
 20
133.8938813860625
 30
0.0
 10
39.26657048549414
 20
133.9052885931766
 30
0.0
 10
39.26767061582147
 20
133.9149767865693
 30
0.0
  0
SPLINE
  5
12F
330
1F
100
AcDbEntity
  8
0
  6
Continuous
 62
     7
370
    30
100
AcDbSpline
210
0.0
220
0.0
230
1.0
 70
     8
 71
     3
 72
    28
 73
    24
 74
     0
 42
0.000000001
 43
0.00000001
 40
0.0
 40
0.0
 40
0.0
 40
0.0
 40
0.1250000000000002
 40
0.1250000000000002
 40
0.2500000000000004
 40
0.2500000000000004
 40
0.3125000000000005
 40
0.3125000000000005
 40
0.3750000000000006
 40
0.3750000000000006
 40
0.4375000000000007
 40
0.4375000000000007
 40
0.5000000000000008
 40
0.5000000000000008
 40
0.5312500000000006
 40
0.5312500000000006
 40
0.5625000000000004
 40
0.5625000000000004
 40
0.5937500000000002
 40
0.5937500000000002
 40
0.6250000000000001
 40
0.7499999999999999
 40
1.0
 40
1.0
 40
1.0
 40
1.0
 10
39.26767061582147
 20
133.9149767865693
 30
0.0
 10
39.3537987031113
 20
134.4793220685886
 30
0.0
 10
39.36115915832985
 20
135.0713887625574
 30
0.0
 10
39.18741761066478
 20
136.2532823823973
 30
0.0
 10
39.00316239278266
 20
136.8486911070364
 30
0.0
 10
38.56178409365652
 20
137.6814781106153
 30
0.0
 10
38.38464331760941
 20
137.9532333950241
 30
0.0
 10
37.98058016090784
 20
138.4545031470354
 30
0.0
 10
37.75350684640132
 20
138.6856423732448
 30
0.0
 10
37.24614963461977
 20
139.1040537280239
 30
0.0
 10
36.96149595599929
 20
139.2923898644808
 30
0.0
 10
36.36549552391001
 20
139.5980432606276
 30
0.0
 10
36.05115039608552
 20
139.718036843521
 30
0.0
 10
35.55378840178458
 20
139.8451982200093
 30
0.0
 10
35.38389527080204
 20
139.8784396018644
 30
0.0
 10
35.04661694790146
 20
139.9247092821411
 30
0.0
 10
34.87783278537321
 20
139.9381409614063
 30
0.0
 10
34.53997487525292
 20
139.9456362384556
 30
0.0
 10
34.37094993743497
 20
139.9429693967551
 30
0.0
 10
34.03297986975691
 20
139.9429693967551
 30
0.0
 10
33.18805470056176
 20
139.9429693967551
 30
0.0
 10
30.99124926065434
 20
139.9429693967551
 30
0.0
 10
28.96342885458586
 20
139.9429693967552
 30
0.0
 10
27.6115485838736
 20
139.9429693967552
 30
0.0
  0
SPLINE
  5
130
330
1F
100
AcDbEntity
  8
0
  6
Continuous
 62
     7
370
    30
100
AcDbSpline
210
0.0
220
0.0
230
1.0
 70
     8
 71
     3
 72
    24
 73
    20
 74
     0
 42
0.000000001
 43
0.00000001
 40
0.0
 40
0.0
 40
0.0
 40
0.0
 40
0.1249999999999998
 40
0.1249999999999998
 40
0.2499999999999996
 40
0.2499999999999996
 40
0.3749999999999993
 40
0.3749999999999993
 40
0.4999999999999991
 40
0.4999999999999991
 40
0.6249999999999989
 40
0.6249999999999989
 40
0.7499999999999987
 40
0.7499999999999987
 40
0.8749999999999984
 40
0.8749999999999984
 40
0.9374999999999992
 40
0.9374999999999992
 40
1.0
 40
1.0
 40
1.0
 40
1.0
 10
34.61154858352572
 20
136.6398086311206
 30
0.0
 10
34.85945118803421
 20
136.6398086310093
 30
0.0
 10
35.10642408280991
 20
136.6158069453527
 30
0.0
 10
35.5983541570336
 20
136.5157652186898
 30
0.0
 10
35.83509833455293
 20
136.4414126152323
 30
0.0
 10
36.29086766655003
 20
136.247737503295
 30
0.0
 10
36.51213559409933
 20
136.1269326348373
 30
0.0
 10
36.92317234036161
 20
135.8445874706093
 30
0.0
 10
37.1130419760864
 20
135.6837948856255
 30
0.0
 10
37.46093766395322
 20
135.3222850121467
 30
0.0
 10
37.6139384847196
 20
135.1266625907298
 30
0.0
 10
37.87828978684957
 20
134.7080425701671
 30
0.0
 10
37.99078092948253
 20
134.4820755831288
 30
0.0
 10
38.16638271200463
 20
134.01654928161
 30
0.0
 10
38.22987078014623
 20
133.7774181480834
 30
0.0
 10
38.2880648592249
 20
133.4090204973162
 30
0.0
 10
38.30127199734328
 20
133.28404509867
 30
0.0
 10
38.3147282883665
 20
133.0339042113059
 30
0.0
 10
38.31332002272102
 20
132.9088110941959
 30
0.0
 10
38.31332002272103
 20
132.7837219014463
 30
0.0
  0
LINE
  5
131
330
1F
100
AcDbEntity
  8
0
  6
Continuous
 62
     7
370
    30
100
AcDbLine
 10
27.6115485839
 20
136.6398086311
 30
0.0
 11
34.6115485835
 21
136.6398086311
 31
0.0
  0
LINE
  5
132
330
1F
100
AcDbEntity
  8
0
  6
Continuous
 62
     7
370
    30
100
AcDbLine
 10
38.3133200227
 20
132.7837219014
 30
0.0
 11
38.3133200227
 21
126.1781643342
 31
0.0
  0
LINE
  5
133
330
1F
100
AcDbEntity
  8
0
  6
Continuous
 62
     7
370
    30
100
AcDbLine
 10
27.6115485839
 20
123.9522201252
 30
0.0
 11
38.8824031409
 21
123.9522201252
 31
0.0
  0
SPLINE
  5
134
330
1F
100
AcDbEntity
  8
0
  6
Continuous
 62
     7
370
    30
100
AcDbSpline
210
0.0
220
0.0
230
1.0
 70
     8
 71
     3
 72
    10
 73
     6
 74
     0
 42
0.000000001
 43
0.00000001
 40
0.0
 40
0.0
 40
0.0
 40
0.0
 40
0.296765217572759
 40
0.7232647059575434
 40
0.9999999999999999
 40
0.9999999999999999
 40
0.9999999999999999
 40
0.9999999999999999
 10
38.808897121064
 20
101.7413446633518
 30
0.0
 10
38.86439888402
 20
101.6859714288981
 30
0.0
 10
38.99966563324627
 20
101.5510179243646
 30
0.0
 10
39.25478522737817
 20
101.4527372801273
 30
0.0
 10
39.4390407750484
 20
101.4399233587068
 30
0.0
 10
39.51154858387361
 20
101.4348808545521
 30
0.0
  0
SPLINE
  5
135
330
1F
100
AcDbEntity
  8
0
  6
Continuous
 62
     8
370
    30
100
AcDbSpline
210
0.0
220
0.0
230
1.0
 70
     8
 71
     3
 72
    11
 73
     7
 74
     0
 42
0.000000001
 43
0.00000001
 40
0.0
 40
0.0
 40
0.0
 40
0.0
 40
0.2688595810895474
 40
0.5391490705678706
 40
0.8468429220880941
 40
1.0
 40
1.0
 40
1.0
 40
1.0
 10
7.065679412187619
 20
129.5016231440227
 30
0.0
 10
7.230542334865811
 20
129.5806893859394
 30
0.0
 10
7.561144990619561
 20
129.7392423773184
 30
0.0
 10
8.362945437107642
 20
130.1232042940143
 30
0.0
 10
9.195884210933817
 20
130.5217731323975
 30
0.0
 10
9.883146872446302
 20
130.8494545674684
 30
0.0
 10
10.11154858387371
 20
130.9583547082217
 30
0.0
  0
LINE
  5
136
330
1F
100
AcDbEntity
  8
0
  6
Continuous
 62
     8
370
    30
100
AcDbLine
 10
10.1115485839
 20
131.2837219014
 30
0.0
 11
7.0656794122
 21
131.2837219014
 31
0.0
  0
LINE
  5
137
330
1F
100
AcDbEntity
  8
0
  6
Continuous
 62
     8
370
    30
100
AcDbLine
 10
7.0562184358
 20
129.501623144
 30
0.0
 11
7.0656794122
 21
129.501623144
 31
0.0
  0
LINE
  5
138
330
1F
100
AcDbEntity
  8
0
  6
Continuous
 62
     8
370
    30
100
AcDbLine
 10
7.0562183533
 20
131.2837219014
 30
0.0
 11
7.0656794122
 21
131.2837219014
 31
0.0
  0
LINE
  5
139
330
1F
100
AcDbEntity
  8
0
  6
Continuous
 62
     8
370
    30
100
AcDbLine
 10
46.1063871476
 20
100.140128362
 30
0.0
 11
46.1063871476
 21
208.4273154409
 31
0.0
  0
LINE
  5
13A
330
1F
100
AcDbEntity
  8
0
  6
Continuous
 62
     8
370
    30
100
AcDbLine
 10
39.5115485839
 20
101.4348808546
 30
0.0
 11
39.5115485839
 21
101.2837219014
 31
0.0
  0
LINE
  5
13B
330
1F
100
AcDbEntity
  8
0
  6
Continuous
 62
     7
370
    30
100
AcDbLine
 10
201.1625574626
 20
250.9110906647
 30
0.0
 11
201.0907606929
 21
251.9085099465
 31
0.0
  0
LINE
  5
13C
330
1F
100
AcDbEntity
  8
0
  6
Continuous
 62
     7
370
    30
100
AcDbLine
 10
65.2343542324
 20
251.9085099465
 30
0.0
 11
65.1625574626
 21
250.9110906647
 31
0.0
  0
LINE
  5
13D
330
1F
100
AcDbEntity
  8
0
  6
Continuous
 62
     7
370
    30
100
AcDbLine
 10
65.1625574626
 20
250.9110906647
 30
0.0
 11
79.0189639232
 21
249.9136713828
 31
0.0
  0
LINE
  5
13E
330
1F
100
AcDbEntity
  8
0
  6
Continuous
 62
     7
370
    30
100
AcDbLine
 10
187.3061510021
 20
249.9136713828
 30
0.0
 11
201.1625574626
 21
250.9110906647
 31
0.0
  0
ARC
  5
13F
330
1F
100
AcDbEntity
  8
0
  6
Continuous
 62
     7
370
    30
100
AcDbCircle
 10
79.1625574626
 20
251.9085099465
 30
0.0
 40
2.000000000000028
100
AcDbArc
 50
265.8828057298
 51
270.0
  0
ARC
  5
140
330
1F
100
AcDbEntity
  8
0
  6
Continuous
 62
     7
370
    30
100
AcDbCircle
 10
187.1625574626
 20
251.9085099465
 30
0.0
 40
2.000000000000028
100
AcDbArc
 50
270.0
 51
274.1171942702
  0
LINE
  5
141
330
1F
100
AcDbEntity
  8
0
  6
Continuous
 62
     7
370
    30
100
AcDbLine
 10
79.1625574626
 20
249.9085099465
 30
0.0
 11
187.1625574626
 21
249.9085099465
 31
0.0
  0
LINE
  5
142
330
1F
100
AcDbEntity
  8
0
  6
Continuous
 62
     7
370
    30
100
AcDbLine
 10
186.1625574626
 20
251.9085099465
 30
0.0
 11
186.1625574626
 21
285.9085099465
 31
0.0
  0
LINE
  5
143
330
1F
100
AcDbEntity
  8
0
  6
Continuous
 62
     7
370
    30
100
AcDbLine
 10
80.1625574626
 20
285.9085099465
 30
0.0
 11
80.1625574626
 21
251.9085099465
 31
0.0
  0
LINE
  5
144
330
1F
100
AcDbEntity
  8
0
  6
Continuous
 62
     7
370
    30
100
AcDbLine
 10
139.6124587889
 20
287.9638401771
 30
0.0
 11
139.749690732
 21
288.9543791182
 31
0.0
  0
ARC
  5
145
330
1F
100
AcDbEntity
  8
0
  6
Continuous
 62
     7
370
    30
100
AcDbCircle
 10
133.1625574626
 20
241.4085099465
 30
0.0
 40
48.00000000000006
100
AcDbArc
 50
67.9846304596
 51
82.1122977815
  0
LINE
  5
146
330
1F
100
AcDbEntity
  8
0
  6
Continuous
 62
     7
370
    30
100
AcDbLine
 10
139.6124587889
 20
287.9638401771
 30
0.0
 11
138.6162640908
 21
288.0509959199
 31
0.0
  0
ARC
  5
147
330
1F
100
AcDbEntity
  8
0
  6
Continuous
 62
     7
370
    30
100
AcDbCircle
 10
139.6124587889
 20
287.9638401771
 30
0.0
 40
1.000000000004773
100
AcDbArc
 50
82.1122977815
 51
175.0
  0
LINE
  5
148
330
1F
100
AcDbEntity
  8
0
  6
Continuous
 62
     7
370
    30
100
AcDbLine
 10
138.4288208564
 20
285.9085099465
 30
0.0
 11
138.6162640908
 21
288.0509959199
 31
0.0
  0
ARC
  5
149
330
1F
100
AcDbEntity
  8
0
  6
Continuous
 62
     7
370
    30
100
AcDbCircle
 10
133.1625574626
 20
241.4085099465
 30
0.0
 40
48.00000000000008
100
AcDbArc
 50
97.8877022185
 51
112.0153695404
  0
LINE
  5
14A
330
1F
100
AcDbEntity
  8
0
  6
Continuous
 62
     7
370
    30
100
AcDbLine
 10
126.5754241932
 20
288.9543791182
 30
0.0
 11
126.7126561363
 21
287.9638401771
 31
0.0
  0
LINE
  5
14B
330
1F
100
AcDbEntity
  8
0
  6
Continuous
 62
     7
370
    30
100
AcDbLine
 10
127.7088508344
 20
288.0509959199
 30
0.0
 11
126.7126561363
 21
287.9638401771
 31
0.0
  0
ARC
  5
14C
330
1F
100
AcDbEntity
  8
0
  6
Continuous
 62
     7
370
    30
100
AcDbCircle
 10
126.7126561363
 20
287.9638401771
 30
0.0
 40
1.000000000000226
100
AcDbArc
 50
5.0
 51
97.8877022187
  0
LINE
  5
14D
330
1F
100
AcDbEntity
  8
0
  6
Continuous
 62
     7
370
    30
100
AcDbLine
 10
127.7088508344
 20
288.0509959199
 30
0.0
 11
127.8962940689
 21
285.9085099465
 31
0.0
  0
LINE
  5
14E
330
1F
100
AcDbEntity
  8
0
  6
Continuous
 62
     7
370
    30
100
AcDbLine
 10
133.1625574626
 20
250.9110906647
 30
0.0
 11
201.1625574626
 21
250.9110906647
 31
0.0
  0
LINE
  5
14F
330
1F
100
AcDbEntity
  8
0
  6
Continuous
 62
     7
370
    30
100
AcDbLine
 10
65.1625574626
 20
250.9110906647
 30
0.0
 11
133.1625574626
 21
250.9110906647
 31
0.0
  0
LINE
  5
150
330
1F
100
AcDbEntity
  8
0
  6
Continuous
 62
     7
370
    30
100
AcDbLine
 10
133.1625574626
 20
251.9085099465
 30
0.0
 11
201.0907606929
 21
251.9085099465
 31
0.0
  0
LINE
  5
151
330
1F
100
AcDbEntity
  8
0
  6
Continuous
 62
     7
370
    30
100
AcDbLine
 10
65.2343542324
 20
251.9085099465
 30
0.0
 11
133.1625574626
 21
251.9085099465
 31
0.0
  0
LINE
  5
152
330
1F
100
AcDbEntity
  8
0
  6
Continuous
 62
     7
370
    30
100
AcDbLine
 10
186.1625574626
 20
285.9085099465
 30
0.0
 11
80.1625574626
 21
285.9085099465
 31
0.0
  0
ARC
  5
153
330
1F
100
AcDbEntity
  8
0
  6
Continuous
 62
     8
370
    30
100
AcDbCircle
 10
133.1625574626
 20
241.4085099465
 30
0.0
 40
47.00000000000012
100
AcDbArc
 50
71.2283338108
 51
82.1122977815
  0
LINE
  5
154
330
1F
100
AcDbEntity
  8
0
  6
Continuous
 62
     8
370
    30
100
AcDbLine
 10
139.6124587889
 20
287.9638401771
 30
0.0
 11
139.4326406939
 21
285.9085099465
 31
0.0
  0
ARC
  5
155
330
1F
100
AcDbEntity
  8
0
  6
Continuous
 62
     8
370
    30
100
AcDbCircle
 10
133.1625574626
 20
241.4085099465
 30
0.0
 40
47.00000000000009
100
AcDbArc
 50
97.8877022185
 51
108.7716661892
  0
LINE
  5
156
330
1F
100
AcDbEntity
  8
0
  6
Continuous
 62
     8
370
    30
100
AcDbLine
 10
126.8924742313
 20
285.9085099465
 30
0.0
 11
126.7126561363
 21
287.9638401771
 31
0.0
  0
LINE
  5
157
330
1F
100
AcDbEntity
  8
0
  6
Continuous
 62
     8
370
    30
100
AcDbLine
 10
133.1625574626
 20
249.9136713828
 30
0.0
 11
187.3061510021
 21
249.9136713828
 31
0.0
  0
LINE
  5
158
330
1F
100
AcDbEntity
  8
0
  6
Continuous
 62
     8
370
    30
100
AcDbLine
 10
79.0189639232
 20
249.9136713828
 30
0.0
 11
133.1625574626
 21
249.9136713828
 31
0.0
  0
LINE
  5
159
330
1F
100
AcDbEntity
  8
0
  6
Continuous
 62
     7
370
    30
100
AcDbLine
 10
90.1525574626
 20
34.8158671791
 30
0.0
 11
90.1625574626
 21
34.8158671791
 31
0.0
  0
LINE
  5
15A
330
1F
100
AcDbEntity
  8
0
  6
Continuous
 62
     7
370
    30
100
AcDbLine
 10
90.1625574626
 20
43.1158671791
 30
0.0
 11
90.1525574626
 21
43.1158671791
 31
0.0
  0
LINE
  5
15B
330
1F
100
AcDbEntity
  8
0
  6
Continuous
 62
     7
370
    30
100
AcDbLine
 10
90.1525574626
 20
43.1158671791
 30
0.0
 11
88.4625574626
 21
42.9680113378
 31
0.0
  0
LINE
  5
15C
330
1F
100
AcDbEntity
  8
0
  6
Continuous
 62
     7
370
    30
100
AcDbLine
 10
88.4625574626
 20
34.9637230205
 30
0.0
 11
90.1525574626
 21
34.8158671791
 31
0.0
  0
ARC
  5
15D
330
1F
100
AcDbEntity
  8
0
  6
Continuous
 62
     7
370
    30
100
AcDbCircle
 10
98.0732811292
 20
38.9658671791
 30
0.0
 40
10.41072366659117
100
AcDbArc
 50
191.3481615021
 51
202.6080584141
  0
ARC
  5
15E
330
1F
100
AcDbEntity
  8
0
  6
Continuous
 62
     7
370
    30
100
AcDbCircle
 10
98.0732811292
 20
38.9658671791
 30
0.0
 40
10.41072366659117
100
AcDbArc
 50
157.3919415859
 51
168.6518384979
  0
LINE
  5
15F
330
1F
100
AcDbEntity
  8
0
  6
Continuous
 62
     7
370
    30
100
AcDbLine
 10
176.1725574626
 20
34.8158671791
 30
0.0
 11
177.8625574626
 21
34.9637230205
 31
0.0
  0
LINE
  5
160
330
1F
100
AcDbEntity
  8
0
  6
Continuous
 62
     7
370
    30
100
AcDbLine
 10
177.8625574626
 20
42.9680113378
 30
0.0
 11
176.1725574626
 21
43.1158671791
 31
0.0
  0
LINE
  5
161
330
1F
100
AcDbEntity
  8
0
  6
Continuous
 62
     7
370
    30
100
AcDbLine
 10
176.1725574626
 20
43.1158671791
 30
0.0
 11
176.1625574626
 21
43.1158671791
 31
0.0
  0
LINE
  5
162
330
1F
100
AcDbEntity
  8
0
  6
Continuous
 62
     7
370
    30
100
AcDbLine
 10
176.1625574626
 20
34.8158671791
 30
0.0
 11
176.1725574626
 21
34.8158671791
 31
0.0
  0
ARC
  5
163
330
1F
100
AcDbEntity
  8
0
  6
Continuous
 62
     7
370
    30
100
AcDbCircle
 10
168.251833796
 20
38.9658671791
 30
0.0
 40
10.41072366659119
100
AcDbArc
 50
337.3919415859
 51
348.6518384979
  0
ARC
  5
164
330
1F
100
AcDbEntity
  8
0
  6
Continuous
 62
     7
370
    30
100
AcDbCircle
 10
168.251833796
 20
38.9658671791
 30
0.0
 40
10.41072366659119
100
AcDbArc
 50
11.3481615021
 51
22.6080584141
  0
LINE
  5
165
330
1F
100
AcDbEntity
  8
0
  6
Continuous
 62
     7
370
    30
100
AcDbLine
 10
201.1625574626
 20
50.463286461
 30
0.0
 11
187.3061510021
 21
51.4607057429
 31
0.0
  0
LINE
  5
166
330
1F
100
AcDbEntity
  8
0
  6
Continuous
 62
     7
370
    30
100
AcDbLine
 10
79.0189639232
 20
51.4607057429
 30
0.0
 11
65.1625574626
 21
50.463286461
 31
0.0
  0
LINE
  5
167
330
1F
100
AcDbEntity
  8
0
  6
Continuous
 62
     7
370
    30
100
AcDbLine
 10
65.1625574626
 20
50.463286461
 30
0.0
 11
65.2343542324
 21
49.4658671791
 31
0.0
  0
LINE
  5
168
330
1F
100
AcDbEntity
  8
0
  6
Continuous
 62
     7
370
    30
100
AcDbLine
 10
201.0907606929
 20
49.4658671791
 30
0.0
 11
201.1625574626
 21
50.463286461
 31
0.0
  0
ARC
  5
169
330
1F
100
AcDbEntity
  8
0
  6
Continuous
 62
     7
370
    30
100
AcDbCircle
 10
187.1625574626
 20
49.4658671791
 30
0.0
 40
2.000000000000011
100
AcDbArc
 50
85.8828057298
 51
90.0
  0
ARC
  5
16A
330
1F
100
AcDbEntity
  8
0
  6
Continuous
 62
     7
370
    30
100
AcDbCircle
 10
79.1625574626
 20
49.4658671791
 30
0.0
 40
2.000000000000011
100
AcDbArc
 50
90.0
 51
94.1171942702
  0
LINE
  5
16B
330
1F
100
AcDbEntity
  8
0
  6
Continuous
 62
     7
370
    30
100
AcDbLine
 10
187.1625574626
 20
51.4658671791
 30
0.0
 11
79.1625574626
 21
51.4658671791
 31
0.0
  0
LINE
  5
16C
330
1F
100
AcDbEntity
  8
0
  6
Continuous
 62
     7
370
    30
100
AcDbLine
 10
80.1625574626
 20
49.4658671791
 30
0.0
 11
80.1625574626
 21
15.4658671791
 31
0.0
  0
LINE
  5
16D
330
1F
100
AcDbEntity
  8
0
  6
Continuous
 62
     7
370
    30
100
AcDbLine
 10
186.1625574626
 20
15.4658671791
 30
0.0
 11
186.1625574626
 21
49.4658671791
 31
0.0
  0
LINE
  5
16E
330
1F
100
AcDbEntity
  8
0
  6
Continuous
 62
     7
370
    30
100
AcDbLine
 10
90.1525574626
 20
38.9658671791
 30
0.0
 11
90.1525574626
 21
43.1158671791
 31
0.0
  0
LINE
  5
16F
330
1F
100
AcDbEntity
  8
0
  6
Continuous
 62
     7
370
    30
100
AcDbLine
 10
90.1525574626
 20
34.8158671791
 30
0.0
 11
90.1525574626
 21
38.9658671791
 31
0.0
  0
LINE
  5
170
330
1F
100
AcDbEntity
  8
0
  6
Continuous
 62
     7
370
    30
100
AcDbLine
 10
88.4625574626
 20
38.9658671791
 30
0.0
 11
88.4625574626
 21
42.9680113378
 31
0.0
  0
LINE
  5
171
330
1F
100
AcDbEntity
  8
0
  6
Continuous
 62
     7
370
    30
100
AcDbLine
 10
88.4625574626
 20
34.9637230205
 30
0.0
 11
88.4625574626
 21
38.9658671791
 31
0.0
  0
LINE
  5
172
330
1F
100
AcDbEntity
  8
0
  6
Continuous
 62
     7
370
    30
100
AcDbLine
 10
87.8779092958
 20
36.9232376387
 30
0.0
 11
87.8660912293
 21
36.9173453683
 31
0.0
  0
ARC
  5
173
330
1F
100
AcDbEntity
  8
0
  6
Continuous
 62
     7
370
    30
100
AcDbCircle
 10
98.0732811292
 20
38.9658671791
 30
0.0
 40
10.39797779676997
100
AcDbArc
 50
184.7067864544
 51
191.3291420561
  0
LINE
  5
174
330
1F
100
AcDbEntity
  8
0
  6
Continuous
 62
     7
370
    30
100
AcDbLine
 10
87.7103686977
 20
38.1126449345
 30
0.0
 11
87.7103686977
 21
38.4508671791
 31
0.0
  0
LINE
  5
175
330
1F
100
AcDbEntity
  8
0
  6
Continuous
 62
     7
370
    30
100
AcDbLine
 10
87.7103686977
 20
38.4508671791
 30
0.0
 11
87.8779092958
 21
38.4508671791
 31
0.0
  0
ARC
  5
176
330
1F
100
AcDbEntity
  8
0
  6
Continuous
 62
     7
370
    30
100
AcDbCircle
 10
99.0929226488
 20
38.9658671791
 30
0.0
 40
11.22683167719526
100
AcDbArc
 50
177.3707911868
 51
182.6292088132
  0
LINE
  5
177
330
1F
100
AcDbEntity
  8
0
  6
Continuous
 62
     7
370
    30
100
AcDbLine
 10
87.8779092958
 20
39.4808671791
 30
0.0
 11
87.7103686977
 21
39.4808671791
 31
0.0
  0
LINE
  5
178
330
1F
100
AcDbEntity
  8
0
  6
Continuous
 62
     7
370
    30
100
AcDbLine
 10
87.7103686977
 20
39.4808671791
 30
0.0
 11
87.7103686977
 21
39.8190894238
 31
0.0
  0
ARC
  5
179
330
1F
100
AcDbEntity
  8
0
  6
Continuous
 62
     7
370
    30
100
AcDbCircle
 10
98.0732811292
 20
38.9658671791
 30
0.0
 40
10.39797779676998
100
AcDbArc
 50
168.6708579439
 51
175.2932135456
  0
LINE
  5
17A
330
1F
100
AcDbEntity
  8
0
  6
Continuous
 62
     7
370
    30
100
AcDbLine
 10
87.8660912293
 20
41.01438899
 30
0.0
 11
87.8779092958
 21
41.0084967196
 31
0.0
  0
LINE
  5
17B
330
1F
100
AcDbEntity
  8
0
  6
Continuous
 62
     7
370
    30
100
AcDbLine
 10
177.8625574626
 20
42.9680113378
 30
0.0
 11
177.8625574626
 21
34.9637230205
 31
0.0
  0
LINE
  5
17C
330
1F
100
AcDbEntity
  8
0
  6
Continuous
 62
     7
370
    30
100
AcDbLine
 10
176.1725574626
 20
43.1158671791
 30
0.0
 11
176.1725574626
 21
34.8158671791
 31
0.0
  0
ARC
  5
17D
330
1F
100
AcDbEntity
  8
0
  6
Continuous
 62
     7
370
    30
100
AcDbCircle
 10
168.251833796
 20
38.9658671791
 30
0.0
 40
10.39797779677
100
AcDbArc
 50
348.6708579439
 51
355.2932135456
  0
LINE
  5
17E
330
1F
100
AcDbEntity
  8
0
  6
Continuous
 62
     7
370
    30
100
AcDbLine
 10
178.4590236959
 20
36.9173453683
 30
0.0
 11
178.4472056295
 21
36.9232376387
 31
0.0
  0
LINE
  5
17F
330
1F
100
AcDbEntity
  8
0
  6
Continuous
 62
     7
370
    30
100
AcDbLine
 10
178.4472056295
 20
41.0084967196
 30
0.0
 11
178.4590236959
 21
41.01438899
 31
0.0
  0
ARC
  5
180
330
1F
100
AcDbEntity
  8
0
  6
Continuous
 62
     7
370
    30
100
AcDbCircle
 10
168.251833796
 20
38.9658671791
 30
0.0
 40
10.39797779677
100
AcDbArc
 50
4.7067864544
 51
11.3291420561
  0
LINE
  5
181
330
1F
100
AcDbEntity
  8
0
  6
Continuous
 62
     7
370
    30
100
AcDbLine
 10
178.6147462276
 20
39.8190894238
 30
0.0
 11
178.6147462276
 21
39.4808671791
 31
0.0
  0
LINE
  5
182
330
1F
100
AcDbEntity
  8
0
  6
Continuous
 62
     7
370
    30
100
AcDbLine
 10
178.6147462276
 20
39.4808671791
 30
0.0
 11
178.4472056295
 21
39.4808671791
 31
0.0
  0
ARC
  5
183
330
1F
100
AcDbEntity
  8
0
  6
Continuous
 62
     7
370
    30
100
AcDbCircle
 10
167.2321922765
 20
38.9658671791
 30
0.0
 40
11.22683167719053
100
AcDbArc
 50
357.3707911868
 51
2.6292088132
  0
LINE
  5
184
330
1F
100
AcDbEntity
  8
0
  6
Continuous
 62
     7
370
    30
100
AcDbLine
 10
178.4472056295
 20
38.4508671791
 30
0.0
 11
178.6147462276
 21
38.4508671791
 31
0.0
  0
LINE
  5
185
330
1F
100
AcDbEntity
  8
0
  6
Continuous
 62
     7
370
    30
100
AcDbLine
 10
178.6147462276
 20
38.4508671791
 30
0.0
 11
178.6147462276
 21
38.1126449345
 31
0.0
  0
SPLINE
  5
186
330
1F
100
AcDbEntity
  8
0
  6
Continuous
 62
     7
370
    30
100
AcDbSpline
210
0.0
220
0.0
230
1.0
 70
     8
 71
     3
 72
    11
 73
     7
 74
     0
 42
0.000000001
 43
0.00000001
 40
0.0
 40
0.0
 40
0.0
 40
0.0
 40
0.1191388043740289
 40
0.3944194546654548
 40
0.6962026286663865
 40
1.0
 40
1.0
 40
1.0
 40
1.0
 10
151.0856382785015
 20
15.46586717914373
 30
0.0
 10
150.6580180523954
 20
15.28701295471279
 30
0.0
 10
149.242343811993
 20
14.6949003677575
 30
0.0
 10
146.6417597613511
 20
13.86754018016871
 30
0.0
 10
143.2932679957987
 20
12.98715161293746
 30
0.0
 10
140.9334993974077
 20
12.60946794215636
 30
0.0
 10
139.7496907320373
 20
12.41999800745832
 30
0.0
  0
SPLINE
  5
187
330
1F
100
AcDbEntity
  8
0
  6
Continuous
 62
     7
370
    30
100
AcDbSpline
210
0.0
220
0.0
230
1.0
 70
     8
 71
     3
 72
    11
 73
     7
 74
     0
 42
0.000000001
 43
0.00000001
 40
0.0
 40
0.0
 40
0.0
 40
0.0
 40
0.2688595810895525
 40
0.5391490705678805
 40
0.8468429220881092
 40
1.0
 40
1.0
 40
1.0
 40
1.0
 10
126.5754241932222
 20
12.41999800745772
 30
0.0
 10
125.5290855468699
 20
12.5848609301359
 30
0.0
 10
123.430843384943
 20
12.91546358588965
 30
0.0
 10
120.20460002521
 20
13.71726403237774
 30
0.0
 10
117.4632701251132
 20
14.5502028062039
 30
0.0
 10
115.8098473709623
 20
15.23746546771635
 30
0.0
 10
115.2603564588124
 20
15.46586717914373
 30
0.0
  0
LINE
  5
188
330
1F
100
AcDbEntity
  8
0
  6
Continuous
 62
     7
370
    30
100
AcDbLine
 10
138.6161747967
 20
13.3244018425
 30
0.0
 11
138.4288208564
 21
15.4658671791
 31
0.0
  0
LINE
  5
189
330
1F
100
AcDbEntity
  8
0
  6
Continuous
 62
     7
370
    30
100
AcDbLine
 10
127.8962940689
 20
15.4658671791
 30
0.0
 11
127.7089401286
 21
13.3244018425
 31
0.0
  0
ARC
  5
18A
330
1F
100
AcDbEntity
  8
0
  6
Continuous
 62
     7
370
    30
100
AcDbCircle
 10
126.7126561363
 20
13.4105369485
 30
0.0
 40
1.00000000000001
100
AcDbArc
 50
262.1122977815
 51
355.0
  0
ARC
  5
18B
330
1F
100
AcDbEntity
  8
0
  6
Continuous
 62
     7
370
    30
100
AcDbCircle
 10
139.6124587889
 20
13.4105369485
 30
0.0
 40
0.9999999999999851
100
AcDbArc
 50
185.0
 51
277.8877022187
  0
LINE
  5
18C
330
1F
100
AcDbEntity
  8
0
  6
Continuous
 62
     7
370
    30
100
AcDbLine
 10
201.1625574626
 20
50.463286461
 30
0.0
 11
65.1625574626
 21
50.463286461
 31
0.0
  0
LINE
  5
18D
330
1F
100
AcDbEntity
  8
0
  6
Continuous
 62
     7
370
    30
100
AcDbLine
 10
201.0907606929
 20
49.4658671791
 30
0.0
 11
65.2343542324
 21
49.4658671791
 31
0.0
  0
LINE
  5
18E
330
1F
100
AcDbEntity
  8
0
  6
Continuous
 62
     7
370
    30
100
AcDbLine
 10
137.1625574626
 20
43.8658671791
 30
0.0
 11
129.1625574626
 21
43.8658671791
 31
0.0
  0
SPLINE
  5
18F
330
1F
100
AcDbEntity
  8
0
  6
Continuous
 62
     7
370
    30
100
AcDbSpline
210
0.0
220
0.0
230
1.0
 70
    24
 71
     3
 72
    12
 73
     8
 74
     0
 42
0.000000001
 43
0.00000001
 40
0.0
 40
0.0
 40
0.0
 40
0.0
 40
0.2500000000000026
 40
0.2500000000000026
 40
0.5000000000000052
 40
0.5000000000000052
 40
1.0
 40
1.0
 40
1.0
 40
1.0
 10
129.1625574626276
 20
43.86586717914374
 30
0.0
 10
129.1625574626276
 20
43.86586717914374
 30
0.0
 10
129.1625574626276
 20
43.89175320166289
 30
0.0
 10
129.1625574626276
 20
43.99181377259255
 30
0.0
 10
129.1625574626276
 20
44.06586655354369
 30
0.0
 10
129.1625574626276
 20
44.34222591850262
 30
0.0
 10
129.1625574626276
 20
44.60135482487848
 30
0.0
 10
129.1625574626276
 20
44.86586717914375
 30
0.0
  0
SPLINE
  5
190
330
1F
100
AcDbEntity
  8
0
  6
Continuous
 62
     7
370
    30
100
AcDbSpline
210
0.0
220
0.0
230
1.0
 70
    24
 71
     3
 72
    12
 73
     8
 74
     0
 42
0.000000001
 43
0.00000001
 40
0.0
 40
0.0
 40
0.0
 40
0.0
 40
0.2500000000000027
 40
0.2500000000000027
 40
0.5000000000000053
 40
0.5000000000000053
 40
1.0
 40
1.0
 40
1.0
 40
1.0
 10
137.1625574626276
 20
44.86586717914375
 30
0.0
 10
137.1625574626276
 20
44.73361773726097
 30
0.0
 10
137.1625574626276
 20
44.60383777964203
 30
0.0
 10
137.1625574626276
 20
44.36157707095018
 30
0.0
 10
137.1625574626276
 20
44.25065583295252
 30
0.0
 10
137.1625574626276
 20
43.97416392352015
 30
0.0
 10
137.1625574626276
 20
43.86586717914374
 30
0.0
 10
137.1625574626276
 20
43.86586717914374
 30
0.0
  0
ELLIPSE
  5
191
330
1F
100
AcDbEntity
  8
0
  6
Continuous
 62
     7
370
    30
100
AcDbEllipse
 10
133.1625574626
 20
-11.8138517544
 30
0.0
 11
0.0
 21
133.6582112093129
 31
0.0
210
0.0
220
0.0
230
1.0
 40
0.396533812
 41
4.948607318731318
 42
5.010454332352587
  0
SPLINE
  5
192
330
1F
100
AcDbEntity
  8
0
  6
Continuous
 62
     7
370
    30
100
AcDbSpline
210
0.0
220
0.0
230
1.0
 70
     8
 71
     3
 72
    10
 73
     6
 74
     0
 42
0.000000001
 43
0.00000001
 40
0.0
 40
0.0
 40
0.0
 40
0.0
 40
0.5
 40
0.5
 40
1.0
 40
1.0
 40
1.0
 40
1.0
 10
183.6216151338144
 20
27.71823038417062
 30
0.0
 10
183.6607348429484
 20
27.76650661049017
 30
0.0
 10
183.7041204954723
 20
27.76472296190936
 30
0.0
 10
183.7791886521756
 20
27.66370126224164
 30
0.0
 10
183.8102026449084
 20
27.56412125953693
 30
0.0
 10
183.8255981736034
 20
27.43774424574571
 30
0.0
  0
ELLIPSE
  5
193
330
1F
100
AcDbEntity
  8
0
  6
Continuous
 62
     7
370
    30
100
AcDbEllipse
 10
133.1625574626
 20
34.1475036974
 30
0.0
 11
52.99999999999997
 21
0.0
 31
0.0
210
0.0
220
0.0
230
1.0
 40
0.396533812
 41
5.876104592857883
 42
5.972282235936456
  0
SPLINE
  5
194
330
1F
100
AcDbEntity
  8
0
  6
Continuous
 62
     7
370
    30
100
AcDbSpline
210
0.0
220
0.0
230
1.0
 70
     8
 71
     3
 72
    10
 73
     6
 74
     0
 42
0.000000001
 43
0.00000001
 40
0.0
 40
0.0
 40
0.0
 40
0.0
 40
0.5
 40
0.5
 40
1.0
 40
1.0
 40
1.0
 40
1.0
 10
181.6940936015136
 20
25.36172517435905
 30
0.0
 10
181.6940936015136
 20
25.46534504570908
 30
0.0
 10
181.7084170842211
 20
25.5655595406755
 30
0.0
 10
181.7584641757554
 20
25.72990236501159
 30
0.0
 10
181.7929470146146
 20
25.79112718711068
 30
0.0
 10
181.8314275513737
 20
25.82651697879918
 30
0.0
  0
LINE
  5
195
330
1F
100
AcDbEntity
  8
0
  6
Continuous
 62
     7
370
    30
100
AcDbLine
 10
181.6940936015
 20
19.4658671791
 30
0.0
 11
181.6940936015
 21
25.3617251744
 31
0.0
  0
LINE
  5
196
330
1F
100
AcDbEntity
  8
0
  6
Continuous
 62
     7
370
    30
100
AcDbLine
 10
90.5547143254
 20
32.9658671791
 30
0.0
 11
81.7844117141
 21
32.9658671791
 31
0.0
  0
LINE
  5
197
330
1F
100
AcDbEntity
  8
0
  6
Continuous
 62
     7
370
    30
100
AcDbLine
 10
133.1625574626
 20
15.4658671791
 30
0.0
 11
186.1625574626
 21
15.4658671791
 31
0.0
  0
LINE
  5
198
330
1F
100
AcDbEntity
  8
0
  6
Continuous
 62
     7
370
    30
100
AcDbLine
 10
80.1625574626
 20
15.4658671791
 30
0.0
 11
133.1625574626
 21
15.4658671791
 31
0.0
  0
LINE
  5
199
330
1F
100
AcDbEntity
  8
0
  6
Continuous
 62
     7
370
    30
100
AcDbLine
 10
184.5407032112
 20
32.9658671791
 30
0.0
 11
175.7704005999
 21
32.9658671791
 31
0.0
  0
SPLINE
  5
19A
330
1F
100
AcDbEntity
  8
0
  6
Continuous
 62
     7
370
    30
100
AcDbSpline
210
0.0
220
0.0
230
1.0
 70
     8
 71
     3
 72
    12
 73
     8
 74
     0
 42
0.000000001
 43
0.00000001
 40
0.0
 40
0.0
 40
0.0
 40
0.0
 40
0.2499999999999994
 40
0.2499999999999994
 40
0.4999999999999989
 40
0.4999999999999989
 40
1.0
 40
1.0
 40
1.0
 40
1.0
 10
126.1625574626276
 20
43.86586717914374
 30
0.0
 10
126.1625574626276
 20
43.99842040743076
 30
0.0
 10
126.1887737965962
 20
44.12851291085194
 30
0.0
 10
126.2895734904212
 20
44.37097745708795
 30
0.0
 10
126.3641417551466
 20
44.48191560120635
 30
0.0
 10
126.6409697788595
 20
44.75798796090716
 30
0.0
 10
126.8992101710748
 20
44.86586717914375
 30
0.0
 10
127.1625574626276
 20
44.86586717914375
 30
0.0
  0
LINE
  5
19B
330
1F
100
AcDbEntity
  8
0
  6
Continuous
 62
     7
370
    30
100
AcDbLine
 10
126.1625574626
 20
43.8658671791
 30
0.0
 11
126.1625574626
 21
34.8658671791
 31
0.0
  0
SPLINE
  5
19C
330
1F
100
AcDbEntity
  8
0
  6
Continuous
 62
     7
370
    30
100
AcDbSpline
210
0.0
220
0.0
230
1.0
 70
     8
 71
     3
 72
    12
 73
     8
 74
     0
 42
0.000000001
 43
0.00000001
 40
0.0
 40
0.0
 40
0.0
 40
0.0
 40
0.2499999999999997
 40
0.2499999999999997
 40
0.4999999999999993
 40
0.4999999999999993
 40
1.0
 40
1.0
 40
1.0
 40
1.0
 10
127.1625574626276
 20
33.86586717914375
 30
0.0
 10
127.0308654869086
 20
33.86586717914375
 30
0.0
 10
126.901746289891
 20
33.89166487025634
 30
0.0
 10
126.660061323612
 20
33.99145867235745
 30
0.0
 10
126.5493123150223
 20
34.06528364996652
 30
0.0
 10
126.272124523887
 20
34.34132587990124
 30
0.0
 10
126.1625574626276
 20
34.60072530292386
 30
0.0
 10
126.1625574626276
 20
34.86586717914375
 30
0.0
  0
SPLINE
  5
19D
330
1F
100
AcDbEntity
  8
0
  6
Continuous
 62
     7
370
    30
100
AcDbSpline
210
0.0
220
0.0
230
1.0
 70
     8
 71
     3
 72
    12
 73
     8
 74
     0
 42
0.000000001
 43
0.00000001
 40
0.0
 40
0.0
 40
0.0
 40
0.0
 40
0.2500000000000012
 40
0.2500000000000012
 40
0.5000000000000023
 40
0.5000000000000023
 40
1.0
 40
1.0
 40
1.0
 40
1.0
 10
140.1625574626276
 20
34.86586717914375
 30
0.0
 10
140.1625574626276
 20
34.73331395085672
 30
0.0
 10
140.136341128659
 20
34.60322144743555
 30
0.0
 10
140.035541434834
 20
34.36075690119954
 30
0.0
 10
139.9609731701086
 20
34.24981875708114
 30
0.0
 10
139.6841451463957
 20
33.97374639738033
 30
0.0
 10
139.4259047541804
 20
33.86586717914374
 30
0.0
 10
139.1625574626276
 20
33.86586717914375
 30
0.0
  0
LINE
  5
19E
330
1F
100
AcDbEntity
  8
0
  6
Continuous
 62
     7
370
    30
100
AcDbLine
 10
140.1625574626
 20
34.8658671791
 30
0.0
 11
140.1625574626
 21
43.8658671791
 31
0.0
  0
SPLINE
  5
19F
330
1F
100
AcDbEntity
  8
0
  6
Continuous
 62
     7
370
    30
100
AcDbSpline
210
0.0
220
0.0
230
1.0
 70
     8
 71
     3
 72
    12
 73
     8
 74
     0
 42
0.000000001
 43
0.00000001
 40
0.0
 40
0.0
 40
0.0
 40
0.0
 40
0.2499999999999997
 40
0.2499999999999997
 40
0.4999999999999993
 40
0.4999999999999993
 40
1.0
 40
1.0
 40
1.0
 40
1.0
 10
139.1625574626276
 20
44.86586717914375
 30
0.0
 10
139.2942494383466
 20
44.86586717914375
 30
0.0
 10
139.4233686353641
 20
44.84006948803115
 30
0.0
 10
139.6650536016431
 20
44.74027568593004
 30
0.0
 10
139.7758026102329
 20
44.66645070832097
 30
0.0
 10
140.0529904013682
 20
44.39040847838625
 30
0.0
 10
140.1625574626276
 20
44.13100905536363
 30
0.0
 10
140.1625574626276
 20
43.86586717914374
 30
0.0
  0
LINE
  5
1A0
330
1F
100
AcDbEntity
  8
0
  6
Continuous
 62
     7
370
    30
100
AcDbLine
 10
139.1625574626
 20
44.8658671791
 30
0.0
 11
137.1625574626
 21
44.8658671791
 31
0.0
  0
LINE
  5
1A1
330
1F
100
AcDbEntity
  8
0
  6
Continuous
 62
     7
370
    30
100
AcDbLine
 10
129.1625574626
 20
44.8658671791
 30
0.0
 11
127.1625574626
 21
44.8658671791
 31
0.0
  0
LINE
  5
1A2
330
1F
100
AcDbEntity
  8
0
  6
Continuous
 62
     7
370
    30
100
AcDbLine
 10
127.1625574626
 20
33.8658671791
 30
0.0
 11
139.1625574626
 21
33.8658671791
 31
0.0
  0
ELLIPSE
  5
1A3
330
1F
100
AcDbEntity
  8
0
  6
Continuous
 62
     7
370
    30
100
AcDbEllipse
 10
133.1625574626
 20
-11.8138517544
 30
0.0
 11
0.0
 21
131.1363581676277
 31
0.0
210
0.0
220
0.0
230
1.0
 40
0.396533812
 41
4.96109896947822
 42
5.011569350007798
  0
SPLINE
  5
1A4
330
1F
100
AcDbEntity
  8
0
  6
Continuous
 62
     7
370
    30
100
AcDbSpline
210
0.0
220
0.0
230
1.0
 70
     8
 71
     3
 72
    10
 73
     6
 74
     0
 42
0.000000001
 43
0.00000001
 40
0.0
 40
0.0
 40
0.0
 40
0.0
 40
0.5
 40
0.5
 40
1.0
 40
1.0
 40
1.0
 40
1.0
 10
90.16255746262759
 20
44.23672173620164
 30
0.0
 10
90.1625574626276
 20
44.394550636933
 30
0.0
 10
90.19944258130194
 20
44.56058995636771
 30
0.0
 10
90.33335439268494
 20
44.90631781043468
 30
0.0
 10
90.43244120287109
 20
45.08739345481585
 30
0.0
 10
90.55471432537269
 20
45.26409574029633
 30
0.0
  0
SPLINE
  5
1A5
330
1F
100
AcDbEntity
  8
0
  6
Continuous
 62
     7
370
    30
100
AcDbSpline
210
0.0
220
0.0
230
1.0
 70
     8
 71
     3
 72
    10
 73
     6
 74
     0
 42
0.000000001
 43
0.00000001
 40
0.0
 40
0.0
 40
0.0
 40
0.0
 40
0.5
 40
0.5
 40
1.0
 40
1.0
 40
1.0
 40
1.0
 10
176.1625574626276
 20
44.23672173620162
 30
0.0
 10
176.1625574626276
 20
44.39455063693298
 30
0.0
 10
176.1256723439533
 20
44.56058995636777
 30
0.0
 10
175.9917605325703
 20
44.90631781043481
 30
0.0
 10
175.8926737224448
 20
45.08739345493451
 30
0.0
 10
175.7704005998825
 20
45.26409574029634
 30
0.0
  0
LINE
  5
1A6
330
1F
100
AcDbEntity
  8
0
  6
Continuous
 62
     7
370
    30
100
AcDbLine
 10
176.1625574626
 20
44.2367217362
 30
0.0
 11
176.1625574626
 21
32.9658671791
 31
0.0
  0
LINE
  5
1A7
330
1F
100
AcDbEntity
  8
0
  6
Continuous
 62
     7
370
    30
100
AcDbLine
 10
90.1625574626
 20
32.9658671791
 30
0.0
 11
90.1625574626
 21
44.2367217362
 31
0.0
  0
LWPOLYLINE
  5
1A8
330
1F
100
AcDbEntity
  8
0
  6
Continuous
 62
     7
370
    30
100
AcDbPolyline
 90
        2
 70
   128
 43
0.0
 10
90.1625574626
 20
43.667638618
 10
90.1625574626
 20
43.667638618
  0
LWPOLYLINE
  5
1A9
330
1F
100
AcDbEntity
  8
0
  6
Continuous
 62
     7
370
    30
100
AcDbPolyline
 90
        2
 70
   128
 43
0.0
 10
176.1625574626
 20
43.667638618
 10
176.1625574626
 20
43.667638618
  0
LINE
  5
1AA
330
1F
100
AcDbEntity
  8
0
  6
Continuous
 62
     7
370
    30
100
AcDbLine
 10
181.6940936015
 20
20.4658671791
 30
0.0
 11
183.5625574626
 21
20.4658671791
 31
0.0
  0
SPLINE
  5
1AB
330
1F
100
AcDbEntity
  8
0
  6
Continuous
 62
     7
370
    30
100
AcDbSpline
210
0.0
220
0.0
230
1.0
 70
     8
 71
     3
 72
    12
 73
     8
 74
     0
 42
0.000000001
 43
0.00000001
 40
0.0
 40
0.0
 40
0.0
 40
0.0
 40
0.2499999999999978
 40
0.2499999999999978
 40
0.4999999999999956
 40
0.4999999999999956
 40
1.0
 40
1.0
 40
1.0
 40
1.0
 10
183.5625574626276
 20
20.46586717914374
 30
0.0
 10
183.7060607499673
 20
20.46586717914373
 30
0.0
 10
183.8462773255031
 20
20.43717014255854
 30
0.0
 10
184.1076721014176
 20
20.33283488427018
 30
0.0
 10
184.2274802642792
 20
20.25726625503156
 30
0.0
 10
184.532133092957
 20
19.98211752052252
 30
0.0
 10
184.6654162421135
 20
19.73121860402731
 30
0.0
 10
184.6907441813925
 20
19.46586717914374
 30
0.0
  0
LINE
  5
1AC
330
1F
100
AcDbEntity
  8
0
  6
Continuous
 62
     8
370
    30
100
AcDbLine
 10
139.7487752094
 20
35.6739851964
 30
0.0
 11
139.7511094646
 21
34.3511072422
 31
0.0
  0
SPLINE
  5
1AD
330
1F
100
AcDbEntity
  8
0
  6
Continuous
 62
     8
370
    30
100
AcDbSpline
210
0.0
220
0.0
230
1.0
 70
     8
 71
     3
 72
    11
 73
     7
 74
     0
 42
0.000000001
 43
0.00000001
 40
0.0
 40
0.0
 40
0.0
 40
0.0
 40
0.2556444687538361
 40
0.5975378797030474
 40
0.7977653218427198
 40
1.0
 40
1.0
 40
1.0
 40
1.0
 10
139.7637552591761
 20
15.46586717914373
 30
0.0
 10
139.7631924976595
 20
14.98684515515799
 30
0.0
 10
139.7618771110017
 20
13.86718938502231
 30
0.0
 10
139.7585258745892
 20
13.00267416106219
 30
0.0
 10
139.7545004008147
 20
12.51221707136815
 30
0.0
 10
139.7516509360549
 20
12.45160574753034
 30
0.0
 10
139.7502190979773
 20
12.42114893942136
 30
0.0
  0
ARC
  5
1AE
330
1F
100
AcDbEntity
  8
0
  6
Continuous
 62
     8
370
    30
100
AcDbCircle
 10
139.5979583104
 20
13.3963470994
 30
0.0
 40
0.9801234362661849
100
AcDbArc
 50
207.8450701342
 51
264.7373631175
  0
SPLINE
  5
1AF
330
1F
100
AcDbEntity
  8
0
  6
Continuous
 62
     8
370
    30
100
AcDbSpline
210
0.0
220
0.0
230
1.0
 70
     8
 71
     3
 72
    11
 73
     7
 74
     0
 42
0.000000001
 43
0.00000001
 40
0.0
 40
0.0
 40
0.0
 40
0.0
 40
0.2371474599084268
 40
0.4766703530293744
 40
0.8701921123362402
 40
1.0
 40
1.0
 40
1.0
 40
1.0
 10
138.616174796685
 20
13.32440184251835
 30
0.0
 10
138.6155876434747
 20
13.3523563686619
 30
0.0
 10
138.614407455721
 20
13.40854543284484
 30
0.0
 10
138.6127793295925
 20
13.88276671707312
 30
0.0
 10
138.6116074847973
 20
14.49994586808525
 30
0.0
 10
138.6111835082761
 20
15.27389504710557
 30
0.0
 10
138.6110783441659
 20
15.46586717914373
 30
0.0
  0
LINE
  5
1B0
330
1F
100
AcDbEntity
  8
0
  6
Continuous
 62
     8
370
    30
100
AcDbLine
 10
138.6156210119
 20
34.1794323584
 30
0.0
 11
138.6167312469
 21
35.6523019999
 31
0.0
  0
ARC
  5
1B1
330
1F
100
AcDbEntity
  8
0
  6
Continuous
 62
     8
370
    30
100
AcDbCircle
 10
139.6229355129
 20
109.7903860895
 30
0.0
 40
73.83461284898874
100
AcDbArc
 50
269.5080936625
 51
269.9656460486
  0
LINE
  5
1B2
330
1F
100
AcDbEntity
  8
0
  6
Continuous
 62
     8
370
    30
100
AcDbLine
 10
139.7502186564
 20
12.4211479775
 30
0.0
 11
139.7496911736
 21
12.4199989693
 31
0.0
  0
LINE
  5
1B3
330
1F
100
AcDbEntity
  8
0
  6
Continuous
 62
     8
370
    30
100
AcDbLine
 10
139.747750144
 20
36.1652205588
 30
0.0
 11
139.748184953
 21
35.992669517
 31
0.0
  0
LINE
  5
1B4
330
1F
100
AcDbEntity
  8
0
  6
Continuous
 62
     8
370
    30
100
AcDbLine
 10
139.809004581
 20
36.2077912027
 30
0.0
 11
140.1012098543
 21
36.2344465661
 31
0.0
  0
LINE
  5
1B5
330
1F
100
AcDbEntity
  8
0
  6
Continuous
 62
     8
370
    30
100
AcDbLine
 10
126.2239437734
 20
36.2337090927
 30
0.0
 11
126.5160716418
 21
36.207667287
 31
0.0
  0
LINE
  5
1B6
330
1F
100
AcDbEntity
  8
0
  6
Continuous
 62
     8
370
    30
100
AcDbLine
 10
126.5769299723
 20
35.992669517
 30
0.0
 11
126.5773647812
 21
36.1652205588
 31
0.0
  0
SPLINE
  5
1B7
330
1F
100
AcDbEntity
  8
0
  6
Continuous
 62
     8
370
    30
100
AcDbSpline
210
0.0
220
0.0
230
1.0
 70
     8
 71
     3
 72
    10
 73
     6
 74
     0
 42
0.000000001
 43
0.00000001
 40
0.0
 40
0.0
 40
0.0
 40
0.0
 40
0.3322832317195882
 40
0.6742005003800688
 40
1.0
 40
1.0
 40
1.0
 40
1.0
 10
126.5748958272778
 20
12.4211489394214
 30
0.0
 10
126.5726225201466
 20
12.49983316223116
 30
0.0
 10
126.5680099948699
 20
12.65948293485383
 30
0.0
 10
126.5636690816978
 20
13.69526136628226
 30
0.0
 10
126.5620067740751
 20
14.88524006060291
 30
0.0
 10
126.5611956831793
 20
15.46586717914373
 30
0.0
  0
LINE
  5
1B8
330
1F
100
AcDbEntity
  8
0
  6
Continuous
 62
     8
370
    30
100
AcDbLine
 10
126.5738286798
 20
34.3489706734
 30
0.0
 11
126.5763071065
 21
35.6727699852
 31
0.0
  0
LINE
  5
1B9
330
1F
100
AcDbEntity
  8
0
  6
Continuous
 62
     8
370
    30
100
AcDbLine
 10
126.5754237516
 20
12.4199989693
 30
0.0
 11
126.5748962689
 21
12.4211479775
 31
0.0
  0
LINE
  5
1BA
330
1F
100
AcDbEntity
  8
0
  6
Continuous
 62
     8
370
    30
100
AcDbLine
 10
127.708400327
 20
35.6514303008
 30
0.0
 11
127.7095840658
 21
34.1803040575
 31
0.0
  0
SPLINE
  5
1BB
330
1F
100
AcDbEntity
  8
0
  6
Continuous
 62
     8
370
    30
100
AcDbSpline
210
0.0
220
0.0
230
1.0
 70
     8
 71
     3
 72
    10
 73
     6
 74
     0
 42
0.000000001
 43
0.00000001
 40
0.0
 40
0.0
 40
0.0
 40
0.0
 40
0.1928496023796715
 40
0.5906340363563045
 40
1.0
 40
1.0
 40
1.0
 40
1.0
 10
127.7140162577985
 20
15.46586717914373
 30
0.0
 10
127.7138466957587
 20
15.19420063417296
 30
0.0
 10
127.7133273837624
 20
14.36217658009603
 30
0.0
 10
127.7117934099624
 20
13.57130080137244
 30
0.0
 10
127.7099002770103
 20
13.40748500804929
 30
0.0
 10
127.7089401285701
 20
13.32440184251843
 30
0.0
  0
ARC
  5
1BC
330
1F
100
AcDbEntity
  8
0
  6
Continuous
 62
     8
370
    30
100
AcDbCircle
 10
126.7244203294
 20
13.3941431264
 30
0.0
 40
0.9801048815905349
100
AcDbArc
 50
284.9185643685
 51
341.811572744
  0
ARC
  5
1BD
330
1F
100
AcDbEntity
  8
0
  6
Continuous
 62
     8
370
    30
100
AcDbCircle
 10
127.3227873513
 20
47.0019626501
 30
0.0
 40
11.04347628266604
100
AcDbArc
 50
270.068914202
 51
271.8346846668
  0
LINE
  5
1BE
330
1F
100
AcDbEntity
  8
0
  6
Continuous
 62
     8
370
    30
100
AcDbLine
 10
139.7476569727
 20
43.3981386327
 30
0.0
 11
139.7476569727
 21
37.4720673978
 31
0.0
  0
LINE
  5
1BF
330
1F
100
AcDbEntity
  8
0
  6
Continuous
 62
     8
370
    30
100
AcDbLine
 10
126.5774579526
 20
37.4717502805
 30
0.0
 11
126.5774579526
 21
43.3963416349
 31
0.0
  0
LINE
  5
1C0
330
1F
100
AcDbEntity
  8
0
  6
Continuous
 62
     8
370
    30
100
AcDbLine
 10
138.2513069243
 20
35.9658671791
 30
0.0
 11
138.2513069243
 21
33.8658671791
 31
0.0
  0
LINE
  5
1C1
330
1F
100
AcDbEntity
  8
0
  6
Continuous
 62
     8
370
    30
100
AcDbLine
 10
138.612187195
 20
35.9658671791
 30
0.0
 11
138.2560873386
 21
35.9658671791
 31
0.0
  0
LINE
  5
1C2
330
1F
100
AcDbEntity
  8
0
  6
Continuous
 62
     8
370
    30
100
AcDbLine
 10
128.0738080009
 20
33.8658671791
 30
0.0
 11
128.0738080009
 21
35.9658671791
 31
0.0
  0
LINE
  5
1C3
330
1F
100
AcDbEntity
  8
0
  6
Continuous
 62
     8
370
    30
100
AcDbLine
 10
128.0690275867
 20
35.9658671791
 30
0.0
 11
127.7129277302
 21
35.9658671791
 31
0.0
  0
LINE
  5
1C4
330
1F
100
AcDbEntity
  8
0
  6
Continuous
 62
     8
370
    30
100
AcDbLine
 10
139.5781653174
 20
36.2021949903
 30
0.0
 11
138.9888648749
 21
36.2021949903
 31
0.0
  0
LINE
  5
1C5
330
1F
100
AcDbEntity
  8
0
  6
Continuous
 62
     8
370
    30
100
AcDbLine
 10
138.6170724887
 20
37.5017458186
 30
0.0
 11
138.6170724887
 21
43.5663163508
 31
0.0
  0
LINE
  5
1C6
330
1F
100
AcDbEntity
  8
0
  6
Continuous
 62
     8
370
    30
100
AcDbLine
 10
127.7080424366
 20
43.5663163508
 30
0.0
 11
127.7080424366
 21
37.5017458186
 31
0.0
  0
LINE
  5
1C7
330
1F
100
AcDbEntity
  8
0
  6
Continuous
 62
     8
370
    30
100
AcDbLine
 10
127.6762788067
 20
36.2021949903
 30
0.0
 11
127.3362500504
 21
36.2021949903
 31
0.0
  0
LINE
  5
1C8
330
1F
100
AcDbEntity
  8
0
  6
Continuous
 62
     8
370
    30
100
AcDbLine
 10
127.7080581683
 20
36.1667462747
 30
0.0
 11
127.7081315842
 21
36.0013158948
 31
0.0
  0
LINE
  5
1C9
330
1F
100
AcDbEntity
  8
0
  6
Continuous
 62
     8
370
    30
100
AcDbLine
 10
138.616983341
 20
36.0013158948
 30
0.0
 11
138.617056757
 21
36.1667462747
 31
0.0
  0
LINE
  5
1CA
330
1F
100
AcDbEntity
  8
0
  6
Continuous
 62
     8
370
    30
100
AcDbLine
 10
138.2513069243
 20
43.5308671791
 30
0.0
 11
138.2513069243
 21
37.3008671791
 31
0.0
  0
LINE
  5
1CB
330
1F
100
AcDbEntity
  8
0
  6
Continuous
 62
     8
370
    30
100
AcDbLine
 10
128.0738080009
 20
37.3008671791
 30
0.0
 11
128.0738080009
 21
43.5308671791
 31
0.0
  0
LINE
  5
1CC
330
1F
100
AcDbEntity
  8
0
  6
Continuous
 62
     8
370
    30
100
AcDbLine
 10
128.1040113506
 20
35.9658671791
 30
0.0
 11
128.4296753304
 21
35.9658671791
 31
0.0
  0
LINE
  5
1CD
330
1F
100
AcDbEntity
  8
0
  6
Continuous
 62
     8
370
    30
100
AcDbLine
 10
129.1635468079
 20
42.6326088494
 30
0.0
 11
129.1635468079
 21
37.1423510033
 31
0.0
  0
LINE
  5
1CE
330
1F
100
AcDbEntity
  8
0
  6
Continuous
 62
     8
370
    30
100
AcDbLine
 10
137.3250269804
 20
35.9658671791
 30
0.0
 11
137.8954395948
 21
35.9658671791
 31
0.0
  0
LINE
  5
1CF
330
1F
100
AcDbEntity
  8
0
  6
Continuous
 62
     8
370
    30
100
AcDbLine
 10
137.1615681173
 20
37.1424155638
 30
0.0
 11
137.1615681173
 21
42.632974692
 31
0.0
  0
LINE
  5
1D0
330
1F
100
AcDbEntity
  8
0
  6
Continuous
 62
     8
370
    30
100
AcDbLine
 10
129.1635468079
 20
35.9658671791
 30
0.0
 11
129.1635468079
 21
33.8658671791
 31
0.0
  0
LINE
  5
1D1
330
1F
100
AcDbEntity
  8
0
  6
Continuous
 62
     8
370
    30
100
AcDbLine
 10
137.1615681173
 20
33.8658671791
 30
0.0
 11
137.1615681173
 21
35.9658671791
 31
0.0
  0
LINE
  5
1D2
330
1F
100
AcDbEntity
  8
0
  6
Continuous
 62
     8
370
    30
100
AcDbLine
 10
135.9655668318
 20
35.9658671791
 30
0.0
 11
131.1608566349
 21
35.9658671791
 31
0.0
  0
LINE
  5
1D3
330
1F
100
AcDbEntity
  8
0
  6
Continuous
 62
     8
370
    30
100
AcDbLine
 10
187.3061510021
 20
51.4607057429
 30
0.0
 11
79.0189639232
 21
51.4607057429
 31
0.0
  0
LINE
  5
1D4
330
1F
100
AcDbEntity
  8
0
  6
Continuous
 62
     8
370
    30
100
AcDbLine
 10
130.3601497307
 20
44.8658671791
 30
0.0
 11
135.1639850175
 21
44.8658671791
 31
0.0
  0
LINE
  5
1D5
330
1F
100
AcDbEntity
  8
0
  6
Continuous
 62
     8
370
    30
100
AcDbLine
 10
184.5807116139
 20
19.4658671791
 30
0.0
 11
184.0903168486
 21
19.4658671791
 31
0.0
  0
LINE
  5
1D6
330
1F
100
AcDbEntity
  8
0
  6
Continuous
 62
     8
370
    30
100
AcDbLine
 10
90.5547143254
 20
43.4193614561
 30
0.0
 11
90.5547143254
 21
34.8106014633
 31
0.0
  0
SPLINE
  5
1D7
330
1F
100
AcDbEntity
  8
0
  6
Continuous
 62
     8
370
    30
100
AcDbSpline
210
0.0
220
0.0
230
1.0
 70
     8
 71
     3
 72
    15
 73
    11
 74
     0
 42
0.000000001
 43
0.00000001
 40
0.0
 40
0.0
 40
0.0
 40
0.0
 40
0.1695159859210258
 40
0.3643766894418793
 40
0.4449853571441532
 40
0.5256232619231622
 40
0.6162367770429631
 40
0.706915482605645
 40
0.8652318031028813
 40
1.0
 40
1.0
 40
1.0
 40
1.0
 10
81.7583281485296
 20
36.12644395231569
 30
0.0
 10
81.74996406464088
 20
36.92240306387383
 30
0.0
 10
81.73198536380615
 20
38.63332692999093
 30
0.0
 10
81.7732394099116
 20
40.73925996279579
 30
0.0
 10
81.89753885891437
 20
42.34630951673151
 30
0.0
 10
82.04444950818431
 20
43.39295596905015
 30
0.0
 10
82.25679541808547
 20
44.35151249130492
 30
0.0
 10
82.60939048044297
 20
45.37984437778321
 30
0.0
 10
83.11806038555675
 20
46.21060843940354
 30
0.0
 10
83.60256280787303
 20
46.44383618953015
 30
0.0
 10
83.825350140443
 20
46.55108062410613
 30
0.0
  0
LINE
  5
1D8
330
1F
100
AcDbEntity
  8
0
  6
Continuous
 62
     8
370
    30
100
AcDbLine
 10
175.7704005999
 20
34.8106014633
 30
0.0
 11
175.7704005999
 21
43.4193614561
 31
0.0
  0
SPLINE
  5
1D9
330
1F
100
AcDbEntity
  8
0
  6
Continuous
 62
     8
370
    30
100
AcDbSpline
210
0.0
220
0.0
230
1.0
 70
     8
 71
     3
 72
    13
 73
     9
 74
     0
 42
0.000000001
 43
0.00000001
 40
0.0
 40
0.0
 40
0.0
 40
0.0
 40
0.2777864424512059
 40
0.4959978280898044
 40
0.7138929864573567
 40
0.8225326593523841
 40
0.9310987089821727
 40
1.0
 40
1.0
 40
1.0
 40
1.0
 10
177.5007899057913
 20
45.64252564853538
 30
0.0
 10
178.1852642105936
 20
45.78688210191746
 30
0.0
 10
179.4074180549983
 20
46.04463581630483
 30
0.0
 10
180.8539773116909
 20
46.42073169639186
 30
0.0
 10
181.8681064445901
 20
46.65960163276441
 30
0.0
 10
182.5985919671453
 20
46.55783827546983
 30
0.0
 10
183.0411097427265
 20
46.28636075719049
 30
0.0
 10
183.2818326610849
 20
45.98990751601431
 30
0.0
 10
183.3752927861533
 20
45.87481021997706
 30
0.0
  0
SPLINE
  5
1DA
330
1F
100
AcDbEntity
  8
0
  6
Continuous
 62
     8
370
    30
100
AcDbSpline
210
0.0
220
0.0
230
1.0
 70
     8
 71
     3
 72
    19
 73
    15
 74
     0
 42
0.000000001
 43
0.00000001
 40
0.0
 40
0.0
 40
0.0
 40
0.0
 40
0.500000000000001
 40
0.500000000000001
 40
0.750000000000002
 40
0.750000000000002
 40
0.8750000000000024
 40
0.9375000000000022
 40
0.968750000000002
 40
0.9843750000000016
 40
0.9921875000000008
 40
0.9960937500000004
 40
0.9960937500000004
 40
1.0
 40
1.0
 40
1.0
 40
1.0
 10
90.16255746262759
 20
43.66763861799115
 30
0.0
 10
89.353910671687
 20
43.85142197956856
 30
0.0
 10
88.5991924578761
 20
44.02294884634377
 30
0.0
 10
87.54820088093103
 20
44.26181056837672
 30
0.0
 10
87.21121255348349
 20
44.33839882461481
 30
0.0
 10
86.72724461893874
 20
44.44839153701134
 30
0.0
 10
86.49060388593449
 20
44.50217352178504
 30
0.0
 10
86.22388447938957
 20
44.56279156872707
 30
0.0
 10
86.09286797067664
 20
44.59256804798001
 30
0.0
 10
86.0279459109388
 20
44.6073230615568
 30
0.0
 10
85.99563148428932
 20
44.61466724943168
 30
0.0
 10
85.98181386539038
 20
44.61780761736325
 30
0.0
 10
85.97260910261865
 20
44.61989960890228
 30
0.0
 10
85.96992563063222
 20
44.62088908076428
 30
0.0
 10
85.96341485298565
 20
44.62198921109159
 30
0.0
  0
SPLINE
  5
1DB
330
1F
100
AcDbEntity
  8
0
  6
Continuous
 62
     8
370
    30
100
AcDbSpline
210
0.0
220
0.0
230
1.0
 70
     8
 71
     3
 72
    13
 73
     9
 74
     0
 42
0.000000001
 43
0.00000001
 40
0.0
 40
0.0
 40
0.0
 40
0.0
 40
0.1096471730046129
 40
0.3004942366200452
 40
0.4083072704094636
 40
0.5160127996163645
 40
0.7053580431614643
 40
1.0
 40
1.0
 40
1.0
 40
1.0
 10
84.91164282801729
 20
44.59970832380917
 30
0.0
 10
84.75036782919997
 20
44.56002148073758
 30
0.0
 10
84.30838463594912
 20
44.45125745804673
 30
0.0
 10
83.81765290196947
 20
43.94178014801432
 30
0.0
 10
83.4240738921751
 20
43.21098335209869
 30
0.0
 10
83.11342988251774
 20
42.30606967668892
 30
0.0
 10
82.86102953640012
 20
40.64130120279366
 30
0.0
 10
82.84185686492133
 20
39.18719198108671
 30
0.0
 10
82.8301849169073
 20
38.3019586811129
 30
0.0
  0
SPLINE
  5
1DC
330
1F
100
AcDbEntity
  8
0
  6
Continuous
 62
     8
370
    30
100
AcDbSpline
210
0.0
220
0.0
230
1.0
 70
     8
 71
     3
 72
    13
 73
     9
 74
     0
 42
0.000000001
 43
0.00000001
 40
0.0
 40
0.0
 40
0.0
 40
0.0
 40
0.016982904241795
 40
0.260738673112013
 40
0.4997644979504447
 40
0.7346951395242981
 40
0.8202013542347607
 40
1.0
 40
1.0
 40
1.0
 40
1.0
 10
183.4635202379922
 20
34.98637008743013
 30
0.0
 10
183.4643552004236
 20
35.03732636013991
 30
0.0
 10
183.4771743857256
 20
35.81965844798054
 30
0.0
 10
183.5324694366164
 20
37.31392030788958
 30
0.0
 10
183.5247917865706
 20
39.47611620146868
 30
0.0
 10
183.3981008999599
 20
41.14038925810591
 30
0.0
 10
183.1605236254048
 20
42.50237496549458
 30
0.0
 10
182.932052329345
 20
43.05645329834507
 30
0.0
 10
182.777216004243
 20
43.43195540454754
 30
0.0
  0
SPLINE
  5
1DD
330
1F
100
AcDbEntity
  8
0
  6
Continuous
 62
     8
370
    30
100
AcDbSpline
210
0.0
220
0.0
230
1.0
 70
     8
 71
     3
 72
    19
 73
    15
 74
     0
 42
0.000000001
 43
0.00000001
 40
0.0
 40
0.0
 40
0.0
 40
0.0
 40
0.0039062500000002
 40
0.0039062500000002
 40
0.0078125000000004
 40
0.0156249999999999
 40
0.03125
 40
0.0625000000000001
 40
0.1250000000000004
 40
0.2500000000000011
 40
0.2500000000000011
 40
0.5000000000000003
 40
0.5000000000000003
 40
1.0
 40
1.0
 40
1.0
 40
1.0
 10
180.3617000722693
 20
44.62198921109153
 30
0.0
 10
180.355187514758
 20
44.620888780027
 30
0.0
 10
180.3525071646158
 20
44.61989991389756
 30
0.0
 10
180.3433038436359
 20
44.61780825003849
 30
0.0
 10
180.3294884775609
 20
44.61466839411235
 30
0.0
 10
180.2971799411344
 20
44.60732554492453
 30
0.0
 10
180.2322722178145
 20
44.59257378962456
 30
0.0
 10
180.1012947773166
 20
44.56280618951138
 30
0.0
 10
179.8346964611932
 20
44.5022156631197
 30
0.0
 10
179.598237854647
 20
44.44847507072282
 30
0.0
 10
179.1147512219331
 20
44.33859174510605
 30
0.0
 10
178.7783391622064
 20
44.26213445880452
 30
0.0
 10
177.7268603477686
 20
44.02316200097773
 30
0.0
 10
176.971089464451
 20
43.85139589113284
 30
0.0
 10
176.162557462636
 20
43.66763861799305
 30
0.0
  0
LINE
  5
1DE
330
1F
100
AcDbEntity
  8
0
  6
Continuous
 62
     8
370
    30
100
AcDbLine
 10
183.7600835191
 20
27.4377442457
 30
0.0
 11
183.4543484645
 21
27.4377442457
 31
0.0
  0
LINE
  5
1DF
330
1F
100
AcDbEntity
  8
0
  6
Continuous
 62
     7
370
    30
100
AcDbLine
 10
386.5753251602
 20
128.1337219014
 30
0.0
 11
388.2653251602
 21
128.2815777428
 31
0.0
  0
LINE
  5
1E0
330
1F
100
AcDbEntity
  8
0
  6
Continuous
 62
     7
370
    30
100
AcDbLine
 10
388.2653251602
 20
136.2858660601
 30
0.0
 11
386.5753251602
 21
136.4337219014
 31
0.0
  0
LINE
  5
1E1
330
1F
100
AcDbEntity
  8
0
  6
Continuous
 62
     7
370
    30
100
AcDbLine
 10
386.5753251602
 20
136.4337219014
 30
0.0
 11
386.5653251602
 21
136.4337219014
 31
0.0
  0
LINE
  5
1E2
330
1F
100
AcDbEntity
  8
0
  6
Continuous
 62
     7
370
    30
100
AcDbLine
 10
386.5653251602
 20
128.1337219014
 30
0.0
 11
386.5753251602
 21
128.1337219014
 31
0.0
  0
ARC
  5
1E3
330
1F
100
AcDbEntity
  8
0
  6
Continuous
 62
     7
370
    30
100
AcDbCircle
 10
378.6546014936
 20
132.2837219014
 30
0.0
 40
10.41072366659118
100
AcDbArc
 50
11.3481615021
 51
22.6080584141
  0
ARC
  5
1E4
330
1F
100
AcDbEntity
  8
0
  6
Continuous
 62
     7
370
    30
100
AcDbCircle
 10
378.6546014936
 20
132.2837219014
 30
0.0
 40
10.41072366659118
100
AcDbArc
 50
337.3919415859
 51
348.6518384979
  0
LINE
  5
1E5
330
1F
100
AcDbEntity
  8
0
  6
Continuous
 62
     7
370
    30
100
AcDbLine
 10
300.5553251602
 20
128.1337219014
 30
0.0
 11
300.5653251602
 21
128.1337219014
 31
0.0
  0
LINE
  5
1E6
330
1F
100
AcDbEntity
  8
0
  6
Continuous
 62
     7
370
    30
100
AcDbLine
 10
300.5653251602
 20
136.4337219014
 30
0.0
 11
300.5553251602
 21
136.4337219014
 31
0.0
  0
LINE
  5
1E7
330
1F
100
AcDbEntity
  8
0
  6
Continuous
 62
     7
370
    30
100
AcDbLine
 10
300.5553251602
 20
136.4337219014
 30
0.0
 11
299.5653251602
 21
136.3471081245
 31
0.0
  0
LINE
  5
1E8
330
1F
100
AcDbEntity
  8
0
  6
Continuous
 62
     7
370
    30
100
AcDbLine
 10
298.8653251602
 20
128.2815777428
 30
0.0
 11
300.5553251602
 21
128.1337219014
 31
0.0
  0
ARC
  5
1E9
330
1F
100
AcDbEntity
  8
0
  6
Continuous
 62
     7
370
    30
100
AcDbCircle
 10
308.4760488268
 20
132.2837219014
 30
0.0
 40
10.41072366659117
100
AcDbArc
 50
191.3481615021
 51
202.6080584141
  0
LINE
  5
1EA
330
1F
100
AcDbEntity
  8
0
  6
Continuous
 62
     7
370
    30
100
AcDbLine
 10
371.3653251602
 20
138.2837219014
 30
0.0
 11
367.2653251602
 21
138.2837219014
 31
0.0
  0
LINE
  5
1EB
330
1F
100
AcDbEntity
  8
0
  6
Continuous
 62
     7
370
    30
100
AcDbLine
 10
367.2653251602
 20
138.2837219014
 30
0.0
 11
367.0653251602
 21
138.0837219014
 31
0.0
  0
LINE
  5
1EC
330
1F
100
AcDbEntity
  8
0
  6
Continuous
 62
     7
370
    30
100
AcDbLine
 10
374.3653251602
 20
137.2837219014
 30
0.0
 11
373.5653251602
 21
137.2837219014
 31
0.0
  0
LINE
  5
1ED
330
1F
100
AcDbEntity
  8
0
  6
Continuous
 62
     7
370
    30
100
AcDbLine
 10
371.5653251602
 20
137.2837219014
 30
0.0
 11
371.3653251602
 21
137.2837219014
 31
0.0
  0
LINE
  5
1EE
330
1F
100
AcDbEntity
  8
0
  6
Continuous
 62
     7
370
    30
100
AcDbLine
 10
385.5653251602
 20
137.0882251743
 30
0.0
 11
374.3653251602
 21
137.2837219014
 31
0.0
  0
LINE
  5
1EF
330
1F
100
AcDbEntity
  8
0
  6
Continuous
 62
     7
370
    30
100
AcDbLine
 10
380.5653251602
 20
127.391943304
 30
0.0
 11
385.5653251602
 21
127.4792186286
 31
0.0
  0
LINE
  5
1F0
330
1F
100
AcDbEntity
  8
0
  6
Continuous
 62
     7
370
    30
100
AcDbLine
 10
315.9653251602
 20
137.2837219014
 30
0.0
 11
315.5653251602
 21
137.2837219014
 31
0.0
  0
LINE
  5
1F1
330
1F
100
AcDbEntity
  8
0
  6
Continuous
 62
     7
370
    30
100
AcDbLine
 10
313.5653251602
 20
137.2837219014
 30
0.0
 11
301.7653251602
 21
137.2837219014
 31
0.0
  0
LINE
  5
1F2
330
1F
100
AcDbEntity
  8
0
  6
Continuous
 62
     7
370
    30
100
AcDbLine
 10
301.7653251602
 20
127.2837219014
 30
0.0
 11
306.5653251602
 21
127.2837219014
 31
0.0
  0
LINE
  5
1F3
330
1F
100
AcDbEntity
  8
0
  6
Continuous
 62
     7
370
    30
100
AcDbLine
 10
301.7653251602
 20
137.2837219014
 30
0.0
 11
301.5653251602
 21
137.0837219014
 31
0.0
  0
LINE
  5
1F4
330
1F
100
AcDbEntity
  8
0
  6
Continuous
 62
     7
370
    30
100
AcDbLine
 10
301.5653251602
 20
127.4837219014
 30
0.0
 11
301.7653251602
 21
127.2837219014
 31
0.0
  0
LINE
  5
1F5
330
1F
100
AcDbEntity
  8
0
  6
Continuous
 62
     7
370
    30
100
AcDbLine
 10
380.3155019853
 20
121.8735230653
 30
0.0
 11
380.3273191124
 21
121.8868901044
 31
0.0
  0
LINE
  5
1F6
330
1F
100
AcDbEntity
  8
0
  6
Continuous
 62
     7
370
    30
100
AcDbLine
 10
373.5653251602
 20
138.4337219014
 30
0.0
 11
372.5653251602
 21
138.4337219014
 31
0.0
  0
LINE
  5
1F7
330
1F
100
AcDbEntity
  8
0
  6
Continuous
 62
     7
370
    30
100
AcDbLine
 10
314.5653251602
 20
138.4337219014
 30
0.0
 11
313.5653251602
 21
138.4337219014
 31
0.0
  0
ARC
  5
1F8
330
1F
100
AcDbEntity
  8
0
  6
Continuous
 62
     7
370
    30
100
AcDbCircle
 10
343.5653251602
 20
154.2837219014
 30
0.0
 40
49.00000000000001
100
AcDbArc
 50
274.6824168623
 51
281.5217873835
  0
ARC
  5
1F9
330
1F
100
AcDbEntity
  8
0
  6
Continuous
 62
     7
370
    30
100
AcDbCircle
 10
343.5653251602
 20
154.2837219014
 30
0.0
 40
49.00000000000003
100
AcDbArc
 50
318.1535784406
 51
326.812247486
  0
ARC
  5
1FA
330
1F
100
AcDbEntity
  8
0
  6
Continuous
 62
     7
370
    30
100
AcDbCircle
 10
343.5653251602
 20
154.2837219014
 30
0.0
 40
49.00000000000001
100
AcDbArc
 50
342.2425056764
 51
195.1427314405
  0
ARC
  5
1FB
330
1F
100
AcDbEntity
  8
0
  6
Continuous
 62
     7
370
    30
100
AcDbCircle
 10
343.5653251602
 20
154.2837219014
 30
0.0
 40
49.00000000000004
100
AcDbArc
 50
213.4370454299
 51
223.2149112321
  0
LWPOLYLINE
  5
1FC
330
1F
100
AcDbEntity
  8
0
  6
Continuous
 62
     7
370
    30
100
AcDbPolyline
 90
        3
 70
   128
 43
0.0
 10
335.4341231072
 20
105.963089112
 10
337.1695417414
 20
105.7029236941
 10
339.5653251602
 20
105.4472601131
  0
SPLINE
  5
1FD
330
1F
100
AcDbEntity
  8
0
  6
Continuous
 62
     7
370
    30
100
AcDbSpline
210
0.0
220
0.0
230
1.0
 70
     8
 71
     3
 72
    11
 73
     7
 74
     0
 42
0.000000001
 43
0.00000001
 40
0.0
 40
0.0
 40
0.0
 40
0.0
 40
0.2499999999999977
 40
0.4999999999999987
 40
0.7499999999999944
 40
1.0
 40
1.0
 40
1.0
 40
1.0
 10
393.9740719323494
 20
141.5182117722731
 30
0.0
 10
393.951058189632
 20
141.4469646041743
 30
0.0
 10
393.9050307041971
 20
141.3044702679767
 30
0.0
 10
393.7776395951293
 20
141.1177815130497
 30
0.0
 10
393.6165519968663
 20
140.9592508485976
 30
0.0
 10
393.4845012657971
 20
140.8886408656777
 30
0.0
 10
393.4184759002625
 20
140.8533358742177
 30
0.0
  0
LINE
  5
1FE
330
1F
100
AcDbEntity
  8
0
  6
Continuous
 62
     7
370
    30
100
AcDbLine
 10
388.2653251602
 20
136.2858660601
 30
0.0
 11
388.2653251602
 21
128.2815777428
 31
0.0
  0
LINE
  5
1FF
330
1F
100
AcDbEntity
  8
0
  6
Continuous
 62
     7
370
    30
100
AcDbLine
 10
386.5753251602
 20
136.4337219014
 30
0.0
 11
386.5753251602
 21
128.1337219014
 31
0.0
  0
LINE
  5
200
330
1F
100
AcDbEntity
  8
0
  6
Continuous
 62
     7
370
    30
100
AcDbLine
 10
389.0175139251
 20
132.7987219014
 30
0.0
 11
388.849973327
 21
132.7987219014
 31
0.0
  0
ARC
  5
201
330
1F
100
AcDbEntity
  8
0
  6
Continuous
 62
     7
370
    30
100
AcDbCircle
 10
377.634959974
 20
132.2837219014
 30
0.0
 40
11.22683167719916
100
AcDbArc
 50
357.3707911868
 51
2.6292088132
  0
LINE
  5
202
330
1F
100
AcDbEntity
  8
0
  6
Continuous
 62
     7
370
    30
100
AcDbLine
 10
388.849973327
 20
131.7687219014
 30
0.0
 11
389.0175139251
 21
131.7687219014
 31
0.0
  0
LINE
  5
203
330
1F
100
AcDbEntity
  8
0
  6
Continuous
 62
     7
370
    30
100
AcDbLine
 10
389.0175139251
 20
131.7687219014
 30
0.0
 11
389.0175139251
 21
131.4304996568
 31
0.0
  0
ARC
  5
204
330
1F
100
AcDbEntity
  8
0
  6
Continuous
 62
     7
370
    30
100
AcDbCircle
 10
378.6546014936
 20
132.2837219014
 30
0.0
 40
10.39797779677003
100
AcDbArc
 50
348.6708579439
 51
355.2932135456
  0
LINE
  5
205
330
1F
100
AcDbEntity
  8
0
  6
Continuous
 62
     7
370
    30
100
AcDbLine
 10
388.8617913935
 20
130.2352000906
 30
0.0
 11
388.849973327
 21
130.241092361
 31
0.0
  0
LINE
  5
206
330
1F
100
AcDbEntity
  8
0
  6
Continuous
 62
     7
370
    30
100
AcDbLine
 10
388.849973327
 20
134.3263514419
 30
0.0
 11
388.8617913935
 21
134.3322437123
 31
0.0
  0
ARC
  5
207
330
1F
100
AcDbEntity
  8
0
  6
Continuous
 62
     7
370
    30
100
AcDbCircle
 10
378.6546014936
 20
132.2837219014
 30
0.0
 40
10.39797779677003
100
AcDbArc
 50
4.7067864544
 51
11.3291420561
  0
LINE
  5
208
330
1F
100
AcDbEntity
  8
0
  6
Continuous
 62
     7
370
    30
100
AcDbLine
 10
389.0175139251
 20
133.1369441461
 30
0.0
 11
389.0175139251
 21
132.7987219014
 31
0.0
  0
LINE
  5
209
330
1F
100
AcDbEntity
  8
0
  6
Continuous
 62
     7
370
    30
100
AcDbLine
 10
300.5553251602
 20
128.1337219014
 30
0.0
 11
300.5553251602
 21
136.4337219014
 31
0.0
  0
LINE
  5
20A
330
1F
100
AcDbEntity
  8
0
  6
Continuous
 62
     7
370
    30
100
AcDbLine
 10
298.8653251602
 20
128.2815777428
 30
0.0
 11
298.8653251602
 21
134.0692064367
 31
0.0
  0
LINE
  5
20B
330
1F
100
AcDbEntity
  8
0
  6
Continuous
 62
     7
370
    30
100
AcDbLine
 10
298.1131363952
 20
131.7687219014
 30
0.0
 11
298.2806769933
 21
131.7687219014
 31
0.0
  0
ARC
  5
20C
330
1F
100
AcDbEntity
  8
0
  6
Continuous
 62
     7
370
    30
100
AcDbCircle
 10
309.4956903462
 20
132.2837219014
 30
0.0
 40
11.2268316771334
100
AcDbArc
 50
177.3707911868
 51
182.6292088132
  0
LINE
  5
20D
330
1F
100
AcDbEntity
  8
0
  6
Continuous
 62
     7
370
    30
100
AcDbLine
 10
298.2806769933
 20
132.7987219014
 30
0.0
 11
298.1131363952
 21
132.7987219014
 31
0.0
  0
LINE
  5
20E
330
1F
100
AcDbEntity
  8
0
  6
Continuous
 62
     7
370
    30
100
AcDbLine
 10
298.1131363952
 20
132.7987219014
 30
0.0
 11
298.1131363952
 21
133.1369441461
 31
0.0
  0
ARC
  5
20F
330
1F
100
AcDbEntity
  8
0
  6
Continuous
 62
     7
370
    30
100
AcDbCircle
 10
308.4760488268
 20
132.2837219014
 30
0.0
 40
10.39797779676995
100
AcDbArc
 50
171.6084285788
 51
175.2932135456
  0
LINE
  5
210
330
1F
100
AcDbEntity
  8
0
  6
Continuous
 62
     7
370
    30
100
AcDbLine
 10
298.2806769933
 20
130.241092361
 30
0.0
 11
298.2688589269
 21
130.2352000906
 31
0.0
  0
ARC
  5
211
330
1F
100
AcDbEntity
  8
0
  6
Continuous
 62
     7
370
    30
100
AcDbCircle
 10
308.4760488268
 20
132.2837219014
 30
0.0
 40
10.39797779676994
100
AcDbArc
 50
184.7067864544
 51
191.3291420561
  0
LINE
  5
212
330
1F
100
AcDbEntity
  8
0
  6
Continuous
 62
     7
370
    30
100
AcDbLine
 10
298.1131363952
 20
131.4304996567
 30
0.0
 11
298.1131363952
 21
131.7687219014
 31
0.0
  0
LINE
  5
213
330
1F
100
AcDbEntity
  8
0
  6
Continuous
 62
     7
370
    30
100
AcDbLine
 10
367.2653251602
 20
138.2837219014
 30
0.0
 11
367.2653251602
 21
132.2801804001
 31
0.0
  0
LINE
  5
214
330
1F
100
AcDbEntity
  8
0
  6
Continuous
 62
     7
370
    30
100
AcDbLine
 10
371.3653251602
 20
132.2837193254
 30
0.0
 11
371.3653251602
 21
138.2837219014
 31
0.0
  0
LINE
  5
215
330
1F
100
AcDbEntity
  8
0
  6
Continuous
 62
     7
370
    30
100
AcDbLine
 10
367.0653251602
 20
132.2790339048
 30
0.0
 11
367.0653251602
 21
138.0837219014
 31
0.0
  0
LINE
  5
216
330
1F
100
AcDbEntity
  8
0
  6
Continuous
 62
     7
370
    30
100
AcDbLine
 10
374.3653251602
 20
137.2837219014
 30
0.0
 11
374.3653251602
 21
137.0523066552
 31
0.0
  0
LINE
  5
217
330
1F
100
AcDbEntity
  8
0
  6
Continuous
 62
     7
370
    30
100
AcDbLine
 10
374.3653251602
 20
137.0523066552
 30
0.0
 11
374.3653251602
 21
135.9701085855
 31
0.0
  0
LINE
  5
218
330
1F
100
AcDbEntity
  8
0
  6
Continuous
 62
     7
370
    30
100
AcDbLine
 10
374.3653251602
 20
135.9701085855
 30
0.0
 11
374.3653251602
 21
133.3659199711
 31
0.0
  0
LINE
  5
219
330
1F
100
AcDbEntity
  8
0
  6
Continuous
 62
     7
370
    30
100
AcDbLine
 10
374.3653251602
 20
133.3659199711
 30
0.0
 11
374.3653251602
 21
132.2849991803
 31
0.0
  0
LINE
  5
21A
330
1F
100
AcDbEntity
  8
0
  6
Continuous
 62
     7
370
    30
100
AcDbLine
 10
374.3653251602
 20
131.2015238318
 30
0.0
 11
385.5653251602
 21
131.2438370679
 31
0.0
  0
LINE
  5
21B
330
1F
100
AcDbEntity
  8
0
  6
Continuous
 62
     7
370
    30
100
AcDbLine
 10
380.5653251602
 20
128.6771244049
 30
0.0
 11
385.5653251602
 21
128.7414705238
 31
0.0
  0
LINE
  5
21C
330
1F
100
AcDbEntity
  8
0
  6
Continuous
 62
     7
370
    30
100
AcDbLine
 10
374.3653251602
 20
135.9701085855
 30
0.0
 11
385.5653251602
 21
135.8259732791
 31
0.0
  0
LINE
  5
21D
330
1F
100
AcDbEntity
  8
0
  6
Continuous
 62
     7
370
    30
100
AcDbLine
 10
374.3653251602
 20
133.3659199711
 30
0.0
 11
385.5653251602
 21
133.323606735
 31
0.0
  0
LINE
  5
21E
330
1F
100
AcDbEntity
  8
0
  6
Continuous
 62
     7
370
    30
100
AcDbLine
 10
385.5653251602
 20
131.3304129135
 30
0.0
 11
380.5649386734
 21
131.3115216158
 31
0.0
  0
LINE
  5
21F
330
1F
100
AcDbEntity
  8
0
  6
Continuous
 62
     7
370
    30
100
AcDbLine
 10
385.5653251602
 20
133.2370308894
 30
0.0
 11
374.3653251602
 21
133.2793441256
 31
0.0
  0
LINE
  5
220
330
1F
100
AcDbEntity
  8
0
  6
Continuous
 62
     7
370
    30
100
AcDbLine
 10
385.5653251602
 20
136.4843713323
 30
0.0
 11
374.3653251602
 21
136.6708198749
 31
0.0
  0
LINE
  5
221
330
1F
100
AcDbEntity
  8
0
  6
Continuous
 62
     7
370
    30
100
AcDbLine
 10
385.5653251602
 20
136.4843713323
 30
0.0
 11
385.5653251602
 21
135.9958953608
 31
0.0
  0
LINE
  5
222
330
1F
100
AcDbEntity
  8
0
  6
Continuous
 62
     7
370
    30
100
AcDbLine
 10
385.5653251602
 20
128.0830724705
 30
0.0
 11
380.5653251602
 21
127.9998365141
 31
0.0
  0
LINE
  5
223
330
1F
100
AcDbEntity
  8
0
  6
Continuous
 62
     7
370
    30
100
AcDbLine
 10
374.3653251602
 20
137.0523066552
 30
0.0
 11
385.5653251602
 21
136.8658581126
 31
0.0
  0
LINE
  5
224
330
1F
100
AcDbEntity
  8
0
  6
Continuous
 62
     7
370
    30
100
AcDbLine
 10
385.5653251602
 20
137.0882251743
 30
0.0
 11
385.5653251602
 21
136.8658581126
 31
0.0
  0
LINE
  5
225
330
1F
100
AcDbEntity
  8
0
  6
Continuous
 62
     7
370
    30
100
AcDbLine
 10
385.5653251602
 20
136.8658581126
 30
0.0
 11
385.5653251602
 21
136.4843713323
 31
0.0
  0
LINE
  5
226
330
1F
100
AcDbEntity
  8
0
  6
Continuous
 62
     7
370
    30
100
AcDbLine
 10
380.5653251602
 20
127.6183497338
 30
0.0
 11
385.5653251602
 21
127.7015856902
 31
0.0
  0
LINE
  5
227
330
1F
100
AcDbEntity
  8
0
  6
Continuous
 62
     7
370
    30
100
AcDbLine
 10
318.5653251602
 20
138.7837219014
 30
0.0
 11
318.5653251602
 21
132.283967826
 31
0.0
  0
LINE
  5
228
330
1F
100
AcDbEntity
  8
0
  6
Continuous
 62
     7
370
    30
100
AcDbLine
 10
318.0653251602
 20
132.2826680964
 30
0.0
 11
318.0653251602
 21
138.7837219014
 31
0.0
  0
SPLINE
  5
229
330
1F
100
AcDbEntity
  8
0
  6
Continuous
 62
     7
370
    30
100
AcDbSpline
210
0.0
220
0.0
230
1.0
 70
    24
 71
     3
 72
     9
 73
     5
 74
     0
 42
0.000000001
 43
0.00000001
 40
0.0
 40
0.0
 40
0.0
 40
0.0
 40
0.4925581539130383
 40
1.0
 40
1.0
 40
1.0
 40
1.0
 10
318.0653251601677
 20
138.7837219014474
 30
0.0
 10
318.2052616931275
 20
138.7837219014474
 30
0.0
 10
318.4893632390022
 20
138.7837219014474
 30
0.0
 10
318.5397545170224
 20
138.7837219014474
 30
0.0
 10
318.5653251601677
 20
138.7837219014474
 30
0.0
  0
LINE
  5
22A
330
1F
100
AcDbEntity
  8
0
  6
Continuous
 62
     7
370
    30
100
AcDbLine
 10
315.9653251602
 20
138.7837219014
 30
0.0
 11
315.9653251602
 21
132.2847757065
 31
0.0
  0
LINE
  5
22B
330
1F
100
AcDbEntity
  8
0
  6
Continuous
 62
     7
370
    30
100
AcDbLine
 10
315.9653251602
 20
138.7837219014
 30
0.0
 11
318.0653251602
 21
138.7837219014
 31
0.0
  0
LINE
  5
22C
330
1F
100
AcDbEntity
  8
0
  6
Continuous
 62
     7
370
    30
100
AcDbLine
 10
301.7653251602
 20
137.2837219014
 30
0.0
 11
301.7653251602
 21
127.2837219014
 31
0.0
  0
LINE
  5
22D
330
1F
100
AcDbEntity
  8
0
  6
Continuous
 62
     7
370
    30
100
AcDbLine
 10
301.5653251602
 20
135.9958953608
 30
0.0
 11
301.5653251602
 21
137.0837219014
 31
0.0
  0
SPLINE
  5
22E
330
1F
100
AcDbEntity
  8
0
  6
Continuous
 62
     7
370
    30
100
AcDbSpline
210
0.0
220
0.0
230
1.0
 70
     8
 71
     3
 72
    18
 73
    14
 74
     0
 42
0.000000001
 43
0.00000001
 40
0.0
 40
0.0
 40
0.0
 40
0.0
 40
0.0951849785608022
 40
0.1909603857483409
 40
0.2738882129883856
 40
0.3571862189326157
 40
0.441599503511838
 40
0.5263790231183757
 40
0.635637595018186
 40
0.7456287369827026
 40
0.8578209523755591
 40
0.9707280464908135
 40
1.0
 40
1.0
 40
1.0
 40
1.0
 10
336.9802256500984
 20
105.728223093975
 30
0.0
 10
335.8504709404752
 20
105.9047988582886
 30
0.0
 10
333.5839536978114
 20
106.2590456793413
 30
0.0
 10
330.4031792426729
 20
107.050999310193
 30
0.0
 10
327.4278712861885
 20
107.9850784469897
 30
0.0
 10
324.6561181911629
 20
109.046942556673
 30
0.0
 10
321.9499492895101
 20
110.2753887854244
 30
0.0
 10
319.0729096403535
 20
111.7986994142268
 30
0.0
 10
316.0780865828233
 20
113.6605387116032
 30
0.0
 10
313.0112545112963
 20
115.9130367351782
 30
0.0
 10
310.1306922067272
 20
118.3974446433747
 30
0.0
 10
308.115042685066
 20
120.4201408158051
 30
0.0
 10
307.0616171505872
 20
121.5975441221745
 30
0.0
 10
306.8447369295851
 20
121.839949001244
 30
0.0
  0
LINE
  5
22F
330
1F
100
AcDbEntity
  8
0
  6
Continuous
 62
     7
370
    30
100
AcDbLine
 10
306.8151537933
 20
121.8734715058
 30
0.0
 11
306.8447369296
 21
121.8399490012
 31
0.0
  0
LINE
  5
230
330
1F
100
AcDbEntity
  8
0
  6
Continuous
 62
     7
370
    30
100
AcDbLine
 10
380.2859133908
 20
121.8399490013
 30
0.0
 11
380.315496527
 21
121.8734715058
 31
0.0
  0
SPLINE
  5
231
330
1F
100
AcDbEntity
  8
0
  6
Continuous
 62
     7
370
    30
100
AcDbSpline
210
0.0
220
0.0
230
1.0
 70
     8
 71
     3
 72
    17
 73
    13
 74
     0
 42
0.000000001
 43
0.00000001
 40
0.0
 40
0.0
 40
0.0
 40
0.0
 40
0.1176748821644423
 40
0.2361528018085121
 40
0.3572880204071356
 40
0.4794031055924756
 40
0.5661750943462865
 40
0.6533415661587727
 40
0.7417689361946327
 40
0.8306436023210082
 40
0.9151168095967559
 40
1.0
 40
1.0
 40
1.0
 40
1.0
 10
380.2859133907501
 20
121.8399490012438
 30
0.0
 10
379.3948037148785
 20
120.8769979312346
 30
0.0
 10
377.6065032483297
 20
118.9445244160337
 30
0.0
 10
374.5638753909476
 20
116.2664155811321
 30
0.0
 10
371.2470981839927
 20
113.7779141655921
 30
0.0
 10
367.9953155249512
 20
111.7554979047658
 30
0.0
 10
364.9271003637431
 20
110.1497413522912
 30
0.0
 10
362.10464326895
 20
108.8909408220982
 30
0.0
 10
359.166709068211
 20
107.7972621411673
 30
0.0
 10
356.1779703973025
 20
106.9033158356148
 30
0.0
 10
353.1689451631215
 20
106.1932306430237
 30
0.0
 10
351.1582207088724
 20
105.883475565168
 30
0.0
 10
350.1504246702368
 20
105.728223093975
 30
0.0
  0
LINE
  5
232
330
1F
100
AcDbEntity
  8
0
  6
Continuous
 62
     7
370
    30
100
AcDbLine
 10
338.1109150135
 20
106.6331946748
 30
0.0
 11
338.4765756985
 21
110.8127154297
 31
0.0
  0
LINE
  5
233
330
1F
100
AcDbEntity
  8
0
  6
Continuous
 62
     7
370
    30
100
AcDbLine
 10
348.6540746218
 20
110.8127154297
 30
0.0
 11
349.0197353069
 21
106.6331946748
 31
0.0
  0
ARC
  5
234
330
1F
100
AcDbEntity
  8
0
  6
Continuous
 62
     7
370
    30
100
AcDbCircle
 10
337.113517549
 20
131.2856209323
 30
0.0
 40
0.9981027895430779
100
AcDbArc
 50
359.8909866589
 51
89.8905702451
  0
LINE
  5
235
330
1F
100
AcDbEntity
  8
0
  6
Continuous
 62
     7
370
    30
100
AcDbLine
 10
350.0152264865
 20
132.2837219014
 30
0.0
 11
362.752994812
 21
132.2837219014
 31
0.0
  0
LINE
  5
236
330
1F
100
AcDbEntity
  8
0
  6
Continuous
 62
     7
370
    30
100
AcDbLine
 10
324.3776555084
 20
132.2837219014
 30
0.0
 11
337.1154238339
 21
132.2837219014
 31
0.0
  0
LINE
  5
237
330
1F
100
AcDbEntity
  8
0
  6
Continuous
 62
     7
370
    30
100
AcDbLine
 10
349.6502693199
 20
132.2837219014
 30
0.0
 11
350.0152264865
 21
132.2837219014
 31
0.0
  0
LINE
  5
238
330
1F
100
AcDbEntity
  8
0
  6
Continuous
 62
     7
370
    30
100
AcDbLine
 10
337.1154238339
 20
132.2837219014
 30
0.0
 11
337.4803810004
 21
132.2837219014
 31
0.0
  0
SPLINE
  5
239
330
1F
100
AcDbEntity
  8
0
  6
Continuous
 62
     7
370
    30
100
AcDbSpline
210
0.0
220
0.0
230
1.0
 70
    24
 71
     3
 72
    13
 73
     9
 74
     0
 42
0.000000001
 43
0.00000001
 40
0.0
 40
0.0
 40
0.0
 40
0.0
 40
0.2335153865046388
 40
0.4714316076494157
 40
0.6022589682389184
 40
0.7330912114360469
 40
0.8665430482901177
 40
1.0
 40
1.0
 40
1.0
 40
1.0
 10
307.5653251601697
 20
132.2837219014479
 30
0.0
 10
308.5908512314423
 20
132.2837219014479
 30
0.0
 10
310.661230454427
 20
132.2837219014478
 30
0.0
 10
313.8912490012675
 20
132.2837219014479
 30
0.0
 10
316.7784270203458
 20
132.2837219014478
 30
0.0
 10
319.1886890559607
 20
132.2837219014478
 30
0.0
 10
321.716445141224
 20
132.2837219014479
 30
0.0
 10
323.4905740532707
 20
132.2837219014479
 30
0.0
 10
324.3776555083852
 20
132.2837219014479
 30
0.0
  0
SPLINE
  5
23A
330
1F
100
AcDbEntity
  8
0
  6
Continuous
 62
     7
370
    30
100
AcDbSpline
210
0.0
220
0.0
230
1.0
 70
    24
 71
     3
 72
    13
 73
     9
 74
     0
 42
0.000000001
 43
0.00000001
 40
0.0
 40
0.0
 40
0.0
 40
0.0
 40
0.2358689065900533
 40
0.4754163994905794
 40
0.6050966512671555
 40
0.7347720741213232
 40
0.8673888160484932
 40
1.0
 40
1.0
 40
1.0
 40
1.0
 10
362.7529948119693
 20
132.2837219014479
 30
0.0
 10
364.3110077471566
 20
132.2837219014479
 30
0.0
 10
367.4513322210979
 20
132.2837219014479
 30
0.0
 10
371.1035947465484
 20
132.2837219014478
 30
0.0
 10
373.8954276150379
 20
132.2837219014478
 30
0.0
 10
375.9428890809195
 20
132.2837219014478
 30
0.0
 10
377.8605475784061
 20
132.2837219014478
 30
0.0
 10
378.9970739050611
 20
132.2837219014479
 30
0.0
 10
379.5653251601674
 20
132.2837219014479
 30
0.0
  0
LINE
  5
23B
330
1F
100
AcDbEntity
  8
0
  6
Continuous
 62
     7
370
    30
100
AcDbLine
 10
347.470791706
 20
132.2837219014
 30
0.0
 11
349.6502693199
 21
132.2837219014
 31
0.0
  0
LINE
  5
23C
330
1F
100
AcDbEntity
  8
0
  6
Continuous
 62
     7
370
    30
100
AcDbLine
 10
337.4803810004
 20
132.2837219014
 30
0.0
 11
339.6598586143
 21
132.2837219014
 31
0.0
  0
ARC
  5
23D
330
1F
100
AcDbEntity
  8
0
  6
Continuous
 62
     7
370
    30
100
AcDbCircle
 10
347.6578799238
 20
110.7255596869
 30
0.0
 40
1.00000000000001
100
AcDbArc
 50
5.0
 51
95.3675302291
  0
ARC
  5
23E
330
1F
100
AcDbEntity
  8
0
  6
Continuous
 62
     7
370
    30
100
AcDbCircle
 10
339.4727703966
 20
110.7255596869
 30
0.0
 40
1.00000000000001
100
AcDbArc
 50
84.6324697709
 51
175.0
  0
LINE
  5
23F
330
1F
100
AcDbEntity
  8
0
  6
Continuous
 62
     7
370
    30
100
AcDbLine
 10
339.6598586143
 20
132.2837219014
 30
0.0
 11
347.470791706
 21
132.2837219014
 31
0.0
  0
ARC
  5
240
330
1F
100
AcDbEntity
  8
0
  6
Continuous
 62
     7
370
    30
100
AcDbCircle
 10
343.5653251602
 20
154.2837219015
 30
0.0
 40
42.75000000000009
100
AcDbArc
 50
264.6324697709
 51
275.3675302291
  0
ARC
  5
241
330
1F
100
AcDbEntity
  8
0
  6
Continuous
 62
     7
370
    30
100
AcDbCircle
 10
307.5653251602
 20
131.2837219014
 30
0.0
 40
1.0
100
AcDbArc
 50
89.9999999999
 51
179.9999999998
  0
ARC
  5
242
330
1F
100
AcDbEntity
  8
0
  6
Continuous
 62
     7
370
    30
100
AcDbCircle
 10
379.5653251602
 20
131.2837219014
 30
0.0
 40
1.0
100
AcDbArc
 50
359.9999999997
 51
90.0
  0
ARC
  5
243
330
1F
100
AcDbEntity
  8
0
  6
Continuous
 62
     7
370
    30
100
AcDbCircle
 10
379.565325809
 20
122.534714726
 30
0.0
 40
0.999999351185609
100
AcDbArc
 50
318.6052103503
 51
359.9999983802
  0
SPLINE
  5
244
330
1F
100
AcDbEntity
  8
0
  6
Continuous
 62
     7
370
    30
100
AcDbSpline
210
0.0
220
0.0
230
1.0
 70
    24
 71
     3
 72
    14
 73
    10
 74
     0
 42
0.000000001
 43
0.00000001
 40
0.0
 40
0.0
 40
0.0
 40
0.0
 40
0.1172687548992297
 40
0.2552432417085634
 40
0.3932084910831204
 40
0.5457154974580176
 40
0.6983576776145634
 40
0.8491039180082406
 40
1.0
 40
1.0
 40
1.0
 40
1.0
 10
380.5653251601677
 20
131.2837219014433
 30
0.0
 10
380.5653251601677
 20
130.6556705441537
 30
0.0
 10
380.5653251601677
 20
129.2886750087118
 30
0.0
 10
380.5653251601677
 20
127.4133617774004
 30
0.0
 10
380.5653251601676
 20
125.6546868733208
 30
0.0
 10
380.5653251601676
 20
124.238005340793
 30
0.0
 10
380.5653251601676
 20
123.2251292247028
 30
0.0
 10
380.5653251601677
 20
122.6385434128957
 30
0.0
 10
380.5653251601677
 20
122.5693357291347
 30
0.0
 10
380.5653251601677
 20
122.534714697707
 30
0.0
  0
ARC
  5
245
330
1F
100
AcDbEntity
  8
0
  6
Continuous
 62
     7
370
    30
100
AcDbCircle
 10
307.5653245113
 20
122.534714726
 30
0.0
 40
0.99999935116
100
AcDbArc
 50
180.0000016192
 51
221.3947896502
  0
SPLINE
  5
246
330
1F
100
AcDbEntity
  8
0
  6
Continuous
 62
     7
370
    30
100
AcDbSpline
210
0.0
220
0.0
230
1.0
 70
    24
 71
     3
 72
    14
 73
    10
 74
     0
 42
0.000000001
 43
0.00000001
 40
0.0
 40
0.0
 40
0.0
 40
0.0
 40
0.148256872085345
 40
0.2963742837762161
 40
0.4462957038985118
 40
0.5960888997907324
 40
0.7345994680795233
 40
0.8731151854124639
 40
1.0
 40
1.0
 40
1.0
 40
1.0
 10
306.5653251601677
 20
122.5347146977071
 30
0.0
 10
306.5653251601677
 20
122.5681166927426
 30
0.0
 10
306.5653251601677
 20
122.6348892626486
 30
0.0
 10
306.5653251601676
 20
123.2004317461535
 30
0.0
 10
306.5653251601677
 20
124.1758262152737
 30
0.0
 10
306.5653251601677
 20
125.5506372821316
 30
0.0
 10
306.5653251601677
 20
127.2774788085893
 30
0.0
 10
306.5653251601677
 20
129.185099579591
 30
0.0
 10
306.5653251601677
 20
130.6049218734377
 30
0.0
 10
306.5653251601677
 20
131.2837219014496
 30
0.0
  0
ARC
  5
247
330
1F
100
AcDbEntity
  8
0
  6
Continuous
 62
     7
370
    30
100
AcDbCircle
 10
350.0160348843
 20
106.7191516411
 30
0.0
 40
1.000000000000044
100
AcDbArc
 50
185.0
 51
277.7233356557
  0
ARC
  5
248
330
1F
100
AcDbEntity
  8
0
  6
Continuous
 62
     7
370
    30
100
AcDbCircle
 10
337.114615436
 20
106.7191516411
 30
0.0
 40
1.000000000000979
100
AcDbArc
 50
262.2766643443
 51
355.0
  0
LINE
  5
249
330
1F
100
AcDbEntity
  8
0
  6
Continuous
 62
     7
370
    30
100
AcDbLine
 10
372.5653251602
 20
135.2837219014
 30
0.0
 11
372.5653251602
 21
132.2837219014
 31
0.0
  0
LINE
  5
24A
330
1F
100
AcDbEntity
  8
0
  6
Continuous
 62
     7
370
    30
100
AcDbLine
 10
371.5653251602
 20
135.2837219014
 30
0.0
 11
371.5653251602
 21
132.2837219014
 31
0.0
  0
LINE
  5
24B
330
1F
100
AcDbEntity
  8
0
  6
Continuous
 62
     7
370
    30
100
AcDbLine
 10
371.5653251602
 20
135.2837219014
 30
0.0
 11
371.5653251602
 21
140.2837219014
 31
0.0
  0
LINE
  5
24C
330
1F
100
AcDbEntity
  8
0
  6
Continuous
 62
     7
370
    30
100
AcDbLine
 10
371.5653251602
 20
140.2837219014
 30
0.0
 11
372.5653251602
 21
140.2837219014
 31
0.0
  0
LINE
  5
24D
330
1F
100
AcDbEntity
  8
0
  6
Continuous
 62
     7
370
    30
100
AcDbLine
 10
372.5653251602
 20
140.2837219014
 30
0.0
 11
372.5653251602
 21
135.2837219014
 31
0.0
  0
LINE
  5
24E
330
1F
100
AcDbEntity
  8
0
  6
Continuous
 62
     7
370
    30
100
AcDbLine
 10
315.5653251602
 20
132.2837219014
 30
0.0
 11
315.5653251602
 21
135.2837219014
 31
0.0
  0
LINE
  5
24F
330
1F
100
AcDbEntity
  8
0
  6
Continuous
 62
     7
370
    30
100
AcDbLine
 10
314.5653251602
 20
132.2837219014
 30
0.0
 11
314.5653251602
 21
135.2837219014
 31
0.0
  0
LINE
  5
250
330
1F
100
AcDbEntity
  8
0
  6
Continuous
 62
     7
370
    30
100
AcDbLine
 10
314.5653251602
 20
140.2837219014
 30
0.0
 11
315.5653251602
 21
140.2837219014
 31
0.0
  0
LINE
  5
251
330
1F
100
AcDbEntity
  8
0
  6
Continuous
 62
     7
370
    30
100
AcDbLine
 10
315.5653251602
 20
140.2837219014
 30
0.0
 11
315.5653251602
 21
135.2837219014
 31
0.0
  0
LINE
  5
252
330
1F
100
AcDbEntity
  8
0
  6
Continuous
 62
     7
370
    30
100
AcDbLine
 10
314.5653251602
 20
135.2837219014
 30
0.0
 11
314.5653251602
 21
140.2837219014
 31
0.0
  0
LINE
  5
253
330
1F
100
AcDbEntity
  8
0
  6
Continuous
 62
     7
370
    30
100
AcDbLine
 10
373.5653251602
 20
138.4337219014
 30
0.0
 11
373.5653251602
 21
132.2837219014
 31
0.0
  0
LINE
  5
254
330
1F
100
AcDbEntity
  8
0
  6
Continuous
 62
     7
370
    30
100
AcDbLine
 10
313.5653251602
 20
138.4337219014
 30
0.0
 11
313.5653251602
 21
132.2837219014
 31
0.0
  0
CIRCLE
  5
255
330
1F
100
AcDbEntity
  8
0
  6
Continuous
 62
     7
370
    30
100
AcDbCircle
 10
351.5653251602
 20
145.2837219014
 30
0.0
 40
1.5
  0
CIRCLE
  5
256
330
1F
100
AcDbEntity
  8
0
  6
Continuous
 62
     7
370
    30
100
AcDbCircle
 10
337.5653251602
 20
145.2837219014
 30
0.0
 40
1.5
  0
LINE
  5
257
330
1F
100
AcDbEntity
  8
0
  6
Continuous
 62
     7
370
    30
100
AcDbLine
 10
371.5653251602
 20
140.2837219014
 30
0.0
 11
371.0653251602
 21
140.2837219014
 31
0.0
  0
LINE
  5
258
330
1F
100
AcDbEntity
  8
0
  6
Continuous
 62
     7
370
    30
100
AcDbLine
 10
316.0653251602
 20
140.2837219014
 30
0.0
 11
315.5653251602
 21
140.2837219014
 31
0.0
  0
ARC
  5
259
330
1F
100
AcDbEntity
  8
0
  6
Continuous
 62
     7
370
    30
100
AcDbCircle
 10
364.5653251602
 20
149.2837219014
 30
0.0
 40
2.0
100
AcDbArc
 50
0.0
 51
90.0
  0
LINE
  5
25A
330
1F
100
AcDbEntity
  8
0
  6
Continuous
 62
     7
370
    30
100
AcDbLine
 10
366.5653251602
 20
142.2837219014
 30
0.0
 11
366.5653251602
 21
149.2837219014
 31
0.0
  0
ARC
  5
25B
330
1F
100
AcDbEntity
  8
0
  6
Continuous
 62
     7
370
    30
100
AcDbCircle
 10
368.5653251602
 20
142.2837219014
 30
0.0
 40
2.000000000000028
100
AcDbArc
 50
180.0
 51
270.0
  0
LINE
  5
25C
330
1F
100
AcDbEntity
  8
0
  6
Continuous
 62
     7
370
    30
100
AcDbLine
 10
371.0653251602
 20
140.2837219014
 30
0.0
 11
368.5653251602
 21
140.2837219014
 31
0.0
  0
LINE
  5
25D
330
1F
100
AcDbEntity
  8
0
  6
Continuous
 62
     7
370
    30
100
AcDbLine
 10
318.5653251602
 20
140.2837219014
 30
0.0
 11
316.0653251602
 21
140.2837219014
 31
0.0
  0
ARC
  5
25E
330
1F
100
AcDbEntity
  8
0
  6
Continuous
 62
     7
370
    30
100
AcDbCircle
 10
318.5653251602
 20
142.2837219014
 30
0.0
 40
2.000000000000028
100
AcDbArc
 50
270.0
 51
0.0
  0
LINE
  5
25F
330
1F
100
AcDbEntity
  8
0
  6
Continuous
 62
     7
370
    30
100
AcDbLine
 10
320.5653251602
 20
149.2837219014
 30
0.0
 11
320.5653251602
 21
142.2837219014
 31
0.0
  0
ARC
  5
260
330
1F
100
AcDbEntity
  8
0
  6
Continuous
 62
     7
370
    30
100
AcDbCircle
 10
322.5653251602
 20
149.2837219014
 30
0.0
 40
2.0
100
AcDbArc
 50
90.0
 51
180.0
  0
LINE
  5
261
330
1F
100
AcDbEntity
  8
0
  6
Continuous
 62
     7
370
    30
100
AcDbLine
 10
364.5653251602
 20
151.2837219014
 30
0.0
 11
322.5653251602
 21
151.2837219014
 31
0.0
  0
LWPOLYLINE
  5
262
330
1F
100
AcDbEntity
  8
0
  6
Continuous
 62
     7
370
    30
100
AcDbPolyline
 90
        3
 70
   128
 43
0.0
 10
343.5653251602
 20
109.7837219014
 10
346.5375973618
 20
109.8830958027
 10
348.7179134972
 20
110.0830337458
  0
ARC
  5
263
330
1F
100
AcDbEntity
  8
0
  6
Continuous
 62
     7
370
    30
100
AcDbCircle
 10
343.5653251602
 20
154.2837219014
 30
0.0
 40
44.50000000000003
100
AcDbArc
 50
337.2914829266
 51
202.4590156109
  0
LWPOLYLINE
  5
264
330
1F
100
AcDbEntity
  8
0
  6
Continuous
 62
     7
370
    30
100
AcDbPolyline
 90
        3
 70
   128
 43
0.0
 10
338.4127368232
 20
110.0830337458
 10
340.5930529585
 20
109.8830958027
 10
343.5653251602
 20
109.7837219014
  0
CIRCLE
  5
265
330
1F
100
AcDbEntity
  8
0
  6
Continuous
 62
     7
370
    30
100
AcDbCircle
 10
343.5653251602
 20
154.2837219014
 30
0.0
 40
51.99999999999999
  0
CIRCLE
  5
266
330
1F
100
AcDbEntity
  8
0
  6
Continuous
 62
     7
370
    30
100
AcDbCircle
 10
343.5653251602
 20
154.2837219014
 30
0.0
 40
52.99999999999999
  0
LINE
  5
267
330
1F
100
AcDbEntity
  8
0
  6
Continuous
 62
     7
370
    30
100
AcDbLine
 10
298.9339364922
 20
134.0964131497
 30
0.0
 11
296.1278926833
 21
132.9837219014
 31
0.0
  0
LINE
  5
268
330
1F
100
AcDbEntity
  8
0
  6
Continuous
 62
     7
370
    30
100
AcDbLine
 10
293.1653251602
 20
141.4837219014
 30
0.0
 11
298.5653251602
 21
141.4837219014
 31
0.0
  0
ARC
  5
269
330
1F
100
AcDbEntity
  8
0
  6
Continuous
 62
     7
370
    30
100
AcDbCircle
 10
298.5653251602
 20
140.4837219014
 30
0.0
 40
1.0
100
AcDbArc
 50
0.0
 51
90.0
  0
LINE
  5
26A
330
1F
100
AcDbEntity
  8
0
  6
Continuous
 62
     7
370
    30
100
AcDbLine
 10
299.5653251602
 20
140.4837219014
 30
0.0
 11
299.5653251602
 21
135.0259967586
 31
0.0
  0
ARC
  5
26B
330
1F
100
AcDbEntity
  8
0
  6
Continuous
 62
     7
370
    30
100
AcDbCircle
 10
298.5653251602
 20
135.0259967586
 30
0.0
 40
1.0
100
AcDbArc
 50
291.63
 51
0.0
  0
LINE
  5
26C
330
1F
100
AcDbEntity
  8
0
  6
Continuous
 62
     7
370
    30
100
AcDbLine
 10
299.5653251602
 20
137.0943540857
 30
0.0
 11
300.5653251602
 21
136.6398086311
 31
0.0
  0
LINE
  5
26D
330
1F
100
AcDbEntity
  8
0
  6
Continuous
 62
     7
370
    30
100
AcDbLine
 10
386.5653251602
 20
136.6398086311
 30
0.0
 11
393.5059550895
 21
139.7946404172
 31
0.0
  0
ARC
  5
26E
330
1F
100
AcDbEntity
  8
0
  6
Continuous
 62
     7
370
    30
100
AcDbCircle
 10
393.004672956
 20
141.7637023517
 30
0.0
 40
0.9999999999999959
100
AcDbArc
 50
294.4439547804
 51
345.7891727089
  0
ARC
  5
26F
330
1F
100
AcDbEntity
  8
0
  6
Continuous
 62
     7
370
    30
100
AcDbCircle
 10
387.5653251602
 20
135.9958953608
 30
0.0
 40
2.00000000000002
100
AcDbArc
 50
114.4439547804
 51
180.0
  0
LINE
  5
270
330
1F
100
AcDbEntity
  8
0
  6
Continuous
 62
     7
370
    30
100
AcDbLine
 10
386.5653251602
 20
125.043338867
 30
0.0
 11
386.5653251602
 21
136.6398086311
 31
0.0
  0
ARC
  5
271
330
1F
100
AcDbEntity
  8
0
  6
Continuous
 62
     7
370
    30
100
AcDbCircle
 10
384.5653251602
 20
123.9522201252
 30
0.0
 40
1.000000000000006
100
AcDbArc
 50
323.5062334002
 51
0.0
  0
LINE
  5
272
330
1F
100
AcDbEntity
  8
0
  6
Continuous
 62
     7
370
    30
100
AcDbLine
 10
385.5653251602
 20
123.9522201252
 30
0.0
 11
385.5653251602
 21
135.9958953608
 31
0.0
  0
LINE
  5
273
330
1F
100
AcDbEntity
  8
0
  6
Continuous
 62
     7
370
    30
100
AcDbLine
 10
386.7377192716
 20
137.8166283157
 30
0.0
 11
393.4184759003
 21
140.8533358742
 31
0.0
  0
ARC
  5
274
330
1F
100
AcDbEntity
  8
0
  6
Continuous
 62
     7
370
    30
100
AcDbCircle
 10
302.5653251602
 20
123.9522201252
 30
0.0
 40
1.000000000000006
100
AcDbArc
 50
180.0
 51
216.4937665998
  0
LINE
  5
275
330
1F
100
AcDbEntity
  8
0
  6
Continuous
 62
     7
370
    30
100
AcDbLine
 10
300.5653251602
 20
136.6398086311
 30
0.0
 11
300.5653251602
 21
125.043338867
 31
0.0
  0
ARC
  5
276
330
1F
100
AcDbEntity
  8
0
  6
Continuous
 62
     7
370
    30
100
AcDbCircle
 10
299.5653251602
 20
135.9958953608
 30
0.0
 40
2.000000000000044
100
AcDbArc
 50
0.0
 51
65.5560452196
  0
LINE
  5
277
330
1F
100
AcDbEntity
  8
0
  6
Continuous
 62
     7
370
    30
100
AcDbLine
 10
301.5653251602
 20
135.9958953608
 30
0.0
 11
301.5653251602
 21
123.9522201252
 31
0.0
  0
LINE
  5
278
330
1F
100
AcDbEntity
  8
0
  6
Continuous
 62
     7
370
    30
100
AcDbLine
 10
299.5653251602
 20
138.1928128105
 30
0.0
 11
300.3929310488
 21
137.8166283157
 31
0.0
  0
ARC
  5
279
330
1F
100
AcDbEntity
  8
0
  6
Continuous
 62
     7
370
    30
100
AcDbCircle
 10
346.5653251602
 20
108.7837219014
 30
0.0
 40
1.0
100
AcDbArc
 50
0.0
 51
90.0
  0
ARC
  5
27A
330
1F
100
AcDbEntity
  8
0
  6
Continuous
 62
     7
370
    30
100
AcDbCircle
 10
340.5653251602
 20
108.7837219014
 30
0.0
 40
1.0
100
AcDbArc
 50
90.0
 51
180.0
  0
LINE
  5
27B
330
1F
100
AcDbEntity
  8
0
  6
Continuous
 62
     7
370
    30
100
AcDbLine
 10
346.5653251602
 20
109.7837219014
 30
0.0
 11
340.5653251602
 21
109.7837219014
 31
0.0
  0
LINE
  5
27C
330
1F
100
AcDbEntity
  8
0
  6
Continuous
 62
     7
370
    30
100
AcDbLine
 10
339.5653251602
 20
108.7837219014
 30
0.0
 11
339.5653251602
 21
102.4377963142
 31
0.0
  0
LINE
  5
27D
330
1F
100
AcDbEntity
  8
0
  6
Continuous
 62
     7
370
    30
100
AcDbLine
 10
347.5653251602
 20
108.7837219014
 30
0.0
 11
347.5653251602
 21
102.4377963142
 31
0.0
  0
CIRCLE
  5
27E
330
1F
100
AcDbEntity
  8
0
  6
Continuous
 62
     7
370
    30
100
AcDbCircle
 10
343.5653251602
 20
154.2837219014
 30
0.0
 40
68.00000000000003
  0
CIRCLE
  5
27F
330
1F
100
AcDbEntity
  8
0
  6
Continuous
 62
     7
370
    30
100
AcDbCircle
 10
343.5653251602
 20
154.2837219014
 30
0.0
 40
67.92820323027553
  0
ENDSEC
  0
SECTION
  2
OBJECTS
  0
DICTIONARY
  5
C
330
0
100
AcDbDictionary
281
     1
  3
ACAD_GROUP
350
D
  3
ACAD_LAYOUT
350
1A
  3
ACAD_MLINESTYLE
350
17
  3
ACAD_PLOTSETTINGS
350
19
  3
ACAD_PLOTSTYLENAME
350
E
  3
ACAD_SCALELIST
350
47
  0
DICTIONARY
  5
D
102
{ACAD_REACTORS
330
C
102
}
330
C
100
AcDbDictionary
281
     1
  0
DICTIONARY
  5
1A
102
{ACAD_REACTORS
330
C
102
}
330
C
100
AcDbDictionary
281
     1
  3
Layout1
350
1E
  3
Layout2
350
26
  3
Model
350
22
  0
DICTIONARY
  5
17
102
{ACAD_REACTORS
330
C
102
}
330
C
100
AcDbDictionary
281
     1
  3
Standard
350
18
  0
DICTIONARY
  5
19
102
{ACAD_REACTORS
330
C
102
}
330
C
100
AcDbDictionary
281
     1
  0
ACDBDICTIONARYWDFLT
  5
E
102
{ACAD_REACTORS
330
C
102
}
330
C
100
AcDbDictionary
281
     1
  3
Normal
350
F
100
AcDbDictionaryWithDefault
340
F
  0
DICTIONARY
  5
47
102
{ACAD_REACTORS
330
C
102
}
330
C
100
AcDbDictionary
281
     1
  3
A0
350
48
  3
A1
350
49
  3
A2
350
4A
  3
A3
350
4B
  3
A4
350
4C
  3
A5
350
4D
  3
A6
350
4E
  3
A7
350
4F
  3
A8
350
50
  3
A9
350
51
  3
B0
350
52
  3
B1
350
53
  3
B2
350
54
  3
B3
350
55
  3
B4
350
56
  3
B5
350
57
  3
B6
350
58
  3
B7
350
59
  3
B8
350
5A
  3
B9
350
5B
  3
C0
350
5C
  3
C1
350
5D
  3
C2
350
5E
  3
C3
350
5F
  3
C4
350
60
  3
C5
350
61
  3
C6
350
62
  3
C7
350
63
  3
C8
350
64
  3
C9
350
65
  3
D0
350
66
  3
D1
350
67
  3
D2
350
68
  0
LAYOUT
  5
1E
102
{ACAD_REACTORS
330
1A
102
}
330
1A
100
AcDbPlotSettings
  1

  2
none_device
  4

  6

 40
0.0
 41
0.0
 42
0.0
 43
0.0
 44
0.0
 45
0.0
 46
0.0
 47
0.0
 48
0.0
 49
0.0
140
0.0
141
0.0
142
1.0
143
1.0
 70
   688
 72
     1
 73
     0
 74
     5
  7

 75
    16
147
1.0
148
0.0
149
0.0
100
AcDbLayout
  1
Layout1
 70
     1
 71
     1
 10
0.0
 20
0.0
 11
420.0
 21
297.0
 12
0.0
 22
0.0
 32
0.0
 14
1.0000000000E+20
 24
1.0000000000E+20
 34
1.0000000000E+20
 15
-1.0000000000E+20
 25
-1.0000000000E+20
 35
-1.0000000000E+20
146
0.0
 13
0.0
 23
0.0
 33
0.0
 16
1.0
 26
0.0
 36
0.0
 17
0.0
 27
1.0
 37
0.0
 76
     0
330
1B
  0
LAYOUT
  5
26
102
{ACAD_REACTORS
330
1A
102
}
330
1A
100
AcDbPlotSettings
  1

  2
none_device
  4

  6

 40
0.0
 41
0.0
 42
0.0
 43
0.0
 44
0.0
 45
0.0
 46
0.0
 47
0.0
 48
0.0
 49
0.0
140
0.0
141
0.0
142
1.0
143
1.0
 70
   688
 72
     1
 73
     0
 74
     5
  7

 75
    16
147
1.0
148
0.0
149
0.0
100
AcDbLayout
  1
Layout2
 70
     1
 71
     2
 10
0.0
 20
0.0
 11
0.0
 21
0.0
 12
0.0
 22
0.0
 32
0.0
 14
0.0
 24
0.0
 34
0.0
 15
0.0
 25
0.0
 35
0.0
146
0.0
 13
0.0
 23
0.0
 33
0.0
 16
1.0
 26
0.0
 36
0.0
 17
0.0
 27
1.0
 37
0.0
 76
     0
330
23
  0
LAYOUT
  5
22
102
{ACAD_REACTORS
330
1A
102
}
330
1A
100
AcDbPlotSettings
  1

  2
none_device
  4
Letter_(8.50_x_11.00_Inches)
  6

 40
6.35
 41
6.35
 42
6.35000508
 43
6.35000508
 44
215.9
 45
279.4
 46
0.0
 47
0.0
 48
0.0
 49
0.0
140
0.0
141
0.0
142
1.0
143
1.0
 70
  1712
 72
     1
 73
     0
 74
     0
  7

 75
     0
147
1.0
148
0.0
149
0.0
100
AcDbLayout
  1
Model
 70
     1
 71
     0
 10
0.0
 20
0.0
 11
420.0
 21
297.0
 12
0.0
 22
0.0
 32
0.0
 14
0.0
 24
0.0
 34
0.0
 15
420.0
 25
297.0
 35
0.0
146
0.0
 13
0.0
 23
0.0
 33
0.0
 16
1.0
 26
0.0
 36
0.0
 17
0.0
 27
1.0
 37
0.0
 76
     0
330
1F
331
29
  0
MLINESTYLE
  5
18
102
{ACAD_REACTORS
330
17
102
}
330
17
100
AcDbMlineStyle
  2
Standard
 70
     0
  3

 62
   256
 51
90.0
 52
90.0
 71
     2
 49
0.5
 62
   256
  6
BYLAYER
 49
-0.5
 62
   256
  6
BYLAYER
  0
ACDBPLACEHOLDER
  5
F
102
{ACAD_REACTORS
330
E
102
}
330
E
  0
SCALE
  5
48
102
{ACAD_REACTORS
330
47
102
}
330
47
100
AcDbScale
 70
     0
300
1:1
140
1.0
141
1.0
290
     1
  0
SCALE
  5
49
102
{ACAD_REACTORS
330
47
102
}
330
47
100
AcDbScale
 70
     0
300
1:2
140
1.0
141
2.0
290
     0
  0
SCALE
  5
4A
102
{ACAD_REACTORS
330
47
102
}
330
47
100
AcDbScale
 70
     0
300
1:4
140
1.0
141
4.0
290
     0
  0
SCALE
  5
4B
102
{ACAD_REACTORS
330
47
102
}
330
47
100
AcDbScale
 70
     0
300
1:5
140
1.0
141
5.0
290
     0
  0
SCALE
  5
4C
102
{ACAD_REACTORS
330
47
102
}
330
47
100
AcDbScale
 70
     0
300
1:8
140
1.0
141
8.0
290
     0
  0
SCALE
  5
4D
102
{ACAD_REACTORS
330
47
102
}
330
47
100
AcDbScale
 70
     0
300
1:10
140
1.0
141
10.0
290
     0
  0
SCALE
  5
4E
102
{ACAD_REACTORS
330
47
102
}
330
47
100
AcDbScale
 70
     0
300
1:16
140
1.0
141
16.0
290
     0
  0
SCALE
  5
4F
102
{ACAD_REACTORS
330
47
102
}
330
47
100
AcDbScale
 70
     0
300
1:20
140
1.0
141
20.0
290
     0
  0
SCALE
  5
50
102
{ACAD_REACTORS
330
47
102
}
330
47
100
AcDbScale
 70
     0
300
1:30
140
1.0
141
30.0
290
     0
  0
SCALE
  5
51
102
{ACAD_REACTORS
330
47
102
}
330
47
100
AcDbScale
 70
     0
300
1:40
140
1.0
141
40.0
290
     0
  0
SCALE
  5
52
102
{ACAD_REACTORS
330
47
102
}
330
47
100
AcDbScale
 70
     0
300
1:50
140
1.0
141
50.0
290
     0
  0
SCALE
  5
53
102
{ACAD_REACTORS
330
47
102
}
330
47
100
AcDbScale
 70
     0
300
1:100
140
1.0
141
100.0
290
     0
  0
SCALE
  5
54
102
{ACAD_REACTORS
330
47
102
}
330
47
100
AcDbScale
 70
     0
300
2:1
140
2.0
141
1.0
290
     0
  0
SCALE
  5
55
102
{ACAD_REACTORS
330
47
102
}
330
47
100
AcDbScale
 70
     0
300
4:1
140
4.0
141
1.0
290
     0
  0
SCALE
  5
56
102
{ACAD_REACTORS
330
47
102
}
330
47
100
AcDbScale
 70
     0
300
8:1
140
8.0
141
1.0
290
     0
  0
SCALE
  5
57
102
{ACAD_REACTORS
330
47
102
}
330
47
100
AcDbScale
 70
     0
300
10:1
140
10.0
141
1.0
290
     0
  0
SCALE
  5
58
102
{ACAD_REACTORS
330
47
102
}
330
47
100
AcDbScale
 70
     0
300
100:1
140
100.0
141
1.0
290
     0
  0
SCALE
  5
59
102
{ACAD_REACTORS
330
47
102
}
330
47
100
AcDbScale
 70
     0
300
1/128" = 1'-0"
140
0.0078125
141
12.0
290
     0
  0
SCALE
  5
5A
102
{ACAD_REACTORS
330
47
102
}
330
47
100
AcDbScale
 70
     0
300
1/64" = 1'-0"
140
0.015625
141
12.0
290
     0
  0
SCALE
  5
5B
102
{ACAD_REACTORS
330
47
102
}
330
47
100
AcDbScale
 70
     0
300
1/32" = 1'-0"
140
0.03125
141
12.0
290
     0
  0
SCALE
  5
5C
102
{ACAD_REACTORS
330
47
102
}
330
47
100
AcDbScale
 70
     0
300
1/16" = 1'-0"
140
0.0625
141
12.0
290
     0
  0
SCALE
  5
5D
102
{ACAD_REACTORS
330
47
102
}
330
47
100
AcDbScale
 70
     0
300
3/32" = 1'-0"
140
0.09375
141
12.0
290
     0
  0
SCALE
  5
5E
102
{ACAD_REACTORS
330
47
102
}
330
47
100
AcDbScale
 70
     0
300
1/8" = 1'-0"
140
0.125
141
12.0
290
     0
  0
SCALE
  5
5F
102
{ACAD_REACTORS
330
47
102
}
330
47
100
AcDbScale
 70
     0
300
3/16" = 1'-0"
140
0.1875
141
12.0
290
     0
  0
SCALE
  5
60
102
{ACAD_REACTORS
330
47
102
}
330
47
100
AcDbScale
 70
     0
300
1/4" = 1'-0"
140
0.25
141
12.0
290
     0
  0
SCALE
  5
61
102
{ACAD_REACTORS
330
47
102
}
330
47
100
AcDbScale
 70
     0
300
3/8" = 1'-0"
140
0.375
141
12.0
290
     0
  0
SCALE
  5
62
102
{ACAD_REACTORS
330
47
102
}
330
47
100
AcDbScale
 70
     0
300
1/2" = 1'-0"
140
0.5
141
12.0
290
     0
  0
SCALE
  5
63
102
{ACAD_REACTORS
330
47
102
}
330
47
100
AcDbScale
 70
     0
300
3/4" = 1'-0"
140
0.75
141
12.0
290
     0
  0
SCALE
  5
64
102
{ACAD_REACTORS
330
47
102
}
330
47
100
AcDbScale
 70
     0
300
1" = 1'-0"
140
1.0
141
12.0
290
     0
  0
SCALE
  5
65
102
{ACAD_REACTORS
330
47
102
}
330
47
100
AcDbScale
 70
     0
300
1-1/2" = 1'-0"
140
1.5
141
12.0
290
     0
  0
SCALE
  5
66
102
{ACAD_REACTORS
330
47
102
}
330
47
100
AcDbScale
 70
     0
300
3" = 1'-0"
140
3.0
141
12.0
290
     0
  0
SCALE
  5
67
102
{ACAD_REACTORS
330
47
102
}
330
47
100
AcDbScale
 70
     0
300
6" = 1'-0"
140
6.0
141
12.0
290
     0
  0
SCALE
  5
68
102
{ACAD_REACTORS
330
47
102
}
330
47
100
AcDbScale
 70
     0
300
1'-0" = 1'-0"
140
12.0
141
12.0
290
     0
  0
ENDSEC
  0
EOF
