  0
SECTION
  2
HEADER
  9
$ACADVER
  1
AC1015
  9
$ACADMAINTVER
 70
     6
  9
$DWGCODEPAGE
  3
DOS932
  9
$INSBASE
 10
0.0
 20
0.0
 30
0.0
  9
$EXTMIN
 10
0.0
 20
0.0
 30
0.0
  9
$EXTMAX
 10
420.0
 20
297.0
 30
0.0
  9
$LIMMIN
 10
0.0
 20
0.0
  9
$LIMMAX
 10
420.0
 20
297.0
  9
$ORTHOMODE
 70
     0
  9
$REGENMODE
 70
     1
  9
$FILLMODE
 70
     1
  9
$QTEXTMODE
 70
     0
  9
$MIRRTEXT
 70
     1
  9
$LTSCALE
 40
1.0
  9
$ATTMODE
 70
     1
  9
$TEXTSIZE
 40
3.8805555556
  9
$TRACEWID
 40
1.0
  9
$TEXTSTYLE
  7
Standard
  9
$CLAYER
  8
0
  9
$CELTYPE
  6
ByLayer
  9
$CECOLOR
 62
   256
  9
$CELTSCALE
 40
1.0
  9
$DISPSILH
 70
     0
  9
$DIMSCALE
 40
1.0
  9
$DIMASZ
 40
3.0
  9
$DIMEXO
 40
0.0
  9
$DIMDLI
 40
3.75
  9
$DIMRND
 40
0.0
  9
$DIMDLE
 40
0.0
  9
$DIMEXE
 40
1.0
  9
$DIMTP
 40
0.0
  9
$DIMTM
 40
0.0
  9
$DIMTXT
 40
3.5277777778
  9
$DIMCEN
 40
2.5
  9
$DIMTSZ
 40
0.0
  9
$DIMTOL
 70
     0
  9
$DIMLIM
 70
     0
  9
$DIMTIH
 70
     1
  9
$DIMTOH
 70
     1
  9
$DIMSE1
 70
     0
  9
$DIMSE2
 70
     0
  9
$DIMTAD
 70
     1
  9
$DIMZIN
 70
     0
  9
$DIMBLK
  1

  9
$DIMASO
 70
     1
  9
$DIMSHO
 70
     1
  9
$DIMPOST
  1

  9
$DIMAPOST
  1

  9
$DIMALT
 70
     0
  9
$DIMALTD
 70
     3
  9
$DIMALTF
 40
0.0393700787
  9
$DIMLFAC
 40
1.0
  9
$DIMTOFL
 70
     1
  9
$DIMTVP
 40
0.0
  9
$DIMTIX
 70
     0
  9
$DIMSOXD
 70
     0
  9
$DIMSAH
 70
     0
  9
$DIMBLK1
  1

  9
$DIMBLK2
  1

  9
$DIMSTYLE
  2
ISO-25
  9
$DIMCLRD
 70
     0
  9
$DIMCLRE
 70
     0
  9
$DIMCLRT
 70
     0
  9
$DIMTFAC
 40
1.0
  9
$DIMGAP
 40
1.0
  9
$DIMJUST
 70
     0
  9
$DIMSD1
 70
     0
  9
$DIMSD2
 70
     0
  9
$DIMTOLJ
 70
     0
  9
$DIMTZIN
 70
     0
  9
$DIMALTZ
 70
     0
  9
$DIMALTTZ
 70
     0
  9
$DIMUPT
 70
     0
  9
$DIMDEC
 70
     2
  9
$DIMTDEC
 70
     2
  9
$DIMALTU
 70
     2
  9
$DIMALTTD
 70
     3
  9
$DIMTXSTY
  7
Standard
  9
$DIMAUNIT
 70
     0
  9
$DIMADEC
 70
     2
  9
$DIMALTRND
 40
0.0
  9
$DIMAZIN
 70
     0
  9
$DIMDSEP
 70
    44
  9
$DIMATFIT
 70
     3
  9
$DIMFRAC
 70
     0
  9
$DIMLDRBLK
  1

  9
$DIMLUNIT
 70
     2
  9
$DIMLWD
 70
    -2
  9
$DIMLWE
 70
    -2
  9
$DIMTMOVE
 70
     0
  9
$LUNITS
 70
     2
  9
$LUPREC
 70
     2
  9
$SKETCHINC
 40
1.0
  9
$FILLETRAD
 40
10.0
  9
$AUNITS
 70
     0
  9
$AUPREC
 70
     2
  9
$MENU
  1
.
  9
$ELEVATION
 40
0.0
  9
$PELEVATION
 40
0.0
  9
$THICKNESS
 40
0.0
  9
$LIMCHECK
 70
     0
  9
$CHAMFERA
 40
0.0
  9
$CHAMFERB
 40
0.0
  9
$CHAMFERC
 40
0.0
  9
$CHAMFERD
 40
0.0
  9
$SKPOLY
 70
     0
  9
$TDCREATE
 40
2459156.445080637
  9
$TDUCREATE
 40
2459156.070080637
  9
$TDUPDATE
 40
2459156.445082234
  9
$TDUUPDATE
 40
2459156.070082234
  9
$TDINDWG
 40
0.0000000116
  9
$TDUSRTIMER
 40
0.0000000116
  9
$USRTIMER
 70
     1
  9
$ANGBASE
 50
0.0
  9
$ANGDIR
 70
     0
  9
$PDMODE
 70
     0
  9
$PDSIZE
 40
-1.0
  9
$PLINEWID
 40
0.0
  9
$SPLFRAME
 70
     0
  9
$SPLINETYPE
 70
     6
  9
$SPLINESEGS
 70
     8
  9
$HANDSEED
  5
38C
  9
$SURFTAB1
 70
     6
  9
$SURFTAB2
 70
     6
  9
$SURFTYPE
 70
     6
  9
$SURFU
 70
     6
  9
$SURFV
 70
     6
  9
$UCSBASE
  2

  9
$UCSNAME
  2

  9
$UCSORG
 10
0.0
 20
0.0
 30
0.0
  9
$UCSXDIR
 10
1.0
 20
0.0
 30
0.0
  9
$UCSYDIR
 10
0.0
 20
1.0
 30
0.0
  9
$UCSORTHOREF
  2

  9
$UCSORTHOVIEW
 70
     0
  9
$UCSORGTOP
 10
0.0
 20
0.0
 30
0.0
  9
$UCSORGBOTTOM
 10
0.0
 20
0.0
 30
0.0
  9
$UCSORGLEFT
 10
0.0
 20
0.0
 30
0.0
  9
$UCSORGRIGHT
 10
0.0
 20
0.0
 30
0.0
  9
$UCSORGFRONT
 10
0.0
 20
0.0
 30
0.0
  9
$UCSORGBACK
 10
0.0
 20
0.0
 30
0.0
  9
$PUCSBASE
  2

  9
$PUCSNAME
  2

  9
$PUCSORG
 10
0.0
 20
0.0
 30
0.0
  9
$PUCSXDIR
 10
1.0
 20
0.0
 30
0.0
  9
$PUCSYDIR
 10
0.0
 20
1.0
 30
0.0
  9
$PUCSORTHOREF
  2

  9
$PUCSORTHOVIEW
 70
     0
  9
$PUCSORGTOP
 10
0.0
 20
0.0
 30
0.0
  9
$PUCSORGBOTTOM
 10
0.0
 20
0.0
 30
0.0
  9
$PUCSORGLEFT
 10
0.0
 20
0.0
 30
0.0
  9
$PUCSORGRIGHT
 10
0.0
 20
0.0
 30
0.0
  9
$PUCSORGFRONT
 10
0.0
 20
0.0
 30
0.0
  9
$PUCSORGBACK
 10
0.0
 20
0.0
 30
0.0
  9
$USERI1
 70
     0
  9
$USERI2
 70
     0
  9
$USERI3
 70
     0
  9
$USERI4
 70
     0
  9
$USERI5
 70
     0
  9
$USERR1
 40
0.0
  9
$USERR2
 40
0.0
  9
$USERR3
 40
0.0
  9
$USERR4
 40
0.0
  9
$USERR5
 40
0.0
  9
$WORLDVIEW
 70
     1
  9
$SHADEDGE
 70
     3
  9
$SHADEDIF
 70
    70
  9
$TILEMODE
 70
     1
  9
$MAXACTVP
 70
    64
  9
$PINSBASE
 10
0.0
 20
0.0
 30
0.0
  9
$PLIMCHECK
 70
     0
  9
$PEXTMIN
 10
1.0000000000E+20
 20
1.0000000000E+20
 30
1.0000000000E+20
  9
$PEXTMAX
 10
-1.0000000000E+20
 20
-1.0000000000E+20
 30
-1.0000000000E+20
  9
$PLIMMIN
 10
0.0
 20
0.0
  9
$PLIMMAX
 10
420.0
 20
297.0
  9
$UNITMODE
 70
     0
  9
$VISRETAIN
 70
     1
  9
$PLINEGEN
 70
     0
  9
$PSLTSCALE
 70
     1
  9
$TREEDEPTH
 70
  3020
  9
$CMLSTYLE
  2
Standard
  9
$CMLJUST
 70
     0
  9
$CMLSCALE
 40
20.0
  9
$PROXYGRAPHICS
 70
     1
  9
$MEASUREMENT
 70
     1
  9
$CELWEIGHT
370
    -1
  9
$ENDCAPS
280
     0
  9
$JOINSTYLE
280
     0
  9
$LWDISPLAY
290
     1
  9
$INSUNITS
 70
     4
  9
$HYPERLINKBASE
  1

  9
$STYLESHEET
  1

  9
$XEDIT
290
     1
  9
$CEPSNTYPE
380
     0
  9
$PSTYLEMODE
290
     1
  9
$FINGERPRINTGUID
  2
{CA94C638-CF25-4EBC-BCF6-676381A80DEE}
  9
$VERSIONGUID
  2
{FAEB1C32-E019-11D5-929B-00C0DF256EC4}
  9
$EXTNAMES
290
     1
  9
$PSVPSCALE
 40
0.0
  9
$OLESTARTUP
290
     0
  0
ENDSEC
  0
SECTION
  2
CLASSES
  0
CLASS
  1
ACDBDICTIONARYWDFLT
  2
AcDbDictionaryWithDefault
  3
ObjectDBX Classes
 90
        0
280
     0
281
     0
  0
CLASS
  1
VISUALSTYLE
  2
AcDbVisualStyle
  3
ObjectDBX Classes
 90
     4095
280
     0
281
     0
  0
CLASS
  1
MATERIAL
  2
AcDbMaterial
  3
ObjectDBX Classes
 90
     1153
280
     0
281
     0
  0
CLASS
  1
SCALE
  2
AcDbScale
  3
ObjectDBX Classes
 90
     1153
280
     0
281
     0
  0
CLASS
  1
TABLESTYLE
  2
AcDbTableStyle
  3
ObjectDBX Classes
 90
     4095
280
     0
281
     0
  0
CLASS
  1
MLEADERSTYLE
  2
AcDbMLeaderStyle
  3
ACDB_MLEADERSTYLE_CLASS
 90
     4095
280
     0
281
     0
  0
CLASS
  1
SUN
  2
AcDbSun
  3
SCENEOE
 90
     1153
280
     0
281
     0
  0
CLASS
  1
ACDBPLACEHOLDER
  2
AcDbPlaceHolder
  3
ObjectDBX Classes
 90
        0
280
     0
281
     0
  0
CLASS
  1
LAYOUT
  2
AcDbLayout
  3
ObjectDBX Classes
 90
        0
280
     0
281
     0
  0
ENDSEC
  0
SECTION
  2
TABLES
  0
TABLE
  2
VPORT
  5
8
330
0
100
AcDbSymbolTable
 70
     1
  0
VPORT
  5
29
330
8
100
AcDbSymbolTableRecord
100
AcDbViewportTableRecord
  2
*Active
 70
     0
 10
0.0
 20
0.0
 11
1.0
 21
1.0
 12
210.0
 22
148.5
 13
0.0
 23
0.0
 14
10.0
 24
10.0
 15
10.0
 25
10.0
 16
0.0
 26
0.0
 36
1.0
 17
0.0
 27
0.0
 37
0.0
 40
297.0
 41
1.4141414141
 42
50.0
 43
0.0
 44
0.0
 50
0.0
 51
0.0
 71
     0
 72
  2000
 73
     1
 74
     3
 75
     0
 76
     0
 77
     0
 78
     0
281
     0
 65
     1
110
0.0
120
0.0
130
0.0
111
1.0
121
0.0
131
0.0
112
0.0
122
1.0
132
0.0
 79
     0
146
0.0
  0
ENDTAB
  0
TABLE
  2
LTYPE
  5
5
330
0
100
AcDbSymbolTable
 70
     6
  0
LTYPE
  5
14
330
5
100
AcDbSymbolTableRecord
100
AcDbLinetypeTableRecord
  2
ByBlock
 70
     0
  3

 72
    65
 73
     0
 40
0.0
  0
LTYPE
  5
15
330
5
100
AcDbSymbolTableRecord
100
AcDbLinetypeTableRecord
  2
ByLayer
 70
     0
  3

 72
    65
 73
     0
 40
0.0
  0
LTYPE
  5
16
330
5
100
AcDbSymbolTableRecord
100
AcDbLinetypeTableRecord
  2
Continuous
 70
     0
  3
Solid line
 72
    65
 73
     0
 40
0.0
  0
LTYPE
  5
6E
330
5
100
AcDbSymbolTableRecord
100
AcDbLinetypeTableRecord
  2
HIDDEN
 70
     0
  3
Hidden __ __ __ __ __ __ __ __ __ __ __ __ __ __
 72
    65
 73
     2
 40
1.905
 49
1.27
 74
     0
 49
-0.635
 74
     0
  0
LTYPE
  5
6F
330
5
100
AcDbSymbolTableRecord
100
AcDbLinetypeTableRecord
  2
PHANTOM
 70
     0
  3
Phantom ______  __  __  ______  __  __  ______
 72
    65
 73
     6
 40
12.7
 49
6.35
 74
     0
 49
-1.27
 74
     0
 49
1.27
 74
     0
 49
-1.27
 74
     0
 49
1.27
 74
     0
 49
-1.27
 74
     0
  0
LTYPE
  5
70
330
5
100
AcDbSymbolTableRecord
100
AcDbLinetypeTableRecord
  2
CENTER
 70
     0
  3
Center ____ _ ____ _ ____ _ ____ _ ____ _ ____
 72
    65
 73
     4
 40
10.16
 49
6.35
 74
     0
 49
-1.27
 74
     0
 49
1.27
 74
     0
 49
-1.27
 74
     0
  0
LTYPE
  5
71
330
5
100
AcDbSymbolTableRecord
100
AcDbLinetypeTableRecord
  2
CENTERX2
 70
     0
  3
Center (2x) ________  __  ________  __  _____
 72
    65
 73
     4
 40
20.32
 49
12.7
 74
     0
 49
-2.54
 74
     0
 49
2.54
 74
     0
 49
-2.54
 74
     0
  0
LTYPE
  5
72
330
5
100
AcDbSymbolTableRecord
100
AcDbLinetypeTableRecord
  2
DOT2
 70
     0
  3
Dot (.5x) ........................................
 72
    65
 73
     2
 40
0.635
 49
0.0
 74
     0
 49
-0.635
 74
     0
  0
ENDTAB
  0
TABLE
  2
LAYER
  5
2
330
0
100
AcDbSymbolTable
 70
     6
  0
LAYER
  5
10
330
2
100
AcDbSymbolTableRecord
100
AcDbLayerTableRecord
  2
0
 70
     0
 62
     7
  6
Continuous
370
    -3
390
F
  0
LAYER
  5
73
330
2
100
AcDbSymbolTableRecord
100
AcDbLayerTableRecord
  2
SLD-0
 70
     0
 62
     7
  6
Continuous
370
    -3
390
F
  0
LAYER
  5
74
330
2
100
AcDbSymbolTableRecord
100
AcDbLayerTableRecord
  2
8
 70
     0
 62
     7
  6
Continuous
370
    25
390
F
  0
LAYER
  5
75
330
2
100
AcDbSymbolTableRecord
100
AcDbLayerTableRecord
  2
9
 70
     0
 62
     7
  6
Continuous
370
    -3
390
F
  0
LAYER
  5
76
330
2
100
AcDbSymbolTableRecord
100
AcDbLayerTableRecord
  2
10
 70
     0
 62
     1
  6
Continuous
370
    -3
390
F
  0
LAYER
  5
77
330
2
100
AcDbSymbolTableRecord
100
AcDbLayerTableRecord
  2
11
 70
     0
 62
     7
  6
Continuous
370
    -3
390
F
  0
ENDTAB
  0
TABLE
  2
STYLE
  5
3
330
0
100
AcDbSymbolTable
 70
     2
  0
STYLE
  5
11
330
3
100
AcDbSymbolTableRecord
100
AcDbTextStyleTableRecord
  2
Standard
 70
     0
 40
0.0
 41
1.0
 50
0.0
 71
     0
 42
3.8805555556
  3
txt
  4
bigfont
  0
STYLE
  5
78
330
3
100
AcDbSymbolTableRecord
100
AcDbTextStyleTableRecord
  2
SLDTEXTSTYLE0
 70
     0
 40
0.0
 41
0.7
 50
0.0
 71
     0
 42
3.8805555556
  3
TXT
  4
bigfont
  0
ENDTAB
  0
TABLE
  2
VIEW
  5
6
330
0
100
AcDbSymbolTable
 70
     0
  0
ENDTAB
  0
TABLE
  2
UCS
  5
7
330
0
100
AcDbSymbolTable
 70
     0
  0
ENDTAB
  0
TABLE
  2
APPID
  5
9
330
0
100
AcDbSymbolTable
 70
     1
  0
APPID
  5
12
330
9
100
AcDbSymbolTableRecord
100
AcDbRegAppTableRecord
  2
ACAD
 70
     0
  0
ENDTAB
  0
TABLE
  2
DIMSTYLE
  5
A
330
0
100
AcDbSymbolTable
 70
     1
100
AcDbDimStyleTable
  0
DIMSTYLE
105
27
330
A
100
AcDbSymbolTableRecord
100
AcDbDimStyleTableRecord
  2
ISO-25
 70
     0
 41
2.5
 42
0.625
 43
3.75
 44
1.25
 73
     0
 74
     0
 77
     1
 78
     8
140
2.5
141
2.5
143
0.0393700787
147
0.625
171
     3
172
     1
178
     0
271
     2
272
     2
274
     3
278
    44
283
     0
284
     8
340
11
  0
ENDTAB
  0
TABLE
  2
BLOCK_RECORD
  5
1
330
0
100
AcDbSymbolTable
 70
     1
  0
BLOCK_RECORD
  5
1F
330
1
100
AcDbSymbolTableRecord
100
AcDbBlockTableRecord
  2
*Model_Space
340
22
  0
BLOCK_RECORD
  5
1B
330
1
100
AcDbSymbolTableRecord
100
AcDbBlockTableRecord
  2
*Paper_Space
340
1E
  0
BLOCK_RECORD
  5
23
330
1
100
AcDbSymbolTableRecord
100
AcDbBlockTableRecord
  2
*Paper_Space0
340
26
  0
ENDTAB
  0
ENDSEC
  0
SECTION
  2
BLOCKS
  0
BLOCK
  5
20
330
1F
100
AcDbEntity
  8
0
100
AcDbBlockBegin
  2
*Model_Space
 70
     0
 10
0.0
 20
0.0
 30
0.0
  3
*Model_Space
  1

  0
ENDBLK
  5
21
330
1F
100
AcDbEntity
  8
0
100
AcDbBlockEnd
  0
BLOCK
  5
1C
330
1B
100
AcDbEntity
 67
     1
  8
0
100
AcDbBlockBegin
  2
*Paper_Space
 70
     0
 10
0.0
 20
0.0
 30
0.0
  3
*Paper_Space
  1

  0
ENDBLK
  5
1D
330
1B
100
AcDbEntity
 67
     1
  8
0
100
AcDbBlockEnd
  0
BLOCK
  5
24
330
23
100
AcDbEntity
  8
0
100
AcDbBlockBegin
  2
*Paper_Space0
 70
     0
 10
0.0
 20
0.0
 30
0.0
  3
*Paper_Space0
  1

  0
ENDBLK
  5
25
330
23
100
AcDbEntity
  8
0
100
AcDbBlockEnd
  0
ENDSEC
  0
SECTION
  2
ENTITIES
  0
MTEXT
  5
79
330
1F
100
AcDbEntity
  8
9
 62
     7
100
AcDbMText
 10
22.9810592731
 20
14.7698939359
 30
0.0
 40
3.7041666667
 41
0.0
 71
     1
 72
     1
  1
2013/06/24
  7
SLDTEXTSTYLE0
 73
     1
 44
1.0
  0
MTEXT
  5
7A
330
1F
100
AcDbEntity
  8
9
 62
     7
100
AcDbMText
 10
22.9810592731
 20
39.3097759652
 30
0.0
 40
3.7041666667
 41
0.0
 71
     1
 72
     1
  1
AD-GD015-HL
  7
SLDTEXTSTYLE0
 73
     1
 44
1.0
  0
MTEXT
  5
7B
330
1F
100
AcDbEntity
  8
9
 62
     7
100
AcDbMText
 10
22.9810592731
 20
22.271836236
 30
0.0
 40
3.7041666667
 41
0.0
 71
     1
 72
     1
  1
2020/03/02
  7
SLDTEXTSTYLE0
 73
     1
 44
1.0
  0
MTEXT
  5
7C
330
1F
100
AcDbEntity
  8
9
 62
     7
100
AcDbMText
 10
22.9810592731
 20
30.9293045781
 30
0.0
 40
3.7041666667
 41
0.0
 71
     1
 72
     1
  1
1:1
  7
SLDTEXTSTYLE0
 73
     1
 44
1.0
  0
ARC
  5
7D
330
1F
100
AcDbEntity
  8
0
  6
Continuous
 62
     7
370
    35
100
AcDbCircle
 10
128.0001811352
 20
245.554843327
 30
0.0
 40
2.000000000000014
100
AcDbArc
 50
284.5977138635
 51
0.0032277176
  0
SPLINE
  5
7E
330
1F
100
AcDbEntity
  8
0
  6
Continuous
 62
     7
370
    35
100
AcDbSpline
210
0.0
220
0.0
230
1.0
 70
    24
 71
     3
 72
     9
 73
     5
 74
     0
 42
0.000000001
 43
0.00000001
 40
0.0
 40
0.0
 40
0.0
 40
0.0
 40
0.6106267628446774
 40
1.0
 40
1.0
 40
1.0
 40
1.0
 10
130.0001802709347
 20
246.5964776153236
 30
0.0
 10
130.0001802709347
 20
246.6462358985396
 30
0.0
 10
130.0001802709347
 20
246.7277231281267
 30
0.0
 10
130.0001802709347
 20
246.8078249839471
 30
0.0
 10
130.0001802709347
 20
246.8390145028501
 30
0.0
  0
SPLINE
  5
7F
330
1F
100
AcDbEntity
  8
0
  6
Continuous
 62
     7
370
    35
100
AcDbSpline
210
0.0
220
0.0
230
1.0
 70
     8
 71
     3
 72
     9
 73
     5
 74
     0
 42
0.000000001
 43
0.00000001
 40
0.0
 40
0.0
 40
0.0
 40
0.0
 40
0.6998320726598372
 40
1.0
 40
1.0
 40
1.0
 40
1.0
 10
120.9971184697395
 20
227.1208555127053
 30
0.0
 10
121.073570430101
 20
227.1195872641389
 30
0.0
 10
121.1828137233826
 20
227.1177750457284
 30
0.0
 10
121.2920475048169
 20
227.119654373994
 30
0.0
 10
121.3248359825855
 20
227.1202184880643
 30
0.0
  0
LINE
  5
80
330
1F
100
AcDbEntity
  8
0
  6
Continuous
 62
     7
370
    35
100
AcDbLine
 10
121.3246795204
 20
227.1187060202
 30
0.0
 11
128.0001818058
 21
227.1187060202
 31
0.0
  0
LINE
  5
81
330
1F
100
AcDbEntity
  8
0
  6
Continuous
 62
     7
370
    35
100
AcDbLine
 10
235.5829427805
 20
271.4616411055
 30
0.0
 11
231.6313634482
 21
271.8085558678
 31
0.0
  0
LINE
  5
82
330
1F
100
AcDbEntity
  8
0
  6
Continuous
 62
     7
370
    35
100
AcDbLine
 10
243.0001820293
 20
270.8104716536
 30
0.0
 11
238.5353918042
 21
271.2024417512
 31
0.0
  0
LINE
  5
83
330
1F
100
AcDbEntity
  8
0
  6
Continuous
 62
     7
370
    35
100
AcDbLine
 10
84.3689988222
 20
271.8085558678
 30
0.0
 11
73.0001802411
 21
270.8104716536
 31
0.0
  0
LINE
  5
84
330
1F
100
AcDbEntity
  8
0
  6
Continuous
 62
     7
370
    35
100
AcDbLine
 10
73.0001802411
 20
270.8104716536
 30
0.0
 11
73.0876351562
 21
269.8143030672
 31
0.0
  0
LINE
  5
85
330
1F
100
AcDbEntity
  8
0
  6
Continuous
 62
     7
370
    35
100
AcDbLine
 10
242.9127271142
 20
269.8143030672
 30
0.0
 11
243.0001820293
 21
270.8104716536
 31
0.0
  0
ARC
  5
86
330
1F
100
AcDbEntity
  8
0
  6
Continuous
 62
     7
370
    35
100
AcDbCircle
 10
84.5001811352
 20
270.3143031622
 30
0.0
 40
1.500000000000057
100
AcDbArc
 50
90.0
 51
95.0172124693
  0
ARC
  5
87
330
1F
100
AcDbEntity
  8
0
  6
Continuous
 62
     7
370
    35
100
AcDbCircle
 10
231.5001811352
 20
270.3143031622
 30
0.0
 40
1.500000000000057
100
AcDbArc
 50
84.9827875307
 51
90.0
  0
LINE
  5
88
330
1F
100
AcDbEntity
  8
0
  6
Continuous
 62
     7
370
    35
100
AcDbLine
 10
231.5001810756
 20
271.8143031622
 30
0.0
 11
84.5001811948
 21
271.8143031622
 31
0.0
  0
LINE
  5
89
330
1F
100
AcDbEntity
  8
0
  6
Continuous
 62
     7
370
    35
100
AcDbLine
 10
85.0001822081
 20
253.7143022443
 30
0.0
 11
85.0001822081
 21
235.8143047119
 31
0.0
  0
LINE
  5
8A
330
1F
100
AcDbEntity
  8
0
  6
Continuous
 62
     7
370
    35
100
AcDbLine
 10
85.0001822081
 20
269.8143030672
 30
0.0
 11
85.0001822081
 21
264.714303116
 31
0.0
  0
LINE
  5
8B
330
1F
100
AcDbEntity
  8
0
  6
Continuous
 62
     7
370
    35
100
AcDbLine
 10
231.0001800623
 20
235.8143047119
 30
0.0
 11
231.0001800623
 21
269.8143030672
 31
0.0
  0
ARC
  5
8C
330
1F
100
AcDbEntity
  8
0
  6
Continuous
 62
     7
370
    35
100
AcDbCircle
 10
86.0001811352
 20
264.7143031622
 30
0.0
 40
1.000000000000029
100
AcDbArc
 50
180.0
 51
235.9220875899
  0
LINE
  5
8D
330
1F
100
AcDbEntity
  8
0
  6
Continuous
 62
     7
370
    35
100
AcDbLine
 10
238.5353918042
 20
271.2024417512
 30
0.0
 11
235.5829427805
 21
271.4616411055
 31
0.0
  0
ARC
  5
8E
330
1F
100
AcDbEntity
  8
0
  6
Continuous
 62
     7
370
    35
100
AcDbCircle
 10
133.1575672653
 20
258.8143033596
 30
0.0
 40
13.69552751441608
100
AcDbArc
 50
178.0319552525
 51
181.9680447475
  0
LINE
  5
8F
330
1F
100
AcDbEntity
  8
0
  6
Continuous
 62
     7
370
    35
100
AcDbLine
 10
121.5298461583
 20
258.3439700926
 30
0.0
 11
119.4701182511
 21
258.3439700926
 31
0.0
  0
LINE
  5
90
330
1F
100
AcDbEntity
  8
0
  6
Continuous
 62
     7
370
    35
100
AcDbLine
 10
121.5298461583
 20
256.2842412541
 30
0.0
 11
121.5298461583
 21
258.3439700926
 31
0.0
  0
ARC
  5
91
330
1F
100
AcDbEntity
  8
0
  6
Continuous
 62
     7
370
    35
100
AcDbCircle
 10
122.0001808223
 20
269.9695212379
 30
0.0
 40
13.69335981160217
100
AcDbArc
 50
268.0316377334
 51
271.9683622666
  0
LINE
  5
92
330
1F
100
AcDbEntity
  8
0
  6
Continuous
 62
     7
370
    35
100
AcDbLine
 10
122.4705154863
 20
258.3439700926
 30
0.0
 11
122.4705154863
 21
256.2842412541
 31
0.0
  0
LINE
  5
93
330
1F
100
AcDbEntity
  8
0
  6
Continuous
 62
     7
370
    35
100
AcDbLine
 10
124.5302433934
 20
258.3439700926
 30
0.0
 11
122.4705154863
 21
258.3439700926
 31
0.0
  0
ARC
  5
94
330
1F
100
AcDbEntity
  8
0
  6
Continuous
 62
     7
370
    35
100
AcDbCircle
 10
110.8427943793
 20
258.8143033596
 30
0.0
 40
13.69552751441605
100
AcDbArc
 50
358.0319552525
 51
1.9680447475
  0
ARC
  5
95
330
1F
100
AcDbEntity
  8
0
  6
Continuous
 62
     7
370
    35
100
AcDbCircle
 10
122.0001808223
 20
247.6610133674
 30
0.0
 40
13.69143213255095
100
AcDbArc
 50
88.0313604896
 51
91.9686395104
  0
LINE
  5
96
330
1F
100
AcDbEntity
  8
0
  6
Continuous
 62
     7
370
    35
100
AcDbLine
 10
121.5298461583
 20
259.2846366266
 30
0.0
 11
121.5298461583
 21
261.3443645338
 31
0.0
  0
CIRCLE
  5
97
330
1F
100
AcDbEntity
  8
0
  6
Continuous
 62
     7
370
    35
100
AcDbCircle
 10
122.0001811352
 20
258.8143031622
 30
0.0
 40
3.931278341185163
  0
LINE
  5
98
330
1F
100
AcDbEntity
  8
0
  6
Continuous
 62
     7
370
    35
100
AcDbLine
 10
122.4705154863
 20
259.2846366266
 30
0.0
 11
124.5302433934
 21
259.2846366266
 31
0.0
  0
LINE
  5
99
330
1F
100
AcDbEntity
  8
0
  6
Continuous
 62
     7
370
    35
100
AcDbLine
 10
119.4701182511
 20
259.2846366266
 30
0.0
 11
121.5298461583
 21
259.2846366266
 31
0.0
  0
LINE
  5
9A
330
1F
100
AcDbEntity
  8
0
  6
Continuous
 62
     7
370
    35
100
AcDbLine
 10
122.4705154863
 20
261.3443645338
 30
0.0
 11
122.4705154863
 21
259.2846366266
 31
0.0
  0
LINE
  5
9B
330
1F
100
AcDbEntity
  8
0
  6
Continuous
 62
     7
370
    35
100
AcDbLine
 10
120.9367911186
 20
259.2846366266
 30
0.0
 11
120.9367911186
 21
258.3439700926
 31
0.0
  0
LINE
  5
9C
330
1F
100
AcDbEntity
  8
0
  6
Continuous
 62
     7
370
    35
100
AcDbLine
 10
121.5298461583
 20
259.8776944602
 30
0.0
 11
122.4705154863
 21
259.8776944602
 31
0.0
  0
LINE
  5
9D
330
1F
100
AcDbEntity
  8
0
  6
Continuous
 62
     7
370
    35
100
AcDbLine
 10
123.0635705259
 20
258.3439700926
 30
0.0
 11
123.0635705259
 21
259.2846366266
 31
0.0
  0
LINE
  5
9E
330
1F
100
AcDbEntity
  8
0
  6
Continuous
 62
     7
370
    35
100
AcDbLine
 10
121.5298461583
 20
257.750912259
 30
0.0
 11
122.4705154863
 21
257.750912259
 31
0.0
  0
ARC
  5
9F
330
1F
100
AcDbEntity
  8
0
  6
Continuous
 62
     7
370
    35
100
AcDbCircle
 10
122.0001811352
 20
258.8143031622
 30
0.0
 40
4.150000000000034
100
AcDbArc
 50
34.8956528187
 51
270.0
  0
ARC
  5
A0
330
1F
100
AcDbEntity
  8
0
  6
Continuous
 62
     7
370
    35
100
AcDbCircle
 10
122.0001811352
 20
258.8143031622
 30
0.0
 40
4.150000000000037
100
AcDbArc
 50
270.0
 51
325.1043471813
  0
LINE
  5
A1
330
1F
100
AcDbEntity
  8
0
  6
Continuous
 62
     7
370
    35
100
AcDbLine
 10
122.4705154863
 20
258.3439700926
 30
0.0
 11
121.5298461583
 21
258.3439700926
 31
0.0
  0
LINE
  5
A2
330
1F
100
AcDbEntity
  8
0
  6
Continuous
 62
     7
370
    35
100
AcDbLine
 10
122.4705154863
 20
259.2846366266
 30
0.0
 11
122.4705154863
 21
258.3439700926
 31
0.0
  0
LINE
  5
A3
330
1F
100
AcDbEntity
  8
0
  6
Continuous
 62
     7
370
    35
100
AcDbLine
 10
121.5298461583
 20
259.2846366266
 30
0.0
 11
122.4705154863
 21
259.2846366266
 31
0.0
  0
LINE
  5
A4
330
1F
100
AcDbEntity
  8
0
  6
Continuous
 62
     7
370
    35
100
AcDbLine
 10
121.5298461583
 20
258.3439700926
 30
0.0
 11
121.5298461583
 21
259.2846366266
 31
0.0
  0
LWPOLYLINE
  5
A5
330
1F
100
AcDbEntity
  8
0
  6
Continuous
 62
     7
370
    35
100
AcDbPolyline
 90
        4
 70
   128
 43
0.0
 10
121.5298461583
 20
258.3439700926
 10
121.6832349863
 20
258.4973579893
 10
121.8406843808
 20
258.6548083151
 10
122.0001826849
 20
258.814302894
  0
LWPOLYLINE
  5
A6
330
1F
100
AcDbEntity
  8
0
  6
Continuous
 62
     7
370
    35
100
AcDbPolyline
 90
        4
 70
   128
 43
0.0
 10
122.4705154863
 20
258.3439700926
 10
122.3171266582
 20
258.4973579893
 10
122.1596772638
 20
258.6548083151
 10
122.0001826849
 20
258.814302894
  0
LWPOLYLINE
  5
A7
330
1F
100
AcDbEntity
  8
0
  6
Continuous
 62
     7
370
    35
100
AcDbPolyline
 90
        4
 70
   128
 43
0.0
 10
122.0001826849
 20
258.814302894
 10
122.1596772638
 20
258.9737984041
 10
122.3171266582
 20
259.1312487299
 10
122.4705154863
 20
259.2846366266
  0
LWPOLYLINE
  5
A8
330
1F
100
AcDbEntity
  8
0
  6
Continuous
 62
     7
370
    35
100
AcDbPolyline
 90
        4
 70
   128
 43
0.0
 10
121.5298461583
 20
259.2846366266
 10
121.6832349863
 20
259.1312487299
 10
121.8406843808
 20
258.9737984041
 10
122.0001826849
 20
258.814302894
  0
SPLINE
  5
A9
330
1F
100
AcDbEntity
  8
0
  6
Continuous
 62
     7
370
    35
100
AcDbSpline
210
0.0
220
0.0
230
1.0
 70
     8
 71
     3
 72
    12
 73
     8
 74
     0
 42
0.000000001
 43
0.00000001
 40
0.0
 40
0.0
 40
0.0
 40
0.0
 40
0.1064126554847633
 40
0.32215069473455
 40
0.5468814311524088
 40
0.7748918974422446
 40
1.0
 40
1.0
 40
1.0
 40
1.0
 10
127.3690170463568
 20
243.6570466185479
 30
0.0
 10
127.3707284191804
 20
243.6653595571723
 30
0.0
 10
127.3759093813653
 20
243.6905259148852
 30
0.0
 10
127.4368868288027
 20
243.9866210204065
 30
0.0
 10
127.5750070556645
 20
244.6480930076979
 30
0.0
 10
127.7703401739836
 20
245.5667383494552
 30
0.0
 10
127.9238957854634
 20
246.2642995210715
 30
0.0
 10
128.0001818057543
 20
246.6108460600047
 30
0.0
  0
LINE
  5
AA
330
1F
100
AcDbEntity
  8
0
  6
Continuous
 62
     7
370
    35
100
AcDbLine
 10
126.0001796153
 20
244.2456965024
 30
0.0
 11
127.3692480144
 21
243.6577376599
 31
0.0
  0
LINE
  5
AB
330
1F
100
AcDbEntity
  8
0
  6
Continuous
 62
     7
370
    35
100
AcDbLine
 10
127.5411794749
 20
243.6082360024
 30
0.0
 11
127.3690170464
 21
243.6570466185
 31
0.0
  0
LINE
  5
AC
330
1F
100
AcDbEntity
  8
0
  6
Continuous
 62
     7
370
    35
100
AcDbLine
 10
128.0001818058
 20
246.61084606
 30
0.0
 11
130.0001802709
 21
246.61084606
 31
0.0
  0
SPLINE
  5
AD
330
1F
100
AcDbEntity
  8
0
  6
Continuous
 62
     7
370
    35
100
AcDbSpline
210
0.0
220
0.0
230
1.0
 70
    24
 71
     3
 72
    12
 73
     8
 74
     0
 42
0.000000001
 43
0.00000001
 40
0.0
 40
0.0
 40
0.0
 40
0.0
 40
0.2304299704202614
 40
0.4610950067505528
 40
0.6846675350958776
 40
0.8963233085222131
 40
0.9999999999999999
 40
0.9999999999999999
 40
0.9999999999999999
 40
0.9999999999999999
 10
130.0001802709347
 20
246.6108460600047
 30
0.0
 10
130.0001802709347
 20
246.4868940833711
 30
0.0
 10
130.0001802709347
 20
246.2388636843808
 30
0.0
 10
130.0001802709347
 20
245.9098027569578
 30
0.0
 10
130.0001802709347
 20
245.6764550988526
 30
0.0
 10
130.0001802709347
 20
245.5586070116987
 30
0.0
 10
130.0001802709347
 20
245.5662992512308
 30
0.0
 10
130.0001802709347
 20
245.5688283468156
 30
0.0
  0
SPLINE
  5
AE
330
1F
100
AcDbEntity
  8
0
  6
Continuous
 62
     7
370
    35
100
AcDbSpline
210
0.0
220
0.0
230
1.0
 70
     8
 71
     3
 72
     9
 73
     5
 74
     0
 42
0.000000001
 43
0.00000001
 40
0.0
 40
0.0
 40
0.0
 40
0.0
 40
0.645084294328235
 40
0.9999999999999999
 40
0.9999999999999999
 40
0.9999999999999999
 40
0.9999999999999999
 10
127.541179474855
 20
243.6082360024123
 30
0.0
 10
127.7513961072828
 20
243.5718617078865
 30
0.0
 10
128.0772707786647
 20
243.5154748219468
 30
0.0
 10
128.3886985407651
 20
243.6098058373034
 30
0.0
 10
128.4992291447168
 20
243.6432853961854
 30
0.0
  0
LINE
  5
AF
330
1F
100
AcDbEntity
  8
0
  6
Continuous
 62
     7
370
    35
100
AcDbLine
 10
130.0001802709
 20
247.6357572401
 30
0.0
 11
130.0001802709
 21
246.61084606
 31
0.0
  0
SPLINE
  5
B0
330
1F
100
AcDbEntity
  8
0
  6
Continuous
 62
     7
370
    35
100
AcDbSpline
210
0.0
220
0.0
230
1.0
 70
     8
 71
     3
 72
    13
 73
     9
 74
     0
 42
0.000000001
 43
0.00000001
 40
0.0
 40
0.0
 40
0.0
 40
0.0
 40
0.1620411102385734
 40
0.3240840804867037
 40
0.4893805758446668
 40
0.6546762913170202
 40
0.8268549524152717
 40
0.9999999999999999
 40
0.9999999999999999
 40
0.9999999999999999
 40
0.9999999999999999
 10
128.0001818057543
 20
233.0560476208596
 30
0.0
 10
127.4277670351693
 20
232.5763164966724
 30
0.0
 10
126.2829309234633
 20
231.6168487416431
 30
0.0
 10
124.8476187557616
 20
230.3561827285028
 30
0.0
 10
123.6163002703267
 20
229.2510017789564
 30
0.0
 10
122.6066229976917
 20
228.3235420391282
 30
0.0
 10
121.8085089624676
 20
227.5791025006176
 30
0.0
 10
121.4862566082275
 20
227.274710502509
 30
0.0
 10
121.324679520393
 20
227.1220885837941
 30
0.0
  0
LINE
  5
B1
330
1F
100
AcDbEntity
  8
0
  6
Continuous
 62
     7
370
    35
100
AcDbLine
 10
120.9970551398
 20
227.1238431955
 30
0.0
 11
121.3246795204
 21
227.1220885838
 31
0.0
  0
SPLINE
  5
B2
330
1F
100
AcDbEntity
  8
0
  6
Continuous
 62
     7
370
    35
100
AcDbSpline
210
0.0
220
0.0
230
1.0
 70
     8
 71
     3
 72
    13
 73
     9
 74
     0
 42
0.000000001
 43
0.00000001
 40
0.0
 40
0.0
 40
0.0
 40
0.0
 40
0.0500356314931668
 40
0.2737618540217404
 40
0.4976504298359288
 40
0.7215445188382974
 40
0.8607713489191264
 40
1.0
 40
1.0
 40
1.0
 40
1.0
 10
99.70526274707375
 20
235.814304711905
 30
0.0
 10
99.97363549082243
 20
235.5270540903487
 30
0.0
 10
101.4419934930107
 20
233.9554088371678
 30
0.0
 10
104.7067450877181
 20
231.7270248943785
 30
0.0
 10
109.392008217846
 20
229.2936500866608
 30
0.0
 10
113.8226517859098
 20
227.9304170441604
 30
0.0
 10
117.7173450974303
 20
227.2572496686446
 30
0.0
 10
119.9038136927701
 20
227.1683122137711
 30
0.0
 10
120.9970551398045
 20
227.1238431955247
 30
0.0
  0
ARC
  5
B3
330
1F
100
AcDbEntity
  8
0
  6
Continuous
 62
     7
370
    35
100
AcDbCircle
 10
128.0664209379
 20
234.9899800067
 30
0.0
 40
1.935066431859401
100
AcDbArc
 50
268.038328701
 51
357.893951582
  0
SPLINE
  5
B4
330
1F
100
AcDbEntity
  8
0
  6
Continuous
 62
     7
370
    35
100
AcDbSpline
210
0.0
220
0.0
230
1.0
 70
    24
 71
     3
 72
     9
 73
     5
 74
     0
 42
0.000000001
 43
0.00000001
 40
0.0
 40
0.0
 40
0.0
 40
0.0
 40
0.6828309710852246
 40
1.0
 40
1.0
 40
1.0
 40
1.0
 10
130.0001802709347
 20
245.5549013490348
 30
0.0
 10
130.0001802709347
 20
244.3859218110839
 30
0.0
 10
130.0001802709347
 20
242.6739614761668
 30
0.0
 10
130.0001802709347
 20
241.262101823746
 30
0.0
 10
130.0001802709347
 20
240.8143036688237
 30
0.0
  0
LINE
  5
B5
330
1F
100
AcDbEntity
  8
0
  6
Continuous
 62
     7
370
    35
100
AcDbLine
 10
130.0001802709
 20
235.8143047119
 30
0.0
 11
130.0001802709
 21
234.9188678587
 31
0.0
  0
SPLINE
  5
B6
330
1F
100
AcDbEntity
  8
0
  6
Continuous
 62
     7
370
    35
100
AcDbSpline
210
0.0
220
0.0
230
1.0
 70
     8
 71
     3
 72
    12
 73
     8
 74
     0
 42
0.000000001
 43
0.00000001
 40
0.0
 40
0.0
 40
0.0
 40
0.0
 40
0.2146915096980213
 40
0.4293827469318632
 40
0.6440743098732872
 40
0.858767992491692
 40
1.0
 40
1.0
 40
1.0
 40
1.0
 10
128.0001818057543
 20
227.1220885837941
 30
0.0
 10
128.2250274539828
 20
227.1441179084633
 30
0.0
 10
128.6747184650891
 20
227.1881765298444
 30
0.0
 10
129.27406103618
 20
227.5317531404853
 30
0.0
 10
129.7263690759196
 20
228.0374166056102
 30
0.0
 10
129.9660358751992
 20
228.5977465280571
 30
0.0
 10
129.9904805688526
 20
228.9679976397859
 30
0.0
 10
130.0001802709347
 20
229.1149140025048
 30
0.0
  0
LINE
  5
B7
330
1F
100
AcDbEntity
  8
0
  6
Continuous
 62
     7
370
    35
100
AcDbLine
 10
128.0001818058
 20
227.1220885838
 30
0.0
 11
128.0001818058
 21
233.0560476209
 31
0.0
  0
LINE
  5
B8
330
1F
100
AcDbEntity
  8
0
  6
Continuous
 62
     7
370
    35
100
AcDbLine
 10
130.0001802709
 20
234.9188678587
 30
0.0
 11
130.0001802709
 21
229.1149140025
 31
0.0
  0
LINE
  5
B9
330
1F
100
AcDbEntity
  8
0
  6
Continuous
 62
     7
370
    35
100
AcDbLine
 10
121.3246795204
 20
227.1220885838
 30
0.0
 11
128.0001818058
 21
227.1220885838
 31
0.0
  0
LINE
  5
BA
330
1F
100
AcDbEntity
  8
0
  6
Continuous
 62
     7
370
    35
100
AcDbLine
 10
120.9970551398
 20
227.1238431955
 30
0.0
 11
120.9970923927
 21
227.1203861261
 31
0.0
  0
LINE
  5
BB
330
1F
100
AcDbEntity
  8
0
  6
Continuous
 62
     7
370
    35
100
AcDbLine
 10
128.0001818058
 20
227.1220885838
 30
0.0
 11
128.0001818058
 21
227.1187060202
 31
0.0
  0
LINE
  5
BC
330
1F
100
AcDbEntity
  8
0
  6
Continuous
 62
     7
370
    35
100
AcDbLine
 10
130.0001802709
 20
233.3288953329
 30
0.0
 11
130.0001802709
 21
233.3145343388
 31
0.0
  0
LINE
  5
BD
330
1F
100
AcDbEntity
  8
0
  6
Continuous
 62
     7
370
    35
100
AcDbLine
 10
73.0001802411
 20
270.8104716536
 30
0.0
 11
243.0001820293
 21
270.8104716536
 31
0.0
  0
SPLINE
  5
BE
330
1F
100
AcDbEntity
  8
0
  6
Continuous
 62
     7
370
    35
100
AcDbSpline
210
0.0
220
0.0
230
1.0
 70
     8
 71
     3
 72
     9
 73
     5
 74
     0
 42
0.000000001
 43
0.00000001
 40
0.0
 40
0.0
 40
0.0
 40
0.0
 40
0.5001394648678968
 40
1.0
 40
1.0
 40
1.0
 40
1.0
 10
238.5141304828393
 20
271.1664817504308
 30
0.0
 10
238.514525632675
 20
271.1710034510162
 30
0.0
 10
238.5153157119697
 20
271.1800443304169
 30
0.0
 10
238.515875211454
 20
271.1863949330123
 30
0.0
 10
238.5161548831656
 20
271.189569348624
 30
0.0
  0
SPLINE
  5
BF
330
1F
100
AcDbEntity
  8
0
  6
Continuous
 62
     7
370
    35
100
AcDbSpline
210
0.0
220
0.0
230
1.0
 70
     8
 71
     3
 72
     8
 73
     4
 74
     0
 42
0.000000001
 43
0.00000001
 40
0.0
 40
0.0
 40
0.0
 40
0.0
 40
1.0
 40
1.0
 40
1.0
 40
1.0
 10
238.5161548831656
 20
271.189569348624
 30
0.0
 10
238.2229619403843
 20
271.2152550872079
 30
0.0
 10
237.9297755468082
 20
271.2409408257917
 30
0.0
 10
237.6365959212399
 20
271.2666265643755
 30
0.0
  0
LINE
  5
C0
330
1F
100
AcDbEntity
  8
0
  6
Continuous
 62
     7
370
    35
100
AcDbLine
 10
237.6365984645
 20
271.2666265822
 30
0.0
 11
237.6355702844
 21
271.2549527447
 31
0.0
  0
LINE
  5
C1
330
1F
100
AcDbEntity
  8
0
  6
Continuous
 62
     7
370
    35
100
AcDbLine
 10
237.6355702844
 20
271.2549527447
 30
0.0
 11
235.526549336
 21
271.4393891607
 31
0.0
  0
LINE
  5
C2
330
1F
100
AcDbEntity
  8
0
  6
Continuous
 62
     7
370
    35
100
AcDbLine
 10
235.526549336
 20
271.4393891607
 30
0.0
 11
235.5254988041
 21
271.4274078995
 31
0.0
  0
LINE
  5
C3
330
1F
100
AcDbEntity
  8
0
  6
Continuous
 62
     7
370
    35
100
AcDbLine
 10
235.5254988041
 20
271.4274078995
 30
0.0
 11
238.5141278472
 21
271.1664817567
 31
0.0
  0
LINE
  5
C4
330
1F
100
AcDbEntity
  8
0
  6
Continuous
 62
     7
370
    35
100
AcDbLine
 10
235.5829427805
 20
271.461626379
 30
0.0
 11
238.5353918042
 21
271.2024275485
 31
0.0
  0
LINE
  5
C5
330
1F
100
AcDbEntity
  8
0
  6
Continuous
 62
     7
370
    35
100
AcDbLine
 10
238.5235379305
 20
271.1894595801
 30
0.0
 11
238.5240594712
 21
271.1954253415
 31
0.0
  0
SPLINE
  5
C6
330
1F
100
AcDbEntity
  8
0
  6
Continuous
 62
     7
370
    35
100
AcDbSpline
210
0.0
220
0.0
230
1.0
 70
     8
 71
     3
 72
     8
 73
     4
 74
     0
 42
0.000000001
 43
0.00000001
 40
0.0
 40
0.0
 40
0.0
 40
0.0
 40
1.0
 40
1.0
 40
1.0
 40
1.0
 10
238.5240591679755
 20
271.1954253577331
 30
0.0
 10
238.3495148966741
 20
271.2110771845278
 30
0.0
 10
238.1748443154001
 20
271.2267290113224
 30
0.0
 10
238.0000494579887
 20
271.242380838117
 30
0.0
  0
LINE
  5
C7
330
1F
100
AcDbEntity
  8
0
  6
Continuous
 62
     7
370
    35
100
AcDbLine
 10
238.0000526872
 20
271.2423808213
 30
0.0
 11
238.000499722
 21
271.2475087416
 31
0.0
  0
LINE
  5
C8
330
1F
100
AcDbEntity
  8
0
  6
Continuous
 62
     7
370
    35
100
AcDbLine
 10
238.000499722
 20
271.2475087416
 30
0.0
 11
238.5246331659
 21
271.2019725392
 31
0.0
  0
LINE
  5
C9
330
1F
100
AcDbEntity
  8
0
  6
Continuous
 62
     7
370
    35
100
AcDbLine
 10
238.5246331659
 20
271.2019725392
 30
0.0
 11
238.5247523752
 21
271.2033017112
 31
0.0
  0
LINE
  5
CA
330
1F
100
AcDbEntity
  8
0
  6
Continuous
 62
     7
370
    35
100
AcDbLine
 10
238.5247523752
 20
271.2033017112
 30
0.0
 11
235.5287621584
 21
271.464600936
 31
0.0
  0
LINE
  5
CB
330
1F
100
AcDbEntity
  8
0
  6
Continuous
 62
     7
370
    35
100
AcDbLine
 10
235.5287621584
 20
271.464600936
 30
0.0
 11
235.528628048
 21
271.4630935322
 31
0.0
  0
LINE
  5
CC
330
1F
100
AcDbEntity
  8
0
  6
Continuous
 62
     7
370
    35
100
AcDbLine
 10
235.528628048
 20
271.4630935322
 30
0.0
 11
235.5284641352
 21
271.4612513179
 31
0.0
  0
LINE
  5
CD
330
1F
100
AcDbEntity
  8
0
  6
Continuous
 62
     7
370
    35
100
AcDbLine
 10
235.5284641352
 20
271.4612513179
 30
0.0
 11
235.5282555189
 21
271.4588550831
 31
0.0
  0
LINE
  5
CE
330
1F
100
AcDbEntity
  8
0
  6
Continuous
 62
     7
370
    35
100
AcDbLine
 10
235.5282555189
 20
271.4588550831
 30
0.0
 11
238.5235379305
 21
271.1894595801
 31
0.0
  0
LINE
  5
CF
330
1F
100
AcDbEntity
  8
0
  6
Continuous
 62
     7
370
    35
100
AcDbLine
 10
73.0876351562
 20
269.8143030672
 30
0.0
 11
242.9127271142
 21
269.8143030672
 31
0.0
  0
LINE
  5
D0
330
1F
100
AcDbEntity
  8
0
  6
Continuous
 62
     7
370
    35
100
AcDbLine
 10
113.9194655087
 20
263.8143027822
 30
0.0
 11
134.5220456686
 21
263.8143027822
 31
0.0
  0
LINE
  5
D1
330
1F
100
AcDbEntity
  8
0
  6
Continuous
 62
     7
370
    35
100
AcDbLine
 10
113.9194655087
 20
252.8143037731
 30
0.0
 11
113.9194655087
 21
263.8143027822
 31
0.0
  0
LINE
  5
D2
330
1F
100
AcDbEntity
  8
0
  6
Continuous
 62
     7
370
    35
100
AcDbLine
 10
113.9194655087
 20
252.8143037731
 30
0.0
 11
134.5220456686
 21
252.8143037731
 31
0.0
  0
LINE
  5
D3
330
1F
100
AcDbEntity
  8
0
  6
Continuous
 62
     7
370
    35
100
AcDbLine
 10
134.5220456686
 20
263.8143027822
 30
0.0
 11
134.5220456686
 21
252.8143037731
 31
0.0
  0
LINE
  5
D4
330
1F
100
AcDbEntity
  8
0
  6
Continuous
 62
     7
370
    35
100
AcDbLine
 10
85.0001822081
 20
253.7143022443
 30
0.0
 11
85.336575922
 21
253.7143022443
 31
0.0
  0
SPLINE
  5
D5
330
1F
100
AcDbEntity
  8
0
  6
Continuous
 62
     7
370
    35
100
AcDbSpline
210
0.0
220
0.0
230
1.0
 70
     8
 71
     3
 72
    12
 73
     8
 74
     0
 42
0.000000001
 43
0.00000001
 40
0.0
 40
0.0
 40
0.0
 40
0.0
 40
0.2499999999999991
 40
0.2499999999999991
 40
0.4999999999999982
 40
0.4999999999999982
 40
1.0
 40
1.0
 40
1.0
 40
1.0
 10
85.43986140051508
 20
254.7143031621843
 30
0.0
 10
85.43986140051508
 20
254.581899278698
 30
0.0
 10
85.4369659224303
 20
254.4519604690286
 30
0.0
 10
85.42597669409028
 20
254.2096014943239
 30
0.0
 10
85.41789542729443
 20
254.0986744126445
 30
0.0
 10
85.3885152078151
 20
253.822403580755
 30
0.0
 10
85.36196143567848
 20
253.7143031621843
 30
0.0
 10
85.33657263686224
 20
253.7143031621843
 30
0.0
  0
LINE
  5
D6
330
1F
100
AcDbEntity
  8
0
  6
Continuous
 62
     7
370
    35
100
AcDbLine
 10
85.4398633209
 20
254.7143024082
 30
0.0
 11
85.4398633209
 21
264.714303116
 31
0.0
  0
LINE
  5
D7
330
1F
100
AcDbEntity
  8
0
  6
Continuous
 62
     7
370
    35
100
AcDbLine
 10
85.4398633209
 20
264.714303116
 30
0.0
 11
85.171612617
 21
264.714303116
 31
0.0
  0
LINE
  5
D8
330
1F
100
AcDbEntity
  8
0
  6
Continuous
 62
     7
370
    35
100
AcDbLine
 10
85.0001822081
 20
235.8143047119
 30
0.0
 11
231.0001800623
 21
235.8143047119
 31
0.0
  0
LWPOLYLINE
  5
D9
330
1F
100
AcDbEntity
  8
0
  6
Continuous
 62
     7
370
    35
100
AcDbPolyline
 90
        3
 70
   128
 43
0.0
 10
131.7350256112
 20
247.7859534944
 10
133.3093798574
 20
243.8166138405
 10
134.8968098727
 20
239.8143016423
  0
SPLINE
  5
DA
330
1F
100
AcDbEntity
  8
0
  6
Continuous
 62
     7
370
    35
100
AcDbSpline
210
0.0
220
0.0
230
1.0
 70
     8
 71
     3
 72
    10
 73
     6
 74
     0
 42
0.000000001
 43
0.00000001
 40
0.0
 40
0.0
 40
0.0
 40
0.0
 40
0.5
 40
0.5
 40
1.0
 40
1.0
 40
1.0
 40
1.0
 10
131.0859058647211
 20
248.0663873024423
 30
0.0
 10
131.2072766933117
 20
248.1145264211941
 30
0.0
 10
131.3425172409086
 20
248.1131503615494
 30
0.0
 10
131.5824967753198
 20
248.0131895245402
 30
0.0
 10
131.6841515912186
 20
247.9142220628694
 30
0.0
 10
131.7350262604489
 20
247.7859542233482
 30
0.0
  0
LWPOLYLINE
  5
DB
330
1F
100
AcDbEntity
  8
0
  6
Continuous
 62
     7
370
    35
100
AcDbPolyline
 90
        4
 70
   128
 43
0.0
 10
126.3158383634
 20
246.1744432027
 10
127.8891215887
 20
246.7984516794
 10
129.4794442919
 20
247.4292196954
 10
131.0859049526
 20
248.0663877601
  0
SPLINE
  5
DC
330
1F
100
AcDbEntity
  8
0
  6
Continuous
 62
     7
370
    35
100
AcDbSpline
210
0.0
220
0.0
230
1.0
 70
     8
 71
     3
 72
    10
 73
     6
 74
     0
 42
0.000000001
 43
0.00000001
 40
0.0
 40
0.0
 40
0.0
 40
0.0
 40
0.5
 40
0.5
 40
1.0
 40
1.0
 40
1.0
 40
1.0
 10
126.000181135202
 20
245.7096659252593
 30
0.0
 10
126.000181135202
 20
245.8140692513423
 30
0.0
 10
126.0332592837244
 20
245.9147548110371
 30
0.0
 10
126.1486054991229
 20
246.0790871463233
 30
0.0
 10
126.2274587942707
 20
246.139389166316
 30
0.0
 10
126.3158374768852
 20
246.1744426626703
 30
0.0
  0
LINE
  5
DD
330
1F
100
AcDbEntity
  8
0
  6
Continuous
 62
     7
370
    35
100
AcDbLine
 10
126.0001796153
 20
239.8143016423
 30
0.0
 11
126.0001796153
 21
245.7096666718
 31
0.0
  0
LINE
  5
DE
330
1F
100
AcDbEntity
  8
0
  6
Continuous
 62
     7
370
    35
100
AcDbLine
 10
134.8968098727
 20
239.8143016423
 30
0.0
 11
126.0001796153
 21
239.8143016423
 31
0.0
  0
LINE
  5
DF
330
1F
100
AcDbEntity
  8
0
  6
Continuous
 62
     7
370
    35
100
AcDbLine
 10
126.0001796153
 20
240.8143036688
 30
0.0
 11
134.5001819399
 21
240.8143036688
 31
0.0
  0
LINE
  5
E0
330
1F
100
AcDbEntity
  8
0
  6
Continuous
 62
     7
370
    35
100
AcDbLine
 10
131.3940050867
 20
252.8143037731
 30
0.0
 11
131.3940050867
 21
263.8143027822
 31
0.0
  0
LINE
  5
E1
330
1F
100
AcDbEntity
  8
0
  6
Continuous
 62
     7
370
    35
100
AcDbLine
 10
127.089908984
 20
263.8143027822
 30
0.0
 11
127.089908984
 21
252.8143037731
 31
0.0
  0
LINE
  5
E2
330
1F
100
AcDbEntity
  8
0
  6
Continuous
 62
     7
370
    35
100
AcDbLine
 10
116.3348468807
 20
263.8143027822
 30
0.0
 11
116.3348468807
 21
252.8143037731
 31
0.0
  0
LINE
  5
E3
330
1F
100
AcDbEntity
  8
0
  6
Continuous
 62
     7
370
    35
100
AcDbLine
 10
236.1670608487
 20
271.4062035472
 30
0.0
 11
237.2091586557
 21
271.3131517909
 31
0.0
  0
LINE
  5
E4
330
1F
100
AcDbEntity
  8
0
  6
Continuous
 62
     7
370
    35
100
AcDbLine
 10
237.2091586557
 20
271.3131517909
 30
0.0
 11
237.209419426
 21
271.3160976224
 31
0.0
  0
LINE
  5
E5
330
1F
100
AcDbEntity
  8
0
  6
Continuous
 62
     7
370
    35
100
AcDbLine
 10
237.209419426
 20
271.3160976224
 30
0.0
 11
236.1670608487
 21
271.4062035472
 31
0.0
  0
SPLINE
  5
E6
330
1F
100
AcDbEntity
  8
0
  6
Continuous
 62
     7
370
    35
100
AcDbSpline
210
0.0
220
0.0
230
1.0
 70
     8
 71
     3
 72
    10
 73
     6
 74
     0
 42
0.000000001
 43
0.00000001
 40
0.0
 40
0.0
 40
0.0
 40
0.0
 40
0.4550157341339768
 40
0.9100126076051348
 40
1.0
 40
1.0
 40
1.0
 40
1.0
 10
85.17161261704025
 20
264.7143031159907
 30
0.0
 10
85.183911393834
 20
264.6034227521655
 30
0.0
 10
85.2085084376301
 20
264.3816666205697
 30
0.0
 10
85.32084166674352
 20
264.1477414655379
 30
0.0
 10
85.4229957203025
 20
264.0609450423631
 30
0.0
 10
85.4398633208519
 20
264.0466132822006
 30
0.0
  0
LINE
  5
E7
330
1F
100
AcDbEntity
  8
0
  6
Continuous
 62
     8
370
    35
100
AcDbLine
 10
127.7169777867
 20
246.7301745588
 30
0.0
 11
128.0001818058
 21
246.61084606
 31
0.0
  0
LINE
  5
E8
330
1F
100
AcDbEntity
  8
0
  6
Continuous
 62
     8
370
    35
100
AcDbLine
 10
128.0001818058
 20
246.61084606
 30
0.0
 11
128.0001818058
 21
246.8425013746
 31
0.0
  0
SPLINE
  5
E9
330
1F
100
AcDbEntity
  8
0
  6
Continuous
 62
     8
370
    35
100
AcDbSpline
210
0.0
220
0.0
230
1.0
 70
     8
 71
     3
 72
     9
 73
     5
 74
     0
 42
0.000000001
 43
0.00000001
 40
0.0
 40
0.0
 40
0.0
 40
0.0
 40
0.5831290938096663
 40
0.9999999999999999
 40
0.9999999999999999
 40
0.9999999999999999
 40
0.9999999999999999
 10
128.0001818057543
 20
233.0560476208596
 30
0.0
 10
127.970943849373
 20
233.5369746771134
 30
0.0
 10
127.9208040832532
 20
234.3617098195702
 30
0.0
 10
127.8695031746669
 20
235.3869231159887
 30
0.0
 10
127.8481173184162
 20
235.814304711905
 30
0.0
  0
SPLINE
  5
EA
330
1F
100
AcDbEntity
  8
0
  6
Continuous
 62
     8
370
    35
100
AcDbSpline
210
0.0
220
0.0
230
1.0
 70
     8
 71
     3
 72
     9
 73
     5
 74
     0
 42
0.000000001
 43
0.00000001
 40
0.0
 40
0.0
 40
0.0
 40
0.0
 40
0.997550623081656
 40
1.0
 40
1.0
 40
1.0
 40
1.0
 10
127.6354106929546
 20
240.8143036688237
 30
0.0
 10
127.6037069924945
 20
241.7162733715296
 30
0.0
 10
127.5719254470505
 20
242.6204577626129
 30
0.0
 10
127.5412545993215
 20
243.605822472835
 30
0.0
 10
127.541179474855
 20
243.6082360024123
 30
0.0
  0
LINE
  5
EB
330
1F
100
AcDbEntity
  8
0
  6
Continuous
 62
     8
370
    35
100
AcDbLine
 10
121.3246795204
 20
227.1220885838
 30
0.0
 11
121.3246795204
 21
227.1187060202
 31
0.0
  0
LINE
  5
EC
330
1F
100
AcDbEntity
  8
0
  6
Continuous
 62
     8
370
    35
100
AcDbLine
 10
84.3689988222
 20
271.8085558678
 30
0.0
 11
231.6313634482
 21
271.8085558678
 31
0.0
  0
LINE
  5
ED
330
1F
100
AcDbEntity
  8
0
  6
Continuous
 62
     8
370
    35
100
AcDbLine
 10
238.5353918042
 20
271.2024275485
 30
0.0
 11
238.5353843537
 21
271.2023576411
 31
0.0
  0
LINE
  5
EE
330
1F
100
AcDbEntity
  8
0
  6
Continuous
 62
     8
370
    35
100
AcDbLine
 10
235.5829353299
 20
271.4615298416
 30
0.0
 11
235.5829427805
 21
271.461626379
 31
0.0
  0
LINE
  5
EF
330
1F
100
AcDbEntity
  8
0
  6
Continuous
 62
     8
370
    35
100
AcDbLine
 10
85.0001822081
 20
264.714303116
 30
0.0
 11
85.171612617
 21
264.714303116
 31
0.0
  0
LINE
  5
F0
330
1F
100
AcDbEntity
  8
0
  6
Continuous
 62
     8
370
    35
100
AcDbLine
 10
125.4039916065
 20
252.8143037731
 30
0.0
 11
125.4039916065
 21
256.440155829
 31
0.0
  0
LINE
  5
F1
330
1F
100
AcDbEntity
  8
0
  6
Continuous
 62
     8
370
    35
100
AcDbLine
 10
125.4039916065
 20
261.1884499589
 30
0.0
 11
125.4039916065
 21
263.8143027822
 31
0.0
  0
LINE
  5
F2
330
1F
100
AcDbEntity
  8
0
  6
Continuous
 62
     7
370
    35
100
AcDbLine
 10
117.8501794901
 20
372.7491443175
 30
0.0
 11
117.9213772383
 21
371.9353546518
 31
0.0
  0
LINE
  5
F3
330
1F
100
AcDbEntity
  8
0
  6
Continuous
 62
     7
370
    35
100
AcDbLine
 10
125.9314591851
 20
370.2491429764
 30
0.0
 11
125.9653407004
 21
370.6363906282
 31
0.0
  0
ARC
  5
F4
330
1F
100
AcDbEntity
  8
0
  6
Continuous
 62
     7
370
    35
100
AcDbCircle
 10
122.0001811352
 20
379.5084880476
 30
0.0
 40
10.05934337242004
100
AcDbArc
 50
284.6146510994
 51
293.0048249406
  0
LINE
  5
F5
330
1F
100
AcDbEntity
  8
0
  6
Continuous
 62
     7
370
    35
100
AcDbLine
 10
125.9653407004
 20
492.8618987221
 30
0.0
 11
125.9314591851
 21
493.2491463739
 31
0.0
  0
LINE
  5
F6
330
1F
100
AcDbEntity
  8
0
  6
Continuous
 62
     7
370
    35
100
AcDbLine
 10
117.9213772383
 20
491.5629346985
 30
0.0
 11
117.8501794901
 21
490.7491450328
 31
0.0
  0
ARC
  5
F7
330
1F
100
AcDbEntity
  8
0
  6
Continuous
 62
     7
370
    35
100
AcDbCircle
 10
122.0001811352
 20
483.9898013027
 30
0.0
 40
10.0593433724201
100
AcDbArc
 50
66.9951750594
 51
75.3853489006
  0
LINE
  5
F8
330
1F
100
AcDbEntity
  8
0
  6
Continuous
 62
     7
370
    35
100
AcDbLine
 10
117.1956795123
 20
489.7491430062
 30
0.0
 11
117.1539786127
 21
487.3601851183
 31
0.0
  0
LINE
  5
F9
330
1F
100
AcDbEntity
  8
0
  6
Continuous
 62
     7
370
    35
100
AcDbLine
 10
117.0001800027
 20
376.2513977605
 30
0.0
 11
117.0001800027
 21
373.9491460043
 31
0.0
  0
LINE
  5
FA
330
1F
100
AcDbEntity
  8
0
  6
Continuous
 62
     7
370
    35
100
AcDbLine
 10
117.0001800027
 20
373.9491460043
 30
0.0
 11
117.200179663
 21
373.7491463441
 31
0.0
  0
ARC
  5
FB
330
1F
100
AcDbEntity
  8
0
  6
Continuous
 62
     7
370
    35
100
AcDbCircle
 10
158.0001811352
 20
431.7491446751
 30
0.0
 40
68.99999999999997
100
AcDbArc
 50
180.0
 51
90.0
  0
ARC
  5
FC
330
1F
100
AcDbEntity
  8
0
  6
Continuous
 62
     7
370
    35
100
AcDbCircle
 10
158.0001811352
 20
431.7491446751
 30
0.0
 40
68.99999999999997
100
AcDbArc
 50
90.0
 51
180.0
  0
LINE
  5
FD
330
1F
100
AcDbEntity
  8
0
  6
Continuous
 62
     7
370
    35
100
AcDbLine
 10
120.5602275994
 20
370.2491429764
 30
0.0
 11
125.9314591851
 21
370.2491429764
 31
0.0
  0
ARC
  5
FE
330
1F
100
AcDbEntity
  8
0
  6
Continuous
 62
     7
370
    35
100
AcDbCircle
 10
123.3843186532
 20
368.7759216461
 30
0.0
 40
1.526146830601619
100
AcDbArc
 50
40.8735295134
 51
41.3349501109
  0
ARC
  5
FF
330
1F
100
AcDbEntity
  8
0
  6
Continuous
 62
     7
370
    35
100
AcDbCircle
 10
122.0001811352
 20
379.5084880476
 30
0.0
 40
10.04834193485708
100
AcDbArc
 50
272.682827173
 51
284.5834002154
  0
LINE
  5
100
330
1F
100
AcDbEntity
  8
0
  6
Continuous
 62
     7
370
    35
100
AcDbLine
 10
122.4705154863
 20
369.7838802952
 30
0.0
 11
122.4705154863
 21
369.4711608011
 31
0.0
  0
ARC
  5
101
330
1F
100
AcDbEntity
  8
0
  6
Continuous
 62
     7
370
    35
100
AcDbCircle
 10
122.0001808223
 20
381.7193554158
 30
0.0
 40
11.94473863475221
100
AcDbArc
 50
267.7433445322
 51
272.2566554678
  0
LINE
  5
102
330
1F
100
AcDbEntity
  8
0
  6
Continuous
 62
     7
370
    35
100
AcDbLine
 10
121.5298461583
 20
369.6692382115
 30
0.0
 11
121.5298461583
 21
369.7838802952
 31
0.0
  0
LINE
  5
103
330
1F
100
AcDbEntity
  8
0
  6
Continuous
 62
     7
370
    35
100
AcDbLine
 10
125.9314591851
 20
493.2491463739
 30
0.0
 11
120.5602275994
 21
493.2491463739
 31
0.0
  0
LINE
  5
104
330
1F
100
AcDbEntity
  8
0
  6
Continuous
 62
     7
370
    35
100
AcDbLine
 10
121.5298461583
 20
493.7144090551
 30
0.0
 11
121.5298461583
 21
493.8290511388
 31
0.0
  0
ARC
  5
105
330
1F
100
AcDbEntity
  8
0
  6
Continuous
 62
     7
370
    35
100
AcDbCircle
 10
122.0001808223
 20
481.7789339344
 30
0.0
 40
11.94473863475216
100
AcDbArc
 50
87.7433445322
 51
92.2566554678
  0
LINE
  5
106
330
1F
100
AcDbEntity
  8
0
  6
Continuous
 62
     7
370
    35
100
AcDbLine
 10
122.4705154863
 20
494.0271285492
 30
0.0
 11
122.4705154863
 21
493.7144090551
 31
0.0
  0
ARC
  5
107
330
1F
100
AcDbEntity
  8
0
  6
Continuous
 62
     7
370
    35
100
AcDbCircle
 10
122.0001811352
 20
483.9898013027
 30
0.0
 40
10.04834193485713
100
AcDbArc
 50
75.4165997846
 51
87.317172827
  0
ARC
  5
108
330
1F
100
AcDbEntity
  8
0
  6
Continuous
 62
     7
370
    35
100
AcDbCircle
 10
123.3843186532
 20
494.7223677042
 30
0.0
 40
1.52614683060163
100
AcDbArc
 50
318.6650498891
 51
319.1264704866
  0
ARC
  5
109
330
1F
100
AcDbEntity
  8
0
  6
Continuous
 62
     7
370
    35
100
AcDbCircle
 10
90.8001811352
 20
431.7491446751
 30
0.0
 40
3.199999999999989
100
AcDbArc
 50
180.0
 51
236.8916555961
  0
ARC
  5
10A
330
1F
100
AcDbEntity
  8
0
  6
Continuous
 62
     7
370
    35
100
AcDbCircle
 10
90.8001811352
 20
431.7491446751
 30
0.0
 40
3.200000000000014
100
AcDbArc
 50
123.1083444039
 51
180.0
  0
LINE
  5
10B
330
1F
100
AcDbEntity
  8
0
  6
Continuous
 62
     7
370
    35
100
AcDbLine
 10
118.4390435782
 20
488.2815797943
 30
0.0
 11
118.4579308
 21
489.7491430062
 31
0.0
  0
LINE
  5
10C
330
1F
100
AcDbEntity
  8
0
  6
Continuous
 62
     7
370
    35
100
AcDbLine
 10
117.8949016001
 20
489.7491430062
 30
0.0
 11
117.8636985686
 21
487.8745620269
 31
0.0
  0
LINE
  5
10D
330
1F
100
AcDbEntity
  8
0
  6
Continuous
 62
     7
370
    35
100
AcDbLine
 10
117.3810387817
 20
487.526247384
 30
0.0
 11
117.4180458155
 21
489.7491430062
 31
0.0
  0
LINE
  5
10E
330
1F
100
AcDbEntity
  8
0
  6
Continuous
 62
     7
370
    35
100
AcDbLine
 10
117.0001800027
 20
373.9491460043
 30
0.0
 11
120.315170553
 21
373.9491460043
 31
0.0
  0
SPLINE
  5
10F
330
1F
100
AcDbEntity
  8
0
  6
Continuous
 62
     7
370
    35
100
AcDbSpline
210
0.0
220
0.0
230
1.0
 70
     8
 71
     3
 72
    11
 73
     7
 74
     0
 42
0.000000001
 43
0.00000001
 40
0.0
 40
0.0
 40
0.0
 40
0.0
 40
0.2519119324525781
 40
0.5432621445922833
 40
0.835141638570045
 40
1.0
 40
1.0
 40
1.0
 40
1.0
 10
111.394322183395
 20
482.5180378872244
 30
0.0
 10
111.4868215549564
 20
482.7980087538521
 30
0.0
 10
111.6863016132396
 20
483.4017815563024
 30
0.0
 10
112.3660333251618
 20
484.1204881964658
 30
0.0
 10
113.1251058379764
 20
484.5910237470762
 30
0.0
 10
113.6540882009279
 20
484.6528070901481
 30
0.0
 10
113.8450230326897
 20
484.6751076299039
 30
0.0
  0
SPLINE
  5
110
330
1F
100
AcDbEntity
  8
0
  6
Continuous
 62
     7
370
    35
100
AcDbSpline
210
0.0
220
0.0
230
1.0
 70
     8
 71
     3
 72
    11
 73
     7
 74
     0
 42
0.000000001
 43
0.00000001
 40
0.0
 40
0.0
 40
0.0
 40
0.0
 40
0.1935894140729435
 40
0.4861937195362149
 40
0.7782674288191644
 40
0.9999999999999999
 40
0.9999999999999999
 40
0.9999999999999999
 40
0.9999999999999999
 10
113.9417203929668
 20
378.8066824096528
 30
0.0
 10
113.7176876385429
 20
378.8316602254766
 30
0.0
 10
113.1550364280264
 20
378.8943912236533
 30
0.0
 10
112.3668054555106
 20
379.3769226345612
 30
0.0
 10
111.7073239729316
 20
380.0680617854816
 30
0.0
 10
111.5167700439663
 20
380.6361941471125
 30
0.0
 10
111.4345366921669
 20
380.8813710826723
 30
0.0
  0
CIRCLE
  5
111
330
1F
100
AcDbEntity
  8
0
  6
Continuous
 62
     7
370
    35
100
AcDbCircle
 10
158.0001811352
 20
431.7491446751
 30
0.0
 40
67.74999999999997
  0
CIRCLE
  5
112
330
1F
100
AcDbEntity
  8
0
  6
Continuous
 62
     7
370
    35
100
AcDbCircle
 10
158.0001811352
 20
431.7491446751
 30
0.0
 40
72.0
  0
CIRCLE
  5
113
330
1F
100
AcDbEntity
  8
0
  6
Continuous
 62
     7
370
    35
100
AcDbCircle
 10
158.0001811352
 20
431.7491446751
 30
0.0
 40
73.63118251485825
  0
CIRCLE
  5
114
330
1F
100
AcDbEntity
  8
0
  6
Continuous
 62
     7
370
    35
100
AcDbCircle
 10
158.0001811352
 20
431.7491446751
 30
0.0
 40
85.00000000000001
  0
SPLINE
  5
115
330
1F
100
AcDbEntity
  8
0
  6
Continuous
 62
     7
370
    35
100
AcDbSpline
210
0.0
220
0.0
230
1.0
 70
     8
 71
     3
 72
     9
 73
     5
 74
     0
 42
0.000000001
 43
0.00000001
 40
0.0
 40
0.0
 40
0.0
 40
0.0
 40
0.5001394648678968
 40
1.0
 40
1.0
 40
1.0
 40
1.0
 10
238.5141304828393
 20
423.4084380461855
 30
0.0
 10
238.514525632675
 20
423.9369104323997
 30
0.0
 10
238.5153157119697
 20
424.9935604737113
 30
0.0
 10
238.515875211454
 20
426.0502302554589
 30
0.0
 10
238.5161548831656
 20
426.5784177780212
 30
0.0
  0
SPLINE
  5
116
330
1F
100
AcDbEntity
  8
0
  6
Continuous
 62
     7
370
    35
100
AcDbSpline
210
0.0
220
0.0
230
1.0
 70
     8
 71
     3
 72
     8
 73
     4
 74
     0
 42
0.000000001
 43
0.00000001
 40
0.0
 40
0.0
 40
0.0
 40
0.0
 40
1.0
 40
1.0
 40
1.0
 40
1.0
 10
238.5161548831656
 20
426.5784177780212
 30
0.0
 10
238.2229619403843
 20
426.5782113187903
 30
0.0
 10
237.9297755468082
 20
426.5782115221829
 30
0.0
 10
237.6365959212399
 20
426.5784183787926
 30
0.0
  0
LINE
  5
117
330
1F
100
AcDbEntity
  8
0
  6
Continuous
 62
     7
370
    35
100
AcDbLine
 10
237.6365984645
 20
426.5784184578
 30
0.0
 11
237.6355702844
 21
424.8108017388
 31
0.0
  0
LINE
  5
118
330
1F
100
AcDbEntity
  8
0
  6
Continuous
 62
     7
370
    35
100
AcDbLine
 10
237.6355702844
 20
424.8108017388
 30
0.0
 11
235.526549336
 21
424.8108054641
 31
0.0
  0
LINE
  5
119
330
1F
100
AcDbEntity
  8
0
  6
Continuous
 62
     7
370
    35
100
AcDbLine
 10
235.526549336
 20
424.8108054641
 30
0.0
 11
235.5254988041
 21
423.4084469396
 31
0.0
  0
LINE
  5
11A
330
1F
100
AcDbEntity
  8
0
  6
Continuous
 62
     7
370
    35
100
AcDbLine
 10
235.5254988041
 20
423.4084469396
 30
0.0
 11
238.5141278472
 21
423.4084376264
 31
0.0
  0
LINE
  5
11B
330
1F
100
AcDbEntity
  8
0
  6
Continuous
 62
     7
370
    35
100
AcDbLine
 10
235.5829427805
 20
431.5871161859
 30
0.0
 11
238.5353918042
 21
431.5871161859
 31
0.0
  0
SPLINE
  5
11C
330
1F
100
AcDbEntity
  8
0
  6
Continuous
 62
     7
370
    35
100
AcDbSpline
210
0.0
220
0.0
230
1.0
 70
     8
 71
     3
 72
     9
 73
     5
 74
     0
 42
0.000000001
 43
0.00000001
 40
0.0
 40
0.0
 40
0.0
 40
0.0
 40
0.1445007711741585
 40
1.0
 40
1.0
 40
1.0
 40
1.0
 10
238.5353899633464
 20
431.5871161888179
 30
0.0
 10
238.5353905866533
 20
431.6411256847742
 30
0.0
 10
238.5353949001728
 20
432.014891828148
 30
0.0
 10
238.5353693633768
 20
432.38865789765
 30
0.0
 10
238.5353475166675
 20
432.7084144818702
 30
0.0
  0
SPLINE
  5
11D
330
1F
100
AcDbEntity
  8
0
  6
Continuous
 62
     7
370
    35
100
AcDbSpline
210
0.0
220
0.0
230
1.0
 70
     8
 71
     3
 72
     8
 73
     4
 74
     0
 42
0.000000001
 43
0.00000001
 40
0.0
 40
0.0
 40
0.0
 40
0.0
 40
1.0
 40
1.0
 40
1.0
 40
1.0
 10
238.5353475166675
 20
432.7084144818702
 30
0.0
 10
238.1223093182423
 20
432.708491341841
 30
0.0
 10
237.7092715703903
 20
432.7084913399627
 30
0.0
 10
237.2962342945673
 20
432.7084144764069
 30
0.0
  0
SPLINE
  5
11E
330
1F
100
AcDbEntity
  8
0
  6
Continuous
 62
     7
370
    35
100
AcDbSpline
210
0.0
220
0.0
230
1.0
 70
     8
 71
     3
 72
     8
 73
     4
 74
     0
 42
0.000000001
 43
0.00000001
 40
0.0
 40
0.0
 40
0.0
 40
0.0
 40
1.0
 40
1.0
 40
1.0
 40
1.0
 10
237.2962342945673
 20
432.7084144764069
 30
0.0
 10
237.4096895619243
 20
432.7556347289747
 30
0.0
 10
237.5231026862515
 20
432.8030522279536
 30
0.0
 10
237.6364731540731
 20
432.8506668975868
 30
0.0
  0
LINE
  5
11F
330
1F
100
AcDbEntity
  8
0
  6
Continuous
 62
     7
370
    35
100
AcDbLine
 10
237.6364718046
 20
432.8506669159
 30
0.0
 11
238.5352800455
 21
433.2851576516
 31
0.0
  0
LINE
  5
120
330
1F
100
AcDbEntity
  8
0
  6
Continuous
 62
     7
370
    35
100
AcDbLine
 10
238.5352800455
 20
433.2851576516
 30
0.0
 11
238.5351235833
 21
434.1374897528
 31
0.0
  0
LINE
  5
121
330
1F
100
AcDbEntity
  8
0
  6
Continuous
 62
     7
370
    35
100
AcDbLine
 10
238.5351235833
 20
434.1374897528
 30
0.0
 11
237.6361514297
 21
434.5704651102
 31
0.0
  0
SPLINE
  5
122
330
1F
100
AcDbEntity
  8
0
  6
Continuous
 62
     7
370
    35
100
AcDbSpline
210
0.0
220
0.0
230
1.0
 70
     8
 71
     3
 72
     8
 73
     4
 74
     0
 42
0.000000001
 43
0.00000001
 40
0.0
 40
0.0
 40
0.0
 40
0.0
 40
1.0
 40
1.0
 40
1.0
 40
1.0
 10
237.6361513858441
 20
434.5704650061809
 30
0.0
 10
237.52498291451
 20
434.6228331871267
 30
0.0
 10
237.4137630694022
 20
434.6749679687855
 30
0.0
 10
237.3024925900626
 20
434.7268692520448
 30
0.0
  0
SPLINE
  5
123
330
1F
100
AcDbEntity
  8
0
  6
Continuous
 62
     7
370
    35
100
AcDbSpline
210
0.0
220
0.0
230
1.0
 70
     8
 71
     3
 72
     8
 73
     4
 74
     0
 42
0.000000001
 43
0.00000001
 40
0.0
 40
0.0
 40
0.0
 40
0.0
 40
1.0
 40
1.0
 40
1.0
 40
1.0
 10
237.3024925900626
 20
434.7268692520448
 30
0.0
 10
237.7133140933943
 20
434.7271048898501
 30
0.0
 10
238.124140084205
 20
434.7271049456214
 30
0.0
 10
238.5349703597601
 20
434.7268694143247
 30
0.0
  0
LINE
  5
124
330
1F
100
AcDbEntity
  8
0
  6
Continuous
 62
     7
370
    35
100
AcDbLine
 10
238.5349671211
 20
434.7268693279
 30
0.0
 11
238.5345945921
 21
435.850000115
 31
0.0
  0
LINE
  5
125
330
1F
100
AcDbEntity
  8
0
  6
Continuous
 62
     7
370
    35
100
AcDbLine
 10
238.5345945921
 20
435.850000115
 30
0.0
 11
235.5821157661
 21
435.8499991837
 31
0.0
  0
LINE
  5
126
330
1F
100
AcDbEntity
  8
0
  6
Continuous
 62
     7
370
    35
100
AcDbLine
 10
235.5821157661
 20
435.8499991837
 30
0.0
 11
235.5825851527
 21
434.4542658552
 31
0.0
  0
LINE
  5
127
330
1F
100
AcDbEntity
  8
0
  6
Continuous
 62
     7
370
    35
100
AcDbLine
 10
235.5825851527
 20
434.4542658552
 30
0.0
 11
236.9059423771
 21
433.8166230488
 31
0.0
  0
SPLINE
  5
128
330
1F
100
AcDbEntity
  8
0
  6
Continuous
 62
     7
370
    35
100
AcDbSpline
210
0.0
220
0.0
230
1.0
 70
     8
 71
     3
 72
     8
 73
     4
 74
     0
 42
0.000000001
 43
0.00000001
 40
0.0
 40
0.0
 40
0.0
 40
0.0
 40
1.0
 40
1.0
 40
1.0
 40
1.0
 10
236.9059458620336
 20
433.8166230226654
 30
0.0
 10
236.9873566958589
 20
433.7811277290965
 30
0.0
 10
237.0687436630755
 20
433.745516750618
 30
0.0
 10
237.1501065161247
 20
433.7097901194333
 30
0.0
  0
SPLINE
  5
129
330
1F
100
AcDbEntity
  8
0
  6
Continuous
 62
     7
370
    35
100
AcDbSpline
210
0.0
220
0.0
230
1.0
 70
     8
 71
     3
 72
     8
 73
     4
 74
     0
 42
0.000000001
 43
0.00000001
 40
0.0
 40
0.0
 40
0.0
 40
0.0
 40
1.0
 40
1.0
 40
1.0
 40
1.0
 10
237.1501065161247
 20
433.7097901194333
 30
0.0
 10
237.0687526635394
 20
433.6771518809201
 30
0.0
 10
236.9873787013173
 20
433.6446084513034
 30
0.0
 10
236.9059847946933
 20
433.6121598551506
 30
0.0
  0
LINE
  5
12A
330
1F
100
AcDbEntity
  8
0
  6
Continuous
 62
     7
370
    35
100
AcDbLine
 10
236.9059870806
 20
433.6121599087
 30
0.0
 11
235.5828682747
 21
432.9723069574
 31
0.0
  0
SPLINE
  5
12B
330
1F
100
AcDbEntity
  8
0
  6
Continuous
 62
     7
370
    35
100
AcDbSpline
210
0.0
220
0.0
230
1.0
 70
     8
 71
     3
 72
    10
 73
     6
 74
     0
 42
0.000000001
 43
0.00000001
 40
0.0
 40
0.0
 40
0.0
 40
0.0
 40
0.4999999965887094
 40
0.8830280638692687
 40
1.0
 40
1.0
 40
1.0
 40
1.0
 10
235.5828706739281
 20
432.9723069437987
 30
0.0
 10
235.5828939940961
 20
432.7414419023934
 30
0.0
 10
235.5829351788219
 20
432.3337212785573
 30
0.0
 10
235.5829461612079
 20
431.871990869159
 30
0.0
 10
235.582943696977
 20
431.6411256839195
 30
0.0
 10
235.5829431204853
 20
431.5871161888826
 30
0.0
  0
LINE
  5
12C
330
1F
100
AcDbEntity
  8
0
  6
Continuous
 62
     7
370
    35
100
AcDbLine
 10
238.5235379305
 20
426.6747377011
 30
0.0
 11
238.5240594712
 21
427.9145117513
 31
0.0
  0
SPLINE
  5
12D
330
1F
100
AcDbEntity
  8
0
  6
Continuous
 62
     7
370
    35
100
AcDbSpline
210
0.0
220
0.0
230
1.0
 70
     8
 71
     3
 72
     8
 73
     4
 74
     0
 42
0.000000001
 43
0.00000001
 40
0.0
 40
0.0
 40
0.0
 40
0.0
 40
1.0
 40
1.0
 40
1.0
 40
1.0
 10
238.5240591679755
 20
427.9145117818533
 30
0.0
 10
238.3495148966741
 20
427.9972919685909
 30
0.0
 10
238.1748443154001
 20
428.0795840994749
 30
0.0
 10
238.0000494579887
 20
428.1613877961335
 30
0.0
  0
LINE
  5
12E
330
1F
100
AcDbEntity
  8
0
  6
Continuous
 62
     7
370
    35
100
AcDbLine
 10
238.0000526872
 20
428.1613879036
 30
0.0
 11
238.000499722
 21
429.8921428751
 31
0.0
  0
LINE
  5
12F
330
1F
100
AcDbEntity
  8
0
  6
Continuous
 62
     7
370
    35
100
AcDbLine
 10
238.000499722
 20
429.8921428751
 30
0.0
 11
238.5246331659
 21
430.1387339262
 31
0.0
  0
LINE
  5
130
330
1F
100
AcDbEntity
  8
0
  6
Continuous
 62
     7
370
    35
100
AcDbLine
 10
238.5246331659
 20
430.1387339262
 30
0.0
 11
238.5247523752
 21
431.3803212032
 31
0.0
  0
LINE
  5
131
330
1F
100
AcDbEntity
  8
0
  6
Continuous
 62
     7
370
    35
100
AcDbLine
 10
238.5247523752
 20
431.3803212032
 30
0.0
 11
235.5287621584
 21
429.9674822147
 31
0.0
  0
LINE
  5
132
330
1F
100
AcDbEntity
  8
0
  6
Continuous
 62
     7
370
    35
100
AcDbLine
 10
235.5287621584
 20
429.9674822147
 30
0.0
 11
235.528628048
 21
429.3287753723
 31
0.0
  0
LINE
  5
133
330
1F
100
AcDbEntity
  8
0
  6
Continuous
 62
     7
370
    35
100
AcDbLine
 10
235.528628048
 20
429.3287753723
 30
0.0
 11
235.5284641352
 21
428.7260625175
 31
0.0
  0
LINE
  5
134
330
1F
100
AcDbEntity
  8
0
  6
Continuous
 62
     7
370
    35
100
AcDbLine
 10
235.5284641352
 20
428.7260625175
 30
0.0
 11
235.5282555189
 21
428.0874811708
 31
0.0
  0
LINE
  5
135
330
1F
100
AcDbEntity
  8
0
  6
Continuous
 62
     7
370
    35
100
AcDbLine
 10
235.5282555189
 20
428.0874811708
 30
0.0
 11
238.5235379305
 21
426.6747377011
 31
0.0
  0
LINE
  5
136
330
1F
100
AcDbEntity
  8
0
  6
Continuous
 62
     7
370
    35
100
AcDbLine
 10
235.585669693
 20
438.8674433473
 30
0.0
 11
235.5804542866
 21
438.8674433473
 31
0.0
  0
LINE
  5
137
330
1F
100
AcDbEntity
  8
0
  6
Continuous
 62
     7
370
    35
100
AcDbLine
 10
235.5804542866
 20
438.8674433473
 30
0.0
 11
235.5812663999
 21
437.5881786588
 31
0.0
  0
LINE
  5
138
330
1F
100
AcDbEntity
  8
0
  6
Continuous
 62
     7
370
    35
100
AcDbLine
 10
235.5812663999
 20
437.5881786588
 30
0.0
 11
235.5817879405
 21
436.5893961991
 31
0.0
  0
SPLINE
  5
139
330
1F
100
AcDbEntity
  8
0
  6
Continuous
 62
     7
370
    35
100
AcDbSpline
210
0.0
220
0.0
230
1.0
 70
     8
 71
     3
 72
     8
 73
     4
 74
     0
 42
0.000000001
 43
0.00000001
 40
0.0
 40
0.0
 40
0.0
 40
0.0
 40
1.0
 40
1.0
 40
1.0
 40
1.0
 10
235.5817910807407
 20
436.5893963113414
 30
0.0
 10
235.5819988630329
 20
436.4969927677089
 30
0.0
 10
235.5820415616533
 20
436.4045987071635
 30
0.0
 10
235.5819192464877
 20
436.3122147193706
 30
0.0
  0
LINE
  5
13A
330
1F
100
AcDbEntity
  8
0
  6
Continuous
 62
     7
370
    35
100
AcDbLine
 10
235.581922051
 20
436.3122145775
 30
0.0
 11
238.534400877
 21
436.3122159745
 31
0.0
  0
LINE
  5
13B
330
1F
100
AcDbEntity
  8
0
  6
Continuous
 62
     7
370
    35
100
AcDbLine
 10
238.534400877
 20
436.3122159745
 30
0.0
 11
238.5337750283
 21
437.5881814528
 31
0.0
  0
SPLINE
  5
13C
330
1F
100
AcDbEntity
  8
0
  6
Continuous
 62
     7
370
    35
100
AcDbSpline
210
0.0
220
0.0
230
1.0
 70
     8
 71
     3
 72
     8
 73
     4
 74
     0
 42
0.000000001
 43
0.00000001
 40
0.0
 40
0.0
 40
0.0
 40
0.0
 40
1.0
 40
1.0
 40
1.0
 40
1.0
 10
238.5337750404704
 20
437.588181506285
 30
0.0
 10
238.3655225212015
 20
437.5882576746527
 30
0.0
 10
238.1972727445542
 20
437.5882575098161
 30
0.0
 10
238.0290257625653
 20
437.5881810142941
 30
0.0
  0
LINE
  5
13D
330
1F
100
AcDbEntity
  8
0
  6
Continuous
 62
     7
370
    35
100
AcDbLine
 10
238.0290279951
 20
437.5881809871
 30
0.0
 11
238.028230783
 21
438.8783272486
 31
0.0
  0
SPLINE
  5
13E
330
1F
100
AcDbEntity
  8
0
  6
Continuous
 62
     7
370
    35
100
AcDbSpline
210
0.0
220
0.0
230
1.0
 70
     8
 71
     3
 72
    18
 73
    14
 74
     0
 42
0.000000001
 43
0.00000001
 40
0.0
 40
0.0
 40
0.0
 40
0.0
 40
0.0507234276927692
 40
0.1008038994382564
 40
0.1505435219834787
 40
0.2002509539224855
 40
0.2502357778314102
 40
0.3748537456460993
 40
0.5001515602029128
 40
0.6251556098383413
 40
0.7500824975176716
 40
0.8746412426534192
 40
1.0
 40
1.0
 40
1.0
 40
1.0
 10
238.0282297560113
 20
438.8783270608503
 30
0.0
 10
238.0273950023463
 20
438.9107036307403
 30
0.0
 10
238.0257360761197
 20
438.9750463741983
 30
0.0
 10
238.0137911410932
 20
439.0705292380827
 30
0.0
 10
237.9948941117671
 20
439.1641445973113
 30
0.0
 10
237.9683945014093
 20
439.2558681490038
 30
0.0
 10
237.9177840066392
 20
439.3898407499455
 30
0.0
 10
237.8257858979163
 20
439.5591901949318
 30
0.0
 10
237.6708054426721
 20
439.7430056574258
 30
0.0
 10
237.4839740484416
 20
439.894647354903
 30
0.0
 10
237.27145000835
 20
440.005206269111
 30
0.0
 10
237.0416557378502
 20
440.0767409919593
 30
0.0
 10
236.8824819033256
 20
440.0854692177815
 30
0.0
 10
236.8026402199704
 20
440.089847300677
 30
0.0
  0
SPLINE
  5
13F
330
1F
100
AcDbEntity
  8
0
  6
Continuous
 62
     7
370
    35
100
AcDbSpline
210
0.0
220
0.0
230
1.0
 70
     8
 71
     3
 72
    18
 73
    14
 74
     0
 42
0.000000001
 43
0.00000001
 40
0.0
 40
0.0
 40
0.0
 40
0.0
 40
0.0507853450097109
 40
0.1008917430766105
 40
0.1506277905914086
 40
0.2003067619691664
 40
0.2502408500353694
 40
0.3751274107983249
 40
0.5001680410986702
 40
0.62534092370096
 40
0.7500956129211127
 40
0.8745268199285137
 40
0.9999999999999999
 40
0.9999999999999999
 40
0.9999999999999999
 40
0.9999999999999999
 10
236.8026402199704
 20
440.089847300677
 30
0.0
 10
236.7702927598444
 20
440.0890861996703
 30
0.0
 10
236.7060302912999
 20
440.0875741727812
 30
0.0
 10
236.6106768031621
 20
440.075896515356
 30
0.0
 10
236.5172100699073
 20
440.0573241713432
 30
0.0
 10
236.4256235364846
 20
440.0312291462367
 30
0.0
 10
236.2915386213953
 20
439.9812827620687
 30
0.0
 10
236.1218637084146
 20
439.8904411249531
 30
0.0
 10
235.9368455389578
 20
439.7366844110152
 30
0.0
 10
235.7836438431152
 20
439.550811865429
 30
0.0
 10
235.671537301338
 20
439.3383126624969
 30
0.0
 10
235.5988422167946
 20
439.1078291785508
 30
0.0
 10
235.5900723261514
 20
438.9477942800063
 30
0.0
 10
235.5856690978578
 20
438.8674431990289
 30
0.0
  0
LINE
  5
140
330
1F
100
AcDbEntity
  8
0
  6
Continuous
 62
     7
370
    35
100
AcDbLine
 10
236.1670608487
 20
429.0278277955
 30
0.0
 11
237.2091586557
 21
428.535260599
 31
0.0
  0
LINE
  5
141
330
1F
100
AcDbEntity
  8
0
  6
Continuous
 62
     7
370
    35
100
AcDbLine
 10
237.2091586557
 20
428.535260599
 30
0.0
 11
237.209419426
 21
429.5199863742
 31
0.0
  0
LINE
  5
142
330
1F
100
AcDbEntity
  8
0
  6
Continuous
 62
     7
370
    35
100
AcDbLine
 10
237.209419426
 20
429.5199863742
 30
0.0
 11
236.1670608487
 21
429.0278277955
 31
0.0
  0
SPLINE
  5
143
330
1F
100
AcDbEntity
  8
0
  6
Continuous
 62
     7
370
    35
100
AcDbSpline
210
0.0
220
0.0
230
1.0
 70
     8
 71
     3
 72
    16
 73
    12
 74
     0
 42
0.000000001
 43
0.00000001
 40
0.0
 40
0.0
 40
0.0
 40
0.0
 40
0.0846127943967753
 40
0.1675367553576044
 40
0.2501477013305123
 40
0.3750259810522377
 40
0.5001233552526105
 40
0.6253709372977211
 40
0.7500895935904482
 40
0.873967716765375
 40
1.0
 40
1.0
 40
1.0
 40
1.0
 10
236.8035439647861
 20
438.8783248235262
 30
0.0
 10
236.7859690428096
 20
438.8776284574037
 30
0.0
 10
236.7511699864188
 20
438.8762496243141
 30
0.0
 10
236.700054354955
 20
438.8659036331026
 30
0.0
 10
236.6427648624637
 20
438.8467112762822
 30
0.0
 10
236.5812189742018
 20
438.8142482709492
 30
0.0
 10
236.5204603207891
 20
438.7646192530104
 30
0.0
 10
236.4700134192221
 20
438.7044098348709
 30
0.0
 10
236.4329756457791
 20
438.6354987553173
 30
0.0
 10
236.4089938227902
 20
438.5604412576947
 30
0.0
 10
236.4059827486688
 20
438.508273710958
 30
0.0
 10
236.4044642342861
 20
438.4819651025234
 30
0.0
  0
LINE
  5
144
330
1F
100
AcDbEntity
  8
0
  6
Continuous
 62
     7
370
    35
100
AcDbLine
 10
236.4044661489
 20
438.4819652084
 30
0.0
 11
236.4050100413
 21
437.5881795901
 31
0.0
  0
SPLINE
  5
145
330
1F
100
AcDbEntity
  8
0
  6
Continuous
 62
     7
370
    35
100
AcDbSpline
210
0.0
220
0.0
230
1.0
 70
     8
 71
     3
 72
     8
 73
     4
 74
     0
 42
0.000000001
 43
0.00000001
 40
0.0
 40
0.0
 40
0.0
 40
0.0
 40
1.0
 40
1.0
 40
1.0
 40
1.0
 10
236.4050099689823
 20
437.5881793666318
 30
0.0
 10
236.671244332985
 20
437.588377954235
 30
0.0
 10
236.9374861352819
 20
437.5883782322055
 30
0.0
 10
237.203735153891
 20
437.5881801895978
 30
0.0
  0
LINE
  5
146
330
1F
100
AcDbEntity
  8
0
  6
Continuous
 62
     7
370
    35
100
AcDbLine
 10
237.203734633
 20
437.5881800558
 30
0.0
 11
237.2031981912
 21
438.4821710306
 31
0.0
  0
SPLINE
  5
147
330
1F
100
AcDbEntity
  8
0
  6
Continuous
 62
     7
370
    35
100
AcDbSpline
210
0.0
220
0.0
230
1.0
 70
     8
 71
     3
 72
    16
 73
    12
 74
     0
 42
0.000000001
 43
0.00000001
 40
0.0
 40
0.0
 40
0.0
 40
0.0
 40
0.0844535611568531
 40
0.167414777667059
 40
0.2501495235573263
 40
0.3751657058125805
 40
0.500134528160026
 40
0.6255753116114489
 40
0.7500993497919949
 40
0.874084430806506
 40
1.0
 40
1.0
 40
1.0
 40
1.0
 10
237.2031947439922
 20
438.4821708604548
 30
0.0
 10
237.2019170029571
 20
438.4996555228169
 30
0.0
 10
237.1993840993308
 20
438.5343158831598
 30
0.0
 10
237.1876795672007
 20
438.5850480093277
 30
0.0
 10
237.1672555122219
 20
438.6418548781361
 30
0.0
 10
237.1339565019528
 20
438.7027467387898
 30
0.0
 10
237.0840812963565
 20
438.7629398045999
 30
0.0
 10
237.0241005574628
 20
438.8129610976569
 30
0.0
 10
236.955684100304
 20
438.8498385493401
 30
0.0
 10
236.8812987905831
 20
438.8737558909253
 30
0.0
 10
236.8295953767325
 20
438.8767940227801
 30
0.0
 10
236.8035439647861
 20
438.8783248235262
 30
0.0
  0
LINE
  5
148
330
1F
100
AcDbEntity
  8
0
  6
Continuous
 62
     7
370
    35
100
AcDbLine
 10
89.1815821495
 20
426.7491447869
 30
0.0
 11
86.1739988294
 21
426.7491447869
 31
0.0
  0
LINE
  5
149
330
1F
100
AcDbEntity
  8
0
  6
Continuous
 62
     7
370
    35
100
AcDbLine
 10
86.1739988294
 20
436.7491445634
 30
0.0
 11
89.1815821495
 21
436.7491445634
 31
0.0
  0
ARC
  5
14A
330
1F
100
AcDbEntity
  8
0
  6
Continuous
 62
     7
370
    35
100
AcDbCircle
 10
136.4517547363
 20
495.1893946725
 30
0.0
 40
5.00000000000008
100
AcDbArc
 50
108.7608213448
 51
147.453835442
  0
LINE
  5
14B
330
1F
100
AcDbEntity
  8
0
  6
Continuous
 62
     7
370
    35
100
AcDbLine
 10
132.2369637754
 20
497.8792910594
 30
0.0
 11
130.3890782264
 21
494.9838389772
 31
0.0
  0
LINE
  5
14C
330
1F
100
AcDbEntity
  8
0
  6
Continuous
 62
     7
370
    35
100
AcDbLine
 10
120.623717722
 20
489.7491430062
 30
0.0
 11
116.3348468807
 21
489.7491430062
 31
0.0
  0
ARC
  5
14D
330
1F
100
AcDbEntity
  8
0
  6
Continuous
 62
     7
370
    35
100
AcDbCircle
 10
116.3348478232
 20
486.7491446751
 30
0.0
 40
3.0
100
AcDbArc
 50
90.0
 51
127.1458041715
  0
LINE
  5
14E
330
1F
100
AcDbEntity
  8
0
  6
Continuous
 62
     7
370
    35
100
AcDbLine
 10
116.7327600386
 20
490.7491450328
 30
0.0
 11
122.2230928805
 21
490.7491450328
 31
0.0
  0
LINE
  5
14F
330
1F
100
AcDbEntity
  8
0
  6
Continuous
 62
     7
370
    35
100
AcDbLine
 10
128.7210329291
 20
494.2289945799
 30
0.0
 11
131.3940050867
 21
498.417267682
 31
0.0
  0
ARC
  5
150
330
1F
100
AcDbEntity
  8
0
  6
Continuous
 62
     7
370
    35
100
AcDbCircle
 10
136.4517547363
 20
495.1893946725
 30
0.0
 40
6.000000000000053
100
AcDbArc
 50
143.7108744426
 51
147.453835442
  0
LINE
  5
151
330
1F
100
AcDbEntity
  8
0
  6
Continuous
 62
     7
370
    35
100
AcDbLine
 10
120.623717722
 20
373.7491463441
 30
0.0
 11
116.3348468807
 21
373.7491463441
 31
0.0
  0
LINE
  5
152
330
1F
100
AcDbEntity
  8
0
  6
Continuous
 62
     7
370
    35
100
AcDbLine
 10
132.2369637754
 20
365.6189982909
 30
0.0
 11
130.3890782264
 21
368.5144503731
 31
0.0
  0
ARC
  5
153
330
1F
100
AcDbEntity
  8
0
  6
Continuous
 62
     7
370
    35
100
AcDbCircle
 10
136.4517547363
 20
368.3088946777
 30
0.0
 40
5.000000000000012
100
AcDbArc
 50
212.546164558
 51
251.2391786552
  0
ARC
  5
154
330
1F
100
AcDbEntity
  8
0
  6
Continuous
 62
     7
370
    35
100
AcDbCircle
 10
136.4517547363
 20
368.3088946777
 30
0.0
 40
6.000000000000053
100
AcDbArc
 50
212.546164558
 51
216.2891255574
  0
LINE
  5
155
330
1F
100
AcDbEntity
  8
0
  6
Continuous
 62
     7
370
    35
100
AcDbLine
 10
128.7210329291
 20
369.2692947704
 30
0.0
 11
131.3940050867
 21
365.0810216683
 31
0.0
  0
LINE
  5
156
330
1F
100
AcDbEntity
  8
0
  6
Continuous
 62
     7
370
    35
100
AcDbLine
 10
116.7327600386
 20
372.7491443175
 30
0.0
 11
122.2230928805
 21
372.7491443175
 31
0.0
  0
ARC
  5
157
330
1F
100
AcDbEntity
  8
0
  6
Continuous
 62
     7
370
    35
100
AcDbCircle
 10
116.3348478232
 20
376.7491446751
 30
0.0
 40
3.0
100
AcDbArc
 50
232.8541958285
 51
270.0
  0
LINE
  5
158
330
1F
100
AcDbEntity
  8
0
  6
Continuous
 62
     7
370
    35
100
AcDbLine
 10
134.5001353737
 20
363.7055029291
 30
0.0
 11
134.4893599715
 21
366.8781836647
 31
0.0
  0
LINE
  5
159
330
1F
100
AcDbEntity
  8
0
  6
Continuous
 62
     7
370
    35
100
AcDbLine
 10
127.1008240845
 20
370.0544965583
 30
0.0
 11
126.0001796153
 21
367.2510852236
 31
0.0
  0
LINE
  5
15A
330
1F
100
AcDbEntity
  8
0
  6
Continuous
 62
     8
370
    35
100
AcDbLine
 10
90.2501816716
 20
431.7491446751
 30
0.0
 11
89.0001828637
 21
431.7491446751
 31
0.0
  0
LINE
  5
15B
330
1F
100
AcDbEntity
  8
0
  6
Continuous
 62
     7
370
    35
100
AcDbLine
 10
126.1379706528
 20
173.5195726425
 30
0.0
 11
125.9314591851
 21
175.880024609
 31
0.0
  0
LINE
  5
15C
330
1F
100
AcDbEntity
  8
0
  6
Continuous
 62
     7
370
    35
100
AcDbLine
 10
118.0689024594
 20
175.880024609
 30
0.0
 11
118.0327596929
 21
175.4668899149
 31
0.0
  0
LINE
  5
15D
330
1F
100
AcDbEntity
  8
0
  6
Continuous
 62
     7
370
    35
100
AcDbLine
 10
117.9213772383
 20
174.1938129336
 30
0.0
 11
117.8501794901
 21
173.3800232679
 31
0.0
  0
ARC
  5
15E
330
1F
100
AcDbEntity
  8
0
  6
Continuous
 62
     7
370
    35
100
AcDbCircle
 10
122.0001811352
 20
166.6206795379
 30
0.0
 40
10.05934337242007
100
AcDbArc
 50
66.9951750594
 51
75.3853489006
  0
ARC
  5
15F
330
1F
100
AcDbEntity
  8
0
  6
Continuous
 62
     7
370
    35
100
AcDbCircle
 10
122.0001811352
 20
166.6206795379
 30
0.0
 40
10.05934337242006
100
AcDbArc
 50
104.6146510994
 51
113.0048249406
  0
LINE
  5
160
330
1F
100
AcDbEntity
  8
0
  6
Continuous
 62
     7
370
    35
100
AcDbLine
 10
117.8501794901
 20
55.3800225527
 30
0.0
 11
117.9213772383
 21
54.566232887
 31
0.0
  0
LINE
  5
161
330
1F
100
AcDbEntity
  8
0
  6
Continuous
 62
     7
370
    35
100
AcDbLine
 10
118.0327596929
 20
53.2931559057
 30
0.0
 11
118.0689024594
 21
52.8800212116
 31
0.0
  0
LINE
  5
162
330
1F
100
AcDbEntity
  8
0
  6
Continuous
 62
     7
370
    35
100
AcDbLine
 10
125.9314591851
 20
52.8800212116
 30
0.0
 11
126.1379706528
 21
55.2404731781
 31
0.0
  0
ARC
  5
163
330
1F
100
AcDbEntity
  8
0
  6
Continuous
 62
     7
370
    35
100
AcDbCircle
 10
122.0001811352
 20
62.1393662827
 30
0.0
 40
10.05934337242007
100
AcDbArc
 50
284.6146510994
 51
293.0048249406
  0
ARC
  5
164
330
1F
100
AcDbEntity
  8
0
  6
Continuous
 62
     7
370
    35
100
AcDbCircle
 10
122.0001811352
 20
62.1393662827
 30
0.0
 40
10.05934337242008
100
AcDbArc
 50
246.9951750594
 51
255.3853489006
  0
LINE
  5
165
330
1F
100
AcDbEntity
  8
0
  6
Continuous
 62
     7
370
    35
100
AcDbLine
 10
117.1074348357
 20
61.4353738994
 30
0.0
 11
117.1956795123
 21
56.3800245792
 31
0.0
  0
LINE
  5
166
330
1F
100
AcDbEntity
  8
0
  6
Continuous
 62
     7
370
    35
100
AcDbLine
 10
126.8046839949
 20
56.3800245792
 30
0.0
 11
126.891960096
 21
61.3800235362
 31
0.0
  0
LINE
  5
167
330
1F
100
AcDbEntity
  8
0
  6
Continuous
 62
     7
370
    35
100
AcDbLine
 10
127.0001816418
 20
167.3800222845
 30
0.0
 11
127.0001816418
 21
172.1800215811
 31
0.0
  0
LINE
  5
168
330
1F
100
AcDbEntity
  8
0
  6
Continuous
 62
     7
370
    35
100
AcDbLine
 10
117.0001800027
 20
172.1800215811
 30
0.0
 11
117.0001800027
 21
167.3245601625
 31
0.0
  0
LINE
  5
169
330
1F
100
AcDbEntity
  8
0
  6
Continuous
 62
     7
370
    35
100
AcDbLine
 10
127.0001816418
 20
172.1800215811
 30
0.0
 11
126.8001819816
 21
172.3800212414
 31
0.0
  0
LINE
  5
16A
330
1F
100
AcDbEntity
  8
0
  6
Continuous
 62
     7
370
    35
100
AcDbLine
 10
117.200179663
 20
172.3800212414
 30
0.0
 11
117.0001800027
 21
172.1800215811
 31
0.0
  0
ARC
  5
16B
330
1F
100
AcDbEntity
  8
0
  6
Continuous
 62
     7
370
    35
100
AcDbCircle
 10
158.0001811352
 20
114.3800229103
 30
0.0
 40
69.0
100
AcDbArc
 50
184.1555102685
 51
227.5292538529
  0
LWPOLYLINE
  5
16C
330
1F
100
AcDbEntity
  8
0
  6
Continuous
 62
     7
370
    35
100
AcDbPolyline
 90
        3
 70
   128
 43
0.0
 10
113.8632695046
 20
61.3429308206
 10
115.4465774861
 20
60.0643627614
 10
117.1539786127
 20
58.7689824671
  0
LINE
  5
16D
330
1F
100
AcDbEntity
  8
0
  6
Continuous
 62
     7
370
    35
100
AcDbLine
 10
125.9653407004
 20
53.2672688634
 30
0.0
 11
128.7210329291
 21
51.9001730055
 31
0.0
  0
ARC
  5
16E
330
1F
100
AcDbEntity
  8
0
  6
Continuous
 62
     7
370
    35
100
AcDbCircle
 10
158.0001811352
 20
114.3800229103
 30
0.0
 40
68.99999999999999
100
AcDbArc
 50
246.4117623992
 51
109.9217545274
  0
LINE
  5
16F
330
1F
100
AcDbEntity
  8
0
  6
Continuous
 62
     7
370
    35
100
AcDbLine
 10
127.1008240845
 20
176.0746710271
 30
0.0
 11
125.9653407004
 21
175.4927769572
 31
0.0
  0
LWPOLYLINE
  5
170
330
1F
100
AcDbEntity
  8
0
  6
Continuous
 62
     7
370
    35
100
AcDbPolyline
 90
        3
 70
   128
 43
0.0
 10
117.0001800027
 20
169.8777698249
 10
115.4465774861
 20
168.6956830592
 10
113.7992429402
 20
167.3637651176
  0
ARC
  5
171
330
1F
100
AcDbEntity
  8
0
  6
Continuous
 62
     7
370
    35
100
AcDbCircle
 10
158.0001811352
 20
114.3800229103
 30
0.0
 40
68.99999999999997
100
AcDbArc
 50
132.5535091702
 51
175.8444897315
  0
LINE
  5
172
330
1F
100
AcDbEntity
  8
0
  6
Continuous
 62
     7
370
    35
100
AcDbLine
 10
122.0001826849
 20
175.880024609
 30
0.0
 11
120.5602275994
 21
175.880024609
 31
0.0
  0
LINE
  5
173
330
1F
100
AcDbEntity
  8
0
  6
Continuous
 62
     7
370
    35
100
AcDbLine
 10
118.6714383629
 20
175.880024609
 30
0.0
 11
118.0689024594
 21
175.880024609
 31
0.0
  0
LINE
  5
174
330
1F
100
AcDbEntity
  8
0
  6
Continuous
 62
     7
370
    35
100
AcDbLine
 10
125.9314591851
 20
175.880024609
 30
0.0
 11
122.0001826849
 21
175.880024609
 31
0.0
  0
LINE
  5
175
330
1F
100
AcDbEntity
  8
0
  6
Continuous
 62
     7
370
    35
100
AcDbLine
 10
121.5298461583
 20
176.3452872903
 30
0.0
 11
121.5298461583
 21
176.4599293739
 31
0.0
  0
ARC
  5
176
330
1F
100
AcDbEntity
  8
0
  6
Continuous
 62
     7
370
    35
100
AcDbCircle
 10
122.0001808223
 20
164.4098121696
 30
0.0
 40
11.94473863475224
100
AcDbArc
 50
87.7433445322
 51
92.2566554678
  0
LINE
  5
177
330
1F
100
AcDbEntity
  8
0
  6
Continuous
 62
     7
370
    35
100
AcDbLine
 10
122.4705154863
 20
176.6580067844
 30
0.0
 11
122.4705154863
 21
176.3452872903
 31
0.0
  0
ARC
  5
178
330
1F
100
AcDbEntity
  8
0
  6
Continuous
 62
     7
370
    35
100
AcDbCircle
 10
122.0001811352
 20
166.6206795379
 30
0.0
 40
10.04834193485713
100
AcDbArc
 50
75.4165997846
 51
87.317172827
  0
ARC
  5
179
330
1F
100
AcDbEntity
  8
0
  6
Continuous
 62
     7
370
    35
100
AcDbCircle
 10
123.3843186532
 20
177.3532459393
 30
0.0
 40
1.52614683060163
100
AcDbArc
 50
318.6650498891
 51
319.1264704866
  0
LINE
  5
17A
330
1F
100
AcDbEntity
  8
0
  6
Continuous
 62
     7
370
    35
100
AcDbLine
 10
118.0689024594
 20
52.8800212116
 30
0.0
 11
118.6714383629
 21
52.8800212116
 31
0.0
  0
LINE
  5
17B
330
1F
100
AcDbEntity
  8
0
  6
Continuous
 62
     7
370
    35
100
AcDbLine
 10
120.5602275994
 20
52.8800212116
 30
0.0
 11
125.9314591851
 21
52.8800212116
 31
0.0
  0
ARC
  5
17C
330
1F
100
AcDbEntity
  8
0
  6
Continuous
 62
     7
370
    35
100
AcDbCircle
 10
123.3843186532
 20
51.4067998813
 30
0.0
 40
1.526146830601615
100
AcDbArc
 50
40.8735295134
 51
41.3349501109
  0
ARC
  5
17D
330
1F
100
AcDbEntity
  8
0
  6
Continuous
 62
     7
370
    35
100
AcDbCircle
 10
122.0001811352
 20
62.1393662827
 30
0.0
 40
10.04834193485712
100
AcDbArc
 50
272.682827173
 51
284.5834002154
  0
LINE
  5
17E
330
1F
100
AcDbEntity
  8
0
  6
Continuous
 62
     7
370
    35
100
AcDbLine
 10
122.4705154863
 20
52.4147585303
 30
0.0
 11
122.4705154863
 21
52.1020390362
 31
0.0
  0
ARC
  5
17F
330
1F
100
AcDbEntity
  8
0
  6
Continuous
 62
     7
370
    35
100
AcDbCircle
 10
122.0001808223
 20
64.350233651
 30
0.0
 40
11.94473863475223
100
AcDbArc
 50
267.7433445322
 51
272.2566554678
  0
LINE
  5
180
330
1F
100
AcDbEntity
  8
0
  6
Continuous
 62
     7
370
    35
100
AcDbLine
 10
121.5298461583
 20
52.3001164467
 30
0.0
 11
121.5298461583
 21
52.4147585303
 31
0.0
  0
LINE
  5
181
330
1F
100
AcDbEntity
  8
0
  6
Continuous
 62
     7
370
    35
100
AcDbLine
 10
120.9414067533
 20
61.3800235362
 30
0.0
 11
120.9602977004
 21
56.3800245792
 31
0.0
  0
LINE
  5
182
330
1F
100
AcDbEntity
  8
0
  6
Continuous
 62
     7
370
    35
100
AcDbLine
 10
118.3935391572
 20
61.3835849137
 30
0.0
 11
118.4579308
 21
56.3800245792
 31
0.0
  0
LINE
  5
183
330
1F
100
AcDbEntity
  8
0
  6
Continuous
 62
     7
370
    35
100
AcDbLine
 10
121.0685173836
 20
56.3800245792
 30
0.0
 11
121.0496264365
 21
61.3800235362
 31
0.0
  0
LINE
  5
184
330
1F
100
AcDbEntity
  8
0
  6
Continuous
 62
     7
370
    35
100
AcDbLine
 10
123.0589548912
 20
61.3800235362
 30
0.0
 11
123.0400676694
 21
56.3800245792
 31
0.0
  0
LINE
  5
185
330
1F
100
AcDbEntity
  8
0
  6
Continuous
 62
     7
370
    35
100
AcDbLine
 10
122.9318479862
 20
56.3800245792
 30
0.0
 11
122.9507352081
 21
61.3800235362
 31
0.0
  0
LINE
  5
186
330
1F
100
AcDbEntity
  8
0
  6
Continuous
 62
     7
370
    35
100
AcDbLine
 10
125.5424308446
 20
56.3800245792
 30
0.0
 11
125.4039916065
 21
56.3800245792
 31
0.0
  0
LINE
  5
187
330
1F
100
AcDbEntity
  8
0
  6
Continuous
 62
     7
370
    35
100
AcDbLine
 10
125.6067777839
 20
61.3800235362
 30
0.0
 11
125.5424308446
 21
56.3800245792
 31
0.0
  0
LINE
  5
188
330
1F
100
AcDbEntity
  8
0
  6
Continuous
 62
     7
370
    35
100
AcDbLine
 10
117.8949016001
 20
56.3800245792
 30
0.0
 11
117.8112166789
 21
61.4070356161
 31
0.0
  0
LINE
  5
189
330
1F
100
AcDbEntity
  8
0
  6
Continuous
 62
     7
370
    35
100
AcDbLine
 10
126.1054600444
 20
56.3800245792
 30
0.0
 11
126.1886942055
 21
61.3800235362
 31
0.0
  0
LINE
  5
18A
330
1F
100
AcDbEntity
  8
0
  6
Continuous
 62
     7
370
    35
100
AcDbLine
 10
126.1054600444
 20
56.3800245792
 30
0.0
 11
125.5424308446
 21
56.3800245792
 31
0.0
  0
LINE
  5
18B
330
1F
100
AcDbEntity
  8
0
  6
Continuous
 62
     7
370
    35
100
AcDbLine
 10
117.3340405193
 20
61.4262506635
 30
0.0
 11
117.4180458155
 21
56.3800245792
 31
0.0
  0
LINE
  5
18C
330
1F
100
AcDbEntity
  8
0
  6
Continuous
 62
     7
370
    35
100
AcDbLine
 10
126.6655537155
 20
61.3800235362
 30
0.0
 11
126.5823158291
 21
56.3800245792
 31
0.0
  0
LINE
  5
18D
330
1F
100
AcDbEntity
  8
0
  6
Continuous
 62
     7
370
    35
100
AcDbLine
 10
126.8046839949
 20
56.3800245792
 30
0.0
 11
126.5823158291
 21
56.3800245792
 31
0.0
  0
LINE
  5
18E
330
1F
100
AcDbEntity
  8
0
  6
Continuous
 62
     7
370
    35
100
AcDbLine
 10
126.5823158291
 20
56.3800245792
 30
0.0
 11
126.1054600444
 21
56.3800245792
 31
0.0
  0
LINE
  5
18F
330
1F
100
AcDbEntity
  8
0
  6
Continuous
 62
     7
370
    35
100
AcDbLine
 10
127.0001816418
 20
172.1800215811
 30
0.0
 11
117.0001800027
 21
172.1800215811
 31
0.0
  0
LINE
  5
190
330
1F
100
AcDbEntity
  8
0
  6
Continuous
 62
     7
370
    35
100
AcDbLine
 10
125.4039916065
 20
172.3800212414
 30
0.0
 11
126.8001819816
 21
172.3800212414
 31
0.0
  0
SPLINE
  5
191
330
1F
100
AcDbEntity
  8
0
  6
Continuous
 62
     7
370
    35
100
AcDbSpline
210
0.0
220
0.0
230
1.0
 70
     8
 71
     3
 72
    12
 73
     8
 74
     0
 42
0.000000001
 43
0.00000001
 40
0.0
 40
0.0
 40
0.0
 40
0.0
 40
0.0005065869579153
 40
0.2257322728609314
 40
0.550216290029925
 40
0.8802094585590134
 40
1.0
 40
1.0
 40
1.0
 40
1.0
 10
127.541179474855
 20
64.37244119948721
 30
0.0
 10
127.5412527375022
 20
64.37487247799301
 30
0.0
 10
127.5738981572205
 20
65.45823637928777
 30
0.0
 10
127.6554964088432
 20
68.23581551196841
 30
0.0
 10
127.7920207860855
 20
73.11481811687327
 30
0.0
 10
127.9134966150055
 20
77.7327505867776
 30
0.0
 10
127.9819505287803
 20
80.51694666586111
 30
0.0
 10
128.0001818057543
 20
81.25845941609717
 30
0.0
  0
LINE
  5
192
330
1F
100
AcDbEntity
  8
0
  6
Continuous
 62
     7
370
    35
100
AcDbLine
 10
127.3690170464
 20
64.3807150692
 30
0.0
 11
127.5411794749
 21
64.3724411995
 31
0.0
  0
SPLINE
  5
193
330
1F
100
AcDbEntity
  8
0
  6
Continuous
 62
     7
370
    35
100
AcDbSpline
210
0.0
220
0.0
230
1.0
 70
     8
 71
     3
 72
    14
 73
    10
 74
     0
 42
0.000000001
 43
0.00000001
 40
0.0
 40
0.0
 40
0.0
 40
0.0
 40
0.1826430466716075
 40
0.3254493187830763
 40
0.4681267784626522
 40
0.6105387213748286
 40
0.7541670748323831
 40
0.8759441698654886
 40
1.0
 40
1.0
 40
1.0
 40
1.0
 10
127.3693076190001
 20
64.37970924085951
 30
0.0
 10
125.8622377740672
 20
64.3798544800566
 30
0.0
 10
123.1768092109213
 20
64.38011327993215
 30
0.0
 10
119.6938398181741
 20
64.37992472914368
 30
0.0
 10
116.865788999361
 20
64.38004624575431
 30
0.0
 10
114.5094173725489
 20
64.38002296334818
 30
0.0
 10
112.8231637859095
 20
64.38008155330782
 30
0.0
 10
111.7138770401894
 20
64.37982420355002
 30
0.0
 10
111.4214491102323
 20
64.37993101272377
 30
0.0
 10
111.2738798227554
 20
64.3799849123416
 30
0.0
  0
SPLINE
  5
194
330
1F
100
AcDbEntity
  8
0
  6
Continuous
 62
     7
370
    35
100
AcDbSpline
210
0.0
220
0.0
230
1.0
 70
     8
 71
     3
 72
    10
 73
     6
 74
     0
 42
0.000000001
 43
0.00000001
 40
0.0
 40
0.0
 40
0.0
 40
0.0
 40
0.1840462281074803
 40
0.5910323877158754
 40
1.0
 40
1.0
 40
1.0
 40
1.0
 10
103.905546185041
 20
72.3559767276702
 30
0.0
 10
104.319816202872
 20
71.83357761072939
 30
0.0
 10
105.6501721700412
 20
70.15598388549493
 30
0.0
 10
108.0546522053395
 20
67.43914435641423
 30
0.0
 10
110.1971920976317
 20
65.40135672384315
 30
0.0
 10
111.2710635032898
 20
64.3799886376319
 30
0.0
  0
SPLINE
  5
195
330
1F
100
AcDbEntity
  8
0
  6
Continuous
 62
     7
370
    35
100
AcDbSpline
210
0.0
220
0.0
230
1.0
 70
     8
 71
     3
 72
    14
 73
    10
 74
     0
 42
0.000000001
 43
0.00000001
 40
0.0
 40
0.0
 40
0.0
 40
0.0
 40
0.2062652720355656
 40
0.3372711905777647
 40
0.4689794576984427
 40
0.6029220206937662
 40
0.7376508654866383
 40
0.868445905684599
 40
1.0
 40
1.0
 40
1.0
 40
1.0
 10
103.905546185041
 20
72.3559767276702
 30
0.0
 10
102.388948365231
 20
74.44068685177436
 30
0.0
 10
99.90910894647129
 20
77.84946555032765
 30
0.0
 10
97.0525221582224
 20
82.99358307698922
 30
0.0
 10
94.92684857950991
 20
87.50026354588482
 30
0.0
 10
93.11997280694472
 20
92.20960510843207
 30
0.0
 10
91.67231263089487
 20
97.03905088229172
 30
0.0
 10
90.56178386087726
 20
101.9386104602277
 30
0.0
 10
90.12875880290332
 20
105.232015846995
 30
0.0
 10
89.91161983873901
 20
106.8834829413054
 30
0.0
  0
LINE
  5
196
330
1F
100
AcDbEntity
  8
0
  6
Continuous
 62
     7
370
    35
100
AcDbLine
 10
89.9119551149
 20
106.8833446399
 30
0.0
 11
89.9116198387
 21
106.8834829413
 31
0.0
  0
SPLINE
  5
197
330
1F
100
AcDbEntity
  8
0
  6
Continuous
 62
     7
370
    35
100
AcDbSpline
210
0.0
220
0.0
230
1.0
 70
     8
 71
     3
 72
    17
 73
    13
 74
     0
 42
0.000000001
 43
0.00000001
 40
0.0
 40
0.0
 40
0.0
 40
0.0
 40
0.1076750864679587
 40
0.2184742689466862
 40
0.3260444025684262
 40
0.4367763452379136
 40
0.543611083094439
 40
0.6535597581326451
 40
0.760105116466218
 40
0.8697393025473502
 40
0.9345345916965673
 40
1.0
 40
1.0
 40
1.0
 40
1.0
 10
120.9970551398045
 20
106.9011515275297
 30
0.0
 10
119.2457641368133
 20
106.8979067680083
 30
0.0
 10
115.6923699939143
 20
106.8913231051798
 30
0.0
 10
110.5485957257944
 20
106.8870315888153
 30
0.0
 10
105.6673917113264
 20
106.8816956227591
 30
0.0
 10
101.2884007713387
 20
106.8790807565506
 30
0.0
 10
97.45341899587493
 20
106.8772827592849
 30
0.0
 10
94.34062475767556
 20
106.876829136302
 30
0.0
 10
91.96699869298692
 20
106.8773729632943
 30
0.0
 10
90.65105242761219
 20
106.8792396449198
 30
0.0
 10
90.02051510107297
 20
106.8804260058065
 30
0.0
 10
89.94826567137041
 20
106.8823684309703
 30
0.0
 10
89.91195511486588
 20
106.8833446399031
 30
0.0
  0
LINE
  5
198
330
1F
100
AcDbEntity
  8
0
  6
Continuous
 62
     7
370
    35
100
AcDbLine
 10
121.3246795204
 20
106.9019007765
 30
0.0
 11
120.9970551398
 21
106.9011515275
 31
0.0
  0
SPLINE
  5
199
330
1F
100
AcDbEntity
  8
0
  6
Continuous
 62
     7
370
    35
100
AcDbSpline
210
0.0
220
0.0
230
1.0
 70
     8
 71
     3
 72
    13
 73
     9
 74
     0
 42
0.000000001
 43
0.00000001
 40
0.0
 40
0.0
 40
0.0
 40
0.0
 40
0.2521509645030039
 40
0.399414119301441
 40
0.5466780086229205
 40
0.6963701267040662
 40
0.8460620082445056
 40
1.0
 40
1.0
 40
1.0
 40
1.0
 10
121.324679520393
 20
106.901900776541
 30
0.0
 10
121.5747000590187
 20
104.6257933491754
 30
0.0
 10
121.9707395246589
 20
101.0203760733439
 30
0.0
 10
122.9302531863221
 20
96.20356673707809
 30
0.0
 10
123.8792011997874
 20
92.35956048977947
 30
0.0
 10
125.03172102604
 20
88.58858622951742
 30
0.0
 10
126.3806008921954
 20
84.85858033120651
 30
0.0
 10
127.4553117386862
 20
82.46963578156722
 30
0.0
 10
128.0001818057543
 20
81.25845941609717
 30
0.0
  0
ARC
  5
19A
330
1F
100
AcDbEntity
  8
0
  6
Continuous
 62
     7
370
    35
100
AcDbCircle
 10
90.9059320664
 20
106.9929472076
 30
0.0
 40
1.000001451488294
100
AcDbArc
 50
95.000199416
 51
186.2923966822
  0
SPLINE
  5
19B
330
1F
100
AcDbEntity
  8
0
  6
Continuous
 62
     7
370
    35
100
AcDbSpline
210
0.0
220
0.0
230
1.0
 70
     8
 71
     3
 72
    19
 73
    15
 74
     0
 42
0.000000001
 43
0.00000001
 40
0.0
 40
0.0
 40
0.0
 40
0.0
 40
0.0000012684011586
 40
0.0647898553205832
 40
0.1302480654761192
 40
0.2367885828033967
 40
0.3464181453383439
 40
0.4532457857167006
 40
0.5631901225603724
 40
0.6707567917511693
 40
0.7814915989371539
 40
0.889176193205703
 40
0.9999987413935915
 40
0.9999999999999999
 40
0.9999999999999999
 40
0.9999999999999999
 40
0.9999999999999999
 10
90.81877272989807
 20
107.9891430482922
 30
0.0
 10
90.81877024633563
 20
107.9891430482921
 30
0.0
 10
90.69191002457195
 20
107.9891430463625
 30
0.0
 10
90.99689404352739
 20
107.9897395217917
 30
0.0
 10
91.49060554980647
 20
107.9914557138273
 30
0.0
 10
92.80614283697409
 20
107.9919966612672
 30
0.0
 10
95.06454765877156
 20
107.9923726062326
 30
0.0
 10
98.10863813028207
 20
107.9920943689058
 30
0.0
 10
101.7887133352786
 20
107.9913743169189
 30
0.0
 10
106.0734031674076
 20
107.9896794178621
 30
0.0
 10
110.7657857528028
 20
107.9881738257706
 30
0.0
 10
115.8043981702897
 20
107.9843473274898
 30
0.0
 10
119.2578690332896
 20
107.9804146855756
 30
0.0
 10
121.0073207981037
 20
107.9804146931228
 30
0.0
 10
121.0073406663185
 20
107.9804146931229
 30
0.0
  0
ARC
  5
19C
330
1F
100
AcDbEntity
  8
0
  6
Continuous
 62
     7
370
    35
100
AcDbCircle
 10
153.4399848987
 20
107.1316465356
 30
0.0
 40
32.44374853937566
100
AcDbArc
 50
178.5009012724
 51
180.4070584583
  0
LINE
  5
19D
330
1F
100
AcDbEntity
  8
0
  6
Continuous
 62
     7
370
    35
100
AcDbLine
 10
89.9116198387
 20
121.8765628793
 30
0.0
 11
89.9119551149
 21
121.8767011807
 31
0.0
  0
SPLINE
  5
19E
330
1F
100
AcDbEntity
  8
0
  6
Continuous
 62
     7
370
    35
100
AcDbSpline
210
0.0
220
0.0
230
1.0
 70
     8
 71
     3
 72
    13
 73
     9
 74
     0
 42
0.000000001
 43
0.00000001
 40
0.0
 40
0.0
 40
0.0
 40
0.0
 40
0.171352070386788
 40
0.3444243092082203
 40
0.5048721510366393
 40
0.6666641422984362
 40
0.8326290359496955
 40
1.0
 40
1.0
 40
1.0
 40
1.0
 10
89.91161983873901
 20
121.8765628792999
 30
0.0
 10
90.20822172386336
 20
124.0261654365721
 30
0.0
 10
90.80440301985358
 20
128.3469499721164
 30
0.0
 10
92.43511623496673
 20
134.5237561924915
 30
0.0
 10
94.53514594016772
 20
140.4039532503204
 30
0.0
 10
97.12221186288043
 20
145.9690455256652
 30
0.0
 10
100.2001547927104
 20
151.3656875819986
 30
0.0
 10
102.6669472633243
 20
154.7198923769315
 30
0.0
 10
103.905546185041
 20
156.4040690929351
 30
0.0
  0
SPLINE
  5
19F
330
1F
100
AcDbEntity
  8
0
  6
Continuous
 62
     7
370
    35
100
AcDbSpline
210
0.0
220
0.0
230
1.0
 70
     8
 71
     3
 72
    10
 73
     6
 74
     0
 42
0.000000001
 43
0.00000001
 40
0.0
 40
0.0
 40
0.0
 40
0.0
 40
0.1840463625481514
 40
0.5910336787522663
 40
0.9999999999999999
 40
0.9999999999999999
 40
0.9999999999999999
 40
0.9999999999999999
 10
111.2710709538704
 20
164.380064633554
 30
0.0
 10
110.783141231325
 20
163.9256992259808
 30
0.0
 10
109.2162376810682
 20
162.4665817806931
 30
0.0
 10
106.6997894416272
 20
159.8530932612422
 30
0.0
 10
104.83846541556
 20
157.5556012530483
 30
0.0
 10
103.905546185041
 20
156.4040690929351
 30
0.0
  0
SPLINE
  5
1A0
330
1F
100
AcDbEntity
  8
0
  6
Continuous
 62
     7
370
    35
100
AcDbSpline
210
0.0
220
0.0
230
1.0
 70
     8
 71
     3
 72
    14
 73
    10
 74
     0
 42
0.000000001
 43
0.00000001
 40
0.0
 40
0.0
 40
0.0
 40
0.0
 40
0.125536451483421
 40
0.2489316783754286
 40
0.390385002526313
 40
0.5306002941908968
 40
0.6738097279766689
 40
0.8168318574976304
 40
1.0
 40
1.0
 40
1.0
 40
1.0
 10
111.273887273336
 20
164.3800683588443
 30
0.0
 10
111.423833816771
 20
164.3801647778917
 30
0.0
 10
111.7211693259619
 20
164.3803559714059
 30
0.0
 10
112.8432623490244
 20
164.3801815146147
 30
0.0
 10
114.5256733854399
 20
164.3799337968673
 30
0.0
 10
116.8599085516239
 20
164.3800376882064
 30
0.0
 10
119.6755146706831
 20
164.3800601944788
 30
0.0
 10
123.1665210582466
 20
164.3799919593516
 30
0.0
 10
125.8579238307509
 20
164.3800790556385
 30
0.0
 10
127.3692480143553
 20
164.3801279634891
 30
0.0
  0
LINE
  5
1A1
330
1F
100
AcDbEntity
  8
0
  6
Continuous
 62
     7
370
    35
100
AcDbLine
 10
127.5411794749
 20
164.3876046211
 30
0.0
 11
127.3690170464
 21
164.3793307514
 31
0.0
  0
SPLINE
  5
1A2
330
1F
100
AcDbEntity
  8
0
  6
Continuous
 62
     7
370
    35
100
AcDbSpline
210
0.0
220
0.0
230
1.0
 70
     8
 71
     3
 72
    13
 73
     9
 74
     0
 42
0.000000001
 43
0.00000001
 40
0.0
 40
0.0
 40
0.0
 40
0.0
 40
0.191580229953728
 40
0.3831386573216915
 40
0.5787485396281136
 40
0.7743289911500824
 40
0.9994803376620206
 40
1.0
 40
1.0
 40
1.0
 40
1.0
 10
128.0001818057543
 20
147.5015864045081
 30
0.0
 10
127.9709285027873
 20
148.6852348544524
 30
0.0
 10
127.9124252259948
 20
151.0523970504791
 30
0.0
 10
127.8219460981347
 20
154.4950325941895
 30
0.0
 10
127.7310995026217
 20
157.8293514751374
 30
0.0
 10
127.6363883463677
 20
161.1739194128755
 30
0.0
 10
127.573878805916
 20
163.3017921432126
 30
0.0
 10
127.5412546000171
 20
164.3851100184543
 30
0.0
 10
127.541179474855
 20
164.3876046211181
 30
0.0
  0
SPLINE
  5
1A3
330
1F
100
AcDbEntity
  8
0
  6
Continuous
 62
     7
370
    35
100
AcDbSpline
210
0.0
220
0.0
230
1.0
 70
     8
 71
     3
 72
    13
 73
     9
 74
     0
 42
0.000000001
 43
0.00000001
 40
0.0
 40
0.0
 40
0.0
 40
0.0
 40
0.1620411102385734
 40
0.3240840804867037
 40
0.4893805758446668
 40
0.6546762913170202
 40
0.8268549524152717
 40
0.9999999999999999
 40
0.9999999999999999
 40
0.9999999999999999
 40
0.9999999999999999
 10
128.0001818057543
 20
147.5015864045081
 30
0.0
 10
127.4277670351693
 20
146.2257284064891
 30
0.0
 10
126.2829309234633
 20
143.6739977653522
 30
0.0
 10
124.8476187557616
 20
139.6345553350138
 30
0.0
 10
123.6163002703267
 20
135.4540787108213
 30
0.0
 10
122.6066229976917
 20
131.075346899084
 30
0.0
 10
121.8085089624676
 20
126.5416402012783
 30
0.0
 10
121.4862566082275
 20
123.4222199898648
 30
0.0
 10
121.324679520393
 20
121.8581450440643
 30
0.0
  0
LINE
  5
1A4
330
1F
100
AcDbEntity
  8
0
  6
Continuous
 62
     7
370
    35
100
AcDbLine
 10
120.9970551398
 20
121.8588942931
 30
0.0
 11
121.3246795204
 21
121.8581450441
 31
0.0
  0
SPLINE
  5
1A5
330
1F
100
AcDbEntity
  8
0
  6
Continuous
 62
     7
370
    35
100
AcDbSpline
210
0.0
220
0.0
230
1.0
 70
     8
 71
     3
 72
    17
 73
    13
 74
     0
 42
0.000000001
 43
0.00000001
 40
0.0
 40
0.0
 40
0.0
 40
0.0
 40
0.1082985880001822
 40
0.2165951331049702
 40
0.3248572117333357
 40
0.4331191503410514
 40
0.5411757195780582
 40
0.6492334809702464
 40
0.7573696575450621
 40
0.8655084969403831
 40
0.9327538087068369
 40
0.9999999999999999
 40
0.9999999999999999
 40
0.9999999999999999
 40
0.9999999999999999
 10
89.91195511486588
 20
121.8767011807022
 30
0.0
 10
90.00782051329139
 20
121.8781846298841
 30
0.0
 10
90.1995495017811
 20
121.8811515002647
 30
0.0
 10
91.59367124981584
 20
121.8819219998494
 30
0.0
 10
93.78333136004582
 20
121.8832850740404
 30
0.0
 10
96.75294536623076
 20
121.8828830185533
 30
0.0
 10
100.4249834426409
 20
121.8815086945165
 30
0.0
 10
104.6738745002532
 20
121.8791174494999
 30
0.0
 10
109.4009526944349
 20
121.8743818605674
 30
0.0
 10
113.8212480165076
 20
121.8694281081146
 30
0.0
 10
117.7176250973742
 20
121.8663583266237
 30
0.0
 10
119.9039070264917
 20
121.8613823151054
 30
0.0
 10
120.9970551398045
 20
121.8588942930756
 30
0.0
  0
ARC
  5
1A6
330
1F
100
AcDbEntity
  8
0
  6
Continuous
 62
     7
370
    35
100
AcDbCircle
 10
153.4400527199
 20
121.6283999313
 30
0.0
 40
32.44381635430504
100
AcDbArc
 50
179.5929435341
 51
181.4990967352
  0
SPLINE
  5
1A7
330
1F
100
AcDbEntity
  8
0
  6
Continuous
 62
     7
370
    35
100
AcDbSpline
210
0.0
220
0.0
230
1.0
 70
     8
 71
     3
 72
    19
 73
    15
 74
     0
 42
0.000000001
 43
0.00000001
 40
0.0
 40
0.0
 40
0.0
 40
0.0
 40
0.0000012585968397
 40
0.0668913258741872
 40
0.1345045818522111
 40
0.2411189887350706
 40
0.3507985812537791
 40
0.4573111267718469
 40
0.5669056030050478
 40
0.6736084506987036
 40
0.7834174093579208
 40
0.8901577970564193
 40
0.9999987316084847
 40
1.0
 40
1.0
 40
1.0
 40
1.0
 10
121.0073406663185
 20
120.7796311274824
 30
0.0
 10
121.0073207981036
 20
120.7796311274825
 30
0.0
 10
119.9513740521105
 20
120.7796311306376
 30
0.0
 10
117.8276658382073
 20
120.7786176611502
 30
0.0
 10
114.0673801398946
 20
120.7738566296932
 30
0.0
 10
109.7651996376512
 20
120.7714997781728
 30
0.0
 10
105.1959122081816
 20
120.7700965842511
 30
0.0
 10
101.042255947778
 20
120.7684509799803
 30
0.0
 10
97.49103113067947
 20
120.7678047200614
 30
0.0
 10
94.59406365567267
 20
120.7678449553954
 30
0.0
 10
92.43204749886702
 20
120.7678717708931
 30
0.0
 10
91.23558662860444
 20
120.769305865651
 30
0.0
 10
90.60369574211344
 20
120.7709027753968
 30
0.0
 10
90.81877024634741
 20
120.7709027723132
 30
0.0
 10
90.81877272989807
 20
120.7709027723131
 30
0.0
  0
ARC
  5
1A8
330
1F
100
AcDbEntity
  8
0
  6
Continuous
 62
     7
370
    35
100
AcDbCircle
 10
90.9059320664
 20
121.767098613
 30
0.0
 40
1.000001451488296
100
AcDbArc
 50
173.7076033178
 51
264.999800584
  0
LINE
  5
1A9
330
1F
100
AcDbEntity
  8
0
  6
Continuous
 62
     7
370
    35
100
AcDbLine
 10
128.0001818058
 20
106.9019007765
 30
0.0
 11
121.3246795204
 21
106.9019007765
 31
0.0
  0
LINE
  5
1AA
330
1F
100
AcDbEntity
  8
0
  6
Continuous
 62
     7
370
    35
100
AcDbLine
 10
128.0001818058
 20
81.2584594161
 30
0.0
 11
128.0001818058
 21
106.9019007765
 31
0.0
  0
LINE
  5
1AB
330
1F
100
AcDbEntity
  8
0
  6
Continuous
 62
     7
370
    35
100
AcDbLine
 10
128.0001818058
 20
121.8581450441
 30
0.0
 11
128.0001818058
 21
147.5015864045
 31
0.0
  0
LINE
  5
1AC
330
1F
100
AcDbEntity
  8
0
  6
Continuous
 62
     7
370
    35
100
AcDbLine
 10
121.3246795204
 20
121.8581450441
 30
0.0
 11
128.0001818058
 21
121.8581450441
 31
0.0
  0
LWPOLYLINE
  5
1AD
330
1F
100
AcDbEntity
  8
0
  6
Continuous
 62
     7
370
    35
100
AcDbPolyline
 90
        9
 70
   128
 43
0.0
 10
128.0001818058
 20
81.2584594161
 10
128.390361261
 20
81.2724441559
 10
128.7655482855
 20
81.313869384
 10
129.1113222804
 20
81.3811406762
 10
129.4143951353
 20
81.4716689557
 10
129.66311973
 20
81.5819785268
 10
129.847940695
 20
81.7078300089
 10
129.9617520389
 20
81.8443879754
 10
130.0001802709
 20
81.9864034922
  0
SPLINE
  5
1AE
330
1F
100
AcDbEntity
  8
0
  6
Continuous
 62
     7
370
    35
100
AcDbSpline
210
0.0
220
0.0
230
1.0
 70
     8
 71
     3
 72
    12
 73
     8
 74
     0
 42
0.000000001
 43
0.00000001
 40
0.0
 40
0.0
 40
0.0
 40
0.0
 40
0.2146966669169731
 40
0.4293934333082107
 40
0.644089370489875
 40
0.8587836822295221
 40
1.0
 40
1.0
 40
1.0
 40
1.0
 10
130.0001802709347
 20
107.0712310530899
 30
0.0
 10
129.9780710514495
 20
107.0521989953406
 30
0.0
 10
129.9338526022354
 20
107.0141348710242
 30
0.0
 10
129.5890268779913
 20
106.9633897125016
 30
0.0
 10
129.0815223888862
 20
106.9250880225839
 30
0.0
 10
128.5191794621574
 20
106.9047918204498
 30
0.0
 10
128.1476108243775
 20
106.9027220206468
 30
0.0
 10
128.0001818057543
 20
106.901900776541
 30
0.0
  0
LINE
  5
1AF
330
1F
100
AcDbEntity
  8
0
  6
Continuous
 62
     7
370
    35
100
AcDbLine
 10
130.0001802709
 20
107.0712310531
 30
0.0
 11
130.0001802709
 21
81.9864034922
 31
0.0
  0
SPLINE
  5
1B0
330
1F
100
AcDbEntity
  8
0
  6
Continuous
 62
     7
370
    35
100
AcDbSpline
210
0.0
220
0.0
230
1.0
 70
     8
 71
     3
 72
    12
 73
     8
 74
     0
 42
0.000000001
 43
0.00000001
 40
0.0
 40
0.0
 40
0.0
 40
0.0
 40
0.1412157446407864
 40
0.3559089348218241
 40
0.5706057328472471
 40
0.7853035830277384
 40
1.0
 40
1.0
 40
1.0
 40
1.0
 10
128.0001818057543
 20
107.9802726664302
 30
0.0
 10
128.0738963407883
 20
107.9806953222095
 30
0.0
 10
128.259680593894
 20
107.9817605502305
 30
0.0
 10
128.5408521173288
 20
107.9922037632448
 30
0.0
 10
128.7946047447175
 20
108.0119137671321
 30
0.0
 10
128.9670165128908
 20
108.0380313619722
 30
0.0
 10
128.9891268420078
 20
108.0576280082096
 30
0.0
 10
129.0001819696671
 20
108.067426298624
 30
0.0
  0
ARC
  5
1B1
330
1F
100
AcDbEntity
  8
0
  6
Continuous
 62
     7
370
    35
100
AcDbCircle
 10
129.0020812359
 20
107.069327255
 30
0.0
 40
0.9981008507060152
100
AcDbArc
 50
0.1092872169
 51
90.1090270638
  0
LINE
  5
1B2
330
1F
100
AcDbEntity
  8
0
  6
Continuous
 62
     7
370
    35
100
AcDbLine
 10
128.0001818058
 20
107.9802726664
 30
0.0
 11
128.0001818058
 21
106.9019007765
 31
0.0
  0
SPLINE
  5
1B3
330
1F
100
AcDbEntity
  8
0
  6
Continuous
 62
     7
370
    35
100
AcDbSpline
210
0.0
220
0.0
230
1.0
 70
     8
 71
     3
 72
    12
 73
     8
 74
     0
 42
0.000000001
 43
0.00000001
 40
0.0
 40
0.0
 40
0.0
 40
0.0
 40
0.2146915096980213
 40
0.4293827469318632
 40
0.6440743098732872
 40
0.858767992491692
 40
1.0
 40
1.0
 40
1.0
 40
1.0
 10
128.0001818057543
 20
121.8581450440643
 30
0.0
 10
128.2250274539828
 20
121.856272633763
 30
0.0
 10
128.6747184650891
 20
121.8525278155367
 30
0.0
 10
129.27406103618
 20
121.8233264807506
 30
0.0
 10
129.7263690759196
 20
121.7803542474753
 30
0.0
 10
129.9660358751992
 20
121.7327461207101
 30
0.0
 10
129.9904805688526
 20
121.701294737621
 30
0.0
 10
130.0001802709347
 20
121.6888147675154
 30
0.0
  0
ARC
  5
1B4
330
1F
100
AcDbEntity
  8
0
  6
Continuous
 62
     7
370
    35
100
AcDbCircle
 10
129.0020812359
 20
121.6907185656
 30
0.0
 40
0.9981008507060009
100
AcDbArc
 50
269.8909729362
 51
359.8907127831
  0
SPLINE
  5
1B5
330
1F
100
AcDbEntity
  8
0
  6
Continuous
 62
     7
370
    35
100
AcDbSpline
210
0.0
220
0.0
230
1.0
 70
     8
 71
     3
 72
    12
 73
     8
 74
     0
 42
0.000000001
 43
0.00000001
 40
0.0
 40
0.0
 40
0.0
 40
0.0
 40
0.1412332625911976
 40
0.3559282931530157
 40
0.5706183475930925
 40
0.7853101052354206
 40
1.0
 40
1.0
 40
1.0
 40
1.0
 10
129.0001819696671
 20
120.6926195219812
 30
0.0
 10
128.9953317827479
 20
120.6990448767898
 30
0.0
 10
128.9831086086886
 20
120.7152377022472
 30
0.0
 10
128.8632756217803
 20
120.7397420123567
 30
0.0
 10
128.6371203018685
 20
120.7618571250369
 30
0.0
 10
128.3374506299437
 20
120.7768823376874
 30
0.0
 10
128.1126044219847
 20
120.7788095514663
 30
0.0
 10
128.0001818057543
 20
120.779773154175
 30
0.0
  0
LINE
  5
1B6
330
1F
100
AcDbEntity
  8
0
  6
Continuous
 62
     7
370
    35
100
AcDbLine
 10
128.0001818058
 20
121.8581450441
 30
0.0
 11
128.0001818058
 21
120.7797731542
 31
0.0
  0
LWPOLYLINE
  5
1B7
330
1F
100
AcDbEntity
  8
0
  6
Continuous
 62
     7
370
    35
100
AcDbPolyline
 90
        9
 70
   128
 43
0.0
 10
128.0001818058
 20
147.5015864045
 10
128.390361261
 20
147.4876016647
 10
128.7655482855
 20
147.4461764366
 10
129.1113222804
 20
147.3789051444
 10
129.4143951353
 20
147.2883768649
 10
129.66311973
 20
147.1780672938
 10
129.847940695
 20
147.0522158117
 10
129.9617520389
 20
146.9156578452
 10
130.0001802709
 20
146.7736423284
  0
LINE
  5
1B8
330
1F
100
AcDbEntity
  8
0
  6
Continuous
 62
     7
370
    35
100
AcDbLine
 10
130.0001802709
 20
146.7736423284
 30
0.0
 11
130.0001802709
 21
121.6888147675
 31
0.0
  0
LINE
  5
1B9
330
1F
100
AcDbEntity
  8
0
  6
Continuous
 62
     7
370
    35
100
AcDbLine
 10
121.0073406663
 20
107.9804146931
 30
0.0
 11
121.3246795204
 21
107.9802726664
 31
0.0
  0
LINE
  5
1BA
330
1F
100
AcDbEntity
  8
0
  6
Continuous
 62
     7
370
    35
100
AcDbLine
 10
121.3246795204
 20
106.9019007765
 30
0.0
 11
121.3246795204
 21
107.9802726664
 31
0.0
  0
LINE
  5
1BB
330
1F
100
AcDbEntity
  8
0
  6
Continuous
 62
     7
370
    35
100
AcDbLine
 10
121.3246795204
 20
107.9802726664
 30
0.0
 11
128.0001818058
 21
107.9802726664
 31
0.0
  0
LINE
  5
1BC
330
1F
100
AcDbEntity
  8
0
  6
Continuous
 62
     7
370
    35
100
AcDbLine
 10
121.3246795204
 20
121.8581450441
 30
0.0
 11
121.3246795204
 21
120.7797731542
 31
0.0
  0
LINE
  5
1BD
330
1F
100
AcDbEntity
  8
0
  6
Continuous
 62
     7
370
    35
100
AcDbLine
 10
121.3246795204
 20
120.7797731542
 30
0.0
 11
121.0073406663
 21
120.7796311275
 31
0.0
  0
LINE
  5
1BE
330
1F
100
AcDbEntity
  8
0
  6
Continuous
 62
     7
370
    35
100
AcDbLine
 10
128.0001818058
 20
120.7797731542
 30
0.0
 11
121.3246795204
 21
120.7797731542
 31
0.0
  0
LINE
  5
1BF
330
1F
100
AcDbEntity
  8
0
  6
Continuous
 62
     7
370
    35
100
AcDbLine
 10
129.0001819697
 20
108.2928519965
 30
0.0
 11
121.0283140507
 21
108.2928519965
 31
0.0
  0
LINE
  5
1C0
330
1F
100
AcDbEntity
  8
0
  6
Continuous
 62
     7
370
    35
100
AcDbLine
 10
129.0001819697
 20
108.0674262986
 30
0.0
 11
129.0001819697
 21
108.2928519965
 31
0.0
  0
LINE
  5
1C1
330
1F
100
AcDbEntity
  8
0
  6
Continuous
 62
     7
370
    35
100
AcDbLine
 10
121.0073406663
 20
107.9804146931
 30
0.0
 11
121.0283140507
 21
108.2928519965
 31
0.0
  0
LINE
  5
1C2
330
1F
100
AcDbEntity
  8
0
  6
Continuous
 62
     7
370
    35
100
AcDbLine
 10
129.0001819697
 20
120.4671938241
 30
0.0
 11
129.0001819697
 21
120.692619522
 31
0.0
  0
LINE
  5
1C3
330
1F
100
AcDbEntity
  8
0
  6
Continuous
 62
     7
370
    35
100
AcDbLine
 10
121.0283140507
 20
120.4671938241
 30
0.0
 11
129.0001819697
 21
120.4671938241
 31
0.0
  0
LINE
  5
1C4
330
1F
100
AcDbEntity
  8
0
  6
Continuous
 62
     7
370
    35
100
AcDbLine
 10
121.0283140507
 20
120.4671938241
 30
0.0
 11
121.0073406663
 21
120.7796311275
 31
0.0
  0
LINE
  5
1C5
330
1F
100
AcDbEntity
  8
0
  6
Continuous
 62
     7
370
    35
100
AcDbLine
 10
94.290139791
 20
108.2928482712
 30
0.0
 11
94.290139791
 21
108.2928487369
 31
0.0
  0
SPLINE
  5
1C6
330
1F
100
AcDbEntity
  8
0
  6
Continuous
 62
     7
370
    35
100
AcDbSpline
210
0.0
220
0.0
230
1.0
 70
     8
 71
     3
 72
    18
 73
    14
 74
     0
 42
0.000000001
 43
0.00000001
 40
0.0
 40
0.0
 40
0.0
 40
0.0
 40
0.0000014212822934
 40
0.1041123238982049
 40
0.2108077537163772
 40
0.3233471094293313
 40
0.4395754705240989
 40
0.5296122867170905
 40
0.621530692825815
 40
0.7269117012701779
 40
0.8353083067224207
 40
0.916990079484495
 40
1.0
 40
1.0
 40
1.0
 40
1.0
 10
121.0283140506989
 20
108.2928519964871
 30
0.0
 10
121.028294182484
 20
108.2928519964871
 30
0.0
 10
119.5728999748423
 20
108.2928519957098
 30
0.0
 10
116.6227833449273
 20
108.2931960142702
 30
0.0
 10
112.2119945767542
 20
108.292479954122
 30
0.0
 10
107.9117121189631
 20
108.2930341620775
 30
0.0
 10
104.2063930587446
 20
108.2928392264027
 30
0.0
 10
101.1770083558262
 20
108.2927667535844
 30
0.0
 10
98.68584110931366
 20
108.2929464103226
 30
0.0
 10
96.57944495963677
 20
108.2928560714725
 30
0.0
 10
95.18153154559447
 20
108.2926080851842
 30
0.0
 10
94.4312141363554
 20
108.2931502136418
 30
0.0
 10
94.33741671431662
 20
108.2929494583388
 30
0.0
 10
94.29013979103622
 20
108.2928482711968
 30
0.0
  0
LINE
  5
1C7
330
1F
100
AcDbEntity
  8
0
  6
Continuous
 62
     7
370
    35
100
AcDbLine
 10
94.290139791
 20
108.2928487369
 30
0.0
 11
90.8187727299
 21
107.9891430483
 31
0.0
  0
SPLINE
  5
1C8
330
1F
100
AcDbEntity
  8
0
  6
Continuous
 62
     7
370
    35
100
AcDbSpline
210
0.0
220
0.0
230
1.0
 70
     8
 71
     3
 72
    18
 73
    14
 74
     0
 42
0.000000001
 43
0.00000001
 40
0.0
 40
0.0
 40
0.0
 40
0.0
 40
0.0817805605534306
 40
0.1648399721088768
 40
0.2700805185961938
 40
0.378382366583623
 40
0.4684610090871246
 40
0.5604238387913404
 40
0.6730764044454396
 40
0.7893896652696155
 40
0.8932855175505408
 40
0.9999985787177995
 40
1.0
 40
1.0
 40
1.0
 40
1.0
 10
94.29013979103622
 20
120.4671975494084
 30
0.0
 10
94.33682449520565
 20
120.4671000097852
 30
0.0
 10
94.43092393987955
 20
120.466903405254
 30
0.0
 10
95.1667736278625
 20
120.46742563266
 30
0.0
 10
96.56203223935238
 20
120.4672010756196
 30
0.0
 10
98.64650853407525
 20
120.4670978260451
 30
0.0
 10
101.1572512236135
 20
120.4672768394056
 30
0.0
 10
104.1479297902159
 20
120.4672098398005
 30
0.0
 10
107.8694954324604
 20
120.4670121524484
 30
0.0
 10
112.1321790411834
 20
120.4675602097968
 30
0.0
 10
116.5889476263159
 20
120.4668676607443
 30
0.0
 10
119.5365241022891
 20
120.4671938248669
 30
0.0
 10
121.028294182484
 20
120.4671938241182
 30
0.0
 10
121.0283140506989
 20
120.4671938241181
 30
0.0
  0
LINE
  5
1C9
330
1F
100
AcDbEntity
  8
0
  6
Continuous
 62
     7
370
    35
100
AcDbLine
 10
94.290139791
 20
120.4671970837
 30
0.0
 11
94.290139791
 21
120.4671975494
 31
0.0
  0
LINE
  5
1CA
330
1F
100
AcDbEntity
  8
0
  6
Continuous
 62
     7
370
    35
100
AcDbLine
 10
90.8187727299
 20
120.7709027723
 30
0.0
 11
94.290139791
 21
120.4671970837
 31
0.0
  0
ARC
  5
1CB
330
1F
100
AcDbEntity
  8
0
  6
Continuous
 62
     7
370
    35
100
AcDbCircle
 10
129.002081694
 20
107.2947534127
 30
0.0
 40
0.9981003916823262
100
AcDbArc
 50
0.1092608668
 51
90.1090534139
  0
LINE
  5
1CC
330
1F
100
AcDbEntity
  8
0
  6
Continuous
 62
     7
370
    35
100
AcDbLine
 10
130.0001802709
 20
107.296656751
 30
0.0
 11
130.0001802709
 21
107.0712310531
 31
0.0
  0
LINE
  5
1CD
330
1F
100
AcDbEntity
  8
0
  6
Continuous
 62
     7
370
    35
100
AcDbLine
 10
130.0001802709
 20
121.6888147675
 30
0.0
 11
130.0001802709
 21
121.4633890697
 31
0.0
  0
ARC
  5
1CE
330
1F
100
AcDbEntity
  8
0
  6
Continuous
 62
     7
370
    35
100
AcDbCircle
 10
129.002081694
 20
121.4652924079
 30
0.0
 40
0.9981003916822979
100
AcDbArc
 50
269.8909465861
 51
359.8907391332
  0
SPLINE
  5
1CF
330
1F
100
AcDbEntity
  8
0
  6
Continuous
 62
     7
370
    35
100
AcDbSpline
210
0.0
220
0.0
230
1.0
 70
     8
 71
     3
 72
    12
 73
     8
 74
     0
 42
0.000000001
 43
0.00000001
 40
0.0
 40
0.0
 40
0.0
 40
0.0
 40
0.2157448989582625
 40
0.4314886873704664
 40
0.6472313778596037
 40
0.8629699534158838
 40
1.0
 40
1.0
 40
1.0
 40
1.0
 10
121.0283140506989
 20
120.4671938241181
 30
0.0
 10
121.0289674771391
 20
120.4463831758917
 30
0.0
 10
121.030274326656
 20
120.4047619865615
 30
0.0
 10
121.031939365813
 20
120.2068870592441
 30
0.0
 10
121.033131345072
 20
119.9343859865864
 30
0.0
 10
121.0336848879195
 20
119.6463278911803
 30
0.0
 10
121.0336668492491
 20
119.4627561256141
 30
0.0
 10
121.0336598422771
 20
119.3914491952119
 30
0.0
  0
SPLINE
  5
1D0
330
1F
100
AcDbEntity
  8
0
  6
Continuous
 62
     7
370
    35
100
AcDbSpline
210
0.0
220
0.0
230
1.0
 70
     8
 71
     3
 72
    19
 73
    15
 74
     0
 42
0.000000001
 43
0.00000001
 40
0.0
 40
0.0
 40
0.0
 40
0.0
 40
0.0000014711489257
 40
0.1040808407068134
 40
0.2107204989101181
 40
0.3233494088715323
 40
0.4396718410054904
 40
0.529716836843745
 40
0.6216518579842042
 40
0.7268927792674409
 40
0.8351319171471359
 40
0.916906472858232
 40
0.9999985281329152
 40
1.0
 40
1.0
 40
1.0
 40
1.0
 10
121.0336598422771
 20
119.3914491952119
 30
0.0
 10
121.0336399740623
 20
119.3914491952117
 30
0.0
 10
119.6280035580322
 20
119.3914491847729
 30
0.0
 10
116.779492512572
 20
119.3959227369812
 30
0.0
 10
112.5163641328225
 20
119.3869324521022
 30
0.0
 10
108.3613706260277
 20
119.3937251528861
 30
0.0
 10
104.7786475942688
 20
119.3913693712557
 30
0.0
 10
101.8506051996581
 20
119.3904569520137
 30
0.0
 10
99.44549719636917
 20
119.3929417485208
 30
0.0
 10
97.41475298826857
 20
119.3899800392899
 30
0.0
 10
96.0525915939069
 20
119.3941489148399
 30
0.0
 10
95.35979921410336
 20
119.3798849163058
 30
0.0
 10
95.19981795312735
 20
119.4265082507907
 30
0.0
 10
95.19981842900921
 20
119.3914563353577
 30
0.0
 10
95.19981842901764
 20
119.3914557144699
 30
0.0
  0
SPLINE
  5
1D1
330
1F
100
AcDbEntity
  8
0
  6
Continuous
 62
     7
370
    35
100
AcDbSpline
210
0.0
220
0.0
230
1.0
 70
     8
 71
     3
 72
    13
 73
     9
 74
     0
 42
0.000000001
 43
0.00000001
 40
0.0
 40
0.0
 40
0.0
 40
0.0
 40
0.0101869092731771
 40
0.1370891923015617
 40
0.3528164254368559
 40
0.5685446909318588
 40
0.7842720242004947
 40
0.9999999999999999
 40
0.9999999999999999
 40
0.9999999999999999
 40
0.9999999999999999
 10
94.29013979103622
 20
120.4671975494084
 30
0.0
 10
94.29540116160966
 20
120.4667097437189
 30
0.0
 10
94.3662054677018
 20
120.4601451532054
 30
0.0
 10
94.54666658149641
 20
120.4229928672814
 30
0.0
 10
94.8107029289079
 20
120.2894807925613
 30
0.0
 10
95.045541737026
 20
120.042436577452
 30
0.0
 10
95.19359479217331
 20
119.7303711413568
 30
0.0
 10
95.19774388134324
 20
119.5044276355919
 30
0.0
 10
95.19981842901764
 20
119.3914557144699
 30
0.0
  0
SPLINE
  5
1D2
330
1F
100
AcDbEntity
  8
0
  6
Continuous
 62
     7
370
    35
100
AcDbSpline
210
0.0
220
0.0
230
1.0
 70
     8
 71
     3
 72
    13
 73
     9
 74
     0
 42
0.000000001
 43
0.00000001
 40
0.0
 40
0.0
 40
0.0
 40
0.0
 40
0.0099896037344555
 40
0.1370885272441045
 40
0.3528162239361816
 40
0.5685449544556751
 40
0.7842727519526467
 40
0.9999999999999999
 40
0.9999999999999999
 40
0.9999999999999999
 40
0.9999999999999999
 10
94.29013979103622
 20
108.2928482711968
 30
0.0
 10
94.29529928211056
 20
108.293326085897
 30
0.0
 10
94.3661035954256
 20
108.2998831941946
 30
0.0
 10
94.546575020589
 20
108.3370042242053
 30
0.0
 10
94.81070251135404
 20
108.4705656035353
 30
0.0
 10
95.045541841674
 20
108.7176090915384
 30
0.0
 10
95.19359451733804
 20
109.0296741336159
 30
0.0
 10
95.19774379355245
 20
109.2556169694434
 30
0.0
 10
95.19981842901764
 20
109.3685882434902
 30
0.0
  0
SPLINE
  5
1D3
330
1F
100
AcDbEntity
  8
0
  6
Continuous
 62
     7
370
    35
100
AcDbSpline
210
0.0
220
0.0
230
1.0
 70
     8
 71
     3
 72
    19
 73
    15
 74
     0
 42
0.000000001
 43
0.00000001
 40
0.0
 40
0.0
 40
0.0
 40
0.0
 40
0.0000014711824122
 40
0.0823702746710512
 40
0.1647176599644539
 40
0.2715659538323735
 40
0.3784380826772628
 40
0.4693889096631932
 40
0.5603375475947159
 40
0.6747209986511483
 40
0.789091257825777
 40
0.8944841350501966
 40
0.9999985288175878
 40
0.9999999999999999
 40
0.9999999999999999
 40
0.9999999999999999
 40
0.9999999999999999
 10
95.19981842901763
 20
109.3685882434902
 30
0.0
 10
95.19981842900941
 20
109.3685882434903
 30
0.0
 10
95.19981796832266
 20
109.368588245026
 30
0.0
 10
95.35460390750887
 20
109.3680771239793
 30
0.0
 10
96.04635618064815
 20
109.3696406957084
 30
0.0
 10
97.40731394453725
 20
109.369371355029
 30
0.0
 10
99.4257180177869
 20
109.3676898361529
 30
0.0
 10
101.8453800957764
 20
109.3691191735175
 30
0.0
 10
104.7489026435667
 20
109.3683704086475
 30
0.0
 10
108.3358755594521
 20
109.3688101293423
 30
0.0
 10
112.4706277125865
 20
109.3702558026487
 30
0.0
 10
116.7579677269499
 20
109.3690636851354
 30
0.0
 10
119.6086556501207
 20
109.3685966242683
 30
0.0
 10
121.0336399740623
 20
109.3685966253934
 30
0.0
 10
121.0336598422771
 20
109.3685966253934
 30
0.0
  0
SPLINE
  5
1D4
330
1F
100
AcDbEntity
  8
0
  6
Continuous
 62
     7
370
    35
100
AcDbSpline
210
0.0
220
0.0
230
1.0
 70
     8
 71
     3
 72
    12
 73
     8
 74
     0
 42
0.000000001
 43
0.00000001
 40
0.0
 40
0.0
 40
0.0
 40
0.0
 40
0.1370535676603715
 40
0.3527931813479652
 40
0.5685302798651068
 40
0.7842646360610287
 40
0.9999999999999999
 40
0.9999999999999999
 40
0.9999999999999999
 40
0.9999999999999999
 10
121.0283140506989
 20
108.2928519964871
 30
0.0
 10
121.0287297596076
 20
108.3035683254249
 30
0.0
 10
121.0297998468072
 20
108.3311535086702
 30
0.0
 10
121.0313742174757
 20
108.471681330372
 30
0.0
 10
121.0327538840828
 20
108.717328828181
 30
0.0
 10
121.0336236991726
 20
109.0297600202012
 30
0.0
 10
121.0336477945569
 20
109.2556509144653
 30
0.0
 10
121.0336598422771
 20
109.3685966253934
 30
0.0
  0
LINE
  5
1D5
330
1F
100
AcDbEntity
  8
0
  6
Continuous
 62
     7
370
    35
100
AcDbLine
 10
129.0001819697
 20
120.4671938241
 30
0.0
 11
129.0001819697
 21
119.3914491952
 31
0.0
  0
LINE
  5
1D6
330
1F
100
AcDbEntity
  8
0
  6
Continuous
 62
     7
370
    35
100
AcDbLine
 10
129.0001819697
 20
119.3914491952
 30
0.0
 11
121.0336598423
 21
119.3914491952
 31
0.0
  0
LINE
  5
1D7
330
1F
100
AcDbEntity
  8
0
  6
Continuous
 62
     7
370
    35
100
AcDbLine
 10
121.0336598423
 20
109.3685966254
 30
0.0
 11
129.0001819697
 21
109.3685966254
 31
0.0
  0
LINE
  5
1D8
330
1F
100
AcDbEntity
  8
0
  6
Continuous
 62
     7
370
    35
100
AcDbLine
 10
129.0001819697
 20
108.2928519965
 30
0.0
 11
129.0001819697
 21
109.3685966254
 31
0.0
  0
ARC
  5
1D9
330
1F
100
AcDbEntity
  8
0
  6
Continuous
 62
     7
370
    35
100
AcDbCircle
 10
129.2485999246
 20
112.5709264932
 30
0.0
 40
3.21195081884524
100
AcDbArc
 50
265.5642133032
 51
283.5323873077
  0
LINE
  5
1DA
330
1F
100
AcDbEntity
  8
0
  6
Continuous
 62
     7
370
    35
100
AcDbLine
 10
130.0001802709
 20
107.296656751
 30
0.0
 11
130.0001802709
 21
109.4481464744
 31
0.0
  0
ARC
  5
1DB
330
1F
100
AcDbEntity
  8
0
  6
Continuous
 62
     7
370
    35
100
AcDbCircle
 10
129.2485999246
 20
116.1891193274
 30
0.0
 40
3.21195081884524
100
AcDbArc
 50
76.4676126923
 51
94.4357866968
  0
LINE
  5
1DC
330
1F
100
AcDbEntity
  8
0
  6
Continuous
 62
     7
370
    35
100
AcDbLine
 10
130.0001802709
 20
119.3118993462
 30
0.0
 11
130.0001802709
 21
121.4633890697
 31
0.0
  0
SPLINE
  5
1DD
330
1F
100
AcDbEntity
  8
0
  6
Continuous
 62
     7
370
    35
100
AcDbSpline
210
0.0
220
0.0
230
1.0
 70
    24
 71
     3
 72
    10
 73
     6
 74
     0
 42
0.000000001
 43
0.00000001
 40
0.0
 40
0.0
 40
0.0
 40
0.0
 40
0.189177658398043
 40
0.4989085551833841
 40
1.0
 40
1.0
 40
1.0
 40
1.0
 10
129.0001819696671
 20
109.3685966253934
 30
0.0
 10
129.0001819696671
 20
109.9996334629103
 30
0.0
 10
129.0001819696671
 20
111.6638346140349
 30
0.0
 10
129.0001819696671
 20
115.0094740529017
 30
0.0
 10
129.0001819696671
 20
117.7177338352986
 30
0.0
 10
129.0001819696671
 20
119.3914491952119
 30
0.0
  0
SPLINE
  5
1DE
330
1F
100
AcDbEntity
  8
0
  6
Continuous
 62
     7
370
    35
100
AcDbSpline
210
0.0
220
0.0
230
1.0
 70
    24
 71
     3
 72
    10
 73
     6
 74
     0
 42
0.000000001
 43
0.00000001
 40
0.0
 40
0.0
 40
0.0
 40
0.0
 40
0.5010914454554611
 40
0.8108223614744949
 40
1.0
 40
1.0
 40
1.0
 40
1.0
 10
130.0001802709347
 20
119.3118993461785
 30
0.0
 10
130.0001802709347
 20
117.6647520254131
 30
0.0
 10
130.0001802709347
 20
114.9994822579249
 30
0.0
 10
130.0001802709347
 20
111.706950534526
 30
0.0
 10
130.0001802709347
 20
110.06916637322
 30
0.0
 10
130.0001802709347
 20
109.4481464744267
 30
0.0
  0
SPLINE
  5
1DF
330
1F
100
AcDbEntity
  8
0
  6
Continuous
 62
     7
370
    35
100
AcDbSpline
210
0.0
220
0.0
230
1.0
 70
     8
 71
     3
 72
     9
 73
     5
 74
     0
 42
0.000000001
 43
0.00000001
 40
0.0
 40
0.0
 40
0.0
 40
0.0
 40
0.559999990571789
 40
1.0
 40
1.0
 40
1.0
 40
1.0
 10
121.0336598422771
 20
109.3685966253934
 30
0.0
 10
121.0330278975868
 20
111.2400421750734
 30
0.0
 10
121.0318994249066
 20
114.5819092843373
 30
0.0
 10
121.0331219369615
 20
117.92186753391
 30
0.0
 10
121.0336598422771
 20
119.3914491952119
 30
0.0
  0
ARC
  5
1E0
330
1F
100
AcDbEntity
  8
0
  6
Continuous
 62
     7
370
    35
100
AcDbCircle
 10
158.0001811352
 20
114.3800229103
 30
0.0
 40
63.00000000000002
100
AcDbArc
 50
175.4374980288
 51
184.5625037612
  0
SPLINE
  5
1E1
330
1F
100
AcDbEntity
  8
0
  6
Continuous
 62
     7
370
    35
100
AcDbSpline
210
0.0
220
0.0
230
1.0
 70
     8
 71
     3
 72
    14
 73
    10
 74
     0
 42
0.000000001
 43
0.00000001
 40
0.0
 40
0.0
 40
0.0
 40
0.0
 40
0.1630474005908362
 40
0.3260805993029218
 40
0.4900024546433986
 40
0.6598439719613914
 40
0.8405395624716991
 40
0.9976629632844823
 40
1.0
 40
1.0
 40
1.0
 40
1.0
 10
127.541179474855
 20
64.37244119948721
 30
0.0
 10
127.7496776326792
 20
64.36051757690761
 30
0.0
 10
128.1666557875623
 20
64.33667137032886
 30
0.0
 10
128.7881029672118
 20
64.40289534971869
 30
0.0
 10
129.3252058322576
 20
64.53269390296302
 30
0.0
 10
129.7352159989541
 20
64.70894906485391
 30
0.0
 10
129.960100835137
 20
64.8784527550437
 30
0.0
 10
130.0000142991653
 20
64.95112019246201
 30
0.0
 10
130.0001778736036
 20
64.96551254885937
 30
0.0
 10
130.0001802709347
 20
64.96572348183966
 30
0.0
  0
SPLINE
  5
1E2
330
1F
100
AcDbEntity
  8
0
  6
Continuous
 62
     7
370
    35
100
AcDbSpline
210
0.0
220
0.0
230
1.0
 70
    24
 71
     3
 72
    12
 73
     8
 74
     0
 42
0.000000001
 43
0.00000001
 40
0.0
 40
0.0
 40
0.0
 40
0.0
 40
0.1815840900681274
 40
0.363943598283359
 40
0.5490611750154198
 40
0.7353025364197616
 40
0.9999999999999999
 40
0.9999999999999999
 40
0.9999999999999999
 40
0.9999999999999999
 10
130.0001802709347
 20
81.98640349215842
 30
0.0
 10
130.0001802709347
 20
80.84871940301119
 30
0.0
 10
130.0001802709347
 20
78.56849297481139
 30
0.0
 10
130.0001802709347
 20
75.25248553175595
 30
0.0
 10
130.0001802709347
 20
72.03825400223742
 30
0.0
 10
130.0001802709347
 20
68.5097336535137
 30
0.0
 10
130.0001802709347
 20
66.27657162961314
 30
0.0
 10
130.0001802709347
 20
64.96572348183966
 30
0.0
  0
SPLINE
  5
1E3
330
1F
100
AcDbEntity
  8
0
  6
Continuous
 62
     7
370
    35
100
AcDbSpline
210
0.0
220
0.0
230
1.0
 70
     8
 71
     3
 72
    14
 73
    10
 74
     0
 42
0.000000001
 43
0.00000001
 40
0.0
 40
0.0
 40
0.0
 40
0.0
 40
0.1630474005908362
 40
0.3260805993029218
 40
0.4900024546433986
 40
0.6598439719613914
 40
0.8405395624716991
 40
0.9976629632844823
 40
1.0
 40
1.0
 40
1.0
 40
1.0
 10
127.541179474855
 20
164.3876046211181
 30
0.0
 10
127.7496776326792
 20
164.3995282436977
 30
0.0
 10
128.1666557875623
 20
164.4233744502764
 30
0.0
 10
128.7881029672118
 20
164.3571504708866
 30
0.0
 10
129.3252058322576
 20
164.2273519176423
 30
0.0
 10
129.7352159989541
 20
164.0510967557514
 30
0.0
 10
129.960100835137
 20
163.8815930655616
 30
0.0
 10
130.0000142991653
 20
163.8089256281432
 30
0.0
 10
130.0001778736036
 20
163.7945332717459
 30
0.0
 10
130.0001802709347
 20
163.7943223387656
 30
0.0
  0
SPLINE
  5
1E4
330
1F
100
AcDbEntity
  8
0
  6
Continuous
 62
     7
370
    35
100
AcDbSpline
210
0.0
220
0.0
230
1.0
 70
    24
 71
     3
 72
    12
 73
     8
 74
     0
 42
0.000000001
 43
0.00000001
 40
0.0
 40
0.0
 40
0.0
 40
0.0
 40
0.2646971517947904
 40
0.4459451041569863
 40
0.6283063823292906
 40
0.8137161641309322
 40
1.0
 40
1.0
 40
1.0
 40
1.0
 10
130.0001802709347
 20
163.7943223387656
 30
0.0
 10
130.0001802709347
 20
162.4835526683316
 30
0.0
 10
130.0001802709347
 20
160.275250413305
 30
0.0
 10
130.0001802709347
 20
156.7931051688453
 30
0.0
 10
130.0001802709347
 20
153.6111932998666
 30
0.0
 10
130.0001802709347
 20
150.2689879954279
 30
0.0
 10
130.0001802709347
 20
147.9405826669907
 30
0.0
 10
130.0001802709347
 20
146.7736423284469
 30
0.0
  0
SPLINE
  5
1E5
330
1F
100
AcDbEntity
  8
0
  6
Continuous
 62
     7
370
    35
100
AcDbSpline
210
0.0
220
0.0
230
1.0
 70
     8
 71
     3
 72
    12
 73
     8
 74
     0
 42
0.000000001
 43
0.00000001
 40
0.0
 40
0.0
 40
0.0
 40
0.0
 40
0.2251081025577552
 40
0.453118568847591
 40
0.67784930526545
 40
0.8935873445152366
 40
1.0
 40
1.0
 40
1.0
 40
1.0
 10
128.0001818057543
 20
61.38002353615141
 30
0.0
 10
127.9238957854634
 20
61.41627770651012
 30
0.0
 10
127.7703401739836
 20
61.48925347948779
 30
0.0
 10
127.5750070556645
 20
62.05838258131377
 30
0.0
 10
127.4368868288027
 20
62.87988605242484
 30
0.0
 10
127.3759093813653
 20
63.70744889955979
 30
0.0
 10
127.3707284191804
 20
64.213021633881
 30
0.0
 10
127.3690170463568
 20
64.38002216524458
 30
0.0
  0
ARC
  5
1E6
330
1F
100
AcDbEntity
  8
0
  6
Continuous
 62
     7
370
    35
100
AcDbCircle
 10
128.0001811352
 20
63.3800229103
 30
0.0
 40
2.0
100
AcDbArc
 50
269.9999999999
 51
0.0000000002
  0
SPLINE
  5
1E7
330
1F
100
AcDbEntity
  8
0
  6
Continuous
 62
     7
370
    35
100
AcDbSpline
210
0.0
220
0.0
230
1.0
 70
    24
 71
     3
 72
    14
 73
    10
 74
     0
 42
0.000000001
 43
0.00000001
 40
0.0
 40
0.0
 40
0.0
 40
0.0
 40
0.0671721126753568
 40
0.2099022407932114
 40
0.3552646950786472
 40
0.507511042262657
 40
0.6683292435347135
 40
0.8342491645265033
 40
1.0
 40
1.0
 40
1.0
 40
1.0
 10
130.0001802709347
 20
64.96572348183966
 30
0.0
 10
130.0001802709347
 20
64.92453610181744
 30
0.0
 10
130.0001802709347
 20
64.79583204570343
 30
0.0
 10
130.0001802709347
 20
64.5391149220362
 30
0.0
 10
130.0001802709347
 20
64.20538597017702
 30
0.0
 10
130.0001802709347
 20
63.87781741656942
 30
0.0
 10
130.0001802709347
 20
63.60403779887973
 30
0.0
 10
130.0001802709347
 20
63.41592425975917
 30
0.0
 10
130.0001802709347
 20
63.39198659476943
 30
0.0
 10
130.0001802709347
 20
63.38002386397695
 30
0.0
  0
SPLINE
  5
1E8
330
1F
100
AcDbEntity
  8
0
  6
Continuous
 62
     7
370
    35
100
AcDbSpline
210
0.0
220
0.0
230
1.0
 70
     8
 71
     3
 72
    12
 73
     8
 74
     0
 42
0.000000001
 43
0.00000001
 40
0.0
 40
0.0
 40
0.0
 40
0.0
 40
0.1064126554847633
 40
0.32215069473455
 40
0.5468814311524088
 40
0.7748918974422446
 40
1.0
 40
1.0
 40
1.0
 40
1.0
 10
127.3690170463568
 20
164.3800236553607
 30
0.0
 10
127.3707284191804
 20
164.5470241867243
 30
0.0
 10
127.3759093813653
 20
165.0525969210455
 30
0.0
 10
127.4368868288027
 20
165.8801597681804
 30
0.0
 10
127.5750070556645
 20
166.7016632392915
 30
0.0
 10
127.7703401739836
 20
167.2707923411175
 30
0.0
 10
127.9238957854634
 20
167.3437681140952
 30
0.0
 10
128.0001818057543
 20
167.3800222844539
 30
0.0
  0
ARC
  5
1E9
330
1F
100
AcDbEntity
  8
0
  6
Continuous
 62
     7
370
    35
100
AcDbCircle
 10
128.0001811352
 20
165.3800229103
 30
0.0
 40
2.0
100
AcDbArc
 50
0.0000000001
 51
90.0
  0
SPLINE
  5
1EA
330
1F
100
AcDbEntity
  8
0
  6
Continuous
 62
     7
370
    35
100
AcDbSpline
210
0.0
220
0.0
230
1.0
 70
    24
 71
     3
 72
    14
 73
    10
 74
     0
 42
0.000000001
 43
0.00000001
 40
0.0
 40
0.0
 40
0.0
 40
0.0
 40
0.1657508354734966
 40
0.3316707564652865
 40
0.492488957737343
 40
0.6447353049213528
 40
0.7900977592067886
 40
0.9328278873246432
 40
1.0
 40
1.0
 40
1.0
 40
1.0
 10
130.0001802709347
 20
165.3800219566283
 30
0.0
 10
130.0001802709347
 20
165.3680592258359
 30
0.0
 10
130.0001802709347
 20
165.3441215608461
 30
0.0
 10
130.0001802709347
 20
165.1560080217255
 30
0.0
 10
130.0001802709347
 20
164.8822284040359
 30
0.0
 10
130.0001802709347
 20
164.5546598504282
 30
0.0
 10
130.0001802709347
 20
164.2209308985691
 30
0.0
 10
130.0001802709347
 20
163.9642137749018
 30
0.0
 10
130.0001802709347
 20
163.8355097187878
 30
0.0
 10
130.0001802709347
 20
163.7943223387656
 30
0.0
  0
SPLINE
  5
1EB
330
1F
100
AcDbEntity
  8
0
  6
Continuous
 62
     7
370
    35
100
AcDbSpline
210
0.0
220
0.0
230
1.0
 70
     8
 71
     3
 72
    12
 73
     8
 74
     0
 42
0.000000001
 43
0.00000001
 40
0.0
 40
0.0
 40
0.0
 40
0.0
 40
0.1382569358678798
 40
0.352927414293629
 40
0.5684184392872976
 40
0.7843009364029727
 40
1.0
 40
1.0
 40
1.0
 40
1.0
 10
111.2737606134659
 20
64.38002216524458
 30
0.0
 10
111.2877726238617
 20
64.1632958544918
 30
0.0
 10
111.323540974773
 20
63.61006027189167
 30
0.0
 10
111.6788324231159
 20
62.76755118879912
 30
0.0
 10
112.3581348451306
 20
62.00143142751224
 30
0.0
 10
113.2615286895174
 20
61.48022166370497
 30
0.0
 10
113.9398947848412
 20
61.41341344691928
 30
0.0
 10
114.2789336707836
 20
61.38002353615141
 30
0.0
  0
SPLINE
  5
1EC
330
1F
100
AcDbEntity
  8
0
  6
Continuous
 62
     7
370
    35
100
AcDbSpline
210
0.0
220
0.0
230
1.0
 70
    24
 71
     3
 72
    12
 73
     8
 74
     0
 42
0.000000001
 43
0.00000001
 40
0.0
 40
0.0
 40
0.0
 40
0.0
 40
0.1088404618961222
 40
0.4224408439357044
 40
0.7356891133819392
 40
0.9159384741745291
 40
1.0
 40
1.0
 40
1.0
 40
1.0
 10
128.0001818057543
 20
61.3800235361514
 30
0.0
 10
127.6066839675582
 20
61.38002353615141
 30
0.0
 10
126.0794067403347
 20
61.3800235361514
 30
0.0
 10
123.5295053942175
 20
61.38002353615142
 30
0.0
 10
120.9824678351801
 20
61.3800235361514
 30
0.0
 10
119.3646248864026
 20
61.38002353615141
 30
0.0
 10
118.6949669625282
 20
61.3800235361514
 30
0.0
 10
118.481988724733
 20
61.38002353615141
 30
0.0
  0
SPLINE
  5
1ED
330
1F
100
AcDbEntity
  8
0
  6
Continuous
 62
     7
370
    35
100
AcDbSpline
210
0.0
220
0.0
230
1.0
 70
     8
 71
     3
 72
    12
 73
     8
 74
     0
 42
0.000000001
 43
0.00000001
 40
0.0
 40
0.0
 40
0.0
 40
0.0
 40
0.2177510773957325
 40
0.3577672743158887
 40
0.6242376975289402
 40
0.6995337559270878
 40
0.9999999999999999
 40
0.9999999999999999
 40
0.9999999999999999
 40
0.9999999999999999
 10
115.228104111219
 20
61.38002353615141
 30
0.0
 10
115.2152396297248
 20
61.39247032965859
 30
0.0
 10
115.194103153457
 20
61.41292054023982
 30
0.0
 10
115.5692653413071
 20
61.48100227086082
 30
0.0
 10
116.1239521436644
 20
61.48408589412225
 30
0.0
 10
117.1092611832518
 20
61.42965744319189
 30
0.0
 10
117.8720495397751
 20
61.40207719493784
 30
0.0
 10
118.481988724733
 20
61.38002353615141
 30
0.0
  0
SPLINE
  5
1EE
330
1F
100
AcDbEntity
  8
0
  6
Continuous
 62
     7
370
    35
100
AcDbSpline
210
0.0
220
0.0
230
1.0
 70
    24
 71
     3
 72
     9
 73
     5
 74
     0
 42
0.000000001
 43
0.00000001
 40
0.0
 40
0.0
 40
0.0
 40
0.0
 40
0.4964391046202326
 40
1.0
 40
1.0
 40
1.0
 40
1.0
 10
115.228104111219
 20
61.38002353615141
 30
0.0
 10
115.0080881145433
 20
61.38002353615141
 30
0.0
 10
114.5648998269405
 20
61.38002353615141
 30
0.0
 10
114.3747072268033
 20
61.3800235361514
 30
0.0
 10
114.2789336707836
 20
61.38002353615141
 30
0.0
  0
SPLINE
  5
1EF
330
1F
100
AcDbEntity
  8
0
  6
Continuous
 62
     7
370
    35
100
AcDbSpline
210
0.0
220
0.0
230
1.0
 70
     8
 71
     3
 72
    12
 73
     8
 74
     0
 42
0.000000001
 43
0.00000001
 40
0.0
 40
0.0
 40
0.0
 40
0.0
 40
0.2156990635970271
 40
0.4315815607127023
 40
0.6470725857063709
 40
0.8617430641321202
 40
1.0
 40
1.0
 40
1.0
 40
1.0
 10
114.2789336707836
 20
167.3800222844539
 30
0.0
 10
113.9398947848412
 20
167.346632373686
 30
0.0
 10
113.2615286895174
 20
167.2798241569003
 30
0.0
 10
112.3581348451306
 20
166.7586143930931
 30
0.0
 10
111.6788324231159
 20
165.9924946318062
 30
0.0
 10
111.3235409747731
 20
165.1499855487136
 30
0.0
 10
111.2877726238617
 20
164.5967499661135
 30
0.0
 10
111.2737606134659
 20
164.3800236553607
 30
0.0
  0
SPLINE
  5
1F0
330
1F
100
AcDbEntity
  8
0
  6
Continuous
 62
     7
370
    35
100
AcDbSpline
210
0.0
220
0.0
230
1.0
 70
    24
 71
     3
 72
     9
 73
     5
 74
     0
 42
0.000000001
 43
0.00000001
 40
0.0
 40
0.0
 40
0.0
 40
0.0
 40
0.4965072389372587
 40
1.0
 40
1.0
 40
1.0
 40
1.0
 10
114.2789336707836
 20
167.3800222844539
 30
0.0
 10
114.3730671260307
 20
167.3800222844539
 30
0.0
 10
114.5626584307791
 20
167.3800222844539
 30
0.0
 10
115.0052582873754
 20
167.3800222844539
 30
0.0
 10
115.228104111219
 20
167.3800222844539
 30
0.0
  0
SPLINE
  5
1F1
330
1F
100
AcDbEntity
  8
0
  6
Continuous
 62
     7
370
    35
100
AcDbSpline
210
0.0
220
0.0
230
1.0
 70
     8
 71
     3
 72
    12
 73
     8
 74
     0
 42
0.000000001
 43
0.00000001
 40
0.0
 40
0.0
 40
0.0
 40
0.0
 40
0.2177588516393659
 40
0.3577645850640978
 40
0.6244279988080437
 40
0.6995507733267354
 40
1.0
 40
1.0
 40
1.0
 40
1.0
 10
118.481988724733
 20
167.3800222844539
 30
0.0
 10
118.0367698182968
 20
167.3674596372511
 30
0.0
 10
117.305302159808
 20
167.3468199698852
 30
0.0
 10
116.2776970570661
 20
167.278604933858
 30
0.0
 10
115.6978576731185
 20
167.276233152089
 30
0.0
 10
115.2253536509145
 20
167.3308315937367
 30
0.0
 10
115.2268817033457
 20
167.3581600937766
 30
0.0
 10
115.228104111219
 20
167.3800222844539
 30
0.0
  0
SPLINE
  5
1F2
330
1F
100
AcDbEntity
  8
0
  6
Continuous
 62
     7
370
    35
100
AcDbSpline
210
0.0
220
0.0
230
1.0
 70
    24
 71
     3
 72
    11
 73
     7
 74
     0
 42
0.000000001
 43
0.00000001
 40
0.0
 40
0.0
 40
0.0
 40
0.0
 40
0.0840828276401612
 40
0.3919942033921228
 40
0.7098471977838444
 40
1.0
 40
1.0
 40
1.0
 40
1.0
 10
118.481988724733
 20
167.3800222844539
 30
0.0
 10
118.6950312533425
 20
167.3800222844539
 30
0.0
 10
119.6882356761089
 20
167.3800222844539
 30
0.0
 10
121.7625074510081
 20
167.3800222844539
 30
0.0
 10
124.7750996191969
 20
167.3800222844539
 30
0.0
 10
126.9583094292806
 20
167.3800222844539
 30
0.0
 10
128.0001818057543
 20
167.3800222844539
 30
0.0
  0
ARC
  5
1F3
330
1F
100
AcDbEntity
  8
0
  6
Continuous
 62
     7
370
    35
100
AcDbCircle
 10
90.9056155593
 20
106.9929213013
 30
0.0
 40
1.000000000000024
100
AcDbArc
 50
95.0
 51
186.2829510183
  0
ARC
  5
1F4
330
1F
100
AcDbEntity
  8
0
  6
Continuous
 62
     7
370
    35
100
AcDbCircle
 10
90.9056155593
 20
121.7671245193
 30
0.0
 40
1.000000000000011
100
AcDbArc
 50
173.7170489817
 51
265.0
  0
CIRCLE
  5
1F5
330
1F
100
AcDbEntity
  8
0
  6
Continuous
 62
     7
370
    35
100
AcDbCircle
 10
139.0001811352
 20
107.8800229103
 30
0.0
 40
1.5
  0
CIRCLE
  5
1F6
330
1F
100
AcDbEntity
  8
0
  6
Continuous
 62
     7
370
    35
100
AcDbCircle
 10
139.0001811352
 20
92.8800229103
 30
0.0
 40
1.5
  0
ARC
  5
1F7
330
1F
100
AcDbEntity
  8
0
  6
Continuous
 62
     7
370
    35
100
AcDbCircle
 10
142.5001811352
 20
82.3800229103
 30
0.0
 40
2.0
100
AcDbArc
 50
270.0
 51
0.0
  0
LINE
  5
1F8
330
1F
100
AcDbEntity
  8
0
  6
Continuous
 62
     7
370
    35
100
AcDbLine
 10
132.0001805988
 20
80.3800210626
 30
0.0
 11
142.5001813885
 21
80.3800210626
 31
0.0
  0
ARC
  5
1F9
330
1F
100
AcDbEntity
  8
0
  6
Continuous
 62
     7
370
    35
100
AcDbCircle
 10
132.0001811352
 20
78.3800229103
 30
0.0
 40
2.0
100
AcDbArc
 50
90.0
 51
180.0
  0
ARC
  5
1FA
330
1F
100
AcDbEntity
  8
0
  6
Continuous
 62
     7
370
    35
100
AcDbCircle
 10
132.0001811352
 20
122.3800229103
 30
0.0
 40
2.0
100
AcDbArc
 50
180.0
 51
270.0
  0
LINE
  5
1FB
330
1F
100
AcDbEntity
  8
0
  6
Continuous
 62
     7
370
    35
100
AcDbLine
 10
142.5001813885
 20
120.3800229625
 30
0.0
 11
132.0001805988
 21
120.3800229625
 31
0.0
  0
ARC
  5
1FC
330
1F
100
AcDbEntity
  8
0
  6
Continuous
 62
     7
370
    35
100
AcDbCircle
 10
142.5001811352
 20
118.3800229103
 30
0.0
 40
2.0
100
AcDbArc
 50
0.0
 51
90.0
  0
LINE
  5
1FD
330
1F
100
AcDbEntity
  8
0
  6
Continuous
 62
     7
370
    35
100
AcDbLine
 10
144.500180785
 20
82.3800213904
 30
0.0
 11
144.500180785
 21
118.3800231003
 31
0.0
  0
LINE
  5
1FE
330
1F
100
AcDbEntity
  8
0
  6
Continuous
 62
     7
370
    35
100
AcDbLine
 10
93.674468514
 20
109.6415565618
 30
0.0
 11
93.7922025886
 21
108.2492851921
 31
0.0
  0
ARC
  5
1FF
330
1F
100
AcDbEntity
  8
0
  6
Continuous
 62
     7
370
    35
100
AcDbCircle
 10
158.0001811352
 20
114.3800229103
 30
0.0
 40
64.49999999999999
100
AcDbArc
 50
241.1029822959
 51
118.725913151
  0
LINE
  5
200
330
1F
100
AcDbEntity
  8
0
  6
Continuous
 62
     7
370
    35
100
AcDbLine
 10
93.7922025886
 20
120.5107606285
 30
0.0
 11
93.674468514
 21
119.1184892588
 31
0.0
  0
CIRCLE
  5
201
330
1F
100
AcDbEntity
  8
0
  6
Continuous
 62
     7
370
    35
100
AcDbCircle
 10
158.0001811352
 20
114.3800229103
 30
0.0
 40
72.0
  0
CIRCLE
  5
202
330
1F
100
AcDbEntity
  8
0
  6
Continuous
 62
     7
370
    35
100
AcDbCircle
 10
158.0001811352
 20
114.3800229103
 30
0.0
 40
73.0
  0
LINE
  5
203
330
1F
100
AcDbEntity
  8
0
  6
Continuous
 62
     7
370
    35
100
AcDbLine
 10
134.5001819399
 20
182.4369862945
 30
0.0
 11
134.4779047039
 21
175.8783258767
 31
0.0
  0
ARC
  5
204
330
1F
100
AcDbEntity
  8
0
  6
Continuous
 62
     7
370
    35
100
AcDbCircle
 10
133.9779072572
 20
175.8800229103
 30
0.0
 40
0.5
100
AcDbArc
 50
270.0
 51
359.8053932355
  0
ARC
  5
205
330
1F
100
AcDbEntity
  8
0
  6
Continuous
 62
     7
370
    35
100
AcDbCircle
 10
127.7144005901
 20
175.8800229103
 30
0.0
 40
0.5000000000000338
100
AcDbArc
 50
201.4353932355
 51
270.0
  0
LINE
  5
206
330
1F
100
AcDbEntity
  8
0
  6
Continuous
 62
     7
370
    35
100
AcDbLine
 10
127.2489863303
 20
175.6972953946
 30
0.0
 11
126.0001796153
 21
178.8780823619
 31
0.0
  0
LINE
  5
207
330
1F
100
AcDbEntity
  8
0
  6
Continuous
 62
     7
370
    35
100
AcDbLine
 10
133.9779074159
 20
175.3800235958
 30
0.0
 11
127.7143998858
 21
175.3800235958
 31
0.0
  0
ARC
  5
208
330
1F
100
AcDbEntity
  8
0
  6
Continuous
 62
     7
370
    35
100
AcDbCircle
 10
116.3348478232
 20
59.3800229103
 30
0.0
 40
3.000000000000005
100
AcDbArc
 50
232.8541958285
 51
270.0
  0
LINE
  5
209
330
1F
100
AcDbEntity
  8
0
  6
Continuous
 62
     7
370
    35
100
AcDbLine
 10
125.4039916065
 20
56.3800245792
 30
0.0
 11
116.3348468807
 21
56.3800245792
 31
0.0
  0
ARC
  5
20A
330
1F
100
AcDbEntity
  8
0
  6
Continuous
 62
     7
370
    35
100
AcDbCircle
 10
125.4039915627
 20
53.3800229103
 30
0.0
 40
3.000000000000007
100
AcDbArc
 50
32.546164558
 51
90.0
  0
LINE
  5
20B
330
1F
100
AcDbEntity
  8
0
  6
Continuous
 62
     7
370
    35
100
AcDbLine
 10
132.2369637754
 20
48.2498765261
 30
0.0
 11
127.9328658101
 21
54.9939595432
 31
0.0
  0
LINE
  5
20C
330
1F
100
AcDbEntity
  8
0
  6
Continuous
 62
     7
370
    35
100
AcDbLine
 10
127.089908984
 20
54.4559791953
 30
0.0
 11
131.3940050867
 21
47.7118999035
 31
0.0
  0
ARC
  5
20D
330
1F
100
AcDbEntity
  8
0
  6
Continuous
 62
     7
370
    35
100
AcDbCircle
 10
125.4039915627
 20
53.3800229103
 30
0.0
 40
2.000000000000012
100
AcDbArc
 50
32.546164558
 51
90.0
  0
LINE
  5
20E
330
1F
100
AcDbEntity
  8
0
  6
Continuous
 62
     7
370
    35
100
AcDbLine
 10
116.7327600386
 20
55.3800225527
 30
0.0
 11
125.4039916065
 21
55.3800225527
 31
0.0
  0
ARC
  5
20F
330
1F
100
AcDbEntity
  8
0
  6
Continuous
 62
     7
370
    35
100
AcDbCircle
 10
136.4517547363
 20
50.9397729129
 30
0.0
 40
5.000000000000005
100
AcDbArc
 50
212.546164558
 51
251.2391786552
  0
ARC
  5
210
330
1F
100
AcDbEntity
  8
0
  6
Continuous
 62
     7
370
    35
100
AcDbCircle
 10
136.4517547363
 20
50.9397729129
 30
0.0
 40
6.000000000000032
100
AcDbArc
 50
212.546164558
 51
216.2891255574
  0
LINE
  5
211
330
1F
100
AcDbEntity
  8
0
  6
Continuous
 62
     7
370
    35
100
AcDbLine
 10
134.5001353737
 20
182.4236646563
 30
0.0
 11
134.8436630186
 21
182.5546235115
 31
0.0
  0
LINE
  5
212
330
1F
100
AcDbEntity
  8
0
  6
Continuous
 62
     7
370
    35
100
AcDbLine
 10
128.9628862258
 20
175.3800235958
 30
0.0
 11
127.9328658101
 21
173.7660862774
 31
0.0
  0
ARC
  5
213
330
1F
100
AcDbEntity
  8
0
  6
Continuous
 62
     7
370
    35
100
AcDbCircle
 10
125.4039915627
 20
175.3800229103
 30
0.0
 40
3.0
100
AcDbArc
 50
270.0
 51
327.453835442
  0
ARC
  5
214
330
1F
100
AcDbEntity
  8
0
  6
Continuous
 62
     7
370
    35
100
AcDbCircle
 10
116.3348478232
 20
169.3800229103
 30
0.0
 40
3.000000000000005
100
AcDbArc
 50
90.0
 51
127.1458041715
  0
LINE
  5
215
330
1F
100
AcDbEntity
  8
0
  6
Continuous
 62
     7
370
    35
100
AcDbLine
 10
116.7327600386
 20
173.3800232679
 30
0.0
 11
125.4039916065
 21
173.3800232679
 31
0.0
  0
ARC
  5
216
330
1F
100
AcDbEntity
  8
0
  6
Continuous
 62
     7
370
    35
100
AcDbCircle
 10
125.4039915627
 20
175.3800229103
 30
0.0
 40
2.000000000000004
100
AcDbArc
 50
270.0
 51
327.453835442
  0
LINE
  5
217
330
1F
100
AcDbEntity
  8
0
  6
Continuous
 62
     7
370
    35
100
AcDbLine
 10
127.089908984
 20
174.3040666253
 30
0.0
 11
127.7765880194
 21
175.3800235958
 31
0.0
  0
LINE
  5
218
330
1F
100
AcDbEntity
  8
0
  6
Continuous
 62
     7
370
    35
100
AcDbLine
 10
125.4039916065
 20
172.3800212414
 30
0.0
 11
116.3348468807
 21
172.3800212414
 31
0.0
  0
ARC
  5
219
330
1F
100
AcDbEntity
  8
0
  6
Continuous
 62
     7
370
    35
100
AcDbCircle
 10
93.0001811352
 20
118.3800229103
 30
0.0
 40
1.0
100
AcDbArc
 50
0.0
 51
90.0
  0
LINE
  5
21A
330
1F
100
AcDbEntity
  8
0
  6
Continuous
 62
     7
370
    35
100
AcDbLine
 10
94.0001780954
 20
110.3800227203
 30
0.0
 11
94.0001780954
 21
118.3800231003
 31
0.0
  0
ARC
  5
21B
330
1F
100
AcDbEntity
  8
0
  6
Continuous
 62
     7
370
    35
100
AcDbCircle
 10
93.0001811352
 20
110.3800229103
 30
0.0
 40
1.0
100
AcDbArc
 50
270.0
 51
0.0
  0
LINE
  5
21C
330
1F
100
AcDbEntity
  8
0
  6
Continuous
 62
     7
370
    35
100
AcDbLine
 10
93.0001835194
 20
119.3800227985
 30
0.0
 11
86.1739988294
 21
119.3800227985
 31
0.0
  0
LINE
  5
21D
330
1F
100
AcDbEntity
  8
0
  6
Continuous
 62
     7
370
    35
100
AcDbLine
 10
93.0001835194
 20
109.3800230221
 30
0.0
 11
86.1739988294
 21
109.3800230221
 31
0.0
  0
CIRCLE
  5
21E
330
1F
100
AcDbEntity
  8
0
  6
Continuous
 62
     7
370
    35
100
AcDbCircle
 10
158.0001811352
 20
114.3800229103
 30
0.0
 40
85.00000000000001
  0
CIRCLE
  5
21F
330
1F
100
AcDbEntity
  8
0
  6
Continuous
 62
     7
370
    35
100
AcDbCircle
 10
158.0001811352
 20
114.3800229103
 30
0.0
 40
84.91254499009452
  0
CIRCLE
  5
220
330
1F
100
AcDbEntity
  8
0
  6
Continuous
 62
     7
370
    35
100
AcDbCircle
 10
158.0001811352
 20
114.3800229103
 30
0.0
 40
73.54372750495276
  0
LINE
  5
221
330
1F
100
AcDbEntity
  8
0
  6
Continuous
 62
     8
370
    35
100
AcDbLine
 10
90.4349337187
 20
109.3800230221
 30
0.0
 11
90.557860848
 21
107.9305079103
 31
0.0
  0
LWPOLYLINE
  5
222
330
1F
100
AcDbEntity
  8
0
  6
Continuous
 62
     8
370
    35
100
AcDbPolyline
 90
        3
 70
   128
 43
0.0
 10
115.8123749163
 20
61.3682180912
 10
116.2174778846
 20
61.0483423144
 10
117.1264077392
 20
60.3485763342
  0
LWPOLYLINE
  5
223
330
1F
100
AcDbEntity
  8
0
  6
Continuous
 62
     8
370
    35
100
AcDbPolyline
 90
        3
 70
   128
 43
0.0
 10
126.0835888651
 20
54.6188824148
 10
126.5151860979
 20
54.3903768331
 10
127.4337868061
 20
53.9171569318
  0
ARC
  5
224
330
1F
100
AcDbEntity
  8
0
  6
Continuous
 62
     8
370
    35
100
AcDbCircle
 10
158.0001811352
 20
114.3800229103
 30
0.0
 40
67.74999999999999
100
AcDbArc
 50
244.8026861322
 51
110.3094303421
  0
LWPOLYLINE
  5
225
330
1F
100
AcDbEntity
  8
0
  6
Continuous
 62
     8
370
    35
100
AcDbPolyline
 90
        3
 70
   128
 43
0.0
 10
127.4337868061
 20
174.8428888888
 10
126.5151860979
 20
174.3696689875
 10
126.0835888651
 20
174.1411634058
  0
LWPOLYLINE
  5
226
330
1F
100
AcDbEntity
  8
0
  6
Continuous
 62
     8
370
    35
100
AcDbPolyline
 90
        3
 70
   128
 43
0.0
 10
117.0001800027
 20
168.3157481522
 10
116.2174778846
 20
167.7117035062
 10
115.8034416702
 20
167.3847161502
  0
LINE
  5
227
330
1F
100
AcDbEntity
  8
0
  6
Continuous
 62
     8
370
    35
100
AcDbLine
 10
90.557860848
 20
120.8295379103
 30
0.0
 11
90.4349337187
 21
119.3800227985
 31
0.0
  0
LINE
  5
228
330
1F
100
AcDbEntity
  8
0
  6
Continuous
 62
     7
370
    35
100
AcDbLine
 10
-23.1790300985
 20
254.6643034244
 30
0.0
 11
-20.6790287574
 21
254.8830245311
 31
0.0
  0
LINE
  5
229
330
1F
100
AcDbEntity
  8
0
  6
Continuous
 62
     7
370
    35
100
AcDbLine
 10
-20.6790287574
 20
262.7455812568
 30
0.0
 11
-23.1790300985
 21
262.9643032948
 31
0.0
  0
ARC
  5
22A
330
1F
100
AcDbEntity
  8
0
  6
Continuous
 62
     7
370
    35
100
AcDbCircle
 10
-29.9383738285
 20
258.8143031622
 30
0.0
 40
10.05934337242008
100
AcDbArc
 50
336.9951750594
 51
345.3853489006
  0
ARC
  5
22B
330
1F
100
AcDbEntity
  8
0
  6
Continuous
 62
     7
370
    35
100
AcDbCircle
 10
-29.9383738285
 20
258.8143031622
 30
0.0
 40
10.05934337242008
100
AcDbArc
 50
14.6146510994
 51
23.0048249406
  0
LINE
  5
22C
330
1F
100
AcDbEntity
  8
0
  6
Continuous
 62
     7
370
    35
100
AcDbLine
 10
-141.1790308137
 20
262.9643032948
 30
0.0
 11
-143.6790321548
 21
262.7455812568
 31
0.0
  0
LINE
  5
22D
330
1F
100
AcDbEntity
  8
0
  6
Continuous
 62
     7
370
    35
100
AcDbLine
 10
-143.6790321548
 20
254.8830245311
 30
0.0
 11
-141.1790308137
 21
254.6643034244
 31
0.0
  0
ARC
  5
22E
330
1F
100
AcDbEntity
  8
0
  6
Continuous
 62
     7
370
    35
100
AcDbCircle
 10
-134.4196870837
 20
258.8143031622
 30
0.0
 40
10.05934337242007
100
AcDbArc
 50
194.6146510994
 51
203.0048249406
  0
ARC
  5
22F
330
1F
100
AcDbEntity
  8
0
  6
Continuous
 62
     7
370
    35
100
AcDbCircle
 10
-134.4196870837
 20
258.8143031622
 30
0.0
 40
10.05934337242007
100
AcDbArc
 50
156.9951750594
 51
165.3853489006
  0
LINE
  5
230
330
1F
100
AcDbEntity
  8
0
  6
Continuous
 62
     7
370
    35
100
AcDbLine
 10
2.820970438
 20
270.8104716536
 30
0.0
 11
-8.5478481431
 21
271.8085558678
 31
0.0
  0
LINE
  5
231
330
1F
100
AcDbEntity
  8
0
  6
Continuous
 62
     7
370
    35
100
AcDbLine
 10
-155.8102127691
 20
271.8085558678
 30
0.0
 11
-167.1790313502
 21
270.8104716536
 31
0.0
  0
LINE
  5
232
330
1F
100
AcDbEntity
  8
0
  6
Continuous
 62
     7
370
    35
100
AcDbLine
 10
-167.1790313502
 20
270.8104716536
 30
0.0
 11
-167.0915764351
 21
269.8143030672
 31
0.0
  0
LINE
  5
233
330
1F
100
AcDbEntity
  8
0
  6
Continuous
 62
     7
370
    35
100
AcDbLine
 10
2.7335155229
 20
269.8143030672
 30
0.0
 11
2.820970438
 21
270.8104716536
 31
0.0
  0
ARC
  5
234
330
1F
100
AcDbEntity
  8
0
  6
Continuous
 62
     7
370
    35
100
AcDbCircle
 10
-155.6790304561
 20
270.3143031622
 30
0.0
 40
1.500000000000057
100
AcDbArc
 50
90.0
 51
95.0172124693
  0
ARC
  5
235
330
1F
100
AcDbEntity
  8
0
  6
Continuous
 62
     7
370
    35
100
AcDbCircle
 10
-8.6790304561
 20
270.3143031622
 30
0.0
 40
1.500000000000057
100
AcDbArc
 50
84.9827875307
 51
90.0
  0
LINE
  5
236
330
1F
100
AcDbEntity
  8
0
  6
Continuous
 62
     7
370
    35
100
AcDbLine
 10
-8.6790305157
 20
271.8143031622
 30
0.0
 11
-155.6790303965
 21
271.8143031622
 31
0.0
  0
LINE
  5
237
330
1F
100
AcDbEntity
  8
0
  6
Continuous
 62
     7
370
    35
100
AcDbLine
 10
-155.1790293832
 20
269.8143030672
 30
0.0
 11
-155.1790293832
 21
235.8143047119
 31
0.0
  0
LINE
  5
238
330
1F
100
AcDbEntity
  8
0
  6
Continuous
 62
     7
370
    35
100
AcDbLine
 10
-9.179031529
 20
235.8143047119
 30
0.0
 11
-9.179031529
 21
269.8143030672
 31
0.0
  0
LINE
  5
239
330
1F
100
AcDbEntity
  8
0
  6
Continuous
 62
     7
370
    35
100
AcDbLine
 10
-20.6790287574
 20
254.8830245311
 30
0.0
 11
-20.6790287574
 21
262.7455812568
 31
0.0
  0
LINE
  5
23A
330
1F
100
AcDbEntity
  8
0
  6
Continuous
 62
     7
370
    35
100
AcDbLine
 10
-20.2137660761
 20
259.2846366266
 30
0.0
 11
-19.901046582
 21
259.2846366266
 31
0.0
  0
ARC
  5
23B
330
1F
100
AcDbEntity
  8
0
  6
Continuous
 62
     7
370
    35
100
AcDbCircle
 10
-32.1491439888
 20
258.8143033596
 30
0.0
 40
11.94464144713818
100
AcDbArc
 50
357.7433328676
 51
2.2566671324
  0
LINE
  5
23C
330
1F
100
AcDbEntity
  8
0
  6
Continuous
 62
     7
370
    35
100
AcDbLine
 10
-19.901046582
 20
258.3439700926
 30
0.0
 11
-20.2137660761
 21
258.3439700926
 31
0.0
  0
ARC
  5
23D
330
1F
100
AcDbEntity
  8
0
  6
Continuous
 62
     7
370
    35
100
AcDbCircle
 10
-29.9383738285
 20
258.8143031622
 30
0.0
 40
10.04834193485714
100
AcDbArc
 50
345.4165997846
 51
357.317172827
  0
ARC
  5
23E
330
1F
100
AcDbEntity
  8
0
  6
Continuous
 62
     7
370
    35
100
AcDbCircle
 10
-20.550181991
 20
255.8892660914
 30
0.0
 40
0.5188266058536395
100
AcDbArc
 50
48.2204090984
 51
49.5776545747
  0
ARC
  5
23F
330
1F
100
AcDbEntity
  8
0
  6
Continuous
 62
     7
370
    35
100
AcDbCircle
 10
-19.358351737
 20
260.3732785
 30
0.0
 40
1.294118146354854
100
AcDbArc
 50
130.8321640638
 51
131.3763155605
  0
ARC
  5
240
330
1F
100
AcDbEntity
  8
0
  6
Continuous
 62
     7
370
    35
100
AcDbCircle
 10
-29.9383738285
 20
258.8143031622
 30
0.0
 40
10.04834193485712
100
AcDbArc
 50
2.682827173
 51
14.5834002154
  0
LINE
  5
241
330
1F
100
AcDbEntity
  8
0
  6
Continuous
 62
     7
370
    35
100
AcDbLine
 10
-143.6790321548
 20
262.7455812568
 30
0.0
 11
-143.6790321548
 21
254.8830245311
 31
0.0
  0
ARC
  5
242
330
1F
100
AcDbEntity
  8
0
  6
Continuous
 62
     7
370
    35
100
AcDbCircle
 10
-134.4196870837
 20
258.8143031622
 30
0.0
 40
10.04834193485716
100
AcDbArc
 50
165.4165997846
 51
177.317172827
  0
LWPOLYLINE
  5
243
330
1F
100
AcDbEntity
  8
0
  6
Continuous
 62
     7
370
    35
100
AcDbPolyline
 90
        5
 70
   128
 43
0.0
 10
-144.1442948361
 20
261.3443645338
 10
-144.1483442266
 20
261.347898903
 10
-144.1512425025
 20
261.3504246498
 10
-144.1529784878
 20
261.3519389803
 10
-144.1535559078
 20
261.3524446885
  0
ARC
  5
244
330
1F
100
AcDbEntity
  8
0
  6
Continuous
 62
     7
370
    35
100
AcDbCircle
 10
-143.8078789213
 20
255.8892660914
 30
0.0
 40
0.5188266058536348
100
AcDbArc
 50
130.4223454253
 51
131.7795909016
  0
ARC
  5
245
330
1F
100
AcDbEntity
  8
0
  6
Continuous
 62
     7
370
    35
100
AcDbCircle
 10
-134.4196870837
 20
258.8143031622
 30
0.0
 40
10.04834193485712
100
AcDbArc
 50
182.682827173
 51
194.5834002154
  0
LINE
  5
246
330
1F
100
AcDbEntity
  8
0
  6
Continuous
 62
     7
370
    35
100
AcDbLine
 10
-144.1442948361
 20
258.3439700926
 30
0.0
 11
-144.4570143302
 21
258.3439700926
 31
0.0
  0
ARC
  5
247
330
1F
100
AcDbEntity
  8
0
  6
Continuous
 62
     7
370
    35
100
AcDbCircle
 10
-132.2089169234
 20
258.8143033596
 30
0.0
 40
11.94464144713819
100
AcDbArc
 50
177.7433328676
 51
182.2566671324
  0
LINE
  5
248
330
1F
100
AcDbEntity
  8
0
  6
Continuous
 62
     7
370
    35
100
AcDbLine
 10
-144.4570143302
 20
259.2846366266
 30
0.0
 11
-144.1442948361
 21
259.2846366266
 31
0.0
  0
SPLINE
  5
249
330
1F
100
AcDbEntity
  8
0
  6
Continuous
 62
     7
370
    35
100
AcDbSpline
210
0.0
220
0.0
230
1.0
 70
     8
 71
     3
 72
     9
 73
     5
 74
     0
 42
0.000000001
 43
0.00000001
 40
0.0
 40
0.0
 40
0.0
 40
0.0
 40
0.6281683848842279
 40
1.0
 40
1.0
 40
1.0
 40
1.0
 10
-121.1298090000622
 20
235.814304711905
 30
0.0
 10
-119.9398838261674
 20
235.1702648650982
 30
0.0
 10
-118.045606427737
 20
234.1449986111694
 30
0.0
 10
-116.044622890711
 20
233.3512051322096
 30
0.0
 10
-115.3005939503186
 20
233.0560476208596
 30
0.0
  0
LINE
  5
24A
330
1F
100
AcDbEntity
  8
0
  6
Continuous
 62
     7
370
    35
100
AcDbLine
 10
-89.6757087265
 20
258.3102403829
 30
0.0
 11
-89.6755704251
 21
258.4522465865
 31
0.0
  0
LINE
  5
24B
330
1F
100
AcDbEntity
  8
0
  6
Continuous
 62
     7
370
    35
100
AcDbLine
 10
-89.6571525899
 20
227.1220885838
 30
0.0
 11
-89.6579018389
 21
227.1238431955
 31
0.0
  0
SPLINE
  5
24C
330
1F
100
AcDbEntity
  8
0
  6
Continuous
 62
     7
370
    35
100
AcDbSpline
210
0.0
220
0.0
230
1.0
 70
     8
 71
     3
 72
    13
 73
     9
 74
     0
 42
0.000000001
 43
0.00000001
 40
0.0
 40
0.0
 40
0.0
 40
0.0
 40
0.2521509645030039
 40
0.399414119301441
 40
0.5466780086229205
 40
0.6963701267040662
 40
0.8460620082445056
 40
1.0
 40
1.0
 40
1.0
 40
1.0
 10
-89.65715258987474
 20
227.1220885837941
 30
0.0
 10
-91.93326001724036
 20
227.3581780241902
 30
0.0
 10
-95.53867729307186
 20
227.7321502439596
 30
0.0
 10
-100.3554866293376
 20
228.622143107266
 30
0.0
 10
-104.1994928766363
 20
229.488328229188
 30
0.0
 10
-107.9704671368983
 20
230.5189944511512
 30
0.0
 10
-111.7004730352092
 20
231.6992186437248
 30
0.0
 10
-114.0894175848485
 20
232.5995742890352
 30
0.0
 10
-115.3005939503186
 20
233.0560476208596
 30
0.0
  0
ARC
  5
24D
330
1F
100
AcDbEntity
  8
0
  6
Continuous
 62
     7
370
    35
100
AcDbCircle
 10
-89.4003356303
 20
333.8552344811
 30
0.0
 40
75.54549598507244
100
AcDbArc
 50
269.7911490164
 51
270.6298300543
  0
ARC
  5
24E
330
1F
100
AcDbEntity
  8
0
  6
Continuous
 62
     7
370
    35
100
AcDbCircle
 10
-89.5748019653
 20
228.1203551236
 30
0.0
 40
0.9999708054502127
100
AcDbArc
 50
265.2330914781
 51
354.9984732966
  0
LINE
  5
24F
330
1F
100
AcDbEntity
  8
0
  6
Continuous
 62
     7
370
    35
100
AcDbLine
 10
-74.6824904871
 20
258.4522465865
 30
0.0
 11
-74.6823521857
 21
258.3102403829
 31
0.0
  0
SPLINE
  5
250
330
1F
100
AcDbEntity
  8
0
  6
Continuous
 62
     7
370
    35
100
AcDbSpline
210
0.0
220
0.0
230
1.0
 70
     8
 71
     3
 72
     9
 73
     5
 74
     0
 42
0.000000001
 43
0.00000001
 40
0.0
 40
0.0
 40
0.0
 40
0.0
 40
0.5818149726052824
 40
1.0
 40
1.0
 40
1.0
 40
1.0
 10
-49.05746696190761
 20
233.0560476208596
 30
0.0
 10
-47.87316256304096
 20
233.5357878229474
 30
0.0
 10
-45.83762814981762
 20
234.3603458434116
 30
0.0
 10
-43.896130137932
 20
235.385570930694
 30
0.0
 10
-43.08422473864483
 20
235.814304711905
 30
0.0
  0
SPLINE
  5
251
330
1F
100
AcDbEntity
  8
0
  6
Continuous
 62
     7
370
    35
100
AcDbSpline
210
0.0
220
0.0
230
1.0
 70
     8
 71
     3
 72
    13
 73
     9
 74
     0
 42
0.000000001
 43
0.00000001
 40
0.0
 40
0.0
 40
0.0
 40
0.0
 40
0.1620411102385734
 40
0.3240840804867037
 40
0.4893805758446668
 40
0.6546762913170202
 40
0.8268549524152717
 40
0.9999999999999999
 40
0.9999999999999999
 40
0.9999999999999999
 40
0.9999999999999999
 10
-49.05746696190761
 20
233.0560476208596
 30
0.0
 10
-50.33332495992666
 20
232.5763164966724
 30
0.0
 10
-52.88505560106358
 20
231.6168487416431
 30
0.0
 10
-56.92449803140196
 20
230.3561827285028
 30
0.0
 10
-61.10497465559439
 20
229.2510017789564
 30
0.0
 10
-65.48370646733177
 20
228.3235420391282
 30
0.0
 10
-70.01741316513743
 20
227.5791025006176
 30
0.0
 10
-73.13683337655095
 20
227.274710502509
 30
0.0
 10
-74.70090832235145
 20
227.1220885837941
 30
0.0
  0
LINE
  5
252
330
1F
100
AcDbEntity
  8
0
  6
Continuous
 62
     7
370
    35
100
AcDbLine
 10
-74.7001590733
 20
227.1238431955
 30
0.0
 11
-74.7009083224
 21
227.1220885838
 31
0.0
  0
ARC
  5
253
330
1F
100
AcDbEntity
  8
0
  6
Continuous
 62
     7
370
    35
100
AcDbCircle
 10
-74.7832560741
 20
228.1203585332
 30
0.0
 40
0.9999739645618557
100
AcDbArc
 50
185.0017069719
 51
274.7667282534
  0
ARC
  5
254
330
1F
100
AcDbEntity
  8
0
  6
Continuous
 62
     7
370
    35
100
AcDbCircle
 10
-74.9577252819
 20
333.8552344811
 30
0.0
 40
75.54549598507244
100
AcDbArc
 50
269.3701699457
 51
270.2088509836
  0
LINE
  5
255
330
1F
100
AcDbEntity
  8
0
  6
Continuous
 62
     7
370
    35
100
AcDbLine
 10
-74.6824904871
 20
262.8143035496
 30
0.0
 11
-74.6824904871
 21
258.4522465865
 31
0.0
  0
LINE
  5
256
330
1F
100
AcDbEntity
  8
0
  6
Continuous
 62
     7
370
    35
100
AcDbLine
 10
-89.6755704251
 20
258.4522465865
 30
0.0
 11
-89.6755704251
 21
262.8143035496
 31
0.0
  0
ARC
  5
257
330
1F
100
AcDbEntity
  8
0
  6
Continuous
 62
     7
370
    35
100
AcDbCircle
 10
-74.7900235326
 20
262.8162027406
 30
0.0
 40
0.9981018600513233
100
AcDbArc
 50
90.1093717872
 51
180.1090226361
  0
ARC
  5
258
330
1F
100
AcDbEntity
  8
0
  6
Continuous
 62
     7
370
    35
100
AcDbCircle
 10
-77.0489439461
 20
263.0613106566
 30
0.0
 40
2.379309665477086
100
AcDbArc
 50
354.0411244764
 51
18.4498837005
  0
LINE
  5
259
330
1F
100
AcDbEntity
  8
0
  6
Continuous
 62
     7
370
    35
100
AcDbLine
 10
-75.7881235857
 20
262.8143035496
 30
0.0
 11
-74.6824904871
 21
262.8143035496
 31
0.0
  0
LINE
  5
25A
330
1F
100
AcDbEntity
  8
0
  6
Continuous
 62
     7
370
    35
100
AcDbLine
 10
-75.7881505941
 20
258.314302812
 30
0.0
 11
-75.7881235857
 21
258.4522465865
 31
0.0
  0
LINE
  5
25B
330
1F
100
AcDbEntity
  8
0
  6
Continuous
 62
     7
370
    35
100
AcDbLine
 10
-74.6824904871
 20
258.4522465865
 30
0.0
 11
-75.7881235857
 21
258.4522465865
 31
0.0
  0
LINE
  5
25C
330
1F
100
AcDbEntity
  8
0
  6
Continuous
 62
     7
370
    35
100
AcDbLine
 10
-75.7881235857
 20
258.4522465865
 30
0.0
 11
-75.7881235857
 21
262.8143035496
 31
0.0
  0
LINE
  5
25D
330
1F
100
AcDbEntity
  8
0
  6
Continuous
 62
     7
370
    35
100
AcDbLine
 10
-89.6755704251
 20
262.8143035496
 30
0.0
 11
-88.5699373265
 21
262.8143035496
 31
0.0
  0
LINE
  5
25E
330
1F
100
AcDbEntity
  8
0
  6
Continuous
 62
     7
370
    35
100
AcDbLine
 10
-88.5699373265
 20
262.8143035496
 30
0.0
 11
-88.5699373265
 21
258.4522465865
 31
0.0
  0
LINE
  5
25F
330
1F
100
AcDbEntity
  8
0
  6
Continuous
 62
     7
370
    35
100
AcDbLine
 10
-89.6755704251
 20
258.4522465865
 30
0.0
 11
-88.5699373265
 21
258.4522465865
 31
0.0
  0
LINE
  5
260
330
1F
100
AcDbEntity
  8
0
  6
Continuous
 62
     7
370
    35
100
AcDbLine
 10
-88.5699373265
 20
258.4522465865
 30
0.0
 11
-88.5699103181
 21
258.314302812
 31
0.0
  0
ARC
  5
261
330
1F
100
AcDbEntity
  8
0
  6
Continuous
 62
     7
370
    35
100
AcDbCircle
 10
-89.5680373796
 20
262.8162027406
 30
0.0
 40
0.9981018600513374
100
AcDbArc
 50
359.8909773639
 51
89.8906282128
  0
ARC
  5
262
330
1F
100
AcDbEntity
  8
0
  6
Continuous
 62
     7
370
    35
100
AcDbCircle
 10
-87.3091169662
 20
263.0613106566
 30
0.0
 40
2.379309665477086
100
AcDbArc
 50
161.5501162995
 51
185.9588755236
  0
LINE
  5
263
330
1F
100
AcDbEntity
  8
0
  6
Continuous
 62
     7
370
    35
100
AcDbLine
 10
-90.1790308361
 20
263.8143027822
 30
0.0
 11
-89.5661321064
 21
263.8143027822
 31
0.0
  0
LINE
  5
264
330
1F
100
AcDbEntity
  8
0
  6
Continuous
 62
     7
370
    35
100
AcDbLine
 10
-74.7919288059
 20
263.8143027822
 30
0.0
 11
-74.1790300761
 21
263.8143027822
 31
0.0
  0
LINE
  5
265
330
1F
100
AcDbEntity
  8
0
  6
Continuous
 62
     7
370
    35
100
AcDbLine
 10
-88.2662050952
 20
258.3136778946
 30
0.0
 11
-88.2662046296
 21
258.314302812
 31
0.0
  0
SPLINE
  5
266
330
1F
100
AcDbEntity
  8
0
  6
Continuous
 62
     7
370
    35
100
AcDbSpline
210
0.0
220
0.0
230
1.0
 70
     8
 71
     3
 72
    12
 73
     8
 74
     0
 42
0.000000001
 43
0.00000001
 40
0.0
 40
0.0
 40
0.0
 40
0.0
 40
0.0000039575242673
 40
0.2898981083903153
 40
0.5869888092800788
 40
0.9003517726555674
 40
1.0
 40
1.0
 40
1.0
 40
1.0
 10
-88.2662013699286
 20
231.6044994319348
 30
0.0
 10
-88.26620136992861
 20
231.6044994319273
 30
0.0
 10
-88.26620137073729
 20
231.6044988754677
 30
0.0
 10
-88.26585282107463
 20
231.852045263521
 30
0.0
 10
-88.26659007626004
 20
232.9668986841357
 30
0.0
 10
-88.2661055190644
 20
234.3234027973926
 30
0.0
 10
-88.26615535307911
 20
235.5245104982602
 30
0.0
 10
-88.26616737665462
 20
235.814304711905
 30
0.0
  0
SPLINE
  5
267
330
1F
100
AcDbEntity
  8
0
  6
Continuous
 62
     7
370
    35
100
AcDbSpline
210
0.0
220
0.0
230
1.0
 70
     8
 71
     3
 72
     9
 73
     5
 74
     0
 42
0.000000001
 43
0.00000001
 40
0.0
 40
0.0
 40
0.0
 40
0.0
 40
0.2478472373880692
 40
1.0
 40
1.0
 40
1.0
 40
1.0
 10
-88.26612174184847
 20
253.7143022442727
 30
0.0
 10
-88.26608716032099
 20
254.0888592671351
 30
0.0
 10
-88.26594763273208
 20
255.6001007351044
 30
0.0
 10
-88.26609457339404
 20
257.1488111086279
 30
0.0
 10
-88.2662050952189
 20
258.3136778945594
 30
0.0
  0
LINE
  5
268
330
1F
100
AcDbEntity
  8
0
  6
Continuous
 62
     7
370
    35
100
AcDbLine
 10
-88.5786386733
 20
228.0331753815
 30
0.0
 11
-88.2662013699
 21
231.6044994319
 31
0.0
  0
LINE
  5
269
330
1F
100
AcDbEntity
  8
0
  6
Continuous
 62
     7
370
    35
100
AcDbLine
 10
-88.2662046296
 20
258.314302812
 30
0.0
 11
-88.5699103181
 21
258.314302812
 31
0.0
  0
SPLINE
  5
26A
330
1F
100
AcDbEntity
  8
0
  6
Continuous
 62
     7
370
    35
100
AcDbSpline
210
0.0
220
0.0
230
1.0
 70
     8
 71
     3
 72
     9
 73
     5
 74
     0
 42
0.000000001
 43
0.00000001
 40
0.0
 40
0.0
 40
0.0
 40
0.0
 40
0.7409499164865726
 40
1.0
 40
1.0
 40
1.0
 40
1.0
 10
-76.0918558170073
 20
258.3136676500111
 30
0.0
 10
-76.09196214062332
 20
257.1661972615454
 30
0.0
 10
-76.09210563698342
 20
255.6175495554943
 30
0.0
 10
-76.09197009229023
 20
254.105896177965
 30
0.0
 10
-76.09193497942614
 20
253.7143022442727
 30
0.0
  0
LWPOLYLINE
  5
26B
330
1F
100
AcDbEntity
  8
0
  6
Continuous
 62
     7
370
    35
100
AcDbPolyline
 90
        7
 70
   128
 43
0.0
 10
-76.0918963295
 20
235.8143047119
 10
-76.091913559
 20
235.0428157175
 10
-76.0917040114
 20
233.0403082693
 10
-76.0919917901
 20
231.9842108215
 10
-76.0918595423
 20
231.6044994319
 10
-76.0918595423
 20
231.6044994319
 10
-76.0918595423
 20
231.6044994319
  0
LINE
  5
26C
330
1F
100
AcDbEntity
  8
0
  6
Continuous
 62
     7
370
    35
100
AcDbLine
 10
-76.0918562827
 20
258.314302812
 30
0.0
 11
-76.091855817
 21
258.31366765
 31
0.0
  0
LINE
  5
26D
330
1F
100
AcDbEntity
  8
0
  6
Continuous
 62
     7
370
    35
100
AcDbLine
 10
-75.7881505941
 20
258.314302812
 30
0.0
 11
-76.0918562827
 21
258.314302812
 31
0.0
  0
LINE
  5
26E
330
1F
100
AcDbEntity
  8
0
  6
Continuous
 62
     7
370
    35
100
AcDbLine
 10
-76.0918595423
 20
231.6044994319
 30
0.0
 11
-75.7794222389
 21
228.0331753815
 31
0.0
  0
LINE
  5
26F
330
1F
100
AcDbEntity
  8
0
  6
Continuous
 62
     7
370
    35
100
AcDbLine
 10
-76.0918562827
 20
262.8143035496
 30
0.0
 11
-76.0918562827
 21
258.314302812
 31
0.0
  0
LINE
  5
270
330
1F
100
AcDbEntity
  8
0
  6
Continuous
 62
     7
370
    35
100
AcDbLine
 10
-75.7881235857
 20
262.8143035496
 30
0.0
 11
-76.0918562827
 21
262.8143035496
 31
0.0
  0
LINE
  5
271
330
1F
100
AcDbEntity
  8
0
  6
Continuous
 62
     7
370
    35
100
AcDbLine
 10
-88.2662046296
 20
262.8143035496
 30
0.0
 11
-88.5699373265
 21
262.8143035496
 31
0.0
  0
LINE
  5
272
330
1F
100
AcDbEntity
  8
0
  6
Continuous
 62
     7
370
    35
100
AcDbLine
 10
-88.2662046296
 20
258.314302812
 30
0.0
 11
-88.2662046296
 21
262.8143035496
 31
0.0
  0
SPLINE
  5
273
330
1F
100
AcDbEntity
  8
0
  6
Continuous
 62
     7
370
    35
100
AcDbSpline
210
0.0
220
0.0
230
1.0
 70
     8
 71
     3
 72
    12
 73
     8
 74
     0
 42
0.000000001
 43
0.00000001
 40
0.0
 40
0.0
 40
0.0
 40
0.0
 40
0.2146564259996412
 40
0.4293131901416994
 40
0.6439712555762478
 40
0.8586310232925671
 40
1.0
 40
1.0
 40
1.0
 40
1.0
 10
-76.09185628266859
 20
262.8143035496145
 30
0.0
 10
-76.08082768324925
 20
262.9267268920223
 30
0.0
 10
-76.05877046703755
 20
263.1515737539356
 30
0.0
 10
-75.8868663339813
 20
263.4512438217961
 30
0.0
 10
-75.63417802343385
 20
263.6774067840176
 30
0.0
 10
-75.35454207888799
 20
263.797240013691
 30
0.0
 10
-75.17023708015691
 20
263.8094532502867
 30
0.0
 10
-75.09705476136732
 20
263.8143027822047
 30
0.0
  0
LINE
  5
274
330
1F
100
AcDbEntity
  8
0
  6
Continuous
 62
     7
370
    35
100
AcDbLine
 10
-75.0970547614
 20
263.8143027822
 30
0.0
 11
-74.7919288059
 21
263.8143027822
 31
0.0
  0
LINE
  5
275
330
1F
100
AcDbEntity
  8
0
  6
Continuous
 62
     7
370
    35
100
AcDbLine
 10
-89.5661321064
 20
263.8143027822
 30
0.0
 11
-89.2610061509
 21
263.8143027822
 31
0.0
  0
SPLINE
  5
276
330
1F
100
AcDbEntity
  8
0
  6
Continuous
 62
     7
370
    35
100
AcDbSpline
210
0.0
220
0.0
230
1.0
 70
     8
 71
     3
 72
    12
 73
     8
 74
     0
 42
0.000000001
 43
0.00000001
 40
0.0
 40
0.0
 40
0.0
 40
0.0
 40
0.2147093298516278
 40
0.4293322896952291
 40
0.6439202338696323
 40
0.8585563145133482
 40
1.0
 40
1.0
 40
1.0
 40
1.0
 10
-89.26100615085888
 20
263.8143027822047
 30
0.0
 10
-89.14947218465686
 20
263.8032659392872
 30
0.0
 10
-88.92644911844269
 20
263.781196693186
 30
0.0
 10
-88.62826079194261
 20
263.608891371203
 30
0.0
 10
-88.40292869766036
 20
263.3552540640716
 30
0.0
 10
-88.28327719394886
 20
263.0740557512602
 30
0.0
 10
-88.27105828302933
 20
262.8881499353369
 30
0.0
 10
-88.2662046295576
 20
262.8143035496145
 30
0.0
  0
SPLINE
  5
277
330
1F
100
AcDbEntity
  8
0
  6
Continuous
 62
     7
370
    35
100
AcDbSpline
210
0.0
220
0.0
230
1.0
 70
     8
 71
     3
 72
    12
 73
     8
 74
     0
 42
0.000000001
 43
0.00000001
 40
0.0
 40
0.0
 40
0.0
 40
0.0
 40
0.2157448989582625
 40
0.4314886873704664
 40
0.6472313778596037
 40
0.8629699534158838
 40
1.0
 40
1.0
 40
1.0
 40
1.0
 10
-76.0918595422976
 20
231.6044994319348
 30
0.0
 10
-76.11267019052404
 20
231.7155342627183
 30
0.0
 10
-76.15429137985424
 20
231.9376033527338
 30
0.0
 10
-76.35216630717163
 20
232.2211067455002
 30
0.0
 10
-76.62466737982933
 20
232.4243120817518
 30
0.0
 10
-76.91272547523545
 20
232.5182810838043
 30
0.0
 10
-77.0962972408016
 20
232.5153259623466
 30
0.0
 10
-77.16760417120385
 20
232.5141780699163
 30
0.0
  0
SPLINE
  5
278
330
1F
100
AcDbEntity
  8
0
  6
Continuous
 62
     7
370
    35
100
AcDbSpline
210
0.0
220
0.0
230
1.0
 70
     8
 71
     3
 72
    13
 73
     9
 74
     0
 42
0.000000001
 43
0.00000001
 40
0.0
 40
0.0
 40
0.0
 40
0.0
 40
0.0101869092731771
 40
0.1370891923015617
 40
0.3528164254368559
 40
0.5685446909318588
 40
0.7842720242004947
 40
0.9999999999999999
 40
0.9999999999999999
 40
0.9999999999999999
 40
0.9999999999999999
 10
-76.0918558170073
 20
258.3136676500111
 30
0.0
 10
-76.09234362269682
 20
258.313782157496
 30
0.0
 10
-76.09890821321038
 20
258.3153231291683
 30
0.0
 10
-76.13606049913435
 20
258.3115388102973
 30
0.0
 10
-76.26957257385439
 20
258.3141222853184
 30
0.0
 10
-76.51661678896376
 20
258.3139251514124
 30
0.0
 10
-76.82868222505894
 20
258.3143902423969
 30
0.0
 10
-77.05462573082383
 20
258.3143319554992
 30
0.0
 10
-77.16759765194583
 20
258.314302812007
 30
0.0
  0
SPLINE
  5
279
330
1F
100
AcDbEntity
  8
0
  6
Continuous
 62
     7
370
    35
100
AcDbSpline
210
0.0
220
0.0
230
1.0
 70
     8
 71
     3
 72
    13
 73
     9
 74
     0
 42
0.000000001
 43
0.00000001
 40
0.0
 40
0.0
 40
0.0
 40
0.0
 40
0.0099896037344555
 40
0.1370885272441045
 40
0.3528162239361816
 40
0.5685449544556751
 40
0.7842727519526467
 40
0.9999999999999999
 40
0.9999999999999999
 40
0.9999999999999999
 40
0.9999999999999999
 10
-88.2662050952189
 20
258.3136778945594
 30
0.0
 10
-88.26572728051875
 20
258.3137906665969
 30
0.0
 10
-88.25917017222112
 20
258.3153382507597
 30
0.0
 10
-88.22204914221042
 20
258.311528279007
 30
0.0
 10
-88.0884877628804
 20
258.3141238412194
 30
0.0
 10
-87.84144427487733
 20
258.31392473644
 30
0.0
 10
-87.52937923279984
 20
258.3143903455307
 30
0.0
 10
-87.30343639697236
 20
258.3143319898235
 30
0.0
 10
-87.19046512292552
 20
258.314302812007
 30
0.0
  0
SPLINE
  5
27A
330
1F
100
AcDbEntity
  8
0
  6
Continuous
 62
     7
370
    35
100
AcDbSpline
210
0.0
220
0.0
230
1.0
 70
     8
 71
     3
 72
    12
 73
     8
 74
     0
 42
0.000000001
 43
0.00000001
 40
0.0
 40
0.0
 40
0.0
 40
0.0
 40
0.1370535676603715
 40
0.3527931813479652
 40
0.5685302798651068
 40
0.7842646360610287
 40
0.9999999999999999
 40
0.9999999999999999
 40
0.9999999999999999
 40
0.9999999999999999
 10
-88.2662013699286
 20
231.6044994319348
 30
0.0
 10
-88.25548504099082
 20
231.6750170708792
 30
0.0
 10
-88.22789985774557
 20
231.8565383738926
 30
0.0
 10
-88.08737203604369
 20
232.1249837069383
 30
0.0
 10
-87.8417245382347
 20
232.3599330154018
 30
0.0
 10
-87.52929334621452
 20
232.5079464963554
 30
0.0
 10
-87.30340245195039
 20
232.512100875495
 30
0.0
 10
-87.19045674102234
 20
232.5141780699163
 30
0.0
  0
LINE
  5
27B
330
1F
100
AcDbEntity
  8
0
  6
Continuous
 62
     7
370
    35
100
AcDbLine
 10
-88.2662046296
 20
262.8143035496
 30
0.0
 11
-87.1904632603
 21
262.8143035496
 31
0.0
  0
LINE
  5
27C
330
1F
100
AcDbEntity
  8
0
  6
Continuous
 62
     7
370
    35
100
AcDbLine
 10
-76.0918562827
 20
262.8143035496
 30
0.0
 11
-77.1675976519
 21
262.8143035496
 31
0.0
  0
LINE
  5
27D
330
1F
100
AcDbEntity
  8
0
  6
Continuous
 62
     7
370
    35
100
AcDbLine
 10
-87.1904632603
 20
262.8143035496
 30
0.0
 11
-87.1904651229
 21
258.314302812
 31
0.0
  0
LINE
  5
27E
330
1F
100
AcDbEntity
  8
0
  6
Continuous
 62
     7
370
    35
100
AcDbLine
 10
-77.1675976519
 20
258.314302812
 30
0.0
 11
-77.1675976519
 21
262.8143035496
 31
0.0
  0
LINE
  5
27F
330
1F
100
AcDbEntity
  8
0
  6
Continuous
 62
     7
370
    35
100
AcDbLine
 10
-77.1675976519
 20
258.314302812
 30
0.0
 11
-87.1904651229
 21
258.314302812
 31
0.0
  0
SPLINE
  5
280
330
1F
100
AcDbEntity
  8
0
  6
Continuous
 62
     7
370
    35
100
AcDbSpline
210
0.0
220
0.0
230
1.0
 70
     8
 71
     3
 72
     9
 73
     5
 74
     0
 42
0.000000001
 43
0.00000001
 40
0.0
 40
0.0
 40
0.0
 40
0.0
 40
0.559999990571789
 40
1.0
 40
1.0
 40
1.0
 40
1.0
 10
-87.19045674102234
 20
232.5141780699163
 30
0.0
 10
-85.31901119134238
 20
232.4068511033636
 30
0.0
 10
-81.97714408207847
 20
232.2151958027215
 30
0.0
 10
-78.63718583250571
 20
232.4228223758029
 30
0.0
 10
-77.16760417120385
 20
232.5141780699163
 30
0.0
  0
ARC
  5
281
330
1F
100
AcDbEntity
  8
0
  6
Continuous
 62
     7
370
    35
100
AcDbCircle
 10
-89.5749755471
 20
228.1187068588
 30
0.0
 40
1.000000000000015
100
AcDbArc
 50
265.2862795726
 51
355.0002073368
  0
ARC
  5
282
330
1F
100
AcDbEntity
  8
0
  6
Continuous
 62
     7
370
    35
100
AcDbCircle
 10
-74.7830853652
 20
228.1187068588
 30
0.0
 40
1.000000000000002
100
AcDbArc
 50
184.9997926632
 51
274.7137204274
  0
LINE
  5
283
330
1F
100
AcDbEntity
  8
0
  6
Continuous
 62
     7
370
    35
100
AcDbLine
 10
-82.1790304561
 20
270.8104716536
 30
0.0
 11
2.820970438
 21
270.8104716536
 31
0.0
  0
LINE
  5
284
330
1F
100
AcDbEntity
  8
0
  6
Continuous
 62
     7
370
    35
100
AcDbLine
 10
-167.1790313502
 20
270.8104716536
 30
0.0
 11
-82.1790304561
 21
270.8104716536
 31
0.0
  0
LINE
  5
285
330
1F
100
AcDbEntity
  8
0
  6
Continuous
 62
     7
370
    35
100
AcDbLine
 10
-82.1790304561
 20
269.8143030672
 30
0.0
 11
2.7335155229
 21
269.8143030672
 31
0.0
  0
LINE
  5
286
330
1F
100
AcDbEntity
  8
0
  6
Continuous
 62
     7
370
    35
100
AcDbLine
 10
-167.0915764351
 20
269.8143030672
 30
0.0
 11
-82.1790304561
 21
269.8143030672
 31
0.0
  0
LINE
  5
287
330
1F
100
AcDbEntity
  8
0
  6
Continuous
 62
     7
370
    35
100
AcDbLine
 10
-140.367435344
 20
263.8143027822
 30
0.0
 11
-140.367435344
 21
252.8143037731
 31
0.0
  0
LINE
  5
288
330
1F
100
AcDbEntity
  8
0
  6
Continuous
 62
     7
370
    35
100
AcDbLine
 10
-140.367435344
 20
263.8143027822
 30
0.0
 11
-151.3004955431
 21
263.8143027822
 31
0.0
  0
LINE
  5
289
330
1F
100
AcDbEntity
  8
0
  6
Continuous
 62
     7
370
    35
100
AcDbLine
 10
-151.3004955431
 20
252.8143037731
 30
0.0
 11
-151.3004955431
 21
263.8143027822
 31
0.0
  0
LINE
  5
28A
330
1F
100
AcDbEntity
  8
0
  6
Continuous
 62
     7
370
    35
100
AcDbLine
 10
-140.367435344
 20
252.8143037731
 30
0.0
 11
-151.3004955431
 21
252.8143037731
 31
0.0
  0
LINE
  5
28B
330
1F
100
AcDbEntity
  8
0
  6
Continuous
 62
     7
370
    35
100
AcDbLine
 10
-23.9906255682
 20
263.8143027822
 30
0.0
 11
-13.0575653692
 21
263.8143027822
 31
0.0
  0
LINE
  5
28C
330
1F
100
AcDbEntity
  8
0
  6
Continuous
 62
     7
370
    35
100
AcDbLine
 10
-23.9906255682
 20
252.8143037731
 30
0.0
 11
-23.9906255682
 21
263.8143027822
 31
0.0
  0
LINE
  5
28D
330
1F
100
AcDbEntity
  8
0
  6
Continuous
 62
     7
370
    35
100
AcDbLine
 10
-23.9906255682
 20
252.8143037731
 30
0.0
 11
-13.0575653692
 21
252.8143037731
 31
0.0
  0
LINE
  5
28E
330
1F
100
AcDbEntity
  8
0
  6
Continuous
 62
     7
370
    35
100
AcDbLine
 10
-13.0575653692
 20
263.8143027822
 30
0.0
 11
-13.0575653692
 21
252.8143037731
 31
0.0
  0
LINE
  5
28F
330
1F
100
AcDbEntity
  8
0
  6
Continuous
 62
     7
370
    35
100
AcDbLine
 10
-90.1790308361
 20
264.714303116
 30
0.0
 11
-90.1790308361
 21
254.7143024082
 31
0.0
  0
SPLINE
  5
290
330
1F
100
AcDbEntity
  8
0
  6
Continuous
 62
     7
370
    35
100
AcDbSpline
210
0.0
220
0.0
230
1.0
 70
     8
 71
     3
 72
    12
 73
     8
 74
     0
 42
0.000000001
 43
0.00000001
 40
0.0
 40
0.0
 40
0.0
 40
0.0
 40
0.2500000000000005
 40
0.2500000000000005
 40
0.500000000000001
 40
0.500000000000001
 40
1.0
 40
1.0
 40
1.0
 40
1.0
 10
-89.17903045611308
 20
253.7143031621843
 30
0.0
 10
-89.31081766498224
 20
253.7143031621843
 30
0.0
 10
-89.4400670281007
 20
253.7401501407397
 30
0.0
 10
-89.68187367987925
 20
253.8400818552961
 30
0.0
 10
-89.79266885069613
 20
253.9140201378178
 30
0.0
 10
-90.06973108516057
 20
254.1902112017455
 30
0.0
 10
-90.17903045611308
 20
254.4494707425235
 30
0.0
 10
-90.17903045611308
 20
254.7143031621843
 30
0.0
  0
LINE
  5
291
330
1F
100
AcDbEntity
  8
0
  6
Continuous
 62
     7
370
    35
100
AcDbLine
 10
-89.1790306722
 20
253.7143022443
 30
0.0
 11
-75.17903024
 21
253.7143022443
 31
0.0
  0
SPLINE
  5
292
330
1F
100
AcDbEntity
  8
0
  6
Continuous
 62
     7
370
    35
100
AcDbSpline
210
0.0
220
0.0
230
1.0
 70
     8
 71
     3
 72
    12
 73
     8
 74
     0
 42
0.000000001
 43
0.00000001
 40
0.0
 40
0.0
 40
0.0
 40
0.0
 40
0.2499999999999991
 40
0.2499999999999991
 40
0.4999999999999982
 40
0.4999999999999982
 40
1.0
 40
1.0
 40
1.0
 40
1.0
 10
-74.17903045611308
 20
254.7143031621843
 30
0.0
 10
-74.17903045611308
 20
254.581899278698
 30
0.0
 10
-74.20517564209494
 20
254.4519604690286
 30
0.0
 10
-74.30582193926419
 20
254.2096014943239
 30
0.0
 10
-74.38028649435807
 20
254.0986744126445
 30
0.0
 10
-74.65703636472288
 20
253.822403580755
 30
0.0
 10
-74.91548163648078
 20
253.7143031621843
 30
0.0
 10
-75.17903045611308
 20
253.7143031621843
 30
0.0
  0
LINE
  5
293
330
1F
100
AcDbEntity
  8
0
  6
Continuous
 62
     7
370
    35
100
AcDbLine
 10
-74.1790300761
 20
254.7143024082
 30
0.0
 11
-74.1790300761
 21
264.714303116
 31
0.0
  0
LINE
  5
294
330
1F
100
AcDbEntity
  8
0
  6
Continuous
 62
     7
370
    35
100
AcDbLine
 10
-74.1790300761
 20
264.714303116
 30
0.0
 11
-77.1790305679
 21
264.714303116
 31
0.0
  0
LINE
  5
295
330
1F
100
AcDbEntity
  8
0
  6
Continuous
 62
     7
370
    35
100
AcDbLine
 10
-87.1790303444
 20
264.714303116
 30
0.0
 11
-77.1790305679
 21
264.714303116
 31
0.0
  0
LINE
  5
296
330
1F
100
AcDbEntity
  8
0
  6
Continuous
 62
     7
370
    35
100
AcDbLine
 10
-87.1790303444
 20
264.714303116
 30
0.0
 11
-90.1790308361
 21
264.714303116
 31
0.0
  0
LINE
  5
297
330
1F
100
AcDbEntity
  8
0
  6
Continuous
 62
     7
370
    35
100
AcDbLine
 10
-82.1790304561
 20
235.8143047119
 30
0.0
 11
-9.179031529
 21
235.8143047119
 31
0.0
  0
LINE
  5
298
330
1F
100
AcDbEntity
  8
0
  6
Continuous
 62
     7
370
    35
100
AcDbLine
 10
-155.1790293832
 20
235.8143047119
 30
0.0
 11
-82.1790304561
 21
235.8143047119
 31
0.0
  0
ELLIPSE
  5
299
330
1F
100
AcDbEntity
  8
0
  6
Continuous
 62
     7
370
    35
100
AcDbEllipse
 10
-82.1790304561
 20
181.564891336
 30
0.0
 11
0.0
 21
184.0513643961462
 31
0.0
210
0.0
220
0.0
230
1.0
 40
0.3966284099
 41
5.034410212995526
 42
5.080438910556149
  0
SPLINE
  5
29A
330
1F
100
AcDbEntity
  8
0
  6
Continuous
 62
     7
370
    35
100
AcDbSpline
210
0.0
220
0.0
230
1.0
 70
     8
 71
     3
 72
    10
 73
     6
 74
     0
 42
0.000000001
 43
0.00000001
 40
0.0
 40
0.0
 40
0.0
 40
0.0
 40
0.5
 40
0.5
 40
1.0
 40
1.0
 40
1.0
 40
1.0
 10
-14.32166691563373
 20
248.0663873024423
 30
0.0
 10
-14.27352758748929
 20
248.1145264211941
 30
0.0
 10
-14.22032574749654
 20
248.1131503615494
 30
0.0
 10
-14.12667896819106
 20
248.0131895245402
 30
0.0
 10
-14.08740422973856
 20
247.9142220628694
 30
0.0
 10
-14.0677858675341
 20
247.7859542233482
 30
0.0
  0
ELLIPSE
  5
29B
330
1F
100
AcDbEntity
  8
0
  6
Continuous
 62
     7
370
    35
100
AcDbEllipse
 10
-82.1790304561
 20
258.7413535065
 30
0.0
 11
73.0
 21
0.0
 31
0.0
210
0.0
220
0.0
230
1.0
 40
0.3966284099
 41
5.834221676531642
 42
5.905587357457949
  0
SPLINE
  5
29C
330
1F
100
AcDbEntity
  8
0
  6
Continuous
 62
     7
370
    35
100
AcDbSpline
210
0.0
220
0.0
230
1.0
 70
     8
 71
     3
 72
    10
 73
     6
 74
     0
 42
0.000000001
 43
0.00000001
 40
0.0
 40
0.0
 40
0.0
 40
0.0
 40
0.5
 40
0.5
 40
1.0
 40
1.0
 40
1.0
 40
1.0
 10
-16.56653164681614
 20
245.7096659252593
 30
0.0
 10
-16.56653164681612
 20
245.8140692513423
 30
0.0
 10
-16.55037803077358
 20
245.9147548110371
 30
0.0
 10
-16.49431959183645
 20
246.0790871463233
 30
0.0
 10
-16.45609885079702
 20
246.139389166316
 30
0.0
 10
-16.41351998944315
 20
246.1744426626703
 30
0.0
  0
LINE
  5
29D
330
1F
100
AcDbEntity
  8
0
  6
Continuous
 62
     7
370
    35
100
AcDbLine
 10
-16.56652806
 20
239.8143016423
 30
0.0
 11
-16.56652806
 21
245.7096666718
 31
0.0
  0
LINE
  5
29E
330
1F
100
AcDbEntity
  8
0
  6
Continuous
 62
     7
370
    35
100
AcDbLine
 10
-12.9313972373
 20
239.8143016423
 30
0.0
 11
-16.56652806
 21
239.8143016423
 31
0.0
  0
LINE
  5
29F
330
1F
100
AcDbEntity
  8
0
  6
Continuous
 62
     7
370
    35
100
AcDbLine
 10
-77.1790305679
 20
263.7143029521
 30
0.0
 11
-87.1790303444
 21
263.7143029521
 31
0.0
  0
SPLINE
  5
2A0
330
1F
100
AcDbEntity
  8
0
  6
Continuous
 62
     7
370
    35
100
AcDbSpline
210
0.0
220
0.0
230
1.0
 70
    24
 71
     3
 72
    12
 73
     8
 74
     0
 42
0.000000001
 43
0.00000001
 40
0.0
 40
0.0
 40
0.0
 40
0.0
 40
0.2500000000000003
 40
0.2500000000000003
 40
0.5000000000000006
 40
0.5000000000000006
 40
1.0
 40
1.0
 40
1.0
 40
1.0
 10
-87.17903045611308
 20
263.7143031621843
 30
0.0
 10
-87.17903045611308
 20
263.7143031621843
 30
0.0
 10
-87.17903045611308
 20
263.7402066946902
 30
0.0
 10
-87.17903045611308
 20
263.840307313323
 30
0.0
 10
-87.17903045611308
 20
263.914388479571
 30
0.0
 10
-87.17903045611308
 20
264.1907774070183
 30
0.0
 10
-87.17903045611308
 20
264.44986431027
 30
0.0
 10
-87.17903045611308
 20
264.7143031621843
 30
0.0
  0
SPLINE
  5
2A1
330
1F
100
AcDbEntity
  8
0
  6
Continuous
 62
     7
370
    35
100
AcDbSpline
210
0.0
220
0.0
230
1.0
 70
    24
 71
     3
 72
    12
 73
     8
 74
     0
 42
0.000000001
 43
0.00000001
 40
0.0
 40
0.0
 40
0.0
 40
0.0
 40
0.25
 40
0.25
 40
0.5
 40
0.5
 40
1.0
 40
1.0
 40
1.0
 40
1.0
 10
-77.17903045611308
 20
264.7143031621843
 30
0.0
 10
-77.17903045611308
 20
264.582089243221
 30
0.0
 10
-77.17903045611308
 20
264.4523463083535
 30
0.0
 10
-77.17903045611308
 20
264.2101161117824
 30
0.0
 10
-77.17903045611308
 20
264.099201349414
 30
0.0
 10
-77.17903045611308
 20
263.8226680477162
 30
0.0
 10
-77.17903045611308
 20
263.7143031621843
 30
0.0
 10
-77.17903045611308
 20
263.7143031621843
 30
0.0
  0
ELLIPSE
  5
2A2
330
1F
100
AcDbEntity
  8
0
  6
Continuous
 62
     7
370
    35
100
AcDbEllipse
 10
-82.1790304561
 20
181.564891336
 30
0.0
 11
0.0
 21
181.5301128290756
 31
0.0
210
0.0
220
0.0
230
1.0
 40
0.3966284099
 41
5.044869693840274
 42
5.083188779836123
  0
LINE
  5
2A3
330
1F
100
AcDbEntity
  8
0
  6
Continuous
 62
     7
370
    35
100
AcDbLine
 10
-141.1790308137
 20
252.8143037731
 30
0.0
 11
-141.1790308137
 21
263.8143027822
 31
0.0
  0
LINE
  5
2A4
330
1F
100
AcDbEntity
  8
0
  6
Continuous
 62
     7
370
    35
100
AcDbLine
 10
-23.1790300985
 20
263.8143027822
 30
0.0
 11
-23.1790300985
 21
252.8143037731
 31
0.0
  0
LINE
  5
2A5
330
1F
100
AcDbEntity
  8
0
  6
Continuous
 62
     7
370
    35
100
AcDbLine
 10
-16.56652806
 20
240.8143036688
 30
0.0
 11
-14.122067072
 21
240.8143036688
 31
0.0
  0
SPLINE
  5
2A6
330
1F
100
AcDbEntity
  8
0
  6
Continuous
 62
     7
370
    35
100
AcDbSpline
210
0.0
220
0.0
230
1.0
 70
     8
 71
     3
 72
    12
 73
     8
 74
     0
 42
0.000000001
 43
0.00000001
 40
0.0
 40
0.0
 40
0.0
 40
0.0
 40
0.2499999999999997
 40
0.2499999999999997
 40
0.4999999999999993
 40
0.4999999999999993
 40
1.0
 40
1.0
 40
1.0
 40
1.0
 10
-14.12206901938717
 20
240.8143031621842
 30
0.0
 10
-13.97505609723637
 20
240.8143031621842
 30
0.0
 10
-13.83169424490803
 20
240.7858776517052
 30
0.0
 10
-13.56175161729634
 20
240.6827494021002
 30
0.0
 10
-13.4374122175456
 20
240.6084145719268
 30
0.0
 10
-13.11556506354103
 20
240.3354254326118
 30
0.0
 10
-12.96726434788978
 20
240.0853221360066
 30
0.0
 10
-12.93140074094035
 20
239.8143031621842
 30
0.0
  0
LINE
  5
2A7
330
1F
100
AcDbEntity
  8
0
  6
Continuous
 62
     7
370
    35
100
AcDbLine
 10
-148.8471534629
 20
263.8143027822
 30
0.0
 11
-148.8471534629
 21
252.8143037731
 31
0.0
  0
LINE
  5
2A8
330
1F
100
AcDbEntity
  8
0
  6
Continuous
 62
     7
370
    35
100
AcDbLine
 10
-15.5109074493
 20
252.8143037731
 30
0.0
 11
-15.5109074493
 21
263.8143027822
 31
0.0
  0
LINE
  5
2A9
330
1F
100
AcDbEntity
  8
0
  6
Continuous
 62
     8
370
    35
100
AcDbLine
 10
-90.1790308361
 20
258.476959231
 30
0.0
 11
-89.6755704251
 21
258.4522465865
 31
0.0
  0
SPLINE
  5
2AA
330
1F
100
AcDbEntity
  8
0
  6
Continuous
 62
     8
370
    35
100
AcDbSpline
210
0.0
220
0.0
230
1.0
 70
     8
 71
     3
 72
    12
 73
     8
 74
     0
 42
0.000000001
 43
0.00000001
 40
0.0
 40
0.0
 40
0.0
 40
0.0
 40
0.2232619161168794
 40
0.4530015763840258
 40
0.6760458750898835
 40
0.9056461150961068
 40
1.0
 40
1.0
 40
1.0
 40
1.0
 10
-89.65790183888602
 20
227.1238431955247
 30
0.0
 10
-89.66114574282122
 20
227.2268635971013
 30
0.0
 10
-89.66772766965335
 20
227.43589344476
 30
0.0
 10
-89.67203236526575
 20
228.8595108582977
 30
0.0
 10
-89.67731889053111
 20
231.1251117340103
 30
0.0
 10
-89.6795918955541
 20
233.475859024978
 30
0.0
 10
-89.68035316264641
 20
235.2868430568045
 30
0.0
 10
-89.68057488696503
 20
235.814304711905
 30
0.0
  0
SPLINE
  5
2AB
330
1F
100
AcDbEntity
  8
0
  6
Continuous
 62
     8
370
    35
100
AcDbSpline
210
0.0
220
0.0
230
1.0
 70
     8
 71
     3
 72
     9
 73
     5
 74
     0
 42
0.000000001
 43
0.00000001
 40
0.0
 40
0.0
 40
0.0
 40
0.0
 40
0.285213823091628
 40
1.0
 40
1.0
 40
1.0
 40
1.0
 10
-89.67884262697625
 20
253.8644463444619
 30
0.0
 10
-89.6786888839695
 20
254.2832064146954
 30
0.0
 10
-89.67814983924482
 20
255.7514384438944
 30
0.0
 10
-89.67672627240889
 20
257.2436372809852
 30
0.0
 10
-89.67570872651267
 20
258.3102403829365
 30
0.0
  0
SPLINE
  5
2AC
330
1F
100
AcDbEntity
  8
0
  6
Continuous
 62
     8
370
    35
100
AcDbSpline
210
0.0
220
0.0
230
1.0
 70
     8
 71
     3
 72
    10
 73
     6
 74
     0
 42
0.000000001
 43
0.00000001
 40
0.0
 40
0.0
 40
0.0
 40
0.0
 40
0.0000129918289021
 40
0.6636218433118695
 40
1.0
 40
1.0
 40
1.0
 40
1.0
 10
-88.56991031812358
 20
258.314302812007
 30
0.0
 10
-88.56991031812362
 20
258.3142829437944
 30
0.0
 10
-88.56991032011125
 20
257.2994158308021
 30
0.0
 10
-88.56944982562412
 20
255.7430855732657
 30
0.0
 10
-88.56883442970977
 20
254.2249698480621
 30
0.0
 10
-88.56862742127704
 20
253.7143022442727
 30
0.0
  0
LWPOLYLINE
  5
2AD
330
1F
100
AcDbEntity
  8
0
  6
Continuous
 62
     8
370
    35
100
AcDbPolyline
 90
        8
 70
   128
 43
0.0
 10
-88.5676574488
 20
235.8143047119
 10
-88.5678479043
 20
234.9673227096
 10
-88.5693287072
 20
232.0738562072
 10
-88.5712868129
 20
229.8679106558
 10
-88.5750079122
 20
228.5343163336
 10
-88.5786386733
 20
228.0331753815
 10
-88.5786386733
 20
228.0331753815
 10
-88.5786386733
 20
228.0331753815
  0
LINE
  5
2AE
330
1F
100
AcDbEntity
  8
0
  6
Continuous
 62
     8
370
    35
100
AcDbLine
 10
-74.6824904871
 20
258.4522465865
 30
0.0
 11
-74.1790300761
 21
258.4788181508
 31
0.0
  0
LINE
  5
2AF
330
1F
100
AcDbEntity
  8
0
  6
Continuous
 62
     8
370
    35
100
AcDbLine
 10
-74.6823521857
 20
258.3102403829
 30
0.0
 11
-74.6791023356
 21
253.8546860839
 31
0.0
  0
SPLINE
  5
2B0
330
1F
100
AcDbEntity
  8
0
  6
Continuous
 62
     8
370
    35
100
AcDbSpline
210
0.0
220
0.0
230
1.0
 70
     8
 71
     3
 72
    13
 73
     9
 74
     0
 42
0.000000001
 43
0.00000001
 40
0.0
 40
0.0
 40
0.0
 40
0.0
 40
0.0500356314931668
 40
0.2737618540217404
 40
0.4976504298359288
 40
0.7215445188382974
 40
0.8607713489191264
 40
1.0
 40
1.0
 40
1.0
 40
1.0
 10
-74.67740546585846
 20
235.814304711905
 30
0.0
 10
-74.67750229272549
 20
235.5270540903487
 30
0.0
 10
-74.67803206524657
 20
233.9554088371678
 30
0.0
 10
-74.67998837101575
 20
231.7270248943785
 30
0.0
 10
-74.68465723246578
 20
229.2936500866608
 30
0.0
 10
-74.68962749840291
 20
227.9304170441604
 30
0.0
 10
-74.69269459297479
 20
227.2572496686446
 30
0.0
 10
-74.6976709023706
 20
227.1683122137711
 30
0.0
 10
-74.70015907334017
 20
227.1238431955247
 30
0.0
  0
SPLINE
  5
2B1
330
1F
100
AcDbEntity
  8
0
  6
Continuous
 62
     8
370
    35
100
AcDbSpline
210
0.0
220
0.0
230
1.0
 70
     8
 71
     3
 72
    14
 73
    10
 74
     0
 42
0.000000001
 43
0.00000001
 40
0.0
 40
0.0
 40
0.0
 40
0.0
 40
0.0000027137185062
 40
0.1442274628361969
 40
0.2900115123577477
 40
0.5198877363007766
 40
0.7563729479055532
 40
0.9860295438771982
 40
1.0
 40
1.0
 40
1.0
 40
1.0
 10
-75.77942223893332
 20
228.0331753815084
 30
0.0
 10
-75.77942223893326
 20
228.0331753814997
 30
0.0
 10
-75.77942223577624
 20
228.0331749244163
 30
0.0
 10
-75.78043632182644
 20
228.1797849600744
 30
0.0
 10
-75.78519401353817
 20
228.8020941275127
 30
0.0
 10
-75.78757055257098
 20
230.1228721254556
 30
0.0
 10
-75.78889323137156
 20
232.489187607229
 30
0.0
 10
-75.79021992147644
 20
234.4485359694849
 30
0.0
 10
-75.79045516620732
 20
235.740234071929
 30
0.0
 10
-75.79046865599084
 20
235.814304711905
 30
0.0
  0
LWPOLYLINE
  5
2B2
330
1F
100
AcDbEntity
  8
0
  6
Continuous
 62
     8
370
    35
100
AcDbPolyline
 90
        4
 70
   128
 43
0.0
 10
-75.7894414072
 20
253.7143022443
 10
-75.7881505941
 20
258.3142432074
 10
-75.7881505941
 20
258.314302812
 10
-75.7881505941
 20
258.314302812
  0
LINE
  5
2B3
330
1F
100
AcDbEntity
  8
0
  6
Continuous
 62
     8
370
    35
100
AcDbLine
 10
-74.1790300761
 20
262.8143035496
 30
0.0
 11
-74.6824904871
 21
262.8143035496
 31
0.0
  0
LINE
  5
2B4
330
1F
100
AcDbEntity
  8
0
  6
Continuous
 62
     8
370
    35
100
AcDbLine
 10
-89.6755704251
 20
262.8143035496
 30
0.0
 11
-90.1790308361
 21
262.8143035496
 31
0.0
  0
SPLINE
  5
2B5
330
1F
100
AcDbEntity
  8
0
  6
Continuous
 62
     8
370
    35
100
AcDbSpline
210
0.0
220
0.0
230
1.0
 70
     8
 71
     3
 72
    12
 73
     8
 74
     0
 42
0.000000001
 43
0.00000001
 40
0.0
 40
0.0
 40
0.0
 40
0.0
 40
0.0000045179577724
 40
0.3196364657669715
 40
0.6471311634195321
 40
0.9930190951346748
 40
1.0
 40
1.0
 40
1.0
 40
1.0
 10
-77.16760417120385
 20
232.5141780699163
 30
0.0
 10
-77.16760417120399
 20
232.5141780699085
 30
0.0
 10
-77.1676041818594
 20
232.5141775210455
 30
0.0
 10
-77.16301999405998
 20
232.7499736853512
 30
0.0
 10
-77.17252794159886
 20
233.844514240089
 30
0.0
 10
-77.16670067548196
 20
234.9209557619896
 30
0.0
 10
-77.1669418855388
 20
235.7969741894324
 30
0.0
 10
-77.16694665746617
 20
235.814304711905
 30
0.0
  0
LWPOLYLINE
  5
2B6
330
1F
100
AcDbEntity
  8
0
  6
Continuous
 62
     8
370
    35
100
AcDbPolyline
 90
        5
 70
   128
 43
0.0
 10
-77.1666979943
 20
253.7143022443
 10
-77.1655110237
 20
254.9553622181
 10
-77.1675957893
 20
258.3142432074
 10
-77.1675976519
 20
258.314302812
 10
-77.1675976519
 20
258.314302812
  0
SPLINE
  5
2B7
330
1F
100
AcDbEntity
  8
0
  6
Continuous
 62
     8
370
    35
100
AcDbSpline
210
0.0
220
0.0
230
1.0
 70
     8
 71
     3
 72
    10
 73
     6
 74
     0
 42
0.000000001
 43
0.00000001
 40
0.0
 40
0.0
 40
0.0
 40
0.0
 40
0.0000128705224547
 40
0.7206098040606732
 40
1.0
 40
1.0
 40
1.0
 40
1.0
 10
-87.19046512292552
 20
258.314302812007
 30
0.0
 10
-87.19046512292549
 20
258.3142829437928
 30
0.0
 10
-87.19046512113547
 20
257.2018782260866
 30
0.0
 10
-87.19088286204591
 20
255.6479201586186
 30
0.0
 10
-87.19042277163702
 20
254.1365653852776
 30
0.0
 10
-87.19029422523307
 20
253.7143022442727
 30
0.0
  0
LWPOLYLINE
  5
2B8
330
1F
100
AcDbEntity
  8
0
  6
Continuous
 62
     8
370
    35
100
AcDbPolyline
 90
        7
 70
   128
 43
0.0
 10
-87.1900762958
 20
235.8143047119
 10
-87.1900744331
 20
235.8009718979
 10
-87.1892343801
 20
233.9041732872
 10
-87.1899128486
 20
232.8759670878
 10
-87.190456741
 20
232.5141780699
 10
-87.190456741
 20
232.5141780699
 10
-87.190456741
 20
232.5141780699
  0
ARC
  5
2B9
330
1F
100
AcDbEntity
  8
0
  6
Continuous
 62
     8
370
    35
100
AcDbCircle
 10
-91.3391300684
 20
264.5252634496
 30
0.0
 40
2.196375215496959
100
AcDbArc
 50
341.1133316691
 51
4.9374953708
  0
SPLINE
  5
2BA
330
1F
100
AcDbEntity
  8
0
  6
Continuous
 62
     8
370
    35
100
AcDbSpline
210
0.0
220
0.0
230
1.0
 70
     8
 71
     3
 72
    12
 73
     8
 74
     0
 42
0.000000001
 43
0.00000001
 40
0.0
 40
0.0
 40
0.0
 40
0.0
 40
0.175792290581498
 40
0.4420013109293638
 40
0.7069153357204273
 40
0.9705020698091567
 40
1.0
 40
1.0
 40
1.0
 40
1.0
 10
-87.19046326028037
 20
262.8143035496145
 30
0.0
 10
-87.20003984176942
 20
262.9618225787137
 30
0.0
 10
-87.22411860858217
 20
263.332735341914
 30
0.0
 10
-87.45780729399225
 20
263.8978933176169
 30
0.0
 10
-87.90476157386429
 20
264.3909691418066
 30
0.0
 10
-88.30895603780162
 20
264.6722427040253
 30
0.0
 10
-88.55086970834392
 20
264.7104569844349
 30
0.0
 10
-88.57521745981502
 20
264.7143031159907
 30
0.0
  0
SPLINE
  5
2BB
330
1F
100
AcDbEntity
  8
0
  6
Continuous
 62
     8
370
    35
100
AcDbSpline
210
0.0
220
0.0
230
1.0
 70
     8
 71
     3
 72
    11
 73
     7
 74
     0
 42
0.000000001
 43
0.00000001
 40
0.0
 40
0.0
 40
0.0
 40
0.0
 40
0.2088796897479117
 40
0.4714136234445719
 40
0.7352815325327258
 40
1.0
 40
1.0
 40
1.0
 40
1.0
 10
-75.7595962439649
 20
264.7143031159907
 30
0.0
 10
-75.9272355965763
 20
264.656299420271
 30
0.0
 10
-76.30557527499032
 20
264.5253928088845
 30
0.0
 10
-76.76403353460347
 20
264.0821192842872
 30
0.0
 10
-77.10307752091546
 20
263.4889183250872
 30
0.0
 10
-77.14606788273309
 20
263.0394162422186
 30
0.0
 10
-77.16759765194583
 20
262.8143035496145
 30
0.0
  0
ARC
  5
2BC
330
1F
100
AcDbEntity
  8
0
  6
Continuous
 62
     8
370
    35
100
AcDbCircle
 10
-73.0189308438
 20
264.5252634496
 30
0.0
 40
2.196375215496959
100
AcDbArc
 50
175.0625046292
 51
198.8866683309
  0
LINE
  5
2BD
330
1F
100
AcDbEntity
  8
0
  6
Continuous
 62
     8
370
    35
100
AcDbLine
 10
-82.1790304561
 20
271.8085558678
 30
0.0
 11
-8.5478481431
 21
271.8085558678
 31
0.0
  0
LINE
  5
2BE
330
1F
100
AcDbEntity
  8
0
  6
Continuous
 62
     8
370
    35
100
AcDbLine
 10
-155.8102127691
 20
271.8085558678
 30
0.0
 11
-82.1790304561
 21
271.8085558678
 31
0.0
  0
LINE
  5
2BF
330
1F
100
AcDbEntity
  8
0
  6
Continuous
 62
     8
370
    35
100
AcDbLine
 10
-142.1030741711
 20
252.8143037731
 30
0.0
 11
-142.1030741711
 21
254.7451459492
 31
0.0
  0
LINE
  5
2C0
330
1F
100
AcDbEntity
  8
0
  6
Continuous
 62
     8
370
    35
100
AcDbLine
 10
-142.1030741711
 20
262.8834598387
 30
0.0
 11
-142.1030741711
 21
263.8143027822
 31
0.0
  0
LINE
  5
2C1
330
1F
100
AcDbEntity
  8
0
  6
Continuous
 62
     8
370
    35
100
AcDbLine
 10
-22.2549867411
 20
263.8143027822
 30
0.0
 11
-22.2549867411
 21
262.8834598387
 31
0.0
  0
LINE
  5
2C2
330
1F
100
AcDbEntity
  8
0
  6
Continuous
 62
     8
370
    35
100
AcDbLine
 10
-22.2549867411
 20
254.7451459492
 30
0.0
 11
-22.2549867411
 21
252.8143037731
 31
0.0
  0
LINE
  5
2C3
330
1F
100
AcDbEntity
  8
0
  6
Continuous
 62
     8
370
    35
100
AcDbLine
 10
-14.0677895923
 20
247.7859534944
 30
0.0
 11
-14.6063846131
 21
247.7859534944
 31
0.0
  0
LINE
  5
2C4
330
1F
100
AcDbEntity
  8
0
  6
Continuous
 62
     7
370
    35
100
AcDbLine
 10
451.349770948
 20
270.8104716536
 30
0.0
 11
439.9809523669
 21
271.8085558678
 31
0.0
  0
LINE
  5
2C5
330
1F
100
AcDbEntity
  8
0
  6
Continuous
 62
     7
370
    35
100
AcDbLine
 10
292.718587741
 20
271.8085558678
 30
0.0
 11
281.3497691599
 21
270.8104716536
 31
0.0
  0
LINE
  5
2C6
330
1F
100
AcDbEntity
  8
0
  6
Continuous
 62
     7
370
    35
100
AcDbLine
 10
281.3497691599
 20
270.8104716536
 30
0.0
 11
281.4372240749
 21
269.8143030672
 31
0.0
  0
LINE
  5
2C7
330
1F
100
AcDbEntity
  8
0
  6
Continuous
 62
     7
370
    35
100
AcDbLine
 10
451.262316033
 20
269.8143030672
 30
0.0
 11
451.349770948
 21
270.8104716536
 31
0.0
  0
ARC
  5
2C8
330
1F
100
AcDbEntity
  8
0
  6
Continuous
 62
     7
370
    35
100
AcDbCircle
 10
292.8497700539
 20
270.3143031622
 30
0.0
 40
1.500000000000057
100
AcDbArc
 50
90.0
 51
95.0172124693
  0
ARC
  5
2C9
330
1F
100
AcDbEntity
  8
0
  6
Continuous
 62
     7
370
    35
100
AcDbCircle
 10
439.8497700539
 20
270.3143031622
 30
0.0
 40
1.500000000000057
100
AcDbArc
 50
84.9827875307
 51
90.0
  0
LINE
  5
2CA
330
1F
100
AcDbEntity
  8
0
  6
Continuous
 62
     7
370
    35
100
AcDbLine
 10
439.8497699943
 20
271.8143031622
 30
0.0
 11
292.8497701135
 21
271.8143031622
 31
0.0
  0
LINE
  5
2CB
330
1F
100
AcDbEntity
  8
0
  6
Continuous
 62
     7
370
    35
100
AcDbLine
 10
293.3497711268
 20
269.8143030672
 30
0.0
 11
293.3497711268
 21
235.8143047119
 31
0.0
  0
LINE
  5
2CC
330
1F
100
AcDbEntity
  8
0
  6
Continuous
 62
     7
370
    35
100
AcDbLine
 10
439.3497689811
 20
235.8143047119
 30
0.0
 11
439.3497689811
 21
269.8143030672
 31
0.0
  0
SPLINE
  5
2CD
330
1F
100
AcDbEntity
  8
0
  6
Continuous
 62
     7
370
    35
100
AcDbSpline
210
0.0
220
0.0
230
1.0
 70
     8
 71
     3
 72
     9
 73
     5
 74
     0
 42
0.000000001
 43
0.00000001
 40
0.0
 40
0.0
 40
0.0
 40
0.0
 40
0.5818149726052824
 40
1.0
 40
1.0
 40
1.0
 40
1.0
 10
333.2282065597388
 20
233.0560476208596
 30
0.0
 10
332.0439021608722
 20
233.5357878229474
 30
0.0
 10
330.0083677476488
 20
234.3603458434116
 30
0.0
 10
328.0668697357631
 20
235.385570930694
 30
0.0
 10
327.254964336476
 20
235.814304711905
 30
0.0
  0
LWPOLYLINE
  5
2CE
330
1F
100
AcDbEntity
  8
0
  6
Continuous
 62
     7
370
    35
100
AcDbPolyline
 90
        9
 70
   128
 43
0.0
 10
333.2282065597
 20
233.0560476209
 10
333.2421912995
 20
233.09184021
 10
333.2836165276
 20
233.1978470708
 10
333.3508878198
 20
233.3699890102
 10
333.4414160994
 20
233.601653638
 10
333.5517256704
 20
233.8839412356
 10
333.6775771526
 20
234.2059963072
 10
333.814135119
 20
234.5554471637
 10
333.9561506358
 20
234.9188678587
  0
LWPOLYLINE
  5
2CF
330
1F
100
AcDbEntity
  8
0
  6
Continuous
 62
     7
370
    35
100
AcDbPolyline
 90
        9
 70
   128
 43
0.0
 10
399.4713335481
 20
233.0560476209
 10
399.4573488084
 20
233.09184021
 10
399.4159235803
 20
233.1978470708
 10
399.348652288
 20
233.3699890102
 10
399.2581240085
 20
233.601653638
 10
399.1478144375
 20
233.8839412356
 10
399.0219629553
 20
234.2059963072
 10
398.8854049888
 20
234.5554471637
 10
398.7433894721
 20
234.9188678587
  0
ARC
  5
2D0
330
1F
100
AcDbEntity
  8
0
  6
Continuous
 62
     7
370
    35
100
AcDbCircle
 10
366.3497700539
 20
317.8143031622
 30
0.0
 40
90.99999999999997
100
AcDbArc
 50
274.7137204274
 51
291.3444078455
  0
SPLINE
  5
2D1
330
1F
100
AcDbEntity
  8
0
  6
Continuous
 62
     7
370
    35
100
AcDbSpline
210
0.0
220
0.0
230
1.0
 70
     8
 71
     3
 72
    12
 73
     8
 74
     0
 42
0.000000001
 43
0.00000001
 40
0.0
 40
0.0
 40
0.0
 40
0.0
 40
0.2146966669169731
 40
0.4293934333082107
 40
0.644089370489875
 40
0.8587836822295221
 40
1.0
 40
1.0
 40
1.0
 40
1.0
 10
373.6585619111571
 20
229.1149140025048
 30
0.0
 10
373.6775939689063
 20
228.8908698357242
 30
0.0
 10
373.7156580932227
 20
228.4427813983577
 30
0.0
 10
373.7664032517453
 20
227.8455768794324
 30
0.0
 10
373.804704941663
 20
227.3948957941494
 30
0.0
 10
373.8250011437971
 20
227.156106603833
 30
0.0
 10
373.8270709436001
 20
227.1317519093371
 30
0.0
 10
373.8278921877059
 20
227.1220885837941
 30
0.0
  0
ARC
  5
2D2
330
1F
100
AcDbEntity
  8
0
  6
Continuous
 62
     7
370
    35
100
AcDbCircle
 10
366.3497700539
 20
317.8143031622
 30
0.0
 40
89.0
100
AcDbArc
 50
274.7105061054
 51
291.3444078455
  0
SPLINE
  5
2D3
330
1F
100
AcDbEntity
  8
0
  6
Continuous
 62
     7
370
    35
100
AcDbSpline
210
0.0
220
0.0
230
1.0
 70
     8
 71
     3
 72
    12
 73
     8
 74
     0
 42
0.000000001
 43
0.00000001
 40
0.0
 40
0.0
 40
0.0
 40
0.0
 40
0.1412157446407864
 40
0.3559089348218241
 40
0.5706057328472471
 40
0.7853035830277384
 40
1.0
 40
1.0
 40
1.0
 40
1.0
 10
372.7495202978167
 20
228.0315548802285
 30
0.0
 10
372.7490976420374
 20
228.0363852848094
 30
0.0
 10
372.7480324140164
 20
228.0485594524527
 30
0.0
 10
372.7375892010022
 20
228.1679307366742
 30
0.0
 10
372.7178791971148
 20
228.3932253326853
 30
0.0
 10
372.6917616022747
 20
228.6917663162382
 30
0.0
 10
372.6721649560372
 20
228.915762911942
 30
0.0
 10
372.6623666656229
 20
229.0277608359723
 30
0.0
  0
LWPOLYLINE
  5
2D4
330
1F
100
AcDbEntity
  8
0
  6
Continuous
 62
     7
370
    35
100
AcDbPolyline
 90
        9
 70
   128
 43
0.0
 10
372.6623666656
 20
229.027760836
 10
372.6815086042
 20
229.0294372166
 10
372.7381977436
 20
229.034395578
 10
372.8302561861
 20
229.0424496556
 10
372.9541458373
 20
229.0532902504
 10
373.1051057761
 20
229.0664964045
 10
373.2773347941
 20
229.0815614785
 10
373.4642139819
 20
229.0979117776
 10
373.6585619112
 20
229.1149140025
  0
ARC
  5
2D5
330
1F
100
AcDbEntity
  8
0
  6
Continuous
 62
     7
370
    35
100
AcDbCircle
 10
373.7457151449
 20
228.1187068588
 30
0.0
 40
1.000000000000044
100
AcDbArc
 50
184.9997926632
 51
274.7137204274
  0
SPLINE
  5
2D6
330
1F
100
AcDbEntity
  8
0
  6
Continuous
 62
     7
370
    35
100
AcDbSpline
210
0.0
220
0.0
230
1.0
 70
     8
 71
     3
 72
    12
 73
     8
 74
     0
 42
0.000000001
 43
0.00000001
 40
0.0
 40
0.0
 40
0.0
 40
0.0
 40
0.2146915096980213
 40
0.4293827469318632
 40
0.6440743098732872
 40
0.858767992491692
 40
1.0
 40
1.0
 40
1.0
 40
1.0
 10
358.8716479201826
 20
227.1220885837941
 30
0.0
 10
358.8735203304839
 20
227.1441179084633
 30
0.0
 10
358.8772651487102
 20
227.1881765298444
 30
0.0
 10
358.9064664834963
 20
227.5317531404853
 30
0.0
 10
358.9494387167716
 20
228.0374166056102
 30
0.0
 10
358.9970468435368
 20
228.5977465280571
 30
0.0
 10
359.0284982266259
 20
228.9679976397859
 30
0.0
 10
359.0409781967315
 20
229.1149140025048
 30
0.0
  0
LWPOLYLINE
  5
2D7
330
1F
100
AcDbEntity
  8
0
  6
Continuous
 62
     7
370
    35
100
AcDbPolyline
 90
        9
 70
   128
 43
0.0
 10
359.0409781967
 20
229.1149140025
 10
359.2353261259
 20
229.0979117776
 10
359.4222053138
 20
229.0815614785
 10
359.5944343318
 20
229.0664964045
 10
359.7453942706
 20
229.0532902504
 10
359.8692839217
 20
229.0424496556
 10
359.9613423643
 20
229.034395578
 10
360.0180315037
 20
229.0294372166
 10
360.0371734423
 20
229.027760836
  0
SPLINE
  5
2D8
330
1F
100
AcDbEntity
  8
0
  6
Continuous
 62
     7
370
    35
100
AcDbSpline
210
0.0
220
0.0
230
1.0
 70
     8
 71
     3
 72
    12
 73
     8
 74
     0
 42
0.000000001
 43
0.00000001
 40
0.0
 40
0.0
 40
0.0
 40
0.0
 40
0.1412332625911976
 40
0.3559282931530157
 40
0.5706183475930925
 40
0.7853101052354206
 40
1.0
 40
1.0
 40
1.0
 40
1.0
 10
360.0371734422657
 20
229.0277608359723
 30
0.0
 10
360.0307480874571
 20
228.9543177081293
 30
0.0
 10
360.0145552619997
 20
228.7692303805596
 30
0.0
 10
359.9900509518902
 20
228.4891235116816
 30
0.0
 10
359.9679358392099
 20
228.2363453631112
 30
0.0
 10
359.9529106265595
 20
228.0645902031814
 30
0.0
 10
359.9509834127807
 20
228.0425666226963
 30
0.0
 10
359.9500198100719
 20
228.0315548802285
 30
0.0
  0
ARC
  5
2D9
330
1F
100
AcDbEntity
  8
0
  6
Continuous
 62
     7
370
    35
100
AcDbCircle
 10
358.953824963
 20
228.1187068588
 30
0.0
 40
1.000000000000016
100
AcDbArc
 50
265.2862795726
 51
355.0002073368
  0
ARC
  5
2DA
330
1F
100
AcDbEntity
  8
0
  6
Continuous
 62
     7
370
    35
100
AcDbCircle
 10
366.3497700539
 20
317.8143031622
 30
0.0
 40
88.99999999999999
100
AcDbArc
 50
248.6555921545
 51
265.2894938946
  0
ARC
  5
2DB
330
1F
100
AcDbEntity
  8
0
  6
Continuous
 62
     7
370
    35
100
AcDbCircle
 10
366.3497700539
 20
317.8143031622
 30
0.0
 40
90.99999999999997
100
AcDbArc
 50
248.6555921545
 51
265.2862795726
  0
SPLINE
  5
2DC
330
1F
100
AcDbEntity
  8
0
  6
Continuous
 62
     7
370
    35
100
AcDbSpline
210
0.0
220
0.0
230
1.0
 70
     8
 71
     3
 72
     9
 73
     5
 74
     0
 42
0.000000001
 43
0.00000001
 40
0.0
 40
0.0
 40
0.0
 40
0.0
 40
0.6281683848842279
 40
1.0
 40
1.0
 40
1.0
 40
1.0
 10
405.3005485978934
 20
235.814304711905
 30
0.0
 10
404.1106234239986
 20
235.1702648650982
 30
0.0
 10
402.2163460255682
 20
234.1449986111694
 30
0.0
 10
400.2153624885422
 20
233.3512051322096
 30
0.0
 10
399.4713335481497
 20
233.0560476208596
 30
0.0
  0
LINE
  5
2DD
330
1F
100
AcDbEntity
  8
0
  6
Continuous
 62
     7
370
    35
100
AcDbLine
 10
373.4331362133
 20
231.6916525985
 30
0.0
 11
373.6585619112
 21
229.1149140025
 31
0.0
  0
ARC
  5
2DE
330
1F
100
AcDbEntity
  8
0
  6
Continuous
 62
     7
370
    35
100
AcDbCircle
 10
371.4407460394
 20
231.5173467154
 30
0.0
 40
2.000000000000069
100
AcDbArc
 50
4.9997926632
 51
94.5626854175
  0
SPLINE
  5
2DF
330
1F
100
AcDbEntity
  8
0
  6
Continuous
 62
     7
370
    35
100
AcDbSpline
210
0.0
220
0.0
230
1.0
 70
     8
 71
     3
 72
    10
 73
     6
 74
     0
 42
0.000000001
 43
0.00000001
 40
0.0
 40
0.0
 40
0.0
 40
0.0
 40
0.5010914454554611
 40
0.8108223614744949
 40
1.0
 40
1.0
 40
1.0
 40
1.0
 10
361.4178936180684
 20
233.5110098744302
 30
0.0
 10
363.0650409388338
 20
233.4172219280977
 30
0.0
 10
365.730310706322
 20
233.265462474184
 30
0.0
 10
369.0228424297209
 20
233.3524144345805
 30
0.0
 10
370.6606265910269
 20
233.4674067457904
 30
0.0
 10
371.2816464898202
 20
233.5110098744302
 30
0.0
  0
ARC
  5
2E0
330
1F
100
AcDbEntity
  8
0
  6
Continuous
 62
     7
370
    35
100
AcDbCircle
 10
361.2587940685
 20
231.5173467154
 30
0.0
 40
2.000000000000018
100
AcDbArc
 50
85.4373145825
 51
175.0002073368
  0
LINE
  5
2E1
330
1F
100
AcDbEntity
  8
0
  6
Continuous
 62
     7
370
    35
100
AcDbLine
 10
359.0409781967
 20
229.1149140025
 30
0.0
 11
359.2664038946
 21
231.6916525985
 31
0.0
  0
LWPOLYLINE
  5
2E2
330
1F
100
AcDbEntity
  8
0
  6
Continuous
 62
     7
370
    35
100
AcDbPolyline
 90
        9
 70
   128
 43
0.0
 10
371.2816464898
 20
233.5110098744
 10
371.2971660492
 20
233.3165348197
 10
371.3120890965
 20
233.1295364226
 10
371.3258419369
 20
232.9572007681
 10
371.3378965107
 20
232.8061439718
 10
371.3477899504
 20
232.6821737612
 10
371.3551408795
 20
232.590058508
 10
371.3596675728
 20
232.5333297873
 10
371.3611963389
 20
232.5141780699
  0
SPLINE
  5
2E3
330
1F
100
AcDbEntity
  8
0
  6
Continuous
 62
     7
370
    35
100
AcDbSpline
210
0.0
220
0.0
230
1.0
 70
     8
 71
     3
 72
    10
 73
     6
 74
     0
 42
0.000000001
 43
0.00000001
 40
0.0
 40
0.0
 40
0.0
 40
0.0
 40
0.189177658398043
 40
0.4989085551833841
 40
1.0
 40
1.0
 40
1.0
 40
1.0
 10
371.3611963388535
 20
232.5141780699163
 30
0.0
 10
370.7301595013366
 20
232.4698713550996
 30
0.0
 10
369.065958350212
 20
232.3530235240119
 30
0.0
 10
365.7203189113452
 20
232.2646687027734
 30
0.0
 10
363.0120591289483
 20
232.4188768309391
 30
0.0
 10
361.338343769035
 20
232.5141780699163
 30
0.0
  0
LWPOLYLINE
  5
2E4
330
1F
100
AcDbEntity
  8
0
  6
Continuous
 62
     7
370
    35
100
AcDbPolyline
 90
        9
 70
   128
 43
0.0
 10
361.4178936181
 20
233.5110098744
 10
361.4023740587
 20
233.3165348197
 10
361.3874510114
 20
233.1295364226
 10
361.373698171
 20
232.9572007681
 10
361.3616435972
 20
232.8061439718
 10
361.3517501575
 20
232.6821737612
 10
361.3443992284
 20
232.590058508
 10
361.339872535
 20
232.5333297873
 10
361.338343769
 20
232.5141780699
  0
LWPOLYLINE
  5
2E5
330
1F
100
AcDbEntity
  8
0
  6
Continuous
 62
     7
370
    35
100
AcDbPolyline
 90
        9
 70
   128
 43
0.0
 10
372.4369409678
 20
231.6044994319
 10
372.4560824406
 20
231.6061720873
 10
372.5127720458
 20
231.611134174
 10
372.6048300226
 20
231.6191882516
 10
372.7287196738
 20
231.6300251211
 10
372.8796796125
 20
231.6432312752
 10
373.0519086306
 20
231.6583000744
 10
373.2387882841
 20
231.6746466483
 10
373.4331362133
 20
231.6916525985
  0
ARC
  5
2E6
330
1F
100
AcDbEntity
  8
0
  6
Continuous
 62
     7
370
    35
100
AcDbCircle
 10
371.4407460394
 20
231.5173467154
 30
0.0
 40
1.000000000000036
100
AcDbArc
 50
4.9997926632
 51
94.5626854175
  0
LINE
  5
2E7
330
1F
100
AcDbEntity
  8
0
  6
Continuous
 62
     7
370
    35
100
AcDbLine
 10
372.6623666656
 20
229.027760836
 30
0.0
 11
372.4369409678
 21
231.6044994319
 31
0.0
  0
ARC
  5
2E8
330
1F
100
AcDbEntity
  8
0
  6
Continuous
 62
     7
370
    35
100
AcDbCircle
 10
361.2587940685
 20
231.5173467154
 30
0.0
 40
1.000000000000026
100
AcDbArc
 50
85.4373145825
 51
175.0002073368
  0
LWPOLYLINE
  5
2E9
330
1F
100
AcDbEntity
  8
0
  6
Continuous
 62
     7
370
    35
100
AcDbPolyline
 90
        9
 70
   128
 43
0.0
 10
359.2664038946
 20
231.6916525985
 10
359.4607518238
 20
231.6746466483
 10
359.6476314773
 20
231.6583000744
 10
359.8198604954
 20
231.6432312752
 10
359.9708204341
 20
231.6300251211
 10
360.0947100853
 20
231.6191882516
 10
360.1867680621
 20
231.611134174
 10
360.2434576673
 20
231.6061720873
 10
360.2625991401
 20
231.6044994319
  0
LINE
  5
2EA
330
1F
100
AcDbEntity
  8
0
  6
Continuous
 62
     7
370
    35
100
AcDbLine
 10
360.2625991401
 20
231.6044994319
 30
0.0
 11
360.0371734423
 21
229.027760836
 31
0.0
  0
LINE
  5
2EB
330
1F
100
AcDbEntity
  8
0
  6
Continuous
 62
     7
370
    35
100
AcDbLine
 10
281.3497691599
 20
270.8104716536
 30
0.0
 11
451.349770948
 21
270.8104716536
 31
0.0
  0
SPLINE
  5
2EC
330
1F
100
AcDbEntity
  8
0
  6
Continuous
 62
     7
370
    35
100
AcDbSpline
210
0.0
220
0.0
230
1.0
 70
     8
 71
     3
 72
     9
 73
     5
 74
     0
 42
0.000000001
 43
0.00000001
 40
0.0
 40
0.0
 40
0.0
 40
0.0
 40
0.5001394648678968
 40
1.0
 40
1.0
 40
1.0
 40
1.0
 10
358.0090634249854
 20
271.1664817504308
 30
0.0
 10
358.5375358111996
 20
271.1710034510162
 30
0.0
 10
359.5941858525113
 20
271.1800443304169
 30
0.0
 10
360.6508556342588
 20
271.1863949330123
 30
0.0
 10
361.1790431568211
 20
271.189569348624
 30
0.0
  0
SPLINE
  5
2ED
330
1F
100
AcDbEntity
  8
0
  6
Continuous
 62
     7
370
    35
100
AcDbSpline
210
0.0
220
0.0
230
1.0
 70
     8
 71
     3
 72
     8
 73
     4
 74
     0
 42
0.000000001
 43
0.00000001
 40
0.0
 40
0.0
 40
0.0
 40
0.0
 40
1.0
 40
1.0
 40
1.0
 40
1.0
 10
361.1790431568211
 20
271.189569348624
 30
0.0
 10
361.1788366975902
 20
271.2152550872079
 30
0.0
 10
361.1788369009828
 20
271.2409408257917
 30
0.0
 10
361.1790437575925
 20
271.2666265643755
 30
0.0
  0
LINE
  5
2EE
330
1F
100
AcDbEntity
  8
0
  6
Continuous
 62
     7
370
    35
100
AcDbLine
 10
361.1790438366
 20
271.2666265822
 30
0.0
 11
359.4114271176
 21
271.2549527447
 31
0.0
  0
LINE
  5
2EF
330
1F
100
AcDbEntity
  8
0
  6
Continuous
 62
     7
370
    35
100
AcDbLine
 10
359.4114271176
 20
271.2549527447
 30
0.0
 11
359.4114308429
 21
271.4393891607
 31
0.0
  0
LINE
  5
2F0
330
1F
100
AcDbEntity
  8
0
  6
Continuous
 62
     7
370
    35
100
AcDbLine
 10
359.4114308429
 20
271.4393891607
 30
0.0
 11
358.0090723184
 21
271.4274078995
 31
0.0
  0
LINE
  5
2F1
330
1F
100
AcDbEntity
  8
0
  6
Continuous
 62
     7
370
    35
100
AcDbLine
 10
358.0090723184
 20
271.4274078995
 30
0.0
 11
358.0090630052
 21
271.1664817567
 31
0.0
  0
LINE
  5
2F2
330
1F
100
AcDbEntity
  8
0
  6
Continuous
 62
     7
370
    35
100
AcDbLine
 10
366.1877415647
 20
271.461626379
 30
0.0
 11
366.1877415647
 21
271.2024275485
 31
0.0
  0
SPLINE
  5
2F3
330
1F
100
AcDbEntity
  8
0
  6
Continuous
 62
     7
370
    35
100
AcDbSpline
210
0.0
220
0.0
230
1.0
 70
     8
 71
     3
 72
     9
 73
     5
 74
     0
 42
0.000000001
 43
0.00000001
 40
0.0
 40
0.0
 40
0.0
 40
0.0
 40
0.1445007711741585
 40
1.0
 40
1.0
 40
1.0
 40
1.0
 10
366.1877415676178
 20
271.2024275248195
 30
0.0
 10
366.2417510635741
 20
271.2024346246795
 30
0.0
 10
366.615517206948
 20
271.2024837583957
 30
0.0
 10
366.9892832764499
 20
271.2021928748138
 30
0.0
 10
367.3090398606702
 20
271.2019440241338
 30
0.0
  0
SPLINE
  5
2F4
330
1F
100
AcDbEntity
  8
0
  6
Continuous
 62
     7
370
    35
100
AcDbSpline
210
0.0
220
0.0
230
1.0
 70
     8
 71
     3
 72
     8
 73
     4
 74
     0
 42
0.000000001
 43
0.00000001
 40
0.0
 40
0.0
 40
0.0
 40
0.0
 40
1.0
 40
1.0
 40
1.0
 40
1.0
 10
367.3090398606702
 20
271.2019440241338
 30
0.0
 10
367.309116720641
 20
271.2382025673172
 30
0.0
 10
367.3091167187626
 20
271.2744611105006
 30
0.0
 10
367.3090398552068
 20
271.310719653684
 30
0.0
  0
SPLINE
  5
2F5
330
1F
100
AcDbEntity
  8
0
  6
Continuous
 62
     7
370
    35
100
AcDbSpline
210
0.0
220
0.0
230
1.0
 70
     8
 71
     3
 72
     8
 73
     4
 74
     0
 42
0.000000001
 43
0.00000001
 40
0.0
 40
0.0
 40
0.0
 40
0.0
 40
1.0
 40
1.0
 40
1.0
 40
1.0
 10
367.3090398552068
 20
271.310719653684
 30
0.0
 10
367.3562601077747
 20
271.3007098411977
 30
0.0
 10
367.4036776067536
 20
271.2907000287113
 30
0.0
 10
367.4512922763868
 20
271.2806902162249
 30
0.0
  0
LINE
  5
2F6
330
1F
100
AcDbEntity
  8
0
  6
Continuous
 62
     7
370
    35
100
AcDbLine
 10
367.4512922947
 20
271.2806901933
 30
0.0
 11
367.8857830304
 21
271.2011657228
 31
0.0
  0
LINE
  5
2F7
330
1F
100
AcDbEntity
  8
0
  6
Continuous
 62
     7
370
    35
100
AcDbLine
 10
367.8857830304
 20
271.2011657228
 30
0.0
 11
368.7381151316
 21
271.1993570944
 31
0.0
  0
LINE
  5
2F8
330
1F
100
AcDbEntity
  8
0
  6
Continuous
 62
     7
370
    35
100
AcDbLine
 10
368.7381151316
 20
271.1993570944
 30
0.0
 11
369.171090489
 21
271.2770011082
 31
0.0
  0
SPLINE
  5
2F9
330
1F
100
AcDbEntity
  8
0
  6
Continuous
 62
     7
370
    35
100
AcDbSpline
210
0.0
220
0.0
230
1.0
 70
     8
 71
     3
 72
     8
 73
     4
 74
     0
 42
0.000000001
 43
0.00000001
 40
0.0
 40
0.0
 40
0.0
 40
0.0
 40
1.0
 40
1.0
 40
1.0
 40
1.0
 10
369.1710903849808
 20
271.2770011073119
 30
0.0
 10
369.2234585659266
 20
271.2865918464789
 30
0.0
 10
369.2755933475855
 20
271.2961825856458
 30
0.0
 10
369.3274946308447
 20
271.3057733248128
 30
0.0
  0
SPLINE
  5
2FA
330
1F
100
AcDbEntity
  8
0
  6
Continuous
 62
     7
370
    35
100
AcDbSpline
210
0.0
220
0.0
230
1.0
 70
     8
 71
     3
 72
     8
 73
     4
 74
     0
 42
0.000000001
 43
0.00000001
 40
0.0
 40
0.0
 40
0.0
 40
0.0
 40
1.0
 40
1.0
 40
1.0
 40
1.0
 10
369.3274946308447
 20
271.3057733248128
 30
0.0
 10
369.32773026865
 20
271.2697313585518
 30
0.0
 10
369.3277303244213
 20
271.2336893922908
 30
0.0
 10
369.3274947931246
 20
271.1976474260298
 30
0.0
  0
LINE
  5
2FB
330
1F
100
AcDbEntity
  8
0
  6
Continuous
 62
     7
370
    35
100
AcDbLine
 10
369.3274947067
 20
271.197647419
 30
0.0
 11
370.4506254938
 21
271.193351519
 31
0.0
  0
LINE
  5
2FC
330
1F
100
AcDbEntity
  8
0
  6
Continuous
 62
     7
370
    35
100
AcDbLine
 10
370.4506254938
 20
271.193351519
 30
0.0
 11
370.4506245625
 21
271.4522054399
 31
0.0
  0
LINE
  5
2FD
330
1F
100
AcDbEntity
  8
0
  6
Continuous
 62
     7
370
    35
100
AcDbLine
 10
370.4506245625
 20
271.4522054399
 30
0.0
 11
369.054891234
 21
271.4575337401
 31
0.0
  0
LINE
  5
2FE
330
1F
100
AcDbEntity
  8
0
  6
Continuous
 62
     7
370
    35
100
AcDbLine
 10
369.054891234
 20
271.4575337401
 30
0.0
 11
368.4172484276
 21
271.343115494
 31
0.0
  0
SPLINE
  5
2FF
330
1F
100
AcDbEntity
  8
0
  6
Continuous
 62
     7
370
    35
100
AcDbSpline
210
0.0
220
0.0
230
1.0
 70
     8
 71
     3
 72
     8
 73
     4
 74
     0
 42
0.000000001
 43
0.00000001
 40
0.0
 40
0.0
 40
0.0
 40
0.0
 40
1.0
 40
1.0
 40
1.0
 40
1.0
 10
368.4172484014653
 20
271.3431154885258
 30
0.0
 10
368.3817531078964
 20
271.3360523925385
 30
0.0
 10
368.346142129418
 20
271.3289892965513
 30
0.0
 10
368.3104154982331
 20
271.3219262005641
 30
0.0
  0
SPLINE
  5
300
330
1F
100
AcDbEntity
  8
0
  6
Continuous
 62
     7
370
    35
100
AcDbSpline
210
0.0
220
0.0
230
1.0
 70
     8
 71
     3
 72
     8
 73
     4
 74
     0
 42
0.000000001
 43
0.00000001
 40
0.0
 40
0.0
 40
0.0
 40
0.0
 40
1.0
 40
1.0
 40
1.0
 40
1.0
 10
368.3104154982331
 20
271.3219262005641
 30
0.0
 10
368.27777725972
 20
271.3291371344965
 30
0.0
 10
368.2452338301033
 20
271.3363480684289
 30
0.0
 10
368.2127852339506
 20
271.3435590023613
 30
0.0
  0
LINE
  5
301
330
1F
100
AcDbEntity
  8
0
  6
Continuous
 62
     7
370
    35
100
AcDbLine
 10
368.2127852875
 20
271.3435590073
 30
0.0
 11
367.5729323362
 21
271.4608011398
 31
0.0
  0
SPLINE
  5
302
330
1F
100
AcDbEntity
  8
0
  6
Continuous
 62
     7
370
    35
100
AcDbSpline
210
0.0
220
0.0
230
1.0
 70
     8
 71
     3
 72
    10
 73
     6
 74
     0
 42
0.000000001
 43
0.00000001
 40
0.0
 40
0.0
 40
0.0
 40
0.0
 40
0.4999999965887094
 40
0.8830280638692687
 40
1.0
 40
1.0
 40
1.0
 40
1.0
 10
367.5729323225987
 20
271.4608011483609
 30
0.0
 10
367.3420672811934
 20
271.4610667872332
 30
0.0
 10
366.9343466573573
 20
271.4615359203946
 30
0.0
 10
366.472616247959
 20
271.4616610137268
 30
0.0
 10
366.2417510627194
 20
271.4616329448844
 30
0.0
 10
366.1877415676826
 20
271.4616263783507
 30
0.0
  0
LINE
  5
303
330
1F
100
AcDbEntity
  8
0
  6
Continuous
 62
     7
370
    35
100
AcDbLine
 10
361.2753630799
 20
271.1894595801
 30
0.0
 11
362.5151371301
 21
271.1954253415
 31
0.0
  0
SPLINE
  5
304
330
1F
100
AcDbEntity
  8
0
  6
Continuous
 62
     7
370
    35
100
AcDbSpline
210
0.0
220
0.0
230
1.0
 70
     8
 71
     3
 72
     8
 73
     4
 74
     0
 42
0.000000001
 43
0.00000001
 40
0.0
 40
0.0
 40
0.0
 40
0.0
 40
1.0
 40
1.0
 40
1.0
 40
1.0
 10
362.5151371606532
 20
271.1954253577331
 30
0.0
 10
362.5979173473908
 20
271.2110771845278
 30
0.0
 10
362.6802094782747
 20
271.2267290113224
 30
0.0
 10
362.7620131749334
 20
271.242380838117
 30
0.0
  0
LINE
  5
305
330
1F
100
AcDbEntity
  8
0
  6
Continuous
 62
     7
370
    35
100
AcDbLine
 10
362.7620132823
 20
271.2423808213
 30
0.0
 11
364.4927682539
 21
271.2475087416
 31
0.0
  0
LINE
  5
306
330
1F
100
AcDbEntity
  8
0
  6
Continuous
 62
     7
370
    35
100
AcDbLine
 10
364.4927682539
 20
271.2475087416
 30
0.0
 11
364.739359305
 21
271.2019725392
 31
0.0
  0
LINE
  5
307
330
1F
100
AcDbEntity
  8
0
  6
Continuous
 62
     7
370
    35
100
AcDbLine
 10
364.739359305
 20
271.2019725392
 30
0.0
 11
365.980946582
 21
271.2033017112
 31
0.0
  0
LINE
  5
308
330
1F
100
AcDbEntity
  8
0
  6
Continuous
 62
     7
370
    35
100
AcDbLine
 10
365.980946582
 20
271.2033017112
 30
0.0
 11
364.5681075935
 21
271.464600936
 31
0.0
  0
LINE
  5
309
330
1F
100
AcDbEntity
  8
0
  6
Continuous
 62
     7
370
    35
100
AcDbLine
 10
364.5681075935
 20
271.464600936
 30
0.0
 11
363.9294007511
 21
271.4630935322
 31
0.0
  0
LINE
  5
30A
330
1F
100
AcDbEntity
  8
0
  6
Continuous
 62
     7
370
    35
100
AcDbLine
 10
363.9294007511
 20
271.4630935322
 30
0.0
 11
363.3266878963
 21
271.4612513179
 31
0.0
  0
LINE
  5
30B
330
1F
100
AcDbEntity
  8
0
  6
Continuous
 62
     7
370
    35
100
AcDbLine
 10
363.3266878963
 20
271.4612513179
 30
0.0
 11
362.6881065496
 21
271.4588550831
 31
0.0
  0
LINE
  5
30C
330
1F
100
AcDbEntity
  8
0
  6
Continuous
 62
     7
370
    35
100
AcDbLine
 10
362.6881065496
 20
271.4588550831
 30
0.0
 11
361.2753630799
 21
271.1894595801
 31
0.0
  0
LINE
  5
30D
330
1F
100
AcDbEntity
  8
0
  6
Continuous
 62
     7
370
    35
100
AcDbLine
 10
373.4680687261
 20
271.4327942328
 30
0.0
 11
373.4680687261
 21
271.4332501734
 31
0.0
  0
LINE
  5
30E
330
1F
100
AcDbEntity
  8
0
  6
Continuous
 62
     7
370
    35
100
AcDbLine
 10
373.4680687261
 20
271.4332501734
 30
0.0
 11
372.1888040376
 21
271.4425249239
 31
0.0
  0
LINE
  5
30F
330
1F
100
AcDbEntity
  8
0
  6
Continuous
 62
     7
370
    35
100
AcDbLine
 10
372.1888040376
 20
271.4425249239
 30
0.0
 11
371.1900215779
 21
271.4484996492
 31
0.0
  0
SPLINE
  5
310
330
1F
100
AcDbEntity
  8
0
  6
Continuous
 62
     7
370
    35
100
AcDbSpline
210
0.0
220
0.0
230
1.0
 70
     8
 71
     3
 72
     8
 73
     4
 74
     0
 42
0.000000001
 43
0.00000001
 40
0.0
 40
0.0
 40
0.0
 40
0.0
 40
1.0
 40
1.0
 40
1.0
 40
1.0
 10
371.1900216901413
 20
271.4484996573004
 30
0.0
 10
371.0976181465089
 20
271.4489865846157
 30
0.0
 10
371.0052240859635
 20
271.449473511931
 30
0.0
 10
370.9128400981705
 20
271.4499604392464
 30
0.0
  0
LINE
  5
311
330
1F
100
AcDbEntity
  8
0
  6
Continuous
 62
     7
370
    35
100
AcDbLine
 10
370.9128399563
 20
271.4499604287
 30
0.0
 11
370.9128413533
 21
271.1911885805
 31
0.0
  0
LINE
  5
312
330
1F
100
AcDbEntity
  8
0
  6
Continuous
 62
     7
370
    35
100
AcDbLine
 10
370.9128413533
 20
271.1911885805
 30
0.0
 11
372.1888068316
 21
271.184024498
 31
0.0
  0
SPLINE
  5
313
330
1F
100
AcDbEntity
  8
0
  6
Continuous
 62
     7
370
    35
100
AcDbSpline
210
0.0
220
0.0
230
1.0
 70
     8
 71
     3
 72
     8
 73
     4
 74
     0
 42
0.000000001
 43
0.00000001
 40
0.0
 40
0.0
 40
0.0
 40
0.0
 40
1.0
 40
1.0
 40
1.0
 40
1.0
 10
372.1888068850849
 20
271.1840244802632
 30
0.0
 10
372.1888830534526
 20
271.1987564458128
 30
0.0
 10
372.188882888616
 20
271.2134884113625
 30
0.0
 10
372.1888063930941
 20
271.2282203769121
 30
0.0
  0
LINE
  5
314
330
1F
100
AcDbEntity
  8
0
  6
Continuous
 62
     7
370
    35
100
AcDbLine
 10
372.1888063659
 20
271.2282203526
 30
0.0
 11
373.4789526274
 21
271.2191433917
 31
0.0
  0
SPLINE
  5
315
330
1F
100
AcDbEntity
  8
0
  6
Continuous
 62
     7
370
    35
100
AcDbSpline
210
0.0
220
0.0
230
1.0
 70
     8
 71
     3
 72
    18
 73
    14
 74
     0
 42
0.000000001
 43
0.00000001
 40
0.0
 40
0.0
 40
0.0
 40
0.0
 40
0.0507234276927692
 40
0.1008038994382564
 40
0.1505435219834787
 40
0.2002509539224855
 40
0.2502357778314102
 40
0.3748537456460993
 40
0.5001515602029128
 40
0.6251556098383413
 40
0.7500824975176716
 40
0.8746412426534192
 40
1.0
 40
1.0
 40
1.0
 40
1.0
 10
373.4789524396502
 20
271.2191433811279
 30
0.0
 10
373.5113290095402
 20
271.2189631796023
 30
0.0
 10
373.5756717529982
 20
271.2186050607351
 30
0.0
 10
373.6711546168826
 20
271.2188899767044
 30
0.0
 10
373.7647699761113
 20
271.2197883664548
 30
0.0
 10
373.8564935278037
 20
271.2213567477747
 30
0.0
 10
373.9904661287454
 20
271.2246742189553
 30
0.0
 10
374.1598155737317
 20
271.23128513889
 30
0.0
 10
374.3436310362257
 20
271.2432316908876
 30
0.0
 10
374.4952727337028
 20
271.2582049571584
 30
0.0
 10
374.6058316479109
 20
271.2757646946596
 30
0.0
 10
374.6773663707593
 20
271.2951730008461
 30
0.0
 10
374.6860945965814
 20
271.3089888318091
 30
0.0
 10
374.690472679477
 20
271.3159188602547
 30
0.0
  0
SPLINE
  5
316
330
1F
100
AcDbEntity
  8
0
  6
Continuous
 62
     7
370
    35
100
AcDbSpline
210
0.0
220
0.0
230
1.0
 70
     8
 71
     3
 72
    18
 73
    14
 74
     0
 42
0.000000001
 43
0.00000001
 40
0.0
 40
0.0
 40
0.0
 40
0.0
 40
0.0507853450097109
 40
0.1008917430766105
 40
0.1506277905914086
 40
0.2003067619691664
 40
0.2502408500353694
 40
0.3751274107983249
 40
0.5001680410986702
 40
0.62534092370096
 40
0.7500956129211127
 40
0.8745268199285137
 40
0.9999999999999999
 40
0.9999999999999999
 40
0.9999999999999999
 40
0.9999999999999999
 10
374.690472679477
 20
271.3159188602547
 30
0.0
 10
374.6897115784702
 20
271.3187499375549
 30
0.0
 10
374.6881995515811
 20
271.324374243613
 30
0.0
 10
374.6765218941559
 20
271.3328068728684
 30
0.0
 10
374.6579495501431
 20
271.3411385294482
 30
0.0
 10
374.6318545250367
 20
271.3493753653477
 30
0.0
 10
374.5819081408687
 20
271.3615418771725
 30
0.0
 10
374.4910665037531
 20
271.3771891824467
 30
0.0
 10
374.3373097898152
 20
271.3947357222568
 30
0.0
 10
374.1514372442289
 20
271.4097654377642
 30
0.0
 10
373.9389380412968
 20
271.4213985218029
 30
0.0
 10
373.7084545573508
 20
271.4296955002397
 30
0.0
 10
373.5484196588063
 20
271.4317584517404
 30
0.0
 10
373.4680685778288
 20
271.4327942282154
 30
0.0
  0
LINE
  5
317
330
1F
100
AcDbEntity
  8
0
  6
Continuous
 62
     7
370
    35
100
AcDbLine
 10
281.4372240749
 20
269.8143030672
 30
0.0
 11
451.262316033
 21
269.8143030672
 31
0.0
  0
SPLINE
  5
318
330
1F
100
AcDbEntity
  8
0
  6
Continuous
 62
     7
370
    35
100
AcDbSpline
210
0.0
220
0.0
230
1.0
 70
     8
 71
     3
 72
    16
 73
    12
 74
     0
 42
0.000000001
 43
0.00000001
 40
0.0
 40
0.0
 40
0.0
 40
0.0
 40
0.0846127943967753
 40
0.1675367553576044
 40
0.2501477013305123
 40
0.3750259810522377
 40
0.5001233552526105
 40
0.6253709372977211
 40
0.7500895935904482
 40
0.873967716765375
 40
1.0
 40
1.0
 40
1.0
 40
1.0
 10
373.4789502023261
 20
271.3262296118733
 30
0.0
 10
373.4782538362036
 20
271.3277717702314
 30
0.0
 10
373.4768750031141
 20
271.3308253061581
 30
0.0
 10
373.4665290119025
 20
271.3353764146639
 30
0.0
 10
373.4473366550821
 20
271.3405371846887
 30
0.0
 10
373.4148736497491
 20
271.3461744790711
 30
0.0
 10
373.3652446318102
 20
271.351876416294
 30
0.0
 10
373.3050352136709
 20
271.3567565837129
 30
0.0
 10
373.2361241341173
 20
271.3605273352889
 30
0.0
 10
373.1610666364946
 20
271.3631986117685
 30
0.0
 10
373.1088990897579
 20
271.3638551665722
 30
0.0
 10
373.0825904813233
 20
271.3641862736363
 30
0.0
  0
LINE
  5
319
330
1F
100
AcDbEntity
  8
0
  6
Continuous
 62
     7
370
    35
100
AcDbLine
 10
373.0825905872
 20
271.3641862598
 30
0.0
 11
372.1888049689
 21
271.3704092118
 31
0.0
  0
SPLINE
  5
31A
330
1F
100
AcDbEntity
  8
0
  6
Continuous
 62
     7
370
    35
100
AcDbSpline
210
0.0
220
0.0
230
1.0
 70
     8
 71
     3
 72
     8
 73
     4
 74
     0
 42
0.000000001
 43
0.00000001
 40
0.0
 40
0.0
 40
0.0
 40
0.0
 40
1.0
 40
1.0
 40
1.0
 40
1.0
 10
372.1888047454318
 20
271.3704092040054
 30
0.0
 10
372.189003333035
 20
271.3470993732741
 30
0.0
 10
372.1890036110054
 20
271.3237895425428
 30
0.0
 10
372.1888055683977
 20
271.3004797118115
 30
0.0
  0
LINE
  5
31B
330
1F
100
AcDbEntity
  8
0
  6
Continuous
 62
     7
370
    35
100
AcDbLine
 10
372.1888054346
 20
271.3004796921
 30
0.0
 11
373.0827964094
 21
271.2943176545
 31
0.0
  0
SPLINE
  5
31C
330
1F
100
AcDbEntity
  8
0
  6
Continuous
 62
     7
370
    35
100
AcDbSpline
210
0.0
220
0.0
230
1.0
 70
     8
 71
     3
 72
    16
 73
    12
 74
     0
 42
0.000000001
 43
0.00000001
 40
0.0
 40
0.0
 40
0.0
 40
0.0
 40
0.0844535611568531
 40
0.167414777667059
 40
0.2501495235573263
 40
0.3751657058125805
 40
0.500134528160026
 40
0.6255753116114489
 40
0.7500993497919949
 40
0.874084430806506
 40
1.0
 40
1.0
 40
1.0
 40
1.0
 10
373.0827962392547
 20
271.2943176309112
 30
0.0
 10
373.1002809016168
 20
271.2942990873261
 30
0.0
 10
373.1349412619597
 20
271.294262327832
 30
0.0
 10
373.1856733881276
 20
271.2949042936932
 30
0.0
 10
373.242480256936
 20
271.2962601916066
 30
0.0
 10
373.3033721175896
 20
271.2987067572006
 30
0.0
 10
373.3635651833998
 20
271.30260352019
 30
0.0
 10
373.4135864764567
 20
271.307458873426
 30
0.0
 10
373.45046392814
 20
271.3131519376213
 30
0.0
 10
373.4743812697253
 20
271.3194673155463
 30
0.0
 10
373.4774194015801
 20
271.3239639342705
 30
0.0
 10
373.4789502023261
 20
271.3262296118733
 30
0.0
  0
LINE
  5
31D
330
1F
100
AcDbEntity
  8
0
  6
Continuous
 62
     7
370
    35
100
AcDbLine
 10
363.6284531743
 20
271.4062035472
 30
0.0
 11
363.1358859778
 21
271.3131517909
 31
0.0
  0
LINE
  5
31E
330
1F
100
AcDbEntity
  8
0
  6
Continuous
 62
     7
370
    35
100
AcDbLine
 10
363.1358859778
 20
271.3131517909
 30
0.0
 11
364.120611753
 21
271.3160976224
 31
0.0
  0
LINE
  5
31F
330
1F
100
AcDbEntity
  8
0
  6
Continuous
 62
     7
370
    35
100
AcDbLine
 10
364.120611753
 20
271.3160976224
 30
0.0
 11
363.6284531743
 21
271.4062035472
 31
0.0
  0
LINE
  5
320
330
1F
100
AcDbEntity
  8
0
  6
Continuous
 62
     7
370
    35
100
AcDbLine
 10
293.3497711268
 20
235.8143047119
 30
0.0
 11
439.3497689811
 21
235.8143047119
 31
0.0
  0
LINE
  5
321
330
1F
100
AcDbEntity
  8
0
  6
Continuous
 62
     8
370
    35
100
AcDbLine
 10
331.8653128293
 20
235.8143047119
 30
0.0
 11
333.9561506358
 21
234.9188678587
 31
0.0
  0
LINE
  5
322
330
1F
100
AcDbEntity
  8
0
  6
Continuous
 62
     8
370
    35
100
AcDbLine
 10
398.7433894721
 20
234.9188678587
 30
0.0
 11
400.8390440789
 21
235.8143047119
 31
0.0
  0
LINE
  5
323
330
1F
100
AcDbEntity
  8
0
  6
Continuous
 62
     8
370
    35
100
AcDbLine
 10
292.718587741
 20
271.8085558678
 30
0.0
 11
439.9809523669
 21
271.8085558678
 31
0.0
  0
SPLINE
  5
324
330
1F
100
AcDbEntity
  8
0
  6
Continuous
 62
     7
370
    35
100
AcDbSpline
210
0.0
220
0.0
230
1.0
 70
     8
 71
     3
 72
     9
 73
     5
 74
     0
 42
0.000000001
 43
0.00000001
 40
0.0
 40
0.0
 40
0.0
 40
0.0
 40
0.6998217941944008
 40
1.0
 40
1.0
 40
1.0
 40
1.0
 10
626.0498351853037
 20
227.1191754067807
 30
0.0
 10
626.1262958589195
 20
227.1186903915579
 30
0.0
 10
626.2355532073619
 20
227.1179973362303
 30
0.0
 10
626.3447628830611
 20
227.1209978924165
 30
0.0
 10
626.3775452475691
 20
227.1218985939889
 30
0.0
  0
LINE
  5
325
330
1F
100
AcDbEntity
  8
0
  6
Continuous
 62
     7
370
    35
100
AcDbLine
 10
619.3743142735
 20
227.1187060202
 30
0.0
 11
626.0498165589
 21
227.1187060202
 31
0.0
  0
LINE
  5
326
330
1F
100
AcDbEntity
  8
0
  6
Continuous
 62
     7
370
    35
100
AcDbLine
 10
674.3743158381
 20
270.8104716536
 30
0.0
 11
663.005497257
 21
271.8085558678
 31
0.0
  0
LINE
  5
327
330
1F
100
AcDbEntity
  8
0
  6
Continuous
 62
     7
370
    35
100
AcDbLine
 10
508.839104275
 20
271.2024417512
 30
0.0
 11
504.37431405
 21
270.8104716536
 31
0.0
  0
LINE
  5
328
330
1F
100
AcDbEntity
  8
0
  6
Continuous
 62
     7
370
    35
100
AcDbLine
 10
515.7431326311
 20
271.8085558678
 30
0.0
 11
511.7915532987
 21
271.4616411055
 31
0.0
  0
LINE
  5
329
330
1F
100
AcDbEntity
  8
0
  6
Continuous
 62
     7
370
    35
100
AcDbLine
 10
504.37431405
 20
270.8104716536
 30
0.0
 11
504.461768965
 21
269.8143030672
 31
0.0
  0
LINE
  5
32A
330
1F
100
AcDbEntity
  8
0
  6
Continuous
 62
     7
370
    35
100
AcDbLine
 10
674.2868609231
 20
269.8143030672
 30
0.0
 11
674.3743158381
 21
270.8104716536
 31
0.0
  0
ARC
  5
32B
330
1F
100
AcDbEntity
  8
0
  6
Continuous
 62
     7
370
    35
100
AcDbCircle
 10
515.874314944
 20
270.3143031622
 30
0.0
 40
1.500000000000057
100
AcDbArc
 50
90.0
 51
95.0172124693
  0
ARC
  5
32C
330
1F
100
AcDbEntity
  8
0
  6
Continuous
 62
     7
370
    35
100
AcDbCircle
 10
662.874314944
 20
270.3143031622
 30
0.0
 40
1.500000000000057
100
AcDbArc
 50
84.9827875307
 51
90.0
  0
LINE
  5
32D
330
1F
100
AcDbEntity
  8
0
  6
Continuous
 62
     7
370
    35
100
AcDbLine
 10
662.8743148844
 20
271.8143031622
 30
0.0
 11
515.8743150036
 21
271.8143031622
 31
0.0
  0
LINE
  5
32E
330
1F
100
AcDbEntity
  8
0
  6
Continuous
 62
     7
370
    35
100
AcDbLine
 10
516.3743160169
 20
269.8143030672
 30
0.0
 11
516.3743160169
 21
235.8143047119
 31
0.0
  0
LINE
  5
32F
330
1F
100
AcDbEntity
  8
0
  6
Continuous
 62
     7
370
    35
100
AcDbLine
 10
662.3743138712
 20
264.714303116
 30
0.0
 11
662.3743138712
 21
269.8143030672
 31
0.0
  0
LINE
  5
330
330
1F
100
AcDbEntity
  8
0
  6
Continuous
 62
     7
370
    35
100
AcDbLine
 10
662.3743138712
 20
235.8143047119
 30
0.0
 11
662.3743138712
 21
253.7143022443
 31
0.0
  0
ARC
  5
331
330
1F
100
AcDbEntity
  8
0
  6
Continuous
 62
     7
370
    35
100
AcDbCircle
 10
661.374314944
 20
264.7143031622
 30
0.0
 40
1.000000000000052
100
AcDbArc
 50
304.0779124101
 51
0.0
  0
LINE
  5
332
330
1F
100
AcDbEntity
  8
0
  6
Continuous
 62
     7
370
    35
100
AcDbLine
 10
511.7915532987
 20
271.4616411055
 30
0.0
 11
508.839104275
 21
271.2024417512
 31
0.0
  0
LINE
  5
333
330
1F
100
AcDbEntity
  8
0
  6
Continuous
 62
     7
370
    35
100
AcDbLine
 10
625.844649921
 20
261.3443645338
 30
0.0
 11
625.844649921
 21
259.2846366266
 31
0.0
  0
ARC
  5
334
330
1F
100
AcDbEntity
  8
0
  6
Continuous
 62
     7
370
    35
100
AcDbCircle
 10
625.374315257
 20
247.6610133674
 30
0.0
 40
13.69143213255095
100
AcDbArc
 50
88.0313604896
 51
91.9686395104
  0
LINE
  5
335
330
1F
100
AcDbEntity
  8
0
  6
Continuous
 62
     7
370
    35
100
AcDbLine
 10
624.903980593
 20
259.2846366266
 30
0.0
 11
624.903980593
 21
261.3443645338
 31
0.0
  0
LINE
  5
336
330
1F
100
AcDbEntity
  8
0
  6
Continuous
 62
     7
370
    35
100
AcDbLine
 10
622.8442526858
 20
259.2846366266
 30
0.0
 11
624.903980593
 21
259.2846366266
 31
0.0
  0
ARC
  5
337
330
1F
100
AcDbEntity
  8
0
  6
Continuous
 62
     7
370
    35
100
AcDbCircle
 10
636.5317017
 20
258.8143033596
 30
0.0
 40
13.69552751441607
100
AcDbArc
 50
178.0319552525
 51
181.9680447475
  0
LINE
  5
338
330
1F
100
AcDbEntity
  8
0
  6
Continuous
 62
     7
370
    35
100
AcDbLine
 10
624.903980593
 20
258.3439700926
 30
0.0
 11
622.8442526858
 21
258.3439700926
 31
0.0
  0
LINE
  5
339
330
1F
100
AcDbEntity
  8
0
  6
Continuous
 62
     7
370
    35
100
AcDbLine
 10
624.903980593
 20
256.2842412541
 30
0.0
 11
624.903980593
 21
258.3439700926
 31
0.0
  0
ARC
  5
33A
330
1F
100
AcDbEntity
  8
0
  6
Continuous
 62
     7
370
    35
100
AcDbCircle
 10
625.374315257
 20
269.9695212379
 30
0.0
 40
13.69335981160217
100
AcDbArc
 50
268.0316377334
 51
271.9683622666
  0
LINE
  5
33B
330
1F
100
AcDbEntity
  8
0
  6
Continuous
 62
     7
370
    35
100
AcDbLine
 10
625.844649921
 20
258.3439700926
 30
0.0
 11
625.844649921
 21
256.2842412541
 31
0.0
  0
LINE
  5
33C
330
1F
100
AcDbEntity
  8
0
  6
Continuous
 62
     7
370
    35
100
AcDbLine
 10
627.9043778281
 20
258.3439700926
 30
0.0
 11
625.844649921
 21
258.3439700926
 31
0.0
  0
ARC
  5
33D
330
1F
100
AcDbEntity
  8
0
  6
Continuous
 62
     7
370
    35
100
AcDbCircle
 10
614.2169288139
 20
258.8143033596
 30
0.0
 40
13.69552751441607
100
AcDbArc
 50
358.0319552525
 51
1.9680447475
  0
LINE
  5
33E
330
1F
100
AcDbEntity
  8
0
  6
Continuous
 62
     7
370
    35
100
AcDbLine
 10
625.844649921
 20
259.2846366266
 30
0.0
 11
627.9043778281
 21
259.2846366266
 31
0.0
  0
CIRCLE
  5
33F
330
1F
100
AcDbEntity
  8
0
  6
Continuous
 62
     7
370
    35
100
AcDbCircle
 10
625.374314944
 20
258.8143031622
 30
0.0
 40
3.931278341185248
  0
LINE
  5
340
330
1F
100
AcDbEntity
  8
0
  6
Continuous
 62
     7
370
    35
100
AcDbLine
 10
626.4377049606
 20
259.2846366266
 30
0.0
 11
626.4377049606
 21
258.3439700926
 31
0.0
  0
LINE
  5
341
330
1F
100
AcDbEntity
  8
0
  6
Continuous
 62
     7
370
    35
100
AcDbLine
 10
625.844649921
 20
259.8776944602
 30
0.0
 11
624.903980593
 21
259.8776944602
 31
0.0
  0
LINE
  5
342
330
1F
100
AcDbEntity
  8
0
  6
Continuous
 62
     7
370
    35
100
AcDbLine
 10
624.3109255533
 20
259.2846366266
 30
0.0
 11
624.3109255533
 21
258.3439700926
 31
0.0
  0
LINE
  5
343
330
1F
100
AcDbEntity
  8
0
  6
Continuous
 62
     7
370
    35
100
AcDbLine
 10
624.903980593
 20
257.750912259
 30
0.0
 11
625.844649921
 21
257.750912259
 31
0.0
  0
CIRCLE
  5
344
330
1F
100
AcDbEntity
  8
0
  6
Continuous
 62
     7
370
    35
100
AcDbCircle
 10
625.374314944
 20
258.8143031622
 30
0.0
 40
4.150000000000091
  0
LINE
  5
345
330
1F
100
AcDbEntity
  8
0
  6
Continuous
 62
     7
370
    35
100
AcDbLine
 10
625.844649921
 20
258.3439700926
 30
0.0
 11
624.903980593
 21
258.3439700926
 31
0.0
  0
LINE
  5
346
330
1F
100
AcDbEntity
  8
0
  6
Continuous
 62
     7
370
    35
100
AcDbLine
 10
624.903980593
 20
258.3439700926
 30
0.0
 11
624.903980593
 21
259.2846366266
 31
0.0
  0
LINE
  5
347
330
1F
100
AcDbEntity
  8
0
  6
Continuous
 62
     7
370
    35
100
AcDbLine
 10
625.844649921
 20
259.2846366266
 30
0.0
 11
625.844649921
 21
258.3439700926
 31
0.0
  0
LINE
  5
348
330
1F
100
AcDbEntity
  8
0
  6
Continuous
 62
     7
370
    35
100
AcDbLine
 10
624.903980593
 20
259.2846366266
 30
0.0
 11
625.844649921
 21
259.2846366266
 31
0.0
  0
LWPOLYLINE
  5
349
330
1F
100
AcDbEntity
  8
0
  6
Continuous
 62
     7
370
    35
100
AcDbPolyline
 90
        4
 70
   128
 43
0.0
 10
625.3743133943
 20
258.814302894
 10
625.5338116985
 20
258.6548083151
 10
625.6912610929
 20
258.4973579893
 10
625.844649921
 20
258.3439700926
  0
LWPOLYLINE
  5
34A
330
1F
100
AcDbEntity
  8
0
  6
Continuous
 62
     7
370
    35
100
AcDbPolyline
 90
        4
 70
   128
 43
0.0
 10
624.903980593
 20
258.3439700926
 10
625.057369421
 20
258.4973579893
 10
625.2148188155
 20
258.6548083151
 10
625.3743133943
 20
258.814302894
  0
LWPOLYLINE
  5
34B
330
1F
100
AcDbEntity
  8
0
  6
Continuous
 62
     7
370
    35
100
AcDbPolyline
 90
        4
 70
   128
 43
0.0
 10
624.903980593
 20
259.2846366266
 10
625.057369421
 20
259.1312487299
 10
625.2148188155
 20
258.9737984041
 10
625.3743133943
 20
258.814302894
  0
LWPOLYLINE
  5
34C
330
1F
100
AcDbEntity
  8
0
  6
Continuous
 62
     7
370
    35
100
AcDbPolyline
 90
        4
 70
   128
 43
0.0
 10
625.844649921
 20
259.2846366266
 10
625.6912610929
 20
259.1312487299
 10
625.5338116985
 20
258.9737984041
 10
625.3743133943
 20
258.814302894
  0
SPLINE
  5
34D
330
1F
100
AcDbEntity
  8
0
  6
Continuous
 62
     7
370
    35
100
AcDbSpline
210
0.0
220
0.0
230
1.0
 70
     8
 71
     3
 72
    12
 73
     8
 74
     0
 42
0.000000001
 43
0.00000001
 40
0.0
 40
0.0
 40
0.0
 40
0.0
 40
0.2232619161168794
 40
0.4530015763840258
 40
0.6760458750898835
 40
0.9056461150961068
 40
1.0
 40
1.0
 40
1.0
 40
1.0
 10
626.3774409394407
 20
227.1238431955247
 30
0.0
 10
628.1282321553226
 20
227.2268635971013
 30
0.0
 10
631.6806122231287
 20
227.43589344476
 30
0.0
 10
636.8320850941584
 20
228.8595108582977
 30
0.0
 10
641.6844084760636
 20
231.1251117340103
 30
0.0
 10
645.3258272874413
 20
233.475859024978
 30
0.0
 10
647.1107121719571
 20
235.2868430568045
 30
0.0
 10
647.630572269454
 20
235.814304711905
 30
0.0
  0
LINE
  5
34E
330
1F
100
AcDbEntity
  8
0
  6
Continuous
 62
     7
370
    35
100
AcDbLine
 10
626.0498165589
 20
227.1220885838
 30
0.0
 11
626.3774409394
 21
227.1238431955
 31
0.0
  0
SPLINE
  5
34F
330
1F
100
AcDbEntity
  8
0
  6
Continuous
 62
     7
370
    35
100
AcDbSpline
210
0.0
220
0.0
230
1.0
 70
     8
 71
     3
 72
    13
 73
     9
 74
     0
 42
0.000000001
 43
0.00000001
 40
0.0
 40
0.0
 40
0.0
 40
0.0
 40
0.2521509645030039
 40
0.399414119301441
 40
0.5466780086229205
 40
0.6963701267040662
 40
0.8460620082445056
 40
1.0
 40
1.0
 40
1.0
 40
1.0
 10
626.0498165588522
 20
227.1220885837941
 30
0.0
 10
625.7997960202265
 20
227.3581780241902
 30
0.0
 10
625.4037565545863
 20
227.7321502439596
 30
0.0
 10
624.4442428929231
 20
228.622143107266
 30
0.0
 10
623.4952948794578
 20
229.488328229188
 30
0.0
 10
622.3427750532052
 20
230.5189944511512
 30
0.0
 10
620.9938951870497
 20
231.6992186437248
 30
0.0
 10
619.9191843405589
 20
232.5995742890352
 30
0.0
 10
619.3743142734909
 20
233.0560476208596
 30
0.0
  0
ARC
  5
350
330
1F
100
AcDbEntity
  8
0
  6
Continuous
 62
     7
370
    35
100
AcDbCircle
 10
619.3080751414
 20
234.9899800067
 30
0.0
 40
1.935066431859383
100
AcDbArc
 50
182.106048418
 51
271.961671299
  0
LINE
  5
351
330
1F
100
AcDbEntity
  8
0
  6
Continuous
 62
     7
370
    35
100
AcDbLine
 10
617.3743158083
 20
234.9188678587
 30
0.0
 11
617.3743158083
 21
235.8143047119
 31
0.0
  0
LINE
  5
352
330
1F
100
AcDbEntity
  8
0
  6
Continuous
 62
     7
370
    35
100
AcDbLine
 10
619.3743142735
 20
233.0560476209
 30
0.0
 11
619.3743142735
 21
227.1220885838
 31
0.0
  0
SPLINE
  5
353
330
1F
100
AcDbEntity
  8
0
  6
Continuous
 62
     7
370
    35
100
AcDbSpline
210
0.0
220
0.0
230
1.0
 70
     8
 71
     3
 72
    12
 73
     8
 74
     0
 42
0.000000001
 43
0.00000001
 40
0.0
 40
0.0
 40
0.0
 40
0.0
 40
0.2146966669169731
 40
0.4293934333082107
 40
0.644089370489875
 40
0.8587836822295221
 40
1.0
 40
1.0
 40
1.0
 40
1.0
 10
617.3743158083105
 20
229.1149140025048
 30
0.0
 10
617.3964250277957
 20
228.8908698357242
 30
0.0
 10
617.4406434770098
 20
228.4427813983577
 30
0.0
 10
617.7854692012539
 20
227.8455768794324
 30
0.0
 10
618.292973690359
 20
227.3948957941494
 30
0.0
 10
618.8553166170879
 20
227.156106603833
 30
0.0
 10
619.2268852548677
 20
227.1317519093371
 30
0.0
 10
619.3743142734909
 20
227.1220885837941
 30
0.0
  0
LINE
  5
354
330
1F
100
AcDbEntity
  8
0
  6
Continuous
 62
     7
370
    35
100
AcDbLine
 10
617.3743158083
 20
229.1149140025
 30
0.0
 11
617.3743158083
 21
234.9188678587
 31
0.0
  0
LINE
  5
355
330
1F
100
AcDbEntity
  8
0
  6
Continuous
 62
     7
370
    35
100
AcDbLine
 10
619.3743142735
 20
227.1220885838
 30
0.0
 11
626.0498165589
 21
227.1220885838
 31
0.0
  0
LINE
  5
356
330
1F
100
AcDbEntity
  8
0
  6
Continuous
 62
     7
370
    35
100
AcDbLine
 10
626.3774409394
 20
227.1238431955
 30
0.0
 11
626.3774036865
 21
227.1203861261
 31
0.0
  0
LINE
  5
357
330
1F
100
AcDbEntity
  8
0
  6
Continuous
 62
     7
370
    35
100
AcDbLine
 10
619.3743142735
 20
227.1187060202
 30
0.0
 11
619.3743142735
 21
227.1220885838
 31
0.0
  0
LINE
  5
358
330
1F
100
AcDbEntity
  8
0
  6
Continuous
 62
     7
370
    35
100
AcDbLine
 10
504.37431405
 20
270.8104716536
 30
0.0
 11
674.3743158381
 21
270.8104716536
 31
0.0
  0
SPLINE
  5
359
330
1F
100
AcDbEntity
  8
0
  6
Continuous
 62
     7
370
    35
100
AcDbSpline
210
0.0
220
0.0
230
1.0
 70
     8
 71
     3
 72
     8
 73
     4
 74
     0
 42
0.000000001
 43
0.00000001
 40
0.0
 40
0.0
 40
0.0
 40
0.0
 40
1.0
 40
1.0
 40
1.0
 40
1.0
 10
508.8391485625776
 20
271.2019440241338
 30
0.0
 10
509.2521867610028
 20
271.2382025673172
 30
0.0
 10
509.6652245088549
 20
271.2744611105006
 30
0.0
 10
510.078261784678
 20
271.310719653684
 30
0.0
  0
SPLINE
  5
35A
330
1F
100
AcDbEntity
  8
0
  6
Continuous
 62
     7
370
    35
100
AcDbSpline
210
0.0
220
0.0
230
1.0
 70
     8
 71
     3
 72
     8
 73
     4
 74
     0
 42
0.000000001
 43
0.00000001
 40
0.0
 40
0.0
 40
0.0
 40
0.0
 40
1.0
 40
1.0
 40
1.0
 40
1.0
 10
510.078261784678
 20
271.310719653684
 30
0.0
 10
509.9648065173209
 20
271.3007098411977
 30
0.0
 10
509.8513933929935
 20
271.2907000287113
 30
0.0
 10
509.738022925172
 20
271.2806902162249
 30
0.0
  0
LINE
  5
35B
330
1F
100
AcDbEntity
  8
0
  6
Continuous
 62
     7
370
    35
100
AcDbLine
 10
509.7380242746
 20
271.2806901933
 30
0.0
 11
508.8392160337
 21
271.2011657228
 31
0.0
  0
LINE
  5
35C
330
1F
100
AcDbEntity
  8
0
  6
Continuous
 62
     7
370
    35
100
AcDbLine
 10
508.8392160337
 20
271.2011657228
 30
0.0
 11
508.8393724959
 21
271.1993570944
 31
0.0
  0
LINE
  5
35D
330
1F
100
AcDbEntity
  8
0
  6
Continuous
 62
     7
370
    35
100
AcDbLine
 10
508.8393724959
 20
271.1993570944
 30
0.0
 11
509.7383446496
 21
271.2770011082
 31
0.0
  0
SPLINE
  5
35E
330
1F
100
AcDbEntity
  8
0
  6
Continuous
 62
     7
370
    35
100
AcDbSpline
210
0.0
220
0.0
230
1.0
 70
     8
 71
     3
 72
     8
 73
     4
 74
     0
 42
0.000000001
 43
0.00000001
 40
0.0
 40
0.0
 40
0.0
 40
0.0
 40
1.0
 40
1.0
 40
1.0
 40
1.0
 10
509.7383446934011
 20
271.2770011073119
 30
0.0
 10
509.8495131647351
 20
271.2865918464789
 30
0.0
 10
509.960733009843
 20
271.2961825856458
 30
0.0
 10
510.0720034891826
 20
271.3057733248128
 30
0.0
  0
SPLINE
  5
35F
330
1F
100
AcDbEntity
  8
0
  6
Continuous
 62
     7
370
    35
100
AcDbSpline
210
0.0
220
0.0
230
1.0
 70
     8
 71
     3
 72
     8
 73
     4
 74
     0
 42
0.000000001
 43
0.00000001
 40
0.0
 40
0.0
 40
0.0
 40
0.0
 40
1.0
 40
1.0
 40
1.0
 40
1.0
 10
510.0720034891826
 20
271.3057733248128
 30
0.0
 10
509.6611819858509
 20
271.2697313585518
 30
0.0
 10
509.2503559950402
 20
271.2336893922908
 30
0.0
 10
508.839525719485
 20
271.1976474260298
 30
0.0
  0
LINE
  5
360
330
1F
100
AcDbEntity
  8
0
  6
Continuous
 62
     7
370
    35
100
AcDbLine
 10
508.8395289581
 20
271.197647419
 30
0.0
 11
508.8399014871
 21
271.193351519
 31
0.0
  0
LINE
  5
361
330
1F
100
AcDbEntity
  8
0
  6
Continuous
 62
     7
370
    35
100
AcDbLine
 10
508.8399014871
 20
271.193351519
 30
0.0
 11
511.7923803132
 21
271.4522054399
 31
0.0
  0
LINE
  5
362
330
1F
100
AcDbEntity
  8
0
  6
Continuous
 62
     7
370
    35
100
AcDbLine
 10
511.7923803132
 20
271.4522054399
 30
0.0
 11
511.7919109266
 21
271.4575337401
 31
0.0
  0
LINE
  5
363
330
1F
100
AcDbEntity
  8
0
  6
Continuous
 62
     7
370
    35
100
AcDbLine
 10
511.7919109266
 20
271.4575337401
 30
0.0
 11
510.4685537021
 21
271.343115494
 31
0.0
  0
SPLINE
  5
364
330
1F
100
AcDbEntity
  8
0
  6
Continuous
 62
     7
370
    35
100
AcDbSpline
210
0.0
220
0.0
230
1.0
 70
     8
 71
     3
 72
     8
 73
     4
 74
     0
 42
0.000000001
 43
0.00000001
 40
0.0
 40
0.0
 40
0.0
 40
0.0
 40
1.0
 40
1.0
 40
1.0
 40
1.0
 10
510.4685502172116
 20
271.3431154885258
 30
0.0
 10
510.3871393833863
 20
271.3360523925385
 30
0.0
 10
510.3057524161697
 20
271.3289892965513
 30
0.0
 10
510.2243895631206
 20
271.3219262005641
 30
0.0
  0
SPLINE
  5
365
330
1F
100
AcDbEntity
  8
0
  6
Continuous
 62
     7
370
    35
100
AcDbSpline
210
0.0
220
0.0
230
1.0
 70
     8
 71
     3
 72
     8
 73
     4
 74
     0
 42
0.000000001
 43
0.00000001
 40
0.0
 40
0.0
 40
0.0
 40
0.0
 40
1.0
 40
1.0
 40
1.0
 40
1.0
 10
510.2243895631206
 20
271.3219262005641
 30
0.0
 10
510.3057434157056
 20
271.3291371344965
 30
0.0
 10
510.387117377928
 20
271.3363480684289
 30
0.0
 10
510.4685112845518
 20
271.3435590023613
 30
0.0
  0
LINE
  5
366
330
1F
100
AcDbEntity
  8
0
  6
Continuous
 62
     7
370
    35
100
AcDbLine
 10
510.4685089986
 20
271.3435590073
 30
0.0
 11
511.7916278045
 21
271.4608011398
 31
0.0
  0
LINE
  5
367
330
1F
100
AcDbEntity
  8
0
  6
Continuous
 62
     7
370
    35
100
AcDbLine
 10
511.7888263862
 20
271.4327942328
 30
0.0
 11
511.7940417926
 21
271.4332501734
 31
0.0
  0
LINE
  5
368
330
1F
100
AcDbEntity
  8
0
  6
Continuous
 62
     7
370
    35
100
AcDbLine
 10
511.7940417926
 20
271.4332501734
 30
0.0
 11
511.7932296794
 21
271.4425249239
 31
0.0
  0
LINE
  5
369
330
1F
100
AcDbEntity
  8
0
  6
Continuous
 62
     7
370
    35
100
AcDbLine
 10
511.7932296794
 20
271.4425249239
 30
0.0
 11
511.7927081387
 21
271.4484996492
 31
0.0
  0
SPLINE
  5
36A
330
1F
100
AcDbEntity
  8
0
  6
Continuous
 62
     7
370
    35
100
AcDbSpline
210
0.0
220
0.0
230
1.0
 70
     8
 71
     3
 72
     8
 73
     4
 74
     0
 42
0.000000001
 43
0.00000001
 40
0.0
 40
0.0
 40
0.0
 40
0.0
 40
1.0
 40
1.0
 40
1.0
 40
1.0
 10
511.7927049985044
 20
271.4484996573004
 30
0.0
 10
511.7924972162123
 20
271.4489865846157
 30
0.0
 10
511.7924545175918
 20
271.449473511931
 30
0.0
 10
511.7925768327574
 20
271.4499604392464
 30
0.0
  0
LINE
  5
36B
330
1F
100
AcDbEntity
  8
0
  6
Continuous
 62
     7
370
    35
100
AcDbLine
 10
511.7925740283
 20
271.4499604287
 30
0.0
 11
508.8400952022
 21
271.1911885805
 31
0.0
  0
LINE
  5
36C
330
1F
100
AcDbEntity
  8
0
  6
Continuous
 62
     7
370
    35
100
AcDbLine
 10
508.8400952022
 20
271.1911885805
 30
0.0
 11
508.840721051
 21
271.184024498
 31
0.0
  0
SPLINE
  5
36D
330
1F
100
AcDbEntity
  8
0
  6
Continuous
 62
     7
370
    35
100
AcDbSpline
210
0.0
220
0.0
230
1.0
 70
     8
 71
     3
 72
     8
 73
     4
 74
     0
 42
0.000000001
 43
0.00000001
 40
0.0
 40
0.0
 40
0.0
 40
0.0
 40
1.0
 40
1.0
 40
1.0
 40
1.0
 10
508.8407210387747
 20
271.1840244802632
 30
0.0
 10
509.0089735580436
 20
271.1987564458128
 30
0.0
 10
509.177223334691
 20
271.2134884113625
 30
0.0
 10
509.3454703166798
 20
271.2282203769121
 30
0.0
  0
LINE
  5
36E
330
1F
100
AcDbEntity
  8
0
  6
Continuous
 62
     7
370
    35
100
AcDbLine
 10
509.3454680841
 20
271.2282203526
 30
0.0
 11
509.3462652962
 21
271.2191433917
 31
0.0
  0
SPLINE
  5
36F
330
1F
100
AcDbEntity
  8
0
  6
Continuous
 62
     7
370
    35
100
AcDbSpline
210
0.0
220
0.0
230
1.0
 70
     8
 71
     3
 72
    18
 73
    14
 74
     0
 42
0.000000001
 43
0.00000001
 40
0.0
 40
0.0
 40
0.0
 40
0.0
 40
0.0507234276927692
 40
0.1008038994382564
 40
0.1505435219834787
 40
0.2002509539224855
 40
0.2502357778314102
 40
0.3748537456460993
 40
0.5001515602029128
 40
0.6251556098383413
 40
0.7500824975176716
 40
0.8746412426534192
 40
1.0
 40
1.0
 40
1.0
 40
1.0
 10
509.3462663232339
 20
271.2191433811279
 30
0.0
 10
509.3471010768989
 20
271.2189631796023
 30
0.0
 10
509.3487600031254
 20
271.2186050607351
 30
0.0
 10
509.360704938152
 20
271.2188899767044
 30
0.0
 10
509.3796019674781
 20
271.2197883664548
 30
0.0
 10
509.406101577836
 20
271.2213567477747
 30
0.0
 10
509.4567120726059
 20
271.2246742189553
 30
0.0
 10
509.5487101813288
 20
271.23128513889
 30
0.0
 10
509.7036906365731
 20
271.2432316908876
 30
0.0
 10
509.8905220308035
 20
271.2582049571584
 30
0.0
 10
510.1030460708952
 20
271.2757646946596
 30
0.0
 10
510.3328403413949
 20
271.2951730008461
 30
0.0
 10
510.4920141759196
 20
271.3089888318091
 30
0.0
 10
510.5718558592746
 20
271.3159188602547
 30
0.0
  0
SPLINE
  5
370
330
1F
100
AcDbEntity
  8
0
  6
Continuous
 62
     7
370
    35
100
AcDbSpline
210
0.0
220
0.0
230
1.0
 70
     8
 71
     3
 72
    18
 73
    14
 74
     0
 42
0.000000001
 43
0.00000001
 40
0.0
 40
0.0
 40
0.0
 40
0.0
 40
0.0507853450097109
 40
0.1008917430766105
 40
0.1506277905914086
 40
0.2003067619691664
 40
0.2502408500353694
 40
0.3751274107983249
 40
0.5001680410986702
 40
0.62534092370096
 40
0.7500956129211127
 40
0.8745268199285137
 40
0.9999999999999999
 40
0.9999999999999999
 40
0.9999999999999999
 40
0.9999999999999999
 10
510.5718558592748
 20
271.3159188602547
 30
0.0
 10
510.6042033194007
 20
271.3187499375549
 30
0.0
 10
510.6684657879453
 20
271.324374243613
 30
0.0
 10
510.763819276083
 20
271.3328068728684
 30
0.0
 10
510.8572860093379
 20
271.3411385294482
 30
0.0
 10
510.9488725427607
 20
271.3493753653477
 30
0.0
 10
511.0829574578498
 20
271.3615418771725
 30
0.0
 10
511.2526323708305
 20
271.3771891824467
 30
0.0
 10
511.4376505402873
 20
271.3947357222568
 30
0.0
 10
511.59085223613
 20
271.4097654377642
 30
0.0
 10
511.7029587779072
 20
271.4213985218029
 30
0.0
 10
511.7756538624506
 20
271.4296955002397
 30
0.0
 10
511.7844237530937
 20
271.4317584517404
 30
0.0
 10
511.7888269813874
 20
271.4327942282154
 30
0.0
  0
LINE
  5
371
330
1F
100
AcDbEntity
  8
0
  6
Continuous
 62
     7
370
    35
100
AcDbLine
 10
504.461768965
 20
269.8143030672
 30
0.0
 11
674.2868609231
 21
269.8143030672
 31
0.0
  0
LINE
  5
372
330
1F
100
AcDbEntity
  8
0
  6
Continuous
 62
     7
370
    35
100
AcDbLine
 10
633.4550305705
 20
263.8143027822
 30
0.0
 11
633.4550305705
 21
252.8143037731
 31
0.0
  0
LINE
  5
373
330
1F
100
AcDbEntity
  8
0
  6
Continuous
 62
     7
370
    35
100
AcDbLine
 10
633.4550305705
 20
263.8143027822
 30
0.0
 11
612.8524504106
 21
263.8143027822
 31
0.0
  0
LINE
  5
374
330
1F
100
AcDbEntity
  8
0
  6
Continuous
 62
     7
370
    35
100
AcDbLine
 10
612.8524504106
 20
252.8143037731
 30
0.0
 11
612.8524504106
 21
263.8143027822
 31
0.0
  0
LINE
  5
375
330
1F
100
AcDbEntity
  8
0
  6
Continuous
 62
     7
370
    35
100
AcDbLine
 10
633.4550305705
 20
252.8143037731
 30
0.0
 11
612.8524504106
 21
252.8143037731
 31
0.0
  0
LINE
  5
376
330
1F
100
AcDbEntity
  8
0
  6
Continuous
 62
     7
370
    35
100
AcDbLine
 10
661.9346327584
 20
264.714303116
 30
0.0
 11
661.9346327584
 21
254.7143024082
 31
0.0
  0
SPLINE
  5
377
330
1F
100
AcDbEntity
  8
0
  6
Continuous
 62
     7
370
    35
100
AcDbSpline
210
0.0
220
0.0
230
1.0
 70
     8
 71
     3
 72
    12
 73
     8
 74
     0
 42
0.000000001
 43
0.00000001
 40
0.0
 40
0.0
 40
0.0
 40
0.0
 40
0.2500000000000005
 40
0.2500000000000005
 40
0.500000000000001
 40
0.500000000000001
 40
1.0
 40
1.0
 40
1.0
 40
1.0
 10
662.037923442383
 20
253.7143031621843
 30
0.0
 10
662.0252278099866
 20
253.7143031621843
 30
0.0
 10
662.0124049281202
 20
253.7401501407397
 30
0.0
 10
661.9878268560434
 20
253.8400818552961
 30
0.0
 10
661.9762511151059
 20
253.9140201378178
 30
0.0
 10
661.946839670312
 20
254.1902112017455
 30
0.0
 10
661.93463467873
 20
254.4494707425235
 30
0.0
 10
661.93463467873
 20
254.7143031621843
 30
0.0
  0
LINE
  5
378
330
1F
100
AcDbEntity
  8
0
  6
Continuous
 62
     7
370
    35
100
AcDbLine
 10
662.0379201572
 20
253.7143022443
 30
0.0
 11
662.3743138712
 21
253.7143022443
 31
0.0
  0
LINE
  5
379
330
1F
100
AcDbEntity
  8
0
  6
Continuous
 62
     7
370
    35
100
AcDbLine
 10
662.2028834622
 20
264.714303116
 30
0.0
 11
661.9346327584
 21
264.714303116
 31
0.0
  0
LINE
  5
37A
330
1F
100
AcDbEntity
  8
0
  6
Continuous
 62
     7
370
    35
100
AcDbLine
 10
516.3743160169
 20
235.8143047119
 30
0.0
 11
662.3743138712
 21
235.8143047119
 31
0.0
  0
LINE
  5
37B
330
1F
100
AcDbEntity
  8
0
  6
Continuous
 62
     7
370
    35
100
AcDbLine
 10
615.9804909926
 20
263.8143027822
 30
0.0
 11
615.9804909926
 21
252.8143037731
 31
0.0
  0
LINE
  5
37C
330
1F
100
AcDbEntity
  8
0
  6
Continuous
 62
     7
370
    35
100
AcDbLine
 10
620.2845870953
 20
252.8143037731
 30
0.0
 11
620.2845870953
 21
263.8143027822
 31
0.0
  0
LINE
  5
37D
330
1F
100
AcDbEntity
  8
0
  6
Continuous
 62
     7
370
    35
100
AcDbLine
 10
631.0396491985
 20
252.8143037731
 30
0.0
 11
631.0396491985
 21
263.8143027822
 31
0.0
  0
SPLINE
  5
37E
330
1F
100
AcDbEntity
  8
0
  6
Continuous
 62
     7
370
    35
100
AcDbSpline
210
0.0
220
0.0
230
1.0
 70
     8
 71
     3
 72
    16
 73
    12
 74
     0
 42
0.000000001
 43
0.00000001
 40
0.0
 40
0.0
 40
0.0
 40
0.0
 40
0.0846127943967753
 40
0.1675367553576044
 40
0.2501477013305123
 40
0.3750259810522377
 40
0.5001233552526105
 40
0.6253709372977211
 40
0.7500895935904482
 40
0.873967716765375
 40
1.0
 40
1.0
 40
1.0
 40
1.0
 10
510.5709521144591
 20
271.3262296118733
 30
0.0
 10
510.5885270364356
 20
271.3277717702314
 30
0.0
 10
510.6233260928265
 20
271.3308253061581
 30
0.0
 10
510.6744417242902
 20
271.3353764146639
 30
0.0
 10
510.7317312167814
 20
271.3405371846887
 30
0.0
 10
510.7932771050434
 20
271.3461744790711
 30
0.0
 10
510.8540357584561
 20
271.351876416294
 30
0.0
 10
510.9044826600231
 20
271.3567565837129
 30
0.0
 10
510.9415204334661
 20
271.3605273352889
 30
0.0
 10
510.965502256455
 20
271.3631986117685
 30
0.0
 10
510.9685133305763
 20
271.3638551665722
 30
0.0
 10
510.9700318449591
 20
271.3641862736363
 30
0.0
  0
LINE
  5
37F
330
1F
100
AcDbEntity
  8
0
  6
Continuous
 62
     7
370
    35
100
AcDbLine
 10
510.9700299304
 20
271.3641862598
 30
0.0
 11
510.969486038
 21
271.3704092118
 31
0.0
  0
SPLINE
  5
380
330
1F
100
AcDbEntity
  8
0
  6
Continuous
 62
     7
370
    35
100
AcDbSpline
210
0.0
220
0.0
230
1.0
 70
     8
 71
     3
 72
     8
 73
     4
 74
     0
 42
0.000000001
 43
0.00000001
 40
0.0
 40
0.0
 40
0.0
 40
0.0
 40
1.0
 40
1.0
 40
1.0
 40
1.0
 10
510.9694861102629
 20
271.3704092040054
 30
0.0
 10
510.7032517462602
 20
271.3470993732741
 30
0.0
 10
510.4370099439632
 20
271.3237895425428
 30
0.0
 10
510.1707609253542
 20
271.3004797118115
 30
0.0
  0
LINE
  5
381
330
1F
100
AcDbEntity
  8
0
  6
Continuous
 62
     7
370
    35
100
AcDbLine
 10
510.1707614463
 20
271.3004796921
 30
0.0
 11
510.1712978881
 21
271.2943176545
 31
0.0
  0
SPLINE
  5
382
330
1F
100
AcDbEntity
  8
0
  6
Continuous
 62
     7
370
    35
100
AcDbSpline
210
0.0
220
0.0
230
1.0
 70
     8
 71
     3
 72
    16
 73
    12
 74
     0
 42
0.000000001
 43
0.00000001
 40
0.0
 40
0.0
 40
0.0
 40
0.0
 40
0.0844535611568531
 40
0.167414777667059
 40
0.2501495235573263
 40
0.3751657058125805
 40
0.500134528160026
 40
0.6255753116114489
 40
0.7500993497919949
 40
0.874084430806506
 40
1.0
 40
1.0
 40
1.0
 40
1.0
 10
510.1713013352529
 20
271.2943176309112
 30
0.0
 10
510.1725790762881
 20
271.2942990873261
 30
0.0
 10
510.1751119799144
 20
271.294262327832
 30
0.0
 10
510.1868165120445
 20
271.2949042936932
 30
0.0
 10
510.2072405670233
 20
271.2962601916066
 30
0.0
 10
510.2405395772925
 20
271.2987067572006
 30
0.0
 10
510.2904147828887
 20
271.30260352019
 30
0.0
 10
510.3503955217823
 20
271.307458873426
 30
0.0
 10
510.4188119789411
 20
271.3131519376213
 30
0.0
 10
510.493197288662
 20
271.3194673155463
 30
0.0
 10
510.5449007025127
 20
271.3239639342705
 30
0.0
 10
510.5709521144591
 20
271.3262296118733
 30
0.0
  0
SPLINE
  5
383
330
1F
100
AcDbEntity
  8
0
  6
Continuous
 62
     7
370
    35
100
AcDbSpline
210
0.0
220
0.0
230
1.0
 70
     8
 71
     3
 72
    10
 73
     6
 74
     0
 42
0.000000001
 43
0.00000001
 40
0.0
 40
0.0
 40
0.0
 40
0.0
 40
0.2409368049892939
 40
0.7008482835905491
 40
1.0
 40
1.0
 40
1.0
 40
1.0
 10
661.9346327583933
 20
264.0544796983271
 30
0.0
 10
661.9759083049918
 20
264.096572884189
 30
0.0
 10
662.095972551669
 20
264.219015518321
 30
0.0
 10
662.1845542941765
 20
264.4575463768992
 30
0.0
 10
662.1977019040763
 20
264.6417193540629
 30
0.0
 10
662.2028834622049
 20
264.7143031159907
 30
0.0
  0
SPLINE
  5
384
330
1F
100
AcDbEntity
  8
0
  6
Continuous
 62
     8
370
    35
100
AcDbSpline
210
0.0
220
0.0
230
1.0
 70
     8
 71
     3
 72
     9
 73
     5
 74
     0
 42
0.000000001
 43
0.00000001
 40
0.0
 40
0.0
 40
0.0
 40
0.0
 40
0.6281683848842279
 40
1.0
 40
1.0
 40
1.0
 40
1.0
 10
619.5235382269764
 20
235.814304711905
 30
0.0
 10
619.4918972562596
 20
235.1702648650982
 30
0.0
 10
619.4415270506297
 20
234.1449986111694
 30
0.0
 10
619.3925321328875
 20
233.3512051322096
 30
0.0
 10
619.3743142734909
 20
233.0560476208596
 30
0.0
  0
LINE
  5
385
330
1F
100
AcDbEntity
  8
0
  6
Continuous
 62
     8
370
    35
100
AcDbLine
 10
626.0498165589
 20
227.1220885838
 30
0.0
 11
626.0498165589
 21
227.1187060202
 31
0.0
  0
LINE
  5
386
330
1F
100
AcDbEntity
  8
0
  6
Continuous
 62
     8
370
    35
100
AcDbLine
 10
515.7431326311
 20
271.8085558678
 30
0.0
 11
663.005497257
 21
271.8085558678
 31
0.0
  0
LINE
  5
387
330
1F
100
AcDbEntity
  8
0
  6
Continuous
 62
     8
370
    35
100
AcDbLine
 10
508.8391117256
 20
271.2023576411
 30
0.0
 11
508.8391489785
 21
271.2019440175
 31
0.0
  0
LINE
  5
388
330
1F
100
AcDbEntity
  8
0
  6
Continuous
 62
     8
370
    35
100
AcDbLine
 10
511.7916278045
 20
271.4608011398
 30
0.0
 11
511.7915607493
 21
271.4615298416
 31
0.0
  0
LINE
  5
389
330
1F
100
AcDbEntity
  8
0
  6
Continuous
 62
     8
370
    35
100
AcDbLine
 10
662.2028834622
 20
264.714303116
 30
0.0
 11
662.3743138712
 21
264.714303116
 31
0.0
  0
LINE
  5
38A
330
1F
100
AcDbEntity
  8
0
  6
Continuous
 62
     8
370
    35
100
AcDbLine
 10
621.9705044727
 20
263.8143027822
 30
0.0
 11
621.9705044727
 21
261.1884499589
 31
0.0
  0
LINE
  5
38B
330
1F
100
AcDbEntity
  8
0
  6
Continuous
 62
     8
370
    35
100
AcDbLine
 10
621.9705044727
 20
256.440155829
 30
0.0
 11
621.9705044727
 21
252.8143037731
 31
0.0
  0
ENDSEC
  0
SECTION
  2
OBJECTS
  0
DICTIONARY
  5
C
330
0
100
AcDbDictionary
281
     1
  3
ACAD_GROUP
350
D
  3
ACAD_LAYOUT
350
1A
  3
ACAD_MLINESTYLE
350
17
  3
ACAD_PLOTSETTINGS
350
19
  3
ACAD_PLOTSTYLENAME
350
E
  3
ACAD_SCALELIST
350
47
  0
DICTIONARY
  5
D
102
{ACAD_REACTORS
330
C
102
}
330
C
100
AcDbDictionary
281
     1
  0
DICTIONARY
  5
1A
102
{ACAD_REACTORS
330
C
102
}
330
C
100
AcDbDictionary
281
     1
  3
Layout1
350
1E
  3
Layout2
350
26
  3
Model
350
22
  0
DICTIONARY
  5
17
102
{ACAD_REACTORS
330
C
102
}
330
C
100
AcDbDictionary
281
     1
  3
Standard
350
18
  0
DICTIONARY
  5
19
102
{ACAD_REACTORS
330
C
102
}
330
C
100
AcDbDictionary
281
     1
  0
ACDBDICTIONARYWDFLT
  5
E
102
{ACAD_REACTORS
330
C
102
}
330
C
100
AcDbDictionary
281
     1
  3
Normal
350
F
100
AcDbDictionaryWithDefault
340
F
  0
DICTIONARY
  5
47
102
{ACAD_REACTORS
330
C
102
}
330
C
100
AcDbDictionary
281
     1
  3
A0
350
48
  3
A1
350
49
  3
A2
350
4A
  3
A3
350
4B
  3
A4
350
4C
  3
A5
350
4D
  3
A6
350
4E
  3
A7
350
4F
  3
A8
350
50
  3
A9
350
51
  3
B0
350
52
  3
B1
350
53
  3
B2
350
54
  3
B3
350
55
  3
B4
350
56
  3
B5
350
57
  3
B6
350
58
  3
B7
350
59
  3
B8
350
5A
  3
B9
350
5B
  3
C0
350
5C
  3
C1
350
5D
  3
C2
350
5E
  3
C3
350
5F
  3
C4
350
60
  3
C5
350
61
  3
C6
350
62
  3
C7
350
63
  3
C8
350
64
  3
C9
350
65
  3
D0
350
66
  3
D1
350
67
  3
D2
350
68
  0
LAYOUT
  5
1E
102
{ACAD_REACTORS
330
1A
102
}
330
1A
100
AcDbPlotSettings
  1

  2
none_device
  4

  6

 40
0.0
 41
0.0
 42
0.0
 43
0.0
 44
0.0
 45
0.0
 46
0.0
 47
0.0
 48
0.0
 49
0.0
140
0.0
141
0.0
142
1.0
143
1.0
 70
   688
 72
     1
 73
     0
 74
     5
  7

 75
    16
147
1.0
148
0.0
149
0.0
100
AcDbLayout
  1
Layout1
 70
     1
 71
     1
 10
0.0
 20
0.0
 11
420.0
 21
297.0
 12
0.0
 22
0.0
 32
0.0
 14
1.0000000000E+20
 24
1.0000000000E+20
 34
1.0000000000E+20
 15
-1.0000000000E+20
 25
-1.0000000000E+20
 35
-1.0000000000E+20
146
0.0
 13
0.0
 23
0.0
 33
0.0
 16
1.0
 26
0.0
 36
0.0
 17
0.0
 27
1.0
 37
0.0
 76
     0
330
1B
  0
LAYOUT
  5
26
102
{ACAD_REACTORS
330
1A
102
}
330
1A
100
AcDbPlotSettings
  1

  2
none_device
  4

  6

 40
0.0
 41
0.0
 42
0.0
 43
0.0
 44
0.0
 45
0.0
 46
0.0
 47
0.0
 48
0.0
 49
0.0
140
0.0
141
0.0
142
1.0
143
1.0
 70
   688
 72
     1
 73
     0
 74
     5
  7

 75
    16
147
1.0
148
0.0
149
0.0
100
AcDbLayout
  1
Layout2
 70
     1
 71
     2
 10
0.0
 20
0.0
 11
0.0
 21
0.0
 12
0.0
 22
0.0
 32
0.0
 14
0.0
 24
0.0
 34
0.0
 15
0.0
 25
0.0
 35
0.0
146
0.0
 13
0.0
 23
0.0
 33
0.0
 16
1.0
 26
0.0
 36
0.0
 17
0.0
 27
1.0
 37
0.0
 76
     0
330
23
  0
LAYOUT
  5
22
102
{ACAD_REACTORS
330
1A
102
}
330
1A
100
AcDbPlotSettings
  1

  2
none_device
  4
Letter_(8.50_x_11.00_Inches)
  6

 40
6.35
 41
6.35
 42
6.35000508
 43
6.35000508
 44
215.9
 45
279.4
 46
0.0
 47
0.0
 48
0.0
 49
0.0
140
0.0
141
0.0
142
1.0
143
1.0
 70
  1712
 72
     1
 73
     0
 74
     0
  7

 75
     0
147
1.0
148
0.0
149
0.0
100
AcDbLayout
  1
Model
 70
     1
 71
     0
 10
0.0
 20
0.0
 11
420.0
 21
297.0
 12
0.0
 22
0.0
 32
0.0
 14
0.0
 24
0.0
 34
0.0
 15
420.0
 25
297.0
 35
0.0
146
0.0
 13
0.0
 23
0.0
 33
0.0
 16
1.0
 26
0.0
 36
0.0
 17
0.0
 27
1.0
 37
0.0
 76
     0
330
1F
331
29
  0
MLINESTYLE
  5
18
102
{ACAD_REACTORS
330
17
102
}
330
17
100
AcDbMlineStyle
  2
Standard
 70
     0
  3

 62
   256
 51
90.0
 52
90.0
 71
     2
 49
0.5
 62
   256
  6
BYLAYER
 49
-0.5
 62
   256
  6
BYLAYER
  0
ACDBPLACEHOLDER
  5
F
102
{ACAD_REACTORS
330
E
102
}
330
E
  0
SCALE
  5
48
102
{ACAD_REACTORS
330
47
102
}
330
47
100
AcDbScale
 70
     0
300
1:1
140
1.0
141
1.0
290
     1
  0
SCALE
  5
49
102
{ACAD_REACTORS
330
47
102
}
330
47
100
AcDbScale
 70
     0
300
1:2
140
1.0
141
2.0
290
     0
  0
SCALE
  5
4A
102
{ACAD_REACTORS
330
47
102
}
330
47
100
AcDbScale
 70
     0
300
1:4
140
1.0
141
4.0
290
     0
  0
SCALE
  5
4B
102
{ACAD_REACTORS
330
47
102
}
330
47
100
AcDbScale
 70
     0
300
1:5
140
1.0
141
5.0
290
     0
  0
SCALE
  5
4C
102
{ACAD_REACTORS
330
47
102
}
330
47
100
AcDbScale
 70
     0
300
1:8
140
1.0
141
8.0
290
     0
  0
SCALE
  5
4D
102
{ACAD_REACTORS
330
47
102
}
330
47
100
AcDbScale
 70
     0
300
1:10
140
1.0
141
10.0
290
     0
  0
SCALE
  5
4E
102
{ACAD_REACTORS
330
47
102
}
330
47
100
AcDbScale
 70
     0
300
1:16
140
1.0
141
16.0
290
     0
  0
SCALE
  5
4F
102
{ACAD_REACTORS
330
47
102
}
330
47
100
AcDbScale
 70
     0
300
1:20
140
1.0
141
20.0
290
     0
  0
SCALE
  5
50
102
{ACAD_REACTORS
330
47
102
}
330
47
100
AcDbScale
 70
     0
300
1:30
140
1.0
141
30.0
290
     0
  0
SCALE
  5
51
102
{ACAD_REACTORS
330
47
102
}
330
47
100
AcDbScale
 70
     0
300
1:40
140
1.0
141
40.0
290
     0
  0
SCALE
  5
52
102
{ACAD_REACTORS
330
47
102
}
330
47
100
AcDbScale
 70
     0
300
1:50
140
1.0
141
50.0
290
     0
  0
SCALE
  5
53
102
{ACAD_REACTORS
330
47
102
}
330
47
100
AcDbScale
 70
     0
300
1:100
140
1.0
141
100.0
290
     0
  0
SCALE
  5
54
102
{ACAD_REACTORS
330
47
102
}
330
47
100
AcDbScale
 70
     0
300
2:1
140
2.0
141
1.0
290
     0
  0
SCALE
  5
55
102
{ACAD_REACTORS
330
47
102
}
330
47
100
AcDbScale
 70
     0
300
4:1
140
4.0
141
1.0
290
     0
  0
SCALE
  5
56
102
{ACAD_REACTORS
330
47
102
}
330
47
100
AcDbScale
 70
     0
300
8:1
140
8.0
141
1.0
290
     0
  0
SCALE
  5
57
102
{ACAD_REACTORS
330
47
102
}
330
47
100
AcDbScale
 70
     0
300
10:1
140
10.0
141
1.0
290
     0
  0
SCALE
  5
58
102
{ACAD_REACTORS
330
47
102
}
330
47
100
AcDbScale
 70
     0
300
100:1
140
100.0
141
1.0
290
     0
  0
SCALE
  5
59
102
{ACAD_REACTORS
330
47
102
}
330
47
100
AcDbScale
 70
     0
300
1/128" = 1'-0"
140
0.0078125
141
12.0
290
     0
  0
SCALE
  5
5A
102
{ACAD_REACTORS
330
47
102
}
330
47
100
AcDbScale
 70
     0
300
1/64" = 1'-0"
140
0.015625
141
12.0
290
     0
  0
SCALE
  5
5B
102
{ACAD_REACTORS
330
47
102
}
330
47
100
AcDbScale
 70
     0
300
1/32" = 1'-0"
140
0.03125
141
12.0
290
     0
  0
SCALE
  5
5C
102
{ACAD_REACTORS
330
47
102
}
330
47
100
AcDbScale
 70
     0
300
1/16" = 1'-0"
140
0.0625
141
12.0
290
     0
  0
SCALE
  5
5D
102
{ACAD_REACTORS
330
47
102
}
330
47
100
AcDbScale
 70
     0
300
3/32" = 1'-0"
140
0.09375
141
12.0
290
     0
  0
SCALE
  5
5E
102
{ACAD_REACTORS
330
47
102
}
330
47
100
AcDbScale
 70
     0
300
1/8" = 1'-0"
140
0.125
141
12.0
290
     0
  0
SCALE
  5
5F
102
{ACAD_REACTORS
330
47
102
}
330
47
100
AcDbScale
 70
     0
300
3/16" = 1'-0"
140
0.1875
141
12.0
290
     0
  0
SCALE
  5
60
102
{ACAD_REACTORS
330
47
102
}
330
47
100
AcDbScale
 70
     0
300
1/4" = 1'-0"
140
0.25
141
12.0
290
     0
  0
SCALE
  5
61
102
{ACAD_REACTORS
330
47
102
}
330
47
100
AcDbScale
 70
     0
300
3/8" = 1'-0"
140
0.375
141
12.0
290
     0
  0
SCALE
  5
62
102
{ACAD_REACTORS
330
47
102
}
330
47
100
AcDbScale
 70
     0
300
1/2" = 1'-0"
140
0.5
141
12.0
290
     0
  0
SCALE
  5
63
102
{ACAD_REACTORS
330
47
102
}
330
47
100
AcDbScale
 70
     0
300
3/4" = 1'-0"
140
0.75
141
12.0
290
     0
  0
SCALE
  5
64
102
{ACAD_REACTORS
330
47
102
}
330
47
100
AcDbScale
 70
     0
300
1" = 1'-0"
140
1.0
141
12.0
290
     0
  0
SCALE
  5
65
102
{ACAD_REACTORS
330
47
102
}
330
47
100
AcDbScale
 70
     0
300
1-1/2" = 1'-0"
140
1.5
141
12.0
290
     0
  0
SCALE
  5
66
102
{ACAD_REACTORS
330
47
102
}
330
47
100
AcDbScale
 70
     0
300
3" = 1'-0"
140
3.0
141
12.0
290
     0
  0
SCALE
  5
67
102
{ACAD_REACTORS
330
47
102
}
330
47
100
AcDbScale
 70
     0
300
6" = 1'-0"
140
6.0
141
12.0
290
     0
  0
SCALE
  5
68
102
{ACAD_REACTORS
330
47
102
}
330
47
100
AcDbScale
 70
     0
300
1'-0" = 1'-0"
140
12.0
141
12.0
290
     0
  0
ENDSEC
  0
EOF
