  0
SECTION
  2
HEADER
  9
$ACADVER
  1
AC1015
  9
$ACADMAINTVER
 70
     6
  9
$DWGCODEPAGE
  3
DOS932
  9
$INSBASE
 10
0.0
 20
0.0
 30
0.0
  9
$EXTMIN
 10
0.0
 20
0.0
 30
0.0
  9
$EXTMAX
 10
420.0
 20
297.0
 30
0.0
  9
$LIMMIN
 10
0.0
 20
0.0
  9
$LIMMAX
 10
420.0
 20
297.0
  9
$ORTHOMODE
 70
     0
  9
$REGENMODE
 70
     1
  9
$FILLMODE
 70
     1
  9
$QTEXTMODE
 70
     0
  9
$MIRRTEXT
 70
     1
  9
$LTSCALE
 40
1.0
  9
$ATTMODE
 70
     1
  9
$TEXTSIZE
 40
3.8805555556
  9
$TRACEWID
 40
1.0
  9
$TEXTSTYLE
  7
Standard
  9
$CLAYER
  8
0
  9
$CELTYPE
  6
ByLayer
  9
$CECOLOR
 62
   256
  9
$CELTSCALE
 40
1.0
  9
$DISPSILH
 70
     0
  9
$DIMSCALE
 40
1.0
  9
$DIMASZ
 40
3.0
  9
$DIMEXO
 40
0.0
  9
$DIMDLI
 40
3.75
  9
$DIMRND
 40
0.0
  9
$DIMDLE
 40
0.0
  9
$DIMEXE
 40
1.0
  9
$DIMTP
 40
0.0
  9
$DIMTM
 40
0.0
  9
$DIMTXT
 40
3.5277777778
  9
$DIMCEN
 40
2.5
  9
$DIMTSZ
 40
0.0
  9
$DIMTOL
 70
     0
  9
$DIMLIM
 70
     0
  9
$DIMTIH
 70
     1
  9
$DIMTOH
 70
     1
  9
$DIMSE1
 70
     0
  9
$DIMSE2
 70
     0
  9
$DIMTAD
 70
     1
  9
$DIMZIN
 70
     0
  9
$DIMBLK
  1

  9
$DIMASO
 70
     1
  9
$DIMSHO
 70
     1
  9
$DIMPOST
  1

  9
$DIMAPOST
  1

  9
$DIMALT
 70
     0
  9
$DIMALTD
 70
     3
  9
$DIMALTF
 40
0.0393700787
  9
$DIMLFAC
 40
1.0
  9
$DIMTOFL
 70
     1
  9
$DIMTVP
 40
0.0
  9
$DIMTIX
 70
     0
  9
$DIMSOXD
 70
     0
  9
$DIMSAH
 70
     0
  9
$DIMBLK1
  1

  9
$DIMBLK2
  1

  9
$DIMSTYLE
  2
ISO-25
  9
$DIMCLRD
 70
     0
  9
$DIMCLRE
 70
     0
  9
$DIMCLRT
 70
     0
  9
$DIMTFAC
 40
1.0
  9
$DIMGAP
 40
1.0
  9
$DIMJUST
 70
     0
  9
$DIMSD1
 70
     0
  9
$DIMSD2
 70
     0
  9
$DIMTOLJ
 70
     0
  9
$DIMTZIN
 70
     0
  9
$DIMALTZ
 70
     0
  9
$DIMALTTZ
 70
     0
  9
$DIMUPT
 70
     0
  9
$DIMDEC
 70
     2
  9
$DIMTDEC
 70
     2
  9
$DIMALTU
 70
     2
  9
$DIMALTTD
 70
     3
  9
$DIMTXSTY
  7
Standard
  9
$DIMAUNIT
 70
     0
  9
$DIMADEC
 70
     2
  9
$DIMALTRND
 40
0.0
  9
$DIMAZIN
 70
     0
  9
$DIMDSEP
 70
    44
  9
$DIMATFIT
 70
     3
  9
$DIMFRAC
 70
     0
  9
$DIMLDRBLK
  1

  9
$DIMLUNIT
 70
     2
  9
$DIMLWD
 70
    -2
  9
$DIMLWE
 70
    -2
  9
$DIMTMOVE
 70
     0
  9
$LUNITS
 70
     2
  9
$LUPREC
 70
     2
  9
$SKETCHINC
 40
1.0
  9
$FILLETRAD
 40
10.0
  9
$AUNITS
 70
     0
  9
$AUPREC
 70
     2
  9
$MENU
  1
.
  9
$ELEVATION
 40
0.0
  9
$PELEVATION
 40
0.0
  9
$THICKNESS
 40
0.0
  9
$LIMCHECK
 70
     0
  9
$CHAMFERA
 40
0.0
  9
$CHAMFERB
 40
0.0
  9
$CHAMFERC
 40
0.0
  9
$CHAMFERD
 40
0.0
  9
$SKPOLY
 70
     0
  9
$TDCREATE
 40
2458682.48728081
  9
$TDUCREATE
 40
2458682.11228081
  9
$TDUPDATE
 40
2458682.487282002
  9
$TDUUPDATE
 40
2458682.112282002
  9
$TDINDWG
 40
0.0000000116
  9
$TDUSRTIMER
 40
0.0000000116
  9
$USRTIMER
 70
     1
  9
$ANGBASE
 50
0.0
  9
$ANGDIR
 70
     0
  9
$PDMODE
 70
     0
  9
$PDSIZE
 40
-1.0
  9
$PLINEWID
 40
0.0
  9
$SPLFRAME
 70
     0
  9
$SPLINETYPE
 70
     6
  9
$SPLINESEGS
 70
     8
  9
$HANDSEED
  5
2F5
  9
$SURFTAB1
 70
     6
  9
$SURFTAB2
 70
     6
  9
$SURFTYPE
 70
     6
  9
$SURFU
 70
     6
  9
$SURFV
 70
     6
  9
$UCSBASE
  2

  9
$UCSNAME
  2

  9
$UCSORG
 10
0.0
 20
0.0
 30
0.0
  9
$UCSXDIR
 10
1.0
 20
0.0
 30
0.0
  9
$UCSYDIR
 10
0.0
 20
1.0
 30
0.0
  9
$UCSORTHOREF
  2

  9
$UCSORTHOVIEW
 70
     0
  9
$UCSORGTOP
 10
0.0
 20
0.0
 30
0.0
  9
$UCSORGBOTTOM
 10
0.0
 20
0.0
 30
0.0
  9
$UCSORGLEFT
 10
0.0
 20
0.0
 30
0.0
  9
$UCSORGRIGHT
 10
0.0
 20
0.0
 30
0.0
  9
$UCSORGFRONT
 10
0.0
 20
0.0
 30
0.0
  9
$UCSORGBACK
 10
0.0
 20
0.0
 30
0.0
  9
$PUCSBASE
  2

  9
$PUCSNAME
  2

  9
$PUCSORG
 10
0.0
 20
0.0
 30
0.0
  9
$PUCSXDIR
 10
1.0
 20
0.0
 30
0.0
  9
$PUCSYDIR
 10
0.0
 20
1.0
 30
0.0
  9
$PUCSORTHOREF
  2

  9
$PUCSORTHOVIEW
 70
     0
  9
$PUCSORGTOP
 10
0.0
 20
0.0
 30
0.0
  9
$PUCSORGBOTTOM
 10
0.0
 20
0.0
 30
0.0
  9
$PUCSORGLEFT
 10
0.0
 20
0.0
 30
0.0
  9
$PUCSORGRIGHT
 10
0.0
 20
0.0
 30
0.0
  9
$PUCSORGFRONT
 10
0.0
 20
0.0
 30
0.0
  9
$PUCSORGBACK
 10
0.0
 20
0.0
 30
0.0
  9
$USERI1
 70
     0
  9
$USERI2
 70
     0
  9
$USERI3
 70
     0
  9
$USERI4
 70
     0
  9
$USERI5
 70
     0
  9
$USERR1
 40
0.0
  9
$USERR2
 40
0.0
  9
$USERR3
 40
0.0
  9
$USERR4
 40
0.0
  9
$USERR5
 40
0.0
  9
$WORLDVIEW
 70
     1
  9
$SHADEDGE
 70
     3
  9
$SHADEDIF
 70
    70
  9
$TILEMODE
 70
     1
  9
$MAXACTVP
 70
    64
  9
$PINSBASE
 10
0.0
 20
0.0
 30
0.0
  9
$PLIMCHECK
 70
     0
  9
$PEXTMIN
 10
1.0000000000E+20
 20
1.0000000000E+20
 30
1.0000000000E+20
  9
$PEXTMAX
 10
-1.0000000000E+20
 20
-1.0000000000E+20
 30
-1.0000000000E+20
  9
$PLIMMIN
 10
0.0
 20
0.0
  9
$PLIMMAX
 10
420.0
 20
297.0
  9
$UNITMODE
 70
     0
  9
$VISRETAIN
 70
     1
  9
$PLINEGEN
 70
     0
  9
$PSLTSCALE
 70
     1
  9
$TREEDEPTH
 70
  3020
  9
$CMLSTYLE
  2
Standard
  9
$CMLJUST
 70
     0
  9
$CMLSCALE
 40
20.0
  9
$PROXYGRAPHICS
 70
     1
  9
$MEASUREMENT
 70
     1
  9
$CELWEIGHT
370
    -1
  9
$ENDCAPS
280
     0
  9
$JOINSTYLE
280
     0
  9
$LWDISPLAY
290
     1
  9
$INSUNITS
 70
     4
  9
$HYPERLINKBASE
  1

  9
$STYLESHEET
  1

  9
$XEDIT
290
     1
  9
$CEPSNTYPE
380
     0
  9
$PSTYLEMODE
290
     1
  9
$FINGERPRINTGUID
  2
{1E1E25E9-1B96-4499-B9E3-D1F3D6433649}
  9
$VERSIONGUID
  2
{FAEB1C32-E019-11D5-929B-00C0DF256EC4}
  9
$EXTNAMES
290
     1
  9
$PSVPSCALE
 40
0.0
  9
$OLESTARTUP
290
     0
  0
ENDSEC
  0
SECTION
  2
CLASSES
  0
CLASS
  1
ACDBDICTIONARYWDFLT
  2
AcDbDictionaryWithDefault
  3
ObjectDBX Classes
 90
        0
280
     0
281
     0
  0
CLASS
  1
VISUALSTYLE
  2
AcDbVisualStyle
  3
ObjectDBX Classes
 90
     4095
280
     0
281
     0
  0
CLASS
  1
MATERIAL
  2
AcDbMaterial
  3
ObjectDBX Classes
 90
     1153
280
     0
281
     0
  0
CLASS
  1
SCALE
  2
AcDbScale
  3
ObjectDBX Classes
 90
     1153
280
     0
281
     0
  0
CLASS
  1
TABLESTYLE
  2
AcDbTableStyle
  3
ObjectDBX Classes
 90
     4095
280
     0
281
     0
  0
CLASS
  1
MLEADERSTYLE
  2
AcDbMLeaderStyle
  3
ACDB_MLEADERSTYLE_CLASS
 90
     4095
280
     0
281
     0
  0
CLASS
  1
SUN
  2
AcDbSun
  3
SCENEOE
 90
     1153
280
     0
281
     0
  0
CLASS
  1
ACDBPLACEHOLDER
  2
AcDbPlaceHolder
  3
ObjectDBX Classes
 90
        0
280
     0
281
     0
  0
CLASS
  1
LAYOUT
  2
AcDbLayout
  3
ObjectDBX Classes
 90
        0
280
     0
281
     0
  0
ENDSEC
  0
SECTION
  2
TABLES
  0
TABLE
  2
VPORT
  5
8
330
0
100
AcDbSymbolTable
 70
     1
  0
VPORT
  5
29
330
8
100
AcDbSymbolTableRecord
100
AcDbViewportTableRecord
  2
*Active
 70
     0
 10
0.0
 20
0.0
 11
1.0
 21
1.0
 12
210.0
 22
148.5
 13
0.0
 23
0.0
 14
10.0
 24
10.0
 15
10.0
 25
10.0
 16
0.0
 26
0.0
 36
1.0
 17
0.0
 27
0.0
 37
0.0
 40
297.0
 41
1.4141414141
 42
50.0
 43
0.0
 44
0.0
 50
0.0
 51
0.0
 71
     0
 72
  2000
 73
     1
 74
     3
 75
     0
 76
     0
 77
     0
 78
     0
281
     0
 65
     1
110
0.0
120
0.0
130
0.0
111
1.0
121
0.0
131
0.0
112
0.0
122
1.0
132
0.0
 79
     0
146
0.0
  0
ENDTAB
  0
TABLE
  2
LTYPE
  5
5
330
0
100
AcDbSymbolTable
 70
     6
  0
LTYPE
  5
14
330
5
100
AcDbSymbolTableRecord
100
AcDbLinetypeTableRecord
  2
ByBlock
 70
     0
  3

 72
    65
 73
     0
 40
0.0
  0
LTYPE
  5
15
330
5
100
AcDbSymbolTableRecord
100
AcDbLinetypeTableRecord
  2
ByLayer
 70
     0
  3

 72
    65
 73
     0
 40
0.0
  0
LTYPE
  5
16
330
5
100
AcDbSymbolTableRecord
100
AcDbLinetypeTableRecord
  2
Continuous
 70
     0
  3
Solid line
 72
    65
 73
     0
 40
0.0
  0
LTYPE
  5
6E
330
5
100
AcDbSymbolTableRecord
100
AcDbLinetypeTableRecord
  2
HIDDEN
 70
     0
  3
Hidden __ __ __ __ __ __ __ __ __ __ __ __ __ __
 72
    65
 73
     2
 40
1.905
 49
1.27
 74
     0
 49
-0.635
 74
     0
  0
LTYPE
  5
6F
330
5
100
AcDbSymbolTableRecord
100
AcDbLinetypeTableRecord
  2
PHANTOM
 70
     0
  3
Phantom ______  __  __  ______  __  __  ______
 72
    65
 73
     6
 40
12.7
 49
6.35
 74
     0
 49
-1.27
 74
     0
 49
1.27
 74
     0
 49
-1.27
 74
     0
 49
1.27
 74
     0
 49
-1.27
 74
     0
  0
LTYPE
  5
70
330
5
100
AcDbSymbolTableRecord
100
AcDbLinetypeTableRecord
  2
CENTER
 70
     0
  3
Center ____ _ ____ _ ____ _ ____ _ ____ _ ____
 72
    65
 73
     4
 40
10.16
 49
6.35
 74
     0
 49
-1.27
 74
     0
 49
1.27
 74
     0
 49
-1.27
 74
     0
  0
LTYPE
  5
71
330
5
100
AcDbSymbolTableRecord
100
AcDbLinetypeTableRecord
  2
CENTERX2
 70
     0
  3
Center (2x) ________  __  ________  __  _____
 72
    65
 73
     4
 40
20.32
 49
12.7
 74
     0
 49
-2.54
 74
     0
 49
2.54
 74
     0
 49
-2.54
 74
     0
  0
LTYPE
  5
72
330
5
100
AcDbSymbolTableRecord
100
AcDbLinetypeTableRecord
  2
DOT2
 70
     0
  3
Dot (.5x) ........................................
 72
    65
 73
     2
 40
0.635
 49
0.0
 74
     0
 49
-0.635
 74
     0
  0
ENDTAB
  0
TABLE
  2
LAYER
  5
2
330
0
100
AcDbSymbolTable
 70
     6
  0
LAYER
  5
10
330
2
100
AcDbSymbolTableRecord
100
AcDbLayerTableRecord
  2
0
 70
     0
 62
     7
  6
Continuous
370
    -3
390
F
  0
LAYER
  5
73
330
2
100
AcDbSymbolTableRecord
100
AcDbLayerTableRecord
  2
SLD-0
 70
     0
 62
     7
  6
Continuous
370
    -3
390
F
  0
LAYER
  5
74
330
2
100
AcDbSymbolTableRecord
100
AcDbLayerTableRecord
  2
8
 70
     0
 62
     7
  6
Continuous
370
    15
390
F
  0
LAYER
  5
75
330
2
100
AcDbSymbolTableRecord
100
AcDbLayerTableRecord
  2
9
 70
     0
 62
     7
  6
Continuous
370
    -3
390
F
  0
LAYER
  5
76
330
2
100
AcDbSymbolTableRecord
100
AcDbLayerTableRecord
  2
10
 70
     0
 62
     1
  6
Continuous
370
    -3
390
F
  0
LAYER
  5
77
330
2
100
AcDbSymbolTableRecord
100
AcDbLayerTableRecord
  2
11
 70
     0
 62
     7
  6
Continuous
370
    -3
390
F
  0
ENDTAB
  0
TABLE
  2
STYLE
  5
3
330
0
100
AcDbSymbolTable
 70
     2
  0
STYLE
  5
11
330
3
100
AcDbSymbolTableRecord
100
AcDbTextStyleTableRecord
  2
Standard
 70
     0
 40
0.0
 41
1.0
 50
0.0
 71
     0
 42
3.8805555556
  3
txt
  4
bigfont
  0
STYLE
  5
78
330
3
100
AcDbSymbolTableRecord
100
AcDbTextStyleTableRecord
  2
SLDTEXTSTYLE0
 70
     0
 40
0.0
 41
0.7
 50
0.0
 71
     0
 42
3.8805555556
  3
TXT
  4
bigfont
  0
ENDTAB
  0
TABLE
  2
VIEW
  5
6
330
0
100
AcDbSymbolTable
 70
     0
  0
ENDTAB
  0
TABLE
  2
UCS
  5
7
330
0
100
AcDbSymbolTable
 70
     0
  0
ENDTAB
  0
TABLE
  2
APPID
  5
9
330
0
100
AcDbSymbolTable
 70
     1
  0
APPID
  5
12
330
9
100
AcDbSymbolTableRecord
100
AcDbRegAppTableRecord
  2
ACAD
 70
     0
  0
ENDTAB
  0
TABLE
  2
DIMSTYLE
  5
A
330
0
100
AcDbSymbolTable
 70
     1
100
AcDbDimStyleTable
  0
DIMSTYLE
105
27
330
A
100
AcDbSymbolTableRecord
100
AcDbDimStyleTableRecord
  2
ISO-25
 70
     0
 41
2.5
 42
0.625
 43
3.75
 44
1.25
 73
     0
 74
     0
 77
     1
 78
     8
140
2.5
141
2.5
143
0.0393700787
147
0.625
171
     3
172
     1
178
     0
271
     2
272
     2
274
     3
278
    44
283
     0
284
     8
340
11
  0
ENDTAB
  0
TABLE
  2
BLOCK_RECORD
  5
1
330
0
100
AcDbSymbolTable
 70
     1
  0
BLOCK_RECORD
  5
1F
330
1
100
AcDbSymbolTableRecord
100
AcDbBlockTableRecord
  2
*Model_Space
340
22
  0
BLOCK_RECORD
  5
1B
330
1
100
AcDbSymbolTableRecord
100
AcDbBlockTableRecord
  2
*Paper_Space
340
1E
  0
BLOCK_RECORD
  5
23
330
1
100
AcDbSymbolTableRecord
100
AcDbBlockTableRecord
  2
*Paper_Space0
340
26
  0
ENDTAB
  0
ENDSEC
  0
SECTION
  2
BLOCKS
  0
BLOCK
  5
20
330
1F
100
AcDbEntity
  8
0
100
AcDbBlockBegin
  2
*Model_Space
 70
     0
 10
0.0
 20
0.0
 30
0.0
  3
*Model_Space
  1

  0
ENDBLK
  5
21
330
1F
100
AcDbEntity
  8
0
100
AcDbBlockEnd
  0
BLOCK
  5
1C
330
1B
100
AcDbEntity
 67
     1
  8
0
100
AcDbBlockBegin
  2
*Paper_Space
 70
     0
 10
0.0
 20
0.0
 30
0.0
  3
*Paper_Space
  1

  0
ENDBLK
  5
1D
330
1B
100
AcDbEntity
 67
     1
  8
0
100
AcDbBlockEnd
  0
BLOCK
  5
24
330
23
100
AcDbEntity
  8
0
100
AcDbBlockBegin
  2
*Paper_Space0
 70
     0
 10
0.0
 20
0.0
 30
0.0
  3
*Paper_Space0
  1

  0
ENDBLK
  5
25
330
23
100
AcDbEntity
  8
0
100
AcDbBlockEnd
  0
ENDSEC
  0
SECTION
  2
ENTITIES
  0
MTEXT
  5
79
330
1F
100
AcDbEntity
  8
9
 62
     7
100
AcDbMText
 10
22.9810592731
 20
14.7698939359
 30
0.0
 40
3.7041666667
 41
0.0
 71
     1
 72
     1
  1
2019/07/10
  7
SLDTEXTSTYLE0
 73
     1
 44
1.0
  0
MTEXT
  5
7A
330
1F
100
AcDbEntity
  8
9
 62
     7
100
AcDbMText
 10
22.9810592731
 20
39.3097759652
 30
0.0
 40
3.7041666667
 41
0.0
 71
     1
 72
     1
  1
AD-KH020-HL
  7
SLDTEXTSTYLE0
 73
     1
 44
1.0
  0
MTEXT
  5
7B
330
1F
100
AcDbEntity
  8
9
 62
     7
100
AcDbMText
 10
22.9810592731
 20
22.271836236
 30
0.0
 40
3.7041666667
 41
0.0
 71
     1
 72
     1
  1
-
  7
SLDTEXTSTYLE0
 73
     1
 44
1.0
  0
MTEXT
  5
7C
330
1F
100
AcDbEntity
  8
9
 62
     7
100
AcDbMText
 10
22.9810592731
 20
30.9293045781
 30
0.0
 40
3.7041666667
 41
0.0
 71
     1
 72
     1
  1
1:1
  7
SLDTEXTSTYLE0
 73
     1
 44
1.0
  0
LINE
  5
7D
330
1F
100
AcDbEntity
  8
0
  6
Continuous
 62
     7
370
    30
100
AcDbLine
 10
235.2601165169
 20
272.9502472976
 30
0.0
 11
236.6101170176
 21
268.9502471076
 31
0.0
  0
LINE
  5
7E
330
1F
100
AcDbEntity
  8
0
  6
Continuous
 62
     7
370
    30
100
AcDbLine
 10
239.4101197117
 20
268.9502471076
 30
0.0
 11
240.7601202124
 21
272.9502472976
 31
0.0
  0
LINE
  5
7F
330
1F
100
AcDbEntity
  8
0
  6
Continuous
 62
     7
370
    30
100
AcDbLine
 10
244.5101166361
 20
274.8162726821
 30
0.0
 11
244.5101166361
 21
269.4502471896
 31
0.0
  0
LINE
  5
80
330
1F
100
AcDbEntity
  8
0
  6
Continuous
 62
     7
370
    30
100
AcDbLine
 10
236.6101170176
 20
268.9502471076
 30
0.0
 11
239.4101197117
 21
268.9502471076
 31
0.0
  0
ARC
  5
81
330
1F
100
AcDbEntity
  8
0
  6
Continuous
 62
     7
370
    30
100
AcDbCircle
 10
229.5101186627
 20
258.4502473877
 30
0.0
 40
3.93127834118524
100
AcDbArc
 50
14.7362688848
 51
82.6930403074
  0
ARC
  5
82
330
1F
100
AcDbEntity
  8
0
  6
Continuous
 62
     7
370
    30
100
AcDbCircle
 10
229.5101186627
 20
258.4502473877
 30
0.0
 40
4.150000000000036
100
AcDbArc
 50
13.9434348608
 51
83.080083197
  0
LINE
  5
83
330
1F
100
AcDbEntity
  8
0
  6
Continuous
 62
     7
370
    30
100
AcDbLine
 10
259.4804527455
 20
271.9803092951
 30
0.0
 11
259.4804527455
 21
269.9205809222
 31
0.0
  0
ARC
  5
84
330
1F
100
AcDbEntity
  8
0
  6
Continuous
 62
     7
370
    30
100
AcDbCircle
 10
259.0101199442
 20
258.2951618459
 30
0.0
 40
13.69322729120574
100
AcDbArc
 50
88.0316264748
 51
91.9683735252
  0
LINE
  5
85
330
1F
100
AcDbEntity
  8
0
  6
Continuous
 62
     7
370
    30
100
AcDbLine
 10
256.4800555103
 20
269.9205809222
 30
0.0
 11
258.5397871428
 21
269.9205809222
 31
0.0
  0
ARC
  5
86
330
1F
100
AcDbEntity
  8
0
  6
Continuous
 62
     7
370
    30
100
AcDbCircle
 10
270.1696098018
 20
269.4502476552
 30
0.0
 40
13.69763155001062
100
AcDbArc
 50
178.0322576745
 51
181.9677423255
  0
ARC
  5
87
330
1F
100
AcDbEntity
  8
0
  6
Continuous
 62
     7
370
    30
100
AcDbCircle
 10
259.0101199442
 20
280.6053329989
 30
0.0
 40
13.69322729120574
100
AcDbArc
 50
268.0316264748
 51
271.9683735252
  0
LINE
  5
88
330
1F
100
AcDbEntity
  8
0
  6
Continuous
 62
     7
370
    30
100
AcDbLine
 10
261.5401806527
 20
268.9799143882
 30
0.0
 11
259.4804527455
 21
268.9799143882
 31
0.0
  0
ARC
  5
89
330
1F
100
AcDbEntity
  8
0
  6
Continuous
 62
     7
370
    30
100
AcDbCircle
 10
247.8527316385
 20
269.4502476552
 30
0.0
 40
13.69552751441612
100
AcDbArc
 50
358.0319552525
 51
1.9680447475
  0
CIRCLE
  5
8A
330
1F
100
AcDbEntity
  8
0
  6
Continuous
 62
     7
370
    30
100
AcDbCircle
 10
259.0101186627
 20
269.4502473877
 30
0.0
 40
3.931278341185191
  0
LINE
  5
8B
330
1F
100
AcDbEntity
  8
0
  6
Continuous
 62
     7
370
    30
100
AcDbLine
 10
259.4804527455
 20
269.9205809222
 30
0.0
 11
261.5401806527
 21
269.9205809222
 31
0.0
  0
LINE
  5
8C
330
1F
100
AcDbEntity
  8
0
  6
Continuous
 62
     7
370
    30
100
AcDbLine
 10
258.5397871428
 20
268.9799143882
 30
0.0
 11
256.4800555103
 21
268.9799143882
 31
0.0
  0
LINE
  5
8D
330
1F
100
AcDbEntity
  8
0
  6
Continuous
 62
     7
370
    30
100
AcDbLine
 10
259.4804527455
 20
268.9799143882
 30
0.0
 11
259.4804527455
 21
266.9201855497
 31
0.0
  0
LINE
  5
8E
330
1F
100
AcDbEntity
  8
0
  6
Continuous
 62
     7
370
    30
100
AcDbLine
 10
258.5397871428
 20
269.9205809222
 30
0.0
 11
258.5397871428
 21
271.9803092951
 31
0.0
  0
LINE
  5
8F
330
1F
100
AcDbEntity
  8
0
  6
Continuous
 62
     7
370
    30
100
AcDbLine
 10
258.5397871428
 20
266.9201855497
 30
0.0
 11
258.5397871428
 21
268.9799143882
 31
0.0
  0
CIRCLE
  5
90
330
1F
100
AcDbEntity
  8
0
  6
Continuous
 62
     7
370
    30
100
AcDbCircle
 10
259.0101186627
 20
269.4502473877
 30
0.0
 40
4.150000000000063
  0
LINE
  5
91
330
1F
100
AcDbEntity
  8
0
  6
Continuous
 62
     7
370
    30
100
AcDbLine
 10
258.5397871428
 20
268.9799143882
 30
0.0
 11
258.5397871428
 21
269.9205809222
 31
0.0
  0
LINE
  5
92
330
1F
100
AcDbEntity
  8
0
  6
Continuous
 62
     7
370
    30
100
AcDbLine
 10
259.4804527455
 20
268.9799143882
 30
0.0
 11
258.5397871428
 21
268.9799143882
 31
0.0
  0
LINE
  5
93
330
1F
100
AcDbEntity
  8
0
  6
Continuous
 62
     7
370
    30
100
AcDbLine
 10
259.4804527455
 20
269.9205809222
 30
0.0
 11
259.4804527455
 21
268.9799143882
 31
0.0
  0
LINE
  5
94
330
1F
100
AcDbEntity
  8
0
  6
Continuous
 62
     7
370
    30
100
AcDbLine
 10
258.5397871428
 20
269.9205809222
 30
0.0
 11
259.4804527455
 21
269.9205809222
 31
0.0
  0
LWPOLYLINE
  5
95
330
1F
100
AcDbEntity
  8
0
  6
Continuous
 62
     7
370
    30
100
AcDbPolyline
 90
        4
 70
   128
 43
0.0
 10
258.5397871428
 20
269.9205809222
 10
258.6931722456
 20
269.7671930255
 10
258.8506253653
 20
269.6097426997
 10
259.0101199442
 20
269.4502471896
  0
LWPOLYLINE
  5
96
330
1F
100
AcDbEntity
  8
0
  6
Continuous
 62
     7
370
    30
100
AcDbPolyline
 90
        4
 70
   128
 43
0.0
 10
258.5397871428
 20
268.9799143882
 10
258.6931722456
 20
269.1333022849
 10
258.8506253653
 20
269.2907526107
 10
259.0101199442
 20
269.4502471896
  0
LWPOLYLINE
  5
97
330
1F
100
AcDbEntity
  8
0
  6
Continuous
 62
     7
370
    30
100
AcDbPolyline
 90
        4
 70
   128
 43
0.0
 10
259.0101199442
 20
269.4502471896
 10
259.169614523
 20
269.2907526107
 10
259.3270639175
 20
269.1333022849
 10
259.4804527455
 20
268.9799143882
  0
LWPOLYLINE
  5
98
330
1F
100
AcDbEntity
  8
0
  6
Continuous
 62
     7
370
    30
100
AcDbPolyline
 90
        4
 70
   128
 43
0.0
 10
259.4804527455
 20
269.9205809222
 10
259.3270639175
 20
269.7671930255
 10
259.169614523
 20
269.6097426997
 10
259.0101199442
 20
269.4502471896
  0
LINE
  5
99
330
1F
100
AcDbEntity
  8
0
  6
Continuous
 62
     7
370
    30
100
AcDbLine
 10
243.0101210468
 20
259.4502464818
 30
0.0
 11
243.0101210468
 21
272.9502472976
 31
0.0
  0
LINE
  5
9A
330
1F
100
AcDbEntity
  8
0
  6
Continuous
 62
     7
370
    30
100
AcDbLine
 10
246.0101196759
 20
269.4502471896
 30
0.0
 11
244.5101166361
 21
269.4502471896
 31
0.0
  0
CIRCLE
  5
9B
330
1F
100
AcDbEntity
  8
0
  6
Continuous
 62
     7
370
    30
100
AcDbCircle
 10
267.0101186627
 20
250.9502473877
 30
0.0
 40
3.100000000000065
  0
LINE
  5
9C
330
1F
100
AcDbEntity
  8
0
  6
Continuous
 62
     7
370
    30
100
AcDbLine
 10
201.0101178878
 20
280.9502474447
 30
0.0
 11
415.0101194375
 21
280.9502474447
 31
0.0
  0
LINE
  5
9D
330
1F
100
AcDbEntity
  8
0
  6
Continuous
 62
     7
370
    30
100
AcDbLine
 10
201.0101178878
 20
279.7502473877
 30
0.0
 11
415.0101194375
 21
279.7502473877
 31
0.0
  0
LINE
  5
9E
330
1F
100
AcDbEntity
  8
0
  6
Continuous
 62
     7
370
    30
100
AcDbLine
 10
418.0101180666
 20
280.9502474447
 30
0.0
 11
418.0101180666
 21
279.7502473877
 31
0.0
  0
LINE
  5
9F
330
1F
100
AcDbEntity
  8
0
  6
Continuous
 62
     7
370
    30
100
AcDbLine
 10
418.0101180666
 20
279.7502473877
 30
0.0
 11
415.0101194375
 21
279.7502473877
 31
0.0
  0
LINE
  5
A0
330
1F
100
AcDbEntity
  8
0
  6
Continuous
 62
     7
370
    30
100
AcDbLine
 10
415.0101194375
 20
280.9502474447
 30
0.0
 11
418.0101180666
 21
280.9502474447
 31
0.0
  0
LINE
  5
A1
330
1F
100
AcDbEntity
  8
0
  6
Continuous
 62
     7
370
    30
100
AcDbLine
 10
198.0101192587
 20
279.7502473877
 30
0.0
 11
198.0101192587
 21
280.9502474447
 31
0.0
  0
LINE
  5
A2
330
1F
100
AcDbEntity
  8
0
  6
Continuous
 62
     7
370
    30
100
AcDbLine
 10
201.0101178878
 20
279.7502473877
 30
0.0
 11
198.0101192587
 21
279.7502473877
 31
0.0
  0
LINE
  5
A3
330
1F
100
AcDbEntity
  8
0
  6
Continuous
 62
     7
370
    30
100
AcDbLine
 10
198.0101192587
 20
280.9502474447
 30
0.0
 11
201.0101178878
 21
280.9502474447
 31
0.0
  0
LINE
  5
A4
330
1F
100
AcDbEntity
  8
0
  6
Continuous
 62
     7
370
    30
100
AcDbLine
 10
244.0101156228
 20
272.9502472976
 30
0.0
 11
232.0101211064
 21
272.9502472976
 31
0.0
  0
LINE
  5
A5
330
1F
100
AcDbEntity
  8
0
  6
Continuous
 62
     7
370
    30
100
AcDbLine
 10
232.0101211064
 20
272.9502472976
 30
0.0
 11
232.0101211064
 21
273.9502474615
 31
0.0
  0
LINE
  5
A6
330
1F
100
AcDbEntity
  8
0
  6
Continuous
 62
     7
370
    30
100
AcDbLine
 10
244.0101156228
 20
273.9502474615
 30
0.0
 11
244.0101156228
 21
272.9502472976
 31
0.0
  0
CIRCLE
  5
A7
330
1F
100
AcDbEntity
  8
0
  6
Continuous
 62
     7
370
    30
100
AcDbCircle
 10
259.0101186627
 20
269.4502473877
 30
0.0
 40
6.750000000000057
  0
LINE
  5
A8
330
1F
100
AcDbEntity
  8
0
  6
Continuous
 62
     7
370
    30
100
AcDbLine
 10
308.0101186627
 20
230.9502483295
 30
0.0
 11
308.0101186627
 21
279.7502473877
 31
0.0
  0
LINE
  5
A9
330
1F
100
AcDbEntity
  8
0
  6
Continuous
 62
     7
370
    30
100
AcDbLine
 10
308.0101186627
 20
230.9502483295
 30
0.0
 11
228.0101204508
 21
230.9502483295
 31
0.0
  0
LINE
  5
AA
330
1F
100
AcDbEntity
  8
0
  6
Continuous
 62
     7
370
    30
100
AcDbLine
 10
231.0101190799
 20
259.4502464818
 30
0.0
 11
245.0101176494
 21
259.4502464818
 31
0.0
  0
ARC
  5
AB
330
1F
100
AcDbEntity
  8
0
  6
Continuous
 62
     7
370
    30
100
AcDbCircle
 10
245.0101186627
 20
260.4502473877
 30
0.0
 40
1.0
100
AcDbArc
 50
270.0
 51
0.0
  0
LINE
  5
AC
330
1F
100
AcDbEntity
  8
0
  6
Continuous
 62
     7
370
    30
100
AcDbLine
 10
246.0101196759
 20
260.4502466457
 30
0.0
 11
246.0101196759
 21
273.9502474615
 31
0.0
  0
ARC
  5
AD
330
1F
100
AcDbEntity
  8
0
  6
Continuous
 62
     7
370
    30
100
AcDbCircle
 10
231.0101186627
 20
260.4502473877
 30
0.0
 40
1.0
100
AcDbArc
 50
180.0
 51
270.0
  0
LINE
  5
AE
330
1F
100
AcDbEntity
  8
0
  6
Continuous
 62
     7
370
    30
100
AcDbLine
 10
230.0101170533
 20
273.9502474615
 30
0.0
 11
230.0101170533
 21
260.4502466457
 31
0.0
  0
ARC
  5
AF
330
1F
100
AcDbEntity
  8
0
  6
Continuous
 62
     7
370
    30
100
AcDbCircle
 10
245.0101186627
 20
273.9502473877
 30
0.0
 40
1.0
100
AcDbArc
 50
0.0
 51
180.0
  0
ARC
  5
B0
330
1F
100
AcDbEntity
  8
0
  6
Continuous
 62
     7
370
    30
100
AcDbCircle
 10
231.0101186627
 20
273.9502473877
 30
0.0
 40
1.0
100
AcDbArc
 50
0.0
 51
180.0
  0
LINE
  5
B1
330
1F
100
AcDbEntity
  8
0
  6
Continuous
 62
     7
370
    30
100
AcDbLine
 10
210.0101212257
 20
230.9502483295
 30
0.0
 11
210.0101212257
 21
279.7502473877
 31
0.0
  0
LINE
  5
B2
330
1F
100
AcDbEntity
  8
0
  6
Continuous
 62
     7
370
    30
100
AcDbLine
 10
228.0101204508
 20
230.9502483295
 30
0.0
 11
210.0101212257
 21
230.9502483295
 31
0.0
  0
LINE
  5
B3
330
1F
100
AcDbEntity
  8
0
  6
Continuous
 62
     7
370
    30
100
AcDbLine
 10
307.9407170792
 20
230.9502483295
 30
0.0
 11
307.9407170792
 21
279.7502473877
 31
0.0
  0
LINE
  5
B4
330
1F
100
AcDbEntity
  8
0
  6
Continuous
 62
     7
370
    30
100
AcDbLine
 10
388.0101168745
 20
230.9502483295
 30
0.0
 11
307.9407170792
 21
230.9502483295
 31
0.0
  0
LINE
  5
B5
330
1F
100
AcDbEntity
  8
0
  6
Continuous
 62
     7
370
    30
100
AcDbLine
 10
406.0101160997
 20
230.9502483295
 30
0.0
 11
406.0101160997
 21
279.7502473877
 31
0.0
  0
LINE
  5
B6
330
1F
100
AcDbEntity
  8
0
  6
Continuous
 62
     7
370
    30
100
AcDbLine
 10
406.0101160997
 20
230.9502483295
 30
0.0
 11
388.0101168745
 21
230.9502483295
 31
0.0
  0
ARC
  5
B7
330
1F
100
AcDbEntity
  8
0
  6
Continuous
 62
     7
370
    30
100
AcDbCircle
 10
387.0101186627
 20
498.6973794442
 30
0.0
 40
16.15000000000003
100
AcDbArc
 50
0.0
 51
90.0
  0
LINE
  5
B8
330
1F
100
AcDbEntity
  8
0
  6
Continuous
 62
     7
370
    30
100
AcDbLine
 10
387.0101222985
 20
514.8473807912
 30
0.0
 11
229.0101150268
 21
514.8473807912
 31
0.0
  0
ARC
  5
B9
330
1F
100
AcDbEntity
  8
0
  6
Continuous
 62
     7
370
    30
100
AcDbCircle
 10
229.0101186627
 20
498.6973794442
 30
0.0
 40
16.15000000000003
100
AcDbArc
 50
90.0
 51
180.0
  0
LINE
  5
BA
330
1F
100
AcDbEntity
  8
0
  6
Continuous
 62
     7
370
    30
100
AcDbLine
 10
212.8601173156
 20
498.69738308
 30
0.0
 11
212.8601173156
 21
340.6973758083
 31
0.0
  0
LINE
  5
BB
330
1F
100
AcDbEntity
  8
0
  6
Continuous
 62
     7
370
    30
100
AcDbLine
 10
403.1601200097
 20
340.6973758083
 30
0.0
 11
403.1601200097
 21
498.69738308
 31
0.0
  0
ARC
  5
BC
330
1F
100
AcDbEntity
  8
0
  6
Continuous
 62
     7
370
    30
100
AcDbCircle
 10
387.0101186627
 20
340.6973794442
 30
0.0
 40
16.15000000000003
100
AcDbArc
 50
270.0
 51
0.0
  0
ARC
  5
BD
330
1F
100
AcDbEntity
  8
0
  6
Continuous
 62
     7
370
    30
100
AcDbCircle
 10
229.0101186627
 20
340.6973794442
 30
0.0
 40
16.15000000000003
100
AcDbArc
 50
180.0
 51
270.0
  0
LINE
  5
BE
330
1F
100
AcDbEntity
  8
0
  6
Continuous
 62
     7
370
    30
100
AcDbLine
 10
229.0101150268
 20
324.5473780971
 30
0.0
 11
387.0101222985
 21
324.5473780971
 31
0.0
  0
LINE
  5
BF
330
1F
100
AcDbEntity
  8
0
  6
Continuous
 62
     7
370
    30
100
AcDbLine
 10
271.0101181858
 20
322.6973765831
 30
0.0
 11
271.0101181858
 21
324.5473780971
 31
0.0
  0
LINE
  5
C0
330
1F
100
AcDbEntity
  8
0
  6
Continuous
 62
     7
370
    30
100
AcDbLine
 10
271.0101181858
 20
514.8473807912
 30
0.0
 11
271.0101181858
 21
516.6973823052
 31
0.0
  0
ARC
  5
C1
330
1F
100
AcDbEntity
  8
0
  6
Continuous
 62
     7
370
    30
100
AcDbCircle
 10
250.2601186627
 20
515.6973794442
 30
0.0
 40
1.0
100
AcDbArc
 50
0.0
 51
90.0
  0
ARC
  5
C2
330
1F
100
AcDbEntity
  8
0
  6
Continuous
 62
     7
370
    30
100
AcDbCircle
 10
267.7601186627
 20
515.6973794442
 30
0.0
 40
1.0
100
AcDbArc
 50
90.0
 51
180.0
  0
ARC
  5
C3
330
1F
100
AcDbEntity
  8
0
  6
Continuous
 62
     7
370
    30
100
AcDbCircle
 10
267.7601186627
 20
323.6973794442
 30
0.0
 40
1.0
100
AcDbArc
 50
180.0
 51
270.0
  0
ARC
  5
C4
330
1F
100
AcDbEntity
  8
0
  6
Continuous
 62
     7
370
    30
100
AcDbCircle
 10
250.2601186627
 20
323.6973794442
 30
0.0
 40
1.0
100
AcDbArc
 50
270.0
 51
0.0
  0
LINE
  5
C5
330
1F
100
AcDbEntity
  8
0
  6
Continuous
 62
     7
370
    30
100
AcDbLine
 10
251.2601191395
 20
515.6973802786
 30
0.0
 11
251.2601191395
 21
515.1973792653
 31
0.0
  0
LINE
  5
C6
330
1F
100
AcDbEntity
  8
0
  6
Continuous
 62
     7
370
    30
100
AcDbLine
 10
266.7601170235
 20
515.1973792653
 30
0.0
 11
266.7601170235
 21
515.6973802786
 31
0.0
  0
LINE
  5
C7
330
1F
100
AcDbEntity
  8
0
  6
Continuous
 62
     7
370
    30
100
AcDbLine
 10
251.2601191395
 20
515.1973792653
 30
0.0
 11
251.2847395831
 21
514.8473807912
 31
0.0
  0
LINE
  5
C8
330
1F
100
AcDbEntity
  8
0
  6
Continuous
 62
     7
370
    30
100
AcDbLine
 10
266.7354965799
 20
514.8473807912
 30
0.0
 11
266.7601170235
 21
515.1973792653
 31
0.0
  0
LINE
  5
C9
330
1F
100
AcDbEntity
  8
0
  6
Continuous
 62
     7
370
    30
100
AcDbLine
 10
266.7601170235
 20
324.197379623
 30
0.0
 11
266.7354965799
 21
324.5473780971
 31
0.0
  0
LINE
  5
CA
330
1F
100
AcDbEntity
  8
0
  6
Continuous
 62
     7
370
    30
100
AcDbLine
 10
251.2847395831
 20
324.5473780971
 30
0.0
 11
251.2601191395
 21
324.197379623
 31
0.0
  0
LINE
  5
CB
330
1F
100
AcDbEntity
  8
0
  6
Continuous
 62
     7
370
    30
100
AcDbLine
 10
266.7601170235
 20
323.6973786097
 30
0.0
 11
266.7601170235
 21
324.197379623
 31
0.0
  0
LINE
  5
CC
330
1F
100
AcDbEntity
  8
0
  6
Continuous
 62
     7
370
    30
100
AcDbLine
 10
251.2601191395
 20
324.197379623
 30
0.0
 11
251.2601191395
 21
323.6973786097
 31
0.0
  0
ARC
  5
CD
330
1F
100
AcDbEntity
  8
0
  6
Continuous
 62
     7
370
    30
100
AcDbCircle
 10
238.0101186627
 20
328.1973794442
 30
0.0
 40
5.000000000000041
100
AcDbArc
 50
226.8863940541
 51
313.1136059459
  0
ARC
  5
CE
330
1F
100
AcDbEntity
  8
0
  6
Continuous
 62
     7
370
    30
100
AcDbCircle
 10
238.0101186627
 20
511.1973794442
 30
0.0
 40
4.999999999999999
100
AcDbArc
 50
46.8863940541
 51
133.1136059459
  0
ARC
  5
CF
330
1F
100
AcDbEntity
  8
0
  6
Continuous
 62
     7
370
    30
100
AcDbCircle
 10
388.0101186627
 20
499.6973794442
 30
0.0
 40
16.99999999999994
100
AcDbArc
 50
0.0
 51
90.0
  0
LINE
  5
D0
330
1F
100
AcDbEntity
  8
0
  6
Continuous
 62
     7
370
    30
100
AcDbLine
 10
388.0101168745
 20
516.6973823052
 30
0.0
 11
228.0101204508
 21
516.6973823052
 31
0.0
  0
ARC
  5
D1
330
1F
100
AcDbEntity
  8
0
  6
Continuous
 62
     7
370
    30
100
AcDbCircle
 10
228.0101186627
 20
499.6973794442
 30
0.0
 40
17.00000000000003
100
AcDbArc
 50
90.0
 51
180.0
  0
LINE
  5
D2
330
1F
100
AcDbEntity
  8
0
  6
Continuous
 62
     7
370
    30
100
AcDbLine
 10
211.0101158016
 20
499.697377656
 30
0.0
 11
211.0101158016
 21
339.6973812323
 31
0.0
  0
ARC
  5
D3
330
1F
100
AcDbEntity
  8
0
  6
Continuous
 62
     7
370
    30
100
AcDbCircle
 10
228.0101186627
 20
339.6973794442
 30
0.0
 40
17.00000000000003
100
AcDbArc
 50
180.0
 51
270.0
  0
LINE
  5
D4
330
1F
100
AcDbEntity
  8
0
  6
Continuous
 62
     7
370
    30
100
AcDbLine
 10
228.0101204508
 20
322.6973765831
 30
0.0
 11
388.0101168745
 21
322.6973765831
 31
0.0
  0
ARC
  5
D5
330
1F
100
AcDbEntity
  8
0
  6
Continuous
 62
     7
370
    30
100
AcDbCircle
 10
388.0101186627
 20
339.6973794442
 30
0.0
 40
17.0
100
AcDbArc
 50
270.0
 51
0.0
  0
LINE
  5
D6
330
1F
100
AcDbEntity
  8
0
  6
Continuous
 62
     7
370
    30
100
AcDbLine
 10
405.0101215237
 20
339.6973812323
 30
0.0
 11
405.0101215237
 21
499.697377656
 31
0.0
  0
ARC
  5
D7
330
1F
100
AcDbEntity
  8
0
  6
Continuous
 62
     7
370
    30
100
AcDbCircle
 10
415.0101186627
 20
312.6973794442
 30
0.0
 40
3.0
100
AcDbArc
 50
270.0
 51
0.0
  0
LINE
  5
D8
330
1F
100
AcDbEntity
  8
0
  6
Continuous
 62
     7
370
    30
100
AcDbLine
 10
201.0101178878
 20
309.6973800402
 30
0.0
 11
415.0101194375
 21
309.6973800402
 31
0.0
  0
ARC
  5
D9
330
1F
100
AcDbEntity
  8
0
  6
Continuous
 62
     7
370
    30
100
AcDbCircle
 10
201.0101186627
 20
312.6973794442
 30
0.0
 40
3.0
100
AcDbArc
 50
180.0
 51
270.0
  0
LINE
  5
DA
330
1F
100
AcDbEntity
  8
0
  6
Continuous
 62
     7
370
    30
100
AcDbLine
 10
198.0101192587
 20
526.697380219
 30
0.0
 11
198.0101192587
 21
312.6973786693
 31
0.0
  0
LINE
  5
DB
330
1F
100
AcDbEntity
  8
0
  6
Continuous
 62
     7
370
    30
100
AcDbLine
 10
415.0101194375
 20
529.6973788481
 30
0.0
 11
201.0101178878
 21
529.6973788481
 31
0.0
  0
ARC
  5
DC
330
1F
100
AcDbEntity
  8
0
  6
Continuous
 62
     7
370
    30
100
AcDbCircle
 10
415.0101186627
 20
526.6973794442
 30
0.0
 40
3.0
100
AcDbArc
 50
0.0
 51
90.0
  0
LINE
  5
DD
330
1F
100
AcDbEntity
  8
0
  6
Continuous
 62
     7
370
    30
100
AcDbLine
 10
418.0101180666
 20
312.6973786693
 30
0.0
 11
418.0101180666
 21
526.697380219
 31
0.0
  0
LINE
  5
DE
330
1F
100
AcDbEntity
  8
0
  6
Continuous
 62
     7
370
    30
100
AcDbLine
 10
413.0101153844
 20
414.5274453167
 30
0.0
 11
412.1271917813
 21
414.5274453167
 31
0.0
  0
LINE
  5
DF
330
1F
100
AcDbEntity
  8
0
  6
Continuous
 62
     7
370
    30
100
AcDbLine
 10
412.1271917813
 20
414.5274453167
 30
0.0
 11
412.1271917813
 21
412.7597899478
 31
0.0
  0
LINE
  5
E0
330
1F
100
AcDbEntity
  8
0
  6
Continuous
 62
     7
370
    30
100
AcDbLine
 10
412.1271917813
 20
412.7597899478
 30
0.0
 11
410.0101167553
 21
412.7597899478
 31
0.0
  0
LINE
  5
E1
330
1F
100
AcDbEntity
  8
0
  6
Continuous
 62
     7
370
    30
100
AcDbLine
 10
410.0101167553
 20
412.7597899478
 30
0.0
 11
410.0101167553
 21
411.3573792692
 31
0.0
  0
LINE
  5
E2
330
1F
100
AcDbEntity
  8
0
  6
Continuous
 62
     7
370
    30
100
AcDbLine
 10
410.0101167553
 20
411.3573792692
 30
0.0
 11
413.0101153844
 21
411.3573792692
 31
0.0
  0
LINE
  5
E3
330
1F
100
AcDbEntity
  8
0
  6
Continuous
 62
     7
370
    30
100
AcDbLine
 10
413.0101153844
 20
411.3573792692
 30
0.0
 11
413.0101153844
 21
414.5274453167
 31
0.0
  0
LINE
  5
E4
330
1F
100
AcDbEntity
  8
0
  6
Continuous
 62
     7
370
    30
100
AcDbLine
 10
413.02815324
 20
419.5361709553
 30
0.0
 11
413.02815324
 21
420.657469409
 31
0.0
  0
LINE
  5
E5
330
1F
100
AcDbEntity
  8
0
  6
Continuous
 62
     7
370
    30
100
AcDbLine
 10
413.02815324
 20
420.657469409
 30
0.0
 11
411.7842788094
 21
420.657469409
 31
0.0
  0
LINE
  5
E6
330
1F
100
AcDbEntity
  8
0
  6
Continuous
 62
     7
370
    30
100
AcDbLine
 10
411.7842788094
 20
420.657469409
 30
0.0
 11
412.1258432263
 21
420.7997227622
 31
0.0
  0
LINE
  5
E7
330
1F
100
AcDbEntity
  8
0
  6
Continuous
 62
     7
370
    30
100
AcDbLine
 10
412.1258432263
 20
420.7997227622
 30
0.0
 11
413.02815324
 21
421.2342131486
 31
0.0
  0
LINE
  5
E8
330
1F
100
AcDbEntity
  8
0
  6
Continuous
 62
     7
370
    30
100
AcDbLine
 10
413.02815324
 20
421.2342131486
 30
0.0
 11
413.02815324
 21
422.0865473453
 31
0.0
  0
LINE
  5
E9
330
1F
100
AcDbEntity
  8
0
  6
Continuous
 62
     7
370
    30
100
AcDbLine
 10
413.02815324
 20
422.0865473453
 30
0.0
 11
412.1258432263
 21
422.5195243325
 31
0.0
  0
LINE
  5
EA
330
1F
100
AcDbEntity
  8
0
  6
Continuous
 62
     7
370
    30
100
AcDbLine
 10
412.1258432263
 20
422.5195243325
 30
0.0
 11
411.790947079
 21
422.6759294815
 31
0.0
  0
LINE
  5
EB
330
1F
100
AcDbEntity
  8
0
  6
Continuous
 62
     7
370
    30
100
AcDbLine
 10
411.790947079
 20
422.6759294815
 30
0.0
 11
413.02815324
 21
422.6759294815
 31
0.0
  0
LINE
  5
EC
330
1F
100
AcDbEntity
  8
0
  6
Continuous
 62
     7
370
    30
100
AcDbLine
 10
413.02815324
 20
422.6759294815
 30
0.0
 11
413.02815324
 21
423.7990684178
 31
0.0
  0
LINE
  5
ED
330
1F
100
AcDbEntity
  8
0
  6
Continuous
 62
     7
370
    30
100
AcDbLine
 10
413.02815324
 20
423.7990684178
 30
0.0
 11
410.0643569821
 21
423.7990684178
 31
0.0
  0
LINE
  5
EE
330
1F
100
AcDbEntity
  8
0
  6
Continuous
 62
     7
370
    30
100
AcDbLine
 10
410.0643569821
 20
423.7990684178
 30
0.0
 11
410.0643569821
 21
422.4033248447
 31
0.0
  0
LINE
  5
EF
330
1F
100
AcDbEntity
  8
0
  6
Continuous
 62
     7
370
    30
100
AcDbLine
 10
410.0643569821
 20
422.4033248447
 30
0.0
 11
411.3926539415
 21
421.76567971
 31
0.0
  0
LINE
  5
F0
330
1F
100
AcDbEntity
  8
0
  6
Continuous
 62
     7
370
    30
100
AcDbLine
 10
411.3926539415
 20
421.76567971
 30
0.0
 11
411.637725889
 21
421.6588465333
 31
0.0
  0
LINE
  5
F1
330
1F
100
AcDbEntity
  8
0
  6
Continuous
 62
     7
370
    30
100
AcDbLine
 10
411.637725889
 20
421.6588465333
 30
0.0
 11
411.3926539415
 21
421.5612159878
 31
0.0
  0
LINE
  5
F2
330
1F
100
AcDbEntity
  8
0
  6
Continuous
 62
     7
370
    30
100
AcDbLine
 10
411.3926539415
 20
421.5612159878
 30
0.0
 11
410.0643569821
 21
420.9213621052
 31
0.0
  0
LINE
  5
F3
330
1F
100
AcDbEntity
  8
0
  6
Continuous
 62
     7
370
    30
100
AcDbLine
 10
410.0643569821
 20
420.9213621052
 30
0.0
 11
410.0643569821
 21
419.5361709553
 31
0.0
  0
LINE
  5
F4
330
1F
100
AcDbEntity
  8
0
  6
Continuous
 62
     7
370
    30
100
AcDbLine
 10
410.0643569821
 20
419.5361709553
 30
0.0
 11
413.02815324
 21
419.5361709553
 31
0.0
  0
LINE
  5
F5
330
1F
100
AcDbEntity
  8
0
  6
Continuous
 62
     7
370
    30
100
AcDbLine
 10
413.0174840086
 20
415.863555374
 30
0.0
 11
412.4913687103
 21
416.1104333889
 31
0.0
  0
LINE
  5
F6
330
1F
100
AcDbEntity
  8
0
  6
Continuous
 62
     7
370
    30
100
AcDbLine
 10
412.4913687103
 20
416.1104333889
 30
0.0
 11
412.4913687103
 21
417.8411962766
 31
0.0
  0
LINE
  5
F7
330
1F
100
AcDbEntity
  8
0
  6
Continuous
 62
     7
370
    30
100
AcDbLine
 10
412.4913687103
 20
417.8411962766
 30
0.0
 11
413.0174840086
 21
418.0877879098
 31
0.0
  0
LINE
  5
F8
330
1F
100
AcDbEntity
  8
0
  6
Continuous
 62
     7
370
    30
100
AcDbLine
 10
413.0174840086
 20
418.0877879098
 30
0.0
 11
413.0174840086
 21
419.3293759435
 31
0.0
  0
LINE
  5
F9
330
1F
100
AcDbEntity
  8
0
  6
Continuous
 62
     7
370
    30
100
AcDbLine
 10
413.0174840086
 20
419.3293759435
 30
0.0
 11
410.0101167553
 21
417.9165358491
 31
0.0
  0
LINE
  5
FA
330
1F
100
AcDbEntity
  8
0
  6
Continuous
 62
     7
370
    30
100
AcDbLine
 10
410.0101167553
 20
417.9165358491
 30
0.0
 11
410.0101167553
 21
416.036525492
 31
0.0
  0
LINE
  5
FB
330
1F
100
AcDbEntity
  8
0
  6
Continuous
 62
     7
370
    30
100
AcDbLine
 10
410.0101167553
 20
416.036525492
 30
0.0
 11
413.0174840086
 21
414.6237668883
 31
0.0
  0
LINE
  5
FC
330
1F
100
AcDbEntity
  8
0
  6
Continuous
 62
     7
370
    30
100
AcDbLine
 10
413.0174840086
 20
414.6237668883
 30
0.0
 11
413.0174840086
 21
415.863555374
 31
0.0
  0
LINE
  5
FD
330
1F
100
AcDbEntity
  8
0
  6
Continuous
 62
     7
370
    30
100
AcDbLine
 10
410.0643569821
 20
426.8165740486
 30
0.0
 11
410.0643569821
 21
424.2612893995
 31
0.0
  0
LINE
  5
FE
330
1F
100
AcDbEntity
  8
0
  6
Continuous
 62
     7
370
    30
100
AcDbLine
 10
410.0643569821
 20
424.2612893995
 30
0.0
 11
413.02815324
 21
424.2612893995
 31
0.0
  0
LINE
  5
FF
330
1F
100
AcDbEntity
  8
0
  6
Continuous
 62
     7
370
    30
100
AcDbLine
 10
413.02815324
 20
424.2612893995
 30
0.0
 11
413.02815324
 21
425.5372753669
 31
0.0
  0
LINE
  5
100
330
1F
100
AcDbEntity
  8
0
  6
Continuous
 62
     7
370
    30
100
AcDbLine
 10
413.02815324
 20
425.5372753669
 30
0.0
 11
412.5214765065
 21
425.5372753669
 31
0.0
  0
LINE
  5
101
330
1F
100
AcDbEntity
  8
0
  6
Continuous
 62
     7
370
    30
100
AcDbLine
 10
412.5214765065
 20
425.5372753669
 30
0.0
 11
412.5214765065
 21
426.8274537589
 31
0.0
  0
SPLINE
  5
102
330
1F
100
AcDbEntity
  8
0
  6
Continuous
 62
     7
370
    30
100
AcDbSpline
210
0.0
220
0.0
230
1.0
 70
     8
 71
     3
 72
     8
 73
     4
 74
     0
 42
0.000000001
 43
0.00000001
 40
1.0
 40
1.0
 40
1.0
 40
1.0
 40
2.0
 40
2.0
 40
2.0
 40
2.0
 10
412.5214754817167
 20
426.8274536081445
 30
0.0
 10
412.5204529589487
 20
427.5015824186153
 30
0.0
 10
411.9650185913846
 20
428.0390203854631
 30
0.0
 10
411.2921168082354
 20
428.0390203854631
 30
0.0
  0
SPLINE
  5
103
330
1F
100
AcDbEntity
  8
0
  6
Continuous
 62
     7
370
    30
100
AcDbSpline
210
0.0
220
0.0
230
1.0
 70
     8
 71
     3
 72
     8
 73
     4
 74
     0
 42
0.000000001
 43
0.00000001
 40
0.0
 40
0.0
 40
0.0
 40
0.0
 40
1.0
 40
1.0
 40
1.0
 40
1.0
 10
411.2921168082354
 20
428.0390203854631
 30
0.0
 10
410.6182743041397
 20
428.0390203854631
 30
0.0
 10
410.0695885868442
 20
427.4906618754533
 30
0.0
 10
410.0695885868442
 20
426.8165739658933
 30
0.0
  0
LINE
  5
104
330
1F
100
AcDbEntity
  8
0
  6
Continuous
 62
     7
370
    30
100
AcDbLine
 10
410.0695872896
 20
426.8165740486
 30
0.0
 11
410.0643569821
 21
426.8165740486
 31
0.0
  0
ARC
  5
105
330
1F
100
AcDbEntity
  8
0
  6
Continuous
 62
     7
370
    30
100
AcDbCircle
 10
201.0101186627
 20
526.6973794442
 30
0.0
 40
3.0
100
AcDbArc
 50
90.0
 51
180.0
  0
LINE
  5
106
330
1F
100
AcDbEntity
  8
0
  6
Continuous
 62
     7
370
    30
100
AcDbLine
 10
411.6930240982
 20
425.5372753669
 30
0.0
 11
411.6930240982
 21
426.4312872965
 31
0.0
  0
LINE
  5
107
330
1F
100
AcDbEntity
  8
0
  6
Continuous
 62
     7
370
    30
100
AcDbLine
 10
410.8912447684
 20
425.5372753669
 30
0.0
 11
411.6930240982
 21
425.5372753669
 31
0.0
  0
LINE
  5
108
330
1F
100
AcDbEntity
  8
0
  6
Continuous
 62
     7
370
    30
100
AcDbLine
 10
410.8912447684
 20
426.4310828712
 30
0.0
 11
410.8912447684
 21
425.5372753669
 31
0.0
  0
SPLINE
  5
109
330
1F
100
AcDbEntity
  8
0
  6
Continuous
 62
     7
370
    30
100
AcDbSpline
210
0.0
220
0.0
230
1.0
 70
     8
 71
     3
 72
     8
 73
     4
 74
     0
 42
0.000000001
 43
0.00000001
 40
1.0
 40
1.0
 40
1.0
 40
1.0
 40
2.0
 40
2.0
 40
2.0
 40
2.0
 10
411.2921168082354
 20
426.8274536081445
 30
0.0
 10
411.0707201785133
 20
426.8274536081445
 30
0.0
 10
410.8912469822783
 20
426.6491665383204
 30
0.0
 10
410.8912469822783
 20
426.4310828823666
 30
0.0
  0
SPLINE
  5
10A
330
1F
100
AcDbEntity
  8
0
  6
Continuous
 62
     7
370
    30
100
AcDbSpline
210
0.0
220
0.0
230
1.0
 70
     8
 71
     3
 72
     8
 73
     4
 74
     0
 42
0.000000001
 43
0.00000001
 40
0.0
 40
0.0
 40
0.0
 40
0.0
 40
1.0
 40
1.0
 40
1.0
 40
1.0
 10
411.6930275351031
 20
426.4312873869202
 30
0.0
 10
411.6855426684415
 20
426.6499845565348
 30
0.0
 10
411.5085644277604
 20
426.8274536081445
 30
0.0
 10
411.2921168082354
 20
426.8274536081445
 30
0.0
  0
LINE
  5
10B
330
1F
100
AcDbEntity
  8
0
  6
Continuous
 62
     7
370
    30
100
AcDbLine
 10
411.6973230832
 20
416.4843086455
 30
0.0
 11
411.6973230832
 21
417.4690388445
 31
0.0
  0
LINE
  5
10C
330
1F
100
AcDbEntity
  8
0
  6
Continuous
 62
     7
370
    30
100
AcDbLine
 10
410.6510753029
 20
416.9768781703
 30
0.0
 11
411.6973230832
 21
416.4843086455
 31
0.0
  0
LINE
  5
10D
330
1F
100
AcDbEntity
  8
0
  6
Continuous
 62
     7
370
    30
100
AcDbLine
 10
411.6973230832
 20
417.4690388445
 30
0.0
 11
410.6510753029
 21
416.9768781703
 31
0.0
  0
LINE
  5
10E
330
1F
100
AcDbEntity
  8
0
  6
Continuous
 62
     7
370
    30
100
AcDbLine
 10
232.0101211064
 20
514.8473807912
 30
0.0
 11
232.0101211064
 21
516.6973823052
 31
0.0
  0
LINE
  5
10F
330
1F
100
AcDbEntity
  8
0
  6
Continuous
 62
     7
370
    30
100
AcDbLine
 10
244.0101156228
 20
514.8473807912
 30
0.0
 11
244.0101156228
 21
516.6973823052
 31
0.0
  0
LINE
  5
110
330
1F
100
AcDbEntity
  8
0
  6
Continuous
 62
     7
370
    30
100
AcDbLine
 10
232.0101211064
 20
324.5473780971
 30
0.0
 11
232.0101211064
 21
322.6973765831
 31
0.0
  0
LINE
  5
111
330
1F
100
AcDbEntity
  8
0
  6
Continuous
 62
     7
370
    30
100
AcDbLine
 10
244.0101156228
 20
324.5473780971
 30
0.0
 11
244.0101156228
 21
322.6973765831
 31
0.0
  0
LINE
  5
112
330
1F
100
AcDbEntity
  8
0
  6
Continuous
 62
     7
370
    30
100
AcDbLine
 10
265.0101172023
 20
188.2308737253
 30
0.0
 11
265.0101172023
 21
192.3308760737
 31
0.0
  0
LINE
  5
113
330
1F
100
AcDbEntity
  8
0
  6
Continuous
 62
     7
370
    30
100
AcDbLine
 10
253.0101189607
 20
192.3308760737
 30
0.0
 11
253.0101189607
 21
188.2308737253
 31
0.0
  0
LINE
  5
114
330
1F
100
AcDbEntity
  8
0
  6
Continuous
 62
     7
370
    30
100
AcDbLine
 10
253.0101189607
 20
188.2308737253
 30
0.0
 11
253.2101186209
 21
188.0308777903
 31
0.0
  0
LINE
  5
115
330
1F
100
AcDbEntity
  8
0
  6
Continuous
 62
     7
370
    30
100
AcDbLine
 10
264.8101175421
 20
188.0308777903
 30
0.0
 11
265.0101172023
 21
188.2308737253
 31
0.0
  0
LINE
  5
116
330
1F
100
AcDbEntity
  8
0
  6
Continuous
 62
     7
370
    30
100
AcDbLine
 10
264.0101189011
 20
192.3308760737
 30
0.0
 11
264.0101189011
 21
192.7808762406
 31
0.0
  0
LINE
  5
117
330
1F
100
AcDbEntity
  8
0
  6
Continuous
 62
     7
370
    30
100
AcDbLine
 10
254.0101172619
 20
192.7808762406
 30
0.0
 11
254.0101172619
 21
192.3308760737
 31
0.0
  0
LINE
  5
118
330
1F
100
AcDbEntity
  8
0
  6
Continuous
 62
     7
370
    30
100
AcDbLine
 10
254.2056167715
 20
206.5308780287
 30
0.0
 11
254.0179738992
 21
195.7808748697
 31
0.0
  0
LINE
  5
119
330
1F
100
AcDbEntity
  8
0
  6
Continuous
 62
     7
370
    30
100
AcDbLine
 10
264.0022622638
 20
195.7808748697
 30
0.0
 11
263.8844425076
 21
202.5308773731
 31
0.0
  0
LINE
  5
11A
330
1F
100
AcDbEntity
  8
0
  6
Continuous
 62
     7
370
    30
100
AcDbLine
 10
253.0101189607
 20
38.8308779214
 30
0.0
 11
253.0101189607
 21
34.730875573
 31
0.0
  0
LINE
  5
11B
330
1F
100
AcDbEntity
  8
0
  6
Continuous
 62
     7
370
    30
100
AcDbLine
 10
265.0101172023
 20
34.730875573
 30
0.0
 11
265.0101172023
 21
38.8308779214
 31
0.0
  0
LINE
  5
11C
330
1F
100
AcDbEntity
  8
0
  6
Continuous
 62
     7
370
    30
100
AcDbLine
 10
265.0101172023
 20
38.8308779214
 30
0.0
 11
264.8101175421
 21
39.0308738564
 31
0.0
  0
LINE
  5
11D
330
1F
100
AcDbEntity
  8
0
  6
Continuous
 62
     7
370
    30
100
AcDbLine
 10
253.2101186209
 20
39.0308738564
 30
0.0
 11
253.0101189607
 21
38.8308779214
 31
0.0
  0
LINE
  5
11E
330
1F
100
AcDbEntity
  8
0
  6
Continuous
 62
     7
370
    30
100
AcDbLine
 10
254.0101172619
 20
34.730875573
 30
0.0
 11
254.0101172619
 21
34.2808754061
 31
0.0
  0
LINE
  5
11F
330
1F
100
AcDbEntity
  8
0
  6
Continuous
 62
     7
370
    30
100
AcDbLine
 10
264.0101189011
 20
34.2808754061
 30
0.0
 11
264.0101189011
 21
34.730875573
 31
0.0
  0
LINE
  5
120
330
1F
100
AcDbEntity
  8
0
  6
Continuous
 62
     7
370
    30
100
AcDbLine
 10
263.8844425076
 20
24.5308742736
 30
0.0
 11
264.0022622638
 21
31.280876777
 31
0.0
  0
LINE
  5
121
330
1F
100
AcDbEntity
  8
0
  6
Continuous
 62
     7
370
    30
100
AcDbLine
 10
254.0179738992
 20
31.280876777
 30
0.0
 11
254.2056167715
 21
20.530873618
 31
0.0
  0
LINE
  5
122
330
1F
100
AcDbEntity
  8
0
  6
Continuous
 62
     7
370
    30
100
AcDbLine
 10
224.0101197951
 20
30.0308779691
 30
0.0
 11
224.0101197951
 21
30.5308789824
 31
0.0
  0
LINE
  5
123
330
1F
100
AcDbEntity
  8
0
  6
Continuous
 62
     7
370
    30
100
AcDbLine
 10
216.0101184838
 20
30.5308789824
 30
0.0
 11
216.0101184838
 21
30.0308779691
 31
0.0
  0
LINE
  5
124
330
1F
100
AcDbEntity
  8
0
  6
Continuous
 62
     7
370
    30
100
AcDbLine
 10
217.2601172918
 20
29.3308735703
 30
0.0
 11
217.3233652704
 21
28.607943735
 31
0.0
  0
LINE
  5
125
330
1F
100
AcDbEntity
  8
0
  6
Continuous
 62
     7
370
    30
100
AcDbLine
 10
222.6968730086
 20
28.607943735
 30
0.0
 11
222.7601209872
 21
29.3308735703
 31
0.0
  0
LINE
  5
126
330
1F
100
AcDbEntity
  8
0
  6
Continuous
 62
     7
370
    30
100
AcDbLine
 10
222.7601209872
 20
29.3308735703
 30
0.0
 11
222.7601209872
 21
30.0308779691
 31
0.0
  0
LINE
  5
127
330
1F
100
AcDbEntity
  8
0
  6
Continuous
 62
     7
370
    30
100
AcDbLine
 10
217.2601172918
 20
30.0308779691
 30
0.0
 11
217.2601172918
 21
29.3308735703
 31
0.0
  0
ARC
  5
128
330
1F
100
AcDbEntity
  8
0
  6
Continuous
 62
     7
370
    30
100
AcDbCircle
 10
217.8214642993
 20
28.6515224591
 30
0.0
 40
0.5000000000000389
100
AcDbArc
 50
185.0
 51
229.954124612
  0
ARC
  5
129
330
1F
100
AcDbEntity
  8
0
  6
Continuous
 62
     7
370
    30
100
AcDbCircle
 10
222.198773026
 20
28.6515224591
 30
0.0
 40
0.500000000000011
100
AcDbArc
 50
310.045875388
 51
355.0
  0
ARC
  5
12A
330
1F
100
AcDbEntity
  8
0
  6
Continuous
 62
     7
370
    30
100
AcDbCircle
 10
219.9454359901
 20
31.3325824798
 30
0.0
 40
4.002229380270839
100
AcDbArc
 50
291.3149735202
 51
310.045875388
  0
ARC
  5
12B
330
1F
100
AcDbEntity
  8
0
  6
Continuous
 62
     7
370
    30
100
AcDbCircle
 10
220.0748013352
 20
31.3325824798
 30
0.0
 40
4.002229380270857
100
AcDbArc
 50
229.954124612
 51
248.7344010659
  0
LINE
  5
12C
330
1F
100
AcDbEntity
  8
0
  6
Continuous
 62
     7
370
    30
100
AcDbLine
 10
216.0101184838
 20
197.0308736776
 30
0.0
 11
216.0101184838
 21
196.5308726643
 31
0.0
  0
LINE
  5
12D
330
1F
100
AcDbEntity
  8
0
  6
Continuous
 62
     7
370
    30
100
AcDbLine
 10
224.0101197951
 20
196.5308726643
 30
0.0
 11
224.0101197951
 21
197.0308736776
 31
0.0
  0
LINE
  5
12E
330
1F
100
AcDbEntity
  8
0
  6
Continuous
 62
     7
370
    30
100
AcDbLine
 10
217.2601172918
 20
197.7308780764
 30
0.0
 11
217.2601172918
 21
197.0308736776
 31
0.0
  0
LINE
  5
12F
330
1F
100
AcDbEntity
  8
0
  6
Continuous
 62
     7
370
    30
100
AcDbLine
 10
222.7601209872
 20
197.0308736776
 30
0.0
 11
222.7601209872
 21
197.7308780764
 31
0.0
  0
LINE
  5
130
330
1F
100
AcDbEntity
  8
0
  6
Continuous
 62
     7
370
    30
100
AcDbLine
 10
222.7601209872
 20
197.7308780764
 30
0.0
 11
222.6968730086
 21
198.4538079117
 31
0.0
  0
LINE
  5
131
330
1F
100
AcDbEntity
  8
0
  6
Continuous
 62
     7
370
    30
100
AcDbLine
 10
217.3233652704
 20
198.4538079117
 30
0.0
 11
217.2601172918
 21
197.7308780764
 31
0.0
  0
ARC
  5
132
330
1F
100
AcDbEntity
  8
0
  6
Continuous
 62
     7
370
    30
100
AcDbCircle
 10
222.198773026
 20
198.4102291876
 30
0.0
 40
0.5000000000000191
100
AcDbArc
 50
5.0
 51
49.954124612
  0
ARC
  5
133
330
1F
100
AcDbEntity
  8
0
  6
Continuous
 62
     7
370
    30
100
AcDbCircle
 10
217.8214642993
 20
198.4102291876
 30
0.0
 40
0.5000000000000407
100
AcDbArc
 50
130.045875388
 51
175.0
  0
ARC
  5
134
330
1F
100
AcDbEntity
  8
0
  6
Continuous
 62
     7
370
    30
100
AcDbCircle
 10
220.0748013352
 20
195.7291691669
 30
0.0
 40
4.002229380270859
100
AcDbArc
 50
111.3149735202
 51
130.045875388
  0
ARC
  5
135
330
1F
100
AcDbEntity
  8
0
  6
Continuous
 62
     7
370
    30
100
AcDbCircle
 10
219.9454359901
 20
195.7291691669
 30
0.0
 40
4.002229380270864
100
AcDbArc
 50
49.954124612
 51
68.7344010659
  0
LINE
  5
136
330
1F
100
AcDbEntity
  8
0
  6
Continuous
 62
     7
370
    30
100
AcDbLine
 10
229.9414003485
 20
197.0308736776
 30
0.0
 11
229.9414003485
 21
196.5308726643
 31
0.0
  0
LINE
  5
137
330
1F
100
AcDbEntity
  8
0
  6
Continuous
 62
     7
370
    30
100
AcDbLine
 10
237.9414016598
 20
196.5308726643
 30
0.0
 11
237.9414016598
 21
197.0308736776
 31
0.0
  0
LINE
  5
138
330
1F
100
AcDbEntity
  8
0
  6
Continuous
 62
     7
370
    30
100
AcDbLine
 10
236.6914028519
 20
197.7308780764
 30
0.0
 11
236.6281548732
 21
198.4538079117
 31
0.0
  0
LINE
  5
139
330
1F
100
AcDbEntity
  8
0
  6
Continuous
 62
     7
370
    30
100
AcDbLine
 10
231.2546471351
 20
198.4538079117
 30
0.0
 11
231.1913991564
 21
197.7308780764
 31
0.0
  0
LINE
  5
13A
330
1F
100
AcDbEntity
  8
0
  6
Continuous
 62
     7
370
    30
100
AcDbLine
 10
231.1913991564
 20
197.7308780764
 30
0.0
 11
231.1913991564
 21
197.0308736776
 31
0.0
  0
LINE
  5
13B
330
1F
100
AcDbEntity
  8
0
  6
Continuous
 62
     7
370
    30
100
AcDbLine
 10
236.6914028519
 20
197.0308736776
 30
0.0
 11
236.6914028519
 21
197.7308780764
 31
0.0
  0
ARC
  5
13C
330
1F
100
AcDbEntity
  8
0
  6
Continuous
 62
     7
370
    30
100
AcDbCircle
 10
236.1300562482
 20
198.4102291876
 30
0.0
 40
0.5000000000000157
100
AcDbArc
 50
5.0
 51
49.954124612
  0
ARC
  5
13D
330
1F
100
AcDbEntity
  8
0
  6
Continuous
 62
     7
370
    30
100
AcDbCircle
 10
231.7527475216
 20
198.4102291876
 30
0.0
 40
0.50000000000001
100
AcDbArc
 50
130.045875388
 51
175.0
  0
ARC
  5
13E
330
1F
100
AcDbEntity
  8
0
  6
Continuous
 62
     7
370
    30
100
AcDbCircle
 10
234.0060845575
 20
195.7291691669
 30
0.0
 40
4.002229380270875
100
AcDbArc
 50
111.3149735202
 51
130.045875388
  0
ARC
  5
13F
330
1F
100
AcDbEntity
  8
0
  6
Continuous
 62
     7
370
    30
100
AcDbCircle
 10
233.8767192123
 20
195.7291691669
 30
0.0
 40
4.002229380270864
100
AcDbArc
 50
49.954124612
 51
68.7344010659
  0
LINE
  5
140
330
1F
100
AcDbEntity
  8
0
  6
Continuous
 62
     7
370
    30
100
AcDbLine
 10
235.441404044
 20
189.7308767651
 30
0.0
 11
235.441404044
 21
193.3308781002
 31
0.0
  0
LINE
  5
141
330
1F
100
AcDbEntity
  8
0
  6
Continuous
 62
     7
370
    30
100
AcDbLine
 10
237.9414016598
 20
30.0308779691
 30
0.0
 11
237.9414016598
 21
30.5308789824
 31
0.0
  0
LINE
  5
142
330
1F
100
AcDbEntity
  8
0
  6
Continuous
 62
     7
370
    30
100
AcDbLine
 10
229.9414003485
 20
30.5308789824
 30
0.0
 11
229.9414003485
 21
30.0308779691
 31
0.0
  0
LINE
  5
143
330
1F
100
AcDbEntity
  8
0
  6
Continuous
 62
     7
370
    30
100
AcDbLine
 10
231.1913991564
 20
29.3308735703
 30
0.0
 11
231.2546471351
 21
28.607943735
 31
0.0
  0
LINE
  5
144
330
1F
100
AcDbEntity
  8
0
  6
Continuous
 62
     7
370
    30
100
AcDbLine
 10
236.6281548732
 20
28.607943735
 30
0.0
 11
236.6914028519
 21
29.3308735703
 31
0.0
  0
LINE
  5
145
330
1F
100
AcDbEntity
  8
0
  6
Continuous
 62
     7
370
    30
100
AcDbLine
 10
236.6914028519
 20
29.3308735703
 30
0.0
 11
236.6914028519
 21
30.0308779691
 31
0.0
  0
LINE
  5
146
330
1F
100
AcDbEntity
  8
0
  6
Continuous
 62
     7
370
    30
100
AcDbLine
 10
231.1913991564
 20
30.0308779691
 30
0.0
 11
231.1913991564
 21
29.3308735703
 31
0.0
  0
ARC
  5
147
330
1F
100
AcDbEntity
  8
0
  6
Continuous
 62
     7
370
    30
100
AcDbCircle
 10
231.7527475216
 20
28.6515224591
 30
0.0
 40
0.500000000000011
100
AcDbArc
 50
185.0
 51
229.954124612
  0
ARC
  5
148
330
1F
100
AcDbEntity
  8
0
  6
Continuous
 62
     7
370
    30
100
AcDbCircle
 10
236.1300562482
 20
28.6515224591
 30
0.0
 40
0.5000000000000293
100
AcDbArc
 50
310.045875388
 51
355.0
  0
ARC
  5
149
330
1F
100
AcDbEntity
  8
0
  6
Continuous
 62
     7
370
    30
100
AcDbCircle
 10
233.8767192123
 20
31.3325824798
 30
0.0
 40
4.002229380270848
100
AcDbArc
 50
291.3149735202
 51
310.045875388
  0
ARC
  5
14A
330
1F
100
AcDbEntity
  8
0
  6
Continuous
 62
     7
370
    30
100
AcDbCircle
 10
234.0060845575
 20
31.3325824798
 30
0.0
 40
4.002229380270857
100
AcDbArc
 50
229.954124612
 51
248.7344010659
  0
LINE
  5
14B
330
1F
100
AcDbEntity
  8
0
  6
Continuous
 62
     7
370
    30
100
AcDbLine
 10
235.441404044
 20
33.7308735465
 30
0.0
 11
235.441404044
 21
37.3308748816
 31
0.0
  0
LINE
  5
14C
330
1F
100
AcDbEntity
  8
0
  6
Continuous
 62
     7
370
    30
100
AcDbLine
 10
225.5788395398
 20
199.0308777307
 30
0.0
 11
225.3601202958
 21
196.5308726643
 31
0.0
  0
ARC
  5
14D
330
1F
100
AcDbEntity
  8
0
  6
Continuous
 62
     7
370
    30
100
AcDbCircle
 10
229.5101186627
 20
189.7715324509
 30
0.0
 40
10.05934337242004
100
AcDbArc
 50
104.6146510994
 51
113.0048249406
  0
ARC
  5
14E
330
1F
100
AcDbEntity
  8
0
  6
Continuous
 62
     7
370
    30
100
AcDbCircle
 10
229.5101186627
 20
189.7715324509
 30
0.0
 40
10.05934337242006
100
AcDbArc
 50
73.2090732218
 51
75.3853489006
  0
LINE
  5
14F
330
1F
100
AcDbEntity
  8
0
  6
Continuous
 62
     7
370
    30
100
AcDbLine
 10
225.3601202958
 20
30.5308789824
 30
0.0
 11
225.5788395398
 21
28.030873916
 31
0.0
  0
ARC
  5
150
330
1F
100
AcDbEntity
  8
0
  6
Continuous
 62
     7
370
    30
100
AcDbCircle
 10
229.5101186627
 20
37.2902191958
 30
0.0
 40
10.05934337242007
100
AcDbArc
 50
284.6146510994
 51
286.7909267779
  0
ARC
  5
151
330
1F
100
AcDbEntity
  8
0
  6
Continuous
 62
     7
370
    30
100
AcDbCircle
 10
229.5101186627
 20
37.2902191958
 30
0.0
 40
10.05934337242007
100
AcDbArc
 50
246.9951750594
 51
255.3853489006
  0
LINE
  5
152
330
1F
100
AcDbEntity
  8
0
  6
Continuous
 62
     7
370
    30
100
AcDbLine
 10
236.0413992994
 20
32.7308789705
 30
0.0
 11
236.0413992994
 21
33.7308735465
 31
0.0
  0
LINE
  5
153
330
1F
100
AcDbEntity
  8
0
  6
Continuous
 62
     7
370
    30
100
AcDbLine
 10
236.0413992994
 20
193.3308781002
 30
0.0
 11
236.0413992994
 21
194.3308726762
 31
0.0
  0
LINE
  5
154
330
1F
100
AcDbEntity
  8
0
  6
Continuous
 62
     7
370
    30
100
AcDbLine
 10
238.8430187696
 20
31.5308735584
 30
0.0
 11
238.8430187696
 21
32.7308789705
 31
0.0
  0
LINE
  5
155
330
1F
100
AcDbEntity
  8
0
  6
Continuous
 62
     7
370
    30
100
AcDbLine
 10
238.8430187696
 20
194.3308726762
 30
0.0
 11
238.8430187696
 21
195.5308780883
 31
0.0
  0
LINE
  5
156
330
1F
100
AcDbEntity
  8
0
  6
Continuous
 62
     7
370
    30
100
AcDbLine
 10
240.5101159804
 20
32.0308745717
 30
0.0
 11
240.5101159804
 21
195.030877075
 31
0.0
  0
LINE
  5
157
330
1F
100
AcDbEntity
  8
0
  6
Continuous
 62
     7
370
    30
100
AcDbLine
 10
240.0101149672
 20
31.5308735584
 30
0.0
 11
240.5101159804
 21
32.0308745717
 31
0.0
  0
LINE
  5
158
330
1F
100
AcDbEntity
  8
0
  6
Continuous
 62
     7
370
    30
100
AcDbLine
 10
240.5101159804
 20
195.030877075
 30
0.0
 11
240.0101149672
 21
195.5308780883
 31
0.0
  0
LINE
  5
159
330
1F
100
AcDbEntity
  8
0
  6
Continuous
 62
     7
370
    30
100
AcDbLine
 10
252.8601201468
 20
33.2808733796
 30
0.0
 11
252.8601201468
 21
31.280876777
 31
0.0
  0
LINE
  5
15A
330
1F
100
AcDbEntity
  8
0
  6
Continuous
 62
     7
370
    30
100
AcDbLine
 10
265.1601197415
 20
31.280876777
 30
0.0
 11
265.1601197415
 21
33.2808733796
 31
0.0
  0
LINE
  5
15B
330
1F
100
AcDbEntity
  8
0
  6
Continuous
 62
     7
370
    30
100
AcDbLine
 10
265.1601197415
 20
193.7808782671
 30
0.0
 11
265.1601197415
 21
195.7808748697
 31
0.0
  0
LINE
  5
15C
330
1F
100
AcDbEntity
  8
0
  6
Continuous
 62
     7
370
    30
100
AcDbLine
 10
252.8601201468
 20
195.7808748697
 30
0.0
 11
252.8601201468
 21
193.7808782671
 31
0.0
  0
ARC
  5
15D
330
1F
100
AcDbEntity
  8
0
  6
Continuous
 62
     7
370
    30
100
AcDbCircle
 10
387.0101186627
 20
34.5308758234
 30
0.0
 40
16.15
100
AcDbArc
 50
270.0
 51
0.0
  0
ARC
  5
15E
330
1F
100
AcDbEntity
  8
0
  6
Continuous
 62
     7
370
    30
100
AcDbCircle
 10
229.0101186627
 20
34.5308758234
 30
0.0
 40
16.15
100
AcDbArc
 50
180.0
 51
270.0
  0
LINE
  5
15F
330
1F
100
AcDbEntity
  8
0
  6
Continuous
 62
     7
370
    30
100
AcDbLine
 10
229.0101150268
 20
18.3808744763
 30
0.0
 11
232.0101211064
 21
18.3808744763
 31
0.0
  0
LINE
  5
160
330
1F
100
AcDbEntity
  8
0
  6
Continuous
 62
     7
370
    30
100
AcDbLine
 10
244.0101156228
 20
18.3808744763
 30
0.0
 11
251.2847395831
 21
18.3808744763
 31
0.0
  0
LINE
  5
161
330
1F
100
AcDbEntity
  8
0
  6
Continuous
 62
     7
370
    30
100
AcDbLine
 10
271.0101181858
 20
18.3808744763
 30
0.0
 11
387.0101222985
 21
18.3808744763
 31
0.0
  0
LINE
  5
162
330
1F
100
AcDbEntity
  8
0
  6
Continuous
 62
     7
370
    30
100
AcDbLine
 10
403.1601200097
 20
34.5308721875
 30
0.0
 11
403.1601200097
 21
192.5308794592
 31
0.0
  0
LINE
  5
163
330
1F
100
AcDbEntity
  8
0
  6
Continuous
 62
     7
370
    30
100
AcDbLine
 10
212.8601173156
 20
192.5308794592
 30
0.0
 11
212.8601173156
 21
34.5308721875
 31
0.0
  0
ARC
  5
164
330
1F
100
AcDbEntity
  8
0
  6
Continuous
 62
     7
370
    30
100
AcDbCircle
 10
387.0101186627
 20
192.5308758234
 30
0.0
 40
16.15000000000001
100
AcDbArc
 50
0.0
 51
90.0
  0
ARC
  5
165
330
1F
100
AcDbEntity
  8
0
  6
Continuous
 62
     7
370
    30
100
AcDbCircle
 10
229.0101186627
 20
192.5308758234
 30
0.0
 40
16.15000000000001
100
AcDbArc
 50
90.0
 51
180.0
  0
LINE
  5
166
330
1F
100
AcDbEntity
  8
0
  6
Continuous
 62
     7
370
    30
100
AcDbLine
 10
387.0101222985
 20
208.6808771704
 30
0.0
 11
271.0101181858
 21
208.6808771704
 31
0.0
  0
LINE
  5
167
330
1F
100
AcDbEntity
  8
0
  6
Continuous
 62
     7
370
    30
100
AcDbLine
 10
251.2847395831
 20
208.6808771704
 30
0.0
 11
244.0101156228
 21
208.6808771704
 31
0.0
  0
LINE
  5
168
330
1F
100
AcDbEntity
  8
0
  6
Continuous
 62
     7
370
    30
100
AcDbLine
 10
232.0101211064
 20
208.6808771704
 30
0.0
 11
229.0101150268
 21
208.6808771704
 31
0.0
  0
LINE
  5
169
330
1F
100
AcDbEntity
  8
0
  6
Continuous
 62
     7
370
    30
100
AcDbLine
 10
263.0101168745
 20
210.5308786844
 30
0.0
 11
263.0101168745
 21
203.0308783864
 31
0.0
  0
LINE
  5
16A
330
1F
100
AcDbEntity
  8
0
  6
Continuous
 62
     7
370
    30
100
AcDbLine
 10
271.0101181858
 20
203.0308783864
 30
0.0
 11
271.0101181858
 21
210.5308786844
 31
0.0
  0
LINE
  5
16B
330
1F
100
AcDbEntity
  8
0
  6
Continuous
 62
     7
370
    30
100
AcDbLine
 10
263.0101168745
 20
203.0308783864
 30
0.0
 11
263.5101178878
 21
202.5308773731
 31
0.0
  0
LINE
  5
16C
330
1F
100
AcDbEntity
  8
0
  6
Continuous
 62
     7
370
    30
100
AcDbLine
 10
270.5101171725
 20
202.5308773731
 30
0.0
 11
271.0101181858
 21
203.0308783864
 31
0.0
  0
LINE
  5
16D
330
1F
100
AcDbEntity
  8
0
  6
Continuous
 62
     7
370
    30
100
AcDbLine
 10
270.110117852
 20
211.5308732604
 30
0.0
 11
270.110117852
 21
211.6308749531
 31
0.0
  0
LINE
  5
16E
330
1F
100
AcDbEntity
  8
0
  6
Continuous
 62
     7
370
    30
100
AcDbLine
 10
263.9101172083
 20
211.6308749531
 30
0.0
 11
263.9101172083
 21
211.5308732604
 31
0.0
  0
ARC
  5
16F
330
1F
100
AcDbEntity
  8
0
  6
Continuous
 62
     7
370
    30
100
AcDbCircle
 10
264.1101186627
 20
211.6308758234
 30
0.0
 40
0.2000000000000455
100
AcDbArc
 50
90.0
 51
180.0
  0
ARC
  5
170
330
1F
100
AcDbEntity
  8
0
  6
Continuous
 62
     7
370
    30
100
AcDbCircle
 10
269.9101186627
 20
211.6308758234
 30
0.0
 40
0.2000000000000171
100
AcDbArc
 50
0.0
 51
90.0
  0
LINE
  5
171
330
1F
100
AcDbEntity
  8
0
  6
Continuous
 62
     7
370
    30
100
AcDbLine
 10
271.0101181858
 20
16.5308729623
 30
0.0
 11
271.0101181858
 21
24.0308732604
 31
0.0
  0
LINE
  5
172
330
1F
100
AcDbEntity
  8
0
  6
Continuous
 62
     7
370
    30
100
AcDbLine
 10
263.0101168745
 20
24.0308732604
 30
0.0
 11
263.0101168745
 21
16.5308729623
 31
0.0
  0
LINE
  5
173
330
1F
100
AcDbEntity
  8
0
  6
Continuous
 62
     7
370
    30
100
AcDbLine
 10
271.0101181858
 20
24.0308732604
 30
0.0
 11
270.5101171725
 21
24.5308742736
 31
0.0
  0
LINE
  5
174
330
1F
100
AcDbEntity
  8
0
  6
Continuous
 62
     7
370
    30
100
AcDbLine
 10
263.5101178878
 20
24.5308742736
 30
0.0
 11
263.0101168745
 21
24.0308732604
 31
0.0
  0
ARC
  5
175
330
1F
100
AcDbEntity
  8
0
  6
Continuous
 62
     7
370
    30
100
AcDbCircle
 10
269.9101186627
 20
15.4308758234
 30
0.0
 40
0.2000000000000064
100
AcDbArc
 50
270.0
 51
0.0
  0
ARC
  5
176
330
1F
100
AcDbEntity
  8
0
  6
Continuous
 62
     7
370
    30
100
AcDbCircle
 10
264.1101186627
 20
15.4308758234
 30
0.0
 40
0.2000000000000455
100
AcDbArc
 50
180.0
 51
270.0
  0
LINE
  5
177
330
1F
100
AcDbEntity
  8
0
  6
Continuous
 62
     7
370
    30
100
AcDbLine
 10
263.9101172083
 20
15.5308783864
 30
0.0
 11
263.9101172083
 21
15.4308766936
 31
0.0
  0
LINE
  5
178
330
1F
100
AcDbEntity
  8
0
  6
Continuous
 62
     7
370
    30
100
AcDbLine
 10
270.110117852
 20
15.4308766936
 30
0.0
 11
270.110117852
 21
15.5308783864
 31
0.0
  0
ARC
  5
179
330
1F
100
AcDbEntity
  8
0
  6
Continuous
 62
     7
370
    30
100
AcDbCircle
 10
250.2601186627
 20
17.5308758234
 30
0.0
 40
1.000000000000004
100
AcDbArc
 50
270.0
 51
0.0
  0
ARC
  5
17A
330
1F
100
AcDbEntity
  8
0
  6
Continuous
 62
     7
370
    30
100
AcDbCircle
 10
250.2601186627
 20
209.5308758234
 30
0.0
 40
1.0
100
AcDbArc
 50
0.0
 51
90.0
  0
LINE
  5
17B
330
1F
100
AcDbEntity
  8
0
  6
Continuous
 62
     7
370
    30
100
AcDbLine
 10
251.2601191395
 20
18.0308760022
 30
0.0
 11
251.2601191395
 21
17.5308749889
 31
0.0
  0
ARC
  5
17C
330
1F
100
AcDbEntity
  8
0
  6
Continuous
 62
     7
370
    30
100
AcDbCircle
 10
253.7601186627
 20
18.0308758234
 30
0.0
 40
2.5
100
AcDbArc
 50
90.0
 51
180.0
  0
ARC
  5
17D
330
1F
100
AcDbEntity
  8
0
  6
Continuous
 62
     7
370
    30
100
AcDbCircle
 10
253.7601186627
 20
209.0308758234
 30
0.0
 40
2.5
100
AcDbArc
 50
180.0
 51
270.0
  0
LINE
  5
17E
330
1F
100
AcDbEntity
  8
0
  6
Continuous
 62
     7
370
    30
100
AcDbLine
 10
251.2601191395
 20
209.5308766578
 30
0.0
 11
251.2601191395
 21
209.0308756445
 31
0.0
  0
CIRCLE
  5
17F
330
1F
100
AcDbEntity
  8
0
  6
Continuous
 62
     7
370
    30
100
AcDbCircle
 10
238.0101186627
 20
205.0308758234
 30
0.0
 40
2.749999999999972
  0
CIRCLE
  5
180
330
1F
100
AcDbEntity
  8
0
  6
Continuous
 62
     7
370
    30
100
AcDbCircle
 10
238.0101186627
 20
205.0308758234
 30
0.0
 40
1.399999999999977
  0
CIRCLE
  5
181
330
1F
100
AcDbEntity
  8
0
  6
Continuous
 62
     7
370
    30
100
AcDbCircle
 10
238.0101186627
 20
205.0308758234
 30
0.0
 40
1.0
  0
CIRCLE
  5
182
330
1F
100
AcDbEntity
  8
0
  6
Continuous
 62
     7
370
    30
100
AcDbCircle
 10
238.0101186627
 20
22.0308758234
 30
0.0
 40
2.750000000000028
  0
CIRCLE
  5
183
330
1F
100
AcDbEntity
  8
0
  6
Continuous
 62
     7
370
    30
100
AcDbCircle
 10
238.0101186627
 20
22.0308758234
 30
0.0
 40
1.400000000000006
  0
CIRCLE
  5
184
330
1F
100
AcDbEntity
  8
0
  6
Continuous
 62
     7
370
    30
100
AcDbCircle
 10
238.0101186627
 20
22.0308758234
 30
0.0
 40
1.0
  0
LINE
  5
185
330
1F
100
AcDbEntity
  8
0
  6
Continuous
 62
     7
370
    30
100
AcDbLine
 10
265.0101172023
 20
192.3308760737
 30
0.0
 11
253.0101189607
 21
192.3308760737
 31
0.0
  0
LINE
  5
186
330
1F
100
AcDbEntity
  8
0
  6
Continuous
 62
     7
370
    30
100
AcDbLine
 10
253.0101189607
 20
188.2308737253
 30
0.0
 11
265.0101172023
 21
188.2308737253
 31
0.0
  0
LINE
  5
187
330
1F
100
AcDbEntity
  8
0
  6
Continuous
 62
     7
370
    30
100
AcDbLine
 10
264.8101175421
 20
188.0308777903
 30
0.0
 11
253.2101186209
 21
188.0308777903
 31
0.0
  0
LINE
  5
188
330
1F
100
AcDbEntity
  8
0
  6
Continuous
 62
     7
370
    30
100
AcDbLine
 10
257.9296218448
 20
195.7808748697
 30
0.0
 11
257.9702349597
 21
206.5308780287
 31
0.0
  0
LINE
  5
189
330
1F
100
AcDbEntity
  8
0
  6
Continuous
 62
     7
370
    30
100
AcDbLine
 10
255.3295219534
 20
195.7808748697
 30
0.0
 11
255.4678680592
 21
206.5308780287
 31
0.0
  0
LINE
  5
18A
330
1F
100
AcDbEntity
  8
0
  6
Continuous
 62
     7
370
    30
100
AcDbLine
 10
260.0906180435
 20
195.7808748697
 30
0.0
 11
260.0500049287
 21
206.5308780287
 31
0.0
  0
LINE
  5
18B
330
1F
100
AcDbEntity
  8
0
  6
Continuous
 62
     7
370
    30
100
AcDbLine
 10
262.6907142096
 20
195.7808748697
 30
0.0
 11
262.5523718291
 21
206.5308780287
 31
0.0
  0
LINE
  5
18C
330
1F
100
AcDbEntity
  8
0
  6
Continuous
 62
     7
370
    30
100
AcDbLine
 10
259.9634291821
 20
206.5308780287
 30
0.0
 11
260.0040422969
 21
195.7808748697
 31
0.0
  0
LINE
  5
18D
330
1F
100
AcDbEntity
  8
0
  6
Continuous
 62
     7
370
    30
100
AcDbLine
 10
258.0568107062
 20
206.5308780287
 30
0.0
 11
258.0161975914
 21
195.7808748697
 31
0.0
  0
LINE
  5
18E
330
1F
100
AcDbEntity
  8
0
  6
Continuous
 62
     7
370
    30
100
AcDbLine
 10
254.8094677025
 20
206.5308780287
 30
0.0
 11
254.6305122071
 21
195.7808748697
 31
0.0
  0
LINE
  5
18F
330
1F
100
AcDbEntity
  8
0
  6
Continuous
 62
     7
370
    30
100
AcDbLine
 10
263.2734166675
 20
202.7675748681
 30
0.0
 11
263.3897239559
 21
195.7808748697
 31
0.0
  0
LINE
  5
190
330
1F
100
AcDbEntity
  8
0
  6
Continuous
 62
     7
370
    30
100
AcDbLine
 10
254.2490238541
 20
195.7808748697
 30
0.0
 11
254.4279830747
 21
206.5308780287
 31
0.0
  0
LINE
  5
191
330
1F
100
AcDbEntity
  8
0
  6
Continuous
 62
     7
370
    30
100
AcDbLine
 10
263.7712123089
 20
195.7808748697
 30
0.0
 11
263.6588426524
 21
202.5308773731
 31
0.0
  0
LINE
  5
192
330
1F
100
AcDbEntity
  8
0
  6
Continuous
 62
     7
370
    30
100
AcDbLine
 10
253.0101189607
 20
34.730875573
 30
0.0
 11
265.0101172023
 21
34.730875573
 31
0.0
  0
LINE
  5
193
330
1F
100
AcDbEntity
  8
0
  6
Continuous
 62
     7
370
    30
100
AcDbLine
 10
265.0101172023
 20
38.8308779214
 30
0.0
 11
253.0101189607
 21
38.8308779214
 31
0.0
  0
LINE
  5
194
330
1F
100
AcDbEntity
  8
0
  6
Continuous
 62
     7
370
    30
100
AcDbLine
 10
253.2101186209
 20
39.0308738564
 30
0.0
 11
264.8101175421
 21
39.0308738564
 31
0.0
  0
LINE
  5
195
330
1F
100
AcDbEntity
  8
0
  6
Continuous
 62
     7
370
    30
100
AcDbLine
 10
257.9296218448
 20
31.280876777
 30
0.0
 11
257.9702349597
 21
20.530873618
 31
0.0
  0
LINE
  5
196
330
1F
100
AcDbEntity
  8
0
  6
Continuous
 62
     7
370
    30
100
AcDbLine
 10
255.3295219534
 20
31.280876777
 30
0.0
 11
255.4678680592
 21
20.530873618
 31
0.0
  0
LINE
  5
197
330
1F
100
AcDbEntity
  8
0
  6
Continuous
 62
     7
370
    30
100
AcDbLine
 10
258.0568107062
 20
20.530873618
 30
0.0
 11
258.0161975914
 21
31.280876777
 31
0.0
  0
LINE
  5
198
330
1F
100
AcDbEntity
  8
0
  6
Continuous
 62
     7
370
    30
100
AcDbLine
 10
260.0906180435
 20
31.280876777
 30
0.0
 11
260.0500049287
 21
20.530873618
 31
0.0
  0
LINE
  5
199
330
1F
100
AcDbEntity
  8
0
  6
Continuous
 62
     7
370
    30
100
AcDbLine
 10
259.9634291821
 20
20.530873618
 30
0.0
 11
260.0040422969
 21
31.280876777
 31
0.0
  0
LINE
  5
19A
330
1F
100
AcDbEntity
  8
0
  6
Continuous
 62
     7
370
    30
100
AcDbLine
 10
262.6907142096
 20
31.280876777
 30
0.0
 11
262.5523718291
 21
20.530873618
 31
0.0
  0
LINE
  5
19B
330
1F
100
AcDbEntity
  8
0
  6
Continuous
 62
     7
370
    30
100
AcDbLine
 10
263.2734166675
 20
24.2941767786
 30
0.0
 11
263.3897239559
 21
31.280876777
 31
0.0
  0
LINE
  5
19C
330
1F
100
AcDbEntity
  8
0
  6
Continuous
 62
     7
370
    30
100
AcDbLine
 10
254.8094677025
 20
20.530873618
 30
0.0
 11
254.6305122071
 21
31.280876777
 31
0.0
  0
LINE
  5
19D
330
1F
100
AcDbEntity
  8
0
  6
Continuous
 62
     7
370
    30
100
AcDbLine
 10
263.7712123089
 20
31.280876777
 30
0.0
 11
263.6588426524
 21
24.5308742736
 31
0.0
  0
LINE
  5
19E
330
1F
100
AcDbEntity
  8
0
  6
Continuous
 62
     7
370
    30
100
AcDbLine
 10
254.2490238541
 20
31.280876777
 30
0.0
 11
254.4279830747
 21
20.530873618
 31
0.0
  0
LINE
  5
19F
330
1F
100
AcDbEntity
  8
0
  6
Continuous
 62
     7
370
    30
100
AcDbLine
 10
216.0101184838
 20
30.0308779691
 30
0.0
 11
224.0101197951
 21
30.0308779691
 31
0.0
  0
LINE
  5
1A0
330
1F
100
AcDbEntity
  8
0
  6
Continuous
 62
     7
370
    30
100
AcDbLine
 10
220.5542648428
 20
29.3308735703
 30
0.0
 11
222.7601209872
 21
29.3308735703
 31
0.0
  0
LINE
  5
1A1
330
1F
100
AcDbEntity
  8
0
  6
Continuous
 62
     7
370
    30
100
AcDbLine
 10
217.2601172918
 20
29.3308735703
 30
0.0
 11
220.2742645734
 21
29.3308735703
 31
0.0
  0
LINE
  5
1A2
330
1F
100
AcDbEntity
  8
0
  6
Continuous
 62
     7
370
    30
100
AcDbLine
 10
220.2742645734
 20
29.3308735703
 30
0.0
 11
220.5542648428
 21
29.3308735703
 31
0.0
  0
LWPOLYLINE
  5
1A3
330
1F
100
AcDbEntity
  8
0
  6
Continuous
 62
     7
370
    30
100
AcDbPolyline
 90
        4
 70
   128
 43
0.0
 10
220.1501155489
 20
30.0308779691
 10
220.2856192582
 20
29.7961846803
 10
220.4204375141
 20
29.5626611327
 10
220.5542648428
 20
29.3308735703
  0
LWPOLYLINE
  5
1A4
330
1F
100
AcDbEntity
  8
0
  6
Continuous
 62
     7
370
    30
100
AcDbPolyline
 90
        4
 70
   128
 43
0.0
 10
219.8701152795
 20
30.0308779691
 10
220.0049260848
 20
29.7973767732
 10
220.1397517913
 20
29.5638532256
 10
220.2742645734
 20
29.3308735703
  0
LINE
  5
1A5
330
1F
100
AcDbEntity
  8
0
  6
Continuous
 62
     7
370
    30
100
AcDbLine
 10
221.3986838453
 20
27.6035235141
 30
0.0
 11
221.3932449215
 21
27.6066006039
 31
0.0
  0
SPLINE
  5
1A6
330
1F
100
AcDbEntity
  8
0
  6
Continuous
 62
     7
370
    30
100
AcDbSpline
210
0.0
220
0.0
230
1.0
 70
     8
 71
     3
 72
     9
 73
     5
 74
     0
 42
0.000000001
 43
0.00000001
 40
0.0
 40
0.0
 40
0.0
 40
0.0
 40
0.3510832532044607
 40
1.0
 40
1.0
 40
1.0
 40
1.0
 10
220.3378478282129
 20
27.35514350876574
 30
0.0
 10
220.4644003538591
 20
27.37053890227808
 30
0.0
 10
220.8248633622513
 20
27.41439002126996
 30
0.0
 10
221.1695633359536
 20
27.53095781222453
 30
0.0
 10
221.393244921509
 20
27.60660060391191
 30
0.0
  0
LINE
  5
1A7
330
1F
100
AcDbEntity
  8
0
  6
Continuous
 62
     7
370
    30
100
AcDbLine
 10
220.2026197904
 20
27.3551435088
 30
0.0
 11
220.3378478282
 21
27.3551435088
 31
0.0
  0
LINE
  5
1A8
330
1F
100
AcDbEntity
  8
0
  6
Continuous
 62
     7
370
    30
100
AcDbLine
 10
220.2026197904
 20
27.6066006039
 30
0.0
 11
220.2026197904
 21
27.3551435088
 31
0.0
  0
LINE
  5
1A9
330
1F
100
AcDbEntity
  8
0
  6
Continuous
 62
     7
370
    30
100
AcDbLine
 10
220.2026197904
 20
27.6066006039
 30
0.0
 11
219.8176184886
 21
27.6066006039
 31
0.0
  0
SPLINE
  5
1AA
330
1F
100
AcDbEntity
  8
0
  6
Continuous
 62
     7
370
    30
100
AcDbSpline
210
0.0
220
0.0
230
1.0
 70
    24
 71
     3
 72
     9
 73
     5
 74
     0
 42
0.000000001
 43
0.00000001
 40
0.0
 40
0.0
 40
0.0
 40
0.0
 40
0.3510835697539297
 40
1.0
 40
1.0
 40
1.0
 40
1.0
 10
219.8176184886133
 20
27.35514350876574
 30
0.0
 10
219.8176184886133
 20
27.37053889094931
 30
0.0
 10
219.8176184886133
 20
27.41438993813544
 30
0.0
 10
219.8176184886133
 20
27.53095780188569
 30
0.0
 10
219.8176184886133
 20
27.60660060391191
 30
0.0
  0
LINE
  5
1AB
330
1F
100
AcDbEntity
  8
0
  6
Continuous
 62
     7
370
    30
100
AcDbLine
 10
219.6823904508
 20
27.3551435088
 30
0.0
 11
219.8176184886
 21
27.3551435088
 31
0.0
  0
LINE
  5
1AC
330
1F
100
AcDbEntity
  8
0
  6
Continuous
 62
     7
370
    30
100
AcDbLine
 10
218.6269933575
 20
27.6066006039
 30
0.0
 11
219.6823904508
 21
27.3551435088
 31
0.0
  0
LINE
  5
1AD
330
1F
100
AcDbEntity
  8
0
  6
Continuous
 62
     7
370
    30
100
AcDbLine
 10
218.6269933575
 20
27.6066006039
 30
0.0
 11
218.6215544336
 21
27.6035235141
 31
0.0
  0
LINE
  5
1AE
330
1F
100
AcDbEntity
  8
0
  6
Continuous
 62
     7
370
    30
100
AcDbLine
 10
224.0101197951
 20
197.0308736776
 30
0.0
 11
216.0101184838
 21
197.0308736776
 31
0.0
  0
LINE
  5
1AF
330
1F
100
AcDbEntity
  8
0
  6
Continuous
 62
     7
370
    30
100
AcDbLine
 10
219.4659734362
 20
197.7308780764
 30
0.0
 11
217.2601172918
 21
197.7308780764
 31
0.0
  0
LINE
  5
1B0
330
1F
100
AcDbEntity
  8
0
  6
Continuous
 62
     7
370
    30
100
AcDbLine
 10
222.7601209872
 20
197.7308780764
 30
0.0
 11
219.7459737056
 21
197.7308780764
 31
0.0
  0
LWPOLYLINE
  5
1B1
330
1F
100
AcDbEntity
  8
0
  6
Continuous
 62
     7
370
    30
100
AcDbPolyline
 90
        4
 70
   128
 43
0.0
 10
219.8701152795
 20
197.0308736776
 10
219.7346190208
 20
197.2655669664
 10
219.5997933143
 20
197.499090514
 10
219.4659734362
 20
197.7308780764
  0
LWPOLYLINE
  5
1B2
330
1F
100
AcDbEntity
  8
0
  6
Continuous
 62
     7
370
    30
100
AcDbPolyline
 90
        4
 70
   128
 43
0.0
 10
220.1501155489
 20
197.0308736776
 10
220.0153047436
 20
197.2643748735
 10
219.8804864877
 20
197.4978984211
 10
219.7459737056
 20
197.7308780764
  0
LINE
  5
1B3
330
1F
100
AcDbEntity
  8
0
  6
Continuous
 62
     7
370
    30
100
AcDbLine
 10
219.7459737056
 20
197.7308780764
 30
0.0
 11
219.4659734362
 21
197.7308780764
 31
0.0
  0
LINE
  5
1B4
330
1F
100
AcDbEntity
  8
0
  6
Continuous
 62
     7
370
    30
100
AcDbLine
 10
218.6215544336
 20
199.4582281326
 30
0.0
 11
218.6269933575
 21
199.4551510428
 31
0.0
  0
SPLINE
  5
1B5
330
1F
100
AcDbEntity
  8
0
  6
Continuous
 62
     7
370
    30
100
AcDbSpline
210
0.0
220
0.0
230
1.0
 70
     8
 71
     3
 72
     9
 73
     5
 74
     0
 42
0.000000001
 43
0.00000001
 40
0.0
 40
0.0
 40
0.0
 40
0.0
 40
0.3510832532044607
 40
1.0
 40
1.0
 40
1.0
 40
1.0
 10
219.6823904507791
 20
199.706608137939
 30
0.0
 10
219.5558379251329
 20
199.6912127444267
 30
0.0
 10
219.1953749167407
 20
199.6473616254348
 30
0.0
 10
218.8506749430385
 20
199.5307938344802
 30
0.0
 10
218.6269933574831
 20
199.4551510427928
 30
0.0
  0
LINE
  5
1B6
330
1F
100
AcDbEntity
  8
0
  6
Continuous
 62
     7
370
    30
100
AcDbLine
 10
219.8176184886
 20
199.7066081379
 30
0.0
 11
219.6823904508
 21
199.7066081379
 31
0.0
  0
LINE
  5
1B7
330
1F
100
AcDbEntity
  8
0
  6
Continuous
 62
     7
370
    30
100
AcDbLine
 10
219.8176184886
 20
199.4551510428
 30
0.0
 11
219.8176184886
 21
199.7066081379
 31
0.0
  0
LINE
  5
1B8
330
1F
100
AcDbEntity
  8
0
  6
Continuous
 62
     7
370
    30
100
AcDbLine
 10
219.8176184886
 20
199.4551510428
 30
0.0
 11
220.2026197904
 21
199.4551510428
 31
0.0
  0
SPLINE
  5
1B9
330
1F
100
AcDbEntity
  8
0
  6
Continuous
 62
     7
370
    30
100
AcDbSpline
210
0.0
220
0.0
230
1.0
 70
    24
 71
     3
 72
     9
 73
     5
 74
     0
 42
0.000000001
 43
0.00000001
 40
0.0
 40
0.0
 40
0.0
 40
0.0
 40
0.3510835697539297
 40
1.0
 40
1.0
 40
1.0
 40
1.0
 10
220.2026197903787
 20
199.706608137939
 30
0.0
 10
220.2026197903787
 20
199.6912127557554
 30
0.0
 10
220.2026197903787
 20
199.6473617085693
 30
0.0
 10
220.2026197903787
 20
199.5307938448191
 30
0.0
 10
220.2026197903787
 20
199.4551510427928
 30
0.0
  0
LINE
  5
1BA
330
1F
100
AcDbEntity
  8
0
  6
Continuous
 62
     7
370
    30
100
AcDbLine
 10
220.3378478282
 20
199.7066081379
 30
0.0
 11
220.2026197904
 21
199.7066081379
 31
0.0
  0
LINE
  5
1BB
330
1F
100
AcDbEntity
  8
0
  6
Continuous
 62
     7
370
    30
100
AcDbLine
 10
221.3932449215
 20
199.4551510428
 30
0.0
 11
220.3378478282
 21
199.7066081379
 31
0.0
  0
LINE
  5
1BC
330
1F
100
AcDbEntity
  8
0
  6
Continuous
 62
     7
370
    30
100
AcDbLine
 10
221.3932449215
 20
199.4551510428
 30
0.0
 11
221.3986838453
 21
199.4582281326
 31
0.0
  0
LINE
  5
1BD
330
1F
100
AcDbEntity
  8
0
  6
Continuous
 62
     7
370
    30
100
AcDbLine
 10
237.9414016598
 20
197.0308736776
 30
0.0
 11
229.9414003485
 21
197.0308736776
 31
0.0
  0
LINE
  5
1BE
330
1F
100
AcDbEntity
  8
0
  6
Continuous
 62
     7
370
    30
100
AcDbLine
 10
233.3972553008
 20
197.7308780764
 30
0.0
 11
231.1913991564
 21
197.7308780764
 31
0.0
  0
LINE
  5
1BF
330
1F
100
AcDbEntity
  8
0
  6
Continuous
 62
     7
370
    30
100
AcDbLine
 10
236.6914028519
 20
197.7308780764
 30
0.0
 11
233.6772555702
 21
197.7308780764
 31
0.0
  0
LINE
  5
1C0
330
1F
100
AcDbEntity
  8
0
  6
Continuous
 62
     7
370
    30
100
AcDbLine
 10
233.6772555702
 20
197.7308780764
 30
0.0
 11
233.3972553008
 21
197.7308780764
 31
0.0
  0
LWPOLYLINE
  5
1C1
330
1F
100
AcDbEntity
  8
0
  6
Continuous
 62
     7
370
    30
100
AcDbPolyline
 90
        4
 70
   128
 43
0.0
 10
233.8014045947
 20
197.0308736776
 10
233.6659008854
 20
197.2655669664
 10
233.5310826295
 20
197.499090514
 10
233.3972553008
 20
197.7308780764
  0
LWPOLYLINE
  5
1C2
330
1F
100
AcDbEntity
  8
0
  6
Continuous
 62
     7
370
    30
100
AcDbPolyline
 90
        4
 70
   128
 43
0.0
 10
234.0814048641
 20
197.0308736776
 10
233.9465940588
 20
197.2643748735
 10
233.8117683523
 20
197.4978984211
 10
233.6772555702
 20
197.7308780764
  0
LINE
  5
1C3
330
1F
100
AcDbEntity
  8
0
  6
Continuous
 62
     7
370
    30
100
AcDbLine
 10
232.5528362983
 20
199.4582281326
 30
0.0
 11
232.5582826727
 21
199.4551510428
 31
0.0
  0
SPLINE
  5
1C4
330
1F
100
AcDbEntity
  8
0
  6
Continuous
 62
     7
370
    30
100
AcDbSpline
210
0.0
220
0.0
230
1.0
 70
     8
 71
     3
 72
     9
 73
     5
 74
     0
 42
0.000000001
 43
0.00000001
 40
0.0
 40
0.0
 40
0.0
 40
0.0
 40
0.3510855640541458
 40
1.0
 40
1.0
 40
1.0
 40
1.0
 10
233.6136723154222
 20
199.706608137939
 30
0.0
 10
233.4871197672528
 20
199.6912128271286
 30
0.0
 10
233.1266590672798
 20
199.6473622323259
 30
0.0
 10
232.7819617426748
 20
199.530793909954
 30
0.0
 10
232.5582826727068
 20
199.4551510427928
 30
0.0
  0
LINE
  5
1C5
330
1F
100
AcDbEntity
  8
0
  6
Continuous
 62
     7
370
    30
100
AcDbLine
 10
233.7489003533
 20
199.7066081379
 30
0.0
 11
233.6136723154
 21
199.7066081379
 31
0.0
  0
LINE
  5
1C6
330
1F
100
AcDbEntity
  8
0
  6
Continuous
 62
     7
370
    30
100
AcDbLine
 10
233.7489003533
 20
199.4551510428
 30
0.0
 11
233.7489003533
 21
199.7066081379
 31
0.0
  0
LINE
  5
1C7
330
1F
100
AcDbEntity
  8
0
  6
Continuous
 62
     7
370
    30
100
AcDbLine
 10
233.7489003533
 20
199.4551510428
 30
0.0
 11
234.133901655
 21
199.4551510428
 31
0.0
  0
SPLINE
  5
1C8
330
1F
100
AcDbEntity
  8
0
  6
Continuous
 62
     7
370
    30
100
AcDbSpline
210
0.0
220
0.0
230
1.0
 70
    24
 71
     3
 72
     9
 73
     5
 74
     0
 42
0.000000001
 43
0.00000001
 40
0.0
 40
0.0
 40
0.0
 40
0.0
 40
0.3510844086257465
 40
1.0
 40
1.0
 40
1.0
 40
1.0
 10
234.1339016550218
 20
199.706608137939
 30
0.0
 10
234.1339016550218
 20
199.6912127857774
 30
0.0
 10
234.1339016550218
 20
199.6473619288797
 30
0.0
 10
234.1339016550218
 20
199.5307938722173
 30
0.0
 10
234.1339016550218
 20
199.4551510427928
 30
0.0
  0
LINE
  5
1C9
330
1F
100
AcDbEntity
  8
0
  6
Continuous
 62
     7
370
    30
100
AcDbLine
 10
234.2691296929
 20
199.7066081379
 30
0.0
 11
234.133901655
 21
199.7066081379
 31
0.0
  0
LINE
  5
1CA
330
1F
100
AcDbEntity
  8
0
  6
Continuous
 62
     7
370
    30
100
AcDbLine
 10
235.3245267862
 20
199.4551510428
 30
0.0
 11
234.2691296929
 21
199.7066081379
 31
0.0
  0
LINE
  5
1CB
330
1F
100
AcDbEntity
  8
0
  6
Continuous
 62
     7
370
    30
100
AcDbLine
 10
235.3245267862
 20
199.4551510428
 30
0.0
 11
235.32996571
 21
199.4582281326
 31
0.0
  0
LINE
  5
1CC
330
1F
100
AcDbEntity
  8
0
  6
Continuous
 62
     7
370
    30
100
AcDbLine
 10
235.15492922
 20
189.7308767651
 30
0.0
 11
235.441404044
 21
189.7308767651
 31
0.0
  0
LINE
  5
1CD
330
1F
100
AcDbEntity
  8
0
  6
Continuous
 62
     7
370
    30
100
AcDbLine
 10
229.9414003485
 20
30.0308779691
 30
0.0
 11
237.9414016598
 21
30.0308779691
 31
0.0
  0
LINE
  5
1CE
330
1F
100
AcDbEntity
  8
0
  6
Continuous
 62
     7
370
    30
100
AcDbLine
 10
234.4855467075
 20
29.3308735703
 30
0.0
 11
236.6914028519
 21
29.3308735703
 31
0.0
  0
LINE
  5
1CF
330
1F
100
AcDbEntity
  8
0
  6
Continuous
 62
     7
370
    30
100
AcDbLine
 10
231.1913991564
 20
29.3308735703
 30
0.0
 11
234.205546438
 21
29.3308735703
 31
0.0
  0
LINE
  5
1D0
330
1F
100
AcDbEntity
  8
0
  6
Continuous
 62
     7
370
    30
100
AcDbLine
 10
234.205546438
 20
29.3308735703
 30
0.0
 11
234.4855467075
 21
29.3308735703
 31
0.0
  0
LWPOLYLINE
  5
1D1
330
1F
100
AcDbEntity
  8
0
  6
Continuous
 62
     7
370
    30
100
AcDbPolyline
 90
        4
 70
   128
 43
0.0
 10
234.0814048641
 20
30.0308779691
 10
234.2169011229
 20
29.7961846803
 10
234.3517268294
 20
29.5626611327
 10
234.4855467075
 20
29.3308735703
  0
LWPOLYLINE
  5
1D2
330
1F
100
AcDbEntity
  8
0
  6
Continuous
 62
     7
370
    30
100
AcDbPolyline
 90
        4
 70
   128
 43
0.0
 10
233.8014045947
 20
30.0308779691
 10
233.9362154
 20
29.7973767732
 10
234.0710336559
 20
29.5638532256
 10
234.205546438
 20
29.3308735703
  0
LINE
  5
1D3
330
1F
100
AcDbEntity
  8
0
  6
Continuous
 62
     7
370
    30
100
AcDbLine
 10
235.32996571
 20
27.6035235141
 30
0.0
 11
235.3245267862
 21
27.6066006039
 31
0.0
  0
SPLINE
  5
1D4
330
1F
100
AcDbEntity
  8
0
  6
Continuous
 62
     7
370
    30
100
AcDbSpline
210
0.0
220
0.0
230
1.0
 70
     8
 71
     3
 72
     9
 73
     5
 74
     0
 42
0.000000001
 43
0.00000001
 40
0.0
 40
0.0
 40
0.0
 40
0.0
 40
0.3510832532044607
 40
1.0
 40
1.0
 40
1.0
 40
1.0
 10
234.269129692856
 20
27.35514350876574
 30
0.0
 10
234.3956822185022
 20
27.37053890227808
 30
0.0
 10
234.7561452268944
 20
27.41439002126996
 30
0.0
 10
235.1008452005967
 20
27.53095781222453
 30
0.0
 10
235.3245267861521
 20
27.60660060391191
 30
0.0
  0
LINE
  5
1D5
330
1F
100
AcDbEntity
  8
0
  6
Continuous
 62
     7
370
    30
100
AcDbLine
 10
234.133901655
 20
27.3551435088
 30
0.0
 11
234.2691296929
 21
27.3551435088
 31
0.0
  0
LINE
  5
1D6
330
1F
100
AcDbEntity
  8
0
  6
Continuous
 62
     7
370
    30
100
AcDbLine
 10
234.133901655
 20
27.6066006039
 30
0.0
 11
234.133901655
 21
27.3551435088
 31
0.0
  0
LINE
  5
1D7
330
1F
100
AcDbEntity
  8
0
  6
Continuous
 62
     7
370
    30
100
AcDbLine
 10
234.133901655
 20
27.6066006039
 30
0.0
 11
233.7489003533
 21
27.6066006039
 31
0.0
  0
SPLINE
  5
1D8
330
1F
100
AcDbEntity
  8
0
  6
Continuous
 62
     7
370
    30
100
AcDbSpline
210
0.0
220
0.0
230
1.0
 70
    24
 71
     3
 72
     9
 73
     5
 74
     0
 42
0.000000001
 43
0.00000001
 40
0.0
 40
0.0
 40
0.0
 40
0.0
 40
0.3510844086257465
 40
1.0
 40
1.0
 40
1.0
 40
1.0
 10
233.7489003532564
 20
27.35514350876574
 30
0.0
 10
233.7489003532564
 20
27.37053886092739
 30
0.0
 10
233.7489003532564
 20
27.41438971782509
 30
0.0
 10
233.7489003532564
 20
27.53095777448748
 30
0.0
 10
233.7489003532564
 20
27.60660060391191
 30
0.0
  0
LINE
  5
1D9
330
1F
100
AcDbEntity
  8
0
  6
Continuous
 62
     7
370
    30
100
AcDbLine
 10
233.6136723154
 20
27.3551435088
 30
0.0
 11
233.7489003533
 21
27.3551435088
 31
0.0
  0
LINE
  5
1DA
330
1F
100
AcDbEntity
  8
0
  6
Continuous
 62
     7
370
    30
100
AcDbLine
 10
232.5582826727
 20
27.6066006039
 30
0.0
 11
233.6136723154
 21
27.3551435088
 31
0.0
  0
LINE
  5
1DB
330
1F
100
AcDbEntity
  8
0
  6
Continuous
 62
     7
370
    30
100
AcDbLine
 10
232.5582826727
 20
27.6066006039
 30
0.0
 11
232.5528362983
 21
27.6035235141
 31
0.0
  0
LINE
  5
1DC
330
1F
100
AcDbEntity
  8
0
  6
Continuous
 62
     7
370
    30
100
AcDbLine
 10
235.441404044
 20
37.3308748816
 30
0.0
 11
235.15492922
 21
37.3308748816
 31
0.0
  0
LINE
  5
1DD
330
1F
100
AcDbEntity
  8
0
  6
Continuous
 62
     7
370
    30
100
AcDbLine
 10
231.7440981262
 20
199.0308777307
 30
0.0
 11
225.5788395398
 21
199.0308777307
 31
0.0
  0
LWPOLYLINE
  5
1DE
330
1F
100
AcDbEntity
  8
0
  6
Continuous
 62
     7
370
    30
100
AcDbPolyline
 90
        5
 70
   128
 43
0.0
 10
226.9719789022
 20
199.5054052089
 10
226.9724855416
 20
199.5048240636
 10
226.9739980095
 20
199.5030880784
 10
226.9765237563
 20
199.5001898025
 10
226.9800553315
 20
199.4961366867
  0
ARC
  5
1DF
330
1F
100
AcDbEntity
  8
0
  6
Continuous
 62
     7
370
    30
100
AcDbCircle
 10
229.5101186627
 20
189.7715324509
 30
0.0
 40
10.04834193485711
100
AcDbArc
 50
92.682827173
 51
104.5834002154
  0
LINE
  5
1E0
330
1F
100
AcDbEntity
  8
0
  6
Continuous
 62
     7
370
    30
100
AcDbLine
 10
229.0397832387
 20
199.4961366867
 30
0.0
 11
229.0397832387
 21
199.8088599061
 31
0.0
  0
ARC
  5
1E1
330
1F
100
AcDbEntity
  8
0
  6
Continuous
 62
     7
370
    30
100
AcDbCircle
 10
229.5101160401
 20
187.5682866989
 30
0.0
 40
11.93711934577215
100
AcDbArc
 50
87.7419123432
 51
92.2580876568
  0
LINE
  5
1E2
330
1F
100
AcDbEntity
  8
0
  6
Continuous
 62
     7
370
    30
100
AcDbLine
 10
229.9804488414
 20
199.8088599061
 30
0.0
 11
229.9804488414
 21
199.4961366867
 31
0.0
  0
ARC
  5
1E3
330
1F
100
AcDbEntity
  8
0
  6
Continuous
 62
     7
370
    30
100
AcDbCircle
 10
229.5101186627
 20
189.7715324509
 30
0.0
 40
10.04834193485712
100
AcDbArc
 50
75.4165997846
 51
87.317172827
  0
LINE
  5
1E4
330
1F
100
AcDbEntity
  8
0
  6
Continuous
 62
     7
370
    30
100
AcDbLine
 10
232.0401767486
 20
199.4961366867
 30
0.0
 11
232.0482606285
 21
199.5054052089
 31
0.0
  0
LINE
  5
1E5
330
1F
100
AcDbEntity
  8
0
  6
Continuous
 62
     7
370
    30
100
AcDbLine
 10
225.5788395398
 20
28.030873916
 30
0.0
 11
231.7440981262
 21
28.030873916
 31
0.0
  0
LINE
  5
1E6
330
1F
100
AcDbEntity
  8
0
  6
Continuous
 62
     7
370
    30
100
AcDbLine
 10
232.0482606285
 20
27.5563464378
 30
0.0
 11
232.0401767486
 21
27.56561496
 31
0.0
  0
ARC
  5
1E7
330
1F
100
AcDbEntity
  8
0
  6
Continuous
 62
     7
370
    30
100
AcDbCircle
 10
229.5101186627
 20
37.2902191958
 30
0.0
 40
10.04834193485712
100
AcDbArc
 50
272.682827173
 51
284.5834002154
  0
LINE
  5
1E8
330
1F
100
AcDbEntity
  8
0
  6
Continuous
 62
     7
370
    30
100
AcDbLine
 10
229.9804488414
 20
27.56561496
 30
0.0
 11
229.9804488414
 21
27.2528917407
 31
0.0
  0
ARC
  5
1E9
330
1F
100
AcDbEntity
  8
0
  6
Continuous
 62
     7
370
    30
100
AcDbCircle
 10
229.5101160401
 20
39.4934649478
 30
0.0
 40
11.93711934577213
100
AcDbArc
 50
267.7419123432
 51
272.2580876568
  0
LINE
  5
1EA
330
1F
100
AcDbEntity
  8
0
  6
Continuous
 62
     7
370
    30
100
AcDbLine
 10
229.0397832387
 20
27.2528917407
 30
0.0
 11
229.0397832387
 21
27.56561496
 31
0.0
  0
ARC
  5
1EB
330
1F
100
AcDbEntity
  8
0
  6
Continuous
 62
     7
370
    30
100
AcDbCircle
 10
229.5101186627
 20
37.2902191958
 30
0.0
 40
10.04834193485713
100
AcDbArc
 50
255.4165997846
 51
267.317172827
  0
LWPOLYLINE
  5
1EC
330
1F
100
AcDbEntity
  8
0
  6
Continuous
 62
     7
370
    30
100
AcDbPolyline
 90
        5
 70
   128
 43
0.0
 10
226.9800553315
 20
27.56561496
 10
226.9765237563
 20
27.5615618442
 10
226.9739980095
 20
27.5586635684
 10
226.9724855416
 20
27.5569275831
 10
226.9719789022
 20
27.5563464378
  0
LINE
  5
1ED
330
1F
100
AcDbEntity
  8
0
  6
Continuous
 62
     7
370
    30
100
AcDbLine
 10
235.15492922
 20
194.3308726762
 30
0.0
 11
235.15492922
 21
32.7308789705
 31
0.0
  0
LINE
  5
1EE
330
1F
100
AcDbEntity
  8
0
  6
Continuous
 62
     7
370
    30
100
AcDbLine
 10
235.15492922
 20
32.7308789705
 30
0.0
 11
238.359029054
 21
32.7308789705
 31
0.0
  0
LWPOLYLINE
  5
1EF
330
1F
100
AcDbEntity
  8
0
  6
Continuous
 62
     7
370
    30
100
AcDbPolyline
 90
        9
 70
   128
 43
0.0
 10
234.5013642901
 20
32.7308789705
 10
234.5139185184
 20
32.496766827
 10
234.5511118167
 20
32.2716549848
 10
234.611506223
 20
32.0641935681
 10
234.6927846068
 20
31.8823472475
 10
234.7918251746
 20
31.7331121181
 10
234.90482068
 20
31.6222176765
 10
235.0274274343
 20
31.5539331053
 10
235.15492922
 20
31.5308735584
  0
LINE
  5
1F0
330
1F
100
AcDbEntity
  8
0
  6
Continuous
 62
     7
370
    30
100
AcDbLine
 10
234.5013642901
 20
194.3308726762
 30
0.0
 11
234.5013642901
 21
32.7308789705
 31
0.0
  0
LWPOLYLINE
  5
1F1
330
1F
100
AcDbEntity
  8
0
  6
Continuous
 62
     7
370
    30
100
AcDbPolyline
 90
        9
 70
   128
 43
0.0
 10
235.15492922
 20
195.5308780883
 10
235.0274274343
 20
195.5078185414
 10
234.90482068
 20
195.4395339702
 10
234.7918251746
 20
195.3286395286
 10
234.6927846068
 20
195.1794043992
 10
234.611506223
 20
194.9975580786
 10
234.5511118167
 20
194.7900966619
 10
234.5139185184
 20
194.5649848197
 10
234.5013642901
 20
194.3308726762
  0
LINE
  5
1F2
330
1F
100
AcDbEntity
  8
0
  6
Continuous
 62
     7
370
    30
100
AcDbLine
 10
235.15492922
 20
194.3308726762
 30
0.0
 11
238.359029054
 21
194.3308726762
 31
0.0
  0
ARC
  5
1F3
330
1F
100
AcDbEntity
  8
0
  6
Continuous
 62
     7
370
    30
100
AcDbCircle
 10
227.1676164663
 20
32.5913356823
 30
0.0
 40
1.077487673155165
100
AcDbArc
 50
172.5588367655
 51
259.801047553
  0
LINE
  5
1F4
330
1F
100
AcDbEntity
  8
0
  6
Continuous
 62
     7
370
    30
100
AcDbLine
 10
214.0717903369
 20
194.3308726762
 30
0.0
 11
214.2213607424
 21
194.3308726762
 31
0.0
  0
LINE
  5
1F5
330
1F
100
AcDbEntity
  8
0
  6
Continuous
 62
     7
370
    30
100
AcDbLine
 10
214.2213607424
 20
194.3308726762
 30
0.0
 11
214.2213607424
 21
195.5308780883
 31
0.0
  0
LINE
  5
1F6
330
1F
100
AcDbEntity
  8
0
  6
Continuous
 62
     7
370
    30
100
AcDbLine
 10
214.2213607424
 20
195.5308780883
 30
0.0
 11
224.7677246326
 21
195.5308780883
 31
0.0
  0
LINE
  5
1F7
330
1F
100
AcDbEntity
  8
0
  6
Continuous
 62
     7
370
    30
100
AcDbLine
 10
224.7677246326
 20
194.3308726762
 30
0.0
 11
224.7677246326
 21
195.5308780883
 31
0.0
  0
LINE
  5
1F8
330
1F
100
AcDbEntity
  8
0
  6
Continuous
 62
     7
370
    30
100
AcDbLine
 10
224.7677246326
 20
194.3308726762
 30
0.0
 11
226.0992029899
 21
194.3308726762
 31
0.0
  0
LINE
  5
1F9
330
1F
100
AcDbEntity
  8
0
  6
Continuous
 62
     7
370
    30
100
AcDbLine
 10
224.7677246326
 20
32.7308789705
 30
0.0
 11
226.0992029899
 21
32.7308789705
 31
0.0
  0
LINE
  5
1FA
330
1F
100
AcDbEntity
  8
0
  6
Continuous
 62
     7
370
    30
100
AcDbLine
 10
224.7677246326
 20
32.7308789705
 30
0.0
 11
224.7677246326
 21
31.5308735584
 31
0.0
  0
LINE
  5
1FB
330
1F
100
AcDbEntity
  8
0
  6
Continuous
 62
     7
370
    30
100
AcDbLine
 10
214.2213607424
 20
31.5308735584
 30
0.0
 11
224.7677246326
 21
31.5308735584
 31
0.0
  0
LINE
  5
1FC
330
1F
100
AcDbEntity
  8
0
  6
Continuous
 62
     7
370
    30
100
AcDbLine
 10
214.2213607424
 20
32.7308789705
 30
0.0
 11
214.2213607424
 21
31.5308735584
 31
0.0
  0
LINE
  5
1FD
330
1F
100
AcDbEntity
  8
0
  6
Continuous
 62
     7
370
    30
100
AcDbLine
 10
214.0717903369
 20
32.7308789705
 30
0.0
 11
214.2213607424
 21
32.7308789705
 31
0.0
  0
LINE
  5
1FE
330
1F
100
AcDbEntity
  8
0
  6
Continuous
 62
     7
370
    30
100
AcDbLine
 10
214.0101218813
 20
194.3308726762
 30
0.0
 11
214.0101218813
 21
32.7308789705
 31
0.0
  0
ARC
  5
1FF
330
1F
100
AcDbEntity
  8
0
  6
Continuous
 62
     7
370
    30
100
AcDbCircle
 10
227.1676164663
 20
194.4704159644
 30
0.0
 40
1.077487673155167
100
AcDbArc
 50
100.198952447
 51
187.4411632345
  0
LINE
  5
200
330
1F
100
AcDbEntity
  8
0
  6
Continuous
 62
     7
370
    30
100
AcDbLine
 10
225.6462449425
 20
32.7308789705
 30
0.0
 11
225.6462449425
 21
31.5308735584
 31
0.0
  0
LINE
  5
201
330
1F
100
AcDbEntity
  8
0
  6
Continuous
 62
     7
370
    30
100
AcDbLine
 10
225.6462449425
 20
194.3308726762
 30
0.0
 11
225.6462449425
 21
195.5308780883
 31
0.0
  0
LINE
  5
202
330
1F
100
AcDbEntity
  8
0
  6
Continuous
 62
     7
370
    30
100
AcDbLine
 10
235.15492922
 20
33.7308735465
 30
0.0
 11
236.0413992994
 21
33.7308735465
 31
0.0
  0
LINE
  5
203
330
1F
100
AcDbEntity
  8
0
  6
Continuous
 62
     7
370
    30
100
AcDbLine
 10
235.15492922
 20
193.3308781002
 30
0.0
 11
236.0413992994
 21
193.3308781002
 31
0.0
  0
LINE
  5
204
330
1F
100
AcDbEntity
  8
0
  6
Continuous
 62
     7
370
    30
100
AcDbLine
 10
238.359029054
 20
32.7308789705
 30
0.0
 11
238.8430187696
 21
32.7308789705
 31
0.0
  0
LINE
  5
205
330
1F
100
AcDbEntity
  8
0
  6
Continuous
 62
     7
370
    30
100
AcDbLine
 10
238.8430187696
 20
194.3308726762
 30
0.0
 11
238.359029054
 21
194.3308726762
 31
0.0
  0
ARC
  5
206
330
1F
100
AcDbEntity
  8
0
  6
Continuous
 62
     7
370
    30
100
AcDbCircle
 10
215.2101186627
 20
32.7308758234
 30
0.0
 40
1.199999999999986
100
AcDbArc
 50
180.0
 51
214.5162043353
  0
ARC
  5
207
330
1F
100
AcDbEntity
  8
0
  6
Continuous
 62
     7
370
    30
100
AcDbCircle
 10
215.2728989791
 20
32.7307933071
 30
0.0
 40
1.201108645208478
100
AcDbArc
 50
179.9959136513
 51
208.8989907527
  0
ARC
  5
208
330
1F
100
AcDbEntity
  8
0
  6
Continuous
 62
     7
370
    30
100
AcDbCircle
 10
215.2728989791
 20
194.3309583396
 30
0.0
 40
1.201108645208491
100
AcDbArc
 50
151.1010092473
 51
180.0040863487
  0
ARC
  5
209
330
1F
100
AcDbEntity
  8
0
  6
Continuous
 62
     7
370
    30
100
AcDbCircle
 10
215.2101186627
 20
194.3308758234
 30
0.0
 40
1.199999999999994
100
AcDbArc
 50
145.4837956647
 51
180.0
  0
LINE
  5
20A
330
1F
100
AcDbEntity
  8
0
  6
Continuous
 62
     7
370
    30
100
AcDbLine
 10
240.5101159804
 20
195.030877075
 30
0.0
 11
238.8430187696
 21
195.030877075
 31
0.0
  0
LINE
  5
20B
330
1F
100
AcDbEntity
  8
0
  6
Continuous
 62
     7
370
    30
100
AcDbLine
 10
226.2639874809
 20
195.030877075
 30
0.0
 11
225.6462449425
 21
195.030877075
 31
0.0
  0
LINE
  5
20C
330
1F
100
AcDbEntity
  8
0
  6
Continuous
 62
     7
370
    30
100
AcDbLine
 10
225.6462449425
 20
32.0308745717
 30
0.0
 11
226.2639874809
 21
32.0308745717
 31
0.0
  0
LINE
  5
20D
330
1F
100
AcDbEntity
  8
0
  6
Continuous
 62
     7
370
    30
100
AcDbLine
 10
238.8430187696
 20
32.0308745717
 30
0.0
 11
240.5101159804
 21
32.0308745717
 31
0.0
  0
LINE
  5
20E
330
1F
100
AcDbEntity
  8
0
  6
Continuous
 62
     7
370
    30
100
AcDbLine
 10
240.0101149672
 20
30.5308789824
 30
0.0
 11
235.7937420004
 21
30.5308789824
 31
0.0
  0
LINE
  5
20F
330
1F
100
AcDbEntity
  8
0
  6
Continuous
 62
     7
370
    30
100
AcDbLine
 10
240.0101149672
 20
31.5308735584
 30
0.0
 11
235.7937420004
 21
31.5308735584
 31
0.0
  0
LINE
  5
210
330
1F
100
AcDbEntity
  8
0
  6
Continuous
 62
     7
370
    30
100
AcDbLine
 10
243.0101210468
 20
31.5308735584
 30
0.0
 11
243.0101210468
 21
30.5308789824
 31
0.0
  0
LINE
  5
211
330
1F
100
AcDbEntity
  8
0
  6
Continuous
 62
     7
370
    30
100
AcDbLine
 10
243.0101210468
 20
30.5308789824
 30
0.0
 11
240.0101149672
 21
30.5308789824
 31
0.0
  0
LINE
  5
212
330
1F
100
AcDbEntity
  8
0
  6
Continuous
 62
     7
370
    30
100
AcDbLine
 10
240.0101149672
 20
31.5308735584
 30
0.0
 11
243.0101210468
 21
31.5308735584
 31
0.0
  0
LINE
  5
213
330
1F
100
AcDbEntity
  8
0
  6
Continuous
 62
     7
370
    30
100
AcDbLine
 10
235.7937420004
 20
30.5308789824
 30
0.0
 11
234.135429024
 21
30.5308789824
 31
0.0
  0
LINE
  5
214
330
1F
100
AcDbEntity
  8
0
  6
Continuous
 62
     7
370
    30
100
AcDbLine
 10
234.135429024
 20
31.5308735584
 30
0.0
 11
235.7937420004
 21
31.5308735584
 31
0.0
  0
LINE
  5
215
330
1F
100
AcDbEntity
  8
0
  6
Continuous
 62
     7
370
    30
100
AcDbLine
 10
234.135429024
 20
196.5308726643
 30
0.0
 11
235.7937420004
 21
196.5308726643
 31
0.0
  0
LINE
  5
216
330
1F
100
AcDbEntity
  8
0
  6
Continuous
 62
     7
370
    30
100
AcDbLine
 10
235.7937420004
 20
195.5308780883
 30
0.0
 11
234.135429024
 21
195.5308780883
 31
0.0
  0
LINE
  5
217
330
1F
100
AcDbEntity
  8
0
  6
Continuous
 62
     7
370
    30
100
AcDbLine
 10
235.7937420004
 20
196.5308726643
 30
0.0
 11
240.0101149672
 21
196.5308726643
 31
0.0
  0
LINE
  5
218
330
1F
100
AcDbEntity
  8
0
  6
Continuous
 62
     7
370
    30
100
AcDbLine
 10
235.7937420004
 20
195.5308780883
 30
0.0
 11
240.0101149672
 21
195.5308780883
 31
0.0
  0
LINE
  5
219
330
1F
100
AcDbEntity
  8
0
  6
Continuous
 62
     7
370
    30
100
AcDbLine
 10
240.0101149672
 20
196.5308726643
 30
0.0
 11
243.0101210468
 21
196.5308726643
 31
0.0
  0
LINE
  5
21A
330
1F
100
AcDbEntity
  8
0
  6
Continuous
 62
     7
370
    30
100
AcDbLine
 10
243.0101210468
 20
196.5308726643
 30
0.0
 11
243.0101210468
 21
195.5308780883
 31
0.0
  0
LINE
  5
21B
330
1F
100
AcDbEntity
  8
0
  6
Continuous
 62
     7
370
    30
100
AcDbLine
 10
243.0101210468
 20
195.5308780883
 30
0.0
 11
240.0101149672
 21
195.5308780883
 31
0.0
  0
LINE
  5
21C
330
1F
100
AcDbEntity
  8
0
  6
Continuous
 62
     7
370
    30
100
AcDbLine
 10
214.0101218813
 20
31.5308735584
 30
0.0
 11
214.0101218813
 21
30.5308789824
 31
0.0
  0
LINE
  5
21D
330
1F
100
AcDbEntity
  8
0
  6
Continuous
 62
     7
370
    30
100
AcDbLine
 10
234.135429024
 20
30.5308789824
 30
0.0
 11
214.0101218813
 21
30.5308789824
 31
0.0
  0
LINE
  5
21E
330
1F
100
AcDbEntity
  8
0
  6
Continuous
 62
     7
370
    30
100
AcDbLine
 10
234.135429024
 20
31.5308735584
 30
0.0
 11
214.0101218813
 21
31.5308735584
 31
0.0
  0
LINE
  5
21F
330
1F
100
AcDbEntity
  8
0
  6
Continuous
 62
     7
370
    30
100
AcDbLine
 10
214.0101218813
 20
195.5308780883
 30
0.0
 11
214.0101218813
 21
196.5308726643
 31
0.0
  0
LINE
  5
220
330
1F
100
AcDbEntity
  8
0
  6
Continuous
 62
     7
370
    30
100
AcDbLine
 10
214.0101218813
 20
196.5308726643
 30
0.0
 11
234.135429024
 21
196.5308726643
 31
0.0
  0
LINE
  5
221
330
1F
100
AcDbEntity
  8
0
  6
Continuous
 62
     7
370
    30
100
AcDbLine
 10
214.0101218813
 20
195.5308780883
 30
0.0
 11
234.135429024
 21
195.5308780883
 31
0.0
  0
LINE
  5
222
330
1F
100
AcDbEntity
  8
0
  6
Continuous
 62
     7
370
    30
100
AcDbLine
 10
272.0101202124
 20
34.2808754061
 30
0.0
 11
278.0101193332
 21
34.2808754061
 31
0.0
  0
LINE
  5
223
330
1F
100
AcDbEntity
  8
0
  6
Continuous
 62
     7
370
    30
100
AcDbLine
 10
278.0101193332
 20
34.2808754061
 30
0.0
 11
278.0101193332
 21
33.2808733796
 31
0.0
  0
LINE
  5
224
330
1F
100
AcDbEntity
  8
0
  6
Continuous
 62
     7
370
    30
100
AcDbLine
 10
278.0101193332
 20
33.2808733796
 30
0.0
 11
272.0101202124
 21
33.2808733796
 31
0.0
  0
LINE
  5
225
330
1F
100
AcDbEntity
  8
0
  6
Continuous
 62
     7
370
    30
100
AcDbLine
 10
246.0101196759
 20
33.2808733796
 30
0.0
 11
246.0101196759
 21
34.2808754061
 31
0.0
  0
LINE
  5
226
330
1F
100
AcDbEntity
  8
0
  6
Continuous
 62
     7
370
    30
100
AcDbLine
 10
246.0101196759
 20
34.2808754061
 30
0.0
 11
252.0101169341
 21
34.2808754061
 31
0.0
  0
LINE
  5
227
330
1F
100
AcDbEntity
  8
0
  6
Continuous
 62
     7
370
    30
100
AcDbLine
 10
252.0101169341
 20
33.2808733796
 30
0.0
 11
246.0101196759
 21
33.2808733796
 31
0.0
  0
LINE
  5
228
330
1F
100
AcDbEntity
  8
0
  6
Continuous
 62
     7
370
    30
100
AcDbLine
 10
272.0101202124
 20
33.2808733796
 30
0.0
 11
252.0101169341
 21
33.2808733796
 31
0.0
  0
LINE
  5
229
330
1F
100
AcDbEntity
  8
0
  6
Continuous
 62
     7
370
    30
100
AcDbLine
 10
272.0101202124
 20
34.2808754061
 30
0.0
 11
252.0101169341
 21
34.2808754061
 31
0.0
  0
LINE
  5
22A
330
1F
100
AcDbEntity
  8
0
  6
Continuous
 62
     7
370
    30
100
AcDbLine
 10
252.0101169341
 20
192.7808762406
 30
0.0
 11
246.0101196759
 21
192.7808762406
 31
0.0
  0
LINE
  5
22B
330
1F
100
AcDbEntity
  8
0
  6
Continuous
 62
     7
370
    30
100
AcDbLine
 10
246.0101196759
 20
192.7808762406
 30
0.0
 11
246.0101196759
 21
193.7808782671
 31
0.0
  0
LINE
  5
22C
330
1F
100
AcDbEntity
  8
0
  6
Continuous
 62
     7
370
    30
100
AcDbLine
 10
246.0101196759
 20
193.7808782671
 30
0.0
 11
252.0101169341
 21
193.7808782671
 31
0.0
  0
LINE
  5
22D
330
1F
100
AcDbEntity
  8
0
  6
Continuous
 62
     7
370
    30
100
AcDbLine
 10
252.0101169341
 20
193.7808782671
 30
0.0
 11
272.0101202124
 21
193.7808782671
 31
0.0
  0
LINE
  5
22E
330
1F
100
AcDbEntity
  8
0
  6
Continuous
 62
     7
370
    30
100
AcDbLine
 10
252.0101169341
 20
192.7808762406
 30
0.0
 11
272.0101202124
 21
192.7808762406
 31
0.0
  0
LINE
  5
22F
330
1F
100
AcDbEntity
  8
0
  6
Continuous
 62
     7
370
    30
100
AcDbLine
 10
278.0101193332
 20
193.7808782671
 30
0.0
 11
278.0101193332
 21
192.7808762406
 31
0.0
  0
LINE
  5
230
330
1F
100
AcDbEntity
  8
0
  6
Continuous
 62
     7
370
    30
100
AcDbLine
 10
272.0101202124
 20
193.7808782671
 30
0.0
 11
278.0101193332
 21
193.7808782671
 31
0.0
  0
LINE
  5
231
330
1F
100
AcDbEntity
  8
0
  6
Continuous
 62
     7
370
    30
100
AcDbLine
 10
278.0101193332
 20
192.7808762406
 30
0.0
 11
272.0101202124
 21
192.7808762406
 31
0.0
  0
LINE
  5
232
330
1F
100
AcDbEntity
  8
0
  6
Continuous
 62
     7
370
    30
100
AcDbLine
 10
265.1601197415
 20
31.280876777
 30
0.0
 11
252.8601201468
 21
31.280876777
 31
0.0
  0
LINE
  5
233
330
1F
100
AcDbEntity
  8
0
  6
Continuous
 62
     7
370
    30
100
AcDbLine
 10
259.0101199442
 20
195.7808748697
 30
0.0
 11
265.1601197415
 21
195.7808748697
 31
0.0
  0
LINE
  5
234
330
1F
100
AcDbEntity
  8
0
  6
Continuous
 62
     7
370
    30
100
AcDbLine
 10
252.8601201468
 20
195.7808748697
 30
0.0
 11
259.0101199442
 21
195.7808748697
 31
0.0
  0
CIRCLE
  5
235
330
1F
100
AcDbEntity
  8
0
  6
Continuous
 62
     7
370
    30
100
AcDbCircle
 10
272.0101186627
 20
54.2808758234
 30
0.0
 40
1.499999999999943
  0
CIRCLE
  5
236
330
1F
100
AcDbEntity
  8
0
  6
Continuous
 62
     7
370
    30
100
AcDbCircle
 10
272.0101186627
 20
68.2808758234
 30
0.0
 40
1.5
  0
CIRCLE
  5
237
330
1F
100
AcDbEntity
  8
0
  6
Continuous
 62
     7
370
    30
100
AcDbCircle
 10
246.0101186627
 20
158.7808758234
 30
0.0
 40
1.5
  0
CIRCLE
  5
238
330
1F
100
AcDbEntity
  8
0
  6
Continuous
 62
     7
370
    30
100
AcDbCircle
 10
246.0101186627
 20
172.7808758234
 30
0.0
 40
1.5
  0
LINE
  5
239
330
1F
100
AcDbEntity
  8
0
  6
Continuous
 62
     7
370
    30
100
AcDbLine
 10
278.0101193332
 20
34.2808754061
 30
0.0
 11
278.0101193332
 21
192.7808762406
 31
0.0
  0
LINE
  5
23A
330
1F
100
AcDbEntity
  8
0
  6
Continuous
 62
     7
370
    30
100
AcDbLine
 10
265.5101182156
 20
34.2808754061
 30
0.0
 11
265.5101182156
 21
35.780878446
 31
0.0
  0
LINE
  5
23B
330
1F
100
AcDbEntity
  8
0
  6
Continuous
 62
     7
370
    30
100
AcDbLine
 10
265.5101182156
 20
35.780878446
 30
0.0
 11
265.0101172023
 21
35.780878446
 31
0.0
  0
LINE
  5
23C
330
1F
100
AcDbEntity
  8
0
  6
Continuous
 62
     7
370
    30
100
AcDbLine
 10
253.0101189607
 20
35.780878446
 30
0.0
 11
252.5101179474
 21
35.780878446
 31
0.0
  0
LINE
  5
23D
330
1F
100
AcDbEntity
  8
0
  6
Continuous
 62
     7
370
    30
100
AcDbLine
 10
252.5101179474
 20
35.780878446
 30
0.0
 11
252.5101179474
 21
34.2808754061
 31
0.0
  0
LINE
  5
23E
330
1F
100
AcDbEntity
  8
0
  6
Continuous
 62
     7
370
    30
100
AcDbLine
 10
246.0101196759
 20
35.2808774327
 30
0.0
 11
246.0101196759
 21
34.2808754061
 31
0.0
  0
ARC
  5
23F
330
1F
100
AcDbEntity
  8
0
  6
Continuous
 62
     7
370
    30
100
AcDbCircle
 10
244.5101186627
 20
35.2808758234
 30
0.0
 40
1.5
100
AcDbArc
 50
0.0
 51
180.0
  0
LINE
  5
240
330
1F
100
AcDbEntity
  8
0
  6
Continuous
 62
     7
370
    30
100
AcDbLine
 10
243.0101210468
 20
31.5308735584
 30
0.0
 11
243.0101210468
 21
35.2808774327
 31
0.0
  0
LINE
  5
241
330
1F
100
AcDbEntity
  8
0
  6
Continuous
 62
     7
370
    30
100
AcDbLine
 10
243.0101210468
 20
191.780874214
 30
0.0
 11
243.0101210468
 21
195.5308780883
 31
0.0
  0
ARC
  5
242
330
1F
100
AcDbEntity
  8
0
  6
Continuous
 62
     7
370
    30
100
AcDbCircle
 10
244.5101186627
 20
191.7808758234
 30
0.0
 40
1.500000000000028
100
AcDbArc
 50
180.0
 51
0.0
  0
LINE
  5
243
330
1F
100
AcDbEntity
  8
0
  6
Continuous
 62
     7
370
    30
100
AcDbLine
 10
246.0101196759
 20
192.7808762406
 30
0.0
 11
246.0101196759
 21
191.780874214
 31
0.0
  0
LINE
  5
244
330
1F
100
AcDbEntity
  8
0
  6
Continuous
 62
     7
370
    30
100
AcDbLine
 10
252.5101179474
 20
192.7808762406
 30
0.0
 11
252.5101179474
 21
191.2808732007
 31
0.0
  0
LINE
  5
245
330
1F
100
AcDbEntity
  8
0
  6
Continuous
 62
     7
370
    30
100
AcDbLine
 10
252.5101179474
 20
191.2808732007
 30
0.0
 11
253.0101189607
 21
191.2808732007
 31
0.0
  0
LINE
  5
246
330
1F
100
AcDbEntity
  8
0
  6
Continuous
 62
     7
370
    30
100
AcDbLine
 10
265.0101172023
 20
191.2808732007
 30
0.0
 11
265.5101182156
 21
191.2808732007
 31
0.0
  0
LINE
  5
247
330
1F
100
AcDbEntity
  8
0
  6
Continuous
 62
     7
370
    30
100
AcDbLine
 10
265.5101182156
 20
191.2808732007
 30
0.0
 11
265.5101182156
 21
192.7808762406
 31
0.0
  0
LINE
  5
248
330
1F
100
AcDbEntity
  8
0
  6
Continuous
 62
     7
370
    30
100
AcDbLine
 10
229.0101150268
 20
22.8808761452
 30
0.0
 11
232.0706347221
 21
22.8808761452
 31
0.0
  0
LINE
  5
249
330
1F
100
AcDbEntity
  8
0
  6
Continuous
 62
     7
370
    30
100
AcDbLine
 10
243.9496020072
 20
22.8808761452
 30
0.0
 11
254.1645976
 21
22.8808761452
 31
0.0
  0
LINE
  5
24A
330
1F
100
AcDbEntity
  8
0
  6
Continuous
 62
     7
370
    30
100
AcDbLine
 10
271.0101181858
 20
22.8808761452
 30
0.0
 11
387.0101222985
 21
22.8808761452
 31
0.0
  0
ARC
  5
24B
330
1F
100
AcDbEntity
  8
0
  6
Continuous
 62
     7
370
    30
100
AcDbCircle
 10
387.0101186627
 20
34.5308758234
 30
0.0
 40
11.65
100
AcDbArc
 50
270.0
 51
0.0
  0
ARC
  5
24C
330
1F
100
AcDbEntity
  8
0
  6
Continuous
 62
     7
370
    30
100
AcDbCircle
 10
229.0101186627
 20
34.5308758234
 30
0.0
 40
11.65
100
AcDbArc
 50
217.8758446664
 51
270.0
  0
LINE
  5
24D
330
1F
100
AcDbEntity
  8
0
  6
Continuous
 62
     7
370
    30
100
AcDbLine
 10
398.6601183408
 20
34.5308721875
 30
0.0
 11
398.6601183408
 21
192.5308794592
 31
0.0
  0
ARC
  5
24E
330
1F
100
AcDbEntity
  8
0
  6
Continuous
 62
     7
370
    30
100
AcDbCircle
 10
229.0101186627
 20
192.5308758234
 30
0.0
 40
11.64999999999998
100
AcDbArc
 50
90.0
 51
142.3251049245
  0
ARC
  5
24F
330
1F
100
AcDbEntity
  8
0
  6
Continuous
 62
     7
370
    30
100
AcDbCircle
 10
387.0101186627
 20
192.5308758234
 30
0.0
 40
11.65000000000001
100
AcDbArc
 50
0.0
 51
90.0
  0
LINE
  5
250
330
1F
100
AcDbEntity
  8
0
  6
Continuous
 62
     7
370
    30
100
AcDbLine
 10
387.0101222985
 20
204.1808755015
 30
0.0
 11
271.0101181858
 21
204.1808755015
 31
0.0
  0
LINE
  5
251
330
1F
100
AcDbEntity
  8
0
  6
Continuous
 62
     7
370
    30
100
AcDbLine
 10
254.1645976
 20
204.1808755015
 30
0.0
 11
243.9496020072
 21
204.1808755015
 31
0.0
  0
LINE
  5
252
330
1F
100
AcDbEntity
  8
0
  6
Continuous
 62
     7
370
    30
100
AcDbLine
 10
232.0706347221
 20
204.1808755015
 30
0.0
 11
229.0101150268
 21
204.1808755015
 31
0.0
  0
LINE
  5
253
330
1F
100
AcDbEntity
  8
0
  6
Continuous
 62
     7
370
    30
100
AcDbLine
 10
263.0101168745
 20
203.0308783864
 30
0.0
 11
271.0101181858
 21
203.0308783864
 31
0.0
  0
LINE
  5
254
330
1F
100
AcDbEntity
  8
0
  6
Continuous
 62
     7
370
    30
100
AcDbLine
 10
270.5101171725
 20
202.5308773731
 30
0.0
 11
263.5101178878
 21
202.5308773731
 31
0.0
  0
LINE
  5
255
330
1F
100
AcDbEntity
  8
0
  6
Continuous
 62
     7
370
    30
100
AcDbLine
 10
264.1101168686
 20
211.8308783387
 30
0.0
 11
269.9101181918
 21
211.8308783387
 31
0.0
  0
LINE
  5
256
330
1F
100
AcDbEntity
  8
0
  6
Continuous
 62
     7
370
    30
100
AcDbLine
 10
263.0330236846
 20
24.0308732604
 30
0.0
 11
263.0101168745
 21
24.0308732604
 31
0.0
  0
LINE
  5
257
330
1F
100
AcDbEntity
  8
0
  6
Continuous
 62
     7
370
    30
100
AcDbLine
 10
271.0101181858
 20
24.0308732604
 30
0.0
 11
263.0330236846
 21
24.0308732604
 31
0.0
  0
LINE
  5
258
330
1F
100
AcDbEntity
  8
0
  6
Continuous
 62
     7
370
    30
100
AcDbLine
 10
263.5101178878
 20
24.5308742736
 30
0.0
 11
270.5101171725
 21
24.5308742736
 31
0.0
  0
LINE
  5
259
330
1F
100
AcDbEntity
  8
0
  6
Continuous
 62
     7
370
    30
100
AcDbLine
 10
264.1267242127
 20
15.230873308
 30
0.0
 11
264.1101168686
 21
15.230873308
 31
0.0
  0
LINE
  5
25A
330
1F
100
AcDbEntity
  8
0
  6
Continuous
 62
     7
370
    30
100
AcDbLine
 10
269.9101181918
 20
15.230873308
 30
0.0
 11
264.1267242127
 21
15.230873308
 31
0.0
  0
LINE
  5
25B
330
1F
100
AcDbEntity
  8
0
  6
Continuous
 62
     7
370
    30
100
AcDbLine
 10
308.0117395506
 20
16.5308729623
 30
0.0
 11
308.0101186627
 21
16.5308729623
 31
0.0
  0
LINE
  5
25C
330
1F
100
AcDbEntity
  8
0
  6
Continuous
 62
     7
370
    30
100
AcDbLine
 10
198.0101192587
 20
6.5308750485
 30
0.0
 11
198.0101192587
 21
220.5308765982
 31
0.0
  0
ARC
  5
25D
330
1F
100
AcDbEntity
  8
0
  6
Continuous
 62
     7
370
    30
100
AcDbCircle
 10
201.0101186627
 20
220.5308758234
 30
0.0
 40
3.0
100
AcDbArc
 50
90.0
 51
180.0
  0
LINE
  5
25E
330
1F
100
AcDbEntity
  8
0
  6
Continuous
 62
     7
370
    30
100
AcDbLine
 10
201.0101178878
 20
223.5308752273
 30
0.0
 11
415.0101194375
 21
223.5308752273
 31
0.0
  0
ARC
  5
25F
330
1F
100
AcDbEntity
  8
0
  6
Continuous
 62
     7
370
    30
100
AcDbCircle
 10
415.0101186627
 20
220.5308758234
 30
0.0
 40
3.0
100
AcDbArc
 50
0.0
 51
90.0
  0
LINE
  5
260
330
1F
100
AcDbEntity
  8
0
  6
Continuous
 62
     7
370
    30
100
AcDbLine
 10
418.0101180666
 20
220.5308765982
 30
0.0
 11
418.0101180666
 21
6.5308750485
 31
0.0
  0
LINE
  5
261
330
1F
100
AcDbEntity
  8
0
  6
Continuous
 62
     7
370
    30
100
AcDbLine
 10
415.0101194375
 20
3.5308764194
 30
0.0
 11
201.0101178878
 21
3.5308764194
 31
0.0
  0
ARC
  5
262
330
1F
100
AcDbEntity
  8
0
  6
Continuous
 62
     7
370
    30
100
AcDbCircle
 10
201.0101186627
 20
6.5308758234
 30
0.0
 40
3.000000000000003
100
AcDbArc
 50
180.0
 51
270.0
  0
ARC
  5
263
330
1F
100
AcDbEntity
  8
0
  6
Continuous
 62
     7
370
    30
100
AcDbCircle
 10
415.0101186627
 20
6.5308758234
 30
0.0
 40
3.000000000000003
100
AcDbArc
 50
270.0
 51
0.0
  0
ARC
  5
264
330
1F
100
AcDbEntity
  8
0
  6
Continuous
 62
     7
370
    30
100
AcDbCircle
 10
228.0101186627
 20
193.5308758234
 30
0.0
 40
18.00000000000003
100
AcDbArc
 50
90.0
 51
180.0
  0
LINE
  5
265
330
1F
100
AcDbEntity
  8
0
  6
Continuous
 62
     7
370
    30
100
AcDbLine
 10
308.0101186627
 20
211.5308732604
 30
0.0
 11
228.0101204508
 21
211.5308732604
 31
0.0
  0
LINE
  5
266
330
1F
100
AcDbEntity
  8
0
  6
Continuous
 62
     7
370
    30
100
AcDbLine
 10
308.0101186627
 20
210.5308786844
 30
0.0
 11
308.0101186627
 21
211.5308732604
 31
0.0
  0
LINE
  5
267
330
1F
100
AcDbEntity
  8
0
  6
Continuous
 62
     7
370
    30
100
AcDbLine
 10
228.0101204508
 20
210.5308786844
 30
0.0
 11
308.0101186627
 21
210.5308786844
 31
0.0
  0
ARC
  5
268
330
1F
100
AcDbEntity
  8
0
  6
Continuous
 62
     7
370
    30
100
AcDbCircle
 10
228.0101186627
 20
193.5308758234
 30
0.0
 40
17.00000000000003
100
AcDbArc
 50
90.0
 51
180.0
  0
LINE
  5
269
330
1F
100
AcDbEntity
  8
0
  6
Continuous
 62
     7
370
    30
100
AcDbLine
 10
211.0101158016
 20
33.5308776115
 30
0.0
 11
211.0101158016
 21
193.5308740352
 31
0.0
  0
LINE
  5
26A
330
1F
100
AcDbEntity
  8
0
  6
Continuous
 62
     7
370
    30
100
AcDbLine
 10
308.0101186627
 20
15.5308783864
 30
0.0
 11
308.0101186627
 21
16.5308729623
 31
0.0
  0
LINE
  5
26B
330
1F
100
AcDbEntity
  8
0
  6
Continuous
 62
     7
370
    30
100
AcDbLine
 10
228.0101204508
 20
15.5308783864
 30
0.0
 11
308.0101186627
 21
15.5308783864
 31
0.0
  0
LINE
  5
26C
330
1F
100
AcDbEntity
  8
0
  6
Continuous
 62
     7
370
    30
100
AcDbLine
 10
210.0101212257
 20
193.5308740352
 30
0.0
 11
210.0101212257
 21
33.5308776115
 31
0.0
  0
LINE
  5
26D
330
1F
100
AcDbEntity
  8
0
  6
Continuous
 62
     7
370
    30
100
AcDbLine
 10
308.0101186627
 20
16.5308729623
 30
0.0
 11
228.0101204508
 21
16.5308729623
 31
0.0
  0
ARC
  5
26E
330
1F
100
AcDbEntity
  8
0
  6
Continuous
 62
     7
370
    30
100
AcDbCircle
 10
228.0101186627
 20
33.5308758234
 30
0.0
 40
18.00000000000003
100
AcDbArc
 50
180.0
 51
270.0
  0
ARC
  5
26F
330
1F
100
AcDbEntity
  8
0
  6
Continuous
 62
     7
370
    30
100
AcDbCircle
 10
228.0101186627
 20
33.5308758234
 30
0.0
 40
17.00000000000003
100
AcDbArc
 50
180.0
 51
270.0
  0
LINE
  5
270
330
1F
100
AcDbEntity
  8
0
  6
Continuous
 62
     7
370
    30
100
AcDbLine
 10
263.0101168745
 20
20.530873618
 30
0.0
 11
253.7601204806
 21
20.530873618
 31
0.0
  0
LINE
  5
271
330
1F
100
AcDbEntity
  8
0
  6
Continuous
 62
     7
370
    30
100
AcDbLine
 10
263.0101168745
 20
206.5308780287
 30
0.0
 11
253.7601204806
 21
206.5308780287
 31
0.0
  0
ARC
  5
272
330
1F
100
AcDbEntity
  8
0
  6
Continuous
 62
     7
370
    30
100
AcDbCircle
 10
238.0101186627
 20
22.0308758234
 30
0.0
 40
6.000000000000004
100
AcDbArc
 50
90.0
 51
180.0
  0
ARC
  5
273
330
1F
100
AcDbEntity
  8
0
  6
Continuous
 62
     7
370
    30
100
AcDbCircle
 10
238.0101186627
 20
22.0308758234
 30
0.0
 40
6.000000000000004
100
AcDbArc
 50
0.0
 51
90.0
  0
LINE
  5
274
330
1F
100
AcDbEntity
  8
0
  6
Continuous
 62
     7
370
    30
100
AcDbLine
 10
244.0101156228
 20
22.0308766578
 30
0.0
 11
244.0101156228
 21
16.5308729623
 31
0.0
  0
LINE
  5
275
330
1F
100
AcDbEntity
  8
0
  6
Continuous
 62
     7
370
    30
100
AcDbLine
 10
232.0101211064
 20
22.0308766578
 30
0.0
 11
232.0101211064
 21
16.5308729623
 31
0.0
  0
LINE
  5
276
330
1F
100
AcDbEntity
  8
0
  6
Continuous
 62
     7
370
    30
100
AcDbLine
 10
232.0101211064
 20
205.0308749889
 30
0.0
 11
232.0101211064
 21
210.5308786844
 31
0.0
  0
LINE
  5
277
330
1F
100
AcDbEntity
  8
0
  6
Continuous
 62
     7
370
    30
100
AcDbLine
 10
244.0101156228
 20
205.0308749889
 30
0.0
 11
244.0101156228
 21
210.5308786844
 31
0.0
  0
ARC
  5
278
330
1F
100
AcDbEntity
  8
0
  6
Continuous
 62
     7
370
    30
100
AcDbCircle
 10
238.0101186627
 20
205.0308758234
 30
0.0
 40
6.0
100
AcDbArc
 50
270.0
 51
0.0
  0
ARC
  5
279
330
1F
100
AcDbEntity
  8
0
  6
Continuous
 62
     7
370
    30
100
AcDbCircle
 10
238.0101186627
 20
205.0308758234
 30
0.0
 40
6.0
100
AcDbArc
 50
180.0
 51
270.0
  0
LINE
  5
27A
330
1F
100
AcDbEntity
  8
0
  6
Continuous
 62
     7
370
    30
100
AcDbLine
 10
405.0101215237
 20
193.5308740352
 30
0.0
 11
405.0101215237
 21
33.5308776115
 31
0.0
  0
ARC
  5
27B
330
1F
100
AcDbEntity
  8
0
  6
Continuous
 62
     7
370
    30
100
AcDbCircle
 10
388.0101186627
 20
193.5308758234
 30
0.0
 40
17.00000000000003
100
AcDbArc
 50
0.0
 51
90.0
  0
LINE
  5
27C
330
1F
100
AcDbEntity
  8
0
  6
Continuous
 62
     7
370
    30
100
AcDbLine
 10
307.9410812918
 20
210.5308786844
 30
0.0
 11
388.0101168745
 21
210.5308786844
 31
0.0
  0
LINE
  5
27D
330
1F
100
AcDbEntity
  8
0
  6
Continuous
 62
     7
370
    30
100
AcDbLine
 10
307.9407170792
 20
211.5308732604
 30
0.0
 11
307.9410812918
 21
210.5308786844
 31
0.0
  0
LINE
  5
27E
330
1F
100
AcDbEntity
  8
0
  6
Continuous
 62
     7
370
    30
100
AcDbLine
 10
388.0101168745
 20
211.5308732604
 30
0.0
 11
307.9407170792
 21
211.5308732604
 31
0.0
  0
ARC
  5
27F
330
1F
100
AcDbEntity
  8
0
  6
Continuous
 62
     7
370
    30
100
AcDbCircle
 10
388.0101186627
 20
193.5308758234
 30
0.0
 40
18.00000000000003
100
AcDbArc
 50
0.0
 51
90.0
  0
LINE
  5
280
330
1F
100
AcDbEntity
  8
0
  6
Continuous
 62
     7
370
    30
100
AcDbLine
 10
406.0101160997
 20
33.5308776115
 30
0.0
 11
406.0101160997
 21
193.5308740352
 31
0.0
  0
ARC
  5
281
330
1F
100
AcDbEntity
  8
0
  6
Continuous
 62
     7
370
    30
100
AcDbCircle
 10
388.0101186627
 20
33.5308758234
 30
0.0
 40
18.0
100
AcDbArc
 50
270.0
 51
0.0
  0
LINE
  5
282
330
1F
100
AcDbEntity
  8
0
  6
Continuous
 62
     7
370
    30
100
AcDbLine
 10
308.0121037683
 20
15.5308783864
 30
0.0
 11
388.0101168745
 21
15.5308783864
 31
0.0
  0
LINE
  5
283
330
1F
100
AcDbEntity
  8
0
  6
Continuous
 62
     7
370
    30
100
AcDbLine
 10
308.0117395506
 20
16.5308729623
 30
0.0
 11
308.0121037683
 21
15.5308783864
 31
0.0
  0
LINE
  5
284
330
1F
100
AcDbEntity
  8
0
  6
Continuous
 62
     7
370
    30
100
AcDbLine
 10
388.0101168745
 20
16.5308729623
 30
0.0
 11
308.0117395506
 21
16.5308729623
 31
0.0
  0
ARC
  5
285
330
1F
100
AcDbEntity
  8
0
  6
Continuous
 62
     7
370
    30
100
AcDbCircle
 10
388.0101186627
 20
33.5308758234
 30
0.0
 40
17.0
100
AcDbArc
 50
270.0
 51
0.0
  0
LINE
  5
286
330
1F
100
AcDbEntity
  8
0
  6
Continuous
 62
     7
370
    30
100
AcDbLine
 10
175.7920783619
 20
247.8502475606
 30
0.0
 11
175.8920800546
 21
247.8502475606
 31
0.0
  0
LINE
  5
287
330
1F
100
AcDbEntity
  8
0
  6
Continuous
 62
     7
370
    30
100
AcDbLine
 10
175.8920800546
 20
254.0502482043
 30
0.0
 11
175.7920783619
 21
254.0502482043
 31
0.0
  0
ARC
  5
288
330
1F
100
AcDbEntity
  8
0
  6
Continuous
 62
     7
370
    30
100
AcDbCircle
 10
175.8920809249
 20
253.8502473877
 30
0.0
 40
0.2000000000000171
100
AcDbArc
 50
0.0
 51
90.0
  0
ARC
  5
289
330
1F
100
AcDbEntity
  8
0
  6
Continuous
 62
     7
370
    30
100
AcDbCircle
 10
175.8920809249
 20
248.0502473877
 30
0.0
 40
0.2000000000000171
100
AcDbArc
 50
270.0
 51
0.0
  0
LINE
  5
28A
330
1F
100
AcDbEntity
  8
0
  6
Continuous
 62
     7
370
    30
100
AcDbLine
 10
-20.2079165121
 20
254.0502482043
 30
0.0
 11
-20.3079182049
 21
254.0502482043
 31
0.0
  0
LINE
  5
28B
330
1F
100
AcDbEntity
  8
0
  6
Continuous
 62
     7
370
    30
100
AcDbLine
 10
-20.3079182049
 20
247.8502475606
 30
0.0
 11
-20.2079165121
 21
247.8502475606
 31
0.0
  0
ARC
  5
28C
330
1F
100
AcDbEntity
  8
0
  6
Continuous
 62
     7
370
    30
100
AcDbCircle
 10
-20.3079190751
 20
248.0502473877
 30
0.0
 40
0.2000000000000171
100
AcDbArc
 50
180.0
 51
270.0
  0
ARC
  5
28D
330
1F
100
AcDbEntity
  8
0
  6
Continuous
 62
     7
370
    30
100
AcDbCircle
 10
-20.3079190751
 20
253.8502473877
 30
0.0
 40
0.2000000000000064
100
AcDbArc
 50
90.0
 51
180.0
  0
LINE
  5
28E
330
1F
100
AcDbEntity
  8
0
  6
Continuous
 62
     7
370
    30
100
AcDbLine
 10
176.0920834402
 20
253.8502466814
 30
0.0
 11
176.0920834402
 21
248.0502472209
 31
0.0
  0
LINE
  5
28F
330
1F
100
AcDbEntity
  8
0
  6
Continuous
 62
     7
370
    30
100
AcDbLine
 10
-20.5079215905
 20
250.6403465705
 30
0.0
 11
-20.5079215905
 21
253.8502466814
 31
0.0
  0
LINE
  5
290
330
1F
100
AcDbEntity
  8
0
  6
Continuous
 62
     7
370
    30
100
AcDbLine
 10
-20.5079215905
 20
248.0502472209
 30
0.0
 11
-20.5079215905
 21
250.6403465705
 31
0.0
  0
LINE
  5
291
330
1F
100
AcDbEntity
  8
0
  6
Continuous
 62
     7
370
    30
100
AcDbLine
 10
-29.20791985
 20
279.7502473877
 30
0.0
 11
184.7920816997
 21
279.7502473877
 31
0.0
  0
LINE
  5
292
330
1F
100
AcDbEntity
  8
0
  6
Continuous
 62
     7
370
    30
100
AcDbLine
 10
-29.20791985
 20
280.9502474447
 30
0.0
 11
184.7920816997
 21
280.9502474447
 31
0.0
  0
LINE
  5
293
330
1F
100
AcDbEntity
  8
0
  6
Continuous
 62
     7
370
    30
100
AcDbLine
 10
-32.2079184791
 20
279.7502473877
 30
0.0
 11
-32.2079184791
 21
280.9502474447
 31
0.0
  0
LINE
  5
294
330
1F
100
AcDbEntity
  8
0
  6
Continuous
 62
     7
370
    30
100
AcDbLine
 10
-29.20791985
 20
279.7502473877
 30
0.0
 11
-32.2079184791
 21
279.7502473877
 31
0.0
  0
LINE
  5
295
330
1F
100
AcDbEntity
  8
0
  6
Continuous
 62
     7
370
    30
100
AcDbLine
 10
-32.2079184791
 20
280.9502474447
 30
0.0
 11
-29.20791985
 21
280.9502474447
 31
0.0
  0
LINE
  5
296
330
1F
100
AcDbEntity
  8
0
  6
Continuous
 62
     7
370
    30
100
AcDbLine
 10
187.7920803288
 20
280.9502474447
 30
0.0
 11
187.7920803288
 21
279.7502473877
 31
0.0
  0
LINE
  5
297
330
1F
100
AcDbEntity
  8
0
  6
Continuous
 62
     7
370
    30
100
AcDbLine
 10
187.7920803288
 20
279.7502473877
 30
0.0
 11
184.7920816997
 21
279.7502473877
 31
0.0
  0
LINE
  5
298
330
1F
100
AcDbEntity
  8
0
  6
Continuous
 62
     7
370
    30
100
AcDbLine
 10
184.7920816997
 20
280.9502474447
 30
0.0
 11
187.7920803288
 21
280.9502474447
 31
0.0
  0
LINE
  5
299
330
1F
100
AcDbEntity
  8
0
  6
Continuous
 62
     7
370
    30
100
AcDbLine
 10
157.7920791367
 20
230.9502483295
 30
0.0
 11
-2.207917287
 21
230.9502483295
 31
0.0
  0
LINE
  5
29A
330
1F
100
AcDbEntity
  8
0
  6
Continuous
 62
     7
370
    30
100
AcDbLine
 10
175.7920783619
 20
279.7502473877
 30
0.0
 11
175.7920783619
 21
230.9502483295
 31
0.0
  0
LINE
  5
29B
330
1F
100
AcDbEntity
  8
0
  6
Continuous
 62
     7
370
    30
100
AcDbLine
 10
175.7920783619
 20
230.9502483295
 30
0.0
 11
157.7920791367
 21
230.9502483295
 31
0.0
  0
LINE
  5
29C
330
1F
100
AcDbEntity
  8
0
  6
Continuous
 62
     7
370
    30
100
AcDbLine
 10
-20.2079165121
 20
230.9502483295
 30
0.0
 11
-20.2079165121
 21
279.7502473877
 31
0.0
  0
LINE
  5
29D
330
1F
100
AcDbEntity
  8
0
  6
Continuous
 62
     7
370
    30
100
AcDbLine
 10
-2.207917287
 20
230.9502483295
 30
0.0
 11
-20.2079165121
 21
230.9502483295
 31
0.0
  0
LINE
  5
29E
330
1F
100
AcDbEntity
  8
0
  6
Continuous
 62
     7
370
    30
100
AcDbLine
 10
440.9893403665
 20
254.0502482043
 30
0.0
 11
440.8893386737
 21
254.0502482043
 31
0.0
  0
LINE
  5
29F
330
1F
100
AcDbEntity
  8
0
  6
Continuous
 62
     7
370
    30
100
AcDbLine
 10
440.8893386737
 20
247.8502475606
 30
0.0
 11
440.9893403665
 21
247.8502475606
 31
0.0
  0
ARC
  5
2A0
330
1F
100
AcDbEntity
  8
0
  6
Continuous
 62
     7
370
    30
100
AcDbCircle
 10
440.8893378035
 20
248.0502473877
 30
0.0
 40
0.2000000000000171
100
AcDbArc
 50
180.0
 51
270.0
  0
ARC
  5
2A1
330
1F
100
AcDbEntity
  8
0
  6
Continuous
 62
     7
370
    30
100
AcDbCircle
 10
440.8893378035
 20
253.8502473877
 30
0.0
 40
0.1999999999999886
100
AcDbArc
 50
90.0
 51
180.0
  0
LINE
  5
2A2
330
1F
100
AcDbEntity
  8
0
  6
Continuous
 62
     7
370
    30
100
AcDbLine
 10
636.9893352405
 20
247.8502475606
 30
0.0
 11
637.0893369332
 21
247.8502475606
 31
0.0
  0
LINE
  5
2A3
330
1F
100
AcDbEntity
  8
0
  6
Continuous
 62
     7
370
    30
100
AcDbLine
 10
637.0893369332
 20
254.0502482043
 30
0.0
 11
636.9893352405
 21
254.0502482043
 31
0.0
  0
ARC
  5
2A4
330
1F
100
AcDbEntity
  8
0
  6
Continuous
 62
     7
370
    30
100
AcDbCircle
 10
637.0893378035
 20
253.8502473877
 30
0.0
 40
0.2000000000000455
100
AcDbArc
 50
0.0
 51
90.0
  0
ARC
  5
2A5
330
1F
100
AcDbEntity
  8
0
  6
Continuous
 62
     7
370
    30
100
AcDbCircle
 10
637.0893378035
 20
248.0502473877
 30
0.0
 40
0.2000000000000455
100
AcDbArc
 50
270.0
 51
0.0
  0
LINE
  5
2A6
330
1F
100
AcDbEntity
  8
0
  6
Continuous
 62
     7
370
    30
100
AcDbLine
 10
440.6893352882
 20
251.2601473318
 30
0.0
 11
440.6893352882
 21
253.8502466814
 31
0.0
  0
LINE
  5
2A7
330
1F
100
AcDbEntity
  8
0
  6
Continuous
 62
     7
370
    30
100
AcDbLine
 10
440.6893352882
 20
248.0502472209
 30
0.0
 11
440.6893352882
 21
251.2601473318
 31
0.0
  0
LINE
  5
2A8
330
1F
100
AcDbEntity
  8
0
  6
Continuous
 62
     7
370
    30
100
AcDbLine
 10
637.2893403188
 20
253.8502466814
 30
0.0
 11
637.2893403188
 21
248.0502472209
 31
0.0
  0
LINE
  5
2A9
330
1F
100
AcDbEntity
  8
0
  6
Continuous
 62
     7
370
    30
100
AcDbLine
 10
648.9893372074
 20
280.9502474447
 30
0.0
 11
648.9893372074
 21
279.7502473877
 31
0.0
  0
LINE
  5
2AA
330
1F
100
AcDbEntity
  8
0
  6
Continuous
 62
     7
370
    30
100
AcDbLine
 10
648.9893372074
 20
279.7502473877
 30
0.0
 11
645.9893385783
 21
279.7502473877
 31
0.0
  0
LINE
  5
2AB
330
1F
100
AcDbEntity
  8
0
  6
Continuous
 62
     7
370
    30
100
AcDbLine
 10
645.9893385783
 20
280.9502474447
 30
0.0
 11
648.9893372074
 21
280.9502474447
 31
0.0
  0
LINE
  5
2AC
330
1F
100
AcDbEntity
  8
0
  6
Continuous
 62
     7
370
    30
100
AcDbLine
 10
431.9893370286
 20
279.7502473877
 30
0.0
 11
645.9893385783
 21
279.7502473877
 31
0.0
  0
LINE
  5
2AD
330
1F
100
AcDbEntity
  8
0
  6
Continuous
 62
     7
370
    30
100
AcDbLine
 10
431.9893370286
 20
280.9502474447
 30
0.0
 11
645.9893385783
 21
280.9502474447
 31
0.0
  0
LINE
  5
2AE
330
1F
100
AcDbEntity
  8
0
  6
Continuous
 62
     7
370
    30
100
AcDbLine
 10
428.9893383995
 20
279.7502473877
 30
0.0
 11
428.9893383995
 21
280.9502474447
 31
0.0
  0
LINE
  5
2AF
330
1F
100
AcDbEntity
  8
0
  6
Continuous
 62
     7
370
    30
100
AcDbLine
 10
431.9893370286
 20
279.7502473877
 30
0.0
 11
428.9893383995
 21
279.7502473877
 31
0.0
  0
LINE
  5
2B0
330
1F
100
AcDbEntity
  8
0
  6
Continuous
 62
     7
370
    30
100
AcDbLine
 10
428.9893383995
 20
280.9502474447
 30
0.0
 11
431.9893370286
 21
280.9502474447
 31
0.0
  0
LINE
  5
2B1
330
1F
100
AcDbEntity
  8
0
  6
Continuous
 62
     7
370
    30
100
AcDbLine
 10
636.9893352405
 20
230.9502483295
 30
0.0
 11
636.9893352405
 21
279.7502473877
 31
0.0
  0
LINE
  5
2B2
330
1F
100
AcDbEntity
  8
0
  6
Continuous
 62
     7
370
    30
100
AcDbLine
 10
636.9893352405
 20
230.9502483295
 30
0.0
 11
618.9893360153
 21
230.9502483295
 31
0.0
  0
LINE
  5
2B3
330
1F
100
AcDbEntity
  8
0
  6
Continuous
 62
     7
370
    30
100
AcDbLine
 10
618.9893360153
 20
230.9502483295
 30
0.0
 11
458.9893395916
 21
230.9502483295
 31
0.0
  0
LINE
  5
2B4
330
1F
100
AcDbEntity
  8
0
  6
Continuous
 62
     7
370
    30
100
AcDbLine
 10
440.9893403665
 20
230.9502483295
 30
0.0
 11
440.9893403665
 21
279.7502473877
 31
0.0
  0
LINE
  5
2B5
330
1F
100
AcDbEntity
  8
0
  6
Continuous
 62
     7
370
    30
100
AcDbLine
 10
458.9893395916
 20
230.9502483295
 30
0.0
 11
440.9893403665
 21
230.9502483295
 31
0.0
  0
LINE
  5
2B6
330
1F
100
AcDbEntity
  8
0
  6
Continuous
 62
     7
370
    30
100
AcDbLine
 10
852.5511953965
 20
272.9502472976
 30
0.0
 11
853.9011958972
 21
268.9502471076
 31
0.0
  0
LINE
  5
2B7
330
1F
100
AcDbEntity
  8
0
  6
Continuous
 62
     7
370
    30
100
AcDbLine
 10
856.7011985914
 20
268.9502471076
 30
0.0
 11
858.051199092
 21
272.9502472976
 31
0.0
  0
LINE
  5
2B8
330
1F
100
AcDbEntity
  8
0
  6
Continuous
 62
     7
370
    30
100
AcDbLine
 10
848.8011989728
 20
269.4502471896
 30
0.0
 11
848.8011989728
 21
274.8162726821
 31
0.0
  0
LINE
  5
2B9
330
1F
100
AcDbEntity
  8
0
  6
Continuous
 62
     7
370
    30
100
AcDbLine
 10
853.9011958972
 20
268.9502471076
 30
0.0
 11
856.7011985914
 21
268.9502471076
 31
0.0
  0
ARC
  5
2BA
330
1F
100
AcDbEntity
  8
0
  6
Continuous
 62
     7
370
    30
100
AcDbCircle
 10
863.8011969463
 20
258.4502473877
 30
0.0
 40
3.931278341185268
100
AcDbArc
 50
97.3069596926
 51
165.2637311152
  0
ARC
  5
2BB
330
1F
100
AcDbEntity
  8
0
  6
Continuous
 62
     7
370
    30
100
AcDbCircle
 10
863.8011969463
 20
258.4502473877
 30
0.0
 40
4.150000000000091
100
AcDbArc
 50
96.919916803
 51
166.0565651392
  0
LINE
  5
2BC
330
1F
100
AcDbEntity
  8
0
  6
Continuous
 62
     7
370
    30
100
AcDbLine
 10
834.7715284661
 20
271.9803092951
 30
0.0
 11
834.7715284661
 21
269.9205809222
 31
0.0
  0
ARC
  5
2BD
330
1F
100
AcDbEntity
  8
0
  6
Continuous
 62
     7
370
    30
100
AcDbCircle
 10
834.3011956648
 20
258.2951618459
 30
0.0
 40
13.69322729120574
100
AcDbArc
 50
88.0316264748
 51
91.9683735252
  0
LINE
  5
2BE
330
1F
100
AcDbEntity
  8
0
  6
Continuous
 62
     7
370
    30
100
AcDbLine
 10
833.8308628634
 20
269.9205809222
 30
0.0
 11
833.8308628634
 21
271.9803092951
 31
0.0
  0
LINE
  5
2BF
330
1F
100
AcDbEntity
  8
0
  6
Continuous
 62
     7
370
    30
100
AcDbLine
 10
831.7711349562
 20
269.9205809222
 30
0.0
 11
833.8308628634
 21
269.9205809222
 31
0.0
  0
ARC
  5
2C0
330
1F
100
AcDbEntity
  8
0
  6
Continuous
 62
     7
370
    30
100
AcDbCircle
 10
845.4585839704
 20
269.4502476552
 30
0.0
 40
13.69552751441607
100
AcDbArc
 50
178.0319552525
 51
181.9680447475
  0
LINE
  5
2C1
330
1F
100
AcDbEntity
  8
0
  6
Continuous
 62
     7
370
    30
100
AcDbLine
 10
833.8308628634
 20
268.9799143882
 30
0.0
 11
831.7711349562
 21
268.9799143882
 31
0.0
  0
LINE
  5
2C2
330
1F
100
AcDbEntity
  8
0
  6
Continuous
 62
     7
370
    30
100
AcDbLine
 10
833.8308628634
 20
266.9201855497
 30
0.0
 11
833.8308628634
 21
268.9799143882
 31
0.0
  0
ARC
  5
2C3
330
1F
100
AcDbEntity
  8
0
  6
Continuous
 62
     7
370
    30
100
AcDbCircle
 10
834.3011956648
 20
280.6053329989
 30
0.0
 40
13.6932272912058
100
AcDbArc
 50
268.0316264748
 51
271.9683735252
  0
LINE
  5
2C4
330
1F
100
AcDbEntity
  8
0
  6
Continuous
 62
     7
370
    30
100
AcDbLine
 10
834.7715284661
 20
268.9799143882
 30
0.0
 11
834.7715284661
 21
266.9201855497
 31
0.0
  0
LINE
  5
2C5
330
1F
100
AcDbEntity
  8
0
  6
Continuous
 62
     7
370
    30
100
AcDbLine
 10
836.8312600986
 20
268.9799143882
 30
0.0
 11
834.7715284661
 21
268.9799143882
 31
0.0
  0
ARC
  5
2C6
330
1F
100
AcDbEntity
  8
0
  6
Continuous
 62
     7
370
    30
100
AcDbCircle
 10
823.1417058072
 20
269.4502476552
 30
0.0
 40
13.69763155001056
100
AcDbArc
 50
358.0322576745
 51
1.9677423255
  0
LINE
  5
2C7
330
1F
100
AcDbEntity
  8
0
  6
Continuous
 62
     7
370
    30
100
AcDbLine
 10
834.7715284661
 20
269.9205809222
 30
0.0
 11
836.8312600986
 21
269.9205809222
 31
0.0
  0
CIRCLE
  5
2C8
330
1F
100
AcDbEntity
  8
0
  6
Continuous
 62
     7
370
    30
100
AcDbCircle
 10
834.3011969463
 20
269.4502473877
 30
0.0
 40
3.931278341185248
  0
CIRCLE
  5
2C9
330
1F
100
AcDbEntity
  8
0
  6
Continuous
 62
     7
370
    30
100
AcDbCircle
 10
834.3011969463
 20
269.4502473877
 30
0.0
 40
4.149999999999977
  0
LINE
  5
2CA
330
1F
100
AcDbEntity
  8
0
  6
Continuous
 62
     7
370
    30
100
AcDbLine
 10
834.7715284661
 20
268.9799143882
 30
0.0
 11
833.8308628634
 21
268.9799143882
 31
0.0
  0
LINE
  5
2CB
330
1F
100
AcDbEntity
  8
0
  6
Continuous
 62
     7
370
    30
100
AcDbLine
 10
833.8308628634
 20
268.9799143882
 30
0.0
 11
833.8308628634
 21
269.9205809222
 31
0.0
  0
LINE
  5
2CC
330
1F
100
AcDbEntity
  8
0
  6
Continuous
 62
     7
370
    30
100
AcDbLine
 10
834.7715284661
 20
269.9205809222
 30
0.0
 11
834.7715284661
 21
268.9799143882
 31
0.0
  0
LINE
  5
2CD
330
1F
100
AcDbEntity
  8
0
  6
Continuous
 62
     7
370
    30
100
AcDbLine
 10
833.8308628634
 20
269.9205809222
 30
0.0
 11
834.7715284661
 21
269.9205809222
 31
0.0
  0
LWPOLYLINE
  5
2CE
330
1F
100
AcDbEntity
  8
0
  6
Continuous
 62
     7
370
    30
100
AcDbPolyline
 90
        4
 70
   128
 43
0.0
 10
833.8308628634
 20
269.9205809222
 10
833.9842516915
 20
269.7671930255
 10
834.1417010859
 20
269.6097426997
 10
834.3011956648
 20
269.4502471896
  0
LWPOLYLINE
  5
2CF
330
1F
100
AcDbEntity
  8
0
  6
Continuous
 62
     7
370
    30
100
AcDbPolyline
 90
        4
 70
   128
 43
0.0
 10
833.8308628634
 20
268.9799143882
 10
833.9842516915
 20
269.1333022849
 10
834.1417010859
 20
269.2907526107
 10
834.3011956648
 20
269.4502471896
  0
LWPOLYLINE
  5
2D0
330
1F
100
AcDbEntity
  8
0
  6
Continuous
 62
     7
370
    30
100
AcDbPolyline
 90
        4
 70
   128
 43
0.0
 10
834.3011956648
 20
269.4502471896
 10
834.4606902436
 20
269.2907526107
 10
834.6181433634
 20
269.1333022849
 10
834.7715284661
 20
268.9799143882
  0
LWPOLYLINE
  5
2D1
330
1F
100
AcDbEntity
  8
0
  6
Continuous
 62
     7
370
    30
100
AcDbPolyline
 90
        4
 70
   128
 43
0.0
 10
834.7715284661
 20
269.9205809222
 10
834.6181433634
 20
269.7671930255
 10
834.4606902436
 20
269.6097426997
 10
834.3011956648
 20
269.4502471896
  0
LINE
  5
2D2
330
1F
100
AcDbEntity
  8
0
  6
Continuous
 62
     7
370
    30
100
AcDbLine
 10
850.3011945621
 20
272.9502472976
 30
0.0
 11
850.3011945621
 21
259.4502464818
 31
0.0
  0
LINE
  5
2D3
330
1F
100
AcDbEntity
  8
0
  6
Continuous
 62
     7
370
    30
100
AcDbLine
 10
848.8011989728
 20
269.4502471896
 30
0.0
 11
847.301195933
 21
269.4502471896
 31
0.0
  0
LINE
  5
2D4
330
1F
100
AcDbEntity
  8
0
  6
Continuous
 62
     7
370
    30
100
AcDbLine
 10
785.2995760583
 20
279.4502473735
 30
0.0
 11
785.3011969463
 21
279.4502473735
 31
0.0
  0
LINE
  5
2D5
330
1F
100
AcDbEntity
  8
0
  6
Continuous
 62
     7
370
    30
100
AcDbLine
 10
785.3011969463
 20
276.9502474876
 30
0.0
 11
785.2995760583
 21
276.9502474876
 31
0.0
  0
CIRCLE
  5
2D6
330
1F
100
AcDbEntity
  8
0
  6
Continuous
 62
     7
370
    30
100
AcDbCircle
 10
826.3011969463
 20
250.9502473877
 30
0.0
 40
3.100000000000002
  0
LINE
  5
2D7
330
1F
100
AcDbEntity
  8
0
  6
Continuous
 62
     7
370
    30
100
AcDbLine
 10
895.3011963502
 20
280.9502474447
 30
0.0
 11
895.3011963502
 21
279.7502473877
 31
0.0
  0
LINE
  5
2D8
330
1F
100
AcDbEntity
  8
0
  6
Continuous
 62
     7
370
    30
100
AcDbLine
 10
895.3011963502
 20
279.7502473877
 30
0.0
 11
892.3011977211
 21
279.7502473877
 31
0.0
  0
LINE
  5
2D9
330
1F
100
AcDbEntity
  8
0
  6
Continuous
 62
     7
370
    30
100
AcDbLine
 10
892.3011977211
 20
280.9502474447
 30
0.0
 11
895.3011963502
 21
280.9502474447
 31
0.0
  0
LINE
  5
2DA
330
1F
100
AcDbEntity
  8
0
  6
Continuous
 62
     7
370
    30
100
AcDbLine
 10
678.3011961714
 20
279.7502473877
 30
0.0
 11
892.3011977211
 21
279.7502473877
 31
0.0
  0
LINE
  5
2DB
330
1F
100
AcDbEntity
  8
0
  6
Continuous
 62
     7
370
    30
100
AcDbLine
 10
678.3011961714
 20
280.9502474447
 30
0.0
 11
892.3011977211
 21
280.9502474447
 31
0.0
  0
LINE
  5
2DC
330
1F
100
AcDbEntity
  8
0
  6
Continuous
 62
     7
370
    30
100
AcDbLine
 10
675.3011975423
 20
279.7502473877
 30
0.0
 11
675.3011975423
 21
280.9502474447
 31
0.0
  0
LINE
  5
2DD
330
1F
100
AcDbEntity
  8
0
  6
Continuous
 62
     7
370
    30
100
AcDbLine
 10
678.3011961714
 20
279.7502473877
 30
0.0
 11
675.3011975423
 21
279.7502473877
 31
0.0
  0
LINE
  5
2DE
330
1F
100
AcDbEntity
  8
0
  6
Continuous
 62
     7
370
    30
100
AcDbLine
 10
675.3011975423
 20
280.9502474447
 30
0.0
 11
678.3011961714
 21
280.9502474447
 31
0.0
  0
LINE
  5
2DF
330
1F
100
AcDbEntity
  8
0
  6
Continuous
 62
     7
370
    30
100
AcDbLine
 10
883.3011943833
 20
279.7502473877
 30
0.0
 11
883.3011943833
 21
230.9502483295
 31
0.0
  0
LINE
  5
2E0
330
1F
100
AcDbEntity
  8
0
  6
Continuous
 62
     7
370
    30
100
AcDbLine
 10
883.3011943833
 20
230.9502483295
 30
0.0
 11
865.3011951581
 21
230.9502483295
 31
0.0
  0
LINE
  5
2E1
330
1F
100
AcDbEntity
  8
0
  6
Continuous
 62
     7
370
    30
100
AcDbLine
 10
847.301195933
 20
260.4502466457
 30
0.0
 11
847.301195933
 21
273.9502474615
 31
0.0
  0
ARC
  5
2E2
330
1F
100
AcDbEntity
  8
0
  6
Continuous
 62
     7
370
    30
100
AcDbCircle
 10
848.3011969463
 20
260.4502473877
 30
0.0
 40
1.0
100
AcDbArc
 50
180.0
 51
270.0
  0
LINE
  5
2E3
330
1F
100
AcDbEntity
  8
0
  6
Continuous
 62
     7
370
    30
100
AcDbLine
 10
862.301196529
 20
259.4502464818
 30
0.0
 11
848.3011979595
 21
259.4502464818
 31
0.0
  0
ARC
  5
2E4
330
1F
100
AcDbEntity
  8
0
  6
Continuous
 62
     7
370
    30
100
AcDbCircle
 10
862.3011969463
 20
260.4502473877
 30
0.0
 40
1.0
100
AcDbArc
 50
270.0
 51
0.0
  0
LINE
  5
2E5
330
1F
100
AcDbEntity
  8
0
  6
Continuous
 62
     7
370
    30
100
AcDbLine
 10
863.3011985556
 20
273.9502474615
 30
0.0
 11
863.3011985556
 21
260.4502466457
 31
0.0
  0
ARC
  5
2E6
330
1F
100
AcDbEntity
  8
0
  6
Continuous
 62
     7
370
    30
100
AcDbCircle
 10
862.3011969463
 20
273.9502473877
 30
0.0
 40
1.0
100
AcDbArc
 50
0.0
 51
180.0
  0
ARC
  5
2E7
330
1F
100
AcDbEntity
  8
0
  6
Continuous
 62
     7
370
    30
100
AcDbCircle
 10
848.3011969463
 20
273.9502473877
 30
0.0
 40
1.0
100
AcDbArc
 50
0.0
 51
180.0
  0
LINE
  5
2E8
330
1F
100
AcDbEntity
  8
0
  6
Continuous
 62
     7
370
    30
100
AcDbLine
 10
785.3011969463
 20
230.9502483295
 30
0.0
 11
785.3011969463
 21
279.7502473877
 31
0.0
  0
LINE
  5
2E9
330
1F
100
AcDbEntity
  8
0
  6
Continuous
 62
     7
370
    30
100
AcDbLine
 10
865.3011951581
 20
230.9502483295
 30
0.0
 11
785.3011969463
 21
230.9502483295
 31
0.0
  0
LINE
  5
2EA
330
1F
100
AcDbEntity
  8
0
  6
Continuous
 62
     7
370
    30
100
AcDbLine
 10
861.3011945025
 20
273.9502474615
 30
0.0
 11
861.3011945025
 21
272.9502472976
 31
0.0
  0
LINE
  5
2EB
330
1F
100
AcDbEntity
  8
0
  6
Continuous
 62
     7
370
    30
100
AcDbLine
 10
861.3011945025
 20
272.9502472976
 30
0.0
 11
849.3011999861
 21
272.9502472976
 31
0.0
  0
LINE
  5
2EC
330
1F
100
AcDbEntity
  8
0
  6
Continuous
 62
     7
370
    30
100
AcDbLine
 10
849.3011999861
 20
272.9502472976
 30
0.0
 11
849.3011999861
 21
273.9502474615
 31
0.0
  0
CIRCLE
  5
2ED
330
1F
100
AcDbEntity
  8
0
  6
Continuous
 62
     7
370
    30
100
AcDbCircle
 10
834.3011969463
 20
269.4502473877
 30
0.0
 40
6.75
  0
LINE
  5
2EE
330
1F
100
AcDbEntity
  8
0
  6
Continuous
 62
     7
370
    30
100
AcDbLine
 10
785.2992118406
 20
230.9502483295
 30
0.0
 11
785.2992118406
 21
279.7502473877
 31
0.0
  0
LINE
  5
2EF
330
1F
100
AcDbEntity
  8
0
  6
Continuous
 62
     7
370
    30
100
AcDbLine
 10
785.2992118406
 20
230.9502483295
 30
0.0
 11
705.3011987344
 21
230.9502483295
 31
0.0
  0
LINE
  5
2F0
330
1F
100
AcDbEntity
  8
0
  6
Continuous
 62
     7
370
    30
100
AcDbLine
 10
785.2995760583
 20
230.9502483295
 30
0.0
 11
785.2995760583
 21
279.7502473877
 31
0.0
  0
LINE
  5
2F1
330
1F
100
AcDbEntity
  8
0
  6
Continuous
 62
     7
370
    30
100
AcDbLine
 10
785.2995760583
 20
230.9502483295
 30
0.0
 11
785.2992118406
 21
230.9502483295
 31
0.0
  0
LINE
  5
2F2
330
1F
100
AcDbEntity
  8
0
  6
Continuous
 62
     7
370
    30
100
AcDbLine
 10
687.3011995093
 20
230.9502483295
 30
0.0
 11
687.3011995093
 21
279.7502473877
 31
0.0
  0
LINE
  5
2F3
330
1F
100
AcDbEntity
  8
0
  6
Continuous
 62
     7
370
    30
100
AcDbLine
 10
705.3011987344
 20
230.9502483295
 30
0.0
 11
687.3011995093
 21
230.9502483295
 31
0.0
  0
LINE
  5
2F4
330
1F
100
AcDbEntity
  8
0
  6
Continuous
 62
     7
370
    30
100
AcDbLine
 10
785.3011969463
 20
230.9502483295
 30
0.0
 11
785.2995760583
 21
230.9502483295
 31
0.0
  0
ENDSEC
  0
SECTION
  2
OBJECTS
  0
DICTIONARY
  5
C
330
0
100
AcDbDictionary
281
     1
  3
ACAD_GROUP
350
D
  3
ACAD_LAYOUT
350
1A
  3
ACAD_MLINESTYLE
350
17
  3
ACAD_PLOTSETTINGS
350
19
  3
ACAD_PLOTSTYLENAME
350
E
  3
ACAD_SCALELIST
350
47
  0
DICTIONARY
  5
D
102
{ACAD_REACTORS
330
C
102
}
330
C
100
AcDbDictionary
281
     1
  0
DICTIONARY
  5
1A
102
{ACAD_REACTORS
330
C
102
}
330
C
100
AcDbDictionary
281
     1
  3
Layout1
350
1E
  3
Layout2
350
26
  3
Model
350
22
  0
DICTIONARY
  5
17
102
{ACAD_REACTORS
330
C
102
}
330
C
100
AcDbDictionary
281
     1
  3
Standard
350
18
  0
DICTIONARY
  5
19
102
{ACAD_REACTORS
330
C
102
}
330
C
100
AcDbDictionary
281
     1
  0
ACDBDICTIONARYWDFLT
  5
E
102
{ACAD_REACTORS
330
C
102
}
330
C
100
AcDbDictionary
281
     1
  3
Normal
350
F
100
AcDbDictionaryWithDefault
340
F
  0
DICTIONARY
  5
47
102
{ACAD_REACTORS
330
C
102
}
330
C
100
AcDbDictionary
281
     1
  3
A0
350
48
  3
A1
350
49
  3
A2
350
4A
  3
A3
350
4B
  3
A4
350
4C
  3
A5
350
4D
  3
A6
350
4E
  3
A7
350
4F
  3
A8
350
50
  3
A9
350
51
  3
B0
350
52
  3
B1
350
53
  3
B2
350
54
  3
B3
350
55
  3
B4
350
56
  3
B5
350
57
  3
B6
350
58
  3
B7
350
59
  3
B8
350
5A
  3
B9
350
5B
  3
C0
350
5C
  3
C1
350
5D
  3
C2
350
5E
  3
C3
350
5F
  3
C4
350
60
  3
C5
350
61
  3
C6
350
62
  3
C7
350
63
  3
C8
350
64
  3
C9
350
65
  3
D0
350
66
  3
D1
350
67
  3
D2
350
68
  0
LAYOUT
  5
1E
102
{ACAD_REACTORS
330
1A
102
}
330
1A
100
AcDbPlotSettings
  1

  2
none_device
  4

  6

 40
0.0
 41
0.0
 42
0.0
 43
0.0
 44
0.0
 45
0.0
 46
0.0
 47
0.0
 48
0.0
 49
0.0
140
0.0
141
0.0
142
1.0
143
1.0
 70
   688
 72
     1
 73
     0
 74
     5
  7

 75
    16
147
1.0
148
0.0
149
0.0
100
AcDbLayout
  1
Layout1
 70
     1
 71
     1
 10
0.0
 20
0.0
 11
420.0
 21
297.0
 12
0.0
 22
0.0
 32
0.0
 14
1.0000000000E+20
 24
1.0000000000E+20
 34
1.0000000000E+20
 15
-1.0000000000E+20
 25
-1.0000000000E+20
 35
-1.0000000000E+20
146
0.0
 13
0.0
 23
0.0
 33
0.0
 16
1.0
 26
0.0
 36
0.0
 17
0.0
 27
1.0
 37
0.0
 76
     0
330
1B
  0
LAYOUT
  5
26
102
{ACAD_REACTORS
330
1A
102
}
330
1A
100
AcDbPlotSettings
  1

  2
none_device
  4

  6

 40
0.0
 41
0.0
 42
0.0
 43
0.0
 44
0.0
 45
0.0
 46
0.0
 47
0.0
 48
0.0
 49
0.0
140
0.0
141
0.0
142
1.0
143
1.0
 70
   688
 72
     1
 73
     0
 74
     5
  7

 75
    16
147
1.0
148
0.0
149
0.0
100
AcDbLayout
  1
Layout2
 70
     1
 71
     2
 10
0.0
 20
0.0
 11
0.0
 21
0.0
 12
0.0
 22
0.0
 32
0.0
 14
0.0
 24
0.0
 34
0.0
 15
0.0
 25
0.0
 35
0.0
146
0.0
 13
0.0
 23
0.0
 33
0.0
 16
1.0
 26
0.0
 36
0.0
 17
0.0
 27
1.0
 37
0.0
 76
     0
330
23
  0
LAYOUT
  5
22
102
{ACAD_REACTORS
330
1A
102
}
330
1A
100
AcDbPlotSettings
  1

  2
none_device
  4
Letter_(8.50_x_11.00_Inches)
  6

 40
6.35
 41
6.35
 42
6.35000508
 43
6.35000508
 44
215.9
 45
279.4
 46
0.0
 47
0.0
 48
0.0
 49
0.0
140
0.0
141
0.0
142
1.0
143
1.0
 70
  1712
 72
     1
 73
     0
 74
     0
  7

 75
     0
147
1.0
148
0.0
149
0.0
100
AcDbLayout
  1
Model
 70
     1
 71
     0
 10
0.0
 20
0.0
 11
420.0
 21
297.0
 12
0.0
 22
0.0
 32
0.0
 14
0.0
 24
0.0
 34
0.0
 15
420.0
 25
297.0
 35
0.0
146
0.0
 13
0.0
 23
0.0
 33
0.0
 16
1.0
 26
0.0
 36
0.0
 17
0.0
 27
1.0
 37
0.0
 76
     0
330
1F
331
29
  0
MLINESTYLE
  5
18
102
{ACAD_REACTORS
330
17
102
}
330
17
100
AcDbMlineStyle
  2
Standard
 70
     0
  3

 62
   256
 51
90.0
 52
90.0
 71
     2
 49
0.5
 62
   256
  6
BYLAYER
 49
-0.5
 62
   256
  6
BYLAYER
  0
ACDBPLACEHOLDER
  5
F
102
{ACAD_REACTORS
330
E
102
}
330
E
  0
SCALE
  5
48
102
{ACAD_REACTORS
330
47
102
}
330
47
100
AcDbScale
 70
     0
300
1:1
140
1.0
141
1.0
290
     1
  0
SCALE
  5
49
102
{ACAD_REACTORS
330
47
102
}
330
47
100
AcDbScale
 70
     0
300
1:2
140
1.0
141
2.0
290
     0
  0
SCALE
  5
4A
102
{ACAD_REACTORS
330
47
102
}
330
47
100
AcDbScale
 70
     0
300
1:4
140
1.0
141
4.0
290
     0
  0
SCALE
  5
4B
102
{ACAD_REACTORS
330
47
102
}
330
47
100
AcDbScale
 70
     0
300
1:5
140
1.0
141
5.0
290
     0
  0
SCALE
  5
4C
102
{ACAD_REACTORS
330
47
102
}
330
47
100
AcDbScale
 70
     0
300
1:8
140
1.0
141
8.0
290
     0
  0
SCALE
  5
4D
102
{ACAD_REACTORS
330
47
102
}
330
47
100
AcDbScale
 70
     0
300
1:10
140
1.0
141
10.0
290
     0
  0
SCALE
  5
4E
102
{ACAD_REACTORS
330
47
102
}
330
47
100
AcDbScale
 70
     0
300
1:16
140
1.0
141
16.0
290
     0
  0
SCALE
  5
4F
102
{ACAD_REACTORS
330
47
102
}
330
47
100
AcDbScale
 70
     0
300
1:20
140
1.0
141
20.0
290
     0
  0
SCALE
  5
50
102
{ACAD_REACTORS
330
47
102
}
330
47
100
AcDbScale
 70
     0
300
1:30
140
1.0
141
30.0
290
     0
  0
SCALE
  5
51
102
{ACAD_REACTORS
330
47
102
}
330
47
100
AcDbScale
 70
     0
300
1:40
140
1.0
141
40.0
290
     0
  0
SCALE
  5
52
102
{ACAD_REACTORS
330
47
102
}
330
47
100
AcDbScale
 70
     0
300
1:50
140
1.0
141
50.0
290
     0
  0
SCALE
  5
53
102
{ACAD_REACTORS
330
47
102
}
330
47
100
AcDbScale
 70
     0
300
1:100
140
1.0
141
100.0
290
     0
  0
SCALE
  5
54
102
{ACAD_REACTORS
330
47
102
}
330
47
100
AcDbScale
 70
     0
300
2:1
140
2.0
141
1.0
290
     0
  0
SCALE
  5
55
102
{ACAD_REACTORS
330
47
102
}
330
47
100
AcDbScale
 70
     0
300
4:1
140
4.0
141
1.0
290
     0
  0
SCALE
  5
56
102
{ACAD_REACTORS
330
47
102
}
330
47
100
AcDbScale
 70
     0
300
8:1
140
8.0
141
1.0
290
     0
  0
SCALE
  5
57
102
{ACAD_REACTORS
330
47
102
}
330
47
100
AcDbScale
 70
     0
300
10:1
140
10.0
141
1.0
290
     0
  0
SCALE
  5
58
102
{ACAD_REACTORS
330
47
102
}
330
47
100
AcDbScale
 70
     0
300
100:1
140
100.0
141
1.0
290
     0
  0
SCALE
  5
59
102
{ACAD_REACTORS
330
47
102
}
330
47
100
AcDbScale
 70
     0
300
1/128" = 1'-0"
140
0.0078125
141
12.0
290
     0
  0
SCALE
  5
5A
102
{ACAD_REACTORS
330
47
102
}
330
47
100
AcDbScale
 70
     0
300
1/64" = 1'-0"
140
0.015625
141
12.0
290
     0
  0
SCALE
  5
5B
102
{ACAD_REACTORS
330
47
102
}
330
47
100
AcDbScale
 70
     0
300
1/32" = 1'-0"
140
0.03125
141
12.0
290
     0
  0
SCALE
  5
5C
102
{ACAD_REACTORS
330
47
102
}
330
47
100
AcDbScale
 70
     0
300
1/16" = 1'-0"
140
0.0625
141
12.0
290
     0
  0
SCALE
  5
5D
102
{ACAD_REACTORS
330
47
102
}
330
47
100
AcDbScale
 70
     0
300
3/32" = 1'-0"
140
0.09375
141
12.0
290
     0
  0
SCALE
  5
5E
102
{ACAD_REACTORS
330
47
102
}
330
47
100
AcDbScale
 70
     0
300
1/8" = 1'-0"
140
0.125
141
12.0
290
     0
  0
SCALE
  5
5F
102
{ACAD_REACTORS
330
47
102
}
330
47
100
AcDbScale
 70
     0
300
3/16" = 1'-0"
140
0.1875
141
12.0
290
     0
  0
SCALE
  5
60
102
{ACAD_REACTORS
330
47
102
}
330
47
100
AcDbScale
 70
     0
300
1/4" = 1'-0"
140
0.25
141
12.0
290
     0
  0
SCALE
  5
61
102
{ACAD_REACTORS
330
47
102
}
330
47
100
AcDbScale
 70
     0
300
3/8" = 1'-0"
140
0.375
141
12.0
290
     0
  0
SCALE
  5
62
102
{ACAD_REACTORS
330
47
102
}
330
47
100
AcDbScale
 70
     0
300
1/2" = 1'-0"
140
0.5
141
12.0
290
     0
  0
SCALE
  5
63
102
{ACAD_REACTORS
330
47
102
}
330
47
100
AcDbScale
 70
     0
300
3/4" = 1'-0"
140
0.75
141
12.0
290
     0
  0
SCALE
  5
64
102
{ACAD_REACTORS
330
47
102
}
330
47
100
AcDbScale
 70
     0
300
1" = 1'-0"
140
1.0
141
12.0
290
     0
  0
SCALE
  5
65
102
{ACAD_REACTORS
330
47
102
}
330
47
100
AcDbScale
 70
     0
300
1-1/2" = 1'-0"
140
1.5
141
12.0
290
     0
  0
SCALE
  5
66
102
{ACAD_REACTORS
330
47
102
}
330
47
100
AcDbScale
 70
     0
300
3" = 1'-0"
140
3.0
141
12.0
290
     0
  0
SCALE
  5
67
102
{ACAD_REACTORS
330
47
102
}
330
47
100
AcDbScale
 70
     0
300
6" = 1'-0"
140
6.0
141
12.0
290
     0
  0
SCALE
  5
68
102
{ACAD_REACTORS
330
47
102
}
330
47
100
AcDbScale
 70
     0
300
1'-0" = 1'-0"
140
12.0
141
12.0
290
     0
  0
ENDSEC
  0
EOF
