  0
SECTION
  2
HEADER
  9
$ACADVER
  1
AC1015
  9
$ACADMAINTVER
 70
     6
  9
$DWGCODEPAGE
  3
DOS932
  9
$INSBASE
 10
0.0
 20
0.0
 30
0.0
  9
$EXTMIN
 10
0.0
 20
0.0
 30
0.0
  9
$EXTMAX
 10
420.0
 20
297.0
 30
0.0
  9
$LIMMIN
 10
0.0
 20
0.0
  9
$LIMMAX
 10
420.0
 20
297.0
  9
$ORTHOMODE
 70
     0
  9
$REGENMODE
 70
     1
  9
$FILLMODE
 70
     1
  9
$QTEXTMODE
 70
     0
  9
$MIRRTEXT
 70
     1
  9
$LTSCALE
 40
1.0
  9
$ATTMODE
 70
     1
  9
$TEXTSIZE
 40
3.8805555556
  9
$TRACEWID
 40
1.0
  9
$TEXTSTYLE
  7
Standard
  9
$CLAYER
  8
0
  9
$CELTYPE
  6
ByLayer
  9
$CECOLOR
 62
   256
  9
$CELTSCALE
 40
1.0
  9
$DISPSILH
 70
     0
  9
$DIMSCALE
 40
1.0
  9
$DIMASZ
 40
3.0
  9
$DIMEXO
 40
0.0
  9
$DIMDLI
 40
3.75
  9
$DIMRND
 40
0.0
  9
$DIMDLE
 40
0.0
  9
$DIMEXE
 40
1.0
  9
$DIMTP
 40
0.0
  9
$DIMTM
 40
0.0
  9
$DIMTXT
 40
3.5277777778
  9
$DIMCEN
 40
2.5
  9
$DIMTSZ
 40
0.0
  9
$DIMTOL
 70
     0
  9
$DIMLIM
 70
     0
  9
$DIMTIH
 70
     1
  9
$DIMTOH
 70
     1
  9
$DIMSE1
 70
     0
  9
$DIMSE2
 70
     0
  9
$DIMTAD
 70
     1
  9
$DIMZIN
 70
     0
  9
$DIMBLK
  1

  9
$DIMASO
 70
     1
  9
$DIMSHO
 70
     1
  9
$DIMPOST
  1

  9
$DIMAPOST
  1

  9
$DIMALT
 70
     0
  9
$DIMALTD
 70
     3
  9
$DIMALTF
 40
0.0393700787
  9
$DIMLFAC
 40
1.0
  9
$DIMTOFL
 70
     1
  9
$DIMTVP
 40
0.0
  9
$DIMTIX
 70
     0
  9
$DIMSOXD
 70
     0
  9
$DIMSAH
 70
     0
  9
$DIMBLK1
  1

  9
$DIMBLK2
  1

  9
$DIMSTYLE
  2
ISO-25
  9
$DIMCLRD
 70
     0
  9
$DIMCLRE
 70
     0
  9
$DIMCLRT
 70
     0
  9
$DIMTFAC
 40
1.0
  9
$DIMGAP
 40
1.0
  9
$DIMJUST
 70
     0
  9
$DIMSD1
 70
     0
  9
$DIMSD2
 70
     0
  9
$DIMTOLJ
 70
     0
  9
$DIMTZIN
 70
     0
  9
$DIMALTZ
 70
     0
  9
$DIMALTTZ
 70
     0
  9
$DIMUPT
 70
     0
  9
$DIMDEC
 70
     2
  9
$DIMTDEC
 70
     2
  9
$DIMALTU
 70
     2
  9
$DIMALTTD
 70
     3
  9
$DIMTXSTY
  7
Standard
  9
$DIMAUNIT
 70
     0
  9
$DIMADEC
 70
     2
  9
$DIMALTRND
 40
0.0
  9
$DIMAZIN
 70
     0
  9
$DIMDSEP
 70
    44
  9
$DIMATFIT
 70
     3
  9
$DIMFRAC
 70
     0
  9
$DIMLDRBLK
  1

  9
$DIMLUNIT
 70
     2
  9
$DIMLWD
 70
    -2
  9
$DIMLWE
 70
    -2
  9
$DIMTMOVE
 70
     0
  9
$LUNITS
 70
     2
  9
$LUPREC
 70
     2
  9
$SKETCHINC
 40
1.0
  9
$FILLETRAD
 40
10.0
  9
$AUNITS
 70
     0
  9
$AUPREC
 70
     2
  9
$MENU
  1
.
  9
$ELEVATION
 40
0.0
  9
$PELEVATION
 40
0.0
  9
$THICKNESS
 40
0.0
  9
$LIMCHECK
 70
     0
  9
$CHAMFERA
 40
0.0
  9
$CHAMFERB
 40
0.0
  9
$CHAMFERC
 40
0.0
  9
$CHAMFERD
 40
0.0
  9
$SKPOLY
 70
     0
  9
$TDCREATE
 40
2458682.489202581
  9
$TDUCREATE
 40
2458682.114202581
  9
$TDUPDATE
 40
2458682.489203379
  9
$TDUUPDATE
 40
2458682.114203379
  9
$TDINDWG
 40
0.0000000116
  9
$TDUSRTIMER
 40
0.0000000116
  9
$USRTIMER
 70
     1
  9
$ANGBASE
 50
0.0
  9
$ANGDIR
 70
     0
  9
$PDMODE
 70
     0
  9
$PDSIZE
 40
-1.0
  9
$PLINEWID
 40
0.0
  9
$SPLFRAME
 70
     0
  9
$SPLINETYPE
 70
     6
  9
$SPLINESEGS
 70
     8
  9
$HANDSEED
  5
2E4
  9
$SURFTAB1
 70
     6
  9
$SURFTAB2
 70
     6
  9
$SURFTYPE
 70
     6
  9
$SURFU
 70
     6
  9
$SURFV
 70
     6
  9
$UCSBASE
  2

  9
$UCSNAME
  2

  9
$UCSORG
 10
0.0
 20
0.0
 30
0.0
  9
$UCSXDIR
 10
1.0
 20
0.0
 30
0.0
  9
$UCSYDIR
 10
0.0
 20
1.0
 30
0.0
  9
$UCSORTHOREF
  2

  9
$UCSORTHOVIEW
 70
     0
  9
$UCSORGTOP
 10
0.0
 20
0.0
 30
0.0
  9
$UCSORGBOTTOM
 10
0.0
 20
0.0
 30
0.0
  9
$UCSORGLEFT
 10
0.0
 20
0.0
 30
0.0
  9
$UCSORGRIGHT
 10
0.0
 20
0.0
 30
0.0
  9
$UCSORGFRONT
 10
0.0
 20
0.0
 30
0.0
  9
$UCSORGBACK
 10
0.0
 20
0.0
 30
0.0
  9
$PUCSBASE
  2

  9
$PUCSNAME
  2

  9
$PUCSORG
 10
0.0
 20
0.0
 30
0.0
  9
$PUCSXDIR
 10
1.0
 20
0.0
 30
0.0
  9
$PUCSYDIR
 10
0.0
 20
1.0
 30
0.0
  9
$PUCSORTHOREF
  2

  9
$PUCSORTHOVIEW
 70
     0
  9
$PUCSORGTOP
 10
0.0
 20
0.0
 30
0.0
  9
$PUCSORGBOTTOM
 10
0.0
 20
0.0
 30
0.0
  9
$PUCSORGLEFT
 10
0.0
 20
0.0
 30
0.0
  9
$PUCSORGRIGHT
 10
0.0
 20
0.0
 30
0.0
  9
$PUCSORGFRONT
 10
0.0
 20
0.0
 30
0.0
  9
$PUCSORGBACK
 10
0.0
 20
0.0
 30
0.0
  9
$USERI1
 70
     0
  9
$USERI2
 70
     0
  9
$USERI3
 70
     0
  9
$USERI4
 70
     0
  9
$USERI5
 70
     0
  9
$USERR1
 40
0.0
  9
$USERR2
 40
0.0
  9
$USERR3
 40
0.0
  9
$USERR4
 40
0.0
  9
$USERR5
 40
0.0
  9
$WORLDVIEW
 70
     1
  9
$SHADEDGE
 70
     3
  9
$SHADEDIF
 70
    70
  9
$TILEMODE
 70
     1
  9
$MAXACTVP
 70
    64
  9
$PINSBASE
 10
0.0
 20
0.0
 30
0.0
  9
$PLIMCHECK
 70
     0
  9
$PEXTMIN
 10
1.0000000000E+20
 20
1.0000000000E+20
 30
1.0000000000E+20
  9
$PEXTMAX
 10
-1.0000000000E+20
 20
-1.0000000000E+20
 30
-1.0000000000E+20
  9
$PLIMMIN
 10
0.0
 20
0.0
  9
$PLIMMAX
 10
420.0
 20
297.0
  9
$UNITMODE
 70
     0
  9
$VISRETAIN
 70
     1
  9
$PLINEGEN
 70
     0
  9
$PSLTSCALE
 70
     1
  9
$TREEDEPTH
 70
  3020
  9
$CMLSTYLE
  2
Standard
  9
$CMLJUST
 70
     0
  9
$CMLSCALE
 40
20.0
  9
$PROXYGRAPHICS
 70
     1
  9
$MEASUREMENT
 70
     1
  9
$CELWEIGHT
370
    -1
  9
$ENDCAPS
280
     0
  9
$JOINSTYLE
280
     0
  9
$LWDISPLAY
290
     1
  9
$INSUNITS
 70
     4
  9
$HYPERLINKBASE
  1

  9
$STYLESHEET
  1

  9
$XEDIT
290
     1
  9
$CEPSNTYPE
380
     0
  9
$PSTYLEMODE
290
     1
  9
$FINGERPRINTGUID
  2
{74565FE2-C3D7-48D8-B07A-AA8D85AAF175}
  9
$VERSIONGUID
  2
{FAEB1C32-E019-11D5-929B-00C0DF256EC4}
  9
$EXTNAMES
290
     1
  9
$PSVPSCALE
 40
0.0
  9
$OLESTARTUP
290
     0
  0
ENDSEC
  0
SECTION
  2
CLASSES
  0
CLASS
  1
ACDBDICTIONARYWDFLT
  2
AcDbDictionaryWithDefault
  3
ObjectDBX Classes
 90
        0
280
     0
281
     0
  0
CLASS
  1
VISUALSTYLE
  2
AcDbVisualStyle
  3
ObjectDBX Classes
 90
     4095
280
     0
281
     0
  0
CLASS
  1
MATERIAL
  2
AcDbMaterial
  3
ObjectDBX Classes
 90
     1153
280
     0
281
     0
  0
CLASS
  1
SCALE
  2
AcDbScale
  3
ObjectDBX Classes
 90
     1153
280
     0
281
     0
  0
CLASS
  1
TABLESTYLE
  2
AcDbTableStyle
  3
ObjectDBX Classes
 90
     4095
280
     0
281
     0
  0
CLASS
  1
MLEADERSTYLE
  2
AcDbMLeaderStyle
  3
ACDB_MLEADERSTYLE_CLASS
 90
     4095
280
     0
281
     0
  0
CLASS
  1
SUN
  2
AcDbSun
  3
SCENEOE
 90
     1153
280
     0
281
     0
  0
CLASS
  1
ACDBPLACEHOLDER
  2
AcDbPlaceHolder
  3
ObjectDBX Classes
 90
        0
280
     0
281
     0
  0
CLASS
  1
LAYOUT
  2
AcDbLayout
  3
ObjectDBX Classes
 90
        0
280
     0
281
     0
  0
ENDSEC
  0
SECTION
  2
TABLES
  0
TABLE
  2
VPORT
  5
8
330
0
100
AcDbSymbolTable
 70
     1
  0
VPORT
  5
29
330
8
100
AcDbSymbolTableRecord
100
AcDbViewportTableRecord
  2
*Active
 70
     0
 10
0.0
 20
0.0
 11
1.0
 21
1.0
 12
210.0
 22
148.5
 13
0.0
 23
0.0
 14
10.0
 24
10.0
 15
10.0
 25
10.0
 16
0.0
 26
0.0
 36
1.0
 17
0.0
 27
0.0
 37
0.0
 40
297.0
 41
1.4141414141
 42
50.0
 43
0.0
 44
0.0
 50
0.0
 51
0.0
 71
     0
 72
  2000
 73
     1
 74
     3
 75
     0
 76
     0
 77
     0
 78
     0
281
     0
 65
     1
110
0.0
120
0.0
130
0.0
111
1.0
121
0.0
131
0.0
112
0.0
122
1.0
132
0.0
 79
     0
146
0.0
  0
ENDTAB
  0
TABLE
  2
LTYPE
  5
5
330
0
100
AcDbSymbolTable
 70
     6
  0
LTYPE
  5
14
330
5
100
AcDbSymbolTableRecord
100
AcDbLinetypeTableRecord
  2
ByBlock
 70
     0
  3

 72
    65
 73
     0
 40
0.0
  0
LTYPE
  5
15
330
5
100
AcDbSymbolTableRecord
100
AcDbLinetypeTableRecord
  2
ByLayer
 70
     0
  3

 72
    65
 73
     0
 40
0.0
  0
LTYPE
  5
16
330
5
100
AcDbSymbolTableRecord
100
AcDbLinetypeTableRecord
  2
Continuous
 70
     0
  3
Solid line
 72
    65
 73
     0
 40
0.0
  0
LTYPE
  5
6E
330
5
100
AcDbSymbolTableRecord
100
AcDbLinetypeTableRecord
  2
HIDDEN
 70
     0
  3
Hidden __ __ __ __ __ __ __ __ __ __ __ __ __ __
 72
    65
 73
     2
 40
1.905
 49
1.27
 74
     0
 49
-0.635
 74
     0
  0
LTYPE
  5
6F
330
5
100
AcDbSymbolTableRecord
100
AcDbLinetypeTableRecord
  2
PHANTOM
 70
     0
  3
Phantom ______  __  __  ______  __  __  ______
 72
    65
 73
     6
 40
12.7
 49
6.35
 74
     0
 49
-1.27
 74
     0
 49
1.27
 74
     0
 49
-1.27
 74
     0
 49
1.27
 74
     0
 49
-1.27
 74
     0
  0
LTYPE
  5
70
330
5
100
AcDbSymbolTableRecord
100
AcDbLinetypeTableRecord
  2
CENTER
 70
     0
  3
Center ____ _ ____ _ ____ _ ____ _ ____ _ ____
 72
    65
 73
     4
 40
10.16
 49
6.35
 74
     0
 49
-1.27
 74
     0
 49
1.27
 74
     0
 49
-1.27
 74
     0
  0
LTYPE
  5
71
330
5
100
AcDbSymbolTableRecord
100
AcDbLinetypeTableRecord
  2
CENTERX2
 70
     0
  3
Center (2x) ________  __  ________  __  _____
 72
    65
 73
     4
 40
20.32
 49
12.7
 74
     0
 49
-2.54
 74
     0
 49
2.54
 74
     0
 49
-2.54
 74
     0
  0
LTYPE
  5
72
330
5
100
AcDbSymbolTableRecord
100
AcDbLinetypeTableRecord
  2
DOT2
 70
     0
  3
Dot (.5x) ........................................
 72
    65
 73
     2
 40
0.635
 49
0.0
 74
     0
 49
-0.635
 74
     0
  0
ENDTAB
  0
TABLE
  2
LAYER
  5
2
330
0
100
AcDbSymbolTable
 70
     6
  0
LAYER
  5
10
330
2
100
AcDbSymbolTableRecord
100
AcDbLayerTableRecord
  2
0
 70
     0
 62
     7
  6
Continuous
370
    -3
390
F
  0
LAYER
  5
73
330
2
100
AcDbSymbolTableRecord
100
AcDbLayerTableRecord
  2
SLD-0
 70
     0
 62
     7
  6
Continuous
370
    -3
390
F
  0
LAYER
  5
74
330
2
100
AcDbSymbolTableRecord
100
AcDbLayerTableRecord
  2
8
 70
     0
 62
     7
  6
Continuous
370
    15
390
F
  0
LAYER
  5
75
330
2
100
AcDbSymbolTableRecord
100
AcDbLayerTableRecord
  2
9
 70
     0
 62
     7
  6
Continuous
370
    -3
390
F
  0
LAYER
  5
76
330
2
100
AcDbSymbolTableRecord
100
AcDbLayerTableRecord
  2
10
 70
     0
 62
     1
  6
Continuous
370
    -3
390
F
  0
LAYER
  5
77
330
2
100
AcDbSymbolTableRecord
100
AcDbLayerTableRecord
  2
11
 70
     0
 62
     7
  6
Continuous
370
    -3
390
F
  0
ENDTAB
  0
TABLE
  2
STYLE
  5
3
330
0
100
AcDbSymbolTable
 70
     2
  0
STYLE
  5
11
330
3
100
AcDbSymbolTableRecord
100
AcDbTextStyleTableRecord
  2
Standard
 70
     0
 40
0.0
 41
1.0
 50
0.0
 71
     0
 42
3.8805555556
  3
txt
  4
bigfont
  0
STYLE
  5
78
330
3
100
AcDbSymbolTableRecord
100
AcDbTextStyleTableRecord
  2
SLDTEXTSTYLE0
 70
     0
 40
0.0
 41
0.7
 50
0.0
 71
     0
 42
3.8805555556
  3
TXT
  4
bigfont
  0
ENDTAB
  0
TABLE
  2
VIEW
  5
6
330
0
100
AcDbSymbolTable
 70
     0
  0
ENDTAB
  0
TABLE
  2
UCS
  5
7
330
0
100
AcDbSymbolTable
 70
     0
  0
ENDTAB
  0
TABLE
  2
APPID
  5
9
330
0
100
AcDbSymbolTable
 70
     1
  0
APPID
  5
12
330
9
100
AcDbSymbolTableRecord
100
AcDbRegAppTableRecord
  2
ACAD
 70
     0
  0
ENDTAB
  0
TABLE
  2
DIMSTYLE
  5
A
330
0
100
AcDbSymbolTable
 70
     1
100
AcDbDimStyleTable
  0
DIMSTYLE
105
27
330
A
100
AcDbSymbolTableRecord
100
AcDbDimStyleTableRecord
  2
ISO-25
 70
     0
 41
2.5
 42
0.625
 43
3.75
 44
1.25
 73
     0
 74
     0
 77
     1
 78
     8
140
2.5
141
2.5
143
0.0393700787
147
0.625
171
     3
172
     1
178
     0
271
     2
272
     2
274
     3
278
    44
283
     0
284
     8
340
11
  0
ENDTAB
  0
TABLE
  2
BLOCK_RECORD
  5
1
330
0
100
AcDbSymbolTable
 70
     1
  0
BLOCK_RECORD
  5
1F
330
1
100
AcDbSymbolTableRecord
100
AcDbBlockTableRecord
  2
*Model_Space
340
22
  0
BLOCK_RECORD
  5
1B
330
1
100
AcDbSymbolTableRecord
100
AcDbBlockTableRecord
  2
*Paper_Space
340
1E
  0
BLOCK_RECORD
  5
23
330
1
100
AcDbSymbolTableRecord
100
AcDbBlockTableRecord
  2
*Paper_Space0
340
26
  0
ENDTAB
  0
ENDSEC
  0
SECTION
  2
BLOCKS
  0
BLOCK
  5
20
330
1F
100
AcDbEntity
  8
0
100
AcDbBlockBegin
  2
*Model_Space
 70
     0
 10
0.0
 20
0.0
 30
0.0
  3
*Model_Space
  1

  0
ENDBLK
  5
21
330
1F
100
AcDbEntity
  8
0
100
AcDbBlockEnd
  0
BLOCK
  5
1C
330
1B
100
AcDbEntity
 67
     1
  8
0
100
AcDbBlockBegin
  2
*Paper_Space
 70
     0
 10
0.0
 20
0.0
 30
0.0
  3
*Paper_Space
  1

  0
ENDBLK
  5
1D
330
1B
100
AcDbEntity
 67
     1
  8
0
100
AcDbBlockEnd
  0
BLOCK
  5
24
330
23
100
AcDbEntity
  8
0
100
AcDbBlockBegin
  2
*Paper_Space0
 70
     0
 10
0.0
 20
0.0
 30
0.0
  3
*Paper_Space0
  1

  0
ENDBLK
  5
25
330
23
100
AcDbEntity
  8
0
100
AcDbBlockEnd
  0
ENDSEC
  0
SECTION
  2
ENTITIES
  0
MTEXT
  5
79
330
1F
100
AcDbEntity
  8
9
 62
     7
100
AcDbMText
 10
22.9810592731
 20
14.7698939359
 30
0.0
 40
3.7041666667
 41
0.0
 71
     1
 72
     1
  1
2019/07/09
  7
SLDTEXTSTYLE0
 73
     1
 44
1.0
  0
MTEXT
  5
7A
330
1F
100
AcDbEntity
  8
9
 62
     7
100
AcDbMText
 10
22.9810592731
 20
39.3097759652
 30
0.0
 40
3.7041666667
 41
0.0
 71
     1
 72
     1
  1
AD-KH028-HL
  7
SLDTEXTSTYLE0
 73
     1
 44
1.0
  0
MTEXT
  5
7B
330
1F
100
AcDbEntity
  8
9
 62
     7
100
AcDbMText
 10
22.9810592731
 20
22.271836236
 30
0.0
 40
3.7041666667
 41
0.0
 71
     1
 72
     1
  1
-
  7
SLDTEXTSTYLE0
 73
     1
 44
1.0
  0
MTEXT
  5
7C
330
1F
100
AcDbEntity
  8
9
 62
     7
100
AcDbMText
 10
22.9810592731
 20
30.9293045781
 30
0.0
 40
3.7041666667
 41
0.0
 71
     1
 72
     1
  1
1:1
  7
SLDTEXTSTYLE0
 73
     1
 44
1.0
  0
LINE
  5
7D
330
1F
100
AcDbEntity
  8
0
  6
Continuous
 62
     7
370
    30
100
AcDbLine
 10
148.0714041096
 20
184.7455479452
 30
0.0
 11
149.4214041096
 21
180.7455479452
 31
0.0
  0
LINE
  5
7E
330
1F
100
AcDbEntity
  8
0
  6
Continuous
 62
     7
370
    30
100
AcDbLine
 10
152.2214041096
 20
180.7455479452
 30
0.0
 11
153.5714041096
 21
184.7455479452
 31
0.0
  0
LINE
  5
7F
330
1F
100
AcDbEntity
  8
0
  6
Continuous
 62
     7
370
    30
100
AcDbLine
 10
149.4214041096
 20
180.7455479452
 30
0.0
 11
152.2214041096
 21
180.7455479452
 31
0.0
  0
ARC
  5
80
330
1F
100
AcDbEntity
  8
0
  6
Continuous
 62
     7
370
    30
100
AcDbCircle
 10
185.8214041096
 20
170.2908569048
 30
0.0
 40
13.69283292115964
100
AcDbArc
 50
88.0315675336
 51
91.9684324664
  0
ARC
  5
81
330
1F
100
AcDbEntity
  8
0
  6
Continuous
 62
     7
370
    30
100
AcDbCircle
 10
196.97609515
 20
181.4455479452
 30
0.0
 40
13.69283292120341
100
AcDbArc
 50
178.0315675336
 51
181.9684324664
  0
LINE
  5
82
330
1F
100
AcDbEntity
  8
0
  6
Continuous
 62
     7
370
    30
100
AcDbLine
 10
185.3510707763
 20
180.9752146119
 30
0.0
 11
183.291342322
 21
180.9752146119
 31
0.0
  0
ARC
  5
83
330
1F
100
AcDbEntity
  8
0
  6
Continuous
 62
     7
370
    30
100
AcDbCircle
 10
185.8214041096
 20
192.6002389856
 30
0.0
 40
13.69283292120241
100
AcDbArc
 50
268.0315675336
 51
271.9684324664
  0
LINE
  5
84
330
1F
100
AcDbEntity
  8
0
  6
Continuous
 62
     7
370
    30
100
AcDbLine
 10
188.3514658972
 20
180.9752146119
 30
0.0
 11
186.2917374429
 21
180.9752146119
 31
0.0
  0
ARC
  5
85
330
1F
100
AcDbEntity
  8
0
  6
Continuous
 62
     7
370
    30
100
AcDbCircle
 10
174.6667130691
 20
181.4455479452
 30
0.0
 40
13.69283292122485
100
AcDbArc
 50
358.0315675336
 51
1.9684324664
  0
LINE
  5
86
330
1F
100
AcDbEntity
  8
0
  6
Continuous
 62
     7
370
    30
100
AcDbLine
 10
186.2917374429
 20
181.9158812785
 30
0.0
 11
188.3514658972
 21
181.9158812785
 31
0.0
  0
CIRCLE
  5
87
330
1F
100
AcDbEntity
  8
0
  6
Continuous
 62
     7
370
    30
100
AcDbCircle
 10
185.8214041096
 20
181.4455479452
 30
0.0
 40
3.931278341185191
  0
LINE
  5
88
330
1F
100
AcDbEntity
  8
0
  6
Continuous
 62
     7
370
    30
100
AcDbLine
 10
186.2917374429
 20
180.9752146119
 30
0.0
 11
186.2917374429
 21
178.9154861576
 31
0.0
  0
LINE
  5
89
330
1F
100
AcDbEntity
  8
0
  6
Continuous
 62
     7
370
    30
100
AcDbLine
 10
185.3510707763
 20
178.9154861576
 30
0.0
 11
185.3510707763
 21
180.9752146119
 31
0.0
  0
LINE
  5
8A
330
1F
100
AcDbEntity
  8
0
  6
Continuous
 62
     7
370
    30
100
AcDbLine
 10
183.291342322
 20
181.9158812785
 30
0.0
 11
185.3510707763
 21
181.9158812785
 31
0.0
  0
LINE
  5
8B
330
1F
100
AcDbEntity
  8
0
  6
Continuous
 62
     7
370
    30
100
AcDbLine
 10
186.2917374429
 20
183.9756097328
 30
0.0
 11
186.2917374429
 21
181.9158812785
 31
0.0
  0
LINE
  5
8C
330
1F
100
AcDbEntity
  8
0
  6
Continuous
 62
     7
370
    30
100
AcDbLine
 10
185.3510707763
 20
181.9158812785
 30
0.0
 11
185.3510707763
 21
183.9756097328
 31
0.0
  0
CIRCLE
  5
8D
330
1F
100
AcDbEntity
  8
0
  6
Continuous
 62
     7
370
    30
100
AcDbCircle
 10
185.8214041096
 20
181.4455479452
 30
0.0
 40
4.150000000000006
  0
LINE
  5
8E
330
1F
100
AcDbEntity
  8
0
  6
Continuous
 62
     7
370
    30
100
AcDbLine
 10
185.3510707763
 20
180.9752146119
 30
0.0
 11
185.3510707763
 21
181.9158812785
 31
0.0
  0
LINE
  5
8F
330
1F
100
AcDbEntity
  8
0
  6
Continuous
 62
     7
370
    30
100
AcDbLine
 10
186.2917374429
 20
180.9752146119
 30
0.0
 11
185.3510707763
 21
180.9752146119
 31
0.0
  0
LINE
  5
90
330
1F
100
AcDbEntity
  8
0
  6
Continuous
 62
     7
370
    30
100
AcDbLine
 10
186.2917374429
 20
181.9158812785
 30
0.0
 11
186.2917374429
 21
180.9752146119
 31
0.0
  0
LINE
  5
91
330
1F
100
AcDbEntity
  8
0
  6
Continuous
 62
     7
370
    30
100
AcDbLine
 10
185.3510707763
 20
181.9158812785
 30
0.0
 11
186.2917374429
 21
181.9158812785
 31
0.0
  0
LINE
  5
92
330
1F
100
AcDbEntity
  8
0
  6
Continuous
 62
     7
370
    30
100
AcDbLine
 10
185.8214041096
 20
181.4455479452
 30
0.0
 11
186.2917374429
 21
180.9752146119
 31
0.0
  0
LINE
  5
93
330
1F
100
AcDbEntity
  8
0
  6
Continuous
 62
     7
370
    30
100
AcDbLine
 10
185.3510707763
 20
180.9752146119
 30
0.0
 11
185.8214041096
 21
181.4455479452
 31
0.0
  0
LINE
  5
94
330
1F
100
AcDbEntity
  8
0
  6
Continuous
 62
     7
370
    30
100
AcDbLine
 10
186.2917374429
 20
181.9158812785
 30
0.0
 11
185.8214041096
 21
181.4455479452
 31
0.0
  0
LINE
  5
95
330
1F
100
AcDbEntity
  8
0
  6
Continuous
 62
     7
370
    30
100
AcDbLine
 10
185.3510707763
 20
181.9158812785
 30
0.0
 11
185.8214041096
 21
181.4455479452
 31
0.0
  0
CIRCLE
  5
96
330
1F
100
AcDbEntity
  8
0
  6
Continuous
 62
     7
370
    30
100
AcDbCircle
 10
192.8214041096
 20
162.6455479452
 30
0.0
 40
3.100000000000005
  0
LINE
  5
97
330
1F
100
AcDbEntity
  8
0
  6
Continuous
 62
     7
370
    30
100
AcDbLine
 10
108.8214041096
 20
191.9455479452
 30
0.0
 11
105.8214041096
 21
191.9455479452
 31
0.0
  0
LINE
  5
98
330
1F
100
AcDbEntity
  8
0
  6
Continuous
 62
     7
370
    30
100
AcDbLine
 10
105.8214041096
 20
191.9455479452
 30
0.0
 11
105.8214041096
 21
193.1455479452
 31
0.0
  0
LINE
  5
99
330
1F
100
AcDbEntity
  8
0
  6
Continuous
 62
     7
370
    30
100
AcDbLine
 10
105.8214041096
 20
193.1455479452
 30
0.0
 11
108.8214041096
 21
193.1455479452
 31
0.0
  0
LINE
  5
9A
330
1F
100
AcDbEntity
  8
0
  6
Continuous
 62
     7
370
    30
100
AcDbLine
 10
108.8214041096
 20
193.1455479452
 30
0.0
 11
402.8214041096
 21
193.1455479452
 31
0.0
  0
LINE
  5
9B
330
1F
100
AcDbEntity
  8
0
  6
Continuous
 62
     7
370
    30
100
AcDbLine
 10
108.8214041096
 20
191.9455479452
 30
0.0
 11
402.8214041096
 21
191.9455479452
 31
0.0
  0
LINE
  5
9C
330
1F
100
AcDbEntity
  8
0
  6
Continuous
 62
     7
370
    30
100
AcDbLine
 10
405.8214041096
 20
193.1455479452
 30
0.0
 11
405.8214041096
 21
191.9455479452
 31
0.0
  0
LINE
  5
9D
330
1F
100
AcDbEntity
  8
0
  6
Continuous
 62
     7
370
    30
100
AcDbLine
 10
405.8214041096
 20
191.9455479452
 30
0.0
 11
402.8214041096
 21
191.9455479452
 31
0.0
  0
LINE
  5
9E
330
1F
100
AcDbEntity
  8
0
  6
Continuous
 62
     7
370
    30
100
AcDbLine
 10
402.8214041096
 20
193.1455479452
 30
0.0
 11
405.8214041096
 21
193.1455479452
 31
0.0
  0
LINE
  5
9F
330
1F
100
AcDbEntity
  8
0
  6
Continuous
 62
     7
370
    30
100
AcDbLine
 10
117.8214041096
 20
121.1455479452
 30
0.0
 11
117.8214041096
 21
191.9455479452
 31
0.0
  0
LINE
  5
A0
330
1F
100
AcDbEntity
  8
0
  6
Continuous
 62
     7
370
    30
100
AcDbLine
 10
135.8214041096
 20
121.1455479452
 30
0.0
 11
117.8214041096
 21
121.1455479452
 31
0.0
  0
LINE
  5
A1
330
1F
100
AcDbEntity
  8
0
  6
Continuous
 62
     7
370
    30
100
AcDbLine
 10
156.8214041096
 20
184.7455479452
 30
0.0
 11
144.8214041096
 21
184.7455479452
 31
0.0
  0
LINE
  5
A2
330
1F
100
AcDbEntity
  8
0
  6
Continuous
 62
     7
370
    30
100
AcDbLine
 10
144.8214041096
 20
184.7455479452
 30
0.0
 11
144.8214041096
 21
185.7455479452
 31
0.0
  0
LINE
  5
A3
330
1F
100
AcDbEntity
  8
0
  6
Continuous
 62
     7
370
    30
100
AcDbLine
 10
156.8214041096
 20
185.7455479452
 30
0.0
 11
156.8214041096
 21
184.7455479452
 31
0.0
  0
LINE
  5
A4
330
1F
100
AcDbEntity
  8
0
  6
Continuous
 62
     7
370
    30
100
AcDbLine
 10
255.8214041096
 20
121.1455479452
 30
0.0
 11
255.8214041096
 21
191.9455479452
 31
0.0
  0
LINE
  5
A5
330
1F
100
AcDbEntity
  8
0
  6
Continuous
 62
     7
370
    30
100
AcDbLine
 10
143.8214041096
 20
171.2455479452
 30
0.0
 11
157.8214041096
 21
171.2455479452
 31
0.0
  0
LINE
  5
A6
330
1F
100
AcDbEntity
  8
0
  6
Continuous
 62
     7
370
    30
100
AcDbLine
 10
158.8214041096
 20
172.2455479452
 30
0.0
 11
158.8214041096
 21
185.7455479452
 31
0.0
  0
ARC
  5
A7
330
1F
100
AcDbEntity
  8
0
  6
Continuous
 62
     7
370
    30
100
AcDbCircle
 10
157.8214041096
 20
185.7455479452
 30
0.0
 40
1.0
100
AcDbArc
 50
0.0
 51
180.0
  0
ARC
  5
A8
330
1F
100
AcDbEntity
  8
0
  6
Continuous
 62
     7
370
    30
100
AcDbCircle
 10
143.8214041096
 20
185.7455479452
 30
0.0
 40
1.0
100
AcDbArc
 50
0.0
 51
180.0
  0
LINE
  5
A9
330
1F
100
AcDbEntity
  8
0
  6
Continuous
 62
     7
370
    30
100
AcDbLine
 10
255.8214041096
 20
121.1455479452
 30
0.0
 11
135.8214041096
 21
121.1455479452
 31
0.0
  0
LINE
  5
AA
330
1F
100
AcDbEntity
  8
0
  6
Continuous
 62
     7
370
    30
100
AcDbLine
 10
142.8214041096
 20
185.7455479452
 30
0.0
 11
142.8214041096
 21
172.2455479452
 31
0.0
  0
ARC
  5
AB
330
1F
100
AcDbEntity
  8
0
  6
Continuous
 62
     7
370
    30
100
AcDbCircle
 10
157.8214041096
 20
172.2455479452
 30
0.0
 40
1.0
100
AcDbArc
 50
270.0
 51
0.0
  0
ARC
  5
AC
330
1F
100
AcDbEntity
  8
0
  6
Continuous
 62
     7
370
    30
100
AcDbCircle
 10
143.8214041096
 20
172.2455479452
 30
0.0
 40
1.0
100
AcDbArc
 50
180.0
 51
270.0
  0
CIRCLE
  5
AD
330
1F
100
AcDbEntity
  8
0
  6
Continuous
 62
     7
370
    30
100
AcDbCircle
 10
185.8214041096
 20
181.4455479452
 30
0.0
 40
6.749999999999972
  0
LINE
  5
AE
330
1F
100
AcDbEntity
  8
0
  6
Continuous
 62
     7
370
    30
100
AcDbLine
 10
375.8214041096
 20
121.1455479452
 30
0.0
 11
255.7374338118
 21
121.1455479452
 31
0.0
  0
LINE
  5
AF
330
1F
100
AcDbEntity
  8
0
  6
Continuous
 62
     7
370
    30
100
AcDbLine
 10
255.7374338118
 20
121.1455479452
 30
0.0
 11
255.7374338118
 21
191.9455479452
 31
0.0
  0
LINE
  5
B0
330
1F
100
AcDbEntity
  8
0
  6
Continuous
 62
     7
370
    30
100
AcDbLine
 10
393.8214041096
 20
121.1455479452
 30
0.0
 11
393.8214041096
 21
191.9455479452
 31
0.0
  0
LINE
  5
B1
330
1F
100
AcDbEntity
  8
0
  6
Continuous
 62
     7
370
    30
100
AcDbLine
 10
393.8214041096
 20
121.1455479452
 30
0.0
 11
375.8214041096
 21
121.1455479452
 31
0.0
  0
ARC
  5
B2
330
1F
100
AcDbEntity
  8
0
  6
Continuous
 62
     7
370
    30
100
AcDbCircle
 10
136.8214041096
 20
499.2250964605
 30
0.0
 40
16.15000000000003
100
AcDbArc
 50
90.0
 51
180.0
  0
LINE
  5
B3
330
1F
100
AcDbEntity
  8
0
  6
Continuous
 62
     7
370
    30
100
AcDbLine
 10
374.8214041096
 20
515.3750964605
 30
0.0
 11
136.8214041096
 21
515.3750964605
 31
0.0
  0
ARC
  5
B4
330
1F
100
AcDbEntity
  8
0
  6
Continuous
 62
     7
370
    30
100
AcDbCircle
 10
374.8214041096
 20
499.2250964605
 30
0.0
 40
16.15000000000003
100
AcDbArc
 50
0.0
 51
90.0
  0
LINE
  5
B5
330
1F
100
AcDbEntity
  8
0
  6
Continuous
 62
     7
370
    30
100
AcDbLine
 10
390.9714041096
 20
261.2250964605
 30
0.0
 11
390.9714041096
 21
499.2250964605
 31
0.0
  0
LINE
  5
B6
330
1F
100
AcDbEntity
  8
0
  6
Continuous
 62
     7
370
    30
100
AcDbLine
 10
120.6714041096
 20
499.2250964605
 30
0.0
 11
120.6714041096
 21
261.2250964605
 31
0.0
  0
ARC
  5
B7
330
1F
100
AcDbEntity
  8
0
  6
Continuous
 62
     7
370
    30
100
AcDbCircle
 10
136.8214041096
 20
261.2250964605
 30
0.0
 40
16.15000000000002
100
AcDbArc
 50
180.0
 51
270.0
  0
ARC
  5
B8
330
1F
100
AcDbEntity
  8
0
  6
Continuous
 62
     7
370
    30
100
AcDbCircle
 10
374.8214041096
 20
261.2250964605
 30
0.0
 40
16.15000000000003
100
AcDbArc
 50
270.0
 51
0.0
  0
LINE
  5
B9
330
1F
100
AcDbEntity
  8
0
  6
Continuous
 62
     7
370
    30
100
AcDbLine
 10
136.8214041096
 20
245.0750964605
 30
0.0
 11
374.8214041096
 21
245.0750964605
 31
0.0
  0
LINE
  5
BA
330
1F
100
AcDbEntity
  8
0
  6
Continuous
 62
     7
370
    30
100
AcDbLine
 10
196.8214041096
 20
243.2250964605
 30
0.0
 11
196.8214041096
 21
245.0750964605
 31
0.0
  0
LINE
  5
BB
330
1F
100
AcDbEntity
  8
0
  6
Continuous
 62
     7
370
    30
100
AcDbLine
 10
196.8214041096
 20
515.3750964605
 30
0.0
 11
196.8214041096
 21
517.2250964605
 31
0.0
  0
ARC
  5
BC
330
1F
100
AcDbEntity
  8
0
  6
Continuous
 62
     7
370
    30
100
AcDbCircle
 10
177.0714041096
 20
516.2250964605
 30
0.0
 40
1.0
100
AcDbArc
 50
0.0
 51
90.0
  0
ARC
  5
BD
330
1F
100
AcDbEntity
  8
0
  6
Continuous
 62
     7
370
    30
100
AcDbCircle
 10
194.5714041096
 20
516.2250964605
 30
0.0
 40
1.0
100
AcDbArc
 50
90.0
 51
180.0
  0
ARC
  5
BE
330
1F
100
AcDbEntity
  8
0
  6
Continuous
 62
     7
370
    30
100
AcDbCircle
 10
194.5714041096
 20
244.2250964605
 30
0.0
 40
1.0
100
AcDbArc
 50
180.0
 51
270.0
  0
ARC
  5
BF
330
1F
100
AcDbEntity
  8
0
  6
Continuous
 62
     7
370
    30
100
AcDbCircle
 10
177.0714041096
 20
244.2250964605
 30
0.0
 40
1.0
100
AcDbArc
 50
270.0
 51
0.0
  0
LINE
  5
C0
330
1F
100
AcDbEntity
  8
0
  6
Continuous
 62
     7
370
    30
100
AcDbLine
 10
178.0714041096
 20
516.2250964605
 30
0.0
 11
178.0714041096
 21
515.7250964605
 31
0.0
  0
LINE
  5
C1
330
1F
100
AcDbEntity
  8
0
  6
Continuous
 62
     7
370
    30
100
AcDbLine
 10
193.5714041096
 20
515.7250964605
 30
0.0
 11
193.5714041096
 21
516.2250964605
 31
0.0
  0
LINE
  5
C2
330
1F
100
AcDbEntity
  8
0
  6
Continuous
 62
     7
370
    30
100
AcDbLine
 10
178.0714041096
 20
515.7250964605
 30
0.0
 11
178.0960253507
 21
515.3750964605
 31
0.0
  0
LINE
  5
C3
330
1F
100
AcDbEntity
  8
0
  6
Continuous
 62
     7
370
    30
100
AcDbLine
 10
193.5467828685
 20
515.3750964605
 30
0.0
 11
193.5714041096
 21
515.7250964605
 31
0.0
  0
LINE
  5
C4
330
1F
100
AcDbEntity
  8
0
  6
Continuous
 62
     7
370
    30
100
AcDbLine
 10
193.5714041096
 20
244.7250964605
 30
0.0
 11
193.5467828685
 21
245.0750964605
 31
0.0
  0
LINE
  5
C5
330
1F
100
AcDbEntity
  8
0
  6
Continuous
 62
     7
370
    30
100
AcDbLine
 10
178.0960253507
 20
245.0750964605
 30
0.0
 11
178.0714041096
 21
244.7250964605
 31
0.0
  0
LINE
  5
C6
330
1F
100
AcDbEntity
  8
0
  6
Continuous
 62
     7
370
    30
100
AcDbLine
 10
193.5714041096
 20
244.2250964605
 30
0.0
 11
193.5714041096
 21
244.7250964605
 31
0.0
  0
LINE
  5
C7
330
1F
100
AcDbEntity
  8
0
  6
Continuous
 62
     7
370
    30
100
AcDbLine
 10
178.0714041096
 20
244.7250964605
 30
0.0
 11
178.0714041096
 21
244.2250964605
 31
0.0
  0
ARC
  5
C8
330
1F
100
AcDbEntity
  8
0
  6
Continuous
 62
     7
370
    30
100
AcDbCircle
 10
150.8214041096
 20
511.7250964605
 30
0.0
 40
4.999999999999938
100
AcDbArc
 50
46.8863940541
 51
133.1136059459
  0
ARC
  5
C9
330
1F
100
AcDbEntity
  8
0
  6
Continuous
 62
     7
370
    30
100
AcDbCircle
 10
150.8214041096
 20
248.7250964605
 30
0.0
 40
4.999999999999996
100
AcDbArc
 50
226.8863940541
 51
313.1136059459
  0
ARC
  5
CA
330
1F
100
AcDbEntity
  8
0
  6
Continuous
 62
     7
370
    30
100
AcDbCircle
 10
375.8214041096
 20
500.2250964605
 30
0.0
 40
17.0
100
AcDbArc
 50
0.0
 51
90.0
  0
LINE
  5
CB
330
1F
100
AcDbEntity
  8
0
  6
Continuous
 62
     7
370
    30
100
AcDbLine
 10
375.8214041096
 20
517.2250964605
 30
0.0
 11
135.8214041096
 21
517.2250964605
 31
0.0
  0
ARC
  5
CC
330
1F
100
AcDbEntity
  8
0
  6
Continuous
 62
     7
370
    30
100
AcDbCircle
 10
135.8214041096
 20
500.2250964605
 30
0.0
 40
17.0
100
AcDbArc
 50
90.0
 51
180.0
  0
LINE
  5
CD
330
1F
100
AcDbEntity
  8
0
  6
Continuous
 62
     7
370
    30
100
AcDbLine
 10
118.8214041096
 20
500.2250964605
 30
0.0
 11
118.8214041096
 21
260.2250964605
 31
0.0
  0
ARC
  5
CE
330
1F
100
AcDbEntity
  8
0
  6
Continuous
 62
     7
370
    30
100
AcDbCircle
 10
135.8214041096
 20
260.2250964605
 30
0.0
 40
17.0
100
AcDbArc
 50
180.0
 51
270.0
  0
LINE
  5
CF
330
1F
100
AcDbEntity
  8
0
  6
Continuous
 62
     7
370
    30
100
AcDbLine
 10
135.8214041096
 20
243.2250964605
 30
0.0
 11
375.8214041096
 21
243.2250964605
 31
0.0
  0
ARC
  5
D0
330
1F
100
AcDbEntity
  8
0
  6
Continuous
 62
     7
370
    30
100
AcDbCircle
 10
375.8214041096
 20
260.2250964605
 30
0.0
 40
17.0
100
AcDbArc
 50
270.0
 51
0.0
  0
LINE
  5
D1
330
1F
100
AcDbEntity
  8
0
  6
Continuous
 62
     7
370
    30
100
AcDbLine
 10
392.8214041096
 20
260.2250964605
 30
0.0
 11
392.8214041096
 21
500.2250964605
 31
0.0
  0
ARC
  5
D2
330
1F
100
AcDbEntity
  8
0
  6
Continuous
 62
     7
370
    30
100
AcDbCircle
 10
402.8214041096
 20
233.2250964605
 30
0.0
 40
3.0
100
AcDbArc
 50
270.0
 51
0.0
  0
LINE
  5
D3
330
1F
100
AcDbEntity
  8
0
  6
Continuous
 62
     7
370
    30
100
AcDbLine
 10
108.8214041096
 20
230.2250964605
 30
0.0
 11
402.8214041096
 21
230.2250964605
 31
0.0
  0
ARC
  5
D4
330
1F
100
AcDbEntity
  8
0
  6
Continuous
 62
     7
370
    30
100
AcDbCircle
 10
108.8214041096
 20
233.2250964605
 30
0.0
 40
3.0
100
AcDbArc
 50
180.0
 51
270.0
  0
LINE
  5
D5
330
1F
100
AcDbEntity
  8
0
  6
Continuous
 62
     7
370
    30
100
AcDbLine
 10
105.8214041096
 20
527.2250964605
 30
0.0
 11
105.8214041096
 21
233.2250964605
 31
0.0
  0
ARC
  5
D6
330
1F
100
AcDbEntity
  8
0
  6
Continuous
 62
     7
370
    30
100
AcDbCircle
 10
402.8214041096
 20
527.2250964605
 30
0.0
 40
3.0
100
AcDbArc
 50
0.0
 51
90.0
  0
LINE
  5
D7
330
1F
100
AcDbEntity
  8
0
  6
Continuous
 62
     7
370
    30
100
AcDbLine
 10
405.8214041096
 20
233.2250964605
 30
0.0
 11
405.8214041096
 21
527.2250964605
 31
0.0
  0
LINE
  5
D8
330
1F
100
AcDbEntity
  8
0
  6
Continuous
 62
     7
370
    30
100
AcDbLine
 10
400.821404109
 20
375.0551624467
 30
0.0
 11
399.9384761493
 21
375.0551624467
 31
0.0
  0
LINE
  5
D9
330
1F
100
AcDbEntity
  8
0
  6
Continuous
 62
     7
370
    30
100
AcDbLine
 10
399.9384761493
 20
375.0551624467
 30
0.0
 11
399.9384761493
 21
373.2875068873
 31
0.0
  0
LINE
  5
DA
330
1F
100
AcDbEntity
  8
0
  6
Continuous
 62
     7
370
    30
100
AcDbLine
 10
399.9384761493
 20
373.2875068873
 30
0.0
 11
397.8214041096
 21
373.2875068873
 31
0.0
  0
LINE
  5
DB
330
1F
100
AcDbEntity
  8
0
  6
Continuous
 62
     7
370
    30
100
AcDbLine
 10
397.8214041096
 20
373.2875068873
 30
0.0
 11
397.8214041096
 21
371.8850964605
 31
0.0
  0
LINE
  5
DC
330
1F
100
AcDbEntity
  8
0
  6
Continuous
 62
     7
370
    30
100
AcDbLine
 10
397.8214041096
 20
371.8850964605
 30
0.0
 11
400.821404109
 21
371.8850964605
 31
0.0
  0
LINE
  5
DD
330
1F
100
AcDbEntity
  8
0
  6
Continuous
 62
     7
370
    30
100
AcDbLine
 10
400.821404109
 20
371.8850964605
 30
0.0
 11
400.821404109
 21
375.0551624467
 31
0.0
  0
LINE
  5
DE
330
1F
100
AcDbEntity
  8
0
  6
Continuous
 62
     7
370
    30
100
AcDbLine
 10
400.8394414106
 20
380.0638879734
 30
0.0
 11
400.8394414106
 21
381.1851864407
 31
0.0
  0
LINE
  5
DF
330
1F
100
AcDbEntity
  8
0
  6
Continuous
 62
     7
370
    30
100
AcDbLine
 10
400.8394414106
 20
381.1851864407
 30
0.0
 11
399.5955629138
 21
381.1851864407
 31
0.0
  0
LINE
  5
E0
330
1F
100
AcDbEntity
  8
0
  6
Continuous
 62
     7
370
    30
100
AcDbLine
 10
399.5955629138
 20
381.1851864407
 30
0.0
 11
399.9371264193
 21
381.3274398082
 31
0.0
  0
LINE
  5
E1
330
1F
100
AcDbEntity
  8
0
  6
Continuous
 62
     7
370
    30
100
AcDbLine
 10
399.9371264193
 20
381.3274398082
 30
0.0
 11
400.8394414106
 21
381.7619301828
 31
0.0
  0
LINE
  5
E2
330
1F
100
AcDbEntity
  8
0
  6
Continuous
 62
     7
370
    30
100
AcDbLine
 10
400.8394414106
 20
381.7619301828
 30
0.0
 11
400.8394414106
 21
382.6142642613
 31
0.0
  0
LINE
  5
E3
330
1F
100
AcDbEntity
  8
0
  6
Continuous
 62
     7
370
    30
100
AcDbLine
 10
400.8394414106
 20
382.6142642613
 30
0.0
 11
399.9371264193
 21
383.0472413021
 31
0.0
  0
LINE
  5
E4
330
1F
100
AcDbEntity
  8
0
  6
Continuous
 62
     7
370
    30
100
AcDbLine
 10
399.9371264193
 20
383.0472413021
 30
0.0
 11
399.6022297623
 21
383.2036463847
 31
0.0
  0
LINE
  5
E5
330
1F
100
AcDbEntity
  8
0
  6
Continuous
 62
     7
370
    30
100
AcDbLine
 10
399.6022297623
 20
383.2036463847
 30
0.0
 11
400.8394414106
 21
383.2036463847
 31
0.0
  0
LINE
  5
E6
330
1F
100
AcDbEntity
  8
0
  6
Continuous
 62
     7
370
    30
100
AcDbLine
 10
400.8394414106
 20
383.2036463847
 30
0.0
 11
400.8394414106
 21
384.3267853931
 31
0.0
  0
LINE
  5
E7
330
1F
100
AcDbEntity
  8
0
  6
Continuous
 62
     7
370
    30
100
AcDbLine
 10
400.8394414106
 20
384.3267853931
 30
0.0
 11
397.8756387172
 21
384.3267853931
 31
0.0
  0
LINE
  5
E8
330
1F
100
AcDbEntity
  8
0
  6
Continuous
 62
     7
370
    30
100
AcDbLine
 10
397.8756387172
 20
384.3267853931
 30
0.0
 11
397.8756387172
 21
382.9310418148
 31
0.0
  0
LINE
  5
E9
330
1F
100
AcDbEntity
  8
0
  6
Continuous
 62
     7
370
    30
100
AcDbLine
 10
397.8756387172
 20
382.9310418148
 30
0.0
 11
399.2039366937
 21
382.2933966167
 31
0.0
  0
LINE
  5
EA
330
1F
100
AcDbEntity
  8
0
  6
Continuous
 62
     7
370
    30
100
AcDbLine
 10
399.2039366937
 20
382.2933966167
 30
0.0
 11
399.4490149507
 21
382.1865634379
 31
0.0
  0
LINE
  5
EB
330
1F
100
AcDbEntity
  8
0
  6
Continuous
 62
     7
370
    30
100
AcDbLine
 10
399.4490149507
 20
382.1865634379
 30
0.0
 11
399.2039366937
 21
382.088932964
 31
0.0
  0
LINE
  5
EC
330
1F
100
AcDbEntity
  8
0
  6
Continuous
 62
     7
370
    30
100
AcDbLine
 10
399.2039366937
 20
382.088932964
 30
0.0
 11
397.8756387172
 21
381.4490791167
 31
0.0
  0
LINE
  5
ED
330
1F
100
AcDbEntity
  8
0
  6
Continuous
 62
     7
370
    30
100
AcDbLine
 10
397.8756387172
 20
381.4490791167
 30
0.0
 11
397.8756387172
 21
380.0638879734
 31
0.0
  0
LINE
  5
EE
330
1F
100
AcDbEntity
  8
0
  6
Continuous
 62
     7
370
    30
100
AcDbLine
 10
397.8756387172
 20
380.0638879734
 30
0.0
 11
400.8394414106
 21
380.0638879734
 31
0.0
  0
LINE
  5
EF
330
1F
100
AcDbEntity
  8
0
  6
Continuous
 62
     7
370
    30
100
AcDbLine
 10
400.8287662729
 20
376.3912724972
 30
0.0
 11
400.3026578584
 21
376.6381503943
 31
0.0
  0
LINE
  5
F0
330
1F
100
AcDbEntity
  8
0
  6
Continuous
 62
     7
370
    30
100
AcDbLine
 10
400.3026578584
 20
376.6381503943
 30
0.0
 11
400.3026578584
 21
378.3689133323
 31
0.0
  0
LINE
  5
F1
330
1F
100
AcDbEntity
  8
0
  6
Continuous
 62
     7
370
    30
100
AcDbLine
 10
400.3026578584
 20
378.3689133323
 30
0.0
 11
400.8287662729
 21
378.615504923
 31
0.0
  0
LINE
  5
F2
330
1F
100
AcDbEntity
  8
0
  6
Continuous
 62
     7
370
    30
100
AcDbLine
 10
400.8287662729
 20
378.615504923
 30
0.0
 11
400.8287662729
 21
379.8570929688
 31
0.0
  0
LINE
  5
F3
330
1F
100
AcDbEntity
  8
0
  6
Continuous
 62
     7
370
    30
100
AcDbLine
 10
400.8287662729
 20
379.8570929688
 30
0.0
 11
397.8214041096
 21
378.4442528098
 31
0.0
  0
LINE
  5
F4
330
1F
100
AcDbEntity
  8
0
  6
Continuous
 62
     7
370
    30
100
AcDbLine
 10
397.8214041096
 20
378.4442528098
 30
0.0
 11
397.8214041096
 21
376.5642424486
 31
0.0
  0
LINE
  5
F5
330
1F
100
AcDbEntity
  8
0
  6
Continuous
 62
     7
370
    30
100
AcDbLine
 10
397.8214041096
 20
376.5642424486
 30
0.0
 11
400.8287662729
 21
375.1514840915
 31
0.0
  0
LINE
  5
F6
330
1F
100
AcDbEntity
  8
0
  6
Continuous
 62
     7
370
    30
100
AcDbLine
 10
400.8287662729
 20
375.1514840915
 30
0.0
 11
400.8287662729
 21
376.3912724972
 31
0.0
  0
LINE
  5
F7
330
1F
100
AcDbEntity
  8
0
  6
Continuous
 62
     7
370
    30
100
AcDbLine
 10
397.8756387172
 20
387.3442909823
 30
0.0
 11
397.8756387172
 21
384.7890065851
 31
0.0
  0
LINE
  5
F8
330
1F
100
AcDbEntity
  8
0
  6
Continuous
 62
     7
370
    30
100
AcDbLine
 10
397.8756387172
 20
384.7890065851
 30
0.0
 11
400.8394414106
 21
384.7890065851
 31
0.0
  0
LINE
  5
F9
330
1F
100
AcDbEntity
  8
0
  6
Continuous
 62
     7
370
    30
100
AcDbLine
 10
400.8394414106
 20
384.7890065851
 30
0.0
 11
400.8394414106
 21
386.0649922968
 31
0.0
  0
LINE
  5
FA
330
1F
100
AcDbEntity
  8
0
  6
Continuous
 62
     7
370
    30
100
AcDbLine
 10
400.8394414106
 20
386.0649922968
 30
0.0
 11
400.3327609286
 21
386.0649922968
 31
0.0
  0
LINE
  5
FB
330
1F
100
AcDbEntity
  8
0
  6
Continuous
 62
     7
370
    30
100
AcDbLine
 10
400.3327609286
 20
386.0649922968
 30
0.0
 11
400.3327609286
 21
387.3551706245
 31
0.0
  0
SPLINE
  5
FC
330
1F
100
AcDbEntity
  8
0
  6
Continuous
 62
     7
370
    30
100
AcDbSpline
210
0.0
220
0.0
230
1.0
 70
     8
 71
     3
 72
     8
 73
     4
 74
     0
 42
0.000000001
 43
0.00000001
 40
1.0
 40
1.0
 40
1.0
 40
1.0
 40
2.0
 40
2.0
 40
2.0
 40
2.0
 10
400.3327609286468
 20
387.3551706245271
 30
0.0
 10
400.3317384058788
 20
388.0292994349978
 30
0.0
 10
399.7763040383147
 20
388.5667374018456
 30
0.0
 10
399.1034022551655
 20
388.5667374018456
 30
0.0
  0
SPLINE
  5
FD
330
1F
100
AcDbEntity
  8
0
  6
Continuous
 62
     7
370
    30
100
AcDbSpline
210
0.0
220
0.0
230
1.0
 70
     8
 71
     3
 72
     8
 73
     4
 74
     0
 42
0.000000001
 43
0.00000001
 40
0.0
 40
0.0
 40
0.0
 40
0.0
 40
1.0
 40
1.0
 40
1.0
 40
1.0
 10
399.1034022551655
 20
388.5667374018456
 30
0.0
 10
398.4295597510697
 20
388.5667374018456
 30
0.0
 10
397.8808740337743
 20
388.0183788918358
 30
0.0
 10
397.8808740337743
 20
387.3442909822758
 30
0.0
  0
LINE
  5
FE
330
1F
100
AcDbEntity
  8
0
  6
Continuous
 62
     7
370
    30
100
AcDbLine
 10
397.8808740338
 20
387.3442909823
 30
0.0
 11
397.8756387172
 21
387.3442909823
 31
0.0
  0
ARC
  5
FF
330
1F
100
AcDbEntity
  8
0
  6
Continuous
 62
     7
370
    30
100
AcDbCircle
 10
108.8214041096
 20
527.2250964605
 30
0.0
 40
3.0
100
AcDbArc
 50
90.0
 51
180.0
  0
LINE
  5
100
330
1F
100
AcDbEntity
  8
0
  6
Continuous
 62
     7
370
    30
100
AcDbLine
 10
402.8214041096
 20
530.2250964605
 30
0.0
 11
108.8214041096
 21
530.2250964605
 31
0.0
  0
LINE
  5
101
330
1F
100
AcDbEntity
  8
0
  6
Continuous
 62
     7
370
    30
100
AcDbLine
 10
399.504312982
 20
386.0649922968
 30
0.0
 11
399.504312982
 21
386.9590044033
 31
0.0
  0
LINE
  5
102
330
1F
100
AcDbEntity
  8
0
  6
Continuous
 62
     7
370
    30
100
AcDbLine
 10
398.7025324292
 20
386.0649922968
 30
0.0
 11
399.504312982
 21
386.0649922968
 31
0.0
  0
LINE
  5
103
330
1F
100
AcDbEntity
  8
0
  6
Continuous
 62
     7
370
    30
100
AcDbLine
 10
398.7025324292
 20
386.9587998987
 30
0.0
 11
398.7025324292
 21
386.0649922968
 31
0.0
  0
SPLINE
  5
104
330
1F
100
AcDbEntity
  8
0
  6
Continuous
 62
     7
370
    30
100
AcDbSpline
210
0.0
220
0.0
230
1.0
 70
     8
 71
     3
 72
     8
 73
     4
 74
     0
 42
0.000000001
 43
0.00000001
 40
1.0
 40
1.0
 40
1.0
 40
1.0
 40
2.0
 40
2.0
 40
2.0
 40
2.0
 10
399.1034022551655
 20
387.355170624527
 30
0.0
 10
398.8820056254434
 20
387.355170624527
 30
0.0
 10
398.7025324292084
 20
387.1768835547028
 30
0.0
 10
398.7025324292084
 20
386.9587998987491
 30
0.0
  0
SPLINE
  5
105
330
1F
100
AcDbEntity
  8
0
  6
Continuous
 62
     7
370
    30
100
AcDbSpline
210
0.0
220
0.0
230
1.0
 70
     8
 71
     3
 72
     8
 73
     4
 74
     0
 42
0.000000001
 43
0.00000001
 40
0.0
 40
0.0
 40
0.0
 40
0.0
 40
1.0
 40
1.0
 40
1.0
 40
1.0
 10
399.5043129820332
 20
386.9590044033027
 30
0.0
 10
399.4968281153717
 20
387.1777015729173
 30
0.0
 10
399.3198498746905
 20
387.3551706245271
 30
0.0
 10
399.1034022551655
 20
387.355170624527
 30
0.0
  0
LINE
  5
106
330
1F
100
AcDbEntity
  8
0
  6
Continuous
 62
     7
370
    30
100
AcDbLine
 10
399.5086075777
 20
377.0120256192
 30
0.0
 11
399.5086075777
 21
377.9967559456
 31
0.0
  0
LINE
  5
107
330
1F
100
AcDbEntity
  8
0
  6
Continuous
 62
     7
370
    30
100
AcDbLine
 10
398.4623622815
 20
377.504595287
 30
0.0
 11
399.5086075777
 21
377.0120256192
 31
0.0
  0
LINE
  5
108
330
1F
100
AcDbEntity
  8
0
  6
Continuous
 62
     7
370
    30
100
AcDbLine
 10
399.5086075777
 20
377.9967559456
 30
0.0
 11
398.4623622815
 21
377.504595287
 31
0.0
  0
LINE
  5
109
330
1F
100
AcDbEntity
  8
0
  6
Continuous
 62
     7
370
    30
100
AcDbLine
 10
144.8214041096
 20
515.3750964605
 30
0.0
 11
144.8214041096
 21
517.2250964605
 31
0.0
  0
LINE
  5
10A
330
1F
100
AcDbEntity
  8
0
  6
Continuous
 62
     7
370
    30
100
AcDbLine
 10
156.8214041096
 20
515.3750964605
 30
0.0
 11
156.8214041096
 21
517.2250964605
 31
0.0
  0
LINE
  5
10B
330
1F
100
AcDbEntity
  8
0
  6
Continuous
 62
     7
370
    30
100
AcDbLine
 10
156.8214041096
 20
245.0750964605
 30
0.0
 11
156.8214041096
 21
243.2250964605
 31
0.0
  0
LINE
  5
10C
330
1F
100
AcDbEntity
  8
0
  6
Continuous
 62
     7
370
    30
100
AcDbLine
 10
144.8214041096
 20
245.0750964605
 30
0.0
 11
144.8214041096
 21
243.2250964605
 31
0.0
  0
LINE
  5
10D
330
1F
100
AcDbEntity
  8
0
  6
Continuous
 62
     7
370
    30
100
AcDbLine
 10
179.8214041096
 20
38.0250463195
 30
0.0
 11
180.0214041096
 21
37.8250463195
 31
0.0
  0
LINE
  5
10E
330
1F
100
AcDbEntity
  8
0
  6
Continuous
 62
     7
370
    30
100
AcDbLine
 10
191.6214041096
 20
37.8250463195
 30
0.0
 11
191.8214041096
 21
38.0250463195
 31
0.0
  0
LINE
  5
10F
330
1F
100
AcDbEntity
  8
0
  6
Continuous
 62
     7
370
    30
100
AcDbLine
 10
191.8214041096
 20
38.0250463195
 30
0.0
 11
191.8214041096
 21
42.1250463195
 31
0.0
  0
LINE
  5
110
330
1F
100
AcDbEntity
  8
0
  6
Continuous
 62
     7
370
    30
100
AcDbLine
 10
179.8214041096
 20
42.1250463195
 30
0.0
 11
179.8214041096
 21
38.0250463195
 31
0.0
  0
LINE
  5
111
330
1F
100
AcDbEntity
  8
0
  6
Continuous
 62
     7
370
    30
100
AcDbLine
 10
190.8214041096
 20
42.1250463195
 30
0.0
 11
190.8214041096
 21
42.5750463195
 31
0.0
  0
LINE
  5
112
330
1F
100
AcDbEntity
  8
0
  6
Continuous
 62
     7
370
    30
100
AcDbLine
 10
180.8214041096
 20
42.5750463195
 30
0.0
 11
180.8214041096
 21
42.1250463195
 31
0.0
  0
LINE
  5
113
330
1F
100
AcDbEntity
  8
0
  6
Continuous
 62
     7
370
    30
100
AcDbLine
 10
181.0169008368
 20
56.3250463195
 30
0.0
 11
180.8292588888
 21
45.5750463195
 31
0.0
  0
LINE
  5
114
330
1F
100
AcDbEntity
  8
0
  6
Continuous
 62
     7
370
    30
100
AcDbLine
 10
190.8135493304
 20
45.5750463195
 30
0.0
 11
190.6957276421
 21
52.3250463195
 31
0.0
  0
LINE
  5
115
330
1F
100
AcDbEntity
  8
0
  6
Continuous
 62
     7
370
    30
100
AcDbLine
 10
179.8214041096
 20
-191.3749536805
 30
0.0
 11
179.8214041096
 21
-195.4749536805
 31
0.0
  0
LINE
  5
116
330
1F
100
AcDbEntity
  8
0
  6
Continuous
 62
     7
370
    30
100
AcDbLine
 10
191.8214041096
 20
-195.4749536805
 30
0.0
 11
191.8214041096
 21
-191.3749536805
 31
0.0
  0
LINE
  5
117
330
1F
100
AcDbEntity
  8
0
  6
Continuous
 62
     7
370
    30
100
AcDbLine
 10
191.8214041096
 20
-191.3749536805
 30
0.0
 11
191.6214041096
 21
-191.1749536805
 31
0.0
  0
LINE
  5
118
330
1F
100
AcDbEntity
  8
0
  6
Continuous
 62
     7
370
    30
100
AcDbLine
 10
180.0214041096
 20
-191.1749536805
 30
0.0
 11
179.8214041096
 21
-191.3749536805
 31
0.0
  0
LINE
  5
119
330
1F
100
AcDbEntity
  8
0
  6
Continuous
 62
     7
370
    30
100
AcDbLine
 10
180.8214041096
 20
-195.4749536805
 30
0.0
 11
180.8214041096
 21
-195.9249536805
 31
0.0
  0
LINE
  5
11A
330
1F
100
AcDbEntity
  8
0
  6
Continuous
 62
     7
370
    30
100
AcDbLine
 10
190.8214041096
 20
-195.9249536805
 30
0.0
 11
190.8214041096
 21
-195.4749536805
 31
0.0
  0
LINE
  5
11B
330
1F
100
AcDbEntity
  8
0
  6
Continuous
 62
     7
370
    30
100
AcDbLine
 10
190.6957276421
 20
-205.6749536805
 30
0.0
 11
190.8135493304
 21
-198.9249536805
 31
0.0
  0
LINE
  5
11C
330
1F
100
AcDbEntity
  8
0
  6
Continuous
 62
     7
370
    30
100
AcDbLine
 10
180.8292588888
 20
-198.9249536805
 30
0.0
 11
181.0169008368
 21
-209.6749536805
 31
0.0
  0
LINE
  5
11D
330
1F
100
AcDbEntity
  8
0
  6
Continuous
 62
     7
370
    30
100
AcDbLine
 10
136.4714041096
 20
-199.6749536805
 30
0.0
 11
136.6901257684
 21
-202.1749536805
 31
0.0
  0
LINE
  5
11E
330
1F
100
AcDbEntity
  8
0
  6
Continuous
 62
     7
370
    30
100
AcDbLine
 10
144.5526824508
 20
-202.1749536805
 30
0.0
 11
144.7714041096
 21
-199.6749536805
 31
0.0
  0
ARC
  5
11F
330
1F
100
AcDbEntity
  8
0
  6
Continuous
 62
     7
370
    30
100
AcDbCircle
 10
140.6214041096
 20
-192.9156103081
 30
0.0
 40
10.05934337242004
100
AcDbArc
 50
284.6146510994
 51
293.0048249406
  0
ARC
  5
120
330
1F
100
AcDbEntity
  8
0
  6
Continuous
 62
     7
370
    30
100
AcDbCircle
 10
140.6214041096
 20
-192.9156103081
 30
0.0
 40
10.05934337242007
100
AcDbArc
 50
246.9951750594
 51
255.3853489006
  0
LINE
  5
121
330
1F
100
AcDbEntity
  8
0
  6
Continuous
 62
     7
370
    30
100
AcDbLine
 10
144.7714041096
 20
46.3250463195
 30
0.0
 11
144.5526824508
 21
48.8250463195
 31
0.0
  0
LINE
  5
122
330
1F
100
AcDbEntity
  8
0
  6
Continuous
 62
     7
370
    30
100
AcDbLine
 10
136.6901257684
 20
48.8250463195
 30
0.0
 11
136.4714041096
 21
46.3250463195
 31
0.0
  0
ARC
  5
123
330
1F
100
AcDbEntity
  8
0
  6
Continuous
 62
     7
370
    30
100
AcDbCircle
 10
140.6214041096
 20
39.565702947
 30
0.0
 40
10.05934337242007
100
AcDbArc
 50
104.6146510994
 51
113.0048249406
  0
ARC
  5
124
330
1F
100
AcDbEntity
  8
0
  6
Continuous
 62
     7
370
    30
100
AcDbCircle
 10
140.6214041096
 20
39.565702947
 30
0.0
 40
10.05934337242008
100
AcDbArc
 50
66.9951750594
 51
75.3853489006
  0
LINE
  5
125
330
1F
100
AcDbEntity
  8
0
  6
Continuous
 62
     7
370
    30
100
AcDbLine
 10
165.3095449286
 20
-200.1749536805
 30
0.0
 11
165.3095449286
 21
-199.6749536805
 31
0.0
  0
LINE
  5
126
330
1F
100
AcDbEntity
  8
0
  6
Continuous
 62
     7
370
    30
100
AcDbLine
 10
157.3095449286
 20
-199.6749536805
 30
0.0
 11
157.3095449286
 21
-200.1749536805
 31
0.0
  0
LINE
  5
127
330
1F
100
AcDbEntity
  8
0
  6
Continuous
 62
     7
370
    30
100
AcDbLine
 10
164.0595449286
 20
-200.8749536805
 30
0.0
 11
164.0595449286
 21
-200.1749536805
 31
0.0
  0
LINE
  5
128
330
1F
100
AcDbEntity
  8
0
  6
Continuous
 62
     7
370
    30
100
AcDbLine
 10
158.5595449286
 20
-200.1749536805
 30
0.0
 11
158.5595449286
 21
-200.8749536805
 31
0.0
  0
LINE
  5
129
330
1F
100
AcDbEntity
  8
0
  6
Continuous
 62
     7
370
    30
100
AcDbLine
 10
158.5595449286
 20
-200.8749536805
 30
0.0
 11
158.6227932163
 21
-201.5978849162
 31
0.0
  0
LINE
  5
12A
330
1F
100
AcDbEntity
  8
0
  6
Continuous
 62
     7
370
    30
100
AcDbLine
 10
163.996296641
 20
-201.5978849162
 30
0.0
 11
164.0595449286
 21
-200.8749536805
 31
0.0
  0
ARC
  5
12B
330
1F
100
AcDbEntity
  8
0
  6
Continuous
 62
     7
370
    30
100
AcDbCircle
 10
159.1208905653
 20
-201.5543070448
 30
0.0
 40
0.5000000000000383
100
AcDbArc
 50
185.0
 51
229.954124612
  0
ARC
  5
12C
330
1F
100
AcDbEntity
  8
0
  6
Continuous
 62
     7
370
    30
100
AcDbCircle
 10
163.498199292
 20
-201.5543070448
 30
0.0
 40
0.5000000000000157
100
AcDbArc
 50
310.045875388
 51
355.0
  0
ARC
  5
12D
330
1F
100
AcDbEntity
  8
0
  6
Continuous
 62
     7
370
    30
100
AcDbCircle
 10
161.244862256
 20
-198.8732470241
 30
0.0
 40
4.002229380270839
100
AcDbArc
 50
291.3149735202
 51
310.045875388
  0
ARC
  5
12E
330
1F
100
AcDbEntity
  8
0
  6
Continuous
 62
     7
370
    30
100
AcDbCircle
 10
161.3742276012
 20
-198.8732470241
 30
0.0
 40
4.002229380270874
100
AcDbArc
 50
229.954124612
 51
248.7344010659
  0
LINE
  5
12F
330
1F
100
AcDbEntity
  8
0
  6
Continuous
 62
     7
370
    30
100
AcDbLine
 10
131.8214041096
 20
-200.1749536805
 30
0.0
 11
131.8214041096
 21
-199.6749536805
 31
0.0
  0
LINE
  5
130
330
1F
100
AcDbEntity
  8
0
  6
Continuous
 62
     7
370
    30
100
AcDbLine
 10
123.8214041096
 20
-199.6749536805
 30
0.0
 11
123.8214041096
 21
-200.1749536805
 31
0.0
  0
LINE
  5
131
330
1F
100
AcDbEntity
  8
0
  6
Continuous
 62
     7
370
    30
100
AcDbLine
 10
125.0714041096
 20
-200.8749536805
 30
0.0
 11
125.1346523972
 21
-201.5978849162
 31
0.0
  0
LINE
  5
132
330
1F
100
AcDbEntity
  8
0
  6
Continuous
 62
     7
370
    30
100
AcDbLine
 10
130.508155822
 20
-201.5978849162
 30
0.0
 11
130.5714041096
 21
-200.8749536805
 31
0.0
  0
LINE
  5
133
330
1F
100
AcDbEntity
  8
0
  6
Continuous
 62
     7
370
    30
100
AcDbLine
 10
130.5714041096
 20
-200.8749536805
 30
0.0
 11
130.5714041096
 21
-200.1749536805
 31
0.0
  0
LINE
  5
134
330
1F
100
AcDbEntity
  8
0
  6
Continuous
 62
     7
370
    30
100
AcDbLine
 10
125.0714041096
 20
-200.1749536805
 30
0.0
 11
125.0714041096
 21
-200.8749536805
 31
0.0
  0
ARC
  5
135
330
1F
100
AcDbEntity
  8
0
  6
Continuous
 62
     7
370
    30
100
AcDbCircle
 10
125.6327497463
 20
-201.5543070448
 30
0.0
 40
0.5000000000000383
100
AcDbArc
 50
185.0
 51
229.954124612
  0
ARC
  5
136
330
1F
100
AcDbEntity
  8
0
  6
Continuous
 62
     7
370
    30
100
AcDbCircle
 10
130.0100584729
 20
-201.5543070448
 30
0.0
 40
0.5000000000000383
100
AcDbArc
 50
310.045875388
 51
355.0
  0
ARC
  5
137
330
1F
100
AcDbEntity
  8
0
  6
Continuous
 62
     7
370
    30
100
AcDbCircle
 10
127.756721437
 20
-198.8732470241
 30
0.0
 40
4.002229380270854
100
AcDbArc
 50
291.3149735202
 51
310.045875388
  0
ARC
  5
138
330
1F
100
AcDbEntity
  8
0
  6
Continuous
 62
     7
370
    30
100
AcDbCircle
 10
127.8860867822
 20
-198.8732470241
 30
0.0
 40
4.002229380270848
100
AcDbArc
 50
229.954124612
 51
248.7344010659
  0
LINE
  5
139
330
1F
100
AcDbEntity
  8
0
  6
Continuous
 62
     7
370
    30
100
AcDbLine
 10
123.8214041096
 20
46.8250463195
 30
0.0
 11
123.8214041096
 21
46.3250463195
 31
0.0
  0
LINE
  5
13A
330
1F
100
AcDbEntity
  8
0
  6
Continuous
 62
     7
370
    30
100
AcDbLine
 10
131.8214041096
 20
46.3250463195
 30
0.0
 11
131.8214041096
 21
46.8250463195
 31
0.0
  0
LINE
  5
13B
330
1F
100
AcDbEntity
  8
0
  6
Continuous
 62
     7
370
    30
100
AcDbLine
 10
125.0714041096
 20
47.5250463195
 30
0.0
 11
125.0714041096
 21
46.8250463195
 31
0.0
  0
LINE
  5
13C
330
1F
100
AcDbEntity
  8
0
  6
Continuous
 62
     7
370
    30
100
AcDbLine
 10
130.5714041096
 20
46.8250463195
 30
0.0
 11
130.5714041096
 21
47.5250463195
 31
0.0
  0
LINE
  5
13D
330
1F
100
AcDbEntity
  8
0
  6
Continuous
 62
     7
370
    30
100
AcDbLine
 10
130.5714041096
 20
47.5250463195
 30
0.0
 11
130.508155822
 21
48.2479775551
 31
0.0
  0
LINE
  5
13E
330
1F
100
AcDbEntity
  8
0
  6
Continuous
 62
     7
370
    30
100
AcDbLine
 10
125.1346523972
 20
48.2479775551
 30
0.0
 11
125.0714041096
 21
47.5250463195
 31
0.0
  0
ARC
  5
13F
330
1F
100
AcDbEntity
  8
0
  6
Continuous
 62
     7
370
    30
100
AcDbCircle
 10
130.0100584729
 20
48.2043996837
 30
0.0
 40
0.5000000000000395
100
AcDbArc
 50
5.0
 51
49.954124612
  0
ARC
  5
140
330
1F
100
AcDbEntity
  8
0
  6
Continuous
 62
     7
370
    30
100
AcDbCircle
 10
125.6327497463
 20
48.2043996837
 30
0.0
 40
0.5000000000000395
100
AcDbArc
 50
130.045875388
 51
175.0
  0
ARC
  5
141
330
1F
100
AcDbEntity
  8
0
  6
Continuous
 62
     7
370
    30
100
AcDbCircle
 10
127.8860867822
 20
45.523339663
 30
0.0
 40
4.002229380270867
100
AcDbArc
 50
111.3149735202
 51
130.045875388
  0
ARC
  5
142
330
1F
100
AcDbEntity
  8
0
  6
Continuous
 62
     7
370
    30
100
AcDbCircle
 10
127.756721437
 20
45.523339663
 30
0.0
 40
4.002229380270863
100
AcDbArc
 50
49.954124612
 51
68.7344010659
  0
LINE
  5
143
330
1F
100
AcDbEntity
  8
0
  6
Continuous
 62
     7
370
    30
100
AcDbLine
 10
157.3095449286
 20
46.8250463195
 30
0.0
 11
157.3095449286
 21
46.3250463195
 31
0.0
  0
LINE
  5
144
330
1F
100
AcDbEntity
  8
0
  6
Continuous
 62
     7
370
    30
100
AcDbLine
 10
165.3095449286
 20
46.3250463195
 30
0.0
 11
165.3095449286
 21
46.8250463195
 31
0.0
  0
LINE
  5
145
330
1F
100
AcDbEntity
  8
0
  6
Continuous
 62
     7
370
    30
100
AcDbLine
 10
164.0595449286
 20
47.5250463195
 30
0.0
 11
163.996296641
 21
48.2479775551
 31
0.0
  0
LINE
  5
146
330
1F
100
AcDbEntity
  8
0
  6
Continuous
 62
     7
370
    30
100
AcDbLine
 10
158.6227932163
 20
48.2479775551
 30
0.0
 11
158.5595449286
 21
47.5250463195
 31
0.0
  0
LINE
  5
147
330
1F
100
AcDbEntity
  8
0
  6
Continuous
 62
     7
370
    30
100
AcDbLine
 10
158.5595449286
 20
47.5250463195
 30
0.0
 11
158.5595449286
 21
46.8250463195
 31
0.0
  0
LINE
  5
148
330
1F
100
AcDbEntity
  8
0
  6
Continuous
 62
     7
370
    30
100
AcDbLine
 10
164.0595449286
 20
46.8250463195
 30
0.0
 11
164.0595449286
 21
47.5250463195
 31
0.0
  0
ARC
  5
149
330
1F
100
AcDbEntity
  8
0
  6
Continuous
 62
     7
370
    30
100
AcDbCircle
 10
163.498199292
 20
48.2043996837
 30
0.0
 40
0.5000000000000374
100
AcDbArc
 50
5.0
 51
49.954124612
  0
ARC
  5
14A
330
1F
100
AcDbEntity
  8
0
  6
Continuous
 62
     7
370
    30
100
AcDbCircle
 10
159.1208905653
 20
48.2043996837
 30
0.0
 40
0.5000000000000389
100
AcDbArc
 50
130.045875388
 51
175.0
  0
ARC
  5
14B
330
1F
100
AcDbEntity
  8
0
  6
Continuous
 62
     7
370
    30
100
AcDbCircle
 10
161.3742276012
 20
45.523339663
 30
0.0
 40
4.002229380270872
100
AcDbArc
 50
111.3149735202
 51
130.045875388
  0
ARC
  5
14C
330
1F
100
AcDbEntity
  8
0
  6
Continuous
 62
     7
370
    30
100
AcDbCircle
 10
161.244862256
 20
45.523339663
 30
0.0
 40
4.002229380270857
100
AcDbArc
 50
49.954124612
 51
68.7344010659
  0
LINE
  5
14D
330
1F
100
AcDbEntity
  8
0
  6
Continuous
 62
     7
370
    30
100
AcDbLine
 10
166.3281807991
 20
-198.6749536805
 30
0.0
 11
166.3281807991
 21
-197.4749536805
 31
0.0
  0
LINE
  5
14E
330
1F
100
AcDbEntity
  8
0
  6
Continuous
 62
     7
370
    30
100
AcDbLine
 10
166.3281807991
 20
44.1250463195
 30
0.0
 11
166.3281807991
 21
45.3250463195
 31
0.0
  0
LINE
  5
14F
330
1F
100
AcDbEntity
  8
0
  6
Continuous
 62
     7
370
    30
100
AcDbLine
 10
179.6714041096
 20
-196.9249536805
 30
0.0
 11
179.6714041096
 21
-198.9249536805
 31
0.0
  0
LINE
  5
150
330
1F
100
AcDbEntity
  8
0
  6
Continuous
 62
     7
370
    30
100
AcDbLine
 10
191.9714041096
 20
-198.9249536805
 30
0.0
 11
191.9714041096
 21
-196.9249536805
 31
0.0
  0
LINE
  5
151
330
1F
100
AcDbEntity
  8
0
  6
Continuous
 62
     7
370
    30
100
AcDbLine
 10
191.9714041096
 20
43.5750463195
 30
0.0
 11
191.9714041096
 21
45.5750463195
 31
0.0
  0
LINE
  5
152
330
1F
100
AcDbEntity
  8
0
  6
Continuous
 62
     7
370
    30
100
AcDbLine
 10
179.6714041096
 20
45.5750463195
 30
0.0
 11
179.6714041096
 21
43.5750463195
 31
0.0
  0
ARC
  5
153
330
1F
100
AcDbEntity
  8
0
  6
Continuous
 62
     7
370
    30
100
AcDbCircle
 10
374.8214041096
 20
-195.6749536805
 30
0.0
 40
16.15000000000003
100
AcDbArc
 50
270.0
 51
0.0
  0
ARC
  5
154
330
1F
100
AcDbEntity
  8
0
  6
Continuous
 62
     7
370
    30
100
AcDbCircle
 10
136.8214041096
 20
-195.6749536805
 30
0.0
 40
16.15000000000002
100
AcDbArc
 50
180.0
 51
270.0
  0
LINE
  5
155
330
1F
100
AcDbEntity
  8
0
  6
Continuous
 62
     7
370
    30
100
AcDbLine
 10
136.8214041096
 20
-211.8249536805
 30
0.0
 11
144.8214041096
 21
-211.8249536805
 31
0.0
  0
LINE
  5
156
330
1F
100
AcDbEntity
  8
0
  6
Continuous
 62
     7
370
    30
100
AcDbLine
 10
156.8214041096
 20
-211.8249536805
 30
0.0
 11
178.0960253507
 21
-211.8249536805
 31
0.0
  0
LINE
  5
157
330
1F
100
AcDbEntity
  8
0
  6
Continuous
 62
     7
370
    30
100
AcDbLine
 10
196.8214041096
 20
-211.8249536805
 30
0.0
 11
374.8214041096
 21
-211.8249536805
 31
0.0
  0
LINE
  5
158
330
1F
100
AcDbEntity
  8
0
  6
Continuous
 62
     7
370
    30
100
AcDbLine
 10
120.6714041096
 20
42.3250463195
 30
0.0
 11
120.6714041096
 21
-195.6749536805
 31
0.0
  0
LINE
  5
159
330
1F
100
AcDbEntity
  8
0
  6
Continuous
 62
     7
370
    30
100
AcDbLine
 10
390.9714041096
 20
-195.6749536805
 30
0.0
 11
390.9714041096
 21
42.3250463195
 31
0.0
  0
ARC
  5
15A
330
1F
100
AcDbEntity
  8
0
  6
Continuous
 62
     7
370
    30
100
AcDbCircle
 10
374.8214041096
 20
42.3250463195
 30
0.0
 40
16.15000000000003
100
AcDbArc
 50
0.0
 51
90.0
  0
ARC
  5
15B
330
1F
100
AcDbEntity
  8
0
  6
Continuous
 62
     7
370
    30
100
AcDbCircle
 10
136.8214041096
 20
42.3250463195
 30
0.0
 40
16.15000000000004
100
AcDbArc
 50
90.0
 51
180.0
  0
LINE
  5
15C
330
1F
100
AcDbEntity
  8
0
  6
Continuous
 62
     7
370
    30
100
AcDbLine
 10
374.8214041096
 20
58.4750463195
 30
0.0
 11
196.8214041096
 21
58.4750463195
 31
0.0
  0
LINE
  5
15D
330
1F
100
AcDbEntity
  8
0
  6
Continuous
 62
     7
370
    30
100
AcDbLine
 10
178.0960253507
 20
58.4750463195
 30
0.0
 11
156.8214041096
 21
58.4750463195
 31
0.0
  0
LINE
  5
15E
330
1F
100
AcDbEntity
  8
0
  6
Continuous
 62
     7
370
    30
100
AcDbLine
 10
144.8214041096
 20
58.4750463195
 30
0.0
 11
136.8214041096
 21
58.4750463195
 31
0.0
  0
LINE
  5
15F
330
1F
100
AcDbEntity
  8
0
  6
Continuous
 62
     7
370
    30
100
AcDbLine
 10
188.8214041096
 20
60.3250463195
 30
0.0
 11
188.8214041096
 21
52.8250463195
 31
0.0
  0
LINE
  5
160
330
1F
100
AcDbEntity
  8
0
  6
Continuous
 62
     7
370
    30
100
AcDbLine
 10
196.8214041096
 20
52.8250463195
 30
0.0
 11
196.8214041096
 21
60.3250463195
 31
0.0
  0
LINE
  5
161
330
1F
100
AcDbEntity
  8
0
  6
Continuous
 62
     7
370
    30
100
AcDbLine
 10
188.8214041096
 20
52.8250463195
 30
0.0
 11
189.3214041096
 21
52.3250463195
 31
0.0
  0
LINE
  5
162
330
1F
100
AcDbEntity
  8
0
  6
Continuous
 62
     7
370
    30
100
AcDbLine
 10
196.3214041096
 20
52.3250463195
 30
0.0
 11
196.8214041096
 21
52.8250463195
 31
0.0
  0
LINE
  5
163
330
1F
100
AcDbEntity
  8
0
  6
Continuous
 62
     7
370
    30
100
AcDbLine
 10
195.9214041096
 20
61.3250463195
 30
0.0
 11
195.9214041096
 21
61.4250463195
 31
0.0
  0
LINE
  5
164
330
1F
100
AcDbEntity
  8
0
  6
Continuous
 62
     7
370
    30
100
AcDbLine
 10
189.7214041096
 20
61.4250463195
 30
0.0
 11
189.7214041096
 21
61.3250463195
 31
0.0
  0
ARC
  5
165
330
1F
100
AcDbEntity
  8
0
  6
Continuous
 62
     7
370
    30
100
AcDbCircle
 10
189.9214041096
 20
61.4250463195
 30
0.0
 40
0.2000000000000171
100
AcDbArc
 50
90.0
 51
180.0
  0
ARC
  5
166
330
1F
100
AcDbEntity
  8
0
  6
Continuous
 62
     7
370
    30
100
AcDbCircle
 10
195.7214041096
 20
61.4250463195
 30
0.0
 40
0.1999999999999886
100
AcDbArc
 50
0.0
 51
90.0
  0
LINE
  5
167
330
1F
100
AcDbEntity
  8
0
  6
Continuous
 62
     7
370
    30
100
AcDbLine
 10
196.8214041096
 20
-213.6749536805
 30
0.0
 11
196.8214041096
 21
-206.1749536805
 31
0.0
  0
LINE
  5
168
330
1F
100
AcDbEntity
  8
0
  6
Continuous
 62
     7
370
    30
100
AcDbLine
 10
188.8214041096
 20
-206.1749536805
 30
0.0
 11
188.8214041096
 21
-213.6749536805
 31
0.0
  0
LINE
  5
169
330
1F
100
AcDbEntity
  8
0
  6
Continuous
 62
     7
370
    30
100
AcDbLine
 10
196.8214041096
 20
-206.1749536805
 30
0.0
 11
196.3214041096
 21
-205.6749536805
 31
0.0
  0
LINE
  5
16A
330
1F
100
AcDbEntity
  8
0
  6
Continuous
 62
     7
370
    30
100
AcDbLine
 10
189.3214041096
 20
-205.6749536805
 30
0.0
 11
188.8214041096
 21
-206.1749536805
 31
0.0
  0
ARC
  5
16B
330
1F
100
AcDbEntity
  8
0
  6
Continuous
 62
     7
370
    30
100
AcDbCircle
 10
195.7214041096
 20
-214.7749536805
 30
0.0
 40
0.1999999999999886
100
AcDbArc
 50
270.0
 51
0.0
  0
ARC
  5
16C
330
1F
100
AcDbEntity
  8
0
  6
Continuous
 62
     7
370
    30
100
AcDbCircle
 10
189.9214041096
 20
-214.7749536805
 30
0.0
 40
0.2000000000000171
100
AcDbArc
 50
180.0
 51
270.0
  0
LINE
  5
16D
330
1F
100
AcDbEntity
  8
0
  6
Continuous
 62
     7
370
    30
100
AcDbLine
 10
189.7214041096
 20
-214.6749536805
 30
0.0
 11
189.7214041096
 21
-214.7749536805
 31
0.0
  0
LINE
  5
16E
330
1F
100
AcDbEntity
  8
0
  6
Continuous
 62
     7
370
    30
100
AcDbLine
 10
195.9214041096
 20
-214.7749536805
 30
0.0
 11
195.9214041096
 21
-214.6749536805
 31
0.0
  0
ARC
  5
16F
330
1F
100
AcDbEntity
  8
0
  6
Continuous
 62
     7
370
    30
100
AcDbCircle
 10
177.0714041096
 20
-212.6749536805
 30
0.0
 40
1.0
100
AcDbArc
 50
270.0
 51
0.0
  0
ARC
  5
170
330
1F
100
AcDbEntity
  8
0
  6
Continuous
 62
     7
370
    30
100
AcDbCircle
 10
177.0714041096
 20
59.3250463195
 30
0.0
 40
1.0
100
AcDbArc
 50
0.0
 51
90.0
  0
LINE
  5
171
330
1F
100
AcDbEntity
  8
0
  6
Continuous
 62
     7
370
    30
100
AcDbLine
 10
178.0714041096
 20
-212.1749536805
 30
0.0
 11
178.0714041096
 21
-212.6749536805
 31
0.0
  0
ARC
  5
172
330
1F
100
AcDbEntity
  8
0
  6
Continuous
 62
     7
370
    30
100
AcDbCircle
 10
180.5714041096
 20
-212.1749536805
 30
0.0
 40
2.5
100
AcDbArc
 50
90.0
 51
180.0
  0
ARC
  5
173
330
1F
100
AcDbEntity
  8
0
  6
Continuous
 62
     7
370
    30
100
AcDbCircle
 10
180.5714041096
 20
58.8250463195
 30
0.0
 40
2.5
100
AcDbArc
 50
180.0
 51
270.0
  0
LINE
  5
174
330
1F
100
AcDbEntity
  8
0
  6
Continuous
 62
     7
370
    30
100
AcDbLine
 10
178.0714041096
 20
59.3250463195
 30
0.0
 11
178.0714041096
 21
58.8250463195
 31
0.0
  0
CIRCLE
  5
175
330
1F
100
AcDbEntity
  8
0
  6
Continuous
 62
     7
370
    30
100
AcDbCircle
 10
150.8214041096
 20
-208.1749536805
 30
0.0
 40
2.75
  0
CIRCLE
  5
176
330
1F
100
AcDbEntity
  8
0
  6
Continuous
 62
     7
370
    30
100
AcDbCircle
 10
150.8214041096
 20
-208.1749536805
 30
0.0
 40
1.400000000000006
  0
CIRCLE
  5
177
330
1F
100
AcDbEntity
  8
0
  6
Continuous
 62
     7
370
    30
100
AcDbCircle
 10
150.8214041096
 20
-208.1749536805
 30
0.0
 40
1.0
  0
CIRCLE
  5
178
330
1F
100
AcDbEntity
  8
0
  6
Continuous
 62
     7
370
    30
100
AcDbCircle
 10
150.8214041096
 20
54.8250463195
 30
0.0
 40
2.75
  0
CIRCLE
  5
179
330
1F
100
AcDbEntity
  8
0
  6
Continuous
 62
     7
370
    30
100
AcDbCircle
 10
150.8214041096
 20
54.8250463195
 30
0.0
 40
1.400000000000006
  0
CIRCLE
  5
17A
330
1F
100
AcDbEntity
  8
0
  6
Continuous
 62
     7
370
    30
100
AcDbCircle
 10
150.8214041096
 20
54.8250463195
 30
0.0
 40
1.0
  0
LINE
  5
17B
330
1F
100
AcDbEntity
  8
0
  6
Continuous
 62
     7
370
    30
100
AcDbLine
 10
191.6214041096
 20
37.8250463195
 30
0.0
 11
180.0214041096
 21
37.8250463195
 31
0.0
  0
LINE
  5
17C
330
1F
100
AcDbEntity
  8
0
  6
Continuous
 62
     7
370
    30
100
AcDbLine
 10
179.8214041096
 20
38.0250463195
 30
0.0
 11
191.8214041096
 21
38.0250463195
 31
0.0
  0
LINE
  5
17D
330
1F
100
AcDbEntity
  8
0
  6
Continuous
 62
     7
370
    30
100
AcDbLine
 10
191.8214041096
 20
42.1250463195
 30
0.0
 11
179.8214041096
 21
42.1250463195
 31
0.0
  0
LINE
  5
17E
330
1F
100
AcDbEntity
  8
0
  6
Continuous
 62
     7
370
    30
100
AcDbLine
 10
182.1408085762
 20
45.5750463195
 30
0.0
 11
182.2791527319
 21
56.3250463195
 31
0.0
  0
LINE
  5
17F
330
1F
100
AcDbEntity
  8
0
  6
Continuous
 62
     7
370
    30
100
AcDbLine
 10
184.7409061253
 20
45.5750463195
 30
0.0
 11
184.7815192761
 21
56.3250463195
 31
0.0
  0
LINE
  5
180
330
1F
100
AcDbEntity
  8
0
  6
Continuous
 62
     7
370
    30
100
AcDbLine
 10
184.8680951216
 20
56.3250463195
 30
0.0
 11
184.8274819709
 21
45.5750463195
 31
0.0
  0
LINE
  5
181
330
1F
100
AcDbEntity
  8
0
  6
Continuous
 62
     7
370
    30
100
AcDbLine
 10
186.7747130975
 20
56.3250463195
 30
0.0
 11
186.8153262483
 21
45.5750463195
 31
0.0
  0
LINE
  5
182
330
1F
100
AcDbEntity
  8
0
  6
Continuous
 62
     7
370
    30
100
AcDbLine
 10
186.9019020939
 20
45.5750463195
 30
0.0
 11
186.8612889431
 21
56.3250463195
 31
0.0
  0
LINE
  5
183
330
1F
100
AcDbEntity
  8
0
  6
Continuous
 62
     7
370
    30
100
AcDbLine
 10
189.5019996429
 20
45.5750463195
 30
0.0
 11
189.4151323824
 21
52.3250463195
 31
0.0
  0
LINE
  5
184
330
1F
100
AcDbEntity
  8
0
  6
Continuous
 62
     7
370
    30
100
AcDbLine
 10
181.6207546787
 20
56.3250463195
 30
0.0
 11
181.4417973722
 21
45.5750463195
 31
0.0
  0
LINE
  5
185
330
1F
100
AcDbEntity
  8
0
  6
Continuous
 62
     7
370
    30
100
AcDbLine
 10
190.0886423057
 20
52.3250463195
 30
0.0
 11
190.2010108469
 21
45.5750463195
 31
0.0
  0
LINE
  5
186
330
1F
100
AcDbEntity
  8
0
  6
Continuous
 62
     7
370
    30
100
AcDbLine
 10
181.0603105919
 20
45.5750463195
 30
0.0
 11
181.2392678984
 21
56.3250463195
 31
0.0
  0
LINE
  5
187
330
1F
100
AcDbEntity
  8
0
  6
Continuous
 62
     7
370
    30
100
AcDbLine
 10
190.5824976272
 20
45.5750463195
 30
0.0
 11
190.470129086
 21
52.3250463195
 31
0.0
  0
LINE
  5
188
330
1F
100
AcDbEntity
  8
0
  6
Continuous
 62
     7
370
    30
100
AcDbLine
 10
179.8214041096
 20
-195.4749536805
 30
0.0
 11
191.8214041096
 21
-195.4749536805
 31
0.0
  0
LINE
  5
189
330
1F
100
AcDbEntity
  8
0
  6
Continuous
 62
     7
370
    30
100
AcDbLine
 10
191.8214041096
 20
-191.3749536805
 30
0.0
 11
179.8214041096
 21
-191.3749536805
 31
0.0
  0
LINE
  5
18A
330
1F
100
AcDbEntity
  8
0
  6
Continuous
 62
     7
370
    30
100
AcDbLine
 10
180.0214041096
 20
-191.1749536805
 30
0.0
 11
191.6214041096
 21
-191.1749536805
 31
0.0
  0
LINE
  5
18B
330
1F
100
AcDbEntity
  8
0
  6
Continuous
 62
     7
370
    30
100
AcDbLine
 10
189.5019996429
 20
-198.9249536805
 30
0.0
 11
189.4151323824
 21
-205.6749536805
 31
0.0
  0
LINE
  5
18C
330
1F
100
AcDbEntity
  8
0
  6
Continuous
 62
     7
370
    30
100
AcDbLine
 10
186.9019020939
 20
-198.9249536805
 30
0.0
 11
186.8612889431
 21
-209.6749536805
 31
0.0
  0
LINE
  5
18D
330
1F
100
AcDbEntity
  8
0
  6
Continuous
 62
     7
370
    30
100
AcDbLine
 10
186.7747130975
 20
-209.6749536805
 30
0.0
 11
186.8153262483
 21
-198.9249536805
 31
0.0
  0
LINE
  5
18E
330
1F
100
AcDbEntity
  8
0
  6
Continuous
 62
     7
370
    30
100
AcDbLine
 10
184.8680951216
 20
-209.6749536805
 30
0.0
 11
184.8274819709
 21
-198.9249536805
 31
0.0
  0
LINE
  5
18F
330
1F
100
AcDbEntity
  8
0
  6
Continuous
 62
     7
370
    30
100
AcDbLine
 10
184.7409061253
 20
-198.9249536805
 30
0.0
 11
184.7815192761
 21
-209.6749536805
 31
0.0
  0
LINE
  5
190
330
1F
100
AcDbEntity
  8
0
  6
Continuous
 62
     7
370
    30
100
AcDbLine
 10
182.1408085762
 20
-198.9249536805
 30
0.0
 11
182.2791527319
 21
-209.6749536805
 31
0.0
  0
LINE
  5
191
330
1F
100
AcDbEntity
  8
0
  6
Continuous
 62
     7
370
    30
100
AcDbLine
 10
190.0886423057
 20
-205.6749536805
 30
0.0
 11
190.2010108469
 21
-198.9249536805
 31
0.0
  0
LINE
  5
192
330
1F
100
AcDbEntity
  8
0
  6
Continuous
 62
     7
370
    30
100
AcDbLine
 10
181.6207546787
 20
-209.6749536805
 30
0.0
 11
181.4417973722
 21
-198.9249536805
 31
0.0
  0
LINE
  5
193
330
1F
100
AcDbEntity
  8
0
  6
Continuous
 62
     7
370
    30
100
AcDbLine
 10
190.5824976272
 20
-198.9249536805
 30
0.0
 11
190.470129086
 21
-205.6749536805
 31
0.0
  0
LINE
  5
194
330
1F
100
AcDbEntity
  8
0
  6
Continuous
 62
     7
370
    30
100
AcDbLine
 10
181.0603105919
 20
-198.9249536805
 30
0.0
 11
181.2392678984
 21
-209.6749536805
 31
0.0
  0
LINE
  5
195
330
1F
100
AcDbEntity
  8
0
  6
Continuous
 62
     7
370
    30
100
AcDbLine
 10
136.6901257684
 20
-202.1749536805
 30
0.0
 11
144.5526824508
 21
-202.1749536805
 31
0.0
  0
LINE
  5
196
330
1F
100
AcDbEntity
  8
0
  6
Continuous
 62
     7
370
    30
100
AcDbLine
 10
143.159545468
 20
-202.6494804289
 30
0.0
 11
143.1514658972
 21
-202.6402163665
 31
0.0
  0
ARC
  5
197
330
1F
100
AcDbEntity
  8
0
  6
Continuous
 62
     7
370
    30
100
AcDbCircle
 10
140.6214041096
 20
-192.9156103081
 30
0.0
 40
10.04834193485708
100
AcDbArc
 50
272.682827173
 51
284.5834002154
  0
LINE
  5
198
330
1F
100
AcDbEntity
  8
0
  6
Continuous
 62
     7
370
    30
100
AcDbLine
 10
141.0917374429
 20
-202.6402163665
 30
0.0
 11
141.0917374429
 21
-202.9529387473
 31
0.0
  0
ARC
  5
199
330
1F
100
AcDbEntity
  8
0
  6
Continuous
 62
     7
370
    30
100
AcDbCircle
 10
140.6214041096
 20
-190.7061031588
 30
0.0
 40
11.94337772573187
100
AcDbArc
 50
267.743093649
 51
272.256906351
  0
LINE
  5
19A
330
1F
100
AcDbEntity
  8
0
  6
Continuous
 62
     7
370
    30
100
AcDbLine
 10
140.1510707763
 20
-202.9529387473
 30
0.0
 11
140.1510707763
 21
-202.6402163665
 31
0.0
  0
ARC
  5
19B
330
1F
100
AcDbEntity
  8
0
  6
Continuous
 62
     7
370
    30
100
AcDbCircle
 10
140.6214041096
 20
-192.9156103081
 30
0.0
 40
10.04834193485712
100
AcDbArc
 50
255.4165997846
 51
267.317172827
  0
LINE
  5
19C
330
1F
100
AcDbEntity
  8
0
  6
Continuous
 62
     7
370
    30
100
AcDbLine
 10
138.091342322
 20
-202.6402163665
 30
0.0
 11
138.0832627512
 21
-202.6494804289
 31
0.0
  0
LINE
  5
19D
330
1F
100
AcDbEntity
  8
0
  6
Continuous
 62
     7
370
    30
100
AcDbLine
 10
144.5526824508
 20
48.8250463195
 30
0.0
 11
136.6901257684
 21
48.8250463195
 31
0.0
  0
LINE
  5
19E
330
1F
100
AcDbEntity
  8
0
  6
Continuous
 62
     7
370
    30
100
AcDbLine
 10
138.0832627512
 20
49.2995730679
 30
0.0
 11
138.091342322
 21
49.2903090054
 31
0.0
  0
ARC
  5
19F
330
1F
100
AcDbEntity
  8
0
  6
Continuous
 62
     7
370
    30
100
AcDbCircle
 10
140.6214041096
 20
39.565702947
 30
0.0
 40
10.04834193485711
100
AcDbArc
 50
92.682827173
 51
104.5834002154
  0
LINE
  5
1A0
330
1F
100
AcDbEntity
  8
0
  6
Continuous
 62
     7
370
    30
100
AcDbLine
 10
140.1510707763
 20
49.2903090054
 30
0.0
 11
140.1510707763
 21
49.6030313862
 31
0.0
  0
ARC
  5
1A1
330
1F
100
AcDbEntity
  8
0
  6
Continuous
 62
     7
370
    30
100
AcDbCircle
 10
140.6214041096
 20
37.3561957977
 30
0.0
 40
11.94337772571255
100
AcDbArc
 50
87.743093649
 51
92.256906351
  0
LINE
  5
1A2
330
1F
100
AcDbEntity
  8
0
  6
Continuous
 62
     7
370
    30
100
AcDbLine
 10
141.0917374429
 20
49.6030313862
 30
0.0
 11
141.0917374429
 21
49.2903090054
 31
0.0
  0
ARC
  5
1A3
330
1F
100
AcDbEntity
  8
0
  6
Continuous
 62
     7
370
    30
100
AcDbCircle
 10
140.6214041096
 20
39.565702947
 30
0.0
 40
10.04834193485714
100
AcDbArc
 50
75.4165997846
 51
87.317172827
  0
LINE
  5
1A4
330
1F
100
AcDbEntity
  8
0
  6
Continuous
 62
     7
370
    30
100
AcDbLine
 10
143.1514658972
 20
49.2903090054
 30
0.0
 11
143.159545468
 21
49.2995730679
 31
0.0
  0
LINE
  5
1A5
330
1F
100
AcDbEntity
  8
0
  6
Continuous
 62
     7
370
    30
100
AcDbLine
 10
157.3095449286
 20
-200.1749536805
 30
0.0
 11
165.3095449286
 21
-200.1749536805
 31
0.0
  0
LINE
  5
1A6
330
1F
100
AcDbEntity
  8
0
  6
Continuous
 62
     7
370
    30
100
AcDbLine
 10
161.8536901171
 20
-200.8749536805
 30
0.0
 11
164.0595449286
 21
-200.8749536805
 31
0.0
  0
LINE
  5
1A7
330
1F
100
AcDbEntity
  8
0
  6
Continuous
 62
     7
370
    30
100
AcDbLine
 10
158.5595449286
 20
-200.8749536805
 30
0.0
 11
161.5736901171
 21
-200.8749536805
 31
0.0
  0
LINE
  5
1A8
330
1F
100
AcDbEntity
  8
0
  6
Continuous
 62
     7
370
    30
100
AcDbLine
 10
161.4495449286
 20
-200.1749536805
 30
0.0
 11
161.8536901171
 21
-200.8749536805
 31
0.0
  0
LINE
  5
1A9
330
1F
100
AcDbEntity
  8
0
  6
Continuous
 62
     7
370
    30
100
AcDbLine
 10
161.1695449286
 20
-200.1749536805
 30
0.0
 11
161.5736901171
 21
-200.8749536805
 31
0.0
  0
LINE
  5
1AA
330
1F
100
AcDbEntity
  8
0
  6
Continuous
 62
     7
370
    30
100
AcDbLine
 10
161.5736901171
 20
-200.8749536805
 30
0.0
 11
161.8536901171
 21
-200.8749536805
 31
0.0
  0
LINE
  5
1AB
330
1F
100
AcDbEntity
  8
0
  6
Continuous
 62
     7
370
    30
100
AcDbLine
 10
162.6981121712
 20
-202.6023091979
 30
0.0
 11
162.6926676992
 21
-202.5992258904
 31
0.0
  0
SPLINE
  5
1AC
330
1F
100
AcDbEntity
  8
0
  6
Continuous
 62
     7
370
    30
100
AcDbSpline
210
0.0
220
0.0
230
1.0
 70
     8
 71
     3
 72
     9
 73
     5
 74
     0
 42
0.000000001
 43
0.00000001
 40
0.0
 40
0.0
 40
0.0
 40
0.0
 40
0.3510837691590281
 40
1.0
 40
1.0
 40
1.0
 40
1.0
 10
161.6372743778506
 20
-202.850686375675
 30
0.0
 10
161.7638267334787
 20
-202.8352907112882
 30
0.0
 10
162.1242887278658
 20
-202.7914388852019
 30
0.0
 10
162.4689872399668
 20
-202.6748695948987
 30
0.0
 10
162.6926676992159
 20
-202.5992258904033
 30
0.0
  0
LINE
  5
1AD
330
1F
100
AcDbEntity
  8
0
  6
Continuous
 62
     7
370
    30
100
AcDbLine
 10
161.5020449286
 20
-202.8506863757
 30
0.0
 11
161.6372743779
 21
-202.8506863757
 31
0.0
  0
LINE
  5
1AE
330
1F
100
AcDbEntity
  8
0
  6
Continuous
 62
     7
370
    30
100
AcDbLine
 10
161.5020449286
 20
-202.5992258904
 30
0.0
 11
161.5020449286
 21
-202.8506863757
 31
0.0
  0
LINE
  5
1AF
330
1F
100
AcDbEntity
  8
0
  6
Continuous
 62
     7
370
    30
100
AcDbLine
 10
161.5020449286
 20
-202.5992258904
 30
0.0
 11
161.1170449286
 21
-202.5992258904
 31
0.0
  0
SPLINE
  5
1B0
330
1F
100
AcDbEntity
  8
0
  6
Continuous
 62
     7
370
    30
100
AcDbSpline
210
0.0
220
0.0
230
1.0
 70
    24
 71
     3
 72
     9
 73
     5
 74
     0
 42
0.000000001
 43
0.00000001
 40
0.0
 40
0.0
 40
0.0
 40
0.0
 40
0.3510837691590364
 40
1.0
 40
1.0
 40
1.0
 40
1.0
 10
161.1170449286283
 20
-202.850686375675
 30
0.0
 10
161.1170449286284
 20
-202.8352907112881
 30
0.0
 10
161.1170449286283
 20
-202.791438885202
 30
0.0
 10
161.1170449286283
 20
-202.6748695948987
 30
0.0
 10
161.1170449286283
 20
-202.5992258904033
 30
0.0
  0
LINE
  5
1B1
330
1F
100
AcDbEntity
  8
0
  6
Continuous
 62
     7
370
    30
100
AcDbLine
 10
160.9818154794
 20
-202.8506863757
 30
0.0
 11
161.1170449286
 21
-202.8506863757
 31
0.0
  0
LINE
  5
1B2
330
1F
100
AcDbEntity
  8
0
  6
Continuous
 62
     7
370
    30
100
AcDbLine
 10
159.926422158
 20
-202.5992258904
 30
0.0
 11
160.9818154794
 21
-202.8506863757
 31
0.0
  0
LINE
  5
1B3
330
1F
100
AcDbEntity
  8
0
  6
Continuous
 62
     7
370
    30
100
AcDbLine
 10
159.926422158
 20
-202.5992258904
 30
0.0
 11
159.9209776861
 21
-202.6023091979
 31
0.0
  0
LINE
  5
1B4
330
1F
100
AcDbEntity
  8
0
  6
Continuous
 62
     7
370
    30
100
AcDbLine
 10
123.8214041096
 20
-200.1749536805
 30
0.0
 11
131.8214041096
 21
-200.1749536805
 31
0.0
  0
LINE
  5
1B5
330
1F
100
AcDbEntity
  8
0
  6
Continuous
 62
     7
370
    30
100
AcDbLine
 10
128.365549298
 20
-200.8749536805
 30
0.0
 11
130.5714041096
 21
-200.8749536805
 31
0.0
  0
LINE
  5
1B6
330
1F
100
AcDbEntity
  8
0
  6
Continuous
 62
     7
370
    30
100
AcDbLine
 10
125.0714041096
 20
-200.8749536805
 30
0.0
 11
128.085549298
 21
-200.8749536805
 31
0.0
  0
LINE
  5
1B7
330
1F
100
AcDbEntity
  8
0
  6
Continuous
 62
     7
370
    30
100
AcDbLine
 10
128.085549298
 20
-200.8749536805
 30
0.0
 11
128.365549298
 21
-200.8749536805
 31
0.0
  0
LINE
  5
1B8
330
1F
100
AcDbEntity
  8
0
  6
Continuous
 62
     7
370
    30
100
AcDbLine
 10
127.9614041096
 20
-200.1749536805
 30
0.0
 11
128.365549298
 21
-200.8749536805
 31
0.0
  0
LINE
  5
1B9
330
1F
100
AcDbEntity
  8
0
  6
Continuous
 62
     7
370
    30
100
AcDbLine
 10
127.6814041096
 20
-200.1749536805
 30
0.0
 11
128.085549298
 21
-200.8749536805
 31
0.0
  0
LINE
  5
1BA
330
1F
100
AcDbEntity
  8
0
  6
Continuous
 62
     7
370
    30
100
AcDbLine
 10
129.2099713522
 20
-202.6023091979
 30
0.0
 11
129.2045268802
 21
-202.5992258904
 31
0.0
  0
SPLINE
  5
1BB
330
1F
100
AcDbEntity
  8
0
  6
Continuous
 62
     7
370
    30
100
AcDbSpline
210
0.0
220
0.0
230
1.0
 70
     8
 71
     3
 72
     9
 73
     5
 74
     0
 42
0.000000001
 43
0.00000001
 40
0.0
 40
0.0
 40
0.0
 40
0.0
 40
0.3510837691590281
 40
1.0
 40
1.0
 40
1.0
 40
1.0
 10
128.1491335588114
 20
-202.8506863756752
 30
0.0
 10
128.2756859144394
 20
-202.8352907112883
 30
0.0
 10
128.6361479088266
 20
-202.7914388852021
 30
0.0
 10
128.9808464209276
 20
-202.6748695948988
 30
0.0
 10
129.2045268801767
 20
-202.5992258904035
 30
0.0
  0
LINE
  5
1BC
330
1F
100
AcDbEntity
  8
0
  6
Continuous
 62
     7
370
    30
100
AcDbLine
 10
128.0139041096
 20
-202.8506863757
 30
0.0
 11
128.1491335588
 21
-202.8506863757
 31
0.0
  0
LINE
  5
1BD
330
1F
100
AcDbEntity
  8
0
  6
Continuous
 62
     7
370
    30
100
AcDbLine
 10
128.0139041096
 20
-202.5992258904
 30
0.0
 11
128.0139041096
 21
-202.8506863757
 31
0.0
  0
LINE
  5
1BE
330
1F
100
AcDbEntity
  8
0
  6
Continuous
 62
     7
370
    30
100
AcDbLine
 10
128.0139041096
 20
-202.5992258904
 30
0.0
 11
127.6289041096
 21
-202.5992258904
 31
0.0
  0
SPLINE
  5
1BF
330
1F
100
AcDbEntity
  8
0
  6
Continuous
 62
     7
370
    30
100
AcDbSpline
210
0.0
220
0.0
230
1.0
 70
    24
 71
     3
 72
     9
 73
     5
 74
     0
 42
0.000000001
 43
0.00000001
 40
0.0
 40
0.0
 40
0.0
 40
0.0
 40
0.3510837691590364
 40
1.0
 40
1.0
 40
1.0
 40
1.0
 10
127.6289041095891
 20
-202.8506863756752
 30
0.0
 10
127.6289041095892
 20
-202.8352907112883
 30
0.0
 10
127.6289041095891
 20
-202.7914388852021
 30
0.0
 10
127.6289041095891
 20
-202.6748695948989
 30
0.0
 10
127.6289041095891
 20
-202.5992258904035
 30
0.0
  0
LINE
  5
1C0
330
1F
100
AcDbEntity
  8
0
  6
Continuous
 62
     7
370
    30
100
AcDbLine
 10
127.4936746604
 20
-202.8506863757
 30
0.0
 11
127.6289041096
 21
-202.8506863757
 31
0.0
  0
LINE
  5
1C1
330
1F
100
AcDbEntity
  8
0
  6
Continuous
 62
     7
370
    30
100
AcDbLine
 10
126.438281339
 20
-202.5992258904
 30
0.0
 11
127.4936746604
 21
-202.8506863757
 31
0.0
  0
LINE
  5
1C2
330
1F
100
AcDbEntity
  8
0
  6
Continuous
 62
     7
370
    30
100
AcDbLine
 10
126.438281339
 20
-202.5992258904
 30
0.0
 11
126.432836867
 21
-202.6023091979
 31
0.0
  0
LINE
  5
1C3
330
1F
100
AcDbEntity
  8
0
  6
Continuous
 62
     7
370
    30
100
AcDbLine
 10
131.8214041096
 20
46.8250463195
 30
0.0
 11
123.8214041096
 21
46.8250463195
 31
0.0
  0
LINE
  5
1C4
330
1F
100
AcDbEntity
  8
0
  6
Continuous
 62
     7
370
    30
100
AcDbLine
 10
127.2772589212
 20
47.5250463195
 30
0.0
 11
125.0714041096
 21
47.5250463195
 31
0.0
  0
LINE
  5
1C5
330
1F
100
AcDbEntity
  8
0
  6
Continuous
 62
     7
370
    30
100
AcDbLine
 10
130.5714041096
 20
47.5250463195
 30
0.0
 11
127.5572589212
 21
47.5250463195
 31
0.0
  0
LINE
  5
1C6
330
1F
100
AcDbEntity
  8
0
  6
Continuous
 62
     7
370
    30
100
AcDbLine
 10
127.6814041096
 20
46.8250463195
 30
0.0
 11
127.2772589212
 21
47.5250463195
 31
0.0
  0
LINE
  5
1C7
330
1F
100
AcDbEntity
  8
0
  6
Continuous
 62
     7
370
    30
100
AcDbLine
 10
127.9614041096
 20
46.8250463195
 30
0.0
 11
127.5572589212
 21
47.5250463195
 31
0.0
  0
LINE
  5
1C8
330
1F
100
AcDbEntity
  8
0
  6
Continuous
 62
     7
370
    30
100
AcDbLine
 10
127.5572589212
 20
47.5250463195
 30
0.0
 11
127.2772589212
 21
47.5250463195
 31
0.0
  0
LINE
  5
1C9
330
1F
100
AcDbEntity
  8
0
  6
Continuous
 62
     7
370
    30
100
AcDbLine
 10
126.432836867
 20
49.2524018369
 30
0.0
 11
126.438281339
 21
49.2493185293
 31
0.0
  0
SPLINE
  5
1CA
330
1F
100
AcDbEntity
  8
0
  6
Continuous
 62
     7
370
    30
100
AcDbSpline
210
0.0
220
0.0
230
1.0
 70
     8
 71
     3
 72
     9
 73
     5
 74
     0
 42
0.000000001
 43
0.00000001
 40
0.0
 40
0.0
 40
0.0
 40
0.0
 40
0.3510837691590281
 40
1.0
 40
1.0
 40
1.0
 40
1.0
 10
127.4936746603668
 20
49.50077901460978
 30
0.0
 10
127.3671223047388
 20
49.48538335022293
 30
0.0
 10
127.0066603103518
 20
49.44153152413669
 30
0.0
 10
126.6619617982507
 20
49.32496223383345
 30
0.0
 10
126.4382813390016
 20
49.24931852933806
 30
0.0
  0
LINE
  5
1CB
330
1F
100
AcDbEntity
  8
0
  6
Continuous
 62
     7
370
    30
100
AcDbLine
 10
127.6289041096
 20
49.5007790146
 30
0.0
 11
127.4936746604
 21
49.5007790146
 31
0.0
  0
LINE
  5
1CC
330
1F
100
AcDbEntity
  8
0
  6
Continuous
 62
     7
370
    30
100
AcDbLine
 10
127.6289041096
 20
49.2493185293
 30
0.0
 11
127.6289041096
 21
49.5007790146
 31
0.0
  0
LINE
  5
1CD
330
1F
100
AcDbEntity
  8
0
  6
Continuous
 62
     7
370
    30
100
AcDbLine
 10
127.6289041096
 20
49.2493185293
 30
0.0
 11
128.0139041096
 21
49.2493185293
 31
0.0
  0
SPLINE
  5
1CE
330
1F
100
AcDbEntity
  8
0
  6
Continuous
 62
     7
370
    30
100
AcDbSpline
210
0.0
220
0.0
230
1.0
 70
    24
 71
     3
 72
     9
 73
     5
 74
     0
 42
0.000000001
 43
0.00000001
 40
0.0
 40
0.0
 40
0.0
 40
0.0
 40
0.3510837691590364
 40
1.0
 40
1.0
 40
1.0
 40
1.0
 10
128.0139041095892
 20
49.50077901460978
 30
0.0
 10
128.0139041095892
 20
49.4853833502229
 30
0.0
 10
128.0139041095892
 20
49.44153152413674
 30
0.0
 10
128.0139041095892
 20
49.32496223383345
 30
0.0
 10
128.0139041095892
 20
49.24931852933806
 30
0.0
  0
LINE
  5
1CF
330
1F
100
AcDbEntity
  8
0
  6
Continuous
 62
     7
370
    30
100
AcDbLine
 10
128.1491335588
 20
49.5007790146
 30
0.0
 11
128.0139041096
 21
49.5007790146
 31
0.0
  0
LINE
  5
1D0
330
1F
100
AcDbEntity
  8
0
  6
Continuous
 62
     7
370
    30
100
AcDbLine
 10
129.2045268802
 20
49.2493185293
 30
0.0
 11
128.1491335588
 21
49.5007790146
 31
0.0
  0
LINE
  5
1D1
330
1F
100
AcDbEntity
  8
0
  6
Continuous
 62
     7
370
    30
100
AcDbLine
 10
129.2045268802
 20
49.2493185293
 30
0.0
 11
129.2099713522
 21
49.2524018369
 31
0.0
  0
LINE
  5
1D2
330
1F
100
AcDbEntity
  8
0
  6
Continuous
 62
     7
370
    30
100
AcDbLine
 10
165.3095449286
 20
46.8250463195
 30
0.0
 11
157.3095449286
 21
46.8250463195
 31
0.0
  0
LINE
  5
1D3
330
1F
100
AcDbEntity
  8
0
  6
Continuous
 62
     7
370
    30
100
AcDbLine
 10
160.7653997402
 20
47.5250463195
 30
0.0
 11
158.5595449286
 21
47.5250463195
 31
0.0
  0
LINE
  5
1D4
330
1F
100
AcDbEntity
  8
0
  6
Continuous
 62
     7
370
    30
100
AcDbLine
 10
164.0595449286
 20
47.5250463195
 30
0.0
 11
161.0453997402
 21
47.5250463195
 31
0.0
  0
LINE
  5
1D5
330
1F
100
AcDbEntity
  8
0
  6
Continuous
 62
     7
370
    30
100
AcDbLine
 10
161.0453997402
 20
47.5250463195
 30
0.0
 11
160.7653997402
 21
47.5250463195
 31
0.0
  0
LINE
  5
1D6
330
1F
100
AcDbEntity
  8
0
  6
Continuous
 62
     7
370
    30
100
AcDbLine
 10
161.1695449286
 20
46.8250463195
 30
0.0
 11
160.7653997402
 21
47.5250463195
 31
0.0
  0
LINE
  5
1D7
330
1F
100
AcDbEntity
  8
0
  6
Continuous
 62
     7
370
    30
100
AcDbLine
 10
161.4495449286
 20
46.8250463195
 30
0.0
 11
161.0453997402
 21
47.5250463195
 31
0.0
  0
LINE
  5
1D8
330
1F
100
AcDbEntity
  8
0
  6
Continuous
 62
     7
370
    30
100
AcDbLine
 10
159.9209776861
 20
49.2524018369
 30
0.0
 11
159.926422158
 21
49.2493185293
 31
0.0
  0
SPLINE
  5
1D9
330
1F
100
AcDbEntity
  8
0
  6
Continuous
 62
     7
370
    30
100
AcDbSpline
210
0.0
220
0.0
230
1.0
 70
     8
 71
     3
 72
     9
 73
     5
 74
     0
 42
0.000000001
 43
0.00000001
 40
0.0
 40
0.0
 40
0.0
 40
0.0
 40
0.3510837691590281
 40
1.0
 40
1.0
 40
1.0
 40
1.0
 10
160.981815479406
 20
49.50077901460961
 30
0.0
 10
160.855263123778
 20
49.48538335022276
 30
0.0
 10
160.494801129391
 20
49.44153152413652
 30
0.0
 10
160.1501026172899
 20
49.32496223383326
 30
0.0
 10
159.9264221580408
 20
49.24931852933789
 30
0.0
  0
LINE
  5
1DA
330
1F
100
AcDbEntity
  8
0
  6
Continuous
 62
     7
370
    30
100
AcDbLine
 10
161.1170449286
 20
49.5007790146
 30
0.0
 11
160.9818154794
 21
49.5007790146
 31
0.0
  0
LINE
  5
1DB
330
1F
100
AcDbEntity
  8
0
  6
Continuous
 62
     7
370
    30
100
AcDbLine
 10
161.1170449286
 20
49.2493185293
 30
0.0
 11
161.1170449286
 21
49.5007790146
 31
0.0
  0
LINE
  5
1DC
330
1F
100
AcDbEntity
  8
0
  6
Continuous
 62
     7
370
    30
100
AcDbLine
 10
161.1170449286
 20
49.2493185293
 30
0.0
 11
161.5020449286
 21
49.2493185293
 31
0.0
  0
SPLINE
  5
1DD
330
1F
100
AcDbEntity
  8
0
  6
Continuous
 62
     7
370
    30
100
AcDbSpline
210
0.0
220
0.0
230
1.0
 70
    24
 71
     3
 72
     9
 73
     5
 74
     0
 42
0.000000001
 43
0.00000001
 40
0.0
 40
0.0
 40
0.0
 40
0.0
 40
0.3510837691590364
 40
1.0
 40
1.0
 40
1.0
 40
1.0
 10
161.5020449286284
 20
49.50077901460961
 30
0.0
 10
161.5020449286284
 20
49.48538335022273
 30
0.0
 10
161.5020449286284
 20
49.44153152413655
 30
0.0
 10
161.5020449286284
 20
49.32496223383328
 30
0.0
 10
161.5020449286284
 20
49.24931852933789
 30
0.0
  0
LINE
  5
1DE
330
1F
100
AcDbEntity
  8
0
  6
Continuous
 62
     7
370
    30
100
AcDbLine
 10
161.6372743779
 20
49.5007790146
 30
0.0
 11
161.5020449286
 21
49.5007790146
 31
0.0
  0
LINE
  5
1DF
330
1F
100
AcDbEntity
  8
0
  6
Continuous
 62
     7
370
    30
100
AcDbLine
 10
162.6926676992
 20
49.2493185293
 30
0.0
 11
161.6372743779
 21
49.5007790146
 31
0.0
  0
LINE
  5
1E0
330
1F
100
AcDbEntity
  8
0
  6
Continuous
 62
     7
370
    30
100
AcDbLine
 10
162.6926676992
 20
49.2493185293
 30
0.0
 11
162.6981121712
 21
49.2524018369
 31
0.0
  0
SPLINE
  5
1E1
330
1F
100
AcDbEntity
  8
0
  6
Continuous
 62
     7
370
    30
100
AcDbSpline
210
0.0
220
0.0
230
1.0
 70
     8
 71
     3
 72
    12
 73
     8
 74
     0
 42
0.000000001
 43
0.00000001
 40
0.0
 40
0.0
 40
0.0
 40
0.0
 40
0.2148615215151284
 40
0.4297252670369627
 40
0.6445256209051907
 40
0.8591986752223014
 40
1.0
 40
1.0
 40
1.0
 40
1.0
 10
154.9577023712804
 20
-198.6749536805327
 30
0.0
 10
154.8861337194421
 20
-198.6616768046709
 30
0.0
 10
154.7429956749667
 20
-198.6351229155199
 30
0.0
 10
154.5522365799163
 20
-198.4280332708266
 30
0.0
 10
154.4083394870668
 20
-198.1232806647928
 30
0.0
 10
154.332222928974
 20
-197.7859119286097
 30
0.0
 10
154.3244735810343
 20
-197.5631774902783
 30
0.0
 10
154.3214041095893
 20
-197.4749536805327
 30
0.0
  0
LWPOLYLINE
  5
1E2
330
1F
100
AcDbEntity
  8
0
  6
Continuous
 62
     7
370
    30
100
AcDbPolyline
 90
        9
 70
   128
 43
0.0
 10
164.2741350801
 20
-197.4749536805
 10
164.2820212655
 20
-197.709062067
 10
164.3053767599
 20
-197.9341737994
 10
164.3433040249
 20
-198.1416379602
 10
164.3943455369
 20
-198.323481818
 10
164.4565397992
 20
-198.4727172153
 10
164.5274967212
 20
-198.5836091195
 10
164.6044894682
 20
-198.651896017
 10
164.6845592521
 20
-198.6749536805
  0
LINE
  5
1E3
330
1F
100
AcDbEntity
  8
0
  6
Continuous
 62
     7
370
    30
100
AcDbLine
 10
164.6845592521
 20
-198.6749536805
 30
0.0
 11
164.6451858979
 21
-198.6749536805
 31
0.0
  0
LWPOLYLINE
  5
1E4
330
1F
100
AcDbEntity
  8
0
  6
Continuous
 62
     7
370
    30
100
AcDbPolyline
 90
        9
 70
   128
 43
0.0
 10
164.6845592521
 20
45.3250463195
 10
164.6044894682
 20
45.301988656
 10
164.5274967212
 20
45.2337017585
 10
164.4565397992
 20
45.1228098542
 10
164.3943455369
 20
44.9735744569
 10
164.3433040249
 20
44.7917305991
 10
164.3053767599
 20
44.5842664383
 10
164.2820212655
 20
44.3591547059
 10
164.2741350801
 20
44.1250463195
  0
LINE
  5
1E5
330
1F
100
AcDbEntity
  8
0
  6
Continuous
 62
     7
370
    30
100
AcDbLine
 10
164.6845592521
 20
45.3250463195
 30
0.0
 11
164.6845592521
 21
-198.6749536805
 31
0.0
  0
LINE
  5
1E6
330
1F
100
AcDbEntity
  8
0
  6
Continuous
 62
     7
370
    30
100
AcDbLine
 10
164.2741350801
 20
44.1250463195
 30
0.0
 11
164.2741350801
 21
-197.4749536805
 31
0.0
  0
LINE
  5
1E7
330
1F
100
AcDbEntity
  8
0
  6
Continuous
 62
     7
370
    30
100
AcDbLine
 10
152.6051367258
 20
-196.6749536805
 30
0.0
 11
154.3214041096
 21
-196.6749536805
 31
0.0
  0
LINE
  5
1E8
330
1F
100
AcDbEntity
  8
0
  6
Continuous
 62
     7
370
    30
100
AcDbLine
 10
152.6051367258
 20
-196.6749536805
 30
0.0
 11
152.6051367258
 21
-198.6749536805
 31
0.0
  0
LINE
  5
1E9
330
1F
100
AcDbEntity
  8
0
  6
Continuous
 62
     7
370
    30
100
AcDbLine
 10
123.044125849
 20
-198.6749536805
 30
0.0
 11
152.6051367258
 21
-198.6749536805
 31
0.0
  0
LINE
  5
1EA
330
1F
100
AcDbEntity
  8
0
  6
Continuous
 62
     7
370
    30
100
AcDbLine
 10
123.044125849
 20
-196.6749536805
 30
0.0
 11
123.044125849
 21
-198.6749536805
 31
0.0
  0
LINE
  5
1EB
330
1F
100
AcDbEntity
  8
0
  6
Continuous
 62
     7
370
    30
100
AcDbLine
 10
122.9077434201
 20
-196.6749536805
 30
0.0
 11
123.044125849
 21
-196.6749536805
 31
0.0
  0
LINE
  5
1EC
330
1F
100
AcDbEntity
  8
0
  6
Continuous
 62
     7
370
    30
100
AcDbLine
 10
122.9077434201
 20
-196.6749536805
 30
0.0
 11
122.9077434201
 21
-197.4749536805
 31
0.0
  0
LINE
  5
1ED
330
1F
100
AcDbEntity
  8
0
  6
Continuous
 62
     7
370
    30
100
AcDbLine
 10
122.8214041096
 20
44.1250463195
 30
0.0
 11
122.8214041096
 21
-197.4749536805
 31
0.0
  0
LINE
  5
1EE
330
1F
100
AcDbEntity
  8
0
  6
Continuous
 62
     7
370
    30
100
AcDbLine
 10
122.9077434201
 20
43.3250463195
 30
0.0
 11
122.9077434201
 21
44.1250463195
 31
0.0
  0
LINE
  5
1EF
330
1F
100
AcDbEntity
  8
0
  6
Continuous
 62
     7
370
    30
100
AcDbLine
 10
122.9077434201
 20
43.3250463195
 30
0.0
 11
123.044125849
 21
43.3250463195
 31
0.0
  0
LINE
  5
1F0
330
1F
100
AcDbEntity
  8
0
  6
Continuous
 62
     7
370
    30
100
AcDbLine
 10
123.044125849
 20
43.3250463195
 30
0.0
 11
123.044125849
 21
45.3250463195
 31
0.0
  0
LINE
  5
1F1
330
1F
100
AcDbEntity
  8
0
  6
Continuous
 62
     7
370
    30
100
AcDbLine
 10
123.044125849
 20
45.3250463195
 30
0.0
 11
152.6051367258
 21
45.3250463195
 31
0.0
  0
LINE
  5
1F2
330
1F
100
AcDbEntity
  8
0
  6
Continuous
 62
     7
370
    30
100
AcDbLine
 10
152.6051367258
 20
43.3250463195
 30
0.0
 11
152.6051367258
 21
45.3250463195
 31
0.0
  0
LINE
  5
1F3
330
1F
100
AcDbEntity
  8
0
  6
Continuous
 62
     7
370
    30
100
AcDbLine
 10
152.6051367258
 20
43.3250463195
 30
0.0
 11
154.3214041096
 21
43.3250463195
 31
0.0
  0
LINE
  5
1F4
330
1F
100
AcDbEntity
  8
0
  6
Continuous
 62
     7
370
    30
100
AcDbLine
 10
154.3214041096
 20
43.3250463195
 30
0.0
 11
154.3214041096
 21
44.1250463195
 31
0.0
  0
LINE
  5
1F5
330
1F
100
AcDbEntity
  8
0
  6
Continuous
 62
     7
370
    30
100
AcDbLine
 10
154.3214041096
 20
-196.6749536805
 30
0.0
 11
154.3214041096
 21
-197.4749536805
 31
0.0
  0
LINE
  5
1F6
330
1F
100
AcDbEntity
  8
0
  6
Continuous
 62
     7
370
    30
100
AcDbLine
 10
164.6845592521
 20
45.3250463195
 30
0.0
 11
164.6451858979
 21
45.3250463195
 31
0.0
  0
SPLINE
  5
1F7
330
1F
100
AcDbEntity
  8
0
  6
Continuous
 62
     7
370
    30
100
AcDbSpline
210
0.0
220
0.0
230
1.0
 70
     8
 71
     3
 72
    12
 73
     8
 74
     0
 42
0.000000001
 43
0.00000001
 40
0.0
 40
0.0
 40
0.0
 40
0.0
 40
0.2145285820269424
 40
0.4290551496493598
 40
0.6436400822577881
 40
0.8583497498072403
 40
1.0
 40
1.0
 40
1.0
 40
1.0
 10
154.3214041095893
 20
44.12504631946727
 30
0.0
 10
154.3284318994156
 20
44.25989360098718
 30
0.0
 10
154.3424874130779
 20
44.52958689782285
 30
0.0
 10
154.452086907231
 20
44.8890541372737
 30
0.0
 10
154.6134101407119
 20
45.16044251285262
 30
0.0
 10
154.7923396160448
 20
45.30448023043805
 30
0.0
 10
154.9106678383334
 20
45.31919665646029
 30
0.0
 10
154.9577023712804
 20
45.32504631946728
 30
0.0
  0
LINE
  5
1F8
330
1F
100
AcDbEntity
  8
0
  6
Continuous
 62
     7
370
    30
100
AcDbLine
 10
153.2410430661
 20
43.3250463195
 30
0.0
 11
153.2410430661
 21
45.3250463195
 31
0.0
  0
LINE
  5
1F9
330
1F
100
AcDbEntity
  8
0
  6
Continuous
 62
     7
370
    30
100
AcDbLine
 10
153.2410430661
 20
-196.6749536805
 30
0.0
 11
153.2410430661
 21
-198.6749536805
 31
0.0
  0
LINE
  5
1FA
330
1F
100
AcDbEntity
  8
0
  6
Continuous
 62
     7
370
    30
100
AcDbLine
 10
164.6845592521
 20
-197.4749536805
 30
0.0
 11
166.181350348
 21
-197.4749536805
 31
0.0
  0
LINE
  5
1FB
330
1F
100
AcDbEntity
  8
0
  6
Continuous
 62
     7
370
    30
100
AcDbLine
 10
164.6845592521
 20
44.1250463195
 30
0.0
 11
166.181350348
 21
44.1250463195
 31
0.0
  0
LINE
  5
1FC
330
1F
100
AcDbEntity
  8
0
  6
Continuous
 62
     7
370
    30
100
AcDbLine
 10
166.181350348
 20
-197.4749536805
 30
0.0
 11
166.3281807991
 21
-197.4749536805
 31
0.0
  0
LINE
  5
1FD
330
1F
100
AcDbEntity
  8
0
  6
Continuous
 62
     7
370
    30
100
AcDbLine
 10
166.3281807991
 20
44.1250463195
 30
0.0
 11
166.181350348
 21
44.1250463195
 31
0.0
  0
ARC
  5
1FE
330
1F
100
AcDbEntity
  8
0
  6
Continuous
 62
     7
370
    30
100
AcDbCircle
 10
124.0214041096
 20
-197.4749536805
 30
0.0
 40
1.200000000000003
100
AcDbArc
 50
180.0
 51
215.4720647348
  0
ARC
  5
1FF
330
1F
100
AcDbEntity
  8
0
  6
Continuous
 62
     7
370
    30
100
AcDbCircle
 10
124.1090188262
 20
-197.4749988444
 30
0.0
 40
1.201275406962002
100
AcDbArc
 50
179.9978458733
 51
207.5672019098
  0
ARC
  5
200
330
1F
100
AcDbEntity
  8
0
  6
Continuous
 62
     7
370
    30
100
AcDbCircle
 10
124.1090188262
 20
44.1250914833
 30
0.0
 40
1.201275406959601
100
AcDbArc
 50
152.4327980902
 51
180.0021541268
  0
ARC
  5
201
330
1F
100
AcDbEntity
  8
0
  6
Continuous
 62
     7
370
    30
100
AcDbCircle
 10
124.0214041096
 20
44.1250463195
 30
0.0
 40
1.200000000000003
100
AcDbArc
 50
144.5279352652
 51
180.0
  0
LINE
  5
202
330
1F
100
AcDbEntity
  8
0
  6
Continuous
 62
     7
370
    30
100
AcDbLine
 10
169.8214041096
 20
-198.6749536805
 30
0.0
 11
169.8214041096
 21
-199.6749536805
 31
0.0
  0
LINE
  5
203
330
1F
100
AcDbEntity
  8
0
  6
Continuous
 62
     7
370
    30
100
AcDbLine
 10
169.8214041096
 20
-199.6749536805
 30
0.0
 11
164.4654719062
 21
-199.6749536805
 31
0.0
  0
LINE
  5
204
330
1F
100
AcDbEntity
  8
0
  6
Continuous
 62
     7
370
    30
100
AcDbLine
 10
164.4654719062
 20
-198.6749536805
 30
0.0
 11
169.8214041096
 21
-198.6749536805
 31
0.0
  0
LINE
  5
205
330
1F
100
AcDbEntity
  8
0
  6
Continuous
 62
     7
370
    30
100
AcDbLine
 10
169.8214041096
 20
46.3250463195
 30
0.0
 11
169.8214041096
 21
45.3250463195
 31
0.0
  0
LINE
  5
206
330
1F
100
AcDbEntity
  8
0
  6
Continuous
 62
     7
370
    30
100
AcDbLine
 10
169.8214041096
 20
45.3250463195
 30
0.0
 11
164.4654719062
 21
45.3250463195
 31
0.0
  0
LINE
  5
207
330
1F
100
AcDbEntity
  8
0
  6
Continuous
 62
     7
370
    30
100
AcDbLine
 10
164.4654719062
 20
46.3250463195
 30
0.0
 11
169.8214041096
 21
46.3250463195
 31
0.0
  0
LINE
  5
208
330
1F
100
AcDbEntity
  8
0
  6
Continuous
 62
     7
370
    30
100
AcDbLine
 10
122.8214041096
 20
-198.6749536805
 30
0.0
 11
122.8214041096
 21
-199.6749536805
 31
0.0
  0
LINE
  5
209
330
1F
100
AcDbEntity
  8
0
  6
Continuous
 62
     7
370
    30
100
AcDbLine
 10
164.4654719062
 20
-199.6749536805
 30
0.0
 11
122.8214041096
 21
-199.6749536805
 31
0.0
  0
LINE
  5
20A
330
1F
100
AcDbEntity
  8
0
  6
Continuous
 62
     7
370
    30
100
AcDbLine
 10
164.4654719062
 20
-198.6749536805
 30
0.0
 11
122.8214041096
 21
-198.6749536805
 31
0.0
  0
LINE
  5
20B
330
1F
100
AcDbEntity
  8
0
  6
Continuous
 62
     7
370
    30
100
AcDbLine
 10
122.8214041096
 20
45.3250463195
 30
0.0
 11
122.8214041096
 21
46.3250463195
 31
0.0
  0
LINE
  5
20C
330
1F
100
AcDbEntity
  8
0
  6
Continuous
 62
     7
370
    30
100
AcDbLine
 10
122.8214041096
 20
45.3250463195
 30
0.0
 11
164.4654719062
 21
45.3250463195
 31
0.0
  0
LINE
  5
20D
330
1F
100
AcDbEntity
  8
0
  6
Continuous
 62
     7
370
    30
100
AcDbLine
 10
122.8214041096
 20
46.3250463195
 30
0.0
 11
164.4654719062
 21
46.3250463195
 31
0.0
  0
LINE
  5
20E
330
1F
100
AcDbEntity
  8
0
  6
Continuous
 62
     7
370
    30
100
AcDbLine
 10
198.8214041096
 20
-195.9249536805
 30
0.0
 11
204.8214041096
 21
-195.9249536805
 31
0.0
  0
LINE
  5
20F
330
1F
100
AcDbEntity
  8
0
  6
Continuous
 62
     7
370
    30
100
AcDbLine
 10
204.8214041096
 20
-195.9249536805
 30
0.0
 11
204.8214041096
 21
-196.9249536805
 31
0.0
  0
LINE
  5
210
330
1F
100
AcDbEntity
  8
0
  6
Continuous
 62
     7
370
    30
100
AcDbLine
 10
204.8214041096
 20
-196.9249536805
 30
0.0
 11
198.8214041096
 21
-196.9249536805
 31
0.0
  0
LINE
  5
211
330
1F
100
AcDbEntity
  8
0
  6
Continuous
 62
     7
370
    30
100
AcDbLine
 10
198.8214041096
 20
-195.9249536805
 30
0.0
 11
178.8214041096
 21
-195.9249536805
 31
0.0
  0
LINE
  5
212
330
1F
100
AcDbEntity
  8
0
  6
Continuous
 62
     7
370
    30
100
AcDbLine
 10
198.8214041096
 20
-196.9249536805
 30
0.0
 11
178.8214041096
 21
-196.9249536805
 31
0.0
  0
LINE
  5
213
330
1F
100
AcDbEntity
  8
0
  6
Continuous
 62
     7
370
    30
100
AcDbLine
 10
172.8214041096
 20
-196.9249536805
 30
0.0
 11
172.8214041096
 21
-195.9249536805
 31
0.0
  0
LINE
  5
214
330
1F
100
AcDbEntity
  8
0
  6
Continuous
 62
     7
370
    30
100
AcDbLine
 10
172.8214041096
 20
-195.9249536805
 30
0.0
 11
178.8214041096
 21
-195.9249536805
 31
0.0
  0
LINE
  5
215
330
1F
100
AcDbEntity
  8
0
  6
Continuous
 62
     7
370
    30
100
AcDbLine
 10
178.8214041096
 20
-196.9249536805
 30
0.0
 11
172.8214041096
 21
-196.9249536805
 31
0.0
  0
LINE
  5
216
330
1F
100
AcDbEntity
  8
0
  6
Continuous
 62
     7
370
    30
100
AcDbLine
 10
178.8214041096
 20
42.5750463195
 30
0.0
 11
198.8214041096
 21
42.5750463195
 31
0.0
  0
LINE
  5
217
330
1F
100
AcDbEntity
  8
0
  6
Continuous
 62
     7
370
    30
100
AcDbLine
 10
178.8214041096
 20
43.5750463195
 30
0.0
 11
198.8214041096
 21
43.5750463195
 31
0.0
  0
LINE
  5
218
330
1F
100
AcDbEntity
  8
0
  6
Continuous
 62
     7
370
    30
100
AcDbLine
 10
204.8214041096
 20
43.5750463195
 30
0.0
 11
204.8214041096
 21
42.5750463195
 31
0.0
  0
LINE
  5
219
330
1F
100
AcDbEntity
  8
0
  6
Continuous
 62
     7
370
    30
100
AcDbLine
 10
204.8214041096
 20
42.5750463195
 30
0.0
 11
198.8214041096
 21
42.5750463195
 31
0.0
  0
LINE
  5
21A
330
1F
100
AcDbEntity
  8
0
  6
Continuous
 62
     7
370
    30
100
AcDbLine
 10
198.8214041096
 20
43.5750463195
 30
0.0
 11
204.8214041096
 21
43.5750463195
 31
0.0
  0
LINE
  5
21B
330
1F
100
AcDbEntity
  8
0
  6
Continuous
 62
     7
370
    30
100
AcDbLine
 10
172.8214041096
 20
42.5750463195
 30
0.0
 11
172.8214041096
 21
43.5750463195
 31
0.0
  0
LINE
  5
21C
330
1F
100
AcDbEntity
  8
0
  6
Continuous
 62
     7
370
    30
100
AcDbLine
 10
172.8214041096
 20
43.5750463195
 30
0.0
 11
178.8214041096
 21
43.5750463195
 31
0.0
  0
LINE
  5
21D
330
1F
100
AcDbEntity
  8
0
  6
Continuous
 62
     7
370
    30
100
AcDbLine
 10
178.8214041096
 20
42.5750463195
 30
0.0
 11
172.8214041096
 21
42.5750463195
 31
0.0
  0
LINE
  5
21E
330
1F
100
AcDbEntity
  8
0
  6
Continuous
 62
     7
370
    30
100
AcDbLine
 10
191.9714041096
 20
-198.9249536805
 30
0.0
 11
179.6714041096
 21
-198.9249536805
 31
0.0
  0
LINE
  5
21F
330
1F
100
AcDbEntity
  8
0
  6
Continuous
 62
     7
370
    30
100
AcDbLine
 10
185.8214041096
 20
45.5750463195
 30
0.0
 11
191.9714041096
 21
45.5750463195
 31
0.0
  0
LINE
  5
220
330
1F
100
AcDbEntity
  8
0
  6
Continuous
 62
     7
370
    30
100
AcDbLine
 10
179.6714041096
 20
45.5750463195
 30
0.0
 11
185.8214041096
 21
45.5750463195
 31
0.0
  0
CIRCLE
  5
221
330
1F
100
AcDbEntity
  8
0
  6
Continuous
 62
     7
370
    30
100
AcDbCircle
 10
198.8214041096
 20
-175.9249536805
 30
0.0
 40
1.5
  0
CIRCLE
  5
222
330
1F
100
AcDbEntity
  8
0
  6
Continuous
 62
     7
370
    30
100
AcDbCircle
 10
198.8214041096
 20
-161.9249536805
 30
0.0
 40
1.5
  0
CIRCLE
  5
223
330
1F
100
AcDbEntity
  8
0
  6
Continuous
 62
     7
370
    30
100
AcDbCircle
 10
172.8214041096
 20
8.5750463195
 30
0.0
 40
1.5
  0
CIRCLE
  5
224
330
1F
100
AcDbEntity
  8
0
  6
Continuous
 62
     7
370
    30
100
AcDbCircle
 10
172.8214041096
 20
22.5750463195
 30
0.0
 40
1.5
  0
ARC
  5
225
330
1F
100
AcDbEntity
  8
0
  6
Continuous
 62
     7
370
    30
100
AcDbCircle
 10
169.8214041096
 20
-12.4249536805
 30
0.0
 40
5.000000000000004
100
AcDbArc
 50
90.0
 51
180.0
  0
LINE
  5
226
330
1F
100
AcDbEntity
  8
0
  6
Continuous
 62
     7
370
    30
100
AcDbLine
 10
164.8214041096
 20
-12.4249536805
 30
0.0
 11
164.8214041096
 21
-140.9249536805
 31
0.0
  0
ARC
  5
227
330
1F
100
AcDbEntity
  8
0
  6
Continuous
 62
     7
370
    30
100
AcDbCircle
 10
169.8214041096
 20
-140.9249536805
 30
0.0
 40
5.000000000000028
100
AcDbArc
 50
180.0
 51
270.0
  0
LINE
  5
228
330
1F
100
AcDbEntity
  8
0
  6
Continuous
 62
     7
370
    30
100
AcDbLine
 10
169.8214041096
 20
-145.9249536805
 30
0.0
 11
199.8214041096
 21
-145.9249536805
 31
0.0
  0
ARC
  5
229
330
1F
100
AcDbEntity
  8
0
  6
Continuous
 62
     7
370
    30
100
AcDbCircle
 10
199.8214041096
 20
-150.9249536805
 30
0.0
 40
5.000000000000028
100
AcDbArc
 50
0.0
 51
90.0
  0
LINE
  5
22A
330
1F
100
AcDbEntity
  8
0
  6
Continuous
 62
     7
370
    30
100
AcDbLine
 10
204.8214041096
 20
-195.9249536805
 30
0.0
 11
204.8214041096
 21
-150.9249536805
 31
0.0
  0
LINE
  5
22B
330
1F
100
AcDbEntity
  8
0
  6
Continuous
 62
     7
370
    30
100
AcDbLine
 10
192.3214041096
 20
-195.9249536805
 30
0.0
 11
192.3214041096
 21
-194.4249527622
 31
0.0
  0
LINE
  5
22C
330
1F
100
AcDbEntity
  8
0
  6
Continuous
 62
     7
370
    30
100
AcDbLine
 10
192.3214041096
 20
-194.4249527622
 30
0.0
 11
191.8214041096
 21
-194.4249527622
 31
0.0
  0
LINE
  5
22D
330
1F
100
AcDbEntity
  8
0
  6
Continuous
 62
     7
370
    30
100
AcDbLine
 10
179.8214041096
 20
-194.4249527622
 30
0.0
 11
179.3214041096
 21
-194.4249527622
 31
0.0
  0
LINE
  5
22E
330
1F
100
AcDbEntity
  8
0
  6
Continuous
 62
     7
370
    30
100
AcDbLine
 10
179.3214041096
 20
-194.4249527622
 30
0.0
 11
179.3214041096
 21
-195.9249536805
 31
0.0
  0
LINE
  5
22F
330
1F
100
AcDbEntity
  8
0
  6
Continuous
 62
     7
370
    30
100
AcDbLine
 10
172.8214041096
 20
-194.9249536805
 30
0.0
 11
172.8214041096
 21
-195.9249536805
 31
0.0
  0
ARC
  5
230
330
1F
100
AcDbEntity
  8
0
  6
Continuous
 62
     7
370
    30
100
AcDbCircle
 10
171.3214041096
 20
-194.9249536805
 30
0.0
 40
1.500000000000028
100
AcDbArc
 50
0.0
 51
180.0
  0
LINE
  5
231
330
1F
100
AcDbEntity
  8
0
  6
Continuous
 62
     7
370
    30
100
AcDbLine
 10
169.8214041096
 20
-198.6749536805
 30
0.0
 11
169.8214041096
 21
-194.9249536805
 31
0.0
  0
LINE
  5
232
330
1F
100
AcDbEntity
  8
0
  6
Continuous
 62
     7
370
    30
100
AcDbLine
 10
169.8214041096
 20
41.5750463195
 30
0.0
 11
169.8214041096
 21
45.3250463195
 31
0.0
  0
ARC
  5
233
330
1F
100
AcDbEntity
  8
0
  6
Continuous
 62
     7
370
    30
100
AcDbCircle
 10
171.3214041096
 20
41.5750463195
 30
0.0
 40
1.500000000000028
100
AcDbArc
 50
180.0
 51
0.0
  0
LINE
  5
234
330
1F
100
AcDbEntity
  8
0
  6
Continuous
 62
     7
370
    30
100
AcDbLine
 10
172.8214041096
 20
42.5750463195
 30
0.0
 11
172.8214041096
 21
41.5750463195
 31
0.0
  0
LINE
  5
235
330
1F
100
AcDbEntity
  8
0
  6
Continuous
 62
     7
370
    30
100
AcDbLine
 10
179.3214041096
 20
42.5750463195
 30
0.0
 11
179.3214041096
 21
41.0750454012
 31
0.0
  0
LINE
  5
236
330
1F
100
AcDbEntity
  8
0
  6
Continuous
 62
     7
370
    30
100
AcDbLine
 10
179.3214041096
 20
41.0750454012
 30
0.0
 11
179.8214041096
 21
41.0750454012
 31
0.0
  0
LINE
  5
237
330
1F
100
AcDbEntity
  8
0
  6
Continuous
 62
     7
370
    30
100
AcDbLine
 10
191.8214041096
 20
41.0750454012
 30
0.0
 11
192.3214041096
 21
41.0750454012
 31
0.0
  0
LINE
  5
238
330
1F
100
AcDbEntity
  8
0
  6
Continuous
 62
     7
370
    30
100
AcDbLine
 10
192.3214041096
 20
41.0750454012
 30
0.0
 11
192.3214041096
 21
42.5750463195
 31
0.0
  0
LINE
  5
239
330
1F
100
AcDbEntity
  8
0
  6
Continuous
 62
     7
370
    30
100
AcDbLine
 10
204.8214041096
 20
-2.4249536805
 30
0.0
 11
204.8214041096
 21
42.5750463195
 31
0.0
  0
ARC
  5
23A
330
1F
100
AcDbEntity
  8
0
  6
Continuous
 62
     7
370
    30
100
AcDbCircle
 10
199.8214041096
 20
-2.4249536805
 30
0.0
 40
5.000000000000028
100
AcDbArc
 50
270.0
 51
0.0
  0
LINE
  5
23B
330
1F
100
AcDbEntity
  8
0
  6
Continuous
 62
     7
370
    30
100
AcDbLine
 10
199.8214041096
 20
-7.4249536805
 30
0.0
 11
169.8214041096
 21
-7.4249536805
 31
0.0
  0
LINE
  5
23C
330
1F
100
AcDbEntity
  8
0
  6
Continuous
 62
     7
370
    30
100
AcDbLine
 10
136.8214041096
 20
-207.3249536805
 30
0.0
 11
144.8819175998
 21
-207.3249536805
 31
0.0
  0
LINE
  5
23D
330
1F
100
AcDbEntity
  8
0
  6
Continuous
 62
     7
370
    30
100
AcDbLine
 10
156.7608906194
 20
-207.3249536805
 30
0.0
 11
180.9758814342
 21
-207.3249536805
 31
0.0
  0
LINE
  5
23E
330
1F
100
AcDbEntity
  8
0
  6
Continuous
 62
     7
370
    30
100
AcDbLine
 10
196.8214041096
 20
-207.3249536805
 30
0.0
 11
374.8214041096
 21
-207.3249536805
 31
0.0
  0
ARC
  5
23F
330
1F
100
AcDbEntity
  8
0
  6
Continuous
 62
     7
370
    30
100
AcDbCircle
 10
136.8214041096
 20
-195.6749536805
 30
0.0
 40
11.65000000000003
100
AcDbArc
 50
217.4029767557
 51
270.0
  0
ARC
  5
240
330
1F
100
AcDbEntity
  8
0
  6
Continuous
 62
     7
370
    30
100
AcDbCircle
 10
374.8214041096
 20
-195.6749536805
 30
0.0
 40
11.64999999999998
100
AcDbArc
 50
270.0
 51
0.0
  0
LINE
  5
241
330
1F
100
AcDbEntity
  8
0
  6
Continuous
 62
     7
370
    30
100
AcDbLine
 10
386.4714041096
 20
-195.6749536805
 30
0.0
 11
386.4714041096
 21
42.3250463195
 31
0.0
  0
ARC
  5
242
330
1F
100
AcDbEntity
  8
0
  6
Continuous
 62
     7
370
    30
100
AcDbCircle
 10
374.8214041096
 20
42.3250463195
 30
0.0
 40
11.65000000000001
100
AcDbArc
 50
0.0
 51
90.0
  0
ARC
  5
243
330
1F
100
AcDbEntity
  8
0
  6
Continuous
 62
     7
370
    30
100
AcDbCircle
 10
136.8214041096
 20
42.3250463195
 30
0.0
 40
11.65000000000004
100
AcDbArc
 50
90.0
 51
140.8936714233
  0
LINE
  5
244
330
1F
100
AcDbEntity
  8
0
  6
Continuous
 62
     7
370
    30
100
AcDbLine
 10
374.8214041096
 20
53.9750463195
 30
0.0
 11
196.8214041096
 21
53.9750463195
 31
0.0
  0
LINE
  5
245
330
1F
100
AcDbEntity
  8
0
  6
Continuous
 62
     7
370
    30
100
AcDbLine
 10
180.9758814342
 20
53.9750463195
 30
0.0
 11
156.7608906194
 21
53.9750463195
 31
0.0
  0
LINE
  5
246
330
1F
100
AcDbEntity
  8
0
  6
Continuous
 62
     7
370
    30
100
AcDbLine
 10
144.8819175998
 20
53.9750463195
 30
0.0
 11
136.8214041096
 21
53.9750463195
 31
0.0
  0
LINE
  5
247
330
1F
100
AcDbEntity
  8
0
  6
Continuous
 62
     7
370
    30
100
AcDbLine
 10
188.8214041096
 20
52.8250463195
 30
0.0
 11
196.8214041096
 21
52.8250463195
 31
0.0
  0
LINE
  5
248
330
1F
100
AcDbEntity
  8
0
  6
Continuous
 62
     7
370
    30
100
AcDbLine
 10
196.3214041096
 20
52.3250463195
 30
0.0
 11
189.3214041096
 21
52.3250463195
 31
0.0
  0
LINE
  5
249
330
1F
100
AcDbEntity
  8
0
  6
Continuous
 62
     7
370
    30
100
AcDbLine
 10
189.9214041096
 20
61.6250463195
 30
0.0
 11
195.7214041096
 21
61.6250463195
 31
0.0
  0
LINE
  5
24A
330
1F
100
AcDbEntity
  8
0
  6
Continuous
 62
     7
370
    30
100
AcDbLine
 10
188.8443087352
 20
-206.1749536805
 30
0.0
 11
188.8214041096
 21
-206.1749536805
 31
0.0
  0
LINE
  5
24B
330
1F
100
AcDbEntity
  8
0
  6
Continuous
 62
     7
370
    30
100
AcDbLine
 10
196.8214041096
 20
-206.1749536805
 30
0.0
 11
188.8443087352
 21
-206.1749536805
 31
0.0
  0
LINE
  5
24C
330
1F
100
AcDbEntity
  8
0
  6
Continuous
 62
     7
370
    30
100
AcDbLine
 10
189.3214041096
 20
-205.6749536805
 30
0.0
 11
196.3214041096
 21
-205.6749536805
 31
0.0
  0
LINE
  5
24D
330
1F
100
AcDbEntity
  8
0
  6
Continuous
 62
     7
370
    30
100
AcDbLine
 10
189.9380099632
 20
-214.9749536805
 30
0.0
 11
189.9214041096
 21
-214.9749536805
 31
0.0
  0
LINE
  5
24E
330
1F
100
AcDbEntity
  8
0
  6
Continuous
 62
     7
370
    30
100
AcDbLine
 10
195.7214041096
 20
-214.9749536805
 30
0.0
 11
189.9380099632
 21
-214.9749536805
 31
0.0
  0
LINE
  5
24F
330
1F
100
AcDbEntity
  8
0
  6
Continuous
 62
     7
370
    30
100
AcDbLine
 10
255.83759371
 20
-213.6749536805
 30
0.0
 11
255.8214041096
 21
-213.6749536805
 31
0.0
  0
LINE
  5
250
330
1F
100
AcDbEntity
  8
0
  6
Continuous
 62
     7
370
    30
100
AcDbLine
 10
105.8214041096
 20
-223.6749536805
 30
0.0
 11
105.8214041096
 21
70.3250463195
 31
0.0
  0
ARC
  5
251
330
1F
100
AcDbEntity
  8
0
  6
Continuous
 62
     7
370
    30
100
AcDbCircle
 10
108.8214041096
 20
70.3250463195
 30
0.0
 40
3.0
100
AcDbArc
 50
90.0
 51
180.0
  0
LINE
  5
252
330
1F
100
AcDbEntity
  8
0
  6
Continuous
 62
     7
370
    30
100
AcDbLine
 10
108.8214041096
 20
73.3250463195
 30
0.0
 11
402.8214041096
 21
73.3250463195
 31
0.0
  0
ARC
  5
253
330
1F
100
AcDbEntity
  8
0
  6
Continuous
 62
     7
370
    30
100
AcDbCircle
 10
402.8214041096
 20
70.3250463195
 30
0.0
 40
3.0
100
AcDbArc
 50
0.0
 51
90.0
  0
LINE
  5
254
330
1F
100
AcDbEntity
  8
0
  6
Continuous
 62
     7
370
    30
100
AcDbLine
 10
405.8214041096
 20
70.3250463195
 30
0.0
 11
405.8214041096
 21
-223.6749536805
 31
0.0
  0
LINE
  5
255
330
1F
100
AcDbEntity
  8
0
  6
Continuous
 62
     7
370
    30
100
AcDbLine
 10
402.8214041096
 20
-226.6749536805
 30
0.0
 11
108.8214041096
 21
-226.6749536805
 31
0.0
  0
ARC
  5
256
330
1F
100
AcDbEntity
  8
0
  6
Continuous
 62
     7
370
    30
100
AcDbCircle
 10
108.8214041096
 20
-223.6749536805
 30
0.0
 40
3.0
100
AcDbArc
 50
180.0
 51
270.0
  0
ARC
  5
257
330
1F
100
AcDbEntity
  8
0
  6
Continuous
 62
     7
370
    30
100
AcDbCircle
 10
402.8214041096
 20
-223.6749536805
 30
0.0
 40
3.0
100
AcDbArc
 50
270.0
 51
0.0
  0
ARC
  5
258
330
1F
100
AcDbEntity
  8
0
  6
Continuous
 62
     7
370
    30
100
AcDbCircle
 10
135.8214041096
 20
43.3250463195
 30
0.0
 40
18.00000000000003
100
AcDbArc
 50
90.0
 51
180.0
  0
LINE
  5
259
330
1F
100
AcDbEntity
  8
0
  6
Continuous
 62
     7
370
    30
100
AcDbLine
 10
255.8214041096
 20
61.3250463195
 30
0.0
 11
135.8214041096
 21
61.3250463195
 31
0.0
  0
LINE
  5
25A
330
1F
100
AcDbEntity
  8
0
  6
Continuous
 62
     7
370
    30
100
AcDbLine
 10
255.8214041096
 20
60.3250463195
 30
0.0
 11
255.8214041096
 21
61.3250463195
 31
0.0
  0
LINE
  5
25B
330
1F
100
AcDbEntity
  8
0
  6
Continuous
 62
     7
370
    30
100
AcDbLine
 10
135.8214041096
 20
60.3250463195
 30
0.0
 11
255.8214041096
 21
60.3250463195
 31
0.0
  0
ARC
  5
25C
330
1F
100
AcDbEntity
  8
0
  6
Continuous
 62
     7
370
    30
100
AcDbCircle
 10
135.8214041096
 20
43.3250463195
 30
0.0
 40
17.00000000000001
100
AcDbArc
 50
90.0
 51
180.0
  0
LINE
  5
25D
330
1F
100
AcDbEntity
  8
0
  6
Continuous
 62
     7
370
    30
100
AcDbLine
 10
118.8214041096
 20
-196.6749536805
 30
0.0
 11
118.8214041096
 21
43.3250463195
 31
0.0
  0
ARC
  5
25E
330
1F
100
AcDbEntity
  8
0
  6
Continuous
 62
     7
370
    30
100
AcDbCircle
 10
135.8214041096
 20
-196.6749536805
 30
0.0
 40
17.0
100
AcDbArc
 50
180.0
 51
270.0
  0
LINE
  5
25F
330
1F
100
AcDbEntity
  8
0
  6
Continuous
 62
     7
370
    30
100
AcDbLine
 10
255.8214041096
 20
-213.6749536805
 30
0.0
 11
135.8214041096
 21
-213.6749536805
 31
0.0
  0
LINE
  5
260
330
1F
100
AcDbEntity
  8
0
  6
Continuous
 62
     7
370
    30
100
AcDbLine
 10
117.8214041096
 20
43.3250463195
 30
0.0
 11
117.8214041096
 21
-196.6749536805
 31
0.0
  0
LINE
  5
261
330
1F
100
AcDbEntity
  8
0
  6
Continuous
 62
     7
370
    30
100
AcDbLine
 10
255.8214041096
 20
-214.6749536805
 30
0.0
 11
255.8214041096
 21
-213.6749536805
 31
0.0
  0
LINE
  5
262
330
1F
100
AcDbEntity
  8
0
  6
Continuous
 62
     7
370
    30
100
AcDbLine
 10
135.8214041096
 20
-214.6749536805
 30
0.0
 11
255.8214041096
 21
-214.6749536805
 31
0.0
  0
ARC
  5
263
330
1F
100
AcDbEntity
  8
0
  6
Continuous
 62
     7
370
    30
100
AcDbCircle
 10
135.8214041096
 20
-196.6749536805
 30
0.0
 40
18.0
100
AcDbArc
 50
180.0
 51
270.0
  0
LINE
  5
264
330
1F
100
AcDbEntity
  8
0
  6
Continuous
 62
     7
370
    30
100
AcDbLine
 10
188.8214041096
 20
-209.6749536805
 30
0.0
 11
180.5714041096
 21
-209.6749536805
 31
0.0
  0
LINE
  5
265
330
1F
100
AcDbEntity
  8
0
  6
Continuous
 62
     7
370
    30
100
AcDbLine
 10
188.8214041096
 20
56.3250463195
 30
0.0
 11
180.5714041096
 21
56.3250463195
 31
0.0
  0
ARC
  5
266
330
1F
100
AcDbEntity
  8
0
  6
Continuous
 62
     7
370
    30
100
AcDbCircle
 10
150.8214041096
 20
-208.1749536805
 30
0.0
 40
6.000000000000028
100
AcDbArc
 50
90.0
 51
180.0
  0
ARC
  5
267
330
1F
100
AcDbEntity
  8
0
  6
Continuous
 62
     7
370
    30
100
AcDbCircle
 10
150.8214041096
 20
-208.1749536805
 30
0.0
 40
6.000000000000028
100
AcDbArc
 50
0.0
 51
90.0
  0
LINE
  5
268
330
1F
100
AcDbEntity
  8
0
  6
Continuous
 62
     7
370
    30
100
AcDbLine
 10
156.8214041096
 20
-208.1749536805
 30
0.0
 11
156.8214041096
 21
-213.6749536805
 31
0.0
  0
LINE
  5
269
330
1F
100
AcDbEntity
  8
0
  6
Continuous
 62
     7
370
    30
100
AcDbLine
 10
144.8214041096
 20
-208.1749536805
 30
0.0
 11
144.8214041096
 21
-213.6749536805
 31
0.0
  0
LINE
  5
26A
330
1F
100
AcDbEntity
  8
0
  6
Continuous
 62
     7
370
    30
100
AcDbLine
 10
156.8214041096
 20
54.8250463195
 30
0.0
 11
156.8214041096
 21
60.3250463195
 31
0.0
  0
ARC
  5
26B
330
1F
100
AcDbEntity
  8
0
  6
Continuous
 62
     7
370
    30
100
AcDbCircle
 10
150.8214041096
 20
54.8250463195
 30
0.0
 40
6.0
100
AcDbArc
 50
270.0
 51
0.0
  0
LINE
  5
26C
330
1F
100
AcDbEntity
  8
0
  6
Continuous
 62
     7
370
    30
100
AcDbLine
 10
144.8214041096
 20
54.8250463195
 30
0.0
 11
144.8214041096
 21
60.3250463195
 31
0.0
  0
ARC
  5
26D
330
1F
100
AcDbEntity
  8
0
  6
Continuous
 62
     7
370
    30
100
AcDbCircle
 10
150.8214041096
 20
54.8250463195
 30
0.0
 40
6.0
100
AcDbArc
 50
180.0
 51
270.0
  0
LINE
  5
26E
330
1F
100
AcDbEntity
  8
0
  6
Continuous
 62
     7
370
    30
100
AcDbLine
 10
392.8214041096
 20
43.3250463195
 30
0.0
 11
392.8214041096
 21
-196.6749536805
 31
0.0
  0
ARC
  5
26F
330
1F
100
AcDbEntity
  8
0
  6
Continuous
 62
     7
370
    30
100
AcDbCircle
 10
375.8214041096
 20
43.3250463195
 30
0.0
 40
17.00000000000001
100
AcDbArc
 50
0.0
 51
90.0
  0
LINE
  5
270
330
1F
100
AcDbEntity
  8
0
  6
Continuous
 62
     7
370
    30
100
AcDbLine
 10
255.7377980296
 20
60.3250463195
 30
0.0
 11
375.8214041096
 21
60.3250463195
 31
0.0
  0
LINE
  5
271
330
1F
100
AcDbEntity
  8
0
  6
Continuous
 62
     7
370
    30
100
AcDbLine
 10
255.7374338118
 20
61.3250463195
 30
0.0
 11
255.7377980296
 21
60.3250463195
 31
0.0
  0
LINE
  5
272
330
1F
100
AcDbEntity
  8
0
  6
Continuous
 62
     7
370
    30
100
AcDbLine
 10
375.8214041096
 20
61.3250463195
 30
0.0
 11
255.7374338118
 21
61.3250463195
 31
0.0
  0
ARC
  5
273
330
1F
100
AcDbEntity
  8
0
  6
Continuous
 62
     7
370
    30
100
AcDbCircle
 10
375.8214041096
 20
43.3250463195
 30
0.0
 40
18.00000000000004
100
AcDbArc
 50
0.0
 51
90.0
  0
LINE
  5
274
330
1F
100
AcDbEntity
  8
0
  6
Continuous
 62
     7
370
    30
100
AcDbLine
 10
393.8214041096
 20
-196.6749536805
 30
0.0
 11
393.8214041096
 21
43.3250463195
 31
0.0
  0
ARC
  5
275
330
1F
100
AcDbEntity
  8
0
  6
Continuous
 62
     7
370
    30
100
AcDbCircle
 10
375.8214041096
 20
-196.6749536805
 30
0.0
 40
18.00000000000006
100
AcDbArc
 50
270.0
 51
0.0
  0
LINE
  5
276
330
1F
100
AcDbEntity
  8
0
  6
Continuous
 62
     7
370
    30
100
AcDbLine
 10
255.8379579278
 20
-214.6749536805
 30
0.0
 11
375.8214041096
 21
-214.6749536805
 31
0.0
  0
LINE
  5
277
330
1F
100
AcDbEntity
  8
0
  6
Continuous
 62
     7
370
    30
100
AcDbLine
 10
255.83759371
 20
-213.6749536805
 30
0.0
 11
255.8379579278
 21
-214.6749536805
 31
0.0
  0
LINE
  5
278
330
1F
100
AcDbEntity
  8
0
  6
Continuous
 62
     7
370
    30
100
AcDbLine
 10
375.8214041096
 20
-213.6749536805
 30
0.0
 11
255.83759371
 21
-213.6749536805
 31
0.0
  0
ARC
  5
279
330
1F
100
AcDbEntity
  8
0
  6
Continuous
 62
     7
370
    30
100
AcDbCircle
 10
375.8214041096
 20
-196.6749536805
 30
0.0
 40
17.0
100
AcDbArc
 50
270.0
 51
0.0
  0
ARC
  5
27A
330
1F
100
AcDbEntity
  8
0
  6
Continuous
 62
     7
370
    30
100
AcDbCircle
 10
55.7467586778
 20
165.5455479452
 30
0.0
 40
0.1999999999999744
100
AcDbArc
 50
0.0
 51
90.0
  0
ARC
  5
27B
330
1F
100
AcDbEntity
  8
0
  6
Continuous
 62
     7
370
    30
100
AcDbCircle
 10
55.7467586778
 20
159.7455479452
 30
0.0
 40
0.1999999999999886
100
AcDbArc
 50
270.0
 51
0.0
  0
LINE
  5
27C
330
1F
100
AcDbEntity
  8
0
  6
Continuous
 62
     7
370
    30
100
AcDbLine
 10
55.6467586778
 20
159.5455479452
 30
0.0
 11
55.7467586778
 21
159.5455479452
 31
0.0
  0
LINE
  5
27D
330
1F
100
AcDbEntity
  8
0
  6
Continuous
 62
     7
370
    30
100
AcDbLine
 10
55.7467586778
 20
165.7455479452
 30
0.0
 11
55.6467586778
 21
165.7455479452
 31
0.0
  0
LINE
  5
27E
330
1F
100
AcDbEntity
  8
0
  6
Continuous
 62
     7
370
    30
100
AcDbLine
 10
-220.3532413222
 20
165.7455479452
 30
0.0
 11
-220.4532413222
 21
165.7455479452
 31
0.0
  0
LINE
  5
27F
330
1F
100
AcDbEntity
  8
0
  6
Continuous
 62
     7
370
    30
100
AcDbLine
 10
-220.4532413222
 20
159.5455479452
 30
0.0
 11
-220.3532413222
 21
159.5455479452
 31
0.0
  0
ARC
  5
280
330
1F
100
AcDbEntity
  8
0
  6
Continuous
 62
     7
370
    30
100
AcDbCircle
 10
-220.4532413222
 20
159.7455479452
 30
0.0
 40
0.1999999999999886
100
AcDbArc
 50
180.0
 51
270.0
  0
ARC
  5
281
330
1F
100
AcDbEntity
  8
0
  6
Continuous
 62
     7
370
    30
100
AcDbCircle
 10
-220.4532413222
 20
165.5455479452
 30
0.0
 40
0.1999999999999886
100
AcDbArc
 50
90.0
 51
180.0
  0
LINE
  5
282
330
1F
100
AcDbEntity
  8
0
  6
Continuous
 62
     7
370
    30
100
AcDbLine
 10
55.9467586778
 20
165.5455479452
 30
0.0
 11
55.9467586778
 21
159.7455479452
 31
0.0
  0
LINE
  5
283
330
1F
100
AcDbEntity
  8
0
  6
Continuous
 62
     7
370
    30
100
AcDbLine
 10
-220.6532413222
 20
162.3356476446
 30
0.0
 11
-220.6532413222
 21
165.5455479452
 31
0.0
  0
LINE
  5
284
330
1F
100
AcDbEntity
  8
0
  6
Continuous
 62
     7
370
    30
100
AcDbLine
 10
-220.6532413222
 20
159.7455479452
 30
0.0
 11
-220.6532413222
 21
162.3356476446
 31
0.0
  0
LINE
  5
285
330
1F
100
AcDbEntity
  8
0
  6
Continuous
 62
     7
370
    30
100
AcDbLine
 10
-229.3532413222
 20
191.9455479452
 30
0.0
 11
64.6467586778
 21
191.9455479452
 31
0.0
  0
LINE
  5
286
330
1F
100
AcDbEntity
  8
0
  6
Continuous
 62
     7
370
    30
100
AcDbLine
 10
-229.3532413222
 20
193.1455479452
 30
0.0
 11
64.6467586778
 21
193.1455479452
 31
0.0
  0
LINE
  5
287
330
1F
100
AcDbEntity
  8
0
  6
Continuous
 62
     7
370
    30
100
AcDbLine
 10
-229.3532413222
 20
191.9455479452
 30
0.0
 11
-232.3532413222
 21
191.9455479452
 31
0.0
  0
LINE
  5
288
330
1F
100
AcDbEntity
  8
0
  6
Continuous
 62
     7
370
    30
100
AcDbLine
 10
-232.3532413222
 20
191.9455479452
 30
0.0
 11
-232.3532413222
 21
193.1455479452
 31
0.0
  0
LINE
  5
289
330
1F
100
AcDbEntity
  8
0
  6
Continuous
 62
     7
370
    30
100
AcDbLine
 10
-232.3532413222
 20
193.1455479452
 30
0.0
 11
-229.3532413222
 21
193.1455479452
 31
0.0
  0
LINE
  5
28A
330
1F
100
AcDbEntity
  8
0
  6
Continuous
 62
     7
370
    30
100
AcDbLine
 10
67.6467586778
 20
193.1455479452
 30
0.0
 11
67.6467586778
 21
191.9455479452
 31
0.0
  0
LINE
  5
28B
330
1F
100
AcDbEntity
  8
0
  6
Continuous
 62
     7
370
    30
100
AcDbLine
 10
67.6467586778
 20
191.9455479452
 30
0.0
 11
64.6467586778
 21
191.9455479452
 31
0.0
  0
LINE
  5
28C
330
1F
100
AcDbEntity
  8
0
  6
Continuous
 62
     7
370
    30
100
AcDbLine
 10
64.6467586778
 20
193.1455479452
 30
0.0
 11
67.6467586778
 21
193.1455479452
 31
0.0
  0
LINE
  5
28D
330
1F
100
AcDbEntity
  8
0
  6
Continuous
 62
     7
370
    30
100
AcDbLine
 10
55.6467586778
 20
191.9455479452
 30
0.0
 11
55.6467586778
 21
121.1455479452
 31
0.0
  0
LINE
  5
28E
330
1F
100
AcDbEntity
  8
0
  6
Continuous
 62
     7
370
    30
100
AcDbLine
 10
55.6467586778
 20
121.1455479452
 30
0.0
 11
37.6467586778
 21
121.1455479452
 31
0.0
  0
LINE
  5
28F
330
1F
100
AcDbEntity
  8
0
  6
Continuous
 62
     7
370
    30
100
AcDbLine
 10
-220.3532413222
 20
121.1455479452
 30
0.0
 11
-220.3532413222
 21
191.9455479452
 31
0.0
  0
LINE
  5
290
330
1F
100
AcDbEntity
  8
0
  6
Continuous
 62
     7
370
    30
100
AcDbLine
 10
-202.3532413222
 20
121.1455479452
 30
0.0
 11
-220.3532413222
 21
121.1455479452
 31
0.0
  0
LINE
  5
291
330
1F
100
AcDbEntity
  8
0
  6
Continuous
 62
     7
370
    30
100
AcDbLine
 10
37.6467586778
 20
121.1455479452
 30
0.0
 11
-202.3532413222
 21
121.1455479452
 31
0.0
  0
LINE
  5
292
330
1F
100
AcDbEntity
  8
0
  6
Continuous
 62
     7
370
    30
100
AcDbLine
 10
470.3875739401
 20
165.7455479452
 30
0.0
 11
470.2875739401
 21
165.7455479452
 31
0.0
  0
LINE
  5
293
330
1F
100
AcDbEntity
  8
0
  6
Continuous
 62
     7
370
    30
100
AcDbLine
 10
470.2875739401
 20
159.5455479452
 30
0.0
 11
470.3875739401
 21
159.5455479452
 31
0.0
  0
ARC
  5
294
330
1F
100
AcDbEntity
  8
0
  6
Continuous
 62
     7
370
    30
100
AcDbCircle
 10
470.2875739401
 20
159.7455479452
 30
0.0
 40
0.1999999999999886
100
AcDbArc
 50
180.0
 51
270.0
  0
ARC
  5
295
330
1F
100
AcDbEntity
  8
0
  6
Continuous
 62
     7
370
    30
100
AcDbCircle
 10
470.2875739401
 20
165.5455479452
 30
0.0
 40
0.1999999999999886
100
AcDbArc
 50
90.0
 51
180.0
  0
ARC
  5
296
330
1F
100
AcDbEntity
  8
0
  6
Continuous
 62
     7
370
    30
100
AcDbCircle
 10
746.4875739401
 20
165.5455479452
 30
0.0
 40
0.1999999999999602
100
AcDbArc
 50
0.0
 51
90.0
  0
ARC
  5
297
330
1F
100
AcDbEntity
  8
0
  6
Continuous
 62
     7
370
    30
100
AcDbCircle
 10
746.4875739401
 20
159.7455479452
 30
0.0
 40
0.1999999999999886
100
AcDbArc
 50
270.0
 51
0.0
  0
LINE
  5
298
330
1F
100
AcDbEntity
  8
0
  6
Continuous
 62
     7
370
    30
100
AcDbLine
 10
746.3875739401
 20
159.5455479452
 30
0.0
 11
746.4875739401
 21
159.5455479452
 31
0.0
  0
LINE
  5
299
330
1F
100
AcDbEntity
  8
0
  6
Continuous
 62
     7
370
    30
100
AcDbLine
 10
746.4875739401
 20
165.7455479452
 30
0.0
 11
746.3875739401
 21
165.7455479452
 31
0.0
  0
LINE
  5
29A
330
1F
100
AcDbEntity
  8
0
  6
Continuous
 62
     7
370
    30
100
AcDbLine
 10
470.0875739401
 20
162.9554482458
 30
0.0
 11
470.0875739401
 21
165.5455479452
 31
0.0
  0
LINE
  5
29B
330
1F
100
AcDbEntity
  8
0
  6
Continuous
 62
     7
370
    30
100
AcDbLine
 10
470.0875739401
 20
159.7455479452
 30
0.0
 11
470.0875739401
 21
162.9554482458
 31
0.0
  0
LINE
  5
29C
330
1F
100
AcDbEntity
  8
0
  6
Continuous
 62
     7
370
    30
100
AcDbLine
 10
746.6875739401
 20
165.5455479452
 30
0.0
 11
746.6875739401
 21
159.7455479452
 31
0.0
  0
LINE
  5
29D
330
1F
100
AcDbEntity
  8
0
  6
Continuous
 62
     7
370
    30
100
AcDbLine
 10
758.3875739401
 20
193.1455479452
 30
0.0
 11
758.3875739401
 21
191.9455479452
 31
0.0
  0
LINE
  5
29E
330
1F
100
AcDbEntity
  8
0
  6
Continuous
 62
     7
370
    30
100
AcDbLine
 10
758.3875739401
 20
191.9455479452
 30
0.0
 11
755.3875739401
 21
191.9455479452
 31
0.0
  0
LINE
  5
29F
330
1F
100
AcDbEntity
  8
0
  6
Continuous
 62
     7
370
    30
100
AcDbLine
 10
755.3875739401
 20
193.1455479452
 30
0.0
 11
758.3875739401
 21
193.1455479452
 31
0.0
  0
LINE
  5
2A0
330
1F
100
AcDbEntity
  8
0
  6
Continuous
 62
     7
370
    30
100
AcDbLine
 10
461.3875739401
 20
191.9455479452
 30
0.0
 11
755.3875739401
 21
191.9455479452
 31
0.0
  0
LINE
  5
2A1
330
1F
100
AcDbEntity
  8
0
  6
Continuous
 62
     7
370
    30
100
AcDbLine
 10
461.3875739401
 20
193.1455479452
 30
0.0
 11
755.3875739401
 21
193.1455479452
 31
0.0
  0
LINE
  5
2A2
330
1F
100
AcDbEntity
  8
0
  6
Continuous
 62
     7
370
    30
100
AcDbLine
 10
458.3875739401
 20
191.9455479452
 30
0.0
 11
458.3875739401
 21
193.1455479452
 31
0.0
  0
LINE
  5
2A3
330
1F
100
AcDbEntity
  8
0
  6
Continuous
 62
     7
370
    30
100
AcDbLine
 10
461.3875739401
 20
191.9455479452
 30
0.0
 11
458.3875739401
 21
191.9455479452
 31
0.0
  0
LINE
  5
2A4
330
1F
100
AcDbEntity
  8
0
  6
Continuous
 62
     7
370
    30
100
AcDbLine
 10
458.3875739401
 20
193.1455479452
 30
0.0
 11
461.3875739401
 21
193.1455479452
 31
0.0
  0
LINE
  5
2A5
330
1F
100
AcDbEntity
  8
0
  6
Continuous
 62
     7
370
    30
100
AcDbLine
 10
746.3875739401
 20
121.1455479452
 30
0.0
 11
746.3875739401
 21
191.9455479452
 31
0.0
  0
LINE
  5
2A6
330
1F
100
AcDbEntity
  8
0
  6
Continuous
 62
     7
370
    30
100
AcDbLine
 10
746.3875739401
 20
121.1455479452
 30
0.0
 11
728.3875739401
 21
121.1455479452
 31
0.0
  0
LINE
  5
2A7
330
1F
100
AcDbEntity
  8
0
  6
Continuous
 62
     7
370
    30
100
AcDbLine
 10
728.3875739401
 20
121.1455479452
 30
0.0
 11
488.3875739401
 21
121.1455479452
 31
0.0
  0
LINE
  5
2A8
330
1F
100
AcDbEntity
  8
0
  6
Continuous
 62
     7
370
    30
100
AcDbLine
 10
470.3875739401
 20
121.1455479452
 30
0.0
 11
470.3875739401
 21
191.9455479452
 31
0.0
  0
LINE
  5
2A9
330
1F
100
AcDbEntity
  8
0
  6
Continuous
 62
     7
370
    30
100
AcDbLine
 10
488.3875739401
 20
121.1455479452
 30
0.0
 11
470.3875739401
 21
121.1455479452
 31
0.0
  0
LINE
  5
2AA
330
1F
100
AcDbEntity
  8
0
  6
Continuous
 62
     7
370
    30
100
AcDbLine
 10
1057.8286930449
 20
184.7455479452
 30
0.0
 11
1059.1786930449
 21
180.7455479452
 31
0.0
  0
LINE
  5
2AB
330
1F
100
AcDbEntity
  8
0
  6
Continuous
 62
     7
370
    30
100
AcDbLine
 10
1061.9786930449
 20
180.7455479452
 30
0.0
 11
1063.3286930449
 21
184.7455479452
 31
0.0
  0
LINE
  5
2AC
330
1F
100
AcDbEntity
  8
0
  6
Continuous
 62
     7
370
    30
100
AcDbLine
 10
1059.1786930449
 20
180.7455479452
 30
0.0
 11
1061.9786930449
 21
180.7455479452
 31
0.0
  0
LINE
  5
2AD
330
1F
100
AcDbEntity
  8
0
  6
Continuous
 62
     7
370
    30
100
AcDbLine
 10
1026.0490263783
 20
183.9756097328
 30
0.0
 11
1026.0490263783
 21
181.9158812785
 31
0.0
  0
ARC
  5
2AE
330
1F
100
AcDbEntity
  8
0
  6
Continuous
 62
     7
370
    30
100
AcDbCircle
 10
1025.5786930449
 20
170.2908569048
 30
0.0
 40
13.69283292115802
100
AcDbArc
 50
88.0315675336
 51
91.9684324664
  0
LINE
  5
2AF
330
1F
100
AcDbEntity
  8
0
  6
Continuous
 62
     7
370
    30
100
AcDbLine
 10
1025.1083597116
 20
181.9158812785
 30
0.0
 11
1025.1083597116
 21
183.9756097328
 31
0.0
  0
LINE
  5
2B0
330
1F
100
AcDbEntity
  8
0
  6
Continuous
 62
     7
370
    30
100
AcDbLine
 10
1023.0486312574
 20
181.9158812785
 30
0.0
 11
1025.1083597116
 21
181.9158812785
 31
0.0
  0
ARC
  5
2B1
330
1F
100
AcDbEntity
  8
0
  6
Continuous
 62
     7
370
    30
100
AcDbCircle
 10
1036.7333840856
 20
181.4455479452
 30
0.0
 40
13.69283292143871
100
AcDbArc
 50
178.0315675337
 51
181.9684324663
  0
LINE
  5
2B2
330
1F
100
AcDbEntity
  8
0
  6
Continuous
 62
     7
370
    30
100
AcDbLine
 10
1025.1083597116
 20
180.9752146119
 30
0.0
 11
1023.0486312574
 21
180.9752146119
 31
0.0
  0
LINE
  5
2B3
330
1F
100
AcDbEntity
  8
0
  6
Continuous
 62
     7
370
    30
100
AcDbLine
 10
1025.1083597116
 20
178.9154861576
 30
0.0
 11
1025.1083597116
 21
180.9752146119
 31
0.0
  0
ARC
  5
2B4
330
1F
100
AcDbEntity
  8
0
  6
Continuous
 62
     7
370
    30
100
AcDbCircle
 10
1025.5786930449
 20
192.6002389856
 30
0.0
 40
13.69283292120083
100
AcDbArc
 50
268.0315675336
 51
271.9684324664
  0
LINE
  5
2B5
330
1F
100
AcDbEntity
  8
0
  6
Continuous
 62
     7
370
    30
100
AcDbLine
 10
1026.0490263783
 20
180.9752146119
 30
0.0
 11
1026.0490263783
 21
178.9154861576
 31
0.0
  0
LINE
  5
2B6
330
1F
100
AcDbEntity
  8
0
  6
Continuous
 62
     7
370
    30
100
AcDbLine
 10
1028.1087548325
 20
180.9752146119
 30
0.0
 11
1026.0490263783
 21
180.9752146119
 31
0.0
  0
ARC
  5
2B7
330
1F
100
AcDbEntity
  8
0
  6
Continuous
 62
     7
370
    30
100
AcDbCircle
 10
1014.4240020044
 20
181.4455479452
 30
0.0
 40
13.69283292126749
100
AcDbArc
 50
358.0315675336
 51
1.9684324664
  0
LINE
  5
2B8
330
1F
100
AcDbEntity
  8
0
  6
Continuous
 62
     7
370
    30
100
AcDbLine
 10
1026.0490263783
 20
181.9158812785
 30
0.0
 11
1028.1087548325
 21
181.9158812785
 31
0.0
  0
CIRCLE
  5
2B9
330
1F
100
AcDbEntity
  8
0
  6
Continuous
 62
     7
370
    30
100
AcDbCircle
 10
1025.5786930449
 20
181.4455479452
 30
0.0
 40
3.931278341185021
  0
CIRCLE
  5
2BA
330
1F
100
AcDbEntity
  8
0
  6
Continuous
 62
     7
370
    30
100
AcDbCircle
 10
1025.5786930449
 20
181.4455479452
 30
0.0
 40
4.149999999999864
  0
LINE
  5
2BB
330
1F
100
AcDbEntity
  8
0
  6
Continuous
 62
     7
370
    30
100
AcDbLine
 10
1026.0490263783
 20
180.9752146119
 30
0.0
 11
1025.1083597116
 21
180.9752146119
 31
0.0
  0
LINE
  5
2BC
330
1F
100
AcDbEntity
  8
0
  6
Continuous
 62
     7
370
    30
100
AcDbLine
 10
1025.1083597116
 20
180.9752146119
 30
0.0
 11
1025.1083597116
 21
181.9158812785
 31
0.0
  0
LINE
  5
2BD
330
1F
100
AcDbEntity
  8
0
  6
Continuous
 62
     7
370
    30
100
AcDbLine
 10
1026.0490263783
 20
181.9158812785
 30
0.0
 11
1026.0490263783
 21
180.9752146119
 31
0.0
  0
LINE
  5
2BE
330
1F
100
AcDbEntity
  8
0
  6
Continuous
 62
     7
370
    30
100
AcDbLine
 10
1025.1083597116
 20
181.9158812785
 30
0.0
 11
1026.0490263783
 21
181.9158812785
 31
0.0
  0
LINE
  5
2BF
330
1F
100
AcDbEntity
  8
0
  6
Continuous
 62
     7
370
    30
100
AcDbLine
 10
1026.0490263783
 20
181.9158812785
 30
0.0
 11
1025.5786930449
 21
181.4455479452
 31
0.0
  0
LINE
  5
2C0
330
1F
100
AcDbEntity
  8
0
  6
Continuous
 62
     7
370
    30
100
AcDbLine
 10
1025.1083597116
 20
181.9158812785
 30
0.0
 11
1025.5786930449
 21
181.4455479452
 31
0.0
  0
LINE
  5
2C1
330
1F
100
AcDbEntity
  8
0
  6
Continuous
 62
     7
370
    30
100
AcDbLine
 10
1025.5786930449
 20
181.4455479452
 30
0.0
 11
1026.0490263783
 21
180.9752146119
 31
0.0
  0
LINE
  5
2C2
330
1F
100
AcDbEntity
  8
0
  6
Continuous
 62
     7
370
    30
100
AcDbLine
 10
1025.1083597116
 20
180.9752146119
 30
0.0
 11
1025.5786930449
 21
181.4455479452
 31
0.0
  0
LINE
  5
2C3
330
1F
100
AcDbEntity
  8
0
  6
Continuous
 62
     7
370
    30
100
AcDbLine
 10
955.5625034446
 20
191.6455479452
 30
0.0
 11
955.5786930449
 21
191.6455479452
 31
0.0
  0
LINE
  5
2C4
330
1F
100
AcDbEntity
  8
0
  6
Continuous
 62
     7
370
    30
100
AcDbLine
 10
955.5786930449
 20
188.7455479452
 30
0.0
 11
955.5625034446
 21
188.7455479452
 31
0.0
  0
CIRCLE
  5
2C5
330
1F
100
AcDbEntity
  8
0
  6
Continuous
 62
     7
370
    30
100
AcDbCircle
 10
1018.5786930449
 20
162.6455479452
 30
0.0
 40
3.099999999999892
  0
LINE
  5
2C6
330
1F
100
AcDbEntity
  8
0
  6
Continuous
 62
     7
370
    30
100
AcDbLine
 10
1105.5786930449
 20
193.1455479452
 30
0.0
 11
1105.5786930449
 21
191.9455479452
 31
0.0
  0
LINE
  5
2C7
330
1F
100
AcDbEntity
  8
0
  6
Continuous
 62
     7
370
    30
100
AcDbLine
 10
1102.5786930449
 20
193.1455479452
 30
0.0
 11
1105.5786930449
 21
193.1455479452
 31
0.0
  0
LINE
  5
2C8
330
1F
100
AcDbEntity
  8
0
  6
Continuous
 62
     7
370
    30
100
AcDbLine
 10
1105.5786930449
 20
191.9455479452
 30
0.0
 11
1102.5786930449
 21
191.9455479452
 31
0.0
  0
LINE
  5
2C9
330
1F
100
AcDbEntity
  8
0
  6
Continuous
 62
     7
370
    30
100
AcDbLine
 10
808.5786930449
 20
193.1455479452
 30
0.0
 11
1102.5786930449
 21
193.1455479452
 31
0.0
  0
LINE
  5
2CA
330
1F
100
AcDbEntity
  8
0
  6
Continuous
 62
     7
370
    30
100
AcDbLine
 10
808.5786930449
 20
191.9455479452
 30
0.0
 11
1102.5786930449
 21
191.9455479452
 31
0.0
  0
LINE
  5
2CB
330
1F
100
AcDbEntity
  8
0
  6
Continuous
 62
     7
370
    30
100
AcDbLine
 10
805.5786930449
 20
191.9455479452
 30
0.0
 11
805.5786930449
 21
193.1455479452
 31
0.0
  0
LINE
  5
2CC
330
1F
100
AcDbEntity
  8
0
  6
Continuous
 62
     7
370
    30
100
AcDbLine
 10
805.5786930449
 20
193.1455479452
 30
0.0
 11
808.5786930449
 21
193.1455479452
 31
0.0
  0
LINE
  5
2CD
330
1F
100
AcDbEntity
  8
0
  6
Continuous
 62
     7
370
    30
100
AcDbLine
 10
808.5786930449
 20
191.9455479452
 30
0.0
 11
805.5786930449
 21
191.9455479452
 31
0.0
  0
LINE
  5
2CE
330
1F
100
AcDbEntity
  8
0
  6
Continuous
 62
     7
370
    30
100
AcDbLine
 10
1093.5786930449
 20
191.9455479452
 30
0.0
 11
1093.5786930449
 21
121.1455479452
 31
0.0
  0
LINE
  5
2CF
330
1F
100
AcDbEntity
  8
0
  6
Continuous
 62
     7
370
    30
100
AcDbLine
 10
1093.5786930449
 20
121.1455479452
 30
0.0
 11
1075.5786930449
 21
121.1455479452
 31
0.0
  0
LINE
  5
2D0
330
1F
100
AcDbEntity
  8
0
  6
Continuous
 62
     7
370
    30
100
AcDbLine
 10
1052.5786930449
 20
172.2455479452
 30
0.0
 11
1052.5786930449
 21
185.7455479452
 31
0.0
  0
ARC
  5
2D1
330
1F
100
AcDbEntity
  8
0
  6
Continuous
 62
     7
370
    30
100
AcDbCircle
 10
1053.5786930449
 20
172.2455479452
 30
0.0
 40
1.0
100
AcDbArc
 50
180.0
 51
270.0
  0
LINE
  5
2D2
330
1F
100
AcDbEntity
  8
0
  6
Continuous
 62
     7
370
    30
100
AcDbLine
 10
1067.5786930449
 20
171.2455479452
 30
0.0
 11
1053.5786930449
 21
171.2455479452
 31
0.0
  0
ARC
  5
2D3
330
1F
100
AcDbEntity
  8
0
  6
Continuous
 62
     7
370
    30
100
AcDbCircle
 10
1067.5786930449
 20
172.2455479452
 30
0.0
 40
1.0
100
AcDbArc
 50
270.0
 51
0.0
  0
LINE
  5
2D4
330
1F
100
AcDbEntity
  8
0
  6
Continuous
 62
     7
370
    30
100
AcDbLine
 10
1068.5786930449
 20
185.7455479452
 30
0.0
 11
1068.5786930449
 21
172.2455479452
 31
0.0
  0
ARC
  5
2D5
330
1F
100
AcDbEntity
  8
0
  6
Continuous
 62
     7
370
    30
100
AcDbCircle
 10
1067.5786930449
 20
185.7455479452
 30
0.0
 40
1.0
100
AcDbArc
 50
0.0
 51
180.0
  0
ARC
  5
2D6
330
1F
100
AcDbEntity
  8
0
  6
Continuous
 62
     7
370
    30
100
AcDbCircle
 10
1053.5786930449
 20
185.7455479452
 30
0.0
 40
1.0
100
AcDbArc
 50
0.0
 51
180.0
  0
LINE
  5
2D7
330
1F
100
AcDbEntity
  8
0
  6
Continuous
 62
     7
370
    30
100
AcDbLine
 10
955.5786930449
 20
121.1455479452
 30
0.0
 11
955.5786930449
 21
191.9455479452
 31
0.0
  0
LINE
  5
2D8
330
1F
100
AcDbEntity
  8
0
  6
Continuous
 62
     7
370
    30
100
AcDbLine
 10
1075.5786930449
 20
121.1455479452
 30
0.0
 11
955.5786930449
 21
121.1455479452
 31
0.0
  0
LINE
  5
2D9
330
1F
100
AcDbEntity
  8
0
  6
Continuous
 62
     7
370
    30
100
AcDbLine
 10
1066.5786930449
 20
185.7455479452
 30
0.0
 11
1066.5786930449
 21
184.7455479452
 31
0.0
  0
LINE
  5
2DA
330
1F
100
AcDbEntity
  8
0
  6
Continuous
 62
     7
370
    30
100
AcDbLine
 10
1066.5786930449
 20
184.7455479452
 30
0.0
 11
1054.5786930449
 21
184.7455479452
 31
0.0
  0
LINE
  5
2DB
330
1F
100
AcDbEntity
  8
0
  6
Continuous
 62
     7
370
    30
100
AcDbLine
 10
1054.5786930449
 20
184.7455479452
 30
0.0
 11
1054.5786930449
 21
185.7455479452
 31
0.0
  0
CIRCLE
  5
2DC
330
1F
100
AcDbEntity
  8
0
  6
Continuous
 62
     7
370
    30
100
AcDbCircle
 10
1025.5786930449
 20
181.4455479452
 30
0.0
 40
6.75
  0
LINE
  5
2DD
330
1F
100
AcDbEntity
  8
0
  6
Continuous
 62
     7
370
    30
100
AcDbLine
 10
955.5625034446
 20
121.1455479452
 30
0.0
 11
955.5625034446
 21
191.9455479452
 31
0.0
  0
LINE
  5
2DE
330
1F
100
AcDbEntity
  8
0
  6
Continuous
 62
     7
370
    30
100
AcDbLine
 10
955.5621392267
 20
121.1455479452
 30
0.0
 11
955.5621392267
 21
191.9455479452
 31
0.0
  0
LINE
  5
2DF
330
1F
100
AcDbEntity
  8
0
  6
Continuous
 62
     7
370
    30
100
AcDbLine
 10
955.5625034446
 20
121.1455479452
 30
0.0
 11
955.5621392267
 21
121.1455479452
 31
0.0
  0
LINE
  5
2E0
330
1F
100
AcDbEntity
  8
0
  6
Continuous
 62
     7
370
    30
100
AcDbLine
 10
955.5621392267
 20
121.1455479452
 30
0.0
 11
835.5786930449
 21
121.1455479452
 31
0.0
  0
LINE
  5
2E1
330
1F
100
AcDbEntity
  8
0
  6
Continuous
 62
     7
370
    30
100
AcDbLine
 10
817.5786930449
 20
121.1455479452
 30
0.0
 11
817.5786930449
 21
191.9455479452
 31
0.0
  0
LINE
  5
2E2
330
1F
100
AcDbEntity
  8
0
  6
Continuous
 62
     7
370
    30
100
AcDbLine
 10
835.5786930449
 20
121.1455479452
 30
0.0
 11
817.5786930449
 21
121.1455479452
 31
0.0
  0
LINE
  5
2E3
330
1F
100
AcDbEntity
  8
0
  6
Continuous
 62
     7
370
    30
100
AcDbLine
 10
955.5786930449
 20
121.1455479452
 30
0.0
 11
955.5625034446
 21
121.1455479452
 31
0.0
  0
ENDSEC
  0
SECTION
  2
OBJECTS
  0
DICTIONARY
  5
C
330
0
100
AcDbDictionary
281
     1
  3
ACAD_GROUP
350
D
  3
ACAD_LAYOUT
350
1A
  3
ACAD_MLINESTYLE
350
17
  3
ACAD_PLOTSETTINGS
350
19
  3
ACAD_PLOTSTYLENAME
350
E
  3
ACAD_SCALELIST
350
47
  0
DICTIONARY
  5
D
102
{ACAD_REACTORS
330
C
102
}
330
C
100
AcDbDictionary
281
     1
  0
DICTIONARY
  5
1A
102
{ACAD_REACTORS
330
C
102
}
330
C
100
AcDbDictionary
281
     1
  3
Layout1
350
1E
  3
Layout2
350
26
  3
Model
350
22
  0
DICTIONARY
  5
17
102
{ACAD_REACTORS
330
C
102
}
330
C
100
AcDbDictionary
281
     1
  3
Standard
350
18
  0
DICTIONARY
  5
19
102
{ACAD_REACTORS
330
C
102
}
330
C
100
AcDbDictionary
281
     1
  0
ACDBDICTIONARYWDFLT
  5
E
102
{ACAD_REACTORS
330
C
102
}
330
C
100
AcDbDictionary
281
     1
  3
Normal
350
F
100
AcDbDictionaryWithDefault
340
F
  0
DICTIONARY
  5
47
102
{ACAD_REACTORS
330
C
102
}
330
C
100
AcDbDictionary
281
     1
  3
A0
350
48
  3
A1
350
49
  3
A2
350
4A
  3
A3
350
4B
  3
A4
350
4C
  3
A5
350
4D
  3
A6
350
4E
  3
A7
350
4F
  3
A8
350
50
  3
A9
350
51
  3
B0
350
52
  3
B1
350
53
  3
B2
350
54
  3
B3
350
55
  3
B4
350
56
  3
B5
350
57
  3
B6
350
58
  3
B7
350
59
  3
B8
350
5A
  3
B9
350
5B
  3
C0
350
5C
  3
C1
350
5D
  3
C2
350
5E
  3
C3
350
5F
  3
C4
350
60
  3
C5
350
61
  3
C6
350
62
  3
C7
350
63
  3
C8
350
64
  3
C9
350
65
  3
D0
350
66
  3
D1
350
67
  3
D2
350
68
  0
LAYOUT
  5
1E
102
{ACAD_REACTORS
330
1A
102
}
330
1A
100
AcDbPlotSettings
  1

  2
none_device
  4

  6

 40
0.0
 41
0.0
 42
0.0
 43
0.0
 44
0.0
 45
0.0
 46
0.0
 47
0.0
 48
0.0
 49
0.0
140
0.0
141
0.0
142
1.0
143
1.0
 70
   688
 72
     1
 73
     0
 74
     5
  7

 75
    16
147
1.0
148
0.0
149
0.0
100
AcDbLayout
  1
Layout1
 70
     1
 71
     1
 10
0.0
 20
0.0
 11
420.0
 21
297.0
 12
0.0
 22
0.0
 32
0.0
 14
1.0000000000E+20
 24
1.0000000000E+20
 34
1.0000000000E+20
 15
-1.0000000000E+20
 25
-1.0000000000E+20
 35
-1.0000000000E+20
146
0.0
 13
0.0
 23
0.0
 33
0.0
 16
1.0
 26
0.0
 36
0.0
 17
0.0
 27
1.0
 37
0.0
 76
     0
330
1B
  0
LAYOUT
  5
26
102
{ACAD_REACTORS
330
1A
102
}
330
1A
100
AcDbPlotSettings
  1

  2
none_device
  4

  6

 40
0.0
 41
0.0
 42
0.0
 43
0.0
 44
0.0
 45
0.0
 46
0.0
 47
0.0
 48
0.0
 49
0.0
140
0.0
141
0.0
142
1.0
143
1.0
 70
   688
 72
     1
 73
     0
 74
     5
  7

 75
    16
147
1.0
148
0.0
149
0.0
100
AcDbLayout
  1
Layout2
 70
     1
 71
     2
 10
0.0
 20
0.0
 11
0.0
 21
0.0
 12
0.0
 22
0.0
 32
0.0
 14
0.0
 24
0.0
 34
0.0
 15
0.0
 25
0.0
 35
0.0
146
0.0
 13
0.0
 23
0.0
 33
0.0
 16
1.0
 26
0.0
 36
0.0
 17
0.0
 27
1.0
 37
0.0
 76
     0
330
23
  0
LAYOUT
  5
22
102
{ACAD_REACTORS
330
1A
102
}
330
1A
100
AcDbPlotSettings
  1

  2
none_device
  4
Letter_(8.50_x_11.00_Inches)
  6

 40
6.35
 41
6.35
 42
6.35000508
 43
6.35000508
 44
215.9
 45
279.4
 46
0.0
 47
0.0
 48
0.0
 49
0.0
140
0.0
141
0.0
142
1.0
143
1.0
 70
  1712
 72
     1
 73
     0
 74
     0
  7

 75
     0
147
1.0
148
0.0
149
0.0
100
AcDbLayout
  1
Model
 70
     1
 71
     0
 10
0.0
 20
0.0
 11
420.0
 21
297.0
 12
0.0
 22
0.0
 32
0.0
 14
0.0
 24
0.0
 34
0.0
 15
420.0
 25
297.0
 35
0.0
146
0.0
 13
0.0
 23
0.0
 33
0.0
 16
1.0
 26
0.0
 36
0.0
 17
0.0
 27
1.0
 37
0.0
 76
     0
330
1F
331
29
  0
MLINESTYLE
  5
18
102
{ACAD_REACTORS
330
17
102
}
330
17
100
AcDbMlineStyle
  2
Standard
 70
     0
  3

 62
   256
 51
90.0
 52
90.0
 71
     2
 49
0.5
 62
   256
  6
BYLAYER
 49
-0.5
 62
   256
  6
BYLAYER
  0
ACDBPLACEHOLDER
  5
F
102
{ACAD_REACTORS
330
E
102
}
330
E
  0
SCALE
  5
48
102
{ACAD_REACTORS
330
47
102
}
330
47
100
AcDbScale
 70
     0
300
1:1
140
1.0
141
1.0
290
     1
  0
SCALE
  5
49
102
{ACAD_REACTORS
330
47
102
}
330
47
100
AcDbScale
 70
     0
300
1:2
140
1.0
141
2.0
290
     0
  0
SCALE
  5
4A
102
{ACAD_REACTORS
330
47
102
}
330
47
100
AcDbScale
 70
     0
300
1:4
140
1.0
141
4.0
290
     0
  0
SCALE
  5
4B
102
{ACAD_REACTORS
330
47
102
}
330
47
100
AcDbScale
 70
     0
300
1:5
140
1.0
141
5.0
290
     0
  0
SCALE
  5
4C
102
{ACAD_REACTORS
330
47
102
}
330
47
100
AcDbScale
 70
     0
300
1:8
140
1.0
141
8.0
290
     0
  0
SCALE
  5
4D
102
{ACAD_REACTORS
330
47
102
}
330
47
100
AcDbScale
 70
     0
300
1:10
140
1.0
141
10.0
290
     0
  0
SCALE
  5
4E
102
{ACAD_REACTORS
330
47
102
}
330
47
100
AcDbScale
 70
     0
300
1:16
140
1.0
141
16.0
290
     0
  0
SCALE
  5
4F
102
{ACAD_REACTORS
330
47
102
}
330
47
100
AcDbScale
 70
     0
300
1:20
140
1.0
141
20.0
290
     0
  0
SCALE
  5
50
102
{ACAD_REACTORS
330
47
102
}
330
47
100
AcDbScale
 70
     0
300
1:30
140
1.0
141
30.0
290
     0
  0
SCALE
  5
51
102
{ACAD_REACTORS
330
47
102
}
330
47
100
AcDbScale
 70
     0
300
1:40
140
1.0
141
40.0
290
     0
  0
SCALE
  5
52
102
{ACAD_REACTORS
330
47
102
}
330
47
100
AcDbScale
 70
     0
300
1:50
140
1.0
141
50.0
290
     0
  0
SCALE
  5
53
102
{ACAD_REACTORS
330
47
102
}
330
47
100
AcDbScale
 70
     0
300
1:100
140
1.0
141
100.0
290
     0
  0
SCALE
  5
54
102
{ACAD_REACTORS
330
47
102
}
330
47
100
AcDbScale
 70
     0
300
2:1
140
2.0
141
1.0
290
     0
  0
SCALE
  5
55
102
{ACAD_REACTORS
330
47
102
}
330
47
100
AcDbScale
 70
     0
300
4:1
140
4.0
141
1.0
290
     0
  0
SCALE
  5
56
102
{ACAD_REACTORS
330
47
102
}
330
47
100
AcDbScale
 70
     0
300
8:1
140
8.0
141
1.0
290
     0
  0
SCALE
  5
57
102
{ACAD_REACTORS
330
47
102
}
330
47
100
AcDbScale
 70
     0
300
10:1
140
10.0
141
1.0
290
     0
  0
SCALE
  5
58
102
{ACAD_REACTORS
330
47
102
}
330
47
100
AcDbScale
 70
     0
300
100:1
140
100.0
141
1.0
290
     0
  0
SCALE
  5
59
102
{ACAD_REACTORS
330
47
102
}
330
47
100
AcDbScale
 70
     0
300
1/128" = 1'-0"
140
0.0078125
141
12.0
290
     0
  0
SCALE
  5
5A
102
{ACAD_REACTORS
330
47
102
}
330
47
100
AcDbScale
 70
     0
300
1/64" = 1'-0"
140
0.015625
141
12.0
290
     0
  0
SCALE
  5
5B
102
{ACAD_REACTORS
330
47
102
}
330
47
100
AcDbScale
 70
     0
300
1/32" = 1'-0"
140
0.03125
141
12.0
290
     0
  0
SCALE
  5
5C
102
{ACAD_REACTORS
330
47
102
}
330
47
100
AcDbScale
 70
     0
300
1/16" = 1'-0"
140
0.0625
141
12.0
290
     0
  0
SCALE
  5
5D
102
{ACAD_REACTORS
330
47
102
}
330
47
100
AcDbScale
 70
     0
300
3/32" = 1'-0"
140
0.09375
141
12.0
290
     0
  0
SCALE
  5
5E
102
{ACAD_REACTORS
330
47
102
}
330
47
100
AcDbScale
 70
     0
300
1/8" = 1'-0"
140
0.125
141
12.0
290
     0
  0
SCALE
  5
5F
102
{ACAD_REACTORS
330
47
102
}
330
47
100
AcDbScale
 70
     0
300
3/16" = 1'-0"
140
0.1875
141
12.0
290
     0
  0
SCALE
  5
60
102
{ACAD_REACTORS
330
47
102
}
330
47
100
AcDbScale
 70
     0
300
1/4" = 1'-0"
140
0.25
141
12.0
290
     0
  0
SCALE
  5
61
102
{ACAD_REACTORS
330
47
102
}
330
47
100
AcDbScale
 70
     0
300
3/8" = 1'-0"
140
0.375
141
12.0
290
     0
  0
SCALE
  5
62
102
{ACAD_REACTORS
330
47
102
}
330
47
100
AcDbScale
 70
     0
300
1/2" = 1'-0"
140
0.5
141
12.0
290
     0
  0
SCALE
  5
63
102
{ACAD_REACTORS
330
47
102
}
330
47
100
AcDbScale
 70
     0
300
3/4" = 1'-0"
140
0.75
141
12.0
290
     0
  0
SCALE
  5
64
102
{ACAD_REACTORS
330
47
102
}
330
47
100
AcDbScale
 70
     0
300
1" = 1'-0"
140
1.0
141
12.0
290
     0
  0
SCALE
  5
65
102
{ACAD_REACTORS
330
47
102
}
330
47
100
AcDbScale
 70
     0
300
1-1/2" = 1'-0"
140
1.5
141
12.0
290
     0
  0
SCALE
  5
66
102
{ACAD_REACTORS
330
47
102
}
330
47
100
AcDbScale
 70
     0
300
3" = 1'-0"
140
3.0
141
12.0
290
     0
  0
SCALE
  5
67
102
{ACAD_REACTORS
330
47
102
}
330
47
100
AcDbScale
 70
     0
300
6" = 1'-0"
140
6.0
141
12.0
290
     0
  0
SCALE
  5
68
102
{ACAD_REACTORS
330
47
102
}
330
47
100
AcDbScale
 70
     0
300
1'-0" = 1'-0"
140
12.0
141
12.0
290
     0
  0
ENDSEC
  0
EOF
