  0
SECTION
  2
HEADER
  9
$ACADVER
  1
AC1009
  9
$LUNITS
 70
2
  9
$LUPREC
 70
4
  9
$LTSCALE
 40
1.0
  9
$EXTMIN
 10
-104.7936
 20
0.176
 30
0
  9
$EXTMAX
 10
315.2069
 20
297.1763
 30
0
  0
ENDSEC
  0
SECTION
  2
TABLES
  0
TABLE
  2
LTYPE
 70
256
  0
LTYPE
  2
AIGENLINE001
 70
64
  3
generate AI->DXF Converter
 72
65
 73
2
 40
1.5522
 49
0.7761
 49
-0.7761
  0
LTYPE
  2
AIGENLINE002
 70
64
  3
generate AI->DXF Converter
 72
65
 73
4
 40
5.8561
 49
3.5278
 49
-0.7761
 49
0.7761
 49
-0.7761
  0
LTYPE
  2
AIGENLINE003
 70
64
  3
generate AI->DXF Converter
 72
65
 73
6
 40
7.4083
 49
3.5278
 49
-0.7761
 49
0.7761
 49
-0.7761
 49
0.7761
 49
-0.7761
  0
ENDTAB
  0
TABLE
  2
LAYER
 70
3
  0
LAYER
  2
LAYER_1
 70
64
 62
7
  6
CONTINUOUS
  0
LAYER
  2
LAYER_2
 70
64
 62
7
  6
CONTINUOUS
  0
LAYER
  2
LAYER_3
 70
64
 62
7
  6
CONTINUOUS
  0
ENDTAB
  0
TABLE
  2
STYLE
 70
6
  0
STYLE
  2
STANDARD
 70
0
 40
0
 50
0
 71
0
 41
0
 42
0
  3
TXT
  4
BIGFONT
  0
ENDTAB
  0
ENDSEC
  0
SECTION
  2
BLOCKS
  0
BLOCK
  8
LAYER_2
  2
AIGNBL02020234
 70
64
 10
0
 20
0
 30
0
  3
AIGNBL02020234
  0
LINE
  8
LAYER_2
 10
-61.9423
 20
155.0856
 11
19.1833
 21
155.0856
  0
ENDBLK
  0
BLOCK
  8
LAYER_2
  2
AIGNBL02020238
 70
64
 10
0
 20
0
 30
0
  3
AIGNBL02020238
  0
LINE
  8
LAYER_2
 10
74.1698
 20
96.2401
 11
74.1698
 21
82.5211
  0
ENDBLK
  0
BLOCK
  8
LAYER_2
  2
AIGNBL0202023A
 70
64
 10
0
 20
0
 30
0
  3
AIGNBL0202023A
  0
LINE
  8
LAYER_2
 10
-69.6092
 20
96.2401
 11
-69.6092
 21
79.9903
  0
ENDBLK
  0
BLOCK
  8
LAYER_2
  2
AIGNBL0202023E
 70
64
 10
0
 20
0
 30
0
  3
AIGNBL0202023E
  0
LINE
  8
LAYER_2
 10
37.4222
 20
226.3896
 11
37.4222
 21
167.7646
  0
ENDBLK
  0
BLOCK
  8
LAYER_2
  2
AIGNBL02020240
 70
64
 10
0
 20
0
 30
0
  3
AIGNBL02020240
  0
LINE
  8
LAYER_2
 10
-15.4015
 20
203.3676
 11
-26.71
 21
192.0587
  0
ENDBLK
  0
BLOCK
  8
LAYER_2
  2
AIGNBL02020242
 70
64
 10
0
 20
0
 30
0
  3
AIGNBL02020242
  0
LINE
  8
LAYER_2
 10
28.6136
 20
226.3896
 11
28.6136
 21
197.3897
  0
ENDBLK
  0
BLOCK
  8
LAYER_2
  2
AIGNBL02020294
 70
64
 10
0
 20
0
 30
0
  3
AIGNBL02020294
  0
LINE
  8
LAYER_2
 10
60.0201
 20
178.0146
 11
60.0201
 21
216.7647
  0
ENDBLK
  0
BLOCK
  8
LAYER_2
  2
AIGNBL02020299
 70
64
 10
0
 20
0
 30
0
  3
AIGNBL02020299
  0
LINE
  8
LAYER_2
 10
91.6247
 20
216.7647
 11
79.8749
 21
205.0147
  0
ENDBLK
  0
BLOCK
  8
LAYER_2
  2
AIGNBL0202029F
 70
64
 10
0
 20
0
 30
0
  3
AIGNBL0202029F
  0
LINE
  8
LAYER_2
 10
91.6247
 20
169.0396
 11
68.1244
 21
169.0396
  0
ENDBLK
  0
BLOCK
  8
LAYER_2
  2
AIGNBL02010002
 70
64
 10
0
 20
0
 30
0
  3
AIGNBL02010002
  0
LINE
  8
LAYER_2
 10
184.2303
 20
205.9051
 11
184.1362
 21
206.9071
  0
ENDBLK
  0
BLOCK
  8
LAYER_2
  2
AIGNBL02010003
 70
64
 10
0
 20
0
 30
0
  3
AIGNBL02010003
  0
LINE
  8
LAYER_2
 10
186.3001
 20
206.9071
 11
186.3001
 21
206.6484
  0
LINE
  8
LAYER_2
 10
186.3001
 20
206.6484
 11
186.3001
 21
205.9051
  0
ENDBLK
  0
BLOCK
  8
LAYER_2
  2
AIGNBL02010004
 70
64
 10
0
 20
0
 30
0
  3
AIGNBL02010004
  0
LINE
  8
LAYER_2
 10
187.758
 20
205.9051
 11
187.758
 21
205.999
  0
LINE
  8
LAYER_2
 10
187.758
 20
205.999
 11
187.8052
 21
206.7426
  0
LINE
  8
LAYER_2
 10
187.8052
 20
206.7426
 11
187.8287
 21
206.9071
  0
LINE
  8
LAYER_2
 10
187.8287
 20
206.9071
 11
187.8287
 21
206.9307
  0
ENDBLK
  0
BLOCK
  8
LAYER_2
  2
AIGNBL02010005
 70
64
 10
0
 20
0
 30
0
  3
AIGNBL02010005
  0
LINE
  8
LAYER_2
 10
184.3243
 20
206.9307
 11
184.3243
 21
206.9071
  0
LINE
  8
LAYER_2
 10
184.3243
 20
206.9071
 11
184.3949
 21
205.9051
  0
ENDBLK
  0
BLOCK
  8
LAYER_2
  2
AIGNBL02010006
 70
64
 10
0
 20
0
 30
0
  3
AIGNBL02010006
  0
LINE
  8
LAYER_2
 10
186.112
 20
205.9051
 11
186.112
 21
206.2107
  0
LINE
  8
LAYER_2
 10
186.112
 20
206.2107
 11
186.112
 21
206.9071
  0
ENDBLK
  0
BLOCK
  8
LAYER_2
  2
AIGNBL02010007
 70
64
 10
0
 20
0
 30
0
  3
AIGNBL02010007
  0
LINE
  8
LAYER_2
 10
188.7196
 20
205.9051
 11
188.7898
 21
206.9071
  0
ENDBLK
  0
BLOCK
  8
LAYER_2
  2
AIGNBL02010008
 70
64
 10
0
 20
0
 30
0
  3
AIGNBL02010008
  0
LINE
  8
LAYER_2
 10
187.9933
 20
206.9071
 11
187.9696
 21
206.6484
  0
LINE
  8
LAYER_2
 10
187.9696
 20
206.6484
 11
187.9227
 21
205.9051
  0
ENDBLK
  0
BLOCK
  8
LAYER_2
  2
AIGNBL02010009
 70
64
 10
0
 20
0
 30
0
  3
AIGNBL02010009
  0
LINE
  8
LAYER_2
 10
188.8842
 20
207.0482
 11
189.0251
 21
207.0482
  0
LINE
  8
LAYER_2
 10
189.0251
 20
207.0482
 11
189.1664
 21
207.0482
  0
LINE
  8
LAYER_2
 10
189.1664
 20
207.0482
 11
189.2839
 21
207.0482
  0
LINE
  8
LAYER_2
 10
189.2839
 20
207.0482
 11
189.4017
 21
207.0482
  0
LINE
  8
LAYER_2
 10
189.4017
 20
207.0482
 11
189.472
 21
207.0482
  0
LINE
  8
LAYER_2
 10
189.472
 20
207.0482
 11
189.5192
 21
207.0482
  0
LINE
  8
LAYER_2
 10
189.5192
 20
207.0482
 11
189.5426
 21
207.0482
  0
LINE
  8
LAYER_2
 10
189.5426
 20
207.0482
 11
189.566
 21
207.0482
  0
ENDBLK
  0
BLOCK
  8
LAYER_2
  2
AIGNBL0201000A
 70
64
 10
0
 20
0
 30
0
  3
AIGNBL0201000A
  0
LINE
  8
LAYER_2
 10
182.887
 20
207.0482
 11
182.9104
 21
207.0482
  0
LINE
  8
LAYER_2
 10
182.9104
 20
207.0482
 11
182.9573
 21
207.0482
  0
LINE
  8
LAYER_2
 10
182.9573
 20
207.0482
 11
183.0279
 21
207.0482
  0
LINE
  8
LAYER_2
 10
183.0279
 20
207.0482
 11
183.0985
 21
207.0482
  0
LINE
  8
LAYER_2
 10
183.0985
 20
207.0482
 11
183.216
 21
207.0482
  0
LINE
  8
LAYER_2
 10
183.216
 20
207.0482
 11
183.3335
 21
207.0482
  0
ENDBLK
  0
BLOCK
  8
LAYER_2
  2
AIGNBL0201000B
 70
64
 10
0
 20
0
 30
0
  3
AIGNBL0201000B
  0
LINE
  8
LAYER_2
 10
189.566
 20
207.3775
 11
189.5426
 21
207.3775
  0
LINE
  8
LAYER_2
 10
189.5426
 20
207.3775
 11
189.5192
 21
207.3775
  0
LINE
  8
LAYER_2
 10
189.5192
 20
207.3775
 11
189.472
 21
207.3775
  0
LINE
  8
LAYER_2
 10
189.472
 20
207.3775
 11
189.4017
 21
207.3775
  0
LINE
  8
LAYER_2
 10
189.4017
 20
207.3775
 11
189.3073
 21
207.3775
  0
LINE
  8
LAYER_2
 10
189.3073
 20
207.3775
 11
189.2132
 21
207.3775
  0
LINE
  8
LAYER_2
 10
189.2132
 20
207.3775
 11
189.0723
 21
207.3775
  0
LINE
  8
LAYER_2
 10
189.0723
 20
207.3775
 11
188.9311
 21
207.3775
  0
LINE
  8
LAYER_2
 10
188.9311
 20
207.3775
 11
188.7664
 21
207.3775
  0
LINE
  8
LAYER_2
 10
188.7664
 20
207.3775
 11
188.6017
 21
207.3775
  0
LINE
  8
LAYER_2
 10
188.6017
 20
207.3775
 11
188.3902
 21
207.3775
  0
ENDBLK
  0
BLOCK
  8
LAYER_2
  2
AIGNBL0201000C
 70
64
 10
0
 20
0
 30
0
  3
AIGNBL0201000C
  0
LINE
  8
LAYER_2
 10
188.3902
 20
207.3775
 11
188.2021
 21
207.3775
  0
LINE
  8
LAYER_2
 10
188.2021
 20
207.3775
 11
187.9668
 21
207.3775
  0
LINE
  8
LAYER_2
 10
187.9668
 20
207.3775
 11
187.7315
 21
207.3775
  0
LINE
  8
LAYER_2
 10
187.7315
 20
207.3775
 11
187.4966
 21
207.3775
  0
LINE
  8
LAYER_2
 10
187.4966
 20
207.3775
 11
187.2612
 21
207.3775
  0
LINE
  8
LAYER_2
 10
187.2612
 20
207.3775
 11
187.0025
 21
207.3775
  0
LINE
  8
LAYER_2
 10
187.0025
 20
207.3775
 11
186.7438
 21
207.3775
  0
LINE
  8
LAYER_2
 10
186.7438
 20
207.3775
 11
186.4616
 21
207.3775
  0
LINE
  8
LAYER_2
 10
186.4616
 20
207.3775
 11
186.2029
 21
207.3775
  0
LINE
  8
LAYER_2
 10
186.2029
 20
207.3775
 11
185.9442
 21
207.3775
  0
LINE
  8
LAYER_2
 10
185.9442
 20
207.3775
 11
185.6855
 21
207.3775
  0
LINE
  8
LAYER_2
 10
185.6855
 20
207.3775
 11
185.4267
 21
207.3775
  0
LINE
  8
LAYER_2
 10
185.4267
 20
207.3775
 11
185.1684
 21
207.3775
  0
LINE
  8
LAYER_2
 10
185.1684
 20
207.3775
 11
184.9093
 21
207.3775
  0
LINE
  8
LAYER_2
 10
184.9093
 20
207.3775
 11
184.6743
 21
207.3775
  0
LINE
  8
LAYER_2
 10
184.6743
 20
207.3775
 11
184.439
 21
207.3775
  0
LINE
  8
LAYER_2
 10
184.439
 20
207.3775
 11
184.2275
 21
207.3775
  0
LINE
  8
LAYER_2
 10
184.2275
 20
207.3775
 11
184.0156
 21
207.3775
  0
LINE
  8
LAYER_2
 10
184.0156
 20
207.3775
 11
183.8275
 21
207.3775
  0
LINE
  8
LAYER_2
 10
183.8275
 20
207.3775
 11
183.6628
 21
207.3775
  0
LINE
  8
LAYER_2
 10
183.6628
 20
207.3775
 11
183.4982
 21
207.3775
  0
LINE
  8
LAYER_2
 10
183.4982
 20
207.3775
 11
183.3573
 21
207.3775
  0
LINE
  8
LAYER_2
 10
183.3573
 20
207.3775
 11
183.216
 21
207.3775
  0
LINE
  8
LAYER_2
 10
183.216
 20
207.3775
 11
183.122
 21
207.3775
  0
LINE
  8
LAYER_2
 10
183.122
 20
207.3775
 11
183.0279
 21
207.3775
  0
LINE
  8
LAYER_2
 10
183.0279
 20
207.3775
 11
182.9573
 21
207.3775
  0
LINE
  8
LAYER_2
 10
182.9573
 20
207.3775
 11
182.9104
 21
207.3775
  0
LINE
  8
LAYER_2
 10
182.9104
 20
207.3775
 11
182.887
 21
207.3775
  0
ENDBLK
  0
BLOCK
  8
LAYER_2
  2
AIGNBL0201000D
 70
64
 10
0
 20
0
 30
0
  3
AIGNBL0201000D
  0
LINE
  8
LAYER_2
 10
192.6704
 20
194.2633
 11
192.4117
 21
194.2633
  0
ENDBLK
  0
BLOCK
  8
LAYER_2
  2
AIGNBL0201000E
 70
64
 10
0
 20
0
 30
0
  3
AIGNBL0201000E
  0
LINE
  8
LAYER_2
 10
192.6704
 20
196.5916
 11
192.4117
 21
196.5916
  0
ENDBLK
  0
BLOCK
  8
LAYER_2
  2
AIGNBL0201000F
 70
64
 10
0
 20
0
 30
0
  3
AIGNBL0201000F
  0
LINE
  8
LAYER_2
 10
196.4569
 20
205.5757
 11
196.4335
 21
205.5757
  0
LINE
  8
LAYER_2
 10
196.4335
 20
205.5757
 11
196.41
 21
205.5757
  0
LINE
  8
LAYER_2
 10
196.41
 20
205.5757
 11
196.3628
 21
205.5757
  0
LINE
  8
LAYER_2
 10
196.3628
 20
205.5757
 11
196.2922
 21
205.5757
  0
LINE
  8
LAYER_2
 10
196.2922
 20
205.5757
 11
196.1982
 21
205.5757
  0
LINE
  8
LAYER_2
 10
196.1982
 20
205.5757
 11
196.0807
 21
205.5757
  0
LINE
  8
LAYER_2
 10
196.0807
 20
205.5757
 11
195.9394
 21
205.5757
  0
LINE
  8
LAYER_2
 10
195.9394
 20
205.5757
 11
195.7748
 21
205.5757
  0
LINE
  8
LAYER_2
 10
195.7748
 20
205.5757
 11
195.6101
 21
205.5757
  0
LINE
  8
LAYER_2
 10
195.6101
 20
205.5757
 11
195.422
 21
205.5757
  0
LINE
  8
LAYER_2
 10
195.422
 20
205.5757
 11
195.2105
 21
205.5757
  0
LINE
  8
LAYER_2
 10
195.2105
 20
205.5757
 11
194.9752
 21
205.5757
  0
LINE
  8
LAYER_2
 10
194.9752
 20
205.5757
 11
194.7164
 21
205.5757
  0
LINE
  8
LAYER_2
 10
194.7164
 20
205.5757
 11
194.4581
 21
205.5757
  0
LINE
  8
LAYER_2
 10
194.4581
 20
205.5757
 11
194.1521
 21
205.5757
  0
LINE
  8
LAYER_2
 10
194.1521
 20
205.5757
 11
193.87
 21
205.5757
  0
LINE
  8
LAYER_2
 10
193.87
 20
205.5757
 11
193.5406
 21
205.5757
  0
LINE
  8
LAYER_2
 10
193.5406
 20
205.5757
 11
193.2113
 21
205.5757
  0
LINE
  8
LAYER_2
 10
193.2113
 20
205.5757
 11
192.8585
 21
205.5757
  0
LINE
  8
LAYER_2
 10
192.8585
 20
205.5757
 11
192.5057
 21
205.5757
  0
LINE
  8
LAYER_2
 10
192.5057
 20
205.5757
 11
192.1295
 21
205.5757
  0
LINE
  8
LAYER_2
 10
192.1295
 20
205.5757
 11
191.7533
 21
205.5757
  0
LINE
  8
LAYER_2
 10
191.7533
 20
205.5757
 11
191.3533
 21
205.5757
  0
LINE
  8
LAYER_2
 10
191.3533
 20
205.5757
 11
190.9303
 21
205.5757
  0
LINE
  8
LAYER_2
 10
190.9303
 20
205.5757
 11
190.5303
 21
205.5757
  0
LINE
  8
LAYER_2
 10
190.5303
 20
205.5757
 11
190.1069
 21
205.5757
  0
LINE
  8
LAYER_2
 10
190.1069
 20
205.5757
 11
189.6601
 21
205.5757
  0
LINE
  8
LAYER_2
 10
189.6601
 20
205.5757
 11
189.2132
 21
205.5757
  0
LINE
  8
LAYER_2
 10
189.2132
 20
205.5757
 11
188.7664
 21
205.5757
  0
LINE
  8
LAYER_2
 10
188.7664
 20
205.5757
 11
188.3196
 21
205.5757
  0
LINE
  8
LAYER_2
 10
188.3196
 20
205.5757
 11
187.849
 21
205.5757
  0
LINE
  8
LAYER_2
 10
187.849
 20
205.5757
 11
187.4025
 21
205.5757
  0
LINE
  8
LAYER_2
 10
187.4025
 20
205.5757
 11
186.9319
 21
205.5757
  0
LINE
  8
LAYER_2
 10
186.9319
 20
205.5757
 11
186.4616
 21
205.5757
  0
LINE
  8
LAYER_2
 10
186.4616
 20
205.5757
 11
186.0148
 21
205.5757
  0
LINE
  8
LAYER_2
 10
186.0148
 20
205.5757
 11
185.5442
 21
205.5757
  0
LINE
  8
LAYER_2
 10
185.5442
 20
205.5757
 11
185.074
 21
205.5757
  0
LINE
  8
LAYER_2
 10
185.074
 20
205.5757
 11
184.6037
 21
205.5757
  0
LINE
  8
LAYER_2
 10
184.6037
 20
205.5757
 11
184.1566
 21
205.5757
  0
LINE
  8
LAYER_2
 10
184.1566
 20
205.5757
 11
183.71
 21
205.5757
  0
LINE
  8
LAYER_2
 10
183.71
 20
205.5757
 11
183.2629
 21
205.5757
  0
LINE
  8
LAYER_2
 10
183.2629
 20
205.5757
 11
182.8164
 21
205.5757
  0
LINE
  8
LAYER_2
 10
182.8164
 20
205.5757
 11
182.3692
 21
205.5757
  0
LINE
  8
LAYER_2
 10
182.3692
 20
205.5757
 11
181.9462
 21
205.5757
  0
LINE
  8
LAYER_2
 10
181.9462
 20
205.5757
 11
181.5228
 21
205.5757
  0
LINE
  8
LAYER_2
 10
181.5228
 20
205.5757
 11
181.1228
 21
205.5757
  0
LINE
  8
LAYER_2
 10
181.1228
 20
205.5757
 11
180.7231
 21
205.5757
  0
LINE
  8
LAYER_2
 10
180.7231
 20
205.5757
 11
180.3469
 21
205.5757
  0
LINE
  8
LAYER_2
 10
180.3469
 20
205.5757
 11
179.9704
 21
205.5757
  0
LINE
  8
LAYER_2
 10
179.9704
 20
205.5757
 11
179.5942
 21
205.5757
  0
LINE
  8
LAYER_2
 10
179.5942
 20
205.5757
 11
179.2414
 21
205.5757
  0
LINE
  8
LAYER_2
 10
179.2414
 20
205.5757
 11
178.9121
 21
205.5757
  0
LINE
  8
LAYER_2
 10
178.9121
 20
205.5757
 11
178.6065
 21
205.5757
  0
LINE
  8
LAYER_2
 10
178.6065
 20
205.5757
 11
178.3006
 21
205.5757
  0
LINE
  8
LAYER_2
 10
178.3006
 20
205.5757
 11
178.0184
 21
205.5757
  0
LINE
  8
LAYER_2
 10
178.0184
 20
205.5757
 11
177.7362
 21
205.5757
  0
LINE
  8
LAYER_2
 10
177.7362
 20
205.5757
 11
177.5009
 21
205.5757
  0
LINE
  8
LAYER_2
 10
177.5009
 20
205.5757
 11
177.2657
 21
205.5757
  0
LINE
  8
LAYER_2
 10
177.2657
 20
205.5757
 11
177.0541
 21
205.5757
  0
LINE
  8
LAYER_2
 10
177.0541
 20
205.5757
 11
176.8426
 21
205.5757
  0
LINE
  8
LAYER_2
 10
176.8426
 20
205.5757
 11
176.6779
 21
205.5757
  0
LINE
  8
LAYER_2
 10
176.6779
 20
205.5757
 11
176.5132
 21
205.5757
  0
LINE
  8
LAYER_2
 10
176.5132
 20
205.5757
 11
176.372
 21
205.5757
  0
LINE
  8
LAYER_2
 10
176.372
 20
205.5757
 11
176.2545
 21
205.5757
  0
LINE
  8
LAYER_2
 10
176.2545
 20
205.5757
 11
176.1605
 21
205.5757
  0
LINE
  8
LAYER_2
 10
176.1605
 20
205.5757
 11
176.0898
 21
205.5757
  0
LINE
  8
LAYER_2
 10
176.0898
 20
205.5757
 11
176.0427
 21
205.5757
  0
LINE
  8
LAYER_2
 10
176.0427
 20
205.5757
 11
175.9958
 21
205.5757
  0
ENDBLK
  0
BLOCK
  8
LAYER_2
  2
AIGNBL02010010
 70
64
 10
0
 20
0
 30
0
  3
AIGNBL02010010
  0
LINE
  8
LAYER_2
 10
183.3335
 20
206.9071
 11
183.3101
 21
206.9071
  0
LINE
  8
LAYER_2
 10
183.3101
 20
206.9071
 11
183.1926
 21
206.9071
  0
LINE
  8
LAYER_2
 10
183.1926
 20
206.9071
 11
183.122
 21
206.9071
  0
LINE
  8
LAYER_2
 10
183.122
 20
206.9071
 11
183.0751
 21
206.9071
  0
LINE
  8
LAYER_2
 10
183.0751
 20
206.9071
 11
183.0279
 21
206.9071
  0
ENDBLK
  0
BLOCK
  8
LAYER_2
  2
AIGNBL02010011
 70
64
 10
0
 20
0
 30
0
  3
AIGNBL02010011
  0
LINE
  8
LAYER_2
 10
183.3335
 20
207.0011
 11
183.3335
 21
207.0247
  0
LINE
  8
LAYER_2
 10
183.3335
 20
207.0247
 11
183.3335
 21
207.0482
  0
ENDBLK
  0
BLOCK
  8
LAYER_2
  2
AIGNBL02010012
 70
64
 10
0
 20
0
 30
0
  3
AIGNBL02010012
  0
LINE
  8
LAYER_2
 10
188.837
 20
207.0482
 11
188.8136
 21
207.0482
  0
LINE
  8
LAYER_2
 10
188.8136
 20
207.0482
 11
188.8136
 21
207.0247
  0
LINE
  8
LAYER_2
 10
188.8136
 20
207.0247
 11
188.8136
 21
207.0011
  0
LINE
  8
LAYER_2
 10
188.8136
 20
207.0011
 11
188.8136
 21
206.9777
  0
ENDBLK
  0
BLOCK
  8
LAYER_2
  2
AIGNBL02010013
 70
64
 10
0
 20
0
 30
0
  3
AIGNBL02010013
  0
LINE
  8
LAYER_2
 10
189.4251
 20
206.9071
 11
189.4017
 21
206.9071
  0
LINE
  8
LAYER_2
 10
189.4017
 20
206.9071
 11
189.3779
 21
206.9071
  0
LINE
  8
LAYER_2
 10
189.3779
 20
206.9071
 11
189.3307
 21
206.9071
  0
LINE
  8
LAYER_2
 10
189.3307
 20
206.9071
 11
189.2604
 21
206.9071
  0
LINE
  8
LAYER_2
 10
189.2604
 20
206.9071
 11
189.1664
 21
206.9071
  0
LINE
  8
LAYER_2
 10
189.1664
 20
206.9071
 11
189.0489
 21
206.9071
  0
LINE
  8
LAYER_2
 10
189.0489
 20
206.9071
 11
188.9311
 21
206.9071
  0
LINE
  8
LAYER_2
 10
188.9311
 20
206.9071
 11
188.8136
 21
206.9071
  0
ENDBLK
  0
BLOCK
  8
LAYER_2
  2
AIGNBL02010014
 70
64
 10
0
 20
0
 30
0
  3
AIGNBL02010014
  0
LINE
  8
LAYER_2
 10
187.8287
 20
206.9307
 11
187.8052
 21
206.9071
  0
ENDBLK
  0
BLOCK
  8
LAYER_2
  2
AIGNBL02010015
 70
64
 10
0
 20
0
 30
0
  3
AIGNBL02010015
  0
LINE
  8
LAYER_2
 10
187.8287
 20
206.9307
 11
187.8521
 21
206.9307
  0
LINE
  8
LAYER_2
 10
187.8521
 20
206.9307
 11
187.8993
 21
206.9541
  0
LINE
  8
LAYER_2
 10
187.8993
 20
206.9541
 11
187.9227
 21
207.0011
  0
LINE
  8
LAYER_2
 10
187.9227
 20
207.0011
 11
187.9461
 21
207.0247
  0
LINE
  8
LAYER_2
 10
187.9461
 20
207.0247
 11
187.9461
 21
207.0482
  0
ENDBLK
  0
BLOCK
  8
LAYER_2
  2
AIGNBL02010016
 70
64
 10
0
 20
0
 30
0
  3
AIGNBL02010016
  0
LINE
  8
LAYER_2
 10
184.1834
 20
207.0482
 11
184.1834
 21
207.0247
  0
LINE
  8
LAYER_2
 10
184.1834
 20
207.0247
 11
184.2068
 21
207.0011
  0
LINE
  8
LAYER_2
 10
184.2068
 20
207.0011
 11
184.2303
 21
206.9541
  0
LINE
  8
LAYER_2
 10
184.2303
 20
206.9541
 11
184.2775
 21
206.9307
  0
LINE
  8
LAYER_2
 10
184.2775
 20
206.9307
 11
184.3243
 21
206.9307
  0
ENDBLK
  0
BLOCK
  8
LAYER_2
  2
AIGNBL02010017
 70
64
 10
0
 20
0
 30
0
  3
AIGNBL02010017
  0
LINE
  8
LAYER_2
 10
184.3481
 20
206.9071
 11
184.3243
 21
206.9307
  0
ENDBLK
  0
BLOCK
  8
LAYER_2
  2
AIGNBL02010018
 70
64
 10
0
 20
0
 30
0
  3
AIGNBL02010018
  0
LINE
  8
LAYER_2
 10
187.8052
 20
206.9071
 11
187.5699
 21
206.9071
  0
LINE
  8
LAYER_2
 10
187.5699
 20
206.9071
 11
187.335
 21
206.9071
  0
LINE
  8
LAYER_2
 10
187.335
 20
206.9071
 11
187.0759
 21
206.9071
  0
LINE
  8
LAYER_2
 10
187.0759
 20
206.9071
 11
186.8175
 21
206.9071
  0
LINE
  8
LAYER_2
 10
186.8175
 20
206.9071
 11
186.5584
 21
206.9071
  0
LINE
  8
LAYER_2
 10
186.5584
 20
206.9071
 11
186.3001
 21
206.9071
  0
LINE
  8
LAYER_2
 10
186.3001
 20
206.9071
 11
186.0413
 21
206.9071
  0
LINE
  8
LAYER_2
 10
186.0413
 20
206.9071
 11
185.7826
 21
206.9071
  0
LINE
  8
LAYER_2
 10
185.7826
 20
206.9071
 11
185.5239
 21
206.9071
  0
LINE
  8
LAYER_2
 10
185.5239
 20
206.9071
 11
185.2652
 21
206.9071
  0
LINE
  8
LAYER_2
 10
185.2652
 20
206.9071
 11
185.0064
 21
206.9071
  0
LINE
  8
LAYER_2
 10
185.0064
 20
206.9071
 11
184.7711
 21
206.9071
  0
LINE
  8
LAYER_2
 10
184.7711
 20
206.9071
 11
184.5596
 21
206.9071
  0
LINE
  8
LAYER_2
 10
184.5596
 20
206.9071
 11
184.3481
 21
206.9071
  0
ENDBLK
  0
BLOCK
  8
LAYER_2
  2
AIGNBL02010019
 70
64
 10
0
 20
0
 30
0
  3
AIGNBL02010019
  0
LINE
  8
LAYER_2
 10
184.1834
 20
207.0482
 11
184.3949
 21
207.0482
  0
LINE
  8
LAYER_2
 10
184.3949
 20
207.0482
 11
184.6302
 21
207.0482
  0
LINE
  8
LAYER_2
 10
184.6302
 20
207.0482
 11
184.8655
 21
207.0482
  0
LINE
  8
LAYER_2
 10
184.8655
 20
207.0482
 11
185.1239
 21
207.0482
  0
LINE
  8
LAYER_2
 10
185.1239
 20
207.0482
 11
185.3592
 21
207.0482
  0
LINE
  8
LAYER_2
 10
185.3592
 20
207.0482
 11
185.6179
 21
207.0482
  0
LINE
  8
LAYER_2
 10
185.6179
 20
207.0482
 11
185.9001
 21
207.0482
  0
LINE
  8
LAYER_2
 10
185.9001
 20
207.0482
 11
186.1588
 21
207.0482
  0
LINE
  8
LAYER_2
 10
186.1588
 20
207.0482
 11
186.4175
 21
207.0482
  0
LINE
  8
LAYER_2
 10
186.4175
 20
207.0482
 11
186.6997
 21
207.0482
  0
LINE
  8
LAYER_2
 10
186.6997
 20
207.0482
 11
186.9584
 21
207.0482
  0
LINE
  8
LAYER_2
 10
186.9584
 20
207.0482
 11
187.2172
 21
207.0482
  0
LINE
  8
LAYER_2
 10
187.2172
 20
207.0482
 11
187.4759
 21
207.0482
  0
LINE
  8
LAYER_2
 10
187.4759
 20
207.0482
 11
187.7112
 21
207.0482
  0
LINE
  8
LAYER_2
 10
187.7112
 20
207.0482
 11
187.9461
 21
207.0482
  0
ENDBLK
  0
BLOCK
  8
LAYER_2
  2
AIGNBL0201001A
 70
64
 10
0
 20
0
 30
0
  3
AIGNBL0201001A
  0
LINE
  8
LAYER_2
 10
187.9461
 20
207.0482
 11
187.9696
 21
206.9777
  0
LINE
  8
LAYER_2
 10
187.9696
 20
206.9777
 11
187.9696
 21
206.9541
  0
LINE
  8
LAYER_2
 10
187.9696
 20
206.9541
 11
187.9933
 21
206.9307
  0
LINE
  8
LAYER_2
 10
187.9933
 20
206.9307
 11
187.9933
 21
206.9071
  0
ENDBLK
  0
BLOCK
  8
LAYER_2
  2
AIGNBL0201001B
 70
64
 10
0
 20
0
 30
0
  3
AIGNBL0201001B
  0
LINE
  8
LAYER_2
 10
188.7898
 20
206.9071
 11
188.6961
 21
206.9071
  0
LINE
  8
LAYER_2
 10
188.6961
 20
206.9071
 11
188.6017
 21
206.9071
  0
LINE
  8
LAYER_2
 10
188.6017
 20
206.9071
 11
188.5077
 21
206.9071
  0
LINE
  8
LAYER_2
 10
188.5077
 20
206.9071
 11
188.3902
 21
206.9071
  0
LINE
  8
LAYER_2
 10
188.3902
 20
206.9071
 11
188.2962
 21
206.9071
  0
LINE
  8
LAYER_2
 10
188.2962
 20
206.9071
 11
188.2286
 21
206.9071
  0
LINE
  8
LAYER_2
 10
188.2286
 20
206.9071
 11
188.1108
 21
206.9071
  0
LINE
  8
LAYER_2
 10
188.1108
 20
206.9071
 11
187.9933
 21
206.9071
  0
ENDBLK
  0
BLOCK
  8
LAYER_2
  2
AIGNBL0201001C
 70
64
 10
0
 20
0
 30
0
  3
AIGNBL0201001C
  0
LINE
  8
LAYER_2
 10
188.7898
 20
206.9071
 11
188.7898
 21
206.9307
  0
LINE
  8
LAYER_2
 10
188.7898
 20
206.9307
 11
188.8136
 21
206.9541
  0
LINE
  8
LAYER_2
 10
188.8136
 20
206.9541
 11
188.8136
 21
206.9777
  0
LINE
  8
LAYER_2
 10
188.8136
 20
206.9777
 11
188.837
 21
207.0482
  0
ENDBLK
  0
BLOCK
  8
LAYER_2
  2
AIGNBL0201001D
 70
64
 10
0
 20
0
 30
0
  3
AIGNBL0201001D
  0
LINE
  8
LAYER_2
 10
188.837
 20
207.0482
 11
188.8605
 21
207.0482
  0
LINE
  8
LAYER_2
 10
188.8605
 20
207.0482
 11
188.8842
 21
207.0482
  0
ENDBLK
  0
BLOCK
  8
LAYER_2
  2
AIGNBL0201001E
 70
64
 10
0
 20
0
 30
0
  3
AIGNBL0201001E
  0
LINE
  8
LAYER_2
 10
183.3335
 20
207.0482
 11
183.3573
 21
206.9777
  0
LINE
  8
LAYER_2
 10
183.3573
 20
206.9777
 11
183.3573
 21
206.9541
  0
LINE
  8
LAYER_2
 10
183.3573
 20
206.9541
 11
183.3573
 21
206.9307
  0
LINE
  8
LAYER_2
 10
183.3573
 20
206.9307
 11
183.3573
 21
206.9071
  0
LINE
  8
LAYER_2
 10
183.3573
 20
206.9071
 11
183.3807
 21
206.9071
  0
ENDBLK
  0
BLOCK
  8
LAYER_2
  2
AIGNBL0201001F
 70
64
 10
0
 20
0
 30
0
  3
AIGNBL0201001F
  0
LINE
  8
LAYER_2
 10
184.1362
 20
206.9071
 11
184.0422
 21
206.9071
  0
LINE
  8
LAYER_2
 10
184.0422
 20
206.9071
 11
183.9481
 21
206.9071
  0
LINE
  8
LAYER_2
 10
183.9481
 20
206.9071
 11
183.7807
 21
206.9071
  0
LINE
  8
LAYER_2
 10
183.7807
 20
206.9071
 11
183.6863
 21
206.9071
  0
LINE
  8
LAYER_2
 10
183.6863
 20
206.9071
 11
183.616
 21
206.9071
  0
LINE
  8
LAYER_2
 10
183.616
 20
206.9071
 11
183.5219
 21
206.9071
  0
LINE
  8
LAYER_2
 10
183.5219
 20
206.9071
 11
183.4513
 21
206.9071
  0
LINE
  8
LAYER_2
 10
183.4513
 20
206.9071
 11
183.3807
 21
206.9071
  0
ENDBLK
  0
BLOCK
  8
LAYER_2
  2
AIGNBL02010020
 70
64
 10
0
 20
0
 30
0
  3
AIGNBL02010020
  0
LINE
  8
LAYER_2
 10
184.1362
 20
206.9071
 11
184.16
 21
206.9307
  0
LINE
  8
LAYER_2
 10
184.16
 20
206.9307
 11
184.16
 21
206.9541
  0
LINE
  8
LAYER_2
 10
184.16
 20
206.9541
 11
184.1834
 21
206.9777
  0
LINE
  8
LAYER_2
 10
184.1834
 20
206.9777
 11
184.1834
 21
207.0482
  0
ENDBLK
  0
BLOCK
  8
LAYER_2
  2
AIGNBL02010021
 70
64
 10
0
 20
0
 30
0
  3
AIGNBL02010021
  0
LINE
  8
LAYER_2
 10
191.8002
 20
207.5246
 11
191.7533
 21
207.5246
  0
LINE
  8
LAYER_2
 10
191.7533
 20
207.5246
 11
191.7065
 21
207.5246
  0
LINE
  8
LAYER_2
 10
191.7065
 20
207.5246
 11
191.6358
 21
207.5246
  0
LINE
  8
LAYER_2
 10
191.6358
 20
207.5246
 11
191.5418
 21
207.5246
  0
LINE
  8
LAYER_2
 10
191.5418
 20
207.5246
 11
191.424
 21
207.5246
  0
LINE
  8
LAYER_2
 10
191.424
 20
207.5246
 11
191.3065
 21
207.5246
  0
LINE
  8
LAYER_2
 10
191.3065
 20
207.5246
 11
191.1418
 21
207.5246
  0
LINE
  8
LAYER_2
 10
191.1418
 20
207.5246
 11
190.9771
 21
207.5246
  0
LINE
  8
LAYER_2
 10
190.9771
 20
207.5246
 11
190.789
 21
207.5246
  0
LINE
  8
LAYER_2
 10
190.789
 20
207.5246
 11
190.5775
 21
207.5246
  0
LINE
  8
LAYER_2
 10
190.5775
 20
207.5246
 11
190.3656
 21
207.5246
  0
LINE
  8
LAYER_2
 10
190.3656
 20
207.5246
 11
190.1307
 21
207.5246
  0
LINE
  8
LAYER_2
 10
190.1307
 20
207.5246
 11
189.8719
 21
207.5246
  0
ENDBLK
  0
BLOCK
  8
LAYER_2
  2
AIGNBL02010022
 70
64
 10
0
 20
0
 30
0
  3
AIGNBL02010022
  0
LINE
  8
LAYER_2
 10
189.8719
 20
207.5246
 11
189.5898
 21
207.5246
  0
LINE
  8
LAYER_2
 10
189.5898
 20
207.5246
 11
189.3307
 21
207.5246
  0
LINE
  8
LAYER_2
 10
189.3307
 20
207.5246
 11
189.0251
 21
207.5246
  0
LINE
  8
LAYER_2
 10
189.0251
 20
207.5246
 11
188.7196
 21
207.5246
  0
LINE
  8
LAYER_2
 10
188.7196
 20
207.5246
 11
188.4136
 21
207.5246
  0
LINE
  8
LAYER_2
 10
188.4136
 20
207.5246
 11
188.0843
 21
207.5246
  0
LINE
  8
LAYER_2
 10
188.0843
 20
207.5246
 11
187.7553
 21
207.5246
  0
LINE
  8
LAYER_2
 10
187.7553
 20
207.5246
 11
187.4259
 21
207.5246
  0
LINE
  8
LAYER_2
 10
187.4259
 20
207.5246
 11
187.0966
 21
207.5246
  0
LINE
  8
LAYER_2
 10
187.0966
 20
207.5246
 11
186.7438
 21
207.5246
  0
LINE
  8
LAYER_2
 10
186.7438
 20
207.5246
 11
186.4148
 21
207.5246
  0
LINE
  8
LAYER_2
 10
186.4148
 20
207.5246
 11
186.062
 21
207.5246
  0
LINE
  8
LAYER_2
 10
186.062
 20
207.5246
 11
185.7327
 21
207.5246
  0
LINE
  8
LAYER_2
 10
185.7327
 20
207.5246
 11
185.3799
 21
207.5246
  0
LINE
  8
LAYER_2
 10
185.3799
 20
207.5246
 11
185.0505
 21
207.5246
  0
LINE
  8
LAYER_2
 10
185.0505
 20
207.5246
 11
184.7212
 21
207.5246
  0
LINE
  8
LAYER_2
 10
184.7212
 20
207.5246
 11
184.3918
 21
207.5246
  0
LINE
  8
LAYER_2
 10
184.3918
 20
207.5246
 11
184.0628
 21
207.5246
  0
LINE
  8
LAYER_2
 10
184.0628
 20
207.5246
 11
183.7572
 21
207.5246
  0
LINE
  8
LAYER_2
 10
183.7572
 20
207.5246
 11
183.4513
 21
207.5246
  0
LINE
  8
LAYER_2
 10
183.4513
 20
207.5246
 11
183.1454
 21
207.5246
  0
LINE
  8
LAYER_2
 10
183.1454
 20
207.5246
 11
182.8632
 21
207.5246
  0
LINE
  8
LAYER_2
 10
182.8632
 20
207.5246
 11
182.6045
 21
207.5246
  0
LINE
  8
LAYER_2
 10
182.6045
 20
207.5246
 11
182.3461
 21
207.5246
  0
LINE
  8
LAYER_2
 10
182.3461
 20
207.5246
 11
182.1108
 21
207.5246
  0
LINE
  8
LAYER_2
 10
182.1108
 20
207.5246
 11
181.8755
 21
207.5246
  0
LINE
  8
LAYER_2
 10
181.8755
 20
207.5246
 11
181.664
 21
207.5246
  0
LINE
  8
LAYER_2
 10
181.664
 20
207.5246
 11
181.4759
 21
207.5246
  0
LINE
  8
LAYER_2
 10
181.4759
 20
207.5246
 11
181.3112
 21
207.5246
  0
LINE
  8
LAYER_2
 10
181.3112
 20
207.5246
 11
181.1466
 21
207.5246
  0
LINE
  8
LAYER_2
 10
181.1466
 20
207.5246
 11
181.0287
 21
207.5246
  0
LINE
  8
LAYER_2
 10
181.0287
 20
207.5246
 11
180.9112
 21
207.5246
  0
LINE
  8
LAYER_2
 10
180.9112
 20
207.5246
 11
180.8172
 21
207.5246
  0
LINE
  8
LAYER_2
 10
180.8172
 20
207.5246
 11
180.7466
 21
207.5246
  0
LINE
  8
LAYER_2
 10
180.7466
 20
207.5246
 11
180.6759
 21
207.5246
  0
LINE
  8
LAYER_2
 10
180.6759
 20
207.5246
 11
180.6525
 21
207.5246
  0
LINE
  8
LAYER_2
 10
180.6525
 20
207.5246
 11
180.6291
 21
207.5246
  0
ENDBLK
  0
BLOCK
  8
LAYER_2
  2
AIGNBL02010023
 70
64
 10
0
 20
0
 30
0
  3
AIGNBL02010023
  0
LINE
  8
LAYER_2
 10
175.7126
 20
210.2383
 11
175.736
 21
210.2383
  0
LINE
  8
LAYER_2
 10
175.736
 20
210.2383
 11
175.7598
 21
210.2383
  0
LINE
  8
LAYER_2
 10
175.7598
 20
210.2383
 11
175.8067
 21
210.2383
  0
LINE
  8
LAYER_2
 10
175.8067
 20
210.2383
 11
175.8773
 21
210.2383
  0
LINE
  8
LAYER_2
 10
175.8773
 20
210.2383
 11
175.9479
 21
210.2383
  0
LINE
  8
LAYER_2
 10
175.9479
 20
210.2383
 11
176.0654
 21
210.2383
  0
LINE
  8
LAYER_2
 10
176.0654
 20
210.2383
 11
176.2066
 21
210.2383
  0
LINE
  8
LAYER_2
 10
176.2066
 20
210.2383
 11
176.3479
 21
210.2383
  0
LINE
  8
LAYER_2
 10
176.3479
 20
210.2383
 11
176.5122
 21
210.2383
  0
LINE
  8
LAYER_2
 10
176.5122
 20
210.2383
 11
176.7007
 21
210.2383
  0
LINE
  8
LAYER_2
 10
176.7007
 20
210.2383
 11
176.9122
 21
210.2383
  0
LINE
  8
LAYER_2
 10
176.9122
 20
210.2383
 11
177.1471
 21
210.2383
  0
LINE
  8
LAYER_2
 10
177.1471
 20
210.2383
 11
177.3824
 21
210.2383
  0
LINE
  8
LAYER_2
 10
177.3824
 20
210.2383
 11
177.665
 21
210.2383
  0
LINE
  8
LAYER_2
 10
177.665
 20
210.2383
 11
177.9471
 21
210.2383
  0
LINE
  8
LAYER_2
 10
177.9471
 20
210.2383
 11
178.2296
 21
210.2383
  0
LINE
  8
LAYER_2
 10
178.2296
 20
210.2383
 11
178.5586
 21
210.2383
  0
LINE
  8
LAYER_2
 10
178.5586
 20
210.2383
 11
178.888
 21
210.2383
  0
LINE
  8
LAYER_2
 10
178.888
 20
210.2383
 11
179.217
 21
210.2383
  0
LINE
  8
LAYER_2
 10
179.217
 20
210.2383
 11
179.5935
 21
210.2383
  0
LINE
  8
LAYER_2
 10
179.5935
 20
210.2383
 11
179.9463
 21
210.2383
  0
LINE
  8
LAYER_2
 10
179.9463
 20
210.2383
 11
180.3463
 21
210.2383
  0
LINE
  8
LAYER_2
 10
180.3463
 20
210.2383
 11
180.7459
 21
210.2383
  0
LINE
  8
LAYER_2
 10
180.7459
 20
210.2383
 11
181.1459
 21
210.2383
  0
LINE
  8
LAYER_2
 10
181.1459
 20
210.2383
 11
181.5693
 21
210.2383
  0
LINE
  8
LAYER_2
 10
181.5693
 20
210.2383
 11
181.9927
 21
210.2383
  0
LINE
  8
LAYER_2
 10
181.9927
 20
210.2383
 11
182.4161
 21
210.2383
  0
LINE
  8
LAYER_2
 10
182.4161
 20
210.2383
 11
182.8629
 21
210.2383
  0
LINE
  8
LAYER_2
 10
182.8629
 20
210.2383
 11
183.3097
 21
210.2383
  0
LINE
  8
LAYER_2
 10
183.3097
 20
210.2383
 11
183.7803
 21
210.2383
  0
LINE
  8
LAYER_2
 10
183.7803
 20
210.2383
 11
184.2272
 21
210.2383
  0
LINE
  8
LAYER_2
 10
184.2272
 20
210.2383
 11
184.6978
 21
210.2383
  0
LINE
  8
LAYER_2
 10
184.6978
 20
210.2383
 11
185.168
 21
210.2383
  0
LINE
  8
LAYER_2
 10
185.168
 20
210.2383
 11
185.6386
 21
210.2383
  0
LINE
  8
LAYER_2
 10
185.6386
 20
210.2383
 11
186.1089
 21
210.2383
  0
LINE
  8
LAYER_2
 10
186.1089
 20
210.2383
 11
186.5791
 21
210.2383
  0
LINE
  8
LAYER_2
 10
186.5791
 20
210.2383
 11
187.0497
 21
210.2383
  0
LINE
  8
LAYER_2
 10
187.0497
 20
210.2383
 11
187.52
 21
210.2383
  0
LINE
  8
LAYER_2
 10
187.52
 20
210.2383
 11
187.9906
 21
210.2383
  0
LINE
  8
LAYER_2
 10
187.9906
 20
210.2383
 11
188.4374
 21
210.2383
  0
LINE
  8
LAYER_2
 10
188.4374
 20
210.2383
 11
188.9077
 21
210.2383
  0
LINE
  8
LAYER_2
 10
188.9077
 20
210.2383
 11
189.3548
 21
210.2383
  0
LINE
  8
LAYER_2
 10
189.3548
 20
210.2383
 11
189.8013
 21
210.2383
  0
LINE
  8
LAYER_2
 10
189.8013
 20
210.2383
 11
190.2485
 21
210.2383
  0
LINE
  8
LAYER_2
 10
190.2485
 20
210.2383
 11
190.6719
 21
210.2383
  0
LINE
  8
LAYER_2
 10
190.6719
 20
210.2383
 11
191.095
 21
210.2383
  0
LINE
  8
LAYER_2
 10
191.095
 20
210.2383
 11
191.4949
 21
210.2383
  0
LINE
  8
LAYER_2
 10
191.4949
 20
210.2383
 11
191.9183
 21
210.2383
  0
LINE
  8
LAYER_2
 10
191.9183
 20
210.2383
 11
192.2949
 21
210.2383
  0
LINE
  8
LAYER_2
 10
192.2949
 20
210.2383
 11
192.6711
 21
210.2383
  0
LINE
  8
LAYER_2
 10
192.6711
 20
210.2383
 11
193.0477
 21
210.2383
  0
LINE
  8
LAYER_2
 10
193.0477
 20
210.2383
 11
193.4004
 21
210.2383
  0
LINE
  8
LAYER_2
 10
193.4004
 20
210.2383
 11
193.7294
 21
210.2383
  0
LINE
  8
LAYER_2
 10
193.7294
 20
210.2383
 11
194.0588
 21
210.2383
  0
LINE
  8
LAYER_2
 10
194.0588
 20
210.2383
 11
194.3647
 21
210.2383
  0
LINE
  8
LAYER_2
 10
194.3647
 20
210.2383
 11
194.6469
 21
210.2383
  0
LINE
  8
LAYER_2
 10
194.6469
 20
210.2383
 11
194.929
 21
210.2383
  0
LINE
  8
LAYER_2
 10
194.929
 20
210.2383
 11
195.1643
 21
210.2383
  0
LINE
  8
LAYER_2
 10
195.1643
 20
210.2383
 11
195.423
 21
210.2383
  0
LINE
  8
LAYER_2
 10
195.423
 20
210.2383
 11
195.6349
 21
210.2383
  0
LINE
  8
LAYER_2
 10
195.6349
 20
210.2383
 11
195.823
 21
210.2383
  0
LINE
  8
LAYER_2
 10
195.823
 20
210.2383
 11
196.0111
 21
210.2383
  0
LINE
  8
LAYER_2
 10
196.0111
 20
210.2383
 11
196.1758
 21
210.2383
  0
LINE
  8
LAYER_2
 10
196.1758
 20
210.2383
 11
196.3167
 21
210.2383
  0
LINE
  8
LAYER_2
 10
196.3167
 20
210.2383
 11
196.4342
 21
210.2383
  0
LINE
  8
LAYER_2
 10
196.4342
 20
210.2383
 11
196.5286
 21
210.2383
  0
LINE
  8
LAYER_2
 10
196.5286
 20
210.2383
 11
196.5989
 21
210.2383
  0
LINE
  8
LAYER_2
 10
196.5989
 20
210.2383
 11
196.6695
 21
210.2383
  0
LINE
  8
LAYER_2
 10
196.6695
 20
210.2383
 11
196.7167
 21
210.2383
  0
ENDBLK
  0
BLOCK
  8
LAYER_2
  2
AIGNBL02010024
 70
64
 10
0
 20
0
 30
0
  3
AIGNBL02010024
  0
LINE
  8
LAYER_2
 10
192.8823
 20
173.7711
 11
192.8585
 21
173.7711
  0
LINE
  8
LAYER_2
 10
192.8585
 20
173.7711
 11
192.8351
 21
173.7711
  0
LINE
  8
LAYER_2
 10
192.8351
 20
173.7711
 11
192.7644
 21
173.7711
  0
LINE
  8
LAYER_2
 10
192.7644
 20
173.7711
 11
192.6942
 21
173.7711
  0
LINE
  8
LAYER_2
 10
192.6942
 20
173.7711
 11
192.5998
 21
173.7711
  0
LINE
  8
LAYER_2
 10
192.5998
 20
173.7711
 11
192.4823
 21
173.7711
  0
LINE
  8
LAYER_2
 10
192.4823
 20
173.7711
 11
192.3414
 21
173.7711
  0
LINE
  8
LAYER_2
 10
192.3414
 20
173.7711
 11
192.1767
 21
173.7711
  0
LINE
  8
LAYER_2
 10
192.1767
 20
173.7711
 11
191.9886
 21
173.7711
  0
LINE
  8
LAYER_2
 10
191.9886
 20
173.7711
 11
191.8002
 21
173.7711
  0
LINE
  8
LAYER_2
 10
191.8002
 20
173.7711
 11
191.5886
 21
173.7711
  0
LINE
  8
LAYER_2
 10
191.5886
 20
173.7711
 11
191.3533
 21
173.7711
  0
LINE
  8
LAYER_2
 10
191.3533
 20
173.7711
 11
191.1184
 21
173.7711
  0
LINE
  8
LAYER_2
 10
191.1184
 20
173.7711
 11
190.8593
 21
173.7711
  0
LINE
  8
LAYER_2
 10
190.8593
 20
173.7711
 11
190.5775
 21
173.7711
  0
LINE
  8
LAYER_2
 10
190.5775
 20
173.7711
 11
190.295
 21
173.7711
  0
LINE
  8
LAYER_2
 10
190.295
 20
173.7711
 11
189.9894
 21
173.7711
  0
LINE
  8
LAYER_2
 10
189.9894
 20
173.7711
 11
189.6601
 21
173.7711
  0
LINE
  8
LAYER_2
 10
189.6601
 20
173.7711
 11
189.3307
 21
173.7711
  0
LINE
  8
LAYER_2
 10
189.3307
 20
173.7711
 11
189.0017
 21
173.7711
  0
LINE
  8
LAYER_2
 10
189.0017
 20
173.7711
 11
188.6724
 21
173.7711
  0
LINE
  8
LAYER_2
 10
188.6724
 20
173.7711
 11
188.3196
 21
173.7711
  0
LINE
  8
LAYER_2
 10
188.3196
 20
173.7711
 11
187.9434
 21
173.7711
  0
LINE
  8
LAYER_2
 10
187.9434
 20
173.7711
 11
187.5906
 21
173.7711
  0
LINE
  8
LAYER_2
 10
187.5906
 20
173.7711
 11
187.214
 21
173.7711
  0
LINE
  8
LAYER_2
 10
187.214
 20
173.7711
 11
186.8378
 21
173.7711
  0
LINE
  8
LAYER_2
 10
186.8378
 20
173.7711
 11
186.4851
 21
173.7711
  0
LINE
  8
LAYER_2
 10
186.4851
 20
173.7711
 11
186.1089
 21
173.7711
  0
LINE
  8
LAYER_2
 10
186.1089
 20
173.7711
 11
185.7323
 21
173.7711
  0
LINE
  8
LAYER_2
 10
185.7323
 20
173.7711
 11
185.3561
 21
173.7711
  0
LINE
  8
LAYER_2
 10
185.3561
 20
173.7711
 11
184.9799
 21
173.7711
  0
LINE
  8
LAYER_2
 10
184.9799
 20
173.7711
 11
184.6271
 21
173.7711
  0
LINE
  8
LAYER_2
 10
184.6271
 20
173.7711
 11
184.2509
 21
173.7711
  0
LINE
  8
LAYER_2
 10
184.2509
 20
173.7711
 11
183.8981
 21
173.7711
  0
LINE
  8
LAYER_2
 10
183.8981
 20
173.7711
 11
183.5688
 21
173.7711
  0
LINE
  8
LAYER_2
 10
183.5688
 20
173.7711
 11
183.216
 21
173.7711
  0
LINE
  8
LAYER_2
 10
183.216
 20
173.7711
 11
182.8867
 21
173.7711
  0
LINE
  8
LAYER_2
 10
182.8867
 20
173.7711
 11
182.5811
 21
173.7711
  0
LINE
  8
LAYER_2
 10
182.5811
 20
173.7711
 11
182.2752
 21
173.7711
  0
LINE
  8
LAYER_2
 10
182.2752
 20
173.7711
 11
181.9696
 21
173.7711
  0
LINE
  8
LAYER_2
 10
181.9696
 20
173.7711
 11
181.6871
 21
173.7711
  0
LINE
  8
LAYER_2
 10
181.6871
 20
173.7711
 11
181.4287
 21
173.7711
  0
LINE
  8
LAYER_2
 10
181.4287
 20
173.7711
 11
181.17
 21
173.7711
  0
LINE
  8
LAYER_2
 10
181.17
 20
173.7711
 11
180.9347
 21
173.7711
  0
LINE
  8
LAYER_2
 10
180.9347
 20
173.7711
 11
180.7231
 21
173.7711
  0
LINE
  8
LAYER_2
 10
180.7231
 20
173.7711
 11
180.5113
 21
173.7711
  0
LINE
  8
LAYER_2
 10
180.5113
 20
173.7711
 11
180.3232
 21
173.7711
  0
LINE
  8
LAYER_2
 10
180.3232
 20
173.7711
 11
180.1585
 21
173.7711
  0
LINE
  8
LAYER_2
 10
180.1585
 20
173.7711
 11
180.0176
 21
173.7711
  0
LINE
  8
LAYER_2
 10
180.0176
 20
173.7711
 11
179.8998
 21
173.7711
  0
LINE
  8
LAYER_2
 10
179.8998
 20
173.7711
 11
179.7823
 21
173.7711
  0
LINE
  8
LAYER_2
 10
179.7823
 20
173.7711
 11
179.6882
 21
173.7711
  0
LINE
  8
LAYER_2
 10
179.6882
 20
173.7711
 11
179.6414
 21
173.7711
  0
LINE
  8
LAYER_2
 10
179.6414
 20
173.7711
 11
179.5942
 21
173.7711
  0
LINE
  8
LAYER_2
 10
179.5942
 20
173.7711
 11
179.5704
 21
173.7711
  0
LINE
  8
LAYER_2
 10
179.5704
 20
173.7711
 11
179.547
 21
173.7711
  0
ENDBLK
  0
BLOCK
  8
LAYER_2
  2
AIGNBL02010025
 70
64
 10
0
 20
0
 30
0
  3
AIGNBL02010025
  0
LINE
  8
LAYER_2
 10
179.2177
 20
174.1239
 11
179.2414
 21
174.1239
  0
LINE
  8
LAYER_2
 10
179.2414
 20
174.1239
 11
179.2886
 21
174.1239
  0
LINE
  8
LAYER_2
 10
179.2886
 20
174.1239
 11
179.3589
 21
174.1239
  0
LINE
  8
LAYER_2
 10
179.3589
 20
174.1239
 11
179.4529
 21
174.1239
  0
LINE
  8
LAYER_2
 10
179.4529
 20
174.1239
 11
179.5704
 21
174.1239
  0
LINE
  8
LAYER_2
 10
179.5704
 20
174.1239
 11
179.6882
 21
174.1239
  0
LINE
  8
LAYER_2
 10
179.6882
 20
174.1239
 11
179.8295
 21
174.1239
  0
LINE
  8
LAYER_2
 10
179.8295
 20
174.1239
 11
180.0176
 21
174.1239
  0
LINE
  8
LAYER_2
 10
180.0176
 20
174.1239
 11
180.1823
 21
174.1239
  0
LINE
  8
LAYER_2
 10
180.1823
 20
174.1239
 11
180.3938
 21
174.1239
  0
LINE
  8
LAYER_2
 10
180.3938
 20
174.1239
 11
180.6288
 21
174.1239
  0
LINE
  8
LAYER_2
 10
180.6288
 20
174.1239
 11
180.864
 21
174.1239
  0
LINE
  8
LAYER_2
 10
180.864
 20
174.1239
 11
181.1228
 21
174.1239
  0
LINE
  8
LAYER_2
 10
181.1228
 20
174.1239
 11
181.3815
 21
174.1239
  0
LINE
  8
LAYER_2
 10
181.3815
 20
174.1239
 11
181.6637
 21
174.1239
  0
LINE
  8
LAYER_2
 10
181.6637
 20
174.1239
 11
181.9696
 21
174.1239
  0
LINE
  8
LAYER_2
 10
181.9696
 20
174.1239
 11
182.2989
 21
174.1239
  0
LINE
  8
LAYER_2
 10
182.2989
 20
174.1239
 11
182.6045
 21
174.1239
  0
LINE
  8
LAYER_2
 10
182.6045
 20
174.1239
 11
182.9573
 21
174.1239
  0
LINE
  8
LAYER_2
 10
182.9573
 20
174.1239
 11
183.2866
 21
174.1239
  0
LINE
  8
LAYER_2
 10
183.2866
 20
174.1239
 11
183.6394
 21
174.1239
  0
LINE
  8
LAYER_2
 10
183.6394
 20
174.1239
 11
184.0156
 21
174.1239
  0
LINE
  8
LAYER_2
 10
184.0156
 20
174.1239
 11
184.3918
 21
174.1239
  0
LINE
  8
LAYER_2
 10
184.3918
 20
174.1239
 11
184.7446
 21
174.1239
  0
LINE
  8
LAYER_2
 10
184.7446
 20
174.1239
 11
185.1446
 21
174.1239
  0
LINE
  8
LAYER_2
 10
185.1446
 20
174.1239
 11
185.5208
 21
174.1239
  0
LINE
  8
LAYER_2
 10
185.5208
 20
174.1239
 11
185.897
 21
174.1239
  0
LINE
  8
LAYER_2
 10
185.897
 20
174.1239
 11
186.297
 21
174.1239
  0
LINE
  8
LAYER_2
 10
186.297
 20
174.1239
 11
186.6732
 21
174.1239
  0
LINE
  8
LAYER_2
 10
186.6732
 20
174.1239
 11
187.0497
 21
174.1239
  0
LINE
  8
LAYER_2
 10
187.0497
 20
174.1239
 11
187.4493
 21
174.1239
  0
LINE
  8
LAYER_2
 10
187.4493
 20
174.1239
 11
187.8256
 21
174.1239
  0
LINE
  8
LAYER_2
 10
187.8256
 20
174.1239
 11
188.2018
 21
174.1239
  0
LINE
  8
LAYER_2
 10
188.2018
 20
174.1239
 11
188.5546
 21
174.1239
  0
LINE
  8
LAYER_2
 10
188.5546
 20
174.1239
 11
188.9073
 21
174.1239
  0
LINE
  8
LAYER_2
 10
188.9073
 20
174.1239
 11
189.2601
 21
174.1239
  0
LINE
  8
LAYER_2
 10
189.2601
 20
174.1239
 11
189.6129
 21
174.1239
  0
LINE
  8
LAYER_2
 10
189.6129
 20
174.1239
 11
189.9422
 21
174.1239
  0
LINE
  8
LAYER_2
 10
189.9422
 20
174.1239
 11
190.2716
 21
174.1239
  0
LINE
  8
LAYER_2
 10
190.2716
 20
174.1239
 11
190.5775
 21
174.1239
  0
LINE
  8
LAYER_2
 10
190.5775
 20
174.1239
 11
190.8593
 21
174.1239
  0
LINE
  8
LAYER_2
 10
190.8593
 20
174.1239
 11
191.1418
 21
174.1239
  0
LINE
  8
LAYER_2
 10
191.1418
 20
174.1239
 11
191.424
 21
174.1239
  0
LINE
  8
LAYER_2
 10
191.424
 20
174.1239
 11
191.6593
 21
174.1239
  0
LINE
  8
LAYER_2
 10
191.6593
 20
174.1239
 11
191.8942
 21
174.1239
  0
LINE
  8
LAYER_2
 10
191.8942
 20
174.1239
 11
192.1295
 21
174.1239
  0
LINE
  8
LAYER_2
 10
192.1295
 20
174.1239
 11
192.3176
 21
174.1239
  0
LINE
  8
LAYER_2
 10
192.3176
 20
174.1239
 11
192.5057
 21
174.1239
  0
LINE
  8
LAYER_2
 10
192.5057
 20
174.1239
 11
192.647
 21
174.1239
  0
LINE
  8
LAYER_2
 10
192.647
 20
174.1239
 11
192.8116
 21
174.1239
  0
LINE
  8
LAYER_2
 10
192.8116
 20
174.1239
 11
192.9291
 21
174.1239
  0
LINE
  8
LAYER_2
 10
192.9291
 20
174.1239
 11
193.0232
 21
174.1239
  0
LINE
  8
LAYER_2
 10
193.0232
 20
174.1239
 11
193.0938
 21
174.1239
  0
LINE
  8
LAYER_2
 10
193.0938
 20
174.1239
 11
193.1644
 21
174.1239
  0
LINE
  8
LAYER_2
 10
193.1644
 20
174.1239
 11
193.2113
 21
174.1239
  0
ENDBLK
  0
BLOCK
  8
LAYER_2
  2
AIGNBL02010026
 70
64
 10
0
 20
0
 30
0
  3
AIGNBL02010026
  0
LINE
  8
LAYER_2
 10
194.5518
 20
178.1045
 11
194.5283
 21
178.1045
  0
LINE
  8
LAYER_2
 10
194.5283
 20
178.1045
 11
194.5049
 21
178.1045
  0
LINE
  8
LAYER_2
 10
194.5049
 20
178.1045
 11
194.4343
 21
178.1045
  0
LINE
  8
LAYER_2
 10
194.4343
 20
178.1045
 11
194.3637
 21
178.1045
  0
LINE
  8
LAYER_2
 10
194.3637
 20
178.1045
 11
194.2462
 21
178.1045
  0
LINE
  8
LAYER_2
 10
194.2462
 20
178.1045
 11
194.1287
 21
178.1045
  0
LINE
  8
LAYER_2
 10
194.1287
 20
178.1045
 11
193.9875
 21
178.1045
  0
LINE
  8
LAYER_2
 10
193.9875
 20
178.1045
 11
193.8228
 21
178.1045
  0
LINE
  8
LAYER_2
 10
193.8228
 20
178.1045
 11
193.6581
 21
178.1045
  0
LINE
  8
LAYER_2
 10
193.6581
 20
178.1045
 11
193.4466
 21
178.1045
  0
LINE
  8
LAYER_2
 10
193.4466
 20
178.1045
 11
193.235
 21
178.1045
  0
LINE
  8
LAYER_2
 10
193.235
 20
178.1045
 11
192.9997
 21
178.1045
  0
LINE
  8
LAYER_2
 10
192.9997
 20
178.1045
 11
192.741
 21
178.1045
  0
LINE
  8
LAYER_2
 10
192.741
 20
178.1045
 11
192.4823
 21
178.1045
  0
LINE
  8
LAYER_2
 10
192.4823
 20
178.1045
 11
192.2001
 21
178.1045
  0
LINE
  8
LAYER_2
 10
192.2001
 20
178.1045
 11
191.8942
 21
178.1045
  0
LINE
  8
LAYER_2
 10
191.8942
 20
178.1045
 11
191.5886
 21
178.1045
  0
LINE
  8
LAYER_2
 10
191.5886
 20
178.1045
 11
191.2593
 21
178.1045
  0
LINE
  8
LAYER_2
 10
191.2593
 20
178.1045
 11
190.9065
 21
178.1045
  0
LINE
  8
LAYER_2
 10
190.9065
 20
178.1045
 11
190.5537
 21
178.1045
  0
LINE
  8
LAYER_2
 10
190.5537
 20
178.1045
 11
190.2009
 21
178.1045
  0
LINE
  8
LAYER_2
 10
190.2009
 20
178.1045
 11
189.8247
 21
178.1045
  0
LINE
  8
LAYER_2
 10
189.8247
 20
178.1045
 11
189.4482
 21
178.1045
  0
LINE
  8
LAYER_2
 10
189.4482
 20
178.1045
 11
189.0486
 21
178.1045
  0
LINE
  8
LAYER_2
 10
189.0486
 20
178.1045
 11
188.6489
 21
178.1045
  0
LINE
  8
LAYER_2
 10
188.6489
 20
178.1045
 11
188.249
 21
178.1045
  0
LINE
  8
LAYER_2
 10
188.249
 20
178.1045
 11
187.849
 21
178.1045
  0
LINE
  8
LAYER_2
 10
187.849
 20
178.1045
 11
187.4259
 21
178.1045
  0
LINE
  8
LAYER_2
 10
187.4259
 20
178.1045
 11
187.0025
 21
178.1045
  0
LINE
  8
LAYER_2
 10
187.0025
 20
178.1045
 11
186.6025
 21
178.1045
  0
LINE
  8
LAYER_2
 10
186.6025
 20
178.1045
 11
186.1795
 21
178.1045
  0
LINE
  8
LAYER_2
 10
186.1795
 20
178.1045
 11
185.7561
 21
178.1045
  0
LINE
  8
LAYER_2
 10
185.7561
 20
178.1045
 11
185.3327
 21
178.1045
  0
LINE
  8
LAYER_2
 10
185.3327
 20
178.1045
 11
184.9331
 21
178.1045
  0
LINE
  8
LAYER_2
 10
184.9331
 20
178.1045
 11
184.5093
 21
178.1045
  0
LINE
  8
LAYER_2
 10
184.5093
 20
178.1045
 11
184.1097
 21
178.1045
  0
LINE
  8
LAYER_2
 10
184.1097
 20
178.1045
 11
183.71
 21
178.1045
  0
LINE
  8
LAYER_2
 10
183.71
 20
178.1045
 11
183.3101
 21
178.1045
  0
LINE
  8
LAYER_2
 10
183.3101
 20
178.1045
 11
182.9101
 21
178.1045
  0
LINE
  8
LAYER_2
 10
182.9101
 20
178.1045
 11
182.5339
 21
178.1045
  0
LINE
  8
LAYER_2
 10
182.5339
 20
178.1045
 11
182.1577
 21
178.1045
  0
LINE
  8
LAYER_2
 10
182.1577
 20
178.1045
 11
181.8049
 21
178.1045
  0
LINE
  8
LAYER_2
 10
181.8049
 20
178.1045
 11
181.4521
 21
178.1045
  0
LINE
  8
LAYER_2
 10
181.4521
 20
178.1045
 11
181.1228
 21
178.1045
  0
LINE
  8
LAYER_2
 10
181.1228
 20
178.1045
 11
180.7935
 21
178.1045
  0
LINE
  8
LAYER_2
 10
180.7935
 20
178.1045
 11
180.4878
 21
178.1045
  0
LINE
  8
LAYER_2
 10
180.4878
 20
178.1045
 11
180.1823
 21
178.1045
  0
LINE
  8
LAYER_2
 10
180.1823
 20
178.1045
 11
179.8998
 21
178.1045
  0
LINE
  8
LAYER_2
 10
179.8998
 20
178.1045
 11
179.6414
 21
178.1045
  0
LINE
  8
LAYER_2
 10
179.6414
 20
178.1045
 11
179.3823
 21
178.1045
  0
LINE
  8
LAYER_2
 10
179.3823
 20
178.1045
 11
179.1708
 21
178.1045
  0
LINE
  8
LAYER_2
 10
179.1708
 20
178.1045
 11
178.9593
 21
178.1045
  0
LINE
  8
LAYER_2
 10
178.9593
 20
178.1045
 11
178.7474
 21
178.1045
  0
LINE
  8
LAYER_2
 10
178.7474
 20
178.1045
 11
178.5831
 21
178.1045
  0
LINE
  8
LAYER_2
 10
178.5831
 20
178.1045
 11
178.4184
 21
178.1045
  0
LINE
  8
LAYER_2
 10
178.4184
 20
178.1045
 11
178.2771
 21
178.1045
  0
LINE
  8
LAYER_2
 10
178.2771
 20
178.1045
 11
178.1593
 21
178.1045
  0
LINE
  8
LAYER_2
 10
178.1593
 20
178.1045
 11
178.0656
 21
178.1045
  0
LINE
  8
LAYER_2
 10
178.0656
 20
178.1045
 11
177.995
 21
178.1045
  0
LINE
  8
LAYER_2
 10
177.995
 20
178.1045
 11
177.9243
 21
178.1045
  0
LINE
  8
LAYER_2
 10
177.9243
 20
178.1045
 11
177.9009
 21
178.1045
  0
LINE
  8
LAYER_2
 10
177.9009
 20
178.1045
 11
177.8775
 21
178.1045
  0
ENDBLK
  0
BLOCK
  8
LAYER_2
  2
AIGNBL02010027
 70
64
 10
0
 20
0
 30
0
  3
AIGNBL02010027
  0
LINE
  8
LAYER_2
 10
196.5509
 20
187.9369
 11
196.5275
 21
187.9369
  0
LINE
  8
LAYER_2
 10
196.5275
 20
187.9369
 11
196.5038
 21
187.9369
  0
LINE
  8
LAYER_2
 10
196.5038
 20
187.9369
 11
196.4335
 21
187.9369
  0
LINE
  8
LAYER_2
 10
196.4335
 20
187.9369
 11
196.3394
 21
187.9369
  0
LINE
  8
LAYER_2
 10
196.3394
 20
187.9369
 11
196.2454
 21
187.9369
  0
LINE
  8
LAYER_2
 10
196.2454
 20
187.9369
 11
196.1275
 21
187.9369
  0
LINE
  8
LAYER_2
 10
196.1275
 20
187.9369
 11
195.9866
 21
187.9369
  0
LINE
  8
LAYER_2
 10
195.9866
 20
187.9369
 11
195.822
 21
187.9369
  0
LINE
  8
LAYER_2
 10
195.822
 20
187.9369
 11
195.6339
 21
187.9369
  0
LINE
  8
LAYER_2
 10
195.6339
 20
187.9369
 11
195.4454
 21
187.9369
  0
LINE
  8
LAYER_2
 10
195.4454
 20
187.9369
 11
195.2105
 21
187.9369
  0
LINE
  8
LAYER_2
 10
195.2105
 20
187.9369
 11
194.9752
 21
187.9369
  0
LINE
  8
LAYER_2
 10
194.9752
 20
187.9369
 11
194.7164
 21
187.9369
  0
LINE
  8
LAYER_2
 10
194.7164
 20
187.9369
 11
194.4343
 21
187.9369
  0
LINE
  8
LAYER_2
 10
194.4343
 20
187.9369
 11
194.1521
 21
187.9369
  0
LINE
  8
LAYER_2
 10
194.1521
 20
187.9369
 11
193.8462
 21
187.9369
  0
LINE
  8
LAYER_2
 10
193.8462
 20
187.9369
 11
193.5172
 21
187.9369
  0
LINE
  8
LAYER_2
 10
193.5172
 20
187.9369
 11
193.1878
 21
187.9369
  0
LINE
  8
LAYER_2
 10
193.1878
 20
187.9369
 11
192.8351
 21
187.9369
  0
LINE
  8
LAYER_2
 10
192.8351
 20
187.9369
 11
192.4589
 21
187.9369
  0
LINE
  8
LAYER_2
 10
192.4589
 20
187.9369
 11
192.0823
 21
187.9369
  0
LINE
  8
LAYER_2
 10
192.0823
 20
187.9369
 11
191.7061
 21
187.9369
  0
LINE
  8
LAYER_2
 10
191.7061
 20
187.9369
 11
191.2831
 21
187.9369
  0
LINE
  8
LAYER_2
 10
191.2831
 20
187.9369
 11
190.8831
 21
187.9369
  0
LINE
  8
LAYER_2
 10
190.8831
 20
187.9369
 11
190.4597
 21
187.9369
  0
LINE
  8
LAYER_2
 10
190.4597
 20
187.9369
 11
190.0363
 21
187.9369
  0
LINE
  8
LAYER_2
 10
190.0363
 20
187.9369
 11
189.5894
 21
187.9369
  0
LINE
  8
LAYER_2
 10
189.5894
 20
187.9369
 11
189.1426
 21
187.9369
  0
LINE
  8
LAYER_2
 10
189.1426
 20
187.9369
 11
188.6958
 21
187.9369
  0
LINE
  8
LAYER_2
 10
188.6958
 20
187.9369
 11
188.249
 21
187.9369
  0
LINE
  8
LAYER_2
 10
188.249
 20
187.9369
 11
187.7787
 21
187.9369
  0
LINE
  8
LAYER_2
 10
187.7787
 20
187.9369
 11
187.3081
 21
187.9369
  0
LINE
  8
LAYER_2
 10
187.3081
 20
187.9369
 11
186.8613
 21
187.9369
  0
LINE
  8
LAYER_2
 10
186.8613
 20
187.9369
 11
186.391
 21
187.9369
  0
LINE
  8
LAYER_2
 10
186.391
 20
187.9369
 11
185.9204
 21
187.9369
  0
LINE
  8
LAYER_2
 10
185.9204
 20
187.9369
 11
185.4502
 21
187.9369
  0
LINE
  8
LAYER_2
 10
185.4502
 20
187.9369
 11
184.9799
 21
187.9369
  0
LINE
  8
LAYER_2
 10
184.9799
 20
187.9369
 11
184.5331
 21
187.9369
  0
LINE
  8
LAYER_2
 10
184.5331
 20
187.9369
 11
184.0628
 21
187.9369
  0
LINE
  8
LAYER_2
 10
184.0628
 20
187.9369
 11
183.6157
 21
187.9369
  0
LINE
  8
LAYER_2
 10
183.6157
 20
187.9369
 11
183.1692
 21
187.9369
  0
LINE
  8
LAYER_2
 10
183.1692
 20
187.9369
 11
182.722
 21
187.9369
  0
LINE
  8
LAYER_2
 10
182.722
 20
187.9369
 11
182.2752
 21
187.9369
  0
LINE
  8
LAYER_2
 10
182.2752
 20
187.9369
 11
181.8518
 21
187.9369
  0
LINE
  8
LAYER_2
 10
181.8518
 20
187.9369
 11
181.4287
 21
187.9369
  0
LINE
  8
LAYER_2
 10
181.4287
 20
187.9369
 11
181.0287
 21
187.9369
  0
LINE
  8
LAYER_2
 10
181.0287
 20
187.9369
 11
180.6288
 21
187.9369
  0
LINE
  8
LAYER_2
 10
180.6288
 20
187.9369
 11
180.2525
 21
187.9369
  0
LINE
  8
LAYER_2
 10
180.2525
 20
187.9369
 11
179.8763
 21
187.9369
  0
LINE
  8
LAYER_2
 10
179.8763
 20
187.9369
 11
179.5001
 21
187.9369
  0
LINE
  8
LAYER_2
 10
179.5001
 20
187.9369
 11
179.1474
 21
187.9369
  0
LINE
  8
LAYER_2
 10
179.1474
 20
187.9369
 11
178.818
 21
187.9369
  0
LINE
  8
LAYER_2
 10
178.818
 20
187.9369
 11
178.5121
 21
187.9369
  0
LINE
  8
LAYER_2
 10
178.5121
 20
187.9369
 11
178.2065
 21
187.9369
  0
LINE
  8
LAYER_2
 10
178.2065
 20
187.9369
 11
177.9243
 21
187.9369
  0
LINE
  8
LAYER_2
 10
177.9243
 20
187.9369
 11
177.6422
 21
187.9369
  0
LINE
  8
LAYER_2
 10
177.6422
 20
187.9369
 11
177.4069
 21
187.9369
  0
LINE
  8
LAYER_2
 10
177.4069
 20
187.9369
 11
177.1719
 21
187.9369
  0
LINE
  8
LAYER_2
 10
177.1719
 20
187.9369
 11
176.9366
 21
187.9369
  0
LINE
  8
LAYER_2
 10
176.9366
 20
187.9369
 11
176.7482
 21
187.9369
  0
LINE
  8
LAYER_2
 10
176.7482
 20
187.9369
 11
176.5839
 21
187.9369
  0
LINE
  8
LAYER_2
 10
176.5839
 20
187.9369
 11
176.4192
 21
187.9369
  0
LINE
  8
LAYER_2
 10
176.4192
 20
187.9369
 11
176.2779
 21
187.9369
  0
LINE
  8
LAYER_2
 10
176.2779
 20
187.9369
 11
176.1605
 21
187.9369
  0
LINE
  8
LAYER_2
 10
176.1605
 20
187.9369
 11
176.0664
 21
187.9369
  0
LINE
  8
LAYER_2
 10
176.0664
 20
187.9369
 11
175.9958
 21
187.9369
  0
LINE
  8
LAYER_2
 10
175.9958
 20
187.9369
 11
175.9252
 21
187.9369
  0
LINE
  8
LAYER_2
 10
175.9252
 20
187.9369
 11
175.9017
 21
187.9369
  0
LINE
  8
LAYER_2
 10
175.9017
 20
187.9369
 11
175.8783
 21
187.9369
  0
ENDBLK
  0
BLOCK
  8
LAYER_2
  2
AIGNBL02010028
 70
64
 10
0
 20
0
 30
0
  3
AIGNBL02010028
  0
LINE
  8
LAYER_2
 10
196.5509
 20
189.7714
 11
196.5275
 21
189.7714
  0
LINE
  8
LAYER_2
 10
196.5275
 20
189.7714
 11
196.5038
 21
189.7714
  0
LINE
  8
LAYER_2
 10
196.5038
 20
189.7714
 11
196.4335
 21
189.7714
  0
LINE
  8
LAYER_2
 10
196.4335
 20
189.7714
 11
196.3394
 21
189.7714
  0
LINE
  8
LAYER_2
 10
196.3394
 20
189.7714
 11
196.2454
 21
189.7714
  0
LINE
  8
LAYER_2
 10
196.2454
 20
189.7714
 11
196.1275
 21
189.7714
  0
LINE
  8
LAYER_2
 10
196.1275
 20
189.7714
 11
195.9866
 21
189.7714
  0
LINE
  8
LAYER_2
 10
195.9866
 20
189.7714
 11
195.822
 21
189.7714
  0
LINE
  8
LAYER_2
 10
195.822
 20
189.7714
 11
195.6339
 21
189.7714
  0
LINE
  8
LAYER_2
 10
195.6339
 20
189.7714
 11
195.4454
 21
189.7714
  0
LINE
  8
LAYER_2
 10
195.4454
 20
189.7714
 11
195.2105
 21
189.7714
  0
LINE
  8
LAYER_2
 10
195.2105
 20
189.7714
 11
194.9752
 21
189.7714
  0
LINE
  8
LAYER_2
 10
194.9752
 20
189.7714
 11
194.7164
 21
189.7714
  0
LINE
  8
LAYER_2
 10
194.7164
 20
189.7714
 11
194.4343
 21
189.7714
  0
LINE
  8
LAYER_2
 10
194.4343
 20
189.7714
 11
194.1521
 21
189.7714
  0
LINE
  8
LAYER_2
 10
194.1521
 20
189.7714
 11
193.8462
 21
189.7714
  0
LINE
  8
LAYER_2
 10
193.8462
 20
189.7714
 11
193.5172
 21
189.7714
  0
LINE
  8
LAYER_2
 10
193.5172
 20
189.7714
 11
193.1878
 21
189.7714
  0
LINE
  8
LAYER_2
 10
193.1878
 20
189.7714
 11
192.8351
 21
189.7714
  0
LINE
  8
LAYER_2
 10
192.8351
 20
189.7714
 11
192.4589
 21
189.7714
  0
LINE
  8
LAYER_2
 10
192.4589
 20
189.7714
 11
192.0823
 21
189.7714
  0
LINE
  8
LAYER_2
 10
192.0823
 20
189.7714
 11
191.7061
 21
189.7714
  0
LINE
  8
LAYER_2
 10
191.7061
 20
189.7714
 11
191.2831
 21
189.7714
  0
LINE
  8
LAYER_2
 10
191.2831
 20
189.7714
 11
190.8831
 21
189.7714
  0
LINE
  8
LAYER_2
 10
190.8831
 20
189.7714
 11
190.4597
 21
189.7714
  0
LINE
  8
LAYER_2
 10
190.4597
 20
189.7714
 11
190.0363
 21
189.7714
  0
LINE
  8
LAYER_2
 10
190.0363
 20
189.7714
 11
189.5894
 21
189.7714
  0
LINE
  8
LAYER_2
 10
189.5894
 20
189.7714
 11
189.1426
 21
189.7714
  0
LINE
  8
LAYER_2
 10
189.1426
 20
189.7714
 11
188.6958
 21
189.7714
  0
LINE
  8
LAYER_2
 10
188.6958
 20
189.7714
 11
188.249
 21
189.7714
  0
LINE
  8
LAYER_2
 10
188.249
 20
189.7714
 11
187.7787
 21
189.7714
  0
LINE
  8
LAYER_2
 10
187.7787
 20
189.7714
 11
187.3081
 21
189.7714
  0
LINE
  8
LAYER_2
 10
187.3081
 20
189.7714
 11
186.8613
 21
189.7714
  0
LINE
  8
LAYER_2
 10
186.8613
 20
189.7714
 11
186.391
 21
189.7714
  0
LINE
  8
LAYER_2
 10
186.391
 20
189.7714
 11
185.9204
 21
189.7714
  0
LINE
  8
LAYER_2
 10
185.9204
 20
189.7714
 11
185.4502
 21
189.7714
  0
LINE
  8
LAYER_2
 10
185.4502
 20
189.7714
 11
184.9799
 21
189.7714
  0
LINE
  8
LAYER_2
 10
184.9799
 20
189.7714
 11
184.5331
 21
189.7714
  0
LINE
  8
LAYER_2
 10
184.5331
 20
189.7714
 11
184.0628
 21
189.7714
  0
LINE
  8
LAYER_2
 10
184.0628
 20
189.7714
 11
183.6157
 21
189.7714
  0
LINE
  8
LAYER_2
 10
183.6157
 20
189.7714
 11
183.1692
 21
189.7714
  0
LINE
  8
LAYER_2
 10
183.1692
 20
189.7714
 11
182.722
 21
189.7714
  0
LINE
  8
LAYER_2
 10
182.722
 20
189.7714
 11
182.2752
 21
189.7714
  0
LINE
  8
LAYER_2
 10
182.2752
 20
189.7714
 11
181.8518
 21
189.7714
  0
LINE
  8
LAYER_2
 10
181.8518
 20
189.7714
 11
181.4287
 21
189.7714
  0
LINE
  8
LAYER_2
 10
181.4287
 20
189.7714
 11
181.0287
 21
189.7714
  0
LINE
  8
LAYER_2
 10
181.0287
 20
189.7714
 11
180.6288
 21
189.7714
  0
LINE
  8
LAYER_2
 10
180.6288
 20
189.7714
 11
180.2525
 21
189.7714
  0
LINE
  8
LAYER_2
 10
180.2525
 20
189.7714
 11
179.8763
 21
189.7714
  0
LINE
  8
LAYER_2
 10
179.8763
 20
189.7714
 11
179.5001
 21
189.7714
  0
LINE
  8
LAYER_2
 10
179.5001
 20
189.7714
 11
179.1474
 21
189.7714
  0
LINE
  8
LAYER_2
 10
179.1474
 20
189.7714
 11
178.818
 21
189.7714
  0
LINE
  8
LAYER_2
 10
178.818
 20
189.7714
 11
178.5121
 21
189.7714
  0
LINE
  8
LAYER_2
 10
178.5121
 20
189.7714
 11
178.2065
 21
189.7714
  0
LINE
  8
LAYER_2
 10
178.2065
 20
189.7714
 11
177.9243
 21
189.7714
  0
LINE
  8
LAYER_2
 10
177.9243
 20
189.7714
 11
177.6422
 21
189.7714
  0
LINE
  8
LAYER_2
 10
177.6422
 20
189.7714
 11
177.4069
 21
189.7714
  0
LINE
  8
LAYER_2
 10
177.4069
 20
189.7714
 11
177.1719
 21
189.7714
  0
LINE
  8
LAYER_2
 10
177.1719
 20
189.7714
 11
176.9366
 21
189.7714
  0
LINE
  8
LAYER_2
 10
176.9366
 20
189.7714
 11
176.7482
 21
189.7714
  0
LINE
  8
LAYER_2
 10
176.7482
 20
189.7714
 11
176.5839
 21
189.7714
  0
LINE
  8
LAYER_2
 10
176.5839
 20
189.7714
 11
176.4192
 21
189.7714
  0
LINE
  8
LAYER_2
 10
176.4192
 20
189.7714
 11
176.2779
 21
189.7714
  0
LINE
  8
LAYER_2
 10
176.2779
 20
189.7714
 11
176.1605
 21
189.7714
  0
LINE
  8
LAYER_2
 10
176.1605
 20
189.7714
 11
176.0664
 21
189.7714
  0
LINE
  8
LAYER_2
 10
176.0664
 20
189.7714
 11
175.9958
 21
189.7714
  0
LINE
  8
LAYER_2
 10
175.9958
 20
189.7714
 11
175.9252
 21
189.7714
  0
LINE
  8
LAYER_2
 10
175.9252
 20
189.7714
 11
175.9017
 21
189.7714
  0
LINE
  8
LAYER_2
 10
175.9017
 20
189.7714
 11
175.8783
 21
189.7714
  0
ENDBLK
  0
BLOCK
  8
LAYER_2
  2
AIGNBL02010029
 70
64
 10
0
 20
0
 30
0
  3
AIGNBL02010029
  0
LINE
  8
LAYER_2
 10
177.2188
 20
190.265
 11
177.2422
 21
190.265
  0
LINE
  8
LAYER_2
 10
177.2422
 20
190.265
 11
177.2894
 21
190.265
  0
LINE
  8
LAYER_2
 10
177.2894
 20
190.265
 11
177.36
 21
190.265
  0
LINE
  8
LAYER_2
 10
177.36
 20
190.265
 11
177.4303
 21
190.265
  0
LINE
  8
LAYER_2
 10
177.4303
 20
190.265
 11
177.5481
 21
190.265
  0
LINE
  8
LAYER_2
 10
177.5481
 20
190.265
 11
177.6656
 21
190.265
  0
LINE
  8
LAYER_2
 10
177.6656
 20
190.265
 11
177.8066
 21
190.265
  0
LINE
  8
LAYER_2
 10
177.8066
 20
190.265
 11
177.9712
 21
190.265
  0
LINE
  8
LAYER_2
 10
177.9712
 20
190.265
 11
178.1593
 21
190.265
  0
LINE
  8
LAYER_2
 10
178.1593
 20
190.265
 11
178.3478
 21
190.265
  0
LINE
  8
LAYER_2
 10
178.3478
 20
190.265
 11
178.5831
 21
190.265
  0
LINE
  8
LAYER_2
 10
178.5831
 20
190.265
 11
178.818
 21
190.265
  0
LINE
  8
LAYER_2
 10
178.818
 20
190.265
 11
179.0767
 21
190.265
  0
LINE
  8
LAYER_2
 10
179.0767
 20
190.265
 11
179.3355
 21
190.265
  0
LINE
  8
LAYER_2
 10
179.3355
 20
190.265
 11
179.6414
 21
190.265
  0
LINE
  8
LAYER_2
 10
179.6414
 20
190.265
 11
179.9232
 21
190.265
  0
LINE
  8
LAYER_2
 10
179.9232
 20
190.265
 11
180.2525
 21
190.265
  0
LINE
  8
LAYER_2
 10
180.2525
 20
190.265
 11
180.5819
 21
190.265
  0
LINE
  8
LAYER_2
 10
180.5819
 20
190.265
 11
180.9347
 21
190.265
  0
LINE
  8
LAYER_2
 10
180.9347
 20
190.265
 11
181.2875
 21
190.265
  0
LINE
  8
LAYER_2
 10
181.2875
 20
190.265
 11
181.6637
 21
190.265
  0
LINE
  8
LAYER_2
 10
181.6637
 20
190.265
 11
182.0399
 21
190.265
  0
LINE
  8
LAYER_2
 10
182.0399
 20
190.265
 11
182.4398
 21
190.265
  0
LINE
  8
LAYER_2
 10
182.4398
 20
190.265
 11
182.8164
 21
190.265
  0
LINE
  8
LAYER_2
 10
182.8164
 20
190.265
 11
183.2394
 21
190.265
  0
LINE
  8
LAYER_2
 10
183.2394
 20
190.265
 11
183.6394
 21
190.265
  0
LINE
  8
LAYER_2
 10
183.6394
 20
190.265
 11
184.0628
 21
190.265
  0
LINE
  8
LAYER_2
 10
184.0628
 20
190.265
 11
184.4859
 21
190.265
  0
LINE
  8
LAYER_2
 10
184.4859
 20
190.265
 11
184.9093
 21
190.265
  0
LINE
  8
LAYER_2
 10
184.9093
 20
190.265
 11
185.3561
 21
190.265
  0
LINE
  8
LAYER_2
 10
185.3561
 20
190.265
 11
185.7795
 21
190.265
  0
LINE
  8
LAYER_2
 10
185.7795
 20
190.265
 11
186.2263
 21
190.265
  0
ENDBLK
  0
BLOCK
  8
LAYER_2
  2
AIGNBL0201002A
 70
64
 10
0
 20
0
 30
0
  3
AIGNBL0201002A
  0
LINE
  8
LAYER_2
 10
186.2263
 20
190.265
 11
186.6497
 21
190.265
  0
LINE
  8
LAYER_2
 10
186.6497
 20
190.265
 11
187.0966
 21
190.265
  0
LINE
  8
LAYER_2
 10
187.0966
 20
190.265
 11
187.52
 21
190.265
  0
LINE
  8
LAYER_2
 10
187.52
 20
190.265
 11
187.9434
 21
190.265
  0
LINE
  8
LAYER_2
 10
187.9434
 20
190.265
 11
188.3664
 21
190.265
  0
LINE
  8
LAYER_2
 10
188.3664
 20
190.265
 11
188.7898
 21
190.265
  0
LINE
  8
LAYER_2
 10
188.7898
 20
190.265
 11
189.2132
 21
190.265
  0
LINE
  8
LAYER_2
 10
189.2132
 20
190.265
 11
189.6129
 21
190.265
  0
LINE
  8
LAYER_2
 10
189.6129
 20
190.265
 11
190.0128
 21
190.265
  0
LINE
  8
LAYER_2
 10
190.0128
 20
190.265
 11
190.4128
 21
190.265
  0
LINE
  8
LAYER_2
 10
190.4128
 20
190.265
 11
190.789
 21
190.265
  0
LINE
  8
LAYER_2
 10
190.789
 20
190.265
 11
191.1418
 21
190.265
  0
LINE
  8
LAYER_2
 10
191.1418
 20
190.265
 11
191.518
 21
190.265
  0
LINE
  8
LAYER_2
 10
191.518
 20
190.265
 11
191.8474
 21
190.265
  0
LINE
  8
LAYER_2
 10
191.8474
 20
190.265
 11
192.2001
 21
190.265
  0
LINE
  8
LAYER_2
 10
192.2001
 20
190.265
 11
192.5057
 21
190.265
  0
LINE
  8
LAYER_2
 10
192.5057
 20
190.265
 11
192.8116
 21
190.265
  0
LINE
  8
LAYER_2
 10
192.8116
 20
190.265
 11
193.0938
 21
190.265
  0
LINE
  8
LAYER_2
 10
193.0938
 20
190.265
 11
193.3759
 21
190.265
  0
LINE
  8
LAYER_2
 10
193.3759
 20
190.265
 11
193.6347
 21
190.265
  0
LINE
  8
LAYER_2
 10
193.6347
 20
190.265
 11
193.87
 21
190.265
  0
LINE
  8
LAYER_2
 10
193.87
 20
190.265
 11
194.0815
 21
190.265
  0
LINE
  8
LAYER_2
 10
194.0815
 20
190.265
 11
194.2934
 21
190.265
  0
LINE
  8
LAYER_2
 10
194.2934
 20
190.265
 11
194.4815
 21
190.265
  0
LINE
  8
LAYER_2
 10
194.4815
 20
190.265
 11
194.6462
 21
190.265
  0
LINE
  8
LAYER_2
 10
194.6462
 20
190.265
 11
194.7871
 21
190.265
  0
LINE
  8
LAYER_2
 10
194.7871
 20
190.265
 11
194.9046
 21
190.265
  0
LINE
  8
LAYER_2
 10
194.9046
 20
190.265
 11
194.9989
 21
190.265
  0
LINE
  8
LAYER_2
 10
194.9989
 20
190.265
 11
195.0927
 21
190.265
  0
LINE
  8
LAYER_2
 10
195.0927
 20
190.265
 11
195.1636
 21
190.265
  0
LINE
  8
LAYER_2
 10
195.1636
 20
190.265
 11
195.187
 21
190.265
  0
LINE
  8
LAYER_2
 10
195.187
 20
190.265
 11
195.2105
 21
190.265
  0
ENDBLK
  0
BLOCK
  8
LAYER_2
  2
AIGNBL0201002B
 70
64
 10
0
 20
0
 30
0
  3
AIGNBL0201002B
  0
LINE
  8
LAYER_2
 10
183.5219
 20
194.2633
 11
183.4747
 21
194.2633
  0
ENDBLK
  0
BLOCK
  8
LAYER_2
  2
AIGNBL0201002C
 70
64
 10
0
 20
0
 30
0
  3
AIGNBL0201002C
  0
LINE
  8
LAYER_2
 10
183.5219
 20
196.5916
 11
183.4747
 21
196.5916
  0
ENDBLK
  0
BLOCK
  8
LAYER_2
  2
AIGNBL0201002D
 70
64
 10
0
 20
0
 30
0
  3
AIGNBL0201002D
  0
LINE
  8
LAYER_2
 10
183.0045
 20
194.2633
 11
183.0045
 21
196.5916
  0
ENDBLK
  0
BLOCK
  8
LAYER_2
  2
AIGNBL0201002E
 70
64
 10
0
 20
0
 30
0
  3
AIGNBL0201002E
  0
LINE
  8
LAYER_2
 10
183.4747
 20
194.2633
 11
183.4747
 21
194.2162
  0
LINE
  8
LAYER_2
 10
183.4747
 20
194.2162
 11
183.4982
 21
194.1456
  0
LINE
  8
LAYER_2
 10
183.4982
 20
194.1456
 11
183.4982
 21
194.0986
  0
LINE
  8
LAYER_2
 10
183.4982
 20
194.0986
 11
183.5219
 21
194.0752
  0
LINE
  8
LAYER_2
 10
183.5219
 20
194.0752
 11
183.5454
 21
194.0047
  0
LINE
  8
LAYER_2
 10
183.5454
 20
194.0047
 11
183.5688
 21
193.9809
  0
LINE
  8
LAYER_2
 10
183.5688
 20
193.9809
 11
183.5922
 21
193.9341
  0
LINE
  8
LAYER_2
 10
183.5922
 20
193.9341
 11
183.6394
 21
193.887
  0
LINE
  8
LAYER_2
 10
183.6394
 20
193.887
 11
183.6863
 21
193.8634
  0
LINE
  8
LAYER_2
 10
183.6863
 20
193.8634
 11
183.71
 21
193.84
  0
LINE
  8
LAYER_2
 10
183.71
 20
193.84
 11
183.7569
 21
193.8166
  0
LINE
  8
LAYER_2
 10
183.7569
 20
193.8166
 11
183.7803
 21
193.7928
  0
LINE
  8
LAYER_2
 10
183.7803
 20
193.7928
 11
183.8275
 21
193.7928
  0
LINE
  8
LAYER_2
 10
183.8275
 20
193.7928
 11
183.8747
 21
193.7694
  0
LINE
  8
LAYER_2
 10
183.8747
 20
193.7694
 11
183.8981
 21
193.7694
  0
LINE
  8
LAYER_2
 10
183.8981
 20
193.7694
 11
183.945
 21
193.7694
  0
LINE
  8
LAYER_2
 10
183.945
 20
193.7694
 11
183.9922
 21
193.7694
  0
ENDBLK
  0
BLOCK
  8
LAYER_2
  2
AIGNBL0201002F
 70
64
 10
0
 20
0
 30
0
  3
AIGNBL0201002F
  0
LINE
  8
LAYER_2
 10
183.4747
 20
196.5916
 11
183.4747
 21
194.2633
  0
ENDBLK
  0
BLOCK
  8
LAYER_2
  2
AIGNBL02010030
 70
64
 10
0
 20
0
 30
0
  3
AIGNBL02010030
  0
LINE
  8
LAYER_2
 10
183.9922
 20
197.0855
 11
183.945
 21
197.0855
  0
LINE
  8
LAYER_2
 10
183.945
 20
197.0855
 11
183.8981
 21
197.0855
  0
LINE
  8
LAYER_2
 10
183.8981
 20
197.0855
 11
183.8509
 21
197.0855
  0
LINE
  8
LAYER_2
 10
183.8509
 20
197.0855
 11
183.8038
 21
197.062
  0
LINE
  8
LAYER_2
 10
183.8038
 20
197.062
 11
183.7569
 21
197.0384
  0
LINE
  8
LAYER_2
 10
183.7569
 20
197.0384
 11
183.71
 21
197.015
  0
LINE
  8
LAYER_2
 10
183.71
 20
197.015
 11
183.6863
 21
196.9916
  0
LINE
  8
LAYER_2
 10
183.6863
 20
196.9916
 11
183.6394
 21
196.9678
  0
LINE
  8
LAYER_2
 10
183.6394
 20
196.9678
 11
183.6157
 21
196.9208
  0
LINE
  8
LAYER_2
 10
183.6157
 20
196.9208
 11
183.5922
 21
196.8974
  0
LINE
  8
LAYER_2
 10
183.5922
 20
196.8974
 11
183.5454
 21
196.8504
  0
LINE
  8
LAYER_2
 10
183.5454
 20
196.8504
 11
183.5219
 21
196.8031
  0
LINE
  8
LAYER_2
 10
183.5219
 20
196.8031
 11
183.5219
 21
196.7797
  0
LINE
  8
LAYER_2
 10
183.5219
 20
196.7797
 11
183.4982
 21
196.7327
  0
LINE
  8
LAYER_2
 10
183.4982
 20
196.7327
 11
183.4982
 21
196.6857
  0
LINE
  8
LAYER_2
 10
183.4982
 20
196.6857
 11
183.4747
 21
196.6388
  0
LINE
  8
LAYER_2
 10
183.4747
 20
196.6388
 11
183.4747
 21
196.5916
  0
ENDBLK
  0
BLOCK
  8
LAYER_2
  2
AIGNBL02010031
 70
64
 10
0
 20
0
 30
0
  3
AIGNBL02010031
  0
LINE
  8
LAYER_2
 10
183.4982
 20
193.7694
 11
183.3101
 21
193.7928
  0
LINE
  8
LAYER_2
 10
183.3101
 20
193.7928
 11
183.1692
 21
193.887
  0
LINE
  8
LAYER_2
 10
183.1692
 20
193.887
 11
183.0513
 21
194.0517
  0
LINE
  8
LAYER_2
 10
183.0513
 20
194.0517
 11
183.0045
 21
194.2162
  0
LINE
  8
LAYER_2
 10
183.0045
 20
194.2162
 11
183.0045
 21
194.2633
  0
ENDBLK
  0
BLOCK
  8
LAYER_2
  2
AIGNBL02010032
 70
64
 10
0
 20
0
 30
0
  3
AIGNBL02010032
  0
LINE
  8
LAYER_2
 10
182.9573
 20
194.2633
 11
183.0045
 21
194.2633
  0
ENDBLK
  0
BLOCK
  8
LAYER_2
  2
AIGNBL02010033
 70
64
 10
0
 20
0
 30
0
  3
AIGNBL02010033
  0
LINE
  8
LAYER_2
 10
183.0045
 20
196.5916
 11
183.0279
 21
196.7563
  0
LINE
  8
LAYER_2
 10
183.0279
 20
196.7563
 11
183.0982
 21
196.8739
  0
LINE
  8
LAYER_2
 10
183.0982
 20
196.8739
 11
183.1926
 21
196.9916
  0
LINE
  8
LAYER_2
 10
183.1926
 20
196.9916
 11
183.3335
 21
197.062
  0
LINE
  8
LAYER_2
 10
183.3335
 20
197.062
 11
183.4982
 21
197.0855
  0
ENDBLK
  0
BLOCK
  8
LAYER_2
  2
AIGNBL02010034
 70
64
 10
0
 20
0
 30
0
  3
AIGNBL02010034
  0
LINE
  8
LAYER_2
 10
182.9573
 20
196.5916
 11
183.0045
 21
196.5916
  0
ENDBLK
  0
BLOCK
  8
LAYER_2
  2
AIGNBL02010035
 70
64
 10
0
 20
0
 30
0
  3
AIGNBL02010035
  0
LINE
  8
LAYER_2
 10
188.9311
 20
194.2633
 11
188.9311
 21
196.5916
  0
ENDBLK
  0
BLOCK
  8
LAYER_2
  2
AIGNBL02010036
 70
64
 10
0
 20
0
 30
0
  3
AIGNBL02010036
  0
LINE
  8
LAYER_2
 10
188.4136
 20
193.7694
 11
188.6017
 21
193.7928
  0
LINE
  8
LAYER_2
 10
188.6017
 20
193.7928
 11
188.7427
 21
193.887
  0
LINE
  8
LAYER_2
 10
188.7427
 20
193.887
 11
188.8605
 21
194.0281
  0
LINE
  8
LAYER_2
 10
188.8605
 20
194.0281
 11
188.9073
 21
194.1928
  0
LINE
  8
LAYER_2
 10
188.9073
 20
194.1928
 11
188.9311
 21
194.2633
  0
ENDBLK
  0
BLOCK
  8
LAYER_2
  2
AIGNBL02010037
 70
64
 10
0
 20
0
 30
0
  3
AIGNBL02010037
  0
LINE
  8
LAYER_2
 10
183.451
 20
193.7694
 11
183.8038
 21
193.7694
  0
LINE
  8
LAYER_2
 10
183.8038
 20
193.7694
 11
184.1803
 21
193.7694
  0
LINE
  8
LAYER_2
 10
184.1803
 20
193.7694
 11
184.5565
 21
193.7694
  0
LINE
  8
LAYER_2
 10
184.5565
 20
193.7694
 11
184.9331
 21
193.7694
  0
LINE
  8
LAYER_2
 10
184.9331
 20
193.7694
 11
185.3327
 21
193.7694
  0
LINE
  8
LAYER_2
 10
185.3327
 20
193.7694
 11
185.7089
 21
193.7694
  0
LINE
  8
LAYER_2
 10
185.7089
 20
193.7694
 11
186.1089
 21
193.7694
  0
LINE
  8
LAYER_2
 10
186.1089
 20
193.7694
 11
186.5085
 21
193.7694
  0
LINE
  8
LAYER_2
 10
186.5085
 20
193.7694
 11
186.885
 21
193.7694
  0
LINE
  8
LAYER_2
 10
186.885
 20
193.7694
 11
187.2847
 21
193.7694
  0
LINE
  8
LAYER_2
 10
187.2847
 20
193.7694
 11
187.6609
 21
193.7694
  0
LINE
  8
LAYER_2
 10
187.6609
 20
193.7694
 11
188.0371
 21
193.7694
  0
LINE
  8
LAYER_2
 10
188.0371
 20
193.7694
 11
188.4136
 21
193.7694
  0
ENDBLK
  0
BLOCK
  8
LAYER_2
  2
AIGNBL02010038
 70
64
 10
0
 20
0
 30
0
  3
AIGNBL02010038
  0
LINE
  8
LAYER_2
 10
182.9573
 20
194.2633
 11
182.9807
 21
194.0986
  0
LINE
  8
LAYER_2
 10
182.9807
 20
194.0986
 11
183.0513
 21
193.9809
  0
LINE
  8
LAYER_2
 10
183.0513
 20
193.9809
 11
183.1692
 21
193.8634
  0
LINE
  8
LAYER_2
 10
183.1692
 20
193.8634
 11
183.3101
 21
193.7928
  0
LINE
  8
LAYER_2
 10
183.3101
 20
193.7928
 11
183.451
 21
193.7694
  0
ENDBLK
  0
BLOCK
  8
LAYER_2
  2
AIGNBL02010039
 70
64
 10
0
 20
0
 30
0
  3
AIGNBL02010039
  0
LINE
  8
LAYER_2
 10
182.9573
 20
196.5916
 11
182.9573
 21
194.2633
  0
ENDBLK
  0
BLOCK
  8
LAYER_2
  2
AIGNBL0201003A
 70
64
 10
0
 20
0
 30
0
  3
AIGNBL0201003A
  0
LINE
  8
LAYER_2
 10
183.451
 20
197.0855
 11
183.2866
 21
197.062
  0
LINE
  8
LAYER_2
 10
183.2866
 20
197.062
 11
183.122
 21
196.9678
  0
LINE
  8
LAYER_2
 10
183.122
 20
196.9678
 11
183.0279
 21
196.8269
  0
LINE
  8
LAYER_2
 10
183.0279
 20
196.8269
 11
182.9573
 21
196.6622
  0
LINE
  8
LAYER_2
 10
182.9573
 20
196.6622
 11
182.9573
 21
196.5916
  0
ENDBLK
  0
BLOCK
  8
LAYER_2
  2
AIGNBL0201003B
 70
64
 10
0
 20
0
 30
0
  3
AIGNBL0201003B
  0
LINE
  8
LAYER_2
 10
188.4136
 20
197.0855
 11
188.0371
 21
197.0855
  0
LINE
  8
LAYER_2
 10
188.0371
 20
197.0855
 11
187.6609
 21
197.0855
  0
LINE
  8
LAYER_2
 10
187.6609
 20
197.0855
 11
187.2847
 21
197.0855
  0
LINE
  8
LAYER_2
 10
187.2847
 20
197.0855
 11
186.885
 21
197.0855
  0
LINE
  8
LAYER_2
 10
186.885
 20
197.0855
 11
186.5085
 21
197.0855
  0
LINE
  8
LAYER_2
 10
186.5085
 20
197.0855
 11
186.1089
 21
197.0855
  0
LINE
  8
LAYER_2
 10
186.1089
 20
197.0855
 11
185.7089
 21
197.0855
  0
LINE
  8
LAYER_2
 10
185.7089
 20
197.0855
 11
185.3327
 21
197.0855
  0
LINE
  8
LAYER_2
 10
185.3327
 20
197.0855
 11
184.9331
 21
197.0855
  0
LINE
  8
LAYER_2
 10
184.9331
 20
197.0855
 11
184.5565
 21
197.0855
  0
LINE
  8
LAYER_2
 10
184.5565
 20
197.0855
 11
184.1803
 21
197.0855
  0
LINE
  8
LAYER_2
 10
184.1803
 20
197.0855
 11
183.8038
 21
197.0855
  0
LINE
  8
LAYER_2
 10
183.8038
 20
197.0855
 11
183.451
 21
197.0855
  0
ENDBLK
  0
BLOCK
  8
LAYER_2
  2
AIGNBL0201003C
 70
64
 10
0
 20
0
 30
0
  3
AIGNBL0201003C
  0
LINE
  8
LAYER_2
 10
188.9311
 20
196.5916
 11
188.9073
 21
196.7563
  0
LINE
  8
LAYER_2
 10
188.9073
 20
196.7563
 11
188.837
 21
196.8739
  0
LINE
  8
LAYER_2
 10
188.837
 20
196.8739
 11
188.7192
 21
196.9916
  0
LINE
  8
LAYER_2
 10
188.7192
 20
196.9916
 11
188.5546
 21
197.062
  0
LINE
  8
LAYER_2
 10
188.5546
 20
197.062
 11
188.4136
 21
197.0855
  0
ENDBLK
  0
BLOCK
  8
LAYER_2
  2
AIGNBL0201003D
 70
64
 10
0
 20
0
 30
0
  3
AIGNBL0201003D
  0
LINE
  8
LAYER_2
 10
179.7589
 20
194.2633
 11
179.7589
 21
196.5916
  0
ENDBLK
  0
BLOCK
  8
LAYER_2
  2
AIGNBL0201003E
 70
64
 10
0
 20
0
 30
0
  3
AIGNBL0201003E
  0
LINE
  8
LAYER_2
 10
179.5704
 20
193.7694
 11
179.6414
 21
193.7928
  0
LINE
  8
LAYER_2
 10
179.6414
 20
193.7928
 11
179.6882
 21
193.887
  0
LINE
  8
LAYER_2
 10
179.6882
 20
193.887
 11
179.7351
 21
194.0281
  0
LINE
  8
LAYER_2
 10
179.7351
 20
194.0281
 11
179.7589
 21
194.1928
  0
LINE
  8
LAYER_2
 10
179.7589
 20
194.1928
 11
179.7589
 21
194.2633
  0
ENDBLK
  0
BLOCK
  8
LAYER_2
  2
AIGNBL0201003F
 70
64
 10
0
 20
0
 30
0
  3
AIGNBL0201003F
  0
LINE
  8
LAYER_2
 10
179.2177
 20
193.7694
 11
179.2414
 21
193.7694
  0
LINE
  8
LAYER_2
 10
179.2414
 20
193.7694
 11
179.312
 21
193.7694
  0
LINE
  8
LAYER_2
 10
179.312
 20
193.7694
 11
179.3589
 21
193.7694
  0
LINE
  8
LAYER_2
 10
179.3589
 20
193.7694
 11
179.4529
 21
193.7694
  0
LINE
  8
LAYER_2
 10
179.4529
 20
193.7694
 11
179.5704
 21
193.7694
  0
ENDBLK
  0
BLOCK
  8
LAYER_2
  2
AIGNBL02010040
 70
64
 10
0
 20
0
 30
0
  3
AIGNBL02010040
  0
LINE
  8
LAYER_2
 10
179.5704
 20
197.0855
 11
179.4529
 21
197.0855
  0
LINE
  8
LAYER_2
 10
179.4529
 20
197.0855
 11
179.3589
 21
197.0855
  0
LINE
  8
LAYER_2
 10
179.3589
 20
197.0855
 11
179.312
 21
197.0855
  0
LINE
  8
LAYER_2
 10
179.312
 20
197.0855
 11
179.2414
 21
197.0855
  0
LINE
  8
LAYER_2
 10
179.2414
 20
197.0855
 11
179.2177
 21
197.0855
  0
ENDBLK
  0
BLOCK
  8
LAYER_2
  2
AIGNBL02010041
 70
64
 10
0
 20
0
 30
0
  3
AIGNBL02010041
  0
LINE
  8
LAYER_2
 10
179.7589
 20
196.5916
 11
179.7589
 21
196.7563
  0
LINE
  8
LAYER_2
 10
179.7589
 20
196.7563
 11
179.7351
 21
196.8739
  0
LINE
  8
LAYER_2
 10
179.7351
 20
196.8739
 11
179.6882
 21
196.9916
  0
LINE
  8
LAYER_2
 10
179.6882
 20
196.9916
 11
179.6176
 21
197.062
  0
LINE
  8
LAYER_2
 10
179.6176
 20
197.062
 11
179.5704
 21
197.0855
  0
ENDBLK
  0
BLOCK
  8
LAYER_2
  2
AIGNBL02010042
 70
64
 10
0
 20
0
 30
0
  3
AIGNBL02010042
  0
LINE
  8
LAYER_2
 10
183.5219
 20
194.2633
 11
183.5219
 21
196.5916
  0
ENDBLK
  0
BLOCK
  8
LAYER_2
  2
AIGNBL02010043
 70
64
 10
0
 20
0
 30
0
  3
AIGNBL02010043
  0
LINE
  8
LAYER_2
 10
184.039
 20
193.7694
 11
183.9922
 21
193.7694
  0
LINE
  8
LAYER_2
 10
183.9922
 20
193.7694
 11
183.945
 21
193.7694
  0
LINE
  8
LAYER_2
 10
183.945
 20
193.7694
 11
183.8981
 21
193.7694
  0
LINE
  8
LAYER_2
 10
183.8981
 20
193.7694
 11
183.8509
 21
193.7928
  0
LINE
  8
LAYER_2
 10
183.8509
 20
193.7928
 11
183.8038
 21
193.8166
  0
LINE
  8
LAYER_2
 10
183.8038
 20
193.8166
 11
183.7569
 21
193.84
  0
LINE
  8
LAYER_2
 10
183.7569
 20
193.84
 11
183.7335
 21
193.8634
  0
LINE
  8
LAYER_2
 10
183.7335
 20
193.8634
 11
183.6863
 21
193.887
  0
LINE
  8
LAYER_2
 10
183.6863
 20
193.887
 11
183.6628
 21
193.9105
  0
LINE
  8
LAYER_2
 10
183.6628
 20
193.9105
 11
183.6394
 21
193.9575
  0
LINE
  8
LAYER_2
 10
183.6394
 20
193.9575
 11
183.5922
 21
193.9809
  0
LINE
  8
LAYER_2
 10
183.5922
 20
193.9809
 11
183.5688
 21
194.0281
  0
LINE
  8
LAYER_2
 10
183.5688
 20
194.0281
 11
183.5688
 21
194.0752
  0
LINE
  8
LAYER_2
 10
183.5688
 20
194.0752
 11
183.5454
 21
194.0986
  0
LINE
  8
LAYER_2
 10
183.5454
 20
194.0986
 11
183.5219
 21
194.1456
  0
LINE
  8
LAYER_2
 10
183.5219
 20
194.1456
 11
183.5219
 21
194.1928
  0
LINE
  8
LAYER_2
 10
183.5219
 20
194.1928
 11
183.5219
 21
194.2633
  0
ENDBLK
  0
BLOCK
  8
LAYER_2
  2
AIGNBL02010044
 70
64
 10
0
 20
0
 30
0
  3
AIGNBL02010044
  0
LINE
  8
LAYER_2
 10
183.5219
 20
196.5916
 11
183.5219
 21
196.6388
  0
LINE
  8
LAYER_2
 10
183.5219
 20
196.6388
 11
183.5219
 21
196.7093
  0
LINE
  8
LAYER_2
 10
183.5219
 20
196.7093
 11
183.5454
 21
196.7563
  0
LINE
  8
LAYER_2
 10
183.5454
 20
196.7563
 11
183.5688
 21
196.7797
  0
LINE
  8
LAYER_2
 10
183.5688
 20
196.7797
 11
183.5922
 21
196.8504
  0
LINE
  8
LAYER_2
 10
183.5922
 20
196.8504
 11
183.6157
 21
196.8739
  0
LINE
  8
LAYER_2
 10
183.6157
 20
196.8739
 11
183.6394
 21
196.9208
  0
LINE
  8
LAYER_2
 10
183.6394
 20
196.9208
 11
183.6628
 21
196.9444
  0
LINE
  8
LAYER_2
 10
183.6628
 20
196.9444
 11
183.6863
 21
196.9678
  0
LINE
  8
LAYER_2
 10
183.6863
 20
196.9678
 11
183.7335
 21
196.9916
  0
LINE
  8
LAYER_2
 10
183.7335
 20
196.9916
 11
183.7569
 21
197.015
  0
LINE
  8
LAYER_2
 10
183.7569
 20
197.015
 11
183.8038
 21
197.0384
  0
LINE
  8
LAYER_2
 10
183.8038
 20
197.0384
 11
183.8275
 21
197.062
  0
LINE
  8
LAYER_2
 10
183.8275
 20
197.062
 11
183.8747
 21
197.062
  0
LINE
  8
LAYER_2
 10
183.8747
 20
197.062
 11
183.9216
 21
197.0855
  0
LINE
  8
LAYER_2
 10
183.9216
 20
197.0855
 11
183.9922
 21
197.0855
  0
LINE
  8
LAYER_2
 10
183.9922
 20
197.0855
 11
184.039
 21
197.0855
  0
ENDBLK
  0
BLOCK
  8
LAYER_2
  2
AIGNBL02010045
 70
64
 10
0
 20
0
 30
0
  3
AIGNBL02010045
  0
LINE
  8
LAYER_2
 10
192.6704
 20
194.2633
 11
192.6704
 21
196.5916
  0
ENDBLK
  0
BLOCK
  8
LAYER_2
  2
AIGNBL02010046
 70
64
 10
0
 20
0
 30
0
  3
AIGNBL02010046
  0
LINE
  8
LAYER_2
 10
192.8585
 20
193.7694
 11
192.8351
 21
193.7694
  0
LINE
  8
LAYER_2
 10
192.8351
 20
193.7694
 11
192.8116
 21
193.7928
  0
LINE
  8
LAYER_2
 10
192.8116
 20
193.7928
 11
192.7879
 21
193.84
  0
LINE
  8
LAYER_2
 10
192.7879
 20
193.84
 11
192.741
 21
193.887
  0
LINE
  8
LAYER_2
 10
192.741
 20
193.887
 11
192.7176
 21
193.9575
  0
LINE
  8
LAYER_2
 10
192.7176
 20
193.9575
 11
192.6942
 21
194.0281
  0
LINE
  8
LAYER_2
 10
192.6942
 20
194.0281
 11
192.6942
 21
194.0986
  0
LINE
  8
LAYER_2
 10
192.6942
 20
194.0986
 11
192.6704
 21
194.1928
  0
LINE
  8
LAYER_2
 10
192.6704
 20
194.1928
 11
192.6704
 21
194.2162
  0
LINE
  8
LAYER_2
 10
192.6704
 20
194.2162
 11
192.6704
 21
194.2633
  0
ENDBLK
  0
BLOCK
  8
LAYER_2
  2
AIGNBL02010047
 70
64
 10
0
 20
0
 30
0
  3
AIGNBL02010047
  0
LINE
  8
LAYER_2
 10
192.647
 20
193.7694
 11
192.7879
 21
193.7694
  0
LINE
  8
LAYER_2
 10
192.7879
 20
193.7694
 11
192.9291
 21
193.7694
  0
LINE
  8
LAYER_2
 10
192.9291
 20
193.7694
 11
193.0232
 21
193.7694
  0
LINE
  8
LAYER_2
 10
193.0232
 20
193.7694
 11
193.0938
 21
193.7694
  0
LINE
  8
LAYER_2
 10
193.0938
 20
193.7694
 11
193.1644
 21
193.7694
  0
LINE
  8
LAYER_2
 10
193.1644
 20
193.7694
 11
193.2113
 21
193.7694
  0
ENDBLK
  0
BLOCK
  8
LAYER_2
  2
AIGNBL02010048
 70
64
 10
0
 20
0
 30
0
  3
AIGNBL02010048
  0
LINE
  8
LAYER_2
 10
192.4117
 20
194.2633
 11
192.4351
 21
194.0986
  0
LINE
  8
LAYER_2
 10
192.4351
 20
194.0986
 11
192.4589
 21
193.9809
  0
LINE
  8
LAYER_2
 10
192.4589
 20
193.9809
 11
192.5057
 21
193.8634
  0
LINE
  8
LAYER_2
 10
192.5057
 20
193.8634
 11
192.5763
 21
193.7928
  0
LINE
  8
LAYER_2
 10
192.5763
 20
193.7928
 11
192.647
 21
193.7694
  0
ENDBLK
  0
BLOCK
  8
LAYER_2
  2
AIGNBL02010049
 70
64
 10
0
 20
0
 30
0
  3
AIGNBL02010049
  0
LINE
  8
LAYER_2
 10
192.4117
 20
196.5916
 11
192.4117
 21
194.2633
  0
ENDBLK
  0
BLOCK
  8
LAYER_2
  2
AIGNBL0201004A
 70
64
 10
0
 20
0
 30
0
  3
AIGNBL0201004A
  0
LINE
  8
LAYER_2
 10
192.647
 20
197.0855
 11
192.5763
 21
197.062
  0
LINE
  8
LAYER_2
 10
192.5763
 20
197.062
 11
192.5057
 21
196.9678
  0
LINE
  8
LAYER_2
 10
192.5057
 20
196.9678
 11
192.4351
 21
196.8269
  0
LINE
  8
LAYER_2
 10
192.4351
 20
196.8269
 11
192.4117
 21
196.6622
  0
LINE
  8
LAYER_2
 10
192.4117
 20
196.6622
 11
192.4117
 21
196.5916
  0
ENDBLK
  0
BLOCK
  8
LAYER_2
  2
AIGNBL0201004B
 70
64
 10
0
 20
0
 30
0
  3
AIGNBL0201004B
  0
LINE
  8
LAYER_2
 10
193.2113
 20
197.0855
 11
193.1644
 21
197.0855
  0
LINE
  8
LAYER_2
 10
193.1644
 20
197.0855
 11
193.0938
 21
197.0855
  0
LINE
  8
LAYER_2
 10
193.0938
 20
197.0855
 11
193.0232
 21
197.0855
  0
LINE
  8
LAYER_2
 10
193.0232
 20
197.0855
 11
192.9291
 21
197.0855
  0
LINE
  8
LAYER_2
 10
192.9291
 20
197.0855
 11
192.7879
 21
197.0855
  0
LINE
  8
LAYER_2
 10
192.7879
 20
197.0855
 11
192.647
 21
197.0855
  0
ENDBLK
  0
BLOCK
  8
LAYER_2
  2
AIGNBL0201004C
 70
64
 10
0
 20
0
 30
0
  3
AIGNBL0201004C
  0
LINE
  8
LAYER_2
 10
192.6704
 20
196.5916
 11
192.6704
 21
196.6622
  0
LINE
  8
LAYER_2
 10
192.6704
 20
196.6622
 11
192.6942
 21
196.7563
  0
LINE
  8
LAYER_2
 10
192.6942
 20
196.7563
 11
192.6942
 21
196.8269
  0
LINE
  8
LAYER_2
 10
192.6942
 20
196.8269
 11
192.7176
 21
196.8739
  0
LINE
  8
LAYER_2
 10
192.7176
 20
196.8739
 11
192.741
 21
196.9444
  0
LINE
  8
LAYER_2
 10
192.741
 20
196.9444
 11
192.7644
 21
196.9916
  0
LINE
  8
LAYER_2
 10
192.7644
 20
196.9916
 11
192.7879
 21
197.0384
  0
LINE
  8
LAYER_2
 10
192.7879
 20
197.0384
 11
192.8116
 21
197.062
  0
LINE
  8
LAYER_2
 10
192.8116
 20
197.062
 11
192.8351
 21
197.0855
  0
LINE
  8
LAYER_2
 10
192.8351
 20
197.0855
 11
192.8585
 21
197.0855
  0
ENDBLK
  0
BLOCK
  8
LAYER_2
  2
AIGNBL0201004D
 70
64
 10
0
 20
0
 30
0
  3
AIGNBL0201004D
  0
LINE
  8
LAYER_2
 10
193.3525
 20
202.2597
 11
193.3288
 21
202.2597
  0
LINE
  8
LAYER_2
 10
193.3288
 20
202.2597
 11
193.2819
 21
202.2597
  0
LINE
  8
LAYER_2
 10
193.2819
 20
202.2597
 11
193.2113
 21
202.2597
  0
LINE
  8
LAYER_2
 10
193.2113
 20
202.2597
 11
193.1172
 21
202.2597
  0
LINE
  8
LAYER_2
 10
193.1172
 20
202.2597
 11
192.9997
 21
202.2597
  0
LINE
  8
LAYER_2
 10
192.9997
 20
202.2597
 11
192.8585
 21
202.2597
  0
LINE
  8
LAYER_2
 10
192.8585
 20
202.2597
 11
192.7176
 21
202.2597
  0
LINE
  8
LAYER_2
 10
192.7176
 20
202.2597
 11
192.5529
 21
202.2597
  0
LINE
  8
LAYER_2
 10
192.5529
 20
202.2597
 11
192.3648
 21
202.2597
  0
LINE
  8
LAYER_2
 10
192.3648
 20
202.2597
 11
192.1529
 21
202.2597
  0
LINE
  8
LAYER_2
 10
192.1529
 20
202.2597
 11
191.9177
 21
202.2597
  0
LINE
  8
LAYER_2
 10
191.9177
 20
202.2597
 11
191.6827
 21
202.2597
  0
LINE
  8
LAYER_2
 10
191.6827
 20
202.2597
 11
191.424
 21
202.2597
  0
LINE
  8
LAYER_2
 10
191.424
 20
202.2597
 11
191.1418
 21
202.2597
  0
LINE
  8
LAYER_2
 10
191.1418
 20
202.2597
 11
190.8593
 21
202.2597
  0
LINE
  8
LAYER_2
 10
190.8593
 20
202.2597
 11
190.5537
 21
202.2597
  0
LINE
  8
LAYER_2
 10
190.5537
 20
202.2597
 11
190.2481
 21
202.2597
  0
LINE
  8
LAYER_2
 10
190.2481
 20
202.2597
 11
189.9188
 21
202.2597
  0
LINE
  8
LAYER_2
 10
189.9188
 20
202.2597
 11
189.566
 21
202.2597
  0
LINE
  8
LAYER_2
 10
189.566
 20
202.2597
 11
189.2132
 21
202.2597
  0
LINE
  8
LAYER_2
 10
189.2132
 20
202.2597
 11
188.8605
 21
202.2597
  0
LINE
  8
LAYER_2
 10
188.8605
 20
202.2597
 11
188.5077
 21
202.2597
  0
LINE
  8
LAYER_2
 10
188.5077
 20
202.2597
 11
188.1315
 21
202.2597
  0
LINE
  8
LAYER_2
 10
188.1315
 20
202.2597
 11
187.7553
 21
202.2597
  0
LINE
  8
LAYER_2
 10
187.7553
 20
202.2597
 11
187.3553
 21
202.2597
  0
LINE
  8
LAYER_2
 10
187.3553
 20
202.2597
 11
186.9788
 21
202.2597
  0
LINE
  8
LAYER_2
 10
186.9788
 20
202.2597
 11
186.5791
 21
202.2597
  0
LINE
  8
LAYER_2
 10
186.5791
 20
202.2597
 11
186.2029
 21
202.2597
  0
LINE
  8
LAYER_2
 10
186.2029
 20
202.2597
 11
185.8029
 21
202.2597
  0
LINE
  8
LAYER_2
 10
185.8029
 20
202.2597
 11
185.4267
 21
202.2597
  0
LINE
  8
LAYER_2
 10
185.4267
 20
202.2597
 11
185.0268
 21
202.2597
  0
LINE
  8
LAYER_2
 10
185.0268
 20
202.2597
 11
184.6506
 21
202.2597
  0
LINE
  8
LAYER_2
 10
184.6506
 20
202.2597
 11
184.2743
 21
202.2597
  0
LINE
  8
LAYER_2
 10
184.2743
 20
202.2597
 11
183.8981
 21
202.2597
  0
LINE
  8
LAYER_2
 10
183.8981
 20
202.2597
 11
183.5454
 21
202.2597
  0
LINE
  8
LAYER_2
 10
183.5454
 20
202.2597
 11
183.1926
 21
202.2597
  0
LINE
  8
LAYER_2
 10
183.1926
 20
202.2597
 11
182.8398
 21
202.2597
  0
LINE
  8
LAYER_2
 10
182.8398
 20
202.2597
 11
182.487
 21
202.2597
  0
LINE
  8
LAYER_2
 10
182.487
 20
202.2597
 11
182.1811
 21
202.2597
  0
LINE
  8
LAYER_2
 10
182.1811
 20
202.2597
 11
181.8518
 21
202.2597
  0
LINE
  8
LAYER_2
 10
181.8518
 20
202.2597
 11
181.5462
 21
202.2597
  0
LINE
  8
LAYER_2
 10
181.5462
 20
202.2597
 11
181.264
 21
202.2597
  0
LINE
  8
LAYER_2
 10
181.264
 20
202.2597
 11
180.9816
 21
202.2597
  0
LINE
  8
LAYER_2
 10
180.9816
 20
202.2597
 11
180.7466
 21
202.2597
  0
LINE
  8
LAYER_2
 10
180.7466
 20
202.2597
 11
180.4878
 21
202.2597
  0
LINE
  8
LAYER_2
 10
180.4878
 20
202.2597
 11
180.276
 21
202.2597
  0
LINE
  8
LAYER_2
 10
180.276
 20
202.2597
 11
180.0644
 21
202.2597
  0
LINE
  8
LAYER_2
 10
180.0644
 20
202.2597
 11
179.8763
 21
202.2597
  0
LINE
  8
LAYER_2
 10
179.8763
 20
202.2597
 11
179.7117
 21
202.2597
  0
LINE
  8
LAYER_2
 10
179.7117
 20
202.2597
 11
179.5704
 21
202.2597
  0
LINE
  8
LAYER_2
 10
179.5704
 20
202.2597
 11
179.4295
 21
202.2597
  0
LINE
  8
LAYER_2
 10
179.4295
 20
202.2597
 11
179.312
 21
202.2597
  0
LINE
  8
LAYER_2
 10
179.312
 20
202.2597
 11
179.2414
 21
202.2597
  0
LINE
  8
LAYER_2
 10
179.2414
 20
202.2597
 11
179.1708
 21
202.2597
  0
LINE
  8
LAYER_2
 10
179.1708
 20
202.2597
 11
179.1239
 21
202.2597
  0
LINE
  8
LAYER_2
 10
179.1239
 20
202.2597
 11
179.1002
 21
202.2597
  0
LINE
  8
LAYER_2
 10
179.1002
 20
202.2597
 11
179.0767
 21
202.2597
  0
ENDBLK
  0
BLOCK
  8
LAYER_2
  2
AIGNBL0201004E
 70
64
 10
0
 20
0
 30
0
  3
AIGNBL0201004E
  0
LINE
  8
LAYER_2
 10
176.2311
 20
203.318
 11
176.2779
 21
203.318
  0
LINE
  8
LAYER_2
 10
176.2779
 20
203.318
 11
176.3251
 21
203.318
  0
LINE
  8
LAYER_2
 10
176.3251
 20
203.318
 11
176.4192
 21
203.318
  0
LINE
  8
LAYER_2
 10
176.4192
 20
203.318
 11
176.5132
 21
203.318
  0
LINE
  8
LAYER_2
 10
176.5132
 20
203.318
 11
176.6307
 21
203.318
  0
LINE
  8
LAYER_2
 10
176.6307
 20
203.318
 11
176.772
 21
203.318
  0
LINE
  8
LAYER_2
 10
176.772
 20
203.318
 11
176.9366
 21
203.318
  0
LINE
  8
LAYER_2
 10
176.9366
 20
203.318
 11
177.101
 21
203.318
  0
LINE
  8
LAYER_2
 10
177.101
 20
203.318
 11
177.3128
 21
203.318
  0
LINE
  8
LAYER_2
 10
177.3128
 20
203.318
 11
177.5247
 21
203.318
  0
LINE
  8
LAYER_2
 10
177.5247
 20
203.318
 11
177.7597
 21
203.318
  0
LINE
  8
LAYER_2
 10
177.7597
 20
203.318
 11
178.0184
 21
203.318
  0
LINE
  8
LAYER_2
 10
178.0184
 20
203.318
 11
178.2771
 21
203.318
  0
LINE
  8
LAYER_2
 10
178.2771
 20
203.318
 11
178.5593
 21
203.318
  0
LINE
  8
LAYER_2
 10
178.5593
 20
203.318
 11
178.8649
 21
203.318
  0
LINE
  8
LAYER_2
 10
178.8649
 20
203.318
 11
179.1942
 21
203.318
  0
LINE
  8
LAYER_2
 10
179.1942
 20
203.318
 11
179.5236
 21
203.318
  0
LINE
  8
LAYER_2
 10
179.5236
 20
203.318
 11
179.8763
 21
203.318
  0
LINE
  8
LAYER_2
 10
179.8763
 20
203.318
 11
180.2291
 21
203.318
  0
LINE
  8
LAYER_2
 10
180.2291
 20
203.318
 11
180.6053
 21
203.318
  0
LINE
  8
LAYER_2
 10
180.6053
 20
203.318
 11
180.9816
 21
203.318
  0
LINE
  8
LAYER_2
 10
180.9816
 20
203.318
 11
181.3815
 21
203.318
  0
LINE
  8
LAYER_2
 10
181.3815
 20
203.318
 11
181.8049
 21
203.318
  0
LINE
  8
LAYER_2
 10
181.8049
 20
203.318
 11
182.2046
 21
203.318
  0
LINE
  8
LAYER_2
 10
182.2046
 20
203.318
 11
182.6279
 21
203.318
  0
LINE
  8
LAYER_2
 10
182.6279
 20
203.318
 11
183.0748
 21
203.318
  0
LINE
  8
LAYER_2
 10
183.0748
 20
203.318
 11
183.4982
 21
203.318
  0
LINE
  8
LAYER_2
 10
183.4982
 20
203.318
 11
183.945
 21
203.318
  0
LINE
  8
LAYER_2
 10
183.945
 20
203.318
 11
184.3918
 21
203.318
  0
LINE
  8
LAYER_2
 10
184.3918
 20
203.318
 11
184.8387
 21
203.318
  0
LINE
  8
LAYER_2
 10
184.8387
 20
203.318
 11
185.3093
 21
203.318
  0
LINE
  8
LAYER_2
 10
185.3093
 20
203.318
 11
185.7561
 21
203.318
  0
LINE
  8
LAYER_2
 10
185.7561
 20
203.318
 11
186.2263
 21
203.318
  0
ENDBLK
  0
BLOCK
  8
LAYER_2
  2
AIGNBL0201004F
 70
64
 10
0
 20
0
 30
0
  3
AIGNBL0201004F
  0
LINE
  8
LAYER_2
 10
186.2263
 20
203.318
 11
186.6732
 21
203.318
  0
LINE
  8
LAYER_2
 10
186.6732
 20
203.318
 11
187.1435
 21
203.318
  0
LINE
  8
LAYER_2
 10
187.1435
 20
203.318
 11
187.5906
 21
203.318
  0
LINE
  8
LAYER_2
 10
187.5906
 20
203.318
 11
188.0371
 21
203.318
  0
LINE
  8
LAYER_2
 10
188.0371
 20
203.318
 11
188.4843
 21
203.318
  0
LINE
  8
LAYER_2
 10
188.4843
 20
203.318
 11
188.9311
 21
203.318
  0
LINE
  8
LAYER_2
 10
188.9311
 20
203.318
 11
189.3779
 21
203.318
  0
LINE
  8
LAYER_2
 10
189.3779
 20
203.318
 11
189.801
 21
203.318
  0
LINE
  8
LAYER_2
 10
189.801
 20
203.318
 11
190.2247
 21
203.318
  0
LINE
  8
LAYER_2
 10
190.2247
 20
203.318
 11
190.6478
 21
203.318
  0
LINE
  8
LAYER_2
 10
190.6478
 20
203.318
 11
191.0478
 21
203.318
  0
LINE
  8
LAYER_2
 10
191.0478
 20
203.318
 11
191.4474
 21
203.318
  0
LINE
  8
LAYER_2
 10
191.4474
 20
203.318
 11
191.8474
 21
203.318
  0
LINE
  8
LAYER_2
 10
191.8474
 20
203.318
 11
192.2001
 21
203.318
  0
LINE
  8
LAYER_2
 10
192.2001
 20
203.318
 11
192.5763
 21
203.318
  0
LINE
  8
LAYER_2
 10
192.5763
 20
203.318
 11
192.9291
 21
203.318
  0
LINE
  8
LAYER_2
 10
192.9291
 20
203.318
 11
193.2585
 21
203.318
  0
LINE
  8
LAYER_2
 10
193.2585
 20
203.318
 11
193.564
 21
203.318
  0
LINE
  8
LAYER_2
 10
193.564
 20
203.318
 11
193.87
 21
203.318
  0
LINE
  8
LAYER_2
 10
193.87
 20
203.318
 11
194.1521
 21
203.318
  0
LINE
  8
LAYER_2
 10
194.1521
 20
203.318
 11
194.4343
 21
203.318
  0
LINE
  8
LAYER_2
 10
194.4343
 20
203.318
 11
194.693
 21
203.318
  0
LINE
  8
LAYER_2
 10
194.693
 20
203.318
 11
194.9283
 21
203.318
  0
LINE
  8
LAYER_2
 10
194.9283
 20
203.318
 11
195.1398
 21
203.318
  0
LINE
  8
LAYER_2
 10
195.1398
 20
203.318
 11
195.3279
 21
203.318
  0
LINE
  8
LAYER_2
 10
195.3279
 20
203.318
 11
195.5164
 21
203.318
  0
LINE
  8
LAYER_2
 10
195.5164
 20
203.318
 11
195.6807
 21
203.318
  0
LINE
  8
LAYER_2
 10
195.6807
 20
203.318
 11
195.822
 21
203.318
  0
LINE
  8
LAYER_2
 10
195.822
 20
203.318
 11
195.9394
 21
203.318
  0
LINE
  8
LAYER_2
 10
195.9394
 20
203.318
 11
196.0335
 21
203.318
  0
LINE
  8
LAYER_2
 10
196.0335
 20
203.318
 11
196.1041
 21
203.318
  0
LINE
  8
LAYER_2
 10
196.1041
 20
203.318
 11
196.1747
 21
203.318
  0
LINE
  8
LAYER_2
 10
196.1747
 20
203.318
 11
196.1982
 21
203.318
  0
LINE
  8
LAYER_2
 10
196.1982
 20
203.318
 11
196.2219
 21
203.318
  0
ENDBLK
  0
BLOCK
  8
LAYER_2
  2
AIGNBL02010050
 70
64
 10
0
 20
0
 30
0
  3
AIGNBL02010050
  0
LINE
  8
LAYER_2
 10
176.2311
 20
203.6472
 11
176.2779
 21
203.6472
  0
LINE
  8
LAYER_2
 10
176.2779
 20
203.6472
 11
176.3251
 21
203.6472
  0
LINE
  8
LAYER_2
 10
176.3251
 20
203.6472
 11
176.4192
 21
203.6472
  0
LINE
  8
LAYER_2
 10
176.4192
 20
203.6472
 11
176.5132
 21
203.6472
  0
LINE
  8
LAYER_2
 10
176.5132
 20
203.6472
 11
176.6307
 21
203.6472
  0
LINE
  8
LAYER_2
 10
176.6307
 20
203.6472
 11
176.772
 21
203.6472
  0
LINE
  8
LAYER_2
 10
176.772
 20
203.6472
 11
176.9366
 21
203.6472
  0
LINE
  8
LAYER_2
 10
176.9366
 20
203.6472
 11
177.101
 21
203.6472
  0
LINE
  8
LAYER_2
 10
177.101
 20
203.6472
 11
177.3128
 21
203.6472
  0
LINE
  8
LAYER_2
 10
177.3128
 20
203.6472
 11
177.5247
 21
203.6472
  0
LINE
  8
LAYER_2
 10
177.5247
 20
203.6472
 11
177.7597
 21
203.6472
  0
LINE
  8
LAYER_2
 10
177.7597
 20
203.6472
 11
178.0184
 21
203.6472
  0
LINE
  8
LAYER_2
 10
178.0184
 20
203.6472
 11
178.2771
 21
203.6472
  0
LINE
  8
LAYER_2
 10
178.2771
 20
203.6472
 11
178.5593
 21
203.6472
  0
LINE
  8
LAYER_2
 10
178.5593
 20
203.6472
 11
178.8649
 21
203.6472
  0
LINE
  8
LAYER_2
 10
178.8649
 20
203.6472
 11
179.1942
 21
203.6472
  0
LINE
  8
LAYER_2
 10
179.1942
 20
203.6472
 11
179.5236
 21
203.6472
  0
LINE
  8
LAYER_2
 10
179.5236
 20
203.6472
 11
179.8763
 21
203.6472
  0
LINE
  8
LAYER_2
 10
179.8763
 20
203.6472
 11
180.2291
 21
203.6472
  0
LINE
  8
LAYER_2
 10
180.2291
 20
203.6472
 11
180.6053
 21
203.6472
  0
LINE
  8
LAYER_2
 10
180.6053
 20
203.6472
 11
180.9816
 21
203.6472
  0
LINE
  8
LAYER_2
 10
180.9816
 20
203.6472
 11
181.3815
 21
203.6472
  0
LINE
  8
LAYER_2
 10
181.3815
 20
203.6472
 11
181.8049
 21
203.6472
  0
LINE
  8
LAYER_2
 10
181.8049
 20
203.6472
 11
182.2046
 21
203.6472
  0
LINE
  8
LAYER_2
 10
182.2046
 20
203.6472
 11
182.6279
 21
203.6472
  0
LINE
  8
LAYER_2
 10
182.6279
 20
203.6472
 11
183.0748
 21
203.6472
  0
LINE
  8
LAYER_2
 10
183.0748
 20
203.6472
 11
183.4982
 21
203.6472
  0
LINE
  8
LAYER_2
 10
183.4982
 20
203.6472
 11
183.945
 21
203.6472
  0
LINE
  8
LAYER_2
 10
183.945
 20
203.6472
 11
184.3918
 21
203.6472
  0
LINE
  8
LAYER_2
 10
184.3918
 20
203.6472
 11
184.8387
 21
203.6472
  0
LINE
  8
LAYER_2
 10
184.8387
 20
203.6472
 11
185.3093
 21
203.6472
  0
LINE
  8
LAYER_2
 10
185.3093
 20
203.6472
 11
185.7561
 21
203.6472
  0
LINE
  8
LAYER_2
 10
185.7561
 20
203.6472
 11
186.2263
 21
203.6472
  0
ENDBLK
  0
BLOCK
  8
LAYER_2
  2
AIGNBL02010051
 70
64
 10
0
 20
0
 30
0
  3
AIGNBL02010051
  0
LINE
  8
LAYER_2
 10
186.2263
 20
203.6472
 11
186.6732
 21
203.6472
  0
LINE
  8
LAYER_2
 10
186.6732
 20
203.6472
 11
187.1435
 21
203.6472
  0
LINE
  8
LAYER_2
 10
187.1435
 20
203.6472
 11
187.5906
 21
203.6472
  0
LINE
  8
LAYER_2
 10
187.5906
 20
203.6472
 11
188.0371
 21
203.6472
  0
LINE
  8
LAYER_2
 10
188.0371
 20
203.6472
 11
188.4843
 21
203.6472
  0
LINE
  8
LAYER_2
 10
188.4843
 20
203.6472
 11
188.9311
 21
203.6472
  0
LINE
  8
LAYER_2
 10
188.9311
 20
203.6472
 11
189.3779
 21
203.6472
  0
LINE
  8
LAYER_2
 10
189.3779
 20
203.6472
 11
189.801
 21
203.6472
  0
LINE
  8
LAYER_2
 10
189.801
 20
203.6472
 11
190.2247
 21
203.6472
  0
LINE
  8
LAYER_2
 10
190.2247
 20
203.6472
 11
190.6478
 21
203.6472
  0
LINE
  8
LAYER_2
 10
190.6478
 20
203.6472
 11
191.0478
 21
203.6472
  0
LINE
  8
LAYER_2
 10
191.0478
 20
203.6472
 11
191.4474
 21
203.6472
  0
LINE
  8
LAYER_2
 10
191.4474
 20
203.6472
 11
191.8474
 21
203.6472
  0
LINE
  8
LAYER_2
 10
191.8474
 20
203.6472
 11
192.2001
 21
203.6472
  0
LINE
  8
LAYER_2
 10
192.2001
 20
203.6472
 11
192.5763
 21
203.6472
  0
LINE
  8
LAYER_2
 10
192.5763
 20
203.6472
 11
192.9291
 21
203.6472
  0
LINE
  8
LAYER_2
 10
192.9291
 20
203.6472
 11
193.2585
 21
203.6472
  0
LINE
  8
LAYER_2
 10
193.2585
 20
203.6472
 11
193.564
 21
203.6472
  0
LINE
  8
LAYER_2
 10
193.564
 20
203.6472
 11
193.87
 21
203.6472
  0
LINE
  8
LAYER_2
 10
193.87
 20
203.6472
 11
194.1521
 21
203.6472
  0
LINE
  8
LAYER_2
 10
194.1521
 20
203.6472
 11
194.4343
 21
203.6472
  0
LINE
  8
LAYER_2
 10
194.4343
 20
203.6472
 11
194.693
 21
203.6472
  0
LINE
  8
LAYER_2
 10
194.693
 20
203.6472
 11
194.9283
 21
203.6472
  0
LINE
  8
LAYER_2
 10
194.9283
 20
203.6472
 11
195.1398
 21
203.6472
  0
LINE
  8
LAYER_2
 10
195.1398
 20
203.6472
 11
195.3279
 21
203.6472
  0
LINE
  8
LAYER_2
 10
195.3279
 20
203.6472
 11
195.5164
 21
203.6472
  0
LINE
  8
LAYER_2
 10
195.5164
 20
203.6472
 11
195.6807
 21
203.6472
  0
LINE
  8
LAYER_2
 10
195.6807
 20
203.6472
 11
195.822
 21
203.6472
  0
LINE
  8
LAYER_2
 10
195.822
 20
203.6472
 11
195.9394
 21
203.6472
  0
LINE
  8
LAYER_2
 10
195.9394
 20
203.6472
 11
196.0335
 21
203.6472
  0
LINE
  8
LAYER_2
 10
196.0335
 20
203.6472
 11
196.1041
 21
203.6472
  0
LINE
  8
LAYER_2
 10
196.1041
 20
203.6472
 11
196.1747
 21
203.6472
  0
LINE
  8
LAYER_2
 10
196.1747
 20
203.6472
 11
196.1982
 21
203.6472
  0
LINE
  8
LAYER_2
 10
196.1982
 20
203.6472
 11
196.2219
 21
203.6472
  0
ENDBLK
  0
BLOCK
  8
LAYER_2
  2
AIGNBL02010052
 70
64
 10
0
 20
0
 30
0
  3
AIGNBL02010052
  0
LINE
  8
LAYER_2
 10
189.0017
 20
205.9051
 11
189.0958
 21
206.9071
  0
ENDBLK
  0
BLOCK
  8
LAYER_2
  2
AIGNBL02010053
 70
64
 10
0
 20
0
 30
0
  3
AIGNBL02010053
  0
LINE
  8
LAYER_2
 10
182.887
 20
207.0482
 11
182.887
 21
207.0247
  0
LINE
  8
LAYER_2
 10
182.887
 20
207.0247
 11
182.887
 21
207.0011
  0
LINE
  8
LAYER_2
 10
182.887
 20
207.0011
 11
182.9104
 21
206.9777
  0
LINE
  8
LAYER_2
 10
182.9104
 20
206.9777
 11
182.9339
 21
206.9541
  0
LINE
  8
LAYER_2
 10
182.9339
 20
206.9541
 11
182.9573
 21
206.9307
  0
LINE
  8
LAYER_2
 10
182.9573
 20
206.9307
 11
182.9807
 21
206.9307
  0
LINE
  8
LAYER_2
 10
182.9807
 20
206.9307
 11
183.0045
 21
206.9307
  0
LINE
  8
LAYER_2
 10
183.0045
 20
206.9307
 11
183.0279
 21
206.9071
  0
ENDBLK
  0
BLOCK
  8
LAYER_2
  2
AIGNBL02010054
 70
64
 10
0
 20
0
 30
0
  3
AIGNBL02010054
  0
LINE
  8
LAYER_2
 10
183.3335
 20
207.0011
 11
183.3573
 21
206.719
  0
LINE
  8
LAYER_2
 10
183.3573
 20
206.719
 11
183.4279
 21
205.9051
  0
ENDBLK
  0
BLOCK
  8
LAYER_2
  2
AIGNBL02010055
 70
64
 10
0
 20
0
 30
0
  3
AIGNBL02010055
  0
LINE
  8
LAYER_2
 10
188.743
 20
205.9051
 11
188.8136
 21
206.9777
  0
ENDBLK
  0
BLOCK
  8
LAYER_2
  2
AIGNBL02010056
 70
64
 10
0
 20
0
 30
0
  3
AIGNBL02010056
  0
LINE
  8
LAYER_2
 10
189.4251
 20
206.9071
 11
189.4485
 21
206.9307
  0
LINE
  8
LAYER_2
 10
189.4485
 20
206.9307
 11
189.472
 21
206.9307
  0
LINE
  8
LAYER_2
 10
189.472
 20
206.9307
 11
189.4954
 21
206.9307
  0
LINE
  8
LAYER_2
 10
189.4954
 20
206.9307
 11
189.5192
 21
206.9541
  0
LINE
  8
LAYER_2
 10
189.5192
 20
206.9541
 11
189.5426
 21
206.9777
  0
LINE
  8
LAYER_2
 10
189.5426
 20
206.9777
 11
189.5426
 21
207.0011
  0
LINE
  8
LAYER_2
 10
189.5426
 20
207.0011
 11
189.5426
 21
207.0247
  0
LINE
  8
LAYER_2
 10
189.5426
 20
207.0247
 11
189.566
 21
207.0482
  0
ENDBLK
  0
BLOCK
  8
LAYER_2
  2
AIGNBL02010057
 70
64
 10
0
 20
0
 30
0
  3
AIGNBL02010057
  0
LINE
  8
LAYER_2
 10
189.566
 20
207.0482
 11
189.566
 21
207.3775
  0
ENDBLK
  0
BLOCK
  8
LAYER_2
  2
AIGNBL02010058
 70
64
 10
0
 20
0
 30
0
  3
AIGNBL02010058
  0
LINE
  8
LAYER_2
 10
182.887
 20
207.3775
 11
182.887
 21
207.0482
  0
ENDBLK
  0
BLOCK
  8
LAYER_2
  2
AIGNBL02010059
 70
64
 10
0
 20
0
 30
0
  3
AIGNBL02010059
  0
LINE
  8
LAYER_2
 10
182.6989
 20
207.5246
 11
182.7223
 21
207.5246
  0
LINE
  8
LAYER_2
 10
182.7223
 20
207.5246
 11
182.7692
 21
207.5012
  0
LINE
  8
LAYER_2
 10
182.7692
 20
207.5012
 11
182.7926
 21
207.4776
  0
LINE
  8
LAYER_2
 10
182.7926
 20
207.4776
 11
182.8398
 21
207.454
  0
LINE
  8
LAYER_2
 10
182.8398
 20
207.454
 11
182.8632
 21
207.4306
  0
LINE
  8
LAYER_2
 10
182.8632
 20
207.4306
 11
182.8632
 21
207.407
  0
LINE
  8
LAYER_2
 10
182.8632
 20
207.407
 11
182.887
 21
207.4245
  0
LINE
  8
LAYER_2
 10
182.887
 20
207.4245
 11
182.887
 21
207.3775
  0
ENDBLK
  0
BLOCK
  8
LAYER_2
  2
AIGNBL0201005A
 70
64
 10
0
 20
0
 30
0
  3
AIGNBL0201005A
  0
LINE
  8
LAYER_2
 10
189.566
 20
207.3775
 11
189.566
 21
207.4245
  0
LINE
  8
LAYER_2
 10
189.566
 20
207.4245
 11
189.566
 21
207.407
  0
LINE
  8
LAYER_2
 10
189.566
 20
207.407
 11
189.5898
 21
207.4306
  0
LINE
  8
LAYER_2
 10
189.5898
 20
207.4306
 11
189.6132
 21
207.454
  0
LINE
  8
LAYER_2
 10
189.6132
 20
207.454
 11
189.6366
 21
207.4776
  0
LINE
  8
LAYER_2
 10
189.6366
 20
207.4776
 11
189.6835
 21
207.5012
  0
LINE
  8
LAYER_2
 10
189.6835
 20
207.5012
 11
189.7073
 21
207.5246
  0
LINE
  8
LAYER_2
 10
189.7073
 20
207.5246
 11
189.7545
 21
207.5246
  0
ENDBLK
  0
BLOCK
  8
LAYER_2
  2
AIGNBL0201005B
 70
64
 10
0
 20
0
 30
0
  3
AIGNBL0201005B
  0
LINE
  8
LAYER_2
 10
191.8002
 20
207.5246
 11
191.8002
 21
207.5717
  0
ENDBLK
  0
BLOCK
  8
LAYER_2
  2
AIGNBL0201005C
 70
64
 10
0
 20
0
 30
0
  3
AIGNBL0201005C
  0
LINE
  8
LAYER_2
 10
180.6291
 20
207.5717
 11
180.6291
 21
207.5246
  0
ENDBLK
  0
BLOCK
  8
LAYER_2
  2
AIGNBL0201005D
 70
64
 10
0
 20
0
 30
0
  3
AIGNBL0201005D
  0
LINE
  8
LAYER_2
 10
195.8933
 20
207.5717
 11
196.8814
 21
208.5595
  0
ENDBLK
  0
BLOCK
  8
LAYER_2
  2
AIGNBL0201005E
 70
64
 10
0
 20
0
 30
0
  3
AIGNBL0201005E
  0
LINE
  8
LAYER_2
 10
175.5479
 20
208.5595
 11
176.5594
 21
207.5717
  0
ENDBLK
  0
BLOCK
  8
LAYER_2
  2
AIGNBL0201005F
 70
64
 10
0
 20
0
 30
0
  3
AIGNBL0201005F
  0
LINE
  8
LAYER_2
 10
196.8814
 20
208.5595
 11
196.8814
 21
210.0738
  0
ENDBLK
  0
BLOCK
  8
LAYER_2
  2
AIGNBL02010060
 70
64
 10
0
 20
0
 30
0
  3
AIGNBL02010060
  0
LINE
  8
LAYER_2
 10
175.5479
 20
210.0738
 11
175.5479
 21
208.5595
  0
ENDBLK
  0
BLOCK
  8
LAYER_2
  2
AIGNBL02010061
 70
64
 10
0
 20
0
 30
0
  3
AIGNBL02010061
  0
LINE
  8
LAYER_2
 10
196.8814
 20
210.0738
 11
196.8814
 21
210.1207
  0
LINE
  8
LAYER_2
 10
196.8814
 20
210.1207
 11
196.8814
 21
210.1443
  0
LINE
  8
LAYER_2
 10
196.8814
 20
210.1443
 11
196.8576
 21
210.1677
  0
LINE
  8
LAYER_2
 10
196.8576
 20
210.1677
 11
196.8342
 21
210.1915
  0
LINE
  8
LAYER_2
 10
196.8342
 20
210.1915
 11
196.8107
 21
210.2149
  0
LINE
  8
LAYER_2
 10
196.8107
 20
210.2149
 11
196.7873
 21
210.2383
  0
LINE
  8
LAYER_2
 10
196.7873
 20
210.2383
 11
196.7639
 21
210.2383
  0
LINE
  8
LAYER_2
 10
196.7639
 20
210.2383
 11
196.7167
 21
210.2383
  0
ENDBLK
  0
BLOCK
  8
LAYER_2
  2
AIGNBL02010062
 70
64
 10
0
 20
0
 30
0
  3
AIGNBL02010062
  0
LINE
  8
LAYER_2
 10
175.7126
 20
210.2383
 11
175.6892
 21
210.2383
  0
LINE
  8
LAYER_2
 10
175.6892
 20
210.2383
 11
175.6658
 21
210.2383
  0
LINE
  8
LAYER_2
 10
175.6658
 20
210.2383
 11
175.6186
 21
210.2149
  0
LINE
  8
LAYER_2
 10
175.6186
 20
210.2149
 11
175.5951
 21
210.1915
  0
LINE
  8
LAYER_2
 10
175.5951
 20
210.1915
 11
175.5714
 21
210.1677
  0
LINE
  8
LAYER_2
 10
175.5714
 20
210.1677
 11
175.5714
 21
210.1443
  0
LINE
  8
LAYER_2
 10
175.5714
 20
210.1443
 11
175.5479
 21
210.1207
  0
LINE
  8
LAYER_2
 10
175.5479
 20
210.1207
 11
175.5479
 21
210.0738
  0
ENDBLK
  0
BLOCK
  8
LAYER_2
  2
AIGNBL02010063
 70
64
 10
0
 20
0
 30
0
  3
AIGNBL02010063
  0
LINE
  8
LAYER_2
 10
192.8823
 20
173.7711
 11
193.2113
 21
174.1239
  0
ENDBLK
  0
BLOCK
  8
LAYER_2
  2
AIGNBL02010064
 70
64
 10
0
 20
0
 30
0
  3
AIGNBL02010064
  0
LINE
  8
LAYER_2
 10
179.2177
 20
174.1239
 11
179.547
 21
173.7711
  0
ENDBLK
  0
BLOCK
  8
LAYER_2
  2
AIGNBL02010065
 70
64
 10
0
 20
0
 30
0
  3
AIGNBL02010065
  0
LINE
  8
LAYER_2
 10
179.2177
 20
178.1045
 11
179.2177
 21
174.1239
  0
ENDBLK
  0
BLOCK
  8
LAYER_2
  2
AIGNBL02010066
 70
64
 10
0
 20
0
 30
0
  3
AIGNBL02010066
  0
LINE
  8
LAYER_2
 10
179.547
 20
178.1045
 11
179.547
 21
173.7711
  0
ENDBLK
  0
BLOCK
  8
LAYER_2
  2
AIGNBL02010067
 70
64
 10
0
 20
0
 30
0
  3
AIGNBL02010067
  0
LINE
  8
LAYER_2
 10
192.8823
 20
178.1045
 11
192.8823
 21
173.7711
  0
ENDBLK
  0
BLOCK
  8
LAYER_2
  2
AIGNBL02010068
 70
64
 10
0
 20
0
 30
0
  3
AIGNBL02010068
  0
LINE
  8
LAYER_2
 10
193.2113
 20
174.1239
 11
193.2113
 21
178.1045
  0
ENDBLK
  0
BLOCK
  8
LAYER_2
  2
AIGNBL02010069
 70
64
 10
0
 20
0
 30
0
  3
AIGNBL02010069
  0
LINE
  8
LAYER_2
 10
177.8775
 20
187.9369
 11
177.8775
 21
178.1045
  0
ENDBLK
  0
BLOCK
  8
LAYER_2
  2
AIGNBL0201006A
 70
64
 10
0
 20
0
 30
0
  3
AIGNBL0201006A
  0
LINE
  8
LAYER_2
 10
194.5518
 20
178.1045
 11
194.5518
 21
187.9369
  0
ENDBLK
  0
BLOCK
  8
LAYER_2
  2
AIGNBL0201006B
 70
64
 10
0
 20
0
 30
0
  3
AIGNBL0201006B
  0
LINE
  8
LAYER_2
 10
175.8783
 20
189.7714
 11
175.8783
 21
187.9369
  0
ENDBLK
  0
BLOCK
  8
LAYER_2
  2
AIGNBL0201006C
 70
64
 10
0
 20
0
 30
0
  3
AIGNBL0201006C
  0
LINE
  8
LAYER_2
 10
196.5509
 20
187.9369
 11
196.5509
 21
189.7714
  0
ENDBLK
  0
BLOCK
  8
LAYER_2
  2
AIGNBL0201006D
 70
64
 10
0
 20
0
 30
0
  3
AIGNBL0201006D
  0
LINE
  8
LAYER_2
 10
177.2188
 20
190.265
 11
177.0541
 21
190.2416
  0
LINE
  8
LAYER_2
 10
177.0541
 20
190.2416
 11
176.9129
 21
190.218
  0
LINE
  8
LAYER_2
 10
176.9129
 20
190.218
 11
176.772
 21
190.1476
  0
LINE
  8
LAYER_2
 10
176.772
 20
190.1476
 11
176.6307
 21
190.0769
  0
LINE
  8
LAYER_2
 10
176.6307
 20
190.0769
 11
176.5132
 21
189.9595
  0
LINE
  8
LAYER_2
 10
176.5132
 20
189.9595
 11
176.4192
 21
189.8418
  0
LINE
  8
LAYER_2
 10
176.4192
 20
189.8418
 11
176.3486
 21
189.7714
  0
ENDBLK
  0
BLOCK
  8
LAYER_2
  2
AIGNBL0201006E
 70
64
 10
0
 20
0
 30
0
  3
AIGNBL0201006E
  0
LINE
  8
LAYER_2
 10
196.0807
 20
189.7714
 11
196.0335
 21
189.8418
  0
LINE
  8
LAYER_2
 10
196.0335
 20
189.8418
 11
195.9394
 21
189.9595
  0
LINE
  8
LAYER_2
 10
195.9394
 20
189.9595
 11
195.7982
 21
190.0769
  0
LINE
  8
LAYER_2
 10
195.7982
 20
190.0769
 11
195.6807
 21
190.1476
  0
LINE
  8
LAYER_2
 10
195.6807
 20
190.1476
 11
195.5398
 21
190.218
  0
LINE
  8
LAYER_2
 10
195.5398
 20
190.218
 11
195.3751
 21
190.2416
  0
LINE
  8
LAYER_2
 10
195.3751
 20
190.2416
 11
195.2105
 21
190.265
  0
ENDBLK
  0
BLOCK
  8
LAYER_2
  2
AIGNBL0201006F
 70
64
 10
0
 20
0
 30
0
  3
AIGNBL0201006F
  0
LINE
  8
LAYER_2
 10
179.2177
 20
202.2597
 11
179.2177
 21
197.0855
  0
ENDBLK
  0
BLOCK
  8
LAYER_2
  2
AIGNBL02010070
 70
64
 10
0
 20
0
 30
0
  3
AIGNBL02010070
  0
LINE
  8
LAYER_2
 10
179.2177
 20
193.7694
 11
179.2177
 21
190.265
  0
ENDBLK
  0
BLOCK
  8
LAYER_2
  2
AIGNBL02010071
 70
64
 10
0
 20
0
 30
0
  3
AIGNBL02010071
  0
LINE
  8
LAYER_2
 10
193.2113
 20
190.265
 11
193.2113
 21
193.7694
  0
ENDBLK
  0
BLOCK
  8
LAYER_2
  2
AIGNBL02010072
 70
64
 10
0
 20
0
 30
0
  3
AIGNBL02010072
  0
LINE
  8
LAYER_2
 10
193.2113
 20
197.0855
 11
193.2113
 21
202.2597
  0
ENDBLK
  0
BLOCK
  8
LAYER_2
  2
AIGNBL02010073
 70
64
 10
0
 20
0
 30
0
  3
AIGNBL02010073
  0
LINE
  8
LAYER_2
 10
179.0767
 20
202.7769
 11
179.0767
 21
202.2597
  0
ENDBLK
  0
BLOCK
  8
LAYER_2
  2
AIGNBL02010074
 70
64
 10
0
 20
0
 30
0
  3
AIGNBL02010074
  0
LINE
  8
LAYER_2
 10
193.3525
 20
202.2597
 11
193.3525
 21
202.7769
  0
ENDBLK
  0
BLOCK
  8
LAYER_2
  2
AIGNBL02010075
 70
64
 10
0
 20
0
 30
0
  3
AIGNBL02010075
  0
LINE
  8
LAYER_2
 10
179.0296
 20
203.318
 11
179.0533
 21
203.2472
  0
LINE
  8
LAYER_2
 10
179.0533
 20
203.2472
 11
179.0767
 21
203.0121
  0
LINE
  8
LAYER_2
 10
179.0767
 20
203.0121
 11
179.0767
 21
202.7769
  0
ENDBLK
  0
BLOCK
  8
LAYER_2
  2
AIGNBL02010076
 70
64
 10
0
 20
0
 30
0
  3
AIGNBL02010076
  0
LINE
  8
LAYER_2
 10
176.9366
 20
205.3876
 11
177.1719
 21
205.317
  0
LINE
  8
LAYER_2
 10
177.1719
 20
205.317
 11
177.4069
 21
205.2464
  0
LINE
  8
LAYER_2
 10
177.4069
 20
205.2464
 11
177.6422
 21
205.1523
  0
LINE
  8
LAYER_2
 10
177.6422
 20
205.1523
 11
177.8537
 21
205.0111
  0
LINE
  8
LAYER_2
 10
177.8537
 20
205.0111
 11
178.0418
 21
204.8936
  0
LINE
  8
LAYER_2
 10
178.0418
 20
204.8936
 11
178.2303
 21
204.7291
  0
LINE
  8
LAYER_2
 10
178.2303
 20
204.7291
 11
178.3946
 21
204.5408
  0
LINE
  8
LAYER_2
 10
178.3946
 20
204.5408
 11
178.5593
 21
204.3527
  0
LINE
  8
LAYER_2
 10
178.5593
 20
204.3527
 11
178.7005
 21
204.1646
  0
LINE
  8
LAYER_2
 10
178.7005
 20
204.1646
 11
178.818
 21
203.9528
  0
LINE
  8
LAYER_2
 10
178.818
 20
203.9528
 11
178.9121
 21
203.7176
  0
LINE
  8
LAYER_2
 10
178.9121
 20
203.7176
 11
178.9358
 21
203.6472
  0
ENDBLK
  0
BLOCK
  8
LAYER_2
  2
AIGNBL02010077
 70
64
 10
0
 20
0
 30
0
  3
AIGNBL02010077
  0
LINE
  8
LAYER_2
 10
193.4935
 20
203.6472
 11
193.5406
 21
203.7176
  0
LINE
  8
LAYER_2
 10
193.5406
 20
203.7176
 11
193.6347
 21
203.9528
  0
LINE
  8
LAYER_2
 10
193.6347
 20
203.9528
 11
193.7525
 21
204.1646
  0
LINE
  8
LAYER_2
 10
193.7525
 20
204.1646
 11
193.8934
 21
204.3527
  0
LINE
  8
LAYER_2
 10
193.8934
 20
204.3527
 11
194.0343
 21
204.5408
  0
LINE
  8
LAYER_2
 10
194.0343
 20
204.5408
 11
194.199
 21
204.7291
  0
LINE
  8
LAYER_2
 10
194.199
 20
204.7291
 11
194.3871
 21
204.8936
  0
LINE
  8
LAYER_2
 10
194.3871
 20
204.8936
 11
194.599
 21
205.0111
  0
LINE
  8
LAYER_2
 10
194.599
 20
205.0111
 11
194.8108
 21
205.1523
  0
LINE
  8
LAYER_2
 10
194.8108
 20
205.1523
 11
195.0224
 21
205.2464
  0
LINE
  8
LAYER_2
 10
195.0224
 20
205.2464
 11
195.2573
 21
205.317
  0
LINE
  8
LAYER_2
 10
195.2573
 20
205.317
 11
195.4926
 21
205.3876
  0
ENDBLK
  0
BLOCK
  8
LAYER_2
  2
AIGNBL02010078
 70
64
 10
0
 20
0
 30
0
  3
AIGNBL02010078
  0
LINE
  8
LAYER_2
 10
193.3525
 20
202.7769
 11
193.3759
 21
203.0121
  0
LINE
  8
LAYER_2
 10
193.3759
 20
203.0121
 11
193.3997
 21
203.2472
  0
LINE
  8
LAYER_2
 10
193.3997
 20
203.2472
 11
193.3997
 21
203.318
  0
ENDBLK
  0
BLOCK
  8
LAYER_2
  2
AIGNBL02010079
 70
64
 10
0
 20
0
 30
0
  3
AIGNBL02010079
  0
LINE
  8
LAYER_2
 10
195.4926
 20
205.3876
 11
196.4569
 21
205.5757
  0
ENDBLK
  0
BLOCK
  8
LAYER_2
  2
AIGNBL0201007A
 70
64
 10
0
 20
0
 30
0
  3
AIGNBL0201007A
  0
LINE
  8
LAYER_2
 10
175.9958
 20
205.5757
 11
176.9366
 21
205.3876
  0
ENDBLK
  0
BLOCK
  8
LAYER_2
  2
AIGNBL0201007B
 70
64
 10
0
 20
0
 30
0
  3
AIGNBL0201007B
  0
LINE
  8
LAYER_2
 10
175.8783
 20
205.7638
 11
175.8783
 21
205.6932
  0
ENDBLK
  0
BLOCK
  8
LAYER_2
  2
AIGNBL0201007C
 70
64
 10
0
 20
0
 30
0
  3
AIGNBL0201007C
  0
LINE
  8
LAYER_2
 10
196.5509
 20
205.6932
 11
196.5509
 21
205.7638
  0
ENDBLK
  0
BLOCK
  8
LAYER_2
  2
AIGNBL0201007D
 70
64
 10
0
 20
0
 30
0
  3
AIGNBL0201007D
  0
LINE
  8
LAYER_2
 10
196.4569
 20
205.5757
 11
196.4803
 21
205.5757
  0
LINE
  8
LAYER_2
 10
196.4803
 20
205.5757
 11
196.4803
 21
205.5992
  0
LINE
  8
LAYER_2
 10
196.4803
 20
205.5992
 11
196.5038
 21
205.5992
  0
LINE
  8
LAYER_2
 10
196.5038
 20
205.5992
 11
196.5275
 21
205.6228
  0
LINE
  8
LAYER_2
 10
196.5275
 20
205.6228
 11
196.5275
 21
205.6462
  0
LINE
  8
LAYER_2
 10
196.5275
 20
205.6462
 11
196.5509
 21
205.6698
  0
LINE
  8
LAYER_2
 10
196.5509
 20
205.6698
 11
196.5509
 21
205.6932
  0
ENDBLK
  0
BLOCK
  8
LAYER_2
  2
AIGNBL0201007E
 70
64
 10
0
 20
0
 30
0
  3
AIGNBL0201007E
  0
LINE
  8
LAYER_2
 10
175.8783
 20
205.6932
 11
175.8783
 21
205.6698
  0
LINE
  8
LAYER_2
 10
175.8783
 20
205.6698
 11
175.9017
 21
205.6698
  0
LINE
  8
LAYER_2
 10
175.9017
 20
205.6698
 11
175.9017
 21
205.6462
  0
LINE
  8
LAYER_2
 10
175.9017
 20
205.6462
 11
175.9252
 21
205.6228
  0
LINE
  8
LAYER_2
 10
175.9252
 20
205.6228
 11
175.9252
 21
205.5992
  0
LINE
  8
LAYER_2
 10
175.9252
 20
205.5992
 11
175.9489
 21
205.5992
  0
LINE
  8
LAYER_2
 10
175.9489
 20
205.5992
 11
175.9724
 21
205.5757
  0
LINE
  8
LAYER_2
 10
175.9724
 20
205.5757
 11
175.9958
 21
205.5757
  0
ENDBLK
  0
BLOCK
  8
LAYER_2
  2
AIGNBL0201007F
 70
64
 10
0
 20
0
 30
0
  3
AIGNBL0201007F
  0
LINE
  8
LAYER_2
 10
196.41
 20
205.9051
 11
196.3863
 21
205.9051
  0
LINE
  8
LAYER_2
 10
196.3863
 20
205.9051
 11
196.3157
 21
205.9051
  0
LINE
  8
LAYER_2
 10
196.3157
 20
205.9051
 11
196.2454
 21
205.9051
  0
LINE
  8
LAYER_2
 10
196.2454
 20
205.9051
 11
196.151
 21
205.9051
  0
LINE
  8
LAYER_2
 10
196.151
 20
205.9051
 11
196.0335
 21
205.9051
  0
LINE
  8
LAYER_2
 10
196.0335
 20
205.9051
 11
195.916
 21
205.9051
  0
LINE
  8
LAYER_2
 10
195.916
 20
205.9051
 11
195.7513
 21
205.9051
  0
LINE
  8
LAYER_2
 10
195.7513
 20
205.9051
 11
195.5867
 21
205.9051
  0
LINE
  8
LAYER_2
 10
195.5867
 20
205.9051
 11
195.3751
 21
205.9051
  0
LINE
  8
LAYER_2
 10
195.3751
 20
205.9051
 11
195.1636
 21
205.9051
  0
LINE
  8
LAYER_2
 10
195.1636
 20
205.9051
 11
194.9283
 21
205.9051
  0
LINE
  8
LAYER_2
 10
194.9283
 20
205.9051
 11
194.693
 21
205.9051
  0
LINE
  8
LAYER_2
 10
194.693
 20
205.9051
 11
194.4109
 21
205.9051
  0
LINE
  8
LAYER_2
 10
194.4109
 20
205.9051
 11
194.1287
 21
205.9051
  0
LINE
  8
LAYER_2
 10
194.1287
 20
205.9051
 11
193.8228
 21
205.9051
  0
LINE
  8
LAYER_2
 10
193.8228
 20
205.9051
 11
193.5172
 21
205.9051
  0
LINE
  8
LAYER_2
 10
193.5172
 20
205.9051
 11
193.1878
 21
205.9051
  0
LINE
  8
LAYER_2
 10
193.1878
 20
205.9051
 11
192.8351
 21
205.9051
  0
LINE
  8
LAYER_2
 10
192.8351
 20
205.9051
 11
192.4823
 21
205.9051
  0
LINE
  8
LAYER_2
 10
192.4823
 20
205.9051
 11
192.1061
 21
205.9051
  0
LINE
  8
LAYER_2
 10
192.1061
 20
205.9051
 11
191.7061
 21
205.9051
  0
LINE
  8
LAYER_2
 10
191.7061
 20
205.9051
 11
191.3299
 21
205.9051
  0
LINE
  8
LAYER_2
 10
191.3299
 20
205.9051
 11
190.9065
 21
205.9051
  0
LINE
  8
LAYER_2
 10
190.9065
 20
205.9051
 11
190.5066
 21
205.9051
  0
LINE
  8
LAYER_2
 10
190.5066
 20
205.9051
 11
190.06
 21
205.9051
  0
LINE
  8
LAYER_2
 10
190.06
 20
205.9051
 11
189.6366
 21
205.9051
  0
LINE
  8
LAYER_2
 10
189.6366
 20
205.9051
 11
189.1898
 21
205.9051
  0
LINE
  8
LAYER_2
 10
189.1898
 20
205.9051
 11
188.7427
 21
205.9051
  0
LINE
  8
LAYER_2
 10
188.7427
 20
205.9051
 11
188.2962
 21
205.9051
  0
LINE
  8
LAYER_2
 10
188.2962
 20
205.9051
 11
187.849
 21
205.9051
  0
LINE
  8
LAYER_2
 10
187.849
 20
205.9051
 11
187.3787
 21
205.9051
  0
LINE
  8
LAYER_2
 10
187.3787
 20
205.9051
 11
186.9085
 21
205.9051
  0
LINE
  8
LAYER_2
 10
186.9085
 20
205.9051
 11
186.4616
 21
205.9051
  0
LINE
  8
LAYER_2
 10
186.4616
 20
205.9051
 11
185.9914
 21
205.9051
  0
LINE
  8
LAYER_2
 10
185.9914
 20
205.9051
 11
185.5208
 21
205.9051
  0
LINE
  8
LAYER_2
 10
185.5208
 20
205.9051
 11
185.074
 21
205.9051
  0
LINE
  8
LAYER_2
 10
185.074
 20
205.9051
 11
184.6037
 21
205.9051
  0
LINE
  8
LAYER_2
 10
184.6037
 20
205.9051
 11
184.1566
 21
205.9051
  0
LINE
  8
LAYER_2
 10
184.1566
 20
205.9051
 11
183.6863
 21
205.9051
  0
LINE
  8
LAYER_2
 10
183.6863
 20
205.9051
 11
183.2394
 21
205.9051
  0
LINE
  8
LAYER_2
 10
183.2394
 20
205.9051
 11
182.8164
 21
205.9051
  0
LINE
  8
LAYER_2
 10
182.8164
 20
205.9051
 11
182.3692
 21
205.9051
  0
LINE
  8
LAYER_2
 10
182.3692
 20
205.9051
 11
181.9462
 21
205.9051
  0
LINE
  8
LAYER_2
 10
181.9462
 20
205.9051
 11
181.5228
 21
205.9051
  0
LINE
  8
LAYER_2
 10
181.5228
 20
205.9051
 11
181.1228
 21
205.9051
  0
LINE
  8
LAYER_2
 10
181.1228
 20
205.9051
 11
180.7231
 21
205.9051
  0
LINE
  8
LAYER_2
 10
180.7231
 20
205.9051
 11
180.3469
 21
205.9051
  0
LINE
  8
LAYER_2
 10
180.3469
 20
205.9051
 11
179.9704
 21
205.9051
  0
LINE
  8
LAYER_2
 10
179.9704
 20
205.9051
 11
179.5942
 21
205.9051
  0
LINE
  8
LAYER_2
 10
179.5942
 20
205.9051
 11
179.2648
 21
205.9051
  0
LINE
  8
LAYER_2
 10
179.2648
 20
205.9051
 11
178.9358
 21
205.9051
  0
LINE
  8
LAYER_2
 10
178.9358
 20
205.9051
 11
178.6065
 21
205.9051
  0
LINE
  8
LAYER_2
 10
178.6065
 20
205.9051
 11
178.3006
 21
205.9051
  0
LINE
  8
LAYER_2
 10
178.3006
 20
205.9051
 11
178.0184
 21
205.9051
  0
LINE
  8
LAYER_2
 10
178.0184
 20
205.9051
 11
177.7597
 21
205.9051
  0
LINE
  8
LAYER_2
 10
177.7597
 20
205.9051
 11
177.5009
 21
205.9051
  0
LINE
  8
LAYER_2
 10
177.5009
 20
205.9051
 11
177.2657
 21
205.9051
  0
LINE
  8
LAYER_2
 10
177.2657
 20
205.9051
 11
177.0541
 21
205.9051
  0
LINE
  8
LAYER_2
 10
177.0541
 20
205.9051
 11
176.866
 21
205.9051
  0
LINE
  8
LAYER_2
 10
176.866
 20
205.9051
 11
176.7013
 21
205.9051
  0
LINE
  8
LAYER_2
 10
176.7013
 20
205.9051
 11
176.5367
 21
205.9051
  0
LINE
  8
LAYER_2
 10
176.5367
 20
205.9051
 11
176.3954
 21
205.9051
  0
LINE
  8
LAYER_2
 10
176.3954
 20
205.9051
 11
176.2779
 21
205.9051
  0
LINE
  8
LAYER_2
 10
176.2779
 20
205.9051
 11
176.1839
 21
205.9051
  0
LINE
  8
LAYER_2
 10
176.1839
 20
205.9051
 11
176.1136
 21
205.9051
  0
LINE
  8
LAYER_2
 10
176.1136
 20
205.9051
 11
176.0664
 21
205.9051
  0
LINE
  8
LAYER_2
 10
176.0664
 20
205.9051
 11
176.0427
 21
205.9051
  0
LINE
  8
LAYER_2
 10
176.0427
 20
205.9051
 11
176.0192
 21
205.9051
  0
ENDBLK
  0
BLOCK
  8
LAYER_2
  2
AIGNBL02010080
 70
64
 10
0
 20
0
 30
0
  3
AIGNBL02010080
  0
LINE
  8
LAYER_2
 10
196.5509
 20
205.7638
 11
196.5509
 21
205.7874
  0
LINE
  8
LAYER_2
 10
196.5509
 20
205.7874
 11
196.5509
 21
205.8109
  0
LINE
  8
LAYER_2
 10
196.5509
 20
205.8109
 11
196.5275
 21
205.8343
  0
LINE
  8
LAYER_2
 10
196.5275
 20
205.8343
 11
196.5038
 21
205.8579
  0
LINE
  8
LAYER_2
 10
196.5038
 20
205.8579
 11
196.5038
 21
205.8813
  0
LINE
  8
LAYER_2
 10
196.5038
 20
205.8813
 11
196.4803
 21
205.8813
  0
LINE
  8
LAYER_2
 10
196.4803
 20
205.8813
 11
196.4569
 21
205.9051
  0
LINE
  8
LAYER_2
 10
196.4569
 20
205.9051
 11
196.41
 21
205.9051
  0
ENDBLK
  0
BLOCK
  8
LAYER_2
  2
AIGNBL02010081
 70
64
 10
0
 20
0
 30
0
  3
AIGNBL02010081
  0
LINE
  8
LAYER_2
 10
176.0192
 20
205.9051
 11
175.9958
 21
205.9051
  0
LINE
  8
LAYER_2
 10
175.9958
 20
205.9051
 11
175.9724
 21
205.8813
  0
LINE
  8
LAYER_2
 10
175.9724
 20
205.8813
 11
175.9489
 21
205.8813
  0
LINE
  8
LAYER_2
 10
175.9489
 20
205.8813
 11
175.9252
 21
205.8579
  0
LINE
  8
LAYER_2
 10
175.9252
 20
205.8579
 11
175.9017
 21
205.8343
  0
LINE
  8
LAYER_2
 10
175.9017
 20
205.8343
 11
175.9017
 21
205.8109
  0
LINE
  8
LAYER_2
 10
175.9017
 20
205.8109
 11
175.9017
 21
205.7874
  0
LINE
  8
LAYER_2
 10
175.9017
 20
205.7874
 11
175.8783
 21
205.7638
  0
ENDBLK
  0
BLOCK
  8
LAYER_2
  2
AIGNBL02010082
 70
64
 10
0
 20
0
 30
0
  3
AIGNBL02010082
  0
LINE
  8
LAYER_2
 10
196.2219
 20
203.318
 11
196.2219
 21
203.6472
  0
ENDBLK
  0
BLOCK
  8
LAYER_2
  2
AIGNBL02010083
 70
64
 10
0
 20
0
 30
0
  3
AIGNBL02010083
  0
LINE
  8
LAYER_2
 10
176.2311
 20
203.6472
 11
176.2311
 21
203.318
  0
ENDBLK
  0
BLOCK
  8
LAYER_2
  2
AIGNBL02010084
 70
64
 10
0
 20
0
 30
0
  3
AIGNBL02010084
  0
LINE
  8
LAYER_2
 10
193.2113
 20
173.0752
 11
193.2113
 21
162.5091
  0
ENDBLK
  0
BLOCK
  8
LAYER_2
  2
AIGNBL02010085
 70
64
 10
0
 20
0
 30
0
  3
AIGNBL02010085
  0
LINE
  8
LAYER_2
 10
179.2177
 20
173.0752
 11
179.2177
 21
162.5091
  0
ENDBLK
  0
BLOCK
  8
LAYER_2
  2
AIGNBL02010086
 70
64
 10
0
 20
0
 30
0
  3
AIGNBL02010086
  0
LINE
  8
LAYER_2
 10
193.2113
 20
163.2091
 11
179.2177
 21
163.2091
  0
ENDBLK
  0
BLOCK
  8
LAYER_2
  2
AIGNBL02010087
 70
64
 10
0
 20
0
 30
0
  3
AIGNBL02010087
  0
LINE
  8
LAYER_2
 10
193.9154
 20
173.7711
 11
207.3479
 21
173.7711
  0
ENDBLK
  0
BLOCK
  8
LAYER_2
  2
AIGNBL02010088
 70
64
 10
0
 20
0
 30
0
  3
AIGNBL02010088
  0
LINE
  8
LAYER_2
 10
197.251
 20
189.7714
 11
207.3479
 21
189.7714
  0
ENDBLK
  0
BLOCK
  8
LAYER_2
  2
AIGNBL02010089
 70
64
 10
0
 20
0
 30
0
  3
AIGNBL02010089
  0
LINE
  8
LAYER_2
 10
195.2518
 20
178.1045
 11
207.3479
 21
178.1045
  0
ENDBLK
  0
BLOCK
  8
LAYER_2
  2
AIGNBL0201008A
 70
64
 10
0
 20
0
 30
0
  3
AIGNBL0201008A
  0
LINE
  8
LAYER_2
 10
197.5342
 20
210.2383
 11
215.2561
 21
210.2383
  0
ENDBLK
  0
BLOCK
  8
LAYER_2
  2
AIGNBL0201008B
 70
64
 10
0
 20
0
 30
0
  3
AIGNBL0201008B
  0
LINE
  8
LAYER_2
 10
197.3433
 20
205.9051
 11
215.2561
 21
205.9051
  0
ENDBLK
  0
BLOCK
  8
LAYER_2
  2
AIGNBL0201008C
 70
64
 10
0
 20
0
 30
0
  3
AIGNBL0201008C
  0
LINE
  8
LAYER_2
 10
197.3433
 20
207.5717
 11
207.3479
 21
207.5717
  0
ENDBLK
  0
BLOCK
  8
LAYER_2
  2
AIGNBL0201008D
 70
64
 10
0
 20
0
 30
0
  3
AIGNBL0201008D
  0
LINE
  8
LAYER_2
 10
214.5561
 20
201.9797
 11
214.5561
 21
215.3274
  0
ENDBLK
  0
BLOCK
  8
LAYER_2
  2
AIGNBL0201008E
 70
64
 10
0
 20
0
 30
0
  3
AIGNBL0201008E
  0
LINE
  8
LAYER_2
 10
206.6478
 20
170.1133
 11
206.6478
 21
189.7714
  0
ENDBLK
  0
BLOCK
  8
LAYER_2
  2
AIGNBL0201008F
 70
64
 10
0
 20
0
 30
0
  3
AIGNBL0201008F
  0
LINE
  8
LAYER_2
 10
206.6478
 20
203.0367
 11
206.6478
 21
215.4073
  0
ENDBLK
  0
BLOCK
  8
LAYER_2
  2
AIGNBL02010090
 70
64
 10
0
 20
0
 30
0
  3
AIGNBL02010090
  0
LINE
  8
LAYER_2
 10
203.5562
 20
246.4887
 11
197.702
 21
246.4887
  0
ENDBLK
  0
BLOCK
  8
LAYER_2
  2
AIGNBL02010091
 70
64
 10
0
 20
0
 30
0
  3
AIGNBL02010091
  0
LINE
  8
LAYER_2
 10
197.702
 20
246.4887
 11
174.9512
 21
223.7379
  0
ENDBLK
  0
BLOCK
  8
LAYER_2
  2
AIGNBL02010092
 70
64
 10
0
 20
0
 30
0
  3
AIGNBL02010092
  0
LINE
  8
LAYER_2
 10
38.9013
 20
82.9903
 11
37.1693
 21
79.9903
  0
ENDBLK
  0
BLOCK
  8
LAYER_2
  2
AIGNBL02010093
 70
64
 10
0
 20
0
 30
0
  3
AIGNBL02010093
  0
LINE
  8
LAYER_2
 10
37.1693
 20
79.9903
 11
35.4373
 21
82.9903
  0
ENDBLK
  0
BLOCK
  8
LAYER_2
  2
AIGNBL02010094
 70
64
 10
0
 20
0
 30
0
  3
AIGNBL02010094
  0
LINE
  8
LAYER_2
 10
35.4373
 20
82.9903
 11
38.9013
 21
82.9903
  0
ENDBLK
  0
BLOCK
  8
LAYER_2
  2
AIGNBL02010095
 70
64
 10
0
 20
0
 30
0
  3
AIGNBL02010095
  0
ARC
  8
LAYER_2
  6
AIGENLINE001
 10
106.6755
 20
95.4608
 40
0.7779
 50
89.10009631
 51
170.7274602
  0
ENDBLK
  0
BLOCK
  8
LAYER_2
  2
AIGNBL02010096
 70
64
 10
0
 20
0
 30
0
  3
AIGNBL02010096
  0
ARC
  8
LAYER_2
  6
AIGENLINE001
 10
92.5568
 20
97.0374
 40
13.4295
 50
294.3563587
 51
353.7966751
  0
ENDBLK
  0
BLOCK
  8
LAYER_2
  2
AIGNBL02010097
 70
64
 10
0
 20
0
 30
0
  3
AIGNBL02010097
  0
ARC
  8
LAYER_2
  6
AIGENLINE001
 10
86.4896
 20
116.021
 40
33.3055
 50
274.101419
 51
290.393776
  0
ENDBLK
  0
BLOCK
  8
LAYER_2
  2
AIGNBL02010098
 70
64
 10
0
 20
0
 30
0
  3
AIGNBL02010098
  0
LINE
  8
LAYER_2
  6
AIGENLINE001
 10
87.6312
 20
82.6768
 11
88.8717
 21
82.8008
  0
ENDBLK
  0
BLOCK
  8
LAYER_2
  2
AIGNBL02010099
 70
64
 10
0
 20
0
 30
0
  3
AIGNBL02010099
  0
ARC
  8
LAYER_2
  6
AIGENLINE001
 10
83.8917
 20
121.5499
 40
39.0525
 50
271.5370112
 51
275.4948045
  0
ENDBLK
  0
BLOCK
  8
LAYER_2
  2
AIGNBL0201009A
 70
64
 10
0
 20
0
 30
0
  3
AIGNBL0201009A
  0
ARC
  8
LAYER_2
  6
AIGENLINE001
 10
84.9519
 20
82.2534
 40
0.2583
 50
92.82932539
 51
164.1455844
  0
ENDBLK
  0
BLOCK
  8
LAYER_2
  2
AIGNBL0201009B
 70
64
 10
0
 20
0
 30
0
  3
AIGNBL0201009B
  0
LINE
  8
LAYER_2
  6
AIGENLINE001
 10
84.7035
 20
82.324
 11
84.3859
 21
81.1024
  0
ENDBLK
  0
BLOCK
  8
LAYER_2
  2
AIGNBL0201009C
 70
64
 10
0
 20
0
 30
0
  3
AIGNBL0201009C
  0
ARC
  8
LAYER_2
  6
AIGENLINE001
 10
83.7799
 20
81.2604
 40
0.6263
 50
307.5889129
 51
345.391277
  0
ENDBLK
  0
BLOCK
  8
LAYER_2
  2
AIGNBL0201009D
 70
64
 10
0
 20
0
 30
0
  3
AIGNBL0201009D
  0
LINE
  8
LAYER_2
  6
AIGENLINE001
 10
84.1619
 20
80.7641
 11
82.7502
 21
79.6802
  0
ENDBLK
  0
BLOCK
  8
LAYER_2
  2
AIGNBL0201009E
 70
64
 10
0
 20
0
 30
0
  3
AIGNBL0201009E
  0
LINE
  8
LAYER_2
  6
AIGENLINE001
 10
82.7502
 20
79.6802
 11
82.7502
 21
75.2402
  0
ENDBLK
  0
BLOCK
  8
LAYER_2
  2
AIGNBL0201009F
 70
64
 10
0
 20
0
 30
0
  3
AIGNBL0201009F
  0
LINE
  8
LAYER_2
 10
-15.4921
 20
79.9903
 11
-15.5629
 21
79.9538
  0
ENDBLK
  0
BLOCK
  8
LAYER_2
  2
AIGNBL020100A0
 70
64
 10
0
 20
0
 30
0
  3
AIGNBL020100A0
  0
LINE
  8
LAYER_2
 10
-15.5629
 20
79.9538
 11
-15.7039
 21
79.8139
  0
ENDBLK
  0
BLOCK
  8
LAYER_2
  2
AIGNBL020100A1
 70
64
 10
0
 20
0
 30
0
  3
AIGNBL020100A1
  0
LINE
  8
LAYER_2
 10
-15.7039
 20
79.8139
 11
-15.8449
 21
79.6382
  0
ENDBLK
  0
BLOCK
  8
LAYER_2
  2
AIGNBL020100A2
 70
64
 10
0
 20
0
 30
0
  3
AIGNBL020100A2
  0
LINE
  8
LAYER_2
 10
-15.8449
 20
79.6382
 11
-15.9155
 21
79.426
  0
ENDBLK
  0
BLOCK
  8
LAYER_2
  2
AIGNBL020100A3
 70
64
 10
0
 20
0
 30
0
  3
AIGNBL020100A3
  0
LINE
  8
LAYER_2
 10
-15.9155
 20
79.426
 11
-15.9863
 21
79.2144
  0
ENDBLK
  0
BLOCK
  8
LAYER_2
  2
AIGNBL020100A4
 70
64
 10
0
 20
0
 30
0
  3
AIGNBL020100A4
  0
LINE
  8
LAYER_2
 10
-15.9863
 20
79.2144
 11
-16.692
 21
75.2402
  0
ENDBLK
  0
BLOCK
  8
LAYER_2
  2
AIGNBL020100A5
 70
64
 10
0
 20
0
 30
0
  3
AIGNBL020100A5
  0
LINE
  8
LAYER_2
 10
-21.3796
 20
75.2402
 11
-16.692
 21
75.2402
  0
ENDBLK
  0
BLOCK
  8
LAYER_2
  2
AIGNBL020100A6
 70
64
 10
0
 20
0
 30
0
  3
AIGNBL020100A6
  0
LINE
  8
LAYER_2
 10
-27.2667
 20
79.9903
 11
-27.1961
 21
79.9538
  0
ENDBLK
  0
BLOCK
  8
LAYER_2
  2
AIGNBL020100A7
 70
64
 10
0
 20
0
 30
0
  3
AIGNBL020100A7
  0
LINE
  8
LAYER_2
 10
-27.1961
 20
79.9538
 11
-27.0548
 21
79.8139
  0
ENDBLK
  0
BLOCK
  8
LAYER_2
  2
AIGNBL020100A8
 70
64
 10
0
 20
0
 30
0
  3
AIGNBL020100A8
  0
LINE
  8
LAYER_2
 10
-27.0548
 20
79.8139
 11
-26.9141
 21
79.6382
  0
ENDBLK
  0
BLOCK
  8
LAYER_2
  2
AIGNBL020100A9
 70
64
 10
0
 20
0
 30
0
  3
AIGNBL020100A9
  0
LINE
  8
LAYER_2
 10
-26.9141
 20
79.6382
 11
-26.8435
 21
79.426
  0
ENDBLK
  0
BLOCK
  8
LAYER_2
  2
AIGNBL020100AA
 70
64
 10
0
 20
0
 30
0
  3
AIGNBL020100AA
  0
LINE
  8
LAYER_2
 10
-26.8435
 20
79.426
 11
-26.7729
 21
79.2144
  0
ENDBLK
  0
BLOCK
  8
LAYER_2
  2
AIGNBL020100AB
 70
64
 10
0
 20
0
 30
0
  3
AIGNBL020100AB
  0
LINE
  8
LAYER_2
 10
-26.7729
 20
79.2144
 11
-26.067
 21
75.2402
  0
ENDBLK
  0
BLOCK
  8
LAYER_2
  2
AIGNBL020100AC
 70
64
 10
0
 20
0
 30
0
  3
AIGNBL020100AC
  0
LINE
  8
LAYER_2
 10
-21.3796
 20
75.2402
 11
-26.067
 21
75.2402
  0
ENDBLK
  0
BLOCK
  8
LAYER_2
  2
AIGNBL020100AD
 70
64
 10
0
 20
0
 30
0
  3
AIGNBL020100AD
  0
LINE
  8
LAYER_2
 10
85.7625
 20
79.9903
 11
85.6916
 21
79.9538
  0
ENDBLK
  0
BLOCK
  8
LAYER_2
  2
AIGNBL020100AE
 70
64
 10
0
 20
0
 30
0
  3
AIGNBL020100AE
  0
LINE
  8
LAYER_2
 10
85.6916
 20
79.9538
 11
85.5503
 21
79.8139
  0
ENDBLK
  0
BLOCK
  8
LAYER_2
  2
AIGNBL020100AF
 70
64
 10
0
 20
0
 30
0
  3
AIGNBL020100AF
  0
LINE
  8
LAYER_2
 10
85.5503
 20
79.8139
 11
85.4098
 21
79.6382
  0
ENDBLK
  0
BLOCK
  8
LAYER_2
  2
AIGNBL020100B0
 70
64
 10
0
 20
0
 30
0
  3
AIGNBL020100B0
  0
LINE
  8
LAYER_2
 10
85.4098
 20
79.6382
 11
85.3388
 21
79.426
  0
ENDBLK
  0
BLOCK
  8
LAYER_2
  2
AIGNBL020100B1
 70
64
 10
0
 20
0
 30
0
  3
AIGNBL020100B1
  0
LINE
  8
LAYER_2
 10
85.3388
 20
79.426
 11
85.2685
 21
79.2144
  0
ENDBLK
  0
BLOCK
  8
LAYER_2
  2
AIGNBL020100B2
 70
64
 10
0
 20
0
 30
0
  3
AIGNBL020100B2
  0
LINE
  8
LAYER_2
 10
85.2685
 20
79.2144
 11
84.5623
 21
75.2402
  0
ENDBLK
  0
BLOCK
  8
LAYER_2
  2
AIGNBL020100B3
 70
64
 10
0
 20
0
 30
0
  3
AIGNBL020100B3
  0
LINE
  8
LAYER_2
 10
79.8749
 20
75.2402
 11
84.5623
 21
75.2402
  0
ENDBLK
  0
BLOCK
  8
LAYER_2
  2
AIGNBL020100B4
 70
64
 10
0
 20
0
 30
0
  3
AIGNBL020100B4
  0
ARC
  8
LAYER_2
  6
AIGENLINE001
 10
52.4512
 20
95.4617
 40
0.7771
 50
9.220562972
 51
90.90124269
  0
ENDBLK
  0
BLOCK
  8
LAYER_2
  2
AIGNBL020100B5
 70
64
 10
0
 20
0
 30
0
  3
AIGNBL020100B5
  0
ARC
  8
LAYER_2
  6
AIGENLINE001
 10
66.5698
 20
97.0378
 40
13.4302
 50
186.2047973
 51
245.641472
  0
ENDBLK
  0
BLOCK
  8
LAYER_2
  2
AIGNBL020100B6
 70
64
 10
0
 20
0
 30
0
  3
AIGNBL020100B6
  0
ARC
  8
LAYER_2
  6
AIGENLINE001
 10
71.1863
 20
112.1233
 40
29.1468
 50
249.6084456
 51
255.2613884
  0
ENDBLK
  0
BLOCK
  8
LAYER_2
  2
AIGNBL020100B7
 70
64
 10
0
 20
0
 30
0
  3
AIGNBL020100B7
  0
ARC
  8
LAYER_2
  6
AIGENLINE001
 10
73.1156
 20
118.9783
 40
36.2672
 50
255.0688726
 51
265.96902
  0
ENDBLK
  0
BLOCK
  8
LAYER_2
  2
AIGNBL020100B8
 70
64
 10
0
 20
0
 30
0
  3
AIGNBL020100B8
  0
LINE
  8
LAYER_2
  6
AIGENLINE001
 10
70.5662
 20
82.8008
 11
72.2336
 21
82.6472
  0
ENDBLK
  0
BLOCK
  8
LAYER_2
  2
AIGNBL020100B9
 70
64
 10
0
 20
0
 30
0
  3
AIGNBL020100B9
  0
ARC
  8
LAYER_2
  6
AIGENLINE001
 10
76.1227
 20
131.9298
 40
49.4358
 50
265.4878732
 51
268.4790833
  0
ENDBLK
  0
BLOCK
  8
LAYER_2
  2
AIGNBL020100BA
 70
64
 10
0
 20
0
 30
0
  3
AIGNBL020100BA
  0
ARC
  8
LAYER_2
  6
AIGENLINE001
 10
74.7977
 20
82.2525
 40
0.2593
 50
16.01750247
 51
87.14946644
  0
ENDBLK
  0
BLOCK
  8
LAYER_2
  2
AIGNBL020100BB
 70
64
 10
0
 20
0
 30
0
  3
AIGNBL020100BB
  0
LINE
  8
LAYER_2
  6
AIGENLINE001
 10
75.0469
 20
82.324
 11
75.3642
 21
81.1024
  0
ENDBLK
  0
BLOCK
  8
LAYER_2
  2
AIGNBL020100BC
 70
64
 10
0
 20
0
 30
0
  3
AIGNBL020100BC
  0
ARC
  8
LAYER_2
  6
AIGENLINE001
 10
75.9715
 20
81.2611
 40
0.6277
 50
194.6441939
 51
232.3520644
  0
ENDBLK
  0
BLOCK
  8
LAYER_2
  2
AIGNBL020100BD
 70
64
 10
0
 20
0
 30
0
  3
AIGNBL020100BD
  0
LINE
  8
LAYER_2
  6
AIGENLINE001
 10
75.5881
 20
80.7641
 11
77.0003
 21
79.6802
  0
ENDBLK
  0
BLOCK
  8
LAYER_2
  2
AIGNBL020100BE
 70
64
 10
0
 20
0
 30
0
  3
AIGNBL020100BE
  0
LINE
  8
LAYER_2
  6
AIGENLINE001
 10
77.0003
 20
79.6802
 11
77.0003
 21
75.2402
  0
ENDBLK
  0
BLOCK
  8
LAYER_2
  2
AIGNBL020100BF
 70
64
 10
0
 20
0
 30
0
  3
AIGNBL020100BF
  0
LINE
  8
LAYER_2
 10
106.6526
 20
96.2394
 11
106.6178
 21
96.2394
  0
ENDBLK
  0
BLOCK
  8
LAYER_2
  2
AIGNBL020100C0
 70
64
 10
0
 20
0
 30
0
  3
AIGNBL020100C0
  0
LINE
  8
LAYER_2
 10
106.6178
 20
96.2394
 11
106.5468
 21
96.2394
  0
ENDBLK
  0
BLOCK
  8
LAYER_2
  2
AIGNBL020100C1
 70
64
 10
0
 20
0
 30
0
  3
AIGNBL020100C1
  0
LINE
  8
LAYER_2
 10
106.5468
 20
96.2394
 11
106.4407
 21
96.2394
  0
ENDBLK
  0
BLOCK
  8
LAYER_2
  2
AIGNBL020100C2
 70
64
 10
0
 20
0
 30
0
  3
AIGNBL020100C2
  0
LINE
  8
LAYER_2
 10
106.4407
 20
96.2394
 11
106.2988
 21
96.2394
  0
ENDBLK
  0
BLOCK
  8
LAYER_2
  2
AIGNBL020100C3
 70
64
 10
0
 20
0
 30
0
  3
AIGNBL020100C3
  0
LINE
  8
LAYER_2
 10
106.2988
 20
96.2394
 11
106.1224
 21
96.2394
  0
ENDBLK
  0
BLOCK
  8
LAYER_2
  2
AIGNBL020100C4
 70
64
 10
0
 20
0
 30
0
  3
AIGNBL020100C4
  0
LINE
  8
LAYER_2
 10
106.1224
 20
96.2394
 11
105.8757
 21
96.2394
  0
ENDBLK
  0
BLOCK
  8
LAYER_2
  2
AIGNBL020100C5
 70
64
 10
0
 20
0
 30
0
  3
AIGNBL020100C5
  0
LINE
  8
LAYER_2
 10
105.8757
 20
96.2394
 11
105.5935
 21
96.2394
  0
ENDBLK
  0
BLOCK
  8
LAYER_2
  2
AIGNBL020100C6
 70
64
 10
0
 20
0
 30
0
  3
AIGNBL020100C6
  0
LINE
  8
LAYER_2
 10
105.5935
 20
96.2394
 11
105.3107
 21
96.2394
  0
ENDBLK
  0
BLOCK
  8
LAYER_2
  2
AIGNBL020100C7
 70
64
 10
0
 20
0
 30
0
  3
AIGNBL020100C7
  0
LINE
  8
LAYER_2
 10
105.3107
 20
96.2394
 11
104.9586
 21
96.2394
  0
ENDBLK
  0
BLOCK
  8
LAYER_2
  2
AIGNBL020100C8
 70
64
 10
0
 20
0
 30
0
  3
AIGNBL020100C8
  0
LINE
  8
LAYER_2
 10
104.9586
 20
96.2394
 11
104.5697
 21
96.2394
  0
ENDBLK
  0
BLOCK
  8
LAYER_2
  2
AIGNBL020100C9
 70
64
 10
0
 20
0
 30
0
  3
AIGNBL020100C9
  0
LINE
  8
LAYER_2
 10
104.5697
 20
96.2394
 11
104.1115
 21
96.2394
  0
ENDBLK
  0
BLOCK
  8
LAYER_2
  2
AIGNBL020100CA
 70
64
 10
0
 20
0
 30
0
  3
AIGNBL020100CA
  0
LINE
  8
LAYER_2
 10
104.1115
 20
96.2394
 11
103.6526
 21
96.2394
  0
ENDBLK
  0
BLOCK
  8
LAYER_2
  2
AIGNBL020100CB
 70
64
 10
0
 20
0
 30
0
  3
AIGNBL020100CB
  0
LINE
  8
LAYER_2
 10
103.6526
 20
96.2394
 11
103.1586
 21
96.2394
  0
ENDBLK
  0
BLOCK
  8
LAYER_2
  2
AIGNBL020100CC
 70
64
 10
0
 20
0
 30
0
  3
AIGNBL020100CC
  0
LINE
  8
LAYER_2
 10
103.1586
 20
96.2394
 11
102.5936
 21
96.2394
  0
ENDBLK
  0
BLOCK
  8
LAYER_2
  2
AIGNBL020100CD
 70
64
 10
0
 20
0
 30
0
  3
AIGNBL020100CD
  0
LINE
  8
LAYER_2
 10
102.5936
 20
96.2394
 11
102.0286
 21
96.2394
  0
ENDBLK
  0
BLOCK
  8
LAYER_2
  2
AIGNBL020100CE
 70
64
 10
0
 20
0
 30
0
  3
AIGNBL020100CE
  0
LINE
  8
LAYER_2
 10
102.0286
 20
96.2394
 11
101.4288
 21
96.2394
  0
ENDBLK
  0
BLOCK
  8
LAYER_2
  2
AIGNBL020100CF
 70
64
 10
0
 20
0
 30
0
  3
AIGNBL020100CF
  0
LINE
  8
LAYER_2
 10
101.4288
 20
96.2394
 11
100.7577
 21
96.2394
  0
ENDBLK
  0
BLOCK
  8
LAYER_2
  2
AIGNBL020100D0
 70
64
 10
0
 20
0
 30
0
  3
AIGNBL020100D0
  0
LINE
  8
LAYER_2
 10
100.7577
 20
96.2394
 11
100.0876
 21
96.2394
  0
ENDBLK
  0
BLOCK
  8
LAYER_2
  2
AIGNBL020100D1
 70
64
 10
0
 20
0
 30
0
  3
AIGNBL020100D1
  0
LINE
  8
LAYER_2
 10
100.0876
 20
96.2394
 11
99.382
 21
96.2394
  0
ENDBLK
  0
BLOCK
  8
LAYER_2
  2
AIGNBL020100D2
 70
64
 10
0
 20
0
 30
0
  3
AIGNBL020100D2
  0
LINE
  8
LAYER_2
 10
99.382
 20
96.2394
 11
98.6407
 21
96.2394
  0
ENDBLK
  0
BLOCK
  8
LAYER_2
  2
AIGNBL020100D3
 70
64
 10
0
 20
0
 30
0
  3
AIGNBL020100D3
  0
LINE
  8
LAYER_2
 10
98.6407
 20
96.2394
 11
97.8642
 21
96.2394
  0
ENDBLK
  0
BLOCK
  8
LAYER_2
  2
AIGNBL020100D4
 70
64
 10
0
 20
0
 30
0
  3
AIGNBL020100D4
  0
LINE
  8
LAYER_2
 10
97.8642
 20
96.2394
 11
97.0525
 21
96.2394
  0
ENDBLK
  0
BLOCK
  8
LAYER_2
  2
AIGNBL020100D5
 70
64
 10
0
 20
0
 30
0
  3
AIGNBL020100D5
  0
LINE
  8
LAYER_2
 10
97.0525
 20
96.2394
 11
96.2401
 21
96.2394
  0
ENDBLK
  0
BLOCK
  8
LAYER_2
  2
AIGNBL020100D6
 70
64
 10
0
 20
0
 30
0
  3
AIGNBL020100D6
  0
LINE
  8
LAYER_2
 10
96.2401
 20
96.2394
 11
95.3575
 21
96.2394
  0
ENDBLK
  0
BLOCK
  8
LAYER_2
  2
AIGNBL020100D7
 70
64
 10
0
 20
0
 30
0
  3
AIGNBL020100D7
  0
LINE
  8
LAYER_2
 10
95.3575
 20
96.2394
 11
94.5107
 21
96.2394
  0
ENDBLK
  0
BLOCK
  8
LAYER_2
  2
AIGNBL020100D8
 70
64
 10
0
 20
0
 30
0
  3
AIGNBL020100D8
  0
LINE
  8
LAYER_2
 10
94.5107
 20
96.2394
 11
93.5929
 21
96.2394
  0
ENDBLK
  0
BLOCK
  8
LAYER_2
  2
AIGNBL020100D9
 70
64
 10
0
 20
0
 30
0
  3
AIGNBL020100D9
  0
LINE
  8
LAYER_2
 10
93.5929
 20
96.2394
 11
92.6758
 21
96.2394
  0
ENDBLK
  0
BLOCK
  8
LAYER_2
  2
AIGNBL020100DA
 70
64
 10
0
 20
0
 30
0
  3
AIGNBL020100DA
  0
LINE
  8
LAYER_2
 10
92.6758
 20
96.2394
 11
91.7226
 21
96.2394
  0
ENDBLK
  0
BLOCK
  8
LAYER_2
  2
AIGNBL020100DB
 70
64
 10
0
 20
0
 30
0
  3
AIGNBL020100DB
  0
LINE
  8
LAYER_2
 10
91.7226
 20
96.2394
 11
90.7696
 21
96.2394
  0
ENDBLK
  0
BLOCK
  8
LAYER_2
  2
AIGNBL020100DC
 70
64
 10
0
 20
0
 30
0
  3
AIGNBL020100DC
  0
LINE
  8
LAYER_2
 10
90.7696
 20
96.2394
 11
89.7812
 21
96.2394
  0
ENDBLK
  0
BLOCK
  8
LAYER_2
  2
AIGNBL020100DD
 70
64
 10
0
 20
0
 30
0
  3
AIGNBL020100DD
  0
LINE
  8
LAYER_2
 10
89.7812
 20
96.2394
 11
88.7929
 21
96.2394
  0
ENDBLK
  0
BLOCK
  8
LAYER_2
  2
AIGNBL020100DE
 70
64
 10
0
 20
0
 30
0
  3
AIGNBL020100DE
  0
LINE
  8
LAYER_2
 10
88.7929
 20
96.2394
 11
87.7693
 21
96.2394
  0
ENDBLK
  0
BLOCK
  8
LAYER_2
  2
AIGNBL020100DF
 70
64
 10
0
 20
0
 30
0
  3
AIGNBL020100DF
  0
LINE
  8
LAYER_2
 10
87.7693
 20
96.2394
 11
86.7461
 21
96.2394
  0
ENDBLK
  0
BLOCK
  8
LAYER_2
  2
AIGNBL020100E0
 70
64
 10
0
 20
0
 30
0
  3
AIGNBL020100E0
  0
LINE
  8
LAYER_2
 10
86.7461
 20
96.2394
 11
85.7219
 21
96.2394
  0
ENDBLK
  0
BLOCK
  8
LAYER_2
  2
AIGNBL020100E1
 70
64
 10
0
 20
0
 30
0
  3
AIGNBL020100E1
  0
LINE
  8
LAYER_2
 10
85.7219
 20
96.2394
 11
84.6636
 21
96.2394
  0
ENDBLK
  0
BLOCK
  8
LAYER_2
  2
AIGNBL020100E2
 70
64
 10
0
 20
0
 30
0
  3
AIGNBL020100E2
  0
LINE
  8
LAYER_2
 10
84.6636
 20
96.2394
 11
83.64
 21
96.2394
  0
ENDBLK
  0
BLOCK
  8
LAYER_2
  2
AIGNBL020100E3
 70
64
 10
0
 20
0
 30
0
  3
AIGNBL020100E3
  0
LINE
  8
LAYER_2
 10
83.64
 20
96.2394
 11
82.5807
 21
96.2394
  0
ENDBLK
  0
BLOCK
  8
LAYER_2
  2
AIGNBL020100E4
 70
64
 10
0
 20
0
 30
0
  3
AIGNBL020100E4
  0
LINE
  8
LAYER_2
 10
82.5807
 20
96.2394
 11
81.522
 21
96.2394
  0
ENDBLK
  0
BLOCK
  8
LAYER_2
  2
AIGNBL020100E5
 70
64
 10
0
 20
0
 30
0
  3
AIGNBL020100E5
  0
LINE
  8
LAYER_2
 10
81.522
 20
96.2394
 11
80.4636
 21
96.2394
  0
ENDBLK
  0
BLOCK
  8
LAYER_2
  2
AIGNBL020100E6
 70
64
 10
0
 20
0
 30
0
  3
AIGNBL020100E6
  0
LINE
  8
LAYER_2
 10
80.4636
 20
96.2394
 11
79.3691
 21
96.2394
  0
ENDBLK
  0
BLOCK
  8
LAYER_2
  2
AIGNBL020100E7
 70
64
 10
0
 20
0
 30
0
  3
AIGNBL020100E7
  0
LINE
  8
LAYER_2
 10
79.3691
 20
96.2394
 11
78.3101
 21
96.2394
  0
ENDBLK
  0
BLOCK
  8
LAYER_2
  2
AIGNBL020100E8
 70
64
 10
0
 20
0
 30
0
  3
AIGNBL020100E8
  0
LINE
  8
LAYER_2
 10
78.3101
 20
96.2394
 11
77.2511
 21
96.2394
  0
ENDBLK
  0
BLOCK
  8
LAYER_2
  2
AIGNBL020100E9
 70
64
 10
0
 20
0
 30
0
  3
AIGNBL020100E9
  0
LINE
  8
LAYER_2
 10
77.2511
 20
96.2394
 11
76.1924
 21
96.2394
  0
ENDBLK
  0
BLOCK
  8
LAYER_2
  2
AIGNBL020100EA
 70
64
 10
0
 20
0
 30
0
  3
AIGNBL020100EA
  0
LINE
  8
LAYER_2
 10
76.1924
 20
96.2394
 11
75.1689
 21
96.2394
  0
ENDBLK
  0
BLOCK
  8
LAYER_2
  2
AIGNBL020100EB
 70
64
 10
0
 20
0
 30
0
  3
AIGNBL020100EB
  0
LINE
  8
LAYER_2
 10
75.1689
 20
96.2394
 11
74.1105
 21
96.2394
  0
ENDBLK
  0
BLOCK
  8
LAYER_2
  2
AIGNBL020100EC
 70
64
 10
0
 20
0
 30
0
  3
AIGNBL020100EC
  0
LINE
  8
LAYER_2
 10
74.1105
 20
96.2394
 11
73.0867
 21
96.2394
  0
ENDBLK
  0
BLOCK
  8
LAYER_2
  2
AIGNBL020100ED
 70
64
 10
0
 20
0
 30
0
  3
AIGNBL020100ED
  0
LINE
  8
LAYER_2
 10
73.0867
 20
96.2394
 11
72.0628
 21
96.2394
  0
ENDBLK
  0
BLOCK
  8
LAYER_2
  2
AIGNBL020100EE
 70
64
 10
0
 20
0
 30
0
  3
AIGNBL020100EE
  0
LINE
  8
LAYER_2
 10
72.0628
 20
96.2394
 11
71.0396
 21
96.2394
  0
ENDBLK
  0
BLOCK
  8
LAYER_2
  2
AIGNBL020100EF
 70
64
 10
0
 20
0
 30
0
  3
AIGNBL020100EF
  0
LINE
  8
LAYER_2
 10
71.0396
 20
96.2394
 11
70.0508
 21
96.2394
  0
ENDBLK
  0
BLOCK
  8
LAYER_2
  2
AIGNBL020100F0
 70
64
 10
0
 20
0
 30
0
  3
AIGNBL020100F0
  0
LINE
  8
LAYER_2
 10
70.0508
 20
96.2394
 11
69.0628
 21
96.2394
  0
ENDBLK
  0
BLOCK
  8
LAYER_2
  2
AIGNBL020100F1
 70
64
 10
0
 20
0
 30
0
  3
AIGNBL020100F1
  0
LINE
  8
LAYER_2
 10
69.0628
 20
96.2394
 11
68.0747
 21
96.2394
  0
ENDBLK
  0
BLOCK
  8
LAYER_2
  2
AIGNBL020100F2
 70
64
 10
0
 20
0
 30
0
  3
AIGNBL020100F2
  0
LINE
  8
LAYER_2
 10
68.0747
 20
96.2394
 11
67.157
 21
96.2394
  0
ENDBLK
  0
BLOCK
  8
LAYER_2
  2
AIGNBL020100F3
 70
64
 10
0
 20
0
 30
0
  3
AIGNBL020100F3
  0
LINE
  8
LAYER_2
 10
67.157
 20
96.2394
 11
66.204
 21
96.2394
  0
ENDBLK
  0
BLOCK
  8
LAYER_2
  2
AIGNBL020100F4
 70
64
 10
0
 20
0
 30
0
  3
AIGNBL020100F4
  0
LINE
  8
LAYER_2
 10
66.204
 20
96.2394
 11
65.3221
 21
96.2394
  0
ENDBLK
  0
BLOCK
  8
LAYER_2
  2
AIGNBL020100F5
 70
64
 10
0
 20
0
 30
0
  3
AIGNBL020100F5
  0
LINE
  8
LAYER_2
 10
65.3221
 20
96.2394
 11
64.4395
 21
96.2394
  0
ENDBLK
  0
BLOCK
  8
LAYER_2
  2
AIGNBL020100F6
 70
64
 10
0
 20
0
 30
0
  3
AIGNBL020100F6
  0
LINE
  8
LAYER_2
 10
64.4395
 20
96.2394
 11
63.5568
 21
96.2394
  0
ENDBLK
  0
BLOCK
  8
LAYER_2
  2
AIGNBL020100F7
 70
64
 10
0
 20
0
 30
0
  3
AIGNBL020100F7
  0
LINE
  8
LAYER_2
 10
63.5568
 20
96.2394
 11
62.7452
 21
96.2394
  0
ENDBLK
  0
BLOCK
  8
LAYER_2
  2
AIGNBL020100F8
 70
64
 10
0
 20
0
 30
0
  3
AIGNBL020100F8
  0
LINE
  8
LAYER_2
 10
62.7452
 20
96.2394
 11
61.9332
 21
96.2394
  0
ENDBLK
  0
BLOCK
  8
LAYER_2
  2
AIGNBL020100F9
 70
64
 10
0
 20
0
 30
0
  3
AIGNBL020100F9
  0
LINE
  8
LAYER_2
 10
61.9332
 20
96.2394
 11
61.157
 21
96.2394
  0
ENDBLK
  0
BLOCK
  8
LAYER_2
  2
AIGNBL020100FA
 70
64
 10
0
 20
0
 30
0
  3
AIGNBL020100FA
  0
LINE
  8
LAYER_2
 10
61.157
 20
96.2394
 11
60.3805
 21
96.2394
  0
ENDBLK
  0
BLOCK
  8
LAYER_2
  2
AIGNBL020100FB
 70
64
 10
0
 20
0
 30
0
  3
AIGNBL020100FB
  0
LINE
  8
LAYER_2
 10
60.3805
 20
96.2394
 11
59.6742
 21
96.2394
  0
ENDBLK
  0
BLOCK
  8
LAYER_2
  2
AIGNBL020100FC
 70
64
 10
0
 20
0
 30
0
  3
AIGNBL020100FC
  0
LINE
  8
LAYER_2
 10
59.6742
 20
96.2394
 11
59.0038
 21
96.2394
  0
ENDBLK
  0
BLOCK
  8
LAYER_2
  2
AIGNBL020100FD
 70
64
 10
0
 20
0
 30
0
  3
AIGNBL020100FD
  0
LINE
  8
LAYER_2
 10
59.0038
 20
96.2394
 11
58.333
 21
96.2394
  0
ENDBLK
  0
BLOCK
  8
LAYER_2
  2
AIGNBL020100FE
 70
64
 10
0
 20
0
 30
0
  3
AIGNBL020100FE
  0
LINE
  8
LAYER_2
 10
58.333
 20
96.2394
 11
57.6981
 21
96.2394
  0
ENDBLK
  0
BLOCK
  8
LAYER_2
  2
AIGNBL020100FF
 70
64
 10
0
 20
0
 30
0
  3
AIGNBL020100FF
  0
LINE
  8
LAYER_2
 10
57.6981
 20
96.2394
 11
57.1331
 21
96.2394
  0
ENDBLK
  0
BLOCK
  8
LAYER_2
  2
AIGNBL02010100
 70
64
 10
0
 20
0
 30
0
  3
AIGNBL02010100
  0
LINE
  8
LAYER_2
 10
57.1331
 20
96.2394
 11
56.5681
 21
96.2394
  0
ENDBLK
  0
BLOCK
  8
LAYER_2
  2
AIGNBL02010101
 70
64
 10
0
 20
0
 30
0
  3
AIGNBL02010101
  0
LINE
  8
LAYER_2
 10
56.5681
 20
96.2394
 11
56.0741
 21
96.2394
  0
ENDBLK
  0
BLOCK
  8
LAYER_2
  2
AIGNBL02010102
 70
64
 10
0
 20
0
 30
0
  3
AIGNBL02010102
  0
LINE
  8
LAYER_2
 10
56.0741
 20
96.2394
 11
55.5804
 21
96.2394
  0
ENDBLK
  0
BLOCK
  8
LAYER_2
  2
AIGNBL02010103
 70
64
 10
0
 20
0
 30
0
  3
AIGNBL02010103
  0
LINE
  8
LAYER_2
 10
55.5804
 20
96.2394
 11
55.1567
 21
96.2394
  0
ENDBLK
  0
BLOCK
  8
LAYER_2
  2
AIGNBL02010104
 70
64
 10
0
 20
0
 30
0
  3
AIGNBL02010104
  0
LINE
  8
LAYER_2
 10
55.1567
 20
96.2394
 11
54.7334
 21
96.2394
  0
ENDBLK
  0
BLOCK
  8
LAYER_2
  2
AIGNBL02010105
 70
64
 10
0
 20
0
 30
0
  3
AIGNBL02010105
  0
LINE
  8
LAYER_2
 10
54.7334
 20
96.2394
 11
54.3803
 21
96.2394
  0
ENDBLK
  0
BLOCK
  8
LAYER_2
  2
AIGNBL02010106
 70
64
 10
0
 20
0
 30
0
  3
AIGNBL02010106
  0
LINE
  8
LAYER_2
 10
54.3803
 20
96.2394
 11
54.0623
 21
96.2394
  0
ENDBLK
  0
BLOCK
  8
LAYER_2
  2
AIGNBL02010107
 70
64
 10
0
 20
0
 30
0
  3
AIGNBL02010107
  0
LINE
  8
LAYER_2
 10
54.0623
 20
96.2394
 11
53.7803
 21
96.2394
  0
ENDBLK
  0
BLOCK
  8
LAYER_2
  2
AIGNBL02010108
 70
64
 10
0
 20
0
 30
0
  3
AIGNBL02010108
  0
LINE
  8
LAYER_2
 10
53.7803
 20
96.2394
 11
53.568
 21
96.2394
  0
ENDBLK
  0
BLOCK
  8
LAYER_2
  2
AIGNBL02010109
 70
64
 10
0
 20
0
 30
0
  3
AIGNBL02010109
  0
LINE
  8
LAYER_2
 10
53.568
 20
96.2394
 11
53.3566
 21
96.2394
  0
ENDBLK
  0
BLOCK
  8
LAYER_2
  2
AIGNBL0201010A
 70
64
 10
0
 20
0
 30
0
  3
AIGNBL0201010A
  0
LINE
  8
LAYER_2
 10
53.3566
 20
96.2394
 11
53.2154
 21
96.2394
  0
ENDBLK
  0
BLOCK
  8
LAYER_2
  2
AIGNBL0201010B
 70
64
 10
0
 20
0
 30
0
  3
AIGNBL0201010B
  0
LINE
  8
LAYER_2
 10
53.2154
 20
96.2394
 11
53.0741
 21
96.2394
  0
ENDBLK
  0
BLOCK
  8
LAYER_2
  2
AIGNBL0201010C
 70
64
 10
0
 20
0
 30
0
  3
AIGNBL0201010C
  0
LINE
  8
LAYER_2
 10
50.2862
 20
82.3488
 11
52.6154
 21
79.9903
  0
ENDBLK
  0
BLOCK
  8
LAYER_2
  2
AIGNBL0201010D
 70
64
 10
0
 20
0
 30
0
  3
AIGNBL0201010D
  0
LINE
  8
LAYER_2
 10
50.2509
 20
82.4901
 11
50.2509
 21
82.4549
  0
ENDBLK
  0
BLOCK
  8
LAYER_2
  2
AIGNBL0201010E
 70
64
 10
0
 20
0
 30
0
  3
AIGNBL0201010E
  0
LINE
  8
LAYER_2
 10
50.2509
 20
82.4549
 11
50.2509
 21
82.4191
  0
ENDBLK
  0
BLOCK
  8
LAYER_2
  2
AIGNBL0201010F
 70
64
 10
0
 20
0
 30
0
  3
AIGNBL0201010F
  0
LINE
  8
LAYER_2
 10
50.2509
 20
82.4191
 11
50.2862
 21
82.3488
  0
ENDBLK
  0
BLOCK
  8
LAYER_2
  2
AIGNBL02010110
 70
64
 10
0
 20
0
 30
0
  3
AIGNBL02010110
  0
LINE
  8
LAYER_2
 10
50.2862
 20
82.3488
 11
50.3215
 21
82.3143
  0
ENDBLK
  0
BLOCK
  8
LAYER_2
  2
AIGNBL02010111
 70
64
 10
0
 20
0
 30
0
  3
AIGNBL02010111
  0
LINE
  8
LAYER_2
 10
50.4271
 20
91.7015
 11
50.3916
 21
91.49
  0
ENDBLK
  0
BLOCK
  8
LAYER_2
  2
AIGNBL02010112
 70
64
 10
0
 20
0
 30
0
  3
AIGNBL02010112
  0
LINE
  8
LAYER_2
 10
50.3916
 20
91.49
 11
50.2509
 21
82.4901
  0
ENDBLK
  0
BLOCK
  8
LAYER_2
  2
AIGNBL02010113
 70
64
 10
0
 20
0
 30
0
  3
AIGNBL02010113
  0
LINE
  8
LAYER_2
 10
53.0741
 20
96.2394
 11
52.7921
 21
96.2394
  0
ENDBLK
  0
BLOCK
  8
LAYER_2
  2
AIGNBL02010114
 70
64
 10
0
 20
0
 30
0
  3
AIGNBL02010114
  0
LINE
  8
LAYER_2
 10
52.7921
 20
96.2394
 11
52.5803
 21
96.2394
  0
ENDBLK
  0
BLOCK
  8
LAYER_2
  2
AIGNBL02010115
 70
64
 10
0
 20
0
 30
0
  3
AIGNBL02010115
  0
LINE
  8
LAYER_2
 10
52.5803
 20
96.2394
 11
52.4741
 21
96.2394
  0
ENDBLK
  0
BLOCK
  8
LAYER_2
  2
AIGNBL02010116
 70
64
 10
0
 20
0
 30
0
  3
AIGNBL02010116
  0
LINE
  8
LAYER_2
 10
52.4741
 20
96.2394
 11
52.4035
 21
96.2394
  0
ENDBLK
  0
BLOCK
  8
LAYER_2
  2
AIGNBL02010117
 70
64
 10
0
 20
0
 30
0
  3
AIGNBL02010117
  0
LINE
  8
LAYER_2
 10
52.4035
 20
96.2394
 11
52.2271
 21
96.1685
  0
ENDBLK
  0
BLOCK
  8
LAYER_2
  2
AIGNBL02010118
 70
64
 10
0
 20
0
 30
0
  3
AIGNBL02010118
  0
LINE
  8
LAYER_2
 10
52.2271
 20
96.1685
 11
52.0156
 21
96.063
  0
ENDBLK
  0
BLOCK
  8
LAYER_2
  2
AIGNBL02010119
 70
64
 10
0
 20
0
 30
0
  3
AIGNBL02010119
  0
LINE
  8
LAYER_2
 10
52.0156
 20
96.063
 11
51.8743
 21
95.9218
  0
ENDBLK
  0
BLOCK
  8
LAYER_2
  2
AIGNBL0201011A
 70
64
 10
0
 20
0
 30
0
  3
AIGNBL0201011A
  0
LINE
  8
LAYER_2
 10
51.8743
 20
95.9218
 11
51.7331
 21
95.6049
  0
ENDBLK
  0
BLOCK
  8
LAYER_2
  2
AIGNBL0201011B
 70
64
 10
0
 20
0
 30
0
  3
AIGNBL0201011B
  0
LINE
  8
LAYER_2
 10
51.7331
 20
95.6049
 11
51.6272
 21
95.2879
  0
ENDBLK
  0
BLOCK
  8
LAYER_2
  2
AIGNBL0201011C
 70
64
 10
0
 20
0
 30
0
  3
AIGNBL0201011C
  0
LINE
  8
LAYER_2
 10
51.6272
 20
95.2879
 11
51.5212
 21
94.9351
  0
ENDBLK
  0
BLOCK
  8
LAYER_2
  2
AIGNBL0201011D
 70
64
 10
0
 20
0
 30
0
  3
AIGNBL0201011D
  0
LINE
  8
LAYER_2
 10
51.5212
 20
94.9351
 11
51.38
 21
94.5479
  0
ENDBLK
  0
BLOCK
  8
LAYER_2
  2
AIGNBL0201011E
 70
64
 10
0
 20
0
 30
0
  3
AIGNBL0201011E
  0
LINE
  8
LAYER_2
 10
51.38
 20
94.5479
 11
51.0978
 21
93.6673
  0
ENDBLK
  0
BLOCK
  8
LAYER_2
  2
AIGNBL0201011F
 70
64
 10
0
 20
0
 30
0
  3
AIGNBL0201011F
  0
LINE
  8
LAYER_2
 10
51.0978
 20
93.6673
 11
50.78
 21
92.7578
  0
ENDBLK
  0
BLOCK
  8
LAYER_2
  2
AIGNBL02010120
 70
64
 10
0
 20
0
 30
0
  3
AIGNBL02010120
  0
LINE
  8
LAYER_2
 10
50.78
 20
92.7578
 11
50.4271
 21
91.7015
  0
ENDBLK
  0
BLOCK
  8
LAYER_2
  2
AIGNBL02010121
 70
64
 10
0
 20
0
 30
0
  3
AIGNBL02010121
  0
LINE
  8
LAYER_2
 10
73.9879
 20
79.9903
 11
74.0585
 21
79.9538
  0
ENDBLK
  0
BLOCK
  8
LAYER_2
  2
AIGNBL02010122
 70
64
 10
0
 20
0
 30
0
  3
AIGNBL02010122
  0
LINE
  8
LAYER_2
 10
74.0585
 20
79.9538
 11
74.1998
 21
79.8139
  0
ENDBLK
  0
BLOCK
  8
LAYER_2
  2
AIGNBL02010123
 70
64
 10
0
 20
0
 30
0
  3
AIGNBL02010123
  0
LINE
  8
LAYER_2
 10
74.1998
 20
79.8139
 11
74.3407
 21
79.6382
  0
ENDBLK
  0
BLOCK
  8
LAYER_2
  2
AIGNBL02010124
 70
64
 10
0
 20
0
 30
0
  3
AIGNBL02010124
  0
LINE
  8
LAYER_2
 10
74.3407
 20
79.6382
 11
74.411
 21
79.426
  0
ENDBLK
  0
BLOCK
  8
LAYER_2
  2
AIGNBL02010125
 70
64
 10
0
 20
0
 30
0
  3
AIGNBL02010125
  0
LINE
  8
LAYER_2
 10
74.411
 20
79.426
 11
74.4819
 21
79.2144
  0
ENDBLK
  0
BLOCK
  8
LAYER_2
  2
AIGNBL02010126
 70
64
 10
0
 20
0
 30
0
  3
AIGNBL02010126
  0
LINE
  8
LAYER_2
 10
74.4819
 20
79.2144
 11
75.1875
 21
75.2402
  0
ENDBLK
  0
BLOCK
  8
LAYER_2
  2
AIGNBL02010127
 70
64
 10
0
 20
0
 30
0
  3
AIGNBL02010127
  0
LINE
  8
LAYER_2
 10
50.8508
 20
82.4901
 11
50.9566
 21
82.4901
  0
ENDBLK
  0
BLOCK
  8
LAYER_2
  2
AIGNBL02010128
 70
64
 10
0
 20
0
 30
0
  3
AIGNBL02010128
  0
LINE
  8
LAYER_2
 10
50.9566
 20
82.4901
 11
51.1333
 21
82.4901
  0
ENDBLK
  0
BLOCK
  8
LAYER_2
  2
AIGNBL02010129
 70
64
 10
0
 20
0
 30
0
  3
AIGNBL02010129
  0
LINE
  8
LAYER_2
 10
51.1333
 20
82.4901
 11
51.3093
 21
82.4901
  0
ENDBLK
  0
BLOCK
  8
LAYER_2
  2
AIGNBL0201012A
 70
64
 10
0
 20
0
 30
0
  3
AIGNBL0201012A
  0
LINE
  8
LAYER_2
 10
51.3093
 20
82.4901
 11
51.5565
 21
82.4901
  0
ENDBLK
  0
BLOCK
  8
LAYER_2
  2
AIGNBL0201012B
 70
64
 10
0
 20
0
 30
0
  3
AIGNBL0201012B
  0
LINE
  8
LAYER_2
 10
51.5565
 20
82.4901
 11
51.8385
 21
82.4901
  0
ENDBLK
  0
BLOCK
  8
LAYER_2
  2
AIGNBL0201012C
 70
64
 10
0
 20
0
 30
0
  3
AIGNBL0201012C
  0
LINE
  8
LAYER_2
 10
51.8385
 20
82.4901
 11
52.1916
 21
82.4901
  0
ENDBLK
  0
BLOCK
  8
LAYER_2
  2
AIGNBL0201012D
 70
64
 10
0
 20
0
 30
0
  3
AIGNBL0201012D
  0
LINE
  8
LAYER_2
 10
52.1916
 20
82.4901
 11
52.5448
 21
82.4901
  0
ENDBLK
  0
BLOCK
  8
LAYER_2
  2
AIGNBL0201012E
 70
64
 10
0
 20
0
 30
0
  3
AIGNBL0201012E
  0
LINE
  8
LAYER_2
 10
52.5448
 20
82.4901
 11
52.9334
 21
82.4901
  0
ENDBLK
  0
BLOCK
  8
LAYER_2
  2
AIGNBL0201012F
 70
64
 10
0
 20
0
 30
0
  3
AIGNBL0201012F
  0
LINE
  8
LAYER_2
 10
52.9334
 20
82.4901
 11
53.3919
 21
82.4901
  0
ENDBLK
  0
BLOCK
  8
LAYER_2
  2
AIGNBL02010130
 70
64
 10
0
 20
0
 30
0
  3
AIGNBL02010130
  0
LINE
  8
LAYER_2
 10
53.3919
 20
82.4901
 11
53.886
 21
82.4901
  0
ENDBLK
  0
BLOCK
  8
LAYER_2
  2
AIGNBL02010131
 70
64
 10
0
 20
0
 30
0
  3
AIGNBL02010131
  0
LINE
  8
LAYER_2
 10
53.886
 20
82.4901
 11
54.3803
 21
82.4901
  0
ENDBLK
  0
BLOCK
  8
LAYER_2
  2
AIGNBL02010132
 70
64
 10
0
 20
0
 30
0
  3
AIGNBL02010132
  0
LINE
  8
LAYER_2
 10
54.3803
 20
82.4901
 11
54.9448
 21
82.4901
  0
ENDBLK
  0
BLOCK
  8
LAYER_2
  2
AIGNBL02010133
 70
64
 10
0
 20
0
 30
0
  3
AIGNBL02010133
  0
LINE
  8
LAYER_2
 10
54.9448
 20
82.4901
 11
55.5451
 21
82.4901
  0
ENDBLK
  0
BLOCK
  8
LAYER_2
  2
AIGNBL02010134
 70
64
 10
0
 20
0
 30
0
  3
AIGNBL02010134
  0
LINE
  8
LAYER_2
 10
55.5451
 20
82.4901
 11
56.1799
 21
82.4901
  0
ENDBLK
  0
BLOCK
  8
LAYER_2
  2
AIGNBL02010135
 70
64
 10
0
 20
0
 30
0
  3
AIGNBL02010135
  0
LINE
  8
LAYER_2
 10
56.1799
 20
82.4901
 11
56.8506
 21
82.4901
  0
ENDBLK
  0
BLOCK
  8
LAYER_2
  2
AIGNBL02010136
 70
64
 10
0
 20
0
 30
0
  3
AIGNBL02010136
  0
LINE
  8
LAYER_2
 10
56.8506
 20
82.4901
 11
57.5211
 21
82.4901
  0
ENDBLK
  0
BLOCK
  8
LAYER_2
  2
AIGNBL02010137
 70
64
 10
0
 20
0
 30
0
  3
AIGNBL02010137
  0
LINE
  8
LAYER_2
 10
57.5211
 20
82.4901
 11
58.2631
 21
82.4901
  0
ENDBLK
  0
BLOCK
  8
LAYER_2
  2
AIGNBL02010138
 70
64
 10
0
 20
0
 30
0
  3
AIGNBL02010138
  0
LINE
  8
LAYER_2
 10
58.2631
 20
82.4901
 11
59.0393
 21
82.4901
  0
ENDBLK
  0
BLOCK
  8
LAYER_2
  2
AIGNBL02010139
 70
64
 10
0
 20
0
 30
0
  3
AIGNBL02010139
  0
LINE
  8
LAYER_2
 10
59.0393
 20
82.4901
 11
59.8155
 21
82.4901
  0
ENDBLK
  0
BLOCK
  8
LAYER_2
  2
AIGNBL0201013A
 70
64
 10
0
 20
0
 30
0
  3
AIGNBL0201013A
  0
LINE
  8
LAYER_2
 10
59.8155
 20
82.4901
 11
60.6271
 21
82.4901
  0
ENDBLK
  0
BLOCK
  8
LAYER_2
  2
AIGNBL0201013B
 70
64
 10
0
 20
0
 30
0
  3
AIGNBL0201013B
  0
LINE
  8
LAYER_2
 10
60.6271
 20
82.4901
 11
61.4739
 21
82.4901
  0
ENDBLK
  0
BLOCK
  8
LAYER_2
  2
AIGNBL0201013C
 70
64
 10
0
 20
0
 30
0
  3
AIGNBL0201013C
  0
LINE
  8
LAYER_2
 10
61.4739
 20
82.4901
 11
62.3566
 21
82.4901
  0
ENDBLK
  0
BLOCK
  8
LAYER_2
  2
AIGNBL0201013D
 70
64
 10
0
 20
0
 30
0
  3
AIGNBL0201013D
  0
LINE
  8
LAYER_2
 10
62.3566
 20
82.4901
 11
63.2744
 21
82.4901
  0
ENDBLK
  0
BLOCK
  8
LAYER_2
  2
AIGNBL0201013E
 70
64
 10
0
 20
0
 30
0
  3
AIGNBL0201013E
  0
LINE
  8
LAYER_2
 10
63.2744
 20
82.4901
 11
64.1921
 21
82.4901
  0
ENDBLK
  0
BLOCK
  8
LAYER_2
  2
AIGNBL0201013F
 70
64
 10
0
 20
0
 30
0
  3
AIGNBL0201013F
  0
LINE
  8
LAYER_2
 10
64.1921
 20
82.4901
 11
65.1454
 21
82.4901
  0
ENDBLK
  0
BLOCK
  8
LAYER_2
  2
AIGNBL02010140
 70
64
 10
0
 20
0
 30
0
  3
AIGNBL02010140
  0
LINE
  8
LAYER_2
 10
65.1454
 20
82.4901
 11
66.0983
 21
82.4901
  0
ENDBLK
  0
BLOCK
  8
LAYER_2
  2
AIGNBL02010141
 70
64
 10
0
 20
0
 30
0
  3
AIGNBL02010141
  0
LINE
  8
LAYER_2
 10
66.0983
 20
82.4901
 11
67.0867
 21
82.4901
  0
ENDBLK
  0
BLOCK
  8
LAYER_2
  2
AIGNBL02010142
 70
64
 10
0
 20
0
 30
0
  3
AIGNBL02010142
  0
LINE
  8
LAYER_2
 10
67.0867
 20
82.4901
 11
68.1099
 21
82.4901
  0
ENDBLK
  0
BLOCK
  8
LAYER_2
  2
AIGNBL02010143
 70
64
 10
0
 20
0
 30
0
  3
AIGNBL02010143
  0
LINE
  8
LAYER_2
 10
68.1099
 20
82.4901
 11
69.1334
 21
82.4901
  0
ENDBLK
  0
BLOCK
  8
LAYER_2
  2
AIGNBL02010144
 70
64
 10
0
 20
0
 30
0
  3
AIGNBL02010144
  0
LINE
  8
LAYER_2
 10
69.1334
 20
82.4901
 11
70.157
 21
82.4901
  0
ENDBLK
  0
BLOCK
  8
LAYER_2
  2
AIGNBL02010145
 70
64
 10
0
 20
0
 30
0
  3
AIGNBL02010145
  0
LINE
  8
LAYER_2
 10
70.157
 20
82.4901
 11
71.216
 21
82.4901
  0
ENDBLK
  0
BLOCK
  8
LAYER_2
  2
AIGNBL02010146
 70
64
 10
0
 20
0
 30
0
  3
AIGNBL02010146
  0
LINE
  8
LAYER_2
 10
71.216
 20
82.4901
 11
72.275
 21
82.4901
  0
ENDBLK
  0
BLOCK
  8
LAYER_2
  2
AIGNBL02010147
 70
64
 10
0
 20
0
 30
0
  3
AIGNBL02010147
  0
LINE
  8
LAYER_2
 10
72.275
 20
82.4901
 11
73.3685
 21
82.4901
  0
ENDBLK
  0
BLOCK
  8
LAYER_2
  2
AIGNBL02010148
 70
64
 10
0
 20
0
 30
0
  3
AIGNBL02010148
  0
LINE
  8
LAYER_2
 10
73.3685
 20
82.4901
 11
74.4633
 21
82.4901
  0
ENDBLK
  0
BLOCK
  8
LAYER_2
  2
AIGNBL02010149
 70
64
 10
0
 20
0
 30
0
  3
AIGNBL02010149
  0
LINE
  8
LAYER_2
 10
74.4633
 20
82.4901
 11
75.5575
 21
82.4901
  0
ENDBLK
  0
BLOCK
  8
LAYER_2
  2
AIGNBL0201014A
 70
64
 10
0
 20
0
 30
0
  3
AIGNBL0201014A
  0
LINE
  8
LAYER_2
 10
75.5575
 20
82.4901
 11
76.6517
 21
82.4901
  0
ENDBLK
  0
BLOCK
  8
LAYER_2
  2
AIGNBL0201014B
 70
64
 10
0
 20
0
 30
0
  3
AIGNBL0201014B
  0
LINE
  8
LAYER_2
 10
76.6517
 20
82.4901
 11
77.7451
 21
82.4901
  0
ENDBLK
  0
BLOCK
  8
LAYER_2
  2
AIGNBL0201014C
 70
64
 10
0
 20
0
 30
0
  3
AIGNBL0201014C
  0
LINE
  8
LAYER_2
 10
77.7451
 20
82.4901
 11
78.8751
 21
82.4901
  0
ENDBLK
  0
BLOCK
  8
LAYER_2
  2
AIGNBL0201014D
 70
64
 10
0
 20
0
 30
0
  3
AIGNBL0201014D
  0
LINE
  8
LAYER_2
 10
78.8751
 20
82.4901
 11
79.9693
 21
82.4901
  0
ENDBLK
  0
BLOCK
  8
LAYER_2
  2
AIGNBL0201014E
 70
64
 10
0
 20
0
 30
0
  3
AIGNBL0201014E
  0
LINE
  8
LAYER_2
 10
79.9693
 20
82.4901
 11
81.0634
 21
82.4901
  0
ENDBLK
  0
BLOCK
  8
LAYER_2
  2
AIGNBL0201014F
 70
64
 10
0
 20
0
 30
0
  3
AIGNBL0201014F
  0
LINE
  8
LAYER_2
 10
81.0634
 20
82.4901
 11
82.1927
 21
82.4901
  0
ENDBLK
  0
BLOCK
  8
LAYER_2
  2
AIGNBL02010150
 70
64
 10
0
 20
0
 30
0
  3
AIGNBL02010150
  0
LINE
  8
LAYER_2
 10
82.1927
 20
82.4901
 11
83.2872
 21
82.4901
  0
ENDBLK
  0
BLOCK
  8
LAYER_2
  2
AIGNBL02010151
 70
64
 10
0
 20
0
 30
0
  3
AIGNBL02010151
  0
LINE
  8
LAYER_2
 10
83.2872
 20
82.4901
 11
84.3811
 21
82.4901
  0
ENDBLK
  0
BLOCK
  8
LAYER_2
  2
AIGNBL02010152
 70
64
 10
0
 20
0
 30
0
  3
AIGNBL02010152
  0
LINE
  8
LAYER_2
 10
84.3811
 20
82.4901
 11
85.4752
 21
82.4901
  0
ENDBLK
  0
BLOCK
  8
LAYER_2
  2
AIGNBL02010153
 70
64
 10
0
 20
0
 30
0
  3
AIGNBL02010153
  0
LINE
  8
LAYER_2
 10
85.4752
 20
82.4901
 11
86.5687
 21
82.4901
  0
ENDBLK
  0
BLOCK
  8
LAYER_2
  2
AIGNBL02010154
 70
64
 10
0
 20
0
 30
0
  3
AIGNBL02010154
  0
LINE
  8
LAYER_2
 10
86.5687
 20
82.4901
 11
87.6281
 21
82.4901
  0
ENDBLK
  0
BLOCK
  8
LAYER_2
  2
AIGNBL02010155
 70
64
 10
0
 20
0
 30
0
  3
AIGNBL02010155
  0
LINE
  8
LAYER_2
 10
87.6281
 20
82.4901
 11
88.6867
 21
82.4901
  0
ENDBLK
  0
BLOCK
  8
LAYER_2
  2
AIGNBL02010156
 70
64
 10
0
 20
0
 30
0
  3
AIGNBL02010156
  0
LINE
  8
LAYER_2
 10
88.6867
 20
82.4901
 11
89.7461
 21
82.4901
  0
ENDBLK
  0
BLOCK
  8
LAYER_2
  2
AIGNBL02010157
 70
64
 10
0
 20
0
 30
0
  3
AIGNBL02010157
  0
LINE
  8
LAYER_2
 10
89.7461
 20
82.4901
 11
90.8048
 21
82.4901
  0
ENDBLK
  0
BLOCK
  8
LAYER_2
  2
AIGNBL02010158
 70
64
 10
0
 20
0
 30
0
  3
AIGNBL02010158
  0
LINE
  8
LAYER_2
 10
90.8048
 20
82.4901
 11
91.7928
 21
82.4901
  0
ENDBLK
  0
BLOCK
  8
LAYER_2
  2
AIGNBL02010159
 70
64
 10
0
 20
0
 30
0
  3
AIGNBL02010159
  0
LINE
  8
LAYER_2
 10
91.7928
 20
82.4901
 11
92.8164
 21
82.4901
  0
ENDBLK
  0
BLOCK
  8
LAYER_2
  2
AIGNBL0201015A
 70
64
 10
0
 20
0
 30
0
  3
AIGNBL0201015A
  0
LINE
  8
LAYER_2
 10
92.8164
 20
82.4901
 11
93.8048
 21
82.4901
  0
ENDBLK
  0
BLOCK
  8
LAYER_2
  2
AIGNBL0201015B
 70
64
 10
0
 20
0
 30
0
  3
AIGNBL0201015B
  0
LINE
  8
LAYER_2
 10
93.8048
 20
82.4901
 11
94.7577
 21
82.4901
  0
ENDBLK
  0
BLOCK
  8
LAYER_2
  2
AIGNBL0201015C
 70
64
 10
0
 20
0
 30
0
  3
AIGNBL0201015C
  0
LINE
  8
LAYER_2
 10
94.7577
 20
82.4901
 11
95.7109
 21
82.4901
  0
ENDBLK
  0
BLOCK
  8
LAYER_2
  2
AIGNBL0201015D
 70
64
 10
0
 20
0
 30
0
  3
AIGNBL0201015D
  0
LINE
  8
LAYER_2
 10
95.7109
 20
82.4901
 11
96.6284
 21
82.4901
  0
ENDBLK
  0
BLOCK
  8
LAYER_2
  2
AIGNBL0201015E
 70
64
 10
0
 20
0
 30
0
  3
AIGNBL0201015E
  0
LINE
  8
LAYER_2
 10
96.6284
 20
82.4901
 11
97.5107
 21
82.4901
  0
ENDBLK
  0
BLOCK
  8
LAYER_2
  2
AIGNBL0201015F
 70
64
 10
0
 20
0
 30
0
  3
AIGNBL0201015F
  0
LINE
  8
LAYER_2
 10
97.5107
 20
82.4901
 11
98.3933
 21
82.4901
  0
ENDBLK
  0
BLOCK
  8
LAYER_2
  2
AIGNBL02010160
 70
64
 10
0
 20
0
 30
0
  3
AIGNBL02010160
  0
LINE
  8
LAYER_2
 10
98.3933
 20
82.4901
 11
99.205
 21
82.4901
  0
ENDBLK
  0
BLOCK
  8
LAYER_2
  2
AIGNBL02010161
 70
64
 10
0
 20
0
 30
0
  3
AIGNBL02010161
  0
LINE
  8
LAYER_2
 10
99.205
 20
82.4901
 11
100.0166
 21
82.4901
  0
ENDBLK
  0
BLOCK
  8
LAYER_2
  2
AIGNBL02010162
 70
64
 10
0
 20
0
 30
0
  3
AIGNBL02010162
  0
LINE
  8
LAYER_2
 10
100.0166
 20
82.4901
 11
100.8286
 21
82.4901
  0
ENDBLK
  0
BLOCK
  8
LAYER_2
  2
AIGNBL02010163
 70
64
 10
0
 20
0
 30
0
  3
AIGNBL02010163
  0
LINE
  8
LAYER_2
 10
100.8286
 20
82.4901
 11
101.5697
 21
82.4901
  0
ENDBLK
  0
BLOCK
  8
LAYER_2
  2
AIGNBL02010164
 70
64
 10
0
 20
0
 30
0
  3
AIGNBL02010164
  0
LINE
  8
LAYER_2
 10
101.5697
 20
82.4901
 11
102.2756
 21
82.4901
  0
ENDBLK
  0
BLOCK
  8
LAYER_2
  2
AIGNBL02010165
 70
64
 10
0
 20
0
 30
0
  3
AIGNBL02010165
  0
LINE
  8
LAYER_2
 10
102.2756
 20
82.4901
 11
102.9815
 21
82.4901
  0
ENDBLK
  0
BLOCK
  8
LAYER_2
  2
AIGNBL02010166
 70
64
 10
0
 20
0
 30
0
  3
AIGNBL02010166
  0
LINE
  8
LAYER_2
 10
102.9815
 20
82.4901
 11
103.6164
 21
82.4901
  0
ENDBLK
  0
BLOCK
  8
LAYER_2
  2
AIGNBL02010167
 70
64
 10
0
 20
0
 30
0
  3
AIGNBL02010167
  0
LINE
  8
LAYER_2
 10
103.6164
 20
82.4901
 11
104.2513
 21
82.4901
  0
ENDBLK
  0
BLOCK
  8
LAYER_2
  2
AIGNBL02010168
 70
64
 10
0
 20
0
 30
0
  3
AIGNBL02010168
  0
LINE
  8
LAYER_2
 10
104.2513
 20
82.4901
 11
104.8167
 21
82.4901
  0
ENDBLK
  0
BLOCK
  8
LAYER_2
  2
AIGNBL02010169
 70
64
 10
0
 20
0
 30
0
  3
AIGNBL02010169
  0
LINE
  8
LAYER_2
 10
104.8167
 20
82.4901
 11
105.3817
 21
82.4901
  0
ENDBLK
  0
BLOCK
  8
LAYER_2
  2
AIGNBL0201016A
 70
64
 10
0
 20
0
 30
0
  3
AIGNBL0201016A
  0
LINE
  8
LAYER_2
 10
105.3817
 20
82.4901
 11
105.8757
 21
82.4901
  0
ENDBLK
  0
BLOCK
  8
LAYER_2
  2
AIGNBL0201016B
 70
64
 10
0
 20
0
 30
0
  3
AIGNBL0201016B
  0
LINE
  8
LAYER_2
 10
105.8757
 20
82.4901
 11
106.3697
 21
82.4901
  0
ENDBLK
  0
BLOCK
  8
LAYER_2
  2
AIGNBL0201016C
 70
64
 10
0
 20
0
 30
0
  3
AIGNBL0201016C
  0
LINE
  8
LAYER_2
 10
106.3697
 20
82.4901
 11
106.7935
 21
82.4901
  0
ENDBLK
  0
BLOCK
  8
LAYER_2
  2
AIGNBL0201016D
 70
64
 10
0
 20
0
 30
0
  3
AIGNBL0201016D
  0
LINE
  8
LAYER_2
 10
106.7935
 20
82.4901
 11
107.1814
 21
82.4901
  0
ENDBLK
  0
BLOCK
  8
LAYER_2
  2
AIGNBL0201016E
 70
64
 10
0
 20
0
 30
0
  3
AIGNBL0201016E
  0
LINE
  8
LAYER_2
 10
107.1814
 20
82.4901
 11
107.5356
 21
82.4901
  0
ENDBLK
  0
BLOCK
  8
LAYER_2
  2
AIGNBL0201016F
 70
64
 10
0
 20
0
 30
0
  3
AIGNBL0201016F
  0
LINE
  8
LAYER_2
 10
107.5356
 20
82.4901
 11
107.8525
 21
82.4901
  0
ENDBLK
  0
BLOCK
  8
LAYER_2
  2
AIGNBL02010170
 70
64
 10
0
 20
0
 30
0
  3
AIGNBL02010170
  0
LINE
  8
LAYER_2
 10
107.8525
 20
82.4901
 11
108.1346
 21
82.4901
  0
ENDBLK
  0
BLOCK
  8
LAYER_2
  2
AIGNBL02010171
 70
64
 10
0
 20
0
 30
0
  3
AIGNBL02010171
  0
LINE
  8
LAYER_2
 10
108.1346
 20
82.4901
 11
108.3465
 21
82.4901
  0
ENDBLK
  0
BLOCK
  8
LAYER_2
  2
AIGNBL02010172
 70
64
 10
0
 20
0
 30
0
  3
AIGNBL02010172
  0
LINE
  8
LAYER_2
 10
108.3465
 20
82.4901
 11
108.5588
 21
82.4901
  0
ENDBLK
  0
BLOCK
  8
LAYER_2
  2
AIGNBL02010173
 70
64
 10
0
 20
0
 30
0
  3
AIGNBL02010173
  0
LINE
  8
LAYER_2
 10
108.5588
 20
82.4901
 11
108.6997
 21
82.4901
  0
ENDBLK
  0
BLOCK
  8
LAYER_2
  2
AIGNBL02010174
 70
64
 10
0
 20
0
 30
0
  3
AIGNBL02010174
  0
LINE
  8
LAYER_2
 10
108.6997
 20
82.4901
 11
108.8047
 21
82.4901
  0
ENDBLK
  0
BLOCK
  8
LAYER_2
  2
AIGNBL02010175
 70
64
 10
0
 20
0
 30
0
  3
AIGNBL02010175
  0
LINE
  8
LAYER_2
 10
108.8047
 20
82.4901
 11
108.8757
 21
82.4901
  0
ENDBLK
  0
BLOCK
  8
LAYER_2
  2
AIGNBL02010176
 70
64
 10
0
 20
0
 30
0
  3
AIGNBL02010176
  0
LINE
  8
LAYER_2
 10
108.8047
 20
82.3143
 11
108.8405
 21
82.3488
  0
ENDBLK
  0
BLOCK
  8
LAYER_2
  2
AIGNBL02010177
 70
64
 10
0
 20
0
 30
0
  3
AIGNBL02010177
  0
LINE
  8
LAYER_2
 10
108.8405
 20
82.3488
 11
108.8405
 21
82.3839
  0
ENDBLK
  0
BLOCK
  8
LAYER_2
  2
AIGNBL02010178
 70
64
 10
0
 20
0
 30
0
  3
AIGNBL02010178
  0
LINE
  8
LAYER_2
 10
108.8405
 20
82.3839
 11
108.8757
 21
82.4191
  0
ENDBLK
  0
BLOCK
  8
LAYER_2
  2
AIGNBL02010179
 70
64
 10
0
 20
0
 30
0
  3
AIGNBL02010179
  0
LINE
  8
LAYER_2
 10
108.8757
 20
82.4191
 11
108.8757
 21
82.4549
  0
ENDBLK
  0
BLOCK
  8
LAYER_2
  2
AIGNBL0201017A
 70
64
 10
0
 20
0
 30
0
  3
AIGNBL0201017A
  0
LINE
  8
LAYER_2
 10
108.8757
 20
82.4549
 11
108.8757
 21
82.4901
  0
ENDBLK
  0
BLOCK
  8
LAYER_2
  2
AIGNBL0201017B
 70
64
 10
0
 20
0
 30
0
  3
AIGNBL0201017B
  0
LINE
  8
LAYER_2
 10
50.9921
 20
91.49
 11
51.1333
 21
91.49
  0
ENDBLK
  0
BLOCK
  8
LAYER_2
  2
AIGNBL0201017C
 70
64
 10
0
 20
0
 30
0
  3
AIGNBL0201017C
  0
LINE
  8
LAYER_2
 10
51.1333
 20
91.49
 11
51.2741
 21
91.49
  0
ENDBLK
  0
BLOCK
  8
LAYER_2
  2
AIGNBL0201017D
 70
64
 10
0
 20
0
 30
0
  3
AIGNBL0201017D
  0
LINE
  8
LAYER_2
 10
51.2741
 20
91.49
 11
51.4859
 21
91.49
  0
ENDBLK
  0
BLOCK
  8
LAYER_2
  2
AIGNBL0201017E
 70
64
 10
0
 20
0
 30
0
  3
AIGNBL0201017E
  0
LINE
  8
LAYER_2
 10
51.4859
 20
91.49
 11
51.7331
 21
91.49
  0
ENDBLK
  0
BLOCK
  8
LAYER_2
  2
AIGNBL0201017F
 70
64
 10
0
 20
0
 30
0
  3
AIGNBL0201017F
  0
LINE
  8
LAYER_2
 10
51.7331
 20
91.49
 11
52.0156
 21
91.49
  0
ENDBLK
  0
BLOCK
  8
LAYER_2
  2
AIGNBL02010180
 70
64
 10
0
 20
0
 30
0
  3
AIGNBL02010180
  0
LINE
  8
LAYER_2
 10
52.0156
 20
91.49
 11
52.3329
 21
91.49
  0
ENDBLK
  0
BLOCK
  8
LAYER_2
  2
AIGNBL02010181
 70
64
 10
0
 20
0
 30
0
  3
AIGNBL02010181
  0
LINE
  8
LAYER_2
 10
52.3329
 20
91.49
 11
52.6857
 21
91.49
  0
ENDBLK
  0
BLOCK
  8
LAYER_2
  2
AIGNBL02010182
 70
64
 10
0
 20
0
 30
0
  3
AIGNBL02010182
  0
LINE
  8
LAYER_2
 10
52.6857
 20
91.49
 11
53.1094
 21
91.49
  0
ENDBLK
  0
BLOCK
  8
LAYER_2
  2
AIGNBL02010183
 70
64
 10
0
 20
0
 30
0
  3
AIGNBL02010183
  0
LINE
  8
LAYER_2
 10
53.1094
 20
91.49
 11
53.5328
 21
91.49
  0
ENDBLK
  0
BLOCK
  8
LAYER_2
  2
AIGNBL02010184
 70
64
 10
0
 20
0
 30
0
  3
AIGNBL02010184
  0
LINE
  8
LAYER_2
 10
53.5328
 20
91.49
 11
54.0272
 21
91.49
  0
ENDBLK
  0
BLOCK
  8
LAYER_2
  2
AIGNBL02010185
 70
64
 10
0
 20
0
 30
0
  3
AIGNBL02010185
  0
LINE
  8
LAYER_2
 10
54.0272
 20
91.49
 11
54.5216
 21
91.49
  0
ENDBLK
  0
BLOCK
  8
LAYER_2
  2
AIGNBL02010186
 70
64
 10
0
 20
0
 30
0
  3
AIGNBL02010186
  0
LINE
  8
LAYER_2
 10
54.5216
 20
91.49
 11
55.086
 21
91.49
  0
ENDBLK
  0
BLOCK
  8
LAYER_2
  2
AIGNBL02010187
 70
64
 10
0
 20
0
 30
0
  3
AIGNBL02010187
  0
LINE
  8
LAYER_2
 10
55.086
 20
91.49
 11
55.6862
 21
91.49
  0
ENDBLK
  0
BLOCK
  8
LAYER_2
  2
AIGNBL02010188
 70
64
 10
0
 20
0
 30
0
  3
AIGNBL02010188
  0
LINE
  8
LAYER_2
 10
55.6862
 20
91.49
 11
56.2863
 21
91.49
  0
ENDBLK
  0
BLOCK
  8
LAYER_2
  2
AIGNBL02010189
 70
64
 10
0
 20
0
 30
0
  3
AIGNBL02010189
  0
LINE
  8
LAYER_2
 10
56.2863
 20
91.49
 11
56.9567
 21
91.49
  0
ENDBLK
  0
BLOCK
  8
LAYER_2
  2
AIGNBL0201018A
 70
64
 10
0
 20
0
 30
0
  3
AIGNBL0201018A
  0
LINE
  8
LAYER_2
 10
56.9567
 20
91.49
 11
57.6623
 21
91.49
  0
ENDBLK
  0
BLOCK
  8
LAYER_2
  2
AIGNBL0201018B
 70
64
 10
0
 20
0
 30
0
  3
AIGNBL0201018B
  0
LINE
  8
LAYER_2
 10
57.6623
 20
91.49
 11
58.3685
 21
91.49
  0
ENDBLK
  0
BLOCK
  8
LAYER_2
  2
AIGNBL0201018C
 70
64
 10
0
 20
0
 30
0
  3
AIGNBL0201018C
  0
LINE
  8
LAYER_2
 10
58.3685
 20
91.49
 11
59.1451
 21
91.49
  0
ENDBLK
  0
BLOCK
  8
LAYER_2
  2
AIGNBL0201018D
 70
64
 10
0
 20
0
 30
0
  3
AIGNBL0201018D
  0
LINE
  8
LAYER_2
 10
59.1451
 20
91.49
 11
59.9216
 21
91.49
  0
ENDBLK
  0
BLOCK
  8
LAYER_2
  2
AIGNBL0201018E
 70
64
 10
0
 20
0
 30
0
  3
AIGNBL0201018E
  0
LINE
  8
LAYER_2
 10
59.9216
 20
91.49
 11
60.7332
 21
91.49
  0
ENDBLK
  0
BLOCK
  8
LAYER_2
  2
AIGNBL0201018F
 70
64
 10
0
 20
0
 30
0
  3
AIGNBL0201018F
  0
LINE
  8
LAYER_2
 10
60.7332
 20
91.49
 11
61.5807
 21
91.49
  0
ENDBLK
  0
BLOCK
  8
LAYER_2
  2
AIGNBL02010190
 70
64
 10
0
 20
0
 30
0
  3
AIGNBL02010190
  0
LINE
  8
LAYER_2
 10
61.5807
 20
91.49
 11
62.4627
 21
91.49
  0
ENDBLK
  0
BLOCK
  8
LAYER_2
  2
AIGNBL02010191
 70
64
 10
0
 20
0
 30
0
  3
AIGNBL02010191
  0
LINE
  8
LAYER_2
 10
62.4627
 20
91.49
 11
63.3453
 21
91.49
  0
ENDBLK
  0
BLOCK
  8
LAYER_2
  2
AIGNBL02010192
 70
64
 10
0
 20
0
 30
0
  3
AIGNBL02010192
  0
LINE
  8
LAYER_2
 10
63.3453
 20
91.49
 11
64.2631
 21
91.49
  0
ENDBLK
  0
BLOCK
  8
LAYER_2
  2
AIGNBL02010193
 70
64
 10
0
 20
0
 30
0
  3
AIGNBL02010193
  0
LINE
  8
LAYER_2
 10
64.2631
 20
91.49
 11
65.216
 21
91.49
  0
ENDBLK
  0
BLOCK
  8
LAYER_2
  2
AIGNBL02010194
 70
64
 10
0
 20
0
 30
0
  3
AIGNBL02010194
  0
LINE
  8
LAYER_2
 10
65.216
 20
91.49
 11
66.1689
 21
91.49
  0
ENDBLK
  0
BLOCK
  8
LAYER_2
  2
AIGNBL02010195
 70
64
 10
0
 20
0
 30
0
  3
AIGNBL02010195
  0
LINE
  8
LAYER_2
 10
66.1689
 20
91.49
 11
67.157
 21
91.49
  0
ENDBLK
  0
BLOCK
  8
LAYER_2
  2
AIGNBL02010196
 70
64
 10
0
 20
0
 30
0
  3
AIGNBL02010196
  0
LINE
  8
LAYER_2
 10
67.157
 20
91.49
 11
68.1802
 21
91.49
  0
ENDBLK
  0
BLOCK
  8
LAYER_2
  2
AIGNBL02010197
 70
64
 10
0
 20
0
 30
0
  3
AIGNBL02010197
  0
LINE
  8
LAYER_2
 10
68.1802
 20
91.49
 11
69.1689
 21
91.49
  0
ENDBLK
  0
BLOCK
  8
LAYER_2
  2
AIGNBL02010198
 70
64
 10
0
 20
0
 30
0
  3
AIGNBL02010198
  0
LINE
  8
LAYER_2
 10
69.1689
 20
91.49
 11
70.2279
 21
91.49
  0
ENDBLK
  0
BLOCK
  8
LAYER_2
  2
AIGNBL02010199
 70
64
 10
0
 20
0
 30
0
  3
AIGNBL02010199
  0
LINE
  8
LAYER_2
 10
70.2279
 20
91.49
 11
71.2515
 21
91.49
  0
ENDBLK
  0
BLOCK
  8
LAYER_2
  2
AIGNBL0201019A
 70
64
 10
0
 20
0
 30
0
  3
AIGNBL0201019A
  0
LINE
  8
LAYER_2
 10
71.2515
 20
91.49
 11
72.3101
 21
91.49
  0
ENDBLK
  0
BLOCK
  8
LAYER_2
  2
AIGNBL0201019B
 70
64
 10
0
 20
0
 30
0
  3
AIGNBL0201019B
  0
LINE
  8
LAYER_2
 10
72.3101
 20
91.49
 11
73.4043
 21
91.49
  0
ENDBLK
  0
BLOCK
  8
LAYER_2
  2
AIGNBL0201019C
 70
64
 10
0
 20
0
 30
0
  3
AIGNBL0201019C
  0
LINE
  8
LAYER_2
 10
73.4043
 20
91.49
 11
74.4633
 21
91.49
  0
ENDBLK
  0
BLOCK
  8
LAYER_2
  2
AIGNBL0201019D
 70
64
 10
0
 20
0
 30
0
  3
AIGNBL0201019D
  0
LINE
  8
LAYER_2
 10
74.4633
 20
91.49
 11
75.5575
 21
91.49
  0
ENDBLK
  0
BLOCK
  8
LAYER_2
  2
AIGNBL0201019E
 70
64
 10
0
 20
0
 30
0
  3
AIGNBL0201019E
  0
LINE
  8
LAYER_2
 10
75.5575
 20
91.49
 11
76.6517
 21
91.49
  0
ENDBLK
  0
BLOCK
  8
LAYER_2
  2
AIGNBL0201019F
 70
64
 10
0
 20
0
 30
0
  3
AIGNBL0201019F
  0
LINE
  8
LAYER_2
 10
76.6517
 20
91.49
 11
77.7451
 21
91.49
  0
ENDBLK
  0
BLOCK
  8
LAYER_2
  2
AIGNBL020101A0
 70
64
 10
0
 20
0
 30
0
  3
AIGNBL020101A0
  0
LINE
  8
LAYER_2
 10
77.7451
 20
91.49
 11
78.8751
 21
91.49
  0
ENDBLK
  0
BLOCK
  8
LAYER_2
  2
AIGNBL020101A1
 70
64
 10
0
 20
0
 30
0
  3
AIGNBL020101A1
  0
LINE
  8
LAYER_2
 10
78.8751
 20
91.49
 11
79.9693
 21
91.49
  0
ENDBLK
  0
BLOCK
  8
LAYER_2
  2
AIGNBL020101A2
 70
64
 10
0
 20
0
 30
0
  3
AIGNBL020101A2
  0
LINE
  8
LAYER_2
 10
79.9693
 20
91.49
 11
81.0634
 21
91.49
  0
ENDBLK
  0
BLOCK
  8
LAYER_2
  2
AIGNBL020101A3
 70
64
 10
0
 20
0
 30
0
  3
AIGNBL020101A3
  0
LINE
  8
LAYER_2
 10
81.0634
 20
91.49
 11
82.1573
 21
91.49
  0
ENDBLK
  0
BLOCK
  8
LAYER_2
  2
AIGNBL020101A4
 70
64
 10
0
 20
0
 30
0
  3
AIGNBL020101A4
  0
LINE
  8
LAYER_2
 10
82.1573
 20
91.49
 11
83.2872
 21
91.49
  0
ENDBLK
  0
BLOCK
  8
LAYER_2
  2
AIGNBL020101A5
 70
64
 10
0
 20
0
 30
0
  3
AIGNBL020101A5
  0
LINE
  8
LAYER_2
 10
83.2872
 20
91.49
 11
84.3811
 21
91.49
  0
ENDBLK
  0
BLOCK
  8
LAYER_2
  2
AIGNBL020101A6
 70
64
 10
0
 20
0
 30
0
  3
AIGNBL020101A6
  0
LINE
  8
LAYER_2
 10
84.3811
 20
91.49
 11
85.4401
 21
91.49
  0
ENDBLK
  0
BLOCK
  8
LAYER_2
  2
AIGNBL020101A7
 70
64
 10
0
 20
0
 30
0
  3
AIGNBL020101A7
  0
LINE
  8
LAYER_2
 10
85.4401
 20
91.49
 11
86.5336
 21
91.49
  0
ENDBLK
  0
BLOCK
  8
LAYER_2
  2
AIGNBL020101A8
 70
64
 10
0
 20
0
 30
0
  3
AIGNBL020101A8
  0
LINE
  8
LAYER_2
 10
86.5336
 20
91.49
 11
87.5929
 21
91.49
  0
ENDBLK
  0
BLOCK
  8
LAYER_2
  2
AIGNBL020101A9
 70
64
 10
0
 20
0
 30
0
  3
AIGNBL020101A9
  0
LINE
  8
LAYER_2
 10
87.5929
 20
91.49
 11
88.6516
 21
91.49
  0
ENDBLK
  0
BLOCK
  8
LAYER_2
  2
AIGNBL020101AA
 70
64
 10
0
 20
0
 30
0
  3
AIGNBL020101AA
  0
LINE
  8
LAYER_2
 10
88.6516
 20
91.49
 11
89.711
 21
91.49
  0
ENDBLK
  0
BLOCK
  8
LAYER_2
  2
AIGNBL020101AB
 70
64
 10
0
 20
0
 30
0
  3
AIGNBL020101AB
  0
LINE
  8
LAYER_2
 10
89.711
 20
91.49
 11
90.7342
 21
91.49
  0
ENDBLK
  0
BLOCK
  8
LAYER_2
  2
AIGNBL020101AC
 70
64
 10
0
 20
0
 30
0
  3
AIGNBL020101AC
  0
LINE
  8
LAYER_2
 10
90.7342
 20
91.49
 11
91.7577
 21
91.49
  0
ENDBLK
  0
BLOCK
  8
LAYER_2
  2
AIGNBL020101AD
 70
64
 10
0
 20
0
 30
0
  3
AIGNBL020101AD
  0
LINE
  8
LAYER_2
 10
91.7577
 20
91.49
 11
92.7461
 21
91.49
  0
ENDBLK
  0
BLOCK
  8
LAYER_2
  2
AIGNBL020101AE
 70
64
 10
0
 20
0
 30
0
  3
AIGNBL020101AE
  0
LINE
  8
LAYER_2
 10
92.7461
 20
91.49
 11
93.7341
 21
91.49
  0
ENDBLK
  0
BLOCK
  8
LAYER_2
  2
AIGNBL020101AF
 70
64
 10
0
 20
0
 30
0
  3
AIGNBL020101AF
  0
LINE
  8
LAYER_2
 10
93.7341
 20
91.49
 11
94.6871
 21
91.49
  0
ENDBLK
  0
BLOCK
  8
LAYER_2
  2
AIGNBL020101B0
 70
64
 10
0
 20
0
 30
0
  3
AIGNBL020101B0
  0
LINE
  8
LAYER_2
 10
94.6871
 20
91.49
 11
95.6045
 21
91.49
  0
ENDBLK
  0
BLOCK
  8
LAYER_2
  2
AIGNBL020101B1
 70
64
 10
0
 20
0
 30
0
  3
AIGNBL020101B1
  0
LINE
  8
LAYER_2
 10
95.6045
 20
91.49
 11
96.5226
 21
91.49
  0
ENDBLK
  0
BLOCK
  8
LAYER_2
  2
AIGNBL020101B2
 70
64
 10
0
 20
0
 30
0
  3
AIGNBL020101B2
  0
LINE
  8
LAYER_2
 10
96.5226
 20
91.49
 11
97.4053
 21
91.49
  0
ENDBLK
  0
BLOCK
  8
LAYER_2
  2
AIGNBL020101B3
 70
64
 10
0
 20
0
 30
0
  3
AIGNBL020101B3
  0
LINE
  8
LAYER_2
 10
97.4053
 20
91.49
 11
98.2868
 21
91.49
  0
ENDBLK
  0
BLOCK
  8
LAYER_2
  2
AIGNBL020101B4
 70
64
 10
0
 20
0
 30
0
  3
AIGNBL020101B4
  0
LINE
  8
LAYER_2
 10
98.2868
 20
91.49
 11
99.0989
 21
91.49
  0
ENDBLK
  0
BLOCK
  8
LAYER_2
  2
AIGNBL020101B5
 70
64
 10
0
 20
0
 30
0
  3
AIGNBL020101B5
  0
LINE
  8
LAYER_2
 10
99.0989
 20
91.49
 11
99.9109
 21
91.49
  0
ENDBLK
  0
BLOCK
  8
LAYER_2
  2
AIGNBL020101B6
 70
64
 10
0
 20
0
 30
0
  3
AIGNBL020101B6
  0
LINE
  8
LAYER_2
 10
99.9109
 20
91.49
 11
100.6867
 21
91.49
  0
ENDBLK
  0
BLOCK
  8
LAYER_2
  2
AIGNBL020101B7
 70
64
 10
0
 20
0
 30
0
  3
AIGNBL020101B7
  0
LINE
  8
LAYER_2
 10
100.6867
 20
91.49
 11
101.4646
 21
91.49
  0
ENDBLK
  0
BLOCK
  8
LAYER_2
  2
AIGNBL020101B8
 70
64
 10
0
 20
0
 30
0
  3
AIGNBL020101B8
  0
LINE
  8
LAYER_2
 10
101.4646
 20
91.49
 11
102.1698
 21
91.49
  0
ENDBLK
  0
BLOCK
  8
LAYER_2
  2
AIGNBL020101B9
 70
64
 10
0
 20
0
 30
0
  3
AIGNBL020101B9
  0
LINE
  8
LAYER_2
 10
102.1698
 20
91.49
 11
102.8406
 21
91.49
  0
ENDBLK
  0
BLOCK
  8
LAYER_2
  2
AIGNBL020101BA
 70
64
 10
0
 20
0
 30
0
  3
AIGNBL020101BA
  0
LINE
  8
LAYER_2
 10
102.8406
 20
91.49
 11
103.5117
 21
91.49
  0
ENDBLK
  0
BLOCK
  8
LAYER_2
  2
AIGNBL020101BB
 70
64
 10
0
 20
0
 30
0
  3
AIGNBL020101BB
  0
LINE
  8
LAYER_2
 10
103.5117
 20
91.49
 11
104.1115
 21
91.49
  0
ENDBLK
  0
BLOCK
  8
LAYER_2
  2
AIGNBL020101BC
 70
64
 10
0
 20
0
 30
0
  3
AIGNBL020101BC
  0
LINE
  8
LAYER_2
 10
104.1115
 20
91.49
 11
104.7106
 21
91.49
  0
ENDBLK
  0
BLOCK
  8
LAYER_2
  2
AIGNBL020101BD
 70
64
 10
0
 20
0
 30
0
  3
AIGNBL020101BD
  0
LINE
  8
LAYER_2
 10
104.7106
 20
91.49
 11
105.2404
 21
91.49
  0
ENDBLK
  0
BLOCK
  8
LAYER_2
  2
AIGNBL020101BE
 70
64
 10
0
 20
0
 30
0
  3
AIGNBL020101BE
  0
LINE
  8
LAYER_2
 10
105.2404
 20
91.49
 11
105.7344
 21
91.49
  0
ENDBLK
  0
BLOCK
  8
LAYER_2
  2
AIGNBL020101BF
 70
64
 10
0
 20
0
 30
0
  3
AIGNBL020101BF
  0
LINE
  8
LAYER_2
 10
105.7344
 20
91.49
 11
106.2285
 21
91.49
  0
ENDBLK
  0
BLOCK
  8
LAYER_2
  2
AIGNBL020101C0
 70
64
 10
0
 20
0
 30
0
  3
AIGNBL020101C0
  0
LINE
  8
LAYER_2
 10
106.2285
 20
91.49
 11
106.6526
 21
91.49
  0
ENDBLK
  0
BLOCK
  8
LAYER_2
  2
AIGNBL020101C1
 70
64
 10
0
 20
0
 30
0
  3
AIGNBL020101C1
  0
LINE
  8
LAYER_2
 10
106.6526
 20
91.49
 11
107.0409
 21
91.49
  0
ENDBLK
  0
BLOCK
  8
LAYER_2
  2
AIGNBL020101C2
 70
64
 10
0
 20
0
 30
0
  3
AIGNBL020101C2
  0
LINE
  8
LAYER_2
 10
107.0409
 20
91.49
 11
107.3936
 21
91.49
  0
ENDBLK
  0
BLOCK
  8
LAYER_2
  2
AIGNBL020101C3
 70
64
 10
0
 20
0
 30
0
  3
AIGNBL020101C3
  0
LINE
  8
LAYER_2
 10
107.3936
 20
91.49
 11
107.7106
 21
91.49
  0
ENDBLK
  0
BLOCK
  8
LAYER_2
  2
AIGNBL020101C4
 70
64
 10
0
 20
0
 30
0
  3
AIGNBL020101C4
  0
LINE
  8
LAYER_2
 10
107.7106
 20
91.49
 11
107.9586
 21
91.49
  0
ENDBLK
  0
BLOCK
  8
LAYER_2
  2
AIGNBL020101C5
 70
64
 10
0
 20
0
 30
0
  3
AIGNBL020101C5
  0
LINE
  8
LAYER_2
 10
107.9586
 20
91.49
 11
108.2056
 21
91.49
  0
ENDBLK
  0
BLOCK
  8
LAYER_2
  2
AIGNBL020101C6
 70
64
 10
0
 20
0
 30
0
  3
AIGNBL020101C6
  0
LINE
  8
LAYER_2
 10
108.2056
 20
91.49
 11
108.3817
 21
91.49
  0
ENDBLK
  0
BLOCK
  8
LAYER_2
  2
AIGNBL020101C7
 70
64
 10
0
 20
0
 30
0
  3
AIGNBL020101C7
  0
LINE
  8
LAYER_2
 10
108.3817
 20
91.49
 11
108.5236
 21
91.49
  0
ENDBLK
  0
BLOCK
  8
LAYER_2
  2
AIGNBL020101C8
 70
64
 10
0
 20
0
 30
0
  3
AIGNBL020101C8
  0
LINE
  8
LAYER_2
 10
108.5236
 20
91.49
 11
108.6287
 21
91.49
  0
ENDBLK
  0
BLOCK
  8
LAYER_2
  2
AIGNBL020101C9
 70
64
 10
0
 20
0
 30
0
  3
AIGNBL020101C9
  0
LINE
  8
LAYER_2
 10
108.6287
 20
91.49
 11
108.6997
 21
91.49
  0
ENDBLK
  0
BLOCK
  8
LAYER_2
  2
AIGNBL020101CA
 70
64
 10
0
 20
0
 30
0
  3
AIGNBL020101CA
  0
LINE
  8
LAYER_2
 10
108.6997
 20
91.49
 11
108.7344
 21
91.49
  0
ENDBLK
  0
BLOCK
  8
LAYER_2
  2
AIGNBL020101CB
 70
64
 10
0
 20
0
 30
0
  3
AIGNBL020101CB
  0
LINE
  8
LAYER_2
 10
108.8757
 20
82.4901
 11
108.7344
 21
91.49
  0
ENDBLK
  0
BLOCK
  8
LAYER_2
  2
AIGNBL020101CC
 70
64
 10
0
 20
0
 30
0
  3
AIGNBL020101CC
  0
LINE
  8
LAYER_2
 10
106.5117
 20
79.9903
 11
108.8047
 21
82.3143
  0
ENDBLK
  0
BLOCK
  8
LAYER_2
  2
AIGNBL020101CD
 70
64
 10
0
 20
0
 30
0
  3
AIGNBL020101CD
  0
LINE
  8
LAYER_2
 10
53.2154
 20
79.9903
 11
53.3213
 21
79.9903
  0
ENDBLK
  0
BLOCK
  8
LAYER_2
  2
AIGNBL020101CE
 70
64
 10
0
 20
0
 30
0
  3
AIGNBL020101CE
  0
LINE
  8
LAYER_2
 10
53.3213
 20
79.9903
 11
53.4626
 21
79.9903
  0
ENDBLK
  0
BLOCK
  8
LAYER_2
  2
AIGNBL020101CF
 70
64
 10
0
 20
0
 30
0
  3
AIGNBL020101CF
  0
LINE
  8
LAYER_2
 10
53.4626
 20
79.9903
 11
53.6744
 21
79.9903
  0
ENDBLK
  0
BLOCK
  8
LAYER_2
  2
AIGNBL020101D0
 70
64
 10
0
 20
0
 30
0
  3
AIGNBL020101D0
  0
LINE
  8
LAYER_2
 10
53.6744
 20
79.9903
 11
53.9211
 21
79.9903
  0
ENDBLK
  0
BLOCK
  8
LAYER_2
  2
AIGNBL020101D1
 70
64
 10
0
 20
0
 30
0
  3
AIGNBL020101D1
  0
LINE
  8
LAYER_2
 10
53.9211
 20
79.9903
 11
54.2036
 21
79.9903
  0
ENDBLK
  0
BLOCK
  8
LAYER_2
  2
AIGNBL020101D2
 70
64
 10
0
 20
0
 30
0
  3
AIGNBL020101D2
  0
LINE
  8
LAYER_2
 10
54.2036
 20
79.9903
 11
54.5216
 21
79.9903
  0
ENDBLK
  0
BLOCK
  8
LAYER_2
  2
AIGNBL020101D3
 70
64
 10
0
 20
0
 30
0
  3
AIGNBL020101D3
  0
LINE
  8
LAYER_2
 10
54.5216
 20
79.9903
 11
54.8742
 21
79.9903
  0
ENDBLK
  0
BLOCK
  8
LAYER_2
  2
AIGNBL020101D4
 70
64
 10
0
 20
0
 30
0
  3
AIGNBL020101D4
  0
LINE
  8
LAYER_2
 10
54.8742
 20
79.9903
 11
55.2626
 21
79.9903
  0
ENDBLK
  0
BLOCK
  8
LAYER_2
  2
AIGNBL020101D5
 70
64
 10
0
 20
0
 30
0
  3
AIGNBL020101D5
  0
LINE
  8
LAYER_2
 10
55.2626
 20
79.9903
 11
55.6862
 21
79.9903
  0
ENDBLK
  0
BLOCK
  8
LAYER_2
  2
AIGNBL020101D6
 70
64
 10
0
 20
0
 30
0
  3
AIGNBL020101D6
  0
LINE
  8
LAYER_2
 10
55.6862
 20
79.9903
 11
56.1799
 21
79.9903
  0
ENDBLK
  0
BLOCK
  8
LAYER_2
  2
AIGNBL020101D7
 70
64
 10
0
 20
0
 30
0
  3
AIGNBL020101D7
  0
LINE
  8
LAYER_2
 10
56.1799
 20
79.9903
 11
56.6742
 21
79.9903
  0
ENDBLK
  0
BLOCK
  8
LAYER_2
  2
AIGNBL020101D8
 70
64
 10
0
 20
0
 30
0
  3
AIGNBL020101D8
  0
LINE
  8
LAYER_2
 10
56.6742
 20
79.9903
 11
57.2392
 21
79.9903
  0
ENDBLK
  0
BLOCK
  8
LAYER_2
  2
AIGNBL020101D9
 70
64
 10
0
 20
0
 30
0
  3
AIGNBL020101D9
  0
LINE
  8
LAYER_2
 10
57.2392
 20
79.9903
 11
57.8035
 21
79.9903
  0
ENDBLK
  0
BLOCK
  8
LAYER_2
  2
AIGNBL020101DA
 70
64
 10
0
 20
0
 30
0
  3
AIGNBL020101DA
  0
LINE
  8
LAYER_2
 10
57.8035
 20
79.9903
 11
58.4388
 21
79.9903
  0
ENDBLK
  0
BLOCK
  8
LAYER_2
  2
AIGNBL020101DB
 70
64
 10
0
 20
0
 30
0
  3
AIGNBL020101DB
  0
LINE
  8
LAYER_2
 10
58.4388
 20
79.9903
 11
59.0748
 21
79.9903
  0
ENDBLK
  0
BLOCK
  8
LAYER_2
  2
AIGNBL020101DC
 70
64
 10
0
 20
0
 30
0
  3
AIGNBL020101DC
  0
LINE
  8
LAYER_2
 10
59.0748
 20
79.9903
 11
59.7803
 21
79.9903
  0
ENDBLK
  0
BLOCK
  8
LAYER_2
  2
AIGNBL020101DD
 70
64
 10
0
 20
0
 30
0
  3
AIGNBL020101DD
  0
LINE
  8
LAYER_2
 10
59.7803
 20
79.9903
 11
60.4862
 21
79.9903
  0
ENDBLK
  0
BLOCK
  8
LAYER_2
  2
AIGNBL020101DE
 70
64
 10
0
 20
0
 30
0
  3
AIGNBL020101DE
  0
LINE
  8
LAYER_2
 10
60.4862
 20
79.9903
 11
61.2273
 21
79.9903
  0
ENDBLK
  0
BLOCK
  8
LAYER_2
  2
AIGNBL020101DF
 70
64
 10
0
 20
0
 30
0
  3
AIGNBL020101DF
  0
LINE
  8
LAYER_2
 10
61.2273
 20
79.9903
 11
62.0038
 21
79.9903
  0
ENDBLK
  0
BLOCK
  8
LAYER_2
  2
AIGNBL020101E0
 70
64
 10
0
 20
0
 30
0
  3
AIGNBL020101E0
  0
LINE
  8
LAYER_2
 10
62.0038
 20
79.9903
 11
62.8155
 21
79.9903
  0
ENDBLK
  0
BLOCK
  8
LAYER_2
  2
AIGNBL020101E1
 70
64
 10
0
 20
0
 30
0
  3
AIGNBL020101E1
  0
LINE
  8
LAYER_2
 10
62.8155
 20
79.9903
 11
63.6271
 21
79.9903
  0
ENDBLK
  0
BLOCK
  8
LAYER_2
  2
AIGNBL020101E2
 70
64
 10
0
 20
0
 30
0
  3
AIGNBL020101E2
  0
LINE
  8
LAYER_2
 10
63.6271
 20
79.9903
 11
64.5098
 21
79.9903
  0
ENDBLK
  0
BLOCK
  8
LAYER_2
  2
AIGNBL020101E3
 70
64
 10
0
 20
0
 30
0
  3
AIGNBL020101E3
  0
LINE
  8
LAYER_2
 10
64.5098
 20
79.9903
 11
65.3921
 21
79.9903
  0
ENDBLK
  0
BLOCK
  8
LAYER_2
  2
AIGNBL020101E4
 70
64
 10
0
 20
0
 30
0
  3
AIGNBL020101E4
  0
LINE
  8
LAYER_2
 10
65.3921
 20
79.9903
 11
66.2747
 21
79.9903
  0
ENDBLK
  0
BLOCK
  8
LAYER_2
  2
AIGNBL020101E5
 70
64
 10
0
 20
0
 30
0
  3
AIGNBL020101E5
  0
LINE
  8
LAYER_2
 10
66.2747
 20
79.9903
 11
67.1921
 21
79.9903
  0
ENDBLK
  0
BLOCK
  8
LAYER_2
  2
AIGNBL020101E6
 70
64
 10
0
 20
0
 30
0
  3
AIGNBL020101E6
  0
LINE
  8
LAYER_2
 10
67.1921
 20
79.9903
 11
68.1454
 21
79.9903
  0
ENDBLK
  0
BLOCK
  8
LAYER_2
  2
AIGNBL020101E7
 70
64
 10
0
 20
0
 30
0
  3
AIGNBL020101E7
  0
LINE
  8
LAYER_2
 10
68.1454
 20
79.9903
 11
69.0983
 21
79.9903
  0
ENDBLK
  0
BLOCK
  8
LAYER_2
  2
AIGNBL020101E8
 70
64
 10
0
 20
0
 30
0
  3
AIGNBL020101E8
  0
LINE
  8
LAYER_2
 10
69.0983
 20
79.9903
 11
70.0867
 21
79.9903
  0
ENDBLK
  0
BLOCK
  8
LAYER_2
  2
AIGNBL020101E9
 70
64
 10
0
 20
0
 30
0
  3
AIGNBL020101E9
  0
LINE
  8
LAYER_2
 10
70.0867
 20
79.9903
 11
71.0747
 21
79.9903
  0
ENDBLK
  0
BLOCK
  8
LAYER_2
  2
AIGNBL020101EA
 70
64
 10
0
 20
0
 30
0
  3
AIGNBL020101EA
  0
LINE
  8
LAYER_2
 10
71.0747
 20
79.9903
 11
72.0986
 21
79.9903
  0
ENDBLK
  0
BLOCK
  8
LAYER_2
  2
AIGNBL020101EB
 70
64
 10
0
 20
0
 30
0
  3
AIGNBL020101EB
  0
LINE
  8
LAYER_2
 10
72.0986
 20
79.9903
 11
73.1218
 21
79.9903
  0
ENDBLK
  0
BLOCK
  8
LAYER_2
  2
AIGNBL020101EC
 70
64
 10
0
 20
0
 30
0
  3
AIGNBL020101EC
  0
LINE
  8
LAYER_2
 10
73.1218
 20
79.9903
 11
74.1457
 21
79.9903
  0
ENDBLK
  0
BLOCK
  8
LAYER_2
  2
AIGNBL020101ED
 70
64
 10
0
 20
0
 30
0
  3
AIGNBL020101ED
  0
LINE
  8
LAYER_2
 10
74.1457
 20
79.9903
 11
75.1689
 21
79.9903
  0
ENDBLK
  0
BLOCK
  8
LAYER_2
  2
AIGNBL020101EE
 70
64
 10
0
 20
0
 30
0
  3
AIGNBL020101EE
  0
LINE
  8
LAYER_2
 10
75.1689
 20
79.9903
 11
76.2279
 21
79.9903
  0
ENDBLK
  0
BLOCK
  8
LAYER_2
  2
AIGNBL020101EF
 70
64
 10
0
 20
0
 30
0
  3
AIGNBL020101EF
  0
LINE
  8
LAYER_2
 10
76.2279
 20
79.9903
 11
77.2869
 21
79.9903
  0
ENDBLK
  0
BLOCK
  8
LAYER_2
  2
AIGNBL020101F0
 70
64
 10
0
 20
0
 30
0
  3
AIGNBL020101F0
  0
LINE
  8
LAYER_2
 10
77.2869
 20
79.9903
 11
78.3453
 21
79.9903
  0
ENDBLK
  0
BLOCK
  8
LAYER_2
  2
AIGNBL020101F1
 70
64
 10
0
 20
0
 30
0
  3
AIGNBL020101F1
  0
LINE
  8
LAYER_2
 10
78.3453
 20
79.9903
 11
79.3691
 21
79.9903
  0
ENDBLK
  0
BLOCK
  8
LAYER_2
  2
AIGNBL020101F2
 70
64
 10
0
 20
0
 30
0
  3
AIGNBL020101F2
  0
LINE
  8
LAYER_2
 10
79.3691
 20
79.9903
 11
80.4275
 21
79.9903
  0
ENDBLK
  0
BLOCK
  8
LAYER_2
  2
AIGNBL020101F3
 70
64
 10
0
 20
0
 30
0
  3
AIGNBL020101F3
  0
LINE
  8
LAYER_2
 10
80.4275
 20
79.9903
 11
81.4868
 21
79.9903
  0
ENDBLK
  0
BLOCK
  8
LAYER_2
  2
AIGNBL020101F4
 70
64
 10
0
 20
0
 30
0
  3
AIGNBL020101F4
  0
LINE
  8
LAYER_2
 10
81.4868
 20
79.9903
 11
82.5455
 21
79.9903
  0
ENDBLK
  0
BLOCK
  8
LAYER_2
  2
AIGNBL020101F5
 70
64
 10
0
 20
0
 30
0
  3
AIGNBL020101F5
  0
LINE
  8
LAYER_2
 10
82.5455
 20
79.9903
 11
83.6049
 21
79.9903
  0
ENDBLK
  0
BLOCK
  8
LAYER_2
  2
AIGNBL020101F6
 70
64
 10
0
 20
0
 30
0
  3
AIGNBL020101F6
  0
LINE
  8
LAYER_2
 10
83.6049
 20
79.9903
 11
84.6636
 21
79.9903
  0
ENDBLK
  0
BLOCK
  8
LAYER_2
  2
AIGNBL020101F7
 70
64
 10
0
 20
0
 30
0
  3
AIGNBL020101F7
  0
LINE
  8
LAYER_2
 10
84.6636
 20
79.9903
 11
85.6868
 21
79.9903
  0
ENDBLK
  0
BLOCK
  8
LAYER_2
  2
AIGNBL020101F8
 70
64
 10
0
 20
0
 30
0
  3
AIGNBL020101F8
  0
LINE
  8
LAYER_2
 10
85.6868
 20
79.9903
 11
86.71
 21
79.9903
  0
ENDBLK
  0
BLOCK
  8
LAYER_2
  2
AIGNBL020101F9
 70
64
 10
0
 20
0
 30
0
  3
AIGNBL020101F9
  0
LINE
  8
LAYER_2
 10
86.71
 20
79.9903
 11
87.7338
 21
79.9903
  0
ENDBLK
  0
BLOCK
  8
LAYER_2
  2
AIGNBL020101FA
 70
64
 10
0
 20
0
 30
0
  3
AIGNBL020101FA
  0
LINE
  8
LAYER_2
 10
87.7338
 20
79.9903
 11
88.7577
 21
79.9903
  0
ENDBLK
  0
BLOCK
  8
LAYER_2
  2
AIGNBL020101FB
 70
64
 10
0
 20
0
 30
0
  3
AIGNBL020101FB
  0
LINE
  8
LAYER_2
 10
88.7577
 20
79.9903
 11
89.7461
 21
79.9903
  0
ENDBLK
  0
BLOCK
  8
LAYER_2
  2
AIGNBL020101FC
 70
64
 10
0
 20
0
 30
0
  3
AIGNBL020101FC
  0
LINE
  8
LAYER_2
 10
89.7461
 20
79.9903
 11
90.6987
 21
79.9903
  0
ENDBLK
  0
BLOCK
  8
LAYER_2
  2
AIGNBL020101FD
 70
64
 10
0
 20
0
 30
0
  3
AIGNBL020101FD
  0
LINE
  8
LAYER_2
 10
90.6987
 20
79.9903
 11
91.6516
 21
79.9903
  0
ENDBLK
  0
BLOCK
  8
LAYER_2
  2
AIGNBL020101FE
 70
64
 10
0
 20
0
 30
0
  3
AIGNBL020101FE
  0
LINE
  8
LAYER_2
 10
91.6516
 20
79.9903
 11
92.6045
 21
79.9903
  0
ENDBLK
  0
BLOCK
  8
LAYER_2
  2
AIGNBL020101FF
 70
64
 10
0
 20
0
 30
0
  3
AIGNBL020101FF
  0
LINE
  8
LAYER_2
 10
92.6045
 20
79.9903
 11
93.5223
 21
79.9903
  0
ENDBLK
  0
BLOCK
  8
LAYER_2
  2
AIGNBL02010200
 70
64
 10
0
 20
0
 30
0
  3
AIGNBL02010200
  0
LINE
  8
LAYER_2
 10
93.5223
 20
79.9903
 11
94.4401
 21
79.9903
  0
ENDBLK
  0
BLOCK
  8
LAYER_2
  2
AIGNBL02010201
 70
64
 10
0
 20
0
 30
0
  3
AIGNBL02010201
  0
LINE
  8
LAYER_2
 10
94.4401
 20
79.9903
 11
95.2879
 21
79.9903
  0
ENDBLK
  0
BLOCK
  8
LAYER_2
  2
AIGNBL02010202
 70
64
 10
0
 20
0
 30
0
  3
AIGNBL02010202
  0
LINE
  8
LAYER_2
 10
95.2879
 20
79.9903
 11
96.1343
 21
79.9903
  0
ENDBLK
  0
BLOCK
  8
LAYER_2
  2
AIGNBL02010203
 70
64
 10
0
 20
0
 30
0
  3
AIGNBL02010203
  0
LINE
  8
LAYER_2
 10
96.1343
 20
79.9903
 11
96.9811
 21
79.9903
  0
ENDBLK
  0
BLOCK
  8
LAYER_2
  2
AIGNBL02010204
 70
64
 10
0
 20
0
 30
0
  3
AIGNBL02010204
  0
LINE
  8
LAYER_2
 10
96.9811
 20
79.9903
 11
97.7577
 21
79.9903
  0
ENDBLK
  0
BLOCK
  8
LAYER_2
  2
AIGNBL02010205
 70
64
 10
0
 20
0
 30
0
  3
AIGNBL02010205
  0
LINE
  8
LAYER_2
 10
97.7577
 20
79.9903
 11
98.5345
 21
79.9903
  0
ENDBLK
  0
BLOCK
  8
LAYER_2
  2
AIGNBL02010206
 70
64
 10
0
 20
0
 30
0
  3
AIGNBL02010206
  0
LINE
  8
LAYER_2
 10
98.5345
 20
79.9903
 11
99.2759
 21
79.9903
  0
ENDBLK
  0
BLOCK
  8
LAYER_2
  2
AIGNBL02010207
 70
64
 10
0
 20
0
 30
0
  3
AIGNBL02010207
  0
LINE
  8
LAYER_2
 10
99.2759
 20
79.9903
 11
99.9811
 21
79.9903
  0
ENDBLK
  0
BLOCK
  8
LAYER_2
  2
AIGNBL02010208
 70
64
 10
0
 20
0
 30
0
  3
AIGNBL02010208
  0
LINE
  8
LAYER_2
 10
99.9811
 20
79.9903
 11
100.6516
 21
79.9903
  0
ENDBLK
  0
BLOCK
  8
LAYER_2
  2
AIGNBL02010209
 70
64
 10
0
 20
0
 30
0
  3
AIGNBL02010209
  0
LINE
  8
LAYER_2
 10
100.6516
 20
79.9903
 11
101.3227
 21
79.9903
  0
ENDBLK
  0
BLOCK
  8
LAYER_2
  2
AIGNBL0201020A
 70
64
 10
0
 20
0
 30
0
  3
AIGNBL0201020A
  0
LINE
  8
LAYER_2
 10
101.3227
 20
79.9903
 11
101.9228
 21
79.9903
  0
ENDBLK
  0
BLOCK
  8
LAYER_2
  2
AIGNBL0201020B
 70
64
 10
0
 20
0
 30
0
  3
AIGNBL0201020B
  0
LINE
  8
LAYER_2
 10
101.9228
 20
79.9903
 11
102.4874
 21
79.9903
  0
ENDBLK
  0
BLOCK
  8
LAYER_2
  2
AIGNBL0201020C
 70
64
 10
0
 20
0
 30
0
  3
AIGNBL0201020C
  0
LINE
  8
LAYER_2
 10
102.4874
 20
79.9903
 11
103.0528
 21
79.9903
  0
ENDBLK
  0
BLOCK
  8
LAYER_2
  2
AIGNBL0201020D
 70
64
 10
0
 20
0
 30
0
  3
AIGNBL0201020D
  0
LINE
  8
LAYER_2
 10
103.0528
 20
79.9903
 11
103.5468
 21
79.9903
  0
ENDBLK
  0
BLOCK
  8
LAYER_2
  2
AIGNBL0201020E
 70
64
 10
0
 20
0
 30
0
  3
AIGNBL0201020E
  0
LINE
  8
LAYER_2
 10
103.5468
 20
79.9903
 11
104.0057
 21
79.9903
  0
ENDBLK
  0
BLOCK
  8
LAYER_2
  2
AIGNBL0201020F
 70
64
 10
0
 20
0
 30
0
  3
AIGNBL0201020F
  0
LINE
  8
LAYER_2
 10
104.0057
 20
79.9903
 11
104.4288
 21
79.9903
  0
ENDBLK
  0
BLOCK
  8
LAYER_2
  2
AIGNBL02010210
 70
64
 10
0
 20
0
 30
0
  3
AIGNBL02010210
  0
LINE
  8
LAYER_2
 10
104.4288
 20
79.9903
 11
104.8167
 21
79.9903
  0
ENDBLK
  0
BLOCK
  8
LAYER_2
  2
AIGNBL02010211
 70
64
 10
0
 20
0
 30
0
  3
AIGNBL02010211
  0
LINE
  8
LAYER_2
 10
104.8167
 20
79.9903
 11
105.1698
 21
79.9903
  0
ENDBLK
  0
BLOCK
  8
LAYER_2
  2
AIGNBL02010212
 70
64
 10
0
 20
0
 30
0
  3
AIGNBL02010212
  0
LINE
  8
LAYER_2
 10
105.1698
 20
79.9903
 11
105.4874
 21
79.9903
  0
ENDBLK
  0
BLOCK
  8
LAYER_2
  2
AIGNBL02010213
 70
64
 10
0
 20
0
 30
0
  3
AIGNBL02010213
  0
LINE
  8
LAYER_2
 10
105.4874
 20
79.9903
 11
105.7696
 21
79.9903
  0
ENDBLK
  0
BLOCK
  8
LAYER_2
  2
AIGNBL02010214
 70
64
 10
0
 20
0
 30
0
  3
AIGNBL02010214
  0
LINE
  8
LAYER_2
 10
105.7696
 20
79.9903
 11
105.9818
 21
79.9903
  0
ENDBLK
  0
BLOCK
  8
LAYER_2
  2
AIGNBL02010215
 70
64
 10
0
 20
0
 30
0
  3
AIGNBL02010215
  0
LINE
  8
LAYER_2
 10
105.9818
 20
79.9903
 11
106.1575
 21
79.9903
  0
ENDBLK
  0
BLOCK
  8
LAYER_2
  2
AIGNBL02010216
 70
64
 10
0
 20
0
 30
0
  3
AIGNBL02010216
  0
LINE
  8
LAYER_2
 10
106.1575
 20
79.9903
 11
106.3346
 21
79.9903
  0
ENDBLK
  0
BLOCK
  8
LAYER_2
  2
AIGNBL02010217
 70
64
 10
0
 20
0
 30
0
  3
AIGNBL02010217
  0
LINE
  8
LAYER_2
 10
106.3346
 20
79.9903
 11
106.4407
 21
79.9903
  0
ENDBLK
  0
BLOCK
  8
LAYER_2
  2
AIGNBL02010218
 70
64
 10
0
 20
0
 30
0
  3
AIGNBL02010218
  0
LINE
  8
LAYER_2
 10
106.4407
 20
79.9903
 11
106.4765
 21
79.9903
  0
ENDBLK
  0
BLOCK
  8
LAYER_2
  2
AIGNBL02010219
 70
64
 10
0
 20
0
 30
0
  3
AIGNBL02010219
  0
LINE
  8
LAYER_2
 10
106.4765
 20
79.9903
 11
106.5117
 21
79.9903
  0
ENDBLK
  0
BLOCK
  8
LAYER_2
  2
AIGNBL0201021A
 70
64
 10
0
 20
0
 30
0
  3
AIGNBL0201021A
  0
LINE
  8
LAYER_2
 10
108.7344
 20
91.49
 11
108.7344
 21
91.5245
  0
ENDBLK
  0
BLOCK
  8
LAYER_2
  2
AIGNBL0201021B
 70
64
 10
0
 20
0
 30
0
  3
AIGNBL0201021B
  0
LINE
  8
LAYER_2
 10
108.7344
 20
91.5245
 11
108.7344
 21
91.561
  0
ENDBLK
  0
BLOCK
  8
LAYER_2
  2
AIGNBL0201021C
 70
64
 10
0
 20
0
 30
0
  3
AIGNBL0201021C
  0
LINE
  8
LAYER_2
 10
108.7344
 20
91.561
 11
108.7344
 21
91.5954
  0
ENDBLK
  0
BLOCK
  8
LAYER_2
  2
AIGNBL0201021D
 70
64
 10
0
 20
0
 30
0
  3
AIGNBL0201021D
  0
LINE
  8
LAYER_2
 10
108.7344
 20
91.5954
 11
108.6997
 21
91.6306
  0
ENDBLK
  0
BLOCK
  8
LAYER_2
  2
AIGNBL0201021E
 70
64
 10
0
 20
0
 30
0
  3
AIGNBL0201021E
  0
LINE
  8
LAYER_2
 10
108.6997
 20
91.6306
 11
108.6997
 21
91.6657
  0
ENDBLK
  0
BLOCK
  8
LAYER_2
  2
AIGNBL0201021F
 70
64
 10
0
 20
0
 30
0
  3
AIGNBL0201021F
  0
LINE
  8
LAYER_2
 10
108.6997
 20
91.6657
 11
108.6997
 21
91.7015
  0
ENDBLK
  0
BLOCK
  8
LAYER_2
  2
AIGNBL02010220
 70
64
 10
0
 20
0
 30
0
  3
AIGNBL02010220
  0
LINE
  8
LAYER_2
 10
108.6997
 20
91.7015
 11
107.3585
 21
95.7109
  0
ENDBLK
  0
BLOCK
  8
LAYER_2
  2
AIGNBL02010221
 70
64
 10
0
 20
0
 30
0
  3
AIGNBL02010221
  0
LINE
  8
LAYER_2
 10
107.3585
 20
95.7109
 11
107.2875
 21
95.8873
  0
ENDBLK
  0
BLOCK
  8
LAYER_2
  2
AIGNBL02010222
 70
64
 10
0
 20
0
 30
0
  3
AIGNBL02010222
  0
LINE
  8
LAYER_2
 10
107.2875
 20
95.8873
 11
107.1466
 21
96.0286
  0
ENDBLK
  0
BLOCK
  8
LAYER_2
  2
AIGNBL02010223
 70
64
 10
0
 20
0
 30
0
  3
AIGNBL02010223
  0
LINE
  8
LAYER_2
 10
107.1466
 20
96.0286
 11
107.0057
 21
96.1333
  0
ENDBLK
  0
BLOCK
  8
LAYER_2
  2
AIGNBL02010224
 70
64
 10
0
 20
0
 30
0
  3
AIGNBL02010224
  0
LINE
  8
LAYER_2
 10
107.0057
 20
96.1333
 11
106.8638
 21
96.2043
  0
ENDBLK
  0
BLOCK
  8
LAYER_2
  2
AIGNBL02010225
 70
64
 10
0
 20
0
 30
0
  3
AIGNBL02010225
  0
LINE
  8
LAYER_2
 10
106.8638
 20
96.2043
 11
106.6874
 21
96.2394
  0
ENDBLK
  0
BLOCK
  8
LAYER_2
  2
AIGNBL02010226
 70
64
 10
0
 20
0
 30
0
  3
AIGNBL02010226
  0
LINE
  8
LAYER_2
 10
106.6874
 20
96.2394
 11
106.6526
 21
96.2394
  0
ENDBLK
  0
BLOCK
  8
LAYER_2
  2
AIGNBL02010227
 70
64
 10
0
 20
0
 30
0
  3
AIGNBL02010227
  0
LINE
  8
LAYER_2
 10
52.6154
 20
79.9903
 11
52.6504
 21
79.9903
  0
ENDBLK
  0
BLOCK
  8
LAYER_2
  2
AIGNBL02010228
 70
64
 10
0
 20
0
 30
0
  3
AIGNBL02010228
  0
LINE
  8
LAYER_2
 10
52.6504
 20
79.9903
 11
52.7215
 21
79.9903
  0
ENDBLK
  0
BLOCK
  8
LAYER_2
  2
AIGNBL02010229
 70
64
 10
0
 20
0
 30
0
  3
AIGNBL02010229
  0
LINE
  8
LAYER_2
 10
52.7215
 20
79.9903
 11
52.8273
 21
79.9903
  0
ENDBLK
  0
BLOCK
  8
LAYER_2
  2
AIGNBL0201022A
 70
64
 10
0
 20
0
 30
0
  3
AIGNBL0201022A
  0
LINE
  8
LAYER_2
 10
52.8273
 20
79.9903
 11
53.0035
 21
79.9903
  0
ENDBLK
  0
BLOCK
  8
LAYER_2
  2
AIGNBL0201022B
 70
64
 10
0
 20
0
 30
0
  3
AIGNBL0201022B
  0
LINE
  8
LAYER_2
 10
53.0035
 20
79.9903
 11
53.2154
 21
79.9903
  0
ENDBLK
  0
BLOCK
  8
LAYER_2
  2
AIGNBL0201022C
 70
64
 10
0
 20
0
 30
0
  3
AIGNBL0201022C
  0
LINE
  8
LAYER_2
 10
79.8749
 20
75.2402
 11
75.1875
 21
75.2402
  0
ENDBLK
  0
BLOCK
  8
LAYER_2
  2
AIGNBL0201022D
 70
64
 10
0
 20
0
 30
0
  3
AIGNBL0201022D
  0
LINE
  8
LAYER_2
 10
50.2509
 20
82.4901
 11
50.3215
 21
82.4901
  0
ENDBLK
  0
BLOCK
  8
LAYER_2
  2
AIGNBL0201022E
 70
64
 10
0
 20
0
 30
0
  3
AIGNBL0201022E
  0
LINE
  8
LAYER_2
 10
50.3215
 20
82.4901
 11
50.4975
 21
82.4901
  0
ENDBLK
  0
BLOCK
  8
LAYER_2
  2
AIGNBL0201022F
 70
64
 10
0
 20
0
 30
0
  3
AIGNBL0201022F
  0
LINE
  8
LAYER_2
 10
50.4975
 20
82.4901
 11
50.8508
 21
82.4901
  0
ENDBLK
  0
BLOCK
  8
LAYER_2
  2
AIGNBL02010230
 70
64
 10
0
 20
0
 30
0
  3
AIGNBL02010230
  0
LINE
  8
LAYER_2
 10
50.3916
 20
91.49
 11
50.4622
 21
91.49
  0
ENDBLK
  0
BLOCK
  8
LAYER_2
  2
AIGNBL02010231
 70
64
 10
0
 20
0
 30
0
  3
AIGNBL02010231
  0
LINE
  8
LAYER_2
 10
50.4622
 20
91.49
 11
50.6741
 21
91.49
  0
ENDBLK
  0
BLOCK
  8
LAYER_2
  2
AIGNBL02010232
 70
64
 10
0
 20
0
 30
0
  3
AIGNBL02010232
  0
LINE
  8
LAYER_2
 10
50.6741
 20
91.49
 11
50.9921
 21
91.49
  0
ENDBLK
  0
BLOCK
  8
LAYER_2
  2
AIGNBL02010233
 70
64
 10
0
 20
0
 30
0
  3
AIGNBL02010233
  0
INSERT
  8
LAYER_2
  2
AIGNBL02020234
 10
0
 20
0
 30
0
  0
LINE
  8
LAYER_2
 10
16.9718
 20
154.4931
 11
19.1833
 21
155.0856
  0
LINE
  8
LAYER_2
 10
19.1833
 20
155.0856
 11
16.9718
 21
155.6782
  0
LINE
  8
LAYER_2
 10
16.9718
 20
155.6782
 11
16.9718
 21
154.4931
  0
LINE
  8
LAYER_2
 10
-59.7307
 20
155.6782
 11
-61.9423
 21
155.0856
  0
LINE
  8
LAYER_2
 10
-61.9423
 20
155.0856
 11
-59.7307
 21
154.4931
  0
LINE
  8
LAYER_2
 10
-59.7307
 20
154.4931
 11
-59.7307
 21
155.6782
  0
ENDBLK
  0
BLOCK
  8
LAYER_2
  2
AIGNBL02010235
 70
64
 10
0
 20
0
 30
0
  3
AIGNBL02010235
  0
LINE
  8
LAYER_2
 10
19.1833
 20
190.7537
 11
19.1833
 21
154.3856
  0
ENDBLK
  0
BLOCK
  8
LAYER_2
  2
AIGNBL02010236
 70
64
 10
0
 20
0
 30
0
  3
AIGNBL02010236
  0
LINE
  8
LAYER_2
 10
-61.9423
 20
190.7537
 11
-61.9423
 21
154.3856
  0
ENDBLK
  0
BLOCK
  8
LAYER_2
  2
AIGNBL02010237
 70
64
 10
0
 20
0
 30
0
  3
AIGNBL02010237
  0
INSERT
  8
LAYER_2
  2
AIGNBL02020238
 10
0
 20
0
 30
0
  0
LINE
  8
LAYER_2
 10
73.5772
 20
84.7328
 11
74.1698
 21
82.5211
  0
LINE
  8
LAYER_2
 10
74.1698
 20
82.5211
 11
74.7624
 21
84.7328
  0
LINE
  8
LAYER_2
 10
74.7624
 20
84.7328
 11
73.5772
 21
84.7328
  0
LINE
  8
LAYER_2
 10
74.7624
 20
94.0287
 11
74.1698
 21
96.2401
  0
LINE
  8
LAYER_2
 10
74.1698
 20
96.2401
 11
73.5772
 21
94.0287
  0
LINE
  8
LAYER_2
 10
73.5772
 20
94.0287
 11
74.7624
 21
94.0287
  0
ENDBLK
  0
BLOCK
  8
LAYER_2
  2
AIGNBL02010239
 70
64
 10
0
 20
0
 30
0
  3
AIGNBL02010239
  0
INSERT
  8
LAYER_2
  2
AIGNBL0202023A
 10
0
 20
0
 30
0
  0
LINE
  8
LAYER_2
 10
-70.2018
 20
82.2021
 11
-69.6092
 21
79.9903
  0
LINE
  8
LAYER_2
 10
-69.6092
 20
79.9903
 11
-69.0166
 21
82.2021
  0
LINE
  8
LAYER_2
 10
-69.0166
 20
82.2021
 11
-70.2018
 21
82.2021
  0
LINE
  8
LAYER_2
 10
-69.0166
 20
94.0287
 11
-69.6092
 21
96.2401
  0
LINE
  8
LAYER_2
 10
-69.6092
 20
96.2401
 11
-70.2018
 21
94.0287
  0
LINE
  8
LAYER_2
 10
-70.2018
 20
94.0287
 11
-69.0166
 21
94.0287
  0
ENDBLK
  0
BLOCK
  8
LAYER_2
  2
AIGNBL0201023B
 70
64
 10
0
 20
0
 30
0
  3
AIGNBL0201023B
  0
LINE
  8
LAYER_2
 10
-60.4933
 20
79.9903
 11
-70.3094
 21
79.9903
  0
ENDBLK
  0
BLOCK
  8
LAYER_2
  2
AIGNBL0201023C
 70
64
 10
0
 20
0
 30
0
  3
AIGNBL0201023C
  0
LINE
  8
LAYER_2
 10
-61.0548
 20
96.2401
 11
-70.3094
 21
96.2401
  0
ENDBLK
  0
BLOCK
  8
LAYER_2
  2
AIGNBL0201023D
 70
64
 10
0
 20
0
 30
0
  3
AIGNBL0201023D
  0
INSERT
  8
LAYER_2
  2
AIGNBL0202023E
 10
0
 20
0
 30
0
  0
LINE
  8
LAYER_2
 10
36.8296
 20
169.9762
 11
37.4222
 21
167.7646
  0
LINE
  8
LAYER_2
 10
37.4222
 20
167.7646
 11
38.0147
 21
169.9762
  0
LINE
  8
LAYER_2
 10
38.0147
 20
169.9762
 11
36.8296
 21
169.9762
  0
LINE
  8
LAYER_2
 10
38.0147
 20
224.178
 11
37.4222
 21
226.3896
  0
LINE
  8
LAYER_2
 10
37.4222
 20
226.3896
 11
36.8296
 21
224.178
  0
LINE
  8
LAYER_2
 10
36.8296
 20
224.178
 11
38.0147
 21
224.178
  0
ENDBLK
  0
BLOCK
  8
LAYER_2
  2
AIGNBL0201023F
 70
64
 10
0
 20
0
 30
0
  3
AIGNBL0201023F
  0
INSERT
  8
LAYER_2
  2
AIGNBL02020240
 10
0
 20
0
 30
0
  0
LINE
  8
LAYER_2
 10
-18.2016
 20
201.4054
 11
-19.3464
 21
199.4226
  0
LINE
  8
LAYER_2
 10
-19.3464
 20
199.4226
 11
-17.3636
 21
200.5674
  0
LINE
  8
LAYER_2
 10
-17.3636
 20
200.5674
 11
-18.2016
 21
201.4054
  0
LINE
  8
LAYER_2
 10
-24.557
 20
193.3739
 11
-23.4122
 21
195.3567
  0
LINE
  8
LAYER_2
 10
-23.4122
 20
195.3567
 11
-25.395
 21
194.2119
  0
LINE
  8
LAYER_2
 10
-25.395
 20
194.2119
 11
-24.557
 21
193.3739
  0
ENDBLK
  0
BLOCK
  8
LAYER_2
  2
AIGNBL02010241
 70
64
 10
0
 20
0
 30
0
  3
AIGNBL02010241
  0
INSERT
  8
LAYER_2
  2
AIGNBL02020242
 10
0
 20
0
 30
0
  0
LINE
  8
LAYER_2
 10
28.021
 20
199.6012
 11
28.6136
 21
197.3897
  0
LINE
  8
LAYER_2
 10
28.6136
 20
197.3897
 11
29.2062
 21
199.6012
  0
LINE
  8
LAYER_2
 10
29.2062
 20
199.6012
 11
28.021
 21
199.6012
  0
LINE
  8
LAYER_2
 10
29.2062
 20
224.178
 11
28.6136
 21
226.3896
  0
LINE
  8
LAYER_2
 10
28.6136
 20
226.3896
 11
28.021
 21
224.178
  0
LINE
  8
LAYER_2
 10
28.021
 20
224.178
 11
29.2062
 21
224.178
  0
ENDBLK
  0
BLOCK
  8
LAYER_2
  2
AIGNBL02010243
 70
64
 10
0
 20
0
 30
0
  3
AIGNBL02010243
  0
LINE
  8
LAYER_2
 10
-12.0733
 20
197.3897
 11
29.3136
 21
197.3897
  0
ENDBLK
  0
BLOCK
  8
LAYER_2
  2
AIGNBL02010244
 70
64
 10
0
 20
0
 30
0
  3
AIGNBL02010244
  0
LINE
  8
LAYER_2
 10
-3.8621
 20
167.7646
 11
38.1222
 21
167.7646
  0
ENDBLK
  0
BLOCK
  8
LAYER_2
  2
AIGNBL02010245
 70
64
 10
0
 20
0
 30
0
  3
AIGNBL02010245
  0
LINE
  8
LAYER_2
 10
-9.547
 20
203.3676
 11
-15.4015
 21
203.3676
  0
ENDBLK
  0
BLOCK
  8
LAYER_2
  2
AIGNBL02010246
 70
64
 10
0
 20
0
 30
0
  3
AIGNBL02010246
  0
LINE
  8
LAYER_2
 10
-3.8621
 20
226.3896
 11
38.1222
 21
226.3896
  0
ENDBLK
  0
BLOCK
  8
LAYER_2
  2
AIGNBL02010247
 70
64
 10
0
 20
0
 30
0
  3
AIGNBL02010247
  0
LINE
  8
LAYER_2
 10
-61.9423
 20
82.4901
 11
-61.9423
 21
82.4542
  0
ENDBLK
  0
BLOCK
  8
LAYER_2
  2
AIGNBL02010248
 70
64
 10
0
 20
0
 30
0
  3
AIGNBL02010248
  0
LINE
  8
LAYER_2
 10
-61.9423
 20
82.4542
 11
-61.9065
 21
82.4191
  0
ENDBLK
  0
BLOCK
  8
LAYER_2
  2
AIGNBL02010249
 70
64
 10
0
 20
0
 30
0
  3
AIGNBL02010249
  0
LINE
  8
LAYER_2
 10
-61.9065
 20
82.4191
 11
-61.9065
 21
82.3839
  0
ENDBLK
  0
BLOCK
  8
LAYER_2
  2
AIGNBL0201024A
 70
64
 10
0
 20
0
 30
0
  3
AIGNBL0201024A
  0
LINE
  8
LAYER_2
 10
-61.9065
 20
82.3839
 11
-61.8717
 21
82.3488
  0
ENDBLK
  0
BLOCK
  8
LAYER_2
  2
AIGNBL0201024B
 70
64
 10
0
 20
0
 30
0
  3
AIGNBL0201024B
  0
LINE
  8
LAYER_2
 10
-61.8717
 20
82.3488
 11
-61.8717
 21
82.3137
  0
ENDBLK
  0
BLOCK
  8
LAYER_2
  2
AIGNBL0201024C
 70
64
 10
0
 20
0
 30
0
  3
AIGNBL0201024C
  0
LINE
  8
LAYER_2
 10
19.1127
 20
82.3137
 11
19.1127
 21
82.3488
  0
ENDBLK
  0
BLOCK
  8
LAYER_2
  2
AIGNBL0201024D
 70
64
 10
0
 20
0
 30
0
  3
AIGNBL0201024D
  0
LINE
  8
LAYER_2
 10
19.1127
 20
82.3488
 11
19.1485
 21
82.3488
  0
ENDBLK
  0
BLOCK
  8
LAYER_2
  2
AIGNBL0201024E
 70
64
 10
0
 20
0
 30
0
  3
AIGNBL0201024E
  0
LINE
  8
LAYER_2
 10
19.1485
 20
82.3488
 11
19.1485
 21
82.3839
  0
ENDBLK
  0
BLOCK
  8
LAYER_2
  2
AIGNBL0201024F
 70
64
 10
0
 20
0
 30
0
  3
AIGNBL0201024F
  0
LINE
  8
LAYER_2
 10
19.1485
 20
82.3839
 11
19.1485
 21
82.4191
  0
ENDBLK
  0
BLOCK
  8
LAYER_2
  2
AIGNBL02010250
 70
64
 10
0
 20
0
 30
0
  3
AIGNBL02010250
  0
LINE
  8
LAYER_2
 10
19.1485
 20
82.4191
 11
19.1833
 21
82.4191
  0
ENDBLK
  0
BLOCK
  8
LAYER_2
  2
AIGNBL02010251
 70
64
 10
0
 20
0
 30
0
  3
AIGNBL02010251
  0
LINE
  8
LAYER_2
 10
19.1833
 20
82.4191
 11
19.1833
 21
82.4542
  0
ENDBLK
  0
BLOCK
  8
LAYER_2
  2
AIGNBL02010252
 70
64
 10
0
 20
0
 30
0
  3
AIGNBL02010252
  0
LINE
  8
LAYER_2
 10
19.1833
 20
82.4542
 11
19.1833
 21
82.4901
  0
ENDBLK
  0
BLOCK
  8
LAYER_2
  2
AIGNBL02010253
 70
64
 10
0
 20
0
 30
0
  3
AIGNBL02010253
  0
LINE
  8
LAYER_2
 10
19.1833
 20
82.4901
 11
19.0073
 21
91.2792
  0
ENDBLK
  0
BLOCK
  8
LAYER_2
  2
AIGNBL02010254
 70
64
 10
0
 20
0
 30
0
  3
AIGNBL02010254
  0
LINE
  8
LAYER_2
 10
-61.7656
 20
91.2792
 11
-61.9423
 21
82.4901
  0
ENDBLK
  0
BLOCK
  8
LAYER_2
  2
AIGNBL02010255
 70
64
 10
0
 20
0
 30
0
  3
AIGNBL02010255
  0
LINE
  8
LAYER_2
 10
16.8196
 20
79.9903
 11
19.1127
 21
82.3137
  0
ENDBLK
  0
BLOCK
  8
LAYER_2
  2
AIGNBL02010256
 70
64
 10
0
 20
0
 30
0
  3
AIGNBL02010256
  0
LINE
  8
LAYER_2
 10
-61.8717
 20
82.3137
 11
-59.5435
 21
79.9903
  0
ENDBLK
  0
BLOCK
  8
LAYER_2
  2
AIGNBL02010257
 70
64
 10
0
 20
0
 30
0
  3
AIGNBL02010257
  0
LINE
  8
LAYER_2
 10
19.0073
 20
91.2792
 11
19.0073
 21
91.3143
  0
ENDBLK
  0
BLOCK
  8
LAYER_2
  2
AIGNBL02010258
 70
64
 10
0
 20
0
 30
0
  3
AIGNBL02010258
  0
LINE
  8
LAYER_2
 10
19.0073
 20
91.3143
 11
19.0073
 21
91.3488
  0
ENDBLK
  0
BLOCK
  8
LAYER_2
  2
AIGNBL02010259
 70
64
 10
0
 20
0
 30
0
  3
AIGNBL02010259
  0
LINE
  8
LAYER_2
 10
19.0073
 20
91.3488
 11
19.0073
 21
91.3846
  0
ENDBLK
  0
BLOCK
  8
LAYER_2
  2
AIGNBL0201025A
 70
64
 10
0
 20
0
 30
0
  3
AIGNBL0201025A
  0
LINE
  8
LAYER_2
 10
19.0073
 20
91.3846
 11
19.0073
 21
91.4197
  0
ENDBLK
  0
BLOCK
  8
LAYER_2
  2
AIGNBL0201025B
 70
64
 10
0
 20
0
 30
0
  3
AIGNBL0201025B
  0
LINE
  8
LAYER_2
 10
19.0073
 20
91.4197
 11
19.0073
 21
91.4549
  0
ENDBLK
  0
BLOCK
  8
LAYER_2
  2
AIGNBL0201025C
 70
64
 10
0
 20
0
 30
0
  3
AIGNBL0201025C
  0
LINE
  8
LAYER_2
 10
19.0073
 20
91.4549
 11
19.0073
 21
91.49
  0
ENDBLK
  0
BLOCK
  8
LAYER_2
  2
AIGNBL0201025D
 70
64
 10
0
 20
0
 30
0
  3
AIGNBL0201025D
  0
LINE
  8
LAYER_2
 10
-61.7304
 20
91.49
 11
-61.7656
 21
91.4549
  0
ENDBLK
  0
BLOCK
  8
LAYER_2
  2
AIGNBL0201025E
 70
64
 10
0
 20
0
 30
0
  3
AIGNBL0201025E
  0
LINE
  8
LAYER_2
 10
-61.7656
 20
91.4549
 11
-61.7656
 21
91.4197
  0
ENDBLK
  0
BLOCK
  8
LAYER_2
  2
AIGNBL0201025F
 70
64
 10
0
 20
0
 30
0
  3
AIGNBL0201025F
  0
LINE
  8
LAYER_2
 10
-61.7656
 20
91.4197
 11
-61.7656
 21
91.3846
  0
ENDBLK
  0
BLOCK
  8
LAYER_2
  2
AIGNBL02010260
 70
64
 10
0
 20
0
 30
0
  3
AIGNBL02010260
  0
LINE
  8
LAYER_2
 10
-61.7656
 20
91.3846
 11
-61.7656
 21
91.3488
  0
ENDBLK
  0
BLOCK
  8
LAYER_2
  2
AIGNBL02010261
 70
64
 10
0
 20
0
 30
0
  3
AIGNBL02010261
  0
LINE
  8
LAYER_2
 10
-61.7656
 20
91.3488
 11
-61.7656
 21
91.3143
  0
ENDBLK
  0
BLOCK
  8
LAYER_2
  2
AIGNBL02010262
 70
64
 10
0
 20
0
 30
0
  3
AIGNBL02010262
  0
LINE
  8
LAYER_2
 10
-61.7656
 20
91.3143
 11
-61.7656
 21
91.2792
  0
ENDBLK
  0
BLOCK
  8
LAYER_2
  2
AIGNBL02010263
 70
64
 10
0
 20
0
 30
0
  3
AIGNBL02010263
  0
LINE
  8
LAYER_2
 10
19.0073
 20
91.49
 11
17.6308
 21
95.7116
  0
ENDBLK
  0
BLOCK
  8
LAYER_2
  2
AIGNBL02010264
 70
64
 10
0
 20
0
 30
0
  3
AIGNBL02010264
  0
LINE
  8
LAYER_2
 10
-60.3903
 20
95.7116
 11
-61.7304
 21
91.49
  0
ENDBLK
  0
BLOCK
  8
LAYER_2
  2
AIGNBL02010265
 70
64
 10
0
 20
0
 30
0
  3
AIGNBL02010265
  0
LINE
  8
LAYER_2
 10
-59.6847
 20
96.2401
 11
-59.7903
 21
96.2401
  0
ENDBLK
  0
BLOCK
  8
LAYER_2
  2
AIGNBL02010266
 70
64
 10
0
 20
0
 30
0
  3
AIGNBL02010266
  0
LINE
  8
LAYER_2
 10
-59.7903
 20
96.2401
 11
-59.9316
 21
96.205
  0
ENDBLK
  0
BLOCK
  8
LAYER_2
  2
AIGNBL02010267
 70
64
 10
0
 20
0
 30
0
  3
AIGNBL02010267
  0
LINE
  8
LAYER_2
 10
-59.9316
 20
96.205
 11
-60.0372
 21
96.134
  0
ENDBLK
  0
BLOCK
  8
LAYER_2
  2
AIGNBL02010268
 70
64
 10
0
 20
0
 30
0
  3
AIGNBL02010268
  0
LINE
  8
LAYER_2
 10
-60.0372
 20
96.134
 11
-60.1078
 21
96.0989
  0
ENDBLK
  0
BLOCK
  8
LAYER_2
  2
AIGNBL02010269
 70
64
 10
0
 20
0
 30
0
  3
AIGNBL02010269
  0
LINE
  8
LAYER_2
 10
-60.1078
 20
96.0989
 11
-60.2132
 21
96.0286
  0
ENDBLK
  0
BLOCK
  8
LAYER_2
  2
AIGNBL0201026A
 70
64
 10
0
 20
0
 30
0
  3
AIGNBL0201026A
  0
LINE
  8
LAYER_2
 10
-60.2132
 20
96.0286
 11
-60.2838
 21
95.9225
  0
ENDBLK
  0
BLOCK
  8
LAYER_2
  2
AIGNBL0201026B
 70
64
 10
0
 20
0
 30
0
  3
AIGNBL0201026B
  0
LINE
  8
LAYER_2
 10
-60.2838
 20
95.9225
 11
-60.3548
 21
95.8171
  0
ENDBLK
  0
BLOCK
  8
LAYER_2
  2
AIGNBL0201026C
 70
64
 10
0
 20
0
 30
0
  3
AIGNBL0201026C
  0
LINE
  8
LAYER_2
 10
-60.3548
 20
95.8171
 11
-60.3903
 21
95.7116
  0
ENDBLK
  0
BLOCK
  8
LAYER_2
  2
AIGNBL0201026D
 70
64
 10
0
 20
0
 30
0
  3
AIGNBL0201026D
  0
LINE
  8
LAYER_2
 10
17.6308
 20
95.7116
 11
17.5955
 21
95.8171
  0
ENDBLK
  0
BLOCK
  8
LAYER_2
  2
AIGNBL0201026E
 70
64
 10
0
 20
0
 30
0
  3
AIGNBL0201026E
  0
LINE
  8
LAYER_2
 10
17.5955
 20
95.8171
 11
17.5259
 21
95.9225
  0
ENDBLK
  0
BLOCK
  8
LAYER_2
  2
AIGNBL0201026F
 70
64
 10
0
 20
0
 30
0
  3
AIGNBL0201026F
  0
LINE
  8
LAYER_2
 10
17.5259
 20
95.9225
 11
17.4556
 21
96.0286
  0
ENDBLK
  0
BLOCK
  8
LAYER_2
  2
AIGNBL02010270
 70
64
 10
0
 20
0
 30
0
  3
AIGNBL02010270
  0
LINE
  8
LAYER_2
 10
17.4556
 20
96.0286
 11
17.385
 21
96.0989
  0
ENDBLK
  0
BLOCK
  8
LAYER_2
  2
AIGNBL02010271
 70
64
 10
0
 20
0
 30
0
  3
AIGNBL02010271
  0
LINE
  8
LAYER_2
 10
17.385
 20
96.0989
 11
17.2792
 21
96.134
  0
ENDBLK
  0
BLOCK
  8
LAYER_2
  2
AIGNBL02010272
 70
64
 10
0
 20
0
 30
0
  3
AIGNBL02010272
  0
LINE
  8
LAYER_2
 10
17.2792
 20
96.134
 11
17.1726
 21
96.205
  0
ENDBLK
  0
BLOCK
  8
LAYER_2
  2
AIGNBL02010273
 70
64
 10
0
 20
0
 30
0
  3
AIGNBL02010273
  0
LINE
  8
LAYER_2
 10
17.1726
 20
96.205
 11
17.0672
 21
96.2401
  0
ENDBLK
  0
BLOCK
  8
LAYER_2
  2
AIGNBL02010274
 70
64
 10
0
 20
0
 30
0
  3
AIGNBL02010274
  0
LINE
  8
LAYER_2
 10
17.0672
 20
96.2401
 11
16.9265
 21
96.2401
  0
ENDBLK
  0
BLOCK
  8
LAYER_2
  2
AIGNBL02010275
 70
64
 10
0
 20
0
 30
0
  3
AIGNBL02010275
  0
LINE
  8
LAYER_2
 10
16.9265
 20
96.2401
 11
-59.6847
 21
96.2401
  0
ENDBLK
  0
BLOCK
  8
LAYER_2
  2
AIGNBL02010276
 70
64
 10
0
 20
0
 30
0
  3
AIGNBL02010276
  0
LINE
  8
LAYER_2
 10
-61.9423
 20
82.4901
 11
19.1833
 21
82.4901
  0
ENDBLK
  0
BLOCK
  8
LAYER_2
  2
AIGNBL02010277
 70
64
 10
0
 20
0
 30
0
  3
AIGNBL02010277
  0
LINE
  8
LAYER_2
 10
16.8196
 20
79.9903
 11
-59.5435
 21
79.9903
  0
ENDBLK
  0
BLOCK
  8
LAYER_2
  2
AIGNBL02010278
 70
64
 10
0
 20
0
 30
0
  3
AIGNBL02010278
  0
LINE
  8
LAYER_2
 10
-61.7304
 20
91.49
 11
19.0073
 21
91.49
  0
ENDBLK
  0
BLOCK
  8
LAYER_2
  2
AIGNBL02010279
 70
64
 10
0
 20
0
 30
0
  3
AIGNBL02010279
  0
ARC
  8
LAYER_2
 10
-21.3795
 20
197.39
 40
4.8751
 50
269.9993847
 51
359.99944
  0
ENDBLK
  0
BLOCK
  8
LAYER_2
  2
AIGNBL0201027A
 70
64
 10
0
 20
0
 30
0
  3
AIGNBL0201027A
  0
ARC
  8
LAYER_2
 10
-21.3795
 20
197.39
 40
4.8751
 50
179.9997601
 51
269.9990646
  0
ENDBLK
  0
BLOCK
  8
LAYER_2
  2
AIGNBL0201027B
 70
64
 10
0
 20
0
 30
0
  3
AIGNBL0201027B
  0
ARC
  8
LAYER_2
 10
-21.3796
 20
197.39
 40
4.875
 50
90.00002765
 51
179.9999723
  0
ENDBLK
  0
BLOCK
  8
LAYER_2
  2
AIGNBL0201027C
 70
64
 10
0
 20
0
 30
0
  3
AIGNBL0201027C
  0
ARC
  8
LAYER_2
 10
-21.3795
 20
197.3899
 40
4.8751
 50
0.000827518434
 51
90.00152302
  0
ENDBLK
  0
BLOCK
  8
LAYER_2
  2
AIGNBL0201027D
 70
64
 10
0
 20
0
 30
0
  3
AIGNBL0201027D
  0
ARC
  8
LAYER_2
 10
-21.3796
 20
197.3899
 40
2.875
 50
270.0009496
 51
0.001043322056
  0
ENDBLK
  0
BLOCK
  8
LAYER_2
  2
AIGNBL0201027E
 70
64
 10
0
 20
0
 30
0
  3
AIGNBL0201027E
  0
ARC
  8
LAYER_2
 10
-21.3795
 20
197.3899
 40
2.875
 50
179.9985968
 51
269.9974174
  0
ENDBLK
  0
BLOCK
  8
LAYER_2
  2
AIGNBL0201027F
 70
64
 10
0
 20
0
 30
0
  3
AIGNBL0201027F
  0
ARC
  8
LAYER_2
 10
-21.3795
 20
197.39
 40
2.875
 50
90.00104336
 51
180.0009496
  0
ENDBLK
  0
BLOCK
  8
LAYER_2
  2
AIGNBL02010280
 70
64
 10
0
 20
0
 30
0
  3
AIGNBL02010280
  0
ARC
  8
LAYER_2
 10
-21.3796
 20
197.39
 40
2.875
 50
359.9994103
 51
90.00058968
  0
ENDBLK
  0
BLOCK
  8
LAYER_2
  2
AIGNBL02010281
 70
64
 10
0
 20
0
 30
0
  3
AIGNBL02010281
  0
LINE
  8
LAYER_2
 10
-32.6295
 20
167.7646
 11
-10.1294
 21
167.7646
  0
ENDBLK
  0
BLOCK
  8
LAYER_2
  2
AIGNBL02010282
 70
64
 10
0
 20
0
 30
0
  3
AIGNBL02010282
  0
LINE
  8
LAYER_2
 10
-32.6295
 20
169.2646
 11
-10.1294
 21
169.2646
  0
ENDBLK
  0
BLOCK
  8
LAYER_2
  2
AIGNBL02010283
 70
64
 10
0
 20
0
 30
0
  3
AIGNBL02010283
  0
LINE
  8
LAYER_2
 10
-32.6295
 20
170.7646
 11
-10.1294
 21
170.7646
  0
ENDBLK
  0
BLOCK
  8
LAYER_2
  2
AIGNBL02010284
 70
64
 10
0
 20
0
 30
0
  3
AIGNBL02010284
  0
LINE
  8
LAYER_2
 10
-32.6295
 20
223.3907
 11
-10.1294
 21
223.3907
  0
ENDBLK
  0
BLOCK
  8
LAYER_2
  2
AIGNBL02010285
 70
64
 10
0
 20
0
 30
0
  3
AIGNBL02010285
  0
LINE
  8
LAYER_2
 10
-32.6295
 20
224.8907
 11
-10.1294
 21
224.8907
  0
ENDBLK
  0
BLOCK
  8
LAYER_2
  2
AIGNBL02010286
 70
64
 10
0
 20
0
 30
0
  3
AIGNBL02010286
  0
LINE
  8
LAYER_2
 10
-32.6295
 20
226.3896
 11
-10.1294
 21
226.3896
  0
ENDBLK
  0
BLOCK
  8
LAYER_2
  2
AIGNBL02010287
 70
64
 10
0
 20
0
 30
0
  3
AIGNBL02010287
  0
ARC
  8
LAYER_2
 10
-32.6295
 20
197.0775
 40
26.3126
 50
179.9999958
 51
270.0000042
  0
ENDBLK
  0
BLOCK
  8
LAYER_2
  2
AIGNBL02010288
 70
64
 10
0
 20
0
 30
0
  3
AIGNBL02010288
  0
ARC
  8
LAYER_2
 10
-32.6295
 20
197.0775
 40
26.3126
 50
90.0001025
 51
180.0001153
  0
ENDBLK
  0
BLOCK
  8
LAYER_2
  2
AIGNBL02010289
 70
64
 10
0
 20
0
 30
0
  3
AIGNBL02010289
  0
ARC
  8
LAYER_2
 10
-10.1293
 20
197.0771
 40
26.313
 50
0.0009005750505
 51
90.00018815
  0
ENDBLK
  0
BLOCK
  8
LAYER_2
  2
AIGNBL0201028A
 70
64
 10
0
 20
0
 30
0
  3
AIGNBL0201028A
  0
ARC
  8
LAYER_2
 10
-10.1293
 20
197.0779
 40
26.313
 50
269.9997051
 51
359.9989884
  0
ENDBLK
  0
BLOCK
  8
LAYER_2
  2
AIGNBL0201028B
 70
64
 10
0
 20
0
 30
0
  3
AIGNBL0201028B
  0
ARC
  8
LAYER_2
 10
-32.6295
 20
197.0774
 40
27.8126
 50
179.999893
 51
269.999901
  0
ENDBLK
  0
BLOCK
  8
LAYER_2
  2
AIGNBL0201028C
 70
64
 10
0
 20
0
 30
0
  3
AIGNBL0201028C
  0
ARC
  8
LAYER_2
 10
-32.6296
 20
197.0776
 40
27.8125
 50
89.99976798
 51
180.000438
  0
ENDBLK
  0
BLOCK
  8
LAYER_2
  2
AIGNBL0201028D
 70
64
 10
0
 20
0
 30
0
  3
AIGNBL0201028D
  0
ARC
  8
LAYER_2
 10
-10.1295
 20
197.0776
 40
27.8125
 50
359.999802
 51
89.99978596
  0
ENDBLK
  0
BLOCK
  8
LAYER_2
  2
AIGNBL0201028E
 70
64
 10
0
 20
0
 30
0
  3
AIGNBL0201028E
  0
ARC
  8
LAYER_2
 10
-10.1296
 20
197.0774
 40
27.8126
 50
270.0004029
 51
0.0002151512344
  0
ENDBLK
  0
BLOCK
  8
LAYER_2
  2
AIGNBL0201028F
 70
64
 10
0
 20
0
 30
0
  3
AIGNBL0201028F
  0
ARC
  8
LAYER_2
 10
-10.1295
 20
197.0773
 40
29.3128
 50
0.0004174838988
 51
89.99977797
  0
ENDBLK
  0
BLOCK
  8
LAYER_2
  2
AIGNBL02010290
 70
64
 10
0
 20
0
 30
0
  3
AIGNBL02010290
  0
ARC
  8
LAYER_2
 10
-10.1296
 20
197.0778
 40
29.3129
 50
270.0003035
 51
359.9995011
  0
ENDBLK
  0
BLOCK
  8
LAYER_2
  2
AIGNBL02010291
 70
64
 10
0
 20
0
 30
0
  3
AIGNBL02010291
  0
ARC
  8
LAYER_2
 10
-32.6297
 20
197.0775
 40
29.3126
 50
180.0002099
 51
270.0003765
  0
ENDBLK
  0
BLOCK
  8
LAYER_2
  2
AIGNBL02010292
 70
64
 10
0
 20
0
 30
0
  3
AIGNBL02010292
  0
ARC
  8
LAYER_2
 10
-32.6296
 20
197.0774
 40
29.3127
 50
89.99971927
 51
179.9998898
  0
ENDBLK
  0
BLOCK
  8
LAYER_2
  2
AIGNBL02010293
 70
64
 10
0
 20
0
 30
0
  3
AIGNBL02010293
  0
INSERT
  8
LAYER_2
  2
AIGNBL02020294
 10
0
 20
0
 30
0
  0
LINE
  8
LAYER_2
 10
60.6127
 20
214.5531
 11
60.0201
 21
216.7647
  0
LINE
  8
LAYER_2
 10
60.0201
 20
216.7647
 11
59.4276
 21
214.5531
  0
LINE
  8
LAYER_2
 10
59.4276
 20
214.5531
 11
60.6127
 21
214.5531
  0
LINE
  8
LAYER_2
 10
59.4276
 20
180.2262
 11
60.0201
 21
178.0146
  0
LINE
  8
LAYER_2
 10
60.0201
 20
178.0146
 11
60.6127
 21
180.2262
  0
LINE
  8
LAYER_2
 10
60.6127
 20
180.2262
 11
59.4276
 21
180.2262
  0
ENDBLK
  0
BLOCK
  8
LAYER_2
  2
AIGNBL02010295
 70
64
 10
0
 20
0
 30
0
  3
AIGNBL02010295
  0
LINE
  8
LAYER_2
 10
76.6703
 20
178.0146
 11
59.3201
 21
178.0146
  0
ENDBLK
  0
BLOCK
  8
LAYER_2
  2
AIGNBL02010296
 70
64
 10
0
 20
0
 30
0
  3
AIGNBL02010296
  0
LINE
  8
LAYER_2
 10
76.6703
 20
216.7647
 11
59.3201
 21
216.7647
  0
ENDBLK
  0
BLOCK
  8
LAYER_2
  2
AIGNBL02010297
 70
64
 10
0
 20
0
 30
0
  3
AIGNBL02010297
  0
LINE
  8
LAYER_2
 10
95.4409
 20
181.8237
 11
81.9078
 21
195.3567
  0
ENDBLK
  0
BLOCK
  8
LAYER_2
  2
AIGNBL02010298
 70
64
 10
0
 20
0
 30
0
  3
AIGNBL02010298
  0
INSERT
  8
LAYER_2
  2
AIGNBL02020299
 10
0
 20
0
 30
0
  0
LINE
  8
LAYER_2
 10
87.0386
 20
211.3408
 11
88.1834
 21
213.3234
  0
LINE
  8
LAYER_2
 10
88.1834
 20
213.3234
 11
86.2004
 21
212.1788
  0
LINE
  8
LAYER_2
 10
86.2004
 20
212.1788
 11
87.0386
 21
211.3408
  0
ENDBLK
  0
BLOCK
  8
LAYER_2
  2
AIGNBL0201029A
 70
64
 10
0
 20
0
 30
0
  3
AIGNBL0201029A
  0
LINE
  8
LAYER_2
 10
95.4409
 20
181.8237
 11
105.0685
 21
181.8237
  0
ENDBLK
  0
BLOCK
  8
LAYER_2
  2
AIGNBL0201029B
 70
64
 10
0
 20
0
 30
0
  3
AIGNBL0201029B
  0
LINE
  8
LAYER_2
 10
197.4923
 20
223.8578
 11
187.6766
 21
233.6735
  0
ENDBLK
  0
BLOCK
  8
LAYER_2
  2
AIGNBL0201029C
 70
64
 10
0
 20
0
 30
0
  3
AIGNBL0201029C
  0
LINE
  8
LAYER_2
 10
197.4923
 20
223.8578
 11
212.2087
 21
223.8578
  0
ENDBLK
  0
BLOCK
  8
LAYER_2
  2
AIGNBL0201029D
 70
64
 10
0
 20
0
 30
0
  3
AIGNBL0201029D
  0
LINE
  8
LAYER_2
 10
91.6247
 20
216.7647
 11
97.573
 21
216.7647
  0
ENDBLK
  0
BLOCK
  8
LAYER_2
  2
AIGNBL0201029E
 70
64
 10
0
 20
0
 30
0
  3
AIGNBL0201029E
  0
INSERT
  8
LAYER_2
  2
AIGNBL0202029F
 10
0
 20
0
 30
0
  0
LINE
  8
LAYER_2
 10
70.3358
 20
169.6322
 11
68.1244
 21
169.0396
  0
LINE
  8
LAYER_2
 10
68.1244
 20
169.0396
 11
70.3358
 21
168.4471
  0
LINE
  8
LAYER_2
 10
70.3358
 20
168.4471
 11
70.3358
 21
169.6322
  0
LINE
  8
LAYER_2
 10
89.4133
 20
168.4471
 11
91.6247
 21
169.0396
  0
LINE
  8
LAYER_2
 10
91.6247
 20
169.0396
 11
89.4133
 21
169.6322
  0
LINE
  8
LAYER_2
 10
89.4133
 20
169.6322
 11
89.4133
 21
168.4471
  0
ENDBLK
  0
BLOCK
  8
LAYER_2
  2
AIGNBL020102A0
 70
64
 10
0
 20
0
 30
0
  3
AIGNBL020102A0
  0
LINE
  8
LAYER_2
 10
91.6247
 20
186.6716
 11
91.6247
 21
168.3387
  0
ENDBLK
  0
BLOCK
  8
LAYER_2
  2
AIGNBL020102A1
 70
64
 10
0
 20
0
 30
0
  3
AIGNBL020102A1
  0
LINE
  8
LAYER_2
 10
68.1244
 20
186.6716
 11
68.1244
 21
168.3387
  0
ENDBLK
  0
BLOCK
  8
LAYER_2
  2
AIGNBL020102A2
 70
64
 10
0
 20
0
 30
0
  3
AIGNBL020102A2
  0
LINE
  8
LAYER_2
 10
91.6247
 20
205.0147
 11
91.6247
 21
189.7646
  0
ENDBLK
  0
BLOCK
  8
LAYER_2
  2
AIGNBL020102A3
 70
64
 10
0
 20
0
 30
0
  3
AIGNBL020102A3
  0
LINE
  8
LAYER_2
 10
68.1244
 20
205.0147
 11
68.1244
 21
189.7646
  0
ENDBLK
  0
BLOCK
  8
LAYER_2
  2
AIGNBL020102A4
 70
64
 10
0
 20
0
 30
0
  3
AIGNBL020102A4
  0
ARC
  8
LAYER_2
 10
79.8748
 20
189.7647
 40
11.7499
 50
270.0005486
 51
0.0004266627
  0
ENDBLK
  0
BLOCK
  8
LAYER_2
  2
AIGNBL020102A5
 70
64
 10
0
 20
0
 30
0
  3
AIGNBL020102A5
  0
ARC
  8
LAYER_2
 10
79.875
 20
189.7654
 40
11.7506
 50
180.0027697
 51
269.9996684
  0
ENDBLK
  0
BLOCK
  8
LAYER_2
  2
AIGNBL020102A6
 70
64
 10
0
 20
0
 30
0
  3
AIGNBL020102A6
  0
ARC
  8
LAYER_2
 10
79.8749
 20
205.0145
 40
11.7505
 50
90.0002029
 51
179.997359
  0
ENDBLK
  0
BLOCK
  8
LAYER_2
  2
AIGNBL020102A7
 70
64
 10
0
 20
0
 30
0
  3
AIGNBL020102A7
  0
ARC
  8
LAYER_2
 10
79.8748
 20
205.0151
 40
11.7499
 50
359.9994447
 51
89.99958008
  0
ENDBLK
  0
BLOCK
  8
LAYER_3
  2
AIGNBL03010002
 70
64
 10
0
 20
0
 30
0
  3
AIGNBL03010002
  0
ARC
  8
LAYER_3
 10
181.2361
 20
51.0518
 40
2.085
 50
359.9990616
 51
90.00093841
  0
ARC
  8
LAYER_3
 10
181.2364
 20
51.0522
 40
2.0846
 50
90.00927268
 51
180.0099666
  0
ARC
  8
LAYER_3
 10
181.2361
 20
51.0519
 40
2.0843
 50
180.0023133
 51
270.0004358
  0
ARC
  8
LAYER_3
 10
181.2365
 20
51.0522
 40
2.0846
 50
269.9893525
 51
359.9886593
  0
ARC
  8
LAYER_3
 10
181.2365
 20
51.0515
 40
1.2199
 50
0.01483428533
 51
90.01804168
  0
ARC
  8
LAYER_3
 10
181.2361
 20
51.0519
 40
1.2195
 50
90.00175626
 51
180.0029419
  0
ARC
  8
LAYER_3
 10
181.2361
 20
51.0518
 40
1.2195
 50
180.0016044
 51
269.9983956
  0
ARC
  8
LAYER_3
 10
181.2365
 20
51.0522
 40
1.2199
 50
269.9818051
 51
359.9806209
  0
LINE
  8
LAYER_3
 10
184.9472
 20
49.8323
 11
184.9472
 21
52.2714
  0
LINE
  8
LAYER_3
 10
190.1252
 20
48.9676
 11
190.1252
 21
53.1368
  0
LINE
  8
LAYER_3
 10
184.9472
 20
52.2714
 11
190.1252
 21
53.1368
  0
LINE
  8
LAYER_3
 10
184.9472
 20
49.8323
 11
190.1252
 21
48.9676
  0
LINE
  8
LAYER_3
 10
181.2361
 20
51.0518
 11
181.2361
 21
50.8004
  0
LINE
  8
LAYER_3
 10
181.2361
 20
50.5599
 11
181.2361
 21
48.3729
  0
LINE
  8
LAYER_3
 10
181.2361
 20
51.0518
 11
181.4883
 21
51.0518
  0
LINE
  8
LAYER_3
 10
181.7288
 20
51.0518
 11
183.9157
 21
51.0518
  0
LINE
  8
LAYER_3
 10
181.2361
 20
51.0518
 11
181.2361
 21
51.304
  0
LINE
  8
LAYER_3
 10
181.2361
 20
51.5445
 11
181.2361
 21
53.7314
  0
LINE
  8
LAYER_3
 10
181.2361
 20
51.0518
 11
180.9846
 21
51.0518
  0
LINE
  8
LAYER_3
 10
180.7442
 20
51.0518
 11
178.5572
 21
51.0518
  0
LINE
  8
LAYER_3
 10
187.1404
 20
51.0518
 11
187.3925
 21
51.0518
  0
LINE
  8
LAYER_3
 10
187.633
 20
51.0518
 11
190.5579
 21
51.0518
  0
LINE
  8
LAYER_3
 10
187.1404
 20
51.0518
 11
186.8882
 21
51.0518
  0
LINE
  8
LAYER_3
 10
186.6477
 20
51.0518
 11
184.4614
 21
51.0518
  0
ENDBLK
  0
ENDSEC
  0
SECTION
  2
ENTITIES
  0
TEXT
  8
LAYER_1
 10
213.856
 20
208.0717
 11
213.856
 21
208.0717
 40
3.0923
 41
0.5
 50
89.99999999
 72
1
  1
13
  0
TEXT
  8
LAYER_1
 10
205.9478
 20
175.9379
 11
205.9478
 21
175.9379
 40
3.0923
 41
0.5
 50
89.99999999
 72
1
  1
13
  0
TEXT
  8
LAYER_1
 10
205.9478
 20
183.938
 11
205.9478
 21
183.938
 40
3.0923
 41
0.5
 50
89.99999999
 72
1
  1
35
  0
TEXT
  8
LAYER_1
 10
205.9478
 20
215.4074
 11
205.9478
 21
215.4074
 40
3.0923
 41
0.5
 50
89.99999999
 72
2
  1
8
  0
TEXT
  8
LAYER_1
 10
186.2146
 20
163.9092
 11
186.2146
 21
163.9092
 40
3.0923
 41
0.5
 72
1
  1
G1 1/4
  0
TEXT
  8
LAYER_1
 10
186.2146
 20
152.771
 11
186.2146
 21
152.771
 40
3.0923
 41
0.5
 72
1
  1
排水目皿（尺度1:3）
  0
TEXT
  8
LAYER_1
 10
202.408
 20
247.1887
 11
202.408
 21
247.1887
 40
3.0923
 41
0.5
 72
2
  1
%%c64
  0
TEXT
  8
LAYER_1
 10
59.3201
 20
197.3897
 11
59.3201
 21
197.3897
 40
3.0923
 41
0.5
 50
89.99999999
 72
1
  1
310
  0
TEXT
  8
LAYER_1
 10
27.9135
 20
211.8896
 11
27.9135
 21
211.8896
 40
3.0923
 41
0.5
 50
89.99999999
 72
1
  1
232
  0
TEXT
  8
LAYER_1
 10
36.7221
 20
197.077
 11
36.7221
 21
197.077
 40
3.0923
 41
0.5
 50
89.99999999
 72
1
  1
469
  0
TEXT
  8
LAYER_1
 10
79.8749
 20
169.7397
 11
79.8749
 21
169.7397
 40
3.0923
 41
0.5
 72
1
  1
188
  0
TEXT
  8
LAYER_1
 10
97.573
 20
217.4648
 11
97.573
 21
217.4648
 40
3.0923
 41
0.5
 72
2
  1
R94
  0
TEXT
  8
LAYER_1
 10
105.0685
 20
182.5237
 11
105.0685
 21
182.5237
 40
3.0923
 41
0.5
 72
2
  1
排水口
  0
TEXT
  8
LAYER_1
 10
214.3308
 20
224.5577
 11
214.3308
 21
224.5577
 40
3.0923
 41
0.5
 72
2
  1
メーカーロゴ
  0
TEXT
  8
LAYER_1
 10
81.1255
 20
158.9019
 11
81.1255
 21
158.9019
 40
3.0923
 41
0.5
 72
1
  1
カウンター切込寸法
  0
TEXT
  8
LAYER_1
 10
-10.6953
 20
204.0676
 11
-10.6953
 21
204.0676
 40
3.0923
 41
0.5
 72
2
  1
%%c46
  0
TEXT
  8
LAYER_1
 10
-21.3796
 20
155.7857
 11
-21.3796
 21
155.7857
 40
3.0923
 41
0.5
 72
1
  1
649
  0
TEXT
  8
LAYER_1
 10
-70.3092
 20
88.1152
 11
-70.3092
 21
88.1152
 40
3.0923
 41
0.5
 50
89.99999999
 72
1
  1
130
  0
TEXT
  8
LAYER_1
 10
73.4698
 20
88.2193
 11
73.4698
 21
88.2193
 40
3.0923
 41
0.5
 50
89.99999999
 72
1
  1
110
  0
TEXT
  8
LAYER_1
 10
38.1072
 20
84.1906
 11
38.1072
 21
84.1906
 40
3.0923
 41
0.5
 72
1
  1
カウンター上面
  0
INSERT
  8
LAYER_2
  2
AIGNBL02010002
 10
0
 20
0
 30
0
  0
INSERT
  8
LAYER_2
  2
AIGNBL02010003
 10
0
 20
0
 30
0
  0
INSERT
  8
LAYER_2
  2
AIGNBL02010004
 10
0
 20
0
 30
0
  0
INSERT
  8
LAYER_2
  2
AIGNBL02010005
 10
0
 20
0
 30
0
  0
INSERT
  8
LAYER_2
  2
AIGNBL02010006
 10
0
 20
0
 30
0
  0
INSERT
  8
LAYER_2
  2
AIGNBL02010007
 10
0
 20
0
 30
0
  0
INSERT
  8
LAYER_2
  2
AIGNBL02010008
 10
0
 20
0
 30
0
  0
INSERT
  8
LAYER_2
  2
AIGNBL02010009
 10
0
 20
0
 30
0
  0
INSERT
  8
LAYER_2
  2
AIGNBL0201000A
 10
0
 20
0
 30
0
  0
INSERT
  8
LAYER_2
  2
AIGNBL0201000B
 10
0
 20
0
 30
0
  0
INSERT
  8
LAYER_2
  2
AIGNBL0201000C
 10
0
 20
0
 30
0
  0
INSERT
  8
LAYER_2
  2
AIGNBL0201000D
 10
0
 20
0
 30
0
  0
INSERT
  8
LAYER_2
  2
AIGNBL0201000E
 10
0
 20
0
 30
0
  0
INSERT
  8
LAYER_2
  2
AIGNBL0201000F
 10
0
 20
0
 30
0
  0
INSERT
  8
LAYER_2
  2
AIGNBL02010010
 10
0
 20
0
 30
0
  0
INSERT
  8
LAYER_2
  2
AIGNBL02010011
 10
0
 20
0
 30
0
  0
INSERT
  8
LAYER_2
  2
AIGNBL02010012
 10
0
 20
0
 30
0
  0
INSERT
  8
LAYER_2
  2
AIGNBL02010013
 10
0
 20
0
 30
0
  0
INSERT
  8
LAYER_2
  2
AIGNBL02010014
 10
0
 20
0
 30
0
  0
INSERT
  8
LAYER_2
  2
AIGNBL02010015
 10
0
 20
0
 30
0
  0
INSERT
  8
LAYER_2
  2
AIGNBL02010016
 10
0
 20
0
 30
0
  0
INSERT
  8
LAYER_2
  2
AIGNBL02010017
 10
0
 20
0
 30
0
  0
INSERT
  8
LAYER_2
  2
AIGNBL02010018
 10
0
 20
0
 30
0
  0
INSERT
  8
LAYER_2
  2
AIGNBL02010019
 10
0
 20
0
 30
0
  0
INSERT
  8
LAYER_2
  2
AIGNBL0201001A
 10
0
 20
0
 30
0
  0
INSERT
  8
LAYER_2
  2
AIGNBL0201001B
 10
0
 20
0
 30
0
  0
INSERT
  8
LAYER_2
  2
AIGNBL0201001C
 10
0
 20
0
 30
0
  0
INSERT
  8
LAYER_2
  2
AIGNBL0201001D
 10
0
 20
0
 30
0
  0
INSERT
  8
LAYER_2
  2
AIGNBL0201001E
 10
0
 20
0
 30
0
  0
INSERT
  8
LAYER_2
  2
AIGNBL0201001F
 10
0
 20
0
 30
0
  0
INSERT
  8
LAYER_2
  2
AIGNBL02010020
 10
0
 20
0
 30
0
  0
INSERT
  8
LAYER_2
  2
AIGNBL02010021
 10
0
 20
0
 30
0
  0
INSERT
  8
LAYER_2
  2
AIGNBL02010022
 10
0
 20
0
 30
0
  0
INSERT
  8
LAYER_2
  2
AIGNBL02010023
 10
0
 20
0
 30
0
  0
INSERT
  8
LAYER_2
  2
AIGNBL02010024
 10
0
 20
0
 30
0
  0
INSERT
  8
LAYER_2
  2
AIGNBL02010025
 10
0
 20
0
 30
0
  0
INSERT
  8
LAYER_2
  2
AIGNBL02010026
 10
0
 20
0
 30
0
  0
INSERT
  8
LAYER_2
  2
AIGNBL02010027
 10
0
 20
0
 30
0
  0
INSERT
  8
LAYER_2
  2
AIGNBL02010028
 10
0
 20
0
 30
0
  0
INSERT
  8
LAYER_2
  2
AIGNBL02010029
 10
0
 20
0
 30
0
  0
INSERT
  8
LAYER_2
  2
AIGNBL0201002A
 10
0
 20
0
 30
0
  0
INSERT
  8
LAYER_2
  2
AIGNBL0201002B
 10
0
 20
0
 30
0
  0
INSERT
  8
LAYER_2
  2
AIGNBL0201002C
 10
0
 20
0
 30
0
  0
INSERT
  8
LAYER_2
  2
AIGNBL0201002D
 10
0
 20
0
 30
0
  0
INSERT
  8
LAYER_2
  2
AIGNBL0201002E
 10
0
 20
0
 30
0
  0
INSERT
  8
LAYER_2
  2
AIGNBL0201002F
 10
0
 20
0
 30
0
  0
INSERT
  8
LAYER_2
  2
AIGNBL02010030
 10
0
 20
0
 30
0
  0
INSERT
  8
LAYER_2
  2
AIGNBL02010031
 10
0
 20
0
 30
0
  0
INSERT
  8
LAYER_2
  2
AIGNBL02010032
 10
0
 20
0
 30
0
  0
INSERT
  8
LAYER_2
  2
AIGNBL02010033
 10
0
 20
0
 30
0
  0
INSERT
  8
LAYER_2
  2
AIGNBL02010034
 10
0
 20
0
 30
0
  0
INSERT
  8
LAYER_2
  2
AIGNBL02010035
 10
0
 20
0
 30
0
  0
INSERT
  8
LAYER_2
  2
AIGNBL02010036
 10
0
 20
0
 30
0
  0
INSERT
  8
LAYER_2
  2
AIGNBL02010037
 10
0
 20
0
 30
0
  0
INSERT
  8
LAYER_2
  2
AIGNBL02010038
 10
0
 20
0
 30
0
  0
INSERT
  8
LAYER_2
  2
AIGNBL02010039
 10
0
 20
0
 30
0
  0
INSERT
  8
LAYER_2
  2
AIGNBL0201003A
 10
0
 20
0
 30
0
  0
INSERT
  8
LAYER_2
  2
AIGNBL0201003B
 10
0
 20
0
 30
0
  0
INSERT
  8
LAYER_2
  2
AIGNBL0201003C
 10
0
 20
0
 30
0
  0
INSERT
  8
LAYER_2
  2
AIGNBL0201003D
 10
0
 20
0
 30
0
  0
INSERT
  8
LAYER_2
  2
AIGNBL0201003E
 10
0
 20
0
 30
0
  0
INSERT
  8
LAYER_2
  2
AIGNBL0201003F
 10
0
 20
0
 30
0
  0
INSERT
  8
LAYER_2
  2
AIGNBL02010040
 10
0
 20
0
 30
0
  0
INSERT
  8
LAYER_2
  2
AIGNBL02010041
 10
0
 20
0
 30
0
  0
INSERT
  8
LAYER_2
  2
AIGNBL02010042
 10
0
 20
0
 30
0
  0
INSERT
  8
LAYER_2
  2
AIGNBL02010043
 10
0
 20
0
 30
0
  0
INSERT
  8
LAYER_2
  2
AIGNBL02010044
 10
0
 20
0
 30
0
  0
INSERT
  8
LAYER_2
  2
AIGNBL02010045
 10
0
 20
0
 30
0
  0
INSERT
  8
LAYER_2
  2
AIGNBL02010046
 10
0
 20
0
 30
0
  0
INSERT
  8
LAYER_2
  2
AIGNBL02010047
 10
0
 20
0
 30
0
  0
INSERT
  8
LAYER_2
  2
AIGNBL02010048
 10
0
 20
0
 30
0
  0
INSERT
  8
LAYER_2
  2
AIGNBL02010049
 10
0
 20
0
 30
0
  0
INSERT
  8
LAYER_2
  2
AIGNBL0201004A
 10
0
 20
0
 30
0
  0
INSERT
  8
LAYER_2
  2
AIGNBL0201004B
 10
0
 20
0
 30
0
  0
INSERT
  8
LAYER_2
  2
AIGNBL0201004C
 10
0
 20
0
 30
0
  0
INSERT
  8
LAYER_2
  2
AIGNBL0201004D
 10
0
 20
0
 30
0
  0
INSERT
  8
LAYER_2
  2
AIGNBL0201004E
 10
0
 20
0
 30
0
  0
INSERT
  8
LAYER_2
  2
AIGNBL0201004F
 10
0
 20
0
 30
0
  0
INSERT
  8
LAYER_2
  2
AIGNBL02010050
 10
0
 20
0
 30
0
  0
INSERT
  8
LAYER_2
  2
AIGNBL02010051
 10
0
 20
0
 30
0
  0
INSERT
  8
LAYER_2
  2
AIGNBL02010052
 10
0
 20
0
 30
0
  0
INSERT
  8
LAYER_2
  2
AIGNBL02010053
 10
0
 20
0
 30
0
  0
INSERT
  8
LAYER_2
  2
AIGNBL02010054
 10
0
 20
0
 30
0
  0
INSERT
  8
LAYER_2
  2
AIGNBL02010055
 10
0
 20
0
 30
0
  0
INSERT
  8
LAYER_2
  2
AIGNBL02010056
 10
0
 20
0
 30
0
  0
INSERT
  8
LAYER_2
  2
AIGNBL02010057
 10
0
 20
0
 30
0
  0
INSERT
  8
LAYER_2
  2
AIGNBL02010058
 10
0
 20
0
 30
0
  0
INSERT
  8
LAYER_2
  2
AIGNBL02010059
 10
0
 20
0
 30
0
  0
INSERT
  8
LAYER_2
  2
AIGNBL0201005A
 10
0
 20
0
 30
0
  0
INSERT
  8
LAYER_2
  2
AIGNBL0201005B
 10
0
 20
0
 30
0
  0
INSERT
  8
LAYER_2
  2
AIGNBL0201005C
 10
0
 20
0
 30
0
  0
INSERT
  8
LAYER_2
  2
AIGNBL0201005D
 10
0
 20
0
 30
0
  0
INSERT
  8
LAYER_2
  2
AIGNBL0201005E
 10
0
 20
0
 30
0
  0
INSERT
  8
LAYER_2
  2
AIGNBL0201005F
 10
0
 20
0
 30
0
  0
INSERT
  8
LAYER_2
  2
AIGNBL02010060
 10
0
 20
0
 30
0
  0
LINE
  8
LAYER_2
  6
AIGENLINE002
 10
186.2146
 20
212.5061
 11
186.2146
 21
171.7887
  0
LINE
  8
LAYER_2
  6
AIGENLINE002
 10
186.2146
 20
247.8662
 11
186.2146
 21
221.9124
  0
INSERT
  8
LAYER_2
  2
AIGNBL02010061
 10
0
 20
0
 30
0
  0
INSERT
  8
LAYER_2
  2
AIGNBL02010062
 10
0
 20
0
 30
0
  0
INSERT
  8
LAYER_2
  2
AIGNBL02010063
 10
0
 20
0
 30
0
  0
INSERT
  8
LAYER_2
  2
AIGNBL02010064
 10
0
 20
0
 30
0
  0
INSERT
  8
LAYER_2
  2
AIGNBL02010065
 10
0
 20
0
 30
0
  0
INSERT
  8
LAYER_2
  2
AIGNBL02010066
 10
0
 20
0
 30
0
  0
INSERT
  8
LAYER_2
  2
AIGNBL02010067
 10
0
 20
0
 30
0
  0
INSERT
  8
LAYER_2
  2
AIGNBL02010068
 10
0
 20
0
 30
0
  0
INSERT
  8
LAYER_2
  2
AIGNBL02010069
 10
0
 20
0
 30
0
  0
INSERT
  8
LAYER_2
  2
AIGNBL0201006A
 10
0
 20
0
 30
0
  0
INSERT
  8
LAYER_2
  2
AIGNBL0201006B
 10
0
 20
0
 30
0
  0
INSERT
  8
LAYER_2
  2
AIGNBL0201006C
 10
0
 20
0
 30
0
  0
INSERT
  8
LAYER_2
  2
AIGNBL0201006D
 10
0
 20
0
 30
0
  0
INSERT
  8
LAYER_2
  2
AIGNBL0201006E
 10
0
 20
0
 30
0
  0
INSERT
  8
LAYER_2
  2
AIGNBL0201006F
 10
0
 20
0
 30
0
  0
INSERT
  8
LAYER_2
  2
AIGNBL02010070
 10
0
 20
0
 30
0
  0
INSERT
  8
LAYER_2
  2
AIGNBL02010071
 10
0
 20
0
 30
0
  0
INSERT
  8
LAYER_2
  2
AIGNBL02010072
 10
0
 20
0
 30
0
  0
INSERT
  8
LAYER_2
  2
AIGNBL02010073
 10
0
 20
0
 30
0
  0
INSERT
  8
LAYER_2
  2
AIGNBL02010074
 10
0
 20
0
 30
0
  0
INSERT
  8
LAYER_2
  2
AIGNBL02010075
 10
0
 20
0
 30
0
  0
INSERT
  8
LAYER_2
  2
AIGNBL02010076
 10
0
 20
0
 30
0
  0
INSERT
  8
LAYER_2
  2
AIGNBL02010077
 10
0
 20
0
 30
0
  0
INSERT
  8
LAYER_2
  2
AIGNBL02010078
 10
0
 20
0
 30
0
  0
INSERT
  8
LAYER_2
  2
AIGNBL02010079
 10
0
 20
0
 30
0
  0
INSERT
  8
LAYER_2
  2
AIGNBL0201007A
 10
0
 20
0
 30
0
  0
INSERT
  8
LAYER_2
  2
AIGNBL0201007B
 10
0
 20
0
 30
0
  0
INSERT
  8
LAYER_2
  2
AIGNBL0201007C
 10
0
 20
0
 30
0
  0
INSERT
  8
LAYER_2
  2
AIGNBL0201007D
 10
0
 20
0
 30
0
  0
INSERT
  8
LAYER_2
  2
AIGNBL0201007E
 10
0
 20
0
 30
0
  0
INSERT
  8
LAYER_2
  2
AIGNBL0201007F
 10
0
 20
0
 30
0
  0
INSERT
  8
LAYER_2
  2
AIGNBL02010080
 10
0
 20
0
 30
0
  0
INSERT
  8
LAYER_2
  2
AIGNBL02010081
 10
0
 20
0
 30
0
  0
INSERT
  8
LAYER_2
  2
AIGNBL02010082
 10
0
 20
0
 30
0
  0
INSERT
  8
LAYER_2
  2
AIGNBL02010083
 10
0
 20
0
 30
0
  0
INSERT
  8
LAYER_2
  2
AIGNBL02010084
 10
0
 20
0
 30
0
  0
INSERT
  8
LAYER_2
  2
AIGNBL02010085
 10
0
 20
0
 30
0
  0
INSERT
  8
LAYER_2
  2
AIGNBL02010086
 10
0
 20
0
 30
0
  0
LINE
  8
LAYER_2
 10
181.4291
 20
163.8017
 11
179.2177
 21
163.2091
  0
LINE
  8
LAYER_2
 10
179.2177
 20
163.2091
 11
181.4291
 21
162.6166
  0
LINE
  8
LAYER_2
 10
181.4291
 20
162.6166
 11
181.4291
 21
163.8017
  0
LINE
  8
LAYER_2
 10
190.9999
 20
162.6166
 11
193.2113
 21
163.2091
  0
LINE
  8
LAYER_2
 10
193.2113
 20
163.2091
 11
190.9999
 21
163.8017
  0
LINE
  8
LAYER_2
 10
190.9999
 20
163.8017
 11
190.9999
 21
162.6166
  0
INSERT
  8
LAYER_2
  2
AIGNBL02010087
 10
0
 20
0
 30
0
  0
INSERT
  8
LAYER_2
  2
AIGNBL02010088
 10
0
 20
0
 30
0
  0
INSERT
  8
LAYER_2
  2
AIGNBL02010089
 10
0
 20
0
 30
0
  0
INSERT
  8
LAYER_2
  2
AIGNBL0201008A
 10
0
 20
0
 30
0
  0
INSERT
  8
LAYER_2
  2
AIGNBL0201008B
 10
0
 20
0
 30
0
  0
INSERT
  8
LAYER_2
  2
AIGNBL0201008C
 10
0
 20
0
 30
0
  0
INSERT
  8
LAYER_2
  2
AIGNBL0201008D
 10
0
 20
0
 30
0
  0
LINE
  8
LAYER_2
 10
215.1486
 20
203.6937
 11
214.5561
 21
205.9051
  0
LINE
  8
LAYER_2
 10
214.5561
 20
205.9051
 11
213.9635
 21
203.6937
  0
LINE
  8
LAYER_2
 10
213.9635
 20
203.6937
 11
215.1486
 21
203.6937
  0
LINE
  8
LAYER_2
 10
213.9635
 20
212.4499
 11
214.5561
 21
210.2383
  0
LINE
  8
LAYER_2
 10
214.5561
 20
210.2383
 11
215.1486
 21
212.4499
  0
LINE
  8
LAYER_2
 10
215.1486
 20
212.4499
 11
213.9635
 21
212.4499
  0
LINE
  8
LAYER_2
 10
189.6594
 20
232.5286
 11
187.6766
 21
233.6735
  0
LINE
  8
LAYER_2
 10
187.6766
 20
233.6735
 11
188.8214
 21
231.6906
  0
LINE
  8
LAYER_2
 10
188.8214
 20
231.6906
 11
189.6594
 21
232.5286
  0
INSERT
  8
LAYER_2
  2
AIGNBL0201008E
 10
0
 20
0
 30
0
  0
LINE
  8
LAYER_2
 10
207.2404
 20
187.56
 11
206.6478
 21
189.7714
  0
LINE
  8
LAYER_2
 10
206.6478
 20
189.7714
 11
206.0553
 21
187.56
  0
LINE
  8
LAYER_2
 10
206.0553
 20
187.56
 11
207.2404
 21
187.56
  0
LINE
  8
LAYER_2
 10
207.2404
 20
171.5597
 11
206.6478
 21
173.7711
  0
LINE
  8
LAYER_2
 10
206.6478
 20
173.7711
 11
206.0553
 21
171.5597
  0
LINE
  8
LAYER_2
 10
206.0553
 20
171.5597
 11
207.2404
 21
171.5597
  0
LINE
  8
LAYER_2
 10
206.0553
 20
180.3161
 11
206.6478
 21
178.1045
  0
LINE
  8
LAYER_2
 10
206.6478
 20
178.1045
 11
207.2404
 21
180.3161
  0
LINE
  8
LAYER_2
 10
207.2404
 20
180.3161
 11
206.0553
 21
180.3161
  0
INSERT
  8
LAYER_2
  2
AIGNBL0201008F
 10
0
 20
0
 30
0
  0
LINE
  8
LAYER_2
 10
207.2404
 20
205.3602
 11
206.6478
 21
207.5717
  0
LINE
  8
LAYER_2
 10
206.6478
 20
207.5717
 11
206.0553
 21
205.3602
  0
LINE
  8
LAYER_2
 10
206.0553
 20
205.3602
 11
207.2404
 21
205.3602
  0
LINE
  8
LAYER_2
 10
206.0553
 20
212.4499
 11
206.6478
 21
210.2383
  0
LINE
  8
LAYER_2
 10
206.6478
 20
210.2383
 11
207.2404
 21
212.4499
  0
LINE
  8
LAYER_2
 10
207.2404
 20
212.4499
 11
206.0553
 21
212.4499
  0
LINE
  8
LAYER_2
 10
175.5479
 20
208.5595
 11
196.8814
 21
208.5595
  0
LINE
  8
LAYER_2
 10
176.5594
 20
207.5717
 11
195.8933
 21
207.5717
  0
LINE
  8
LAYER_2
 10
175.5479
 20
210.1207
 11
196.8814
 21
210.1207
  0
CIRCLE
  8
LAYER_2
 10
186.2146
 20
235.0015
 40
10.6667
  0
LINE
  8
LAYER_2
  6
AIGENLINE002
 10
198.3724
 20
235.0015
 11
173.7234
 21
235.0015
  0
INSERT
  8
LAYER_2
  2
AIGNBL02010090
 10
0
 20
0
 30
0
  0
INSERT
  8
LAYER_2
  2
AIGNBL02010091
 10
0
 20
0
 30
0
  0
LINE
  8
LAYER_2
 10
194.9021
 20
244.5263
 11
193.757
 21
242.5437
  0
LINE
  8
LAYER_2
 10
193.757
 20
242.5437
 11
195.74
 21
243.6883
  0
LINE
  8
LAYER_2
 10
195.74
 20
243.6883
 11
194.9021
 21
244.5263
  0
LINE
  8
LAYER_2
 10
177.5275
 20
225.4763
 11
178.6723
 21
227.459
  0
LINE
  8
LAYER_2
 10
178.6723
 20
227.459
 11
176.6893
 21
226.3144
  0
LINE
  8
LAYER_2
 10
176.6893
 20
226.3144
 11
177.5275
 21
225.4763
  0
INSERT
  8
LAYER_2
  2
AIGNBL02010092
 10
0
 20
0
 30
0
  0
INSERT
  8
LAYER_2
  2
AIGNBL02010093
 10
0
 20
0
 30
0
  0
INSERT
  8
LAYER_2
  2
AIGNBL02010094
 10
0
 20
0
 30
0
  0
INSERT
  8
LAYER_2
  2
AIGNBL02010095
 10
0
 20
0
 30
0
  0
INSERT
  8
LAYER_2
  2
AIGNBL02010096
 10
0
 20
0
 30
0
  0
INSERT
  8
LAYER_2
  2
AIGNBL02010097
 10
0
 20
0
 30
0
  0
INSERT
  8
LAYER_2
  2
AIGNBL02010098
 10
0
 20
0
 30
0
  0
INSERT
  8
LAYER_2
  2
AIGNBL02010099
 10
0
 20
0
 30
0
  0
INSERT
  8
LAYER_2
  2
AIGNBL0201009A
 10
0
 20
0
 30
0
  0
INSERT
  8
LAYER_2
  2
AIGNBL0201009B
 10
0
 20
0
 30
0
  0
INSERT
  8
LAYER_2
  2
AIGNBL0201009C
 10
0
 20
0
 30
0
  0
INSERT
  8
LAYER_2
  2
AIGNBL0201009D
 10
0
 20
0
 30
0
  0
INSERT
  8
LAYER_2
  2
AIGNBL0201009E
 10
0
 20
0
 30
0
  0
INSERT
  8
LAYER_2
  2
AIGNBL0201009F
 10
0
 20
0
 30
0
  0
INSERT
  8
LAYER_2
  2
AIGNBL020100A0
 10
0
 20
0
 30
0
  0
INSERT
  8
LAYER_2
  2
AIGNBL020100A1
 10
0
 20
0
 30
0
  0
INSERT
  8
LAYER_2
  2
AIGNBL020100A2
 10
0
 20
0
 30
0
  0
INSERT
  8
LAYER_2
  2
AIGNBL020100A3
 10
0
 20
0
 30
0
  0
INSERT
  8
LAYER_2
  2
AIGNBL020100A4
 10
0
 20
0
 30
0
  0
INSERT
  8
LAYER_2
  2
AIGNBL020100A5
 10
0
 20
0
 30
0
  0
INSERT
  8
LAYER_2
  2
AIGNBL020100A6
 10
0
 20
0
 30
0
  0
INSERT
  8
LAYER_2
  2
AIGNBL020100A7
 10
0
 20
0
 30
0
  0
INSERT
  8
LAYER_2
  2
AIGNBL020100A8
 10
0
 20
0
 30
0
  0
INSERT
  8
LAYER_2
  2
AIGNBL020100A9
 10
0
 20
0
 30
0
  0
INSERT
  8
LAYER_2
  2
AIGNBL020100AA
 10
0
 20
0
 30
0
  0
INSERT
  8
LAYER_2
  2
AIGNBL020100AB
 10
0
 20
0
 30
0
  0
INSERT
  8
LAYER_2
  2
AIGNBL020100AC
 10
0
 20
0
 30
0
  0
INSERT
  8
LAYER_2
  2
AIGNBL020100AD
 10
0
 20
0
 30
0
  0
INSERT
  8
LAYER_2
  2
AIGNBL020100AE
 10
0
 20
0
 30
0
  0
INSERT
  8
LAYER_2
  2
AIGNBL020100AF
 10
0
 20
0
 30
0
  0
INSERT
  8
LAYER_2
  2
AIGNBL020100B0
 10
0
 20
0
 30
0
  0
INSERT
  8
LAYER_2
  2
AIGNBL020100B1
 10
0
 20
0
 30
0
  0
INSERT
  8
LAYER_2
  2
AIGNBL020100B2
 10
0
 20
0
 30
0
  0
INSERT
  8
LAYER_2
  2
AIGNBL020100B3
 10
0
 20
0
 30
0
  0
INSERT
  8
LAYER_2
  2
AIGNBL020100B4
 10
0
 20
0
 30
0
  0
INSERT
  8
LAYER_2
  2
AIGNBL020100B5
 10
0
 20
0
 30
0
  0
INSERT
  8
LAYER_2
  2
AIGNBL020100B6
 10
0
 20
0
 30
0
  0
INSERT
  8
LAYER_2
  2
AIGNBL020100B7
 10
0
 20
0
 30
0
  0
INSERT
  8
LAYER_2
  2
AIGNBL020100B8
 10
0
 20
0
 30
0
  0
INSERT
  8
LAYER_2
  2
AIGNBL020100B9
 10
0
 20
0
 30
0
  0
INSERT
  8
LAYER_2
  2
AIGNBL020100BA
 10
0
 20
0
 30
0
  0
INSERT
  8
LAYER_2
  2
AIGNBL020100BB
 10
0
 20
0
 30
0
  0
INSERT
  8
LAYER_2
  2
AIGNBL020100BC
 10
0
 20
0
 30
0
  0
INSERT
  8
LAYER_2
  2
AIGNBL020100BD
 10
0
 20
0
 30
0
  0
INSERT
  8
LAYER_2
  2
AIGNBL020100BE
 10
0
 20
0
 30
0
  0
INSERT
  8
LAYER_2
  2
AIGNBL020100BF
 10
0
 20
0
 30
0
  0
INSERT
  8
LAYER_2
  2
AIGNBL020100C0
 10
0
 20
0
 30
0
  0
INSERT
  8
LAYER_2
  2
AIGNBL020100C1
 10
0
 20
0
 30
0
  0
INSERT
  8
LAYER_2
  2
AIGNBL020100C2
 10
0
 20
0
 30
0
  0
INSERT
  8
LAYER_2
  2
AIGNBL020100C3
 10
0
 20
0
 30
0
  0
INSERT
  8
LAYER_2
  2
AIGNBL020100C4
 10
0
 20
0
 30
0
  0
INSERT
  8
LAYER_2
  2
AIGNBL020100C5
 10
0
 20
0
 30
0
  0
INSERT
  8
LAYER_2
  2
AIGNBL020100C6
 10
0
 20
0
 30
0
  0
INSERT
  8
LAYER_2
  2
AIGNBL020100C7
 10
0
 20
0
 30
0
  0
INSERT
  8
LAYER_2
  2
AIGNBL020100C8
 10
0
 20
0
 30
0
  0
INSERT
  8
LAYER_2
  2
AIGNBL020100C9
 10
0
 20
0
 30
0
  0
INSERT
  8
LAYER_2
  2
AIGNBL020100CA
 10
0
 20
0
 30
0
  0
INSERT
  8
LAYER_2
  2
AIGNBL020100CB
 10
0
 20
0
 30
0
  0
INSERT
  8
LAYER_2
  2
AIGNBL020100CC
 10
0
 20
0
 30
0
  0
INSERT
  8
LAYER_2
  2
AIGNBL020100CD
 10
0
 20
0
 30
0
  0
INSERT
  8
LAYER_2
  2
AIGNBL020100CE
 10
0
 20
0
 30
0
  0
INSERT
  8
LAYER_2
  2
AIGNBL020100CF
 10
0
 20
0
 30
0
  0
INSERT
  8
LAYER_2
  2
AIGNBL020100D0
 10
0
 20
0
 30
0
  0
INSERT
  8
LAYER_2
  2
AIGNBL020100D1
 10
0
 20
0
 30
0
  0
INSERT
  8
LAYER_2
  2
AIGNBL020100D2
 10
0
 20
0
 30
0
  0
INSERT
  8
LAYER_2
  2
AIGNBL020100D3
 10
0
 20
0
 30
0
  0
INSERT
  8
LAYER_2
  2
AIGNBL020100D4
 10
0
 20
0
 30
0
  0
INSERT
  8
LAYER_2
  2
AIGNBL020100D5
 10
0
 20
0
 30
0
  0
INSERT
  8
LAYER_2
  2
AIGNBL020100D6
 10
0
 20
0
 30
0
  0
INSERT
  8
LAYER_2
  2
AIGNBL020100D7
 10
0
 20
0
 30
0
  0
INSERT
  8
LAYER_2
  2
AIGNBL020100D8
 10
0
 20
0
 30
0
  0
INSERT
  8
LAYER_2
  2
AIGNBL020100D9
 10
0
 20
0
 30
0
  0
INSERT
  8
LAYER_2
  2
AIGNBL020100DA
 10
0
 20
0
 30
0
  0
INSERT
  8
LAYER_2
  2
AIGNBL020100DB
 10
0
 20
0
 30
0
  0
INSERT
  8
LAYER_2
  2
AIGNBL020100DC
 10
0
 20
0
 30
0
  0
INSERT
  8
LAYER_2
  2
AIGNBL020100DD
 10
0
 20
0
 30
0
  0
INSERT
  8
LAYER_2
  2
AIGNBL020100DE
 10
0
 20
0
 30
0
  0
INSERT
  8
LAYER_2
  2
AIGNBL020100DF
 10
0
 20
0
 30
0
  0
INSERT
  8
LAYER_2
  2
AIGNBL020100E0
 10
0
 20
0
 30
0
  0
INSERT
  8
LAYER_2
  2
AIGNBL020100E1
 10
0
 20
0
 30
0
  0
INSERT
  8
LAYER_2
  2
AIGNBL020100E2
 10
0
 20
0
 30
0
  0
INSERT
  8
LAYER_2
  2
AIGNBL020100E3
 10
0
 20
0
 30
0
  0
INSERT
  8
LAYER_2
  2
AIGNBL020100E4
 10
0
 20
0
 30
0
  0
INSERT
  8
LAYER_2
  2
AIGNBL020100E5
 10
0
 20
0
 30
0
  0
INSERT
  8
LAYER_2
  2
AIGNBL020100E6
 10
0
 20
0
 30
0
  0
INSERT
  8
LAYER_2
  2
AIGNBL020100E7
 10
0
 20
0
 30
0
  0
INSERT
  8
LAYER_2
  2
AIGNBL020100E8
 10
0
 20
0
 30
0
  0
INSERT
  8
LAYER_2
  2
AIGNBL020100E9
 10
0
 20
0
 30
0
  0
INSERT
  8
LAYER_2
  2
AIGNBL020100EA
 10
0
 20
0
 30
0
  0
INSERT
  8
LAYER_2
  2
AIGNBL020100EB
 10
0
 20
0
 30
0
  0
INSERT
  8
LAYER_2
  2
AIGNBL020100EC
 10
0
 20
0
 30
0
  0
INSERT
  8
LAYER_2
  2
AIGNBL020100ED
 10
0
 20
0
 30
0
  0
INSERT
  8
LAYER_2
  2
AIGNBL020100EE
 10
0
 20
0
 30
0
  0
INSERT
  8
LAYER_2
  2
AIGNBL020100EF
 10
0
 20
0
 30
0
  0
INSERT
  8
LAYER_2
  2
AIGNBL020100F0
 10
0
 20
0
 30
0
  0
INSERT
  8
LAYER_2
  2
AIGNBL020100F1
 10
0
 20
0
 30
0
  0
INSERT
  8
LAYER_2
  2
AIGNBL020100F2
 10
0
 20
0
 30
0
  0
INSERT
  8
LAYER_2
  2
AIGNBL020100F3
 10
0
 20
0
 30
0
  0
INSERT
  8
LAYER_2
  2
AIGNBL020100F4
 10
0
 20
0
 30
0
  0
INSERT
  8
LAYER_2
  2
AIGNBL020100F5
 10
0
 20
0
 30
0
  0
INSERT
  8
LAYER_2
  2
AIGNBL020100F6
 10
0
 20
0
 30
0
  0
INSERT
  8
LAYER_2
  2
AIGNBL020100F7
 10
0
 20
0
 30
0
  0
INSERT
  8
LAYER_2
  2
AIGNBL020100F8
 10
0
 20
0
 30
0
  0
INSERT
  8
LAYER_2
  2
AIGNBL020100F9
 10
0
 20
0
 30
0
  0
INSERT
  8
LAYER_2
  2
AIGNBL020100FA
 10
0
 20
0
 30
0
  0
INSERT
  8
LAYER_2
  2
AIGNBL020100FB
 10
0
 20
0
 30
0
  0
INSERT
  8
LAYER_2
  2
AIGNBL020100FC
 10
0
 20
0
 30
0
  0
INSERT
  8
LAYER_2
  2
AIGNBL020100FD
 10
0
 20
0
 30
0
  0
INSERT
  8
LAYER_2
  2
AIGNBL020100FE
 10
0
 20
0
 30
0
  0
INSERT
  8
LAYER_2
  2
AIGNBL020100FF
 10
0
 20
0
 30
0
  0
INSERT
  8
LAYER_2
  2
AIGNBL02010100
 10
0
 20
0
 30
0
  0
INSERT
  8
LAYER_2
  2
AIGNBL02010101
 10
0
 20
0
 30
0
  0
INSERT
  8
LAYER_2
  2
AIGNBL02010102
 10
0
 20
0
 30
0
  0
INSERT
  8
LAYER_2
  2
AIGNBL02010103
 10
0
 20
0
 30
0
  0
INSERT
  8
LAYER_2
  2
AIGNBL02010104
 10
0
 20
0
 30
0
  0
INSERT
  8
LAYER_2
  2
AIGNBL02010105
 10
0
 20
0
 30
0
  0
INSERT
  8
LAYER_2
  2
AIGNBL02010106
 10
0
 20
0
 30
0
  0
INSERT
  8
LAYER_2
  2
AIGNBL02010107
 10
0
 20
0
 30
0
  0
INSERT
  8
LAYER_2
  2
AIGNBL02010108
 10
0
 20
0
 30
0
  0
INSERT
  8
LAYER_2
  2
AIGNBL02010109
 10
0
 20
0
 30
0
  0
INSERT
  8
LAYER_2
  2
AIGNBL0201010A
 10
0
 20
0
 30
0
  0
INSERT
  8
LAYER_2
  2
AIGNBL0201010B
 10
0
 20
0
 30
0
  0
INSERT
  8
LAYER_2
  2
AIGNBL0201010C
 10
0
 20
0
 30
0
  0
INSERT
  8
LAYER_2
  2
AIGNBL0201010D
 10
0
 20
0
 30
0
  0
INSERT
  8
LAYER_2
  2
AIGNBL0201010E
 10
0
 20
0
 30
0
  0
INSERT
  8
LAYER_2
  2
AIGNBL0201010F
 10
0
 20
0
 30
0
  0
INSERT
  8
LAYER_2
  2
AIGNBL02010110
 10
0
 20
0
 30
0
  0
INSERT
  8
LAYER_2
  2
AIGNBL02010111
 10
0
 20
0
 30
0
  0
INSERT
  8
LAYER_2
  2
AIGNBL02010112
 10
0
 20
0
 30
0
  0
INSERT
  8
LAYER_2
  2
AIGNBL02010113
 10
0
 20
0
 30
0
  0
INSERT
  8
LAYER_2
  2
AIGNBL02010114
 10
0
 20
0
 30
0
  0
INSERT
  8
LAYER_2
  2
AIGNBL02010115
 10
0
 20
0
 30
0
  0
INSERT
  8
LAYER_2
  2
AIGNBL02010116
 10
0
 20
0
 30
0
  0
INSERT
  8
LAYER_2
  2
AIGNBL02010117
 10
0
 20
0
 30
0
  0
INSERT
  8
LAYER_2
  2
AIGNBL02010118
 10
0
 20
0
 30
0
  0
INSERT
  8
LAYER_2
  2
AIGNBL02010119
 10
0
 20
0
 30
0
  0
INSERT
  8
LAYER_2
  2
AIGNBL0201011A
 10
0
 20
0
 30
0
  0
INSERT
  8
LAYER_2
  2
AIGNBL0201011B
 10
0
 20
0
 30
0
  0
INSERT
  8
LAYER_2
  2
AIGNBL0201011C
 10
0
 20
0
 30
0
  0
INSERT
  8
LAYER_2
  2
AIGNBL0201011D
 10
0
 20
0
 30
0
  0
INSERT
  8
LAYER_2
  2
AIGNBL0201011E
 10
0
 20
0
 30
0
  0
INSERT
  8
LAYER_2
  2
AIGNBL0201011F
 10
0
 20
0
 30
0
  0
INSERT
  8
LAYER_2
  2
AIGNBL02010120
 10
0
 20
0
 30
0
  0
INSERT
  8
LAYER_2
  2
AIGNBL02010121
 10
0
 20
0
 30
0
  0
INSERT
  8
LAYER_2
  2
AIGNBL02010122
 10
0
 20
0
 30
0
  0
INSERT
  8
LAYER_2
  2
AIGNBL02010123
 10
0
 20
0
 30
0
  0
INSERT
  8
LAYER_2
  2
AIGNBL02010124
 10
0
 20
0
 30
0
  0
INSERT
  8
LAYER_2
  2
AIGNBL02010125
 10
0
 20
0
 30
0
  0
INSERT
  8
LAYER_2
  2
AIGNBL02010126
 10
0
 20
0
 30
0
  0
INSERT
  8
LAYER_2
  2
AIGNBL02010127
 10
0
 20
0
 30
0
  0
INSERT
  8
LAYER_2
  2
AIGNBL02010128
 10
0
 20
0
 30
0
  0
INSERT
  8
LAYER_2
  2
AIGNBL02010129
 10
0
 20
0
 30
0
  0
INSERT
  8
LAYER_2
  2
AIGNBL0201012A
 10
0
 20
0
 30
0
  0
INSERT
  8
LAYER_2
  2
AIGNBL0201012B
 10
0
 20
0
 30
0
  0
INSERT
  8
LAYER_2
  2
AIGNBL0201012C
 10
0
 20
0
 30
0
  0
INSERT
  8
LAYER_2
  2
AIGNBL0201012D
 10
0
 20
0
 30
0
  0
INSERT
  8
LAYER_2
  2
AIGNBL0201012E
 10
0
 20
0
 30
0
  0
INSERT
  8
LAYER_2
  2
AIGNBL0201012F
 10
0
 20
0
 30
0
  0
INSERT
  8
LAYER_2
  2
AIGNBL02010130
 10
0
 20
0
 30
0
  0
INSERT
  8
LAYER_2
  2
AIGNBL02010131
 10
0
 20
0
 30
0
  0
INSERT
  8
LAYER_2
  2
AIGNBL02010132
 10
0
 20
0
 30
0
  0
INSERT
  8
LAYER_2
  2
AIGNBL02010133
 10
0
 20
0
 30
0
  0
INSERT
  8
LAYER_2
  2
AIGNBL02010134
 10
0
 20
0
 30
0
  0
INSERT
  8
LAYER_2
  2
AIGNBL02010135
 10
0
 20
0
 30
0
  0
INSERT
  8
LAYER_2
  2
AIGNBL02010136
 10
0
 20
0
 30
0
  0
INSERT
  8
LAYER_2
  2
AIGNBL02010137
 10
0
 20
0
 30
0
  0
INSERT
  8
LAYER_2
  2
AIGNBL02010138
 10
0
 20
0
 30
0
  0
INSERT
  8
LAYER_2
  2
AIGNBL02010139
 10
0
 20
0
 30
0
  0
INSERT
  8
LAYER_2
  2
AIGNBL0201013A
 10
0
 20
0
 30
0
  0
INSERT
  8
LAYER_2
  2
AIGNBL0201013B
 10
0
 20
0
 30
0
  0
INSERT
  8
LAYER_2
  2
AIGNBL0201013C
 10
0
 20
0
 30
0
  0
INSERT
  8
LAYER_2
  2
AIGNBL0201013D
 10
0
 20
0
 30
0
  0
INSERT
  8
LAYER_2
  2
AIGNBL0201013E
 10
0
 20
0
 30
0
  0
INSERT
  8
LAYER_2
  2
AIGNBL0201013F
 10
0
 20
0
 30
0
  0
INSERT
  8
LAYER_2
  2
AIGNBL02010140
 10
0
 20
0
 30
0
  0
INSERT
  8
LAYER_2
  2
AIGNBL02010141
 10
0
 20
0
 30
0
  0
INSERT
  8
LAYER_2
  2
AIGNBL02010142
 10
0
 20
0
 30
0
  0
INSERT
  8
LAYER_2
  2
AIGNBL02010143
 10
0
 20
0
 30
0
  0
INSERT
  8
LAYER_2
  2
AIGNBL02010144
 10
0
 20
0
 30
0
  0
INSERT
  8
LAYER_2
  2
AIGNBL02010145
 10
0
 20
0
 30
0
  0
INSERT
  8
LAYER_2
  2
AIGNBL02010146
 10
0
 20
0
 30
0
  0
INSERT
  8
LAYER_2
  2
AIGNBL02010147
 10
0
 20
0
 30
0
  0
INSERT
  8
LAYER_2
  2
AIGNBL02010148
 10
0
 20
0
 30
0
  0
INSERT
  8
LAYER_2
  2
AIGNBL02010149
 10
0
 20
0
 30
0
  0
INSERT
  8
LAYER_2
  2
AIGNBL0201014A
 10
0
 20
0
 30
0
  0
INSERT
  8
LAYER_2
  2
AIGNBL0201014B
 10
0
 20
0
 30
0
  0
INSERT
  8
LAYER_2
  2
AIGNBL0201014C
 10
0
 20
0
 30
0
  0
INSERT
  8
LAYER_2
  2
AIGNBL0201014D
 10
0
 20
0
 30
0
  0
INSERT
  8
LAYER_2
  2
AIGNBL0201014E
 10
0
 20
0
 30
0
  0
INSERT
  8
LAYER_2
  2
AIGNBL0201014F
 10
0
 20
0
 30
0
  0
INSERT
  8
LAYER_2
  2
AIGNBL02010150
 10
0
 20
0
 30
0
  0
INSERT
  8
LAYER_2
  2
AIGNBL02010151
 10
0
 20
0
 30
0
  0
INSERT
  8
LAYER_2
  2
AIGNBL02010152
 10
0
 20
0
 30
0
  0
INSERT
  8
LAYER_2
  2
AIGNBL02010153
 10
0
 20
0
 30
0
  0
INSERT
  8
LAYER_2
  2
AIGNBL02010154
 10
0
 20
0
 30
0
  0
INSERT
  8
LAYER_2
  2
AIGNBL02010155
 10
0
 20
0
 30
0
  0
INSERT
  8
LAYER_2
  2
AIGNBL02010156
 10
0
 20
0
 30
0
  0
INSERT
  8
LAYER_2
  2
AIGNBL02010157
 10
0
 20
0
 30
0
  0
INSERT
  8
LAYER_2
  2
AIGNBL02010158
 10
0
 20
0
 30
0
  0
INSERT
  8
LAYER_2
  2
AIGNBL02010159
 10
0
 20
0
 30
0
  0
INSERT
  8
LAYER_2
  2
AIGNBL0201015A
 10
0
 20
0
 30
0
  0
INSERT
  8
LAYER_2
  2
AIGNBL0201015B
 10
0
 20
0
 30
0
  0
INSERT
  8
LAYER_2
  2
AIGNBL0201015C
 10
0
 20
0
 30
0
  0
INSERT
  8
LAYER_2
  2
AIGNBL0201015D
 10
0
 20
0
 30
0
  0
INSERT
  8
LAYER_2
  2
AIGNBL0201015E
 10
0
 20
0
 30
0
  0
INSERT
  8
LAYER_2
  2
AIGNBL0201015F
 10
0
 20
0
 30
0
  0
INSERT
  8
LAYER_2
  2
AIGNBL02010160
 10
0
 20
0
 30
0
  0
INSERT
  8
LAYER_2
  2
AIGNBL02010161
 10
0
 20
0
 30
0
  0
INSERT
  8
LAYER_2
  2
AIGNBL02010162
 10
0
 20
0
 30
0
  0
INSERT
  8
LAYER_2
  2
AIGNBL02010163
 10
0
 20
0
 30
0
  0
INSERT
  8
LAYER_2
  2
AIGNBL02010164
 10
0
 20
0
 30
0
  0
INSERT
  8
LAYER_2
  2
AIGNBL02010165
 10
0
 20
0
 30
0
  0
INSERT
  8
LAYER_2
  2
AIGNBL02010166
 10
0
 20
0
 30
0
  0
INSERT
  8
LAYER_2
  2
AIGNBL02010167
 10
0
 20
0
 30
0
  0
INSERT
  8
LAYER_2
  2
AIGNBL02010168
 10
0
 20
0
 30
0
  0
INSERT
  8
LAYER_2
  2
AIGNBL02010169
 10
0
 20
0
 30
0
  0
INSERT
  8
LAYER_2
  2
AIGNBL0201016A
 10
0
 20
0
 30
0
  0
INSERT
  8
LAYER_2
  2
AIGNBL0201016B
 10
0
 20
0
 30
0
  0
INSERT
  8
LAYER_2
  2
AIGNBL0201016C
 10
0
 20
0
 30
0
  0
INSERT
  8
LAYER_2
  2
AIGNBL0201016D
 10
0
 20
0
 30
0
  0
INSERT
  8
LAYER_2
  2
AIGNBL0201016E
 10
0
 20
0
 30
0
  0
INSERT
  8
LAYER_2
  2
AIGNBL0201016F
 10
0
 20
0
 30
0
  0
INSERT
  8
LAYER_2
  2
AIGNBL02010170
 10
0
 20
0
 30
0
  0
INSERT
  8
LAYER_2
  2
AIGNBL02010171
 10
0
 20
0
 30
0
  0
INSERT
  8
LAYER_2
  2
AIGNBL02010172
 10
0
 20
0
 30
0
  0
INSERT
  8
LAYER_2
  2
AIGNBL02010173
 10
0
 20
0
 30
0
  0
INSERT
  8
LAYER_2
  2
AIGNBL02010174
 10
0
 20
0
 30
0
  0
INSERT
  8
LAYER_2
  2
AIGNBL02010175
 10
0
 20
0
 30
0
  0
INSERT
  8
LAYER_2
  2
AIGNBL02010176
 10
0
 20
0
 30
0
  0
INSERT
  8
LAYER_2
  2
AIGNBL02010177
 10
0
 20
0
 30
0
  0
INSERT
  8
LAYER_2
  2
AIGNBL02010178
 10
0
 20
0
 30
0
  0
INSERT
  8
LAYER_2
  2
AIGNBL02010179
 10
0
 20
0
 30
0
  0
INSERT
  8
LAYER_2
  2
AIGNBL0201017A
 10
0
 20
0
 30
0
  0
INSERT
  8
LAYER_2
  2
AIGNBL0201017B
 10
0
 20
0
 30
0
  0
INSERT
  8
LAYER_2
  2
AIGNBL0201017C
 10
0
 20
0
 30
0
  0
INSERT
  8
LAYER_2
  2
AIGNBL0201017D
 10
0
 20
0
 30
0
  0
INSERT
  8
LAYER_2
  2
AIGNBL0201017E
 10
0
 20
0
 30
0
  0
INSERT
  8
LAYER_2
  2
AIGNBL0201017F
 10
0
 20
0
 30
0
  0
INSERT
  8
LAYER_2
  2
AIGNBL02010180
 10
0
 20
0
 30
0
  0
INSERT
  8
LAYER_2
  2
AIGNBL02010181
 10
0
 20
0
 30
0
  0
INSERT
  8
LAYER_2
  2
AIGNBL02010182
 10
0
 20
0
 30
0
  0
INSERT
  8
LAYER_2
  2
AIGNBL02010183
 10
0
 20
0
 30
0
  0
INSERT
  8
LAYER_2
  2
AIGNBL02010184
 10
0
 20
0
 30
0
  0
INSERT
  8
LAYER_2
  2
AIGNBL02010185
 10
0
 20
0
 30
0
  0
INSERT
  8
LAYER_2
  2
AIGNBL02010186
 10
0
 20
0
 30
0
  0
INSERT
  8
LAYER_2
  2
AIGNBL02010187
 10
0
 20
0
 30
0
  0
INSERT
  8
LAYER_2
  2
AIGNBL02010188
 10
0
 20
0
 30
0
  0
INSERT
  8
LAYER_2
  2
AIGNBL02010189
 10
0
 20
0
 30
0
  0
INSERT
  8
LAYER_2
  2
AIGNBL0201018A
 10
0
 20
0
 30
0
  0
INSERT
  8
LAYER_2
  2
AIGNBL0201018B
 10
0
 20
0
 30
0
  0
INSERT
  8
LAYER_2
  2
AIGNBL0201018C
 10
0
 20
0
 30
0
  0
INSERT
  8
LAYER_2
  2
AIGNBL0201018D
 10
0
 20
0
 30
0
  0
INSERT
  8
LAYER_2
  2
AIGNBL0201018E
 10
0
 20
0
 30
0
  0
INSERT
  8
LAYER_2
  2
AIGNBL0201018F
 10
0
 20
0
 30
0
  0
INSERT
  8
LAYER_2
  2
AIGNBL02010190
 10
0
 20
0
 30
0
  0
INSERT
  8
LAYER_2
  2
AIGNBL02010191
 10
0
 20
0
 30
0
  0
INSERT
  8
LAYER_2
  2
AIGNBL02010192
 10
0
 20
0
 30
0
  0
INSERT
  8
LAYER_2
  2
AIGNBL02010193
 10
0
 20
0
 30
0
  0
INSERT
  8
LAYER_2
  2
AIGNBL02010194
 10
0
 20
0
 30
0
  0
INSERT
  8
LAYER_2
  2
AIGNBL02010195
 10
0
 20
0
 30
0
  0
INSERT
  8
LAYER_2
  2
AIGNBL02010196
 10
0
 20
0
 30
0
  0
INSERT
  8
LAYER_2
  2
AIGNBL02010197
 10
0
 20
0
 30
0
  0
INSERT
  8
LAYER_2
  2
AIGNBL02010198
 10
0
 20
0
 30
0
  0
INSERT
  8
LAYER_2
  2
AIGNBL02010199
 10
0
 20
0
 30
0
  0
INSERT
  8
LAYER_2
  2
AIGNBL0201019A
 10
0
 20
0
 30
0
  0
INSERT
  8
LAYER_2
  2
AIGNBL0201019B
 10
0
 20
0
 30
0
  0
INSERT
  8
LAYER_2
  2
AIGNBL0201019C
 10
0
 20
0
 30
0
  0
INSERT
  8
LAYER_2
  2
AIGNBL0201019D
 10
0
 20
0
 30
0
  0
INSERT
  8
LAYER_2
  2
AIGNBL0201019E
 10
0
 20
0
 30
0
  0
INSERT
  8
LAYER_2
  2
AIGNBL0201019F
 10
0
 20
0
 30
0
  0
INSERT
  8
LAYER_2
  2
AIGNBL020101A0
 10
0
 20
0
 30
0
  0
INSERT
  8
LAYER_2
  2
AIGNBL020101A1
 10
0
 20
0
 30
0
  0
INSERT
  8
LAYER_2
  2
AIGNBL020101A2
 10
0
 20
0
 30
0
  0
INSERT
  8
LAYER_2
  2
AIGNBL020101A3
 10
0
 20
0
 30
0
  0
INSERT
  8
LAYER_2
  2
AIGNBL020101A4
 10
0
 20
0
 30
0
  0
INSERT
  8
LAYER_2
  2
AIGNBL020101A5
 10
0
 20
0
 30
0
  0
INSERT
  8
LAYER_2
  2
AIGNBL020101A6
 10
0
 20
0
 30
0
  0
INSERT
  8
LAYER_2
  2
AIGNBL020101A7
 10
0
 20
0
 30
0
  0
INSERT
  8
LAYER_2
  2
AIGNBL020101A8
 10
0
 20
0
 30
0
  0
INSERT
  8
LAYER_2
  2
AIGNBL020101A9
 10
0
 20
0
 30
0
  0
INSERT
  8
LAYER_2
  2
AIGNBL020101AA
 10
0
 20
0
 30
0
  0
INSERT
  8
LAYER_2
  2
AIGNBL020101AB
 10
0
 20
0
 30
0
  0
INSERT
  8
LAYER_2
  2
AIGNBL020101AC
 10
0
 20
0
 30
0
  0
INSERT
  8
LAYER_2
  2
AIGNBL020101AD
 10
0
 20
0
 30
0
  0
INSERT
  8
LAYER_2
  2
AIGNBL020101AE
 10
0
 20
0
 30
0
  0
INSERT
  8
LAYER_2
  2
AIGNBL020101AF
 10
0
 20
0
 30
0
  0
INSERT
  8
LAYER_2
  2
AIGNBL020101B0
 10
0
 20
0
 30
0
  0
INSERT
  8
LAYER_2
  2
AIGNBL020101B1
 10
0
 20
0
 30
0
  0
INSERT
  8
LAYER_2
  2
AIGNBL020101B2
 10
0
 20
0
 30
0
  0
INSERT
  8
LAYER_2
  2
AIGNBL020101B3
 10
0
 20
0
 30
0
  0
INSERT
  8
LAYER_2
  2
AIGNBL020101B4
 10
0
 20
0
 30
0
  0
INSERT
  8
LAYER_2
  2
AIGNBL020101B5
 10
0
 20
0
 30
0
  0
INSERT
  8
LAYER_2
  2
AIGNBL020101B6
 10
0
 20
0
 30
0
  0
INSERT
  8
LAYER_2
  2
AIGNBL020101B7
 10
0
 20
0
 30
0
  0
INSERT
  8
LAYER_2
  2
AIGNBL020101B8
 10
0
 20
0
 30
0
  0
INSERT
  8
LAYER_2
  2
AIGNBL020101B9
 10
0
 20
0
 30
0
  0
INSERT
  8
LAYER_2
  2
AIGNBL020101BA
 10
0
 20
0
 30
0
  0
INSERT
  8
LAYER_2
  2
AIGNBL020101BB
 10
0
 20
0
 30
0
  0
INSERT
  8
LAYER_2
  2
AIGNBL020101BC
 10
0
 20
0
 30
0
  0
INSERT
  8
LAYER_2
  2
AIGNBL020101BD
 10
0
 20
0
 30
0
  0
INSERT
  8
LAYER_2
  2
AIGNBL020101BE
 10
0
 20
0
 30
0
  0
INSERT
  8
LAYER_2
  2
AIGNBL020101BF
 10
0
 20
0
 30
0
  0
INSERT
  8
LAYER_2
  2
AIGNBL020101C0
 10
0
 20
0
 30
0
  0
INSERT
  8
LAYER_2
  2
AIGNBL020101C1
 10
0
 20
0
 30
0
  0
INSERT
  8
LAYER_2
  2
AIGNBL020101C2
 10
0
 20
0
 30
0
  0
INSERT
  8
LAYER_2
  2
AIGNBL020101C3
 10
0
 20
0
 30
0
  0
INSERT
  8
LAYER_2
  2
AIGNBL020101C4
 10
0
 20
0
 30
0
  0
INSERT
  8
LAYER_2
  2
AIGNBL020101C5
 10
0
 20
0
 30
0
  0
INSERT
  8
LAYER_2
  2
AIGNBL020101C6
 10
0
 20
0
 30
0
  0
INSERT
  8
LAYER_2
  2
AIGNBL020101C7
 10
0
 20
0
 30
0
  0
INSERT
  8
LAYER_2
  2
AIGNBL020101C8
 10
0
 20
0
 30
0
  0
INSERT
  8
LAYER_2
  2
AIGNBL020101C9
 10
0
 20
0
 30
0
  0
INSERT
  8
LAYER_2
  2
AIGNBL020101CA
 10
0
 20
0
 30
0
  0
INSERT
  8
LAYER_2
  2
AIGNBL020101CB
 10
0
 20
0
 30
0
  0
INSERT
  8
LAYER_2
  2
AIGNBL020101CC
 10
0
 20
0
 30
0
  0
INSERT
  8
LAYER_2
  2
AIGNBL020101CD
 10
0
 20
0
 30
0
  0
INSERT
  8
LAYER_2
  2
AIGNBL020101CE
 10
0
 20
0
 30
0
  0
INSERT
  8
LAYER_2
  2
AIGNBL020101CF
 10
0
 20
0
 30
0
  0
INSERT
  8
LAYER_2
  2
AIGNBL020101D0
 10
0
 20
0
 30
0
  0
INSERT
  8
LAYER_2
  2
AIGNBL020101D1
 10
0
 20
0
 30
0
  0
INSERT
  8
LAYER_2
  2
AIGNBL020101D2
 10
0
 20
0
 30
0
  0
INSERT
  8
LAYER_2
  2
AIGNBL020101D3
 10
0
 20
0
 30
0
  0
INSERT
  8
LAYER_2
  2
AIGNBL020101D4
 10
0
 20
0
 30
0
  0
INSERT
  8
LAYER_2
  2
AIGNBL020101D5
 10
0
 20
0
 30
0
  0
INSERT
  8
LAYER_2
  2
AIGNBL020101D6
 10
0
 20
0
 30
0
  0
INSERT
  8
LAYER_2
  2
AIGNBL020101D7
 10
0
 20
0
 30
0
  0
INSERT
  8
LAYER_2
  2
AIGNBL020101D8
 10
0
 20
0
 30
0
  0
INSERT
  8
LAYER_2
  2
AIGNBL020101D9
 10
0
 20
0
 30
0
  0
INSERT
  8
LAYER_2
  2
AIGNBL020101DA
 10
0
 20
0
 30
0
  0
INSERT
  8
LAYER_2
  2
AIGNBL020101DB
 10
0
 20
0
 30
0
  0
INSERT
  8
LAYER_2
  2
AIGNBL020101DC
 10
0
 20
0
 30
0
  0
INSERT
  8
LAYER_2
  2
AIGNBL020101DD
 10
0
 20
0
 30
0
  0
INSERT
  8
LAYER_2
  2
AIGNBL020101DE
 10
0
 20
0
 30
0
  0
INSERT
  8
LAYER_2
  2
AIGNBL020101DF
 10
0
 20
0
 30
0
  0
INSERT
  8
LAYER_2
  2
AIGNBL020101E0
 10
0
 20
0
 30
0
  0
INSERT
  8
LAYER_2
  2
AIGNBL020101E1
 10
0
 20
0
 30
0
  0
INSERT
  8
LAYER_2
  2
AIGNBL020101E2
 10
0
 20
0
 30
0
  0
INSERT
  8
LAYER_2
  2
AIGNBL020101E3
 10
0
 20
0
 30
0
  0
INSERT
  8
LAYER_2
  2
AIGNBL020101E4
 10
0
 20
0
 30
0
  0
INSERT
  8
LAYER_2
  2
AIGNBL020101E5
 10
0
 20
0
 30
0
  0
INSERT
  8
LAYER_2
  2
AIGNBL020101E6
 10
0
 20
0
 30
0
  0
INSERT
  8
LAYER_2
  2
AIGNBL020101E7
 10
0
 20
0
 30
0
  0
INSERT
  8
LAYER_2
  2
AIGNBL020101E8
 10
0
 20
0
 30
0
  0
INSERT
  8
LAYER_2
  2
AIGNBL020101E9
 10
0
 20
0
 30
0
  0
INSERT
  8
LAYER_2
  2
AIGNBL020101EA
 10
0
 20
0
 30
0
  0
INSERT
  8
LAYER_2
  2
AIGNBL020101EB
 10
0
 20
0
 30
0
  0
INSERT
  8
LAYER_2
  2
AIGNBL020101EC
 10
0
 20
0
 30
0
  0
INSERT
  8
LAYER_2
  2
AIGNBL020101ED
 10
0
 20
0
 30
0
  0
INSERT
  8
LAYER_2
  2
AIGNBL020101EE
 10
0
 20
0
 30
0
  0
INSERT
  8
LAYER_2
  2
AIGNBL020101EF
 10
0
 20
0
 30
0
  0
INSERT
  8
LAYER_2
  2
AIGNBL020101F0
 10
0
 20
0
 30
0
  0
INSERT
  8
LAYER_2
  2
AIGNBL020101F1
 10
0
 20
0
 30
0
  0
INSERT
  8
LAYER_2
  2
AIGNBL020101F2
 10
0
 20
0
 30
0
  0
INSERT
  8
LAYER_2
  2
AIGNBL020101F3
 10
0
 20
0
 30
0
  0
INSERT
  8
LAYER_2
  2
AIGNBL020101F4
 10
0
 20
0
 30
0
  0
INSERT
  8
LAYER_2
  2
AIGNBL020101F5
 10
0
 20
0
 30
0
  0
INSERT
  8
LAYER_2
  2
AIGNBL020101F6
 10
0
 20
0
 30
0
  0
INSERT
  8
LAYER_2
  2
AIGNBL020101F7
 10
0
 20
0
 30
0
  0
INSERT
  8
LAYER_2
  2
AIGNBL020101F8
 10
0
 20
0
 30
0
  0
INSERT
  8
LAYER_2
  2
AIGNBL020101F9
 10
0
 20
0
 30
0
  0
INSERT
  8
LAYER_2
  2
AIGNBL020101FA
 10
0
 20
0
 30
0
  0
INSERT
  8
LAYER_2
  2
AIGNBL020101FB
 10
0
 20
0
 30
0
  0
INSERT
  8
LAYER_2
  2
AIGNBL020101FC
 10
0
 20
0
 30
0
  0
INSERT
  8
LAYER_2
  2
AIGNBL020101FD
 10
0
 20
0
 30
0
  0
INSERT
  8
LAYER_2
  2
AIGNBL020101FE
 10
0
 20
0
 30
0
  0
INSERT
  8
LAYER_2
  2
AIGNBL020101FF
 10
0
 20
0
 30
0
  0
INSERT
  8
LAYER_2
  2
AIGNBL02010200
 10
0
 20
0
 30
0
  0
INSERT
  8
LAYER_2
  2
AIGNBL02010201
 10
0
 20
0
 30
0
  0
INSERT
  8
LAYER_2
  2
AIGNBL02010202
 10
0
 20
0
 30
0
  0
INSERT
  8
LAYER_2
  2
AIGNBL02010203
 10
0
 20
0
 30
0
  0
INSERT
  8
LAYER_2
  2
AIGNBL02010204
 10
0
 20
0
 30
0
  0
INSERT
  8
LAYER_2
  2
AIGNBL02010205
 10
0
 20
0
 30
0
  0
INSERT
  8
LAYER_2
  2
AIGNBL02010206
 10
0
 20
0
 30
0
  0
INSERT
  8
LAYER_2
  2
AIGNBL02010207
 10
0
 20
0
 30
0
  0
INSERT
  8
LAYER_2
  2
AIGNBL02010208
 10
0
 20
0
 30
0
  0
INSERT
  8
LAYER_2
  2
AIGNBL02010209
 10
0
 20
0
 30
0
  0
INSERT
  8
LAYER_2
  2
AIGNBL0201020A
 10
0
 20
0
 30
0
  0
INSERT
  8
LAYER_2
  2
AIGNBL0201020B
 10
0
 20
0
 30
0
  0
INSERT
  8
LAYER_2
  2
AIGNBL0201020C
 10
0
 20
0
 30
0
  0
INSERT
  8
LAYER_2
  2
AIGNBL0201020D
 10
0
 20
0
 30
0
  0
INSERT
  8
LAYER_2
  2
AIGNBL0201020E
 10
0
 20
0
 30
0
  0
INSERT
  8
LAYER_2
  2
AIGNBL0201020F
 10
0
 20
0
 30
0
  0
INSERT
  8
LAYER_2
  2
AIGNBL02010210
 10
0
 20
0
 30
0
  0
INSERT
  8
LAYER_2
  2
AIGNBL02010211
 10
0
 20
0
 30
0
  0
INSERT
  8
LAYER_2
  2
AIGNBL02010212
 10
0
 20
0
 30
0
  0
INSERT
  8
LAYER_2
  2
AIGNBL02010213
 10
0
 20
0
 30
0
  0
INSERT
  8
LAYER_2
  2
AIGNBL02010214
 10
0
 20
0
 30
0
  0
INSERT
  8
LAYER_2
  2
AIGNBL02010215
 10
0
 20
0
 30
0
  0
INSERT
  8
LAYER_2
  2
AIGNBL02010216
 10
0
 20
0
 30
0
  0
INSERT
  8
LAYER_2
  2
AIGNBL02010217
 10
0
 20
0
 30
0
  0
INSERT
  8
LAYER_2
  2
AIGNBL02010218
 10
0
 20
0
 30
0
  0
INSERT
  8
LAYER_2
  2
AIGNBL02010219
 10
0
 20
0
 30
0
  0
INSERT
  8
LAYER_2
  2
AIGNBL0201021A
 10
0
 20
0
 30
0
  0
INSERT
  8
LAYER_2
  2
AIGNBL0201021B
 10
0
 20
0
 30
0
  0
INSERT
  8
LAYER_2
  2
AIGNBL0201021C
 10
0
 20
0
 30
0
  0
INSERT
  8
LAYER_2
  2
AIGNBL0201021D
 10
0
 20
0
 30
0
  0
INSERT
  8
LAYER_2
  2
AIGNBL0201021E
 10
0
 20
0
 30
0
  0
INSERT
  8
LAYER_2
  2
AIGNBL0201021F
 10
0
 20
0
 30
0
  0
INSERT
  8
LAYER_2
  2
AIGNBL02010220
 10
0
 20
0
 30
0
  0
INSERT
  8
LAYER_2
  2
AIGNBL02010221
 10
0
 20
0
 30
0
  0
INSERT
  8
LAYER_2
  2
AIGNBL02010222
 10
0
 20
0
 30
0
  0
INSERT
  8
LAYER_2
  2
AIGNBL02010223
 10
0
 20
0
 30
0
  0
INSERT
  8
LAYER_2
  2
AIGNBL02010224
 10
0
 20
0
 30
0
  0
INSERT
  8
LAYER_2
  2
AIGNBL02010225
 10
0
 20
0
 30
0
  0
INSERT
  8
LAYER_2
  2
AIGNBL02010226
 10
0
 20
0
 30
0
  0
INSERT
  8
LAYER_2
  2
AIGNBL02010227
 10
0
 20
0
 30
0
  0
INSERT
  8
LAYER_2
  2
AIGNBL02010228
 10
0
 20
0
 30
0
  0
INSERT
  8
LAYER_2
  2
AIGNBL02010229
 10
0
 20
0
 30
0
  0
INSERT
  8
LAYER_2
  2
AIGNBL0201022A
 10
0
 20
0
 30
0
  0
INSERT
  8
LAYER_2
  2
AIGNBL0201022B
 10
0
 20
0
 30
0
  0
INSERT
  8
LAYER_2
  2
AIGNBL0201022C
 10
0
 20
0
 30
0
  0
INSERT
  8
LAYER_2
  2
AIGNBL0201022D
 10
0
 20
0
 30
0
  0
INSERT
  8
LAYER_2
  2
AIGNBL0201022E
 10
0
 20
0
 30
0
  0
INSERT
  8
LAYER_2
  2
AIGNBL0201022F
 10
0
 20
0
 30
0
  0
INSERT
  8
LAYER_2
  2
AIGNBL02010230
 10
0
 20
0
 30
0
  0
INSERT
  8
LAYER_2
  2
AIGNBL02010231
 10
0
 20
0
 30
0
  0
INSERT
  8
LAYER_2
  2
AIGNBL02010232
 10
0
 20
0
 30
0
  0
INSERT
  8
LAYER_2
  2
AIGNBL02010233
 10
0
 20
0
 30
0
  0
INSERT
  8
LAYER_2
  2
AIGNBL02010235
 10
0
 20
0
 30
0
  0
INSERT
  8
LAYER_2
  2
AIGNBL02010236
 10
0
 20
0
 30
0
  0
INSERT
  8
LAYER_2
  2
AIGNBL02010237
 10
0
 20
0
 30
0
  0
INSERT
  8
LAYER_2
  2
AIGNBL02010239
 10
0
 20
0
 30
0
  0
INSERT
  8
LAYER_2
  2
AIGNBL0201023B
 10
0
 20
0
 30
0
  0
INSERT
  8
LAYER_2
  2
AIGNBL0201023C
 10
0
 20
0
 30
0
  0
INSERT
  8
LAYER_2
  2
AIGNBL0201023D
 10
0
 20
0
 30
0
  0
INSERT
  8
LAYER_2
  2
AIGNBL0201023F
 10
0
 20
0
 30
0
  0
INSERT
  8
LAYER_2
  2
AIGNBL02010241
 10
0
 20
0
 30
0
  0
INSERT
  8
LAYER_2
  2
AIGNBL02010243
 10
0
 20
0
 30
0
  0
INSERT
  8
LAYER_2
  2
AIGNBL02010244
 10
0
 20
0
 30
0
  0
INSERT
  8
LAYER_2
  2
AIGNBL02010245
 10
0
 20
0
 30
0
  0
LINE
  8
LAYER_2
  6
AIGENLINE003
 10
119.9796
 20
79.9903
 11
25.6145
 21
79.9903
  0
INSERT
  8
LAYER_2
  2
AIGNBL02010246
 10
0
 20
0
 30
0
  0
INSERT
  8
LAYER_2
  2
AIGNBL02010247
 10
0
 20
0
 30
0
  0
INSERT
  8
LAYER_2
  2
AIGNBL02010248
 10
0
 20
0
 30
0
  0
INSERT
  8
LAYER_2
  2
AIGNBL02010249
 10
0
 20
0
 30
0
  0
INSERT
  8
LAYER_2
  2
AIGNBL0201024A
 10
0
 20
0
 30
0
  0
INSERT
  8
LAYER_2
  2
AIGNBL0201024B
 10
0
 20
0
 30
0
  0
INSERT
  8
LAYER_2
  2
AIGNBL0201024C
 10
0
 20
0
 30
0
  0
INSERT
  8
LAYER_2
  2
AIGNBL0201024D
 10
0
 20
0
 30
0
  0
INSERT
  8
LAYER_2
  2
AIGNBL0201024E
 10
0
 20
0
 30
0
  0
INSERT
  8
LAYER_2
  2
AIGNBL0201024F
 10
0
 20
0
 30
0
  0
INSERT
  8
LAYER_2
  2
AIGNBL02010250
 10
0
 20
0
 30
0
  0
INSERT
  8
LAYER_2
  2
AIGNBL02010251
 10
0
 20
0
 30
0
  0
INSERT
  8
LAYER_2
  2
AIGNBL02010252
 10
0
 20
0
 30
0
  0
INSERT
  8
LAYER_2
  2
AIGNBL02010253
 10
0
 20
0
 30
0
  0
INSERT
  8
LAYER_2
  2
AIGNBL02010254
 10
0
 20
0
 30
0
  0
INSERT
  8
LAYER_2
  2
AIGNBL02010255
 10
0
 20
0
 30
0
  0
INSERT
  8
LAYER_2
  2
AIGNBL02010256
 10
0
 20
0
 30
0
  0
INSERT
  8
LAYER_2
  2
AIGNBL02010257
 10
0
 20
0
 30
0
  0
INSERT
  8
LAYER_2
  2
AIGNBL02010258
 10
0
 20
0
 30
0
  0
INSERT
  8
LAYER_2
  2
AIGNBL02010259
 10
0
 20
0
 30
0
  0
INSERT
  8
LAYER_2
  2
AIGNBL0201025A
 10
0
 20
0
 30
0
  0
INSERT
  8
LAYER_2
  2
AIGNBL0201025B
 10
0
 20
0
 30
0
  0
INSERT
  8
LAYER_2
  2
AIGNBL0201025C
 10
0
 20
0
 30
0
  0
INSERT
  8
LAYER_2
  2
AIGNBL0201025D
 10
0
 20
0
 30
0
  0
INSERT
  8
LAYER_2
  2
AIGNBL0201025E
 10
0
 20
0
 30
0
  0
INSERT
  8
LAYER_2
  2
AIGNBL0201025F
 10
0
 20
0
 30
0
  0
INSERT
  8
LAYER_2
  2
AIGNBL02010260
 10
0
 20
0
 30
0
  0
INSERT
  8
LAYER_2
  2
AIGNBL02010261
 10
0
 20
0
 30
0
  0
INSERT
  8
LAYER_2
  2
AIGNBL02010262
 10
0
 20
0
 30
0
  0
INSERT
  8
LAYER_2
  2
AIGNBL02010263
 10
0
 20
0
 30
0
  0
INSERT
  8
LAYER_2
  2
AIGNBL02010264
 10
0
 20
0
 30
0
  0
INSERT
  8
LAYER_2
  2
AIGNBL02010265
 10
0
 20
0
 30
0
  0
INSERT
  8
LAYER_2
  2
AIGNBL02010266
 10
0
 20
0
 30
0
  0
INSERT
  8
LAYER_2
  2
AIGNBL02010267
 10
0
 20
0
 30
0
  0
INSERT
  8
LAYER_2
  2
AIGNBL02010268
 10
0
 20
0
 30
0
  0
INSERT
  8
LAYER_2
  2
AIGNBL02010269
 10
0
 20
0
 30
0
  0
INSERT
  8
LAYER_2
  2
AIGNBL0201026A
 10
0
 20
0
 30
0
  0
INSERT
  8
LAYER_2
  2
AIGNBL0201026B
 10
0
 20
0
 30
0
  0
INSERT
  8
LAYER_2
  2
AIGNBL0201026C
 10
0
 20
0
 30
0
  0
INSERT
  8
LAYER_2
  2
AIGNBL0201026D
 10
0
 20
0
 30
0
  0
INSERT
  8
LAYER_2
  2
AIGNBL0201026E
 10
0
 20
0
 30
0
  0
INSERT
  8
LAYER_2
  2
AIGNBL0201026F
 10
0
 20
0
 30
0
  0
INSERT
  8
LAYER_2
  2
AIGNBL02010270
 10
0
 20
0
 30
0
  0
INSERT
  8
LAYER_2
  2
AIGNBL02010271
 10
0
 20
0
 30
0
  0
INSERT
  8
LAYER_2
  2
AIGNBL02010272
 10
0
 20
0
 30
0
  0
INSERT
  8
LAYER_2
  2
AIGNBL02010273
 10
0
 20
0
 30
0
  0
INSERT
  8
LAYER_2
  2
AIGNBL02010274
 10
0
 20
0
 30
0
  0
INSERT
  8
LAYER_2
  2
AIGNBL02010275
 10
0
 20
0
 30
0
  0
INSERT
  8
LAYER_2
  2
AIGNBL02010276
 10
0
 20
0
 30
0
  0
INSERT
  8
LAYER_2
  2
AIGNBL02010277
 10
0
 20
0
 30
0
  0
INSERT
  8
LAYER_2
  2
AIGNBL02010278
 10
0
 20
0
 30
0
  0
INSERT
  8
LAYER_2
  2
AIGNBL02010279
 10
0
 20
0
 30
0
  0
INSERT
  8
LAYER_2
  2
AIGNBL0201027A
 10
0
 20
0
 30
0
  0
INSERT
  8
LAYER_2
  2
AIGNBL0201027B
 10
0
 20
0
 30
0
  0
INSERT
  8
LAYER_2
  2
AIGNBL0201027C
 10
0
 20
0
 30
0
  0
INSERT
  8
LAYER_2
  2
AIGNBL0201027D
 10
0
 20
0
 30
0
  0
INSERT
  8
LAYER_2
  2
AIGNBL0201027E
 10
0
 20
0
 30
0
  0
INSERT
  8
LAYER_2
  2
AIGNBL0201027F
 10
0
 20
0
 30
0
  0
INSERT
  8
LAYER_2
  2
AIGNBL02010280
 10
0
 20
0
 30
0
  0
LINE
  8
LAYER_2
  6
AIGENLINE002
 10
-29.1708
 20
197.3897
 11
-13.1431
 21
197.3897
  0
INSERT
  8
LAYER_2
  2
AIGNBL02010281
 10
0
 20
0
 30
0
  0
INSERT
  8
LAYER_2
  2
AIGNBL02010282
 10
0
 20
0
 30
0
  0
INSERT
  8
LAYER_2
  2
AIGNBL02010283
 10
0
 20
0
 30
0
  0
INSERT
  8
LAYER_2
  2
AIGNBL02010284
 10
0
 20
0
 30
0
  0
INSERT
  8
LAYER_2
  2
AIGNBL02010285
 10
0
 20
0
 30
0
  0
INSERT
  8
LAYER_2
  2
AIGNBL02010286
 10
0
 20
0
 30
0
  0
LINE
  8
LAYER_2
  6
AIGENLINE002
 10
79.8749
 20
84.6515
 11
79.8749
 21
72.7963
  0
LINE
  8
LAYER_2
  6
AIGENLINE002
 10
-21.3796
 20
99.7286
 11
-21.3796
 21
71.8626
  0
LINE
  8
LAYER_2
  6
AIGENLINE002
 10
-21.3796
 20
229.4017
 11
-21.3796
 21
163.7917
  0
INSERT
  8
LAYER_2
  2
AIGNBL02010287
 10
0
 20
0
 30
0
  0
INSERT
  8
LAYER_2
  2
AIGNBL02010288
 10
0
 20
0
 30
0
  0
INSERT
  8
LAYER_2
  2
AIGNBL02010289
 10
0
 20
0
 30
0
  0
INSERT
  8
LAYER_2
  2
AIGNBL0201028A
 10
0
 20
0
 30
0
  0
INSERT
  8
LAYER_2
  2
AIGNBL0201028B
 10
0
 20
0
 30
0
  0
INSERT
  8
LAYER_2
  2
AIGNBL0201028C
 10
0
 20
0
 30
0
  0
INSERT
  8
LAYER_2
  2
AIGNBL0201028D
 10
0
 20
0
 30
0
  0
INSERT
  8
LAYER_2
  2
AIGNBL0201028E
 10
0
 20
0
 30
0
  0
INSERT
  8
LAYER_2
  2
AIGNBL0201028F
 10
0
 20
0
 30
0
  0
INSERT
  8
LAYER_2
  2
AIGNBL02010290
 10
0
 20
0
 30
0
  0
INSERT
  8
LAYER_2
  2
AIGNBL02010291
 10
0
 20
0
 30
0
  0
INSERT
  8
LAYER_2
  2
AIGNBL02010292
 10
0
 20
0
 30
0
  0
INSERT
  8
LAYER_2
  2
AIGNBL02010293
 10
0
 20
0
 30
0
  0
INSERT
  8
LAYER_2
  2
AIGNBL02010295
 10
0
 20
0
 30
0
  0
INSERT
  8
LAYER_2
  2
AIGNBL02010296
 10
0
 20
0
 30
0
  0
INSERT
  8
LAYER_2
  2
AIGNBL02010297
 10
0
 20
0
 30
0
  0
INSERT
  8
LAYER_2
  2
AIGNBL02010298
 10
0
 20
0
 30
0
  0
INSERT
  8
LAYER_2
  2
AIGNBL0201029A
 10
0
 20
0
 30
0
  0
INSERT
  8
LAYER_2
  2
AIGNBL0201029B
 10
0
 20
0
 30
0
  0
INSERT
  8
LAYER_2
  2
AIGNBL0201029C
 10
0
 20
0
 30
0
  0
INSERT
  8
LAYER_2
  2
AIGNBL0201029D
 10
0
 20
0
 30
0
  0
INSERT
  8
LAYER_2
  2
AIGNBL0201029E
 10
0
 20
0
 30
0
  0
INSERT
  8
LAYER_2
  2
AIGNBL020102A0
 10
0
 20
0
 30
0
  0
INSERT
  8
LAYER_2
  2
AIGNBL020102A1
 10
0
 20
0
 30
0
  0
INSERT
  8
LAYER_2
  2
AIGNBL020102A2
 10
0
 20
0
 30
0
  0
INSERT
  8
LAYER_2
  2
AIGNBL020102A3
 10
0
 20
0
 30
0
  0
INSERT
  8
LAYER_2
  2
AIGNBL020102A4
 10
0
 20
0
 30
0
  0
INSERT
  8
LAYER_2
  2
AIGNBL020102A5
 10
0
 20
0
 30
0
  0
INSERT
  8
LAYER_2
  2
AIGNBL020102A6
 10
0
 20
0
 30
0
  0
INSERT
  8
LAYER_2
  2
AIGNBL020102A7
 10
0
 20
0
 30
0
  0
LINE
  8
LAYER_2
  6
AIGENLINE002
 10
93.34
 20
197.3897
 11
66.0229
 21
197.3897
  0
LINE
  8
LAYER_2
  6
AIGENLINE002
 10
79.8749
 20
218.8306
 11
79.8749
 21
175.9937
  0
CIRCLE
  8
LAYER_2
  6
AIGENLINE003
 10
79.8749
 20
197.3897
 40
2.8749
  0
LINE
  8
LAYER_3
 10
126.9566
 20
57.1559
 11
293.4567
 21
57.1559
  0
LINE
  8
LAYER_3
 10
213.4567
 20
37.1557
 11
293.4567
 21
37.1557
  0
LINE
  8
LAYER_3
 10
126.9566
 20
44.6564
 11
213.4567
 21
44.6564
  0
LINE
  8
LAYER_3
 10
126.9566
 20
30.6562
 11
213.4567
 21
30.6562
  0
LINE
  8
LAYER_3
 10
138.4563
 20
30.6562
 11
138.4563
 21
44.6564
  0
LINE
  8
LAYER_3
 10
213.4567
 20
17.1562
 11
213.4567
 21
57.1559
  0
LINE
  8
LAYER_3
 10
126.9566
 20
17.1562
 11
126.9566
 21
57.1559
  0
LINE
  8
LAYER_3
 10
194.4563
 20
30.6562
 11
194.4563
 21
57.1559
  0
LINE
  8
LAYER_3
 10
175.4566
 20
30.6562
 11
175.4566
 21
57.1559
  0
LINE
  8
LAYER_3
 10
293.4567
 20
17.1562
 11
-83.0433
 21
17.1562
  0
LINE
  8
LAYER_3
 10
-83.0433
 20
17.1562
 11
-83.0433
 21
280.1562
  0
LINE
  8
LAYER_3
 10
-83.0433
 20
280.1562
 11
293.4567
 21
280.1562
  0
LINE
  8
LAYER_3
 10
293.4567
 20
280.1562
 11
293.4567
 21
17.1562
  0
TEXT
  8
LAYER_3
 10
153.4949
 20
49.1839
 11
153.4949
 21
49.1839
 40
4.4979
 41
0.5
 72
1
  1
セラトレーディング株式会社
  0
TEXT
  8
LAYER_3
 10
127.9281
 20
40.658
 11
127.9281
 21
40.658
 40
3.0923
 41
0.5
  1
製図
  0
TEXT
  8
LAYER_3
 10
127.9281
 20
26.4587
 11
127.9281
 21
26.4587
 40
3.0923
 41
0.5
  1
備考
  0
TEXT
  8
LAYER_3
 10
139.5463
 20
40.658
 11
139.5463
 21
40.658
 40
3.0923
 41
0.5
  1
検図
  0
TEXT
  8
LAYER_3
 10
176.4998
 20
40.658
 11
176.4998
 21
40.658
 40
3.0923
 41
0.5
  1
日付
  0
TEXT
  8
LAYER_3
 10
219.0853
 20
45.4728
 11
219.0853
 21
45.4728
 40
3.9357
 41
0.5
  1
ラリアナ　洗面器
  0
TEXT
  8
LAYER_3
 10
253.4564
 20
20.3547
 11
253.4564
 21
20.3547
 40
3.9357
 41
0.5
 72
1
  1
AGACER1074R
  0
TEXT
  8
LAYER_3
 10
195.5498
 20
40.658
 11
195.5498
 21
40.658
 40
3.0923
 41
0.5
  1
尺度
  0
TEXT
  8
LAYER_3
 10
195.5498
 20
53.0652
 11
195.5498
 21
53.0652
 40
3.0923
 41
0.5
  1
単位
  0
TEXT
  8
LAYER_3
 10
203.2744
 20
48.0691
 11
203.2744
 21
48.0691
 40
3.6546
 41
0.5
 72
1
  1
mm
  0
TEXT
  8
LAYER_3
 10
214.5116
 20
53.0652
 11
214.5116
 21
53.0652
 40
3.0923
 41
0.5
  1
名称
  0
TEXT
  8
LAYER_3
 10
214.5116
 20
32.9265
 11
214.5116
 21
32.9265
 40
3.0923
 41
0.5
  1
品番
  0
LINE
  8
LAYER_3
 10
213.4567
 20
27.156
 11
293.4567
 21
27.156
  0
TEXT
  8
LAYER_3
 10
214.5116
 20
22.9268
 11
214.5116
 21
22.9268
 40
3.0923
 41
0.5
  1
図番
  0
INSERT
  8
LAYER_3
  2
AIGNBL03010002
 10
0
 20
0
 30
0
  0
LINE
  8
LAYER_3
 10
-83.0433
 20
148.6576
 11
-104.7936
 21
148.6576
  0
LINE
  8
LAYER_3
 10
105.2067
 20
297.1763
 11
105.2067
 21
280.1562
  0
LINE
  8
LAYER_3
 10
105.2067
 20
17.1562
 11
105.2067
 21
0.176
  0
LINE
  8
LAYER_3
 10
315.2069
 20
148.6576
 11
293.4567
 21
148.6576
  0
TEXT
  8
LAYER_3
 10
134.4938
 20
21.9546
 11
134.4938
 21
21.9546
 40
3.9357
 41
0.5
  1
Agape
  0
TEXT
  8
LAYER_3
 10
293.4567
 20
12.8082
 11
293.4567
 21
12.8082
 40
3.3734
 41
0.5
 72
2
  1
A3
  0
TEXT
  8
LAYER_3
 10
177.6925
 20
34.4651
 11
177.6925
 21
34.4651
 40
3.6546
 41
0.5
  1
22.09.22
  0
TEXT
  8
LAYER_3
 10
132.6465
 20
34.8502
 11
132.6465
 21
34.8502
 40
3.6546
 41
0.5
 72
1
  1
菅原
  0
TEXT
  8
LAYER_3
 10
151.2204
 20
34.8502
 11
151.2204
 21
34.8502
 40
3.6546
 41
0.5
 72
1
  1
井田
  0
TEXT
  8
LAYER_3
 10
253.4564
 20
30.3551
 11
253.4564
 21
30.3551
 40
3.9357
 41
0.5
 72
1
  1
AGACER1074R-ZZ
  0
TEXT
  8
LAYER_3
 10
203.8663
 20
34.4651
 11
203.8663
 21
34.4651
 40
3.6546
 41
0.5
 72
1
  1
1 ： 8
  0
LINE
  8
LAYER_3
 10
126.9566
 20
95.4171
 11
290.1597
 21
95.4171
  0
LINE
  8
LAYER_3
 10
126.9566
 20
118.7042
 11
290.1597
 21
118.7042
  0
TEXT
  8
LAYER_3
 10
129.4953
 20
89.7747
 11
129.4953
 21
89.7747
 40
3.9357
 41
0.5
  1
特記事項
  0
LINE
  8
LAYER_3
 10
126.9566
 20
126.4667
 11
290.1597
 21
126.4667
  0
TEXT
  8
LAYER_3
 10
162.1589
 20
120.8123
 11
162.1589
 21
120.8123
 40
3.9357
 41
0.5
  1
ベッセル
  0
TEXT
  8
LAYER_3
 10
129.4953
 20
120.8123
 11
129.4953
 21
120.8123
 40
3.9357
 41
0.5
  1
分類
  0
LINE
  8
LAYER_3
 10
126.9566
 20
110.9417
 11
290.1597
 21
110.9417
  0
TEXT
  8
LAYER_3
 10
162.1589
 20
113.0498
 11
162.1589
 21
113.0498
 40
3.9357
 41
0.5
  1
なし
  0
TEXT
  8
LAYER_3
 10
129.4953
 20
113.0498
 11
129.4953
 21
113.0498
 40
3.9357
 41
0.5
  1
オーバーフロー
  0
TEXT
  8
LAYER_3
 10
162.1589
 20
105.2873
 11
162.1589
 21
105.2873
 40
3.9357
 41
0.5
  1
14.2kg
  0
LINE
  8
LAYER_3
 10
159.6202
 20
87.6546
 11
290.1597
 21
87.6546
  0
TEXT
  8
LAYER_3
 10
162.1589
 20
89.7627
 11
162.1589
 21
89.7627
 40
3.9357
 41
0.5
  1
水はねや水があふれるおそれがありますので、止水栓で適切な流量に調整してください。
  0
LINE
  8
LAYER_3
 10
159.6202
 20
79.8921
 11
290.1597
 21
79.8921
  0
TEXT
  8
LAYER_3
 10
162.1589
 20
82.0002
 11
162.1589
 21
82.0002
 40
3.9357
 41
0.5
  1
破損するおそれがありますので、60℃以上の熱湯を流さないでください。
  0
TEXT
  8
LAYER_3
 10
162.1589
 20
74.2377
 11
162.1589
 21
74.2377
 40
3.9357
 41
0.5
  1
洗面器底面はフラットなデザインとなっているため、水が残る場合があります。
  0
TEXT
  8
LAYER_3
 10
129.4953
 20
105.2873
 11
129.4953
 21
105.2873
 40
3.9357
 41
0.5
  1
本体重量
  0
LINE
  8
LAYER_3
 10
126.9566
 20
103.1796
 11
290.1597
 21
103.1796
  0
TEXT
  8
LAYER_3
 10
162.1589
 20
97.5251
 11
162.1589
 21
97.5251
 40
3.9357
 41
0.5
  1
お手入れ用スポンジ/排水目皿用専用工具
  0
LINE
  8
LAYER_3
 10
159.6202
 20
72.13
 11
290.1597
 21
72.13
  0
TEXT
  8
LAYER_3
 10
162.1589
 20
66.4755
 11
162.1589
 21
66.4755
 40
3.9357
 41
0.5
  1
経年により着色汚れが落ちにくくなったり、傷が消えにくくなったりする場合があります。
  0
TEXT
  8
LAYER_3
 10
129.4953
 20
97.5251
 11
129.4953
 21
97.5251
 40
3.9357
 41
0.5
  1
同梱品
  0
LINE
  8
LAYER_3
 10
290.1597
 20
134.2288
 11
126.9566
 21
134.2288
  0
LINE
  8
LAYER_3
 10
126.9566
 20
134.2288
 11
126.9566
 21
64.3675
  0
LINE
  8
LAYER_3
 10
126.9566
 20
64.3675
 11
290.1597
 21
64.3675
  0
LINE
  8
LAYER_3
 10
290.1597
 20
64.3675
 11
290.1597
 21
134.2288
  0
LINE
  8
LAYER_3
 10
159.6202
 20
134.2288
 11
159.6202
 21
64.3675
  0
TEXT
  8
LAYER_3
 10
162.1589
 20
128.5748
 11
162.1589
 21
128.5748
 40
3.9357
 41
0.5
  1
一般住宅用（屋内用）
  0
TEXT
  8
LAYER_3
 10
129.4953
 20
128.5748
 11
129.4953
 21
128.5748
 40
3.9357
 41
0.5
  1
用途
  0
ENDSEC
  0
EOF
