  0
SECTION
  2
HEADER
  9
$ACADVER
  1
AC1009
  9
$LUNITS
 70
2
  9
$LUPREC
 70
4
  9
$LTSCALE
 40
1.0
  9
$EXTMIN
 10
16.0764
 20
-7.7766
 30
0
  9
$EXTMAX
 10
206.1256
 20
269.2235
 30
0
  0
ENDSEC
  0
SECTION
  2
TABLES
  0
TABLE
  2
LTYPE
 70
256
  0
LTYPE
  2
AIGENLINE001
 70
64
  3
generate AI->DXF Converter
 72
65
 73
6
 40
13.0071
 49
10
 49
-1
 49
0.0035
 49
-1
 49
0.0035
 49
-1
  0
LTYPE
  2
AIGENLINE002
 70
64
  3
generate AI->DXF Converter
 72
65
 73
4
 40
14
 49
11
 49
-1
 49
1
 49
-1
  0
ENDTAB
  0
TABLE
  2
LAYER
 70
7
  0
LAYER
  2
LAYER_1
 70
64
 62
7
  6
CONTINUOUS
  0
LAYER
  2
LAYER_2
 70
64
 62
7
  6
CONTINUOUS
  0
LAYER
  2
LAYER_3
 70
64
 62
7
  6
CONTINUOUS
  0
LAYER
  2
LAYER_4
 70
64
 62
7
  6
CONTINUOUS
  0
LAYER
  2
LAYER_5
 70
64
 62
7
  6
CONTINUOUS
  0
LAYER
  2
LAYER_6
 70
64
 62
7
  6
CONTINUOUS
  0
LAYER
  2
LAYER_7
 70
64
 62
7
  6
CONTINUOUS
  0
ENDTAB
  0
TABLE
  2
STYLE
 70
6
  0
STYLE
  2
STANDARD
 70
0
 40
0
 50
0
 71
0
 41
0
 42
0
  3
TXT
  4
BIGFONT
  0
ENDTAB
  0
ENDSEC
  0
SECTION
  2
BLOCKS
  0
BLOCK
  8
LAYER_2
  2
AIGNBL02050115
 70
64
 10
0
 20
0
 30
0
  3
AIGNBL02050115
  0
POLYLINE
  8
LAYER_2
 40
0.2469
 41
0.2469
 66
1
 10
0
 20
0
 30
0
  0
VERTEX
  8
LAYER_2
 10
94.6325
 20
214.0312
  0
VERTEX
  8
LAYER_2
 10
94.6325
 20
213.3835
  0
SEQEND
  0
ENDBLK
  0
BLOCK
  8
LAYER_2
  2
AIGNBL02050116
 70
64
 10
0
 20
0
 30
0
  3
AIGNBL02050116
  0
POLYLINE
  8
LAYER_2
 40
0.2469
 41
0.2469
 66
1
 10
0
 20
0
 30
0
  0
VERTEX
  8
LAYER_2
 10
95.2576
 20
214.2495
  0
VERTEX
  8
LAYER_2
 10
95.2569
 20
214.2495
  0
SEQEND
  0
ENDBLK
  0
BLOCK
  8
LAYER_2
  2
AIGNBL02050117
 70
64
 10
0
 20
0
 30
0
  3
AIGNBL02050117
  0
POLYLINE
  8
LAYER_2
 40
0.2469
 41
0.2469
 66
1
 10
0
 20
0
 30
0
  0
VERTEX
  8
LAYER_2
 10
94.7486
 20
214.2495
  0
VERTEX
  8
LAYER_2
 10
94.6325
 20
214.1335
  0
SEQEND
  0
ENDBLK
  0
BLOCK
  8
LAYER_2
  2
AIGNBL02050118
 70
64
 10
0
 20
0
 30
0
  3
AIGNBL02050118
  0
POLYLINE
  8
LAYER_2
 40
0.2469
 41
0.2469
 66
1
 10
0
 20
0
 30
0
  0
VERTEX
  8
LAYER_2
 10
95.2576
 20
213.8164
  0
VERTEX
  8
LAYER_2
 10
94.7486
 20
213.8164
  0
SEQEND
  0
ENDBLK
  0
BLOCK
  8
LAYER_2
  2
AIGNBL02050119
 70
64
 10
0
 20
0
 30
0
  3
AIGNBL02050119
  0
POLYLINE
  8
LAYER_2
 40
0.2469
 41
0.2469
 66
1
 10
0
 20
0
 30
0
  0
VERTEX
  8
LAYER_2
 10
94.6325
 20
214.0422
  0
VERTEX
  8
LAYER_2
 10
94.6325
 20
214.1335
  0
SEQEND
  0
ENDBLK
  0
BLOCK
  8
LAYER_2
  2
AIGNBL0205011A
 70
64
 10
0
 20
0
 30
0
  3
AIGNBL0205011A
  0
POLYLINE
  8
LAYER_2
 40
0.2469
 41
0.2469
 66
1
 10
0
 20
0
 30
0
  0
VERTEX
  8
LAYER_2
 10
94.6325
 20
213.3835
  0
VERTEX
  8
LAYER_2
 10
94.6325
 20
212.7357
  0
SEQEND
  0
ENDBLK
  0
BLOCK
  8
LAYER_2
  2
AIGNBL0205011B
 70
64
 10
0
 20
0
 30
0
  3
AIGNBL0205011B
  0
POLYLINE
  8
LAYER_2
 40
0.2469
 41
0.2469
 66
1
 10
0
 20
0
 30
0
  0
VERTEX
  8
LAYER_2
 10
94.7486
 20
212.5174
  0
VERTEX
  8
LAYER_2
 10
95.2569
 20
212.5174
  0
SEQEND
  0
ENDBLK
  0
BLOCK
  8
LAYER_2
  2
AIGNBL0205011C
 70
64
 10
0
 20
0
 30
0
  3
AIGNBL0205011C
  0
POLYLINE
  8
LAYER_2
 40
0.2469
 41
0.2469
 66
1
 10
0
 20
0
 30
0
  0
VERTEX
  8
LAYER_2
 10
94.6325
 20
212.6335
  0
VERTEX
  8
LAYER_2
 10
94.7486
 20
212.5174
  0
SEQEND
  0
ENDBLK
  0
BLOCK
  8
LAYER_2
  2
AIGNBL0205011D
 70
64
 10
0
 20
0
 30
0
  3
AIGNBL0205011D
  0
POLYLINE
  8
LAYER_2
 40
0.2469
 41
0.2469
 66
1
 10
0
 20
0
 30
0
  0
VERTEX
  8
LAYER_2
 10
94.7486
 20
212.9505
  0
VERTEX
  8
LAYER_2
 10
95.2576
 20
212.9505
  0
SEQEND
  0
ENDBLK
  0
BLOCK
  8
LAYER_2
  2
AIGNBL0205011E
 70
64
 10
0
 20
0
 30
0
  3
AIGNBL0205011E
  0
POLYLINE
  8
LAYER_2
 40
0.2469
 41
0.2469
 66
1
 10
0
 20
0
 30
0
  0
VERTEX
  8
LAYER_2
 10
94.6325
 20
212.6335
  0
VERTEX
  8
LAYER_2
 10
94.6325
 20
212.7246
  0
SEQEND
  0
ENDBLK
  0
BLOCK
  8
LAYER_2
  2
AIGNBL0205011F
 70
64
 10
0
 20
0
 30
0
  3
AIGNBL0205011F
  0
POLYLINE
  8
LAYER_2
 40
0.2469
 41
0.2469
 66
1
 10
0
 20
0
 30
0
  0
VERTEX
  8
LAYER_2
 10
95.2569
 20
212.5174
  0
VERTEX
  8
LAYER_2
 10
95.2569
 20
214.2495
  0
SEQEND
  0
ENDBLK
  0
BLOCK
  8
LAYER_2
  2
AIGNBL02050120
 70
64
 10
0
 20
0
 30
0
  3
AIGNBL02050120
  0
POLYLINE
  8
LAYER_2
 40
0.2469
 41
0.2469
 66
1
 10
0
 20
0
 30
0
  0
VERTEX
  8
LAYER_2
 10
95.2569
 20
214.2495
  0
VERTEX
  8
LAYER_2
 10
94.7486
 20
214.2495
  0
SEQEND
  0
ENDBLK
  0
BLOCK
  8
LAYER_2
  2
AIGNBL02050121
 70
64
 10
0
 20
0
 30
0
  3
AIGNBL02050121
  0
POLYLINE
  8
LAYER_2
 40
0.2469
 41
0.2469
 66
1
 10
0
 20
0
 30
0
  0
VERTEX
  8
LAYER_2
 10
95.2569
 20
212.5174
  0
VERTEX
  8
LAYER_2
 10
95.2576
 20
212.5174
  0
SEQEND
  0
ENDBLK
  0
BLOCK
  8
LAYER_2
  2
AIGNBL02050122
 70
64
 10
0
 20
0
 30
0
  3
AIGNBL02050122
  0
POLYLINE
  8
LAYER_2
 40
0.2469
 41
0.2469
 66
1
 10
0
 20
0
 30
0
  0
VERTEX
  8
LAYER_2
 10
94.7486
 20
213.8164
 42
0.1402563444
  0
VERTEX
  8
LAYER_2
 10
94.6325
 20
213.3835
  0
SEQEND
  0
ENDBLK
  0
BLOCK
  8
LAYER_2
  2
AIGNBL02050123
 70
64
 10
0
 20
0
 30
0
  3
AIGNBL02050123
  0
POLYLINE
  8
LAYER_2
 40
0.2469
 41
0.2469
 66
1
 10
0
 20
0
 30
0
  0
VERTEX
  8
LAYER_2
 10
94.676
 20
214.1769
 42
0.4142076606
  0
VERTEX
  8
LAYER_2
 10
94.7486
 20
213.8164
  0
SEQEND
  0
ENDBLK
  0
BLOCK
  8
LAYER_2
  2
AIGNBL02050124
 70
64
 10
0
 20
0
 30
0
  3
AIGNBL02050124
  0
POLYLINE
  8
LAYER_2
 40
0.2469
 41
0.2469
 66
1
 10
0
 20
0
 30
0
  0
VERTEX
  8
LAYER_2
 10
94.6325
 20
213.3835
 42
0.1402921722
  0
VERTEX
  8
LAYER_2
 10
94.7486
 20
212.9505
  0
SEQEND
  0
ENDBLK
  0
BLOCK
  8
LAYER_2
  2
AIGNBL02050125
 70
64
 10
0
 20
0
 30
0
  3
AIGNBL02050125
  0
POLYLINE
  8
LAYER_2
 40
0.2469
 41
0.2469
 66
1
 10
0
 20
0
 30
0
  0
VERTEX
  8
LAYER_2
 10
94.7486
 20
212.9505
 42
0.4141383462
  0
VERTEX
  8
LAYER_2
 10
94.676
 20
212.59
  0
SEQEND
  0
ENDBLK
  0
BLOCK
  8
LAYER_2
  2
AIGNBL02050127
 70
64
 10
0
 20
0
 30
0
  3
AIGNBL02050127
  0
POLYLINE
  8
LAYER_2
 40
0.2469
 41
0.2469
 66
1
 10
0
 20
0
 30
0
  0
VERTEX
  8
LAYER_2
 10
96.0069
 20
215.1326
  0
VERTEX
  8
LAYER_2
 10
95.2569
 20
215.1326
  0
SEQEND
  0
ENDBLK
  0
BLOCK
  8
LAYER_2
  2
AIGNBL02050128
 70
64
 10
0
 20
0
 30
0
  3
AIGNBL02050128
  0
POLYLINE
  8
LAYER_2
 40
0.2469
 41
0.2469
 66
1
 10
0
 20
0
 30
0
  0
VERTEX
  8
LAYER_2
 10
95.2569
 20
211.6327
  0
VERTEX
  8
LAYER_2
 10
96.0069
 20
211.6327
  0
SEQEND
  0
ENDBLK
  0
BLOCK
  8
LAYER_2
  2
AIGNBL02050129
 70
64
 10
0
 20
0
 30
0
  3
AIGNBL02050129
  0
POLYLINE
  8
LAYER_2
 40
0.2469
 41
0.2469
 66
1
 10
0
 20
0
 30
0
  0
VERTEX
  8
LAYER_2
 10
95.2569
 20
215.1326
  0
VERTEX
  8
LAYER_2
 10
95.2569
 20
211.6327
  0
SEQEND
  0
ENDBLK
  0
BLOCK
  8
LAYER_2
  2
AIGNBL0205012A
 70
64
 10
0
 20
0
 30
0
  3
AIGNBL0205012A
  0
POLYLINE
  8
LAYER_2
 40
0.2469
 41
0.2469
 66
1
 10
0
 20
0
 30
0
  0
VERTEX
  8
LAYER_2
 10
96.0069
 20
211.6327
  0
VERTEX
  8
LAYER_2
 10
96.0069
 20
215.1326
  0
SEQEND
  0
ENDBLK
  0
BLOCK
  8
LAYER_2
  2
AIGNBL0205012C
 70
64
 10
0
 20
0
 30
0
  3
AIGNBL0205012C
  0
POLYLINE
  8
LAYER_2
 40
0.2469
 41
0.2469
 66
1
 10
0
 20
0
 30
0
  0
VERTEX
  8
LAYER_2
 10
96.0069
 20
211.5077
  0
VERTEX
  8
LAYER_2
 10
96.0069
 20
215.2577
  0
SEQEND
  0
ENDBLK
  0
BLOCK
  8
LAYER_2
  2
AIGNBL0205012D
 70
64
 10
0
 20
0
 30
0
  3
AIGNBL0205012D
  0
POLYLINE
  8
LAYER_2
 40
0.2469
 41
0.2469
 66
1
 10
0
 20
0
 30
0
  0
VERTEX
  8
LAYER_2
 10
94.6319
 20
212.9773
  0
VERTEX
  8
LAYER_2
 10
94.4821
 20
212.9773
  0
SEQEND
  0
ENDBLK
  0
BLOCK
  8
LAYER_2
  2
AIGNBL0205012E
 70
64
 10
0
 20
0
 30
0
  3
AIGNBL0205012E
  0
POLYLINE
  8
LAYER_2
 40
0.2469
 41
0.2469
 66
1
 10
0
 20
0
 30
0
  0
VERTEX
  8
LAYER_2
 10
94.6319
 20
212.8826
  0
VERTEX
  8
LAYER_2
 10
94.4821
 20
212.8826
  0
SEQEND
  0
ENDBLK
  0
BLOCK
  8
LAYER_2
  2
AIGNBL0205012F
 70
64
 10
0
 20
0
 30
0
  3
AIGNBL0205012F
  0
POLYLINE
  8
LAYER_2
 40
0.2469
 41
0.2469
 66
1
 10
0
 20
0
 30
0
  0
VERTEX
  8
LAYER_2
 10
94.4821
 20
213.788
  0
VERTEX
  8
LAYER_2
 10
94.6319
 20
213.788
  0
SEQEND
  0
ENDBLK
  0
BLOCK
  8
LAYER_2
  2
AIGNBL02050130
 70
64
 10
0
 20
0
 30
0
  3
AIGNBL02050130
  0
POLYLINE
  8
LAYER_2
 40
0.2469
 41
0.2469
 66
1
 10
0
 20
0
 30
0
  0
VERTEX
  8
LAYER_2
 10
94.4821
 20
213.8827
  0
VERTEX
  8
LAYER_2
 10
94.6319
 20
213.8827
  0
SEQEND
  0
ENDBLK
  0
BLOCK
  8
LAYER_2
  2
AIGNBL02050131
 70
64
 10
0
 20
0
 30
0
  3
AIGNBL02050131
  0
POLYLINE
  8
LAYER_2
 40
0.2469
 41
0.2469
 66
1
 10
0
 20
0
 30
0
  0
VERTEX
  8
LAYER_2
 10
96.1728
 20
215.2577
  0
VERTEX
  8
LAYER_2
 10
96.0069
 20
215.2577
  0
SEQEND
  0
ENDBLK
  0
BLOCK
  8
LAYER_2
  2
AIGNBL02050132
 70
64
 10
0
 20
0
 30
0
  3
AIGNBL02050132
  0
POLYLINE
  8
LAYER_2
 40
0.2469
 41
0.2469
 66
1
 10
0
 20
0
 30
0
  0
VERTEX
  8
LAYER_2
 10
96.1728
 20
211.5077
  0
VERTEX
  8
LAYER_2
 10
96.0069
 20
211.5077
  0
SEQEND
  0
ENDBLK
  0
BLOCK
  8
LAYER_2
  2
AIGNBL02040114
 70
64
 10
0
 20
0
 30
0
  3
AIGNBL02040114
  0
INSERT
  8
LAYER_2
  2
AIGNBL02050115
 10
0
 20
0
 30
0
  0
INSERT
  8
LAYER_2
  2
AIGNBL02050116
 10
0
 20
0
 30
0
  0
INSERT
  8
LAYER_2
  2
AIGNBL02050117
 10
0
 20
0
 30
0
  0
INSERT
  8
LAYER_2
  2
AIGNBL02050118
 10
0
 20
0
 30
0
  0
INSERT
  8
LAYER_2
  2
AIGNBL02050119
 10
0
 20
0
 30
0
  0
INSERT
  8
LAYER_2
  2
AIGNBL0205011A
 10
0
 20
0
 30
0
  0
INSERT
  8
LAYER_2
  2
AIGNBL0205011B
 10
0
 20
0
 30
0
  0
INSERT
  8
LAYER_2
  2
AIGNBL0205011C
 10
0
 20
0
 30
0
  0
INSERT
  8
LAYER_2
  2
AIGNBL0205011D
 10
0
 20
0
 30
0
  0
INSERT
  8
LAYER_2
  2
AIGNBL0205011E
 10
0
 20
0
 30
0
  0
INSERT
  8
LAYER_2
  2
AIGNBL0205011F
 10
0
 20
0
 30
0
  0
INSERT
  8
LAYER_2
  2
AIGNBL02050120
 10
0
 20
0
 30
0
  0
INSERT
  8
LAYER_2
  2
AIGNBL02050121
 10
0
 20
0
 30
0
  0
INSERT
  8
LAYER_2
  2
AIGNBL02050122
 10
0
 20
0
 30
0
  0
INSERT
  8
LAYER_2
  2
AIGNBL02050123
 10
0
 20
0
 30
0
  0
INSERT
  8
LAYER_2
  2
AIGNBL02050124
 10
0
 20
0
 30
0
  0
INSERT
  8
LAYER_2
  2
AIGNBL02050125
 10
0
 20
0
 30
0
  0
ENDBLK
  0
BLOCK
  8
LAYER_2
  2
AIGNBL02040126
 70
64
 10
0
 20
0
 30
0
  3
AIGNBL02040126
  0
INSERT
  8
LAYER_2
  2
AIGNBL02050127
 10
0
 20
0
 30
0
  0
INSERT
  8
LAYER_2
  2
AIGNBL02050128
 10
0
 20
0
 30
0
  0
INSERT
  8
LAYER_2
  2
AIGNBL02050129
 10
0
 20
0
 30
0
  0
INSERT
  8
LAYER_2
  2
AIGNBL0205012A
 10
0
 20
0
 30
0
  0
ENDBLK
  0
BLOCK
  8
LAYER_2
  2
AIGNBL0204012B
 70
64
 10
0
 20
0
 30
0
  3
AIGNBL0204012B
  0
INSERT
  8
LAYER_2
  2
AIGNBL0205012C
 10
0
 20
0
 30
0
  0
INSERT
  8
LAYER_2
  2
AIGNBL0205012D
 10
0
 20
0
 30
0
  0
INSERT
  8
LAYER_2
  2
AIGNBL0205012E
 10
0
 20
0
 30
0
  0
INSERT
  8
LAYER_2
  2
AIGNBL0205012F
 10
0
 20
0
 30
0
  0
INSERT
  8
LAYER_2
  2
AIGNBL02050130
 10
0
 20
0
 30
0
  0
INSERT
  8
LAYER_2
  2
AIGNBL02050131
 10
0
 20
0
 30
0
  0
INSERT
  8
LAYER_2
  2
AIGNBL02050132
 10
0
 20
0
 30
0
  0
ENDBLK
  0
BLOCK
  8
LAYER_2
  2
AIGNBL02040133
 70
64
 10
0
 20
0
 30
0
  3
AIGNBL02040133
  0
POLYLINE
  8
LAYER_2
  6
AIGENLINE001
 40
0.2469
 41
0.2469
 66
1
 10
0
 20
0
 30
0
 70
128
  0
VERTEX
  8
LAYER_2
 10
93.507
 20
213.3827
  0
VERTEX
  8
LAYER_2
 10
101.2572
 20
213.3827
  0
SEQEND
  0
ENDBLK
  0
BLOCK
  8
LAYER_7
  2
AIGNBL07040006
 70
64
 10
0
 20
0
 30
0
  3
AIGNBL07040006
  0
POLYLINE
  8
LAYER_7
 40
0.05
 41
0.05
 66
1
 10
0
 20
0
 30
0
 70
1
  0
VERTEX
  8
LAYER_7
 10
129.5759
 20
-1.9017
  0
VERTEX
  8
LAYER_7
 10
129.1615
 20
-2.9063
  0
VERTEX
  8
LAYER_7
 10
128.6292
 20
-2.9063
  0
VERTEX
  8
LAYER_7
 10
129.9848
 20
0.2856
  0
VERTEX
  8
LAYER_7
 10
130.6063
 20
0.2856
  0
VERTEX
  8
LAYER_7
 10
131.9682
 20
-2.9063
  0
VERTEX
  8
LAYER_7
 10
131.417
 20
-2.9063
  0
VERTEX
  8
LAYER_7
 10
130.9908
 20
-1.9017
  0
SEQEND
  0
POLYLINE
  8
LAYER_7
 40
0.05
 41
0.05
 66
1
 10
0
 20
0
 30
0
 70
1
  0
VERTEX
  8
LAYER_7
 10
130.8843
 20
-1.5806
  0
VERTEX
  8
LAYER_7
 10
130.4937
 20
-0.6611
  0
VERTEX
  8
LAYER_7
 10
130.2863
 20
-0.0789
  0
VERTEX
  8
LAYER_7
 10
130.2746
 20
-0.0789
  0
VERTEX
  8
LAYER_7
 10
130.073
 20
-0.6573
  0
VERTEX
  8
LAYER_7
 10
129.6827
 20
-1.5806
  0
SEQEND
  0
ENDBLK
  0
BLOCK
  8
LAYER_7
  2
AIGNBL07040007
 70
64
 10
0
 20
0
 30
0
  3
AIGNBL07040007
  0
POLYLINE
  8
LAYER_7
 40
0.05
 41
0.05
 66
1
 10
0
 20
0
 30
0
 70
1
  0
VERTEX
  8
LAYER_7
 10
135.6682
 20
-3.3752
 42
-0.01590442139
  0
VERTEX
  8
LAYER_7
 10
134.1406
 20
-3.0055
  0
VERTEX
  8
LAYER_7
 10
133.8978
 20
-2.9586
 42
-0.09413929591
  0
VERTEX
  8
LAYER_7
 10
133.0892
 20
-2.7867
 42
-0.1068219955
  0
VERTEX
  8
LAYER_7
 10
132.5221
 20
-2.3895
 42
-0.1913088984
  0
VERTEX
  8
LAYER_7
 10
132.1397
 20
-1.3439
 42
-0.1037337018
  0
VERTEX
  8
LAYER_7
 10
132.2786
 20
-0.6495
 42
-0.2229654776
  0
VERTEX
  8
LAYER_7
 10
133.3175
 20
0.2396
 42
-0.07415788599
  0
VERTEX
  8
LAYER_7
 10
133.9987
 20
0.3376
 42
-0.09141547712
  0
VERTEX
  8
LAYER_7
 10
134.7756
 20
0.2029
 42
-0.2208357411
  0
VERTEX
  8
LAYER_7
 10
135.7019
 20
-0.7397
 42
-0.07993307355
  0
VERTEX
  8
LAYER_7
 10
135.7864
 20
-1.2774
 42
-0.1063866822
  0
VERTEX
  8
LAYER_7
 10
135.6435
 20
-1.9875
 42
-0.2277750027
  0
VERTEX
  8
LAYER_7
 10
134.6498
 20
-2.8071
  0
VERTEX
  8
LAYER_7
 10
134.6498
 20
-2.826
  0
VERTEX
  8
LAYER_7
 10
135.8163
 20
-3.0296
  0
SEQEND
  0
POLYLINE
  8
LAYER_7
 40
0.05
 41
0.05
 66
1
 10
0
 20
0
 30
0
 70
1
  0
VERTEX
  8
LAYER_7
 10
135.242
 20
-1.2957
 42
0.1155159286
  0
VERTEX
  8
LAYER_7
 10
135.0943
 20
-0.6577
 42
0.2893632681
  0
VERTEX
  8
LAYER_7
 10
133.9804
 20
0.0014
 42
0.1181347236
  0
VERTEX
  8
LAYER_7
 10
133.3513
 20
-0.1381
 42
0.130394181
  0
VERTEX
  8
LAYER_7
 10
132.9142
 20
-0.5289
 42
0.1498939419
  0
VERTEX
  8
LAYER_7
 10
132.6903
 20
-1.3336
 42
0.1187923829
  0
VERTEX
  8
LAYER_7
 10
132.8324
 20
-1.9598
 42
0.2872436897
  0
VERTEX
  8
LAYER_7
 10
133.957
 20
-2.6228
 42
0.1213423942
  0
VERTEX
  8
LAYER_7
 10
134.5918
 20
-2.4769
 42
0.1309340911
  0
VERTEX
  8
LAYER_7
 10
135.0283
 20
-2.0753
 42
0.1440639306
  0
SEQEND
  0
ENDBLK
  0
BLOCK
  8
LAYER_7
  2
AIGNBL07040008
 70
64
 10
0
 20
0
 30
0
  3
AIGNBL07040008
  0
POLYLINE
  8
LAYER_7
 40
0.05
 41
0.05
 66
1
 10
0
 20
0
 30
0
 70
1
  0
VERTEX
  8
LAYER_7
 10
136.9115
 20
0.2856
  0
VERTEX
  8
LAYER_7
 10
136.9115
 20
-1.604
 42
0.1245662292
  0
VERTEX
  8
LAYER_7
 10
137.0415
 20
-2.2002
 42
0.1608226014
  0
VERTEX
  8
LAYER_7
 10
137.3893
 20
-2.5306
 42
0.1085933755
  0
VERTEX
  8
LAYER_7
 10
137.841
 20
-2.6228
 42
0.1363071186
  0
VERTEX
  8
LAYER_7
 10
138.4083
 20
-2.4865
 42
0.1572655498
  0
VERTEX
  8
LAYER_7
 10
138.716
 20
-2.1307
 42
0.1010048886
  0
VERTEX
  8
LAYER_7
 10
138.8118
 20
-1.604
  0
VERTEX
  8
LAYER_7
 10
138.8118
 20
0.2856
  0
VERTEX
  8
LAYER_7
 10
139.3328
 20
0.2856
  0
VERTEX
  8
LAYER_7
 10
139.3328
 20
-1.5758
 42
-0.1114113393
  0
VERTEX
  8
LAYER_7
 10
139.1968
 20
-2.2537
 42
-0.1324547527
  0
VERTEX
  8
LAYER_7
 10
138.8235
 20
-2.6942
 42
-0.1131342628
  0
VERTEX
  8
LAYER_7
 10
138.1922
 20
-2.9314
 42
-0.04549211769
  0
VERTEX
  8
LAYER_7
 10
137.8231
 20
-2.9586
 42
-0.1002764947
  0
VERTEX
  8
LAYER_7
 10
137.0985
 20
-2.8291
 42
-0.2729567785
  0
VERTEX
  8
LAYER_7
 10
136.4121
 20
-1.8973
 42
-0.04477569465
  0
VERTEX
  8
LAYER_7
 10
136.3906
 20
-1.5944
  0
VERTEX
  8
LAYER_7
 10
136.3906
 20
0.2856
  0
SEQEND
  0
ENDBLK
  0
BLOCK
  8
LAYER_7
  2
AIGNBL07040009
 70
64
 10
0
 20
0
 30
0
  3
AIGNBL07040009
  0
POLYLINE
  8
LAYER_7
 40
0.05
 41
0.05
 66
1
 10
0
 20
0
 30
0
 70
1
  0
VERTEX
  8
LAYER_7
 10
140.8131
 20
-1.9017
  0
VERTEX
  8
LAYER_7
 10
140.3983
 20
-2.9063
  0
VERTEX
  8
LAYER_7
 10
139.866
 20
-2.9063
  0
VERTEX
  8
LAYER_7
 10
141.2217
 20
0.2856
  0
VERTEX
  8
LAYER_7
 10
141.8428
 20
0.2856
  0
VERTEX
  8
LAYER_7
 10
143.2047
 20
-2.9063
  0
VERTEX
  8
LAYER_7
 10
142.6542
 20
-2.9063
  0
VERTEX
  8
LAYER_7
 10
142.228
 20
-1.9017
  0
SEQEND
  0
POLYLINE
  8
LAYER_7
 40
0.05
 41
0.05
 66
1
 10
0
 20
0
 30
0
 70
1
  0
VERTEX
  8
LAYER_7
 10
142.1212
 20
-1.5806
  0
VERTEX
  8
LAYER_7
 10
141.7302
 20
-0.6611
  0
VERTEX
  8
LAYER_7
 10
141.5228
 20
-0.0789
  0
VERTEX
  8
LAYER_7
 10
141.5111
 20
-0.0789
  0
VERTEX
  8
LAYER_7
 10
141.3099
 20
-0.6573
  0
VERTEX
  8
LAYER_7
 10
140.9192
 20
-1.5806
  0
SEQEND
  0
ENDBLK
  0
BLOCK
  8
LAYER_7
  2
AIGNBL0704000A
 70
64
 10
0
 20
0
 30
0
  3
AIGNBL0704000A
  0
POLYLINE
  8
LAYER_7
 40
0.05
 41
0.05
 66
1
 10
0
 20
0
 30
0
 70
1
  0
VERTEX
  8
LAYER_7
 10
144.0866
 20
0.2477
 42
-0.03224903245
  0
VERTEX
  8
LAYER_7
 10
145.0757
 20
0.3097
 42
-0.09041197006
  0
VERTEX
  8
LAYER_7
 10
145.9402
 20
0.1785
 42
-0.04994368477
  0
VERTEX
  8
LAYER_7
 10
146.1944
 20
0.0444
 42
-0.2487132909
  0
VERTEX
  8
LAYER_7
 10
146.5433
 20
-0.6236
 42
-0.2272146381
  0
VERTEX
  8
LAYER_7
 10
146.2357
 20
-1.3053
 42
-0.1170283825
  0
VERTEX
  8
LAYER_7
 10
145.6436
 20
-1.5863
 42
-0.05742943746
  0
VERTEX
  8
LAYER_7
 10
145.0161
 20
-1.6561
  0
VERTEX
  8
LAYER_7
 10
144.602
 20
-1.6275
  0
VERTEX
  8
LAYER_7
 10
144.602
 20
-2.9063
  0
VERTEX
  8
LAYER_7
 10
144.0866
 20
-2.9063
  0
SEQEND
  0
POLYLINE
  8
LAYER_7
 40
0.05
 41
0.05
 66
1
 10
0
 20
0
 30
0
 70
1
  0
VERTEX
  8
LAYER_7
 10
144.602
 20
-1.2912
 42
0.04008411413
  0
VERTEX
  8
LAYER_7
 10
145.0278
 20
-1.3246
 42
0.1145518016
  0
VERTEX
  8
LAYER_7
 10
145.6752
 20
-1.1988
 42
0.2903179778
  0
VERTEX
  8
LAYER_7
 10
146.029
 20
-0.6425
 42
0.1914957055
  0
VERTEX
  8
LAYER_7
 10
145.8927
 20
-0.2718
 42
0.1589955053
  0
VERTEX
  8
LAYER_7
 10
145.4418
 20
-0.0491
 42
0.06415510501
  0
VERTEX
  8
LAYER_7
 10
145.0878
 20
-0.0176
 42
0.06838414011
  0
VERTEX
  8
LAYER_7
 10
144.602
 20
-0.0506
  0
SEQEND
  0
ENDBLK
  0
BLOCK
  8
LAYER_7
  2
AIGNBL0704000B
 70
64
 10
0
 20
0
 30
0
  3
AIGNBL0704000B
  0
POLYLINE
  8
LAYER_7
 40
0.05
 41
0.05
 66
1
 10
0
 20
0
 30
0
 70
1
  0
VERTEX
  8
LAYER_7
 10
147.859
 20
0.03
 42
-0.2988654244
  0
VERTEX
  8
LAYER_7
 10
147.7179
 20
-0.186
 42
-0.1045089306
  0
VERTEX
  8
LAYER_7
 10
147.5269
 20
-0.226
 42
-0.3827056298
  0
VERTEX
  8
LAYER_7
 10
147.2131
 20
0.03
 42
-0.2852467472
  0
VERTEX
  8
LAYER_7
 10
147.3622
 20
0.2515
 42
-0.1078871437
  0
VERTEX
  8
LAYER_7
 10
147.5386
 20
0.2901
 42
-0.2463889277
  0
VERTEX
  8
LAYER_7
 10
147.8188
 20
0.1635
 42
-0.1466000164
  0
SEQEND
  0
POLYLINE
  8
LAYER_7
 40
0.05
 41
0.05
 66
1
 10
0
 20
0
 30
0
 70
1
  0
VERTEX
  8
LAYER_7
 10
147.2778
 20
-2.9063
  0
VERTEX
  8
LAYER_7
 10
147.2778
 20
-0.6143
  0
VERTEX
  8
LAYER_7
 10
147.7987
 20
-0.6143
  0
VERTEX
  8
LAYER_7
 10
147.7987
 20
-2.9063
  0
SEQEND
  0
ENDBLK
  0
BLOCK
  8
LAYER_7
  2
AIGNBL0704000C
 70
64
 10
0
 20
0
 30
0
  3
AIGNBL0704000C
  0
POLYLINE
  8
LAYER_7
 40
0.05
 41
0.05
 66
1
 10
0
 20
0
 30
0
 70
1
  0
VERTEX
  8
LAYER_7
 10
149.3852
 20
-1.9017
  0
VERTEX
  8
LAYER_7
 10
148.9715
 20
-2.9063
  0
VERTEX
  8
LAYER_7
 10
148.4381
 20
-2.9063
  0
VERTEX
  8
LAYER_7
 10
149.7941
 20
0.2856
  0
VERTEX
  8
LAYER_7
 10
150.416
 20
0.2856
  0
VERTEX
  8
LAYER_7
 10
151.7778
 20
-2.9063
  0
VERTEX
  8
LAYER_7
 10
151.2269
 20
-2.9063
  0
VERTEX
  8
LAYER_7
 10
150.8008
 20
-1.9017
  0
SEQEND
  0
POLYLINE
  8
LAYER_7
 40
0.05
 41
0.05
 66
1
 10
0
 20
0
 30
0
 70
1
  0
VERTEX
  8
LAYER_7
 10
150.694
 20
-1.5806
  0
VERTEX
  8
LAYER_7
 10
150.3033
 20
-0.6611
  0
VERTEX
  8
LAYER_7
 10
150.0966
 20
-0.0789
  0
VERTEX
  8
LAYER_7
 10
150.0842
 20
-0.0789
  0
VERTEX
  8
LAYER_7
 10
149.883
 20
-0.6573
  0
VERTEX
  8
LAYER_7
 10
149.4923
 20
-1.5806
  0
SEQEND
  0
ENDBLK
  0
BLOCK
  8
LAYER_2
  2
AIGNBL02030111
 70
64
 10
0
 20
0
 30
0
  3
AIGNBL02030111
  0
POLYLINE
  8
LAYER_2
 40
0.2469
 41
0.2469
 66
1
 10
0
 20
0
 30
0
  0
VERTEX
  8
LAYER_2
 10
96.3319
 20
215.1283
  0
VERTEX
  8
LAYER_2
 10
96.3319
 20
211.637
  0
SEQEND
  0
ENDBLK
  0
BLOCK
  8
LAYER_2
  2
AIGNBL02030113
 70
64
 10
0
 20
0
 30
0
  3
AIGNBL02030113
  0
INSERT
  8
LAYER_2
  2
AIGNBL02040114
 10
0
 20
0
 30
0
  0
INSERT
  8
LAYER_2
  2
AIGNBL02040126
 10
0
 20
0
 30
0
  0
INSERT
  8
LAYER_2
  2
AIGNBL0204012B
 10
0
 20
0
 30
0
  0
INSERT
  8
LAYER_2
  2
AIGNBL02040133
 10
0
 20
0
 30
0
  0
ENDBLK
  0
BLOCK
  8
LAYER_7
  2
AIGNBL07030005
 70
64
 10
0
 20
0
 30
0
  3
AIGNBL07030005
  0
INSERT
  8
LAYER_7
  2
AIGNBL07040006
 10
0
 20
0
 30
0
  0
INSERT
  8
LAYER_7
  2
AIGNBL07040007
 10
0
 20
0
 30
0
  0
INSERT
  8
LAYER_7
  2
AIGNBL07040008
 10
0
 20
0
 30
0
  0
INSERT
  8
LAYER_7
  2
AIGNBL07040009
 10
0
 20
0
 30
0
  0
INSERT
  8
LAYER_7
  2
AIGNBL0704000A
 10
0
 20
0
 30
0
  0
INSERT
  8
LAYER_7
  2
AIGNBL0704000B
 10
0
 20
0
 30
0
  0
INSERT
  8
LAYER_7
  2
AIGNBL0704000C
 10
0
 20
0
 30
0
  0
ENDBLK
  0
BLOCK
  8
LAYER_7
  2
AIGNBL0703000E
 70
64
 10
0
 20
0
 30
0
  3
AIGNBL0703000E
  0
POLYLINE
  8
LAYER_7
 40
0.05
 41
0.05
 66
1
 10
0
 20
0
 30
0
 70
1
  0
VERTEX
  8
LAYER_7
 10
128.7222
 20
-4.5162
  0
VERTEX
  8
LAYER_7
 10
129.1914
 20
-4.5162
  0
VERTEX
  8
LAYER_7
 10
129.1914
 20
-4.5957
  0
VERTEX
  8
LAYER_7
 10
128.6333
 20
-4.5957
  0
VERTEX
  8
LAYER_7
 10
128.6333
 20
-3.72
  0
VERTEX
  8
LAYER_7
 10
129.1762
 20
-3.72
  0
VERTEX
  8
LAYER_7
 10
129.1762
 20
-3.7989
  0
VERTEX
  8
LAYER_7
 10
128.7222
 20
-3.7989
  0
VERTEX
  8
LAYER_7
 10
128.7222
 20
-4.0993
  0
VERTEX
  8
LAYER_7
 10
129.1467
 20
-4.0993
  0
VERTEX
  8
LAYER_7
 10
129.1467
 20
-4.1785
  0
VERTEX
  8
LAYER_7
 10
128.7222
 20
-4.1785
  0
SEQEND
  0
ENDBLK
  0
BLOCK
  8
LAYER_7
  2
AIGNBL0703000F
 70
64
 10
0
 20
0
 30
0
  3
AIGNBL0703000F
  0
POLYLINE
  8
LAYER_7
 40
0.05
 41
0.05
 66
1
 10
0
 20
0
 30
0
 70
1
  0
VERTEX
  8
LAYER_7
 10
130.1574
 20
-4.4655
  0
VERTEX
  8
LAYER_7
 10
130.1595
 20
-4.4655
  0
VERTEX
  8
LAYER_7
 10
130.1595
 20
-3.72
  0
VERTEX
  8
LAYER_7
 10
130.2487
 20
-3.72
  0
VERTEX
  8
LAYER_7
 10
130.2487
 20
-4.5957
  0
VERTEX
  8
LAYER_7
 10
130.1378
 20
-4.5957
  0
VERTEX
  8
LAYER_7
 10
129.6283
 20
-3.8423
  0
VERTEX
  8
LAYER_7
 10
129.6252
 20
-3.8423
  0
VERTEX
  8
LAYER_7
 10
129.6252
 20
-4.5957
  0
VERTEX
  8
LAYER_7
 10
129.5366
 20
-4.5957
  0
VERTEX
  8
LAYER_7
 10
129.5366
 20
-3.72
  0
VERTEX
  8
LAYER_7
 10
129.6476
 20
-3.72
  0
SEQEND
  0
ENDBLK
  0
BLOCK
  8
LAYER_7
  2
AIGNBL07030010
 70
64
 10
0
 20
0
 30
0
  3
AIGNBL07030010
  0
POLYLINE
  8
LAYER_7
 40
0.05
 41
0.05
 66
1
 10
0
 20
0
 30
0
 70
1
  0
VERTEX
  8
LAYER_7
 10
130.6497
 20
-4.4159
  0
VERTEX
  8
LAYER_7
 10
130.6959
 20
-4.5034
 42
0.1764403825
  0
VERTEX
  8
LAYER_7
 10
130.7917
 20
-4.5386
  0
VERTEX
  8
LAYER_7
 10
130.8675
 20
-4.522
  0
VERTEX
  8
LAYER_7
 10
130.915
 20
-4.4769
  0
VERTEX
  8
LAYER_7
 10
130.9395
 20
-4.4118
  0
VERTEX
  8
LAYER_7
 10
130.9467
 20
-4.336
  0
VERTEX
  8
LAYER_7
 10
130.9467
 20
-3.72
  0
VERTEX
  8
LAYER_7
 10
131.0356
 20
-3.72
  0
VERTEX
  8
LAYER_7
 10
131.0356
 20
-4.3432
  0
VERTEX
  8
LAYER_7
 10
131.0259
 20
-4.4345
  0
VERTEX
  8
LAYER_7
 10
130.9908
 20
-4.5237
  0
VERTEX
  8
LAYER_7
 10
130.9191
 20
-4.5913
  0
VERTEX
  8
LAYER_7
 10
130.8013
 20
-4.6178
 42
-0.1867451878
  0
VERTEX
  8
LAYER_7
 10
130.6449
 20
-4.5668
 42
-0.1769176705
  0
VERTEX
  8
LAYER_7
 10
130.5667
 20
-4.4387
  0
SEQEND
  0
ENDBLK
  0
BLOCK
  8
LAYER_7
  2
AIGNBL07030011
 70
64
 10
0
 20
0
 30
0
  3
AIGNBL07030011
  0
POLYLINE
  8
LAYER_7
 40
0.05
 41
0.05
 66
1
 10
0
 20
0
 30
0
 70
1
  0
VERTEX
  8
LAYER_7
 10
132.2972
 20
-4.1576
  0
VERTEX
  8
LAYER_7
 10
132.2624
 20
-4.3418
  0
VERTEX
  8
LAYER_7
 10
132.167
 20
-4.4872
  0
VERTEX
  8
LAYER_7
 10
132.0219
 20
-4.583
  0
VERTEX
  8
LAYER_7
 10
131.8407
 20
-4.6178
  0
VERTEX
  8
LAYER_7
 10
131.6595
 20
-4.583
  0
VERTEX
  8
LAYER_7
 10
131.5148
 20
-4.4872
  0
VERTEX
  8
LAYER_7
 10
131.4187
 20
-4.3418
  0
VERTEX
  8
LAYER_7
 10
131.3842
 20
-4.1576
  0
VERTEX
  8
LAYER_7
 10
131.4187
 20
-3.9732
  0
VERTEX
  8
LAYER_7
 10
131.5148
 20
-3.8279
  0
VERTEX
  8
LAYER_7
 10
131.6595
 20
-3.7321
  0
VERTEX
  8
LAYER_7
 10
131.8407
 20
-3.6973
  0
VERTEX
  8
LAYER_7
 10
132.0219
 20
-3.7321
  0
VERTEX
  8
LAYER_7
 10
132.167
 20
-3.8279
  0
VERTEX
  8
LAYER_7
 10
132.2624
 20
-3.9732
  0
SEQEND
  0
POLYLINE
  8
LAYER_7
 40
0.05
 41
0.05
 66
1
 10
0
 20
0
 30
0
 70
1
  0
VERTEX
  8
LAYER_7
 10
132.2031
 20
-4.1582
  0
VERTEX
  8
LAYER_7
 10
132.1787
 20
-4.0125
  0
VERTEX
  8
LAYER_7
 10
132.1067
 20
-3.8909
  0
VERTEX
  8
LAYER_7
 10
131.9923
 20
-3.8078
  0
VERTEX
  8
LAYER_7
 10
131.8407
 20
-3.7765
  0
VERTEX
  8
LAYER_7
 10
131.6891
 20
-3.8078
  0
VERTEX
  8
LAYER_7
 10
131.5751
 20
-3.8909
  0
VERTEX
  8
LAYER_7
 10
131.5031
 20
-4.0125
  0
VERTEX
  8
LAYER_7
 10
131.4783
 20
-4.1582
  0
VERTEX
  8
LAYER_7
 10
131.5031
 20
-4.304
  0
VERTEX
  8
LAYER_7
 10
131.5751
 20
-4.4252
  0
VERTEX
  8
LAYER_7
 10
131.6891
 20
-4.5075
  0
VERTEX
  8
LAYER_7
 10
131.8407
 20
-4.5386
  0
VERTEX
  8
LAYER_7
 10
131.9923
 20
-4.5075
  0
VERTEX
  8
LAYER_7
 10
132.1067
 20
-4.4252
  0
VERTEX
  8
LAYER_7
 10
132.1787
 20
-4.304
  0
SEQEND
  0
ENDBLK
  0
BLOCK
  8
LAYER_7
  2
AIGNBL07030012
 70
64
 10
0
 20
0
 30
0
  3
AIGNBL07030012
  0
POLYLINE
  8
LAYER_7
 40
0.05
 41
0.05
 66
1
 10
0
 20
0
 30
0
 70
1
  0
VERTEX
  8
LAYER_7
 10
132.9538
 20
-4.5957
  0
VERTEX
  8
LAYER_7
 10
132.8649
 20
-4.5957
  0
VERTEX
  8
LAYER_7
 10
132.8649
 20
-4.2182
  0
VERTEX
  8
LAYER_7
 10
132.5373
 20
-3.72
  0
VERTEX
  8
LAYER_7
 10
132.6486
 20
-3.72
  0
VERTEX
  8
LAYER_7
 10
132.9121
 20
-4.1438
  0
VERTEX
  8
LAYER_7
 10
133.1777
 20
-3.72
  0
VERTEX
  8
LAYER_7
 10
133.2815
 20
-3.72
  0
VERTEX
  8
LAYER_7
 10
132.9538
 20
-4.2182
  0
SEQEND
  0
ENDBLK
  0
BLOCK
  8
LAYER_7
  2
AIGNBL07030013
 70
64
 10
0
 20
0
 30
0
  3
AIGNBL07030013
  0
POLYLINE
  8
LAYER_7
 40
0.05
 41
0.05
 66
1
 10
0
 20
0
 30
0
 70
1
  0
VERTEX
  8
LAYER_7
 10
134.0487
 20
-3.72
  0
VERTEX
  8
LAYER_7
 10
134.3094
 20
-3.72
  0
VERTEX
  8
LAYER_7
 10
134.4097
 20
-3.7303
  0
VERTEX
  8
LAYER_7
 10
134.5003
 20
-3.7662
  0
VERTEX
  8
LAYER_7
 10
134.5664
 20
-3.8351
  0
VERTEX
  8
LAYER_7
 10
134.5916
 20
-3.9436
 42
-0.1782454861
  0
VERTEX
  8
LAYER_7
 10
134.5492
 20
-4.0642
 42
-0.1596818957
  0
VERTEX
  8
LAYER_7
 10
134.4362
 20
-4.1317
  0
VERTEX
  8
LAYER_7
 10
134.4362
 20
-4.1338
 42
-0.1731234976
  0
VERTEX
  8
LAYER_7
 10
134.5775
 20
-4.2003
 42
-0.1887742098
  0
VERTEX
  8
LAYER_7
 10
134.6336
 20
-4.3532
  0
VERTEX
  8
LAYER_7
 10
134.6105
 20
-4.4524
  0
VERTEX
  8
LAYER_7
 10
134.5458
 20
-4.5293
  0
VERTEX
  8
LAYER_7
 10
134.4435
 20
-4.5782
  0
VERTEX
  8
LAYER_7
 10
134.3081
 20
-4.5957
  0
VERTEX
  8
LAYER_7
 10
134.0487
 20
-4.5957
  0
SEQEND
  0
POLYLINE
  8
LAYER_7
 40
0.05
 41
0.05
 66
1
 10
0
 20
0
 30
0
 70
1
  0
VERTEX
  8
LAYER_7
 10
134.1375
 20
-4.1031
  0
VERTEX
  8
LAYER_7
 10
134.317
 20
-4.1031
  0
VERTEX
  8
LAYER_7
 10
134.3822
 20
-4.0955
  0
VERTEX
  8
LAYER_7
 10
134.4417
 20
-4.0707
  0
VERTEX
  8
LAYER_7
 10
134.4858
 20
-4.0228
  0
VERTEX
  8
LAYER_7
 10
134.5024
 20
-3.9498
  0
VERTEX
  8
LAYER_7
 10
134.4858
 20
-3.8788
  0
VERTEX
  8
LAYER_7
 10
134.4407
 20
-3.831
  0
VERTEX
  8
LAYER_7
 10
134.3739
 20
-3.8044
  0
VERTEX
  8
LAYER_7
 10
134.2922
 20
-3.7965
  0
VERTEX
  8
LAYER_7
 10
134.1375
 20
-3.7965
  0
SEQEND
  0
POLYLINE
  8
LAYER_7
 40
0.05
 41
0.05
 66
1
 10
0
 20
0
 30
0
 70
1
  0
VERTEX
  8
LAYER_7
 10
134.1375
 20
-4.5189
  0
VERTEX
  8
LAYER_7
 10
134.3036
 20
-4.5189
  0
VERTEX
  8
LAYER_7
 10
134.3956
 20
-4.5093
  0
VERTEX
  8
LAYER_7
 10
134.4724
 20
-4.48
  0
VERTEX
  8
LAYER_7
 10
134.5244
 20
-4.4266
  0
VERTEX
  8
LAYER_7
 10
134.5444
 20
-4.3481
 42
0.2573427114
  0
VERTEX
  8
LAYER_7
 10
134.4858
 20
-4.2189
 42
0.1341930545
  0
VERTEX
  8
LAYER_7
 10
134.3194
 20
-4.1761
  0
VERTEX
  8
LAYER_7
 10
134.1375
 20
-4.1761
  0
SEQEND
  0
ENDBLK
  0
BLOCK
  8
LAYER_7
  2
AIGNBL07030014
 70
64
 10
0
 20
0
 30
0
  3
AIGNBL07030014
  0
POLYLINE
  8
LAYER_7
 40
0.05
 41
0.05
 66
1
 10
0
 20
0
 30
0
 70
1
  0
VERTEX
  8
LAYER_7
 10
134.9999
 20
-4.5957
  0
VERTEX
  8
LAYER_7
 10
134.902
 20
-4.5957
  0
VERTEX
  8
LAYER_7
 10
135.2806
 20
-3.72
  0
VERTEX
  8
LAYER_7
 10
135.3675
 20
-3.72
  0
VERTEX
  8
LAYER_7
 10
135.7433
 20
-4.5957
  0
VERTEX
  8
LAYER_7
 10
135.6441
 20
-4.5957
  0
VERTEX
  8
LAYER_7
 10
135.5476
 20
-4.3656
  0
VERTEX
  8
LAYER_7
 10
135.0949
 20
-4.3656
  0
SEQEND
  0
POLYLINE
  8
LAYER_7
 40
0.05
 41
0.05
 66
1
 10
0
 20
0
 30
0
 70
1
  0
VERTEX
  8
LAYER_7
 10
135.128
 20
-4.2836
  0
VERTEX
  8
LAYER_7
 10
135.5142
 20
-4.2836
  0
VERTEX
  8
LAYER_7
 10
135.3213
 20
-3.8185
  0
SEQEND
  0
ENDBLK
  0
BLOCK
  8
LAYER_7
  2
AIGNBL07030015
 70
64
 10
0
 20
0
 30
0
  3
AIGNBL07030015
  0
POLYLINE
  8
LAYER_7
 40
0.05
 41
0.05
 66
1
 10
0
 20
0
 30
0
 70
1
  0
VERTEX
  8
LAYER_7
 10
136.3235
 20
-4.5957
  0
VERTEX
  8
LAYER_7
 10
136.2342
 20
-4.5957
  0
VERTEX
  8
LAYER_7
 10
136.2342
 20
-3.7989
  0
VERTEX
  8
LAYER_7
 10
135.9407
 20
-3.7989
  0
VERTEX
  8
LAYER_7
 10
135.9407
 20
-3.72
  0
VERTEX
  8
LAYER_7
 10
136.6163
 20
-3.72
  0
VERTEX
  8
LAYER_7
 10
136.6163
 20
-3.7989
  0
VERTEX
  8
LAYER_7
 10
136.3235
 20
-3.7989
  0
SEQEND
  0
ENDBLK
  0
BLOCK
  8
LAYER_7
  2
AIGNBL07030016
 70
64
 10
0
 20
0
 30
0
  3
AIGNBL07030016
  0
POLYLINE
  8
LAYER_7
 40
0.05
 41
0.05
 66
1
 10
0
 20
0
 30
0
 70
1
  0
VERTEX
  8
LAYER_7
 10
136.9181
 20
-3.72
  0
VERTEX
  8
LAYER_7
 10
137.007
 20
-3.72
  0
VERTEX
  8
LAYER_7
 10
137.007
 20
-4.0993
  0
VERTEX
  8
LAYER_7
 10
137.4848
 20
-4.0993
  0
VERTEX
  8
LAYER_7
 10
137.4848
 20
-3.72
  0
VERTEX
  8
LAYER_7
 10
137.5737
 20
-3.72
  0
VERTEX
  8
LAYER_7
 10
137.5737
 20
-4.5957
  0
VERTEX
  8
LAYER_7
 10
137.4848
 20
-4.5957
  0
VERTEX
  8
LAYER_7
 10
137.4848
 20
-4.181
  0
VERTEX
  8
LAYER_7
 10
137.007
 20
-4.181
  0
VERTEX
  8
LAYER_7
 10
137.007
 20
-4.5957
  0
VERTEX
  8
LAYER_7
 10
136.9181
 20
-4.5957
  0
SEQEND
  0
ENDBLK
  0
BLOCK
  8
LAYER_7
  2
AIGNBL07030017
 70
64
 10
0
 20
0
 30
0
  3
AIGNBL07030017
  0
POLYLINE
  8
LAYER_7
 40
0.05
 41
0.05
 66
1
 10
0
 20
0
 30
0
 70
1
  0
VERTEX
  8
LAYER_7
 10
138.0656
 20
-4.5957
  0
VERTEX
  8
LAYER_7
 10
137.9767
 20
-4.5957
  0
VERTEX
  8
LAYER_7
 10
137.9767
 20
-3.72
  0
VERTEX
  8
LAYER_7
 10
138.2341
 20
-3.72
  0
VERTEX
  8
LAYER_7
 10
138.3533
 20
-3.7321
  0
VERTEX
  8
LAYER_7
 10
138.4487
 20
-3.7724
  0
VERTEX
  8
LAYER_7
 10
138.5111
 20
-3.8447
  0
VERTEX
  8
LAYER_7
 10
138.5331
 20
-3.9536
  0
VERTEX
  8
LAYER_7
 10
138.5163
 20
-4.0415
  0
VERTEX
  8
LAYER_7
 10
138.4694
 20
-4.11
  0
VERTEX
  8
LAYER_7
 10
138.3988
 20
-4.1565
  0
VERTEX
  8
LAYER_7
 10
138.3096
 20
-4.1785
  0
VERTEX
  8
LAYER_7
 10
138.5655
 20
-4.5957
  0
VERTEX
  8
LAYER_7
 10
138.4567
 20
-4.5957
  0
VERTEX
  8
LAYER_7
 10
138.2145
 20
-4.1861
  0
VERTEX
  8
LAYER_7
 10
138.0656
 20
-4.1861
  0
SEQEND
  0
POLYLINE
  8
LAYER_7
 40
0.05
 41
0.05
 66
1
 10
0
 20
0
 30
0
 70
1
  0
VERTEX
  8
LAYER_7
 10
138.0656
 20
-4.1093
  0
VERTEX
  8
LAYER_7
 10
138.2207
 20
-4.1093
 42
0.1680930757
  0
VERTEX
  8
LAYER_7
 10
138.3864
 20
-4.0707
 42
0.2475915739
  0
VERTEX
  8
LAYER_7
 10
138.4446
 20
-3.9536
  0
VERTEX
  8
LAYER_7
 10
138.4281
 20
-3.8809
  0
VERTEX
  8
LAYER_7
 10
138.3836
 20
-3.8323
  0
VERTEX
  8
LAYER_7
 10
138.3147
 20
-3.8051
  0
VERTEX
  8
LAYER_7
 10
138.2245
 20
-3.7965
  0
VERTEX
  8
LAYER_7
 10
138.0656
 20
-3.7965
  0
SEQEND
  0
ENDBLK
  0
BLOCK
  8
LAYER_7
  2
AIGNBL07030018
 70
64
 10
0
 20
0
 30
0
  3
AIGNBL07030018
  0
POLYLINE
  8
LAYER_7
 40
0.05
 41
0.05
 66
1
 10
0
 20
0
 30
0
 70
1
  0
VERTEX
  8
LAYER_7
 10
139.7541
 20
-4.1576
  0
VERTEX
  8
LAYER_7
 10
139.7196
 20
-4.3418
  0
VERTEX
  8
LAYER_7
 10
139.6235
 20
-4.4872
  0
VERTEX
  8
LAYER_7
 10
139.4792
 20
-4.583
  0
VERTEX
  8
LAYER_7
 10
139.2976
 20
-4.6178
  0
VERTEX
  8
LAYER_7
 10
139.1164
 20
-4.583
  0
VERTEX
  8
LAYER_7
 10
138.972
 20
-4.4872
  0
VERTEX
  8
LAYER_7
 10
138.8763
 20
-4.3418
  0
VERTEX
  8
LAYER_7
 10
138.8418
 20
-4.1576
  0
VERTEX
  8
LAYER_7
 10
138.8763
 20
-3.9732
  0
VERTEX
  8
LAYER_7
 10
138.972
 20
-3.8279
  0
VERTEX
  8
LAYER_7
 10
139.1164
 20
-3.7321
  0
VERTEX
  8
LAYER_7
 10
139.2976
 20
-3.6973
  0
VERTEX
  8
LAYER_7
 10
139.4792
 20
-3.7321
  0
VERTEX
  8
LAYER_7
 10
139.6235
 20
-3.8279
  0
VERTEX
  8
LAYER_7
 10
139.7196
 20
-3.9732
  0
SEQEND
  0
POLYLINE
  8
LAYER_7
 40
0.05
 41
0.05
 66
1
 10
0
 20
0
 30
0
 70
1
  0
VERTEX
  8
LAYER_7
 10
139.66
 20
-4.1582
  0
VERTEX
  8
LAYER_7
 10
139.6352
 20
-4.0125
  0
VERTEX
  8
LAYER_7
 10
139.5636
 20
-3.8909
  0
VERTEX
  8
LAYER_7
 10
139.4492
 20
-3.8078
  0
VERTEX
  8
LAYER_7
 10
139.2976
 20
-3.7765
  0
VERTEX
  8
LAYER_7
 10
139.1464
 20
-3.8078
  0
VERTEX
  8
LAYER_7
 10
139.0317
 20
-3.8909
  0
VERTEX
  8
LAYER_7
 10
138.96
 20
-4.0125
  0
VERTEX
  8
LAYER_7
 10
138.9355
 20
-4.1582
  0
VERTEX
  8
LAYER_7
 10
138.96
 20
-4.304
  0
VERTEX
  8
LAYER_7
 10
139.0317
 20
-4.4252
  0
VERTEX
  8
LAYER_7
 10
139.1464
 20
-4.5075
  0
VERTEX
  8
LAYER_7
 10
139.2976
 20
-4.5386
  0
VERTEX
  8
LAYER_7
 10
139.4492
 20
-4.5075
  0
VERTEX
  8
LAYER_7
 10
139.5636
 20
-4.4252
  0
VERTEX
  8
LAYER_7
 10
139.6352
 20
-4.304
  0
SEQEND
  0
ENDBLK
  0
BLOCK
  8
LAYER_7
  2
AIGNBL07030019
 70
64
 10
0
 20
0
 30
0
  3
AIGNBL07030019
  0
POLYLINE
  8
LAYER_7
 40
0.05
 41
0.05
 66
1
 10
0
 20
0
 30
0
 70
1
  0
VERTEX
  8
LAYER_7
 10
140.9764
 20
-4.1576
  0
VERTEX
  8
LAYER_7
 10
140.9416
 20
-4.3418
  0
VERTEX
  8
LAYER_7
 10
140.8462
 20
-4.4872
  0
VERTEX
  8
LAYER_7
 10
140.7011
 20
-4.583
  0
VERTEX
  8
LAYER_7
 10
140.5199
 20
-4.6178
  0
VERTEX
  8
LAYER_7
 10
140.3387
 20
-4.583
  0
VERTEX
  8
LAYER_7
 10
140.194
 20
-4.4872
  0
VERTEX
  8
LAYER_7
 10
140.0979
 20
-4.3418
  0
VERTEX
  8
LAYER_7
 10
140.0635
 20
-4.1576
  0
VERTEX
  8
LAYER_7
 10
140.0979
 20
-3.9732
  0
VERTEX
  8
LAYER_7
 10
140.194
 20
-3.8279
  0
VERTEX
  8
LAYER_7
 10
140.3387
 20
-3.7321
  0
VERTEX
  8
LAYER_7
 10
140.5199
 20
-3.6973
  0
VERTEX
  8
LAYER_7
 10
140.7011
 20
-3.7321
  0
VERTEX
  8
LAYER_7
 10
140.8462
 20
-3.8279
  0
VERTEX
  8
LAYER_7
 10
140.9416
 20
-3.9732
  0
SEQEND
  0
POLYLINE
  8
LAYER_7
 40
0.05
 41
0.05
 66
1
 10
0
 20
0
 30
0
 70
1
  0
VERTEX
  8
LAYER_7
 10
140.8824
 20
-4.1582
  0
VERTEX
  8
LAYER_7
 10
140.8576
 20
-4.0125
  0
VERTEX
  8
LAYER_7
 10
140.7859
 20
-3.8909
  0
VERTEX
  8
LAYER_7
 10
140.6715
 20
-3.8078
  0
VERTEX
  8
LAYER_7
 10
140.5199
 20
-3.7765
  0
VERTEX
  8
LAYER_7
 10
140.3683
 20
-3.8078
  0
VERTEX
  8
LAYER_7
 10
140.254
 20
-3.8909
  0
VERTEX
  8
LAYER_7
 10
140.1823
 20
-4.0125
  0
VERTEX
  8
LAYER_7
 10
140.1575
 20
-4.1582
  0
VERTEX
  8
LAYER_7
 10
140.1823
 20
-4.304
  0
VERTEX
  8
LAYER_7
 10
140.254
 20
-4.4252
  0
VERTEX
  8
LAYER_7
 10
140.3683
 20
-4.5075
  0
VERTEX
  8
LAYER_7
 10
140.5199
 20
-4.5386
  0
VERTEX
  8
LAYER_7
 10
140.6715
 20
-4.5075
  0
VERTEX
  8
LAYER_7
 10
140.7859
 20
-4.4252
  0
VERTEX
  8
LAYER_7
 10
140.8576
 20
-4.304
  0
SEQEND
  0
ENDBLK
  0
BLOCK
  8
LAYER_7
  2
AIGNBL0703001A
 70
64
 10
0
 20
0
 30
0
  3
AIGNBL0703001A
  0
POLYLINE
  8
LAYER_7
 40
0.05
 41
0.05
 66
1
 10
0
 20
0
 30
0
 70
1
  0
VERTEX
  8
LAYER_7
 10
141.7653
 20
-4.4445
  0
VERTEX
  8
LAYER_7
 10
141.7667
 20
-4.4445
  0
VERTEX
  8
LAYER_7
 10
142.0596
 20
-3.72
  0
VERTEX
  8
LAYER_7
 10
142.196
 20
-3.72
  0
VERTEX
  8
LAYER_7
 10
142.196
 20
-4.5957
  0
VERTEX
  8
LAYER_7
 10
142.1068
 20
-4.5957
  0
VERTEX
  8
LAYER_7
 10
142.1068
 20
-3.8351
  0
VERTEX
  8
LAYER_7
 10
142.1043
 20
-3.8351
  0
VERTEX
  8
LAYER_7
 10
141.7877
 20
-4.5957
  0
VERTEX
  8
LAYER_7
 10
141.7409
 20
-4.5957
  0
VERTEX
  8
LAYER_7
 10
141.4239
 20
-3.8351
  0
VERTEX
  8
LAYER_7
 10
141.4215
 20
-3.8351
  0
VERTEX
  8
LAYER_7
 10
141.4215
 20
-4.5957
  0
VERTEX
  8
LAYER_7
 10
141.3326
 20
-4.5957
  0
VERTEX
  8
LAYER_7
 10
141.3326
 20
-3.72
  0
VERTEX
  8
LAYER_7
 10
141.4687
 20
-3.72
  0
SEQEND
  0
ENDBLK
  0
BLOCK
  8
LAYER_7
  2
AIGNBL0703001B
 70
64
 10
0
 20
0
 30
0
  3
AIGNBL0703001B
  0
POLYLINE
  8
LAYER_7
 40
0.05
 41
0.05
 66
1
 10
0
 20
0
 30
0
 70
1
  0
VERTEX
  8
LAYER_7
 10
143.1678
 20
-4.5162
  0
VERTEX
  8
LAYER_7
 10
143.6367
 20
-4.5162
  0
VERTEX
  8
LAYER_7
 10
143.6367
 20
-4.5957
  0
VERTEX
  8
LAYER_7
 10
143.0786
 20
-4.5957
  0
VERTEX
  8
LAYER_7
 10
143.0786
 20
-3.72
  0
VERTEX
  8
LAYER_7
 10
143.6219
 20
-3.72
  0
VERTEX
  8
LAYER_7
 10
143.6219
 20
-3.7989
  0
VERTEX
  8
LAYER_7
 10
143.1678
 20
-3.7989
  0
VERTEX
  8
LAYER_7
 10
143.1678
 20
-4.0993
  0
VERTEX
  8
LAYER_7
 10
143.5919
 20
-4.0993
  0
VERTEX
  8
LAYER_7
 10
143.5919
 20
-4.1785
  0
VERTEX
  8
LAYER_7
 10
143.1678
 20
-4.1785
  0
SEQEND
  0
ENDBLK
  0
BLOCK
  8
LAYER_7
  2
AIGNBL0703001C
 70
64
 10
0
 20
0
 30
0
  3
AIGNBL0703001C
  0
POLYLINE
  8
LAYER_7
 40
0.05
 41
0.05
 66
1
 10
0
 20
0
 30
0
 70
1
  0
VERTEX
  8
LAYER_7
 10
144.2685
 20
-4.0735
  0
VERTEX
  8
LAYER_7
 10
144.5076
 20
-3.72
  0
VERTEX
  8
LAYER_7
 10
144.6134
 20
-3.72
  0
VERTEX
  8
LAYER_7
 10
144.3233
 20
-4.1365
  0
VERTEX
  8
LAYER_7
 10
144.6447
 20
-4.5957
  0
VERTEX
  8
LAYER_7
 10
144.5335
 20
-4.5957
  0
VERTEX
  8
LAYER_7
 10
144.2661
 20
-4.2009
  0
VERTEX
  8
LAYER_7
 10
144.0002
 20
-4.5957
  0
VERTEX
  8
LAYER_7
 10
143.8889
 20
-4.5957
  0
VERTEX
  8
LAYER_7
 10
144.2106
 20
-4.1355
  0
VERTEX
  8
LAYER_7
 10
143.9175
 20
-3.72
  0
VERTEX
  8
LAYER_7
 10
144.0288
 20
-3.72
  0
SEQEND
  0
ENDBLK
  0
BLOCK
  8
LAYER_7
  2
AIGNBL0703001D
 70
64
 10
0
 20
0
 30
0
  3
AIGNBL0703001D
  0
POLYLINE
  8
LAYER_7
 40
0.05
 41
0.05
 66
1
 10
0
 20
0
 30
0
 70
1
  0
VERTEX
  8
LAYER_7
 10
144.9552
 20
-3.72
  0
VERTEX
  8
LAYER_7
 10
145.2028
 20
-3.72
  0
VERTEX
  8
LAYER_7
 10
145.3241
 20
-3.7338
  0
VERTEX
  8
LAYER_7
 10
145.4171
 20
-3.7775
  0
VERTEX
  8
LAYER_7
 10
145.4774
 20
-3.8503
  0
VERTEX
  8
LAYER_7
 10
145.4981
 20
-3.9536
  0
VERTEX
  8
LAYER_7
 10
145.4767
 20
-4.0569
  0
VERTEX
  8
LAYER_7
 10
145.4161
 20
-4.13
  0
VERTEX
  8
LAYER_7
 10
145.322
 20
-4.1737
  0
VERTEX
  8
LAYER_7
 10
145.2001
 20
-4.1885
  0
VERTEX
  8
LAYER_7
 10
145.0444
 20
-4.1885
  0
VERTEX
  8
LAYER_7
 10
145.0444
 20
-4.5957
  0
VERTEX
  8
LAYER_7
 10
144.9552
 20
-4.5957
  0
SEQEND
  0
POLYLINE
  8
LAYER_7
 40
0.05
 41
0.05
 66
1
 10
0
 20
0
 30
0
 70
1
  0
VERTEX
  8
LAYER_7
 10
145.0444
 20
-4.1131
  0
VERTEX
  8
LAYER_7
 10
145.1949
 20
-4.1131
 42
0.1861162373
  0
VERTEX
  8
LAYER_7
 10
145.3548
 20
-4.0724
 42
0.2307474552
  0
VERTEX
  8
LAYER_7
 10
145.4092
 20
-3.9536
 42
0.2664837056
  0
VERTEX
  8
LAYER_7
 10
145.353
 20
-3.8341
 42
0.1218688638
  0
VERTEX
  8
LAYER_7
 10
145.1949
 20
-3.7965
  0
VERTEX
  8
LAYER_7
 10
145.0444
 20
-3.7965
  0
SEQEND
  0
ENDBLK
  0
BLOCK
  8
LAYER_7
  2
AIGNBL0703001E
 70
64
 10
0
 20
0
 30
0
  3
AIGNBL0703001E
  0
POLYLINE
  8
LAYER_7
 40
0.05
 41
0.05
 66
1
 10
0
 20
0
 30
0
 70
1
  0
VERTEX
  8
LAYER_7
 10
145.9322
 20
-4.5162
  0
VERTEX
  8
LAYER_7
 10
146.401
 20
-4.5162
  0
VERTEX
  8
LAYER_7
 10
146.401
 20
-4.5957
  0
VERTEX
  8
LAYER_7
 10
145.8433
 20
-4.5957
  0
VERTEX
  8
LAYER_7
 10
145.8433
 20
-3.72
  0
VERTEX
  8
LAYER_7
 10
146.3862
 20
-3.72
  0
VERTEX
  8
LAYER_7
 10
146.3862
 20
-3.7989
  0
VERTEX
  8
LAYER_7
 10
145.9322
 20
-3.7989
  0
VERTEX
  8
LAYER_7
 10
145.9322
 20
-4.0993
  0
VERTEX
  8
LAYER_7
 10
146.3566
 20
-4.0993
  0
VERTEX
  8
LAYER_7
 10
146.3566
 20
-4.1785
  0
VERTEX
  8
LAYER_7
 10
145.9322
 20
-4.1785
  0
SEQEND
  0
ENDBLK
  0
BLOCK
  8
LAYER_7
  2
AIGNBL0703001F
 70
64
 10
0
 20
0
 30
0
  3
AIGNBL0703001F
  0
POLYLINE
  8
LAYER_7
 40
0.05
 41
0.05
 66
1
 10
0
 20
0
 30
0
 70
1
  0
VERTEX
  8
LAYER_7
 10
146.8351
 20
-4.5957
  0
VERTEX
  8
LAYER_7
 10
146.7462
 20
-4.5957
  0
VERTEX
  8
LAYER_7
 10
146.7462
 20
-3.72
  0
VERTEX
  8
LAYER_7
 10
147.0036
 20
-3.72
  0
VERTEX
  8
LAYER_7
 10
147.1228
 20
-3.7321
  0
VERTEX
  8
LAYER_7
 10
147.2182
 20
-3.7724
  0
VERTEX
  8
LAYER_7
 10
147.2806
 20
-3.8447
  0
VERTEX
  8
LAYER_7
 10
147.3026
 20
-3.9536
  0
VERTEX
  8
LAYER_7
 10
147.2857
 20
-4.0415
  0
VERTEX
  8
LAYER_7
 10
147.2385
 20
-4.11
  0
VERTEX
  8
LAYER_7
 10
147.1679
 20
-4.1565
  0
VERTEX
  8
LAYER_7
 10
147.0791
 20
-4.1785
  0
VERTEX
  8
LAYER_7
 10
147.335
 20
-4.5957
  0
VERTEX
  8
LAYER_7
 10
147.2262
 20
-4.5957
  0
VERTEX
  8
LAYER_7
 10
146.9836
 20
-4.1861
  0
VERTEX
  8
LAYER_7
 10
146.8351
 20
-4.1861
  0
SEQEND
  0
POLYLINE
  8
LAYER_7
 40
0.05
 41
0.05
 66
1
 10
0
 20
0
 30
0
 70
1
  0
VERTEX
  8
LAYER_7
 10
146.8351
 20
-4.1093
  0
VERTEX
  8
LAYER_7
 10
146.9898
 20
-4.1093
 42
0.1697533841
  0
VERTEX
  8
LAYER_7
 10
147.1559
 20
-4.0707
 42
0.2467482694
  0
VERTEX
  8
LAYER_7
 10
147.2137
 20
-3.9536
  0
VERTEX
  8
LAYER_7
 10
147.1979
 20
-3.8809
  0
VERTEX
  8
LAYER_7
 10
147.1531
 20
-3.8323
  0
VERTEX
  8
LAYER_7
 10
147.0839
 20
-3.8051
  0
VERTEX
  8
LAYER_7
 10
146.9936
 20
-3.7965
  0
VERTEX
  8
LAYER_7
 10
146.8351
 20
-3.7965
  0
SEQEND
  0
ENDBLK
  0
BLOCK
  8
LAYER_7
  2
AIGNBL07030020
 70
64
 10
0
 20
0
 30
0
  3
AIGNBL07030020
  0
POLYLINE
  8
LAYER_7
 40
0.05
 41
0.05
 66
1
 10
0
 20
0
 30
0
 70
1
  0
VERTEX
  8
LAYER_7
 10
147.7467
 20
-4.5957
  0
VERTEX
  8
LAYER_7
 10
147.6582
 20
-4.5957
  0
VERTEX
  8
LAYER_7
 10
147.6582
 20
-3.72
  0
VERTEX
  8
LAYER_7
 10
147.7467
 20
-3.72
  0
SEQEND
  0
ENDBLK
  0
BLOCK
  8
LAYER_7
  2
AIGNBL07030021
 70
64
 10
0
 20
0
 30
0
  3
AIGNBL07030021
  0
POLYLINE
  8
LAYER_7
 40
0.05
 41
0.05
 66
1
 10
0
 20
0
 30
0
 70
1
  0
VERTEX
  8
LAYER_7
 10
148.239
 20
-4.5162
  0
VERTEX
  8
LAYER_7
 10
148.7079
 20
-4.5162
  0
VERTEX
  8
LAYER_7
 10
148.7079
 20
-4.5957
  0
VERTEX
  8
LAYER_7
 10
148.1501
 20
-4.5957
  0
VERTEX
  8
LAYER_7
 10
148.1501
 20
-3.72
  0
VERTEX
  8
LAYER_7
 10
148.6931
 20
-3.72
  0
VERTEX
  8
LAYER_7
 10
148.6931
 20
-3.7989
  0
VERTEX
  8
LAYER_7
 10
148.239
 20
-3.7989
  0
VERTEX
  8
LAYER_7
 10
148.239
 20
-4.0993
  0
VERTEX
  8
LAYER_7
 10
148.6634
 20
-4.0993
  0
VERTEX
  8
LAYER_7
 10
148.6634
 20
-4.1785
  0
VERTEX
  8
LAYER_7
 10
148.239
 20
-4.1785
  0
SEQEND
  0
ENDBLK
  0
BLOCK
  8
LAYER_7
  2
AIGNBL07030022
 70
64
 10
0
 20
0
 30
0
  3
AIGNBL07030022
  0
POLYLINE
  8
LAYER_7
 40
0.05
 41
0.05
 66
1
 10
0
 20
0
 30
0
 70
1
  0
VERTEX
  8
LAYER_7
 10
149.6739
 20
-4.4655
  0
VERTEX
  8
LAYER_7
 10
149.6763
 20
-4.4655
  0
VERTEX
  8
LAYER_7
 10
149.6763
 20
-3.72
  0
VERTEX
  8
LAYER_7
 10
149.7655
 20
-3.72
  0
VERTEX
  8
LAYER_7
 10
149.7655
 20
-4.5957
  0
VERTEX
  8
LAYER_7
 10
149.6543
 20
-4.5957
  0
VERTEX
  8
LAYER_7
 10
149.1447
 20
-3.8423
  0
VERTEX
  8
LAYER_7
 10
149.142
 20
-3.8423
  0
VERTEX
  8
LAYER_7
 10
149.142
 20
-4.5957
  0
VERTEX
  8
LAYER_7
 10
149.0531
 20
-4.5957
  0
VERTEX
  8
LAYER_7
 10
149.0531
 20
-3.72
  0
VERTEX
  8
LAYER_7
 10
149.1644
 20
-3.72
  0
SEQEND
  0
ENDBLK
  0
BLOCK
  8
LAYER_7
  2
AIGNBL07030023
 70
64
 10
0
 20
0
 30
0
  3
AIGNBL07030023
  0
POLYLINE
  8
LAYER_7
 40
0.05
 41
0.05
 66
1
 10
0
 20
0
 30
0
 70
1
  0
VERTEX
  8
LAYER_7
 10
150.9062
 20
-4.4535
  0
VERTEX
  8
LAYER_7
 10
150.8521
 20
-4.5165
  0
VERTEX
  8
LAYER_7
 10
150.7791
 20
-4.5689
  0
VERTEX
  8
LAYER_7
 10
150.6874
 20
-4.6047
  0
VERTEX
  8
LAYER_7
 10
150.5782
 20
-4.6178
  0
VERTEX
  8
LAYER_7
 10
150.3949
 20
-4.583
  0
VERTEX
  8
LAYER_7
 10
150.2506
 20
-4.4872
  0
VERTEX
  8
LAYER_7
 10
150.1559
 20
-4.3418
  0
VERTEX
  8
LAYER_7
 10
150.1218
 20
-4.1576
  0
VERTEX
  8
LAYER_7
 10
150.1565
 20
-3.9732
  0
VERTEX
  8
LAYER_7
 10
150.252
 20
-3.8279
  0
VERTEX
  8
LAYER_7
 10
150.3967
 20
-3.7321
  0
VERTEX
  8
LAYER_7
 10
150.5782
 20
-3.6973
  0
VERTEX
  8
LAYER_7
 10
150.6726
 20
-3.7076
  0
VERTEX
  8
LAYER_7
 10
150.7601
 20
-3.7358
  0
VERTEX
  8
LAYER_7
 10
150.8342
 20
-3.7796
  0
VERTEX
  8
LAYER_7
 10
150.89
 20
-3.8372
  0
VERTEX
  8
LAYER_7
 10
150.816
 20
-3.8919
  0
VERTEX
  8
LAYER_7
 10
150.7791
 20
-3.8495
  0
VERTEX
  8
LAYER_7
 10
150.7253
 20
-3.8123
  0
VERTEX
  8
LAYER_7
 10
150.6578
 20
-3.7865
  0
VERTEX
  8
LAYER_7
 10
150.5793
 20
-3.7765
  0
VERTEX
  8
LAYER_7
 10
150.4267
 20
-3.8075
  0
VERTEX
  8
LAYER_7
 10
150.3123
 20
-3.8905
  0
VERTEX
  8
LAYER_7
 10
150.2403
 20
-4.0121
  0
VERTEX
  8
LAYER_7
 10
150.2158
 20
-4.1576
  0
VERTEX
  8
LAYER_7
 10
150.2413
 20
-4.3029
  0
VERTEX
  8
LAYER_7
 10
150.3136
 20
-4.4245
  0
VERTEX
  8
LAYER_7
 10
150.428
 20
-4.5075
  0
VERTEX
  8
LAYER_7
 10
150.5793
 20
-4.5386
  0
VERTEX
  8
LAYER_7
 10
150.7226
 20
-4.5075
 42
0.1302205371
  0
VERTEX
  8
LAYER_7
 10
150.8366
 20
-4.4087
  0
SEQEND
  0
ENDBLK
  0
BLOCK
  8
LAYER_7
  2
AIGNBL07030024
 70
64
 10
0
 20
0
 30
0
  3
AIGNBL07030024
  0
POLYLINE
  8
LAYER_7
 40
0.05
 41
0.05
 66
1
 10
0
 20
0
 30
0
 70
1
  0
VERTEX
  8
LAYER_7
 10
151.3189
 20
-4.5162
  0
VERTEX
  8
LAYER_7
 10
151.7878
 20
-4.5162
  0
VERTEX
  8
LAYER_7
 10
151.7878
 20
-4.5957
  0
VERTEX
  8
LAYER_7
 10
151.23
 20
-4.5957
  0
VERTEX
  8
LAYER_7
 10
151.23
 20
-3.72
  0
VERTEX
  8
LAYER_7
 10
151.773
 20
-3.72
  0
VERTEX
  8
LAYER_7
 10
151.773
 20
-3.7989
  0
VERTEX
  8
LAYER_7
 10
151.3189
 20
-3.7989
  0
VERTEX
  8
LAYER_7
 10
151.3189
 20
-4.0993
  0
VERTEX
  8
LAYER_7
 10
151.7434
 20
-4.0993
  0
VERTEX
  8
LAYER_7
 10
151.7434
 20
-4.1785
  0
VERTEX
  8
LAYER_7
 10
151.3189
 20
-4.1785
  0
SEQEND
  0
ENDBLK
  0
BLOCK
  8
LAYER_2
  2
AIGNBL02020003
 70
64
 10
0
 20
0
 30
0
  3
AIGNBL02020003
  0
POLYLINE
  8
LAYER_2
  6
AIGENLINE001
 40
0.2469
 41
0.2469
 66
1
 10
0
 20
0
 30
0
 70
128
  0
VERTEX
  8
LAYER_2
 10
132.2868
 20
171.9066
  0
VERTEX
  8
LAYER_2
 10
132.2868
 20
65.4065
  0
SEQEND
  0
ENDBLK
  0
BLOCK
  8
LAYER_2
  2
AIGNBL02020004
 70
64
 10
0
 20
0
 30
0
  3
AIGNBL02020004
  0
POLYLINE
  8
LAYER_2
 40
0.2469
 41
0.2469
 66
1
 10
0
 20
0
 30
0
  0
VERTEX
  8
LAYER_2
 10
134.862
 20
167.1297
  0
VERTEX
  8
LAYER_2
 10
134.862
 20
74.9067
  0
SEQEND
  0
ENDBLK
  0
BLOCK
  8
LAYER_2
  2
AIGNBL02020005
 70
64
 10
0
 20
0
 30
0
  3
AIGNBL02020005
  0
POLYLINE
  8
LAYER_2
 40
0.2469
 41
0.2469
 66
1
 10
0
 20
0
 30
0
  0
VERTEX
  8
LAYER_2
 10
134.8483
 20
167.6568
  0
VERTEX
  8
LAYER_2
 10
134.862
 20
167.1297
  0
SEQEND
  0
ENDBLK
  0
BLOCK
  8
LAYER_2
  2
AIGNBL02020006
 70
64
 10
0
 20
0
 30
0
  3
AIGNBL02020006
  0
POLYLINE
  8
LAYER_2
 40
0.2469
 41
0.2469
 66
1
 10
0
 20
0
 30
0
  0
VERTEX
  8
LAYER_2
 10
134.862
 20
167.1297
  0
VERTEX
  8
LAYER_2
 10
134.5578
 20
167.6568
  0
SEQEND
  0
ENDBLK
  0
BLOCK
  8
LAYER_2
  2
AIGNBL02020007
 70
64
 10
0
 20
0
 30
0
  3
AIGNBL02020007
  0
POLYLINE
  8
LAYER_2
 40
0.2469
 41
0.2469
 66
1
 10
0
 20
0
 30
0
  0
VERTEX
  8
LAYER_2
 10
134.5578
 20
69.6564
  0
VERTEX
  8
LAYER_2
 10
134.862
 20
70.1835
  0
SEQEND
  0
ENDBLK
  0
BLOCK
  8
LAYER_2
  2
AIGNBL02020008
 70
64
 10
0
 20
0
 30
0
  3
AIGNBL02020008
  0
POLYLINE
  8
LAYER_2
 40
0.2469
 41
0.2469
 66
1
 10
0
 20
0
 30
0
  0
VERTEX
  8
LAYER_2
 10
134.5578
 20
69.6564
  0
VERTEX
  8
LAYER_2
 10
134.4731
 20
66.1569
  0
SEQEND
  0
ENDBLK
  0
BLOCK
  8
LAYER_2
  2
AIGNBL02020009
 70
64
 10
0
 20
0
 30
0
  3
AIGNBL02020009
  0
POLYLINE
  8
LAYER_2
 40
0.2469
 41
0.2469
 66
1
 10
0
 20
0
 30
0
  0
VERTEX
  8
LAYER_2
 10
134.862
 20
70.1835
  0
VERTEX
  8
LAYER_2
 10
134.8483
 20
69.6564
  0
SEQEND
  0
ENDBLK
  0
BLOCK
  8
LAYER_2
  2
AIGNBL0202000A
 70
64
 10
0
 20
0
 30
0
  3
AIGNBL0202000A
  0
POLYLINE
  8
LAYER_2
 40
0.2469
 41
0.2469
 66
1
 10
0
 20
0
 30
0
  0
VERTEX
  8
LAYER_2
 10
134.7797
 20
66.4469
  0
VERTEX
  8
LAYER_2
 10
134.4731
 20
66.1569
  0
SEQEND
  0
ENDBLK
  0
BLOCK
  8
LAYER_2
  2
AIGNBL0202000B
 70
64
 10
0
 20
0
 30
0
  3
AIGNBL0202000B
  0
POLYLINE
  8
LAYER_2
 40
0.2469
 41
0.2469
 66
1
 10
0
 20
0
 30
0
  0
VERTEX
  8
LAYER_2
 10
129.7258
 20
69.6564
  0
VERTEX
  8
LAYER_2
 10
134.8483
 20
69.6564
  0
SEQEND
  0
ENDBLK
  0
BLOCK
  8
LAYER_2
  2
AIGNBL0202000C
 70
64
 10
0
 20
0
 30
0
  3
AIGNBL0202000C
  0
POLYLINE
  8
LAYER_2
 40
0.2469
 41
0.2469
 66
1
 10
0
 20
0
 30
0
  0
VERTEX
  8
LAYER_2
 10
134.8483
 20
69.6564
  0
VERTEX
  8
LAYER_2
 10
134.7797
 20
66.4469
  0
SEQEND
  0
ENDBLK
  0
BLOCK
  8
LAYER_2
  2
AIGNBL0202000D
 70
64
 10
0
 20
0
 30
0
  3
AIGNBL0202000D
  0
POLYLINE
  8
LAYER_2
 40
0.2469
 41
0.2469
 66
1
 10
0
 20
0
 30
0
  0
VERTEX
  8
LAYER_2
 10
134.4731
 20
66.1569
  0
SEQEND
  0
ENDBLK
  0
BLOCK
  8
LAYER_2
  2
AIGNBL0202000E
 70
64
 10
0
 20
0
 30
0
  3
AIGNBL0202000E
  0
POLYLINE
  8
LAYER_2
 40
0.2469
 41
0.2469
 66
1
 10
0
 20
0
 30
0
  0
VERTEX
  8
LAYER_2
 10
129.712
 20
70.1835
  0
VERTEX
  8
LAYER_2
 10
129.712
 20
71.1564
  0
SEQEND
  0
ENDBLK
  0
BLOCK
  8
LAYER_2
  2
AIGNBL0202000F
 70
64
 10
0
 20
0
 30
0
  3
AIGNBL0202000F
  0
POLYLINE
  8
LAYER_2
 40
0.2469
 41
0.2469
 66
1
 10
0
 20
0
 30
0
  0
VERTEX
  8
LAYER_2
 10
130.1009
 20
66.1569
  0
VERTEX
  8
LAYER_2
 10
130.1013
 20
66.1569
  0
SEQEND
  0
ENDBLK
  0
BLOCK
  8
LAYER_2
  2
AIGNBL02020010
 70
64
 10
0
 20
0
 30
0
  3
AIGNBL02020010
  0
POLYLINE
  8
LAYER_2
 40
0.2469
 41
0.2469
 66
1
 10
0
 20
0
 30
0
  0
VERTEX
  8
LAYER_2
 10
130.1013
 20
66.1569
  0
VERTEX
  8
LAYER_2
 10
134.4731
 20
66.1569
  0
SEQEND
  0
ENDBLK
  0
BLOCK
  8
LAYER_2
  2
AIGNBL02020011
 70
64
 10
0
 20
0
 30
0
  3
AIGNBL02020011
  0
POLYLINE
  8
LAYER_2
 40
0.2469
 41
0.2469
 66
1
 10
0
 20
0
 30
0
  0
VERTEX
  8
LAYER_2
 10
129.7947
 20
66.4469
  0
VERTEX
  8
LAYER_2
 10
129.7258
 20
69.6564
  0
SEQEND
  0
ENDBLK
  0
BLOCK
  8
LAYER_2
  2
AIGNBL02020012
 70
64
 10
0
 20
0
 30
0
  3
AIGNBL02020012
  0
POLYLINE
  8
LAYER_2
 40
0.2469
 41
0.2469
 66
1
 10
0
 20
0
 30
0
  0
VERTEX
  8
LAYER_2
 10
130.1009
 20
66.1569
  0
VERTEX
  8
LAYER_2
 10
129.7947
 20
66.4469
  0
SEQEND
  0
ENDBLK
  0
BLOCK
  8
LAYER_2
  2
AIGNBL02020013
 70
64
 10
0
 20
0
 30
0
  3
AIGNBL02020013
  0
POLYLINE
  8
LAYER_2
 40
0.2469
 41
0.2469
 66
1
 10
0
 20
0
 30
0
  0
VERTEX
  8
LAYER_2
 10
129.7258
 20
69.6564
  0
VERTEX
  8
LAYER_2
 10
129.712
 20
70.1835
  0
SEQEND
  0
ENDBLK
  0
BLOCK
  8
LAYER_2
  2
AIGNBL02020014
 70
64
 10
0
 20
0
 30
0
  3
AIGNBL02020014
  0
POLYLINE
  8
LAYER_2
 40
0.2469
 41
0.2469
 66
1
 10
0
 20
0
 30
0
  0
VERTEX
  8
LAYER_2
 10
130.1013
 20
66.1569
  0
VERTEX
  8
LAYER_2
 10
130.0165
 20
69.6564
  0
SEQEND
  0
ENDBLK
  0
BLOCK
  8
LAYER_2
  2
AIGNBL02020015
 70
64
 10
0
 20
0
 30
0
  3
AIGNBL02020015
  0
POLYLINE
  8
LAYER_2
 40
0.2469
 41
0.2469
 66
1
 10
0
 20
0
 30
0
  0
VERTEX
  8
LAYER_2
 10
129.712
 20
70.1835
  0
VERTEX
  8
LAYER_2
 10
130.0165
 20
69.6564
  0
SEQEND
  0
ENDBLK
  0
BLOCK
  8
LAYER_2
  2
AIGNBL02020016
 70
64
 10
0
 20
0
 30
0
  3
AIGNBL02020016
  0
POLYLINE
  8
LAYER_2
 40
0.2469
 41
0.2469
 66
1
 10
0
 20
0
 30
0
  0
VERTEX
  8
LAYER_2
 10
130.0165
 20
167.6568
  0
VERTEX
  8
LAYER_2
 10
129.712
 20
167.1297
  0
SEQEND
  0
ENDBLK
  0
BLOCK
  8
LAYER_2
  2
AIGNBL02020017
 70
64
 10
0
 20
0
 30
0
  3
AIGNBL02020017
  0
POLYLINE
  8
LAYER_2
 40
0.2469
 41
0.2469
 66
1
 10
0
 20
0
 30
0
  0
VERTEX
  8
LAYER_2
 10
129.712
 20
167.1297
  0
VERTEX
  8
LAYER_2
 10
129.7258
 20
167.6568
  0
SEQEND
  0
ENDBLK
  0
BLOCK
  8
LAYER_2
  2
AIGNBL02020018
 70
64
 10
0
 20
0
 30
0
  3
AIGNBL02020018
  0
POLYLINE
  8
LAYER_2
 40
0.2469
 41
0.2469
 66
1
 10
0
 20
0
 30
0
  0
VERTEX
  8
LAYER_2
 10
134.8483
 20
167.6568
  0
VERTEX
  8
LAYER_2
 10
129.7258
 20
167.6568
  0
SEQEND
  0
ENDBLK
  0
BLOCK
  8
LAYER_2
  2
AIGNBL02020019
 70
64
 10
0
 20
0
 30
0
  3
AIGNBL02020019
  0
POLYLINE
  8
LAYER_2
 40
0.2469
 41
0.2469
 66
1
 10
0
 20
0
 30
0
  0
VERTEX
  8
LAYER_2
 10
129.712
 20
74.9067
  0
VERTEX
  8
LAYER_2
 10
129.712
 20
167.1297
  0
SEQEND
  0
ENDBLK
  0
BLOCK
  8
LAYER_2
  2
AIGNBL0202001A
 70
64
 10
0
 20
0
 30
0
  3
AIGNBL0202001A
  0
POLYLINE
  8
LAYER_2
 40
0.2469
 41
0.2469
 66
1
 10
0
 20
0
 30
0
  0
VERTEX
  8
LAYER_2
 10
129.7947
 20
66.4469
  0
VERTEX
  8
LAYER_2
 10
134.7797
 20
66.4469
  0
SEQEND
  0
ENDBLK
  0
BLOCK
  8
LAYER_2
  2
AIGNBL0202001B
 70
64
 10
0
 20
0
 30
0
  3
AIGNBL0202001B
  0
POLYLINE
  8
LAYER_2
 40
0.2469
 41
0.2469
 66
1
 10
0
 20
0
 30
0
  0
VERTEX
  8
LAYER_2
 10
134.862
 20
71.1564
  0
VERTEX
  8
LAYER_2
 10
134.862
 20
70.1835
  0
SEQEND
  0
ENDBLK
  0
BLOCK
  8
LAYER_2
  2
AIGNBL0202001C
 70
64
 10
0
 20
0
 30
0
  3
AIGNBL0202001C
  0
POLYLINE
  8
LAYER_2
 40
0.2469
 41
0.2469
 66
1
 10
0
 20
0
 30
0
  0
VERTEX
  8
LAYER_2
 10
97.357
 20
71.1564
  0
VERTEX
  8
LAYER_2
 10
97.357
 20
70.1835
  0
SEQEND
  0
ENDBLK
  0
BLOCK
  8
LAYER_2
  2
AIGNBL0202001D
 70
64
 10
0
 20
0
 30
0
  3
AIGNBL0202001D
  0
POLYLINE
  8
LAYER_2
 40
0.2469
 41
0.2469
 66
1
 10
0
 20
0
 30
0
  0
VERTEX
  8
LAYER_2
 10
92.2896
 20
66.4469
  0
VERTEX
  8
LAYER_2
 10
97.2743
 20
66.4469
  0
SEQEND
  0
ENDBLK
  0
BLOCK
  8
LAYER_2
  2
AIGNBL0202001E
 70
64
 10
0
 20
0
 30
0
  3
AIGNBL0202001E
  0
POLYLINE
  8
LAYER_2
 40
0.2469
 41
0.2469
 66
1
 10
0
 20
0
 30
0
  0
VERTEX
  8
LAYER_2
 10
92.2069
 20
74.9067
  0
VERTEX
  8
LAYER_2
 10
92.2069
 20
167.1297
  0
SEQEND
  0
ENDBLK
  0
BLOCK
  8
LAYER_2
  2
AIGNBL0202001F
 70
64
 10
0
 20
0
 30
0
  3
AIGNBL0202001F
  0
POLYLINE
  8
LAYER_2
 40
0.2469
 41
0.2469
 66
1
 10
0
 20
0
 30
0
  0
VERTEX
  8
LAYER_2
 10
97.3432
 20
167.6568
  0
VERTEX
  8
LAYER_2
 10
92.2207
 20
167.6568
  0
SEQEND
  0
ENDBLK
  0
BLOCK
  8
LAYER_2
  2
AIGNBL02020020
 70
64
 10
0
 20
0
 30
0
  3
AIGNBL02020020
  0
POLYLINE
  8
LAYER_2
 40
0.2469
 41
0.2469
 66
1
 10
0
 20
0
 30
0
  0
VERTEX
  8
LAYER_2
 10
92.2069
 20
167.1297
  0
VERTEX
  8
LAYER_2
 10
92.2207
 20
167.6568
  0
SEQEND
  0
ENDBLK
  0
BLOCK
  8
LAYER_2
  2
AIGNBL02020021
 70
64
 10
0
 20
0
 30
0
  3
AIGNBL02020021
  0
POLYLINE
  8
LAYER_2
 40
0.2469
 41
0.2469
 66
1
 10
0
 20
0
 30
0
  0
VERTEX
  8
LAYER_2
 10
92.5113
 20
167.6568
  0
VERTEX
  8
LAYER_2
 10
92.2069
 20
167.1297
  0
SEQEND
  0
ENDBLK
  0
BLOCK
  8
LAYER_2
  2
AIGNBL02020022
 70
64
 10
0
 20
0
 30
0
  3
AIGNBL02020022
  0
POLYLINE
  8
LAYER_2
 40
0.2469
 41
0.2469
 66
1
 10
0
 20
0
 30
0
  0
VERTEX
  8
LAYER_2
 10
92.2069
 20
70.1835
  0
VERTEX
  8
LAYER_2
 10
92.5113
 20
69.6564
  0
SEQEND
  0
ENDBLK
  0
BLOCK
  8
LAYER_2
  2
AIGNBL02020023
 70
64
 10
0
 20
0
 30
0
  3
AIGNBL02020023
  0
POLYLINE
  8
LAYER_2
 40
0.2469
 41
0.2469
 66
1
 10
0
 20
0
 30
0
  0
VERTEX
  8
LAYER_2
 10
92.5962
 20
66.1569
  0
VERTEX
  8
LAYER_2
 10
92.5113
 20
69.6564
  0
SEQEND
  0
ENDBLK
  0
BLOCK
  8
LAYER_2
  2
AIGNBL02020024
 70
64
 10
0
 20
0
 30
0
  3
AIGNBL02020024
  0
POLYLINE
  8
LAYER_2
 40
0.2469
 41
0.2469
 66
1
 10
0
 20
0
 30
0
  0
VERTEX
  8
LAYER_2
 10
92.2207
 20
69.6564
  0
VERTEX
  8
LAYER_2
 10
92.2069
 20
70.1835
  0
SEQEND
  0
ENDBLK
  0
BLOCK
  8
LAYER_2
  2
AIGNBL02020025
 70
64
 10
0
 20
0
 30
0
  3
AIGNBL02020025
  0
POLYLINE
  8
LAYER_2
 40
0.2469
 41
0.2469
 66
1
 10
0
 20
0
 30
0
  0
VERTEX
  8
LAYER_2
 10
92.5957
 20
66.1569
  0
VERTEX
  8
LAYER_2
 10
92.2896
 20
66.4469
  0
SEQEND
  0
ENDBLK
  0
BLOCK
  8
LAYER_2
  2
AIGNBL02020026
 70
64
 10
0
 20
0
 30
0
  3
AIGNBL02020026
  0
POLYLINE
  8
LAYER_2
 40
0.2469
 41
0.2469
 66
1
 10
0
 20
0
 30
0
  0
VERTEX
  8
LAYER_2
 10
92.2896
 20
66.4469
  0
VERTEX
  8
LAYER_2
 10
92.2207
 20
69.6564
  0
SEQEND
  0
ENDBLK
  0
BLOCK
  8
LAYER_2
  2
AIGNBL02020027
 70
64
 10
0
 20
0
 30
0
  3
AIGNBL02020027
  0
POLYLINE
  8
LAYER_2
 40
0.2469
 41
0.2469
 66
1
 10
0
 20
0
 30
0
  0
VERTEX
  8
LAYER_2
 10
92.5962
 20
66.1569
  0
VERTEX
  8
LAYER_2
 10
96.9677
 20
66.1569
  0
SEQEND
  0
ENDBLK
  0
BLOCK
  8
LAYER_2
  2
AIGNBL02020028
 70
64
 10
0
 20
0
 30
0
  3
AIGNBL02020028
  0
POLYLINE
  8
LAYER_2
 40
0.2469
 41
0.2469
 66
1
 10
0
 20
0
 30
0
  0
VERTEX
  8
LAYER_2
 10
92.5957
 20
66.1569
  0
VERTEX
  8
LAYER_2
 10
92.5962
 20
66.1569
  0
SEQEND
  0
ENDBLK
  0
BLOCK
  8
LAYER_2
  2
AIGNBL02020029
 70
64
 10
0
 20
0
 30
0
  3
AIGNBL02020029
  0
POLYLINE
  8
LAYER_2
 40
0.2469
 41
0.2469
 66
1
 10
0
 20
0
 30
0
  0
VERTEX
  8
LAYER_2
 10
92.2069
 20
70.1835
  0
VERTEX
  8
LAYER_2
 10
92.2069
 20
71.1564
  0
SEQEND
  0
ENDBLK
  0
BLOCK
  8
LAYER_2
  2
AIGNBL0202002A
 70
64
 10
0
 20
0
 30
0
  3
AIGNBL0202002A
  0
POLYLINE
  8
LAYER_2
 40
0.2469
 41
0.2469
 66
1
 10
0
 20
0
 30
0
  0
VERTEX
  8
LAYER_2
 10
96.9677
 20
66.1569
  0
VERTEX
  8
LAYER_2
 10
96.9682
 20
66.1569
  0
SEQEND
  0
ENDBLK
  0
BLOCK
  8
LAYER_2
  2
AIGNBL0202002B
 70
64
 10
0
 20
0
 30
0
  3
AIGNBL0202002B
  0
POLYLINE
  8
LAYER_2
 40
0.2469
 41
0.2469
 66
1
 10
0
 20
0
 30
0
  0
VERTEX
  8
LAYER_2
 10
97.3432
 20
69.6564
  0
VERTEX
  8
LAYER_2
 10
97.2743
 20
66.4469
  0
SEQEND
  0
ENDBLK
  0
BLOCK
  8
LAYER_2
  2
AIGNBL0202002C
 70
64
 10
0
 20
0
 30
0
  3
AIGNBL0202002C
  0
POLYLINE
  8
LAYER_2
 40
0.2469
 41
0.2469
 66
1
 10
0
 20
0
 30
0
  0
VERTEX
  8
LAYER_2
 10
92.2207
 20
69.6564
  0
VERTEX
  8
LAYER_2
 10
97.3432
 20
69.6564
  0
SEQEND
  0
ENDBLK
  0
BLOCK
  8
LAYER_2
  2
AIGNBL0202002D
 70
64
 10
0
 20
0
 30
0
  3
AIGNBL0202002D
  0
POLYLINE
  8
LAYER_2
 40
0.2469
 41
0.2469
 66
1
 10
0
 20
0
 30
0
  0
VERTEX
  8
LAYER_2
 10
97.2743
 20
66.4469
  0
VERTEX
  8
LAYER_2
 10
96.9682
 20
66.1569
  0
SEQEND
  0
ENDBLK
  0
BLOCK
  8
LAYER_2
  2
AIGNBL0202002E
 70
64
 10
0
 20
0
 30
0
  3
AIGNBL0202002E
  0
POLYLINE
  8
LAYER_2
 40
0.2469
 41
0.2469
 66
1
 10
0
 20
0
 30
0
  0
VERTEX
  8
LAYER_2
 10
97.357
 20
70.1835
  0
VERTEX
  8
LAYER_2
 10
97.3432
 20
69.6564
  0
SEQEND
  0
ENDBLK
  0
BLOCK
  8
LAYER_2
  2
AIGNBL0202002F
 70
64
 10
0
 20
0
 30
0
  3
AIGNBL0202002F
  0
POLYLINE
  8
LAYER_2
 40
0.2469
 41
0.2469
 66
1
 10
0
 20
0
 30
0
  0
VERTEX
  8
LAYER_2
 10
97.0527
 20
69.6564
  0
VERTEX
  8
LAYER_2
 10
96.9677
 20
66.1569
  0
SEQEND
  0
ENDBLK
  0
BLOCK
  8
LAYER_2
  2
AIGNBL02020030
 70
64
 10
0
 20
0
 30
0
  3
AIGNBL02020030
  0
POLYLINE
  8
LAYER_2
 40
0.2469
 41
0.2469
 66
1
 10
0
 20
0
 30
0
  0
VERTEX
  8
LAYER_2
 10
97.0527
 20
69.6564
  0
VERTEX
  8
LAYER_2
 10
97.357
 20
70.1835
  0
SEQEND
  0
ENDBLK
  0
BLOCK
  8
LAYER_2
  2
AIGNBL02020031
 70
64
 10
0
 20
0
 30
0
  3
AIGNBL02020031
  0
POLYLINE
  8
LAYER_2
 40
0.2469
 41
0.2469
 66
1
 10
0
 20
0
 30
0
  0
VERTEX
  8
LAYER_2
 10
97.357
 20
167.1297
  0
VERTEX
  8
LAYER_2
 10
97.0527
 20
167.6568
  0
SEQEND
  0
ENDBLK
  0
BLOCK
  8
LAYER_2
  2
AIGNBL02020032
 70
64
 10
0
 20
0
 30
0
  3
AIGNBL02020032
  0
POLYLINE
  8
LAYER_2
 40
0.2469
 41
0.2469
 66
1
 10
0
 20
0
 30
0
  0
VERTEX
  8
LAYER_2
 10
97.3432
 20
167.6568
  0
VERTEX
  8
LAYER_2
 10
97.357
 20
167.1297
  0
SEQEND
  0
ENDBLK
  0
BLOCK
  8
LAYER_2
  2
AIGNBL02020033
 70
64
 10
0
 20
0
 30
0
  3
AIGNBL02020033
  0
POLYLINE
  8
LAYER_2
 40
0.2469
 41
0.2469
 66
1
 10
0
 20
0
 30
0
  0
VERTEX
  8
LAYER_2
 10
97.357
 20
167.1297
  0
VERTEX
  8
LAYER_2
 10
97.357
 20
74.9067
  0
SEQEND
  0
ENDBLK
  0
BLOCK
  8
LAYER_2
  2
AIGNBL02020034
 70
64
 10
0
 20
0
 30
0
  3
AIGNBL02020034
  0
POLYLINE
  8
LAYER_2
  6
AIGENLINE001
 40
0.2469
 41
0.2469
 66
1
 10
0
 20
0
 30
0
 70
128
  0
VERTEX
  8
LAYER_2
 10
94.782
 20
171.9066
  0
VERTEX
  8
LAYER_2
 10
94.782
 20
65.4065
  0
SEQEND
  0
ENDBLK
  0
BLOCK
  8
LAYER_2
  2
AIGNBL02020036
 70
64
 10
0
 20
0
 30
0
  3
AIGNBL02020036
  0
POLYLINE
  8
LAYER_2
 40
0.2469
 41
0.2469
 66
1
 10
0
 20
0
 30
0
  0
VERTEX
  8
LAYER_2
 10
100.6571
 20
210.1327
  0
VERTEX
  8
LAYER_2
 10
100.907
 20
210.1327
  0
SEQEND
  0
ENDBLK
  0
BLOCK
  8
LAYER_2
  2
AIGNBL02020037
 70
64
 10
0
 20
0
 30
0
  3
AIGNBL02020037
  0
POLYLINE
  8
LAYER_2
 40
0.2469
 41
0.2469
 66
1
 10
0
 20
0
 30
0
  0
VERTEX
  8
LAYER_2
 10
100.907
 20
216.6326
  0
VERTEX
  8
LAYER_2
 10
100.907
 20
210.1327
  0
SEQEND
  0
ENDBLK
  0
BLOCK
  8
LAYER_2
  2
AIGNBL02020038
 70
64
 10
0
 20
0
 30
0
  3
AIGNBL02020038
  0
POLYLINE
  8
LAYER_2
 40
0.2469
 41
0.2469
 66
1
 10
0
 20
0
 30
0
  0
VERTEX
  8
LAYER_2
 10
100.6571
 20
216.6326
  0
VERTEX
  8
LAYER_2
 10
100.907
 20
216.6326
  0
SEQEND
  0
ENDBLK
  0
BLOCK
  8
LAYER_2
  2
AIGNBL02020039
 70
64
 10
0
 20
0
 30
0
  3
AIGNBL02020039
  0
POLYLINE
  8
LAYER_2
  6
AIGENLINE001
 40
0.2469
 41
0.2469
 66
1
 10
0
 20
0
 30
0
 70
128
  0
VERTEX
  8
LAYER_2
 10
94.782
 20
209.0077
  0
VERTEX
  8
LAYER_2
 10
94.782
 20
217.7578
  0
SEQEND
  0
ENDBLK
  0
BLOCK
  8
LAYER_2
  2
AIGNBL0202003A
 70
64
 10
0
 20
0
 30
0
  3
AIGNBL0202003A
  0
POLYLINE
  8
LAYER_2
 40
0.2469
 41
0.2469
 66
1
 10
0
 20
0
 30
0
  0
VERTEX
  8
LAYER_2
 10
94.782
 20
217.0078
  0
VERTEX
  8
LAYER_2
 10
100.6571
 20
217.0078
  0
SEQEND
  0
ENDBLK
  0
BLOCK
  8
LAYER_2
  2
AIGNBL0202003B
 70
64
 10
0
 20
0
 30
0
  3
AIGNBL0202003B
  0
POLYLINE
  8
LAYER_2
 40
0.2469
 41
0.2469
 66
1
 10
0
 20
0
 30
0
  0
VERTEX
  8
LAYER_2
 10
94.782
 20
209.7577
  0
VERTEX
  8
LAYER_2
 10
100.6571
 20
209.7577
  0
SEQEND
  0
ENDBLK
  0
BLOCK
  8
LAYER_2
  2
AIGNBL0202003C
 70
64
 10
0
 20
0
 30
0
  3
AIGNBL0202003C
  0
POLYLINE
  8
LAYER_2
 40
0.2469
 41
0.2469
 66
1
 10
0
 20
0
 30
0
  0
VERTEX
  8
LAYER_2
 10
100.6571
 20
217.0078
  0
VERTEX
  8
LAYER_2
 10
100.6571
 20
209.7577
  0
SEQEND
  0
ENDBLK
  0
BLOCK
  8
LAYER_2
  2
AIGNBL0202003D
 70
64
 10
0
 20
0
 30
0
  3
AIGNBL0202003D
  0
POLYLINE
  8
LAYER_2
 40
0.2469
 41
0.2469
 66
1
 10
0
 20
0
 30
0
  0
VERTEX
  8
LAYER_2
 10
129.2717
 20
167.9093
  0
VERTEX
  8
LAYER_2
 10
129.2717
 20
170.1569
  0
SEQEND
  0
ENDBLK
  0
BLOCK
  8
LAYER_2
  2
AIGNBL0202003E
 70
64
 10
0
 20
0
 30
0
  3
AIGNBL0202003E
  0
POLYLINE
  8
LAYER_2
 40
0.2469
 41
0.2469
 66
1
 10
0
 20
0
 30
0
  0
VERTEX
  8
LAYER_2
 10
132.7716
 20
170.1569
  0
VERTEX
  8
LAYER_2
 10
135.0526
 20
170.1569
  0
SEQEND
  0
ENDBLK
  0
BLOCK
  8
LAYER_2
  2
AIGNBL0202003F
 70
64
 10
0
 20
0
 30
0
  3
AIGNBL0202003F
  0
POLYLINE
  8
LAYER_2
 40
0.2469
 41
0.2469
 66
1
 10
0
 20
0
 30
0
  0
VERTEX
  8
LAYER_2
 10
131.8025
 20
170.1569
  0
VERTEX
  8
LAYER_2
 10
129.5218
 20
170.1569
  0
SEQEND
  0
ENDBLK
  0
BLOCK
  8
LAYER_2
  2
AIGNBL02020040
 70
64
 10
0
 20
0
 30
0
  3
AIGNBL02020040
  0
POLYLINE
  8
LAYER_2
 40
0.2469
 41
0.2469
 66
1
 10
0
 20
0
 30
0
  0
VERTEX
  8
LAYER_2
 10
91.2895
 20
170.1569
  0
VERTEX
  8
LAYER_2
 10
92.6452
 20
170.1569
  0
SEQEND
  0
ENDBLK
  0
BLOCK
  8
LAYER_2
  2
AIGNBL02020041
 70
64
 10
0
 20
0
 30
0
  3
AIGNBL02020041
  0
POLYLINE
  8
LAYER_2
 40
0.2469
 41
0.2469
 66
1
 10
0
 20
0
 30
0
  0
VERTEX
  8
LAYER_2
 10
98.2744
 20
170.1569
  0
VERTEX
  8
LAYER_2
 10
96.9188
 20
170.1569
  0
SEQEND
  0
ENDBLK
  0
BLOCK
  8
LAYER_2
  2
AIGNBL02020042
 70
64
 10
0
 20
0
 30
0
  3
AIGNBL02020042
  0
POLYLINE
  8
LAYER_2
 40
0.2469
 41
0.2469
 66
1
 10
0
 20
0
 30
0
  0
VERTEX
  8
LAYER_2
 10
93.4263
 20
170.1569
  0
VERTEX
  8
LAYER_2
 10
96.1376
 20
170.1569
  0
SEQEND
  0
ENDBLK
  0
BLOCK
  8
LAYER_2
  2
AIGNBL02020043
 70
64
 10
0
 20
0
 30
0
  3
AIGNBL02020043
  0
POLYLINE
  8
LAYER_2
 40
0.2469
 41
0.2469
 66
1
 10
0
 20
0
 30
0
  0
VERTEX
  8
LAYER_2
 10
91.1569
 20
170.8063
  0
VERTEX
  8
LAYER_2
 10
91.1646
 20
170.8063
  0
SEQEND
  0
ENDBLK
  0
BLOCK
  8
LAYER_2
  2
AIGNBL02020044
 70
64
 10
0
 20
0
 30
0
  3
AIGNBL02020044
  0
POLYLINE
  8
LAYER_2
 40
0.2469
 41
0.2469
 66
1
 10
0
 20
0
 30
0
  0
VERTEX
  8
LAYER_2
 10
91.1569
 20
170.8063
  0
VERTEX
  8
LAYER_2
 10
91.1569
 20
170.1569
  0
SEQEND
  0
ENDBLK
  0
BLOCK
  8
LAYER_2
  2
AIGNBL02020045
 70
64
 10
0
 20
0
 30
0
  3
AIGNBL02020045
  0
POLYLINE
  8
LAYER_2
 40
0.2469
 41
0.2469
 66
1
 10
0
 20
0
 30
0
  0
VERTEX
  8
LAYER_2
 10
91.1569
 20
170.1569
  0
VERTEX
  8
LAYER_2
 10
91.1646
 20
170.1569
  0
SEQEND
  0
ENDBLK
  0
BLOCK
  8
LAYER_2
  2
AIGNBL02020046
 70
64
 10
0
 20
0
 30
0
  3
AIGNBL02020046
  0
POLYLINE
  8
LAYER_2
 40
0.2469
 41
0.2469
 66
1
 10
0
 20
0
 30
0
  0
VERTEX
  8
LAYER_2
 10
91.1569
 20
167.9093
  0
VERTEX
  8
LAYER_2
 10
91.1646
 20
167.9093
  0
SEQEND
  0
ENDBLK
  0
BLOCK
  8
LAYER_2
  2
AIGNBL02020047
 70
64
 10
0
 20
0
 30
0
  3
AIGNBL02020047
  0
POLYLINE
  8
LAYER_2
 40
0.2469
 41
0.2469
 66
1
 10
0
 20
0
 30
0
  0
VERTEX
  8
LAYER_2
 10
98.4071
 20
167.9093
  0
VERTEX
  8
LAYER_2
 10
98.3993
 20
167.9093
  0
SEQEND
  0
ENDBLK
  0
BLOCK
  8
LAYER_2
  2
AIGNBL02020048
 70
64
 10
0
 20
0
 30
0
  3
AIGNBL02020048
  0
POLYLINE
  8
LAYER_2
 40
0.2469
 41
0.2469
 66
1
 10
0
 20
0
 30
0
  0
VERTEX
  8
LAYER_2
 10
98.4071
 20
170.8063
  0
VERTEX
  8
LAYER_2
 10
98.4071
 20
170.1569
  0
SEQEND
  0
ENDBLK
  0
BLOCK
  8
LAYER_2
  2
AIGNBL02020049
 70
64
 10
0
 20
0
 30
0
  3
AIGNBL02020049
  0
POLYLINE
  8
LAYER_2
 40
0.2469
 41
0.2469
 66
1
 10
0
 20
0
 30
0
  0
VERTEX
  8
LAYER_2
 10
98.3993
 20
167.9093
  0
VERTEX
  8
LAYER_2
 10
98.3993
 20
170.1569
  0
SEQEND
  0
ENDBLK
  0
BLOCK
  8
LAYER_2
  2
AIGNBL0202004A
 70
64
 10
0
 20
0
 30
0
  3
AIGNBL0202004A
  0
POLYLINE
  8
LAYER_2
 40
0.2469
 41
0.2469
 66
1
 10
0
 20
0
 30
0
  0
VERTEX
  8
LAYER_2
 10
98.4071
 20
170.1569
  0
VERTEX
  8
LAYER_2
 10
98.3993
 20
170.1569
  0
SEQEND
  0
ENDBLK
  0
BLOCK
  8
LAYER_2
  2
AIGNBL0202004B
 70
64
 10
0
 20
0
 30
0
  3
AIGNBL0202004B
  0
POLYLINE
  8
LAYER_2
 40
0.2469
 41
0.2469
 66
1
 10
0
 20
0
 30
0
  0
VERTEX
  8
LAYER_2
 10
98.4071
 20
173.0318
  0
VERTEX
  8
LAYER_2
 10
98.4071
 20
170.8063
  0
SEQEND
  0
ENDBLK
  0
BLOCK
  8
LAYER_2
  2
AIGNBL0202004C
 70
64
 10
0
 20
0
 30
0
  3
AIGNBL0202004C
  0
POLYLINE
  8
LAYER_2
 40
0.2469
 41
0.2469
 66
1
 10
0
 20
0
 30
0
  0
VERTEX
  8
LAYER_2
 10
98.4071
 20
170.8063
  0
VERTEX
  8
LAYER_2
 10
98.3993
 20
170.8063
  0
SEQEND
  0
ENDBLK
  0
BLOCK
  8
LAYER_2
  2
AIGNBL0202004D
 70
64
 10
0
 20
0
 30
0
  3
AIGNBL0202004D
  0
POLYLINE
  8
LAYER_2
 40
0.2469
 41
0.2469
 66
1
 10
0
 20
0
 30
0
  0
VERTEX
  8
LAYER_2
 10
92.7702
 20
167.9093
  0
VERTEX
  8
LAYER_2
 10
93.1764
 20
167.9093
  0
SEQEND
  0
ENDBLK
  0
BLOCK
  8
LAYER_2
  2
AIGNBL0202004E
 70
64
 10
0
 20
0
 30
0
  3
AIGNBL0202004E
  0
POLYLINE
  8
LAYER_2
 40
0.2469
 41
0.2469
 66
1
 10
0
 20
0
 30
0
  0
VERTEX
  8
LAYER_2
 10
96.3876
 20
167.9093
  0
VERTEX
  8
LAYER_2
 10
96.7938
 20
167.9093
  0
SEQEND
  0
ENDBLK
  0
BLOCK
  8
LAYER_2
  2
AIGNBL0202004F
 70
64
 10
0
 20
0
 30
0
  3
AIGNBL0202004F
  0
POLYLINE
  8
LAYER_2
 40
0.2469
 41
0.2469
 66
1
 10
0
 20
0
 30
0
  0
VERTEX
  8
LAYER_2
 10
135.5369
 20
167.6929
  0
VERTEX
  8
LAYER_2
 10
135.4746
 20
167.6568
  0
SEQEND
  0
ENDBLK
  0
BLOCK
  8
LAYER_2
  2
AIGNBL02020050
 70
64
 10
0
 20
0
 30
0
  3
AIGNBL02020050
  0
POLYLINE
  8
LAYER_2
 40
0.2469
 41
0.2469
 66
1
 10
0
 20
0
 30
0
  0
VERTEX
  8
LAYER_2
 10
135.4746
 20
167.6568
  0
VERTEX
  8
LAYER_2
 10
129.0994
 20
167.6568
  0
SEQEND
  0
ENDBLK
  0
BLOCK
  8
LAYER_2
  2
AIGNBL02020051
 70
64
 10
0
 20
0
 30
0
  3
AIGNBL02020051
  0
POLYLINE
  8
LAYER_2
 40
0.2469
 41
0.2469
 66
1
 10
0
 20
0
 30
0
  0
VERTEX
  8
LAYER_2
 10
135.5369
 20
167.9093
  0
VERTEX
  8
LAYER_2
 10
135.5369
 20
167.6929
  0
SEQEND
  0
ENDBLK
  0
BLOCK
  8
LAYER_2
  2
AIGNBL02020052
 70
64
 10
0
 20
0
 30
0
  3
AIGNBL02020052
  0
POLYLINE
  8
LAYER_2
 40
0.2469
 41
0.2469
 66
1
 10
0
 20
0
 30
0
  0
VERTEX
  8
LAYER_2
 10
129.0371
 20
167.6929
  0
VERTEX
  8
LAYER_2
 10
129.0371
 20
167.9093
  0
SEQEND
  0
ENDBLK
  0
BLOCK
  8
LAYER_2
  2
AIGNBL02020053
 70
64
 10
0
 20
0
 30
0
  3
AIGNBL02020053
  0
POLYLINE
  8
LAYER_2
 40
0.2469
 41
0.2469
 66
1
 10
0
 20
0
 30
0
  0
VERTEX
  8
LAYER_2
 10
129.2717
 20
167.9093
  0
VERTEX
  8
LAYER_2
 10
129.0371
 20
167.9093
  0
SEQEND
  0
ENDBLK
  0
BLOCK
  8
LAYER_2
  2
AIGNBL02020054
 70
64
 10
0
 20
0
 30
0
  3
AIGNBL02020054
  0
POLYLINE
  8
LAYER_2
 40
0.2469
 41
0.2469
 66
1
 10
0
 20
0
 30
0
  0
VERTEX
  8
LAYER_2
 10
135.3027
 20
167.9093
  0
VERTEX
  8
LAYER_2
 10
135.5369
 20
167.9093
  0
SEQEND
  0
ENDBLK
  0
BLOCK
  8
LAYER_2
  2
AIGNBL02020055
 70
64
 10
0
 20
0
 30
0
  3
AIGNBL02020055
  0
POLYLINE
  8
LAYER_2
 40
0.2469
 41
0.2469
 66
1
 10
0
 20
0
 30
0
  0
VERTEX
  8
LAYER_2
 10
132.0526
 20
167.9093
  0
VERTEX
  8
LAYER_2
 10
132.5218
 20
167.9093
  0
SEQEND
  0
ENDBLK
  0
BLOCK
  8
LAYER_2
  2
AIGNBL02020056
 70
64
 10
0
 20
0
 30
0
  3
AIGNBL02020056
  0
POLYLINE
  8
LAYER_2
 40
0.2469
 41
0.2469
 66
1
 10
0
 20
0
 30
0
  0
VERTEX
  8
LAYER_2
 10
135.6041
 20
170.2726
  0
VERTEX
  8
LAYER_2
 10
135.9121
 20
170.8063
  0
SEQEND
  0
ENDBLK
  0
BLOCK
  8
LAYER_2
  2
AIGNBL02020057
 70
64
 10
0
 20
0
 30
0
  3
AIGNBL02020057
  0
POLYLINE
  8
LAYER_2
 40
0.2469
 41
0.2469
 66
1
 10
0
 20
0
 30
0
  0
VERTEX
  8
LAYER_2
 10
128.9699
 20
170.2726
  0
VERTEX
  8
LAYER_2
 10
128.6619
 20
170.8063
  0
SEQEND
  0
ENDBLK
  0
BLOCK
  8
LAYER_2
  2
AIGNBL02020058
 70
64
 10
0
 20
0
 30
0
  3
AIGNBL02020058
  0
POLYLINE
  8
LAYER_2
 40
0.2469
 41
0.2469
 66
1
 10
0
 20
0
 30
0
  0
VERTEX
  8
LAYER_2
 10
128.6619
 20
170.8063
  0
VERTEX
  8
LAYER_2
 10
128.6619
 20
183.9066
  0
SEQEND
  0
ENDBLK
  0
BLOCK
  8
LAYER_2
  2
AIGNBL02020059
 70
64
 10
0
 20
0
 30
0
  3
AIGNBL02020059
  0
POLYLINE
  8
LAYER_2
  6
AIGENLINE001
 40
0.2469
 41
0.2469
 62
160
 66
1
 10
0
 20
0
 30
0
 70
128
  0
VERTEX
  8
LAYER_2
 10
135.5369
 20
170.0229
  0
VERTEX
  8
LAYER_2
 10
135.5369
 20
170.1569
  0
SEQEND
  0
ENDBLK
  0
BLOCK
  8
LAYER_2
  2
AIGNBL0202005A
 70
64
 10
0
 20
0
 30
0
  3
AIGNBL0202005A
  0
POLYLINE
  8
LAYER_2
 40
0.2469
 41
0.2469
 66
1
 10
0
 20
0
 30
0
  0
VERTEX
  8
LAYER_2
 10
135.3027
 20
170.1569
  0
VERTEX
  8
LAYER_2
 10
135.3027
 20
167.9093
  0
SEQEND
  0
ENDBLK
  0
BLOCK
  8
LAYER_2
  2
AIGNBL0202005B
 70
64
 10
0
 20
0
 30
0
  3
AIGNBL0202005B
  0
POLYLINE
  8
LAYER_2
 40
0.2469
 41
0.2469
 66
1
 10
0
 20
0
 30
0
  0
VERTEX
  8
LAYER_2
 10
132.5218
 20
167.9093
  0
VERTEX
  8
LAYER_2
 10
132.5218
 20
170.1569
  0
SEQEND
  0
ENDBLK
  0
BLOCK
  8
LAYER_2
  2
AIGNBL0202005C
 70
64
 10
0
 20
0
 30
0
  3
AIGNBL0202005C
  0
POLYLINE
  8
LAYER_2
 40
0.2469
 41
0.2469
 66
1
 10
0
 20
0
 30
0
  0
VERTEX
  8
LAYER_2
 10
132.0526
 20
170.1569
  0
VERTEX
  8
LAYER_2
 10
132.0526
 20
167.9093
  0
SEQEND
  0
ENDBLK
  0
BLOCK
  8
LAYER_2
  2
AIGNBL0202005D
 70
64
 10
0
 20
0
 30
0
  3
AIGNBL0202005D
  0
POLYLINE
  8
LAYER_2
 40
0.2469
 41
0.2469
 66
1
 10
0
 20
0
 30
0
  0
VERTEX
  8
LAYER_2
 10
129.0371
 20
170.0229
  0
VERTEX
  8
LAYER_2
 10
129.0371
 20
167.9093
  0
SEQEND
  0
ENDBLK
  0
BLOCK
  8
LAYER_2
  2
AIGNBL0202005E
 70
64
 10
0
 20
0
 30
0
  3
AIGNBL0202005E
  0
POLYLINE
  8
LAYER_2
 40
0.2469
 41
0.2469
 66
1
 10
0
 20
0
 30
0
  0
VERTEX
  8
LAYER_2
 10
134.6216
 20
184.66
  0
VERTEX
  8
LAYER_2
 10
134.912
 20
184.1567
  0
SEQEND
  0
ENDBLK
  0
BLOCK
  8
LAYER_2
  2
AIGNBL0202005F
 70
64
 10
0
 20
0
 30
0
  3
AIGNBL0202005F
  0
POLYLINE
  8
LAYER_2
 40
0.2469
 41
0.2469
 66
1
 10
0
 20
0
 30
0
  0
VERTEX
  8
LAYER_2
 10
134.6216
 20
186.9066
  0
VERTEX
  8
LAYER_2
 10
134.6216
 20
184.66
  0
SEQEND
  0
ENDBLK
  0
BLOCK
  8
LAYER_2
  2
AIGNBL02020060
 70
64
 10
0
 20
0
 30
0
  3
AIGNBL02020060
  0
POLYLINE
  8
LAYER_2
 40
0.2469
 41
0.2469
 66
1
 10
0
 20
0
 30
0
  0
VERTEX
  8
LAYER_2
 10
129.662
 20
184.1567
  0
VERTEX
  8
LAYER_2
 10
129.9524
 20
184.66
  0
SEQEND
  0
ENDBLK
  0
BLOCK
  8
LAYER_2
  2
AIGNBL02020061
 70
64
 10
0
 20
0
 30
0
  3
AIGNBL02020061
  0
POLYLINE
  8
LAYER_2
 40
0.2469
 41
0.2469
 66
1
 10
0
 20
0
 30
0
  0
VERTEX
  8
LAYER_2
 10
129.9524
 20
184.66
  0
VERTEX
  8
LAYER_2
 10
129.9524
 20
186.9066
  0
SEQEND
  0
ENDBLK
  0
BLOCK
  8
LAYER_2
  2
AIGNBL02020062
 70
64
 10
0
 20
0
 30
0
  3
AIGNBL02020062
  0
POLYLINE
  8
LAYER_2
 40
0.2469
 41
0.2469
 66
1
 10
0
 20
0
 30
0
  0
VERTEX
  8
LAYER_2
 10
134.6216
 20
186.9066
  0
VERTEX
  8
LAYER_2
 10
129.9524
 20
186.9066
  0
SEQEND
  0
ENDBLK
  0
BLOCK
  8
LAYER_2
  2
AIGNBL02020063
 70
64
 10
0
 20
0
 30
0
  3
AIGNBL02020063
  0
POLYLINE
  8
LAYER_2
 40
0.2469
 41
0.2469
 66
1
 10
0
 20
0
 30
0
  0
VERTEX
  8
LAYER_2
 10
128.6619
 20
183.9066
  0
VERTEX
  8
LAYER_2
 10
129.662
 20
183.9066
  0
SEQEND
  0
ENDBLK
  0
BLOCK
  8
LAYER_2
  2
AIGNBL02020064
 70
64
 10
0
 20
0
 30
0
  3
AIGNBL02020064
  0
POLYLINE
  8
LAYER_2
 40
0.2469
 41
0.2469
 66
1
 10
0
 20
0
 30
0
  0
VERTEX
  8
LAYER_2
 10
135.9121
 20
170.8063
  0
VERTEX
  8
LAYER_2
 10
135.9121
 20
183.9066
  0
SEQEND
  0
ENDBLK
  0
BLOCK
  8
LAYER_2
  2
AIGNBL02020065
 70
64
 10
0
 20
0
 30
0
  3
AIGNBL02020065
  0
POLYLINE
  8
LAYER_2
 40
0.2469
 41
0.2469
 66
1
 10
0
 20
0
 30
0
  0
VERTEX
  8
LAYER_2
 10
134.912
 20
183.9066
  0
VERTEX
  8
LAYER_2
 10
135.9121
 20
183.9066
  0
SEQEND
  0
ENDBLK
  0
BLOCK
  8
LAYER_2
  2
AIGNBL02020066
 70
64
 10
0
 20
0
 30
0
  3
AIGNBL02020066
  0
POLYLINE
  8
LAYER_2
 40
0.2469
 41
0.2469
 66
1
 10
0
 20
0
 30
0
  0
VERTEX
  8
LAYER_2
 10
129.0994
 20
167.6568
  0
VERTEX
  8
LAYER_2
 10
129.0371
 20
167.6929
  0
SEQEND
  0
ENDBLK
  0
BLOCK
  8
LAYER_2
  2
AIGNBL02020067
 70
64
 10
0
 20
0
 30
0
  3
AIGNBL02020067
  0
POLYLINE
  8
LAYER_2
  6
AIGENLINE001
 40
0.2469
 41
0.2469
 66
1
 10
0
 20
0
 30
0
 70
128
  0
VERTEX
  8
LAYER_2
 10
127.9122
 20
177.1566
  0
VERTEX
  8
LAYER_2
 10
136.6621
 20
177.1566
  0
SEQEND
  0
ENDBLK
  0
BLOCK
  8
LAYER_2
  2
AIGNBL02020068
 70
64
 10
0
 20
0
 30
0
  3
AIGNBL02020068
  0
POLYLINE
  8
LAYER_2
 40
0.2469
 41
0.2469
 66
1
 10
0
 20
0
 30
0
  0
VERTEX
  8
LAYER_2
 10
134.912
 20
186.6162
  0
VERTEX
  8
LAYER_2
 10
129.662
 20
186.6162
  0
SEQEND
  0
ENDBLK
  0
BLOCK
  8
LAYER_2
  2
AIGNBL02020069
 70
64
 10
0
 20
0
 30
0
  3
AIGNBL02020069
  0
POLYLINE
  8
LAYER_2
 40
0.2469
 41
0.2469
 66
1
 10
0
 20
0
 30
0
  0
VERTEX
  8
LAYER_2
 10
134.6216
 20
186.9066
  0
VERTEX
  8
LAYER_2
 10
134.912
 20
186.6162
  0
SEQEND
  0
ENDBLK
  0
BLOCK
  8
LAYER_2
  2
AIGNBL0202006A
 70
64
 10
0
 20
0
 30
0
  3
AIGNBL0202006A
  0
POLYLINE
  8
LAYER_2
 40
0.2469
 41
0.2469
 66
1
 10
0
 20
0
 30
0
  0
VERTEX
  8
LAYER_2
 10
129.9524
 20
186.9066
  0
VERTEX
  8
LAYER_2
 10
129.662
 20
186.6162
  0
SEQEND
  0
ENDBLK
  0
BLOCK
  8
LAYER_2
  2
AIGNBL0202006B
 70
64
 10
0
 20
0
 30
0
  3
AIGNBL0202006B
  0
POLYLINE
  8
LAYER_2
 40
0.2469
 41
0.2469
 66
1
 10
0
 20
0
 30
0
  0
VERTEX
  8
LAYER_2
 10
131.4121
 20
184.66
  0
VERTEX
  8
LAYER_2
 10
129.662
 20
184.66
  0
SEQEND
  0
ENDBLK
  0
BLOCK
  8
LAYER_2
  2
AIGNBL0202006C
 70
64
 10
0
 20
0
 30
0
  3
AIGNBL0202006C
  0
POLYLINE
  8
LAYER_2
 40
0.2469
 41
0.2469
 66
1
 10
0
 20
0
 30
0
  0
VERTEX
  8
LAYER_2
 10
134.912
 20
184.4099
  0
VERTEX
  8
LAYER_2
 10
134.912
 20
183.9066
  0
SEQEND
  0
ENDBLK
  0
BLOCK
  8
LAYER_2
  2
AIGNBL0202006D
 70
64
 10
0
 20
0
 30
0
  3
AIGNBL0202006D
  0
POLYLINE
  8
LAYER_2
 40
0.2469
 41
0.2469
 66
1
 10
0
 20
0
 30
0
  0
VERTEX
  8
LAYER_2
 10
134.912
 20
186.6162
  0
VERTEX
  8
LAYER_2
 10
134.912
 20
184.4099
  0
SEQEND
  0
ENDBLK
  0
BLOCK
  8
LAYER_2
  2
AIGNBL0202006E
 70
64
 10
0
 20
0
 30
0
  3
AIGNBL0202006E
  0
POLYLINE
  8
LAYER_2
 40
0.2469
 41
0.2469
 66
1
 10
0
 20
0
 30
0
  0
VERTEX
  8
LAYER_2
 10
129.662
 20
184.4099
  0
VERTEX
  8
LAYER_2
 10
129.662
 20
186.6162
  0
SEQEND
  0
ENDBLK
  0
BLOCK
  8
LAYER_2
  2
AIGNBL0202006F
 70
64
 10
0
 20
0
 30
0
  3
AIGNBL0202006F
  0
POLYLINE
  8
LAYER_2
 40
0.2469
 41
0.2469
 66
1
 10
0
 20
0
 30
0
  0
VERTEX
  8
LAYER_2
 10
129.662
 20
183.9066
  0
VERTEX
  8
LAYER_2
 10
129.662
 20
184.4099
  0
SEQEND
  0
ENDBLK
  0
BLOCK
  8
LAYER_2
  2
AIGNBL02020070
 70
64
 10
0
 20
0
 30
0
  3
AIGNBL02020070
  0
POLYLINE
  8
LAYER_2
 40
0.2469
 41
0.2469
 66
1
 10
0
 20
0
 30
0
  0
VERTEX
  8
LAYER_2
 10
131.4121
 20
183.9066
  0
VERTEX
  8
LAYER_2
 10
129.662
 20
183.9066
  0
SEQEND
  0
ENDBLK
  0
BLOCK
  8
LAYER_2
  2
AIGNBL02020071
 70
64
 10
0
 20
0
 30
0
  3
AIGNBL02020071
  0
POLYLINE
  8
LAYER_2
  6
AIGENLINE001
 40
0.2469
 41
0.2469
 66
1
 10
0
 20
0
 30
0
 70
128
  0
VERTEX
  8
LAYER_2
 10
132.2868
 20
187.6535
  0
VERTEX
  8
LAYER_2
 10
132.2868
 20
166.9068
  0
SEQEND
  0
ENDBLK
  0
BLOCK
  8
LAYER_2
  2
AIGNBL02020072
 70
64
 10
0
 20
0
 30
0
  3
AIGNBL02020072
  0
POLYLINE
  8
LAYER_2
  6
AIGENLINE001
 40
0.2469
 41
0.2469
 62
160
 66
1
 10
0
 20
0
 30
0
 70
128
  0
VERTEX
  8
LAYER_2
 10
135.6041
 20
170.2726
  0
VERTEX
  8
LAYER_2
 10
135.5369
 20
170.1569
  0
SEQEND
  0
ENDBLK
  0
BLOCK
  8
LAYER_2
  2
AIGNBL02020073
 70
64
 10
0
 20
0
 30
0
  3
AIGNBL02020073
  0
POLYLINE
  8
LAYER_2
 40
0.2469
 41
0.2469
 66
1
 10
0
 20
0
 30
0
  0
VERTEX
  8
LAYER_2
 10
135.5369
 20
167.9093
  0
VERTEX
  8
LAYER_2
 10
135.5369
 20
170.0229
  0
SEQEND
  0
ENDBLK
  0
BLOCK
  8
LAYER_2
  2
AIGNBL02020074
 70
64
 10
0
 20
0
 30
0
  3
AIGNBL02020074
  0
POLYLINE
  8
LAYER_2
  6
AIGENLINE001
 40
0.2469
 41
0.2469
 62
160
 66
1
 10
0
 20
0
 30
0
 70
128
  0
VERTEX
  8
LAYER_2
 10
128.9699
 20
170.2726
  0
VERTEX
  8
LAYER_2
 10
129.0371
 20
170.1569
  0
SEQEND
  0
ENDBLK
  0
BLOCK
  8
LAYER_2
  2
AIGNBL02020075
 70
64
 10
0
 20
0
 30
0
  3
AIGNBL02020075
  0
POLYLINE
  8
LAYER_2
  6
AIGENLINE001
 40
0.2469
 41
0.2469
 62
160
 66
1
 10
0
 20
0
 30
0
 70
128
  0
VERTEX
  8
LAYER_2
 10
129.0371
 20
170.1569
  0
VERTEX
  8
LAYER_2
 10
129.0371
 20
170.0229
  0
SEQEND
  0
ENDBLK
  0
BLOCK
  8
LAYER_2
  2
AIGNBL02020076
 70
64
 10
0
 20
0
 30
0
  3
AIGNBL02020076
  0
POLYLINE
  8
LAYER_2
 40
0.2469
 41
0.2469
 66
1
 10
0
 20
0
 30
0
  0
VERTEX
  8
LAYER_2
 10
134.912
 20
183.9066
  0
VERTEX
  8
LAYER_2
 10
133.1619
 20
183.9066
  0
SEQEND
  0
ENDBLK
  0
BLOCK
  8
LAYER_2
  2
AIGNBL02020077
 70
64
 10
0
 20
0
 30
0
  3
AIGNBL02020077
  0
POLYLINE
  8
LAYER_2
 40
0.2469
 41
0.2469
 66
1
 10
0
 20
0
 30
0
  0
VERTEX
  8
LAYER_2
 10
134.912
 20
184.66
  0
VERTEX
  8
LAYER_2
 10
133.1619
 20
184.66
  0
SEQEND
  0
ENDBLK
  0
BLOCK
  8
LAYER_2
  2
AIGNBL02020078
 70
64
 10
0
 20
0
 30
0
  3
AIGNBL02020078
  0
POLYLINE
  8
LAYER_2
 40
0.2469
 41
0.2469
 66
1
 10
0
 20
0
 30
0
  0
VERTEX
  8
LAYER_2
 10
91.907
 20
167.6568
  0
VERTEX
  8
LAYER_2
 10
97.6571
 20
167.6568
  0
SEQEND
  0
ENDBLK
  0
BLOCK
  8
LAYER_2
  2
AIGNBL02020079
 70
64
 10
0
 20
0
 30
0
  3
AIGNBL02020079
  0
POLYLINE
  8
LAYER_2
 40
0.2469
 41
0.2469
 66
1
 10
0
 20
0
 30
0
  0
VERTEX
  8
LAYER_2
 10
91.907
 20
167.6568
  0
VERTEX
  8
LAYER_2
 10
91.5944
 20
167.6568
  0
SEQEND
  0
ENDBLK
  0
BLOCK
  8
LAYER_2
  2
AIGNBL0202007A
 70
64
 10
0
 20
0
 30
0
  3
AIGNBL0202007A
  0
POLYLINE
  8
LAYER_2
 40
0.2469
 41
0.2469
 66
1
 10
0
 20
0
 30
0
  0
VERTEX
  8
LAYER_2
 10
97.407
 20
184.1536
  0
VERTEX
  8
LAYER_2
 10
97.407
 20
183.9066
  0
SEQEND
  0
ENDBLK
  0
BLOCK
  8
LAYER_2
  2
AIGNBL0202007B
 70
64
 10
0
 20
0
 30
0
  3
AIGNBL0202007B
  0
POLYLINE
  8
LAYER_2
 40
0.2469
 41
0.2469
 66
1
 10
0
 20
0
 30
0
  0
VERTEX
  8
LAYER_2
 10
92.157
 20
184.1536
  0
VERTEX
  8
LAYER_2
 10
92.157
 20
183.9066
  0
SEQEND
  0
ENDBLK
  0
BLOCK
  8
LAYER_2
  2
AIGNBL0202007C
 70
64
 10
0
 20
0
 30
0
  3
AIGNBL0202007C
  0
POLYLINE
  8
LAYER_2
 40
0.2469
 41
0.2469
 66
1
 10
0
 20
0
 30
0
  0
VERTEX
  8
LAYER_2
 10
100.6571
 20
180.7816
  0
VERTEX
  8
LAYER_2
 10
100.6571
 20
180.4067
  0
SEQEND
  0
ENDBLK
  0
BLOCK
  8
LAYER_2
  2
AIGNBL0202007D
 70
64
 10
0
 20
0
 30
0
  3
AIGNBL0202007D
  0
POLYLINE
  8
LAYER_2
 40
0.2469
 41
0.2469
 66
1
 10
0
 20
0
 30
0
  0
VERTEX
  8
LAYER_2
 10
100.6571
 20
173.5317
  0
VERTEX
  8
LAYER_2
 10
100.6571
 20
173.9065
  0
SEQEND
  0
ENDBLK
  0
BLOCK
  8
LAYER_2
  2
AIGNBL0202007E
 70
64
 10
0
 20
0
 30
0
  3
AIGNBL0202007E
  0
POLYLINE
  8
LAYER_2
 40
0.2469
 41
0.2469
 66
1
 10
0
 20
0
 30
0
  0
VERTEX
  8
LAYER_2
 10
97.407
 20
184.6566
  0
VERTEX
  8
LAYER_2
 10
97.407
 20
186.6162
  0
SEQEND
  0
ENDBLK
  0
BLOCK
  8
LAYER_2
  2
AIGNBL0202007F
 70
64
 10
0
 20
0
 30
0
  3
AIGNBL0202007F
  0
POLYLINE
  8
LAYER_2
 40
0.2469
 41
0.2469
 66
1
 10
0
 20
0
 30
0
  0
VERTEX
  8
LAYER_2
 10
97.1165
 20
184.6566
  0
VERTEX
  8
LAYER_2
 10
97.407
 20
184.6566
  0
SEQEND
  0
ENDBLK
  0
BLOCK
  8
LAYER_2
  2
AIGNBL02020080
 70
64
 10
0
 20
0
 30
0
  3
AIGNBL02020080
  0
POLYLINE
  8
LAYER_2
 40
0.2469
 41
0.2469
 66
1
 10
0
 20
0
 30
0
  0
VERTEX
  8
LAYER_2
 10
92.4474
 20
186.6162
  0
VERTEX
  8
LAYER_2
 10
92.4474
 20
186.9066
  0
SEQEND
  0
ENDBLK
  0
BLOCK
  8
LAYER_2
  2
AIGNBL02020081
 70
64
 10
0
 20
0
 30
0
  3
AIGNBL02020081
  0
POLYLINE
  8
LAYER_2
 40
0.2469
 41
0.2469
 66
1
 10
0
 20
0
 30
0
  0
VERTEX
  8
LAYER_2
 10
92.157
 20
184.1536
  0
VERTEX
  8
LAYER_2
 10
92.4474
 20
184.6566
  0
SEQEND
  0
ENDBLK
  0
BLOCK
  8
LAYER_2
  2
AIGNBL02020082
 70
64
 10
0
 20
0
 30
0
  3
AIGNBL02020082
  0
POLYLINE
  8
LAYER_2
 40
0.2469
 41
0.2469
 66
1
 10
0
 20
0
 30
0
  0
VERTEX
  8
LAYER_2
 10
92.4474
 20
184.6566
  0
VERTEX
  8
LAYER_2
 10
92.4474
 20
186.6162
  0
SEQEND
  0
ENDBLK
  0
BLOCK
  8
LAYER_2
  2
AIGNBL02020083
 70
64
 10
0
 20
0
 30
0
  3
AIGNBL02020083
  0
POLYLINE
  8
LAYER_2
 40
0.2469
 41
0.2469
 66
1
 10
0
 20
0
 30
0
  0
VERTEX
  8
LAYER_2
 10
97.407
 20
184.1536
  0
VERTEX
  8
LAYER_2
 10
97.407
 20
184.6566
  0
SEQEND
  0
ENDBLK
  0
BLOCK
  8
LAYER_2
  2
AIGNBL02020084
 70
64
 10
0
 20
0
 30
0
  3
AIGNBL02020084
  0
POLYLINE
  8
LAYER_2
 40
0.2469
 41
0.2469
 66
1
 10
0
 20
0
 30
0
  0
VERTEX
  8
LAYER_2
 10
92.157
 20
186.6162
  0
VERTEX
  8
LAYER_2
 10
92.157
 20
184.6566
  0
SEQEND
  0
ENDBLK
  0
BLOCK
  8
LAYER_2
  2
AIGNBL02020085
 70
64
 10
0
 20
0
 30
0
  3
AIGNBL02020085
  0
POLYLINE
  8
LAYER_2
 40
0.2469
 41
0.2469
 66
1
 10
0
 20
0
 30
0
  0
VERTEX
  8
LAYER_2
 10
92.157
 20
186.6162
  0
VERTEX
  8
LAYER_2
 10
92.4474
 20
186.6162
  0
SEQEND
  0
ENDBLK
  0
BLOCK
  8
LAYER_2
  2
AIGNBL02020086
 70
64
 10
0
 20
0
 30
0
  3
AIGNBL02020086
  0
POLYLINE
  8
LAYER_2
 40
0.2469
 41
0.2469
 66
1
 10
0
 20
0
 30
0
  0
VERTEX
  8
LAYER_2
 10
97.1165
 20
184.6566
  0
VERTEX
  8
LAYER_2
 10
97.407
 20
184.1536
  0
SEQEND
  0
ENDBLK
  0
BLOCK
  8
LAYER_2
  2
AIGNBL02020087
 70
64
 10
0
 20
0
 30
0
  3
AIGNBL02020087
  0
POLYLINE
  8
LAYER_2
 40
0.2469
 41
0.2469
 66
1
 10
0
 20
0
 30
0
  0
VERTEX
  8
LAYER_2
 10
97.1165
 20
184.6566
  0
SEQEND
  0
ENDBLK
  0
BLOCK
  8
LAYER_2
  2
AIGNBL02020088
 70
64
 10
0
 20
0
 30
0
  3
AIGNBL02020088
  0
POLYLINE
  8
LAYER_2
 40
0.2469
 41
0.2469
 66
1
 10
0
 20
0
 30
0
  0
VERTEX
  8
LAYER_2
 10
97.407
 20
186.6162
  0
VERTEX
  8
LAYER_2
 10
97.1165
 20
186.6162
  0
SEQEND
  0
ENDBLK
  0
BLOCK
  8
LAYER_2
  2
AIGNBL02020089
 70
64
 10
0
 20
0
 30
0
  3
AIGNBL02020089
  0
POLYLINE
  8
LAYER_2
 40
0.2469
 41
0.2469
 66
1
 10
0
 20
0
 30
0
  0
VERTEX
  8
LAYER_2
 10
97.1165
 20
186.9066
  0
VERTEX
  8
LAYER_2
 10
97.1165
 20
186.6162
  0
SEQEND
  0
ENDBLK
  0
BLOCK
  8
LAYER_2
  2
AIGNBL0202008A
 70
64
 10
0
 20
0
 30
0
  3
AIGNBL0202008A
  0
POLYLINE
  8
LAYER_2
 40
0.2469
 41
0.2469
 66
1
 10
0
 20
0
 30
0
  0
VERTEX
  8
LAYER_2
 10
97.1165
 20
186.9066
  0
VERTEX
  8
LAYER_2
 10
96.407
 20
186.9066
  0
SEQEND
  0
ENDBLK
  0
BLOCK
  8
LAYER_2
  2
AIGNBL0202008B
 70
64
 10
0
 20
0
 30
0
  3
AIGNBL0202008B
  0
POLYLINE
  8
LAYER_2
 40
0.2469
 41
0.2469
 66
1
 10
0
 20
0
 30
0
  0
VERTEX
  8
LAYER_2
 10
97.407
 20
186.6162
  0
VERTEX
  8
LAYER_2
 10
97.1165
 20
186.9066
  0
SEQEND
  0
ENDBLK
  0
BLOCK
  8
LAYER_2
  2
AIGNBL0202008C
 70
64
 10
0
 20
0
 30
0
  3
AIGNBL0202008C
  0
POLYLINE
  8
LAYER_2
 40
0.2469
 41
0.2469
 66
1
 10
0
 20
0
 30
0
  0
VERTEX
  8
LAYER_2
 10
92.4474
 20
186.9066
  0
VERTEX
  8
LAYER_2
 10
92.157
 20
186.6162
  0
SEQEND
  0
ENDBLK
  0
BLOCK
  8
LAYER_2
  2
AIGNBL0202008D
 70
64
 10
0
 20
0
 30
0
  3
AIGNBL0202008D
  0
POLYLINE
  8
LAYER_2
 40
0.2469
 41
0.2469
 66
1
 10
0
 20
0
 30
0
  0
VERTEX
  8
LAYER_2
 10
97.407
 20
183.9066
  0
VERTEX
  8
LAYER_2
 10
98.4071
 20
183.9066
  0
SEQEND
  0
ENDBLK
  0
BLOCK
  8
LAYER_2
  2
AIGNBL0202008E
 70
64
 10
0
 20
0
 30
0
  3
AIGNBL0202008E
  0
POLYLINE
  8
LAYER_2
 40
0.2469
 41
0.2469
 66
1
 10
0
 20
0
 30
0
  0
VERTEX
  8
LAYER_2
 10
98.4071
 20
183.9066
  0
VERTEX
  8
LAYER_2
 10
98.4071
 20
181.2818
  0
SEQEND
  0
ENDBLK
  0
BLOCK
  8
LAYER_2
  2
AIGNBL0202008F
 70
64
 10
0
 20
0
 30
0
  3
AIGNBL0202008F
  0
POLYLINE
  8
LAYER_2
 40
0.2469
 41
0.2469
 66
1
 10
0
 20
0
 30
0
  0
VERTEX
  8
LAYER_2
 10
97.9696
 20
167.6568
  0
VERTEX
  8
LAYER_2
 10
97.6571
 20
167.6568
  0
SEQEND
  0
ENDBLK
  0
BLOCK
  8
LAYER_2
  2
AIGNBL02020090
 70
64
 10
0
 20
0
 30
0
  3
AIGNBL02020090
  0
POLYLINE
  8
LAYER_2
 40
0.2469
 41
0.2469
 66
1
 10
0
 20
0
 30
0
  0
VERTEX
  8
LAYER_2
 10
98.4071
 20
170.1569
  0
VERTEX
  8
LAYER_2
 10
98.4071
 20
167.9093
  0
SEQEND
  0
ENDBLK
  0
BLOCK
  8
LAYER_2
  2
AIGNBL02020091
 70
64
 10
0
 20
0
 30
0
  3
AIGNBL02020091
  0
POLYLINE
  8
LAYER_2
  6
AIGENLINE001
 40
0.2469
 41
0.2469
 66
1
 10
0
 20
0
 30
0
 70
128
  0
VERTEX
  8
LAYER_2
 10
94.782
 20
166.9068
  0
VERTEX
  8
LAYER_2
 10
94.782
 20
187.4037
  0
SEQEND
  0
ENDBLK
  0
BLOCK
  8
LAYER_2
  2
AIGNBL02020092
 70
64
 10
0
 20
0
 30
0
  3
AIGNBL02020092
  0
POLYLINE
  8
LAYER_2
 40
0.2469
 41
0.2469
 66
1
 10
0
 20
0
 30
0
  0
VERTEX
  8
LAYER_2
 10
91.5944
 20
167.6568
  0
VERTEX
  8
LAYER_2
 10
91.1569
 20
167.9093
  0
SEQEND
  0
ENDBLK
  0
BLOCK
  8
LAYER_2
  2
AIGNBL02020093
 70
64
 10
0
 20
0
 30
0
  3
AIGNBL02020093
  0
POLYLINE
  8
LAYER_2
 40
0.2469
 41
0.2469
 66
1
 10
0
 20
0
 30
0
  0
VERTEX
  8
LAYER_2
 10
98.4071
 20
167.9093
  0
VERTEX
  8
LAYER_2
 10
97.9696
 20
167.6568
  0
SEQEND
  0
ENDBLK
  0
BLOCK
  8
LAYER_2
  2
AIGNBL02020094
 70
64
 10
0
 20
0
 30
0
  3
AIGNBL02020094
  0
POLYLINE
  8
LAYER_2
  6
AIGENLINE001
 40
0.2469
 41
0.2469
 66
1
 10
0
 20
0
 30
0
 70
128
  0
VERTEX
  8
LAYER_2
 10
101.3569
 20
177.1566
  0
VERTEX
  8
LAYER_2
 10
90.4069
 20
177.1566
  0
SEQEND
  0
ENDBLK
  0
BLOCK
  8
LAYER_2
  2
AIGNBL02020095
 70
64
 10
0
 20
0
 30
0
  3
AIGNBL02020095
  0
POLYLINE
  8
LAYER_2
 40
0.2469
 41
0.2469
 66
1
 10
0
 20
0
 30
0
  0
VERTEX
  8
LAYER_2
 10
98.907
 20
173.5317
  0
VERTEX
  8
LAYER_2
 10
100.6571
 20
173.5317
  0
SEQEND
  0
ENDBLK
  0
BLOCK
  8
LAYER_2
  2
AIGNBL02020096
 70
64
 10
0
 20
0
 30
0
  3
AIGNBL02020096
  0
POLYLINE
  8
LAYER_2
 40
0.2469
 41
0.2469
 66
1
 10
0
 20
0
 30
0
  0
VERTEX
  8
LAYER_2
 10
98.907
 20
180.7816
  0
VERTEX
  8
LAYER_2
 10
100.6571
 20
180.7816
  0
SEQEND
  0
ENDBLK
  0
BLOCK
  8
LAYER_2
  2
AIGNBL02020097
 70
64
 10
0
 20
0
 30
0
  3
AIGNBL02020097
  0
POLYLINE
  8
LAYER_2
 40
0.2469
 41
0.2469
 66
1
 10
0
 20
0
 30
0
  0
VERTEX
  8
LAYER_2
 10
92.157
 20
184.6566
  0
VERTEX
  8
LAYER_2
 10
92.157
 20
184.1536
  0
SEQEND
  0
ENDBLK
  0
BLOCK
  8
LAYER_2
  2
AIGNBL02020098
 70
64
 10
0
 20
0
 30
0
  3
AIGNBL02020098
  0
POLYLINE
  8
LAYER_2
 40
0.2469
 41
0.2469
 66
1
 10
0
 20
0
 30
0
  0
VERTEX
  8
LAYER_2
 10
92.4474
 20
184.6566
  0
VERTEX
  8
LAYER_2
 10
92.157
 20
184.6566
  0
SEQEND
  0
ENDBLK
  0
BLOCK
  8
LAYER_2
  2
AIGNBL02020099
 70
64
 10
0
 20
0
 30
0
  3
AIGNBL02020099
  0
POLYLINE
  8
LAYER_2
 40
0.2469
 41
0.2469
 66
1
 10
0
 20
0
 30
0
  0
VERTEX
  8
LAYER_2
 10
91.1569
 20
183.9066
  0
VERTEX
  8
LAYER_2
 10
92.157
 20
183.9066
  0
SEQEND
  0
ENDBLK
  0
BLOCK
  8
LAYER_2
  2
AIGNBL0202009A
 70
64
 10
0
 20
0
 30
0
  3
AIGNBL0202009A
  0
POLYLINE
  8
LAYER_2
 40
0.2469
 41
0.2469
 66
1
 10
0
 20
0
 30
0
  0
VERTEX
  8
LAYER_2
 10
96.407
 20
186.9066
  0
VERTEX
  8
LAYER_2
 10
92.4474
 20
186.9066
  0
SEQEND
  0
ENDBLK
  0
BLOCK
  8
LAYER_2
  2
AIGNBL0202009B
 70
64
 10
0
 20
0
 30
0
  3
AIGNBL0202009B
  0
POLYLINE
  8
LAYER_2
 40
0.2469
 41
0.2469
 66
1
 10
0
 20
0
 30
0
  0
VERTEX
  8
LAYER_2
 10
100.6571
 20
173.9065
  0
VERTEX
  8
LAYER_2
 10
100.782
 20
173.9065
  0
SEQEND
  0
ENDBLK
  0
BLOCK
  8
LAYER_2
  2
AIGNBL0202009C
 70
64
 10
0
 20
0
 30
0
  3
AIGNBL0202009C
  0
POLYLINE
  8
LAYER_2
 40
0.2469
 41
0.2469
 66
1
 10
0
 20
0
 30
0
  0
VERTEX
  8
LAYER_2
 10
100.6571
 20
180.4067
  0
VERTEX
  8
LAYER_2
 10
100.782
 20
180.4067
  0
SEQEND
  0
ENDBLK
  0
BLOCK
  8
LAYER_2
  2
AIGNBL0202009D
 70
64
 10
0
 20
0
 30
0
  3
AIGNBL0202009D
  0
POLYLINE
  8
LAYER_2
 40
0.2469
 41
0.2469
 66
1
 10
0
 20
0
 30
0
  0
VERTEX
  8
LAYER_2
 10
96.7938
 20
167.9093
  0
VERTEX
  8
LAYER_2
 10
96.7938
 20
170.1569
  0
SEQEND
  0
ENDBLK
  0
BLOCK
  8
LAYER_2
  2
AIGNBL0202009E
 70
64
 10
0
 20
0
 30
0
  3
AIGNBL0202009E
  0
POLYLINE
  8
LAYER_2
 40
0.2469
 41
0.2469
 66
1
 10
0
 20
0
 30
0
  0
VERTEX
  8
LAYER_2
 10
96.3876
 20
170.1569
  0
VERTEX
  8
LAYER_2
 10
96.3876
 20
167.9093
  0
SEQEND
  0
ENDBLK
  0
BLOCK
  8
LAYER_2
  2
AIGNBL0202009F
 70
64
 10
0
 20
0
 30
0
  3
AIGNBL0202009F
  0
POLYLINE
  8
LAYER_2
 40
0.2469
 41
0.2469
 66
1
 10
0
 20
0
 30
0
  0
VERTEX
  8
LAYER_2
 10
93.1764
 20
167.9093
  0
VERTEX
  8
LAYER_2
 10
93.1764
 20
170.1569
  0
SEQEND
  0
ENDBLK
  0
BLOCK
  8
LAYER_2
  2
AIGNBL020200A0
 70
64
 10
0
 20
0
 30
0
  3
AIGNBL020200A0
  0
POLYLINE
  8
LAYER_2
 40
0.2469
 41
0.2469
 66
1
 10
0
 20
0
 30
0
  0
VERTEX
  8
LAYER_2
 10
92.7702
 20
167.9093
  0
VERTEX
  8
LAYER_2
 10
92.7702
 20
170.1569
  0
SEQEND
  0
ENDBLK
  0
BLOCK
  8
LAYER_2
  2
AIGNBL020200A1
 70
64
 10
0
 20
0
 30
0
  3
AIGNBL020200A1
  0
POLYLINE
  8
LAYER_2
 40
0.2469
 41
0.2469
 66
1
 10
0
 20
0
 30
0
  0
VERTEX
  8
LAYER_2
 10
91.1569
 20
170.1569
  0
VERTEX
  8
LAYER_2
 10
91.1569
 20
167.9093
  0
SEQEND
  0
ENDBLK
  0
BLOCK
  8
LAYER_2
  2
AIGNBL020200A2
 70
64
 10
0
 20
0
 30
0
  3
AIGNBL020200A2
  0
POLYLINE
  8
LAYER_2
 40
0.2469
 41
0.2469
 66
1
 10
0
 20
0
 30
0
  0
VERTEX
  8
LAYER_2
 10
91.1646
 20
170.1569
  0
VERTEX
  8
LAYER_2
 10
91.1646
 20
167.9093
  0
SEQEND
  0
ENDBLK
  0
BLOCK
  8
LAYER_2
  2
AIGNBL020200A3
 70
64
 10
0
 20
0
 30
0
  3
AIGNBL020200A3
  0
POLYLINE
  8
LAYER_2
 40
0.2469
 41
0.2469
 66
1
 10
0
 20
0
 30
0
  0
VERTEX
  8
LAYER_2
 10
98.3993
 20
170.1569
  0
VERTEX
  8
LAYER_2
 10
98.3993
 20
170.8063
  0
SEQEND
  0
ENDBLK
  0
BLOCK
  8
LAYER_2
  2
AIGNBL020200A4
 70
64
 10
0
 20
0
 30
0
  3
AIGNBL020200A4
  0
POLYLINE
  8
LAYER_2
 40
0.2469
 41
0.2469
 66
1
 10
0
 20
0
 30
0
  0
VERTEX
  8
LAYER_2
 10
97.407
 20
183.9066
  0
VERTEX
  8
LAYER_2
 10
92.157
 20
183.9066
  0
SEQEND
  0
ENDBLK
  0
BLOCK
  8
LAYER_2
  2
AIGNBL020200A5
 70
64
 10
0
 20
0
 30
0
  3
AIGNBL020200A5
  0
POLYLINE
  8
LAYER_2
 40
0.2469
 41
0.2469
 66
1
 10
0
 20
0
 30
0
  0
VERTEX
  8
LAYER_2
 10
97.1165
 20
184.6566
  0
VERTEX
  8
LAYER_2
 10
92.4474
 20
184.6566
  0
SEQEND
  0
ENDBLK
  0
BLOCK
  8
LAYER_2
  2
AIGNBL020200A6
 70
64
 10
0
 20
0
 30
0
  3
AIGNBL020200A6
  0
POLYLINE
  8
LAYER_2
 40
0.2469
 41
0.2469
 66
1
 10
0
 20
0
 30
0
  0
VERTEX
  8
LAYER_2
 10
97.1165
 20
186.6162
  0
VERTEX
  8
LAYER_2
 10
97.1165
 20
184.6566
  0
SEQEND
  0
ENDBLK
  0
BLOCK
  8
LAYER_2
  2
AIGNBL020200A7
 70
64
 10
0
 20
0
 30
0
  3
AIGNBL020200A7
  0
POLYLINE
  8
LAYER_2
 40
0.2469
 41
0.2469
 66
1
 10
0
 20
0
 30
0
  0
VERTEX
  8
LAYER_2
 10
92.4474
 20
186.6162
  0
VERTEX
  8
LAYER_2
 10
97.1165
 20
186.6162
  0
SEQEND
  0
ENDBLK
  0
BLOCK
  8
LAYER_2
  2
AIGNBL020200A8
 70
64
 10
0
 20
0
 30
0
  3
AIGNBL020200A8
  0
POLYLINE
  8
LAYER_2
 40
0.2469
 41
0.2469
 66
1
 10
0
 20
0
 30
0
  0
VERTEX
  8
LAYER_2
 10
97.1165
 20
186.6162
  0
SEQEND
  0
ENDBLK
  0
BLOCK
  8
LAYER_2
  2
AIGNBL020200A9
 70
64
 10
0
 20
0
 30
0
  3
AIGNBL020200A9
  0
POLYLINE
  8
LAYER_2
 40
0.2469
 41
0.2469
 66
1
 10
0
 20
0
 30
0
  0
VERTEX
  8
LAYER_2
 10
91.1569
 20
183.9066
  0
VERTEX
  8
LAYER_2
 10
91.1569
 20
170.8063
  0
SEQEND
  0
ENDBLK
  0
BLOCK
  8
LAYER_2
  2
AIGNBL020200AA
 70
64
 10
0
 20
0
 30
0
  3
AIGNBL020200AA
  0
POLYLINE
  8
LAYER_2
 40
0.2469
 41
0.2469
 66
1
 10
0
 20
0
 30
0
  0
VERTEX
  8
LAYER_2
 10
100.6571
 20
180.4067
  0
VERTEX
  8
LAYER_2
 10
100.6571
 20
173.9065
  0
SEQEND
  0
ENDBLK
  0
BLOCK
  8
LAYER_2
  2
AIGNBL020200AB
 70
64
 10
0
 20
0
 30
0
  3
AIGNBL020200AB
  0
POLYLINE
  8
LAYER_2
 40
0.2469
 41
0.2469
 66
1
 10
0
 20
0
 30
0
  0
VERTEX
  8
LAYER_2
 10
98.0319
 20
180.4067
  0
VERTEX
  8
LAYER_2
 10
96.5069
 20
178.8816
  0
SEQEND
  0
ENDBLK
  0
BLOCK
  8
LAYER_2
  2
AIGNBL020200AC
 70
64
 10
0
 20
0
 30
0
  3
AIGNBL020200AC
  0
POLYLINE
  8
LAYER_2
 40
0.2469
 41
0.2469
 66
1
 10
0
 20
0
 30
0
  0
VERTEX
  8
LAYER_2
 10
96.5069
 20
175.4317
  0
VERTEX
  8
LAYER_2
 10
98.0319
 20
173.9065
  0
SEQEND
  0
ENDBLK
  0
BLOCK
  8
LAYER_2
  2
AIGNBL020200AD
 70
64
 10
0
 20
0
 30
0
  3
AIGNBL020200AD
  0
POLYLINE
  8
LAYER_2
 40
0.2469
 41
0.2469
 66
1
 10
0
 20
0
 30
0
  0
VERTEX
  8
LAYER_2
 10
94.4821
 20
215.6978
  0
VERTEX
  8
LAYER_2
 10
94.4821
 20
211.0676
  0
SEQEND
  0
ENDBLK
  0
BLOCK
  8
LAYER_2
  2
AIGNBL020200AE
 70
64
 10
0
 20
0
 30
0
  3
AIGNBL020200AE
  0
POLYLINE
  8
LAYER_2
 40
0.2469
 41
0.2469
 66
1
 10
0
 20
0
 30
0
  0
VERTEX
  8
LAYER_2
 10
98.4071
 20
213.3827
 42
0.4142168084
  0
VERTEX
  8
LAYER_2
 10
94.782
 20
217.0078
  0
SEQEND
  0
ENDBLK
  0
BLOCK
  8
LAYER_2
  2
AIGNBL020200AF
 70
64
 10
0
 20
0
 30
0
  3
AIGNBL020200AF
  0
POLYLINE
  8
LAYER_2
 40
0.2469
 41
0.2469
 66
1
 10
0
 20
0
 30
0
  0
VERTEX
  8
LAYER_2
 10
94.782
 20
209.7577
 42
0.4142101426
  0
VERTEX
  8
LAYER_2
 10
98.4071
 20
213.3827
  0
SEQEND
  0
ENDBLK
  0
BLOCK
  8
LAYER_2
  2
AIGNBL020200B0
 70
64
 10
0
 20
0
 30
0
  3
AIGNBL020200B0
  0
POLYLINE
  8
LAYER_2
 40
0.2469
 41
0.2469
 66
1
 10
0
 20
0
 30
0
  0
VERTEX
  8
LAYER_2
 10
94.782
 20
217.0078
 42
0.4142238613
  0
VERTEX
  8
LAYER_2
 10
91.1569
 20
213.3827
 42
0.4142171954
  0
VERTEX
  8
LAYER_2
 10
94.782
 20
209.7577
  0
SEQEND
  0
ENDBLK
  0
BLOCK
  8
LAYER_2
  2
AIGNBL020200B1
 70
64
 10
0
 20
0
 30
0
  3
AIGNBL020200B1
  0
POLYLINE
  8
LAYER_2
 40
0.2469
 41
0.2469
 66
1
 10
0
 20
0
 30
0
  0
VERTEX
  8
LAYER_2
 10
132.0526
 20
170.1569
 42
0.4141224409
  0
VERTEX
  8
LAYER_2
 10
129.4984
 20
170.3836
  0
VERTEX
  8
LAYER_2
 10
129.2717
 20
170.1569
  0
SEQEND
  0
ENDBLK
  0
BLOCK
  8
LAYER_2
  2
AIGNBL020200B2
 70
64
 10
0
 20
0
 30
0
  3
AIGNBL020200B2
  0
POLYLINE
  8
LAYER_2
 40
0.2469
 41
0.2469
 66
1
 10
0
 20
0
 30
0
  0
VERTEX
  8
LAYER_2
 10
96.7938
 20
167.9093
 42
0.15578842
  0
VERTEX
  8
LAYER_2
 10
98.3993
 20
167.9093
  0
SEQEND
  0
ENDBLK
  0
BLOCK
  8
LAYER_2
  2
AIGNBL020200B3
 70
64
 10
0
 20
0
 30
0
  3
AIGNBL020200B3
  0
POLYLINE
  8
LAYER_2
 40
0.2469
 41
0.2469
 66
1
 10
0
 20
0
 30
0
  0
VERTEX
  8
LAYER_2
 10
91.1646
 20
167.9093
 42
0.1557905164
  0
VERTEX
  8
LAYER_2
 10
92.7702
 20
167.9093
  0
SEQEND
  0
ENDBLK
  0
BLOCK
  8
LAYER_2
  2
AIGNBL020200B4
 70
64
 10
0
 20
0
 30
0
  3
AIGNBL020200B4
  0
POLYLINE
  8
LAYER_2
 40
0.2469
 41
0.2469
 66
1
 10
0
 20
0
 30
0
  0
VERTEX
  8
LAYER_2
 10
98.3993
 20
170.1569
 42
0.4142168242
  0
VERTEX
  8
LAYER_2
 10
97.4252
 20
170.788
 42
0.2956932368
  0
VERTEX
  8
LAYER_2
 10
96.7938
 20
170.1569
  0
SEQEND
  0
ENDBLK
  0
BLOCK
  8
LAYER_2
  2
AIGNBL020200B5
 70
64
 10
0
 20
0
 30
0
  3
AIGNBL020200B5
  0
POLYLINE
  8
LAYER_2
 40
0.2469
 41
0.2469
 66
1
 10
0
 20
0
 30
0
  0
VERTEX
  8
LAYER_2
 10
92.7702
 20
170.1569
 42
0.4140509477
  0
VERTEX
  8
LAYER_2
 10
91.796
 20
170.788
 42
0.295667758
  0
VERTEX
  8
LAYER_2
 10
91.1646
 20
170.1569
  0
SEQEND
  0
ENDBLK
  0
BLOCK
  8
LAYER_2
  2
AIGNBL020200B6
 70
64
 10
0
 20
0
 30
0
  3
AIGNBL020200B6
  0
POLYLINE
  8
LAYER_2
 40
0.2469
 41
0.2469
 66
1
 10
0
 20
0
 30
0
  0
VERTEX
  8
LAYER_2
 10
135.3027
 20
170.1569
 42
0.4141216355
  0
VERTEX
  8
LAYER_2
 10
132.7485
 20
170.3836
  0
VERTEX
  8
LAYER_2
 10
132.5218
 20
170.1569
  0
SEQEND
  0
ENDBLK
  0
BLOCK
  8
LAYER_2
  2
AIGNBL020200B7
 70
64
 10
0
 20
0
 30
0
  3
AIGNBL020200B7
  0
POLYLINE
  8
LAYER_2
 40
0.2469
 41
0.2469
 66
1
 10
0
 20
0
 30
0
  0
VERTEX
  8
LAYER_2
 10
132.5218
 20
167.9093
 42
0.08994741185
  0
VERTEX
  8
LAYER_2
 10
135.3027
 20
167.9093
  0
SEQEND
  0
ENDBLK
  0
BLOCK
  8
LAYER_2
  2
AIGNBL020200B8
 70
64
 10
0
 20
0
 30
0
  3
AIGNBL020200B8
  0
POLYLINE
  8
LAYER_2
 40
0.2469
 41
0.2469
 66
1
 10
0
 20
0
 30
0
  0
VERTEX
  8
LAYER_2
 10
129.2717
 20
167.9093
 42
0.08994967583
  0
VERTEX
  8
LAYER_2
 10
132.0526
 20
167.9093
  0
SEQEND
  0
ENDBLK
  0
BLOCK
  8
LAYER_2
  2
AIGNBL020200B9
 70
64
 10
0
 20
0
 30
0
  3
AIGNBL020200B9
  0
POLYLINE
  8
LAYER_2
 40
0.2469
 41
0.2469
 66
1
 10
0
 20
0
 30
0
  0
VERTEX
  8
LAYER_2
 10
96.3876
 20
170.1569
 42
0.4044125615
  0
VERTEX
  8
LAYER_2
 10
93.1764
 20
170.1569
  0
SEQEND
  0
ENDBLK
  0
BLOCK
  8
LAYER_2
  2
AIGNBL020200BA
 70
64
 10
0
 20
0
 30
0
  3
AIGNBL020200BA
  0
POLYLINE
  8
LAYER_2
 40
0.2469
 41
0.2469
 66
1
 10
0
 20
0
 30
0
  0
VERTEX
  8
LAYER_2
 10
93.1764
 20
167.9093
 42
0.07789710215
  0
VERTEX
  8
LAYER_2
 10
96.3876
 20
167.9093
  0
SEQEND
  0
ENDBLK
  0
BLOCK
  8
LAYER_2
  2
AIGNBL020200BB
 70
64
 10
0
 20
0
 30
0
  3
AIGNBL020200BB
  0
POLYLINE
  8
LAYER_2
 40
0.2469
 41
0.2469
 66
1
 10
0
 20
0
 30
0
  0
VERTEX
  8
LAYER_2
 10
94.4821
 20
215.6978
 42
0.4142603581
  0
VERTEX
  8
LAYER_2
 10
92.4669
 20
213.0828
 42
0.3406047892
  0
VERTEX
  8
LAYER_2
 10
94.4821
 20
211.0676
  0
SEQEND
  0
ENDBLK
  0
BLOCK
  8
LAYER_2
  2
AIGNBL020200BC
 70
64
 10
0
 20
0
 30
0
  3
AIGNBL020200BC
  0
POLYLINE
  8
LAYER_2
 40
0.2469
 41
0.2469
 66
1
 10
0
 20
0
 30
0
  0
VERTEX
  8
LAYER_2
 10
96.3319
 20
215.1283
 42
0.2171070354
  0
VERTEX
  8
LAYER_2
 10
94.4821
 20
215.6978
  0
SEQEND
  0
ENDBLK
  0
BLOCK
  8
LAYER_2
  2
AIGNBL020200BD
 70
64
 10
0
 20
0
 30
0
  3
AIGNBL020200BD
  0
POLYLINE
  8
LAYER_2
 40
0.2469
 41
0.2469
 66
1
 10
0
 20
0
 30
0
  0
VERTEX
  8
LAYER_2
 10
96.3319
 20
211.637
 42
0.4142258135
  0
VERTEX
  8
LAYER_2
 10
96.5276
 20
214.9328
  0
VERTEX
  8
LAYER_2
 10
96.3319
 20
215.1283
  0
SEQEND
  0
ENDBLK
  0
BLOCK
  8
LAYER_2
  2
AIGNBL020200BE
 70
64
 10
0
 20
0
 30
0
  3
AIGNBL020200BE
  0
POLYLINE
  8
LAYER_2
 40
0.2469
 41
0.2469
 66
1
 10
0
 20
0
 30
0
  0
VERTEX
  8
LAYER_2
 10
94.4821
 20
211.0676
 42
0.2170433352
  0
VERTEX
  8
LAYER_2
 10
96.3319
 20
211.637
  0
SEQEND
  0
ENDBLK
  0
BLOCK
  8
LAYER_2
  2
AIGNBL020200BF
 70
64
 10
0
 20
0
 30
0
  3
AIGNBL020200BF
  0
POLYLINE
  8
LAYER_2
 40
0.2469
 41
0.2469
 66
1
 10
0
 20
0
 30
0
 70
1
  0
VERTEX
  8
LAYER_2
 10
97.407
 20
213.3827
 42
0.4142152269
  0
VERTEX
  8
LAYER_2
 10
94.782
 20
216.0077
 42
0.4142199251
  0
VERTEX
  8
LAYER_2
 10
92.157
 20
213.3827
 42
0.4142018424
  0
VERTEX
  8
LAYER_2
 10
94.782
 20
210.7577
 42
0.4141971449
  0
SEQEND
  0
ENDBLK
  0
BLOCK
  8
LAYER_2
  2
AIGNBL020200C0
 70
64
 10
0
 20
0
 30
0
  3
AIGNBL020200C0
  0
POLYLINE
  8
LAYER_2
 40
0.2469
 41
0.2469
 66
1
 10
0
 20
0
 30
0
  0
VERTEX
  8
LAYER_2
 10
135.6041
 20
170.2726
 42
0.1309457556
  0
VERTEX
  8
LAYER_2
 10
135.5369
 20
170.0229
  0
SEQEND
  0
ENDBLK
  0
BLOCK
  8
LAYER_2
  2
AIGNBL020200C1
 70
64
 10
0
 20
0
 30
0
  3
AIGNBL020200C1
  0
POLYLINE
  8
LAYER_2
 40
0.2469
 41
0.2469
 66
1
 10
0
 20
0
 30
0
  0
VERTEX
  8
LAYER_2
 10
129.0371
 20
170.0229
 42
0.1319325561
  0
VERTEX
  8
LAYER_2
 10
128.9699
 20
170.2726
  0
SEQEND
  0
ENDBLK
  0
BLOCK
  8
LAYER_2
  2
AIGNBL020200C2
 70
64
 10
0
 20
0
 30
0
  3
AIGNBL020200C2
  0
POLYLINE
  8
LAYER_2
 40
0.2469
 41
0.2469
 66
1
 10
0
 20
0
 30
0
  0
VERTEX
  8
LAYER_2
 10
98.907
 20
173.5317
 42
0.4141720813
  0
VERTEX
  8
LAYER_2
 10
98.4071
 20
173.0318
  0
SEQEND
  0
ENDBLK
  0
BLOCK
  8
LAYER_2
  2
AIGNBL020200C3
 70
64
 10
0
 20
0
 30
0
  3
AIGNBL020200C3
  0
POLYLINE
  8
LAYER_2
 40
0.2469
 41
0.2469
 66
1
 10
0
 20
0
 30
0
  0
VERTEX
  8
LAYER_2
 10
98.4071
 20
181.2818
 42
0.4143127879
  0
VERTEX
  8
LAYER_2
 10
98.907
 20
180.7816
  0
SEQEND
  0
ENDBLK
  0
BLOCK
  8
LAYER_2
  2
AIGNBL020200C5
 70
64
 10
0
 20
0
 30
0
  3
AIGNBL020200C5
  0
POLYLINE
  8
LAYER_2
 40
0.2469
 41
0.2469
 66
1
 10
0
 20
0
 30
0
  0
VERTEX
  8
LAYER_2
 10
133.1619
 20
185.0817
  0
VERTEX
  8
LAYER_2
 10
133.1123
 20
185.0318
  0
SEQEND
  0
ENDBLK
  0
BLOCK
  8
LAYER_2
  2
AIGNBL020200C6
 70
64
 10
0
 20
0
 30
0
  3
AIGNBL020200C6
  0
POLYLINE
  8
LAYER_2
 40
0.2469
 41
0.2469
 66
1
 10
0
 20
0
 30
0
  0
VERTEX
  8
LAYER_2
 10
131.4121
 20
185.0817
  0
VERTEX
  8
LAYER_2
 10
131.4621
 20
185.0318
  0
SEQEND
  0
ENDBLK
  0
BLOCK
  8
LAYER_2
  2
AIGNBL020200C7
 70
64
 10
0
 20
0
 30
0
  3
AIGNBL020200C7
  0
POLYLINE
  8
LAYER_2
 40
0.2469
 41
0.2469
 66
1
 10
0
 20
0
 30
0
  0
VERTEX
  8
LAYER_2
 10
133.1619
 20
185.0817
  0
VERTEX
  8
LAYER_2
 10
133.1619
 20
185.4066
  0
SEQEND
  0
ENDBLK
  0
BLOCK
  8
LAYER_2
  2
AIGNBL020200C8
 70
64
 10
0
 20
0
 30
0
  3
AIGNBL020200C8
  0
POLYLINE
  8
LAYER_2
 40
0.2469
 41
0.2469
 66
1
 10
0
 20
0
 30
0
  0
VERTEX
  8
LAYER_2
 10
131.4121
 20
185.0817
  0
VERTEX
  8
LAYER_2
 10
131.4121
 20
185.4066
  0
SEQEND
  0
ENDBLK
  0
BLOCK
  8
LAYER_2
  2
AIGNBL020200C9
 70
64
 10
0
 20
0
 30
0
  3
AIGNBL020200C9
  0
POLYLINE
  8
LAYER_2
 40
0.2469
 41
0.2469
 66
1
 10
0
 20
0
 30
0
  0
VERTEX
  8
LAYER_2
 10
131.5372
 20
185.5316
  0
VERTEX
  8
LAYER_2
 10
133.0372
 20
185.5316
  0
SEQEND
  0
ENDBLK
  0
BLOCK
  8
LAYER_2
  2
AIGNBL020200CA
 70
64
 10
0
 20
0
 30
0
  3
AIGNBL020200CA
  0
POLYLINE
  8
LAYER_2
 40
0.2469
 41
0.2469
 66
1
 10
0
 20
0
 30
0
  0
VERTEX
  8
LAYER_2
 10
131.4621
 20
185.0318
  0
VERTEX
  8
LAYER_2
 10
133.1123
 20
185.0318
  0
SEQEND
  0
ENDBLK
  0
BLOCK
  8
LAYER_2
  2
AIGNBL020200CB
 70
64
 10
0
 20
0
 30
0
  3
AIGNBL020200CB
  0
POLYLINE
  8
LAYER_2
 40
0.2469
 41
0.2469
 66
1
 10
0
 20
0
 30
0
  0
VERTEX
  8
LAYER_2
 10
104.457
 20
185.0318
  0
VERTEX
  8
LAYER_2
 10
106.1071
 20
185.0318
  0
SEQEND
  0
ENDBLK
  0
BLOCK
  8
LAYER_2
  2
AIGNBL020200CC
 70
64
 10
0
 20
0
 30
0
  3
AIGNBL020200CC
  0
POLYLINE
  8
LAYER_2
 40
0.2469
 41
0.2469
 66
1
 10
0
 20
0
 30
0
  0
VERTEX
  8
LAYER_2
 10
104.5319
 20
185.5316
  0
VERTEX
  8
LAYER_2
 10
106.0319
 20
185.5316
  0
SEQEND
  0
ENDBLK
  0
BLOCK
  8
LAYER_2
  2
AIGNBL020200CD
 70
64
 10
0
 20
0
 30
0
  3
AIGNBL020200CD
  0
POLYLINE
  8
LAYER_2
 40
0.2469
 41
0.2469
 66
1
 10
0
 20
0
 30
0
  0
VERTEX
  8
LAYER_2
 10
106.157
 20
185.4066
  0
VERTEX
  8
LAYER_2
 10
106.157
 20
185.0817
  0
SEQEND
  0
ENDBLK
  0
BLOCK
  8
LAYER_2
  2
AIGNBL020200CE
 70
64
 10
0
 20
0
 30
0
  3
AIGNBL020200CE
  0
POLYLINE
  8
LAYER_2
 40
0.2469
 41
0.2469
 66
1
 10
0
 20
0
 30
0
  0
VERTEX
  8
LAYER_2
 10
104.4071
 20
185.4066
  0
VERTEX
  8
LAYER_2
 10
104.4071
 20
185.0817
  0
SEQEND
  0
ENDBLK
  0
BLOCK
  8
LAYER_2
  2
AIGNBL020200CF
 70
64
 10
0
 20
0
 30
0
  3
AIGNBL020200CF
  0
POLYLINE
  8
LAYER_2
 40
0.2469
 41
0.2469
 66
1
 10
0
 20
0
 30
0
  0
VERTEX
  8
LAYER_2
 10
106.1071
 20
185.0318
  0
VERTEX
  8
LAYER_2
 10
106.157
 20
185.0817
  0
SEQEND
  0
ENDBLK
  0
BLOCK
  8
LAYER_2
  2
AIGNBL020200D0
 70
64
 10
0
 20
0
 30
0
  3
AIGNBL020200D0
  0
POLYLINE
  8
LAYER_2
 40
0.2469
 41
0.2469
 66
1
 10
0
 20
0
 30
0
  0
VERTEX
  8
LAYER_2
 10
104.457
 20
185.0318
  0
VERTEX
  8
LAYER_2
 10
104.4071
 20
185.0817
  0
SEQEND
  0
ENDBLK
  0
BLOCK
  8
LAYER_2
  2
AIGNBL020200D1
 70
64
 10
0
 20
0
 30
0
  3
AIGNBL020200D1
  0
POLYLINE
  8
LAYER_2
  6
AIGENLINE001
 40
0.2469
 41
0.2469
 66
1
 10
0
 20
0
 30
0
 70
128
  0
VERTEX
  8
LAYER_2
 10
105.2819
 20
186.2817
  0
VERTEX
  8
LAYER_2
 10
105.2819
 20
183.3816
  0
SEQEND
  0
ENDBLK
  0
BLOCK
  8
LAYER_2
  2
AIGNBL020200D2
 70
64
 10
0
 20
0
 30
0
  3
AIGNBL020200D2
  0
POLYLINE
  8
LAYER_2
 40
0.2469
 41
0.2469
 66
1
 10
0
 20
0
 30
0
  0
VERTEX
  8
LAYER_2
 10
131.5372
 20
185.5316
 42
0.4142692665
  0
VERTEX
  8
LAYER_2
 10
131.4121
 20
185.4066
  0
SEQEND
  0
ENDBLK
  0
BLOCK
  8
LAYER_2
  2
AIGNBL020200D3
 70
64
 10
0
 20
0
 30
0
  3
AIGNBL020200D3
  0
POLYLINE
  8
LAYER_2
 40
0.2469
 41
0.2469
 66
1
 10
0
 20
0
 30
0
  0
VERTEX
  8
LAYER_2
 10
133.1619
 20
185.4066
 42
0.4147829529
  0
VERTEX
  8
LAYER_2
 10
133.0372
 20
185.5316
  0
SEQEND
  0
ENDBLK
  0
BLOCK
  8
LAYER_2
  2
AIGNBL020200D4
 70
64
 10
0
 20
0
 30
0
  3
AIGNBL020200D4
  0
POLYLINE
  8
LAYER_2
 40
0.2469
 41
0.2469
 66
1
 10
0
 20
0
 30
0
  0
VERTEX
  8
LAYER_2
 10
104.5319
 20
185.5316
 42
0.4149707995
  0
VERTEX
  8
LAYER_2
 10
104.4071
 20
185.4066
  0
SEQEND
  0
ENDBLK
  0
BLOCK
  8
LAYER_2
  2
AIGNBL020200D5
 70
64
 10
0
 20
0
 30
0
  3
AIGNBL020200D5
  0
POLYLINE
  8
LAYER_2
 40
0.2469
 41
0.2469
 66
1
 10
0
 20
0
 30
0
  0
VERTEX
  8
LAYER_2
 10
106.157
 20
185.4066
 42
0.4148624453
  0
VERTEX
  8
LAYER_2
 10
106.0319
 20
185.5316
  0
SEQEND
  0
ENDBLK
  0
BLOCK
  8
LAYER_2
  2
AIGNBL020200D7
 70
64
 10
0
 20
0
 30
0
  3
AIGNBL020200D7
  0
POLYLINE
  8
LAYER_2
  6
AIGENLINE001
 40
0.2469
 41
0.2469
 66
1
 10
0
 20
0
 30
0
 70
128
  0
VERTEX
  8
LAYER_2
 10
105.407
 20
214.8827
  0
VERTEX
  8
LAYER_2
 10
105.407
 20
211.8827
  0
SEQEND
  0
ENDBLK
  0
BLOCK
  8
LAYER_2
  2
AIGNBL020200D8
 70
64
 10
0
 20
0
 30
0
  3
AIGNBL020200D8
  0
POLYLINE
  8
LAYER_2
 40
0.2469
 41
0.2469
 66
1
 10
0
 20
0
 30
0
  0
VERTEX
  8
LAYER_2
 10
105.2819
 20
209.7577
  0
VERTEX
  8
LAYER_2
 10
100.907
 20
209.7577
  0
SEQEND
  0
ENDBLK
  0
BLOCK
  8
LAYER_2
  2
AIGNBL020200D9
 70
64
 10
0
 20
0
 30
0
  3
AIGNBL020200D9
  0
POLYLINE
  8
LAYER_2
 40
0.2469
 41
0.2469
 66
1
 10
0
 20
0
 30
0
  0
VERTEX
  8
LAYER_2
 10
100.907
 20
217.0078
  0
VERTEX
  8
LAYER_2
 10
107.807
 20
217.0078
  0
SEQEND
  0
ENDBLK
  0
BLOCK
  8
LAYER_2
  2
AIGNBL020200DA
 70
64
 10
0
 20
0
 30
0
  3
AIGNBL020200DA
  0
POLYLINE
  8
LAYER_2
 40
0.2469
 41
0.2469
 66
1
 10
0
 20
0
 30
0
  0
VERTEX
  8
LAYER_2
 10
100.907
 20
209.7577
  0
VERTEX
  8
LAYER_2
 10
100.907
 20
217.0078
  0
SEQEND
  0
ENDBLK
  0
BLOCK
  8
LAYER_2
  2
AIGNBL020200DB
 70
64
 10
0
 20
0
 30
0
  3
AIGNBL020200DB
  0
POLYLINE
  8
LAYER_2
 40
0.2469
 41
0.2469
 66
1
 10
0
 20
0
 30
0
  0
VERTEX
  8
LAYER_2
 10
106.6319
 20
209.7577
  0
VERTEX
  8
LAYER_2
 10
105.2819
 20
209.7577
  0
SEQEND
  0
ENDBLK
  0
BLOCK
  8
LAYER_2
  2
AIGNBL020200DC
 70
64
 10
0
 20
0
 30
0
  3
AIGNBL020200DC
  0
POLYLINE
  8
LAYER_2
 40
0.2469
 41
0.2469
 66
1
 10
0
 20
0
 30
0
  0
VERTEX
  8
LAYER_2
 10
100.907
 20
210.0828
  0
VERTEX
  8
LAYER_2
 10
100.907
 20
210.0077
  0
SEQEND
  0
ENDBLK
  0
BLOCK
  8
LAYER_2
  2
AIGNBL020200DD
 70
64
 10
0
 20
0
 30
0
  3
AIGNBL020200DD
  0
POLYLINE
  8
LAYER_2
 40
0.2469
 41
0.2469
 66
1
 10
0
 20
0
 30
0
  0
VERTEX
  8
LAYER_2
 10
107.807
 20
209.7577
  0
VERTEX
  8
LAYER_2
 10
106.6319
 20
209.7577
  0
SEQEND
  0
ENDBLK
  0
BLOCK
  8
LAYER_2
  2
AIGNBL020200DE
 70
64
 10
0
 20
0
 30
0
  3
AIGNBL020200DE
  0
POLYLINE
  8
LAYER_2
 40
0.2469
 41
0.2469
 66
1
 10
0
 20
0
 30
0
  0
VERTEX
  8
LAYER_2
 10
108.032
 20
216.7827
  0
VERTEX
  8
LAYER_2
 10
108.032
 20
209.9827
  0
SEQEND
  0
ENDBLK
  0
BLOCK
  8
LAYER_2
  2
AIGNBL020200DF
 70
64
 10
0
 20
0
 30
0
  3
AIGNBL020200DF
  0
POLYLINE
  8
LAYER_2
 40
0.2469
 41
0.2469
 66
1
 10
0
 20
0
 30
0
  0
VERTEX
  8
LAYER_2
 10
100.907
 20
210.1327
  0
VERTEX
  8
LAYER_2
 10
100.907
 20
210.0077
  0
SEQEND
  0
ENDBLK
  0
BLOCK
  8
LAYER_2
  2
AIGNBL020200E0
 70
64
 10
0
 20
0
 30
0
  3
AIGNBL020200E0
  0
POLYLINE
  8
LAYER_2
 40
0.2469
 41
0.2469
 66
1
 10
0
 20
0
 30
0
  0
VERTEX
  8
LAYER_2
 10
100.782
 20
173.9065
  0
VERTEX
  8
LAYER_2
 10
100.782
 20
173.7818
  0
SEQEND
  0
ENDBLK
  0
BLOCK
  8
LAYER_2
  2
AIGNBL020200E1
 70
64
 10
0
 20
0
 30
0
  3
AIGNBL020200E1
  0
POLYLINE
  8
LAYER_2
 40
0.2469
 41
0.2469
 66
1
 10
0
 20
0
 30
0
  0
VERTEX
  8
LAYER_2
 10
107.9069
 20
180.5566
  0
VERTEX
  8
LAYER_2
 10
107.9069
 20
173.7567
  0
SEQEND
  0
ENDBLK
  0
BLOCK
  8
LAYER_2
  2
AIGNBL020200E2
 70
64
 10
0
 20
0
 30
0
  3
AIGNBL020200E2
  0
POLYLINE
  8
LAYER_2
 40
0.2469
 41
0.2469
 66
1
 10
0
 20
0
 30
0
  0
VERTEX
  8
LAYER_2
 10
107.682
 20
173.5317
  0
VERTEX
  8
LAYER_2
 10
106.507
 20
173.5317
  0
SEQEND
  0
ENDBLK
  0
BLOCK
  8
LAYER_2
  2
AIGNBL020200E3
 70
64
 10
0
 20
0
 30
0
  3
AIGNBL020200E3
  0
POLYLINE
  8
LAYER_2
 40
0.2469
 41
0.2469
 66
1
 10
0
 20
0
 30
0
  0
VERTEX
  8
LAYER_2
 10
100.782
 20
173.8566
  0
VERTEX
  8
LAYER_2
 10
100.782
 20
173.7818
  0
SEQEND
  0
ENDBLK
  0
BLOCK
  8
LAYER_2
  2
AIGNBL020200E4
 70
64
 10
0
 20
0
 30
0
  3
AIGNBL020200E4
  0
POLYLINE
  8
LAYER_2
 40
0.2469
 41
0.2469
 66
1
 10
0
 20
0
 30
0
  0
VERTEX
  8
LAYER_2
 10
106.507
 20
173.5317
  0
VERTEX
  8
LAYER_2
 10
105.1571
 20
173.5317
  0
SEQEND
  0
ENDBLK
  0
BLOCK
  8
LAYER_2
  2
AIGNBL020200E5
 70
64
 10
0
 20
0
 30
0
  3
AIGNBL020200E5
  0
POLYLINE
  8
LAYER_2
 40
0.2469
 41
0.2469
 66
1
 10
0
 20
0
 30
0
  0
VERTEX
  8
LAYER_2
 10
100.782
 20
173.5317
  0
VERTEX
  8
LAYER_2
 10
100.782
 20
180.7816
  0
SEQEND
  0
ENDBLK
  0
BLOCK
  8
LAYER_2
  2
AIGNBL020200E6
 70
64
 10
0
 20
0
 30
0
  3
AIGNBL020200E6
  0
POLYLINE
  8
LAYER_2
 40
0.2469
 41
0.2469
 66
1
 10
0
 20
0
 30
0
  0
VERTEX
  8
LAYER_2
 10
100.782
 20
180.7816
  0
VERTEX
  8
LAYER_2
 10
104.4071
 20
180.7816
  0
SEQEND
  0
ENDBLK
  0
BLOCK
  8
LAYER_2
  2
AIGNBL020200E7
 70
64
 10
0
 20
0
 30
0
  3
AIGNBL020200E7
  0
POLYLINE
  8
LAYER_2
 40
0.2469
 41
0.2469
 66
1
 10
0
 20
0
 30
0
  0
VERTEX
  8
LAYER_2
 10
105.1571
 20
173.5317
  0
VERTEX
  8
LAYER_2
 10
100.782
 20
173.5317
  0
SEQEND
  0
ENDBLK
  0
BLOCK
  8
LAYER_2
  2
AIGNBL020200E8
 70
64
 10
0
 20
0
 30
0
  3
AIGNBL020200E8
  0
POLYLINE
  8
LAYER_2
  6
AIGENLINE001
 40
0.2469
 41
0.2469
 66
1
 10
0
 20
0
 30
0
 70
128
  0
VERTEX
  8
LAYER_2
 10
100.382
 20
177.1566
  0
VERTEX
  8
LAYER_2
 10
108.2821
 20
177.1566
  0
SEQEND
  0
ENDBLK
  0
BLOCK
  8
LAYER_2
  2
AIGNBL020200E9
 70
64
 10
0
 20
0
 30
0
  3
AIGNBL020200E9
  0
POLYLINE
  8
LAYER_2
  6
AIGENLINE001
 40
0.2469
 41
0.2469
 66
1
 10
0
 20
0
 30
0
 70
128
  0
VERTEX
  8
LAYER_2
 10
105.2819
 20
181.1567
  0
VERTEX
  8
LAYER_2
 10
105.2819
 20
178.8816
  0
SEQEND
  0
ENDBLK
  0
BLOCK
  8
LAYER_2
  2
AIGNBL020200EA
 70
64
 10
0
 20
0
 30
0
  3
AIGNBL020200EA
  0
POLYLINE
  8
LAYER_2
 40
0.2469
 41
0.2469
 66
1
 10
0
 20
0
 30
0
  0
VERTEX
  8
LAYER_2
 10
106.157
 20
180.7816
  0
VERTEX
  8
LAYER_2
 10
107.682
 20
180.7816
  0
SEQEND
  0
ENDBLK
  0
BLOCK
  8
LAYER_2
  2
AIGNBL020200EB
 70
64
 10
0
 20
0
 30
0
  3
AIGNBL020200EB
  0
POLYLINE
  8
LAYER_2
 40
0.2469
 41
0.2469
 66
1
 10
0
 20
0
 30
0
  0
VERTEX
  8
LAYER_2
 10
104.4071
 20
180.7816
 42
0.1222536131
  0
VERTEX
  8
LAYER_2
 10
106.157
 20
180.7816
  0
SEQEND
  0
ENDBLK
  0
BLOCK
  8
LAYER_2
  2
AIGNBL020200EC
 70
64
 10
0
 20
0
 30
0
  3
AIGNBL020200EC
  0
POLYLINE
  8
LAYER_2
 40
0.2469
 41
0.2469
 66
1
 10
0
 20
0
 30
0
 70
1
  0
VERTEX
  8
LAYER_2
 10
106.157
 20
213.3827
 42
0.4142646168
  0
VERTEX
  8
LAYER_2
 10
105.407
 20
214.1326
 42
0.4142656123
  0
VERTEX
  8
LAYER_2
 10
104.657
 20
213.3827
 42
0.4142905209
  0
VERTEX
  8
LAYER_2
 10
105.407
 20
212.6327
 42
0.4142895253
  0
SEQEND
  0
ENDBLK
  0
BLOCK
  8
LAYER_2
  2
AIGNBL020200ED
 70
64
 10
0
 20
0
 30
0
  3
AIGNBL020200ED
  0
POLYLINE
  8
LAYER_2
 40
0.2469
 41
0.2469
 66
1
 10
0
 20
0
 30
0
 70
1
  0
VERTEX
  8
LAYER_2
 10
135.9121
 20
177.1566
 42
0.4142609336
  0
VERTEX
  8
LAYER_2
 10
132.2868
 20
180.7816
 42
0.4142032127
  0
VERTEX
  8
LAYER_2
 10
128.6619
 20
177.1566
 42
0.4141611108
  0
VERTEX
  8
LAYER_2
 10
132.2868
 20
173.5317
 42
0.4142188335
  0
SEQEND
  0
ENDBLK
  0
BLOCK
  8
LAYER_2
  2
AIGNBL020200EE
 70
64
 10
0
 20
0
 30
0
  3
AIGNBL020200EE
  0
POLYLINE
  8
LAYER_2
 40
0.2469
 41
0.2469
 66
1
 10
0
 20
0
 30
0
  0
VERTEX
  8
LAYER_2
 10
107.807
 20
209.7577
 42
0.4141112812
  0
VERTEX
  8
LAYER_2
 10
108.032
 20
209.9827
  0
SEQEND
  0
ENDBLK
  0
BLOCK
  8
LAYER_2
  2
AIGNBL020200EF
 70
64
 10
0
 20
0
 30
0
  3
AIGNBL020200EF
  0
POLYLINE
  8
LAYER_2
 40
0.2469
 41
0.2469
 66
1
 10
0
 20
0
 30
0
  0
VERTEX
  8
LAYER_2
 10
108.032
 20
216.7827
 42
0.4141628824
  0
VERTEX
  8
LAYER_2
 10
107.807
 20
217.0078
  0
SEQEND
  0
ENDBLK
  0
BLOCK
  8
LAYER_2
  2
AIGNBL020200F0
 70
64
 10
0
 20
0
 30
0
  3
AIGNBL020200F0
  0
POLYLINE
  8
LAYER_2
 40
0.2469
 41
0.2469
 66
1
 10
0
 20
0
 30
0
  0
VERTEX
  8
LAYER_2
 10
107.9069
 20
180.5566
 42
0.4142880978
  0
VERTEX
  8
LAYER_2
 10
107.682
 20
180.7816
  0
SEQEND
  0
ENDBLK
  0
BLOCK
  8
LAYER_2
  2
AIGNBL020200F1
 70
64
 10
0
 20
0
 30
0
  3
AIGNBL020200F1
  0
POLYLINE
  8
LAYER_2
 40
0.2469
 41
0.2469
 66
1
 10
0
 20
0
 30
0
  0
VERTEX
  8
LAYER_2
 10
107.682
 20
173.5317
 42
0.4143769422
  0
VERTEX
  8
LAYER_2
 10
107.9069
 20
173.7567
  0
SEQEND
  0
ENDBLK
  0
BLOCK
  8
LAYER_2
  2
AIGNBL020200F3
 70
64
 10
0
 20
0
 30
0
  3
AIGNBL020200F3
  0
POLYLINE
  8
LAYER_2
  6
AIGENLINE001
 40
0.2469
 41
0.2469
 66
1
 10
0
 20
0
 30
0
 70
128
  0
VERTEX
  8
LAYER_2
 10
132.2868
 20
178.0317
  0
VERTEX
  8
LAYER_2
 10
132.2868
 20
185.7818
  0
SEQEND
  0
ENDBLK
  0
BLOCK
  8
LAYER_2
  2
AIGNBL020200F4
 70
64
 10
0
 20
0
 30
0
  3
AIGNBL020200F4
  0
POLYLINE
  8
LAYER_2
 40
0.2469
 41
0.2469
 66
1
 10
0
 20
0
 30
0
  0
VERTEX
  8
LAYER_2
 10
131.4621
 20
185.0318
  0
VERTEX
  8
LAYER_2
 10
131.4121
 20
184.9818
  0
SEQEND
  0
ENDBLK
  0
BLOCK
  8
LAYER_2
  2
AIGNBL020200F5
 70
64
 10
0
 20
0
 30
0
  3
AIGNBL020200F5
  0
POLYLINE
  8
LAYER_2
 40
0.2469
 41
0.2469
 66
1
 10
0
 20
0
 30
0
  0
VERTEX
  8
LAYER_2
 10
131.4121
 20
184.9818
  0
VERTEX
  8
LAYER_2
 10
131.4121
 20
180.6744
  0
SEQEND
  0
ENDBLK
  0
BLOCK
  8
LAYER_2
  2
AIGNBL020200F6
 70
64
 10
0
 20
0
 30
0
  3
AIGNBL020200F6
  0
POLYLINE
  8
LAYER_2
 40
0.2469
 41
0.2469
 66
1
 10
0
 20
0
 30
0
  0
VERTEX
  8
LAYER_2
 10
133.1619
 20
180.6744
  0
VERTEX
  8
LAYER_2
 10
133.1619
 20
184.9818
  0
SEQEND
  0
ENDBLK
  0
BLOCK
  8
LAYER_2
  2
AIGNBL020200F7
 70
64
 10
0
 20
0
 30
0
  3
AIGNBL020200F7
  0
POLYLINE
  8
LAYER_2
 40
0.2469
 41
0.2469
 66
1
 10
0
 20
0
 30
0
  0
VERTEX
  8
LAYER_2
 10
131.4621
 20
185.0318
  0
VERTEX
  8
LAYER_2
 10
133.1123
 20
185.0318
  0
SEQEND
  0
ENDBLK
  0
BLOCK
  8
LAYER_2
  2
AIGNBL020200F8
 70
64
 10
0
 20
0
 30
0
  3
AIGNBL020200F8
  0
POLYLINE
  8
LAYER_2
 40
0.2469
 41
0.2469
 66
1
 10
0
 20
0
 30
0
  0
VERTEX
  8
LAYER_2
 10
133.1619
 20
184.9818
  0
VERTEX
  8
LAYER_2
 10
133.1123
 20
185.0318
  0
SEQEND
  0
ENDBLK
  0
BLOCK
  8
LAYER_2
  2
AIGNBL020200F9
 70
64
 10
0
 20
0
 30
0
  3
AIGNBL020200F9
  0
POLYLINE
  8
LAYER_2
 40
0.2469
 41
0.2469
 66
1
 10
0
 20
0
 30
0
  0
VERTEX
  8
LAYER_2
 10
106.157
 20
184.9818
  0
VERTEX
  8
LAYER_2
 10
106.1071
 20
185.0318
  0
SEQEND
  0
ENDBLK
  0
BLOCK
  8
LAYER_2
  2
AIGNBL020200FA
 70
64
 10
0
 20
0
 30
0
  3
AIGNBL020200FA
  0
POLYLINE
  8
LAYER_2
 40
0.2469
 41
0.2469
 66
1
 10
0
 20
0
 30
0
  0
VERTEX
  8
LAYER_2
 10
104.457
 20
185.0318
  0
VERTEX
  8
LAYER_2
 10
106.1071
 20
185.0318
  0
SEQEND
  0
ENDBLK
  0
BLOCK
  8
LAYER_2
  2
AIGNBL020200FB
 70
64
 10
0
 20
0
 30
0
  3
AIGNBL020200FB
  0
POLYLINE
  8
LAYER_2
  6
AIGENLINE001
 40
0.2469
 41
0.2469
 66
1
 10
0
 20
0
 30
0
 70
128
  0
VERTEX
  8
LAYER_2
 10
105.2819
 20
185.7818
  0
VERTEX
  8
LAYER_2
 10
105.2819
 20
178.0317
  0
SEQEND
  0
ENDBLK
  0
BLOCK
  8
LAYER_2
  2
AIGNBL020200FC
 70
64
 10
0
 20
0
 30
0
  3
AIGNBL020200FC
  0
POLYLINE
  8
LAYER_2
 40
0.2469
 41
0.2469
 66
1
 10
0
 20
0
 30
0
  0
VERTEX
  8
LAYER_2
 10
104.457
 20
185.0318
  0
VERTEX
  8
LAYER_2
 10
104.4071
 20
184.9818
  0
SEQEND
  0
ENDBLK
  0
BLOCK
  8
LAYER_2
  2
AIGNBL020200FD
 70
64
 10
0
 20
0
 30
0
  3
AIGNBL020200FD
  0
POLYLINE
  8
LAYER_2
 40
0.2469
 41
0.2469
 66
1
 10
0
 20
0
 30
0
  0
VERTEX
  8
LAYER_2
 10
106.157
 20
180.7816
  0
VERTEX
  8
LAYER_2
 10
106.157
 20
184.9818
  0
SEQEND
  0
ENDBLK
  0
BLOCK
  8
LAYER_2
  2
AIGNBL020200FE
 70
64
 10
0
 20
0
 30
0
  3
AIGNBL020200FE
  0
POLYLINE
  8
LAYER_2
 40
0.2469
 41
0.2469
 66
1
 10
0
 20
0
 30
0
  0
VERTEX
  8
LAYER_2
 10
104.4071
 20
184.9818
  0
VERTEX
  8
LAYER_2
 10
104.4071
 20
180.7816
  0
SEQEND
  0
ENDBLK
  0
BLOCK
  8
LAYER_2
  2
AIGNBL02020100
 70
64
 10
0
 20
0
 30
0
  3
AIGNBL02020100
  0
POLYLINE
  8
LAYER_2
 40
0.2469
 41
0.2469
 66
1
 10
0
 20
0
 30
0
  0
VERTEX
  8
LAYER_2
 10
139.2873
 20
74.9067
  0
VERTEX
  8
LAYER_2
 10
125.2871
 20
74.9067
  0
SEQEND
  0
ENDBLK
  0
BLOCK
  8
LAYER_2
  2
AIGNBL02020101
 70
64
 10
0
 20
0
 30
0
  3
AIGNBL02020101
  0
POLYLINE
  8
LAYER_2
 40
0.2469
 41
0.2469
 66
1
 10
0
 20
0
 30
0
  0
VERTEX
  8
LAYER_2
 10
124.7869
 20
71.1564
  0
VERTEX
  8
LAYER_2
 10
124.7869
 20
74.4065
  0
SEQEND
  0
ENDBLK
  0
BLOCK
  8
LAYER_2
  2
AIGNBL02020102
 70
64
 10
0
 20
0
 30
0
  3
AIGNBL02020102
  0
POLYLINE
  8
LAYER_2
 40
0.2469
 41
0.2469
 66
1
 10
0
 20
0
 30
0
  0
VERTEX
  8
LAYER_2
 10
139.7872
 20
71.1564
  0
VERTEX
  8
LAYER_2
 10
139.7872
 20
74.4065
  0
SEQEND
  0
ENDBLK
  0
BLOCK
  8
LAYER_2
  2
AIGNBL02020103
 70
64
 10
0
 20
0
 30
0
  3
AIGNBL02020103
  0
POLYLINE
  8
LAYER_2
  6
AIGENLINE001
 40
0.2469
 41
0.2469
 66
1
 10
0
 20
0
 30
0
 70
128
  0
VERTEX
  8
LAYER_2
 10
132.2868
 20
75.6564
  0
VERTEX
  8
LAYER_2
 10
132.2868
 20
70.4067
  0
SEQEND
  0
ENDBLK
  0
BLOCK
  8
LAYER_2
  2
AIGNBL02020104
 70
64
 10
0
 20
0
 30
0
  3
AIGNBL02020104
  0
POLYLINE
  8
LAYER_2
 40
0.2469
 41
0.2469
 66
1
 10
0
 20
0
 30
0
  0
VERTEX
  8
LAYER_2
 10
139.7872
 20
71.1564
  0
VERTEX
  8
LAYER_2
 10
124.7869
 20
71.1564
  0
SEQEND
  0
ENDBLK
  0
BLOCK
  8
LAYER_2
  2
AIGNBL02020105
 70
64
 10
0
 20
0
 30
0
  3
AIGNBL02020105
  0
POLYLINE
  8
LAYER_2
 40
0.2469
 41
0.2469
 66
1
 10
0
 20
0
 30
0
  0
VERTEX
  8
LAYER_2
 10
102.282
 20
71.1564
  0
VERTEX
  8
LAYER_2
 10
87.282
 20
71.1564
  0
SEQEND
  0
ENDBLK
  0
BLOCK
  8
LAYER_2
  2
AIGNBL02020106
 70
64
 10
0
 20
0
 30
0
  3
AIGNBL02020106
  0
POLYLINE
  8
LAYER_2
  6
AIGENLINE001
 40
0.2469
 41
0.2469
 66
1
 10
0
 20
0
 30
0
 70
128
  0
VERTEX
  8
LAYER_2
 10
94.782
 20
75.6564
  0
VERTEX
  8
LAYER_2
 10
94.782
 20
70.4067
  0
SEQEND
  0
ENDBLK
  0
BLOCK
  8
LAYER_2
  2
AIGNBL02020107
 70
64
 10
0
 20
0
 30
0
  3
AIGNBL02020107
  0
POLYLINE
  8
LAYER_2
 40
0.2469
 41
0.2469
 66
1
 10
0
 20
0
 30
0
  0
VERTEX
  8
LAYER_2
 10
102.282
 20
71.1564
  0
VERTEX
  8
LAYER_2
 10
102.282
 20
74.4065
  0
SEQEND
  0
ENDBLK
  0
BLOCK
  8
LAYER_2
  2
AIGNBL02020108
 70
64
 10
0
 20
0
 30
0
  3
AIGNBL02020108
  0
POLYLINE
  8
LAYER_2
 40
0.2469
 41
0.2469
 66
1
 10
0
 20
0
 30
0
  0
VERTEX
  8
LAYER_2
 10
87.282
 20
71.1564
  0
VERTEX
  8
LAYER_2
 10
87.282
 20
74.4065
  0
SEQEND
  0
ENDBLK
  0
BLOCK
  8
LAYER_2
  2
AIGNBL02020109
 70
64
 10
0
 20
0
 30
0
  3
AIGNBL02020109
  0
POLYLINE
  8
LAYER_2
 40
0.2469
 41
0.2469
 66
1
 10
0
 20
0
 30
0
  0
VERTEX
  8
LAYER_2
 10
101.7819
 20
74.9067
  0
VERTEX
  8
LAYER_2
 10
87.7821
 20
74.9067
  0
SEQEND
  0
ENDBLK
  0
BLOCK
  8
LAYER_2
  2
AIGNBL0202010A
 70
64
 10
0
 20
0
 30
0
  3
AIGNBL0202010A
  0
POLYLINE
  8
LAYER_2
 40
0.2469
 41
0.2469
 66
1
 10
0
 20
0
 30
0
  0
VERTEX
  8
LAYER_2
 10
101.3478
 20
217.0078
 42
0.414197061
  0
VERTEX
  8
LAYER_2
 10
91.1569
 20
219.9485
 42
0.4142034612
  0
VERTEX
  8
LAYER_2
 10
88.2161
 20
209.7577
 42
0.4141971834
  0
VERTEX
  8
LAYER_2
 10
98.4071
 20
206.8168
 42
0.141387977
  0
VERTEX
  8
LAYER_2
 10
101.3478
 20
209.7577
  0
SEQEND
  0
ENDBLK
  0
BLOCK
  8
LAYER_2
  2
AIGNBL0202010B
 70
64
 10
0
 20
0
 30
0
  3
AIGNBL0202010B
  0
POLYLINE
  8
LAYER_2
 40
0.2469
 41
0.2469
 66
1
 10
0
 20
0
 30
0
  0
VERTEX
  8
LAYER_2
 10
139.7872
 20
74.4065
 42
0.4141017814
  0
VERTEX
  8
LAYER_2
 10
139.2873
 20
74.9067
  0
SEQEND
  0
ENDBLK
  0
BLOCK
  8
LAYER_2
  2
AIGNBL0202010C
 70
64
 10
0
 20
0
 30
0
  3
AIGNBL0202010C
  0
POLYLINE
  8
LAYER_2
 40
0.2469
 41
0.2469
 66
1
 10
0
 20
0
 30
0
  0
VERTEX
  8
LAYER_2
 10
125.2871
 20
74.9067
 42
0.4142547704
  0
VERTEX
  8
LAYER_2
 10
124.7869
 20
74.4065
  0
SEQEND
  0
ENDBLK
  0
BLOCK
  8
LAYER_2
  2
AIGNBL0202010D
 70
64
 10
0
 20
0
 30
0
  3
AIGNBL0202010D
  0
POLYLINE
  8
LAYER_2
 40
0.2469
 41
0.2469
 66
1
 10
0
 20
0
 30
0
  0
VERTEX
  8
LAYER_2
 10
87.7821
 20
74.9067
 42
0.4143155673
  0
VERTEX
  8
LAYER_2
 10
87.282
 20
74.4065
  0
SEQEND
  0
ENDBLK
  0
BLOCK
  8
LAYER_2
  2
AIGNBL0202010E
 70
64
 10
0
 20
0
 30
0
  3
AIGNBL0202010E
  0
POLYLINE
  8
LAYER_2
 40
0.2469
 41
0.2469
 66
1
 10
0
 20
0
 30
0
  0
VERTEX
  8
LAYER_2
 10
102.282
 20
74.4065
 42
0.4142979495
  0
VERTEX
  8
LAYER_2
 10
101.7819
 20
74.9067
  0
SEQEND
  0
ENDBLK
  0
BLOCK
  8
LAYER_2
  2
AIGNBL02020110
 70
64
 10
0
 20
0
 30
0
  3
AIGNBL02020110
  0
INSERT
  8
LAYER_2
  2
AIGNBL02030111
 10
0
 20
0
 30
0
  0
ENDBLK
  0
BLOCK
  8
LAYER_2
  2
AIGNBL02020112
 70
64
 10
0
 20
0
 30
0
  3
AIGNBL02020112
  0
INSERT
  8
LAYER_2
  2
AIGNBL02030113
 10
0
 20
0
 30
0
  0
ENDBLK
  0
BLOCK
  8
LAYER_2
  2
AIGNBL0202014E
 70
64
 10
0
 20
0
 30
0
  3
AIGNBL0202014E
  0
POLYLINE
  8
LAYER_2
 40
0.2469
 41
0.2469
 66
1
 10
0
 20
0
 30
0
  0
VERTEX
  8
LAYER_2
 10
79.782
 20
177.1566
  0
VERTEX
  8
LAYER_2
 10
79.782
 20
66.1569
  0
SEQEND
  0
ENDBLK
  0
BLOCK
  8
LAYER_2
  2
AIGNBL0202014F
 70
64
 10
0
 20
0
 30
0
  3
AIGNBL0202014F
  0
POLYLINE
  8
LAYER_2
 40
0.2469
 41
0.2469
 66
1
 10
0
 20
0
 30
0
  0
VERTEX
  8
LAYER_2
 10
90.4069
 20
177.1566
  0
VERTEX
  8
LAYER_2
 10
79.032
 20
177.1566
  0
SEQEND
  0
ENDBLK
  0
BLOCK
  8
LAYER_2
  2
AIGNBL02020150
 70
64
 10
0
 20
0
 30
0
  3
AIGNBL02020150
  0
POLYLINE
  8
LAYER_2
 40
0.2469
 41
0.2469
 66
1
 10
0
 20
0
 30
0
  0
VERTEX
  8
LAYER_2
 10
92.5957
 20
66.1569
  0
VERTEX
  8
LAYER_2
 10
79.032
 20
66.1569
  0
SEQEND
  0
ENDBLK
  0
BLOCK
  8
LAYER_2
  2
AIGNBL02020151
 70
64
 10
0
 20
0
 30
0
  3
AIGNBL02020151
  0
POLYLINE
  8
LAYER_2
 40
0.05
 41
0.05
 66
1
 10
0
 20
0
 30
0
 70
1
  0
VERTEX
  8
LAYER_2
 10
80.1276
 20
174.5318
  0
VERTEX
  8
LAYER_2
 10
79.4363
 20
174.5318
  0
VERTEX
  8
LAYER_2
 10
79.782
 20
177.1566
  0
SEQEND
  0
ENDBLK
  0
BLOCK
  8
LAYER_2
  2
AIGNBL02020152
 70
64
 10
0
 20
0
 30
0
  3
AIGNBL02020152
  0
POLYLINE
  8
LAYER_2
 40
0.05
 41
0.05
 66
1
 10
0
 20
0
 30
0
 70
1
  0
VERTEX
  8
LAYER_2
 10
79.4363
 20
68.7813
  0
VERTEX
  8
LAYER_2
 10
80.1276
 20
68.7813
  0
VERTEX
  8
LAYER_2
 10
79.782
 20
66.1569
  0
SEQEND
  0
ENDBLK
  0
BLOCK
  8
LAYER_2
  2
AIGNBL02020153
 70
64
 10
0
 20
0
 30
0
  3
AIGNBL02020153
  0
TEXT
  8
LAYER_2
 10
79.1864
 20
118.169
 11
79.1864
 21
118.169
 40
4.7014
 41
0.5
 50
89.99999999
  1
444
  0
ENDBLK
  0
BLOCK
  8
LAYER_2
  2
AIGNBL02020155
 70
64
 10
0
 20
0
 30
0
  3
AIGNBL02020155
  0
POLYLINE
  8
LAYER_2
 40
0.2469
 41
0.2469
 66
1
 10
0
 20
0
 30
0
  0
VERTEX
  8
LAYER_2
 10
87.282
 20
58.6569
  0
VERTEX
  8
LAYER_2
 10
102.282
 20
58.6569
  0
SEQEND
  0
ENDBLK
  0
BLOCK
  8
LAYER_2
  2
AIGNBL02020156
 70
64
 10
0
 20
0
 30
0
  3
AIGNBL02020156
  0
POLYLINE
  8
LAYER_2
 40
0.2469
 41
0.2469
 66
1
 10
0
 20
0
 30
0
  0
VERTEX
  8
LAYER_2
 10
87.282
 20
71.1564
  0
VERTEX
  8
LAYER_2
 10
87.282
 20
57.9065
  0
SEQEND
  0
ENDBLK
  0
BLOCK
  8
LAYER_2
  2
AIGNBL02020157
 70
64
 10
0
 20
0
 30
0
  3
AIGNBL02020157
  0
POLYLINE
  8
LAYER_2
 40
0.2469
 41
0.2469
 66
1
 10
0
 20
0
 30
0
  0
VERTEX
  8
LAYER_2
 10
102.282
 20
71.1564
  0
VERTEX
  8
LAYER_2
 10
102.282
 20
57.9065
  0
SEQEND
  0
ENDBLK
  0
BLOCK
  8
LAYER_2
  2
AIGNBL02020158
 70
64
 10
0
 20
0
 30
0
  3
AIGNBL02020158
  0
POLYLINE
  8
LAYER_2
 40
0.05
 41
0.05
 66
1
 10
0
 20
0
 30
0
 70
1
  0
VERTEX
  8
LAYER_2
 10
89.907
 20
59.0021
  0
VERTEX
  8
LAYER_2
 10
89.907
 20
58.311
  0
VERTEX
  8
LAYER_2
 10
87.282
 20
58.6569
  0
SEQEND
  0
ENDBLK
  0
BLOCK
  8
LAYER_2
  2
AIGNBL02020159
 70
64
 10
0
 20
0
 30
0
  3
AIGNBL02020159
  0
POLYLINE
  8
LAYER_2
 40
0.05
 41
0.05
 66
1
 10
0
 20
0
 30
0
 70
1
  0
VERTEX
  8
LAYER_2
 10
99.657
 20
58.311
  0
VERTEX
  8
LAYER_2
 10
99.657
 20
59.0021
  0
VERTEX
  8
LAYER_2
 10
102.282
 20
58.6569
  0
SEQEND
  0
ENDBLK
  0
BLOCK
  8
LAYER_2
  2
AIGNBL0202015A
 70
64
 10
0
 20
0
 30
0
  3
AIGNBL0202015A
  0
TEXT
  8
LAYER_2
 10
93.2332
 20
59.6258
 11
93.2332
 21
59.6258
 40
4.7014
 41
0.5
  1
60
  0
ENDBLK
  0
BLOCK
  8
LAYER_2
  2
AIGNBL0202015C
 70
64
 10
0
 20
0
 30
0
  3
AIGNBL0202015C
  0
POLYLINE
  8
LAYER_2
 40
0.2469
 41
0.2469
 66
1
 10
0
 20
0
 30
0
  0
VERTEX
  8
LAYER_2
 10
109.7821
 20
80.1563
  0
VERTEX
  8
LAYER_2
 10
109.7821
 20
74.9067
  0
SEQEND
  0
ENDBLK
  0
BLOCK
  8
LAYER_2
  2
AIGNBL0202015D
 70
64
 10
0
 20
0
 30
0
  3
AIGNBL0202015D
  0
POLYLINE
  8
LAYER_2
 40
0.2469
 41
0.2469
 66
1
 10
0
 20
0
 30
0
  0
VERTEX
  8
LAYER_2
 10
109.7821
 20
74.9067
  0
VERTEX
  8
LAYER_2
 10
109.7821
 20
71.1564
  0
SEQEND
  0
ENDBLK
  0
BLOCK
  8
LAYER_2
  2
AIGNBL0202015E
 70
64
 10
0
 20
0
 30
0
  3
AIGNBL0202015E
  0
POLYLINE
  8
LAYER_2
 40
0.2469
 41
0.2469
 66
1
 10
0
 20
0
 30
0
  0
VERTEX
  8
LAYER_2
 10
109.7821
 20
71.1564
  0
VERTEX
  8
LAYER_2
 10
109.7821
 20
65.9068
  0
SEQEND
  0
ENDBLK
  0
BLOCK
  8
LAYER_2
  2
AIGNBL0202015F
 70
64
 10
0
 20
0
 30
0
  3
AIGNBL0202015F
  0
POLYLINE
  8
LAYER_2
 40
0.2469
 41
0.2469
 66
1
 10
0
 20
0
 30
0
  0
VERTEX
  8
LAYER_2
 10
102.282
 20
71.1564
  0
VERTEX
  8
LAYER_2
 10
110.5318
 20
71.1564
  0
SEQEND
  0
ENDBLK
  0
BLOCK
  8
LAYER_2
  2
AIGNBL02020160
 70
64
 10
0
 20
0
 30
0
  3
AIGNBL02020160
  0
POLYLINE
  8
LAYER_2
 40
0.2469
 41
0.2469
 66
1
 10
0
 20
0
 30
0
  0
VERTEX
  8
LAYER_2
 10
101.7819
 20
74.9067
  0
VERTEX
  8
LAYER_2
 10
110.5318
 20
74.9067
  0
SEQEND
  0
ENDBLK
  0
BLOCK
  8
LAYER_2
  2
AIGNBL02020161
 70
64
 10
0
 20
0
 30
0
  3
AIGNBL02020161
  0
POLYLINE
  8
LAYER_2
 40
0.05
 41
0.05
 66
1
 10
0
 20
0
 30
0
 70
1
  0
VERTEX
  8
LAYER_2
 10
109.4362
 20
77.5319
  0
VERTEX
  8
LAYER_2
 10
110.1277
 20
77.5319
  0
VERTEX
  8
LAYER_2
 10
109.7821
 20
74.9067
  0
SEQEND
  0
ENDBLK
  0
BLOCK
  8
LAYER_2
  2
AIGNBL02020162
 70
64
 10
0
 20
0
 30
0
  3
AIGNBL02020162
  0
POLYLINE
  8
LAYER_2
 40
0.05
 41
0.05
 66
1
 10
0
 20
0
 30
0
 70
1
  0
VERTEX
  8
LAYER_2
 10
110.1277
 20
68.5319
  0
VERTEX
  8
LAYER_2
 10
109.4362
 20
68.5319
  0
VERTEX
  8
LAYER_2
 10
109.7821
 20
71.1564
  0
SEQEND
  0
ENDBLK
  0
BLOCK
  8
LAYER_2
  2
AIGNBL02020163
 70
64
 10
0
 20
0
 30
0
  3
AIGNBL02020163
  0
TEXT
  8
LAYER_2
 10
109.1863
 20
70.7817
 11
109.1863
 21
70.7817
 40
4.7014
 41
0.5
 50
89.99999999
  1
15
  0
ENDBLK
  0
BLOCK
  8
LAYER_2
  2
AIGNBL02020165
 70
64
 10
0
 20
0
 30
0
  3
AIGNBL02020165
  0
POLYLINE
  8
LAYER_2
 40
0.2469
 41
0.2469
 66
1
 10
0
 20
0
 30
0
  0
VERTEX
  8
LAYER_2
 10
79.782
 20
186.9066
  0
VERTEX
  8
LAYER_2
 10
79.782
 20
177.1566
  0
SEQEND
  0
ENDBLK
  0
BLOCK
  8
LAYER_2
  2
AIGNBL02020166
 70
64
 10
0
 20
0
 30
0
  3
AIGNBL02020166
  0
POLYLINE
  8
LAYER_2
 40
0.2469
 41
0.2469
 66
1
 10
0
 20
0
 30
0
  0
VERTEX
  8
LAYER_2
 10
90.4069
 20
177.1566
  0
VERTEX
  8
LAYER_2
 10
79.032
 20
177.1566
  0
SEQEND
  0
ENDBLK
  0
BLOCK
  8
LAYER_2
  2
AIGNBL02020167
 70
64
 10
0
 20
0
 30
0
  3
AIGNBL02020167
  0
POLYLINE
  8
LAYER_2
 40
0.2469
 41
0.2469
 66
1
 10
0
 20
0
 30
0
  0
VERTEX
  8
LAYER_2
 10
92.4474
 20
186.9066
  0
VERTEX
  8
LAYER_2
 10
79.032
 20
186.9066
  0
SEQEND
  0
ENDBLK
  0
BLOCK
  8
LAYER_2
  2
AIGNBL02020168
 70
64
 10
0
 20
0
 30
0
  3
AIGNBL02020168
  0
POLYLINE
  8
LAYER_2
 40
0.05
 41
0.05
 66
1
 10
0
 20
0
 30
0
 70
1
  0
VERTEX
  8
LAYER_2
 10
80.1276
 20
184.2818
  0
VERTEX
  8
LAYER_2
 10
79.4363
 20
184.2818
  0
VERTEX
  8
LAYER_2
 10
79.782
 20
186.9066
  0
SEQEND
  0
ENDBLK
  0
BLOCK
  8
LAYER_2
  2
AIGNBL02020169
 70
64
 10
0
 20
0
 30
0
  3
AIGNBL02020169
  0
POLYLINE
  8
LAYER_2
 40
0.05
 41
0.05
 66
1
 10
0
 20
0
 30
0
 70
1
  0
VERTEX
  8
LAYER_2
 10
79.4363
 20
179.7818
  0
VERTEX
  8
LAYER_2
 10
80.1276
 20
179.7818
  0
VERTEX
  8
LAYER_2
 10
79.782
 20
177.1566
  0
SEQEND
  0
ENDBLK
  0
BLOCK
  8
LAYER_2
  2
AIGNBL0202016A
 70
64
 10
0
 20
0
 30
0
  3
AIGNBL0202016A
  0
TEXT
  8
LAYER_2
 10
79.1864
 20
179.7253
 11
79.1864
 21
179.7253
 40
4.7014
 41
0.5
 50
89.99999999
  1
39
  0
ENDBLK
  0
BLOCK
  8
LAYER_2
  2
AIGNBL0202016C
 70
64
 10
0
 20
0
 30
0
  3
AIGNBL0202016C
  0
POLYLINE
  8
LAYER_2
 40
0.2469
 41
0.2469
 66
1
 10
0
 20
0
 30
0
  0
VERTEX
  8
LAYER_2
 10
123.4123
 20
194.4066
  0
VERTEX
  8
LAYER_2
 10
128.6619
 20
194.4066
  0
SEQEND
  0
ENDBLK
  0
BLOCK
  8
LAYER_2
  2
AIGNBL0202016D
 70
64
 10
0
 20
0
 30
0
  3
AIGNBL0202016D
  0
POLYLINE
  8
LAYER_2
 40
0.2469
 41
0.2469
 66
1
 10
0
 20
0
 30
0
  0
VERTEX
  8
LAYER_2
 10
128.6619
 20
194.4066
  0
VERTEX
  8
LAYER_2
 10
135.9121
 20
194.4066
  0
SEQEND
  0
ENDBLK
  0
BLOCK
  8
LAYER_2
  2
AIGNBL0202016E
 70
64
 10
0
 20
0
 30
0
  3
AIGNBL0202016E
  0
POLYLINE
  8
LAYER_2
 40
0.2469
 41
0.2469
 66
1
 10
0
 20
0
 30
0
  0
VERTEX
  8
LAYER_2
 10
135.9121
 20
194.4066
  0
VERTEX
  8
LAYER_2
 10
141.1621
 20
194.4066
  0
SEQEND
  0
ENDBLK
  0
BLOCK
  8
LAYER_2
  2
AIGNBL0202016F
 70
64
 10
0
 20
0
 30
0
  3
AIGNBL0202016F
  0
POLYLINE
  8
LAYER_2
 40
0.2469
 41
0.2469
 66
1
 10
0
 20
0
 30
0
  0
VERTEX
  8
LAYER_2
 10
135.9121
 20
183.9066
  0
VERTEX
  8
LAYER_2
 10
135.9121
 20
195.1566
  0
SEQEND
  0
ENDBLK
  0
BLOCK
  8
LAYER_2
  2
AIGNBL02020170
 70
64
 10
0
 20
0
 30
0
  3
AIGNBL02020170
  0
POLYLINE
  8
LAYER_2
 40
0.2469
 41
0.2469
 66
1
 10
0
 20
0
 30
0
  0
VERTEX
  8
LAYER_2
 10
128.6619
 20
183.9066
  0
VERTEX
  8
LAYER_2
 10
128.6619
 20
195.1566
  0
SEQEND
  0
ENDBLK
  0
BLOCK
  8
LAYER_2
  2
AIGNBL02020171
 70
64
 10
0
 20
0
 30
0
  3
AIGNBL02020171
  0
POLYLINE
  8
LAYER_2
 40
0.05
 41
0.05
 66
1
 10
0
 20
0
 30
0
 70
1
  0
VERTEX
  8
LAYER_2
 10
126.0371
 20
194.061
  0
VERTEX
  8
LAYER_2
 10
126.0371
 20
194.7521
  0
VERTEX
  8
LAYER_2
 10
128.6619
 20
194.4066
  0
SEQEND
  0
ENDBLK
  0
BLOCK
  8
LAYER_2
  2
AIGNBL02020172
 70
64
 10
0
 20
0
 30
0
  3
AIGNBL02020172
  0
POLYLINE
  8
LAYER_2
 40
0.05
 41
0.05
 66
1
 10
0
 20
0
 30
0
 70
1
  0
VERTEX
  8
LAYER_2
 10
138.5369
 20
194.7521
  0
VERTEX
  8
LAYER_2
 10
138.5369
 20
194.061
  0
VERTEX
  8
LAYER_2
 10
135.9121
 20
194.4066
  0
SEQEND
  0
ENDBLK
  0
BLOCK
  8
LAYER_2
  2
AIGNBL02020173
 70
64
 10
0
 20
0
 30
0
  3
AIGNBL02020173
  0
TEXT
  8
LAYER_2
 10
130.4155
 20
195.3757
 11
130.4155
 21
195.3757
 40
4.7014
 41
0.5
  1
29
  0
ENDBLK
  0
BLOCK
  8
LAYER_2
  2
AIGNBL02020175
 70
64
 10
0
 20
0
 30
0
  3
AIGNBL02020175
  0
POLYLINE
  8
LAYER_2
 40
0.2469
 41
0.2469
 66
1
 10
0
 20
0
 30
0
  0
VERTEX
  8
LAYER_2
 10
91.9916
 20
157.3707
  0
VERTEX
  8
LAYER_2
 10
97.2416
 20
157.3707
  0
SEQEND
  0
ENDBLK
  0
BLOCK
  8
LAYER_2
  2
AIGNBL02020176
 70
64
 10
0
 20
0
 30
0
  3
AIGNBL02020176
  0
POLYLINE
  8
LAYER_2
 40
0.2469
 41
0.2469
 66
1
 10
0
 20
0
 30
0
  0
VERTEX
  8
LAYER_2
 10
97.2416
 20
157.3707
  0
VERTEX
  8
LAYER_2
 10
104.4915
 20
157.3707
  0
SEQEND
  0
ENDBLK
  0
BLOCK
  8
LAYER_2
  2
AIGNBL02020177
 70
64
 10
0
 20
0
 30
0
  3
AIGNBL02020177
  0
POLYLINE
  8
LAYER_2
 40
0.2469
 41
0.2469
 66
1
 10
0
 20
0
 30
0
  0
VERTEX
  8
LAYER_2
 10
104.4915
 20
157.3707
  0
VERTEX
  8
LAYER_2
 10
111.8671
 20
157.3707
  0
SEQEND
  0
ENDBLK
  0
BLOCK
  8
LAYER_2
  2
AIGNBL02020178
 70
64
 10
0
 20
0
 30
0
  3
AIGNBL02020178
  0
POLYLINE
  8
LAYER_2
 40
0.2469
 41
0.2469
 66
1
 10
0
 20
0
 30
0
  0
VERTEX
  8
LAYER_2
 10
98.4071
 20
167.9093
  0
VERTEX
  8
LAYER_2
 10
104.8665
 20
156.721
  0
SEQEND
  0
ENDBLK
  0
BLOCK
  8
LAYER_2
  2
AIGNBL02020179
 70
64
 10
0
 20
0
 30
0
  3
AIGNBL02020179
  0
POLYLINE
  8
LAYER_2
 40
0.2469
 41
0.2469
 66
1
 10
0
 20
0
 30
0
  0
VERTEX
  8
LAYER_2
 10
91.1569
 20
167.9093
  0
VERTEX
  8
LAYER_2
 10
97.6164
 20
156.721
  0
SEQEND
  0
ENDBLK
  0
BLOCK
  8
LAYER_2
  2
AIGNBL0202017A
 70
64
 10
0
 20
0
 30
0
  3
AIGNBL0202017A
  0
POLYLINE
  8
LAYER_2
 40
0.05
 41
0.05
 66
1
 10
0
 20
0
 30
0
 70
1
  0
VERTEX
  8
LAYER_2
 10
94.6164
 20
157.0249
  0
VERTEX
  8
LAYER_2
 10
94.6164
 20
157.7163
  0
VERTEX
  8
LAYER_2
 10
97.2416
 20
157.3707
  0
SEQEND
  0
ENDBLK
  0
BLOCK
  8
LAYER_2
  2
AIGNBL0202017B
 70
64
 10
0
 20
0
 30
0
  3
AIGNBL0202017B
  0
POLYLINE
  8
LAYER_2
 40
0.05
 41
0.05
 66
1
 10
0
 20
0
 30
0
 70
1
  0
VERTEX
  8
LAYER_2
 10
107.1165
 20
157.7163
  0
VERTEX
  8
LAYER_2
 10
107.1165
 20
157.0249
  0
VERTEX
  8
LAYER_2
 10
104.4915
 20
157.3707
  0
SEQEND
  0
ENDBLK
  0
BLOCK
  8
LAYER_2
  2
AIGNBL0202017C
 70
64
 10
0
 20
0
 30
0
  3
AIGNBL0202017C
  0
TEXT
  8
LAYER_2
 10
107.5903
 20
157.9647
 11
107.5903
 21
157.9647
 40
4.7014
 41
0.5
  1
26
  0
ENDBLK
  0
BLOCK
  8
LAYER_2
  2
AIGNBL0202017E
 70
64
 10
0
 20
0
 30
0
  3
AIGNBL0202017E
  0
POLYLINE
  8
LAYER_2
 40
0.2469
 41
0.2469
 66
1
 10
0
 20
0
 30
0
  0
VERTEX
  8
LAYER_2
 10
94.782
 20
194.4066
  0
VERTEX
  8
LAYER_2
 10
107.9069
 20
194.4066
  0
SEQEND
  0
ENDBLK
  0
BLOCK
  8
LAYER_2
  2
AIGNBL0202017F
 70
64
 10
0
 20
0
 30
0
  3
AIGNBL0202017F
  0
POLYLINE
  8
LAYER_2
 40
0.2469
 41
0.2469
 66
1
 10
0
 20
0
 30
0
  0
VERTEX
  8
LAYER_2
 10
107.9069
 20
180.5566
  0
VERTEX
  8
LAYER_2
 10
107.9069
 20
195.1566
  0
SEQEND
  0
ENDBLK
  0
BLOCK
  8
LAYER_2
  2
AIGNBL02020180
 70
64
 10
0
 20
0
 30
0
  3
AIGNBL02020180
  0
POLYLINE
  8
LAYER_2
 40
0.2469
 41
0.2469
 66
1
 10
0
 20
0
 30
0
  0
VERTEX
  8
LAYER_2
 10
94.782
 20
189.1566
  0
VERTEX
  8
LAYER_2
 10
94.782
 20
195.1566
  0
SEQEND
  0
ENDBLK
  0
BLOCK
  8
LAYER_2
  2
AIGNBL02020181
 70
64
 10
0
 20
0
 30
0
  3
AIGNBL02020181
  0
POLYLINE
  8
LAYER_2
 40
0.05
 41
0.05
 66
1
 10
0
 20
0
 30
0
 70
1
  0
VERTEX
  8
LAYER_2
 10
97.407
 20
194.7521
  0
VERTEX
  8
LAYER_2
 10
97.407
 20
194.061
  0
VERTEX
  8
LAYER_2
 10
94.782
 20
194.4066
  0
SEQEND
  0
ENDBLK
  0
BLOCK
  8
LAYER_2
  2
AIGNBL02020182
 70
64
 10
0
 20
0
 30
0
  3
AIGNBL02020182
  0
POLYLINE
  8
LAYER_2
 40
0.05
 41
0.05
 66
1
 10
0
 20
0
 30
0
 70
1
  0
VERTEX
  8
LAYER_2
 10
105.2819
 20
194.061
  0
VERTEX
  8
LAYER_2
 10
105.2819
 20
194.7521
  0
VERTEX
  8
LAYER_2
 10
107.9069
 20
194.4066
  0
SEQEND
  0
ENDBLK
  0
BLOCK
  8
LAYER_2
  2
AIGNBL02020183
 70
64
 10
0
 20
0
 30
0
  3
AIGNBL02020183
  0
TEXT
  8
LAYER_2
 10
99.0363
 20
195.0008
 11
99.0363
 21
195.0008
 40
4.7014
 41
0.5
  1
53
  0
ENDBLK
  0
BLOCK
  8
LAYER_7
  2
AIGNBL07020004
 70
64
 10
0
 20
0
 30
0
  3
AIGNBL07020004
  0
INSERT
  8
LAYER_7
  2
AIGNBL07030005
 10
0
 20
0
 30
0
  0
ENDBLK
  0
BLOCK
  8
LAYER_7
  2
AIGNBL0702000D
 70
64
 10
0
 20
0
 30
0
  3
AIGNBL0702000D
  0
INSERT
  8
LAYER_7
  2
AIGNBL0703000E
 10
0
 20
0
 30
0
  0
INSERT
  8
LAYER_7
  2
AIGNBL0703000F
 10
0
 20
0
 30
0
  0
INSERT
  8
LAYER_7
  2
AIGNBL07030010
 10
0
 20
0
 30
0
  0
INSERT
  8
LAYER_7
  2
AIGNBL07030011
 10
0
 20
0
 30
0
  0
INSERT
  8
LAYER_7
  2
AIGNBL07030012
 10
0
 20
0
 30
0
  0
INSERT
  8
LAYER_7
  2
AIGNBL07030013
 10
0
 20
0
 30
0
  0
INSERT
  8
LAYER_7
  2
AIGNBL07030014
 10
0
 20
0
 30
0
  0
INSERT
  8
LAYER_7
  2
AIGNBL07030015
 10
0
 20
0
 30
0
  0
INSERT
  8
LAYER_7
  2
AIGNBL07030016
 10
0
 20
0
 30
0
  0
INSERT
  8
LAYER_7
  2
AIGNBL07030017
 10
0
 20
0
 30
0
  0
INSERT
  8
LAYER_7
  2
AIGNBL07030018
 10
0
 20
0
 30
0
  0
INSERT
  8
LAYER_7
  2
AIGNBL07030019
 10
0
 20
0
 30
0
  0
INSERT
  8
LAYER_7
  2
AIGNBL0703001A
 10
0
 20
0
 30
0
  0
INSERT
  8
LAYER_7
  2
AIGNBL0703001B
 10
0
 20
0
 30
0
  0
INSERT
  8
LAYER_7
  2
AIGNBL0703001C
 10
0
 20
0
 30
0
  0
INSERT
  8
LAYER_7
  2
AIGNBL0703001D
 10
0
 20
0
 30
0
  0
INSERT
  8
LAYER_7
  2
AIGNBL0703001E
 10
0
 20
0
 30
0
  0
INSERT
  8
LAYER_7
  2
AIGNBL0703001F
 10
0
 20
0
 30
0
  0
INSERT
  8
LAYER_7
  2
AIGNBL07030020
 10
0
 20
0
 30
0
  0
INSERT
  8
LAYER_7
  2
AIGNBL07030021
 10
0
 20
0
 30
0
  0
INSERT
  8
LAYER_7
  2
AIGNBL07030022
 10
0
 20
0
 30
0
  0
INSERT
  8
LAYER_7
  2
AIGNBL07030023
 10
0
 20
0
 30
0
  0
INSERT
  8
LAYER_7
  2
AIGNBL07030024
 10
0
 20
0
 30
0
  0
ENDBLK
  0
BLOCK
  8
LAYER_1
  2
AIGNBL01010002
 70
64
 10
0
 20
0
 30
0
  3
AIGNBL01010002
  0
POLYLINE
  8
LAYER_1
 40
0.2469
 41
0.2469
 66
1
 10
0
 20
0
 30
0
  0
VERTEX
  8
LAYER_1
 10
103.1406
 20
167.0318
  0
VERTEX
  8
LAYER_1
 10
102.8905
 20
167.0318
  0
SEQEND
  0
ENDBLK
  0
BLOCK
  8
LAYER_1
  2
AIGNBL01010003
 70
64
 10
0
 20
0
 30
0
  3
AIGNBL01010003
  0
POLYLINE
  8
LAYER_1
 40
0.2469
 41
0.2469
 66
1
 10
0
 20
0
 30
0
  0
VERTEX
  8
LAYER_1
 10
102.8905
 20
167.0318
  0
VERTEX
  8
LAYER_1
 10
102.8905
 20
166.0317
  0
SEQEND
  0
ENDBLK
  0
BLOCK
  8
LAYER_1
  2
AIGNBL01010004
 70
64
 10
0
 20
0
 30
0
  3
AIGNBL01010004
  0
POLYLINE
  8
LAYER_1
 40
0.2469
 41
0.2469
 66
1
 10
0
 20
0
 30
0
  0
VERTEX
  8
LAYER_1
 10
102.8905
 20
166.0317
  0
VERTEX
  8
LAYER_1
 10
102.3906
 20
166.0317
  0
SEQEND
  0
ENDBLK
  0
BLOCK
  8
LAYER_1
  2
AIGNBL01010005
 70
64
 10
0
 20
0
 30
0
  3
AIGNBL01010005
  0
POLYLINE
  8
LAYER_1
 40
0.2469
 41
0.2469
 66
1
 10
0
 20
0
 30
0
  0
VERTEX
  8
LAYER_1
 10
102.3906
 20
166.0317
  0
VERTEX
  8
LAYER_1
 10
102.3906
 20
167.0318
  0
SEQEND
  0
ENDBLK
  0
BLOCK
  8
LAYER_1
  2
AIGNBL01010006
 70
64
 10
0
 20
0
 30
0
  3
AIGNBL01010006
  0
POLYLINE
  8
LAYER_1
 40
0.2469
 41
0.2469
 66
1
 10
0
 20
0
 30
0
  0
VERTEX
  8
LAYER_1
 10
102.3906
 20
167.0318
  0
VERTEX
  8
LAYER_1
 10
102.1405
 20
167.0318
  0
SEQEND
  0
ENDBLK
  0
BLOCK
  8
LAYER_1
  2
AIGNBL01010007
 70
64
 10
0
 20
0
 30
0
  3
AIGNBL01010007
  0
POLYLINE
  8
LAYER_1
 40
0.2469
 41
0.2469
 66
1
 10
0
 20
0
 30
0
  0
VERTEX
  8
LAYER_1
 10
102.1405
 20
167.0318
  0
VERTEX
  8
LAYER_1
 10
102.6406
 20
167.5317
  0
SEQEND
  0
ENDBLK
  0
BLOCK
  8
LAYER_1
  2
AIGNBL01010008
 70
64
 10
0
 20
0
 30
0
  3
AIGNBL01010008
  0
POLYLINE
  8
LAYER_1
 40
0.2469
 41
0.2469
 66
1
 10
0
 20
0
 30
0
  0
VERTEX
  8
LAYER_1
 10
102.6406
 20
167.5317
  0
VERTEX
  8
LAYER_1
 10
103.1406
 20
167.0318
  0
SEQEND
  0
ENDBLK
  0
BLOCK
  8
LAYER_1
  2
AIGNBL01010009
 70
64
 10
0
 20
0
 30
0
  3
AIGNBL01010009
  0
TEXT
  8
LAYER_1
 10
137.4779
 20
169.4479
 11
137.4779
 21
169.4479
 40
3.9843
 41
0.5
  1
閉
  0
ENDBLK
  0
BLOCK
  8
LAYER_1
  2
AIGNBL0101000A
 70
64
 10
0
 20
0
 30
0
  3
AIGNBL0101000A
  0
TEXT
  8
LAYER_1
 10
137.4779
 20
183.0794
 11
137.4779
 21
183.0794
 40
3.9843
 41
0.5
  1
開
  0
ENDBLK
  0
BLOCK
  8
LAYER_2
  2
AIGNBL02010002
 70
64
 10
0
 20
0
 30
0
  3
AIGNBL02010002
  0
INSERT
  8
LAYER_2
  2
AIGNBL02020003
 10
0
 20
0
 30
0
  0
INSERT
  8
LAYER_2
  2
AIGNBL02020004
 10
0
 20
0
 30
0
  0
INSERT
  8
LAYER_2
  2
AIGNBL02020005
 10
0
 20
0
 30
0
  0
INSERT
  8
LAYER_2
  2
AIGNBL02020006
 10
0
 20
0
 30
0
  0
INSERT
  8
LAYER_2
  2
AIGNBL02020007
 10
0
 20
0
 30
0
  0
INSERT
  8
LAYER_2
  2
AIGNBL02020008
 10
0
 20
0
 30
0
  0
INSERT
  8
LAYER_2
  2
AIGNBL02020009
 10
0
 20
0
 30
0
  0
INSERT
  8
LAYER_2
  2
AIGNBL0202000A
 10
0
 20
0
 30
0
  0
INSERT
  8
LAYER_2
  2
AIGNBL0202000B
 10
0
 20
0
 30
0
  0
INSERT
  8
LAYER_2
  2
AIGNBL0202000C
 10
0
 20
0
 30
0
  0
INSERT
  8
LAYER_2
  2
AIGNBL0202000D
 10
0
 20
0
 30
0
  0
INSERT
  8
LAYER_2
  2
AIGNBL0202000E
 10
0
 20
0
 30
0
  0
INSERT
  8
LAYER_2
  2
AIGNBL0202000F
 10
0
 20
0
 30
0
  0
INSERT
  8
LAYER_2
  2
AIGNBL02020010
 10
0
 20
0
 30
0
  0
INSERT
  8
LAYER_2
  2
AIGNBL02020011
 10
0
 20
0
 30
0
  0
INSERT
  8
LAYER_2
  2
AIGNBL02020012
 10
0
 20
0
 30
0
  0
INSERT
  8
LAYER_2
  2
AIGNBL02020013
 10
0
 20
0
 30
0
  0
INSERT
  8
LAYER_2
  2
AIGNBL02020014
 10
0
 20
0
 30
0
  0
INSERT
  8
LAYER_2
  2
AIGNBL02020015
 10
0
 20
0
 30
0
  0
INSERT
  8
LAYER_2
  2
AIGNBL02020016
 10
0
 20
0
 30
0
  0
INSERT
  8
LAYER_2
  2
AIGNBL02020017
 10
0
 20
0
 30
0
  0
INSERT
  8
LAYER_2
  2
AIGNBL02020018
 10
0
 20
0
 30
0
  0
INSERT
  8
LAYER_2
  2
AIGNBL02020019
 10
0
 20
0
 30
0
  0
INSERT
  8
LAYER_2
  2
AIGNBL0202001A
 10
0
 20
0
 30
0
  0
INSERT
  8
LAYER_2
  2
AIGNBL0202001B
 10
0
 20
0
 30
0
  0
INSERT
  8
LAYER_2
  2
AIGNBL0202001C
 10
0
 20
0
 30
0
  0
INSERT
  8
LAYER_2
  2
AIGNBL0202001D
 10
0
 20
0
 30
0
  0
INSERT
  8
LAYER_2
  2
AIGNBL0202001E
 10
0
 20
0
 30
0
  0
INSERT
  8
LAYER_2
  2
AIGNBL0202001F
 10
0
 20
0
 30
0
  0
INSERT
  8
LAYER_2
  2
AIGNBL02020020
 10
0
 20
0
 30
0
  0
INSERT
  8
LAYER_2
  2
AIGNBL02020021
 10
0
 20
0
 30
0
  0
INSERT
  8
LAYER_2
  2
AIGNBL02020022
 10
0
 20
0
 30
0
  0
INSERT
  8
LAYER_2
  2
AIGNBL02020023
 10
0
 20
0
 30
0
  0
INSERT
  8
LAYER_2
  2
AIGNBL02020024
 10
0
 20
0
 30
0
  0
INSERT
  8
LAYER_2
  2
AIGNBL02020025
 10
0
 20
0
 30
0
  0
INSERT
  8
LAYER_2
  2
AIGNBL02020026
 10
0
 20
0
 30
0
  0
INSERT
  8
LAYER_2
  2
AIGNBL02020027
 10
0
 20
0
 30
0
  0
INSERT
  8
LAYER_2
  2
AIGNBL02020028
 10
0
 20
0
 30
0
  0
INSERT
  8
LAYER_2
  2
AIGNBL02020029
 10
0
 20
0
 30
0
  0
INSERT
  8
LAYER_2
  2
AIGNBL0202002A
 10
0
 20
0
 30
0
  0
INSERT
  8
LAYER_2
  2
AIGNBL0202002B
 10
0
 20
0
 30
0
  0
INSERT
  8
LAYER_2
  2
AIGNBL0202002C
 10
0
 20
0
 30
0
  0
INSERT
  8
LAYER_2
  2
AIGNBL0202002D
 10
0
 20
0
 30
0
  0
INSERT
  8
LAYER_2
  2
AIGNBL0202002E
 10
0
 20
0
 30
0
  0
INSERT
  8
LAYER_2
  2
AIGNBL0202002F
 10
0
 20
0
 30
0
  0
INSERT
  8
LAYER_2
  2
AIGNBL02020030
 10
0
 20
0
 30
0
  0
INSERT
  8
LAYER_2
  2
AIGNBL02020031
 10
0
 20
0
 30
0
  0
INSERT
  8
LAYER_2
  2
AIGNBL02020032
 10
0
 20
0
 30
0
  0
INSERT
  8
LAYER_2
  2
AIGNBL02020033
 10
0
 20
0
 30
0
  0
INSERT
  8
LAYER_2
  2
AIGNBL02020034
 10
0
 20
0
 30
0
  0
ENDBLK
  0
BLOCK
  8
LAYER_2
  2
AIGNBL02010035
 70
64
 10
0
 20
0
 30
0
  3
AIGNBL02010035
  0
INSERT
  8
LAYER_2
  2
AIGNBL02020036
 10
0
 20
0
 30
0
  0
INSERT
  8
LAYER_2
  2
AIGNBL02020037
 10
0
 20
0
 30
0
  0
INSERT
  8
LAYER_2
  2
AIGNBL02020038
 10
0
 20
0
 30
0
  0
INSERT
  8
LAYER_2
  2
AIGNBL02020039
 10
0
 20
0
 30
0
  0
INSERT
  8
LAYER_2
  2
AIGNBL0202003A
 10
0
 20
0
 30
0
  0
INSERT
  8
LAYER_2
  2
AIGNBL0202003B
 10
0
 20
0
 30
0
  0
INSERT
  8
LAYER_2
  2
AIGNBL0202003C
 10
0
 20
0
 30
0
  0
INSERT
  8
LAYER_2
  2
AIGNBL0202003D
 10
0
 20
0
 30
0
  0
INSERT
  8
LAYER_2
  2
AIGNBL0202003E
 10
0
 20
0
 30
0
  0
INSERT
  8
LAYER_2
  2
AIGNBL0202003F
 10
0
 20
0
 30
0
  0
INSERT
  8
LAYER_2
  2
AIGNBL02020040
 10
0
 20
0
 30
0
  0
INSERT
  8
LAYER_2
  2
AIGNBL02020041
 10
0
 20
0
 30
0
  0
INSERT
  8
LAYER_2
  2
AIGNBL02020042
 10
0
 20
0
 30
0
  0
INSERT
  8
LAYER_2
  2
AIGNBL02020043
 10
0
 20
0
 30
0
  0
INSERT
  8
LAYER_2
  2
AIGNBL02020044
 10
0
 20
0
 30
0
  0
INSERT
  8
LAYER_2
  2
AIGNBL02020045
 10
0
 20
0
 30
0
  0
INSERT
  8
LAYER_2
  2
AIGNBL02020046
 10
0
 20
0
 30
0
  0
INSERT
  8
LAYER_2
  2
AIGNBL02020047
 10
0
 20
0
 30
0
  0
INSERT
  8
LAYER_2
  2
AIGNBL02020048
 10
0
 20
0
 30
0
  0
INSERT
  8
LAYER_2
  2
AIGNBL02020049
 10
0
 20
0
 30
0
  0
INSERT
  8
LAYER_2
  2
AIGNBL0202004A
 10
0
 20
0
 30
0
  0
INSERT
  8
LAYER_2
  2
AIGNBL0202004B
 10
0
 20
0
 30
0
  0
INSERT
  8
LAYER_2
  2
AIGNBL0202004C
 10
0
 20
0
 30
0
  0
INSERT
  8
LAYER_2
  2
AIGNBL0202004D
 10
0
 20
0
 30
0
  0
INSERT
  8
LAYER_2
  2
AIGNBL0202004E
 10
0
 20
0
 30
0
  0
INSERT
  8
LAYER_2
  2
AIGNBL0202004F
 10
0
 20
0
 30
0
  0
INSERT
  8
LAYER_2
  2
AIGNBL02020050
 10
0
 20
0
 30
0
  0
INSERT
  8
LAYER_2
  2
AIGNBL02020051
 10
0
 20
0
 30
0
  0
INSERT
  8
LAYER_2
  2
AIGNBL02020052
 10
0
 20
0
 30
0
  0
INSERT
  8
LAYER_2
  2
AIGNBL02020053
 10
0
 20
0
 30
0
  0
INSERT
  8
LAYER_2
  2
AIGNBL02020054
 10
0
 20
0
 30
0
  0
INSERT
  8
LAYER_2
  2
AIGNBL02020055
 10
0
 20
0
 30
0
  0
INSERT
  8
LAYER_2
  2
AIGNBL02020056
 10
0
 20
0
 30
0
  0
INSERT
  8
LAYER_2
  2
AIGNBL02020057
 10
0
 20
0
 30
0
  0
INSERT
  8
LAYER_2
  2
AIGNBL02020058
 10
0
 20
0
 30
0
  0
INSERT
  8
LAYER_2
  2
AIGNBL02020059
 10
0
 20
0
 30
0
  0
INSERT
  8
LAYER_2
  2
AIGNBL0202005A
 10
0
 20
0
 30
0
  0
INSERT
  8
LAYER_2
  2
AIGNBL0202005B
 10
0
 20
0
 30
0
  0
INSERT
  8
LAYER_2
  2
AIGNBL0202005C
 10
0
 20
0
 30
0
  0
INSERT
  8
LAYER_2
  2
AIGNBL0202005D
 10
0
 20
0
 30
0
  0
INSERT
  8
LAYER_2
  2
AIGNBL0202005E
 10
0
 20
0
 30
0
  0
INSERT
  8
LAYER_2
  2
AIGNBL0202005F
 10
0
 20
0
 30
0
  0
INSERT
  8
LAYER_2
  2
AIGNBL02020060
 10
0
 20
0
 30
0
  0
INSERT
  8
LAYER_2
  2
AIGNBL02020061
 10
0
 20
0
 30
0
  0
INSERT
  8
LAYER_2
  2
AIGNBL02020062
 10
0
 20
0
 30
0
  0
INSERT
  8
LAYER_2
  2
AIGNBL02020063
 10
0
 20
0
 30
0
  0
INSERT
  8
LAYER_2
  2
AIGNBL02020064
 10
0
 20
0
 30
0
  0
INSERT
  8
LAYER_2
  2
AIGNBL02020065
 10
0
 20
0
 30
0
  0
INSERT
  8
LAYER_2
  2
AIGNBL02020066
 10
0
 20
0
 30
0
  0
INSERT
  8
LAYER_2
  2
AIGNBL02020067
 10
0
 20
0
 30
0
  0
INSERT
  8
LAYER_2
  2
AIGNBL02020068
 10
0
 20
0
 30
0
  0
INSERT
  8
LAYER_2
  2
AIGNBL02020069
 10
0
 20
0
 30
0
  0
INSERT
  8
LAYER_2
  2
AIGNBL0202006A
 10
0
 20
0
 30
0
  0
INSERT
  8
LAYER_2
  2
AIGNBL0202006B
 10
0
 20
0
 30
0
  0
INSERT
  8
LAYER_2
  2
AIGNBL0202006C
 10
0
 20
0
 30
0
  0
INSERT
  8
LAYER_2
  2
AIGNBL0202006D
 10
0
 20
0
 30
0
  0
INSERT
  8
LAYER_2
  2
AIGNBL0202006E
 10
0
 20
0
 30
0
  0
INSERT
  8
LAYER_2
  2
AIGNBL0202006F
 10
0
 20
0
 30
0
  0
INSERT
  8
LAYER_2
  2
AIGNBL02020070
 10
0
 20
0
 30
0
  0
INSERT
  8
LAYER_2
  2
AIGNBL02020071
 10
0
 20
0
 30
0
  0
INSERT
  8
LAYER_2
  2
AIGNBL02020072
 10
0
 20
0
 30
0
  0
INSERT
  8
LAYER_2
  2
AIGNBL02020073
 10
0
 20
0
 30
0
  0
INSERT
  8
LAYER_2
  2
AIGNBL02020074
 10
0
 20
0
 30
0
  0
INSERT
  8
LAYER_2
  2
AIGNBL02020075
 10
0
 20
0
 30
0
  0
INSERT
  8
LAYER_2
  2
AIGNBL02020076
 10
0
 20
0
 30
0
  0
INSERT
  8
LAYER_2
  2
AIGNBL02020077
 10
0
 20
0
 30
0
  0
INSERT
  8
LAYER_2
  2
AIGNBL02020078
 10
0
 20
0
 30
0
  0
INSERT
  8
LAYER_2
  2
AIGNBL02020079
 10
0
 20
0
 30
0
  0
INSERT
  8
LAYER_2
  2
AIGNBL0202007A
 10
0
 20
0
 30
0
  0
INSERT
  8
LAYER_2
  2
AIGNBL0202007B
 10
0
 20
0
 30
0
  0
INSERT
  8
LAYER_2
  2
AIGNBL0202007C
 10
0
 20
0
 30
0
  0
INSERT
  8
LAYER_2
  2
AIGNBL0202007D
 10
0
 20
0
 30
0
  0
INSERT
  8
LAYER_2
  2
AIGNBL0202007E
 10
0
 20
0
 30
0
  0
INSERT
  8
LAYER_2
  2
AIGNBL0202007F
 10
0
 20
0
 30
0
  0
INSERT
  8
LAYER_2
  2
AIGNBL02020080
 10
0
 20
0
 30
0
  0
INSERT
  8
LAYER_2
  2
AIGNBL02020081
 10
0
 20
0
 30
0
  0
INSERT
  8
LAYER_2
  2
AIGNBL02020082
 10
0
 20
0
 30
0
  0
INSERT
  8
LAYER_2
  2
AIGNBL02020083
 10
0
 20
0
 30
0
  0
INSERT
  8
LAYER_2
  2
AIGNBL02020084
 10
0
 20
0
 30
0
  0
INSERT
  8
LAYER_2
  2
AIGNBL02020085
 10
0
 20
0
 30
0
  0
INSERT
  8
LAYER_2
  2
AIGNBL02020086
 10
0
 20
0
 30
0
  0
INSERT
  8
LAYER_2
  2
AIGNBL02020087
 10
0
 20
0
 30
0
  0
INSERT
  8
LAYER_2
  2
AIGNBL02020088
 10
0
 20
0
 30
0
  0
INSERT
  8
LAYER_2
  2
AIGNBL02020089
 10
0
 20
0
 30
0
  0
INSERT
  8
LAYER_2
  2
AIGNBL0202008A
 10
0
 20
0
 30
0
  0
INSERT
  8
LAYER_2
  2
AIGNBL0202008B
 10
0
 20
0
 30
0
  0
INSERT
  8
LAYER_2
  2
AIGNBL0202008C
 10
0
 20
0
 30
0
  0
INSERT
  8
LAYER_2
  2
AIGNBL0202008D
 10
0
 20
0
 30
0
  0
INSERT
  8
LAYER_2
  2
AIGNBL0202008E
 10
0
 20
0
 30
0
  0
INSERT
  8
LAYER_2
  2
AIGNBL0202008F
 10
0
 20
0
 30
0
  0
INSERT
  8
LAYER_2
  2
AIGNBL02020090
 10
0
 20
0
 30
0
  0
INSERT
  8
LAYER_2
  2
AIGNBL02020091
 10
0
 20
0
 30
0
  0
INSERT
  8
LAYER_2
  2
AIGNBL02020092
 10
0
 20
0
 30
0
  0
INSERT
  8
LAYER_2
  2
AIGNBL02020093
 10
0
 20
0
 30
0
  0
INSERT
  8
LAYER_2
  2
AIGNBL02020094
 10
0
 20
0
 30
0
  0
INSERT
  8
LAYER_2
  2
AIGNBL02020095
 10
0
 20
0
 30
0
  0
INSERT
  8
LAYER_2
  2
AIGNBL02020096
 10
0
 20
0
 30
0
  0
INSERT
  8
LAYER_2
  2
AIGNBL02020097
 10
0
 20
0
 30
0
  0
INSERT
  8
LAYER_2
  2
AIGNBL02020098
 10
0
 20
0
 30
0
  0
INSERT
  8
LAYER_2
  2
AIGNBL02020099
 10
0
 20
0
 30
0
  0
INSERT
  8
LAYER_2
  2
AIGNBL0202009A
 10
0
 20
0
 30
0
  0
INSERT
  8
LAYER_2
  2
AIGNBL0202009B
 10
0
 20
0
 30
0
  0
INSERT
  8
LAYER_2
  2
AIGNBL0202009C
 10
0
 20
0
 30
0
  0
INSERT
  8
LAYER_2
  2
AIGNBL0202009D
 10
0
 20
0
 30
0
  0
INSERT
  8
LAYER_2
  2
AIGNBL0202009E
 10
0
 20
0
 30
0
  0
INSERT
  8
LAYER_2
  2
AIGNBL0202009F
 10
0
 20
0
 30
0
  0
INSERT
  8
LAYER_2
  2
AIGNBL020200A0
 10
0
 20
0
 30
0
  0
INSERT
  8
LAYER_2
  2
AIGNBL020200A1
 10
0
 20
0
 30
0
  0
INSERT
  8
LAYER_2
  2
AIGNBL020200A2
 10
0
 20
0
 30
0
  0
INSERT
  8
LAYER_2
  2
AIGNBL020200A3
 10
0
 20
0
 30
0
  0
INSERT
  8
LAYER_2
  2
AIGNBL020200A4
 10
0
 20
0
 30
0
  0
INSERT
  8
LAYER_2
  2
AIGNBL020200A5
 10
0
 20
0
 30
0
  0
INSERT
  8
LAYER_2
  2
AIGNBL020200A6
 10
0
 20
0
 30
0
  0
INSERT
  8
LAYER_2
  2
AIGNBL020200A7
 10
0
 20
0
 30
0
  0
INSERT
  8
LAYER_2
  2
AIGNBL020200A8
 10
0
 20
0
 30
0
  0
INSERT
  8
LAYER_2
  2
AIGNBL020200A9
 10
0
 20
0
 30
0
  0
INSERT
  8
LAYER_2
  2
AIGNBL020200AA
 10
0
 20
0
 30
0
  0
INSERT
  8
LAYER_2
  2
AIGNBL020200AB
 10
0
 20
0
 30
0
  0
INSERT
  8
LAYER_2
  2
AIGNBL020200AC
 10
0
 20
0
 30
0
  0
INSERT
  8
LAYER_2
  2
AIGNBL020200AD
 10
0
 20
0
 30
0
  0
INSERT
  8
LAYER_2
  2
AIGNBL020200AE
 10
0
 20
0
 30
0
  0
INSERT
  8
LAYER_2
  2
AIGNBL020200AF
 10
0
 20
0
 30
0
  0
INSERT
  8
LAYER_2
  2
AIGNBL020200B0
 10
0
 20
0
 30
0
  0
INSERT
  8
LAYER_2
  2
AIGNBL020200B1
 10
0
 20
0
 30
0
  0
INSERT
  8
LAYER_2
  2
AIGNBL020200B2
 10
0
 20
0
 30
0
  0
INSERT
  8
LAYER_2
  2
AIGNBL020200B3
 10
0
 20
0
 30
0
  0
INSERT
  8
LAYER_2
  2
AIGNBL020200B4
 10
0
 20
0
 30
0
  0
INSERT
  8
LAYER_2
  2
AIGNBL020200B5
 10
0
 20
0
 30
0
  0
INSERT
  8
LAYER_2
  2
AIGNBL020200B6
 10
0
 20
0
 30
0
  0
INSERT
  8
LAYER_2
  2
AIGNBL020200B7
 10
0
 20
0
 30
0
  0
INSERT
  8
LAYER_2
  2
AIGNBL020200B8
 10
0
 20
0
 30
0
  0
INSERT
  8
LAYER_2
  2
AIGNBL020200B9
 10
0
 20
0
 30
0
  0
INSERT
  8
LAYER_2
  2
AIGNBL020200BA
 10
0
 20
0
 30
0
  0
INSERT
  8
LAYER_2
  2
AIGNBL020200BB
 10
0
 20
0
 30
0
  0
INSERT
  8
LAYER_2
  2
AIGNBL020200BC
 10
0
 20
0
 30
0
  0
INSERT
  8
LAYER_2
  2
AIGNBL020200BD
 10
0
 20
0
 30
0
  0
INSERT
  8
LAYER_2
  2
AIGNBL020200BE
 10
0
 20
0
 30
0
  0
INSERT
  8
LAYER_2
  2
AIGNBL020200BF
 10
0
 20
0
 30
0
  0
INSERT
  8
LAYER_2
  2
AIGNBL020200C0
 10
0
 20
0
 30
0
  0
INSERT
  8
LAYER_2
  2
AIGNBL020200C1
 10
0
 20
0
 30
0
  0
INSERT
  8
LAYER_2
  2
AIGNBL020200C2
 10
0
 20
0
 30
0
  0
INSERT
  8
LAYER_2
  2
AIGNBL020200C3
 10
0
 20
0
 30
0
  0
ENDBLK
  0
BLOCK
  8
LAYER_2
  2
AIGNBL020100C4
 70
64
 10
0
 20
0
 30
0
  3
AIGNBL020100C4
  0
INSERT
  8
LAYER_2
  2
AIGNBL020200C5
 10
0
 20
0
 30
0
  0
INSERT
  8
LAYER_2
  2
AIGNBL020200C6
 10
0
 20
0
 30
0
  0
INSERT
  8
LAYER_2
  2
AIGNBL020200C7
 10
0
 20
0
 30
0
  0
INSERT
  8
LAYER_2
  2
AIGNBL020200C8
 10
0
 20
0
 30
0
  0
INSERT
  8
LAYER_2
  2
AIGNBL020200C9
 10
0
 20
0
 30
0
  0
INSERT
  8
LAYER_2
  2
AIGNBL020200CA
 10
0
 20
0
 30
0
  0
INSERT
  8
LAYER_2
  2
AIGNBL020200CB
 10
0
 20
0
 30
0
  0
INSERT
  8
LAYER_2
  2
AIGNBL020200CC
 10
0
 20
0
 30
0
  0
INSERT
  8
LAYER_2
  2
AIGNBL020200CD
 10
0
 20
0
 30
0
  0
INSERT
  8
LAYER_2
  2
AIGNBL020200CE
 10
0
 20
0
 30
0
  0
INSERT
  8
LAYER_2
  2
AIGNBL020200CF
 10
0
 20
0
 30
0
  0
INSERT
  8
LAYER_2
  2
AIGNBL020200D0
 10
0
 20
0
 30
0
  0
INSERT
  8
LAYER_2
  2
AIGNBL020200D1
 10
0
 20
0
 30
0
  0
INSERT
  8
LAYER_2
  2
AIGNBL020200D2
 10
0
 20
0
 30
0
  0
INSERT
  8
LAYER_2
  2
AIGNBL020200D3
 10
0
 20
0
 30
0
  0
INSERT
  8
LAYER_2
  2
AIGNBL020200D4
 10
0
 20
0
 30
0
  0
INSERT
  8
LAYER_2
  2
AIGNBL020200D5
 10
0
 20
0
 30
0
  0
ENDBLK
  0
BLOCK
  8
LAYER_2
  2
AIGNBL020100D6
 70
64
 10
0
 20
0
 30
0
  3
AIGNBL020100D6
  0
INSERT
  8
LAYER_2
  2
AIGNBL020200D7
 10
0
 20
0
 30
0
  0
INSERT
  8
LAYER_2
  2
AIGNBL020200D8
 10
0
 20
0
 30
0
  0
INSERT
  8
LAYER_2
  2
AIGNBL020200D9
 10
0
 20
0
 30
0
  0
INSERT
  8
LAYER_2
  2
AIGNBL020200DA
 10
0
 20
0
 30
0
  0
INSERT
  8
LAYER_2
  2
AIGNBL020200DB
 10
0
 20
0
 30
0
  0
INSERT
  8
LAYER_2
  2
AIGNBL020200DC
 10
0
 20
0
 30
0
  0
INSERT
  8
LAYER_2
  2
AIGNBL020200DD
 10
0
 20
0
 30
0
  0
INSERT
  8
LAYER_2
  2
AIGNBL020200DE
 10
0
 20
0
 30
0
  0
INSERT
  8
LAYER_2
  2
AIGNBL020200DF
 10
0
 20
0
 30
0
  0
INSERT
  8
LAYER_2
  2
AIGNBL020200E0
 10
0
 20
0
 30
0
  0
INSERT
  8
LAYER_2
  2
AIGNBL020200E1
 10
0
 20
0
 30
0
  0
INSERT
  8
LAYER_2
  2
AIGNBL020200E2
 10
0
 20
0
 30
0
  0
INSERT
  8
LAYER_2
  2
AIGNBL020200E3
 10
0
 20
0
 30
0
  0
INSERT
  8
LAYER_2
  2
AIGNBL020200E4
 10
0
 20
0
 30
0
  0
INSERT
  8
LAYER_2
  2
AIGNBL020200E5
 10
0
 20
0
 30
0
  0
INSERT
  8
LAYER_2
  2
AIGNBL020200E6
 10
0
 20
0
 30
0
  0
INSERT
  8
LAYER_2
  2
AIGNBL020200E7
 10
0
 20
0
 30
0
  0
INSERT
  8
LAYER_2
  2
AIGNBL020200E8
 10
0
 20
0
 30
0
  0
INSERT
  8
LAYER_2
  2
AIGNBL020200E9
 10
0
 20
0
 30
0
  0
INSERT
  8
LAYER_2
  2
AIGNBL020200EA
 10
0
 20
0
 30
0
  0
INSERT
  8
LAYER_2
  2
AIGNBL020200EB
 10
0
 20
0
 30
0
  0
INSERT
  8
LAYER_2
  2
AIGNBL020200EC
 10
0
 20
0
 30
0
  0
INSERT
  8
LAYER_2
  2
AIGNBL020200ED
 10
0
 20
0
 30
0
  0
INSERT
  8
LAYER_2
  2
AIGNBL020200EE
 10
0
 20
0
 30
0
  0
INSERT
  8
LAYER_2
  2
AIGNBL020200EF
 10
0
 20
0
 30
0
  0
INSERT
  8
LAYER_2
  2
AIGNBL020200F0
 10
0
 20
0
 30
0
  0
INSERT
  8
LAYER_2
  2
AIGNBL020200F1
 10
0
 20
0
 30
0
  0
ENDBLK
  0
BLOCK
  8
LAYER_2
  2
AIGNBL020100F2
 70
64
 10
0
 20
0
 30
0
  3
AIGNBL020100F2
  0
INSERT
  8
LAYER_2
  2
AIGNBL020200F3
 10
0
 20
0
 30
0
  0
INSERT
  8
LAYER_2
  2
AIGNBL020200F4
 10
0
 20
0
 30
0
  0
INSERT
  8
LAYER_2
  2
AIGNBL020200F5
 10
0
 20
0
 30
0
  0
INSERT
  8
LAYER_2
  2
AIGNBL020200F6
 10
0
 20
0
 30
0
  0
INSERT
  8
LAYER_2
  2
AIGNBL020200F7
 10
0
 20
0
 30
0
  0
INSERT
  8
LAYER_2
  2
AIGNBL020200F8
 10
0
 20
0
 30
0
  0
INSERT
  8
LAYER_2
  2
AIGNBL020200F9
 10
0
 20
0
 30
0
  0
INSERT
  8
LAYER_2
  2
AIGNBL020200FA
 10
0
 20
0
 30
0
  0
INSERT
  8
LAYER_2
  2
AIGNBL020200FB
 10
0
 20
0
 30
0
  0
INSERT
  8
LAYER_2
  2
AIGNBL020200FC
 10
0
 20
0
 30
0
  0
INSERT
  8
LAYER_2
  2
AIGNBL020200FD
 10
0
 20
0
 30
0
  0
INSERT
  8
LAYER_2
  2
AIGNBL020200FE
 10
0
 20
0
 30
0
  0
ENDBLK
  0
BLOCK
  8
LAYER_2
  2
AIGNBL020100FF
 70
64
 10
0
 20
0
 30
0
  3
AIGNBL020100FF
  0
INSERT
  8
LAYER_2
  2
AIGNBL02020100
 10
0
 20
0
 30
0
  0
INSERT
  8
LAYER_2
  2
AIGNBL02020101
 10
0
 20
0
 30
0
  0
INSERT
  8
LAYER_2
  2
AIGNBL02020102
 10
0
 20
0
 30
0
  0
INSERT
  8
LAYER_2
  2
AIGNBL02020103
 10
0
 20
0
 30
0
  0
INSERT
  8
LAYER_2
  2
AIGNBL02020104
 10
0
 20
0
 30
0
  0
INSERT
  8
LAYER_2
  2
AIGNBL02020105
 10
0
 20
0
 30
0
  0
INSERT
  8
LAYER_2
  2
AIGNBL02020106
 10
0
 20
0
 30
0
  0
INSERT
  8
LAYER_2
  2
AIGNBL02020107
 10
0
 20
0
 30
0
  0
INSERT
  8
LAYER_2
  2
AIGNBL02020108
 10
0
 20
0
 30
0
  0
INSERT
  8
LAYER_2
  2
AIGNBL02020109
 10
0
 20
0
 30
0
  0
INSERT
  8
LAYER_2
  2
AIGNBL0202010A
 10
0
 20
0
 30
0
  0
INSERT
  8
LAYER_2
  2
AIGNBL0202010B
 10
0
 20
0
 30
0
  0
INSERT
  8
LAYER_2
  2
AIGNBL0202010C
 10
0
 20
0
 30
0
  0
INSERT
  8
LAYER_2
  2
AIGNBL0202010D
 10
0
 20
0
 30
0
  0
INSERT
  8
LAYER_2
  2
AIGNBL0202010E
 10
0
 20
0
 30
0
  0
ENDBLK
  0
BLOCK
  8
LAYER_2
  2
AIGNBL0201010F
 70
64
 10
0
 20
0
 30
0
  3
AIGNBL0201010F
  0
INSERT
  8
LAYER_2
  2
AIGNBL02020110
 10
0
 20
0
 30
0
  0
INSERT
  8
LAYER_2
  2
AIGNBL02020112
 10
0
 20
0
 30
0
  0
ENDBLK
  0
BLOCK
  8
LAYER_2
  2
AIGNBL02010134
 70
64
 10
0
 20
0
 30
0
  3
AIGNBL02010134
  0
POLYLINE
  8
LAYER_2
  6
AIGENLINE002
 40
0.2469
 41
0.2469
 66
1
 10
0
 20
0
 30
0
 70
128
  0
VERTEX
  8
LAYER_2
 10
132.2868
 20
172.4193
  0
VERTEX
  8
LAYER_2
 10
132.2868
 20
187.6566
  0
SEQEND
  0
ENDBLK
  0
BLOCK
  8
LAYER_2
  2
AIGNBL02010135
 70
64
 10
0
 20
0
 30
0
  3
AIGNBL02010135
  0
POLYLINE
  8
LAYER_2
  6
AIGENLINE002
 40
0.2469
 41
0.2469
 66
1
 10
0
 20
0
 30
0
 70
128
  0
VERTEX
  8
LAYER_2
 10
132.2868
 20
63.9065
  0
VERTEX
  8
LAYER_2
 10
132.2868
 20
172.4193
  0
SEQEND
  0
ENDBLK
  0
BLOCK
  8
LAYER_2
  2
AIGNBL02010136
 70
64
 10
0
 20
0
 30
0
  3
AIGNBL02010136
  0
POLYLINE
  8
LAYER_2
  6
AIGENLINE002
 40
0.2469
 41
0.2469
 66
1
 10
0
 20
0
 30
0
 70
128
  0
VERTEX
  8
LAYER_2
 10
127.9122
 20
177.1566
  0
VERTEX
  8
LAYER_2
 10
136.6621
 20
177.1566
  0
SEQEND
  0
ENDBLK
  0
BLOCK
  8
LAYER_2
  2
AIGNBL02010137
 70
64
 10
0
 20
0
 30
0
  3
AIGNBL02010137
  0
POLYLINE
  8
LAYER_2
  6
AIGENLINE002
 40
0.2469
 41
0.2469
 66
1
 10
0
 20
0
 30
0
 70
128
  0
VERTEX
  8
LAYER_2
 10
94.782
 20
189.1566
  0
VERTEX
  8
LAYER_2
 10
94.782
 20
63.9065
  0
SEQEND
  0
ENDBLK
  0
BLOCK
  8
LAYER_2
  2
AIGNBL02010138
 70
64
 10
0
 20
0
 30
0
  3
AIGNBL02010138
  0
POLYLINE
  8
LAYER_2
  6
AIGENLINE002
 40
0.2469
 41
0.2469
 66
1
 10
0
 20
0
 30
0
 70
128
  0
VERTEX
  8
LAYER_2
 10
108.6569
 20
177.1566
  0
VERTEX
  8
LAYER_2
 10
90.4069
 20
177.1566
  0
SEQEND
  0
ENDBLK
  0
BLOCK
  8
LAYER_2
  2
AIGNBL02010139
 70
64
 10
0
 20
0
 30
0
  3
AIGNBL02010139
  0
POLYLINE
  8
LAYER_2
  6
AIGENLINE002
 40
0.2469
 41
0.2469
 66
1
 10
0
 20
0
 30
0
 70
128
  0
VERTEX
  8
LAYER_2
 10
105.2819
 20
186.2817
  0
VERTEX
  8
LAYER_2
 10
105.2819
 20
172.7817
  0
SEQEND
  0
ENDBLK
  0
BLOCK
  8
LAYER_2
  2
AIGNBL0201013A
 70
64
 10
0
 20
0
 30
0
  3
AIGNBL0201013A
  0
POLYLINE
  8
LAYER_2
 40
0.2469
 41
0.2469
 66
1
 10
0
 20
0
 30
0
  0
VERTEX
  8
LAYER_2
 10
137.6109
 20
182.142
  0
VERTEX
  8
LAYER_2
 10
139.4506
 20
182.142
  0
SEQEND
  0
ENDBLK
  0
BLOCK
  8
LAYER_2
  2
AIGNBL0201013B
 70
64
 10
0
 20
0
 30
0
  3
AIGNBL0201013B
  0
POLYLINE
  8
LAYER_2
 40
0.2469
 41
0.2469
 66
1
 10
0
 20
0
 30
0
  0
VERTEX
  8
LAYER_2
 10
137.6109
 20
168.5105
  0
VERTEX
  8
LAYER_2
 10
139.4506
 20
168.5105
  0
SEQEND
  0
ENDBLK
  0
BLOCK
  8
LAYER_2
  2
AIGNBL0201013C
 70
64
 10
0
 20
0
 30
0
  3
AIGNBL0201013C
  0
POLYLINE
  8
LAYER_2
  6
AIGENLINE002
 40
0.2469
 41
0.2469
 66
1
 10
0
 20
0
 30
0
 70
128
  0
VERTEX
  8
LAYER_2
 10
109.1572
 20
213.3827
  0
VERTEX
  8
LAYER_2
 10
86.157
 20
213.3827
  0
SEQEND
  0
ENDBLK
  0
BLOCK
  8
LAYER_2
  2
AIGNBL0201013D
 70
64
 10
0
 20
0
 30
0
  3
AIGNBL0201013D
  0
POLYLINE
  8
LAYER_2
  6
AIGENLINE002
 40
0.2469
 41
0.2469
 66
1
 10
0
 20
0
 30
0
 70
128
  0
VERTEX
  8
LAYER_2
 10
94.782
 20
222.0076
  0
VERTEX
  8
LAYER_2
 10
94.782
 20
204.7577
  0
SEQEND
  0
ENDBLK
  0
BLOCK
  8
LAYER_2
  2
AIGNBL0201013E
 70
64
 10
0
 20
0
 30
0
  3
AIGNBL0201013E
  0
POLYLINE
  8
LAYER_2
  6
AIGENLINE002
 40
0.2469
 41
0.2469
 66
1
 10
0
 20
0
 30
0
 70
128
  0
VERTEX
  8
LAYER_2
 10
105.407
 20
211.8827
  0
VERTEX
  8
LAYER_2
 10
105.407
 20
214.8827
  0
SEQEND
  0
ENDBLK
  0
BLOCK
  8
LAYER_2
  2
AIGNBL0201013F
 70
64
 10
0
 20
0
 30
0
  3
AIGNBL0201013F
  0
POLYLINE
  8
LAYER_2
 40
0.2469
 41
0.2469
 66
1
 10
0
 20
0
 30
0
  0
VERTEX
  8
LAYER_2
 10
137.2871
 20
173.8076
 42
0.4142380492
  0
VERTEX
  8
LAYER_2
 10
137.6412
 20
180.1618
  0
VERTEX
  8
LAYER_2
 10
137.2871
 20
180.5159
  0
SEQEND
  0
ENDBLK
  0
BLOCK
  8
LAYER_2
  2
AIGNBL02010140
 70
64
 10
0
 20
0
 30
0
  3
AIGNBL02010140
  0
POLYLINE
  8
LAYER_2
 40
0.05
 41
0.05
 66
1
 10
0
 20
0
 30
0
 70
1
  0
VERTEX
  8
LAYER_2
 10
138.6954
 20
176.0497
  0
VERTEX
  8
LAYER_2
 10
139.228
 20
175.6088
  0
VERTEX
  8
LAYER_2
 10
137.2871
 20
173.8076
  0
SEQEND
  0
ENDBLK
  0
BLOCK
  8
LAYER_2
  2
AIGNBL02010141
 70
64
 10
0
 20
0
 30
0
  3
AIGNBL02010141
  0
POLYLINE
  8
LAYER_2
 40
0.2469
 41
0.2469
 66
1
 10
0
 20
0
 30
0
  0
VERTEX
  8
LAYER_2
 10
137.2871
 20
173.8076
  0
VERTEX
  8
LAYER_2
 10
137.543
 20
174.1167
  0
SEQEND
  0
ENDBLK
  0
BLOCK
  8
LAYER_2
  2
AIGNBL02010142
 70
64
 10
0
 20
0
 30
0
  3
AIGNBL02010142
  0
POLYLINE
  8
LAYER_2
 40
0.05
 41
0.05
 66
1
 10
0
 20
0
 30
0
 70
1
  0
VERTEX
  8
LAYER_2
 10
139.1302
 20
178.6153
  0
VERTEX
  8
LAYER_2
 10
138.5755
 20
178.2029
  0
VERTEX
  8
LAYER_2
 10
137.2871
 20
180.5159
  0
SEQEND
  0
ENDBLK
  0
BLOCK
  8
LAYER_2
  2
AIGNBL02010143
 70
64
 10
0
 20
0
 30
0
  3
AIGNBL02010143
  0
POLYLINE
  8
LAYER_2
 40
0.2469
 41
0.2469
 66
1
 10
0
 20
0
 30
0
  0
VERTEX
  8
LAYER_2
 10
137.2871
 20
180.5159
  0
VERTEX
  8
LAYER_2
 10
137.6426
 20
180.0378
  0
SEQEND
  0
ENDBLK
  0
BLOCK
  8
LAYER_2
  2
AIGNBL02010144
 70
64
 10
0
 20
0
 30
0
  3
AIGNBL02010144
  0
POLYLINE
  8
LAYER_2
 40
0.05
 41
0.05
 66
1
 10
0
 20
0
 30
0
 70
1
  0
VERTEX
  8
LAYER_2
 10
99.5388
 20
66.4841
  0
VERTEX
  8
LAYER_2
 10
99.0944
 20
65.9543
  0
VERTEX
  8
LAYER_2
 10
97.3057
 20
67.9063
  0
SEQEND
  0
ENDBLK
  0
BLOCK
  8
LAYER_2
  2
AIGNBL02010145
 70
64
 10
0
 20
0
 30
0
  3
AIGNBL02010145
  0
POLYLINE
  8
LAYER_2
 40
0.2469
 41
0.2469
 66
1
 10
0
 20
0
 30
0
  0
VERTEX
  8
LAYER_2
 10
97.3057
 20
67.9063
  0
VERTEX
  8
LAYER_2
 10
108.5022
 20
58.5115
  0
SEQEND
  0
POLYLINE
  8
LAYER_2
 40
0.2469
 41
0.2469
 66
1
 10
0
 20
0
 30
0
  0
VERTEX
  8
LAYER_2
 10
108.5022
 20
58.5115
  0
VERTEX
  8
LAYER_2
 10
116.8011
 20
58.5115
  0
SEQEND
  0
ENDBLK
  0
BLOCK
  8
LAYER_2
  2
AIGNBL02010146
 70
64
 10
0
 20
0
 30
0
  3
AIGNBL02010146
  0
POLYLINE
  8
LAYER_2
 40
0.05
 41
0.05
 66
1
 10
0
 20
0
 30
0
 70
1
  0
VERTEX
  8
LAYER_2
 10
90.5452
 20
187.4854
  0
VERTEX
  8
LAYER_2
 10
91.1438
 20
187.8309
  0
VERTEX
  8
LAYER_2
 10
92.157
 20
185.3849
  0
SEQEND
  0
ENDBLK
  0
BLOCK
  8
LAYER_2
  2
AIGNBL02010147
 70
64
 10
0
 20
0
 30
0
  3
AIGNBL02010147
  0
POLYLINE
  8
LAYER_2
 40
0.2469
 41
0.2469
 66
1
 10
0
 20
0
 30
0
  0
VERTEX
  8
LAYER_2
 10
92.157
 20
185.3849
  0
VERTEX
  8
LAYER_2
 10
86.9482
 20
194.4066
  0
SEQEND
  0
POLYLINE
  8
LAYER_2
 40
0.2469
 41
0.2469
 66
1
 10
0
 20
0
 30
0
  0
VERTEX
  8
LAYER_2
 10
86.9482
 20
194.4066
  0
VERTEX
  8
LAYER_2
 10
76.2213
 20
194.4066
  0
SEQEND
  0
ENDBLK
  0
BLOCK
  8
LAYER_2
  2
AIGNBL02010148
 70
64
 10
0
 20
0
 30
0
  3
AIGNBL02010148
  0
POLYLINE
  8
LAYER_2
 40
0.2469
 41
0.2469
 66
1
 10
0
 20
0
 30
0
 70
1
  0
VERTEX
  8
LAYER_2
 10
95.4383
 20
177.1566
 42
0.4141769966
  0
VERTEX
  8
LAYER_2
 10
94.782
 20
177.8129
 42
0.4141965182
  0
VERTEX
  8
LAYER_2
 10
94.1257
 20
177.1566
 42
0.4141745821
  0
VERTEX
  8
LAYER_2
 10
94.782
 20
176.5003
 42
0.4141550636
  0
SEQEND
  0
ENDBLK
  0
BLOCK
  8
LAYER_2
  2
AIGNBL02010149
 70
64
 10
0
 20
0
 30
0
  3
AIGNBL02010149
  0
POLYLINE
  8
LAYER_2
 40
0.05
 41
0.05
 66
1
 10
0
 20
0
 30
0
 70
1
  0
VERTEX
  8
LAYER_2
 10
95.4383
 20
177.1566
 42
0.4141769966
  0
VERTEX
  8
LAYER_2
 10
94.782
 20
177.8129
 42
0.4141965182
  0
VERTEX
  8
LAYER_2
 10
94.1257
 20
177.1566
 42
0.4141745821
  0
VERTEX
  8
LAYER_2
 10
94.782
 20
176.5003
 42
0.4141550636
  0
SEQEND
  0
ENDBLK
  0
BLOCK
  8
LAYER_2
  2
AIGNBL0201014A
 70
64
 10
0
 20
0
 30
0
  3
AIGNBL0201014A
  0
POLYLINE
  8
LAYER_2
 40
0.2469
 41
0.2469
 66
1
 10
0
 20
0
 30
0
  0
VERTEX
  8
LAYER_2
 10
94.782
 20
177.1566
  0
VERTEX
  8
LAYER_2
 10
101.4215
 20
165.6565
  0
SEQEND
  0
POLYLINE
  8
LAYER_2
 40
0.2469
 41
0.2469
 66
1
 10
0
 20
0
 30
0
  0
VERTEX
  8
LAYER_2
 10
101.4215
 20
165.6565
  0
VERTEX
  8
LAYER_2
 10
103.8596
 20
165.6565
  0
SEQEND
  0
ENDBLK
  0
BLOCK
  8
LAYER_2
  2
AIGNBL0201014B
 70
64
 10
0
 20
0
 30
0
  3
AIGNBL0201014B
  0
TEXT
  8
LAYER_2
 10
108.1743
 20
59.4825
 11
108.1743
 21
59.4825
 40
4.7014
 41
0.5
  1
R1/2
  0
ENDBLK
  0
BLOCK
  8
LAYER_2
  2
AIGNBL0201014C
 70
64
 10
0
 20
0
 30
0
  3
AIGNBL0201014C
  0
TEXT
  8
LAYER_2
 10
75.8348
 20
195.3774
 11
75.8348
 21
195.3774
 40
4.7014
 41
0.5
  1
PJ1/2
  0
ENDBLK
  0
BLOCK
  8
LAYER_2
  2
AIGNBL0201014D
 70
64
 10
0
 20
0
 30
0
  3
AIGNBL0201014D
  0
INSERT
  8
LAYER_2
  2
AIGNBL0202014E
 10
0
 20
0
 30
0
  0
INSERT
  8
LAYER_2
  2
AIGNBL0202014F
 10
0
 20
0
 30
0
  0
INSERT
  8
LAYER_2
  2
AIGNBL02020150
 10
0
 20
0
 30
0
  0
INSERT
  8
LAYER_2
  2
AIGNBL02020151
 10
0
 20
0
 30
0
  0
INSERT
  8
LAYER_2
  2
AIGNBL02020152
 10
0
 20
0
 30
0
  0
INSERT
  8
LAYER_2
  2
AIGNBL02020153
 10
0
 20
0
 30
0
  0
ENDBLK
  0
BLOCK
  8
LAYER_2
  2
AIGNBL02010154
 70
64
 10
0
 20
0
 30
0
  3
AIGNBL02010154
  0
INSERT
  8
LAYER_2
  2
AIGNBL02020155
 10
0
 20
0
 30
0
  0
INSERT
  8
LAYER_2
  2
AIGNBL02020156
 10
0
 20
0
 30
0
  0
INSERT
  8
LAYER_2
  2
AIGNBL02020157
 10
0
 20
0
 30
0
  0
INSERT
  8
LAYER_2
  2
AIGNBL02020158
 10
0
 20
0
 30
0
  0
INSERT
  8
LAYER_2
  2
AIGNBL02020159
 10
0
 20
0
 30
0
  0
INSERT
  8
LAYER_2
  2
AIGNBL0202015A
 10
0
 20
0
 30
0
  0
ENDBLK
  0
BLOCK
  8
LAYER_2
  2
AIGNBL0201015B
 70
64
 10
0
 20
0
 30
0
  3
AIGNBL0201015B
  0
INSERT
  8
LAYER_2
  2
AIGNBL0202015C
 10
0
 20
0
 30
0
  0
INSERT
  8
LAYER_2
  2
AIGNBL0202015D
 10
0
 20
0
 30
0
  0
INSERT
  8
LAYER_2
  2
AIGNBL0202015E
 10
0
 20
0
 30
0
  0
INSERT
  8
LAYER_2
  2
AIGNBL0202015F
 10
0
 20
0
 30
0
  0
INSERT
  8
LAYER_2
  2
AIGNBL02020160
 10
0
 20
0
 30
0
  0
INSERT
  8
LAYER_2
  2
AIGNBL02020161
 10
0
 20
0
 30
0
  0
INSERT
  8
LAYER_2
  2
AIGNBL02020162
 10
0
 20
0
 30
0
  0
INSERT
  8
LAYER_2
  2
AIGNBL02020163
 10
0
 20
0
 30
0
  0
ENDBLK
  0
BLOCK
  8
LAYER_2
  2
AIGNBL02010164
 70
64
 10
0
 20
0
 30
0
  3
AIGNBL02010164
  0
INSERT
  8
LAYER_2
  2
AIGNBL02020165
 10
0
 20
0
 30
0
  0
INSERT
  8
LAYER_2
  2
AIGNBL02020166
 10
0
 20
0
 30
0
  0
INSERT
  8
LAYER_2
  2
AIGNBL02020167
 10
0
 20
0
 30
0
  0
INSERT
  8
LAYER_2
  2
AIGNBL02020168
 10
0
 20
0
 30
0
  0
INSERT
  8
LAYER_2
  2
AIGNBL02020169
 10
0
 20
0
 30
0
  0
INSERT
  8
LAYER_2
  2
AIGNBL0202016A
 10
0
 20
0
 30
0
  0
ENDBLK
  0
BLOCK
  8
LAYER_2
  2
AIGNBL0201016B
 70
64
 10
0
 20
0
 30
0
  3
AIGNBL0201016B
  0
INSERT
  8
LAYER_2
  2
AIGNBL0202016C
 10
0
 20
0
 30
0
  0
INSERT
  8
LAYER_2
  2
AIGNBL0202016D
 10
0
 20
0
 30
0
  0
INSERT
  8
LAYER_2
  2
AIGNBL0202016E
 10
0
 20
0
 30
0
  0
INSERT
  8
LAYER_2
  2
AIGNBL0202016F
 10
0
 20
0
 30
0
  0
INSERT
  8
LAYER_2
  2
AIGNBL02020170
 10
0
 20
0
 30
0
  0
INSERT
  8
LAYER_2
  2
AIGNBL02020171
 10
0
 20
0
 30
0
  0
INSERT
  8
LAYER_2
  2
AIGNBL02020172
 10
0
 20
0
 30
0
  0
INSERT
  8
LAYER_2
  2
AIGNBL02020173
 10
0
 20
0
 30
0
  0
ENDBLK
  0
BLOCK
  8
LAYER_2
  2
AIGNBL02010174
 70
64
 10
0
 20
0
 30
0
  3
AIGNBL02010174
  0
INSERT
  8
LAYER_2
  2
AIGNBL02020175
 10
0
 20
0
 30
0
  0
INSERT
  8
LAYER_2
  2
AIGNBL02020176
 10
0
 20
0
 30
0
  0
INSERT
  8
LAYER_2
  2
AIGNBL02020177
 10
0
 20
0
 30
0
  0
INSERT
  8
LAYER_2
  2
AIGNBL02020178
 10
0
 20
0
 30
0
  0
INSERT
  8
LAYER_2
  2
AIGNBL02020179
 10
0
 20
0
 30
0
  0
INSERT
  8
LAYER_2
  2
AIGNBL0202017A
 10
0
 20
0
 30
0
  0
INSERT
  8
LAYER_2
  2
AIGNBL0202017B
 10
0
 20
0
 30
0
  0
INSERT
  8
LAYER_2
  2
AIGNBL0202017C
 10
0
 20
0
 30
0
  0
ENDBLK
  0
BLOCK
  8
LAYER_2
  2
AIGNBL0201017D
 70
64
 10
0
 20
0
 30
0
  3
AIGNBL0201017D
  0
INSERT
  8
LAYER_2
  2
AIGNBL0202017E
 10
0
 20
0
 30
0
  0
INSERT
  8
LAYER_2
  2
AIGNBL0202017F
 10
0
 20
0
 30
0
  0
INSERT
  8
LAYER_2
  2
AIGNBL02020180
 10
0
 20
0
 30
0
  0
INSERT
  8
LAYER_2
  2
AIGNBL02020181
 10
0
 20
0
 30
0
  0
INSERT
  8
LAYER_2
  2
AIGNBL02020182
 10
0
 20
0
 30
0
  0
INSERT
  8
LAYER_2
  2
AIGNBL02020183
 10
0
 20
0
 30
0
  0
ENDBLK
  0
BLOCK
  8
LAYER_7
  2
AIGNBL07010002
 70
64
 10
0
 20
0
 30
0
  3
AIGNBL07010002
  0
POLYLINE
  8
LAYER_7
 40
0.7056
 41
0.7056
 66
1
 10
0
 20
0
 30
0
 70
1
  0
VERTEX
  8
LAYER_7
 10
206.0763
 20
269.2235
  0
VERTEX
  8
LAYER_7
 10
206.0763
 20
-7.7766
  0
VERTEX
  8
LAYER_7
 10
16.0764
 20
-7.7766
  0
VERTEX
  8
LAYER_7
 10
16.0764
 20
269.2235
  0
SEQEND
  0
ENDBLK
  0
BLOCK
  8
LAYER_7
  2
AIGNBL07010003
 70
64
 10
0
 20
0
 30
0
  3
AIGNBL07010003
  0
INSERT
  8
LAYER_7
  2
AIGNBL07020004
 10
0
 20
0
 30
0
  0
INSERT
  8
LAYER_7
  2
AIGNBL0702000D
 10
0
 20
0
 30
0
  0
ENDBLK
  0
ENDSEC
  0
SECTION
  2
ENTITIES
  0
INSERT
  8
LAYER_1
  2
AIGNBL01010002
 10
0
 20
0
 30
0
  0
INSERT
  8
LAYER_1
  2
AIGNBL01010003
 10
0
 20
0
 30
0
  0
INSERT
  8
LAYER_1
  2
AIGNBL01010004
 10
0
 20
0
 30
0
  0
INSERT
  8
LAYER_1
  2
AIGNBL01010005
 10
0
 20
0
 30
0
  0
INSERT
  8
LAYER_1
  2
AIGNBL01010006
 10
0
 20
0
 30
0
  0
INSERT
  8
LAYER_1
  2
AIGNBL01010007
 10
0
 20
0
 30
0
  0
INSERT
  8
LAYER_1
  2
AIGNBL01010008
 10
0
 20
0
 30
0
  0
INSERT
  8
LAYER_1
  2
AIGNBL01010009
 10
0
 20
0
 30
0
  0
INSERT
  8
LAYER_1
  2
AIGNBL0101000A
 10
0
 20
0
 30
0
  0
INSERT
  8
LAYER_2
  2
AIGNBL02010002
 10
0
 20
0
 30
0
  0
INSERT
  8
LAYER_2
  2
AIGNBL02010035
 10
0
 20
0
 30
0
  0
INSERT
  8
LAYER_2
  2
AIGNBL020100C4
 10
0
 20
0
 30
0
  0
INSERT
  8
LAYER_2
  2
AIGNBL020100D6
 10
0
 20
0
 30
0
  0
INSERT
  8
LAYER_2
  2
AIGNBL020100F2
 10
0
 20
0
 30
0
  0
INSERT
  8
LAYER_2
  2
AIGNBL020100FF
 10
0
 20
0
 30
0
  0
INSERT
  8
LAYER_2
  2
AIGNBL0201010F
 10
0
 20
0
 30
0
  0
INSERT
  8
LAYER_2
  2
AIGNBL02010134
 10
0
 20
0
 30
0
  0
INSERT
  8
LAYER_2
  2
AIGNBL02010135
 10
0
 20
0
 30
0
  0
INSERT
  8
LAYER_2
  2
AIGNBL02010136
 10
0
 20
0
 30
0
  0
INSERT
  8
LAYER_2
  2
AIGNBL02010137
 10
0
 20
0
 30
0
  0
INSERT
  8
LAYER_2
  2
AIGNBL02010138
 10
0
 20
0
 30
0
  0
INSERT
  8
LAYER_2
  2
AIGNBL02010139
 10
0
 20
0
 30
0
  0
INSERT
  8
LAYER_2
  2
AIGNBL0201013A
 10
0
 20
0
 30
0
  0
INSERT
  8
LAYER_2
  2
AIGNBL0201013B
 10
0
 20
0
 30
0
  0
INSERT
  8
LAYER_2
  2
AIGNBL0201013C
 10
0
 20
0
 30
0
  0
INSERT
  8
LAYER_2
  2
AIGNBL0201013D
 10
0
 20
0
 30
0
  0
INSERT
  8
LAYER_2
  2
AIGNBL0201013E
 10
0
 20
0
 30
0
  0
INSERT
  8
LAYER_2
  2
AIGNBL0201013F
 10
0
 20
0
 30
0
  0
INSERT
  8
LAYER_2
  2
AIGNBL02010140
 10
0
 20
0
 30
0
  0
INSERT
  8
LAYER_2
  2
AIGNBL02010141
 10
0
 20
0
 30
0
  0
INSERT
  8
LAYER_2
  2
AIGNBL02010142
 10
0
 20
0
 30
0
  0
INSERT
  8
LAYER_2
  2
AIGNBL02010143
 10
0
 20
0
 30
0
  0
INSERT
  8
LAYER_2
  2
AIGNBL02010144
 10
0
 20
0
 30
0
  0
INSERT
  8
LAYER_2
  2
AIGNBL02010145
 10
0
 20
0
 30
0
  0
INSERT
  8
LAYER_2
  2
AIGNBL02010146
 10
0
 20
0
 30
0
  0
INSERT
  8
LAYER_2
  2
AIGNBL02010147
 10
0
 20
0
 30
0
  0
INSERT
  8
LAYER_2
  2
AIGNBL02010148
 10
0
 20
0
 30
0
  0
INSERT
  8
LAYER_2
  2
AIGNBL02010149
 10
0
 20
0
 30
0
  0
INSERT
  8
LAYER_2
  2
AIGNBL0201014A
 10
0
 20
0
 30
0
  0
INSERT
  8
LAYER_2
  2
AIGNBL0201014B
 10
0
 20
0
 30
0
  0
INSERT
  8
LAYER_2
  2
AIGNBL0201014C
 10
0
 20
0
 30
0
  0
INSERT
  8
LAYER_2
  2
AIGNBL0201014D
 10
0
 20
0
 30
0
  0
INSERT
  8
LAYER_2
  2
AIGNBL02010154
 10
0
 20
0
 30
0
  0
INSERT
  8
LAYER_2
  2
AIGNBL0201015B
 10
0
 20
0
 30
0
  0
INSERT
  8
LAYER_2
  2
AIGNBL02010164
 10
0
 20
0
 30
0
  0
INSERT
  8
LAYER_2
  2
AIGNBL0201016B
 10
0
 20
0
 30
0
  0
INSERT
  8
LAYER_2
  2
AIGNBL02010174
 10
0
 20
0
 30
0
  0
INSERT
  8
LAYER_2
  2
AIGNBL0201017D
 10
0
 20
0
 30
0
  0
TEXT
  8
LAYER_7
 10
18.4399
 20
5.4632
 11
18.4399
 21
5.4632
 40
3.277
 41
0.5
  1
仕様
  0
POLYLINE
  8
LAYER_7
 40
0.3528
 41
0.3528
 66
1
 10
0
 20
0
 30
0
  0
VERTEX
  8
LAYER_7
 10
205.0762
 20
10.8455
  0
VERTEX
  8
LAYER_7
 10
17.0763
 20
10.8455
  0
SEQEND
  0
INSERT
  8
LAYER_7
  2
AIGNBL07010002
 10
0
 20
0
 30
0
  0
POLYLINE
  8
LAYER_7
 40
0.3528
 41
0.3528
 66
1
 10
0
 20
0
 30
0
  0
VERTEX
  8
LAYER_7
 10
17.0763
 20
268.2234
  0
VERTEX
  8
LAYER_7
 10
17.0763
 20
-6.7769
  0
VERTEX
  8
LAYER_7
 10
205.0762
 20
-6.7769
  0
VERTEX
  8
LAYER_7
 10
205.0762
 20
268.2234
  0
VERTEX
  8
LAYER_7
 10
17.0763
 20
268.2234
  0
SEQEND
  0
POLYLINE
  8
LAYER_7
 40
0.3528
 41
0.3528
 66
1
 10
0
 20
0
 30
0
  0
VERTEX
  8
LAYER_7
 10
205.0762
 20
19.3546
  0
VERTEX
  8
LAYER_7
 10
17.0763
 20
19.3546
  0
SEQEND
  0
POLYLINE
  8
LAYER_7
 40
0.3528
 41
0.3528
 66
1
 10
0
 20
0
 30
0
  0
VERTEX
  8
LAYER_7
 10
205.0762
 20
2.3365
  0
VERTEX
  8
LAYER_7
 10
127.3025
 20
2.3365
  0
SEQEND
  0
TEXT
  8
LAYER_7
 10
157.5084
 20
4.5803
 11
157.5084
 21
4.5803
 40
3.8668
 41
0.5
  1
-
  0
TEXT
  8
LAYER_7
 10
152.2167
 20
8.3692
 11
152.2167
 21
8.3692
 40
2.1846
 41
0.5
  1
縮尺
  0
POLYLINE
  8
LAYER_7
 40
0.3528
 41
0.3528
 66
1
 10
0
 20
0
 30
0
  0
VERTEX
  8
LAYER_7
 10
150.6885
 20
2.3365
  0
VERTEX
  8
LAYER_7
 10
150.6885
 20
10.8455
  0
SEQEND
  0
TEXT
  8
LAYER_7
 10
128.0011
 20
16.8782
 11
128.0011
 21
16.8782
 40
2.1846
 41
0.5
  1
品番
  0
TEXT
  8
LAYER_7
 10
18.2332
 20
16.8782
 11
18.2332
 21
16.8782
 40
2.1846
 41
0.5
  1
品名
  0
TEXT
  8
LAYER_7
 10
128.0011
 20
8.3692
 11
128.0011
 21
8.3692
 40
2.1846
 41
0.5
  1
重量
  0
TEXT
  8
LAYER_7
 10
135.5345
 20
13.0462
 11
135.5345
 21
13.0462
 40
5.9385
 41
0.5
  1
AQ-2161S
  0
TEXT
  8
LAYER_7
 10
133.3138
 20
4.5803
 11
133.3138
 21
4.5803
 40
3.8668
 41
0.5
  1
-
  0
POLYLINE
  8
LAYER_7
 40
0.3528
 41
0.3528
 66
1
 10
0
 20
0
 30
0
  0
VERTEX
  8
LAYER_7
 10
127.3025
 20
-6.1512
  0
VERTEX
  8
LAYER_7
 10
127.3025
 20
19.3546
  0
SEQEND
  0
TEXT
  8
LAYER_7
 10
24.4426
 20
13.7859
 11
24.4426
 21
13.7859
 40
3.6124
 41
0.5
  1
ストレート形止水栓
  0
TEXT
  8
LAYER_7
 10
29.012
 20
6.2546
 11
29.012
 21
6.2546
 40
3.3492
 41
0.5
  1
●クロム●へリューズナシ●JIS
  0
TEXT
  8
LAYER_7
 10
191.6644
 20
22.153
 11
191.6644
 21
22.153
 40
3.0447
 41
0.5
  1
単位：mm
  0
TEXT
  8
LAYER_7
 10
192.6441
 20
263.4961
 11
192.6441
 21
263.4961
 40
2.1313
 41
0.5
  1
170310RT
  0
TEXT
  8
LAYER_7
 10
154.3861
 20
-1.5679
 11
154.3861
 21
-1.5679
 40
2.9498
 41
0.5
  1
●TEL 0120-65-1232●FAX 06-6532-1580
  0
TEXT
  8
LAYER_7
 10
154.3861
 20
-4.5713
 11
154.3861
 21
-4.5713
 40
2.9498
 41
0.5
  1
hits@hiratatile.co.jp
  0
INSERT
  8
LAYER_7
  2
AIGNBL07010003
 10
0
 20
0
 30
0
  0
ENDSEC
  0
EOF
