  0
SECTION
  2
HEADER
  9
$ACADVER
  1
AC1009
  9
$LUNITS
 70
2
  9
$LUPREC
 70
4
  9
$LTSCALE
 40
1.0
  9
$EXTMIN
 10
16.0764
 20
-7.7766
 30
0
  9
$EXTMAX
 10
206.0763
 20
269.2235
 30
0
  0
ENDSEC
  0
SECTION
  2
TABLES
  0
TABLE
  2
LTYPE
 70
256
  0
LTYPE
  2
AIGENLINE001
 70
64
  3
generate AI->DXF Converter
 72
65
 73
6
 40
13.0071
 49
10
 49
-1
 49
0.0035
 49
-1
 49
0.0035
 49
-1
  0
LTYPE
  2
AIGENLINE002
 70
64
  3
generate AI->DXF Converter
 72
65
 73
4
 40
14
 49
11
 49
-1
 49
1
 49
-1
  0
ENDTAB
  0
TABLE
  2
LAYER
 70
7
  0
LAYER
  2
LAYER_1
 70
64
 62
7
  6
CONTINUOUS
  0
LAYER
  2
LAYER_2
 70
64
 62
7
  6
CONTINUOUS
  0
LAYER
  2
LAYER_3
 70
64
 62
7
  6
CONTINUOUS
  0
LAYER
  2
LAYER_4
 70
64
 62
7
  6
CONTINUOUS
  0
LAYER
  2
LAYER_5
 70
64
 62
7
  6
CONTINUOUS
  0
LAYER
  2
LAYER_6
 70
64
 62
7
  6
CONTINUOUS
  0
LAYER
  2
LAYER_7
 70
64
 62
7
  6
CONTINUOUS
  0
ENDTAB
  0
TABLE
  2
STYLE
 70
6
  0
STYLE
  2
STANDARD
 70
0
 40
0
 50
0
 71
0
 41
0
 42
0
  3
TXT
  4
BIGFONT
  0
ENDTAB
  0
ENDSEC
  0
SECTION
  2
BLOCKS
  0
BLOCK
  8
LAYER_7
  2
AIGNBL07040006
 70
64
 10
0
 20
0
 30
0
  3
AIGNBL07040006
  0
POLYLINE
  8
LAYER_7
 40
0.05
 41
0.05
 66
1
 10
0
 20
0
 30
0
 70
1
  0
VERTEX
  8
LAYER_7
 10
129.5759
 20
-1.9017
  0
VERTEX
  8
LAYER_7
 10
129.1615
 20
-2.9063
  0
VERTEX
  8
LAYER_7
 10
128.6292
 20
-2.9063
  0
VERTEX
  8
LAYER_7
 10
129.9848
 20
0.2856
  0
VERTEX
  8
LAYER_7
 10
130.6063
 20
0.2856
  0
VERTEX
  8
LAYER_7
 10
131.9682
 20
-2.9063
  0
VERTEX
  8
LAYER_7
 10
131.417
 20
-2.9063
  0
VERTEX
  8
LAYER_7
 10
130.9908
 20
-1.9017
  0
SEQEND
  0
POLYLINE
  8
LAYER_7
 40
0.05
 41
0.05
 66
1
 10
0
 20
0
 30
0
 70
1
  0
VERTEX
  8
LAYER_7
 10
130.8843
 20
-1.5806
  0
VERTEX
  8
LAYER_7
 10
130.4937
 20
-0.6611
 42
-0.02231634433
  0
VERTEX
  8
LAYER_7
 10
130.2863
 20
-0.0789
  0
VERTEX
  8
LAYER_7
 10
130.2746
 20
-0.0789
  0
VERTEX
  8
LAYER_7
 10
130.073
 20
-0.6573
  0
VERTEX
  8
LAYER_7
 10
129.6827
 20
-1.5806
  0
SEQEND
  0
ENDBLK
  0
BLOCK
  8
LAYER_7
  2
AIGNBL07040007
 70
64
 10
0
 20
0
 30
0
  3
AIGNBL07040007
  0
POLYLINE
  8
LAYER_7
 40
0.05
 41
0.05
 66
1
 10
0
 20
0
 30
0
 70
1
  0
VERTEX
  8
LAYER_7
 10
135.6682
 20
-3.3752
 42
-0.01547641901
  0
VERTEX
  8
LAYER_7
 10
134.1406
 20
-3.0055
 42
0.09489436555
  0
VERTEX
  8
LAYER_7
 10
133.8978
 20
-2.9586
 42
-0.100373793
  0
VERTEX
  8
LAYER_7
 10
133.0335
 20
-2.7616
 42
-0.1097040442
  0
VERTEX
  8
LAYER_7
 10
132.4708
 20
-2.3298
 42
-0.1713304141
  0
VERTEX
  8
LAYER_7
 10
132.1403
 20
-1.3917
 42
-0.006481434724
  0
VERTEX
  8
LAYER_7
 10
132.1397
 20
-1.3439
 42
-0.1157034776
  0
VERTEX
  8
LAYER_7
 10
132.3143
 20
-0.5737
 42
-0.1679073219
  0
VERTEX
  8
LAYER_7
 10
133.0508
 20
0.1353
 42
-0.1003512093
  0
VERTEX
  8
LAYER_7
 10
133.8492
 20
0.3333
 42
-0.01509702754
  0
VERTEX
  8
LAYER_7
 10
133.9987
 20
0.3376
 42
-0.1039813645
  0
VERTEX
  8
LAYER_7
 10
134.8741
 20
0.1618
 42
-0.1145898629
  0
VERTEX
  8
LAYER_7
 10
135.4471
 20
-0.2739
 42
-0.1701856296
  0
VERTEX
  8
LAYER_7
 10
135.7859
 20
-1.2334
 42
-0.006054360336
  0
VERTEX
  8
LAYER_7
 10
135.7864
 20
-1.2774
 42
-0.1147423235
  0
VERTEX
  8
LAYER_7
 10
135.6161
 20
-2.0449
 42
-0.1769022546
  0
VERTEX
  8
LAYER_7
 10
134.889
 20
-2.7221
 42
-0.03554750027
  0
VERTEX
  8
LAYER_7
 10
134.6498
 20
-2.8071
  0
VERTEX
  8
LAYER_7
 10
134.6498
 20
-2.826
 42
0.01550615466
  0
VERTEX
  8
LAYER_7
 10
135.8163
 20
-3.0296
  0
SEQEND
  0
POLYLINE
  8
LAYER_7
 40
0.05
 41
0.05
 66
1
 10
0
 20
0
 30
0
 70
1
  0
VERTEX
  8
LAYER_7
 10
135.242
 20
-1.2957
 42
0.1259362341
  0
VERTEX
  8
LAYER_7
 10
135.0661
 20
-0.6047
 42
0.276679865
  0
VERTEX
  8
LAYER_7
 10
133.9805
 20
0.0014
 42
0.1289955121
  0
VERTEX
  8
LAYER_7
 10
133.2944
 20
-0.169
 42
0.1986420642
  0
VERTEX
  8
LAYER_7
 10
132.7484
 20
-0.8931
 42
0.0720917222
  0
VERTEX
  8
LAYER_7
 10
132.6903
 20
-1.3336
 42
0.1266906031
  0
VERTEX
  8
LAYER_7
 10
132.8535
 20
-1.9998
 42
0.2778283058
  0
VERTEX
  8
LAYER_7
 10
133.957
 20
-2.6228
 42
0.1289619697
  0
VERTEX
  8
LAYER_7
 10
134.6333
 20
-2.4541
 42
0.197407087
  0
VERTEX
  8
LAYER_7
 10
135.1812
 20
-1.7353
 42
0.07132386385
  0
SEQEND
  0
ENDBLK
  0
BLOCK
  8
LAYER_7
  2
AIGNBL07040008
 70
64
 10
0
 20
0
 30
0
  3
AIGNBL07040008
  0
POLYLINE
  8
LAYER_7
 40
0.05
 41
0.05
 66
1
 10
0
 20
0
 30
0
 70
1
  0
VERTEX
  8
LAYER_7
 10
136.9115
 20
0.2856
  0
VERTEX
  8
LAYER_7
 10
136.9115
 20
-1.604
 42
0.138981145
  0
VERTEX
  8
LAYER_7
 10
137.0775
 20
-2.2603
 42
0.2426831429
  0
VERTEX
  8
LAYER_7
 10
137.7307
 20
-2.6183
 42
0.02279944991
  0
VERTEX
  8
LAYER_7
 10
137.841
 20
-2.6228
 42
0.1446978164
  0
VERTEX
  8
LAYER_7
 10
138.4458
 20
-2.4624
 42
0.1656419574
  0
VERTEX
  8
LAYER_7
 10
138.7434
 20
-2.0609
 42
0.08654413867
  0
VERTEX
  8
LAYER_7
 10
138.8119
 20
-1.604
  0
VERTEX
  8
LAYER_7
 10
138.8119
 20
0.2856
  0
VERTEX
  8
LAYER_7
 10
139.3328
 20
0.2856
  0
VERTEX
  8
LAYER_7
 10
139.3328
 20
-1.5758
 42
-0.1213960252
  0
VERTEX
  8
LAYER_7
 10
139.1651
 20
-2.3157
 42
-0.2016266738
  0
VERTEX
  8
LAYER_7
 10
138.4576
 20
-2.87
 42
-0.07892314617
  0
VERTEX
  8
LAYER_7
 10
137.8231
 20
-2.9586
 42
-0.1140673463
  0
VERTEX
  8
LAYER_7
 10
137.0107
 20
-2.7878
 42
-0.2086854916
  0
VERTEX
  8
LAYER_7
 10
136.4579
 20
-2.1056
 42
-0.07376116688
  0
VERTEX
  8
LAYER_7
 10
136.3906
 20
-1.5944
  0
VERTEX
  8
LAYER_7
 10
136.3906
 20
0.2856
  0
SEQEND
  0
ENDBLK
  0
BLOCK
  8
LAYER_7
  2
AIGNBL07040009
 70
64
 10
0
 20
0
 30
0
  3
AIGNBL07040009
  0
POLYLINE
  8
LAYER_7
 40
0.05
 41
0.05
 66
1
 10
0
 20
0
 30
0
 70
1
  0
VERTEX
  8
LAYER_7
 10
140.8131
 20
-1.9017
  0
VERTEX
  8
LAYER_7
 10
140.3983
 20
-2.9063
  0
VERTEX
  8
LAYER_7
 10
139.8661
 20
-2.9063
  0
VERTEX
  8
LAYER_7
 10
141.2217
 20
0.2856
  0
VERTEX
  8
LAYER_7
 10
141.8428
 20
0.2856
  0
VERTEX
  8
LAYER_7
 10
143.2047
 20
-2.9063
  0
VERTEX
  8
LAYER_7
 10
142.6542
 20
-2.9063
  0
VERTEX
  8
LAYER_7
 10
142.228
 20
-1.9017
  0
SEQEND
  0
POLYLINE
  8
LAYER_7
 40
0.05
 41
0.05
 66
1
 10
0
 20
0
 30
0
 70
1
  0
VERTEX
  8
LAYER_7
 10
142.1212
 20
-1.5806
  0
VERTEX
  8
LAYER_7
 10
141.7302
 20
-0.6611
 42
-0.02125651819
  0
VERTEX
  8
LAYER_7
 10
141.5228
 20
-0.0789
  0
VERTEX
  8
LAYER_7
 10
141.5111
 20
-0.0789
 42
-0.02103918769
  0
VERTEX
  8
LAYER_7
 10
141.3099
 20
-0.6573
  0
VERTEX
  8
LAYER_7
 10
140.9192
 20
-1.5806
  0
SEQEND
  0
ENDBLK
  0
BLOCK
  8
LAYER_7
  2
AIGNBL0704000A
 70
64
 10
0
 20
0
 30
0
  3
AIGNBL0704000A
  0
POLYLINE
  8
LAYER_7
 40
0.05
 41
0.05
 66
1
 10
0
 20
0
 30
0
 70
1
  0
VERTEX
  8
LAYER_7
 10
144.0866
 20
0.2477
 42
-0.03323004622
  0
VERTEX
  8
LAYER_7
 10
145.0757
 20
0.3097
 42
-0.09650604132
  0
VERTEX
  8
LAYER_7
 10
146.0056
 20
0.1514
 42
-0.05239648876
  0
VERTEX
  8
LAYER_7
 10
146.1943
 20
0.0444
 42
-0.2475475663
  0
VERTEX
  8
LAYER_7
 10
146.5433
 20
-0.6236
 42
-0.1633493674
  0
VERTEX
  8
LAYER_7
 10
146.3723
 20
-1.1652
 42
-0.05697336531
  0
VERTEX
  8
LAYER_7
 10
146.2357
 20
-1.3053
 42
-0.1301814771
  0
VERTEX
  8
LAYER_7
 10
145.5827
 20
-1.6002
 42
-0.05286501804
  0
VERTEX
  8
LAYER_7
 10
145.0161
 20
-1.6561
 42
-0.0589106892
  0
VERTEX
  8
LAYER_7
 10
144.602
 20
-1.6275
  0
VERTEX
  8
LAYER_7
 10
144.602
 20
-2.9063
  0
VERTEX
  8
LAYER_7
 10
144.0866
 20
-2.9063
  0
SEQEND
  0
POLYLINE
  8
LAYER_7
 40
0.05
 41
0.05
 66
1
 10
0
 20
0
 30
0
 70
1
  0
VERTEX
  8
LAYER_7
 10
144.602
 20
-1.2912
 42
0.04848394292
  0
VERTEX
  8
LAYER_7
 10
145.0278
 20
-1.3246
 42
0.1267241775
  0
VERTEX
  8
LAYER_7
 10
145.737
 20
-1.1646
 42
0.1801713856
  0
VERTEX
  8
LAYER_7
 10
146.0018
 20
-0.8343
 42
0.07354410889
  0
VERTEX
  8
LAYER_7
 10
146.029
 20
-0.6425
 42
0.3108550011
  0
VERTEX
  8
LAYER_7
 10
145.6717
 20
-0.1192
 42
0.1110538748
  0
VERTEX
  8
LAYER_7
 10
145.0878
 20
-0.0176
 42
0.05507706355
  0
VERTEX
  8
LAYER_7
 10
144.602
 20
-0.0506
  0
SEQEND
  0
ENDBLK
  0
BLOCK
  8
LAYER_7
  2
AIGNBL0704000B
 70
64
 10
0
 20
0
 30
0
  3
AIGNBL0704000B
  0
POLYLINE
  8
LAYER_7
 40
0.05
 41
0.05
 66
1
 10
0
 20
0
 30
0
 70
1
  0
VERTEX
  8
LAYER_7
 10
147.859
 20
0.03
 42
-0.3245339907
  0
VERTEX
  8
LAYER_7
 10
147.6969
 20
-0.1954
 42
-0.09620347437
  0
VERTEX
  8
LAYER_7
 10
147.5269
 20
-0.226
 42
-0.2676237393
  0
VERTEX
  8
LAYER_7
 10
147.2363
 20
-0.0702
 42
-0.1146413536
  0
VERTEX
  8
LAYER_7
 10
147.2131
 20
0.03
 42
-0.3124013774
  0
VERTEX
  8
LAYER_7
 10
147.3861
 20
0.2622
 42
-0.09436570029
  0
VERTEX
  8
LAYER_7
 10
147.5386
 20
0.2901
 42
-0.2690720095
  0
VERTEX
  8
LAYER_7
 10
147.8351
 20
0.1355
 42
-0.1137202002
  0
SEQEND
  0
POLYLINE
  8
LAYER_7
 40
0.05
 41
0.05
 66
1
 10
0
 20
0
 30
0
 70
1
  0
VERTEX
  8
LAYER_7
 10
147.2778
 20
-2.9063
  0
VERTEX
  8
LAYER_7
 10
147.2778
 20
-0.6143
  0
VERTEX
  8
LAYER_7
 10
147.7987
 20
-0.6143
  0
VERTEX
  8
LAYER_7
 10
147.7987
 20
-2.9063
  0
SEQEND
  0
ENDBLK
  0
BLOCK
  8
LAYER_7
  2
AIGNBL0704000C
 70
64
 10
0
 20
0
 30
0
  3
AIGNBL0704000C
  0
POLYLINE
  8
LAYER_7
 40
0.05
 41
0.05
 66
1
 10
0
 20
0
 30
0
 70
1
  0
VERTEX
  8
LAYER_7
 10
149.3852
 20
-1.9017
  0
VERTEX
  8
LAYER_7
 10
148.9714
 20
-2.9063
  0
VERTEX
  8
LAYER_7
 10
148.4381
 20
-2.9063
  0
VERTEX
  8
LAYER_7
 10
149.7941
 20
0.2856
  0
VERTEX
  8
LAYER_7
 10
150.416
 20
0.2856
  0
VERTEX
  8
LAYER_7
 10
151.7778
 20
-2.9063
  0
VERTEX
  8
LAYER_7
 10
151.2269
 20
-2.9063
  0
VERTEX
  8
LAYER_7
 10
150.8008
 20
-1.9017
  0
SEQEND
  0
POLYLINE
  8
LAYER_7
 40
0.05
 41
0.05
 66
1
 10
0
 20
0
 30
0
 70
1
  0
VERTEX
  8
LAYER_7
 10
150.694
 20
-1.5806
  0
VERTEX
  8
LAYER_7
 10
150.3033
 20
-0.6611
 42
-0.02374663041
  0
VERTEX
  8
LAYER_7
 10
150.0966
 20
-0.0789
  0
VERTEX
  8
LAYER_7
 10
150.0842
 20
-0.0789
  0
VERTEX
  8
LAYER_7
 10
149.883
 20
-0.6573
  0
VERTEX
  8
LAYER_7
 10
149.4923
 20
-1.5806
  0
SEQEND
  0
ENDBLK
  0
BLOCK
  8
LAYER_2
  2
AIGNBL020300F7
 70
64
 10
0
 20
0
 30
0
  3
AIGNBL020300F7
  0
POLYLINE
  8
LAYER_2
 40
0.2469
 41
0.2469
 66
1
 10
0
 20
0
 30
0
  0
VERTEX
  8
LAYER_2
 10
65.8408
 20
158.0455
  0
VERTEX
  8
LAYER_2
 10
65.8408
 20
158.0444
  0
SEQEND
  0
ENDBLK
  0
BLOCK
  8
LAYER_2
  2
AIGNBL020300F8
 70
64
 10
0
 20
0
 30
0
  3
AIGNBL020300F8
  0
POLYLINE
  8
LAYER_2
 40
0.2469
 41
0.2469
 66
1
 10
0
 20
0
 30
0
  0
VERTEX
  8
LAYER_2
 10
69.305
 20
158.0455
  0
VERTEX
  8
LAYER_2
 10
69.305
 20
159.0623
  0
SEQEND
  0
ENDBLK
  0
BLOCK
  8
LAYER_2
  2
AIGNBL020300F9
 70
64
 10
0
 20
0
 30
0
  3
AIGNBL020300F9
  0
POLYLINE
  8
LAYER_2
 40
0.2469
 41
0.2469
 66
1
 10
0
 20
0
 30
0
  0
VERTEX
  8
LAYER_2
 10
65.8408
 20
158.0455
  0
VERTEX
  8
LAYER_2
 10
69.305
 20
158.0455
  0
SEQEND
  0
ENDBLK
  0
BLOCK
  8
LAYER_2
  2
AIGNBL020300FA
 70
64
 10
0
 20
0
 30
0
  3
AIGNBL020300FA
  0
POLYLINE
  8
LAYER_2
 40
0.2469
 41
0.2469
 66
1
 10
0
 20
0
 30
0
  0
VERTEX
  8
LAYER_2
 10
66.0728
 20
159.2943
  0
VERTEX
  8
LAYER_2
 10
66.2554
 20
159.2943
  0
SEQEND
  0
ENDBLK
  0
BLOCK
  8
LAYER_2
  2
AIGNBL020300FB
 70
64
 10
0
 20
0
 30
0
  3
AIGNBL020300FB
  0
POLYLINE
  8
LAYER_2
 40
0.2469
 41
0.2469
 66
1
 10
0
 20
0
 30
0
  0
VERTEX
  8
LAYER_2
 10
66.7067
 20
159.0623
  0
VERTEX
  8
LAYER_2
 10
66.7067
 20
158.0444
  0
SEQEND
  0
ENDBLK
  0
BLOCK
  8
LAYER_2
  2
AIGNBL020300FC
 70
64
 10
0
 20
0
 30
0
  3
AIGNBL020300FC
  0
POLYLINE
  8
LAYER_2
 40
0.2469
 41
0.2469
 66
1
 10
0
 20
0
 30
0
  0
VERTEX
  8
LAYER_2
 10
66.0728
 20
159.2943
  0
VERTEX
  8
LAYER_2
 10
65.8408
 20
159.0623
  0
SEQEND
  0
ENDBLK
  0
BLOCK
  8
LAYER_2
  2
AIGNBL020300FD
 70
64
 10
0
 20
0
 30
0
  3
AIGNBL020300FD
  0
POLYLINE
  8
LAYER_2
 40
0.2469
 41
0.2469
 66
1
 10
0
 20
0
 30
0
  0
VERTEX
  8
LAYER_2
 10
65.8408
 20
159.0623
  0
VERTEX
  8
LAYER_2
 10
65.8408
 20
158.0455
  0
SEQEND
  0
ENDBLK
  0
BLOCK
  8
LAYER_2
  2
AIGNBL020300FE
 70
64
 10
0
 20
0
 30
0
  3
AIGNBL020300FE
  0
POLYLINE
  8
LAYER_2
 40
0.2469
 41
0.2469
 66
1
 10
0
 20
0
 30
0
  0
VERTEX
  8
LAYER_2
 10
67.5728
 20
159.2943
  0
VERTEX
  8
LAYER_2
 10
66.2774
 20
159.2943
  0
SEQEND
  0
ENDBLK
  0
BLOCK
  8
LAYER_2
  2
AIGNBL020300FF
 70
64
 10
0
 20
0
 30
0
  3
AIGNBL020300FF
  0
POLYLINE
  8
LAYER_2
 40
0.2469
 41
0.2469
 66
1
 10
0
 20
0
 30
0
  0
VERTEX
  8
LAYER_2
 10
68.8902
 20
159.2943
  0
VERTEX
  8
LAYER_2
 10
69.0728
 20
159.2943
  0
SEQEND
  0
ENDBLK
  0
BLOCK
  8
LAYER_2
  2
AIGNBL02030100
 70
64
 10
0
 20
0
 30
0
  3
AIGNBL02030100
  0
POLYLINE
  8
LAYER_2
 40
0.2469
 41
0.2469
 66
1
 10
0
 20
0
 30
0
  0
VERTEX
  8
LAYER_2
 10
68.4389
 20
158.0444
  0
VERTEX
  8
LAYER_2
 10
68.4389
 20
159.0623
  0
SEQEND
  0
ENDBLK
  0
BLOCK
  8
LAYER_2
  2
AIGNBL02030101
 70
64
 10
0
 20
0
 30
0
  3
AIGNBL02030101
  0
POLYLINE
  8
LAYER_2
 40
0.2469
 41
0.2469
 66
1
 10
0
 20
0
 30
0
  0
VERTEX
  8
LAYER_2
 10
69.305
 20
159.0623
  0
VERTEX
  8
LAYER_2
 10
69.0728
 20
159.2943
  0
SEQEND
  0
ENDBLK
  0
BLOCK
  8
LAYER_2
  2
AIGNBL02030102
 70
64
 10
0
 20
0
 30
0
  3
AIGNBL02030102
  0
POLYLINE
  8
LAYER_2
 40
0.2469
 41
0.2469
 66
1
 10
0
 20
0
 30
0
  0
VERTEX
  8
LAYER_2
 10
69.305
 20
158.0444
  0
VERTEX
  8
LAYER_2
 10
69.305
 20
158.0455
  0
SEQEND
  0
ENDBLK
  0
BLOCK
  8
LAYER_2
  2
AIGNBL02030103
 70
64
 10
0
 20
0
 30
0
  3
AIGNBL02030103
  0
POLYLINE
  8
LAYER_2
 40
0.2469
 41
0.2469
 66
1
 10
0
 20
0
 30
0
  0
VERTEX
  8
LAYER_2
 10
68.8683
 20
159.2943
  0
VERTEX
  8
LAYER_2
 10
67.5728
 20
159.2943
  0
SEQEND
  0
ENDBLK
  0
BLOCK
  8
LAYER_2
  2
AIGNBL02030104
 70
64
 10
0
 20
0
 30
0
  3
AIGNBL02030104
  0
POLYLINE
  8
LAYER_2
 40
0.2469
 41
0.2469
 66
1
 10
0
 20
0
 30
0
  0
VERTEX
  8
LAYER_2
 10
66.7067
 20
159.0623
 42
0.4142787148
  0
VERTEX
  8
LAYER_2
 10
65.9858
 20
159.2073
  0
SEQEND
  0
ENDBLK
  0
BLOCK
  8
LAYER_2
  2
AIGNBL02030105
 70
64
 10
0
 20
0
 30
0
  3
AIGNBL02030105
  0
POLYLINE
  8
LAYER_2
 40
0.2469
 41
0.2469
 66
1
 10
0
 20
0
 30
0
  0
VERTEX
  8
LAYER_2
 10
67.5728
 20
159.2943
 42
0.1402807037
  0
VERTEX
  8
LAYER_2
 10
66.7067
 20
159.0623
  0
SEQEND
  0
ENDBLK
  0
BLOCK
  8
LAYER_2
  2
AIGNBL02030106
 70
64
 10
0
 20
0
 30
0
  3
AIGNBL02030106
  0
POLYLINE
  8
LAYER_2
 40
0.2469
 41
0.2469
 66
1
 10
0
 20
0
 30
0
  0
VERTEX
  8
LAYER_2
 10
69.1598
 20
159.2073
 42
0.4142321479
  0
VERTEX
  8
LAYER_2
 10
68.4389
 20
159.0623
  0
SEQEND
  0
ENDBLK
  0
BLOCK
  8
LAYER_2
  2
AIGNBL02030107
 70
64
 10
0
 20
0
 30
0
  3
AIGNBL02030107
  0
POLYLINE
  8
LAYER_2
 40
0.2469
 41
0.2469
 66
1
 10
0
 20
0
 30
0
  0
VERTEX
  8
LAYER_2
 10
68.4389
 20
159.0623
 42
0.1403520286
  0
VERTEX
  8
LAYER_2
 10
67.5728
 20
159.2943
  0
SEQEND
  0
ENDBLK
  0
BLOCK
  8
LAYER_2
  2
AIGNBL02030109
 70
64
 10
0
 20
0
 30
0
  3
AIGNBL02030109
  0
POLYLINE
  8
LAYER_2
 40
0.2469
 41
0.2469
 66
1
 10
0
 20
0
 30
0
  0
VERTEX
  8
LAYER_2
 10
64.3527
 20
156.5455
  0
VERTEX
  8
LAYER_2
 10
70.79
 20
156.5455
  0
SEQEND
  0
ENDBLK
  0
BLOCK
  8
LAYER_2
  2
AIGNBL0203010A
 70
64
 10
0
 20
0
 30
0
  3
AIGNBL0203010A
  0
POLYLINE
  8
LAYER_2
 40
0.2469
 41
0.2469
 66
1
 10
0
 20
0
 30
0
  0
VERTEX
  8
LAYER_2
 10
70.647
 20
158.0455
  0
VERTEX
  8
LAYER_2
 10
64.4956
 20
158.0455
  0
SEQEND
  0
ENDBLK
  0
BLOCK
  8
LAYER_2
  2
AIGNBL0203010C
 70
64
 10
0
 20
0
 30
0
  3
AIGNBL0203010C
  0
POLYLINE
  8
LAYER_2
 40
0.2469
 41
0.2469
 66
1
 10
0
 20
0
 30
0
  0
VERTEX
  8
LAYER_2
 10
64.3527
 20
156.5455
  0
VERTEX
  8
LAYER_2
 10
70.79
 20
156.5455
  0
SEQEND
  0
ENDBLK
  0
BLOCK
  8
LAYER_2
  2
AIGNBL0203010D
 70
64
 10
0
 20
0
 30
0
  3
AIGNBL0203010D
  0
POLYLINE
  8
LAYER_2
 40
0.2469
 41
0.2469
 66
1
 10
0
 20
0
 30
0
  0
VERTEX
  8
LAYER_2
 10
66.7608
 20
159.2954
  0
VERTEX
  8
LAYER_2
 10
66.7608
 20
160.0454
  0
SEQEND
  0
ENDBLK
  0
BLOCK
  8
LAYER_2
  2
AIGNBL0203010E
 70
64
 10
0
 20
0
 30
0
  3
AIGNBL0203010E
  0
POLYLINE
  8
LAYER_2
 40
0.2469
 41
0.2469
 66
1
 10
0
 20
0
 30
0
  0
VERTEX
  8
LAYER_2
 10
66.5713
 20
159.2954
  0
VERTEX
  8
LAYER_2
 10
66.5713
 20
159.8559
  0
SEQEND
  0
ENDBLK
  0
BLOCK
  8
LAYER_2
  2
AIGNBL0203010F
 70
64
 10
0
 20
0
 30
0
  3
AIGNBL0203010F
  0
POLYLINE
  8
LAYER_2
 40
0.2469
 41
0.2469
 66
1
 10
0
 20
0
 30
0
  0
VERTEX
  8
LAYER_2
 10
66.7608
 20
160.0454
  0
VERTEX
  8
LAYER_2
 10
67.5714
 20
160.0454
  0
SEQEND
  0
ENDBLK
  0
BLOCK
  8
LAYER_2
  2
AIGNBL02030110
 70
64
 10
0
 20
0
 30
0
  3
AIGNBL02030110
  0
POLYLINE
  8
LAYER_2
 40
0.2469
 41
0.2469
 66
1
 10
0
 20
0
 30
0
  0
VERTEX
  8
LAYER_2
 10
66.5713
 20
159.8559
  0
VERTEX
  8
LAYER_2
 10
66.7608
 20
160.0454
  0
SEQEND
  0
ENDBLK
  0
BLOCK
  8
LAYER_2
  2
AIGNBL02030111
 70
64
 10
0
 20
0
 30
0
  3
AIGNBL02030111
  0
POLYLINE
  8
LAYER_2
 40
0.2469
 41
0.2469
 66
1
 10
0
 20
0
 30
0
  0
VERTEX
  8
LAYER_2
 10
66.5713
 20
159.8559
  0
VERTEX
  8
LAYER_2
 10
67.5714
 20
159.8559
  0
SEQEND
  0
ENDBLK
  0
BLOCK
  8
LAYER_2
  2
AIGNBL02030112
 70
64
 10
0
 20
0
 30
0
  3
AIGNBL02030112
  0
POLYLINE
  8
LAYER_2
 40
0.2469
 41
0.2469
 66
1
 10
0
 20
0
 30
0
  0
VERTEX
  8
LAYER_2
 10
67.5714
 20
159.8559
  0
VERTEX
  8
LAYER_2
 10
68.5712
 20
159.8559
  0
SEQEND
  0
ENDBLK
  0
BLOCK
  8
LAYER_2
  2
AIGNBL02030113
 70
64
 10
0
 20
0
 30
0
  3
AIGNBL02030113
  0
POLYLINE
  8
LAYER_2
 40
0.2469
 41
0.2469
 66
1
 10
0
 20
0
 30
0
  0
VERTEX
  8
LAYER_2
 10
68.3817
 20
160.0454
  0
VERTEX
  8
LAYER_2
 10
68.5712
 20
159.8559
  0
SEQEND
  0
ENDBLK
  0
BLOCK
  8
LAYER_2
  2
AIGNBL02030114
 70
64
 10
0
 20
0
 30
0
  3
AIGNBL02030114
  0
POLYLINE
  8
LAYER_2
 40
0.2469
 41
0.2469
 66
1
 10
0
 20
0
 30
0
  0
VERTEX
  8
LAYER_2
 10
68.5712
 20
159.8559
  0
VERTEX
  8
LAYER_2
 10
68.5712
 20
159.2954
  0
SEQEND
  0
ENDBLK
  0
BLOCK
  8
LAYER_2
  2
AIGNBL02030115
 70
64
 10
0
 20
0
 30
0
  3
AIGNBL02030115
  0
POLYLINE
  8
LAYER_2
 40
0.2469
 41
0.2469
 66
1
 10
0
 20
0
 30
0
  0
VERTEX
  8
LAYER_2
 10
67.5714
 20
160.0454
  0
VERTEX
  8
LAYER_2
 10
68.3817
 20
160.0454
  0
SEQEND
  0
ENDBLK
  0
BLOCK
  8
LAYER_2
  2
AIGNBL02030116
 70
64
 10
0
 20
0
 30
0
  3
AIGNBL02030116
  0
POLYLINE
  8
LAYER_2
 40
0.2469
 41
0.2469
 66
1
 10
0
 20
0
 30
0
  0
VERTEX
  8
LAYER_2
 10
68.3817
 20
160.0454
  0
VERTEX
  8
LAYER_2
 10
68.3817
 20
159.2954
  0
SEQEND
  0
ENDBLK
  0
BLOCK
  8
LAYER_7
  2
AIGNBL07030005
 70
64
 10
0
 20
0
 30
0
  3
AIGNBL07030005
  0
INSERT
  8
LAYER_7
  2
AIGNBL07040006
 10
0
 20
0
 30
0
  0
INSERT
  8
LAYER_7
  2
AIGNBL07040007
 10
0
 20
0
 30
0
  0
INSERT
  8
LAYER_7
  2
AIGNBL07040008
 10
0
 20
0
 30
0
  0
INSERT
  8
LAYER_7
  2
AIGNBL07040009
 10
0
 20
0
 30
0
  0
INSERT
  8
LAYER_7
  2
AIGNBL0704000A
 10
0
 20
0
 30
0
  0
INSERT
  8
LAYER_7
  2
AIGNBL0704000B
 10
0
 20
0
 30
0
  0
INSERT
  8
LAYER_7
  2
AIGNBL0704000C
 10
0
 20
0
 30
0
  0
ENDBLK
  0
BLOCK
  8
LAYER_7
  2
AIGNBL0703000E
 70
64
 10
0
 20
0
 30
0
  3
AIGNBL0703000E
  0
POLYLINE
  8
LAYER_7
 40
0.05
 41
0.05
 66
1
 10
0
 20
0
 30
0
 70
1
  0
VERTEX
  8
LAYER_7
 10
128.7222
 20
-4.5162
  0
VERTEX
  8
LAYER_7
 10
129.1914
 20
-4.5162
  0
VERTEX
  8
LAYER_7
 10
129.1914
 20
-4.5958
  0
VERTEX
  8
LAYER_7
 10
128.6333
 20
-4.5958
  0
VERTEX
  8
LAYER_7
 10
128.6333
 20
-3.72
  0
VERTEX
  8
LAYER_7
 10
129.1763
 20
-3.72
  0
VERTEX
  8
LAYER_7
 10
129.1763
 20
-3.7989
  0
VERTEX
  8
LAYER_7
 10
128.7222
 20
-3.7989
  0
VERTEX
  8
LAYER_7
 10
128.7222
 20
-4.0993
  0
VERTEX
  8
LAYER_7
 10
129.1466
 20
-4.0993
  0
VERTEX
  8
LAYER_7
 10
129.1466
 20
-4.1786
  0
VERTEX
  8
LAYER_7
 10
128.7222
 20
-4.1786
  0
SEQEND
  0
ENDBLK
  0
BLOCK
  8
LAYER_7
  2
AIGNBL0703000F
 70
64
 10
0
 20
0
 30
0
  3
AIGNBL0703000F
  0
POLYLINE
  8
LAYER_7
 40
0.05
 41
0.05
 66
1
 10
0
 20
0
 30
0
 70
1
  0
VERTEX
  8
LAYER_7
 10
130.1574
 20
-4.4655
  0
VERTEX
  8
LAYER_7
 10
130.1595
 20
-4.4655
  0
VERTEX
  8
LAYER_7
 10
130.1595
 20
-3.72
  0
VERTEX
  8
LAYER_7
 10
130.2487
 20
-3.72
  0
VERTEX
  8
LAYER_7
 10
130.2487
 20
-4.5958
  0
VERTEX
  8
LAYER_7
 10
130.1378
 20
-4.5958
  0
VERTEX
  8
LAYER_7
 10
129.6283
 20
-3.8423
  0
VERTEX
  8
LAYER_7
 10
129.6252
 20
-3.8423
  0
VERTEX
  8
LAYER_7
 10
129.6252
 20
-4.5958
  0
VERTEX
  8
LAYER_7
 10
129.5366
 20
-4.5958
  0
VERTEX
  8
LAYER_7
 10
129.5366
 20
-3.72
  0
VERTEX
  8
LAYER_7
 10
129.6476
 20
-3.72
  0
SEQEND
  0
ENDBLK
  0
BLOCK
  8
LAYER_7
  2
AIGNBL07030010
 70
64
 10
0
 20
0
 30
0
  3
AIGNBL07030010
  0
POLYLINE
  8
LAYER_7
 40
0.05
 41
0.05
 66
1
 10
0
 20
0
 30
0
 70
1
  0
VERTEX
  8
LAYER_7
 10
130.6497
 20
-4.4159
 42
0.1576719028
  0
VERTEX
  8
LAYER_7
 10
130.6959
 20
-4.5034
 42
0.1888509688
  0
VERTEX
  8
LAYER_7
 10
130.7917
 20
-4.5386
  0
VERTEX
  8
LAYER_7
 10
130.8675
 20
-4.522
  0
VERTEX
  8
LAYER_7
 10
130.915
 20
-4.4769
  0
VERTEX
  8
LAYER_7
 10
130.9395
 20
-4.4118
  0
VERTEX
  8
LAYER_7
 10
130.9467
 20
-4.336
  0
VERTEX
  8
LAYER_7
 10
130.9467
 20
-3.72
  0
VERTEX
  8
LAYER_7
 10
131.0356
 20
-3.72
  0
VERTEX
  8
LAYER_7
 10
131.0356
 20
-4.3432
  0
VERTEX
  8
LAYER_7
 10
131.0259
 20
-4.4345
  0
VERTEX
  8
LAYER_7
 10
130.9908
 20
-4.5238
 42
-0.1134018777
  0
VERTEX
  8
LAYER_7
 10
130.9191
 20
-4.5913
 42
-0.1226010698
  0
VERTEX
  8
LAYER_7
 10
130.8013
 20
-4.6178
 42
-0.1818698991
  0
VERTEX
  8
LAYER_7
 10
130.6449
 20
-4.5668
 42
-0.1775350534
  0
VERTEX
  8
LAYER_7
 10
130.5667
 20
-4.4387
  0
SEQEND
  0
ENDBLK
  0
BLOCK
  8
LAYER_7
  2
AIGNBL07030011
 70
64
 10
0
 20
0
 30
0
  3
AIGNBL07030011
  0
POLYLINE
  8
LAYER_7
 40
0.05
 41
0.05
 66
1
 10
0
 20
0
 30
0
 70
1
  0
VERTEX
  8
LAYER_7
 10
132.2972
 20
-4.1575
 42
-0.1021274882
  0
VERTEX
  8
LAYER_7
 10
132.2624
 20
-4.3419
 42
-0.09952766962
  0
VERTEX
  8
LAYER_7
 10
132.167
 20
-4.4872
 42
-0.09570319659
  0
VERTEX
  8
LAYER_7
 10
132.0219
 20
-4.583
 42
-0.09730113973
  0
VERTEX
  8
LAYER_7
 10
131.8407
 20
-4.6178
 42
-0.1005044879
  0
VERTEX
  8
LAYER_7
 10
131.6595
 20
-4.583
 42
-0.1000956886
  0
VERTEX
  8
LAYER_7
 10
131.5148
 20
-4.4872
 42
-0.09687374103
  0
VERTEX
  8
LAYER_7
 10
131.4187
 20
-4.3419
 42
-0.09598276585
  0
VERTEX
  8
LAYER_7
 10
131.3842
 20
-4.1575
 42
-0.1007319707
  0
VERTEX
  8
LAYER_7
 10
131.4187
 20
-3.9732
 42
-0.09980706139
  0
VERTEX
  8
LAYER_7
 10
131.5148
 20
-3.8278
 42
-0.09759632467
  0
VERTEX
  8
LAYER_7
 10
131.6595
 20
-3.7321
 42
-0.09730113973
  0
VERTEX
  8
LAYER_7
 10
131.8407
 20
-3.6973
 42
-0.1005044879
  0
VERTEX
  8
LAYER_7
 10
132.0219
 20
-3.7321
 42
-0.09857025753
  0
VERTEX
  8
LAYER_7
 10
132.167
 20
-3.8278
 42
-0.09607437688
  0
VERTEX
  8
LAYER_7
 10
132.2624
 20
-3.9732
 42
-0.09699716326
  0
SEQEND
  0
POLYLINE
  8
LAYER_7
 40
0.05
 41
0.05
 66
1
 10
0
 20
0
 30
0
 70
1
  0
VERTEX
  8
LAYER_7
 10
132.2031
 20
-4.1582
 42
0.0856281229
  0
VERTEX
  8
LAYER_7
 10
132.1787
 20
-4.0125
 42
0.09671154951
  0
VERTEX
  8
LAYER_7
 10
132.1067
 20
-3.8909
 42
0.1026314629
  0
VERTEX
  8
LAYER_7
 10
131.9923
 20
-3.8079
 42
0.1067618795
  0
VERTEX
  8
LAYER_7
 10
131.8407
 20
-3.7765
 42
0.1143436986
  0
VERTEX
  8
LAYER_7
 10
131.6891
 20
-3.8079
 42
0.1065055988
  0
VERTEX
  8
LAYER_7
 10
131.5751
 20
-3.8909
 42
0.09706696705
  0
VERTEX
  8
LAYER_7
 10
131.5031
 20
-4.0125
 42
0.08453032616
  0
VERTEX
  8
LAYER_7
 10
131.4783
 20
-4.1582
 42
0.08539697836
  0
VERTEX
  8
LAYER_7
 10
131.5031
 20
-4.304
 42
0.1012181166
  0
VERTEX
  8
LAYER_7
 10
131.5751
 20
-4.4252
 42
0.09889595573
  0
VERTEX
  8
LAYER_7
 10
131.6891
 20
-4.5076
 42
0.105851816
  0
VERTEX
  8
LAYER_7
 10
131.8407
 20
-4.5386
 42
0.1147284683
  0
VERTEX
  8
LAYER_7
 10
131.9923
 20
-4.5076
 42
0.1060927675
  0
VERTEX
  8
LAYER_7
 10
132.1067
 20
-4.4252
 42
0.09368815098
  0
VERTEX
  8
LAYER_7
 10
132.1787
 20
-4.304
 42
0.0834821187
  0
SEQEND
  0
ENDBLK
  0
BLOCK
  8
LAYER_7
  2
AIGNBL07030012
 70
64
 10
0
 20
0
 30
0
  3
AIGNBL07030012
  0
POLYLINE
  8
LAYER_7
 40
0.05
 41
0.05
 66
1
 10
0
 20
0
 30
0
 70
1
  0
VERTEX
  8
LAYER_7
 10
132.9538
 20
-4.5958
  0
VERTEX
  8
LAYER_7
 10
132.8649
 20
-4.5958
  0
VERTEX
  8
LAYER_7
 10
132.8649
 20
-4.2182
  0
VERTEX
  8
LAYER_7
 10
132.5373
 20
-3.72
  0
VERTEX
  8
LAYER_7
 10
132.6486
 20
-3.72
  0
VERTEX
  8
LAYER_7
 10
132.9121
 20
-4.1438
  0
VERTEX
  8
LAYER_7
 10
133.1777
 20
-3.72
  0
VERTEX
  8
LAYER_7
 10
133.2814
 20
-3.72
  0
VERTEX
  8
LAYER_7
 10
132.9538
 20
-4.2182
  0
SEQEND
  0
ENDBLK
  0
BLOCK
  8
LAYER_7
  2
AIGNBL07030013
 70
64
 10
0
 20
0
 30
0
  3
AIGNBL07030013
  0
POLYLINE
  8
LAYER_7
 40
0.05
 41
0.05
 66
1
 10
0
 20
0
 30
0
 70
1
  0
VERTEX
  8
LAYER_7
 10
134.0487
 20
-3.72
  0
VERTEX
  8
LAYER_7
 10
134.3095
 20
-3.72
  0
VERTEX
  8
LAYER_7
 10
134.4097
 20
-3.7303
  0
VERTEX
  8
LAYER_7
 10
134.5003
 20
-3.7662
 42
-0.1147500987
  0
VERTEX
  8
LAYER_7
 10
134.5665
 20
-3.8351
 42
-0.1209575962
  0
VERTEX
  8
LAYER_7
 10
134.5916
 20
-3.9436
 42
-0.179677182
  0
VERTEX
  8
LAYER_7
 10
134.5492
 20
-4.0642
 42
-0.1667916725
  0
VERTEX
  8
LAYER_7
 10
134.4362
 20
-4.1317
  0
VERTEX
  8
LAYER_7
 10
134.4362
 20
-4.1338
 42
-0.1720976719
  0
VERTEX
  8
LAYER_7
 10
134.5775
 20
-4.2003
 42
-0.1997018961
  0
VERTEX
  8
LAYER_7
 10
134.6336
 20
-4.3532
 42
-0.1266512869
  0
VERTEX
  8
LAYER_7
 10
134.6106
 20
-4.4524
 42
-0.1160438033
  0
VERTEX
  8
LAYER_7
 10
134.5458
 20
-4.5293
 42
-0.08593783818
  0
VERTEX
  8
LAYER_7
 10
134.4435
 20
-4.5782
 42
-0.06488316042
  0
VERTEX
  8
LAYER_7
 10
134.3081
 20
-4.5958
  0
VERTEX
  8
LAYER_7
 10
134.0487
 20
-4.5958
  0
SEQEND
  0
POLYLINE
  8
LAYER_7
 40
0.05
 41
0.05
 66
1
 10
0
 20
0
 30
0
 70
1
  0
VERTEX
  8
LAYER_7
 10
134.1375
 20
-4.1031
  0
VERTEX
  8
LAYER_7
 10
134.317
 20
-4.1031
  0
VERTEX
  8
LAYER_7
 10
134.3822
 20
-4.0955
  0
VERTEX
  8
LAYER_7
 10
134.4418
 20
-4.0707
  0
VERTEX
  8
LAYER_7
 10
134.4858
 20
-4.0228
 42
0.1131003852
  0
VERTEX
  8
LAYER_7
 10
134.5024
 20
-3.9498
  0
VERTEX
  8
LAYER_7
 10
134.4858
 20
-3.8788
  0
VERTEX
  8
LAYER_7
 10
134.4407
 20
-3.8309
  0
VERTEX
  8
LAYER_7
 10
134.3739
 20
-3.8044
  0
VERTEX
  8
LAYER_7
 10
134.2922
 20
-3.7965
  0
VERTEX
  8
LAYER_7
 10
134.1375
 20
-3.7965
  0
SEQEND
  0
POLYLINE
  8
LAYER_7
 40
0.05
 41
0.05
 66
1
 10
0
 20
0
 30
0
 70
1
  0
VERTEX
  8
LAYER_7
 10
134.1375
 20
-4.5189
  0
VERTEX
  8
LAYER_7
 10
134.3036
 20
-4.5189
  0
VERTEX
  8
LAYER_7
 10
134.3956
 20
-4.5093
  0
VERTEX
  8
LAYER_7
 10
134.4724
 20
-4.48
  0
VERTEX
  8
LAYER_7
 10
134.5244
 20
-4.4266
 42
0.1281406861
  0
VERTEX
  8
LAYER_7
 10
134.5444
 20
-4.3481
 42
0.2512555223
  0
VERTEX
  8
LAYER_7
 10
134.4858
 20
-4.2189
 42
0.1507360226
  0
VERTEX
  8
LAYER_7
 10
134.3194
 20
-4.1761
  0
VERTEX
  8
LAYER_7
 10
134.1375
 20
-4.1761
  0
SEQEND
  0
ENDBLK
  0
BLOCK
  8
LAYER_7
  2
AIGNBL07030014
 70
64
 10
0
 20
0
 30
0
  3
AIGNBL07030014
  0
POLYLINE
  8
LAYER_7
 40
0.05
 41
0.05
 66
1
 10
0
 20
0
 30
0
 70
1
  0
VERTEX
  8
LAYER_7
 10
134.9999
 20
-4.5958
  0
VERTEX
  8
LAYER_7
 10
134.902
 20
-4.5958
  0
VERTEX
  8
LAYER_7
 10
135.2806
 20
-3.72
  0
VERTEX
  8
LAYER_7
 10
135.3674
 20
-3.72
  0
VERTEX
  8
LAYER_7
 10
135.7433
 20
-4.5958
  0
VERTEX
  8
LAYER_7
 10
135.6441
 20
-4.5958
  0
VERTEX
  8
LAYER_7
 10
135.5476
 20
-4.3656
  0
VERTEX
  8
LAYER_7
 10
135.0949
 20
-4.3656
  0
SEQEND
  0
POLYLINE
  8
LAYER_7
 40
0.05
 41
0.05
 66
1
 10
0
 20
0
 30
0
 70
1
  0
VERTEX
  8
LAYER_7
 10
135.128
 20
-4.2836
  0
VERTEX
  8
LAYER_7
 10
135.5142
 20
-4.2836
  0
VERTEX
  8
LAYER_7
 10
135.3213
 20
-3.8185
  0
SEQEND
  0
ENDBLK
  0
BLOCK
  8
LAYER_7
  2
AIGNBL07030015
 70
64
 10
0
 20
0
 30
0
  3
AIGNBL07030015
  0
POLYLINE
  8
LAYER_7
 40
0.05
 41
0.05
 66
1
 10
0
 20
0
 30
0
 70
1
  0
VERTEX
  8
LAYER_7
 10
136.3235
 20
-4.5958
  0
VERTEX
  8
LAYER_7
 10
136.2342
 20
-4.5958
  0
VERTEX
  8
LAYER_7
 10
136.2342
 20
-3.7989
  0
VERTEX
  8
LAYER_7
 10
135.9407
 20
-3.7989
  0
VERTEX
  8
LAYER_7
 10
135.9407
 20
-3.72
  0
VERTEX
  8
LAYER_7
 10
136.6163
 20
-3.72
  0
VERTEX
  8
LAYER_7
 10
136.6163
 20
-3.7989
  0
VERTEX
  8
LAYER_7
 10
136.3235
 20
-3.7989
  0
SEQEND
  0
ENDBLK
  0
BLOCK
  8
LAYER_7
  2
AIGNBL07030016
 70
64
 10
0
 20
0
 30
0
  3
AIGNBL07030016
  0
POLYLINE
  8
LAYER_7
 40
0.05
 41
0.05
 66
1
 10
0
 20
0
 30
0
 70
1
  0
VERTEX
  8
LAYER_7
 10
136.9181
 20
-3.72
  0
VERTEX
  8
LAYER_7
 10
137.007
 20
-3.72
  0
VERTEX
  8
LAYER_7
 10
137.007
 20
-4.0993
  0
VERTEX
  8
LAYER_7
 10
137.4848
 20
-4.0993
  0
VERTEX
  8
LAYER_7
 10
137.4848
 20
-3.72
  0
VERTEX
  8
LAYER_7
 10
137.5737
 20
-3.72
  0
VERTEX
  8
LAYER_7
 10
137.5737
 20
-4.5958
  0
VERTEX
  8
LAYER_7
 10
137.4848
 20
-4.5958
  0
VERTEX
  8
LAYER_7
 10
137.4848
 20
-4.181
  0
VERTEX
  8
LAYER_7
 10
137.007
 20
-4.181
  0
VERTEX
  8
LAYER_7
 10
137.007
 20
-4.5958
  0
VERTEX
  8
LAYER_7
 10
136.9181
 20
-4.5958
  0
SEQEND
  0
ENDBLK
  0
BLOCK
  8
LAYER_7
  2
AIGNBL07030017
 70
64
 10
0
 20
0
 30
0
  3
AIGNBL07030017
  0
POLYLINE
  8
LAYER_7
 40
0.05
 41
0.05
 66
1
 10
0
 20
0
 30
0
 70
1
  0
VERTEX
  8
LAYER_7
 10
138.0656
 20
-4.5958
  0
VERTEX
  8
LAYER_7
 10
137.9768
 20
-4.5958
  0
VERTEX
  8
LAYER_7
 10
137.9768
 20
-3.72
  0
VERTEX
  8
LAYER_7
 10
138.2341
 20
-3.72
  0
VERTEX
  8
LAYER_7
 10
138.3533
 20
-3.7321
  0
VERTEX
  8
LAYER_7
 10
138.4487
 20
-3.7724
 42
-0.1287326038
  0
VERTEX
  8
LAYER_7
 10
138.5111
 20
-3.8447
 42
-0.1051781119
  0
VERTEX
  8
LAYER_7
 10
138.5331
 20
-3.9536
  0
VERTEX
  8
LAYER_7
 10
138.5163
 20
-4.0414
  0
VERTEX
  8
LAYER_7
 10
138.4694
 20
-4.11
  0
VERTEX
  8
LAYER_7
 10
138.3988
 20
-4.1565
  0
VERTEX
  8
LAYER_7
 10
138.3096
 20
-4.1786
  0
VERTEX
  8
LAYER_7
 10
138.5655
 20
-4.5958
  0
VERTEX
  8
LAYER_7
 10
138.4567
 20
-4.5958
  0
VERTEX
  8
LAYER_7
 10
138.2145
 20
-4.1861
  0
VERTEX
  8
LAYER_7
 10
138.0656
 20
-4.1861
  0
SEQEND
  0
POLYLINE
  8
LAYER_7
 40
0.05
 41
0.05
 66
1
 10
0
 20
0
 30
0
 70
1
  0
VERTEX
  8
LAYER_7
 10
138.0656
 20
-4.1093
  0
VERTEX
  8
LAYER_7
 10
138.2207
 20
-4.1093
 42
0.1560036385
  0
VERTEX
  8
LAYER_7
 10
138.3864
 20
-4.0707
 42
0.256718439
  0
VERTEX
  8
LAYER_7
 10
138.4446
 20
-3.9536
  0
VERTEX
  8
LAYER_7
 10
138.4281
 20
-3.8809
  0
VERTEX
  8
LAYER_7
 10
138.3836
 20
-3.8323
  0
VERTEX
  8
LAYER_7
 10
138.3147
 20
-3.8051
  0
VERTEX
  8
LAYER_7
 10
138.2245
 20
-3.7965
  0
VERTEX
  8
LAYER_7
 10
138.0656
 20
-3.7965
  0
SEQEND
  0
ENDBLK
  0
BLOCK
  8
LAYER_7
  2
AIGNBL07030018
 70
64
 10
0
 20
0
 30
0
  3
AIGNBL07030018
  0
POLYLINE
  8
LAYER_7
 40
0.05
 41
0.05
 66
1
 10
0
 20
0
 30
0
 70
1
  0
VERTEX
  8
LAYER_7
 10
139.7541
 20
-4.1575
 42
-0.09900850835
  0
VERTEX
  8
LAYER_7
 10
139.7196
 20
-4.3419
 42
-0.1000740523
  0
VERTEX
  8
LAYER_7
 10
139.6235
 20
-4.4872
 42
-0.09817592867
  0
VERTEX
  8
LAYER_7
 10
139.4792
 20
-4.583
 42
-0.09703887645
  0
VERTEX
  8
LAYER_7
 10
139.2976
 20
-4.6178
 42
-0.1005044879
  0
VERTEX
  8
LAYER_7
 10
139.1164
 20
-4.583
 42
-0.1014225475
  0
VERTEX
  8
LAYER_7
 10
138.9721
 20
-4.4872
 42
-0.1004968111
  0
VERTEX
  8
LAYER_7
 10
138.8763
 20
-4.3419
 42
-0.09598276585
  0
VERTEX
  8
LAYER_7
 10
138.8418
 20
-4.1575
 42
-0.1007319707
  0
VERTEX
  8
LAYER_7
 10
138.8763
 20
-3.9732
 42
-0.1012197328
  0
VERTEX
  8
LAYER_7
 10
138.9721
 20
-3.8278
 42
-0.09799567145
  0
VERTEX
  8
LAYER_7
 10
139.1164
 20
-3.7321
 42
-0.09730113973
  0
VERTEX
  8
LAYER_7
 10
139.2976
 20
-3.6973
 42
-0.1004491736
  0
VERTEX
  8
LAYER_7
 10
139.4792
 20
-3.7321
 42
-0.1027665873
  0
VERTEX
  8
LAYER_7
 10
139.6235
 20
-3.8278
 42
-0.09593168267
  0
VERTEX
  8
LAYER_7
 10
139.7196
 20
-3.9732
 42
-0.09519358797
  0
SEQEND
  0
POLYLINE
  8
LAYER_7
 40
0.05
 41
0.05
 66
1
 10
0
 20
0
 30
0
 70
1
  0
VERTEX
  8
LAYER_7
 10
139.66
 20
-4.1582
 42
0.09064614394
  0
VERTEX
  8
LAYER_7
 10
139.6352
 20
-4.0125
 42
0.09846723294
  0
VERTEX
  8
LAYER_7
 10
139.5636
 20
-3.8909
 42
0.1021717911
  0
VERTEX
  8
LAYER_7
 10
139.4492
 20
-3.8079
 42
0.1068382496
  0
VERTEX
  8
LAYER_7
 10
139.2976
 20
-3.7765
 42
0.1151780108
  0
VERTEX
  8
LAYER_7
 10
139.1464
 20
-3.8079
 42
0.1058591997
  0
VERTEX
  8
LAYER_7
 10
139.0317
 20
-3.8909
 42
0.09552005071
  0
VERTEX
  8
LAYER_7
 10
138.96
 20
-4.0125
 42
0.08419268652
  0
VERTEX
  8
LAYER_7
 10
138.9355
 20
-4.1582
 42
0.08886818036
  0
VERTEX
  8
LAYER_7
 10
138.96
 20
-4.304
 42
0.09765150327
  0
VERTEX
  8
LAYER_7
 10
139.0317
 20
-4.4252
 42
0.09894762084
  0
VERTEX
  8
LAYER_7
 10
139.1464
 20
-4.5076
 42
0.1060048418
  0
VERTEX
  8
LAYER_7
 10
139.2976
 20
-4.5386
 42
0.1155402185
  0
VERTEX
  8
LAYER_7
 10
139.4492
 20
-4.5076
 42
0.1034816397
  0
VERTEX
  8
LAYER_7
 10
139.5636
 20
-4.4252
 42
0.09853996684
  0
VERTEX
  8
LAYER_7
 10
139.6352
 20
-4.304
 42
0.08559935114
  0
SEQEND
  0
ENDBLK
  0
BLOCK
  8
LAYER_7
  2
AIGNBL07030019
 70
64
 10
0
 20
0
 30
0
  3
AIGNBL07030019
  0
POLYLINE
  8
LAYER_7
 40
0.05
 41
0.05
 66
1
 10
0
 20
0
 30
0
 70
1
  0
VERTEX
  8
LAYER_7
 10
140.9764
 20
-4.1575
 42
-0.1003658645
  0
VERTEX
  8
LAYER_7
 10
140.9416
 20
-4.3419
 42
-0.09796464032
  0
VERTEX
  8
LAYER_7
 10
140.8462
 20
-4.4872
 42
-0.09626167578
  0
VERTEX
  8
LAYER_7
 10
140.7011
 20
-4.583
 42
-0.09730113973
  0
VERTEX
  8
LAYER_7
 10
140.5199
 20
-4.6178
 42
-0.1010483144
  0
VERTEX
  8
LAYER_7
 10
140.3387
 20
-4.583
 42
-0.1015483086
  0
VERTEX
  8
LAYER_7
 10
140.194
 20
-4.4872
 42
-0.09687374103
  0
VERTEX
  8
LAYER_7
 10
140.0979
 20
-4.3419
 42
-0.09586276905
  0
VERTEX
  8
LAYER_7
 10
140.0635
 20
-4.1575
 42
-0.1009359332
  0
VERTEX
  8
LAYER_7
 10
140.0979
 20
-3.9732
 42
-0.09980706139
  0
VERTEX
  8
LAYER_7
 10
140.194
 20
-3.8278
 42
-0.09831412768
  0
VERTEX
  8
LAYER_7
 10
140.3387
 20
-3.7321
 42
-0.09743363976
  0
VERTEX
  8
LAYER_7
 10
140.5199
 20
-3.6973
 42
-0.1005044879
  0
VERTEX
  8
LAYER_7
 10
140.7011
 20
-3.7321
 42
-0.09857025753
  0
VERTEX
  8
LAYER_7
 10
140.8462
 20
-3.8278
 42
-0.09549044941
  0
VERTEX
  8
LAYER_7
 10
140.9416
 20
-3.9732
 42
-0.09626911005
  0
SEQEND
  0
POLYLINE
  8
LAYER_7
 40
0.05
 41
0.05
 66
1
 10
0
 20
0
 30
0
 70
1
  0
VERTEX
  8
LAYER_7
 10
140.8824
 20
-4.1582
 42
0.08716589771
  0
VERTEX
  8
LAYER_7
 10
140.8576
 20
-4.0125
 42
0.0974662867
  0
VERTEX
  8
LAYER_7
 10
140.7859
 20
-3.8909
 42
0.1021717911
  0
VERTEX
  8
LAYER_7
 10
140.6715
 20
-3.8079
 42
0.1064686014
  0
VERTEX
  8
LAYER_7
 10
140.5199
 20
-3.7765
 42
0.1153411493
  0
VERTEX
  8
LAYER_7
 10
140.3683
 20
-3.8079
 42
0.105328119
  0
VERTEX
  8
LAYER_7
 10
140.254
 20
-3.8909
 42
0.09840570806
  0
VERTEX
  8
LAYER_7
 10
140.1823
 20
-4.0125
 42
0.0849084194
  0
VERTEX
  8
LAYER_7
 10
140.1575
 20
-4.1582
 42
0.08802482071
  0
VERTEX
  8
LAYER_7
 10
140.1823
 20
-4.304
 42
0.1001537592
  0
VERTEX
  8
LAYER_7
 10
140.254
 20
-4.4252
 42
0.09914809706
  0
VERTEX
  8
LAYER_7
 10
140.3683
 20
-4.5076
 42
0.1058799299
  0
VERTEX
  8
LAYER_7
 10
140.5199
 20
-4.5386
 42
0.1144668818
  0
VERTEX
  8
LAYER_7
 10
140.6715
 20
-4.5076
 42
0.1034816397
  0
VERTEX
  8
LAYER_7
 10
140.7859
 20
-4.4252
 42
0.0931574303
  0
VERTEX
  8
LAYER_7
 10
140.8576
 20
-4.304
 42
0.08489455374
  0
SEQEND
  0
ENDBLK
  0
BLOCK
  8
LAYER_7
  2
AIGNBL0703001A
 70
64
 10
0
 20
0
 30
0
  3
AIGNBL0703001A
  0
POLYLINE
  8
LAYER_7
 40
0.05
 41
0.05
 66
1
 10
0
 20
0
 30
0
 70
1
  0
VERTEX
  8
LAYER_7
 10
141.7653
 20
-4.4445
  0
VERTEX
  8
LAYER_7
 10
141.7667
 20
-4.4445
  0
VERTEX
  8
LAYER_7
 10
142.0595
 20
-3.72
  0
VERTEX
  8
LAYER_7
 10
142.196
 20
-3.72
  0
VERTEX
  8
LAYER_7
 10
142.196
 20
-4.5958
  0
VERTEX
  8
LAYER_7
 10
142.1067
 20
-4.5958
  0
VERTEX
  8
LAYER_7
 10
142.1067
 20
-3.8351
  0
VERTEX
  8
LAYER_7
 10
142.1043
 20
-3.8351
  0
VERTEX
  8
LAYER_7
 10
141.7877
 20
-4.5958
  0
VERTEX
  8
LAYER_7
 10
141.7409
 20
-4.5958
  0
VERTEX
  8
LAYER_7
 10
141.4239
 20
-3.8351
  0
VERTEX
  8
LAYER_7
 10
141.4215
 20
-3.8351
  0
VERTEX
  8
LAYER_7
 10
141.4215
 20
-4.5958
  0
VERTEX
  8
LAYER_7
 10
141.3326
 20
-4.5958
  0
VERTEX
  8
LAYER_7
 10
141.3326
 20
-3.72
  0
VERTEX
  8
LAYER_7
 10
141.4687
 20
-3.72
  0
SEQEND
  0
ENDBLK
  0
BLOCK
  8
LAYER_7
  2
AIGNBL0703001B
 70
64
 10
0
 20
0
 30
0
  3
AIGNBL0703001B
  0
POLYLINE
  8
LAYER_7
 40
0.05
 41
0.05
 66
1
 10
0
 20
0
 30
0
 70
1
  0
VERTEX
  8
LAYER_7
 10
143.1678
 20
-4.5162
  0
VERTEX
  8
LAYER_7
 10
143.6367
 20
-4.5162
  0
VERTEX
  8
LAYER_7
 10
143.6367
 20
-4.5958
  0
VERTEX
  8
LAYER_7
 10
143.0786
 20
-4.5958
  0
VERTEX
  8
LAYER_7
 10
143.0786
 20
-3.72
  0
VERTEX
  8
LAYER_7
 10
143.6219
 20
-3.72
  0
VERTEX
  8
LAYER_7
 10
143.6219
 20
-3.7989
  0
VERTEX
  8
LAYER_7
 10
143.1678
 20
-3.7989
  0
VERTEX
  8
LAYER_7
 10
143.1678
 20
-4.0993
  0
VERTEX
  8
LAYER_7
 10
143.5919
 20
-4.0993
  0
VERTEX
  8
LAYER_7
 10
143.5919
 20
-4.1786
  0
VERTEX
  8
LAYER_7
 10
143.1678
 20
-4.1786
  0
SEQEND
  0
ENDBLK
  0
BLOCK
  8
LAYER_7
  2
AIGNBL0703001C
 70
64
 10
0
 20
0
 30
0
  3
AIGNBL0703001C
  0
POLYLINE
  8
LAYER_7
 40
0.05
 41
0.05
 66
1
 10
0
 20
0
 30
0
 70
1
  0
VERTEX
  8
LAYER_7
 10
144.2685
 20
-4.0735
  0
VERTEX
  8
LAYER_7
 10
144.5076
 20
-3.72
  0
VERTEX
  8
LAYER_7
 10
144.6134
 20
-3.72
  0
VERTEX
  8
LAYER_7
 10
144.3233
 20
-4.1365
  0
VERTEX
  8
LAYER_7
 10
144.6447
 20
-4.5958
  0
VERTEX
  8
LAYER_7
 10
144.5335
 20
-4.5958
  0
VERTEX
  8
LAYER_7
 10
144.2661
 20
-4.2009
  0
VERTEX
  8
LAYER_7
 10
144.0002
 20
-4.5958
  0
VERTEX
  8
LAYER_7
 10
143.8889
 20
-4.5958
  0
VERTEX
  8
LAYER_7
 10
144.2107
 20
-4.1355
  0
VERTEX
  8
LAYER_7
 10
143.9175
 20
-3.72
  0
VERTEX
  8
LAYER_7
 10
144.0288
 20
-3.72
  0
SEQEND
  0
ENDBLK
  0
BLOCK
  8
LAYER_7
  2
AIGNBL0703001D
 70
64
 10
0
 20
0
 30
0
  3
AIGNBL0703001D
  0
POLYLINE
  8
LAYER_7
 40
0.05
 41
0.05
 66
1
 10
0
 20
0
 30
0
 70
1
  0
VERTEX
  8
LAYER_7
 10
144.9551
 20
-3.72
  0
VERTEX
  8
LAYER_7
 10
145.2029
 20
-3.72
  0
VERTEX
  8
LAYER_7
 10
145.3241
 20
-3.7338
  0
VERTEX
  8
LAYER_7
 10
145.4171
 20
-3.7775
 42
-0.1196760771
  0
VERTEX
  8
LAYER_7
 10
145.4774
 20
-3.8502
 42
-0.1008071579
  0
VERTEX
  8
LAYER_7
 10
145.4981
 20
-3.9536
 42
-0.1234224821
  0
VERTEX
  8
LAYER_7
 10
145.4767
 20
-4.0569
 42
-0.1135718983
  0
VERTEX
  8
LAYER_7
 10
145.4161
 20
-4.13
 42
-0.08414869483
  0
VERTEX
  8
LAYER_7
 10
145.3221
 20
-4.1737
  0
VERTEX
  8
LAYER_7
 10
145.2001
 20
-4.1885
  0
VERTEX
  8
LAYER_7
 10
145.0444
 20
-4.1885
  0
VERTEX
  8
LAYER_7
 10
145.0444
 20
-4.5958
  0
VERTEX
  8
LAYER_7
 10
144.9551
 20
-4.5958
  0
SEQEND
  0
POLYLINE
  8
LAYER_7
 40
0.05
 41
0.05
 66
1
 10
0
 20
0
 30
0
 70
1
  0
VERTEX
  8
LAYER_7
 10
145.0444
 20
-4.1131
  0
VERTEX
  8
LAYER_7
 10
145.1949
 20
-4.1131
 42
0.1719973382
  0
VERTEX
  8
LAYER_7
 10
145.3548
 20
-4.0724
 42
0.2424570955
  0
VERTEX
  8
LAYER_7
 10
145.4092
 20
-3.9536
 42
0.2603006677
  0
VERTEX
  8
LAYER_7
 10
145.3531
 20
-3.834
 42
0.1395217604
  0
VERTEX
  8
LAYER_7
 10
145.1949
 20
-3.7965
  0
VERTEX
  8
LAYER_7
 10
145.0444
 20
-3.7965
  0
SEQEND
  0
ENDBLK
  0
BLOCK
  8
LAYER_7
  2
AIGNBL0703001E
 70
64
 10
0
 20
0
 30
0
  3
AIGNBL0703001E
  0
POLYLINE
  8
LAYER_7
 40
0.05
 41
0.05
 66
1
 10
0
 20
0
 30
0
 70
1
  0
VERTEX
  8
LAYER_7
 10
145.9322
 20
-4.5162
  0
VERTEX
  8
LAYER_7
 10
146.4011
 20
-4.5162
  0
VERTEX
  8
LAYER_7
 10
146.4011
 20
-4.5958
  0
VERTEX
  8
LAYER_7
 10
145.8433
 20
-4.5958
  0
VERTEX
  8
LAYER_7
 10
145.8433
 20
-3.72
  0
VERTEX
  8
LAYER_7
 10
146.3862
 20
-3.72
  0
VERTEX
  8
LAYER_7
 10
146.3862
 20
-3.7989
  0
VERTEX
  8
LAYER_7
 10
145.9322
 20
-3.7989
  0
VERTEX
  8
LAYER_7
 10
145.9322
 20
-4.0993
  0
VERTEX
  8
LAYER_7
 10
146.3566
 20
-4.0993
  0
VERTEX
  8
LAYER_7
 10
146.3566
 20
-4.1786
  0
VERTEX
  8
LAYER_7
 10
145.9322
 20
-4.1786
  0
SEQEND
  0
ENDBLK
  0
BLOCK
  8
LAYER_7
  2
AIGNBL0703001F
 70
64
 10
0
 20
0
 30
0
  3
AIGNBL0703001F
  0
POLYLINE
  8
LAYER_7
 40
0.05
 41
0.05
 66
1
 10
0
 20
0
 30
0
 70
1
  0
VERTEX
  8
LAYER_7
 10
146.8351
 20
-4.5958
  0
VERTEX
  8
LAYER_7
 10
146.7463
 20
-4.5958
  0
VERTEX
  8
LAYER_7
 10
146.7463
 20
-3.72
  0
VERTEX
  8
LAYER_7
 10
147.0036
 20
-3.72
  0
VERTEX
  8
LAYER_7
 10
147.1228
 20
-3.7321
  0
VERTEX
  8
LAYER_7
 10
147.2182
 20
-3.7724
 42
-0.1251490281
  0
VERTEX
  8
LAYER_7
 10
147.2806
 20
-3.8447
 42
-0.1051781119
  0
VERTEX
  8
LAYER_7
 10
147.3026
 20
-3.9536
  0
VERTEX
  8
LAYER_7
 10
147.2858
 20
-4.0414
  0
VERTEX
  8
LAYER_7
 10
147.2386
 20
-4.11
  0
VERTEX
  8
LAYER_7
 10
147.1679
 20
-4.1565
  0
VERTEX
  8
LAYER_7
 10
147.0791
 20
-4.1786
  0
VERTEX
  8
LAYER_7
 10
147.335
 20
-4.5958
  0
VERTEX
  8
LAYER_7
 10
147.2262
 20
-4.5958
  0
VERTEX
  8
LAYER_7
 10
146.9836
 20
-4.1861
  0
VERTEX
  8
LAYER_7
 10
146.8351
 20
-4.1861
  0
SEQEND
  0
POLYLINE
  8
LAYER_7
 40
0.05
 41
0.05
 66
1
 10
0
 20
0
 30
0
 70
1
  0
VERTEX
  8
LAYER_7
 10
146.8351
 20
-4.1093
  0
VERTEX
  8
LAYER_7
 10
146.9898
 20
-4.1093
 42
0.1569755974
  0
VERTEX
  8
LAYER_7
 10
147.1559
 20
-4.0707
 42
0.2567768408
  0
VERTEX
  8
LAYER_7
 10
147.2138
 20
-3.9536
  0
VERTEX
  8
LAYER_7
 10
147.1979
 20
-3.8809
  0
VERTEX
  8
LAYER_7
 10
147.1531
 20
-3.8323
  0
VERTEX
  8
LAYER_7
 10
147.0839
 20
-3.8051
  0
VERTEX
  8
LAYER_7
 10
146.9936
 20
-3.7965
  0
VERTEX
  8
LAYER_7
 10
146.8351
 20
-3.7965
  0
SEQEND
  0
ENDBLK
  0
BLOCK
  8
LAYER_7
  2
AIGNBL07030020
 70
64
 10
0
 20
0
 30
0
  3
AIGNBL07030020
  0
POLYLINE
  8
LAYER_7
 40
0.05
 41
0.05
 66
1
 10
0
 20
0
 30
0
 70
1
  0
VERTEX
  8
LAYER_7
 10
147.7467
 20
-4.5958
  0
VERTEX
  8
LAYER_7
 10
147.6582
 20
-4.5958
  0
VERTEX
  8
LAYER_7
 10
147.6582
 20
-3.72
  0
VERTEX
  8
LAYER_7
 10
147.7467
 20
-3.72
  0
SEQEND
  0
ENDBLK
  0
BLOCK
  8
LAYER_7
  2
AIGNBL07030021
 70
64
 10
0
 20
0
 30
0
  3
AIGNBL07030021
  0
POLYLINE
  8
LAYER_7
 40
0.05
 41
0.05
 66
1
 10
0
 20
0
 30
0
 70
1
  0
VERTEX
  8
LAYER_7
 10
148.239
 20
-4.5162
  0
VERTEX
  8
LAYER_7
 10
148.7079
 20
-4.5162
  0
VERTEX
  8
LAYER_7
 10
148.7079
 20
-4.5958
  0
VERTEX
  8
LAYER_7
 10
148.1501
 20
-4.5958
  0
VERTEX
  8
LAYER_7
 10
148.1501
 20
-3.72
  0
VERTEX
  8
LAYER_7
 10
148.6931
 20
-3.72
  0
VERTEX
  8
LAYER_7
 10
148.6931
 20
-3.7989
  0
VERTEX
  8
LAYER_7
 10
148.239
 20
-3.7989
  0
VERTEX
  8
LAYER_7
 10
148.239
 20
-4.0993
  0
VERTEX
  8
LAYER_7
 10
148.6634
 20
-4.0993
  0
VERTEX
  8
LAYER_7
 10
148.6634
 20
-4.1786
  0
VERTEX
  8
LAYER_7
 10
148.239
 20
-4.1786
  0
SEQEND
  0
ENDBLK
  0
BLOCK
  8
LAYER_7
  2
AIGNBL07030022
 70
64
 10
0
 20
0
 30
0
  3
AIGNBL07030022
  0
POLYLINE
  8
LAYER_7
 40
0.05
 41
0.05
 66
1
 10
0
 20
0
 30
0
 70
1
  0
VERTEX
  8
LAYER_7
 10
149.6739
 20
-4.4655
  0
VERTEX
  8
LAYER_7
 10
149.6763
 20
-4.4655
  0
VERTEX
  8
LAYER_7
 10
149.6763
 20
-3.72
  0
VERTEX
  8
LAYER_7
 10
149.7655
 20
-3.72
  0
VERTEX
  8
LAYER_7
 10
149.7655
 20
-4.5958
  0
VERTEX
  8
LAYER_7
 10
149.6543
 20
-4.5958
  0
VERTEX
  8
LAYER_7
 10
149.1447
 20
-3.8423
  0
VERTEX
  8
LAYER_7
 10
149.142
 20
-3.8423
  0
VERTEX
  8
LAYER_7
 10
149.142
 20
-4.5958
  0
VERTEX
  8
LAYER_7
 10
149.0531
 20
-4.5958
  0
VERTEX
  8
LAYER_7
 10
149.0531
 20
-3.72
  0
VERTEX
  8
LAYER_7
 10
149.1644
 20
-3.72
  0
SEQEND
  0
ENDBLK
  0
BLOCK
  8
LAYER_7
  2
AIGNBL07030023
 70
64
 10
0
 20
0
 30
0
  3
AIGNBL07030023
  0
POLYLINE
  8
LAYER_7
 40
0.05
 41
0.05
 66
1
 10
0
 20
0
 30
0
 70
1
  0
VERTEX
  8
LAYER_7
 10
150.9062
 20
-4.4535
  0
VERTEX
  8
LAYER_7
 10
150.8521
 20
-4.5165
  0
VERTEX
  8
LAYER_7
 10
150.7791
 20
-4.5689
  0
VERTEX
  8
LAYER_7
 10
150.6874
 20
-4.6047
  0
VERTEX
  8
LAYER_7
 10
150.5782
 20
-4.6178
 42
-0.1002604889
  0
VERTEX
  8
LAYER_7
 10
150.395
 20
-4.583
 42
-0.103618762
  0
VERTEX
  8
LAYER_7
 10
150.2506
 20
-4.4872
 42
-0.1002861858
  0
VERTEX
  8
LAYER_7
 10
150.1559
 20
-4.3419
 42
-0.09550230428
  0
VERTEX
  8
LAYER_7
 10
150.1218
 20
-4.1575
 42
-0.1026723447
  0
VERTEX
  8
LAYER_7
 10
150.1566
 20
-3.9732
 42
-0.09988408448
  0
VERTEX
  8
LAYER_7
 10
150.252
 20
-3.8278
 42
-0.09706305567
  0
VERTEX
  8
LAYER_7
 10
150.3967
 20
-3.7321
 42
-0.09710431873
  0
VERTEX
  8
LAYER_7
 10
150.5782
 20
-3.6973
  0
VERTEX
  8
LAYER_7
 10
150.6726
 20
-3.7076
  0
VERTEX
  8
LAYER_7
 10
150.7601
 20
-3.7359
  0
VERTEX
  8
LAYER_7
 10
150.8342
 20
-3.7796
  0
VERTEX
  8
LAYER_7
 10
150.89
 20
-3.8371
  0
VERTEX
  8
LAYER_7
 10
150.8159
 20
-3.8919
  0
VERTEX
  8
LAYER_7
 10
150.7791
 20
-3.8495
  0
VERTEX
  8
LAYER_7
 10
150.7253
 20
-3.8123
  0
VERTEX
  8
LAYER_7
 10
150.6578
 20
-3.7865
  0
VERTEX
  8
LAYER_7
 10
150.5793
 20
-3.7765
 42
0.1136496813
  0
VERTEX
  8
LAYER_7
 10
150.4266
 20
-3.8075
 42
0.1041503417
  0
VERTEX
  8
LAYER_7
 10
150.3123
 20
-3.8905
 42
0.09633029683
  0
VERTEX
  8
LAYER_7
 10
150.2403
 20
-4.0122
 42
0.08390004266
  0
VERTEX
  8
LAYER_7
 10
150.2158
 20
-4.1575
 42
0.09237333632
  0
VERTEX
  8
LAYER_7
 10
150.2413
 20
-4.3029
 42
0.09906074874
  0
VERTEX
  8
LAYER_7
 10
150.3137
 20
-4.4245
 42
0.1041975764
  0
VERTEX
  8
LAYER_7
 10
150.428
 20
-4.5076
 42
0.1062091033
  0
VERTEX
  8
LAYER_7
 10
150.5793
 20
-4.5386
 42
0.1114210768
  0
VERTEX
  8
LAYER_7
 10
150.7226
 20
-4.5076
 42
0.1364138409
  0
VERTEX
  8
LAYER_7
 10
150.8366
 20
-4.4087
  0
SEQEND
  0
ENDBLK
  0
BLOCK
  8
LAYER_7
  2
AIGNBL07030024
 70
64
 10
0
 20
0
 30
0
  3
AIGNBL07030024
  0
POLYLINE
  8
LAYER_7
 40
0.05
 41
0.05
 66
1
 10
0
 20
0
 30
0
 70
1
  0
VERTEX
  8
LAYER_7
 10
151.3189
 20
-4.5162
  0
VERTEX
  8
LAYER_7
 10
151.7878
 20
-4.5162
  0
VERTEX
  8
LAYER_7
 10
151.7878
 20
-4.5958
  0
VERTEX
  8
LAYER_7
 10
151.23
 20
-4.5958
  0
VERTEX
  8
LAYER_7
 10
151.23
 20
-3.72
  0
VERTEX
  8
LAYER_7
 10
151.773
 20
-3.72
  0
VERTEX
  8
LAYER_7
 10
151.773
 20
-3.7989
  0
VERTEX
  8
LAYER_7
 10
151.3189
 20
-3.7989
  0
VERTEX
  8
LAYER_7
 10
151.3189
 20
-4.0993
  0
VERTEX
  8
LAYER_7
 10
151.7434
 20
-4.0993
  0
VERTEX
  8
LAYER_7
 10
151.7434
 20
-4.1786
  0
VERTEX
  8
LAYER_7
 10
151.3189
 20
-4.1786
  0
SEQEND
  0
ENDBLK
  0
BLOCK
  8
LAYER_2
  2
AIGNBL02020003
 70
64
 10
0
 20
0
 30
0
  3
AIGNBL02020003
  0
POLYLINE
  8
LAYER_2
 40
0.2469
 41
0.2469
 66
1
 10
0
 20
0
 30
0
  0
VERTEX
  8
LAYER_2
 10
103.1286
 20
87.8703
  0
VERTEX
  8
LAYER_2
 10
103.1286
 20
96.2704
  0
SEQEND
  0
ENDBLK
  0
BLOCK
  8
LAYER_2
  2
AIGNBL02020004
 70
64
 10
0
 20
0
 30
0
  3
AIGNBL02020004
  0
POLYLINE
  8
LAYER_2
 40
0.2469
 41
0.2469
 66
1
 10
0
 20
0
 30
0
  0
VERTEX
  8
LAYER_2
 10
103.1286
 20
96.2704
  0
VERTEX
  8
LAYER_2
 10
103.0283
 20
96.3703
  0
SEQEND
  0
ENDBLK
  0
BLOCK
  8
LAYER_2
  2
AIGNBL02020005
 70
64
 10
0
 20
0
 30
0
  3
AIGNBL02020005
  0
POLYLINE
  8
LAYER_2
 40
0.2469
 41
0.2469
 66
1
 10
0
 20
0
 30
0
  0
VERTEX
  8
LAYER_2
 10
99.7285
 20
96.3703
  0
VERTEX
  8
LAYER_2
 10
103.0283
 20
96.3703
  0
SEQEND
  0
ENDBLK
  0
BLOCK
  8
LAYER_2
  2
AIGNBL02020006
 70
64
 10
0
 20
0
 30
0
  3
AIGNBL02020006
  0
POLYLINE
  8
LAYER_2
 40
0.2469
 41
0.2469
 66
1
 10
0
 20
0
 30
0
  0
VERTEX
  8
LAYER_2
 10
99.6284
 20
96.2704
  0
VERTEX
  8
LAYER_2
 10
99.6284
 20
87.8703
  0
SEQEND
  0
ENDBLK
  0
BLOCK
  8
LAYER_2
  2
AIGNBL02020007
 70
64
 10
0
 20
0
 30
0
  3
AIGNBL02020007
  0
POLYLINE
  8
LAYER_2
 40
0.2469
 41
0.2469
 66
1
 10
0
 20
0
 30
0
  0
VERTEX
  8
LAYER_2
 10
99.7285
 20
96.3703
  0
VERTEX
  8
LAYER_2
 10
99.6284
 20
96.2704
  0
SEQEND
  0
ENDBLK
  0
BLOCK
  8
LAYER_2
  2
AIGNBL02020008
 70
64
 10
0
 20
0
 30
0
  3
AIGNBL02020008
  0
POLYLINE
  8
LAYER_2
  6
AIGENLINE001
 40
0.2469
 41
0.2469
 62
120
 66
1
 10
0
 20
0
 30
0
 70
128
  0
VERTEX
  8
LAYER_2
 10
101.3785
 20
82.3705
  0
VERTEX
  8
LAYER_2
 10
101.3785
 20
97.8703
  0
SEQEND
  0
ENDBLK
  0
BLOCK
  8
LAYER_2
  2
AIGNBL0202000A
 70
64
 10
0
 20
0
 30
0
  3
AIGNBL0202000A
  0
POLYLINE
  8
LAYER_2
  6
AIGENLINE001
 40
0.2469
 41
0.2469
 62
120
 66
1
 10
0
 20
0
 30
0
 70
128
  0
VERTEX
  8
LAYER_2
 10
101.3785
 20
93.0703
  0
VERTEX
  8
LAYER_2
 10
101.3785
 20
98.8705
  0
SEQEND
  0
ENDBLK
  0
BLOCK
  8
LAYER_2
  2
AIGNBL0202000B
 70
64
 10
0
 20
0
 30
0
  3
AIGNBL0202000B
  0
POLYLINE
  8
LAYER_2
 40
0.2469
 41
0.2469
 66
1
 10
0
 20
0
 30
0
  0
VERTEX
  8
LAYER_2
 10
103.1286
 20
96.4703
  0
VERTEX
  8
LAYER_2
 10
103.0283
 20
96.3703
  0
SEQEND
  0
ENDBLK
  0
BLOCK
  8
LAYER_2
  2
AIGNBL0202000C
 70
64
 10
0
 20
0
 30
0
  3
AIGNBL0202000C
  0
POLYLINE
  8
LAYER_2
 40
0.2469
 41
0.2469
 66
1
 10
0
 20
0
 30
0
  0
VERTEX
  8
LAYER_2
 10
99.6284
 20
96.4703
  0
VERTEX
  8
LAYER_2
 10
99.7285
 20
96.3703
  0
SEQEND
  0
ENDBLK
  0
BLOCK
  8
LAYER_2
  2
AIGNBL0202000D
 70
64
 10
0
 20
0
 30
0
  3
AIGNBL0202000D
  0
POLYLINE
  8
LAYER_2
 40
0.2469
 41
0.2469
 66
1
 10
0
 20
0
 30
0
  0
VERTEX
  8
LAYER_2
 10
103.1286
 20
96.4703
  0
VERTEX
  8
LAYER_2
 10
103.1286
 20
97.1203
  0
SEQEND
  0
ENDBLK
  0
BLOCK
  8
LAYER_2
  2
AIGNBL0202000E
 70
64
 10
0
 20
0
 30
0
  3
AIGNBL0202000E
  0
POLYLINE
  8
LAYER_2
 40
0.2469
 41
0.2469
 66
1
 10
0
 20
0
 30
0
  0
VERTEX
  8
LAYER_2
 10
99.6284
 20
96.4703
  0
VERTEX
  8
LAYER_2
 10
99.6284
 20
97.1203
  0
SEQEND
  0
ENDBLK
  0
BLOCK
  8
LAYER_2
  2
AIGNBL0202000F
 70
64
 10
0
 20
0
 30
0
  3
AIGNBL0202000F
  0
POLYLINE
  8
LAYER_2
 40
0.2469
 41
0.2469
 66
1
 10
0
 20
0
 30
0
  0
VERTEX
  8
LAYER_2
 10
99.8785
 20
97.3705
  0
VERTEX
  8
LAYER_2
 10
102.8785
 20
97.3705
  0
SEQEND
  0
ENDBLK
  0
BLOCK
  8
LAYER_2
  2
AIGNBL02020010
 70
64
 10
0
 20
0
 30
0
  3
AIGNBL02020010
  0
POLYLINE
  8
LAYER_2
 40
0.2469
 41
0.2469
 66
1
 10
0
 20
0
 30
0
  0
VERTEX
  8
LAYER_2
 10
99.7285
 20
96.3703
  0
VERTEX
  8
LAYER_2
 10
100.0535
 20
96.3703
  0
SEQEND
  0
ENDBLK
  0
BLOCK
  8
LAYER_2
  2
AIGNBL02020011
 70
64
 10
0
 20
0
 30
0
  3
AIGNBL02020011
  0
POLYLINE
  8
LAYER_2
 40
0.2469
 41
0.2469
 66
1
 10
0
 20
0
 30
0
  0
VERTEX
  8
LAYER_2
 10
102.7035
 20
96.3703
  0
VERTEX
  8
LAYER_2
 10
103.0283
 20
96.3703
  0
SEQEND
  0
ENDBLK
  0
BLOCK
  8
LAYER_2
  2
AIGNBL02020012
 70
64
 10
0
 20
0
 30
0
  3
AIGNBL02020012
  0
POLYLINE
  8
LAYER_2
 40
0.2469
 41
0.2469
 66
1
 10
0
 20
0
 30
0
  0
VERTEX
  8
LAYER_2
 10
65.9212
 20
96.3703
  0
VERTEX
  8
LAYER_2
 10
69.2213
 20
96.3703
  0
SEQEND
  0
ENDBLK
  0
BLOCK
  8
LAYER_2
  2
AIGNBL02020013
 70
64
 10
0
 20
0
 30
0
  3
AIGNBL02020013
  0
POLYLINE
  8
LAYER_2
 40
0.2469
 41
0.2469
 66
1
 10
0
 20
0
 30
0
  0
VERTEX
  8
LAYER_2
 10
66.0714
 20
97.3705
  0
VERTEX
  8
LAYER_2
 10
69.0714
 20
97.3705
  0
SEQEND
  0
ENDBLK
  0
BLOCK
  8
LAYER_2
  2
AIGNBL02020014
 70
64
 10
0
 20
0
 30
0
  3
AIGNBL02020014
  0
POLYLINE
  8
LAYER_2
 40
0.2469
 41
0.2469
 66
1
 10
0
 20
0
 30
0
  0
VERTEX
  8
LAYER_2
 10
65.8213
 20
96.4703
  0
VERTEX
  8
LAYER_2
 10
65.8213
 20
97.1203
  0
SEQEND
  0
ENDBLK
  0
BLOCK
  8
LAYER_2
  2
AIGNBL02020015
 70
64
 10
0
 20
0
 30
0
  3
AIGNBL02020015
  0
POLYLINE
  8
LAYER_2
 40
0.2469
 41
0.2469
 66
1
 10
0
 20
0
 30
0
  0
VERTEX
  8
LAYER_2
 10
69.3212
 20
96.4703
  0
VERTEX
  8
LAYER_2
 10
69.3212
 20
97.1203
  0
SEQEND
  0
ENDBLK
  0
BLOCK
  8
LAYER_2
  2
AIGNBL02020016
 70
64
 10
0
 20
0
 30
0
  3
AIGNBL02020016
  0
POLYLINE
  8
LAYER_2
 40
0.2469
 41
0.2469
 66
1
 10
0
 20
0
 30
0
  0
VERTEX
  8
LAYER_2
 10
65.8213
 20
96.4703
  0
VERTEX
  8
LAYER_2
 10
65.9212
 20
96.3703
  0
SEQEND
  0
ENDBLK
  0
BLOCK
  8
LAYER_2
  2
AIGNBL02020017
 70
64
 10
0
 20
0
 30
0
  3
AIGNBL02020017
  0
POLYLINE
  8
LAYER_2
 40
0.2469
 41
0.2469
 66
1
 10
0
 20
0
 30
0
  0
VERTEX
  8
LAYER_2
 10
69.3212
 20
96.4703
  0
VERTEX
  8
LAYER_2
 10
69.2213
 20
96.3703
  0
SEQEND
  0
ENDBLK
  0
BLOCK
  8
LAYER_2
  2
AIGNBL02020018
 70
64
 10
0
 20
0
 30
0
  3
AIGNBL02020018
  0
POLYLINE
  8
LAYER_2
  6
AIGENLINE001
 40
0.2469
 41
0.2469
 62
120
 66
1
 10
0
 20
0
 30
0
 70
128
  0
VERTEX
  8
LAYER_2
 10
67.5714
 20
93.0703
  0
VERTEX
  8
LAYER_2
 10
67.5714
 20
99.3703
  0
SEQEND
  0
ENDBLK
  0
BLOCK
  8
LAYER_2
  2
AIGNBL02020019
 70
64
 10
0
 20
0
 30
0
  3
AIGNBL02020019
  0
POLYLINE
  8
LAYER_2
 40
0.2469
 41
0.2469
 66
1
 10
0
 20
0
 30
0
 70
1
  0
VERTEX
  8
LAYER_2
 10
69.3212
 20
137.9954
 42
0.4142103144
  0
VERTEX
  8
LAYER_2
 10
67.5714
 20
139.7455
 42
0.4142056813
  0
VERTEX
  8
LAYER_2
 10
65.8213
 20
137.9954
 42
0.4142168094
  0
VERTEX
  8
LAYER_2
 10
67.5714
 20
136.2453
 42
0.4142214447
  0
SEQEND
  0
ENDBLK
  0
BLOCK
  8
LAYER_2
  2
AIGNBL0202001A
 70
64
 10
0
 20
0
 30
0
  3
AIGNBL0202001A
  0
POLYLINE
  8
LAYER_2
 40
0.2469
 41
0.2469
 66
1
 10
0
 20
0
 30
0
  0
VERTEX
  8
LAYER_2
 10
99.8785
 20
97.3705
 42
0.4142797936
  0
VERTEX
  8
LAYER_2
 10
99.6284
 20
97.1203
  0
SEQEND
  0
ENDBLK
  0
BLOCK
  8
LAYER_2
  2
AIGNBL0202001B
 70
64
 10
0
 20
0
 30
0
  3
AIGNBL0202001B
  0
POLYLINE
  8
LAYER_2
 40
0.2469
 41
0.2469
 66
1
 10
0
 20
0
 30
0
  0
VERTEX
  8
LAYER_2
 10
103.1286
 20
97.1203
 42
0.4142337943
  0
VERTEX
  8
LAYER_2
 10
102.8785
 20
97.3705
  0
SEQEND
  0
ENDBLK
  0
BLOCK
  8
LAYER_2
  2
AIGNBL0202001C
 70
64
 10
0
 20
0
 30
0
  3
AIGNBL0202001C
  0
POLYLINE
  8
LAYER_2
 40
0.2469
 41
0.2469
 66
1
 10
0
 20
0
 30
0
  0
VERTEX
  8
LAYER_2
 10
69.3212
 20
97.1203
 42
0.3929545363
  0
VERTEX
  8
LAYER_2
 10
69.0714
 20
97.3705
  0
SEQEND
  0
ENDBLK
  0
BLOCK
  8
LAYER_2
  2
AIGNBL0202001D
 70
64
 10
0
 20
0
 30
0
  3
AIGNBL0202001D
  0
POLYLINE
  8
LAYER_2
 40
0.2469
 41
0.2469
 66
1
 10
0
 20
0
 30
0
  0
VERTEX
  8
LAYER_2
 10
66.0714
 20
97.3705
 42
0.41424058
  0
VERTEX
  8
LAYER_2
 10
65.8213
 20
97.1203
  0
SEQEND
  0
ENDBLK
  0
BLOCK
  8
LAYER_2
  2
AIGNBL0202001F
 70
64
 10
0
 20
0
 30
0
  3
AIGNBL0202001F
  0
POLYLINE
  8
LAYER_2
  6
AIGENLINE001
 40
0.2469
 41
0.2469
 62
120
 66
1
 10
0
 20
0
 30
0
 70
128
  0
VERTEX
  8
LAYER_2
 10
101.3785
 20
84.0703
  0
VERTEX
  8
LAYER_2
 10
101.3785
 20
88.6203
  0
SEQEND
  0
ENDBLK
  0
BLOCK
  8
LAYER_2
  2
AIGNBL02020020
 70
64
 10
0
 20
0
 30
0
  3
AIGNBL02020020
  0
POLYLINE
  8
LAYER_2
  6
AIGENLINE001
 40
0.2469
 41
0.2469
 62
120
 66
1
 10
0
 20
0
 30
0
 70
128
  0
VERTEX
  8
LAYER_2
 10
95.3785
 20
80.6204
  0
VERTEX
  8
LAYER_2
 10
111.1784
 20
80.6204
  0
SEQEND
  0
ENDBLK
  0
BLOCK
  8
LAYER_2
  2
AIGNBL02020021
 70
64
 10
0
 20
0
 30
0
  3
AIGNBL02020021
  0
POLYLINE
  8
LAYER_2
 40
0.2469
 41
0.2469
 66
1
 10
0
 20
0
 30
0
  0
VERTEX
  8
LAYER_2
 10
110.3784
 20
73.3705
  0
VERTEX
  8
LAYER_2
 10
101.6284
 20
73.3705
  0
SEQEND
  0
ENDBLK
  0
BLOCK
  8
LAYER_2
  2
AIGNBL02020022
 70
64
 10
0
 20
0
 30
0
  3
AIGNBL02020022
  0
POLYLINE
  8
LAYER_2
 40
0.2469
 41
0.2469
 66
1
 10
0
 20
0
 30
0
  0
VERTEX
  8
LAYER_2
 10
96.5784
 20
87.8703
  0
VERTEX
  8
LAYER_2
 10
110.3784
 20
87.8703
  0
SEQEND
  0
ENDBLK
  0
BLOCK
  8
LAYER_2
  2
AIGNBL02020023
 70
64
 10
0
 20
0
 30
0
  3
AIGNBL02020023
  0
POLYLINE
  8
LAYER_2
 40
0.2469
 41
0.2469
 66
1
 10
0
 20
0
 30
0
  0
VERTEX
  8
LAYER_2
 10
110.3784
 20
87.8703
  0
VERTEX
  8
LAYER_2
 10
110.3784
 20
73.3705
  0
SEQEND
  0
ENDBLK
  0
BLOCK
  8
LAYER_2
  2
AIGNBL02020024
 70
64
 10
0
 20
0
 30
0
  3
AIGNBL02020024
  0
POLYLINE
  8
LAYER_2
 40
0.2469
 41
0.2469
 66
1
 10
0
 20
0
 30
0
  0
VERTEX
  8
LAYER_2
 10
101.6284
 20
73.3705
  0
VERTEX
  8
LAYER_2
 10
98.9283
 20
73.3705
  0
SEQEND
  0
ENDBLK
  0
BLOCK
  8
LAYER_2
  2
AIGNBL02020025
 70
64
 10
0
 20
0
 30
0
  3
AIGNBL02020025
  0
POLYLINE
  8
LAYER_2
 40
0.2469
 41
0.2469
 66
1
 10
0
 20
0
 30
0
  0
VERTEX
  8
LAYER_2
 10
98.9283
 20
73.3705
  0
VERTEX
  8
LAYER_2
 10
96.5784
 20
73.3705
  0
SEQEND
  0
ENDBLK
  0
BLOCK
  8
LAYER_2
  2
AIGNBL02020026
 70
64
 10
0
 20
0
 30
0
  3
AIGNBL02020026
  0
POLYLINE
  8
LAYER_2
 40
0.2469
 41
0.2469
 66
1
 10
0
 20
0
 30
0
  0
VERTEX
  8
LAYER_2
 10
96.1285
 20
73.8205
  0
VERTEX
  8
LAYER_2
 10
96.1285
 20
87.4203
  0
SEQEND
  0
ENDBLK
  0
BLOCK
  8
LAYER_2
  2
AIGNBL02020027
 70
64
 10
0
 20
0
 30
0
  3
AIGNBL02020027
  0
POLYLINE
  8
LAYER_2
 40
0.2469
 41
0.2469
 66
1
 10
0
 20
0
 30
0
  0
VERTEX
  8
LAYER_2
 10
74.8213
 20
135.5456
  0
VERTEX
  8
LAYER_2
 10
74.8213
 20
133.1953
  0
SEQEND
  0
ENDBLK
  0
BLOCK
  8
LAYER_2
  2
AIGNBL02020028
 70
64
 10
0
 20
0
 30
0
  3
AIGNBL02020028
  0
POLYLINE
  8
LAYER_2
 40
0.2469
 41
0.2469
 66
1
 10
0
 20
0
 30
0
  0
VERTEX
  8
LAYER_2
 10
74.8213
 20
138.2455
  0
VERTEX
  8
LAYER_2
 10
74.8213
 20
135.5456
  0
SEQEND
  0
ENDBLK
  0
BLOCK
  8
LAYER_2
  2
AIGNBL02020029
 70
64
 10
0
 20
0
 30
0
  3
AIGNBL02020029
  0
POLYLINE
  8
LAYER_2
 40
0.2469
 41
0.2469
 66
1
 10
0
 20
0
 30
0
  0
VERTEX
  8
LAYER_2
 10
74.8213
 20
146.9953
  0
VERTEX
  8
LAYER_2
 10
74.8213
 20
138.2455
  0
SEQEND
  0
ENDBLK
  0
BLOCK
  8
LAYER_2
  2
AIGNBL0202002A
 70
64
 10
0
 20
0
 30
0
  3
AIGNBL0202002A
  0
POLYLINE
  8
LAYER_2
  6
AIGENLINE001
 40
0.2469
 41
0.2469
 62
120
 66
1
 10
0
 20
0
 30
0
 70
128
  0
VERTEX
  8
LAYER_2
 10
67.5714
 20
131.9954
  0
VERTEX
  8
LAYER_2
 10
67.5714
 20
147.7953
  0
SEQEND
  0
ENDBLK
  0
BLOCK
  8
LAYER_2
  2
AIGNBL0202002B
 70
64
 10
0
 20
0
 30
0
  3
AIGNBL0202002B
  0
POLYLINE
  8
LAYER_2
 40
0.2469
 41
0.2469
 66
1
 10
0
 20
0
 30
0
  0
VERTEX
  8
LAYER_2
 10
74.3713
 20
132.7454
  0
VERTEX
  8
LAYER_2
 10
60.7713
 20
132.7454
  0
SEQEND
  0
ENDBLK
  0
BLOCK
  8
LAYER_2
  2
AIGNBL0202002C
 70
64
 10
0
 20
0
 30
0
  3
AIGNBL0202002C
  0
POLYLINE
  8
LAYER_2
 40
0.2469
 41
0.2469
 66
1
 10
0
 20
0
 30
0
  0
VERTEX
  8
LAYER_2
 10
60.3212
 20
138.2455
  0
VERTEX
  8
LAYER_2
 10
60.3212
 20
146.9953
  0
SEQEND
  0
ENDBLK
  0
BLOCK
  8
LAYER_2
  2
AIGNBL0202002D
 70
64
 10
0
 20
0
 30
0
  3
AIGNBL0202002D
  0
POLYLINE
  8
LAYER_2
 40
0.2469
 41
0.2469
 66
1
 10
0
 20
0
 30
0
  0
VERTEX
  8
LAYER_2
 10
60.3212
 20
135.5456
  0
VERTEX
  8
LAYER_2
 10
60.3212
 20
138.2455
  0
SEQEND
  0
ENDBLK
  0
BLOCK
  8
LAYER_2
  2
AIGNBL0202002E
 70
64
 10
0
 20
0
 30
0
  3
AIGNBL0202002E
  0
POLYLINE
  8
LAYER_2
 40
0.2469
 41
0.2469
 66
1
 10
0
 20
0
 30
0
  0
VERTEX
  8
LAYER_2
 10
60.3212
 20
133.1953
  0
VERTEX
  8
LAYER_2
 10
60.3212
 20
135.5456
  0
SEQEND
  0
ENDBLK
  0
BLOCK
  8
LAYER_2
  2
AIGNBL0202002F
 70
64
 10
0
 20
0
 30
0
  3
AIGNBL0202002F
  0
POLYLINE
  8
LAYER_2
 40
0.2469
 41
0.2469
 66
1
 10
0
 20
0
 30
0
  0
VERTEX
  8
LAYER_2
 10
74.8213
 20
146.9953
  0
VERTEX
  8
LAYER_2
 10
60.3212
 20
146.9953
  0
SEQEND
  0
ENDBLK
  0
BLOCK
  8
LAYER_2
  2
AIGNBL02020030
 70
64
 10
0
 20
0
 30
0
  3
AIGNBL02020030
  0
POLYLINE
  8
LAYER_2
 40
0.2469
 41
0.2469
 66
1
 10
0
 20
0
 30
0
 70
1
  0
VERTEX
  8
LAYER_2
 10
74.8213
 20
80.6204
 42
0.4142142033
  0
VERTEX
  8
LAYER_2
 10
67.5714
 20
87.8703
 42
0.4142130848
  0
VERTEX
  8
LAYER_2
 10
60.3212
 20
80.6204
 42
0.4142129215
  0
VERTEX
  8
LAYER_2
 10
67.5714
 20
73.3705
 42
0.4142140402
  0
SEQEND
  0
ENDBLK
  0
BLOCK
  8
LAYER_2
  2
AIGNBL02020031
 70
64
 10
0
 20
0
 30
0
  3
AIGNBL02020031
  0
POLYLINE
  8
LAYER_2
 40
0.2469
 41
0.2469
 66
1
 10
0
 20
0
 30
0
  0
VERTEX
  8
LAYER_2
 10
96.1285
 20
73.8205
 42
0.4142126744
  0
VERTEX
  8
LAYER_2
 10
96.5784
 20
73.3705
  0
SEQEND
  0
ENDBLK
  0
BLOCK
  8
LAYER_2
  2
AIGNBL02020032
 70
64
 10
0
 20
0
 30
0
  3
AIGNBL02020032
  0
POLYLINE
  8
LAYER_2
 40
0.2469
 41
0.2469
 66
1
 10
0
 20
0
 30
0
  0
VERTEX
  8
LAYER_2
 10
96.5784
 20
87.8703
 42
0.4142153019
  0
VERTEX
  8
LAYER_2
 10
96.1285
 20
87.4203
  0
SEQEND
  0
ENDBLK
  0
BLOCK
  8
LAYER_2
  2
AIGNBL02020033
 70
64
 10
0
 20
0
 30
0
  3
AIGNBL02020033
  0
POLYLINE
  8
LAYER_2
 40
0.2469
 41
0.2469
 66
1
 10
0
 20
0
 30
0
  0
VERTEX
  8
LAYER_2
 10
74.3713
 20
132.7454
 42
0.4142318586
  0
VERTEX
  8
LAYER_2
 10
74.8213
 20
133.1953
  0
SEQEND
  0
ENDBLK
  0
BLOCK
  8
LAYER_2
  2
AIGNBL02020034
 70
64
 10
0
 20
0
 30
0
  3
AIGNBL02020034
  0
POLYLINE
  8
LAYER_2
 40
0.2469
 41
0.2469
 66
1
 10
0
 20
0
 30
0
  0
VERTEX
  8
LAYER_2
 10
60.3212
 20
133.1953
 42
0.4141957732
  0
VERTEX
  8
LAYER_2
 10
60.7713
 20
132.7454
  0
SEQEND
  0
ENDBLK
  0
BLOCK
  8
LAYER_2
  2
AIGNBL02020036
 70
64
 10
0
 20
0
 30
0
  3
AIGNBL02020036
  0
POLYLINE
  8
LAYER_2
 40
0.2469
 41
0.2469
 66
1
 10
0
 20
0
 30
0
  0
VERTEX
  8
LAYER_2
 10
115.1285
 20
97.5393
  0
VERTEX
  8
LAYER_2
 10
125.6285
 20
97.5393
  0
SEQEND
  0
ENDBLK
  0
BLOCK
  8
LAYER_2
  2
AIGNBL02020037
 70
64
 10
0
 20
0
 30
0
  3
AIGNBL02020037
  0
POLYLINE
  8
LAYER_2
 40
0.2469
 41
0.2469
 66
1
 10
0
 20
0
 30
0
  0
VERTEX
  8
LAYER_2
 10
115.7094
 20
93.6205
  0
VERTEX
  8
LAYER_2
 10
125.0473
 20
93.6205
  0
SEQEND
  0
ENDBLK
  0
BLOCK
  8
LAYER_2
  2
AIGNBL02020038
 70
64
 10
0
 20
0
 30
0
  3
AIGNBL02020038
  0
POLYLINE
  8
LAYER_2
 40
0.2469
 41
0.2469
 66
1
 10
0
 20
0
 30
0
  0
VERTEX
  8
LAYER_2
 10
110.3784
 20
87.1203
  0
VERTEX
  8
LAYER_2
 10
110.6286
 20
87.1203
  0
SEQEND
  0
ENDBLK
  0
BLOCK
  8
LAYER_2
  2
AIGNBL02020039
 70
64
 10
0
 20
0
 30
0
  3
AIGNBL02020039
  0
POLYLINE
  8
LAYER_2
 40
0.2469
 41
0.2469
 66
1
 10
0
 20
0
 30
0
  0
VERTEX
  8
LAYER_2
 10
69.3212
 20
93.6205
  0
VERTEX
  8
LAYER_2
 10
72.2402
 20
93.6205
  0
SEQEND
  0
ENDBLK
  0
BLOCK
  8
LAYER_2
  2
AIGNBL0202003A
 70
64
 10
0
 20
0
 30
0
  3
AIGNBL0202003A
  0
POLYLINE
  8
LAYER_2
 40
0.2469
 41
0.2469
 66
1
 10
0
 20
0
 30
0
  0
VERTEX
  8
LAYER_2
 10
69.3212
 20
92.1205
  0
VERTEX
  8
LAYER_2
 10
74.8213
 20
92.1205
  0
SEQEND
  0
ENDBLK
  0
BLOCK
  8
LAYER_2
  2
AIGNBL0202003B
 70
64
 10
0
 20
0
 30
0
  3
AIGNBL0202003B
  0
POLYLINE
  8
LAYER_2
 40
0.2469
 41
0.2469
 66
1
 10
0
 20
0
 30
0
  0
VERTEX
  8
LAYER_2
 10
72.8214
 20
92.6142
  0
VERTEX
  8
LAYER_2
 10
72.8214
 20
92.1205
  0
SEQEND
  0
ENDBLK
  0
BLOCK
  8
LAYER_2
  2
AIGNBL0202003C
 70
64
 10
0
 20
0
 30
0
  3
AIGNBL0202003C
  0
POLYLINE
  8
LAYER_2
 40
0.2469
 41
0.2469
 66
1
 10
0
 20
0
 30
0
  0
VERTEX
  8
LAYER_2
 10
72.8214
 20
93.6205
  0
VERTEX
  8
LAYER_2
 10
72.8214
 20
92.6142
  0
SEQEND
  0
ENDBLK
  0
BLOCK
  8
LAYER_2
  2
AIGNBL0202003D
 70
64
 10
0
 20
0
 30
0
  3
AIGNBL0202003D
  0
POLYLINE
  8
LAYER_2
 40
0.2469
 41
0.2469
 66
1
 10
0
 20
0
 30
0
  0
VERTEX
  8
LAYER_2
 10
62.3213
 20
92.6142
  0
VERTEX
  8
LAYER_2
 10
62.3213
 20
92.1205
  0
SEQEND
  0
ENDBLK
  0
BLOCK
  8
LAYER_2
  2
AIGNBL0202003E
 70
64
 10
0
 20
0
 30
0
  3
AIGNBL0202003E
  0
POLYLINE
  8
LAYER_2
 40
0.2469
 41
0.2469
 66
1
 10
0
 20
0
 30
0
  0
VERTEX
  8
LAYER_2
 10
62.3213
 20
93.6205
  0
VERTEX
  8
LAYER_2
 10
62.9023
 20
93.6205
  0
SEQEND
  0
ENDBLK
  0
BLOCK
  8
LAYER_2
  2
AIGNBL0202003F
 70
64
 10
0
 20
0
 30
0
  3
AIGNBL0202003F
  0
POLYLINE
  8
LAYER_2
 40
0.2469
 41
0.2469
 66
1
 10
0
 20
0
 30
0
  0
VERTEX
  8
LAYER_2
 10
62.3213
 20
93.6205
  0
VERTEX
  8
LAYER_2
 10
62.3213
 20
92.6142
  0
SEQEND
  0
ENDBLK
  0
BLOCK
  8
LAYER_2
  2
AIGNBL02020040
 70
64
 10
0
 20
0
 30
0
  3
AIGNBL02020040
  0
POLYLINE
  8
LAYER_2
 40
0.2469
 41
0.2469
 66
1
 10
0
 20
0
 30
0
  0
VERTEX
  8
LAYER_2
 10
62.3213
 20
92.6142
  0
VERTEX
  8
LAYER_2
 10
62.9023
 20
93.6205
  0
SEQEND
  0
ENDBLK
  0
BLOCK
  8
LAYER_2
  2
AIGNBL02020041
 70
64
 10
0
 20
0
 30
0
  3
AIGNBL02020041
  0
POLYLINE
  8
LAYER_2
 40
0.2469
 41
0.2469
 66
1
 10
0
 20
0
 30
0
  0
VERTEX
  8
LAYER_2
 10
62.3213
 20
97.5393
  0
VERTEX
  8
LAYER_2
 10
62.3213
 20
93.6205
  0
SEQEND
  0
ENDBLK
  0
BLOCK
  8
LAYER_2
  2
AIGNBL02020042
 70
64
 10
0
 20
0
 30
0
  3
AIGNBL02020042
  0
POLYLINE
  8
LAYER_2
 40
0.2469
 41
0.2469
 66
1
 10
0
 20
0
 30
0
  0
VERTEX
  8
LAYER_2
 10
72.2402
 20
93.6205
  0
VERTEX
  8
LAYER_2
 10
72.8214
 20
93.6205
  0
SEQEND
  0
ENDBLK
  0
BLOCK
  8
LAYER_2
  2
AIGNBL02020043
 70
64
 10
0
 20
0
 30
0
  3
AIGNBL02020043
  0
POLYLINE
  8
LAYER_2
 40
0.2469
 41
0.2469
 66
1
 10
0
 20
0
 30
0
  0
VERTEX
  8
LAYER_2
 10
72.2402
 20
98.1205
  0
VERTEX
  8
LAYER_2
 10
72.8214
 20
97.5393
  0
SEQEND
  0
ENDBLK
  0
BLOCK
  8
LAYER_2
  2
AIGNBL02020044
 70
64
 10
0
 20
0
 30
0
  3
AIGNBL02020044
  0
POLYLINE
  8
LAYER_2
 40
0.2469
 41
0.2469
 66
1
 10
0
 20
0
 30
0
  0
VERTEX
  8
LAYER_2
 10
72.8214
 20
97.5393
  0
VERTEX
  8
LAYER_2
 10
72.8214
 20
93.6205
  0
SEQEND
  0
ENDBLK
  0
BLOCK
  8
LAYER_2
  2
AIGNBL02020045
 70
64
 10
0
 20
0
 30
0
  3
AIGNBL02020045
  0
POLYLINE
  8
LAYER_2
 40
0.2469
 41
0.2469
 66
1
 10
0
 20
0
 30
0
  0
VERTEX
  8
LAYER_2
 10
72.8214
 20
97.5393
  0
VERTEX
  8
LAYER_2
 10
72.2402
 20
97.5393
  0
SEQEND
  0
ENDBLK
  0
BLOCK
  8
LAYER_2
  2
AIGNBL02020046
 70
64
 10
0
 20
0
 30
0
  3
AIGNBL02020046
  0
POLYLINE
  8
LAYER_2
 40
0.2469
 41
0.2469
 66
1
 10
0
 20
0
 30
0
  0
VERTEX
  8
LAYER_2
 10
72.2402
 20
93.6205
  0
VERTEX
  8
LAYER_2
 10
72.8214
 20
92.6142
  0
SEQEND
  0
ENDBLK
  0
BLOCK
  8
LAYER_2
  2
AIGNBL02020047
 70
64
 10
0
 20
0
 30
0
  3
AIGNBL02020047
  0
POLYLINE
  8
LAYER_2
 40
0.2469
 41
0.2469
 66
1
 10
0
 20
0
 30
0
  0
VERTEX
  8
LAYER_2
 10
72.2402
 20
97.5393
  0
VERTEX
  8
LAYER_2
 10
72.2402
 20
93.6205
  0
SEQEND
  0
ENDBLK
  0
BLOCK
  8
LAYER_2
  2
AIGNBL02020048
 70
64
 10
0
 20
0
 30
0
  3
AIGNBL02020048
  0
POLYLINE
  8
LAYER_2
 40
0.2469
 41
0.2469
 66
1
 10
0
 20
0
 30
0
  0
VERTEX
  8
LAYER_2
 10
72.2402
 20
98.1205
  0
VERTEX
  8
LAYER_2
 10
72.2402
 20
97.5393
  0
SEQEND
  0
ENDBLK
  0
BLOCK
  8
LAYER_2
  2
AIGNBL02020049
 70
64
 10
0
 20
0
 30
0
  3
AIGNBL02020049
  0
POLYLINE
  8
LAYER_2
 40
0.2469
 41
0.2469
 66
1
 10
0
 20
0
 30
0
  0
VERTEX
  8
LAYER_2
 10
62.9023
 20
98.1205
  0
VERTEX
  8
LAYER_2
 10
62.3213
 20
97.5393
  0
SEQEND
  0
ENDBLK
  0
BLOCK
  8
LAYER_2
  2
AIGNBL0202004A
 70
64
 10
0
 20
0
 30
0
  3
AIGNBL0202004A
  0
POLYLINE
  8
LAYER_2
 40
0.2469
 41
0.2469
 66
1
 10
0
 20
0
 30
0
  0
VERTEX
  8
LAYER_2
 10
62.3213
 20
97.5393
  0
VERTEX
  8
LAYER_2
 10
62.9023
 20
97.5393
  0
SEQEND
  0
ENDBLK
  0
BLOCK
  8
LAYER_2
  2
AIGNBL0202004B
 70
64
 10
0
 20
0
 30
0
  3
AIGNBL0202004B
  0
POLYLINE
  8
LAYER_2
 40
0.2469
 41
0.2469
 66
1
 10
0
 20
0
 30
0
  0
VERTEX
  8
LAYER_2
 10
62.9023
 20
97.5393
  0
VERTEX
  8
LAYER_2
 10
62.9023
 20
98.1205
  0
SEQEND
  0
ENDBLK
  0
BLOCK
  8
LAYER_2
  2
AIGNBL0202004C
 70
64
 10
0
 20
0
 30
0
  3
AIGNBL0202004C
  0
POLYLINE
  8
LAYER_2
 40
0.2469
 41
0.2469
 66
1
 10
0
 20
0
 30
0
  0
VERTEX
  8
LAYER_2
 10
62.9023
 20
97.5393
  0
VERTEX
  8
LAYER_2
 10
62.9023
 20
98.1205
  0
SEQEND
  0
ENDBLK
  0
BLOCK
  8
LAYER_2
  2
AIGNBL0202004D
 70
64
 10
0
 20
0
 30
0
  3
AIGNBL0202004D
  0
POLYLINE
  8
LAYER_2
 40
0.2469
 41
0.2469
 66
1
 10
0
 20
0
 30
0
  0
VERTEX
  8
LAYER_2
 10
62.9023
 20
93.6205
  0
VERTEX
  8
LAYER_2
 10
62.9023
 20
97.5393
  0
SEQEND
  0
ENDBLK
  0
BLOCK
  8
LAYER_2
  2
AIGNBL0202004E
 70
64
 10
0
 20
0
 30
0
  3
AIGNBL0202004E
  0
POLYLINE
  8
LAYER_2
 40
0.2469
 41
0.2469
 66
1
 10
0
 20
0
 30
0
  0
VERTEX
  8
LAYER_2
 10
62.9023
 20
98.1205
  0
VERTEX
  8
LAYER_2
 10
72.2402
 20
98.1205
  0
SEQEND
  0
ENDBLK
  0
BLOCK
  8
LAYER_2
  2
AIGNBL0202004F
 70
64
 10
0
 20
0
 30
0
  3
AIGNBL0202004F
  0
POLYLINE
  8
LAYER_2
 40
0.2469
 41
0.2469
 66
1
 10
0
 20
0
 30
0
  0
VERTEX
  8
LAYER_2
 10
62.9023
 20
93.6205
  0
VERTEX
  8
LAYER_2
 10
65.8213
 20
93.6205
  0
SEQEND
  0
ENDBLK
  0
BLOCK
  8
LAYER_2
  2
AIGNBL02020050
 70
64
 10
0
 20
0
 30
0
  3
AIGNBL02020050
  0
POLYLINE
  8
LAYER_2
 40
0.2469
 41
0.2469
 66
1
 10
0
 20
0
 30
0
  0
VERTEX
  8
LAYER_2
 10
72.2402
 20
97.5393
  0
VERTEX
  8
LAYER_2
 10
62.9023
 20
97.5393
  0
SEQEND
  0
ENDBLK
  0
BLOCK
  8
LAYER_2
  2
AIGNBL02020051
 70
64
 10
0
 20
0
 30
0
  3
AIGNBL02020051
  0
POLYLINE
  8
LAYER_2
 40
0.2469
 41
0.2469
 66
1
 10
0
 20
0
 30
0
  0
VERTEX
  8
LAYER_2
 10
74.8213
 20
92.1205
  0
VERTEX
  8
LAYER_2
 10
74.8213
 20
80.6204
  0
SEQEND
  0
ENDBLK
  0
BLOCK
  8
LAYER_2
  2
AIGNBL02020052
 70
64
 10
0
 20
0
 30
0
  3
AIGNBL02020052
  0
POLYLINE
  8
LAYER_2
 40
0.2469
 41
0.2469
 66
1
 10
0
 20
0
 30
0
  0
VERTEX
  8
LAYER_2
 10
60.3212
 20
92.1205
  0
VERTEX
  8
LAYER_2
 10
65.8213
 20
92.1205
  0
SEQEND
  0
ENDBLK
  0
BLOCK
  8
LAYER_2
  2
AIGNBL02020053
 70
64
 10
0
 20
0
 30
0
  3
AIGNBL02020053
  0
POLYLINE
  8
LAYER_2
 40
0.2469
 41
0.2469
 66
1
 10
0
 20
0
 30
0
  0
VERTEX
  8
LAYER_2
 10
60.3212
 20
80.6204
  0
VERTEX
  8
LAYER_2
 10
60.3212
 20
92.1205
  0
SEQEND
  0
ENDBLK
  0
BLOCK
  8
LAYER_2
  2
AIGNBL02020054
 70
64
 10
0
 20
0
 30
0
  3
AIGNBL02020054
  0
POLYLINE
  8
LAYER_2
  6
AIGENLINE001
 40
0.2469
 41
0.2469
 62
120
 66
1
 10
0
 20
0
 30
0
 70
128
  0
VERTEX
  8
LAYER_2
 10
67.5714
 20
71.8705
  0
VERTEX
  8
LAYER_2
 10
67.5714
 20
99.6204
  0
SEQEND
  0
ENDBLK
  0
BLOCK
  8
LAYER_2
  2
AIGNBL02020055
 70
64
 10
0
 20
0
 30
0
  3
AIGNBL02020055
  0
POLYLINE
  8
LAYER_2
 40
0.2469
 41
0.2469
 66
1
 10
0
 20
0
 30
0
  0
VERTEX
  8
LAYER_2
 10
125.6285
 20
92.6142
  0
VERTEX
  8
LAYER_2
 10
125.6285
 20
92.1205
  0
SEQEND
  0
ENDBLK
  0
BLOCK
  8
LAYER_2
  2
AIGNBL02020056
 70
64
 10
0
 20
0
 30
0
  3
AIGNBL02020056
  0
POLYLINE
  8
LAYER_2
 40
0.2469
 41
0.2469
 66
1
 10
0
 20
0
 30
0
  0
VERTEX
  8
LAYER_2
 10
125.6285
 20
93.6205
  0
VERTEX
  8
LAYER_2
 10
125.6285
 20
92.6142
  0
SEQEND
  0
ENDBLK
  0
BLOCK
  8
LAYER_2
  2
AIGNBL02020057
 70
64
 10
0
 20
0
 30
0
  3
AIGNBL02020057
  0
POLYLINE
  8
LAYER_2
 40
0.2469
 41
0.2469
 66
1
 10
0
 20
0
 30
0
  0
VERTEX
  8
LAYER_2
 10
115.1285
 20
92.6142
  0
VERTEX
  8
LAYER_2
 10
115.1285
 20
92.1205
  0
SEQEND
  0
ENDBLK
  0
BLOCK
  8
LAYER_2
  2
AIGNBL02020058
 70
64
 10
0
 20
0
 30
0
  3
AIGNBL02020058
  0
POLYLINE
  8
LAYER_2
 40
0.2469
 41
0.2469
 66
1
 10
0
 20
0
 30
0
  0
VERTEX
  8
LAYER_2
 10
115.1285
 20
93.6205
  0
VERTEX
  8
LAYER_2
 10
115.7094
 20
93.6205
  0
SEQEND
  0
ENDBLK
  0
BLOCK
  8
LAYER_2
  2
AIGNBL02020059
 70
64
 10
0
 20
0
 30
0
  3
AIGNBL02020059
  0
POLYLINE
  8
LAYER_2
 40
0.2469
 41
0.2469
 66
1
 10
0
 20
0
 30
0
  0
VERTEX
  8
LAYER_2
 10
115.1285
 20
93.6205
  0
VERTEX
  8
LAYER_2
 10
115.1285
 20
92.6142
  0
SEQEND
  0
ENDBLK
  0
BLOCK
  8
LAYER_2
  2
AIGNBL0202005A
 70
64
 10
0
 20
0
 30
0
  3
AIGNBL0202005A
  0
POLYLINE
  8
LAYER_2
 40
0.2469
 41
0.2469
 66
1
 10
0
 20
0
 30
0
  0
VERTEX
  8
LAYER_2
 10
115.1285
 20
92.6142
  0
VERTEX
  8
LAYER_2
 10
115.7094
 20
93.6205
  0
SEQEND
  0
ENDBLK
  0
BLOCK
  8
LAYER_2
  2
AIGNBL0202005B
 70
64
 10
0
 20
0
 30
0
  3
AIGNBL0202005B
  0
POLYLINE
  8
LAYER_2
 40
0.2469
 41
0.2469
 66
1
 10
0
 20
0
 30
0
  0
VERTEX
  8
LAYER_2
 10
115.1285
 20
97.5393
  0
VERTEX
  8
LAYER_2
 10
115.1285
 20
93.6205
  0
SEQEND
  0
ENDBLK
  0
BLOCK
  8
LAYER_2
  2
AIGNBL0202005C
 70
64
 10
0
 20
0
 30
0
  3
AIGNBL0202005C
  0
POLYLINE
  8
LAYER_2
 40
0.2469
 41
0.2469
 66
1
 10
0
 20
0
 30
0
  0
VERTEX
  8
LAYER_2
 10
110.6286
 20
73.3705
  0
VERTEX
  8
LAYER_2
 10
137.8734
 20
73.3705
  0
SEQEND
  0
ENDBLK
  0
BLOCK
  8
LAYER_2
  2
AIGNBL0202005D
 70
64
 10
0
 20
0
 30
0
  3
AIGNBL0202005D
  0
POLYLINE
  8
LAYER_2
 40
0.2469
 41
0.2469
 66
1
 10
0
 20
0
 30
0
  0
VERTEX
  8
LAYER_2
 10
138.3785
 20
74.2453
  0
VERTEX
  8
LAYER_2
 10
138.3785
 20
86.9952
  0
SEQEND
  0
ENDBLK
  0
BLOCK
  8
LAYER_2
  2
AIGNBL0202005E
 70
64
 10
0
 20
0
 30
0
  3
AIGNBL0202005E
  0
POLYLINE
  8
LAYER_2
 40
0.2469
 41
0.2469
 66
1
 10
0
 20
0
 30
0
  0
VERTEX
  8
LAYER_2
 10
110.6286
 20
74.1205
  0
VERTEX
  8
LAYER_2
 10
110.3784
 20
74.1205
  0
SEQEND
  0
ENDBLK
  0
BLOCK
  8
LAYER_2
  2
AIGNBL0202005F
 70
64
 10
0
 20
0
 30
0
  3
AIGNBL0202005F
  0
POLYLINE
  8
LAYER_2
 40
0.2469
 41
0.2469
 66
1
 10
0
 20
0
 30
0
  0
VERTEX
  8
LAYER_2
 10
125.0473
 20
93.6205
  0
VERTEX
  8
LAYER_2
 10
125.6285
 20
93.6205
  0
SEQEND
  0
ENDBLK
  0
BLOCK
  8
LAYER_2
  2
AIGNBL02020060
 70
64
 10
0
 20
0
 30
0
  3
AIGNBL02020060
  0
POLYLINE
  8
LAYER_2
 40
0.2469
 41
0.2469
 66
1
 10
0
 20
0
 30
0
  0
VERTEX
  8
LAYER_2
 10
125.0473
 20
98.1205
  0
VERTEX
  8
LAYER_2
 10
125.6285
 20
97.5393
  0
SEQEND
  0
ENDBLK
  0
BLOCK
  8
LAYER_2
  2
AIGNBL02020061
 70
64
 10
0
 20
0
 30
0
  3
AIGNBL02020061
  0
POLYLINE
  8
LAYER_2
 40
0.2469
 41
0.2469
 66
1
 10
0
 20
0
 30
0
  0
VERTEX
  8
LAYER_2
 10
125.6285
 20
97.5393
  0
VERTEX
  8
LAYER_2
 10
125.6285
 20
93.6205
  0
SEQEND
  0
ENDBLK
  0
BLOCK
  8
LAYER_2
  2
AIGNBL02020062
 70
64
 10
0
 20
0
 30
0
  3
AIGNBL02020062
  0
POLYLINE
  8
LAYER_2
 40
0.2469
 41
0.2469
 66
1
 10
0
 20
0
 30
0
  0
VERTEX
  8
LAYER_2
 10
125.0473
 20
93.6205
  0
VERTEX
  8
LAYER_2
 10
125.6285
 20
92.6142
  0
SEQEND
  0
ENDBLK
  0
BLOCK
  8
LAYER_2
  2
AIGNBL02020063
 70
64
 10
0
 20
0
 30
0
  3
AIGNBL02020063
  0
POLYLINE
  8
LAYER_2
 40
0.2469
 41
0.2469
 66
1
 10
0
 20
0
 30
0
  0
VERTEX
  8
LAYER_2
 10
125.0473
 20
98.1205
  0
VERTEX
  8
LAYER_2
 10
125.0473
 20
93.6205
  0
SEQEND
  0
ENDBLK
  0
BLOCK
  8
LAYER_2
  2
AIGNBL02020064
 70
64
 10
0
 20
0
 30
0
  3
AIGNBL02020064
  0
POLYLINE
  8
LAYER_2
 40
0.2469
 41
0.2469
 66
1
 10
0
 20
0
 30
0
  0
VERTEX
  8
LAYER_2
 10
115.7094
 20
98.1205
  0
VERTEX
  8
LAYER_2
 10
115.1285
 20
97.5393
  0
SEQEND
  0
ENDBLK
  0
BLOCK
  8
LAYER_2
  2
AIGNBL02020065
 70
64
 10
0
 20
0
 30
0
  3
AIGNBL02020065
  0
POLYLINE
  8
LAYER_2
 40
0.2469
 41
0.2469
 66
1
 10
0
 20
0
 30
0
  0
VERTEX
  8
LAYER_2
 10
115.7094
 20
97.5393
  0
VERTEX
  8
LAYER_2
 10
115.7094
 20
98.1205
  0
SEQEND
  0
ENDBLK
  0
BLOCK
  8
LAYER_2
  2
AIGNBL02020066
 70
64
 10
0
 20
0
 30
0
  3
AIGNBL02020066
  0
POLYLINE
  8
LAYER_2
 40
0.2469
 41
0.2469
 66
1
 10
0
 20
0
 30
0
  0
VERTEX
  8
LAYER_2
 10
115.7094
 20
97.5393
  0
VERTEX
  8
LAYER_2
 10
115.7094
 20
98.1205
  0
SEQEND
  0
ENDBLK
  0
BLOCK
  8
LAYER_2
  2
AIGNBL02020067
 70
64
 10
0
 20
0
 30
0
  3
AIGNBL02020067
  0
POLYLINE
  8
LAYER_2
 40
0.2469
 41
0.2469
 66
1
 10
0
 20
0
 30
0
  0
VERTEX
  8
LAYER_2
 10
115.7094
 20
93.6205
  0
VERTEX
  8
LAYER_2
 10
115.7094
 20
97.5393
  0
SEQEND
  0
ENDBLK
  0
BLOCK
  8
LAYER_2
  2
AIGNBL02020068
 70
64
 10
0
 20
0
 30
0
  3
AIGNBL02020068
  0
POLYLINE
  8
LAYER_2
 40
0.2469
 41
0.2469
 66
1
 10
0
 20
0
 30
0
  0
VERTEX
  8
LAYER_2
 10
115.7094
 20
98.1205
  0
VERTEX
  8
LAYER_2
 10
125.0473
 20
98.1205
  0
SEQEND
  0
ENDBLK
  0
BLOCK
  8
LAYER_2
  2
AIGNBL02020069
 70
64
 10
0
 20
0
 30
0
  3
AIGNBL02020069
  0
POLYLINE
  8
LAYER_2
 40
0.2469
 41
0.2469
 66
1
 10
0
 20
0
 30
0
  0
VERTEX
  8
LAYER_2
 10
113.1283
 20
88.8704
  0
VERTEX
  8
LAYER_2
 10
113.1283
 20
92.1205
  0
SEQEND
  0
ENDBLK
  0
BLOCK
  8
LAYER_2
  2
AIGNBL0202006A
 70
64
 10
0
 20
0
 30
0
  3
AIGNBL0202006A
  0
POLYLINE
  8
LAYER_2
 40
0.2469
 41
0.2469
 66
1
 10
0
 20
0
 30
0
  0
VERTEX
  8
LAYER_2
 10
110.6286
 20
87.8703
  0
VERTEX
  8
LAYER_2
 10
112.1286
 20
87.8703
  0
SEQEND
  0
ENDBLK
  0
BLOCK
  8
LAYER_2
  2
AIGNBL0202006B
 70
64
 10
0
 20
0
 30
0
  3
AIGNBL0202006B
  0
POLYLINE
  8
LAYER_2
 40
0.2469
 41
0.2469
 66
1
 10
0
 20
0
 30
0
  0
VERTEX
  8
LAYER_2
 10
110.6286
 20
80.6204
  0
VERTEX
  8
LAYER_2
 10
110.6286
 20
87.8703
  0
SEQEND
  0
ENDBLK
  0
BLOCK
  8
LAYER_2
  2
AIGNBL0202006C
 70
64
 10
0
 20
0
 30
0
  3
AIGNBL0202006C
  0
POLYLINE
  8
LAYER_2
 40
0.2469
 41
0.2469
 66
1
 10
0
 20
0
 30
0
  0
VERTEX
  8
LAYER_2
 10
110.6286
 20
73.3705
  0
VERTEX
  8
LAYER_2
 10
110.6286
 20
80.6204
  0
SEQEND
  0
ENDBLK
  0
BLOCK
  8
LAYER_2
  2
AIGNBL0202006D
 70
64
 10
0
 20
0
 30
0
  3
AIGNBL0202006D
  0
POLYLINE
  8
LAYER_2
 40
0.2469
 41
0.2469
 66
1
 10
0
 20
0
 30
0
  0
VERTEX
  8
LAYER_2
 10
137.8734
 20
73.3705
  0
VERTEX
  8
LAYER_2
 10
138.3785
 20
74.2453
  0
SEQEND
  0
ENDBLK
  0
BLOCK
  8
LAYER_2
  2
AIGNBL0202006E
 70
64
 10
0
 20
0
 30
0
  3
AIGNBL0202006E
  0
POLYLINE
  8
LAYER_2
 40
0.2469
 41
0.2469
 66
1
 10
0
 20
0
 30
0
  0
VERTEX
  8
LAYER_2
 10
137.8734
 20
87.8703
  0
VERTEX
  8
LAYER_2
 10
138.3785
 20
86.9952
  0
SEQEND
  0
ENDBLK
  0
BLOCK
  8
LAYER_2
  2
AIGNBL0202006F
 70
64
 10
0
 20
0
 30
0
  3
AIGNBL0202006F
  0
POLYLINE
  8
LAYER_2
 40
0.2469
 41
0.2469
 66
1
 10
0
 20
0
 30
0
  0
VERTEX
  8
LAYER_2
 10
128.6285
 20
87.8703
  0
VERTEX
  8
LAYER_2
 10
137.8734
 20
87.8703
  0
SEQEND
  0
ENDBLK
  0
BLOCK
  8
LAYER_2
  2
AIGNBL02020070
 70
64
 10
0
 20
0
 30
0
  3
AIGNBL02020070
  0
POLYLINE
  8
LAYER_2
 40
0.2469
 41
0.2469
 66
1
 10
0
 20
0
 30
0
  0
VERTEX
  8
LAYER_2
 10
127.6284
 20
92.1205
  0
VERTEX
  8
LAYER_2
 10
127.6284
 20
88.8704
  0
SEQEND
  0
ENDBLK
  0
BLOCK
  8
LAYER_2
  2
AIGNBL02020071
 70
64
 10
0
 20
0
 30
0
  3
AIGNBL02020071
  0
POLYLINE
  8
LAYER_2
 40
0.2469
 41
0.2469
 66
1
 10
0
 20
0
 30
0
  0
VERTEX
  8
LAYER_2
 10
113.1283
 20
92.1205
  0
VERTEX
  8
LAYER_2
 10
127.6284
 20
92.1205
  0
SEQEND
  0
ENDBLK
  0
BLOCK
  8
LAYER_2
  2
AIGNBL02020072
 70
64
 10
0
 20
0
 30
0
  3
AIGNBL02020072
  0
POLYLINE
  8
LAYER_2
 40
0.2469
 41
0.2469
 66
1
 10
0
 20
0
 30
0
  0
VERTEX
  8
LAYER_2
 10
70.7337
 20
156.2454
  0
VERTEX
  8
LAYER_2
 10
64.409
 20
156.2454
  0
SEQEND
  0
ENDBLK
  0
BLOCK
  8
LAYER_2
  2
AIGNBL02020073
 70
64
 10
0
 20
0
 30
0
  3
AIGNBL02020073
  0
POLYLINE
  8
LAYER_2
 40
0.2469
 41
0.2469
 66
1
 10
0
 20
0
 30
0
  0
VERTEX
  8
LAYER_2
 10
61.0712
 20
147.2454
  0
VERTEX
  8
LAYER_2
 10
60.3212
 20
147.2454
  0
SEQEND
  0
ENDBLK
  0
BLOCK
  8
LAYER_2
  2
AIGNBL02020074
 70
64
 10
0
 20
0
 30
0
  3
AIGNBL02020074
  0
POLYLINE
  8
LAYER_2
 40
0.2469
 41
0.2469
 66
1
 10
0
 20
0
 30
0
  0
VERTEX
  8
LAYER_2
 10
74.0713
 20
147.2454
  0
VERTEX
  8
LAYER_2
 10
61.0712
 20
147.2454
  0
SEQEND
  0
ENDBLK
  0
BLOCK
  8
LAYER_2
  2
AIGNBL02020075
 70
64
 10
0
 20
0
 30
0
  3
AIGNBL02020075
  0
POLYLINE
  8
LAYER_2
 40
0.2469
 41
0.2469
 66
1
 10
0
 20
0
 30
0
  0
VERTEX
  8
LAYER_2
 10
74.0713
 20
147.2454
  0
VERTEX
  8
LAYER_2
 10
74.0713
 20
146.9953
  0
SEQEND
  0
ENDBLK
  0
BLOCK
  8
LAYER_2
  2
AIGNBL02020076
 70
64
 10
0
 20
0
 30
0
  3
AIGNBL02020076
  0
POLYLINE
  8
LAYER_2
 40
0.2469
 41
0.2469
 66
1
 10
0
 20
0
 30
0
  0
VERTEX
  8
LAYER_2
 10
74.8213
 20
147.2454
  0
VERTEX
  8
LAYER_2
 10
74.0713
 20
147.2454
  0
SEQEND
  0
ENDBLK
  0
BLOCK
  8
LAYER_2
  2
AIGNBL02020077
 70
64
 10
0
 20
0
 30
0
  3
AIGNBL02020077
  0
POLYLINE
  8
LAYER_2
 40
0.2469
 41
0.2469
 66
1
 10
0
 20
0
 30
0
  0
VERTEX
  8
LAYER_2
 10
73.9462
 20
174.9953
  0
VERTEX
  8
LAYER_2
 10
74.0713
 20
174.9232
  0
SEQEND
  0
ENDBLK
  0
BLOCK
  8
LAYER_2
  2
AIGNBL02020078
 70
64
 10
0
 20
0
 30
0
  3
AIGNBL02020078
  0
POLYLINE
  8
LAYER_2
 40
0.2469
 41
0.2469
 66
1
 10
0
 20
0
 30
0
  0
VERTEX
  8
LAYER_2
 10
61.1963
 20
174.9953
  0
VERTEX
  8
LAYER_2
 10
73.9462
 20
174.9953
  0
SEQEND
  0
ENDBLK
  0
BLOCK
  8
LAYER_2
  2
AIGNBL02020079
 70
64
 10
0
 20
0
 30
0
  3
AIGNBL02020079
  0
POLYLINE
  8
LAYER_2
 40
0.2469
 41
0.2469
 66
1
 10
0
 20
0
 30
0
  0
VERTEX
  8
LAYER_2
 10
74.0713
 20
174.9232
  0
VERTEX
  8
LAYER_2
 10
74.0713
 20
174.4903
  0
SEQEND
  0
ENDBLK
  0
BLOCK
  8
LAYER_2
  2
AIGNBL0202007A
 70
64
 10
0
 20
0
 30
0
  3
AIGNBL0202007A
  0
POLYLINE
  8
LAYER_2
 40
0.2469
 41
0.2469
 66
1
 10
0
 20
0
 30
0
  0
VERTEX
  8
LAYER_2
 10
61.0712
 20
174.4903
  0
VERTEX
  8
LAYER_2
 10
61.0712
 20
174.9232
  0
SEQEND
  0
ENDBLK
  0
BLOCK
  8
LAYER_2
  2
AIGNBL0202007B
 70
64
 10
0
 20
0
 30
0
  3
AIGNBL0202007B
  0
POLYLINE
  8
LAYER_2
 40
0.2469
 41
0.2469
 66
1
 10
0
 20
0
 30
0
  0
VERTEX
  8
LAYER_2
 10
61.0712
 20
174.4903
  0
VERTEX
  8
LAYER_2
 10
61.5403
 20
174.4903
  0
SEQEND
  0
ENDBLK
  0
BLOCK
  8
LAYER_2
  2
AIGNBL0202007C
 70
64
 10
0
 20
0
 30
0
  3
AIGNBL0202007C
  0
POLYLINE
  8
LAYER_2
 40
0.2469
 41
0.2469
 66
1
 10
0
 20
0
 30
0
  0
VERTEX
  8
LAYER_2
 10
74.0713
 20
174.4903
  0
VERTEX
  8
LAYER_2
 10
73.6024
 20
174.4903
  0
SEQEND
  0
ENDBLK
  0
BLOCK
  8
LAYER_2
  2
AIGNBL0202007D
 70
64
 10
0
 20
0
 30
0
  3
AIGNBL0202007D
  0
POLYLINE
  8
LAYER_2
 40
0.2469
 41
0.2469
 66
1
 10
0
 20
0
 30
0
  0
VERTEX
  8
LAYER_2
 10
68.0403
 20
174.4903
  0
VERTEX
  8
LAYER_2
 10
67.1024
 20
174.4903
  0
SEQEND
  0
ENDBLK
  0
BLOCK
  8
LAYER_2
  2
AIGNBL0202007E
 70
64
 10
0
 20
0
 30
0
  3
AIGNBL0202007E
  0
POLYLINE
  8
LAYER_2
 40
0.2469
 41
0.2469
 66
1
 10
0
 20
0
 30
0
  0
VERTEX
  8
LAYER_2
 10
74.8213
 20
168.6963
  0
VERTEX
  8
LAYER_2
 10
74.2053
 20
169.7633
  0
SEQEND
  0
ENDBLK
  0
BLOCK
  8
LAYER_2
  2
AIGNBL0202007F
 70
64
 10
0
 20
0
 30
0
  3
AIGNBL0202007F
  0
POLYLINE
  8
LAYER_2
 40
0.2469
 41
0.2469
 66
1
 10
0
 20
0
 30
0
  0
VERTEX
  8
LAYER_2
 10
60.3212
 20
168.6963
  0
VERTEX
  8
LAYER_2
 10
60.9374
 20
169.7633
  0
SEQEND
  0
ENDBLK
  0
BLOCK
  8
LAYER_2
  2
AIGNBL02020080
 70
64
 10
0
 20
0
 30
0
  3
AIGNBL02020080
  0
POLYLINE
  8
LAYER_2
 40
0.2469
 41
0.2469
 66
1
 10
0
 20
0
 30
0
  0
VERTEX
  8
LAYER_2
 10
60.3212
 20
147.2454
  0
VERTEX
  8
LAYER_2
 10
60.3212
 20
168.6963
  0
SEQEND
  0
ENDBLK
  0
BLOCK
  8
LAYER_2
  2
AIGNBL02020081
 70
64
 10
0
 20
0
 30
0
  3
AIGNBL02020081
  0
POLYLINE
  8
LAYER_2
 40
0.2469
 41
0.2469
 66
1
 10
0
 20
0
 30
0
  0
VERTEX
  8
LAYER_2
 10
74.0713
 20
170.2633
  0
VERTEX
  8
LAYER_2
 10
74.0713
 20
174.4903
  0
SEQEND
  0
ENDBLK
  0
BLOCK
  8
LAYER_2
  2
AIGNBL02020082
 70
64
 10
0
 20
0
 30
0
  3
AIGNBL02020082
  0
POLYLINE
  8
LAYER_2
 40
0.2469
 41
0.2469
 66
1
 10
0
 20
0
 30
0
  0
VERTEX
  8
LAYER_2
 10
73.6024
 20
174.4903
  0
VERTEX
  8
LAYER_2
 10
73.6024
 20
169.9955
  0
SEQEND
  0
ENDBLK
  0
BLOCK
  8
LAYER_2
  2
AIGNBL02020083
 70
64
 10
0
 20
0
 30
0
  3
AIGNBL02020083
  0
POLYLINE
  8
LAYER_2
 40
0.2469
 41
0.2469
 66
1
 10
0
 20
0
 30
0
  0
VERTEX
  8
LAYER_2
 10
68.0403
 20
169.9955
  0
VERTEX
  8
LAYER_2
 10
68.0403
 20
174.4903
  0
SEQEND
  0
ENDBLK
  0
BLOCK
  8
LAYER_2
  2
AIGNBL02020084
 70
64
 10
0
 20
0
 30
0
  3
AIGNBL02020084
  0
POLYLINE
  8
LAYER_2
 40
0.2469
 41
0.2469
 66
1
 10
0
 20
0
 30
0
  0
VERTEX
  8
LAYER_2
 10
67.1024
 20
174.4903
  0
VERTEX
  8
LAYER_2
 10
67.1024
 20
169.9955
  0
SEQEND
  0
ENDBLK
  0
BLOCK
  8
LAYER_2
  2
AIGNBL02020085
 70
64
 10
0
 20
0
 30
0
  3
AIGNBL02020085
  0
POLYLINE
  8
LAYER_2
 40
0.2469
 41
0.2469
 66
1
 10
0
 20
0
 30
0
  0
VERTEX
  8
LAYER_2
 10
61.5403
 20
169.9955
  0
VERTEX
  8
LAYER_2
 10
61.5403
 20
174.4903
  0
SEQEND
  0
ENDBLK
  0
BLOCK
  8
LAYER_2
  2
AIGNBL02020086
 70
64
 10
0
 20
0
 30
0
  3
AIGNBL02020086
  0
POLYLINE
  8
LAYER_2
 40
0.2469
 41
0.2469
 66
1
 10
0
 20
0
 30
0
  0
VERTEX
  8
LAYER_2
 10
61.0712
 20
174.4903
  0
VERTEX
  8
LAYER_2
 10
61.0712
 20
170.2633
  0
SEQEND
  0
ENDBLK
  0
BLOCK
  8
LAYER_2
  2
AIGNBL02020087
 70
64
 10
0
 20
0
 30
0
  3
AIGNBL02020087
  0
POLYLINE
  8
LAYER_2
 40
0.2469
 41
0.2469
 66
1
 10
0
 20
0
 30
0
  0
VERTEX
  8
LAYER_2
 10
74.8213
 20
147.2454
  0
VERTEX
  8
LAYER_2
 10
74.8213
 20
168.6963
  0
SEQEND
  0
ENDBLK
  0
BLOCK
  8
LAYER_2
  2
AIGNBL02020088
 70
64
 10
0
 20
0
 30
0
  3
AIGNBL02020088
  0
POLYLINE
  8
LAYER_2
 40
0.2469
 41
0.2469
 66
1
 10
0
 20
0
 30
0
  0
VERTEX
  8
LAYER_2
 10
61.0712
 20
174.9232
  0
VERTEX
  8
LAYER_2
 10
61.1963
 20
174.9953
  0
SEQEND
  0
ENDBLK
  0
BLOCK
  8
LAYER_2
  2
AIGNBL02020089
 70
64
 10
0
 20
0
 30
0
  3
AIGNBL02020089
  0
POLYLINE
  8
LAYER_2
  6
AIGENLINE001
 40
0.2469
 41
0.2469
 62
120
 66
1
 10
0
 20
0
 30
0
 70
128
  0
VERTEX
  8
LAYER_2
 10
67.5714
 20
176.4953
  0
VERTEX
  8
LAYER_2
 10
67.5714
 20
145.8454
  0
SEQEND
  0
ENDBLK
  0
BLOCK
  8
LAYER_2
  2
AIGNBL0202008A
 70
64
 10
0
 20
0
 30
0
  3
AIGNBL0202008A
  0
POLYLINE
  8
LAYER_2
  6
AIGENLINE001
 40
0.2469
 41
0.2469
 62
120
 66
1
 10
0
 20
0
 30
0
 70
128
  0
VERTEX
  8
LAYER_2
 10
76.3213
 20
156.9954
  0
VERTEX
  8
LAYER_2
 10
58.8212
 20
156.9954
  0
SEQEND
  0
ENDBLK
  0
BLOCK
  8
LAYER_2
  2
AIGNBL0202008B
 70
64
 10
0
 20
0
 30
0
  3
AIGNBL0202008B
  0
POLYLINE
  8
LAYER_2
 40
0.2469
 41
0.2469
 66
1
 10
0
 20
0
 30
0
  0
VERTEX
  8
LAYER_2
 10
73.1023
 20
169.9955
  0
VERTEX
  8
LAYER_2
 10
68.5402
 20
169.9955
  0
SEQEND
  0
ENDBLK
  0
BLOCK
  8
LAYER_2
  2
AIGNBL0202008C
 70
64
 10
0
 20
0
 30
0
  3
AIGNBL0202008C
  0
POLYLINE
  8
LAYER_2
 40
0.2469
 41
0.2469
 66
1
 10
0
 20
0
 30
0
  0
VERTEX
  8
LAYER_2
 10
62.0403
 20
169.9955
  0
VERTEX
  8
LAYER_2
 10
66.6023
 20
169.9955
  0
SEQEND
  0
ENDBLK
  0
BLOCK
  8
LAYER_2
  2
AIGNBL0202008D
 70
64
 10
0
 20
0
 30
0
  3
AIGNBL0202008D
  0
POLYLINE
  8
LAYER_2
  6
AIGENLINE001
 40
0.2469
 41
0.2469
 62
160
 66
1
 10
0
 20
0
 30
0
 70
128
  0
VERTEX
  8
LAYER_2
 10
61.0712
 20
169.9955
  0
VERTEX
  8
LAYER_2
 10
61.0712
 20
170.2633
  0
SEQEND
  0
ENDBLK
  0
BLOCK
  8
LAYER_2
  2
AIGNBL0202008E
 70
64
 10
0
 20
0
 30
0
  3
AIGNBL0202008E
  0
POLYLINE
  8
LAYER_2
  6
AIGENLINE001
 40
0.2469
 41
0.2469
 62
160
 66
1
 10
0
 20
0
 30
0
 70
128
  0
VERTEX
  8
LAYER_2
 10
61.0712
 20
169.9955
  0
VERTEX
  8
LAYER_2
 10
60.9374
 20
169.7633
  0
SEQEND
  0
ENDBLK
  0
BLOCK
  8
LAYER_2
  2
AIGNBL0202008F
 70
64
 10
0
 20
0
 30
0
  3
AIGNBL0202008F
  0
POLYLINE
  8
LAYER_2
  6
AIGENLINE001
 40
0.2469
 41
0.2469
 62
160
 66
1
 10
0
 20
0
 30
0
 70
128
  0
VERTEX
  8
LAYER_2
 10
74.2053
 20
169.7633
  0
VERTEX
  8
LAYER_2
 10
74.0713
 20
169.9955
  0
SEQEND
  0
ENDBLK
  0
BLOCK
  8
LAYER_2
  2
AIGNBL02020090
 70
64
 10
0
 20
0
 30
0
  3
AIGNBL02020090
  0
POLYLINE
  8
LAYER_2
  6
AIGENLINE001
 40
0.2469
 41
0.2469
 62
160
 66
1
 10
0
 20
0
 30
0
 70
128
  0
VERTEX
  8
LAYER_2
 10
74.0713
 20
170.2633
  0
VERTEX
  8
LAYER_2
 10
74.0713
 20
169.9955
  0
SEQEND
  0
ENDBLK
  0
BLOCK
  8
LAYER_2
  2
AIGNBL02020091
 70
64
 10
0
 20
0
 30
0
  3
AIGNBL02020091
  0
POLYLINE
  8
LAYER_2
 40
0.2469
 41
0.2469
 66
1
 10
0
 20
0
 30
0
  0
VERTEX
  8
LAYER_2
 10
61.0712
 20
146.9953
  0
VERTEX
  8
LAYER_2
 10
61.0712
 20
147.2454
  0
SEQEND
  0
ENDBLK
  0
BLOCK
  8
LAYER_2
  2
AIGNBL02020092
 70
64
 10
0
 20
0
 30
0
  3
AIGNBL02020092
  0
POLYLINE
  8
LAYER_2
 40
0.2469
 41
0.2469
 66
1
 10
0
 20
0
 30
0
  0
VERTEX
  8
LAYER_2
 10
133.3786
 20
83.8305
  0
VERTEX
  8
LAYER_2
 10
137.8734
 20
83.8305
  0
SEQEND
  0
ENDBLK
  0
BLOCK
  8
LAYER_2
  2
AIGNBL02020093
 70
64
 10
0
 20
0
 30
0
  3
AIGNBL02020093
  0
POLYLINE
  8
LAYER_2
 40
0.2469
 41
0.2469
 66
1
 10
0
 20
0
 30
0
  0
VERTEX
  8
LAYER_2
 10
137.8734
 20
84.6453
  0
VERTEX
  8
LAYER_2
 10
133.3786
 20
84.6453
  0
SEQEND
  0
ENDBLK
  0
BLOCK
  8
LAYER_2
  2
AIGNBL02020094
 70
64
 10
0
 20
0
 30
0
  3
AIGNBL02020094
  0
POLYLINE
  8
LAYER_2
 40
0.2469
 41
0.2469
 66
1
 10
0
 20
0
 30
0
  0
VERTEX
  8
LAYER_2
 10
133.3786
 20
76.5955
  0
VERTEX
  8
LAYER_2
 10
137.8734
 20
76.5955
  0
SEQEND
  0
ENDBLK
  0
BLOCK
  8
LAYER_2
  2
AIGNBL02020095
 70
64
 10
0
 20
0
 30
0
  3
AIGNBL02020095
  0
POLYLINE
  8
LAYER_2
 40
0.2469
 41
0.2469
 66
1
 10
0
 20
0
 30
0
  0
VERTEX
  8
LAYER_2
 10
137.8734
 20
77.4103
  0
VERTEX
  8
LAYER_2
 10
133.3786
 20
77.4103
  0
SEQEND
  0
ENDBLK
  0
BLOCK
  8
LAYER_2
  2
AIGNBL02020096
 70
64
 10
0
 20
0
 30
0
  3
AIGNBL02020096
  0
POLYLINE
  8
LAYER_2
 40
0.2469
 41
0.2469
 66
1
 10
0
 20
0
 30
0
  0
VERTEX
  8
LAYER_2
 10
133.3786
 20
83.3303
  0
VERTEX
  8
LAYER_2
 10
133.3786
 20
80.6204
  0
SEQEND
  0
ENDBLK
  0
BLOCK
  8
LAYER_2
  2
AIGNBL02020097
 70
64
 10
0
 20
0
 30
0
  3
AIGNBL02020097
  0
POLYLINE
  8
LAYER_2
 40
0.2469
 41
0.2469
 66
1
 10
0
 20
0
 30
0
  0
VERTEX
  8
LAYER_2
 10
133.3786
 20
87.8554
  0
VERTEX
  8
LAYER_2
 10
133.3786
 20
85.1455
  0
SEQEND
  0
ENDBLK
  0
BLOCK
  8
LAYER_2
  2
AIGNBL02020098
 70
64
 10
0
 20
0
 30
0
  3
AIGNBL02020098
  0
POLYLINE
  8
LAYER_2
 40
0.2469
 41
0.2469
 66
1
 10
0
 20
0
 30
0
  0
VERTEX
  8
LAYER_2
 10
133.3786
 20
80.6204
  0
VERTEX
  8
LAYER_2
 10
133.3786
 20
77.9105
  0
SEQEND
  0
ENDBLK
  0
BLOCK
  8
LAYER_2
  2
AIGNBL02020099
 70
64
 10
0
 20
0
 30
0
  3
AIGNBL02020099
  0
POLYLINE
  8
LAYER_2
 40
0.2469
 41
0.2469
 66
1
 10
0
 20
0
 30
0
  0
VERTEX
  8
LAYER_2
 10
133.3786
 20
76.0953
  0
VERTEX
  8
LAYER_2
 10
133.3786
 20
73.3854
  0
SEQEND
  0
ENDBLK
  0
BLOCK
  8
LAYER_2
  2
AIGNBL0202009A
 70
64
 10
0
 20
0
 30
0
  3
AIGNBL0202009A
  0
POLYLINE
  8
LAYER_2
 40
0.2469
 41
0.2469
 66
1
 10
0
 20
0
 30
0
  0
VERTEX
  8
LAYER_2
 10
137.8734
 20
77.4103
  0
VERTEX
  8
LAYER_2
 10
137.8734
 20
76.5955
  0
SEQEND
  0
ENDBLK
  0
BLOCK
  8
LAYER_2
  2
AIGNBL0202009B
 70
64
 10
0
 20
0
 30
0
  3
AIGNBL0202009B
  0
POLYLINE
  8
LAYER_2
 40
0.2469
 41
0.2469
 66
1
 10
0
 20
0
 30
0
  0
VERTEX
  8
LAYER_2
 10
137.8734
 20
84.6453
  0
VERTEX
  8
LAYER_2
 10
137.8734
 20
83.8305
  0
SEQEND
  0
ENDBLK
  0
BLOCK
  8
LAYER_2
  2
AIGNBL0202009C
 70
64
 10
0
 20
0
 30
0
  3
AIGNBL0202009C
  0
POLYLINE
  8
LAYER_2
 40
0.2469
 41
0.2469
 66
1
 10
0
 20
0
 30
0
  0
VERTEX
  8
LAYER_2
 10
61.5403
 20
169.9955
 42
0.4142296376
  0
VERTEX
  8
LAYER_2
 10
66.6488
 20
169.5418
 42
0.04423120671
  0
VERTEX
  8
LAYER_2
 10
67.1024
 20
169.9955
  0
SEQEND
  0
ENDBLK
  0
BLOCK
  8
LAYER_2
  2
AIGNBL0202009D
 70
64
 10
0
 20
0
 30
0
  3
AIGNBL0202009D
  0
POLYLINE
  8
LAYER_2
 40
0.2469
 41
0.2469
 66
1
 10
0
 20
0
 30
0
  0
VERTEX
  8
LAYER_2
 10
68.0403
 20
169.9955
 42
0.4142499381
  0
VERTEX
  8
LAYER_2
 10
73.1487
 20
169.5418
 42
0.0444360424
  0
VERTEX
  8
LAYER_2
 10
73.6024
 20
169.9955
  0
SEQEND
  0
ENDBLK
  0
BLOCK
  8
LAYER_2
  2
AIGNBL0202009E
 70
64
 10
0
 20
0
 30
0
  3
AIGNBL0202009E
  0
POLYLINE
  8
LAYER_2
 40
0.2469
 41
0.2469
 66
1
 10
0
 20
0
 30
0
  0
VERTEX
  8
LAYER_2
 10
73.6024
 20
174.4903
 42
0.08984570832
  0
VERTEX
  8
LAYER_2
 10
68.0403
 20
174.4903
  0
SEQEND
  0
ENDBLK
  0
BLOCK
  8
LAYER_2
  2
AIGNBL0202009F
 70
64
 10
0
 20
0
 30
0
  3
AIGNBL0202009F
  0
POLYLINE
  8
LAYER_2
 40
0.2469
 41
0.2469
 66
1
 10
0
 20
0
 30
0
  0
VERTEX
  8
LAYER_2
 10
67.1024
 20
174.4903
 42
0.08983742819
  0
VERTEX
  8
LAYER_2
 10
61.5403
 20
174.4903
  0
SEQEND
  0
ENDBLK
  0
BLOCK
  8
LAYER_2
  2
AIGNBL020200A0
 70
64
 10
0
 20
0
 30
0
  3
AIGNBL020200A0
  0
POLYLINE
  8
LAYER_2
 40
0.2469
 41
0.2469
 66
1
 10
0
 20
0
 30
0
  0
VERTEX
  8
LAYER_2
 10
64.409
 20
156.2454
 42
0.4142053306
  0
VERTEX
  8
LAYER_2
 10
68.3214
 20
153.8332
 42
0.2835030195
  0
VERTEX
  8
LAYER_2
 10
70.7337
 20
156.2454
  0
SEQEND
  0
ENDBLK
  0
BLOCK
  8
LAYER_2
  2
AIGNBL020200A1
 70
64
 10
0
 20
0
 30
0
  3
AIGNBL020200A1
  0
POLYLINE
  8
LAYER_2
 40
0.2469
 41
0.2469
 66
1
 10
0
 20
0
 30
0
  0
VERTEX
  8
LAYER_2
 10
70.7337
 20
156.2454
 42
0.4142159252
  0
VERTEX
  8
LAYER_2
 10
68.3214
 20
160.1577
 42
0.4141722087
  0
VERTEX
  8
LAYER_2
 10
64.409
 20
157.7454
 42
0.1169804651
  0
VERTEX
  8
LAYER_2
 10
64.409
 20
156.2454
  0
SEQEND
  0
ENDBLK
  0
BLOCK
  8
LAYER_2
  2
AIGNBL020200A2
 70
64
 10
0
 20
0
 30
0
  3
AIGNBL020200A2
  0
POLYLINE
  8
LAYER_2
 40
0.2469
 41
0.2469
 66
1
 10
0
 20
0
 30
0
  0
VERTEX
  8
LAYER_2
 10
133.3786
 20
83.8305
 42
0.1946871768
  0
VERTEX
  8
LAYER_2
 10
132.0794
 20
80.6204
  0
SEQEND
  0
ENDBLK
  0
BLOCK
  8
LAYER_2
  2
AIGNBL020200A3
 70
64
 10
0
 20
0
 30
0
  3
AIGNBL020200A3
  0
POLYLINE
  8
LAYER_2
 40
0.2469
 41
0.2469
 66
1
 10
0
 20
0
 30
0
  0
VERTEX
  8
LAYER_2
 10
132.0794
 20
87.8554
 42
0.1946864002
  0
VERTEX
  8
LAYER_2
 10
133.3786
 20
84.6453
  0
SEQEND
  0
ENDBLK
  0
BLOCK
  8
LAYER_2
  2
AIGNBL020200A4
 70
64
 10
0
 20
0
 30
0
  3
AIGNBL020200A4
  0
POLYLINE
  8
LAYER_2
 40
0.2469
 41
0.2469
 66
1
 10
0
 20
0
 30
0
  0
VERTEX
  8
LAYER_2
 10
133.3786
 20
76.5955
 42
0.1946864641
  0
VERTEX
  8
LAYER_2
 10
132.0794
 20
73.3854
  0
SEQEND
  0
ENDBLK
  0
BLOCK
  8
LAYER_2
  2
AIGNBL020200A5
 70
64
 10
0
 20
0
 30
0
  3
AIGNBL020200A5
  0
POLYLINE
  8
LAYER_2
 40
0.2469
 41
0.2469
 66
1
 10
0
 20
0
 30
0
  0
VERTEX
  8
LAYER_2
 10
132.0794
 20
80.6204
 42
0.1946871128
  0
VERTEX
  8
LAYER_2
 10
133.3786
 20
77.4103
  0
SEQEND
  0
ENDBLK
  0
BLOCK
  8
LAYER_2
  2
AIGNBL020200A6
 70
64
 10
0
 20
0
 30
0
  3
AIGNBL020200A6
  0
POLYLINE
  8
LAYER_2
 40
0.2469
 41
0.2469
 66
1
 10
0
 20
0
 30
0
  0
VERTEX
  8
LAYER_2
 10
137.8734
 20
77.4103
 42
0.07783065946
  0
VERTEX
  8
LAYER_2
 10
137.8734
 20
83.8305
  0
SEQEND
  0
ENDBLK
  0
BLOCK
  8
LAYER_2
  2
AIGNBL020200A7
 70
64
 10
0
 20
0
 30
0
  3
AIGNBL020200A7
  0
POLYLINE
  8
LAYER_2
 40
0.2469
 41
0.2469
 66
1
 10
0
 20
0
 30
0
  0
VERTEX
  8
LAYER_2
 10
138.1232
 20
73.8032
 42
0.04459885422
  0
VERTEX
  8
LAYER_2
 10
137.8734
 20
76.5955
  0
SEQEND
  0
ENDBLK
  0
BLOCK
  8
LAYER_2
  2
AIGNBL020200A8
 70
64
 10
0
 20
0
 30
0
  3
AIGNBL020200A8
  0
POLYLINE
  8
LAYER_2
 40
0.2469
 41
0.2469
 66
1
 10
0
 20
0
 30
0
  0
VERTEX
  8
LAYER_2
 10
137.8734
 20
84.6453
 42
0.0538527435
  0
VERTEX
  8
LAYER_2
 10
138.1232
 20
87.4376
  0
SEQEND
  0
ENDBLK
  0
BLOCK
  8
LAYER_2
  2
AIGNBL020200A9
 70
64
 10
0
 20
0
 30
0
  3
AIGNBL020200A9
  0
POLYLINE
  8
LAYER_2
 40
0.2469
 41
0.2469
 66
1
 10
0
 20
0
 30
0
 70
1
  0
VERTEX
  8
LAYER_2
 10
71.0713
 20
156.9954
 42
0.414215798
  0
VERTEX
  8
LAYER_2
 10
67.5714
 20
160.4953
 42
0.4142134808
  0
VERTEX
  8
LAYER_2
 10
64.0712
 20
156.9954
 42
0.4142113269
  0
VERTEX
  8
LAYER_2
 10
67.5714
 20
153.4954
 42
0.4142136441
  0
SEQEND
  0
ENDBLK
  0
BLOCK
  8
LAYER_2
  2
AIGNBL020200AA
 70
64
 10
0
 20
0
 30
0
  3
AIGNBL020200AA
  0
POLYLINE
  8
LAYER_2
 40
0.2469
 41
0.2469
 66
1
 10
0
 20
0
 30
0
 70
1
  0
VERTEX
  8
LAYER_2
 10
72.2402
 20
156.9954
 42
0.4142152382
  0
VERTEX
  8
LAYER_2
 10
67.5714
 20
161.6644
 42
0.4142135013
  0
VERTEX
  8
LAYER_2
 10
62.9023
 20
156.9954
 42
0.4142118866
  0
VERTEX
  8
LAYER_2
 10
67.5714
 20
152.3263
 42
0.4142136236
  0
SEQEND
  0
ENDBLK
  0
BLOCK
  8
LAYER_2
  2
AIGNBL020200AB
 70
64
 10
0
 20
0
 30
0
  3
AIGNBL020200AB
  0
POLYLINE
  8
LAYER_2
 40
0.2469
 41
0.2469
 66
1
 10
0
 20
0
 30
0
 70
1
  0
VERTEX
  8
LAYER_2
 10
72.8214
 20
156.9954
 42
0.4142150528
  0
VERTEX
  8
LAYER_2
 10
67.5714
 20
162.2454
 42
0.4142135081
  0
VERTEX
  8
LAYER_2
 10
62.3213
 20
156.9954
 42
0.414212072
  0
VERTEX
  8
LAYER_2
 10
67.5714
 20
151.7454
 42
0.4142136169
  0
SEQEND
  0
ENDBLK
  0
BLOCK
  8
LAYER_2
  2
AIGNBL020200AC
 70
64
 10
0
 20
0
 30
0
  3
AIGNBL020200AC
  0
POLYLINE
  8
LAYER_2
 40
0.2469
 41
0.2469
 66
1
 10
0
 20
0
 30
0
 70
1
  0
VERTEX
  8
LAYER_2
 10
74.8213
 20
156.9954
 42
0.4142146416
  0
VERTEX
  8
LAYER_2
 10
67.5714
 20
164.2453
 42
0.4142135231
  0
VERTEX
  8
LAYER_2
 10
60.3212
 20
156.9954
 42
0.4142124832
  0
VERTEX
  8
LAYER_2
 10
67.5714
 20
149.7454
 42
0.4142136018
  0
SEQEND
  0
ENDBLK
  0
BLOCK
  8
LAYER_2
  2
AIGNBL020200AD
 70
64
 10
0
 20
0
 30
0
  3
AIGNBL020200AD
  0
POLYLINE
  8
LAYER_2
 40
0.2469
 41
0.2469
 66
1
 10
0
 20
0
 30
0
  0
VERTEX
  8
LAYER_2
 10
112.1286
 20
87.8703
 42
0.414208919
  0
VERTEX
  8
LAYER_2
 10
113.1283
 20
88.8704
  0
SEQEND
  0
ENDBLK
  0
BLOCK
  8
LAYER_2
  2
AIGNBL020200AE
 70
64
 10
0
 20
0
 30
0
  3
AIGNBL020200AE
  0
POLYLINE
  8
LAYER_2
 40
0.2469
 41
0.2469
 66
1
 10
0
 20
0
 30
0
  0
VERTEX
  8
LAYER_2
 10
127.6284
 20
88.8704
 42
0.4142226956
  0
VERTEX
  8
LAYER_2
 10
128.6285
 20
87.8703
  0
SEQEND
  0
ENDBLK
  0
BLOCK
  8
LAYER_2
  2
AIGNBL020200AF
 70
64
 10
0
 20
0
 30
0
  3
AIGNBL020200AF
  0
POLYLINE
  8
LAYER_2
 40
0.2469
 41
0.2469
 66
1
 10
0
 20
0
 30
0
  0
VERTEX
  8
LAYER_2
 10
74.0713
 20
170.2633
 42
0.1316834379
  0
VERTEX
  8
LAYER_2
 10
74.2053
 20
169.7633
  0
SEQEND
  0
ENDBLK
  0
BLOCK
  8
LAYER_2
  2
AIGNBL020200B0
 70
64
 10
0
 20
0
 30
0
  3
AIGNBL020200B0
  0
POLYLINE
  8
LAYER_2
 40
0.2469
 41
0.2469
 66
1
 10
0
 20
0
 30
0
  0
VERTEX
  8
LAYER_2
 10
60.9374
 20
169.7633
 42
0.131461716
  0
VERTEX
  8
LAYER_2
 10
61.0712
 20
170.2633
  0
SEQEND
  0
ENDBLK
  0
BLOCK
  8
LAYER_2
  2
AIGNBL020200B2
 70
64
 10
0
 20
0
 30
0
  3
AIGNBL020200B2
  0
POLYLINE
  8
LAYER_2
 40
0.2469
 41
0.2469
 66
1
 10
0
 20
0
 30
0
  0
VERTEX
  8
LAYER_2
 10
65.8213
 20
96.2704
  0
VERTEX
  8
LAYER_2
 10
65.8213
 20
87.656
  0
SEQEND
  0
ENDBLK
  0
BLOCK
  8
LAYER_2
  2
AIGNBL020200B3
 70
64
 10
0
 20
0
 30
0
  3
AIGNBL020200B3
  0
POLYLINE
  8
LAYER_2
 40
0.2469
 41
0.2469
 66
1
 10
0
 20
0
 30
0
  0
VERTEX
  8
LAYER_2
 10
65.9212
 20
96.3703
  0
VERTEX
  8
LAYER_2
 10
65.8213
 20
96.2704
  0
SEQEND
  0
ENDBLK
  0
BLOCK
  8
LAYER_2
  2
AIGNBL020200B4
 70
64
 10
0
 20
0
 30
0
  3
AIGNBL020200B4
  0
POLYLINE
  8
LAYER_2
  6
AIGENLINE001
 40
0.2469
 41
0.2469
 62
120
 66
1
 10
0
 20
0
 30
0
 70
128
  0
VERTEX
  8
LAYER_2
 10
67.5714
 20
82.3705
  0
VERTEX
  8
LAYER_2
 10
67.5714
 20
97.8703
  0
SEQEND
  0
ENDBLK
  0
BLOCK
  8
LAYER_2
  2
AIGNBL020200B5
 70
64
 10
0
 20
0
 30
0
  3
AIGNBL020200B5
  0
POLYLINE
  8
LAYER_2
 40
0.2469
 41
0.2469
 66
1
 10
0
 20
0
 30
0
  0
VERTEX
  8
LAYER_2
 10
69.3212
 20
96.2704
  0
VERTEX
  8
LAYER_2
 10
69.2213
 20
96.3703
  0
SEQEND
  0
ENDBLK
  0
BLOCK
  8
LAYER_2
  2
AIGNBL020200B6
 70
64
 10
0
 20
0
 30
0
  3
AIGNBL020200B6
  0
POLYLINE
  8
LAYER_2
 40
0.2469
 41
0.2469
 66
1
 10
0
 20
0
 30
0
  0
VERTEX
  8
LAYER_2
 10
65.9212
 20
96.3703
  0
VERTEX
  8
LAYER_2
 10
69.2213
 20
96.3703
  0
SEQEND
  0
ENDBLK
  0
BLOCK
  8
LAYER_2
  2
AIGNBL020200B7
 70
64
 10
0
 20
0
 30
0
  3
AIGNBL020200B7
  0
POLYLINE
  8
LAYER_2
 40
0.2469
 41
0.2469
 66
1
 10
0
 20
0
 30
0
  0
VERTEX
  8
LAYER_2
 10
69.3212
 20
87.656
  0
VERTEX
  8
LAYER_2
 10
69.3212
 20
96.2704
  0
SEQEND
  0
ENDBLK
  0
BLOCK
  8
LAYER_2
  2
AIGNBL020200B9
 70
64
 10
0
 20
0
 30
0
  3
AIGNBL020200B9
  0
POLYLINE
  8
LAYER_2
 40
0.2469
 41
0.2469
 66
1
 10
0
 20
0
 30
0
  0
VERTEX
  8
LAYER_2
 10
62.4213
 20
195.4954
  0
VERTEX
  8
LAYER_2
 10
62.4213
 20
197.441
  0
SEQEND
  0
ENDBLK
  0
BLOCK
  8
LAYER_2
  2
AIGNBL020200BA
 70
64
 10
0
 20
0
 30
0
  3
AIGNBL020200BA
  0
POLYLINE
  8
LAYER_2
 40
0.2469
 41
0.2469
 66
1
 10
0
 20
0
 30
0
  0
VERTEX
  8
LAYER_2
 10
72.7213
 20
187.9954
  0
VERTEX
  8
LAYER_2
 10
72.7213
 20
176.0497
  0
SEQEND
  0
ENDBLK
  0
BLOCK
  8
LAYER_2
  2
AIGNBL020200BB
 70
64
 10
0
 20
0
 30
0
  3
AIGNBL020200BB
  0
POLYLINE
  8
LAYER_2
 40
0.2469
 41
0.2469
 66
1
 10
0
 20
0
 30
0
  0
VERTEX
  8
LAYER_2
 10
62.5865
 20
204.9153
  0
VERTEX
  8
LAYER_2
 10
72.5561
 20
204.9153
  0
SEQEND
  0
ENDBLK
  0
BLOCK
  8
LAYER_2
  2
AIGNBL020200BC
 70
64
 10
0
 20
0
 30
0
  3
AIGNBL020200BC
  0
POLYLINE
  8
LAYER_2
 40
0.2469
 41
0.2469
 66
1
 10
0
 20
0
 30
0
  0
VERTEX
  8
LAYER_2
 10
62.4213
 20
197.441
  0
VERTEX
  8
LAYER_2
 10
62.4489
 20
198.4954
  0
SEQEND
  0
ENDBLK
  0
BLOCK
  8
LAYER_2
  2
AIGNBL020200BD
 70
64
 10
0
 20
0
 30
0
  3
AIGNBL020200BD
  0
POLYLINE
  8
LAYER_2
 40
0.2469
 41
0.2469
 66
1
 10
0
 20
0
 30
0
  0
VERTEX
  8
LAYER_2
 10
63.0301
 20
198.4954
  0
VERTEX
  8
LAYER_2
 10
62.4213
 20
197.441
  0
SEQEND
  0
ENDBLK
  0
BLOCK
  8
LAYER_2
  2
AIGNBL020200BE
 70
64
 10
0
 20
0
 30
0
  3
AIGNBL020200BE
  0
POLYLINE
  8
LAYER_2
 40
0.2469
 41
0.2469
 66
1
 10
0
 20
0
 30
0
  0
VERTEX
  8
LAYER_2
 10
62.5865
 20
204.9153
  0
VERTEX
  8
LAYER_2
 10
63.1998
 20
205.4955
  0
SEQEND
  0
ENDBLK
  0
BLOCK
  8
LAYER_2
  2
AIGNBL020200BF
 70
64
 10
0
 20
0
 30
0
  3
AIGNBL020200BF
  0
POLYLINE
  8
LAYER_2
 40
0.2469
 41
0.2469
 66
1
 10
0
 20
0
 30
0
  0
VERTEX
  8
LAYER_2
 10
62.4489
 20
198.4954
  0
VERTEX
  8
LAYER_2
 10
62.5865
 20
204.9153
  0
SEQEND
  0
ENDBLK
  0
BLOCK
  8
LAYER_2
  2
AIGNBL020200C0
 70
64
 10
0
 20
0
 30
0
  3
AIGNBL020200C0
  0
POLYLINE
  8
LAYER_2
 40
0.2469
 41
0.2469
 66
1
 10
0
 20
0
 30
0
  0
VERTEX
  8
LAYER_2
 10
63.0301
 20
198.4954
  0
VERTEX
  8
LAYER_2
 10
63.1998
 20
205.4955
  0
SEQEND
  0
ENDBLK
  0
BLOCK
  8
LAYER_2
  2
AIGNBL020200C1
 70
64
 10
0
 20
0
 30
0
  3
AIGNBL020200C1
  0
POLYLINE
  8
LAYER_2
 40
0.2469
 41
0.2469
 66
1
 10
0
 20
0
 30
0
  0
VERTEX
  8
LAYER_2
 10
71.9429
 20
205.4955
  0
VERTEX
  8
LAYER_2
 10
63.1998
 20
205.4955
  0
SEQEND
  0
ENDBLK
  0
BLOCK
  8
LAYER_2
  2
AIGNBL020200C2
 70
64
 10
0
 20
0
 30
0
  3
AIGNBL020200C2
  0
POLYLINE
  8
LAYER_2
 40
0.2469
 41
0.2469
 66
1
 10
0
 20
0
 30
0
  0
VERTEX
  8
LAYER_2
 10
72.7213
 20
197.441
  0
VERTEX
  8
LAYER_2
 10
72.1126
 20
198.4954
  0
SEQEND
  0
ENDBLK
  0
BLOCK
  8
LAYER_2
  2
AIGNBL020200C3
 70
64
 10
0
 20
0
 30
0
  3
AIGNBL020200C3
  0
POLYLINE
  8
LAYER_2
 40
0.2469
 41
0.2469
 66
1
 10
0
 20
0
 30
0
  0
VERTEX
  8
LAYER_2
 10
71.9429
 20
205.4955
  0
VERTEX
  8
LAYER_2
 10
72.1126
 20
198.4954
  0
SEQEND
  0
ENDBLK
  0
BLOCK
  8
LAYER_2
  2
AIGNBL020200C4
 70
64
 10
0
 20
0
 30
0
  3
AIGNBL020200C4
  0
POLYLINE
  8
LAYER_2
 40
0.2469
 41
0.2469
 66
1
 10
0
 20
0
 30
0
  0
VERTEX
  8
LAYER_2
 10
71.9429
 20
205.4955
  0
VERTEX
  8
LAYER_2
 10
72.5561
 20
204.9153
  0
SEQEND
  0
ENDBLK
  0
BLOCK
  8
LAYER_2
  2
AIGNBL020200C5
 70
64
 10
0
 20
0
 30
0
  3
AIGNBL020200C5
  0
POLYLINE
  8
LAYER_2
 40
0.2469
 41
0.2469
 66
1
 10
0
 20
0
 30
0
  0
VERTEX
  8
LAYER_2
 10
72.6938
 20
198.4954
  0
VERTEX
  8
LAYER_2
 10
62.4489
 20
198.4954
  0
SEQEND
  0
ENDBLK
  0
BLOCK
  8
LAYER_2
  2
AIGNBL020200C6
 70
64
 10
0
 20
0
 30
0
  3
AIGNBL020200C6
  0
POLYLINE
  8
LAYER_2
 40
0.2469
 41
0.2469
 66
1
 10
0
 20
0
 30
0
  0
VERTEX
  8
LAYER_2
 10
72.6938
 20
198.4954
  0
VERTEX
  8
LAYER_2
 10
72.7213
 20
197.441
  0
SEQEND
  0
ENDBLK
  0
BLOCK
  8
LAYER_2
  2
AIGNBL020200C7
 70
64
 10
0
 20
0
 30
0
  3
AIGNBL020200C7
  0
POLYLINE
  8
LAYER_2
 40
0.2469
 41
0.2469
 66
1
 10
0
 20
0
 30
0
  0
VERTEX
  8
LAYER_2
 10
72.5561
 20
204.9153
  0
VERTEX
  8
LAYER_2
 10
72.6938
 20
198.4954
  0
SEQEND
  0
ENDBLK
  0
BLOCK
  8
LAYER_2
  2
AIGNBL020200C8
 70
64
 10
0
 20
0
 30
0
  3
AIGNBL020200C8
  0
POLYLINE
  8
LAYER_2
 40
0.2469
 41
0.2469
 66
1
 10
0
 20
0
 30
0
  0
VERTEX
  8
LAYER_2
 10
72.7213
 20
197.441
  0
VERTEX
  8
LAYER_2
 10
72.7213
 20
195.4954
  0
SEQEND
  0
ENDBLK
  0
BLOCK
  8
LAYER_2
  2
AIGNBL020200C9
 70
64
 10
0
 20
0
 30
0
  3
AIGNBL020200C9
  0
POLYLINE
  8
LAYER_2
 40
0.2469
 41
0.2469
 66
1
 10
0
 20
0
 30
0
  0
VERTEX
  8
LAYER_2
 10
72.1126
 20
174.9953
  0
VERTEX
  8
LAYER_2
 10
72.7213
 20
176.0497
  0
SEQEND
  0
ENDBLK
  0
BLOCK
  8
LAYER_2
  2
AIGNBL020200CA
 70
64
 10
0
 20
0
 30
0
  3
AIGNBL020200CA
  0
POLYLINE
  8
LAYER_2
 40
0.2469
 41
0.2469
 66
1
 10
0
 20
0
 30
0
  0
VERTEX
  8
LAYER_2
 10
72.7213
 20
176.0497
  0
VERTEX
  8
LAYER_2
 10
72.6938
 20
174.9953
  0
SEQEND
  0
ENDBLK
  0
BLOCK
  8
LAYER_2
  2
AIGNBL020200CB
 70
64
 10
0
 20
0
 30
0
  3
AIGNBL020200CB
  0
POLYLINE
  8
LAYER_2
 40
0.2469
 41
0.2469
 66
1
 10
0
 20
0
 30
0
  0
VERTEX
  8
LAYER_2
 10
62.4213
 20
176.0497
  0
VERTEX
  8
LAYER_2
 10
63.0301
 20
174.9953
  0
SEQEND
  0
ENDBLK
  0
BLOCK
  8
LAYER_2
  2
AIGNBL020200CC
 70
64
 10
0
 20
0
 30
0
  3
AIGNBL020200CC
  0
POLYLINE
  8
LAYER_2
 40
0.2469
 41
0.2469
 66
1
 10
0
 20
0
 30
0
  0
VERTEX
  8
LAYER_2
 10
62.4489
 20
174.9953
  0
VERTEX
  8
LAYER_2
 10
62.4213
 20
176.0497
  0
SEQEND
  0
ENDBLK
  0
BLOCK
  8
LAYER_2
  2
AIGNBL020200CD
 70
64
 10
0
 20
0
 30
0
  3
AIGNBL020200CD
  0
POLYLINE
  8
LAYER_2
 40
0.2469
 41
0.2469
 66
1
 10
0
 20
0
 30
0
  0
VERTEX
  8
LAYER_2
 10
62.4213
 20
176.0497
  0
VERTEX
  8
LAYER_2
 10
62.4213
 20
187.9954
  0
SEQEND
  0
ENDBLK
  0
BLOCK
  8
LAYER_2
  2
AIGNBL020200CE
 70
64
 10
0
 20
0
 30
0
  3
AIGNBL020200CE
  0
POLYLINE
  8
LAYER_2
 40
0.2469
 41
0.2469
 66
1
 10
0
 20
0
 30
0
  0
VERTEX
  8
LAYER_2
 10
139.4327
 20
85.7705
  0
VERTEX
  8
LAYER_2
 10
151.3785
 20
85.7705
  0
SEQEND
  0
ENDBLK
  0
BLOCK
  8
LAYER_2
  2
AIGNBL020200CF
 70
64
 10
0
 20
0
 30
0
  3
AIGNBL020200CF
  0
POLYLINE
  8
LAYER_2
 40
0.2469
 41
0.2469
 66
1
 10
0
 20
0
 30
0
  0
VERTEX
  8
LAYER_2
 10
138.3785
 20
85.7429
  0
VERTEX
  8
LAYER_2
 10
139.4327
 20
85.7705
  0
SEQEND
  0
ENDBLK
  0
BLOCK
  8
LAYER_2
  2
AIGNBL020200D0
 70
64
 10
0
 20
0
 30
0
  3
AIGNBL020200D0
  0
POLYLINE
  8
LAYER_2
 40
0.2469
 41
0.2469
 66
1
 10
0
 20
0
 30
0
  0
VERTEX
  8
LAYER_2
 10
139.4327
 20
85.7705
  0
VERTEX
  8
LAYER_2
 10
138.3785
 20
85.1617
  0
SEQEND
  0
ENDBLK
  0
BLOCK
  8
LAYER_2
  2
AIGNBL020200D1
 70
64
 10
0
 20
0
 30
0
  3
AIGNBL020200D1
  0
POLYLINE
  8
LAYER_2
 40
0.2469
 41
0.2469
 66
1
 10
0
 20
0
 30
0
  0
VERTEX
  8
LAYER_2
 10
139.4327
 20
75.4703
  0
VERTEX
  8
LAYER_2
 10
138.3785
 20
75.4979
  0
SEQEND
  0
ENDBLK
  0
BLOCK
  8
LAYER_2
  2
AIGNBL020200D2
 70
64
 10
0
 20
0
 30
0
  3
AIGNBL020200D2
  0
POLYLINE
  8
LAYER_2
 40
0.2469
 41
0.2469
 66
1
 10
0
 20
0
 30
0
  0
VERTEX
  8
LAYER_2
 10
138.3785
 20
76.0791
  0
VERTEX
  8
LAYER_2
 10
139.4327
 20
75.4703
  0
SEQEND
  0
ENDBLK
  0
BLOCK
  8
LAYER_2
  2
AIGNBL020200D3
 70
64
 10
0
 20
0
 30
0
  3
AIGNBL020200D3
  0
POLYLINE
  8
LAYER_2
 40
0.2469
 41
0.2469
 66
1
 10
0
 20
0
 30
0
  0
VERTEX
  8
LAYER_2
 10
160.8239
 20
75.4703
  0
VERTEX
  8
LAYER_2
 10
158.8785
 20
75.4703
  0
SEQEND
  0
ENDBLK
  0
BLOCK
  8
LAYER_2
  2
AIGNBL020200D4
 70
64
 10
0
 20
0
 30
0
  3
AIGNBL020200D4
  0
POLYLINE
  8
LAYER_2
 40
0.2469
 41
0.2469
 66
1
 10
0
 20
0
 30
0
  0
VERTEX
  8
LAYER_2
 10
168.2984
 20
75.6357
  0
VERTEX
  8
LAYER_2
 10
161.8785
 20
75.4979
  0
SEQEND
  0
ENDBLK
  0
BLOCK
  8
LAYER_2
  2
AIGNBL020200D5
 70
64
 10
0
 20
0
 30
0
  3
AIGNBL020200D5
  0
POLYLINE
  8
LAYER_2
 40
0.2469
 41
0.2469
 66
1
 10
0
 20
0
 30
0
  0
VERTEX
  8
LAYER_2
 10
161.8785
 20
75.4979
  0
VERTEX
  8
LAYER_2
 10
160.8239
 20
75.4703
  0
SEQEND
  0
ENDBLK
  0
BLOCK
  8
LAYER_2
  2
AIGNBL020200D6
 70
64
 10
0
 20
0
 30
0
  3
AIGNBL020200D6
  0
POLYLINE
  8
LAYER_2
 40
0.2469
 41
0.2469
 66
1
 10
0
 20
0
 30
0
  0
VERTEX
  8
LAYER_2
 10
161.8785
 20
75.4979
  0
VERTEX
  8
LAYER_2
 10
161.8785
 20
85.7429
  0
SEQEND
  0
ENDBLK
  0
BLOCK
  8
LAYER_2
  2
AIGNBL020200D7
 70
64
 10
0
 20
0
 30
0
  3
AIGNBL020200D7
  0
POLYLINE
  8
LAYER_2
 40
0.2469
 41
0.2469
 66
1
 10
0
 20
0
 30
0
  0
VERTEX
  8
LAYER_2
 10
168.8786
 20
76.2489
  0
VERTEX
  8
LAYER_2
 10
168.2984
 20
75.6357
  0
SEQEND
  0
ENDBLK
  0
BLOCK
  8
LAYER_2
  2
AIGNBL020200D8
 70
64
 10
0
 20
0
 30
0
  3
AIGNBL020200D8
  0
POLYLINE
  8
LAYER_2
 40
0.2469
 41
0.2469
 66
1
 10
0
 20
0
 30
0
  0
VERTEX
  8
LAYER_2
 10
168.8786
 20
76.2489
  0
VERTEX
  8
LAYER_2
 10
161.8785
 20
76.0791
  0
SEQEND
  0
ENDBLK
  0
BLOCK
  8
LAYER_2
  2
AIGNBL020200D9
 70
64
 10
0
 20
0
 30
0
  3
AIGNBL020200D9
  0
POLYLINE
  8
LAYER_2
 40
0.2469
 41
0.2469
 66
1
 10
0
 20
0
 30
0
  0
VERTEX
  8
LAYER_2
 10
160.8239
 20
75.4703
  0
VERTEX
  8
LAYER_2
 10
161.8785
 20
76.0791
  0
SEQEND
  0
ENDBLK
  0
BLOCK
  8
LAYER_2
  2
AIGNBL020200DA
 70
64
 10
0
 20
0
 30
0
  3
AIGNBL020200DA
  0
POLYLINE
  8
LAYER_2
 40
0.2469
 41
0.2469
 66
1
 10
0
 20
0
 30
0
  0
VERTEX
  8
LAYER_2
 10
168.8786
 20
76.2489
  0
VERTEX
  8
LAYER_2
 10
168.8786
 20
84.9919
  0
SEQEND
  0
ENDBLK
  0
BLOCK
  8
LAYER_2
  2
AIGNBL020200DB
 70
64
 10
0
 20
0
 30
0
  3
AIGNBL020200DB
  0
POLYLINE
  8
LAYER_2
 40
0.2469
 41
0.2469
 66
1
 10
0
 20
0
 30
0
  0
VERTEX
  8
LAYER_2
 10
161.8785
 20
85.1617
  0
VERTEX
  8
LAYER_2
 10
168.8786
 20
84.9919
  0
SEQEND
  0
ENDBLK
  0
BLOCK
  8
LAYER_2
  2
AIGNBL020200DC
 70
64
 10
0
 20
0
 30
0
  3
AIGNBL020200DC
  0
POLYLINE
  8
LAYER_2
 40
0.2469
 41
0.2469
 66
1
 10
0
 20
0
 30
0
  0
VERTEX
  8
LAYER_2
 10
161.8785
 20
85.7429
  0
VERTEX
  8
LAYER_2
 10
168.2984
 20
85.6051
  0
SEQEND
  0
ENDBLK
  0
BLOCK
  8
LAYER_2
  2
AIGNBL020200DD
 70
64
 10
0
 20
0
 30
0
  3
AIGNBL020200DD
  0
POLYLINE
  8
LAYER_2
 40
0.2469
 41
0.2469
 66
1
 10
0
 20
0
 30
0
  0
VERTEX
  8
LAYER_2
 10
168.2984
 20
85.6051
  0
VERTEX
  8
LAYER_2
 10
168.8786
 20
84.9919
  0
SEQEND
  0
ENDBLK
  0
BLOCK
  8
LAYER_2
  2
AIGNBL020200DE
 70
64
 10
0
 20
0
 30
0
  3
AIGNBL020200DE
  0
POLYLINE
  8
LAYER_2
 40
0.2469
 41
0.2469
 66
1
 10
0
 20
0
 30
0
  0
VERTEX
  8
LAYER_2
 10
161.8785
 20
85.1617
  0
VERTEX
  8
LAYER_2
 10
160.8239
 20
85.7705
  0
SEQEND
  0
ENDBLK
  0
BLOCK
  8
LAYER_2
  2
AIGNBL020200DF
 70
64
 10
0
 20
0
 30
0
  3
AIGNBL020200DF
  0
POLYLINE
  8
LAYER_2
 40
0.2469
 41
0.2469
 66
1
 10
0
 20
0
 30
0
  0
VERTEX
  8
LAYER_2
 10
160.8239
 20
85.7705
  0
VERTEX
  8
LAYER_2
 10
161.8785
 20
85.7429
  0
SEQEND
  0
ENDBLK
  0
BLOCK
  8
LAYER_2
  2
AIGNBL020200E0
 70
64
 10
0
 20
0
 30
0
  3
AIGNBL020200E0
  0
POLYLINE
  8
LAYER_2
 40
0.2469
 41
0.2469
 66
1
 10
0
 20
0
 30
0
  0
VERTEX
  8
LAYER_2
 10
168.2984
 20
85.6051
  0
VERTEX
  8
LAYER_2
 10
168.2984
 20
75.6357
  0
SEQEND
  0
ENDBLK
  0
BLOCK
  8
LAYER_2
  2
AIGNBL020200E1
 70
64
 10
0
 20
0
 30
0
  3
AIGNBL020200E1
  0
POLYLINE
  8
LAYER_2
 40
0.2469
 41
0.2469
 66
1
 10
0
 20
0
 30
0
  0
VERTEX
  8
LAYER_2
 10
151.3785
 20
75.4703
  0
VERTEX
  8
LAYER_2
 10
139.4327
 20
75.4703
  0
SEQEND
  0
ENDBLK
  0
BLOCK
  8
LAYER_2
  2
AIGNBL020200E2
 70
64
 10
0
 20
0
 30
0
  3
AIGNBL020200E2
  0
POLYLINE
  8
LAYER_2
 40
0.2469
 41
0.2469
 66
1
 10
0
 20
0
 30
0
  0
VERTEX
  8
LAYER_2
 10
158.8785
 20
85.7705
  0
VERTEX
  8
LAYER_2
 10
160.8239
 20
85.7705
  0
SEQEND
  0
ENDBLK
  0
BLOCK
  8
LAYER_2
  2
AIGNBL020200E4
 70
64
 10
0
 20
0
 30
0
  3
AIGNBL020200E4
  0
POLYLINE
  8
LAYER_2
 40
0.2469
 41
0.2469
 66
1
 10
0
 20
0
 30
0
  0
VERTEX
  8
LAYER_2
 10
158.8785
 20
95.6203
  0
VERTEX
  8
LAYER_2
 10
158.8785
 20
80.6204
  0
SEQEND
  0
ENDBLK
  0
BLOCK
  8
LAYER_2
  2
AIGNBL020200E5
 70
64
 10
0
 20
0
 30
0
  3
AIGNBL020200E5
  0
POLYLINE
  8
LAYER_2
 40
0.2469
 41
0.2469
 66
1
 10
0
 20
0
 30
0
  0
VERTEX
  8
LAYER_2
 10
152.3783
 20
95.6203
  0
VERTEX
  8
LAYER_2
 10
158.8785
 20
95.6203
  0
SEQEND
  0
ENDBLK
  0
BLOCK
  8
LAYER_2
  2
AIGNBL020200E6
 70
64
 10
0
 20
0
 30
0
  3
AIGNBL020200E6
  0
POLYLINE
  8
LAYER_2
 40
0.2469
 41
0.2469
 66
1
 10
0
 20
0
 30
0
  0
VERTEX
  8
LAYER_2
 10
151.3785
 20
94.6202
  0
VERTEX
  8
LAYER_2
 10
151.3785
 20
80.6204
  0
SEQEND
  0
ENDBLK
  0
BLOCK
  8
LAYER_2
  2
AIGNBL020200E7
 70
64
 10
0
 20
0
 30
0
  3
AIGNBL020200E7
  0
POLYLINE
  8
LAYER_2
 40
0.2469
 41
0.2469
 66
1
 10
0
 20
0
 30
0
  0
VERTEX
  8
LAYER_2
 10
151.3785
 20
80.6204
  0
VERTEX
  8
LAYER_2
 10
151.3785
 20
66.6202
  0
SEQEND
  0
ENDBLK
  0
BLOCK
  8
LAYER_2
  2
AIGNBL020200E8
 70
64
 10
0
 20
0
 30
0
  3
AIGNBL020200E8
  0
POLYLINE
  8
LAYER_2
 40
0.2469
 41
0.2469
 66
1
 10
0
 20
0
 30
0
  0
VERTEX
  8
LAYER_2
 10
158.8785
 20
65.6205
  0
VERTEX
  8
LAYER_2
 10
152.3783
 20
65.6205
  0
SEQEND
  0
ENDBLK
  0
BLOCK
  8
LAYER_2
  2
AIGNBL020200E9
 70
64
 10
0
 20
0
 30
0
  3
AIGNBL020200E9
  0
POLYLINE
  8
LAYER_2
 40
0.2469
 41
0.2469
 66
1
 10
0
 20
0
 30
0
  0
VERTEX
  8
LAYER_2
 10
158.8785
 20
80.6204
  0
VERTEX
  8
LAYER_2
 10
158.8785
 20
65.6205
  0
SEQEND
  0
ENDBLK
  0
BLOCK
  8
LAYER_2
  2
AIGNBL020200EA
 70
64
 10
0
 20
0
 30
0
  3
AIGNBL020200EA
  0
POLYLINE
  8
LAYER_2
  6
AIGENLINE001
 40
0.2469
 41
0.2469
 62
120
 66
1
 10
0
 20
0
 30
0
 70
128
  0
VERTEX
  8
LAYER_2
 10
149.8785
 20
80.6204
  0
VERTEX
  8
LAYER_2
 10
160.3785
 20
80.6204
  0
SEQEND
  0
ENDBLK
  0
BLOCK
  8
LAYER_2
  2
AIGNBL020200EB
 70
64
 10
0
 20
0
 30
0
  3
AIGNBL020200EB
  0
POLYLINE
  8
LAYER_2
 40
0.2469
 41
0.2469
 66
1
 10
0
 20
0
 30
0
  0
VERTEX
  8
LAYER_2
 10
82.5714
 20
195.4954
  0
VERTEX
  8
LAYER_2
 10
82.5714
 20
188.9954
  0
SEQEND
  0
ENDBLK
  0
BLOCK
  8
LAYER_2
  2
AIGNBL020200EC
 70
64
 10
0
 20
0
 30
0
  3
AIGNBL020200EC
  0
POLYLINE
  8
LAYER_2
 40
0.2469
 41
0.2469
 66
1
 10
0
 20
0
 30
0
  0
VERTEX
  8
LAYER_2
 10
53.5712
 20
187.9954
  0
VERTEX
  8
LAYER_2
 10
81.5712
 20
187.9954
  0
SEQEND
  0
ENDBLK
  0
BLOCK
  8
LAYER_2
  2
AIGNBL020200ED
 70
64
 10
0
 20
0
 30
0
  3
AIGNBL020200ED
  0
POLYLINE
  8
LAYER_2
 40
0.2469
 41
0.2469
 66
1
 10
0
 20
0
 30
0
  0
VERTEX
  8
LAYER_2
 10
52.5713
 20
188.9954
  0
VERTEX
  8
LAYER_2
 10
52.5713
 20
195.4954
  0
SEQEND
  0
ENDBLK
  0
BLOCK
  8
LAYER_2
  2
AIGNBL020200EE
 70
64
 10
0
 20
0
 30
0
  3
AIGNBL020200EE
  0
POLYLINE
  8
LAYER_2
 40
0.2469
 41
0.2469
 66
1
 10
0
 20
0
 30
0
  0
VERTEX
  8
LAYER_2
 10
52.5713
 20
195.4954
  0
VERTEX
  8
LAYER_2
 10
82.5714
 20
195.4954
  0
SEQEND
  0
ENDBLK
  0
BLOCK
  8
LAYER_2
  2
AIGNBL020200EF
 70
64
 10
0
 20
0
 30
0
  3
AIGNBL020200EF
  0
POLYLINE
  8
LAYER_2
 40
0.2469
 41
0.2469
 66
1
 10
0
 20
0
 30
0
  0
VERTEX
  8
LAYER_2
 10
82.5714
 20
80.6204
 42
0.3129606697
  0
VERTEX
  8
LAYER_2
 10
72.8214
 20
94.6716
  0
SEQEND
  0
ENDBLK
  0
BLOCK
  8
LAYER_2
  2
AIGNBL020200F0
 70
64
 10
0
 20
0
 30
0
  3
AIGNBL020200F0
  0
POLYLINE
  8
LAYER_2
 40
0.2469
 41
0.2469
 66
1
 10
0
 20
0
 30
0
  0
VERTEX
  8
LAYER_2
 10
62.3213
 20
94.6716
 42
0.4142228899
  0
VERTEX
  8
LAYER_2
 10
53.5201
 20
75.3704
 42
0.414218564
  0
VERTEX
  8
LAYER_2
 10
72.8214
 20
66.5692
 42
0.3129606217
  0
VERTEX
  8
LAYER_2
 10
82.5714
 20
80.6204
  0
SEQEND
  0
ENDBLK
  0
BLOCK
  8
LAYER_2
  2
AIGNBL020200F1
 70
64
 10
0
 20
0
 30
0
  3
AIGNBL020200F1
  0
POLYLINE
  8
LAYER_2
 40
0.2469
 41
0.2469
 66
1
 10
0
 20
0
 30
0
  0
VERTEX
  8
LAYER_2
 10
152.3783
 20
95.6203
 42
0.4142254699
  0
VERTEX
  8
LAYER_2
 10
151.3785
 20
94.6202
  0
SEQEND
  0
ENDBLK
  0
BLOCK
  8
LAYER_2
  2
AIGNBL020200F2
 70
64
 10
0
 20
0
 30
0
  3
AIGNBL020200F2
  0
POLYLINE
  8
LAYER_2
 40
0.2469
 41
0.2469
 66
1
 10
0
 20
0
 30
0
  0
VERTEX
  8
LAYER_2
 10
151.3785
 20
66.6202
 42
0.4142080315
  0
VERTEX
  8
LAYER_2
 10
152.3783
 20
65.6205
  0
SEQEND
  0
ENDBLK
  0
BLOCK
  8
LAYER_2
  2
AIGNBL020200F3
 70
64
 10
0
 20
0
 30
0
  3
AIGNBL020200F3
  0
POLYLINE
  8
LAYER_2
 40
0.2469
 41
0.2469
 66
1
 10
0
 20
0
 30
0
  0
VERTEX
  8
LAYER_2
 10
81.5712
 20
187.9954
 42
0.4142410423
  0
VERTEX
  8
LAYER_2
 10
82.5714
 20
188.9954
  0
SEQEND
  0
ENDBLK
  0
BLOCK
  8
LAYER_2
  2
AIGNBL020200F4
 70
64
 10
0
 20
0
 30
0
  3
AIGNBL020200F4
  0
POLYLINE
  8
LAYER_2
 40
0.2469
 41
0.2469
 66
1
 10
0
 20
0
 30
0
  0
VERTEX
  8
LAYER_2
 10
52.5713
 20
188.9954
 42
0.4142166807
  0
VERTEX
  8
LAYER_2
 10
53.5712
 20
187.9954
  0
SEQEND
  0
ENDBLK
  0
BLOCK
  8
LAYER_2
  2
AIGNBL020200F6
 70
64
 10
0
 20
0
 30
0
  3
AIGNBL020200F6
  0
INSERT
  8
LAYER_2
  2
AIGNBL020300F7
 10
0
 20
0
 30
0
  0
INSERT
  8
LAYER_2
  2
AIGNBL020300F8
 10
0
 20
0
 30
0
  0
INSERT
  8
LAYER_2
  2
AIGNBL020300F9
 10
0
 20
0
 30
0
  0
INSERT
  8
LAYER_2
  2
AIGNBL020300FA
 10
0
 20
0
 30
0
  0
INSERT
  8
LAYER_2
  2
AIGNBL020300FB
 10
0
 20
0
 30
0
  0
INSERT
  8
LAYER_2
  2
AIGNBL020300FC
 10
0
 20
0
 30
0
  0
INSERT
  8
LAYER_2
  2
AIGNBL020300FD
 10
0
 20
0
 30
0
  0
INSERT
  8
LAYER_2
  2
AIGNBL020300FE
 10
0
 20
0
 30
0
  0
INSERT
  8
LAYER_2
  2
AIGNBL020300FF
 10
0
 20
0
 30
0
  0
INSERT
  8
LAYER_2
  2
AIGNBL02030100
 10
0
 20
0
 30
0
  0
INSERT
  8
LAYER_2
  2
AIGNBL02030101
 10
0
 20
0
 30
0
  0
INSERT
  8
LAYER_2
  2
AIGNBL02030102
 10
0
 20
0
 30
0
  0
INSERT
  8
LAYER_2
  2
AIGNBL02030103
 10
0
 20
0
 30
0
  0
INSERT
  8
LAYER_2
  2
AIGNBL02030104
 10
0
 20
0
 30
0
  0
INSERT
  8
LAYER_2
  2
AIGNBL02030105
 10
0
 20
0
 30
0
  0
INSERT
  8
LAYER_2
  2
AIGNBL02030106
 10
0
 20
0
 30
0
  0
INSERT
  8
LAYER_2
  2
AIGNBL02030107
 10
0
 20
0
 30
0
  0
ENDBLK
  0
BLOCK
  8
LAYER_2
  2
AIGNBL02020108
 70
64
 10
0
 20
0
 30
0
  3
AIGNBL02020108
  0
INSERT
  8
LAYER_2
  2
AIGNBL02030109
 10
0
 20
0
 30
0
  0
INSERT
  8
LAYER_2
  2
AIGNBL0203010A
 10
0
 20
0
 30
0
  0
ENDBLK
  0
BLOCK
  8
LAYER_2
  2
AIGNBL0202010B
 70
64
 10
0
 20
0
 30
0
  3
AIGNBL0202010B
  0
INSERT
  8
LAYER_2
  2
AIGNBL0203010C
 10
0
 20
0
 30
0
  0
INSERT
  8
LAYER_2
  2
AIGNBL0203010D
 10
0
 20
0
 30
0
  0
INSERT
  8
LAYER_2
  2
AIGNBL0203010E
 10
0
 20
0
 30
0
  0
INSERT
  8
LAYER_2
  2
AIGNBL0203010F
 10
0
 20
0
 30
0
  0
INSERT
  8
LAYER_2
  2
AIGNBL02030110
 10
0
 20
0
 30
0
  0
INSERT
  8
LAYER_2
  2
AIGNBL02030111
 10
0
 20
0
 30
0
  0
INSERT
  8
LAYER_2
  2
AIGNBL02030112
 10
0
 20
0
 30
0
  0
INSERT
  8
LAYER_2
  2
AIGNBL02030113
 10
0
 20
0
 30
0
  0
INSERT
  8
LAYER_2
  2
AIGNBL02030114
 10
0
 20
0
 30
0
  0
INSERT
  8
LAYER_2
  2
AIGNBL02030115
 10
0
 20
0
 30
0
  0
INSERT
  8
LAYER_2
  2
AIGNBL02030116
 10
0
 20
0
 30
0
  0
ENDBLK
  0
BLOCK
  8
LAYER_2
  2
AIGNBL0202012C
 70
64
 10
0
 20
0
 30
0
  3
AIGNBL0202012C
  0
POLYLINE
  8
LAYER_2
 40
0.2469
 41
0.2469
 66
1
 10
0
 20
0
 30
0
  0
VERTEX
  8
LAYER_2
 10
96.1285
 20
58.1205
  0
VERTEX
  8
LAYER_2
 10
120.3785
 20
58.1205
  0
SEQEND
  0
ENDBLK
  0
BLOCK
  8
LAYER_2
  2
AIGNBL0202012D
 70
64
 10
0
 20
0
 30
0
  3
AIGNBL0202012D
  0
POLYLINE
  8
LAYER_2
 40
0.2469
 41
0.2469
 66
1
 10
0
 20
0
 30
0
  0
VERTEX
  8
LAYER_2
 10
120.3785
 20
71.8702
  0
VERTEX
  8
LAYER_2
 10
120.3785
 20
57.3705
  0
SEQEND
  0
ENDBLK
  0
BLOCK
  8
LAYER_2
  2
AIGNBL0202012E
 70
64
 10
0
 20
0
 30
0
  3
AIGNBL0202012E
  0
POLYLINE
  8
LAYER_2
 40
0.2469
 41
0.2469
 66
1
 10
0
 20
0
 30
0
  0
VERTEX
  8
LAYER_2
 10
96.1285
 20
73.8205
  0
VERTEX
  8
LAYER_2
 10
96.1285
 20
57.3705
  0
SEQEND
  0
ENDBLK
  0
BLOCK
  8
LAYER_2
  2
AIGNBL0202012F
 70
64
 10
0
 20
0
 30
0
  3
AIGNBL0202012F
  0
POLYLINE
  8
LAYER_2
 40
0.05
 41
0.05
 66
1
 10
0
 20
0
 30
0
 70
1
  0
VERTEX
  8
LAYER_2
 10
98.7533
 20
58.466
  0
VERTEX
  8
LAYER_2
 10
98.7533
 20
57.7749
  0
VERTEX
  8
LAYER_2
 10
96.1285
 20
58.1205
  0
SEQEND
  0
ENDBLK
  0
BLOCK
  8
LAYER_2
  2
AIGNBL02020130
 70
64
 10
0
 20
0
 30
0
  3
AIGNBL02020130
  0
POLYLINE
  8
LAYER_2
 40
0.05
 41
0.05
 66
1
 10
0
 20
0
 30
0
 70
1
  0
VERTEX
  8
LAYER_2
 10
117.7534
 20
57.7749
  0
VERTEX
  8
LAYER_2
 10
117.7534
 20
58.466
  0
VERTEX
  8
LAYER_2
 10
120.3785
 20
58.1205
  0
SEQEND
  0
ENDBLK
  0
BLOCK
  8
LAYER_2
  2
AIGNBL02020131
 70
64
 10
0
 20
0
 30
0
  3
AIGNBL02020131
  0
TEXT
  8
LAYER_2
 10
105.9436
 20
58.7513
 11
105.9436
 21
58.7513
 40
4.5733
 41
0.5
  1
49
  0
ENDBLK
  0
BLOCK
  8
LAYER_2
  2
AIGNBL02020133
 70
64
 10
0
 20
0
 30
0
  3
AIGNBL02020133
  0
POLYLINE
  8
LAYER_2
 40
0.2469
 41
0.2469
 66
1
 10
0
 20
0
 30
0
  0
VERTEX
  8
LAYER_2
 10
90.0553
 20
98.1205
  0
VERTEX
  8
LAYER_2
 10
90.0553
 20
80.6204
  0
SEQEND
  0
ENDBLK
  0
BLOCK
  8
LAYER_2
  2
AIGNBL02020134
 70
64
 10
0
 20
0
 30
0
  3
AIGNBL02020134
  0
POLYLINE
  8
LAYER_2
 40
0.2469
 41
0.2469
 66
1
 10
0
 20
0
 30
0
  0
VERTEX
  8
LAYER_2
 10
94.6285
 20
80.6204
  0
VERTEX
  8
LAYER_2
 10
89.3053
 20
80.6204
  0
SEQEND
  0
ENDBLK
  0
BLOCK
  8
LAYER_2
  2
AIGNBL02020135
 70
64
 10
0
 20
0
 30
0
  3
AIGNBL02020135
  0
POLYLINE
  8
LAYER_2
 40
0.2469
 41
0.2469
 66
1
 10
0
 20
0
 30
0
  0
VERTEX
  8
LAYER_2
 10
115.7094
 20
98.1205
  0
VERTEX
  8
LAYER_2
 10
89.3053
 20
98.1205
  0
SEQEND
  0
ENDBLK
  0
BLOCK
  8
LAYER_2
  2
AIGNBL02020136
 70
64
 10
0
 20
0
 30
0
  3
AIGNBL02020136
  0
POLYLINE
  8
LAYER_2
 40
0.05
 41
0.05
 66
1
 10
0
 20
0
 30
0
 70
1
  0
VERTEX
  8
LAYER_2
 10
90.401
 20
95.4953
  0
VERTEX
  8
LAYER_2
 10
89.7098
 20
95.4953
  0
VERTEX
  8
LAYER_2
 10
90.0553
 20
98.1205
  0
SEQEND
  0
ENDBLK
  0
BLOCK
  8
LAYER_2
  2
AIGNBL02020137
 70
64
 10
0
 20
0
 30
0
  3
AIGNBL02020137
  0
POLYLINE
  8
LAYER_2
 40
0.05
 41
0.05
 66
1
 10
0
 20
0
 30
0
 70
1
  0
VERTEX
  8
LAYER_2
 10
89.7098
 20
83.2452
  0
VERTEX
  8
LAYER_2
 10
90.401
 20
83.2452
  0
VERTEX
  8
LAYER_2
 10
90.0553
 20
80.6204
  0
SEQEND
  0
ENDBLK
  0
BLOCK
  8
LAYER_2
  2
AIGNBL02020138
 70
64
 10
0
 20
0
 30
0
  3
AIGNBL02020138
  0
TEXT
  8
LAYER_2
 10
89.4212
 20
88.4594
 11
89.4212
 21
88.4594
 40
4.5733
 41
0.5
 50
89.99999999
  1
35
  0
ENDBLK
  0
BLOCK
  8
LAYER_2
  2
AIGNBL0202013A
 70
64
 10
0
 20
0
 30
0
  3
AIGNBL0202013A
  0
POLYLINE
  8
LAYER_2
 40
0.2469
 41
0.2469
 66
1
 10
0
 20
0
 30
0
  0
VERTEX
  8
LAYER_2
 10
176.3786
 20
95.6203
  0
VERTEX
  8
LAYER_2
 10
176.3786
 20
65.6205
  0
SEQEND
  0
ENDBLK
  0
BLOCK
  8
LAYER_2
  2
AIGNBL0202013B
 70
64
 10
0
 20
0
 30
0
  3
AIGNBL0202013B
  0
POLYLINE
  8
LAYER_2
 40
0.2469
 41
0.2469
 66
1
 10
0
 20
0
 30
0
  0
VERTEX
  8
LAYER_2
 10
158.8785
 20
65.6205
  0
VERTEX
  8
LAYER_2
 10
177.1286
 20
65.6205
  0
SEQEND
  0
ENDBLK
  0
BLOCK
  8
LAYER_2
  2
AIGNBL0202013C
 70
64
 10
0
 20
0
 30
0
  3
AIGNBL0202013C
  0
POLYLINE
  8
LAYER_2
 40
0.2469
 41
0.2469
 66
1
 10
0
 20
0
 30
0
  0
VERTEX
  8
LAYER_2
 10
158.8785
 20
95.6203
  0
VERTEX
  8
LAYER_2
 10
177.1286
 20
95.6203
  0
SEQEND
  0
ENDBLK
  0
BLOCK
  8
LAYER_2
  2
AIGNBL0202013D
 70
64
 10
0
 20
0
 30
0
  3
AIGNBL0202013D
  0
POLYLINE
  8
LAYER_2
 40
0.05
 41
0.05
 66
1
 10
0
 20
0
 30
0
 70
1
  0
VERTEX
  8
LAYER_2
 10
176.7241
 20
92.9955
  0
VERTEX
  8
LAYER_2
 10
176.033
 20
92.9955
  0
VERTEX
  8
LAYER_2
 10
176.3786
 20
95.6203
  0
SEQEND
  0
ENDBLK
  0
BLOCK
  8
LAYER_2
  2
AIGNBL0202013E
 70
64
 10
0
 20
0
 30
0
  3
AIGNBL0202013E
  0
POLYLINE
  8
LAYER_2
 40
0.05
 41
0.05
 66
1
 10
0
 20
0
 30
0
 70
1
  0
VERTEX
  8
LAYER_2
 10
176.033
 20
68.2453
  0
VERTEX
  8
LAYER_2
 10
176.7241
 20
68.2453
  0
VERTEX
  8
LAYER_2
 10
176.3786
 20
65.6205
  0
SEQEND
  0
ENDBLK
  0
BLOCK
  8
LAYER_2
  2
AIGNBL0202013F
 70
64
 10
0
 20
0
 30
0
  3
AIGNBL0202013F
  0
TEXT
  8
LAYER_2
 10
175.3691
 20
79.9266
 11
175.3691
 21
79.9266
 40
4.5733
 41
0.5
 50
89.99999999
  1
60
  0
ENDBLK
  0
BLOCK
  8
LAYER_2
  2
AIGNBL02020141
 70
64
 10
0
 20
0
 30
0
  3
AIGNBL02020141
  0
POLYLINE
  8
LAYER_2
 40
0.2469
 41
0.2469
 66
1
 10
0
 20
0
 30
0
  0
VERTEX
  8
LAYER_2
 10
90.0713
 20
195.4954
  0
VERTEX
  8
LAYER_2
 10
90.0713
 20
187.9954
  0
SEQEND
  0
ENDBLK
  0
BLOCK
  8
LAYER_2
  2
AIGNBL02020142
 70
64
 10
0
 20
0
 30
0
  3
AIGNBL02020142
  0
POLYLINE
  8
LAYER_2
 40
0.2469
 41
0.2469
 66
1
 10
0
 20
0
 30
0
  0
VERTEX
  8
LAYER_2
 10
81.5712
 20
187.9954
  0
VERTEX
  8
LAYER_2
 10
90.8213
 20
187.9954
  0
SEQEND
  0
ENDBLK
  0
BLOCK
  8
LAYER_2
  2
AIGNBL02020143
 70
64
 10
0
 20
0
 30
0
  3
AIGNBL02020143
  0
POLYLINE
  8
LAYER_2
 40
0.2469
 41
0.2469
 66
1
 10
0
 20
0
 30
0
  0
VERTEX
  8
LAYER_2
 10
82.5714
 20
195.4954
  0
VERTEX
  8
LAYER_2
 10
90.8213
 20
195.4954
  0
SEQEND
  0
ENDBLK
  0
BLOCK
  8
LAYER_2
  2
AIGNBL02020144
 70
64
 10
0
 20
0
 30
0
  3
AIGNBL02020144
  0
POLYLINE
  8
LAYER_2
 40
0.05
 41
0.05
 66
1
 10
0
 20
0
 30
0
 70
1
  0
VERTEX
  8
LAYER_2
 10
90.4169
 20
192.8704
  0
VERTEX
  8
LAYER_2
 10
89.7258
 20
192.8704
  0
VERTEX
  8
LAYER_2
 10
90.0713
 20
195.4954
  0
SEQEND
  0
ENDBLK
  0
BLOCK
  8
LAYER_2
  2
AIGNBL02020145
 70
64
 10
0
 20
0
 30
0
  3
AIGNBL02020145
  0
POLYLINE
  8
LAYER_2
 40
0.05
 41
0.05
 66
1
 10
0
 20
0
 30
0
 70
1
  0
VERTEX
  8
LAYER_2
 10
89.7258
 20
190.6204
  0
VERTEX
  8
LAYER_2
 10
90.4169
 20
190.6204
  0
VERTEX
  8
LAYER_2
 10
90.0713
 20
187.9954
  0
SEQEND
  0
ENDBLK
  0
BLOCK
  8
LAYER_2
  2
AIGNBL02020146
 70
64
 10
0
 20
0
 30
0
  3
AIGNBL02020146
  0
TEXT
  8
LAYER_2
 10
89.4371
 20
189.4954
 11
89.4371
 21
189.4954
 40
4.5733
 41
0.5
 50
89.99999999
  1
15
  0
ENDBLK
  0
BLOCK
  8
LAYER_2
  2
AIGNBL02020148
 70
64
 10
0
 20
0
 30
0
  3
AIGNBL02020148
  0
POLYLINE
  8
LAYER_2
 40
0.2469
 41
0.2469
 66
1
 10
0
 20
0
 30
0
  0
VERTEX
  8
LAYER_2
 10
52.3286
 20
179.9954
  0
VERTEX
  8
LAYER_2
 10
58.1429
 20
179.9954
  0
SEQEND
  0
ENDBLK
  0
BLOCK
  8
LAYER_2
  2
AIGNBL02020149
 70
64
 10
0
 20
0
 30
0
  3
AIGNBL02020149
  0
POLYLINE
  8
LAYER_2
 40
0.2469
 41
0.2469
 66
1
 10
0
 20
0
 30
0
  0
VERTEX
  8
LAYER_2
 10
58.1429
 20
179.9954
  0
VERTEX
  8
LAYER_2
 10
71.1429
 20
179.9954
  0
SEQEND
  0
ENDBLK
  0
BLOCK
  8
LAYER_2
  2
AIGNBL0202014A
 70
64
 10
0
 20
0
 30
0
  3
AIGNBL0202014A
  0
POLYLINE
  8
LAYER_2
 40
0.2469
 41
0.2469
 66
1
 10
0
 20
0
 30
0
  0
VERTEX
  8
LAYER_2
 10
74.0713
 20
174.9232
  0
VERTEX
  8
LAYER_2
 10
70.7678
 20
180.645
  0
SEQEND
  0
ENDBLK
  0
BLOCK
  8
LAYER_2
  2
AIGNBL0202014B
 70
64
 10
0
 20
0
 30
0
  3
AIGNBL0202014B
  0
POLYLINE
  8
LAYER_2
 40
0.2469
 41
0.2469
 66
1
 10
0
 20
0
 30
0
  0
VERTEX
  8
LAYER_2
 10
61.0712
 20
174.9232
  0
VERTEX
  8
LAYER_2
 10
57.7679
 20
180.645
  0
SEQEND
  0
ENDBLK
  0
BLOCK
  8
LAYER_2
  2
AIGNBL0202014C
 70
64
 10
0
 20
0
 30
0
  3
AIGNBL0202014C
  0
POLYLINE
  8
LAYER_2
 40
0.05
 41
0.05
 66
1
 10
0
 20
0
 30
0
 70
1
  0
VERTEX
  8
LAYER_2
 10
60.7679
 20
180.3409
  0
VERTEX
  8
LAYER_2
 10
60.7679
 20
179.6497
  0
VERTEX
  8
LAYER_2
 10
58.1429
 20
179.9954
  0
SEQEND
  0
ENDBLK
  0
BLOCK
  8
LAYER_2
  2
AIGNBL0202014D
 70
64
 10
0
 20
0
 30
0
  3
AIGNBL0202014D
  0
POLYLINE
  8
LAYER_2
 40
0.05
 41
0.05
 66
1
 10
0
 20
0
 30
0
 70
1
  0
VERTEX
  8
LAYER_2
 10
68.5178
 20
179.6497
  0
VERTEX
  8
LAYER_2
 10
68.5178
 20
180.3409
  0
VERTEX
  8
LAYER_2
 10
71.1429
 20
179.9954
  0
SEQEND
  0
ENDBLK
  0
BLOCK
  8
LAYER_2
  2
AIGNBL0202014E
 70
64
 10
0
 20
0
 30
0
  3
AIGNBL0202014E
  0
TEXT
  8
LAYER_2
 10
51.9872
 20
180.626
 11
51.9872
 21
180.626
 40
4.5733
 41
0.5
  1
26
  0
ENDBLK
  0
BLOCK
  8
LAYER_2
  2
AIGNBL02020150
 70
64
 10
0
 20
0
 30
0
  3
AIGNBL02020150
  0
POLYLINE
  8
LAYER_2
 40
0.2469
 41
0.2469
 66
1
 10
0
 20
0
 30
0
  0
VERTEX
  8
LAYER_2
 10
120.3785
 20
58.1205
  0
VERTEX
  8
LAYER_2
 10
168.8786
 20
58.1205
  0
SEQEND
  0
ENDBLK
  0
BLOCK
  8
LAYER_2
  2
AIGNBL02020151
 70
64
 10
0
 20
0
 30
0
  3
AIGNBL02020151
  0
POLYLINE
  8
LAYER_2
 40
0.2469
 41
0.2469
 66
1
 10
0
 20
0
 30
0
  0
VERTEX
  8
LAYER_2
 10
168.8786
 20
76.2489
  0
VERTEX
  8
LAYER_2
 10
168.8786
 20
57.3705
  0
SEQEND
  0
ENDBLK
  0
BLOCK
  8
LAYER_2
  2
AIGNBL02020152
 70
64
 10
0
 20
0
 30
0
  3
AIGNBL02020152
  0
POLYLINE
  8
LAYER_2
 40
0.2469
 41
0.2469
 66
1
 10
0
 20
0
 30
0
  0
VERTEX
  8
LAYER_2
 10
120.3785
 20
71.8702
  0
VERTEX
  8
LAYER_2
 10
120.3785
 20
57.3705
  0
SEQEND
  0
ENDBLK
  0
BLOCK
  8
LAYER_2
  2
AIGNBL02020153
 70
64
 10
0
 20
0
 30
0
  3
AIGNBL02020153
  0
POLYLINE
  8
LAYER_2
 40
0.05
 41
0.05
 66
1
 10
0
 20
0
 30
0
 70
1
  0
VERTEX
  8
LAYER_2
 10
123.0033
 20
58.466
  0
VERTEX
  8
LAYER_2
 10
123.0033
 20
57.7749
  0
VERTEX
  8
LAYER_2
 10
120.3785
 20
58.1205
  0
SEQEND
  0
ENDBLK
  0
BLOCK
  8
LAYER_2
  2
AIGNBL02020154
 70
64
 10
0
 20
0
 30
0
  3
AIGNBL02020154
  0
POLYLINE
  8
LAYER_2
 40
0.05
 41
0.05
 66
1
 10
0
 20
0
 30
0
 70
1
  0
VERTEX
  8
LAYER_2
 10
166.2534
 20
57.7749
  0
VERTEX
  8
LAYER_2
 10
166.2534
 20
58.466
  0
VERTEX
  8
LAYER_2
 10
168.8786
 20
58.1205
  0
SEQEND
  0
ENDBLK
  0
BLOCK
  8
LAYER_2
  2
AIGNBL02020155
 70
64
 10
0
 20
0
 30
0
  3
AIGNBL02020155
  0
TEXT
  8
LAYER_2
 10
142.3186
 20
58.7513
 11
142.3186
 21
58.7513
 40
4.5733
 41
0.5
  1
97
  0
ENDBLK
  0
BLOCK
  8
LAYER_2
  2
AIGNBL02020157
 70
64
 10
0
 20
0
 30
0
  3
AIGNBL02020157
  0
POLYLINE
  8
LAYER_2
 40
0.2469
 41
0.2469
 66
1
 10
0
 20
0
 30
0
  0
VERTEX
  8
LAYER_2
 10
76.5047
 20
87.3549
  0
VERTEX
  8
LAYER_2
 10
49.2559
 20
66.8131
  0
SEQEND
  0
ENDBLK
  0
BLOCK
  8
LAYER_2
  2
AIGNBL02020158
 70
64
 10
0
 20
0
 30
0
  3
AIGNBL02020158
  0
POLYLINE
  8
LAYER_2
 40
0.05
 41
0.05
 66
1
 10
0
 20
0
 30
0
 70
1
  0
VERTEX
  8
LAYER_2
 10
59.894
 20
74.3999
  0
VERTEX
  8
LAYER_2
 10
59.4779
 20
74.9518
  0
VERTEX
  8
LAYER_2
 10
61.7819
 20
76.2562
  0
SEQEND
  0
ENDBLK
  0
BLOCK
  8
LAYER_2
  2
AIGNBL02020159
 70
64
 10
0
 20
0
 30
0
  3
AIGNBL02020159
  0
POLYLINE
  8
LAYER_2
 40
0.05
 41
0.05
 66
1
 10
0
 20
0
 30
0
 70
1
  0
VERTEX
  8
LAYER_2
 10
75.2486
 20
86.8409
  0
VERTEX
  8
LAYER_2
 10
75.6646
 20
86.289
  0
VERTEX
  8
LAYER_2
 10
73.3606
 20
84.9846
  0
SEQEND
  0
ENDBLK
  0
BLOCK
  8
LAYER_2
  2
AIGNBL0202015A
 70
64
 10
0
 20
0
 30
0
  3
AIGNBL0202015A
  0
TEXT
  8
LAYER_2
 10
50.7061
 20
69.163
 11
50.7061
 21
69.163
 40
4.5733
 41
0.5
 50
37.0110715
  1
29
  0
ENDBLK
  0
BLOCK
  8
LAYER_7
  2
AIGNBL07020004
 70
64
 10
0
 20
0
 30
0
  3
AIGNBL07020004
  0
INSERT
  8
LAYER_7
  2
AIGNBL07030005
 10
0
 20
0
 30
0
  0
ENDBLK
  0
BLOCK
  8
LAYER_7
  2
AIGNBL0702000D
 70
64
 10
0
 20
0
 30
0
  3
AIGNBL0702000D
  0
INSERT
  8
LAYER_7
  2
AIGNBL0703000E
 10
0
 20
0
 30
0
  0
INSERT
  8
LAYER_7
  2
AIGNBL0703000F
 10
0
 20
0
 30
0
  0
INSERT
  8
LAYER_7
  2
AIGNBL07030010
 10
0
 20
0
 30
0
  0
INSERT
  8
LAYER_7
  2
AIGNBL07030011
 10
0
 20
0
 30
0
  0
INSERT
  8
LAYER_7
  2
AIGNBL07030012
 10
0
 20
0
 30
0
  0
INSERT
  8
LAYER_7
  2
AIGNBL07030013
 10
0
 20
0
 30
0
  0
INSERT
  8
LAYER_7
  2
AIGNBL07030014
 10
0
 20
0
 30
0
  0
INSERT
  8
LAYER_7
  2
AIGNBL07030015
 10
0
 20
0
 30
0
  0
INSERT
  8
LAYER_7
  2
AIGNBL07030016
 10
0
 20
0
 30
0
  0
INSERT
  8
LAYER_7
  2
AIGNBL07030017
 10
0
 20
0
 30
0
  0
INSERT
  8
LAYER_7
  2
AIGNBL07030018
 10
0
 20
0
 30
0
  0
INSERT
  8
LAYER_7
  2
AIGNBL07030019
 10
0
 20
0
 30
0
  0
INSERT
  8
LAYER_7
  2
AIGNBL0703001A
 10
0
 20
0
 30
0
  0
INSERT
  8
LAYER_7
  2
AIGNBL0703001B
 10
0
 20
0
 30
0
  0
INSERT
  8
LAYER_7
  2
AIGNBL0703001C
 10
0
 20
0
 30
0
  0
INSERT
  8
LAYER_7
  2
AIGNBL0703001D
 10
0
 20
0
 30
0
  0
INSERT
  8
LAYER_7
  2
AIGNBL0703001E
 10
0
 20
0
 30
0
  0
INSERT
  8
LAYER_7
  2
AIGNBL0703001F
 10
0
 20
0
 30
0
  0
INSERT
  8
LAYER_7
  2
AIGNBL07030020
 10
0
 20
0
 30
0
  0
INSERT
  8
LAYER_7
  2
AIGNBL07030021
 10
0
 20
0
 30
0
  0
INSERT
  8
LAYER_7
  2
AIGNBL07030022
 10
0
 20
0
 30
0
  0
INSERT
  8
LAYER_7
  2
AIGNBL07030023
 10
0
 20
0
 30
0
  0
INSERT
  8
LAYER_7
  2
AIGNBL07030024
 10
0
 20
0
 30
0
  0
ENDBLK
  0
BLOCK
  8
LAYER_1
  2
AIGNBL01010002
 70
64
 10
0
 20
0
 30
0
  3
AIGNBL01010002
  0
TEXT
  8
LAYER_1
 10
80.175
 20
64.8836
 11
80.175
 21
64.8836
 40
4.0117
 41
0.5
  1
閉
  0
ENDBLK
  0
BLOCK
  8
LAYER_1
  2
AIGNBL01010003
 70
64
 10
0
 20
0
 30
0
  3
AIGNBL01010003
  0
TEXT
  8
LAYER_1
 10
80.175
 20
94.4821
 11
80.175
 21
94.4821
 40
4.0117
 41
0.5
  1
開
  0
ENDBLK
  0
BLOCK
  8
LAYER_2
  2
AIGNBL02010002
 70
64
 10
0
 20
0
 30
0
  3
AIGNBL02010002
  0
INSERT
  8
LAYER_2
  2
AIGNBL02020003
 10
0
 20
0
 30
0
  0
INSERT
  8
LAYER_2
  2
AIGNBL02020004
 10
0
 20
0
 30
0
  0
INSERT
  8
LAYER_2
  2
AIGNBL02020005
 10
0
 20
0
 30
0
  0
INSERT
  8
LAYER_2
  2
AIGNBL02020006
 10
0
 20
0
 30
0
  0
INSERT
  8
LAYER_2
  2
AIGNBL02020007
 10
0
 20
0
 30
0
  0
INSERT
  8
LAYER_2
  2
AIGNBL02020008
 10
0
 20
0
 30
0
  0
ENDBLK
  0
BLOCK
  8
LAYER_2
  2
AIGNBL02010009
 70
64
 10
0
 20
0
 30
0
  3
AIGNBL02010009
  0
INSERT
  8
LAYER_2
  2
AIGNBL0202000A
 10
0
 20
0
 30
0
  0
INSERT
  8
LAYER_2
  2
AIGNBL0202000B
 10
0
 20
0
 30
0
  0
INSERT
  8
LAYER_2
  2
AIGNBL0202000C
 10
0
 20
0
 30
0
  0
INSERT
  8
LAYER_2
  2
AIGNBL0202000D
 10
0
 20
0
 30
0
  0
INSERT
  8
LAYER_2
  2
AIGNBL0202000E
 10
0
 20
0
 30
0
  0
INSERT
  8
LAYER_2
  2
AIGNBL0202000F
 10
0
 20
0
 30
0
  0
INSERT
  8
LAYER_2
  2
AIGNBL02020010
 10
0
 20
0
 30
0
  0
INSERT
  8
LAYER_2
  2
AIGNBL02020011
 10
0
 20
0
 30
0
  0
INSERT
  8
LAYER_2
  2
AIGNBL02020012
 10
0
 20
0
 30
0
  0
INSERT
  8
LAYER_2
  2
AIGNBL02020013
 10
0
 20
0
 30
0
  0
INSERT
  8
LAYER_2
  2
AIGNBL02020014
 10
0
 20
0
 30
0
  0
INSERT
  8
LAYER_2
  2
AIGNBL02020015
 10
0
 20
0
 30
0
  0
INSERT
  8
LAYER_2
  2
AIGNBL02020016
 10
0
 20
0
 30
0
  0
INSERT
  8
LAYER_2
  2
AIGNBL02020017
 10
0
 20
0
 30
0
  0
INSERT
  8
LAYER_2
  2
AIGNBL02020018
 10
0
 20
0
 30
0
  0
INSERT
  8
LAYER_2
  2
AIGNBL02020019
 10
0
 20
0
 30
0
  0
INSERT
  8
LAYER_2
  2
AIGNBL0202001A
 10
0
 20
0
 30
0
  0
INSERT
  8
LAYER_2
  2
AIGNBL0202001B
 10
0
 20
0
 30
0
  0
INSERT
  8
LAYER_2
  2
AIGNBL0202001C
 10
0
 20
0
 30
0
  0
INSERT
  8
LAYER_2
  2
AIGNBL0202001D
 10
0
 20
0
 30
0
  0
ENDBLK
  0
BLOCK
  8
LAYER_2
  2
AIGNBL0201001E
 70
64
 10
0
 20
0
 30
0
  3
AIGNBL0201001E
  0
INSERT
  8
LAYER_2
  2
AIGNBL0202001F
 10
0
 20
0
 30
0
  0
INSERT
  8
LAYER_2
  2
AIGNBL02020020
 10
0
 20
0
 30
0
  0
INSERT
  8
LAYER_2
  2
AIGNBL02020021
 10
0
 20
0
 30
0
  0
INSERT
  8
LAYER_2
  2
AIGNBL02020022
 10
0
 20
0
 30
0
  0
INSERT
  8
LAYER_2
  2
AIGNBL02020023
 10
0
 20
0
 30
0
  0
INSERT
  8
LAYER_2
  2
AIGNBL02020024
 10
0
 20
0
 30
0
  0
INSERT
  8
LAYER_2
  2
AIGNBL02020025
 10
0
 20
0
 30
0
  0
INSERT
  8
LAYER_2
  2
AIGNBL02020026
 10
0
 20
0
 30
0
  0
INSERT
  8
LAYER_2
  2
AIGNBL02020027
 10
0
 20
0
 30
0
  0
INSERT
  8
LAYER_2
  2
AIGNBL02020028
 10
0
 20
0
 30
0
  0
INSERT
  8
LAYER_2
  2
AIGNBL02020029
 10
0
 20
0
 30
0
  0
INSERT
  8
LAYER_2
  2
AIGNBL0202002A
 10
0
 20
0
 30
0
  0
INSERT
  8
LAYER_2
  2
AIGNBL0202002B
 10
0
 20
0
 30
0
  0
INSERT
  8
LAYER_2
  2
AIGNBL0202002C
 10
0
 20
0
 30
0
  0
INSERT
  8
LAYER_2
  2
AIGNBL0202002D
 10
0
 20
0
 30
0
  0
INSERT
  8
LAYER_2
  2
AIGNBL0202002E
 10
0
 20
0
 30
0
  0
INSERT
  8
LAYER_2
  2
AIGNBL0202002F
 10
0
 20
0
 30
0
  0
INSERT
  8
LAYER_2
  2
AIGNBL02020030
 10
0
 20
0
 30
0
  0
INSERT
  8
LAYER_2
  2
AIGNBL02020031
 10
0
 20
0
 30
0
  0
INSERT
  8
LAYER_2
  2
AIGNBL02020032
 10
0
 20
0
 30
0
  0
INSERT
  8
LAYER_2
  2
AIGNBL02020033
 10
0
 20
0
 30
0
  0
INSERT
  8
LAYER_2
  2
AIGNBL02020034
 10
0
 20
0
 30
0
  0
ENDBLK
  0
BLOCK
  8
LAYER_2
  2
AIGNBL02010035
 70
64
 10
0
 20
0
 30
0
  3
AIGNBL02010035
  0
INSERT
  8
LAYER_2
  2
AIGNBL02020036
 10
0
 20
0
 30
0
  0
INSERT
  8
LAYER_2
  2
AIGNBL02020037
 10
0
 20
0
 30
0
  0
INSERT
  8
LAYER_2
  2
AIGNBL02020038
 10
0
 20
0
 30
0
  0
INSERT
  8
LAYER_2
  2
AIGNBL02020039
 10
0
 20
0
 30
0
  0
INSERT
  8
LAYER_2
  2
AIGNBL0202003A
 10
0
 20
0
 30
0
  0
INSERT
  8
LAYER_2
  2
AIGNBL0202003B
 10
0
 20
0
 30
0
  0
INSERT
  8
LAYER_2
  2
AIGNBL0202003C
 10
0
 20
0
 30
0
  0
INSERT
  8
LAYER_2
  2
AIGNBL0202003D
 10
0
 20
0
 30
0
  0
INSERT
  8
LAYER_2
  2
AIGNBL0202003E
 10
0
 20
0
 30
0
  0
INSERT
  8
LAYER_2
  2
AIGNBL0202003F
 10
0
 20
0
 30
0
  0
INSERT
  8
LAYER_2
  2
AIGNBL02020040
 10
0
 20
0
 30
0
  0
INSERT
  8
LAYER_2
  2
AIGNBL02020041
 10
0
 20
0
 30
0
  0
INSERT
  8
LAYER_2
  2
AIGNBL02020042
 10
0
 20
0
 30
0
  0
INSERT
  8
LAYER_2
  2
AIGNBL02020043
 10
0
 20
0
 30
0
  0
INSERT
  8
LAYER_2
  2
AIGNBL02020044
 10
0
 20
0
 30
0
  0
INSERT
  8
LAYER_2
  2
AIGNBL02020045
 10
0
 20
0
 30
0
  0
INSERT
  8
LAYER_2
  2
AIGNBL02020046
 10
0
 20
0
 30
0
  0
INSERT
  8
LAYER_2
  2
AIGNBL02020047
 10
0
 20
0
 30
0
  0
INSERT
  8
LAYER_2
  2
AIGNBL02020048
 10
0
 20
0
 30
0
  0
INSERT
  8
LAYER_2
  2
AIGNBL02020049
 10
0
 20
0
 30
0
  0
INSERT
  8
LAYER_2
  2
AIGNBL0202004A
 10
0
 20
0
 30
0
  0
INSERT
  8
LAYER_2
  2
AIGNBL0202004B
 10
0
 20
0
 30
0
  0
INSERT
  8
LAYER_2
  2
AIGNBL0202004C
 10
0
 20
0
 30
0
  0
INSERT
  8
LAYER_2
  2
AIGNBL0202004D
 10
0
 20
0
 30
0
  0
INSERT
  8
LAYER_2
  2
AIGNBL0202004E
 10
0
 20
0
 30
0
  0
INSERT
  8
LAYER_2
  2
AIGNBL0202004F
 10
0
 20
0
 30
0
  0
INSERT
  8
LAYER_2
  2
AIGNBL02020050
 10
0
 20
0
 30
0
  0
INSERT
  8
LAYER_2
  2
AIGNBL02020051
 10
0
 20
0
 30
0
  0
INSERT
  8
LAYER_2
  2
AIGNBL02020052
 10
0
 20
0
 30
0
  0
INSERT
  8
LAYER_2
  2
AIGNBL02020053
 10
0
 20
0
 30
0
  0
INSERT
  8
LAYER_2
  2
AIGNBL02020054
 10
0
 20
0
 30
0
  0
INSERT
  8
LAYER_2
  2
AIGNBL02020055
 10
0
 20
0
 30
0
  0
INSERT
  8
LAYER_2
  2
AIGNBL02020056
 10
0
 20
0
 30
0
  0
INSERT
  8
LAYER_2
  2
AIGNBL02020057
 10
0
 20
0
 30
0
  0
INSERT
  8
LAYER_2
  2
AIGNBL02020058
 10
0
 20
0
 30
0
  0
INSERT
  8
LAYER_2
  2
AIGNBL02020059
 10
0
 20
0
 30
0
  0
INSERT
  8
LAYER_2
  2
AIGNBL0202005A
 10
0
 20
0
 30
0
  0
INSERT
  8
LAYER_2
  2
AIGNBL0202005B
 10
0
 20
0
 30
0
  0
INSERT
  8
LAYER_2
  2
AIGNBL0202005C
 10
0
 20
0
 30
0
  0
INSERT
  8
LAYER_2
  2
AIGNBL0202005D
 10
0
 20
0
 30
0
  0
INSERT
  8
LAYER_2
  2
AIGNBL0202005E
 10
0
 20
0
 30
0
  0
INSERT
  8
LAYER_2
  2
AIGNBL0202005F
 10
0
 20
0
 30
0
  0
INSERT
  8
LAYER_2
  2
AIGNBL02020060
 10
0
 20
0
 30
0
  0
INSERT
  8
LAYER_2
  2
AIGNBL02020061
 10
0
 20
0
 30
0
  0
INSERT
  8
LAYER_2
  2
AIGNBL02020062
 10
0
 20
0
 30
0
  0
INSERT
  8
LAYER_2
  2
AIGNBL02020063
 10
0
 20
0
 30
0
  0
INSERT
  8
LAYER_2
  2
AIGNBL02020064
 10
0
 20
0
 30
0
  0
INSERT
  8
LAYER_2
  2
AIGNBL02020065
 10
0
 20
0
 30
0
  0
INSERT
  8
LAYER_2
  2
AIGNBL02020066
 10
0
 20
0
 30
0
  0
INSERT
  8
LAYER_2
  2
AIGNBL02020067
 10
0
 20
0
 30
0
  0
INSERT
  8
LAYER_2
  2
AIGNBL02020068
 10
0
 20
0
 30
0
  0
INSERT
  8
LAYER_2
  2
AIGNBL02020069
 10
0
 20
0
 30
0
  0
INSERT
  8
LAYER_2
  2
AIGNBL0202006A
 10
0
 20
0
 30
0
  0
INSERT
  8
LAYER_2
  2
AIGNBL0202006B
 10
0
 20
0
 30
0
  0
INSERT
  8
LAYER_2
  2
AIGNBL0202006C
 10
0
 20
0
 30
0
  0
INSERT
  8
LAYER_2
  2
AIGNBL0202006D
 10
0
 20
0
 30
0
  0
INSERT
  8
LAYER_2
  2
AIGNBL0202006E
 10
0
 20
0
 30
0
  0
INSERT
  8
LAYER_2
  2
AIGNBL0202006F
 10
0
 20
0
 30
0
  0
INSERT
  8
LAYER_2
  2
AIGNBL02020070
 10
0
 20
0
 30
0
  0
INSERT
  8
LAYER_2
  2
AIGNBL02020071
 10
0
 20
0
 30
0
  0
INSERT
  8
LAYER_2
  2
AIGNBL02020072
 10
0
 20
0
 30
0
  0
INSERT
  8
LAYER_2
  2
AIGNBL02020073
 10
0
 20
0
 30
0
  0
INSERT
  8
LAYER_2
  2
AIGNBL02020074
 10
0
 20
0
 30
0
  0
INSERT
  8
LAYER_2
  2
AIGNBL02020075
 10
0
 20
0
 30
0
  0
INSERT
  8
LAYER_2
  2
AIGNBL02020076
 10
0
 20
0
 30
0
  0
INSERT
  8
LAYER_2
  2
AIGNBL02020077
 10
0
 20
0
 30
0
  0
INSERT
  8
LAYER_2
  2
AIGNBL02020078
 10
0
 20
0
 30
0
  0
INSERT
  8
LAYER_2
  2
AIGNBL02020079
 10
0
 20
0
 30
0
  0
INSERT
  8
LAYER_2
  2
AIGNBL0202007A
 10
0
 20
0
 30
0
  0
INSERT
  8
LAYER_2
  2
AIGNBL0202007B
 10
0
 20
0
 30
0
  0
INSERT
  8
LAYER_2
  2
AIGNBL0202007C
 10
0
 20
0
 30
0
  0
INSERT
  8
LAYER_2
  2
AIGNBL0202007D
 10
0
 20
0
 30
0
  0
INSERT
  8
LAYER_2
  2
AIGNBL0202007E
 10
0
 20
0
 30
0
  0
INSERT
  8
LAYER_2
  2
AIGNBL0202007F
 10
0
 20
0
 30
0
  0
INSERT
  8
LAYER_2
  2
AIGNBL02020080
 10
0
 20
0
 30
0
  0
INSERT
  8
LAYER_2
  2
AIGNBL02020081
 10
0
 20
0
 30
0
  0
INSERT
  8
LAYER_2
  2
AIGNBL02020082
 10
0
 20
0
 30
0
  0
INSERT
  8
LAYER_2
  2
AIGNBL02020083
 10
0
 20
0
 30
0
  0
INSERT
  8
LAYER_2
  2
AIGNBL02020084
 10
0
 20
0
 30
0
  0
INSERT
  8
LAYER_2
  2
AIGNBL02020085
 10
0
 20
0
 30
0
  0
INSERT
  8
LAYER_2
  2
AIGNBL02020086
 10
0
 20
0
 30
0
  0
INSERT
  8
LAYER_2
  2
AIGNBL02020087
 10
0
 20
0
 30
0
  0
INSERT
  8
LAYER_2
  2
AIGNBL02020088
 10
0
 20
0
 30
0
  0
INSERT
  8
LAYER_2
  2
AIGNBL02020089
 10
0
 20
0
 30
0
  0
INSERT
  8
LAYER_2
  2
AIGNBL0202008A
 10
0
 20
0
 30
0
  0
INSERT
  8
LAYER_2
  2
AIGNBL0202008B
 10
0
 20
0
 30
0
  0
INSERT
  8
LAYER_2
  2
AIGNBL0202008C
 10
0
 20
0
 30
0
  0
INSERT
  8
LAYER_2
  2
AIGNBL0202008D
 10
0
 20
0
 30
0
  0
INSERT
  8
LAYER_2
  2
AIGNBL0202008E
 10
0
 20
0
 30
0
  0
INSERT
  8
LAYER_2
  2
AIGNBL0202008F
 10
0
 20
0
 30
0
  0
INSERT
  8
LAYER_2
  2
AIGNBL02020090
 10
0
 20
0
 30
0
  0
INSERT
  8
LAYER_2
  2
AIGNBL02020091
 10
0
 20
0
 30
0
  0
INSERT
  8
LAYER_2
  2
AIGNBL02020092
 10
0
 20
0
 30
0
  0
INSERT
  8
LAYER_2
  2
AIGNBL02020093
 10
0
 20
0
 30
0
  0
INSERT
  8
LAYER_2
  2
AIGNBL02020094
 10
0
 20
0
 30
0
  0
INSERT
  8
LAYER_2
  2
AIGNBL02020095
 10
0
 20
0
 30
0
  0
INSERT
  8
LAYER_2
  2
AIGNBL02020096
 10
0
 20
0
 30
0
  0
INSERT
  8
LAYER_2
  2
AIGNBL02020097
 10
0
 20
0
 30
0
  0
INSERT
  8
LAYER_2
  2
AIGNBL02020098
 10
0
 20
0
 30
0
  0
INSERT
  8
LAYER_2
  2
AIGNBL02020099
 10
0
 20
0
 30
0
  0
INSERT
  8
LAYER_2
  2
AIGNBL0202009A
 10
0
 20
0
 30
0
  0
INSERT
  8
LAYER_2
  2
AIGNBL0202009B
 10
0
 20
0
 30
0
  0
INSERT
  8
LAYER_2
  2
AIGNBL0202009C
 10
0
 20
0
 30
0
  0
INSERT
  8
LAYER_2
  2
AIGNBL0202009D
 10
0
 20
0
 30
0
  0
INSERT
  8
LAYER_2
  2
AIGNBL0202009E
 10
0
 20
0
 30
0
  0
INSERT
  8
LAYER_2
  2
AIGNBL0202009F
 10
0
 20
0
 30
0
  0
INSERT
  8
LAYER_2
  2
AIGNBL020200A0
 10
0
 20
0
 30
0
  0
INSERT
  8
LAYER_2
  2
AIGNBL020200A1
 10
0
 20
0
 30
0
  0
INSERT
  8
LAYER_2
  2
AIGNBL020200A2
 10
0
 20
0
 30
0
  0
INSERT
  8
LAYER_2
  2
AIGNBL020200A3
 10
0
 20
0
 30
0
  0
INSERT
  8
LAYER_2
  2
AIGNBL020200A4
 10
0
 20
0
 30
0
  0
INSERT
  8
LAYER_2
  2
AIGNBL020200A5
 10
0
 20
0
 30
0
  0
INSERT
  8
LAYER_2
  2
AIGNBL020200A6
 10
0
 20
0
 30
0
  0
INSERT
  8
LAYER_2
  2
AIGNBL020200A7
 10
0
 20
0
 30
0
  0
INSERT
  8
LAYER_2
  2
AIGNBL020200A8
 10
0
 20
0
 30
0
  0
INSERT
  8
LAYER_2
  2
AIGNBL020200A9
 10
0
 20
0
 30
0
  0
INSERT
  8
LAYER_2
  2
AIGNBL020200AA
 10
0
 20
0
 30
0
  0
INSERT
  8
LAYER_2
  2
AIGNBL020200AB
 10
0
 20
0
 30
0
  0
INSERT
  8
LAYER_2
  2
AIGNBL020200AC
 10
0
 20
0
 30
0
  0
INSERT
  8
LAYER_2
  2
AIGNBL020200AD
 10
0
 20
0
 30
0
  0
INSERT
  8
LAYER_2
  2
AIGNBL020200AE
 10
0
 20
0
 30
0
  0
INSERT
  8
LAYER_2
  2
AIGNBL020200AF
 10
0
 20
0
 30
0
  0
INSERT
  8
LAYER_2
  2
AIGNBL020200B0
 10
0
 20
0
 30
0
  0
ENDBLK
  0
BLOCK
  8
LAYER_2
  2
AIGNBL020100B1
 70
64
 10
0
 20
0
 30
0
  3
AIGNBL020100B1
  0
INSERT
  8
LAYER_2
  2
AIGNBL020200B2
 10
0
 20
0
 30
0
  0
INSERT
  8
LAYER_2
  2
AIGNBL020200B3
 10
0
 20
0
 30
0
  0
INSERT
  8
LAYER_2
  2
AIGNBL020200B4
 10
0
 20
0
 30
0
  0
INSERT
  8
LAYER_2
  2
AIGNBL020200B5
 10
0
 20
0
 30
0
  0
INSERT
  8
LAYER_2
  2
AIGNBL020200B6
 10
0
 20
0
 30
0
  0
INSERT
  8
LAYER_2
  2
AIGNBL020200B7
 10
0
 20
0
 30
0
  0
ENDBLK
  0
BLOCK
  8
LAYER_2
  2
AIGNBL020100B8
 70
64
 10
0
 20
0
 30
0
  3
AIGNBL020100B8
  0
INSERT
  8
LAYER_2
  2
AIGNBL020200B9
 10
0
 20
0
 30
0
  0
INSERT
  8
LAYER_2
  2
AIGNBL020200BA
 10
0
 20
0
 30
0
  0
INSERT
  8
LAYER_2
  2
AIGNBL020200BB
 10
0
 20
0
 30
0
  0
INSERT
  8
LAYER_2
  2
AIGNBL020200BC
 10
0
 20
0
 30
0
  0
INSERT
  8
LAYER_2
  2
AIGNBL020200BD
 10
0
 20
0
 30
0
  0
INSERT
  8
LAYER_2
  2
AIGNBL020200BE
 10
0
 20
0
 30
0
  0
INSERT
  8
LAYER_2
  2
AIGNBL020200BF
 10
0
 20
0
 30
0
  0
INSERT
  8
LAYER_2
  2
AIGNBL020200C0
 10
0
 20
0
 30
0
  0
INSERT
  8
LAYER_2
  2
AIGNBL020200C1
 10
0
 20
0
 30
0
  0
INSERT
  8
LAYER_2
  2
AIGNBL020200C2
 10
0
 20
0
 30
0
  0
INSERT
  8
LAYER_2
  2
AIGNBL020200C3
 10
0
 20
0
 30
0
  0
INSERT
  8
LAYER_2
  2
AIGNBL020200C4
 10
0
 20
0
 30
0
  0
INSERT
  8
LAYER_2
  2
AIGNBL020200C5
 10
0
 20
0
 30
0
  0
INSERT
  8
LAYER_2
  2
AIGNBL020200C6
 10
0
 20
0
 30
0
  0
INSERT
  8
LAYER_2
  2
AIGNBL020200C7
 10
0
 20
0
 30
0
  0
INSERT
  8
LAYER_2
  2
AIGNBL020200C8
 10
0
 20
0
 30
0
  0
INSERT
  8
LAYER_2
  2
AIGNBL020200C9
 10
0
 20
0
 30
0
  0
INSERT
  8
LAYER_2
  2
AIGNBL020200CA
 10
0
 20
0
 30
0
  0
INSERT
  8
LAYER_2
  2
AIGNBL020200CB
 10
0
 20
0
 30
0
  0
INSERT
  8
LAYER_2
  2
AIGNBL020200CC
 10
0
 20
0
 30
0
  0
INSERT
  8
LAYER_2
  2
AIGNBL020200CD
 10
0
 20
0
 30
0
  0
INSERT
  8
LAYER_2
  2
AIGNBL020200CE
 10
0
 20
0
 30
0
  0
INSERT
  8
LAYER_2
  2
AIGNBL020200CF
 10
0
 20
0
 30
0
  0
INSERT
  8
LAYER_2
  2
AIGNBL020200D0
 10
0
 20
0
 30
0
  0
INSERT
  8
LAYER_2
  2
AIGNBL020200D1
 10
0
 20
0
 30
0
  0
INSERT
  8
LAYER_2
  2
AIGNBL020200D2
 10
0
 20
0
 30
0
  0
INSERT
  8
LAYER_2
  2
AIGNBL020200D3
 10
0
 20
0
 30
0
  0
INSERT
  8
LAYER_2
  2
AIGNBL020200D4
 10
0
 20
0
 30
0
  0
INSERT
  8
LAYER_2
  2
AIGNBL020200D5
 10
0
 20
0
 30
0
  0
INSERT
  8
LAYER_2
  2
AIGNBL020200D6
 10
0
 20
0
 30
0
  0
INSERT
  8
LAYER_2
  2
AIGNBL020200D7
 10
0
 20
0
 30
0
  0
INSERT
  8
LAYER_2
  2
AIGNBL020200D8
 10
0
 20
0
 30
0
  0
INSERT
  8
LAYER_2
  2
AIGNBL020200D9
 10
0
 20
0
 30
0
  0
INSERT
  8
LAYER_2
  2
AIGNBL020200DA
 10
0
 20
0
 30
0
  0
INSERT
  8
LAYER_2
  2
AIGNBL020200DB
 10
0
 20
0
 30
0
  0
INSERT
  8
LAYER_2
  2
AIGNBL020200DC
 10
0
 20
0
 30
0
  0
INSERT
  8
LAYER_2
  2
AIGNBL020200DD
 10
0
 20
0
 30
0
  0
INSERT
  8
LAYER_2
  2
AIGNBL020200DE
 10
0
 20
0
 30
0
  0
INSERT
  8
LAYER_2
  2
AIGNBL020200DF
 10
0
 20
0
 30
0
  0
INSERT
  8
LAYER_2
  2
AIGNBL020200E0
 10
0
 20
0
 30
0
  0
INSERT
  8
LAYER_2
  2
AIGNBL020200E1
 10
0
 20
0
 30
0
  0
INSERT
  8
LAYER_2
  2
AIGNBL020200E2
 10
0
 20
0
 30
0
  0
ENDBLK
  0
BLOCK
  8
LAYER_2
  2
AIGNBL020100E3
 70
64
 10
0
 20
0
 30
0
  3
AIGNBL020100E3
  0
INSERT
  8
LAYER_2
  2
AIGNBL020200E4
 10
0
 20
0
 30
0
  0
INSERT
  8
LAYER_2
  2
AIGNBL020200E5
 10
0
 20
0
 30
0
  0
INSERT
  8
LAYER_2
  2
AIGNBL020200E6
 10
0
 20
0
 30
0
  0
INSERT
  8
LAYER_2
  2
AIGNBL020200E7
 10
0
 20
0
 30
0
  0
INSERT
  8
LAYER_2
  2
AIGNBL020200E8
 10
0
 20
0
 30
0
  0
INSERT
  8
LAYER_2
  2
AIGNBL020200E9
 10
0
 20
0
 30
0
  0
INSERT
  8
LAYER_2
  2
AIGNBL020200EA
 10
0
 20
0
 30
0
  0
INSERT
  8
LAYER_2
  2
AIGNBL020200EB
 10
0
 20
0
 30
0
  0
INSERT
  8
LAYER_2
  2
AIGNBL020200EC
 10
0
 20
0
 30
0
  0
INSERT
  8
LAYER_2
  2
AIGNBL020200ED
 10
0
 20
0
 30
0
  0
INSERT
  8
LAYER_2
  2
AIGNBL020200EE
 10
0
 20
0
 30
0
  0
INSERT
  8
LAYER_2
  2
AIGNBL020200EF
 10
0
 20
0
 30
0
  0
INSERT
  8
LAYER_2
  2
AIGNBL020200F0
 10
0
 20
0
 30
0
  0
INSERT
  8
LAYER_2
  2
AIGNBL020200F1
 10
0
 20
0
 30
0
  0
INSERT
  8
LAYER_2
  2
AIGNBL020200F2
 10
0
 20
0
 30
0
  0
INSERT
  8
LAYER_2
  2
AIGNBL020200F3
 10
0
 20
0
 30
0
  0
INSERT
  8
LAYER_2
  2
AIGNBL020200F4
 10
0
 20
0
 30
0
  0
ENDBLK
  0
BLOCK
  8
LAYER_2
  2
AIGNBL020100F5
 70
64
 10
0
 20
0
 30
0
  3
AIGNBL020100F5
  0
INSERT
  8
LAYER_2
  2
AIGNBL020200F6
 10
0
 20
0
 30
0
  0
INSERT
  8
LAYER_2
  2
AIGNBL02020108
 10
0
 20
0
 30
0
  0
INSERT
  8
LAYER_2
  2
AIGNBL0202010B
 10
0
 20
0
 30
0
  0
ENDBLK
  0
BLOCK
  8
LAYER_2
  2
AIGNBL02010117
 70
64
 10
0
 20
0
 30
0
  3
AIGNBL02010117
  0
POLYLINE
  8
LAYER_2
 40
0.2469
 41
0.2469
 66
1
 10
0
 20
0
 30
0
  0
VERTEX
  8
LAYER_2
 10
79.1504
 20
63.9461
  0
VERTEX
  8
LAYER_2
 10
83.2378
 20
63.9461
  0
SEQEND
  0
ENDBLK
  0
BLOCK
  8
LAYER_2
  2
AIGNBL02010118
 70
64
 10
0
 20
0
 30
0
  3
AIGNBL02010118
  0
POLYLINE
  8
LAYER_2
 40
0.2469
 41
0.2469
 66
1
 10
0
 20
0
 30
0
  0
VERTEX
  8
LAYER_2
 10
79.1504
 20
93.5447
  0
VERTEX
  8
LAYER_2
 10
83.2378
 20
93.5447
  0
SEQEND
  0
ENDBLK
  0
BLOCK
  8
LAYER_2
  2
AIGNBL02010119
 70
64
 10
0
 20
0
 30
0
  3
AIGNBL02010119
  0
POLYLINE
  8
LAYER_2
  6
AIGENLINE002
 40
0.2469
 41
0.2469
 66
1
 10
0
 20
0
 30
0
 70
128
  0
VERTEX
  8
LAYER_2
 10
58.8212
 20
156.9954
  0
VERTEX
  8
LAYER_2
 10
76.3213
 20
156.9954
  0
SEQEND
  0
ENDBLK
  0
BLOCK
  8
LAYER_2
  2
AIGNBL0201011A
 70
64
 10
0
 20
0
 30
0
  3
AIGNBL0201011A
  0
POLYLINE
  8
LAYER_2
  6
AIGENLINE002
 40
0.2469
 41
0.2469
 66
1
 10
0
 20
0
 30
0
 70
128
  0
VERTEX
  8
LAYER_2
 10
67.5714
 20
131.2454
  0
VERTEX
  8
LAYER_2
 10
67.5714
 20
207.7455
  0
SEQEND
  0
ENDBLK
  0
BLOCK
  8
LAYER_2
  2
AIGNBL0201011B
 70
64
 10
0
 20
0
 30
0
  3
AIGNBL0201011B
  0
POLYLINE
  8
LAYER_2
  6
AIGENLINE002
 40
0.2469
 41
0.2469
 66
1
 10
0
 20
0
 30
0
 70
128
  0
VERTEX
  8
LAYER_2
 10
171.1286
 20
80.6204
  0
VERTEX
  8
LAYER_2
 10
94.6285
 20
80.6204
  0
SEQEND
  0
ENDBLK
  0
BLOCK
  8
LAYER_2
  2
AIGNBL0201011C
 70
64
 10
0
 20
0
 30
0
  3
AIGNBL0201011C
  0
POLYLINE
  8
LAYER_2
  6
AIGENLINE002
 40
0.2469
 41
0.2469
 66
1
 10
0
 20
0
 30
0
 70
128
  0
VERTEX
  8
LAYER_2
 10
120.3785
 20
99.6204
  0
VERTEX
  8
LAYER_2
 10
120.3785
 20
71.8702
  0
SEQEND
  0
ENDBLK
  0
BLOCK
  8
LAYER_2
  2
AIGNBL0201011D
 70
64
 10
0
 20
0
 30
0
  3
AIGNBL0201011D
  0
POLYLINE
  8
LAYER_2
  6
AIGENLINE002
 40
0.2469
 41
0.2469
 66
1
 10
0
 20
0
 30
0
 70
128
  0
VERTEX
  8
LAYER_2
 10
101.3785
 20
71.8702
  0
VERTEX
  8
LAYER_2
 10
101.3785
 20
98.8705
  0
SEQEND
  0
ENDBLK
  0
BLOCK
  8
LAYER_2
  2
AIGNBL0201011E
 70
64
 10
0
 20
0
 30
0
  3
AIGNBL0201011E
  0
POLYLINE
  8
LAYER_2
  6
AIGENLINE002
 40
0.2469
 41
0.2469
 66
1
 10
0
 20
0
 30
0
 70
128
  0
VERTEX
  8
LAYER_2
 10
67.5714
 20
64.1205
  0
VERTEX
  8
LAYER_2
 10
67.5714
 20
99.6204
  0
SEQEND
  0
ENDBLK
  0
BLOCK
  8
LAYER_2
  2
AIGNBL0201011F
 70
64
 10
0
 20
0
 30
0
  3
AIGNBL0201011F
  0
POLYLINE
  8
LAYER_2
  6
AIGENLINE002
 40
0.2469
 41
0.2469
 66
1
 10
0
 20
0
 30
0
 70
128
  0
VERTEX
  8
LAYER_2
 10
51.0713
 20
80.6204
  0
VERTEX
  8
LAYER_2
 10
84.0714
 20
80.6204
  0
SEQEND
  0
ENDBLK
  0
BLOCK
  8
LAYER_2
  2
AIGNBL02010120
 70
64
 10
0
 20
0
 30
0
  3
AIGNBL02010120
  0
POLYLINE
  8
LAYER_2
 40
0.2469
 41
0.2469
 66
1
 10
0
 20
0
 30
0
  0
VERTEX
  8
LAYER_2
 10
83.5928
 20
71.3703
 42
0.2679337778
  0
VERTEX
  8
LAYER_2
 10
83.5928
 20
89.8705
  0
SEQEND
  0
ENDBLK
  0
BLOCK
  8
LAYER_2
  2
AIGNBL02010121
 70
64
 10
0
 20
0
 30
0
  3
AIGNBL02010121
  0
POLYLINE
  8
LAYER_2
 40
0.05
 41
0.05
 66
1
 10
0
 20
0
 30
0
 70
1
  0
VERTEX
  8
LAYER_2
 10
84.5044
 20
73.8563
  0
VERTEX
  8
LAYER_2
 10
85.1166
 20
73.5356
  0
VERTEX
  8
LAYER_2
 10
83.5928
 20
71.3703
  0
SEQEND
  0
ENDBLK
  0
BLOCK
  8
LAYER_2
  2
AIGNBL02010122
 70
64
 10
0
 20
0
 30
0
  3
AIGNBL02010122
  0
POLYLINE
  8
LAYER_2
 40
0.2469
 41
0.2469
 66
1
 10
0
 20
0
 30
0
  0
VERTEX
  8
LAYER_2
 10
83.5928
 20
71.3703
  0
VERTEX
  8
LAYER_2
 10
83.9649
 20
72.0814
  0
SEQEND
  0
ENDBLK
  0
BLOCK
  8
LAYER_2
  2
AIGNBL02010123
 70
64
 10
0
 20
0
 30
0
  3
AIGNBL02010123
  0
POLYLINE
  8
LAYER_2
 40
0.05
 41
0.05
 66
1
 10
0
 20
0
 30
0
 70
1
  0
VERTEX
  8
LAYER_2
 10
85.1159
 20
87.7046
  0
VERTEX
  8
LAYER_2
 10
84.5034
 20
87.3842
  0
VERTEX
  8
LAYER_2
 10
83.5928
 20
89.8705
  0
SEQEND
  0
ENDBLK
  0
BLOCK
  8
LAYER_2
  2
AIGNBL02010124
 70
64
 10
0
 20
0
 30
0
  3
AIGNBL02010124
  0
POLYLINE
  8
LAYER_2
 40
0.2469
 41
0.2469
 66
1
 10
0
 20
0
 30
0
  0
VERTEX
  8
LAYER_2
 10
83.5928
 20
89.8705
  0
VERTEX
  8
LAYER_2
 10
84.1451
 20
88.8146
  0
SEQEND
  0
ENDBLK
  0
BLOCK
  8
LAYER_2
  2
AIGNBL02010125
 70
64
 10
0
 20
0
 30
0
  3
AIGNBL02010125
  0
POLYLINE
  8
LAYER_2
 40
0.05
 41
0.05
 66
1
 10
0
 20
0
 30
0
 70
1
  0
VERTEX
  8
LAYER_2
 10
163.2658
 20
87.779
  0
VERTEX
  8
LAYER_2
 10
163.8646
 20
88.1245
  0
VERTEX
  8
LAYER_2
 10
164.8778
 20
85.6785
  0
SEQEND
  0
ENDBLK
  0
BLOCK
  8
LAYER_2
  2
AIGNBL02010126
 70
64
 10
0
 20
0
 30
0
  3
AIGNBL02010126
  0
POLYLINE
  8
LAYER_2
 40
0.2469
 41
0.2469
 66
1
 10
0
 20
0
 30
0
  0
VERTEX
  8
LAYER_2
 10
164.8778
 20
85.6785
  0
VERTEX
  8
LAYER_2
 10
156.2509
 20
100.6202
  0
SEQEND
  0
POLYLINE
  8
LAYER_2
 40
0.2469
 41
0.2469
 66
1
 10
0
 20
0
 30
0
  0
VERTEX
  8
LAYER_2
 10
156.2509
 20
100.6202
  0
VERTEX
  8
LAYER_2
 10
148.5515
 20
100.6202
  0
SEQEND
  0
ENDBLK
  0
BLOCK
  8
LAYER_2
  2
AIGNBL02010127
 70
64
 10
0
 20
0
 30
0
  3
AIGNBL02010127
  0
POLYLINE
  8
LAYER_2
 40
0.05
 41
0.05
 66
1
 10
0
 20
0
 30
0
 70
1
  0
VERTEX
  8
LAYER_2
 10
113.5166
 20
97.871
  0
VERTEX
  8
LAYER_2
 10
114.1153
 20
98.2166
  0
VERTEX
  8
LAYER_2
 10
115.1285
 20
95.7702
  0
SEQEND
  0
ENDBLK
  0
BLOCK
  8
LAYER_2
  2
AIGNBL02010128
 70
64
 10
0
 20
0
 30
0
  3
AIGNBL02010128
  0
POLYLINE
  8
LAYER_2
 40
0.2469
 41
0.2469
 66
1
 10
0
 20
0
 30
0
  0
VERTEX
  8
LAYER_2
 10
115.1285
 20
95.7702
  0
VERTEX
  8
LAYER_2
 10
111.011
 20
102.9019
  0
SEQEND
  0
POLYLINE
  8
LAYER_2
 40
0.2469
 41
0.2469
 66
1
 10
0
 20
0
 30
0
  0
VERTEX
  8
LAYER_2
 10
111.011
 20
102.9019
  0
VERTEX
  8
LAYER_2
 10
101.2048
 20
102.9019
  0
SEQEND
  0
ENDBLK
  0
BLOCK
  8
LAYER_2
  2
AIGNBL02010129
 70
64
 10
0
 20
0
 30
0
  3
AIGNBL02010129
  0
TEXT
  8
LAYER_2
 10
147.6761
 20
101.6296
 11
147.6761
 21
101.6296
 40
4.5733
 41
0.5
  1
R1/2
  0
ENDBLK
  0
BLOCK
  8
LAYER_2
  2
AIGNBL0201012A
 70
64
 10
0
 20
0
 30
0
  3
AIGNBL0201012A
  0
TEXT
  8
LAYER_2
 10
100.4831
 20
103.911
 11
100.4831
 21
103.911
 40
4.5733
 41
0.5
  1
PJ1/2
  0
ENDBLK
  0
BLOCK
  8
LAYER_2
  2
AIGNBL0201012B
 70
64
 10
0
 20
0
 30
0
  3
AIGNBL0201012B
  0
INSERT
  8
LAYER_2
  2
AIGNBL0202012C
 10
0
 20
0
 30
0
  0
INSERT
  8
LAYER_2
  2
AIGNBL0202012D
 10
0
 20
0
 30
0
  0
INSERT
  8
LAYER_2
  2
AIGNBL0202012E
 10
0
 20
0
 30
0
  0
INSERT
  8
LAYER_2
  2
AIGNBL0202012F
 10
0
 20
0
 30
0
  0
INSERT
  8
LAYER_2
  2
AIGNBL02020130
 10
0
 20
0
 30
0
  0
INSERT
  8
LAYER_2
  2
AIGNBL02020131
 10
0
 20
0
 30
0
  0
ENDBLK
  0
BLOCK
  8
LAYER_2
  2
AIGNBL02010132
 70
64
 10
0
 20
0
 30
0
  3
AIGNBL02010132
  0
INSERT
  8
LAYER_2
  2
AIGNBL02020133
 10
0
 20
0
 30
0
  0
INSERT
  8
LAYER_2
  2
AIGNBL02020134
 10
0
 20
0
 30
0
  0
INSERT
  8
LAYER_2
  2
AIGNBL02020135
 10
0
 20
0
 30
0
  0
INSERT
  8
LAYER_2
  2
AIGNBL02020136
 10
0
 20
0
 30
0
  0
INSERT
  8
LAYER_2
  2
AIGNBL02020137
 10
0
 20
0
 30
0
  0
INSERT
  8
LAYER_2
  2
AIGNBL02020138
 10
0
 20
0
 30
0
  0
ENDBLK
  0
BLOCK
  8
LAYER_2
  2
AIGNBL02010139
 70
64
 10
0
 20
0
 30
0
  3
AIGNBL02010139
  0
INSERT
  8
LAYER_2
  2
AIGNBL0202013A
 10
0
 20
0
 30
0
  0
INSERT
  8
LAYER_2
  2
AIGNBL0202013B
 10
0
 20
0
 30
0
  0
INSERT
  8
LAYER_2
  2
AIGNBL0202013C
 10
0
 20
0
 30
0
  0
INSERT
  8
LAYER_2
  2
AIGNBL0202013D
 10
0
 20
0
 30
0
  0
INSERT
  8
LAYER_2
  2
AIGNBL0202013E
 10
0
 20
0
 30
0
  0
INSERT
  8
LAYER_2
  2
AIGNBL0202013F
 10
0
 20
0
 30
0
  0
ENDBLK
  0
BLOCK
  8
LAYER_2
  2
AIGNBL02010140
 70
64
 10
0
 20
0
 30
0
  3
AIGNBL02010140
  0
INSERT
  8
LAYER_2
  2
AIGNBL02020141
 10
0
 20
0
 30
0
  0
INSERT
  8
LAYER_2
  2
AIGNBL02020142
 10
0
 20
0
 30
0
  0
INSERT
  8
LAYER_2
  2
AIGNBL02020143
 10
0
 20
0
 30
0
  0
INSERT
  8
LAYER_2
  2
AIGNBL02020144
 10
0
 20
0
 30
0
  0
INSERT
  8
LAYER_2
  2
AIGNBL02020145
 10
0
 20
0
 30
0
  0
INSERT
  8
LAYER_2
  2
AIGNBL02020146
 10
0
 20
0
 30
0
  0
ENDBLK
  0
BLOCK
  8
LAYER_2
  2
AIGNBL02010147
 70
64
 10
0
 20
0
 30
0
  3
AIGNBL02010147
  0
INSERT
  8
LAYER_2
  2
AIGNBL02020148
 10
0
 20
0
 30
0
  0
INSERT
  8
LAYER_2
  2
AIGNBL02020149
 10
0
 20
0
 30
0
  0
INSERT
  8
LAYER_2
  2
AIGNBL0202014A
 10
0
 20
0
 30
0
  0
INSERT
  8
LAYER_2
  2
AIGNBL0202014B
 10
0
 20
0
 30
0
  0
INSERT
  8
LAYER_2
  2
AIGNBL0202014C
 10
0
 20
0
 30
0
  0
INSERT
  8
LAYER_2
  2
AIGNBL0202014D
 10
0
 20
0
 30
0
  0
INSERT
  8
LAYER_2
  2
AIGNBL0202014E
 10
0
 20
0
 30
0
  0
ENDBLK
  0
BLOCK
  8
LAYER_2
  2
AIGNBL0201014F
 70
64
 10
0
 20
0
 30
0
  3
AIGNBL0201014F
  0
INSERT
  8
LAYER_2
  2
AIGNBL02020150
 10
0
 20
0
 30
0
  0
INSERT
  8
LAYER_2
  2
AIGNBL02020151
 10
0
 20
0
 30
0
  0
INSERT
  8
LAYER_2
  2
AIGNBL02020152
 10
0
 20
0
 30
0
  0
INSERT
  8
LAYER_2
  2
AIGNBL02020153
 10
0
 20
0
 30
0
  0
INSERT
  8
LAYER_2
  2
AIGNBL02020154
 10
0
 20
0
 30
0
  0
INSERT
  8
LAYER_2
  2
AIGNBL02020155
 10
0
 20
0
 30
0
  0
ENDBLK
  0
BLOCK
  8
LAYER_2
  2
AIGNBL02010156
 70
64
 10
0
 20
0
 30
0
  3
AIGNBL02010156
  0
INSERT
  8
LAYER_2
  2
AIGNBL02020157
 10
0
 20
0
 30
0
  0
INSERT
  8
LAYER_2
  2
AIGNBL02020158
 10
0
 20
0
 30
0
  0
INSERT
  8
LAYER_2
  2
AIGNBL02020159
 10
0
 20
0
 30
0
  0
INSERT
  8
LAYER_2
  2
AIGNBL0202015A
 10
0
 20
0
 30
0
  0
ENDBLK
  0
BLOCK
  8
LAYER_7
  2
AIGNBL07010002
 70
64
 10
0
 20
0
 30
0
  3
AIGNBL07010002
  0
POLYLINE
  8
LAYER_7
 40
0.7056
 41
0.7056
 66
1
 10
0
 20
0
 30
0
 70
1
  0
VERTEX
  8
LAYER_7
 10
206.0763
 20
269.2235
  0
VERTEX
  8
LAYER_7
 10
206.0763
 20
-7.7766
  0
VERTEX
  8
LAYER_7
 10
16.0764
 20
-7.7766
  0
VERTEX
  8
LAYER_7
 10
16.0764
 20
269.2235
  0
SEQEND
  0
ENDBLK
  0
BLOCK
  8
LAYER_7
  2
AIGNBL07010003
 70
64
 10
0
 20
0
 30
0
  3
AIGNBL07010003
  0
INSERT
  8
LAYER_7
  2
AIGNBL07020004
 10
0
 20
0
 30
0
  0
INSERT
  8
LAYER_7
  2
AIGNBL0702000D
 10
0
 20
0
 30
0
  0
ENDBLK
  0
ENDSEC
  0
SECTION
  2
ENTITIES
  0
INSERT
  8
LAYER_1
  2
AIGNBL01010002
 10
0
 20
0
 30
0
  0
INSERT
  8
LAYER_1
  2
AIGNBL01010003
 10
0
 20
0
 30
0
  0
INSERT
  8
LAYER_2
  2
AIGNBL02010002
 10
0
 20
0
 30
0
  0
INSERT
  8
LAYER_2
  2
AIGNBL02010009
 10
0
 20
0
 30
0
  0
INSERT
  8
LAYER_2
  2
AIGNBL0201001E
 10
0
 20
0
 30
0
  0
INSERT
  8
LAYER_2
  2
AIGNBL02010035
 10
0
 20
0
 30
0
  0
INSERT
  8
LAYER_2
  2
AIGNBL020100B1
 10
0
 20
0
 30
0
  0
INSERT
  8
LAYER_2
  2
AIGNBL020100B8
 10
0
 20
0
 30
0
  0
INSERT
  8
LAYER_2
  2
AIGNBL020100E3
 10
0
 20
0
 30
0
  0
INSERT
  8
LAYER_2
  2
AIGNBL020100F5
 10
0
 20
0
 30
0
  0
INSERT
  8
LAYER_2
  2
AIGNBL02010117
 10
0
 20
0
 30
0
  0
INSERT
  8
LAYER_2
  2
AIGNBL02010118
 10
0
 20
0
 30
0
  0
INSERT
  8
LAYER_2
  2
AIGNBL02010119
 10
0
 20
0
 30
0
  0
INSERT
  8
LAYER_2
  2
AIGNBL0201011A
 10
0
 20
0
 30
0
  0
INSERT
  8
LAYER_2
  2
AIGNBL0201011B
 10
0
 20
0
 30
0
  0
INSERT
  8
LAYER_2
  2
AIGNBL0201011C
 10
0
 20
0
 30
0
  0
INSERT
  8
LAYER_2
  2
AIGNBL0201011D
 10
0
 20
0
 30
0
  0
INSERT
  8
LAYER_2
  2
AIGNBL0201011E
 10
0
 20
0
 30
0
  0
INSERT
  8
LAYER_2
  2
AIGNBL0201011F
 10
0
 20
0
 30
0
  0
INSERT
  8
LAYER_2
  2
AIGNBL02010120
 10
0
 20
0
 30
0
  0
INSERT
  8
LAYER_2
  2
AIGNBL02010121
 10
0
 20
0
 30
0
  0
INSERT
  8
LAYER_2
  2
AIGNBL02010122
 10
0
 20
0
 30
0
  0
INSERT
  8
LAYER_2
  2
AIGNBL02010123
 10
0
 20
0
 30
0
  0
INSERT
  8
LAYER_2
  2
AIGNBL02010124
 10
0
 20
0
 30
0
  0
INSERT
  8
LAYER_2
  2
AIGNBL02010125
 10
0
 20
0
 30
0
  0
INSERT
  8
LAYER_2
  2
AIGNBL02010126
 10
0
 20
0
 30
0
  0
INSERT
  8
LAYER_2
  2
AIGNBL02010127
 10
0
 20
0
 30
0
  0
INSERT
  8
LAYER_2
  2
AIGNBL02010128
 10
0
 20
0
 30
0
  0
INSERT
  8
LAYER_2
  2
AIGNBL02010129
 10
0
 20
0
 30
0
  0
INSERT
  8
LAYER_2
  2
AIGNBL0201012A
 10
0
 20
0
 30
0
  0
INSERT
  8
LAYER_2
  2
AIGNBL0201012B
 10
0
 20
0
 30
0
  0
INSERT
  8
LAYER_2
  2
AIGNBL02010132
 10
0
 20
0
 30
0
  0
INSERT
  8
LAYER_2
  2
AIGNBL02010139
 10
0
 20
0
 30
0
  0
INSERT
  8
LAYER_2
  2
AIGNBL02010140
 10
0
 20
0
 30
0
  0
INSERT
  8
LAYER_2
  2
AIGNBL02010147
 10
0
 20
0
 30
0
  0
INSERT
  8
LAYER_2
  2
AIGNBL0201014F
 10
0
 20
0
 30
0
  0
INSERT
  8
LAYER_2
  2
AIGNBL02010156
 10
0
 20
0
 30
0
  0
TEXT
  8
LAYER_7
 10
18.4399
 20
5.4632
 11
18.4399
 21
5.4632
 40
3.2995
 41
0.5
  1
仕様
  0
POLYLINE
  8
LAYER_7
 40
0.3528
 41
0.3528
 66
1
 10
0
 20
0
 30
0
  0
VERTEX
  8
LAYER_7
 10
205.0762
 20
10.8455
  0
VERTEX
  8
LAYER_7
 10
17.0763
 20
10.8455
  0
SEQEND
  0
INSERT
  8
LAYER_7
  2
AIGNBL07010002
 10
0
 20
0
 30
0
  0
POLYLINE
  8
LAYER_7
 40
0.3528
 41
0.3528
 66
1
 10
0
 20
0
 30
0
  0
VERTEX
  8
LAYER_7
 10
17.0763
 20
268.2234
  0
VERTEX
  8
LAYER_7
 10
17.0763
 20
-6.7768
  0
VERTEX
  8
LAYER_7
 10
205.0762
 20
-6.7768
  0
VERTEX
  8
LAYER_7
 10
205.0762
 20
268.2234
  0
VERTEX
  8
LAYER_7
 10
17.0763
 20
268.2234
  0
SEQEND
  0
POLYLINE
  8
LAYER_7
 40
0.3528
 41
0.3528
 66
1
 10
0
 20
0
 30
0
  0
VERTEX
  8
LAYER_7
 10
205.0762
 20
19.3545
  0
VERTEX
  8
LAYER_7
 10
17.0763
 20
19.3545
  0
SEQEND
  0
POLYLINE
  8
LAYER_7
 40
0.3528
 41
0.3528
 66
1
 10
0
 20
0
 30
0
  0
VERTEX
  8
LAYER_7
 10
205.0762
 20
2.3365
  0
VERTEX
  8
LAYER_7
 10
127.3025
 20
2.3365
  0
SEQEND
  0
TEXT
  8
LAYER_7
 10
157.5084
 20
4.6123
 11
157.5084
 21
4.6123
 40
3.7615
 41
0.5
  1
-
  0
TEXT
  8
LAYER_7
 10
152.2167
 20
8.3692
 11
152.2167
 21
8.3692
 40
2.1997
 41
0.5
  1
縮尺
  0
POLYLINE
  8
LAYER_7
 40
0.3528
 41
0.3528
 66
1
 10
0
 20
0
 30
0
  0
VERTEX
  8
LAYER_7
 10
150.6885
 20
2.3365
  0
VERTEX
  8
LAYER_7
 10
150.6885
 20
10.8455
  0
SEQEND
  0
TEXT
  8
LAYER_7
 10
128.0011
 20
16.8782
 11
128.0011
 21
16.8782
 40
2.1997
 41
0.5
  1
品番
  0
TEXT
  8
LAYER_7
 10
18.2332
 20
16.8782
 11
18.2332
 21
16.8782
 40
2.1997
 41
0.5
  1
品名
  0
TEXT
  8
LAYER_7
 10
128.0011
 20
8.3692
 11
128.0011
 21
8.3692
 40
2.1997
 41
0.5
  1
重量
  0
TEXT
  8
LAYER_7
 10
135.5345
 20
13.0462
 11
135.5345
 21
13.0462
 40
5.9385
 41
0.5
  1
AQ-2261FD
  0
TEXT
  8
LAYER_7
 10
133.3138
 20
4.6123
 11
133.3138
 21
4.6123
 40
3.7615
 41
0.5
  1
-
  0
POLYLINE
  8
LAYER_7
 40
0.3528
 41
0.3528
 66
1
 10
0
 20
0
 30
0
  0
VERTEX
  8
LAYER_7
 10
127.3025
 20
-6.1512
  0
VERTEX
  8
LAYER_7
 10
127.3025
 20
19.3545
  0
SEQEND
  0
TEXT
  8
LAYER_7
 10
24.4163
 20
13.7859
 11
24.4163
 21
13.7859
 40
3.6373
 41
0.5
  1
アングル止水栓
  0
TEXT
  8
LAYER_7
 10
29.012
 20
6.2546
 11
29.012
 21
6.2546
 40
3.258
 41
0.5
  1
●JIS
  0
TEXT
  8
LAYER_7
 10
191.6644
 20
22.153
 11
191.6644
 21
22.153
 40
2.9618
 41
0.5
  1
単位：mm
  0
TEXT
  8
LAYER_7
 10
192.6442
 20
263.5136
 11
192.6442
 21
263.5136
 40
2.0732
 41
0.5
  1
170310RT
  0
TEXT
  8
LAYER_7
 10
154.3861
 20
-1.5679
 11
154.3861
 21
-1.5679
 40
2.8694
 41
0.5
  1
●TEL 0120-65-1232●FAX 06-6532-1580
  0
TEXT
  8
LAYER_7
 10
154.3861
 20
-4.5472
 11
154.3861
 21
-4.5472
 40
2.8694
 41
0.5
  1
hits@hiratatile.co.jp
  0
INSERT
  8
LAYER_7
  2
AIGNBL07010003
 10
0
 20
0
 30
0
  0
ENDSEC
  0
EOF
