  0
SECTION
  2
HEADER
  9
$ACADVER
  1
AC1009
  9
$LUNITS
 70
2
  9
$LUPREC
 70
4
  9
$LTSCALE
 40
1.0
  9
$EXTMIN
 10
33.7873
 20
-259.334
 30
0
  9
$EXTMAX
 10
230.7955
 20
22.6587
 30
0
  0
ENDSEC
  0
SECTION
  2
TABLES
  0
TABLE
  2
LTYPE
 70
256
  0
LTYPE
  2
AIGENLINE001
 70
64
  3
generate AI->DXF Converter
 72
65
 73
4
 40
13.9881
 49
10.9907
 49
-0.9992
 49
0.9992
 49
-0.9992
  0
ENDTAB
  0
TABLE
  2
LAYER
 70
6
  0
LAYER
  2
LAYER_1
 70
64
 62
7
  6
CONTINUOUS
  0
LAYER
  2
LAYER_2
 70
64
 62
7
  6
CONTINUOUS
  0
LAYER
  2
LAYER_3
 70
64
 62
7
  6
CONTINUOUS
  0
LAYER
  2
LAYER_4
 70
64
 62
7
  6
CONTINUOUS
  0
LAYER
  2
LAYER_5
 70
64
 62
7
  6
CONTINUOUS
  0
LAYER
  2
LAYER_6
 70
64
 62
7
  6
CONTINUOUS
  0
ENDTAB
  0
TABLE
  2
STYLE
 70
6
  0
STYLE
  2
STANDARD
 70
0
 40
0
 50
0
 71
0
 41
0
 42
0
  3
TXT
  4
BIGFONT
  0
ENDTAB
  0
ENDSEC
  0
SECTION
  2
BLOCKS
  0
BLOCK
  8
LAYER_1
  2
AIGNBL01040005
 70
64
 10
0
 20
0
 30
0
  3
AIGNBL01040005
  0
POLYLINE
  8
LAYER_1
 40
0.05
 41
0.05
 66
1
 10
0
 20
0
 30
0
 70
1
  0
VERTEX
  8
LAYER_1
 10
138.3767
 20
-249.1011
  0
VERTEX
  8
LAYER_1
 10
137.891
 20
-250.2793
  0
VERTEX
  8
LAYER_1
 10
137.2664
 20
-250.2793
  0
VERTEX
  8
LAYER_1
 10
138.857
 20
-246.5355
  0
VERTEX
  8
LAYER_1
 10
139.586
 20
-246.5355
  0
VERTEX
  8
LAYER_1
 10
141.1828
 20
-250.2793
  0
VERTEX
  8
LAYER_1
 10
140.5365
 20
-250.2793
  0
VERTEX
  8
LAYER_1
 10
140.0369
 20
-249.1011
  0
SEQEND
  0
POLYLINE
  8
LAYER_1
 40
0.05
 41
0.05
 66
1
 10
0
 20
0
 30
0
 70
1
  0
VERTEX
  8
LAYER_1
 10
139.9115
 20
-248.7245
  0
VERTEX
  8
LAYER_1
 10
139.4533
 20
-247.6459
 42
-0.02267506524
  0
VERTEX
  8
LAYER_1
 10
139.2101
 20
-246.963
  0
VERTEX
  8
LAYER_1
 10
139.1967
 20
-246.963
 42
-0.02084266043
  0
VERTEX
  8
LAYER_1
 10
138.9603
 20
-247.6414
  0
VERTEX
  8
LAYER_1
 10
138.5021
 20
-248.7245
  0
SEQEND
  0
ENDBLK
  0
BLOCK
  8
LAYER_1
  2
AIGNBL01040006
 70
64
 10
0
 20
0
 30
0
  3
AIGNBL01040006
  0
POLYLINE
  8
LAYER_1
 40
0.05
 41
0.05
 66
1
 10
0
 20
0
 30
0
 70
1
  0
VERTEX
  8
LAYER_1
 10
145.5226
 20
-250.8295
 42
-0.01550180985
  0
VERTEX
  8
LAYER_1
 10
143.7311
 20
-250.3954
 42
0.09208348225
  0
VERTEX
  8
LAYER_1
 10
143.4465
 20
-250.3406
 42
-0.09252107557
  0
VERTEX
  8
LAYER_1
 10
142.4981
 20
-250.139
 42
-0.09792797557
  0
VERTEX
  8
LAYER_1
 10
141.8642
 20
-249.7067
 42
-0.1631033753
  0
VERTEX
  8
LAYER_1
 10
141.401
 20
-248.7192
 42
-0.03157985926
  0
VERTEX
  8
LAYER_1
 10
141.3839
 20
-248.4469
 42
-0.1088259969
  0
VERTEX
  8
LAYER_1
 10
141.5673
 20
-247.5875
 42
-0.1618048679
  0
VERTEX
  8
LAYER_1
 10
142.3628
 20
-246.7577
 42
-0.09175073832
  0
VERTEX
  8
LAYER_1
 10
143.1629
 20
-246.5018
 42
-0.03454354202
  0
VERTEX
  8
LAYER_1
 10
143.5644
 20
-246.4745
 42
-0.09527006366
  0
VERTEX
  8
LAYER_1
 10
144.5227
 20
-246.6511
 42
-0.1001818692
  0
VERTEX
  8
LAYER_1
 10
145.1563
 20
-247.0713
 42
-0.1611434138
  0
VERTEX
  8
LAYER_1
 10
145.6402
 20
-248.0664
 42
-0.03591204318
  0
VERTEX
  8
LAYER_1
 10
145.6617
 20
-248.3686
 42
-0.1066586367
  0
VERTEX
  8
LAYER_1
 10
145.4864
 20
-249.2186
 42
-0.2185717489
  0
VERTEX
  8
LAYER_1
 10
144.3825
 20
-250.147
 42
-0.006705231958
  0
VERTEX
  8
LAYER_1
 10
144.3281
 20
-250.1628
  0
VERTEX
  8
LAYER_1
 10
144.3281
 20
-250.1852
 42
0.01501268135
  0
VERTEX
  8
LAYER_1
 10
145.6965
 20
-250.424
  0
SEQEND
  0
POLYLINE
  8
LAYER_1
 40
0.05
 41
0.05
 66
1
 10
0
 20
0
 30
0
 70
1
  0
VERTEX
  8
LAYER_1
 10
145.0233
 20
-248.39
 42
0.1175404168
  0
VERTEX
  8
LAYER_1
 10
144.842
 20
-247.6261
 42
0.1170585149
  0
VERTEX
  8
LAYER_1
 10
144.419
 20
-247.1311
 42
0.1200111465
  0
VERTEX
  8
LAYER_1
 10
143.8094
 20
-246.8884
 42
0.0377207096
  0
VERTEX
  8
LAYER_1
 10
143.5433
 20
-246.8687
 42
0.1152954241
  0
VERTEX
  8
LAYER_1
 10
142.8054
 20
-247.0324
 42
0.1853004926
  0
VERTEX
  8
LAYER_1
 10
142.1509
 20
-247.7624
 42
0.09848637078
  0
VERTEX
  8
LAYER_1
 10
142.0296
 20
-248.4344
 42
0.120860713
  0
VERTEX
  8
LAYER_1
 10
142.2045
 20
-249.1849
 42
0.2836170694
  0
VERTEX
  8
LAYER_1
 10
143.5161
 20
-249.9468
 42
0.1188766714
  0
VERTEX
  8
LAYER_1
 10
144.2605
 20
-249.7757
 42
0.1796046283
  0
VERTEX
  8
LAYER_1
 10
144.8972
 20
-249.063
 42
0.09851098502
  0
SEQEND
  0
ENDBLK
  0
BLOCK
  8
LAYER_1
  2
AIGNBL01040007
 70
64
 10
0
 20
0
 30
0
  3
AIGNBL01040007
  0
POLYLINE
  8
LAYER_1
 40
0.05
 41
0.05
 66
1
 10
0
 20
0
 30
0
 70
1
  0
VERTEX
  8
LAYER_1
 10
146.9815
 20
-246.5355
  0
VERTEX
  8
LAYER_1
 10
146.9815
 20
-248.7517
 42
0.1257910062
  0
VERTEX
  8
LAYER_1
 10
147.1475
 20
-249.4752
 42
0.2217269733
  0
VERTEX
  8
LAYER_1
 10
147.7914
 20
-249.9203
 42
0.04937688774
  0
VERTEX
  8
LAYER_1
 10
148.0716
 20
-249.9468
 42
0.1302851362
  0
VERTEX
  8
LAYER_1
 10
148.7372
 20
-249.787
 42
0.1509632316
  0
VERTEX
  8
LAYER_1
 10
149.0862
 20
-249.3957
 42
0.1174446198
  0
VERTEX
  8
LAYER_1
 10
149.2105
 20
-248.7517
  0
VERTEX
  8
LAYER_1
 10
149.2105
 20
-246.5355
  0
VERTEX
  8
LAYER_1
 10
149.8217
 20
-246.5355
  0
VERTEX
  8
LAYER_1
 10
149.8217
 20
-248.7187
 42
-0.1106784388
  0
VERTEX
  8
LAYER_1
 10
149.6531
 20
-249.5323
 42
-0.1857051526
  0
VERTEX
  8
LAYER_1
 10
148.9481
 20
-250.1807
 42
-0.09650175554
  0
VERTEX
  8
LAYER_1
 10
148.1451
 20
-250.3392
 42
-0.007939811217
  0
VERTEX
  8
LAYER_1
 10
148.0509
 20
-250.3406
 42
-0.102315967
  0
VERTEX
  8
LAYER_1
 10
147.1661
 20
-250.1733
 42
-0.1218859814
  0
VERTEX
  8
LAYER_1
 10
146.6722
 20
-249.7872
 42
-0.1186228201
  0
VERTEX
  8
LAYER_1
 10
146.4122
 20
-249.188
 42
-0.0498693672
  0
VERTEX
  8
LAYER_1
 10
146.3707
 20
-248.7404
  0
VERTEX
  8
LAYER_1
 10
146.3707
 20
-246.5355
  0
SEQEND
  0
ENDBLK
  0
BLOCK
  8
LAYER_1
  2
AIGNBL01040008
 70
64
 10
0
 20
0
 30
0
  3
AIGNBL01040008
  0
POLYLINE
  8
LAYER_1
 40
0.05
 41
0.05
 66
1
 10
0
 20
0
 30
0
 70
1
  0
VERTEX
  8
LAYER_1
 10
151.5573
 20
-249.1011
  0
VERTEX
  8
LAYER_1
 10
151.0709
 20
-250.2793
  0
VERTEX
  8
LAYER_1
 10
150.447
 20
-250.2793
  0
VERTEX
  8
LAYER_1
 10
152.0365
 20
-246.5355
  0
VERTEX
  8
LAYER_1
 10
152.7655
 20
-246.5355
  0
VERTEX
  8
LAYER_1
 10
154.3623
 20
-250.2793
  0
VERTEX
  8
LAYER_1
 10
153.7167
 20
-250.2793
  0
VERTEX
  8
LAYER_1
 10
153.2175
 20
-249.1011
  0
SEQEND
  0
POLYLINE
  8
LAYER_1
 40
0.05
 41
0.05
 66
1
 10
0
 20
0
 30
0
 70
1
  0
VERTEX
  8
LAYER_1
 10
153.0921
 20
-248.7245
  0
VERTEX
  8
LAYER_1
 10
152.6332
 20
-247.6459
 42
-0.02235179902
  0
VERTEX
  8
LAYER_1
 10
152.3897
 20
-246.963
  0
VERTEX
  8
LAYER_1
 10
152.3759
 20
-246.963
 42
-0.02046417189
  0
VERTEX
  8
LAYER_1
 10
152.1402
 20
-247.6414
  0
VERTEX
  8
LAYER_1
 10
151.682
 20
-248.7245
  0
SEQEND
  0
ENDBLK
  0
BLOCK
  8
LAYER_1
  2
AIGNBL01040009
 70
64
 10
0
 20
0
 30
0
  3
AIGNBL01040009
  0
POLYLINE
  8
LAYER_1
 40
0.05
 41
0.05
 66
1
 10
0
 20
0
 30
0
 70
1
  0
VERTEX
  8
LAYER_1
 10
155.3969
 20
-246.58
 42
-0.03349666815
  0
VERTEX
  8
LAYER_1
 10
156.5576
 20
-246.5072
 42
-0.09004353297
  0
VERTEX
  8
LAYER_1
 10
157.6057
 20
-246.6749
 42
-0.05888505928
  0
VERTEX
  8
LAYER_1
 10
157.8691
 20
-246.8184
 42
-0.2472492651
  0
VERTEX
  8
LAYER_1
 10
158.279
 20
-247.6018
 42
-0.1502534052
  0
VERTEX
  8
LAYER_1
 10
158.1063
 20
-248.1984
 42
-0.07033867127
  0
VERTEX
  8
LAYER_1
 10
157.9177
 20
-248.4014
 42
-0.1211283655
  0
VERTEX
  8
LAYER_1
 10
157.2351
 20
-248.728
 42
-0.06222086556
  0
VERTEX
  8
LAYER_1
 10
156.4872
 20
-248.8127
 42
-0.05750856268
  0
VERTEX
  8
LAYER_1
 10
156.0015
 20
-248.7793
  0
VERTEX
  8
LAYER_1
 10
156.0015
 20
-250.2793
  0
VERTEX
  8
LAYER_1
 10
155.3969
 20
-250.2793
  0
SEQEND
  0
POLYLINE
  8
LAYER_1
 40
0.05
 41
0.05
 66
1
 10
0
 20
0
 30
0
 70
1
  0
VERTEX
  8
LAYER_1
 10
156.0015
 20
-248.3852
 42
0.04897120882
  0
VERTEX
  8
LAYER_1
 10
156.501
 20
-248.4245
 42
0.1137012619
  0
VERTEX
  8
LAYER_1
 10
157.2816
 20
-248.2659
 42
0.1652714782
  0
VERTEX
  8
LAYER_1
 10
157.6173
 20
-247.9196
 42
0.1043893073
  0
VERTEX
  8
LAYER_1
 10
157.6751
 20
-247.6242
 42
0.2865639904
  0
VERTEX
  8
LAYER_1
 10
157.3169
 20
-247.0395
 42
0.06445412413
  0
VERTEX
  8
LAYER_1
 10
157.0376
 20
-246.9388
 42
0.05784391407
  0
VERTEX
  8
LAYER_1
 10
156.5713
 20
-246.891
 42
0.05268039105
  0
VERTEX
  8
LAYER_1
 10
156.0015
 20
-246.93
  0
SEQEND
  0
ENDBLK
  0
BLOCK
  8
LAYER_1
  2
AIGNBL0104000A
 70
64
 10
0
 20
0
 30
0
  3
AIGNBL0104000A
  0
POLYLINE
  8
LAYER_1
 40
0.05
 41
0.05
 66
1
 10
0
 20
0
 30
0
 70
1
  0
VERTEX
  8
LAYER_1
 10
159.8218
 20
-246.8352
 42
-0.3039545568
  0
VERTEX
  8
LAYER_1
 10
159.6562
 20
-247.0887
 42
-0.1152466046
  0
VERTEX
  8
LAYER_1
 10
159.4325
 20
-247.1356
 42
-0.2445179838
  0
VERTEX
  8
LAYER_1
 10
159.1045
 20
-246.9759
 42
-0.1392448976
  0
VERTEX
  8
LAYER_1
 10
159.0645
 20
-246.8352
 42
-0.2871964131
  0
VERTEX
  8
LAYER_1
 10
159.2352
 20
-246.5772
 42
-0.118108641
  0
VERTEX
  8
LAYER_1
 10
159.4459
 20
-246.53
 42
-0.2414655549
  0
VERTEX
  8
LAYER_1
 10
159.7788
 20
-246.6849
 42
-0.1427828857
  0
SEQEND
  0
POLYLINE
  8
LAYER_1
 40
0.05
 41
0.05
 66
1
 10
0
 20
0
 30
0
 70
1
  0
VERTEX
  8
LAYER_1
 10
159.1407
 20
-250.2793
  0
VERTEX
  8
LAYER_1
 10
159.1407
 20
-247.5907
  0
VERTEX
  8
LAYER_1
 10
159.7515
 20
-247.5907
  0
VERTEX
  8
LAYER_1
 10
159.7515
 20
-250.2793
  0
SEQEND
  0
ENDBLK
  0
BLOCK
  8
LAYER_1
  2
AIGNBL0104000B
 70
64
 10
0
 20
0
 30
0
  3
AIGNBL0104000B
  0
POLYLINE
  8
LAYER_1
 40
0.05
 41
0.05
 66
1
 10
0
 20
0
 30
0
 70
1
  0
VERTEX
  8
LAYER_1
 10
161.6118
 20
-249.1011
  0
VERTEX
  8
LAYER_1
 10
161.1271
 20
-250.2793
  0
VERTEX
  8
LAYER_1
 10
160.5015
 20
-250.2793
  0
VERTEX
  8
LAYER_1
 10
162.0918
 20
-246.5355
  0
VERTEX
  8
LAYER_1
 10
162.8211
 20
-246.5355
  0
VERTEX
  8
LAYER_1
 10
164.4186
 20
-250.2793
  0
VERTEX
  8
LAYER_1
 10
163.7719
 20
-250.2793
  0
VERTEX
  8
LAYER_1
 10
163.2727
 20
-249.1011
  0
SEQEND
  0
POLYLINE
  8
LAYER_1
 40
0.05
 41
0.05
 66
1
 10
0
 20
0
 30
0
 70
1
  0
VERTEX
  8
LAYER_1
 10
163.1473
 20
-248.7245
  0
VERTEX
  8
LAYER_1
 10
162.6891
 20
-247.6459
 42
-0.02473673698
  0
VERTEX
  8
LAYER_1
 10
162.4466
 20
-246.963
  0
VERTEX
  8
LAYER_1
 10
162.4321
 20
-246.963
 42
-0.01905982629
  0
VERTEX
  8
LAYER_1
 10
162.1961
 20
-247.6414
  0
VERTEX
  8
LAYER_1
 10
161.7379
 20
-248.7245
  0
SEQEND
  0
ENDBLK
  0
BLOCK
  8
LAYER_1
  2
AIGNBL01030004
 70
64
 10
0
 20
0
 30
0
  3
AIGNBL01030004
  0
INSERT
  8
LAYER_1
  2
AIGNBL01040005
 10
0
 20
0
 30
0
  0
INSERT
  8
LAYER_1
  2
AIGNBL01040006
 10
0
 20
0
 30
0
  0
INSERT
  8
LAYER_1
  2
AIGNBL01040007
 10
0
 20
0
 30
0
  0
INSERT
  8
LAYER_1
  2
AIGNBL01040008
 10
0
 20
0
 30
0
  0
INSERT
  8
LAYER_1
  2
AIGNBL01040009
 10
0
 20
0
 30
0
  0
INSERT
  8
LAYER_1
  2
AIGNBL0104000A
 10
0
 20
0
 30
0
  0
INSERT
  8
LAYER_1
  2
AIGNBL0104000B
 10
0
 20
0
 30
0
  0
ENDBLK
  0
BLOCK
  8
LAYER_1
  2
AIGNBL0103000D
 70
64
 10
0
 20
0
 30
0
  3
AIGNBL0103000D
  0
POLYLINE
  8
LAYER_1
 40
0.05
 41
0.05
 66
1
 10
0
 20
0
 30
0
 70
1
  0
VERTEX
  8
LAYER_1
 10
137.3756
 20
-252.1676
  0
VERTEX
  8
LAYER_1
 10
137.9258
 20
-252.1676
  0
VERTEX
  8
LAYER_1
 10
137.9258
 20
-252.2609
  0
VERTEX
  8
LAYER_1
 10
137.2715
 20
-252.2609
  0
VERTEX
  8
LAYER_1
 10
137.2715
 20
-251.2339
  0
VERTEX
  8
LAYER_1
 10
137.9082
 20
-251.2339
  0
VERTEX
  8
LAYER_1
 10
137.9082
 20
-251.3266
  0
VERTEX
  8
LAYER_1
 10
137.3756
 20
-251.3266
  0
VERTEX
  8
LAYER_1
 10
137.3756
 20
-251.6787
  0
VERTEX
  8
LAYER_1
 10
137.8734
 20
-251.6787
  0
VERTEX
  8
LAYER_1
 10
137.8734
 20
-251.7717
  0
VERTEX
  8
LAYER_1
 10
137.3756
 20
-251.7717
  0
SEQEND
  0
ENDBLK
  0
BLOCK
  8
LAYER_1
  2
AIGNBL0103000E
 70
64
 10
0
 20
0
 30
0
  3
AIGNBL0103000E
  0
POLYLINE
  8
LAYER_1
 40
0.05
 41
0.05
 66
1
 10
0
 20
0
 30
0
 70
1
  0
VERTEX
  8
LAYER_1
 10
139.0589
 20
-252.1079
  0
VERTEX
  8
LAYER_1
 10
139.0613
 20
-252.1079
  0
VERTEX
  8
LAYER_1
 10
139.0613
 20
-251.2339
  0
VERTEX
  8
LAYER_1
 10
139.1663
 20
-251.2339
  0
VERTEX
  8
LAYER_1
 10
139.1663
 20
-252.2609
  0
VERTEX
  8
LAYER_1
 10
139.0365
 20
-252.2609
  0
VERTEX
  8
LAYER_1
 10
138.4384
 20
-251.3772
  0
VERTEX
  8
LAYER_1
 10
138.435
 20
-251.3772
  0
VERTEX
  8
LAYER_1
 10
138.435
 20
-252.2609
  0
VERTEX
  8
LAYER_1
 10
138.3306
 20
-252.2609
  0
VERTEX
  8
LAYER_1
 10
138.3306
 20
-251.2339
  0
VERTEX
  8
LAYER_1
 10
138.4611
 20
-251.2339
  0
SEQEND
  0
ENDBLK
  0
BLOCK
  8
LAYER_1
  2
AIGNBL0103000F
 70
64
 10
0
 20
0
 30
0
  3
AIGNBL0103000F
  0
POLYLINE
  8
LAYER_1
 40
0.05
 41
0.05
 66
1
 10
0
 20
0
 30
0
 70
1
  0
VERTEX
  8
LAYER_1
 10
139.637
 20
-252.0501
 42
0.1590284934
  0
VERTEX
  8
LAYER_1
 10
139.691
 20
-252.1527
 42
0.1903970375
  0
VERTEX
  8
LAYER_1
 10
139.8034
 20
-252.1937
  0
VERTEX
  8
LAYER_1
 10
139.8922
 20
-252.1744
  0
VERTEX
  8
LAYER_1
 10
139.948
 20
-252.1214
  0
VERTEX
  8
LAYER_1
 10
139.9763
 20
-252.0453
  0
VERTEX
  8
LAYER_1
 10
139.9853
 20
-251.956
  0
VERTEX
  8
LAYER_1
 10
139.9853
 20
-251.2339
  0
VERTEX
  8
LAYER_1
 10
140.0893
 20
-251.2339
  0
VERTEX
  8
LAYER_1
 10
140.0893
 20
-251.965
  0
VERTEX
  8
LAYER_1
 10
140.0783
 20
-252.0718
 42
-0.08830433873
  0
VERTEX
  8
LAYER_1
 10
140.0369
 20
-252.1765
 42
-0.1153589887
  0
VERTEX
  8
LAYER_1
 10
139.9529
 20
-252.2554
 42
-0.1266166698
  0
VERTEX
  8
LAYER_1
 10
139.8147
 20
-252.2868
 42
-0.1823786802
  0
VERTEX
  8
LAYER_1
 10
139.6311
 20
-252.2268
 42
-0.1773090787
  0
VERTEX
  8
LAYER_1
 10
139.5391
 20
-252.0769
  0
SEQEND
  0
ENDBLK
  0
BLOCK
  8
LAYER_1
  2
AIGNBL01030010
 70
64
 10
0
 20
0
 30
0
  3
AIGNBL01030010
  0
POLYLINE
  8
LAYER_1
 40
0.05
 41
0.05
 66
1
 10
0
 20
0
 30
0
 70
1
  0
VERTEX
  8
LAYER_1
 10
141.5693
 20
-251.7469
 42
-0.1023745756
  0
VERTEX
  8
LAYER_1
 10
141.5279
 20
-251.9629
 42
-0.1012381663
  0
VERTEX
  8
LAYER_1
 10
141.4163
 20
-252.1338
 42
-0.09607034471
  0
VERTEX
  8
LAYER_1
 10
141.2458
 20
-252.2461
 42
-0.09758991962
  0
VERTEX
  8
LAYER_1
 10
141.0332
 20
-252.2868
 42
-0.09910038025
  0
VERTEX
  8
LAYER_1
 10
140.8207
 20
-252.2461
 42
-0.09835332354
  0
VERTEX
  8
LAYER_1
 10
140.6512
 20
-252.1338
 42
-0.09652080474
  0
VERTEX
  8
LAYER_1
 10
140.5389
 20
-251.9629
 42
-0.09814472372
  0
VERTEX
  8
LAYER_1
 10
140.4986
 20
-251.7469
 42
-0.1026891031
  0
VERTEX
  8
LAYER_1
 10
140.5389
 20
-251.5306
 42
-0.09919197624
  0
VERTEX
  8
LAYER_1
 10
140.6512
 20
-251.3604
 42
-0.09851015914
  0
VERTEX
  8
LAYER_1
 10
140.8207
 20
-251.2481
 42
-0.0978389277
  0
VERTEX
  8
LAYER_1
 10
141.0332
 20
-251.2071
 42
-0.1012755921
  0
VERTEX
  8
LAYER_1
 10
141.2458
 20
-251.2481
 42
-0.101055447
  0
VERTEX
  8
LAYER_1
 10
141.4163
 20
-251.3604
 42
-0.100284748
  0
VERTEX
  8
LAYER_1
 10
141.5279
 20
-251.5306
 42
-0.09841189494
  0
SEQEND
  0
POLYLINE
  8
LAYER_1
 40
0.05
 41
0.05
 66
1
 10
0
 20
0
 30
0
 70
1
  0
VERTEX
  8
LAYER_1
 10
141.4584
 20
-251.7476
 42
0.08348185165
  0
VERTEX
  8
LAYER_1
 10
141.4301
 20
-251.5767
 42
0.09888736064
  0
VERTEX
  8
LAYER_1
 10
141.3454
 20
-251.4344
 42
0.1046117232
  0
VERTEX
  8
LAYER_1
 10
141.211
 20
-251.337
 42
0.1084373712
  0
VERTEX
  8
LAYER_1
 10
141.0332
 20
-251.3001
 42
0.1126508353
  0
VERTEX
  8
LAYER_1
 10
140.8558
 20
-251.337
 42
0.1080671084
  0
VERTEX
  8
LAYER_1
 10
140.7225
 20
-251.4344
 42
0.09765540905
  0
VERTEX
  8
LAYER_1
 10
140.6374
 20
-251.5767
 42
0.08446298011
  0
VERTEX
  8
LAYER_1
 10
140.6081
 20
-251.7476
 42
0.08257781466
  0
VERTEX
  8
LAYER_1
 10
140.6374
 20
-251.9188
 42
0.1022479965
  0
VERTEX
  8
LAYER_1
 10
140.7225
 20
-252.0607
 42
0.1007994813
  0
VERTEX
  8
LAYER_1
 10
140.8558
 20
-252.1575
 42
0.1058339915
  0
VERTEX
  8
LAYER_1
 10
141.0332
 20
-252.1937
 42
0.1146720599
  0
VERTEX
  8
LAYER_1
 10
141.211
 20
-252.1575
 42
0.1074750371
  0
VERTEX
  8
LAYER_1
 10
141.3454
 20
-252.0607
 42
0.0957445035
  0
VERTEX
  8
LAYER_1
 10
141.4301
 20
-251.9188
 42
0.08253202369
  0
SEQEND
  0
ENDBLK
  0
BLOCK
  8
LAYER_1
  2
AIGNBL01030011
 70
64
 10
0
 20
0
 30
0
  3
AIGNBL01030011
  0
POLYLINE
  8
LAYER_1
 40
0.05
 41
0.05
 66
1
 10
0
 20
0
 30
0
 70
1
  0
VERTEX
  8
LAYER_1
 10
142.3393
 20
-252.2609
  0
VERTEX
  8
LAYER_1
 10
142.2349
 20
-252.2609
  0
VERTEX
  8
LAYER_1
 10
142.2349
 20
-251.8182
  0
VERTEX
  8
LAYER_1
 10
141.8504
 20
-251.2339
  0
VERTEX
  8
LAYER_1
 10
141.9813
 20
-251.2339
  0
VERTEX
  8
LAYER_1
 10
142.2904
 20
-251.7311
  0
VERTEX
  8
LAYER_1
 10
142.6022
 20
-251.2339
  0
VERTEX
  8
LAYER_1
 10
142.7234
 20
-251.2339
  0
VERTEX
  8
LAYER_1
 10
142.3393
 20
-251.8182
  0
SEQEND
  0
ENDBLK
  0
BLOCK
  8
LAYER_1
  2
AIGNBL01030012
 70
64
 10
0
 20
0
 30
0
  3
AIGNBL01030012
  0
POLYLINE
  8
LAYER_1
 40
0.05
 41
0.05
 66
1
 10
0
 20
0
 30
0
 70
1
  0
VERTEX
  8
LAYER_1
 10
143.6236
 20
-251.2339
  0
VERTEX
  8
LAYER_1
 10
143.9288
 20
-251.2339
  0
VERTEX
  8
LAYER_1
 10
144.047
 20
-251.2457
  0
VERTEX
  8
LAYER_1
 10
144.1528
 20
-251.288
 42
-0.1142786728
  0
VERTEX
  8
LAYER_1
 10
144.2307
 20
-251.3686
 42
-0.1221660448
  0
VERTEX
  8
LAYER_1
 10
144.2603
 20
-251.4961
 42
-0.1789908253
  0
VERTEX
  8
LAYER_1
 10
144.2103
 20
-251.6373
 42
-0.1682964985
  0
VERTEX
  8
LAYER_1
 10
144.078
 20
-251.7166
  0
VERTEX
  8
LAYER_1
 10
144.078
 20
-251.7194
 42
-0.1720252291
  0
VERTEX
  8
LAYER_1
 10
144.2434
 20
-251.7969
 42
-0.2011476059
  0
VERTEX
  8
LAYER_1
 10
144.3099
 20
-251.9764
 42
-0.1263581039
  0
VERTEX
  8
LAYER_1
 10
144.2823
 20
-252.0928
 42
-0.1151202894
  0
VERTEX
  8
LAYER_1
 10
144.2062
 20
-252.1831
 42
-0.08559391469
  0
VERTEX
  8
LAYER_1
 10
144.0866
 20
-252.2402
 42
-0.06581098886
  0
VERTEX
  8
LAYER_1
 10
143.9275
 20
-252.2609
  0
VERTEX
  8
LAYER_1
 10
143.6236
 20
-252.2609
  0
SEQEND
  0
POLYLINE
  8
LAYER_1
 40
0.05
 41
0.05
 66
1
 10
0
 20
0
 30
0
 70
1
  0
VERTEX
  8
LAYER_1
 10
143.7277
 20
-251.6832
  0
VERTEX
  8
LAYER_1
 10
143.9382
 20
-251.6832
  0
VERTEX
  8
LAYER_1
 10
144.0146
 20
-251.6742
  0
VERTEX
  8
LAYER_1
 10
144.0842
 20
-251.6453
  0
VERTEX
  8
LAYER_1
 10
144.1362
 20
-251.5888
 42
0.1124449043
  0
VERTEX
  8
LAYER_1
 10
144.1552
 20
-251.5034
  0
VERTEX
  8
LAYER_1
 10
144.1362
 20
-251.4203
  0
VERTEX
  8
LAYER_1
 10
144.0835
 20
-251.3638
  0
VERTEX
  8
LAYER_1
 10
144.005
 20
-251.3328
  0
VERTEX
  8
LAYER_1
 10
143.9089
 20
-251.3235
  0
VERTEX
  8
LAYER_1
 10
143.7277
 20
-251.3235
  0
SEQEND
  0
POLYLINE
  8
LAYER_1
 40
0.05
 41
0.05
 66
1
 10
0
 20
0
 30
0
 70
1
  0
VERTEX
  8
LAYER_1
 10
143.7277
 20
-252.171
  0
VERTEX
  8
LAYER_1
 10
143.9223
 20
-252.171
  0
VERTEX
  8
LAYER_1
 10
144.0301
 20
-252.1596
  0
VERTEX
  8
LAYER_1
 10
144.1204
 20
-252.1252
  0
VERTEX
  8
LAYER_1
 10
144.181
 20
-252.0625
 42
0.1349508047
  0
VERTEX
  8
LAYER_1
 10
144.2048
 20
-251.9705
 42
0.2483168689
  0
VERTEX
  8
LAYER_1
 10
144.1362
 20
-251.8189
 42
0.1537491355
  0
VERTEX
  8
LAYER_1
 10
143.9413
 20
-251.7686
  0
VERTEX
  8
LAYER_1
 10
143.7277
 20
-251.7686
  0
SEQEND
  0
ENDBLK
  0
BLOCK
  8
LAYER_1
  2
AIGNBL01030013
 70
64
 10
0
 20
0
 30
0
  3
AIGNBL01030013
  0
POLYLINE
  8
LAYER_1
 40
0.05
 41
0.05
 66
1
 10
0
 20
0
 30
0
 70
1
  0
VERTEX
  8
LAYER_1
 10
144.7388
 20
-252.2609
  0
VERTEX
  8
LAYER_1
 10
144.6241
 20
-252.2609
  0
VERTEX
  8
LAYER_1
 10
145.0685
 20
-251.2339
  0
VERTEX
  8
LAYER_1
 10
145.1705
 20
-251.2339
  0
VERTEX
  8
LAYER_1
 10
145.6111
 20
-252.2609
  0
VERTEX
  8
LAYER_1
 10
145.4943
 20
-252.2609
  0
VERTEX
  8
LAYER_1
 10
145.3813
 20
-251.9912
  0
VERTEX
  8
LAYER_1
 10
144.8504
 20
-251.9912
  0
SEQEND
  0
POLYLINE
  8
LAYER_1
 40
0.05
 41
0.05
 66
1
 10
0
 20
0
 30
0
 70
1
  0
VERTEX
  8
LAYER_1
 10
144.8894
 20
-251.8947
  0
VERTEX
  8
LAYER_1
 10
145.3424
 20
-251.8947
  0
VERTEX
  8
LAYER_1
 10
145.1164
 20
-251.3493
  0
SEQEND
  0
ENDBLK
  0
BLOCK
  8
LAYER_1
  2
AIGNBL01030014
 70
64
 10
0
 20
0
 30
0
  3
AIGNBL01030014
  0
POLYLINE
  8
LAYER_1
 40
0.05
 41
0.05
 66
1
 10
0
 20
0
 30
0
 70
1
  0
VERTEX
  8
LAYER_1
 10
146.2915
 20
-252.2609
  0
VERTEX
  8
LAYER_1
 10
146.1871
 20
-252.2609
  0
VERTEX
  8
LAYER_1
 10
146.1871
 20
-251.3266
  0
VERTEX
  8
LAYER_1
 10
145.8426
 20
-251.3266
  0
VERTEX
  8
LAYER_1
 10
145.8426
 20
-251.2339
  0
VERTEX
  8
LAYER_1
 10
146.635
 20
-251.2339
  0
VERTEX
  8
LAYER_1
 10
146.635
 20
-251.3266
  0
VERTEX
  8
LAYER_1
 10
146.2915
 20
-251.3266
  0
SEQEND
  0
ENDBLK
  0
BLOCK
  8
LAYER_1
  2
AIGNBL01030015
 70
64
 10
0
 20
0
 30
0
  3
AIGNBL01030015
  0
POLYLINE
  8
LAYER_1
 40
0.05
 41
0.05
 66
1
 10
0
 20
0
 30
0
 70
1
  0
VERTEX
  8
LAYER_1
 10
146.9888
 20
-251.2339
  0
VERTEX
  8
LAYER_1
 10
147.0932
 20
-251.2339
  0
VERTEX
  8
LAYER_1
 10
147.0932
 20
-251.6787
  0
VERTEX
  8
LAYER_1
 10
147.654
 20
-251.6787
  0
VERTEX
  8
LAYER_1
 10
147.654
 20
-251.2339
  0
VERTEX
  8
LAYER_1
 10
147.7581
 20
-251.2339
  0
VERTEX
  8
LAYER_1
 10
147.7581
 20
-252.2609
  0
VERTEX
  8
LAYER_1
 10
147.654
 20
-252.2609
  0
VERTEX
  8
LAYER_1
 10
147.654
 20
-251.7745
  0
VERTEX
  8
LAYER_1
 10
147.0932
 20
-251.7745
  0
VERTEX
  8
LAYER_1
 10
147.0932
 20
-252.2609
  0
VERTEX
  8
LAYER_1
 10
146.9888
 20
-252.2609
  0
SEQEND
  0
ENDBLK
  0
BLOCK
  8
LAYER_1
  2
AIGNBL01030016
 70
64
 10
0
 20
0
 30
0
  3
AIGNBL01030016
  0
POLYLINE
  8
LAYER_1
 40
0.05
 41
0.05
 66
1
 10
0
 20
0
 30
0
 70
1
  0
VERTEX
  8
LAYER_1
 10
148.3351
 20
-252.2609
  0
VERTEX
  8
LAYER_1
 10
148.2311
 20
-252.2609
  0
VERTEX
  8
LAYER_1
 10
148.2311
 20
-251.2339
  0
VERTEX
  8
LAYER_1
 10
148.5322
 20
-251.2339
  0
VERTEX
  8
LAYER_1
 10
148.6724
 20
-251.2481
 42
-0.1023663758
  0
VERTEX
  8
LAYER_1
 10
148.7844
 20
-251.2953
 42
-0.1332028562
  0
VERTEX
  8
LAYER_1
 10
148.8571
 20
-251.38
 42
-0.109414644
  0
VERTEX
  8
LAYER_1
 10
148.8829
 20
-251.5078
  0
VERTEX
  8
LAYER_1
 10
148.8636
 20
-251.6108
  0
VERTEX
  8
LAYER_1
 10
148.8088
 20
-251.6911
  0
VERTEX
  8
LAYER_1
 10
148.7258
 20
-251.7459
  0
VERTEX
  8
LAYER_1
 10
148.6214
 20
-251.7717
  0
VERTEX
  8
LAYER_1
 10
148.9211
 20
-252.2609
  0
VERTEX
  8
LAYER_1
 10
148.7937
 20
-252.2609
  0
VERTEX
  8
LAYER_1
 10
148.5098
 20
-251.7807
  0
VERTEX
  8
LAYER_1
 10
148.3351
 20
-251.7807
  0
SEQEND
  0
POLYLINE
  8
LAYER_1
 40
0.05
 41
0.05
 66
1
 10
0
 20
0
 30
0
 70
1
  0
VERTEX
  8
LAYER_1
 10
148.3351
 20
-251.6904
  0
VERTEX
  8
LAYER_1
 10
148.517
 20
-251.6904
 42
0.1513063474
  0
VERTEX
  8
LAYER_1
 10
148.711
 20
-251.6453
 42
0.2568804362
  0
VERTEX
  8
LAYER_1
 10
148.7799
 20
-251.5078
  0
VERTEX
  8
LAYER_1
 10
148.7602
 20
-251.4224
 42
0.1232056022
  0
VERTEX
  8
LAYER_1
 10
148.7079
 20
-251.3652
  0
VERTEX
  8
LAYER_1
 10
148.6269
 20
-251.3338
  0
VERTEX
  8
LAYER_1
 10
148.5212
 20
-251.3235
  0
VERTEX
  8
LAYER_1
 10
148.3351
 20
-251.3235
  0
SEQEND
  0
ENDBLK
  0
BLOCK
  8
LAYER_1
  2
AIGNBL01030017
 70
64
 10
0
 20
0
 30
0
  3
AIGNBL01030017
  0
POLYLINE
  8
LAYER_1
 40
0.05
 41
0.05
 66
1
 10
0
 20
0
 30
0
 70
1
  0
VERTEX
  8
LAYER_1
 10
150.3154
 20
-251.7469
 42
-0.09975403421
  0
VERTEX
  8
LAYER_1
 10
150.2747
 20
-251.9629
 42
-0.09935173186
  0
VERTEX
  8
LAYER_1
 10
150.1624
 20
-252.1338
 42
-0.09811740303
  0
VERTEX
  8
LAYER_1
 10
149.9926
 20
-252.2461
 42
-0.09708882113
  0
VERTEX
  8
LAYER_1
 10
149.78
 20
-252.2868
 42
-0.09940093633
  0
VERTEX
  8
LAYER_1
 10
149.5674
 20
-252.2461
 42
-0.1007896559
  0
VERTEX
  8
LAYER_1
 10
149.3979
 20
-252.1338
 42
-0.09768152712
  0
VERTEX
  8
LAYER_1
 10
149.2856
 20
-251.9629
 42
-0.09531839447
  0
VERTEX
  8
LAYER_1
 10
149.2453
 20
-251.7469
 42
-0.09746952437
  0
VERTEX
  8
LAYER_1
 10
149.2856
 20
-251.5306
 42
-0.09925134223
  0
VERTEX
  8
LAYER_1
 10
149.3979
 20
-251.3604
 42
-0.1005970746
  0
VERTEX
  8
LAYER_1
 10
149.5674
 20
-251.2481
 42
-0.09815409965
  0
VERTEX
  8
LAYER_1
 10
149.78
 20
-251.2071
 42
-0.1003559568
  0
VERTEX
  8
LAYER_1
 10
149.9926
 20
-251.2481
 42
-0.1030391221
  0
VERTEX
  8
LAYER_1
 10
150.1624
 20
-251.3604
 42
-0.09760938344
  0
VERTEX
  8
LAYER_1
 10
150.2747
 20
-251.5306
 42
-0.09618621792
  0
SEQEND
  0
POLYLINE
  8
LAYER_1
 40
0.05
 41
0.05
 66
1
 10
0
 20
0
 30
0
 70
1
  0
VERTEX
  8
LAYER_1
 10
150.2051
 20
-251.7476
 42
0.08928566433
  0
VERTEX
  8
LAYER_1
 10
150.1762
 20
-251.5767
 42
0.0967309921
  0
VERTEX
  8
LAYER_1
 10
150.0921
 20
-251.4344
 42
0.1033640041
  0
VERTEX
  8
LAYER_1
 10
149.9581
 20
-251.337
 42
0.1075765453
  0
VERTEX
  8
LAYER_1
 10
149.78
 20
-251.3001
 42
0.1148421003
  0
VERTEX
  8
LAYER_1
 10
149.6026
 20
-251.337
 42
0.106797523
  0
VERTEX
  8
LAYER_1
 10
149.4682
 20
-251.4344
 42
0.09375888087
  0
VERTEX
  8
LAYER_1
 10
149.3842
 20
-251.5767
 42
0.08542444587
  0
VERTEX
  8
LAYER_1
 10
149.3549
 20
-251.7476
 42
0.08738527021
  0
VERTEX
  8
LAYER_1
 10
149.3842
 20
-251.9188
 42
0.09670329037
  0
VERTEX
  8
LAYER_1
 10
149.4682
 20
-252.0607
 42
0.09891153362
  0
VERTEX
  8
LAYER_1
 10
149.6026
 20
-252.1575
 42
0.1067011915
  0
VERTEX
  8
LAYER_1
 10
149.78
 20
-252.1937
 42
0.1133540876
  0
VERTEX
  8
LAYER_1
 10
149.9581
 20
-252.1575
 42
0.1038012544
  0
VERTEX
  8
LAYER_1
 10
150.0921
 20
-252.0607
 42
0.09726416843
  0
VERTEX
  8
LAYER_1
 10
150.1762
 20
-251.9188
 42
0.0854375021
  0
SEQEND
  0
ENDBLK
  0
BLOCK
  8
LAYER_1
  2
AIGNBL01030018
 70
64
 10
0
 20
0
 30
0
  3
AIGNBL01030018
  0
POLYLINE
  8
LAYER_1
 40
0.05
 41
0.05
 66
1
 10
0
 20
0
 30
0
 70
1
  0
VERTEX
  8
LAYER_1
 10
151.7489
 20
-251.7469
 42
-0.09970583877
  0
VERTEX
  8
LAYER_1
 10
151.7086
 20
-251.9629
 42
-0.0976989983
  0
VERTEX
  8
LAYER_1
 10
151.5963
 20
-252.1338
 42
-0.09521451671
  0
VERTEX
  8
LAYER_1
 10
151.4264
 20
-252.2461
 42
-0.09711421911
  0
VERTEX
  8
LAYER_1
 10
151.2139
 20
-252.2868
 42
-0.1003065361
  0
VERTEX
  8
LAYER_1
 10
151.0013
 20
-252.2461
 42
-0.1012502646
  0
VERTEX
  8
LAYER_1
 10
150.8318
 20
-252.1338
 42
-0.09902147312
  0
VERTEX
  8
LAYER_1
 10
150.7188
 20
-251.9629
 42
-0.09657946775
  0
VERTEX
  8
LAYER_1
 10
150.6781
 20
-251.7469
 42
-0.09892706014
  0
VERTEX
  8
LAYER_1
 10
150.7188
 20
-251.5306
 42
-0.1025433378
  0
VERTEX
  8
LAYER_1
 10
150.8318
 20
-251.3604
 42
-0.1009513296
  0
VERTEX
  8
LAYER_1
 10
151.0013
 20
-251.2481
 42
-0.09841178888
  0
VERTEX
  8
LAYER_1
 10
151.2139
 20
-251.2071
 42
-0.1004512574
  0
VERTEX
  8
LAYER_1
 10
151.4264
 20
-251.2481
 42
-0.09871557407
  0
VERTEX
  8
LAYER_1
 10
151.5963
 20
-251.3604
 42
-0.09679690961
  0
VERTEX
  8
LAYER_1
 10
151.7086
 20
-251.5306
 42
-0.09571421233
  0
SEQEND
  0
POLYLINE
  8
LAYER_1
 40
0.05
 41
0.05
 66
1
 10
0
 20
0
 30
0
 70
1
  0
VERTEX
  8
LAYER_1
 10
151.639
 20
-251.7476
 42
0.08698818876
  0
VERTEX
  8
LAYER_1
 10
151.61
 20
-251.5767
 42
0.0956708921
  0
VERTEX
  8
LAYER_1
 10
151.526
 20
-251.4344
 42
0.1033803157
  0
VERTEX
  8
LAYER_1
 10
151.3916
 20
-251.337
 42
0.1075718589
  0
VERTEX
  8
LAYER_1
 10
151.2139
 20
-251.3001
 42
0.1154259577
  0
VERTEX
  8
LAYER_1
 10
151.0361
 20
-251.337
 42
0.1064173637
  0
VERTEX
  8
LAYER_1
 10
150.9017
 20
-251.4344
 42
0.1028942614
  0
VERTEX
  8
LAYER_1
 10
150.818
 20
-251.5767
 42
0.08542444587
  0
VERTEX
  8
LAYER_1
 10
150.7887
 20
-251.7476
 42
0.08738527021
  0
VERTEX
  8
LAYER_1
 10
150.818
 20
-251.9188
 42
0.1032562832
  0
VERTEX
  8
LAYER_1
 10
150.9017
 20
-252.0607
 42
0.1008165521
  0
VERTEX
  8
LAYER_1
 10
151.0361
 20
-252.1575
 42
0.1069398409
  0
VERTEX
  8
LAYER_1
 10
151.2139
 20
-252.1937
 42
0.1127969838
  0
VERTEX
  8
LAYER_1
 10
151.3916
 20
-252.1575
 42
0.1024372123
  0
VERTEX
  8
LAYER_1
 10
151.526
 20
-252.0607
 42
0.09088614582
  0
VERTEX
  8
LAYER_1
 10
151.61
 20
-251.9188
 42
0.08498619229
  0
SEQEND
  0
ENDBLK
  0
BLOCK
  8
LAYER_1
  2
AIGNBL01030019
 70
64
 10
0
 20
0
 30
0
  3
AIGNBL01030019
  0
POLYLINE
  8
LAYER_1
 40
0.05
 41
0.05
 66
1
 10
0
 20
0
 30
0
 70
1
  0
VERTEX
  8
LAYER_1
 10
152.6742
 20
-252.0839
  0
VERTEX
  8
LAYER_1
 10
152.6756
 20
-252.0839
  0
VERTEX
  8
LAYER_1
 10
153.0194
 20
-251.2339
  0
VERTEX
  8
LAYER_1
 10
153.1793
 20
-251.2339
  0
VERTEX
  8
LAYER_1
 10
153.1793
 20
-252.2609
  0
VERTEX
  8
LAYER_1
 10
153.0749
 20
-252.2609
  0
VERTEX
  8
LAYER_1
 10
153.0749
 20
-251.3686
  0
VERTEX
  8
LAYER_1
 10
153.0718
 20
-251.3686
  0
VERTEX
  8
LAYER_1
 10
152.7007
 20
-252.2609
  0
VERTEX
  8
LAYER_1
 10
152.646
 20
-252.2609
  0
VERTEX
  8
LAYER_1
 10
152.2743
 20
-251.3686
  0
VERTEX
  8
LAYER_1
 10
152.2708
 20
-251.3686
  0
VERTEX
  8
LAYER_1
 10
152.2708
 20
-252.2609
  0
VERTEX
  8
LAYER_1
 10
152.1668
 20
-252.2609
  0
VERTEX
  8
LAYER_1
 10
152.1668
 20
-251.2339
  0
VERTEX
  8
LAYER_1
 10
152.327
 20
-251.2339
  0
SEQEND
  0
ENDBLK
  0
BLOCK
  8
LAYER_1
  2
AIGNBL0103001A
 70
64
 10
0
 20
0
 30
0
  3
AIGNBL0103001A
  0
POLYLINE
  8
LAYER_1
 40
0.05
 41
0.05
 66
1
 10
0
 20
0
 30
0
 70
1
  0
VERTEX
  8
LAYER_1
 10
154.3196
 20
-252.1676
  0
VERTEX
  8
LAYER_1
 10
154.8694
 20
-252.1676
  0
VERTEX
  8
LAYER_1
 10
154.8694
 20
-252.2609
  0
VERTEX
  8
LAYER_1
 10
154.2145
 20
-252.2609
  0
VERTEX
  8
LAYER_1
 10
154.2145
 20
-251.2339
  0
VERTEX
  8
LAYER_1
 10
154.8522
 20
-251.2339
  0
VERTEX
  8
LAYER_1
 10
154.8522
 20
-251.3263
  0
VERTEX
  8
LAYER_1
 10
154.3196
 20
-251.3263
  0
VERTEX
  8
LAYER_1
 10
154.3196
 20
-251.6787
  0
VERTEX
  8
LAYER_1
 10
154.8167
 20
-251.6787
  0
VERTEX
  8
LAYER_1
 10
154.8167
 20
-251.7717
  0
VERTEX
  8
LAYER_1
 10
154.3196
 20
-251.7717
  0
SEQEND
  0
ENDBLK
  0
BLOCK
  8
LAYER_1
  2
AIGNBL0103001B
 70
64
 10
0
 20
0
 30
0
  3
AIGNBL0103001B
  0
POLYLINE
  8
LAYER_1
 40
0.05
 41
0.05
 66
1
 10
0
 20
0
 30
0
 70
1
  0
VERTEX
  8
LAYER_1
 10
155.6101
 20
-251.6484
  0
VERTEX
  8
LAYER_1
 10
155.8906
 20
-251.2339
  0
VERTEX
  8
LAYER_1
 10
156.0153
 20
-251.2339
  0
VERTEX
  8
LAYER_1
 10
155.6749
 20
-251.7221
  0
VERTEX
  8
LAYER_1
 10
156.0518
 20
-252.2609
  0
VERTEX
  8
LAYER_1
 10
155.9216
 20
-252.2609
  0
VERTEX
  8
LAYER_1
 10
155.6081
 20
-251.7979
  0
VERTEX
  8
LAYER_1
 10
155.296
 20
-252.2609
  0
VERTEX
  8
LAYER_1
 10
155.165
 20
-252.2609
  0
VERTEX
  8
LAYER_1
 10
155.5426
 20
-251.7211
  0
VERTEX
  8
LAYER_1
 10
155.1988
 20
-251.2339
  0
VERTEX
  8
LAYER_1
 10
155.329
 20
-251.2339
  0
SEQEND
  0
ENDBLK
  0
BLOCK
  8
LAYER_1
  2
AIGNBL0103001C
 70
64
 10
0
 20
0
 30
0
  3
AIGNBL0103001C
  0
POLYLINE
  8
LAYER_1
 40
0.05
 41
0.05
 66
1
 10
0
 20
0
 30
0
 70
1
  0
VERTEX
  8
LAYER_1
 10
156.4159
 20
-251.2339
  0
VERTEX
  8
LAYER_1
 10
156.706
 20
-251.2339
  0
VERTEX
  8
LAYER_1
 10
156.8487
 20
-251.2498
 42
-0.110657953
  0
VERTEX
  8
LAYER_1
 10
156.9575
 20
-251.3015
 42
-0.1163763428
  0
VERTEX
  8
LAYER_1
 10
157.0288
 20
-251.3866
 42
-0.1004779162
  0
VERTEX
  8
LAYER_1
 10
157.053
 20
-251.5078
 42
-0.1135751127
  0
VERTEX
  8
LAYER_1
 10
157.0281
 20
-251.6291
 42
-0.1113908719
  0
VERTEX
  8
LAYER_1
 10
156.9568
 20
-251.7145
 42
-0.08575538996
  0
VERTEX
  8
LAYER_1
 10
156.8459
 20
-251.7659
 42
-0.06072195454
  0
VERTEX
  8
LAYER_1
 10
156.7032
 20
-251.7831
  0
VERTEX
  8
LAYER_1
 10
156.5203
 20
-251.7831
  0
VERTEX
  8
LAYER_1
 10
156.5203
 20
-252.2609
  0
VERTEX
  8
LAYER_1
 10
156.4159
 20
-252.2609
  0
SEQEND
  0
POLYLINE
  8
LAYER_1
 40
0.05
 41
0.05
 66
1
 10
0
 20
0
 30
0
 70
1
  0
VERTEX
  8
LAYER_1
 10
156.5203
 20
-251.6949
  0
VERTEX
  8
LAYER_1
 10
156.6974
 20
-251.6949
 42
0.1668395642
  0
VERTEX
  8
LAYER_1
 10
156.8848
 20
-251.6474
 42
0.2433158568
  0
VERTEX
  8
LAYER_1
 10
156.9489
 20
-251.5078
 42
0.2579107644
  0
VERTEX
  8
LAYER_1
 10
156.8824
 20
-251.3676
 42
0.1431777658
  0
VERTEX
  8
LAYER_1
 10
156.6974
 20
-251.3235
  0
VERTEX
  8
LAYER_1
 10
156.5203
 20
-251.3235
  0
SEQEND
  0
ENDBLK
  0
BLOCK
  8
LAYER_1
  2
AIGNBL0103001D
 70
64
 10
0
 20
0
 30
0
  3
AIGNBL0103001D
  0
POLYLINE
  8
LAYER_1
 40
0.05
 41
0.05
 66
1
 10
0
 20
0
 30
0
 70
1
  0
VERTEX
  8
LAYER_1
 10
157.5621
 20
-252.1676
  0
VERTEX
  8
LAYER_1
 10
158.1116
 20
-252.1676
  0
VERTEX
  8
LAYER_1
 10
158.1116
 20
-252.2609
  0
VERTEX
  8
LAYER_1
 10
157.4577
 20
-252.2609
  0
VERTEX
  8
LAYER_1
 10
157.4577
 20
-251.2339
  0
VERTEX
  8
LAYER_1
 10
158.0947
 20
-251.2339
  0
VERTEX
  8
LAYER_1
 10
158.0947
 20
-251.3263
  0
VERTEX
  8
LAYER_1
 10
157.5621
 20
-251.3263
  0
VERTEX
  8
LAYER_1
 10
157.5621
 20
-251.6787
  0
VERTEX
  8
LAYER_1
 10
158.0599
 20
-251.6787
  0
VERTEX
  8
LAYER_1
 10
158.0599
 20
-251.7717
  0
VERTEX
  8
LAYER_1
 10
157.5621
 20
-251.7717
  0
SEQEND
  0
ENDBLK
  0
BLOCK
  8
LAYER_1
  2
AIGNBL0103001E
 70
64
 10
0
 20
0
 30
0
  3
AIGNBL0103001E
  0
POLYLINE
  8
LAYER_1
 40
0.05
 41
0.05
 66
1
 10
0
 20
0
 30
0
 70
1
  0
VERTEX
  8
LAYER_1
 10
158.6208
 20
-252.2609
  0
VERTEX
  8
LAYER_1
 10
158.5168
 20
-252.2609
  0
VERTEX
  8
LAYER_1
 10
158.5168
 20
-251.2339
  0
VERTEX
  8
LAYER_1
 10
158.8185
 20
-251.2339
  0
VERTEX
  8
LAYER_1
 10
158.9584
 20
-251.2481
 42
-0.1005953548
  0
VERTEX
  8
LAYER_1
 10
159.07
 20
-251.2953
 42
-0.1225647981
  0
VERTEX
  8
LAYER_1
 10
159.1438
 20
-251.38
 42
-0.1056037953
  0
VERTEX
  8
LAYER_1
 10
159.1696
 20
-251.5078
 42
-0.113550017
  0
VERTEX
  8
LAYER_1
 10
159.1493
 20
-251.6105
  0
VERTEX
  8
LAYER_1
 10
159.0945
 20
-251.6915
  0
VERTEX
  8
LAYER_1
 10
159.0111
 20
-251.7459
  0
VERTEX
  8
LAYER_1
 10
158.9067
 20
-251.7717
  0
VERTEX
  8
LAYER_1
 10
159.2075
 20
-252.2609
  0
VERTEX
  8
LAYER_1
 10
159.08
 20
-252.2609
  0
VERTEX
  8
LAYER_1
 10
158.7955
 20
-251.7803
  0
VERTEX
  8
LAYER_1
 10
158.6208
 20
-251.7803
  0
SEQEND
  0
POLYLINE
  8
LAYER_1
 40
0.05
 41
0.05
 66
1
 10
0
 20
0
 30
0
 70
1
  0
VERTEX
  8
LAYER_1
 10
158.6208
 20
-251.69
  0
VERTEX
  8
LAYER_1
 10
158.8027
 20
-251.69
 42
0.1507170359
  0
VERTEX
  8
LAYER_1
 10
158.9974
 20
-251.6453
 42
0.2579683273
  0
VERTEX
  8
LAYER_1
 10
159.0652
 20
-251.5078
  0
VERTEX
  8
LAYER_1
 10
159.047
 20
-251.4224
  0
VERTEX
  8
LAYER_1
 10
158.9943
 20
-251.3652
  0
VERTEX
  8
LAYER_1
 10
158.9123
 20
-251.3338
  0
VERTEX
  8
LAYER_1
 10
158.8065
 20
-251.3235
  0
VERTEX
  8
LAYER_1
 10
158.6208
 20
-251.3235
  0
SEQEND
  0
ENDBLK
  0
BLOCK
  8
LAYER_1
  2
AIGNBL0103001F
 70
64
 10
0
 20
0
 30
0
  3
AIGNBL0103001F
  0
POLYLINE
  8
LAYER_1
 40
0.05
 41
0.05
 66
1
 10
0
 20
0
 30
0
 70
1
  0
VERTEX
  8
LAYER_1
 10
159.6898
 20
-252.2609
  0
VERTEX
  8
LAYER_1
 10
159.5865
 20
-252.2609
  0
VERTEX
  8
LAYER_1
 10
159.5865
 20
-251.2339
  0
VERTEX
  8
LAYER_1
 10
159.6898
 20
-251.2339
  0
SEQEND
  0
ENDBLK
  0
BLOCK
  8
LAYER_1
  2
AIGNBL01030020
 70
64
 10
0
 20
0
 30
0
  3
AIGNBL01030020
  0
POLYLINE
  8
LAYER_1
 40
0.05
 41
0.05
 66
1
 10
0
 20
0
 30
0
 70
1
  0
VERTEX
  8
LAYER_1
 10
160.2676
 20
-252.1676
  0
VERTEX
  8
LAYER_1
 10
160.8174
 20
-252.1676
  0
VERTEX
  8
LAYER_1
 10
160.8174
 20
-252.2609
  0
VERTEX
  8
LAYER_1
 10
160.1639
 20
-252.2609
  0
VERTEX
  8
LAYER_1
 10
160.1639
 20
-251.2339
  0
VERTEX
  8
LAYER_1
 10
160.8005
 20
-251.2339
  0
VERTEX
  8
LAYER_1
 10
160.8005
 20
-251.3263
  0
VERTEX
  8
LAYER_1
 10
160.2676
 20
-251.3263
  0
VERTEX
  8
LAYER_1
 10
160.2676
 20
-251.6787
  0
VERTEX
  8
LAYER_1
 10
160.7654
 20
-251.6787
  0
VERTEX
  8
LAYER_1
 10
160.7654
 20
-251.7717
  0
VERTEX
  8
LAYER_1
 10
160.2676
 20
-251.7717
  0
SEQEND
  0
ENDBLK
  0
BLOCK
  8
LAYER_1
  2
AIGNBL01030021
 70
64
 10
0
 20
0
 30
0
  3
AIGNBL01030021
  0
POLYLINE
  8
LAYER_1
 40
0.05
 41
0.05
 66
1
 10
0
 20
0
 30
0
 70
1
  0
VERTEX
  8
LAYER_1
 10
161.9505
 20
-252.1079
  0
VERTEX
  8
LAYER_1
 10
161.9536
 20
-252.1079
  0
VERTEX
  8
LAYER_1
 10
161.9536
 20
-251.2339
  0
VERTEX
  8
LAYER_1
 10
162.058
 20
-251.2339
  0
VERTEX
  8
LAYER_1
 10
162.058
 20
-252.2609
  0
VERTEX
  8
LAYER_1
 10
161.9277
 20
-252.2609
  0
VERTEX
  8
LAYER_1
 10
161.3297
 20
-251.3772
  0
VERTEX
  8
LAYER_1
 10
161.3266
 20
-251.3772
  0
VERTEX
  8
LAYER_1
 10
161.3266
 20
-252.2609
  0
VERTEX
  8
LAYER_1
 10
161.2222
 20
-252.2609
  0
VERTEX
  8
LAYER_1
 10
161.2222
 20
-251.2339
  0
VERTEX
  8
LAYER_1
 10
161.3535
 20
-251.2339
  0
SEQEND
  0
ENDBLK
  0
BLOCK
  8
LAYER_1
  2
AIGNBL01030022
 70
64
 10
0
 20
0
 30
0
  3
AIGNBL01030022
  0
POLYLINE
  8
LAYER_1
 40
0.05
 41
0.05
 66
1
 10
0
 20
0
 30
0
 70
1
  0
VERTEX
  8
LAYER_1
 10
163.396
 20
-252.0942
  0
VERTEX
  8
LAYER_1
 10
163.3323
 20
-252.1679
  0
VERTEX
  8
LAYER_1
 10
163.2469
 20
-252.2295
  0
VERTEX
  8
LAYER_1
 10
163.1394
 20
-252.2716
  0
VERTEX
  8
LAYER_1
 10
163.0112
 20
-252.2868
 42
-0.09929103144
  0
VERTEX
  8
LAYER_1
 10
162.7966
 20
-252.2461
 42
-0.1031170142
  0
VERTEX
  8
LAYER_1
 10
162.6271
 20
-252.1335
 42
-0.1024256256
  0
VERTEX
  8
LAYER_1
 10
162.5162
 20
-251.9633
 42
-0.09780652729
  0
VERTEX
  8
LAYER_1
 10
162.4759
 20
-251.7469
 42
-0.1005543907
  0
VERTEX
  8
LAYER_1
 10
162.5169
 20
-251.5306
 42
-0.09980539098
  0
VERTEX
  8
LAYER_1
 10
162.6285
 20
-251.3604
 42
-0.09707816065
  0
VERTEX
  8
LAYER_1
 10
162.798
 20
-251.2481
 42
-0.09782536185
  0
VERTEX
  8
LAYER_1
 10
163.0112
 20
-251.2071
  0
VERTEX
  8
LAYER_1
 10
163.1222
 20
-251.2191
  0
VERTEX
  8
LAYER_1
 10
163.2252
 20
-251.2522
  0
VERTEX
  8
LAYER_1
 10
163.3117
 20
-251.3035
  0
VERTEX
  8
LAYER_1
 10
163.3767
 20
-251.3711
  0
VERTEX
  8
LAYER_1
 10
163.2906
 20
-251.4355
  0
VERTEX
  8
LAYER_1
 10
163.2469
 20
-251.3858
  0
VERTEX
  8
LAYER_1
 10
163.1835
 20
-251.3421
  0
VERTEX
  8
LAYER_1
 10
163.1043
 20
-251.3114
  0
VERTEX
  8
LAYER_1
 10
163.0126
 20
-251.3001
 42
0.111032742
  0
VERTEX
  8
LAYER_1
 10
162.8338
 20
-251.3362
 42
0.1048566985
  0
VERTEX
  8
LAYER_1
 10
162.6998
 20
-251.4338
 42
0.09649516609
  0
VERTEX
  8
LAYER_1
 10
162.6147
 20
-251.5764
 42
0.08187604402
  0
VERTEX
  8
LAYER_1
 10
162.5868
 20
-251.7469
 42
0.09351376633
  0
VERTEX
  8
LAYER_1
 10
162.6164
 20
-251.9178
 42
0.09951767869
  0
VERTEX
  8
LAYER_1
 10
162.7012
 20
-252.0601
 42
0.1063497227
  0
VERTEX
  8
LAYER_1
 10
162.8356
 20
-252.1575
 42
0.1081437471
  0
VERTEX
  8
LAYER_1
 10
163.0126
 20
-252.1937
 42
0.1144963135
  0
VERTEX
  8
LAYER_1
 10
163.1804
 20
-252.1575
 42
0.1351211567
  0
VERTEX
  8
LAYER_1
 10
163.3148
 20
-252.0414
  0
SEQEND
  0
ENDBLK
  0
BLOCK
  8
LAYER_1
  2
AIGNBL01030023
 70
64
 10
0
 20
0
 30
0
  3
AIGNBL01030023
  0
POLYLINE
  8
LAYER_1
 40
0.05
 41
0.05
 66
1
 10
0
 20
0
 30
0
 70
1
  0
VERTEX
  8
LAYER_1
 10
163.8801
 20
-252.1676
  0
VERTEX
  8
LAYER_1
 10
164.4299
 20
-252.1676
  0
VERTEX
  8
LAYER_1
 10
164.4299
 20
-252.2609
  0
VERTEX
  8
LAYER_1
 10
163.7764
 20
-252.2609
  0
VERTEX
  8
LAYER_1
 10
163.7764
 20
-251.2339
  0
VERTEX
  8
LAYER_1
 10
164.4127
 20
-251.2339
  0
VERTEX
  8
LAYER_1
 10
164.4127
 20
-251.3263
  0
VERTEX
  8
LAYER_1
 10
163.8801
 20
-251.3263
  0
VERTEX
  8
LAYER_1
 10
163.8801
 20
-251.6787
  0
VERTEX
  8
LAYER_1
 10
164.3782
 20
-251.6787
  0
VERTEX
  8
LAYER_1
 10
164.3782
 20
-251.7717
  0
VERTEX
  8
LAYER_1
 10
163.8801
 20
-251.7717
  0
SEQEND
  0
ENDBLK
  0
BLOCK
  8
LAYER_1
  2
AIGNBL01020003
 70
64
 10
0
 20
0
 30
0
  3
AIGNBL01020003
  0
INSERT
  8
LAYER_1
  2
AIGNBL01030004
 10
0
 20
0
 30
0
  0
ENDBLK
  0
BLOCK
  8
LAYER_1
  2
AIGNBL0102000C
 70
64
 10
0
 20
0
 30
0
  3
AIGNBL0102000C
  0
INSERT
  8
LAYER_1
  2
AIGNBL0103000D
 10
0
 20
0
 30
0
  0
INSERT
  8
LAYER_1
  2
AIGNBL0103000E
 10
0
 20
0
 30
0
  0
INSERT
  8
LAYER_1
  2
AIGNBL0103000F
 10
0
 20
0
 30
0
  0
INSERT
  8
LAYER_1
  2
AIGNBL01030010
 10
0
 20
0
 30
0
  0
INSERT
  8
LAYER_1
  2
AIGNBL01030011
 10
0
 20
0
 30
0
  0
INSERT
  8
LAYER_1
  2
AIGNBL01030012
 10
0
 20
0
 30
0
  0
INSERT
  8
LAYER_1
  2
AIGNBL01030013
 10
0
 20
0
 30
0
  0
INSERT
  8
LAYER_1
  2
AIGNBL01030014
 10
0
 20
0
 30
0
  0
INSERT
  8
LAYER_1
  2
AIGNBL01030015
 10
0
 20
0
 30
0
  0
INSERT
  8
LAYER_1
  2
AIGNBL01030016
 10
0
 20
0
 30
0
  0
INSERT
  8
LAYER_1
  2
AIGNBL01030017
 10
0
 20
0
 30
0
  0
INSERT
  8
LAYER_1
  2
AIGNBL01030018
 10
0
 20
0
 30
0
  0
INSERT
  8
LAYER_1
  2
AIGNBL01030019
 10
0
 20
0
 30
0
  0
INSERT
  8
LAYER_1
  2
AIGNBL0103001A
 10
0
 20
0
 30
0
  0
INSERT
  8
LAYER_1
  2
AIGNBL0103001B
 10
0
 20
0
 30
0
  0
INSERT
  8
LAYER_1
  2
AIGNBL0103001C
 10
0
 20
0
 30
0
  0
INSERT
  8
LAYER_1
  2
AIGNBL0103001D
 10
0
 20
0
 30
0
  0
INSERT
  8
LAYER_1
  2
AIGNBL0103001E
 10
0
 20
0
 30
0
  0
INSERT
  8
LAYER_1
  2
AIGNBL0103001F
 10
0
 20
0
 30
0
  0
INSERT
  8
LAYER_1
  2
AIGNBL01030020
 10
0
 20
0
 30
0
  0
INSERT
  8
LAYER_1
  2
AIGNBL01030021
 10
0
 20
0
 30
0
  0
INSERT
  8
LAYER_1
  2
AIGNBL01030022
 10
0
 20
0
 30
0
  0
INSERT
  8
LAYER_1
  2
AIGNBL01030023
 10
0
 20
0
 30
0
  0
ENDBLK
  0
BLOCK
  8
LAYER_1
  2
AIGNBL01010002
 70
64
 10
0
 20
0
 30
0
  3
AIGNBL01010002
  0
INSERT
  8
LAYER_1
  2
AIGNBL01020003
 10
0
 20
0
 30
0
  0
INSERT
  8
LAYER_1
  2
AIGNBL0102000C
 10
0
 20
0
 30
0
  0
ENDBLK
  0
BLOCK
  8
LAYER_3
  2
AIGNBL03010002
 70
64
 10
0
 20
0
 30
0
  3
AIGNBL03010002
  0
POLYLINE
  8
LAYER_3
 40
0.1058
 41
0.1058
 66
1
 10
0
 20
0
 30
0
  0
VERTEX
  8
LAYER_3
 10
124.0583
 20
-112.382
  0
SEQEND
  0
ENDBLK
  0
BLOCK
  8
LAYER_3
  2
AIGNBL03010003
 70
64
 10
0
 20
0
 30
0
  3
AIGNBL03010003
  0
POLYLINE
  8
LAYER_3
 40
0.1058
 41
0.1058
 66
1
 10
0
 20
0
 30
0
  0
VERTEX
  8
LAYER_3
 10
123.9583
 20
-177.3498
  0
SEQEND
  0
ENDBLK
  0
BLOCK
  8
LAYER_3
  2
AIGNBL03010004
 70
64
 10
0
 20
0
 30
0
  3
AIGNBL03010004
  0
POLYLINE
  8
LAYER_3
 40
0.1058
 41
0.1058
 66
1
 10
0
 20
0
 30
0
  0
VERTEX
  8
LAYER_3
 10
175.6084
 20
-101.5516
  0
SEQEND
  0
ENDBLK
  0
BLOCK
  8
LAYER_3
  2
AIGNBL03010005
 70
64
 10
0
 20
0
 30
0
  3
AIGNBL03010005
  0
POLYLINE
  8
LAYER_3
 40
0.1058
 41
0.1058
 66
1
 10
0
 20
0
 30
0
  0
VERTEX
  8
LAYER_3
 10
113.6082
 20
-101.5516
  0
SEQEND
  0
ENDBLK
  0
BLOCK
  8
LAYER_3
  2
AIGNBL03010006
 70
64
 10
0
 20
0
 30
0
  3
AIGNBL03010006
  0
POLYLINE
  8
LAYER_3
 40
0.1058
 41
0.1058
 66
1
 10
0
 20
0
 30
0
  0
VERTEX
  8
LAYER_3
 10
165.4379
 20
-173.859
  0
SEQEND
  0
ENDBLK
  0
BLOCK
  8
LAYER_3
  2
AIGNBL03010007
 70
64
 10
0
 20
0
 30
0
  3
AIGNBL03010007
  0
POLYLINE
  8
LAYER_3
 40
0.1058
 41
0.1058
 66
1
 10
0
 20
0
 30
0
  0
VERTEX
  8
LAYER_3
 10
124.1378
 20
-173.422
  0
SEQEND
  0
ENDBLK
  0
BLOCK
  8
LAYER_3
  2
AIGNBL03010008
 70
64
 10
0
 20
0
 30
0
  3
AIGNBL03010008
  0
POLYLINE
  8
LAYER_3
 40
0.1058
 41
0.1058
 66
1
 10
0
 20
0
 30
0
  0
VERTEX
  8
LAYER_3
 10
123.9583
 20
-177.3498
  0
SEQEND
  0
ENDBLK
  0
BLOCK
  8
LAYER_3
  2
AIGNBL03010009
 70
64
 10
0
 20
0
 30
0
  3
AIGNBL03010009
  0
POLYLINE
  8
LAYER_3
 40
0.1058
 41
0.1058
 66
1
 10
0
 20
0
 30
0
  0
VERTEX
  8
LAYER_3
 10
113.6082
 20
-99.9516
  0
SEQEND
  0
ENDBLK
  0
BLOCK
  8
LAYER_3
  2
AIGNBL0301000A
 70
64
 10
0
 20
0
 30
0
  3
AIGNBL0301000A
  0
POLYLINE
  8
LAYER_3
 40
0.1058
 41
0.1058
 66
1
 10
0
 20
0
 30
0
  0
VERTEX
  8
LAYER_3
 10
176.9334
 20
-45.6834
  0
SEQEND
  0
ENDBLK
  0
BLOCK
  8
LAYER_3
  2
AIGNBL0301000B
 70
64
 10
0
 20
0
 30
0
  3
AIGNBL0301000B
  0
POLYLINE
  8
LAYER_3
 40
0.1058
 41
0.1058
 66
1
 10
0
 20
0
 30
0
  0
VERTEX
  8
LAYER_3
 10
110.9332
 20
-45.6834
  0
SEQEND
  0
ENDBLK
  0
BLOCK
  8
LAYER_3
  2
AIGNBL0301000C
 70
64
 10
0
 20
0
 30
0
  3
AIGNBL0301000C
  0
POLYLINE
  8
LAYER_3
  6
AIGENLINE001
 40
0.1058
 41
0.1058
 66
1
 10
0
 20
0
 30
0
 70
128
  0
VERTEX
  8
LAYER_3
 10
143.9333
 20
-35.8055
  0
VERTEX
  8
LAYER_3
 10
143.9333
 20
-180.3498
  0
SEQEND
  0
ENDBLK
  0
BLOCK
  8
LAYER_3
  2
AIGNBL0301000D
 70
64
 10
0
 20
0
 30
0
  3
AIGNBL0301000D
  0
POLYLINE
  8
LAYER_3
 40
0.1058
 41
0.1058
 66
1
 10
0
 20
0
 30
0
  0
VERTEX
  8
LAYER_3
 10
100.1082
 20
-112.382
  0
VERTEX
  8
LAYER_3
 10
100.1082
 20
-177.3498
  0
SEQEND
  0
ENDBLK
  0
BLOCK
  8
LAYER_3
  2
AIGNBL0301000E
 70
64
 10
0
 20
0
 30
0
  3
AIGNBL0301000E
  0
POLYLINE
  8
LAYER_3
 40
0.1058
 41
0.1058
 66
1
 10
0
 20
0
 30
0
  0
VERTEX
  8
LAYER_3
 10
123.9583
 20
-177.3498
  0
VERTEX
  8
LAYER_3
 10
99.1082
 20
-177.3498
  0
SEQEND
  0
ENDBLK
  0
BLOCK
  8
LAYER_3
  2
AIGNBL0301000F
 70
64
 10
0
 20
0
 30
0
  3
AIGNBL0301000F
  0
POLYLINE
  8
LAYER_3
 40
0.1058
 41
0.1058
 66
1
 10
0
 20
0
 30
0
  0
VERTEX
  8
LAYER_3
 10
124.0583
 20
-112.382
  0
VERTEX
  8
LAYER_3
 10
99.1082
 20
-112.382
  0
SEQEND
  0
ENDBLK
  0
BLOCK
  8
LAYER_3
  2
AIGNBL03010010
 70
64
 10
0
 20
0
 30
0
  3
AIGNBL03010010
  0
POLYLINE
  8
LAYER_3
 40
0.05
 41
0.05
 66
1
 10
0
 20
0
 30
0
 70
1
  0
VERTEX
  8
LAYER_3
 10
100.569
 20
-115.882
  0
VERTEX
  8
LAYER_3
 10
100.1082
 20
-112.382
  0
VERTEX
  8
LAYER_3
 10
99.6474
 20
-115.882
  0
SEQEND
  0
ENDBLK
  0
BLOCK
  8
LAYER_3
  2
AIGNBL03010011
 70
64
 10
0
 20
0
 30
0
  3
AIGNBL03010011
  0
POLYLINE
  8
LAYER_3
 40
0.05
 41
0.05
 66
1
 10
0
 20
0
 30
0
 70
1
  0
VERTEX
  8
LAYER_3
 10
99.6474
 20
-173.8498
  0
VERTEX
  8
LAYER_3
 10
100.1082
 20
-177.3498
  0
VERTEX
  8
LAYER_3
 10
100.569
 20
-173.8498
  0
SEQEND
  0
ENDBLK
  0
BLOCK
  8
LAYER_3
  2
AIGNBL03010012
 70
64
 10
0
 20
0
 30
0
  3
AIGNBL03010012
  0
TEXT
  8
LAYER_3
 10
99.3823
 20
-148.0909
 11
99.3823
 21
-148.0909
 40
7.9781
 41
0.5
 50
89.99999999
  1
66
  0
ENDBLK
  0
BLOCK
  8
LAYER_3
  2
AIGNBL03010013
 70
64
 10
0
 20
0
 30
0
  3
AIGNBL03010013
  0
POLYLINE
  8
LAYER_3
 40
0.1058
 41
0.1058
 66
1
 10
0
 20
0
 30
0
  0
VERTEX
  8
LAYER_3
 10
92.1082
 20
-99.9516
  0
VERTEX
  8
LAYER_3
 10
92.1082
 20
-177.3498
  0
SEQEND
  0
ENDBLK
  0
BLOCK
  8
LAYER_3
  2
AIGNBL03010014
 70
64
 10
0
 20
0
 30
0
  3
AIGNBL03010014
  0
POLYLINE
  8
LAYER_3
 40
0.1058
 41
0.1058
 66
1
 10
0
 20
0
 30
0
  0
VERTEX
  8
LAYER_3
 10
123.9583
 20
-177.3498
  0
VERTEX
  8
LAYER_3
 10
91.1082
 20
-177.3498
  0
SEQEND
  0
ENDBLK
  0
BLOCK
  8
LAYER_3
  2
AIGNBL03010015
 70
64
 10
0
 20
0
 30
0
  3
AIGNBL03010015
  0
POLYLINE
  8
LAYER_3
 40
0.1058
 41
0.1058
 66
1
 10
0
 20
0
 30
0
  0
VERTEX
  8
LAYER_3
 10
113.6082
 20
-99.9516
  0
VERTEX
  8
LAYER_3
 10
91.1082
 20
-99.9516
  0
SEQEND
  0
ENDBLK
  0
BLOCK
  8
LAYER_3
  2
AIGNBL03010016
 70
64
 10
0
 20
0
 30
0
  3
AIGNBL03010016
  0
POLYLINE
  8
LAYER_3
 40
0.05
 41
0.05
 66
1
 10
0
 20
0
 30
0
 70
1
  0
VERTEX
  8
LAYER_3
 10
92.569
 20
-103.4516
  0
VERTEX
  8
LAYER_3
 10
92.1082
 20
-99.9516
  0
VERTEX
  8
LAYER_3
 10
91.6474
 20
-103.4516
  0
SEQEND
  0
ENDBLK
  0
BLOCK
  8
LAYER_3
  2
AIGNBL03010017
 70
64
 10
0
 20
0
 30
0
  3
AIGNBL03010017
  0
POLYLINE
  8
LAYER_3
 40
0.05
 41
0.05
 66
1
 10
0
 20
0
 30
0
 70
1
  0
VERTEX
  8
LAYER_3
 10
91.6474
 20
-173.8498
  0
VERTEX
  8
LAYER_3
 10
92.1082
 20
-177.3498
  0
VERTEX
  8
LAYER_3
 10
92.569
 20
-173.8498
  0
SEQEND
  0
ENDBLK
  0
BLOCK
  8
LAYER_3
  2
AIGNBL03010018
 70
64
 10
0
 20
0
 30
0
  3
AIGNBL03010018
  0
TEXT
  8
LAYER_3
 10
91.3828
 20
-141.7257
 11
91.3828
 21
-141.7257
 40
7.9781
 41
0.5
 50
89.99999999
  1
78
  0
ENDBLK
  0
BLOCK
  8
LAYER_3
  2
AIGNBL03010019
 70
64
 10
0
 20
0
 30
0
  3
AIGNBL03010019
  0
POLYLINE
  8
LAYER_3
 40
0.1058
 41
0.1058
 66
1
 10
0
 20
0
 30
0
  0
VERTEX
  8
LAYER_3
 10
175.6084
 20
-105.8414
  0
VERTEX
  8
LAYER_3
 10
186.3143
 20
-105.8414
  0
SEQEND
  0
ENDBLK
  0
BLOCK
  8
LAYER_3
  2
AIGNBL0301001A
 70
64
 10
0
 20
0
 30
0
  3
AIGNBL0301001A
  0
POLYLINE
  8
LAYER_3
 40
0.1058
 41
0.1058
 66
1
 10
0
 20
0
 30
0
  0
VERTEX
  8
LAYER_3
 10
113.6082
 20
-105.8414
  0
VERTEX
  8
LAYER_3
 10
175.6084
 20
-105.8414
  0
SEQEND
  0
ENDBLK
  0
BLOCK
  8
LAYER_3
  2
AIGNBL0301001B
 70
64
 10
0
 20
0
 30
0
  3
AIGNBL0301001B
  0
POLYLINE
  8
LAYER_3
 40
0.1058
 41
0.1058
 66
1
 10
0
 20
0
 30
0
  0
VERTEX
  8
LAYER_3
 10
175.6084
 20
-101.5516
  0
VERTEX
  8
LAYER_3
 10
175.6084
 20
-106.8414
  0
SEQEND
  0
ENDBLK
  0
BLOCK
  8
LAYER_3
  2
AIGNBL0301001C
 70
64
 10
0
 20
0
 30
0
  3
AIGNBL0301001C
  0
POLYLINE
  8
LAYER_3
 40
0.1058
 41
0.1058
 66
1
 10
0
 20
0
 30
0
  0
VERTEX
  8
LAYER_3
 10
113.6082
 20
-101.5516
  0
VERTEX
  8
LAYER_3
 10
113.6082
 20
-106.8414
  0
SEQEND
  0
ENDBLK
  0
BLOCK
  8
LAYER_3
  2
AIGNBL0301001D
 70
64
 10
0
 20
0
 30
0
  3
AIGNBL0301001D
  0
POLYLINE
  8
LAYER_3
 40
0.05
 41
0.05
 66
1
 10
0
 20
0
 30
0
 70
1
  0
VERTEX
  8
LAYER_3
 10
117.1082
 20
-105.3806
  0
VERTEX
  8
LAYER_3
 10
113.6082
 20
-105.8414
  0
VERTEX
  8
LAYER_3
 10
117.1082
 20
-106.3022
  0
SEQEND
  0
ENDBLK
  0
BLOCK
  8
LAYER_3
  2
AIGNBL0301001E
 70
64
 10
0
 20
0
 30
0
  3
AIGNBL0301001E
  0
POLYLINE
  8
LAYER_3
 40
0.05
 41
0.05
 66
1
 10
0
 20
0
 30
0
 70
1
  0
VERTEX
  8
LAYER_3
 10
172.1084
 20
-106.3022
  0
VERTEX
  8
LAYER_3
 10
175.6084
 20
-105.8414
  0
VERTEX
  8
LAYER_3
 10
172.1084
 20
-105.3806
  0
SEQEND
  0
ENDBLK
  0
BLOCK
  8
LAYER_3
  2
AIGNBL0301001F
 70
64
 10
0
 20
0
 30
0
  3
AIGNBL0301001F
  0
TEXT
  8
LAYER_3
 10
182.6872
 20
-104.6217
 11
182.6872
 21
-104.6217
 40
7.9781
 41
0.5
  1
61
  0
ENDBLK
  0
BLOCK
  8
LAYER_3
  2
AIGNBL03010020
 70
64
 10
0
 20
0
 30
0
  3
AIGNBL03010020
  0
POLYLINE
  8
LAYER_3
 40
0.1058
 41
0.1058
 66
1
 10
0
 20
0
 30
0
  0
VERTEX
  8
LAYER_3
 10
165.2584
 20
-176.7742
  0
VERTEX
  8
LAYER_3
 10
165.2584
 20
-188.3498
  0
SEQEND
  0
ENDBLK
  0
BLOCK
  8
LAYER_3
  2
AIGNBL03010021
 70
64
 10
0
 20
0
 30
0
  3
AIGNBL03010021
  0
POLYLINE
  8
LAYER_3
 40
0.1058
 41
0.1058
 66
1
 10
0
 20
0
 30
0
  0
VERTEX
  8
LAYER_3
 10
123.9583
 20
-177.3498
  0
VERTEX
  8
LAYER_3
 10
123.9583
 20
-188.3498
  0
SEQEND
  0
ENDBLK
  0
BLOCK
  8
LAYER_3
  2
AIGNBL03010022
 70
64
 10
0
 20
0
 30
0
  3
AIGNBL03010022
  0
TEXT
  8
LAYER_3
 10
135.9524
 20
-185.4623
 11
135.9524
 21
-185.4623
 40
7.9781
 41
0.5
  1
G1 1/4
  0
ENDBLK
  0
BLOCK
  8
LAYER_3
  2
AIGNBL03010023
 70
64
 10
0
 20
0
 30
0
  3
AIGNBL03010023
  0
POLYLINE
  8
LAYER_3
 40
0.1058
 41
0.1058
 66
1
 10
0
 20
0
 30
0
  0
VERTEX
  8
LAYER_3
 10
110.9332
 20
-28.8055
  0
VERTEX
  8
LAYER_3
 10
176.9334
 20
-28.8055
  0
SEQEND
  0
ENDBLK
  0
BLOCK
  8
LAYER_3
  2
AIGNBL03010024
 70
64
 10
0
 20
0
 30
0
  3
AIGNBL03010024
  0
POLYLINE
  8
LAYER_3
 40
0.1058
 41
0.1058
 66
1
 10
0
 20
0
 30
0
  0
VERTEX
  8
LAYER_3
 10
176.9334
 20
-45.4149
  0
VERTEX
  8
LAYER_3
 10
176.9334
 20
-27.8055
  0
SEQEND
  0
ENDBLK
  0
BLOCK
  8
LAYER_3
  2
AIGNBL03010025
 70
64
 10
0
 20
0
 30
0
  3
AIGNBL03010025
  0
POLYLINE
  8
LAYER_3
 40
0.1058
 41
0.1058
 66
1
 10
0
 20
0
 30
0
  0
VERTEX
  8
LAYER_3
 10
110.9332
 20
-45.4149
  0
VERTEX
  8
LAYER_3
 10
110.9332
 20
-27.8055
  0
SEQEND
  0
ENDBLK
  0
BLOCK
  8
LAYER_3
  2
AIGNBL03010026
 70
64
 10
0
 20
0
 30
0
  3
AIGNBL03010026
  0
POLYLINE
  8
LAYER_3
 40
0.05
 41
0.05
 66
1
 10
0
 20
0
 30
0
 70
1
  0
VERTEX
  8
LAYER_3
 10
114.4332
 20
-28.3447
  0
VERTEX
  8
LAYER_3
 10
110.9332
 20
-28.8055
  0
VERTEX
  8
LAYER_3
 10
114.4332
 20
-29.2663
  0
SEQEND
  0
ENDBLK
  0
BLOCK
  8
LAYER_3
  2
AIGNBL03010027
 70
64
 10
0
 20
0
 30
0
  3
AIGNBL03010027
  0
POLYLINE
  8
LAYER_3
 40
0.05
 41
0.05
 66
1
 10
0
 20
0
 30
0
 70
1
  0
VERTEX
  8
LAYER_3
 10
173.4334
 20
-29.2663
  0
VERTEX
  8
LAYER_3
 10
176.9334
 20
-28.8055
  0
VERTEX
  8
LAYER_3
 10
173.4334
 20
-28.3447
  0
SEQEND
  0
ENDBLK
  0
BLOCK
  8
LAYER_3
  2
AIGNBL03010028
 70
64
 10
0
 20
0
 30
0
  3
AIGNBL03010028
  0
TEXT
  8
LAYER_3
 10
143.9829
 20
-27.5852
 11
143.9829
 21
-27.5852
 40
7.9781
 41
0.5
  1
66
  0
ENDBLK
  0
BLOCK
  8
LAYER_3
  2
AIGNBL03010029
 70
64
 10
0
 20
0
 30
0
  3
AIGNBL03010029
  0
POLYLINE
  8
LAYER_3
 40
0.1058
 41
0.1058
 66
1
 10
0
 20
0
 30
0
  0
VERTEX
  8
LAYER_3
 10
138.6833
 20
-54.7401
  0
VERTEX
  8
LAYER_3
 10
138.6833
 20
-73.514
  0
SEQEND
  0
ENDBLK
  0
BLOCK
  8
LAYER_3
  2
AIGNBL0301002A
 70
64
 10
0
 20
0
 30
0
  3
AIGNBL0301002A
  0
POLYLINE
  8
LAYER_3
 40
0.1058
 41
0.1058
 66
1
 10
0
 20
0
 30
0
  0
VERTEX
  8
LAYER_3
 10
149.1834
 20
-54.7401
  0
VERTEX
  8
LAYER_3
 10
149.1834
 20
-73.514
  0
SEQEND
  0
ENDBLK
  0
BLOCK
  8
LAYER_3
  2
AIGNBL0301002B
 70
64
 10
0
 20
0
 30
0
  3
AIGNBL0301002B
  0
POLYLINE
  8
LAYER_3
 40
0.1058
 41
0.1058
 66
1
 10
0
 20
0
 30
0
  0
VERTEX
  8
LAYER_3
 10
123.9583
 20
-114.111
  0
VERTEX
  8
LAYER_3
 10
125.4583
 20
-112.4741
  0
SEQEND
  0
ENDBLK
  0
BLOCK
  8
LAYER_3
  2
AIGNBL0301002C
 70
64
 10
0
 20
0
 30
0
  3
AIGNBL0301002C
  0
POLYLINE
  8
LAYER_3
 40
0.1058
 41
0.1058
 66
1
 10
0
 20
0
 30
0
  0
VERTEX
  8
LAYER_3
 10
125.4583
 20
-115.4855
  0
VERTEX
  8
LAYER_3
 10
123.9583
 20
-114.111
  0
SEQEND
  0
ENDBLK
  0
BLOCK
  8
LAYER_3
  2
AIGNBL0301002D
 70
64
 10
0
 20
0
 30
0
  3
AIGNBL0301002D
  0
POLYLINE
  8
LAYER_3
 40
0.1058
 41
0.1058
 66
1
 10
0
 20
0
 30
0
  0
VERTEX
  8
LAYER_3
 10
125.4583
 20
-112.4741
  0
VERTEX
  8
LAYER_3
 10
126.519
 20
-112.382
  0
SEQEND
  0
ENDBLK
  0
BLOCK
  8
LAYER_3
  2
AIGNBL0301002E
 70
64
 10
0
 20
0
 30
0
  3
AIGNBL0301002E
  0
POLYLINE
  8
LAYER_3
 40
0.1058
 41
0.1058
 66
1
 10
0
 20
0
 30
0
  0
VERTEX
  8
LAYER_3
 10
123.9583
 20
-114.111
  0
VERTEX
  8
LAYER_3
 10
143.8659
 20
-112.382
  0
SEQEND
  0
ENDBLK
  0
BLOCK
  8
LAYER_3
  2
AIGNBL0301002F
 70
64
 10
0
 20
0
 30
0
  3
AIGNBL0301002F
  0
POLYLINE
  8
LAYER_3
 40
0.1058
 41
0.1058
 66
1
 10
0
 20
0
 30
0
  0
VERTEX
  8
LAYER_3
 10
123.9583
 20
-117.1225
  0
VERTEX
  8
LAYER_3
 10
125.4583
 20
-115.4855
  0
SEQEND
  0
ENDBLK
  0
BLOCK
  8
LAYER_3
  2
AIGNBL03010030
 70
64
 10
0
 20
0
 30
0
  3
AIGNBL03010030
  0
POLYLINE
  8
LAYER_3
 40
0.1058
 41
0.1058
 66
1
 10
0
 20
0
 30
0
  0
VERTEX
  8
LAYER_3
 10
125.4583
 20
-118.497
  0
VERTEX
  8
LAYER_3
 10
123.9583
 20
-117.1225
  0
SEQEND
  0
ENDBLK
  0
BLOCK
  8
LAYER_3
  2
AIGNBL03010031
 70
64
 10
0
 20
0
 30
0
  3
AIGNBL03010031
  0
POLYLINE
  8
LAYER_3
 40
0.1058
 41
0.1058
 66
1
 10
0
 20
0
 30
0
  0
VERTEX
  8
LAYER_3
 10
123.9583
 20
-120.134
  0
VERTEX
  8
LAYER_3
 10
125.4583
 20
-118.497
  0
SEQEND
  0
ENDBLK
  0
BLOCK
  8
LAYER_3
  2
AIGNBL03010032
 70
64
 10
0
 20
0
 30
0
  3
AIGNBL03010032
  0
POLYLINE
  8
LAYER_3
 40
0.1058
 41
0.1058
 66
1
 10
0
 20
0
 30
0
  0
VERTEX
  8
LAYER_3
 10
125.4583
 20
-121.5085
  0
VERTEX
  8
LAYER_3
 10
123.9583
 20
-120.134
  0
SEQEND
  0
ENDBLK
  0
BLOCK
  8
LAYER_3
  2
AIGNBL03010033
 70
64
 10
0
 20
0
 30
0
  3
AIGNBL03010033
  0
POLYLINE
  8
LAYER_3
 40
0.1058
 41
0.1058
 66
1
 10
0
 20
0
 30
0
  0
VERTEX
  8
LAYER_3
 10
165.2584
 20
-113.5355
  0
VERTEX
  8
LAYER_3
 10
163.9996
 20
-112.382
  0
SEQEND
  0
ENDBLK
  0
BLOCK
  8
LAYER_3
  2
AIGNBL03010034
 70
64
 10
0
 20
0
 30
0
  3
AIGNBL03010034
  0
POLYLINE
  8
LAYER_3
 40
0.1058
 41
0.1058
 66
1
 10
0
 20
0
 30
0
  0
VERTEX
  8
LAYER_3
 10
163.7584
 20
-115.1724
  0
VERTEX
  8
LAYER_3
 10
165.2584
 20
-113.5355
  0
SEQEND
  0
ENDBLK
  0
BLOCK
  8
LAYER_3
  2
AIGNBL03010035
 70
64
 10
0
 20
0
 30
0
  3
AIGNBL03010035
  0
POLYLINE
  8
LAYER_3
 40
0.1058
 41
0.1058
 66
1
 10
0
 20
0
 30
0
  0
VERTEX
  8
LAYER_3
 10
165.2584
 20
-116.5469
  0
VERTEX
  8
LAYER_3
 10
163.7584
 20
-115.1724
  0
SEQEND
  0
ENDBLK
  0
BLOCK
  8
LAYER_3
  2
AIGNBL03010036
 70
64
 10
0
 20
0
 30
0
  3
AIGNBL03010036
  0
POLYLINE
  8
LAYER_3
 40
0.1058
 41
0.1058
 66
1
 10
0
 20
0
 30
0
  0
VERTEX
  8
LAYER_3
 10
163.7584
 20
-118.1839
  0
VERTEX
  8
LAYER_3
 10
165.2584
 20
-116.5469
  0
SEQEND
  0
ENDBLK
  0
BLOCK
  8
LAYER_3
  2
AIGNBL03010037
 70
64
 10
0
 20
0
 30
0
  3
AIGNBL03010037
  0
POLYLINE
  8
LAYER_3
 40
0.1058
 41
0.1058
 66
1
 10
0
 20
0
 30
0
  0
VERTEX
  8
LAYER_3
 10
125.4583
 20
-115.4855
  0
VERTEX
  8
LAYER_3
 10
161.212
 20
-112.382
  0
SEQEND
  0
ENDBLK
  0
BLOCK
  8
LAYER_3
  2
AIGNBL03010038
 70
64
 10
0
 20
0
 30
0
  3
AIGNBL03010038
  0
POLYLINE
  8
LAYER_3
 40
0.1058
 41
0.1058
 66
1
 10
0
 20
0
 30
0
  0
VERTEX
  8
LAYER_3
 10
123.9583
 20
-117.1225
  0
VERTEX
  8
LAYER_3
 10
165.2584
 20
-113.5355
  0
SEQEND
  0
ENDBLK
  0
BLOCK
  8
LAYER_3
  2
AIGNBL03010039
 70
64
 10
0
 20
0
 30
0
  3
AIGNBL03010039
  0
POLYLINE
  8
LAYER_3
 40
0.1058
 41
0.1058
 66
1
 10
0
 20
0
 30
0
  0
VERTEX
  8
LAYER_3
 10
125.4583
 20
-118.497
  0
VERTEX
  8
LAYER_3
 10
163.7584
 20
-115.1724
  0
SEQEND
  0
ENDBLK
  0
BLOCK
  8
LAYER_3
  2
AIGNBL0301003A
 70
64
 10
0
 20
0
 30
0
  3
AIGNBL0301003A
  0
POLYLINE
  8
LAYER_3
 40
0.1058
 41
0.1058
 66
1
 10
0
 20
0
 30
0
  0
VERTEX
  8
LAYER_3
 10
123.9583
 20
-120.134
  0
VERTEX
  8
LAYER_3
 10
165.2584
 20
-116.5469
  0
SEQEND
  0
ENDBLK
  0
BLOCK
  8
LAYER_3
  2
AIGNBL0301003B
 70
64
 10
0
 20
0
 30
0
  3
AIGNBL0301003B
  0
POLYLINE
  8
LAYER_3
 40
0.1058
 41
0.1058
 66
1
 10
0
 20
0
 30
0
  0
VERTEX
  8
LAYER_3
 10
123.9583
 20
-123.1454
  0
VERTEX
  8
LAYER_3
 10
125.4583
 20
-121.5085
  0
SEQEND
  0
ENDBLK
  0
BLOCK
  8
LAYER_3
  2
AIGNBL0301003C
 70
64
 10
0
 20
0
 30
0
  3
AIGNBL0301003C
  0
POLYLINE
  8
LAYER_3
 40
0.1058
 41
0.1058
 66
1
 10
0
 20
0
 30
0
  0
VERTEX
  8
LAYER_3
 10
125.4583
 20
-124.5199
  0
VERTEX
  8
LAYER_3
 10
123.9583
 20
-123.1454
  0
SEQEND
  0
ENDBLK
  0
BLOCK
  8
LAYER_3
  2
AIGNBL0301003D
 70
64
 10
0
 20
0
 30
0
  3
AIGNBL0301003D
  0
POLYLINE
  8
LAYER_3
 40
0.1058
 41
0.1058
 66
1
 10
0
 20
0
 30
0
  0
VERTEX
  8
LAYER_3
 10
123.9583
 20
-126.1569
  0
VERTEX
  8
LAYER_3
 10
125.4583
 20
-124.5199
  0
SEQEND
  0
ENDBLK
  0
BLOCK
  8
LAYER_3
  2
AIGNBL0301003E
 70
64
 10
0
 20
0
 30
0
  3
AIGNBL0301003E
  0
POLYLINE
  8
LAYER_3
 40
0.1058
 41
0.1058
 66
1
 10
0
 20
0
 30
0
  0
VERTEX
  8
LAYER_3
 10
125.4583
 20
-127.5314
  0
VERTEX
  8
LAYER_3
 10
123.9583
 20
-126.1569
  0
SEQEND
  0
ENDBLK
  0
BLOCK
  8
LAYER_3
  2
AIGNBL0301003F
 70
64
 10
0
 20
0
 30
0
  3
AIGNBL0301003F
  0
POLYLINE
  8
LAYER_3
 40
0.1058
 41
0.1058
 66
1
 10
0
 20
0
 30
0
  0
VERTEX
  8
LAYER_3
 10
165.2584
 20
-119.5584
  0
VERTEX
  8
LAYER_3
 10
163.7584
 20
-118.1839
  0
SEQEND
  0
ENDBLK
  0
BLOCK
  8
LAYER_3
  2
AIGNBL03010040
 70
64
 10
0
 20
0
 30
0
  3
AIGNBL03010040
  0
POLYLINE
  8
LAYER_3
 40
0.1058
 41
0.1058
 66
1
 10
0
 20
0
 30
0
  0
VERTEX
  8
LAYER_3
 10
163.7584
 20
-121.1954
  0
VERTEX
  8
LAYER_3
 10
165.2584
 20
-119.5584
  0
SEQEND
  0
ENDBLK
  0
BLOCK
  8
LAYER_3
  2
AIGNBL03010041
 70
64
 10
0
 20
0
 30
0
  3
AIGNBL03010041
  0
POLYLINE
  8
LAYER_3
 40
0.1058
 41
0.1058
 66
1
 10
0
 20
0
 30
0
  0
VERTEX
  8
LAYER_3
 10
165.2584
 20
-122.5699
  0
VERTEX
  8
LAYER_3
 10
163.7584
 20
-121.1954
  0
SEQEND
  0
ENDBLK
  0
BLOCK
  8
LAYER_3
  2
AIGNBL03010042
 70
64
 10
0
 20
0
 30
0
  3
AIGNBL03010042
  0
POLYLINE
  8
LAYER_3
 40
0.1058
 41
0.1058
 66
1
 10
0
 20
0
 30
0
  0
VERTEX
  8
LAYER_3
 10
163.7584
 20
-124.2068
  0
VERTEX
  8
LAYER_3
 10
165.2584
 20
-122.5699
  0
SEQEND
  0
ENDBLK
  0
BLOCK
  8
LAYER_3
  2
AIGNBL03010043
 70
64
 10
0
 20
0
 30
0
  3
AIGNBL03010043
  0
POLYLINE
  8
LAYER_3
 40
0.1058
 41
0.1058
 66
1
 10
0
 20
0
 30
0
  0
VERTEX
  8
LAYER_3
 10
125.4583
 20
-121.5085
  0
VERTEX
  8
LAYER_3
 10
163.7584
 20
-118.1839
  0
SEQEND
  0
ENDBLK
  0
BLOCK
  8
LAYER_3
  2
AIGNBL03010044
 70
64
 10
0
 20
0
 30
0
  3
AIGNBL03010044
  0
POLYLINE
  8
LAYER_3
 40
0.1058
 41
0.1058
 66
1
 10
0
 20
0
 30
0
  0
VERTEX
  8
LAYER_3
 10
123.9583
 20
-123.1454
  0
VERTEX
  8
LAYER_3
 10
165.2584
 20
-119.5584
  0
SEQEND
  0
ENDBLK
  0
BLOCK
  8
LAYER_3
  2
AIGNBL03010045
 70
64
 10
0
 20
0
 30
0
  3
AIGNBL03010045
  0
POLYLINE
  8
LAYER_3
 40
0.1058
 41
0.1058
 66
1
 10
0
 20
0
 30
0
  0
VERTEX
  8
LAYER_3
 10
125.4583
 20
-124.5199
  0
VERTEX
  8
LAYER_3
 10
163.7584
 20
-121.1954
  0
SEQEND
  0
ENDBLK
  0
BLOCK
  8
LAYER_3
  2
AIGNBL03010046
 70
64
 10
0
 20
0
 30
0
  3
AIGNBL03010046
  0
POLYLINE
  8
LAYER_3
 40
0.1058
 41
0.1058
 66
1
 10
0
 20
0
 30
0
  0
VERTEX
  8
LAYER_3
 10
123.9583
 20
-126.1569
  0
VERTEX
  8
LAYER_3
 10
165.2584
 20
-122.5699
  0
SEQEND
  0
ENDBLK
  0
BLOCK
  8
LAYER_3
  2
AIGNBL03010047
 70
64
 10
0
 20
0
 30
0
  3
AIGNBL03010047
  0
POLYLINE
  8
LAYER_3
 40
0.1058
 41
0.1058
 66
1
 10
0
 20
0
 30
0
  0
VERTEX
  8
LAYER_3
 10
123.9583
 20
-129.1684
  0
VERTEX
  8
LAYER_3
 10
125.4583
 20
-127.5314
  0
SEQEND
  0
ENDBLK
  0
BLOCK
  8
LAYER_3
  2
AIGNBL03010048
 70
64
 10
0
 20
0
 30
0
  3
AIGNBL03010048
  0
POLYLINE
  8
LAYER_3
 40
0.1058
 41
0.1058
 66
1
 10
0
 20
0
 30
0
  0
VERTEX
  8
LAYER_3
 10
125.4583
 20
-130.5429
  0
VERTEX
  8
LAYER_3
 10
123.9583
 20
-129.1684
  0
SEQEND
  0
ENDBLK
  0
BLOCK
  8
LAYER_3
  2
AIGNBL03010049
 70
64
 10
0
 20
0
 30
0
  3
AIGNBL03010049
  0
POLYLINE
  8
LAYER_3
 40
0.1058
 41
0.1058
 66
1
 10
0
 20
0
 30
0
  0
VERTEX
  8
LAYER_3
 10
123.9583
 20
-132.1798
  0
VERTEX
  8
LAYER_3
 10
125.4583
 20
-130.5429
  0
SEQEND
  0
ENDBLK
  0
BLOCK
  8
LAYER_3
  2
AIGNBL0301004A
 70
64
 10
0
 20
0
 30
0
  3
AIGNBL0301004A
  0
POLYLINE
  8
LAYER_3
 40
0.1058
 41
0.1058
 66
1
 10
0
 20
0
 30
0
  0
VERTEX
  8
LAYER_3
 10
125.4583
 20
-133.5543
  0
VERTEX
  8
LAYER_3
 10
123.9583
 20
-132.1798
  0
SEQEND
  0
ENDBLK
  0
BLOCK
  8
LAYER_3
  2
AIGNBL0301004B
 70
64
 10
0
 20
0
 30
0
  3
AIGNBL0301004B
  0
POLYLINE
  8
LAYER_3
 40
0.1058
 41
0.1058
 66
1
 10
0
 20
0
 30
0
  0
VERTEX
  8
LAYER_3
 10
165.2584
 20
-125.5813
  0
VERTEX
  8
LAYER_3
 10
163.7584
 20
-124.2068
  0
SEQEND
  0
ENDBLK
  0
BLOCK
  8
LAYER_3
  2
AIGNBL0301004C
 70
64
 10
0
 20
0
 30
0
  3
AIGNBL0301004C
  0
POLYLINE
  8
LAYER_3
 40
0.1058
 41
0.1058
 66
1
 10
0
 20
0
 30
0
  0
VERTEX
  8
LAYER_3
 10
163.7584
 20
-127.2183
  0
VERTEX
  8
LAYER_3
 10
165.2584
 20
-125.5813
  0
SEQEND
  0
ENDBLK
  0
BLOCK
  8
LAYER_3
  2
AIGNBL0301004D
 70
64
 10
0
 20
0
 30
0
  3
AIGNBL0301004D
  0
POLYLINE
  8
LAYER_3
 40
0.1058
 41
0.1058
 66
1
 10
0
 20
0
 30
0
  0
VERTEX
  8
LAYER_3
 10
165.2584
 20
-128.5928
  0
VERTEX
  8
LAYER_3
 10
163.7584
 20
-127.2183
  0
SEQEND
  0
ENDBLK
  0
BLOCK
  8
LAYER_3
  2
AIGNBL0301004E
 70
64
 10
0
 20
0
 30
0
  3
AIGNBL0301004E
  0
POLYLINE
  8
LAYER_3
 40
0.1058
 41
0.1058
 66
1
 10
0
 20
0
 30
0
  0
VERTEX
  8
LAYER_3
 10
163.7584
 20
-130.2298
  0
VERTEX
  8
LAYER_3
 10
165.2584
 20
-128.5928
  0
SEQEND
  0
ENDBLK
  0
BLOCK
  8
LAYER_3
  2
AIGNBL0301004F
 70
64
 10
0
 20
0
 30
0
  3
AIGNBL0301004F
  0
POLYLINE
  8
LAYER_3
 40
0.1058
 41
0.1058
 66
1
 10
0
 20
0
 30
0
  0
VERTEX
  8
LAYER_3
 10
125.4583
 20
-127.5314
  0
VERTEX
  8
LAYER_3
 10
163.7584
 20
-124.2068
  0
SEQEND
  0
ENDBLK
  0
BLOCK
  8
LAYER_3
  2
AIGNBL03010050
 70
64
 10
0
 20
0
 30
0
  3
AIGNBL03010050
  0
POLYLINE
  8
LAYER_3
 40
0.1058
 41
0.1058
 66
1
 10
0
 20
0
 30
0
  0
VERTEX
  8
LAYER_3
 10
123.9583
 20
-129.1684
  0
VERTEX
  8
LAYER_3
 10
165.2584
 20
-125.5813
  0
SEQEND
  0
ENDBLK
  0
BLOCK
  8
LAYER_3
  2
AIGNBL03010051
 70
64
 10
0
 20
0
 30
0
  3
AIGNBL03010051
  0
POLYLINE
  8
LAYER_3
 40
0.1058
 41
0.1058
 66
1
 10
0
 20
0
 30
0
  0
VERTEX
  8
LAYER_3
 10
125.4583
 20
-130.5429
  0
VERTEX
  8
LAYER_3
 10
163.7584
 20
-127.2183
  0
SEQEND
  0
ENDBLK
  0
BLOCK
  8
LAYER_3
  2
AIGNBL03010052
 70
64
 10
0
 20
0
 30
0
  3
AIGNBL03010052
  0
POLYLINE
  8
LAYER_3
 40
0.1058
 41
0.1058
 66
1
 10
0
 20
0
 30
0
  0
VERTEX
  8
LAYER_3
 10
123.9583
 20
-132.1798
  0
VERTEX
  8
LAYER_3
 10
165.2584
 20
-128.5928
  0
SEQEND
  0
ENDBLK
  0
BLOCK
  8
LAYER_3
  2
AIGNBL03010053
 70
64
 10
0
 20
0
 30
0
  3
AIGNBL03010053
  0
POLYLINE
  8
LAYER_3
 40
0.1058
 41
0.1058
 66
1
 10
0
 20
0
 30
0
  0
VERTEX
  8
LAYER_3
 10
166.3084
 20
-109.4517
  0
VERTEX
  8
LAYER_3
 10
175.1084
 20
-101.5516
  0
SEQEND
  0
ENDBLK
  0
BLOCK
  8
LAYER_3
  2
AIGNBL03010054
 70
64
 10
0
 20
0
 30
0
  3
AIGNBL03010054
  0
POLYLINE
  8
LAYER_3
 40
0.1058
 41
0.1058
 66
1
 10
0
 20
0
 30
0
  0
VERTEX
  8
LAYER_3
 10
122.9083
 20
-109.4517
  0
VERTEX
  8
LAYER_3
 10
114.1082
 20
-101.5516
  0
SEQEND
  0
ENDBLK
  0
BLOCK
  8
LAYER_3
  2
AIGNBL03010055
 70
64
 10
0
 20
0
 30
0
  3
AIGNBL03010055
  0
POLYLINE
  8
LAYER_3
 40
0.1058
 41
0.1058
 66
1
 10
0
 20
0
 30
0
  0
VERTEX
  8
LAYER_3
 10
113.6082
 20
-101.5516
  0
VERTEX
  8
LAYER_3
 10
175.6084
 20
-101.5516
  0
SEQEND
  0
ENDBLK
  0
BLOCK
  8
LAYER_3
  2
AIGNBL03010056
 70
64
 10
0
 20
0
 30
0
  3
AIGNBL03010056
  0
POLYLINE
  8
LAYER_3
 40
0.1058
 41
0.1058
 66
1
 10
0
 20
0
 30
0
  0
VERTEX
  8
LAYER_3
 10
122.9083
 20
-109.4517
  0
VERTEX
  8
LAYER_3
 10
166.3084
 20
-109.4517
  0
SEQEND
  0
ENDBLK
  0
BLOCK
  8
LAYER_3
  2
AIGNBL03010057
 70
64
 10
0
 20
0
 30
0
  3
AIGNBL03010057
  0
POLYLINE
  8
LAYER_3
 40
0.1058
 41
0.1058
 66
1
 10
0
 20
0
 30
0
  0
VERTEX
  8
LAYER_3
 10
117.1082
 20
-151.6491
  0
VERTEX
  8
LAYER_3
 10
117.1082
 20
-150.4491
  0
SEQEND
  0
ENDBLK
  0
BLOCK
  8
LAYER_3
  2
AIGNBL03010058
 70
64
 10
0
 20
0
 30
0
  3
AIGNBL03010058
  0
POLYLINE
  8
LAYER_3
 40
0.1058
 41
0.1058
 66
1
 10
0
 20
0
 30
0
  0
VERTEX
  8
LAYER_3
 10
172.1084
 20
-151.6491
  0
VERTEX
  8
LAYER_3
 10
117.1082
 20
-151.6491
  0
SEQEND
  0
ENDBLK
  0
BLOCK
  8
LAYER_3
  2
AIGNBL03010059
 70
64
 10
0
 20
0
 30
0
  3
AIGNBL03010059
  0
POLYLINE
  8
LAYER_3
 40
0.1058
 41
0.1058
 66
1
 10
0
 20
0
 30
0
  0
VERTEX
  8
LAYER_3
 10
172.1084
 20
-150.4491
  0
VERTEX
  8
LAYER_3
 10
172.1084
 20
-151.6491
  0
SEQEND
  0
ENDBLK
  0
BLOCK
  8
LAYER_3
  2
AIGNBL0301005A
 70
64
 10
0
 20
0
 30
0
  3
AIGNBL0301005A
  0
POLYLINE
  8
LAYER_3
 40
0.1058
 41
0.1058
 66
1
 10
0
 20
0
 30
0
  0
VERTEX
  8
LAYER_3
 10
117.1082
 20
-150.4491
  0
VERTEX
  8
LAYER_3
 10
172.1084
 20
-150.4491
  0
SEQEND
  0
ENDBLK
  0
BLOCK
  8
LAYER_3
  2
AIGNBL0301005B
 70
64
 10
0
 20
0
 30
0
  3
AIGNBL0301005B
  0
POLYLINE
  8
LAYER_3
 40
0.1058
 41
0.1058
 66
1
 10
0
 20
0
 30
0
  0
VERTEX
  8
LAYER_3
 10
125.4583
 20
-160.6555
  0
VERTEX
  8
LAYER_3
 10
124.5497
 20
-159.8229
  0
SEQEND
  0
ENDBLK
  0
BLOCK
  8
LAYER_3
  2
AIGNBL0301005C
 70
64
 10
0
 20
0
 30
0
  3
AIGNBL0301005C
  0
POLYLINE
  8
LAYER_3
 40
0.1058
 41
0.1058
 66
1
 10
0
 20
0
 30
0
  0
VERTEX
  8
LAYER_3
 10
123.9583
 20
-162.2924
  0
VERTEX
  8
LAYER_3
 10
125.4583
 20
-160.6555
  0
SEQEND
  0
ENDBLK
  0
BLOCK
  8
LAYER_3
  2
AIGNBL0301005D
 70
64
 10
0
 20
0
 30
0
  3
AIGNBL0301005D
  0
POLYLINE
  8
LAYER_3
 40
0.1058
 41
0.1058
 66
1
 10
0
 20
0
 30
0
  0
VERTEX
  8
LAYER_3
 10
125.4583
 20
-163.6669
  0
VERTEX
  8
LAYER_3
 10
123.9583
 20
-162.2924
  0
SEQEND
  0
ENDBLK
  0
BLOCK
  8
LAYER_3
  2
AIGNBL0301005E
 70
64
 10
0
 20
0
 30
0
  3
AIGNBL0301005E
  0
POLYLINE
  8
LAYER_3
 40
0.1058
 41
0.1058
 66
1
 10
0
 20
0
 30
0
  0
VERTEX
  8
LAYER_3
 10
163.7584
 20
-160.3423
  0
VERTEX
  8
LAYER_3
 10
164.2344
 20
-159.8229
  0
SEQEND
  0
ENDBLK
  0
BLOCK
  8
LAYER_3
  2
AIGNBL0301005F
 70
64
 10
0
 20
0
 30
0
  3
AIGNBL0301005F
  0
POLYLINE
  8
LAYER_3
 40
0.1058
 41
0.1058
 66
1
 10
0
 20
0
 30
0
  0
VERTEX
  8
LAYER_3
 10
125.4583
 20
-160.6555
  0
VERTEX
  8
LAYER_3
 10
135.0494
 20
-159.8229
  0
SEQEND
  0
ENDBLK
  0
BLOCK
  8
LAYER_3
  2
AIGNBL03010060
 70
64
 10
0
 20
0
 30
0
  3
AIGNBL03010060
  0
POLYLINE
  8
LAYER_3
 40
0.1058
 41
0.1058
 66
1
 10
0
 20
0
 30
0
  0
VERTEX
  8
LAYER_3
 10
123.9583
 20
-162.2924
  0
VERTEX
  8
LAYER_3
 10
152.3915
 20
-159.8229
  0
SEQEND
  0
ENDBLK
  0
BLOCK
  8
LAYER_3
  2
AIGNBL03010061
 70
64
 10
0
 20
0
 30
0
  3
AIGNBL03010061
  0
POLYLINE
  8
LAYER_3
 40
0.1058
 41
0.1058
 66
1
 10
0
 20
0
 30
0
  0
VERTEX
  8
LAYER_3
 10
123.9583
 20
-165.3039
  0
VERTEX
  8
LAYER_3
 10
125.4583
 20
-163.6669
  0
SEQEND
  0
ENDBLK
  0
BLOCK
  8
LAYER_3
  2
AIGNBL03010062
 70
64
 10
0
 20
0
 30
0
  3
AIGNBL03010062
  0
POLYLINE
  8
LAYER_3
 40
0.1058
 41
0.1058
 66
1
 10
0
 20
0
 30
0
  0
VERTEX
  8
LAYER_3
 10
125.4583
 20
-166.6784
  0
VERTEX
  8
LAYER_3
 10
123.9583
 20
-165.3039
  0
SEQEND
  0
ENDBLK
  0
BLOCK
  8
LAYER_3
  2
AIGNBL03010063
 70
64
 10
0
 20
0
 30
0
  3
AIGNBL03010063
  0
POLYLINE
  8
LAYER_3
 40
0.1058
 41
0.1058
 66
1
 10
0
 20
0
 30
0
  0
VERTEX
  8
LAYER_3
 10
165.2584
 20
-161.7168
  0
VERTEX
  8
LAYER_3
 10
163.7584
 20
-160.3423
  0
SEQEND
  0
ENDBLK
  0
BLOCK
  8
LAYER_3
  2
AIGNBL03010064
 70
64
 10
0
 20
0
 30
0
  3
AIGNBL03010064
  0
POLYLINE
  8
LAYER_3
 40
0.1058
 41
0.1058
 66
1
 10
0
 20
0
 30
0
  0
VERTEX
  8
LAYER_3
 10
163.7584
 20
-163.3538
  0
VERTEX
  8
LAYER_3
 10
165.2584
 20
-161.7168
  0
SEQEND
  0
ENDBLK
  0
BLOCK
  8
LAYER_3
  2
AIGNBL03010065
 70
64
 10
0
 20
0
 30
0
  3
AIGNBL03010065
  0
POLYLINE
  8
LAYER_3
 40
0.1058
 41
0.1058
 66
1
 10
0
 20
0
 30
0
  0
VERTEX
  8
LAYER_3
 10
125.4583
 20
-163.6669
  0
VERTEX
  8
LAYER_3
 10
163.7584
 20
-160.3423
  0
SEQEND
  0
ENDBLK
  0
BLOCK
  8
LAYER_3
  2
AIGNBL03010066
 70
64
 10
0
 20
0
 30
0
  3
AIGNBL03010066
  0
POLYLINE
  8
LAYER_3
 40
0.1058
 41
0.1058
 66
1
 10
0
 20
0
 30
0
  0
VERTEX
  8
LAYER_3
 10
123.9583
 20
-165.3039
  0
VERTEX
  8
LAYER_3
 10
165.2584
 20
-161.7168
  0
SEQEND
  0
ENDBLK
  0
BLOCK
  8
LAYER_3
  2
AIGNBL03010067
 70
64
 10
0
 20
0
 30
0
  3
AIGNBL03010067
  0
POLYLINE
  8
LAYER_3
 40
0.1058
 41
0.1058
 66
1
 10
0
 20
0
 30
0
  0
VERTEX
  8
LAYER_3
 10
123.9583
 20
-168.3154
  0
VERTEX
  8
LAYER_3
 10
125.4583
 20
-166.6784
  0
SEQEND
  0
ENDBLK
  0
BLOCK
  8
LAYER_3
  2
AIGNBL03010068
 70
64
 10
0
 20
0
 30
0
  3
AIGNBL03010068
  0
POLYLINE
  8
LAYER_3
 40
0.1058
 41
0.1058
 66
1
 10
0
 20
0
 30
0
  0
VERTEX
  8
LAYER_3
 10
125.4583
 20
-169.6899
  0
VERTEX
  8
LAYER_3
 10
123.9583
 20
-168.3154
  0
SEQEND
  0
ENDBLK
  0
BLOCK
  8
LAYER_3
  2
AIGNBL03010069
 70
64
 10
0
 20
0
 30
0
  3
AIGNBL03010069
  0
POLYLINE
  8
LAYER_3
 40
0.1058
 41
0.1058
 66
1
 10
0
 20
0
 30
0
  0
VERTEX
  8
LAYER_3
 10
165.2584
 20
-164.7283
  0
VERTEX
  8
LAYER_3
 10
163.7584
 20
-163.3538
  0
SEQEND
  0
ENDBLK
  0
BLOCK
  8
LAYER_3
  2
AIGNBL0301006A
 70
64
 10
0
 20
0
 30
0
  3
AIGNBL0301006A
  0
POLYLINE
  8
LAYER_3
 40
0.1058
 41
0.1058
 66
1
 10
0
 20
0
 30
0
  0
VERTEX
  8
LAYER_3
 10
163.7584
 20
-166.3653
  0
VERTEX
  8
LAYER_3
 10
165.2584
 20
-164.7283
  0
SEQEND
  0
ENDBLK
  0
BLOCK
  8
LAYER_3
  2
AIGNBL0301006B
 70
64
 10
0
 20
0
 30
0
  3
AIGNBL0301006B
  0
POLYLINE
  8
LAYER_3
 40
0.1058
 41
0.1058
 66
1
 10
0
 20
0
 30
0
  0
VERTEX
  8
LAYER_3
 10
125.4583
 20
-166.6784
  0
VERTEX
  8
LAYER_3
 10
163.7584
 20
-163.3538
  0
SEQEND
  0
ENDBLK
  0
BLOCK
  8
LAYER_3
  2
AIGNBL0301006C
 70
64
 10
0
 20
0
 30
0
  3
AIGNBL0301006C
  0
POLYLINE
  8
LAYER_3
 40
0.1058
 41
0.1058
 66
1
 10
0
 20
0
 30
0
  0
VERTEX
  8
LAYER_3
 10
123.9583
 20
-168.3154
  0
VERTEX
  8
LAYER_3
 10
165.2584
 20
-164.7283
  0
SEQEND
  0
ENDBLK
  0
BLOCK
  8
LAYER_3
  2
AIGNBL0301006D
 70
64
 10
0
 20
0
 30
0
  3
AIGNBL0301006D
  0
POLYLINE
  8
LAYER_3
 40
0.1058
 41
0.1058
 66
1
 10
0
 20
0
 30
0
  0
VERTEX
  8
LAYER_3
 10
164.731
 20
-177.3498
  0
VERTEX
  8
LAYER_3
 10
165.2584
 20
-176.7742
  0
SEQEND
  0
ENDBLK
  0
BLOCK
  8
LAYER_3
  2
AIGNBL0301006E
 70
64
 10
0
 20
0
 30
0
  3
AIGNBL0301006E
  0
POLYLINE
  8
LAYER_3
 40
0.1058
 41
0.1058
 66
1
 10
0
 20
0
 30
0
  0
VERTEX
  8
LAYER_3
 10
165.2584
 20
-176.7742
  0
VERTEX
  8
LAYER_3
 10
163.7584
 20
-175.3997
  0
SEQEND
  0
ENDBLK
  0
BLOCK
  8
LAYER_3
  2
AIGNBL0301006F
 70
64
 10
0
 20
0
 30
0
  3
AIGNBL0301006F
  0
POLYLINE
  8
LAYER_3
 40
0.1058
 41
0.1058
 66
1
 10
0
 20
0
 30
0
  0
VERTEX
  8
LAYER_3
 10
123.9583
 20
-171.3268
  0
VERTEX
  8
LAYER_3
 10
125.4583
 20
-169.6899
  0
SEQEND
  0
ENDBLK
  0
BLOCK
  8
LAYER_3
  2
AIGNBL03010070
 70
64
 10
0
 20
0
 30
0
  3
AIGNBL03010070
  0
POLYLINE
  8
LAYER_3
 40
0.1058
 41
0.1058
 66
1
 10
0
 20
0
 30
0
  0
VERTEX
  8
LAYER_3
 10
125.4583
 20
-172.7013
  0
VERTEX
  8
LAYER_3
 10
123.9583
 20
-171.3268
  0
SEQEND
  0
ENDBLK
  0
BLOCK
  8
LAYER_3
  2
AIGNBL03010071
 70
64
 10
0
 20
0
 30
0
  3
AIGNBL03010071
  0
POLYLINE
  8
LAYER_3
 40
0.1058
 41
0.1058
 66
1
 10
0
 20
0
 30
0
  0
VERTEX
  8
LAYER_3
 10
125.4583
 20
-175.7128
  0
VERTEX
  8
LAYER_3
 10
123.9583
 20
-177.3498
  0
SEQEND
  0
ENDBLK
  0
BLOCK
  8
LAYER_3
  2
AIGNBL03010072
 70
64
 10
0
 20
0
 30
0
  3
AIGNBL03010072
  0
POLYLINE
  8
LAYER_3
 40
0.1058
 41
0.1058
 66
1
 10
0
 20
0
 30
0
  0
VERTEX
  8
LAYER_3
 10
123.9583
 20
-174.3383
  0
VERTEX
  8
LAYER_3
 10
125.4583
 20
-175.7128
  0
SEQEND
  0
ENDBLK
  0
BLOCK
  8
LAYER_3
  2
AIGNBL03010073
 70
64
 10
0
 20
0
 30
0
  3
AIGNBL03010073
  0
POLYLINE
  8
LAYER_3
 40
0.1058
 41
0.1058
 66
1
 10
0
 20
0
 30
0
  0
VERTEX
  8
LAYER_3
 10
123.9583
 20
-174.3383
  0
VERTEX
  8
LAYER_3
 10
125.4583
 20
-172.7013
  0
SEQEND
  0
ENDBLK
  0
BLOCK
  8
LAYER_3
  2
AIGNBL03010074
 70
64
 10
0
 20
0
 30
0
  3
AIGNBL03010074
  0
POLYLINE
  8
LAYER_3
 40
0.1058
 41
0.1058
 66
1
 10
0
 20
0
 30
0
  0
VERTEX
  8
LAYER_3
 10
165.2584
 20
-167.7398
  0
VERTEX
  8
LAYER_3
 10
163.7584
 20
-166.3653
  0
SEQEND
  0
ENDBLK
  0
BLOCK
  8
LAYER_3
  2
AIGNBL03010075
 70
64
 10
0
 20
0
 30
0
  3
AIGNBL03010075
  0
POLYLINE
  8
LAYER_3
 40
0.1058
 41
0.1058
 66
1
 10
0
 20
0
 30
0
  0
VERTEX
  8
LAYER_3
 10
163.7584
 20
-169.3767
  0
VERTEX
  8
LAYER_3
 10
165.2584
 20
-167.7398
  0
SEQEND
  0
ENDBLK
  0
BLOCK
  8
LAYER_3
  2
AIGNBL03010076
 70
64
 10
0
 20
0
 30
0
  3
AIGNBL03010076
  0
POLYLINE
  8
LAYER_3
 40
0.1058
 41
0.1058
 66
1
 10
0
 20
0
 30
0
  0
VERTEX
  8
LAYER_3
 10
165.2584
 20
-170.7512
  0
VERTEX
  8
LAYER_3
 10
163.7584
 20
-169.3767
  0
SEQEND
  0
ENDBLK
  0
BLOCK
  8
LAYER_3
  2
AIGNBL03010077
 70
64
 10
0
 20
0
 30
0
  3
AIGNBL03010077
  0
POLYLINE
  8
LAYER_3
 40
0.1058
 41
0.1058
 66
1
 10
0
 20
0
 30
0
  0
VERTEX
  8
LAYER_3
 10
163.7584
 20
-172.3882
  0
VERTEX
  8
LAYER_3
 10
165.2584
 20
-170.7512
  0
SEQEND
  0
ENDBLK
  0
BLOCK
  8
LAYER_3
  2
AIGNBL03010078
 70
64
 10
0
 20
0
 30
0
  3
AIGNBL03010078
  0
POLYLINE
  8
LAYER_3
 40
0.1058
 41
0.1058
 66
1
 10
0
 20
0
 30
0
  0
VERTEX
  8
LAYER_3
 10
165.2584
 20
-173.7627
  0
VERTEX
  8
LAYER_3
 10
163.7584
 20
-172.3882
  0
SEQEND
  0
ENDBLK
  0
BLOCK
  8
LAYER_3
  2
AIGNBL03010079
 70
64
 10
0
 20
0
 30
0
  3
AIGNBL03010079
  0
POLYLINE
  8
LAYER_3
 40
0.1058
 41
0.1058
 66
1
 10
0
 20
0
 30
0
  0
VERTEX
  8
LAYER_3
 10
163.7584
 20
-175.3997
  0
VERTEX
  8
LAYER_3
 10
165.2584
 20
-173.7627
  0
SEQEND
  0
ENDBLK
  0
BLOCK
  8
LAYER_3
  2
AIGNBL0301007A
 70
64
 10
0
 20
0
 30
0
  3
AIGNBL0301007A
  0
POLYLINE
  8
LAYER_3
 40
0.1058
 41
0.1058
 66
1
 10
0
 20
0
 30
0
  0
VERTEX
  8
LAYER_3
 10
125.4583
 20
-169.6899
  0
VERTEX
  8
LAYER_3
 10
163.7584
 20
-166.3653
  0
SEQEND
  0
ENDBLK
  0
BLOCK
  8
LAYER_3
  2
AIGNBL0301007B
 70
64
 10
0
 20
0
 30
0
  3
AIGNBL0301007B
  0
POLYLINE
  8
LAYER_3
 40
0.1058
 41
0.1058
 66
1
 10
0
 20
0
 30
0
  0
VERTEX
  8
LAYER_3
 10
123.9583
 20
-171.3268
  0
VERTEX
  8
LAYER_3
 10
165.2584
 20
-167.7398
  0
SEQEND
  0
ENDBLK
  0
BLOCK
  8
LAYER_3
  2
AIGNBL0301007C
 70
64
 10
0
 20
0
 30
0
  3
AIGNBL0301007C
  0
POLYLINE
  8
LAYER_3
 40
0.1058
 41
0.1058
 66
1
 10
0
 20
0
 30
0
  0
VERTEX
  8
LAYER_3
 10
125.4583
 20
-172.7013
  0
VERTEX
  8
LAYER_3
 10
163.7584
 20
-169.3767
  0
SEQEND
  0
ENDBLK
  0
BLOCK
  8
LAYER_3
  2
AIGNBL0301007D
 70
64
 10
0
 20
0
 30
0
  3
AIGNBL0301007D
  0
POLYLINE
  8
LAYER_3
 40
0.1058
 41
0.1058
 66
1
 10
0
 20
0
 30
0
  0
VERTEX
  8
LAYER_3
 10
123.9583
 20
-174.3383
  0
VERTEX
  8
LAYER_3
 10
165.2584
 20
-170.7512
  0
SEQEND
  0
ENDBLK
  0
BLOCK
  8
LAYER_3
  2
AIGNBL0301007E
 70
64
 10
0
 20
0
 30
0
  3
AIGNBL0301007E
  0
POLYLINE
  8
LAYER_3
 40
0.1058
 41
0.1058
 66
1
 10
0
 20
0
 30
0
  0
VERTEX
  8
LAYER_3
 10
125.4583
 20
-175.7128
  0
VERTEX
  8
LAYER_3
 10
163.7584
 20
-172.3882
  0
SEQEND
  0
ENDBLK
  0
BLOCK
  8
LAYER_3
  2
AIGNBL0301007F
 70
64
 10
0
 20
0
 30
0
  3
AIGNBL0301007F
  0
POLYLINE
  8
LAYER_3
 40
0.1058
 41
0.1058
 66
1
 10
0
 20
0
 30
0
  0
VERTEX
  8
LAYER_3
 10
158.5295
 20
-177.3498
  0
VERTEX
  8
LAYER_3
 10
165.2584
 20
-176.7742
  0
SEQEND
  0
ENDBLK
  0
BLOCK
  8
LAYER_3
  2
AIGNBL03010080
 70
64
 10
0
 20
0
 30
0
  3
AIGNBL03010080
  0
POLYLINE
  8
LAYER_3
 40
0.1058
 41
0.1058
 66
1
 10
0
 20
0
 30
0
  0
VERTEX
  8
LAYER_3
 10
141.3189
 20
-177.3498
  0
VERTEX
  8
LAYER_3
 10
163.7584
 20
-175.3997
  0
SEQEND
  0
ENDBLK
  0
BLOCK
  8
LAYER_3
  2
AIGNBL03010081
 70
64
 10
0
 20
0
 30
0
  3
AIGNBL03010081
  0
POLYLINE
  8
LAYER_3
 40
0.1058
 41
0.1058
 66
1
 10
0
 20
0
 30
0
  0
VERTEX
  8
LAYER_3
 10
123.9583
 20
-177.3498
  0
VERTEX
  8
LAYER_3
 10
165.2584
 20
-173.7627
  0
SEQEND
  0
ENDBLK
  0
BLOCK
  8
LAYER_3
  2
AIGNBL03010082
 70
64
 10
0
 20
0
 30
0
  3
AIGNBL03010082
  0
POLYLINE
  8
LAYER_3
 40
0.1058
 41
0.1058
 66
1
 10
0
 20
0
 30
0
  0
VERTEX
  8
LAYER_3
 10
123.9583
 20
-177.3498
  0
VERTEX
  8
LAYER_3
 10
164.731
 20
-177.3498
  0
SEQEND
  0
ENDBLK
  0
BLOCK
  8
LAYER_3
  2
AIGNBL03010083
 70
64
 10
0
 20
0
 30
0
  3
AIGNBL03010083
  0
POLYLINE
  8
LAYER_3
 40
0.1058
 41
0.1058
 66
1
 10
0
 20
0
 30
0
  0
VERTEX
  8
LAYER_3
 10
110.1082
 20
-141.8322
  0
VERTEX
  8
LAYER_3
 10
179.1084
 20
-141.8322
  0
SEQEND
  0
ENDBLK
  0
BLOCK
  8
LAYER_3
  2
AIGNBL03010084
 70
64
 10
0
 20
0
 30
0
  3
AIGNBL03010084
  0
POLYLINE
  8
LAYER_3
 40
0.1058
 41
0.1058
 66
1
 10
0
 20
0
 30
0
  0
VERTEX
  8
LAYER_3
 10
172.0084
 20
-150.4491
  0
VERTEX
  8
LAYER_3
 10
117.2082
 20
-150.4491
  0
SEQEND
  0
ENDBLK
  0
BLOCK
  8
LAYER_3
  2
AIGNBL03010085
 70
64
 10
0
 20
0
 30
0
  3
AIGNBL03010085
  0
POLYLINE
  8
LAYER_3
 40
0.1058
 41
0.1058
 66
1
 10
0
 20
0
 30
0
  0
VERTEX
  8
LAYER_3
 10
130.2583
 20
-159.8229
  0
VERTEX
  8
LAYER_3
 10
132.7583
 20
-158.3795
  0
SEQEND
  0
ENDBLK
  0
BLOCK
  8
LAYER_3
  2
AIGNBL03010086
 70
64
 10
0
 20
0
 30
0
  3
AIGNBL03010086
  0
POLYLINE
  8
LAYER_3
 40
0.1058
 41
0.1058
 66
1
 10
0
 20
0
 30
0
  0
VERTEX
  8
LAYER_3
 10
135.2583
 20
-159.8229
  0
VERTEX
  8
LAYER_3
 10
132.7583
 20
-158.3795
  0
SEQEND
  0
ENDBLK
  0
BLOCK
  8
LAYER_3
  2
AIGNBL03010087
 70
64
 10
0
 20
0
 30
0
  3
AIGNBL03010087
  0
POLYLINE
  8
LAYER_3
 40
0.1058
 41
0.1058
 66
1
 10
0
 20
0
 30
0
  0
VERTEX
  8
LAYER_3
 10
153.9584
 20
-159.8229
  0
VERTEX
  8
LAYER_3
 10
156.4584
 20
-158.3795
  0
SEQEND
  0
ENDBLK
  0
BLOCK
  8
LAYER_3
  2
AIGNBL03010088
 70
64
 10
0
 20
0
 30
0
  3
AIGNBL03010088
  0
POLYLINE
  8
LAYER_3
 40
0.1058
 41
0.1058
 66
1
 10
0
 20
0
 30
0
  0
VERTEX
  8
LAYER_3
 10
158.9584
 20
-159.8229
  0
VERTEX
  8
LAYER_3
 10
156.4584
 20
-158.3795
  0
SEQEND
  0
ENDBLK
  0
BLOCK
  8
LAYER_3
  2
AIGNBL03010089
 70
64
 10
0
 20
0
 30
0
  3
AIGNBL03010089
  0
POLYLINE
  8
LAYER_3
 40
0.1058
 41
0.1058
 66
1
 10
0
 20
0
 30
0
  0
VERTEX
  8
LAYER_3
 10
166.7584
 20
-159.8229
  0
VERTEX
  8
LAYER_3
 10
169.2584
 20
-158.3795
  0
SEQEND
  0
ENDBLK
  0
BLOCK
  8
LAYER_3
  2
AIGNBL0301008A
 70
64
 10
0
 20
0
 30
0
  3
AIGNBL0301008A
  0
POLYLINE
  8
LAYER_3
 40
0.1058
 41
0.1058
 66
1
 10
0
 20
0
 30
0
  0
VERTEX
  8
LAYER_3
 10
169.2584
 20
-154.7229
  0
VERTEX
  8
LAYER_3
 10
169.2584
 20
-158.3795
  0
SEQEND
  0
ENDBLK
  0
BLOCK
  8
LAYER_3
  2
AIGNBL0301008B
 70
64
 10
0
 20
0
 30
0
  3
AIGNBL0301008B
  0
POLYLINE
  8
LAYER_3
 40
0.1058
 41
0.1058
 66
1
 10
0
 20
0
 30
0
  0
VERTEX
  8
LAYER_3
 10
122.4583
 20
-159.8229
  0
VERTEX
  8
LAYER_3
 10
119.9583
 20
-158.3795
  0
SEQEND
  0
ENDBLK
  0
BLOCK
  8
LAYER_3
  2
AIGNBL0301008C
 70
64
 10
0
 20
0
 30
0
  3
AIGNBL0301008C
  0
POLYLINE
  8
LAYER_3
 40
0.1058
 41
0.1058
 66
1
 10
0
 20
0
 30
0
  0
VERTEX
  8
LAYER_3
 10
119.9583
 20
-154.7229
  0
VERTEX
  8
LAYER_3
 10
119.9583
 20
-158.3795
  0
SEQEND
  0
ENDBLK
  0
BLOCK
  8
LAYER_3
  2
AIGNBL0301008D
 70
64
 10
0
 20
0
 30
0
  3
AIGNBL0301008D
  0
POLYLINE
  8
LAYER_3
 40
0.1058
 41
0.1058
 66
1
 10
0
 20
0
 30
0
  0
VERTEX
  8
LAYER_3
 10
132.7583
 20
-154.7229
  0
VERTEX
  8
LAYER_3
 10
132.7583
 20
-158.3795
  0
SEQEND
  0
ENDBLK
  0
BLOCK
  8
LAYER_3
  2
AIGNBL0301008E
 70
64
 10
0
 20
0
 30
0
  3
AIGNBL0301008E
  0
POLYLINE
  8
LAYER_3
 40
0.1058
 41
0.1058
 66
1
 10
0
 20
0
 30
0
  0
VERTEX
  8
LAYER_3
 10
156.4584
 20
-154.7229
  0
VERTEX
  8
LAYER_3
 10
156.4584
 20
-158.3795
  0
SEQEND
  0
ENDBLK
  0
BLOCK
  8
LAYER_3
  2
AIGNBL0301008F
 70
64
 10
0
 20
0
 30
0
  3
AIGNBL0301008F
  0
POLYLINE
  8
LAYER_3
 40
0.1058
 41
0.1058
 66
1
 10
0
 20
0
 30
0
  0
VERTEX
  8
LAYER_3
 10
116.7582
 20
-152.2229
  0
VERTEX
  8
LAYER_3
 10
116.7582
 20
-154.7229
  0
SEQEND
  0
ENDBLK
  0
BLOCK
  8
LAYER_3
  2
AIGNBL03010090
 70
64
 10
0
 20
0
 30
0
  3
AIGNBL03010090
  0
POLYLINE
  8
LAYER_3
 40
0.1058
 41
0.1058
 66
1
 10
0
 20
0
 30
0
  0
VERTEX
  8
LAYER_3
 10
172.4584
 20
-152.2229
  0
VERTEX
  8
LAYER_3
 10
172.4584
 20
-154.7229
  0
SEQEND
  0
ENDBLK
  0
BLOCK
  8
LAYER_3
  2
AIGNBL03010091
 70
64
 10
0
 20
0
 30
0
  3
AIGNBL03010091
  0
POLYLINE
  8
LAYER_3
 40
0.1058
 41
0.1058
 66
1
 10
0
 20
0
 30
0
  0
VERTEX
  8
LAYER_3
 10
166.7584
 20
-159.8229
  0
VERTEX
  8
LAYER_3
 10
122.4583
 20
-159.8229
  0
SEQEND
  0
ENDBLK
  0
BLOCK
  8
LAYER_3
  2
AIGNBL03010092
 70
64
 10
0
 20
0
 30
0
  3
AIGNBL03010092
  0
POLYLINE
  8
LAYER_3
 40
0.1058
 41
0.1058
 66
1
 10
0
 20
0
 30
0
  0
VERTEX
  8
LAYER_3
 10
172.4584
 20
-154.7229
  0
VERTEX
  8
LAYER_3
 10
116.7582
 20
-154.7229
  0
SEQEND
  0
ENDBLK
  0
BLOCK
  8
LAYER_3
  2
AIGNBL03010093
 70
64
 10
0
 20
0
 30
0
  3
AIGNBL03010093
  0
POLYLINE
  8
LAYER_3
 40
0.1058
 41
0.1058
 66
1
 10
0
 20
0
 30
0
  0
VERTEX
  8
LAYER_3
 10
172.4584
 20
-152.2229
  0
VERTEX
  8
LAYER_3
 10
116.7582
 20
-152.2229
  0
SEQEND
  0
ENDBLK
  0
BLOCK
  8
LAYER_3
  2
AIGNBL03010094
 70
64
 10
0
 20
0
 30
0
  3
AIGNBL03010094
  0
POLYLINE
  8
LAYER_3
 40
0.1058
 41
0.1058
 66
1
 10
0
 20
0
 30
0
  0
VERTEX
  8
LAYER_3
 10
119.8853
 20
-149.7322
  0
VERTEX
  8
LAYER_3
 10
169.3314
 20
-149.7322
  0
SEQEND
  0
ENDBLK
  0
BLOCK
  8
LAYER_3
  2
AIGNBL03010095
 70
64
 10
0
 20
0
 30
0
  3
AIGNBL03010095
  0
POLYLINE
  8
LAYER_3
 40
0.1058
 41
0.1058
 66
1
 10
0
 20
0
 30
0
  0
VERTEX
  8
LAYER_3
 10
123.9583
 20
-135.1913
  0
VERTEX
  8
LAYER_3
 10
125.4583
 20
-133.5543
  0
SEQEND
  0
ENDBLK
  0
BLOCK
  8
LAYER_3
  2
AIGNBL03010096
 70
64
 10
0
 20
0
 30
0
  3
AIGNBL03010096
  0
POLYLINE
  8
LAYER_3
 40
0.1058
 41
0.1058
 66
1
 10
0
 20
0
 30
0
  0
VERTEX
  8
LAYER_3
 10
125.4583
 20
-136.5658
  0
VERTEX
  8
LAYER_3
 10
123.9583
 20
-135.1913
  0
SEQEND
  0
ENDBLK
  0
BLOCK
  8
LAYER_3
  2
AIGNBL03010097
 70
64
 10
0
 20
0
 30
0
  3
AIGNBL03010097
  0
POLYLINE
  8
LAYER_3
 40
0.1058
 41
0.1058
 66
1
 10
0
 20
0
 30
0
  0
VERTEX
  8
LAYER_3
 10
123.9583
 20
-138.2028
  0
VERTEX
  8
LAYER_3
 10
125.4583
 20
-136.5658
  0
SEQEND
  0
ENDBLK
  0
BLOCK
  8
LAYER_3
  2
AIGNBL03010098
 70
64
 10
0
 20
0
 30
0
  3
AIGNBL03010098
  0
POLYLINE
  8
LAYER_3
 40
0.1058
 41
0.1058
 66
1
 10
0
 20
0
 30
0
  0
VERTEX
  8
LAYER_3
 10
125.4583
 20
-139.5773
  0
VERTEX
  8
LAYER_3
 10
123.9583
 20
-138.2028
  0
SEQEND
  0
ENDBLK
  0
BLOCK
  8
LAYER_3
  2
AIGNBL03010099
 70
64
 10
0
 20
0
 30
0
  3
AIGNBL03010099
  0
POLYLINE
  8
LAYER_3
 40
0.1058
 41
0.1058
 66
1
 10
0
 20
0
 30
0
  0
VERTEX
  8
LAYER_3
 10
123.9583
 20
-141.2143
  0
VERTEX
  8
LAYER_3
 10
125.4583
 20
-139.5773
  0
SEQEND
  0
ENDBLK
  0
BLOCK
  8
LAYER_3
  2
AIGNBL0301009A
 70
64
 10
0
 20
0
 30
0
  3
AIGNBL0301009A
  0
POLYLINE
  8
LAYER_3
 40
0.1058
 41
0.1058
 66
1
 10
0
 20
0
 30
0
  0
VERTEX
  8
LAYER_3
 10
124.6326
 20
-141.8322
  0
VERTEX
  8
LAYER_3
 10
123.9583
 20
-141.2143
  0
SEQEND
  0
ENDBLK
  0
BLOCK
  8
LAYER_3
  2
AIGNBL0301009B
 70
64
 10
0
 20
0
 30
0
  3
AIGNBL0301009B
  0
POLYLINE
  8
LAYER_3
 40
0.1058
 41
0.1058
 66
1
 10
0
 20
0
 30
0
  0
VERTEX
  8
LAYER_3
 10
165.2584
 20
-131.6043
  0
VERTEX
  8
LAYER_3
 10
163.7584
 20
-130.2298
  0
SEQEND
  0
ENDBLK
  0
BLOCK
  8
LAYER_3
  2
AIGNBL0301009C
 70
64
 10
0
 20
0
 30
0
  3
AIGNBL0301009C
  0
POLYLINE
  8
LAYER_3
 40
0.1058
 41
0.1058
 66
1
 10
0
 20
0
 30
0
  0
VERTEX
  8
LAYER_3
 10
163.7584
 20
-133.2412
  0
VERTEX
  8
LAYER_3
 10
165.2584
 20
-131.6043
  0
SEQEND
  0
ENDBLK
  0
BLOCK
  8
LAYER_3
  2
AIGNBL0301009D
 70
64
 10
0
 20
0
 30
0
  3
AIGNBL0301009D
  0
POLYLINE
  8
LAYER_3
 40
0.1058
 41
0.1058
 66
1
 10
0
 20
0
 30
0
  0
VERTEX
  8
LAYER_3
 10
165.2584
 20
-134.6157
  0
VERTEX
  8
LAYER_3
 10
163.7584
 20
-133.2412
  0
SEQEND
  0
ENDBLK
  0
BLOCK
  8
LAYER_3
  2
AIGNBL0301009E
 70
64
 10
0
 20
0
 30
0
  3
AIGNBL0301009E
  0
POLYLINE
  8
LAYER_3
 40
0.1058
 41
0.1058
 66
1
 10
0
 20
0
 30
0
  0
VERTEX
  8
LAYER_3
 10
163.7584
 20
-136.2527
  0
VERTEX
  8
LAYER_3
 10
165.2584
 20
-134.6157
  0
SEQEND
  0
ENDBLK
  0
BLOCK
  8
LAYER_3
  2
AIGNBL0301009F
 70
64
 10
0
 20
0
 30
0
  3
AIGNBL0301009F
  0
POLYLINE
  8
LAYER_3
 40
0.1058
 41
0.1058
 66
1
 10
0
 20
0
 30
0
  0
VERTEX
  8
LAYER_3
 10
165.2584
 20
-137.6272
  0
VERTEX
  8
LAYER_3
 10
163.7584
 20
-136.2527
  0
SEQEND
  0
ENDBLK
  0
BLOCK
  8
LAYER_3
  2
AIGNBL030100A0
 70
64
 10
0
 20
0
 30
0
  3
AIGNBL030100A0
  0
POLYLINE
  8
LAYER_3
 40
0.1058
 41
0.1058
 66
1
 10
0
 20
0
 30
0
  0
VERTEX
  8
LAYER_3
 10
163.7584
 20
-139.2642
  0
VERTEX
  8
LAYER_3
 10
165.2584
 20
-137.6272
  0
SEQEND
  0
ENDBLK
  0
BLOCK
  8
LAYER_3
  2
AIGNBL030100A1
 70
64
 10
0
 20
0
 30
0
  3
AIGNBL030100A1
  0
POLYLINE
  8
LAYER_3
 40
0.1058
 41
0.1058
 66
1
 10
0
 20
0
 30
0
  0
VERTEX
  8
LAYER_3
 10
165.2584
 20
-140.6387
  0
VERTEX
  8
LAYER_3
 10
163.7584
 20
-139.2642
  0
SEQEND
  0
ENDBLK
  0
BLOCK
  8
LAYER_3
  2
AIGNBL030100A2
 70
64
 10
0
 20
0
 30
0
  3
AIGNBL030100A2
  0
POLYLINE
  8
LAYER_3
 40
0.1058
 41
0.1058
 66
1
 10
0
 20
0
 30
0
  0
VERTEX
  8
LAYER_3
 10
164.1647
 20
-141.8322
  0
VERTEX
  8
LAYER_3
 10
165.2584
 20
-140.6387
  0
SEQEND
  0
ENDBLK
  0
BLOCK
  8
LAYER_3
  2
AIGNBL030100A3
 70
64
 10
0
 20
0
 30
0
  3
AIGNBL030100A3
  0
POLYLINE
  8
LAYER_3
 40
0.1058
 41
0.1058
 66
1
 10
0
 20
0
 30
0
  0
VERTEX
  8
LAYER_3
 10
125.4583
 20
-133.5543
  0
VERTEX
  8
LAYER_3
 10
163.7584
 20
-130.2298
  0
SEQEND
  0
ENDBLK
  0
BLOCK
  8
LAYER_3
  2
AIGNBL030100A4
 70
64
 10
0
 20
0
 30
0
  3
AIGNBL030100A4
  0
POLYLINE
  8
LAYER_3
 40
0.1058
 41
0.1058
 66
1
 10
0
 20
0
 30
0
  0
VERTEX
  8
LAYER_3
 10
123.9583
 20
-135.1913
  0
VERTEX
  8
LAYER_3
 10
165.2584
 20
-131.6043
  0
SEQEND
  0
ENDBLK
  0
BLOCK
  8
LAYER_3
  2
AIGNBL030100A5
 70
64
 10
0
 20
0
 30
0
  3
AIGNBL030100A5
  0
POLYLINE
  8
LAYER_3
 40
0.1058
 41
0.1058
 66
1
 10
0
 20
0
 30
0
  0
VERTEX
  8
LAYER_3
 10
125.4583
 20
-136.5658
  0
VERTEX
  8
LAYER_3
 10
163.7584
 20
-133.2412
  0
SEQEND
  0
ENDBLK
  0
BLOCK
  8
LAYER_3
  2
AIGNBL030100A6
 70
64
 10
0
 20
0
 30
0
  3
AIGNBL030100A6
  0
POLYLINE
  8
LAYER_3
 40
0.1058
 41
0.1058
 66
1
 10
0
 20
0
 30
0
  0
VERTEX
  8
LAYER_3
 10
123.9583
 20
-138.2028
  0
VERTEX
  8
LAYER_3
 10
165.2584
 20
-134.6157
  0
SEQEND
  0
ENDBLK
  0
BLOCK
  8
LAYER_3
  2
AIGNBL030100A7
 70
64
 10
0
 20
0
 30
0
  3
AIGNBL030100A7
  0
POLYLINE
  8
LAYER_3
 40
0.1058
 41
0.1058
 66
1
 10
0
 20
0
 30
0
  0
VERTEX
  8
LAYER_3
 10
125.4583
 20
-139.5773
  0
VERTEX
  8
LAYER_3
 10
163.7584
 20
-136.2527
  0
SEQEND
  0
ENDBLK
  0
BLOCK
  8
LAYER_3
  2
AIGNBL030100A8
 70
64
 10
0
 20
0
 30
0
  3
AIGNBL030100A8
  0
POLYLINE
  8
LAYER_3
 40
0.1058
 41
0.1058
 66
1
 10
0
 20
0
 30
0
  0
VERTEX
  8
LAYER_3
 10
123.9583
 20
-141.2143
  0
VERTEX
  8
LAYER_3
 10
165.2584
 20
-137.6272
  0
SEQEND
  0
ENDBLK
  0
BLOCK
  8
LAYER_3
  2
AIGNBL030100A9
 70
64
 10
0
 20
0
 30
0
  3
AIGNBL030100A9
  0
POLYLINE
  8
LAYER_3
 40
0.1058
 41
0.1058
 66
1
 10
0
 20
0
 30
0
  0
VERTEX
  8
LAYER_3
 10
134.2359
 20
-141.8322
  0
VERTEX
  8
LAYER_3
 10
163.7584
 20
-139.2642
  0
SEQEND
  0
ENDBLK
  0
BLOCK
  8
LAYER_3
  2
AIGNBL030100AA
 70
64
 10
0
 20
0
 30
0
  3
AIGNBL030100AA
  0
POLYLINE
  8
LAYER_3
 40
0.1058
 41
0.1058
 66
1
 10
0
 20
0
 30
0
  0
VERTEX
  8
LAYER_3
 10
151.416
 20
-141.8322
  0
VERTEX
  8
LAYER_3
 10
165.2584
 20
-140.6387
  0
SEQEND
  0
ENDBLK
  0
BLOCK
  8
LAYER_3
  2
AIGNBL030100AB
 70
64
 10
0
 20
0
 30
0
  3
AIGNBL030100AB
  0
POLYLINE
  8
LAYER_3
 40
0.1058
 41
0.1058
 66
1
 10
0
 20
0
 30
0
  0
VERTEX
  8
LAYER_3
 10
124.0583
 20
-112.382
  0
VERTEX
  8
LAYER_3
 10
124.0583
 20
-109.4517
  0
SEQEND
  0
ENDBLK
  0
BLOCK
  8
LAYER_3
  2
AIGNBL030100AC
 70
64
 10
0
 20
0
 30
0
  3
AIGNBL030100AC
  0
POLYLINE
  8
LAYER_3
 40
0.1058
 41
0.1058
 66
1
 10
0
 20
0
 30
0
  0
VERTEX
  8
LAYER_3
 10
165.1584
 20
-112.382
  0
VERTEX
  8
LAYER_3
 10
165.1584
 20
-109.4517
  0
SEQEND
  0
ENDBLK
  0
BLOCK
  8
LAYER_3
  2
AIGNBL030100AD
 70
64
 10
0
 20
0
 30
0
  3
AIGNBL030100AD
  0
POLYLINE
  8
LAYER_3
 40
0.1058
 41
0.1058
 66
1
 10
0
 20
0
 30
0
  0
VERTEX
  8
LAYER_3
 10
113.6082
 20
-101.5516
  0
VERTEX
  8
LAYER_3
 10
113.6082
 20
-99.9516
  0
SEQEND
  0
ENDBLK
  0
BLOCK
  8
LAYER_3
  2
AIGNBL030100AE
 70
64
 10
0
 20
0
 30
0
  3
AIGNBL030100AE
  0
POLYLINE
  8
LAYER_3
 40
0.1058
 41
0.1058
 66
1
 10
0
 20
0
 30
0
  0
VERTEX
  8
LAYER_3
 10
175.6084
 20
-101.5516
  0
VERTEX
  8
LAYER_3
 10
175.6084
 20
-99.9516
  0
SEQEND
  0
ENDBLK
  0
BLOCK
  8
LAYER_3
  2
AIGNBL030100AF
 70
64
 10
0
 20
0
 30
0
  3
AIGNBL030100AF
  0
POLYLINE
  8
LAYER_3
 40
0.1058
 41
0.1058
 66
1
 10
0
 20
0
 30
0
  0
VERTEX
  8
LAYER_3
 10
124.0583
 20
-112.382
  0
VERTEX
  8
LAYER_3
 10
165.1584
 20
-112.382
  0
SEQEND
  0
ENDBLK
  0
BLOCK
  8
LAYER_3
  2
AIGNBL030100B0
 70
64
 10
0
 20
0
 30
0
  3
AIGNBL030100B0
  0
POLYLINE
  8
LAYER_3
 40
0.1058
 41
0.1058
 66
1
 10
0
 20
0
 30
0
  0
VERTEX
  8
LAYER_3
 10
113.6082
 20
-101.5516
  0
VERTEX
  8
LAYER_3
 10
175.6084
 20
-101.5516
  0
SEQEND
  0
ENDBLK
  0
BLOCK
  8
LAYER_3
  2
AIGNBL030100B1
 70
64
 10
0
 20
0
 30
0
  3
AIGNBL030100B1
  0
POLYLINE
  8
LAYER_3
 40
0.1058
 41
0.1058
 66
1
 10
0
 20
0
 30
0
  0
VERTEX
  8
LAYER_3
 10
113.6082
 20
-99.9516
  0
VERTEX
  8
LAYER_3
 10
175.6084
 20
-99.9516
  0
SEQEND
  0
ENDBLK
  0
BLOCK
  8
LAYER_3
  2
AIGNBL030100B2
 70
64
 10
0
 20
0
 30
0
  3
AIGNBL030100B2
  0
POLYLINE
  8
LAYER_3
 40
0.1058
 41
0.1058
 66
1
 10
0
 20
0
 30
0
  0
VERTEX
  8
LAYER_3
 10
149.1834
 20
-54.7401
 42
0.4142172829
  0
VERTEX
  8
LAYER_3
 10
148.2833
 20
-53.8401
  0
SEQEND
  0
ENDBLK
  0
BLOCK
  8
LAYER_3
  2
AIGNBL030100B3
 70
64
 10
0
 20
0
 30
0
  3
AIGNBL030100B3
  0
POLYLINE
  8
LAYER_3
 40
0.1058
 41
0.1058
 66
1
 10
0
 20
0
 30
0
  0
VERTEX
  8
LAYER_3
 10
139.5833
 20
-53.8401
 42
0.4141955877
  0
VERTEX
  8
LAYER_3
 10
138.6833
 20
-54.7401
  0
SEQEND
  0
ENDBLK
  0
BLOCK
  8
LAYER_3
  2
AIGNBL030100B4
 70
64
 10
0
 20
0
 30
0
  3
AIGNBL030100B4
  0
POLYLINE
  8
LAYER_3
 40
0.1058
 41
0.1058
 66
1
 10
0
 20
0
 30
0
  0
VERTEX
  8
LAYER_3
 10
169.3314
 20
-149.7322
 42
0.3535175352
  0
VERTEX
  8
LAYER_3
 10
179.1084
 20
-141.8322
  0
SEQEND
  0
ENDBLK
  0
BLOCK
  8
LAYER_3
  2
AIGNBL030100B5
 70
64
 10
0
 20
0
 30
0
  3
AIGNBL030100B5
  0
POLYLINE
  8
LAYER_3
 40
0.1058
 41
0.1058
 66
1
 10
0
 20
0
 30
0
  0
VERTEX
  8
LAYER_3
 10
110.1082
 20
-141.8322
 42
0.3535187696
  0
VERTEX
  8
LAYER_3
 10
119.8853
 20
-149.7322
  0
SEQEND
  0
ENDBLK
  0
BLOCK
  8
LAYER_3
  2
AIGNBL030100B6
 70
64
 10
0
 20
0
 30
0
  3
AIGNBL030100B6
  0
POLYLINE
  8
LAYER_3
 40
0.1058
 41
0.1058
 66
1
 10
0
 20
0
 30
0
  0
VERTEX
  8
LAYER_3
 10
127.6799
 20
-82.0095
  0
VERTEX
  8
LAYER_3
 10
127.6799
 20
-86.5119
  0
SEQEND
  0
ENDBLK
  0
BLOCK
  8
LAYER_3
  2
AIGNBL030100B7
 70
64
 10
0
 20
0
 30
0
  3
AIGNBL030100B7
  0
POLYLINE
  8
LAYER_3
 40
0.1058
 41
0.1058
 66
1
 10
0
 20
0
 30
0
  0
VERTEX
  8
LAYER_3
 10
127.6799
 20
-82.0095
  0
VERTEX
  8
LAYER_3
 10
127.6799
 20
-77.5071
  0
SEQEND
  0
ENDBLK
  0
BLOCK
  8
LAYER_3
  2
AIGNBL030100B8
 70
64
 10
0
 20
0
 30
0
  3
AIGNBL030100B8
  0
POLYLINE
  8
LAYER_3
 40
0.1058
 41
0.1058
 66
1
 10
0
 20
0
 30
0
  0
VERTEX
  8
LAYER_3
 10
124.1866
 20
-82.0095
  0
VERTEX
  8
LAYER_3
 10
124.1866
 20
-86.5119
  0
SEQEND
  0
ENDBLK
  0
BLOCK
  8
LAYER_3
  2
AIGNBL030100B9
 70
64
 10
0
 20
0
 30
0
  3
AIGNBL030100B9
  0
POLYLINE
  8
LAYER_3
 40
0.1058
 41
0.1058
 66
1
 10
0
 20
0
 30
0
  0
VERTEX
  8
LAYER_3
 10
124.1866
 20
-82.0095
  0
VERTEX
  8
LAYER_3
 10
124.1866
 20
-77.5071
  0
SEQEND
  0
ENDBLK
  0
BLOCK
  8
LAYER_3
  2
AIGNBL030100BA
 70
64
 10
0
 20
0
 30
0
  3
AIGNBL030100BA
  0
POLYLINE
  8
LAYER_3
 40
0.1058
 41
0.1058
 66
1
 10
0
 20
0
 30
0
  0
VERTEX
  8
LAYER_3
 10
133.2972
 20
-82.0095
  0
VERTEX
  8
LAYER_3
 10
133.2972
 20
-86.5119
  0
SEQEND
  0
ENDBLK
  0
BLOCK
  8
LAYER_3
  2
AIGNBL030100BB
 70
64
 10
0
 20
0
 30
0
  3
AIGNBL030100BB
  0
POLYLINE
  8
LAYER_3
 40
0.1058
 41
0.1058
 66
1
 10
0
 20
0
 30
0
  0
VERTEX
  8
LAYER_3
 10
129.8039
 20
-82.0095
  0
VERTEX
  8
LAYER_3
 10
129.8039
 20
-86.5119
  0
SEQEND
  0
ENDBLK
  0
BLOCK
  8
LAYER_3
  2
AIGNBL030100BC
 70
64
 10
0
 20
0
 30
0
  3
AIGNBL030100BC
  0
POLYLINE
  8
LAYER_3
 40
0.1058
 41
0.1058
 66
1
 10
0
 20
0
 30
0
  0
VERTEX
  8
LAYER_3
 10
129.8039
 20
-82.0095
  0
VERTEX
  8
LAYER_3
 10
129.8039
 20
-77.5071
  0
SEQEND
  0
ENDBLK
  0
BLOCK
  8
LAYER_3
  2
AIGNBL030100BD
 70
64
 10
0
 20
0
 30
0
  3
AIGNBL030100BD
  0
POLYLINE
  8
LAYER_3
 40
0.1058
 41
0.1058
 66
1
 10
0
 20
0
 30
0
  0
VERTEX
  8
LAYER_3
 10
133.2972
 20
-82.0095
  0
VERTEX
  8
LAYER_3
 10
133.2972
 20
-77.5071
  0
SEQEND
  0
ENDBLK
  0
BLOCK
  8
LAYER_3
  2
AIGNBL030100BE
 70
64
 10
0
 20
0
 30
0
  3
AIGNBL030100BE
  0
POLYLINE
  8
LAYER_3
 40
0.1058
 41
0.1058
 66
1
 10
0
 20
0
 30
0
  0
VERTEX
  8
LAYER_3
 10
135.7845
 20
-82.0095
  0
VERTEX
  8
LAYER_3
 10
135.7845
 20
-77.5071
  0
SEQEND
  0
ENDBLK
  0
BLOCK
  8
LAYER_3
  2
AIGNBL030100BF
 70
64
 10
0
 20
0
 30
0
  3
AIGNBL030100BF
  0
POLYLINE
  8
LAYER_3
 40
0.1058
 41
0.1058
 66
1
 10
0
 20
0
 30
0
  0
VERTEX
  8
LAYER_3
 10
139.2845
 20
-82.0095
  0
VERTEX
  8
LAYER_3
 10
139.2845
 20
-86.5119
  0
SEQEND
  0
ENDBLK
  0
BLOCK
  8
LAYER_3
  2
AIGNBL030100C0
 70
64
 10
0
 20
0
 30
0
  3
AIGNBL030100C0
  0
POLYLINE
  8
LAYER_3
 40
0.1058
 41
0.1058
 66
1
 10
0
 20
0
 30
0
  0
VERTEX
  8
LAYER_3
 10
135.7912
 20
-82.0095
  0
VERTEX
  8
LAYER_3
 10
135.7912
 20
-86.5119
  0
SEQEND
  0
ENDBLK
  0
BLOCK
  8
LAYER_3
  2
AIGNBL030100C1
 70
64
 10
0
 20
0
 30
0
  3
AIGNBL030100C1
  0
POLYLINE
  8
LAYER_3
 40
0.1058
 41
0.1058
 66
1
 10
0
 20
0
 30
0
  0
VERTEX
  8
LAYER_3
 10
139.2845
 20
-82.0095
  0
VERTEX
  8
LAYER_3
 10
139.2845
 20
-77.5071
  0
SEQEND
  0
ENDBLK
  0
BLOCK
  8
LAYER_3
  2
AIGNBL030100C2
 70
64
 10
0
 20
0
 30
0
  3
AIGNBL030100C2
  0
POLYLINE
  8
LAYER_3
 40
0.1058
 41
0.1058
 66
1
 10
0
 20
0
 30
0
  0
VERTEX
  8
LAYER_3
 10
123.2052
 20
-73.514
  0
VERTEX
  8
LAYER_3
 10
123.2052
 20
-87.5141
  0
SEQEND
  0
ENDBLK
  0
BLOCK
  8
LAYER_3
  2
AIGNBL030100C3
 70
64
 10
0
 20
0
 30
0
  3
AIGNBL030100C3
  0
POLYLINE
  8
LAYER_3
 40
0.1058
 41
0.1058
 66
1
 10
0
 20
0
 30
0
  0
VERTEX
  8
LAYER_3
 10
143.9333
 20
-90.5141
  0
VERTEX
  8
LAYER_3
 10
126.2052
 20
-90.5141
  0
SEQEND
  0
ENDBLK
  0
BLOCK
  8
LAYER_3
  2
AIGNBL030100C4
 70
64
 10
0
 20
0
 30
0
  3
AIGNBL030100C4
  0
POLYLINE
  8
LAYER_3
 40
0.1058
 41
0.1058
 66
1
 10
0
 20
0
 30
0
  0
VERTEX
  8
LAYER_3
 10
160.1867
 20
-82.0095
  0
VERTEX
  8
LAYER_3
 10
160.1867
 20
-86.5119
  0
SEQEND
  0
ENDBLK
  0
BLOCK
  8
LAYER_3
  2
AIGNBL030100C5
 70
64
 10
0
 20
0
 30
0
  3
AIGNBL030100C5
  0
POLYLINE
  8
LAYER_3
 40
0.1058
 41
0.1058
 66
1
 10
0
 20
0
 30
0
  0
VERTEX
  8
LAYER_3
 10
160.1867
 20
-82.0095
  0
VERTEX
  8
LAYER_3
 10
160.1867
 20
-77.5071
  0
SEQEND
  0
ENDBLK
  0
BLOCK
  8
LAYER_3
  2
AIGNBL030100C6
 70
64
 10
0
 20
0
 30
0
  3
AIGNBL030100C6
  0
POLYLINE
  8
LAYER_3
 40
0.1058
 41
0.1058
 66
1
 10
0
 20
0
 30
0
  0
VERTEX
  8
LAYER_3
 10
163.68
 20
-82.0095
  0
VERTEX
  8
LAYER_3
 10
163.68
 20
-86.5119
  0
SEQEND
  0
ENDBLK
  0
BLOCK
  8
LAYER_3
  2
AIGNBL030100C7
 70
64
 10
0
 20
0
 30
0
  3
AIGNBL030100C7
  0
POLYLINE
  8
LAYER_3
 40
0.1058
 41
0.1058
 66
1
 10
0
 20
0
 30
0
  0
VERTEX
  8
LAYER_3
 10
163.68
 20
-82.0095
  0
VERTEX
  8
LAYER_3
 10
163.68
 20
-77.5071
  0
SEQEND
  0
ENDBLK
  0
BLOCK
  8
LAYER_3
  2
AIGNBL030100C8
 70
64
 10
0
 20
0
 30
0
  3
AIGNBL030100C8
  0
POLYLINE
  8
LAYER_3
 40
0.1058
 41
0.1058
 66
1
 10
0
 20
0
 30
0
  0
VERTEX
  8
LAYER_3
 10
154.5694
 20
-82.0095
  0
VERTEX
  8
LAYER_3
 10
154.5694
 20
-86.5119
  0
SEQEND
  0
ENDBLK
  0
BLOCK
  8
LAYER_3
  2
AIGNBL030100C9
 70
64
 10
0
 20
0
 30
0
  3
AIGNBL030100C9
  0
POLYLINE
  8
LAYER_3
 40
0.1058
 41
0.1058
 66
1
 10
0
 20
0
 30
0
  0
VERTEX
  8
LAYER_3
 10
158.0627
 20
-82.0095
  0
VERTEX
  8
LAYER_3
 10
158.0627
 20
-86.5119
  0
SEQEND
  0
ENDBLK
  0
BLOCK
  8
LAYER_3
  2
AIGNBL030100CA
 70
64
 10
0
 20
0
 30
0
  3
AIGNBL030100CA
  0
POLYLINE
  8
LAYER_3
 40
0.1058
 41
0.1058
 66
1
 10
0
 20
0
 30
0
  0
VERTEX
  8
LAYER_3
 10
158.0627
 20
-82.0095
  0
VERTEX
  8
LAYER_3
 10
158.0627
 20
-77.5071
  0
SEQEND
  0
ENDBLK
  0
BLOCK
  8
LAYER_3
  2
AIGNBL030100CB
 70
64
 10
0
 20
0
 30
0
  3
AIGNBL030100CB
  0
POLYLINE
  8
LAYER_3
 40
0.1058
 41
0.1058
 66
1
 10
0
 20
0
 30
0
  0
VERTEX
  8
LAYER_3
 10
154.5694
 20
-82.0095
  0
VERTEX
  8
LAYER_3
 10
154.5694
 20
-77.5071
  0
SEQEND
  0
ENDBLK
  0
BLOCK
  8
LAYER_3
  2
AIGNBL030100CC
 70
64
 10
0
 20
0
 30
0
  3
AIGNBL030100CC
  0
POLYLINE
  8
LAYER_3
 40
0.1058
 41
0.1058
 66
1
 10
0
 20
0
 30
0
  0
VERTEX
  8
LAYER_3
 10
152.0822
 20
-82.0095
  0
VERTEX
  8
LAYER_3
 10
152.0822
 20
-77.5071
  0
SEQEND
  0
ENDBLK
  0
BLOCK
  8
LAYER_3
  2
AIGNBL030100CD
 70
64
 10
0
 20
0
 30
0
  3
AIGNBL030100CD
  0
POLYLINE
  8
LAYER_3
 40
0.1058
 41
0.1058
 66
1
 10
0
 20
0
 30
0
  0
VERTEX
  8
LAYER_3
 10
148.5822
 20
-82.0095
  0
VERTEX
  8
LAYER_3
 10
148.5822
 20
-86.5119
  0
SEQEND
  0
ENDBLK
  0
BLOCK
  8
LAYER_3
  2
AIGNBL030100CE
 70
64
 10
0
 20
0
 30
0
  3
AIGNBL030100CE
  0
POLYLINE
  8
LAYER_3
 40
0.1058
 41
0.1058
 66
1
 10
0
 20
0
 30
0
  0
VERTEX
  8
LAYER_3
 10
152.0755
 20
-82.0095
  0
VERTEX
  8
LAYER_3
 10
152.0755
 20
-86.5119
  0
SEQEND
  0
ENDBLK
  0
BLOCK
  8
LAYER_3
  2
AIGNBL030100CF
 70
64
 10
0
 20
0
 30
0
  3
AIGNBL030100CF
  0
POLYLINE
  8
LAYER_3
 40
0.1058
 41
0.1058
 66
1
 10
0
 20
0
 30
0
  0
VERTEX
  8
LAYER_3
 10
142.1867
 20
-82.0095
  0
VERTEX
  8
LAYER_3
 10
142.1867
 20
-86.5119
  0
SEQEND
  0
ENDBLK
  0
BLOCK
  8
LAYER_3
  2
AIGNBL030100D0
 70
64
 10
0
 20
0
 30
0
  3
AIGNBL030100D0
  0
POLYLINE
  8
LAYER_3
 40
0.1058
 41
0.1058
 66
1
 10
0
 20
0
 30
0
  0
VERTEX
  8
LAYER_3
 10
142.1867
 20
-82.0095
  0
VERTEX
  8
LAYER_3
 10
142.1867
 20
-77.5071
  0
SEQEND
  0
ENDBLK
  0
BLOCK
  8
LAYER_3
  2
AIGNBL030100D1
 70
64
 10
0
 20
0
 30
0
  3
AIGNBL030100D1
  0
POLYLINE
  8
LAYER_3
 40
0.1058
 41
0.1058
 66
1
 10
0
 20
0
 30
0
  0
VERTEX
  8
LAYER_3
 10
145.68
 20
-82.0095
  0
VERTEX
  8
LAYER_3
 10
145.68
 20
-86.5119
  0
SEQEND
  0
ENDBLK
  0
BLOCK
  8
LAYER_3
  2
AIGNBL030100D2
 70
64
 10
0
 20
0
 30
0
  3
AIGNBL030100D2
  0
POLYLINE
  8
LAYER_3
 40
0.1058
 41
0.1058
 66
1
 10
0
 20
0
 30
0
  0
VERTEX
  8
LAYER_3
 10
164.6615
 20
-73.514
  0
VERTEX
  8
LAYER_3
 10
164.6615
 20
-87.5141
  0
SEQEND
  0
ENDBLK
  0
BLOCK
  8
LAYER_3
  2
AIGNBL030100D3
 70
64
 10
0
 20
0
 30
0
  3
AIGNBL030100D3
  0
POLYLINE
  8
LAYER_3
 40
0.1058
 41
0.1058
 66
1
 10
0
 20
0
 30
0
  0
VERTEX
  8
LAYER_3
 10
143.9333
 20
-90.5141
  0
VERTEX
  8
LAYER_3
 10
161.6615
 20
-90.5141
  0
SEQEND
  0
ENDBLK
  0
BLOCK
  8
LAYER_3
  2
AIGNBL030100D4
 70
64
 10
0
 20
0
 30
0
  3
AIGNBL030100D4
  0
POLYLINE
  8
LAYER_3
 40
0.1058
 41
0.1058
 66
1
 10
0
 20
0
 30
0
  0
VERTEX
  8
LAYER_3
 10
123.2052
 20
-73.514
  0
VERTEX
  8
LAYER_3
 10
164.6615
 20
-73.514
  0
SEQEND
  0
ENDBLK
  0
BLOCK
  8
LAYER_3
  2
AIGNBL030100D5
 70
64
 10
0
 20
0
 30
0
  3
AIGNBL030100D5
  0
POLYLINE
  8
LAYER_3
 40
0.1058
 41
0.1058
 66
1
 10
0
 20
0
 30
0
  0
VERTEX
  8
LAYER_3
 10
148.5822
 20
-82.0095
  0
VERTEX
  8
LAYER_3
 10
148.5822
 20
-77.5071
  0
SEQEND
  0
ENDBLK
  0
BLOCK
  8
LAYER_3
  2
AIGNBL030100D6
 70
64
 10
0
 20
0
 30
0
  3
AIGNBL030100D6
  0
POLYLINE
  8
LAYER_3
 40
0.1058
 41
0.1058
 66
1
 10
0
 20
0
 30
0
  0
VERTEX
  8
LAYER_3
 10
145.68
 20
-82.0095
  0
VERTEX
  8
LAYER_3
 10
145.68
 20
-77.5071
  0
SEQEND
  0
ENDBLK
  0
BLOCK
  8
LAYER_3
  2
AIGNBL030100D7
 70
64
 10
0
 20
0
 30
0
  3
AIGNBL030100D7
  0
POLYLINE
  8
LAYER_3
 40
0.1058
 41
0.1058
 66
1
 10
0
 20
0
 30
0
  0
VERTEX
  8
LAYER_3
 10
124.1866
 20
-86.5119
 42
0.4142201295
  0
VERTEX
  8
LAYER_3
 10
125.9333
 20
-88.2586
 42
0.4142118204
  0
VERTEX
  8
LAYER_3
 10
127.6799
 20
-86.5119
  0
SEQEND
  0
ENDBLK
  0
BLOCK
  8
LAYER_3
  2
AIGNBL030100D8
 70
64
 10
0
 20
0
 30
0
  3
AIGNBL030100D8
  0
POLYLINE
  8
LAYER_3
 40
0.1058
 41
0.1058
 66
1
 10
0
 20
0
 30
0
  0
VERTEX
  8
LAYER_3
 10
127.6799
 20
-77.5071
 42
0.4142087408
  0
VERTEX
  8
LAYER_3
 10
125.9333
 20
-75.7604
 42
0.4142170496
  0
VERTEX
  8
LAYER_3
 10
124.1866
 20
-77.5071
  0
SEQEND
  0
ENDBLK
  0
BLOCK
  8
LAYER_3
  2
AIGNBL030100D9
 70
64
 10
0
 20
0
 30
0
  3
AIGNBL030100D9
  0
POLYLINE
  8
LAYER_3
 40
0.1058
 41
0.1058
 66
1
 10
0
 20
0
 30
0
  0
VERTEX
  8
LAYER_3
 10
129.8039
 20
-86.5119
 42
0.4142181136
  0
VERTEX
  8
LAYER_3
 10
131.5506
 20
-88.2586
 42
0.4142138363
  0
VERTEX
  8
LAYER_3
 10
133.2972
 20
-86.5119
  0
SEQEND
  0
ENDBLK
  0
BLOCK
  8
LAYER_3
  2
AIGNBL030100DA
 70
64
 10
0
 20
0
 30
0
  3
AIGNBL030100DA
  0
POLYLINE
  8
LAYER_3
 40
0.1058
 41
0.1058
 66
1
 10
0
 20
0
 30
0
  0
VERTEX
  8
LAYER_3
 10
133.2972
 20
-77.5071
 42
0.4142107566
  0
VERTEX
  8
LAYER_3
 10
131.5506
 20
-75.7604
 42
0.4142150338
  0
VERTEX
  8
LAYER_3
 10
129.8039
 20
-77.5071
  0
SEQEND
  0
ENDBLK
  0
BLOCK
  8
LAYER_3
  2
AIGNBL030100DB
 70
64
 10
0
 20
0
 30
0
  3
AIGNBL030100DB
  0
POLYLINE
  8
LAYER_3
 40
0.1058
 41
0.1058
 66
1
 10
0
 20
0
 30
0
  0
VERTEX
  8
LAYER_3
 10
135.7912
 20
-86.5119
 42
0.4142146962
  0
VERTEX
  8
LAYER_3
 10
137.5378
 20
-88.2586
 42
0.4142172538
  0
VERTEX
  8
LAYER_3
 10
139.2845
 20
-86.5119
  0
SEQEND
  0
ENDBLK
  0
BLOCK
  8
LAYER_3
  2
AIGNBL030100DC
 70
64
 10
0
 20
0
 30
0
  3
AIGNBL030100DC
  0
POLYLINE
  8
LAYER_3
 40
0.1058
 41
0.1058
 66
1
 10
0
 20
0
 30
0
  0
VERTEX
  8
LAYER_3
 10
139.2845
 20
-77.5071
 42
0.4142141742
  0
VERTEX
  8
LAYER_3
 10
137.5378
 20
-75.7604
 42
0.4142116162
  0
VERTEX
  8
LAYER_3
 10
135.7912
 20
-77.5071
  0
SEQEND
  0
ENDBLK
  0
BLOCK
  8
LAYER_3
  2
AIGNBL030100DD
 70
64
 10
0
 20
0
 30
0
  3
AIGNBL030100DD
  0
POLYLINE
  8
LAYER_3
 40
0.1058
 41
0.1058
 66
1
 10
0
 20
0
 30
0
  0
VERTEX
  8
LAYER_3
 10
123.2052
 20
-87.5141
 42
0.4142148077
  0
VERTEX
  8
LAYER_3
 10
126.2052
 20
-90.5141
  0
SEQEND
  0
ENDBLK
  0
BLOCK
  8
LAYER_3
  2
AIGNBL030100DE
 70
64
 10
0
 20
0
 30
0
  3
AIGNBL030100DE
  0
POLYLINE
  8
LAYER_3
 40
0.1058
 41
0.1058
 66
1
 10
0
 20
0
 30
0
  0
VERTEX
  8
LAYER_3
 10
160.1867
 20
-86.5119
 42
0.4142174101
  0
VERTEX
  8
LAYER_3
 10
161.9334
 20
-88.2586
 42
0.4142145398
  0
VERTEX
  8
LAYER_3
 10
163.68
 20
-86.5119
  0
SEQEND
  0
ENDBLK
  0
BLOCK
  8
LAYER_3
  2
AIGNBL030100DF
 70
64
 10
0
 20
0
 30
0
  3
AIGNBL030100DF
  0
POLYLINE
  8
LAYER_3
 40
0.1058
 41
0.1058
 66
1
 10
0
 20
0
 30
0
  0
VERTEX
  8
LAYER_3
 10
163.68
 20
-77.5071
 42
0.4142114601
  0
VERTEX
  8
LAYER_3
 10
161.9334
 20
-75.7604
 42
0.4142143302
  0
VERTEX
  8
LAYER_3
 10
160.1867
 20
-77.5071
  0
SEQEND
  0
ENDBLK
  0
BLOCK
  8
LAYER_3
  2
AIGNBL030100E0
 70
64
 10
0
 20
0
 30
0
  3
AIGNBL030100E0
  0
POLYLINE
  8
LAYER_3
 40
0.1058
 41
0.1058
 66
1
 10
0
 20
0
 30
0
  0
VERTEX
  8
LAYER_3
 10
154.5694
 20
-86.5119
 42
0.4142194259
  0
VERTEX
  8
LAYER_3
 10
156.3161
 20
-88.2586
 42
0.414212524
  0
VERTEX
  8
LAYER_3
 10
158.0627
 20
-86.5119
  0
SEQEND
  0
ENDBLK
  0
BLOCK
  8
LAYER_3
  2
AIGNBL030100E1
 70
64
 10
0
 20
0
 30
0
  3
AIGNBL030100E1
  0
POLYLINE
  8
LAYER_3
 40
0.1058
 41
0.1058
 66
1
 10
0
 20
0
 30
0
  0
VERTEX
  8
LAYER_3
 10
158.0627
 20
-77.5071
 42
0.4142094443
  0
VERTEX
  8
LAYER_3
 10
156.3161
 20
-75.7604
 42
0.414216346
  0
VERTEX
  8
LAYER_3
 10
154.5694
 20
-77.5071
  0
SEQEND
  0
ENDBLK
  0
BLOCK
  8
LAYER_3
  2
AIGNBL030100E2
 70
64
 10
0
 20
0
 30
0
  3
AIGNBL030100E2
  0
POLYLINE
  8
LAYER_3
 40
0.1058
 41
0.1058
 66
1
 10
0
 20
0
 30
0
  0
VERTEX
  8
LAYER_3
 10
148.5822
 20
-86.5119
 42
0.4142228436
  0
VERTEX
  8
LAYER_3
 10
150.3289
 20
-88.2586
 42
0.4142091064
  0
VERTEX
  8
LAYER_3
 10
152.0755
 20
-86.5119
  0
SEQEND
  0
ENDBLK
  0
BLOCK
  8
LAYER_3
  2
AIGNBL030100E3
 70
64
 10
0
 20
0
 30
0
  3
AIGNBL030100E3
  0
POLYLINE
  8
LAYER_3
 40
0.1058
 41
0.1058
 66
1
 10
0
 20
0
 30
0
  0
VERTEX
  8
LAYER_3
 10
152.0755
 20
-77.5071
 42
0.4142060268
  0
VERTEX
  8
LAYER_3
 10
150.3289
 20
-75.7604
 42
0.4142197636
  0
VERTEX
  8
LAYER_3
 10
148.5822
 20
-77.5071
  0
SEQEND
  0
ENDBLK
  0
BLOCK
  8
LAYER_3
  2
AIGNBL030100E4
 70
64
 10
0
 20
0
 30
0
  3
AIGNBL030100E4
  0
POLYLINE
  8
LAYER_3
 40
0.1058
 41
0.1058
 66
1
 10
0
 20
0
 30
0
  0
VERTEX
  8
LAYER_3
 10
142.1867
 20
-86.5119
 42
0.4142103856
  0
VERTEX
  8
LAYER_3
 10
143.9333
 20
-88.2586
 42
0.4142215643
  0
VERTEX
  8
LAYER_3
 10
145.68
 20
-86.5119
  0
SEQEND
  0
ENDBLK
  0
BLOCK
  8
LAYER_3
  2
AIGNBL030100E5
 70
64
 10
0
 20
0
 30
0
  3
AIGNBL030100E5
  0
POLYLINE
  8
LAYER_3
 40
0.1058
 41
0.1058
 66
1
 10
0
 20
0
 30
0
  0
VERTEX
  8
LAYER_3
 10
145.68
 20
-77.5071
 42
0.4142184846
  0
VERTEX
  8
LAYER_3
 10
143.9333
 20
-75.7604
 42
0.4142073057
  0
VERTEX
  8
LAYER_3
 10
142.1867
 20
-77.5071
  0
SEQEND
  0
ENDBLK
  0
BLOCK
  8
LAYER_3
  2
AIGNBL030100E6
 70
64
 10
0
 20
0
 30
0
  3
AIGNBL030100E6
  0
POLYLINE
  8
LAYER_3
 40
0.1058
 41
0.1058
 66
1
 10
0
 20
0
 30
0
  0
VERTEX
  8
LAYER_3
 10
161.6615
 20
-90.5141
 42
0.4142115534
  0
VERTEX
  8
LAYER_3
 10
164.6615
 20
-87.5141
  0
SEQEND
  0
ENDBLK
  0
BLOCK
  8
LAYER_3
  2
AIGNBL030100E7
 70
64
 10
0
 20
0
 30
0
  3
AIGNBL030100E7
  0
POLYLINE
  8
LAYER_3
 40
0.1058
 41
0.1058
 66
1
 10
0
 20
0
 30
0
  0
VERTEX
  8
LAYER_3
 10
111.4332
 20
-46.4518
  0
VERTEX
  8
LAYER_3
 10
176.4334
 20
-46.4518
  0
SEQEND
  0
ENDBLK
  0
BLOCK
  8
LAYER_3
  2
AIGNBL030100E8
 70
64
 10
0
 20
0
 30
0
  3
AIGNBL030100E8
  0
POLYLINE
  8
LAYER_3
 40
0.1058
 41
0.1058
 66
1
 10
0
 20
0
 30
0
  0
VERTEX
  8
LAYER_3
 10
149.1834
 20
-53.8401
  0
VERTEX
  8
LAYER_3
 10
138.6833
 20
-53.8401
  0
SEQEND
  0
ENDBLK
  0
BLOCK
  8
LAYER_3
  2
AIGNBL030100E9
 70
64
 10
0
 20
0
 30
0
  3
AIGNBL030100E9
  0
POLYLINE
  8
LAYER_3
 40
0.1058
 41
0.1058
 66
1
 10
0
 20
0
 30
0
  0
VERTEX
  8
LAYER_3
 10
176.9334
 20
-45.9518
  0
VERTEX
  8
LAYER_3
 10
176.9334
 20
-45.4149
  0
SEQEND
  0
ENDBLK
  0
BLOCK
  8
LAYER_3
  2
AIGNBL030100EA
 70
64
 10
0
 20
0
 30
0
  3
AIGNBL030100EA
  0
POLYLINE
  8
LAYER_3
 40
0.1058
 41
0.1058
 66
1
 10
0
 20
0
 30
0
  0
VERTEX
  8
LAYER_3
 10
149.1834
 20
-53.8401
  0
VERTEX
  8
LAYER_3
 10
149.1834
 20
-46.4518
  0
SEQEND
  0
ENDBLK
  0
BLOCK
  8
LAYER_3
  2
AIGNBL030100EB
 70
64
 10
0
 20
0
 30
0
  3
AIGNBL030100EB
  0
POLYLINE
  8
LAYER_3
 40
0.1058
 41
0.1058
 66
1
 10
0
 20
0
 30
0
  0
VERTEX
  8
LAYER_3
 10
110.9332
 20
-45.9518
  0
VERTEX
  8
LAYER_3
 10
110.9332
 20
-45.4149
  0
SEQEND
  0
ENDBLK
  0
BLOCK
  8
LAYER_3
  2
AIGNBL030100EC
 70
64
 10
0
 20
0
 30
0
  3
AIGNBL030100EC
  0
POLYLINE
  8
LAYER_3
 40
0.1058
 41
0.1058
 66
1
 10
0
 20
0
 30
0
  0
VERTEX
  8
LAYER_3
 10
138.6833
 20
-53.8401
  0
VERTEX
  8
LAYER_3
 10
138.6833
 20
-46.4518
  0
SEQEND
  0
ENDBLK
  0
BLOCK
  8
LAYER_3
  2
AIGNBL030100ED
 70
64
 10
0
 20
0
 30
0
  3
AIGNBL030100ED
  0
POLYLINE
  8
LAYER_3
 40
0.1058
 41
0.1058
 66
1
 10
0
 20
0
 30
0
  0
VERTEX
  8
LAYER_3
 10
176.4334
 20
-46.4518
 42
0.4142310457
  0
VERTEX
  8
LAYER_3
 10
176.9334
 20
-45.9518
  0
SEQEND
  0
ENDBLK
  0
BLOCK
  8
LAYER_3
  2
AIGNBL030100EE
 70
64
 10
0
 20
0
 30
0
  3
AIGNBL030100EE
  0
POLYLINE
  8
LAYER_3
 40
0.1058
 41
0.1058
 66
1
 10
0
 20
0
 30
0
  0
VERTEX
  8
LAYER_3
 10
176.9334
 20
-45.4149
 42
0.3090867629
  0
VERTEX
  8
LAYER_3
 10
176.615
 20
-44.9491
  0
SEQEND
  0
ENDBLK
  0
BLOCK
  8
LAYER_3
  2
AIGNBL030100EF
 70
64
 10
0
 20
0
 30
0
  3
AIGNBL030100EF
  0
POLYLINE
  8
LAYER_3
 40
0.1058
 41
0.1058
 66
1
 10
0
 20
0
 30
0
  0
VERTEX
  8
LAYER_3
 10
176.615
 20
-44.9491
 42
0.09317420622
  0
VERTEX
  8
LAYER_3
 10
143.9333
 20
-38.8056
  0
SEQEND
  0
ENDBLK
  0
BLOCK
  8
LAYER_3
  2
AIGNBL030100F0
 70
64
 10
0
 20
0
 30
0
  3
AIGNBL030100F0
  0
POLYLINE
  8
LAYER_3
 40
0.1058
 41
0.1058
 66
1
 10
0
 20
0
 30
0
  0
VERTEX
  8
LAYER_3
 10
110.9332
 20
-45.9518
 42
0.4141919947
  0
VERTEX
  8
LAYER_3
 10
111.4332
 20
-46.4518
  0
SEQEND
  0
ENDBLK
  0
BLOCK
  8
LAYER_3
  2
AIGNBL030100F1
 70
64
 10
0
 20
0
 30
0
  3
AIGNBL030100F1
  0
POLYLINE
  8
LAYER_3
 40
0.1058
 41
0.1058
 66
1
 10
0
 20
0
 30
0
  0
VERTEX
  8
LAYER_3
 10
111.2517
 20
-44.9491
 42
0.3091037792
  0
VERTEX
  8
LAYER_3
 10
110.9332
 20
-45.4149
  0
SEQEND
  0
ENDBLK
  0
BLOCK
  8
LAYER_3
  2
AIGNBL030100F2
 70
64
 10
0
 20
0
 30
0
  3
AIGNBL030100F2
  0
POLYLINE
  8
LAYER_3
 40
0.1058
 41
0.1058
 66
1
 10
0
 20
0
 30
0
  0
VERTEX
  8
LAYER_3
 10
143.9333
 20
-38.8056
 42
0.09317393241
  0
VERTEX
  8
LAYER_3
 10
111.2517
 20
-44.9491
  0
SEQEND
  0
ENDBLK
  0
BLOCK
  8
LAYER_6
  2
AIGNBL06010002
 70
64
 10
0
 20
0
 30
0
  3
AIGNBL06010002
  0
POLYLINE
  8
LAYER_6
 40
0.7056
 41
0.7056
 66
1
 10
0
 20
0
 30
0
 70
1
  0
VERTEX
  8
LAYER_6
 10
33.7873
 20
22.6587
  0
VERTEX
  8
LAYER_6
 10
230.7955
 20
22.6587
  0
VERTEX
  8
LAYER_6
 10
230.7955
 20
-259.334
  0
VERTEX
  8
LAYER_6
 10
33.7873
 20
-259.334
  0
SEQEND
  0
ENDBLK
  0
ENDSEC
  0
SECTION
  2
ENTITIES
  0
INSERT
  8
LAYER_1
  2
AIGNBL01010002
 10
0
 20
0
 30
0
  0
INSERT
  8
LAYER_3
  2
AIGNBL03010002
 10
0
 20
0
 30
0
  0
INSERT
  8
LAYER_3
  2
AIGNBL03010003
 10
0
 20
0
 30
0
  0
INSERT
  8
LAYER_3
  2
AIGNBL03010004
 10
0
 20
0
 30
0
  0
INSERT
  8
LAYER_3
  2
AIGNBL03010005
 10
0
 20
0
 30
0
  0
INSERT
  8
LAYER_3
  2
AIGNBL03010006
 10
0
 20
0
 30
0
  0
INSERT
  8
LAYER_3
  2
AIGNBL03010007
 10
0
 20
0
 30
0
  0
INSERT
  8
LAYER_3
  2
AIGNBL03010008
 10
0
 20
0
 30
0
  0
INSERT
  8
LAYER_3
  2
AIGNBL03010009
 10
0
 20
0
 30
0
  0
INSERT
  8
LAYER_3
  2
AIGNBL0301000A
 10
0
 20
0
 30
0
  0
INSERT
  8
LAYER_3
  2
AIGNBL0301000B
 10
0
 20
0
 30
0
  0
INSERT
  8
LAYER_3
  2
AIGNBL0301000C
 10
0
 20
0
 30
0
  0
INSERT
  8
LAYER_3
  2
AIGNBL0301000D
 10
0
 20
0
 30
0
  0
INSERT
  8
LAYER_3
  2
AIGNBL0301000E
 10
0
 20
0
 30
0
  0
INSERT
  8
LAYER_3
  2
AIGNBL0301000F
 10
0
 20
0
 30
0
  0
INSERT
  8
LAYER_3
  2
AIGNBL03010010
 10
0
 20
0
 30
0
  0
INSERT
  8
LAYER_3
  2
AIGNBL03010011
 10
0
 20
0
 30
0
  0
INSERT
  8
LAYER_3
  2
AIGNBL03010012
 10
0
 20
0
 30
0
  0
INSERT
  8
LAYER_3
  2
AIGNBL03010013
 10
0
 20
0
 30
0
  0
INSERT
  8
LAYER_3
  2
AIGNBL03010014
 10
0
 20
0
 30
0
  0
INSERT
  8
LAYER_3
  2
AIGNBL03010015
 10
0
 20
0
 30
0
  0
INSERT
  8
LAYER_3
  2
AIGNBL03010016
 10
0
 20
0
 30
0
  0
INSERT
  8
LAYER_3
  2
AIGNBL03010017
 10
0
 20
0
 30
0
  0
INSERT
  8
LAYER_3
  2
AIGNBL03010018
 10
0
 20
0
 30
0
  0
INSERT
  8
LAYER_3
  2
AIGNBL03010019
 10
0
 20
0
 30
0
  0
INSERT
  8
LAYER_3
  2
AIGNBL0301001A
 10
0
 20
0
 30
0
  0
INSERT
  8
LAYER_3
  2
AIGNBL0301001B
 10
0
 20
0
 30
0
  0
INSERT
  8
LAYER_3
  2
AIGNBL0301001C
 10
0
 20
0
 30
0
  0
INSERT
  8
LAYER_3
  2
AIGNBL0301001D
 10
0
 20
0
 30
0
  0
INSERT
  8
LAYER_3
  2
AIGNBL0301001E
 10
0
 20
0
 30
0
  0
INSERT
  8
LAYER_3
  2
AIGNBL0301001F
 10
0
 20
0
 30
0
  0
INSERT
  8
LAYER_3
  2
AIGNBL03010020
 10
0
 20
0
 30
0
  0
INSERT
  8
LAYER_3
  2
AIGNBL03010021
 10
0
 20
0
 30
0
  0
INSERT
  8
LAYER_3
  2
AIGNBL03010022
 10
0
 20
0
 30
0
  0
INSERT
  8
LAYER_3
  2
AIGNBL03010023
 10
0
 20
0
 30
0
  0
INSERT
  8
LAYER_3
  2
AIGNBL03010024
 10
0
 20
0
 30
0
  0
INSERT
  8
LAYER_3
  2
AIGNBL03010025
 10
0
 20
0
 30
0
  0
INSERT
  8
LAYER_3
  2
AIGNBL03010026
 10
0
 20
0
 30
0
  0
INSERT
  8
LAYER_3
  2
AIGNBL03010027
 10
0
 20
0
 30
0
  0
INSERT
  8
LAYER_3
  2
AIGNBL03010028
 10
0
 20
0
 30
0
  0
INSERT
  8
LAYER_3
  2
AIGNBL03010029
 10
0
 20
0
 30
0
  0
INSERT
  8
LAYER_3
  2
AIGNBL0301002A
 10
0
 20
0
 30
0
  0
INSERT
  8
LAYER_3
  2
AIGNBL0301002B
 10
0
 20
0
 30
0
  0
INSERT
  8
LAYER_3
  2
AIGNBL0301002C
 10
0
 20
0
 30
0
  0
INSERT
  8
LAYER_3
  2
AIGNBL0301002D
 10
0
 20
0
 30
0
  0
INSERT
  8
LAYER_3
  2
AIGNBL0301002E
 10
0
 20
0
 30
0
  0
INSERT
  8
LAYER_3
  2
AIGNBL0301002F
 10
0
 20
0
 30
0
  0
INSERT
  8
LAYER_3
  2
AIGNBL03010030
 10
0
 20
0
 30
0
  0
INSERT
  8
LAYER_3
  2
AIGNBL03010031
 10
0
 20
0
 30
0
  0
INSERT
  8
LAYER_3
  2
AIGNBL03010032
 10
0
 20
0
 30
0
  0
INSERT
  8
LAYER_3
  2
AIGNBL03010033
 10
0
 20
0
 30
0
  0
INSERT
  8
LAYER_3
  2
AIGNBL03010034
 10
0
 20
0
 30
0
  0
INSERT
  8
LAYER_3
  2
AIGNBL03010035
 10
0
 20
0
 30
0
  0
INSERT
  8
LAYER_3
  2
AIGNBL03010036
 10
0
 20
0
 30
0
  0
INSERT
  8
LAYER_3
  2
AIGNBL03010037
 10
0
 20
0
 30
0
  0
INSERT
  8
LAYER_3
  2
AIGNBL03010038
 10
0
 20
0
 30
0
  0
INSERT
  8
LAYER_3
  2
AIGNBL03010039
 10
0
 20
0
 30
0
  0
INSERT
  8
LAYER_3
  2
AIGNBL0301003A
 10
0
 20
0
 30
0
  0
INSERT
  8
LAYER_3
  2
AIGNBL0301003B
 10
0
 20
0
 30
0
  0
INSERT
  8
LAYER_3
  2
AIGNBL0301003C
 10
0
 20
0
 30
0
  0
INSERT
  8
LAYER_3
  2
AIGNBL0301003D
 10
0
 20
0
 30
0
  0
INSERT
  8
LAYER_3
  2
AIGNBL0301003E
 10
0
 20
0
 30
0
  0
INSERT
  8
LAYER_3
  2
AIGNBL0301003F
 10
0
 20
0
 30
0
  0
INSERT
  8
LAYER_3
  2
AIGNBL03010040
 10
0
 20
0
 30
0
  0
INSERT
  8
LAYER_3
  2
AIGNBL03010041
 10
0
 20
0
 30
0
  0
INSERT
  8
LAYER_3
  2
AIGNBL03010042
 10
0
 20
0
 30
0
  0
INSERT
  8
LAYER_3
  2
AIGNBL03010043
 10
0
 20
0
 30
0
  0
INSERT
  8
LAYER_3
  2
AIGNBL03010044
 10
0
 20
0
 30
0
  0
INSERT
  8
LAYER_3
  2
AIGNBL03010045
 10
0
 20
0
 30
0
  0
INSERT
  8
LAYER_3
  2
AIGNBL03010046
 10
0
 20
0
 30
0
  0
INSERT
  8
LAYER_3
  2
AIGNBL03010047
 10
0
 20
0
 30
0
  0
INSERT
  8
LAYER_3
  2
AIGNBL03010048
 10
0
 20
0
 30
0
  0
INSERT
  8
LAYER_3
  2
AIGNBL03010049
 10
0
 20
0
 30
0
  0
INSERT
  8
LAYER_3
  2
AIGNBL0301004A
 10
0
 20
0
 30
0
  0
INSERT
  8
LAYER_3
  2
AIGNBL0301004B
 10
0
 20
0
 30
0
  0
INSERT
  8
LAYER_3
  2
AIGNBL0301004C
 10
0
 20
0
 30
0
  0
INSERT
  8
LAYER_3
  2
AIGNBL0301004D
 10
0
 20
0
 30
0
  0
INSERT
  8
LAYER_3
  2
AIGNBL0301004E
 10
0
 20
0
 30
0
  0
INSERT
  8
LAYER_3
  2
AIGNBL0301004F
 10
0
 20
0
 30
0
  0
INSERT
  8
LAYER_3
  2
AIGNBL03010050
 10
0
 20
0
 30
0
  0
INSERT
  8
LAYER_3
  2
AIGNBL03010051
 10
0
 20
0
 30
0
  0
INSERT
  8
LAYER_3
  2
AIGNBL03010052
 10
0
 20
0
 30
0
  0
INSERT
  8
LAYER_3
  2
AIGNBL03010053
 10
0
 20
0
 30
0
  0
INSERT
  8
LAYER_3
  2
AIGNBL03010054
 10
0
 20
0
 30
0
  0
INSERT
  8
LAYER_3
  2
AIGNBL03010055
 10
0
 20
0
 30
0
  0
INSERT
  8
LAYER_3
  2
AIGNBL03010056
 10
0
 20
0
 30
0
  0
INSERT
  8
LAYER_3
  2
AIGNBL03010057
 10
0
 20
0
 30
0
  0
INSERT
  8
LAYER_3
  2
AIGNBL03010058
 10
0
 20
0
 30
0
  0
INSERT
  8
LAYER_3
  2
AIGNBL03010059
 10
0
 20
0
 30
0
  0
INSERT
  8
LAYER_3
  2
AIGNBL0301005A
 10
0
 20
0
 30
0
  0
INSERT
  8
LAYER_3
  2
AIGNBL0301005B
 10
0
 20
0
 30
0
  0
INSERT
  8
LAYER_3
  2
AIGNBL0301005C
 10
0
 20
0
 30
0
  0
INSERT
  8
LAYER_3
  2
AIGNBL0301005D
 10
0
 20
0
 30
0
  0
INSERT
  8
LAYER_3
  2
AIGNBL0301005E
 10
0
 20
0
 30
0
  0
INSERT
  8
LAYER_3
  2
AIGNBL0301005F
 10
0
 20
0
 30
0
  0
INSERT
  8
LAYER_3
  2
AIGNBL03010060
 10
0
 20
0
 30
0
  0
INSERT
  8
LAYER_3
  2
AIGNBL03010061
 10
0
 20
0
 30
0
  0
INSERT
  8
LAYER_3
  2
AIGNBL03010062
 10
0
 20
0
 30
0
  0
INSERT
  8
LAYER_3
  2
AIGNBL03010063
 10
0
 20
0
 30
0
  0
INSERT
  8
LAYER_3
  2
AIGNBL03010064
 10
0
 20
0
 30
0
  0
INSERT
  8
LAYER_3
  2
AIGNBL03010065
 10
0
 20
0
 30
0
  0
INSERT
  8
LAYER_3
  2
AIGNBL03010066
 10
0
 20
0
 30
0
  0
INSERT
  8
LAYER_3
  2
AIGNBL03010067
 10
0
 20
0
 30
0
  0
INSERT
  8
LAYER_3
  2
AIGNBL03010068
 10
0
 20
0
 30
0
  0
INSERT
  8
LAYER_3
  2
AIGNBL03010069
 10
0
 20
0
 30
0
  0
INSERT
  8
LAYER_3
  2
AIGNBL0301006A
 10
0
 20
0
 30
0
  0
INSERT
  8
LAYER_3
  2
AIGNBL0301006B
 10
0
 20
0
 30
0
  0
INSERT
  8
LAYER_3
  2
AIGNBL0301006C
 10
0
 20
0
 30
0
  0
INSERT
  8
LAYER_3
  2
AIGNBL0301006D
 10
0
 20
0
 30
0
  0
INSERT
  8
LAYER_3
  2
AIGNBL0301006E
 10
0
 20
0
 30
0
  0
INSERT
  8
LAYER_3
  2
AIGNBL0301006F
 10
0
 20
0
 30
0
  0
INSERT
  8
LAYER_3
  2
AIGNBL03010070
 10
0
 20
0
 30
0
  0
INSERT
  8
LAYER_3
  2
AIGNBL03010071
 10
0
 20
0
 30
0
  0
INSERT
  8
LAYER_3
  2
AIGNBL03010072
 10
0
 20
0
 30
0
  0
INSERT
  8
LAYER_3
  2
AIGNBL03010073
 10
0
 20
0
 30
0
  0
INSERT
  8
LAYER_3
  2
AIGNBL03010074
 10
0
 20
0
 30
0
  0
INSERT
  8
LAYER_3
  2
AIGNBL03010075
 10
0
 20
0
 30
0
  0
INSERT
  8
LAYER_3
  2
AIGNBL03010076
 10
0
 20
0
 30
0
  0
INSERT
  8
LAYER_3
  2
AIGNBL03010077
 10
0
 20
0
 30
0
  0
INSERT
  8
LAYER_3
  2
AIGNBL03010078
 10
0
 20
0
 30
0
  0
INSERT
  8
LAYER_3
  2
AIGNBL03010079
 10
0
 20
0
 30
0
  0
INSERT
  8
LAYER_3
  2
AIGNBL0301007A
 10
0
 20
0
 30
0
  0
INSERT
  8
LAYER_3
  2
AIGNBL0301007B
 10
0
 20
0
 30
0
  0
INSERT
  8
LAYER_3
  2
AIGNBL0301007C
 10
0
 20
0
 30
0
  0
INSERT
  8
LAYER_3
  2
AIGNBL0301007D
 10
0
 20
0
 30
0
  0
INSERT
  8
LAYER_3
  2
AIGNBL0301007E
 10
0
 20
0
 30
0
  0
INSERT
  8
LAYER_3
  2
AIGNBL0301007F
 10
0
 20
0
 30
0
  0
INSERT
  8
LAYER_3
  2
AIGNBL03010080
 10
0
 20
0
 30
0
  0
INSERT
  8
LAYER_3
  2
AIGNBL03010081
 10
0
 20
0
 30
0
  0
INSERT
  8
LAYER_3
  2
AIGNBL03010082
 10
0
 20
0
 30
0
  0
INSERT
  8
LAYER_3
  2
AIGNBL03010083
 10
0
 20
0
 30
0
  0
INSERT
  8
LAYER_3
  2
AIGNBL03010084
 10
0
 20
0
 30
0
  0
INSERT
  8
LAYER_3
  2
AIGNBL03010085
 10
0
 20
0
 30
0
  0
INSERT
  8
LAYER_3
  2
AIGNBL03010086
 10
0
 20
0
 30
0
  0
INSERT
  8
LAYER_3
  2
AIGNBL03010087
 10
0
 20
0
 30
0
  0
INSERT
  8
LAYER_3
  2
AIGNBL03010088
 10
0
 20
0
 30
0
  0
INSERT
  8
LAYER_3
  2
AIGNBL03010089
 10
0
 20
0
 30
0
  0
INSERT
  8
LAYER_3
  2
AIGNBL0301008A
 10
0
 20
0
 30
0
  0
INSERT
  8
LAYER_3
  2
AIGNBL0301008B
 10
0
 20
0
 30
0
  0
INSERT
  8
LAYER_3
  2
AIGNBL0301008C
 10
0
 20
0
 30
0
  0
INSERT
  8
LAYER_3
  2
AIGNBL0301008D
 10
0
 20
0
 30
0
  0
INSERT
  8
LAYER_3
  2
AIGNBL0301008E
 10
0
 20
0
 30
0
  0
INSERT
  8
LAYER_3
  2
AIGNBL0301008F
 10
0
 20
0
 30
0
  0
INSERT
  8
LAYER_3
  2
AIGNBL03010090
 10
0
 20
0
 30
0
  0
INSERT
  8
LAYER_3
  2
AIGNBL03010091
 10
0
 20
0
 30
0
  0
INSERT
  8
LAYER_3
  2
AIGNBL03010092
 10
0
 20
0
 30
0
  0
INSERT
  8
LAYER_3
  2
AIGNBL03010093
 10
0
 20
0
 30
0
  0
INSERT
  8
LAYER_3
  2
AIGNBL03010094
 10
0
 20
0
 30
0
  0
INSERT
  8
LAYER_3
  2
AIGNBL03010095
 10
0
 20
0
 30
0
  0
INSERT
  8
LAYER_3
  2
AIGNBL03010096
 10
0
 20
0
 30
0
  0
INSERT
  8
LAYER_3
  2
AIGNBL03010097
 10
0
 20
0
 30
0
  0
INSERT
  8
LAYER_3
  2
AIGNBL03010098
 10
0
 20
0
 30
0
  0
INSERT
  8
LAYER_3
  2
AIGNBL03010099
 10
0
 20
0
 30
0
  0
INSERT
  8
LAYER_3
  2
AIGNBL0301009A
 10
0
 20
0
 30
0
  0
INSERT
  8
LAYER_3
  2
AIGNBL0301009B
 10
0
 20
0
 30
0
  0
INSERT
  8
LAYER_3
  2
AIGNBL0301009C
 10
0
 20
0
 30
0
  0
INSERT
  8
LAYER_3
  2
AIGNBL0301009D
 10
0
 20
0
 30
0
  0
INSERT
  8
LAYER_3
  2
AIGNBL0301009E
 10
0
 20
0
 30
0
  0
INSERT
  8
LAYER_3
  2
AIGNBL0301009F
 10
0
 20
0
 30
0
  0
INSERT
  8
LAYER_3
  2
AIGNBL030100A0
 10
0
 20
0
 30
0
  0
INSERT
  8
LAYER_3
  2
AIGNBL030100A1
 10
0
 20
0
 30
0
  0
INSERT
  8
LAYER_3
  2
AIGNBL030100A2
 10
0
 20
0
 30
0
  0
INSERT
  8
LAYER_3
  2
AIGNBL030100A3
 10
0
 20
0
 30
0
  0
INSERT
  8
LAYER_3
  2
AIGNBL030100A4
 10
0
 20
0
 30
0
  0
INSERT
  8
LAYER_3
  2
AIGNBL030100A5
 10
0
 20
0
 30
0
  0
INSERT
  8
LAYER_3
  2
AIGNBL030100A6
 10
0
 20
0
 30
0
  0
INSERT
  8
LAYER_3
  2
AIGNBL030100A7
 10
0
 20
0
 30
0
  0
INSERT
  8
LAYER_3
  2
AIGNBL030100A8
 10
0
 20
0
 30
0
  0
INSERT
  8
LAYER_3
  2
AIGNBL030100A9
 10
0
 20
0
 30
0
  0
INSERT
  8
LAYER_3
  2
AIGNBL030100AA
 10
0
 20
0
 30
0
  0
INSERT
  8
LAYER_3
  2
AIGNBL030100AB
 10
0
 20
0
 30
0
  0
INSERT
  8
LAYER_3
  2
AIGNBL030100AC
 10
0
 20
0
 30
0
  0
INSERT
  8
LAYER_3
  2
AIGNBL030100AD
 10
0
 20
0
 30
0
  0
INSERT
  8
LAYER_3
  2
AIGNBL030100AE
 10
0
 20
0
 30
0
  0
INSERT
  8
LAYER_3
  2
AIGNBL030100AF
 10
0
 20
0
 30
0
  0
INSERT
  8
LAYER_3
  2
AIGNBL030100B0
 10
0
 20
0
 30
0
  0
INSERT
  8
LAYER_3
  2
AIGNBL030100B1
 10
0
 20
0
 30
0
  0
INSERT
  8
LAYER_3
  2
AIGNBL030100B2
 10
0
 20
0
 30
0
  0
INSERT
  8
LAYER_3
  2
AIGNBL030100B3
 10
0
 20
0
 30
0
  0
INSERT
  8
LAYER_3
  2
AIGNBL030100B4
 10
0
 20
0
 30
0
  0
INSERT
  8
LAYER_3
  2
AIGNBL030100B5
 10
0
 20
0
 30
0
  0
INSERT
  8
LAYER_3
  2
AIGNBL030100B6
 10
0
 20
0
 30
0
  0
INSERT
  8
LAYER_3
  2
AIGNBL030100B7
 10
0
 20
0
 30
0
  0
INSERT
  8
LAYER_3
  2
AIGNBL030100B8
 10
0
 20
0
 30
0
  0
INSERT
  8
LAYER_3
  2
AIGNBL030100B9
 10
0
 20
0
 30
0
  0
INSERT
  8
LAYER_3
  2
AIGNBL030100BA
 10
0
 20
0
 30
0
  0
INSERT
  8
LAYER_3
  2
AIGNBL030100BB
 10
0
 20
0
 30
0
  0
INSERT
  8
LAYER_3
  2
AIGNBL030100BC
 10
0
 20
0
 30
0
  0
INSERT
  8
LAYER_3
  2
AIGNBL030100BD
 10
0
 20
0
 30
0
  0
INSERT
  8
LAYER_3
  2
AIGNBL030100BE
 10
0
 20
0
 30
0
  0
INSERT
  8
LAYER_3
  2
AIGNBL030100BF
 10
0
 20
0
 30
0
  0
INSERT
  8
LAYER_3
  2
AIGNBL030100C0
 10
0
 20
0
 30
0
  0
INSERT
  8
LAYER_3
  2
AIGNBL030100C1
 10
0
 20
0
 30
0
  0
INSERT
  8
LAYER_3
  2
AIGNBL030100C2
 10
0
 20
0
 30
0
  0
INSERT
  8
LAYER_3
  2
AIGNBL030100C3
 10
0
 20
0
 30
0
  0
INSERT
  8
LAYER_3
  2
AIGNBL030100C4
 10
0
 20
0
 30
0
  0
INSERT
  8
LAYER_3
  2
AIGNBL030100C5
 10
0
 20
0
 30
0
  0
INSERT
  8
LAYER_3
  2
AIGNBL030100C6
 10
0
 20
0
 30
0
  0
INSERT
  8
LAYER_3
  2
AIGNBL030100C7
 10
0
 20
0
 30
0
  0
INSERT
  8
LAYER_3
  2
AIGNBL030100C8
 10
0
 20
0
 30
0
  0
INSERT
  8
LAYER_3
  2
AIGNBL030100C9
 10
0
 20
0
 30
0
  0
INSERT
  8
LAYER_3
  2
AIGNBL030100CA
 10
0
 20
0
 30
0
  0
INSERT
  8
LAYER_3
  2
AIGNBL030100CB
 10
0
 20
0
 30
0
  0
INSERT
  8
LAYER_3
  2
AIGNBL030100CC
 10
0
 20
0
 30
0
  0
INSERT
  8
LAYER_3
  2
AIGNBL030100CD
 10
0
 20
0
 30
0
  0
INSERT
  8
LAYER_3
  2
AIGNBL030100CE
 10
0
 20
0
 30
0
  0
INSERT
  8
LAYER_3
  2
AIGNBL030100CF
 10
0
 20
0
 30
0
  0
INSERT
  8
LAYER_3
  2
AIGNBL030100D0
 10
0
 20
0
 30
0
  0
INSERT
  8
LAYER_3
  2
AIGNBL030100D1
 10
0
 20
0
 30
0
  0
INSERT
  8
LAYER_3
  2
AIGNBL030100D2
 10
0
 20
0
 30
0
  0
INSERT
  8
LAYER_3
  2
AIGNBL030100D3
 10
0
 20
0
 30
0
  0
INSERT
  8
LAYER_3
  2
AIGNBL030100D4
 10
0
 20
0
 30
0
  0
INSERT
  8
LAYER_3
  2
AIGNBL030100D5
 10
0
 20
0
 30
0
  0
INSERT
  8
LAYER_3
  2
AIGNBL030100D6
 10
0
 20
0
 30
0
  0
INSERT
  8
LAYER_3
  2
AIGNBL030100D7
 10
0
 20
0
 30
0
  0
INSERT
  8
LAYER_3
  2
AIGNBL030100D8
 10
0
 20
0
 30
0
  0
INSERT
  8
LAYER_3
  2
AIGNBL030100D9
 10
0
 20
0
 30
0
  0
INSERT
  8
LAYER_3
  2
AIGNBL030100DA
 10
0
 20
0
 30
0
  0
INSERT
  8
LAYER_3
  2
AIGNBL030100DB
 10
0
 20
0
 30
0
  0
INSERT
  8
LAYER_3
  2
AIGNBL030100DC
 10
0
 20
0
 30
0
  0
INSERT
  8
LAYER_3
  2
AIGNBL030100DD
 10
0
 20
0
 30
0
  0
INSERT
  8
LAYER_3
  2
AIGNBL030100DE
 10
0
 20
0
 30
0
  0
INSERT
  8
LAYER_3
  2
AIGNBL030100DF
 10
0
 20
0
 30
0
  0
INSERT
  8
LAYER_3
  2
AIGNBL030100E0
 10
0
 20
0
 30
0
  0
INSERT
  8
LAYER_3
  2
AIGNBL030100E1
 10
0
 20
0
 30
0
  0
INSERT
  8
LAYER_3
  2
AIGNBL030100E2
 10
0
 20
0
 30
0
  0
INSERT
  8
LAYER_3
  2
AIGNBL030100E3
 10
0
 20
0
 30
0
  0
INSERT
  8
LAYER_3
  2
AIGNBL030100E4
 10
0
 20
0
 30
0
  0
INSERT
  8
LAYER_3
  2
AIGNBL030100E5
 10
0
 20
0
 30
0
  0
INSERT
  8
LAYER_3
  2
AIGNBL030100E6
 10
0
 20
0
 30
0
  0
INSERT
  8
LAYER_3
  2
AIGNBL030100E7
 10
0
 20
0
 30
0
  0
INSERT
  8
LAYER_3
  2
AIGNBL030100E8
 10
0
 20
0
 30
0
  0
INSERT
  8
LAYER_3
  2
AIGNBL030100E9
 10
0
 20
0
 30
0
  0
INSERT
  8
LAYER_3
  2
AIGNBL030100EA
 10
0
 20
0
 30
0
  0
INSERT
  8
LAYER_3
  2
AIGNBL030100EB
 10
0
 20
0
 30
0
  0
INSERT
  8
LAYER_3
  2
AIGNBL030100EC
 10
0
 20
0
 30
0
  0
INSERT
  8
LAYER_3
  2
AIGNBL030100ED
 10
0
 20
0
 30
0
  0
INSERT
  8
LAYER_3
  2
AIGNBL030100EE
 10
0
 20
0
 30
0
  0
INSERT
  8
LAYER_3
  2
AIGNBL030100EF
 10
0
 20
0
 30
0
  0
INSERT
  8
LAYER_3
  2
AIGNBL030100F0
 10
0
 20
0
 30
0
  0
INSERT
  8
LAYER_3
  2
AIGNBL030100F1
 10
0
 20
0
 30
0
  0
INSERT
  8
LAYER_3
  2
AIGNBL030100F2
 10
0
 20
0
 30
0
  0
INSERT
  8
LAYER_6
  2
AIGNBL06010002
 10
0
 20
0
 30
0
  0
POLYLINE
  8
LAYER_6
 40
0.3528
 41
0.3528
 66
1
 10
0
 20
0
 30
0
  0
VERTEX
  8
LAYER_6
 10
34.7876
 20
-258.3332
  0
VERTEX
  8
LAYER_6
 10
229.7955
 20
-258.3332
  0
VERTEX
  8
LAYER_6
 10
229.7955
 20
21.6583
  0
VERTEX
  8
LAYER_6
 10
34.7876
 20
21.6583
  0
VERTEX
  8
LAYER_6
 10
34.7876
 20
-258.3332
  0
SEQEND
  0
TEXT
  8
LAYER_6
 10
166.4505
 20
-248.7955
 11
166.4505
 21
-248.7955
 40
3.3853
 41
0.5
  1
ü£TEL 0120-65-1232ü£FAX 06-6532-1580
  0
TEXT
  8
LAYER_6
 10
166.4505
 20
-252.3102
 11
166.4505
 21
-252.3102
 40
3.3853
 41
0.5
  1
hits@hiratatile.co.jp
  0
TEXT
  8
LAYER_6
 10
218.9756
 20
18.4461
 11
218.9756
 21
18.4461
 40
2.0732
 41
0.5
  1
190703RT
  0
TEXT
  8
LAYER_6
 10
37.8495
 20
-250.3797
 11
37.8495
 21
-250.3797
 40
3.2995
 41
0.5
  1
Ädùl
  0
POLYLINE
  8
LAYER_6
 40
0.3528
 41
0.3528
 66
1
 10
0
 20
0
 30
0
  0
VERTEX
  8
LAYER_6
 10
229.7955
 20
-241.6001
  0
VERTEX
  8
LAYER_6
 10
34.7874
 20
-241.6001
  0
SEQEND
  0
POLYLINE
  8
LAYER_6
 40
0.3528
 41
0.3528
 66
1
 10
0
 20
0
 30
0
  0
VERTEX
  8
LAYER_6
 10
229.7955
 20
-233.091
  0
VERTEX
  8
LAYER_6
 10
34.7874
 20
-233.091
  0
SEQEND
  0
TEXT
  8
LAYER_6
 10
35.9444
 20
-235.5675
 11
35.9444
 21
-235.5675
 40
2.1997
 41
0.5
  1
òiû╝
  0
TEXT
  8
LAYER_6
 10
48.8795
 20
-238.6599
 11
48.8795
 21
-238.6599
 40
3.6373
 41
0.5
  1
örÉàû┌ÄMüiëóÅBÄdùlüj
  0
TEXT
  8
LAYER_6
 10
48.4217
 20
-250.3883
 11
48.4217
 21
-250.3883
 40
3.1177
 41
0.5
  1
ü£Éàù¡é▀òsë┬ü@ü£ëóÅBÄdùlü@ü£âwâAâLâââbâ`ââü[òté½ü@
  0
TEXT
  8
LAYER_6
 10
139.5072
 20
-235.5677
 11
139.5072
 21
-235.5677
 40
2.1997
 41
0.5
  1
òiöÈ
  0
TEXT
  8
LAYER_6
 10
145.5293
 20
-240.0443
 11
145.5293
 21
-240.0443
 40
5.9385
 41
0.5
  1
AQ-3100HR AQ-3100HR-MDP
  0
TEXT
  8
LAYER_6
 10
37.5245
 20
-211.2067
 11
37.5245
 21
-211.2067
 40
2.3382
 41
0.5
  1
üªÉ¶û╩èÝé­ï▓éÌê╩ÆuüEâgâëâbâvÉ┌æ%%pòöé╔é═âVâèâRâôâRü[âLâôâOôÖé╔é─Ä~ÉàÅêùØé­ìsé┴é─é¡é¥é│éóüB
  0
TEXT
  8
LAYER_6
 10
37.5245
 20
-215.7067
 11
37.5245
 21
-215.7067
 40
2.3382
 41
0.5
  1
üªÿRÉàé¿éµéÐÉ¶û╩èÝé╠öjæ╣ûhÄ~é╠é¢é▀üAâpâbâLâôùÌé¬ÆeÉ½é­ò█é─éÚö═ê═é┼Æ¸é▀òté»é─é¡é¥é│éóüB
  0
TEXT
  8
LAYER_6
 10
37.5245
 20
-220.2067
 11
37.5245
 21
-220.2067
 40
2.3382
 41
0.5
  1
üªëóÅBÄdùlé╠örÉàïÓï´é╠é¢é▀üAô·ò─Ädùlé╠âgâëâbâvéãé═É┌æ%%pé┼é½é▄é╣é±üB
  0
ENDSEC
  0
EOF
