  0
SECTION
  2
HEADER
  9
$ACADVER
  1
AC1009
  9
$LUNITS
 70
2
  9
$LUPREC
 70
4
  9
$LTSCALE
 40
1.0
  9
$EXTMIN
 10
10.7237
 20
-12.4237
 30
0
  9
$EXTMAX
 10
210.7237
 20
274.5764
 30
0
  0
ENDSEC
  0
SECTION
  2
TABLES
  0
TABLE
  2
LTYPE
 70
256
  0
LTYPE
  2
AIGENLINE001
 70
64
  3
generate AI->DXF Converter
 72
65
 73
4
 40
14
 49
11
 49
-1
 49
1
 49
-1
  0
ENDTAB
  0
TABLE
  2
LAYER
 70
4
  0
LAYER
  2
LAYER_1
 70
64
 62
7
  6
CONTINUOUS
  0
LAYER
  2
LAYER_2
 70
64
 62
7
  6
CONTINUOUS
  0
LAYER
  2
LAYER_3
 70
64
 62
7
  6
CONTINUOUS
  0
LAYER
  2
LAYER_4
 70
64
 62
7
  6
CONTINUOUS
  0
ENDTAB
  0
TABLE
  2
STYLE
 70
6
  0
STYLE
  2
STANDARD
 70
0
 40
0
 50
0
 71
0
 41
0
 42
0
  3
TXT
  4
BIGFONT
  0
ENDTAB
  0
ENDSEC
  0
SECTION
  2
BLOCKS
  0
BLOCK
  8
LAYER_4
  2
AIGNBL04040005
 70
64
 10
0
 20
0
 30
0
  3
AIGNBL04040005
  0
POLYLINE
  8
LAYER_4
 40
0.05
 41
0.05
 66
1
 10
0
 20
0
 30
0
 70
1
  0
VERTEX
  8
LAYER_4
 10
105.8061
 20
-7.2357
  0
VERTEX
  8
LAYER_4
 10
105.3173
 20
-8.4208
  0
VERTEX
  8
LAYER_4
 10
104.6892
 20
-8.4208
  0
VERTEX
  8
LAYER_4
 10
106.2888
 20
-4.655
  0
VERTEX
  8
LAYER_4
 10
107.0219
 20
-4.655
  0
VERTEX
  8
LAYER_4
 10
108.6284
 20
-8.4208
  0
VERTEX
  8
LAYER_4
 10
107.9783
 20
-8.4208
  0
VERTEX
  8
LAYER_4
 10
107.4756
 20
-7.2357
  0
SEQEND
  0
POLYLINE
  8
LAYER_4
 40
0.05
 41
0.05
 66
1
 10
0
 20
0
 30
0
 70
1
  0
VERTEX
  8
LAYER_4
 10
107.3499
 20
-6.8568
  0
VERTEX
  8
LAYER_4
 10
106.8889
 20
-5.7719
 42
-0.02304585942
  0
VERTEX
  8
LAYER_4
 10
106.6443
 20
-5.085
  0
VERTEX
  8
LAYER_4
 10
106.6305
 20
-5.085
 42
-0.0206889872
  0
VERTEX
  8
LAYER_4
 10
106.3928
 20
-5.7674
  0
VERTEX
  8
LAYER_4
 10
105.9322
 20
-6.8568
  0
SEQEND
  0
ENDBLK
  0
BLOCK
  8
LAYER_4
  2
AIGNBL04040006
 70
64
 10
0
 20
0
 30
0
  3
AIGNBL04040006
  0
POLYLINE
  8
LAYER_4
 40
0.05
 41
0.05
 66
1
 10
0
 20
0
 30
0
 70
1
  0
VERTEX
  8
LAYER_4
 10
112.9936
 20
-8.9741
 42
-0.01521582625
  0
VERTEX
  8
LAYER_4
 10
111.1915
 20
-8.538
 42
0.09207473053
  0
VERTEX
  8
LAYER_4
 10
110.9049
 20
-8.4825
 42
-0.09258989017
  0
VERTEX
  8
LAYER_4
 10
109.951
 20
-8.2799
 42
-0.09800245739
  0
VERTEX
  8
LAYER_4
 10
109.3137
 20
-7.8451
 42
-0.1630864512
  0
VERTEX
  8
LAYER_4
 10
108.848
 20
-6.8516
 42
-0.03169485851
  0
VERTEX
  8
LAYER_4
 10
108.8309
 20
-6.5777
 42
-0.1055313794
  0
VERTEX
  8
LAYER_4
 10
109.0049
 20
-5.7358
 42
-0.1619874109
  0
VERTEX
  8
LAYER_4
 10
109.7934
 20
-4.8908
 42
-0.09224146328
  0
VERTEX
  8
LAYER_4
 10
110.5925
 20
-4.6251
 42
-0.03717154931
  0
VERTEX
  8
LAYER_4
 10
111.0241
 20
-4.5937
 42
-0.09530992557
  0
VERTEX
  8
LAYER_4
 10
111.9877
 20
-4.7713
 42
-0.1001927534
  0
VERTEX
  8
LAYER_4
 10
112.6248
 20
-5.1941
 42
-0.1611141553
  0
VERTEX
  8
LAYER_4
 10
113.1115
 20
-6.1951
 42
-0.03590264063
  0
VERTEX
  8
LAYER_4
 10
113.1331
 20
-6.4992
 42
-0.1066829401
  0
VERTEX
  8
LAYER_4
 10
112.9567
 20
-7.3539
 42
-0.2183916831
  0
VERTEX
  8
LAYER_4
 10
111.8469
 20
-8.2878
 42
-0.006706650743
  0
VERTEX
  8
LAYER_4
 10
111.7923
 20
-8.3037
  0
VERTEX
  8
LAYER_4
 10
111.7923
 20
-8.3261
 42
0.01541663961
  0
VERTEX
  8
LAYER_4
 10
113.1686
 20
-8.5662
  0
SEQEND
  0
POLYLINE
  8
LAYER_4
 40
0.05
 41
0.05
 66
1
 10
0
 20
0
 30
0
 70
1
  0
VERTEX
  8
LAYER_4
 10
112.491
 20
-6.5205
 42
0.1175610784
  0
VERTEX
  8
LAYER_4
 10
112.3086
 20
-5.7521
 42
0.1170135141
  0
VERTEX
  8
LAYER_4
 10
111.8831
 20
-5.2541
 42
0.1200044572
  0
VERTEX
  8
LAYER_4
 10
111.2702
 20
-5.01
 42
0.03774262044
  0
VERTEX
  8
LAYER_4
 10
111.0027
 20
-4.9902
 42
0.1153139376
  0
VERTEX
  8
LAYER_4
 10
110.2605
 20
-5.1549
 42
0.1853550912
  0
VERTEX
  8
LAYER_4
 10
109.6023
 20
-5.8893
 42
0.09859892291
  0
VERTEX
  8
LAYER_4
 10
109.4803
 20
-6.5653
 42
0.1178359247
  0
VERTEX
  8
LAYER_4
 10
109.648
 20
-7.3041
 42
0.2866694251
  0
VERTEX
  8
LAYER_4
 10
110.9748
 20
-8.0863
 42
0.1188197759
  0
VERTEX
  8
LAYER_4
 10
111.7238
 20
-7.9142
 42
0.1796740134
  0
VERTEX
  8
LAYER_4
 10
112.3642
 20
-7.1975
 42
0.09850052237
  0
SEQEND
  0
ENDBLK
  0
BLOCK
  8
LAYER_4
  2
AIGNBL04040007
 70
64
 10
0
 20
0
 30
0
  3
AIGNBL04040007
  0
POLYLINE
  8
LAYER_4
 40
0.05
 41
0.05
 66
1
 10
0
 20
0
 30
0
 70
1
  0
VERTEX
  8
LAYER_4
 10
114.4605
 20
-4.655
  0
VERTEX
  8
LAYER_4
 10
114.4605
 20
-6.8843
 42
0.1220213404
  0
VERTEX
  8
LAYER_4
 10
114.6206
 20
-7.6
 42
0.2218709818
  0
VERTEX
  8
LAYER_4
 10
115.262
 20
-8.0569
 42
0.05223876895
  0
VERTEX
  8
LAYER_4
 10
115.5571
 20
-8.0863
 42
0.1302821267
  0
VERTEX
  8
LAYER_4
 10
116.2264
 20
-7.9255
 42
0.1509367336
  0
VERTEX
  8
LAYER_4
 10
116.5776
 20
-7.5321
 42
0.1174732039
  0
VERTEX
  8
LAYER_4
 10
116.7026
 20
-6.8843
  0
VERTEX
  8
LAYER_4
 10
116.7026
 20
-4.655
  0
VERTEX
  8
LAYER_4
 10
117.3172
 20
-4.655
  0
VERTEX
  8
LAYER_4
 10
117.3172
 20
-6.8509
 42
-0.1106293044
  0
VERTEX
  8
LAYER_4
 10
117.1477
 20
-7.6695
 42
-0.1822234758
  0
VERTEX
  8
LAYER_4
 10
116.4572
 20
-8.3138
 42
-0.09768424965
  0
VERTEX
  8
LAYER_4
 10
115.6544
 20
-8.4803
 42
-0.01000830121
  0
VERTEX
  8
LAYER_4
 10
115.5361
 20
-8.4825
 42
-0.09899539667
  0
VERTEX
  8
LAYER_4
 10
114.6636
 20
-8.3221
 42
-0.120955925
  0
VERTEX
  8
LAYER_4
 10
114.1609
 20
-7.9409
 42
-0.1193006487
  0
VERTEX
  8
LAYER_4
 10
113.8923
 20
-7.3459
 42
-0.05319923583
  0
VERTEX
  8
LAYER_4
 10
113.8459
 20
-6.873
  0
VERTEX
  8
LAYER_4
 10
113.8459
 20
-4.655
  0
SEQEND
  0
ENDBLK
  0
BLOCK
  8
LAYER_4
  2
AIGNBL04040008
 70
64
 10
0
 20
0
 30
0
  3
AIGNBL04040008
  0
POLYLINE
  8
LAYER_4
 40
0.05
 41
0.05
 66
1
 10
0
 20
0
 30
0
 70
1
  0
VERTEX
  8
LAYER_4
 10
119.0635
 20
-7.2357
  0
VERTEX
  8
LAYER_4
 10
118.5743
 20
-8.4208
  0
VERTEX
  8
LAYER_4
 10
117.9463
 20
-8.4208
  0
VERTEX
  8
LAYER_4
 10
119.5455
 20
-4.655
  0
VERTEX
  8
LAYER_4
 10
120.2786
 20
-4.655
  0
VERTEX
  8
LAYER_4
 10
121.8851
 20
-8.4208
  0
VERTEX
  8
LAYER_4
 10
121.2357
 20
-8.4208
  0
VERTEX
  8
LAYER_4
 10
120.733
 20
-7.2357
  0
SEQEND
  0
POLYLINE
  8
LAYER_4
 40
0.05
 41
0.05
 66
1
 10
0
 20
0
 30
0
 70
1
  0
VERTEX
  8
LAYER_4
 10
120.6069
 20
-6.8568
  0
VERTEX
  8
LAYER_4
 10
120.1456
 20
-5.7719
 42
-0.02237903965
  0
VERTEX
  8
LAYER_4
 10
119.9011
 20
-5.085
  0
VERTEX
  8
LAYER_4
 10
119.8873
 20
-5.085
 42
-0.02086562234
  0
VERTEX
  8
LAYER_4
 10
119.6499
 20
-5.7674
  0
VERTEX
  8
LAYER_4
 10
119.1889
 20
-6.8568
  0
SEQEND
  0
ENDBLK
  0
BLOCK
  8
LAYER_4
  2
AIGNBL04040009
 70
64
 10
0
 20
0
 30
0
  3
AIGNBL04040009
  0
POLYLINE
  8
LAYER_4
 40
0.05
 41
0.05
 66
1
 10
0
 20
0
 30
0
 70
1
  0
VERTEX
  8
LAYER_4
 10
122.9258
 20
-4.6998
 42
-0.03333120323
  0
VERTEX
  8
LAYER_4
 10
124.0927
 20
-4.6268
 42
-0.08840933538
  0
VERTEX
  8
LAYER_4
 10
125.1388
 20
-4.7917
 42
-0.06043834526
  0
VERTEX
  8
LAYER_4
 10
125.4125
 20
-4.9396
 42
-0.2472274485
  0
VERTEX
  8
LAYER_4
 10
125.8242
 20
-5.7278
 42
-0.14831718
  0
VERTEX
  8
LAYER_4
 10
125.6545
 20
-6.3221
 42
-0.07229375779
  0
VERTEX
  8
LAYER_4
 10
125.4611
 20
-6.5319
 42
-0.1209750515
  0
VERTEX
  8
LAYER_4
 10
124.7744
 20
-6.8605
 42
-0.06225351116
  0
VERTEX
  8
LAYER_4
 10
124.0224
 20
-6.9457
 42
-0.05738783264
  0
VERTEX
  8
LAYER_4
 10
123.5339
 20
-6.9123
  0
VERTEX
  8
LAYER_4
 10
123.5339
 20
-8.4208
  0
VERTEX
  8
LAYER_4
 10
122.9258
 20
-8.4208
  0
SEQEND
  0
POLYLINE
  8
LAYER_4
 40
0.05
 41
0.05
 66
1
 10
0
 20
0
 30
0
 70
1
  0
VERTEX
  8
LAYER_4
 10
123.5339
 20
-6.5154
 42
0.0501028158
  0
VERTEX
  8
LAYER_4
 10
124.0362
 20
-6.5546
 42
0.1135299982
  0
VERTEX
  8
LAYER_4
 10
124.8213
 20
-6.3953
 42
0.1653556145
  0
VERTEX
  8
LAYER_4
 10
125.159
 20
-6.0473
 42
0.1044590446
  0
VERTEX
  8
LAYER_4
 10
125.2172
 20
-5.7502
 42
0.2826437488
  0
VERTEX
  8
LAYER_4
 10
124.8663
 20
-5.1672
 42
0.0629694601
  0
VERTEX
  8
LAYER_4
 10
124.6006
 20
-5.0668
 42
0.06259589917
  0
VERTEX
  8
LAYER_4
 10
124.1068
 20
-5.0126
 42
0.05214717704
  0
VERTEX
  8
LAYER_4
 10
123.5339
 20
-5.0519
  0
SEQEND
  0
ENDBLK
  0
BLOCK
  8
LAYER_4
  2
AIGNBL0404000A
 70
64
 10
0
 20
0
 30
0
  3
AIGNBL0404000A
  0
POLYLINE
  8
LAYER_4
 40
0.05
 41
0.05
 66
1
 10
0
 20
0
 30
0
 70
1
  0
VERTEX
  8
LAYER_4
 10
127.3762
 20
-4.9568
 42
-0.3048675751
  0
VERTEX
  8
LAYER_4
 10
127.2098
 20
-5.2114
 42
-0.1151020929
  0
VERTEX
  8
LAYER_4
 10
126.9845
 20
-5.2586
 42
-0.2442513348
  0
VERTEX
  8
LAYER_4
 10
126.6544
 20
-5.0981
 42
-0.1394546152
  0
VERTEX
  8
LAYER_4
 10
126.6142
 20
-4.9568
 42
-0.2875237965
  0
VERTEX
  8
LAYER_4
 10
126.7862
 20
-4.6973
 42
-0.1178843308
  0
VERTEX
  8
LAYER_4
 10
126.9983
 20
-4.6499
 42
-0.2415634986
  0
VERTEX
  8
LAYER_4
 10
127.333
 20
-4.8056
 42
-0.1426777735
  0
SEQEND
  0
POLYLINE
  8
LAYER_4
 40
0.05
 41
0.05
 66
1
 10
0
 20
0
 30
0
 70
1
  0
VERTEX
  8
LAYER_4
 10
126.6906
 20
-8.4208
  0
VERTEX
  8
LAYER_4
 10
126.6906
 20
-5.7168
  0
VERTEX
  8
LAYER_4
 10
127.3052
 20
-5.7168
  0
VERTEX
  8
LAYER_4
 10
127.3052
 20
-8.4208
  0
SEQEND
  0
ENDBLK
  0
BLOCK
  8
LAYER_4
  2
AIGNBL0404000B
 70
64
 10
0
 20
0
 30
0
  3
AIGNBL0404000B
  0
POLYLINE
  8
LAYER_4
 40
0.05
 41
0.05
 66
1
 10
0
 20
0
 30
0
 70
1
  0
VERTEX
  8
LAYER_4
 10
129.177
 20
-7.2357
  0
VERTEX
  8
LAYER_4
 10
128.6888
 20
-8.4208
  0
VERTEX
  8
LAYER_4
 10
128.0597
 20
-8.4208
  0
VERTEX
  8
LAYER_4
 10
129.6593
 20
-4.655
  0
VERTEX
  8
LAYER_4
 10
130.3931
 20
-4.655
  0
VERTEX
  8
LAYER_4
 10
131.9995
 20
-8.4208
  0
VERTEX
  8
LAYER_4
 10
131.3498
 20
-8.4208
  0
VERTEX
  8
LAYER_4
 10
130.8471
 20
-7.2357
  0
SEQEND
  0
POLYLINE
  8
LAYER_4
 40
0.05
 41
0.05
 66
1
 10
0
 20
0
 30
0
 70
1
  0
VERTEX
  8
LAYER_4
 10
130.7211
 20
-6.8568
  0
VERTEX
  8
LAYER_4
 10
130.2601
 20
-5.7719
 42
-0.02437882632
  0
VERTEX
  8
LAYER_4
 10
130.0162
 20
-5.085
  0
VERTEX
  8
LAYER_4
 10
130.0014
 20
-5.085
 42
-0.02050926878
  0
VERTEX
  8
LAYER_4
 10
129.7643
 20
-5.7674
  0
VERTEX
  8
LAYER_4
 10
129.3034
 20
-6.8568
  0
SEQEND
  0
ENDBLK
  0
BLOCK
  8
LAYER_4
  2
AIGNBL04030004
 70
64
 10
0
 20
0
 30
0
  3
AIGNBL04030004
  0
INSERT
  8
LAYER_4
  2
AIGNBL04040005
 10
0
 20
0
 30
0
  0
INSERT
  8
LAYER_4
  2
AIGNBL04040006
 10
0
 20
0
 30
0
  0
INSERT
  8
LAYER_4
  2
AIGNBL04040007
 10
0
 20
0
 30
0
  0
INSERT
  8
LAYER_4
  2
AIGNBL04040008
 10
0
 20
0
 30
0
  0
INSERT
  8
LAYER_4
  2
AIGNBL04040009
 10
0
 20
0
 30
0
  0
INSERT
  8
LAYER_4
  2
AIGNBL0404000A
 10
0
 20
0
 30
0
  0
INSERT
  8
LAYER_4
  2
AIGNBL0404000B
 10
0
 20
0
 30
0
  0
ENDBLK
  0
BLOCK
  8
LAYER_4
  2
AIGNBL0403000D
 70
64
 10
0
 20
0
 30
0
  3
AIGNBL0403000D
  0
POLYLINE
  8
LAYER_4
 40
0.05
 41
0.05
 66
1
 10
0
 20
0
 30
0
 70
1
  0
VERTEX
  8
LAYER_4
 10
104.7991
 20
-10.3201
  0
VERTEX
  8
LAYER_4
 10
105.3524
 20
-10.3201
  0
VERTEX
  8
LAYER_4
 10
105.3524
 20
-10.4138
  0
VERTEX
  8
LAYER_4
 10
104.694
 20
-10.4138
  0
VERTEX
  8
LAYER_4
 10
104.694
 20
-9.3806
  0
VERTEX
  8
LAYER_4
 10
105.3348
 20
-9.3806
  0
VERTEX
  8
LAYER_4
 10
105.3348
 20
-9.474
  0
VERTEX
  8
LAYER_4
 10
104.7991
 20
-9.474
  0
VERTEX
  8
LAYER_4
 10
104.7991
 20
-9.8285
  0
VERTEX
  8
LAYER_4
 10
105.2997
 20
-9.8285
  0
VERTEX
  8
LAYER_4
 10
105.2997
 20
-9.9219
  0
VERTEX
  8
LAYER_4
 10
104.7991
 20
-9.9219
  0
SEQEND
  0
ENDBLK
  0
BLOCK
  8
LAYER_4
  2
AIGNBL0403000E
 70
64
 10
0
 20
0
 30
0
  3
AIGNBL0403000E
  0
POLYLINE
  8
LAYER_4
 40
0.05
 41
0.05
 66
1
 10
0
 20
0
 30
0
 70
1
  0
VERTEX
  8
LAYER_4
 10
106.492
 20
-10.2605
  0
VERTEX
  8
LAYER_4
 10
106.4948
 20
-10.2605
  0
VERTEX
  8
LAYER_4
 10
106.4948
 20
-9.3806
  0
VERTEX
  8
LAYER_4
 10
106.5999
 20
-9.3806
  0
VERTEX
  8
LAYER_4
 10
106.5999
 20
-10.4138
  0
VERTEX
  8
LAYER_4
 10
106.469
 20
-10.4138
  0
VERTEX
  8
LAYER_4
 10
105.8678
 20
-9.525
  0
VERTEX
  8
LAYER_4
 10
105.8643
 20
-9.525
  0
VERTEX
  8
LAYER_4
 10
105.8643
 20
-10.4138
  0
VERTEX
  8
LAYER_4
 10
105.7596
 20
-10.4138
  0
VERTEX
  8
LAYER_4
 10
105.7596
 20
-9.3806
  0
VERTEX
  8
LAYER_4
 10
105.8909
 20
-9.3806
  0
SEQEND
  0
ENDBLK
  0
BLOCK
  8
LAYER_4
  2
AIGNBL0403000F
 70
64
 10
0
 20
0
 30
0
  3
AIGNBL0403000F
  0
POLYLINE
  8
LAYER_4
 40
0.05
 41
0.05
 66
1
 10
0
 20
0
 30
0
 70
1
  0
VERTEX
  8
LAYER_4
 10
107.0729
 20
-10.2019
 42
0.1559461262
  0
VERTEX
  8
LAYER_4
 10
107.1273
 20
-10.305
 42
0.1916352311
  0
VERTEX
  8
LAYER_4
 10
107.2407
 20
-10.3467
  0
VERTEX
  8
LAYER_4
 10
107.3299
 20
-10.327
  0
VERTEX
  8
LAYER_4
 10
107.386
 20
-10.2736
  0
VERTEX
  8
LAYER_4
 10
107.415
 20
-10.1971
  0
VERTEX
  8
LAYER_4
 10
107.4232
 20
-10.1076
  0
VERTEX
  8
LAYER_4
 10
107.4232
 20
-9.3806
  0
VERTEX
  8
LAYER_4
 10
107.5283
 20
-9.3806
  0
VERTEX
  8
LAYER_4
 10
107.5283
 20
-10.1162
  0
VERTEX
  8
LAYER_4
 10
107.517
 20
-10.224
 42
-0.0968098978
  0
VERTEX
  8
LAYER_4
 10
107.4756
 20
-10.3291
 42
-0.1142628396
  0
VERTEX
  8
LAYER_4
 10
107.3908
 20
-10.4087
 42
-0.1246244049
  0
VERTEX
  8
LAYER_4
 10
107.252
 20
-10.44
 42
-0.1791228095
  0
VERTEX
  8
LAYER_4
 10
107.0673
 20
-10.3801
 42
-0.1766425877
  0
VERTEX
  8
LAYER_4
 10
106.975
 20
-10.2285
  0
SEQEND
  0
ENDBLK
  0
BLOCK
  8
LAYER_4
  2
AIGNBL04030010
 70
64
 10
0
 20
0
 30
0
  3
AIGNBL04030010
  0
POLYLINE
  8
LAYER_4
 40
0.05
 41
0.05
 66
1
 10
0
 20
0
 30
0
 70
1
  0
VERTEX
  8
LAYER_4
 10
109.0166
 20
-9.8971
 42
-0.1018011599
  0
VERTEX
  8
LAYER_4
 10
108.9756
 20
-10.1145
 42
-0.0994706196
  0
VERTEX
  8
LAYER_4
 10
108.863
 20
-10.286
 42
-0.09627361929
  0
VERTEX
  8
LAYER_4
 10
108.6921
 20
-10.399
 42
-0.09752919603
  0
VERTEX
  8
LAYER_4
 10
108.4781
 20
-10.44
 42
-0.1000844711
  0
VERTEX
  8
LAYER_4
 10
108.2645
 20
-10.399
 42
-0.09954994557
  0
VERTEX
  8
LAYER_4
 10
108.0936
 20
-10.286
 42
-0.09694545951
  0
VERTEX
  8
LAYER_4
 10
107.9803
 20
-10.1145
 42
-0.09651190294
  0
VERTEX
  8
LAYER_4
 10
107.9397
 20
-9.8971
 42
-0.1004375928
  0
VERTEX
  8
LAYER_4
 10
107.9803
 20
-9.6797
 42
-0.09953902221
  0
VERTEX
  8
LAYER_4
 10
108.0936
 20
-9.5081
 42
-0.09851519288
  0
VERTEX
  8
LAYER_4
 10
108.2645
 20
-9.3951
 42
-0.09768823248
  0
VERTEX
  8
LAYER_4
 10
108.4781
 20
-9.3541
 42
-0.09999517154
  0
VERTEX
  8
LAYER_4
 10
108.6921
 20
-9.3951
 42
-0.0983303992
  0
VERTEX
  8
LAYER_4
 10
108.863
 20
-9.5081
 42
-0.09747441647
  0
VERTEX
  8
LAYER_4
 10
108.9756
 20
-9.6797
 42
-0.09782801819
  0
SEQEND
  0
POLYLINE
  8
LAYER_4
 40
0.05
 41
0.05
 66
1
 10
0
 20
0
 30
0
 70
1
  0
VERTEX
  8
LAYER_4
 10
108.9057
 20
-9.8977
 42
0.08634913196
  0
VERTEX
  8
LAYER_4
 10
108.8767
 20
-9.7258
 42
0.09604960092
  0
VERTEX
  8
LAYER_4
 10
108.792
 20
-9.5825
 42
0.1031839698
  0
VERTEX
  8
LAYER_4
 10
108.6569
 20
-9.4844
 42
0.1064834631
  0
VERTEX
  8
LAYER_4
 10
108.4781
 20
-9.4475
 42
0.1118333104
  0
VERTEX
  8
LAYER_4
 10
108.2993
 20
-9.4844
 42
0.105831229
  0
VERTEX
  8
LAYER_4
 10
108.1646
 20
-9.5825
 42
0.09779852908
  0
VERTEX
  8
LAYER_4
 10
108.0799
 20
-9.7258
 42
0.08491464556
  0
VERTEX
  8
LAYER_4
 10
108.0506
 20
-9.8977
 42
0.08673600623
  0
VERTEX
  8
LAYER_4
 10
108.0799
 20
-10.0697
 42
0.1008106049
  0
VERTEX
  8
LAYER_4
 10
108.1646
 20
-10.2126
 42
0.09978391674
  0
VERTEX
  8
LAYER_4
 10
108.2993
 20
-10.3101
 42
0.106171841
  0
VERTEX
  8
LAYER_4
 10
108.4781
 20
-10.3467
 42
0.1125681622
  0
VERTEX
  8
LAYER_4
 10
108.6569
 20
-10.3101
 42
0.1036982708
  0
VERTEX
  8
LAYER_4
 10
108.792
 20
-10.2126
 42
0.09353859791
  0
VERTEX
  8
LAYER_4
 10
108.8767
 20
-10.0697
 42
0.08455490286
  0
SEQEND
  0
ENDBLK
  0
BLOCK
  8
LAYER_4
  2
AIGNBL04030011
 70
64
 10
0
 20
0
 30
0
  3
AIGNBL04030011
  0
POLYLINE
  8
LAYER_4
 40
0.05
 41
0.05
 66
1
 10
0
 20
0
 30
0
 70
1
  0
VERTEX
  8
LAYER_4
 10
109.7914
 20
-10.4138
  0
VERTEX
  8
LAYER_4
 10
109.6867
 20
-10.4138
  0
VERTEX
  8
LAYER_4
 10
109.6867
 20
-9.9684
  0
VERTEX
  8
LAYER_4
 10
109.2998
 20
-9.3806
  0
VERTEX
  8
LAYER_4
 10
109.431
 20
-9.3806
  0
VERTEX
  8
LAYER_4
 10
109.7421
 20
-9.8809
  0
VERTEX
  8
LAYER_4
 10
110.0557
 20
-9.3806
  0
VERTEX
  8
LAYER_4
 10
110.1779
 20
-9.3806
  0
VERTEX
  8
LAYER_4
 10
109.7914
 20
-9.9684
  0
SEQEND
  0
ENDBLK
  0
BLOCK
  8
LAYER_4
  2
AIGNBL04030012
 70
64
 10
0
 20
0
 30
0
  3
AIGNBL04030012
  0
POLYLINE
  8
LAYER_4
 40
0.05
 41
0.05
 66
1
 10
0
 20
0
 30
0
 70
1
  0
VERTEX
  8
LAYER_4
 10
111.083
 20
-9.3806
  0
VERTEX
  8
LAYER_4
 10
111.3906
 20
-9.3806
  0
VERTEX
  8
LAYER_4
 10
111.5091
 20
-9.3931
  0
VERTEX
  8
LAYER_4
 10
111.6159
 20
-9.4354
 42
-0.1162050551
  0
VERTEX
  8
LAYER_4
 10
111.6938
 20
-9.5164
 42
-0.1232841275
  0
VERTEX
  8
LAYER_4
 10
111.7234
 20
-9.6446
 42
-0.1794682124
  0
VERTEX
  8
LAYER_4
 10
111.6735
 20
-9.7868
 42
-0.170141964
  0
VERTEX
  8
LAYER_4
 10
111.5401
 20
-9.8664
  0
VERTEX
  8
LAYER_4
 10
111.5401
 20
-9.8692
 42
-0.1722776583
  0
VERTEX
  8
LAYER_4
 10
111.7069
 20
-9.9474
 42
-0.2019517608
  0
VERTEX
  8
LAYER_4
 10
111.773
 20
-10.1279
 42
-0.1251382371
  0
VERTEX
  8
LAYER_4
 10
111.7458
 20
-10.245
 42
-0.1153486961
  0
VERTEX
  8
LAYER_4
 10
111.6697
 20
-10.3356
 42
-0.08596362781
  0
VERTEX
  8
LAYER_4
 10
111.5488
 20
-10.3932
 42
-0.06514176373
  0
VERTEX
  8
LAYER_4
 10
111.3889
 20
-10.4138
  0
VERTEX
  8
LAYER_4
 10
111.083
 20
-10.4138
  0
SEQEND
  0
POLYLINE
  8
LAYER_4
 40
0.05
 41
0.05
 66
1
 10
0
 20
0
 30
0
 70
1
  0
VERTEX
  8
LAYER_4
 10
111.188
 20
-9.833
  0
VERTEX
  8
LAYER_4
 10
111.3996
 20
-9.833
  0
VERTEX
  8
LAYER_4
 10
111.4764
 20
-9.824
  0
VERTEX
  8
LAYER_4
 10
111.5467
 20
-9.7944
  0
VERTEX
  8
LAYER_4
 10
111.5987
 20
-9.7379
 42
0.1158505206
  0
VERTEX
  8
LAYER_4
 10
111.6183
 20
-9.6518
  0
VERTEX
  8
LAYER_4
 10
111.5987
 20
-9.5681
  0
VERTEX
  8
LAYER_4
 10
111.5456
 20
-9.5119
  0
VERTEX
  8
LAYER_4
 10
111.4668
 20
-9.4805
  0
VERTEX
  8
LAYER_4
 10
111.3703
 20
-9.4709
  0
VERTEX
  8
LAYER_4
 10
111.188
 20
-9.4709
  0
SEQEND
  0
POLYLINE
  8
LAYER_4
 40
0.05
 41
0.05
 66
1
 10
0
 20
0
 30
0
 70
1
  0
VERTEX
  8
LAYER_4
 10
111.188
 20
-10.3232
  0
VERTEX
  8
LAYER_4
 10
111.3837
 20
-10.3232
  0
VERTEX
  8
LAYER_4
 10
111.4922
 20
-10.3122
  0
VERTEX
  8
LAYER_4
 10
111.5829
 20
-10.2774
 42
0.1167253083
  0
VERTEX
  8
LAYER_4
 10
111.6445
 20
-10.2144
 42
0.1285284108
  0
VERTEX
  8
LAYER_4
 10
111.668
 20
-10.1217
 42
0.2499212344
  0
VERTEX
  8
LAYER_4
 10
111.5987
 20
-9.9694
 42
0.1538083763
  0
VERTEX
  8
LAYER_4
 10
111.4027
 20
-9.9191
  0
VERTEX
  8
LAYER_4
 10
111.188
 20
-9.9191
  0
SEQEND
  0
ENDBLK
  0
BLOCK
  8
LAYER_4
  2
AIGNBL04030013
 70
64
 10
0
 20
0
 30
0
  3
AIGNBL04030013
  0
POLYLINE
  8
LAYER_4
 40
0.05
 41
0.05
 66
1
 10
0
 20
0
 30
0
 70
1
  0
VERTEX
  8
LAYER_4
 10
112.205
 20
-10.4138
  0
VERTEX
  8
LAYER_4
 10
112.0896
 20
-10.4138
  0
VERTEX
  8
LAYER_4
 10
112.5365
 20
-9.3806
  0
VERTEX
  8
LAYER_4
 10
112.6388
 20
-9.3806
  0
VERTEX
  8
LAYER_4
 10
113.0822
 20
-10.4138
  0
VERTEX
  8
LAYER_4
 10
112.9654
 20
-10.4138
  0
VERTEX
  8
LAYER_4
 10
112.8514
 20
-10.1424
  0
VERTEX
  8
LAYER_4
 10
112.3174
 20
-10.1424
  0
SEQEND
  0
POLYLINE
  8
LAYER_4
 40
0.05
 41
0.05
 66
1
 10
0
 20
0
 30
0
 70
1
  0
VERTEX
  8
LAYER_4
 10
112.3566
 20
-10.0459
  0
VERTEX
  8
LAYER_4
 10
112.8121
 20
-10.0459
  0
VERTEX
  8
LAYER_4
 10
112.5843
 20
-9.4971
  0
SEQEND
  0
ENDBLK
  0
BLOCK
  8
LAYER_4
  2
AIGNBL04030014
 70
64
 10
0
 20
0
 30
0
  3
AIGNBL04030014
  0
POLYLINE
  8
LAYER_4
 40
0.05
 41
0.05
 66
1
 10
0
 20
0
 30
0
 70
1
  0
VERTEX
  8
LAYER_4
 10
113.7667
 20
-10.4138
  0
VERTEX
  8
LAYER_4
 10
113.6616
 20
-10.4138
  0
VERTEX
  8
LAYER_4
 10
113.6616
 20
-9.474
  0
VERTEX
  8
LAYER_4
 10
113.3154
 20
-9.474
  0
VERTEX
  8
LAYER_4
 10
113.3154
 20
-9.3806
  0
VERTEX
  8
LAYER_4
 10
114.1122
 20
-9.3806
  0
VERTEX
  8
LAYER_4
 10
114.1122
 20
-9.474
  0
VERTEX
  8
LAYER_4
 10
113.7667
 20
-9.474
  0
SEQEND
  0
ENDBLK
  0
BLOCK
  8
LAYER_4
  2
AIGNBL04030015
 70
64
 10
0
 20
0
 30
0
  3
AIGNBL04030015
  0
POLYLINE
  8
LAYER_4
 40
0.05
 41
0.05
 66
1
 10
0
 20
0
 30
0
 70
1
  0
VERTEX
  8
LAYER_4
 10
114.4684
 20
-9.3806
  0
VERTEX
  8
LAYER_4
 10
114.5732
 20
-9.3806
  0
VERTEX
  8
LAYER_4
 10
114.5732
 20
-9.8285
  0
VERTEX
  8
LAYER_4
 10
115.1368
 20
-9.8285
  0
VERTEX
  8
LAYER_4
 10
115.1368
 20
-9.3806
  0
VERTEX
  8
LAYER_4
 10
115.2419
 20
-9.3806
  0
VERTEX
  8
LAYER_4
 10
115.2419
 20
-10.4138
  0
VERTEX
  8
LAYER_4
 10
115.1368
 20
-10.4138
  0
VERTEX
  8
LAYER_4
 10
115.1368
 20
-9.9246
  0
VERTEX
  8
LAYER_4
 10
114.5732
 20
-9.9246
  0
VERTEX
  8
LAYER_4
 10
114.5732
 20
-10.4138
  0
VERTEX
  8
LAYER_4
 10
114.4684
 20
-10.4138
  0
SEQEND
  0
ENDBLK
  0
BLOCK
  8
LAYER_4
  2
AIGNBL04030016
 70
64
 10
0
 20
0
 30
0
  3
AIGNBL04030016
  0
POLYLINE
  8
LAYER_4
 40
0.05
 41
0.05
 66
1
 10
0
 20
0
 30
0
 70
1
  0
VERTEX
  8
LAYER_4
 10
115.8224
 20
-10.4138
  0
VERTEX
  8
LAYER_4
 10
115.7173
 20
-10.4138
  0
VERTEX
  8
LAYER_4
 10
115.7173
 20
-9.3806
  0
VERTEX
  8
LAYER_4
 10
116.0212
 20
-9.3806
  0
VERTEX
  8
LAYER_4
 10
116.1617
 20
-9.3951
 42
-0.1040288626
  0
VERTEX
  8
LAYER_4
 10
116.2744
 20
-9.4427
 42
-0.128782129
  0
VERTEX
  8
LAYER_4
 10
116.3478
 20
-9.5281
 42
-0.1081124423
  0
VERTEX
  8
LAYER_4
 10
116.3739
 20
-9.6563
  0
VERTEX
  8
LAYER_4
 10
116.354
 20
-9.7599
  0
VERTEX
  8
LAYER_4
 10
116.2985
 20
-9.8409
  0
VERTEX
  8
LAYER_4
 10
116.2151
 20
-9.8957
  0
VERTEX
  8
LAYER_4
 10
116.1101
 20
-9.9219
  0
VERTEX
  8
LAYER_4
 10
116.4122
 20
-10.4138
  0
VERTEX
  8
LAYER_4
 10
116.2837
 20
-10.4138
  0
VERTEX
  8
LAYER_4
 10
115.9977
 20
-9.9308
  0
VERTEX
  8
LAYER_4
 10
115.8224
 20
-9.9308
  0
SEQEND
  0
POLYLINE
  8
LAYER_4
 40
0.05
 41
0.05
 66
1
 10
0
 20
0
 30
0
 70
1
  0
VERTEX
  8
LAYER_4
 10
115.8224
 20
-9.8402
  0
VERTEX
  8
LAYER_4
 10
116.005
 20
-9.8402
 42
0.153451873
  0
VERTEX
  8
LAYER_4
 10
116.2007
 20
-9.7944
 42
0.2583853616
  0
VERTEX
  8
LAYER_4
 10
116.2692
 20
-9.6563
  0
VERTEX
  8
LAYER_4
 10
116.2499
 20
-9.5705
  0
VERTEX
  8
LAYER_4
 10
116.1976
 20
-9.5133
  0
VERTEX
  8
LAYER_4
 10
116.1159
 20
-9.4813
  0
VERTEX
  8
LAYER_4
 10
116.0095
 20
-9.4709
  0
VERTEX
  8
LAYER_4
 10
115.8224
 20
-9.4709
  0
SEQEND
  0
ENDBLK
  0
BLOCK
  8
LAYER_4
  2
AIGNBL04030017
 70
64
 10
0
 20
0
 30
0
  3
AIGNBL04030017
  0
POLYLINE
  8
LAYER_4
 40
0.05
 41
0.05
 66
1
 10
0
 20
0
 30
0
 70
1
  0
VERTEX
  8
LAYER_4
 10
117.8143
 20
-9.8971
 42
-0.09891686652
  0
VERTEX
  8
LAYER_4
 10
117.7737
 20
-10.1145
 42
-0.100014482
  0
VERTEX
  8
LAYER_4
 10
117.6603
 20
-10.286
 42
-0.09825039702
  0
VERTEX
  8
LAYER_4
 10
117.4898
 20
-10.399
 42
-0.09758412454
  0
VERTEX
  8
LAYER_4
 10
117.2759
 20
-10.44
 42
-0.09999517154
  0
VERTEX
  8
LAYER_4
 10
117.0619
 20
-10.399
 42
-0.09953435427
  0
VERTEX
  8
LAYER_4
 10
116.8914
 20
-10.286
 42
-0.09849098597
  0
VERTEX
  8
LAYER_4
 10
116.7784
 20
-10.1145
 42
-0.09651190294
  0
VERTEX
  8
LAYER_4
 10
116.7378
 20
-9.8971
 42
-0.1004375928
  0
VERTEX
  8
LAYER_4
 10
116.7784
 20
-9.6797
 42
-0.1004826394
  0
VERTEX
  8
LAYER_4
 10
116.8914
 20
-9.5081
 42
-0.09763764092
  0
VERTEX
  8
LAYER_4
 10
117.0619
 20
-9.3951
 42
-0.09752919603
  0
VERTEX
  8
LAYER_4
 10
117.2759
 20
-9.3541
 42
-0.1000174927
  0
VERTEX
  8
LAYER_4
 10
117.4898
 20
-9.3951
 42
-0.100647442
  0
VERTEX
  8
LAYER_4
 10
117.6603
 20
-9.5081
 42
-0.09724598852
  0
VERTEX
  8
LAYER_4
 10
117.7737
 20
-9.6797
 42
-0.09580310347
  0
SEQEND
  0
POLYLINE
  8
LAYER_4
 40
0.05
 41
0.05
 66
1
 10
0
 20
0
 30
0
 70
1
  0
VERTEX
  8
LAYER_4
 10
117.7034
 20
-9.8977
 42
0.08852014676
  0
VERTEX
  8
LAYER_4
 10
117.6741
 20
-9.7258
 42
0.09930554302
  0
VERTEX
  8
LAYER_4
 10
117.5894
 20
-9.5825
 42
0.1023785982
  0
VERTEX
  8
LAYER_4
 10
117.4547
 20
-9.4844
 42
0.1063834013
  0
VERTEX
  8
LAYER_4
 10
117.2759
 20
-9.4475
 42
0.1120907469
  0
VERTEX
  8
LAYER_4
 10
117.0971
 20
-9.4844
 42
0.1062077478
  0
VERTEX
  8
LAYER_4
 10
116.962
 20
-9.5825
 42
0.09518452249
  0
VERTEX
  8
LAYER_4
 10
116.8773
 20
-9.7258
 42
0.08440311357
  0
VERTEX
  8
LAYER_4
 10
116.8483
 20
-9.8977
 42
0.08731346959
  0
VERTEX
  8
LAYER_4
 10
116.8773
 20
-10.0697
 42
0.09809962913
  0
VERTEX
  8
LAYER_4
 10
116.962
 20
-10.2126
 42
0.09965756504
  0
VERTEX
  8
LAYER_4
 10
117.0971
 20
-10.3101
 42
0.1062735873
  0
VERTEX
  8
LAYER_4
 10
117.2759
 20
-10.3467
 42
0.1123086275
  0
VERTEX
  8
LAYER_4
 10
117.4547
 20
-10.3101
 42
0.1029122982
  0
VERTEX
  8
LAYER_4
 10
117.5894
 20
-10.2126
 42
0.09866207049
  0
VERTEX
  8
LAYER_4
 10
117.6741
 20
-10.0697
 42
0.08582506065
  0
SEQEND
  0
ENDBLK
  0
BLOCK
  8
LAYER_4
  2
AIGNBL04030018
 70
64
 10
0
 20
0
 30
0
  3
AIGNBL04030018
  0
POLYLINE
  8
LAYER_4
 40
0.05
 41
0.05
 66
1
 10
0
 20
0
 30
0
 70
1
  0
VERTEX
  8
LAYER_4
 10
119.2561
 20
-9.8971
 42
-0.1018011599
  0
VERTEX
  8
LAYER_4
 10
119.2151
 20
-10.1145
 42
-0.0994706196
  0
VERTEX
  8
LAYER_4
 10
119.1025
 20
-10.286
 42
-0.09710469009
  0
VERTEX
  8
LAYER_4
 10
118.9316
 20
-10.399
 42
-0.09758412454
  0
VERTEX
  8
LAYER_4
 10
118.7177
 20
-10.44
 42
-0.1006569764
  0
VERTEX
  8
LAYER_4
 10
118.5041
 20
-10.399
 42
-0.1011318925
  0
VERTEX
  8
LAYER_4
 10
118.3332
 20
-10.286
 42
-0.09719909622
  0
VERTEX
  8
LAYER_4
 10
118.2198
 20
-10.1145
 42
-0.09651190294
  0
VERTEX
  8
LAYER_4
 10
118.1792
 20
-9.8971
 42
-0.1004375928
  0
VERTEX
  8
LAYER_4
 10
118.2198
 20
-9.6797
 42
-0.09984043552
  0
VERTEX
  8
LAYER_4
 10
118.3332
 20
-9.5081
 42
-0.09867928162
  0
VERTEX
  8
LAYER_4
 10
118.5041
 20
-9.3951
 42
-0.09791748865
  0
VERTEX
  8
LAYER_4
 10
118.7177
 20
-9.3541
 42
-0.1000174927
  0
VERTEX
  8
LAYER_4
 10
118.9316
 20
-9.3951
 42
-0.098457988
  0
VERTEX
  8
LAYER_4
 10
119.1025
 20
-9.5081
 42
-0.09747441647
  0
VERTEX
  8
LAYER_4
 10
119.2151
 20
-9.6797
 42
-0.09782801819
  0
SEQEND
  0
POLYLINE
  8
LAYER_4
 40
0.05
 41
0.05
 66
1
 10
0
 20
0
 30
0
 70
1
  0
VERTEX
  8
LAYER_4
 10
119.1452
 20
-9.8977
 42
0.08634913196
  0
VERTEX
  8
LAYER_4
 10
119.1162
 20
-9.7258
 42
0.09676439749
  0
VERTEX
  8
LAYER_4
 10
119.0315
 20
-9.5825
 42
0.1031839698
  0
VERTEX
  8
LAYER_4
 10
118.8964
 20
-9.4844
 42
0.1064864949
  0
VERTEX
  8
LAYER_4
 10
118.7177
 20
-9.4475
 42
0.1118784973
  0
VERTEX
  8
LAYER_4
 10
118.5388
 20
-9.4844
 42
0.105831229
  0
VERTEX
  8
LAYER_4
 10
118.4041
 20
-9.5825
 42
0.09779852908
  0
VERTEX
  8
LAYER_4
 10
118.3194
 20
-9.7258
 42
0.08491464556
  0
VERTEX
  8
LAYER_4
 10
118.2901
 20
-9.8977
 42
0.08673600623
  0
VERTEX
  8
LAYER_4
 10
118.3194
 20
-10.0697
 42
0.1008106049
  0
VERTEX
  8
LAYER_4
 10
118.4041
 20
-10.2126
 42
0.09978391674
  0
VERTEX
  8
LAYER_4
 10
118.5388
 20
-10.3101
 42
0.106169601
  0
VERTEX
  8
LAYER_4
 10
118.7177
 20
-10.3467
 42
0.1125230351
  0
VERTEX
  8
LAYER_4
 10
118.8964
 20
-10.3101
 42
0.1036982708
  0
VERTEX
  8
LAYER_4
 10
119.0315
 20
-10.2126
 42
0.09433702824
  0
VERTEX
  8
LAYER_4
 10
119.1162
 20
-10.0697
 42
0.08455490286
  0
SEQEND
  0
ENDBLK
  0
BLOCK
  8
LAYER_4
  2
AIGNBL04030019
 70
64
 10
0
 20
0
 30
0
  3
AIGNBL04030019
  0
POLYLINE
  8
LAYER_4
 40
0.05
 41
0.05
 66
1
 10
0
 20
0
 30
0
 70
1
  0
VERTEX
  8
LAYER_4
 10
120.187
 20
-10.2357
  0
VERTEX
  8
LAYER_4
 10
120.1887
 20
-10.2357
  0
VERTEX
  8
LAYER_4
 10
120.5343
 20
-9.3806
  0
VERTEX
  8
LAYER_4
 10
120.6951
 20
-9.3806
  0
VERTEX
  8
LAYER_4
 10
120.6951
 20
-10.4138
  0
VERTEX
  8
LAYER_4
 10
120.5897
 20
-10.4138
  0
VERTEX
  8
LAYER_4
 10
120.5897
 20
-9.5164
  0
VERTEX
  8
LAYER_4
 10
120.587
 20
-9.5164
  0
VERTEX
  8
LAYER_4
 10
120.2135
 20
-10.4138
  0
VERTEX
  8
LAYER_4
 10
120.158
 20
-10.4138
  0
VERTEX
  8
LAYER_4
 10
119.7842
 20
-9.5164
  0
VERTEX
  8
LAYER_4
 10
119.7815
 20
-9.5164
  0
VERTEX
  8
LAYER_4
 10
119.7815
 20
-10.4138
  0
VERTEX
  8
LAYER_4
 10
119.6764
 20
-10.4138
  0
VERTEX
  8
LAYER_4
 10
119.6764
 20
-9.3806
  0
VERTEX
  8
LAYER_4
 10
119.837
 20
-9.3806
  0
SEQEND
  0
ENDBLK
  0
BLOCK
  8
LAYER_4
  2
AIGNBL0403001A
 70
64
 10
0
 20
0
 30
0
  3
AIGNBL0403001A
  0
POLYLINE
  8
LAYER_4
 40
0.05
 41
0.05
 66
1
 10
0
 20
0
 30
0
 70
1
  0
VERTEX
  8
LAYER_4
 10
121.8416
 20
-10.3201
  0
VERTEX
  8
LAYER_4
 10
122.3949
 20
-10.3201
  0
VERTEX
  8
LAYER_4
 10
122.3949
 20
-10.4138
  0
VERTEX
  8
LAYER_4
 10
121.7366
 20
-10.4138
  0
VERTEX
  8
LAYER_4
 10
121.7366
 20
-9.3806
  0
VERTEX
  8
LAYER_4
 10
122.3774
 20
-9.3806
  0
VERTEX
  8
LAYER_4
 10
122.3774
 20
-9.474
  0
VERTEX
  8
LAYER_4
 10
121.8416
 20
-9.474
  0
VERTEX
  8
LAYER_4
 10
121.8416
 20
-9.8285
  0
VERTEX
  8
LAYER_4
 10
122.3422
 20
-9.8285
  0
VERTEX
  8
LAYER_4
 10
122.3422
 20
-9.9219
  0
VERTEX
  8
LAYER_4
 10
121.8416
 20
-9.9219
  0
SEQEND
  0
ENDBLK
  0
BLOCK
  8
LAYER_4
  2
AIGNBL0403001B
 70
64
 10
0
 20
0
 30
0
  3
AIGNBL0403001B
  0
POLYLINE
  8
LAYER_4
 40
0.05
 41
0.05
 66
1
 10
0
 20
0
 30
0
 70
1
  0
VERTEX
  8
LAYER_4
 10
123.1401
 20
-9.7978
  0
VERTEX
  8
LAYER_4
 10
123.4223
 20
-9.3806
  0
VERTEX
  8
LAYER_4
 10
123.5473
 20
-9.3806
  0
VERTEX
  8
LAYER_4
 10
123.2049
 20
-9.8723
  0
VERTEX
  8
LAYER_4
 10
123.5842
 20
-10.4138
  0
VERTEX
  8
LAYER_4
 10
123.4529
 20
-10.4138
  0
VERTEX
  8
LAYER_4
 10
123.1374
 20
-9.9481
  0
VERTEX
  8
LAYER_4
 10
122.8238
 20
-10.4138
  0
VERTEX
  8
LAYER_4
 10
122.6923
 20
-10.4138
  0
VERTEX
  8
LAYER_4
 10
123.0719
 20
-9.8709
  0
VERTEX
  8
LAYER_4
 10
122.726
 20
-9.3806
  0
VERTEX
  8
LAYER_4
 10
122.8576
 20
-9.3806
  0
SEQEND
  0
ENDBLK
  0
BLOCK
  8
LAYER_4
  2
AIGNBL0403001C
 70
64
 10
0
 20
0
 30
0
  3
AIGNBL0403001C
  0
POLYLINE
  8
LAYER_4
 40
0.05
 41
0.05
 66
1
 10
0
 20
0
 30
0
 70
1
  0
VERTEX
  8
LAYER_4
 10
123.9504
 20
-9.3806
  0
VERTEX
  8
LAYER_4
 10
124.2425
 20
-9.3806
  0
VERTEX
  8
LAYER_4
 10
124.3855
 20
-9.3972
 42
-0.104442724
  0
VERTEX
  8
LAYER_4
 10
124.4954
 20
-9.4485
 42
-0.1208702399
  0
VERTEX
  8
LAYER_4
 10
124.5664
 20
-9.5346
 42
-0.103218507
  0
VERTEX
  8
LAYER_4
 10
124.5908
 20
-9.6563
 42
-0.1242963151
  0
VERTEX
  8
LAYER_4
 10
124.5657
 20
-9.7782
 42
-0.117370367
  0
VERTEX
  8
LAYER_4
 10
124.494
 20
-9.8643
 42
-0.08726249905
  0
VERTEX
  8
LAYER_4
 10
124.3831
 20
-9.916
 42
-0.06108713101
  0
VERTEX
  8
LAYER_4
 10
124.2394
 20
-9.9336
  0
VERTEX
  8
LAYER_4
 10
124.0555
 20
-9.9336
  0
VERTEX
  8
LAYER_4
 10
124.0555
 20
-10.4138
  0
VERTEX
  8
LAYER_4
 10
123.9504
 20
-10.4138
  0
SEQEND
  0
POLYLINE
  8
LAYER_4
 40
0.05
 41
0.05
 66
1
 10
0
 20
0
 30
0
 70
1
  0
VERTEX
  8
LAYER_4
 10
124.0555
 20
-9.8447
  0
VERTEX
  8
LAYER_4
 10
124.2332
 20
-9.8447
 42
0.1694225951
  0
VERTEX
  8
LAYER_4
 10
124.4217
 20
-9.7965
 42
0.2444096426
  0
VERTEX
  8
LAYER_4
 10
124.4861
 20
-9.6563
 42
0.2595461432
  0
VERTEX
  8
LAYER_4
 10
124.4196
 20
-9.5154
 42
0.1434667723
  0
VERTEX
  8
LAYER_4
 10
124.2332
 20
-9.4709
  0
VERTEX
  8
LAYER_4
 10
124.0555
 20
-9.4709
  0
SEQEND
  0
ENDBLK
  0
BLOCK
  8
LAYER_4
  2
AIGNBL0403001D
 70
64
 10
0
 20
0
 30
0
  3
AIGNBL0403001D
  0
POLYLINE
  8
LAYER_4
 40
0.05
 41
0.05
 66
1
 10
0
 20
0
 30
0
 70
1
  0
VERTEX
  8
LAYER_4
 10
125.1031
 20
-10.3201
  0
VERTEX
  8
LAYER_4
 10
125.6564
 20
-10.3201
  0
VERTEX
  8
LAYER_4
 10
125.6564
 20
-10.4138
  0
VERTEX
  8
LAYER_4
 10
124.9981
 20
-10.4138
  0
VERTEX
  8
LAYER_4
 10
124.9981
 20
-9.3806
  0
VERTEX
  8
LAYER_4
 10
125.6388
 20
-9.3806
  0
VERTEX
  8
LAYER_4
 10
125.6388
 20
-9.474
  0
VERTEX
  8
LAYER_4
 10
125.1031
 20
-9.474
  0
VERTEX
  8
LAYER_4
 10
125.1031
 20
-9.8285
  0
VERTEX
  8
LAYER_4
 10
125.6037
 20
-9.8285
  0
VERTEX
  8
LAYER_4
 10
125.6037
 20
-9.9219
  0
VERTEX
  8
LAYER_4
 10
125.1031
 20
-9.9219
  0
SEQEND
  0
ENDBLK
  0
BLOCK
  8
LAYER_4
  2
AIGNBL0403001E
 70
64
 10
0
 20
0
 30
0
  3
AIGNBL0403001E
  0
POLYLINE
  8
LAYER_4
 40
0.05
 41
0.05
 66
1
 10
0
 20
0
 30
0
 70
1
  0
VERTEX
  8
LAYER_4
 10
126.1684
 20
-10.4138
  0
VERTEX
  8
LAYER_4
 10
126.0633
 20
-10.4138
  0
VERTEX
  8
LAYER_4
 10
126.0633
 20
-9.3806
  0
VERTEX
  8
LAYER_4
 10
126.3671
 20
-9.3806
  0
VERTEX
  8
LAYER_4
 10
126.5077
 20
-9.3951
 42
-0.1045707195
  0
VERTEX
  8
LAYER_4
 10
126.6203
 20
-9.4427
 42
-0.1260638759
  0
VERTEX
  8
LAYER_4
 10
126.6941
 20
-9.5281
 42
-0.1064400284
  0
VERTEX
  8
LAYER_4
 10
126.7199
 20
-9.6563
  0
VERTEX
  8
LAYER_4
 10
126.6999
 20
-9.7599
  0
VERTEX
  8
LAYER_4
 10
126.6445
 20
-9.8409
  0
VERTEX
  8
LAYER_4
 10
126.5611
 20
-9.8957
  0
VERTEX
  8
LAYER_4
 10
126.456
 20
-9.9219
  0
VERTEX
  8
LAYER_4
 10
126.7582
 20
-10.4138
  0
VERTEX
  8
LAYER_4
 10
126.6297
 20
-10.4138
  0
VERTEX
  8
LAYER_4
 10
126.3437
 20
-9.9308
  0
VERTEX
  8
LAYER_4
 10
126.1684
 20
-9.9308
  0
SEQEND
  0
POLYLINE
  8
LAYER_4
 40
0.05
 41
0.05
 66
1
 10
0
 20
0
 30
0
 70
1
  0
VERTEX
  8
LAYER_4
 10
126.1684
 20
-9.8402
  0
VERTEX
  8
LAYER_4
 10
126.351
 20
-9.8402
 42
0.1542400453
  0
VERTEX
  8
LAYER_4
 10
126.5466
 20
-9.7944
 42
0.2587350068
  0
VERTEX
  8
LAYER_4
 10
126.6152
 20
-9.6563
  0
VERTEX
  8
LAYER_4
 10
126.5962
 20
-9.5705
  0
VERTEX
  8
LAYER_4
 10
126.5435
 20
-9.5133
  0
VERTEX
  8
LAYER_4
 10
126.4619
 20
-9.4813
  0
VERTEX
  8
LAYER_4
 10
126.3554
 20
-9.4709
  0
VERTEX
  8
LAYER_4
 10
126.1684
 20
-9.4709
  0
SEQEND
  0
ENDBLK
  0
BLOCK
  8
LAYER_4
  2
AIGNBL0403001F
 70
64
 10
0
 20
0
 30
0
  3
AIGNBL0403001F
  0
POLYLINE
  8
LAYER_4
 40
0.05
 41
0.05
 66
1
 10
0
 20
0
 30
0
 70
1
  0
VERTEX
  8
LAYER_4
 10
127.2439
 20
-10.4138
  0
VERTEX
  8
LAYER_4
 10
127.1392
 20
-10.4138
  0
VERTEX
  8
LAYER_4
 10
127.1392
 20
-9.3806
  0
VERTEX
  8
LAYER_4
 10
127.2439
 20
-9.3806
  0
SEQEND
  0
ENDBLK
  0
BLOCK
  8
LAYER_4
  2
AIGNBL04030020
 70
64
 10
0
 20
0
 30
0
  3
AIGNBL04030020
  0
POLYLINE
  8
LAYER_4
 40
0.05
 41
0.05
 66
1
 10
0
 20
0
 30
0
 70
1
  0
VERTEX
  8
LAYER_4
 10
127.8248
 20
-10.3201
  0
VERTEX
  8
LAYER_4
 10
128.3777
 20
-10.3201
  0
VERTEX
  8
LAYER_4
 10
128.3777
 20
-10.4138
  0
VERTEX
  8
LAYER_4
 10
127.7197
 20
-10.4138
  0
VERTEX
  8
LAYER_4
 10
127.7197
 20
-9.3806
  0
VERTEX
  8
LAYER_4
 10
128.3604
 20
-9.3806
  0
VERTEX
  8
LAYER_4
 10
128.3604
 20
-9.474
  0
VERTEX
  8
LAYER_4
 10
127.8248
 20
-9.474
  0
VERTEX
  8
LAYER_4
 10
127.8248
 20
-9.8285
  0
VERTEX
  8
LAYER_4
 10
128.3253
 20
-9.8285
  0
VERTEX
  8
LAYER_4
 10
128.3253
 20
-9.9219
  0
VERTEX
  8
LAYER_4
 10
127.8248
 20
-9.9219
  0
SEQEND
  0
ENDBLK
  0
BLOCK
  8
LAYER_4
  2
AIGNBL04030021
 70
64
 10
0
 20
0
 30
0
  3
AIGNBL04030021
  0
POLYLINE
  8
LAYER_4
 40
0.05
 41
0.05
 66
1
 10
0
 20
0
 30
0
 70
1
  0
VERTEX
  8
LAYER_4
 10
129.5177
 20
-10.2605
  0
VERTEX
  8
LAYER_4
 10
129.5204
 20
-10.2605
  0
VERTEX
  8
LAYER_4
 10
129.5204
 20
-9.3806
  0
VERTEX
  8
LAYER_4
 10
129.6255
 20
-9.3806
  0
VERTEX
  8
LAYER_4
 10
129.6255
 20
-10.4138
  0
VERTEX
  8
LAYER_4
 10
129.4942
 20
-10.4138
  0
VERTEX
  8
LAYER_4
 10
128.8931
 20
-9.525
  0
VERTEX
  8
LAYER_4
 10
128.89
 20
-9.525
  0
VERTEX
  8
LAYER_4
 10
128.89
 20
-10.4138
  0
VERTEX
  8
LAYER_4
 10
128.7849
 20
-10.4138
  0
VERTEX
  8
LAYER_4
 10
128.7849
 20
-9.3806
  0
VERTEX
  8
LAYER_4
 10
128.9165
 20
-9.3806
  0
SEQEND
  0
ENDBLK
  0
BLOCK
  8
LAYER_4
  2
AIGNBL04030022
 70
64
 10
0
 20
0
 30
0
  3
AIGNBL04030022
  0
POLYLINE
  8
LAYER_4
 40
0.05
 41
0.05
 66
1
 10
0
 20
0
 30
0
 70
1
  0
VERTEX
  8
LAYER_4
 10
130.9711
 20
-10.246
  0
VERTEX
  8
LAYER_4
 10
130.9074
 20
-10.3205
  0
VERTEX
  8
LAYER_4
 10
130.8213
 20
-10.3821
  0
VERTEX
  8
LAYER_4
 10
130.7131
 20
-10.4245
  0
VERTEX
  8
LAYER_4
 10
130.5843
 20
-10.44
 42
-0.0997799169
  0
VERTEX
  8
LAYER_4
 10
130.3683
 20
-10.399
 42
-0.1028344153
  0
VERTEX
  8
LAYER_4
 10
130.1978
 20
-10.286
 42
-0.1003879393
  0
VERTEX
  8
LAYER_4
 10
130.0861
 20
-10.1145
 42
-0.09627937635
  0
VERTEX
  8
LAYER_4
 10
130.0458
 20
-9.8971
 42
-0.101393204
  0
VERTEX
  8
LAYER_4
 10
130.0868
 20
-9.6797
 42
-0.09929652324
  0
VERTEX
  8
LAYER_4
 10
130.1994
 20
-9.5081
 42
-0.09685913213
  0
VERTEX
  8
LAYER_4
 10
130.3703
 20
-9.3951
 42
-0.09752919603
  0
VERTEX
  8
LAYER_4
 10
130.5843
 20
-9.3541
  0
VERTEX
  8
LAYER_4
 10
130.6959
 20
-9.3662
  0
VERTEX
  8
LAYER_4
 10
130.7989
 20
-9.3996
  0
VERTEX
  8
LAYER_4
 10
130.8864
 20
-9.4513
  0
VERTEX
  8
LAYER_4
 10
130.9522
 20
-9.5191
  0
VERTEX
  8
LAYER_4
 10
130.8647
 20
-9.5836
  0
VERTEX
  8
LAYER_4
 10
130.8213
 20
-9.5336
  0
VERTEX
  8
LAYER_4
 10
130.7579
 20
-9.4899
  0
VERTEX
  8
LAYER_4
 10
130.6783
 20
-9.4592
  0
VERTEX
  8
LAYER_4
 10
130.5857
 20
-9.4475
 42
0.1106055686
  0
VERTEX
  8
LAYER_4
 10
130.4055
 20
-9.484
 42
0.103951904
  0
VERTEX
  8
LAYER_4
 10
130.2704
 20
-9.5822
 42
0.09526104957
  0
VERTEX
  8
LAYER_4
 10
130.1857
 20
-9.7255
 42
0.08459006394
  0
VERTEX
  8
LAYER_4
 10
130.1567
 20
-9.8971
 42
0.09018477019
  0
VERTEX
  8
LAYER_4
 10
130.1867
 20
-10.0686
 42
0.09808427128
  0
VERTEX
  8
LAYER_4
 10
130.2722
 20
-10.212
 42
0.1034245941
  0
VERTEX
  8
LAYER_4
 10
130.4072
 20
-10.3101
 42
0.106586507
  0
VERTEX
  8
LAYER_4
 10
130.5857
 20
-10.3467
 42
0.1091697948
  0
VERTEX
  8
LAYER_4
 10
130.7548
 20
-10.3101
 42
0.1370031249
  0
VERTEX
  8
LAYER_4
 10
130.8892
 20
-10.1933
  0
SEQEND
  0
ENDBLK
  0
BLOCK
  8
LAYER_4
  2
AIGNBL04030023
 70
64
 10
0
 20
0
 30
0
  3
AIGNBL04030023
  0
POLYLINE
  8
LAYER_4
 40
0.05
 41
0.05
 66
1
 10
0
 20
0
 30
0
 70
1
  0
VERTEX
  8
LAYER_4
 10
131.4583
 20
-10.3201
  0
VERTEX
  8
LAYER_4
 10
132.0116
 20
-10.3201
  0
VERTEX
  8
LAYER_4
 10
132.0116
 20
-10.4138
  0
VERTEX
  8
LAYER_4
 10
131.3532
 20
-10.4138
  0
VERTEX
  8
LAYER_4
 10
131.3532
 20
-9.3806
  0
VERTEX
  8
LAYER_4
 10
131.994
 20
-9.3806
  0
VERTEX
  8
LAYER_4
 10
131.994
 20
-9.474
  0
VERTEX
  8
LAYER_4
 10
131.4583
 20
-9.474
  0
VERTEX
  8
LAYER_4
 10
131.4583
 20
-9.8285
  0
VERTEX
  8
LAYER_4
 10
131.9589
 20
-9.8285
  0
VERTEX
  8
LAYER_4
 10
131.9589
 20
-9.9219
  0
VERTEX
  8
LAYER_4
 10
131.4583
 20
-9.9219
  0
SEQEND
  0
ENDBLK
  0
BLOCK
  8
LAYER_4
  2
AIGNBL04030026
 70
64
 10
0
 20
0
 30
0
  3
AIGNBL04030026
  0
CIRCLE
  8
LAYER_4
 10
104.0384
 20
231.7853
 40
1.5551
  0
CIRCLE
  8
LAYER_4
 10
104.0384
 20
231.7853
 40
1.4614
  0
ENDBLK
  0
BLOCK
  8
LAYER_4
  2
AIGNBL04030029
 70
64
 10
0
 20
0
 30
0
  3
AIGNBL04030029
  0
CIRCLE
  8
LAYER_4
 10
141.2034
 20
142.1638
 40
1.5551
  0
CIRCLE
  8
LAYER_4
 10
141.2034
 20
142.1638
 40
1.4614
  0
ENDBLK
  0
BLOCK
  8
LAYER_3
  2
AIGNBL0302002D
 70
64
 10
0
 20
0
 30
0
  3
AIGNBL0302002D
  0
POLYLINE
  8
LAYER_3
 40
0.2469
 41
0.2469
 66
1
 10
0
 20
0
 30
0
  0
VERTEX
  8
LAYER_3
 10
53.8499
 20
145.2611
  0
VERTEX
  8
LAYER_3
 10
53.8499
 20
67.8629
  0
SEQEND
  0
ENDBLK
  0
BLOCK
  8
LAYER_3
  2
AIGNBL0302002E
 70
64
 10
0
 20
0
 30
0
  3
AIGNBL0302002E
  0
POLYLINE
  8
LAYER_3
 40
0.2469
 41
0.2469
 66
1
 10
0
 20
0
 30
0
  0
VERTEX
  8
LAYER_3
 10
75.3499
 20
145.2611
  0
VERTEX
  8
LAYER_3
 10
52.85
 20
145.2611
  0
SEQEND
  0
ENDBLK
  0
BLOCK
  8
LAYER_3
  2
AIGNBL0302002F
 70
64
 10
0
 20
0
 30
0
  3
AIGNBL0302002F
  0
POLYLINE
  8
LAYER_3
 40
0.2469
 41
0.2469
 66
1
 10
0
 20
0
 30
0
  0
VERTEX
  8
LAYER_3
 10
85.7
 20
67.8629
  0
VERTEX
  8
LAYER_3
 10
52.85
 20
67.8629
  0
SEQEND
  0
ENDBLK
  0
BLOCK
  8
LAYER_3
  2
AIGNBL03020030
 70
64
 10
0
 20
0
 30
0
  3
AIGNBL03020030
  0
POLYLINE
  8
LAYER_3
 40
0.05
 41
0.05
 66
1
 10
0
 20
0
 30
0
 70
1
  0
VERTEX
  8
LAYER_3
 10
54.3107
 20
141.761
  0
VERTEX
  8
LAYER_3
 10
53.3892
 20
141.761
  0
VERTEX
  8
LAYER_3
 10
53.8499
 20
145.2611
  0
SEQEND
  0
ENDBLK
  0
BLOCK
  8
LAYER_3
  2
AIGNBL03020031
 70
64
 10
0
 20
0
 30
0
  3
AIGNBL03020031
  0
POLYLINE
  8
LAYER_3
 40
0.05
 41
0.05
 66
1
 10
0
 20
0
 30
0
 70
1
  0
VERTEX
  8
LAYER_3
 10
53.3892
 20
71.3631
  0
VERTEX
  8
LAYER_3
 10
54.3107
 20
71.3631
  0
VERTEX
  8
LAYER_3
 10
53.8499
 20
67.8629
  0
SEQEND
  0
ENDBLK
  0
BLOCK
  8
LAYER_3
  2
AIGNBL03020032
 70
64
 10
0
 20
0
 30
0
  3
AIGNBL03020032
  0
TEXT
  8
LAYER_3
 10
53.0042
 20
103.4872
 11
53.0042
 21
103.4872
 40
6.0978
 41
0.5
 50
89.99999999
  1
78
  0
ENDBLK
  0
BLOCK
  8
LAYER_3
  2
AIGNBL03020034
 70
64
 10
0
 20
0
 30
0
  3
AIGNBL03020034
  0
POLYLINE
  8
LAYER_3
 40
0.2469
 41
0.2469
 66
1
 10
0
 20
0
 30
0
  0
VERTEX
  8
LAYER_3
 10
61.85
 20
115.8606
  0
VERTEX
  8
LAYER_3
 10
61.85
 20
67.8629
  0
SEQEND
  0
ENDBLK
  0
BLOCK
  8
LAYER_3
  2
AIGNBL03020035
 70
64
 10
0
 20
0
 30
0
  3
AIGNBL03020035
  0
POLYLINE
  8
LAYER_3
 40
0.2469
 41
0.2469
 66
1
 10
0
 20
0
 30
0
  0
VERTEX
  8
LAYER_3
 10
85.7999
 20
115.8606
  0
VERTEX
  8
LAYER_3
 10
60.85
 20
115.8606
  0
SEQEND
  0
ENDBLK
  0
BLOCK
  8
LAYER_3
  2
AIGNBL03020036
 70
64
 10
0
 20
0
 30
0
  3
AIGNBL03020036
  0
POLYLINE
  8
LAYER_3
 40
0.2469
 41
0.2469
 66
1
 10
0
 20
0
 30
0
  0
VERTEX
  8
LAYER_3
 10
85.7
 20
67.8629
  0
VERTEX
  8
LAYER_3
 10
60.85
 20
67.8629
  0
SEQEND
  0
ENDBLK
  0
BLOCK
  8
LAYER_3
  2
AIGNBL03020037
 70
64
 10
0
 20
0
 30
0
  3
AIGNBL03020037
  0
POLYLINE
  8
LAYER_3
 40
0.05
 41
0.05
 66
1
 10
0
 20
0
 30
0
 70
1
  0
VERTEX
  8
LAYER_3
 10
62.3107
 20
112.3611
  0
VERTEX
  8
LAYER_3
 10
61.3892
 20
112.3611
  0
VERTEX
  8
LAYER_3
 10
61.85
 20
115.8606
  0
SEQEND
  0
ENDBLK
  0
BLOCK
  8
LAYER_3
  2
AIGNBL03020038
 70
64
 10
0
 20
0
 30
0
  3
AIGNBL03020038
  0
POLYLINE
  8
LAYER_3
 40
0.05
 41
0.05
 66
1
 10
0
 20
0
 30
0
 70
1
  0
VERTEX
  8
LAYER_3
 10
61.3892
 20
71.3631
  0
VERTEX
  8
LAYER_3
 10
62.3107
 20
71.3631
  0
VERTEX
  8
LAYER_3
 10
61.85
 20
67.8629
  0
SEQEND
  0
ENDBLK
  0
BLOCK
  8
LAYER_3
  2
AIGNBL03020039
 70
64
 10
0
 20
0
 30
0
  3
AIGNBL03020039
  0
TEXT
  8
LAYER_3
 10
61.0044
 20
88.787
 11
61.0044
 21
88.787
 40
6.0978
 41
0.5
 50
89.99999999
  1
47
  0
ENDBLK
  0
BLOCK
  8
LAYER_3
  2
AIGNBL0302003B
 70
64
 10
0
 20
0
 30
0
  3
AIGNBL0302003B
  0
POLYLINE
  8
LAYER_3
 40
0.2469
 41
0.2469
 66
1
 10
0
 20
0
 30
0
  0
VERTEX
  8
LAYER_3
 10
85.7
 20
57.8631
  0
VERTEX
  8
LAYER_3
 10
127
 20
57.8631
  0
SEQEND
  0
ENDBLK
  0
BLOCK
  8
LAYER_3
  2
AIGNBL0302003C
 70
64
 10
0
 20
0
 30
0
  3
AIGNBL0302003C
  0
POLYLINE
  8
LAYER_3
 40
0.2469
 41
0.2469
 66
1
 10
0
 20
0
 30
0
  0
VERTEX
  8
LAYER_3
 10
85.7
 20
67.8629
  0
VERTEX
  8
LAYER_3
 10
85.7
 20
56.8634
  0
SEQEND
  0
ENDBLK
  0
BLOCK
  8
LAYER_3
  2
AIGNBL0302003D
 70
64
 10
0
 20
0
 30
0
  3
AIGNBL0302003D
  0
POLYLINE
  8
LAYER_3
 40
0.2469
 41
0.2469
 66
1
 10
0
 20
0
 30
0
  0
VERTEX
  8
LAYER_3
 10
127
 20
68.4389
  0
VERTEX
  8
LAYER_3
 10
127
 20
56.8634
  0
SEQEND
  0
ENDBLK
  0
BLOCK
  8
LAYER_3
  2
AIGNBL0302003E
 70
64
 10
0
 20
0
 30
0
  3
AIGNBL0302003E
  0
POLYLINE
  8
LAYER_3
 40
0.05
 41
0.05
 66
1
 10
0
 20
0
 30
0
 70
1
  0
VERTEX
  8
LAYER_3
 10
89.2001
 20
58.3241
  0
VERTEX
  8
LAYER_3
 10
89.2001
 20
57.4022
  0
VERTEX
  8
LAYER_3
 10
85.7
 20
57.8631
  0
SEQEND
  0
ENDBLK
  0
BLOCK
  8
LAYER_3
  2
AIGNBL0302003F
 70
64
 10
0
 20
0
 30
0
  3
AIGNBL0302003F
  0
POLYLINE
  8
LAYER_3
 40
0.05
 41
0.05
 66
1
 10
0
 20
0
 30
0
 70
1
  0
VERTEX
  8
LAYER_3
 10
123.5001
 20
57.4022
  0
VERTEX
  8
LAYER_3
 10
123.5001
 20
58.3241
  0
VERTEX
  8
LAYER_3
 10
127
 20
57.8631
  0
SEQEND
  0
ENDBLK
  0
BLOCK
  8
LAYER_3
  2
AIGNBL03020040
 70
64
 10
0
 20
0
 30
0
  3
AIGNBL03020040
  0
TEXT
  8
LAYER_3
 10
98.8338
 20
59.8685
 11
98.8338
 21
59.8685
 40
6.0978
 41
0.5
  1
G1 1/4
  0
ENDBLK
  0
BLOCK
  8
LAYER_3
  2
AIGNBL03020042
 70
64
 10
0
 20
0
 30
0
  3
AIGNBL03020042
  0
POLYLINE
  8
LAYER_3
 40
0.2469
 41
0.2469
 66
1
 10
0
 20
0
 30
0
  0
VERTEX
  8
LAYER_3
 10
75.3499
 20
138.6114
  0
VERTEX
  8
LAYER_3
 10
137.3501
 20
138.6114
  0
SEQEND
  0
ENDBLK
  0
BLOCK
  8
LAYER_3
  2
AIGNBL03020043
 70
64
 10
0
 20
0
 30
0
  3
AIGNBL03020043
  0
POLYLINE
  8
LAYER_3
 40
0.2469
 41
0.2469
 66
1
 10
0
 20
0
 30
0
  0
VERTEX
  8
LAYER_3
 10
137.3501
 20
138.6114
  0
VERTEX
  8
LAYER_3
 10
147.7088
 20
138.6114
  0
SEQEND
  0
ENDBLK
  0
BLOCK
  8
LAYER_3
  2
AIGNBL03020044
 70
64
 10
0
 20
0
 30
0
  3
AIGNBL03020044
  0
POLYLINE
  8
LAYER_3
 40
0.2469
 41
0.2469
 66
1
 10
0
 20
0
 30
0
  0
VERTEX
  8
LAYER_3
 10
75.3499
 20
143.6612
  0
VERTEX
  8
LAYER_3
 10
75.3499
 20
137.6112
  0
SEQEND
  0
ENDBLK
  0
BLOCK
  8
LAYER_3
  2
AIGNBL03020045
 70
64
 10
0
 20
0
 30
0
  3
AIGNBL03020045
  0
POLYLINE
  8
LAYER_3
 40
0.2469
 41
0.2469
 66
1
 10
0
 20
0
 30
0
  0
VERTEX
  8
LAYER_3
 10
137.3501
 20
143.6612
  0
VERTEX
  8
LAYER_3
 10
137.3501
 20
137.6112
  0
SEQEND
  0
ENDBLK
  0
BLOCK
  8
LAYER_3
  2
AIGNBL03020046
 70
64
 10
0
 20
0
 30
0
  3
AIGNBL03020046
  0
POLYLINE
  8
LAYER_3
 40
0.05
 41
0.05
 66
1
 10
0
 20
0
 30
0
 70
1
  0
VERTEX
  8
LAYER_3
 10
78.85
 20
139.0719
  0
VERTEX
  8
LAYER_3
 10
78.85
 20
138.1504
  0
VERTEX
  8
LAYER_3
 10
75.3499
 20
138.6114
  0
SEQEND
  0
ENDBLK
  0
BLOCK
  8
LAYER_3
  2
AIGNBL03020047
 70
64
 10
0
 20
0
 30
0
  3
AIGNBL03020047
  0
POLYLINE
  8
LAYER_3
 40
0.05
 41
0.05
 66
1
 10
0
 20
0
 30
0
 70
1
  0
VERTEX
  8
LAYER_3
 10
133.8499
 20
138.1504
  0
VERTEX
  8
LAYER_3
 10
133.8499
 20
139.0719
  0
VERTEX
  8
LAYER_3
 10
137.3501
 20
138.6114
  0
SEQEND
  0
ENDBLK
  0
BLOCK
  8
LAYER_3
  2
AIGNBL03020048
 70
64
 10
0
 20
0
 30
0
  3
AIGNBL03020048
  0
TEXT
  8
LAYER_3
 10
144.0813
 20
139.9501
 11
144.0813
 21
139.9501
 40
6.0978
 41
0.5
  1
61
  0
ENDBLK
  0
BLOCK
  8
LAYER_3
  2
AIGNBL0302004A
 70
64
 10
0
 20
0
 30
0
  3
AIGNBL0302004A
  0
POLYLINE
  8
LAYER_3
 40
0.2469
 41
0.2469
 66
1
 10
0
 20
0
 30
0
  0
VERTEX
  8
LAYER_3
 10
73.2147
 20
228.4775
  0
VERTEX
  8
LAYER_3
 10
139.4147
 20
228.4775
  0
SEQEND
  0
ENDBLK
  0
BLOCK
  8
LAYER_3
  2
AIGNBL0302004B
 70
64
 10
0
 20
0
 30
0
  3
AIGNBL0302004B
  0
POLYLINE
  8
LAYER_3
 40
0.2469
 41
0.2469
 66
1
 10
0
 20
0
 30
0
  0
VERTEX
  8
LAYER_3
 10
73.2147
 20
210.5801
  0
VERTEX
  8
LAYER_3
 10
73.2147
 20
229.4775
  0
SEQEND
  0
ENDBLK
  0
BLOCK
  8
LAYER_3
  2
AIGNBL0302004C
 70
64
 10
0
 20
0
 30
0
  3
AIGNBL0302004C
  0
POLYLINE
  8
LAYER_3
 40
0.2469
 41
0.2469
 66
1
 10
0
 20
0
 30
0
  0
VERTEX
  8
LAYER_3
 10
139.4147
 20
210.5801
  0
VERTEX
  8
LAYER_3
 10
139.4147
 20
229.4775
  0
SEQEND
  0
ENDBLK
  0
BLOCK
  8
LAYER_3
  2
AIGNBL0302004D
 70
64
 10
0
 20
0
 30
0
  3
AIGNBL0302004D
  0
POLYLINE
  8
LAYER_3
 40
0.05
 41
0.05
 66
1
 10
0
 20
0
 30
0
 70
1
  0
VERTEX
  8
LAYER_3
 10
76.7145
 20
228.9383
  0
VERTEX
  8
LAYER_3
 10
76.7145
 20
228.0167
  0
VERTEX
  8
LAYER_3
 10
73.2147
 20
228.4775
  0
SEQEND
  0
ENDBLK
  0
BLOCK
  8
LAYER_3
  2
AIGNBL0302004E
 70
64
 10
0
 20
0
 30
0
  3
AIGNBL0302004E
  0
POLYLINE
  8
LAYER_3
 40
0.05
 41
0.05
 66
1
 10
0
 20
0
 30
0
 70
1
  0
VERTEX
  8
LAYER_3
 10
135.9145
 20
228.0167
  0
VERTEX
  8
LAYER_3
 10
135.9145
 20
228.9383
  0
VERTEX
  8
LAYER_3
 10
139.4147
 20
228.4775
  0
SEQEND
  0
ENDBLK
  0
BLOCK
  8
LAYER_3
  2
AIGNBL0302004F
 70
64
 10
0
 20
0
 30
0
  3
AIGNBL0302004F
  0
TEXT
  8
LAYER_3
 10
106.8638
 20
229.8161
 11
106.8638
 21
229.8161
 40
6.0978
 41
0.5
  1
66
  0
ENDBLK
  0
BLOCK
  8
LAYER_4
  2
AIGNBL04020003
 70
64
 10
0
 20
0
 30
0
  3
AIGNBL04020003
  0
INSERT
  8
LAYER_4
  2
AIGNBL04030004
 10
0
 20
0
 30
0
  0
ENDBLK
  0
BLOCK
  8
LAYER_4
  2
AIGNBL0402000C
 70
64
 10
0
 20
0
 30
0
  3
AIGNBL0402000C
  0
INSERT
  8
LAYER_4
  2
AIGNBL0403000D
 10
0
 20
0
 30
0
  0
INSERT
  8
LAYER_4
  2
AIGNBL0403000E
 10
0
 20
0
 30
0
  0
INSERT
  8
LAYER_4
  2
AIGNBL0403000F
 10
0
 20
0
 30
0
  0
INSERT
  8
LAYER_4
  2
AIGNBL04030010
 10
0
 20
0
 30
0
  0
INSERT
  8
LAYER_4
  2
AIGNBL04030011
 10
0
 20
0
 30
0
  0
INSERT
  8
LAYER_4
  2
AIGNBL04030012
 10
0
 20
0
 30
0
  0
INSERT
  8
LAYER_4
  2
AIGNBL04030013
 10
0
 20
0
 30
0
  0
INSERT
  8
LAYER_4
  2
AIGNBL04030014
 10
0
 20
0
 30
0
  0
INSERT
  8
LAYER_4
  2
AIGNBL04030015
 10
0
 20
0
 30
0
  0
INSERT
  8
LAYER_4
  2
AIGNBL04030016
 10
0
 20
0
 30
0
  0
INSERT
  8
LAYER_4
  2
AIGNBL04030017
 10
0
 20
0
 30
0
  0
INSERT
  8
LAYER_4
  2
AIGNBL04030018
 10
0
 20
0
 30
0
  0
INSERT
  8
LAYER_4
  2
AIGNBL04030019
 10
0
 20
0
 30
0
  0
INSERT
  8
LAYER_4
  2
AIGNBL0403001A
 10
0
 20
0
 30
0
  0
INSERT
  8
LAYER_4
  2
AIGNBL0403001B
 10
0
 20
0
 30
0
  0
INSERT
  8
LAYER_4
  2
AIGNBL0403001C
 10
0
 20
0
 30
0
  0
INSERT
  8
LAYER_4
  2
AIGNBL0403001D
 10
0
 20
0
 30
0
  0
INSERT
  8
LAYER_4
  2
AIGNBL0403001E
 10
0
 20
0
 30
0
  0
INSERT
  8
LAYER_4
  2
AIGNBL0403001F
 10
0
 20
0
 30
0
  0
INSERT
  8
LAYER_4
  2
AIGNBL04030020
 10
0
 20
0
 30
0
  0
INSERT
  8
LAYER_4
  2
AIGNBL04030021
 10
0
 20
0
 30
0
  0
INSERT
  8
LAYER_4
  2
AIGNBL04030022
 10
0
 20
0
 30
0
  0
INSERT
  8
LAYER_4
  2
AIGNBL04030023
 10
0
 20
0
 30
0
  0
ENDBLK
  0
BLOCK
  8
LAYER_4
  2
AIGNBL04020025
 70
64
 10
0
 20
0
 30
0
  3
AIGNBL04020025
  0
INSERT
  8
LAYER_4
  2
AIGNBL04030026
 10
0
 20
0
 30
0
  0
POLYLINE
  8
LAYER_4
 40
0.05
 41
0.05
 66
1
 10
0
 20
0
 30
0
 70
1
  0
VERTEX
  8
LAYER_4
 10
101.9903
 20
229.6718
  0
VERTEX
  8
LAYER_4
 10
101.9249
 20
229.7376
  0
VERTEX
  8
LAYER_4
 10
106.1379
 20
233.9516
  0
VERTEX
  8
LAYER_4
 10
106.2051
 20
233.8858
  0
SEQEND
  0
ENDBLK
  0
BLOCK
  8
LAYER_4
  2
AIGNBL04020028
 70
64
 10
0
 20
0
 30
0
  3
AIGNBL04020028
  0
INSERT
  8
LAYER_4
  2
AIGNBL04030029
 10
0
 20
0
 30
0
  0
POLYLINE
  8
LAYER_4
 40
0.05
 41
0.05
 66
1
 10
0
 20
0
 30
0
 70
1
  0
VERTEX
  8
LAYER_4
 10
139.1553
 20
140.0502
  0
VERTEX
  8
LAYER_4
 10
139.0899
 20
140.116
  0
VERTEX
  8
LAYER_4
 10
143.3029
 20
144.33
  0
VERTEX
  8
LAYER_4
 10
143.37
 20
144.2642
  0
SEQEND
  0
ENDBLK
  0
BLOCK
  8
LAYER_1
  2
AIGNBL01010002
 70
64
 10
0
 20
0
 30
0
  3
AIGNBL01010002
  0
POLYLINE
  8
LAYER_1
 40
0.2469
 41
0.2469
 66
1
 10
0
 20
0
 30
0
  0
VERTEX
  8
LAYER_1
 10
108.0613
 20
168.7287
  0
VERTEX
  8
LAYER_1
 10
108.0613
 20
173.2311
  0
SEQEND
  0
ENDBLK
  0
BLOCK
  8
LAYER_1
  2
AIGNBL01010003
 70
64
 10
0
 20
0
 30
0
  3
AIGNBL01010003
  0
POLYLINE
  8
LAYER_1
 40
0.2469
 41
0.2469
 66
1
 10
0
 20
0
 30
0
  0
VERTEX
  8
LAYER_1
 10
110.9634
 20
168.7287
  0
VERTEX
  8
LAYER_1
 10
110.9634
 20
173.2311
  0
SEQEND
  0
ENDBLK
  0
BLOCK
  8
LAYER_1
  2
AIGNBL01010004
 70
64
 10
0
 20
0
 30
0
  3
AIGNBL01010004
  0
POLYLINE
  8
LAYER_1
 40
0.2469
 41
0.2469
 66
1
 10
0
 20
0
 30
0
  0
VERTEX
  8
LAYER_1
 10
110.9634
 20
168.7287
  0
VERTEX
  8
LAYER_1
 10
110.9634
 20
173.2311
  0
SEQEND
  0
ENDBLK
  0
BLOCK
  8
LAYER_1
  2
AIGNBL01010005
 70
64
 10
0
 20
0
 30
0
  3
AIGNBL01010005
  0
POLYLINE
  8
LAYER_1
 40
0.2469
 41
0.2469
 66
1
 10
0
 20
0
 30
0
  0
VERTEX
  8
LAYER_1
 10
100.746
 20
197.4801
  0
VERTEX
  8
LAYER_1
 10
111.8833
 20
197.4801
  0
SEQEND
  0
ENDBLK
  0
BLOCK
  8
LAYER_1
  2
AIGNBL01010006
 70
64
 10
0
 20
0
 30
0
  3
AIGNBL01010006
  0
POLYLINE
  8
LAYER_1
 40
0.2469
 41
0.2469
 66
1
 10
0
 20
0
 30
0
  0
VERTEX
  8
LAYER_1
 10
101.1163
 20
197.4801
  0
VERTEX
  8
LAYER_1
 10
101.1163
 20
198.4802
  0
SEQEND
  0
ENDBLK
  0
BLOCK
  8
LAYER_1
  2
AIGNBL01010007
 70
64
 10
0
 20
0
 30
0
  3
AIGNBL01010007
  0
POLYLINE
  8
LAYER_1
 40
0.2469
 41
0.2469
 66
1
 10
0
 20
0
 30
0
  0
VERTEX
  8
LAYER_1
 10
111.5129
 20
197.4801
  0
VERTEX
  8
LAYER_1
 10
111.5129
 20
198.4802
  0
SEQEND
  0
ENDBLK
  0
BLOCK
  8
LAYER_1
  2
AIGNBL01010008
 70
64
 10
0
 20
0
 30
0
  3
AIGNBL01010008
  0
POLYLINE
  8
LAYER_1
 40
0.2469
 41
0.2469
 66
1
 10
0
 20
0
 30
0
  0
VERTEX
  8
LAYER_1
 10
106.3146
 20
177.2242
  0
VERTEX
  8
LAYER_1
 10
127.0427
 20
177.2242
  0
SEQEND
  0
ENDBLK
  0
BLOCK
  8
LAYER_1
  2
AIGNBL01010009
 70
64
 10
0
 20
0
 30
0
  3
AIGNBL01010009
  0
POLYLINE
  8
LAYER_1
 40
0.2469
 41
0.2469
 66
1
 10
0
 20
0
 30
0
  0
VERTEX
  8
LAYER_1
 10
106.3146
 20
160.2241
  0
VERTEX
  8
LAYER_1
 10
124.0427
 20
160.2241
  0
SEQEND
  0
ENDBLK
  0
BLOCK
  8
LAYER_1
  2
AIGNBL0101000A
 70
64
 10
0
 20
0
 30
0
  3
AIGNBL0101000A
  0
POLYLINE
  8
LAYER_1
 40
0.2469
 41
0.2469
 66
1
 10
0
 20
0
 30
0
  0
VERTEX
  8
LAYER_1
 10
127.0427
 20
177.2242
  0
VERTEX
  8
LAYER_1
 10
127.0427
 20
163.2241
  0
SEQEND
  0
ENDBLK
  0
BLOCK
  8
LAYER_1
  2
AIGNBL0101000B
 70
64
 10
0
 20
0
 30
0
  3
AIGNBL0101000B
  0
POLYLINE
  8
LAYER_1
 40
0.2469
 41
0.2469
 66
1
 10
0
 20
0
 30
0
  0
VERTEX
  8
LAYER_1
 10
114.4147
 20
158.3841
  0
VERTEX
  8
LAYER_1
 10
98.0581
 20
158.3841
  0
SEQEND
  0
ENDBLK
  0
BLOCK
  8
LAYER_1
  2
AIGNBL0101000C
 70
64
 10
0
 20
0
 30
0
  3
AIGNBL0101000C
  0
POLYLINE
  8
LAYER_1
 40
0.2469
 41
0.2469
 66
1
 10
0
 20
0
 30
0
  0
VERTEX
  8
LAYER_1
 10
98.0581
 20
160.2241
  0
VERTEX
  8
LAYER_1
 10
98.0581
 20
158.3841
  0
SEQEND
  0
ENDBLK
  0
BLOCK
  8
LAYER_1
  2
AIGNBL0101000D
 70
64
 10
0
 20
0
 30
0
  3
AIGNBL0101000D
  0
POLYLINE
  8
LAYER_1
 40
0.2469
 41
0.2469
 66
1
 10
0
 20
0
 30
0
  0
VERTEX
  8
LAYER_1
 10
114.4147
 20
158.3841
  0
VERTEX
  8
LAYER_1
 10
114.5711
 20
158.3841
  0
SEQEND
  0
ENDBLK
  0
BLOCK
  8
LAYER_1
  2
AIGNBL0101000E
 70
64
 10
0
 20
0
 30
0
  3
AIGNBL0101000E
  0
POLYLINE
  8
LAYER_1
 40
0.2469
 41
0.2469
 66
1
 10
0
 20
0
 30
0
  0
VERTEX
  8
LAYER_1
 10
114.5711
 20
160.2241
  0
VERTEX
  8
LAYER_1
 10
114.5711
 20
158.3841
  0
SEQEND
  0
ENDBLK
  0
BLOCK
  8
LAYER_1
  2
AIGNBL0101000F
 70
64
 10
0
 20
0
 30
0
  3
AIGNBL0101000F
  0
POLYLINE
  8
LAYER_1
 40
0.2469
 41
0.2469
 66
1
 10
0
 20
0
 30
0
  0
VERTEX
  8
LAYER_1
 10
108.0613
 20
168.7287
  0
VERTEX
  8
LAYER_1
 10
108.0613
 20
164.2263
  0
SEQEND
  0
ENDBLK
  0
BLOCK
  8
LAYER_1
  2
AIGNBL01010010
 70
64
 10
0
 20
0
 30
0
  3
AIGNBL01010010
  0
POLYLINE
  8
LAYER_1
 40
0.2469
 41
0.2469
 66
1
 10
0
 20
0
 30
0
  0
VERTEX
  8
LAYER_1
 10
104.568
 20
168.7287
  0
VERTEX
  8
LAYER_1
 10
104.568
 20
173.2311
  0
SEQEND
  0
ENDBLK
  0
BLOCK
  8
LAYER_1
  2
AIGNBL01010011
 70
64
 10
0
 20
0
 30
0
  3
AIGNBL01010011
  0
POLYLINE
  8
LAYER_1
 40
0.2469
 41
0.2469
 66
1
 10
0
 20
0
 30
0
  0
VERTEX
  8
LAYER_1
 10
104.568
 20
168.7287
  0
VERTEX
  8
LAYER_1
 10
104.568
 20
164.2263
  0
SEQEND
  0
ENDBLK
  0
BLOCK
  8
LAYER_1
  2
AIGNBL01010012
 70
64
 10
0
 20
0
 30
0
  3
AIGNBL01010012
  0
POLYLINE
  8
LAYER_1
 40
0.2469
 41
0.2469
 66
1
 10
0
 20
0
 30
0
  0
VERTEX
  8
LAYER_1
 10
114.4567
 20
168.7287
  0
VERTEX
  8
LAYER_1
 10
114.4567
 20
164.2263
  0
SEQEND
  0
ENDBLK
  0
BLOCK
  8
LAYER_1
  2
AIGNBL01010013
 70
64
 10
0
 20
0
 30
0
  3
AIGNBL01010013
  0
POLYLINE
  8
LAYER_1
 40
0.2469
 41
0.2469
 66
1
 10
0
 20
0
 30
0
  0
VERTEX
  8
LAYER_1
 10
110.9634
 20
168.7287
  0
VERTEX
  8
LAYER_1
 10
110.9634
 20
164.2263
  0
SEQEND
  0
ENDBLK
  0
BLOCK
  8
LAYER_1
  2
AIGNBL01010014
 70
64
 10
0
 20
0
 30
0
  3
AIGNBL01010014
  0
POLYLINE
  8
LAYER_1
 40
0.2469
 41
0.2469
 66
1
 10
0
 20
0
 30
0
  0
VERTEX
  8
LAYER_1
 10
114.4633
 20
168.7287
  0
VERTEX
  8
LAYER_1
 10
114.4633
 20
173.2311
  0
SEQEND
  0
ENDBLK
  0
BLOCK
  8
LAYER_1
  2
AIGNBL01010015
 70
64
 10
0
 20
0
 30
0
  3
AIGNBL01010015
  0
POLYLINE
  8
LAYER_1
 40
0.2469
 41
0.2469
 66
1
 10
0
 20
0
 30
0
  0
VERTEX
  8
LAYER_1
 10
116.9507
 20
168.7287
  0
VERTEX
  8
LAYER_1
 10
116.9507
 20
173.2311
  0
SEQEND
  0
ENDBLK
  0
BLOCK
  8
LAYER_1
  2
AIGNBL01010016
 70
64
 10
0
 20
0
 30
0
  3
AIGNBL01010016
  0
POLYLINE
  8
LAYER_1
 40
0.2469
 41
0.2469
 66
1
 10
0
 20
0
 30
0
  0
VERTEX
  8
LAYER_1
 10
120.444
 20
168.7287
  0
VERTEX
  8
LAYER_1
 10
120.444
 20
173.2311
  0
SEQEND
  0
ENDBLK
  0
BLOCK
  8
LAYER_1
  2
AIGNBL01010017
 70
64
 10
0
 20
0
 30
0
  3
AIGNBL01010017
  0
POLYLINE
  8
LAYER_1
 40
0.2469
 41
0.2469
 66
1
 10
0
 20
0
 30
0
  0
VERTEX
  8
LAYER_1
 10
120.444
 20
168.7287
  0
VERTEX
  8
LAYER_1
 10
120.444
 20
164.2263
  0
SEQEND
  0
ENDBLK
  0
BLOCK
  8
LAYER_1
  2
AIGNBL01010018
 70
64
 10
0
 20
0
 30
0
  3
AIGNBL01010018
  0
POLYLINE
  8
LAYER_1
 40
0.2469
 41
0.2469
 66
1
 10
0
 20
0
 30
0
  0
VERTEX
  8
LAYER_1
 10
116.9507
 20
168.7287
  0
VERTEX
  8
LAYER_1
 10
116.9507
 20
164.2263
  0
SEQEND
  0
ENDBLK
  0
BLOCK
  8
LAYER_1
  2
AIGNBL01010019
 70
64
 10
0
 20
0
 30
0
  3
AIGNBL01010019
  0
POLYLINE
  8
LAYER_1
 40
0.2469
 41
0.2469
 66
1
 10
0
 20
0
 30
0
  0
VERTEX
  8
LAYER_1
 10
126.0612
 20
168.7287
  0
VERTEX
  8
LAYER_1
 10
126.0612
 20
173.2311
  0
SEQEND
  0
ENDBLK
  0
BLOCK
  8
LAYER_1
  2
AIGNBL0101001A
 70
64
 10
0
 20
0
 30
0
  3
AIGNBL0101001A
  0
POLYLINE
  8
LAYER_1
 40
0.2469
 41
0.2469
 66
1
 10
0
 20
0
 30
0
  0
VERTEX
  8
LAYER_1
 10
126.0612
 20
168.7287
  0
VERTEX
  8
LAYER_1
 10
126.0612
 20
164.2263
  0
SEQEND
  0
ENDBLK
  0
BLOCK
  8
LAYER_1
  2
AIGNBL0101001B
 70
64
 10
0
 20
0
 30
0
  3
AIGNBL0101001B
  0
POLYLINE
  8
LAYER_1
 40
0.2469
 41
0.2469
 66
1
 10
0
 20
0
 30
0
  0
VERTEX
  8
LAYER_1
 10
122.5679
 20
168.7287
  0
VERTEX
  8
LAYER_1
 10
122.5679
 20
173.2311
  0
SEQEND
  0
ENDBLK
  0
BLOCK
  8
LAYER_1
  2
AIGNBL0101001C
 70
64
 10
0
 20
0
 30
0
  3
AIGNBL0101001C
  0
POLYLINE
  8
LAYER_1
 40
0.2469
 41
0.2469
 66
1
 10
0
 20
0
 30
0
  0
VERTEX
  8
LAYER_1
 10
122.5679
 20
168.7287
  0
VERTEX
  8
LAYER_1
 10
122.5679
 20
164.2263
  0
SEQEND
  0
ENDBLK
  0
BLOCK
  8
LAYER_1
  2
AIGNBL0101001D
 70
64
 10
0
 20
0
 30
0
  3
AIGNBL0101001D
  0
POLYLINE
  8
LAYER_1
 40
0.2469
 41
0.2469
 66
1
 10
0
 20
0
 30
0
  0
VERTEX
  8
LAYER_1
 10
106.3146
 20
177.2242
  0
VERTEX
  8
LAYER_1
 10
85.5865
 20
177.2242
  0
SEQEND
  0
ENDBLK
  0
BLOCK
  8
LAYER_1
  2
AIGNBL0101001E
 70
64
 10
0
 20
0
 30
0
  3
AIGNBL0101001E
  0
POLYLINE
  8
LAYER_1
 40
0.2469
 41
0.2469
 66
1
 10
0
 20
0
 30
0
  0
VERTEX
  8
LAYER_1
 10
106.3146
 20
160.2241
  0
VERTEX
  8
LAYER_1
 10
88.5865
 20
160.2241
  0
SEQEND
  0
ENDBLK
  0
BLOCK
  8
LAYER_1
  2
AIGNBL0101001F
 70
64
 10
0
 20
0
 30
0
  3
AIGNBL0101001F
  0
POLYLINE
  8
LAYER_1
 40
0.2469
 41
0.2469
 66
1
 10
0
 20
0
 30
0
  0
VERTEX
  8
LAYER_1
 10
85.5865
 20
177.2242
  0
VERTEX
  8
LAYER_1
 10
85.5865
 20
163.2241
  0
SEQEND
  0
ENDBLK
  0
BLOCK
  8
LAYER_1
  2
AIGNBL01010020
 70
64
 10
0
 20
0
 30
0
  3
AIGNBL01010020
  0
POLYLINE
  8
LAYER_1
 40
0.2469
 41
0.2469
 66
1
 10
0
 20
0
 30
0
  0
VERTEX
  8
LAYER_1
 10
101.6658
 20
168.7287
  0
VERTEX
  8
LAYER_1
 10
101.6658
 20
173.2311
  0
SEQEND
  0
ENDBLK
  0
BLOCK
  8
LAYER_1
  2
AIGNBL01010021
 70
64
 10
0
 20
0
 30
0
  3
AIGNBL01010021
  0
POLYLINE
  8
LAYER_1
 40
0.2469
 41
0.2469
 66
1
 10
0
 20
0
 30
0
  0
VERTEX
  8
LAYER_1
 10
101.6658
 20
168.7287
  0
VERTEX
  8
LAYER_1
 10
101.6658
 20
173.2311
  0
SEQEND
  0
ENDBLK
  0
BLOCK
  8
LAYER_1
  2
AIGNBL01010022
 70
64
 10
0
 20
0
 30
0
  3
AIGNBL01010022
  0
POLYLINE
  8
LAYER_1
 40
0.2469
 41
0.2469
 66
1
 10
0
 20
0
 30
0
  0
VERTEX
  8
LAYER_1
 10
98.1725
 20
168.7287
  0
VERTEX
  8
LAYER_1
 10
98.1725
 20
164.2263
  0
SEQEND
  0
ENDBLK
  0
BLOCK
  8
LAYER_1
  2
AIGNBL01010023
 70
64
 10
0
 20
0
 30
0
  3
AIGNBL01010023
  0
POLYLINE
  8
LAYER_1
 40
0.2469
 41
0.2469
 66
1
 10
0
 20
0
 30
0
  0
VERTEX
  8
LAYER_1
 10
101.6658
 20
168.7287
  0
VERTEX
  8
LAYER_1
 10
101.6658
 20
164.2263
  0
SEQEND
  0
ENDBLK
  0
BLOCK
  8
LAYER_1
  2
AIGNBL01010024
 70
64
 10
0
 20
0
 30
0
  3
AIGNBL01010024
  0
POLYLINE
  8
LAYER_1
 40
0.2469
 41
0.2469
 66
1
 10
0
 20
0
 30
0
  0
VERTEX
  8
LAYER_1
 10
98.1656
 20
168.7287
  0
VERTEX
  8
LAYER_1
 10
98.1656
 20
173.2311
  0
SEQEND
  0
ENDBLK
  0
BLOCK
  8
LAYER_1
  2
AIGNBL01010025
 70
64
 10
0
 20
0
 30
0
  3
AIGNBL01010025
  0
POLYLINE
  8
LAYER_1
 40
0.2469
 41
0.2469
 66
1
 10
0
 20
0
 30
0
  0
VERTEX
  8
LAYER_1
 10
95.6786
 20
168.7287
  0
VERTEX
  8
LAYER_1
 10
95.6786
 20
173.2311
  0
SEQEND
  0
ENDBLK
  0
BLOCK
  8
LAYER_1
  2
AIGNBL01010026
 70
64
 10
0
 20
0
 30
0
  3
AIGNBL01010026
  0
POLYLINE
  8
LAYER_1
 40
0.2469
 41
0.2469
 66
1
 10
0
 20
0
 30
0
  0
VERTEX
  8
LAYER_1
 10
92.1852
 20
168.7287
  0
VERTEX
  8
LAYER_1
 10
92.1852
 20
173.2311
  0
SEQEND
  0
ENDBLK
  0
BLOCK
  8
LAYER_1
  2
AIGNBL01010027
 70
64
 10
0
 20
0
 30
0
  3
AIGNBL01010027
  0
POLYLINE
  8
LAYER_1
 40
0.2469
 41
0.2469
 66
1
 10
0
 20
0
 30
0
  0
VERTEX
  8
LAYER_1
 10
92.1852
 20
168.7287
  0
VERTEX
  8
LAYER_1
 10
92.1852
 20
164.2263
  0
SEQEND
  0
ENDBLK
  0
BLOCK
  8
LAYER_1
  2
AIGNBL01010028
 70
64
 10
0
 20
0
 30
0
  3
AIGNBL01010028
  0
POLYLINE
  8
LAYER_1
 40
0.2469
 41
0.2469
 66
1
 10
0
 20
0
 30
0
  0
VERTEX
  8
LAYER_1
 10
95.6786
 20
168.7287
  0
VERTEX
  8
LAYER_1
 10
95.6786
 20
164.2263
  0
SEQEND
  0
ENDBLK
  0
BLOCK
  8
LAYER_1
  2
AIGNBL01010029
 70
64
 10
0
 20
0
 30
0
  3
AIGNBL01010029
  0
POLYLINE
  8
LAYER_1
 40
0.2469
 41
0.2469
 66
1
 10
0
 20
0
 30
0
  0
VERTEX
  8
LAYER_1
 10
86.568
 20
168.7287
  0
VERTEX
  8
LAYER_1
 10
86.568
 20
173.2311
  0
SEQEND
  0
ENDBLK
  0
BLOCK
  8
LAYER_1
  2
AIGNBL0101002A
 70
64
 10
0
 20
0
 30
0
  3
AIGNBL0101002A
  0
POLYLINE
  8
LAYER_1
 40
0.2469
 41
0.2469
 66
1
 10
0
 20
0
 30
0
  0
VERTEX
  8
LAYER_1
 10
86.568
 20
168.7287
  0
VERTEX
  8
LAYER_1
 10
86.568
 20
164.2263
  0
SEQEND
  0
ENDBLK
  0
BLOCK
  8
LAYER_1
  2
AIGNBL0101002B
 70
64
 10
0
 20
0
 30
0
  3
AIGNBL0101002B
  0
POLYLINE
  8
LAYER_1
 40
0.2469
 41
0.2469
 66
1
 10
0
 20
0
 30
0
  0
VERTEX
  8
LAYER_1
 10
90.0612
 20
168.7287
  0
VERTEX
  8
LAYER_1
 10
90.0612
 20
173.2311
  0
SEQEND
  0
ENDBLK
  0
BLOCK
  8
LAYER_1
  2
AIGNBL0101002C
 70
64
 10
0
 20
0
 30
0
  3
AIGNBL0101002C
  0
POLYLINE
  8
LAYER_1
 40
0.2469
 41
0.2469
 66
1
 10
0
 20
0
 30
0
  0
VERTEX
  8
LAYER_1
 10
90.0612
 20
168.7287
  0
VERTEX
  8
LAYER_1
 10
90.0612
 20
164.2263
  0
SEQEND
  0
ENDBLK
  0
BLOCK
  8
LAYER_1
  2
AIGNBL0101002D
 70
64
 10
0
 20
0
 30
0
  3
AIGNBL0101002D
  0
POLYLINE
  8
LAYER_1
 40
0.2469
 41
0.2469
 66
1
 10
0
 20
0
 30
0
  0
VERTEX
  8
LAYER_1
 10
124.0427
 20
160.2241
 42
0.4142131708
  0
VERTEX
  8
LAYER_1
 10
127.0427
 20
163.2241
  0
SEQEND
  0
ENDBLK
  0
BLOCK
  8
LAYER_1
  2
AIGNBL0101002E
 70
64
 10
0
 20
0
 30
0
  3
AIGNBL0101002E
  0
POLYLINE
  8
LAYER_1
 40
0.2469
 41
0.2469
 66
1
 10
0
 20
0
 30
0
  0
VERTEX
  8
LAYER_1
 10
108.0613
 20
173.2311
 42
0.4142178279
  0
VERTEX
  8
LAYER_1
 10
106.3146
 20
174.9778
 42
0.41420932
  0
VERTEX
  8
LAYER_1
 10
104.568
 20
173.2311
  0
SEQEND
  0
ENDBLK
  0
BLOCK
  8
LAYER_1
  2
AIGNBL0101002F
 70
64
 10
0
 20
0
 30
0
  3
AIGNBL0101002F
  0
POLYLINE
  8
LAYER_1
 40
0.2469
 41
0.2469
 66
1
 10
0
 20
0
 30
0
  0
VERTEX
  8
LAYER_1
 10
104.568
 20
164.2263
 42
0.4142082337
  0
VERTEX
  8
LAYER_1
 10
106.3146
 20
162.4797
 42
0.4142167424
  0
VERTEX
  8
LAYER_1
 10
108.0613
 20
164.2263
  0
SEQEND
  0
ENDBLK
  0
BLOCK
  8
LAYER_1
  2
AIGNBL01010030
 70
64
 10
0
 20
0
 30
0
  3
AIGNBL01010030
  0
POLYLINE
  8
LAYER_1
 40
0.2469
 41
0.2469
 66
1
 10
0
 20
0
 30
0
  0
VERTEX
  8
LAYER_1
 10
114.4567
 20
173.2311
 42
0.4142132827
  0
VERTEX
  8
LAYER_1
 10
112.7101
 20
174.9778
 42
0.4142138652
  0
VERTEX
  8
LAYER_1
 10
110.9634
 20
173.2311
  0
SEQEND
  0
ENDBLK
  0
BLOCK
  8
LAYER_1
  2
AIGNBL01010031
 70
64
 10
0
 20
0
 30
0
  3
AIGNBL01010031
  0
POLYLINE
  8
LAYER_1
 40
0.2469
 41
0.2469
 66
1
 10
0
 20
0
 30
0
  0
VERTEX
  8
LAYER_1
 10
110.9634
 20
164.2263
 42
0.4142127792
  0
VERTEX
  8
LAYER_1
 10
112.7101
 20
162.4797
 42
0.4142121968
  0
VERTEX
  8
LAYER_1
 10
114.4567
 20
164.2263
  0
SEQEND
  0
ENDBLK
  0
BLOCK
  8
LAYER_1
  2
AIGNBL01010032
 70
64
 10
0
 20
0
 30
0
  3
AIGNBL01010032
  0
POLYLINE
  8
LAYER_1
 40
0.2469
 41
0.2469
 66
1
 10
0
 20
0
 30
0
  0
VERTEX
  8
LAYER_1
 10
120.444
 20
173.2311
 42
0.4142138163
  0
VERTEX
  8
LAYER_1
 10
118.6973
 20
174.9778
 42
0.4142133316
  0
VERTEX
  8
LAYER_1
 10
116.9507
 20
173.2311
  0
SEQEND
  0
ENDBLK
  0
BLOCK
  8
LAYER_1
  2
AIGNBL01010033
 70
64
 10
0
 20
0
 30
0
  3
AIGNBL01010033
  0
POLYLINE
  8
LAYER_1
 40
0.2469
 41
0.2469
 66
1
 10
0
 20
0
 30
0
  0
VERTEX
  8
LAYER_1
 10
116.9507
 20
164.2263
 42
0.4142122455
  0
VERTEX
  8
LAYER_1
 10
118.6973
 20
162.4797
 42
0.4142127305
  0
VERTEX
  8
LAYER_1
 10
120.444
 20
164.2263
  0
SEQEND
  0
ENDBLK
  0
BLOCK
  8
LAYER_1
  2
AIGNBL01010034
 70
64
 10
0
 20
0
 30
0
  3
AIGNBL01010034
  0
POLYLINE
  8
LAYER_1
 40
0.2469
 41
0.2469
 66
1
 10
0
 20
0
 30
0
  0
VERTEX
  8
LAYER_1
 10
126.0612
 20
173.2311
 42
0.4142213848
  0
VERTEX
  8
LAYER_1
 10
124.3145
 20
174.9778
 42
0.4142057631
  0
VERTEX
  8
LAYER_1
 10
122.5679
 20
173.2311
  0
SEQEND
  0
ENDBLK
  0
BLOCK
  8
LAYER_1
  2
AIGNBL01010035
 70
64
 10
0
 20
0
 30
0
  3
AIGNBL01010035
  0
POLYLINE
  8
LAYER_1
 40
0.2469
 41
0.2469
 66
1
 10
0
 20
0
 30
0
  0
VERTEX
  8
LAYER_1
 10
122.5679
 20
164.2263
 42
0.4142046766
  0
VERTEX
  8
LAYER_1
 10
124.3145
 20
162.4797
 42
0.4142202995
  0
VERTEX
  8
LAYER_1
 10
126.0612
 20
164.2263
  0
SEQEND
  0
ENDBLK
  0
BLOCK
  8
LAYER_1
  2
AIGNBL01010036
 70
64
 10
0
 20
0
 30
0
  3
AIGNBL01010036
  0
POLYLINE
  8
LAYER_1
 40
0.2469
 41
0.2469
 66
1
 10
0
 20
0
 30
0
  0
VERTEX
  8
LAYER_1
 10
85.5865
 20
163.2241
 42
0.4142116613
  0
VERTEX
  8
LAYER_1
 10
88.5865
 20
160.2241
  0
SEQEND
  0
ENDBLK
  0
BLOCK
  8
LAYER_1
  2
AIGNBL01010037
 70
64
 10
0
 20
0
 30
0
  3
AIGNBL01010037
  0
POLYLINE
  8
LAYER_1
 40
0.2469
 41
0.2469
 66
1
 10
0
 20
0
 30
0
  0
VERTEX
  8
LAYER_1
 10
101.6658
 20
173.2311
 42
0.4142056048
  0
VERTEX
  8
LAYER_1
 10
99.9192
 20
174.9778
 42
0.4142215431
  0
VERTEX
  8
LAYER_1
 10
98.1725
 20
173.2311
  0
SEQEND
  0
ENDBLK
  0
BLOCK
  8
LAYER_1
  2
AIGNBL01010038
 70
64
 10
0
 20
0
 30
0
  3
AIGNBL01010038
  0
POLYLINE
  8
LAYER_1
 40
0.2469
 41
0.2469
 66
1
 10
0
 20
0
 30
0
  0
VERTEX
  8
LAYER_1
 10
98.1725
 20
164.2263
 42
0.4142204575
  0
VERTEX
  8
LAYER_1
 10
99.9192
 20
162.4797
 42
0.4142045186
  0
VERTEX
  8
LAYER_1
 10
101.6658
 20
164.2263
  0
SEQEND
  0
ENDBLK
  0
BLOCK
  8
LAYER_1
  2
AIGNBL01010039
 70
64
 10
0
 20
0
 30
0
  3
AIGNBL01010039
  0
POLYLINE
  8
LAYER_1
 40
0.2469
 41
0.2469
 66
1
 10
0
 20
0
 30
0
  0
VERTEX
  8
LAYER_1
 10
95.6786
 20
173.2311
 42
0.4142159241
  0
VERTEX
  8
LAYER_1
 10
93.9319
 20
174.9778
 42
0.4142112238
  0
VERTEX
  8
LAYER_1
 10
92.1852
 20
173.2311
  0
SEQEND
  0
ENDBLK
  0
BLOCK
  8
LAYER_1
  2
AIGNBL0101003A
 70
64
 10
0
 20
0
 30
0
  3
AIGNBL0101003A
  0
POLYLINE
  8
LAYER_1
 40
0.2469
 41
0.2469
 66
1
 10
0
 20
0
 30
0
  0
VERTEX
  8
LAYER_1
 10
92.1852
 20
164.2263
 42
0.4142101377
  0
VERTEX
  8
LAYER_1
 10
93.9319
 20
162.4797
 42
0.4142148384
  0
VERTEX
  8
LAYER_1
 10
95.6786
 20
164.2263
  0
SEQEND
  0
ENDBLK
  0
BLOCK
  8
LAYER_1
  2
AIGNBL0101003B
 70
64
 10
0
 20
0
 30
0
  3
AIGNBL0101003B
  0
POLYLINE
  8
LAYER_1
 40
0.2469
 41
0.2469
 66
1
 10
0
 20
0
 30
0
  0
VERTEX
  8
LAYER_1
 10
90.0612
 20
173.2311
 42
0.4142083555
  0
VERTEX
  8
LAYER_1
 10
88.3147
 20
174.9778
 42
0.4142187924
  0
VERTEX
  8
LAYER_1
 10
86.568
 20
173.2311
  0
SEQEND
  0
ENDBLK
  0
BLOCK
  8
LAYER_1
  2
AIGNBL0101003C
 70
64
 10
0
 20
0
 30
0
  3
AIGNBL0101003C
  0
POLYLINE
  8
LAYER_1
 40
0.2469
 41
0.2469
 66
1
 10
0
 20
0
 30
0
  0
VERTEX
  8
LAYER_1
 10
86.568
 20
164.2263
 42
0.4142177066
  0
VERTEX
  8
LAYER_1
 10
88.3147
 20
162.4797
 42
0.4142072694
  0
VERTEX
  8
LAYER_1
 10
90.0612
 20
164.2263
  0
SEQEND
  0
ENDBLK
  0
BLOCK
  8
LAYER_2
  2
AIGNBL02010002
 70
64
 10
0
 20
0
 30
0
  3
AIGNBL02010002
  0
ENDBLK
  0
BLOCK
  8
LAYER_2
  2
AIGNBL02010003
 70
64
 10
0
 20
0
 30
0
  3
AIGNBL02010003
  0
ENDBLK
  0
BLOCK
  8
LAYER_2
  2
AIGNBL02010004
 70
64
 10
0
 20
0
 30
0
  3
AIGNBL02010004
  0
POLYLINE
  8
LAYER_2
 40
0.2469
 41
0.2469
 66
1
 10
0
 20
0
 30
0
  0
VERTEX
  8
LAYER_2
 10
106.3501
 20
118.339
  0
VERTEX
  8
LAYER_2
 10
119.85
 20
118.339
  0
SEQEND
  0
ENDBLK
  0
BLOCK
  8
LAYER_2
  2
AIGNBL02010005
 70
64
 10
0
 20
0
 30
0
  3
AIGNBL02010005
  0
POLYLINE
  8
LAYER_2
 40
0.2469
 41
0.2469
 66
1
 10
0
 20
0
 30
0
  0
VERTEX
  8
LAYER_2
 10
106.3501
 20
128.839
  0
VERTEX
  8
LAYER_2
 10
119.85
 20
128.839
  0
SEQEND
  0
ENDBLK
  0
BLOCK
  8
LAYER_2
  2
AIGNBL02010006
 70
64
 10
0
 20
0
 30
0
  3
AIGNBL02010006
  0
POLYLINE
  8
LAYER_2
 40
0.2469
 41
0.2469
 66
1
 10
0
 20
0
 30
0
  0
VERTEX
  8
LAYER_2
 10
75.3499
 20
145.2611
  0
VERTEX
  8
LAYER_2
 10
137.3501
 20
145.2611
  0
SEQEND
  0
ENDBLK
  0
BLOCK
  8
LAYER_2
  2
AIGNBL02010007
 70
64
 10
0
 20
0
 30
0
  3
AIGNBL02010007
  0
POLYLINE
  8
LAYER_2
 40
0.2469
 41
0.2469
 66
1
 10
0
 20
0
 30
0
  0
VERTEX
  8
LAYER_2
 10
75.3499
 20
143.6612
  0
VERTEX
  8
LAYER_2
 10
137.3501
 20
143.6612
  0
SEQEND
  0
ENDBLK
  0
BLOCK
  8
LAYER_2
  2
AIGNBL02010008
 70
64
 10
0
 20
0
 30
0
  3
AIGNBL02010008
  0
POLYLINE
  8
LAYER_2
 40
0.2469
 41
0.2469
 66
1
 10
0
 20
0
 30
0
  0
VERTEX
  8
LAYER_2
 10
85.7999
 20
115.8606
  0
VERTEX
  8
LAYER_2
 10
126.9001
 20
115.8606
  0
SEQEND
  0
ENDBLK
  0
BLOCK
  8
LAYER_2
  2
AIGNBL02010009
 70
64
 10
0
 20
0
 30
0
  3
AIGNBL02010009
  0
POLYLINE
  8
LAYER_2
 40
0.2469
 41
0.2469
 66
1
 10
0
 20
0
 30
0
  0
VERTEX
  8
LAYER_2
 10
119.85
 20
118.339
  0
VERTEX
  8
LAYER_2
 10
119.85
 20
128.839
  0
SEQEND
  0
ENDBLK
  0
BLOCK
  8
LAYER_2
  2
AIGNBL0201000A
 70
64
 10
0
 20
0
 30
0
  3
AIGNBL0201000A
  0
POLYLINE
  8
LAYER_2
 40
0.2469
 41
0.2469
 66
1
 10
0
 20
0
 30
0
  0
VERTEX
  8
LAYER_2
 10
137.3501
 20
143.6612
  0
VERTEX
  8
LAYER_2
 10
137.3501
 20
145.2611
  0
SEQEND
  0
ENDBLK
  0
BLOCK
  8
LAYER_2
  2
AIGNBL0201000B
 70
64
 10
0
 20
0
 30
0
  3
AIGNBL0201000B
  0
POLYLINE
  8
LAYER_2
 40
0.2469
 41
0.2469
 66
1
 10
0
 20
0
 30
0
  0
VERTEX
  8
LAYER_2
 10
75.3499
 20
143.6612
  0
VERTEX
  8
LAYER_2
 10
75.3499
 20
145.2611
  0
SEQEND
  0
ENDBLK
  0
BLOCK
  8
LAYER_2
  2
AIGNBL0201000C
 70
64
 10
0
 20
0
 30
0
  3
AIGNBL0201000C
  0
POLYLINE
  8
LAYER_2
 40
0.2469
 41
0.2469
 66
1
 10
0
 20
0
 30
0
  0
VERTEX
  8
LAYER_2
 10
126.9001
 20
115.8606
  0
VERTEX
  8
LAYER_2
 10
126.9001
 20
135.7609
  0
SEQEND
  0
ENDBLK
  0
BLOCK
  8
LAYER_2
  2
AIGNBL0201000D
 70
64
 10
0
 20
0
 30
0
  3
AIGNBL0201000D
  0
POLYLINE
  8
LAYER_2
 40
0.2469
 41
0.2469
 66
1
 10
0
 20
0
 30
0
  0
VERTEX
  8
LAYER_2
 10
85.7999
 20
115.8606
  0
VERTEX
  8
LAYER_2
 10
85.7999
 20
135.7609
  0
SEQEND
  0
ENDBLK
  0
BLOCK
  8
LAYER_2
  2
AIGNBL0201000E
 70
64
 10
0
 20
0
 30
0
  3
AIGNBL0201000E
  0
POLYLINE
  8
LAYER_2
 40
0.2469
 41
0.2469
 66
1
 10
0
 20
0
 30
0
  0
VERTEX
  8
LAYER_2
 10
113.1576
 20
103.3804
  0
VERTEX
  8
LAYER_2
 10
127
 20
104.5738
  0
SEQEND
  0
ENDBLK
  0
BLOCK
  8
LAYER_2
  2
AIGNBL0201000F
 70
64
 10
0
 20
0
 30
0
  3
AIGNBL0201000F
  0
POLYLINE
  8
LAYER_2
 40
0.2469
 41
0.2469
 66
1
 10
0
 20
0
 30
0
  0
VERTEX
  8
LAYER_2
 10
95.9776
 20
103.3804
  0
VERTEX
  8
LAYER_2
 10
125.5
 20
105.9484
  0
SEQEND
  0
ENDBLK
  0
BLOCK
  8
LAYER_2
  2
AIGNBL02010010
 70
64
 10
0
 20
0
 30
0
  3
AIGNBL02010010
  0
POLYLINE
  8
LAYER_2
 40
0.2469
 41
0.2469
 66
1
 10
0
 20
0
 30
0
  0
VERTEX
  8
LAYER_2
 10
85.7
 20
103.9985
  0
VERTEX
  8
LAYER_2
 10
127
 20
107.5855
  0
SEQEND
  0
ENDBLK
  0
BLOCK
  8
LAYER_2
  2
AIGNBL02010011
 70
64
 10
0
 20
0
 30
0
  3
AIGNBL02010011
  0
POLYLINE
  8
LAYER_2
 40
0.2469
 41
0.2469
 66
1
 10
0
 20
0
 30
0
  0
VERTEX
  8
LAYER_2
 10
87.2
 20
105.6356
  0
VERTEX
  8
LAYER_2
 10
125.5
 20
108.9601
  0
SEQEND
  0
ENDBLK
  0
BLOCK
  8
LAYER_2
  2
AIGNBL02010012
 70
64
 10
0
 20
0
 30
0
  3
AIGNBL02010012
  0
POLYLINE
  8
LAYER_2
 40
0.2469
 41
0.2469
 66
1
 10
0
 20
0
 30
0
  0
VERTEX
  8
LAYER_2
 10
85.7
 20
107.0102
  0
VERTEX
  8
LAYER_2
 10
127
 20
110.5972
  0
SEQEND
  0
ENDBLK
  0
BLOCK
  8
LAYER_2
  2
AIGNBL02010013
 70
64
 10
0
 20
0
 30
0
  3
AIGNBL02010013
  0
POLYLINE
  8
LAYER_2
 40
0.2469
 41
0.2469
 66
1
 10
0
 20
0
 30
0
  0
VERTEX
  8
LAYER_2
 10
87.2
 20
108.6466
  0
VERTEX
  8
LAYER_2
 10
125.5
 20
111.9711
  0
SEQEND
  0
ENDBLK
  0
BLOCK
  8
LAYER_2
  2
AIGNBL02010014
 70
64
 10
0
 20
0
 30
0
  3
AIGNBL02010014
  0
POLYLINE
  8
LAYER_2
 40
0.2469
 41
0.2469
 66
1
 10
0
 20
0
 30
0
  0
VERTEX
  8
LAYER_2
 10
85.7
 20
110.0212
  0
VERTEX
  8
LAYER_2
 10
127
 20
113.6082
  0
SEQEND
  0
ENDBLK
  0
BLOCK
  8
LAYER_2
  2
AIGNBL02010015
 70
64
 10
0
 20
0
 30
0
  3
AIGNBL02010015
  0
POLYLINE
  8
LAYER_2
 40
0.2469
 41
0.2469
 66
1
 10
0
 20
0
 30
0
  0
VERTEX
  8
LAYER_2
 10
87.2
 20
111.6583
  0
VERTEX
  8
LAYER_2
 10
125.5
 20
114.9828
  0
SEQEND
  0
ENDBLK
  0
BLOCK
  8
LAYER_2
  2
AIGNBL02010016
 70
64
 10
0
 20
0
 30
0
  3
AIGNBL02010016
  0
POLYLINE
  8
LAYER_2
 40
0.2469
 41
0.2469
 66
1
 10
0
 20
0
 30
0
  0
VERTEX
  8
LAYER_2
 10
85.7
 20
113.0329
  0
VERTEX
  8
LAYER_2
 10
118.2619
 20
115.8606
  0
SEQEND
  0
ENDBLK
  0
BLOCK
  8
LAYER_2
  2
AIGNBL02010017
 70
64
 10
0
 20
0
 30
0
  3
AIGNBL02010017
  0
POLYLINE
  8
LAYER_2
 40
0.2469
 41
0.2469
 66
1
 10
0
 20
0
 30
0
  0
VERTEX
  8
LAYER_2
 10
87.2
 20
114.67
  0
VERTEX
  8
LAYER_2
 10
100.9223
 20
115.8606
  0
SEQEND
  0
ENDBLK
  0
BLOCK
  8
LAYER_2
  2
AIGNBL02010018
 70
64
 10
0
 20
0
 30
0
  3
AIGNBL02010018
  0
POLYLINE
  8
LAYER_2
 40
0.2469
 41
0.2469
 66
1
 10
0
 20
0
 30
0
  0
VERTEX
  8
LAYER_2
 10
125.9062
 20
103.3804
  0
VERTEX
  8
LAYER_2
 10
127
 20
104.5738
  0
SEQEND
  0
ENDBLK
  0
BLOCK
  8
LAYER_2
  2
AIGNBL02010019
 70
64
 10
0
 20
0
 30
0
  3
AIGNBL02010019
  0
POLYLINE
  8
LAYER_2
 40
0.2469
 41
0.2469
 66
1
 10
0
 20
0
 30
0
  0
VERTEX
  8
LAYER_2
 10
127
 20
104.5738
  0
VERTEX
  8
LAYER_2
 10
125.5
 20
105.9484
  0
SEQEND
  0
ENDBLK
  0
BLOCK
  8
LAYER_2
  2
AIGNBL0201001A
 70
64
 10
0
 20
0
 30
0
  3
AIGNBL0201001A
  0
POLYLINE
  8
LAYER_2
 40
0.2469
 41
0.2469
 66
1
 10
0
 20
0
 30
0
  0
VERTEX
  8
LAYER_2
 10
125.5
 20
105.9484
  0
VERTEX
  8
LAYER_2
 10
127
 20
107.5855
  0
SEQEND
  0
ENDBLK
  0
BLOCK
  8
LAYER_2
  2
AIGNBL0201001B
 70
64
 10
0
 20
0
 30
0
  3
AIGNBL0201001B
  0
POLYLINE
  8
LAYER_2
 40
0.2469
 41
0.2469
 66
1
 10
0
 20
0
 30
0
  0
VERTEX
  8
LAYER_2
 10
127
 20
107.5855
  0
VERTEX
  8
LAYER_2
 10
125.5
 20
108.9601
  0
SEQEND
  0
ENDBLK
  0
BLOCK
  8
LAYER_2
  2
AIGNBL0201001C
 70
64
 10
0
 20
0
 30
0
  3
AIGNBL0201001C
  0
POLYLINE
  8
LAYER_2
 40
0.2469
 41
0.2469
 66
1
 10
0
 20
0
 30
0
  0
VERTEX
  8
LAYER_2
 10
125.5
 20
108.9601
  0
VERTEX
  8
LAYER_2
 10
127
 20
110.5972
  0
SEQEND
  0
ENDBLK
  0
BLOCK
  8
LAYER_2
  2
AIGNBL0201001D
 70
64
 10
0
 20
0
 30
0
  3
AIGNBL0201001D
  0
POLYLINE
  8
LAYER_2
 40
0.2469
 41
0.2469
 66
1
 10
0
 20
0
 30
0
  0
VERTEX
  8
LAYER_2
 10
127
 20
110.5972
  0
VERTEX
  8
LAYER_2
 10
125.5
 20
111.9711
  0
SEQEND
  0
ENDBLK
  0
BLOCK
  8
LAYER_2
  2
AIGNBL0201001E
 70
64
 10
0
 20
0
 30
0
  3
AIGNBL0201001E
  0
POLYLINE
  8
LAYER_2
 40
0.2469
 41
0.2469
 66
1
 10
0
 20
0
 30
0
  0
VERTEX
  8
LAYER_2
 10
125.5
 20
111.9711
  0
VERTEX
  8
LAYER_2
 10
127
 20
113.6082
  0
SEQEND
  0
ENDBLK
  0
BLOCK
  8
LAYER_2
  2
AIGNBL0201001F
 70
64
 10
0
 20
0
 30
0
  3
AIGNBL0201001F
  0
POLYLINE
  8
LAYER_2
 40
0.2469
 41
0.2469
 66
1
 10
0
 20
0
 30
0
  0
VERTEX
  8
LAYER_2
 10
127
 20
113.6082
  0
VERTEX
  8
LAYER_2
 10
125.5
 20
114.9828
  0
SEQEND
  0
ENDBLK
  0
BLOCK
  8
LAYER_2
  2
AIGNBL02010020
 70
64
 10
0
 20
0
 30
0
  3
AIGNBL02010020
  0
POLYLINE
  8
LAYER_2
 40
0.2469
 41
0.2469
 66
1
 10
0
 20
0
 30
0
  0
VERTEX
  8
LAYER_2
 10
125.5
 20
114.9828
  0
VERTEX
  8
LAYER_2
 10
126.3044
 20
115.8606
  0
SEQEND
  0
ENDBLK
  0
BLOCK
  8
LAYER_2
  2
AIGNBL02010021
 70
64
 10
0
 20
0
 30
0
  3
AIGNBL02010021
  0
POLYLINE
  8
LAYER_2
 40
0.2469
 41
0.2469
 66
1
 10
0
 20
0
 30
0
  0
VERTEX
  8
LAYER_2
 10
86.3744
 20
103.3804
  0
VERTEX
  8
LAYER_2
 10
85.7
 20
103.9985
  0
SEQEND
  0
ENDBLK
  0
BLOCK
  8
LAYER_2
  2
AIGNBL02010022
 70
64
 10
0
 20
0
 30
0
  3
AIGNBL02010022
  0
POLYLINE
  8
LAYER_2
 40
0.2469
 41
0.2469
 66
1
 10
0
 20
0
 30
0
  0
VERTEX
  8
LAYER_2
 10
85.7
 20
103.9985
  0
VERTEX
  8
LAYER_2
 10
87.2
 20
105.6356
  0
SEQEND
  0
ENDBLK
  0
BLOCK
  8
LAYER_2
  2
AIGNBL02010023
 70
64
 10
0
 20
0
 30
0
  3
AIGNBL02010023
  0
POLYLINE
  8
LAYER_2
 40
0.2469
 41
0.2469
 66
1
 10
0
 20
0
 30
0
  0
VERTEX
  8
LAYER_2
 10
87.2
 20
105.6356
  0
VERTEX
  8
LAYER_2
 10
85.7
 20
107.0102
  0
SEQEND
  0
ENDBLK
  0
BLOCK
  8
LAYER_2
  2
AIGNBL02010024
 70
64
 10
0
 20
0
 30
0
  3
AIGNBL02010024
  0
POLYLINE
  8
LAYER_2
 40
0.2469
 41
0.2469
 66
1
 10
0
 20
0
 30
0
  0
VERTEX
  8
LAYER_2
 10
85.7
 20
107.0102
  0
VERTEX
  8
LAYER_2
 10
87.2
 20
108.6466
  0
SEQEND
  0
ENDBLK
  0
BLOCK
  8
LAYER_2
  2
AIGNBL02010025
 70
64
 10
0
 20
0
 30
0
  3
AIGNBL02010025
  0
POLYLINE
  8
LAYER_2
 40
0.2469
 41
0.2469
 66
1
 10
0
 20
0
 30
0
  0
VERTEX
  8
LAYER_2
 10
87.2
 20
108.6466
  0
VERTEX
  8
LAYER_2
 10
85.7
 20
110.0212
  0
SEQEND
  0
ENDBLK
  0
BLOCK
  8
LAYER_2
  2
AIGNBL02010026
 70
64
 10
0
 20
0
 30
0
  3
AIGNBL02010026
  0
POLYLINE
  8
LAYER_2
 40
0.2469
 41
0.2469
 66
1
 10
0
 20
0
 30
0
  0
VERTEX
  8
LAYER_2
 10
85.7
 20
110.0212
  0
VERTEX
  8
LAYER_2
 10
87.2
 20
111.6583
  0
SEQEND
  0
ENDBLK
  0
BLOCK
  8
LAYER_2
  2
AIGNBL02010027
 70
64
 10
0
 20
0
 30
0
  3
AIGNBL02010027
  0
POLYLINE
  8
LAYER_2
 40
0.2469
 41
0.2469
 66
1
 10
0
 20
0
 30
0
  0
VERTEX
  8
LAYER_2
 10
87.2
 20
111.6583
  0
VERTEX
  8
LAYER_2
 10
85.7
 20
113.0329
  0
SEQEND
  0
ENDBLK
  0
BLOCK
  8
LAYER_2
  2
AIGNBL02010028
 70
64
 10
0
 20
0
 30
0
  3
AIGNBL02010028
  0
POLYLINE
  8
LAYER_2
 40
0.2469
 41
0.2469
 66
1
 10
0
 20
0
 30
0
  0
VERTEX
  8
LAYER_2
 10
85.7
 20
113.0329
  0
VERTEX
  8
LAYER_2
 10
87.2
 20
114.67
  0
SEQEND
  0
ENDBLK
  0
BLOCK
  8
LAYER_2
  2
AIGNBL02010029
 70
64
 10
0
 20
0
 30
0
  3
AIGNBL02010029
  0
POLYLINE
  8
LAYER_2
 40
0.2469
 41
0.2469
 66
1
 10
0
 20
0
 30
0
  0
VERTEX
  8
LAYER_2
 10
87.2
 20
114.67
  0
VERTEX
  8
LAYER_2
 10
85.9
 20
115.8606
  0
SEQEND
  0
ENDBLK
  0
BLOCK
  8
LAYER_2
  2
AIGNBL0201002A
 70
64
 10
0
 20
0
 30
0
  3
AIGNBL0201002A
  0
POLYLINE
  8
LAYER_2
 40
0.2469
 41
0.2469
 66
1
 10
0
 20
0
 30
0
  0
VERTEX
  8
LAYER_2
 10
81.6271
 20
95.4808
  0
VERTEX
  8
LAYER_2
 10
131.0731
 20
95.4808
  0
SEQEND
  0
ENDBLK
  0
BLOCK
  8
LAYER_2
  2
AIGNBL0201002B
 70
64
 10
0
 20
0
 30
0
  3
AIGNBL0201002B
  0
POLYLINE
  8
LAYER_2
 40
0.2469
 41
0.2469
 66
1
 10
0
 20
0
 30
0
  0
VERTEX
  8
LAYER_2
 10
134.1999
 20
92.99
  0
VERTEX
  8
LAYER_2
 10
78.4999
 20
92.99
  0
SEQEND
  0
ENDBLK
  0
BLOCK
  8
LAYER_2
  2
AIGNBL0201002C
 70
64
 10
0
 20
0
 30
0
  3
AIGNBL0201002C
  0
POLYLINE
  8
LAYER_2
 40
0.2469
 41
0.2469
 66
1
 10
0
 20
0
 30
0
  0
VERTEX
  8
LAYER_2
 10
134.1999
 20
90.4896
  0
VERTEX
  8
LAYER_2
 10
78.4999
 20
90.4896
  0
SEQEND
  0
ENDBLK
  0
BLOCK
  8
LAYER_2
  2
AIGNBL0201002D
 70
64
 10
0
 20
0
 30
0
  3
AIGNBL0201002D
  0
POLYLINE
  8
LAYER_2
 40
0.2469
 41
0.2469
 66
1
 10
0
 20
0
 30
0
  0
VERTEX
  8
LAYER_2
 10
128.5
 20
85.3901
  0
VERTEX
  8
LAYER_2
 10
84.2
 20
85.3901
  0
SEQEND
  0
ENDBLK
  0
BLOCK
  8
LAYER_2
  2
AIGNBL0201002E
 70
64
 10
0
 20
0
 30
0
  3
AIGNBL0201002E
  0
POLYLINE
  8
LAYER_2
 40
0.2469
 41
0.2469
 66
1
 10
0
 20
0
 30
0
  0
VERTEX
  8
LAYER_2
 10
134.1999
 20
92.99
  0
VERTEX
  8
LAYER_2
 10
134.1999
 20
90.4896
  0
SEQEND
  0
ENDBLK
  0
BLOCK
  8
LAYER_2
  2
AIGNBL0201002F
 70
64
 10
0
 20
0
 30
0
  3
AIGNBL0201002F
  0
POLYLINE
  8
LAYER_2
 40
0.2469
 41
0.2469
 66
1
 10
0
 20
0
 30
0
  0
VERTEX
  8
LAYER_2
 10
78.4999
 20
92.99
  0
VERTEX
  8
LAYER_2
 10
78.4999
 20
90.4896
  0
SEQEND
  0
ENDBLK
  0
BLOCK
  8
LAYER_2
  2
AIGNBL02010030
 70
64
 10
0
 20
0
 30
0
  3
AIGNBL02010030
  0
POLYLINE
  8
LAYER_2
 40
0.2469
 41
0.2469
 66
1
 10
0
 20
0
 30
0
  0
VERTEX
  8
LAYER_2
 10
118.1998
 20
90.4896
  0
VERTEX
  8
LAYER_2
 10
118.1998
 20
86.8329
  0
SEQEND
  0
ENDBLK
  0
BLOCK
  8
LAYER_2
  2
AIGNBL02010031
 70
64
 10
0
 20
0
 30
0
  3
AIGNBL02010031
  0
POLYLINE
  8
LAYER_2
 40
0.2469
 41
0.2469
 66
1
 10
0
 20
0
 30
0
  0
VERTEX
  8
LAYER_2
 10
94.5
 20
90.4896
  0
VERTEX
  8
LAYER_2
 10
94.5
 20
86.8329
  0
SEQEND
  0
ENDBLK
  0
BLOCK
  8
LAYER_2
  2
AIGNBL02010032
 70
64
 10
0
 20
0
 30
0
  3
AIGNBL02010032
  0
POLYLINE
  8
LAYER_2
 40
0.2469
 41
0.2469
 66
1
 10
0
 20
0
 30
0
  0
VERTEX
  8
LAYER_2
 10
81.6999
 20
90.4896
  0
VERTEX
  8
LAYER_2
 10
81.6999
 20
86.8329
  0
SEQEND
  0
ENDBLK
  0
BLOCK
  8
LAYER_2
  2
AIGNBL02010033
 70
64
 10
0
 20
0
 30
0
  3
AIGNBL02010033
  0
POLYLINE
  8
LAYER_2
 40
0.2469
 41
0.2469
 66
1
 10
0
 20
0
 30
0
  0
VERTEX
  8
LAYER_2
 10
84.2
 20
85.3901
  0
VERTEX
  8
LAYER_2
 10
81.6999
 20
86.8329
  0
SEQEND
  0
ENDBLK
  0
BLOCK
  8
LAYER_2
  2
AIGNBL02010034
 70
64
 10
0
 20
0
 30
0
  3
AIGNBL02010034
  0
POLYLINE
  8
LAYER_2
 40
0.2469
 41
0.2469
 66
1
 10
0
 20
0
 30
0
  0
VERTEX
  8
LAYER_2
 10
131.0001
 20
90.4896
  0
VERTEX
  8
LAYER_2
 10
131.0001
 20
86.8329
  0
SEQEND
  0
ENDBLK
  0
BLOCK
  8
LAYER_2
  2
AIGNBL02010035
 70
64
 10
0
 20
0
 30
0
  3
AIGNBL02010035
  0
POLYLINE
  8
LAYER_2
 40
0.2469
 41
0.2469
 66
1
 10
0
 20
0
 30
0
  0
VERTEX
  8
LAYER_2
 10
128.5
 20
85.3901
  0
VERTEX
  8
LAYER_2
 10
131.0001
 20
86.8329
  0
SEQEND
  0
ENDBLK
  0
BLOCK
  8
LAYER_2
  2
AIGNBL02010036
 70
64
 10
0
 20
0
 30
0
  3
AIGNBL02010036
  0
POLYLINE
  8
LAYER_2
 40
0.2469
 41
0.2469
 66
1
 10
0
 20
0
 30
0
  0
VERTEX
  8
LAYER_2
 10
120.7
 20
85.3901
  0
VERTEX
  8
LAYER_2
 10
118.1998
 20
86.8329
  0
SEQEND
  0
ENDBLK
  0
BLOCK
  8
LAYER_2
  2
AIGNBL02010037
 70
64
 10
0
 20
0
 30
0
  3
AIGNBL02010037
  0
POLYLINE
  8
LAYER_2
 40
0.2469
 41
0.2469
 66
1
 10
0
 20
0
 30
0
  0
VERTEX
  8
LAYER_2
 10
115.7001
 20
85.3901
  0
VERTEX
  8
LAYER_2
 10
118.1998
 20
86.8329
  0
SEQEND
  0
ENDBLK
  0
BLOCK
  8
LAYER_2
  2
AIGNBL02010038
 70
64
 10
0
 20
0
 30
0
  3
AIGNBL02010038
  0
POLYLINE
  8
LAYER_2
 40
0.2469
 41
0.2469
 66
1
 10
0
 20
0
 30
0
  0
VERTEX
  8
LAYER_2
 10
96.9999
 20
85.3901
  0
VERTEX
  8
LAYER_2
 10
94.5
 20
86.8329
  0
SEQEND
  0
ENDBLK
  0
BLOCK
  8
LAYER_2
  2
AIGNBL02010039
 70
64
 10
0
 20
0
 30
0
  3
AIGNBL02010039
  0
POLYLINE
  8
LAYER_2
 40
0.2469
 41
0.2469
 66
1
 10
0
 20
0
 30
0
  0
VERTEX
  8
LAYER_2
 10
91.9999
 20
85.3901
  0
VERTEX
  8
LAYER_2
 10
94.5
 20
86.8329
  0
SEQEND
  0
ENDBLK
  0
BLOCK
  8
LAYER_2
  2
AIGNBL0201003A
 70
64
 10
0
 20
0
 30
0
  3
AIGNBL0201003A
  0
POLYLINE
  8
LAYER_2
 40
0.2469
 41
0.2469
 66
1
 10
0
 20
0
 30
0
  0
VERTEX
  8
LAYER_2
 10
133.75
 20
94.7636
  0
VERTEX
  8
LAYER_2
 10
78.95
 20
94.7636
  0
SEQEND
  0
ENDBLK
  0
BLOCK
  8
LAYER_2
  2
AIGNBL0201003B
 70
64
 10
0
 20
0
 30
0
  3
AIGNBL0201003B
  0
POLYLINE
  8
LAYER_2
 40
0.2469
 41
0.2469
 66
1
 10
0
 20
0
 30
0
  0
VERTEX
  8
LAYER_2
 10
71.85
 20
103.3804
  0
VERTEX
  8
LAYER_2
 10
140.85
 20
103.3804
  0
SEQEND
  0
ENDBLK
  0
BLOCK
  8
LAYER_2
  2
AIGNBL0201003C
 70
64
 10
0
 20
0
 30
0
  3
AIGNBL0201003C
  0
POLYLINE
  8
LAYER_2
 40
0.2469
 41
0.2469
 66
1
 10
0
 20
0
 30
0
  0
VERTEX
  8
LAYER_2
 10
85.7
 20
67.8629
  0
VERTEX
  8
LAYER_2
 10
126.4726
 20
67.8629
  0
SEQEND
  0
ENDBLK
  0
BLOCK
  8
LAYER_2
  2
AIGNBL0201003D
 70
64
 10
0
 20
0
 30
0
  3
AIGNBL0201003D
  0
POLYLINE
  8
LAYER_2
 40
0.2469
 41
0.2469
 66
1
 10
0
 20
0
 30
0
  0
VERTEX
  8
LAYER_2
 10
85.7
 20
67.8629
  0
VERTEX
  8
LAYER_2
 10
127
 20
71.4499
  0
SEQEND
  0
ENDBLK
  0
BLOCK
  8
LAYER_2
  2
AIGNBL0201003E
 70
64
 10
0
 20
0
 30
0
  3
AIGNBL0201003E
  0
POLYLINE
  8
LAYER_2
 40
0.2469
 41
0.2469
 66
1
 10
0
 20
0
 30
0
  0
VERTEX
  8
LAYER_2
 10
103.0604
 20
67.8629
  0
VERTEX
  8
LAYER_2
 10
125.5
 20
69.8128
  0
SEQEND
  0
ENDBLK
  0
BLOCK
  8
LAYER_2
  2
AIGNBL0201003F
 70
64
 10
0
 20
0
 30
0
  3
AIGNBL0201003F
  0
POLYLINE
  8
LAYER_2
 40
0.2469
 41
0.2469
 66
1
 10
0
 20
0
 30
0
  0
VERTEX
  8
LAYER_2
 10
120.271
 20
67.8629
  0
VERTEX
  8
LAYER_2
 10
127
 20
68.4389
  0
SEQEND
  0
ENDBLK
  0
BLOCK
  8
LAYER_2
  2
AIGNBL02010040
 70
64
 10
0
 20
0
 30
0
  3
AIGNBL02010040
  0
POLYLINE
  8
LAYER_2
 40
0.2469
 41
0.2469
 66
1
 10
0
 20
0
 30
0
  0
VERTEX
  8
LAYER_2
 10
87.2
 20
69.5
  0
VERTEX
  8
LAYER_2
 10
125.5
 20
72.8245
  0
SEQEND
  0
ENDBLK
  0
BLOCK
  8
LAYER_2
  2
AIGNBL02010041
 70
64
 10
0
 20
0
 30
0
  3
AIGNBL02010041
  0
POLYLINE
  8
LAYER_2
 40
0.2469
 41
0.2469
 66
1
 10
0
 20
0
 30
0
  0
VERTEX
  8
LAYER_2
 10
85.7
 20
70.8746
  0
VERTEX
  8
LAYER_2
 10
127
 20
74.4616
  0
SEQEND
  0
ENDBLK
  0
BLOCK
  8
LAYER_2
  2
AIGNBL02010042
 70
64
 10
0
 20
0
 30
0
  3
AIGNBL02010042
  0
POLYLINE
  8
LAYER_2
 40
0.2469
 41
0.2469
 66
1
 10
0
 20
0
 30
0
  0
VERTEX
  8
LAYER_2
 10
87.2
 20
72.5117
  0
VERTEX
  8
LAYER_2
 10
125.5
 20
75.8362
  0
SEQEND
  0
ENDBLK
  0
BLOCK
  8
LAYER_2
  2
AIGNBL02010043
 70
64
 10
0
 20
0
 30
0
  3
AIGNBL02010043
  0
POLYLINE
  8
LAYER_2
 40
0.2469
 41
0.2469
 66
1
 10
0
 20
0
 30
0
  0
VERTEX
  8
LAYER_2
 10
85.7
 20
73.8863
  0
VERTEX
  8
LAYER_2
 10
127
 20
77.4733
  0
SEQEND
  0
ENDBLK
  0
BLOCK
  8
LAYER_2
  2
AIGNBL02010044
 70
64
 10
0
 20
0
 30
0
  3
AIGNBL02010044
  0
POLYLINE
  8
LAYER_2
 40
0.2469
 41
0.2469
 66
1
 10
0
 20
0
 30
0
  0
VERTEX
  8
LAYER_2
 10
87.2
 20
75.5227
  0
VERTEX
  8
LAYER_2
 10
125.5
 20
78.8472
  0
SEQEND
  0
ENDBLK
  0
BLOCK
  8
LAYER_2
  2
AIGNBL02010045
 70
64
 10
0
 20
0
 30
0
  3
AIGNBL02010045
  0
POLYLINE
  8
LAYER_2
 40
0.2469
 41
0.2469
 66
1
 10
0
 20
0
 30
0
  0
VERTEX
  8
LAYER_2
 10
125.5
 20
69.8128
  0
VERTEX
  8
LAYER_2
 10
127
 20
71.4499
  0
SEQEND
  0
ENDBLK
  0
BLOCK
  8
LAYER_2
  2
AIGNBL02010046
 70
64
 10
0
 20
0
 30
0
  3
AIGNBL02010046
  0
POLYLINE
  8
LAYER_2
 40
0.2469
 41
0.2469
 66
1
 10
0
 20
0
 30
0
  0
VERTEX
  8
LAYER_2
 10
127
 20
71.4499
  0
VERTEX
  8
LAYER_2
 10
125.5
 20
72.8245
  0
SEQEND
  0
ENDBLK
  0
BLOCK
  8
LAYER_2
  2
AIGNBL02010047
 70
64
 10
0
 20
0
 30
0
  3
AIGNBL02010047
  0
POLYLINE
  8
LAYER_2
 40
0.2469
 41
0.2469
 66
1
 10
0
 20
0
 30
0
  0
VERTEX
  8
LAYER_2
 10
125.5
 20
72.8245
  0
VERTEX
  8
LAYER_2
 10
127
 20
74.4616
  0
SEQEND
  0
ENDBLK
  0
BLOCK
  8
LAYER_2
  2
AIGNBL02010048
 70
64
 10
0
 20
0
 30
0
  3
AIGNBL02010048
  0
POLYLINE
  8
LAYER_2
 40
0.2469
 41
0.2469
 66
1
 10
0
 20
0
 30
0
  0
VERTEX
  8
LAYER_2
 10
127
 20
74.4616
  0
VERTEX
  8
LAYER_2
 10
125.5
 20
75.8362
  0
SEQEND
  0
ENDBLK
  0
BLOCK
  8
LAYER_2
  2
AIGNBL02010049
 70
64
 10
0
 20
0
 30
0
  3
AIGNBL02010049
  0
POLYLINE
  8
LAYER_2
 40
0.2469
 41
0.2469
 66
1
 10
0
 20
0
 30
0
  0
VERTEX
  8
LAYER_2
 10
125.5
 20
75.8362
  0
VERTEX
  8
LAYER_2
 10
127
 20
77.4733
  0
SEQEND
  0
ENDBLK
  0
BLOCK
  8
LAYER_2
  2
AIGNBL0201004A
 70
64
 10
0
 20
0
 30
0
  3
AIGNBL0201004A
  0
POLYLINE
  8
LAYER_2
 40
0.2469
 41
0.2469
 66
1
 10
0
 20
0
 30
0
  0
VERTEX
  8
LAYER_2
 10
127
 20
77.4733
  0
VERTEX
  8
LAYER_2
 10
125.5
 20
78.8472
  0
SEQEND
  0
ENDBLK
  0
BLOCK
  8
LAYER_2
  2
AIGNBL0201004B
 70
64
 10
0
 20
0
 30
0
  3
AIGNBL0201004B
  0
POLYLINE
  8
LAYER_2
 40
0.2469
 41
0.2469
 66
1
 10
0
 20
0
 30
0
  0
VERTEX
  8
LAYER_2
 10
85.7
 20
70.8746
  0
VERTEX
  8
LAYER_2
 10
87.2
 20
72.5117
  0
SEQEND
  0
ENDBLK
  0
BLOCK
  8
LAYER_2
  2
AIGNBL0201004C
 70
64
 10
0
 20
0
 30
0
  3
AIGNBL0201004C
  0
POLYLINE
  8
LAYER_2
 40
0.2469
 41
0.2469
 66
1
 10
0
 20
0
 30
0
  0
VERTEX
  8
LAYER_2
 10
85.7
 20
70.8746
  0
VERTEX
  8
LAYER_2
 10
87.2
 20
69.5
  0
SEQEND
  0
ENDBLK
  0
BLOCK
  8
LAYER_2
  2
AIGNBL0201004D
 70
64
 10
0
 20
0
 30
0
  3
AIGNBL0201004D
  0
POLYLINE
  8
LAYER_2
 40
0.2469
 41
0.2469
 66
1
 10
0
 20
0
 30
0
  0
VERTEX
  8
LAYER_2
 10
87.2
 20
69.5
  0
VERTEX
  8
LAYER_2
 10
85.7
 20
67.8629
  0
SEQEND
  0
ENDBLK
  0
BLOCK
  8
LAYER_2
  2
AIGNBL0201004E
 70
64
 10
0
 20
0
 30
0
  3
AIGNBL0201004E
  0
POLYLINE
  8
LAYER_2
 40
0.2469
 41
0.2469
 66
1
 10
0
 20
0
 30
0
  0
VERTEX
  8
LAYER_2
 10
87.2
 20
72.5117
  0
VERTEX
  8
LAYER_2
 10
85.7
 20
73.8863
  0
SEQEND
  0
ENDBLK
  0
BLOCK
  8
LAYER_2
  2
AIGNBL0201004F
 70
64
 10
0
 20
0
 30
0
  3
AIGNBL0201004F
  0
POLYLINE
  8
LAYER_2
 40
0.2469
 41
0.2469
 66
1
 10
0
 20
0
 30
0
  0
VERTEX
  8
LAYER_2
 10
85.7
 20
73.8863
  0
VERTEX
  8
LAYER_2
 10
87.2
 20
75.5227
  0
SEQEND
  0
ENDBLK
  0
BLOCK
  8
LAYER_2
  2
AIGNBL02010050
 70
64
 10
0
 20
0
 30
0
  3
AIGNBL02010050
  0
POLYLINE
  8
LAYER_2
 40
0.2469
 41
0.2469
 66
1
 10
0
 20
0
 30
0
  0
VERTEX
  8
LAYER_2
 10
127
 20
68.4389
  0
VERTEX
  8
LAYER_2
 10
125.5
 20
69.8128
  0
SEQEND
  0
ENDBLK
  0
BLOCK
  8
LAYER_2
  2
AIGNBL02010051
 70
64
 10
0
 20
0
 30
0
  3
AIGNBL02010051
  0
POLYLINE
  8
LAYER_2
 40
0.2469
 41
0.2469
 66
1
 10
0
 20
0
 30
0
  0
VERTEX
  8
LAYER_2
 10
126.4726
 20
67.8629
  0
VERTEX
  8
LAYER_2
 10
127
 20
68.4389
  0
SEQEND
  0
ENDBLK
  0
BLOCK
  8
LAYER_2
  2
AIGNBL02010052
 70
64
 10
0
 20
0
 30
0
  3
AIGNBL02010052
  0
POLYLINE
  8
LAYER_2
 40
0.2469
 41
0.2469
 66
1
 10
0
 20
0
 30
0
  0
VERTEX
  8
LAYER_2
 10
85.7
 20
76.8973
  0
VERTEX
  8
LAYER_2
 10
127
 20
80.4843
  0
SEQEND
  0
ENDBLK
  0
BLOCK
  8
LAYER_2
  2
AIGNBL02010053
 70
64
 10
0
 20
0
 30
0
  3
AIGNBL02010053
  0
POLYLINE
  8
LAYER_2
 40
0.2469
 41
0.2469
 66
1
 10
0
 20
0
 30
0
  0
VERTEX
  8
LAYER_2
 10
87.2
 20
78.5344
  0
VERTEX
  8
LAYER_2
 10
125.5
 20
81.8589
  0
SEQEND
  0
ENDBLK
  0
BLOCK
  8
LAYER_2
  2
AIGNBL02010054
 70
64
 10
0
 20
0
 30
0
  3
AIGNBL02010054
  0
POLYLINE
  8
LAYER_2
 40
0.2469
 41
0.2469
 66
1
 10
0
 20
0
 30
0
  0
VERTEX
  8
LAYER_2
 10
125.5
 20
78.8472
  0
VERTEX
  8
LAYER_2
 10
127
 20
80.4843
  0
SEQEND
  0
ENDBLK
  0
BLOCK
  8
LAYER_2
  2
AIGNBL02010055
 70
64
 10
0
 20
0
 30
0
  3
AIGNBL02010055
  0
POLYLINE
  8
LAYER_2
 40
0.2469
 41
0.2469
 66
1
 10
0
 20
0
 30
0
  0
VERTEX
  8
LAYER_2
 10
127
 20
80.4843
  0
VERTEX
  8
LAYER_2
 10
125.5
 20
81.8589
  0
SEQEND
  0
ENDBLK
  0
BLOCK
  8
LAYER_2
  2
AIGNBL02010056
 70
64
 10
0
 20
0
 30
0
  3
AIGNBL02010056
  0
POLYLINE
  8
LAYER_2
 40
0.2469
 41
0.2469
 66
1
 10
0
 20
0
 30
0
  0
VERTEX
  8
LAYER_2
 10
87.2
 20
75.5227
  0
VERTEX
  8
LAYER_2
 10
85.7
 20
76.8973
  0
SEQEND
  0
ENDBLK
  0
BLOCK
  8
LAYER_2
  2
AIGNBL02010057
 70
64
 10
0
 20
0
 30
0
  3
AIGNBL02010057
  0
POLYLINE
  8
LAYER_2
 40
0.2469
 41
0.2469
 66
1
 10
0
 20
0
 30
0
  0
VERTEX
  8
LAYER_2
 10
85.7
 20
76.8973
  0
VERTEX
  8
LAYER_2
 10
87.2
 20
78.5344
  0
SEQEND
  0
ENDBLK
  0
BLOCK
  8
LAYER_2
  2
AIGNBL02010058
 70
64
 10
0
 20
0
 30
0
  3
AIGNBL02010058
  0
POLYLINE
  8
LAYER_2
 40
0.2469
 41
0.2469
 66
1
 10
0
 20
0
 30
0
  0
VERTEX
  8
LAYER_2
 10
85.7
 20
79.909
  0
VERTEX
  8
LAYER_2
 10
127
 20
83.496
  0
SEQEND
  0
ENDBLK
  0
BLOCK
  8
LAYER_2
  2
AIGNBL02010059
 70
64
 10
0
 20
0
 30
0
  3
AIGNBL02010059
  0
POLYLINE
  8
LAYER_2
 40
0.2469
 41
0.2469
 66
1
 10
0
 20
0
 30
0
  0
VERTEX
  8
LAYER_2
 10
87.2
 20
81.5461
  0
VERTEX
  8
LAYER_2
 10
125.5
 20
84.8706
  0
SEQEND
  0
ENDBLK
  0
BLOCK
  8
LAYER_2
  2
AIGNBL0201005A
 70
64
 10
0
 20
0
 30
0
  3
AIGNBL0201005A
  0
POLYLINE
  8
LAYER_2
 40
0.2469
 41
0.2469
 66
1
 10
0
 20
0
 30
0
  0
VERTEX
  8
LAYER_2
 10
125.5
 20
81.8589
  0
VERTEX
  8
LAYER_2
 10
127
 20
83.496
  0
SEQEND
  0
ENDBLK
  0
BLOCK
  8
LAYER_2
  2
AIGNBL0201005B
 70
64
 10
0
 20
0
 30
0
  3
AIGNBL0201005B
  0
POLYLINE
  8
LAYER_2
 40
0.2469
 41
0.2469
 66
1
 10
0
 20
0
 30
0
  0
VERTEX
  8
LAYER_2
 10
127
 20
83.496
  0
VERTEX
  8
LAYER_2
 10
125.5
 20
84.8706
  0
SEQEND
  0
ENDBLK
  0
BLOCK
  8
LAYER_2
  2
AIGNBL0201005C
 70
64
 10
0
 20
0
 30
0
  3
AIGNBL0201005C
  0
POLYLINE
  8
LAYER_2
 40
0.2469
 41
0.2469
 66
1
 10
0
 20
0
 30
0
  0
VERTEX
  8
LAYER_2
 10
87.2
 20
78.5344
  0
VERTEX
  8
LAYER_2
 10
85.7
 20
79.909
  0
SEQEND
  0
ENDBLK
  0
BLOCK
  8
LAYER_2
  2
AIGNBL0201005D
 70
64
 10
0
 20
0
 30
0
  3
AIGNBL0201005D
  0
POLYLINE
  8
LAYER_2
 40
0.2469
 41
0.2469
 66
1
 10
0
 20
0
 30
0
  0
VERTEX
  8
LAYER_2
 10
85.7
 20
79.909
  0
VERTEX
  8
LAYER_2
 10
87.2
 20
81.5461
  0
SEQEND
  0
ENDBLK
  0
BLOCK
  8
LAYER_2
  2
AIGNBL0201005E
 70
64
 10
0
 20
0
 30
0
  3
AIGNBL0201005E
  0
POLYLINE
  8
LAYER_2
 40
0.2469
 41
0.2469
 66
1
 10
0
 20
0
 30
0
  0
VERTEX
  8
LAYER_2
 10
85.7
 20
82.92
  0
VERTEX
  8
LAYER_2
 10
114.1332
 20
85.3901
  0
SEQEND
  0
ENDBLK
  0
BLOCK
  8
LAYER_2
  2
AIGNBL0201005F
 70
64
 10
0
 20
0
 30
0
  3
AIGNBL0201005F
  0
POLYLINE
  8
LAYER_2
 40
0.2469
 41
0.2469
 66
1
 10
0
 20
0
 30
0
  0
VERTEX
  8
LAYER_2
 10
87.2
 20
84.5571
  0
VERTEX
  8
LAYER_2
 10
96.7912
 20
85.3901
  0
SEQEND
  0
ENDBLK
  0
BLOCK
  8
LAYER_2
  2
AIGNBL02010060
 70
64
 10
0
 20
0
 30
0
  3
AIGNBL02010060
  0
POLYLINE
  8
LAYER_2
 40
0.2469
 41
0.2469
 66
1
 10
0
 20
0
 30
0
  0
VERTEX
  8
LAYER_2
 10
125.5
 20
84.8706
  0
VERTEX
  8
LAYER_2
 10
125.9758
 20
85.3901
  0
SEQEND
  0
ENDBLK
  0
BLOCK
  8
LAYER_2
  2
AIGNBL02010061
 70
64
 10
0
 20
0
 30
0
  3
AIGNBL02010061
  0
POLYLINE
  8
LAYER_2
 40
0.2469
 41
0.2469
 66
1
 10
0
 20
0
 30
0
  0
VERTEX
  8
LAYER_2
 10
87.2
 20
81.5461
  0
VERTEX
  8
LAYER_2
 10
85.7
 20
82.92
  0
SEQEND
  0
ENDBLK
  0
BLOCK
  8
LAYER_2
  2
AIGNBL02010062
 70
64
 10
0
 20
0
 30
0
  3
AIGNBL02010062
  0
POLYLINE
  8
LAYER_2
 40
0.2469
 41
0.2469
 66
1
 10
0
 20
0
 30
0
  0
VERTEX
  8
LAYER_2
 10
85.7
 20
82.92
  0
VERTEX
  8
LAYER_2
 10
87.2
 20
84.5571
  0
SEQEND
  0
ENDBLK
  0
BLOCK
  8
LAYER_2
  2
AIGNBL02010063
 70
64
 10
0
 20
0
 30
0
  3
AIGNBL02010063
  0
POLYLINE
  8
LAYER_2
 40
0.2469
 41
0.2469
 66
1
 10
0
 20
0
 30
0
  0
VERTEX
  8
LAYER_2
 10
87.2
 20
84.5571
  0
VERTEX
  8
LAYER_2
 10
86.2914
 20
85.3901
  0
SEQEND
  0
ENDBLK
  0
BLOCK
  8
LAYER_2
  2
AIGNBL02010064
 70
64
 10
0
 20
0
 30
0
  3
AIGNBL02010064
  0
POLYLINE
  8
LAYER_2
 40
0.2469
 41
0.2469
 66
1
 10
0
 20
0
 30
0
  0
VERTEX
  8
LAYER_2
 10
106.3501
 20
118.339
  0
VERTEX
  8
LAYER_2
 10
92.85
 20
118.339
  0
SEQEND
  0
ENDBLK
  0
BLOCK
  8
LAYER_2
  2
AIGNBL02010065
 70
64
 10
0
 20
0
 30
0
  3
AIGNBL02010065
  0
POLYLINE
  8
LAYER_2
 40
0.2469
 41
0.2469
 66
1
 10
0
 20
0
 30
0
  0
VERTEX
  8
LAYER_2
 10
106.3501
 20
128.839
  0
VERTEX
  8
LAYER_2
 10
92.85
 20
128.839
  0
SEQEND
  0
ENDBLK
  0
BLOCK
  8
LAYER_2
  2
AIGNBL02010066
 70
64
 10
0
 20
0
 30
0
  3
AIGNBL02010066
  0
POLYLINE
  8
LAYER_2
 40
0.2469
 41
0.2469
 66
1
 10
0
 20
0
 30
0
  0
VERTEX
  8
LAYER_2
 10
92.85
 20
118.339
  0
VERTEX
  8
LAYER_2
 10
92.85
 20
128.839
  0
SEQEND
  0
ENDBLK
  0
BLOCK
  8
LAYER_2
  2
AIGNBL02010067
 70
64
 10
0
 20
0
 30
0
  3
AIGNBL02010067
  0
POLYLINE
  8
LAYER_2
 40
0.2469
 41
0.2469
 66
1
 10
0
 20
0
 30
0
  0
VERTEX
  8
LAYER_2
 10
78.85
 20
94.7636
  0
VERTEX
  8
LAYER_2
 10
133.8499
 20
94.7636
  0
SEQEND
  0
ENDBLK
  0
BLOCK
  8
LAYER_2
  2
AIGNBL02010068
 70
64
 10
0
 20
0
 30
0
  3
AIGNBL02010068
  0
POLYLINE
  8
LAYER_2
 40
0.2469
 41
0.2469
 66
1
 10
0
 20
0
 30
0
  0
VERTEX
  8
LAYER_2
 10
133.8499
 20
94.7636
  0
VERTEX
  8
LAYER_2
 10
133.8499
 20
93.564
  0
SEQEND
  0
ENDBLK
  0
BLOCK
  8
LAYER_2
  2
AIGNBL02010069
 70
64
 10
0
 20
0
 30
0
  3
AIGNBL02010069
  0
POLYLINE
  8
LAYER_2
 40
0.2469
 41
0.2469
 66
1
 10
0
 20
0
 30
0
  0
VERTEX
  8
LAYER_2
 10
133.8499
 20
93.564
  0
VERTEX
  8
LAYER_2
 10
78.85
 20
93.564
  0
SEQEND
  0
ENDBLK
  0
BLOCK
  8
LAYER_2
  2
AIGNBL0201006A
 70
64
 10
0
 20
0
 30
0
  3
AIGNBL0201006A
  0
POLYLINE
  8
LAYER_2
 40
0.2469
 41
0.2469
 66
1
 10
0
 20
0
 30
0
  0
VERTEX
  8
LAYER_2
 10
78.85
 20
93.564
  0
VERTEX
  8
LAYER_2
 10
78.85
 20
94.7636
  0
SEQEND
  0
ENDBLK
  0
BLOCK
  8
LAYER_2
  2
AIGNBL0201006B
 70
64
 10
0
 20
0
 30
0
  3
AIGNBL0201006B
  0
POLYLINE
  8
LAYER_2
 40
0.2469
 41
0.2469
 66
1
 10
0
 20
0
 30
0
  0
VERTEX
  8
LAYER_2
 10
84.6499
 20
135.7609
  0
VERTEX
  8
LAYER_2
 10
128.0501
 20
135.7609
  0
SEQEND
  0
ENDBLK
  0
BLOCK
  8
LAYER_2
  2
AIGNBL0201006C
 70
64
 10
0
 20
0
 30
0
  3
AIGNBL0201006C
  0
POLYLINE
  8
LAYER_2
 40
0.2469
 41
0.2469
 66
1
 10
0
 20
0
 30
0
  0
VERTEX
  8
LAYER_2
 10
75.3499
 20
143.6612
  0
VERTEX
  8
LAYER_2
 10
137.3501
 20
143.6612
  0
SEQEND
  0
ENDBLK
  0
BLOCK
  8
LAYER_2
  2
AIGNBL0201006D
 70
64
 10
0
 20
0
 30
0
  3
AIGNBL0201006D
  0
POLYLINE
  8
LAYER_2
 40
0.2469
 41
0.2469
 66
1
 10
0
 20
0
 30
0
  0
VERTEX
  8
LAYER_2
 10
75.85
 20
142.0611
  0
VERTEX
  8
LAYER_2
 10
136.8499
 20
142.0611
  0
SEQEND
  0
ENDBLK
  0
BLOCK
  8
LAYER_2
  2
AIGNBL0201006E
 70
64
 10
0
 20
0
 30
0
  3
AIGNBL0201006E
  0
POLYLINE
  8
LAYER_2
 40
0.2469
 41
0.2469
 66
1
 10
0
 20
0
 30
0
  0
VERTEX
  8
LAYER_2
 10
136.8499
 20
142.0611
  0
VERTEX
  8
LAYER_2
 10
136.8499
 20
143.6612
  0
SEQEND
  0
ENDBLK
  0
BLOCK
  8
LAYER_2
  2
AIGNBL0201006F
 70
64
 10
0
 20
0
 30
0
  3
AIGNBL0201006F
  0
POLYLINE
  8
LAYER_2
 40
0.2469
 41
0.2469
 66
1
 10
0
 20
0
 30
0
  0
VERTEX
  8
LAYER_2
 10
75.85
 20
142.0611
  0
VERTEX
  8
LAYER_2
 10
75.85
 20
143.6612
  0
SEQEND
  0
ENDBLK
  0
BLOCK
  8
LAYER_2
  2
AIGNBL02010070
 70
64
 10
0
 20
0
 30
0
  3
AIGNBL02010070
  0
POLYLINE
  8
LAYER_2
 40
0.2469
 41
0.2469
 66
1
 10
0
 20
0
 30
0
  0
VERTEX
  8
LAYER_2
 10
84.6499
 20
135.7609
  0
VERTEX
  8
LAYER_2
 10
79.0999
 20
142.0611
  0
SEQEND
  0
ENDBLK
  0
BLOCK
  8
LAYER_2
  2
AIGNBL02010071
 70
64
 10
0
 20
0
 30
0
  3
AIGNBL02010071
  0
POLYLINE
  8
LAYER_2
 40
0.2469
 41
0.2469
 66
1
 10
0
 20
0
 30
0
  0
VERTEX
  8
LAYER_2
 10
128.0501
 20
135.7609
  0
VERTEX
  8
LAYER_2
 10
133.6001
 20
142.0611
  0
SEQEND
  0
ENDBLK
  0
BLOCK
  8
LAYER_2
  2
AIGNBL02010072
 70
64
 10
0
 20
0
 30
0
  3
AIGNBL02010072
  0
POLYLINE
  8
LAYER_2
 40
0.2469
 41
0.2469
 66
1
 10
0
 20
0
 30
0
  0
VERTEX
  8
LAYER_2
 10
88.0146
 20
198.4802
  0
VERTEX
  8
LAYER_2
 10
124.6146
 20
198.4802
  0
SEQEND
  0
ENDBLK
  0
BLOCK
  8
LAYER_2
  2
AIGNBL02010073
 70
64
 10
0
 20
0
 30
0
  3
AIGNBL02010073
  0
POLYLINE
  8
LAYER_2
 40
0.2469
 41
0.2469
 66
1
 10
0
 20
0
 30
0
  0
VERTEX
  8
LAYER_2
 10
88.0146
 20
204.9801
  0
VERTEX
  8
LAYER_2
 10
124.6146
 20
204.9801
  0
SEQEND
  0
ENDBLK
  0
BLOCK
  8
LAYER_2
  2
AIGNBL02010074
 70
64
 10
0
 20
0
 30
0
  3
AIGNBL02010074
  0
POLYLINE
  8
LAYER_2
 40
0.2469
 41
0.2469
 66
1
 10
0
 20
0
 30
0
  0
VERTEX
  8
LAYER_2
 10
88.0146
 20
203.88
  0
VERTEX
  8
LAYER_2
 10
124.6146
 20
203.88
  0
SEQEND
  0
ENDBLK
  0
BLOCK
  8
LAYER_2
  2
AIGNBL02010075
 70
64
 10
0
 20
0
 30
0
  3
AIGNBL02010075
  0
POLYLINE
  8
LAYER_2
 40
0.2469
 41
0.2469
 66
1
 10
0
 20
0
 30
0
  0
VERTEX
  8
LAYER_2
 10
88.0146
 20
199.5801
  0
VERTEX
  8
LAYER_2
 10
124.6146
 20
199.5801
  0
SEQEND
  0
ENDBLK
  0
BLOCK
  8
LAYER_2
  2
AIGNBL02010076
 70
64
 10
0
 20
0
 30
0
  3
AIGNBL02010076
  0
POLYLINE
  8
LAYER_2
 40
0.2469
 41
0.2469
 66
1
 10
0
 20
0
 30
0
  0
VERTEX
  8
LAYER_2
 10
122.6147
 20
204.9801
  0
VERTEX
  8
LAYER_2
 10
122.6147
 20
209.5801
  0
SEQEND
  0
ENDBLK
  0
BLOCK
  8
LAYER_2
  2
AIGNBL02010077
 70
64
 10
0
 20
0
 30
0
  3
AIGNBL02010077
  0
POLYLINE
  8
LAYER_2
 40
0.2469
 41
0.2469
 66
1
 10
0
 20
0
 30
0
  0
VERTEX
  8
LAYER_2
 10
90.0147
 20
204.9801
  0
VERTEX
  8
LAYER_2
 10
90.0147
 20
209.5801
  0
SEQEND
  0
ENDBLK
  0
BLOCK
  8
LAYER_2
  2
AIGNBL02010078
 70
64
 10
0
 20
0
 30
0
  3
AIGNBL02010078
  0
POLYLINE
  8
LAYER_2
 40
0.2469
 41
0.2469
 66
1
 10
0
 20
0
 30
0
  0
VERTEX
  8
LAYER_2
 10
124.6146
 20
198.4802
  0
VERTEX
  8
LAYER_2
 10
124.6146
 20
199.5801
  0
SEQEND
  0
ENDBLK
  0
BLOCK
  8
LAYER_2
  2
AIGNBL02010079
 70
64
 10
0
 20
0
 30
0
  3
AIGNBL02010079
  0
POLYLINE
  8
LAYER_2
 40
0.2469
 41
0.2469
 66
1
 10
0
 20
0
 30
0
  0
VERTEX
  8
LAYER_2
 10
88.0146
 20
198.4802
  0
VERTEX
  8
LAYER_2
 10
88.0146
 20
199.5801
  0
SEQEND
  0
ENDBLK
  0
BLOCK
  8
LAYER_2
  2
AIGNBL0201007A
 70
64
 10
0
 20
0
 30
0
  3
AIGNBL0201007A
  0
POLYLINE
  8
LAYER_2
 40
0.2469
 41
0.2469
 66
1
 10
0
 20
0
 30
0
  0
VERTEX
  8
LAYER_2
 10
138.4146
 20
209.5801
  0
VERTEX
  8
LAYER_2
 10
74.2146
 20
209.5801
  0
SEQEND
  0
ENDBLK
  0
BLOCK
  8
LAYER_2
  2
AIGNBL0201007B
 70
64
 10
0
 20
0
 30
0
  3
AIGNBL0201007B
  0
POLYLINE
  8
LAYER_2
 40
0.2469
 41
0.2469
 66
1
 10
0
 20
0
 30
0
  0
VERTEX
  8
LAYER_2
 10
88.0146
 20
203.88
  0
VERTEX
  8
LAYER_2
 10
88.0146
 20
204.9801
  0
SEQEND
  0
ENDBLK
  0
BLOCK
  8
LAYER_2
  2
AIGNBL0201007C
 70
64
 10
0
 20
0
 30
0
  3
AIGNBL0201007C
  0
POLYLINE
  8
LAYER_2
 40
0.2469
 41
0.2469
 66
1
 10
0
 20
0
 30
0
  0
VERTEX
  8
LAYER_2
 10
124.6146
 20
203.88
  0
VERTEX
  8
LAYER_2
 10
124.6146
 20
204.9801
  0
SEQEND
  0
ENDBLK
  0
BLOCK
  8
LAYER_2
  2
AIGNBL0201007D
 70
64
 10
0
 20
0
 30
0
  3
AIGNBL0201007D
  0
POLYLINE
  8
LAYER_2
 40
0.2469
 41
0.2469
 66
1
 10
0
 20
0
 30
0
  0
VERTEX
  8
LAYER_2
 10
126.0646
 20
201.9301
  0
VERTEX
  8
LAYER_2
 10
126.0646
 20
201.5302
  0
SEQEND
  0
ENDBLK
  0
BLOCK
  8
LAYER_2
  2
AIGNBL0201007E
 70
64
 10
0
 20
0
 30
0
  3
AIGNBL0201007E
  0
POLYLINE
  8
LAYER_2
 40
0.2469
 41
0.2469
 66
1
 10
0
 20
0
 30
0
  0
VERTEX
  8
LAYER_2
 10
86.5646
 20
201.9301
  0
VERTEX
  8
LAYER_2
 10
86.5646
 20
201.5302
  0
SEQEND
  0
ENDBLK
  0
BLOCK
  8
LAYER_2
  2
AIGNBL0201007F
 70
64
 10
0
 20
0
 30
0
  3
AIGNBL0201007F
  0
POLYLINE
  8
LAYER_2
 40
0.2469
 41
0.2469
 66
1
 10
0
 20
0
 30
0
  0
VERTEX
  8
LAYER_2
 10
89.2145
 20
203.88
  0
VERTEX
  8
LAYER_2
 10
123.4147
 20
203.88
  0
SEQEND
  0
ENDBLK
  0
BLOCK
  8
LAYER_2
  2
AIGNBL02010080
 70
64
 10
0
 20
0
 30
0
  3
AIGNBL02010080
  0
POLYLINE
  8
LAYER_2
 40
0.2469
 41
0.2469
 66
1
 10
0
 20
0
 30
0
  0
VERTEX
  8
LAYER_2
 10
89.2145
 20
199.5801
  0
VERTEX
  8
LAYER_2
 10
123.4147
 20
199.5801
  0
SEQEND
  0
ENDBLK
  0
BLOCK
  8
LAYER_2
  2
AIGNBL02010081
 70
64
 10
0
 20
0
 30
0
  3
AIGNBL02010081
  0
POLYLINE
  8
LAYER_2
 40
0.2469
 41
0.2469
 66
1
 10
0
 20
0
 30
0
  0
VERTEX
  8
LAYER_2
 10
126.0646
 20
201.5302
  0
VERTEX
  8
LAYER_2
 10
86.5646
 20
201.5302
  0
SEQEND
  0
ENDBLK
  0
BLOCK
  8
LAYER_2
  2
AIGNBL02010082
 70
64
 10
0
 20
0
 30
0
  3
AIGNBL02010082
  0
POLYLINE
  8
LAYER_2
 40
0.2469
 41
0.2469
 66
1
 10
0
 20
0
 30
0
  0
VERTEX
  8
LAYER_2
 10
126.0646
 20
201.9301
  0
VERTEX
  8
LAYER_2
 10
86.5646
 20
201.9301
  0
SEQEND
  0
ENDBLK
  0
BLOCK
  8
LAYER_2
  2
AIGNBL02010083
 70
64
 10
0
 20
0
 30
0
  3
AIGNBL02010083
  0
POLYLINE
  8
LAYER_2
 40
0.2469
 41
0.2469
 66
1
 10
0
 20
0
 30
0
  0
VERTEX
  8
LAYER_2
 10
88.0645
 20
201.5302
  0
VERTEX
  8
LAYER_2
 10
89.2145
 20
199.5801
  0
SEQEND
  0
ENDBLK
  0
BLOCK
  8
LAYER_2
  2
AIGNBL02010084
 70
64
 10
0
 20
0
 30
0
  3
AIGNBL02010084
  0
POLYLINE
  8
LAYER_2
 40
0.2469
 41
0.2469
 66
1
 10
0
 20
0
 30
0
  0
VERTEX
  8
LAYER_2
 10
88.0645
 20
201.9301
  0
VERTEX
  8
LAYER_2
 10
89.2145
 20
203.88
  0
SEQEND
  0
ENDBLK
  0
BLOCK
  8
LAYER_2
  2
AIGNBL02010085
 70
64
 10
0
 20
0
 30
0
  3
AIGNBL02010085
  0
POLYLINE
  8
LAYER_2
 40
0.2469
 41
0.2469
 66
1
 10
0
 20
0
 30
0
  0
VERTEX
  8
LAYER_2
 10
124.5647
 20
201.5302
  0
VERTEX
  8
LAYER_2
 10
123.4147
 20
199.5801
  0
SEQEND
  0
ENDBLK
  0
BLOCK
  8
LAYER_2
  2
AIGNBL02010086
 70
64
 10
0
 20
0
 30
0
  3
AIGNBL02010086
  0
POLYLINE
  8
LAYER_2
 40
0.2469
 41
0.2469
 66
1
 10
0
 20
0
 30
0
  0
VERTEX
  8
LAYER_2
 10
124.5647
 20
201.9301
  0
VERTEX
  8
LAYER_2
 10
123.4147
 20
203.88
  0
SEQEND
  0
ENDBLK
  0
BLOCK
  8
LAYER_2
  2
AIGNBL02010087
 70
64
 10
0
 20
0
 30
0
  3
AIGNBL02010087
  0
POLYLINE
  8
LAYER_2
 40
0.2469
 41
0.2469
 66
1
 10
0
 20
0
 30
0
  0
VERTEX
  8
LAYER_2
 10
71.85
 20
103.3804
 42
0.3535180823
  0
VERTEX
  8
LAYER_2
 10
81.6271
 20
95.4808
  0
SEQEND
  0
ENDBLK
  0
BLOCK
  8
LAYER_2
  2
AIGNBL02010088
 70
64
 10
0
 20
0
 30
0
  3
AIGNBL02010088
  0
POLYLINE
  8
LAYER_2
 40
0.2469
 41
0.2469
 66
1
 10
0
 20
0
 30
0
  0
VERTEX
  8
LAYER_2
 10
131.0731
 20
95.4808
 42
0.3535178173
  0
VERTEX
  8
LAYER_2
 10
140.85
 20
103.3804
  0
SEQEND
  0
ENDBLK
  0
BLOCK
  8
LAYER_2
  2
AIGNBL02010089
 70
64
 10
0
 20
0
 30
0
  3
AIGNBL02010089
  0
POLYLINE
  8
LAYER_2
 40
0.2469
 41
0.2469
 66
1
 10
0
 20
0
 30
0
  0
VERTEX
  8
LAYER_2
 10
106.8162
 20
218.4775
 42
0.108221256
  0
VERTEX
  8
LAYER_2
 10
73.7188
 20
211.4486
  0
SEQEND
  0
ENDBLK
  0
BLOCK
  8
LAYER_2
  2
AIGNBL0201008A
 70
64
 10
0
 20
0
 30
0
  3
AIGNBL0201008A
  0
POLYLINE
  8
LAYER_2
 40
0.2469
 41
0.2469
 66
1
 10
0
 20
0
 30
0
  0
VERTEX
  8
LAYER_2
 10
139.4147
 20
210.5801
 42
0.26927591
  0
VERTEX
  8
LAYER_2
 10
138.9104
 20
211.4486
  0
SEQEND
  0
ENDBLK
  0
BLOCK
  8
LAYER_2
  2
AIGNBL0201008B
 70
64
 10
0
 20
0
 30
0
  3
AIGNBL0201008B
  0
POLYLINE
  8
LAYER_2
 40
0.2469
 41
0.2469
 66
1
 10
0
 20
0
 30
0
  0
VERTEX
  8
LAYER_2
 10
73.2147
 20
210.5801
 42
0.4142221795
  0
VERTEX
  8
LAYER_2
 10
74.2146
 20
209.5801
  0
SEQEND
  0
ENDBLK
  0
BLOCK
  8
LAYER_2
  2
AIGNBL0201008C
 70
64
 10
0
 20
0
 30
0
  3
AIGNBL0201008C
  0
POLYLINE
  8
LAYER_2
 40
0.2469
 41
0.2469
 66
1
 10
0
 20
0
 30
0
  0
VERTEX
  8
LAYER_2
 10
138.9104
 20
211.4486
 42
0.1050139398
  0
VERTEX
  8
LAYER_2
 10
106.8162
 20
218.4775
  0
SEQEND
  0
ENDBLK
  0
BLOCK
  8
LAYER_2
  2
AIGNBL0201008D
 70
64
 10
0
 20
0
 30
0
  3
AIGNBL0201008D
  0
POLYLINE
  8
LAYER_2
 40
0.2469
 41
0.2469
 66
1
 10
0
 20
0
 30
0
  0
VERTEX
  8
LAYER_2
 10
138.4146
 20
209.5801
 42
0.4142267065
  0
VERTEX
  8
LAYER_2
 10
139.4147
 20
210.5801
  0
SEQEND
  0
ENDBLK
  0
BLOCK
  8
LAYER_2
  2
AIGNBL0201008E
 70
64
 10
0
 20
0
 30
0
  3
AIGNBL0201008E
  0
POLYLINE
  8
LAYER_2
 40
0.2469
 41
0.2469
 66
1
 10
0
 20
0
 30
0
  0
VERTEX
  8
LAYER_2
 10
73.7188
 20
211.4486
 42
0.2692716216
  0
VERTEX
  8
LAYER_2
 10
73.2147
 20
210.5801
  0
SEQEND
  0
ENDBLK
  0
BLOCK
  8
LAYER_3
  2
AIGNBL03010002
 70
64
 10
0
 20
0
 30
0
  3
AIGNBL03010002
  0
ENDBLK
  0
BLOCK
  8
LAYER_3
  2
AIGNBL03010003
 70
64
 10
0
 20
0
 30
0
  3
AIGNBL03010003
  0
ENDBLK
  0
BLOCK
  8
LAYER_3
  2
AIGNBL03010004
 70
64
 10
0
 20
0
 30
0
  3
AIGNBL03010004
  0
ENDBLK
  0
BLOCK
  8
LAYER_3
  2
AIGNBL03010005
 70
64
 10
0
 20
0
 30
0
  3
AIGNBL03010005
  0
ENDBLK
  0
BLOCK
  8
LAYER_3
  2
AIGNBL03010006
 70
64
 10
0
 20
0
 30
0
  3
AIGNBL03010006
  0
ENDBLK
  0
BLOCK
  8
LAYER_3
  2
AIGNBL03010007
 70
64
 10
0
 20
0
 30
0
  3
AIGNBL03010007
  0
ENDBLK
  0
BLOCK
  8
LAYER_3
  2
AIGNBL03010008
 70
64
 10
0
 20
0
 30
0
  3
AIGNBL03010008
  0
ENDBLK
  0
BLOCK
  8
LAYER_3
  2
AIGNBL03010009
 70
64
 10
0
 20
0
 30
0
  3
AIGNBL03010009
  0
ENDBLK
  0
BLOCK
  8
LAYER_3
  2
AIGNBL0301000A
 70
64
 10
0
 20
0
 30
0
  3
AIGNBL0301000A
  0
POLYLINE
  8
LAYER_3
 40
0.2469
 41
0.2469
 66
1
 10
0
 20
0
 30
0
  0
VERTEX
  8
LAYER_3
 10
109.8582
 20
197.4801
  0
VERTEX
  8
LAYER_3
 10
109.8582
 20
184.3176
  0
SEQEND
  0
ENDBLK
  0
BLOCK
  8
LAYER_3
  2
AIGNBL0301000B
 70
64
 10
0
 20
0
 30
0
  3
AIGNBL0301000B
  0
POLYLINE
  8
LAYER_3
 40
0.2469
 41
0.2469
 66
1
 10
0
 20
0
 30
0
  0
VERTEX
  8
LAYER_3
 10
111.8833
 20
198.4802
  0
VERTEX
  8
LAYER_3
 10
106.3146
 20
198.4802
  0
SEQEND
  0
ENDBLK
  0
BLOCK
  8
LAYER_3
  2
AIGNBL0301000C
 70
64
 10
0
 20
0
 30
0
  3
AIGNBL0301000C
  0
POLYLINE
  8
LAYER_3
 40
0.2469
 41
0.2469
 66
1
 10
0
 20
0
 30
0
  0
VERTEX
  8
LAYER_3
 10
112.3897
 20
196.9739
  0
VERTEX
  8
LAYER_3
 10
112.3897
 20
184.3176
  0
SEQEND
  0
ENDBLK
  0
BLOCK
  8
LAYER_3
  2
AIGNBL0301000D
 70
64
 10
0
 20
0
 30
0
  3
AIGNBL0301000D
  0
POLYLINE
  8
LAYER_3
 40
0.2469
 41
0.2469
 66
1
 10
0
 20
0
 30
0
  0
VERTEX
  8
LAYER_3
 10
111.8833
 20
197.4801
  0
VERTEX
  8
LAYER_3
 10
112.3897
 20
196.9739
  0
SEQEND
  0
ENDBLK
  0
BLOCK
  8
LAYER_3
  2
AIGNBL0301000E
 70
64
 10
0
 20
0
 30
0
  3
AIGNBL0301000E
  0
POLYLINE
  8
LAYER_3
 40
0.2469
 41
0.2469
 66
1
 10
0
 20
0
 30
0
  0
VERTEX
  8
LAYER_3
 10
106.3146
 20
184.3176
  0
VERTEX
  8
LAYER_3
 10
113.9083
 20
184.3176
  0
SEQEND
  0
ENDBLK
  0
BLOCK
  8
LAYER_3
  2
AIGNBL0301000F
 70
64
 10
0
 20
0
 30
0
  3
AIGNBL0301000F
  0
POLYLINE
  8
LAYER_3
 40
0.2469
 41
0.2469
 66
1
 10
0
 20
0
 30
0
  0
VERTEX
  8
LAYER_3
 10
113.9083
 20
184.3176
  0
VERTEX
  8
LAYER_3
 10
113.9083
 20
177.2242
  0
SEQEND
  0
ENDBLK
  0
BLOCK
  8
LAYER_3
  2
AIGNBL03010010
 70
64
 10
0
 20
0
 30
0
  3
AIGNBL03010010
  0
POLYLINE
  8
LAYER_3
 40
0.2469
 41
0.2469
 66
1
 10
0
 20
0
 30
0
  0
VERTEX
  8
LAYER_3
 10
114.4147
 20
158.3841
  0
VERTEX
  8
LAYER_3
 10
114.4147
 20
154.4488
  0
SEQEND
  0
ENDBLK
  0
BLOCK
  8
LAYER_3
  2
AIGNBL03010011
 70
64
 10
0
 20
0
 30
0
  3
AIGNBL03010011
  0
POLYLINE
  8
LAYER_3
 40
0.2469
 41
0.2469
 66
1
 10
0
 20
0
 30
0
  0
VERTEX
  8
LAYER_3
 10
113.9083
 20
153.9427
  0
VERTEX
  8
LAYER_3
 10
114.4147
 20
154.4488
  0
SEQEND
  0
ENDBLK
  0
BLOCK
  8
LAYER_3
  2
AIGNBL03010012
 70
64
 10
0
 20
0
 30
0
  3
AIGNBL03010012
  0
POLYLINE
  8
LAYER_3
 40
0.2469
 41
0.2469
 66
1
 10
0
 20
0
 30
0
  0
VERTEX
  8
LAYER_3
 10
113.9083
 20
153.9427
  0
VERTEX
  8
LAYER_3
 10
106.3146
 20
153.9427
  0
SEQEND
  0
ENDBLK
  0
BLOCK
  8
LAYER_3
  2
AIGNBL03010013
 70
64
 10
0
 20
0
 30
0
  3
AIGNBL03010013
  0
POLYLINE
  8
LAYER_3
 40
0.2469
 41
0.2469
 66
1
 10
0
 20
0
 30
0
  0
VERTEX
  8
LAYER_3
 10
113.149
 20
153.9427
  0
VERTEX
  8
LAYER_3
 10
113.149
 20
150.9052
  0
SEQEND
  0
ENDBLK
  0
BLOCK
  8
LAYER_3
  2
AIGNBL03010014
 70
64
 10
0
 20
0
 30
0
  3
AIGNBL03010014
  0
POLYLINE
  8
LAYER_3
 40
0.2469
 41
0.2469
 66
1
 10
0
 20
0
 30
0
  0
VERTEX
  8
LAYER_3
 10
113.149
 20
150.9052
  0
VERTEX
  8
LAYER_3
 10
106.3146
 20
150.9052
  0
SEQEND
  0
ENDBLK
  0
BLOCK
  8
LAYER_3
  2
AIGNBL03010015
 70
64
 10
0
 20
0
 30
0
  3
AIGNBL03010015
  0
POLYLINE
  8
LAYER_3
 40
0.2469
 41
0.2469
 66
1
 10
0
 20
0
 30
0
  0
VERTEX
  8
LAYER_3
 10
111.124
 20
150.9052
  0
VERTEX
  8
LAYER_3
 10
111.124
 20
147.8676
  0
SEQEND
  0
ENDBLK
  0
BLOCK
  8
LAYER_3
  2
AIGNBL03010016
 70
64
 10
0
 20
0
 30
0
  3
AIGNBL03010016
  0
POLYLINE
  8
LAYER_3
 40
0.2469
 41
0.2469
 66
1
 10
0
 20
0
 30
0
  0
VERTEX
  8
LAYER_3
 10
109.0989
 20
145.8426
  0
VERTEX
  8
LAYER_3
 10
111.124
 20
147.8676
  0
SEQEND
  0
ENDBLK
  0
BLOCK
  8
LAYER_3
  2
AIGNBL03010017
 70
64
 10
0
 20
0
 30
0
  3
AIGNBL03010017
  0
POLYLINE
  8
LAYER_3
 40
0.2469
 41
0.2469
 66
1
 10
0
 20
0
 30
0
  0
VERTEX
  8
LAYER_3
 10
109.0989
 20
145.8426
  0
VERTEX
  8
LAYER_3
 10
106.3146
 20
145.8426
  0
SEQEND
  0
ENDBLK
  0
BLOCK
  8
LAYER_3
  2
AIGNBL03010018
 70
64
 10
0
 20
0
 30
0
  3
AIGNBL03010018
  0
POLYLINE
  8
LAYER_3
 40
0.2469
 41
0.2469
 66
1
 10
0
 20
0
 30
0
  0
VERTEX
  8
LAYER_3
 10
111.124
 20
147.8676
  0
VERTEX
  8
LAYER_3
 10
106.3146
 20
147.8676
  0
SEQEND
  0
ENDBLK
  0
BLOCK
  8
LAYER_3
  2
AIGNBL03010019
 70
64
 10
0
 20
0
 30
0
  3
AIGNBL03010019
  0
POLYLINE
  8
LAYER_3
 40
0.2469
 41
0.2469
 66
1
 10
0
 20
0
 30
0
  0
VERTEX
  8
LAYER_3
 10
113.9083
 20
158.3841
  0
VERTEX
  8
LAYER_3
 10
113.9083
 20
153.9427
  0
SEQEND
  0
ENDBLK
  0
BLOCK
  8
LAYER_3
  2
AIGNBL0301001A
 70
64
 10
0
 20
0
 30
0
  3
AIGNBL0301001A
  0
POLYLINE
  8
LAYER_3
 40
0.2469
 41
0.2469
 66
1
 10
0
 20
0
 30
0
  0
VERTEX
  8
LAYER_3
 10
102.771
 20
197.4801
  0
VERTEX
  8
LAYER_3
 10
102.771
 20
184.3176
  0
SEQEND
  0
ENDBLK
  0
BLOCK
  8
LAYER_3
  2
AIGNBL0301001B
 70
64
 10
0
 20
0
 30
0
  3
AIGNBL0301001B
  0
POLYLINE
  8
LAYER_3
 40
0.2469
 41
0.2469
 66
1
 10
0
 20
0
 30
0
  0
VERTEX
  8
LAYER_3
 10
100.746
 20
198.4802
  0
VERTEX
  8
LAYER_3
 10
106.3146
 20
198.4802
  0
SEQEND
  0
ENDBLK
  0
BLOCK
  8
LAYER_3
  2
AIGNBL0301001C
 70
64
 10
0
 20
0
 30
0
  3
AIGNBL0301001C
  0
POLYLINE
  8
LAYER_3
 40
0.2469
 41
0.2469
 66
1
 10
0
 20
0
 30
0
  0
VERTEX
  8
LAYER_3
 10
100.2395
 20
196.9739
  0
VERTEX
  8
LAYER_3
 10
100.2395
 20
184.3176
  0
SEQEND
  0
ENDBLK
  0
BLOCK
  8
LAYER_3
  2
AIGNBL0301001D
 70
64
 10
0
 20
0
 30
0
  3
AIGNBL0301001D
  0
POLYLINE
  8
LAYER_3
 40
0.2469
 41
0.2469
 66
1
 10
0
 20
0
 30
0
  0
VERTEX
  8
LAYER_3
 10
100.746
 20
197.4801
  0
VERTEX
  8
LAYER_3
 10
100.2395
 20
196.9739
  0
SEQEND
  0
ENDBLK
  0
BLOCK
  8
LAYER_3
  2
AIGNBL0301001E
 70
64
 10
0
 20
0
 30
0
  3
AIGNBL0301001E
  0
POLYLINE
  8
LAYER_3
 40
0.2469
 41
0.2469
 66
1
 10
0
 20
0
 30
0
  0
VERTEX
  8
LAYER_3
 10
106.3146
 20
184.3176
  0
VERTEX
  8
LAYER_3
 10
98.7209
 20
184.3176
  0
SEQEND
  0
ENDBLK
  0
BLOCK
  8
LAYER_3
  2
AIGNBL0301001F
 70
64
 10
0
 20
0
 30
0
  3
AIGNBL0301001F
  0
POLYLINE
  8
LAYER_3
 40
0.2469
 41
0.2469
 66
1
 10
0
 20
0
 30
0
  0
VERTEX
  8
LAYER_3
 10
98.7209
 20
184.3176
  0
VERTEX
  8
LAYER_3
 10
98.7209
 20
177.2242
  0
SEQEND
  0
ENDBLK
  0
BLOCK
  8
LAYER_3
  2
AIGNBL03010020
 70
64
 10
0
 20
0
 30
0
  3
AIGNBL03010020
  0
POLYLINE
  8
LAYER_3
 40
0.2469
 41
0.2469
 66
1
 10
0
 20
0
 30
0
  0
VERTEX
  8
LAYER_3
 10
98.2145
 20
158.3841
  0
VERTEX
  8
LAYER_3
 10
98.2145
 20
154.4488
  0
SEQEND
  0
ENDBLK
  0
BLOCK
  8
LAYER_3
  2
AIGNBL03010021
 70
64
 10
0
 20
0
 30
0
  3
AIGNBL03010021
  0
POLYLINE
  8
LAYER_3
 40
0.2469
 41
0.2469
 66
1
 10
0
 20
0
 30
0
  0
VERTEX
  8
LAYER_3
 10
98.7209
 20
153.9427
  0
VERTEX
  8
LAYER_3
 10
98.2145
 20
154.4488
  0
SEQEND
  0
ENDBLK
  0
BLOCK
  8
LAYER_3
  2
AIGNBL03010022
 70
64
 10
0
 20
0
 30
0
  3
AIGNBL03010022
  0
POLYLINE
  8
LAYER_3
 40
0.2469
 41
0.2469
 66
1
 10
0
 20
0
 30
0
  0
VERTEX
  8
LAYER_3
 10
98.7209
 20
153.9427
  0
VERTEX
  8
LAYER_3
 10
106.3146
 20
153.9427
  0
SEQEND
  0
ENDBLK
  0
BLOCK
  8
LAYER_3
  2
AIGNBL03010023
 70
64
 10
0
 20
0
 30
0
  3
AIGNBL03010023
  0
POLYLINE
  8
LAYER_3
 40
0.2469
 41
0.2469
 66
1
 10
0
 20
0
 30
0
  0
VERTEX
  8
LAYER_3
 10
99.4802
 20
153.9427
  0
VERTEX
  8
LAYER_3
 10
99.4802
 20
150.9052
  0
SEQEND
  0
ENDBLK
  0
BLOCK
  8
LAYER_3
  2
AIGNBL03010024
 70
64
 10
0
 20
0
 30
0
  3
AIGNBL03010024
  0
POLYLINE
  8
LAYER_3
 40
0.2469
 41
0.2469
 66
1
 10
0
 20
0
 30
0
  0
VERTEX
  8
LAYER_3
 10
99.4802
 20
150.9052
  0
VERTEX
  8
LAYER_3
 10
106.3146
 20
150.9052
  0
SEQEND
  0
ENDBLK
  0
BLOCK
  8
LAYER_3
  2
AIGNBL03010025
 70
64
 10
0
 20
0
 30
0
  3
AIGNBL03010025
  0
POLYLINE
  8
LAYER_3
 40
0.2469
 41
0.2469
 66
1
 10
0
 20
0
 30
0
  0
VERTEX
  8
LAYER_3
 10
101.5052
 20
150.9052
  0
VERTEX
  8
LAYER_3
 10
101.5052
 20
147.8676
  0
SEQEND
  0
ENDBLK
  0
BLOCK
  8
LAYER_3
  2
AIGNBL03010026
 70
64
 10
0
 20
0
 30
0
  3
AIGNBL03010026
  0
POLYLINE
  8
LAYER_3
 40
0.2469
 41
0.2469
 66
1
 10
0
 20
0
 30
0
  0
VERTEX
  8
LAYER_3
 10
103.5303
 20
145.8426
  0
VERTEX
  8
LAYER_3
 10
101.5052
 20
147.8676
  0
SEQEND
  0
ENDBLK
  0
BLOCK
  8
LAYER_3
  2
AIGNBL03010027
 70
64
 10
0
 20
0
 30
0
  3
AIGNBL03010027
  0
POLYLINE
  8
LAYER_3
 40
0.2469
 41
0.2469
 66
1
 10
0
 20
0
 30
0
  0
VERTEX
  8
LAYER_3
 10
103.5303
 20
145.8426
  0
VERTEX
  8
LAYER_3
 10
106.3146
 20
145.8426
  0
SEQEND
  0
ENDBLK
  0
BLOCK
  8
LAYER_3
  2
AIGNBL03010028
 70
64
 10
0
 20
0
 30
0
  3
AIGNBL03010028
  0
POLYLINE
  8
LAYER_3
 40
0.2469
 41
0.2469
 66
1
 10
0
 20
0
 30
0
  0
VERTEX
  8
LAYER_3
 10
101.5052
 20
147.8676
  0
VERTEX
  8
LAYER_3
 10
106.3146
 20
147.8676
  0
SEQEND
  0
ENDBLK
  0
BLOCK
  8
LAYER_3
  2
AIGNBL03010029
 70
64
 10
0
 20
0
 30
0
  3
AIGNBL03010029
  0
POLYLINE
  8
LAYER_3
 40
0.2469
 41
0.2469
 66
1
 10
0
 20
0
 30
0
  0
VERTEX
  8
LAYER_3
 10
98.7209
 20
158.3841
  0
VERTEX
  8
LAYER_3
 10
98.7209
 20
153.9427
  0
SEQEND
  0
ENDBLK
  0
BLOCK
  8
LAYER_3
  2
AIGNBL0301002A
 70
64
 10
0
 20
0
 30
0
  3
AIGNBL0301002A
  0
POLYLINE
  8
LAYER_3
  6
AIGENLINE001
 40
0.2469
 41
0.2469
 66
1
 10
0
 20
0
 30
0
 70
128
  0
VERTEX
  8
LAYER_3
 10
106.8162
 20
221.4774
  0
VERTEX
  8
LAYER_3
 10
106.8162
 20
64.8629
  0
SEQEND
  0
ENDBLK
  0
BLOCK
  8
LAYER_3
  2
AIGNBL0301002B
 70
64
 10
0
 20
0
 30
0
  3
AIGNBL0301002B
  0
POLYLINE
  8
LAYER_3
 40
0.2469
 41
0.2469
 66
1
 10
0
 20
0
 30
0
  0
VERTEX
  8
LAYER_3
 10
98.7209
 20
183.0815
 42
0.414227006
  0
VERTEX
  8
LAYER_3
 10
97.5723
 20
180.045
 42
0.1827826618
  0
VERTEX
  8
LAYER_3
 10
98.7209
 20
178.8964
  0
SEQEND
  0
ENDBLK
  0
BLOCK
  8
LAYER_3
  2
AIGNBL0301002C
 70
64
 10
0
 20
0
 30
0
  3
AIGNBL0301002C
  0
INSERT
  8
LAYER_3
  2
AIGNBL0302002D
 10
0
 20
0
 30
0
  0
INSERT
  8
LAYER_3
  2
AIGNBL0302002E
 10
0
 20
0
 30
0
  0
INSERT
  8
LAYER_3
  2
AIGNBL0302002F
 10
0
 20
0
 30
0
  0
INSERT
  8
LAYER_3
  2
AIGNBL03020030
 10
0
 20
0
 30
0
  0
INSERT
  8
LAYER_3
  2
AIGNBL03020031
 10
0
 20
0
 30
0
  0
INSERT
  8
LAYER_3
  2
AIGNBL03020032
 10
0
 20
0
 30
0
  0
ENDBLK
  0
BLOCK
  8
LAYER_3
  2
AIGNBL03010033
 70
64
 10
0
 20
0
 30
0
  3
AIGNBL03010033
  0
INSERT
  8
LAYER_3
  2
AIGNBL03020034
 10
0
 20
0
 30
0
  0
INSERT
  8
LAYER_3
  2
AIGNBL03020035
 10
0
 20
0
 30
0
  0
INSERT
  8
LAYER_3
  2
AIGNBL03020036
 10
0
 20
0
 30
0
  0
INSERT
  8
LAYER_3
  2
AIGNBL03020037
 10
0
 20
0
 30
0
  0
INSERT
  8
LAYER_3
  2
AIGNBL03020038
 10
0
 20
0
 30
0
  0
INSERT
  8
LAYER_3
  2
AIGNBL03020039
 10
0
 20
0
 30
0
  0
ENDBLK
  0
BLOCK
  8
LAYER_3
  2
AIGNBL0301003A
 70
64
 10
0
 20
0
 30
0
  3
AIGNBL0301003A
  0
INSERT
  8
LAYER_3
  2
AIGNBL0302003B
 10
0
 20
0
 30
0
  0
INSERT
  8
LAYER_3
  2
AIGNBL0302003C
 10
0
 20
0
 30
0
  0
INSERT
  8
LAYER_3
  2
AIGNBL0302003D
 10
0
 20
0
 30
0
  0
INSERT
  8
LAYER_3
  2
AIGNBL0302003E
 10
0
 20
0
 30
0
  0
INSERT
  8
LAYER_3
  2
AIGNBL0302003F
 10
0
 20
0
 30
0
  0
INSERT
  8
LAYER_3
  2
AIGNBL03020040
 10
0
 20
0
 30
0
  0
ENDBLK
  0
BLOCK
  8
LAYER_3
  2
AIGNBL03010041
 70
64
 10
0
 20
0
 30
0
  3
AIGNBL03010041
  0
INSERT
  8
LAYER_3
  2
AIGNBL03020042
 10
0
 20
0
 30
0
  0
INSERT
  8
LAYER_3
  2
AIGNBL03020043
 10
0
 20
0
 30
0
  0
INSERT
  8
LAYER_3
  2
AIGNBL03020044
 10
0
 20
0
 30
0
  0
INSERT
  8
LAYER_3
  2
AIGNBL03020045
 10
0
 20
0
 30
0
  0
INSERT
  8
LAYER_3
  2
AIGNBL03020046
 10
0
 20
0
 30
0
  0
INSERT
  8
LAYER_3
  2
AIGNBL03020047
 10
0
 20
0
 30
0
  0
INSERT
  8
LAYER_3
  2
AIGNBL03020048
 10
0
 20
0
 30
0
  0
ENDBLK
  0
BLOCK
  8
LAYER_3
  2
AIGNBL03010049
 70
64
 10
0
 20
0
 30
0
  3
AIGNBL03010049
  0
INSERT
  8
LAYER_3
  2
AIGNBL0302004A
 10
0
 20
0
 30
0
  0
INSERT
  8
LAYER_3
  2
AIGNBL0302004B
 10
0
 20
0
 30
0
  0
INSERT
  8
LAYER_3
  2
AIGNBL0302004C
 10
0
 20
0
 30
0
  0
INSERT
  8
LAYER_3
  2
AIGNBL0302004D
 10
0
 20
0
 30
0
  0
INSERT
  8
LAYER_3
  2
AIGNBL0302004E
 10
0
 20
0
 30
0
  0
INSERT
  8
LAYER_3
  2
AIGNBL0302004F
 10
0
 20
0
 30
0
  0
ENDBLK
  0
BLOCK
  8
LAYER_4
  2
AIGNBL04010002
 70
64
 10
0
 20
0
 30
0
  3
AIGNBL04010002
  0
INSERT
  8
LAYER_4
  2
AIGNBL04020003
 10
0
 20
0
 30
0
  0
INSERT
  8
LAYER_4
  2
AIGNBL0402000C
 10
0
 20
0
 30
0
  0
ENDBLK
  0
BLOCK
  8
LAYER_4
  2
AIGNBL04010024
 70
64
 10
0
 20
0
 30
0
  3
AIGNBL04010024
  0
INSERT
  8
LAYER_4
  2
AIGNBL04020025
 10
0
 20
0
 30
0
  0
ENDBLK
  0
BLOCK
  8
LAYER_4
  2
AIGNBL04010027
 70
64
 10
0
 20
0
 30
0
  3
AIGNBL04010027
  0
INSERT
  8
LAYER_4
  2
AIGNBL04020028
 10
0
 20
0
 30
0
  0
ENDBLK
  0
ENDSEC
  0
SECTION
  2
ENTITIES
  0
INSERT
  8
LAYER_1
  2
AIGNBL01010002
 10
0
 20
0
 30
0
  0
INSERT
  8
LAYER_1
  2
AIGNBL01010003
 10
0
 20
0
 30
0
  0
INSERT
  8
LAYER_1
  2
AIGNBL01010004
 10
0
 20
0
 30
0
  0
INSERT
  8
LAYER_1
  2
AIGNBL01010005
 10
0
 20
0
 30
0
  0
INSERT
  8
LAYER_1
  2
AIGNBL01010006
 10
0
 20
0
 30
0
  0
INSERT
  8
LAYER_1
  2
AIGNBL01010007
 10
0
 20
0
 30
0
  0
INSERT
  8
LAYER_1
  2
AIGNBL01010008
 10
0
 20
0
 30
0
  0
INSERT
  8
LAYER_1
  2
AIGNBL01010009
 10
0
 20
0
 30
0
  0
INSERT
  8
LAYER_1
  2
AIGNBL0101000A
 10
0
 20
0
 30
0
  0
INSERT
  8
LAYER_1
  2
AIGNBL0101000B
 10
0
 20
0
 30
0
  0
INSERT
  8
LAYER_1
  2
AIGNBL0101000C
 10
0
 20
0
 30
0
  0
INSERT
  8
LAYER_1
  2
AIGNBL0101000D
 10
0
 20
0
 30
0
  0
INSERT
  8
LAYER_1
  2
AIGNBL0101000E
 10
0
 20
0
 30
0
  0
INSERT
  8
LAYER_1
  2
AIGNBL0101000F
 10
0
 20
0
 30
0
  0
INSERT
  8
LAYER_1
  2
AIGNBL01010010
 10
0
 20
0
 30
0
  0
INSERT
  8
LAYER_1
  2
AIGNBL01010011
 10
0
 20
0
 30
0
  0
INSERT
  8
LAYER_1
  2
AIGNBL01010012
 10
0
 20
0
 30
0
  0
INSERT
  8
LAYER_1
  2
AIGNBL01010013
 10
0
 20
0
 30
0
  0
INSERT
  8
LAYER_1
  2
AIGNBL01010014
 10
0
 20
0
 30
0
  0
INSERT
  8
LAYER_1
  2
AIGNBL01010015
 10
0
 20
0
 30
0
  0
INSERT
  8
LAYER_1
  2
AIGNBL01010016
 10
0
 20
0
 30
0
  0
INSERT
  8
LAYER_1
  2
AIGNBL01010017
 10
0
 20
0
 30
0
  0
INSERT
  8
LAYER_1
  2
AIGNBL01010018
 10
0
 20
0
 30
0
  0
INSERT
  8
LAYER_1
  2
AIGNBL01010019
 10
0
 20
0
 30
0
  0
INSERT
  8
LAYER_1
  2
AIGNBL0101001A
 10
0
 20
0
 30
0
  0
INSERT
  8
LAYER_1
  2
AIGNBL0101001B
 10
0
 20
0
 30
0
  0
INSERT
  8
LAYER_1
  2
AIGNBL0101001C
 10
0
 20
0
 30
0
  0
INSERT
  8
LAYER_1
  2
AIGNBL0101001D
 10
0
 20
0
 30
0
  0
INSERT
  8
LAYER_1
  2
AIGNBL0101001E
 10
0
 20
0
 30
0
  0
INSERT
  8
LAYER_1
  2
AIGNBL0101001F
 10
0
 20
0
 30
0
  0
INSERT
  8
LAYER_1
  2
AIGNBL01010020
 10
0
 20
0
 30
0
  0
INSERT
  8
LAYER_1
  2
AIGNBL01010021
 10
0
 20
0
 30
0
  0
INSERT
  8
LAYER_1
  2
AIGNBL01010022
 10
0
 20
0
 30
0
  0
INSERT
  8
LAYER_1
  2
AIGNBL01010023
 10
0
 20
0
 30
0
  0
INSERT
  8
LAYER_1
  2
AIGNBL01010024
 10
0
 20
0
 30
0
  0
INSERT
  8
LAYER_1
  2
AIGNBL01010025
 10
0
 20
0
 30
0
  0
INSERT
  8
LAYER_1
  2
AIGNBL01010026
 10
0
 20
0
 30
0
  0
INSERT
  8
LAYER_1
  2
AIGNBL01010027
 10
0
 20
0
 30
0
  0
INSERT
  8
LAYER_1
  2
AIGNBL01010028
 10
0
 20
0
 30
0
  0
INSERT
  8
LAYER_1
  2
AIGNBL01010029
 10
0
 20
0
 30
0
  0
INSERT
  8
LAYER_1
  2
AIGNBL0101002A
 10
0
 20
0
 30
0
  0
INSERT
  8
LAYER_1
  2
AIGNBL0101002B
 10
0
 20
0
 30
0
  0
INSERT
  8
LAYER_1
  2
AIGNBL0101002C
 10
0
 20
0
 30
0
  0
INSERT
  8
LAYER_1
  2
AIGNBL0101002D
 10
0
 20
0
 30
0
  0
INSERT
  8
LAYER_1
  2
AIGNBL0101002E
 10
0
 20
0
 30
0
  0
INSERT
  8
LAYER_1
  2
AIGNBL0101002F
 10
0
 20
0
 30
0
  0
INSERT
  8
LAYER_1
  2
AIGNBL01010030
 10
0
 20
0
 30
0
  0
INSERT
  8
LAYER_1
  2
AIGNBL01010031
 10
0
 20
0
 30
0
  0
INSERT
  8
LAYER_1
  2
AIGNBL01010032
 10
0
 20
0
 30
0
  0
INSERT
  8
LAYER_1
  2
AIGNBL01010033
 10
0
 20
0
 30
0
  0
INSERT
  8
LAYER_1
  2
AIGNBL01010034
 10
0
 20
0
 30
0
  0
INSERT
  8
LAYER_1
  2
AIGNBL01010035
 10
0
 20
0
 30
0
  0
INSERT
  8
LAYER_1
  2
AIGNBL01010036
 10
0
 20
0
 30
0
  0
INSERT
  8
LAYER_1
  2
AIGNBL01010037
 10
0
 20
0
 30
0
  0
INSERT
  8
LAYER_1
  2
AIGNBL01010038
 10
0
 20
0
 30
0
  0
INSERT
  8
LAYER_1
  2
AIGNBL01010039
 10
0
 20
0
 30
0
  0
INSERT
  8
LAYER_1
  2
AIGNBL0101003A
 10
0
 20
0
 30
0
  0
INSERT
  8
LAYER_1
  2
AIGNBL0101003B
 10
0
 20
0
 30
0
  0
INSERT
  8
LAYER_1
  2
AIGNBL0101003C
 10
0
 20
0
 30
0
  0
INSERT
  8
LAYER_2
  2
AIGNBL02010002
 10
0
 20
0
 30
0
  0
INSERT
  8
LAYER_2
  2
AIGNBL02010003
 10
0
 20
0
 30
0
  0
INSERT
  8
LAYER_2
  2
AIGNBL02010004
 10
0
 20
0
 30
0
  0
INSERT
  8
LAYER_2
  2
AIGNBL02010005
 10
0
 20
0
 30
0
  0
INSERT
  8
LAYER_2
  2
AIGNBL02010006
 10
0
 20
0
 30
0
  0
INSERT
  8
LAYER_2
  2
AIGNBL02010007
 10
0
 20
0
 30
0
  0
INSERT
  8
LAYER_2
  2
AIGNBL02010008
 10
0
 20
0
 30
0
  0
INSERT
  8
LAYER_2
  2
AIGNBL02010009
 10
0
 20
0
 30
0
  0
INSERT
  8
LAYER_2
  2
AIGNBL0201000A
 10
0
 20
0
 30
0
  0
INSERT
  8
LAYER_2
  2
AIGNBL0201000B
 10
0
 20
0
 30
0
  0
INSERT
  8
LAYER_2
  2
AIGNBL0201000C
 10
0
 20
0
 30
0
  0
INSERT
  8
LAYER_2
  2
AIGNBL0201000D
 10
0
 20
0
 30
0
  0
INSERT
  8
LAYER_2
  2
AIGNBL0201000E
 10
0
 20
0
 30
0
  0
INSERT
  8
LAYER_2
  2
AIGNBL0201000F
 10
0
 20
0
 30
0
  0
INSERT
  8
LAYER_2
  2
AIGNBL02010010
 10
0
 20
0
 30
0
  0
INSERT
  8
LAYER_2
  2
AIGNBL02010011
 10
0
 20
0
 30
0
  0
INSERT
  8
LAYER_2
  2
AIGNBL02010012
 10
0
 20
0
 30
0
  0
INSERT
  8
LAYER_2
  2
AIGNBL02010013
 10
0
 20
0
 30
0
  0
INSERT
  8
LAYER_2
  2
AIGNBL02010014
 10
0
 20
0
 30
0
  0
INSERT
  8
LAYER_2
  2
AIGNBL02010015
 10
0
 20
0
 30
0
  0
INSERT
  8
LAYER_2
  2
AIGNBL02010016
 10
0
 20
0
 30
0
  0
INSERT
  8
LAYER_2
  2
AIGNBL02010017
 10
0
 20
0
 30
0
  0
INSERT
  8
LAYER_2
  2
AIGNBL02010018
 10
0
 20
0
 30
0
  0
INSERT
  8
LAYER_2
  2
AIGNBL02010019
 10
0
 20
0
 30
0
  0
INSERT
  8
LAYER_2
  2
AIGNBL0201001A
 10
0
 20
0
 30
0
  0
INSERT
  8
LAYER_2
  2
AIGNBL0201001B
 10
0
 20
0
 30
0
  0
INSERT
  8
LAYER_2
  2
AIGNBL0201001C
 10
0
 20
0
 30
0
  0
INSERT
  8
LAYER_2
  2
AIGNBL0201001D
 10
0
 20
0
 30
0
  0
INSERT
  8
LAYER_2
  2
AIGNBL0201001E
 10
0
 20
0
 30
0
  0
INSERT
  8
LAYER_2
  2
AIGNBL0201001F
 10
0
 20
0
 30
0
  0
INSERT
  8
LAYER_2
  2
AIGNBL02010020
 10
0
 20
0
 30
0
  0
INSERT
  8
LAYER_2
  2
AIGNBL02010021
 10
0
 20
0
 30
0
  0
INSERT
  8
LAYER_2
  2
AIGNBL02010022
 10
0
 20
0
 30
0
  0
INSERT
  8
LAYER_2
  2
AIGNBL02010023
 10
0
 20
0
 30
0
  0
INSERT
  8
LAYER_2
  2
AIGNBL02010024
 10
0
 20
0
 30
0
  0
INSERT
  8
LAYER_2
  2
AIGNBL02010025
 10
0
 20
0
 30
0
  0
INSERT
  8
LAYER_2
  2
AIGNBL02010026
 10
0
 20
0
 30
0
  0
INSERT
  8
LAYER_2
  2
AIGNBL02010027
 10
0
 20
0
 30
0
  0
INSERT
  8
LAYER_2
  2
AIGNBL02010028
 10
0
 20
0
 30
0
  0
INSERT
  8
LAYER_2
  2
AIGNBL02010029
 10
0
 20
0
 30
0
  0
INSERT
  8
LAYER_2
  2
AIGNBL0201002A
 10
0
 20
0
 30
0
  0
INSERT
  8
LAYER_2
  2
AIGNBL0201002B
 10
0
 20
0
 30
0
  0
INSERT
  8
LAYER_2
  2
AIGNBL0201002C
 10
0
 20
0
 30
0
  0
INSERT
  8
LAYER_2
  2
AIGNBL0201002D
 10
0
 20
0
 30
0
  0
INSERT
  8
LAYER_2
  2
AIGNBL0201002E
 10
0
 20
0
 30
0
  0
INSERT
  8
LAYER_2
  2
AIGNBL0201002F
 10
0
 20
0
 30
0
  0
INSERT
  8
LAYER_2
  2
AIGNBL02010030
 10
0
 20
0
 30
0
  0
INSERT
  8
LAYER_2
  2
AIGNBL02010031
 10
0
 20
0
 30
0
  0
INSERT
  8
LAYER_2
  2
AIGNBL02010032
 10
0
 20
0
 30
0
  0
INSERT
  8
LAYER_2
  2
AIGNBL02010033
 10
0
 20
0
 30
0
  0
INSERT
  8
LAYER_2
  2
AIGNBL02010034
 10
0
 20
0
 30
0
  0
INSERT
  8
LAYER_2
  2
AIGNBL02010035
 10
0
 20
0
 30
0
  0
INSERT
  8
LAYER_2
  2
AIGNBL02010036
 10
0
 20
0
 30
0
  0
INSERT
  8
LAYER_2
  2
AIGNBL02010037
 10
0
 20
0
 30
0
  0
INSERT
  8
LAYER_2
  2
AIGNBL02010038
 10
0
 20
0
 30
0
  0
INSERT
  8
LAYER_2
  2
AIGNBL02010039
 10
0
 20
0
 30
0
  0
INSERT
  8
LAYER_2
  2
AIGNBL0201003A
 10
0
 20
0
 30
0
  0
INSERT
  8
LAYER_2
  2
AIGNBL0201003B
 10
0
 20
0
 30
0
  0
INSERT
  8
LAYER_2
  2
AIGNBL0201003C
 10
0
 20
0
 30
0
  0
INSERT
  8
LAYER_2
  2
AIGNBL0201003D
 10
0
 20
0
 30
0
  0
INSERT
  8
LAYER_2
  2
AIGNBL0201003E
 10
0
 20
0
 30
0
  0
INSERT
  8
LAYER_2
  2
AIGNBL0201003F
 10
0
 20
0
 30
0
  0
INSERT
  8
LAYER_2
  2
AIGNBL02010040
 10
0
 20
0
 30
0
  0
INSERT
  8
LAYER_2
  2
AIGNBL02010041
 10
0
 20
0
 30
0
  0
INSERT
  8
LAYER_2
  2
AIGNBL02010042
 10
0
 20
0
 30
0
  0
INSERT
  8
LAYER_2
  2
AIGNBL02010043
 10
0
 20
0
 30
0
  0
INSERT
  8
LAYER_2
  2
AIGNBL02010044
 10
0
 20
0
 30
0
  0
INSERT
  8
LAYER_2
  2
AIGNBL02010045
 10
0
 20
0
 30
0
  0
INSERT
  8
LAYER_2
  2
AIGNBL02010046
 10
0
 20
0
 30
0
  0
INSERT
  8
LAYER_2
  2
AIGNBL02010047
 10
0
 20
0
 30
0
  0
INSERT
  8
LAYER_2
  2
AIGNBL02010048
 10
0
 20
0
 30
0
  0
INSERT
  8
LAYER_2
  2
AIGNBL02010049
 10
0
 20
0
 30
0
  0
INSERT
  8
LAYER_2
  2
AIGNBL0201004A
 10
0
 20
0
 30
0
  0
INSERT
  8
LAYER_2
  2
AIGNBL0201004B
 10
0
 20
0
 30
0
  0
INSERT
  8
LAYER_2
  2
AIGNBL0201004C
 10
0
 20
0
 30
0
  0
INSERT
  8
LAYER_2
  2
AIGNBL0201004D
 10
0
 20
0
 30
0
  0
INSERT
  8
LAYER_2
  2
AIGNBL0201004E
 10
0
 20
0
 30
0
  0
INSERT
  8
LAYER_2
  2
AIGNBL0201004F
 10
0
 20
0
 30
0
  0
INSERT
  8
LAYER_2
  2
AIGNBL02010050
 10
0
 20
0
 30
0
  0
INSERT
  8
LAYER_2
  2
AIGNBL02010051
 10
0
 20
0
 30
0
  0
INSERT
  8
LAYER_2
  2
AIGNBL02010052
 10
0
 20
0
 30
0
  0
INSERT
  8
LAYER_2
  2
AIGNBL02010053
 10
0
 20
0
 30
0
  0
INSERT
  8
LAYER_2
  2
AIGNBL02010054
 10
0
 20
0
 30
0
  0
INSERT
  8
LAYER_2
  2
AIGNBL02010055
 10
0
 20
0
 30
0
  0
INSERT
  8
LAYER_2
  2
AIGNBL02010056
 10
0
 20
0
 30
0
  0
INSERT
  8
LAYER_2
  2
AIGNBL02010057
 10
0
 20
0
 30
0
  0
INSERT
  8
LAYER_2
  2
AIGNBL02010058
 10
0
 20
0
 30
0
  0
INSERT
  8
LAYER_2
  2
AIGNBL02010059
 10
0
 20
0
 30
0
  0
INSERT
  8
LAYER_2
  2
AIGNBL0201005A
 10
0
 20
0
 30
0
  0
INSERT
  8
LAYER_2
  2
AIGNBL0201005B
 10
0
 20
0
 30
0
  0
INSERT
  8
LAYER_2
  2
AIGNBL0201005C
 10
0
 20
0
 30
0
  0
INSERT
  8
LAYER_2
  2
AIGNBL0201005D
 10
0
 20
0
 30
0
  0
INSERT
  8
LAYER_2
  2
AIGNBL0201005E
 10
0
 20
0
 30
0
  0
INSERT
  8
LAYER_2
  2
AIGNBL0201005F
 10
0
 20
0
 30
0
  0
INSERT
  8
LAYER_2
  2
AIGNBL02010060
 10
0
 20
0
 30
0
  0
INSERT
  8
LAYER_2
  2
AIGNBL02010061
 10
0
 20
0
 30
0
  0
INSERT
  8
LAYER_2
  2
AIGNBL02010062
 10
0
 20
0
 30
0
  0
INSERT
  8
LAYER_2
  2
AIGNBL02010063
 10
0
 20
0
 30
0
  0
INSERT
  8
LAYER_2
  2
AIGNBL02010064
 10
0
 20
0
 30
0
  0
INSERT
  8
LAYER_2
  2
AIGNBL02010065
 10
0
 20
0
 30
0
  0
INSERT
  8
LAYER_2
  2
AIGNBL02010066
 10
0
 20
0
 30
0
  0
INSERT
  8
LAYER_2
  2
AIGNBL02010067
 10
0
 20
0
 30
0
  0
INSERT
  8
LAYER_2
  2
AIGNBL02010068
 10
0
 20
0
 30
0
  0
INSERT
  8
LAYER_2
  2
AIGNBL02010069
 10
0
 20
0
 30
0
  0
INSERT
  8
LAYER_2
  2
AIGNBL0201006A
 10
0
 20
0
 30
0
  0
INSERT
  8
LAYER_2
  2
AIGNBL0201006B
 10
0
 20
0
 30
0
  0
INSERT
  8
LAYER_2
  2
AIGNBL0201006C
 10
0
 20
0
 30
0
  0
INSERT
  8
LAYER_2
  2
AIGNBL0201006D
 10
0
 20
0
 30
0
  0
INSERT
  8
LAYER_2
  2
AIGNBL0201006E
 10
0
 20
0
 30
0
  0
INSERT
  8
LAYER_2
  2
AIGNBL0201006F
 10
0
 20
0
 30
0
  0
INSERT
  8
LAYER_2
  2
AIGNBL02010070
 10
0
 20
0
 30
0
  0
INSERT
  8
LAYER_2
  2
AIGNBL02010071
 10
0
 20
0
 30
0
  0
INSERT
  8
LAYER_2
  2
AIGNBL02010072
 10
0
 20
0
 30
0
  0
INSERT
  8
LAYER_2
  2
AIGNBL02010073
 10
0
 20
0
 30
0
  0
INSERT
  8
LAYER_2
  2
AIGNBL02010074
 10
0
 20
0
 30
0
  0
INSERT
  8
LAYER_2
  2
AIGNBL02010075
 10
0
 20
0
 30
0
  0
INSERT
  8
LAYER_2
  2
AIGNBL02010076
 10
0
 20
0
 30
0
  0
INSERT
  8
LAYER_2
  2
AIGNBL02010077
 10
0
 20
0
 30
0
  0
INSERT
  8
LAYER_2
  2
AIGNBL02010078
 10
0
 20
0
 30
0
  0
INSERT
  8
LAYER_2
  2
AIGNBL02010079
 10
0
 20
0
 30
0
  0
INSERT
  8
LAYER_2
  2
AIGNBL0201007A
 10
0
 20
0
 30
0
  0
INSERT
  8
LAYER_2
  2
AIGNBL0201007B
 10
0
 20
0
 30
0
  0
INSERT
  8
LAYER_2
  2
AIGNBL0201007C
 10
0
 20
0
 30
0
  0
INSERT
  8
LAYER_2
  2
AIGNBL0201007D
 10
0
 20
0
 30
0
  0
INSERT
  8
LAYER_2
  2
AIGNBL0201007E
 10
0
 20
0
 30
0
  0
INSERT
  8
LAYER_2
  2
AIGNBL0201007F
 10
0
 20
0
 30
0
  0
INSERT
  8
LAYER_2
  2
AIGNBL02010080
 10
0
 20
0
 30
0
  0
INSERT
  8
LAYER_2
  2
AIGNBL02010081
 10
0
 20
0
 30
0
  0
INSERT
  8
LAYER_2
  2
AIGNBL02010082
 10
0
 20
0
 30
0
  0
INSERT
  8
LAYER_2
  2
AIGNBL02010083
 10
0
 20
0
 30
0
  0
INSERT
  8
LAYER_2
  2
AIGNBL02010084
 10
0
 20
0
 30
0
  0
INSERT
  8
LAYER_2
  2
AIGNBL02010085
 10
0
 20
0
 30
0
  0
INSERT
  8
LAYER_2
  2
AIGNBL02010086
 10
0
 20
0
 30
0
  0
INSERT
  8
LAYER_2
  2
AIGNBL02010087
 10
0
 20
0
 30
0
  0
INSERT
  8
LAYER_2
  2
AIGNBL02010088
 10
0
 20
0
 30
0
  0
INSERT
  8
LAYER_2
  2
AIGNBL02010089
 10
0
 20
0
 30
0
  0
INSERT
  8
LAYER_2
  2
AIGNBL0201008A
 10
0
 20
0
 30
0
  0
INSERT
  8
LAYER_2
  2
AIGNBL0201008B
 10
0
 20
0
 30
0
  0
INSERT
  8
LAYER_2
  2
AIGNBL0201008C
 10
0
 20
0
 30
0
  0
INSERT
  8
LAYER_2
  2
AIGNBL0201008D
 10
0
 20
0
 30
0
  0
INSERT
  8
LAYER_2
  2
AIGNBL0201008E
 10
0
 20
0
 30
0
  0
INSERT
  8
LAYER_3
  2
AIGNBL03010002
 10
0
 20
0
 30
0
  0
INSERT
  8
LAYER_3
  2
AIGNBL03010003
 10
0
 20
0
 30
0
  0
INSERT
  8
LAYER_3
  2
AIGNBL03010004
 10
0
 20
0
 30
0
  0
INSERT
  8
LAYER_3
  2
AIGNBL03010005
 10
0
 20
0
 30
0
  0
INSERT
  8
LAYER_3
  2
AIGNBL03010006
 10
0
 20
0
 30
0
  0
INSERT
  8
LAYER_3
  2
AIGNBL03010007
 10
0
 20
0
 30
0
  0
INSERT
  8
LAYER_3
  2
AIGNBL03010008
 10
0
 20
0
 30
0
  0
INSERT
  8
LAYER_3
  2
AIGNBL03010009
 10
0
 20
0
 30
0
  0
INSERT
  8
LAYER_3
  2
AIGNBL0301000A
 10
0
 20
0
 30
0
  0
INSERT
  8
LAYER_3
  2
AIGNBL0301000B
 10
0
 20
0
 30
0
  0
INSERT
  8
LAYER_3
  2
AIGNBL0301000C
 10
0
 20
0
 30
0
  0
INSERT
  8
LAYER_3
  2
AIGNBL0301000D
 10
0
 20
0
 30
0
  0
INSERT
  8
LAYER_3
  2
AIGNBL0301000E
 10
0
 20
0
 30
0
  0
INSERT
  8
LAYER_3
  2
AIGNBL0301000F
 10
0
 20
0
 30
0
  0
INSERT
  8
LAYER_3
  2
AIGNBL03010010
 10
0
 20
0
 30
0
  0
INSERT
  8
LAYER_3
  2
AIGNBL03010011
 10
0
 20
0
 30
0
  0
INSERT
  8
LAYER_3
  2
AIGNBL03010012
 10
0
 20
0
 30
0
  0
INSERT
  8
LAYER_3
  2
AIGNBL03010013
 10
0
 20
0
 30
0
  0
INSERT
  8
LAYER_3
  2
AIGNBL03010014
 10
0
 20
0
 30
0
  0
INSERT
  8
LAYER_3
  2
AIGNBL03010015
 10
0
 20
0
 30
0
  0
INSERT
  8
LAYER_3
  2
AIGNBL03010016
 10
0
 20
0
 30
0
  0
INSERT
  8
LAYER_3
  2
AIGNBL03010017
 10
0
 20
0
 30
0
  0
INSERT
  8
LAYER_3
  2
AIGNBL03010018
 10
0
 20
0
 30
0
  0
INSERT
  8
LAYER_3
  2
AIGNBL03010019
 10
0
 20
0
 30
0
  0
INSERT
  8
LAYER_3
  2
AIGNBL0301001A
 10
0
 20
0
 30
0
  0
INSERT
  8
LAYER_3
  2
AIGNBL0301001B
 10
0
 20
0
 30
0
  0
INSERT
  8
LAYER_3
  2
AIGNBL0301001C
 10
0
 20
0
 30
0
  0
INSERT
  8
LAYER_3
  2
AIGNBL0301001D
 10
0
 20
0
 30
0
  0
INSERT
  8
LAYER_3
  2
AIGNBL0301001E
 10
0
 20
0
 30
0
  0
INSERT
  8
LAYER_3
  2
AIGNBL0301001F
 10
0
 20
0
 30
0
  0
INSERT
  8
LAYER_3
  2
AIGNBL03010020
 10
0
 20
0
 30
0
  0
INSERT
  8
LAYER_3
  2
AIGNBL03010021
 10
0
 20
0
 30
0
  0
INSERT
  8
LAYER_3
  2
AIGNBL03010022
 10
0
 20
0
 30
0
  0
INSERT
  8
LAYER_3
  2
AIGNBL03010023
 10
0
 20
0
 30
0
  0
INSERT
  8
LAYER_3
  2
AIGNBL03010024
 10
0
 20
0
 30
0
  0
INSERT
  8
LAYER_3
  2
AIGNBL03010025
 10
0
 20
0
 30
0
  0
INSERT
  8
LAYER_3
  2
AIGNBL03010026
 10
0
 20
0
 30
0
  0
INSERT
  8
LAYER_3
  2
AIGNBL03010027
 10
0
 20
0
 30
0
  0
INSERT
  8
LAYER_3
  2
AIGNBL03010028
 10
0
 20
0
 30
0
  0
INSERT
  8
LAYER_3
  2
AIGNBL03010029
 10
0
 20
0
 30
0
  0
INSERT
  8
LAYER_3
  2
AIGNBL0301002A
 10
0
 20
0
 30
0
  0
INSERT
  8
LAYER_3
  2
AIGNBL0301002B
 10
0
 20
0
 30
0
  0
INSERT
  8
LAYER_3
  2
AIGNBL0301002C
 10
0
 20
0
 30
0
  0
INSERT
  8
LAYER_3
  2
AIGNBL03010033
 10
0
 20
0
 30
0
  0
INSERT
  8
LAYER_3
  2
AIGNBL0301003A
 10
0
 20
0
 30
0
  0
INSERT
  8
LAYER_3
  2
AIGNBL03010041
 10
0
 20
0
 30
0
  0
INSERT
  8
LAYER_3
  2
AIGNBL03010049
 10
0
 20
0
 30
0
  0
TEXT
  8
LAYER_4
 10
13.4319
 20
0.3087
 11
13.4319
 21
0.3087
 40
3.2995
 41
0.5
  1
Ädùl
  0
POLYLINE
  8
LAYER_4
 40
0.3528
 41
0.3528
 66
1
 10
0
 20
0
 30
0
  0
VERTEX
  8
LAYER_4
 10
209.6785
 20
5.5731
  0
VERTEX
  8
LAYER_4
 10
11.6785
 20
5.5731
  0
SEQEND
  0
POLYLINE
  8
LAYER_4
 40
0.3528
 41
0.3528
 66
1
 10
0
 20
0
 30
0
  0
VERTEX
  8
LAYER_4
 10
209.6785
 20
14.0822
  0
VERTEX
  8
LAYER_4
 10
11.6785
 20
14.0822
  0
SEQEND
  0
POLYLINE
  8
LAYER_4
 40
0.3528
 41
0.3528
 66
1
 10
0
 20
0
 30
0
  0
VERTEX
  8
LAYER_4
 10
209.7264
 20
-2.9359
  0
VERTEX
  8
LAYER_4
 10
102.5856
 20
-2.9359
  0
SEQEND
  0
TEXT
  8
LAYER_4
 10
147.2241
 20
-0.6601
 11
147.2241
 21
-0.6601
 40
3.7615
 41
0.5
  1
-
  0
TEXT
  8
LAYER_4
 10
141.9324
 20
3.0968
 11
141.9324
 21
3.0968
 40
2.1997
 41
0.5
  1
ÅkÄ┌
  0
POLYLINE
  8
LAYER_4
 40
0.3528
 41
0.3528
 66
1
 10
0
 20
0
 30
0
  0
VERTEX
  8
LAYER_4
 10
140.4042
 20
-2.9359
  0
VERTEX
  8
LAYER_4
 10
140.4042
 20
5.5731
  0
SEQEND
  0
TEXT
  8
LAYER_4
 10
103.2843
 20
11.6058
 11
103.2843
 21
11.6058
 40
2.1997
 41
0.5
  1
òiöÈ
  0
TEXT
  8
LAYER_4
 10
12.9377
 20
8.7709
 11
12.9377
 21
8.7709
 40
2.1997
 41
0.5
  1
òiû╝
  0
TEXT
  8
LAYER_4
 10
103.2843
 20
3.0968
 11
103.2843
 21
3.0968
 40
2.1997
 41
0.5
  1
Ådù╩
  0
TEXT
  8
LAYER_4
 10
109.3063
 20
7.7739
 11
109.3063
 21
7.7739
 40
5.9385
 41
0.5
  1
AQ-3310NR  AQ-3310NR-MDP
  0
TEXT
  8
LAYER_4
 10
108.597
 20
-0.6601
 11
108.597
 21
-0.6601
 40
3.7615
 41
0.5
  1
-
  0
POLYLINE
  8
LAYER_4
 40
0.3528
 41
0.3528
 66
1
 10
0
 20
0
 30
0
  0
VERTEX
  8
LAYER_4
 10
102.5856
 20
-11.4236
  0
VERTEX
  8
LAYER_4
 10
102.5856
 20
14.0822
  0
SEQEND
  0
TEXT
  8
LAYER_4
 10
18.6859
 20
8.5135
 11
18.6859
 21
8.5135
 40
3.6373
 41
0.5
  1
âvâbâVâàÄ«örÉàû┌ÄMüiëóÅBÄdùlüj
  0
TEXT
  8
LAYER_4
 10
23.2985
 20
0.0417
 11
23.2985
 21
0.0417
 40
2.5981
 41
0.5
  1
üªëóÅBÄdùlé╠é¢é▀üAÆPôãé┼ìæôÓÄdùlé╠örÉàïÓï´éãé═É┌æ%%pé┼é½é▄é╣é±üB
  0
TEXT
  8
LAYER_4
 10
23.2985
 20
-4.7084
 11
23.2985
 21
-4.7084
 40
2.5981
 41
0.5
  1
üªâwâAâLâââbâ`ââü[òté½ü@
  0
TEXT
  8
LAYER_4
 10
23.2985
 20
-9.4582
 11
23.2985
 21
-9.4582
 40
2.9618
 41
0.5
  1
üªÉ¶û╩èÝörÉàîèîaüFâË43ü`48mmü@ï▓é¦ì×é¦î·üF30ü`45mm
  0
TEXT
  8
LAYER_4
 10
195.988
 20
17.0443
 11
195.988
 21
17.0443
 40
2.9618
 41
0.5
  1
ÆPê╩üFmm
  0
TEXT
  8
LAYER_4
 10
135.077
 20
-6.8416
 11
135.077
 21
-6.8416
 40
3.3853
 41
0.5
  1
ü£TEL 0120-65-1232ü£FAX 06-6532-1580
  0
TEXT
  8
LAYER_4
 10
135.077
 20
-10.3563
 11
135.077
 21
-10.3563
 40
3.3853
 41
0.5
  1
hits@hiratatile.co.jp
  0
TEXT
  8
LAYER_4
 10
198.0258
 20
270.2932
 11
198.0258
 21
270.2932
 40
2.0732
 41
0.5
  1
170203RT
  0
INSERT
  8
LAYER_4
  2
AIGNBL04010002
 10
0
 20
0
 30
0
  0
INSERT
  8
LAYER_4
  2
AIGNBL04010024
 10
0
 20
0
 30
0
  0
INSERT
  8
LAYER_4
  2
AIGNBL04010027
 10
0
 20
0
 30
0
  0
POLYLINE
  8
LAYER_4
 40
0.7056
 41
0.7056
 66
1
 10
0
 20
0
 30
0
 70
1
  0
VERTEX
  8
LAYER_4
 10
10.7237
 20
-12.4237
  0
VERTEX
  8
LAYER_4
 10
10.7237
 20
274.5764
  0
VERTEX
  8
LAYER_4
 10
210.7237
 20
274.5764
  0
VERTEX
  8
LAYER_4
 10
210.7237
 20
-12.4237
  0
SEQEND
  0
POLYLINE
  8
LAYER_4
 40
0.3528
 41
0.3528
 66
1
 10
0
 20
0
 30
0
 70
1
  0
VERTEX
  8
LAYER_4
 10
11.7237
 20
-11.4236
  0
VERTEX
  8
LAYER_4
 10
11.7237
 20
273.5764
  0
VERTEX
  8
LAYER_4
 10
209.7236
 20
273.5764
  0
VERTEX
  8
LAYER_4
 10
209.7236
 20
-11.4236
  0
SEQEND
  0
ENDSEC
  0
EOF
