  0
SECTION
  2
HEADER
  9
$ACADVER
  1
AC1009
  9
$LUNITS
 70
2
  9
$LUPREC
 70
4
  9
$LTSCALE
 40
1.0
  9
$EXTMIN
 10
33.7873
 20
-259.334
 30
0
  9
$EXTMAX
 10
230.7955
 20
22.6587
 30
0
  0
ENDSEC
  0
SECTION
  2
TABLES
  0
TABLE
  2
LTYPE
 70
256
  0
LTYPE
  2
AIGENLINE001
 70
64
  3
generate AI->DXF Converter
 72
65
 73
4
 40
50.8
 49
31.75
 49
-6.35
 49
6.35
 49
-6.35
  0
LTYPE
  2
AIGENLINE002
 70
64
  3
generate AI->DXF Converter
 72
65
 73
2
 40
1.4111
 49
0.7056
 49
-0.7056
  0
ENDTAB
  0
TABLE
  2
LAYER
 70
6
  0
LAYER
  2
LAYER_1
 70
64
 62
7
  6
CONTINUOUS
  0
LAYER
  2
LAYER_2
 70
64
 62
7
  6
CONTINUOUS
  0
LAYER
  2
LAYER_3
 70
64
 62
7
  6
CONTINUOUS
  0
LAYER
  2
LAYER_4
 70
64
 62
7
  6
CONTINUOUS
  0
LAYER
  2
LAYER_5
 70
64
 62
7
  6
CONTINUOUS
  0
LAYER
  2
LAYER_6
 70
64
 62
7
  6
CONTINUOUS
  0
ENDTAB
  0
TABLE
  2
STYLE
 70
6
  0
STYLE
  2
STANDARD
 70
0
 40
0
 50
0
 71
0
 41
0
 42
0
  3
TXT
  4
BIGFONT
  0
ENDTAB
  0
ENDSEC
  0
SECTION
  2
BLOCKS
  0
BLOCK
  8
LAYER_1
  2
AIGNBL01040005
 70
64
 10
0
 20
0
 30
0
  3
AIGNBL01040005
  0
POLYLINE
  8
LAYER_1
 40
0.05
 41
0.05
 66
1
 10
0
 20
0
 30
0
 70
1
  0
VERTEX
  8
LAYER_1
 10
138.3767
 20
-249.1011
  0
VERTEX
  8
LAYER_1
 10
137.891
 20
-250.2793
  0
VERTEX
  8
LAYER_1
 10
137.2664
 20
-250.2793
  0
VERTEX
  8
LAYER_1
 10
138.857
 20
-246.5355
  0
VERTEX
  8
LAYER_1
 10
139.586
 20
-246.5355
  0
VERTEX
  8
LAYER_1
 10
141.1828
 20
-250.2793
  0
VERTEX
  8
LAYER_1
 10
140.5365
 20
-250.2793
  0
VERTEX
  8
LAYER_1
 10
140.0369
 20
-249.1011
  0
SEQEND
  0
POLYLINE
  8
LAYER_1
 40
0.05
 41
0.05
 66
1
 10
0
 20
0
 30
0
 70
1
  0
VERTEX
  8
LAYER_1
 10
139.9115
 20
-248.7245
  0
VERTEX
  8
LAYER_1
 10
139.4533
 20
-247.6459
  0
VERTEX
  8
LAYER_1
 10
139.2101
 20
-246.963
  0
VERTEX
  8
LAYER_1
 10
139.1967
 20
-246.963
  0
VERTEX
  8
LAYER_1
 10
138.9603
 20
-247.6414
  0
VERTEX
  8
LAYER_1
 10
138.5021
 20
-248.7245
  0
SEQEND
  0
ENDBLK
  0
BLOCK
  8
LAYER_1
  2
AIGNBL01040006
 70
64
 10
0
 20
0
 30
0
  3
AIGNBL01040006
  0
POLYLINE
  8
LAYER_1
 40
0.05
 41
0.05
 66
1
 10
0
 20
0
 30
0
 70
1
  0
VERTEX
  8
LAYER_1
 10
145.5226
 20
-250.8295
 42
-0.01588995579
  0
VERTEX
  8
LAYER_1
 10
143.7311
 20
-250.3954
  0
VERTEX
  8
LAYER_1
 10
143.4465
 20
-250.3406
 42
-0.08603985201
  0
VERTEX
  8
LAYER_1
 10
142.5648
 20
-250.1665
 42
-0.09807603942
  0
VERTEX
  8
LAYER_1
 10
141.9131
 20
-249.7557
 42
-0.2094886647
  0
VERTEX
  8
LAYER_1
 10
141.3839
 20
-248.4469
 42
-0.09686882676
  0
VERTEX
  8
LAYER_1
 10
141.5276
 20
-247.6779
 42
-0.2046492491
  0
VERTEX
  8
LAYER_1
 10
142.5693
 20
-246.6597
 42
-0.09822810302
  0
VERTEX
  8
LAYER_1
 10
143.5644
 20
-246.4745
 42
-0.08551091506
  0
VERTEX
  8
LAYER_1
 10
144.4282
 20
-246.615
 42
-0.1004264881
  0
VERTEX
  8
LAYER_1
 10
145.0896
 20
-247.0069
 42
-0.2141381959
  0
VERTEX
  8
LAYER_1
 10
145.6617
 20
-248.3686
 42
-0.09538251124
  0
VERTEX
  8
LAYER_1
 10
145.5236
 20
-249.1322
 42
-0.2145004706
  0
VERTEX
  8
LAYER_1
 10
144.5063
 20
-250.1049
 42
-0.02339472194
  0
VERTEX
  8
LAYER_1
 10
144.3281
 20
-250.1628
  0
VERTEX
  8
LAYER_1
 10
144.3281
 20
-250.1852
  0
VERTEX
  8
LAYER_1
 10
145.6965
 20
-250.424
  0
SEQEND
  0
POLYLINE
  8
LAYER_1
 40
0.05
 41
0.05
 66
1
 10
0
 20
0
 30
0
 70
1
  0
VERTEX
  8
LAYER_1
 10
145.0233
 20
-248.39
 42
0.1071465477
  0
VERTEX
  8
LAYER_1
 10
144.8729
 20
-247.6894
 42
0.2977221891
  0
VERTEX
  8
LAYER_1
 10
143.5433
 20
-246.8687
 42
0.1072160189
  0
VERTEX
  8
LAYER_1
 10
142.8575
 20
-247.0073
 42
0.2385375056
  0
VERTEX
  8
LAYER_1
 10
142.0749
 20
-248.007
 42
0.05759145292
  0
VERTEX
  8
LAYER_1
 10
142.0296
 20
-248.4344
 42
0.2182236294
  0
VERTEX
  8
LAYER_1
 10
142.5575
 20
-249.6231
 42
0.1771891839
  0
VERTEX
  8
LAYER_1
 10
143.5161
 20
-249.9468
 42
0.1075696895
  0
VERTEX
  8
LAYER_1
 10
144.1932
 20
-249.8086
 42
0.236982977
  0
VERTEX
  8
LAYER_1
 10
144.9758
 20
-248.8146
 42
0.05604944619
  0
SEQEND
  0
ENDBLK
  0
BLOCK
  8
LAYER_1
  2
AIGNBL01040007
 70
64
 10
0
 20
0
 30
0
  3
AIGNBL01040007
  0
POLYLINE
  8
LAYER_1
 40
0.05
 41
0.05
 66
1
 10
0
 20
0
 30
0
 70
1
  0
VERTEX
  8
LAYER_1
 10
146.9815
 20
-246.5355
  0
VERTEX
  8
LAYER_1
 10
146.9815
 20
-248.7517
 42
0.114472655
  0
VERTEX
  8
LAYER_1
 10
147.1146
 20
-249.4136
 42
0.1464766
  0
VERTEX
  8
LAYER_1
 10
147.4628
 20
-249.7966
 42
0.1363197034
  0
VERTEX
  8
LAYER_1
 10
148.0716
 20
-249.9468
 42
0.1219363095
  0
VERTEX
  8
LAYER_1
 10
148.6913
 20
-249.8128
 42
0.1503291203
  0
VERTEX
  8
LAYER_1
 10
149.0609
 20
-249.446
 42
0.1255921242
  0
VERTEX
  8
LAYER_1
 10
149.2105
 20
-248.7517
  0
VERTEX
  8
LAYER_1
 10
149.2105
 20
-246.5355
  0
VERTEX
  8
LAYER_1
 10
149.8217
 20
-246.5355
  0
VERTEX
  8
LAYER_1
 10
149.8217
 20
-248.7187
 42
-0.1000186514
  0
VERTEX
  8
LAYER_1
 10
149.6875
 20
-249.4569
 42
-0.1214826848
  0
VERTEX
  8
LAYER_1
 10
149.3164
 20
-249.9606
 42
-0.1105884685
  0
VERTEX
  8
LAYER_1
 10
148.6945
 20
-250.2654
 42
-0.06129767201
  0
VERTEX
  8
LAYER_1
 10
148.0509
 20
-250.3406
 42
-0.09420892198
  0
VERTEX
  8
LAYER_1
 10
147.2365
 20
-250.2032
 42
-0.2431575096
  0
VERTEX
  8
LAYER_1
 10
146.4378
 20
-249.2978
 42
-0.06319469768
  0
VERTEX
  8
LAYER_1
 10
146.3707
 20
-248.7404
  0
VERTEX
  8
LAYER_1
 10
146.3707
 20
-246.5355
  0
SEQEND
  0
ENDBLK
  0
BLOCK
  8
LAYER_1
  2
AIGNBL01040008
 70
64
 10
0
 20
0
 30
0
  3
AIGNBL01040008
  0
POLYLINE
  8
LAYER_1
 40
0.05
 41
0.05
 66
1
 10
0
 20
0
 30
0
 70
1
  0
VERTEX
  8
LAYER_1
 10
151.5573
 20
-249.1011
  0
VERTEX
  8
LAYER_1
 10
151.0709
 20
-250.2793
  0
VERTEX
  8
LAYER_1
 10
150.447
 20
-250.2793
  0
VERTEX
  8
LAYER_1
 10
152.0365
 20
-246.5355
  0
VERTEX
  8
LAYER_1
 10
152.7655
 20
-246.5355
  0
VERTEX
  8
LAYER_1
 10
154.3623
 20
-250.2793
  0
VERTEX
  8
LAYER_1
 10
153.7167
 20
-250.2793
  0
VERTEX
  8
LAYER_1
 10
153.2175
 20
-249.1011
  0
SEQEND
  0
POLYLINE
  8
LAYER_1
 40
0.05
 41
0.05
 66
1
 10
0
 20
0
 30
0
 70
1
  0
VERTEX
  8
LAYER_1
 10
153.0921
 20
-248.7245
  0
VERTEX
  8
LAYER_1
 10
152.6332
 20
-247.6459
  0
VERTEX
  8
LAYER_1
 10
152.3897
 20
-246.963
  0
VERTEX
  8
LAYER_1
 10
152.3759
 20
-246.963
  0
VERTEX
  8
LAYER_1
 10
152.1402
 20
-247.6414
  0
VERTEX
  8
LAYER_1
 10
151.682
 20
-248.7245
  0
SEQEND
  0
ENDBLK
  0
BLOCK
  8
LAYER_1
  2
AIGNBL01040009
 70
64
 10
0
 20
0
 30
0
  3
AIGNBL01040009
  0
POLYLINE
  8
LAYER_1
 40
0.05
 41
0.05
 66
1
 10
0
 20
0
 30
0
 70
1
  0
VERTEX
  8
LAYER_1
 10
155.3969
 20
-246.58
 42
-0.03256094069
  0
VERTEX
  8
LAYER_1
 10
156.5576
 20
-246.5072
 42
-0.08241612935
  0
VERTEX
  8
LAYER_1
 10
157.5173
 20
-246.6416
 42
-0.07669938049
  0
VERTEX
  8
LAYER_1
 10
157.8691
 20
-246.8184
 42
-0.2484913661
  0
VERTEX
  8
LAYER_1
 10
158.279
 20
-247.6018
 42
-0.2263535337
  0
VERTEX
  8
LAYER_1
 10
157.9177
 20
-248.4014
 42
-0.1098394792
  0
VERTEX
  8
LAYER_1
 10
157.2932
 20
-248.7128
 42
-0.0656406839
  0
VERTEX
  8
LAYER_1
 10
156.4872
 20
-248.8127
 42
-0.06243203296
  0
VERTEX
  8
LAYER_1
 10
156.0015
 20
-248.7793
  0
VERTEX
  8
LAYER_1
 10
156.0015
 20
-250.2793
  0
VERTEX
  8
LAYER_1
 10
155.3969
 20
-250.2793
  0
SEQEND
  0
POLYLINE
  8
LAYER_1
 40
0.05
 41
0.05
 66
1
 10
0
 20
0
 30
0
 70
1
  0
VERTEX
  8
LAYER_1
 10
156.0015
 20
-248.3852
 42
0.04167858666
  0
VERTEX
  8
LAYER_1
 10
156.501
 20
-248.4245
 42
0.1033682296
  0
VERTEX
  8
LAYER_1
 10
157.216
 20
-248.2977
 42
0.300261568
  0
VERTEX
  8
LAYER_1
 10
157.6751
 20
-247.6242
 42
0.1736095203
  0
VERTEX
  8
LAYER_1
 10
157.5412
 20
-247.2193
 42
0.1518049397
  0
VERTEX
  8
LAYER_1
 10
157.1227
 20
-246.9614
 42
0.06878721899
  0
VERTEX
  8
LAYER_1
 10
156.5713
 20
-246.891
 42
0.0640598863
  0
VERTEX
  8
LAYER_1
 10
156.0015
 20
-246.93
  0
SEQEND
  0
ENDBLK
  0
BLOCK
  8
LAYER_1
  2
AIGNBL0104000A
 70
64
 10
0
 20
0
 30
0
  3
AIGNBL0104000A
  0
POLYLINE
  8
LAYER_1
 40
0.05
 41
0.05
 66
1
 10
0
 20
0
 30
0
 70
1
  0
VERTEX
  8
LAYER_1
 10
159.8218
 20
-246.8352
 42
-0.2759870412
  0
VERTEX
  8
LAYER_1
 10
159.6829
 20
-247.0742
 42
-0.1267055018
  0
VERTEX
  8
LAYER_1
 10
159.4325
 20
-247.1356
 42
-0.2239956238
  0
VERTEX
  8
LAYER_1
 10
159.1241
 20
-247.0039
 42
-0.1705452753
  0
VERTEX
  8
LAYER_1
 10
159.0645
 20
-246.8352
 42
-0.2641883957
  0
VERTEX
  8
LAYER_1
 10
159.2127
 20
-246.5896
 42
-0.1291792354
  0
VERTEX
  8
LAYER_1
 10
159.4459
 20
-246.53
 42
-0.2251681707
  0
VERTEX
  8
LAYER_1
 10
159.761
 20
-246.6599
 42
-0.1693099844
  0
SEQEND
  0
POLYLINE
  8
LAYER_1
 40
0.05
 41
0.05
 66
1
 10
0
 20
0
 30
0
 70
1
  0
VERTEX
  8
LAYER_1
 10
159.1407
 20
-250.2793
  0
VERTEX
  8
LAYER_1
 10
159.1407
 20
-247.5907
  0
VERTEX
  8
LAYER_1
 10
159.7515
 20
-247.5907
  0
VERTEX
  8
LAYER_1
 10
159.7515
 20
-250.2793
  0
SEQEND
  0
ENDBLK
  0
BLOCK
  8
LAYER_1
  2
AIGNBL0104000B
 70
64
 10
0
 20
0
 30
0
  3
AIGNBL0104000B
  0
POLYLINE
  8
LAYER_1
 40
0.05
 41
0.05
 66
1
 10
0
 20
0
 30
0
 70
1
  0
VERTEX
  8
LAYER_1
 10
161.6118
 20
-249.1011
  0
VERTEX
  8
LAYER_1
 10
161.1271
 20
-250.2793
  0
VERTEX
  8
LAYER_1
 10
160.5015
 20
-250.2793
  0
VERTEX
  8
LAYER_1
 10
162.0918
 20
-246.5355
  0
VERTEX
  8
LAYER_1
 10
162.8211
 20
-246.5355
  0
VERTEX
  8
LAYER_1
 10
164.4186
 20
-250.2793
  0
VERTEX
  8
LAYER_1
 10
163.7719
 20
-250.2793
  0
VERTEX
  8
LAYER_1
 10
163.2727
 20
-249.1011
  0
SEQEND
  0
POLYLINE
  8
LAYER_1
 40
0.05
 41
0.05
 66
1
 10
0
 20
0
 30
0
 70
1
  0
VERTEX
  8
LAYER_1
 10
163.1473
 20
-248.7245
  0
VERTEX
  8
LAYER_1
 10
162.6891
 20
-247.6459
  0
VERTEX
  8
LAYER_1
 10
162.4466
 20
-246.963
  0
VERTEX
  8
LAYER_1
 10
162.4321
 20
-246.963
  0
VERTEX
  8
LAYER_1
 10
162.1961
 20
-247.6414
  0
VERTEX
  8
LAYER_1
 10
161.7379
 20
-248.7245
  0
SEQEND
  0
ENDBLK
  0
BLOCK
  8
LAYER_1
  2
AIGNBL01030004
 70
64
 10
0
 20
0
 30
0
  3
AIGNBL01030004
  0
INSERT
  8
LAYER_1
  2
AIGNBL01040005
 10
0
 20
0
 30
0
  0
INSERT
  8
LAYER_1
  2
AIGNBL01040006
 10
0
 20
0
 30
0
  0
INSERT
  8
LAYER_1
  2
AIGNBL01040007
 10
0
 20
0
 30
0
  0
INSERT
  8
LAYER_1
  2
AIGNBL01040008
 10
0
 20
0
 30
0
  0
INSERT
  8
LAYER_1
  2
AIGNBL01040009
 10
0
 20
0
 30
0
  0
INSERT
  8
LAYER_1
  2
AIGNBL0104000A
 10
0
 20
0
 30
0
  0
INSERT
  8
LAYER_1
  2
AIGNBL0104000B
 10
0
 20
0
 30
0
  0
ENDBLK
  0
BLOCK
  8
LAYER_1
  2
AIGNBL0103000D
 70
64
 10
0
 20
0
 30
0
  3
AIGNBL0103000D
  0
POLYLINE
  8
LAYER_1
 40
0.05
 41
0.05
 66
1
 10
0
 20
0
 30
0
 70
1
  0
VERTEX
  8
LAYER_1
 10
137.3756
 20
-252.1676
  0
VERTEX
  8
LAYER_1
 10
137.9258
 20
-252.1676
  0
VERTEX
  8
LAYER_1
 10
137.9258
 20
-252.2609
  0
VERTEX
  8
LAYER_1
 10
137.2715
 20
-252.2609
  0
VERTEX
  8
LAYER_1
 10
137.2715
 20
-251.2339
  0
VERTEX
  8
LAYER_1
 10
137.9082
 20
-251.2339
  0
VERTEX
  8
LAYER_1
 10
137.9082
 20
-251.3266
  0
VERTEX
  8
LAYER_1
 10
137.3756
 20
-251.3266
  0
VERTEX
  8
LAYER_1
 10
137.3756
 20
-251.6787
  0
VERTEX
  8
LAYER_1
 10
137.8734
 20
-251.6787
  0
VERTEX
  8
LAYER_1
 10
137.8734
 20
-251.7717
  0
VERTEX
  8
LAYER_1
 10
137.3756
 20
-251.7717
  0
SEQEND
  0
ENDBLK
  0
BLOCK
  8
LAYER_1
  2
AIGNBL0103000E
 70
64
 10
0
 20
0
 30
0
  3
AIGNBL0103000E
  0
POLYLINE
  8
LAYER_1
 40
0.05
 41
0.05
 66
1
 10
0
 20
0
 30
0
 70
1
  0
VERTEX
  8
LAYER_1
 10
139.0589
 20
-252.1079
  0
VERTEX
  8
LAYER_1
 10
139.0613
 20
-252.1079
  0
VERTEX
  8
LAYER_1
 10
139.0613
 20
-251.2339
  0
VERTEX
  8
LAYER_1
 10
139.1663
 20
-251.2339
  0
VERTEX
  8
LAYER_1
 10
139.1663
 20
-252.2609
  0
VERTEX
  8
LAYER_1
 10
139.0365
 20
-252.2609
  0
VERTEX
  8
LAYER_1
 10
138.4384
 20
-251.3772
  0
VERTEX
  8
LAYER_1
 10
138.435
 20
-251.3772
  0
VERTEX
  8
LAYER_1
 10
138.435
 20
-252.2609
  0
VERTEX
  8
LAYER_1
 10
138.3306
 20
-252.2609
  0
VERTEX
  8
LAYER_1
 10
138.3306
 20
-251.2339
  0
VERTEX
  8
LAYER_1
 10
138.4611
 20
-251.2339
  0
SEQEND
  0
ENDBLK
  0
BLOCK
  8
LAYER_1
  2
AIGNBL0103000F
 70
64
 10
0
 20
0
 30
0
  3
AIGNBL0103000F
  0
POLYLINE
  8
LAYER_1
 40
0.05
 41
0.05
 66
1
 10
0
 20
0
 30
0
 70
1
  0
VERTEX
  8
LAYER_1
 10
139.637
 20
-252.0501
  0
VERTEX
  8
LAYER_1
 10
139.691
 20
-252.1527
 42
0.1791739205
  0
VERTEX
  8
LAYER_1
 10
139.8034
 20
-252.1937
  0
VERTEX
  8
LAYER_1
 10
139.8922
 20
-252.1744
  0
VERTEX
  8
LAYER_1
 10
139.948
 20
-252.1214
  0
VERTEX
  8
LAYER_1
 10
139.9763
 20
-252.0453
  0
VERTEX
  8
LAYER_1
 10
139.9853
 20
-251.956
  0
VERTEX
  8
LAYER_1
 10
139.9853
 20
-251.2339
  0
VERTEX
  8
LAYER_1
 10
140.0893
 20
-251.2339
  0
VERTEX
  8
LAYER_1
 10
140.0893
 20
-251.965
  0
VERTEX
  8
LAYER_1
 10
140.0783
 20
-252.0718
  0
VERTEX
  8
LAYER_1
 10
140.0369
 20
-252.1765
  0
VERTEX
  8
LAYER_1
 10
139.9529
 20
-252.2554
  0
VERTEX
  8
LAYER_1
 10
139.8147
 20
-252.2868
 42
-0.18823279
  0
VERTEX
  8
LAYER_1
 10
139.6311
 20
-252.2268
 42
-0.1779708983
  0
VERTEX
  8
LAYER_1
 10
139.5391
 20
-252.0769
  0
SEQEND
  0
ENDBLK
  0
BLOCK
  8
LAYER_1
  2
AIGNBL01030010
 70
64
 10
0
 20
0
 30
0
  3
AIGNBL01030010
  0
POLYLINE
  8
LAYER_1
 40
0.05
 41
0.05
 66
1
 10
0
 20
0
 30
0
 70
1
  0
VERTEX
  8
LAYER_1
 10
141.5693
 20
-251.7469
 42
-0.104348301
  0
VERTEX
  8
LAYER_1
 10
141.5279
 20
-251.9629
 42
-0.1013865216
  0
VERTEX
  8
LAYER_1
 10
141.4163
 20
-252.1338
  0
VERTEX
  8
LAYER_1
 10
141.2458
 20
-252.2461
 42
-0.09497960855
  0
VERTEX
  8
LAYER_1
 10
141.0332
 20
-252.2868
 42
-0.1003676177
  0
VERTEX
  8
LAYER_1
 10
140.8207
 20
-252.2461
  0
VERTEX
  8
LAYER_1
 10
140.6512
 20
-252.1338
 42
-0.09474436642
  0
VERTEX
  8
LAYER_1
 10
140.5389
 20
-251.9629
 42
-0.09317427323
  0
VERTEX
  8
LAYER_1
 10
140.4986
 20
-251.7469
 42
-0.1052531491
  0
VERTEX
  8
LAYER_1
 10
140.5389
 20
-251.5306
 42
-0.1000138279
  0
VERTEX
  8
LAYER_1
 10
140.6512
 20
-251.3604
 42
-0.09581503346
  0
VERTEX
  8
LAYER_1
 10
140.8207
 20
-251.2481
 42
-0.09561956468
  0
VERTEX
  8
LAYER_1
 10
141.0332
 20
-251.2071
 42
-0.1024782491
  0
VERTEX
  8
LAYER_1
 10
141.2458
 20
-251.2481
 42
-0.1014786584
  0
VERTEX
  8
LAYER_1
 10
141.4163
 20
-251.3604
 42
-0.09815577957
  0
VERTEX
  8
LAYER_1
 10
141.5279
 20
-251.5306
 42
-0.09523735002
  0
SEQEND
  0
POLYLINE
  8
LAYER_1
 40
0.05
 41
0.05
 66
1
 10
0
 20
0
 30
0
 70
1
  0
VERTEX
  8
LAYER_1
 10
141.4584
 20
-251.7476
  0
VERTEX
  8
LAYER_1
 10
141.4301
 20
-251.5767
  0
VERTEX
  8
LAYER_1
 10
141.3454
 20
-251.4344
  0
VERTEX
  8
LAYER_1
 10
141.211
 20
-251.337
 42
0.1026237584
  0
VERTEX
  8
LAYER_1
 10
141.0332
 20
-251.3001
 42
0.1147987019
  0
VERTEX
  8
LAYER_1
 10
140.8558
 20
-251.337
  0
VERTEX
  8
LAYER_1
 10
140.7225
 20
-251.4344
  0
VERTEX
  8
LAYER_1
 10
140.6374
 20
-251.5767
  0
VERTEX
  8
LAYER_1
 10
140.6081
 20
-251.7476
  0
VERTEX
  8
LAYER_1
 10
140.6374
 20
-251.9188
  0
VERTEX
  8
LAYER_1
 10
140.7225
 20
-252.0607
  0
VERTEX
  8
LAYER_1
 10
140.8558
 20
-252.1575
  0
VERTEX
  8
LAYER_1
 10
141.0332
 20
-252.1937
 42
0.1185100977
  0
VERTEX
  8
LAYER_1
 10
141.211
 20
-252.1575
  0
VERTEX
  8
LAYER_1
 10
141.3454
 20
-252.0607
  0
VERTEX
  8
LAYER_1
 10
141.4301
 20
-251.9188
  0
SEQEND
  0
ENDBLK
  0
BLOCK
  8
LAYER_1
  2
AIGNBL01030011
 70
64
 10
0
 20
0
 30
0
  3
AIGNBL01030011
  0
POLYLINE
  8
LAYER_1
 40
0.05
 41
0.05
 66
1
 10
0
 20
0
 30
0
 70
1
  0
VERTEX
  8
LAYER_1
 10
142.3393
 20
-252.2609
  0
VERTEX
  8
LAYER_1
 10
142.2349
 20
-252.2609
  0
VERTEX
  8
LAYER_1
 10
142.2349
 20
-251.8182
  0
VERTEX
  8
LAYER_1
 10
141.8504
 20
-251.2339
  0
VERTEX
  8
LAYER_1
 10
141.9813
 20
-251.2339
  0
VERTEX
  8
LAYER_1
 10
142.2904
 20
-251.7311
  0
VERTEX
  8
LAYER_1
 10
142.6022
 20
-251.2339
  0
VERTEX
  8
LAYER_1
 10
142.7234
 20
-251.2339
  0
VERTEX
  8
LAYER_1
 10
142.3393
 20
-251.8182
  0
SEQEND
  0
ENDBLK
  0
BLOCK
  8
LAYER_1
  2
AIGNBL01030012
 70
64
 10
0
 20
0
 30
0
  3
AIGNBL01030012
  0
POLYLINE
  8
LAYER_1
 40
0.05
 41
0.05
 66
1
 10
0
 20
0
 30
0
 70
1
  0
VERTEX
  8
LAYER_1
 10
143.6236
 20
-251.2339
  0
VERTEX
  8
LAYER_1
 10
143.9288
 20
-251.2339
  0
VERTEX
  8
LAYER_1
 10
144.047
 20
-251.2457
  0
VERTEX
  8
LAYER_1
 10
144.1528
 20
-251.288
  0
VERTEX
  8
LAYER_1
 10
144.2307
 20
-251.3686
  0
VERTEX
  8
LAYER_1
 10
144.2603
 20
-251.4961
 42
-0.1778951175
  0
VERTEX
  8
LAYER_1
 10
144.2103
 20
-251.6373
 42
-0.1614829203
  0
VERTEX
  8
LAYER_1
 10
144.078
 20
-251.7166
  0
VERTEX
  8
LAYER_1
 10
144.078
 20
-251.7194
 42
-0.1736511409
  0
VERTEX
  8
LAYER_1
 10
144.2434
 20
-251.7969
 42
-0.1925337955
  0
VERTEX
  8
LAYER_1
 10
144.3099
 20
-251.9764
  0
VERTEX
  8
LAYER_1
 10
144.2823
 20
-252.0928
  0
VERTEX
  8
LAYER_1
 10
144.2062
 20
-252.1831
  0
VERTEX
  8
LAYER_1
 10
144.0866
 20
-252.2402
  0
VERTEX
  8
LAYER_1
 10
143.9275
 20
-252.2609
  0
VERTEX
  8
LAYER_1
 10
143.6236
 20
-252.2609
  0
SEQEND
  0
POLYLINE
  8
LAYER_1
 40
0.05
 41
0.05
 66
1
 10
0
 20
0
 30
0
 70
1
  0
VERTEX
  8
LAYER_1
 10
143.7277
 20
-251.6832
  0
VERTEX
  8
LAYER_1
 10
143.9382
 20
-251.6832
  0
VERTEX
  8
LAYER_1
 10
144.0146
 20
-251.6742
  0
VERTEX
  8
LAYER_1
 10
144.0842
 20
-251.6453
  0
VERTEX
  8
LAYER_1
 10
144.1362
 20
-251.5888
  0
VERTEX
  8
LAYER_1
 10
144.1552
 20
-251.5034
  0
VERTEX
  8
LAYER_1
 10
144.1362
 20
-251.4203
  0
VERTEX
  8
LAYER_1
 10
144.0835
 20
-251.3638
  0
VERTEX
  8
LAYER_1
 10
144.005
 20
-251.3328
  0
VERTEX
  8
LAYER_1
 10
143.9089
 20
-251.3235
  0
VERTEX
  8
LAYER_1
 10
143.7277
 20
-251.3235
  0
SEQEND
  0
POLYLINE
  8
LAYER_1
 40
0.05
 41
0.05
 66
1
 10
0
 20
0
 30
0
 70
1
  0
VERTEX
  8
LAYER_1
 10
143.7277
 20
-252.171
  0
VERTEX
  8
LAYER_1
 10
143.9223
 20
-252.171
  0
VERTEX
  8
LAYER_1
 10
144.0301
 20
-252.1596
  0
VERTEX
  8
LAYER_1
 10
144.1204
 20
-252.1252
  0
VERTEX
  8
LAYER_1
 10
144.181
 20
-252.0625
  0
VERTEX
  8
LAYER_1
 10
144.2048
 20
-251.9705
 42
0.2546661425
  0
VERTEX
  8
LAYER_1
 10
144.1362
 20
-251.8189
 42
0.138509597
  0
VERTEX
  8
LAYER_1
 10
143.9413
 20
-251.7686
  0
VERTEX
  8
LAYER_1
 10
143.7277
 20
-251.7686
  0
SEQEND
  0
ENDBLK
  0
BLOCK
  8
LAYER_1
  2
AIGNBL01030013
 70
64
 10
0
 20
0
 30
0
  3
AIGNBL01030013
  0
POLYLINE
  8
LAYER_1
 40
0.05
 41
0.05
 66
1
 10
0
 20
0
 30
0
 70
1
  0
VERTEX
  8
LAYER_1
 10
144.7388
 20
-252.2609
  0
VERTEX
  8
LAYER_1
 10
144.6241
 20
-252.2609
  0
VERTEX
  8
LAYER_1
 10
145.0685
 20
-251.2339
  0
VERTEX
  8
LAYER_1
 10
145.1705
 20
-251.2339
  0
VERTEX
  8
LAYER_1
 10
145.6111
 20
-252.2609
  0
VERTEX
  8
LAYER_1
 10
145.4943
 20
-252.2609
  0
VERTEX
  8
LAYER_1
 10
145.3813
 20
-251.9912
  0
VERTEX
  8
LAYER_1
 10
144.8504
 20
-251.9912
  0
SEQEND
  0
POLYLINE
  8
LAYER_1
 40
0.05
 41
0.05
 66
1
 10
0
 20
0
 30
0
 70
1
  0
VERTEX
  8
LAYER_1
 10
144.8894
 20
-251.8947
  0
VERTEX
  8
LAYER_1
 10
145.3424
 20
-251.8947
  0
VERTEX
  8
LAYER_1
 10
145.1164
 20
-251.3493
  0
SEQEND
  0
ENDBLK
  0
BLOCK
  8
LAYER_1
  2
AIGNBL01030014
 70
64
 10
0
 20
0
 30
0
  3
AIGNBL01030014
  0
POLYLINE
  8
LAYER_1
 40
0.05
 41
0.05
 66
1
 10
0
 20
0
 30
0
 70
1
  0
VERTEX
  8
LAYER_1
 10
146.2915
 20
-252.2609
  0
VERTEX
  8
LAYER_1
 10
146.1871
 20
-252.2609
  0
VERTEX
  8
LAYER_1
 10
146.1871
 20
-251.3266
  0
VERTEX
  8
LAYER_1
 10
145.8426
 20
-251.3266
  0
VERTEX
  8
LAYER_1
 10
145.8426
 20
-251.2339
  0
VERTEX
  8
LAYER_1
 10
146.635
 20
-251.2339
  0
VERTEX
  8
LAYER_1
 10
146.635
 20
-251.3266
  0
VERTEX
  8
LAYER_1
 10
146.2915
 20
-251.3266
  0
SEQEND
  0
ENDBLK
  0
BLOCK
  8
LAYER_1
  2
AIGNBL01030015
 70
64
 10
0
 20
0
 30
0
  3
AIGNBL01030015
  0
POLYLINE
  8
LAYER_1
 40
0.05
 41
0.05
 66
1
 10
0
 20
0
 30
0
 70
1
  0
VERTEX
  8
LAYER_1
 10
146.9888
 20
-251.2339
  0
VERTEX
  8
LAYER_1
 10
147.0932
 20
-251.2339
  0
VERTEX
  8
LAYER_1
 10
147.0932
 20
-251.6787
  0
VERTEX
  8
LAYER_1
 10
147.654
 20
-251.6787
  0
VERTEX
  8
LAYER_1
 10
147.654
 20
-251.2339
  0
VERTEX
  8
LAYER_1
 10
147.7581
 20
-251.2339
  0
VERTEX
  8
LAYER_1
 10
147.7581
 20
-252.2609
  0
VERTEX
  8
LAYER_1
 10
147.654
 20
-252.2609
  0
VERTEX
  8
LAYER_1
 10
147.654
 20
-251.7745
  0
VERTEX
  8
LAYER_1
 10
147.0932
 20
-251.7745
  0
VERTEX
  8
LAYER_1
 10
147.0932
 20
-252.2609
  0
VERTEX
  8
LAYER_1
 10
146.9888
 20
-252.2609
  0
SEQEND
  0
ENDBLK
  0
BLOCK
  8
LAYER_1
  2
AIGNBL01030016
 70
64
 10
0
 20
0
 30
0
  3
AIGNBL01030016
  0
POLYLINE
  8
LAYER_1
 40
0.05
 41
0.05
 66
1
 10
0
 20
0
 30
0
 70
1
  0
VERTEX
  8
LAYER_1
 10
148.3351
 20
-252.2609
  0
VERTEX
  8
LAYER_1
 10
148.2311
 20
-252.2609
  0
VERTEX
  8
LAYER_1
 10
148.2311
 20
-251.2339
  0
VERTEX
  8
LAYER_1
 10
148.5322
 20
-251.2339
  0
VERTEX
  8
LAYER_1
 10
148.6724
 20
-251.2481
  0
VERTEX
  8
LAYER_1
 10
148.7844
 20
-251.2953
  0
VERTEX
  8
LAYER_1
 10
148.8571
 20
-251.38
  0
VERTEX
  8
LAYER_1
 10
148.8829
 20
-251.5078
  0
VERTEX
  8
LAYER_1
 10
148.8636
 20
-251.6108
  0
VERTEX
  8
LAYER_1
 10
148.8088
 20
-251.6911
  0
VERTEX
  8
LAYER_1
 10
148.7258
 20
-251.7459
  0
VERTEX
  8
LAYER_1
 10
148.6214
 20
-251.7717
  0
VERTEX
  8
LAYER_1
 10
148.9211
 20
-252.2609
  0
VERTEX
  8
LAYER_1
 10
148.7937
 20
-252.2609
  0
VERTEX
  8
LAYER_1
 10
148.5098
 20
-251.7807
  0
VERTEX
  8
LAYER_1
 10
148.3351
 20
-251.7807
  0
SEQEND
  0
POLYLINE
  8
LAYER_1
 40
0.05
 41
0.05
 66
1
 10
0
 20
0
 30
0
 70
1
  0
VERTEX
  8
LAYER_1
 10
148.3351
 20
-251.6904
  0
VERTEX
  8
LAYER_1
 10
148.517
 20
-251.6904
 42
0.1622417858
  0
VERTEX
  8
LAYER_1
 10
148.711
 20
-251.6453
 42
0.2500476248
  0
VERTEX
  8
LAYER_1
 10
148.7799
 20
-251.5078
  0
VERTEX
  8
LAYER_1
 10
148.7602
 20
-251.4224
  0
VERTEX
  8
LAYER_1
 10
148.7079
 20
-251.3652
  0
VERTEX
  8
LAYER_1
 10
148.6269
 20
-251.3338
  0
VERTEX
  8
LAYER_1
 10
148.5212
 20
-251.3235
  0
VERTEX
  8
LAYER_1
 10
148.3351
 20
-251.3235
  0
SEQEND
  0
ENDBLK
  0
BLOCK
  8
LAYER_1
  2
AIGNBL01030017
 70
64
 10
0
 20
0
 30
0
  3
AIGNBL01030017
  0
POLYLINE
  8
LAYER_1
 40
0.05
 41
0.05
 66
1
 10
0
 20
0
 30
0
 70
1
  0
VERTEX
  8
LAYER_1
 10
150.3154
 20
-251.7469
 42
-0.1015060182
  0
VERTEX
  8
LAYER_1
 10
150.2747
 20
-251.9629
 42
-0.09993540575
  0
VERTEX
  8
LAYER_1
 10
150.1624
 20
-252.1338
 42
-0.09525489566
  0
VERTEX
  8
LAYER_1
 10
149.9926
 20
-252.2461
 42
-0.09491251156
  0
VERTEX
  8
LAYER_1
 10
149.78
 20
-252.2868
 42
-0.1002015795
  0
VERTEX
  8
LAYER_1
 10
149.5674
 20
-252.2461
 42
-0.1016690689
  0
VERTEX
  8
LAYER_1
 10
149.3979
 20
-252.1338
 42
-0.09667300425
  0
VERTEX
  8
LAYER_1
 10
149.2856
 20
-251.9629
 42
-0.09262920428
  0
VERTEX
  8
LAYER_1
 10
149.2453
 20
-251.7469
 42
-0.09846568495
  0
VERTEX
  8
LAYER_1
 10
149.2856
 20
-251.5306
 42
-0.09950302227
  0
VERTEX
  8
LAYER_1
 10
149.3979
 20
-251.3604
 42
-0.09832237419
  0
VERTEX
  8
LAYER_1
 10
149.5674
 20
-251.2481
 42
-0.09564774702
  0
VERTEX
  8
LAYER_1
 10
149.78
 20
-251.2071
 42
-0.1014301699
  0
VERTEX
  8
LAYER_1
 10
149.9926
 20
-251.2481
 42
-0.1041253763
  0
VERTEX
  8
LAYER_1
 10
150.1624
 20
-251.3604
 42
-0.09489987116
  0
VERTEX
  8
LAYER_1
 10
150.2747
 20
-251.5306
 42
-0.09342113907
  0
SEQEND
  0
POLYLINE
  8
LAYER_1
 40
0.05
 41
0.05
 66
1
 10
0
 20
0
 30
0
 70
1
  0
VERTEX
  8
LAYER_1
 10
150.2051
 20
-251.7476
  0
VERTEX
  8
LAYER_1
 10
150.1762
 20
-251.5767
  0
VERTEX
  8
LAYER_1
 10
150.0921
 20
-251.4344
  0
VERTEX
  8
LAYER_1
 10
149.9581
 20
-251.337
 42
0.1022827687
  0
VERTEX
  8
LAYER_1
 10
149.78
 20
-251.3001
 42
0.1183846388
  0
VERTEX
  8
LAYER_1
 10
149.6026
 20
-251.337
  0
VERTEX
  8
LAYER_1
 10
149.4682
 20
-251.4344
  0
VERTEX
  8
LAYER_1
 10
149.3842
 20
-251.5767
  0
VERTEX
  8
LAYER_1
 10
149.3549
 20
-251.7476
  0
VERTEX
  8
LAYER_1
 10
149.3842
 20
-251.9188
  0
VERTEX
  8
LAYER_1
 10
149.4682
 20
-252.0607
  0
VERTEX
  8
LAYER_1
 10
149.6026
 20
-252.1575
 42
0.1007973502
  0
VERTEX
  8
LAYER_1
 10
149.78
 20
-252.1937
  0
VERTEX
  8
LAYER_1
 10
149.9581
 20
-252.1575
  0
VERTEX
  8
LAYER_1
 10
150.0921
 20
-252.0607
  0
VERTEX
  8
LAYER_1
 10
150.1762
 20
-251.9188
  0
SEQEND
  0
ENDBLK
  0
BLOCK
  8
LAYER_1
  2
AIGNBL01030018
 70
64
 10
0
 20
0
 30
0
  3
AIGNBL01030018
  0
POLYLINE
  8
LAYER_1
 40
0.05
 41
0.05
 66
1
 10
0
 20
0
 30
0
 70
1
  0
VERTEX
  8
LAYER_1
 10
151.7489
 20
-251.7469
 42
-0.1017020442
  0
VERTEX
  8
LAYER_1
 10
151.7086
 20
-251.9629
  0
VERTEX
  8
LAYER_1
 10
151.5963
 20
-252.1338
  0
VERTEX
  8
LAYER_1
 10
151.4264
 20
-252.2461
 42
-0.09495021158
  0
VERTEX
  8
LAYER_1
 10
151.2139
 20
-252.2868
 42
-0.1019502388
  0
VERTEX
  8
LAYER_1
 10
151.0013
 20
-252.2461
 42
-0.1021914323
  0
VERTEX
  8
LAYER_1
 10
150.8318
 20
-252.1338
 42
-0.09636018285
  0
VERTEX
  8
LAYER_1
 10
150.7188
 20
-251.9629
 42
-0.09364604827
  0
VERTEX
  8
LAYER_1
 10
150.6781
 20
-251.7469
 42
-0.1001287453
  0
VERTEX
  8
LAYER_1
 10
150.7188
 20
-251.5306
 42
-0.1037227634
  0
VERTEX
  8
LAYER_1
 10
150.8318
 20
-251.3604
 42
-0.0985967677
  0
VERTEX
  8
LAYER_1
 10
151.0013
 20
-251.2481
 42
-0.0957287822
  0
VERTEX
  8
LAYER_1
 10
151.2139
 20
-251.2071
 42
-0.1016365741
  0
VERTEX
  8
LAYER_1
 10
151.4264
 20
-251.2481
 42
-0.09861864621
  0
VERTEX
  8
LAYER_1
 10
151.5963
 20
-251.3604
 42
-0.09487953686
  0
VERTEX
  8
LAYER_1
 10
151.7086
 20
-251.5306
 42
-0.09256741039
  0
SEQEND
  0
POLYLINE
  8
LAYER_1
 40
0.05
 41
0.05
 66
1
 10
0
 20
0
 30
0
 70
1
  0
VERTEX
  8
LAYER_1
 10
151.639
 20
-251.7476
  0
VERTEX
  8
LAYER_1
 10
151.61
 20
-251.5767
  0
VERTEX
  8
LAYER_1
 10
151.526
 20
-251.4344
  0
VERTEX
  8
LAYER_1
 10
151.3916
 20
-251.337
 42
0.1025075331
  0
VERTEX
  8
LAYER_1
 10
151.2139
 20
-251.3001
 42
0.118884027
  0
VERTEX
  8
LAYER_1
 10
151.0361
 20
-251.337
  0
VERTEX
  8
LAYER_1
 10
150.9017
 20
-251.4344
  0
VERTEX
  8
LAYER_1
 10
150.818
 20
-251.5767
  0
VERTEX
  8
LAYER_1
 10
150.7887
 20
-251.7476
  0
VERTEX
  8
LAYER_1
 10
150.818
 20
-251.9188
  0
VERTEX
  8
LAYER_1
 10
150.9017
 20
-252.0607
  0
VERTEX
  8
LAYER_1
 10
151.0361
 20
-252.1575
 42
0.100589677
  0
VERTEX
  8
LAYER_1
 10
151.2139
 20
-252.1937
  0
VERTEX
  8
LAYER_1
 10
151.3916
 20
-252.1575
  0
VERTEX
  8
LAYER_1
 10
151.526
 20
-252.0607
  0
VERTEX
  8
LAYER_1
 10
151.61
 20
-251.9188
  0
SEQEND
  0
ENDBLK
  0
BLOCK
  8
LAYER_1
  2
AIGNBL01030019
 70
64
 10
0
 20
0
 30
0
  3
AIGNBL01030019
  0
POLYLINE
  8
LAYER_1
 40
0.05
 41
0.05
 66
1
 10
0
 20
0
 30
0
 70
1
  0
VERTEX
  8
LAYER_1
 10
152.6742
 20
-252.0839
  0
VERTEX
  8
LAYER_1
 10
152.6756
 20
-252.0839
  0
VERTEX
  8
LAYER_1
 10
153.0194
 20
-251.2339
  0
VERTEX
  8
LAYER_1
 10
153.1793
 20
-251.2339
  0
VERTEX
  8
LAYER_1
 10
153.1793
 20
-252.2609
  0
VERTEX
  8
LAYER_1
 10
153.0749
 20
-252.2609
  0
VERTEX
  8
LAYER_1
 10
153.0749
 20
-251.3686
  0
VERTEX
  8
LAYER_1
 10
153.0718
 20
-251.3686
  0
VERTEX
  8
LAYER_1
 10
152.7007
 20
-252.2609
  0
VERTEX
  8
LAYER_1
 10
152.646
 20
-252.2609
  0
VERTEX
  8
LAYER_1
 10
152.2743
 20
-251.3686
  0
VERTEX
  8
LAYER_1
 10
152.2708
 20
-251.3686
  0
VERTEX
  8
LAYER_1
 10
152.2708
 20
-252.2609
  0
VERTEX
  8
LAYER_1
 10
152.1668
 20
-252.2609
  0
VERTEX
  8
LAYER_1
 10
152.1668
 20
-251.2339
  0
VERTEX
  8
LAYER_1
 10
152.327
 20
-251.2339
  0
SEQEND
  0
ENDBLK
  0
BLOCK
  8
LAYER_1
  2
AIGNBL0103001A
 70
64
 10
0
 20
0
 30
0
  3
AIGNBL0103001A
  0
POLYLINE
  8
LAYER_1
 40
0.05
 41
0.05
 66
1
 10
0
 20
0
 30
0
 70
1
  0
VERTEX
  8
LAYER_1
 10
154.3196
 20
-252.1676
  0
VERTEX
  8
LAYER_1
 10
154.8694
 20
-252.1676
  0
VERTEX
  8
LAYER_1
 10
154.8694
 20
-252.2609
  0
VERTEX
  8
LAYER_1
 10
154.2145
 20
-252.2609
  0
VERTEX
  8
LAYER_1
 10
154.2145
 20
-251.2339
  0
VERTEX
  8
LAYER_1
 10
154.8522
 20
-251.2339
  0
VERTEX
  8
LAYER_1
 10
154.8522
 20
-251.3263
  0
VERTEX
  8
LAYER_1
 10
154.3196
 20
-251.3263
  0
VERTEX
  8
LAYER_1
 10
154.3196
 20
-251.6787
  0
VERTEX
  8
LAYER_1
 10
154.8167
 20
-251.6787
  0
VERTEX
  8
LAYER_1
 10
154.8167
 20
-251.7717
  0
VERTEX
  8
LAYER_1
 10
154.3196
 20
-251.7717
  0
SEQEND
  0
ENDBLK
  0
BLOCK
  8
LAYER_1
  2
AIGNBL0103001B
 70
64
 10
0
 20
0
 30
0
  3
AIGNBL0103001B
  0
POLYLINE
  8
LAYER_1
 40
0.05
 41
0.05
 66
1
 10
0
 20
0
 30
0
 70
1
  0
VERTEX
  8
LAYER_1
 10
155.6101
 20
-251.6484
  0
VERTEX
  8
LAYER_1
 10
155.8906
 20
-251.2339
  0
VERTEX
  8
LAYER_1
 10
156.0153
 20
-251.2339
  0
VERTEX
  8
LAYER_1
 10
155.6749
 20
-251.7221
  0
VERTEX
  8
LAYER_1
 10
156.0518
 20
-252.2609
  0
VERTEX
  8
LAYER_1
 10
155.9216
 20
-252.2609
  0
VERTEX
  8
LAYER_1
 10
155.6081
 20
-251.7979
  0
VERTEX
  8
LAYER_1
 10
155.296
 20
-252.2609
  0
VERTEX
  8
LAYER_1
 10
155.165
 20
-252.2609
  0
VERTEX
  8
LAYER_1
 10
155.5426
 20
-251.7211
  0
VERTEX
  8
LAYER_1
 10
155.1988
 20
-251.2339
  0
VERTEX
  8
LAYER_1
 10
155.329
 20
-251.2339
  0
SEQEND
  0
ENDBLK
  0
BLOCK
  8
LAYER_1
  2
AIGNBL0103001C
 70
64
 10
0
 20
0
 30
0
  3
AIGNBL0103001C
  0
POLYLINE
  8
LAYER_1
 40
0.05
 41
0.05
 66
1
 10
0
 20
0
 30
0
 70
1
  0
VERTEX
  8
LAYER_1
 10
156.4159
 20
-251.2339
  0
VERTEX
  8
LAYER_1
 10
156.706
 20
-251.2339
  0
VERTEX
  8
LAYER_1
 10
156.8487
 20
-251.2498
  0
VERTEX
  8
LAYER_1
 10
156.9575
 20
-251.3015
  0
VERTEX
  8
LAYER_1
 10
157.0288
 20
-251.3866
  0
VERTEX
  8
LAYER_1
 10
157.053
 20
-251.5078
  0
VERTEX
  8
LAYER_1
 10
157.0281
 20
-251.6291
  0
VERTEX
  8
LAYER_1
 10
156.9568
 20
-251.7145
  0
VERTEX
  8
LAYER_1
 10
156.8459
 20
-251.7659
  0
VERTEX
  8
LAYER_1
 10
156.7032
 20
-251.7831
  0
VERTEX
  8
LAYER_1
 10
156.5203
 20
-251.7831
  0
VERTEX
  8
LAYER_1
 10
156.5203
 20
-252.2609
  0
VERTEX
  8
LAYER_1
 10
156.4159
 20
-252.2609
  0
SEQEND
  0
POLYLINE
  8
LAYER_1
 40
0.05
 41
0.05
 66
1
 10
0
 20
0
 30
0
 70
1
  0
VERTEX
  8
LAYER_1
 10
156.5203
 20
-251.6949
  0
VERTEX
  8
LAYER_1
 10
156.6974
 20
-251.6949
 42
0.179800284
  0
VERTEX
  8
LAYER_1
 10
156.8848
 20
-251.6474
 42
0.2343125845
  0
VERTEX
  8
LAYER_1
 10
156.9489
 20
-251.5078
 42
0.2635647854
  0
VERTEX
  8
LAYER_1
 10
156.8824
 20
-251.3676
 42
0.1265134521
  0
VERTEX
  8
LAYER_1
 10
156.6974
 20
-251.3235
  0
VERTEX
  8
LAYER_1
 10
156.5203
 20
-251.3235
  0
SEQEND
  0
ENDBLK
  0
BLOCK
  8
LAYER_1
  2
AIGNBL0103001D
 70
64
 10
0
 20
0
 30
0
  3
AIGNBL0103001D
  0
POLYLINE
  8
LAYER_1
 40
0.05
 41
0.05
 66
1
 10
0
 20
0
 30
0
 70
1
  0
VERTEX
  8
LAYER_1
 10
157.5621
 20
-252.1676
  0
VERTEX
  8
LAYER_1
 10
158.1116
 20
-252.1676
  0
VERTEX
  8
LAYER_1
 10
158.1116
 20
-252.2609
  0
VERTEX
  8
LAYER_1
 10
157.4577
 20
-252.2609
  0
VERTEX
  8
LAYER_1
 10
157.4577
 20
-251.2339
  0
VERTEX
  8
LAYER_1
 10
158.0947
 20
-251.2339
  0
VERTEX
  8
LAYER_1
 10
158.0947
 20
-251.3263
  0
VERTEX
  8
LAYER_1
 10
157.5621
 20
-251.3263
  0
VERTEX
  8
LAYER_1
 10
157.5621
 20
-251.6787
  0
VERTEX
  8
LAYER_1
 10
158.0599
 20
-251.6787
  0
VERTEX
  8
LAYER_1
 10
158.0599
 20
-251.7717
  0
VERTEX
  8
LAYER_1
 10
157.5621
 20
-251.7717
  0
SEQEND
  0
ENDBLK
  0
BLOCK
  8
LAYER_1
  2
AIGNBL0103001E
 70
64
 10
0
 20
0
 30
0
  3
AIGNBL0103001E
  0
POLYLINE
  8
LAYER_1
 40
0.05
 41
0.05
 66
1
 10
0
 20
0
 30
0
 70
1
  0
VERTEX
  8
LAYER_1
 10
158.6208
 20
-252.2609
  0
VERTEX
  8
LAYER_1
 10
158.5168
 20
-252.2609
  0
VERTEX
  8
LAYER_1
 10
158.5168
 20
-251.2339
  0
VERTEX
  8
LAYER_1
 10
158.8185
 20
-251.2339
  0
VERTEX
  8
LAYER_1
 10
158.9584
 20
-251.2481
  0
VERTEX
  8
LAYER_1
 10
159.07
 20
-251.2953
  0
VERTEX
  8
LAYER_1
 10
159.1438
 20
-251.38
  0
VERTEX
  8
LAYER_1
 10
159.1696
 20
-251.5078
  0
VERTEX
  8
LAYER_1
 10
159.1493
 20
-251.6105
  0
VERTEX
  8
LAYER_1
 10
159.0945
 20
-251.6915
  0
VERTEX
  8
LAYER_1
 10
159.0111
 20
-251.7459
  0
VERTEX
  8
LAYER_1
 10
158.9067
 20
-251.7717
  0
VERTEX
  8
LAYER_1
 10
159.2075
 20
-252.2609
  0
VERTEX
  8
LAYER_1
 10
159.08
 20
-252.2609
  0
VERTEX
  8
LAYER_1
 10
158.7955
 20
-251.7803
  0
VERTEX
  8
LAYER_1
 10
158.6208
 20
-251.7803
  0
SEQEND
  0
POLYLINE
  8
LAYER_1
 40
0.05
 41
0.05
 66
1
 10
0
 20
0
 30
0
 70
1
  0
VERTEX
  8
LAYER_1
 10
158.6208
 20
-251.69
  0
VERTEX
  8
LAYER_1
 10
158.8027
 20
-251.69
 42
0.1625850216
  0
VERTEX
  8
LAYER_1
 10
158.9974
 20
-251.6453
 42
0.2500143464
  0
VERTEX
  8
LAYER_1
 10
159.0652
 20
-251.5078
  0
VERTEX
  8
LAYER_1
 10
159.047
 20
-251.4224
  0
VERTEX
  8
LAYER_1
 10
158.9943
 20
-251.3652
  0
VERTEX
  8
LAYER_1
 10
158.9123
 20
-251.3338
  0
VERTEX
  8
LAYER_1
 10
158.8065
 20
-251.3235
  0
VERTEX
  8
LAYER_1
 10
158.6208
 20
-251.3235
  0
SEQEND
  0
ENDBLK
  0
BLOCK
  8
LAYER_1
  2
AIGNBL0103001F
 70
64
 10
0
 20
0
 30
0
  3
AIGNBL0103001F
  0
POLYLINE
  8
LAYER_1
 40
0.05
 41
0.05
 66
1
 10
0
 20
0
 30
0
 70
1
  0
VERTEX
  8
LAYER_1
 10
159.6898
 20
-252.2609
  0
VERTEX
  8
LAYER_1
 10
159.5865
 20
-252.2609
  0
VERTEX
  8
LAYER_1
 10
159.5865
 20
-251.2339
  0
VERTEX
  8
LAYER_1
 10
159.6898
 20
-251.2339
  0
SEQEND
  0
ENDBLK
  0
BLOCK
  8
LAYER_1
  2
AIGNBL01030020
 70
64
 10
0
 20
0
 30
0
  3
AIGNBL01030020
  0
POLYLINE
  8
LAYER_1
 40
0.05
 41
0.05
 66
1
 10
0
 20
0
 30
0
 70
1
  0
VERTEX
  8
LAYER_1
 10
160.2676
 20
-252.1676
  0
VERTEX
  8
LAYER_1
 10
160.8174
 20
-252.1676
  0
VERTEX
  8
LAYER_1
 10
160.8174
 20
-252.2609
  0
VERTEX
  8
LAYER_1
 10
160.1639
 20
-252.2609
  0
VERTEX
  8
LAYER_1
 10
160.1639
 20
-251.2339
  0
VERTEX
  8
LAYER_1
 10
160.8005
 20
-251.2339
  0
VERTEX
  8
LAYER_1
 10
160.8005
 20
-251.3263
  0
VERTEX
  8
LAYER_1
 10
160.2676
 20
-251.3263
  0
VERTEX
  8
LAYER_1
 10
160.2676
 20
-251.6787
  0
VERTEX
  8
LAYER_1
 10
160.7654
 20
-251.6787
  0
VERTEX
  8
LAYER_1
 10
160.7654
 20
-251.7717
  0
VERTEX
  8
LAYER_1
 10
160.2676
 20
-251.7717
  0
SEQEND
  0
ENDBLK
  0
BLOCK
  8
LAYER_1
  2
AIGNBL01030021
 70
64
 10
0
 20
0
 30
0
  3
AIGNBL01030021
  0
POLYLINE
  8
LAYER_1
 40
0.05
 41
0.05
 66
1
 10
0
 20
0
 30
0
 70
1
  0
VERTEX
  8
LAYER_1
 10
161.9505
 20
-252.1079
  0
VERTEX
  8
LAYER_1
 10
161.9536
 20
-252.1079
  0
VERTEX
  8
LAYER_1
 10
161.9536
 20
-251.2339
  0
VERTEX
  8
LAYER_1
 10
162.058
 20
-251.2339
  0
VERTEX
  8
LAYER_1
 10
162.058
 20
-252.2609
  0
VERTEX
  8
LAYER_1
 10
161.9277
 20
-252.2609
  0
VERTEX
  8
LAYER_1
 10
161.3297
 20
-251.3772
  0
VERTEX
  8
LAYER_1
 10
161.3266
 20
-251.3772
  0
VERTEX
  8
LAYER_1
 10
161.3266
 20
-252.2609
  0
VERTEX
  8
LAYER_1
 10
161.2222
 20
-252.2609
  0
VERTEX
  8
LAYER_1
 10
161.2222
 20
-251.2339
  0
VERTEX
  8
LAYER_1
 10
161.3535
 20
-251.2339
  0
SEQEND
  0
ENDBLK
  0
BLOCK
  8
LAYER_1
  2
AIGNBL01030022
 70
64
 10
0
 20
0
 30
0
  3
AIGNBL01030022
  0
POLYLINE
  8
LAYER_1
 40
0.05
 41
0.05
 66
1
 10
0
 20
0
 30
0
 70
1
  0
VERTEX
  8
LAYER_1
 10
163.396
 20
-252.0942
  0
VERTEX
  8
LAYER_1
 10
163.3323
 20
-252.1679
  0
VERTEX
  8
LAYER_1
 10
163.2469
 20
-252.2295
  0
VERTEX
  8
LAYER_1
 10
163.1394
 20
-252.2716
  0
VERTEX
  8
LAYER_1
 10
163.0112
 20
-252.2868
 42
-0.1009164681
  0
VERTEX
  8
LAYER_1
 10
162.7966
 20
-252.2461
 42
-0.1027581013
  0
VERTEX
  8
LAYER_1
 10
162.6271
 20
-252.1335
 42
-0.1010578842
  0
VERTEX
  8
LAYER_1
 10
162.5162
 20
-251.9633
 42
-0.09298732079
  0
VERTEX
  8
LAYER_1
 10
162.4759
 20
-251.7469
 42
-0.1023262951
  0
VERTEX
  8
LAYER_1
 10
162.5169
 20
-251.5306
 42
-0.1009138363
  0
VERTEX
  8
LAYER_1
 10
162.6285
 20
-251.3604
  0
VERTEX
  8
LAYER_1
 10
162.798
 20
-251.2481
 42
-0.09535690024
  0
VERTEX
  8
LAYER_1
 10
163.0112
 20
-251.2071
  0
VERTEX
  8
LAYER_1
 10
163.1222
 20
-251.2191
  0
VERTEX
  8
LAYER_1
 10
163.2252
 20
-251.2522
  0
VERTEX
  8
LAYER_1
 10
163.3117
 20
-251.3035
  0
VERTEX
  8
LAYER_1
 10
163.3767
 20
-251.3711
  0
VERTEX
  8
LAYER_1
 10
163.2906
 20
-251.4355
  0
VERTEX
  8
LAYER_1
 10
163.2469
 20
-251.3858
  0
VERTEX
  8
LAYER_1
 10
163.1835
 20
-251.3421
  0
VERTEX
  8
LAYER_1
 10
163.1043
 20
-251.3114
  0
VERTEX
  8
LAYER_1
 10
163.0126
 20
-251.3001
  0
VERTEX
  8
LAYER_1
 10
162.8338
 20
-251.3362
  0
VERTEX
  8
LAYER_1
 10
162.6998
 20
-251.4338
  0
VERTEX
  8
LAYER_1
 10
162.6147
 20
-251.5764
  0
VERTEX
  8
LAYER_1
 10
162.5868
 20
-251.7469
  0
VERTEX
  8
LAYER_1
 10
162.6164
 20
-251.9178
  0
VERTEX
  8
LAYER_1
 10
162.7012
 20
-252.0601
  0
VERTEX
  8
LAYER_1
 10
162.8356
 20
-252.1575
 42
0.1012189446
  0
VERTEX
  8
LAYER_1
 10
163.0126
 20
-252.1937
  0
VERTEX
  8
LAYER_1
 10
163.1804
 20
-252.1575
 42
0.1297589768
  0
VERTEX
  8
LAYER_1
 10
163.3148
 20
-252.0414
  0
SEQEND
  0
ENDBLK
  0
BLOCK
  8
LAYER_1
  2
AIGNBL01030023
 70
64
 10
0
 20
0
 30
0
  3
AIGNBL01030023
  0
POLYLINE
  8
LAYER_1
 40
0.05
 41
0.05
 66
1
 10
0
 20
0
 30
0
 70
1
  0
VERTEX
  8
LAYER_1
 10
163.8801
 20
-252.1676
  0
VERTEX
  8
LAYER_1
 10
164.4299
 20
-252.1676
  0
VERTEX
  8
LAYER_1
 10
164.4299
 20
-252.2609
  0
VERTEX
  8
LAYER_1
 10
163.7764
 20
-252.2609
  0
VERTEX
  8
LAYER_1
 10
163.7764
 20
-251.2339
  0
VERTEX
  8
LAYER_1
 10
164.4127
 20
-251.2339
  0
VERTEX
  8
LAYER_1
 10
164.4127
 20
-251.3263
  0
VERTEX
  8
LAYER_1
 10
163.8801
 20
-251.3263
  0
VERTEX
  8
LAYER_1
 10
163.8801
 20
-251.6787
  0
VERTEX
  8
LAYER_1
 10
164.3782
 20
-251.6787
  0
VERTEX
  8
LAYER_1
 10
164.3782
 20
-251.7717
  0
VERTEX
  8
LAYER_1
 10
163.8801
 20
-251.7717
  0
SEQEND
  0
ENDBLK
  0
BLOCK
  8
LAYER_3
  2
AIGNBL0303001E
 70
64
 10
0
 20
0
 30
0
  3
AIGNBL0303001E
  0
POLYLINE
  8
LAYER_3
 40
0.05
 41
0.05
 66
1
 10
0
 20
0
 30
0
 70
1
  0
VERTEX
  8
LAYER_3
 10
149.0486
 20
-171.9792
 42
0.08166308191
  0
VERTEX
  8
LAYER_3
 10
149.9979
 20
-172.392
  0
VERTEX
  8
LAYER_3
 10
149.4875
 20
-172.5531
  0
VERTEX
  8
LAYER_3
 10
149.1984
 20
-173.0034
 42
0.08376629665
  0
SEQEND
  0
ENDBLK
  0
BLOCK
  8
LAYER_1
  2
AIGNBL01020003
 70
64
 10
0
 20
0
 30
0
  3
AIGNBL01020003
  0
INSERT
  8
LAYER_1
  2
AIGNBL01030004
 10
0
 20
0
 30
0
  0
ENDBLK
  0
BLOCK
  8
LAYER_1
  2
AIGNBL0102000C
 70
64
 10
0
 20
0
 30
0
  3
AIGNBL0102000C
  0
INSERT
  8
LAYER_1
  2
AIGNBL0103000D
 10
0
 20
0
 30
0
  0
INSERT
  8
LAYER_1
  2
AIGNBL0103000E
 10
0
 20
0
 30
0
  0
INSERT
  8
LAYER_1
  2
AIGNBL0103000F
 10
0
 20
0
 30
0
  0
INSERT
  8
LAYER_1
  2
AIGNBL01030010
 10
0
 20
0
 30
0
  0
INSERT
  8
LAYER_1
  2
AIGNBL01030011
 10
0
 20
0
 30
0
  0
INSERT
  8
LAYER_1
  2
AIGNBL01030012
 10
0
 20
0
 30
0
  0
INSERT
  8
LAYER_1
  2
AIGNBL01030013
 10
0
 20
0
 30
0
  0
INSERT
  8
LAYER_1
  2
AIGNBL01030014
 10
0
 20
0
 30
0
  0
INSERT
  8
LAYER_1
  2
AIGNBL01030015
 10
0
 20
0
 30
0
  0
INSERT
  8
LAYER_1
  2
AIGNBL01030016
 10
0
 20
0
 30
0
  0
INSERT
  8
LAYER_1
  2
AIGNBL01030017
 10
0
 20
0
 30
0
  0
INSERT
  8
LAYER_1
  2
AIGNBL01030018
 10
0
 20
0
 30
0
  0
INSERT
  8
LAYER_1
  2
AIGNBL01030019
 10
0
 20
0
 30
0
  0
INSERT
  8
LAYER_1
  2
AIGNBL0103001A
 10
0
 20
0
 30
0
  0
INSERT
  8
LAYER_1
  2
AIGNBL0103001B
 10
0
 20
0
 30
0
  0
INSERT
  8
LAYER_1
  2
AIGNBL0103001C
 10
0
 20
0
 30
0
  0
INSERT
  8
LAYER_1
  2
AIGNBL0103001D
 10
0
 20
0
 30
0
  0
INSERT
  8
LAYER_1
  2
AIGNBL0103001E
 10
0
 20
0
 30
0
  0
INSERT
  8
LAYER_1
  2
AIGNBL0103001F
 10
0
 20
0
 30
0
  0
INSERT
  8
LAYER_1
  2
AIGNBL01030020
 10
0
 20
0
 30
0
  0
INSERT
  8
LAYER_1
  2
AIGNBL01030021
 10
0
 20
0
 30
0
  0
INSERT
  8
LAYER_1
  2
AIGNBL01030022
 10
0
 20
0
 30
0
  0
INSERT
  8
LAYER_1
  2
AIGNBL01030023
 10
0
 20
0
 30
0
  0
ENDBLK
  0
BLOCK
  8
LAYER_3
  2
AIGNBL0302001D
 70
64
 10
0
 20
0
 30
0
  3
AIGNBL0302001D
  0
POLYLINE
  8
LAYER_3
 40
0.1058
 41
0.1058
 66
1
 10
0
 20
0
 30
0
  0
VERTEX
  8
LAYER_3
 10
181.3278
 20
-183.9736
  0
VERTEX
  8
LAYER_3
 10
158.2208
 20
-183.9736
  0
VERTEX
  8
LAYER_3
 10
149.4366
 20
-172.4865
  0
SEQEND
  0
INSERT
  8
LAYER_3
  2
AIGNBL0303001E
 10
0
 20
0
 30
0
  0
ENDBLK
  0
BLOCK
  8
LAYER_1
  2
AIGNBL01010002
 70
64
 10
0
 20
0
 30
0
  3
AIGNBL01010002
  0
INSERT
  8
LAYER_1
  2
AIGNBL01020003
 10
0
 20
0
 30
0
  0
INSERT
  8
LAYER_1
  2
AIGNBL0102000C
 10
0
 20
0
 30
0
  0
ENDBLK
  0
BLOCK
  8
LAYER_3
  2
AIGNBL03010002
 70
64
 10
0
 20
0
 30
0
  3
AIGNBL03010002
  0
TEXT
  8
LAYER_3
 10
170.5246
 20
-182.2804
 11
170.5246
 21
-182.2804
 40
3.5541
 41
0.5
  1
G1 1/4
  0
ENDBLK
  0
BLOCK
  8
LAYER_3
  2
AIGNBL03010003
 70
64
 10
0
 20
0
 30
0
  3
AIGNBL03010003
  0
POLYLINE
  8
LAYER_3
 40
0.1058
 41
0.1058
 66
1
 10
0
 20
0
 30
0
  0
VERTEX
  8
LAYER_3
 10
142.0838
 20
-108.9417
  0
VERTEX
  8
LAYER_3
 10
143.0337
 20
-108.9417
  0
VERTEX
  8
LAYER_3
 10
143.2337
 20
-108.9417
  0
SEQEND
  0
ENDBLK
  0
BLOCK
  8
LAYER_3
  2
AIGNBL03010004
 70
64
 10
0
 20
0
 30
0
  3
AIGNBL03010004
  0
POLYLINE
  8
LAYER_3
 40
0.1058
 41
0.1058
 66
1
 10
0
 20
0
 30
0
  0
VERTEX
  8
LAYER_3
 10
143.5337
 20
-109.4417
  0
VERTEX
  8
LAYER_3
 10
143.5337
 20
-112.0205
  0
SEQEND
  0
ENDBLK
  0
BLOCK
  8
LAYER_3
  2
AIGNBL03010005
 70
64
 10
0
 20
0
 30
0
  3
AIGNBL03010005
  0
POLYLINE
  8
LAYER_3
 40
0.1058
 41
0.1058
 66
1
 10
0
 20
0
 30
0
  0
VERTEX
  8
LAYER_3
 10
145.272
 20
-138.6917
  0
VERTEX
  8
LAYER_3
 10
145.292
 20
-138.6531
  0
VERTEX
  8
LAYER_3
 10
145.3115
 20
-138.6144
  0
VERTEX
  8
LAYER_3
 10
145.3304
 20
-138.5755
  0
VERTEX
  8
LAYER_3
 10
145.3488
 20
-138.5365
  0
VERTEX
  8
LAYER_3
 10
145.3667
 20
-138.4972
  0
VERTEX
  8
LAYER_3
 10
145.3841
 20
-138.4578
  0
VERTEX
  8
LAYER_3
 10
145.401
 20
-138.4183
  0
VERTEX
  8
LAYER_3
 10
145.4174
 20
-138.3786
  0
VERTEX
  8
LAYER_3
 10
145.4332
 20
-138.3387
  0
VERTEX
  8
LAYER_3
 10
145.4486
 20
-138.2987
  0
VERTEX
  8
LAYER_3
 10
145.4634
 20
-138.2585
  0
VERTEX
  8
LAYER_3
 10
145.4778
 20
-138.2182
  0
VERTEX
  8
LAYER_3
 10
145.4916
 20
-138.1778
  0
VERTEX
  8
LAYER_3
 10
145.505
 20
-138.1373
  0
VERTEX
  8
LAYER_3
 10
145.5179
 20
-138.0966
  0
VERTEX
  8
LAYER_3
 10
145.5302
 20
-138.0559
  0
VERTEX
  8
LAYER_3
 10
145.5421
 20
-138.015
  0
VERTEX
  8
LAYER_3
 10
145.5535
 20
-137.974
  0
VERTEX
  8
LAYER_3
 10
145.5644
 20
-137.9329
  0
VERTEX
  8
LAYER_3
 10
145.5748
 20
-137.8917
  0
SEQEND
  0
ENDBLK
  0
BLOCK
  8
LAYER_3
  2
AIGNBL03010006
 70
64
 10
0
 20
0
 30
0
  3
AIGNBL03010006
  0
POLYLINE
  8
LAYER_3
 40
0.1058
 41
0.1058
 66
1
 10
0
 20
0
 30
0
  0
VERTEX
  8
LAYER_3
 10
143.4051
 20
-138.6917
  0
VERTEX
  8
LAYER_3
 10
143.4348
 20
-138.676
  0
VERTEX
  8
LAYER_3
 10
143.4646
 20
-138.6603
  0
VERTEX
  8
LAYER_3
 10
143.4943
 20
-138.6446
  0
VERTEX
  8
LAYER_3
 10
143.524
 20
-138.6289
  0
VERTEX
  8
LAYER_3
 10
143.5537
 20
-138.6132
  0
VERTEX
  8
LAYER_3
 10
143.5833
 20
-138.5975
  0
VERTEX
  8
LAYER_3
 10
143.6128
 20
-138.5819
  0
VERTEX
  8
LAYER_3
 10
143.6422
 20
-138.5662
  0
VERTEX
  8
LAYER_3
 10
143.6716
 20
-138.5505
  0
VERTEX
  8
LAYER_3
 10
143.7008
 20
-138.5348
  0
VERTEX
  8
LAYER_3
 10
143.7299
 20
-138.5192
  0
VERTEX
  8
LAYER_3
 10
143.7589
 20
-138.5035
  0
VERTEX
  8
LAYER_3
 10
143.7877
 20
-138.4878
  0
VERTEX
  8
LAYER_3
 10
143.8164
 20
-138.4722
  0
VERTEX
  8
LAYER_3
 10
143.8449
 20
-138.4566
  0
VERTEX
  8
LAYER_3
 10
143.8733
 20
-138.4409
  0
VERTEX
  8
LAYER_3
 10
143.9014
 20
-138.4253
  0
VERTEX
  8
LAYER_3
 10
143.9293
 20
-138.4097
  0
VERTEX
  8
LAYER_3
 10
143.957
 20
-138.3941
  0
VERTEX
  8
LAYER_3
 10
143.9844
 20
-138.3786
  0
VERTEX
  8
LAYER_3
 10
144.0116
 20
-138.3631
  0
VERTEX
  8
LAYER_3
 10
144.0385
 20
-138.3476
  0
VERTEX
  8
LAYER_3
 10
144.065
 20
-138.3321
  0
VERTEX
  8
LAYER_3
 10
144.0913
 20
-138.3167
  0
VERTEX
  8
LAYER_3
 10
144.1172
 20
-138.3014
  0
VERTEX
  8
LAYER_3
 10
144.1428
 20
-138.2861
  0
VERTEX
  8
LAYER_3
 10
144.1679
 20
-138.2708
  0
VERTEX
  8
LAYER_3
 10
144.1928
 20
-138.2556
  0
VERTEX
  8
LAYER_3
 10
144.2173
 20
-138.2404
  0
VERTEX
  8
LAYER_3
 10
144.2417
 20
-138.2253
  0
SEQEND
  0
ENDBLK
  0
BLOCK
  8
LAYER_3
  2
AIGNBL03010007
 70
64
 10
0
 20
0
 30
0
  3
AIGNBL03010007
  0
POLYLINE
  8
LAYER_3
 40
0.1058
 41
0.1058
 66
1
 10
0
 20
0
 30
0
  0
VERTEX
  8
LAYER_3
 10
144.1848
 20
-137.5516
  0
VERTEX
  8
LAYER_3
 10
144.1736
 20
-137.5632
  0
VERTEX
  8
LAYER_3
 10
144.1375
 20
-137.5996
  0
VERTEX
  8
LAYER_3
 10
144.1
 20
-137.6363
  0
VERTEX
  8
LAYER_3
 10
144.0612
 20
-137.6734
  0
VERTEX
  8
LAYER_3
 10
144.0211
 20
-137.7109
  0
VERTEX
  8
LAYER_3
 10
143.9796
 20
-137.7488
  0
VERTEX
  8
LAYER_3
 10
143.9368
 20
-137.787
  0
VERTEX
  8
LAYER_3
 10
143.8927
 20
-137.8255
  0
VERTEX
  8
LAYER_3
 10
143.8474
 20
-137.8644
  0
VERTEX
  8
LAYER_3
 10
143.8007
 20
-137.9036
  0
VERTEX
  8
LAYER_3
 10
143.7527
 20
-137.9432
  0
VERTEX
  8
LAYER_3
 10
143.7035
 20
-137.9831
  0
VERTEX
  8
LAYER_3
 10
143.653
 20
-138.0232
  0
VERTEX
  8
LAYER_3
 10
143.6013
 20
-138.0637
  0
VERTEX
  8
LAYER_3
 10
143.5483
 20
-138.1045
  0
VERTEX
  8
LAYER_3
 10
143.4942
 20
-138.1455
  0
VERTEX
  8
LAYER_3
 10
143.439
 20
-138.1867
  0
VERTEX
  8
LAYER_3
 10
143.3826
 20
-138.228
  0
VERTEX
  8
LAYER_3
 10
143.3251
 20
-138.2696
  0
VERTEX
  8
LAYER_3
 10
143.2665
 20
-138.3113
  0
VERTEX
  8
LAYER_3
 10
143.2068
 20
-138.3531
  0
VERTEX
  8
LAYER_3
 10
143.1459
 20
-138.3951
  0
VERTEX
  8
LAYER_3
 10
143.0841
 20
-138.4372
  0
VERTEX
  8
LAYER_3
 10
143.0211
 20
-138.4795
  0
VERTEX
  8
LAYER_3
 10
142.9571
 20
-138.5218
  0
VERTEX
  8
LAYER_3
 10
142.892
 20
-138.5642
  0
VERTEX
  8
LAYER_3
 10
142.8259
 20
-138.6066
  0
VERTEX
  8
LAYER_3
 10
142.7588
 20
-138.6491
  0
VERTEX
  8
LAYER_3
 10
142.6907
 20
-138.6917
  0
SEQEND
  0
ENDBLK
  0
BLOCK
  8
LAYER_3
  2
AIGNBL03010008
 70
64
 10
0
 20
0
 30
0
  3
AIGNBL03010008
  0
POLYLINE
  8
LAYER_3
 40
0.1058
 41
0.1058
 66
1
 10
0
 20
0
 30
0
  0
VERTEX
  8
LAYER_3
 10
144.4932
 20
-137.8917
  0
VERTEX
  8
LAYER_3
 10
144.4842
 20
-137.9302
  0
VERTEX
  8
LAYER_3
 10
144.4748
 20
-137.969
  0
VERTEX
  8
LAYER_3
 10
144.465
 20
-138.0079
  0
VERTEX
  8
LAYER_3
 10
144.4548
 20
-138.047
  0
VERTEX
  8
LAYER_3
 10
144.4443
 20
-138.0862
  0
VERTEX
  8
LAYER_3
 10
144.4333
 20
-138.1256
  0
VERTEX
  8
LAYER_3
 10
144.422
 20
-138.1652
  0
VERTEX
  8
LAYER_3
 10
144.4103
 20
-138.205
  0
VERTEX
  8
LAYER_3
 10
144.3982
 20
-138.2448
  0
VERTEX
  8
LAYER_3
 10
144.3858
 20
-138.2849
  0
VERTEX
  8
LAYER_3
 10
144.373
 20
-138.325
  0
VERTEX
  8
LAYER_3
 10
144.3598
 20
-138.3653
  0
VERTEX
  8
LAYER_3
 10
144.3463
 20
-138.4057
  0
VERTEX
  8
LAYER_3
 10
144.3324
 20
-138.4463
  0
VERTEX
  8
LAYER_3
 10
144.3181
 20
-138.4869
  0
VERTEX
  8
LAYER_3
 10
144.3035
 20
-138.5277
  0
VERTEX
  8
LAYER_3
 10
144.2886
 20
-138.5685
  0
VERTEX
  8
LAYER_3
 10
144.2733
 20
-138.6095
  0
VERTEX
  8
LAYER_3
 10
144.2577
 20
-138.6505
  0
VERTEX
  8
LAYER_3
 10
144.2417
 20
-138.6917
  0
SEQEND
  0
ENDBLK
  0
BLOCK
  8
LAYER_3
  2
AIGNBL03010009
 70
64
 10
0
 20
0
 30
0
  3
AIGNBL03010009
  0
POLYLINE
  8
LAYER_3
 40
0.1058
 41
0.1058
 66
1
 10
0
 20
0
 30
0
  0
VERTEX
  8
LAYER_3
 10
145.6838
 20
-159.0417
  0
VERTEX
  8
LAYER_3
 10
145.7827
 20
-159.0417
  0
SEQEND
  0
ENDBLK
  0
BLOCK
  8
LAYER_3
  2
AIGNBL0301000A
 70
64
 10
0
 20
0
 30
0
  3
AIGNBL0301000A
  0
POLYLINE
  8
LAYER_3
 40
0.1058
 41
0.1058
 66
1
 10
0
 20
0
 30
0
  0
VERTEX
  8
LAYER_3
 10
144.7663
 20
-141.3917
  0
VERTEX
  8
LAYER_3
 10
144.808
 20
-141.4384
  0
VERTEX
  8
LAYER_3
 10
144.8487
 20
-141.4848
  0
VERTEX
  8
LAYER_3
 10
144.8885
 20
-141.531
  0
VERTEX
  8
LAYER_3
 10
144.9273
 20
-141.5768
  0
VERTEX
  8
LAYER_3
 10
144.9651
 20
-141.6225
  0
VERTEX
  8
LAYER_3
 10
145.002
 20
-141.6678
  0
VERTEX
  8
LAYER_3
 10
145.0378
 20
-141.713
  0
VERTEX
  8
LAYER_3
 10
145.0727
 20
-141.758
  0
VERTEX
  8
LAYER_3
 10
145.1065
 20
-141.8028
  0
VERTEX
  8
LAYER_3
 10
145.1394
 20
-141.8474
  0
VERTEX
  8
LAYER_3
 10
145.1713
 20
-141.892
  0
VERTEX
  8
LAYER_3
 10
145.2021
 20
-141.9363
  0
VERTEX
  8
LAYER_3
 10
145.232
 20
-141.9806
  0
VERTEX
  8
LAYER_3
 10
145.2608
 20
-142.0248
  0
VERTEX
  8
LAYER_3
 10
145.2886
 20
-142.0689
  0
VERTEX
  8
LAYER_3
 10
145.3153
 20
-142.113
  0
VERTEX
  8
LAYER_3
 10
145.341
 20
-142.1571
  0
VERTEX
  8
LAYER_3
 10
145.3657
 20
-142.2011
  0
VERTEX
  8
LAYER_3
 10
145.3894
 20
-142.2452
  0
VERTEX
  8
LAYER_3
 10
145.4119
 20
-142.2892
  0
VERTEX
  8
LAYER_3
 10
145.4335
 20
-142.3334
  0
VERTEX
  8
LAYER_3
 10
145.4539
 20
-142.3776
  0
VERTEX
  8
LAYER_3
 10
145.4733
 20
-142.4219
  0
VERTEX
  8
LAYER_3
 10
145.4917
 20
-142.4662
  0
VERTEX
  8
LAYER_3
 10
145.5089
 20
-142.5107
  0
VERTEX
  8
LAYER_3
 10
145.5251
 20
-142.5552
  0
VERTEX
  8
LAYER_3
 10
145.5401
 20
-142.5999
  0
VERTEX
  8
LAYER_3
 10
145.554
 20
-142.6446
  0
VERTEX
  8
LAYER_3
 10
145.5668
 20
-142.6893
  0
VERTEX
  8
LAYER_3
 10
145.5785
 20
-142.7342
  0
VERTEX
  8
LAYER_3
 10
145.589
 20
-142.7792
  0
VERTEX
  8
LAYER_3
 10
145.5984
 20
-142.8243
  0
VERTEX
  8
LAYER_3
 10
145.6067
 20
-142.8695
  0
VERTEX
  8
LAYER_3
 10
145.6139
 20
-142.9149
  0
VERTEX
  8
LAYER_3
 10
145.62
 20
-142.9605
  0
VERTEX
  8
LAYER_3
 10
145.625
 20
-143.0062
  0
VERTEX
  8
LAYER_3
 10
145.6288
 20
-143.0522
  0
VERTEX
  8
LAYER_3
 10
145.6316
 20
-143.0984
  0
VERTEX
  8
LAYER_3
 10
145.6332
 20
-143.1449
  0
VERTEX
  8
LAYER_3
 10
145.6338
 20
-143.1917
  0
SEQEND
  0
ENDBLK
  0
BLOCK
  8
LAYER_3
  2
AIGNBL0301000B
 70
64
 10
0
 20
0
 30
0
  3
AIGNBL0301000B
  0
POLYLINE
  8
LAYER_3
 40
0.1058
 41
0.1058
 66
1
 10
0
 20
0
 30
0
  0
VERTEX
  8
LAYER_3
 10
142.4213
 20
-141.3917
  0
VERTEX
  8
LAYER_3
 10
142.4735
 20
-141.4253
  0
VERTEX
  8
LAYER_3
 10
142.5258
 20
-141.459
  0
VERTEX
  8
LAYER_3
 10
142.5779
 20
-141.4926
  0
VERTEX
  8
LAYER_3
 10
142.63
 20
-141.5261
  0
VERTEX
  8
LAYER_3
 10
142.6819
 20
-141.5597
  0
VERTEX
  8
LAYER_3
 10
142.7337
 20
-141.5931
  0
VERTEX
  8
LAYER_3
 10
142.7853
 20
-141.6265
  0
VERTEX
  8
LAYER_3
 10
142.8366
 20
-141.6597
  0
VERTEX
  8
LAYER_3
 10
142.8877
 20
-141.6929
  0
VERTEX
  8
LAYER_3
 10
142.9386
 20
-141.7259
  0
VERTEX
  8
LAYER_3
 10
142.9891
 20
-141.7589
  0
VERTEX
  8
LAYER_3
 10
143.0392
 20
-141.7917
  0
VERTEX
  8
LAYER_3
 10
143.0889
 20
-141.8244
  0
VERTEX
  8
LAYER_3
 10
143.1382
 20
-141.8571
  0
VERTEX
  8
LAYER_3
 10
143.187
 20
-141.8896
  0
VERTEX
  8
LAYER_3
 10
143.2352
 20
-141.9222
  0
VERTEX
  8
LAYER_3
 10
143.2829
 20
-141.9546
  0
VERTEX
  8
LAYER_3
 10
143.3299
 20
-141.9871
  0
VERTEX
  8
LAYER_3
 10
143.3764
 20
-142.0195
  0
VERTEX
  8
LAYER_3
 10
143.4222
 20
-142.0518
  0
VERTEX
  8
LAYER_3
 10
143.4676
 20
-142.0842
  0
VERTEX
  8
LAYER_3
 10
143.5124
 20
-142.1165
  0
VERTEX
  8
LAYER_3
 10
143.5568
 20
-142.1488
  0
VERTEX
  8
LAYER_3
 10
143.6009
 20
-142.1811
  0
VERTEX
  8
LAYER_3
 10
143.6446
 20
-142.2134
  0
VERTEX
  8
LAYER_3
 10
143.6881
 20
-142.2456
  0
VERTEX
  8
LAYER_3
 10
143.7313
 20
-142.2779
  0
VERTEX
  8
LAYER_3
 10
143.7744
 20
-142.3101
  0
VERTEX
  8
LAYER_3
 10
143.8174
 20
-142.3424
  0
VERTEX
  8
LAYER_3
 10
143.8603
 20
-142.3746
  0
SEQEND
  0
ENDBLK
  0
BLOCK
  8
LAYER_3
  2
AIGNBL0301000C
 70
64
 10
0
 20
0
 30
0
  3
AIGNBL0301000C
  0
POLYLINE
  8
LAYER_3
 40
0.1058
 41
0.1058
 66
1
 10
0
 20
0
 30
0
  0
VERTEX
  8
LAYER_3
 10
143.8603
 20
-141.3917
  0
VERTEX
  8
LAYER_3
 10
143.895
 20
-141.4382
  0
VERTEX
  8
LAYER_3
 10
143.9288
 20
-141.4845
  0
VERTEX
  8
LAYER_3
 10
143.9619
 20
-141.5306
  0
VERTEX
  8
LAYER_3
 10
143.9942
 20
-141.5763
  0
VERTEX
  8
LAYER_3
 10
144.0257
 20
-141.6219
  0
VERTEX
  8
LAYER_3
 10
144.0564
 20
-141.6673
  0
VERTEX
  8
LAYER_3
 10
144.0863
 20
-141.7124
  0
VERTEX
  8
LAYER_3
 10
144.1154
 20
-141.7574
  0
VERTEX
  8
LAYER_3
 10
144.1437
 20
-141.8022
  0
VERTEX
  8
LAYER_3
 10
144.1711
 20
-141.8469
  0
VERTEX
  8
LAYER_3
 10
144.1977
 20
-141.8915
  0
VERTEX
  8
LAYER_3
 10
144.2235
 20
-141.9359
  0
VERTEX
  8
LAYER_3
 10
144.2485
 20
-141.9803
  0
VERTEX
  8
LAYER_3
 10
144.2725
 20
-142.0246
  0
VERTEX
  8
LAYER_3
 10
144.2958
 20
-142.0688
  0
VERTEX
  8
LAYER_3
 10
144.3181
 20
-142.113
  0
VERTEX
  8
LAYER_3
 10
144.3397
 20
-142.1571
  0
VERTEX
  8
LAYER_3
 10
144.3603
 20
-142.2013
  0
VERTEX
  8
LAYER_3
 10
144.3801
 20
-142.2454
  0
VERTEX
  8
LAYER_3
 10
144.3989
 20
-142.2896
  0
VERTEX
  8
LAYER_3
 10
144.4169
 20
-142.3338
  0
VERTEX
  8
LAYER_3
 10
144.434
 20
-142.3781
  0
VERTEX
  8
LAYER_3
 10
144.4502
 20
-142.4225
  0
VERTEX
  8
LAYER_3
 10
144.4655
 20
-142.4669
  0
VERTEX
  8
LAYER_3
 10
144.4799
 20
-142.5115
  0
VERTEX
  8
LAYER_3
 10
144.4933
 20
-142.556
  0
VERTEX
  8
LAYER_3
 10
144.5059
 20
-142.6007
  0
VERTEX
  8
LAYER_3
 10
144.5175
 20
-142.6454
  0
VERTEX
  8
LAYER_3
 10
144.5281
 20
-142.6902
  0
VERTEX
  8
LAYER_3
 10
144.5378
 20
-142.7351
  0
VERTEX
  8
LAYER_3
 10
144.5466
 20
-142.78
  0
VERTEX
  8
LAYER_3
 10
144.5544
 20
-142.8251
  0
VERTEX
  8
LAYER_3
 10
144.5613
 20
-142.8702
  0
VERTEX
  8
LAYER_3
 10
144.5673
 20
-142.9156
  0
VERTEX
  8
LAYER_3
 10
144.5724
 20
-142.9611
  0
VERTEX
  8
LAYER_3
 10
144.5765
 20
-143.0068
  0
VERTEX
  8
LAYER_3
 10
144.5797
 20
-143.0527
  0
VERTEX
  8
LAYER_3
 10
144.582
 20
-143.0987
  0
VERTEX
  8
LAYER_3
 10
144.5833
 20
-143.1451
  0
VERTEX
  8
LAYER_3
 10
144.5838
 20
-143.1917
  0
SEQEND
  0
ENDBLK
  0
BLOCK
  8
LAYER_3
  2
AIGNBL0301000D
 70
64
 10
0
 20
0
 30
0
  3
AIGNBL0301000D
  0
POLYLINE
  8
LAYER_3
 40
0.1058
 41
0.1058
 66
1
 10
0
 20
0
 30
0
  0
VERTEX
  8
LAYER_3
 10
142.3838
 20
-141.7801
  0
VERTEX
  8
LAYER_3
 10
142.4678
 20
-141.8469
  0
VERTEX
  8
LAYER_3
 10
142.5235
 20
-141.8915
  0
VERTEX
  8
LAYER_3
 10
142.5787
 20
-141.9359
  0
VERTEX
  8
LAYER_3
 10
142.6333
 20
-141.9803
  0
VERTEX
  8
LAYER_3
 10
142.6874
 20
-142.0246
  0
VERTEX
  8
LAYER_3
 10
142.7409
 20
-142.0688
  0
VERTEX
  8
LAYER_3
 10
142.7939
 20
-142.113
  0
VERTEX
  8
LAYER_3
 10
142.8463
 20
-142.1571
  0
VERTEX
  8
LAYER_3
 10
142.898
 20
-142.2013
  0
VERTEX
  8
LAYER_3
 10
142.9492
 20
-142.2454
  0
VERTEX
  8
LAYER_3
 10
142.9998
 20
-142.2896
  0
VERTEX
  8
LAYER_3
 10
143.0498
 20
-142.3338
  0
VERTEX
  8
LAYER_3
 10
143.0992
 20
-142.3781
  0
VERTEX
  8
LAYER_3
 10
143.1479
 20
-142.4225
  0
VERTEX
  8
LAYER_3
 10
143.1959
 20
-142.4669
  0
VERTEX
  8
LAYER_3
 10
143.2433
 20
-142.5115
  0
VERTEX
  8
LAYER_3
 10
143.29
 20
-142.556
  0
VERTEX
  8
LAYER_3
 10
143.3359
 20
-142.6007
  0
VERTEX
  8
LAYER_3
 10
143.3811
 20
-142.6454
  0
VERTEX
  8
LAYER_3
 10
143.4255
 20
-142.6902
  0
VERTEX
  8
LAYER_3
 10
143.469
 20
-142.7351
  0
VERTEX
  8
LAYER_3
 10
143.5118
 20
-142.78
  0
VERTEX
  8
LAYER_3
 10
143.5538
 20
-142.8251
  0
VERTEX
  8
LAYER_3
 10
143.5949
 20
-142.8702
  0
VERTEX
  8
LAYER_3
 10
143.6353
 20
-142.9156
  0
VERTEX
  8
LAYER_3
 10
143.6748
 20
-142.9611
  0
VERTEX
  8
LAYER_3
 10
143.7136
 20
-143.0068
  0
VERTEX
  8
LAYER_3
 10
143.7515
 20
-143.0527
  0
VERTEX
  8
LAYER_3
 10
143.7886
 20
-143.0987
  0
VERTEX
  8
LAYER_3
 10
143.8249
 20
-143.1451
  0
VERTEX
  8
LAYER_3
 10
143.8603
 20
-143.1917
  0
SEQEND
  0
ENDBLK
  0
BLOCK
  8
LAYER_3
  2
AIGNBL0301000E
 70
64
 10
0
 20
0
 30
0
  3
AIGNBL0301000E
  0
POLYLINE
  8
LAYER_3
 40
0.1058
 41
0.1058
 66
1
 10
0
 20
0
 30
0
  0
VERTEX
  8
LAYER_3
 10
156.3838
 20
-159.5917
  0
VERTEX
  8
LAYER_3
 10
145.9838
 20
-159.5917
  0
SEQEND
  0
ENDBLK
  0
BLOCK
  8
LAYER_3
  2
AIGNBL0301000F
 70
64
 10
0
 20
0
 30
0
  3
AIGNBL0301000F
  0
POLYLINE
  8
LAYER_3
 40
0.1058
 41
0.1058
 66
1
 10
0
 20
0
 30
0
  0
VERTEX
  8
LAYER_3
 10
142.9569
 20
-147.1071
  0
VERTEX
  8
LAYER_3
 10
142.8036
 20
-155.8917
  0
VERTEX
  8
LAYER_3
 10
142.7914
 20
-156.5917
  0
VERTEX
  8
LAYER_3
 10
142.7424
 20
-159.4004
  0
SEQEND
  0
ENDBLK
  0
BLOCK
  8
LAYER_3
  2
AIGNBL03010010
 70
64
 10
0
 20
0
 30
0
  3
AIGNBL03010010
  0
POLYLINE
  8
LAYER_3
 40
0.1058
 41
0.1058
 66
1
 10
0
 20
0
 30
0
  0
VERTEX
  8
LAYER_3
 10
144.7663
 20
-141.3917
  0
VERTEX
  8
LAYER_3
 10
144.808
 20
-141.4384
  0
VERTEX
  8
LAYER_3
 10
144.8487
 20
-141.4848
  0
VERTEX
  8
LAYER_3
 10
144.8885
 20
-141.531
  0
VERTEX
  8
LAYER_3
 10
144.9273
 20
-141.5768
  0
VERTEX
  8
LAYER_3
 10
144.9651
 20
-141.6225
  0
VERTEX
  8
LAYER_3
 10
145.002
 20
-141.6678
  0
VERTEX
  8
LAYER_3
 10
145.0378
 20
-141.713
  0
VERTEX
  8
LAYER_3
 10
145.0727
 20
-141.758
  0
VERTEX
  8
LAYER_3
 10
145.1065
 20
-141.8028
  0
VERTEX
  8
LAYER_3
 10
145.1394
 20
-141.8474
  0
VERTEX
  8
LAYER_3
 10
145.1713
 20
-141.892
  0
VERTEX
  8
LAYER_3
 10
145.2021
 20
-141.9363
  0
VERTEX
  8
LAYER_3
 10
145.232
 20
-141.9806
  0
VERTEX
  8
LAYER_3
 10
145.2608
 20
-142.0248
  0
VERTEX
  8
LAYER_3
 10
145.2886
 20
-142.0689
  0
VERTEX
  8
LAYER_3
 10
145.3153
 20
-142.113
  0
VERTEX
  8
LAYER_3
 10
145.341
 20
-142.1571
  0
VERTEX
  8
LAYER_3
 10
145.3657
 20
-142.2011
  0
VERTEX
  8
LAYER_3
 10
145.3894
 20
-142.2452
  0
VERTEX
  8
LAYER_3
 10
145.4119
 20
-142.2892
  0
VERTEX
  8
LAYER_3
 10
145.4335
 20
-142.3334
  0
VERTEX
  8
LAYER_3
 10
145.4539
 20
-142.3776
  0
VERTEX
  8
LAYER_3
 10
145.4733
 20
-142.4219
  0
VERTEX
  8
LAYER_3
 10
145.4917
 20
-142.4662
  0
VERTEX
  8
LAYER_3
 10
145.5089
 20
-142.5107
  0
VERTEX
  8
LAYER_3
 10
145.5251
 20
-142.5552
  0
VERTEX
  8
LAYER_3
 10
145.5401
 20
-142.5999
  0
VERTEX
  8
LAYER_3
 10
145.554
 20
-142.6446
  0
VERTEX
  8
LAYER_3
 10
145.5668
 20
-142.6893
  0
VERTEX
  8
LAYER_3
 10
145.5785
 20
-142.7342
  0
VERTEX
  8
LAYER_3
 10
145.589
 20
-142.7792
  0
VERTEX
  8
LAYER_3
 10
145.5984
 20
-142.8243
  0
VERTEX
  8
LAYER_3
 10
145.6067
 20
-142.8695
  0
VERTEX
  8
LAYER_3
 10
145.6139
 20
-142.9149
  0
VERTEX
  8
LAYER_3
 10
145.62
 20
-142.9605
  0
VERTEX
  8
LAYER_3
 10
145.625
 20
-143.0062
  0
VERTEX
  8
LAYER_3
 10
145.6288
 20
-143.0522
  0
VERTEX
  8
LAYER_3
 10
145.6316
 20
-143.0984
  0
VERTEX
  8
LAYER_3
 10
145.6332
 20
-143.1449
  0
VERTEX
  8
LAYER_3
 10
145.6338
 20
-143.1917
  0
SEQEND
  0
ENDBLK
  0
BLOCK
  8
LAYER_3
  2
AIGNBL03010011
 70
64
 10
0
 20
0
 30
0
  3
AIGNBL03010011
  0
POLYLINE
  8
LAYER_3
 40
0.1058
 41
0.1058
 66
1
 10
0
 20
0
 30
0
  0
VERTEX
  8
LAYER_3
 10
142.4213
 20
-141.3917
  0
VERTEX
  8
LAYER_3
 10
142.4735
 20
-141.4253
  0
VERTEX
  8
LAYER_3
 10
142.5258
 20
-141.459
  0
VERTEX
  8
LAYER_3
 10
142.5779
 20
-141.4926
  0
VERTEX
  8
LAYER_3
 10
142.63
 20
-141.5261
  0
VERTEX
  8
LAYER_3
 10
142.6819
 20
-141.5597
  0
VERTEX
  8
LAYER_3
 10
142.7337
 20
-141.5931
  0
VERTEX
  8
LAYER_3
 10
142.7853
 20
-141.6265
  0
VERTEX
  8
LAYER_3
 10
142.8366
 20
-141.6597
  0
VERTEX
  8
LAYER_3
 10
142.8877
 20
-141.6929
  0
VERTEX
  8
LAYER_3
 10
142.9386
 20
-141.7259
  0
VERTEX
  8
LAYER_3
 10
142.9891
 20
-141.7589
  0
VERTEX
  8
LAYER_3
 10
143.0392
 20
-141.7917
  0
VERTEX
  8
LAYER_3
 10
143.0889
 20
-141.8244
  0
VERTEX
  8
LAYER_3
 10
143.1382
 20
-141.8571
  0
VERTEX
  8
LAYER_3
 10
143.187
 20
-141.8896
  0
VERTEX
  8
LAYER_3
 10
143.2352
 20
-141.9222
  0
VERTEX
  8
LAYER_3
 10
143.2829
 20
-141.9546
  0
VERTEX
  8
LAYER_3
 10
143.3299
 20
-141.9871
  0
VERTEX
  8
LAYER_3
 10
143.3764
 20
-142.0195
  0
VERTEX
  8
LAYER_3
 10
143.4222
 20
-142.0518
  0
VERTEX
  8
LAYER_3
 10
143.4676
 20
-142.0842
  0
VERTEX
  8
LAYER_3
 10
143.5124
 20
-142.1165
  0
VERTEX
  8
LAYER_3
 10
143.5568
 20
-142.1488
  0
VERTEX
  8
LAYER_3
 10
143.6009
 20
-142.1811
  0
VERTEX
  8
LAYER_3
 10
143.6446
 20
-142.2134
  0
VERTEX
  8
LAYER_3
 10
143.6881
 20
-142.2456
  0
VERTEX
  8
LAYER_3
 10
143.7313
 20
-142.2779
  0
VERTEX
  8
LAYER_3
 10
143.7744
 20
-142.3101
  0
VERTEX
  8
LAYER_3
 10
143.8174
 20
-142.3424
  0
VERTEX
  8
LAYER_3
 10
143.8603
 20
-142.3746
  0
SEQEND
  0
ENDBLK
  0
BLOCK
  8
LAYER_3
  2
AIGNBL03010012
 70
64
 10
0
 20
0
 30
0
  3
AIGNBL03010012
  0
POLYLINE
  8
LAYER_3
 40
0.1058
 41
0.1058
 66
1
 10
0
 20
0
 30
0
  0
VERTEX
  8
LAYER_3
 10
143.8603
 20
-141.3917
  0
VERTEX
  8
LAYER_3
 10
143.895
 20
-141.4382
  0
VERTEX
  8
LAYER_3
 10
143.9288
 20
-141.4845
  0
VERTEX
  8
LAYER_3
 10
143.9619
 20
-141.5306
  0
VERTEX
  8
LAYER_3
 10
143.9942
 20
-141.5763
  0
VERTEX
  8
LAYER_3
 10
144.0257
 20
-141.6219
  0
VERTEX
  8
LAYER_3
 10
144.0564
 20
-141.6673
  0
VERTEX
  8
LAYER_3
 10
144.0863
 20
-141.7124
  0
VERTEX
  8
LAYER_3
 10
144.1154
 20
-141.7574
  0
VERTEX
  8
LAYER_3
 10
144.1437
 20
-141.8022
  0
VERTEX
  8
LAYER_3
 10
144.1711
 20
-141.8469
  0
VERTEX
  8
LAYER_3
 10
144.1977
 20
-141.8915
  0
VERTEX
  8
LAYER_3
 10
144.2235
 20
-141.9359
  0
VERTEX
  8
LAYER_3
 10
144.2485
 20
-141.9803
  0
VERTEX
  8
LAYER_3
 10
144.2725
 20
-142.0246
  0
VERTEX
  8
LAYER_3
 10
144.2958
 20
-142.0688
  0
VERTEX
  8
LAYER_3
 10
144.3181
 20
-142.113
  0
VERTEX
  8
LAYER_3
 10
144.3397
 20
-142.1571
  0
VERTEX
  8
LAYER_3
 10
144.3603
 20
-142.2013
  0
VERTEX
  8
LAYER_3
 10
144.3801
 20
-142.2454
  0
VERTEX
  8
LAYER_3
 10
144.3989
 20
-142.2896
  0
VERTEX
  8
LAYER_3
 10
144.4169
 20
-142.3338
  0
VERTEX
  8
LAYER_3
 10
144.434
 20
-142.3781
  0
VERTEX
  8
LAYER_3
 10
144.4502
 20
-142.4225
  0
VERTEX
  8
LAYER_3
 10
144.4655
 20
-142.4669
  0
VERTEX
  8
LAYER_3
 10
144.4799
 20
-142.5115
  0
VERTEX
  8
LAYER_3
 10
144.4933
 20
-142.556
  0
VERTEX
  8
LAYER_3
 10
144.5059
 20
-142.6007
  0
VERTEX
  8
LAYER_3
 10
144.5175
 20
-142.6454
  0
VERTEX
  8
LAYER_3
 10
144.5281
 20
-142.6902
  0
VERTEX
  8
LAYER_3
 10
144.5378
 20
-142.7351
  0
VERTEX
  8
LAYER_3
 10
144.5466
 20
-142.78
  0
VERTEX
  8
LAYER_3
 10
144.5544
 20
-142.8251
  0
VERTEX
  8
LAYER_3
 10
144.5613
 20
-142.8702
  0
VERTEX
  8
LAYER_3
 10
144.5673
 20
-142.9156
  0
VERTEX
  8
LAYER_3
 10
144.5724
 20
-142.9611
  0
VERTEX
  8
LAYER_3
 10
144.5765
 20
-143.0068
  0
VERTEX
  8
LAYER_3
 10
144.5797
 20
-143.0527
  0
VERTEX
  8
LAYER_3
 10
144.582
 20
-143.0987
  0
VERTEX
  8
LAYER_3
 10
144.5833
 20
-143.1451
  0
VERTEX
  8
LAYER_3
 10
144.5838
 20
-143.1917
  0
SEQEND
  0
ENDBLK
  0
BLOCK
  8
LAYER_3
  2
AIGNBL03010013
 70
64
 10
0
 20
0
 30
0
  3
AIGNBL03010013
  0
POLYLINE
  8
LAYER_3
 40
0.1058
 41
0.1058
 66
1
 10
0
 20
0
 30
0
  0
VERTEX
  8
LAYER_3
 10
142.4116
 20
-141.8022
  0
VERTEX
  8
LAYER_3
 10
142.4678
 20
-141.8469
  0
VERTEX
  8
LAYER_3
 10
142.5235
 20
-141.8915
  0
VERTEX
  8
LAYER_3
 10
142.5787
 20
-141.9359
  0
VERTEX
  8
LAYER_3
 10
142.6333
 20
-141.9803
  0
VERTEX
  8
LAYER_3
 10
142.6874
 20
-142.0246
  0
VERTEX
  8
LAYER_3
 10
142.7409
 20
-142.0688
  0
VERTEX
  8
LAYER_3
 10
142.7939
 20
-142.113
  0
VERTEX
  8
LAYER_3
 10
142.8463
 20
-142.1571
  0
VERTEX
  8
LAYER_3
 10
142.898
 20
-142.2013
  0
VERTEX
  8
LAYER_3
 10
142.9492
 20
-142.2454
  0
VERTEX
  8
LAYER_3
 10
142.9998
 20
-142.2896
  0
VERTEX
  8
LAYER_3
 10
143.0498
 20
-142.3338
  0
VERTEX
  8
LAYER_3
 10
143.0992
 20
-142.3781
  0
VERTEX
  8
LAYER_3
 10
143.1479
 20
-142.4225
  0
VERTEX
  8
LAYER_3
 10
143.1959
 20
-142.4669
  0
VERTEX
  8
LAYER_3
 10
143.2433
 20
-142.5115
  0
VERTEX
  8
LAYER_3
 10
143.29
 20
-142.556
  0
VERTEX
  8
LAYER_3
 10
143.3359
 20
-142.6007
  0
VERTEX
  8
LAYER_3
 10
143.3811
 20
-142.6454
  0
VERTEX
  8
LAYER_3
 10
143.4255
 20
-142.6902
  0
VERTEX
  8
LAYER_3
 10
143.469
 20
-142.7351
  0
VERTEX
  8
LAYER_3
 10
143.5118
 20
-142.78
  0
VERTEX
  8
LAYER_3
 10
143.5538
 20
-142.8251
  0
VERTEX
  8
LAYER_3
 10
143.5949
 20
-142.8702
  0
VERTEX
  8
LAYER_3
 10
143.6353
 20
-142.9156
  0
VERTEX
  8
LAYER_3
 10
143.6748
 20
-142.9611
  0
VERTEX
  8
LAYER_3
 10
143.7136
 20
-143.0068
  0
VERTEX
  8
LAYER_3
 10
143.7515
 20
-143.0527
  0
VERTEX
  8
LAYER_3
 10
143.7886
 20
-143.0987
  0
VERTEX
  8
LAYER_3
 10
143.8249
 20
-143.1451
  0
VERTEX
  8
LAYER_3
 10
143.8603
 20
-143.1917
  0
SEQEND
  0
ENDBLK
  0
BLOCK
  8
LAYER_3
  2
AIGNBL03010014
 70
64
 10
0
 20
0
 30
0
  3
AIGNBL03010014
  0
POLYLINE
  8
LAYER_3
 40
0.1058
 41
0.1058
 66
1
 10
0
 20
0
 30
0
  0
VERTEX
  8
LAYER_3
 10
142.7424
 20
-159.4004
  0
VERTEX
  8
LAYER_3
 10
142.7914
 20
-156.5917
  0
VERTEX
  8
LAYER_3
 10
142.8036
 20
-155.8917
  0
VERTEX
  8
LAYER_3
 10
142.9569
 20
-147.1071
  0
SEQEND
  0
ENDBLK
  0
BLOCK
  8
LAYER_3
  2
AIGNBL03010015
 70
64
 10
0
 20
0
 30
0
  3
AIGNBL03010015
  0
POLYLINE
  8
LAYER_3
 40
0.1058
 41
0.1058
 66
1
 10
0
 20
0
 30
0
  0
VERTEX
  8
LAYER_3
 10
144.4337
 20
-95.3917
  0
VERTEX
  8
LAYER_3
 10
144.4337
 20
-98.3917
  0
SEQEND
  0
ENDBLK
  0
BLOCK
  8
LAYER_3
  2
AIGNBL03010016
 70
64
 10
0
 20
0
 30
0
  3
AIGNBL03010016
  0
POLYLINE
  8
LAYER_3
 40
0.1058
 41
0.1058
 66
1
 10
0
 20
0
 30
0
  0
VERTEX
  8
LAYER_3
 10
144.4337
 20
-98.3917
  0
VERTEX
  8
LAYER_3
 10
142.0838
 20
-98.3917
  0
SEQEND
  0
ENDBLK
  0
BLOCK
  8
LAYER_3
  2
AIGNBL03010017
 70
64
 10
0
 20
0
 30
0
  3
AIGNBL03010017
  0
POLYLINE
  8
LAYER_3
 40
0.1058
 41
0.1058
 66
1
 10
0
 20
0
 30
0
  0
VERTEX
  8
LAYER_3
 10
143.9337
 20
-94.8917
  0
VERTEX
  8
LAYER_3
 10
142.0838
 20
-94.8917
  0
SEQEND
  0
ENDBLK
  0
BLOCK
  8
LAYER_3
  2
AIGNBL03010018
 70
64
 10
0
 20
0
 30
0
  3
AIGNBL03010018
  0
POLYLINE
  8
LAYER_3
 40
0.1058
 41
0.1058
 66
1
 10
0
 20
0
 30
0
  0
VERTEX
  8
LAYER_3
 10
142.1337
 20
-91.2417
  0
VERTEX
  8
LAYER_3
 10
142.1337
 20
-94.8917
  0
SEQEND
  0
ENDBLK
  0
BLOCK
  8
LAYER_3
  2
AIGNBL03010019
 70
64
 10
0
 20
0
 30
0
  3
AIGNBL03010019
  0
POLYLINE
  8
LAYER_3
 40
0.1058
 41
0.1058
 66
1
 10
0
 20
0
 30
0
  0
VERTEX
  8
LAYER_3
 10
146.188
 20
-92.5917
  0
VERTEX
  8
LAYER_3
 10
145.4559
 20
-92.5917
  0
SEQEND
  0
ENDBLK
  0
BLOCK
  8
LAYER_3
  2
AIGNBL0301001A
 70
64
 10
0
 20
0
 30
0
  3
AIGNBL0301001A
  0
POLYLINE
  8
LAYER_3
 40
0.1058
 41
0.1058
 66
1
 10
0
 20
0
 30
0
  0
VERTEX
  8
LAYER_3
 10
153.1837
 20
-85.7118
  0
VERTEX
  8
LAYER_3
 10
153.1837
 20
-87.0917
  0
SEQEND
  0
POLYLINE
  8
LAYER_3
 40
0.1058
 41
0.1058
 66
1
 10
0
 20
0
 30
0
  0
VERTEX
  8
LAYER_3
 10
153.1837
 20
-91.7917
  0
VERTEX
  8
LAYER_3
 10
153.1837
 20
-95.2917
  0
SEQEND
  0
ENDBLK
  0
BLOCK
  8
LAYER_3
  2
AIGNBL0301001B
 70
64
 10
0
 20
0
 30
0
  3
AIGNBL0301001B
  0
POLYLINE
  8
LAYER_3
 40
0.1058
 41
0.1058
 66
1
 10
0
 20
0
 30
0
  0
VERTEX
  8
LAYER_3
 10
104.6837
 20
-87.0917
  0
VERTEX
  8
LAYER_3
 10
88.1313
 20
-87.0917
  0
SEQEND
  0
POLYLINE
  8
LAYER_3
 40
0.1058
 41
0.1058
 66
1
 10
0
 20
0
 30
0
  0
VERTEX
  8
LAYER_3
 10
107.1837
 20
-104.3417
  0
VERTEX
  8
LAYER_3
 10
88.1313
 20
-104.3417
  0
SEQEND
  0
POLYLINE
  8
LAYER_3
 40
0.1058
 41
0.1058
 66
1
 10
0
 20
0
 30
0
  0
VERTEX
  8
LAYER_3
 10
138.1837
 20
-79.0917
  0
VERTEX
  8
LAYER_3
 10
88.1313
 20
-79.0917
  0
SEQEND
  0
POLYLINE
  8
LAYER_3
 40
0.1058
 41
0.1058
 66
1
 10
0
 20
0
 30
0
  0
VERTEX
  8
LAYER_3
 10
89.1313
 20
-79.0917
  0
VERTEX
  8
LAYER_3
 10
89.1313
 20
-87.0917
  0
VERTEX
  8
LAYER_3
 10
89.1313
 20
-104.3417
  0
SEQEND
  0
TEXT
  8
LAYER_3
 10
88.2211
 20
-99.0708
 11
88.2211
 21
-99.0708
 40
3.5541
 41
0.5
 50
89.99999999
  1
(17)
  0
TEXT
  8
LAYER_3
 10
88.2211
 20
-84.5917
 11
88.2211
 21
-84.5917
 40
3.5541
 41
0.5
 50
89.99999999
  1
8
  0
ENDBLK
  0
BLOCK
  8
LAYER_3
  2
AIGNBL0301001C
 70
64
 10
0
 20
0
 30
0
  3
AIGNBL0301001C
  0
INSERT
  8
LAYER_3
  2
AIGNBL0302001D
 10
0
 20
0
 30
0
  0
ENDBLK
  0
BLOCK
  8
LAYER_6
  2
AIGNBL06010002
 70
64
 10
0
 20
0
 30
0
  3
AIGNBL06010002
  0
POLYLINE
  8
LAYER_6
 40
0.7056
 41
0.7056
 66
1
 10
0
 20
0
 30
0
 70
1
  0
VERTEX
  8
LAYER_6
 10
33.7873
 20
22.6587
  0
VERTEX
  8
LAYER_6
 10
230.7955
 20
22.6587
  0
VERTEX
  8
LAYER_6
 10
230.7955
 20
-259.334
  0
VERTEX
  8
LAYER_6
 10
33.7873
 20
-259.334
  0
SEQEND
  0
ENDBLK
  0
ENDSEC
  0
SECTION
  2
ENTITIES
  0
INSERT
  8
LAYER_1
  2
AIGNBL01010002
 10
0
 20
0
 30
0
  0
INSERT
  8
LAYER_3
  2
AIGNBL03010002
 10
0
 20
0
 30
0
  0
POLYLINE
  8
LAYER_3
 40
0.1058
 41
0.1058
 66
1
 10
0
 20
0
 30
0
  0
VERTEX
  8
LAYER_3
 10
160.4337
 20
-135.6358
  0
VERTEX
  8
LAYER_3
 10
160.4337
 20
-146.6358
  0
VERTEX
  8
LAYER_3
 10
159.9837
 20
-146.6358
  0
SEQEND
  0
POLYLINE
  8
LAYER_3
 40
0.1058
 41
0.1058
 66
1
 10
0
 20
0
 30
0
  0
VERTEX
  8
LAYER_3
 10
159.9837
 20
-135.6358
  0
VERTEX
  8
LAYER_3
 10
160.4337
 20
-135.6358
  0
VERTEX
  8
LAYER_3
 10
161.4337
 20
-134.6358
  0
SEQEND
  0
POLYLINE
  8
LAYER_3
 40
0.1058
 41
0.1058
 66
1
 10
0
 20
0
 30
0
  0
VERTEX
  8
LAYER_3
 10
108.3837
 20
-134.6358
 42
0.4142618299
  0
VERTEX
  8
LAYER_3
 10
107.8837
 20
-135.1358
  0
VERTEX
  8
LAYER_3
 10
107.8837
 20
-136.6358
 42
0.4142163967
  0
VERTEX
  8
LAYER_3
 10
108.8837
 20
-137.6358
  0
VERTEX
  8
LAYER_3
 10
139.1837
 20
-137.6358
  0
SEQEND
  0
POLYLINE
  8
LAYER_3
 40
0.1058
 41
0.1058
 66
1
 10
0
 20
0
 30
0
  0
VERTEX
  8
LAYER_3
 10
158.8337
 20
-147.4166
  0
VERTEX
  8
LAYER_3
 10
158.8337
 20
-153.8549
  0
SEQEND
  0
POLYLINE
  8
LAYER_3
 40
0.1058
 41
0.1058
 66
1
 10
0
 20
0
 30
0
  0
VERTEX
  8
LAYER_3
 10
160.3337
 20
-153.8549
  0
VERTEX
  8
LAYER_3
 10
158.8337
 20
-153.8549
  0
VERTEX
  8
LAYER_3
 10
160.3337
 20
-154.6358
  0
VERTEX
  8
LAYER_3
 10
160.3337
 20
-146.6358
  0
VERTEX
  8
LAYER_3
 10
158.8337
 20
-147.4166
  0
VERTEX
  8
LAYER_3
 10
160.3337
 20
-147.4166
  0
SEQEND
  0
POLYLINE
  8
LAYER_3
 40
0.1058
 41
0.1058
 66
1
 10
0
 20
0
 30
0
  0
VERTEX
  8
LAYER_3
 10
115.1837
 20
-137.6358
 42
-0.4142107258
  0
VERTEX
  8
LAYER_3
 10
116.1837
 20
-138.6358
  0
VERTEX
  8
LAYER_3
 10
116.1837
 20
-154.4358
 42
0.4142277154
  0
VERTEX
  8
LAYER_3
 10
116.3837
 20
-154.6358
  0
VERTEX
  8
LAYER_3
 10
139.1837
 20
-154.6358
  0
SEQEND
  0
POLYLINE
  8
LAYER_3
 40
0.1058
 41
0.1058
 66
1
 10
0
 20
0
 30
0
  0
VERTEX
  8
LAYER_3
 10
159.9837
 20
-154.6358
  0
VERTEX
  8
LAYER_3
 10
161.9837
 20
-154.6358
 42
0.4140929357
  0
VERTEX
  8
LAYER_3
 10
162.1837
 20
-154.4358
  0
VERTEX
  8
LAYER_3
 10
162.1837
 20
-138.6358
 42
-0.4142376952
  0
VERTEX
  8
LAYER_3
 10
163.1837
 20
-137.6358
  0
VERTEX
  8
LAYER_3
 10
169.4837
 20
-137.6358
 42
0.4141894323
  0
VERTEX
  8
LAYER_3
 10
170.4837
 20
-136.6358
  0
VERTEX
  8
LAYER_3
 10
170.4837
 20
-135.1358
 42
0.4142078874
  0
VERTEX
  8
LAYER_3
 10
169.9837
 20
-134.6358
  0
SEQEND
  0
POLYLINE
  8
LAYER_3
 40
0.1058
 41
0.1058
 66
1
 10
0
 20
0
 30
0
  0
VERTEX
  8
LAYER_3
 10
129.8567
 20
-154.6358
 42
-0.414098798
  0
VERTEX
  8
LAYER_3
 10
129.6567
 20
-154.4358
  0
VERTEX
  8
LAYER_3
 10
129.6567
 20
-138.6358
 42
0.4142365217
  0
VERTEX
  8
LAYER_3
 10
128.6567
 20
-137.6358
  0
SEQEND
  0
POLYLINE
  8
LAYER_3
 40
0.1058
 41
0.1058
 66
1
 10
0
 20
0
 30
0
  0
VERTEX
  8
LAYER_3
 10
144.4337
 20
-98.3917
  0
VERTEX
  8
LAYER_3
 10
144.9337
 20
-98.8917
  0
SEQEND
  0
POLYLINE
  8
LAYER_3
 40
0.1058
 41
0.1058
 66
1
 10
0
 20
0
 30
0
  0
VERTEX
  8
LAYER_3
 10
144.4337
 20
-95.3917
 42
0.4142060888
  0
VERTEX
  8
LAYER_3
 10
143.9337
 20
-94.8917
  0
SEQEND
  0
POLYLINE
  8
LAYER_3
 40
0.1058
 41
0.1058
 66
1
 10
0
 20
0
 30
0
  0
VERTEX
  8
LAYER_3
 10
139.1837
 20
-96.2917
  0
VERTEX
  8
LAYER_3
 10
120.9837
 20
-96.2917
 42
0.4142393933
  0
VERTEX
  8
LAYER_3
 10
120.0837
 20
-97.1917
 42
0.4142176949
  0
VERTEX
  8
LAYER_3
 10
120.9837
 20
-98.0917
  0
VERTEX
  8
LAYER_3
 10
139.1837
 20
-98.0917
  0
SEQEND
  0
POLYLINE
  8
LAYER_3
 40
0.1058
 41
0.1058
 66
1
 10
0
 20
0
 30
0
  0
VERTEX
  8
LAYER_3
 10
154.9337
 20
-95.9917
 42
0.4142061181
  0
VERTEX
  8
LAYER_3
 10
154.4337
 20
-95.4917
  0
VERTEX
  8
LAYER_3
 10
153.0337
 20
-95.4917
  0
SEQEND
  0
POLYLINE
  8
LAYER_3
 40
0.1058
 41
0.1058
 66
1
 10
0
 20
0
 30
0
  0
VERTEX
  8
LAYER_3
 10
157.0837
 20
-98.0917
  0
VERTEX
  8
LAYER_3
 10
157.0837
 20
-98.1917
  0
VERTEX
  8
LAYER_3
 10
147.7979
 20
-98.1917
 42
0.1989209614
  0
VERTEX
  8
LAYER_3
 10
147.0908
 20
-98.4846
  0
SEQEND
  0
POLYLINE
  8
LAYER_3
 40
0.1058
 41
0.1058
 66
1
 10
0
 20
0
 30
0
  0
VERTEX
  8
LAYER_3
 10
121.2837
 20
-98.0917
  0
VERTEX
  8
LAYER_3
 10
121.2837
 20
-98.1917
  0
VERTEX
  8
LAYER_3
 10
130.5694
 20
-98.1917
 42
-0.198921565
  0
VERTEX
  8
LAYER_3
 10
131.2765
 20
-98.4846
  0
SEQEND
  0
POLYLINE
  8
LAYER_3
 40
0.1058
 41
0.1058
 66
1
 10
0
 20
0
 30
0
  0
VERTEX
  8
LAYER_3
 10
141.9337
 20
-89.5417
  0
VERTEX
  8
LAYER_3
 10
142.1337
 20
-91.2417
  0
VERTEX
  8
LAYER_3
 10
142.0838
 20
-91.2417
  0
SEQEND
  0
POLYLINE
  8
LAYER_3
 40
0.1058
 41
0.1058
 66
1
 10
0
 20
0
 30
0
  0
VERTEX
  8
LAYER_3
 10
145.4559
 20
-92.5917
 42
-0.411662149
  0
VERTEX
  8
LAYER_3
 10
144.9559
 20
-92.096
  0
VERTEX
  8
LAYER_3
 10
144.938
 20
-90.0373
 42
0.4116570493
  0
VERTEX
  8
LAYER_3
 10
144.438
 20
-89.5417
  0
SEQEND
  0
POLYLINE
  8
LAYER_3
 40
0.1058
 41
0.1058
 66
1
 10
0
 20
0
 30
0
  0
VERTEX
  8
LAYER_3
 10
139.1837
 20
-98.8917
  0
VERTEX
  8
LAYER_3
 10
132.0979
 20
-98.8917
 42
-0.1989087224
  0
VERTEX
  8
LAYER_3
 10
131.3908
 20
-98.5988
  0
VERTEX
  8
LAYER_3
 10
131.1765
 20
-98.3846
 42
0.1989215649
  0
VERTEX
  8
LAYER_3
 10
130.4694
 20
-98.0917
  0
SEQEND
  0
POLYLINE
  8
LAYER_3
 40
0.1058
 41
0.1058
 66
1
 10
0
 20
0
 30
0
  0
VERTEX
  8
LAYER_3
 10
142.0838
 20
-98.8917
  0
VERTEX
  8
LAYER_3
 10
146.2694
 20
-98.8917
 42
0.1989093258
  0
VERTEX
  8
LAYER_3
 10
146.9765
 20
-98.5988
  0
VERTEX
  8
LAYER_3
 10
147.1908
 20
-98.3846
 42
-0.1989209616
  0
VERTEX
  8
LAYER_3
 10
147.8979
 20
-98.0917
  0
VERTEX
  8
LAYER_3
 10
157.3837
 20
-98.0917
 42
0.4141877343
  0
VERTEX
  8
LAYER_3
 10
158.2837
 20
-97.1917
 42
0.4142094275
  0
VERTEX
  8
LAYER_3
 10
157.3837
 20
-96.2917
  0
VERTEX
  8
LAYER_3
 10
153.5337
 20
-96.2917
 42
-0.4142209995
  0
VERTEX
  8
LAYER_3
 10
153.0337
 20
-95.7917
  0
VERTEX
  8
LAYER_3
 10
153.0337
 20
-91.5917
  0
VERTEX
  8
LAYER_3
 10
153.9837
 20
-91.3917
  0
VERTEX
  8
LAYER_3
 10
153.9837
 20
-89.7362
  0
VERTEX
  8
LAYER_3
 10
152.9837
 20
-87.5917
  0
VERTEX
  8
LAYER_3
 10
152.9837
 20
-86.0917
 42
0.4142061181
  0
VERTEX
  8
LAYER_3
 10
152.4837
 20
-85.5917
  0
VERTEX
  8
LAYER_3
 10
151.0293
 20
-85.5917
 42
0.4116524529
  0
VERTEX
  8
LAYER_3
 10
150.5293
 20
-86.0873
  0
VERTEX
  8
LAYER_3
 10
150.4463
 20
-95.596
 42
-0.4116574199
  0
VERTEX
  8
LAYER_3
 10
149.9464
 20
-96.0917
  0
VERTEX
  8
LAYER_3
 10
147.2116
 20
-96.0917
 42
-0.411678081
  0
VERTEX
  8
LAYER_3
 10
146.7116
 20
-95.596
  0
VERTEX
  8
LAYER_3
 10
146.688
 20
-93.0873
 42
0.41165702
  0
VERTEX
  8
LAYER_3
 10
146.188
 20
-92.5917
  0
SEQEND
  0
POLYLINE
  8
LAYER_3
 40
0.1058
 41
0.1058
 66
1
 10
0
 20
0
 30
0
  0
VERTEX
  8
LAYER_3
 10
108.1141
 20
-105.4022
 42
-0.3739196591
  0
VERTEX
  8
LAYER_3
 10
107.6837
 20
-104.907
  0
VERTEX
  8
LAYER_3
 10
107.6837
 20
-104.8417
 42
-0.4142601458
  0
VERTEX
  8
LAYER_3
 10
108.1837
 20
-104.3417
  0
VERTEX
  8
LAYER_3
 10
139.1837
 20
-104.3417
  0
SEQEND
  0
POLYLINE
  8
LAYER_3
 40
0.1058
 41
0.1058
 66
1
 10
0
 20
0
 30
0
  0
VERTEX
  8
LAYER_3
 10
159.9837
 20
-119.9417
  0
VERTEX
  8
LAYER_3
 10
159.9837
 20
-169.5608
  0
SEQEND
  0
POLYLINE
  8
LAYER_3
 40
0.1058
 41
0.1058
 66
1
 10
0
 20
0
 30
0
  0
VERTEX
  8
LAYER_3
 10
157.8337
 20
-171.3417
 42
-0.4142258104
  0
VERTEX
  8
LAYER_3
 10
157.5337
 20
-171.0417
  0
VERTEX
  8
LAYER_3
 10
157.5337
 20
-117.9417
  0
SEQEND
  0
POLYLINE
  8
LAYER_3
 40
0.1058
 41
0.1058
 66
1
 10
0
 20
0
 30
0
  0
VERTEX
  8
LAYER_3
 10
158.4837
 20
-169.5608
  0
VERTEX
  8
LAYER_3
 10
159.9837
 20
-169.5608
  0
VERTEX
  8
LAYER_3
 10
158.4837
 20
-170.3417
  0
SEQEND
  0
POLYLINE
  8
LAYER_3
 40
0.1058
 41
0.1058
 66
1
 10
0
 20
0
 30
0
  0
VERTEX
  8
LAYER_3
 10
142.0838
 20
-104.3417
  0
VERTEX
  8
LAYER_3
 10
170.1837
 20
-104.3417
 42
-0.4142062039
  0
VERTEX
  8
LAYER_3
 10
170.6837
 20
-104.8417
  0
VERTEX
  8
LAYER_3
 10
170.6837
 20
-104.907
 42
-0.3739241312
  0
VERTEX
  8
LAYER_3
 10
170.2532
 20
-105.4022
  0
VERTEX
  8
LAYER_3
 10
167.9888
 20
-105.7204
 42
0.2308699338
  0
VERTEX
  8
LAYER_3
 10
160.7202
 20
-110.6231
  0
VERTEX
  8
LAYER_3
 10
160.5856
 20
-110.8563
 42
0.1316530478
  0
VERTEX
  8
LAYER_3
 10
160.1837
 20
-112.3563
  0
VERTEX
  8
LAYER_3
 10
160.1837
 20
-119.5128
  0
VERTEX
  8
LAYER_3
 10
159.9837
 20
-119.9417
  0
VERTEX
  8
LAYER_3
 10
158.4837
 20
-119.9417
  0
VERTEX
  8
LAYER_3
 10
158.4837
 20
-170.8417
 42
-0.4141669881
  0
VERTEX
  8
LAYER_3
 10
157.9837
 20
-171.3417
  0
SEQEND
  0
POLYLINE
  8
LAYER_3
 40
0.1058
 41
0.1058
 66
1
 10
0
 20
0
 30
0
  0
VERTEX
  8
LAYER_3
 10
170.1706
 20
-104.3417
  0
VERTEX
  8
LAYER_3
 10
162.3259
 20
-104.7528
 42
0.2539690682
  0
VERTEX
  8
LAYER_3
 10
161.5122
 20
-105.2514
  0
VERTEX
  8
LAYER_3
 10
158.6676
 20
-110.1783
 42
0.1316481833
  0
VERTEX
  8
LAYER_3
 10
158.5337
 20
-110.6783
  0
VERTEX
  8
LAYER_3
 10
158.5337
 20
-117.4417
 42
-0.4141669881
  0
VERTEX
  8
LAYER_3
 10
158.0337
 20
-117.9417
  0
VERTEX
  8
LAYER_3
 10
157.5837
 20
-117.9417
  0
SEQEND
  0
POLYLINE
  8
LAYER_3
 40
0.1058
 41
0.1058
 66
1
 10
0
 20
0
 30
0
  0
VERTEX
  8
LAYER_3
 10
139.1837
 20
-119.9417
  0
VERTEX
  8
LAYER_3
 10
118.3837
 20
-119.9417
  0
SEQEND
  0
POLYLINE
  8
LAYER_3
 40
0.1058
 41
0.1058
 66
1
 10
0
 20
0
 30
0
  0
VERTEX
  8
LAYER_3
 10
119.8837
 20
-119.9417
  0
VERTEX
  8
LAYER_3
 10
119.8837
 20
-124.1358
  0
SEQEND
  0
POLYLINE
  8
LAYER_3
 40
0.1058
 41
0.1058
 66
1
 10
0
 20
0
 30
0
  0
VERTEX
  8
LAYER_3
 10
118.3837
 20
-124.1358
  0
VERTEX
  8
LAYER_3
 10
118.3837
 20
-119.9417
  0
VERTEX
  8
LAYER_3
 10
118.1837
 20
-119.5128
  0
SEQEND
  0
POLYLINE
  8
LAYER_3
 40
0.1058
 41
0.1058
 66
1
 10
0
 20
0
 30
0
  0
VERTEX
  8
LAYER_3
 10
118.3837
 20
-154.6358
  0
VERTEX
  8
LAYER_3
 10
118.3837
 20
-169.5608
  0
SEQEND
  0
POLYLINE
  8
LAYER_3
 40
0.1058
 41
0.1058
 66
1
 10
0
 20
0
 30
0
  0
VERTEX
  8
LAYER_3
 10
142.0838
 20
-104.7812
  0
VERTEX
  8
LAYER_3
 10
162.1359
 20
-104.7812
  0
SEQEND
  0
POLYLINE
  8
LAYER_3
 40
0.1058
 41
0.1058
 66
1
 10
0
 20
0
 30
0
  0
VERTEX
  8
LAYER_3
 10
118.074
 20
-111.5525
 42
0.06317343794
  0
VERTEX
  8
LAYER_3
 10
117.7817
 20
-110.8563
  0
VERTEX
  8
LAYER_3
 10
117.6471
 20
-110.6231
 42
0.2308700362
  0
VERTEX
  8
LAYER_3
 10
110.3785
 20
-105.7204
  0
VERTEX
  8
LAYER_3
 10
108.1141
 20
-105.4022
  0
VERTEX
  8
LAYER_3
 10
139.1837
 20
-105.4022
  0
SEQEND
  0
POLYLINE
  8
LAYER_3
 40
0.1058
 41
0.1058
 66
1
 10
0
 20
0
 30
0
  0
VERTEX
  8
LAYER_3
 10
118.1837
 20
-119.0525
  0
VERTEX
  8
LAYER_3
 10
118.1837
 20
-119.5128
  0
VERTEX
  8
LAYER_3
 10
139.1837
 20
-119.5128
  0
SEQEND
  0
POLYLINE
  8
LAYER_3
 40
0.1058
 41
0.1058
 66
1
 10
0
 20
0
 30
0
  0
VERTEX
  8
LAYER_3
 10
143.5337
 20
-111.5525
  0
VERTEX
  8
LAYER_3
 10
158.5337
 20
-111.5525
  0
SEQEND
  0
POLYLINE
  8
LAYER_3
 40
0.1058
 41
0.1058
 66
1
 10
0
 20
0
 30
0
  0
VERTEX
  8
LAYER_3
 10
142.0838
 20
-119.6917
  0
VERTEX
  8
LAYER_3
 10
142.7283
 20
-119.6917
  0
SEQEND
  0
POLYLINE
  8
LAYER_3
 40
0.1058
 41
0.1058
 66
1
 10
0
 20
0
 30
0
  0
VERTEX
  8
LAYER_3
 10
141.1248
 20
-121.6434
 42
-0.2690224583
  0
VERTEX
  8
LAYER_3
 10
141.5588
 20
-121.3917
  0
VERTEX
  8
LAYER_3
 10
142.0838
 20
-121.3917
  0
VERTEX
  8
LAYER_3
 10
142.0838
 20
-120.1916
 42
-0.4100592435
  0
VERTEX
  8
LAYER_3
 10
142.5767
 20
-119.6917
  0
SEQEND
  0
POLYLINE
  8
LAYER_3
 40
0.1058
 41
0.1058
 66
1
 10
0
 20
0
 30
0
  0
VERTEX
  8
LAYER_3
 10
143.3838
 20
-126.5917
  0
VERTEX
  8
LAYER_3
 10
142.0838
 20
-126.5917
  0
SEQEND
  0
POLYLINE
  8
LAYER_3
 40
0.1058
 41
0.1058
 66
1
 10
0
 20
0
 30
0
  0
VERTEX
  8
LAYER_3
 10
141.1248
 20
-124.1399
 42
0.2690378357
  0
VERTEX
  8
LAYER_3
 10
141.5588
 20
-124.3917
  0
VERTEX
  8
LAYER_3
 10
142.0838
 20
-124.3917
  0
VERTEX
  8
LAYER_3
 10
142.0838
 20
-125.5917
 42
0.4142025054
  0
VERTEX
  8
LAYER_3
 10
142.5838
 20
-126.0917
  0
SEQEND
  0
POLYLINE
  8
LAYER_3
 40
0.1058
 41
0.1058
 66
1
 10
0
 20
0
 30
0
  0
VERTEX
  8
LAYER_3
 10
142.7045
 20
-119.6921
  0
VERTEX
  8
LAYER_3
 10
142.7128
 20
-119.6923
 42
0.3319601054
  0
VERTEX
  8
LAYER_3
 10
142.9045
 20
-119.5492
 42
-0.3319153803
  0
VERTEX
  8
LAYER_3
 10
143.3838
 20
-119.1917
 42
-0.3316594393
  0
VERTEX
  8
LAYER_3
 10
143.8629
 20
-119.5488
 42
0.3317005311
  0
VERTEX
  8
LAYER_3
 10
144.0546
 20
-119.6917
  0
VERTEX
  8
LAYER_3
 10
144.1338
 20
-119.6917
 42
-0.4142414092
  0
VERTEX
  8
LAYER_3
 10
144.3338
 20
-119.8917
  0
VERTEX
  8
LAYER_3
 10
144.3338
 20
-125.8917
 42
-0.4141435795
  0
VERTEX
  8
LAYER_3
 10
144.1338
 20
-126.0917
  0
VERTEX
  8
LAYER_3
 10
144.0546
 20
-126.0917
 42
0.3316564098
  0
VERTEX
  8
LAYER_3
 10
143.8629
 20
-126.2345
 42
-0.3316770934
  0
VERTEX
  8
LAYER_3
 10
143.3838
 20
-126.5917
 42
-0.331933037
  0
VERTEX
  8
LAYER_3
 10
142.9045
 20
-126.2341
 42
0.3180748854
  0
VERTEX
  8
LAYER_3
 10
142.713
 20
-126.0917
  0
VERTEX
  8
LAYER_3
 10
142.0838
 20
-126.0917
  0
SEQEND
  0
POLYLINE
  8
LAYER_3
 40
0.1058
 41
0.1058
 66
1
 10
0
 20
0
 30
0
  0
VERTEX
  8
LAYER_3
 10
140.5905
 20
-88.1917
  0
VERTEX
  8
LAYER_3
 10
140.7337
 20
-88.1917
  0
SEQEND
  0
POLYLINE
  8
LAYER_3
 40
0.1058
 41
0.1058
 66
1
 10
0
 20
0
 30
0
  0
VERTEX
  8
LAYER_3
 10
140.8573
 20
-87.7124
 42
0.1816678451
  0
VERTEX
  8
LAYER_3
 10
140.7337
 20
-88.0417
  0
VERTEX
  8
LAYER_3
 10
140.7337
 20
-88.1917
  0
VERTEX
  8
LAYER_3
 10
141.4837
 20
-88.9417
  0
SEQEND
  0
POLYLINE
  8
LAYER_3
 40
0.1058
 41
0.1058
 66
1
 10
0
 20
0
 30
0
  0
VERTEX
  8
LAYER_3
 10
141.7338
 20
-89.5417
  0
VERTEX
  8
LAYER_3
 10
144.8337
 20
-89.5417
 42
-0.4141949385
  0
VERTEX
  8
LAYER_3
 10
145.0337
 20
-89.7417
  0
VERTEX
  8
LAYER_3
 10
145.0337
 20
-92.0417
 42
0.4142209992
  0
VERTEX
  8
LAYER_3
 10
145.5337
 20
-92.5417
  0
SEQEND
  0
POLYLINE
  8
LAYER_3
 40
0.1058
 41
0.1058
 66
1
 10
0
 20
0
 30
0
  0
VERTEX
  8
LAYER_3
 10
142.0337
 20
-89.5417
 42
-0.4142321415
  0
VERTEX
  8
LAYER_3
 10
141.8337
 20
-89.3417
  0
VERTEX
  8
LAYER_3
 10
141.8337
 20
-89.1417
 42
0.4141949385
  0
VERTEX
  8
LAYER_3
 10
141.6337
 20
-88.9417
  0
VERTEX
  8
LAYER_3
 10
141.0337
 20
-88.9417
  0
VERTEX
  8
LAYER_3
 10
140.5916
 20
-88.4996
  0
SEQEND
  0
POLYLINE
  8
LAYER_3
 40
0.1058
 41
0.1058
 66
1
 10
0
 20
0
 30
0
  0
VERTEX
  8
LAYER_3
 10
145.9337
 20
-92.5417
 42
0.4141670739
  0
VERTEX
  8
LAYER_3
 10
146.4337
 20
-92.0417
  0
VERTEX
  8
LAYER_3
 10
146.4337
 20
-85.9929
 42
0.402040478
  0
VERTEX
  8
LAYER_3
 10
145.4754
 20
-84.9938
 42
0.006062593829
  0
VERTEX
  8
LAYER_3
 10
141.8337
 20
-84.8857
  0
VERTEX
  8
LAYER_3
 10
139.1837
 20
-84.8857
  0
SEQEND
  0
POLYLINE
  8
LAYER_3
 40
0.1058
 41
0.1058
 66
1
 10
0
 20
0
 30
0
  0
VERTEX
  8
LAYER_3
 10
142.3441
 20
-84.8956
  0
VERTEX
  8
LAYER_3
 10
142.3337
 20
-84.8955
 42
0.4142680242
  0
VERTEX
  8
LAYER_3
 10
141.8337
 20
-85.3955
  0
VERTEX
  8
LAYER_3
 10
141.8337
 20
-87.3417
 42
-0.4140973572
  0
VERTEX
  8
LAYER_3
 10
141.6337
 20
-87.5417
  0
SEQEND
  0
POLYLINE
  8
LAYER_3
 40
0.1058
 41
0.1058
 66
1
 10
0
 20
0
 30
0
  0
VERTEX
  8
LAYER_3
 10
140.7837
 20
-84.8857
 42
0.2495115089
  0
VERTEX
  8
LAYER_3
 10
140.369
 20
-85.1064
  0
SEQEND
  0
POLYLINE
  8
LAYER_3
 40
0.1058
 41
0.1058
 66
1
 10
0
 20
0
 30
0
  0
VERTEX
  8
LAYER_3
 10
139.1837
 20
-169.5608
  0
VERTEX
  8
LAYER_3
 10
118.3837
 20
-169.5608
  0
VERTEX
  8
LAYER_3
 10
119.8837
 20
-170.3417
  0
SEQEND
  0
POLYLINE
  8
LAYER_3
 40
0.1058
 41
0.1058
 66
1
 10
0
 20
0
 30
0
  0
VERTEX
  8
LAYER_3
 10
120.3837
 20
-171.3417
 42
-0.4142209135
  0
VERTEX
  8
LAYER_3
 10
119.8837
 20
-170.8417
  0
VERTEX
  8
LAYER_3
 10
119.8837
 20
-154.6358
  0
SEQEND
  0
POLYLINE
  8
LAYER_3
 40
0.1058
 41
0.1058
 66
1
 10
0
 20
0
 30
0
  0
VERTEX
  8
LAYER_3
 10
160.4837
 20
-134.6358
  0
VERTEX
  8
LAYER_3
 10
160.4837
 20
-134.1358
  0
SEQEND
  0
POLYLINE
  8
LAYER_3
 40
0.1058
 41
0.1058
 66
1
 10
0
 20
0
 30
0
  0
VERTEX
  8
LAYER_3
 10
159.9837
 20
-134.6358
  0
VERTEX
  8
LAYER_3
 10
170.4837
 20
-134.6358
  0
VERTEX
  8
LAYER_3
 10
170.4837
 20
-134.1358
  0
VERTEX
  8
LAYER_3
 10
159.9837
 20
-134.1358
  0
SEQEND
  0
POLYLINE
  8
LAYER_3
 40
0.1058
 41
0.1058
 66
1
 10
0
 20
0
 30
0
  0
VERTEX
  8
LAYER_3
 10
139.1837
 20
-134.6358
  0
VERTEX
  8
LAYER_3
 10
107.8837
 20
-134.6358
  0
VERTEX
  8
LAYER_3
 10
107.8837
 20
-134.1358
  0
VERTEX
  8
LAYER_3
 10
139.1837
 20
-134.1358
  0
SEQEND
  0
POLYLINE
  8
LAYER_3
 40
0.1058
 41
0.1058
 66
1
 10
0
 20
0
 30
0
  0
VERTEX
  8
LAYER_3
 10
142.6088
 20
-130.1417
 42
0.4142411948
  0
VERTEX
  8
LAYER_3
 10
142.4088
 20
-129.9417
  0
SEQEND
  0
POLYLINE
  8
LAYER_3
 40
0.1058
 41
0.1058
 66
1
 10
0
 20
0
 30
0
  0
VERTEX
  8
LAYER_3
 10
163.1837
 20
-111.5525
  0
VERTEX
  8
LAYER_3
 10
163.1837
 20
-119.0525
  0
SEQEND
  0
POLYLINE
  8
LAYER_3
 40
0.1058
 41
0.1058
 66
1
 10
0
 20
0
 30
0
  0
VERTEX
  8
LAYER_3
 10
139.1837
 20
-119.0525
  0
VERTEX
  8
LAYER_3
 10
109.6837
 20
-119.0525
  0
VERTEX
  8
LAYER_3
 10
109.6837
 20
-111.5525
  0
VERTEX
  8
LAYER_3
 10
139.1837
 20
-111.5525
  0
SEQEND
  0
POLYLINE
  8
LAYER_3
 40
0.1058
 41
0.1058
 66
1
 10
0
 20
0
 30
0
  0
VERTEX
  8
LAYER_3
 10
160.1837
 20
-119.0525
  0
VERTEX
  8
LAYER_3
 10
168.6837
 20
-119.0525
  0
VERTEX
  8
LAYER_3
 10
168.6837
 20
-111.5525
  0
VERTEX
  8
LAYER_3
 10
160.2859
 20
-111.5525
  0
SEQEND
  0
POLYLINE
  8
LAYER_3
  6
AIGENLINE001
 40
0.1058
 41
0.1058
 66
1
 10
0
 20
0
 30
0
 70
128
  0
VERTEX
  8
LAYER_3
 10
139.1837
 20
-75.1183
  0
VERTEX
  8
LAYER_3
 10
139.1837
 20
-176.2712
  0
SEQEND
  0
POLYLINE
  8
LAYER_3
 40
0.1058
 41
0.1058
 66
1
 10
0
 20
0
 30
0
  0
VERTEX
  8
LAYER_3
 10
107.8837
 20
-133.1358
  0
VERTEX
  8
LAYER_3
 10
139.1837
 20
-133.1358
  0
SEQEND
  0
POLYLINE
  8
LAYER_3
 40
0.1058
 41
0.1058
 66
1
 10
0
 20
0
 30
0
  0
VERTEX
  8
LAYER_3
 10
139.1837
 20
-124.1358
  0
VERTEX
  8
LAYER_3
 10
117.8837
 20
-124.1358
  0
VERTEX
  8
LAYER_3
 10
107.8837
 20
-133.1358
  0
VERTEX
  8
LAYER_3
 10
107.8837
 20
-134.1358
  0
SEQEND
  0
POLYLINE
  8
LAYER_3
 40
0.1058
 41
0.1058
 66
1
 10
0
 20
0
 30
0
  0
VERTEX
  8
LAYER_3
 10
159.9837
 20
-124.1358
  0
VERTEX
  8
LAYER_3
 10
160.4837
 20
-124.1358
  0
VERTEX
  8
LAYER_3
 10
170.4837
 20
-133.1358
  0
VERTEX
  8
LAYER_3
 10
170.4837
 20
-134.1358
  0
SEQEND
  0
POLYLINE
  8
LAYER_3
 40
0.1058
 41
0.1058
 66
1
 10
0
 20
0
 30
0
  0
VERTEX
  8
LAYER_3
 10
145.5364
 20
-115.2917
  0
VERTEX
  8
LAYER_3
 10
144.9936
 20
-115.2917
  0
SEQEND
  0
POLYLINE
  8
LAYER_3
 40
0.1058
 41
0.1058
 66
1
 10
0
 20
0
 30
0
  0
VERTEX
  8
LAYER_3
 10
147.0837
 20
-114.9917
 42
0.02715384898
  0
VERTEX
  8
LAYER_3
 10
151.6837
 20
-115.2417
  0
VERTEX
  8
LAYER_3
 10
157.5837
 20
-115.2417
  0
SEQEND
  0
POLYLINE
  8
LAYER_3
 40
0.1058
 41
0.1058
 66
1
 10
0
 20
0
 30
0
  0
VERTEX
  8
LAYER_3
 10
157.0837
 20
-117.9417
 42
-0.4142227502
  0
VERTEX
  8
LAYER_3
 10
156.6837
 20
-117.5417
  0
VERTEX
  8
LAYER_3
 10
156.6837
 20
-115.6417
 42
-0.414271793
  0
VERTEX
  8
LAYER_3
 10
157.0837
 20
-115.2417
  0
SEQEND
  0
POLYLINE
  8
LAYER_3
 40
0.1058
 41
0.1058
 66
1
 10
0
 20
0
 30
0
  0
VERTEX
  8
LAYER_3
 10
155.857
 20
-118.1897
  0
VERTEX
  8
LAYER_3
 10
155.742
 20
-118.2065
 42
-0.4142379567
  0
VERTEX
  8
LAYER_3
 10
155.342
 20
-117.8065
  0
VERTEX
  8
LAYER_3
 10
155.342
 20
-115.6417
 42
-0.4142284266
  0
VERTEX
  8
LAYER_3
 10
155.742
 20
-115.2417
  0
SEQEND
  0
POLYLINE
  8
LAYER_3
 40
0.1058
 41
0.1058
 66
1
 10
0
 20
0
 30
0
  0
VERTEX
  8
LAYER_3
 10
157.5837
 20
-117.9417
 42
0.4141747499
  0
VERTEX
  8
LAYER_3
 10
158.1837
 20
-117.3417
  0
VERTEX
  8
LAYER_3
 10
158.1837
 20
-115.8417
 42
0.4142074308
  0
VERTEX
  8
LAYER_3
 10
157.5837
 20
-115.2417
 42
-0.4142012943
  0
VERTEX
  8
LAYER_3
 10
157.8837
 20
-115.5417
  0
VERTEX
  8
LAYER_3
 10
157.8837
 20
-117.6417
 42
-0.4141359432
  0
VERTEX
  8
LAYER_3
 10
157.5837
 20
-117.9417
  0
VERTEX
  8
LAYER_3
 10
156.757
 20
-117.9417
  0
VERTEX
  8
LAYER_3
 10
156.6134
 20
-117.9628
  0
VERTEX
  8
LAYER_3
 10
155.7539
 20
-118.2206
  0
VERTEX
  8
LAYER_3
 10
155.6103
 20
-118.2417
  0
VERTEX
  8
LAYER_3
 10
152.5837
 20
-118.2417
 42
0.414217797
  0
VERTEX
  8
LAYER_3
 10
147.0837
 20
-123.7417
  0
SEQEND
  0
POLYLINE
  8
LAYER_3
 40
0.1058
 41
0.1058
 66
1
 10
0
 20
0
 30
0
  0
VERTEX
  8
LAYER_3
 10
142.0838
 20
-117.1917
  0
VERTEX
  8
LAYER_3
 10
145.2837
 20
-117.1917
 42
0.4141359434
  0
VERTEX
  8
LAYER_3
 10
145.5837
 20
-116.8917
  0
VERTEX
  8
LAYER_3
 10
145.5837
 20
-116.2208
 42
0.200670426
  0
VERTEX
  8
LAYER_3
 10
145.5224
 20
-116.0768
 42
-0.2037662485
  0
VERTEX
  8
LAYER_3
 10
145.3587
 20
-115.6917
 42
-0.2037762138
  0
VERTEX
  8
LAYER_3
 10
145.5224
 20
-115.3066
 42
0.2010330075
  0
VERTEX
  8
LAYER_3
 10
145.5837
 20
-115.1625
  0
VERTEX
  8
LAYER_3
 10
145.5837
 20
-114.9917
  0
VERTEX
  8
LAYER_3
 10
145.7337
 20
-114.9917
  0
VERTEX
  8
LAYER_3
 10
145.7337
 20
-113.8917
  0
SEQEND
  0
POLYLINE
  8
LAYER_3
 40
0.1058
 41
0.1058
 66
1
 10
0
 20
0
 30
0
  0
VERTEX
  8
LAYER_3
 10
142.3337
 20
-117.1917
 42
0.4143300369
  0
VERTEX
  8
LAYER_3
 10
142.1337
 20
-117.3917
  0
VERTEX
  8
LAYER_3
 10
142.1337
 20
-118.6917
  0
SEQEND
  0
POLYLINE
  8
LAYER_3
 40
0.1058
 41
0.1058
 66
1
 10
0
 20
0
 30
0
  0
VERTEX
  8
LAYER_3
 10
142.0838
 20
-118.6917
  0
VERTEX
  8
LAYER_3
 10
142.1337
 20
-118.6917
  0
VERTEX
  8
LAYER_3
 10
142.6337
 20
-119.1917
  0
SEQEND
  0
POLYLINE
  8
LAYER_3
 40
0.1058
 41
0.1058
 66
1
 10
0
 20
0
 30
0
  0
VERTEX
  8
LAYER_3
 10
142.2337
 20
-114.6917
  0
VERTEX
  8
LAYER_3
 10
142.2337
 20
-108.9417
  0
SEQEND
  0
POLYLINE
  8
LAYER_3
 40
0.1058
 41
0.1058
 66
1
 10
0
 20
0
 30
0
  0
VERTEX
  8
LAYER_3
 10
142.0838
 20
-114.6917
  0
VERTEX
  8
LAYER_3
 10
143.4837
 20
-114.6917
 42
-0.4141951529
  0
VERTEX
  8
LAYER_3
 10
143.6837
 20
-114.8917
  0
VERTEX
  8
LAYER_3
 10
143.6837
 20
-116.9417
 42
0.4142319268
  0
VERTEX
  8
LAYER_3
 10
143.8837
 20
-117.1417
  0
SEQEND
  0
POLYLINE
  8
LAYER_3
 40
0.1058
 41
0.1058
 66
1
 10
0
 20
0
 30
0
  0
VERTEX
  8
LAYER_3
 10
142.2089
 20
-114.6917
  0
VERTEX
  8
LAYER_3
 10
142.2089
 20
-108.9417
  0
SEQEND
  0
POLYLINE
  8
LAYER_3
 40
0.1058
 41
0.1058
 66
1
 10
0
 20
0
 30
0
  0
VERTEX
  8
LAYER_3
 10
143.5337
 20
-109.4417
 42
0.414206161
  0
VERTEX
  8
LAYER_3
 10
143.0337
 20
-108.9417
  0
SEQEND
  0
POLYLINE
  8
LAYER_3
 40
0.1058
 41
0.1058
 66
1
 10
0
 20
0
 30
0
  0
VERTEX
  8
LAYER_3
 10
145.6837
 20
-113.8995
  0
VERTEX
  8
LAYER_3
 10
145.6837
 20
-114.8917
 42
-0.4139809922
  0
VERTEX
  8
LAYER_3
 10
145.5837
 20
-114.9917
  0
VERTEX
  8
LAYER_3
 10
145.2837
 20
-114.9917
 42
0.4142911345
  0
VERTEX
  8
LAYER_3
 10
144.9837
 20
-115.2917
  0
VERTEX
  8
LAYER_3
 10
144.9837
 20
-115.7917
 42
0.4142320065
  0
VERTEX
  8
LAYER_3
 10
145.1837
 20
-115.9917
  0
VERTEX
  8
LAYER_3
 10
145.4587
 20
-115.9917
 42
-0.4141765153
  0
VERTEX
  8
LAYER_3
 10
145.5587
 20
-116.0917
  0
VERTEX
  8
LAYER_3
 10
145.5587
 20
-116.9417
 42
-0.4140971429
  0
VERTEX
  8
LAYER_3
 10
145.3587
 20
-117.1417
  0
VERTEX
  8
LAYER_3
 10
143.3785
 20
-117.1417
  0
SEQEND
  0
POLYLINE
  8
LAYER_3
 40
0.1058
 41
0.1058
 66
1
 10
0
 20
0
 30
0
  0
VERTEX
  8
LAYER_3
 10
142.2243
 20
-115.3917
  0
VERTEX
  8
LAYER_3
 10
143.4695
 20
-115.3917
  0
SEQEND
  0
POLYLINE
  8
LAYER_3
 40
0.1058
 41
0.1058
 66
1
 10
0
 20
0
 30
0
  0
VERTEX
  8
LAYER_3
 10
141.5838
 20
-128.7417
 42
0.4141859163
  0
VERTEX
  8
LAYER_3
 10
141.7838
 20
-128.9417
  0
SEQEND
  0
POLYLINE
  8
LAYER_3
 40
0.1058
 41
0.1058
 66
1
 10
0
 20
0
 30
0
  0
VERTEX
  8
LAYER_3
 10
143.2409
 20
-117.1917
 42
0.3666792229
  0
VERTEX
  8
LAYER_3
 10
143.4523
 20
-117.0126
  0
VERTEX
  8
LAYER_3
 10
143.6809
 20
-115.6412
  0
VERTEX
  8
LAYER_3
 10
143.6838
 20
-115.606
 42
0.4142786086
  0
VERTEX
  8
LAYER_3
 10
143.4695
 20
-115.3917
 42
0.3666048865
  0
VERTEX
  8
LAYER_3
 10
143.2581
 20
-115.5707
  0
VERTEX
  8
LAYER_3
 10
143.0892
 20
-116.584
 42
-0.3666345448
  0
VERTEX
  8
LAYER_3
 10
142.8779
 20
-116.7631
  0
VERTEX
  8
LAYER_3
 10
142.8401
 20
-116.7631
 42
-0.3600669688
  0
VERTEX
  8
LAYER_3
 10
142.6296
 20
-116.5889
  0
VERTEX
  8
LAYER_3
 10
142.4348
 20
-115.5659
 42
0.3601203387
  0
VERTEX
  8
LAYER_3
 10
142.2243
 20
-115.3917
 42
0.4143233574
  0
VERTEX
  8
LAYER_3
 10
142.01
 20
-115.606
  0
VERTEX
  8
LAYER_3
 10
142.0138
 20
-115.646
  0
VERTEX
  8
LAYER_3
 10
142.275
 20
-117.0175
 42
0.3600771666
  0
VERTEX
  8
LAYER_3
 10
142.4855
 20
-117.1917
  0
SEQEND
  0
POLYLINE
  8
LAYER_3
 40
0.1058
 41
0.1058
 66
1
 10
0
 20
0
 30
0
  0
VERTEX
  8
LAYER_3
 10
142.0838
 20
-121.1417
 42
-0.4141433649
  0
VERTEX
  8
LAYER_3
 10
141.8838
 20
-121.3417
  0
VERTEX
  8
LAYER_3
 10
141.5838
 20
-121.3417
 42
0.4142416466
  0
VERTEX
  8
LAYER_3
 10
141.0838
 20
-121.8417
  0
VERTEX
  8
LAYER_3
 10
141.0838
 20
-123.9417
 42
0.4142024196
  0
VERTEX
  8
LAYER_3
 10
141.5838
 20
-124.4417
  0
VERTEX
  8
LAYER_3
 10
141.8838
 20
-124.4417
 42
-0.4142414092
  0
VERTEX
  8
LAYER_3
 10
142.0838
 20
-124.6417
  0
SEQEND
  0
POLYLINE
  8
LAYER_3
 40
0.1058
 41
0.1058
 66
1
 10
0
 20
0
 30
0
  0
VERTEX
  8
LAYER_3
 10
142.0838
 20
-125.5917
  0
VERTEX
  8
LAYER_3
 10
142.0838
 20
-127.6417
 42
-0.4141435795
  0
VERTEX
  8
LAYER_3
 10
141.8838
 20
-127.8417
  0
VERTEX
  8
LAYER_3
 10
141.7838
 20
-127.8417
 42
0.4142835631
  0
VERTEX
  8
LAYER_3
 10
141.5838
 20
-128.0417
  0
SEQEND
  0
POLYLINE
  8
LAYER_3
 40
0.1058
 41
0.1058
 66
1
 10
0
 20
0
 30
0
  0
VERTEX
  8
LAYER_3
 10
147.0837
 20
-153.0917
 42
-0.414087407
  0
VERTEX
  8
LAYER_3
 10
146.8837
 20
-153.2917
  0
VERTEX
  8
LAYER_3
 10
145.7642
 20
-153.2917
  0
SEQEND
  0
POLYLINE
  8
LAYER_3
 40
0.1058
 41
0.1058
 66
1
 10
0
 20
0
 30
0
  0
VERTEX
  8
LAYER_3
 10
147.0837
 20
-156.0917
 42
0.4142048894
  0
VERTEX
  8
LAYER_3
 10
146.8837
 20
-155.8917
  0
VERTEX
  8
LAYER_3
 10
145.7726
 20
-155.8917
  0
SEQEND
  0
POLYLINE
  8
LAYER_3
 40
0.1058
 41
0.1058
 66
1
 10
0
 20
0
 30
0
  0
VERTEX
  8
LAYER_3
 10
144.1853
 20
-137.5514
  0
VERTEX
  8
LAYER_3
 10
144.2087
 20
-137.5417
  0
VERTEX
  8
LAYER_3
 10
144.2417
 20
-137.5747
  0
VERTEX
  8
LAYER_3
 10
144.2417
 20
-138.6917
  0
VERTEX
  8
LAYER_3
 10
145.272
 20
-138.6917
  0
SEQEND
  0
POLYLINE
  8
LAYER_3
 40
0.1058
 41
0.1058
 66
1
 10
0
 20
0
 30
0
  0
VERTEX
  8
LAYER_3
 10
145.4322
 20
-156.5917
  0
VERTEX
  8
LAYER_3
 10
145.4322
 20
-155.8917
  0
SEQEND
  0
POLYLINE
  8
LAYER_3
 40
0.1058
 41
0.1058
 66
1
 10
0
 20
0
 30
0
  0
VERTEX
  8
LAYER_3
 10
142.3838
 20
-141.3917
  0
VERTEX
  8
LAYER_3
 10
142.4213
 20
-141.3917
  0
SEQEND
  0
POLYLINE
  8
LAYER_3
 40
0.1058
 41
0.1058
 66
1
 10
0
 20
0
 30
0
  0
VERTEX
  8
LAYER_3
 10
143.8603
 20
-143.1917
  0
VERTEX
  8
LAYER_3
 10
143.8603
 20
-141.3917
  0
VERTEX
  8
LAYER_3
 10
144.7663
 20
-141.3917
  0
SEQEND
  0
POLYLINE
  8
LAYER_3
 40
0.1058
 41
0.1058
 66
1
 10
0
 20
0
 30
0
  0
VERTEX
  8
LAYER_3
 10
141.6838
 20
-162.3917
 42
-0.4141985231
  0
VERTEX
  8
LAYER_3
 10
141.1838
 20
-161.8917
  0
VERTEX
  8
LAYER_3
 10
141.1838
 20
-160.3917
 42
-0.4142455434
  0
VERTEX
  8
LAYER_3
 10
141.6838
 20
-159.8917
  0
SEQEND
  0
POLYLINE
  8
LAYER_3
 40
0.1058
 41
0.1058
 66
1
 10
0
 20
0
 30
0
  0
VERTEX
  8
LAYER_3
 10
156.9278
 20
-160.7322
 42
0.1718183594
  0
VERTEX
  8
LAYER_3
 10
157.0838
 20
-160.2917
 42
0.414224303
  0
VERTEX
  8
LAYER_3
 10
156.3838
 20
-159.5917
  0
SEQEND
  0
POLYLINE
  8
LAYER_3
 40
0.1058
 41
0.1058
 66
1
 10
0
 20
0
 30
0
  0
VERTEX
  8
LAYER_3
 10
155.3838
 20
-162.3917
 42
-0.4141985231
  0
VERTEX
  8
LAYER_3
 10
154.8838
 20
-161.8917
  0
VERTEX
  8
LAYER_3
 10
154.8838
 20
-159.5917
  0
SEQEND
  0
POLYLINE
  8
LAYER_3
 40
0.1058
 41
0.1058
 66
1
 10
0
 20
0
 30
0
  0
VERTEX
  8
LAYER_3
 10
148.9793
 20
-162.3917
 42
0.4142052471
  0
VERTEX
  8
LAYER_3
 10
149.4793
 20
-161.8917
  0
VERTEX
  8
LAYER_3
 10
149.4793
 20
-159.5917
  0
SEQEND
  0
POLYLINE
  8
LAYER_3
 40
0.1058
 41
0.1058
 66
1
 10
0
 20
0
 30
0
  0
VERTEX
  8
LAYER_3
 10
156.9458
 20
-160.709
  0
VERTEX
  8
LAYER_3
 10
155.8339
 20
-162.2063
 42
-0.2262976273
  0
VERTEX
  8
LAYER_3
 10
155.4453
 20
-162.3917
  0
VERTEX
  8
LAYER_3
 10
139.1838
 20
-162.3917
  0
SEQEND
  0
POLYLINE
  8
LAYER_3
 40
0.1058
 41
0.1058
 66
1
 10
0
 20
0
 30
0
  0
VERTEX
  8
LAYER_3
 10
139.1838
 20
-159.8917
  0
VERTEX
  8
LAYER_3
 10
142.2424
 20
-159.8917
 42
0.4091246146
  0
VERTEX
  8
LAYER_3
 10
142.7424
 20
-159.4004
  0
SEQEND
  0
POLYLINE
  8
LAYER_3
 40
0.1058
 41
0.1058
 66
1
 10
0
 20
0
 30
0
  0
VERTEX
  8
LAYER_3
 10
143.1838
 20
-146.5917
  0
VERTEX
  8
LAYER_3
 10
142.3838
 20
-146.5917
  0
SEQEND
  0
POLYLINE
  8
LAYER_3
 40
0.1058
 41
0.1058
 66
1
 10
0
 20
0
 30
0
  0
VERTEX
  8
LAYER_3
 10
142.9569
 20
-147.1071
 42
-0.1282904332
  0
VERTEX
  8
LAYER_3
 10
143.025
 20
-146.8639
  0
VERTEX
  8
LAYER_3
 10
144.5163
 20
-144.3073
 42
0.1338498116
  0
VERTEX
  8
LAYER_3
 10
144.5838
 20
-144.055
  0
VERTEX
  8
LAYER_3
 10
144.5838
 20
-143.1077
  0
SEQEND
  0
POLYLINE
  8
LAYER_3
 40
0.1058
 41
0.1058
 66
1
 10
0
 20
0
 30
0
  0
VERTEX
  8
LAYER_3
 10
146.1838
 20
-155.8917
 42
0.4141336259
  0
VERTEX
  8
LAYER_3
 10
146.3838
 20
-155.6917
  0
VERTEX
  8
LAYER_3
 10
146.3838
 20
-155.3234
  0
VERTEX
  8
LAYER_3
 10
146.3739
 20
-155.2614
  0
VERTEX
  8
LAYER_3
 10
145.6338
 20
-152.9917
  0
VERTEX
  8
LAYER_3
 10
145.6338
 20
-143.1917
  0
VERTEX
  8
LAYER_3
 10
144.5838
 20
-143.1917
  0
SEQEND
  0
POLYLINE
  8
LAYER_3
 40
0.1058
 41
0.1058
 66
1
 10
0
 20
0
 30
0
  0
VERTEX
  8
LAYER_3
 10
140.0338
 20
-148.1234
  0
VERTEX
  8
LAYER_3
 10
140.0338
 20
-159.8917
  0
SEQEND
  0
POLYLINE
  8
LAYER_3
 40
0.1058
 41
0.1058
 66
1
 10
0
 20
0
 30
0
  0
VERTEX
  8
LAYER_3
 10
139.9838
 20
-159.8917
  0
VERTEX
  8
LAYER_3
 10
139.9838
 20
-148.1481
  0
SEQEND
  0
CIRCLE
  8
LAYER_3
 10
142.0338
 20
-131.7917
 40
0.35
  0
POLYLINE
  8
LAYER_3
 40
0.1058
 41
0.1058
 66
1
 10
0
 20
0
 30
0
  0
VERTEX
  8
LAYER_3
 10
139.3434
 20
-148.2917
 42
0.3816935949
  0
VERTEX
  8
LAYER_3
 10
140.834
 20
-146.9598
  0
VERTEX
  8
LAYER_3
 10
141.4207
 20
-141.8555
  0
VERTEX
  8
LAYER_3
 10
141.4338
 20
-141.6271
  0
VERTEX
  8
LAYER_3
 10
141.4338
 20
-131.7417
 42
-0.4142602278
  0
VERTEX
  8
LAYER_3
 10
141.7338
 20
-131.4417
  0
VERTEX
  8
LAYER_3
 10
142.4088
 20
-131.4417
 42
0.4141435793
  0
VERTEX
  8
LAYER_3
 10
142.6088
 20
-131.2417
  0
VERTEX
  8
LAYER_3
 10
142.6088
 20
-130.1417
  0
SEQEND
  0
CIRCLE
  8
LAYER_3
 10
142.0338
 20
-159.5417
 40
0.35
  0
CIRCLE
  8
LAYER_3
 10
142.0338
 20
-157.8073
 40
0.35
  0
CIRCLE
  8
LAYER_3
 10
142.0338
 20
-156.0729
 40
0.35
  0
CIRCLE
  8
LAYER_3
 10
142.0338
 20
-154.3385
 40
0.35
  0
CIRCLE
  8
LAYER_3
 10
142.0338
 20
-152.6042
 40
0.35
  0
CIRCLE
  8
LAYER_3
 10
142.0338
 20
-150.8698
 40
0.35
  0
CIRCLE
  8
LAYER_3
 10
142.0338
 20
-149.1354
 40
0.35
  0
CIRCLE
  8
LAYER_3
 10
142.0338
 20
-147.401
 40
0.35
  0
CIRCLE
  8
LAYER_3
 10
142.0338
 20
-145.6667
 40
0.35
  0
CIRCLE
  8
LAYER_3
 10
142.0338
 20
-143.9323
 40
0.35
  0
CIRCLE
  8
LAYER_3
 10
142.0338
 20
-142.1979
 40
0.35
  0
CIRCLE
  8
LAYER_3
 10
142.0338
 20
-140.4635
 40
0.35
  0
CIRCLE
  8
LAYER_3
 10
142.0338
 20
-138.7292
 40
0.35
  0
CIRCLE
  8
LAYER_3
 10
142.0338
 20
-136.9948
 40
0.35
  0
CIRCLE
  8
LAYER_3
 10
142.0338
 20
-135.2604
 40
0.35
  0
CIRCLE
  8
LAYER_3
 10
142.0338
 20
-133.526
 40
0.35
  0
POLYLINE
  8
LAYER_3
 40
0.1058
 41
0.1058
 66
1
 10
0
 20
0
 30
0
  0
VERTEX
  8
LAYER_3
 10
142.1221
 20
-156.429
  0
VERTEX
  8
LAYER_3
 10
142.1108
 20
-156.5917
  0
VERTEX
  8
LAYER_3
 10
145.4338
 20
-156.5917
 42
-0.4142436331
  0
VERTEX
  8
LAYER_3
 10
145.6838
 20
-156.8417
  0
VERTEX
  8
LAYER_3
 10
145.6838
 20
-159.2917
 42
0.4141884954
  0
VERTEX
  8
LAYER_3
 10
145.9838
 20
-159.5917
  0
SEQEND
  0
POLYLINE
  8
LAYER_3
 40
0.1058
 41
0.1058
 66
1
 10
0
 20
0
 30
0
  0
VERTEX
  8
LAYER_3
 10
142.2843
 20
-154.0941
  0
VERTEX
  8
LAYER_3
 10
142.3609
 20
-152.9921
  0
VERTEX
  8
LAYER_3
 10
142.8542
 20
-152.9917
  0
SEQEND
  0
POLYLINE
  8
LAYER_3
 40
0.1058
 41
0.1058
 66
1
 10
0
 20
0
 30
0
  0
VERTEX
  8
LAYER_3
 10
142.2481
 20
-154.6152
  0
VERTEX
  8
LAYER_3
 10
142.1693
 20
-155.7502
  0
SEQEND
  0
POLYLINE
  8
LAYER_3
 40
0.1058
 41
0.1058
 66
1
 10
0
 20
0
 30
0
  0
VERTEX
  8
LAYER_3
 10
142.8036
 20
-155.8917
  0
VERTEX
  8
LAYER_3
 10
145.7726
 20
-155.8917
  0
VERTEX
  8
LAYER_3
 10
145.7827
 20
-159.0417
  0
VERTEX
  8
LAYER_3
 10
146.0837
 20
-159.3417
  0
SEQEND
  0
POLYLINE
  8
LAYER_3
 40
0.1058
 41
0.1058
 66
1
 10
0
 20
0
 30
0
  0
VERTEX
  8
LAYER_3
 10
144.5647
 20
-144.1917
  0
VERTEX
  8
LAYER_3
 10
142.3838
 20
-144.1917
  0
SEQEND
  0
POLYLINE
  8
LAYER_3
 40
0.1058
 41
0.1058
 66
1
 10
0
 20
0
 30
0
  0
VERTEX
  8
LAYER_3
 10
142.6907
 20
-126.5917
  0
VERTEX
  8
LAYER_3
 10
142.6907
 20
-138.6917
  0
VERTEX
  8
LAYER_3
 10
143.4051
 20
-138.6917
  0
SEQEND
  0
POLYLINE
  8
LAYER_3
 40
0.1058
 41
0.1058
 66
1
 10
0
 20
0
 30
0
  0
VERTEX
  8
LAYER_3
 10
142.3838
 20
-131.7917
  0
VERTEX
  8
LAYER_3
 10
142.3838
 20
-159.5417
  0
SEQEND
  0
POLYLINE
  8
LAYER_3
 40
0.1058
 41
0.1058
 66
1
 10
0
 20
0
 30
0
  0
VERTEX
  8
LAYER_3
 10
144.4932
 20
-119.1917
  0
VERTEX
  8
LAYER_3
 10
144.4932
 20
-137.8917
  0
VERTEX
  8
LAYER_3
 10
145.5748
 20
-137.8917
  0
VERTEX
  8
LAYER_3
 10
145.5748
 20
-119.481
  0
SEQEND
  0
POLYLINE
  8
LAYER_3
 40
0.1058
 41
0.1058
 66
1
 10
0
 20
0
 30
0
  0
VERTEX
  8
LAYER_3
 10
145.688
 20
-159.3417
  0
VERTEX
  8
LAYER_3
 10
147.0837
 20
-159.3417
  0
VERTEX
  8
LAYER_3
 10
147.0837
 20
-114.6698
 42
0.2744994616
  0
VERTEX
  8
LAYER_3
 10
146.9273
 20
-114.4064
  0
VERTEX
  8
LAYER_3
 10
146.0508
 20
-113.9283
  0
VERTEX
  8
LAYER_3
 10
145.9072
 20
-113.8917
  0
VERTEX
  8
LAYER_3
 10
145.6833
 20
-113.8917
 42
0.2688755
  0
VERTEX
  8
LAYER_3
 10
145.6297
 20
-113.8107
 42
-0.02368253246
  0
VERTEX
  8
LAYER_3
 10
143.9916
 20
-112.8609
 42
-0.2547985645
  0
VERTEX
  8
LAYER_3
 10
143.5337
 20
-112.0205
  0
SEQEND
  0
POLYLINE
  8
LAYER_3
 40
0.1058
 41
0.1058
 66
1
 10
0
 20
0
 30
0
  0
VERTEX
  8
LAYER_3
 10
142.0838
 20
-119.1917
  0
VERTEX
  8
LAYER_3
 10
145.2837
 20
-119.1917
  0
VERTEX
  8
LAYER_3
 10
145.5855
 20
-119.4917
  0
VERTEX
  8
LAYER_3
 10
145.6337
 20
-127.2917
  0
VERTEX
  8
LAYER_3
 10
145.6837
 20
-137.4917
  0
VERTEX
  8
LAYER_3
 10
145.7337
 20
-143.7917
  0
VERTEX
  8
LAYER_3
 10
145.7645
 20
-153.3926
  0
SEQEND
  0
POLYLINE
  8
LAYER_3
 40
0.1058
 41
0.1058
 66
1
 10
0
 20
0
 30
0
  0
VERTEX
  8
LAYER_3
 10
142.0838
 20
-129.9417
  0
VERTEX
  8
LAYER_3
 10
142.0838
 20
-129.1417
 42
0.4142411948
  0
VERTEX
  8
LAYER_3
 10
141.8838
 20
-128.9417
  0
SEQEND
  0
POLYLINE
  8
LAYER_3
 40
0.1058
 41
0.1058
 66
1
 10
0
 20
0
 30
0
  0
VERTEX
  8
LAYER_3
 10
136.2838
 20
-98.8917
  0
VERTEX
  8
LAYER_3
 10
136.2838
 20
-104.3417
  0
SEQEND
  0
POLYLINE
  8
LAYER_3
 40
0.1058
 41
0.1058
 66
1
 10
0
 20
0
 30
0
  0
VERTEX
  8
LAYER_3
 10
141.5338
 20
-87.5417
 42
0.4141435795
  0
VERTEX
  8
LAYER_3
 10
141.7338
 20
-87.3417
  0
VERTEX
  8
LAYER_3
 10
141.7338
 20
-87.1417
 42
0.4142160749
  0
VERTEX
  8
LAYER_3
 10
139.5338
 20
-84.9417
  0
VERTEX
  8
LAYER_3
 10
139.1838
 20
-84.9417
  0
SEQEND
  0
POLYLINE
  8
LAYER_3
 40
0.1058
 41
0.1058
 66
1
 10
0
 20
0
 30
0
  0
VERTEX
  8
LAYER_3
 10
141.6337
 20
-87.5417
  0
VERTEX
  8
LAYER_3
 10
141.5338
 20
-87.5417
  0
VERTEX
  8
LAYER_3
 10
141.3338
 20
-87.5417
 42
0.4142322276
  0
VERTEX
  8
LAYER_3
 10
140.5838
 20
-88.2917
  0
VERTEX
  8
LAYER_3
 10
140.5838
 20
-88.3917
 42
0.4142061912
  0
VERTEX
  8
LAYER_3
 10
141.3338
 20
-89.1417
  0
VERTEX
  8
LAYER_3
 10
141.5338
 20
-89.1417
 42
-0.4142411948
  0
VERTEX
  8
LAYER_3
 10
141.7338
 20
-89.3417
  0
VERTEX
  8
LAYER_3
 10
141.7338
 20
-90.0846
 42
0.1988748209
  0
VERTEX
  8
LAYER_3
 10
141.8802
 20
-90.4381
  0
VERTEX
  8
LAYER_3
 10
141.9373
 20
-90.4952
 42
-0.1989478497
  0
VERTEX
  8
LAYER_3
 10
142.0838
 20
-90.8488
  0
VERTEX
  8
LAYER_3
 10
142.0838
 20
-120.1916
  0
SEQEND
  0
POLYLINE
  8
LAYER_3
 40
0.1058
 41
0.1058
 66
1
 10
0
 20
0
 30
0
  0
VERTEX
  8
LAYER_3
 10
141.7838
 20
-128.9417
  0
VERTEX
  8
LAYER_3
 10
141.8838
 20
-128.9417
  0
SEQEND
  0
POLYLINE
  8
LAYER_3
 40
0.1058
 41
0.1058
 66
1
 10
0
 20
0
 30
0
  0
VERTEX
  8
LAYER_3
 10
141.5838
 20
-128.0417
  0
VERTEX
  8
LAYER_3
 10
141.5838
 20
-128.7417
  0
SEQEND
  0
POLYLINE
  8
LAYER_3
 40
0.1058
 41
0.1058
 66
1
 10
0
 20
0
 30
0
  0
VERTEX
  8
LAYER_3
 10
142.4088
 20
-129.9417
  0
VERTEX
  8
LAYER_3
 10
142.0838
 20
-129.9417
  0
SEQEND
  0
POLYLINE
  8
LAYER_3
 40
0.1058
 41
0.1058
 66
1
 10
0
 20
0
 30
0
  0
VERTEX
  8
LAYER_3
 10
122.1337
 20
-92.5917
 42
-0.4142011514
  0
VERTEX
  8
LAYER_3
 10
122.4337
 20
-92.8917
  0
VERTEX
  8
LAYER_3
 10
122.4337
 20
-95.0917
 42
0.4142321413
  0
VERTEX
  8
LAYER_3
 10
122.6337
 20
-95.2917
  0
VERTEX
  8
LAYER_3
 10
122.9337
 20
-95.2917
  0
SEQEND
  0
POLYLINE
  8
LAYER_3
 40
0.1058
 41
0.1058
 66
1
 10
0
 20
0
 30
0
  0
VERTEX
  8
LAYER_3
 10
153.1837
 20
-85.7118
 42
0.3643839381
  0
VERTEX
  8
LAYER_3
 10
152.7698
 20
-85.2192
  0
VERTEX
  8
LAYER_3
 10
149.2264
 20
-84.5992
  0
VERTEX
  8
LAYER_3
 10
149.1402
 20
-84.5917
  0
VERTEX
  8
LAYER_3
 10
139.1837
 20
-84.5917
  0
SEQEND
  0
POLYLINE
  8
LAYER_3
 40
0.1058
 41
0.1058
 66
1
 10
0
 20
0
 30
0
  0
VERTEX
  8
LAYER_3
 10
153.1837
 20
-87.0917
 42
0.4142209993
  0
VERTEX
  8
LAYER_3
 10
153.6837
 20
-87.5917
  0
SEQEND
  0
POLYLINE
  8
LAYER_3
 40
0.1058
 41
0.1058
 66
1
 10
0
 20
0
 30
0
  0
VERTEX
  8
LAYER_3
 10
153.3837
 20
-91.5917
 42
0.4143298224
  0
VERTEX
  8
LAYER_3
 10
153.1837
 20
-91.7917
  0
SEQEND
  0
POLYLINE
  8
LAYER_3
 40
0.1058
 41
0.1058
 66
1
 10
0
 20
0
 30
0
  0
VERTEX
  8
LAYER_3
 10
155.4337
 20
-95.2917
 42
0.4142600599
  0
VERTEX
  8
LAYER_3
 10
154.9337
 20
-95.7917
  0
VERTEX
  8
LAYER_3
 10
154.9337
 20
-96.2917
  0
SEQEND
  0
POLYLINE
  8
LAYER_3
 40
0.1058
 41
0.1058
 66
1
 10
0
 20
0
 30
0
  0
VERTEX
  8
LAYER_3
 10
123.4337
 20
-96.2917
  0
VERTEX
  8
LAYER_3
 10
123.4337
 20
-95.7917
 42
0.4142061181
  0
VERTEX
  8
LAYER_3
 10
122.9337
 20
-95.2917
  0
VERTEX
  8
LAYER_3
 10
139.1837
 20
-95.2917
  0
SEQEND
  0
POLYLINE
  8
LAYER_3
 40
0.1058
 41
0.1058
 66
1
 10
0
 20
0
 30
0
  0
VERTEX
  8
LAYER_3
 10
153.1837
 20
-95.2917
  0
VERTEX
  8
LAYER_3
 10
155.7337
 20
-95.2917
 42
0.4140973572
  0
VERTEX
  8
LAYER_3
 10
155.9337
 20
-95.0917
  0
VERTEX
  8
LAYER_3
 10
155.9337
 20
-92.8917
 42
-0.414291063
  0
VERTEX
  8
LAYER_3
 10
156.2337
 20
-92.5917
  0
VERTEX
  8
LAYER_3
 10
157.2487
 20
-92.5917
 42
0.3851318245
  0
VERTEX
  8
LAYER_3
 10
157.5472
 20
-92.3217
 42
-0.3851786811
  0
VERTEX
  8
LAYER_3
 10
160.2337
 20
-89.8917
  0
VERTEX
  8
LAYER_3
 10
160.5939
 20
-89.8917
 42
0.2679057786
  0
VERTEX
  8
LAYER_3
 10
160.8537
 20
-89.7417
  0
VERTEX
  8
LAYER_3
 10
161.9506
 20
-87.8417
 42
-0.2679617202
  0
VERTEX
  8
LAYER_3
 10
163.2497
 20
-87.0917
  0
VERTEX
  8
LAYER_3
 10
172.6837
 20
-87.0917
 42
0.4141903169
  0
VERTEX
  8
LAYER_3
 10
173.6837
 20
-86.0917
  0
VERTEX
  8
LAYER_3
 10
173.6837
 20
-85.9319
 42
0.3163879797
  0
VERTEX
  8
LAYER_3
 10
173.022
 20
-84.9908
 42
0.08651435722
  0
VERTEX
  8
LAYER_3
 10
139.1837
 20
-79.0917
 42
0.08651460806
  0
VERTEX
  8
LAYER_3
 10
105.3453
 20
-84.9908
 42
0.3163859355
  0
VERTEX
  8
LAYER_3
 10
104.6837
 20
-85.9319
  0
VERTEX
  8
LAYER_3
 10
104.6837
 20
-86.0917
 42
0.4142172816
  0
VERTEX
  8
LAYER_3
 10
105.6837
 20
-87.0917
  0
VERTEX
  8
LAYER_3
 10
139.1837
 20
-87.0917
  0
SEQEND
  0
POLYLINE
  8
LAYER_3
 40
0.1058
 41
0.1058
 66
1
 10
0
 20
0
 30
0
  0
VERTEX
  8
LAYER_3
 10
115.1176
 20
-87.0917
 42
-0.2679624283
  0
VERTEX
  8
LAYER_3
 10
116.4167
 20
-87.8417
  0
VERTEX
  8
LAYER_3
 10
117.5136
 20
-89.7417
 42
0.2679022379
  0
VERTEX
  8
LAYER_3
 10
117.7734
 20
-89.8917
  0
VERTEX
  8
LAYER_3
 10
139.1837
 20
-89.8917
  0
SEQEND
  0
POLYLINE
  8
LAYER_3
 40
0.1058
 41
0.1058
 66
1
 10
0
 20
0
 30
0
  0
VERTEX
  8
LAYER_3
 10
118.1337
 20
-89.8917
 42
-0.3851688066
  0
VERTEX
  8
LAYER_3
 10
120.8201
 20
-92.3217
 42
0.3851249963
  0
VERTEX
  8
LAYER_3
 10
121.1186
 20
-92.5917
  0
VERTEX
  8
LAYER_3
 10
121.12
 20
-92.5917
  0
VERTEX
  8
LAYER_3
 10
139.1837
 20
-92.5917
  0
SEQEND
  0
POLYLINE
  8
LAYER_3
 40
0.1058
 41
0.1058
 66
1
 10
0
 20
0
 30
0
  0
VERTEX
  8
LAYER_3
 10
152.9548
 20
-85.2917
  0
VERTEX
  8
LAYER_3
 10
146.1466
 20
-85.2917
  0
SEQEND
  0
POLYLINE
  8
LAYER_3
 40
0.1058
 41
0.1058
 66
1
 10
0
 20
0
 30
0
  0
VERTEX
  8
LAYER_3
 10
146.4337
 20
-87.5917
  0
VERTEX
  8
LAYER_3
 10
150.5162
 20
-87.5917
  0
SEQEND
  0
POLYLINE
  8
LAYER_3
 40
0.1058
 41
0.1058
 66
1
 10
0
 20
0
 30
0
  0
VERTEX
  8
LAYER_3
 10
153.0337
 20
-91.5917
  0
VERTEX
  8
LAYER_3
 10
153.6837
 20
-91.5917
 42
0.4141670737
  0
VERTEX
  8
LAYER_3
 10
154.1837
 20
-91.0917
  0
VERTEX
  8
LAYER_3
 10
154.1837
 20
-88.0917
 42
0.4142061181
  0
VERTEX
  8
LAYER_3
 10
153.6837
 20
-87.5917
  0
VERTEX
  8
LAYER_3
 10
152.9837
 20
-87.5917
  0
SEQEND
  0
POLYLINE
  8
LAYER_3
 40
0.1058
 41
0.1058
 66
1
 10
0
 20
0
 30
0
  0
VERTEX
  8
LAYER_3
 10
146.4337
 20
-91.5917
  0
VERTEX
  8
LAYER_3
 10
150.4813
 20
-91.5917
  0
SEQEND
  0
POLYLINE
  8
LAYER_3
 40
0.1058
 41
0.1058
 66
1
 10
0
 20
0
 30
0
  0
VERTEX
  8
LAYER_3
 10
153.0337
 20
-95.2917
  0
VERTEX
  8
LAYER_3
 10
153.1837
 20
-95.2917
  0
VERTEX
  8
LAYER_3
 10
153.3837
 20
-95.4917
  0
SEQEND
  0
POLYLINE
  8
LAYER_3
 40
0.1058
 41
0.1058
 66
1
 10
0
 20
0
 30
0
  0
VERTEX
  8
LAYER_3
 10
153.4981
 20
-96.2917
  0
VERTEX
  8
LAYER_3
 10
153.5337
 20
-96.2917
  0
SEQEND
  0
POLYLINE
  8
LAYER_3
 40
0.1058
 41
0.1058
 66
1
 10
0
 20
0
 30
0
  0
VERTEX
  8
LAYER_3
 10
145.9337
 20
-92.5417
  0
VERTEX
  8
LAYER_3
 10
145.5337
 20
-92.5417
  0
SEQEND
  0
POLYLINE
  8
LAYER_3
 40
0.1058
 41
0.1058
 66
1
 10
0
 20
0
 30
0
  0
VERTEX
  8
LAYER_3
 10
120.3837
 20
-171.3417
  0
VERTEX
  8
LAYER_3
 10
157.9837
 20
-171.3417
  0
SEQEND
  0
POLYLINE
  8
LAYER_3
 40
0.1058
 41
0.1058
 66
1
 10
0
 20
0
 30
0
  0
VERTEX
  8
LAYER_3
 10
119.8837
 20
-170.3417
  0
VERTEX
  8
LAYER_3
 10
139.1837
 20
-170.3417
  0
SEQEND
  0
INSERT
  8
LAYER_3
  2
AIGNBL03010003
 10
0
 20
0
 30
0
  0
INSERT
  8
LAYER_3
  2
AIGNBL03010004
 10
0
 20
0
 30
0
  0
INSERT
  8
LAYER_3
  2
AIGNBL03010005
 10
0
 20
0
 30
0
  0
INSERT
  8
LAYER_3
  2
AIGNBL03010006
 10
0
 20
0
 30
0
  0
INSERT
  8
LAYER_3
  2
AIGNBL03010007
 10
0
 20
0
 30
0
  0
INSERT
  8
LAYER_3
  2
AIGNBL03010008
 10
0
 20
0
 30
0
  0
INSERT
  8
LAYER_3
  2
AIGNBL03010009
 10
0
 20
0
 30
0
  0
INSERT
  8
LAYER_3
  2
AIGNBL0301000A
 10
0
 20
0
 30
0
  0
INSERT
  8
LAYER_3
  2
AIGNBL0301000B
 10
0
 20
0
 30
0
  0
INSERT
  8
LAYER_3
  2
AIGNBL0301000C
 10
0
 20
0
 30
0
  0
INSERT
  8
LAYER_3
  2
AIGNBL0301000D
 10
0
 20
0
 30
0
  0
INSERT
  8
LAYER_3
  2
AIGNBL0301000E
 10
0
 20
0
 30
0
  0
INSERT
  8
LAYER_3
  2
AIGNBL0301000F
 10
0
 20
0
 30
0
  0
INSERT
  8
LAYER_3
  2
AIGNBL03010010
 10
0
 20
0
 30
0
  0
INSERT
  8
LAYER_3
  2
AIGNBL03010011
 10
0
 20
0
 30
0
  0
INSERT
  8
LAYER_3
  2
AIGNBL03010012
 10
0
 20
0
 30
0
  0
INSERT
  8
LAYER_3
  2
AIGNBL03010013
 10
0
 20
0
 30
0
  0
INSERT
  8
LAYER_3
  2
AIGNBL03010014
 10
0
 20
0
 30
0
  0
INSERT
  8
LAYER_3
  2
AIGNBL03010015
 10
0
 20
0
 30
0
  0
INSERT
  8
LAYER_3
  2
AIGNBL03010016
 10
0
 20
0
 30
0
  0
INSERT
  8
LAYER_3
  2
AIGNBL03010017
 10
0
 20
0
 30
0
  0
INSERT
  8
LAYER_3
  2
AIGNBL03010018
 10
0
 20
0
 30
0
  0
INSERT
  8
LAYER_3
  2
AIGNBL03010019
 10
0
 20
0
 30
0
  0
INSERT
  8
LAYER_3
  2
AIGNBL0301001A
 10
0
 20
0
 30
0
  0
INSERT
  8
LAYER_3
  2
AIGNBL0301001B
 10
0
 20
0
 30
0
  0
POLYLINE
  8
LAYER_3
 40
0.0882
 41
0.0882
 66
1
 10
0
 20
0
 30
0
  0
VERTEX
  8
LAYER_3
 10
173.6837
 20
-61.5714
  0
VERTEX
  8
LAYER_3
 10
104.7728
 20
-61.5714
  0
SEQEND
  0
POLYLINE
  8
LAYER_3
 40
0.0882
 41
0.0882
 66
1
 10
0
 20
0
 30
0
  0
VERTEX
  8
LAYER_3
 10
104.6837
 20
-63.9111
  0
VERTEX
  8
LAYER_3
 10
104.6837
 20
-59.6147
  0
SEQEND
  0
POLYLINE
  8
LAYER_3
 40
0.0882
 41
0.0882
 66
1
 10
0
 20
0
 30
0
  0
VERTEX
  8
LAYER_3
 10
173.6837
 20
-63.9111
  0
VERTEX
  8
LAYER_3
 10
173.6837
 20
-59.6147
  0
SEQEND
  0
POLYLINE
  8
LAYER_3
  6
AIGENLINE002
 40
0.0882
 41
0.0882
 66
1
 10
0
 20
0
 30
0
 70
128
  0
VERTEX
  8
LAYER_3
 10
104.6837
 20
-83.6351
  0
VERTEX
  8
LAYER_3
 10
104.6837
 20
-63.9111
  0
SEQEND
  0
POLYLINE
  8
LAYER_3
  6
AIGENLINE002
 40
0.0882
 41
0.0882
 66
1
 10
0
 20
0
 30
0
 70
128
  0
VERTEX
  8
LAYER_3
 10
173.6837
 20
-83.6351
  0
VERTEX
  8
LAYER_3
 10
173.6837
 20
-63.9111
  0
SEQEND
  0
TEXT
  8
LAYER_3
 10
138.4881
 20
-61.0238
 11
138.4881
 21
-61.0238
 40
3.5541
 41
0.5
  1
69
  0
POLYLINE
  8
LAYER_3
 40
0.0882
 41
0.0882
 66
1
 10
0
 20
0
 30
0
  0
VERTEX
  8
LAYER_3
 10
173.1637
 20
-104.3417
  0
VERTEX
  8
LAYER_3
 10
173.1637
 20
-134.6164
  0
SEQEND
  0
POLYLINE
  8
LAYER_3
 40
0.0882
 41
0.0882
 66
1
 10
0
 20
0
 30
0
  0
VERTEX
  8
LAYER_3
 10
175.5033
 20
-134.6358
  0
VERTEX
  8
LAYER_3
 10
171.2069
 20
-134.6358
  0
SEQEND
  0
POLYLINE
  8
LAYER_3
 40
0.0882
 41
0.0882
 66
1
 10
0
 20
0
 30
0
  0
VERTEX
  8
LAYER_3
 10
175.5033
 20
-104.3417
  0
VERTEX
  8
LAYER_3
 10
171.2069
 20
-104.3417
  0
SEQEND
  0
POLYLINE
  8
LAYER_3
 40
0.0882
 41
0.0882
 66
1
 10
0
 20
0
 30
0
  0
VERTEX
  8
LAYER_3
 10
173.1637
 20
-134.6358
  0
VERTEX
  8
LAYER_3
 10
173.1637
 20
-154.6164
  0
SEQEND
  0
POLYLINE
  8
LAYER_3
 40
0.0882
 41
0.0882
 66
1
 10
0
 20
0
 30
0
  0
VERTEX
  8
LAYER_3
 10
175.5033
 20
-154.6358
  0
VERTEX
  8
LAYER_3
 10
162.7955
 20
-154.6358
  0
SEQEND
  0
POLYLINE
  8
LAYER_3
 40
0.0882
 41
0.0882
 66
1
 10
0
 20
0
 30
0
  0
VERTEX
  8
LAYER_3
 10
175.5033
 20
-134.6358
  0
VERTEX
  8
LAYER_3
 10
171.2069
 20
-134.6358
  0
SEQEND
  0
POLYLINE
  8
LAYER_3
 40
0.0882
 41
0.0882
 66
1
 10
0
 20
0
 30
0
  0
VERTEX
  8
LAYER_3
 10
116.1837
 20
-179.706
  0
VERTEX
  8
LAYER_3
 10
162.1542
 20
-179.706
  0
SEQEND
  0
POLYLINE
  8
LAYER_3
 40
0.0882
 41
0.0882
 66
1
 10
0
 20
0
 30
0
  0
VERTEX
  8
LAYER_3
 10
162.1837
 20
-177.3663
  0
VERTEX
  8
LAYER_3
 10
162.1837
 20
-181.6627
  0
SEQEND
  0
POLYLINE
  8
LAYER_3
 40
0.0882
 41
0.0882
 66
1
 10
0
 20
0
 30
0
  0
VERTEX
  8
LAYER_3
 10
116.1837
 20
-177.3663
  0
VERTEX
  8
LAYER_3
 10
116.1837
 20
-181.6627
  0
SEQEND
  0
POLYLINE
  8
LAYER_3
 40
0.0882
 41
0.0882
 66
1
 10
0
 20
0
 30
0
  0
VERTEX
  8
LAYER_3
 10
162.1837
 20
-177.3663
  0
VERTEX
  8
LAYER_3
 10
162.1837
 20
-181.6627
  0
SEQEND
  0
POLYLINE
  8
LAYER_3
 40
0.0882
 41
0.0882
 66
1
 10
0
 20
0
 30
0
  0
VERTEX
  8
LAYER_3
 10
162.1837
 20
-173.0375
  0
VERTEX
  8
LAYER_3
 10
162.1837
 20
-177.3339
  0
SEQEND
  0
POLYLINE
  8
LAYER_3
  6
AIGENLINE002
 40
0.0882
 41
0.0882
 66
1
 10
0
 20
0
 30
0
 70
128
  0
VERTEX
  8
LAYER_3
 10
116.1837
 20
-154.6358
  0
VERTEX
  8
LAYER_3
 10
116.1837
 20
-177.3339
  0
SEQEND
  0
POLYLINE
  8
LAYER_3
  6
AIGENLINE002
 40
0.0882
 41
0.0882
 66
1
 10
0
 20
0
 30
0
 70
128
  0
VERTEX
  8
LAYER_3
 10
162.1837
 20
-154.6358
  0
VERTEX
  8
LAYER_3
 10
162.1837
 20
-177.3339
  0
SEQEND
  0
POLYLINE
  8
LAYER_3
 40
0.0882
 41
0.0882
 66
1
 10
0
 20
0
 30
0
  0
VERTEX
  8
LAYER_3
 10
170.6837
 20
-71.6528
  0
VERTEX
  8
LAYER_3
 10
107.765
 20
-71.6528
  0
SEQEND
  0
POLYLINE
  8
LAYER_3
 40
0.0882
 41
0.0882
 66
1
 10
0
 20
0
 30
0
  0
VERTEX
  8
LAYER_3
 10
107.6837
 20
-73.9925
  0
VERTEX
  8
LAYER_3
 10
107.6837
 20
-69.6961
  0
SEQEND
  0
POLYLINE
  8
LAYER_3
 40
0.0882
 41
0.0882
 66
1
 10
0
 20
0
 30
0
  0
VERTEX
  8
LAYER_3
 10
170.6837
 20
-73.9925
  0
VERTEX
  8
LAYER_3
 10
170.6837
 20
-69.6961
  0
SEQEND
  0
POLYLINE
  8
LAYER_3
  6
AIGENLINE002
 40
0.0882
 41
0.0882
 66
1
 10
0
 20
0
 30
0
 70
128
  0
VERTEX
  8
LAYER_3
 10
107.6837
 20
-102.6536
  0
VERTEX
  8
LAYER_3
 10
107.6837
 20
-73.9925
  0
SEQEND
  0
POLYLINE
  8
LAYER_3
  6
AIGENLINE002
 40
0.0882
 41
0.0882
 66
1
 10
0
 20
0
 30
0
 70
128
  0
VERTEX
  8
LAYER_3
 10
170.6837
 20
-102.6536
  0
VERTEX
  8
LAYER_3
 10
170.6837
 20
-73.9925
  0
SEQEND
  0
TEXT
  8
LAYER_3
 10
136.8418
 20
-71.1052
 11
136.8418
 21
-71.1052
 40
3.5541
 41
0.5
  1
63
  0
TEXT
  8
LAYER_3
 10
173.2855
 20
-120.8675
 11
173.2855
 21
-120.8675
 40
3.5541
 41
0.5
  1
（最小15）
  0
POLYLINE
  8
LAYER_3
 40
0.0882
 41
0.0882
 66
1
 10
0
 20
0
 30
0
  0
VERTEX
  8
LAYER_3
 10
100.6958
 20
-104.3417
  0
VERTEX
  8
LAYER_3
 10
100.6958
 20
-171.2988
  0
SEQEND
  0
POLYLINE
  8
LAYER_3
 40
0.0882
 41
0.0882
 66
1
 10
0
 20
0
 30
0
  0
VERTEX
  8
LAYER_3
 10
118.7097
 20
-171.3417
  0
VERTEX
  8
LAYER_3
 10
98.739
 20
-171.3417
  0
SEQEND
  0
TEXT
  8
LAYER_3
 10
95.1738
 20
-135.1567
 11
95.1738
 21
-135.1567
 40
3.5541
 41
0.5
  1
67
  0
TEXT
  8
LAYER_3
 10
174.7855
 20
-145.0345
 11
174.7855
 21
-145.0345
 40
3.5541
 41
0.5
  1
20
  0
TEXT
  8
LAYER_3
 10
132.8208
 20
-183.9736
 11
132.8208
 21
-183.9736
 40
3.5541
 41
0.5
  1
八角対辺46
  0
INSERT
  8
LAYER_3
  2
AIGNBL0301001C
 10
0
 20
0
 30
0
  0
INSERT
  8
LAYER_6
  2
AIGNBL06010002
 10
0
 20
0
 30
0
  0
POLYLINE
  8
LAYER_6
 40
0.3528
 41
0.3528
 66
1
 10
0
 20
0
 30
0
  0
VERTEX
  8
LAYER_6
 10
34.7876
 20
-258.3332
  0
VERTEX
  8
LAYER_6
 10
229.7955
 20
-258.3332
  0
VERTEX
  8
LAYER_6
 10
229.7955
 20
21.6583
  0
VERTEX
  8
LAYER_6
 10
34.7876
 20
21.6583
  0
VERTEX
  8
LAYER_6
 10
34.7876
 20
-258.3332
  0
SEQEND
  0
TEXT
  8
LAYER_6
 10
166.4505
 20
-248.7955
 11
166.4505
 21
-248.7955
 40
3.3853
 41
0.5
  1
●TEL 0120-65-1232●FAX 06-6532-1580
  0
TEXT
  8
LAYER_6
 10
166.4505
 20
-252.3102
 11
166.4505
 21
-252.3102
 40
3.3853
 41
0.5
  1
hits@hiratatile.co.jp
  0
TEXT
  8
LAYER_6
 10
218.9756
 20
18.4461
 11
218.9756
 21
18.4461
 40
2.0732
 41
0.5
  1
211214RT
  0
TEXT
  8
LAYER_6
 10
37.8495
 20
-250.3797
 11
37.8495
 21
-250.3797
 40
3.2995
 41
0.5
  1
仕様
  0
POLYLINE
  8
LAYER_6
 40
0.3528
 41
0.3528
 66
1
 10
0
 20
0
 30
0
  0
VERTEX
  8
LAYER_6
 10
229.7955
 20
-241.6001
  0
VERTEX
  8
LAYER_6
 10
34.7874
 20
-241.6001
  0
SEQEND
  0
POLYLINE
  8
LAYER_6
 40
0.3528
 41
0.3528
 66
1
 10
0
 20
0
 30
0
  0
VERTEX
  8
LAYER_6
 10
229.7955
 20
-233.091
  0
VERTEX
  8
LAYER_6
 10
34.7874
 20
-233.091
  0
SEQEND
  0
TEXT
  8
LAYER_6
 10
35.9444
 20
-235.5675
 11
35.9444
 21
-235.5675
 40
2.1997
 41
0.5
  1
品名
  0
TEXT
  8
LAYER_6
 10
48.8795
 20
-238.6599
 11
48.8795
 21
-238.6599
 40
3.6373
 41
0.5
  1
排水目皿（欧州仕様）
  0
TEXT
  8
LAYER_6
 10
48.4217
 20
-250.3883
 11
48.4217
 21
-250.3883
 40
3.1177
 41
0.5
  1
●水溜め不可　●欧州仕様　●ヘアキャッチャー付き　●クロム
  0
TEXT
  8
LAYER_6
 10
134.4676
 20
-235.5677
 11
134.4676
 21
-235.5677
 40
2.1997
 41
0.5
  1
品番
  0
TEXT
  8
LAYER_6
 10
140.4896
 20
-240.0443
 11
140.4896
 21
-240.0443
 40
5.9385
 41
0.5
  1
AQ-6435HR-CH
  0
TEXT
  8
LAYER_6
 10
37.5245
 20
-211.2067
 11
37.5245
 21
-211.2067
 40
2.3382
 41
0.5
  1
※シリコンコーキング不要
  0
TEXT
  8
LAYER_6
 10
37.5245
 20
-215.7067
 11
37.5245
 21
-215.7067
 40
2.3382
 41
0.5
  1
※漏水および洗面器の破損防止のため、パッキン類が弾性を保てる範囲で締め付けてください。
  0
TEXT
  8
LAYER_6
 10
37.5245
 20
-220.2067
 11
37.5245
 21
-220.2067
 40
2.3382
 41
0.5
  1
※欧州仕様の排水金具のため、日米仕様のトラップとは接続できません。
  0
TEXT
  8
LAYER_6
 10
183.7083
 20
-201.3186
 11
183.7083
 21
-201.3186
 40
3.1177
 41
0.5
  1
（　）内寸法は参考寸法
  0
ENDSEC
  0
EOF
