  0
SECTION
  2
HEADER
  9
$ACADVER
  1
AC1009
  9
$LUNITS
 70
2
  9
$LUPREC
 70
4
  9
$LTSCALE
 40
1.0
  9
$EXTMIN
 10
33.7873
 20
-259.334
 30
0
  9
$EXTMAX
 10
230.7955
 20
22.6587
 30
0
  0
ENDSEC
  0
SECTION
  2
TABLES
  0
TABLE
  2
LTYPE
 70
256
  0
LTYPE
  2
AIGENLINE001
 70
64
  3
generate AI->DXF Converter
 72
65
 73
2
 40
1.4111
 49
0.7056
 49
-0.7056
  0
LTYPE
  2
AIGENLINE002
 70
64
  3
generate AI->DXF Converter
 72
65
 73
4
 40
50.8
 49
31.75
 49
-6.35
 49
6.35
 49
-6.35
  0
ENDTAB
  0
TABLE
  2
LAYER
 70
6
  0
LAYER
  2
LAYER_1
 70
64
 62
7
  6
CONTINUOUS
  0
LAYER
  2
LAYER_2
 70
64
 62
7
  6
CONTINUOUS
  0
LAYER
  2
LAYER_3
 70
64
 62
7
  6
CONTINUOUS
  0
LAYER
  2
LAYER_4
 70
64
 62
7
  6
CONTINUOUS
  0
LAYER
  2
LAYER_5
 70
64
 62
7
  6
CONTINUOUS
  0
LAYER
  2
LAYER_6
 70
64
 62
7
  6
CONTINUOUS
  0
ENDTAB
  0
TABLE
  2
STYLE
 70
6
  0
STYLE
  2
STANDARD
 70
0
 40
0
 50
0
 71
0
 41
0
 42
0
  3
TXT
  4
BIGFONT
  0
ENDTAB
  0
ENDSEC
  0
SECTION
  2
BLOCKS
  0
BLOCK
  8
LAYER_1
  2
AIGNBL01040005
 70
64
 10
0
 20
0
 30
0
  3
AIGNBL01040005
  0
POLYLINE
  8
LAYER_1
 40
0.05
 41
0.05
 66
1
 10
0
 20
0
 30
0
 70
1
  0
VERTEX
  8
LAYER_1
 10
138.3767
 20
-249.1011
  0
VERTEX
  8
LAYER_1
 10
137.891
 20
-250.2793
  0
VERTEX
  8
LAYER_1
 10
137.2664
 20
-250.2793
  0
VERTEX
  8
LAYER_1
 10
138.857
 20
-246.5355
  0
VERTEX
  8
LAYER_1
 10
139.586
 20
-246.5355
  0
VERTEX
  8
LAYER_1
 10
141.1828
 20
-250.2793
  0
VERTEX
  8
LAYER_1
 10
140.5365
 20
-250.2793
  0
VERTEX
  8
LAYER_1
 10
140.0369
 20
-249.1011
  0
SEQEND
  0
POLYLINE
  8
LAYER_1
 40
0.05
 41
0.05
 66
1
 10
0
 20
0
 30
0
 70
1
  0
VERTEX
  8
LAYER_1
 10
139.9115
 20
-248.7245
  0
VERTEX
  8
LAYER_1
 10
139.4533
 20
-247.6459
  0
VERTEX
  8
LAYER_1
 10
139.2101
 20
-246.963
  0
VERTEX
  8
LAYER_1
 10
139.1967
 20
-246.963
  0
VERTEX
  8
LAYER_1
 10
138.9603
 20
-247.6414
  0
VERTEX
  8
LAYER_1
 10
138.5021
 20
-248.7245
  0
SEQEND
  0
ENDBLK
  0
BLOCK
  8
LAYER_1
  2
AIGNBL01040006
 70
64
 10
0
 20
0
 30
0
  3
AIGNBL01040006
  0
POLYLINE
  8
LAYER_1
 40
0.05
 41
0.05
 66
1
 10
0
 20
0
 30
0
 70
1
  0
VERTEX
  8
LAYER_1
 10
145.5226
 20
-250.8295
 42
-0.01588995579
  0
VERTEX
  8
LAYER_1
 10
143.7311
 20
-250.3954
  0
VERTEX
  8
LAYER_1
 10
143.4465
 20
-250.3406
 42
-0.08603985201
  0
VERTEX
  8
LAYER_1
 10
142.5648
 20
-250.1665
 42
-0.09807603942
  0
VERTEX
  8
LAYER_1
 10
141.9131
 20
-249.7557
 42
-0.2094886647
  0
VERTEX
  8
LAYER_1
 10
141.3839
 20
-248.4469
 42
-0.09686882676
  0
VERTEX
  8
LAYER_1
 10
141.5276
 20
-247.6779
 42
-0.2046492491
  0
VERTEX
  8
LAYER_1
 10
142.5693
 20
-246.6597
 42
-0.09822810302
  0
VERTEX
  8
LAYER_1
 10
143.5644
 20
-246.4745
 42
-0.08551091506
  0
VERTEX
  8
LAYER_1
 10
144.4282
 20
-246.615
 42
-0.1004264881
  0
VERTEX
  8
LAYER_1
 10
145.0896
 20
-247.0069
 42
-0.2141381959
  0
VERTEX
  8
LAYER_1
 10
145.6617
 20
-248.3686
 42
-0.09538251124
  0
VERTEX
  8
LAYER_1
 10
145.5236
 20
-249.1322
 42
-0.2145004706
  0
VERTEX
  8
LAYER_1
 10
144.5063
 20
-250.1049
 42
-0.02339472194
  0
VERTEX
  8
LAYER_1
 10
144.3281
 20
-250.1628
  0
VERTEX
  8
LAYER_1
 10
144.3281
 20
-250.1852
  0
VERTEX
  8
LAYER_1
 10
145.6965
 20
-250.424
  0
SEQEND
  0
POLYLINE
  8
LAYER_1
 40
0.05
 41
0.05
 66
1
 10
0
 20
0
 30
0
 70
1
  0
VERTEX
  8
LAYER_1
 10
145.0233
 20
-248.39
 42
0.1071465477
  0
VERTEX
  8
LAYER_1
 10
144.8729
 20
-247.6894
 42
0.2977221891
  0
VERTEX
  8
LAYER_1
 10
143.5433
 20
-246.8687
 42
0.1072160189
  0
VERTEX
  8
LAYER_1
 10
142.8575
 20
-247.0073
 42
0.2385375056
  0
VERTEX
  8
LAYER_1
 10
142.0749
 20
-248.007
 42
0.05759145292
  0
VERTEX
  8
LAYER_1
 10
142.0296
 20
-248.4344
 42
0.2182236294
  0
VERTEX
  8
LAYER_1
 10
142.5575
 20
-249.6231
 42
0.1771891839
  0
VERTEX
  8
LAYER_1
 10
143.5161
 20
-249.9468
 42
0.1075696895
  0
VERTEX
  8
LAYER_1
 10
144.1932
 20
-249.8086
 42
0.236982977
  0
VERTEX
  8
LAYER_1
 10
144.9758
 20
-248.8146
 42
0.05604944619
  0
SEQEND
  0
ENDBLK
  0
BLOCK
  8
LAYER_1
  2
AIGNBL01040007
 70
64
 10
0
 20
0
 30
0
  3
AIGNBL01040007
  0
POLYLINE
  8
LAYER_1
 40
0.05
 41
0.05
 66
1
 10
0
 20
0
 30
0
 70
1
  0
VERTEX
  8
LAYER_1
 10
146.9815
 20
-246.5355
  0
VERTEX
  8
LAYER_1
 10
146.9815
 20
-248.7517
 42
0.114472655
  0
VERTEX
  8
LAYER_1
 10
147.1146
 20
-249.4136
 42
0.1464766
  0
VERTEX
  8
LAYER_1
 10
147.4628
 20
-249.7966
 42
0.1363197034
  0
VERTEX
  8
LAYER_1
 10
148.0716
 20
-249.9468
 42
0.1219363095
  0
VERTEX
  8
LAYER_1
 10
148.6913
 20
-249.8128
 42
0.1503291203
  0
VERTEX
  8
LAYER_1
 10
149.0609
 20
-249.446
 42
0.1255921242
  0
VERTEX
  8
LAYER_1
 10
149.2105
 20
-248.7517
  0
VERTEX
  8
LAYER_1
 10
149.2105
 20
-246.5355
  0
VERTEX
  8
LAYER_1
 10
149.8217
 20
-246.5355
  0
VERTEX
  8
LAYER_1
 10
149.8217
 20
-248.7187
 42
-0.1000186514
  0
VERTEX
  8
LAYER_1
 10
149.6875
 20
-249.4569
 42
-0.1214826848
  0
VERTEX
  8
LAYER_1
 10
149.3164
 20
-249.9606
 42
-0.1105884685
  0
VERTEX
  8
LAYER_1
 10
148.6945
 20
-250.2654
 42
-0.06129767201
  0
VERTEX
  8
LAYER_1
 10
148.0509
 20
-250.3406
 42
-0.09420892198
  0
VERTEX
  8
LAYER_1
 10
147.2365
 20
-250.2032
 42
-0.2431575096
  0
VERTEX
  8
LAYER_1
 10
146.4378
 20
-249.2978
 42
-0.06319469768
  0
VERTEX
  8
LAYER_1
 10
146.3707
 20
-248.7404
  0
VERTEX
  8
LAYER_1
 10
146.3707
 20
-246.5355
  0
SEQEND
  0
ENDBLK
  0
BLOCK
  8
LAYER_1
  2
AIGNBL01040008
 70
64
 10
0
 20
0
 30
0
  3
AIGNBL01040008
  0
POLYLINE
  8
LAYER_1
 40
0.05
 41
0.05
 66
1
 10
0
 20
0
 30
0
 70
1
  0
VERTEX
  8
LAYER_1
 10
151.5573
 20
-249.1011
  0
VERTEX
  8
LAYER_1
 10
151.0709
 20
-250.2793
  0
VERTEX
  8
LAYER_1
 10
150.447
 20
-250.2793
  0
VERTEX
  8
LAYER_1
 10
152.0365
 20
-246.5355
  0
VERTEX
  8
LAYER_1
 10
152.7655
 20
-246.5355
  0
VERTEX
  8
LAYER_1
 10
154.3623
 20
-250.2793
  0
VERTEX
  8
LAYER_1
 10
153.7167
 20
-250.2793
  0
VERTEX
  8
LAYER_1
 10
153.2175
 20
-249.1011
  0
SEQEND
  0
POLYLINE
  8
LAYER_1
 40
0.05
 41
0.05
 66
1
 10
0
 20
0
 30
0
 70
1
  0
VERTEX
  8
LAYER_1
 10
153.0921
 20
-248.7245
  0
VERTEX
  8
LAYER_1
 10
152.6332
 20
-247.6459
  0
VERTEX
  8
LAYER_1
 10
152.3897
 20
-246.963
  0
VERTEX
  8
LAYER_1
 10
152.3759
 20
-246.963
  0
VERTEX
  8
LAYER_1
 10
152.1402
 20
-247.6414
  0
VERTEX
  8
LAYER_1
 10
151.682
 20
-248.7245
  0
SEQEND
  0
ENDBLK
  0
BLOCK
  8
LAYER_1
  2
AIGNBL01040009
 70
64
 10
0
 20
0
 30
0
  3
AIGNBL01040009
  0
POLYLINE
  8
LAYER_1
 40
0.05
 41
0.05
 66
1
 10
0
 20
0
 30
0
 70
1
  0
VERTEX
  8
LAYER_1
 10
155.3969
 20
-246.58
 42
-0.03256094069
  0
VERTEX
  8
LAYER_1
 10
156.5576
 20
-246.5072
 42
-0.08241612935
  0
VERTEX
  8
LAYER_1
 10
157.5173
 20
-246.6416
 42
-0.07669938049
  0
VERTEX
  8
LAYER_1
 10
157.8691
 20
-246.8184
 42
-0.2484913661
  0
VERTEX
  8
LAYER_1
 10
158.279
 20
-247.6018
 42
-0.2263535337
  0
VERTEX
  8
LAYER_1
 10
157.9177
 20
-248.4014
 42
-0.1098394792
  0
VERTEX
  8
LAYER_1
 10
157.2932
 20
-248.7128
 42
-0.0656406839
  0
VERTEX
  8
LAYER_1
 10
156.4872
 20
-248.8127
 42
-0.06243203296
  0
VERTEX
  8
LAYER_1
 10
156.0015
 20
-248.7793
  0
VERTEX
  8
LAYER_1
 10
156.0015
 20
-250.2793
  0
VERTEX
  8
LAYER_1
 10
155.3969
 20
-250.2793
  0
SEQEND
  0
POLYLINE
  8
LAYER_1
 40
0.05
 41
0.05
 66
1
 10
0
 20
0
 30
0
 70
1
  0
VERTEX
  8
LAYER_1
 10
156.0015
 20
-248.3852
 42
0.04167858666
  0
VERTEX
  8
LAYER_1
 10
156.501
 20
-248.4245
 42
0.1033682296
  0
VERTEX
  8
LAYER_1
 10
157.216
 20
-248.2977
 42
0.300261568
  0
VERTEX
  8
LAYER_1
 10
157.6751
 20
-247.6242
 42
0.1736095203
  0
VERTEX
  8
LAYER_1
 10
157.5412
 20
-247.2193
 42
0.1518049397
  0
VERTEX
  8
LAYER_1
 10
157.1227
 20
-246.9614
 42
0.06878721899
  0
VERTEX
  8
LAYER_1
 10
156.5713
 20
-246.891
 42
0.0640598863
  0
VERTEX
  8
LAYER_1
 10
156.0015
 20
-246.93
  0
SEQEND
  0
ENDBLK
  0
BLOCK
  8
LAYER_1
  2
AIGNBL0104000A
 70
64
 10
0
 20
0
 30
0
  3
AIGNBL0104000A
  0
POLYLINE
  8
LAYER_1
 40
0.05
 41
0.05
 66
1
 10
0
 20
0
 30
0
 70
1
  0
VERTEX
  8
LAYER_1
 10
159.8218
 20
-246.8352
 42
-0.2759870412
  0
VERTEX
  8
LAYER_1
 10
159.6829
 20
-247.0742
 42
-0.1267055018
  0
VERTEX
  8
LAYER_1
 10
159.4325
 20
-247.1356
 42
-0.2239956238
  0
VERTEX
  8
LAYER_1
 10
159.1241
 20
-247.0039
 42
-0.1705452753
  0
VERTEX
  8
LAYER_1
 10
159.0645
 20
-246.8352
 42
-0.2641883957
  0
VERTEX
  8
LAYER_1
 10
159.2127
 20
-246.5896
 42
-0.1291792354
  0
VERTEX
  8
LAYER_1
 10
159.4459
 20
-246.53
 42
-0.2251681707
  0
VERTEX
  8
LAYER_1
 10
159.761
 20
-246.6599
 42
-0.1693099844
  0
SEQEND
  0
POLYLINE
  8
LAYER_1
 40
0.05
 41
0.05
 66
1
 10
0
 20
0
 30
0
 70
1
  0
VERTEX
  8
LAYER_1
 10
159.1407
 20
-250.2793
  0
VERTEX
  8
LAYER_1
 10
159.1407
 20
-247.5907
  0
VERTEX
  8
LAYER_1
 10
159.7515
 20
-247.5907
  0
VERTEX
  8
LAYER_1
 10
159.7515
 20
-250.2793
  0
SEQEND
  0
ENDBLK
  0
BLOCK
  8
LAYER_1
  2
AIGNBL0104000B
 70
64
 10
0
 20
0
 30
0
  3
AIGNBL0104000B
  0
POLYLINE
  8
LAYER_1
 40
0.05
 41
0.05
 66
1
 10
0
 20
0
 30
0
 70
1
  0
VERTEX
  8
LAYER_1
 10
161.6118
 20
-249.1011
  0
VERTEX
  8
LAYER_1
 10
161.1271
 20
-250.2793
  0
VERTEX
  8
LAYER_1
 10
160.5015
 20
-250.2793
  0
VERTEX
  8
LAYER_1
 10
162.0918
 20
-246.5355
  0
VERTEX
  8
LAYER_1
 10
162.8211
 20
-246.5355
  0
VERTEX
  8
LAYER_1
 10
164.4186
 20
-250.2793
  0
VERTEX
  8
LAYER_1
 10
163.7719
 20
-250.2793
  0
VERTEX
  8
LAYER_1
 10
163.2727
 20
-249.1011
  0
SEQEND
  0
POLYLINE
  8
LAYER_1
 40
0.05
 41
0.05
 66
1
 10
0
 20
0
 30
0
 70
1
  0
VERTEX
  8
LAYER_1
 10
163.1473
 20
-248.7245
  0
VERTEX
  8
LAYER_1
 10
162.6891
 20
-247.6459
  0
VERTEX
  8
LAYER_1
 10
162.4466
 20
-246.963
  0
VERTEX
  8
LAYER_1
 10
162.4321
 20
-246.963
  0
VERTEX
  8
LAYER_1
 10
162.1961
 20
-247.6414
  0
VERTEX
  8
LAYER_1
 10
161.7379
 20
-248.7245
  0
SEQEND
  0
ENDBLK
  0
BLOCK
  8
LAYER_3
  2
AIGNBL0304001E
 70
64
 10
0
 20
0
 30
0
  3
AIGNBL0304001E
  0
POLYLINE
  8
LAYER_3
 40
0.05
 41
0.05
 66
1
 10
0
 20
0
 30
0
 70
1
  0
VERTEX
  8
LAYER_3
 10
96.5096
 20
-71.6842
 42
0.0817052889
  0
VERTEX
  8
LAYER_3
 10
95.6082
 20
-71.1752
  0
VERTEX
  8
LAYER_3
 10
96.1326
 20
-71.0679
  0
VERTEX
  8
LAYER_3
 10
96.4668
 20
-70.65
 42
0.08381927269
  0
SEQEND
  0
ENDBLK
  0
BLOCK
  8
LAYER_1
  2
AIGNBL01030004
 70
64
 10
0
 20
0
 30
0
  3
AIGNBL01030004
  0
INSERT
  8
LAYER_1
  2
AIGNBL01040005
 10
0
 20
0
 30
0
  0
INSERT
  8
LAYER_1
  2
AIGNBL01040006
 10
0
 20
0
 30
0
  0
INSERT
  8
LAYER_1
  2
AIGNBL01040007
 10
0
 20
0
 30
0
  0
INSERT
  8
LAYER_1
  2
AIGNBL01040008
 10
0
 20
0
 30
0
  0
INSERT
  8
LAYER_1
  2
AIGNBL01040009
 10
0
 20
0
 30
0
  0
INSERT
  8
LAYER_1
  2
AIGNBL0104000A
 10
0
 20
0
 30
0
  0
INSERT
  8
LAYER_1
  2
AIGNBL0104000B
 10
0
 20
0
 30
0
  0
ENDBLK
  0
BLOCK
  8
LAYER_1
  2
AIGNBL0103000D
 70
64
 10
0
 20
0
 30
0
  3
AIGNBL0103000D
  0
POLYLINE
  8
LAYER_1
 40
0.05
 41
0.05
 66
1
 10
0
 20
0
 30
0
 70
1
  0
VERTEX
  8
LAYER_1
 10
137.3756
 20
-252.1676
  0
VERTEX
  8
LAYER_1
 10
137.9258
 20
-252.1676
  0
VERTEX
  8
LAYER_1
 10
137.9258
 20
-252.2609
  0
VERTEX
  8
LAYER_1
 10
137.2715
 20
-252.2609
  0
VERTEX
  8
LAYER_1
 10
137.2715
 20
-251.2339
  0
VERTEX
  8
LAYER_1
 10
137.9082
 20
-251.2339
  0
VERTEX
  8
LAYER_1
 10
137.9082
 20
-251.3266
  0
VERTEX
  8
LAYER_1
 10
137.3756
 20
-251.3266
  0
VERTEX
  8
LAYER_1
 10
137.3756
 20
-251.6787
  0
VERTEX
  8
LAYER_1
 10
137.8734
 20
-251.6787
  0
VERTEX
  8
LAYER_1
 10
137.8734
 20
-251.7717
  0
VERTEX
  8
LAYER_1
 10
137.3756
 20
-251.7717
  0
SEQEND
  0
ENDBLK
  0
BLOCK
  8
LAYER_1
  2
AIGNBL0103000E
 70
64
 10
0
 20
0
 30
0
  3
AIGNBL0103000E
  0
POLYLINE
  8
LAYER_1
 40
0.05
 41
0.05
 66
1
 10
0
 20
0
 30
0
 70
1
  0
VERTEX
  8
LAYER_1
 10
139.0589
 20
-252.1079
  0
VERTEX
  8
LAYER_1
 10
139.0613
 20
-252.1079
  0
VERTEX
  8
LAYER_1
 10
139.0613
 20
-251.2339
  0
VERTEX
  8
LAYER_1
 10
139.1663
 20
-251.2339
  0
VERTEX
  8
LAYER_1
 10
139.1663
 20
-252.2609
  0
VERTEX
  8
LAYER_1
 10
139.0365
 20
-252.2609
  0
VERTEX
  8
LAYER_1
 10
138.4384
 20
-251.3772
  0
VERTEX
  8
LAYER_1
 10
138.435
 20
-251.3772
  0
VERTEX
  8
LAYER_1
 10
138.435
 20
-252.2609
  0
VERTEX
  8
LAYER_1
 10
138.3306
 20
-252.2609
  0
VERTEX
  8
LAYER_1
 10
138.3306
 20
-251.2339
  0
VERTEX
  8
LAYER_1
 10
138.4611
 20
-251.2339
  0
SEQEND
  0
ENDBLK
  0
BLOCK
  8
LAYER_1
  2
AIGNBL0103000F
 70
64
 10
0
 20
0
 30
0
  3
AIGNBL0103000F
  0
POLYLINE
  8
LAYER_1
 40
0.05
 41
0.05
 66
1
 10
0
 20
0
 30
0
 70
1
  0
VERTEX
  8
LAYER_1
 10
139.637
 20
-252.0501
  0
VERTEX
  8
LAYER_1
 10
139.691
 20
-252.1527
 42
0.1791739205
  0
VERTEX
  8
LAYER_1
 10
139.8034
 20
-252.1937
  0
VERTEX
  8
LAYER_1
 10
139.8922
 20
-252.1744
  0
VERTEX
  8
LAYER_1
 10
139.948
 20
-252.1214
  0
VERTEX
  8
LAYER_1
 10
139.9763
 20
-252.0453
  0
VERTEX
  8
LAYER_1
 10
139.9853
 20
-251.956
  0
VERTEX
  8
LAYER_1
 10
139.9853
 20
-251.2339
  0
VERTEX
  8
LAYER_1
 10
140.0893
 20
-251.2339
  0
VERTEX
  8
LAYER_1
 10
140.0893
 20
-251.965
  0
VERTEX
  8
LAYER_1
 10
140.0783
 20
-252.0718
  0
VERTEX
  8
LAYER_1
 10
140.0369
 20
-252.1765
  0
VERTEX
  8
LAYER_1
 10
139.9529
 20
-252.2554
  0
VERTEX
  8
LAYER_1
 10
139.8147
 20
-252.2868
 42
-0.18823279
  0
VERTEX
  8
LAYER_1
 10
139.6311
 20
-252.2268
 42
-0.1779708983
  0
VERTEX
  8
LAYER_1
 10
139.5391
 20
-252.0769
  0
SEQEND
  0
ENDBLK
  0
BLOCK
  8
LAYER_1
  2
AIGNBL01030010
 70
64
 10
0
 20
0
 30
0
  3
AIGNBL01030010
  0
POLYLINE
  8
LAYER_1
 40
0.05
 41
0.05
 66
1
 10
0
 20
0
 30
0
 70
1
  0
VERTEX
  8
LAYER_1
 10
141.5693
 20
-251.7469
 42
-0.104348301
  0
VERTEX
  8
LAYER_1
 10
141.5279
 20
-251.9629
 42
-0.1013865216
  0
VERTEX
  8
LAYER_1
 10
141.4163
 20
-252.1338
  0
VERTEX
  8
LAYER_1
 10
141.2458
 20
-252.2461
 42
-0.09497960855
  0
VERTEX
  8
LAYER_1
 10
141.0332
 20
-252.2868
 42
-0.1003676177
  0
VERTEX
  8
LAYER_1
 10
140.8207
 20
-252.2461
  0
VERTEX
  8
LAYER_1
 10
140.6512
 20
-252.1338
 42
-0.09474436642
  0
VERTEX
  8
LAYER_1
 10
140.5389
 20
-251.9629
 42
-0.09317427323
  0
VERTEX
  8
LAYER_1
 10
140.4986
 20
-251.7469
 42
-0.1052531491
  0
VERTEX
  8
LAYER_1
 10
140.5389
 20
-251.5306
 42
-0.1000138279
  0
VERTEX
  8
LAYER_1
 10
140.6512
 20
-251.3604
 42
-0.09581503346
  0
VERTEX
  8
LAYER_1
 10
140.8207
 20
-251.2481
 42
-0.09561956468
  0
VERTEX
  8
LAYER_1
 10
141.0332
 20
-251.2071
 42
-0.1024782491
  0
VERTEX
  8
LAYER_1
 10
141.2458
 20
-251.2481
 42
-0.1014786584
  0
VERTEX
  8
LAYER_1
 10
141.4163
 20
-251.3604
 42
-0.09815577957
  0
VERTEX
  8
LAYER_1
 10
141.5279
 20
-251.5306
 42
-0.09523735002
  0
SEQEND
  0
POLYLINE
  8
LAYER_1
 40
0.05
 41
0.05
 66
1
 10
0
 20
0
 30
0
 70
1
  0
VERTEX
  8
LAYER_1
 10
141.4584
 20
-251.7476
  0
VERTEX
  8
LAYER_1
 10
141.4301
 20
-251.5767
  0
VERTEX
  8
LAYER_1
 10
141.3454
 20
-251.4344
  0
VERTEX
  8
LAYER_1
 10
141.211
 20
-251.337
 42
0.1026237584
  0
VERTEX
  8
LAYER_1
 10
141.0332
 20
-251.3001
 42
0.1147987019
  0
VERTEX
  8
LAYER_1
 10
140.8558
 20
-251.337
  0
VERTEX
  8
LAYER_1
 10
140.7225
 20
-251.4344
  0
VERTEX
  8
LAYER_1
 10
140.6374
 20
-251.5767
  0
VERTEX
  8
LAYER_1
 10
140.6081
 20
-251.7476
  0
VERTEX
  8
LAYER_1
 10
140.6374
 20
-251.9188
  0
VERTEX
  8
LAYER_1
 10
140.7225
 20
-252.0607
  0
VERTEX
  8
LAYER_1
 10
140.8558
 20
-252.1575
  0
VERTEX
  8
LAYER_1
 10
141.0332
 20
-252.1937
 42
0.1185100977
  0
VERTEX
  8
LAYER_1
 10
141.211
 20
-252.1575
  0
VERTEX
  8
LAYER_1
 10
141.3454
 20
-252.0607
  0
VERTEX
  8
LAYER_1
 10
141.4301
 20
-251.9188
  0
SEQEND
  0
ENDBLK
  0
BLOCK
  8
LAYER_1
  2
AIGNBL01030011
 70
64
 10
0
 20
0
 30
0
  3
AIGNBL01030011
  0
POLYLINE
  8
LAYER_1
 40
0.05
 41
0.05
 66
1
 10
0
 20
0
 30
0
 70
1
  0
VERTEX
  8
LAYER_1
 10
142.3393
 20
-252.2609
  0
VERTEX
  8
LAYER_1
 10
142.2349
 20
-252.2609
  0
VERTEX
  8
LAYER_1
 10
142.2349
 20
-251.8182
  0
VERTEX
  8
LAYER_1
 10
141.8504
 20
-251.2339
  0
VERTEX
  8
LAYER_1
 10
141.9813
 20
-251.2339
  0
VERTEX
  8
LAYER_1
 10
142.2904
 20
-251.7311
  0
VERTEX
  8
LAYER_1
 10
142.6022
 20
-251.2339
  0
VERTEX
  8
LAYER_1
 10
142.7234
 20
-251.2339
  0
VERTEX
  8
LAYER_1
 10
142.3393
 20
-251.8182
  0
SEQEND
  0
ENDBLK
  0
BLOCK
  8
LAYER_1
  2
AIGNBL01030012
 70
64
 10
0
 20
0
 30
0
  3
AIGNBL01030012
  0
POLYLINE
  8
LAYER_1
 40
0.05
 41
0.05
 66
1
 10
0
 20
0
 30
0
 70
1
  0
VERTEX
  8
LAYER_1
 10
143.6236
 20
-251.2339
  0
VERTEX
  8
LAYER_1
 10
143.9288
 20
-251.2339
  0
VERTEX
  8
LAYER_1
 10
144.047
 20
-251.2457
  0
VERTEX
  8
LAYER_1
 10
144.1528
 20
-251.288
  0
VERTEX
  8
LAYER_1
 10
144.2307
 20
-251.3686
  0
VERTEX
  8
LAYER_1
 10
144.2603
 20
-251.4961
 42
-0.1778951175
  0
VERTEX
  8
LAYER_1
 10
144.2103
 20
-251.6373
 42
-0.1614829203
  0
VERTEX
  8
LAYER_1
 10
144.078
 20
-251.7166
  0
VERTEX
  8
LAYER_1
 10
144.078
 20
-251.7194
 42
-0.1736511409
  0
VERTEX
  8
LAYER_1
 10
144.2434
 20
-251.7969
 42
-0.1925337955
  0
VERTEX
  8
LAYER_1
 10
144.3099
 20
-251.9764
  0
VERTEX
  8
LAYER_1
 10
144.2823
 20
-252.0928
  0
VERTEX
  8
LAYER_1
 10
144.2062
 20
-252.1831
  0
VERTEX
  8
LAYER_1
 10
144.0866
 20
-252.2402
  0
VERTEX
  8
LAYER_1
 10
143.9275
 20
-252.2609
  0
VERTEX
  8
LAYER_1
 10
143.6236
 20
-252.2609
  0
SEQEND
  0
POLYLINE
  8
LAYER_1
 40
0.05
 41
0.05
 66
1
 10
0
 20
0
 30
0
 70
1
  0
VERTEX
  8
LAYER_1
 10
143.7277
 20
-251.6832
  0
VERTEX
  8
LAYER_1
 10
143.9382
 20
-251.6832
  0
VERTEX
  8
LAYER_1
 10
144.0146
 20
-251.6742
  0
VERTEX
  8
LAYER_1
 10
144.0842
 20
-251.6453
  0
VERTEX
  8
LAYER_1
 10
144.1362
 20
-251.5888
  0
VERTEX
  8
LAYER_1
 10
144.1552
 20
-251.5034
  0
VERTEX
  8
LAYER_1
 10
144.1362
 20
-251.4203
  0
VERTEX
  8
LAYER_1
 10
144.0835
 20
-251.3638
  0
VERTEX
  8
LAYER_1
 10
144.005
 20
-251.3328
  0
VERTEX
  8
LAYER_1
 10
143.9089
 20
-251.3235
  0
VERTEX
  8
LAYER_1
 10
143.7277
 20
-251.3235
  0
SEQEND
  0
POLYLINE
  8
LAYER_1
 40
0.05
 41
0.05
 66
1
 10
0
 20
0
 30
0
 70
1
  0
VERTEX
  8
LAYER_1
 10
143.7277
 20
-252.171
  0
VERTEX
  8
LAYER_1
 10
143.9223
 20
-252.171
  0
VERTEX
  8
LAYER_1
 10
144.0301
 20
-252.1596
  0
VERTEX
  8
LAYER_1
 10
144.1204
 20
-252.1252
  0
VERTEX
  8
LAYER_1
 10
144.181
 20
-252.0625
  0
VERTEX
  8
LAYER_1
 10
144.2048
 20
-251.9705
 42
0.2546661425
  0
VERTEX
  8
LAYER_1
 10
144.1362
 20
-251.8189
 42
0.138509597
  0
VERTEX
  8
LAYER_1
 10
143.9413
 20
-251.7686
  0
VERTEX
  8
LAYER_1
 10
143.7277
 20
-251.7686
  0
SEQEND
  0
ENDBLK
  0
BLOCK
  8
LAYER_1
  2
AIGNBL01030013
 70
64
 10
0
 20
0
 30
0
  3
AIGNBL01030013
  0
POLYLINE
  8
LAYER_1
 40
0.05
 41
0.05
 66
1
 10
0
 20
0
 30
0
 70
1
  0
VERTEX
  8
LAYER_1
 10
144.7388
 20
-252.2609
  0
VERTEX
  8
LAYER_1
 10
144.6241
 20
-252.2609
  0
VERTEX
  8
LAYER_1
 10
145.0685
 20
-251.2339
  0
VERTEX
  8
LAYER_1
 10
145.1705
 20
-251.2339
  0
VERTEX
  8
LAYER_1
 10
145.6111
 20
-252.2609
  0
VERTEX
  8
LAYER_1
 10
145.4943
 20
-252.2609
  0
VERTEX
  8
LAYER_1
 10
145.3813
 20
-251.9912
  0
VERTEX
  8
LAYER_1
 10
144.8504
 20
-251.9912
  0
SEQEND
  0
POLYLINE
  8
LAYER_1
 40
0.05
 41
0.05
 66
1
 10
0
 20
0
 30
0
 70
1
  0
VERTEX
  8
LAYER_1
 10
144.8894
 20
-251.8947
  0
VERTEX
  8
LAYER_1
 10
145.3424
 20
-251.8947
  0
VERTEX
  8
LAYER_1
 10
145.1164
 20
-251.3493
  0
SEQEND
  0
ENDBLK
  0
BLOCK
  8
LAYER_1
  2
AIGNBL01030014
 70
64
 10
0
 20
0
 30
0
  3
AIGNBL01030014
  0
POLYLINE
  8
LAYER_1
 40
0.05
 41
0.05
 66
1
 10
0
 20
0
 30
0
 70
1
  0
VERTEX
  8
LAYER_1
 10
146.2915
 20
-252.2609
  0
VERTEX
  8
LAYER_1
 10
146.1871
 20
-252.2609
  0
VERTEX
  8
LAYER_1
 10
146.1871
 20
-251.3266
  0
VERTEX
  8
LAYER_1
 10
145.8426
 20
-251.3266
  0
VERTEX
  8
LAYER_1
 10
145.8426
 20
-251.2339
  0
VERTEX
  8
LAYER_1
 10
146.635
 20
-251.2339
  0
VERTEX
  8
LAYER_1
 10
146.635
 20
-251.3266
  0
VERTEX
  8
LAYER_1
 10
146.2915
 20
-251.3266
  0
SEQEND
  0
ENDBLK
  0
BLOCK
  8
LAYER_1
  2
AIGNBL01030015
 70
64
 10
0
 20
0
 30
0
  3
AIGNBL01030015
  0
POLYLINE
  8
LAYER_1
 40
0.05
 41
0.05
 66
1
 10
0
 20
0
 30
0
 70
1
  0
VERTEX
  8
LAYER_1
 10
146.9888
 20
-251.2339
  0
VERTEX
  8
LAYER_1
 10
147.0932
 20
-251.2339
  0
VERTEX
  8
LAYER_1
 10
147.0932
 20
-251.6787
  0
VERTEX
  8
LAYER_1
 10
147.654
 20
-251.6787
  0
VERTEX
  8
LAYER_1
 10
147.654
 20
-251.2339
  0
VERTEX
  8
LAYER_1
 10
147.7581
 20
-251.2339
  0
VERTEX
  8
LAYER_1
 10
147.7581
 20
-252.2609
  0
VERTEX
  8
LAYER_1
 10
147.654
 20
-252.2609
  0
VERTEX
  8
LAYER_1
 10
147.654
 20
-251.7745
  0
VERTEX
  8
LAYER_1
 10
147.0932
 20
-251.7745
  0
VERTEX
  8
LAYER_1
 10
147.0932
 20
-252.2609
  0
VERTEX
  8
LAYER_1
 10
146.9888
 20
-252.2609
  0
SEQEND
  0
ENDBLK
  0
BLOCK
  8
LAYER_1
  2
AIGNBL01030016
 70
64
 10
0
 20
0
 30
0
  3
AIGNBL01030016
  0
POLYLINE
  8
LAYER_1
 40
0.05
 41
0.05
 66
1
 10
0
 20
0
 30
0
 70
1
  0
VERTEX
  8
LAYER_1
 10
148.3351
 20
-252.2609
  0
VERTEX
  8
LAYER_1
 10
148.2311
 20
-252.2609
  0
VERTEX
  8
LAYER_1
 10
148.2311
 20
-251.2339
  0
VERTEX
  8
LAYER_1
 10
148.5322
 20
-251.2339
  0
VERTEX
  8
LAYER_1
 10
148.6724
 20
-251.2481
  0
VERTEX
  8
LAYER_1
 10
148.7844
 20
-251.2953
  0
VERTEX
  8
LAYER_1
 10
148.8571
 20
-251.38
  0
VERTEX
  8
LAYER_1
 10
148.8829
 20
-251.5078
  0
VERTEX
  8
LAYER_1
 10
148.8636
 20
-251.6108
  0
VERTEX
  8
LAYER_1
 10
148.8088
 20
-251.6911
  0
VERTEX
  8
LAYER_1
 10
148.7258
 20
-251.7459
  0
VERTEX
  8
LAYER_1
 10
148.6214
 20
-251.7717
  0
VERTEX
  8
LAYER_1
 10
148.9211
 20
-252.2609
  0
VERTEX
  8
LAYER_1
 10
148.7937
 20
-252.2609
  0
VERTEX
  8
LAYER_1
 10
148.5098
 20
-251.7807
  0
VERTEX
  8
LAYER_1
 10
148.3351
 20
-251.7807
  0
SEQEND
  0
POLYLINE
  8
LAYER_1
 40
0.05
 41
0.05
 66
1
 10
0
 20
0
 30
0
 70
1
  0
VERTEX
  8
LAYER_1
 10
148.3351
 20
-251.6904
  0
VERTEX
  8
LAYER_1
 10
148.517
 20
-251.6904
 42
0.1622417858
  0
VERTEX
  8
LAYER_1
 10
148.711
 20
-251.6453
 42
0.2500476248
  0
VERTEX
  8
LAYER_1
 10
148.7799
 20
-251.5078
  0
VERTEX
  8
LAYER_1
 10
148.7602
 20
-251.4224
  0
VERTEX
  8
LAYER_1
 10
148.7079
 20
-251.3652
  0
VERTEX
  8
LAYER_1
 10
148.6269
 20
-251.3338
  0
VERTEX
  8
LAYER_1
 10
148.5212
 20
-251.3235
  0
VERTEX
  8
LAYER_1
 10
148.3351
 20
-251.3235
  0
SEQEND
  0
ENDBLK
  0
BLOCK
  8
LAYER_1
  2
AIGNBL01030017
 70
64
 10
0
 20
0
 30
0
  3
AIGNBL01030017
  0
POLYLINE
  8
LAYER_1
 40
0.05
 41
0.05
 66
1
 10
0
 20
0
 30
0
 70
1
  0
VERTEX
  8
LAYER_1
 10
150.3154
 20
-251.7469
 42
-0.1015060182
  0
VERTEX
  8
LAYER_1
 10
150.2747
 20
-251.9629
 42
-0.09993540575
  0
VERTEX
  8
LAYER_1
 10
150.1624
 20
-252.1338
 42
-0.09525489566
  0
VERTEX
  8
LAYER_1
 10
149.9926
 20
-252.2461
 42
-0.09491251156
  0
VERTEX
  8
LAYER_1
 10
149.78
 20
-252.2868
 42
-0.1002015795
  0
VERTEX
  8
LAYER_1
 10
149.5674
 20
-252.2461
 42
-0.1016690689
  0
VERTEX
  8
LAYER_1
 10
149.3979
 20
-252.1338
 42
-0.09667300425
  0
VERTEX
  8
LAYER_1
 10
149.2856
 20
-251.9629
 42
-0.09262920428
  0
VERTEX
  8
LAYER_1
 10
149.2453
 20
-251.7469
 42
-0.09846568495
  0
VERTEX
  8
LAYER_1
 10
149.2856
 20
-251.5306
 42
-0.09950302227
  0
VERTEX
  8
LAYER_1
 10
149.3979
 20
-251.3604
 42
-0.09832237419
  0
VERTEX
  8
LAYER_1
 10
149.5674
 20
-251.2481
 42
-0.09564774702
  0
VERTEX
  8
LAYER_1
 10
149.78
 20
-251.2071
 42
-0.1014301699
  0
VERTEX
  8
LAYER_1
 10
149.9926
 20
-251.2481
 42
-0.1041253763
  0
VERTEX
  8
LAYER_1
 10
150.1624
 20
-251.3604
 42
-0.09489987116
  0
VERTEX
  8
LAYER_1
 10
150.2747
 20
-251.5306
 42
-0.09342113907
  0
SEQEND
  0
POLYLINE
  8
LAYER_1
 40
0.05
 41
0.05
 66
1
 10
0
 20
0
 30
0
 70
1
  0
VERTEX
  8
LAYER_1
 10
150.2051
 20
-251.7476
  0
VERTEX
  8
LAYER_1
 10
150.1762
 20
-251.5767
  0
VERTEX
  8
LAYER_1
 10
150.0921
 20
-251.4344
  0
VERTEX
  8
LAYER_1
 10
149.9581
 20
-251.337
 42
0.1022827687
  0
VERTEX
  8
LAYER_1
 10
149.78
 20
-251.3001
 42
0.1183846388
  0
VERTEX
  8
LAYER_1
 10
149.6026
 20
-251.337
  0
VERTEX
  8
LAYER_1
 10
149.4682
 20
-251.4344
  0
VERTEX
  8
LAYER_1
 10
149.3842
 20
-251.5767
  0
VERTEX
  8
LAYER_1
 10
149.3549
 20
-251.7476
  0
VERTEX
  8
LAYER_1
 10
149.3842
 20
-251.9188
  0
VERTEX
  8
LAYER_1
 10
149.4682
 20
-252.0607
  0
VERTEX
  8
LAYER_1
 10
149.6026
 20
-252.1575
 42
0.1007973502
  0
VERTEX
  8
LAYER_1
 10
149.78
 20
-252.1937
  0
VERTEX
  8
LAYER_1
 10
149.9581
 20
-252.1575
  0
VERTEX
  8
LAYER_1
 10
150.0921
 20
-252.0607
  0
VERTEX
  8
LAYER_1
 10
150.1762
 20
-251.9188
  0
SEQEND
  0
ENDBLK
  0
BLOCK
  8
LAYER_1
  2
AIGNBL01030018
 70
64
 10
0
 20
0
 30
0
  3
AIGNBL01030018
  0
POLYLINE
  8
LAYER_1
 40
0.05
 41
0.05
 66
1
 10
0
 20
0
 30
0
 70
1
  0
VERTEX
  8
LAYER_1
 10
151.7489
 20
-251.7469
 42
-0.1017020442
  0
VERTEX
  8
LAYER_1
 10
151.7086
 20
-251.9629
  0
VERTEX
  8
LAYER_1
 10
151.5963
 20
-252.1338
  0
VERTEX
  8
LAYER_1
 10
151.4264
 20
-252.2461
 42
-0.09495021158
  0
VERTEX
  8
LAYER_1
 10
151.2139
 20
-252.2868
 42
-0.1019502388
  0
VERTEX
  8
LAYER_1
 10
151.0013
 20
-252.2461
 42
-0.1021914323
  0
VERTEX
  8
LAYER_1
 10
150.8318
 20
-252.1338
 42
-0.09636018285
  0
VERTEX
  8
LAYER_1
 10
150.7188
 20
-251.9629
 42
-0.09364604827
  0
VERTEX
  8
LAYER_1
 10
150.6781
 20
-251.7469
 42
-0.1001287453
  0
VERTEX
  8
LAYER_1
 10
150.7188
 20
-251.5306
 42
-0.1037227634
  0
VERTEX
  8
LAYER_1
 10
150.8318
 20
-251.3604
 42
-0.0985967677
  0
VERTEX
  8
LAYER_1
 10
151.0013
 20
-251.2481
 42
-0.0957287822
  0
VERTEX
  8
LAYER_1
 10
151.2139
 20
-251.2071
 42
-0.1016365741
  0
VERTEX
  8
LAYER_1
 10
151.4264
 20
-251.2481
 42
-0.09861864621
  0
VERTEX
  8
LAYER_1
 10
151.5963
 20
-251.3604
 42
-0.09487953686
  0
VERTEX
  8
LAYER_1
 10
151.7086
 20
-251.5306
 42
-0.09256741039
  0
SEQEND
  0
POLYLINE
  8
LAYER_1
 40
0.05
 41
0.05
 66
1
 10
0
 20
0
 30
0
 70
1
  0
VERTEX
  8
LAYER_1
 10
151.639
 20
-251.7476
  0
VERTEX
  8
LAYER_1
 10
151.61
 20
-251.5767
  0
VERTEX
  8
LAYER_1
 10
151.526
 20
-251.4344
  0
VERTEX
  8
LAYER_1
 10
151.3916
 20
-251.337
 42
0.1025075331
  0
VERTEX
  8
LAYER_1
 10
151.2139
 20
-251.3001
 42
0.118884027
  0
VERTEX
  8
LAYER_1
 10
151.0361
 20
-251.337
  0
VERTEX
  8
LAYER_1
 10
150.9017
 20
-251.4344
  0
VERTEX
  8
LAYER_1
 10
150.818
 20
-251.5767
  0
VERTEX
  8
LAYER_1
 10
150.7887
 20
-251.7476
  0
VERTEX
  8
LAYER_1
 10
150.818
 20
-251.9188
  0
VERTEX
  8
LAYER_1
 10
150.9017
 20
-252.0607
  0
VERTEX
  8
LAYER_1
 10
151.0361
 20
-252.1575
 42
0.100589677
  0
VERTEX
  8
LAYER_1
 10
151.2139
 20
-252.1937
  0
VERTEX
  8
LAYER_1
 10
151.3916
 20
-252.1575
  0
VERTEX
  8
LAYER_1
 10
151.526
 20
-252.0607
  0
VERTEX
  8
LAYER_1
 10
151.61
 20
-251.9188
  0
SEQEND
  0
ENDBLK
  0
BLOCK
  8
LAYER_1
  2
AIGNBL01030019
 70
64
 10
0
 20
0
 30
0
  3
AIGNBL01030019
  0
POLYLINE
  8
LAYER_1
 40
0.05
 41
0.05
 66
1
 10
0
 20
0
 30
0
 70
1
  0
VERTEX
  8
LAYER_1
 10
152.6742
 20
-252.0839
  0
VERTEX
  8
LAYER_1
 10
152.6756
 20
-252.0839
  0
VERTEX
  8
LAYER_1
 10
153.0194
 20
-251.2339
  0
VERTEX
  8
LAYER_1
 10
153.1793
 20
-251.2339
  0
VERTEX
  8
LAYER_1
 10
153.1793
 20
-252.2609
  0
VERTEX
  8
LAYER_1
 10
153.0749
 20
-252.2609
  0
VERTEX
  8
LAYER_1
 10
153.0749
 20
-251.3686
  0
VERTEX
  8
LAYER_1
 10
153.0718
 20
-251.3686
  0
VERTEX
  8
LAYER_1
 10
152.7007
 20
-252.2609
  0
VERTEX
  8
LAYER_1
 10
152.646
 20
-252.2609
  0
VERTEX
  8
LAYER_1
 10
152.2743
 20
-251.3686
  0
VERTEX
  8
LAYER_1
 10
152.2708
 20
-251.3686
  0
VERTEX
  8
LAYER_1
 10
152.2708
 20
-252.2609
  0
VERTEX
  8
LAYER_1
 10
152.1668
 20
-252.2609
  0
VERTEX
  8
LAYER_1
 10
152.1668
 20
-251.2339
  0
VERTEX
  8
LAYER_1
 10
152.327
 20
-251.2339
  0
SEQEND
  0
ENDBLK
  0
BLOCK
  8
LAYER_1
  2
AIGNBL0103001A
 70
64
 10
0
 20
0
 30
0
  3
AIGNBL0103001A
  0
POLYLINE
  8
LAYER_1
 40
0.05
 41
0.05
 66
1
 10
0
 20
0
 30
0
 70
1
  0
VERTEX
  8
LAYER_1
 10
154.3196
 20
-252.1676
  0
VERTEX
  8
LAYER_1
 10
154.8694
 20
-252.1676
  0
VERTEX
  8
LAYER_1
 10
154.8694
 20
-252.2609
  0
VERTEX
  8
LAYER_1
 10
154.2145
 20
-252.2609
  0
VERTEX
  8
LAYER_1
 10
154.2145
 20
-251.2339
  0
VERTEX
  8
LAYER_1
 10
154.8522
 20
-251.2339
  0
VERTEX
  8
LAYER_1
 10
154.8522
 20
-251.3263
  0
VERTEX
  8
LAYER_1
 10
154.3196
 20
-251.3263
  0
VERTEX
  8
LAYER_1
 10
154.3196
 20
-251.6787
  0
VERTEX
  8
LAYER_1
 10
154.8167
 20
-251.6787
  0
VERTEX
  8
LAYER_1
 10
154.8167
 20
-251.7717
  0
VERTEX
  8
LAYER_1
 10
154.3196
 20
-251.7717
  0
SEQEND
  0
ENDBLK
  0
BLOCK
  8
LAYER_1
  2
AIGNBL0103001B
 70
64
 10
0
 20
0
 30
0
  3
AIGNBL0103001B
  0
POLYLINE
  8
LAYER_1
 40
0.05
 41
0.05
 66
1
 10
0
 20
0
 30
0
 70
1
  0
VERTEX
  8
LAYER_1
 10
155.6101
 20
-251.6484
  0
VERTEX
  8
LAYER_1
 10
155.8906
 20
-251.2339
  0
VERTEX
  8
LAYER_1
 10
156.0153
 20
-251.2339
  0
VERTEX
  8
LAYER_1
 10
155.6749
 20
-251.7221
  0
VERTEX
  8
LAYER_1
 10
156.0518
 20
-252.2609
  0
VERTEX
  8
LAYER_1
 10
155.9216
 20
-252.2609
  0
VERTEX
  8
LAYER_1
 10
155.6081
 20
-251.7979
  0
VERTEX
  8
LAYER_1
 10
155.296
 20
-252.2609
  0
VERTEX
  8
LAYER_1
 10
155.165
 20
-252.2609
  0
VERTEX
  8
LAYER_1
 10
155.5426
 20
-251.7211
  0
VERTEX
  8
LAYER_1
 10
155.1988
 20
-251.2339
  0
VERTEX
  8
LAYER_1
 10
155.329
 20
-251.2339
  0
SEQEND
  0
ENDBLK
  0
BLOCK
  8
LAYER_1
  2
AIGNBL0103001C
 70
64
 10
0
 20
0
 30
0
  3
AIGNBL0103001C
  0
POLYLINE
  8
LAYER_1
 40
0.05
 41
0.05
 66
1
 10
0
 20
0
 30
0
 70
1
  0
VERTEX
  8
LAYER_1
 10
156.4159
 20
-251.2339
  0
VERTEX
  8
LAYER_1
 10
156.706
 20
-251.2339
  0
VERTEX
  8
LAYER_1
 10
156.8487
 20
-251.2498
  0
VERTEX
  8
LAYER_1
 10
156.9575
 20
-251.3015
  0
VERTEX
  8
LAYER_1
 10
157.0288
 20
-251.3866
  0
VERTEX
  8
LAYER_1
 10
157.053
 20
-251.5078
  0
VERTEX
  8
LAYER_1
 10
157.0281
 20
-251.6291
  0
VERTEX
  8
LAYER_1
 10
156.9568
 20
-251.7145
  0
VERTEX
  8
LAYER_1
 10
156.8459
 20
-251.7659
  0
VERTEX
  8
LAYER_1
 10
156.7032
 20
-251.7831
  0
VERTEX
  8
LAYER_1
 10
156.5203
 20
-251.7831
  0
VERTEX
  8
LAYER_1
 10
156.5203
 20
-252.2609
  0
VERTEX
  8
LAYER_1
 10
156.4159
 20
-252.2609
  0
SEQEND
  0
POLYLINE
  8
LAYER_1
 40
0.05
 41
0.05
 66
1
 10
0
 20
0
 30
0
 70
1
  0
VERTEX
  8
LAYER_1
 10
156.5203
 20
-251.6949
  0
VERTEX
  8
LAYER_1
 10
156.6974
 20
-251.6949
 42
0.179800284
  0
VERTEX
  8
LAYER_1
 10
156.8848
 20
-251.6474
 42
0.2343125845
  0
VERTEX
  8
LAYER_1
 10
156.9489
 20
-251.5078
 42
0.2635647854
  0
VERTEX
  8
LAYER_1
 10
156.8824
 20
-251.3676
 42
0.1265134521
  0
VERTEX
  8
LAYER_1
 10
156.6974
 20
-251.3235
  0
VERTEX
  8
LAYER_1
 10
156.5203
 20
-251.3235
  0
SEQEND
  0
ENDBLK
  0
BLOCK
  8
LAYER_1
  2
AIGNBL0103001D
 70
64
 10
0
 20
0
 30
0
  3
AIGNBL0103001D
  0
POLYLINE
  8
LAYER_1
 40
0.05
 41
0.05
 66
1
 10
0
 20
0
 30
0
 70
1
  0
VERTEX
  8
LAYER_1
 10
157.5621
 20
-252.1676
  0
VERTEX
  8
LAYER_1
 10
158.1116
 20
-252.1676
  0
VERTEX
  8
LAYER_1
 10
158.1116
 20
-252.2609
  0
VERTEX
  8
LAYER_1
 10
157.4577
 20
-252.2609
  0
VERTEX
  8
LAYER_1
 10
157.4577
 20
-251.2339
  0
VERTEX
  8
LAYER_1
 10
158.0947
 20
-251.2339
  0
VERTEX
  8
LAYER_1
 10
158.0947
 20
-251.3263
  0
VERTEX
  8
LAYER_1
 10
157.5621
 20
-251.3263
  0
VERTEX
  8
LAYER_1
 10
157.5621
 20
-251.6787
  0
VERTEX
  8
LAYER_1
 10
158.0599
 20
-251.6787
  0
VERTEX
  8
LAYER_1
 10
158.0599
 20
-251.7717
  0
VERTEX
  8
LAYER_1
 10
157.5621
 20
-251.7717
  0
SEQEND
  0
ENDBLK
  0
BLOCK
  8
LAYER_1
  2
AIGNBL0103001E
 70
64
 10
0
 20
0
 30
0
  3
AIGNBL0103001E
  0
POLYLINE
  8
LAYER_1
 40
0.05
 41
0.05
 66
1
 10
0
 20
0
 30
0
 70
1
  0
VERTEX
  8
LAYER_1
 10
158.6208
 20
-252.2609
  0
VERTEX
  8
LAYER_1
 10
158.5168
 20
-252.2609
  0
VERTEX
  8
LAYER_1
 10
158.5168
 20
-251.2339
  0
VERTEX
  8
LAYER_1
 10
158.8185
 20
-251.2339
  0
VERTEX
  8
LAYER_1
 10
158.9584
 20
-251.2481
  0
VERTEX
  8
LAYER_1
 10
159.07
 20
-251.2953
  0
VERTEX
  8
LAYER_1
 10
159.1438
 20
-251.38
  0
VERTEX
  8
LAYER_1
 10
159.1696
 20
-251.5078
  0
VERTEX
  8
LAYER_1
 10
159.1493
 20
-251.6105
  0
VERTEX
  8
LAYER_1
 10
159.0945
 20
-251.6915
  0
VERTEX
  8
LAYER_1
 10
159.0111
 20
-251.7459
  0
VERTEX
  8
LAYER_1
 10
158.9067
 20
-251.7717
  0
VERTEX
  8
LAYER_1
 10
159.2075
 20
-252.2609
  0
VERTEX
  8
LAYER_1
 10
159.08
 20
-252.2609
  0
VERTEX
  8
LAYER_1
 10
158.7955
 20
-251.7803
  0
VERTEX
  8
LAYER_1
 10
158.6208
 20
-251.7803
  0
SEQEND
  0
POLYLINE
  8
LAYER_1
 40
0.05
 41
0.05
 66
1
 10
0
 20
0
 30
0
 70
1
  0
VERTEX
  8
LAYER_1
 10
158.6208
 20
-251.69
  0
VERTEX
  8
LAYER_1
 10
158.8027
 20
-251.69
 42
0.1625850216
  0
VERTEX
  8
LAYER_1
 10
158.9974
 20
-251.6453
 42
0.2500143464
  0
VERTEX
  8
LAYER_1
 10
159.0652
 20
-251.5078
  0
VERTEX
  8
LAYER_1
 10
159.047
 20
-251.4224
  0
VERTEX
  8
LAYER_1
 10
158.9943
 20
-251.3652
  0
VERTEX
  8
LAYER_1
 10
158.9123
 20
-251.3338
  0
VERTEX
  8
LAYER_1
 10
158.8065
 20
-251.3235
  0
VERTEX
  8
LAYER_1
 10
158.6208
 20
-251.3235
  0
SEQEND
  0
ENDBLK
  0
BLOCK
  8
LAYER_1
  2
AIGNBL0103001F
 70
64
 10
0
 20
0
 30
0
  3
AIGNBL0103001F
  0
POLYLINE
  8
LAYER_1
 40
0.05
 41
0.05
 66
1
 10
0
 20
0
 30
0
 70
1
  0
VERTEX
  8
LAYER_1
 10
159.6898
 20
-252.2609
  0
VERTEX
  8
LAYER_1
 10
159.5865
 20
-252.2609
  0
VERTEX
  8
LAYER_1
 10
159.5865
 20
-251.2339
  0
VERTEX
  8
LAYER_1
 10
159.6898
 20
-251.2339
  0
SEQEND
  0
ENDBLK
  0
BLOCK
  8
LAYER_1
  2
AIGNBL01030020
 70
64
 10
0
 20
0
 30
0
  3
AIGNBL01030020
  0
POLYLINE
  8
LAYER_1
 40
0.05
 41
0.05
 66
1
 10
0
 20
0
 30
0
 70
1
  0
VERTEX
  8
LAYER_1
 10
160.2676
 20
-252.1676
  0
VERTEX
  8
LAYER_1
 10
160.8174
 20
-252.1676
  0
VERTEX
  8
LAYER_1
 10
160.8174
 20
-252.2609
  0
VERTEX
  8
LAYER_1
 10
160.1639
 20
-252.2609
  0
VERTEX
  8
LAYER_1
 10
160.1639
 20
-251.2339
  0
VERTEX
  8
LAYER_1
 10
160.8005
 20
-251.2339
  0
VERTEX
  8
LAYER_1
 10
160.8005
 20
-251.3263
  0
VERTEX
  8
LAYER_1
 10
160.2676
 20
-251.3263
  0
VERTEX
  8
LAYER_1
 10
160.2676
 20
-251.6787
  0
VERTEX
  8
LAYER_1
 10
160.7654
 20
-251.6787
  0
VERTEX
  8
LAYER_1
 10
160.7654
 20
-251.7717
  0
VERTEX
  8
LAYER_1
 10
160.2676
 20
-251.7717
  0
SEQEND
  0
ENDBLK
  0
BLOCK
  8
LAYER_1
  2
AIGNBL01030021
 70
64
 10
0
 20
0
 30
0
  3
AIGNBL01030021
  0
POLYLINE
  8
LAYER_1
 40
0.05
 41
0.05
 66
1
 10
0
 20
0
 30
0
 70
1
  0
VERTEX
  8
LAYER_1
 10
161.9505
 20
-252.1079
  0
VERTEX
  8
LAYER_1
 10
161.9536
 20
-252.1079
  0
VERTEX
  8
LAYER_1
 10
161.9536
 20
-251.2339
  0
VERTEX
  8
LAYER_1
 10
162.058
 20
-251.2339
  0
VERTEX
  8
LAYER_1
 10
162.058
 20
-252.2609
  0
VERTEX
  8
LAYER_1
 10
161.9277
 20
-252.2609
  0
VERTEX
  8
LAYER_1
 10
161.3297
 20
-251.3772
  0
VERTEX
  8
LAYER_1
 10
161.3266
 20
-251.3772
  0
VERTEX
  8
LAYER_1
 10
161.3266
 20
-252.2609
  0
VERTEX
  8
LAYER_1
 10
161.2222
 20
-252.2609
  0
VERTEX
  8
LAYER_1
 10
161.2222
 20
-251.2339
  0
VERTEX
  8
LAYER_1
 10
161.3535
 20
-251.2339
  0
SEQEND
  0
ENDBLK
  0
BLOCK
  8
LAYER_1
  2
AIGNBL01030022
 70
64
 10
0
 20
0
 30
0
  3
AIGNBL01030022
  0
POLYLINE
  8
LAYER_1
 40
0.05
 41
0.05
 66
1
 10
0
 20
0
 30
0
 70
1
  0
VERTEX
  8
LAYER_1
 10
163.396
 20
-252.0942
  0
VERTEX
  8
LAYER_1
 10
163.3323
 20
-252.1679
  0
VERTEX
  8
LAYER_1
 10
163.2469
 20
-252.2295
  0
VERTEX
  8
LAYER_1
 10
163.1394
 20
-252.2716
  0
VERTEX
  8
LAYER_1
 10
163.0112
 20
-252.2868
 42
-0.1009164681
  0
VERTEX
  8
LAYER_1
 10
162.7966
 20
-252.2461
 42
-0.1027581013
  0
VERTEX
  8
LAYER_1
 10
162.6271
 20
-252.1335
 42
-0.1010578842
  0
VERTEX
  8
LAYER_1
 10
162.5162
 20
-251.9633
 42
-0.09298732079
  0
VERTEX
  8
LAYER_1
 10
162.4759
 20
-251.7469
 42
-0.1023262951
  0
VERTEX
  8
LAYER_1
 10
162.5169
 20
-251.5306
 42
-0.1009138363
  0
VERTEX
  8
LAYER_1
 10
162.6285
 20
-251.3604
  0
VERTEX
  8
LAYER_1
 10
162.798
 20
-251.2481
 42
-0.09535690024
  0
VERTEX
  8
LAYER_1
 10
163.0112
 20
-251.2071
  0
VERTEX
  8
LAYER_1
 10
163.1222
 20
-251.2191
  0
VERTEX
  8
LAYER_1
 10
163.2252
 20
-251.2522
  0
VERTEX
  8
LAYER_1
 10
163.3117
 20
-251.3035
  0
VERTEX
  8
LAYER_1
 10
163.3767
 20
-251.3711
  0
VERTEX
  8
LAYER_1
 10
163.2906
 20
-251.4355
  0
VERTEX
  8
LAYER_1
 10
163.2469
 20
-251.3858
  0
VERTEX
  8
LAYER_1
 10
163.1835
 20
-251.3421
  0
VERTEX
  8
LAYER_1
 10
163.1043
 20
-251.3114
  0
VERTEX
  8
LAYER_1
 10
163.0126
 20
-251.3001
  0
VERTEX
  8
LAYER_1
 10
162.8338
 20
-251.3362
  0
VERTEX
  8
LAYER_1
 10
162.6998
 20
-251.4338
  0
VERTEX
  8
LAYER_1
 10
162.6147
 20
-251.5764
  0
VERTEX
  8
LAYER_1
 10
162.5868
 20
-251.7469
  0
VERTEX
  8
LAYER_1
 10
162.6164
 20
-251.9178
  0
VERTEX
  8
LAYER_1
 10
162.7012
 20
-252.0601
  0
VERTEX
  8
LAYER_1
 10
162.8356
 20
-252.1575
 42
0.1012189446
  0
VERTEX
  8
LAYER_1
 10
163.0126
 20
-252.1937
  0
VERTEX
  8
LAYER_1
 10
163.1804
 20
-252.1575
 42
0.1297589768
  0
VERTEX
  8
LAYER_1
 10
163.3148
 20
-252.0414
  0
SEQEND
  0
ENDBLK
  0
BLOCK
  8
LAYER_1
  2
AIGNBL01030023
 70
64
 10
0
 20
0
 30
0
  3
AIGNBL01030023
  0
POLYLINE
  8
LAYER_1
 40
0.05
 41
0.05
 66
1
 10
0
 20
0
 30
0
 70
1
  0
VERTEX
  8
LAYER_1
 10
163.8801
 20
-252.1676
  0
VERTEX
  8
LAYER_1
 10
164.4299
 20
-252.1676
  0
VERTEX
  8
LAYER_1
 10
164.4299
 20
-252.2609
  0
VERTEX
  8
LAYER_1
 10
163.7764
 20
-252.2609
  0
VERTEX
  8
LAYER_1
 10
163.7764
 20
-251.2339
  0
VERTEX
  8
LAYER_1
 10
164.4127
 20
-251.2339
  0
VERTEX
  8
LAYER_1
 10
164.4127
 20
-251.3263
  0
VERTEX
  8
LAYER_1
 10
163.8801
 20
-251.3263
  0
VERTEX
  8
LAYER_1
 10
163.8801
 20
-251.6787
  0
VERTEX
  8
LAYER_1
 10
164.3782
 20
-251.6787
  0
VERTEX
  8
LAYER_1
 10
164.3782
 20
-251.7717
  0
VERTEX
  8
LAYER_1
 10
163.8801
 20
-251.7717
  0
SEQEND
  0
ENDBLK
  0
BLOCK
  8
LAYER_1
  2
AIGNBL01030027
 70
64
 10
0
 20
0
 30
0
  3
AIGNBL01030027
  0
POLYLINE
  8
LAYER_1
 40
0.05
 41
0.05
 66
1
 10
0
 20
0
 30
0
 70
1
  0
VERTEX
  8
LAYER_1
 10
163.0505
 20
-173.2317
 42
0.08166015361
  0
VERTEX
  8
LAYER_1
 10
163.9998
 20
-173.6446
  0
VERTEX
  8
LAYER_1
 10
163.4894
 20
-173.8057
  0
VERTEX
  8
LAYER_1
 10
163.2003
 20
-174.256
 42
0.08376717677
  0
SEQEND
  0
ENDBLK
  0
BLOCK
  8
LAYER_3
  2
AIGNBL0303001D
 70
64
 10
0
 20
0
 30
0
  3
AIGNBL0303001D
  0
POLYLINE
  8
LAYER_3
 40
0.1058
 41
0.1058
 66
1
 10
0
 20
0
 30
0
  0
VERTEX
  8
LAYER_3
 10
43.0178
 20
-59.4379
  0
VERTEX
  8
LAYER_3
 10
89.0178
 20
-59.4379
  0
VERTEX
  8
LAYER_3
 10
96.1763
 20
-71.1394
  0
SEQEND
  0
INSERT
  8
LAYER_3
  2
AIGNBL0304001E
 10
0
 20
0
 30
0
  0
ENDBLK
  0
BLOCK
  8
LAYER_1
  2
AIGNBL01020003
 70
64
 10
0
 20
0
 30
0
  3
AIGNBL01020003
  0
INSERT
  8
LAYER_1
  2
AIGNBL01030004
 10
0
 20
0
 30
0
  0
ENDBLK
  0
BLOCK
  8
LAYER_1
  2
AIGNBL0102000C
 70
64
 10
0
 20
0
 30
0
  3
AIGNBL0102000C
  0
INSERT
  8
LAYER_1
  2
AIGNBL0103000D
 10
0
 20
0
 30
0
  0
INSERT
  8
LAYER_1
  2
AIGNBL0103000E
 10
0
 20
0
 30
0
  0
INSERT
  8
LAYER_1
  2
AIGNBL0103000F
 10
0
 20
0
 30
0
  0
INSERT
  8
LAYER_1
  2
AIGNBL01030010
 10
0
 20
0
 30
0
  0
INSERT
  8
LAYER_1
  2
AIGNBL01030011
 10
0
 20
0
 30
0
  0
INSERT
  8
LAYER_1
  2
AIGNBL01030012
 10
0
 20
0
 30
0
  0
INSERT
  8
LAYER_1
  2
AIGNBL01030013
 10
0
 20
0
 30
0
  0
INSERT
  8
LAYER_1
  2
AIGNBL01030014
 10
0
 20
0
 30
0
  0
INSERT
  8
LAYER_1
  2
AIGNBL01030015
 10
0
 20
0
 30
0
  0
INSERT
  8
LAYER_1
  2
AIGNBL01030016
 10
0
 20
0
 30
0
  0
INSERT
  8
LAYER_1
  2
AIGNBL01030017
 10
0
 20
0
 30
0
  0
INSERT
  8
LAYER_1
  2
AIGNBL01030018
 10
0
 20
0
 30
0
  0
INSERT
  8
LAYER_1
  2
AIGNBL01030019
 10
0
 20
0
 30
0
  0
INSERT
  8
LAYER_1
  2
AIGNBL0103001A
 10
0
 20
0
 30
0
  0
INSERT
  8
LAYER_1
  2
AIGNBL0103001B
 10
0
 20
0
 30
0
  0
INSERT
  8
LAYER_1
  2
AIGNBL0103001C
 10
0
 20
0
 30
0
  0
INSERT
  8
LAYER_1
  2
AIGNBL0103001D
 10
0
 20
0
 30
0
  0
INSERT
  8
LAYER_1
  2
AIGNBL0103001E
 10
0
 20
0
 30
0
  0
INSERT
  8
LAYER_1
  2
AIGNBL0103001F
 10
0
 20
0
 30
0
  0
INSERT
  8
LAYER_1
  2
AIGNBL01030020
 10
0
 20
0
 30
0
  0
INSERT
  8
LAYER_1
  2
AIGNBL01030021
 10
0
 20
0
 30
0
  0
INSERT
  8
LAYER_1
  2
AIGNBL01030022
 10
0
 20
0
 30
0
  0
INSERT
  8
LAYER_1
  2
AIGNBL01030023
 10
0
 20
0
 30
0
  0
ENDBLK
  0
BLOCK
  8
LAYER_1
  2
AIGNBL01020026
 70
64
 10
0
 20
0
 30
0
  3
AIGNBL01020026
  0
POLYLINE
  8
LAYER_1
 40
0.1058
 41
0.1058
 66
1
 10
0
 20
0
 30
0
  0
VERTEX
  8
LAYER_1
 10
195.3297
 20
-185.2262
  0
VERTEX
  8
LAYER_1
 10
172.2227
 20
-185.2262
  0
VERTEX
  8
LAYER_1
 10
163.4385
 20
-173.7391
  0
SEQEND
  0
INSERT
  8
LAYER_1
  2
AIGNBL01030027
 10
0
 20
0
 30
0
  0
ENDBLK
  0
BLOCK
  8
LAYER_3
  2
AIGNBL0302001C
 70
64
 10
0
 20
0
 30
0
  3
AIGNBL0302001C
  0
INSERT
  8
LAYER_3
  2
AIGNBL0303001D
 10
0
 20
0
 30
0
  0
ENDBLK
  0
BLOCK
  8
LAYER_1
  2
AIGNBL01010002
 70
64
 10
0
 20
0
 30
0
  3
AIGNBL01010002
  0
INSERT
  8
LAYER_1
  2
AIGNBL01020003
 10
0
 20
0
 30
0
  0
INSERT
  8
LAYER_1
  2
AIGNBL0102000C
 10
0
 20
0
 30
0
  0
ENDBLK
  0
BLOCK
  8
LAYER_1
  2
AIGNBL01010024
 70
64
 10
0
 20
0
 30
0
  3
AIGNBL01010024
  0
TEXT
  8
LAYER_1
 10
184.5265
 20
-183.5329
 11
184.5265
 21
-183.5329
 40
3.5541
 41
0.5
  1
G1 1/4
  0
ENDBLK
  0
BLOCK
  8
LAYER_1
  2
AIGNBL01010025
 70
64
 10
0
 20
0
 30
0
  3
AIGNBL01010025
  0
INSERT
  8
LAYER_1
  2
AIGNBL01020026
 10
0
 20
0
 30
0
  0
ENDBLK
  0
BLOCK
  8
LAYER_3
  2
AIGNBL03010002
 70
64
 10
0
 20
0
 30
0
  3
AIGNBL03010002
  0
POLYLINE
  8
LAYER_3
 40
0.1058
 41
0.1058
 66
1
 10
0
 20
0
 30
0
  0
VERTEX
  8
LAYER_3
 10
156.0857
 20
-85.1796
  0
VERTEX
  8
LAYER_3
 10
157.0356
 20
-85.1796
  0
VERTEX
  8
LAYER_3
 10
157.2356
 20
-85.1796
  0
SEQEND
  0
ENDBLK
  0
BLOCK
  8
LAYER_3
  2
AIGNBL03010003
 70
64
 10
0
 20
0
 30
0
  3
AIGNBL03010003
  0
POLYLINE
  8
LAYER_3
 40
0.1058
 41
0.1058
 66
1
 10
0
 20
0
 30
0
  0
VERTEX
  8
LAYER_3
 10
157.5356
 20
-85.6796
  0
VERTEX
  8
LAYER_3
 10
157.5356
 20
-88.2584
  0
SEQEND
  0
ENDBLK
  0
BLOCK
  8
LAYER_3
  2
AIGNBL03010004
 70
64
 10
0
 20
0
 30
0
  3
AIGNBL03010004
  0
POLYLINE
  8
LAYER_3
 40
0.1058
 41
0.1058
 66
1
 10
0
 20
0
 30
0
  0
VERTEX
  8
LAYER_3
 10
159.2739
 20
-114.9296
  0
VERTEX
  8
LAYER_3
 10
159.2939
 20
-114.891
  0
VERTEX
  8
LAYER_3
 10
159.3134
 20
-114.8523
  0
VERTEX
  8
LAYER_3
 10
159.3323
 20
-114.8134
  0
VERTEX
  8
LAYER_3
 10
159.3507
 20
-114.7744
  0
VERTEX
  8
LAYER_3
 10
159.3686
 20
-114.7351
  0
VERTEX
  8
LAYER_3
 10
159.386
 20
-114.6957
  0
VERTEX
  8
LAYER_3
 10
159.4029
 20
-114.6562
  0
VERTEX
  8
LAYER_3
 10
159.4193
 20
-114.6165
  0
VERTEX
  8
LAYER_3
 10
159.4351
 20
-114.5766
  0
VERTEX
  8
LAYER_3
 10
159.4505
 20
-114.5366
  0
VERTEX
  8
LAYER_3
 10
159.4653
 20
-114.4964
  0
VERTEX
  8
LAYER_3
 10
159.4797
 20
-114.4561
  0
VERTEX
  8
LAYER_3
 10
159.4935
 20
-114.4157
  0
VERTEX
  8
LAYER_3
 10
159.5069
 20
-114.3752
  0
VERTEX
  8
LAYER_3
 10
159.5198
 20
-114.3345
  0
VERTEX
  8
LAYER_3
 10
159.5321
 20
-114.2938
  0
VERTEX
  8
LAYER_3
 10
159.544
 20
-114.2529
  0
VERTEX
  8
LAYER_3
 10
159.5554
 20
-114.2119
  0
VERTEX
  8
LAYER_3
 10
159.5663
 20
-114.1708
  0
VERTEX
  8
LAYER_3
 10
159.5767
 20
-114.1296
  0
SEQEND
  0
ENDBLK
  0
BLOCK
  8
LAYER_3
  2
AIGNBL03010005
 70
64
 10
0
 20
0
 30
0
  3
AIGNBL03010005
  0
POLYLINE
  8
LAYER_3
 40
0.1058
 41
0.1058
 66
1
 10
0
 20
0
 30
0
  0
VERTEX
  8
LAYER_3
 10
157.407
 20
-114.9296
  0
VERTEX
  8
LAYER_3
 10
157.4367
 20
-114.9139
  0
VERTEX
  8
LAYER_3
 10
157.4665
 20
-114.8982
  0
VERTEX
  8
LAYER_3
 10
157.4962
 20
-114.8825
  0
VERTEX
  8
LAYER_3
 10
157.5259
 20
-114.8668
  0
VERTEX
  8
LAYER_3
 10
157.5556
 20
-114.8511
  0
VERTEX
  8
LAYER_3
 10
157.5852
 20
-114.8354
  0
VERTEX
  8
LAYER_3
 10
157.6147
 20
-114.8198
  0
VERTEX
  8
LAYER_3
 10
157.6441
 20
-114.8041
  0
VERTEX
  8
LAYER_3
 10
157.6735
 20
-114.7884
  0
VERTEX
  8
LAYER_3
 10
157.7027
 20
-114.7727
  0
VERTEX
  8
LAYER_3
 10
157.7318
 20
-114.7571
  0
VERTEX
  8
LAYER_3
 10
157.7608
 20
-114.7414
  0
VERTEX
  8
LAYER_3
 10
157.7896
 20
-114.7257
  0
VERTEX
  8
LAYER_3
 10
157.8183
 20
-114.7101
  0
VERTEX
  8
LAYER_3
 10
157.8468
 20
-114.6945
  0
VERTEX
  8
LAYER_3
 10
157.8752
 20
-114.6788
  0
VERTEX
  8
LAYER_3
 10
157.9033
 20
-114.6632
  0
VERTEX
  8
LAYER_3
 10
157.9312
 20
-114.6476
  0
VERTEX
  8
LAYER_3
 10
157.9589
 20
-114.632
  0
VERTEX
  8
LAYER_3
 10
157.9863
 20
-114.6165
  0
VERTEX
  8
LAYER_3
 10
158.0135
 20
-114.601
  0
VERTEX
  8
LAYER_3
 10
158.0404
 20
-114.5855
  0
VERTEX
  8
LAYER_3
 10
158.0669
 20
-114.57
  0
VERTEX
  8
LAYER_3
 10
158.0932
 20
-114.5546
  0
VERTEX
  8
LAYER_3
 10
158.1191
 20
-114.5393
  0
VERTEX
  8
LAYER_3
 10
158.1447
 20
-114.524
  0
VERTEX
  8
LAYER_3
 10
158.1698
 20
-114.5087
  0
VERTEX
  8
LAYER_3
 10
158.1947
 20
-114.4935
  0
VERTEX
  8
LAYER_3
 10
158.2192
 20
-114.4783
  0
VERTEX
  8
LAYER_3
 10
158.2436
 20
-114.4632
  0
SEQEND
  0
ENDBLK
  0
BLOCK
  8
LAYER_3
  2
AIGNBL03010006
 70
64
 10
0
 20
0
 30
0
  3
AIGNBL03010006
  0
POLYLINE
  8
LAYER_3
 40
0.1058
 41
0.1058
 66
1
 10
0
 20
0
 30
0
  0
VERTEX
  8
LAYER_3
 10
158.1867
 20
-113.7895
  0
VERTEX
  8
LAYER_3
 10
158.1755
 20
-113.8011
  0
VERTEX
  8
LAYER_3
 10
158.1394
 20
-113.8375
  0
VERTEX
  8
LAYER_3
 10
158.1019
 20
-113.8742
  0
VERTEX
  8
LAYER_3
 10
158.0631
 20
-113.9113
  0
VERTEX
  8
LAYER_3
 10
158.023
 20
-113.9488
  0
VERTEX
  8
LAYER_3
 10
157.9815
 20
-113.9867
  0
VERTEX
  8
LAYER_3
 10
157.9387
 20
-114.0249
  0
VERTEX
  8
LAYER_3
 10
157.8946
 20
-114.0634
  0
VERTEX
  8
LAYER_3
 10
157.8493
 20
-114.1023
  0
VERTEX
  8
LAYER_3
 10
157.8026
 20
-114.1415
  0
VERTEX
  8
LAYER_3
 10
157.7546
 20
-114.1811
  0
VERTEX
  8
LAYER_3
 10
157.7054
 20
-114.221
  0
VERTEX
  8
LAYER_3
 10
157.6549
 20
-114.2611
  0
VERTEX
  8
LAYER_3
 10
157.6032
 20
-114.3016
  0
VERTEX
  8
LAYER_3
 10
157.5502
 20
-114.3424
  0
VERTEX
  8
LAYER_3
 10
157.4961
 20
-114.3834
  0
VERTEX
  8
LAYER_3
 10
157.4409
 20
-114.4246
  0
VERTEX
  8
LAYER_3
 10
157.3845
 20
-114.4659
  0
VERTEX
  8
LAYER_3
 10
157.327
 20
-114.5075
  0
VERTEX
  8
LAYER_3
 10
157.2684
 20
-114.5492
  0
VERTEX
  8
LAYER_3
 10
157.2087
 20
-114.591
  0
VERTEX
  8
LAYER_3
 10
157.1478
 20
-114.633
  0
VERTEX
  8
LAYER_3
 10
157.086
 20
-114.6751
  0
VERTEX
  8
LAYER_3
 10
157.023
 20
-114.7174
  0
VERTEX
  8
LAYER_3
 10
156.959
 20
-114.7597
  0
VERTEX
  8
LAYER_3
 10
156.8939
 20
-114.8021
  0
VERTEX
  8
LAYER_3
 10
156.8278
 20
-114.8445
  0
VERTEX
  8
LAYER_3
 10
156.7607
 20
-114.887
  0
VERTEX
  8
LAYER_3
 10
156.6926
 20
-114.9296
  0
SEQEND
  0
ENDBLK
  0
BLOCK
  8
LAYER_3
  2
AIGNBL03010007
 70
64
 10
0
 20
0
 30
0
  3
AIGNBL03010007
  0
POLYLINE
  8
LAYER_3
 40
0.1058
 41
0.1058
 66
1
 10
0
 20
0
 30
0
  0
VERTEX
  8
LAYER_3
 10
158.4951
 20
-114.1296
  0
VERTEX
  8
LAYER_3
 10
158.4861
 20
-114.1681
  0
VERTEX
  8
LAYER_3
 10
158.4767
 20
-114.2069
  0
VERTEX
  8
LAYER_3
 10
158.4669
 20
-114.2458
  0
VERTEX
  8
LAYER_3
 10
158.4567
 20
-114.2849
  0
VERTEX
  8
LAYER_3
 10
158.4462
 20
-114.3241
  0
VERTEX
  8
LAYER_3
 10
158.4352
 20
-114.3635
  0
VERTEX
  8
LAYER_3
 10
158.4239
 20
-114.4031
  0
VERTEX
  8
LAYER_3
 10
158.4122
 20
-114.4429
  0
VERTEX
  8
LAYER_3
 10
158.4001
 20
-114.4827
  0
VERTEX
  8
LAYER_3
 10
158.3877
 20
-114.5228
  0
VERTEX
  8
LAYER_3
 10
158.3749
 20
-114.5629
  0
VERTEX
  8
LAYER_3
 10
158.3617
 20
-114.6032
  0
VERTEX
  8
LAYER_3
 10
158.3482
 20
-114.6436
  0
VERTEX
  8
LAYER_3
 10
158.3343
 20
-114.6842
  0
VERTEX
  8
LAYER_3
 10
158.32
 20
-114.7248
  0
VERTEX
  8
LAYER_3
 10
158.3054
 20
-114.7656
  0
VERTEX
  8
LAYER_3
 10
158.2905
 20
-114.8064
  0
VERTEX
  8
LAYER_3
 10
158.2752
 20
-114.8474
  0
VERTEX
  8
LAYER_3
 10
158.2596
 20
-114.8884
  0
VERTEX
  8
LAYER_3
 10
158.2436
 20
-114.9296
  0
SEQEND
  0
ENDBLK
  0
BLOCK
  8
LAYER_3
  2
AIGNBL03010008
 70
64
 10
0
 20
0
 30
0
  3
AIGNBL03010008
  0
POLYLINE
  8
LAYER_3
 40
0.1058
 41
0.1058
 66
1
 10
0
 20
0
 30
0
  0
VERTEX
  8
LAYER_3
 10
159.6857
 20
-135.2796
  0
VERTEX
  8
LAYER_3
 10
159.7846
 20
-135.2796
  0
SEQEND
  0
ENDBLK
  0
BLOCK
  8
LAYER_3
  2
AIGNBL03010009
 70
64
 10
0
 20
0
 30
0
  3
AIGNBL03010009
  0
POLYLINE
  8
LAYER_3
 40
0.1058
 41
0.1058
 66
1
 10
0
 20
0
 30
0
  0
VERTEX
  8
LAYER_3
 10
158.7682
 20
-117.6296
  0
VERTEX
  8
LAYER_3
 10
158.8099
 20
-117.6763
  0
VERTEX
  8
LAYER_3
 10
158.8506
 20
-117.7227
  0
VERTEX
  8
LAYER_3
 10
158.8904
 20
-117.7689
  0
VERTEX
  8
LAYER_3
 10
158.9292
 20
-117.8147
  0
VERTEX
  8
LAYER_3
 10
158.967
 20
-117.8604
  0
VERTEX
  8
LAYER_3
 10
159.0039
 20
-117.9057
  0
VERTEX
  8
LAYER_3
 10
159.0397
 20
-117.9509
  0
VERTEX
  8
LAYER_3
 10
159.0746
 20
-117.9959
  0
VERTEX
  8
LAYER_3
 10
159.1084
 20
-118.0407
  0
VERTEX
  8
LAYER_3
 10
159.1413
 20
-118.0853
  0
VERTEX
  8
LAYER_3
 10
159.1732
 20
-118.1299
  0
VERTEX
  8
LAYER_3
 10
159.204
 20
-118.1742
  0
VERTEX
  8
LAYER_3
 10
159.2339
 20
-118.2185
  0
VERTEX
  8
LAYER_3
 10
159.2627
 20
-118.2627
  0
VERTEX
  8
LAYER_3
 10
159.2905
 20
-118.3068
  0
VERTEX
  8
LAYER_3
 10
159.3172
 20
-118.3509
  0
VERTEX
  8
LAYER_3
 10
159.3429
 20
-118.395
  0
VERTEX
  8
LAYER_3
 10
159.3676
 20
-118.439
  0
VERTEX
  8
LAYER_3
 10
159.3913
 20
-118.4831
  0
VERTEX
  8
LAYER_3
 10
159.4138
 20
-118.5271
  0
VERTEX
  8
LAYER_3
 10
159.4354
 20
-118.5713
  0
VERTEX
  8
LAYER_3
 10
159.4558
 20
-118.6155
  0
VERTEX
  8
LAYER_3
 10
159.4752
 20
-118.6598
  0
VERTEX
  8
LAYER_3
 10
159.4936
 20
-118.7041
  0
VERTEX
  8
LAYER_3
 10
159.5108
 20
-118.7486
  0
VERTEX
  8
LAYER_3
 10
159.527
 20
-118.7931
  0
VERTEX
  8
LAYER_3
 10
159.542
 20
-118.8378
  0
VERTEX
  8
LAYER_3
 10
159.5559
 20
-118.8825
  0
VERTEX
  8
LAYER_3
 10
159.5687
 20
-118.9272
  0
VERTEX
  8
LAYER_3
 10
159.5804
 20
-118.9721
  0
VERTEX
  8
LAYER_3
 10
159.5909
 20
-119.0171
  0
VERTEX
  8
LAYER_3
 10
159.6003
 20
-119.0622
  0
VERTEX
  8
LAYER_3
 10
159.6086
 20
-119.1074
  0
VERTEX
  8
LAYER_3
 10
159.6158
 20
-119.1528
  0
VERTEX
  8
LAYER_3
 10
159.6219
 20
-119.1984
  0
VERTEX
  8
LAYER_3
 10
159.6269
 20
-119.2441
  0
VERTEX
  8
LAYER_3
 10
159.6307
 20
-119.2901
  0
VERTEX
  8
LAYER_3
 10
159.6335
 20
-119.3363
  0
VERTEX
  8
LAYER_3
 10
159.6351
 20
-119.3828
  0
VERTEX
  8
LAYER_3
 10
159.6357
 20
-119.4296
  0
SEQEND
  0
ENDBLK
  0
BLOCK
  8
LAYER_3
  2
AIGNBL0301000A
 70
64
 10
0
 20
0
 30
0
  3
AIGNBL0301000A
  0
POLYLINE
  8
LAYER_3
 40
0.1058
 41
0.1058
 66
1
 10
0
 20
0
 30
0
  0
VERTEX
  8
LAYER_3
 10
156.4232
 20
-117.6296
  0
VERTEX
  8
LAYER_3
 10
156.4754
 20
-117.6632
  0
VERTEX
  8
LAYER_3
 10
156.5277
 20
-117.6969
  0
VERTEX
  8
LAYER_3
 10
156.5798
 20
-117.7305
  0
VERTEX
  8
LAYER_3
 10
156.6319
 20
-117.764
  0
VERTEX
  8
LAYER_3
 10
156.6838
 20
-117.7976
  0
VERTEX
  8
LAYER_3
 10
156.7356
 20
-117.831
  0
VERTEX
  8
LAYER_3
 10
156.7872
 20
-117.8644
  0
VERTEX
  8
LAYER_3
 10
156.8385
 20
-117.8976
  0
VERTEX
  8
LAYER_3
 10
156.8896
 20
-117.9308
  0
VERTEX
  8
LAYER_3
 10
156.9405
 20
-117.9638
  0
VERTEX
  8
LAYER_3
 10
156.991
 20
-117.9968
  0
VERTEX
  8
LAYER_3
 10
157.0411
 20
-118.0296
  0
VERTEX
  8
LAYER_3
 10
157.0908
 20
-118.0623
  0
VERTEX
  8
LAYER_3
 10
157.1401
 20
-118.095
  0
VERTEX
  8
LAYER_3
 10
157.1889
 20
-118.1275
  0
VERTEX
  8
LAYER_3
 10
157.2371
 20
-118.1601
  0
VERTEX
  8
LAYER_3
 10
157.2848
 20
-118.1925
  0
VERTEX
  8
LAYER_3
 10
157.3318
 20
-118.225
  0
VERTEX
  8
LAYER_3
 10
157.3783
 20
-118.2574
  0
VERTEX
  8
LAYER_3
 10
157.4241
 20
-118.2897
  0
VERTEX
  8
LAYER_3
 10
157.4695
 20
-118.3221
  0
VERTEX
  8
LAYER_3
 10
157.5143
 20
-118.3544
  0
VERTEX
  8
LAYER_3
 10
157.5587
 20
-118.3867
  0
VERTEX
  8
LAYER_3
 10
157.6028
 20
-118.419
  0
VERTEX
  8
LAYER_3
 10
157.6465
 20
-118.4513
  0
VERTEX
  8
LAYER_3
 10
157.69
 20
-118.4835
  0
VERTEX
  8
LAYER_3
 10
157.7332
 20
-118.5158
  0
VERTEX
  8
LAYER_3
 10
157.7763
 20
-118.548
  0
VERTEX
  8
LAYER_3
 10
157.8193
 20
-118.5803
  0
VERTEX
  8
LAYER_3
 10
157.8622
 20
-118.6125
  0
SEQEND
  0
ENDBLK
  0
BLOCK
  8
LAYER_3
  2
AIGNBL0301000B
 70
64
 10
0
 20
0
 30
0
  3
AIGNBL0301000B
  0
POLYLINE
  8
LAYER_3
 40
0.1058
 41
0.1058
 66
1
 10
0
 20
0
 30
0
  0
VERTEX
  8
LAYER_3
 10
157.8622
 20
-117.6296
  0
VERTEX
  8
LAYER_3
 10
157.8969
 20
-117.6761
  0
VERTEX
  8
LAYER_3
 10
157.9307
 20
-117.7224
  0
VERTEX
  8
LAYER_3
 10
157.9638
 20
-117.7685
  0
VERTEX
  8
LAYER_3
 10
157.9961
 20
-117.8142
  0
VERTEX
  8
LAYER_3
 10
158.0276
 20
-117.8598
  0
VERTEX
  8
LAYER_3
 10
158.0583
 20
-117.9052
  0
VERTEX
  8
LAYER_3
 10
158.0882
 20
-117.9503
  0
VERTEX
  8
LAYER_3
 10
158.1173
 20
-117.9953
  0
VERTEX
  8
LAYER_3
 10
158.1456
 20
-118.0401
  0
VERTEX
  8
LAYER_3
 10
158.173
 20
-118.0848
  0
VERTEX
  8
LAYER_3
 10
158.1996
 20
-118.1294
  0
VERTEX
  8
LAYER_3
 10
158.2254
 20
-118.1738
  0
VERTEX
  8
LAYER_3
 10
158.2504
 20
-118.2182
  0
VERTEX
  8
LAYER_3
 10
158.2744
 20
-118.2625
  0
VERTEX
  8
LAYER_3
 10
158.2977
 20
-118.3067
  0
VERTEX
  8
LAYER_3
 10
158.32
 20
-118.3509
  0
VERTEX
  8
LAYER_3
 10
158.3416
 20
-118.395
  0
VERTEX
  8
LAYER_3
 10
158.3622
 20
-118.4392
  0
VERTEX
  8
LAYER_3
 10
158.382
 20
-118.4833
  0
VERTEX
  8
LAYER_3
 10
158.4008
 20
-118.5275
  0
VERTEX
  8
LAYER_3
 10
158.4188
 20
-118.5717
  0
VERTEX
  8
LAYER_3
 10
158.4359
 20
-118.616
  0
VERTEX
  8
LAYER_3
 10
158.4521
 20
-118.6604
  0
VERTEX
  8
LAYER_3
 10
158.4674
 20
-118.7048
  0
VERTEX
  8
LAYER_3
 10
158.4818
 20
-118.7494
  0
VERTEX
  8
LAYER_3
 10
158.4952
 20
-118.7939
  0
VERTEX
  8
LAYER_3
 10
158.5078
 20
-118.8386
  0
VERTEX
  8
LAYER_3
 10
158.5194
 20
-118.8833
  0
VERTEX
  8
LAYER_3
 10
158.53
 20
-118.9281
  0
VERTEX
  8
LAYER_3
 10
158.5397
 20
-118.973
  0
VERTEX
  8
LAYER_3
 10
158.5485
 20
-119.0179
  0
VERTEX
  8
LAYER_3
 10
158.5563
 20
-119.063
  0
VERTEX
  8
LAYER_3
 10
158.5632
 20
-119.1081
  0
VERTEX
  8
LAYER_3
 10
158.5692
 20
-119.1535
  0
VERTEX
  8
LAYER_3
 10
158.5743
 20
-119.199
  0
VERTEX
  8
LAYER_3
 10
158.5784
 20
-119.2447
  0
VERTEX
  8
LAYER_3
 10
158.5816
 20
-119.2906
  0
VERTEX
  8
LAYER_3
 10
158.5839
 20
-119.3366
  0
VERTEX
  8
LAYER_3
 10
158.5852
 20
-119.383
  0
VERTEX
  8
LAYER_3
 10
158.5857
 20
-119.4296
  0
SEQEND
  0
ENDBLK
  0
BLOCK
  8
LAYER_3
  2
AIGNBL0301000C
 70
64
 10
0
 20
0
 30
0
  3
AIGNBL0301000C
  0
POLYLINE
  8
LAYER_3
 40
0.1058
 41
0.1058
 66
1
 10
0
 20
0
 30
0
  0
VERTEX
  8
LAYER_3
 10
156.3857
 20
-118.018
  0
VERTEX
  8
LAYER_3
 10
156.4697
 20
-118.0848
  0
VERTEX
  8
LAYER_3
 10
156.5254
 20
-118.1294
  0
VERTEX
  8
LAYER_3
 10
156.5806
 20
-118.1738
  0
VERTEX
  8
LAYER_3
 10
156.6352
 20
-118.2182
  0
VERTEX
  8
LAYER_3
 10
156.6893
 20
-118.2625
  0
VERTEX
  8
LAYER_3
 10
156.7428
 20
-118.3067
  0
VERTEX
  8
LAYER_3
 10
156.7958
 20
-118.3509
  0
VERTEX
  8
LAYER_3
 10
156.8482
 20
-118.395
  0
VERTEX
  8
LAYER_3
 10
156.8999
 20
-118.4392
  0
VERTEX
  8
LAYER_3
 10
156.9511
 20
-118.4833
  0
VERTEX
  8
LAYER_3
 10
157.0017
 20
-118.5275
  0
VERTEX
  8
LAYER_3
 10
157.0517
 20
-118.5717
  0
VERTEX
  8
LAYER_3
 10
157.1011
 20
-118.616
  0
VERTEX
  8
LAYER_3
 10
157.1498
 20
-118.6604
  0
VERTEX
  8
LAYER_3
 10
157.1978
 20
-118.7048
  0
VERTEX
  8
LAYER_3
 10
157.2452
 20
-118.7494
  0
VERTEX
  8
LAYER_3
 10
157.2919
 20
-118.7939
  0
VERTEX
  8
LAYER_3
 10
157.3378
 20
-118.8386
  0
VERTEX
  8
LAYER_3
 10
157.383
 20
-118.8833
  0
VERTEX
  8
LAYER_3
 10
157.4274
 20
-118.9281
  0
VERTEX
  8
LAYER_3
 10
157.4709
 20
-118.973
  0
VERTEX
  8
LAYER_3
 10
157.5137
 20
-119.0179
  0
VERTEX
  8
LAYER_3
 10
157.5557
 20
-119.063
  0
VERTEX
  8
LAYER_3
 10
157.5968
 20
-119.1081
  0
VERTEX
  8
LAYER_3
 10
157.6372
 20
-119.1535
  0
VERTEX
  8
LAYER_3
 10
157.6767
 20
-119.199
  0
VERTEX
  8
LAYER_3
 10
157.7155
 20
-119.2447
  0
VERTEX
  8
LAYER_3
 10
157.7534
 20
-119.2906
  0
VERTEX
  8
LAYER_3
 10
157.7905
 20
-119.3366
  0
VERTEX
  8
LAYER_3
 10
157.8268
 20
-119.383
  0
VERTEX
  8
LAYER_3
 10
157.8622
 20
-119.4296
  0
SEQEND
  0
ENDBLK
  0
BLOCK
  8
LAYER_3
  2
AIGNBL0301000D
 70
64
 10
0
 20
0
 30
0
  3
AIGNBL0301000D
  0
POLYLINE
  8
LAYER_3
 40
0.1058
 41
0.1058
 66
1
 10
0
 20
0
 30
0
  0
VERTEX
  8
LAYER_3
 10
170.3857
 20
-135.8296
  0
VERTEX
  8
LAYER_3
 10
159.9857
 20
-135.8296
  0
SEQEND
  0
ENDBLK
  0
BLOCK
  8
LAYER_3
  2
AIGNBL0301000E
 70
64
 10
0
 20
0
 30
0
  3
AIGNBL0301000E
  0
POLYLINE
  8
LAYER_3
 40
0.1058
 41
0.1058
 66
1
 10
0
 20
0
 30
0
  0
VERTEX
  8
LAYER_3
 10
156.9588
 20
-123.345
  0
VERTEX
  8
LAYER_3
 10
156.8055
 20
-132.1296
  0
VERTEX
  8
LAYER_3
 10
156.7933
 20
-132.8296
  0
VERTEX
  8
LAYER_3
 10
156.7443
 20
-135.6383
  0
SEQEND
  0
ENDBLK
  0
BLOCK
  8
LAYER_3
  2
AIGNBL0301000F
 70
64
 10
0
 20
0
 30
0
  3
AIGNBL0301000F
  0
POLYLINE
  8
LAYER_3
 40
0.1058
 41
0.1058
 66
1
 10
0
 20
0
 30
0
  0
VERTEX
  8
LAYER_3
 10
158.7682
 20
-117.6296
  0
VERTEX
  8
LAYER_3
 10
158.8099
 20
-117.6763
  0
VERTEX
  8
LAYER_3
 10
158.8506
 20
-117.7227
  0
VERTEX
  8
LAYER_3
 10
158.8904
 20
-117.7689
  0
VERTEX
  8
LAYER_3
 10
158.9292
 20
-117.8147
  0
VERTEX
  8
LAYER_3
 10
158.967
 20
-117.8604
  0
VERTEX
  8
LAYER_3
 10
159.0039
 20
-117.9057
  0
VERTEX
  8
LAYER_3
 10
159.0397
 20
-117.9509
  0
VERTEX
  8
LAYER_3
 10
159.0746
 20
-117.9959
  0
VERTEX
  8
LAYER_3
 10
159.1084
 20
-118.0407
  0
VERTEX
  8
LAYER_3
 10
159.1413
 20
-118.0853
  0
VERTEX
  8
LAYER_3
 10
159.1732
 20
-118.1299
  0
VERTEX
  8
LAYER_3
 10
159.204
 20
-118.1742
  0
VERTEX
  8
LAYER_3
 10
159.2339
 20
-118.2185
  0
VERTEX
  8
LAYER_3
 10
159.2627
 20
-118.2627
  0
VERTEX
  8
LAYER_3
 10
159.2905
 20
-118.3068
  0
VERTEX
  8
LAYER_3
 10
159.3172
 20
-118.3509
  0
VERTEX
  8
LAYER_3
 10
159.3429
 20
-118.395
  0
VERTEX
  8
LAYER_3
 10
159.3676
 20
-118.439
  0
VERTEX
  8
LAYER_3
 10
159.3913
 20
-118.4831
  0
VERTEX
  8
LAYER_3
 10
159.4138
 20
-118.5271
  0
VERTEX
  8
LAYER_3
 10
159.4354
 20
-118.5713
  0
VERTEX
  8
LAYER_3
 10
159.4558
 20
-118.6155
  0
VERTEX
  8
LAYER_3
 10
159.4752
 20
-118.6598
  0
VERTEX
  8
LAYER_3
 10
159.4936
 20
-118.7041
  0
VERTEX
  8
LAYER_3
 10
159.5108
 20
-118.7486
  0
VERTEX
  8
LAYER_3
 10
159.527
 20
-118.7931
  0
VERTEX
  8
LAYER_3
 10
159.542
 20
-118.8378
  0
VERTEX
  8
LAYER_3
 10
159.5559
 20
-118.8825
  0
VERTEX
  8
LAYER_3
 10
159.5687
 20
-118.9272
  0
VERTEX
  8
LAYER_3
 10
159.5804
 20
-118.9721
  0
VERTEX
  8
LAYER_3
 10
159.5909
 20
-119.0171
  0
VERTEX
  8
LAYER_3
 10
159.6003
 20
-119.0622
  0
VERTEX
  8
LAYER_3
 10
159.6086
 20
-119.1074
  0
VERTEX
  8
LAYER_3
 10
159.6158
 20
-119.1528
  0
VERTEX
  8
LAYER_3
 10
159.6219
 20
-119.1984
  0
VERTEX
  8
LAYER_3
 10
159.6269
 20
-119.2441
  0
VERTEX
  8
LAYER_3
 10
159.6307
 20
-119.2901
  0
VERTEX
  8
LAYER_3
 10
159.6335
 20
-119.3363
  0
VERTEX
  8
LAYER_3
 10
159.6351
 20
-119.3828
  0
VERTEX
  8
LAYER_3
 10
159.6357
 20
-119.4296
  0
SEQEND
  0
ENDBLK
  0
BLOCK
  8
LAYER_3
  2
AIGNBL03010010
 70
64
 10
0
 20
0
 30
0
  3
AIGNBL03010010
  0
POLYLINE
  8
LAYER_3
 40
0.1058
 41
0.1058
 66
1
 10
0
 20
0
 30
0
  0
VERTEX
  8
LAYER_3
 10
156.4232
 20
-117.6296
  0
VERTEX
  8
LAYER_3
 10
156.4754
 20
-117.6632
  0
VERTEX
  8
LAYER_3
 10
156.5277
 20
-117.6969
  0
VERTEX
  8
LAYER_3
 10
156.5798
 20
-117.7305
  0
VERTEX
  8
LAYER_3
 10
156.6319
 20
-117.764
  0
VERTEX
  8
LAYER_3
 10
156.6838
 20
-117.7976
  0
VERTEX
  8
LAYER_3
 10
156.7356
 20
-117.831
  0
VERTEX
  8
LAYER_3
 10
156.7872
 20
-117.8644
  0
VERTEX
  8
LAYER_3
 10
156.8385
 20
-117.8976
  0
VERTEX
  8
LAYER_3
 10
156.8896
 20
-117.9308
  0
VERTEX
  8
LAYER_3
 10
156.9405
 20
-117.9638
  0
VERTEX
  8
LAYER_3
 10
156.991
 20
-117.9968
  0
VERTEX
  8
LAYER_3
 10
157.0411
 20
-118.0296
  0
VERTEX
  8
LAYER_3
 10
157.0908
 20
-118.0623
  0
VERTEX
  8
LAYER_3
 10
157.1401
 20
-118.095
  0
VERTEX
  8
LAYER_3
 10
157.1889
 20
-118.1275
  0
VERTEX
  8
LAYER_3
 10
157.2371
 20
-118.1601
  0
VERTEX
  8
LAYER_3
 10
157.2848
 20
-118.1925
  0
VERTEX
  8
LAYER_3
 10
157.3318
 20
-118.225
  0
VERTEX
  8
LAYER_3
 10
157.3783
 20
-118.2574
  0
VERTEX
  8
LAYER_3
 10
157.4241
 20
-118.2897
  0
VERTEX
  8
LAYER_3
 10
157.4695
 20
-118.3221
  0
VERTEX
  8
LAYER_3
 10
157.5143
 20
-118.3544
  0
VERTEX
  8
LAYER_3
 10
157.5587
 20
-118.3867
  0
VERTEX
  8
LAYER_3
 10
157.6028
 20
-118.419
  0
VERTEX
  8
LAYER_3
 10
157.6465
 20
-118.4513
  0
VERTEX
  8
LAYER_3
 10
157.69
 20
-118.4835
  0
VERTEX
  8
LAYER_3
 10
157.7332
 20
-118.5158
  0
VERTEX
  8
LAYER_3
 10
157.7763
 20
-118.548
  0
VERTEX
  8
LAYER_3
 10
157.8193
 20
-118.5803
  0
VERTEX
  8
LAYER_3
 10
157.8622
 20
-118.6125
  0
SEQEND
  0
ENDBLK
  0
BLOCK
  8
LAYER_3
  2
AIGNBL03010011
 70
64
 10
0
 20
0
 30
0
  3
AIGNBL03010011
  0
POLYLINE
  8
LAYER_3
 40
0.1058
 41
0.1058
 66
1
 10
0
 20
0
 30
0
  0
VERTEX
  8
LAYER_3
 10
157.8622
 20
-117.6296
  0
VERTEX
  8
LAYER_3
 10
157.8969
 20
-117.6761
  0
VERTEX
  8
LAYER_3
 10
157.9307
 20
-117.7224
  0
VERTEX
  8
LAYER_3
 10
157.9638
 20
-117.7685
  0
VERTEX
  8
LAYER_3
 10
157.9961
 20
-117.8142
  0
VERTEX
  8
LAYER_3
 10
158.0276
 20
-117.8598
  0
VERTEX
  8
LAYER_3
 10
158.0583
 20
-117.9052
  0
VERTEX
  8
LAYER_3
 10
158.0882
 20
-117.9503
  0
VERTEX
  8
LAYER_3
 10
158.1173
 20
-117.9953
  0
VERTEX
  8
LAYER_3
 10
158.1456
 20
-118.0401
  0
VERTEX
  8
LAYER_3
 10
158.173
 20
-118.0848
  0
VERTEX
  8
LAYER_3
 10
158.1996
 20
-118.1294
  0
VERTEX
  8
LAYER_3
 10
158.2254
 20
-118.1738
  0
VERTEX
  8
LAYER_3
 10
158.2504
 20
-118.2182
  0
VERTEX
  8
LAYER_3
 10
158.2744
 20
-118.2625
  0
VERTEX
  8
LAYER_3
 10
158.2977
 20
-118.3067
  0
VERTEX
  8
LAYER_3
 10
158.32
 20
-118.3509
  0
VERTEX
  8
LAYER_3
 10
158.3416
 20
-118.395
  0
VERTEX
  8
LAYER_3
 10
158.3622
 20
-118.4392
  0
VERTEX
  8
LAYER_3
 10
158.382
 20
-118.4833
  0
VERTEX
  8
LAYER_3
 10
158.4008
 20
-118.5275
  0
VERTEX
  8
LAYER_3
 10
158.4188
 20
-118.5717
  0
VERTEX
  8
LAYER_3
 10
158.4359
 20
-118.616
  0
VERTEX
  8
LAYER_3
 10
158.4521
 20
-118.6604
  0
VERTEX
  8
LAYER_3
 10
158.4674
 20
-118.7048
  0
VERTEX
  8
LAYER_3
 10
158.4818
 20
-118.7494
  0
VERTEX
  8
LAYER_3
 10
158.4952
 20
-118.7939
  0
VERTEX
  8
LAYER_3
 10
158.5078
 20
-118.8386
  0
VERTEX
  8
LAYER_3
 10
158.5194
 20
-118.8833
  0
VERTEX
  8
LAYER_3
 10
158.53
 20
-118.9281
  0
VERTEX
  8
LAYER_3
 10
158.5397
 20
-118.973
  0
VERTEX
  8
LAYER_3
 10
158.5485
 20
-119.0179
  0
VERTEX
  8
LAYER_3
 10
158.5563
 20
-119.063
  0
VERTEX
  8
LAYER_3
 10
158.5632
 20
-119.1081
  0
VERTEX
  8
LAYER_3
 10
158.5692
 20
-119.1535
  0
VERTEX
  8
LAYER_3
 10
158.5743
 20
-119.199
  0
VERTEX
  8
LAYER_3
 10
158.5784
 20
-119.2447
  0
VERTEX
  8
LAYER_3
 10
158.5816
 20
-119.2906
  0
VERTEX
  8
LAYER_3
 10
158.5839
 20
-119.3366
  0
VERTEX
  8
LAYER_3
 10
158.5852
 20
-119.383
  0
VERTEX
  8
LAYER_3
 10
158.5857
 20
-119.4296
  0
SEQEND
  0
ENDBLK
  0
BLOCK
  8
LAYER_3
  2
AIGNBL03010012
 70
64
 10
0
 20
0
 30
0
  3
AIGNBL03010012
  0
POLYLINE
  8
LAYER_3
 40
0.1058
 41
0.1058
 66
1
 10
0
 20
0
 30
0
  0
VERTEX
  8
LAYER_3
 10
156.4135
 20
-118.0401
  0
VERTEX
  8
LAYER_3
 10
156.4697
 20
-118.0848
  0
VERTEX
  8
LAYER_3
 10
156.5254
 20
-118.1294
  0
VERTEX
  8
LAYER_3
 10
156.5806
 20
-118.1738
  0
VERTEX
  8
LAYER_3
 10
156.6352
 20
-118.2182
  0
VERTEX
  8
LAYER_3
 10
156.6893
 20
-118.2625
  0
VERTEX
  8
LAYER_3
 10
156.7428
 20
-118.3067
  0
VERTEX
  8
LAYER_3
 10
156.7958
 20
-118.3509
  0
VERTEX
  8
LAYER_3
 10
156.8482
 20
-118.395
  0
VERTEX
  8
LAYER_3
 10
156.8999
 20
-118.4392
  0
VERTEX
  8
LAYER_3
 10
156.9511
 20
-118.4833
  0
VERTEX
  8
LAYER_3
 10
157.0017
 20
-118.5275
  0
VERTEX
  8
LAYER_3
 10
157.0517
 20
-118.5717
  0
VERTEX
  8
LAYER_3
 10
157.1011
 20
-118.616
  0
VERTEX
  8
LAYER_3
 10
157.1498
 20
-118.6604
  0
VERTEX
  8
LAYER_3
 10
157.1978
 20
-118.7048
  0
VERTEX
  8
LAYER_3
 10
157.2452
 20
-118.7494
  0
VERTEX
  8
LAYER_3
 10
157.2919
 20
-118.7939
  0
VERTEX
  8
LAYER_3
 10
157.3378
 20
-118.8386
  0
VERTEX
  8
LAYER_3
 10
157.383
 20
-118.8833
  0
VERTEX
  8
LAYER_3
 10
157.4274
 20
-118.9281
  0
VERTEX
  8
LAYER_3
 10
157.4709
 20
-118.973
  0
VERTEX
  8
LAYER_3
 10
157.5137
 20
-119.0179
  0
VERTEX
  8
LAYER_3
 10
157.5557
 20
-119.063
  0
VERTEX
  8
LAYER_3
 10
157.5968
 20
-119.1081
  0
VERTEX
  8
LAYER_3
 10
157.6372
 20
-119.1535
  0
VERTEX
  8
LAYER_3
 10
157.6767
 20
-119.199
  0
VERTEX
  8
LAYER_3
 10
157.7155
 20
-119.2447
  0
VERTEX
  8
LAYER_3
 10
157.7534
 20
-119.2906
  0
VERTEX
  8
LAYER_3
 10
157.7905
 20
-119.3366
  0
VERTEX
  8
LAYER_3
 10
157.8268
 20
-119.383
  0
VERTEX
  8
LAYER_3
 10
157.8622
 20
-119.4296
  0
SEQEND
  0
ENDBLK
  0
BLOCK
  8
LAYER_3
  2
AIGNBL03010013
 70
64
 10
0
 20
0
 30
0
  3
AIGNBL03010013
  0
POLYLINE
  8
LAYER_3
 40
0.1058
 41
0.1058
 66
1
 10
0
 20
0
 30
0
  0
VERTEX
  8
LAYER_3
 10
156.7443
 20
-135.6383
  0
VERTEX
  8
LAYER_3
 10
156.7933
 20
-132.8296
  0
VERTEX
  8
LAYER_3
 10
156.8055
 20
-132.1296
  0
VERTEX
  8
LAYER_3
 10
156.9588
 20
-123.345
  0
SEQEND
  0
ENDBLK
  0
BLOCK
  8
LAYER_3
  2
AIGNBL03010014
 70
64
 10
0
 20
0
 30
0
  3
AIGNBL03010014
  0
POLYLINE
  8
LAYER_3
 40
0.1058
 41
0.1058
 66
1
 10
0
 20
0
 30
0
  0
VERTEX
  8
LAYER_3
 10
158.4356
 20
-71.6296
  0
VERTEX
  8
LAYER_3
 10
158.4356
 20
-74.6296
  0
SEQEND
  0
ENDBLK
  0
BLOCK
  8
LAYER_3
  2
AIGNBL03010015
 70
64
 10
0
 20
0
 30
0
  3
AIGNBL03010015
  0
POLYLINE
  8
LAYER_3
 40
0.1058
 41
0.1058
 66
1
 10
0
 20
0
 30
0
  0
VERTEX
  8
LAYER_3
 10
158.4356
 20
-74.6296
  0
VERTEX
  8
LAYER_3
 10
156.0857
 20
-74.6296
  0
SEQEND
  0
ENDBLK
  0
BLOCK
  8
LAYER_3
  2
AIGNBL03010016
 70
64
 10
0
 20
0
 30
0
  3
AIGNBL03010016
  0
POLYLINE
  8
LAYER_3
 40
0.1058
 41
0.1058
 66
1
 10
0
 20
0
 30
0
  0
VERTEX
  8
LAYER_3
 10
157.9356
 20
-71.1296
  0
VERTEX
  8
LAYER_3
 10
156.0857
 20
-71.1296
  0
SEQEND
  0
ENDBLK
  0
BLOCK
  8
LAYER_3
  2
AIGNBL03010017
 70
64
 10
0
 20
0
 30
0
  3
AIGNBL03010017
  0
POLYLINE
  8
LAYER_3
 40
0.1058
 41
0.1058
 66
1
 10
0
 20
0
 30
0
  0
VERTEX
  8
LAYER_3
 10
156.1356
 20
-67.4796
  0
VERTEX
  8
LAYER_3
 10
156.1356
 20
-71.1296
  0
SEQEND
  0
ENDBLK
  0
BLOCK
  8
LAYER_3
  2
AIGNBL03010018
 70
64
 10
0
 20
0
 30
0
  3
AIGNBL03010018
  0
POLYLINE
  8
LAYER_3
 40
0.1058
 41
0.1058
 66
1
 10
0
 20
0
 30
0
  0
VERTEX
  8
LAYER_3
 10
160.1899
 20
-68.8296
  0
VERTEX
  8
LAYER_3
 10
159.4578
 20
-68.8296
  0
SEQEND
  0
ENDBLK
  0
BLOCK
  8
LAYER_3
  2
AIGNBL03010019
 70
64
 10
0
 20
0
 30
0
  3
AIGNBL03010019
  0
POLYLINE
  8
LAYER_3
 40
0.1058
 41
0.1058
 66
1
 10
0
 20
0
 30
0
  0
VERTEX
  8
LAYER_3
 10
167.1856
 20
-61.9497
  0
VERTEX
  8
LAYER_3
 10
167.1856
 20
-63.3296
  0
SEQEND
  0
POLYLINE
  8
LAYER_3
 40
0.1058
 41
0.1058
 66
1
 10
0
 20
0
 30
0
  0
VERTEX
  8
LAYER_3
 10
167.1856
 20
-68.0296
  0
VERTEX
  8
LAYER_3
 10
167.1856
 20
-71.5296
  0
SEQEND
  0
ENDBLK
  0
BLOCK
  8
LAYER_3
  2
AIGNBL0301001A
 70
64
 10
0
 20
0
 30
0
  3
AIGNBL0301001A
  0
POLYLINE
  8
LAYER_3
 40
0.1058
 41
0.1058
 66
1
 10
0
 20
0
 30
0
  0
VERTEX
  8
LAYER_3
 10
121.1856
 20
-80.5796
  0
VERTEX
  8
LAYER_3
 10
101.7048
 20
-80.5796
  0
SEQEND
  0
POLYLINE
  8
LAYER_3
 40
0.1058
 41
0.1058
 66
1
 10
0
 20
0
 30
0
  0
VERTEX
  8
LAYER_3
 10
118.6856
 20
-63.3296
  0
VERTEX
  8
LAYER_3
 10
101.7048
 20
-63.3296
  0
SEQEND
  0
POLYLINE
  8
LAYER_3
 40
0.1058
 41
0.1058
 66
1
 10
0
 20
0
 30
0
  0
VERTEX
  8
LAYER_3
 10
152.1856
 20
-55.3296
  0
VERTEX
  8
LAYER_3
 10
101.7048
 20
-55.3296
  0
SEQEND
  0
POLYLINE
  8
LAYER_3
 40
0.1058
 41
0.1058
 66
1
 10
0
 20
0
 30
0
  0
VERTEX
  8
LAYER_3
 10
102.7048
 20
-55.3296
  0
VERTEX
  8
LAYER_3
 10
102.7048
 20
-63.3296
  0
VERTEX
  8
LAYER_3
 10
102.7048
 20
-80.5796
  0
SEQEND
  0
TEXT
  8
LAYER_3
 10
101.7947
 20
-77.9545
 11
101.7947
 21
-77.9545
 40
3.5541
 41
0.5
 50
89.99999999
  1
(17)
  0
TEXT
  8
LAYER_3
 10
101.7947
 20
-60.8296
 11
101.7947
 21
-60.8296
 40
3.5541
 41
0.5
 50
89.99999999
  1
8
  0
ENDBLK
  0
BLOCK
  8
LAYER_3
  2
AIGNBL0301001B
 70
64
 10
0
 20
0
 30
0
  3
AIGNBL0301001B
  0
INSERT
  8
LAYER_3
  2
AIGNBL0302001C
 10
0
 20
0
 30
0
  0
TEXT
  8
LAYER_3
 10
43.518
 20
-59.0278
 11
43.518
 21
-59.0278
 40
3.5541
 41
0.5
  1
UP：(17)Down:(7)
  0
ENDBLK
  0
BLOCK
  8
LAYER_6
  2
AIGNBL06010002
 70
64
 10
0
 20
0
 30
0
  3
AIGNBL06010002
  0
POLYLINE
  8
LAYER_6
 40
0.7056
 41
0.7056
 66
1
 10
0
 20
0
 30
0
 70
1
  0
VERTEX
  8
LAYER_6
 10
33.7873
 20
22.6587
  0
VERTEX
  8
LAYER_6
 10
230.7955
 20
22.6587
  0
VERTEX
  8
LAYER_6
 10
230.7955
 20
-259.334
  0
VERTEX
  8
LAYER_6
 10
33.7873
 20
-259.334
  0
SEQEND
  0
ENDBLK
  0
ENDSEC
  0
SECTION
  2
ENTITIES
  0
INSERT
  8
LAYER_1
  2
AIGNBL01010002
 10
0
 20
0
 30
0
  0
INSERT
  8
LAYER_1
  2
AIGNBL01010024
 10
0
 20
0
 30
0
  0
POLYLINE
  8
LAYER_1
 40
0.0882
 41
0.0882
 66
1
 10
0
 20
0
 30
0
  0
VERTEX
  8
LAYER_1
 10
130.1856
 20
-180.9585
  0
VERTEX
  8
LAYER_1
 10
176.1561
 20
-180.9585
  0
SEQEND
  0
POLYLINE
  8
LAYER_1
 40
0.0882
 41
0.0882
 66
1
 10
0
 20
0
 30
0
  0
VERTEX
  8
LAYER_1
 10
176.1856
 20
-178.6189
  0
VERTEX
  8
LAYER_1
 10
176.1856
 20
-182.9153
  0
SEQEND
  0
POLYLINE
  8
LAYER_1
 40
0.0882
 41
0.0882
 66
1
 10
0
 20
0
 30
0
  0
VERTEX
  8
LAYER_1
 10
130.1856
 20
-178.6189
  0
VERTEX
  8
LAYER_1
 10
130.1856
 20
-182.9153
  0
SEQEND
  0
POLYLINE
  8
LAYER_1
 40
0.0882
 41
0.0882
 66
1
 10
0
 20
0
 30
0
  0
VERTEX
  8
LAYER_1
 10
176.1856
 20
-178.6189
  0
VERTEX
  8
LAYER_1
 10
176.1856
 20
-182.9153
  0
SEQEND
  0
POLYLINE
  8
LAYER_1
 40
0.0882
 41
0.0882
 66
1
 10
0
 20
0
 30
0
  0
VERTEX
  8
LAYER_1
 10
176.1856
 20
-174.2901
  0
VERTEX
  8
LAYER_1
 10
176.1856
 20
-178.5865
  0
SEQEND
  0
POLYLINE
  8
LAYER_1
  6
AIGENLINE001
 40
0.0882
 41
0.0882
 66
1
 10
0
 20
0
 30
0
 70
128
  0
VERTEX
  8
LAYER_1
 10
130.1856
 20
-148.8796
  0
VERTEX
  8
LAYER_1
 10
130.1856
 20
-178.5865
  0
SEQEND
  0
POLYLINE
  8
LAYER_1
  6
AIGENLINE001
 40
0.0882
 41
0.0882
 66
1
 10
0
 20
0
 30
0
 70
128
  0
VERTEX
  8
LAYER_1
 10
176.1856
 20
-148.8796
  0
VERTEX
  8
LAYER_1
 10
176.1856
 20
-178.5865
  0
SEQEND
  0
TEXT
  8
LAYER_1
 10
146.8227
 20
-185.2262
 11
146.8227
 21
-185.2262
 40
3.5541
 41
0.5
  1
八角対辺46
  0
INSERT
  8
LAYER_1
  2
AIGNBL01010025
 10
0
 20
0
 30
0
  0
POLYLINE
  8
LAYER_3
 40
0.0882
 41
0.0882
 66
1
 10
0
 20
0
 30
0
  0
VERTEX
  8
LAYER_3
 10
119.0795
 20
-80.5796
  0
VERTEX
  8
LAYER_3
 10
119.0795
 20
-172.5207
  0
SEQEND
  0
POLYLINE
  8
LAYER_3
 40
0.0882
 41
0.0882
 66
1
 10
0
 20
0
 30
0
  0
VERTEX
  8
LAYER_3
 10
132.9972
 20
-172.5796
  0
VERTEX
  8
LAYER_3
 10
117.1228
 20
-172.5796
  0
SEQEND
  0
TEXT
  8
LAYER_3
 10
111.3416
 20
-124.6874
 11
111.3416
 21
-124.6874
 40
3.5541
 41
0.5
  1
92
  0
POLYLINE
  8
LAYER_3
 40
0.0882
 41
0.0882
 66
1
 10
0
 20
0
 30
0
  0
VERTEX
  8
LAYER_3
 10
187.2227
 20
-80.5796
  0
VERTEX
  8
LAYER_3
 10
187.2227
 20
-128.8602
  0
SEQEND
  0
POLYLINE
  8
LAYER_3
 40
0.0882
 41
0.0882
 66
1
 10
0
 20
0
 30
0
  0
VERTEX
  8
LAYER_3
 10
189.5623
 20
-128.8796
  0
VERTEX
  8
LAYER_3
 10
185.2659
 20
-128.8796
  0
SEQEND
  0
POLYLINE
  8
LAYER_3
 40
0.0882
 41
0.0882
 66
1
 10
0
 20
0
 30
0
  0
VERTEX
  8
LAYER_3
 10
189.5623
 20
-80.5796
  0
VERTEX
  8
LAYER_3
 10
185.2659
 20
-80.5796
  0
SEQEND
  0
POLYLINE
  8
LAYER_3
 40
0.0882
 41
0.0882
 66
1
 10
0
 20
0
 30
0
  0
VERTEX
  8
LAYER_3
 10
187.2227
 20
-128.8796
  0
VERTEX
  8
LAYER_3
 10
187.2227
 20
-148.8602
  0
SEQEND
  0
POLYLINE
  8
LAYER_3
 40
0.0882
 41
0.0882
 66
1
 10
0
 20
0
 30
0
  0
VERTEX
  8
LAYER_3
 10
189.5623
 20
-148.8796
  0
VERTEX
  8
LAYER_3
 10
176.8545
 20
-148.8796
  0
SEQEND
  0
POLYLINE
  8
LAYER_3
 40
0.0882
 41
0.0882
 66
1
 10
0
 20
0
 30
0
  0
VERTEX
  8
LAYER_3
 10
189.5623
 20
-128.8796
  0
VERTEX
  8
LAYER_3
 10
185.2659
 20
-128.8796
  0
SEQEND
  0
TEXT
  8
LAYER_3
 10
187.3445
 20
-107.2326
 11
187.3445
 21
-107.2326
 40
3.5541
 41
0.5
  1
（最小40）
  0
TEXT
  8
LAYER_3
 10
188.8445
 20
-139.2783
 11
188.8445
 21
-139.2783
 40
3.5541
 41
0.5
  1
20
  0
POLYLINE
  8
LAYER_3
 40
0.1058
 41
0.1058
 66
1
 10
0
 20
0
 30
0
  0
VERTEX
  8
LAYER_3
 10
174.4356
 20
-129.8796
  0
VERTEX
  8
LAYER_3
 10
174.4356
 20
-140.8796
  0
VERTEX
  8
LAYER_3
 10
173.9856
 20
-140.8796
  0
SEQEND
  0
POLYLINE
  8
LAYER_3
 40
0.1058
 41
0.1058
 66
1
 10
0
 20
0
 30
0
  0
VERTEX
  8
LAYER_3
 10
174.1856
 20
-129.8796
  0
VERTEX
  8
LAYER_3
 10
174.4356
 20
-129.8796
  0
VERTEX
  8
LAYER_3
 10
175.4356
 20
-128.8796
  0
SEQEND
  0
POLYLINE
  8
LAYER_3
 40
0.1058
 41
0.1058
 66
1
 10
0
 20
0
 30
0
  0
VERTEX
  8
LAYER_3
 10
122.3856
 20
-128.8796
 42
0.4142592143
  0
VERTEX
  8
LAYER_3
 10
121.8856
 20
-129.3796
  0
VERTEX
  8
LAYER_3
 10
121.8856
 20
-130.8796
 42
0.414217682
  0
VERTEX
  8
LAYER_3
 10
122.8856
 20
-131.8796
  0
VERTEX
  8
LAYER_3
 10
153.1856
 20
-131.8796
  0
SEQEND
  0
POLYLINE
  8
LAYER_3
 40
0.1058
 41
0.1058
 66
1
 10
0
 20
0
 30
0
  0
VERTEX
  8
LAYER_3
 10
172.8356
 20
-141.6604
  0
VERTEX
  8
LAYER_3
 10
172.8356
 20
-148.0987
  0
SEQEND
  0
POLYLINE
  8
LAYER_3
 40
0.1058
 41
0.1058
 66
1
 10
0
 20
0
 30
0
  0
VERTEX
  8
LAYER_3
 10
174.3356
 20
-148.0987
  0
VERTEX
  8
LAYER_3
 10
172.8356
 20
-148.0987
  0
VERTEX
  8
LAYER_3
 10
174.3356
 20
-148.8796
  0
VERTEX
  8
LAYER_3
 10
174.3356
 20
-140.8796
  0
VERTEX
  8
LAYER_3
 10
172.8356
 20
-141.6604
  0
VERTEX
  8
LAYER_3
 10
174.3356
 20
-141.6604
  0
SEQEND
  0
POLYLINE
  8
LAYER_3
 40
0.1058
 41
0.1058
 66
1
 10
0
 20
0
 30
0
  0
VERTEX
  8
LAYER_3
 10
153.1856
 20
-148.8796
  0
VERTEX
  8
LAYER_3
 10
130.3856
 20
-148.8796
 42
-0.4142341444
  0
VERTEX
  8
LAYER_3
 10
130.1856
 20
-148.6796
  0
VERTEX
  8
LAYER_3
 10
130.1856
 20
-132.8796
 42
0.4142094408
  0
VERTEX
  8
LAYER_3
 10
129.1856
 20
-131.8796
  0
SEQEND
  0
POLYLINE
  8
LAYER_3
 40
0.1058
 41
0.1058
 66
1
 10
0
 20
0
 30
0
  0
VERTEX
  8
LAYER_3
 10
173.9856
 20
-148.8796
  0
VERTEX
  8
LAYER_3
 10
175.9856
 20
-148.8796
 42
0.4140994696
  0
VERTEX
  8
LAYER_3
 10
176.1856
 20
-148.6796
  0
VERTEX
  8
LAYER_3
 10
176.1856
 20
-132.8796
 42
-0.4142363875
  0
VERTEX
  8
LAYER_3
 10
177.1856
 20
-131.8796
  0
VERTEX
  8
LAYER_3
 10
183.4856
 20
-131.8796
 42
0.4141907396
  0
VERTEX
  8
LAYER_3
 10
184.4856
 20
-130.8796
  0
VERTEX
  8
LAYER_3
 10
184.4856
 20
-129.3796
 42
0.4142053176
  0
VERTEX
  8
LAYER_3
 10
183.9856
 20
-128.8796
  0
SEQEND
  0
POLYLINE
  8
LAYER_3
 40
0.1058
 41
0.1058
 66
1
 10
0
 20
0
 30
0
  0
VERTEX
  8
LAYER_3
 10
143.8586
 20
-148.8796
 42
-0.4141052206
  0
VERTEX
  8
LAYER_3
 10
143.6586
 20
-148.6796
  0
VERTEX
  8
LAYER_3
 10
143.6586
 20
-132.8796
 42
0.4142352364
  0
VERTEX
  8
LAYER_3
 10
142.6586
 20
-131.8796
  0
SEQEND
  0
POLYLINE
  8
LAYER_3
 40
0.1058
 41
0.1058
 66
1
 10
0
 20
0
 30
0
  0
VERTEX
  8
LAYER_3
 10
158.4356
 20
-74.6296
  0
VERTEX
  8
LAYER_3
 10
158.9356
 20
-75.1296
  0
SEQEND
  0
POLYLINE
  8
LAYER_3
 40
0.1058
 41
0.1058
 66
1
 10
0
 20
0
 30
0
  0
VERTEX
  8
LAYER_3
 10
158.4356
 20
-71.6296
 42
0.4142060403
  0
VERTEX
  8
LAYER_3
 10
157.9356
 20
-71.1296
  0
SEQEND
  0
POLYLINE
  8
LAYER_3
 40
0.1058
 41
0.1058
 66
1
 10
0
 20
0
 30
0
  0
VERTEX
  8
LAYER_3
 10
153.1856
 20
-72.5296
  0
VERTEX
  8
LAYER_3
 10
134.9856
 20
-72.5296
 42
0.4142393415
  0
VERTEX
  8
LAYER_3
 10
134.0856
 20
-73.4296
 42
0.4142177218
  0
VERTEX
  8
LAYER_3
 10
134.9856
 20
-74.3296
  0
VERTEX
  8
LAYER_3
 10
153.1856
 20
-74.3296
  0
SEQEND
  0
POLYLINE
  8
LAYER_3
 40
0.1058
 41
0.1058
 66
1
 10
0
 20
0
 30
0
  0
VERTEX
  8
LAYER_3
 10
168.9356
 20
-72.2296
 42
0.4142060697
  0
VERTEX
  8
LAYER_3
 10
168.4356
 20
-71.7296
  0
VERTEX
  8
LAYER_3
 10
167.0356
 20
-71.7296
  0
SEQEND
  0
POLYLINE
  8
LAYER_3
 40
0.1058
 41
0.1058
 66
1
 10
0
 20
0
 30
0
  0
VERTEX
  8
LAYER_3
 10
145.2784
 20
-74.7225
 42
0.1989215456
  0
VERTEX
  8
LAYER_3
 10
144.5713
 20
-74.4296
  0
VERTEX
  8
LAYER_3
 10
135.2856
 20
-74.4296
  0
VERTEX
  8
LAYER_3
 10
135.2856
 20
-74.3296
  0
SEQEND
  0
POLYLINE
  8
LAYER_3
 40
0.1058
 41
0.1058
 66
1
 10
0
 20
0
 30
0
  0
VERTEX
  8
LAYER_3
 10
171.0856
 20
-74.3296
  0
VERTEX
  8
LAYER_3
 10
171.0856
 20
-74.4296
  0
VERTEX
  8
LAYER_3
 10
161.7998
 20
-74.4296
 42
0.1989209363
  0
VERTEX
  8
LAYER_3
 10
161.0927
 20
-74.7225
  0
SEQEND
  0
POLYLINE
  8
LAYER_3
 40
0.1058
 41
0.1058
 66
1
 10
0
 20
0
 30
0
  0
VERTEX
  8
LAYER_3
 10
155.9356
 20
-65.7796
  0
VERTEX
  8
LAYER_3
 10
156.1356
 20
-67.4796
  0
VERTEX
  8
LAYER_3
 10
156.0857
 20
-67.4796
  0
SEQEND
  0
POLYLINE
  8
LAYER_3
 40
0.1058
 41
0.1058
 66
1
 10
0
 20
0
 30
0
  0
VERTEX
  8
LAYER_3
 10
159.4578
 20
-68.8296
 42
-0.4116621976
  0
VERTEX
  8
LAYER_3
 10
158.9578
 20
-68.3339
  0
VERTEX
  8
LAYER_3
 10
158.9399
 20
-66.2752
 42
0.4116570007
  0
VERTEX
  8
LAYER_3
 10
158.4399
 20
-65.7796
  0
SEQEND
  0
POLYLINE
  8
LAYER_3
 40
0.1058
 41
0.1058
 66
1
 10
0
 20
0
 30
0
  0
VERTEX
  8
LAYER_3
 10
153.1856
 20
-75.1296
  0
VERTEX
  8
LAYER_3
 10
146.0998
 20
-75.1296
 42
-0.1989087417
  0
VERTEX
  8
LAYER_3
 10
145.3927
 20
-74.8367
  0
VERTEX
  8
LAYER_3
 10
145.1784
 20
-74.6225
 42
0.1989215456
  0
VERTEX
  8
LAYER_3
 10
144.4713
 20
-74.3296
  0
SEQEND
  0
POLYLINE
  8
LAYER_3
 40
0.1058
 41
0.1058
 66
1
 10
0
 20
0
 30
0
  0
VERTEX
  8
LAYER_3
 10
156.0857
 20
-75.1296
  0
VERTEX
  8
LAYER_3
 10
160.2713
 20
-75.1296
 42
0.1989093509
  0
VERTEX
  8
LAYER_3
 10
160.9784
 20
-74.8367
  0
VERTEX
  8
LAYER_3
 10
161.1927
 20
-74.6225
 42
-0.1989209364
  0
VERTEX
  8
LAYER_3
 10
161.8998
 20
-74.3296
  0
VERTEX
  8
LAYER_3
 10
171.3856
 20
-74.3296
 42
0.4141877861
  0
VERTEX
  8
LAYER_3
 10
172.2856
 20
-73.4296
 42
0.4142094006
  0
VERTEX
  8
LAYER_3
 10
171.3856
 20
-72.5296
  0
VERTEX
  8
LAYER_3
 10
167.5356
 20
-72.5296
 42
-0.414221048
  0
VERTEX
  8
LAYER_3
 10
167.0356
 20
-72.0296
  0
VERTEX
  8
LAYER_3
 10
167.0356
 20
-67.8296
  0
VERTEX
  8
LAYER_3
 10
167.9856
 20
-67.6296
  0
VERTEX
  8
LAYER_3
 10
167.9856
 20
-65.9741
  0
VERTEX
  8
LAYER_3
 10
166.9856
 20
-63.8296
  0
VERTEX
  8
LAYER_3
 10
166.9856
 20
-62.3296
 42
0.4142060697
  0
VERTEX
  8
LAYER_3
 10
166.4856
 20
-61.8296
  0
VERTEX
  8
LAYER_3
 10
165.0312
 20
-61.8296
 42
0.41165236
  0
VERTEX
  8
LAYER_3
 10
164.5312
 20
-62.3252
  0
VERTEX
  8
LAYER_3
 10
164.4482
 20
-71.8339
 42
-0.4116575128
  0
VERTEX
  8
LAYER_3
 10
163.9483
 20
-72.3296
  0
VERTEX
  8
LAYER_3
 10
161.2135
 20
-72.3296
 42
-0.4116781296
  0
VERTEX
  8
LAYER_3
 10
160.7135
 20
-71.8339
  0
VERTEX
  8
LAYER_3
 10
160.6899
 20
-69.3252
 42
0.4116569714
  0
VERTEX
  8
LAYER_3
 10
160.1899
 20
-68.8296
  0
SEQEND
  0
POLYLINE
  8
LAYER_3
 40
0.1058
 41
0.1058
 66
1
 10
0
 20
0
 30
0
  0
VERTEX
  8
LAYER_3
 10
153.1856
 20
-128.3796
  0
VERTEX
  8
LAYER_3
 10
121.8856
 20
-128.3796
  0
SEQEND
  0
POLYLINE
  8
LAYER_3
 40
0.1058
 41
0.1058
 66
1
 10
0
 20
0
 30
0
  0
VERTEX
  8
LAYER_3
 10
138.1856
 20
-98.3796
  0
VERTEX
  8
LAYER_3
 10
138.1856
 20
-116.3796
  0
SEQEND
  0
POLYLINE
  8
LAYER_3
 40
0.1058
 41
0.1058
 66
1
 10
0
 20
0
 30
0
  0
VERTEX
  8
LAYER_3
 10
153.1856
 20
-81.5796
  0
VERTEX
  8
LAYER_3
 10
121.9384
 20
-81.5796
  0
SEQEND
  0
POLYLINE
  8
LAYER_3
 40
0.1058
 41
0.1058
 66
1
 10
0
 20
0
 30
0
  0
VERTEX
  8
LAYER_3
 10
153.1856
 20
-116.3796
  0
VERTEX
  8
LAYER_3
 10
135.0395
 20
-116.3796
  0
VERTEX
  8
LAYER_3
 10
135.0395
 20
-98.3796
  0
VERTEX
  8
LAYER_3
 10
153.1856
 20
-98.3796
  0
SEQEND
  0
POLYLINE
  8
LAYER_3
 40
0.1058
 41
0.1058
 66
1
 10
0
 20
0
 30
0
  0
VERTEX
  8
LAYER_3
 10
173.9856
 20
-131.5796
  0
VERTEX
  8
LAYER_3
 10
173.9856
 20
-170.7987
  0
SEQEND
  0
POLYLINE
  8
LAYER_3
 40
0.1058
 41
0.1058
 66
1
 10
0
 20
0
 30
0
  0
VERTEX
  8
LAYER_3
 10
172.4856
 20
-170.7987
  0
VERTEX
  8
LAYER_3
 10
173.9856
 20
-170.7987
  0
VERTEX
  8
LAYER_3
 10
172.4856
 20
-171.5796
  0
SEQEND
  0
POLYLINE
  8
LAYER_3
 40
0.1058
 41
0.1058
 66
1
 10
0
 20
0
 30
0
  0
VERTEX
  8
LAYER_3
 10
172.0356
 20
-94.1796
 42
0.4142600524
  0
VERTEX
  8
LAYER_3
 10
171.5356
 20
-94.6796
  0
VERTEX
  8
LAYER_3
 10
171.5356
 20
-172.2796
 42
0.4142258911
  0
VERTEX
  8
LAYER_3
 10
171.8356
 20
-172.5796
  0
SEQEND
  0
POLYLINE
  8
LAYER_3
 40
0.1058
 41
0.1058
 66
1
 10
0
 20
0
 30
0
  0
VERTEX
  8
LAYER_3
 10
184.1856
 20
-80.5796
  0
VERTEX
  8
LAYER_3
 10
156.0857
 20
-80.5796
  0
SEQEND
  0
POLYLINE
  8
LAYER_3
 40
0.1058
 41
0.1058
 66
1
 10
0
 20
0
 30
0
  0
VERTEX
  8
LAYER_3
 10
171.5856
 20
-94.1796
  0
VERTEX
  8
LAYER_3
 10
172.3356
 20
-94.1796
 42
0.4140973758
  0
VERTEX
  8
LAYER_3
 10
172.5356
 20
-93.9796
  0
VERTEX
  8
LAYER_3
 10
172.5356
 20
-86.9162
 42
-0.1316481745
  0
VERTEX
  8
LAYER_3
 10
172.6695
 20
-86.4162
  0
VERTEX
  8
LAYER_3
 10
175.5141
 20
-81.4893
 42
-0.2539690371
  0
VERTEX
  8
LAYER_3
 10
176.3278
 20
-80.9907
  0
VERTEX
  8
LAYER_3
 10
184.1594
 20
-80.5803
  0
VERTEX
  8
LAYER_3
 10
184.1856
 20
-80.5796
 42
-0.4142061554
  0
VERTEX
  8
LAYER_3
 10
184.6856
 20
-81.0796
  0
VERTEX
  8
LAYER_3
 10
184.6856
 20
-81.1449
 42
-0.3739242121
  0
VERTEX
  8
LAYER_3
 10
184.2551
 20
-81.6401
  0
VERTEX
  8
LAYER_3
 10
181.9907
 20
-81.9583
 42
0.230869931
  0
VERTEX
  8
LAYER_3
 10
174.7221
 20
-86.861
  0
VERTEX
  8
LAYER_3
 10
174.5875
 20
-87.0942
 42
0.1316530448
  0
VERTEX
  8
LAYER_3
 10
174.1856
 20
-88.5942
  0
VERTEX
  8
LAYER_3
 10
174.1856
 20
-131.1507
  0
VERTEX
  8
LAYER_3
 10
173.9856
 20
-131.5796
  0
VERTEX
  8
LAYER_3
 10
172.4856
 20
-131.5796
  0
VERTEX
  8
LAYER_3
 10
172.4856
 20
-172.0796
 42
-0.4141670814
  0
VERTEX
  8
LAYER_3
 10
171.9856
 20
-172.5796
  0
SEQEND
  0
POLYLINE
  8
LAYER_3
 40
0.1058
 41
0.1058
 66
1
 10
0
 20
0
 30
0
  0
VERTEX
  8
LAYER_3
 10
156.0857
 20
-81.0191
  0
VERTEX
  8
LAYER_3
 10
176.1378
 20
-81.0191
  0
SEQEND
  0
POLYLINE
  8
LAYER_3
 40
0.1058
 41
0.1058
 66
1
 10
0
 20
0
 30
0
  0
VERTEX
  8
LAYER_3
 10
172.5721
 20
-86.6483
  0
VERTEX
  8
LAYER_3
 10
157.5356
 20
-86.6483
  0
SEQEND
  0
POLYLINE
  8
LAYER_3
 40
0.1058
 41
0.1058
 66
1
 10
0
 20
0
 30
0
  0
VERTEX
  8
LAYER_3
 10
132.3856
 20
-148.8796
  0
VERTEX
  8
LAYER_3
 10
132.3856
 20
-170.7987
  0
SEQEND
  0
POLYLINE
  8
LAYER_3
 40
0.1058
 41
0.1058
 66
1
 10
0
 20
0
 30
0
  0
VERTEX
  8
LAYER_3
 10
132.1856
 20
-88.5942
 42
0.1316533845
  0
VERTEX
  8
LAYER_3
 10
131.7836
 20
-87.0942
  0
VERTEX
  8
LAYER_3
 10
131.649
 20
-86.861
 42
0.2308700344
  0
VERTEX
  8
LAYER_3
 10
124.3804
 20
-81.9583
  0
VERTEX
  8
LAYER_3
 10
122.116
 20
-81.6401
 42
-0.3739196971
  0
VERTEX
  8
LAYER_3
 10
121.6856
 20
-81.1449
  0
VERTEX
  8
LAYER_3
 10
121.6856
 20
-81.0796
 42
-0.4142600525
  0
VERTEX
  8
LAYER_3
 10
122.1856
 20
-80.5796
  0
VERTEX
  8
LAYER_3
 10
153.1856
 20
-80.5796
  0
SEQEND
  0
POLYLINE
  8
LAYER_3
 40
0.1058
 41
0.1058
 66
1
 10
0
 20
0
 30
0
  0
VERTEX
  8
LAYER_3
 10
132.3856
 20
-96.0942
  0
VERTEX
  8
LAYER_3
 10
132.3856
 20
-118.3796
  0
SEQEND
  0
POLYLINE
  8
LAYER_3
 40
0.1058
 41
0.1058
 66
1
 10
0
 20
0
 30
0
  0
VERTEX
  8
LAYER_3
 10
154.5924
 20
-64.4296
  0
VERTEX
  8
LAYER_3
 10
154.7356
 20
-64.4296
  0
SEQEND
  0
POLYLINE
  8
LAYER_3
 40
0.1058
 41
0.1058
 66
1
 10
0
 20
0
 30
0
  0
VERTEX
  8
LAYER_3
 10
154.8592
 20
-63.9503
 42
0.1816678166
  0
VERTEX
  8
LAYER_3
 10
154.7356
 20
-64.2796
  0
VERTEX
  8
LAYER_3
 10
154.7356
 20
-64.4296
  0
VERTEX
  8
LAYER_3
 10
155.4856
 20
-65.1796
  0
SEQEND
  0
POLYLINE
  8
LAYER_3
 40
0.1058
 41
0.1058
 66
1
 10
0
 20
0
 30
0
  0
VERTEX
  8
LAYER_3
 10
156.0356
 20
-65.7796
 42
-0.4142322628
  0
VERTEX
  8
LAYER_3
 10
155.8356
 20
-65.5796
  0
VERTEX
  8
LAYER_3
 10
155.8356
 20
-65.3796
 42
0.4141948173
  0
VERTEX
  8
LAYER_3
 10
155.6356
 20
-65.1796
  0
VERTEX
  8
LAYER_3
 10
155.0356
 20
-65.1796
  0
VERTEX
  8
LAYER_3
 10
154.5935
 20
-64.7375
  0
SEQEND
  0
POLYLINE
  8
LAYER_3
 40
0.1058
 41
0.1058
 66
1
 10
0
 20
0
 30
0
  0
VERTEX
  8
LAYER_3
 10
156.346
 20
-61.1335
  0
VERTEX
  8
LAYER_3
 10
156.3356
 20
-61.1334
 42
0.4142679309
  0
VERTEX
  8
LAYER_3
 10
155.8356
 20
-61.6334
  0
VERTEX
  8
LAYER_3
 10
155.8356
 20
-63.5796
 42
-0.4140975903
  0
VERTEX
  8
LAYER_3
 10
155.6356
 20
-63.7796
  0
VERTEX
  8
LAYER_3
 10
155.3357
 20
-63.7796
  0
SEQEND
  0
POLYLINE
  8
LAYER_3
 40
0.1058
 41
0.1058
 66
1
 10
0
 20
0
 30
0
  0
VERTEX
  8
LAYER_3
 10
154.7856
 20
-61.1236
 42
0.2495114466
  0
VERTEX
  8
LAYER_3
 10
154.3709
 20
-61.3443
  0
SEQEND
  0
POLYLINE
  8
LAYER_3
 40
0.1058
 41
0.1058
 66
1
 10
0
 20
0
 30
0
  0
VERTEX
  8
LAYER_3
 10
155.7357
 20
-65.7796
  0
VERTEX
  8
LAYER_3
 10
158.8356
 20
-65.7796
 42
-0.4141948173
  0
VERTEX
  8
LAYER_3
 10
159.0356
 20
-65.9796
  0
VERTEX
  8
LAYER_3
 10
159.0356
 20
-68.2796
 42
0.414221048
  0
VERTEX
  8
LAYER_3
 10
159.5356
 20
-68.7796
  0
VERTEX
  8
LAYER_3
 10
159.9356
 20
-68.7796
 42
0.414167167
  0
VERTEX
  8
LAYER_3
 10
160.4356
 20
-68.2796
  0
VERTEX
  8
LAYER_3
 10
160.4356
 20
-62.2308
 42
0.4020404554
  0
VERTEX
  8
LAYER_3
 10
159.4773
 20
-61.2317
 42
0.006062593829
  0
VERTEX
  8
LAYER_3
 10
155.8356
 20
-61.1236
  0
VERTEX
  8
LAYER_3
 10
153.1856
 20
-61.1236
  0
SEQEND
  0
POLYLINE
  8
LAYER_3
 40
0.1058
 41
0.1058
 66
1
 10
0
 20
0
 30
0
  0
VERTEX
  8
LAYER_3
 10
161.0856
 20
-116.3796
  0
VERTEX
  8
LAYER_3
 10
168.1856
 20
-116.3796
  0
VERTEX
  8
LAYER_3
 10
168.1856
 20
-98.3796
  0
VERTEX
  8
LAYER_3
 10
161.3234
 20
-98.3796
  0
SEQEND
  0
POLYLINE
  8
LAYER_3
 40
0.1058
 41
0.1058
 66
1
 10
0
 20
0
 30
0
  0
VERTEX
  8
LAYER_3
 10
153.1856
 20
-170.7987
  0
VERTEX
  8
LAYER_3
 10
132.3856
 20
-170.7987
  0
VERTEX
  8
LAYER_3
 10
133.8856
 20
-171.5796
  0
SEQEND
  0
POLYLINE
  8
LAYER_3
 40
0.1058
 41
0.1058
 66
1
 10
0
 20
0
 30
0
  0
VERTEX
  8
LAYER_3
 10
134.3856
 20
-172.5796
 42
-0.4142209621
  0
VERTEX
  8
LAYER_3
 10
133.8856
 20
-172.0796
  0
VERTEX
  8
LAYER_3
 10
133.8856
 20
-148.8796
  0
SEQEND
  0
POLYLINE
  8
LAYER_3
 40
0.1058
 41
0.1058
 66
1
 10
0
 20
0
 30
0
  0
VERTEX
  8
LAYER_3
 10
174.4856
 20
-128.8796
  0
VERTEX
  8
LAYER_3
 10
174.4856
 20
-128.3796
  0
SEQEND
  0
POLYLINE
  8
LAYER_3
 40
0.1058
 41
0.1058
 66
1
 10
0
 20
0
 30
0
  0
VERTEX
  8
LAYER_3
 10
174.1856
 20
-128.8796
  0
VERTEX
  8
LAYER_3
 10
184.4856
 20
-128.8796
  0
VERTEX
  8
LAYER_3
 10
184.4856
 20
-128.3796
  0
VERTEX
  8
LAYER_3
 10
174.1856
 20
-128.3796
  0
SEQEND
  0
POLYLINE
  8
LAYER_3
 40
0.1058
 41
0.1058
 66
1
 10
0
 20
0
 30
0
  0
VERTEX
  8
LAYER_3
 10
153.1856
 20
-128.8796
  0
VERTEX
  8
LAYER_3
 10
121.8856
 20
-128.8796
  0
VERTEX
  8
LAYER_3
 10
121.8856
 20
-128.3796
  0
SEQEND
  0
POLYLINE
  8
LAYER_3
 40
0.1058
 41
0.1058
 66
1
 10
0
 20
0
 30
0
  0
VERTEX
  8
LAYER_3
 10
177.1856
 20
-88.5942
  0
VERTEX
  8
LAYER_3
 10
177.1856
 20
-96.0942
  0
SEQEND
  0
POLYLINE
  8
LAYER_3
 40
0.1058
 41
0.1058
 66
1
 10
0
 20
0
 30
0
  0
VERTEX
  8
LAYER_3
 10
174.1856
 20
-96.0942
  0
VERTEX
  8
LAYER_3
 10
182.6856
 20
-96.0942
  0
VERTEX
  8
LAYER_3
 10
182.6856
 20
-88.5942
  0
VERTEX
  8
LAYER_3
 10
174.1856
 20
-88.5942
  0
SEQEND
  0
POLYLINE
  8
LAYER_3
 40
0.1058
 41
0.1058
 66
1
 10
0
 20
0
 30
0
  0
VERTEX
  8
LAYER_3
 10
153.1856
 20
-96.0942
  0
VERTEX
  8
LAYER_3
 10
123.6856
 20
-96.0942
  0
VERTEX
  8
LAYER_3
 10
123.6856
 20
-88.5942
  0
VERTEX
  8
LAYER_3
 10
153.1856
 20
-88.5942
  0
SEQEND
  0
POLYLINE
  8
LAYER_3
 40
0.1058
 41
0.1058
 66
1
 10
0
 20
0
 30
0
  0
VERTEX
  8
LAYER_3
 10
171.6856
 20
-70.3296
  0
VERTEX
  8
LAYER_3
 10
176.4356
 20
-70.3296
  0
VERTEX
  8
LAYER_3
 10
176.4356
 20
-70.3545
 42
-0.2350068421
  0
VERTEX
  8
LAYER_3
 10
176.1578
 20
-70.9128
 42
-0.163297231
  0
VERTEX
  8
LAYER_3
 10
171.9356
 20
-72.3296
  0
VERTEX
  8
LAYER_3
 10
170.9356
 20
-72.3296
  0
SEQEND
  0
POLYLINE
  8
LAYER_3
 40
0.1058
 41
0.1058
 66
1
 10
0
 20
0
 30
0
  0
VERTEX
  8
LAYER_3
 10
175.5564
 20
-70.3296
 42
0.1170715364
  0
VERTEX
  8
LAYER_3
 10
175.3317
 20
-70.3829
 42
-0.1170374516
  0
VERTEX
  8
LAYER_3
 10
172.1856
 20
-71.1296
  0
VERTEX
  8
LAYER_3
 10
171.9856
 20
-71.1296
 42
-0.4142260344
  0
VERTEX
  8
LAYER_3
 10
171.6856
 20
-70.8296
  0
VERTEX
  8
LAYER_3
 10
171.6856
 20
-68.8296
  0
SEQEND
  0
POLYLINE
  8
LAYER_3
 40
0.1058
 41
0.1058
 66
1
 10
0
 20
0
 30
0
  0
VERTEX
  8
LAYER_3
 10
170.2356
 20
-68.8296
 42
0.4142909077
  0
VERTEX
  8
LAYER_3
 10
169.9356
 20
-69.1296
  0
VERTEX
  8
LAYER_3
 10
169.9356
 20
-71.3296
 42
0.414217306
  0
VERTEX
  8
LAYER_3
 10
170.9356
 20
-72.3296
  0
VERTEX
  8
LAYER_3
 10
168.9356
 20
-72.3296
  0
SEQEND
  0
POLYLINE
  8
LAYER_3
 40
0.1058
 41
0.1058
 66
1
 10
0
 20
0
 30
0
  0
VERTEX
  8
LAYER_3
 10
153.1856
 20
-68.8296
  0
VERTEX
  8
LAYER_3
 10
134.6856
 20
-68.8296
  0
VERTEX
  8
LAYER_3
 10
134.6856
 20
-70.3296
  0
SEQEND
  0
POLYLINE
  8
LAYER_3
 40
0.1058
 41
0.1058
 66
1
 10
0
 20
0
 30
0
  0
VERTEX
  8
LAYER_3
 10
153.1856
 20
-72.3296
  0
VERTEX
  8
LAYER_3
 10
135.4356
 20
-72.3296
  0
VERTEX
  8
LAYER_3
 10
134.4356
 20
-72.3296
 42
-0.1633008379
  0
VERTEX
  8
LAYER_3
 10
130.2133
 20
-70.9128
 42
-0.235004435
  0
VERTEX
  8
LAYER_3
 10
129.9356
 20
-70.3545
  0
VERTEX
  8
LAYER_3
 10
129.9356
 20
-70.3296
  0
VERTEX
  8
LAYER_3
 10
153.1856
 20
-70.3296
  0
SEQEND
  0
POLYLINE
  8
LAYER_3
  6
AIGENLINE002
 40
0.1058
 41
0.1058
 66
1
 10
0
 20
0
 30
0
 70
128
  0
VERTEX
  8
LAYER_3
 10
153.1856
 20
-49.478
  0
VERTEX
  8
LAYER_3
 10
153.1856
 20
-176.023
  0
SEQEND
  0
POLYLINE
  8
LAYER_3
 40
0.1058
 41
0.1058
 66
1
 10
0
 20
0
 30
0
  0
VERTEX
  8
LAYER_3
 10
121.8856
 20
-127.3796
  0
VERTEX
  8
LAYER_3
 10
153.1856
 20
-127.3796
  0
SEQEND
  0
POLYLINE
  8
LAYER_3
 40
0.1058
 41
0.1058
 66
1
 10
0
 20
0
 30
0
  0
VERTEX
  8
LAYER_3
 10
153.1856
 20
-118.3796
  0
VERTEX
  8
LAYER_3
 10
131.8856
 20
-118.3796
  0
VERTEX
  8
LAYER_3
 10
121.8856
 20
-127.3796
  0
VERTEX
  8
LAYER_3
 10
121.8856
 20
-128.3796
  0
SEQEND
  0
POLYLINE
  8
LAYER_3
 40
0.1058
 41
0.1058
 66
1
 10
0
 20
0
 30
0
  0
VERTEX
  8
LAYER_3
 10
174.1856
 20
-118.3796
  0
VERTEX
  8
LAYER_3
 10
174.4856
 20
-118.3796
  0
VERTEX
  8
LAYER_3
 10
184.4856
 20
-127.3796
  0
VERTEX
  8
LAYER_3
 10
184.4856
 20
-128.3796
  0
SEQEND
  0
POLYLINE
  8
LAYER_3
 40
0.1058
 41
0.1058
 66
1
 10
0
 20
0
 30
0
  0
VERTEX
  8
LAYER_3
 10
159.5383
 20
-91.5296
  0
VERTEX
  8
LAYER_3
 10
158.9955
 20
-91.5296
  0
SEQEND
  0
POLYLINE
  8
LAYER_3
 40
0.1058
 41
0.1058
 66
1
 10
0
 20
0
 30
0
  0
VERTEX
  8
LAYER_3
 10
161.0856
 20
-91.2296
 42
0.02715384906
  0
VERTEX
  8
LAYER_3
 10
165.6856
 20
-91.4796
  0
VERTEX
  8
LAYER_3
 10
171.5856
 20
-91.4796
  0
SEQEND
  0
POLYLINE
  8
LAYER_3
 40
0.1058
 41
0.1058
 66
1
 10
0
 20
0
 30
0
  0
VERTEX
  8
LAYER_3
 10
171.0856
 20
-94.1796
 42
-0.4142228109
  0
VERTEX
  8
LAYER_3
 10
170.6856
 20
-93.7796
  0
VERTEX
  8
LAYER_3
 10
170.6856
 20
-91.8796
 42
-0.4142716764
  0
VERTEX
  8
LAYER_3
 10
171.0856
 20
-91.4796
  0
SEQEND
  0
POLYLINE
  8
LAYER_3
 40
0.1058
 41
0.1058
 66
1
 10
0
 20
0
 30
0
  0
VERTEX
  8
LAYER_3
 10
169.8589
 20
-94.4276
  0
VERTEX
  8
LAYER_3
 10
169.7439
 20
-94.4444
 42
-0.4142380174
  0
VERTEX
  8
LAYER_3
 10
169.3439
 20
-94.0444
  0
VERTEX
  8
LAYER_3
 10
169.3439
 20
-91.8796
 42
-0.4142283099
  0
VERTEX
  8
LAYER_3
 10
169.7439
 20
-91.4796
  0
SEQEND
  0
POLYLINE
  8
LAYER_3
 40
0.1058
 41
0.1058
 66
1
 10
0
 20
0
 30
0
  0
VERTEX
  8
LAYER_3
 10
171.5856
 20
-94.1796
 42
0.4141748277
  0
VERTEX
  8
LAYER_3
 10
172.1856
 20
-93.5796
  0
VERTEX
  8
LAYER_3
 10
172.1856
 20
-92.0796
 42
0.4142073904
  0
VERTEX
  8
LAYER_3
 10
171.5856
 20
-91.4796
 42
-0.4142012135
  0
VERTEX
  8
LAYER_3
 10
171.8856
 20
-91.7796
  0
VERTEX
  8
LAYER_3
 10
171.8856
 20
-93.8796
 42
-0.4141360986
  0
VERTEX
  8
LAYER_3
 10
171.5856
 20
-94.1796
  0
VERTEX
  8
LAYER_3
 10
170.7589
 20
-94.1796
  0
VERTEX
  8
LAYER_3
 10
170.6153
 20
-94.2007
  0
VERTEX
  8
LAYER_3
 10
169.7558
 20
-94.4585
  0
VERTEX
  8
LAYER_3
 10
169.6122
 20
-94.4796
  0
VERTEX
  8
LAYER_3
 10
166.5856
 20
-94.4796
 42
0.4142177885
  0
VERTEX
  8
LAYER_3
 10
161.0856
 20
-99.9796
  0
SEQEND
  0
POLYLINE
  8
LAYER_3
 40
0.1058
 41
0.1058
 66
1
 10
0
 20
0
 30
0
  0
VERTEX
  8
LAYER_3
 10
156.0857
 20
-93.4296
  0
VERTEX
  8
LAYER_3
 10
159.2856
 20
-93.4296
 42
0.4141360988
  0
VERTEX
  8
LAYER_3
 10
159.5856
 20
-93.1296
  0
VERTEX
  8
LAYER_3
 10
159.5856
 20
-92.4587
 42
0.200670426
  0
VERTEX
  8
LAYER_3
 10
159.5243
 20
-92.3147
 42
-0.2037662532
  0
VERTEX
  8
LAYER_3
 10
159.3606
 20
-91.9296
 42
-0.2037761824
  0
VERTEX
  8
LAYER_3
 10
159.5243
 20
-91.5445
 42
0.2010330075
  0
VERTEX
  8
LAYER_3
 10
159.5856
 20
-91.4004
  0
VERTEX
  8
LAYER_3
 10
159.5856
 20
-91.2296
  0
VERTEX
  8
LAYER_3
 10
159.7356
 20
-91.2296
  0
VERTEX
  8
LAYER_3
 10
159.7356
 20
-90.1296
  0
SEQEND
  0
POLYLINE
  8
LAYER_3
 40
0.1058
 41
0.1058
 66
1
 10
0
 20
0
 30
0
  0
VERTEX
  8
LAYER_3
 10
156.3356
 20
-93.4296
 42
0.4143298036
  0
VERTEX
  8
LAYER_3
 10
156.1356
 20
-93.6296
  0
VERTEX
  8
LAYER_3
 10
156.1356
 20
-94.9296
  0
SEQEND
  0
POLYLINE
  8
LAYER_3
 40
0.1058
 41
0.1058
 66
1
 10
0
 20
0
 30
0
  0
VERTEX
  8
LAYER_3
 10
156.0857
 20
-94.9296
  0
VERTEX
  8
LAYER_3
 10
156.1356
 20
-94.9296
  0
VERTEX
  8
LAYER_3
 10
156.6356
 20
-95.4296
  0
SEQEND
  0
POLYLINE
  8
LAYER_3
 40
0.1058
 41
0.1058
 66
1
 10
0
 20
0
 30
0
  0
VERTEX
  8
LAYER_3
 10
156.2356
 20
-90.9296
  0
VERTEX
  8
LAYER_3
 10
156.2356
 20
-85.1796
  0
SEQEND
  0
POLYLINE
  8
LAYER_3
 40
0.1058
 41
0.1058
 66
1
 10
0
 20
0
 30
0
  0
VERTEX
  8
LAYER_3
 10
156.0857
 20
-90.9296
  0
VERTEX
  8
LAYER_3
 10
157.4856
 20
-90.9296
 42
-0.4141950317
  0
VERTEX
  8
LAYER_3
 10
157.6856
 20
-91.1296
  0
VERTEX
  8
LAYER_3
 10
157.6856
 20
-93.1796
 42
0.4142320482
  0
VERTEX
  8
LAYER_3
 10
157.8856
 20
-93.3796
  0
SEQEND
  0
POLYLINE
  8
LAYER_3
 40
0.1058
 41
0.1058
 66
1
 10
0
 20
0
 30
0
  0
VERTEX
  8
LAYER_3
 10
156.2108
 20
-90.9296
  0
VERTEX
  8
LAYER_3
 10
156.2108
 20
-85.1796
  0
SEQEND
  0
POLYLINE
  8
LAYER_3
 40
0.1058
 41
0.1058
 66
1
 10
0
 20
0
 30
0
  0
VERTEX
  8
LAYER_3
 10
157.5356
 20
-85.6796
 42
0.4142061125
  0
VERTEX
  8
LAYER_3
 10
157.0356
 20
-85.1796
  0
SEQEND
  0
POLYLINE
  8
LAYER_3
 40
0.1058
 41
0.1058
 66
1
 10
0
 20
0
 30
0
  0
VERTEX
  8
LAYER_3
 10
159.6856
 20
-90.1374
  0
VERTEX
  8
LAYER_3
 10
159.6856
 20
-91.1296
 42
-0.4139814581
  0
VERTEX
  8
LAYER_3
 10
159.5856
 20
-91.2296
  0
VERTEX
  8
LAYER_3
 10
159.2856
 20
-91.2296
 42
0.414290979
  0
VERTEX
  8
LAYER_3
 10
158.9856
 20
-91.5296
  0
VERTEX
  8
LAYER_3
 10
158.9856
 20
-92.0296
 42
0.4142321278
  0
VERTEX
  8
LAYER_3
 10
159.1856
 20
-92.2296
  0
VERTEX
  8
LAYER_3
 10
159.4606
 20
-92.2296
 42
-0.4141762732
  0
VERTEX
  8
LAYER_3
 10
159.5606
 20
-92.3296
  0
VERTEX
  8
LAYER_3
 10
159.5606
 20
-93.1796
 42
-0.414097376
  0
VERTEX
  8
LAYER_3
 10
159.3606
 20
-93.3796
  0
VERTEX
  8
LAYER_3
 10
157.3804
 20
-93.3796
  0
SEQEND
  0
POLYLINE
  8
LAYER_3
 40
0.1058
 41
0.1058
 66
1
 10
0
 20
0
 30
0
  0
VERTEX
  8
LAYER_3
 10
156.2262
 20
-91.6296
  0
VERTEX
  8
LAYER_3
 10
157.4714
 20
-91.6296
  0
SEQEND
  0
POLYLINE
  8
LAYER_3
 40
0.1058
 41
0.1058
 66
1
 10
0
 20
0
 30
0
  0
VERTEX
  8
LAYER_3
 10
156.5786
 20
-95.9296
 42
0.4100591514
  0
VERTEX
  8
LAYER_3
 10
156.0857
 20
-96.4295
  0
SEQEND
  0
POLYLINE
  8
LAYER_3
 40
0.1058
 41
0.1058
 66
1
 10
0
 20
0
 30
0
  0
VERTEX
  8
LAYER_3
 10
156.0857
 20
-95.9296
  0
VERTEX
  8
LAYER_3
 10
156.7302
 20
-95.9296
  0
SEQEND
  0
POLYLINE
  8
LAYER_3
 40
0.1058
 41
0.1058
 66
1
 10
0
 20
0
 30
0
  0
VERTEX
  8
LAYER_3
 10
156.0857
 20
-101.8296
 42
0.414202554
  0
VERTEX
  8
LAYER_3
 10
156.5857
 20
-102.3296
  0
SEQEND
  0
POLYLINE
  8
LAYER_3
 40
0.1058
 41
0.1058
 66
1
 10
0
 20
0
 30
0
  0
VERTEX
  8
LAYER_3
 10
157.3857
 20
-102.8296
  0
VERTEX
  8
LAYER_3
 10
156.0857
 20
-102.8296
  0
SEQEND
  0
POLYLINE
  8
LAYER_3
 40
0.1058
 41
0.1058
 66
1
 10
0
 20
0
 30
0
  0
VERTEX
  8
LAYER_3
 10
157.2428
 20
-93.4296
 42
0.3666794232
  0
VERTEX
  8
LAYER_3
 10
157.4542
 20
-93.2505
  0
VERTEX
  8
LAYER_3
 10
157.6828
 20
-91.8791
  0
VERTEX
  8
LAYER_3
 10
157.6857
 20
-91.8439
 42
0.4142784954
  0
VERTEX
  8
LAYER_3
 10
157.4714
 20
-91.6296
 42
0.3666046863
  0
VERTEX
  8
LAYER_3
 10
157.26
 20
-91.8086
  0
VERTEX
  8
LAYER_3
 10
157.0911
 20
-92.8219
 42
-0.3666347451
  0
VERTEX
  8
LAYER_3
 10
156.8798
 20
-93.001
  0
VERTEX
  8
LAYER_3
 10
156.842
 20
-93.001
 42
-0.3600670845
  0
VERTEX
  8
LAYER_3
 10
156.6315
 20
-92.8268
  0
VERTEX
  8
LAYER_3
 10
156.4367
 20
-91.8038
 42
0.360120223
  0
VERTEX
  8
LAYER_3
 10
156.2262
 20
-91.6296
 42
0.4143231397
  0
VERTEX
  8
LAYER_3
 10
156.0119
 20
-91.8439
  0
VERTEX
  8
LAYER_3
 10
156.0157
 20
-91.8839
  0
VERTEX
  8
LAYER_3
 10
156.2769
 20
-93.2554
 42
0.3600772824
  0
VERTEX
  8
LAYER_3
 10
156.4874
 20
-93.4296
  0
SEQEND
  0
POLYLINE
  8
LAYER_3
 40
0.1058
 41
0.1058
 66
1
 10
0
 20
0
 30
0
  0
VERTEX
  8
LAYER_3
 10
156.0857
 20
-97.3796
 42
-0.4141435981
  0
VERTEX
  8
LAYER_3
 10
155.8857
 20
-97.5796
  0
VERTEX
  8
LAYER_3
 10
155.5857
 20
-97.5796
 42
0.4142415533
  0
VERTEX
  8
LAYER_3
 10
155.0857
 20
-98.0796
  0
VERTEX
  8
LAYER_3
 10
155.0857
 20
-100.1796
 42
0.4142024681
  0
VERTEX
  8
LAYER_3
 10
155.5857
 20
-100.6796
  0
VERTEX
  8
LAYER_3
 10
155.8857
 20
-100.6796
 42
-0.414241288
  0
VERTEX
  8
LAYER_3
 10
156.0857
 20
-100.8796
  0
SEQEND
  0
POLYLINE
  8
LAYER_3
 40
0.1058
 41
0.1058
 66
1
 10
0
 20
0
 30
0
  0
VERTEX
  8
LAYER_3
 10
156.7064
 20
-95.93
  0
VERTEX
  8
LAYER_3
 10
156.7147
 20
-95.9302
 42
0.3319603043
  0
VERTEX
  8
LAYER_3
 10
156.9064
 20
-95.7871
 42
-0.3319153008
  0
VERTEX
  8
LAYER_3
 10
157.3857
 20
-95.4296
 42
-0.3316593901
  0
VERTEX
  8
LAYER_3
 10
157.8648
 20
-95.7867
 42
0.3317006541
  0
VERTEX
  8
LAYER_3
 10
158.0565
 20
-95.9296
  0
VERTEX
  8
LAYER_3
 10
158.1357
 20
-95.9296
 42
-0.414241288
  0
VERTEX
  8
LAYER_3
 10
158.3357
 20
-96.1296
  0
VERTEX
  8
LAYER_3
 10
158.3357
 20
-102.1296
 42
-0.4141438127
  0
VERTEX
  8
LAYER_3
 10
158.1357
 20
-102.3296
  0
VERTEX
  8
LAYER_3
 10
158.0565
 20
-102.3296
 42
0.331656211
  0
VERTEX
  8
LAYER_3
 10
157.8648
 20
-102.4724
 42
-0.3316771729
  0
VERTEX
  8
LAYER_3
 10
157.3857
 20
-102.8296
 42
-0.3319330862
  0
VERTEX
  8
LAYER_3
 10
156.9064
 20
-102.472
 42
0.3180748854
  0
VERTEX
  8
LAYER_3
 10
156.7149
 20
-102.3296
  0
VERTEX
  8
LAYER_3
 10
156.0857
 20
-102.3296
  0
SEQEND
  0
POLYLINE
  8
LAYER_3
 40
0.1058
 41
0.1058
 66
1
 10
0
 20
0
 30
0
  0
VERTEX
  8
LAYER_3
 10
156.6926
 20
-103.1796
  0
VERTEX
  8
LAYER_3
 10
156.6926
 20
-102.8296
  0
SEQEND
  0
POLYLINE
  8
LAYER_3
 40
0.1058
 41
0.1058
 66
1
 10
0
 20
0
 30
0
  0
VERTEX
  8
LAYER_3
 10
161.0856
 20
-129.3296
 42
-0.4140876401
  0
VERTEX
  8
LAYER_3
 10
160.8856
 20
-129.5296
  0
VERTEX
  8
LAYER_3
 10
159.7661
 20
-129.5296
  0
SEQEND
  0
POLYLINE
  8
LAYER_3
 40
0.1058
 41
0.1058
 66
1
 10
0
 20
0
 30
0
  0
VERTEX
  8
LAYER_3
 10
161.0856
 20
-132.3296
 42
0.4142047683
  0
VERTEX
  8
LAYER_3
 10
160.8856
 20
-132.1296
  0
VERTEX
  8
LAYER_3
 10
159.7745
 20
-132.1296
  0
SEQEND
  0
POLYLINE
  8
LAYER_3
 40
0.1058
 41
0.1058
 66
1
 10
0
 20
0
 30
0
  0
VERTEX
  8
LAYER_3
 10
158.1872
 20
-113.7893
  0
VERTEX
  8
LAYER_3
 10
158.2106
 20
-113.7796
  0
VERTEX
  8
LAYER_3
 10
158.2436
 20
-113.8126
  0
VERTEX
  8
LAYER_3
 10
158.2436
 20
-114.9296
  0
VERTEX
  8
LAYER_3
 10
159.2739
 20
-114.9296
  0
SEQEND
  0
POLYLINE
  8
LAYER_3
 40
0.1058
 41
0.1058
 66
1
 10
0
 20
0
 30
0
  0
VERTEX
  8
LAYER_3
 10
159.4341
 20
-132.8296
  0
VERTEX
  8
LAYER_3
 10
159.4341
 20
-132.1296
  0
SEQEND
  0
POLYLINE
  8
LAYER_3
 40
0.1058
 41
0.1058
 66
1
 10
0
 20
0
 30
0
  0
VERTEX
  8
LAYER_3
 10
156.3857
 20
-117.6296
  0
VERTEX
  8
LAYER_3
 10
156.4232
 20
-117.6296
  0
SEQEND
  0
POLYLINE
  8
LAYER_3
 40
0.1058
 41
0.1058
 66
1
 10
0
 20
0
 30
0
  0
VERTEX
  8
LAYER_3
 10
157.8622
 20
-119.4296
  0
VERTEX
  8
LAYER_3
 10
157.8622
 20
-117.6296
  0
VERTEX
  8
LAYER_3
 10
158.7682
 20
-117.6296
  0
SEQEND
  0
POLYLINE
  8
LAYER_3
 40
0.1058
 41
0.1058
 66
1
 10
0
 20
0
 30
0
  0
VERTEX
  8
LAYER_3
 10
155.6857
 20
-138.6296
 42
-0.4141985716
  0
VERTEX
  8
LAYER_3
 10
155.1857
 20
-138.1296
  0
VERTEX
  8
LAYER_3
 10
155.1857
 20
-136.6296
 42
-0.4142454501
  0
VERTEX
  8
LAYER_3
 10
155.6857
 20
-136.1296
  0
SEQEND
  0
POLYLINE
  8
LAYER_3
 40
0.1058
 41
0.1058
 66
1
 10
0
 20
0
 30
0
  0
VERTEX
  8
LAYER_3
 10
170.9297
 20
-136.9701
 42
0.1718183782
  0
VERTEX
  8
LAYER_3
 10
171.0857
 20
-136.5296
 42
0.4142242684
  0
VERTEX
  8
LAYER_3
 10
170.3857
 20
-135.8296
  0
SEQEND
  0
POLYLINE
  8
LAYER_3
 40
0.1058
 41
0.1058
 66
1
 10
0
 20
0
 30
0
  0
VERTEX
  8
LAYER_3
 10
169.3857
 20
-138.6296
 42
-0.4141985716
  0
VERTEX
  8
LAYER_3
 10
168.8857
 20
-138.1296
  0
VERTEX
  8
LAYER_3
 10
168.8857
 20
-135.8296
  0
SEQEND
  0
POLYLINE
  8
LAYER_3
 40
0.1058
 41
0.1058
 66
1
 10
0
 20
0
 30
0
  0
VERTEX
  8
LAYER_3
 10
162.9812
 20
-138.6296
 42
0.4142053404
  0
VERTEX
  8
LAYER_3
 10
163.4812
 20
-138.1296
  0
VERTEX
  8
LAYER_3
 10
163.4812
 20
-135.8296
  0
SEQEND
  0
POLYLINE
  8
LAYER_3
 40
0.1058
 41
0.1058
 66
1
 10
0
 20
0
 30
0
  0
VERTEX
  8
LAYER_3
 10
153.1857
 20
-136.1296
  0
VERTEX
  8
LAYER_3
 10
156.2443
 20
-136.1296
 42
0.4091247071
  0
VERTEX
  8
LAYER_3
 10
156.7443
 20
-135.6383
  0
SEQEND
  0
POLYLINE
  8
LAYER_3
 40
0.1058
 41
0.1058
 66
1
 10
0
 20
0
 30
0
  0
VERTEX
  8
LAYER_3
 10
157.1857
 20
-122.8296
  0
VERTEX
  8
LAYER_3
 10
156.3857
 20
-122.8296
  0
SEQEND
  0
POLYLINE
  8
LAYER_3
 40
0.1058
 41
0.1058
 66
1
 10
0
 20
0
 30
0
  0
VERTEX
  8
LAYER_3
 10
156.9588
 20
-123.345
 42
-0.1282904332
  0
VERTEX
  8
LAYER_3
 10
157.0269
 20
-123.1018
  0
VERTEX
  8
LAYER_3
 10
158.5182
 20
-120.5452
 42
0.1338498116
  0
VERTEX
  8
LAYER_3
 10
158.5857
 20
-120.2929
  0
VERTEX
  8
LAYER_3
 10
158.5857
 20
-119.3456
  0
SEQEND
  0
POLYLINE
  8
LAYER_3
 40
0.1058
 41
0.1058
 66
1
 10
0
 20
0
 30
0
  0
VERTEX
  8
LAYER_3
 10
160.1857
 20
-132.1296
 42
0.414133859
  0
VERTEX
  8
LAYER_3
 10
160.3857
 20
-131.9296
  0
VERTEX
  8
LAYER_3
 10
160.3857
 20
-131.5613
  0
VERTEX
  8
LAYER_3
 10
160.3758
 20
-131.4993
  0
VERTEX
  8
LAYER_3
 10
159.6357
 20
-129.2296
  0
VERTEX
  8
LAYER_3
 10
159.6357
 20
-119.4296
  0
VERTEX
  8
LAYER_3
 10
158.5857
 20
-119.4296
  0
SEQEND
  0
POLYLINE
  8
LAYER_3
 40
0.1058
 41
0.1058
 66
1
 10
0
 20
0
 30
0
  0
VERTEX
  8
LAYER_3
 10
154.0357
 20
-124.3613
  0
VERTEX
  8
LAYER_3
 10
154.0357
 20
-136.1296
  0
SEQEND
  0
POLYLINE
  8
LAYER_3
 40
0.1058
 41
0.1058
 66
1
 10
0
 20
0
 30
0
  0
VERTEX
  8
LAYER_3
 10
153.9857
 20
-136.1296
  0
VERTEX
  8
LAYER_3
 10
153.9857
 20
-124.386
  0
SEQEND
  0
CIRCLE
  8
LAYER_3
 10
156.0357
 20
-108.0296
 40
0.35
  0
POLYLINE
  8
LAYER_3
 40
0.1058
 41
0.1058
 66
1
 10
0
 20
0
 30
0
  0
VERTEX
  8
LAYER_3
 10
153.3453
 20
-124.5296
 42
0.3816936243
  0
VERTEX
  8
LAYER_3
 10
154.8359
 20
-123.1977
  0
VERTEX
  8
LAYER_3
 10
155.4226
 20
-118.0934
  0
VERTEX
  8
LAYER_3
 10
155.4357
 20
-117.865
  0
VERTEX
  8
LAYER_3
 10
155.4357
 20
-107.9796
 42
-0.4142600723
  0
VERTEX
  8
LAYER_3
 10
155.7357
 20
-107.6796
  0
VERTEX
  8
LAYER_3
 10
156.4107
 20
-107.6796
 42
0.4141438125
  0
VERTEX
  8
LAYER_3
 10
156.6107
 20
-107.4796
  0
VERTEX
  8
LAYER_3
 10
156.6107
 20
-106.3796
 42
0.4142410736
  0
VERTEX
  8
LAYER_3
 10
156.4107
 20
-106.1796
  0
SEQEND
  0
CIRCLE
  8
LAYER_3
 10
156.0357
 20
-135.7796
 40
0.35
  0
CIRCLE
  8
LAYER_3
 10
156.0357
 20
-134.0452
 40
0.35
  0
CIRCLE
  8
LAYER_3
 10
156.0357
 20
-132.3108
 40
0.35
  0
CIRCLE
  8
LAYER_3
 10
156.0357
 20
-130.5764
 40
0.35
  0
CIRCLE
  8
LAYER_3
 10
156.0357
 20
-128.8421
 40
0.35
  0
CIRCLE
  8
LAYER_3
 10
156.0357
 20
-127.1077
 40
0.35
  0
CIRCLE
  8
LAYER_3
 10
156.0357
 20
-125.3733
 40
0.35
  0
CIRCLE
  8
LAYER_3
 10
156.0357
 20
-123.6389
 40
0.35
  0
CIRCLE
  8
LAYER_3
 10
156.0357
 20
-121.9046
 40
0.35
  0
CIRCLE
  8
LAYER_3
 10
156.0357
 20
-120.1702
 40
0.35
  0
CIRCLE
  8
LAYER_3
 10
156.0357
 20
-118.4358
 40
0.35
  0
CIRCLE
  8
LAYER_3
 10
156.0357
 20
-116.7014
 40
0.35
  0
CIRCLE
  8
LAYER_3
 10
156.0357
 20
-114.9671
 40
0.35
  0
CIRCLE
  8
LAYER_3
 10
156.0357
 20
-113.2327
 40
0.35
  0
CIRCLE
  8
LAYER_3
 10
156.0357
 20
-111.4983
 40
0.35
  0
CIRCLE
  8
LAYER_3
 10
156.0357
 20
-109.7639
 40
0.35
  0
POLYLINE
  8
LAYER_3
 40
0.1058
 41
0.1058
 66
1
 10
0
 20
0
 30
0
  0
VERTEX
  8
LAYER_3
 10
156.124
 20
-132.6669
  0
VERTEX
  8
LAYER_3
 10
156.1127
 20
-132.8296
  0
VERTEX
  8
LAYER_3
 10
159.4357
 20
-132.8296
 42
-0.4142435362
  0
VERTEX
  8
LAYER_3
 10
159.6857
 20
-133.0796
  0
VERTEX
  8
LAYER_3
 10
159.6857
 20
-135.5296
 42
0.4141885763
  0
VERTEX
  8
LAYER_3
 10
159.9857
 20
-135.8296
  0
SEQEND
  0
POLYLINE
  8
LAYER_3
 40
0.1058
 41
0.1058
 66
1
 10
0
 20
0
 30
0
  0
VERTEX
  8
LAYER_3
 10
156.2862
 20
-130.332
  0
VERTEX
  8
LAYER_3
 10
156.3628
 20
-129.23
  0
VERTEX
  8
LAYER_3
 10
156.8561
 20
-129.2296
  0
SEQEND
  0
POLYLINE
  8
LAYER_3
 40
0.1058
 41
0.1058
 66
1
 10
0
 20
0
 30
0
  0
VERTEX
  8
LAYER_3
 10
156.25
 20
-130.8531
  0
VERTEX
  8
LAYER_3
 10
156.1712
 20
-131.9881
  0
SEQEND
  0
POLYLINE
  8
LAYER_3
 40
0.1058
 41
0.1058
 66
1
 10
0
 20
0
 30
0
  0
VERTEX
  8
LAYER_3
 10
156.8055
 20
-132.1296
  0
VERTEX
  8
LAYER_3
 10
159.7745
 20
-132.1296
  0
VERTEX
  8
LAYER_3
 10
159.7846
 20
-135.2796
  0
VERTEX
  8
LAYER_3
 10
160.0856
 20
-135.5796
  0
SEQEND
  0
POLYLINE
  8
LAYER_3
 40
0.1058
 41
0.1058
 66
1
 10
0
 20
0
 30
0
  0
VERTEX
  8
LAYER_3
 10
158.5666
 20
-120.4296
  0
VERTEX
  8
LAYER_3
 10
156.3857
 20
-120.4296
  0
SEQEND
  0
POLYLINE
  8
LAYER_3
 40
0.1058
 41
0.1058
 66
1
 10
0
 20
0
 30
0
  0
VERTEX
  8
LAYER_3
 10
156.6926
 20
-107.1796
  0
VERTEX
  8
LAYER_3
 10
156.6926
 20
-114.9296
  0
VERTEX
  8
LAYER_3
 10
157.407
 20
-114.9296
  0
SEQEND
  0
POLYLINE
  8
LAYER_3
 40
0.1058
 41
0.1058
 66
1
 10
0
 20
0
 30
0
  0
VERTEX
  8
LAYER_3
 10
156.3857
 20
-108.0296
  0
VERTEX
  8
LAYER_3
 10
156.3857
 20
-135.7796
  0
SEQEND
  0
POLYLINE
  8
LAYER_3
 40
0.1058
 41
0.1058
 66
1
 10
0
 20
0
 30
0
  0
VERTEX
  8
LAYER_3
 10
158.4951
 20
-95.4296
  0
VERTEX
  8
LAYER_3
 10
158.4951
 20
-114.1296
  0
VERTEX
  8
LAYER_3
 10
159.5767
 20
-114.1296
  0
VERTEX
  8
LAYER_3
 10
159.5767
 20
-95.7189
  0
SEQEND
  0
POLYLINE
  8
LAYER_3
 40
0.1058
 41
0.1058
 66
1
 10
0
 20
0
 30
0
  0
VERTEX
  8
LAYER_3
 10
159.6899
 20
-135.5796
  0
VERTEX
  8
LAYER_3
 10
161.0856
 20
-135.5796
  0
VERTEX
  8
LAYER_3
 10
161.0856
 20
-90.9077
 42
0.2744994351
  0
VERTEX
  8
LAYER_3
 10
160.9292
 20
-90.6443
  0
VERTEX
  8
LAYER_3
 10
160.0527
 20
-90.1662
  0
VERTEX
  8
LAYER_3
 10
159.9091
 20
-90.1296
  0
VERTEX
  8
LAYER_3
 10
159.6852
 20
-90.1296
 42
0.2688755
  0
VERTEX
  8
LAYER_3
 10
159.6316
 20
-90.0486
 42
-0.02368253256
  0
VERTEX
  8
LAYER_3
 10
157.9935
 20
-89.0988
 42
-0.2547985707
  0
VERTEX
  8
LAYER_3
 10
157.5356
 20
-88.2584
  0
SEQEND
  0
POLYLINE
  8
LAYER_3
 40
0.1058
 41
0.1058
 66
1
 10
0
 20
0
 30
0
  0
VERTEX
  8
LAYER_3
 10
156.0857
 20
-95.4296
  0
VERTEX
  8
LAYER_3
 10
159.2856
 20
-95.4296
  0
VERTEX
  8
LAYER_3
 10
159.5874
 20
-95.7296
  0
VERTEX
  8
LAYER_3
 10
159.6356
 20
-103.5296
  0
VERTEX
  8
LAYER_3
 10
159.6856
 20
-113.7296
  0
VERTEX
  8
LAYER_3
 10
159.7356
 20
-120.0296
  0
VERTEX
  8
LAYER_3
 10
159.7664
 20
-129.6305
  0
SEQEND
  0
POLYLINE
  8
LAYER_3
 40
0.1058
 41
0.1058
 66
1
 10
0
 20
0
 30
0
  0
VERTEX
  8
LAYER_3
 10
156.1357
 20
-103.1796
  0
VERTEX
  8
LAYER_3
 10
156.1357
 20
-106.1796
  0
SEQEND
  0
POLYLINE
  8
LAYER_3
 40
0.1058
 41
0.1058
 66
1
 10
0
 20
0
 30
0
  0
VERTEX
  8
LAYER_3
 10
156.0857
 20
-103.1796
  0
VERTEX
  8
LAYER_3
 10
158.1857
 20
-103.1796
  0
VERTEX
  8
LAYER_3
 10
158.1857
 20
-103.6777
 42
0.4141595889
  0
VERTEX
  8
LAYER_3
 10
158.2857
 20
-103.7777
  0
VERTEX
  8
LAYER_3
 10
159.432
 20
-103.7777
 42
-0.3948122655
  0
VERTEX
  8
LAYER_3
 10
159.5318
 20
-103.871
  0
VERTEX
  8
LAYER_3
 10
159.5857
 20
-104.6796
  0
VERTEX
  8
LAYER_3
 10
159.5318
 20
-105.4881
 42
-0.394914622
  0
VERTEX
  8
LAYER_3
 10
159.432
 20
-105.5815
  0
VERTEX
  8
LAYER_3
 10
158.2857
 20
-105.5815
 42
0.4143542044
  0
VERTEX
  8
LAYER_3
 10
158.1857
 20
-105.6815
  0
VERTEX
  8
LAYER_3
 10
158.1857
 20
-106.0923
 42
-0.3274882407
  0
VERTEX
  8
LAYER_3
 10
158.1107
 20
-106.1891
 42
0.3420410069
  0
VERTEX
  8
LAYER_3
 10
157.8857
 20
-106.4796
  0
VERTEX
  8
LAYER_3
 10
157.8857
 20
-106.8796
 42
-0.4141670607
  0
VERTEX
  8
LAYER_3
 10
157.5857
 20
-107.1796
  0
VERTEX
  8
LAYER_3
 10
156.6107
 20
-107.1796
  0
SEQEND
  0
POLYLINE
  8
LAYER_3
 40
0.1058
 41
0.1058
 66
1
 10
0
 20
0
 30
0
  0
VERTEX
  8
LAYER_3
 10
157.1857
 20
-107.1796
 42
-0.4141952139
  0
VERTEX
  8
LAYER_3
 10
156.8857
 20
-106.8796
  0
VERTEX
  8
LAYER_3
 10
156.8857
 20
-106.4796
 42
0.4142319047
  0
VERTEX
  8
LAYER_3
 10
156.5857
 20
-106.1796
  0
VERTEX
  8
LAYER_3
 10
156.0857
 20
-106.1796
  0
VERTEX
  8
LAYER_3
 10
156.0857
 20
-105.3796
 42
0.4142410736
  0
VERTEX
  8
LAYER_3
 10
155.8857
 20
-105.1796
  0
VERTEX
  8
LAYER_3
 10
155.7857
 20
-105.1796
 42
-0.4141860377
  0
VERTEX
  8
LAYER_3
 10
155.5857
 20
-104.9796
  0
VERTEX
  8
LAYER_3
 10
155.5857
 20
-104.2796
 42
-0.41428333
  0
VERTEX
  8
LAYER_3
 10
155.7857
 20
-104.0796
  0
VERTEX
  8
LAYER_3
 10
155.8857
 20
-104.0796
 42
0.4141438125
  0
VERTEX
  8
LAYER_3
 10
156.0857
 20
-103.8796
  0
VERTEX
  8
LAYER_3
 10
156.0857
 20
-101.8296
  0
VERTEX
  8
LAYER_3
 10
156.0857
 20
-100.6296
  0
VERTEX
  8
LAYER_3
 10
155.5607
 20
-100.6296
 42
-0.2690378819
  0
VERTEX
  8
LAYER_3
 10
155.1267
 20
-100.3778
  0
SEQEND
  0
POLYLINE
  8
LAYER_3
 40
0.1058
 41
0.1058
 66
1
 10
0
 20
0
 30
0
  0
VERTEX
  8
LAYER_3
 10
156.0857
 20
-67.0867
  0
VERTEX
  8
LAYER_3
 10
156.0857
 20
-96.4295
  0
VERTEX
  8
LAYER_3
 10
156.0857
 20
-97.6296
  0
VERTEX
  8
LAYER_3
 10
155.5607
 20
-97.6296
 42
0.2690223916
  0
VERTEX
  8
LAYER_3
 10
155.1267
 20
-97.8813
  0
SEQEND
  0
POLYLINE
  8
LAYER_3
 40
0.1058
 41
0.1058
 66
1
 10
0
 20
0
 30
0
  0
VERTEX
  8
LAYER_3
 10
150.2857
 20
-75.1296
  0
VERTEX
  8
LAYER_3
 10
150.2857
 20
-80.4833
  0
SEQEND
  0
POLYLINE
  8
LAYER_3
 40
0.1058
 41
0.1058
 66
1
 10
0
 20
0
 30
0
  0
VERTEX
  8
LAYER_3
 10
153.1857
 20
-138.6296
  0
VERTEX
  8
LAYER_3
 10
169.4472
 20
-138.6296
 42
0.2262976838
  0
VERTEX
  8
LAYER_3
 10
169.8358
 20
-138.4442
  0
VERTEX
  8
LAYER_3
 10
170.9477
 20
-136.9469
  0
SEQEND
  0
POLYLINE
  8
LAYER_3
 40
0.1058
 41
0.1058
 66
1
 10
0
 20
0
 30
0
  0
VERTEX
  8
LAYER_3
 10
145.2856
 20
-116.3796
  0
VERTEX
  8
LAYER_3
 10
145.2856
 20
-99.9796
 42
0.0739283029
  0
VERTEX
  8
LAYER_3
 10
145.0477
 20
-98.3796
  0
SEQEND
  0
POLYLINE
  8
LAYER_3
 40
0.1058
 41
0.1058
 66
1
 10
0
 20
0
 30
0
  0
VERTEX
  8
LAYER_3
 10
169.9356
 20
-71.3296
 42
-0.4140975903
  0
VERTEX
  8
LAYER_3
 10
169.7356
 20
-71.5296
  0
VERTEX
  8
LAYER_3
 10
167.1856
 20
-71.5296
  0
SEQEND
  0
POLYLINE
  8
LAYER_3
 40
0.1058
 41
0.1058
 66
1
 10
0
 20
0
 30
0
  0
VERTEX
  8
LAYER_3
 10
167.1856
 20
-61.9497
 42
0.3643741441
  0
VERTEX
  8
LAYER_3
 10
166.7717
 20
-61.4572
  0
VERTEX
  8
LAYER_3
 10
163.2283
 20
-60.8371
  0
VERTEX
  8
LAYER_3
 10
163.1421
 20
-60.8296
  0
VERTEX
  8
LAYER_3
 10
153.1856
 20
-60.8296
  0
SEQEND
  0
POLYLINE
  8
LAYER_3
 40
0.1058
 41
0.1058
 66
1
 10
0
 20
0
 30
0
  0
VERTEX
  8
LAYER_3
 10
167.1856
 20
-63.3296
 42
0.4142210479
  0
VERTEX
  8
LAYER_3
 10
167.6856
 20
-63.8296
  0
SEQEND
  0
POLYLINE
  8
LAYER_3
 40
0.1058
 41
0.1058
 66
1
 10
0
 20
0
 30
0
  0
VERTEX
  8
LAYER_3
 10
167.3856
 20
-67.8296
 42
0.4143295891
  0
VERTEX
  8
LAYER_3
 10
167.1856
 20
-68.0296
  0
SEQEND
  0
POLYLINE
  8
LAYER_3
 40
0.1058
 41
0.1058
 66
1
 10
0
 20
0
 30
0
  0
VERTEX
  8
LAYER_3
 10
169.4356
 20
-71.5296
 42
0.4142599666
  0
VERTEX
  8
LAYER_3
 10
168.9356
 20
-72.0296
  0
VERTEX
  8
LAYER_3
 10
168.9356
 20
-72.5296
  0
SEQEND
  0
POLYLINE
  8
LAYER_3
 40
0.1058
 41
0.1058
 66
1
 10
0
 20
0
 30
0
  0
VERTEX
  8
LAYER_3
 10
137.4356
 20
-72.3296
  0
VERTEX
  8
LAYER_3
 10
137.4356
 20
-72.5296
  0
SEQEND
  0
POLYLINE
  8
LAYER_3
 40
0.1058
 41
0.1058
 66
1
 10
0
 20
0
 30
0
  0
VERTEX
  8
LAYER_3
 10
129.1195
 20
-63.3296
 42
-0.267962413
  0
VERTEX
  8
LAYER_3
 10
130.4186
 20
-64.0796
  0
VERTEX
  8
LAYER_3
 10
131.5155
 20
-65.9796
 42
0.2679023144
  0
VERTEX
  8
LAYER_3
 10
131.7753
 20
-66.1296
  0
VERTEX
  8
LAYER_3
 10
153.1856
 20
-66.1296
  0
SEQEND
  0
POLYLINE
  8
LAYER_3
 40
0.1058
 41
0.1058
 66
1
 10
0
 20
0
 30
0
  0
VERTEX
  8
LAYER_3
 10
132.1356
 20
-66.1296
 42
-0.3851687975
  0
VERTEX
  8
LAYER_3
 10
134.822
 20
-68.5596
 42
0.3851250786
  0
VERTEX
  8
LAYER_3
 10
135.1205
 20
-68.8296
  0
SEQEND
  0
POLYLINE
  8
LAYER_3
 40
0.1058
 41
0.1058
 66
1
 10
0
 20
0
 30
0
  0
VERTEX
  8
LAYER_3
 10
170.2356
 20
-68.8296
  0
VERTEX
  8
LAYER_3
 10
171.2506
 20
-68.8296
 42
0.3851319739
  0
VERTEX
  8
LAYER_3
 10
171.5491
 20
-68.5596
 42
-0.3851786645
  0
VERTEX
  8
LAYER_3
 10
174.2356
 20
-66.1296
  0
VERTEX
  8
LAYER_3
 10
174.5958
 20
-66.1296
 42
0.2679058896
  0
VERTEX
  8
LAYER_3
 10
174.8556
 20
-65.9796
  0
VERTEX
  8
LAYER_3
 10
175.9525
 20
-64.0796
 42
-0.2679616979
  0
VERTEX
  8
LAYER_3
 10
177.2516
 20
-63.3296
  0
VERTEX
  8
LAYER_3
 10
186.6856
 20
-63.3296
 42
0.4141903638
  0
VERTEX
  8
LAYER_3
 10
187.6856
 20
-62.3296
  0
VERTEX
  8
LAYER_3
 10
187.6856
 20
-62.1698
 42
0.3163879632
  0
VERTEX
  8
LAYER_3
 10
187.0239
 20
-61.2287
 42
0.08651435717
  0
VERTEX
  8
LAYER_3
 10
153.1856
 20
-55.3296
 42
0.08651460795
  0
VERTEX
  8
LAYER_3
 10
119.3472
 20
-61.2287
 42
0.3163859036
  0
VERTEX
  8
LAYER_3
 10
118.6856
 20
-62.1698
  0
VERTEX
  8
LAYER_3
 10
118.6856
 20
-62.3296
 42
0.4142173058
  0
VERTEX
  8
LAYER_3
 10
119.6856
 20
-63.3296
  0
VERTEX
  8
LAYER_3
 10
153.1856
 20
-63.3296
  0
SEQEND
  0
POLYLINE
  8
LAYER_3
 40
0.1058
 41
0.1058
 66
1
 10
0
 20
0
 30
0
  0
VERTEX
  8
LAYER_3
 10
166.9567
 20
-61.5296
  0
VERTEX
  8
LAYER_3
 10
160.1485
 20
-61.5296
  0
SEQEND
  0
POLYLINE
  8
LAYER_3
 40
0.1058
 41
0.1058
 66
1
 10
0
 20
0
 30
0
  0
VERTEX
  8
LAYER_3
 10
160.4356
 20
-63.8296
  0
VERTEX
  8
LAYER_3
 10
164.5181
 20
-63.8296
  0
SEQEND
  0
POLYLINE
  8
LAYER_3
 40
0.1058
 41
0.1058
 66
1
 10
0
 20
0
 30
0
  0
VERTEX
  8
LAYER_3
 10
167.0356
 20
-67.8296
  0
VERTEX
  8
LAYER_3
 10
167.6856
 20
-67.8296
 42
0.414167167
  0
VERTEX
  8
LAYER_3
 10
168.1856
 20
-67.3296
  0
VERTEX
  8
LAYER_3
 10
168.1856
 20
-64.3296
 42
0.4142060697
  0
VERTEX
  8
LAYER_3
 10
167.6856
 20
-63.8296
  0
VERTEX
  8
LAYER_3
 10
166.9856
 20
-63.8296
  0
SEQEND
  0
POLYLINE
  8
LAYER_3
 40
0.1058
 41
0.1058
 66
1
 10
0
 20
0
 30
0
  0
VERTEX
  8
LAYER_3
 10
160.4356
 20
-67.8296
  0
VERTEX
  8
LAYER_3
 10
164.4832
 20
-67.8296
  0
SEQEND
  0
POLYLINE
  8
LAYER_3
 40
0.1058
 41
0.1058
 66
1
 10
0
 20
0
 30
0
  0
VERTEX
  8
LAYER_3
 10
167.0356
 20
-71.5296
  0
VERTEX
  8
LAYER_3
 10
167.1856
 20
-71.5296
  0
VERTEX
  8
LAYER_3
 10
167.3856
 20
-71.7296
  0
SEQEND
  0
POLYLINE
  8
LAYER_3
 40
0.1058
 41
0.1058
 66
1
 10
0
 20
0
 30
0
  0
VERTEX
  8
LAYER_3
 10
164.4509
 20
-71.5296
  0
VERTEX
  8
LAYER_3
 10
160.7091
 20
-71.5296
  0
SEQEND
  0
POLYLINE
  8
LAYER_3
 40
0.1058
 41
0.1058
 66
1
 10
0
 20
0
 30
0
  0
VERTEX
  8
LAYER_3
 10
155.5357
 20
-63.7796
 42
0.4141438127
  0
VERTEX
  8
LAYER_3
 10
155.7357
 20
-63.5796
  0
VERTEX
  8
LAYER_3
 10
155.7357
 20
-63.3796
 42
0.4142160639
  0
VERTEX
  8
LAYER_3
 10
153.5357
 20
-61.1796
  0
VERTEX
  8
LAYER_3
 10
153.1857
 20
-61.1796
  0
SEQEND
  0
POLYLINE
  8
LAYER_3
 40
0.1058
 41
0.1058
 66
1
 10
0
 20
0
 30
0
  0
VERTEX
  8
LAYER_3
 10
156.0857
 20
-67.0867
 42
0.1989478453
  0
VERTEX
  8
LAYER_3
 10
155.9392
 20
-66.7331
  0
VERTEX
  8
LAYER_3
 10
155.8821
 20
-66.676
 42
-0.1988748255
  0
VERTEX
  8
LAYER_3
 10
155.7357
 20
-66.3225
  0
VERTEX
  8
LAYER_3
 10
155.7357
 20
-65.5796
 42
0.4142410736
  0
VERTEX
  8
LAYER_3
 10
155.5357
 20
-65.3796
  0
VERTEX
  8
LAYER_3
 10
155.3357
 20
-65.3796
 42
-0.4142062239
  0
VERTEX
  8
LAYER_3
 10
154.5857
 20
-64.6296
  0
VERTEX
  8
LAYER_3
 10
154.5857
 20
-64.5296
 42
-0.4142321656
  0
VERTEX
  8
LAYER_3
 10
155.3357
 20
-63.7796
  0
SEQEND
  0
POLYLINE
  8
LAYER_3
 40
0.1058
 41
0.1058
 66
1
 10
0
 20
0
 30
0
  0
VERTEX
  8
LAYER_3
 10
134.3856
 20
-172.5796
  0
VERTEX
  8
LAYER_3
 10
153.1856
 20
-172.5796
  0
VERTEX
  8
LAYER_3
 10
171.9856
 20
-172.5796
  0
SEQEND
  0
POLYLINE
  8
LAYER_3
 40
0.1058
 41
0.1058
 66
1
 10
0
 20
0
 30
0
  0
VERTEX
  8
LAYER_3
 10
133.8856
 20
-171.5796
  0
VERTEX
  8
LAYER_3
 10
153.1856
 20
-171.5796
  0
SEQEND
  0
INSERT
  8
LAYER_3
  2
AIGNBL03010002
 10
0
 20
0
 30
0
  0
INSERT
  8
LAYER_3
  2
AIGNBL03010003
 10
0
 20
0
 30
0
  0
INSERT
  8
LAYER_3
  2
AIGNBL03010004
 10
0
 20
0
 30
0
  0
INSERT
  8
LAYER_3
  2
AIGNBL03010005
 10
0
 20
0
 30
0
  0
INSERT
  8
LAYER_3
  2
AIGNBL03010006
 10
0
 20
0
 30
0
  0
INSERT
  8
LAYER_3
  2
AIGNBL03010007
 10
0
 20
0
 30
0
  0
INSERT
  8
LAYER_3
  2
AIGNBL03010008
 10
0
 20
0
 30
0
  0
INSERT
  8
LAYER_3
  2
AIGNBL03010009
 10
0
 20
0
 30
0
  0
INSERT
  8
LAYER_3
  2
AIGNBL0301000A
 10
0
 20
0
 30
0
  0
INSERT
  8
LAYER_3
  2
AIGNBL0301000B
 10
0
 20
0
 30
0
  0
INSERT
  8
LAYER_3
  2
AIGNBL0301000C
 10
0
 20
0
 30
0
  0
INSERT
  8
LAYER_3
  2
AIGNBL0301000D
 10
0
 20
0
 30
0
  0
INSERT
  8
LAYER_3
  2
AIGNBL0301000E
 10
0
 20
0
 30
0
  0
INSERT
  8
LAYER_3
  2
AIGNBL0301000F
 10
0
 20
0
 30
0
  0
INSERT
  8
LAYER_3
  2
AIGNBL03010010
 10
0
 20
0
 30
0
  0
INSERT
  8
LAYER_3
  2
AIGNBL03010011
 10
0
 20
0
 30
0
  0
INSERT
  8
LAYER_3
  2
AIGNBL03010012
 10
0
 20
0
 30
0
  0
INSERT
  8
LAYER_3
  2
AIGNBL03010013
 10
0
 20
0
 30
0
  0
INSERT
  8
LAYER_3
  2
AIGNBL03010014
 10
0
 20
0
 30
0
  0
INSERT
  8
LAYER_3
  2
AIGNBL03010015
 10
0
 20
0
 30
0
  0
INSERT
  8
LAYER_3
  2
AIGNBL03010016
 10
0
 20
0
 30
0
  0
INSERT
  8
LAYER_3
  2
AIGNBL03010017
 10
0
 20
0
 30
0
  0
INSERT
  8
LAYER_3
  2
AIGNBL03010018
 10
0
 20
0
 30
0
  0
INSERT
  8
LAYER_3
  2
AIGNBL03010019
 10
0
 20
0
 30
0
  0
INSERT
  8
LAYER_3
  2
AIGNBL0301001A
 10
0
 20
0
 30
0
  0
INSERT
  8
LAYER_3
  2
AIGNBL0301001B
 10
0
 20
0
 30
0
  0
POLYLINE
  8
LAYER_3
 40
0.0882
 41
0.0882
 66
1
 10
0
 20
0
 30
0
  0
VERTEX
  8
LAYER_3
 10
187.6856
 20
-37.465
  0
VERTEX
  8
LAYER_3
 10
118.7747
 20
-37.465
  0
SEQEND
  0
POLYLINE
  8
LAYER_3
 40
0.0882
 41
0.0882
 66
1
 10
0
 20
0
 30
0
  0
VERTEX
  8
LAYER_3
 10
118.6856
 20
-39.8047
  0
VERTEX
  8
LAYER_3
 10
118.6856
 20
-35.5083
  0
SEQEND
  0
POLYLINE
  8
LAYER_3
 40
0.0882
 41
0.0882
 66
1
 10
0
 20
0
 30
0
  0
VERTEX
  8
LAYER_3
 10
187.6856
 20
-39.8047
  0
VERTEX
  8
LAYER_3
 10
187.6856
 20
-35.5083
  0
SEQEND
  0
POLYLINE
  8
LAYER_3
  6
AIGENLINE001
 40
0.0882
 41
0.0882
 66
1
 10
0
 20
0
 30
0
 70
128
  0
VERTEX
  8
LAYER_3
 10
118.6856
 20
-59.5287
  0
VERTEX
  8
LAYER_3
 10
118.6856
 20
-39.8047
  0
SEQEND
  0
POLYLINE
  8
LAYER_3
  6
AIGENLINE001
 40
0.0882
 41
0.0882
 66
1
 10
0
 20
0
 30
0
 70
128
  0
VERTEX
  8
LAYER_3
 10
187.6856
 20
-59.5287
  0
VERTEX
  8
LAYER_3
 10
187.6856
 20
-39.8047
  0
SEQEND
  0
TEXT
  8
LAYER_3
 10
152.49
 20
-36.9174
 11
152.49
 21
-36.9174
 40
3.5541
 41
0.5
  1
69
  0
POLYLINE
  8
LAYER_3
 40
0.0882
 41
0.0882
 66
1
 10
0
 20
0
 30
0
  0
VERTEX
  8
LAYER_3
 10
184.6856
 20
-47.5465
  0
VERTEX
  8
LAYER_3
 10
121.7669
 20
-47.5465
  0
SEQEND
  0
POLYLINE
  8
LAYER_3
 40
0.0882
 41
0.0882
 66
1
 10
0
 20
0
 30
0
  0
VERTEX
  8
LAYER_3
 10
121.6856
 20
-49.8861
  0
VERTEX
  8
LAYER_3
 10
121.6856
 20
-45.5897
  0
SEQEND
  0
POLYLINE
  8
LAYER_3
 40
0.0882
 41
0.0882
 66
1
 10
0
 20
0
 30
0
  0
VERTEX
  8
LAYER_3
 10
184.6856
 20
-49.8861
  0
VERTEX
  8
LAYER_3
 10
184.6856
 20
-45.5897
  0
SEQEND
  0
POLYLINE
  8
LAYER_3
  6
AIGENLINE001
 40
0.0882
 41
0.0882
 66
1
 10
0
 20
0
 30
0
 70
128
  0
VERTEX
  8
LAYER_3
 10
121.6856
 20
-78.5472
  0
VERTEX
  8
LAYER_3
 10
121.6856
 20
-49.8861
  0
SEQEND
  0
POLYLINE
  8
LAYER_3
  6
AIGENLINE001
 40
0.0882
 41
0.0882
 66
1
 10
0
 20
0
 30
0
 70
128
  0
VERTEX
  8
LAYER_3
 10
184.6856
 20
-78.5472
  0
VERTEX
  8
LAYER_3
 10
184.6856
 20
-49.8861
  0
SEQEND
  0
TEXT
  8
LAYER_3
 10
150.8437
 20
-46.9988
 11
150.8437
 21
-46.9988
 40
3.5541
 41
0.5
  1
63
  0
INSERT
  8
LAYER_6
  2
AIGNBL06010002
 10
0
 20
0
 30
0
  0
POLYLINE
  8
LAYER_6
 40
0.3528
 41
0.3528
 66
1
 10
0
 20
0
 30
0
  0
VERTEX
  8
LAYER_6
 10
34.7876
 20
-258.3332
  0
VERTEX
  8
LAYER_6
 10
229.7955
 20
-258.3332
  0
VERTEX
  8
LAYER_6
 10
229.7955
 20
21.6583
  0
VERTEX
  8
LAYER_6
 10
34.7876
 20
21.6583
  0
VERTEX
  8
LAYER_6
 10
34.7876
 20
-258.3332
  0
SEQEND
  0
TEXT
  8
LAYER_6
 10
166.4505
 20
-248.7955
 11
166.4505
 21
-248.7955
 40
3.3853
 41
0.5
  1
●TEL 0120-65-1232●FAX 06-6532-1580
  0
TEXT
  8
LAYER_6
 10
166.4505
 20
-252.3102
 11
166.4505
 21
-252.3102
 40
3.3853
 41
0.5
  1
hits@hiratatile.co.jp
  0
TEXT
  8
LAYER_6
 10
218.9756
 20
18.4461
 11
218.9756
 21
18.4461
 40
2.0732
 41
0.5
  1
211214RT
  0
TEXT
  8
LAYER_6
 10
37.8495
 20
-250.3797
 11
37.8495
 21
-250.3797
 40
3.2995
 41
0.5
  1
仕様
  0
POLYLINE
  8
LAYER_6
 40
0.3528
 41
0.3528
 66
1
 10
0
 20
0
 30
0
  0
VERTEX
  8
LAYER_6
 10
229.7955
 20
-241.6001
  0
VERTEX
  8
LAYER_6
 10
34.7874
 20
-241.6001
  0
SEQEND
  0
POLYLINE
  8
LAYER_6
 40
0.3528
 41
0.3528
 66
1
 10
0
 20
0
 30
0
  0
VERTEX
  8
LAYER_6
 10
229.7955
 20
-233.091
  0
VERTEX
  8
LAYER_6
 10
34.7874
 20
-233.091
  0
SEQEND
  0
TEXT
  8
LAYER_6
 10
35.9444
 20
-235.5675
 11
35.9444
 21
-235.5675
 40
2.1997
 41
0.5
  1
品名
  0
TEXT
  8
LAYER_6
 10
48.7479
 20
-238.6599
 11
48.7479
 21
-238.6599
 40
3.6373
 41
0.5
  1
プッシュ式排水目皿（欧州仕様）
  0
TEXT
  8
LAYER_6
 10
48.4217
 20
-250.3883
 11
48.4217
 21
-250.3883
 40
3.1177
 41
0.5
  1
●水溜め可　●欧州仕様　●ヘアキャッチャー付き　●クロム　
  0
TEXT
  8
LAYER_6
 10
134.4676
 20
-235.5677
 11
134.4676
 21
-235.5677
 40
2.1997
 41
0.5
  1
品番
  0
TEXT
  8
LAYER_6
 10
140.4896
 20
-240.0443
 11
140.4896
 21
-240.0443
 40
5.9385
 41
0.5
  1
AQ-6436NR-CH
  0
TEXT
  8
LAYER_6
 10
37.5245
 20
-211.2067
 11
37.5245
 21
-211.2067
 40
2.3382
 41
0.5
  1
※シリコンコーキング不要
  0
TEXT
  8
LAYER_6
 10
37.5245
 20
-215.7067
 11
37.5245
 21
-215.7067
 40
2.3382
 41
0.5
  1
※漏水および洗面器の破損防止のため、パッキン類が弾性を保てる範囲で締め付けてください。
  0
TEXT
  8
LAYER_6
 10
37.5245
 20
-220.2067
 11
37.5245
 21
-220.2067
 40
2.3382
 41
0.5
  1
※欧州仕様の排水金具のため、日米仕様のトラップとは接続できません。
  0
TEXT
  8
LAYER_6
 10
183.7083
 20
-201.3186
 11
183.7083
 21
-201.3186
 40
3.1177
 41
0.5
  1
（　）内寸法は参考寸法
  0
ENDSEC
  0
EOF
