  0
SECTION
  2
HEADER
  9
$ACADVER
  1
AC1009
  9
$LUNITS
 70
2
  9
$LUPREC
 70
4
  9
$LTSCALE
 40
1.0
  9
$EXTMIN
 10
-30.3177
 20
33.3285
 30
0
  9
$EXTMAX
 10
251.6749
 20
230.337
 30
0
  0
ENDSEC
  0
SECTION
  2
TABLES
  0
TABLE
  2
LTYPE
 70
256
  0
LTYPE
  2
AIGENLINE001
 70
64
  3
generate AI->DXF Converter
 72
65
 73
6
 40
13.0071
 49
10
 49
-1
 49
0.0035
 49
-1
 49
0.0035
 49
-1
  0
LTYPE
  2
AIGENLINE002
 70
64
  3
generate AI->DXF Converter
 72
65
 73
4
 40
14
 49
11
 49
-1
 49
1
 49
-1
  0
ENDTAB
  0
TABLE
  2
LAYER
 70
3
  0
LAYER
  2
LAYER_1
 70
64
 62
7
  6
CONTINUOUS
  0
LAYER
  2
LAYER_2
 70
64
 62
7
  6
CONTINUOUS
  0
LAYER
  2
LAYER_3
 70
64
 62
7
  6
CONTINUOUS
  0
ENDTAB
  0
TABLE
  2
STYLE
 70
6
  0
STYLE
  2
STANDARD
 70
0
 40
0
 50
0
 71
0
 41
0
 42
0
  3
TXT
  4
BIGFONT
  0
ENDTAB
  0
ENDSEC
  0
SECTION
  2
BLOCKS
  0
BLOCK
  8
LAYER_3
  2
AIGNBL03040006
 70
64
 10
0
 20
0
 30
0
  3
AIGNBL03040006
  0
POLYLINE
  8
LAYER_3
 40
0.05
 41
0.05
 66
1
 10
0
 20
0
 30
0
 70
1
  0
VERTEX
  8
LAYER_3
 10
146.7545
 20
39.1418
  0
VERTEX
  8
LAYER_3
 10
146.2656
 20
37.9567
  0
VERTEX
  8
LAYER_3
 10
145.6376
 20
37.9567
  0
VERTEX
  8
LAYER_3
 10
147.2372
 20
41.7225
  0
VERTEX
  8
LAYER_3
 10
147.9703
 20
41.7225
  0
VERTEX
  8
LAYER_3
 10
149.5768
 20
37.9567
  0
VERTEX
  8
LAYER_3
 10
148.9267
 20
37.9567
  0
VERTEX
  8
LAYER_3
 10
148.424
 20
39.1418
  0
SEQEND
  0
POLYLINE
  8
LAYER_3
 40
0.05
 41
0.05
 66
1
 10
0
 20
0
 30
0
 70
1
  0
VERTEX
  8
LAYER_3
 10
148.2983
 20
39.5207
  0
VERTEX
  8
LAYER_3
 10
147.8373
 20
40.6056
 42
-0.02317247198
  0
VERTEX
  8
LAYER_3
 10
147.5927
 20
41.2926
  0
VERTEX
  8
LAYER_3
 10
147.5789
 20
41.2926
 42
-0.02064481114
  0
VERTEX
  8
LAYER_3
 10
147.3412
 20
40.6101
  0
VERTEX
  8
LAYER_3
 10
146.8806
 20
39.5207
  0
SEQEND
  0
ENDBLK
  0
BLOCK
  8
LAYER_3
  2
AIGNBL03040007
 70
64
 10
0
 20
0
 30
0
  3
AIGNBL03040007
  0
POLYLINE
  8
LAYER_3
 40
0.05
 41
0.05
 66
1
 10
0
 20
0
 30
0
 70
1
  0
VERTEX
  8
LAYER_3
 10
153.942
 20
37.4034
 42
-0.01520763512
  0
VERTEX
  8
LAYER_3
 10
152.1399
 20
37.8395
 42
0.09160443264
  0
VERTEX
  8
LAYER_3
 10
151.8533
 20
37.895
 42
-0.09256808484
  0
VERTEX
  8
LAYER_3
 10
150.8994
 20
38.0977
 42
-0.09799469934
  0
VERTEX
  8
LAYER_3
 10
150.2621
 20
38.5324
 42
-0.1630918382
  0
VERTEX
  8
LAYER_3
 10
149.7964
 20
39.5259
 42
-0.0316951694
  0
VERTEX
  8
LAYER_3
 10
149.7793
 20
39.7998
 42
-0.1055313794
  0
VERTEX
  8
LAYER_3
 10
149.9533
 20
40.6417
 42
-0.1619874109
  0
VERTEX
  8
LAYER_3
 10
150.7418
 20
41.4867
 42
-0.09224146328
  0
VERTEX
  8
LAYER_3
 10
151.5409
 20
41.7524
 42
-0.03717154931
  0
VERTEX
  8
LAYER_3
 10
151.9725
 20
41.7838
 42
-0.09530639066
  0
VERTEX
  8
LAYER_3
 10
152.9361
 20
41.6062
 42
-0.1001950085
  0
VERTEX
  8
LAYER_3
 10
153.5732
 20
41.1834
 42
-0.1611155306
  0
VERTEX
  8
LAYER_3
 10
154.0599
 20
40.1825
 42
-0.03590167283
  0
VERTEX
  8
LAYER_3
 10
154.0815
 20
39.8784
 42
-0.1066761192
  0
VERTEX
  8
LAYER_3
 10
153.9051
 20
39.0236
 42
-0.2183970027
  0
VERTEX
  8
LAYER_3
 10
152.7953
 20
38.0897
 42
-0.006706711403
  0
VERTEX
  8
LAYER_3
 10
152.7407
 20
38.0738
  0
VERTEX
  8
LAYER_3
 10
152.7407
 20
38.0514
 42
0.01533555045
  0
VERTEX
  8
LAYER_3
 10
154.117
 20
37.8113
  0
SEQEND
  0
POLYLINE
  8
LAYER_3
 40
0.05
 41
0.05
 66
1
 10
0
 20
0
 30
0
 70
1
  0
VERTEX
  8
LAYER_3
 10
153.4394
 20
39.857
 42
0.1175610784
  0
VERTEX
  8
LAYER_3
 10
153.257
 20
40.6254
 42
0.1170135141
  0
VERTEX
  8
LAYER_3
 10
152.8315
 20
41.1234
 42
0.1200044572
  0
VERTEX
  8
LAYER_3
 10
152.2186
 20
41.3675
 42
0.03774262044
  0
VERTEX
  8
LAYER_3
 10
151.9511
 20
41.3873
 42
0.1153139376
  0
VERTEX
  8
LAYER_3
 10
151.2089
 20
41.2226
 42
0.1853550912
  0
VERTEX
  8
LAYER_3
 10
150.5507
 20
40.4882
 42
0.09859892291
  0
VERTEX
  8
LAYER_3
 10
150.4287
 20
39.8122
 42
0.1178359247
  0
VERTEX
  8
LAYER_3
 10
150.5964
 20
39.0734
 42
0.2866694251
  0
VERTEX
  8
LAYER_3
 10
151.9232
 20
38.2912
 42
0.1188197759
  0
VERTEX
  8
LAYER_3
 10
152.6722
 20
38.4633
 42
0.1796740134
  0
VERTEX
  8
LAYER_3
 10
153.3126
 20
39.18
 42
0.09850052237
  0
SEQEND
  0
ENDBLK
  0
BLOCK
  8
LAYER_3
  2
AIGNBL03040008
 70
64
 10
0
 20
0
 30
0
  3
AIGNBL03040008
  0
POLYLINE
  8
LAYER_3
 40
0.05
 41
0.05
 66
1
 10
0
 20
0
 30
0
 70
1
  0
VERTEX
  8
LAYER_3
 10
155.4089
 20
41.7225
  0
VERTEX
  8
LAYER_3
 10
155.4089
 20
39.4932
 42
0.1220213404
  0
VERTEX
  8
LAYER_3
 10
155.569
 20
38.7775
 42
0.2218709818
  0
VERTEX
  8
LAYER_3
 10
156.2104
 20
38.3206
 42
0.05223876895
  0
VERTEX
  8
LAYER_3
 10
156.5055
 20
38.2912
 42
0.1302821267
  0
VERTEX
  8
LAYER_3
 10
157.1748
 20
38.452
 42
0.1509367336
  0
VERTEX
  8
LAYER_3
 10
157.526
 20
38.8454
 42
0.1174732039
  0
VERTEX
  8
LAYER_3
 10
157.651
 20
39.4932
  0
VERTEX
  8
LAYER_3
 10
157.651
 20
41.7225
  0
VERTEX
  8
LAYER_3
 10
158.2656
 20
41.7225
  0
VERTEX
  8
LAYER_3
 10
158.2656
 20
39.5266
 42
-0.1106199636
  0
VERTEX
  8
LAYER_3
 10
158.0961
 20
38.708
 42
-0.1822316276
  0
VERTEX
  8
LAYER_3
 10
157.4057
 20
38.0637
 42
-0.09768689614
  0
VERTEX
  8
LAYER_3
 10
156.6028
 20
37.8972
 42
-0.01000776787
  0
VERTEX
  8
LAYER_3
 10
156.4845
 20
37.895
 42
-0.09899539667
  0
VERTEX
  8
LAYER_3
 10
155.612
 20
38.0554
 42
-0.120955925
  0
VERTEX
  8
LAYER_3
 10
155.1093
 20
38.4366
 42
-0.1193006487
  0
VERTEX
  8
LAYER_3
 10
154.8407
 20
39.0316
 42
-0.05319923583
  0
VERTEX
  8
LAYER_3
 10
154.7943
 20
39.5045
  0
VERTEX
  8
LAYER_3
 10
154.7943
 20
41.7225
  0
SEQEND
  0
ENDBLK
  0
BLOCK
  8
LAYER_3
  2
AIGNBL03040009
 70
64
 10
0
 20
0
 30
0
  3
AIGNBL03040009
  0
POLYLINE
  8
LAYER_3
 40
0.05
 41
0.05
 66
1
 10
0
 20
0
 30
0
 70
1
  0
VERTEX
  8
LAYER_3
 10
160.0119
 20
39.1418
  0
VERTEX
  8
LAYER_3
 10
159.5227
 20
37.9567
  0
VERTEX
  8
LAYER_3
 10
158.8947
 20
37.9567
  0
VERTEX
  8
LAYER_3
 10
160.4939
 20
41.7225
  0
VERTEX
  8
LAYER_3
 10
161.227
 20
41.7225
  0
VERTEX
  8
LAYER_3
 10
162.8335
 20
37.9567
  0
VERTEX
  8
LAYER_3
 10
162.1841
 20
37.9567
  0
VERTEX
  8
LAYER_3
 10
161.6814
 20
39.1418
  0
SEQEND
  0
POLYLINE
  8
LAYER_3
 40
0.05
 41
0.05
 66
1
 10
0
 20
0
 30
0
 70
1
  0
VERTEX
  8
LAYER_3
 10
161.5553
 20
39.5207
  0
VERTEX
  8
LAYER_3
 10
161.094
 20
40.6056
 42
-0.02227599701
  0
VERTEX
  8
LAYER_3
 10
160.8494
 20
41.2926
  0
VERTEX
  8
LAYER_3
 10
160.8357
 20
41.2926
 42
-0.0208222547
  0
VERTEX
  8
LAYER_3
 10
160.5983
 20
40.6101
  0
VERTEX
  8
LAYER_3
 10
160.1373
 20
39.5207
  0
SEQEND
  0
ENDBLK
  0
BLOCK
  8
LAYER_3
  2
AIGNBL0304000A
 70
64
 10
0
 20
0
 30
0
  3
AIGNBL0304000A
  0
POLYLINE
  8
LAYER_3
 40
0.05
 41
0.05
 66
1
 10
0
 20
0
 30
0
 70
1
  0
VERTEX
  8
LAYER_3
 10
163.8742
 20
41.6777
 42
-0.03334485223
  0
VERTEX
  8
LAYER_3
 10
165.0411
 20
41.7508
 42
-0.08844478427
  0
VERTEX
  8
LAYER_3
 10
166.0871
 20
41.5858
 42
-0.06037505309
  0
VERTEX
  8
LAYER_3
 10
166.3609
 20
41.4379
 42
-0.2472514979
  0
VERTEX
  8
LAYER_3
 10
166.7726
 20
40.6497
 42
-0.1483298328
  0
VERTEX
  8
LAYER_3
 10
166.6029
 20
40.0554
 42
-0.07223194904
  0
VERTEX
  8
LAYER_3
 10
166.4095
 20
39.8456
 42
-0.1209372404
  0
VERTEX
  8
LAYER_3
 10
165.7228
 20
39.517
 42
-0.06224269186
  0
VERTEX
  8
LAYER_3
 10
164.9708
 20
39.4319
 42
-0.05738783264
  0
VERTEX
  8
LAYER_3
 10
164.4823
 20
39.4653
  0
VERTEX
  8
LAYER_3
 10
164.4823
 20
37.9567
  0
VERTEX
  8
LAYER_3
 10
163.8742
 20
37.9567
  0
SEQEND
  0
POLYLINE
  8
LAYER_3
 40
0.05
 41
0.05
 66
1
 10
0
 20
0
 30
0
 70
1
  0
VERTEX
  8
LAYER_3
 10
164.4823
 20
39.8622
 42
0.05012782438
  0
VERTEX
  8
LAYER_3
 10
164.9846
 20
39.8229
 42
0.1135299982
  0
VERTEX
  8
LAYER_3
 10
165.7697
 20
39.9822
 42
0.1653556145
  0
VERTEX
  8
LAYER_3
 10
166.1074
 20
40.3302
 42
0.1044590446
  0
VERTEX
  8
LAYER_3
 10
166.1656
 20
40.6273
 42
0.2826437488
  0
VERTEX
  8
LAYER_3
 10
165.8147
 20
41.2103
 42
0.0629694601
  0
VERTEX
  8
LAYER_3
 10
165.549
 20
41.3107
 42
0.06259589917
  0
VERTEX
  8
LAYER_3
 10
165.0552
 20
41.3649
 42
0.05192366909
  0
VERTEX
  8
LAYER_3
 10
164.4823
 20
41.3257
  0
SEQEND
  0
ENDBLK
  0
BLOCK
  8
LAYER_3
  2
AIGNBL0304000B
 70
64
 10
0
 20
0
 30
0
  3
AIGNBL0304000B
  0
POLYLINE
  8
LAYER_3
 40
0.05
 41
0.05
 66
1
 10
0
 20
0
 30
0
 70
1
  0
VERTEX
  8
LAYER_3
 10
168.3246
 20
41.4207
 42
-0.3048675751
  0
VERTEX
  8
LAYER_3
 10
168.1582
 20
41.1661
 42
-0.1151020929
  0
VERTEX
  8
LAYER_3
 10
167.9329
 20
41.1189
 42
-0.2442513348
  0
VERTEX
  8
LAYER_3
 10
167.6028
 20
41.2794
 42
-0.1394546152
  0
VERTEX
  8
LAYER_3
 10
167.5626
 20
41.4207
 42
-0.287439772
  0
VERTEX
  8
LAYER_3
 10
167.7346
 20
41.6803
 42
-0.1179404017
  0
VERTEX
  8
LAYER_3
 10
167.9467
 20
41.7277
 42
-0.2416274379
  0
VERTEX
  8
LAYER_3
 10
168.2814
 20
41.5719
 42
-0.1426378456
  0
SEQEND
  0
POLYLINE
  8
LAYER_3
 40
0.05
 41
0.05
 66
1
 10
0
 20
0
 30
0
 70
1
  0
VERTEX
  8
LAYER_3
 10
167.639
 20
37.9567
  0
VERTEX
  8
LAYER_3
 10
167.639
 20
40.6607
  0
VERTEX
  8
LAYER_3
 10
168.2537
 20
40.6607
  0
VERTEX
  8
LAYER_3
 10
168.2537
 20
37.9567
  0
SEQEND
  0
ENDBLK
  0
BLOCK
  8
LAYER_3
  2
AIGNBL0304000C
 70
64
 10
0
 20
0
 30
0
  3
AIGNBL0304000C
  0
POLYLINE
  8
LAYER_3
 40
0.05
 41
0.05
 66
1
 10
0
 20
0
 30
0
 70
1
  0
VERTEX
  8
LAYER_3
 10
170.1254
 20
39.1418
  0
VERTEX
  8
LAYER_3
 10
169.6372
 20
37.9567
  0
VERTEX
  8
LAYER_3
 10
169.0081
 20
37.9567
  0
VERTEX
  8
LAYER_3
 10
170.6077
 20
41.7225
  0
VERTEX
  8
LAYER_3
 10
171.3415
 20
41.7225
  0
VERTEX
  8
LAYER_3
 10
172.9479
 20
37.9567
  0
VERTEX
  8
LAYER_3
 10
172.2982
 20
37.9567
  0
VERTEX
  8
LAYER_3
 10
171.7955
 20
39.1418
  0
SEQEND
  0
POLYLINE
  8
LAYER_3
 40
0.05
 41
0.05
 66
1
 10
0
 20
0
 30
0
 70
1
  0
VERTEX
  8
LAYER_3
 10
171.6695
 20
39.5207
  0
VERTEX
  8
LAYER_3
 10
171.2085
 20
40.6056
 42
-0.02430767271
  0
VERTEX
  8
LAYER_3
 10
170.9646
 20
41.2926
  0
VERTEX
  8
LAYER_3
 10
170.9498
 20
41.2926
 42
-0.02034719794
  0
VERTEX
  8
LAYER_3
 10
170.7128
 20
40.6101
  0
VERTEX
  8
LAYER_3
 10
170.2518
 20
39.5207
  0
SEQEND
  0
ENDBLK
  0
BLOCK
  8
LAYER_1
  2
AIGNBL01030015
 70
64
 10
0
 20
0
 30
0
  3
AIGNBL01030015
  0
POLYLINE
  8
LAYER_1
 40
0.2469
 41
0.2469
 66
1
 10
0
 20
0
 30
0
  0
VERTEX
  8
LAYER_1
 10
50.5513
 20
132.4019
  0
VERTEX
  8
LAYER_1
 10
50.5513
 20
132.5873
  0
SEQEND
  0
ENDBLK
  0
BLOCK
  8
LAYER_1
  2
AIGNBL01030016
 70
64
 10
0
 20
0
 30
0
  3
AIGNBL01030016
  0
POLYLINE
  8
LAYER_1
 40
0.2469
 41
0.2469
 66
1
 10
0
 20
0
 30
0
  0
VERTEX
  8
LAYER_1
 10
50.5513
 20
132.4019
  0
VERTEX
  8
LAYER_1
 10
50.2974
 20
132.4019
  0
SEQEND
  0
ENDBLK
  0
BLOCK
  8
LAYER_1
  2
AIGNBL01030017
 70
64
 10
0
 20
0
 30
0
  3
AIGNBL01030017
  0
POLYLINE
  8
LAYER_1
 40
0.2469
 41
0.2469
 66
1
 10
0
 20
0
 30
0
  0
VERTEX
  8
LAYER_1
 10
50.2974
 20
131.9616
  0
VERTEX
  8
LAYER_1
 10
50.5513
 20
132.4019
  0
SEQEND
  0
ENDBLK
  0
BLOCK
  8
LAYER_1
  2
AIGNBL01030018
 70
64
 10
0
 20
0
 30
0
  3
AIGNBL01030018
  0
POLYLINE
  8
LAYER_1
 40
0.2469
 41
0.2469
 66
1
 10
0
 20
0
 30
0
  0
VERTEX
  8
LAYER_1
 10
50.2974
 20
131.9616
  0
VERTEX
  8
LAYER_1
 10
50.2974
 20
132.5873
  0
SEQEND
  0
ENDBLK
  0
BLOCK
  8
LAYER_1
  2
AIGNBL01030019
 70
64
 10
0
 20
0
 30
0
  3
AIGNBL01030019
  0
POLYLINE
  8
LAYER_1
 40
0.2469
 41
0.2469
 66
1
 10
0
 20
0
 30
0
  0
VERTEX
  8
LAYER_1
 10
61.9184
 20
132.4019
  0
VERTEX
  8
LAYER_1
 10
50.5513
 20
132.4019
  0
SEQEND
  0
ENDBLK
  0
BLOCK
  8
LAYER_1
  2
AIGNBL0103001A
 70
64
 10
0
 20
0
 30
0
  3
AIGNBL0103001A
  0
POLYLINE
  8
LAYER_1
 40
0.2469
 41
0.2469
 66
1
 10
0
 20
0
 30
0
  0
VERTEX
  8
LAYER_1
 10
62.1722
 20
132.5873
  0
VERTEX
  8
LAYER_1
 10
62.1722
 20
131.9616
  0
SEQEND
  0
ENDBLK
  0
BLOCK
  8
LAYER_1
  2
AIGNBL0103001B
 70
64
 10
0
 20
0
 30
0
  3
AIGNBL0103001B
  0
POLYLINE
  8
LAYER_1
 40
0.2469
 41
0.2469
 66
1
 10
0
 20
0
 30
0
  0
VERTEX
  8
LAYER_1
 10
50.2974
 20
131.9616
  0
VERTEX
  8
LAYER_1
 10
62.1722
 20
131.9616
  0
SEQEND
  0
ENDBLK
  0
BLOCK
  8
LAYER_1
  2
AIGNBL0103001C
 70
64
 10
0
 20
0
 30
0
  3
AIGNBL0103001C
  0
POLYLINE
  8
LAYER_1
 40
0.2469
 41
0.2469
 66
1
 10
0
 20
0
 30
0
  0
VERTEX
  8
LAYER_1
 10
61.9184
 20
132.4019
  0
VERTEX
  8
LAYER_1
 10
62.1722
 20
131.9616
  0
SEQEND
  0
ENDBLK
  0
BLOCK
  8
LAYER_1
  2
AIGNBL0103001D
 70
64
 10
0
 20
0
 30
0
  3
AIGNBL0103001D
  0
POLYLINE
  8
LAYER_1
 40
0.2469
 41
0.2469
 66
1
 10
0
 20
0
 30
0
  0
VERTEX
  8
LAYER_1
 10
62.1722
 20
132.4019
  0
VERTEX
  8
LAYER_1
 10
61.9184
 20
132.4019
  0
SEQEND
  0
ENDBLK
  0
BLOCK
  8
LAYER_1
  2
AIGNBL0103001E
 70
64
 10
0
 20
0
 30
0
  3
AIGNBL0103001E
  0
POLYLINE
  8
LAYER_1
 40
0.2469
 41
0.2469
 66
1
 10
0
 20
0
 30
0
  0
VERTEX
  8
LAYER_1
 10
61.9184
 20
132.5873
  0
VERTEX
  8
LAYER_1
 10
61.9184
 20
132.4019
  0
SEQEND
  0
ENDBLK
  0
BLOCK
  8
LAYER_3
  2
AIGNBL03030005
 70
64
 10
0
 20
0
 30
0
  3
AIGNBL03030005
  0
INSERT
  8
LAYER_3
  2
AIGNBL03040006
 10
0
 20
0
 30
0
  0
INSERT
  8
LAYER_3
  2
AIGNBL03040007
 10
0
 20
0
 30
0
  0
INSERT
  8
LAYER_3
  2
AIGNBL03040008
 10
0
 20
0
 30
0
  0
INSERT
  8
LAYER_3
  2
AIGNBL03040009
 10
0
 20
0
 30
0
  0
INSERT
  8
LAYER_3
  2
AIGNBL0304000A
 10
0
 20
0
 30
0
  0
INSERT
  8
LAYER_3
  2
AIGNBL0304000B
 10
0
 20
0
 30
0
  0
INSERT
  8
LAYER_3
  2
AIGNBL0304000C
 10
0
 20
0
 30
0
  0
ENDBLK
  0
BLOCK
  8
LAYER_3
  2
AIGNBL0303000E
 70
64
 10
0
 20
0
 30
0
  3
AIGNBL0303000E
  0
POLYLINE
  8
LAYER_3
 40
0.05
 41
0.05
 66
1
 10
0
 20
0
 30
0
 70
1
  0
VERTEX
  8
LAYER_3
 10
145.7475
 20
36.0574
  0
VERTEX
  8
LAYER_3
 10
146.3008
 20
36.0574
  0
VERTEX
  8
LAYER_3
 10
146.3008
 20
35.9637
  0
VERTEX
  8
LAYER_3
 10
145.6424
 20
35.9637
  0
VERTEX
  8
LAYER_3
 10
145.6424
 20
36.9969
  0
VERTEX
  8
LAYER_3
 10
146.2832
 20
36.9969
  0
VERTEX
  8
LAYER_3
 10
146.2832
 20
36.9035
  0
VERTEX
  8
LAYER_3
 10
145.7475
 20
36.9035
  0
VERTEX
  8
LAYER_3
 10
145.7475
 20
36.549
  0
VERTEX
  8
LAYER_3
 10
146.2481
 20
36.549
  0
VERTEX
  8
LAYER_3
 10
146.2481
 20
36.4557
  0
VERTEX
  8
LAYER_3
 10
145.7475
 20
36.4557
  0
SEQEND
  0
ENDBLK
  0
BLOCK
  8
LAYER_3
  2
AIGNBL0303000F
 70
64
 10
0
 20
0
 30
0
  3
AIGNBL0303000F
  0
POLYLINE
  8
LAYER_3
 40
0.05
 41
0.05
 66
1
 10
0
 20
0
 30
0
 70
1
  0
VERTEX
  8
LAYER_3
 10
147.4404
 20
36.117
  0
VERTEX
  8
LAYER_3
 10
147.4432
 20
36.117
  0
VERTEX
  8
LAYER_3
 10
147.4432
 20
36.9969
  0
VERTEX
  8
LAYER_3
 10
147.5483
 20
36.9969
  0
VERTEX
  8
LAYER_3
 10
147.5483
 20
35.9637
  0
VERTEX
  8
LAYER_3
 10
147.4174
 20
35.9637
  0
VERTEX
  8
LAYER_3
 10
146.8162
 20
36.8525
  0
VERTEX
  8
LAYER_3
 10
146.8127
 20
36.8525
  0
VERTEX
  8
LAYER_3
 10
146.8127
 20
35.9637
  0
VERTEX
  8
LAYER_3
 10
146.708
 20
35.9637
  0
VERTEX
  8
LAYER_3
 10
146.708
 20
36.9969
  0
VERTEX
  8
LAYER_3
 10
146.8393
 20
36.9969
  0
SEQEND
  0
ENDBLK
  0
BLOCK
  8
LAYER_3
  2
AIGNBL03030010
 70
64
 10
0
 20
0
 30
0
  3
AIGNBL03030010
  0
POLYLINE
  8
LAYER_3
 40
0.05
 41
0.05
 66
1
 10
0
 20
0
 30
0
 70
1
  0
VERTEX
  8
LAYER_3
 10
148.0213
 20
36.1756
 42
0.1557655154
  0
VERTEX
  8
LAYER_3
 10
148.0757
 20
36.0725
 42
0.1918235184
  0
VERTEX
  8
LAYER_3
 10
148.1891
 20
36.0309
  0
VERTEX
  8
LAYER_3
 10
148.2783
 20
36.0505
  0
VERTEX
  8
LAYER_3
 10
148.3344
 20
36.1039
  0
VERTEX
  8
LAYER_3
 10
148.3634
 20
36.1804
  0
VERTEX
  8
LAYER_3
 10
148.3717
 20
36.27
  0
VERTEX
  8
LAYER_3
 10
148.3717
 20
36.9969
  0
VERTEX
  8
LAYER_3
 10
148.4767
 20
36.9969
  0
VERTEX
  8
LAYER_3
 10
148.4767
 20
36.2614
  0
VERTEX
  8
LAYER_3
 10
148.4654
 20
36.1535
 42
-0.0973308998
  0
VERTEX
  8
LAYER_3
 10
148.424
 20
36.0485
 42
-0.1149355521
  0
VERTEX
  8
LAYER_3
 10
148.3393
 20
35.9689
 42
-0.1249341208
  0
VERTEX
  8
LAYER_3
 10
148.2004
 20
35.9375
 42
-0.1793665557
  0
VERTEX
  8
LAYER_3
 10
148.0158
 20
35.9974
 42
-0.1772363953
  0
VERTEX
  8
LAYER_3
 10
147.9234
 20
36.149
  0
SEQEND
  0
ENDBLK
  0
BLOCK
  8
LAYER_3
  2
AIGNBL03030011
 70
64
 10
0
 20
0
 30
0
  3
AIGNBL03030011
  0
POLYLINE
  8
LAYER_3
 40
0.05
 41
0.05
 66
1
 10
0
 20
0
 30
0
 70
1
  0
VERTEX
  8
LAYER_3
 10
149.965
 20
36.4805
 42
-0.1019307791
  0
VERTEX
  8
LAYER_3
 10
149.924
 20
36.2631
 42
-0.1000112985
  0
VERTEX
  8
LAYER_3
 10
149.8113
 20
36.0915
 42
-0.09646612644
  0
VERTEX
  8
LAYER_3
 10
149.6405
 20
35.9785
 42
-0.09758594962
  0
VERTEX
  8
LAYER_3
 10
149.4265
 20
35.9375
 42
-0.1000844711
  0
VERTEX
  8
LAYER_3
 10
149.2129
 20
35.9785
 42
-0.09954994557
  0
VERTEX
  8
LAYER_3
 10
149.042
 20
36.0915
 42
-0.09699237735
  0
VERTEX
  8
LAYER_3
 10
148.9287
 20
36.2631
 42
-0.09653980076
  0
VERTEX
  8
LAYER_3
 10
148.8881
 20
36.4805
 42
-0.1004051845
  0
VERTEX
  8
LAYER_3
 10
148.9287
 20
36.6978
 42
-0.0998654539
  0
VERTEX
  8
LAYER_3
 10
149.042
 20
36.8694
 42
-0.09851519288
  0
VERTEX
  8
LAYER_3
 10
149.2129
 20
36.9824
 42
-0.09768823248
  0
VERTEX
  8
LAYER_3
 10
149.4265
 20
37.0234
 42
-0.1000514256
  0
VERTEX
  8
LAYER_3
 10
149.6405
 20
36.9824
 42
-0.09863053528
  0
VERTEX
  8
LAYER_3
 10
149.8113
 20
36.8694
 42
-0.09807107579
  0
VERTEX
  8
LAYER_3
 10
149.924
 20
36.6978
 42
-0.0978256893
  0
SEQEND
  0
POLYLINE
  8
LAYER_3
 40
0.05
 41
0.05
 66
1
 10
0
 20
0
 30
0
 70
1
  0
VERTEX
  8
LAYER_3
 10
149.8541
 20
36.4798
 42
0.08634913196
  0
VERTEX
  8
LAYER_3
 10
149.8251
 20
36.6517
 42
0.09649608129
  0
VERTEX
  8
LAYER_3
 10
149.7404
 20
36.795
 42
0.1032857511
  0
VERTEX
  8
LAYER_3
 10
149.6053
 20
36.8932
 42
0.1061320656
  0
VERTEX
  8
LAYER_3
 10
149.4265
 20
36.93
 42
0.1115874499
  0
VERTEX
  8
LAYER_3
 10
149.2478
 20
36.8932
 42
0.1058584166
  0
VERTEX
  8
LAYER_3
 10
149.113
 20
36.795
 42
0.09787799956
  0
VERTEX
  8
LAYER_3
 10
149.0283
 20
36.6517
 42
0.08491464556
  0
VERTEX
  8
LAYER_3
 10
148.999
 20
36.4798
 42
0.08693146424
  0
VERTEX
  8
LAYER_3
 10
149.0283
 20
36.3079
 42
0.1009797617
  0
VERTEX
  8
LAYER_3
 10
149.113
 20
36.1649
 42
0.09998489394
  0
VERTEX
  8
LAYER_3
 10
149.2478
 20
36.0674
 42
0.1061678446
  0
VERTEX
  8
LAYER_3
 10
149.4265
 20
36.0309
 42
0.1126980581
  0
VERTEX
  8
LAYER_3
 10
149.6053
 20
36.0674
 42
0.1036982708
  0
VERTEX
  8
LAYER_3
 10
149.7404
 20
36.1649
 42
0.09370250368
  0
VERTEX
  8
LAYER_3
 10
149.8251
 20
36.3079
 42
0.08466662837
  0
SEQEND
  0
ENDBLK
  0
BLOCK
  8
LAYER_3
  2
AIGNBL03030012
 70
64
 10
0
 20
0
 30
0
  3
AIGNBL03030012
  0
POLYLINE
  8
LAYER_3
 40
0.05
 41
0.05
 66
1
 10
0
 20
0
 30
0
 70
1
  0
VERTEX
  8
LAYER_3
 10
150.7398
 20
35.9637
  0
VERTEX
  8
LAYER_3
 10
150.6351
 20
35.9637
  0
VERTEX
  8
LAYER_3
 10
150.6351
 20
36.4091
  0
VERTEX
  8
LAYER_3
 10
150.2482
 20
36.9969
  0
VERTEX
  8
LAYER_3
 10
150.3795
 20
36.9969
  0
VERTEX
  8
LAYER_3
 10
150.6905
 20
36.4967
  0
VERTEX
  8
LAYER_3
 10
151.0041
 20
36.9969
  0
VERTEX
  8
LAYER_3
 10
151.1263
 20
36.9969
  0
VERTEX
  8
LAYER_3
 10
150.7398
 20
36.4091
  0
SEQEND
  0
ENDBLK
  0
BLOCK
  8
LAYER_3
  2
AIGNBL03030013
 70
64
 10
0
 20
0
 30
0
  3
AIGNBL03030013
  0
POLYLINE
  8
LAYER_3
 40
0.05
 41
0.05
 66
1
 10
0
 20
0
 30
0
 70
1
  0
VERTEX
  8
LAYER_3
 10
152.0314
 20
36.9969
  0
VERTEX
  8
LAYER_3
 10
152.339
 20
36.9969
  0
VERTEX
  8
LAYER_3
 10
152.4575
 20
36.9845
  0
VERTEX
  8
LAYER_3
 10
152.5643
 20
36.9421
 42
-0.1168262011
  0
VERTEX
  8
LAYER_3
 10
152.6422
 20
36.8611
 42
-0.1230288266
  0
VERTEX
  8
LAYER_3
 10
152.6718
 20
36.733
 42
-0.1795449175
  0
VERTEX
  8
LAYER_3
 10
152.6219
 20
36.5907
 42
-0.170141964
  0
VERTEX
  8
LAYER_3
 10
152.4885
 20
36.5111
  0
VERTEX
  8
LAYER_3
 10
152.4885
 20
36.5084
 42
-0.1719890535
  0
VERTEX
  8
LAYER_3
 10
152.6553
 20
36.4302
 42
-0.2018462152
  0
VERTEX
  8
LAYER_3
 10
152.7214
 20
36.2496
 42
-0.1247085485
  0
VERTEX
  8
LAYER_3
 10
152.6942
 20
36.1325
 42
-0.1153486961
  0
VERTEX
  8
LAYER_3
 10
152.6181
 20
36.0419
 42
-0.08656795839
  0
VERTEX
  8
LAYER_3
 10
152.4972
 20
35.9844
 42
-0.06557363107
  0
VERTEX
  8
LAYER_3
 10
152.3373
 20
35.9637
  0
VERTEX
  8
LAYER_3
 10
152.0314
 20
35.9637
  0
SEQEND
  0
POLYLINE
  8
LAYER_3
 40
0.05
 41
0.05
 66
1
 10
0
 20
0
 30
0
 70
1
  0
VERTEX
  8
LAYER_3
 10
152.1364
 20
36.5445
  0
VERTEX
  8
LAYER_3
 10
152.348
 20
36.5445
  0
VERTEX
  8
LAYER_3
 10
152.4248
 20
36.5535
  0
VERTEX
  8
LAYER_3
 10
152.4951
 20
36.5831
  0
VERTEX
  8
LAYER_3
 10
152.5471
 20
36.6396
 42
0.1162126025
  0
VERTEX
  8
LAYER_3
 10
152.5668
 20
36.7258
  0
VERTEX
  8
LAYER_3
 10
152.5471
 20
36.8095
  0
VERTEX
  8
LAYER_3
 10
152.494
 20
36.8656
  0
VERTEX
  8
LAYER_3
 10
152.4152
 20
36.897
  0
VERTEX
  8
LAYER_3
 10
152.3187
 20
36.9066
  0
VERTEX
  8
LAYER_3
 10
152.1364
 20
36.9066
  0
SEQEND
  0
POLYLINE
  8
LAYER_3
 40
0.05
 41
0.05
 66
1
 10
0
 20
0
 30
0
 70
1
  0
VERTEX
  8
LAYER_3
 10
152.1364
 20
36.0543
  0
VERTEX
  8
LAYER_3
 10
152.3321
 20
36.0543
  0
VERTEX
  8
LAYER_3
 10
152.4406
 20
36.0653
  0
VERTEX
  8
LAYER_3
 10
152.5313
 20
36.1001
 42
0.1172546835
  0
VERTEX
  8
LAYER_3
 10
152.5929
 20
36.1632
 42
0.1286243504
  0
VERTEX
  8
LAYER_3
 10
152.6164
 20
36.2559
 42
0.2498669706
  0
VERTEX
  8
LAYER_3
 10
152.5471
 20
36.4081
 42
0.1538083763
  0
VERTEX
  8
LAYER_3
 10
152.3511
 20
36.4584
  0
VERTEX
  8
LAYER_3
 10
152.1364
 20
36.4584
  0
SEQEND
  0
ENDBLK
  0
BLOCK
  8
LAYER_3
  2
AIGNBL03030014
 70
64
 10
0
 20
0
 30
0
  3
AIGNBL03030014
  0
POLYLINE
  8
LAYER_3
 40
0.05
 41
0.05
 66
1
 10
0
 20
0
 30
0
 70
1
  0
VERTEX
  8
LAYER_3
 10
153.1534
 20
35.9637
  0
VERTEX
  8
LAYER_3
 10
153.038
 20
35.9637
  0
VERTEX
  8
LAYER_3
 10
153.4849
 20
36.9969
  0
VERTEX
  8
LAYER_3
 10
153.5872
 20
36.9969
  0
VERTEX
  8
LAYER_3
 10
154.0306
 20
35.9637
  0
VERTEX
  8
LAYER_3
 10
153.9138
 20
35.9637
  0
VERTEX
  8
LAYER_3
 10
153.7997
 20
36.2352
  0
VERTEX
  8
LAYER_3
 10
153.2657
 20
36.2352
  0
SEQEND
  0
POLYLINE
  8
LAYER_3
 40
0.05
 41
0.05
 66
1
 10
0
 20
0
 30
0
 70
1
  0
VERTEX
  8
LAYER_3
 10
153.305
 20
36.3316
  0
VERTEX
  8
LAYER_3
 10
153.7604
 20
36.3316
  0
VERTEX
  8
LAYER_3
 10
153.5327
 20
36.8804
  0
SEQEND
  0
ENDBLK
  0
BLOCK
  8
LAYER_3
  2
AIGNBL03030015
 70
64
 10
0
 20
0
 30
0
  3
AIGNBL03030015
  0
POLYLINE
  8
LAYER_3
 40
0.05
 41
0.05
 66
1
 10
0
 20
0
 30
0
 70
1
  0
VERTEX
  8
LAYER_3
 10
154.7151
 20
35.9637
  0
VERTEX
  8
LAYER_3
 10
154.61
 20
35.9637
  0
VERTEX
  8
LAYER_3
 10
154.61
 20
36.9035
  0
VERTEX
  8
LAYER_3
 10
154.2638
 20
36.9035
  0
VERTEX
  8
LAYER_3
 10
154.2638
 20
36.9969
  0
VERTEX
  8
LAYER_3
 10
155.0606
 20
36.9969
  0
VERTEX
  8
LAYER_3
 10
155.0606
 20
36.9035
  0
VERTEX
  8
LAYER_3
 10
154.7151
 20
36.9035
  0
SEQEND
  0
ENDBLK
  0
BLOCK
  8
LAYER_3
  2
AIGNBL03030016
 70
64
 10
0
 20
0
 30
0
  3
AIGNBL03030016
  0
POLYLINE
  8
LAYER_3
 40
0.05
 41
0.05
 66
1
 10
0
 20
0
 30
0
 70
1
  0
VERTEX
  8
LAYER_3
 10
155.4169
 20
36.9969
  0
VERTEX
  8
LAYER_3
 10
155.5216
 20
36.9969
  0
VERTEX
  8
LAYER_3
 10
155.5216
 20
36.549
  0
VERTEX
  8
LAYER_3
 10
156.0852
 20
36.549
  0
VERTEX
  8
LAYER_3
 10
156.0852
 20
36.9969
  0
VERTEX
  8
LAYER_3
 10
156.1903
 20
36.9969
  0
VERTEX
  8
LAYER_3
 10
156.1903
 20
35.9637
  0
VERTEX
  8
LAYER_3
 10
156.0852
 20
35.9637
  0
VERTEX
  8
LAYER_3
 10
156.0852
 20
36.4529
  0
VERTEX
  8
LAYER_3
 10
155.5216
 20
36.4529
  0
VERTEX
  8
LAYER_3
 10
155.5216
 20
35.9637
  0
VERTEX
  8
LAYER_3
 10
155.4169
 20
35.9637
  0
SEQEND
  0
ENDBLK
  0
BLOCK
  8
LAYER_3
  2
AIGNBL03030017
 70
64
 10
0
 20
0
 30
0
  3
AIGNBL03030017
  0
POLYLINE
  8
LAYER_3
 40
0.05
 41
0.05
 66
1
 10
0
 20
0
 30
0
 70
1
  0
VERTEX
  8
LAYER_3
 10
156.7708
 20
35.9637
  0
VERTEX
  8
LAYER_3
 10
156.6657
 20
35.9637
  0
VERTEX
  8
LAYER_3
 10
156.6657
 20
36.9969
  0
VERTEX
  8
LAYER_3
 10
156.9696
 20
36.9969
  0
VERTEX
  8
LAYER_3
 10
157.1101
 20
36.9824
 42
-0.1032885834
  0
VERTEX
  8
LAYER_3
 10
157.2228
 20
36.9349
 42
-0.1280591957
  0
VERTEX
  8
LAYER_3
 10
157.2962
 20
36.8494
 42
-0.1078860225
  0
VERTEX
  8
LAYER_3
 10
157.3223
 20
36.7213
  0
VERTEX
  8
LAYER_3
 10
157.3024
 20
36.6176
  0
VERTEX
  8
LAYER_3
 10
157.2469
 20
36.5366
  0
VERTEX
  8
LAYER_3
 10
157.1635
 20
36.4818
  0
VERTEX
  8
LAYER_3
 10
157.0585
 20
36.4557
  0
VERTEX
  8
LAYER_3
 10
157.3606
 20
35.9637
  0
VERTEX
  8
LAYER_3
 10
157.2321
 20
35.9637
  0
VERTEX
  8
LAYER_3
 10
156.9461
 20
36.4467
  0
VERTEX
  8
LAYER_3
 10
156.7708
 20
36.4467
  0
SEQEND
  0
POLYLINE
  8
LAYER_3
 40
0.05
 41
0.05
 66
1
 10
0
 20
0
 30
0
 70
1
  0
VERTEX
  8
LAYER_3
 10
156.7708
 20
36.5373
  0
VERTEX
  8
LAYER_3
 10
156.9534
 20
36.5373
 42
0.153451873
  0
VERTEX
  8
LAYER_3
 10
157.1491
 20
36.5831
 42
0.2580279849
  0
VERTEX
  8
LAYER_3
 10
157.2176
 20
36.7213
  0
VERTEX
  8
LAYER_3
 10
157.1983
 20
36.8071
  0
VERTEX
  8
LAYER_3
 10
157.146
 20
36.8643
  0
VERTEX
  8
LAYER_3
 10
157.0643
 20
36.8963
  0
VERTEX
  8
LAYER_3
 10
156.9578
 20
36.9066
  0
VERTEX
  8
LAYER_3
 10
156.7708
 20
36.9066
  0
SEQEND
  0
ENDBLK
  0
BLOCK
  8
LAYER_3
  2
AIGNBL03030018
 70
64
 10
0
 20
0
 30
0
  3
AIGNBL03030018
  0
POLYLINE
  8
LAYER_3
 40
0.05
 41
0.05
 66
1
 10
0
 20
0
 30
0
 70
1
  0
VERTEX
  8
LAYER_3
 10
158.7627
 20
36.4805
 42
-0.09904480664
  0
VERTEX
  8
LAYER_3
 10
158.7221
 20
36.2631
 42
-0.09984043552
  0
VERTEX
  8
LAYER_3
 10
158.6087
 20
36.0915
 42
-0.09841590082
  0
VERTEX
  8
LAYER_3
 10
158.4382
 20
35.9785
 42
-0.09758412454
  0
VERTEX
  8
LAYER_3
 10
158.2243
 20
35.9375
 42
-0.09999517154
  0
VERTEX
  8
LAYER_3
 10
158.0103
 20
35.9785
 42
-0.09953435427
  0
VERTEX
  8
LAYER_3
 10
157.8398
 20
36.0915
 42
-0.09853706159
  0
VERTEX
  8
LAYER_3
 10
157.7268
 20
36.2631
 42
-0.09653980076
  0
VERTEX
  8
LAYER_3
 10
157.6862
 20
36.4805
 42
-0.1004051845
  0
VERTEX
  8
LAYER_3
 10
157.7268
 20
36.6978
 42
-0.1008040346
  0
VERTEX
  8
LAYER_3
 10
157.8398
 20
36.8694
 42
-0.09763764092
  0
VERTEX
  8
LAYER_3
 10
158.0103
 20
36.9824
 42
-0.09752919603
  0
VERTEX
  8
LAYER_3
 10
158.2243
 20
37.0234
 42
-0.1000174927
  0
VERTEX
  8
LAYER_3
 10
158.4382
 20
36.9824
 42
-0.1009762109
  0
VERTEX
  8
LAYER_3
 10
158.6087
 20
36.8694
 42
-0.09735230618
  0
VERTEX
  8
LAYER_3
 10
158.7221
 20
36.6978
 42
-0.09580191209
  0
SEQEND
  0
POLYLINE
  8
LAYER_3
 40
0.05
 41
0.05
 66
1
 10
0
 20
0
 30
0
 70
1
  0
VERTEX
  8
LAYER_3
 10
158.6518
 20
36.4798
 42
0.08852014676
  0
VERTEX
  8
LAYER_3
 10
158.6225
 20
36.6517
 42
0.09973444611
  0
VERTEX
  8
LAYER_3
 10
158.5378
 20
36.795
 42
0.1024799068
  0
VERTEX
  8
LAYER_3
 10
158.4031
 20
36.8932
 42
0.1060321998
  0
VERTEX
  8
LAYER_3
 10
158.2243
 20
36.93
 42
0.1116325688
  0
VERTEX
  8
LAYER_3
 10
158.0455
 20
36.8932
 42
0.1060506217
  0
VERTEX
  8
LAYER_3
 10
157.9104
 20
36.795
 42
0.09526104957
  0
VERTEX
  8
LAYER_3
 10
157.8257
 20
36.6517
 42
0.08422602157
  0
VERTEX
  8
LAYER_3
 10
157.7968
 20
36.4798
 42
0.0876992245
  0
VERTEX
  8
LAYER_3
 10
157.8257
 20
36.3079
 42
0.09826867926
  0
VERTEX
  8
LAYER_3
 10
157.9104
 20
36.1649
 42
0.09965756504
  0
VERTEX
  8
LAYER_3
 10
158.0455
 20
36.0674
 42
0.1061654103
  0
VERTEX
  8
LAYER_3
 10
158.2243
 20
36.0309
 42
0.1124388132
  0
VERTEX
  8
LAYER_3
 10
158.4031
 20
36.0674
 42
0.1029122982
  0
VERTEX
  8
LAYER_3
 10
158.5378
 20
36.1649
 42
0.09882210045
  0
VERTEX
  8
LAYER_3
 10
158.6225
 20
36.3079
 42
0.08589740831
  0
SEQEND
  0
ENDBLK
  0
BLOCK
  8
LAYER_3
  2
AIGNBL03030019
 70
64
 10
0
 20
0
 30
0
  3
AIGNBL03030019
  0
POLYLINE
  8
LAYER_3
 40
0.05
 41
0.05
 66
1
 10
0
 20
0
 30
0
 70
1
  0
VERTEX
  8
LAYER_3
 10
160.2045
 20
36.4805
 42
-0.1019307791
  0
VERTEX
  8
LAYER_3
 10
160.1635
 20
36.2631
 42
-0.09929652324
  0
VERTEX
  8
LAYER_3
 10
160.0509
 20
36.0915
 42
-0.09710469009
  0
VERTEX
  8
LAYER_3
 10
159.88
 20
35.9785
 42
-0.09758412454
  0
VERTEX
  8
LAYER_3
 10
159.6661
 20
35.9375
 42
-0.1005051182
  0
VERTEX
  8
LAYER_3
 10
159.4524
 20
35.9785
 42
-0.1009789173
  0
VERTEX
  8
LAYER_3
 10
159.2816
 20
36.0915
 42
-0.09724598852
  0
VERTEX
  8
LAYER_3
 10
159.1682
 20
36.2631
 42
-0.09653980076
  0
VERTEX
  8
LAYER_3
 10
159.1276
 20
36.4805
 42
-0.1004051845
  0
VERTEX
  8
LAYER_3
 10
159.1682
 20
36.6978
 42
-0.1001669327
  0
VERTEX
  8
LAYER_3
 10
159.2816
 20
36.8694
 42
-0.09846843416
  0
VERTEX
  8
LAYER_3
 10
159.4524
 20
36.9824
 42
-0.09783444074
  0
VERTEX
  8
LAYER_3
 10
159.6661
 20
37.0234
 42
-0.1000174927
  0
VERTEX
  8
LAYER_3
 10
159.88
 20
36.9824
 42
-0.098457988
  0
VERTEX
  8
LAYER_3
 10
160.0509
 20
36.8694
 42
-0.09762598086
  0
VERTEX
  8
LAYER_3
 10
160.1635
 20
36.6978
 42
-0.0978256893
  0
SEQEND
  0
POLYLINE
  8
LAYER_3
 40
0.05
 41
0.05
 66
1
 10
0
 20
0
 30
0
 70
1
  0
VERTEX
  8
LAYER_3
 10
160.0936
 20
36.4798
 42
0.08653869446
  0
VERTEX
  8
LAYER_3
 10
160.0647
 20
36.6517
 42
0.09689814906
  0
VERTEX
  8
LAYER_3
 10
159.9799
 20
36.795
 42
0.1032857511
  0
VERTEX
  8
LAYER_3
 10
159.8448
 20
36.8932
 42
0.1061350344
  0
VERTEX
  8
LAYER_3
 10
159.6661
 20
36.93
 42
0.1114208933
  0
VERTEX
  8
LAYER_3
 10
159.4872
 20
36.8932
 42
0.1056595975
  0
VERTEX
  8
LAYER_3
 10
159.3525
 20
36.795
 42
0.09787799956
  0
VERTEX
  8
LAYER_3
 10
159.2678
 20
36.6517
 42
0.08491464556
  0
VERTEX
  8
LAYER_3
 10
159.2385
 20
36.4798
 42
0.08693146424
  0
VERTEX
  8
LAYER_3
 10
159.2678
 20
36.3079
 42
0.1009797617
  0
VERTEX
  8
LAYER_3
 10
159.3525
 20
36.1649
 42
0.09978391674
  0
VERTEX
  8
LAYER_3
 10
159.4872
 20
36.0674
 42
0.1060616244
  0
VERTEX
  8
LAYER_3
 10
159.6661
 20
36.0309
 42
0.1126531325
  0
VERTEX
  8
LAYER_3
 10
159.8448
 20
36.0674
 42
0.1036982708
  0
VERTEX
  8
LAYER_3
 10
159.9799
 20
36.1649
 42
0.09401062747
  0
VERTEX
  8
LAYER_3
 10
160.0647
 20
36.3079
 42
0.0844927763
  0
SEQEND
  0
ENDBLK
  0
BLOCK
  8
LAYER_3
  2
AIGNBL0303001A
 70
64
 10
0
 20
0
 30
0
  3
AIGNBL0303001A
  0
POLYLINE
  8
LAYER_3
 40
0.05
 41
0.05
 66
1
 10
0
 20
0
 30
0
 70
1
  0
VERTEX
  8
LAYER_3
 10
161.1354
 20
36.1418
  0
VERTEX
  8
LAYER_3
 10
161.1371
 20
36.1418
  0
VERTEX
  8
LAYER_3
 10
161.4826
 20
36.9969
  0
VERTEX
  8
LAYER_3
 10
161.6435
 20
36.9969
  0
VERTEX
  8
LAYER_3
 10
161.6435
 20
35.9637
  0
VERTEX
  8
LAYER_3
 10
161.5381
 20
35.9637
  0
VERTEX
  8
LAYER_3
 10
161.5381
 20
36.8611
  0
VERTEX
  8
LAYER_3
 10
161.5354
 20
36.8611
  0
VERTEX
  8
LAYER_3
 10
161.1619
 20
35.9637
  0
VERTEX
  8
LAYER_3
 10
161.1064
 20
35.9637
  0
VERTEX
  8
LAYER_3
 10
160.7326
 20
36.8611
  0
VERTEX
  8
LAYER_3
 10
160.7299
 20
36.8611
  0
VERTEX
  8
LAYER_3
 10
160.7299
 20
35.9637
  0
VERTEX
  8
LAYER_3
 10
160.6248
 20
35.9637
  0
VERTEX
  8
LAYER_3
 10
160.6248
 20
36.9969
  0
VERTEX
  8
LAYER_3
 10
160.7853
 20
36.9969
  0
SEQEND
  0
ENDBLK
  0
BLOCK
  8
LAYER_3
  2
AIGNBL0303001B
 70
64
 10
0
 20
0
 30
0
  3
AIGNBL0303001B
  0
POLYLINE
  8
LAYER_3
 40
0.05
 41
0.05
 66
1
 10
0
 20
0
 30
0
 70
1
  0
VERTEX
  8
LAYER_3
 10
162.79
 20
36.0574
  0
VERTEX
  8
LAYER_3
 10
163.3433
 20
36.0574
  0
VERTEX
  8
LAYER_3
 10
163.3433
 20
35.9637
  0
VERTEX
  8
LAYER_3
 10
162.685
 20
35.9637
  0
VERTEX
  8
LAYER_3
 10
162.685
 20
36.9969
  0
VERTEX
  8
LAYER_3
 10
163.3258
 20
36.9969
  0
VERTEX
  8
LAYER_3
 10
163.3258
 20
36.9035
  0
VERTEX
  8
LAYER_3
 10
162.79
 20
36.9035
  0
VERTEX
  8
LAYER_3
 10
162.79
 20
36.549
  0
VERTEX
  8
LAYER_3
 10
163.2906
 20
36.549
  0
VERTEX
  8
LAYER_3
 10
163.2906
 20
36.4557
  0
VERTEX
  8
LAYER_3
 10
162.79
 20
36.4557
  0
SEQEND
  0
ENDBLK
  0
BLOCK
  8
LAYER_3
  2
AIGNBL0303001C
 70
64
 10
0
 20
0
 30
0
  3
AIGNBL0303001C
  0
POLYLINE
  8
LAYER_3
 40
0.05
 41
0.05
 66
1
 10
0
 20
0
 30
0
 70
1
  0
VERTEX
  8
LAYER_3
 10
164.0885
 20
36.5797
  0
VERTEX
  8
LAYER_3
 10
164.3707
 20
36.9969
  0
VERTEX
  8
LAYER_3
 10
164.4957
 20
36.9969
  0
VERTEX
  8
LAYER_3
 10
164.1533
 20
36.5053
  0
VERTEX
  8
LAYER_3
 10
164.5326
 20
35.9637
  0
VERTEX
  8
LAYER_3
 10
164.4013
 20
35.9637
  0
VERTEX
  8
LAYER_3
 10
164.0858
 20
36.4295
  0
VERTEX
  8
LAYER_3
 10
163.7722
 20
35.9637
  0
VERTEX
  8
LAYER_3
 10
163.6407
 20
35.9637
  0
VERTEX
  8
LAYER_3
 10
164.0203
 20
36.5066
  0
VERTEX
  8
LAYER_3
 10
163.6744
 20
36.9969
  0
VERTEX
  8
LAYER_3
 10
163.806
 20
36.9969
  0
SEQEND
  0
ENDBLK
  0
BLOCK
  8
LAYER_3
  2
AIGNBL0303001D
 70
64
 10
0
 20
0
 30
0
  3
AIGNBL0303001D
  0
POLYLINE
  8
LAYER_3
 40
0.05
 41
0.05
 66
1
 10
0
 20
0
 30
0
 70
1
  0
VERTEX
  8
LAYER_3
 10
164.8988
 20
36.9969
  0
VERTEX
  8
LAYER_3
 10
165.1909
 20
36.9969
  0
VERTEX
  8
LAYER_3
 10
165.3339
 20
36.9804
 42
-0.104160294
  0
VERTEX
  8
LAYER_3
 10
165.4438
 20
36.929
 42
-0.1209616443
  0
VERTEX
  8
LAYER_3
 10
165.5148
 20
36.8429
 42
-0.1032545831
  0
VERTEX
  8
LAYER_3
 10
165.5392
 20
36.7213
 42
-0.1239274235
  0
VERTEX
  8
LAYER_3
 10
165.5141
 20
36.5993
 42
-0.1163667494
  0
VERTEX
  8
LAYER_3
 10
165.4424
 20
36.5132
 42
-0.08715194998
  0
VERTEX
  8
LAYER_3
 10
165.3315
 20
36.4615
 42
-0.06075348808
  0
VERTEX
  8
LAYER_3
 10
165.1878
 20
36.444
  0
VERTEX
  8
LAYER_3
 10
165.0039
 20
36.444
  0
VERTEX
  8
LAYER_3
 10
165.0039
 20
35.9637
  0
VERTEX
  8
LAYER_3
 10
164.8988
 20
35.9637
  0
SEQEND
  0
POLYLINE
  8
LAYER_3
 40
0.05
 41
0.05
 66
1
 10
0
 20
0
 30
0
 70
1
  0
VERTEX
  8
LAYER_3
 10
165.0039
 20
36.5328
  0
VERTEX
  8
LAYER_3
 10
165.1816
 20
36.5328
 42
0.1694225951
  0
VERTEX
  8
LAYER_3
 10
165.3701
 20
36.581
 42
0.2442570363
  0
VERTEX
  8
LAYER_3
 10
165.4345
 20
36.7213
 42
0.2590967024
  0
VERTEX
  8
LAYER_3
 10
165.368
 20
36.8622
 42
0.143072224
  0
VERTEX
  8
LAYER_3
 10
165.1816
 20
36.9066
  0
VERTEX
  8
LAYER_3
 10
165.0039
 20
36.9066
  0
SEQEND
  0
ENDBLK
  0
BLOCK
  8
LAYER_3
  2
AIGNBL0303001E
 70
64
 10
0
 20
0
 30
0
  3
AIGNBL0303001E
  0
POLYLINE
  8
LAYER_3
 40
0.05
 41
0.05
 66
1
 10
0
 20
0
 30
0
 70
1
  0
VERTEX
  8
LAYER_3
 10
166.0515
 20
36.0574
  0
VERTEX
  8
LAYER_3
 10
166.6048
 20
36.0574
  0
VERTEX
  8
LAYER_3
 10
166.6048
 20
35.9637
  0
VERTEX
  8
LAYER_3
 10
165.9465
 20
35.9637
  0
VERTEX
  8
LAYER_3
 10
165.9465
 20
36.9969
  0
VERTEX
  8
LAYER_3
 10
166.5872
 20
36.9969
  0
VERTEX
  8
LAYER_3
 10
166.5872
 20
36.9035
  0
VERTEX
  8
LAYER_3
 10
166.0515
 20
36.9035
  0
VERTEX
  8
LAYER_3
 10
166.0515
 20
36.549
  0
VERTEX
  8
LAYER_3
 10
166.5521
 20
36.549
  0
VERTEX
  8
LAYER_3
 10
166.5521
 20
36.4557
  0
VERTEX
  8
LAYER_3
 10
166.0515
 20
36.4557
  0
SEQEND
  0
ENDBLK
  0
BLOCK
  8
LAYER_3
  2
AIGNBL0303001F
 70
64
 10
0
 20
0
 30
0
  3
AIGNBL0303001F
  0
POLYLINE
  8
LAYER_3
 40
0.05
 41
0.05
 66
1
 10
0
 20
0
 30
0
 70
1
  0
VERTEX
  8
LAYER_3
 10
167.1168
 20
35.9637
  0
VERTEX
  8
LAYER_3
 10
167.0117
 20
35.9637
  0
VERTEX
  8
LAYER_3
 10
167.0117
 20
36.9969
  0
VERTEX
  8
LAYER_3
 10
167.3155
 20
36.9969
  0
VERTEX
  8
LAYER_3
 10
167.4561
 20
36.9824
 42
-0.1039428931
  0
VERTEX
  8
LAYER_3
 10
167.5687
 20
36.9349
 42
-0.1259973384
  0
VERTEX
  8
LAYER_3
 10
167.6425
 20
36.8494
 42
-0.1064650891
  0
VERTEX
  8
LAYER_3
 10
167.6683
 20
36.7213
  0
VERTEX
  8
LAYER_3
 10
167.6483
 20
36.6176
  0
VERTEX
  8
LAYER_3
 10
167.5929
 20
36.5366
  0
VERTEX
  8
LAYER_3
 10
167.5095
 20
36.4818
  0
VERTEX
  8
LAYER_3
 10
167.4044
 20
36.4557
  0
VERTEX
  8
LAYER_3
 10
167.7066
 20
35.9637
  0
VERTEX
  8
LAYER_3
 10
167.578
 20
35.9637
  0
VERTEX
  8
LAYER_3
 10
167.2921
 20
36.4467
  0
VERTEX
  8
LAYER_3
 10
167.1168
 20
36.4467
  0
SEQEND
  0
POLYLINE
  8
LAYER_3
 40
0.05
 41
0.05
 66
1
 10
0
 20
0
 30
0
 70
1
  0
VERTEX
  8
LAYER_3
 10
167.1168
 20
36.5373
  0
VERTEX
  8
LAYER_3
 10
167.2994
 20
36.5373
 42
0.1542400453
  0
VERTEX
  8
LAYER_3
 10
167.495
 20
36.5831
 42
0.2583775622
  0
VERTEX
  8
LAYER_3
 10
167.5636
 20
36.7213
  0
VERTEX
  8
LAYER_3
 10
167.5446
 20
36.8071
  0
VERTEX
  8
LAYER_3
 10
167.4919
 20
36.8643
  0
VERTEX
  8
LAYER_3
 10
167.4103
 20
36.8963
  0
VERTEX
  8
LAYER_3
 10
167.3038
 20
36.9066
  0
VERTEX
  8
LAYER_3
 10
167.1168
 20
36.9066
  0
SEQEND
  0
ENDBLK
  0
BLOCK
  8
LAYER_3
  2
AIGNBL03030020
 70
64
 10
0
 20
0
 30
0
  3
AIGNBL03030020
  0
POLYLINE
  8
LAYER_3
 40
0.05
 41
0.05
 66
1
 10
0
 20
0
 30
0
 70
1
  0
VERTEX
  8
LAYER_3
 10
168.1923
 20
35.9637
  0
VERTEX
  8
LAYER_3
 10
168.0876
 20
35.9637
  0
VERTEX
  8
LAYER_3
 10
168.0876
 20
36.9969
  0
VERTEX
  8
LAYER_3
 10
168.1923
 20
36.9969
  0
SEQEND
  0
ENDBLK
  0
BLOCK
  8
LAYER_3
  2
AIGNBL03030021
 70
64
 10
0
 20
0
 30
0
  3
AIGNBL03030021
  0
POLYLINE
  8
LAYER_3
 40
0.05
 41
0.05
 66
1
 10
0
 20
0
 30
0
 70
1
  0
VERTEX
  8
LAYER_3
 10
168.7732
 20
36.0574
  0
VERTEX
  8
LAYER_3
 10
169.3261
 20
36.0574
  0
VERTEX
  8
LAYER_3
 10
169.3261
 20
35.9637
  0
VERTEX
  8
LAYER_3
 10
168.6681
 20
35.9637
  0
VERTEX
  8
LAYER_3
 10
168.6681
 20
36.9969
  0
VERTEX
  8
LAYER_3
 10
169.3089
 20
36.9969
  0
VERTEX
  8
LAYER_3
 10
169.3089
 20
36.9035
  0
VERTEX
  8
LAYER_3
 10
168.7732
 20
36.9035
  0
VERTEX
  8
LAYER_3
 10
168.7732
 20
36.549
  0
VERTEX
  8
LAYER_3
 10
169.2737
 20
36.549
  0
VERTEX
  8
LAYER_3
 10
169.2737
 20
36.4557
  0
VERTEX
  8
LAYER_3
 10
168.7732
 20
36.4557
  0
SEQEND
  0
ENDBLK
  0
BLOCK
  8
LAYER_3
  2
AIGNBL03030022
 70
64
 10
0
 20
0
 30
0
  3
AIGNBL03030022
  0
POLYLINE
  8
LAYER_3
 40
0.05
 41
0.05
 66
1
 10
0
 20
0
 30
0
 70
1
  0
VERTEX
  8
LAYER_3
 10
170.4661
 20
36.117
  0
VERTEX
  8
LAYER_3
 10
170.4689
 20
36.117
  0
VERTEX
  8
LAYER_3
 10
170.4689
 20
36.9969
  0
VERTEX
  8
LAYER_3
 10
170.5739
 20
36.9969
  0
VERTEX
  8
LAYER_3
 10
170.5739
 20
35.9637
  0
VERTEX
  8
LAYER_3
 10
170.4426
 20
35.9637
  0
VERTEX
  8
LAYER_3
 10
169.8415
 20
36.8525
  0
VERTEX
  8
LAYER_3
 10
169.8384
 20
36.8525
  0
VERTEX
  8
LAYER_3
 10
169.8384
 20
35.9637
  0
VERTEX
  8
LAYER_3
 10
169.7333
 20
35.9637
  0
VERTEX
  8
LAYER_3
 10
169.7333
 20
36.9969
  0
VERTEX
  8
LAYER_3
 10
169.8649
 20
36.9969
  0
SEQEND
  0
ENDBLK
  0
BLOCK
  8
LAYER_3
  2
AIGNBL03030023
 70
64
 10
0
 20
0
 30
0
  3
AIGNBL03030023
  0
POLYLINE
  8
LAYER_3
 40
0.05
 41
0.05
 66
1
 10
0
 20
0
 30
0
 70
1
  0
VERTEX
  8
LAYER_3
 10
171.9196
 20
36.1315
  0
VERTEX
  8
LAYER_3
 10
171.8558
 20
36.0571
  0
VERTEX
  8
LAYER_3
 10
171.7697
 20
35.9954
  0
VERTEX
  8
LAYER_3
 10
171.6615
 20
35.953
  0
VERTEX
  8
LAYER_3
 10
171.5327
 20
35.9375
 42
-0.0997799169
  0
VERTEX
  8
LAYER_3
 10
171.3167
 20
35.9785
 42
-0.102530266
  0
VERTEX
  8
LAYER_3
 10
171.1461
 20
36.0915
 42
-0.09968794278
  0
VERTEX
  8
LAYER_3
 10
171.0345
 20
36.2631
 42
-0.09630702324
  0
VERTEX
  8
LAYER_3
 10
170.9942
 20
36.4805
 42
-0.1018981748
  0
VERTEX
  8
LAYER_3
 10
171.0352
 20
36.6978
 42
-0.09989904409
  0
VERTEX
  8
LAYER_3
 10
171.1479
 20
36.8694
 42
-0.09694965588
  0
VERTEX
  8
LAYER_3
 10
171.3187
 20
36.9824
 42
-0.09744116728
  0
VERTEX
  8
LAYER_3
 10
171.5327
 20
37.0234
  0
VERTEX
  8
LAYER_3
 10
171.6443
 20
37.0114
  0
VERTEX
  8
LAYER_3
 10
171.7473
 20
36.9779
  0
VERTEX
  8
LAYER_3
 10
171.8348
 20
36.9263
  0
VERTEX
  8
LAYER_3
 10
171.9006
 20
36.8584
  0
VERTEX
  8
LAYER_3
 10
171.8131
 20
36.794
  0
VERTEX
  8
LAYER_3
 10
171.7697
 20
36.8439
  0
VERTEX
  8
LAYER_3
 10
171.7063
 20
36.8877
  0
VERTEX
  8
LAYER_3
 10
171.6267
 20
36.9183
  0
VERTEX
  8
LAYER_3
 10
171.5341
 20
36.93
 42
0.1106055686
  0
VERTEX
  8
LAYER_3
 10
171.3539
 20
36.8935
 42
0.1037389517
  0
VERTEX
  8
LAYER_3
 10
171.2188
 20
36.7954
 42
0.09534605581
  0
VERTEX
  8
LAYER_3
 10
171.1341
 20
36.652
 42
0.08447361069
  0
VERTEX
  8
LAYER_3
 10
171.1052
 20
36.4805
 42
0.09038739564
  0
VERTEX
  8
LAYER_3
 10
171.1351
 20
36.3089
 42
0.09795352863
  0
VERTEX
  8
LAYER_3
 10
171.2205
 20
36.1656
 42
0.1034747097
  0
VERTEX
  8
LAYER_3
 10
171.3556
 20
36.0674
 42
0.1064777274
  0
VERTEX
  8
LAYER_3
 10
171.5341
 20
36.0309
 42
0.1092499226
  0
VERTEX
  8
LAYER_3
 10
171.7032
 20
36.0674
 42
0.1370031249
  0
VERTEX
  8
LAYER_3
 10
171.8376
 20
36.1842
  0
SEQEND
  0
ENDBLK
  0
BLOCK
  8
LAYER_3
  2
AIGNBL03030024
 70
64
 10
0
 20
0
 30
0
  3
AIGNBL03030024
  0
POLYLINE
  8
LAYER_3
 40
0.05
 41
0.05
 66
1
 10
0
 20
0
 30
0
 70
1
  0
VERTEX
  8
LAYER_3
 10
172.4067
 20
36.0574
  0
VERTEX
  8
LAYER_3
 10
172.96
 20
36.0574
  0
VERTEX
  8
LAYER_3
 10
172.96
 20
35.9637
  0
VERTEX
  8
LAYER_3
 10
172.3016
 20
35.9637
  0
VERTEX
  8
LAYER_3
 10
172.3016
 20
36.9969
  0
VERTEX
  8
LAYER_3
 10
172.9424
 20
36.9969
  0
VERTEX
  8
LAYER_3
 10
172.9424
 20
36.9035
  0
VERTEX
  8
LAYER_3
 10
172.4067
 20
36.9035
  0
VERTEX
  8
LAYER_3
 10
172.4067
 20
36.549
  0
VERTEX
  8
LAYER_3
 10
172.9073
 20
36.549
  0
VERTEX
  8
LAYER_3
 10
172.9073
 20
36.4557
  0
VERTEX
  8
LAYER_3
 10
172.4067
 20
36.4557
  0
SEQEND
  0
ENDBLK
  0
BLOCK
  8
LAYER_1
  2
AIGNBL01020003
 70
64
 10
0
 20
0
 30
0
  3
AIGNBL01020003
  0
POLYLINE
  8
LAYER_1
 40
0.2469
 41
0.2469
 66
1
 10
0
 20
0
 30
0
  0
VERTEX
  8
LAYER_1
 10
62.79
 20
172.2748
  0
VERTEX
  8
LAYER_1
 10
63.2661
 20
172.2748
  0
SEQEND
  0
ENDBLK
  0
BLOCK
  8
LAYER_1
  2
AIGNBL01020004
 70
64
 10
0
 20
0
 30
0
  3
AIGNBL01020004
  0
POLYLINE
  8
LAYER_1
 40
0.2469
 41
0.2469
 66
1
 10
0
 20
0
 30
0
  0
VERTEX
  8
LAYER_1
 10
49.2035
 20
169.3058
  0
VERTEX
  8
LAYER_1
 10
49.2035
 20
172.2748
  0
SEQEND
  0
ENDBLK
  0
BLOCK
  8
LAYER_1
  2
AIGNBL01020005
 70
64
 10
0
 20
0
 30
0
  3
AIGNBL01020005
  0
POLYLINE
  8
LAYER_1
 40
0.2469
 41
0.2469
 66
1
 10
0
 20
0
 30
0
  0
VERTEX
  8
LAYER_1
 10
56.2346
 20
170.3996
  0
VERTEX
  8
LAYER_1
 10
58.2359
 20
168.5244
  0
SEQEND
  0
ENDBLK
  0
BLOCK
  8
LAYER_1
  2
AIGNBL01020006
 70
64
 10
0
 20
0
 30
0
  3
AIGNBL01020006
  0
POLYLINE
  8
LAYER_1
 40
0.2469
 41
0.2469
 66
1
 10
0
 20
0
 30
0
  0
VERTEX
  8
LAYER_1
 10
56.2346
 20
170.3996
  0
VERTEX
  8
LAYER_1
 10
58.2359
 20
172.2748
  0
SEQEND
  0
ENDBLK
  0
BLOCK
  8
LAYER_1
  2
AIGNBL01020007
 70
64
 10
0
 20
0
 30
0
  3
AIGNBL01020007
  0
POLYLINE
  8
LAYER_1
 40
0.2469
 41
0.2469
 66
1
 10
0
 20
0
 30
0
  0
VERTEX
  8
LAYER_1
 10
58.2359
 20
168.5244
  0
VERTEX
  8
LAYER_1
 10
54.2337
 20
168.5244
  0
SEQEND
  0
ENDBLK
  0
BLOCK
  8
LAYER_1
  2
AIGNBL01020008
 70
64
 10
0
 20
0
 30
0
  3
AIGNBL01020008
  0
POLYLINE
  8
LAYER_1
 40
0.2469
 41
0.2469
 66
1
 10
0
 20
0
 30
0
  0
VERTEX
  8
LAYER_1
 10
63.2661
 20
168.5244
  0
VERTEX
  8
LAYER_1
 10
58.2359
 20
168.5244
  0
SEQEND
  0
ENDBLK
  0
BLOCK
  8
LAYER_1
  2
AIGNBL01020009
 70
64
 10
0
 20
0
 30
0
  3
AIGNBL01020009
  0
POLYLINE
  8
LAYER_1
 40
0.2469
 41
0.2469
 66
1
 10
0
 20
0
 30
0
  0
VERTEX
  8
LAYER_1
 10
54.2337
 20
172.2748
  0
VERTEX
  8
LAYER_1
 10
58.2359
 20
172.2748
  0
SEQEND
  0
ENDBLK
  0
BLOCK
  8
LAYER_1
  2
AIGNBL0102000A
 70
64
 10
0
 20
0
 30
0
  3
AIGNBL0102000A
  0
POLYLINE
  8
LAYER_1
 40
0.2469
 41
0.2469
 66
1
 10
0
 20
0
 30
0
  0
VERTEX
  8
LAYER_1
 10
58.2359
 20
172.2748
  0
VERTEX
  8
LAYER_1
 10
58.2359
 20
168.5244
  0
SEQEND
  0
ENDBLK
  0
BLOCK
  8
LAYER_1
  2
AIGNBL0102000B
 70
64
 10
0
 20
0
 30
0
  3
AIGNBL0102000B
  0
POLYLINE
  8
LAYER_1
 40
0.2469
 41
0.2469
 66
1
 10
0
 20
0
 30
0
  0
VERTEX
  8
LAYER_1
 10
58.2359
 20
172.2748
  0
VERTEX
  8
LAYER_1
 10
62.79
 20
172.2748
  0
SEQEND
  0
ENDBLK
  0
BLOCK
  8
LAYER_1
  2
AIGNBL0102000C
 70
64
 10
0
 20
0
 30
0
  3
AIGNBL0102000C
  0
POLYLINE
  8
LAYER_1
 40
0.2469
 41
0.2469
 66
1
 10
0
 20
0
 30
0
  0
VERTEX
  8
LAYER_1
 10
63.2661
 20
172.2748
  0
VERTEX
  8
LAYER_1
 10
63.2661
 20
168.5244
  0
SEQEND
  0
ENDBLK
  0
BLOCK
  8
LAYER_1
  2
AIGNBL0102000D
 70
64
 10
0
 20
0
 30
0
  3
AIGNBL0102000D
  0
POLYLINE
  8
LAYER_1
 40
0.2469
 41
0.2469
 66
1
 10
0
 20
0
 30
0
  0
VERTEX
  8
LAYER_1
 10
49.2035
 20
168.5244
  0
VERTEX
  8
LAYER_1
 10
49.2035
 20
169.3058
  0
SEQEND
  0
ENDBLK
  0
BLOCK
  8
LAYER_1
  2
AIGNBL0102000E
 70
64
 10
0
 20
0
 30
0
  3
AIGNBL0102000E
  0
POLYLINE
  8
LAYER_1
 40
0.2469
 41
0.2469
 66
1
 10
0
 20
0
 30
0
  0
VERTEX
  8
LAYER_1
 10
49.2035
 20
172.2748
  0
VERTEX
  8
LAYER_1
 10
54.2337
 20
172.2748
  0
SEQEND
  0
ENDBLK
  0
BLOCK
  8
LAYER_1
  2
AIGNBL0102000F
 70
64
 10
0
 20
0
 30
0
  3
AIGNBL0102000F
  0
POLYLINE
  8
LAYER_1
 40
0.2469
 41
0.2469
 66
1
 10
0
 20
0
 30
0
  0
VERTEX
  8
LAYER_1
 10
54.2337
 20
168.5244
  0
VERTEX
  8
LAYER_1
 10
54.2337
 20
172.2748
  0
SEQEND
  0
ENDBLK
  0
BLOCK
  8
LAYER_1
  2
AIGNBL01020010
 70
64
 10
0
 20
0
 30
0
  3
AIGNBL01020010
  0
POLYLINE
  8
LAYER_1
 40
0.2469
 41
0.2469
 66
1
 10
0
 20
0
 30
0
  0
VERTEX
  8
LAYER_1
 10
54.2337
 20
168.5244
  0
VERTEX
  8
LAYER_1
 10
49.2035
 20
168.5244
  0
SEQEND
  0
ENDBLK
  0
BLOCK
  8
LAYER_1
  2
AIGNBL01020011
 70
64
 10
0
 20
0
 30
0
  3
AIGNBL01020011
  0
POLYLINE
  8
LAYER_1
 40
0.2469
 41
0.2469
 66
1
 10
0
 20
0
 30
0
  0
VERTEX
  8
LAYER_1
 10
54.2337
 20
172.2748
  0
VERTEX
  8
LAYER_1
 10
56.2346
 20
170.3996
  0
SEQEND
  0
ENDBLK
  0
BLOCK
  8
LAYER_1
  2
AIGNBL01020012
 70
64
 10
0
 20
0
 30
0
  3
AIGNBL01020012
  0
POLYLINE
  8
LAYER_1
 40
0.2469
 41
0.2469
 66
1
 10
0
 20
0
 30
0
  0
VERTEX
  8
LAYER_1
 10
54.2337
 20
168.5244
  0
VERTEX
  8
LAYER_1
 10
56.2346
 20
170.3996
  0
SEQEND
  0
ENDBLK
  0
BLOCK
  8
LAYER_1
  2
AIGNBL01020014
 70
64
 10
0
 20
0
 30
0
  3
AIGNBL01020014
  0
INSERT
  8
LAYER_1
  2
AIGNBL01030015
 10
0
 20
0
 30
0
  0
INSERT
  8
LAYER_1
  2
AIGNBL01030016
 10
0
 20
0
 30
0
  0
INSERT
  8
LAYER_1
  2
AIGNBL01030017
 10
0
 20
0
 30
0
  0
INSERT
  8
LAYER_1
  2
AIGNBL01030018
 10
0
 20
0
 30
0
  0
INSERT
  8
LAYER_1
  2
AIGNBL01030019
 10
0
 20
0
 30
0
  0
INSERT
  8
LAYER_1
  2
AIGNBL0103001A
 10
0
 20
0
 30
0
  0
INSERT
  8
LAYER_1
  2
AIGNBL0103001B
 10
0
 20
0
 30
0
  0
INSERT
  8
LAYER_1
  2
AIGNBL0103001C
 10
0
 20
0
 30
0
  0
INSERT
  8
LAYER_1
  2
AIGNBL0103001D
 10
0
 20
0
 30
0
  0
INSERT
  8
LAYER_1
  2
AIGNBL0103001E
 10
0
 20
0
 30
0
  0
ENDBLK
  0
BLOCK
  8
LAYER_1
  2
AIGNBL0102001F
 70
64
 10
0
 20
0
 30
0
  3
AIGNBL0102001F
  0
POLYLINE
  8
LAYER_1
 40
0.2469
 41
0.2469
 66
1
 10
0
 20
0
 30
0
  0
VERTEX
  8
LAYER_1
 10
67.1721
 20
123.8374
  0
VERTEX
  8
LAYER_1
 10
73.7034
 20
123.8374
  0
SEQEND
  0
ENDBLK
  0
BLOCK
  8
LAYER_1
  2
AIGNBL01020020
 70
64
 10
0
 20
0
 30
0
  3
AIGNBL01020020
  0
POLYLINE
  8
LAYER_1
 40
0.2469
 41
0.2469
 66
1
 10
0
 20
0
 30
0
  0
VERTEX
  8
LAYER_1
 10
48.2971
 20
131.9616
  0
VERTEX
  8
LAYER_1
 10
50.2974
 20
131.9616
  0
SEQEND
  0
ENDBLK
  0
BLOCK
  8
LAYER_1
  2
AIGNBL01020021
 70
64
 10
0
 20
0
 30
0
  3
AIGNBL01020021
  0
POLYLINE
  8
LAYER_1
 40
0.2469
 41
0.2469
 66
1
 10
0
 20
0
 30
0
  0
VERTEX
  8
LAYER_1
 10
62.1722
 20
131.9616
  0
VERTEX
  8
LAYER_1
 10
64.1749
 20
131.9616
  0
SEQEND
  0
ENDBLK
  0
BLOCK
  8
LAYER_1
  2
AIGNBL01020022
 70
64
 10
0
 20
0
 30
0
  3
AIGNBL01020022
  0
POLYLINE
  8
LAYER_1
 40
0.2469
 41
0.2469
 66
1
 10
0
 20
0
 30
0
  0
VERTEX
  8
LAYER_1
 10
64.1725
 20
111.9621
  0
VERTEX
  8
LAYER_1
 10
64.1725
 20
89.619
  0
SEQEND
  0
ENDBLK
  0
BLOCK
  8
LAYER_1
  2
AIGNBL01020023
 70
64
 10
0
 20
0
 30
0
  3
AIGNBL01020023
  0
POLYLINE
  8
LAYER_1
 40
0.2469
 41
0.2469
 66
1
 10
0
 20
0
 30
0
  0
VERTEX
  8
LAYER_1
 10
74.1429
 20
112.2164
  0
VERTEX
  8
LAYER_1
 10
74.1429
 20
123.8374
  0
SEQEND
  0
ENDBLK
  0
BLOCK
  8
LAYER_1
  2
AIGNBL01020024
 70
64
 10
0
 20
0
 30
0
  3
AIGNBL01020024
  0
POLYLINE
  8
LAYER_1
 40
0.2469
 41
0.2469
 66
1
 10
0
 20
0
 30
0
  0
VERTEX
  8
LAYER_1
 10
74.3286
 20
111.9621
  0
VERTEX
  8
LAYER_1
 10
73.7034
 20
111.9621
  0
SEQEND
  0
ENDBLK
  0
BLOCK
  8
LAYER_1
  2
AIGNBL01020025
 70
64
 10
0
 20
0
 30
0
  3
AIGNBL01020025
  0
POLYLINE
  8
LAYER_1
 40
0.2469
 41
0.2469
 66
1
 10
0
 20
0
 30
0
  0
VERTEX
  8
LAYER_1
 10
73.7034
 20
123.8374
  0
VERTEX
  8
LAYER_1
 10
73.7034
 20
111.9621
  0
SEQEND
  0
ENDBLK
  0
BLOCK
  8
LAYER_1
  2
AIGNBL01020026
 70
64
 10
0
 20
0
 30
0
  3
AIGNBL01020026
  0
POLYLINE
  8
LAYER_1
 40
0.2469
 41
0.2469
 66
1
 10
0
 20
0
 30
0
  0
VERTEX
  8
LAYER_1
 10
73.7034
 20
123.8374
  0
VERTEX
  8
LAYER_1
 10
74.1429
 20
123.8374
  0
SEQEND
  0
ENDBLK
  0
BLOCK
  8
LAYER_1
  2
AIGNBL01020027
 70
64
 10
0
 20
0
 30
0
  3
AIGNBL01020027
  0
POLYLINE
  8
LAYER_1
 40
0.2469
 41
0.2469
 66
1
 10
0
 20
0
 30
0
  0
VERTEX
  8
LAYER_1
 10
74.1429
 20
123.5832
  0
VERTEX
  8
LAYER_1
 10
73.7034
 20
123.8374
  0
SEQEND
  0
ENDBLK
  0
BLOCK
  8
LAYER_1
  2
AIGNBL01020028
 70
64
 10
0
 20
0
 30
0
  3
AIGNBL01020028
  0
POLYLINE
  8
LAYER_1
 40
0.2469
 41
0.2469
 66
1
 10
0
 20
0
 30
0
  0
VERTEX
  8
LAYER_1
 10
74.3286
 20
123.5832
  0
VERTEX
  8
LAYER_1
 10
74.1429
 20
123.5832
  0
SEQEND
  0
ENDBLK
  0
BLOCK
  8
LAYER_1
  2
AIGNBL01020029
 70
64
 10
0
 20
0
 30
0
  3
AIGNBL01020029
  0
POLYLINE
  8
LAYER_1
 40
0.2469
 41
0.2469
 66
1
 10
0
 20
0
 30
0
  0
VERTEX
  8
LAYER_1
 10
74.1429
 20
112.2164
  0
VERTEX
  8
LAYER_1
 10
73.7034
 20
111.9621
  0
SEQEND
  0
ENDBLK
  0
BLOCK
  8
LAYER_1
  2
AIGNBL0102002A
 70
64
 10
0
 20
0
 30
0
  3
AIGNBL0102002A
  0
POLYLINE
  8
LAYER_1
 40
0.2469
 41
0.2469
 66
1
 10
0
 20
0
 30
0
  0
VERTEX
  8
LAYER_1
 10
74.1429
 20
111.9621
  0
VERTEX
  8
LAYER_1
 10
74.1429
 20
112.2164
  0
SEQEND
  0
ENDBLK
  0
BLOCK
  8
LAYER_1
  2
AIGNBL0102002B
 70
64
 10
0
 20
0
 30
0
  3
AIGNBL0102002B
  0
POLYLINE
  8
LAYER_1
 40
0.2469
 41
0.2469
 66
1
 10
0
 20
0
 30
0
  0
VERTEX
  8
LAYER_1
 10
74.3286
 20
112.2164
  0
VERTEX
  8
LAYER_1
 10
74.1429
 20
112.2164
  0
SEQEND
  0
ENDBLK
  0
BLOCK
  8
LAYER_1
  2
AIGNBL0102002C
 70
64
 10
0
 20
0
 30
0
  3
AIGNBL0102002C
  0
POLYLINE
  8
LAYER_1
 40
0.2469
 41
0.2469
 66
1
 10
0
 20
0
 30
0
  0
VERTEX
  8
LAYER_1
 10
73.7034
 20
123.8374
  0
VERTEX
  8
LAYER_1
 10
74.3286
 20
123.8374
  0
SEQEND
  0
ENDBLK
  0
BLOCK
  8
LAYER_1
  2
AIGNBL0102002D
 70
64
 10
0
 20
0
 30
0
  3
AIGNBL0102002D
  0
POLYLINE
  8
LAYER_1
 40
0.2469
 41
0.2469
 66
1
 10
0
 20
0
 30
0
  0
VERTEX
  8
LAYER_1
 10
73.7034
 20
111.9621
  0
VERTEX
  8
LAYER_1
 10
64.1725
 20
111.9621
  0
SEQEND
  0
ENDBLK
  0
BLOCK
  8
LAYER_1
  2
AIGNBL0102002E
 70
64
 10
0
 20
0
 30
0
  3
AIGNBL0102002E
  0
POLYLINE
  8
LAYER_1
 40
0.2469
 41
0.2469
 66
1
 10
0
 20
0
 30
0
  0
VERTEX
  8
LAYER_1
 10
64.1725
 20
123.8374
  0
VERTEX
  8
LAYER_1
 10
67.1721
 20
123.8374
  0
SEQEND
  0
ENDBLK
  0
BLOCK
  8
LAYER_1
  2
AIGNBL0102002F
 70
64
 10
0
 20
0
 30
0
  3
AIGNBL0102002F
  0
POLYLINE
  8
LAYER_1
 40
0.2469
 41
0.2469
 66
1
 10
0
 20
0
 30
0
  0
VERTEX
  8
LAYER_1
 10
64.1725
 20
131.9616
  0
VERTEX
  8
LAYER_1
 10
64.1725
 20
123.8374
  0
SEQEND
  0
ENDBLK
  0
BLOCK
  8
LAYER_1
  2
AIGNBL01020030
 70
64
 10
0
 20
0
 30
0
  3
AIGNBL01020030
  0
POLYLINE
  8
LAYER_1
 40
0.2469
 41
0.2469
 66
1
 10
0
 20
0
 30
0
  0
VERTEX
  8
LAYER_1
 10
48.2971
 20
89.619
  0
VERTEX
  8
LAYER_1
 10
48.2971
 20
131.9616
  0
SEQEND
  0
ENDBLK
  0
BLOCK
  8
LAYER_1
  2
AIGNBL01020031
 70
64
 10
0
 20
0
 30
0
  3
AIGNBL01020031
  0
POLYLINE
  8
LAYER_1
 40
0.2469
 41
0.2469
 66
1
 10
0
 20
0
 30
0
  0
VERTEX
  8
LAYER_1
 10
48.2971
 20
89.619
  0
VERTEX
  8
LAYER_1
 10
64.1725
 20
89.619
  0
SEQEND
  0
ENDBLK
  0
BLOCK
  8
LAYER_1
  2
AIGNBL01020032
 70
64
 10
0
 20
0
 30
0
  3
AIGNBL01020032
  0
POLYLINE
  8
LAYER_1
 40
0.2469
 41
0.2469
 66
1
 10
0
 20
0
 30
0
  0
VERTEX
  8
LAYER_1
 10
64.1725
 20
123.8374
 42
0.4142468614
  0
VERTEX
  8
LAYER_1
 10
63.5028
 20
112.6322
 42
0.03006653328
  0
VERTEX
  8
LAYER_1
 10
64.1725
 20
111.9621
  0
SEQEND
  0
ENDBLK
  0
BLOCK
  8
LAYER_1
  2
AIGNBL01020034
 70
64
 10
0
 20
0
 30
0
  3
AIGNBL01020034
  0
POLYLINE
  8
LAYER_1
 40
0.2469
 41
0.2469
 66
1
 10
0
 20
0
 30
0
  0
VERTEX
  8
LAYER_1
 10
54.2337
 20
132.5873
  0
VERTEX
  8
LAYER_1
 10
56.2346
 20
134.4621
  0
SEQEND
  0
ENDBLK
  0
BLOCK
  8
LAYER_1
  2
AIGNBL01020035
 70
64
 10
0
 20
0
 30
0
  3
AIGNBL01020035
  0
POLYLINE
  8
LAYER_1
 40
0.2469
 41
0.2469
 66
1
 10
0
 20
0
 30
0
  0
VERTEX
  8
LAYER_1
 10
54.2337
 20
136.3369
  0
VERTEX
  8
LAYER_1
 10
56.2346
 20
134.4621
  0
SEQEND
  0
ENDBLK
  0
BLOCK
  8
LAYER_1
  2
AIGNBL01020036
 70
64
 10
0
 20
0
 30
0
  3
AIGNBL01020036
  0
POLYLINE
  8
LAYER_1
 40
0.2469
 41
0.2469
 66
1
 10
0
 20
0
 30
0
  0
VERTEX
  8
LAYER_1
 10
54.2337
 20
132.5873
  0
VERTEX
  8
LAYER_1
 10
49.6724
 20
132.5873
  0
SEQEND
  0
ENDBLK
  0
BLOCK
  8
LAYER_1
  2
AIGNBL01020037
 70
64
 10
0
 20
0
 30
0
  3
AIGNBL01020037
  0
POLYLINE
  8
LAYER_1
 40
0.2469
 41
0.2469
 66
1
 10
0
 20
0
 30
0
  0
VERTEX
  8
LAYER_1
 10
54.2337
 20
132.5873
  0
VERTEX
  8
LAYER_1
 10
54.2337
 20
136.3369
  0
SEQEND
  0
ENDBLK
  0
BLOCK
  8
LAYER_1
  2
AIGNBL01020038
 70
64
 10
0
 20
0
 30
0
  3
AIGNBL01020038
  0
POLYLINE
  8
LAYER_1
 40
0.2469
 41
0.2469
 66
1
 10
0
 20
0
 30
0
  0
VERTEX
  8
LAYER_1
 10
49.6724
 20
136.3369
  0
VERTEX
  8
LAYER_1
 10
54.2337
 20
136.3369
  0
SEQEND
  0
ENDBLK
  0
BLOCK
  8
LAYER_1
  2
AIGNBL01020039
 70
64
 10
0
 20
0
 30
0
  3
AIGNBL01020039
  0
POLYLINE
  8
LAYER_1
 40
0.2469
 41
0.2469
 66
1
 10
0
 20
0
 30
0
  0
VERTEX
  8
LAYER_1
 10
49.6724
 20
132.5873
  0
VERTEX
  8
LAYER_1
 10
49.6724
 20
136.3369
  0
SEQEND
  0
ENDBLK
  0
BLOCK
  8
LAYER_1
  2
AIGNBL0102003A
 70
64
 10
0
 20
0
 30
0
  3
AIGNBL0102003A
  0
POLYLINE
  8
LAYER_1
 40
0.2469
 41
0.2469
 66
1
 10
0
 20
0
 30
0
  0
VERTEX
  8
LAYER_1
 10
62.7975
 20
136.3369
  0
VERTEX
  8
LAYER_1
 10
62.7975
 20
132.5873
  0
SEQEND
  0
ENDBLK
  0
BLOCK
  8
LAYER_1
  2
AIGNBL0102003B
 70
64
 10
0
 20
0
 30
0
  3
AIGNBL0102003B
  0
POLYLINE
  8
LAYER_1
 40
0.2469
 41
0.2469
 66
1
 10
0
 20
0
 30
0
  0
VERTEX
  8
LAYER_1
 10
58.2359
 20
136.3369
  0
VERTEX
  8
LAYER_1
 10
62.7975
 20
136.3369
  0
SEQEND
  0
ENDBLK
  0
BLOCK
  8
LAYER_1
  2
AIGNBL0102003C
 70
64
 10
0
 20
0
 30
0
  3
AIGNBL0102003C
  0
POLYLINE
  8
LAYER_1
 40
0.2469
 41
0.2469
 66
1
 10
0
 20
0
 30
0
  0
VERTEX
  8
LAYER_1
 10
58.2359
 20
136.3369
  0
VERTEX
  8
LAYER_1
 10
58.2359
 20
132.5873
  0
SEQEND
  0
ENDBLK
  0
BLOCK
  8
LAYER_1
  2
AIGNBL0102003D
 70
64
 10
0
 20
0
 30
0
  3
AIGNBL0102003D
  0
POLYLINE
  8
LAYER_1
 40
0.2469
 41
0.2469
 66
1
 10
0
 20
0
 30
0
  0
VERTEX
  8
LAYER_1
 10
54.2337
 20
136.3369
  0
VERTEX
  8
LAYER_1
 10
58.2359
 20
136.3369
  0
SEQEND
  0
ENDBLK
  0
BLOCK
  8
LAYER_1
  2
AIGNBL0102003E
 70
64
 10
0
 20
0
 30
0
  3
AIGNBL0102003E
  0
POLYLINE
  8
LAYER_1
 40
0.2469
 41
0.2469
 66
1
 10
0
 20
0
 30
0
  0
VERTEX
  8
LAYER_1
 10
62.7975
 20
132.5873
  0
VERTEX
  8
LAYER_1
 10
58.2359
 20
132.5873
  0
SEQEND
  0
ENDBLK
  0
BLOCK
  8
LAYER_1
  2
AIGNBL0102003F
 70
64
 10
0
 20
0
 30
0
  3
AIGNBL0102003F
  0
POLYLINE
  8
LAYER_1
 40
0.2469
 41
0.2469
 66
1
 10
0
 20
0
 30
0
  0
VERTEX
  8
LAYER_1
 10
58.2359
 20
132.5873
  0
VERTEX
  8
LAYER_1
 10
54.2337
 20
132.5873
  0
SEQEND
  0
ENDBLK
  0
BLOCK
  8
LAYER_1
  2
AIGNBL01020040
 70
64
 10
0
 20
0
 30
0
  3
AIGNBL01020040
  0
POLYLINE
  8
LAYER_1
 40
0.2469
 41
0.2469
 66
1
 10
0
 20
0
 30
0
  0
VERTEX
  8
LAYER_1
 10
56.2346
 20
134.4621
  0
VERTEX
  8
LAYER_1
 10
58.2359
 20
136.3369
  0
SEQEND
  0
ENDBLK
  0
BLOCK
  8
LAYER_1
  2
AIGNBL01020041
 70
64
 10
0
 20
0
 30
0
  3
AIGNBL01020041
  0
POLYLINE
  8
LAYER_1
 40
0.2469
 41
0.2469
 66
1
 10
0
 20
0
 30
0
  0
VERTEX
  8
LAYER_1
 10
56.2346
 20
134.4621
  0
VERTEX
  8
LAYER_1
 10
58.2359
 20
132.5873
  0
SEQEND
  0
ENDBLK
  0
BLOCK
  8
LAYER_1
  2
AIGNBL01020043
 70
64
 10
0
 20
0
 30
0
  3
AIGNBL01020043
  0
POLYLINE
  8
LAYER_1
 40
0.2469
 41
0.2469
 66
1
 10
0
 20
0
 30
0
  0
VERTEX
  8
LAYER_1
 10
189.0472
 20
122.642
  0
VERTEX
  8
LAYER_1
 10
189.0472
 20
112.9388
  0
SEQEND
  0
ENDBLK
  0
BLOCK
  8
LAYER_1
  2
AIGNBL01020044
 70
64
 10
0
 20
0
 30
0
  3
AIGNBL01020044
  0
POLYLINE
  8
LAYER_1
 40
0.2469
 41
0.2469
 66
1
 10
0
 20
0
 30
0
  0
VERTEX
  8
LAYER_1
 10
189.0472
 20
122.8607
  0
VERTEX
  8
LAYER_1
 10
189.0472
 20
122.642
  0
SEQEND
  0
ENDBLK
  0
BLOCK
  8
LAYER_1
  2
AIGNBL01020045
 70
64
 10
0
 20
0
 30
0
  3
AIGNBL01020045
  0
POLYLINE
  8
LAYER_1
 40
0.2469
 41
0.2469
 66
1
 10
0
 20
0
 30
0
  0
VERTEX
  8
LAYER_1
 10
189.0472
 20
112.9388
  0
VERTEX
  8
LAYER_1
 10
184.3622
 20
112.9388
  0
SEQEND
  0
ENDBLK
  0
BLOCK
  8
LAYER_1
  2
AIGNBL01020046
 70
64
 10
0
 20
0
 30
0
  3
AIGNBL01020046
  0
POLYLINE
  8
LAYER_1
 40
0.2469
 41
0.2469
 66
1
 10
0
 20
0
 30
0
  0
VERTEX
  8
LAYER_1
 10
78.0786
 20
122.8607
  0
VERTEX
  8
LAYER_1
 10
179.6748
 20
122.8607
  0
SEQEND
  0
ENDBLK
  0
BLOCK
  8
LAYER_1
  2
AIGNBL01020047
 70
64
 10
0
 20
0
 30
0
  3
AIGNBL01020047
  0
POLYLINE
  8
LAYER_1
 40
0.2469
 41
0.2469
 66
1
 10
0
 20
0
 30
0
  0
VERTEX
  8
LAYER_1
 10
179.6748
 20
112.9388
  0
VERTEX
  8
LAYER_1
 10
78.0786
 20
112.9388
  0
SEQEND
  0
ENDBLK
  0
BLOCK
  8
LAYER_1
  2
AIGNBL01020048
 70
64
 10
0
 20
0
 30
0
  3
AIGNBL01020048
  0
POLYLINE
  8
LAYER_1
 40
0.2469
 41
0.2469
 66
1
 10
0
 20
0
 30
0
  0
VERTEX
  8
LAYER_1
 10
184.3622
 20
122.8607
  0
VERTEX
  8
LAYER_1
 10
189.0472
 20
122.8607
  0
SEQEND
  0
ENDBLK
  0
BLOCK
  8
LAYER_1
  2
AIGNBL0102004A
 70
64
 10
0
 20
0
 30
0
  3
AIGNBL0102004A
  0
POLYLINE
  8
LAYER_1
 40
0.2469
 41
0.2469
 66
1
 10
0
 20
0
 30
0
  0
VERTEX
  8
LAYER_1
 10
74.3286
 20
123.9029
  0
VERTEX
  8
LAYER_1
 10
74.3286
 20
124.4623
  0
SEQEND
  0
ENDBLK
  0
BLOCK
  8
LAYER_1
  2
AIGNBL0102004B
 70
64
 10
0
 20
0
 30
0
  3
AIGNBL0102004B
  0
POLYLINE
  8
LAYER_1
 40
0.2469
 41
0.2469
 66
1
 10
0
 20
0
 30
0
  0
VERTEX
  8
LAYER_1
 10
78.0786
 20
123.9029
  0
VERTEX
  8
LAYER_1
 10
78.0786
 20
119.9003
  0
SEQEND
  0
ENDBLK
  0
BLOCK
  8
LAYER_1
  2
AIGNBL0102004C
 70
64
 10
0
 20
0
 30
0
  3
AIGNBL0102004C
  0
POLYLINE
  8
LAYER_1
 40
0.2469
 41
0.2469
 66
1
 10
0
 20
0
 30
0
  0
VERTEX
  8
LAYER_1
 10
78.0786
 20
111.3372
  0
VERTEX
  8
LAYER_1
 10
74.3286
 20
111.3372
  0
SEQEND
  0
ENDBLK
  0
BLOCK
  8
LAYER_1
  2
AIGNBL0102004D
 70
64
 10
0
 20
0
 30
0
  3
AIGNBL0102004D
  0
POLYLINE
  8
LAYER_1
 40
0.2469
 41
0.2469
 66
1
 10
0
 20
0
 30
0
  0
VERTEX
  8
LAYER_1
 10
78.0786
 20
115.8992
  0
VERTEX
  8
LAYER_1
 10
78.0786
 20
111.3372
  0
SEQEND
  0
ENDBLK
  0
BLOCK
  8
LAYER_1
  2
AIGNBL0102004E
 70
64
 10
0
 20
0
 30
0
  3
AIGNBL0102004E
  0
POLYLINE
  8
LAYER_1
 40
0.2469
 41
0.2469
 66
1
 10
0
 20
0
 30
0
  0
VERTEX
  8
LAYER_1
 10
78.0786
 20
115.8992
  0
VERTEX
  8
LAYER_1
 10
74.3286
 20
115.8992
  0
SEQEND
  0
ENDBLK
  0
BLOCK
  8
LAYER_1
  2
AIGNBL0102004F
 70
64
 10
0
 20
0
 30
0
  3
AIGNBL0102004F
  0
POLYLINE
  8
LAYER_1
 40
0.2469
 41
0.2469
 66
1
 10
0
 20
0
 30
0
  0
VERTEX
  8
LAYER_1
 10
74.3286
 20
111.3372
  0
VERTEX
  8
LAYER_1
 10
74.3286
 20
115.8992
  0
SEQEND
  0
ENDBLK
  0
BLOCK
  8
LAYER_1
  2
AIGNBL01020050
 70
64
 10
0
 20
0
 30
0
  3
AIGNBL01020050
  0
POLYLINE
  8
LAYER_1
 40
0.2469
 41
0.2469
 66
1
 10
0
 20
0
 30
0
  0
VERTEX
  8
LAYER_1
 10
74.3286
 20
119.9003
  0
VERTEX
  8
LAYER_1
 10
78.0786
 20
115.8992
  0
SEQEND
  0
ENDBLK
  0
BLOCK
  8
LAYER_1
  2
AIGNBL01020051
 70
64
 10
0
 20
0
 30
0
  3
AIGNBL01020051
  0
POLYLINE
  8
LAYER_1
 40
0.2469
 41
0.2469
 66
1
 10
0
 20
0
 30
0
  0
VERTEX
  8
LAYER_1
 10
78.0786
 20
119.9003
  0
VERTEX
  8
LAYER_1
 10
74.3286
 20
115.8992
  0
SEQEND
  0
ENDBLK
  0
BLOCK
  8
LAYER_1
  2
AIGNBL01020052
 70
64
 10
0
 20
0
 30
0
  3
AIGNBL01020052
  0
POLYLINE
  8
LAYER_1
 40
0.2469
 41
0.2469
 66
1
 10
0
 20
0
 30
0
  0
VERTEX
  8
LAYER_1
 10
74.3286
 20
115.8992
  0
VERTEX
  8
LAYER_1
 10
74.3286
 20
119.9003
  0
SEQEND
  0
ENDBLK
  0
BLOCK
  8
LAYER_1
  2
AIGNBL01020053
 70
64
 10
0
 20
0
 30
0
  3
AIGNBL01020053
  0
POLYLINE
  8
LAYER_1
 40
0.2469
 41
0.2469
 66
1
 10
0
 20
0
 30
0
  0
VERTEX
  8
LAYER_1
 10
74.3286
 20
119.9003
  0
VERTEX
  8
LAYER_1
 10
74.3286
 20
123.9029
  0
SEQEND
  0
ENDBLK
  0
BLOCK
  8
LAYER_1
  2
AIGNBL01020054
 70
64
 10
0
 20
0
 30
0
  3
AIGNBL01020054
  0
POLYLINE
  8
LAYER_1
 40
0.2469
 41
0.2469
 66
1
 10
0
 20
0
 30
0
  0
VERTEX
  8
LAYER_1
 10
78.0786
 20
119.9003
  0
VERTEX
  8
LAYER_1
 10
78.0786
 20
115.8992
  0
SEQEND
  0
ENDBLK
  0
BLOCK
  8
LAYER_1
  2
AIGNBL01020055
 70
64
 10
0
 20
0
 30
0
  3
AIGNBL01020055
  0
POLYLINE
  8
LAYER_1
 40
0.2469
 41
0.2469
 66
1
 10
0
 20
0
 30
0
  0
VERTEX
  8
LAYER_1
 10
74.3286
 20
119.9003
  0
VERTEX
  8
LAYER_1
 10
78.0786
 20
119.9003
  0
SEQEND
  0
ENDBLK
  0
BLOCK
  8
LAYER_1
  2
AIGNBL01020056
 70
64
 10
0
 20
0
 30
0
  3
AIGNBL01020056
  0
POLYLINE
  8
LAYER_1
 40
0.2469
 41
0.2469
 66
1
 10
0
 20
0
 30
0
  0
VERTEX
  8
LAYER_1
 10
78.0786
 20
124.4623
  0
VERTEX
  8
LAYER_1
 10
78.0786
 20
123.9029
  0
SEQEND
  0
ENDBLK
  0
BLOCK
  8
LAYER_1
  2
AIGNBL01020057
 70
64
 10
0
 20
0
 30
0
  3
AIGNBL01020057
  0
POLYLINE
  8
LAYER_1
 40
0.2469
 41
0.2469
 66
1
 10
0
 20
0
 30
0
  0
VERTEX
  8
LAYER_1
 10
74.3286
 20
124.4623
  0
VERTEX
  8
LAYER_1
 10
78.0786
 20
124.4623
  0
SEQEND
  0
ENDBLK
  0
BLOCK
  8
LAYER_1
  2
AIGNBL01020064
 70
64
 10
0
 20
0
 30
0
  3
AIGNBL01020064
  0
POLYLINE
  8
LAYER_1
 40
0.0882
 41
0.0882
 66
1
 10
0
 20
0
 30
0
  0
VERTEX
  8
LAYER_1
 10
67.1721
 20
194.7747
  0
VERTEX
  8
LAYER_1
 10
189.0472
 20
194.7747
  0
SEQEND
  0
ENDBLK
  0
BLOCK
  8
LAYER_1
  2
AIGNBL01020065
 70
64
 10
0
 20
0
 30
0
  3
AIGNBL01020065
  0
POLYLINE
  8
LAYER_1
 40
0.0882
 41
0.0882
 66
1
 10
0
 20
0
 30
0
  0
VERTEX
  8
LAYER_1
 10
189.0472
 20
122.8607
  0
VERTEX
  8
LAYER_1
 10
189.0472
 20
196.0252
  0
SEQEND
  0
ENDBLK
  0
BLOCK
  8
LAYER_1
  2
AIGNBL01020066
 70
64
 10
0
 20
0
 30
0
  3
AIGNBL01020066
  0
POLYLINE
  8
LAYER_1
 40
0.0882
 41
0.0882
 66
1
 10
0
 20
0
 30
0
  0
VERTEX
  8
LAYER_1
 10
67.1721
 20
123.8374
  0
VERTEX
  8
LAYER_1
 10
67.1721
 20
196.0252
  0
SEQEND
  0
ENDBLK
  0
BLOCK
  8
LAYER_1
  2
AIGNBL01020067
 70
64
 10
0
 20
0
 30
0
  3
AIGNBL01020067
  0
POLYLINE
  8
LAYER_1
 40
0.05
 41
0.05
 66
1
 10
0
 20
0
 30
0
 70
1
  0
VERTEX
  8
LAYER_1
 10
71.5474
 20
195.3507
  0
VERTEX
  8
LAYER_1
 10
71.5474
 20
194.1993
  0
VERTEX
  8
LAYER_1
 10
67.1721
 20
194.7747
  0
SEQEND
  0
ENDBLK
  0
BLOCK
  8
LAYER_1
  2
AIGNBL01020068
 70
64
 10
0
 20
0
 30
0
  3
AIGNBL01020068
  0
POLYLINE
  8
LAYER_1
 40
0.05
 41
0.05
 66
1
 10
0
 20
0
 30
0
 70
1
  0
VERTEX
  8
LAYER_1
 10
184.6719
 20
194.1993
  0
VERTEX
  8
LAYER_1
 10
184.6719
 20
195.3507
  0
VERTEX
  8
LAYER_1
 10
189.0472
 20
194.7747
  0
SEQEND
  0
ENDBLK
  0
BLOCK
  8
LAYER_1
  2
AIGNBL01020069
 70
64
 10
0
 20
0
 30
0
  3
AIGNBL01020069
  0
TEXT
  8
LAYER_1
 10
99.1678
 20
195.8301
 11
99.1678
 21
195.8301
 40
7.6222
 41
0.5
  1
400（横引管長さ）
  0
ENDBLK
  0
BLOCK
  8
LAYER_1
  2
AIGNBL0102006B
 70
64
 10
0
 20
0
 30
0
  3
AIGNBL0102006B
  0
POLYLINE
  8
LAYER_1
 40
0.0882
 41
0.0882
 66
1
 10
0
 20
0
 30
0
  0
VERTEX
  8
LAYER_1
 10
25.297
 20
169.3058
  0
VERTEX
  8
LAYER_1
 10
25.297
 20
100.5561
  0
SEQEND
  0
ENDBLK
  0
BLOCK
  8
LAYER_1
  2
AIGNBL0102006C
 70
64
 10
0
 20
0
 30
0
  3
AIGNBL0102006C
  0
POLYLINE
  8
LAYER_1
 40
0.0882
 41
0.0882
 66
1
 10
0
 20
0
 30
0
  0
VERTEX
  8
LAYER_1
 10
49.2035
 20
169.3058
  0
VERTEX
  8
LAYER_1
 10
24.0475
 20
169.3058
  0
SEQEND
  0
ENDBLK
  0
BLOCK
  8
LAYER_1
  2
AIGNBL0102006D
 70
64
 10
0
 20
0
 30
0
  3
AIGNBL0102006D
  0
POLYLINE
  8
LAYER_1
 40
0.0882
 41
0.0882
 66
1
 10
0
 20
0
 30
0
  0
VERTEX
  8
LAYER_1
 10
50.6098
 20
100.5561
  0
VERTEX
  8
LAYER_1
 10
24.0475
 20
100.5561
  0
SEQEND
  0
ENDBLK
  0
BLOCK
  8
LAYER_1
  2
AIGNBL0102006E
 70
64
 10
0
 20
0
 30
0
  3
AIGNBL0102006E
  0
POLYLINE
  8
LAYER_1
 40
0.05
 41
0.05
 66
1
 10
0
 20
0
 30
0
 70
1
  0
VERTEX
  8
LAYER_1
 10
25.8734
 20
164.9308
  0
VERTEX
  8
LAYER_1
 10
24.7213
 20
164.9308
  0
VERTEX
  8
LAYER_1
 10
25.297
 20
169.3058
  0
SEQEND
  0
ENDBLK
  0
BLOCK
  8
LAYER_1
  2
AIGNBL0102006F
 70
64
 10
0
 20
0
 30
0
  3
AIGNBL0102006F
  0
POLYLINE
  8
LAYER_1
 40
0.05
 41
0.05
 66
1
 10
0
 20
0
 30
0
 70
1
  0
VERTEX
  8
LAYER_1
 10
24.7213
 20
104.9307
  0
VERTEX
  8
LAYER_1
 10
25.8734
 20
104.9307
  0
VERTEX
  8
LAYER_1
 10
25.297
 20
100.5561
  0
SEQEND
  0
ENDBLK
  0
BLOCK
  8
LAYER_1
  2
AIGNBL01020070
 70
64
 10
0
 20
0
 30
0
  3
AIGNBL01020070
  0
TEXT
  8
LAYER_1
 10
22.7816
 20
117.6862
 11
22.7816
 21
117.6862
 40
7.6222
 41
0.5
 50
89.99999999
  1
220(直管長さ）
  0
ENDBLK
  0
BLOCK
  8
LAYER_1
  2
AIGNBL01020072
 70
64
 10
0
 20
0
 30
0
  3
AIGNBL01020072
  0
POLYLINE
  8
LAYER_1
 40
0.0882
 41
0.0882
 66
1
 10
0
 20
0
 30
0
  0
VERTEX
  8
LAYER_1
 10
15.2973
 20
89.619
  0
VERTEX
  8
LAYER_1
 10
15.2973
 20
169.3058
  0
SEQEND
  0
ENDBLK
  0
BLOCK
  8
LAYER_1
  2
AIGNBL01020073
 70
64
 10
0
 20
0
 30
0
  3
AIGNBL01020073
  0
POLYLINE
  8
LAYER_1
 40
0.0882
 41
0.0882
 66
1
 10
0
 20
0
 30
0
  0
VERTEX
  8
LAYER_1
 10
49.2035
 20
169.3058
  0
VERTEX
  8
LAYER_1
 10
14.0474
 20
169.3058
  0
SEQEND
  0
ENDBLK
  0
BLOCK
  8
LAYER_1
  2
AIGNBL01020074
 70
64
 10
0
 20
0
 30
0
  3
AIGNBL01020074
  0
POLYLINE
  8
LAYER_1
 40
0.0882
 41
0.0882
 66
1
 10
0
 20
0
 30
0
  0
VERTEX
  8
LAYER_1
 10
48.2971
 20
89.619
  0
VERTEX
  8
LAYER_1
 10
14.0474
 20
89.619
  0
SEQEND
  0
ENDBLK
  0
BLOCK
  8
LAYER_1
  2
AIGNBL01020075
 70
64
 10
0
 20
0
 30
0
  3
AIGNBL01020075
  0
POLYLINE
  8
LAYER_1
 40
0.05
 41
0.05
 66
1
 10
0
 20
0
 30
0
 70
1
  0
VERTEX
  8
LAYER_1
 10
14.7212
 20
93.9932
  0
VERTEX
  8
LAYER_1
 10
15.8733
 20
93.9932
  0
VERTEX
  8
LAYER_1
 10
15.2973
 20
89.619
  0
SEQEND
  0
ENDBLK
  0
BLOCK
  8
LAYER_1
  2
AIGNBL01020076
 70
64
 10
0
 20
0
 30
0
  3
AIGNBL01020076
  0
POLYLINE
  8
LAYER_1
 40
0.05
 41
0.05
 66
1
 10
0
 20
0
 30
0
 70
1
  0
VERTEX
  8
LAYER_1
 10
15.8733
 20
164.9308
  0
VERTEX
  8
LAYER_1
 10
14.7212
 20
164.9308
  0
VERTEX
  8
LAYER_1
 10
15.2973
 20
169.3058
  0
SEQEND
  0
ENDBLK
  0
BLOCK
  8
LAYER_1
  2
AIGNBL01020077
 70
64
 10
0
 20
0
 30
0
  3
AIGNBL01020077
  0
TEXT
  8
LAYER_1
 10
14.24
 20
112.5192
 11
14.24
 21
112.5192
 40
7.6222
 41
0.5
 50
89.99999999
  1
2550335
  0
ENDBLK
  0
BLOCK
  8
LAYER_1
  2
AIGNBL01020079
 70
64
 10
0
 20
0
 30
0
  3
AIGNBL01020079
  0
POLYLINE
  8
LAYER_1
 40
0.0882
 41
0.0882
 66
1
 10
0
 20
0
 30
0
  0
VERTEX
  8
LAYER_1
 10
35.2971
 20
117.8998
  0
VERTEX
  8
LAYER_1
 10
35.2971
 20
172.2748
  0
SEQEND
  0
ENDBLK
  0
BLOCK
  8
LAYER_1
  2
AIGNBL0102007A
 70
64
 10
0
 20
0
 30
0
  3
AIGNBL0102007A
  0
POLYLINE
  8
LAYER_1
 40
0.0882
 41
0.0882
 66
1
 10
0
 20
0
 30
0
  0
VERTEX
  8
LAYER_1
 10
49.2035
 20
172.2748
  0
VERTEX
  8
LAYER_1
 10
34.0472
 20
172.2748
  0
SEQEND
  0
ENDBLK
  0
BLOCK
  8
LAYER_1
  2
AIGNBL0102007B
 70
64
 10
0
 20
0
 30
0
  3
AIGNBL0102007B
  0
POLYLINE
  8
LAYER_1
 40
0.0882
 41
0.0882
 66
1
 10
0
 20
0
 30
0
  0
VERTEX
  8
LAYER_1
 10
44.5472
 20
117.8998
  0
VERTEX
  8
LAYER_1
 10
34.0472
 20
117.8998
  0
SEQEND
  0
ENDBLK
  0
BLOCK
  8
LAYER_1
  2
AIGNBL0102007C
 70
64
 10
0
 20
0
 30
0
  3
AIGNBL0102007C
  0
POLYLINE
  8
LAYER_1
 40
0.05
 41
0.05
 66
1
 10
0
 20
0
 30
0
 70
1
  0
VERTEX
  8
LAYER_1
 10
34.7211
 20
122.275
  0
VERTEX
  8
LAYER_1
 10
35.8731
 20
122.275
  0
VERTEX
  8
LAYER_1
 10
35.2971
 20
117.8998
  0
SEQEND
  0
ENDBLK
  0
BLOCK
  8
LAYER_1
  2
AIGNBL0102007D
 70
64
 10
0
 20
0
 30
0
  3
AIGNBL0102007D
  0
POLYLINE
  8
LAYER_1
 40
0.05
 41
0.05
 66
1
 10
0
 20
0
 30
0
 70
1
  0
VERTEX
  8
LAYER_1
 10
35.8731
 20
167.9002
  0
VERTEX
  8
LAYER_1
 10
34.7211
 20
167.9002
  0
VERTEX
  8
LAYER_1
 10
35.2971
 20
172.2748
  0
SEQEND
  0
ENDBLK
  0
BLOCK
  8
LAYER_1
  2
AIGNBL0102007E
 70
64
 10
0
 20
0
 30
0
  3
AIGNBL0102007E
  0
TEXT
  8
LAYER_1
 10
34.2398
 20
129.9059
 11
34.2398
 21
129.9059
 40
7.6222
 41
0.5
 50
89.99999999
  1
1740254
  0
ENDBLK
  0
BLOCK
  8
LAYER_1
  2
AIGNBL01020080
 70
64
 10
0
 20
0
 30
0
  3
AIGNBL01020080
  0
POLYLINE
  8
LAYER_1
 40
0.0882
 41
0.0882
 66
1
 10
0
 20
0
 30
0
  0
VERTEX
  8
LAYER_1
 10
90.5788
 20
69.5654
  0
VERTEX
  8
LAYER_1
 10
90.5788
 20
97.3136
  0
SEQEND
  0
ENDBLK
  0
BLOCK
  8
LAYER_1
  2
AIGNBL01020081
 70
64
 10
0
 20
0
 30
0
  3
AIGNBL01020081
  0
POLYLINE
  8
LAYER_1
 40
0.0882
 41
0.0882
 66
1
 10
0
 20
0
 30
0
  0
VERTEX
  8
LAYER_1
 10
90.5788
 20
97.3136
  0
VERTEX
  8
LAYER_1
 10
90.5788
 20
112.9388
  0
SEQEND
  0
ENDBLK
  0
BLOCK
  8
LAYER_1
  2
AIGNBL01020082
 70
64
 10
0
 20
0
 30
0
  3
AIGNBL01020082
  0
POLYLINE
  8
LAYER_1
 40
0.0882
 41
0.0882
 66
1
 10
0
 20
0
 30
0
  0
VERTEX
  8
LAYER_1
 10
61.5473
 20
97.3136
  0
VERTEX
  8
LAYER_1
 10
91.8283
 20
97.3136
  0
SEQEND
  0
ENDBLK
  0
BLOCK
  8
LAYER_1
  2
AIGNBL01020083
 70
64
 10
0
 20
0
 30
0
  3
AIGNBL01020083
  0
POLYLINE
  8
LAYER_1
 40
0.0882
 41
0.0882
 66
1
 10
0
 20
0
 30
0
  0
VERTEX
  8
LAYER_1
 10
78.0786
 20
112.9388
  0
VERTEX
  8
LAYER_1
 10
91.8283
 20
112.9388
  0
SEQEND
  0
ENDBLK
  0
BLOCK
  8
LAYER_1
  2
AIGNBL01020084
 70
64
 10
0
 20
0
 30
0
  3
AIGNBL01020084
  0
POLYLINE
  8
LAYER_1
 40
0.05
 41
0.05
 66
1
 10
0
 20
0
 30
0
 70
1
  0
VERTEX
  8
LAYER_1
 10
90.0024
 20
101.6889
  0
VERTEX
  8
LAYER_1
 10
91.1545
 20
101.6889
  0
VERTEX
  8
LAYER_1
 10
90.5788
 20
97.3136
  0
SEQEND
  0
ENDBLK
  0
BLOCK
  8
LAYER_1
  2
AIGNBL01020085
 70
64
 10
0
 20
0
 30
0
  3
AIGNBL01020085
  0
POLYLINE
  8
LAYER_1
 40
0.05
 41
0.05
 66
1
 10
0
 20
0
 30
0
 70
1
  0
VERTEX
  8
LAYER_1
 10
91.1545
 20
108.5639
  0
VERTEX
  8
LAYER_1
 10
90.0024
 20
108.5639
  0
VERTEX
  8
LAYER_1
 10
90.5788
 20
112.9388
  0
SEQEND
  0
ENDBLK
  0
BLOCK
  8
LAYER_1
  2
AIGNBL01020086
 70
64
 10
0
 20
0
 30
0
  3
AIGNBL01020086
  0
TEXT
  8
LAYER_1
 10
88.063
 20
69.0101
 11
88.063
 21
69.0101
 40
7.6222
 41
0.5
 50
89.99999999
  1
50(封水深）
  0
ENDBLK
  0
BLOCK
  8
LAYER_1
  2
AIGNBL01020088
 70
64
 10
0
 20
0
 30
0
  3
AIGNBL01020088
  0
POLYLINE
  8
LAYER_1
 40
0.0882
 41
0.0882
 66
1
 10
0
 20
0
 30
0
  0
VERTEX
  8
LAYER_1
 10
211.5471
 20
129.1498
  0
VERTEX
  8
LAYER_1
 10
211.5471
 20
106.6498
  0
SEQEND
  0
ENDBLK
  0
BLOCK
  8
LAYER_1
  2
AIGNBL01020089
 70
64
 10
0
 20
0
 30
0
  3
AIGNBL01020089
  0
POLYLINE
  8
LAYER_1
 40
0.0882
 41
0.0882
 66
1
 10
0
 20
0
 30
0
  0
VERTEX
  8
LAYER_1
 10
184.3622
 20
129.1498
  0
VERTEX
  8
LAYER_1
 10
212.7973
 20
129.1498
  0
SEQEND
  0
ENDBLK
  0
BLOCK
  8
LAYER_1
  2
AIGNBL0102008A
 70
64
 10
0
 20
0
 30
0
  3
AIGNBL0102008A
  0
POLYLINE
  8
LAYER_1
 40
0.0882
 41
0.0882
 66
1
 10
0
 20
0
 30
0
  0
VERTEX
  8
LAYER_1
 10
184.3622
 20
106.6498
  0
VERTEX
  8
LAYER_1
 10
212.7973
 20
106.6498
  0
SEQEND
  0
ENDBLK
  0
BLOCK
  8
LAYER_1
  2
AIGNBL0102008B
 70
64
 10
0
 20
0
 30
0
  3
AIGNBL0102008B
  0
POLYLINE
  8
LAYER_1
 40
0.05
 41
0.05
 66
1
 10
0
 20
0
 30
0
 70
1
  0
VERTEX
  8
LAYER_1
 10
212.1231
 20
124.7745
  0
VERTEX
  8
LAYER_1
 10
210.9714
 20
124.7745
  0
VERTEX
  8
LAYER_1
 10
211.5471
 20
129.1498
  0
SEQEND
  0
ENDBLK
  0
BLOCK
  8
LAYER_1
  2
AIGNBL0102008C
 70
64
 10
0
 20
0
 30
0
  3
AIGNBL0102008C
  0
POLYLINE
  8
LAYER_1
 40
0.05
 41
0.05
 66
1
 10
0
 20
0
 30
0
 70
1
  0
VERTEX
  8
LAYER_1
 10
210.9714
 20
111.0251
  0
VERTEX
  8
LAYER_1
 10
212.1231
 20
111.0251
  0
VERTEX
  8
LAYER_1
 10
211.5471
 20
106.6498
  0
SEQEND
  0
ENDBLK
  0
BLOCK
  8
LAYER_1
  2
AIGNBL0102008D
 70
64
 10
0
 20
0
 30
0
  3
AIGNBL0102008D
  0
TEXT
  8
LAYER_1
 10
209.6716
 20
111.7399
 11
209.6716
 21
111.7399
 40
7.6222
 41
0.5
 50
89.99999999
  1
Φ72
  0
ENDBLK
  0
BLOCK
  8
LAYER_1
  2
AIGNBL0102008F
 70
64
 10
0
 20
0
 30
0
  3
AIGNBL0102008F
  0
POLYLINE
  8
LAYER_1
 40
0.0882
 41
0.0882
 66
1
 10
0
 20
0
 30
0
  0
VERTEX
  8
LAYER_1
 10
201.5474
 20
112.9388
  0
VERTEX
  8
LAYER_1
 10
201.5474
 20
104.1886
  0
SEQEND
  0
ENDBLK
  0
BLOCK
  8
LAYER_1
  2
AIGNBL01020090
 70
64
 10
0
 20
0
 30
0
  3
AIGNBL01020090
  0
POLYLINE
  8
LAYER_1
 40
0.0882
 41
0.0882
 66
1
 10
0
 20
0
 30
0
  0
VERTEX
  8
LAYER_1
 10
201.5474
 20
122.8607
  0
VERTEX
  8
LAYER_1
 10
201.5474
 20
112.9388
  0
SEQEND
  0
ENDBLK
  0
BLOCK
  8
LAYER_1
  2
AIGNBL01020091
 70
64
 10
0
 20
0
 30
0
  3
AIGNBL01020091
  0
POLYLINE
  8
LAYER_1
 40
0.0882
 41
0.0882
 66
1
 10
0
 20
0
 30
0
  0
VERTEX
  8
LAYER_1
 10
201.5474
 20
154.4436
  0
VERTEX
  8
LAYER_1
 10
201.5474
 20
122.8607
  0
SEQEND
  0
ENDBLK
  0
BLOCK
  8
LAYER_1
  2
AIGNBL01020092
 70
64
 10
0
 20
0
 30
0
  3
AIGNBL01020092
  0
POLYLINE
  8
LAYER_1
 40
0.0882
 41
0.0882
 66
1
 10
0
 20
0
 30
0
  0
VERTEX
  8
LAYER_1
 10
189.0472
 20
112.9388
  0
VERTEX
  8
LAYER_1
 10
202.7973
 20
112.9388
  0
SEQEND
  0
ENDBLK
  0
BLOCK
  8
LAYER_1
  2
AIGNBL01020093
 70
64
 10
0
 20
0
 30
0
  3
AIGNBL01020093
  0
POLYLINE
  8
LAYER_1
 40
0.0882
 41
0.0882
 66
1
 10
0
 20
0
 30
0
  0
VERTEX
  8
LAYER_1
 10
189.0472
 20
122.8607
  0
VERTEX
  8
LAYER_1
 10
202.7973
 20
122.8607
  0
SEQEND
  0
ENDBLK
  0
BLOCK
  8
LAYER_1
  2
AIGNBL01020094
 70
64
 10
0
 20
0
 30
0
  3
AIGNBL01020094
  0
POLYLINE
  8
LAYER_1
 40
0.05
 41
0.05
 66
1
 10
0
 20
0
 30
0
 70
1
  0
VERTEX
  8
LAYER_1
 10
200.971
 20
127.236
  0
VERTEX
  8
LAYER_1
 10
202.1231
 20
127.236
  0
VERTEX
  8
LAYER_1
 10
201.5474
 20
122.8607
  0
SEQEND
  0
ENDBLK
  0
BLOCK
  8
LAYER_1
  2
AIGNBL01020095
 70
64
 10
0
 20
0
 30
0
  3
AIGNBL01020095
  0
POLYLINE
  8
LAYER_1
 40
0.05
 41
0.05
 66
1
 10
0
 20
0
 30
0
 70
1
  0
VERTEX
  8
LAYER_1
 10
202.1231
 20
108.5639
  0
VERTEX
  8
LAYER_1
 10
200.971
 20
108.5639
  0
VERTEX
  8
LAYER_1
 10
201.5474
 20
112.9388
  0
SEQEND
  0
ENDBLK
  0
BLOCK
  8
LAYER_1
  2
AIGNBL01020096
 70
64
 10
0
 20
0
 30
0
  3
AIGNBL01020096
  0
TEXT
  8
LAYER_1
 10
199.0259
 20
139.9064
 11
199.0259
 21
139.9064
 40
7.6222
 41
0.5
 50
89.99999999
  1
Φ31.75
  0
ENDBLK
  0
BLOCK
  8
LAYER_1
  2
AIGNBL01020098
 70
64
 10
0
 20
0
 30
0
  3
AIGNBL01020098
  0
POLYLINE
  8
LAYER_1
 40
0.0882
 41
0.0882
 66
1
 10
0
 20
0
 30
0
  0
VERTEX
  8
LAYER_1
 10
184.3622
 20
184.7746
  0
VERTEX
  8
LAYER_1
 10
193.1124
 20
184.7746
  0
SEQEND
  0
ENDBLK
  0
BLOCK
  8
LAYER_1
  2
AIGNBL01020099
 70
64
 10
0
 20
0
 30
0
  3
AIGNBL01020099
  0
POLYLINE
  8
LAYER_1
 40
0.0882
 41
0.0882
 66
1
 10
0
 20
0
 30
0
  0
VERTEX
  8
LAYER_1
 10
179.6748
 20
184.7746
  0
VERTEX
  8
LAYER_1
 10
184.3622
 20
184.7746
  0
SEQEND
  0
ENDBLK
  0
BLOCK
  8
LAYER_1
  2
AIGNBL0102009A
 70
64
 10
0
 20
0
 30
0
  3
AIGNBL0102009A
  0
POLYLINE
  8
LAYER_1
 40
0.0882
 41
0.0882
 66
1
 10
0
 20
0
 30
0
  0
VERTEX
  8
LAYER_1
 10
167.1157
 20
184.7746
  0
VERTEX
  8
LAYER_1
 10
179.6748
 20
184.7746
  0
SEQEND
  0
ENDBLK
  0
BLOCK
  8
LAYER_1
  2
AIGNBL0102009B
 70
64
 10
0
 20
0
 30
0
  3
AIGNBL0102009B
  0
POLYLINE
  8
LAYER_1
 40
0.0882
 41
0.0882
 66
1
 10
0
 20
0
 30
0
  0
VERTEX
  8
LAYER_1
 10
184.3622
 20
129.1498
  0
VERTEX
  8
LAYER_1
 10
184.3622
 20
186.0248
  0
SEQEND
  0
ENDBLK
  0
BLOCK
  8
LAYER_1
  2
AIGNBL0102009C
 70
64
 10
0
 20
0
 30
0
  3
AIGNBL0102009C
  0
POLYLINE
  8
LAYER_1
 40
0.0882
 41
0.0882
 66
1
 10
0
 20
0
 30
0
  0
VERTEX
  8
LAYER_1
 10
179.6748
 20
125.0907
  0
VERTEX
  8
LAYER_1
 10
179.6748
 20
186.0248
  0
SEQEND
  0
ENDBLK
  0
BLOCK
  8
LAYER_1
  2
AIGNBL0102009D
 70
64
 10
0
 20
0
 30
0
  3
AIGNBL0102009D
  0
POLYLINE
  8
LAYER_1
 40
0.05
 41
0.05
 66
1
 10
0
 20
0
 30
0
 70
1
  0
VERTEX
  8
LAYER_1
 10
175.2999
 20
184.1989
  0
VERTEX
  8
LAYER_1
 10
175.2999
 20
185.3503
  0
VERTEX
  8
LAYER_1
 10
179.6748
 20
184.7746
  0
SEQEND
  0
ENDBLK
  0
BLOCK
  8
LAYER_1
  2
AIGNBL0102009E
 70
64
 10
0
 20
0
 30
0
  3
AIGNBL0102009E
  0
POLYLINE
  8
LAYER_1
 40
0.05
 41
0.05
 66
1
 10
0
 20
0
 30
0
 70
1
  0
VERTEX
  8
LAYER_1
 10
188.7371
 20
185.3503
  0
VERTEX
  8
LAYER_1
 10
188.7371
 20
184.1989
  0
VERTEX
  8
LAYER_1
 10
184.3622
 20
184.7746
  0
SEQEND
  0
ENDBLK
  0
BLOCK
  8
LAYER_1
  2
AIGNBL0102009F
 70
64
 10
0
 20
0
 30
0
  3
AIGNBL0102009F
  0
TEXT
  8
LAYER_1
 10
165.9881
 20
185.8303
 11
165.9881
 21
185.8303
 40
7.6222
 41
0.5
  1
15
  0
ENDBLK
  0
BLOCK
  8
LAYER_1
  2
AIGNBL010200A1
 70
64
 10
0
 20
0
 30
0
  3
AIGNBL010200A1
  0
POLYLINE
  8
LAYER_1
 40
0.0882
 41
0.0882
 66
1
 10
0
 20
0
 30
0
  0
VERTEX
  8
LAYER_1
 10
56.2346
 20
204.7748
  0
VERTEX
  8
LAYER_1
 10
189.0472
 20
204.7748
  0
SEQEND
  0
ENDBLK
  0
BLOCK
  8
LAYER_1
  2
AIGNBL010200A2
 70
64
 10
0
 20
0
 30
0
  3
AIGNBL010200A2
  0
POLYLINE
  8
LAYER_1
 40
0.0882
 41
0.0882
 66
1
 10
0
 20
0
 30
0
  0
VERTEX
  8
LAYER_1
 10
56.2346
 20
136.3369
  0
VERTEX
  8
LAYER_1
 10
56.2346
 20
206.0243
  0
SEQEND
  0
ENDBLK
  0
BLOCK
  8
LAYER_1
  2
AIGNBL010200A3
 70
64
 10
0
 20
0
 30
0
  3
AIGNBL010200A3
  0
POLYLINE
  8
LAYER_1
 40
0.05
 41
0.05
 66
1
 10
0
 20
0
 30
0
 70
1
  0
VERTEX
  8
LAYER_1
 10
60.6099
 20
205.3511
  0
VERTEX
  8
LAYER_1
 10
60.6099
 20
204.1984
  0
VERTEX
  8
LAYER_1
 10
56.2346
 20
204.7748
  0
SEQEND
  0
ENDBLK
  0
BLOCK
  8
LAYER_1
  2
AIGNBL010200A4
 70
64
 10
0
 20
0
 30
0
  3
AIGNBL010200A4
  0
POLYLINE
  8
LAYER_1
 40
0.05
 41
0.05
 66
1
 10
0
 20
0
 30
0
 70
1
  0
VERTEX
  8
LAYER_1
 10
184.6719
 20
204.1984
  0
VERTEX
  8
LAYER_1
 10
184.6719
 20
205.3511
  0
VERTEX
  8
LAYER_1
 10
189.0472
 20
204.7748
  0
SEQEND
  0
ENDBLK
  0
BLOCK
  8
LAYER_1
  2
AIGNBL010200A5
 70
64
 10
0
 20
0
 30
0
  3
AIGNBL010200A5
  0
TEXT
  8
LAYER_1
 10
116.0553
 20
205.8302
 11
116.0553
 21
205.8302
 40
7.6222
 41
0.5
  1
425
  0
ENDBLK
  0
BLOCK
  8
LAYER_1
  2
AIGNBL010200A7
 70
64
 10
0
 20
0
 30
0
  3
AIGNBL010200A7
  0
POLYLINE
  8
LAYER_1
  6
AIGENLINE001
 40
0.2469
 41
0.2469
 62
160
 66
1
 10
0
 20
0
 30
0
 70
128
  0
VERTEX
  8
LAYER_1
 10
50.6098
 20
100.5561
  0
VERTEX
  8
LAYER_1
 10
50.6098
 20
97.3136
  0
SEQEND
  0
ENDBLK
  0
BLOCK
  8
LAYER_1
  2
AIGNBL010200A8
 70
64
 10
0
 20
0
 30
0
  3
AIGNBL010200A8
  0
POLYLINE
  8
LAYER_1
 40
0.2469
 41
0.2469
 66
1
 10
0
 20
0
 30
0
  0
VERTEX
  8
LAYER_1
 10
51.2348
 20
168.5244
  0
VERTEX
  8
LAYER_1
 10
51.2348
 20
136.3369
  0
SEQEND
  0
ENDBLK
  0
BLOCK
  8
LAYER_1
  2
AIGNBL010200A9
 70
64
 10
0
 20
0
 30
0
  3
AIGNBL010200A9
  0
POLYLINE
  8
LAYER_1
  6
AIGENLINE001
 40
0.2469
 41
0.2469
 62
160
 66
1
 10
0
 20
0
 30
0
 70
128
  0
VERTEX
  8
LAYER_1
 10
61.8598
 20
97.3136
  0
VERTEX
  8
LAYER_1
 10
61.8598
 20
131.9616
  0
SEQEND
  0
ENDBLK
  0
BLOCK
  8
LAYER_1
  2
AIGNBL010200AA
 70
64
 10
0
 20
0
 30
0
  3
AIGNBL010200AA
  0
POLYLINE
  8
LAYER_1
  6
AIGENLINE001
 40
0.2469
 41
0.2469
 62
160
 66
1
 10
0
 20
0
 30
0
 70
128
  0
VERTEX
  8
LAYER_1
 10
50.9223
 20
97.3136
  0
VERTEX
  8
LAYER_1
 10
61.5473
 20
97.3136
  0
SEQEND
  0
ENDBLK
  0
BLOCK
  8
LAYER_1
  2
AIGNBL010200AB
 70
64
 10
0
 20
0
 30
0
  3
AIGNBL010200AB
  0
POLYLINE
  8
LAYER_1
 40
0.2469
 41
0.2469
 66
1
 10
0
 20
0
 30
0
  0
VERTEX
  8
LAYER_1
 10
61.2348
 20
136.3369
  0
VERTEX
  8
LAYER_1
 10
61.2348
 20
168.5244
  0
SEQEND
  0
ENDBLK
  0
BLOCK
  8
LAYER_1
  2
AIGNBL010200AC
 70
64
 10
0
 20
0
 30
0
  3
AIGNBL010200AC
  0
POLYLINE
  8
LAYER_1
  6
AIGENLINE001
 40
0.2469
 41
0.2469
 62
160
 66
1
 10
0
 20
0
 30
0
 70
128
  0
VERTEX
  8
LAYER_1
 10
50.6098
 20
131.9616
  0
VERTEX
  8
LAYER_1
 10
50.6098
 20
100.5561
  0
SEQEND
  0
ENDBLK
  0
BLOCK
  8
LAYER_1
  2
AIGNBL010200AE
 70
64
 10
0
 20
0
 30
0
  3
AIGNBL010200AE
  0
POLYLINE
  8
LAYER_1
 40
0.2469
 41
0.2469
 66
1
 10
0
 20
0
 30
0
  0
VERTEX
  8
LAYER_1
 10
183.1099
 20
129.1498
  0
VERTEX
  8
LAYER_1
 10
184.3622
 20
129.1498
  0
SEQEND
  0
ENDBLK
  0
BLOCK
  8
LAYER_1
  2
AIGNBL010200AF
 70
64
 10
0
 20
0
 30
0
  3
AIGNBL010200AF
  0
POLYLINE
  8
LAYER_1
 40
0.2469
 41
0.2469
 66
1
 10
0
 20
0
 30
0
  0
VERTEX
  8
LAYER_1
 10
184.3622
 20
129.1498
  0
VERTEX
  8
LAYER_1
 10
184.3622
 20
106.6498
  0
SEQEND
  0
ENDBLK
  0
BLOCK
  8
LAYER_1
  2
AIGNBL010200B0
 70
64
 10
0
 20
0
 30
0
  3
AIGNBL010200B0
  0
POLYLINE
  8
LAYER_1
 40
0.2469
 41
0.2469
 66
1
 10
0
 20
0
 30
0
  0
VERTEX
  8
LAYER_1
 10
179.6748
 20
110.7088
  0
VERTEX
  8
LAYER_1
 10
179.6748
 20
125.0907
  0
SEQEND
  0
ENDBLK
  0
BLOCK
  8
LAYER_1
  2
AIGNBL010200B1
 70
64
 10
0
 20
0
 30
0
  3
AIGNBL010200B1
  0
POLYLINE
  8
LAYER_1
 40
0.2469
 41
0.2469
 66
1
 10
0
 20
0
 30
0
  0
VERTEX
  8
LAYER_1
 10
184.3622
 20
106.6498
  0
VERTEX
  8
LAYER_1
 10
183.1099
 20
106.6498
  0
SEQEND
  0
ENDBLK
  0
BLOCK
  8
LAYER_1
  2
AIGNBL010200B2
 70
64
 10
0
 20
0
 30
0
  3
AIGNBL010200B2
  0
POLYLINE
  8
LAYER_1
 40
0.2469
 41
0.2469
 66
1
 10
0
 20
0
 30
0
  0
VERTEX
  8
LAYER_1
 10
180.606
 20
107.9055
 42
0.2367047489
  0
VERTEX
  8
LAYER_1
 10
183.1099
 20
106.6498
  0
SEQEND
  0
ENDBLK
  0
BLOCK
  8
LAYER_1
  2
AIGNBL010200B3
 70
64
 10
0
 20
0
 30
0
  3
AIGNBL010200B3
  0
POLYLINE
  8
LAYER_1
 40
0.2469
 41
0.2469
 66
1
 10
0
 20
0
 30
0
  0
VERTEX
  8
LAYER_1
 10
179.6748
 20
110.7088
 42
0.1617677285
  0
VERTEX
  8
LAYER_1
 10
180.606
 20
107.9055
  0
SEQEND
  0
ENDBLK
  0
BLOCK
  8
LAYER_1
  2
AIGNBL010200B4
 70
64
 10
0
 20
0
 30
0
  3
AIGNBL010200B4
  0
POLYLINE
  8
LAYER_1
 40
0.2469
 41
0.2469
 66
1
 10
0
 20
0
 30
0
  0
VERTEX
  8
LAYER_1
 10
183.1099
 20
129.1498
 42
0.2367646154
  0
VERTEX
  8
LAYER_1
 10
180.606
 20
127.894
  0
SEQEND
  0
ENDBLK
  0
BLOCK
  8
LAYER_1
  2
AIGNBL010200B5
 70
64
 10
0
 20
0
 30
0
  3
AIGNBL010200B5
  0
POLYLINE
  8
LAYER_1
 40
0.2469
 41
0.2469
 66
1
 10
0
 20
0
 30
0
  0
VERTEX
  8
LAYER_1
 10
180.606
 20
127.894
 42
0.1618213653
  0
VERTEX
  8
LAYER_1
 10
179.6748
 20
125.0907
  0
SEQEND
  0
ENDBLK
  0
BLOCK
  8
LAYER_3
  2
AIGNBL03020004
 70
64
 10
0
 20
0
 30
0
  3
AIGNBL03020004
  0
INSERT
  8
LAYER_3
  2
AIGNBL03030005
 10
0
 20
0
 30
0
  0
ENDBLK
  0
BLOCK
  8
LAYER_3
  2
AIGNBL0302000D
 70
64
 10
0
 20
0
 30
0
  3
AIGNBL0302000D
  0
INSERT
  8
LAYER_3
  2
AIGNBL0303000E
 10
0
 20
0
 30
0
  0
INSERT
  8
LAYER_3
  2
AIGNBL0303000F
 10
0
 20
0
 30
0
  0
INSERT
  8
LAYER_3
  2
AIGNBL03030010
 10
0
 20
0
 30
0
  0
INSERT
  8
LAYER_3
  2
AIGNBL03030011
 10
0
 20
0
 30
0
  0
INSERT
  8
LAYER_3
  2
AIGNBL03030012
 10
0
 20
0
 30
0
  0
INSERT
  8
LAYER_3
  2
AIGNBL03030013
 10
0
 20
0
 30
0
  0
INSERT
  8
LAYER_3
  2
AIGNBL03030014
 10
0
 20
0
 30
0
  0
INSERT
  8
LAYER_3
  2
AIGNBL03030015
 10
0
 20
0
 30
0
  0
INSERT
  8
LAYER_3
  2
AIGNBL03030016
 10
0
 20
0
 30
0
  0
INSERT
  8
LAYER_3
  2
AIGNBL03030017
 10
0
 20
0
 30
0
  0
INSERT
  8
LAYER_3
  2
AIGNBL03030018
 10
0
 20
0
 30
0
  0
INSERT
  8
LAYER_3
  2
AIGNBL03030019
 10
0
 20
0
 30
0
  0
INSERT
  8
LAYER_3
  2
AIGNBL0303001A
 10
0
 20
0
 30
0
  0
INSERT
  8
LAYER_3
  2
AIGNBL0303001B
 10
0
 20
0
 30
0
  0
INSERT
  8
LAYER_3
  2
AIGNBL0303001C
 10
0
 20
0
 30
0
  0
INSERT
  8
LAYER_3
  2
AIGNBL0303001D
 10
0
 20
0
 30
0
  0
INSERT
  8
LAYER_3
  2
AIGNBL0303001E
 10
0
 20
0
 30
0
  0
INSERT
  8
LAYER_3
  2
AIGNBL0303001F
 10
0
 20
0
 30
0
  0
INSERT
  8
LAYER_3
  2
AIGNBL03030020
 10
0
 20
0
 30
0
  0
INSERT
  8
LAYER_3
  2
AIGNBL03030021
 10
0
 20
0
 30
0
  0
INSERT
  8
LAYER_3
  2
AIGNBL03030022
 10
0
 20
0
 30
0
  0
INSERT
  8
LAYER_3
  2
AIGNBL03030023
 10
0
 20
0
 30
0
  0
INSERT
  8
LAYER_3
  2
AIGNBL03030024
 10
0
 20
0
 30
0
  0
ENDBLK
  0
BLOCK
  8
LAYER_1
  2
AIGNBL01010002
 70
64
 10
0
 20
0
 30
0
  3
AIGNBL01010002
  0
INSERT
  8
LAYER_1
  2
AIGNBL01020003
 10
0
 20
0
 30
0
  0
INSERT
  8
LAYER_1
  2
AIGNBL01020004
 10
0
 20
0
 30
0
  0
INSERT
  8
LAYER_1
  2
AIGNBL01020005
 10
0
 20
0
 30
0
  0
INSERT
  8
LAYER_1
  2
AIGNBL01020006
 10
0
 20
0
 30
0
  0
INSERT
  8
LAYER_1
  2
AIGNBL01020007
 10
0
 20
0
 30
0
  0
INSERT
  8
LAYER_1
  2
AIGNBL01020008
 10
0
 20
0
 30
0
  0
INSERT
  8
LAYER_1
  2
AIGNBL01020009
 10
0
 20
0
 30
0
  0
INSERT
  8
LAYER_1
  2
AIGNBL0102000A
 10
0
 20
0
 30
0
  0
INSERT
  8
LAYER_1
  2
AIGNBL0102000B
 10
0
 20
0
 30
0
  0
INSERT
  8
LAYER_1
  2
AIGNBL0102000C
 10
0
 20
0
 30
0
  0
INSERT
  8
LAYER_1
  2
AIGNBL0102000D
 10
0
 20
0
 30
0
  0
INSERT
  8
LAYER_1
  2
AIGNBL0102000E
 10
0
 20
0
 30
0
  0
INSERT
  8
LAYER_1
  2
AIGNBL0102000F
 10
0
 20
0
 30
0
  0
INSERT
  8
LAYER_1
  2
AIGNBL01020010
 10
0
 20
0
 30
0
  0
INSERT
  8
LAYER_1
  2
AIGNBL01020011
 10
0
 20
0
 30
0
  0
INSERT
  8
LAYER_1
  2
AIGNBL01020012
 10
0
 20
0
 30
0
  0
ENDBLK
  0
BLOCK
  8
LAYER_1
  2
AIGNBL01010013
 70
64
 10
0
 20
0
 30
0
  3
AIGNBL01010013
  0
INSERT
  8
LAYER_1
  2
AIGNBL01020014
 10
0
 20
0
 30
0
  0
INSERT
  8
LAYER_1
  2
AIGNBL0102001F
 10
0
 20
0
 30
0
  0
INSERT
  8
LAYER_1
  2
AIGNBL01020020
 10
0
 20
0
 30
0
  0
INSERT
  8
LAYER_1
  2
AIGNBL01020021
 10
0
 20
0
 30
0
  0
INSERT
  8
LAYER_1
  2
AIGNBL01020022
 10
0
 20
0
 30
0
  0
INSERT
  8
LAYER_1
  2
AIGNBL01020023
 10
0
 20
0
 30
0
  0
INSERT
  8
LAYER_1
  2
AIGNBL01020024
 10
0
 20
0
 30
0
  0
INSERT
  8
LAYER_1
  2
AIGNBL01020025
 10
0
 20
0
 30
0
  0
INSERT
  8
LAYER_1
  2
AIGNBL01020026
 10
0
 20
0
 30
0
  0
INSERT
  8
LAYER_1
  2
AIGNBL01020027
 10
0
 20
0
 30
0
  0
INSERT
  8
LAYER_1
  2
AIGNBL01020028
 10
0
 20
0
 30
0
  0
INSERT
  8
LAYER_1
  2
AIGNBL01020029
 10
0
 20
0
 30
0
  0
INSERT
  8
LAYER_1
  2
AIGNBL0102002A
 10
0
 20
0
 30
0
  0
INSERT
  8
LAYER_1
  2
AIGNBL0102002B
 10
0
 20
0
 30
0
  0
INSERT
  8
LAYER_1
  2
AIGNBL0102002C
 10
0
 20
0
 30
0
  0
INSERT
  8
LAYER_1
  2
AIGNBL0102002D
 10
0
 20
0
 30
0
  0
INSERT
  8
LAYER_1
  2
AIGNBL0102002E
 10
0
 20
0
 30
0
  0
INSERT
  8
LAYER_1
  2
AIGNBL0102002F
 10
0
 20
0
 30
0
  0
INSERT
  8
LAYER_1
  2
AIGNBL01020030
 10
0
 20
0
 30
0
  0
INSERT
  8
LAYER_1
  2
AIGNBL01020031
 10
0
 20
0
 30
0
  0
INSERT
  8
LAYER_1
  2
AIGNBL01020032
 10
0
 20
0
 30
0
  0
ENDBLK
  0
BLOCK
  8
LAYER_1
  2
AIGNBL01010033
 70
64
 10
0
 20
0
 30
0
  3
AIGNBL01010033
  0
INSERT
  8
LAYER_1
  2
AIGNBL01020034
 10
0
 20
0
 30
0
  0
INSERT
  8
LAYER_1
  2
AIGNBL01020035
 10
0
 20
0
 30
0
  0
INSERT
  8
LAYER_1
  2
AIGNBL01020036
 10
0
 20
0
 30
0
  0
INSERT
  8
LAYER_1
  2
AIGNBL01020037
 10
0
 20
0
 30
0
  0
INSERT
  8
LAYER_1
  2
AIGNBL01020038
 10
0
 20
0
 30
0
  0
INSERT
  8
LAYER_1
  2
AIGNBL01020039
 10
0
 20
0
 30
0
  0
INSERT
  8
LAYER_1
  2
AIGNBL0102003A
 10
0
 20
0
 30
0
  0
INSERT
  8
LAYER_1
  2
AIGNBL0102003B
 10
0
 20
0
 30
0
  0
INSERT
  8
LAYER_1
  2
AIGNBL0102003C
 10
0
 20
0
 30
0
  0
INSERT
  8
LAYER_1
  2
AIGNBL0102003D
 10
0
 20
0
 30
0
  0
INSERT
  8
LAYER_1
  2
AIGNBL0102003E
 10
0
 20
0
 30
0
  0
INSERT
  8
LAYER_1
  2
AIGNBL0102003F
 10
0
 20
0
 30
0
  0
INSERT
  8
LAYER_1
  2
AIGNBL01020040
 10
0
 20
0
 30
0
  0
INSERT
  8
LAYER_1
  2
AIGNBL01020041
 10
0
 20
0
 30
0
  0
ENDBLK
  0
BLOCK
  8
LAYER_1
  2
AIGNBL01010042
 70
64
 10
0
 20
0
 30
0
  3
AIGNBL01010042
  0
INSERT
  8
LAYER_1
  2
AIGNBL01020043
 10
0
 20
0
 30
0
  0
INSERT
  8
LAYER_1
  2
AIGNBL01020044
 10
0
 20
0
 30
0
  0
INSERT
  8
LAYER_1
  2
AIGNBL01020045
 10
0
 20
0
 30
0
  0
INSERT
  8
LAYER_1
  2
AIGNBL01020046
 10
0
 20
0
 30
0
  0
INSERT
  8
LAYER_1
  2
AIGNBL01020047
 10
0
 20
0
 30
0
  0
INSERT
  8
LAYER_1
  2
AIGNBL01020048
 10
0
 20
0
 30
0
  0
ENDBLK
  0
BLOCK
  8
LAYER_1
  2
AIGNBL01010049
 70
64
 10
0
 20
0
 30
0
  3
AIGNBL01010049
  0
INSERT
  8
LAYER_1
  2
AIGNBL0102004A
 10
0
 20
0
 30
0
  0
INSERT
  8
LAYER_1
  2
AIGNBL0102004B
 10
0
 20
0
 30
0
  0
INSERT
  8
LAYER_1
  2
AIGNBL0102004C
 10
0
 20
0
 30
0
  0
INSERT
  8
LAYER_1
  2
AIGNBL0102004D
 10
0
 20
0
 30
0
  0
INSERT
  8
LAYER_1
  2
AIGNBL0102004E
 10
0
 20
0
 30
0
  0
INSERT
  8
LAYER_1
  2
AIGNBL0102004F
 10
0
 20
0
 30
0
  0
INSERT
  8
LAYER_1
  2
AIGNBL01020050
 10
0
 20
0
 30
0
  0
INSERT
  8
LAYER_1
  2
AIGNBL01020051
 10
0
 20
0
 30
0
  0
INSERT
  8
LAYER_1
  2
AIGNBL01020052
 10
0
 20
0
 30
0
  0
INSERT
  8
LAYER_1
  2
AIGNBL01020053
 10
0
 20
0
 30
0
  0
INSERT
  8
LAYER_1
  2
AIGNBL01020054
 10
0
 20
0
 30
0
  0
INSERT
  8
LAYER_1
  2
AIGNBL01020055
 10
0
 20
0
 30
0
  0
INSERT
  8
LAYER_1
  2
AIGNBL01020056
 10
0
 20
0
 30
0
  0
INSERT
  8
LAYER_1
  2
AIGNBL01020057
 10
0
 20
0
 30
0
  0
ENDBLK
  0
BLOCK
  8
LAYER_1
  2
AIGNBL01010058
 70
64
 10
0
 20
0
 30
0
  3
AIGNBL01010058
  0
POLYLINE
  8
LAYER_1
  6
AIGENLINE002
 40
0.2469
 41
0.2469
 66
1
 10
0
 20
0
 30
0
 70
128
  0
VERTEX
  8
LAYER_1
 10
56.2346
 20
176.0244
  0
VERTEX
  8
LAYER_1
 10
56.2346
 20
136.3369
  0
SEQEND
  0
ENDBLK
  0
BLOCK
  8
LAYER_1
  2
AIGNBL01010059
 70
64
 10
0
 20
0
 30
0
  3
AIGNBL01010059
  0
POLYLINE
  8
LAYER_1
  6
AIGENLINE002
 40
0.2469
 41
0.2469
 66
1
 10
0
 20
0
 30
0
 70
128
  0
VERTEX
  8
LAYER_1
 10
44.5472
 20
117.8998
  0
VERTEX
  8
LAYER_1
 10
192.7972
 20
117.8998
  0
SEQEND
  0
ENDBLK
  0
BLOCK
  8
LAYER_1
  2
AIGNBL0101005A
 70
64
 10
0
 20
0
 30
0
  3
AIGNBL0101005A
  0
POLYLINE
  8
LAYER_1
  6
AIGENLINE002
 40
0.0882
 41
0.0882
 66
1
 10
0
 20
0
 30
0
 70
128
  0
VERTEX
  8
LAYER_1
 10
56.2346
 20
136.3369
  0
VERTEX
  8
LAYER_1
 10
56.2346
 20
85.8683
  0
SEQEND
  0
ENDBLK
  0
BLOCK
  8
LAYER_1
  2
AIGNBL0101005B
 70
64
 10
0
 20
0
 30
0
  3
AIGNBL0101005B
  0
POLYLINE
  8
LAYER_1
 40
0.05
 41
0.05
 66
1
 10
0
 20
0
 30
0
 70
1
  0
VERTEX
  8
LAYER_1
 10
64.4784
 20
176.3517
  0
VERTEX
  8
LAYER_1
 10
65.4761
 20
175.7757
  0
VERTEX
  8
LAYER_1
 10
62.79
 20
172.2748
  0
SEQEND
  0
ENDBLK
  0
BLOCK
  8
LAYER_1
  2
AIGNBL0101005C
 70
64
 10
0
 20
0
 30
0
  3
AIGNBL0101005C
  0
POLYLINE
  8
LAYER_1
 40
0.2469
 41
0.2469
 66
1
 10
0
 20
0
 30
0
  0
VERTEX
  8
LAYER_1
 10
62.79
 20
172.2748
  0
VERTEX
  8
LAYER_1
 10
70.0918
 20
184.9224
  0
SEQEND
  0
POLYLINE
  8
LAYER_1
 40
0.2469
 41
0.2469
 66
1
 10
0
 20
0
 30
0
  0
VERTEX
  8
LAYER_1
 10
70.0918
 20
184.9224
  0
VERTEX
  8
LAYER_1
 10
93.8926
 20
184.9224
  0
SEQEND
  0
ENDBLK
  0
BLOCK
  8
LAYER_1
  2
AIGNBL0101005D
 70
64
 10
0
 20
0
 30
0
  3
AIGNBL0101005D
  0
POLYLINE
  8
LAYER_1
 40
0.05
 41
0.05
 66
1
 10
0
 20
0
 30
0
 70
1
  0
VERTEX
  8
LAYER_1
 10
72.9282
 20
128.088
  0
VERTEX
  8
LAYER_1
 10
74.0589
 20
128.3074
  0
VERTEX
  8
LAYER_1
 10
74.3286
 20
123.9029
  0
SEQEND
  0
ENDBLK
  0
BLOCK
  8
LAYER_1
  2
AIGNBL0101005E
 70
64
 10
0
 20
0
 30
0
  3
AIGNBL0101005E
  0
POLYLINE
  8
LAYER_1
 40
0.0882
 41
0.0882
 66
1
 10
0
 20
0
 30
0
  0
VERTEX
  8
LAYER_1
 10
74.3286
 20
123.9029
  0
VERTEX
  8
LAYER_1
 10
69.4745
 20
148.8688
  0
SEQEND
  0
ENDBLK
  0
BLOCK
  8
LAYER_1
  2
AIGNBL0101005F
 70
64
 10
0
 20
0
 30
0
  3
AIGNBL0101005F
  0
POLYLINE
  8
LAYER_1
 40
0.05
 41
0.05
 66
1
 10
0
 20
0
 30
0
 70
1
  0
VERTEX
  8
LAYER_1
 10
63.861
 20
140.2981
  0
VERTEX
  8
LAYER_1
 10
64.8588
 20
139.722
  0
VERTEX
  8
LAYER_1
 10
62.1722
 20
136.2218
  0
SEQEND
  0
ENDBLK
  0
BLOCK
  8
LAYER_1
  2
AIGNBL01010060
 70
64
 10
0
 20
0
 30
0
  3
AIGNBL01010060
  0
POLYLINE
  8
LAYER_1
 40
0.0882
 41
0.0882
 66
1
 10
0
 20
0
 30
0
  0
VERTEX
  8
LAYER_1
 10
62.1722
 20
136.2218
  0
VERTEX
  8
LAYER_1
 10
69.4745
 20
148.8688
  0
SEQEND
  0
POLYLINE
  8
LAYER_1
 40
0.0882
 41
0.0882
 66
1
 10
0
 20
0
 30
0
  0
VERTEX
  8
LAYER_1
 10
69.4745
 20
148.8688
  0
VERTEX
  8
LAYER_1
 10
93.2749
 20
148.8688
  0
SEQEND
  0
ENDBLK
  0
BLOCK
  8
LAYER_1
  2
AIGNBL01010061
 70
64
 10
0
 20
0
 30
0
  3
AIGNBL01010061
  0
TEXT
  8
LAYER_1
 10
69.8176
 20
186.5418
 11
69.8176
 21
186.5418
 40
7.6222
 41
0.5
  1
G1 1/4
  0
ENDBLK
  0
BLOCK
  8
LAYER_1
  2
AIGNBL01010062
 70
64
 10
0
 20
0
 30
0
  3
AIGNBL01010062
  0
TEXT
  8
LAYER_1
 10
70.1699
 20
150.1758
 11
70.1699
 21
150.1758
 40
7.6222
 41
0.5
  1
W38山16
  0
ENDBLK
  0
BLOCK
  8
LAYER_1
  2
AIGNBL01010063
 70
64
 10
0
 20
0
 30
0
  3
AIGNBL01010063
  0
INSERT
  8
LAYER_1
  2
AIGNBL01020064
 10
0
 20
0
 30
0
  0
INSERT
  8
LAYER_1
  2
AIGNBL01020065
 10
0
 20
0
 30
0
  0
INSERT
  8
LAYER_1
  2
AIGNBL01020066
 10
0
 20
0
 30
0
  0
INSERT
  8
LAYER_1
  2
AIGNBL01020067
 10
0
 20
0
 30
0
  0
INSERT
  8
LAYER_1
  2
AIGNBL01020068
 10
0
 20
0
 30
0
  0
INSERT
  8
LAYER_1
  2
AIGNBL01020069
 10
0
 20
0
 30
0
  0
ENDBLK
  0
BLOCK
  8
LAYER_1
  2
AIGNBL0101006A
 70
64
 10
0
 20
0
 30
0
  3
AIGNBL0101006A
  0
INSERT
  8
LAYER_1
  2
AIGNBL0102006B
 10
0
 20
0
 30
0
  0
INSERT
  8
LAYER_1
  2
AIGNBL0102006C
 10
0
 20
0
 30
0
  0
INSERT
  8
LAYER_1
  2
AIGNBL0102006D
 10
0
 20
0
 30
0
  0
INSERT
  8
LAYER_1
  2
AIGNBL0102006E
 10
0
 20
0
 30
0
  0
INSERT
  8
LAYER_1
  2
AIGNBL0102006F
 10
0
 20
0
 30
0
  0
INSERT
  8
LAYER_1
  2
AIGNBL01020070
 10
0
 20
0
 30
0
  0
ENDBLK
  0
BLOCK
  8
LAYER_1
  2
AIGNBL01010071
 70
64
 10
0
 20
0
 30
0
  3
AIGNBL01010071
  0
INSERT
  8
LAYER_1
  2
AIGNBL01020072
 10
0
 20
0
 30
0
  0
INSERT
  8
LAYER_1
  2
AIGNBL01020073
 10
0
 20
0
 30
0
  0
INSERT
  8
LAYER_1
  2
AIGNBL01020074
 10
0
 20
0
 30
0
  0
INSERT
  8
LAYER_1
  2
AIGNBL01020075
 10
0
 20
0
 30
0
  0
INSERT
  8
LAYER_1
  2
AIGNBL01020076
 10
0
 20
0
 30
0
  0
INSERT
  8
LAYER_1
  2
AIGNBL01020077
 10
0
 20
0
 30
0
  0
ENDBLK
  0
BLOCK
  8
LAYER_1
  2
AIGNBL01010078
 70
64
 10
0
 20
0
 30
0
  3
AIGNBL01010078
  0
INSERT
  8
LAYER_1
  2
AIGNBL01020079
 10
0
 20
0
 30
0
  0
INSERT
  8
LAYER_1
  2
AIGNBL0102007A
 10
0
 20
0
 30
0
  0
INSERT
  8
LAYER_1
  2
AIGNBL0102007B
 10
0
 20
0
 30
0
  0
INSERT
  8
LAYER_1
  2
AIGNBL0102007C
 10
0
 20
0
 30
0
  0
INSERT
  8
LAYER_1
  2
AIGNBL0102007D
 10
0
 20
0
 30
0
  0
INSERT
  8
LAYER_1
  2
AIGNBL0102007E
 10
0
 20
0
 30
0
  0
ENDBLK
  0
BLOCK
  8
LAYER_1
  2
AIGNBL0101007F
 70
64
 10
0
 20
0
 30
0
  3
AIGNBL0101007F
  0
INSERT
  8
LAYER_1
  2
AIGNBL01020080
 10
0
 20
0
 30
0
  0
INSERT
  8
LAYER_1
  2
AIGNBL01020081
 10
0
 20
0
 30
0
  0
INSERT
  8
LAYER_1
  2
AIGNBL01020082
 10
0
 20
0
 30
0
  0
INSERT
  8
LAYER_1
  2
AIGNBL01020083
 10
0
 20
0
 30
0
  0
INSERT
  8
LAYER_1
  2
AIGNBL01020084
 10
0
 20
0
 30
0
  0
INSERT
  8
LAYER_1
  2
AIGNBL01020085
 10
0
 20
0
 30
0
  0
INSERT
  8
LAYER_1
  2
AIGNBL01020086
 10
0
 20
0
 30
0
  0
ENDBLK
  0
BLOCK
  8
LAYER_1
  2
AIGNBL01010087
 70
64
 10
0
 20
0
 30
0
  3
AIGNBL01010087
  0
INSERT
  8
LAYER_1
  2
AIGNBL01020088
 10
0
 20
0
 30
0
  0
INSERT
  8
LAYER_1
  2
AIGNBL01020089
 10
0
 20
0
 30
0
  0
INSERT
  8
LAYER_1
  2
AIGNBL0102008A
 10
0
 20
0
 30
0
  0
INSERT
  8
LAYER_1
  2
AIGNBL0102008B
 10
0
 20
0
 30
0
  0
INSERT
  8
LAYER_1
  2
AIGNBL0102008C
 10
0
 20
0
 30
0
  0
INSERT
  8
LAYER_1
  2
AIGNBL0102008D
 10
0
 20
0
 30
0
  0
ENDBLK
  0
BLOCK
  8
LAYER_1
  2
AIGNBL0101008E
 70
64
 10
0
 20
0
 30
0
  3
AIGNBL0101008E
  0
INSERT
  8
LAYER_1
  2
AIGNBL0102008F
 10
0
 20
0
 30
0
  0
INSERT
  8
LAYER_1
  2
AIGNBL01020090
 10
0
 20
0
 30
0
  0
INSERT
  8
LAYER_1
  2
AIGNBL01020091
 10
0
 20
0
 30
0
  0
INSERT
  8
LAYER_1
  2
AIGNBL01020092
 10
0
 20
0
 30
0
  0
INSERT
  8
LAYER_1
  2
AIGNBL01020093
 10
0
 20
0
 30
0
  0
INSERT
  8
LAYER_1
  2
AIGNBL01020094
 10
0
 20
0
 30
0
  0
INSERT
  8
LAYER_1
  2
AIGNBL01020095
 10
0
 20
0
 30
0
  0
INSERT
  8
LAYER_1
  2
AIGNBL01020096
 10
0
 20
0
 30
0
  0
ENDBLK
  0
BLOCK
  8
LAYER_1
  2
AIGNBL01010097
 70
64
 10
0
 20
0
 30
0
  3
AIGNBL01010097
  0
INSERT
  8
LAYER_1
  2
AIGNBL01020098
 10
0
 20
0
 30
0
  0
INSERT
  8
LAYER_1
  2
AIGNBL01020099
 10
0
 20
0
 30
0
  0
INSERT
  8
LAYER_1
  2
AIGNBL0102009A
 10
0
 20
0
 30
0
  0
INSERT
  8
LAYER_1
  2
AIGNBL0102009B
 10
0
 20
0
 30
0
  0
INSERT
  8
LAYER_1
  2
AIGNBL0102009C
 10
0
 20
0
 30
0
  0
INSERT
  8
LAYER_1
  2
AIGNBL0102009D
 10
0
 20
0
 30
0
  0
INSERT
  8
LAYER_1
  2
AIGNBL0102009E
 10
0
 20
0
 30
0
  0
INSERT
  8
LAYER_1
  2
AIGNBL0102009F
 10
0
 20
0
 30
0
  0
ENDBLK
  0
BLOCK
  8
LAYER_1
  2
AIGNBL010100A0
 70
64
 10
0
 20
0
 30
0
  3
AIGNBL010100A0
  0
INSERT
  8
LAYER_1
  2
AIGNBL010200A1
 10
0
 20
0
 30
0
  0
INSERT
  8
LAYER_1
  2
AIGNBL010200A2
 10
0
 20
0
 30
0
  0
INSERT
  8
LAYER_1
  2
AIGNBL010200A3
 10
0
 20
0
 30
0
  0
INSERT
  8
LAYER_1
  2
AIGNBL010200A4
 10
0
 20
0
 30
0
  0
INSERT
  8
LAYER_1
  2
AIGNBL010200A5
 10
0
 20
0
 30
0
  0
ENDBLK
  0
BLOCK
  8
LAYER_1
  2
AIGNBL010100A6
 70
64
 10
0
 20
0
 30
0
  3
AIGNBL010100A6
  0
INSERT
  8
LAYER_1
  2
AIGNBL010200A7
 10
0
 20
0
 30
0
  0
INSERT
  8
LAYER_1
  2
AIGNBL010200A8
 10
0
 20
0
 30
0
  0
INSERT
  8
LAYER_1
  2
AIGNBL010200A9
 10
0
 20
0
 30
0
  0
INSERT
  8
LAYER_1
  2
AIGNBL010200AA
 10
0
 20
0
 30
0
  0
INSERT
  8
LAYER_1
  2
AIGNBL010200AB
 10
0
 20
0
 30
0
  0
INSERT
  8
LAYER_1
  2
AIGNBL010200AC
 10
0
 20
0
 30
0
  0
ENDBLK
  0
BLOCK
  8
LAYER_1
  2
AIGNBL010100AD
 70
64
 10
0
 20
0
 30
0
  3
AIGNBL010100AD
  0
INSERT
  8
LAYER_1
  2
AIGNBL010200AE
 10
0
 20
0
 30
0
  0
INSERT
  8
LAYER_1
  2
AIGNBL010200AF
 10
0
 20
0
 30
0
  0
INSERT
  8
LAYER_1
  2
AIGNBL010200B0
 10
0
 20
0
 30
0
  0
INSERT
  8
LAYER_1
  2
AIGNBL010200B1
 10
0
 20
0
 30
0
  0
INSERT
  8
LAYER_1
  2
AIGNBL010200B2
 10
0
 20
0
 30
0
  0
INSERT
  8
LAYER_1
  2
AIGNBL010200B3
 10
0
 20
0
 30
0
  0
INSERT
  8
LAYER_1
  2
AIGNBL010200B4
 10
0
 20
0
 30
0
  0
INSERT
  8
LAYER_1
  2
AIGNBL010200B5
 10
0
 20
0
 30
0
  0
ENDBLK
  0
BLOCK
  8
LAYER_3
  2
AIGNBL03010002
 70
64
 10
0
 20
0
 30
0
  3
AIGNBL03010002
  0
POLYLINE
  8
LAYER_3
 40
0.7056
 41
0.7056
 66
1
 10
0
 20
0
 30
0
 70
1
  0
VERTEX
  8
LAYER_3
 10
251.6749
 20
230.337
  0
VERTEX
  8
LAYER_3
 10
251.6749
 20
33.3285
  0
VERTEX
  8
LAYER_3
 10
-30.3177
 20
33.3285
  0
VERTEX
  8
LAYER_3
 10
-30.3177
 20
230.337
  0
SEQEND
  0
ENDBLK
  0
BLOCK
  8
LAYER_3
  2
AIGNBL03010003
 70
64
 10
0
 20
0
 30
0
  3
AIGNBL03010003
  0
INSERT
  8
LAYER_3
  2
AIGNBL03020004
 10
0
 20
0
 30
0
  0
INSERT
  8
LAYER_3
  2
AIGNBL0302000D
 10
0
 20
0
 30
0
  0
ENDBLK
  0
ENDSEC
  0
SECTION
  2
ENTITIES
  0
INSERT
  8
LAYER_1
  2
AIGNBL01010002
 10
0
 20
0
 30
0
  0
INSERT
  8
LAYER_1
  2
AIGNBL01010013
 10
0
 20
0
 30
0
  0
INSERT
  8
LAYER_1
  2
AIGNBL01010033
 10
0
 20
0
 30
0
  0
INSERT
  8
LAYER_1
  2
AIGNBL01010042
 10
0
 20
0
 30
0
  0
INSERT
  8
LAYER_1
  2
AIGNBL01010049
 10
0
 20
0
 30
0
  0
INSERT
  8
LAYER_1
  2
AIGNBL01010058
 10
0
 20
0
 30
0
  0
INSERT
  8
LAYER_1
  2
AIGNBL01010059
 10
0
 20
0
 30
0
  0
INSERT
  8
LAYER_1
  2
AIGNBL0101005A
 10
0
 20
0
 30
0
  0
INSERT
  8
LAYER_1
  2
AIGNBL0101005B
 10
0
 20
0
 30
0
  0
INSERT
  8
LAYER_1
  2
AIGNBL0101005C
 10
0
 20
0
 30
0
  0
INSERT
  8
LAYER_1
  2
AIGNBL0101005D
 10
0
 20
0
 30
0
  0
INSERT
  8
LAYER_1
  2
AIGNBL0101005E
 10
0
 20
0
 30
0
  0
INSERT
  8
LAYER_1
  2
AIGNBL0101005F
 10
0
 20
0
 30
0
  0
INSERT
  8
LAYER_1
  2
AIGNBL01010060
 10
0
 20
0
 30
0
  0
INSERT
  8
LAYER_1
  2
AIGNBL01010061
 10
0
 20
0
 30
0
  0
INSERT
  8
LAYER_1
  2
AIGNBL01010062
 10
0
 20
0
 30
0
  0
INSERT
  8
LAYER_1
  2
AIGNBL01010063
 10
0
 20
0
 30
0
  0
INSERT
  8
LAYER_1
  2
AIGNBL0101006A
 10
0
 20
0
 30
0
  0
INSERT
  8
LAYER_1
  2
AIGNBL01010071
 10
0
 20
0
 30
0
  0
INSERT
  8
LAYER_1
  2
AIGNBL01010078
 10
0
 20
0
 30
0
  0
INSERT
  8
LAYER_1
  2
AIGNBL0101007F
 10
0
 20
0
 30
0
  0
INSERT
  8
LAYER_1
  2
AIGNBL01010087
 10
0
 20
0
 30
0
  0
INSERT
  8
LAYER_1
  2
AIGNBL0101008E
 10
0
 20
0
 30
0
  0
INSERT
  8
LAYER_1
  2
AIGNBL01010097
 10
0
 20
0
 30
0
  0
INSERT
  8
LAYER_1
  2
AIGNBL010100A0
 10
0
 20
0
 30
0
  0
INSERT
  8
LAYER_1
  2
AIGNBL010100A6
 10
0
 20
0
 30
0
  0
INSERT
  8
LAYER_1
  2
AIGNBL010100AD
 10
0
 20
0
 30
0
  0
TEXT
  8
LAYER_3
 10
-26.2556
 20
43.1712
 11
-26.2556
 21
43.1712
 40
3.2995
 41
0.5
  1
仕様
  0
POLYLINE
  8
LAYER_3
 40
0.3528
 41
0.3528
 66
1
 10
0
 20
0
 30
0
  0
VERTEX
  8
LAYER_3
 10
250.6748
 20
51.9507
  0
VERTEX
  8
LAYER_3
 10
-29.3178
 20
51.9507
  0
SEQEND
  0
INSERT
  8
LAYER_3
  2
AIGNBL03010002
 10
0
 20
0
 30
0
  0
POLYLINE
  8
LAYER_3
 40
0.3528
 41
0.3528
 66
1
 10
0
 20
0
 30
0
  0
VERTEX
  8
LAYER_3
 10
-29.3178
 20
229.3369
  0
VERTEX
  8
LAYER_3
 10
-29.3178
 20
34.3283
  0
VERTEX
  8
LAYER_3
 10
250.6748
 20
34.3283
  0
VERTEX
  8
LAYER_3
 10
250.6748
 20
229.3369
  0
VERTEX
  8
LAYER_3
 10
-29.3178
 20
229.3369
  0
SEQEND
  0
POLYLINE
  8
LAYER_3
 40
0.3528
 41
0.3528
 66
1
 10
0
 20
0
 30
0
  0
VERTEX
  8
LAYER_3
 10
250.6748
 20
60.4597
  0
VERTEX
  8
LAYER_3
 10
-29.3178
 20
60.4597
  0
SEQEND
  0
POLYLINE
  8
LAYER_3
 40
0.3528
 41
0.3528
 66
1
 10
0
 20
0
 30
0
  0
VERTEX
  8
LAYER_3
 10
250.6748
 20
43.4416
  0
VERTEX
  8
LAYER_3
 10
143.5341
 20
43.4416
  0
SEQEND
  0
TEXT
  8
LAYER_3
 10
188.1725
 20
45.7175
 11
188.1725
 21
45.7175
 40
3.7615
 41
0.5
  1
-
  0
TEXT
  8
LAYER_3
 10
182.8808
 20
49.4743
 11
182.8808
 21
49.4743
 40
2.1997
 41
0.5
  1
縮尺
  0
POLYLINE
  8
LAYER_3
 40
0.3528
 41
0.3528
 66
1
 10
0
 20
0
 30
0
  0
VERTEX
  8
LAYER_3
 10
181.3526
 20
43.4416
  0
VERTEX
  8
LAYER_3
 10
181.3526
 20
51.9507
  0
SEQEND
  0
TEXT
  8
LAYER_3
 10
144.2327
 20
57.9834
 11
144.2327
 21
57.9834
 40
2.1997
 41
0.5
  1
品番
  0
TEXT
  8
LAYER_3
 10
-28.1609
 20
57.9834
 11
-28.1609
 21
57.9834
 40
2.1997
 41
0.5
  1
品名
  0
TEXT
  8
LAYER_3
 10
144.2327
 20
49.4743
 11
144.2327
 21
49.4743
 40
2.1997
 41
0.5
  1
重量
  0
TEXT
  8
LAYER_3
 10
150.2547
 20
54.1514
 11
150.2547
 21
54.1514
 40
5.9385
 41
0.5
  1
AQ-BTN-色
  0
TEXT
  8
LAYER_3
 10
149.5454
 20
45.7175
 11
149.5454
 21
45.7175
 40
3.7615
 41
0.5
  1
-
  0
POLYLINE
  8
LAYER_3
 40
0.3528
 41
0.3528
 66
1
 10
0
 20
0
 30
0
  0
VERTEX
  8
LAYER_3
 10
143.5341
 20
34.9539
  0
VERTEX
  8
LAYER_3
 10
143.5341
 20
60.4597
  0
SEQEND
  0
TEXT
  8
LAYER_3
 10
-15.3178
 20
54.891
 11
-15.3178
 21
54.891
 40
4.1465
 41
0.5
  1
ボトルトラップ(欧州仕様Φ32)
  0
TEXT
  8
LAYER_3
 10
-15.6835
 20
42.9042
 11
-15.6835
 21
42.9042
 40
3.1177
 41
0.5
  1
※欧州仕様のため、単独で国内仕様の排水金具とは接続できません。
  0
TEXT
  8
LAYER_3
 10
237.263
 20
63.2582
 11
237.263
 21
63.2582
 40
2.9618
 41
0.5
  1
単位：mm
  0
TEXT
  8
LAYER_3
 10
176.0254
 20
39.5359
 11
176.0254
 21
39.5359
 40
3.3853
 41
0.5
  1
●TEL 0120-65-1232●FAX 06-6532-1580
  0
TEXT
  8
LAYER_3
 10
176.0254
 20
36.0212
 11
176.0254
 21
36.0212
 40
3.3853
 41
0.5
  1
hits@hiratatile.co.jp
  0
INSERT
  8
LAYER_3
  2
AIGNBL03010003
 10
0
 20
0
 30
0
  0
TEXT
  8
LAYER_3
 10
240.3591
 20
225.8432
 11
240.3591
 21
225.8432
 40
2.0732
 41
0.5
  1
180329RT
  0
ENDSEC
  0
EOF
