  0
SECTION
  2
HEADER
  9
$ACADVER
  1
AC1009
  9
$LUNITS
 70
2
  9
$LUPREC
 70
4
  9
$LTSCALE
 40
1.0
  9
$EXTMIN
 10
33.7873
 20
-259.334
 30
0
  9
$EXTMAX
 10
497.1273
 20
22.6587
 30
0
  0
ENDSEC
  0
SECTION
  2
TABLES
  0
TABLE
  2
LTYPE
 70
256
  0
LTYPE
  2
AIGENLINE001
 70
64
  3
generate AI->DXF Converter
 72
65
 73
4
 40
2
 49
1.25
 49
-0.25
 49
0.25
 49
-0.25
  0
ENDTAB
  0
TABLE
  2
LAYER
 70
6
  0
LAYER
  2
LAYER_1
 70
64
 62
7
  6
CONTINUOUS
  0
LAYER
  2
LAYER_2
 70
64
 62
7
  6
CONTINUOUS
  0
LAYER
  2
LAYER_3
 70
64
 62
7
  6
CONTINUOUS
  0
LAYER
  2
LAYER_4
 70
64
 62
7
  6
CONTINUOUS
  0
LAYER
  2
LAYER_5
 70
64
 62
7
  6
CONTINUOUS
  0
LAYER
  2
LAYER_6
 70
64
 62
7
  6
CONTINUOUS
  0
ENDTAB
  0
TABLE
  2
STYLE
 70
6
  0
STYLE
  2
STANDARD
 70
0
 40
0
 50
0
 71
0
 41
0
 42
0
  3
TXT
  4
BIGFONT
  0
ENDTAB
  0
ENDSEC
  0
SECTION
  2
BLOCKS
  0
BLOCK
  8
LAYER_1
  2
AIGNBL01040005
 70
64
 10
0
 20
0
 30
0
  3
AIGNBL01040005
  0
POLYLINE
  8
LAYER_1
 40
0.05
 41
0.05
 66
1
 10
0
 20
0
 30
0
 70
1
  0
VERTEX
  8
LAYER_1
 10
138.3767
 20
-249.1011
  0
VERTEX
  8
LAYER_1
 10
137.891
 20
-250.2793
  0
VERTEX
  8
LAYER_1
 10
137.2664
 20
-250.2793
  0
VERTEX
  8
LAYER_1
 10
138.857
 20
-246.5355
  0
VERTEX
  8
LAYER_1
 10
139.586
 20
-246.5355
  0
VERTEX
  8
LAYER_1
 10
141.1828
 20
-250.2793
  0
VERTEX
  8
LAYER_1
 10
140.5365
 20
-250.2793
  0
VERTEX
  8
LAYER_1
 10
140.0369
 20
-249.1011
  0
SEQEND
  0
POLYLINE
  8
LAYER_1
 40
0.05
 41
0.05
 66
1
 10
0
 20
0
 30
0
 70
1
  0
VERTEX
  8
LAYER_1
 10
139.9115
 20
-248.7245
  0
VERTEX
  8
LAYER_1
 10
139.4533
 20
-247.6459
 42
-0.02267506524
  0
VERTEX
  8
LAYER_1
 10
139.2101
 20
-246.963
  0
VERTEX
  8
LAYER_1
 10
139.1967
 20
-246.963
 42
-0.02084266043
  0
VERTEX
  8
LAYER_1
 10
138.9603
 20
-247.6414
  0
VERTEX
  8
LAYER_1
 10
138.5021
 20
-248.7245
  0
SEQEND
  0
ENDBLK
  0
BLOCK
  8
LAYER_1
  2
AIGNBL01040006
 70
64
 10
0
 20
0
 30
0
  3
AIGNBL01040006
  0
POLYLINE
  8
LAYER_1
 40
0.05
 41
0.05
 66
1
 10
0
 20
0
 30
0
 70
1
  0
VERTEX
  8
LAYER_1
 10
145.5226
 20
-250.8295
 42
-0.01550180985
  0
VERTEX
  8
LAYER_1
 10
143.7311
 20
-250.3954
 42
0.09208348225
  0
VERTEX
  8
LAYER_1
 10
143.4465
 20
-250.3406
 42
-0.09252107557
  0
VERTEX
  8
LAYER_1
 10
142.4981
 20
-250.139
 42
-0.09792797557
  0
VERTEX
  8
LAYER_1
 10
141.8642
 20
-249.7067
 42
-0.1631033753
  0
VERTEX
  8
LAYER_1
 10
141.401
 20
-248.7192
 42
-0.03157985926
  0
VERTEX
  8
LAYER_1
 10
141.3839
 20
-248.4469
 42
-0.1088259969
  0
VERTEX
  8
LAYER_1
 10
141.5673
 20
-247.5875
 42
-0.1618048679
  0
VERTEX
  8
LAYER_1
 10
142.3628
 20
-246.7577
 42
-0.09175073832
  0
VERTEX
  8
LAYER_1
 10
143.1629
 20
-246.5018
 42
-0.03454354202
  0
VERTEX
  8
LAYER_1
 10
143.5644
 20
-246.4745
 42
-0.09527006366
  0
VERTEX
  8
LAYER_1
 10
144.5227
 20
-246.6511
 42
-0.1001818692
  0
VERTEX
  8
LAYER_1
 10
145.1563
 20
-247.0713
 42
-0.1611434138
  0
VERTEX
  8
LAYER_1
 10
145.6402
 20
-248.0664
 42
-0.03591204318
  0
VERTEX
  8
LAYER_1
 10
145.6617
 20
-248.3686
 42
-0.1066586367
  0
VERTEX
  8
LAYER_1
 10
145.4864
 20
-249.2186
 42
-0.2185717489
  0
VERTEX
  8
LAYER_1
 10
144.3825
 20
-250.147
 42
-0.006705231958
  0
VERTEX
  8
LAYER_1
 10
144.3281
 20
-250.1628
  0
VERTEX
  8
LAYER_1
 10
144.3281
 20
-250.1852
 42
0.01501268135
  0
VERTEX
  8
LAYER_1
 10
145.6965
 20
-250.424
  0
SEQEND
  0
POLYLINE
  8
LAYER_1
 40
0.05
 41
0.05
 66
1
 10
0
 20
0
 30
0
 70
1
  0
VERTEX
  8
LAYER_1
 10
145.0233
 20
-248.39
 42
0.1175404168
  0
VERTEX
  8
LAYER_1
 10
144.842
 20
-247.6261
 42
0.1170585149
  0
VERTEX
  8
LAYER_1
 10
144.419
 20
-247.1311
 42
0.1200111465
  0
VERTEX
  8
LAYER_1
 10
143.8094
 20
-246.8884
 42
0.0377207096
  0
VERTEX
  8
LAYER_1
 10
143.5433
 20
-246.8687
 42
0.1152954241
  0
VERTEX
  8
LAYER_1
 10
142.8054
 20
-247.0324
 42
0.1853004926
  0
VERTEX
  8
LAYER_1
 10
142.1509
 20
-247.7624
 42
0.09848637078
  0
VERTEX
  8
LAYER_1
 10
142.0296
 20
-248.4344
 42
0.120860713
  0
VERTEX
  8
LAYER_1
 10
142.2045
 20
-249.1849
 42
0.2836170694
  0
VERTEX
  8
LAYER_1
 10
143.5161
 20
-249.9468
 42
0.1188766714
  0
VERTEX
  8
LAYER_1
 10
144.2605
 20
-249.7757
 42
0.1796046283
  0
VERTEX
  8
LAYER_1
 10
144.8972
 20
-249.063
 42
0.09851098502
  0
SEQEND
  0
ENDBLK
  0
BLOCK
  8
LAYER_1
  2
AIGNBL01040007
 70
64
 10
0
 20
0
 30
0
  3
AIGNBL01040007
  0
POLYLINE
  8
LAYER_1
 40
0.05
 41
0.05
 66
1
 10
0
 20
0
 30
0
 70
1
  0
VERTEX
  8
LAYER_1
 10
146.9815
 20
-246.5355
  0
VERTEX
  8
LAYER_1
 10
146.9815
 20
-248.7517
 42
0.1257910062
  0
VERTEX
  8
LAYER_1
 10
147.1475
 20
-249.4752
 42
0.2217269733
  0
VERTEX
  8
LAYER_1
 10
147.7914
 20
-249.9203
 42
0.04937688774
  0
VERTEX
  8
LAYER_1
 10
148.0716
 20
-249.9468
 42
0.1302851362
  0
VERTEX
  8
LAYER_1
 10
148.7372
 20
-249.787
 42
0.1509632316
  0
VERTEX
  8
LAYER_1
 10
149.0862
 20
-249.3957
 42
0.1174446198
  0
VERTEX
  8
LAYER_1
 10
149.2105
 20
-248.7517
  0
VERTEX
  8
LAYER_1
 10
149.2105
 20
-246.5355
  0
VERTEX
  8
LAYER_1
 10
149.8217
 20
-246.5355
  0
VERTEX
  8
LAYER_1
 10
149.8217
 20
-248.7187
 42
-0.1106784388
  0
VERTEX
  8
LAYER_1
 10
149.6531
 20
-249.5323
 42
-0.1857051526
  0
VERTEX
  8
LAYER_1
 10
148.9481
 20
-250.1807
 42
-0.09650175554
  0
VERTEX
  8
LAYER_1
 10
148.1451
 20
-250.3392
 42
-0.007939811217
  0
VERTEX
  8
LAYER_1
 10
148.0509
 20
-250.3406
 42
-0.102315967
  0
VERTEX
  8
LAYER_1
 10
147.1661
 20
-250.1733
 42
-0.1218859814
  0
VERTEX
  8
LAYER_1
 10
146.6722
 20
-249.7872
 42
-0.1186228201
  0
VERTEX
  8
LAYER_1
 10
146.4122
 20
-249.188
 42
-0.0498693672
  0
VERTEX
  8
LAYER_1
 10
146.3707
 20
-248.7404
  0
VERTEX
  8
LAYER_1
 10
146.3707
 20
-246.5355
  0
SEQEND
  0
ENDBLK
  0
BLOCK
  8
LAYER_1
  2
AIGNBL01040008
 70
64
 10
0
 20
0
 30
0
  3
AIGNBL01040008
  0
POLYLINE
  8
LAYER_1
 40
0.05
 41
0.05
 66
1
 10
0
 20
0
 30
0
 70
1
  0
VERTEX
  8
LAYER_1
 10
151.5573
 20
-249.1011
  0
VERTEX
  8
LAYER_1
 10
151.0709
 20
-250.2793
  0
VERTEX
  8
LAYER_1
 10
150.447
 20
-250.2793
  0
VERTEX
  8
LAYER_1
 10
152.0365
 20
-246.5355
  0
VERTEX
  8
LAYER_1
 10
152.7655
 20
-246.5355
  0
VERTEX
  8
LAYER_1
 10
154.3623
 20
-250.2793
  0
VERTEX
  8
LAYER_1
 10
153.7167
 20
-250.2793
  0
VERTEX
  8
LAYER_1
 10
153.2175
 20
-249.1011
  0
SEQEND
  0
POLYLINE
  8
LAYER_1
 40
0.05
 41
0.05
 66
1
 10
0
 20
0
 30
0
 70
1
  0
VERTEX
  8
LAYER_1
 10
153.0921
 20
-248.7245
  0
VERTEX
  8
LAYER_1
 10
152.6332
 20
-247.6459
 42
-0.02235179902
  0
VERTEX
  8
LAYER_1
 10
152.3897
 20
-246.963
  0
VERTEX
  8
LAYER_1
 10
152.3759
 20
-246.963
 42
-0.02046417189
  0
VERTEX
  8
LAYER_1
 10
152.1402
 20
-247.6414
  0
VERTEX
  8
LAYER_1
 10
151.682
 20
-248.7245
  0
SEQEND
  0
ENDBLK
  0
BLOCK
  8
LAYER_1
  2
AIGNBL01040009
 70
64
 10
0
 20
0
 30
0
  3
AIGNBL01040009
  0
POLYLINE
  8
LAYER_1
 40
0.05
 41
0.05
 66
1
 10
0
 20
0
 30
0
 70
1
  0
VERTEX
  8
LAYER_1
 10
155.3969
 20
-246.58
 42
-0.03349666815
  0
VERTEX
  8
LAYER_1
 10
156.5576
 20
-246.5072
 42
-0.09004353297
  0
VERTEX
  8
LAYER_1
 10
157.6057
 20
-246.6749
 42
-0.05888505928
  0
VERTEX
  8
LAYER_1
 10
157.8691
 20
-246.8184
 42
-0.2472492651
  0
VERTEX
  8
LAYER_1
 10
158.279
 20
-247.6018
 42
-0.1502534052
  0
VERTEX
  8
LAYER_1
 10
158.1063
 20
-248.1984
 42
-0.07033867127
  0
VERTEX
  8
LAYER_1
 10
157.9177
 20
-248.4014
 42
-0.1211283655
  0
VERTEX
  8
LAYER_1
 10
157.2351
 20
-248.728
 42
-0.06222086556
  0
VERTEX
  8
LAYER_1
 10
156.4872
 20
-248.8127
 42
-0.05750856268
  0
VERTEX
  8
LAYER_1
 10
156.0015
 20
-248.7793
  0
VERTEX
  8
LAYER_1
 10
156.0015
 20
-250.2793
  0
VERTEX
  8
LAYER_1
 10
155.3969
 20
-250.2793
  0
SEQEND
  0
POLYLINE
  8
LAYER_1
 40
0.05
 41
0.05
 66
1
 10
0
 20
0
 30
0
 70
1
  0
VERTEX
  8
LAYER_1
 10
156.0015
 20
-248.3852
 42
0.04897120882
  0
VERTEX
  8
LAYER_1
 10
156.501
 20
-248.4245
 42
0.1137012619
  0
VERTEX
  8
LAYER_1
 10
157.2816
 20
-248.2659
 42
0.1652714782
  0
VERTEX
  8
LAYER_1
 10
157.6173
 20
-247.9196
 42
0.1043893073
  0
VERTEX
  8
LAYER_1
 10
157.6751
 20
-247.6242
 42
0.2865639904
  0
VERTEX
  8
LAYER_1
 10
157.3169
 20
-247.0395
 42
0.06445412413
  0
VERTEX
  8
LAYER_1
 10
157.0376
 20
-246.9388
 42
0.05784391407
  0
VERTEX
  8
LAYER_1
 10
156.5713
 20
-246.891
 42
0.05268039105
  0
VERTEX
  8
LAYER_1
 10
156.0015
 20
-246.93
  0
SEQEND
  0
ENDBLK
  0
BLOCK
  8
LAYER_1
  2
AIGNBL0104000A
 70
64
 10
0
 20
0
 30
0
  3
AIGNBL0104000A
  0
POLYLINE
  8
LAYER_1
 40
0.05
 41
0.05
 66
1
 10
0
 20
0
 30
0
 70
1
  0
VERTEX
  8
LAYER_1
 10
159.8218
 20
-246.8352
 42
-0.3039545568
  0
VERTEX
  8
LAYER_1
 10
159.6562
 20
-247.0887
 42
-0.1152466046
  0
VERTEX
  8
LAYER_1
 10
159.4325
 20
-247.1356
 42
-0.2445179838
  0
VERTEX
  8
LAYER_1
 10
159.1045
 20
-246.9759
 42
-0.1392448976
  0
VERTEX
  8
LAYER_1
 10
159.0645
 20
-246.8352
 42
-0.2871964131
  0
VERTEX
  8
LAYER_1
 10
159.2352
 20
-246.5772
 42
-0.118108641
  0
VERTEX
  8
LAYER_1
 10
159.4459
 20
-246.53
 42
-0.2414655549
  0
VERTEX
  8
LAYER_1
 10
159.7788
 20
-246.6849
 42
-0.1427828857
  0
SEQEND
  0
POLYLINE
  8
LAYER_1
 40
0.05
 41
0.05
 66
1
 10
0
 20
0
 30
0
 70
1
  0
VERTEX
  8
LAYER_1
 10
159.1407
 20
-250.2793
  0
VERTEX
  8
LAYER_1
 10
159.1407
 20
-247.5907
  0
VERTEX
  8
LAYER_1
 10
159.7515
 20
-247.5907
  0
VERTEX
  8
LAYER_1
 10
159.7515
 20
-250.2793
  0
SEQEND
  0
ENDBLK
  0
BLOCK
  8
LAYER_1
  2
AIGNBL0104000B
 70
64
 10
0
 20
0
 30
0
  3
AIGNBL0104000B
  0
POLYLINE
  8
LAYER_1
 40
0.05
 41
0.05
 66
1
 10
0
 20
0
 30
0
 70
1
  0
VERTEX
  8
LAYER_1
 10
161.6118
 20
-249.1011
  0
VERTEX
  8
LAYER_1
 10
161.1271
 20
-250.2793
  0
VERTEX
  8
LAYER_1
 10
160.5015
 20
-250.2793
  0
VERTEX
  8
LAYER_1
 10
162.0918
 20
-246.5355
  0
VERTEX
  8
LAYER_1
 10
162.8211
 20
-246.5355
  0
VERTEX
  8
LAYER_1
 10
164.4186
 20
-250.2793
  0
VERTEX
  8
LAYER_1
 10
163.7719
 20
-250.2793
  0
VERTEX
  8
LAYER_1
 10
163.2727
 20
-249.1011
  0
SEQEND
  0
POLYLINE
  8
LAYER_1
 40
0.05
 41
0.05
 66
1
 10
0
 20
0
 30
0
 70
1
  0
VERTEX
  8
LAYER_1
 10
163.1473
 20
-248.7245
  0
VERTEX
  8
LAYER_1
 10
162.6891
 20
-247.6459
 42
-0.02473673698
  0
VERTEX
  8
LAYER_1
 10
162.4466
 20
-246.963
  0
VERTEX
  8
LAYER_1
 10
162.4321
 20
-246.963
 42
-0.01905982629
  0
VERTEX
  8
LAYER_1
 10
162.1961
 20
-247.6414
  0
VERTEX
  8
LAYER_1
 10
161.7379
 20
-248.7245
  0
SEQEND
  0
ENDBLK
  0
BLOCK
  8
LAYER_1
  2
AIGNBL01030004
 70
64
 10
0
 20
0
 30
0
  3
AIGNBL01030004
  0
INSERT
  8
LAYER_1
  2
AIGNBL01040005
 10
0
 20
0
 30
0
  0
INSERT
  8
LAYER_1
  2
AIGNBL01040006
 10
0
 20
0
 30
0
  0
INSERT
  8
LAYER_1
  2
AIGNBL01040007
 10
0
 20
0
 30
0
  0
INSERT
  8
LAYER_1
  2
AIGNBL01040008
 10
0
 20
0
 30
0
  0
INSERT
  8
LAYER_1
  2
AIGNBL01040009
 10
0
 20
0
 30
0
  0
INSERT
  8
LAYER_1
  2
AIGNBL0104000A
 10
0
 20
0
 30
0
  0
INSERT
  8
LAYER_1
  2
AIGNBL0104000B
 10
0
 20
0
 30
0
  0
ENDBLK
  0
BLOCK
  8
LAYER_1
  2
AIGNBL0103000D
 70
64
 10
0
 20
0
 30
0
  3
AIGNBL0103000D
  0
POLYLINE
  8
LAYER_1
 40
0.05
 41
0.05
 66
1
 10
0
 20
0
 30
0
 70
1
  0
VERTEX
  8
LAYER_1
 10
137.3756
 20
-252.1676
  0
VERTEX
  8
LAYER_1
 10
137.9258
 20
-252.1676
  0
VERTEX
  8
LAYER_1
 10
137.9258
 20
-252.2609
  0
VERTEX
  8
LAYER_1
 10
137.2715
 20
-252.2609
  0
VERTEX
  8
LAYER_1
 10
137.2715
 20
-251.2339
  0
VERTEX
  8
LAYER_1
 10
137.9082
 20
-251.2339
  0
VERTEX
  8
LAYER_1
 10
137.9082
 20
-251.3266
  0
VERTEX
  8
LAYER_1
 10
137.3756
 20
-251.3266
  0
VERTEX
  8
LAYER_1
 10
137.3756
 20
-251.6787
  0
VERTEX
  8
LAYER_1
 10
137.8734
 20
-251.6787
  0
VERTEX
  8
LAYER_1
 10
137.8734
 20
-251.7717
  0
VERTEX
  8
LAYER_1
 10
137.3756
 20
-251.7717
  0
SEQEND
  0
ENDBLK
  0
BLOCK
  8
LAYER_1
  2
AIGNBL0103000E
 70
64
 10
0
 20
0
 30
0
  3
AIGNBL0103000E
  0
POLYLINE
  8
LAYER_1
 40
0.05
 41
0.05
 66
1
 10
0
 20
0
 30
0
 70
1
  0
VERTEX
  8
LAYER_1
 10
139.0589
 20
-252.1079
  0
VERTEX
  8
LAYER_1
 10
139.0613
 20
-252.1079
  0
VERTEX
  8
LAYER_1
 10
139.0613
 20
-251.2339
  0
VERTEX
  8
LAYER_1
 10
139.1663
 20
-251.2339
  0
VERTEX
  8
LAYER_1
 10
139.1663
 20
-252.2609
  0
VERTEX
  8
LAYER_1
 10
139.0365
 20
-252.2609
  0
VERTEX
  8
LAYER_1
 10
138.4384
 20
-251.3772
  0
VERTEX
  8
LAYER_1
 10
138.435
 20
-251.3772
  0
VERTEX
  8
LAYER_1
 10
138.435
 20
-252.2609
  0
VERTEX
  8
LAYER_1
 10
138.3306
 20
-252.2609
  0
VERTEX
  8
LAYER_1
 10
138.3306
 20
-251.2339
  0
VERTEX
  8
LAYER_1
 10
138.4611
 20
-251.2339
  0
SEQEND
  0
ENDBLK
  0
BLOCK
  8
LAYER_1
  2
AIGNBL0103000F
 70
64
 10
0
 20
0
 30
0
  3
AIGNBL0103000F
  0
POLYLINE
  8
LAYER_1
 40
0.05
 41
0.05
 66
1
 10
0
 20
0
 30
0
 70
1
  0
VERTEX
  8
LAYER_1
 10
139.637
 20
-252.0501
 42
0.1590284934
  0
VERTEX
  8
LAYER_1
 10
139.691
 20
-252.1527
 42
0.1903970375
  0
VERTEX
  8
LAYER_1
 10
139.8034
 20
-252.1937
  0
VERTEX
  8
LAYER_1
 10
139.8922
 20
-252.1744
  0
VERTEX
  8
LAYER_1
 10
139.948
 20
-252.1214
  0
VERTEX
  8
LAYER_1
 10
139.9763
 20
-252.0453
  0
VERTEX
  8
LAYER_1
 10
139.9853
 20
-251.956
  0
VERTEX
  8
LAYER_1
 10
139.9853
 20
-251.2339
  0
VERTEX
  8
LAYER_1
 10
140.0893
 20
-251.2339
  0
VERTEX
  8
LAYER_1
 10
140.0893
 20
-251.965
  0
VERTEX
  8
LAYER_1
 10
140.0783
 20
-252.0718
 42
-0.08830433873
  0
VERTEX
  8
LAYER_1
 10
140.0369
 20
-252.1765
 42
-0.1153589887
  0
VERTEX
  8
LAYER_1
 10
139.9529
 20
-252.2554
 42
-0.1266166698
  0
VERTEX
  8
LAYER_1
 10
139.8147
 20
-252.2868
 42
-0.1823786802
  0
VERTEX
  8
LAYER_1
 10
139.6311
 20
-252.2268
 42
-0.1773090787
  0
VERTEX
  8
LAYER_1
 10
139.5391
 20
-252.0769
  0
SEQEND
  0
ENDBLK
  0
BLOCK
  8
LAYER_1
  2
AIGNBL01030010
 70
64
 10
0
 20
0
 30
0
  3
AIGNBL01030010
  0
POLYLINE
  8
LAYER_1
 40
0.05
 41
0.05
 66
1
 10
0
 20
0
 30
0
 70
1
  0
VERTEX
  8
LAYER_1
 10
141.5693
 20
-251.7469
 42
-0.1023745756
  0
VERTEX
  8
LAYER_1
 10
141.5279
 20
-251.9629
 42
-0.1012381663
  0
VERTEX
  8
LAYER_1
 10
141.4163
 20
-252.1338
 42
-0.09607034471
  0
VERTEX
  8
LAYER_1
 10
141.2458
 20
-252.2461
 42
-0.09758991962
  0
VERTEX
  8
LAYER_1
 10
141.0332
 20
-252.2868
 42
-0.09910038025
  0
VERTEX
  8
LAYER_1
 10
140.8207
 20
-252.2461
 42
-0.09835332354
  0
VERTEX
  8
LAYER_1
 10
140.6512
 20
-252.1338
 42
-0.09652080474
  0
VERTEX
  8
LAYER_1
 10
140.5389
 20
-251.9629
 42
-0.09814472372
  0
VERTEX
  8
LAYER_1
 10
140.4986
 20
-251.7469
 42
-0.1026891031
  0
VERTEX
  8
LAYER_1
 10
140.5389
 20
-251.5306
 42
-0.09919197624
  0
VERTEX
  8
LAYER_1
 10
140.6512
 20
-251.3604
 42
-0.09851015914
  0
VERTEX
  8
LAYER_1
 10
140.8207
 20
-251.2481
 42
-0.0978389277
  0
VERTEX
  8
LAYER_1
 10
141.0332
 20
-251.2071
 42
-0.1012755921
  0
VERTEX
  8
LAYER_1
 10
141.2458
 20
-251.2481
 42
-0.101055447
  0
VERTEX
  8
LAYER_1
 10
141.4163
 20
-251.3604
 42
-0.100284748
  0
VERTEX
  8
LAYER_1
 10
141.5279
 20
-251.5306
 42
-0.09841189494
  0
SEQEND
  0
POLYLINE
  8
LAYER_1
 40
0.05
 41
0.05
 66
1
 10
0
 20
0
 30
0
 70
1
  0
VERTEX
  8
LAYER_1
 10
141.4584
 20
-251.7476
 42
0.08348185165
  0
VERTEX
  8
LAYER_1
 10
141.4301
 20
-251.5767
 42
0.09888736064
  0
VERTEX
  8
LAYER_1
 10
141.3454
 20
-251.4344
 42
0.1046117232
  0
VERTEX
  8
LAYER_1
 10
141.211
 20
-251.337
 42
0.1084373712
  0
VERTEX
  8
LAYER_1
 10
141.0332
 20
-251.3001
 42
0.1126508353
  0
VERTEX
  8
LAYER_1
 10
140.8558
 20
-251.337
 42
0.1080671084
  0
VERTEX
  8
LAYER_1
 10
140.7225
 20
-251.4344
 42
0.09765540905
  0
VERTEX
  8
LAYER_1
 10
140.6374
 20
-251.5767
 42
0.08446298011
  0
VERTEX
  8
LAYER_1
 10
140.6081
 20
-251.7476
 42
0.08257781466
  0
VERTEX
  8
LAYER_1
 10
140.6374
 20
-251.9188
 42
0.1022479965
  0
VERTEX
  8
LAYER_1
 10
140.7225
 20
-252.0607
 42
0.1007994813
  0
VERTEX
  8
LAYER_1
 10
140.8558
 20
-252.1575
 42
0.1058339915
  0
VERTEX
  8
LAYER_1
 10
141.0332
 20
-252.1937
 42
0.1146720599
  0
VERTEX
  8
LAYER_1
 10
141.211
 20
-252.1575
 42
0.1074750371
  0
VERTEX
  8
LAYER_1
 10
141.3454
 20
-252.0607
 42
0.0957445035
  0
VERTEX
  8
LAYER_1
 10
141.4301
 20
-251.9188
 42
0.08253202369
  0
SEQEND
  0
ENDBLK
  0
BLOCK
  8
LAYER_1
  2
AIGNBL01030011
 70
64
 10
0
 20
0
 30
0
  3
AIGNBL01030011
  0
POLYLINE
  8
LAYER_1
 40
0.05
 41
0.05
 66
1
 10
0
 20
0
 30
0
 70
1
  0
VERTEX
  8
LAYER_1
 10
142.3393
 20
-252.2609
  0
VERTEX
  8
LAYER_1
 10
142.2349
 20
-252.2609
  0
VERTEX
  8
LAYER_1
 10
142.2349
 20
-251.8182
  0
VERTEX
  8
LAYER_1
 10
141.8504
 20
-251.2339
  0
VERTEX
  8
LAYER_1
 10
141.9813
 20
-251.2339
  0
VERTEX
  8
LAYER_1
 10
142.2904
 20
-251.7311
  0
VERTEX
  8
LAYER_1
 10
142.6022
 20
-251.2339
  0
VERTEX
  8
LAYER_1
 10
142.7234
 20
-251.2339
  0
VERTEX
  8
LAYER_1
 10
142.3393
 20
-251.8182
  0
SEQEND
  0
ENDBLK
  0
BLOCK
  8
LAYER_1
  2
AIGNBL01030012
 70
64
 10
0
 20
0
 30
0
  3
AIGNBL01030012
  0
POLYLINE
  8
LAYER_1
 40
0.05
 41
0.05
 66
1
 10
0
 20
0
 30
0
 70
1
  0
VERTEX
  8
LAYER_1
 10
143.6236
 20
-251.2339
  0
VERTEX
  8
LAYER_1
 10
143.9288
 20
-251.2339
  0
VERTEX
  8
LAYER_1
 10
144.047
 20
-251.2457
  0
VERTEX
  8
LAYER_1
 10
144.1528
 20
-251.288
 42
-0.1142786728
  0
VERTEX
  8
LAYER_1
 10
144.2307
 20
-251.3686
 42
-0.1221660448
  0
VERTEX
  8
LAYER_1
 10
144.2603
 20
-251.4961
 42
-0.1789908253
  0
VERTEX
  8
LAYER_1
 10
144.2103
 20
-251.6373
 42
-0.1682964985
  0
VERTEX
  8
LAYER_1
 10
144.078
 20
-251.7166
  0
VERTEX
  8
LAYER_1
 10
144.078
 20
-251.7194
 42
-0.1720252291
  0
VERTEX
  8
LAYER_1
 10
144.2434
 20
-251.7969
 42
-0.2011476059
  0
VERTEX
  8
LAYER_1
 10
144.3099
 20
-251.9764
 42
-0.1263581039
  0
VERTEX
  8
LAYER_1
 10
144.2823
 20
-252.0928
 42
-0.1151202894
  0
VERTEX
  8
LAYER_1
 10
144.2062
 20
-252.1831
 42
-0.08559391469
  0
VERTEX
  8
LAYER_1
 10
144.0866
 20
-252.2402
 42
-0.06581098886
  0
VERTEX
  8
LAYER_1
 10
143.9275
 20
-252.2609
  0
VERTEX
  8
LAYER_1
 10
143.6236
 20
-252.2609
  0
SEQEND
  0
POLYLINE
  8
LAYER_1
 40
0.05
 41
0.05
 66
1
 10
0
 20
0
 30
0
 70
1
  0
VERTEX
  8
LAYER_1
 10
143.7277
 20
-251.6832
  0
VERTEX
  8
LAYER_1
 10
143.9382
 20
-251.6832
  0
VERTEX
  8
LAYER_1
 10
144.0146
 20
-251.6742
  0
VERTEX
  8
LAYER_1
 10
144.0842
 20
-251.6453
  0
VERTEX
  8
LAYER_1
 10
144.1362
 20
-251.5888
 42
0.1124449043
  0
VERTEX
  8
LAYER_1
 10
144.1552
 20
-251.5034
  0
VERTEX
  8
LAYER_1
 10
144.1362
 20
-251.4203
  0
VERTEX
  8
LAYER_1
 10
144.0835
 20
-251.3638
  0
VERTEX
  8
LAYER_1
 10
144.005
 20
-251.3328
  0
VERTEX
  8
LAYER_1
 10
143.9089
 20
-251.3235
  0
VERTEX
  8
LAYER_1
 10
143.7277
 20
-251.3235
  0
SEQEND
  0
POLYLINE
  8
LAYER_1
 40
0.05
 41
0.05
 66
1
 10
0
 20
0
 30
0
 70
1
  0
VERTEX
  8
LAYER_1
 10
143.7277
 20
-252.171
  0
VERTEX
  8
LAYER_1
 10
143.9223
 20
-252.171
  0
VERTEX
  8
LAYER_1
 10
144.0301
 20
-252.1596
  0
VERTEX
  8
LAYER_1
 10
144.1204
 20
-252.1252
  0
VERTEX
  8
LAYER_1
 10
144.181
 20
-252.0625
 42
0.1349508047
  0
VERTEX
  8
LAYER_1
 10
144.2048
 20
-251.9705
 42
0.2483168689
  0
VERTEX
  8
LAYER_1
 10
144.1362
 20
-251.8189
 42
0.1537491355
  0
VERTEX
  8
LAYER_1
 10
143.9413
 20
-251.7686
  0
VERTEX
  8
LAYER_1
 10
143.7277
 20
-251.7686
  0
SEQEND
  0
ENDBLK
  0
BLOCK
  8
LAYER_1
  2
AIGNBL01030013
 70
64
 10
0
 20
0
 30
0
  3
AIGNBL01030013
  0
POLYLINE
  8
LAYER_1
 40
0.05
 41
0.05
 66
1
 10
0
 20
0
 30
0
 70
1
  0
VERTEX
  8
LAYER_1
 10
144.7388
 20
-252.2609
  0
VERTEX
  8
LAYER_1
 10
144.6241
 20
-252.2609
  0
VERTEX
  8
LAYER_1
 10
145.0685
 20
-251.2339
  0
VERTEX
  8
LAYER_1
 10
145.1705
 20
-251.2339
  0
VERTEX
  8
LAYER_1
 10
145.6111
 20
-252.2609
  0
VERTEX
  8
LAYER_1
 10
145.4943
 20
-252.2609
  0
VERTEX
  8
LAYER_1
 10
145.3813
 20
-251.9912
  0
VERTEX
  8
LAYER_1
 10
144.8504
 20
-251.9912
  0
SEQEND
  0
POLYLINE
  8
LAYER_1
 40
0.05
 41
0.05
 66
1
 10
0
 20
0
 30
0
 70
1
  0
VERTEX
  8
LAYER_1
 10
144.8894
 20
-251.8947
  0
VERTEX
  8
LAYER_1
 10
145.3424
 20
-251.8947
  0
VERTEX
  8
LAYER_1
 10
145.1164
 20
-251.3493
  0
SEQEND
  0
ENDBLK
  0
BLOCK
  8
LAYER_1
  2
AIGNBL01030014
 70
64
 10
0
 20
0
 30
0
  3
AIGNBL01030014
  0
POLYLINE
  8
LAYER_1
 40
0.05
 41
0.05
 66
1
 10
0
 20
0
 30
0
 70
1
  0
VERTEX
  8
LAYER_1
 10
146.2915
 20
-252.2609
  0
VERTEX
  8
LAYER_1
 10
146.1871
 20
-252.2609
  0
VERTEX
  8
LAYER_1
 10
146.1871
 20
-251.3266
  0
VERTEX
  8
LAYER_1
 10
145.8426
 20
-251.3266
  0
VERTEX
  8
LAYER_1
 10
145.8426
 20
-251.2339
  0
VERTEX
  8
LAYER_1
 10
146.635
 20
-251.2339
  0
VERTEX
  8
LAYER_1
 10
146.635
 20
-251.3266
  0
VERTEX
  8
LAYER_1
 10
146.2915
 20
-251.3266
  0
SEQEND
  0
ENDBLK
  0
BLOCK
  8
LAYER_1
  2
AIGNBL01030015
 70
64
 10
0
 20
0
 30
0
  3
AIGNBL01030015
  0
POLYLINE
  8
LAYER_1
 40
0.05
 41
0.05
 66
1
 10
0
 20
0
 30
0
 70
1
  0
VERTEX
  8
LAYER_1
 10
146.9888
 20
-251.2339
  0
VERTEX
  8
LAYER_1
 10
147.0932
 20
-251.2339
  0
VERTEX
  8
LAYER_1
 10
147.0932
 20
-251.6787
  0
VERTEX
  8
LAYER_1
 10
147.654
 20
-251.6787
  0
VERTEX
  8
LAYER_1
 10
147.654
 20
-251.2339
  0
VERTEX
  8
LAYER_1
 10
147.7581
 20
-251.2339
  0
VERTEX
  8
LAYER_1
 10
147.7581
 20
-252.2609
  0
VERTEX
  8
LAYER_1
 10
147.654
 20
-252.2609
  0
VERTEX
  8
LAYER_1
 10
147.654
 20
-251.7745
  0
VERTEX
  8
LAYER_1
 10
147.0932
 20
-251.7745
  0
VERTEX
  8
LAYER_1
 10
147.0932
 20
-252.2609
  0
VERTEX
  8
LAYER_1
 10
146.9888
 20
-252.2609
  0
SEQEND
  0
ENDBLK
  0
BLOCK
  8
LAYER_1
  2
AIGNBL01030016
 70
64
 10
0
 20
0
 30
0
  3
AIGNBL01030016
  0
POLYLINE
  8
LAYER_1
 40
0.05
 41
0.05
 66
1
 10
0
 20
0
 30
0
 70
1
  0
VERTEX
  8
LAYER_1
 10
148.3351
 20
-252.2609
  0
VERTEX
  8
LAYER_1
 10
148.2311
 20
-252.2609
  0
VERTEX
  8
LAYER_1
 10
148.2311
 20
-251.2339
  0
VERTEX
  8
LAYER_1
 10
148.5322
 20
-251.2339
  0
VERTEX
  8
LAYER_1
 10
148.6724
 20
-251.2481
 42
-0.1023663758
  0
VERTEX
  8
LAYER_1
 10
148.7844
 20
-251.2953
 42
-0.1332028562
  0
VERTEX
  8
LAYER_1
 10
148.8571
 20
-251.38
 42
-0.109414644
  0
VERTEX
  8
LAYER_1
 10
148.8829
 20
-251.5078
  0
VERTEX
  8
LAYER_1
 10
148.8636
 20
-251.6108
  0
VERTEX
  8
LAYER_1
 10
148.8088
 20
-251.6911
  0
VERTEX
  8
LAYER_1
 10
148.7258
 20
-251.7459
  0
VERTEX
  8
LAYER_1
 10
148.6214
 20
-251.7717
  0
VERTEX
  8
LAYER_1
 10
148.9211
 20
-252.2609
  0
VERTEX
  8
LAYER_1
 10
148.7937
 20
-252.2609
  0
VERTEX
  8
LAYER_1
 10
148.5098
 20
-251.7807
  0
VERTEX
  8
LAYER_1
 10
148.3351
 20
-251.7807
  0
SEQEND
  0
POLYLINE
  8
LAYER_1
 40
0.05
 41
0.05
 66
1
 10
0
 20
0
 30
0
 70
1
  0
VERTEX
  8
LAYER_1
 10
148.3351
 20
-251.6904
  0
VERTEX
  8
LAYER_1
 10
148.517
 20
-251.6904
 42
0.1513063474
  0
VERTEX
  8
LAYER_1
 10
148.711
 20
-251.6453
 42
0.2568804362
  0
VERTEX
  8
LAYER_1
 10
148.7799
 20
-251.5078
  0
VERTEX
  8
LAYER_1
 10
148.7602
 20
-251.4224
 42
0.1232056022
  0
VERTEX
  8
LAYER_1
 10
148.7079
 20
-251.3652
  0
VERTEX
  8
LAYER_1
 10
148.6269
 20
-251.3338
  0
VERTEX
  8
LAYER_1
 10
148.5212
 20
-251.3235
  0
VERTEX
  8
LAYER_1
 10
148.3351
 20
-251.3235
  0
SEQEND
  0
ENDBLK
  0
BLOCK
  8
LAYER_1
  2
AIGNBL01030017
 70
64
 10
0
 20
0
 30
0
  3
AIGNBL01030017
  0
POLYLINE
  8
LAYER_1
 40
0.05
 41
0.05
 66
1
 10
0
 20
0
 30
0
 70
1
  0
VERTEX
  8
LAYER_1
 10
150.3154
 20
-251.7469
 42
-0.09975403421
  0
VERTEX
  8
LAYER_1
 10
150.2747
 20
-251.9629
 42
-0.09935173186
  0
VERTEX
  8
LAYER_1
 10
150.1624
 20
-252.1338
 42
-0.09811740303
  0
VERTEX
  8
LAYER_1
 10
149.9926
 20
-252.2461
 42
-0.09708882113
  0
VERTEX
  8
LAYER_1
 10
149.78
 20
-252.2868
 42
-0.09940093633
  0
VERTEX
  8
LAYER_1
 10
149.5674
 20
-252.2461
 42
-0.1007896559
  0
VERTEX
  8
LAYER_1
 10
149.3979
 20
-252.1338
 42
-0.09768152712
  0
VERTEX
  8
LAYER_1
 10
149.2856
 20
-251.9629
 42
-0.09531839447
  0
VERTEX
  8
LAYER_1
 10
149.2453
 20
-251.7469
 42
-0.09746952437
  0
VERTEX
  8
LAYER_1
 10
149.2856
 20
-251.5306
 42
-0.09925134223
  0
VERTEX
  8
LAYER_1
 10
149.3979
 20
-251.3604
 42
-0.1005970746
  0
VERTEX
  8
LAYER_1
 10
149.5674
 20
-251.2481
 42
-0.09815409965
  0
VERTEX
  8
LAYER_1
 10
149.78
 20
-251.2071
 42
-0.1003559568
  0
VERTEX
  8
LAYER_1
 10
149.9926
 20
-251.2481
 42
-0.1030391221
  0
VERTEX
  8
LAYER_1
 10
150.1624
 20
-251.3604
 42
-0.09760938344
  0
VERTEX
  8
LAYER_1
 10
150.2747
 20
-251.5306
 42
-0.09618621792
  0
SEQEND
  0
POLYLINE
  8
LAYER_1
 40
0.05
 41
0.05
 66
1
 10
0
 20
0
 30
0
 70
1
  0
VERTEX
  8
LAYER_1
 10
150.2051
 20
-251.7476
 42
0.08928566433
  0
VERTEX
  8
LAYER_1
 10
150.1762
 20
-251.5767
 42
0.0967309921
  0
VERTEX
  8
LAYER_1
 10
150.0921
 20
-251.4344
 42
0.1033640041
  0
VERTEX
  8
LAYER_1
 10
149.9581
 20
-251.337
 42
0.1075765453
  0
VERTEX
  8
LAYER_1
 10
149.78
 20
-251.3001
 42
0.1148421003
  0
VERTEX
  8
LAYER_1
 10
149.6026
 20
-251.337
 42
0.106797523
  0
VERTEX
  8
LAYER_1
 10
149.4682
 20
-251.4344
 42
0.09375888087
  0
VERTEX
  8
LAYER_1
 10
149.3842
 20
-251.5767
 42
0.08542444587
  0
VERTEX
  8
LAYER_1
 10
149.3549
 20
-251.7476
 42
0.08738527021
  0
VERTEX
  8
LAYER_1
 10
149.3842
 20
-251.9188
 42
0.09670329037
  0
VERTEX
  8
LAYER_1
 10
149.4682
 20
-252.0607
 42
0.09891153362
  0
VERTEX
  8
LAYER_1
 10
149.6026
 20
-252.1575
 42
0.1067011915
  0
VERTEX
  8
LAYER_1
 10
149.78
 20
-252.1937
 42
0.1133540876
  0
VERTEX
  8
LAYER_1
 10
149.9581
 20
-252.1575
 42
0.1038012544
  0
VERTEX
  8
LAYER_1
 10
150.0921
 20
-252.0607
 42
0.09726416843
  0
VERTEX
  8
LAYER_1
 10
150.1762
 20
-251.9188
 42
0.0854375021
  0
SEQEND
  0
ENDBLK
  0
BLOCK
  8
LAYER_1
  2
AIGNBL01030018
 70
64
 10
0
 20
0
 30
0
  3
AIGNBL01030018
  0
POLYLINE
  8
LAYER_1
 40
0.05
 41
0.05
 66
1
 10
0
 20
0
 30
0
 70
1
  0
VERTEX
  8
LAYER_1
 10
151.7489
 20
-251.7469
 42
-0.09970583877
  0
VERTEX
  8
LAYER_1
 10
151.7086
 20
-251.9629
 42
-0.0976989983
  0
VERTEX
  8
LAYER_1
 10
151.5963
 20
-252.1338
 42
-0.09521451671
  0
VERTEX
  8
LAYER_1
 10
151.4264
 20
-252.2461
 42
-0.09711421911
  0
VERTEX
  8
LAYER_1
 10
151.2139
 20
-252.2868
 42
-0.1003065361
  0
VERTEX
  8
LAYER_1
 10
151.0013
 20
-252.2461
 42
-0.1012502646
  0
VERTEX
  8
LAYER_1
 10
150.8318
 20
-252.1338
 42
-0.09902147312
  0
VERTEX
  8
LAYER_1
 10
150.7188
 20
-251.9629
 42
-0.09657946775
  0
VERTEX
  8
LAYER_1
 10
150.6781
 20
-251.7469
 42
-0.09892706014
  0
VERTEX
  8
LAYER_1
 10
150.7188
 20
-251.5306
 42
-0.1025433378
  0
VERTEX
  8
LAYER_1
 10
150.8318
 20
-251.3604
 42
-0.1009513296
  0
VERTEX
  8
LAYER_1
 10
151.0013
 20
-251.2481
 42
-0.09841178888
  0
VERTEX
  8
LAYER_1
 10
151.2139
 20
-251.2071
 42
-0.1004512574
  0
VERTEX
  8
LAYER_1
 10
151.4264
 20
-251.2481
 42
-0.09871557407
  0
VERTEX
  8
LAYER_1
 10
151.5963
 20
-251.3604
 42
-0.09679690961
  0
VERTEX
  8
LAYER_1
 10
151.7086
 20
-251.5306
 42
-0.09571421233
  0
SEQEND
  0
POLYLINE
  8
LAYER_1
 40
0.05
 41
0.05
 66
1
 10
0
 20
0
 30
0
 70
1
  0
VERTEX
  8
LAYER_1
 10
151.639
 20
-251.7476
 42
0.08698818876
  0
VERTEX
  8
LAYER_1
 10
151.61
 20
-251.5767
 42
0.0956708921
  0
VERTEX
  8
LAYER_1
 10
151.526
 20
-251.4344
 42
0.1033803157
  0
VERTEX
  8
LAYER_1
 10
151.3916
 20
-251.337
 42
0.1075718589
  0
VERTEX
  8
LAYER_1
 10
151.2139
 20
-251.3001
 42
0.1154259577
  0
VERTEX
  8
LAYER_1
 10
151.0361
 20
-251.337
 42
0.1064173637
  0
VERTEX
  8
LAYER_1
 10
150.9017
 20
-251.4344
 42
0.1028942614
  0
VERTEX
  8
LAYER_1
 10
150.818
 20
-251.5767
 42
0.08542444587
  0
VERTEX
  8
LAYER_1
 10
150.7887
 20
-251.7476
 42
0.08738527021
  0
VERTEX
  8
LAYER_1
 10
150.818
 20
-251.9188
 42
0.1032562832
  0
VERTEX
  8
LAYER_1
 10
150.9017
 20
-252.0607
 42
0.1008165521
  0
VERTEX
  8
LAYER_1
 10
151.0361
 20
-252.1575
 42
0.1069398409
  0
VERTEX
  8
LAYER_1
 10
151.2139
 20
-252.1937
 42
0.1127969838
  0
VERTEX
  8
LAYER_1
 10
151.3916
 20
-252.1575
 42
0.1024372123
  0
VERTEX
  8
LAYER_1
 10
151.526
 20
-252.0607
 42
0.09088614582
  0
VERTEX
  8
LAYER_1
 10
151.61
 20
-251.9188
 42
0.08498619229
  0
SEQEND
  0
ENDBLK
  0
BLOCK
  8
LAYER_1
  2
AIGNBL01030019
 70
64
 10
0
 20
0
 30
0
  3
AIGNBL01030019
  0
POLYLINE
  8
LAYER_1
 40
0.05
 41
0.05
 66
1
 10
0
 20
0
 30
0
 70
1
  0
VERTEX
  8
LAYER_1
 10
152.6742
 20
-252.0839
  0
VERTEX
  8
LAYER_1
 10
152.6756
 20
-252.0839
  0
VERTEX
  8
LAYER_1
 10
153.0194
 20
-251.2339
  0
VERTEX
  8
LAYER_1
 10
153.1793
 20
-251.2339
  0
VERTEX
  8
LAYER_1
 10
153.1793
 20
-252.2609
  0
VERTEX
  8
LAYER_1
 10
153.0749
 20
-252.2609
  0
VERTEX
  8
LAYER_1
 10
153.0749
 20
-251.3686
  0
VERTEX
  8
LAYER_1
 10
153.0718
 20
-251.3686
  0
VERTEX
  8
LAYER_1
 10
152.7007
 20
-252.2609
  0
VERTEX
  8
LAYER_1
 10
152.646
 20
-252.2609
  0
VERTEX
  8
LAYER_1
 10
152.2743
 20
-251.3686
  0
VERTEX
  8
LAYER_1
 10
152.2708
 20
-251.3686
  0
VERTEX
  8
LAYER_1
 10
152.2708
 20
-252.2609
  0
VERTEX
  8
LAYER_1
 10
152.1668
 20
-252.2609
  0
VERTEX
  8
LAYER_1
 10
152.1668
 20
-251.2339
  0
VERTEX
  8
LAYER_1
 10
152.327
 20
-251.2339
  0
SEQEND
  0
ENDBLK
  0
BLOCK
  8
LAYER_1
  2
AIGNBL0103001A
 70
64
 10
0
 20
0
 30
0
  3
AIGNBL0103001A
  0
POLYLINE
  8
LAYER_1
 40
0.05
 41
0.05
 66
1
 10
0
 20
0
 30
0
 70
1
  0
VERTEX
  8
LAYER_1
 10
154.3196
 20
-252.1676
  0
VERTEX
  8
LAYER_1
 10
154.8694
 20
-252.1676
  0
VERTEX
  8
LAYER_1
 10
154.8694
 20
-252.2609
  0
VERTEX
  8
LAYER_1
 10
154.2145
 20
-252.2609
  0
VERTEX
  8
LAYER_1
 10
154.2145
 20
-251.2339
  0
VERTEX
  8
LAYER_1
 10
154.8522
 20
-251.2339
  0
VERTEX
  8
LAYER_1
 10
154.8522
 20
-251.3263
  0
VERTEX
  8
LAYER_1
 10
154.3196
 20
-251.3263
  0
VERTEX
  8
LAYER_1
 10
154.3196
 20
-251.6787
  0
VERTEX
  8
LAYER_1
 10
154.8167
 20
-251.6787
  0
VERTEX
  8
LAYER_1
 10
154.8167
 20
-251.7717
  0
VERTEX
  8
LAYER_1
 10
154.3196
 20
-251.7717
  0
SEQEND
  0
ENDBLK
  0
BLOCK
  8
LAYER_1
  2
AIGNBL0103001B
 70
64
 10
0
 20
0
 30
0
  3
AIGNBL0103001B
  0
POLYLINE
  8
LAYER_1
 40
0.05
 41
0.05
 66
1
 10
0
 20
0
 30
0
 70
1
  0
VERTEX
  8
LAYER_1
 10
155.6101
 20
-251.6484
  0
VERTEX
  8
LAYER_1
 10
155.8906
 20
-251.2339
  0
VERTEX
  8
LAYER_1
 10
156.0153
 20
-251.2339
  0
VERTEX
  8
LAYER_1
 10
155.6749
 20
-251.7221
  0
VERTEX
  8
LAYER_1
 10
156.0518
 20
-252.2609
  0
VERTEX
  8
LAYER_1
 10
155.9216
 20
-252.2609
  0
VERTEX
  8
LAYER_1
 10
155.6081
 20
-251.7979
  0
VERTEX
  8
LAYER_1
 10
155.296
 20
-252.2609
  0
VERTEX
  8
LAYER_1
 10
155.165
 20
-252.2609
  0
VERTEX
  8
LAYER_1
 10
155.5426
 20
-251.7211
  0
VERTEX
  8
LAYER_1
 10
155.1988
 20
-251.2339
  0
VERTEX
  8
LAYER_1
 10
155.329
 20
-251.2339
  0
SEQEND
  0
ENDBLK
  0
BLOCK
  8
LAYER_1
  2
AIGNBL0103001C
 70
64
 10
0
 20
0
 30
0
  3
AIGNBL0103001C
  0
POLYLINE
  8
LAYER_1
 40
0.05
 41
0.05
 66
1
 10
0
 20
0
 30
0
 70
1
  0
VERTEX
  8
LAYER_1
 10
156.4159
 20
-251.2339
  0
VERTEX
  8
LAYER_1
 10
156.706
 20
-251.2339
  0
VERTEX
  8
LAYER_1
 10
156.8487
 20
-251.2498
 42
-0.110657953
  0
VERTEX
  8
LAYER_1
 10
156.9575
 20
-251.3015
 42
-0.1163763428
  0
VERTEX
  8
LAYER_1
 10
157.0288
 20
-251.3866
 42
-0.1004779162
  0
VERTEX
  8
LAYER_1
 10
157.053
 20
-251.5078
 42
-0.1135751127
  0
VERTEX
  8
LAYER_1
 10
157.0281
 20
-251.6291
 42
-0.1113908719
  0
VERTEX
  8
LAYER_1
 10
156.9568
 20
-251.7145
 42
-0.08575538996
  0
VERTEX
  8
LAYER_1
 10
156.8459
 20
-251.7659
 42
-0.06072195454
  0
VERTEX
  8
LAYER_1
 10
156.7032
 20
-251.7831
  0
VERTEX
  8
LAYER_1
 10
156.5203
 20
-251.7831
  0
VERTEX
  8
LAYER_1
 10
156.5203
 20
-252.2609
  0
VERTEX
  8
LAYER_1
 10
156.4159
 20
-252.2609
  0
SEQEND
  0
POLYLINE
  8
LAYER_1
 40
0.05
 41
0.05
 66
1
 10
0
 20
0
 30
0
 70
1
  0
VERTEX
  8
LAYER_1
 10
156.5203
 20
-251.6949
  0
VERTEX
  8
LAYER_1
 10
156.6974
 20
-251.6949
 42
0.1668395642
  0
VERTEX
  8
LAYER_1
 10
156.8848
 20
-251.6474
 42
0.2433158568
  0
VERTEX
  8
LAYER_1
 10
156.9489
 20
-251.5078
 42
0.2579107644
  0
VERTEX
  8
LAYER_1
 10
156.8824
 20
-251.3676
 42
0.1431777658
  0
VERTEX
  8
LAYER_1
 10
156.6974
 20
-251.3235
  0
VERTEX
  8
LAYER_1
 10
156.5203
 20
-251.3235
  0
SEQEND
  0
ENDBLK
  0
BLOCK
  8
LAYER_1
  2
AIGNBL0103001D
 70
64
 10
0
 20
0
 30
0
  3
AIGNBL0103001D
  0
POLYLINE
  8
LAYER_1
 40
0.05
 41
0.05
 66
1
 10
0
 20
0
 30
0
 70
1
  0
VERTEX
  8
LAYER_1
 10
157.5621
 20
-252.1676
  0
VERTEX
  8
LAYER_1
 10
158.1116
 20
-252.1676
  0
VERTEX
  8
LAYER_1
 10
158.1116
 20
-252.2609
  0
VERTEX
  8
LAYER_1
 10
157.4577
 20
-252.2609
  0
VERTEX
  8
LAYER_1
 10
157.4577
 20
-251.2339
  0
VERTEX
  8
LAYER_1
 10
158.0947
 20
-251.2339
  0
VERTEX
  8
LAYER_1
 10
158.0947
 20
-251.3263
  0
VERTEX
  8
LAYER_1
 10
157.5621
 20
-251.3263
  0
VERTEX
  8
LAYER_1
 10
157.5621
 20
-251.6787
  0
VERTEX
  8
LAYER_1
 10
158.0599
 20
-251.6787
  0
VERTEX
  8
LAYER_1
 10
158.0599
 20
-251.7717
  0
VERTEX
  8
LAYER_1
 10
157.5621
 20
-251.7717
  0
SEQEND
  0
ENDBLK
  0
BLOCK
  8
LAYER_1
  2
AIGNBL0103001E
 70
64
 10
0
 20
0
 30
0
  3
AIGNBL0103001E
  0
POLYLINE
  8
LAYER_1
 40
0.05
 41
0.05
 66
1
 10
0
 20
0
 30
0
 70
1
  0
VERTEX
  8
LAYER_1
 10
158.6208
 20
-252.2609
  0
VERTEX
  8
LAYER_1
 10
158.5168
 20
-252.2609
  0
VERTEX
  8
LAYER_1
 10
158.5168
 20
-251.2339
  0
VERTEX
  8
LAYER_1
 10
158.8185
 20
-251.2339
  0
VERTEX
  8
LAYER_1
 10
158.9584
 20
-251.2481
 42
-0.1005953548
  0
VERTEX
  8
LAYER_1
 10
159.07
 20
-251.2953
 42
-0.1225647981
  0
VERTEX
  8
LAYER_1
 10
159.1438
 20
-251.38
 42
-0.1056037953
  0
VERTEX
  8
LAYER_1
 10
159.1696
 20
-251.5078
 42
-0.113550017
  0
VERTEX
  8
LAYER_1
 10
159.1493
 20
-251.6105
  0
VERTEX
  8
LAYER_1
 10
159.0945
 20
-251.6915
  0
VERTEX
  8
LAYER_1
 10
159.0111
 20
-251.7459
  0
VERTEX
  8
LAYER_1
 10
158.9067
 20
-251.7717
  0
VERTEX
  8
LAYER_1
 10
159.2075
 20
-252.2609
  0
VERTEX
  8
LAYER_1
 10
159.08
 20
-252.2609
  0
VERTEX
  8
LAYER_1
 10
158.7955
 20
-251.7803
  0
VERTEX
  8
LAYER_1
 10
158.6208
 20
-251.7803
  0
SEQEND
  0
POLYLINE
  8
LAYER_1
 40
0.05
 41
0.05
 66
1
 10
0
 20
0
 30
0
 70
1
  0
VERTEX
  8
LAYER_1
 10
158.6208
 20
-251.69
  0
VERTEX
  8
LAYER_1
 10
158.8027
 20
-251.69
 42
0.1507170359
  0
VERTEX
  8
LAYER_1
 10
158.9974
 20
-251.6453
 42
0.2579683273
  0
VERTEX
  8
LAYER_1
 10
159.0652
 20
-251.5078
  0
VERTEX
  8
LAYER_1
 10
159.047
 20
-251.4224
  0
VERTEX
  8
LAYER_1
 10
158.9943
 20
-251.3652
  0
VERTEX
  8
LAYER_1
 10
158.9123
 20
-251.3338
  0
VERTEX
  8
LAYER_1
 10
158.8065
 20
-251.3235
  0
VERTEX
  8
LAYER_1
 10
158.6208
 20
-251.3235
  0
SEQEND
  0
ENDBLK
  0
BLOCK
  8
LAYER_1
  2
AIGNBL0103001F
 70
64
 10
0
 20
0
 30
0
  3
AIGNBL0103001F
  0
POLYLINE
  8
LAYER_1
 40
0.05
 41
0.05
 66
1
 10
0
 20
0
 30
0
 70
1
  0
VERTEX
  8
LAYER_1
 10
159.6898
 20
-252.2609
  0
VERTEX
  8
LAYER_1
 10
159.5865
 20
-252.2609
  0
VERTEX
  8
LAYER_1
 10
159.5865
 20
-251.2339
  0
VERTEX
  8
LAYER_1
 10
159.6898
 20
-251.2339
  0
SEQEND
  0
ENDBLK
  0
BLOCK
  8
LAYER_1
  2
AIGNBL01030020
 70
64
 10
0
 20
0
 30
0
  3
AIGNBL01030020
  0
POLYLINE
  8
LAYER_1
 40
0.05
 41
0.05
 66
1
 10
0
 20
0
 30
0
 70
1
  0
VERTEX
  8
LAYER_1
 10
160.2676
 20
-252.1676
  0
VERTEX
  8
LAYER_1
 10
160.8174
 20
-252.1676
  0
VERTEX
  8
LAYER_1
 10
160.8174
 20
-252.2609
  0
VERTEX
  8
LAYER_1
 10
160.1639
 20
-252.2609
  0
VERTEX
  8
LAYER_1
 10
160.1639
 20
-251.2339
  0
VERTEX
  8
LAYER_1
 10
160.8005
 20
-251.2339
  0
VERTEX
  8
LAYER_1
 10
160.8005
 20
-251.3263
  0
VERTEX
  8
LAYER_1
 10
160.2676
 20
-251.3263
  0
VERTEX
  8
LAYER_1
 10
160.2676
 20
-251.6787
  0
VERTEX
  8
LAYER_1
 10
160.7654
 20
-251.6787
  0
VERTEX
  8
LAYER_1
 10
160.7654
 20
-251.7717
  0
VERTEX
  8
LAYER_1
 10
160.2676
 20
-251.7717
  0
SEQEND
  0
ENDBLK
  0
BLOCK
  8
LAYER_1
  2
AIGNBL01030021
 70
64
 10
0
 20
0
 30
0
  3
AIGNBL01030021
  0
POLYLINE
  8
LAYER_1
 40
0.05
 41
0.05
 66
1
 10
0
 20
0
 30
0
 70
1
  0
VERTEX
  8
LAYER_1
 10
161.9505
 20
-252.1079
  0
VERTEX
  8
LAYER_1
 10
161.9536
 20
-252.1079
  0
VERTEX
  8
LAYER_1
 10
161.9536
 20
-251.2339
  0
VERTEX
  8
LAYER_1
 10
162.058
 20
-251.2339
  0
VERTEX
  8
LAYER_1
 10
162.058
 20
-252.2609
  0
VERTEX
  8
LAYER_1
 10
161.9277
 20
-252.2609
  0
VERTEX
  8
LAYER_1
 10
161.3297
 20
-251.3772
  0
VERTEX
  8
LAYER_1
 10
161.3266
 20
-251.3772
  0
VERTEX
  8
LAYER_1
 10
161.3266
 20
-252.2609
  0
VERTEX
  8
LAYER_1
 10
161.2222
 20
-252.2609
  0
VERTEX
  8
LAYER_1
 10
161.2222
 20
-251.2339
  0
VERTEX
  8
LAYER_1
 10
161.3535
 20
-251.2339
  0
SEQEND
  0
ENDBLK
  0
BLOCK
  8
LAYER_1
  2
AIGNBL01030022
 70
64
 10
0
 20
0
 30
0
  3
AIGNBL01030022
  0
POLYLINE
  8
LAYER_1
 40
0.05
 41
0.05
 66
1
 10
0
 20
0
 30
0
 70
1
  0
VERTEX
  8
LAYER_1
 10
163.396
 20
-252.0942
  0
VERTEX
  8
LAYER_1
 10
163.3323
 20
-252.1679
  0
VERTEX
  8
LAYER_1
 10
163.2469
 20
-252.2295
  0
VERTEX
  8
LAYER_1
 10
163.1394
 20
-252.2716
  0
VERTEX
  8
LAYER_1
 10
163.0112
 20
-252.2868
 42
-0.09929103144
  0
VERTEX
  8
LAYER_1
 10
162.7966
 20
-252.2461
 42
-0.1031170142
  0
VERTEX
  8
LAYER_1
 10
162.6271
 20
-252.1335
 42
-0.1024256256
  0
VERTEX
  8
LAYER_1
 10
162.5162
 20
-251.9633
 42
-0.09780652729
  0
VERTEX
  8
LAYER_1
 10
162.4759
 20
-251.7469
 42
-0.1005543907
  0
VERTEX
  8
LAYER_1
 10
162.5169
 20
-251.5306
 42
-0.09980539098
  0
VERTEX
  8
LAYER_1
 10
162.6285
 20
-251.3604
 42
-0.09707816065
  0
VERTEX
  8
LAYER_1
 10
162.798
 20
-251.2481
 42
-0.09782536185
  0
VERTEX
  8
LAYER_1
 10
163.0112
 20
-251.2071
  0
VERTEX
  8
LAYER_1
 10
163.1222
 20
-251.2191
  0
VERTEX
  8
LAYER_1
 10
163.2252
 20
-251.2522
  0
VERTEX
  8
LAYER_1
 10
163.3117
 20
-251.3035
  0
VERTEX
  8
LAYER_1
 10
163.3767
 20
-251.3711
  0
VERTEX
  8
LAYER_1
 10
163.2906
 20
-251.4355
  0
VERTEX
  8
LAYER_1
 10
163.2469
 20
-251.3858
  0
VERTEX
  8
LAYER_1
 10
163.1835
 20
-251.3421
  0
VERTEX
  8
LAYER_1
 10
163.1043
 20
-251.3114
  0
VERTEX
  8
LAYER_1
 10
163.0126
 20
-251.3001
 42
0.111032742
  0
VERTEX
  8
LAYER_1
 10
162.8338
 20
-251.3362
 42
0.1048566985
  0
VERTEX
  8
LAYER_1
 10
162.6998
 20
-251.4338
 42
0.09649516609
  0
VERTEX
  8
LAYER_1
 10
162.6147
 20
-251.5764
 42
0.08187604402
  0
VERTEX
  8
LAYER_1
 10
162.5868
 20
-251.7469
 42
0.09351376633
  0
VERTEX
  8
LAYER_1
 10
162.6164
 20
-251.9178
 42
0.09951767869
  0
VERTEX
  8
LAYER_1
 10
162.7012
 20
-252.0601
 42
0.1063497227
  0
VERTEX
  8
LAYER_1
 10
162.8356
 20
-252.1575
 42
0.1081437471
  0
VERTEX
  8
LAYER_1
 10
163.0126
 20
-252.1937
 42
0.1144963135
  0
VERTEX
  8
LAYER_1
 10
163.1804
 20
-252.1575
 42
0.1351211567
  0
VERTEX
  8
LAYER_1
 10
163.3148
 20
-252.0414
  0
SEQEND
  0
ENDBLK
  0
BLOCK
  8
LAYER_1
  2
AIGNBL01030023
 70
64
 10
0
 20
0
 30
0
  3
AIGNBL01030023
  0
POLYLINE
  8
LAYER_1
 40
0.05
 41
0.05
 66
1
 10
0
 20
0
 30
0
 70
1
  0
VERTEX
  8
LAYER_1
 10
163.8801
 20
-252.1676
  0
VERTEX
  8
LAYER_1
 10
164.4299
 20
-252.1676
  0
VERTEX
  8
LAYER_1
 10
164.4299
 20
-252.2609
  0
VERTEX
  8
LAYER_1
 10
163.7764
 20
-252.2609
  0
VERTEX
  8
LAYER_1
 10
163.7764
 20
-251.2339
  0
VERTEX
  8
LAYER_1
 10
164.4127
 20
-251.2339
  0
VERTEX
  8
LAYER_1
 10
164.4127
 20
-251.3263
  0
VERTEX
  8
LAYER_1
 10
163.8801
 20
-251.3263
  0
VERTEX
  8
LAYER_1
 10
163.8801
 20
-251.6787
  0
VERTEX
  8
LAYER_1
 10
164.3782
 20
-251.6787
  0
VERTEX
  8
LAYER_1
 10
164.3782
 20
-251.7717
  0
VERTEX
  8
LAYER_1
 10
163.8801
 20
-251.7717
  0
SEQEND
  0
ENDBLK
  0
BLOCK
  8
LAYER_1
  2
AIGNBL01020003
 70
64
 10
0
 20
0
 30
0
  3
AIGNBL01020003
  0
INSERT
  8
LAYER_1
  2
AIGNBL01030004
 10
0
 20
0
 30
0
  0
ENDBLK
  0
BLOCK
  8
LAYER_1
  2
AIGNBL0102000C
 70
64
 10
0
 20
0
 30
0
  3
AIGNBL0102000C
  0
INSERT
  8
LAYER_1
  2
AIGNBL0103000D
 10
0
 20
0
 30
0
  0
INSERT
  8
LAYER_1
  2
AIGNBL0103000E
 10
0
 20
0
 30
0
  0
INSERT
  8
LAYER_1
  2
AIGNBL0103000F
 10
0
 20
0
 30
0
  0
INSERT
  8
LAYER_1
  2
AIGNBL01030010
 10
0
 20
0
 30
0
  0
INSERT
  8
LAYER_1
  2
AIGNBL01030011
 10
0
 20
0
 30
0
  0
INSERT
  8
LAYER_1
  2
AIGNBL01030012
 10
0
 20
0
 30
0
  0
INSERT
  8
LAYER_1
  2
AIGNBL01030013
 10
0
 20
0
 30
0
  0
INSERT
  8
LAYER_1
  2
AIGNBL01030014
 10
0
 20
0
 30
0
  0
INSERT
  8
LAYER_1
  2
AIGNBL01030015
 10
0
 20
0
 30
0
  0
INSERT
  8
LAYER_1
  2
AIGNBL01030016
 10
0
 20
0
 30
0
  0
INSERT
  8
LAYER_1
  2
AIGNBL01030017
 10
0
 20
0
 30
0
  0
INSERT
  8
LAYER_1
  2
AIGNBL01030018
 10
0
 20
0
 30
0
  0
INSERT
  8
LAYER_1
  2
AIGNBL01030019
 10
0
 20
0
 30
0
  0
INSERT
  8
LAYER_1
  2
AIGNBL0103001A
 10
0
 20
0
 30
0
  0
INSERT
  8
LAYER_1
  2
AIGNBL0103001B
 10
0
 20
0
 30
0
  0
INSERT
  8
LAYER_1
  2
AIGNBL0103001C
 10
0
 20
0
 30
0
  0
INSERT
  8
LAYER_1
  2
AIGNBL0103001D
 10
0
 20
0
 30
0
  0
INSERT
  8
LAYER_1
  2
AIGNBL0103001E
 10
0
 20
0
 30
0
  0
INSERT
  8
LAYER_1
  2
AIGNBL0103001F
 10
0
 20
0
 30
0
  0
INSERT
  8
LAYER_1
  2
AIGNBL01030020
 10
0
 20
0
 30
0
  0
INSERT
  8
LAYER_1
  2
AIGNBL01030021
 10
0
 20
0
 30
0
  0
INSERT
  8
LAYER_1
  2
AIGNBL01030022
 10
0
 20
0
 30
0
  0
INSERT
  8
LAYER_1
  2
AIGNBL01030023
 10
0
 20
0
 30
0
  0
ENDBLK
  0
BLOCK
  8
LAYER_1
  2
AIGNBL01020025
 70
64
 10
0
 20
0
 30
0
  3
AIGNBL01020025
  0
POLYLINE
  8
LAYER_1
 40
0.1058
 41
0.1058
 66
1
 10
0
 20
0
 30
0
  0
VERTEX
  8
LAYER_1
 10
76.1529
 20
-90.7738
  0
VERTEX
  8
LAYER_1
 10
74.6529
 20
-90.5238
  0
SEQEND
  0
POLYLINE
  8
LAYER_1
 40
0.1058
 41
0.1058
 66
1
 10
0
 20
0
 30
0
  0
VERTEX
  8
LAYER_1
 10
76.1529
 20
-90.5238
  0
VERTEX
  8
LAYER_1
 10
74.6529
 20
-90.5238
  0
VERTEX
  8
LAYER_1
 10
76.1529
 20
-90.2738
  0
SEQEND
  0
ENDBLK
  0
BLOCK
  8
LAYER_1
  2
AIGNBL01020026
 70
64
 10
0
 20
0
 30
0
  3
AIGNBL01020026
  0
POLYLINE
  8
LAYER_1
 40
0.1058
 41
0.1058
 66
1
 10
0
 20
0
 30
0
  0
VERTEX
  8
LAYER_1
 10
78.2329
 20
-90.2738
  0
VERTEX
  8
LAYER_1
 10
79.7329
 20
-90.5238
  0
SEQEND
  0
POLYLINE
  8
LAYER_1
 40
0.1058
 41
0.1058
 66
1
 10
0
 20
0
 30
0
  0
VERTEX
  8
LAYER_1
 10
78.2329
 20
-90.5238
  0
VERTEX
  8
LAYER_1
 10
79.7329
 20
-90.5238
  0
VERTEX
  8
LAYER_1
 10
78.2329
 20
-90.7738
  0
SEQEND
  0
ENDBLK
  0
BLOCK
  8
LAYER_1
  2
AIGNBL01020027
 70
64
 10
0
 20
0
 30
0
  3
AIGNBL01020027
  0
POLYLINE
  8
LAYER_1
 40
0.7056
 41
0.7056
 66
1
 10
0
 20
0
 30
0
  0
VERTEX
  8
LAYER_1
 10
74.6529
 20
-92.5838
  0
SEQEND
  0
ENDBLK
  0
BLOCK
  8
LAYER_1
  2
AIGNBL01020028
 70
64
 10
0
 20
0
 30
0
  3
AIGNBL01020028
  0
POLYLINE
  8
LAYER_1
 40
0.7056
 41
0.7056
 66
1
 10
0
 20
0
 30
0
  0
VERTEX
  8
LAYER_1
 10
79.7329
 20
-92.5838
  0
SEQEND
  0
ENDBLK
  0
BLOCK
  8
LAYER_1
  2
AIGNBL01020029
 70
64
 10
0
 20
0
 30
0
  3
AIGNBL01020029
  0
POLYLINE
  8
LAYER_1
 40
0.7056
 41
0.7056
 66
1
 10
0
 20
0
 30
0
  0
VERTEX
  8
LAYER_1
 10
79.7329
 20
-90.5238
  0
SEQEND
  0
ENDBLK
  0
BLOCK
  8
LAYER_1
  2
AIGNBL0102002B
 70
64
 10
0
 20
0
 30
0
  3
AIGNBL0102002B
  0
POLYLINE
  8
LAYER_1
 40
0.1058
 41
0.1058
 66
1
 10
0
 20
0
 30
0
  0
VERTEX
  8
LAYER_1
 10
165.3874
 20
-51.3914
  0
VERTEX
  8
LAYER_1
 10
166.8874
 20
-51.6414
  0
SEQEND
  0
POLYLINE
  8
LAYER_1
 40
0.1058
 41
0.1058
 66
1
 10
0
 20
0
 30
0
  0
VERTEX
  8
LAYER_1
 10
165.3874
 20
-51.6414
  0
VERTEX
  8
LAYER_1
 10
166.8874
 20
-51.6414
  0
VERTEX
  8
LAYER_1
 10
165.3874
 20
-51.8914
  0
SEQEND
  0
ENDBLK
  0
BLOCK
  8
LAYER_1
  2
AIGNBL0102002C
 70
64
 10
0
 20
0
 30
0
  3
AIGNBL0102002C
  0
POLYLINE
  8
LAYER_1
 40
0.1058
 41
0.1058
 66
1
 10
0
 20
0
 30
0
  0
VERTEX
  8
LAYER_1
 10
138.7095
 20
-51.8914
  0
VERTEX
  8
LAYER_1
 10
137.2095
 20
-51.6414
  0
SEQEND
  0
POLYLINE
  8
LAYER_1
 40
0.1058
 41
0.1058
 66
1
 10
0
 20
0
 30
0
  0
VERTEX
  8
LAYER_1
 10
138.7095
 20
-51.6414
  0
VERTEX
  8
LAYER_1
 10
137.2095
 20
-51.6414
  0
VERTEX
  8
LAYER_1
 10
138.7095
 20
-51.3914
  0
SEQEND
  0
ENDBLK
  0
BLOCK
  8
LAYER_1
  2
AIGNBL0102002D
 70
64
 10
0
 20
0
 30
0
  3
AIGNBL0102002D
  0
POLYLINE
  8
LAYER_1
 40
0.7056
 41
0.7056
 66
1
 10
0
 20
0
 30
0
  0
VERTEX
  8
LAYER_1
 10
166.8874
 20
-74.6614
  0
SEQEND
  0
ENDBLK
  0
BLOCK
  8
LAYER_1
  2
AIGNBL0102002E
 70
64
 10
0
 20
0
 30
0
  3
AIGNBL0102002E
  0
POLYLINE
  8
LAYER_1
 40
0.7056
 41
0.7056
 66
1
 10
0
 20
0
 30
0
  0
VERTEX
  8
LAYER_1
 10
137.2095
 20
-76.0022
  0
SEQEND
  0
ENDBLK
  0
BLOCK
  8
LAYER_1
  2
AIGNBL0102002F
 70
64
 10
0
 20
0
 30
0
  3
AIGNBL0102002F
  0
POLYLINE
  8
LAYER_1
 40
0.7056
 41
0.7056
 66
1
 10
0
 20
0
 30
0
  0
VERTEX
  8
LAYER_1
 10
137.2095
 20
-51.6414
  0
SEQEND
  0
ENDBLK
  0
BLOCK
  8
LAYER_1
  2
AIGNBL01020031
 70
64
 10
0
 20
0
 30
0
  3
AIGNBL01020031
  0
POLYLINE
  8
LAYER_1
 40
0.1058
 41
0.1058
 66
1
 10
0
 20
0
 30
0
  0
VERTEX
  8
LAYER_1
 10
66.4429
 20
-61.1459
  0
VERTEX
  8
LAYER_1
 10
66.6929
 20
-59.6459
  0
SEQEND
  0
POLYLINE
  8
LAYER_1
 40
0.1058
 41
0.1058
 66
1
 10
0
 20
0
 30
0
  0
VERTEX
  8
LAYER_1
 10
66.6929
 20
-61.1459
  0
VERTEX
  8
LAYER_1
 10
66.6929
 20
-59.6459
  0
VERTEX
  8
LAYER_1
 10
66.9429
 20
-61.1459
  0
SEQEND
  0
ENDBLK
  0
BLOCK
  8
LAYER_1
  2
AIGNBL01020032
 70
64
 10
0
 20
0
 30
0
  3
AIGNBL01020032
  0
POLYLINE
  8
LAYER_1
 40
0.1058
 41
0.1058
 66
1
 10
0
 20
0
 30
0
  0
VERTEX
  8
LAYER_1
 10
66.9429
 20
-104.6238
  0
VERTEX
  8
LAYER_1
 10
66.6929
 20
-106.1238
  0
SEQEND
  0
POLYLINE
  8
LAYER_1
 40
0.1058
 41
0.1058
 66
1
 10
0
 20
0
 30
0
  0
VERTEX
  8
LAYER_1
 10
66.6929
 20
-104.6238
  0
VERTEX
  8
LAYER_1
 10
66.6929
 20
-106.1238
  0
VERTEX
  8
LAYER_1
 10
66.4429
 20
-104.6238
  0
SEQEND
  0
ENDBLK
  0
BLOCK
  8
LAYER_1
  2
AIGNBL01020033
 70
64
 10
0
 20
0
 30
0
  3
AIGNBL01020033
  0
POLYLINE
  8
LAYER_1
 40
0.7056
 41
0.7056
 66
1
 10
0
 20
0
 30
0
  0
VERTEX
  8
LAYER_1
 10
77.1929
 20
-59.6459
  0
SEQEND
  0
ENDBLK
  0
BLOCK
  8
LAYER_1
  2
AIGNBL01020034
 70
64
 10
0
 20
0
 30
0
  3
AIGNBL01020034
  0
POLYLINE
  8
LAYER_1
 40
0.7056
 41
0.7056
 66
1
 10
0
 20
0
 30
0
  0
VERTEX
  8
LAYER_1
 10
73.3529
 20
-106.1238
  0
SEQEND
  0
ENDBLK
  0
BLOCK
  8
LAYER_1
  2
AIGNBL01020035
 70
64
 10
0
 20
0
 30
0
  3
AIGNBL01020035
  0
POLYLINE
  8
LAYER_1
 40
0.7056
 41
0.7056
 66
1
 10
0
 20
0
 30
0
  0
VERTEX
  8
LAYER_1
 10
66.6929
 20
-106.1238
  0
SEQEND
  0
ENDBLK
  0
BLOCK
  8
LAYER_1
  2
AIGNBL01020037
 70
64
 10
0
 20
0
 30
0
  3
AIGNBL01020037
  0
POLYLINE
  8
LAYER_1
 40
0.1058
 41
0.1058
 66
1
 10
0
 20
0
 30
0
  0
VERTEX
  8
LAYER_1
 10
126.4229
 20
-104.6193
  0
VERTEX
  8
LAYER_1
 10
126.1729
 20
-106.1193
  0
SEQEND
  0
POLYLINE
  8
LAYER_1
 40
0.1058
 41
0.1058
 66
1
 10
0
 20
0
 30
0
  0
VERTEX
  8
LAYER_1
 10
126.1729
 20
-104.6193
  0
VERTEX
  8
LAYER_1
 10
126.1729
 20
-106.1193
  0
VERTEX
  8
LAYER_1
 10
125.9229
 20
-104.6193
  0
SEQEND
  0
ENDBLK
  0
BLOCK
  8
LAYER_1
  2
AIGNBL01020038
 70
64
 10
0
 20
0
 30
0
  3
AIGNBL01020038
  0
POLYLINE
  8
LAYER_1
 40
0.1058
 41
0.1058
 66
1
 10
0
 20
0
 30
0
  0
VERTEX
  8
LAYER_1
 10
125.9229
 20
-79.0385
  0
VERTEX
  8
LAYER_1
 10
126.1729
 20
-77.5385
  0
SEQEND
  0
POLYLINE
  8
LAYER_1
 40
0.1058
 41
0.1058
 66
1
 10
0
 20
0
 30
0
  0
VERTEX
  8
LAYER_1
 10
126.1729
 20
-79.0385
  0
VERTEX
  8
LAYER_1
 10
126.1729
 20
-77.5385
  0
VERTEX
  8
LAYER_1
 10
126.4229
 20
-79.0385
  0
SEQEND
  0
ENDBLK
  0
BLOCK
  8
LAYER_1
  2
AIGNBL01020039
 70
64
 10
0
 20
0
 30
0
  3
AIGNBL01020039
  0
POLYLINE
  8
LAYER_1
 40
0.7056
 41
0.7056
 66
1
 10
0
 20
0
 30
0
  0
VERTEX
  8
LAYER_1
 10
163.0474
 20
-106.1193
  0
SEQEND
  0
ENDBLK
  0
BLOCK
  8
LAYER_1
  2
AIGNBL0102003A
 70
64
 10
0
 20
0
 30
0
  3
AIGNBL0102003A
  0
POLYLINE
  8
LAYER_1
 40
0.7056
 41
0.7056
 66
1
 10
0
 20
0
 30
0
  0
VERTEX
  8
LAYER_1
 10
140.1729
 20
-77.5385
  0
SEQEND
  0
ENDBLK
  0
BLOCK
  8
LAYER_1
  2
AIGNBL0102003B
 70
64
 10
0
 20
0
 30
0
  3
AIGNBL0102003B
  0
POLYLINE
  8
LAYER_1
 40
0.7056
 41
0.7056
 66
1
 10
0
 20
0
 30
0
  0
VERTEX
  8
LAYER_1
 10
126.1729
 20
-77.5385
  0
SEQEND
  0
ENDBLK
  0
BLOCK
  8
LAYER_1
  2
AIGNBL0102003D
 70
64
 10
0
 20
0
 30
0
  3
AIGNBL0102003D
  0
POLYLINE
  8
LAYER_1
 40
0.1058
 41
0.1058
 66
1
 10
0
 20
0
 30
0
  0
VERTEX
  8
LAYER_1
 10
125.9229
 20
-107.6193
  0
VERTEX
  8
LAYER_1
 10
126.1729
 20
-106.1193
  0
SEQEND
  0
POLYLINE
  8
LAYER_1
 40
0.1058
 41
0.1058
 66
1
 10
0
 20
0
 30
0
  0
VERTEX
  8
LAYER_1
 10
126.1729
 20
-107.6193
  0
VERTEX
  8
LAYER_1
 10
126.1729
 20
-106.1193
  0
VERTEX
  8
LAYER_1
 10
126.4229
 20
-107.6193
  0
SEQEND
  0
ENDBLK
  0
BLOCK
  8
LAYER_1
  2
AIGNBL0102003E
 70
64
 10
0
 20
0
 30
0
  3
AIGNBL0102003E
  0
POLYLINE
  8
LAYER_1
 40
0.1058
 41
0.1058
 66
1
 10
0
 20
0
 30
0
  0
VERTEX
  8
LAYER_1
 10
126.4229
 20
-113.7193
  0
VERTEX
  8
LAYER_1
 10
126.1729
 20
-115.2193
  0
SEQEND
  0
POLYLINE
  8
LAYER_1
 40
0.1058
 41
0.1058
 66
1
 10
0
 20
0
 30
0
  0
VERTEX
  8
LAYER_1
 10
126.1729
 20
-113.7193
  0
VERTEX
  8
LAYER_1
 10
126.1729
 20
-115.2193
  0
VERTEX
  8
LAYER_1
 10
125.9229
 20
-113.7193
  0
SEQEND
  0
ENDBLK
  0
BLOCK
  8
LAYER_1
  2
AIGNBL0102003F
 70
64
 10
0
 20
0
 30
0
  3
AIGNBL0102003F
  0
POLYLINE
  8
LAYER_1
 40
0.7056
 41
0.7056
 66
1
 10
0
 20
0
 30
0
  0
VERTEX
  8
LAYER_1
 10
163.0474
 20
-106.1193
  0
SEQEND
  0
ENDBLK
  0
BLOCK
  8
LAYER_1
  2
AIGNBL01020040
 70
64
 10
0
 20
0
 30
0
  3
AIGNBL01020040
  0
POLYLINE
  8
LAYER_1
 40
0.7056
 41
0.7056
 66
1
 10
0
 20
0
 30
0
  0
VERTEX
  8
LAYER_1
 10
165.0919
 20
-115.2193
  0
SEQEND
  0
ENDBLK
  0
BLOCK
  8
LAYER_1
  2
AIGNBL01020041
 70
64
 10
0
 20
0
 30
0
  3
AIGNBL01020041
  0
POLYLINE
  8
LAYER_1
 40
0.7056
 41
0.7056
 66
1
 10
0
 20
0
 30
0
  0
VERTEX
  8
LAYER_1
 10
126.1729
 20
-115.2193
  0
SEQEND
  0
ENDBLK
  0
BLOCK
  8
LAYER_1
  2
AIGNBL01020043
 70
64
 10
0
 20
0
 30
0
  3
AIGNBL01020043
  0
POLYLINE
  8
LAYER_1
 40
0.1058
 41
0.1058
 66
1
 10
0
 20
0
 30
0
  0
VERTEX
  8
LAYER_1
 10
165.3874
 20
-88.3719
  0
VERTEX
  8
LAYER_1
 10
166.8874
 20
-88.6219
  0
SEQEND
  0
POLYLINE
  8
LAYER_1
 40
0.1058
 41
0.1058
 66
1
 10
0
 20
0
 30
0
  0
VERTEX
  8
LAYER_1
 10
165.3874
 20
-88.6219
  0
VERTEX
  8
LAYER_1
 10
166.8874
 20
-88.6219
  0
VERTEX
  8
LAYER_1
 10
165.3874
 20
-88.8719
  0
SEQEND
  0
ENDBLK
  0
BLOCK
  8
LAYER_1
  2
AIGNBL01020044
 70
64
 10
0
 20
0
 30
0
  3
AIGNBL01020044
  0
POLYLINE
  8
LAYER_1
 40
0.1058
 41
0.1058
 66
1
 10
0
 20
0
 30
0
  0
VERTEX
  8
LAYER_1
 10
141.6729
 20
-88.8719
  0
VERTEX
  8
LAYER_1
 10
140.1729
 20
-88.6219
  0
SEQEND
  0
POLYLINE
  8
LAYER_1
 40
0.1058
 41
0.1058
 66
1
 10
0
 20
0
 30
0
  0
VERTEX
  8
LAYER_1
 10
141.6729
 20
-88.6219
  0
VERTEX
  8
LAYER_1
 10
140.1729
 20
-88.6219
  0
VERTEX
  8
LAYER_1
 10
141.6729
 20
-88.3719
  0
SEQEND
  0
ENDBLK
  0
BLOCK
  8
LAYER_1
  2
AIGNBL01020045
 70
64
 10
0
 20
0
 30
0
  3
AIGNBL01020045
  0
POLYLINE
  8
LAYER_1
 40
0.7056
 41
0.7056
 66
1
 10
0
 20
0
 30
0
  0
VERTEX
  8
LAYER_1
 10
166.8874
 20
-92.5193
  0
SEQEND
  0
ENDBLK
  0
BLOCK
  8
LAYER_1
  2
AIGNBL01020046
 70
64
 10
0
 20
0
 30
0
  3
AIGNBL01020046
  0
POLYLINE
  8
LAYER_1
 40
0.7056
 41
0.7056
 66
1
 10
0
 20
0
 30
0
  0
VERTEX
  8
LAYER_1
 10
140.1729
 20
-79.3645
  0
SEQEND
  0
ENDBLK
  0
BLOCK
  8
LAYER_1
  2
AIGNBL01020047
 70
64
 10
0
 20
0
 30
0
  3
AIGNBL01020047
  0
POLYLINE
  8
LAYER_1
 40
0.7056
 41
0.7056
 66
1
 10
0
 20
0
 30
0
  0
VERTEX
  8
LAYER_1
 10
140.1729
 20
-88.6219
  0
SEQEND
  0
ENDBLK
  0
BLOCK
  8
LAYER_1
  2
AIGNBL01020049
 70
64
 10
0
 20
0
 30
0
  3
AIGNBL01020049
  0
POLYLINE
  8
LAYER_1
 40
0.1058
 41
0.1058
 66
1
 10
0
 20
0
 30
0
  0
VERTEX
  8
LAYER_1
 10
132.0962
 20
-91.3407
  0
VERTEX
  8
LAYER_1
 10
133.309
 20
-92.2582
  0
SEQEND
  0
POLYLINE
  8
LAYER_1
 40
0.1058
 41
0.1058
 66
1
 10
0
 20
0
 30
0
  0
VERTEX
  8
LAYER_1
 10
131.9802
 20
-91.5622
  0
VERTEX
  8
LAYER_1
 10
133.309
 20
-92.2582
  0
VERTEX
  8
LAYER_1
 10
131.8642
 20
-91.7836
  0
SEQEND
  0
ENDBLK
  0
BLOCK
  8
LAYER_1
  2
AIGNBL0102004A
 70
64
 10
0
 20
0
 30
0
  3
AIGNBL0102004A
  0
POLYLINE
  8
LAYER_1
 40
0.1058
 41
0.1058
 66
1
 10
0
 20
0
 30
0
  0
VERTEX
  8
LAYER_1
 10
141.6828
 20
-93.9604
  0
VERTEX
  8
LAYER_1
 10
140.1729
 20
-93.7799
  0
SEQEND
  0
POLYLINE
  8
LAYER_1
 40
0.1058
 41
0.1058
 66
1
 10
0
 20
0
 30
0
  0
VERTEX
  8
LAYER_1
 10
141.6713
 20
-93.7106
  0
VERTEX
  8
LAYER_1
 10
140.1729
 20
-93.7799
  0
VERTEX
  8
LAYER_1
 10
141.6597
 20
-93.4609
  0
SEQEND
  0
ENDBLK
  0
BLOCK
  8
LAYER_1
  2
AIGNBL0102004B
 70
64
 10
0
 20
0
 30
0
  3
AIGNBL0102004B
  0
POLYLINE
  8
LAYER_1
 40
0.7056
 41
0.7056
 66
1
 10
0
 20
0
 30
0
  0
VERTEX
  8
LAYER_1
 10
135.5148
 20
-93.0976
  0
SEQEND
  0
ENDBLK
  0
BLOCK
  8
LAYER_1
  2
AIGNBL0102004C
 70
64
 10
0
 20
0
 30
0
  3
AIGNBL0102004C
  0
POLYLINE
  8
LAYER_1
 40
0.7056
 41
0.7056
 66
1
 10
0
 20
0
 30
0
  0
VERTEX
  8
LAYER_1
 10
139.9616
 20
-77.9916
  0
SEQEND
  0
ENDBLK
  0
BLOCK
  8
LAYER_1
  2
AIGNBL0102004D
 70
64
 10
0
 20
0
 30
0
  3
AIGNBL0102004D
  0
POLYLINE
  8
LAYER_1
 40
0.7056
 41
0.7056
 66
1
 10
0
 20
0
 30
0
  0
VERTEX
  8
LAYER_1
 10
140.1729
 20
-77.5385
  0
SEQEND
  0
ENDBLK
  0
BLOCK
  8
LAYER_1
  2
AIGNBL0102004E
 70
64
 10
0
 20
0
 30
0
  3
AIGNBL0102004E
  0
POLYLINE
  8
LAYER_1
 40
0.7056
 41
0.7056
 66
1
 10
0
 20
0
 30
0
  0
VERTEX
  8
LAYER_1
 10
140.1729
 20
-79.3645
  0
SEQEND
  0
ENDBLK
  0
BLOCK
  8
LAYER_1
  2
AIGNBL0102004F
 70
64
 10
0
 20
0
 30
0
  3
AIGNBL0102004F
  0
POLYLINE
  8
LAYER_1
 40
0.7056
 41
0.7056
 66
1
 10
0
 20
0
 30
0
  0
VERTEX
  8
LAYER_1
 10
144.9062
 20
-67.3878
  0
SEQEND
  0
ENDBLK
  0
BLOCK
  8
LAYER_1
  2
AIGNBL01020051
 70
64
 10
0
 20
0
 30
0
  3
AIGNBL01020051
  0
POLYLINE
  8
LAYER_1
 40
0.1058
 41
0.1058
 66
1
 10
0
 20
0
 30
0
  0
VERTEX
  8
LAYER_1
 10
151.2374
 20
-107.6193
  0
VERTEX
  8
LAYER_1
 10
151.4874
 20
-106.1193
  0
SEQEND
  0
POLYLINE
  8
LAYER_1
 40
0.1058
 41
0.1058
 66
1
 10
0
 20
0
 30
0
  0
VERTEX
  8
LAYER_1
 10
151.4874
 20
-107.6193
  0
VERTEX
  8
LAYER_1
 10
151.4874
 20
-106.1193
  0
VERTEX
  8
LAYER_1
 10
151.7374
 20
-107.6193
  0
SEQEND
  0
ENDBLK
  0
BLOCK
  8
LAYER_1
  2
AIGNBL01020052
 70
64
 10
0
 20
0
 30
0
  3
AIGNBL01020052
  0
POLYLINE
  8
LAYER_1
 40
0.1058
 41
0.1058
 66
1
 10
0
 20
0
 30
0
  0
VERTEX
  8
LAYER_1
 10
151.7374
 20
-109.9193
  0
VERTEX
  8
LAYER_1
 10
151.4874
 20
-111.4193
  0
SEQEND
  0
POLYLINE
  8
LAYER_1
 40
0.1058
 41
0.1058
 66
1
 10
0
 20
0
 30
0
  0
VERTEX
  8
LAYER_1
 10
151.4874
 20
-109.9193
  0
VERTEX
  8
LAYER_1
 10
151.4874
 20
-111.4193
  0
VERTEX
  8
LAYER_1
 10
151.2374
 20
-109.9193
  0
SEQEND
  0
ENDBLK
  0
BLOCK
  8
LAYER_1
  2
AIGNBL01020053
 70
64
 10
0
 20
0
 30
0
  3
AIGNBL01020053
  0
POLYLINE
  8
LAYER_1
 40
0.7056
 41
0.7056
 66
1
 10
0
 20
0
 30
0
  0
VERTEX
  8
LAYER_1
 10
166.8874
 20
-111.4193
  0
SEQEND
  0
ENDBLK
  0
BLOCK
  8
LAYER_1
  2
AIGNBL01020054
 70
64
 10
0
 20
0
 30
0
  3
AIGNBL01020054
  0
POLYLINE
  8
LAYER_1
 40
0.7056
 41
0.7056
 66
1
 10
0
 20
0
 30
0
  0
VERTEX
  8
LAYER_1
 10
166.8874
 20
-106.1193
  0
SEQEND
  0
ENDBLK
  0
BLOCK
  8
LAYER_1
  2
AIGNBL01020055
 70
64
 10
0
 20
0
 30
0
  3
AIGNBL01020055
  0
POLYLINE
  8
LAYER_1
 40
0.7056
 41
0.7056
 66
1
 10
0
 20
0
 30
0
  0
VERTEX
  8
LAYER_1
 10
151.4874
 20
-106.1193
  0
SEQEND
  0
ENDBLK
  0
BLOCK
  8
LAYER_1
  2
AIGNBL01020057
 70
64
 10
0
 20
0
 30
0
  3
AIGNBL01020057
  0
POLYLINE
  8
LAYER_1
 40
0.1058
 41
0.1058
 66
1
 10
0
 20
0
 30
0
  0
VERTEX
  8
LAYER_1
 10
164.7874
 20
-195.6439
  0
VERTEX
  8
LAYER_1
 10
166.2874
 20
-195.8939
  0
SEQEND
  0
POLYLINE
  8
LAYER_1
 40
0.1058
 41
0.1058
 66
1
 10
0
 20
0
 30
0
  0
VERTEX
  8
LAYER_1
 10
164.7874
 20
-195.8939
  0
VERTEX
  8
LAYER_1
 10
166.2874
 20
-195.8939
  0
VERTEX
  8
LAYER_1
 10
164.7874
 20
-196.1439
  0
SEQEND
  0
ENDBLK
  0
BLOCK
  8
LAYER_1
  2
AIGNBL01020058
 70
64
 10
0
 20
0
 30
0
  3
AIGNBL01020058
  0
POLYLINE
  8
LAYER_1
 40
0.1058
 41
0.1058
 66
1
 10
0
 20
0
 30
0
  0
VERTEX
  8
LAYER_1
 10
171.4874
 20
-196.1439
  0
VERTEX
  8
LAYER_1
 10
169.9874
 20
-195.8939
  0
SEQEND
  0
POLYLINE
  8
LAYER_1
 40
0.1058
 41
0.1058
 66
1
 10
0
 20
0
 30
0
  0
VERTEX
  8
LAYER_1
 10
171.4874
 20
-195.8939
  0
VERTEX
  8
LAYER_1
 10
169.9874
 20
-195.8939
  0
VERTEX
  8
LAYER_1
 10
171.4874
 20
-195.6439
  0
SEQEND
  0
ENDBLK
  0
BLOCK
  8
LAYER_1
  2
AIGNBL01020059
 70
64
 10
0
 20
0
 30
0
  3
AIGNBL01020059
  0
POLYLINE
  8
LAYER_1
 40
0.7056
 41
0.7056
 66
1
 10
0
 20
0
 30
0
  0
VERTEX
  8
LAYER_1
 10
169.9874
 20
-186.2906
  0
SEQEND
  0
ENDBLK
  0
BLOCK
  8
LAYER_1
  2
AIGNBL0102005A
 70
64
 10
0
 20
0
 30
0
  3
AIGNBL0102005A
  0
POLYLINE
  8
LAYER_1
 40
0.7056
 41
0.7056
 66
1
 10
0
 20
0
 30
0
  0
VERTEX
  8
LAYER_1
 10
166.2874
 20
-183.2939
  0
SEQEND
  0
ENDBLK
  0
BLOCK
  8
LAYER_1
  2
AIGNBL0102005B
 70
64
 10
0
 20
0
 30
0
  3
AIGNBL0102005B
  0
POLYLINE
  8
LAYER_1
 40
0.7056
 41
0.7056
 66
1
 10
0
 20
0
 30
0
  0
VERTEX
  8
LAYER_1
 10
166.2874
 20
-195.8939
  0
SEQEND
  0
ENDBLK
  0
BLOCK
  8
LAYER_1
  2
AIGNBL0102005D
 70
64
 10
0
 20
0
 30
0
  3
AIGNBL0102005D
  0
POLYLINE
  8
LAYER_1
 40
0.1058
 41
0.1058
 66
1
 10
0
 20
0
 30
0
  0
VERTEX
  8
LAYER_1
 10
151.7374
 20
-182.9939
  0
VERTEX
  8
LAYER_1
 10
151.4874
 20
-184.4939
  0
SEQEND
  0
POLYLINE
  8
LAYER_1
 40
0.1058
 41
0.1058
 66
1
 10
0
 20
0
 30
0
  0
VERTEX
  8
LAYER_1
 10
151.4874
 20
-182.9939
  0
VERTEX
  8
LAYER_1
 10
151.4874
 20
-184.4939
  0
VERTEX
  8
LAYER_1
 10
151.2374
 20
-182.9939
  0
SEQEND
  0
ENDBLK
  0
BLOCK
  8
LAYER_1
  2
AIGNBL0102005E
 70
64
 10
0
 20
0
 30
0
  3
AIGNBL0102005E
  0
POLYLINE
  8
LAYER_1
 40
0.1058
 41
0.1058
 66
1
 10
0
 20
0
 30
0
  0
VERTEX
  8
LAYER_1
 10
151.2374
 20
-150.7939
  0
VERTEX
  8
LAYER_1
 10
151.4874
 20
-149.2939
  0
SEQEND
  0
POLYLINE
  8
LAYER_1
 40
0.1058
 41
0.1058
 66
1
 10
0
 20
0
 30
0
  0
VERTEX
  8
LAYER_1
 10
151.4874
 20
-150.7939
  0
VERTEX
  8
LAYER_1
 10
151.4874
 20
-149.2939
  0
VERTEX
  8
LAYER_1
 10
151.7374
 20
-150.7939
  0
SEQEND
  0
ENDBLK
  0
BLOCK
  8
LAYER_1
  2
AIGNBL0102005F
 70
64
 10
0
 20
0
 30
0
  3
AIGNBL0102005F
  0
POLYLINE
  8
LAYER_1
 40
0.7056
 41
0.7056
 66
1
 10
0
 20
0
 30
0
  0
VERTEX
  8
LAYER_1
 10
167.3353
 20
-184.4939
  0
SEQEND
  0
ENDBLK
  0
BLOCK
  8
LAYER_1
  2
AIGNBL01020060
 70
64
 10
0
 20
0
 30
0
  3
AIGNBL01020060
  0
POLYLINE
  8
LAYER_1
 40
0.7056
 41
0.7056
 66
1
 10
0
 20
0
 30
0
  0
VERTEX
  8
LAYER_1
 10
166.2874
 20
-149.2939
  0
SEQEND
  0
ENDBLK
  0
BLOCK
  8
LAYER_1
  2
AIGNBL01020061
 70
64
 10
0
 20
0
 30
0
  3
AIGNBL01020061
  0
POLYLINE
  8
LAYER_1
 40
0.7056
 41
0.7056
 66
1
 10
0
 20
0
 30
0
  0
VERTEX
  8
LAYER_1
 10
151.4874
 20
-149.2939
  0
SEQEND
  0
ENDBLK
  0
BLOCK
  8
LAYER_1
  2
AIGNBL01020063
 70
64
 10
0
 20
0
 30
0
  3
AIGNBL01020063
  0
POLYLINE
  8
LAYER_1
 40
0.1058
 41
0.1058
 66
1
 10
0
 20
0
 30
0
  0
VERTEX
  8
LAYER_1
 10
74.6929
 20
-195.6439
  0
VERTEX
  8
LAYER_1
 10
76.1929
 20
-195.8939
  0
SEQEND
  0
POLYLINE
  8
LAYER_1
 40
0.1058
 41
0.1058
 66
1
 10
0
 20
0
 30
0
  0
VERTEX
  8
LAYER_1
 10
74.6929
 20
-195.8939
  0
VERTEX
  8
LAYER_1
 10
76.1929
 20
-195.8939
  0
VERTEX
  8
LAYER_1
 10
74.6929
 20
-196.1439
  0
SEQEND
  0
ENDBLK
  0
BLOCK
  8
LAYER_1
  2
AIGNBL01020064
 70
64
 10
0
 20
0
 30
0
  3
AIGNBL01020064
  0
POLYLINE
  8
LAYER_1
 40
0.1058
 41
0.1058
 66
1
 10
0
 20
0
 30
0
  0
VERTEX
  8
LAYER_1
 10
54.3929
 20
-196.1439
  0
VERTEX
  8
LAYER_1
 10
52.8929
 20
-195.8939
  0
SEQEND
  0
POLYLINE
  8
LAYER_1
 40
0.1058
 41
0.1058
 66
1
 10
0
 20
0
 30
0
  0
VERTEX
  8
LAYER_1
 10
54.3929
 20
-195.8939
  0
VERTEX
  8
LAYER_1
 10
52.8929
 20
-195.8939
  0
VERTEX
  8
LAYER_1
 10
54.3929
 20
-195.6439
  0
SEQEND
  0
ENDBLK
  0
BLOCK
  8
LAYER_1
  2
AIGNBL01020065
 70
64
 10
0
 20
0
 30
0
  3
AIGNBL01020065
  0
POLYLINE
  8
LAYER_1
 40
0.7056
 41
0.7056
 66
1
 10
0
 20
0
 30
0
  0
VERTEX
  8
LAYER_1
 10
76.1929
 20
-186.4939
  0
SEQEND
  0
ENDBLK
  0
BLOCK
  8
LAYER_1
  2
AIGNBL01020066
 70
64
 10
0
 20
0
 30
0
  3
AIGNBL01020066
  0
POLYLINE
  8
LAYER_1
 40
0.7056
 41
0.7056
 66
1
 10
0
 20
0
 30
0
  0
VERTEX
  8
LAYER_1
 10
52.8929
 20
-170.6335
  0
SEQEND
  0
ENDBLK
  0
BLOCK
  8
LAYER_1
  2
AIGNBL01020067
 70
64
 10
0
 20
0
 30
0
  3
AIGNBL01020067
  0
POLYLINE
  8
LAYER_1
 40
0.7056
 41
0.7056
 66
1
 10
0
 20
0
 30
0
  0
VERTEX
  8
LAYER_1
 10
52.8929
 20
-195.8939
  0
SEQEND
  0
ENDBLK
  0
BLOCK
  8
LAYER_1
  2
AIGNBL01020069
 70
64
 10
0
 20
0
 30
0
  3
AIGNBL01020069
  0
POLYLINE
  8
LAYER_1
 40
0.1058
 41
0.1058
 66
1
 10
0
 20
0
 30
0
  0
VERTEX
  8
LAYER_1
 10
45.1429
 20
-164.3339
  0
VERTEX
  8
LAYER_1
 10
44.8929
 20
-165.8339
  0
SEQEND
  0
POLYLINE
  8
LAYER_1
 40
0.1058
 41
0.1058
 66
1
 10
0
 20
0
 30
0
  0
VERTEX
  8
LAYER_1
 10
44.8929
 20
-164.3339
  0
VERTEX
  8
LAYER_1
 10
44.8929
 20
-165.8339
  0
VERTEX
  8
LAYER_1
 10
44.6429
 20
-164.3339
  0
SEQEND
  0
ENDBLK
  0
BLOCK
  8
LAYER_1
  2
AIGNBL0102006A
 70
64
 10
0
 20
0
 30
0
  3
AIGNBL0102006A
  0
POLYLINE
  8
LAYER_1
 40
0.1058
 41
0.1058
 66
1
 10
0
 20
0
 30
0
  0
VERTEX
  8
LAYER_1
 10
44.6429
 20
-162.1335
  0
VERTEX
  8
LAYER_1
 10
44.8929
 20
-160.6335
  0
SEQEND
  0
POLYLINE
  8
LAYER_1
 40
0.1058
 41
0.1058
 66
1
 10
0
 20
0
 30
0
  0
VERTEX
  8
LAYER_1
 10
44.8929
 20
-162.1335
  0
VERTEX
  8
LAYER_1
 10
44.8929
 20
-160.6335
  0
VERTEX
  8
LAYER_1
 10
45.1429
 20
-162.1335
  0
SEQEND
  0
ENDBLK
  0
BLOCK
  8
LAYER_1
  2
AIGNBL0102006B
 70
64
 10
0
 20
0
 30
0
  3
AIGNBL0102006B
  0
POLYLINE
  8
LAYER_1
 40
0.7056
 41
0.7056
 66
1
 10
0
 20
0
 30
0
  0
VERTEX
  8
LAYER_1
 10
61.0954
 20
-160.6335
  0
SEQEND
  0
ENDBLK
  0
BLOCK
  8
LAYER_1
  2
AIGNBL0102006C
 70
64
 10
0
 20
0
 30
0
  3
AIGNBL0102006C
  0
POLYLINE
  8
LAYER_1
 40
0.7056
 41
0.7056
 66
1
 10
0
 20
0
 30
0
  0
VERTEX
  8
LAYER_1
 10
53.0617
 20
-165.8339
  0
SEQEND
  0
ENDBLK
  0
BLOCK
  8
LAYER_1
  2
AIGNBL0102006D
 70
64
 10
0
 20
0
 30
0
  3
AIGNBL0102006D
  0
POLYLINE
  8
LAYER_1
 40
0.7056
 41
0.7056
 66
1
 10
0
 20
0
 30
0
  0
VERTEX
  8
LAYER_1
 10
44.8929
 20
-165.8339
  0
SEQEND
  0
ENDBLK
  0
BLOCK
  8
LAYER_1
  2
AIGNBL0102006F
 70
64
 10
0
 20
0
 30
0
  3
AIGNBL0102006F
  0
POLYLINE
  8
LAYER_1
 40
0.1058
 41
0.1058
 66
1
 10
0
 20
0
 30
0
  0
VERTEX
  8
LAYER_1
 10
44.6429
 20
-167.3339
  0
VERTEX
  8
LAYER_1
 10
44.8929
 20
-165.8339
  0
SEQEND
  0
POLYLINE
  8
LAYER_1
 40
0.1058
 41
0.1058
 66
1
 10
0
 20
0
 30
0
  0
VERTEX
  8
LAYER_1
 10
44.8929
 20
-167.3339
  0
VERTEX
  8
LAYER_1
 10
44.8929
 20
-165.8339
  0
VERTEX
  8
LAYER_1
 10
45.1429
 20
-167.3339
  0
SEQEND
  0
ENDBLK
  0
BLOCK
  8
LAYER_1
  2
AIGNBL01020070
 70
64
 10
0
 20
0
 30
0
  3
AIGNBL01020070
  0
POLYLINE
  8
LAYER_1
 40
0.1058
 41
0.1058
 66
1
 10
0
 20
0
 30
0
  0
VERTEX
  8
LAYER_1
 10
45.1429
 20
-179.9335
  0
VERTEX
  8
LAYER_1
 10
44.8929
 20
-181.4335
  0
SEQEND
  0
POLYLINE
  8
LAYER_1
 40
0.1058
 41
0.1058
 66
1
 10
0
 20
0
 30
0
  0
VERTEX
  8
LAYER_1
 10
44.8929
 20
-179.9335
  0
VERTEX
  8
LAYER_1
 10
44.8929
 20
-181.4335
  0
VERTEX
  8
LAYER_1
 10
44.6429
 20
-179.9335
  0
SEQEND
  0
ENDBLK
  0
BLOCK
  8
LAYER_1
  2
AIGNBL01020071
 70
64
 10
0
 20
0
 30
0
  3
AIGNBL01020071
  0
POLYLINE
  8
LAYER_1
 40
0.7056
 41
0.7056
 66
1
 10
0
 20
0
 30
0
  0
VERTEX
  8
LAYER_1
 10
53.0617
 20
-165.8339
  0
SEQEND
  0
ENDBLK
  0
BLOCK
  8
LAYER_1
  2
AIGNBL01020072
 70
64
 10
0
 20
0
 30
0
  3
AIGNBL01020072
  0
POLYLINE
  8
LAYER_1
 40
0.7056
 41
0.7056
 66
1
 10
0
 20
0
 30
0
  0
VERTEX
  8
LAYER_1
 10
54.4929
 20
-181.4335
  0
SEQEND
  0
ENDBLK
  0
BLOCK
  8
LAYER_1
  2
AIGNBL01020073
 70
64
 10
0
 20
0
 30
0
  3
AIGNBL01020073
  0
POLYLINE
  8
LAYER_1
 40
0.7056
 41
0.7056
 66
1
 10
0
 20
0
 30
0
  0
VERTEX
  8
LAYER_1
 10
44.8929
 20
-181.4335
  0
SEQEND
  0
ENDBLK
  0
BLOCK
  8
LAYER_1
  2
AIGNBL01020075
 70
64
 10
0
 20
0
 30
0
  3
AIGNBL01020075
  0
POLYLINE
  8
LAYER_1
 40
0.1058
 41
0.1058
 66
1
 10
0
 20
0
 30
0
  0
VERTEX
  8
LAYER_1
 10
74.7929
 20
-108.2014
  0
VERTEX
  8
LAYER_1
 10
73.2929
 20
-107.9514
  0
SEQEND
  0
POLYLINE
  8
LAYER_1
 40
0.1058
 41
0.1058
 66
1
 10
0
 20
0
 30
0
  0
VERTEX
  8
LAYER_1
 10
74.7929
 20
-107.9514
  0
VERTEX
  8
LAYER_1
 10
73.2929
 20
-107.9514
  0
VERTEX
  8
LAYER_1
 10
74.7929
 20
-107.7014
  0
SEQEND
  0
ENDBLK
  0
BLOCK
  8
LAYER_1
  2
AIGNBL01020076
 70
64
 10
0
 20
0
 30
0
  3
AIGNBL01020076
  0
POLYLINE
  8
LAYER_1
 40
0.1058
 41
0.1058
 66
1
 10
0
 20
0
 30
0
  0
VERTEX
  8
LAYER_1
 10
79.5929
 20
-107.7014
  0
VERTEX
  8
LAYER_1
 10
81.0929
 20
-107.9514
  0
SEQEND
  0
POLYLINE
  8
LAYER_1
 40
0.1058
 41
0.1058
 66
1
 10
0
 20
0
 30
0
  0
VERTEX
  8
LAYER_1
 10
79.5929
 20
-107.9514
  0
VERTEX
  8
LAYER_1
 10
81.0929
 20
-107.9514
  0
VERTEX
  8
LAYER_1
 10
79.5929
 20
-108.2014
  0
SEQEND
  0
ENDBLK
  0
BLOCK
  8
LAYER_1
  2
AIGNBL01020077
 70
64
 10
0
 20
0
 30
0
  3
AIGNBL01020077
  0
POLYLINE
  8
LAYER_1
 40
0.7056
 41
0.7056
 66
1
 10
0
 20
0
 30
0
  0
VERTEX
  8
LAYER_1
 10
73.2929
 20
-106.0638
  0
SEQEND
  0
ENDBLK
  0
BLOCK
  8
LAYER_1
  2
AIGNBL01020078
 70
64
 10
0
 20
0
 30
0
  3
AIGNBL01020078
  0
POLYLINE
  8
LAYER_1
 40
0.7056
 41
0.7056
 66
1
 10
0
 20
0
 30
0
  0
VERTEX
  8
LAYER_1
 10
81.0929
 20
-106.0638
  0
SEQEND
  0
ENDBLK
  0
BLOCK
  8
LAYER_1
  2
AIGNBL01020079
 70
64
 10
0
 20
0
 30
0
  3
AIGNBL01020079
  0
POLYLINE
  8
LAYER_1
 40
0.7056
 41
0.7056
 66
1
 10
0
 20
0
 30
0
  0
VERTEX
  8
LAYER_1
 10
81.0929
 20
-107.9514
  0
SEQEND
  0
ENDBLK
  0
BLOCK
  8
LAYER_1
  2
AIGNBL01010002
 70
64
 10
0
 20
0
 30
0
  3
AIGNBL01010002
  0
INSERT
  8
LAYER_1
  2
AIGNBL01020003
 10
0
 20
0
 30
0
  0
INSERT
  8
LAYER_1
  2
AIGNBL0102000C
 10
0
 20
0
 30
0
  0
ENDBLK
  0
BLOCK
  8
LAYER_1
  2
AIGNBL01010024
 70
64
 10
0
 20
0
 30
0
  3
AIGNBL01010024
  0
POLYLINE
  8
LAYER_1
 40
0.1058
 41
0.1058
 66
1
 10
0
 20
0
 30
0
  0
VERTEX
  8
LAYER_1
 10
74.6529
 20
-92.5838
  0
VERTEX
  8
LAYER_1
 10
74.6529
 20
-88.5238
  0
SEQEND
  0
POLYLINE
  8
LAYER_1
 40
0.1058
 41
0.1058
 66
1
 10
0
 20
0
 30
0
  0
VERTEX
  8
LAYER_1
 10
79.7329
 20
-92.5838
  0
VERTEX
  8
LAYER_1
 10
79.7329
 20
-88.5238
  0
SEQEND
  0
POLYLINE
  8
LAYER_1
 40
0.1058
 41
0.1058
 66
1
 10
0
 20
0
 30
0
  0
VERTEX
  8
LAYER_1
 10
76.1529
 20
-90.5238
  0
VERTEX
  8
LAYER_1
 10
78.2329
 20
-90.5238
  0
SEQEND
  0
POLYLINE
  8
LAYER_1
 40
0.1058
 41
0.1058
 66
1
 10
0
 20
0
 30
0
  0
VERTEX
  8
LAYER_1
 10
79.7329
 20
-90.5238
  0
VERTEX
  8
LAYER_1
 10
92.4289
 20
-90.5238
  0
SEQEND
  0
INSERT
  8
LAYER_1
  2
AIGNBL01020025
 10
0
 20
0
 30
0
  0
INSERT
  8
LAYER_1
  2
AIGNBL01020026
 10
0
 20
0
 30
0
  0
TEXT
  8
LAYER_1
 10
88.0024
 20
-89.2222
 11
88.0024
 21
-89.2222
 40
3.7084
 41
0.5
 72
1
  1
φ25.4
  0
INSERT
  8
LAYER_1
  2
AIGNBL01020027
 10
0
 20
0
 30
0
  0
INSERT
  8
LAYER_1
  2
AIGNBL01020028
 10
0
 20
0
 30
0
  0
INSERT
  8
LAYER_1
  2
AIGNBL01020029
 10
0
 20
0
 30
0
  0
ENDBLK
  0
BLOCK
  8
LAYER_1
  2
AIGNBL0101002A
 70
64
 10
0
 20
0
 30
0
  3
AIGNBL0101002A
  0
POLYLINE
  8
LAYER_1
 40
0.1058
 41
0.1058
 66
1
 10
0
 20
0
 30
0
  0
VERTEX
  8
LAYER_1
 10
166.8874
 20
-74.6614
  0
VERTEX
  8
LAYER_1
 10
166.8874
 20
-49.6414
  0
SEQEND
  0
POLYLINE
  8
LAYER_1
 40
0.1058
 41
0.1058
 66
1
 10
0
 20
0
 30
0
  0
VERTEX
  8
LAYER_1
 10
137.2095
 20
-76.0022
  0
VERTEX
  8
LAYER_1
 10
137.2095
 20
-49.6414
  0
SEQEND
  0
POLYLINE
  8
LAYER_1
 40
0.1058
 41
0.1058
 66
1
 10
0
 20
0
 30
0
  0
VERTEX
  8
LAYER_1
 10
165.3874
 20
-51.6414
  0
VERTEX
  8
LAYER_1
 10
138.7095
 20
-51.6414
  0
SEQEND
  0
INSERT
  8
LAYER_1
  2
AIGNBL0102002B
 10
0
 20
0
 30
0
  0
INSERT
  8
LAYER_1
  2
AIGNBL0102002C
 10
0
 20
0
 30
0
  0
TEXT
  8
LAYER_1
 10
154.421
 20
-50.3398
 11
154.421
 21
-50.3398
 40
3.7084
 41
0.5
 72
1
  1
（148）
  0
INSERT
  8
LAYER_1
  2
AIGNBL0102002D
 10
0
 20
0
 30
0
  0
INSERT
  8
LAYER_1
  2
AIGNBL0102002E
 10
0
 20
0
 30
0
  0
INSERT
  8
LAYER_1
  2
AIGNBL0102002F
 10
0
 20
0
 30
0
  0
ENDBLK
  0
BLOCK
  8
LAYER_1
  2
AIGNBL01010030
 70
64
 10
0
 20
0
 30
0
  3
AIGNBL01010030
  0
POLYLINE
  8
LAYER_1
 40
0.1058
 41
0.1058
 66
1
 10
0
 20
0
 30
0
  0
VERTEX
  8
LAYER_1
 10
77.1929
 20
-59.6459
  0
VERTEX
  8
LAYER_1
 10
64.6929
 20
-59.6459
  0
SEQEND
  0
POLYLINE
  8
LAYER_1
 40
0.1058
 41
0.1058
 66
1
 10
0
 20
0
 30
0
  0
VERTEX
  8
LAYER_1
 10
73.3529
 20
-106.1238
  0
VERTEX
  8
LAYER_1
 10
64.6929
 20
-106.1238
  0
SEQEND
  0
POLYLINE
  8
LAYER_1
 40
0.1058
 41
0.1058
 66
1
 10
0
 20
0
 30
0
  0
VERTEX
  8
LAYER_1
 10
66.6929
 20
-61.1459
  0
VERTEX
  8
LAYER_1
 10
66.6929
 20
-104.6238
  0
SEQEND
  0
INSERT
  8
LAYER_1
  2
AIGNBL01020031
 10
0
 20
0
 30
0
  0
INSERT
  8
LAYER_1
  2
AIGNBL01020032
 10
0
 20
0
 30
0
  0
TEXT
  8
LAYER_1
 10
65.391
 20
-80.5122
 11
65.391
 21
-80.5122
 40
3.7084
 41
0.5
 50
89.99999999
 72
1
  1
（232）
  0
INSERT
  8
LAYER_1
  2
AIGNBL01020033
 10
0
 20
0
 30
0
  0
INSERT
  8
LAYER_1
  2
AIGNBL01020034
 10
0
 20
0
 30
0
  0
INSERT
  8
LAYER_1
  2
AIGNBL01020035
 10
0
 20
0
 30
0
  0
ENDBLK
  0
BLOCK
  8
LAYER_1
  2
AIGNBL01010036
 70
64
 10
0
 20
0
 30
0
  3
AIGNBL01010036
  0
POLYLINE
  8
LAYER_1
 40
0.1058
 41
0.1058
 66
1
 10
0
 20
0
 30
0
  0
VERTEX
  8
LAYER_1
 10
163.0474
 20
-106.1193
  0
VERTEX
  8
LAYER_1
 10
124.1729
 20
-106.1193
  0
SEQEND
  0
POLYLINE
  8
LAYER_1
 40
0.1058
 41
0.1058
 66
1
 10
0
 20
0
 30
0
  0
VERTEX
  8
LAYER_1
 10
140.1729
 20
-77.5385
  0
VERTEX
  8
LAYER_1
 10
124.1729
 20
-77.5385
  0
SEQEND
  0
POLYLINE
  8
LAYER_1
 40
0.1058
 41
0.1058
 66
1
 10
0
 20
0
 30
0
  0
VERTEX
  8
LAYER_1
 10
126.1729
 20
-104.6193
  0
VERTEX
  8
LAYER_1
 10
126.1729
 20
-79.0385
  0
SEQEND
  0
INSERT
  8
LAYER_1
  2
AIGNBL01020037
 10
0
 20
0
 30
0
  0
INSERT
  8
LAYER_1
  2
AIGNBL01020038
 10
0
 20
0
 30
0
  0
TEXT
  8
LAYER_1
 10
124.8709
 20
-89.4562
 11
124.8709
 21
-89.4562
 40
3.7084
 41
0.5
 50
89.99999999
 72
1
  1
（143）
  0
INSERT
  8
LAYER_1
  2
AIGNBL01020039
 10
0
 20
0
 30
0
  0
INSERT
  8
LAYER_1
  2
AIGNBL0102003A
 10
0
 20
0
 30
0
  0
INSERT
  8
LAYER_1
  2
AIGNBL0102003B
 10
0
 20
0
 30
0
  0
ENDBLK
  0
BLOCK
  8
LAYER_1
  2
AIGNBL0101003C
 70
64
 10
0
 20
0
 30
0
  3
AIGNBL0101003C
  0
POLYLINE
  8
LAYER_1
 40
0.1058
 41
0.1058
 66
1
 10
0
 20
0
 30
0
  0
VERTEX
  8
LAYER_1
 10
163.0474
 20
-106.1193
  0
VERTEX
  8
LAYER_1
 10
124.1729
 20
-106.1193
  0
SEQEND
  0
POLYLINE
  8
LAYER_1
 40
0.1058
 41
0.1058
 66
1
 10
0
 20
0
 30
0
  0
VERTEX
  8
LAYER_1
 10
165.0919
 20
-115.2193
  0
VERTEX
  8
LAYER_1
 10
124.1729
 20
-115.2193
  0
SEQEND
  0
POLYLINE
  8
LAYER_1
 40
0.1058
 41
0.1058
 66
1
 10
0
 20
0
 30
0
  0
VERTEX
  8
LAYER_1
 10
126.1729
 20
-107.6193
  0
VERTEX
  8
LAYER_1
 10
126.1729
 20
-113.7193
  0
SEQEND
  0
POLYLINE
  8
LAYER_1
 40
0.1058
 41
0.1058
 66
1
 10
0
 20
0
 30
0
  0
VERTEX
  8
LAYER_1
 10
126.1729
 20
-115.2193
  0
VERTEX
  8
LAYER_1
 10
126.1729
 20
-125.5353
  0
SEQEND
  0
INSERT
  8
LAYER_1
  2
AIGNBL0102003D
 10
0
 20
0
 30
0
  0
INSERT
  8
LAYER_1
  2
AIGNBL0102003E
 10
0
 20
0
 30
0
  0
TEXT
  8
LAYER_1
 10
124.965
 20
-119.2514
 11
124.965
 21
-119.2514
 40
3.7084
 41
0.5
 50
89.99999999
 72
1
  1
45.5
  0
INSERT
  8
LAYER_1
  2
AIGNBL0102003F
 10
0
 20
0
 30
0
  0
INSERT
  8
LAYER_1
  2
AIGNBL01020040
 10
0
 20
0
 30
0
  0
INSERT
  8
LAYER_1
  2
AIGNBL01020041
 10
0
 20
0
 30
0
  0
ENDBLK
  0
BLOCK
  8
LAYER_1
  2
AIGNBL01010042
 70
64
 10
0
 20
0
 30
0
  3
AIGNBL01010042
  0
POLYLINE
  8
LAYER_1
 40
0.1058
 41
0.1058
 66
1
 10
0
 20
0
 30
0
  0
VERTEX
  8
LAYER_1
 10
166.8874
 20
-92.5193
  0
VERTEX
  8
LAYER_1
 10
166.8874
 20
-86.6219
  0
SEQEND
  0
POLYLINE
  8
LAYER_1
 40
0.1058
 41
0.1058
 66
1
 10
0
 20
0
 30
0
  0
VERTEX
  8
LAYER_1
 10
140.1729
 20
-79.3645
  0
VERTEX
  8
LAYER_1
 10
140.1729
 20
-90.6219
  0
SEQEND
  0
POLYLINE
  8
LAYER_1
 40
0.1058
 41
0.1058
 66
1
 10
0
 20
0
 30
0
  0
VERTEX
  8
LAYER_1
 10
165.3874
 20
-88.6219
  0
VERTEX
  8
LAYER_1
 10
141.6729
 20
-88.6219
  0
SEQEND
  0
INSERT
  8
LAYER_1
  2
AIGNBL01020043
 10
0
 20
0
 30
0
  0
INSERT
  8
LAYER_1
  2
AIGNBL01020044
 10
0
 20
0
 30
0
  0
TEXT
  8
LAYER_1
 10
155.9031
 20
-87.3202
 11
155.9031
 21
-87.3202
 40
3.7084
 41
0.5
 72
1
  1
（134）
  0
INSERT
  8
LAYER_1
  2
AIGNBL01020045
 10
0
 20
0
 30
0
  0
INSERT
  8
LAYER_1
  2
AIGNBL01020046
 10
0
 20
0
 30
0
  0
INSERT
  8
LAYER_1
  2
AIGNBL01020047
 10
0
 20
0
 30
0
  0
ENDBLK
  0
BLOCK
  8
LAYER_1
  2
AIGNBL01010048
 70
64
 10
0
 20
0
 30
0
  3
AIGNBL01010048
  0
POLYLINE
  8
LAYER_1
 40
0.1058
 41
0.1058
 66
1
 10
0
 20
0
 30
0
  0
VERTEX
  8
LAYER_1
 10
139.9616
 20
-77.9916
  0
VERTEX
  8
LAYER_1
 10
132.4637
 20
-94.0708
  0
SEQEND
  0
POLYLINE
  8
LAYER_1
 40
0.1058
 41
0.1058
 66
1
 10
0
 20
0
 30
0
  0
VERTEX
  8
LAYER_1
 10
140.1729
 20
-79.3645
  0
VERTEX
  8
LAYER_1
 10
140.1729
 20
-95.7799
  0
SEQEND
  0
POLYLINE
  8
LAYER_1
 40
0.1058
 41
0.1058
 66
1
 10
0
 20
0
 30
0
  0
VERTEX
  8
LAYER_1
 10
130.7214
 20
-90.7465
 42
0.02346075196
  0
VERTEX
  8
LAYER_1
 10
131.9802
 20
-91.5622
  0
SEQEND
  0
POLYLINE
  8
LAYER_1
 40
0.1058
 41
0.1058
 66
1
 10
0
 20
0
 30
0
  0
VERTEX
  8
LAYER_1
 10
141.6713
 20
-93.7106
 42
0.0235112431
  0
VERTEX
  8
LAYER_1
 10
143.1569
 20
-93.5034
  0
SEQEND
  0
POLYLINE
  8
LAYER_1
 40
0.1058
 41
0.1058
 66
1
 10
0
 20
0
 30
0
  0
VERTEX
  8
LAYER_1
 10
133.309
 20
-92.2582
 42
0.1095176358
  0
VERTEX
  8
LAYER_1
 10
140.1729
 20
-93.7799
  0
SEQEND
  0
INSERT
  8
LAYER_1
  2
AIGNBL01020049
 10
0
 20
0
 30
0
  0
INSERT
  8
LAYER_1
  2
AIGNBL0102004A
 10
0
 20
0
 30
0
  0
INSERT
  8
LAYER_1
  2
AIGNBL0102004B
 10
0
 20
0
 30
0
  0
INSERT
  8
LAYER_1
  2
AIGNBL0102004C
 10
0
 20
0
 30
0
  0
INSERT
  8
LAYER_1
  2
AIGNBL0102004D
 10
0
 20
0
 30
0
  0
INSERT
  8
LAYER_1
  2
AIGNBL0102004E
 10
0
 20
0
 30
0
  0
INSERT
  8
LAYER_1
  2
AIGNBL0102004F
 10
0
 20
0
 30
0
  0
ENDBLK
  0
BLOCK
  8
LAYER_1
  2
AIGNBL01010050
 70
64
 10
0
 20
0
 30
0
  3
AIGNBL01010050
  0
POLYLINE
  8
LAYER_1
 40
0.1058
 41
0.1058
 66
1
 10
0
 20
0
 30
0
  0
VERTEX
  8
LAYER_1
 10
166.8874
 20
-111.4193
  0
VERTEX
  8
LAYER_1
 10
149.4874
 20
-111.4193
  0
SEQEND
  0
POLYLINE
  8
LAYER_1
 40
0.1058
 41
0.1058
 66
1
 10
0
 20
0
 30
0
  0
VERTEX
  8
LAYER_1
 10
166.8874
 20
-106.1193
  0
VERTEX
  8
LAYER_1
 10
149.4874
 20
-106.1193
  0
SEQEND
  0
POLYLINE
  8
LAYER_1
 40
0.1058
 41
0.1058
 66
1
 10
0
 20
0
 30
0
  0
VERTEX
  8
LAYER_1
 10
151.4874
 20
-107.6193
  0
VERTEX
  8
LAYER_1
 10
151.4874
 20
-109.9193
  0
SEQEND
  0
POLYLINE
  8
LAYER_1
 40
0.1058
 41
0.1058
 66
1
 10
0
 20
0
 30
0
  0
VERTEX
  8
LAYER_1
 10
151.4874
 20
-111.4193
  0
VERTEX
  8
LAYER_1
 10
151.4874
 20
-140.0675
  0
SEQEND
  0
INSERT
  8
LAYER_1
  2
AIGNBL01020051
 10
0
 20
0
 30
0
  0
INSERT
  8
LAYER_1
  2
AIGNBL01020052
 10
0
 20
0
 30
0
  0
TEXT
  8
LAYER_1
 10
150.1855
 20
-124.6767
 11
150.1855
 21
-124.6767
 40
3.7084
 41
0.5
 50
89.99999999
 72
1
  1
取付板厚5～30
  0
INSERT
  8
LAYER_1
  2
AIGNBL01020053
 10
0
 20
0
 30
0
  0
INSERT
  8
LAYER_1
  2
AIGNBL01020054
 10
0
 20
0
 30
0
  0
INSERT
  8
LAYER_1
  2
AIGNBL01020055
 10
0
 20
0
 30
0
  0
ENDBLK
  0
BLOCK
  8
LAYER_1
  2
AIGNBL01010056
 70
64
 10
0
 20
0
 30
0
  3
AIGNBL01010056
  0
POLYLINE
  8
LAYER_1
 40
0.1058
 41
0.1058
 66
1
 10
0
 20
0
 30
0
  0
VERTEX
  8
LAYER_1
 10
169.9874
 20
-186.2906
  0
VERTEX
  8
LAYER_1
 10
169.9874
 20
-197.8939
  0
SEQEND
  0
POLYLINE
  8
LAYER_1
 40
0.1058
 41
0.1058
 66
1
 10
0
 20
0
 30
0
  0
VERTEX
  8
LAYER_1
 10
166.2874
 20
-183.2939
  0
VERTEX
  8
LAYER_1
 10
166.2874
 20
-197.8939
  0
SEQEND
  0
POLYLINE
  8
LAYER_1
 40
0.1058
 41
0.1058
 66
1
 10
0
 20
0
 30
0
  0
VERTEX
  8
LAYER_1
 10
164.7874
 20
-195.8939
  0
VERTEX
  8
LAYER_1
 10
163.2874
 20
-195.8939
  0
SEQEND
  0
POLYLINE
  8
LAYER_1
 40
0.1058
 41
0.1058
 66
1
 10
0
 20
0
 30
0
  0
VERTEX
  8
LAYER_1
 10
171.4874
 20
-195.8939
  0
VERTEX
  8
LAYER_1
 10
181.4464
 20
-195.8939
  0
SEQEND
  0
POLYLINE
  8
LAYER_1
 40
0.1058
 41
0.1058
 66
1
 10
0
 20
0
 30
0
  0
VERTEX
  8
LAYER_1
 10
166.2874
 20
-195.8939
  0
VERTEX
  8
LAYER_1
 10
169.9874
 20
-195.8939
  0
SEQEND
  0
INSERT
  8
LAYER_1
  2
AIGNBL01020057
 10
0
 20
0
 30
0
  0
INSERT
  8
LAYER_1
  2
AIGNBL01020058
 10
0
 20
0
 30
0
  0
TEXT
  8
LAYER_1
 10
179.0929
 20
-194.686
 11
179.0929
 21
-194.686
 40
3.7084
 41
0.5
 72
1
  1
18.5
  0
INSERT
  8
LAYER_1
  2
AIGNBL01020059
 10
0
 20
0
 30
0
  0
INSERT
  8
LAYER_1
  2
AIGNBL0102005A
 10
0
 20
0
 30
0
  0
INSERT
  8
LAYER_1
  2
AIGNBL0102005B
 10
0
 20
0
 30
0
  0
ENDBLK
  0
BLOCK
  8
LAYER_1
  2
AIGNBL0101005C
 70
64
 10
0
 20
0
 30
0
  3
AIGNBL0101005C
  0
POLYLINE
  8
LAYER_1
 40
0.1058
 41
0.1058
 66
1
 10
0
 20
0
 30
0
  0
VERTEX
  8
LAYER_1
 10
167.3353
 20
-184.4939
  0
VERTEX
  8
LAYER_1
 10
149.4874
 20
-184.4939
  0
SEQEND
  0
POLYLINE
  8
LAYER_1
 40
0.1058
 41
0.1058
 66
1
 10
0
 20
0
 30
0
  0
VERTEX
  8
LAYER_1
 10
166.2874
 20
-149.2939
  0
VERTEX
  8
LAYER_1
 10
149.4874
 20
-149.2939
  0
SEQEND
  0
POLYLINE
  8
LAYER_1
 40
0.1058
 41
0.1058
 66
1
 10
0
 20
0
 30
0
  0
VERTEX
  8
LAYER_1
 10
151.4874
 20
-182.9939
  0
VERTEX
  8
LAYER_1
 10
151.4874
 20
-150.7939
  0
SEQEND
  0
INSERT
  8
LAYER_1
  2
AIGNBL0102005D
 10
0
 20
0
 30
0
  0
INSERT
  8
LAYER_1
  2
AIGNBL0102005E
 10
0
 20
0
 30
0
  0
TEXT
  8
LAYER_1
 10
150.1855
 20
-164.5214
 11
150.1855
 21
-164.5214
 40
3.7084
 41
0.5
 50
89.99999999
 72
1
  1
（176）
  0
INSERT
  8
LAYER_1
  2
AIGNBL0102005F
 10
0
 20
0
 30
0
  0
INSERT
  8
LAYER_1
  2
AIGNBL01020060
 10
0
 20
0
 30
0
  0
INSERT
  8
LAYER_1
  2
AIGNBL01020061
 10
0
 20
0
 30
0
  0
ENDBLK
  0
BLOCK
  8
LAYER_1
  2
AIGNBL01010062
 70
64
 10
0
 20
0
 30
0
  3
AIGNBL01010062
  0
POLYLINE
  8
LAYER_1
 40
0.1058
 41
0.1058
 66
1
 10
0
 20
0
 30
0
  0
VERTEX
  8
LAYER_1
 10
76.1929
 20
-186.4939
  0
VERTEX
  8
LAYER_1
 10
76.1929
 20
-197.8939
  0
SEQEND
  0
POLYLINE
  8
LAYER_1
 40
0.1058
 41
0.1058
 66
1
 10
0
 20
0
 30
0
  0
VERTEX
  8
LAYER_1
 10
52.8929
 20
-170.6335
  0
VERTEX
  8
LAYER_1
 10
52.8929
 20
-197.8939
  0
SEQEND
  0
POLYLINE
  8
LAYER_1
 40
0.1058
 41
0.1058
 66
1
 10
0
 20
0
 30
0
  0
VERTEX
  8
LAYER_1
 10
74.6929
 20
-195.8939
  0
VERTEX
  8
LAYER_1
 10
54.3929
 20
-195.8939
  0
SEQEND
  0
INSERT
  8
LAYER_1
  2
AIGNBL01020063
 10
0
 20
0
 30
0
  0
INSERT
  8
LAYER_1
  2
AIGNBL01020064
 10
0
 20
0
 30
0
  0
TEXT
  8
LAYER_1
 10
66.9156
 20
-194.5922
 11
66.9156
 21
-194.5922
 40
3.7084
 41
0.5
 72
1
  1
（117）
  0
INSERT
  8
LAYER_1
  2
AIGNBL01020065
 10
0
 20
0
 30
0
  0
INSERT
  8
LAYER_1
  2
AIGNBL01020066
 10
0
 20
0
 30
0
  0
INSERT
  8
LAYER_1
  2
AIGNBL01020067
 10
0
 20
0
 30
0
  0
ENDBLK
  0
BLOCK
  8
LAYER_1
  2
AIGNBL01010068
 70
64
 10
0
 20
0
 30
0
  3
AIGNBL01010068
  0
POLYLINE
  8
LAYER_1
 40
0.1058
 41
0.1058
 66
1
 10
0
 20
0
 30
0
  0
VERTEX
  8
LAYER_1
 10
61.0954
 20
-160.6335
  0
VERTEX
  8
LAYER_1
 10
42.8929
 20
-160.6335
  0
SEQEND
  0
POLYLINE
  8
LAYER_1
 40
0.1058
 41
0.1058
 66
1
 10
0
 20
0
 30
0
  0
VERTEX
  8
LAYER_1
 10
53.0617
 20
-165.8339
  0
VERTEX
  8
LAYER_1
 10
42.8929
 20
-165.8339
  0
SEQEND
  0
POLYLINE
  8
LAYER_1
 40
0.1058
 41
0.1058
 66
1
 10
0
 20
0
 30
0
  0
VERTEX
  8
LAYER_1
 10
44.8929
 20
-164.3339
  0
VERTEX
  8
LAYER_1
 10
44.8929
 20
-162.1335
  0
SEQEND
  0
POLYLINE
  8
LAYER_1
 40
0.1058
 41
0.1058
 66
1
 10
0
 20
0
 30
0
  0
VERTEX
  8
LAYER_1
 10
44.8929
 20
-160.6335
  0
VERTEX
  8
LAYER_1
 10
44.8929
 20
-153.8875
  0
SEQEND
  0
INSERT
  8
LAYER_1
  2
AIGNBL01020069
 10
0
 20
0
 30
0
  0
INSERT
  8
LAYER_1
  2
AIGNBL0102006A
 10
0
 20
0
 30
0
  0
TEXT
  8
LAYER_1
 10
43.6852
 20
-153.8249
 11
43.6852
 21
-153.8249
 40
3.7084
 41
0.5
 50
89.99999999
 72
1
  1
26
  0
INSERT
  8
LAYER_1
  2
AIGNBL0102006B
 10
0
 20
0
 30
0
  0
INSERT
  8
LAYER_1
  2
AIGNBL0102006C
 10
0
 20
0
 30
0
  0
INSERT
  8
LAYER_1
  2
AIGNBL0102006D
 10
0
 20
0
 30
0
  0
ENDBLK
  0
BLOCK
  8
LAYER_1
  2
AIGNBL0101006E
 70
64
 10
0
 20
0
 30
0
  3
AIGNBL0101006E
  0
POLYLINE
  8
LAYER_1
 40
0.1058
 41
0.1058
 66
1
 10
0
 20
0
 30
0
  0
VERTEX
  8
LAYER_1
 10
53.0617
 20
-165.8339
  0
VERTEX
  8
LAYER_1
 10
42.8929
 20
-165.8339
  0
SEQEND
  0
POLYLINE
  8
LAYER_1
 40
0.1058
 41
0.1058
 66
1
 10
0
 20
0
 30
0
  0
VERTEX
  8
LAYER_1
 10
54.4929
 20
-181.4335
  0
VERTEX
  8
LAYER_1
 10
42.8929
 20
-181.4335
  0
SEQEND
  0
POLYLINE
  8
LAYER_1
 40
0.1058
 41
0.1058
 66
1
 10
0
 20
0
 30
0
  0
VERTEX
  8
LAYER_1
 10
44.8929
 20
-167.3339
  0
VERTEX
  8
LAYER_1
 10
44.8929
 20
-179.9335
  0
SEQEND
  0
INSERT
  8
LAYER_1
  2
AIGNBL0102006F
 10
0
 20
0
 30
0
  0
INSERT
  8
LAYER_1
  2
AIGNBL01020070
 10
0
 20
0
 30
0
  0
TEXT
  8
LAYER_1
 10
43.5911
 20
-171.478
 11
43.5911
 21
-171.478
 40
3.7084
 41
0.5
 50
89.99999999
 72
1
  1
（78）
  0
INSERT
  8
LAYER_1
  2
AIGNBL01020071
 10
0
 20
0
 30
0
  0
INSERT
  8
LAYER_1
  2
AIGNBL01020072
 10
0
 20
0
 30
0
  0
INSERT
  8
LAYER_1
  2
AIGNBL01020073
 10
0
 20
0
 30
0
  0
ENDBLK
  0
BLOCK
  8
LAYER_1
  2
AIGNBL01010074
 70
64
 10
0
 20
0
 30
0
  3
AIGNBL01010074
  0
POLYLINE
  8
LAYER_1
 40
0.1058
 41
0.1058
 66
1
 10
0
 20
0
 30
0
  0
VERTEX
  8
LAYER_1
 10
73.2929
 20
-106.0638
  0
VERTEX
  8
LAYER_1
 10
73.2929
 20
-109.4514
  0
SEQEND
  0
POLYLINE
  8
LAYER_1
 40
0.1058
 41
0.1058
 66
1
 10
0
 20
0
 30
0
  0
VERTEX
  8
LAYER_1
 10
81.0929
 20
-106.0638
  0
VERTEX
  8
LAYER_1
 10
81.0929
 20
-109.4514
  0
SEQEND
  0
POLYLINE
  8
LAYER_1
 40
0.1058
 41
0.1058
 66
1
 10
0
 20
0
 30
0
  0
VERTEX
  8
LAYER_1
 10
74.7929
 20
-107.9514
  0
VERTEX
  8
LAYER_1
 10
79.5929
 20
-107.9514
  0
SEQEND
  0
POLYLINE
  8
LAYER_1
 40
0.1058
 41
0.1058
 66
1
 10
0
 20
0
 30
0
  0
VERTEX
  8
LAYER_1
 10
81.0929
 20
-107.9514
  0
VERTEX
  8
LAYER_1
 10
89.9809
 20
-107.9514
  0
SEQEND
  0
INSERT
  8
LAYER_1
  2
AIGNBL01020075
 10
0
 20
0
 30
0
  0
INSERT
  8
LAYER_1
  2
AIGNBL01020076
 10
0
 20
0
 30
0
  0
TEXT
  8
LAYER_1
 10
88.2684
 20
-106.6497
 11
88.2684
 21
-106.6497
 40
3.7084
 41
0.5
 72
1
  1
φ39
  0
INSERT
  8
LAYER_1
  2
AIGNBL01020077
 10
0
 20
0
 30
0
  0
INSERT
  8
LAYER_1
  2
AIGNBL01020078
 10
0
 20
0
 30
0
  0
INSERT
  8
LAYER_1
  2
AIGNBL01020079
 10
0
 20
0
 30
0
  0
ENDBLK
  0
BLOCK
  8
LAYER_6
  2
AIGNBL06010002
 70
64
 10
0
 20
0
 30
0
  3
AIGNBL06010002
  0
POLYLINE
  8
LAYER_6
 40
0.7056
 41
0.7056
 66
1
 10
0
 20
0
 30
0
 70
1
  0
VERTEX
  8
LAYER_6
 10
33.7873
 20
22.6587
  0
VERTEX
  8
LAYER_6
 10
230.7955
 20
22.6587
  0
VERTEX
  8
LAYER_6
 10
230.7955
 20
-259.334
  0
VERTEX
  8
LAYER_6
 10
33.7873
 20
-259.334
  0
SEQEND
  0
ENDBLK
  0
ENDSEC
  0
SECTION
  2
ENTITIES
  0
INSERT
  8
LAYER_1
  2
AIGNBL01010002
 10
0
 20
0
 30
0
  0
TEXT
  8
LAYER_1
 10
197.5752
 20
-180.4733
 11
197.5752
 21
-180.4733
 40
3.3885
 41
0.5
  1
　　　　　　　　　　　　　
  0
TEXT
  8
LAYER_1
 10
475.3901
 20
-256.1093
 11
475.3901
 21
-256.1093
 40
2.8236
 41
0.5
  1
　　　　　　　　
  0
TEXT
  8
LAYER_1
 10
197.5752
 20
-189.2232
 11
197.5752
 21
-189.2232
 40
3.3885
 41
0.5
  1
　　　　　　　　　　　　　
  0
INSERT
  8
LAYER_1
  2
AIGNBL01010024
 10
0
 20
0
 30
0
  0
INSERT
  8
LAYER_1
  2
AIGNBL0101002A
 10
0
 20
0
 30
0
  0
INSERT
  8
LAYER_1
  2
AIGNBL01010030
 10
0
 20
0
 30
0
  0
INSERT
  8
LAYER_1
  2
AIGNBL01010036
 10
0
 20
0
 30
0
  0
INSERT
  8
LAYER_1
  2
AIGNBL0101003C
 10
0
 20
0
 30
0
  0
INSERT
  8
LAYER_1
  2
AIGNBL01010042
 10
0
 20
0
 30
0
  0
INSERT
  8
LAYER_1
  2
AIGNBL01010048
 10
0
 20
0
 30
0
  0
INSERT
  8
LAYER_1
  2
AIGNBL01010050
 10
0
 20
0
 30
0
  0
INSERT
  8
LAYER_1
  2
AIGNBL01010056
 10
0
 20
0
 30
0
  0
INSERT
  8
LAYER_1
  2
AIGNBL0101005C
 10
0
 20
0
 30
0
  0
INSERT
  8
LAYER_1
  2
AIGNBL01010062
 10
0
 20
0
 30
0
  0
INSERT
  8
LAYER_1
  2
AIGNBL01010068
 10
0
 20
0
 30
0
  0
INSERT
  8
LAYER_1
  2
AIGNBL0101006E
 10
0
 20
0
 30
0
  0
INSERT
  8
LAYER_1
  2
AIGNBL01010074
 10
0
 20
0
 30
0
  0
POLYLINE
  8
LAYER_1
 40
0.1058
 41
0.1058
 66
1
 10
0
 20
0
 30
0
  0
VERTEX
  8
LAYER_1
 10
74.6529
 20
-24.6193
 42
0.1704396655
  0
VERTEX
  8
LAYER_1
 10
75.0367
 20
-25.692
 42
0.09421906855
  0
VERTEX
  8
LAYER_1
 10
75.6732
 20
-26.2449
 42
0.08492215981
  0
VERTEX
  8
LAYER_1
 10
76.5581
 20
-26.584
 42
0.0507543539
  0
VERTEX
  8
LAYER_1
 10
77.1929
 20
-26.6479
 42
0.08590887925
  0
VERTEX
  8
LAYER_1
 10
78.2382
 20
-26.4687
 42
0.0859817657
  0
VERTEX
  8
LAYER_1
 10
79.0315
 20
-26.0189
 42
0.09801176586
  0
VERTEX
  8
LAYER_1
 10
79.5452
 20
-25.3861
 42
0.1177099732
  0
VERTEX
  8
LAYER_1
 10
79.7329
 20
-24.6193
  0
SEQEND
  0
POLYLINE
  8
LAYER_1
 40
0.2469
 41
0.2469
 66
1
 10
0
 20
0
 30
0
  0
VERTEX
  8
LAYER_1
 10
164.4874
 20
-111.6193
  0
VERTEX
  8
LAYER_1
 10
164.4874
 20
-112.9193
  0
SEQEND
  0
POLYLINE
  8
LAYER_1
 40
0.2469
 41
0.2469
 66
1
 10
0
 20
0
 30
0
  0
VERTEX
  8
LAYER_1
 10
169.2874
 20
-111.6193
  0
VERTEX
  8
LAYER_1
 10
169.2874
 20
-112.9193
  0
SEQEND
  0
POLYLINE
  8
LAYER_1
 40
0.2469
 41
0.2469
 66
1
 10
0
 20
0
 30
0
  0
VERTEX
  8
LAYER_1
 10
169.0605
 20
-111.6193
  0
VERTEX
  8
LAYER_1
 10
169.0605
 20
-112.9193
  0
SEQEND
  0
POLYLINE
  8
LAYER_1
 40
0.2469
 41
0.2469
 66
1
 10
0
 20
0
 30
0
  0
VERTEX
  8
LAYER_1
 10
164.7144
 20
-111.6193
  0
VERTEX
  8
LAYER_1
 10
164.7144
 20
-112.9193
  0
SEQEND
  0
POLYLINE
  8
LAYER_1
 40
0.2469
 41
0.2469
 66
1
 10
0
 20
0
 30
0
  0
VERTEX
  8
LAYER_1
 10
166.6605
 20
-111.6193
  0
VERTEX
  8
LAYER_1
 10
166.6605
 20
-112.9193
  0
SEQEND
  0
POLYLINE
  8
LAYER_1
 40
0.2469
 41
0.2469
 66
1
 10
0
 20
0
 30
0
  0
VERTEX
  8
LAYER_1
 10
167.1144
 20
-111.6193
  0
VERTEX
  8
LAYER_1
 10
167.1144
 20
-112.9193
  0
SEQEND
  0
POLYLINE
  8
LAYER_1
 40
0.1058
 41
0.1058
 66
1
 10
0
 20
0
 30
0
 70
1
  0
VERTEX
  8
LAYER_1
 10
209.0705
 20
-131.5385
  0
VERTEX
  8
LAYER_1
 10
211.2705
 20
-131.5385
  0
VERTEX
  8
LAYER_1
 10
211.2705
 20
-134.1385
  0
VERTEX
  8
LAYER_1
 10
209.0705
 20
-134.1385
  0
SEQEND
  0
POLYLINE
  8
LAYER_1
 40
0.1058
 41
0.1058
 66
1
 10
0
 20
0
 30
0
  0
VERTEX
  8
LAYER_1
 10
209.8405
 20
-134.1385
  0
VERTEX
  8
LAYER_1
 10
209.8405
 20
-132.7785
  0
VERTEX
  8
LAYER_1
 10
209.5405
 20
-132.7785
  0
VERTEX
  8
LAYER_1
 10
209.5405
 20
-134.1385
  0
SEQEND
  0
POLYLINE
  8
LAYER_1
 40
0.1058
 41
0.1058
 66
1
 10
0
 20
0
 30
0
  0
VERTEX
  8
LAYER_1
 10
210.8005
 20
-134.1385
  0
VERTEX
  8
LAYER_1
 10
210.8005
 20
-132.7785
  0
VERTEX
  8
LAYER_1
 10
210.5005
 20
-132.7785
  0
VERTEX
  8
LAYER_1
 10
210.5005
 20
-134.1385
  0
SEQEND
  0
POLYLINE
  8
LAYER_1
 40
0.1058
 41
0.1058
 66
1
 10
0
 20
0
 30
0
  0
VERTEX
  8
LAYER_1
 10
209.8405
 20
-133.4985
  0
VERTEX
  8
LAYER_1
 10
210.5005
 20
-133.4985
  0
SEQEND
  0
POLYLINE
  8
LAYER_1
 40
0.1058
 41
0.1058
 66
1
 10
0
 20
0
 30
0
  0
VERTEX
  8
LAYER_1
 10
209.7905
 20
-138.5856
  0
VERTEX
  8
LAYER_1
 10
209.7905
 20
-136.6456
 42
0.392852767
  0
VERTEX
  8
LAYER_1
 10
209.7305
 20
-136.5856
 42
0.3923136174
  0
VERTEX
  8
LAYER_1
 10
209.6705
 20
-136.6456
  0
VERTEX
  8
LAYER_1
 10
209.6705
 20
-138.5856
  0
SEQEND
  0
POLYLINE
  8
LAYER_1
 40
0.1058
 41
0.1058
 66
1
 10
0
 20
0
 30
0
  0
VERTEX
  8
LAYER_1
 10
210.6705
 20
-138.5856
  0
VERTEX
  8
LAYER_1
 10
210.6705
 20
-136.6456
 42
0.392852767
  0
VERTEX
  8
LAYER_1
 10
210.6105
 20
-136.5856
 42
0.3923136174
  0
VERTEX
  8
LAYER_1
 10
210.5505
 20
-136.6456
  0
VERTEX
  8
LAYER_1
 10
210.5505
 20
-138.5856
  0
SEQEND
  0
POLYLINE
  8
LAYER_1
 40
0.1058
 41
0.1058
 66
1
 10
0
 20
0
 30
0
  0
VERTEX
  8
LAYER_1
 10
210.4705
 20
-138.5856
  0
VERTEX
  8
LAYER_1
 10
210.4705
 20
-136.6856
  0
VERTEX
  8
LAYER_1
 10
209.8705
 20
-136.6856
  0
VERTEX
  8
LAYER_1
 10
209.8705
 20
-138.5856
  0
SEQEND
  0
POLYLINE
  8
LAYER_1
 40
0.1058
 41
0.1058
 66
1
 10
0
 20
0
 30
0
  0
VERTEX
  8
LAYER_1
 10
209.8705
 20
-137.0856
  0
VERTEX
  8
LAYER_1
 10
210.4705
 20
-137.0856
  0
SEQEND
  0
POLYLINE
  8
LAYER_1
 40
0.1058
 41
0.1058
 66
1
 10
0
 20
0
 30
0
  0
VERTEX
  8
LAYER_1
 10
209.8705
 20
-136.9456
  0
VERTEX
  8
LAYER_1
 10
210.4705
 20
-136.9456
  0
SEQEND
  0
POLYLINE
  8
LAYER_1
 40
0.1058
 41
0.1058
 66
1
 10
0
 20
0
 30
0
 70
1
  0
VERTEX
  8
LAYER_1
 10
209.2005
 20
-138.5856
 42
-0.4140910536
  0
VERTEX
  8
LAYER_1
 10
209.1005
 20
-138.4856
  0
VERTEX
  8
LAYER_1
 10
209.1005
 20
-137.8256
 42
-0.414109864
  0
VERTEX
  8
LAYER_1
 10
209.2005
 20
-137.7256
  0
VERTEX
  8
LAYER_1
 10
209.3005
 20
-137.7256
  0
VERTEX
  8
LAYER_1
 10
209.3005
 20
-135.3856
 42
-0.4141098641
  0
VERTEX
  8
LAYER_1
 10
209.4005
 20
-135.2856
  0
VERTEX
  8
LAYER_1
 10
210.9405
 20
-135.2856
 42
-0.4143360961
  0
VERTEX
  8
LAYER_1
 10
211.0405
 20
-135.3856
  0
VERTEX
  8
LAYER_1
 10
211.0405
 20
-137.7256
  0
VERTEX
  8
LAYER_1
 10
211.1405
 20
-137.7256
 42
-0.4143360961
  0
VERTEX
  8
LAYER_1
 10
211.2405
 20
-137.8256
  0
VERTEX
  8
LAYER_1
 10
211.2405
 20
-138.4856
 42
-0.4143172541
  0
VERTEX
  8
LAYER_1
 10
211.1405
 20
-138.5856
  0
SEQEND
  0
POLYLINE
  8
LAYER_1
 40
0.1058
 41
0.1058
 66
1
 10
0
 20
0
 30
0
  0
VERTEX
  8
LAYER_1
 10
168.9829
 20
-111.0193
  0
VERTEX
  8
LAYER_1
 10
168.9829
 20
-106.5193
  0
SEQEND
  0
POLYLINE
  8
LAYER_1
 40
0.1058
 41
0.1058
 66
1
 10
0
 20
0
 30
0
  0
VERTEX
  8
LAYER_1
 10
168.7505
 20
-114.0193
  0
VERTEX
  8
LAYER_1
 10
168.7505
 20
-112.9193
  0
SEQEND
  0
POLYLINE
  8
LAYER_1
 40
0.1058
 41
0.1058
 66
1
 10
0
 20
0
 30
0
  0
VERTEX
  8
LAYER_1
 10
168.7505
 20
-106.8193
  0
VERTEX
  8
LAYER_1
 10
168.9829
 20
-106.8193
  0
VERTEX
  8
LAYER_1
 10
166.8874
 20
-106.8193
  0
SEQEND
  0
POLYLINE
  8
LAYER_1
 40
0.1482
 41
0.1482
 66
1
 10
0
 20
0
 30
0
  0
VERTEX
  8
LAYER_1
 10
170.6682
 20
-104.0623
 42
-0.2971286433
  0
VERTEX
  8
LAYER_1
 10
170.7874
 20
-104.2453
  0
VERTEX
  8
LAYER_1
 10
170.7874
 20
-106.0593
  0
SEQEND
  0
POLYLINE
  8
LAYER_1
 40
0.1058
 41
0.1058
 66
1
 10
0
 20
0
 30
0
  0
VERTEX
  8
LAYER_1
 10
168.9238
 20
-106.5193
  0
VERTEX
  8
LAYER_1
 10
168.7505
 20
-106.8193
  0
VERTEX
  8
LAYER_1
 10
168.7505
 20
-111.0193
  0
SEQEND
  0
POLYLINE
  8
LAYER_1
 40
0.1058
 41
0.1058
 66
1
 10
0
 20
0
 30
0
  0
VERTEX
  8
LAYER_1
 10
170.6682
 20
-104.0623
  0
VERTEX
  8
LAYER_1
 10
169.4374
 20
-103.5193
  0
VERTEX
  8
LAYER_1
 10
168.9874
 20
-103.5193
  0
SEQEND
  0
POLYLINE
  8
LAYER_1
 40
0.1058
 41
0.1058
 66
1
 10
0
 20
0
 30
0
  0
VERTEX
  8
LAYER_1
 10
164.7919
 20
-111.0193
  0
VERTEX
  8
LAYER_1
 10
164.7919
 20
-106.5193
  0
SEQEND
  0
POLYLINE
  8
LAYER_1
 40
0.1058
 41
0.1058
 66
1
 10
0
 20
0
 30
0
  0
VERTEX
  8
LAYER_1
 10
165.0243
 20
-114.0193
  0
VERTEX
  8
LAYER_1
 10
165.0243
 20
-112.9193
  0
SEQEND
  0
POLYLINE
  8
LAYER_1
 40
0.1058
 41
0.1058
 66
1
 10
0
 20
0
 30
0
 70
1
  0
VERTEX
  8
LAYER_1
 10
166.8874
 20
-106.8193
  0
VERTEX
  8
LAYER_1
 10
164.7919
 20
-106.8193
  0
SEQEND
  0
POLYLINE
  8
LAYER_1
 40
0.1482
 41
0.1482
 66
1
 10
0
 20
0
 30
0
  0
VERTEX
  8
LAYER_1
 10
163.1067
 20
-104.0623
 42
0.297140781
  0
VERTEX
  8
LAYER_1
 10
162.9874
 20
-104.2453
  0
VERTEX
  8
LAYER_1
 10
162.9874
 20
-106.0593
  0
SEQEND
  0
POLYLINE
  8
LAYER_1
 40
0.1058
 41
0.1058
 66
1
 10
0
 20
0
 30
0
  0
VERTEX
  8
LAYER_1
 10
164.8511
 20
-106.5193
  0
VERTEX
  8
LAYER_1
 10
165.0243
 20
-106.8193
  0
VERTEX
  8
LAYER_1
 10
165.0243
 20
-111.0193
  0
SEQEND
  0
POLYLINE
  8
LAYER_1
 40
0.1058
 41
0.1058
 66
1
 10
0
 20
0
 30
0
  0
VERTEX
  8
LAYER_1
 10
169.0574
 20
-92.5193
  0
VERTEX
  8
LAYER_1
 10
169.3674
 20
-92.5193
 42
-0.3928373506
  0
VERTEX
  8
LAYER_1
 10
169.4274
 20
-92.5793
  0
VERTEX
  8
LAYER_1
 10
169.4274
 20
-103.4593
 42
-0.393376027
  0
VERTEX
  8
LAYER_1
 10
169.3674
 20
-103.5193
  0
VERTEX
  8
LAYER_1
 10
166.8874
 20
-103.5193
  0
VERTEX
  8
LAYER_1
 10
164.3374
 20
-103.5193
  0
VERTEX
  8
LAYER_1
 10
163.1067
 20
-104.0623
  0
SEQEND
  0
POLYLINE
  8
LAYER_1
 40
0.1058
 41
0.1058
 66
1
 10
0
 20
0
 30
0
  0
VERTEX
  8
LAYER_1
 10
164.7174
 20
-92.5193
  0
VERTEX
  8
LAYER_1
 10
164.4074
 20
-92.5193
 42
0.3923136174
  0
VERTEX
  8
LAYER_1
 10
164.3474
 20
-92.5793
  0
VERTEX
  8
LAYER_1
 10
164.3474
 20
-103.4593
 42
0.3928373508
  0
VERTEX
  8
LAYER_1
 10
164.4074
 20
-103.5193
  0
VERTEX
  8
LAYER_1
 10
164.7874
 20
-103.5193
  0
SEQEND
  0
POLYLINE
  8
LAYER_1
 40
0.1058
 41
0.1058
 66
1
 10
0
 20
0
 30
0
  0
VERTEX
  8
LAYER_1
 10
137.3545
 20
-76.0698
  0
VERTEX
  8
LAYER_1
 10
137.2095
 20
-76.0022
  0
VERTEX
  8
LAYER_1
 10
137.2771
 20
-75.8572
  0
SEQEND
  0
POLYLINE
  8
LAYER_1
 40
0.1058
 41
0.1058
 66
1
 10
0
 20
0
 30
0
  0
VERTEX
  8
LAYER_1
 10
164.7919
 20
-112.9193
  0
VERTEX
  8
LAYER_1
 10
164.7919
 20
-114.0193
  0
VERTEX
  8
LAYER_1
 10
165.0874
 20
-114.0193
  0
VERTEX
  8
LAYER_1
 10
165.0874
 20
-115.2148
  0
VERTEX
  8
LAYER_1
 10
165.0919
 20
-115.2193
  0
VERTEX
  8
LAYER_1
 10
166.8874
 20
-115.2193
  0
VERTEX
  8
LAYER_1
 10
168.6829
 20
-115.2193
  0
VERTEX
  8
LAYER_1
 10
168.6874
 20
-115.2148
  0
VERTEX
  8
LAYER_1
 10
168.6874
 20
-114.0193
  0
VERTEX
  8
LAYER_1
 10
168.9829
 20
-114.0193
  0
VERTEX
  8
LAYER_1
 10
168.9829
 20
-112.9193
  0
SEQEND
  0
POLYLINE
  8
LAYER_1
 40
0.1058
 41
0.1058
 66
1
 10
0
 20
0
 30
0
  0
VERTEX
  8
LAYER_1
 10
142.9546
 20
-75.702
  0
VERTEX
  8
LAYER_1
 10
143.0346
 20
-75.7187
 42
0.2914917044
  0
VERTEX
  8
LAYER_1
 10
143.2159
 20
-75.6032
  0
VERTEX
  8
LAYER_1
 10
143.4694
 20
-75.0594
  0
VERTEX
  8
LAYER_1
 10
143.4882
 20
-74.9749
 42
0.2847342213
  0
VERTEX
  8
LAYER_1
 10
143.3772
 20
-74.7958
  0
SEQEND
  0
POLYLINE
  8
LAYER_1
 40
0.1058
 41
0.1058
 66
1
 10
0
 20
0
 30
0
  0
VERTEX
  8
LAYER_1
 10
141.5451
 20
-78.0239
 42
-0.2507443803
  0
VERTEX
  8
LAYER_1
 10
141.4096
 20
-78.0987
  0
VERTEX
  8
LAYER_1
 10
141.342
 20
-78.0837
  0
VERTEX
  8
LAYER_1
 10
140.1729
 20
-77.5385
  0
VERTEX
  8
LAYER_1
 10
139.0037
 20
-76.9933
 42
-0.2914082987
  0
VERTEX
  8
LAYER_1
 10
138.9114
 20
-76.8483
  0
VERTEX
  8
LAYER_1
 10
138.919
 20
-76.7993
  0
SEQEND
  0
POLYLINE
  8
LAYER_1
 40
0.1058
 41
0.1058
 66
1
 10
0
 20
0
 30
0
  0
VERTEX
  8
LAYER_1
 10
169.4274
 20
-92.4593
  0
VERTEX
  8
LAYER_1
 10
169.4274
 20
-74.6614
  0
SEQEND
  0
POLYLINE
  8
LAYER_1
 40
0.1058
 41
0.1058
 66
1
 10
0
 20
0
 30
0
  0
VERTEX
  8
LAYER_1
 10
164.3474
 20
-92.4593
  0
VERTEX
  8
LAYER_1
 10
164.3474
 20
-74.6614
 42
0.4142143533
  0
VERTEX
  8
LAYER_1
 10
154.4074
 20
-64.7214
 42
0.2914728949
  0
VERTEX
  8
LAYER_1
 10
145.3987
 20
-70.4606
  0
VERTEX
  8
LAYER_1
 10
143.1659
 20
-75.2489
  0
VERTEX
  8
LAYER_1
 10
141.8812
 20
-78.0041
 42
-0.2913696304
  0
VERTEX
  8
LAYER_1
 10
141.7362
 20
-78.0964
  0
VERTEX
  8
LAYER_1
 10
141.6685
 20
-78.0815
  0
VERTEX
  8
LAYER_1
 10
139.5115
 20
-77.0756
  0
VERTEX
  8
LAYER_1
 10
137.3545
 20
-76.0698
 42
-0.2914264748
  0
VERTEX
  8
LAYER_1
 10
137.2621
 20
-75.9248
  0
VERTEX
  8
LAYER_1
 10
137.2771
 20
-75.8572
  0
VERTEX
  8
LAYER_1
 10
140.7947
 20
-68.3137
 42
-0.2914727527
  0
VERTEX
  8
LAYER_1
 10
154.4074
 20
-59.6414
 42
-0.4142140858
  0
VERTEX
  8
LAYER_1
 10
169.4274
 20
-74.6614
  0
VERTEX
  8
LAYER_1
 10
169.4274
 20
-92.4793
 42
-0.3930184733
  0
VERTEX
  8
LAYER_1
 10
169.3874
 20
-92.5193
  0
VERTEX
  8
LAYER_1
 10
166.8874
 20
-92.5193
  0
VERTEX
  8
LAYER_1
 10
164.3874
 20
-92.5193
 42
-0.3923530352
  0
VERTEX
  8
LAYER_1
 10
164.3474
 20
-92.4793
  0
VERTEX
  8
LAYER_1
 10
164.3474
 20
-74.6614
  0
SEQEND
  0
POLYLINE
  8
LAYER_1
 40
0.1058
 41
0.1058
 66
1
 10
0
 20
0
 30
0
  0
VERTEX
  8
LAYER_1
 10
165.3874
 20
-115.2193
  0
VERTEX
  8
LAYER_1
 10
165.3874
 20
-136.4244
  0
SEQEND
  0
POLYLINE
  8
LAYER_1
 40
0.1058
 41
0.1058
 66
1
 10
0
 20
0
 30
0
  0
VERTEX
  8
LAYER_1
 10
168.1874
 20
-115.4193
  0
VERTEX
  8
LAYER_1
 10
168.1874
 20
-118.2193
 42
0.4142078669
  0
VERTEX
  8
LAYER_1
 10
169.1874
 20
-119.2193
  0
VERTEX
  8
LAYER_1
 10
174.0274
 20
-119.2193
  0
SEQEND
  0
POLYLINE
  8
LAYER_1
 40
0.1058
 41
0.1058
 66
1
 10
0
 20
0
 30
0
  0
VERTEX
  8
LAYER_1
 10
174.0274
 20
-120.2193
  0
VERTEX
  8
LAYER_1
 10
169.2274
 20
-120.2193
 42
-0.4142107709
  0
VERTEX
  8
LAYER_1
 10
167.1874
 20
-118.1793
  0
VERTEX
  8
LAYER_1
 10
167.1874
 20
-116.2193
  0
VERTEX
  8
LAYER_1
 10
167.1874
 20
-136.4244
  0
SEQEND
  0
POLYLINE
  8
LAYER_1
 40
0.1058
 41
0.1058
 66
1
 10
0
 20
0
 30
0
  0
VERTEX
  8
LAYER_1
 10
211.2705
 20
-129.7785
  0
VERTEX
  8
LAYER_1
 10
211.2705
 20
-128.9785
  0
VERTEX
  8
LAYER_1
 10
209.0705
 20
-128.9785
  0
VERTEX
  8
LAYER_1
 10
209.0705
 20
-129.7785
  0
SEQEND
  0
POLYLINE
  8
LAYER_1
 40
0.1058
 41
0.1058
 66
1
 10
0
 20
0
 30
0
  0
VERTEX
  8
LAYER_1
 10
211.0705
 20
-129.9785
  0
VERTEX
  8
LAYER_1
 10
211.0705
 20
-131.5385
  0
SEQEND
  0
POLYLINE
  8
LAYER_1
 40
0.1058
 41
0.1058
 66
1
 10
0
 20
0
 30
0
  0
VERTEX
  8
LAYER_1
 10
209.2705
 20
-131.5385
  0
VERTEX
  8
LAYER_1
 10
209.2705
 20
-129.9785
  0
VERTEX
  8
LAYER_1
 10
211.0705
 20
-129.9785
  0
VERTEX
  8
LAYER_1
 10
211.2705
 20
-129.7785
  0
VERTEX
  8
LAYER_1
 10
209.0705
 20
-129.7785
  0
VERTEX
  8
LAYER_1
 10
209.2705
 20
-129.9785
  0
SEQEND
  0
POLYLINE
  8
LAYER_1
 40
0.2469
 41
0.2469
 66
1
 10
0
 20
0
 30
0
 70
1
  0
VERTEX
  8
LAYER_1
 10
163.2874
 20
-111.4193
  0
VERTEX
  8
LAYER_1
 10
163.2874
 20
-111.6193
  0
VERTEX
  8
LAYER_1
 10
166.8874
 20
-111.6193
  0
VERTEX
  8
LAYER_1
 10
170.4874
 20
-111.6193
  0
VERTEX
  8
LAYER_1
 10
170.4874
 20
-111.4193
  0
VERTEX
  8
LAYER_1
 10
166.8874
 20
-111.4193
  0
SEQEND
  0
POLYLINE
  8
LAYER_1
 40
0.2469
 41
0.2469
 66
1
 10
0
 20
0
 30
0
  0
VERTEX
  8
LAYER_1
 10
169.2874
 20
-112.9193
  0
VERTEX
  8
LAYER_1
 10
166.8874
 20
-112.9193
  0
VERTEX
  8
LAYER_1
 10
164.4874
 20
-112.9193
  0
SEQEND
  0
POLYLINE
  8
LAYER_1
 40
0.1058
 41
0.1058
 66
1
 10
0
 20
0
 30
0
  0
VERTEX
  8
LAYER_1
 10
168.9829
 20
-111.4193
  0
VERTEX
  8
LAYER_1
 10
170.2874
 20
-111.4193
  0
VERTEX
  8
LAYER_1
 10
170.2874
 20
-111.0193
  0
VERTEX
  8
LAYER_1
 10
166.8874
 20
-111.0193
  0
VERTEX
  8
LAYER_1
 10
163.4874
 20
-111.0193
  0
VERTEX
  8
LAYER_1
 10
163.4874
 20
-111.4193
  0
VERTEX
  8
LAYER_1
 10
164.7919
 20
-111.4193
  0
SEQEND
  0
POLYLINE
  8
LAYER_1
 40
0.2469
 41
0.2469
 66
1
 10
0
 20
0
 30
0
  0
VERTEX
  8
LAYER_1
 10
164.4874
 20
-111.6193
  0
VERTEX
  8
LAYER_1
 10
164.7919
 20
-111.6193
  0
SEQEND
  0
POLYLINE
  8
LAYER_1
 40
0.2469
 41
0.2469
 66
1
 10
0
 20
0
 30
0
  0
VERTEX
  8
LAYER_1
 10
169.2874
 20
-111.6193
  0
VERTEX
  8
LAYER_1
 10
168.9829
 20
-111.6193
  0
SEQEND
  0
POLYLINE
  8
LAYER_1
 40
0.1058
 41
0.1058
 66
1
 10
0
 20
0
 30
0
  0
VERTEX
  8
LAYER_1
 10
163.3874
 20
-106.1193
  0
VERTEX
  8
LAYER_1
 10
163.3874
 20
-106.5193
  0
VERTEX
  8
LAYER_1
 10
166.8874
 20
-106.5193
  0
VERTEX
  8
LAYER_1
 10
170.3874
 20
-106.5193
  0
VERTEX
  8
LAYER_1
 10
170.3874
 20
-106.1193
  0
SEQEND
  0
POLYLINE
  8
LAYER_1
  6
AIGENLINE001
 40
0.1058
 41
0.1058
 66
1
 10
0
 20
0
 30
0
 70
128
  0
VERTEX
  8
LAYER_1
 10
166.8874
 20
-116.4193
  0
VERTEX
  8
LAYER_1
 10
166.8874
 20
-74.6614
 42
0.4142141923
  0
VERTEX
  8
LAYER_1
 10
154.4074
 20
-62.1814
 42
0.2914718244
  0
VERTEX
  8
LAYER_1
 10
143.0967
 20
-69.3871
  0
VERTEX
  8
LAYER_1
 10
139.3256
 20
-77.4744
  0
SEQEND
  0
POLYLINE
  8
LAYER_1
 40
0.1058
 41
0.1058
 66
1
 10
0
 20
0
 30
0
  0
VERTEX
  8
LAYER_1
 10
174.7474
 20
-119.2193
 42
-0.4001244878
  0
VERTEX
  8
LAYER_1
 10
174.7474
 20
-119.4193
 42
0.1904588847
  0
VERTEX
  8
LAYER_1
 10
174.7074
 20
-119.5193
 42
0.1903993087
  0
VERTEX
  8
LAYER_1
 10
174.7474
 20
-119.6193
 42
-0.1908568911
  0
VERTEX
  8
LAYER_1
 10
174.7874
 20
-119.7193
 42
-0.1912051862
  0
VERTEX
  8
LAYER_1
 10
174.7474
 20
-119.8193
 42
0.1904588847
  0
VERTEX
  8
LAYER_1
 10
174.7074
 20
-119.9193
 42
0.1903993087
  0
VERTEX
  8
LAYER_1
 10
174.7474
 20
-120.0193
 42
-0.1908568911
  0
VERTEX
  8
LAYER_1
 10
174.7874
 20
-120.1193
 42
-0.1912051862
  0
VERTEX
  8
LAYER_1
 10
174.7474
 20
-120.2193
  0
SEQEND
  0
POLYLINE
  8
LAYER_1
 40
0.1058
 41
0.1058
 66
1
 10
0
 20
0
 30
0
  0
VERTEX
  8
LAYER_1
 10
174.0274
 20
-119.2193
 42
-0.4001244878
  0
VERTEX
  8
LAYER_1
 10
174.0274
 20
-119.4193
 42
0.1904588847
  0
VERTEX
  8
LAYER_1
 10
173.9874
 20
-119.5193
 42
0.1903993087
  0
VERTEX
  8
LAYER_1
 10
174.0274
 20
-119.6193
 42
-0.1908568911
  0
VERTEX
  8
LAYER_1
 10
174.0674
 20
-119.7193
 42
-0.1912051862
  0
VERTEX
  8
LAYER_1
 10
174.0274
 20
-119.8193
 42
0.1904588847
  0
VERTEX
  8
LAYER_1
 10
173.9874
 20
-119.9193
 42
0.1903993087
  0
VERTEX
  8
LAYER_1
 10
174.0274
 20
-120.0193
 42
-0.1908568911
  0
VERTEX
  8
LAYER_1
 10
174.0674
 20
-120.1193
 42
-0.1912051862
  0
VERTEX
  8
LAYER_1
 10
174.0274
 20
-120.2193
  0
SEQEND
  0
POLYLINE
  8
LAYER_1
 40
0.1058
 41
0.1058
 66
1
 10
0
 20
0
 30
0
 70
1
  0
VERTEX
  8
LAYER_1
 10
74.6529
 20
-62.1859
 42
-0.4142084691
  0
VERTEX
  8
LAYER_1
 10
77.1929
 20
-59.6459
 42
-0.4142144413
  0
VERTEX
  8
LAYER_1
 10
79.7329
 20
-62.1859
  0
VERTEX
  8
LAYER_1
 10
79.7329
 20
-92.4838
 42
-0.3930184733
  0
VERTEX
  8
LAYER_1
 10
79.6929
 20
-92.5238
  0
VERTEX
  8
LAYER_1
 10
74.6929
 20
-92.5238
 42
-0.3930184735
  0
VERTEX
  8
LAYER_1
 10
74.6529
 20
-92.4838
  0
SEQEND
  0
POLYLINE
  8
LAYER_1
 40
0.1058
 41
0.1058
 66
1
 10
0
 20
0
 30
0
  0
VERTEX
  8
LAYER_1
 10
78.2542
 20
-78.0554
 42
0.08251141855
  0
VERTEX
  8
LAYER_1
 10
79.2791
 20
-77.6901
 42
0.1322673632
  0
VERTEX
  8
LAYER_1
 10
79.6869
 20
-77.2815
 42
0.1084324421
  0
VERTEX
  8
LAYER_1
 10
79.7329
 20
-77.0801
 42
0.204110029
  0
VERTEX
  8
LAYER_1
 10
79.5452
 20
-76.6744
 42
0.06077116326
  0
VERTEX
  8
LAYER_1
 10
79.2991
 20
-76.48
 42
0.0459202838
  0
VERTEX
  8
LAYER_1
 10
78.9232
 20
-76.2943
 42
0.06923317053
  0
VERTEX
  8
LAYER_1
 10
77.8277
 20
-76.0405
 42
0.02696854777
  0
VERTEX
  8
LAYER_1
 10
77.1929
 20
-76.0067
 42
0.06363502619
  0
VERTEX
  8
LAYER_1
 10
75.8239
 20
-76.1758
 42
0.08307946696
  0
VERTEX
  8
LAYER_1
 10
74.9894
 20
-76.5458
 42
0.1474402596
  0
VERTEX
  8
LAYER_1
 10
74.6733
 20
-76.9434
 42
0.07374332082
  0
VERTEX
  8
LAYER_1
 10
74.6529
 20
-77.0801
 42
0.2037999948
  0
VERTEX
  8
LAYER_1
 10
74.8406
 20
-77.4822
 42
0.05927906932
  0
VERTEX
  8
LAYER_1
 10
75.0819
 20
-77.6746
 42
0.04485920092
  0
VERTEX
  8
LAYER_1
 10
75.4412
 20
-77.8562
 42
0.04922310619
  0
VERTEX
  8
LAYER_1
 10
76.1327
 20
-78.0556
  0
SEQEND
  0
POLYLINE
  8
LAYER_1
 40
0.1058
 41
0.1058
 66
1
 10
0
 20
0
 30
0
  0
VERTEX
  8
LAYER_1
 10
78.3981
 20
-77.9377
 42
0.0957689343
  0
VERTEX
  8
LAYER_1
 10
79.2698
 20
-77.5521
 42
0.1621669988
  0
VERTEX
  8
LAYER_1
 10
79.5449
 20
-77.1616
 42
0.04636787274
  0
VERTEX
  8
LAYER_1
 10
79.5529
 20
-77.0801
 42
0.2096667124
  0
VERTEX
  8
LAYER_1
 10
79.3674
 20
-76.6919
 42
0.05932138254
  0
VERTEX
  8
LAYER_1
 10
79.1338
 20
-76.5126
 42
0.0450668136
  0
VERTEX
  8
LAYER_1
 10
78.7797
 20
-76.3418
 42
0.07157477525
  0
VERTEX
  8
LAYER_1
 10
77.6973
 20
-76.1055
 42
0.02281211443
  0
VERTEX
  8
LAYER_1
 10
77.1929
 20
-76.0827
 42
0.06817429675
  0
VERTEX
  8
LAYER_1
 10
75.85
 20
-76.2598
 42
0.08997792236
  0
VERTEX
  8
LAYER_1
 10
75.0911
 20
-76.6261
 42
0.162717734
  0
VERTEX
  8
LAYER_1
 10
74.8398
 20
-77.0034
 42
0.0432011778
  0
VERTEX
  8
LAYER_1
 10
74.8329
 20
-77.0801
 42
0.2116789969
  0
VERTEX
  8
LAYER_1
 10
75.025
 20
-77.4724
 42
0.0603444409
  0
VERTEX
  8
LAYER_1
 10
75.2751
 20
-77.6601
 42
0.07524832337
  0
VERTEX
  8
LAYER_1
 10
75.9853
 20
-77.937
  0
SEQEND
  0
POLYLINE
  8
LAYER_1
 40
0.1058
 41
0.1058
 66
1
 10
0
 20
0
 30
0
  0
VERTEX
  8
LAYER_1
 10
75.1274
 20
-76.5977
 42
0.1996724985
  0
VERTEX
  8
LAYER_1
 10
74.8925
 20
-77.0117
 42
0.008246368577
  0
VERTEX
  8
LAYER_1
 10
74.8923
 20
-77.0257
 42
0.2134096113
  0
VERTEX
  8
LAYER_1
 10
75.0829
 20
-77.4119
 42
0.06040617487
  0
VERTEX
  8
LAYER_1
 10
75.3303
 20
-77.5956
 42
0.06320723762
  0
VERTEX
  8
LAYER_1
 10
75.8883
 20
-77.8264
  0
SEQEND
  0
POLYLINE
  8
LAYER_1
 40
0.1058
 41
0.1058
 66
1
 10
0
 20
0
 30
0
  0
VERTEX
  8
LAYER_1
 10
78.496
 20
-77.8268
 42
0.104242082
  0
VERTEX
  8
LAYER_1
 10
79.2814
 20
-77.4322
 42
0.1766283995
  0
VERTEX
  8
LAYER_1
 10
79.4925
 20
-77.0555
 42
0.0179674725
  0
VERTEX
  8
LAYER_1
 10
79.4936
 20
-77.0257
 42
0.2164123158
  0
VERTEX
  8
LAYER_1
 10
79.3004
 20
-76.6358
 42
0.0156111328
  0
VERTEX
  8
LAYER_1
 10
79.2585
 20
-76.5977
  0
SEQEND
  0
POLYLINE
  8
LAYER_1
 40
0.1058
 41
0.1058
 66
1
 10
0
 20
0
 30
0
 70
1
  0
VERTEX
  8
LAYER_1
 10
74.7129
 20
-103.5238
 42
-0.3928527672
  0
VERTEX
  8
LAYER_1
 10
74.6529
 20
-103.4638
  0
VERTEX
  8
LAYER_1
 10
74.6529
 20
-92.5838
 42
-0.3923136174
  0
VERTEX
  8
LAYER_1
 10
74.7129
 20
-92.5238
  0
VERTEX
  8
LAYER_1
 10
77.1929
 20
-92.5238
  0
VERTEX
  8
LAYER_1
 10
79.6729
 20
-92.5238
 42
-0.3928373506
  0
VERTEX
  8
LAYER_1
 10
79.7329
 20
-92.5838
  0
VERTEX
  8
LAYER_1
 10
79.7329
 20
-103.4638
 42
-0.393376027
  0
VERTEX
  8
LAYER_1
 10
79.6729
 20
-103.5238
  0
SEQEND
  0
POLYLINE
  8
LAYER_1
 40
0.1058
 41
0.1058
 66
1
 10
0
 20
0
 30
0
  0
VERTEX
  8
LAYER_1
 10
75.0974
 20
-111.0238
  0
VERTEX
  8
LAYER_1
 10
75.0974
 20
-106.5238
  0
SEQEND
  0
POLYLINE
  8
LAYER_1
 40
0.1058
 41
0.1058
 66
1
 10
0
 20
0
 30
0
  0
VERTEX
  8
LAYER_1
 10
75.3298
 20
-115.1562
  0
VERTEX
  8
LAYER_1
 10
75.3298
 20
-112.9238
  0
SEQEND
  0
POLYLINE
  8
LAYER_1
 40
0.1058
 41
0.1058
 66
1
 10
0
 20
0
 30
0
 70
1
  0
VERTEX
  8
LAYER_1
 10
74.9229
 20
-103.5238
  0
VERTEX
  8
LAYER_1
 10
74.7129
 20
-103.5238
  0
SEQEND
  0
POLYLINE
  8
LAYER_1
 40
0.1058
 41
0.1058
 66
1
 10
0
 20
0
 30
0
  0
VERTEX
  8
LAYER_1
 10
74.6429
 20
-103.5238
  0
VERTEX
  8
LAYER_1
 10
74.8929
 20
-103.5238
  0
SEQEND
  0
POLYLINE
  8
LAYER_1
 40
0.1482
 41
0.1482
 66
1
 10
0
 20
0
 30
0
  0
VERTEX
  8
LAYER_1
 10
73.4122
 20
-104.0668
 42
0.297164708
  0
VERTEX
  8
LAYER_1
 10
73.2929
 20
-104.2498
  0
VERTEX
  8
LAYER_1
 10
73.2929
 20
-106.0638
  0
SEQEND
  0
POLYLINE
  8
LAYER_1
 40
0.1058
 41
0.1058
 66
1
 10
0
 20
0
 30
0
  0
VERTEX
  8
LAYER_1
 10
75.1566
 20
-106.5238
  0
VERTEX
  8
LAYER_1
 10
75.3298
 20
-106.8238
  0
VERTEX
  8
LAYER_1
 10
75.3298
 20
-111.0238
  0
SEQEND
  0
POLYLINE
  8
LAYER_1
 40
0.1058
 41
0.1058
 66
1
 10
0
 20
0
 30
0
  0
VERTEX
  8
LAYER_1
 10
75.0974
 20
-114.8783
  0
VERTEX
  8
LAYER_1
 10
76.12
 20
-114.8783
  0
SEQEND
  0
POLYLINE
  8
LAYER_1
 40
0.1058
 41
0.1058
 66
1
 10
0
 20
0
 30
0
  0
VERTEX
  8
LAYER_1
 10
79.056
 20
-115.1562
  0
VERTEX
  8
LAYER_1
 10
79.056
 20
-112.9238
  0
SEQEND
  0
POLYLINE
  8
LAYER_1
 40
0.1058
 41
0.1058
 66
1
 10
0
 20
0
 30
0
 70
1
  0
VERTEX
  8
LAYER_1
 10
79.4629
 20
-103.5238
  0
VERTEX
  8
LAYER_1
 10
79.6729
 20
-103.5238
  0
SEQEND
  0
POLYLINE
  8
LAYER_1
 40
0.1058
 41
0.1058
 66
1
 10
0
 20
0
 30
0
  0
VERTEX
  8
LAYER_1
 10
79.7429
 20
-103.5238
  0
VERTEX
  8
LAYER_1
 10
79.4929
 20
-103.5238
  0
SEQEND
  0
POLYLINE
  8
LAYER_1
 40
0.1058
 41
0.1058
 66
1
 10
0
 20
0
 30
0
  0
VERTEX
  8
LAYER_1
 10
79.056
 20
-106.8238
  0
VERTEX
  8
LAYER_1
 10
79.2884
 20
-106.8238
  0
VERTEX
  8
LAYER_1
 10
77.1929
 20
-106.8238
  0
VERTEX
  8
LAYER_1
 10
75.0974
 20
-106.8238
  0
VERTEX
  8
LAYER_1
 10
75.3298
 20
-106.8238
  0
SEQEND
  0
POLYLINE
  8
LAYER_1
 40
0.1482
 41
0.1482
 66
1
 10
0
 20
0
 30
0
  0
VERTEX
  8
LAYER_1
 10
80.9737
 20
-104.0668
 42
-0.2971047196
  0
VERTEX
  8
LAYER_1
 10
81.0929
 20
-104.2498
  0
VERTEX
  8
LAYER_1
 10
81.0929
 20
-106.0638
  0
SEQEND
  0
POLYLINE
  8
LAYER_1
 40
0.1058
 41
0.1058
 66
1
 10
0
 20
0
 30
0
  0
VERTEX
  8
LAYER_1
 10
79.2292
 20
-106.5238
  0
VERTEX
  8
LAYER_1
 10
79.056
 20
-106.8238
  0
VERTEX
  8
LAYER_1
 10
79.056
 20
-111.0238
  0
SEQEND
  0
POLYLINE
  8
LAYER_1
 40
0.1058
 41
0.1058
 66
1
 10
0
 20
0
 30
0
  0
VERTEX
  8
LAYER_1
 10
79.2884
 20
-112.9238
  0
VERTEX
  8
LAYER_1
 10
79.2884
 20
-114.9238
  0
VERTEX
  8
LAYER_1
 10
78.9884
 20
-115.2238
  0
VERTEX
  8
LAYER_1
 10
77.1929
 20
-115.2238
  0
VERTEX
  8
LAYER_1
 10
75.3974
 20
-115.2238
  0
VERTEX
  8
LAYER_1
 10
75.0974
 20
-114.9238
  0
VERTEX
  8
LAYER_1
 10
75.0974
 20
-112.9238
  0
SEQEND
  0
POLYLINE
  8
LAYER_1
 40
0.1058
 41
0.1058
 66
1
 10
0
 20
0
 30
0
  0
VERTEX
  8
LAYER_1
 10
79.2884
 20
-114.8783
  0
VERTEX
  8
LAYER_1
 10
78.2658
 20
-114.8783
  0
SEQEND
  0
POLYLINE
  8
LAYER_1
 40
0.1058
 41
0.1058
 66
1
 10
0
 20
0
 30
0
 70
1
  0
VERTEX
  8
LAYER_1
 10
77.1929
 20
-106.1238
  0
VERTEX
  8
LAYER_1
 10
81.0329
 20
-106.1238
  0
VERTEX
  8
LAYER_1
 10
81.0929
 20
-106.0638
  0
VERTEX
  8
LAYER_1
 10
77.1929
 20
-106.0638
  0
VERTEX
  8
LAYER_1
 10
73.2929
 20
-106.0638
  0
VERTEX
  8
LAYER_1
 10
73.3529
 20
-106.1238
  0
SEQEND
  0
POLYLINE
  8
LAYER_1
 40
0.1058
 41
0.1058
 66
1
 10
0
 20
0
 30
0
 70
1
  0
VERTEX
  8
LAYER_1
 10
78.2658
 20
-114.8783
 42
-0.1351953083
  0
VERTEX
  8
LAYER_1
 10
77.1929
 20
-115.1738
 42
-0.1351944207
  0
VERTEX
  8
LAYER_1
 10
76.12
 20
-114.8783
  0
VERTEX
  8
LAYER_1
 10
76.12
 20
-114.0238
  0
VERTEX
  8
LAYER_1
 10
77.1929
 20
-114.0238
  0
VERTEX
  8
LAYER_1
 10
78.2658
 20
-114.0238
  0
SEQEND
  0
POLYLINE
  8
LAYER_1
 40
0.1058
 41
0.1058
 66
1
 10
0
 20
0
 30
0
  0
VERTEX
  8
LAYER_1
 10
80.9929
 20
-104.1196
  0
VERTEX
  8
LAYER_1
 10
77.1929
 20
-104.1196
  0
VERTEX
  8
LAYER_1
 10
73.3929
 20
-104.1196
  0
SEQEND
  0
POLYLINE
  8
LAYER_1
 40
0.1058
 41
0.1058
 66
1
 10
0
 20
0
 30
0
  0
VERTEX
  8
LAYER_1
 10
80.9737
 20
-104.0668
  0
VERTEX
  8
LAYER_1
 10
79.7429
 20
-103.5238
  0
VERTEX
  8
LAYER_1
 10
77.1929
 20
-103.5238
  0
VERTEX
  8
LAYER_1
 10
74.6429
 20
-103.5238
  0
VERTEX
  8
LAYER_1
 10
73.4122
 20
-104.0668
  0
SEQEND
  0
POLYLINE
  8
LAYER_1
 40
0.1058
 41
0.1058
 66
1
 10
0
 20
0
 30
0
  0
VERTEX
  8
LAYER_1
 10
75.7439
 20
-76.9857
  0
VERTEX
  8
LAYER_1
 10
75.7439
 20
-77.4147
  0
SEQEND
  0
POLYLINE
  8
LAYER_1
 40
0.1058
 41
0.1058
 66
1
 10
0
 20
0
 30
0
  0
VERTEX
  8
LAYER_1
 10
79.4747
 20
-76.9037
 42
-0.3002318335
  0
VERTEX
  8
LAYER_1
 10
79.3022
 20
-77.0176
  0
VERTEX
  8
LAYER_1
 10
79.2744
 20
-77.0155
  0
VERTEX
  8
LAYER_1
 10
78.7739
 20
-77.0155
  0
VERTEX
  8
LAYER_1
 10
78.7565
 20
-77.0162
 42
-0.2196573553
  0
VERTEX
  8
LAYER_1
 10
78.5869
 20
-76.9379
 42
0.1522415379
  0
VERTEX
  8
LAYER_1
 10
78.0401
 20
-76.5182
 42
0.1874626848
  0
VERTEX
  8
LAYER_1
 10
76.3478
 20
-76.5182
 42
0.1522419374
  0
VERTEX
  8
LAYER_1
 10
75.801
 20
-76.9379
 42
-0.2196552943
  0
VERTEX
  8
LAYER_1
 10
75.6314
 20
-77.0162
  0
VERTEX
  8
LAYER_1
 10
75.614
 20
-77.0155
  0
VERTEX
  8
LAYER_1
 10
75.1135
 20
-77.0155
  0
VERTEX
  8
LAYER_1
 10
75.0857
 20
-77.0176
 42
-0.295493219
  0
VERTEX
  8
LAYER_1
 10
74.9145
 20
-76.9067
  0
SEQEND
  0
POLYLINE
  8
LAYER_1
 40
0.1058
 41
0.1058
 66
1
 10
0
 20
0
 30
0
  0
VERTEX
  8
LAYER_1
 10
78.4746
 20
-77.6476
  0
VERTEX
  8
LAYER_1
 10
78.5033
 20
-77.6453
  0
SEQEND
  0
POLYLINE
  8
LAYER_1
 40
0.1058
 41
0.1058
 66
1
 10
0
 20
0
 30
0
  0
VERTEX
  8
LAYER_1
 10
77.9013
 20
-77.1446
 42
-0.1477304424
  0
VERTEX
  8
LAYER_1
 10
78.1089
 20
-77.4103
  0
VERTEX
  8
LAYER_1
 10
78.1496
 20
-77.4423
  0
SEQEND
  0
POLYLINE
  8
LAYER_1
 40
0.1058
 41
0.1058
 66
1
 10
0
 20
0
 30
0
  0
VERTEX
  8
LAYER_1
 10
76.2396
 20
-77.438
  0
VERTEX
  8
LAYER_1
 10
76.2803
 20
-77.4062
 42
-0.1468588085
  0
VERTEX
  8
LAYER_1
 10
76.4906
 20
-77.1419
  0
SEQEND
  0
POLYLINE
  8
LAYER_1
 40
0.1058
 41
0.1058
 66
1
 10
0
 20
0
 30
0
  0
VERTEX
  8
LAYER_1
 10
76.279
 20
-77.6108
 42
0.2118639319
  0
VERTEX
  8
LAYER_1
 10
76.6304
 20
-77.9558
 42
0.2022042387
  0
VERTEX
  8
LAYER_1
 10
77.752
 20
-77.9583
 42
0.2101827493
  0
VERTEX
  8
LAYER_1
 10
78.1076
 20
-77.6149
  0
SEQEND
  0
POLYLINE
  8
LAYER_1
 40
0.1058
 41
0.1058
 66
1
 10
0
 20
0
 30
0
  0
VERTEX
  8
LAYER_1
 10
76.3434
 20
-77.289
 42
0.20652624
  0
VERTEX
  8
LAYER_1
 10
77.1225
 20
-77.6251
  0
VERTEX
  8
LAYER_1
 10
77.1905
 20
-77.623
  0
VERTEX
  8
LAYER_1
 10
77.29
 20
-77.6279
 42
0.2141847561
  0
VERTEX
  8
LAYER_1
 10
78.0446
 20
-77.2891
  0
SEQEND
  0
POLYLINE
  8
LAYER_1
 40
0.1058
 41
0.1058
 66
1
 10
0
 20
0
 30
0
  0
VERTEX
  8
LAYER_1
 10
76.279
 20
-77.4705
 42
0.04207508895
  0
VERTEX
  8
LAYER_1
 10
75.8833
 20
-77.6394
  0
SEQEND
  0
POLYLINE
  8
LAYER_1
 40
0.1058
 41
0.1058
 66
1
 10
0
 20
0
 30
0
  0
VERTEX
  8
LAYER_1
 10
78.1076
 20
-77.4746
 42
-0.04194596968
  0
VERTEX
  8
LAYER_1
 10
78.5033
 20
-77.6453
  0
VERTEX
  8
LAYER_1
 10
78.5046
 20
-77.4407
  0
VERTEX
  8
LAYER_1
 10
78.4758
 20
-77.443
  0
SEQEND
  0
POLYLINE
  8
LAYER_1
 40
0.1058
 41
0.1058
 66
1
 10
0
 20
0
 30
0
  0
VERTEX
  8
LAYER_1
 10
75.9146
 20
-77.6419
  0
VERTEX
  8
LAYER_1
 10
76.2383
 20
-77.6426
  0
SEQEND
  0
POLYLINE
  8
LAYER_1
 40
0.1058
 41
0.1058
 66
1
 10
0
 20
0
 30
0
  0
VERTEX
  8
LAYER_1
 10
78.1483
 20
-77.6469
 42
-0.1827355635
  0
VERTEX
  8
LAYER_1
 10
77.9117
 20
-77.9351
 42
-0.1595077533
  0
VERTEX
  8
LAYER_1
 10
77.1003
 20
-78.1235
 42
-0.1305475192
  0
VERTEX
  8
LAYER_1
 10
76.4713
 20
-77.9319
 42
-0.1673243512
  0
VERTEX
  8
LAYER_1
 10
76.2383
 20
-77.6426
  0
VERTEX
  8
LAYER_1
 10
76.279
 20
-77.6108
  0
VERTEX
  8
LAYER_1
 10
76.279
 20
-77.4705
  0
VERTEX
  8
LAYER_1
 10
76.2704
 20
-77.4139
  0
SEQEND
  0
POLYLINE
  8
LAYER_1
 40
0.1058
 41
0.1058
 66
1
 10
0
 20
0
 30
0
  0
VERTEX
  8
LAYER_1
 10
78.1175
 20
-77.417
  0
VERTEX
  8
LAYER_1
 10
78.1076
 20
-77.4746
  0
VERTEX
  8
LAYER_1
 10
78.1076
 20
-77.6149
  0
VERTEX
  8
LAYER_1
 10
78.1483
 20
-77.6469
  0
VERTEX
  8
LAYER_1
 10
78.4721
 20
-77.6476
 42
-0.2011509421
  0
VERTEX
  8
LAYER_1
 10
78.1153
 20
-78.0858
 42
-0.1323749009
  0
VERTEX
  8
LAYER_1
 10
77.1892
 20
-78.3188
 42
-0.1385222153
  0
VERTEX
  8
LAYER_1
 10
76.2659
 20
-78.0817
 42
-0.2026839223
  0
VERTEX
  8
LAYER_1
 10
75.9146
 20
-77.6419
  0
VERTEX
  8
LAYER_1
 10
75.8833
 20
-77.6394
  0
VERTEX
  8
LAYER_1
 10
75.8846
 20
-77.4348
  0
VERTEX
  8
LAYER_1
 10
75.9158
 20
-77.4373
  0
VERTEX
  8
LAYER_1
 10
76.2396
 20
-77.438
 42
-0.1827256827
  0
VERTEX
  8
LAYER_1
 10
76.4762
 20
-77.1498
 42
-0.1595019676
  0
VERTEX
  8
LAYER_1
 10
77.2876
 20
-76.9614
 42
-0.1305528648
  0
VERTEX
  8
LAYER_1
 10
77.9166
 20
-77.1531
 42
-0.1672898545
  0
VERTEX
  8
LAYER_1
 10
78.1496
 20
-77.4423
  0
VERTEX
  8
LAYER_1
 10
78.4733
 20
-77.443
 42
0.2026739012
  0
VERTEX
  8
LAYER_1
 10
78.122
 20
-77.0032
 42
0.1385182142
  0
VERTEX
  8
LAYER_1
 10
77.1987
 20
-76.7661
 42
0.1323714203
  0
VERTEX
  8
LAYER_1
 10
76.2726
 20
-76.9991
 42
0.2011431436
  0
VERTEX
  8
LAYER_1
 10
75.9158
 20
-77.4373
  0
SEQEND
  0
POLYLINE
  8
LAYER_1
 40
0.1058
 41
0.1058
 66
1
 10
0
 20
0
 30
0
  0
VERTEX
  8
LAYER_1
 10
78.6439
 20
-76.9857
  0
VERTEX
  8
LAYER_1
 10
78.6439
 20
-77.4193
 42
0.1462830244
  0
VERTEX
  8
LAYER_1
 10
78.5457
 20
-77.0989
 42
0.1501130491
  0
VERTEX
  8
LAYER_1
 10
78.0152
 20
-76.6955
 42
0.161433826
  0
VERTEX
  8
LAYER_1
 10
76.5697
 20
-76.6271
 42
0.1288391019
  0
VERTEX
  8
LAYER_1
 10
75.9409
 20
-76.9756
 42
0.2001251124
  0
VERTEX
  8
LAYER_1
 10
75.7439
 20
-77.415
 42
0.2099061275
  0
VERTEX
  8
LAYER_1
 10
75.9795
 20
-77.9321
 42
0.1231068474
  0
VERTEX
  8
LAYER_1
 10
76.587
 20
-78.267
 42
0.06937390275
  0
VERTEX
  8
LAYER_1
 10
77.1888
 20
-78.351
 42
0.1360263508
  0
VERTEX
  8
LAYER_1
 10
78.2072
 20
-78.0894
 42
0.1741239238
  0
VERTEX
  8
LAYER_1
 10
78.6102
 20
-77.619
 42
0.08061082778
  0
VERTEX
  8
LAYER_1
 10
78.6439
 20
-77.4193
  0
SEQEND
  0
POLYLINE
  8
LAYER_1
 40
0.1058
 41
0.1058
 66
1
 10
0
 20
0
 30
0
  0
VERTEX
  8
LAYER_1
 10
79.7329
 20
-77.0801
 42
0.204110029
  0
VERTEX
  8
LAYER_1
 10
79.5452
 20
-76.6744
 42
0.06077116326
  0
VERTEX
  8
LAYER_1
 10
79.2991
 20
-76.48
 42
0.0459202838
  0
VERTEX
  8
LAYER_1
 10
78.9232
 20
-76.2943
 42
0.06923317053
  0
VERTEX
  8
LAYER_1
 10
77.8277
 20
-76.0405
 42
0.02696854777
  0
VERTEX
  8
LAYER_1
 10
77.1929
 20
-76.0067
 42
0.06363502619
  0
VERTEX
  8
LAYER_1
 10
75.8239
 20
-76.1758
 42
0.08307946696
  0
VERTEX
  8
LAYER_1
 10
74.9894
 20
-76.5458
 42
0.1474402596
  0
VERTEX
  8
LAYER_1
 10
74.6733
 20
-76.9434
 42
0.07374332082
  0
VERTEX
  8
LAYER_1
 10
74.6529
 20
-77.0801
  0
SEQEND
  0
POLYLINE
  8
LAYER_1
 40
0.1058
 41
0.1058
 66
1
 10
0
 20
0
 30
0
  0
VERTEX
  8
LAYER_1
 10
79.5529
 20
-77.0801
 42
0.2096667124
  0
VERTEX
  8
LAYER_1
 10
79.3674
 20
-76.6919
 42
0.05932138254
  0
VERTEX
  8
LAYER_1
 10
79.1338
 20
-76.5126
 42
0.0450668136
  0
VERTEX
  8
LAYER_1
 10
78.7797
 20
-76.3418
 42
0.07157477525
  0
VERTEX
  8
LAYER_1
 10
77.6973
 20
-76.1055
 42
0.02281211443
  0
VERTEX
  8
LAYER_1
 10
77.1929
 20
-76.0827
 42
0.06817429675
  0
VERTEX
  8
LAYER_1
 10
75.85
 20
-76.2598
 42
0.08997792236
  0
VERTEX
  8
LAYER_1
 10
75.0911
 20
-76.6261
 42
0.162717734
  0
VERTEX
  8
LAYER_1
 10
74.8398
 20
-77.0034
 42
0.0432011778
  0
VERTEX
  8
LAYER_1
 10
74.8329
 20
-77.0801
  0
SEQEND
  0
POLYLINE
  8
LAYER_1
 40
0.1058
 41
0.1058
 66
1
 10
0
 20
0
 30
0
  0
VERTEX
  8
LAYER_1
 10
74.8329
 20
-77.0801
 42
0.2116789969
  0
VERTEX
  8
LAYER_1
 10
75.025
 20
-77.4724
 42
0.0603444409
  0
VERTEX
  8
LAYER_1
 10
75.2751
 20
-77.6601
 42
0.07524832337
  0
VERTEX
  8
LAYER_1
 10
75.9853
 20
-77.937
  0
SEQEND
  0
POLYLINE
  8
LAYER_1
 40
0.1058
 41
0.1058
 66
1
 10
0
 20
0
 30
0
  0
VERTEX
  8
LAYER_1
 10
78.3981
 20
-77.9377
 42
0.0957689343
  0
VERTEX
  8
LAYER_1
 10
79.2698
 20
-77.5521
 42
0.1621669988
  0
VERTEX
  8
LAYER_1
 10
79.5449
 20
-77.1616
 42
0.04636787274
  0
VERTEX
  8
LAYER_1
 10
79.5529
 20
-77.0801
  0
SEQEND
  0
POLYLINE
  8
LAYER_1
 40
0.1058
 41
0.1058
 66
1
 10
0
 20
0
 30
0
  0
VERTEX
  8
LAYER_1
 10
78.8929
 20
-115.2238
  0
VERTEX
  8
LAYER_1
 10
78.8929
 20
-115.4238
  0
VERTEX
  8
LAYER_1
 10
78.0929
 20
-115.4238
  0
SEQEND
  0
POLYLINE
  8
LAYER_1
 40
0.1058
 41
0.1058
 66
1
 10
0
 20
0
 30
0
  0
VERTEX
  8
LAYER_1
 10
75.4929
 20
-115.2238
  0
VERTEX
  8
LAYER_1
 10
75.4929
 20
-115.4238
  0
VERTEX
  8
LAYER_1
 10
76.2929
 20
-115.4238
  0
SEQEND
  0
POLYLINE
  8
LAYER_1
 40
0.1058
 41
0.1058
 66
1
 10
0
 20
0
 30
0
  0
VERTEX
  8
LAYER_1
 10
78.1929
 20
-115.4238
  0
VERTEX
  8
LAYER_1
 10
78.1929
 20
-116.1638
 42
0.3928373508
  0
VERTEX
  8
LAYER_1
 10
78.2529
 20
-116.2238
  0
VERTEX
  8
LAYER_1
 10
78.4929
 20
-116.2238
 42
0.393376027
  0
VERTEX
  8
LAYER_1
 10
78.5529
 20
-116.1638
  0
VERTEX
  8
LAYER_1
 10
78.5529
 20
-115.4238
  0
SEQEND
  0
POLYLINE
  8
LAYER_1
 40
0.1058
 41
0.1058
 66
1
 10
0
 20
0
 30
0
  0
VERTEX
  8
LAYER_1
 10
76.1929
 20
-115.4238
  0
VERTEX
  8
LAYER_1
 10
76.1929
 20
-116.1638
 42
-0.393376027
  0
VERTEX
  8
LAYER_1
 10
76.1329
 20
-116.2238
  0
VERTEX
  8
LAYER_1
 10
75.8929
 20
-116.2238
 42
-0.3928527672
  0
VERTEX
  8
LAYER_1
 10
75.8329
 20
-116.1638
  0
VERTEX
  8
LAYER_1
 10
75.8329
 20
-115.4238
  0
SEQEND
  0
POLYLINE
  8
LAYER_1
 40
0.1058
 41
0.1058
 66
1
 10
0
 20
0
 30
0
  0
VERTEX
  8
LAYER_1
 10
78.0929
 20
-115.2238
  0
VERTEX
  8
LAYER_1
 10
78.0929
 20
-136.4289
  0
SEQEND
  0
POLYLINE
  8
LAYER_1
 40
0.1058
 41
0.1058
 66
1
 10
0
 20
0
 30
0
  0
VERTEX
  8
LAYER_1
 10
76.2929
 20
-115.2238
  0
VERTEX
  8
LAYER_1
 10
76.2929
 20
-136.4289
  0
SEQEND
  0
POLYLINE
  8
LAYER_1
 40
0.2469
 41
0.2469
 66
1
 10
0
 20
0
 30
0
 70
1
  0
VERTEX
  8
LAYER_1
 10
73.5929
 20
-111.4238
  0
VERTEX
  8
LAYER_1
 10
73.5929
 20
-111.6238
  0
VERTEX
  8
LAYER_1
 10
77.1929
 20
-111.6238
  0
VERTEX
  8
LAYER_1
 10
80.7929
 20
-111.6238
  0
VERTEX
  8
LAYER_1
 10
80.7929
 20
-111.4238
  0
VERTEX
  8
LAYER_1
 10
77.1929
 20
-111.4238
  0
SEQEND
  0
POLYLINE
  8
LAYER_1
 40
0.1058
 41
0.1058
 66
1
 10
0
 20
0
 30
0
  0
VERTEX
  8
LAYER_1
 10
74.5527
 20
-112.9238
  0
VERTEX
  8
LAYER_1
 10
74.5527
 20
-111.6238
  0
SEQEND
  0
POLYLINE
  8
LAYER_1
 40
0.1058
 41
0.1058
 66
1
 10
0
 20
0
 30
0
  0
VERTEX
  8
LAYER_1
 10
74.5429
 20
-111.6238
  0
VERTEX
  8
LAYER_1
 10
74.5429
 20
-112.9238
  0
SEQEND
  0
POLYLINE
  8
LAYER_1
 40
0.1058
 41
0.1058
 66
1
 10
0
 20
0
 30
0
  0
VERTEX
  8
LAYER_1
 10
76.0693
 20
-111.6238
  0
VERTEX
  8
LAYER_1
 10
76.0693
 20
-112.9238
  0
SEQEND
  0
POLYLINE
  8
LAYER_1
 40
0.1058
 41
0.1058
 66
1
 10
0
 20
0
 30
0
  0
VERTEX
  8
LAYER_1
 10
75.6763
 20
-111.6238
  0
VERTEX
  8
LAYER_1
 10
75.6763
 20
-112.9238
  0
SEQEND
  0
POLYLINE
  8
LAYER_1
 40
0.2469
 41
0.2469
 66
1
 10
0
 20
0
 30
0
  0
VERTEX
  8
LAYER_1
 10
79.8429
 20
-112.9238
  0
VERTEX
  8
LAYER_1
 10
77.1929
 20
-112.9238
  0
VERTEX
  8
LAYER_1
 10
74.5429
 20
-112.9238
  0
SEQEND
  0
POLYLINE
  8
LAYER_1
 40
0.1058
 41
0.1058
 66
1
 10
0
 20
0
 30
0
  0
VERTEX
  8
LAYER_1
 10
79.8332
 20
-112.9238
  0
VERTEX
  8
LAYER_1
 10
79.8332
 20
-111.6238
  0
SEQEND
  0
POLYLINE
  8
LAYER_1
 40
0.1058
 41
0.1058
 66
1
 10
0
 20
0
 30
0
  0
VERTEX
  8
LAYER_1
 10
79.8429
 20
-111.6238
  0
VERTEX
  8
LAYER_1
 10
79.8429
 20
-112.9238
  0
SEQEND
  0
POLYLINE
  8
LAYER_1
 40
0.1058
 41
0.1058
 66
1
 10
0
 20
0
 30
0
  0
VERTEX
  8
LAYER_1
 10
78.3165
 20
-111.6238
  0
VERTEX
  8
LAYER_1
 10
78.3165
 20
-112.9238
  0
SEQEND
  0
POLYLINE
  8
LAYER_1
 40
0.1058
 41
0.1058
 66
1
 10
0
 20
0
 30
0
  0
VERTEX
  8
LAYER_1
 10
78.7096
 20
-111.6238
  0
VERTEX
  8
LAYER_1
 10
78.7096
 20
-112.9238
  0
SEQEND
  0
POLYLINE
  8
LAYER_1
 40
0.1058
 41
0.1058
 66
1
 10
0
 20
0
 30
0
  0
VERTEX
  8
LAYER_1
 10
80.6929
 20
-106.1238
  0
VERTEX
  8
LAYER_1
 10
80.6929
 20
-106.5238
  0
SEQEND
  0
POLYLINE
  8
LAYER_1
 40
0.1058
 41
0.1058
 66
1
 10
0
 20
0
 30
0
  0
VERTEX
  8
LAYER_1
 10
73.6929
 20
-106.1238
  0
VERTEX
  8
LAYER_1
 10
73.6929
 20
-106.5238
  0
VERTEX
  8
LAYER_1
 10
77.1929
 20
-106.5238
  0
VERTEX
  8
LAYER_1
 10
80.6929
 20
-106.5238
  0
VERTEX
  8
LAYER_1
 10
79.2884
 20
-106.5238
  0
VERTEX
  8
LAYER_1
 10
79.2884
 20
-111.0238
  0
SEQEND
  0
POLYLINE
  8
LAYER_1
 40
0.1058
 41
0.1058
 66
1
 10
0
 20
0
 30
0
 70
1
  0
VERTEX
  8
LAYER_1
 10
73.7929
 20
-111.0238
  0
VERTEX
  8
LAYER_1
 10
80.5929
 20
-111.0238
  0
VERTEX
  8
LAYER_1
 10
80.5929
 20
-111.4238
  0
VERTEX
  8
LAYER_1
 10
73.7929
 20
-111.4238
  0
SEQEND
  0
POLYLINE
  8
LAYER_1
 40
0.2469
 41
0.2469
 66
1
 10
0
 20
0
 30
0
  0
VERTEX
  8
LAYER_1
 10
79.8429
 20
-111.6238
  0
VERTEX
  8
LAYER_1
 10
77.1929
 20
-111.6238
  0
VERTEX
  8
LAYER_1
 10
74.5429
 20
-111.6238
  0
SEQEND
  0
POLYLINE
  8
LAYER_1
 40
0.1058
 41
0.1058
 66
1
 10
0
 20
0
 30
0
  0
VERTEX
  8
LAYER_1
 10
76.2929
 20
-136.4289
 42
-0.4000511799
  0
VERTEX
  8
LAYER_1
 10
76.6529
 20
-136.4289
 42
0.1902091616
  0
VERTEX
  8
LAYER_1
 10
76.8329
 20
-136.5009
 42
0.1901934814
  0
VERTEX
  8
LAYER_1
 10
77.0129
 20
-136.4289
 42
-0.1905462348
  0
VERTEX
  8
LAYER_1
 10
77.1929
 20
-136.3569
 42
-0.1905489245
  0
VERTEX
  8
LAYER_1
 10
77.3729
 20
-136.4289
 42
0.1902091616
  0
VERTEX
  8
LAYER_1
 10
77.5529
 20
-136.5009
 42
0.1901934814
  0
VERTEX
  8
LAYER_1
 10
77.7329
 20
-136.4289
 42
-0.1905462348
  0
VERTEX
  8
LAYER_1
 10
77.9129
 20
-136.3569
 42
-0.1905489245
  0
VERTEX
  8
LAYER_1
 10
78.0929
 20
-136.4289
  0
SEQEND
  0
POLYLINE
  8
LAYER_1
 40
0.1058
 41
0.1058
 66
1
 10
0
 20
0
 30
0
  0
VERTEX
  8
LAYER_1
 10
165.3874
 20
-136.4244
 42
-0.4000511741
  0
VERTEX
  8
LAYER_1
 10
165.7474
 20
-136.4244
 42
0.1902091616
  0
VERTEX
  8
LAYER_1
 10
165.9274
 20
-136.4964
 42
0.1903316791
  0
VERTEX
  8
LAYER_1
 10
166.1074
 20
-136.4244
 42
-0.1905462348
  0
VERTEX
  8
LAYER_1
 10
166.2874
 20
-136.3524
 42
-0.1906870906
  0
VERTEX
  8
LAYER_1
 10
166.4674
 20
-136.4244
 42
0.1902091616
  0
VERTEX
  8
LAYER_1
 10
166.6474
 20
-136.4964
 42
0.1903316791
  0
VERTEX
  8
LAYER_1
 10
166.8274
 20
-136.4244
 42
-0.1905462348
  0
VERTEX
  8
LAYER_1
 10
167.0074
 20
-136.3524
 42
-0.1906870906
  0
VERTEX
  8
LAYER_1
 10
167.1874
 20
-136.4244
  0
SEQEND
  0
POLYLINE
  8
LAYER_1
 40
0.1058
 41
0.1058
 66
1
 10
0
 20
0
 30
0
  0
VERTEX
  8
LAYER_1
 10
210.6705
 20
-128.9785
  0
VERTEX
  8
LAYER_1
 10
210.6705
 20
-121.2193
 42
0.4142154577
  0
VERTEX
  8
LAYER_1
 10
208.6705
 20
-119.2193
  0
VERTEX
  8
LAYER_1
 10
174.7474
 20
-119.2193
  0
SEQEND
  0
POLYLINE
  8
LAYER_1
 40
0.1058
 41
0.1058
 66
1
 10
0
 20
0
 30
0
  0
VERTEX
  8
LAYER_1
 10
209.6705
 20
-128.9785
  0
VERTEX
  8
LAYER_1
 10
209.6705
 20
-121.2193
 42
0.4142173527
  0
VERTEX
  8
LAYER_1
 10
208.6705
 20
-120.2193
  0
VERTEX
  8
LAYER_1
 10
174.7474
 20
-120.2193
  0
SEQEND
  0
POLYLINE
  8
LAYER_1
 40
0.1058
 41
0.1058
 66
1
 10
0
 20
0
 30
0
  0
VERTEX
  8
LAYER_1
 10
79.7329
 20
-24.6194
  0
VERTEX
  8
LAYER_1
 10
79.7329
 20
5.1423
 42
0.4142215666
  0
VERTEX
  8
LAYER_1
 10
77.1929
 20
7.6823
 42
0.4142155943
  0
VERTEX
  8
LAYER_1
 10
74.6529
 20
5.1423
  0
VERTEX
  8
LAYER_1
 10
74.6529
 20
-24.6193
  0
SEQEND
  0
POLYLINE
  8
LAYER_1
  6
AIGENLINE001
 40
0.1058
 41
0.1058
 66
1
 10
0
 20
0
 30
0
 70
128
  0
VERTEX
  8
LAYER_1
 10
72.6929
 20
5.1423
  0
VERTEX
  8
LAYER_1
 10
81.6929
 20
5.1423
  0
SEQEND
  0
POLYLINE
  8
LAYER_1
  6
AIGENLINE001
 40
0.1058
 41
0.1058
 66
1
 10
0
 20
0
 30
0
 70
128
  0
VERTEX
  8
LAYER_1
 10
77.1929
 20
9.6423
  0
VERTEX
  8
LAYER_1
 10
77.1929
 20
-27.2479
  0
SEQEND
  0
POLYLINE
  8
LAYER_1
 40
0.1058
 41
0.1058
 66
1
 10
0
 20
0
 30
0
  0
VERTEX
  8
LAYER_1
 10
79.7329
 20
2.1829
 42
0.2187720161
  0
VERTEX
  8
LAYER_1
 10
81.0929
 20
5.1423
 42
0.4142187753
  0
VERTEX
  8
LAYER_1
 10
77.1929
 20
9.0423
 42
0.4142148858
  0
VERTEX
  8
LAYER_1
 10
73.2929
 20
5.1423
 42
0.2187693763
  0
VERTEX
  8
LAYER_1
 10
74.6529
 20
2.1829
  0
SEQEND
  0
POLYLINE
  8
LAYER_1
 40
0.1058
 41
0.1058
 66
1
 10
0
 20
0
 30
0
 70
1
  0
VERTEX
  8
LAYER_1
 10
166.8874
 20
-106.1193
  0
VERTEX
  8
LAYER_1
 10
163.0474
 20
-106.1193
  0
VERTEX
  8
LAYER_1
 10
162.9874
 20
-106.0593
  0
VERTEX
  8
LAYER_1
 10
166.8874
 20
-106.0593
  0
VERTEX
  8
LAYER_1
 10
170.7874
 20
-106.0593
  0
VERTEX
  8
LAYER_1
 10
170.7274
 20
-106.1193
  0
SEQEND
  0
POLYLINE
  8
LAYER_1
 40
0.1058
 41
0.1058
 66
1
 10
0
 20
0
 30
0
  0
VERTEX
  8
LAYER_1
 10
165.6594
 20
-115.2193
  0
VERTEX
  8
LAYER_1
 10
165.6594
 20
-115.4193
  0
VERTEX
  8
LAYER_1
 10
166.8874
 20
-115.4193
  0
VERTEX
  8
LAYER_1
 10
168.5874
 20
-115.4193
  0
VERTEX
  8
LAYER_1
 10
168.5874
 20
-115.2193
  0
SEQEND
  0
POLYLINE
  8
LAYER_1
 40
0.1058
 41
0.1058
 66
1
 10
0
 20
0
 30
0
  0
VERTEX
  8
LAYER_1
 10
167.4874
 20
-115.4193
  0
VERTEX
  8
LAYER_1
 10
167.4874
 20
-116.1593
 42
-0.393376027
  0
VERTEX
  8
LAYER_1
 10
167.4274
 20
-116.2193
  0
VERTEX
  8
LAYER_1
 10
166.3474
 20
-116.2193
 42
-0.3928527672
  0
VERTEX
  8
LAYER_1
 10
166.2874
 20
-116.1593
  0
VERTEX
  8
LAYER_1
 10
166.2874
 20
-115.4193
  0
SEQEND
  0
POLYLINE
  8
LAYER_1
 40
0.1058
 41
0.1058
 66
1
 10
0
 20
0
 30
0
  0
VERTEX
  8
LAYER_1
 10
140.1729
 20
-77.5385
  0
VERTEX
  8
LAYER_1
 10
140.1729
 20
-79.3645
  0
SEQEND
  0
POLYLINE
  8
LAYER_1
  6
AIGENLINE001
 40
0.1058
 41
0.1058
 66
1
 10
0
 20
0
 30
0
 70
128
  0
VERTEX
  8
LAYER_1
 10
139.9616
 20
-77.9916
  0
VERTEX
  8
LAYER_1
 10
140.3842
 20
-77.0853
  0
SEQEND
  0
POLYLINE
  8
LAYER_1
 40
0.1058
 41
0.1058
 66
1
 10
0
 20
0
 30
0
  0
VERTEX
  8
LAYER_1
 10
170.6874
 20
-104.1196
  0
VERTEX
  8
LAYER_1
 10
166.8874
 20
-104.1196
  0
VERTEX
  8
LAYER_1
 10
163.0874
 20
-104.1196
  0
SEQEND
  0
POLYLINE
  8
LAYER_1
 40
0.1058
 41
0.1058
 66
1
 10
0
 20
0
 30
0
  0
VERTEX
  8
LAYER_1
 10
163.8874
 20
-177.8939
  0
VERTEX
  8
LAYER_1
 10
166.2874
 20
-180.2939
  0
VERTEX
  8
LAYER_1
 10
168.6874
 20
-177.8939
  0
SEQEND
  0
POLYLINE
  8
LAYER_1
 40
0.1058
 41
0.1058
 66
1
 10
0
 20
0
 30
0
  0
VERTEX
  8
LAYER_1
 10
171.8874
 20
-180.2939
  0
VERTEX
  8
LAYER_1
 10
171.8874
 20
-180.2942
 42
-0.1757158505
  0
VERTEX
  8
LAYER_1
 10
171.7415
 20
-180.6786
 42
-0.08872135244
  0
VERTEX
  8
LAYER_1
 10
171.4173
 20
-180.9808
 42
-0.05843139026
  0
VERTEX
  8
LAYER_1
 10
170.5236
 20
-181.4621
 42
-0.02357540561
  0
VERTEX
  8
LAYER_1
 10
169.4874
 20
-181.8431
 42
0.05028497507
  0
VERTEX
  8
LAYER_1
 10
169.0901
 20
-182.0107
 42
0.04030294552
  0
VERTEX
  8
LAYER_1
 10
168.0886
 20
-182.693
  0
SEQEND
  0
POLYLINE
  8
LAYER_1
 40
0.1058
 41
0.1058
 66
1
 10
0
 20
0
 30
0
  0
VERTEX
  8
LAYER_1
 10
210.7305
 20
-143.3856
  0
VERTEX
  8
LAYER_1
 10
209.6105
 20
-143.3856
  0
SEQEND
  0
POLYLINE
  8
LAYER_1
 40
0.1058
 41
0.1058
 66
1
 10
0
 20
0
 30
0
  0
VERTEX
  8
LAYER_1
 10
209.2705
 20
-138.5856
  0
VERTEX
  8
LAYER_1
 10
209.2705
 20
-140.7037
 42
0.0357313148
  0
VERTEX
  8
LAYER_1
 10
209.3101
 20
-141.2647
  0
VERTEX
  8
LAYER_1
 10
209.5944
 20
-143.2716
  0
VERTEX
  8
LAYER_1
 10
209.5954
 20
-143.2856
 42
-0.2939276213
  0
VERTEX
  8
LAYER_1
 10
209.533
 20
-143.3783
 42
0.2940095194
  0
VERTEX
  8
LAYER_1
 10
209.4705
 20
-143.4709
  0
VERTEX
  8
LAYER_1
 10
209.4705
 20
-145.3856
  0
VERTEX
  8
LAYER_1
 10
210.8705
 20
-145.3856
  0
VERTEX
  8
LAYER_1
 10
210.8705
 20
-143.4709
 42
0.2941671918
  0
VERTEX
  8
LAYER_1
 10
210.8081
 20
-143.3783
 42
-0.2939373351
  0
VERTEX
  8
LAYER_1
 10
210.7457
 20
-143.2856
  0
VERTEX
  8
LAYER_1
 10
210.7467
 20
-143.2716
  0
VERTEX
  8
LAYER_1
 10
211.031
 20
-141.2647
 42
0.03558741236
  0
VERTEX
  8
LAYER_1
 10
211.0705
 20
-140.7037
  0
VERTEX
  8
LAYER_1
 10
211.0705
 20
-138.5856
  0
SEQEND
  0
POLYLINE
  8
LAYER_1
 40
0.1058
 41
0.1058
 66
1
 10
0
 20
0
 30
0
  0
VERTEX
  8
LAYER_1
 10
209.3705
 20
-140.9856
  0
VERTEX
  8
LAYER_1
 10
210.9705
 20
-140.9856
  0
SEQEND
  0
POLYLINE
  8
LAYER_1
 40
0.1058
 41
0.1058
 66
1
 10
0
 20
0
 30
0
  0
VERTEX
  8
LAYER_1
 10
196.1412
 20
-189.4735
  0
VERTEX
  8
LAYER_1
 10
207.6749
 20
-189.4735
 42
0.4118751326
  0
VERTEX
  8
LAYER_1
 10
210.6906
 20
-186.4336
  0
VERTEX
  8
LAYER_1
 10
210.6905
 20
-186.4093
  0
SEQEND
  0
POLYLINE
  8
LAYER_1
 40
0.1058
 41
0.1058
 66
1
 10
0
 20
0
 30
0
  0
VERTEX
  8
LAYER_1
 10
209.6505
 20
-145.3856
  0
VERTEX
  8
LAYER_1
 10
209.6505
 20
-186.4176
  0
VERTEX
  8
LAYER_1
 10
209.6506
 20
-186.4336
 42
-0.4118736283
  0
VERTEX
  8
LAYER_1
 10
207.6666
 20
-188.4335
  0
SEQEND
  0
POLYLINE
  8
LAYER_1
 40
0.1058
 41
0.1058
 66
1
 10
0
 20
0
 30
0
  0
VERTEX
  8
LAYER_1
 10
210.6905
 20
-186.4533
  0
VERTEX
  8
LAYER_1
 10
210.6905
 20
-145.3856
  0
SEQEND
  0
POLYLINE
  8
LAYER_1
 40
0.1058
 41
0.1058
 66
1
 10
0
 20
0
 30
0
  0
VERTEX
  8
LAYER_1
 10
196.1412
 20
-188.4335
 42
-0.3999566943
  0
VERTEX
  8
LAYER_1
 10
196.1412
 20
-188.6415
 42
0.1907480289
  0
VERTEX
  8
LAYER_1
 10
196.0996
 20
-188.7455
 42
0.1908861245
  0
VERTEX
  8
LAYER_1
 10
196.1412
 20
-188.8495
 42
-0.1903485773
  0
VERTEX
  8
LAYER_1
 10
196.1828
 20
-188.9535
 42
-0.1901232497
  0
VERTEX
  8
LAYER_1
 10
196.1412
 20
-189.0575
 42
0.1907480289
  0
VERTEX
  8
LAYER_1
 10
196.0996
 20
-189.1615
 42
0.1908861245
  0
VERTEX
  8
LAYER_1
 10
196.1412
 20
-189.2655
 42
-0.1903485773
  0
VERTEX
  8
LAYER_1
 10
196.1828
 20
-189.3695
 42
-0.1901232497
  0
VERTEX
  8
LAYER_1
 10
196.1412
 20
-189.4735
  0
SEQEND
  0
POLYLINE
  8
LAYER_1
 40
0.1058
 41
0.1058
 66
1
 10
0
 20
0
 30
0
  0
VERTEX
  8
LAYER_1
 10
196.1412
 20
-188.4335
  0
VERTEX
  8
LAYER_1
 10
207.6703
 20
-188.4335
  0
SEQEND
  0
POLYLINE
  8
LAYER_1
 40
0.1058
 41
0.1058
 66
1
 10
0
 20
0
 30
0
  0
VERTEX
  8
LAYER_1
 10
165.3874
 20
-137.4289
  0
VERTEX
  8
LAYER_1
 10
165.3874
 20
-150.3539
  0
SEQEND
  0
POLYLINE
  8
LAYER_1
 40
0.1058
 41
0.1058
 66
1
 10
0
 20
0
 30
0
  0
VERTEX
  8
LAYER_1
 10
167.1874
 20
-137.4289
  0
VERTEX
  8
LAYER_1
 10
167.1874
 20
-150.3539
  0
SEQEND
  0
POLYLINE
  8
LAYER_1
 40
0.1058
 41
0.1058
 66
1
 10
0
 20
0
 30
0
  0
VERTEX
  8
LAYER_1
 10
167.1874
 20
-150.6939
  0
VERTEX
  8
LAYER_1
 10
167.1874
 20
-150.7939
  0
SEQEND
  0
POLYLINE
  8
LAYER_1
 40
0.1058
 41
0.1058
 66
1
 10
0
 20
0
 30
0
  0
VERTEX
  8
LAYER_1
 10
167.1874
 20
-151.5139
  0
VERTEX
  8
LAYER_1
 10
167.1874
 20
-151.6139
  0
SEQEND
  0
POLYLINE
  8
LAYER_1
 40
0.1058
 41
0.1058
 66
1
 10
0
 20
0
 30
0
  0
VERTEX
  8
LAYER_1
 10
167.1874
 20
-137.4289
 42
0.4000511746
  0
VERTEX
  8
LAYER_1
 10
166.8274
 20
-137.4289
 42
-0.190347831
  0
VERTEX
  8
LAYER_1
 10
166.6474
 20
-137.5009
 42
-0.1901934814
  0
VERTEX
  8
LAYER_1
 10
166.4674
 20
-137.4289
 42
0.1906848617
  0
VERTEX
  8
LAYER_1
 10
166.2874
 20
-137.3569
 42
0.1905489245
  0
VERTEX
  8
LAYER_1
 10
166.1074
 20
-137.4289
 42
-0.190347831
  0
VERTEX
  8
LAYER_1
 10
165.9274
 20
-137.5009
 42
-0.1901934814
  0
VERTEX
  8
LAYER_1
 10
165.7474
 20
-137.4289
 42
0.1906848617
  0
VERTEX
  8
LAYER_1
 10
165.5674
 20
-137.3569
 42
0.1905489245
  0
VERTEX
  8
LAYER_1
 10
165.3874
 20
-137.4289
  0
SEQEND
  0
POLYLINE
  8
LAYER_1
 40
0.1058
 41
0.1058
 66
1
 10
0
 20
0
 30
0
  0
VERTEX
  8
LAYER_1
 10
167.3074
 20
-151.8139
  0
VERTEX
  8
LAYER_1
 10
167.3074
 20
-151.6139
  0
SEQEND
  0
POLYLINE
  8
LAYER_1
 40
0.1058
 41
0.1058
 66
1
 10
0
 20
0
 30
0
  0
VERTEX
  8
LAYER_1
 10
167.3074
 20
-150.6939
  0
VERTEX
  8
LAYER_1
 10
167.3074
 20
-150.3539
  0
SEQEND
  0
POLYLINE
  8
LAYER_1
 40
0.1058
 41
0.1058
 66
1
 10
0
 20
0
 30
0
  0
VERTEX
  8
LAYER_1
 10
167.7733
 20
-151.8139
  0
VERTEX
  8
LAYER_1
 10
167.7826
 20
-151.7539
  0
VERTEX
  8
LAYER_1
 10
167.7826
 20
-150.5539
 42
0.4141334305
  0
VERTEX
  8
LAYER_1
 10
167.5826
 20
-150.3539
  0
VERTEX
  8
LAYER_1
 10
167.1674
 20
-150.3539
  0
VERTEX
  8
LAYER_1
 10
165.2674
 20
-150.3539
  0
VERTEX
  8
LAYER_1
 10
165.2674
 20
-151.8139
  0
SEQEND
  0
POLYLINE
  8
LAYER_1
 40
0.1058
 41
0.1058
 66
1
 10
0
 20
0
 30
0
 70
1
  0
VERTEX
  8
LAYER_1
 10
167.4226
 20
-151.5139
  0
VERTEX
  8
LAYER_1
 10
167.0627
 20
-151.5139
  0
VERTEX
  8
LAYER_1
 10
167.0627
 20
-150.7939
  0
VERTEX
  8
LAYER_1
 10
167.4226
 20
-150.7939
 42
-0.4141690428
  0
VERTEX
  8
LAYER_1
 10
167.7826
 20
-151.1539
 42
-0.4141813069
  0
SEQEND
  0
POLYLINE
  8
LAYER_1
 40
0.1058
 41
0.1058
 66
1
 10
0
 20
0
 30
0
  0
VERTEX
  8
LAYER_1
 10
167.5702
 20
-150.7939
  0
VERTEX
  8
LAYER_1
 10
167.5702
 20
-150.794
  0
SEQEND
  0
POLYLINE
  8
LAYER_1
 40
0.1058
 41
0.1058
 66
1
 10
0
 20
0
 30
0
  0
VERTEX
  8
LAYER_1
 10
167.4302
 20
-150.7939
 42
0.4141105784
  0
VERTEX
  8
LAYER_1
 10
167.3302
 20
-150.6939
  0
VERTEX
  8
LAYER_1
 10
167.0627
 20
-150.6939
 42
0.4141842489
  0
VERTEX
  8
LAYER_1
 10
166.6027
 20
-151.1539
 42
0.4141938481
  0
VERTEX
  8
LAYER_1
 10
167.0627
 20
-151.6139
  0
VERTEX
  8
LAYER_1
 10
167.3302
 20
-151.6139
 42
0.4141547147
  0
VERTEX
  8
LAYER_1
 10
167.4302
 20
-151.5139
  0
SEQEND
  0
POLYLINE
  8
LAYER_1
 40
0.1058
 41
0.1058
 66
1
 10
0
 20
0
 30
0
  0
VERTEX
  8
LAYER_1
 10
165.2674
 20
-151.3839
  0
VERTEX
  8
LAYER_1
 10
165.4551
 20
-151.3839
 42
-0.1405145754
  0
VERTEX
  8
LAYER_1
 10
165.5613
 20
-151.4144
 42
0.1406612222
  0
VERTEX
  8
LAYER_1
 10
165.6674
 20
-151.4449
  0
VERTEX
  8
LAYER_1
 10
165.718
 20
-151.4384
  0
VERTEX
  8
LAYER_1
 10
166.0557
 20
-151.3502
 42
0.3589095083
  0
VERTEX
  8
LAYER_1
 10
166.2174
 20
-151.1539
 42
0.3588922978
  0
VERTEX
  8
LAYER_1
 10
166.0557
 20
-150.9576
  0
VERTEX
  8
LAYER_1
 10
165.718
 20
-150.8694
  0
VERTEX
  8
LAYER_1
 10
165.6674
 20
-150.8629
 42
0.1409770086
  0
VERTEX
  8
LAYER_1
 10
165.5613
 20
-150.8934
 42
-0.1404790904
  0
VERTEX
  8
LAYER_1
 10
165.4551
 20
-150.9239
  0
VERTEX
  8
LAYER_1
 10
165.2674
 20
-150.9239
  0
SEQEND
  0
POLYLINE
  8
LAYER_1
 40
0.1058
 41
0.1058
 66
1
 10
0
 20
0
 30
0
  0
VERTEX
  8
LAYER_1
 10
167.5702
 20
-151.5139
  0
VERTEX
  8
LAYER_1
 10
167.5702
 20
-151.5138
  0
SEQEND
  0
POLYLINE
  8
LAYER_1
 40
0.1058
 41
0.1058
 66
1
 10
0
 20
0
 30
0
  0
VERTEX
  8
LAYER_1
 10
171.6074
 20
-183.0939
  0
VERTEX
  8
LAYER_1
 10
171.6074
 20
-183.2939
  0
SEQEND
  0
POLYLINE
  8
LAYER_1
 40
0.1058
 41
0.1058
 66
1
 10
0
 20
0
 30
0
  0
VERTEX
  8
LAYER_1
 10
171.5874
 20
-183.0939
  0
VERTEX
  8
LAYER_1
 10
169.9874
 20
-183.0939
  0
VERTEX
  8
LAYER_1
 10
168.3674
 20
-183.0939
  0
VERTEX
  8
LAYER_1
 10
168.3674
 20
-183.2939
  0
SEQEND
  0
POLYLINE
  8
LAYER_1
 40
0.1058
 41
0.1058
 66
1
 10
0
 20
0
 30
0
  0
VERTEX
  8
LAYER_1
 10
168.8374
 20
-183.0939
  0
VERTEX
  8
LAYER_1
 10
168.4474
 20
-183.0939
  0
VERTEX
  8
LAYER_1
 10
168.1874
 20
-183.0939
  0
VERTEX
  8
LAYER_1
 10
168.0874
 20
-182.9939
  0
SEQEND
  0
POLYLINE
  8
LAYER_1
  6
AIGENLINE001
 40
0.1058
 41
0.1058
 66
1
 10
0
 20
0
 30
0
 70
128
  0
VERTEX
  8
LAYER_1
 10
169.9874
 20
-183.3497
  0
VERTEX
  8
LAYER_1
 10
169.9874
 20
-177.6469
  0
VERTEX
  8
LAYER_1
 10
169.9874
 20
-186.2906
  0
SEQEND
  0
POLYLINE
  8
LAYER_1
 40
0.1058
 41
0.1058
 66
1
 10
0
 20
0
 30
0
  0
VERTEX
  8
LAYER_1
 10
163.8874
 20
-175.4939
  0
VERTEX
  8
LAYER_1
 10
163.8874
 20
-177.4939
 42
-0.4142521217
  0
VERTEX
  8
LAYER_1
 10
163.4874
 20
-177.8939
  0
VERTEX
  8
LAYER_1
 10
162.3874
 20
-177.8939
  0
SEQEND
  0
POLYLINE
  8
LAYER_1
 40
0.1058
 41
0.1058
 66
1
 10
0
 20
0
 30
0
  0
VERTEX
  8
LAYER_1
 10
168.6874
 20
-175.4939
  0
VERTEX
  8
LAYER_1
 10
168.6874
 20
-177.4939
 42
0.4141860449
  0
VERTEX
  8
LAYER_1
 10
169.0874
 20
-177.8939
  0
VERTEX
  8
LAYER_1
 10
169.4874
 20
-177.8939
 42
-0.4142181484
  0
VERTEX
  8
LAYER_1
 10
171.8874
 20
-180.2939
  0
VERTEX
  8
LAYER_1
 10
171.8874
 20
-182.9947
  0
SEQEND
  0
POLYLINE
  8
LAYER_1
 40
0.1058
 41
0.1058
 66
1
 10
0
 20
0
 30
0
  0
VERTEX
  8
LAYER_1
 10
168.4874
 20
-175.3139
  0
VERTEX
  8
LAYER_1
 10
168.4874
 20
-175.3939
  0
SEQEND
  0
POLYLINE
  8
LAYER_1
 40
0.1058
 41
0.1058
 66
1
 10
0
 20
0
 30
0
  0
VERTEX
  8
LAYER_1
 10
164.0874
 20
-175.3139
  0
VERTEX
  8
LAYER_1
 10
164.0874
 20
-175.3939
  0
SEQEND
  0
POLYLINE
  8
LAYER_1
  6
AIGENLINE001
 40
0.1058
 41
0.1058
 66
1
 10
0
 20
0
 30
0
 70
128
  0
VERTEX
  8
LAYER_1
 10
172.2874
 20
-180.2939
  0
VERTEX
  8
LAYER_1
 10
161.4742
 20
-180.2939
  0
SEQEND
  0
POLYLINE
  8
LAYER_1
 40
0.1058
 41
0.1058
 66
1
 10
0
 20
0
 30
0
  0
VERTEX
  8
LAYER_1
 10
162.2874
 20
-182.3839
  0
VERTEX
  8
LAYER_1
 10
162.0328
 20
-182.3839
 42
-0.06646469965
  0
VERTEX
  8
LAYER_1
 10
161.7297
 20
-180.4739
  0
VERTEX
  8
LAYER_1
 10
162.2874
 20
-180.4739
  0
SEQEND
  0
POLYLINE
  8
LAYER_1
 40
0.1058
 41
0.1058
 66
1
 10
0
 20
0
 30
0
  0
VERTEX
  8
LAYER_1
 10
162.2874
 20
-178.2039
  0
VERTEX
  8
LAYER_1
 10
162.0328
 20
-178.2039
 42
0.06646467796
  0
VERTEX
  8
LAYER_1
 10
161.7297
 20
-180.1139
  0
VERTEX
  8
LAYER_1
 10
162.2874
 20
-180.1139
  0
SEQEND
  0
POLYLINE
  8
LAYER_1
 40
0.1058
 41
0.1058
 66
1
 10
0
 20
0
 30
0
  0
VERTEX
  8
LAYER_1
 10
163.4374
 20
-172.0939
  0
VERTEX
  8
LAYER_1
 10
163.4374
 20
-171.3939
  0
VERTEX
  8
LAYER_1
 10
166.2874
 20
-171.3939
  0
VERTEX
  8
LAYER_1
 10
169.1374
 20
-171.3939
  0
VERTEX
  8
LAYER_1
 10
169.1374
 20
-172.0939
  0
SEQEND
  0
POLYLINE
  8
LAYER_1
 40
0.1058
 41
0.1058
 66
1
 10
0
 20
0
 30
0
  0
VERTEX
  8
LAYER_1
 10
168.0874
 20
-155.4339
  0
VERTEX
  8
LAYER_1
 10
168.0874
 20
-154.8939
  0
SEQEND
  0
POLYLINE
  8
LAYER_1
 40
0.1058
 41
0.1058
 66
1
 10
0
 20
0
 30
0
  0
VERTEX
  8
LAYER_1
 10
164.4874
 20
-154.8939
  0
VERTEX
  8
LAYER_1
 10
164.5674
 20
-154.8139
  0
SEQEND
  0
POLYLINE
  8
LAYER_1
 40
0.1905
 41
0.1905
 66
1
 10
0
 20
0
 30
0
  0
VERTEX
  8
LAYER_1
 10
172.6824
 20
-184.5939
 42
0.1229429319
  0
VERTEX
  8
LAYER_1
 10
172.5153
 20
-183.8856
 42
0.09608640473
  0
VERTEX
  8
LAYER_1
 10
172.3652
 20
-183.7077
 42
0.1637991511
  0
VERTEX
  8
LAYER_1
 10
172.1725
 20
-183.637
 42
0.1412753722
  0
VERTEX
  8
LAYER_1
 10
172.009
 20
-183.6873
 42
0.09590347644
  0
VERTEX
  8
LAYER_1
 10
171.8674
 20
-183.8271
 42
0.06998884009
  0
VERTEX
  8
LAYER_1
 10
171.7463
 20
-184.0685
 42
0.08527772196
  0
VERTEX
  8
LAYER_1
 10
171.6626
 20
-184.5939
  0
SEQEND
  0
POLYLINE
  8
LAYER_1
 40
0.2399
 41
0.2399
 66
1
 10
0
 20
0
 30
0
  0
VERTEX
  8
LAYER_1
 10
170.0074
 20
-185.5508
 42
0.2838184253
  0
VERTEX
  8
LAYER_1
 10
170.9518
 20
-184.9556
 42
0.1029393987
  0
VERTEX
  8
LAYER_1
 10
171.0272
 20
-184.5939
  0
SEQEND
  0
POLYLINE
  8
LAYER_1
 40
0.2399
 41
0.2399
 66
1
 10
0
 20
0
 30
0
  0
VERTEX
  8
LAYER_1
 10
170.0074
 20
-183.637
 42
0.2838068332
  0
VERTEX
  8
LAYER_1
 10
169.063
 20
-184.2322
 42
0.1029526628
  0
VERTEX
  8
LAYER_1
 10
168.9876
 20
-184.5939
  0
SEQEND
  0
POLYLINE
  8
LAYER_1
 40
0.2469
 41
0.2469
 66
1
 10
0
 20
0
 30
0
  0
VERTEX
  8
LAYER_1
 10
171.6626
 20
-184.5939
  0
VERTEX
  8
LAYER_1
 10
171.6626
 20
-185.3712
 42
0.4141682665
  0
VERTEX
  8
LAYER_1
 10
171.8626
 20
-185.5712
  0
VERTEX
  8
LAYER_1
 10
172.4824
 20
-185.5712
 42
0.4141933552
  0
VERTEX
  8
LAYER_1
 10
172.6824
 20
-185.3712
  0
VERTEX
  8
LAYER_1
 10
172.6824
 20
-184.5939
  0
SEQEND
  0
POLYLINE
  8
LAYER_1
 40
0.2469
 41
0.2469
 66
1
 10
0
 20
0
 30
0
  0
VERTEX
  8
LAYER_1
 10
167.6733
 20
-183.2939
 42
0.1316533938
  0
VERTEX
  8
LAYER_1
 10
167.3249
 20
-184.5939
  0
VERTEX
  8
LAYER_1
 10
167.3249
 20
-185.4939
 42
0.4141855667
  0
VERTEX
  8
LAYER_1
 10
167.7249
 20
-185.8939
  0
VERTEX
  8
LAYER_1
 10
170.0074
 20
-185.8939
  0
VERTEX
  8
LAYER_1
 10
172.2899
 20
-185.8939
 42
0.4142516433
  0
VERTEX
  8
LAYER_1
 10
172.6899
 20
-185.4939
  0
VERTEX
  8
LAYER_1
 10
172.6899
 20
-184.5939
 42
0.1316529163
  0
VERTEX
  8
LAYER_1
 10
172.3416
 20
-183.2939
  0
SEQEND
  0
POLYLINE
  8
LAYER_1
 40
0.1905
 41
0.1905
 66
1
 10
0
 20
0
 30
0
  0
VERTEX
  8
LAYER_1
 10
168.3523
 20
-184.5939
 42
0.1229429319
  0
VERTEX
  8
LAYER_1
 10
168.1852
 20
-183.8856
 42
0.09608640473
  0
VERTEX
  8
LAYER_1
 10
168.0351
 20
-183.7077
 42
0.1637991511
  0
VERTEX
  8
LAYER_1
 10
167.8424
 20
-183.637
 42
0.1412753722
  0
VERTEX
  8
LAYER_1
 10
167.6789
 20
-183.6873
 42
0.09590347644
  0
VERTEX
  8
LAYER_1
 10
167.5373
 20
-183.8271
 42
0.06998884009
  0
VERTEX
  8
LAYER_1
 10
167.4162
 20
-184.0685
 42
0.08527772196
  0
VERTEX
  8
LAYER_1
 10
167.3325
 20
-184.5939
  0
SEQEND
  0
POLYLINE
  8
LAYER_1
 40
0.2469
 41
0.2469
 66
1
 10
0
 20
0
 30
0
  0
VERTEX
  8
LAYER_1
 10
167.3325
 20
-184.5939
  0
VERTEX
  8
LAYER_1
 10
167.3325
 20
-185.3712
 42
0.4142076504
  0
VERTEX
  8
LAYER_1
 10
167.5325
 20
-185.5712
  0
VERTEX
  8
LAYER_1
 10
168.1523
 20
-185.5712
 42
0.4141539718
  0
VERTEX
  8
LAYER_1
 10
168.3523
 20
-185.3712
  0
VERTEX
  8
LAYER_1
 10
168.3523
 20
-184.5939
  0
SEQEND
  0
POLYLINE
  8
LAYER_1
 40
0.2469
 41
0.2469
 66
1
 10
0
 20
0
 30
0
  0
VERTEX
  8
LAYER_1
 10
168.9876
 20
-184.5939
  0
VERTEX
  8
LAYER_1
 10
168.9876
 20
-185.3712
 42
0.4141176108
  0
VERTEX
  8
LAYER_1
 10
169.1876
 20
-185.5712
  0
VERTEX
  8
LAYER_1
 10
170.0074
 20
-185.5712
  0
VERTEX
  8
LAYER_1
 10
170.8272
 20
-185.5712
 42
0.4142497238
  0
VERTEX
  8
LAYER_1
 10
171.0272
 20
-185.3712
  0
VERTEX
  8
LAYER_1
 10
171.0272
 20
-184.5939
  0
SEQEND
  0
POLYLINE
  8
LAYER_1
 40
0.1058
 41
0.1058
 66
1
 10
0
 20
0
 30
0
  0
VERTEX
  8
LAYER_1
 10
172.3416
 20
-183.2939
  0
VERTEX
  8
LAYER_1
 10
169.9874
 20
-183.2939
  0
VERTEX
  8
LAYER_1
 10
167.6733
 20
-183.2939
  0
SEQEND
  0
POLYLINE
  8
LAYER_1
 40
0.1058
 41
0.1058
 66
1
 10
0
 20
0
 30
0
  0
VERTEX
  8
LAYER_1
 10
171.5274
 20
-183.0939
  0
VERTEX
  8
LAYER_1
 10
171.7876
 20
-183.0939
  0
VERTEX
  8
LAYER_1
 10
171.8876
 20
-182.9947
  0
VERTEX
  8
LAYER_1
 10
169.9874
 20
-182.9947
  0
VERTEX
  8
LAYER_1
 10
168.0874
 20
-182.9939
 42
0.3420184006
  0
VERTEX
  8
LAYER_1
 10
167.7001
 20
-182.6939
  0
VERTEX
  8
LAYER_1
 10
162.3874
 20
-182.6939
  0
SEQEND
  0
POLYLINE
  8
LAYER_1
 40
0.1058
 41
0.1058
 66
1
 10
0
 20
0
 30
0
 70
1
  0
VERTEX
  8
LAYER_1
 10
162.2874
 20
-180.2939
  0
VERTEX
  8
LAYER_1
 10
162.2874
 20
-182.5939
  0
VERTEX
  8
LAYER_1
 10
162.3874
 20
-182.6939
  0
VERTEX
  8
LAYER_1
 10
162.3874
 20
-180.2939
  0
VERTEX
  8
LAYER_1
 10
162.3874
 20
-177.8939
  0
VERTEX
  8
LAYER_1
 10
162.2874
 20
-177.9939
  0
SEQEND
  0
POLYLINE
  8
LAYER_1
 40
0.1058
 41
0.1058
 66
1
 10
0
 20
0
 30
0
 70
1
  0
VERTEX
  8
LAYER_1
 10
168.6874
 20
-175.4939
  0
VERTEX
  8
LAYER_1
 10
166.2874
 20
-175.4939
  0
VERTEX
  8
LAYER_1
 10
163.8874
 20
-175.4939
  0
VERTEX
  8
LAYER_1
 10
163.9874
 20
-175.3939
  0
VERTEX
  8
LAYER_1
 10
166.2874
 20
-175.3939
  0
VERTEX
  8
LAYER_1
 10
168.5874
 20
-175.3939
  0
SEQEND
  0
POLYLINE
  8
LAYER_1
 40
0.1058
 41
0.1058
 66
1
 10
0
 20
0
 30
0
 70
1
  0
VERTEX
  8
LAYER_1
 10
162.3374
 20
-172.2939
  0
VERTEX
  8
LAYER_1
 10
162.3374
 20
-175.2539
 42
0.3923136174
  0
VERTEX
  8
LAYER_1
 10
162.3974
 20
-175.3139
  0
VERTEX
  8
LAYER_1
 10
166.2874
 20
-175.3139
  0
VERTEX
  8
LAYER_1
 10
170.1774
 20
-175.3139
 42
0.3928373506
  0
VERTEX
  8
LAYER_1
 10
170.2374
 20
-175.2539
  0
VERTEX
  8
LAYER_1
 10
170.2374
 20
-172.2439
 42
0.4142869328
  0
VERTEX
  8
LAYER_1
 10
170.0874
 20
-172.0939
  0
VERTEX
  8
LAYER_1
 10
166.2874
 20
-172.0939
  0
VERTEX
  8
LAYER_1
 10
162.5374
 20
-172.0939
 42
0.4141364548
  0
SEQEND
  0
POLYLINE
  8
LAYER_1
 40
0.1058
 41
0.1058
 66
1
 10
0
 20
0
 30
0
  0
VERTEX
  8
LAYER_1
 10
164.4874
 20
-155.4339
  0
VERTEX
  8
LAYER_1
 10
164.4874
 20
-154.8939
  0
VERTEX
  8
LAYER_1
 10
166.2874
 20
-154.8939
  0
VERTEX
  8
LAYER_1
 10
168.0874
 20
-154.8939
  0
VERTEX
  8
LAYER_1
 10
168.0074
 20
-154.8139
  0
SEQEND
  0
POLYLINE
  8
LAYER_1
 40
0.1058
 41
0.1058
 66
1
 10
0
 20
0
 30
0
  0
VERTEX
  8
LAYER_1
 10
168.2874
 20
-154.0106
 42
0.3660485266
  0
VERTEX
  8
LAYER_1
 10
168.4874
 20
-153.7739
  0
VERTEX
  8
LAYER_1
 10
168.4874
 20
-153.0539
 42
0.3660140124
  0
VERTEX
  8
LAYER_1
 10
168.2874
 20
-152.8173
  0
SEQEND
  0
POLYLINE
  8
LAYER_1
 40
0.1058
 41
0.1058
 66
1
 10
0
 20
0
 30
0
  0
VERTEX
  8
LAYER_1
 10
164.8274
 20
-156.3339
  0
VERTEX
  8
LAYER_1
 10
164.8274
 20
-158.4607
  0
SEQEND
  0
POLYLINE
  8
LAYER_1
 40
0.1058
 41
0.1058
 66
1
 10
0
 20
0
 30
0
  0
VERTEX
  8
LAYER_1
 10
167.7474
 20
-155.6071
  0
VERTEX
  8
LAYER_1
 10
167.7474
 20
-156.1339
  0
SEQEND
  0
POLYLINE
  8
LAYER_1
 40
0.1058
 41
0.1058
 66
1
 10
0
 20
0
 30
0
  0
VERTEX
  8
LAYER_1
 10
167.7474
 20
-156.3339
  0
VERTEX
  8
LAYER_1
 10
167.7474
 20
-158.4607
  0
SEQEND
  0
POLYLINE
  8
LAYER_1
 40
0.1058
 41
0.1058
 66
1
 10
0
 20
0
 30
0
  0
VERTEX
  8
LAYER_1
 10
167.5244
 20
-155.6071
 42
0.06967789368
  0
VERTEX
  8
LAYER_1
 10
166.2874
 20
-155.4339
 42
0.06967233633
  0
VERTEX
  8
LAYER_1
 10
165.0505
 20
-155.6071
  0
SEQEND
  0
POLYLINE
  8
LAYER_1
 40
0.1058
 41
0.1058
 66
1
 10
0
 20
0
 30
0
  0
VERTEX
  8
LAYER_1
 10
165.0505
 20
-158.4607
 42
0.06967256715
  0
VERTEX
  8
LAYER_1
 10
166.2874
 20
-158.6339
 42
0.06967812493
  0
VERTEX
  8
LAYER_1
 10
167.5244
 20
-158.4607
  0
SEQEND
  0
POLYLINE
  8
LAYER_1
 40
0.1058
 41
0.1058
 66
1
 10
0
 20
0
 30
0
  0
VERTEX
  8
LAYER_1
 10
164.8274
 20
-155.6071
  0
VERTEX
  8
LAYER_1
 10
165.0505
 20
-155.6071
  0
VERTEX
  8
LAYER_1
 10
165.0505
 20
-156.1339
  0
SEQEND
  0
POLYLINE
  8
LAYER_1
 40
0.1058
 41
0.1058
 66
1
 10
0
 20
0
 30
0
  0
VERTEX
  8
LAYER_1
 10
163.5874
 20
-155.6071
 42
-0.1370541821
  0
VERTEX
  8
LAYER_1
 10
164.2074
 20
-155.4339
 42
-0.1370570596
  0
VERTEX
  8
LAYER_1
 10
164.8274
 20
-155.6071
  0
VERTEX
  8
LAYER_1
 10
164.8274
 20
-156.1339
  0
SEQEND
  0
POLYLINE
  8
LAYER_1
 40
0.1058
 41
0.1058
 66
1
 10
0
 20
0
 30
0
  0
VERTEX
  8
LAYER_1
 10
168.9874
 20
-155.6071
 42
0.1370569636
  0
VERTEX
  8
LAYER_1
 10
168.3674
 20
-155.4339
 42
0.1370542781
  0
VERTEX
  8
LAYER_1
 10
167.7474
 20
-155.6071
  0
VERTEX
  8
LAYER_1
 10
167.5244
 20
-155.6071
  0
VERTEX
  8
LAYER_1
 10
167.5244
 20
-156.1339
  0
SEQEND
  0
POLYLINE
  8
LAYER_1
 40
0.1058
 41
0.1058
 66
1
 10
0
 20
0
 30
0
  0
VERTEX
  8
LAYER_1
 10
163.5874
 20
-158.4607
 42
0.1370558457
  0
VERTEX
  8
LAYER_1
 10
164.2074
 20
-158.6339
 42
0.1370587236
  0
VERTEX
  8
LAYER_1
 10
164.8274
 20
-158.4607
  0
VERTEX
  8
LAYER_1
 10
165.0505
 20
-158.4607
  0
VERTEX
  8
LAYER_1
 10
165.0505
 20
-156.3339
  0
SEQEND
  0
POLYLINE
  8
LAYER_1
 40
0.1058
 41
0.1058
 66
1
 10
0
 20
0
 30
0
  0
VERTEX
  8
LAYER_1
 10
167.5244
 20
-156.3339
  0
VERTEX
  8
LAYER_1
 10
167.5244
 20
-158.4607
  0
VERTEX
  8
LAYER_1
 10
167.7474
 20
-158.4607
 42
0.1370559416
  0
VERTEX
  8
LAYER_1
 10
168.3674
 20
-158.6339
 42
0.1370586277
  0
VERTEX
  8
LAYER_1
 10
168.9874
 20
-158.4607
  0
VERTEX
  8
LAYER_1
 10
168.9874
 20
-155.6071
  0
VERTEX
  8
LAYER_1
 10
168.6874
 20
-155.4339
  0
VERTEX
  8
LAYER_1
 10
166.2874
 20
-155.4339
  0
VERTEX
  8
LAYER_1
 10
163.8874
 20
-155.4339
  0
VERTEX
  8
LAYER_1
 10
163.5874
 20
-155.6071
  0
VERTEX
  8
LAYER_1
 10
163.5874
 20
-158.4607
  0
VERTEX
  8
LAYER_1
 10
163.8874
 20
-158.6339
  0
VERTEX
  8
LAYER_1
 10
166.2874
 20
-158.6339
  0
VERTEX
  8
LAYER_1
 10
168.6874
 20
-158.6339
  0
VERTEX
  8
LAYER_1
 10
168.9874
 20
-158.4607
  0
SEQEND
  0
POLYLINE
  8
LAYER_1
 40
0.1058
 41
0.1058
 66
1
 10
0
 20
0
 30
0
  0
VERTEX
  8
LAYER_1
 10
168.2339
 20
-154.6139
  0
VERTEX
  8
LAYER_1
 10
169.2474
 20
-154.6139
  0
VERTEX
  8
LAYER_1
 10
169.2474
 20
-152.2139
  0
VERTEX
  8
LAYER_1
 10
168.2874
 20
-152.2139
  0
VERTEX
  8
LAYER_1
 10
168.2874
 20
-154.4139
 42
-0.4142521217
  0
VERTEX
  8
LAYER_1
 10
167.8874
 20
-154.8139
  0
VERTEX
  8
LAYER_1
 10
163.3899
 20
-154.8139
 42
-0.3923136174
  0
VERTEX
  8
LAYER_1
 10
163.3299
 20
-154.7539
  0
VERTEX
  8
LAYER_1
 10
163.3299
 20
-151.9139
 42
-0.4142102207
  0
VERTEX
  8
LAYER_1
 10
163.4299
 20
-151.8139
  0
VERTEX
  8
LAYER_1
 10
167.8874
 20
-151.8139
 42
-0.4142410779
  0
VERTEX
  8
LAYER_1
 10
168.2874
 20
-152.2139
  0
SEQEND
  0
POLYLINE
  8
LAYER_1
 40
0.1058
 41
0.1058
 66
1
 10
0
 20
0
 30
0
  0
VERTEX
  8
LAYER_1
 10
165.3274
 20
-151.9739
  0
VERTEX
  8
LAYER_1
 10
165.3274
 20
-154.6539
  0
SEQEND
  0
POLYLINE
  8
LAYER_1
 40
0.1058
 41
0.1058
 66
1
 10
0
 20
0
 30
0
  0
VERTEX
  8
LAYER_1
 10
165.2557
 20
-156.2339
  0
VERTEX
  8
LAYER_1
 10
165.0505
 20
-156.1339
  0
VERTEX
  8
LAYER_1
 10
164.8274
 20
-156.1339
  0
VERTEX
  8
LAYER_1
 10
164.6223
 20
-156.2339
  0
SEQEND
  0
POLYLINE
  8
LAYER_1
 40
0.1058
 41
0.1058
 66
1
 10
0
 20
0
 30
0
 70
1
  0
VERTEX
  8
LAYER_1
 10
164.8274
 20
-156.3339
  0
VERTEX
  8
LAYER_1
 10
165.0505
 20
-156.3339
  0
VERTEX
  8
LAYER_1
 10
165.2557
 20
-156.2339
  0
VERTEX
  8
LAYER_1
 10
164.6223
 20
-156.2339
  0
SEQEND
  0
POLYLINE
  8
LAYER_1
 40
0.1058
 41
0.1058
 66
1
 10
0
 20
0
 30
0
  0
VERTEX
  8
LAYER_1
 10
167.9526
 20
-156.2339
  0
VERTEX
  8
LAYER_1
 10
167.7474
 20
-156.1339
  0
VERTEX
  8
LAYER_1
 10
167.5244
 20
-156.1339
  0
VERTEX
  8
LAYER_1
 10
167.3192
 20
-156.2339
  0
SEQEND
  0
POLYLINE
  8
LAYER_1
 40
0.1058
 41
0.1058
 66
1
 10
0
 20
0
 30
0
 70
1
  0
VERTEX
  8
LAYER_1
 10
167.5244
 20
-156.3339
  0
VERTEX
  8
LAYER_1
 10
167.7474
 20
-156.3339
  0
VERTEX
  8
LAYER_1
 10
167.9526
 20
-156.2339
  0
VERTEX
  8
LAYER_1
 10
167.3192
 20
-156.2339
  0
SEQEND
  0
POLYLINE
  8
LAYER_1
 40
0.1058
 41
0.1058
 66
1
 10
0
 20
0
 30
0
  0
VERTEX
  8
LAYER_1
 10
168.9874
 20
-156.1339
  0
VERTEX
  8
LAYER_1
 10
168.7823
 20
-156.2339
  0
SEQEND
  0
POLYLINE
  8
LAYER_1
 40
0.1058
 41
0.1058
 66
1
 10
0
 20
0
 30
0
  0
VERTEX
  8
LAYER_1
 10
168.9874
 20
-156.2339
  0
VERTEX
  8
LAYER_1
 10
168.7823
 20
-156.2339
  0
VERTEX
  8
LAYER_1
 10
168.9874
 20
-156.3339
  0
SEQEND
  0
POLYLINE
  8
LAYER_1
 40
0.1058
 41
0.1058
 66
1
 10
0
 20
0
 30
0
  0
VERTEX
  8
LAYER_1
 10
163.5874
 20
-156.1339
  0
VERTEX
  8
LAYER_1
 10
163.7926
 20
-156.2339
  0
SEQEND
  0
POLYLINE
  8
LAYER_1
 40
0.1058
 41
0.1058
 66
1
 10
0
 20
0
 30
0
  0
VERTEX
  8
LAYER_1
 10
163.5874
 20
-156.2339
  0
VERTEX
  8
LAYER_1
 10
163.7926
 20
-156.2339
  0
VERTEX
  8
LAYER_1
 10
163.5874
 20
-156.3339
  0
SEQEND
  0
POLYLINE
  8
LAYER_1
 40
0.1058
 41
0.1058
 66
1
 10
0
 20
0
 30
0
  0
VERTEX
  8
LAYER_1
 10
168.2874
 20
-161.8339
  0
VERTEX
  8
LAYER_1
 10
169.8874
 20
-161.8339
 42
-0.4142410779
  0
VERTEX
  8
LAYER_1
 10
170.2874
 20
-162.2339
  0
VERTEX
  8
LAYER_1
 10
170.2874
 20
-169.4339
 42
-0.4142521217
  0
VERTEX
  8
LAYER_1
 10
169.8874
 20
-169.8339
  0
VERTEX
  8
LAYER_1
 10
168.2874
 20
-169.8339
  0
SEQEND
  0
POLYLINE
  8
LAYER_1
 40
0.1058
 41
0.1058
 66
1
 10
0
 20
0
 30
0
  0
VERTEX
  8
LAYER_1
 10
164.2874
 20
-161.8339
  0
VERTEX
  8
LAYER_1
 10
162.6874
 20
-161.8339
 42
0.4141750067
  0
VERTEX
  8
LAYER_1
 10
162.2874
 20
-162.2339
  0
VERTEX
  8
LAYER_1
 10
162.2874
 20
-169.4339
 42
0.4141860449
  0
VERTEX
  8
LAYER_1
 10
162.6874
 20
-169.8339
  0
VERTEX
  8
LAYER_1
 10
164.2874
 20
-169.8339
  0
SEQEND
  0
CIRCLE
  8
LAYER_1
 10
163.4374
 20
-162.9839
 40
0.7945
  0
POLYLINE
  8
LAYER_1
 40
0.1058
 41
0.1058
 66
1
 10
0
 20
0
 30
0
 70
1
  0
VERTEX
  8
LAYER_1
 10
163.6381
 20
-162.6363
  0
VERTEX
  8
LAYER_1
 10
163.2367
 20
-162.6363
  0
VERTEX
  8
LAYER_1
 10
163.036
 20
-162.9839
  0
VERTEX
  8
LAYER_1
 10
163.2367
 20
-163.3315
  0
VERTEX
  8
LAYER_1
 10
163.6381
 20
-163.3315
  0
VERTEX
  8
LAYER_1
 10
163.8388
 20
-162.9839
  0
SEQEND
  0
CIRCLE
  8
LAYER_1
 10
169.1374
 20
-162.9839
 40
0.7945
  0
POLYLINE
  8
LAYER_1
 40
0.1058
 41
0.1058
 66
1
 10
0
 20
0
 30
0
 70
1
  0
VERTEX
  8
LAYER_1
 10
168.9367
 20
-162.6363
  0
VERTEX
  8
LAYER_1
 10
169.3381
 20
-162.6363
  0
VERTEX
  8
LAYER_1
 10
169.5388
 20
-162.9839
  0
VERTEX
  8
LAYER_1
 10
169.3381
 20
-163.3315
  0
VERTEX
  8
LAYER_1
 10
168.9367
 20
-163.3315
  0
VERTEX
  8
LAYER_1
 10
168.736
 20
-162.9839
  0
SEQEND
  0
CIRCLE
  8
LAYER_1
 10
163.4374
 20
-168.6839
 40
0.7945
  0
POLYLINE
  8
LAYER_1
 40
0.1058
 41
0.1058
 66
1
 10
0
 20
0
 30
0
 70
1
  0
VERTEX
  8
LAYER_1
 10
163.6381
 20
-169.0315
  0
VERTEX
  8
LAYER_1
 10
163.2367
 20
-169.0315
  0
VERTEX
  8
LAYER_1
 10
163.036
 20
-168.6839
  0
VERTEX
  8
LAYER_1
 10
163.2367
 20
-168.3363
  0
VERTEX
  8
LAYER_1
 10
163.6381
 20
-168.3363
  0
VERTEX
  8
LAYER_1
 10
163.8388
 20
-168.6839
  0
SEQEND
  0
CIRCLE
  8
LAYER_1
 10
169.1374
 20
-168.6839
 40
0.7945
  0
POLYLINE
  8
LAYER_1
 40
0.1058
 41
0.1058
 66
1
 10
0
 20
0
 30
0
 70
1
  0
VERTEX
  8
LAYER_1
 10
168.9367
 20
-169.0315
  0
VERTEX
  8
LAYER_1
 10
169.3381
 20
-169.0315
  0
VERTEX
  8
LAYER_1
 10
169.5388
 20
-168.6839
  0
VERTEX
  8
LAYER_1
 10
169.3381
 20
-168.3363
  0
VERTEX
  8
LAYER_1
 10
168.9367
 20
-168.3363
  0
VERTEX
  8
LAYER_1
 10
168.736
 20
-168.6839
  0
SEQEND
  0
POLYLINE
  8
LAYER_1
 40
0.1058
 41
0.1058
 66
1
 10
0
 20
0
 30
0
  0
VERTEX
  8
LAYER_1
 10
168.2874
 20
-169.9338
  0
VERTEX
  8
LAYER_1
 10
168.2874
 20
-171.3339
  0
SEQEND
  0
POLYLINE
  8
LAYER_1
 40
0.1058
 41
0.1058
 66
1
 10
0
 20
0
 30
0
  0
VERTEX
  8
LAYER_1
 10
168.2874
 20
-170.0069
  0
VERTEX
  8
LAYER_1
 10
168.2874
 20
-167.2339
 42
0.4142410779
  0
VERTEX
  8
LAYER_1
 10
167.8874
 20
-166.8339
  0
VERTEX
  8
LAYER_1
 10
164.6874
 20
-166.8339
 42
0.4141750067
  0
VERTEX
  8
LAYER_1
 10
164.2874
 20
-167.2339
  0
VERTEX
  8
LAYER_1
 10
164.2874
 20
-170.0069
  0
VERTEX
  8
LAYER_1
 10
164.2874
 20
-171.3339
  0
SEQEND
  0
POLYLINE
  8
LAYER_1
 40
0.1058
 41
0.1058
 66
1
 10
0
 20
0
 30
0
  0
VERTEX
  8
LAYER_1
 10
164.2874
 20
-160.1339
  0
VERTEX
  8
LAYER_1
 10
164.2874
 20
-163.0339
 42
0.4141860449
  0
VERTEX
  8
LAYER_1
 10
164.6874
 20
-163.4339
  0
VERTEX
  8
LAYER_1
 10
167.8874
 20
-163.4339
 42
0.4142521215
  0
VERTEX
  8
LAYER_1
 10
168.2874
 20
-163.0339
  0
VERTEX
  8
LAYER_1
 10
168.2874
 20
-161.7067
  0
VERTEX
  8
LAYER_1
 10
168.2874
 20
-160.1339
  0
SEQEND
  0
POLYLINE
  8
LAYER_1
 40
0.1058
 41
0.1058
 66
1
 10
0
 20
0
 30
0
  0
VERTEX
  8
LAYER_1
 10
164.5874
 20
-163.4212
  0
VERTEX
  8
LAYER_1
 10
164.5874
 20
-166.8339
  0
SEQEND
  0
POLYLINE
  8
LAYER_1
 40
0.1058
 41
0.1058
 66
1
 10
0
 20
0
 30
0
  0
VERTEX
  8
LAYER_1
 10
167.9874
 20
-163.4212
  0
VERTEX
  8
LAYER_1
 10
167.9874
 20
-166.8339
  0
SEQEND
  0
POLYLINE
  8
LAYER_1
 40
0.1058
 41
0.1058
 66
1
 10
0
 20
0
 30
0
  0
VERTEX
  8
LAYER_1
 10
164.3474
 20
-171.3939
  0
VERTEX
  8
LAYER_1
 10
164.2874
 20
-171.3339
  0
VERTEX
  8
LAYER_1
 10
168.2874
 20
-171.3339
  0
VERTEX
  8
LAYER_1
 10
168.2274
 20
-171.3939
  0
SEQEND
  0
POLYLINE
  8
LAYER_1
 40
0.1058
 41
0.1058
 66
1
 10
0
 20
0
 30
0
 70
1
  0
VERTEX
  8
LAYER_1
 10
168.1874
 20
-160.0339
  0
VERTEX
  8
LAYER_1
 10
168.2874
 20
-160.1339
  0
VERTEX
  8
LAYER_1
 10
164.2874
 20
-160.1339
  0
VERTEX
  8
LAYER_1
 10
164.3874
 20
-160.0339
  0
SEQEND
  0
POLYLINE
  8
LAYER_1
  6
AIGENLINE001
 40
0.1058
 41
0.1058
 66
1
 10
0
 20
0
 30
0
 70
128
  0
VERTEX
  8
LAYER_1
 10
167.743
 20
-162.9839
  0
VERTEX
  8
LAYER_1
 10
170.5319
 20
-162.9839
  0
SEQEND
  0
POLYLINE
  8
LAYER_1
  6
AIGENLINE001
 40
0.1058
 41
0.1058
 66
1
 10
0
 20
0
 30
0
 70
128
  0
VERTEX
  8
LAYER_1
 10
169.1374
 20
-161.5894
  0
VERTEX
  8
LAYER_1
 10
169.1374
 20
-164.3784
  0
SEQEND
  0
POLYLINE
  8
LAYER_1
  6
AIGENLINE001
 40
0.1058
 41
0.1058
 66
1
 10
0
 20
0
 30
0
 70
128
  0
VERTEX
  8
LAYER_1
 10
167.743
 20
-168.6839
  0
VERTEX
  8
LAYER_1
 10
170.5319
 20
-168.6839
  0
SEQEND
  0
POLYLINE
  8
LAYER_1
  6
AIGENLINE001
 40
0.1058
 41
0.1058
 66
1
 10
0
 20
0
 30
0
 70
128
  0
VERTEX
  8
LAYER_1
 10
169.1374
 20
-167.2894
  0
VERTEX
  8
LAYER_1
 10
169.1374
 20
-170.0784
  0
SEQEND
  0
POLYLINE
  8
LAYER_1
  6
AIGENLINE001
 40
0.1058
 41
0.1058
 66
1
 10
0
 20
0
 30
0
 70
128
  0
VERTEX
  8
LAYER_1
 10
162.043
 20
-168.6839
  0
VERTEX
  8
LAYER_1
 10
164.8319
 20
-168.6839
  0
SEQEND
  0
POLYLINE
  8
LAYER_1
  6
AIGENLINE001
 40
0.1058
 41
0.1058
 66
1
 10
0
 20
0
 30
0
 70
128
  0
VERTEX
  8
LAYER_1
 10
163.4374
 20
-167.2894
  0
VERTEX
  8
LAYER_1
 10
163.4374
 20
-170.0784
  0
SEQEND
  0
POLYLINE
  8
LAYER_1
  6
AIGENLINE001
 40
0.1058
 41
0.1058
 66
1
 10
0
 20
0
 30
0
 70
128
  0
VERTEX
  8
LAYER_1
 10
162.043
 20
-162.9839
  0
VERTEX
  8
LAYER_1
 10
164.8319
 20
-162.9839
  0
SEQEND
  0
POLYLINE
  8
LAYER_1
  6
AIGENLINE001
 40
0.1058
 41
0.1058
 66
1
 10
0
 20
0
 30
0
 70
128
  0
VERTEX
  8
LAYER_1
 10
163.4374
 20
-161.5894
  0
VERTEX
  8
LAYER_1
 10
163.4374
 20
-164.3784
  0
SEQEND
  0
POLYLINE
  8
LAYER_1
 40
0.1058
 41
0.1058
 66
1
 10
0
 20
0
 30
0
  0
VERTEX
  8
LAYER_1
 10
171.5674
 20
-170.6335
  0
VERTEX
  8
LAYER_1
 10
171.5855
 20
-170.4339
  0
VERTEX
  8
LAYER_1
 10
171.5674
 20
-170.2339
  0
SEQEND
  0
POLYLINE
  8
LAYER_1
 40
0.1058
 41
0.1058
 66
1
 10
0
 20
0
 30
0
  0
VERTEX
  8
LAYER_1
 10
168.2874
 20
-170.6335
  0
VERTEX
  8
LAYER_1
 10
171.5874
 20
-170.6335
  0
VERTEX
  8
LAYER_1
 10
171.5874
 20
-170.7875
 42
-0.4089158449
  0
VERTEX
  8
LAYER_1
 10
171.287
 20
-171.0935
  0
VERTEX
  8
LAYER_1
 10
168.2874
 20
-171.0935
  0
SEQEND
  0
POLYLINE
  8
LAYER_1
 40
0.1058
 41
0.1058
 66
1
 10
0
 20
0
 30
0
  0
VERTEX
  8
LAYER_1
 10
171.5375
 20
-170.6335
  0
VERTEX
  8
LAYER_1
 10
171.4383
 20
-170.6335
  0
SEQEND
  0
POLYLINE
  8
LAYER_1
 40
0.1058
 41
0.1058
 66
1
 10
0
 20
0
 30
0
  0
VERTEX
  8
LAYER_1
 10
170.4897
 20
-170.2339
  0
VERTEX
  8
LAYER_1
 10
171.6094
 20
-170.2339
  0
VERTEX
  8
LAYER_1
 10
171.6094
 20
-170.0738
 42
0.4141890606
  0
VERTEX
  8
LAYER_1
 10
171.3094
 20
-169.7738
  0
VERTEX
  8
LAYER_1
 10
170.4897
 20
-169.7738
  0
SEQEND
  0
POLYLINE
  8
LAYER_1
 40
0.1058
 41
0.1058
 66
1
 10
0
 20
0
 30
0
  0
VERTEX
  8
LAYER_1
 10
168.2874
 20
-170.0339
  0
VERTEX
  8
LAYER_1
 10
170.2897
 20
-170.0339
  0
VERTEX
  8
LAYER_1
 10
170.2897
 20
-170.1339
 42
0.4142296023
  0
VERTEX
  8
LAYER_1
 10
170.3897
 20
-170.2339
 42
0.4142416863
  0
VERTEX
  8
LAYER_1
 10
170.4897
 20
-170.1339
  0
SEQEND
  0
POLYLINE
  8
LAYER_1
 40
0.1058
 41
0.1058
 66
1
 10
0
 20
0
 30
0
  0
VERTEX
  8
LAYER_1
 10
169.2857
 20
-160.6335
 42
-0.4142135188
  0
VERTEX
  8
LAYER_1
 10
171.2857
 20
-162.6335
  0
VERTEX
  8
LAYER_1
 10
171.2857
 20
-169.7738
  0
SEQEND
  0
POLYLINE
  8
LAYER_1
 40
0.1058
 41
0.1058
 66
1
 10
0
 20
0
 30
0
  0
VERTEX
  8
LAYER_1
 10
161.2892
 20
-169.7738
  0
VERTEX
  8
LAYER_1
 10
161.2892
 20
-162.6335
 42
-0.4142149488
  0
VERTEX
  8
LAYER_1
 10
163.2892
 20
-160.6335
  0
SEQEND
  0
POLYLINE
  8
LAYER_1
 40
0.1058
 41
0.1058
 66
1
 10
0
 20
0
 30
0
  0
VERTEX
  8
LAYER_1
 10
168.2874
 20
-161.6339
  0
VERTEX
  8
LAYER_1
 10
170.0897
 20
-161.6339
 42
-0.4142095521
  0
VERTEX
  8
LAYER_1
 10
170.4897
 20
-162.0339
  0
VERTEX
  8
LAYER_1
 10
170.4897
 20
-170.4339
 42
-0.4142418657
  0
VERTEX
  8
LAYER_1
 10
170.3897
 20
-170.5339
  0
VERTEX
  8
LAYER_1
 10
168.2874
 20
-170.5339
  0
SEQEND
  0
POLYLINE
  8
LAYER_1
 40
0.1058
 41
0.1058
 66
1
 10
0
 20
0
 30
0
  0
VERTEX
  8
LAYER_1
 10
162.0852
 20
-170.1339
 42
0.4142702892
  0
VERTEX
  8
LAYER_1
 10
162.1852
 20
-170.2339
 42
0.4142010004
  0
VERTEX
  8
LAYER_1
 10
162.2852
 20
-170.1339
  0
VERTEX
  8
LAYER_1
 10
162.2852
 20
-170.0339
  0
VERTEX
  8
LAYER_1
 10
164.2874
 20
-170.0339
  0
SEQEND
  0
POLYLINE
  8
LAYER_1
 40
0.1058
 41
0.1058
 66
1
 10
0
 20
0
 30
0
  0
VERTEX
  8
LAYER_1
 10
164.2874
 20
-170.5339
  0
VERTEX
  8
LAYER_1
 10
162.1852
 20
-170.5339
 42
-0.4142702892
  0
VERTEX
  8
LAYER_1
 10
162.0852
 20
-170.4339
  0
VERTEX
  8
LAYER_1
 10
162.0852
 20
-162.0339
 42
-0.4142167014
  0
VERTEX
  8
LAYER_1
 10
162.4852
 20
-161.6339
  0
VERTEX
  8
LAYER_1
 10
164.2874
 20
-161.6339
  0
SEQEND
  0
POLYLINE
  8
LAYER_1
 40
0.1058
 41
0.1058
 66
1
 10
0
 20
0
 30
0
  0
VERTEX
  8
LAYER_1
 10
161.0075
 20
-170.2339
  0
VERTEX
  8
LAYER_1
 10
160.9894
 20
-170.4339
  0
VERTEX
  8
LAYER_1
 10
161.0074
 20
-170.6335
  0
SEQEND
  0
POLYLINE
  8
LAYER_1
 40
0.1058
 41
0.1058
 66
1
 10
0
 20
0
 30
0
  0
VERTEX
  8
LAYER_1
 10
163.2332
 20
-160.6335
  0
VERTEX
  8
LAYER_1
 10
164.2874
 20
-160.6335
  0
SEQEND
  0
POLYLINE
  8
LAYER_1
 40
0.1058
 41
0.1058
 66
1
 10
0
 20
0
 30
0
  0
VERTEX
  8
LAYER_1
 10
169.3417
 20
-160.6335
  0
VERTEX
  8
LAYER_1
 10
168.2874
 20
-160.6335
  0
SEQEND
  0
POLYLINE
  8
LAYER_1
 40
0.1058
 41
0.1058
 66
1
 10
0
 20
0
 30
0
  0
VERTEX
  8
LAYER_1
 10
161.284
 20
-171.0935
  0
VERTEX
  8
LAYER_1
 10
161.5717
 20
-175.8696
 42
0.3966893575
  0
VERTEX
  8
LAYER_1
 10
162.1706
 20
-176.4335
  0
VERTEX
  8
LAYER_1
 10
163.8874
 20
-176.4335
  0
SEQEND
  0
POLYLINE
  8
LAYER_1
 40
0.1058
 41
0.1058
 66
1
 10
0
 20
0
 30
0
  0
VERTEX
  8
LAYER_1
 10
171.2909
 20
-171.0935
  0
VERTEX
  8
LAYER_1
 10
171.0032
 20
-175.8696
 42
-0.3966850234
  0
VERTEX
  8
LAYER_1
 10
170.4043
 20
-176.4335
  0
VERTEX
  8
LAYER_1
 10
168.6874
 20
-176.4335
  0
SEQEND
  0
POLYLINE
  8
LAYER_1
 40
0.1058
 41
0.1058
 66
1
 10
0
 20
0
 30
0
  0
VERTEX
  8
LAYER_1
 10
169.5874
 20
-177.3211
  0
VERTEX
  8
LAYER_1
 10
169.5874
 20
-177.896
  0
SEQEND
  0
POLYLINE
  8
LAYER_1
 40
0.1058
 41
0.1058
 66
1
 10
0
 20
0
 30
0
  0
VERTEX
  8
LAYER_1
 10
162.322
 20
-176.4335
 42
0.09873653715
  0
VERTEX
  8
LAYER_1
 10
162.302
 20
-176.5335
  0
VERTEX
  8
LAYER_1
 10
162.322
 20
-176.6335
  0
SEQEND
  0
POLYLINE
  8
LAYER_1
 40
0.1058
 41
0.1058
 66
1
 10
0
 20
0
 30
0
  0
VERTEX
  8
LAYER_1
 10
162.6874
 20
-177.0329
 42
-0.4142631448
  0
VERTEX
  8
LAYER_1
 10
162.9874
 20
-177.3329
  0
VERTEX
  8
LAYER_1
 10
162.9874
 20
-177.8939
  0
SEQEND
  0
POLYLINE
  8
LAYER_1
 40
0.1058
 41
0.1058
 66
1
 10
0
 20
0
 30
0
  0
VERTEX
  8
LAYER_1
 10
169.8874
 20
-177.0329
 42
0.4141748476
  0
VERTEX
  8
LAYER_1
 10
169.5874
 20
-177.3329
  0
SEQEND
  0
POLYLINE
  8
LAYER_1
 40
0.1058
 41
0.1058
 66
1
 10
0
 20
0
 30
0
  0
VERTEX
  8
LAYER_1
 10
170.2529
 20
-176.6335
  0
VERTEX
  8
LAYER_1
 10
170.2729
 20
-176.5335
  0
VERTEX
  8
LAYER_1
 10
170.2529
 20
-176.4335
  0
SEQEND
  0
POLYLINE
  8
LAYER_1
 40
0.1058
 41
0.1058
 66
1
 10
0
 20
0
 30
0
  0
VERTEX
  8
LAYER_1
 10
168.6874
 20
-176.6335
  0
VERTEX
  8
LAYER_1
 10
170.2694
 20
-176.6335
  0
VERTEX
  8
LAYER_1
 10
170.2694
 20
-176.7329
 42
-0.4141936984
  0
VERTEX
  8
LAYER_1
 10
169.9694
 20
-177.0329
  0
VERTEX
  8
LAYER_1
 10
168.6874
 20
-177.0329
  0
SEQEND
  0
POLYLINE
  8
LAYER_1
 40
0.1058
 41
0.1058
 66
1
 10
0
 20
0
 30
0
  0
VERTEX
  8
LAYER_1
 10
163.8874
 20
-176.6335
  0
VERTEX
  8
LAYER_1
 10
162.3055
 20
-176.6335
  0
VERTEX
  8
LAYER_1
 10
162.3055
 20
-176.7329
 42
0.4142028396
  0
VERTEX
  8
LAYER_1
 10
162.6055
 20
-177.0329
  0
VERTEX
  8
LAYER_1
 10
163.8874
 20
-177.0329
  0
SEQEND
  0
POLYLINE
  8
LAYER_1
 40
0.1058
 41
0.1058
 66
1
 10
0
 20
0
 30
0
  0
VERTEX
  8
LAYER_1
 10
168.3829
 20
-159.8339
  0
VERTEX
  8
LAYER_1
 10
168.1829
 20
-160.0339
  0
SEQEND
  0
POLYLINE
  8
LAYER_1
 40
0.1058
 41
0.1058
 66
1
 10
0
 20
0
 30
0
  0
VERTEX
  8
LAYER_1
 10
167.8874
 20
-160.0339
  0
VERTEX
  8
LAYER_1
 10
168.185
 20
-160.0339
  0
VERTEX
  8
LAYER_1
 10
166.2874
 20
-160.0339
  0
VERTEX
  8
LAYER_1
 10
164.3899
 20
-160.0339
  0
VERTEX
  8
LAYER_1
 10
164.6874
 20
-160.0339
  0
SEQEND
  0
POLYLINE
  8
LAYER_1
 40
0.1058
 41
0.1058
 66
1
 10
0
 20
0
 30
0
  0
VERTEX
  8
LAYER_1
 10
168.3829
 20
-159.4364
  0
VERTEX
  8
LAYER_1
 10
168.1505
 20
-159.0339
  0
VERTEX
  8
LAYER_1
 10
168.1505
 20
-158.6339
  0
SEQEND
  0
POLYLINE
  8
LAYER_1
 40
0.1058
 41
0.1058
 66
1
 10
0
 20
0
 30
0
  0
VERTEX
  8
LAYER_1
 10
164.1919
 20
-159.8339
  0
VERTEX
  8
LAYER_1
 10
164.3919
 20
-160.0339
  0
SEQEND
  0
POLYLINE
  8
LAYER_1
 40
0.1058
 41
0.1058
 66
1
 10
0
 20
0
 30
0
  0
VERTEX
  8
LAYER_1
 10
164.1919
 20
-159.4364
  0
VERTEX
  8
LAYER_1
 10
164.4243
 20
-159.0339
  0
VERTEX
  8
LAYER_1
 10
164.4243
 20
-158.6339
  0
SEQEND
  0
POLYLINE
  8
LAYER_1
 40
0.1058
 41
0.1058
 66
1
 10
0
 20
0
 30
0
  0
VERTEX
  8
LAYER_1
 10
164.1919
 20
-159.0339
  0
VERTEX
  8
LAYER_1
 10
166.2874
 20
-159.0339
  0
VERTEX
  8
LAYER_1
 10
168.3829
 20
-159.0339
  0
SEQEND
  0
POLYLINE
  8
LAYER_1
 40
0.1058
 41
0.1058
 66
1
 10
0
 20
0
 30
0
  0
VERTEX
  8
LAYER_1
 10
166.2874
 20
-151.9139
  0
VERTEX
  8
LAYER_1
 10
166.2874
 20
-154.7539
  0
SEQEND
  0
POLYLINE
  8
LAYER_1
 40
0.1058
 41
0.1058
 66
1
 10
0
 20
0
 30
0
 70
1
  0
VERTEX
  8
LAYER_1
 10
168.3829
 20
-159.8339
  0
VERTEX
  8
LAYER_1
 10
164.1919
 20
-159.8339
  0
VERTEX
  8
LAYER_1
 10
164.1919
 20
-158.6339
  0
VERTEX
  8
LAYER_1
 10
168.3829
 20
-158.6339
  0
SEQEND
  0
POLYLINE
  8
LAYER_1
 40
0.1058
 41
0.1058
 66
1
 10
0
 20
0
 30
0
  0
VERTEX
  8
LAYER_1
 10
164.2874
 20
-170.6335
  0
VERTEX
  8
LAYER_1
 10
160.9874
 20
-170.6335
  0
VERTEX
  8
LAYER_1
 10
160.9874
 20
-170.7875
 42
0.4089251507
  0
VERTEX
  8
LAYER_1
 10
161.2879
 20
-171.0935
  0
VERTEX
  8
LAYER_1
 10
164.2874
 20
-171.0935
  0
SEQEND
  0
POLYLINE
  8
LAYER_1
 40
0.1058
 41
0.1058
 66
1
 10
0
 20
0
 30
0
  0
VERTEX
  8
LAYER_1
 10
162.0852
 20
-170.2339
  0
VERTEX
  8
LAYER_1
 10
160.9655
 20
-170.2339
  0
VERTEX
  8
LAYER_1
 10
160.9655
 20
-170.0738
 42
-0.4141985927
  0
VERTEX
  8
LAYER_1
 10
161.2655
 20
-169.7738
  0
VERTEX
  8
LAYER_1
 10
162.0852
 20
-169.7738
  0
SEQEND
  0
POLYLINE
  8
LAYER_1
  6
AIGENLINE001
 40
0.1058
 41
0.1058
 66
1
 10
0
 20
0
 30
0
 70
128
  0
VERTEX
  8
LAYER_1
 10
166.2874
 20
-114.8193
  0
VERTEX
  8
LAYER_1
 10
166.2874
 20
-183.2939
  0
SEQEND
  0
POLYLINE
  8
LAYER_1
 40
0.1058
 41
0.1058
 66
1
 10
0
 20
0
 30
0
  0
VERTEX
  8
LAYER_1
 10
165.7674
 20
-182.6939
  0
VERTEX
  8
LAYER_1
 10
165.7674
 20
-186.4335
 42
0.4142101154
  0
VERTEX
  8
LAYER_1
 10
168.8074
 20
-189.4735
  0
VERTEX
  8
LAYER_1
 10
195.5412
 20
-189.4735
  0
SEQEND
  0
POLYLINE
  8
LAYER_1
 40
0.1058
 41
0.1058
 66
1
 10
0
 20
0
 30
0
  0
VERTEX
  8
LAYER_1
 10
166.8074
 20
-182.6939
  0
VERTEX
  8
LAYER_1
 10
166.8074
 20
-186.4335
 42
0.4142083228
  0
VERTEX
  8
LAYER_1
 10
168.8074
 20
-188.4335
  0
VERTEX
  8
LAYER_1
 10
195.5412
 20
-188.4335
  0
SEQEND
  0
POLYLINE
  8
LAYER_1
 40
0.1058
 41
0.1058
 66
1
 10
0
 20
0
 30
0
  0
VERTEX
  8
LAYER_1
 10
195.5412
 20
-188.4335
 42
-0.3999566943
  0
VERTEX
  8
LAYER_1
 10
195.5412
 20
-188.6415
 42
0.1907480289
  0
VERTEX
  8
LAYER_1
 10
195.4996
 20
-188.7455
 42
0.1908861245
  0
VERTEX
  8
LAYER_1
 10
195.5412
 20
-188.8495
 42
-0.1903485773
  0
VERTEX
  8
LAYER_1
 10
195.5828
 20
-188.9535
 42
-0.1901232497
  0
VERTEX
  8
LAYER_1
 10
195.5412
 20
-189.0575
 42
0.1907480289
  0
VERTEX
  8
LAYER_1
 10
195.4996
 20
-189.1615
 42
0.1908861245
  0
VERTEX
  8
LAYER_1
 10
195.5412
 20
-189.2655
 42
-0.1903485773
  0
VERTEX
  8
LAYER_1
 10
195.5828
 20
-189.3695
 42
-0.1901232497
  0
VERTEX
  8
LAYER_1
 10
195.5412
 20
-189.4735
  0
SEQEND
  0
POLYLINE
  8
LAYER_1
  6
AIGENLINE001
 40
0.1058
 41
0.1058
 66
1
 10
0
 20
0
 30
0
 70
128
  0
VERTEX
  8
LAYER_1
 10
75.8729
 20
-151.1539
  0
VERTEX
  8
LAYER_1
 10
78.5129
 20
-151.1539
  0
SEQEND
  0
POLYLINE
  8
LAYER_1
 40
0.1058
 41
0.1058
 66
1
 10
0
 20
0
 30
0
  0
VERTEX
  8
LAYER_1
 10
78.0929
 20
-137.4289
  0
VERTEX
  8
LAYER_1
 10
78.0929
 20
-150.3539
  0
SEQEND
  0
POLYLINE
  8
LAYER_1
 40
0.1058
 41
0.1058
 66
1
 10
0
 20
0
 30
0
  0
VERTEX
  8
LAYER_1
 10
76.2929
 20
-137.4289
  0
VERTEX
  8
LAYER_1
 10
76.2929
 20
-150.3539
  0
SEQEND
  0
POLYLINE
  8
LAYER_1
 40
0.1058
 41
0.1058
 66
1
 10
0
 20
0
 30
0
  0
VERTEX
  8
LAYER_1
 10
76.2929
 20
-137.4289
 42
-0.4000511799
  0
VERTEX
  8
LAYER_1
 10
76.6529
 20
-137.4289
 42
0.1902091616
  0
VERTEX
  8
LAYER_1
 10
76.8329
 20
-137.5009
 42
0.1901934814
  0
VERTEX
  8
LAYER_1
 10
77.0129
 20
-137.4289
 42
-0.1905462348
  0
VERTEX
  8
LAYER_1
 10
77.1929
 20
-137.3569
 42
-0.1905489245
  0
VERTEX
  8
LAYER_1
 10
77.3729
 20
-137.4289
 42
0.1902091616
  0
VERTEX
  8
LAYER_1
 10
77.5529
 20
-137.5009
 42
0.1901934814
  0
VERTEX
  8
LAYER_1
 10
77.7329
 20
-137.4289
 42
-0.1905462348
  0
VERTEX
  8
LAYER_1
 10
77.9129
 20
-137.3569
 42
-0.1905489245
  0
VERTEX
  8
LAYER_1
 10
78.0929
 20
-137.4289
  0
SEQEND
  0
POLYLINE
  8
LAYER_1
 40
0.1058
 41
0.1058
 66
1
 10
0
 20
0
 30
0
  0
VERTEX
  8
LAYER_1
 10
76.1729
 20
-151.8139
  0
VERTEX
  8
LAYER_1
 10
76.1729
 20
-150.3539
  0
VERTEX
  8
LAYER_1
 10
77.1929
 20
-150.3539
  0
VERTEX
  8
LAYER_1
 10
78.2129
 20
-150.3539
  0
VERTEX
  8
LAYER_1
 10
78.2129
 20
-151.8139
  0
SEQEND
  0
POLYLINE
  8
LAYER_1
 40
0.1058
 41
0.1058
 66
1
 10
0
 20
0
 30
0
 70
1
  0
VERTEX
  8
LAYER_1
 10
77.4867
 20
-150.8934
 42
-0.1404790904
  0
VERTEX
  8
LAYER_1
 10
77.5929
 20
-150.8629
  0
VERTEX
  8
LAYER_1
 10
77.6435
 20
-150.8694
  0
VERTEX
  8
LAYER_1
 10
77.9812
 20
-150.9576
 42
-0.3588656744
  0
VERTEX
  8
LAYER_1
 10
78.1429
 20
-151.1539
 42
-0.3588828807
  0
VERTEX
  8
LAYER_1
 10
77.9812
 20
-151.3502
  0
VERTEX
  8
LAYER_1
 10
77.6435
 20
-151.4384
  0
VERTEX
  8
LAYER_1
 10
77.5929
 20
-151.4449
 42
-0.1405145754
  0
VERTEX
  8
LAYER_1
 10
77.4867
 20
-151.4144
 42
0.1406612222
  0
VERTEX
  8
LAYER_1
 10
77.3806
 20
-151.3839
  0
VERTEX
  8
LAYER_1
 10
77.1929
 20
-151.3839
  0
VERTEX
  8
LAYER_1
 10
77.0053
 20
-151.3839
 42
0.1405145754
  0
VERTEX
  8
LAYER_1
 10
76.8991
 20
-151.4144
 42
-0.1406236495
  0
VERTEX
  8
LAYER_1
 10
76.7929
 20
-151.4449
  0
VERTEX
  8
LAYER_1
 10
76.7424
 20
-151.4384
  0
VERTEX
  8
LAYER_1
 10
76.4047
 20
-151.3502
 42
-0.3589496503
  0
VERTEX
  8
LAYER_1
 10
76.2429
 20
-151.1539
 42
-0.3589324432
  0
VERTEX
  8
LAYER_1
 10
76.4047
 20
-150.9576
  0
VERTEX
  8
LAYER_1
 10
76.7424
 20
-150.8694
  0
VERTEX
  8
LAYER_1
 10
76.7929
 20
-150.8629
 42
-0.1410926237
  0
VERTEX
  8
LAYER_1
 10
76.8991
 20
-150.8934
 42
0.1404790904
  0
VERTEX
  8
LAYER_1
 10
77.0053
 20
-150.9239
  0
VERTEX
  8
LAYER_1
 10
77.1929
 20
-150.9239
  0
VERTEX
  8
LAYER_1
 10
77.3806
 20
-150.9239
 42
0.1409770086
  0
SEQEND
  0
POLYLINE
  8
LAYER_1
  6
AIGENLINE001
 40
0.1058
 41
0.1058
 66
1
 10
0
 20
0
 30
0
 70
128
  0
VERTEX
  8
LAYER_1
 10
73.1929
 20
-180.2939
  0
VERTEX
  8
LAYER_1
 10
79.1929
 20
-180.2939
  0
SEQEND
  0
CIRCLE
  8
LAYER_1
 10
76.1929
 20
-180.2939
 40
2.4
  0
POLYLINE
  8
LAYER_1
 40
0.1058
 41
0.1058
 66
1
 10
0
 20
0
 30
0
  0
VERTEX
  8
LAYER_1
 10
78.0929
 20
-182.9939
  0
VERTEX
  8
LAYER_1
 10
76.1929
 20
-182.9939
  0
VERTEX
  8
LAYER_1
 10
74.2929
 20
-182.9939
  0
SEQEND
  0
POLYLINE
  8
LAYER_1
 40
0.1058
 41
0.1058
 66
1
 10
0
 20
0
 30
0
  0
VERTEX
  8
LAYER_1
 10
78.1566
 20
-181.6745
 42
0.1446474884
  0
VERTEX
  8
LAYER_1
 10
78.0929
 20
-181.8901
  0
VERTEX
  8
LAYER_1
 10
78.0929
 20
-181.8916
  0
VERTEX
  8
LAYER_1
 10
78.0929
 20
-182.9939
  0
VERTEX
  8
LAYER_1
 10
77.9929
 20
-183.0939
  0
VERTEX
  8
LAYER_1
 10
76.1929
 20
-183.0939
  0
VERTEX
  8
LAYER_1
 10
74.3929
 20
-183.0939
  0
VERTEX
  8
LAYER_1
 10
74.2929
 20
-182.9939
  0
VERTEX
  8
LAYER_1
 10
74.2929
 20
-181.8915
  0
VERTEX
  8
LAYER_1
 10
74.293
 20
-181.8893
 42
0.1457920099
  0
VERTEX
  8
LAYER_1
 10
74.229
 20
-181.6747
  0
SEQEND
  0
CIRCLE
  8
LAYER_1
 10
76.1929
 20
-180.2939
 40
2.2
  0
POLYLINE
  8
LAYER_1
 40
0.1058
 41
0.1058
 66
1
 10
0
 20
0
 30
0
  0
VERTEX
  8
LAYER_1
 10
78.5929
 20
-175.4939
  0
VERTEX
  8
LAYER_1
 10
78.5929
 20
-177.8939
  0
VERTEX
  8
LAYER_1
 10
78.5929
 20
-180.2939
  0
SEQEND
  0
POLYLINE
  8
LAYER_1
 40
0.1058
 41
0.1058
 66
1
 10
0
 20
0
 30
0
  0
VERTEX
  8
LAYER_1
 10
73.7929
 20
-175.4939
  0
VERTEX
  8
LAYER_1
 10
73.7929
 20
-177.8939
  0
VERTEX
  8
LAYER_1
 10
73.7929
 20
-180.2939
  0
SEQEND
  0
POLYLINE
  8
LAYER_1
 40
0.1058
 41
0.1058
 66
1
 10
0
 20
0
 30
0
  0
VERTEX
  8
LAYER_1
 10
73.9929
 20
-175.3139
  0
VERTEX
  8
LAYER_1
 10
73.9929
 20
-175.3939
  0
SEQEND
  0
POLYLINE
  8
LAYER_1
 40
0.1058
 41
0.1058
 66
1
 10
0
 20
0
 30
0
  0
VERTEX
  8
LAYER_1
 10
78.3929
 20
-175.3139
  0
VERTEX
  8
LAYER_1
 10
78.3929
 20
-175.3939
  0
SEQEND
  0
POLYLINE
  8
LAYER_1
 40
0.1058
 41
0.1058
 66
1
 10
0
 20
0
 30
0
 70
1
  0
VERTEX
  8
LAYER_1
 10
76.1929
 20
-175.3939
  0
VERTEX
  8
LAYER_1
 10
78.4929
 20
-175.3939
  0
VERTEX
  8
LAYER_1
 10
78.5929
 20
-175.4939
  0
VERTEX
  8
LAYER_1
 10
73.7929
 20
-175.4939
  0
VERTEX
  8
LAYER_1
 10
73.8929
 20
-175.3939
  0
SEQEND
  0
POLYLINE
  8
LAYER_1
 40
0.1058
 41
0.1058
 66
1
 10
0
 20
0
 30
0
 70
1
  0
VERTEX
  8
LAYER_1
 10
73.6929
 20
-183.5939
  0
VERTEX
  8
LAYER_1
 10
73.6929
 20
-185.8403
 42
0.1319385133
  0
VERTEX
  8
LAYER_1
 10
73.8929
 20
-185.8939
  0
VERTEX
  8
LAYER_1
 10
78.4929
 20
-185.8939
 42
0.1319393522
  0
VERTEX
  8
LAYER_1
 10
78.6929
 20
-185.8403
  0
VERTEX
  8
LAYER_1
 10
78.6929
 20
-183.5939
 42
0.03233777581
  0
VERTEX
  8
LAYER_1
 10
78.5446
 20
-183.2939
  0
VERTEX
  8
LAYER_1
 10
73.8413
 20
-183.2939
 42
0.03245605506
  0
SEQEND
  0
POLYLINE
  8
LAYER_1
 40
0.1058
 41
0.1058
 66
1
 10
0
 20
0
 30
0
  0
VERTEX
  8
LAYER_1
 10
75.8261
 20
-184.5939
 42
0.2116267095
  0
VERTEX
  8
LAYER_1
 10
75.4713
 20
-183.7926
 42
0.1742697182
  0
VERTEX
  8
LAYER_1
 10
74.9429
 20
-183.5939
 42
0.2488649811
  0
VERTEX
  8
LAYER_1
 10
74.2481
 20
-183.9765
 42
0.1534873133
  0
VERTEX
  8
LAYER_1
 10
74.0597
 20
-184.5939
  0
SEQEND
  0
POLYLINE
  8
LAYER_1
 40
0.1058
 41
0.1058
 66
1
 10
0
 20
0
 30
0
  0
VERTEX
  8
LAYER_1
 10
74.0597
 20
-185.4939
 42
0.1854348206
  0
VERTEX
  8
LAYER_1
 10
74.1133
 20
-185.613
 42
0.09473047234
  0
VERTEX
  8
LAYER_1
 10
74.2682
 20
-185.7174
 42
0.06090288056
  0
VERTEX
  8
LAYER_1
 10
74.56
 20
-185.8061
 42
0.04627727909
  0
VERTEX
  8
LAYER_1
 10
74.9429
 20
-185.8403
 42
0.1156873882
  0
VERTEX
  8
LAYER_1
 10
75.6812
 20
-185.6841
 42
0.2343357875
  0
VERTEX
  8
LAYER_1
 10
75.8261
 20
-185.4939
  0
SEQEND
  0
POLYLINE
  8
LAYER_1
 40
0.1058
 41
0.1058
 66
1
 10
0
 20
0
 30
0
  0
VERTEX
  8
LAYER_1
 10
74.0597
 20
-184.5939
  0
VERTEX
  8
LAYER_1
 10
74.0597
 20
-185.4939
  0
SEQEND
  0
POLYLINE
  8
LAYER_1
 40
0.1058
 41
0.1058
 66
1
 10
0
 20
0
 30
0
  0
VERTEX
  8
LAYER_1
 10
75.8261
 20
-184.5939
  0
VERTEX
  8
LAYER_1
 10
75.8261
 20
-185.4939
  0
SEQEND
  0
POLYLINE
  8
LAYER_1
 40
0.1058
 41
0.1058
 66
1
 10
0
 20
0
 30
0
  0
VERTEX
  8
LAYER_1
 10
78.3261
 20
-184.5939
 42
0.2116267095
  0
VERTEX
  8
LAYER_1
 10
77.9713
 20
-183.7926
 42
0.1742697182
  0
VERTEX
  8
LAYER_1
 10
77.4429
 20
-183.5939
 42
0.2488649811
  0
VERTEX
  8
LAYER_1
 10
76.7481
 20
-183.9765
 42
0.1534873133
  0
VERTEX
  8
LAYER_1
 10
76.5597
 20
-184.5939
  0
SEQEND
  0
POLYLINE
  8
LAYER_1
 40
0.1058
 41
0.1058
 66
1
 10
0
 20
0
 30
0
  0
VERTEX
  8
LAYER_1
 10
78.3261
 20
-185.4939
 42
0.1854161931
  0
VERTEX
  8
LAYER_1
 10
78.2725
 20
-185.3748
 42
0.09474489293
  0
VERTEX
  8
LAYER_1
 10
78.1176
 20
-185.2704
 42
0.06091385827
  0
VERTEX
  8
LAYER_1
 10
77.8258
 20
-185.1817
 42
0.04627616173
  0
VERTEX
  8
LAYER_1
 10
77.4429
 20
-185.1475
 42
0.1156785726
  0
VERTEX
  8
LAYER_1
 10
76.7047
 20
-185.3037
 42
0.2343318567
  0
VERTEX
  8
LAYER_1
 10
76.5597
 20
-185.4939
  0
SEQEND
  0
POLYLINE
  8
LAYER_1
 40
0.1058
 41
0.1058
 66
1
 10
0
 20
0
 30
0
  0
VERTEX
  8
LAYER_1
 10
78.3261
 20
-184.5939
  0
VERTEX
  8
LAYER_1
 10
78.3261
 20
-185.4939
  0
SEQEND
  0
POLYLINE
  8
LAYER_1
 40
0.1058
 41
0.1058
 66
1
 10
0
 20
0
 30
0
  0
VERTEX
  8
LAYER_1
 10
76.5597
 20
-184.5939
  0
VERTEX
  8
LAYER_1
 10
76.5597
 20
-185.4939
  0
SEQEND
  0
POLYLINE
  8
LAYER_1
 40
0.1058
 41
0.1058
 66
1
 10
0
 20
0
 30
0
  0
VERTEX
  8
LAYER_1
 10
77.8129
 20
-183.2939
  0
VERTEX
  8
LAYER_1
 10
77.8129
 20
-183.0939
  0
VERTEX
  8
LAYER_1
 10
74.5729
 20
-183.0939
  0
VERTEX
  8
LAYER_1
 10
74.5729
 20
-183.2939
  0
SEQEND
  0
CIRCLE
  8
LAYER_1
 10
76.1929
 20
-180.2939
 40
2.09
  0
POLYLINE
  8
LAYER_1
 40
0.1058
 41
0.1058
 66
1
 10
0
 20
0
 30
0
  0
VERTEX
  8
LAYER_1
 10
74.1107
 20
-180.1139
  0
VERTEX
  8
LAYER_1
 10
78.2752
 20
-180.1139
  0
SEQEND
  0
POLYLINE
  8
LAYER_1
 40
0.1058
 41
0.1058
 66
1
 10
0
 20
0
 30
0
  0
VERTEX
  8
LAYER_1
 10
74.1107
 20
-180.4739
  0
VERTEX
  8
LAYER_1
 10
78.2752
 20
-180.4739
  0
SEQEND
  0
POLYLINE
  8
LAYER_1
 40
0.1058
 41
0.1058
 66
1
 10
0
 20
0
 30
0
  0
VERTEX
  8
LAYER_1
 10
76.1929
 20
-172.0939
  0
VERTEX
  8
LAYER_1
 10
78.9329
 20
-172.0939
 42
-0.414240443
  0
VERTEX
  8
LAYER_1
 10
79.1329
 20
-172.2939
  0
VERTEX
  8
LAYER_1
 10
79.1329
 20
-175.2539
 42
-0.392852767
  0
VERTEX
  8
LAYER_1
 10
79.0729
 20
-175.3139
  0
VERTEX
  8
LAYER_1
 10
71.9929
 20
-175.3139
 42
-0.3923136174
  0
VERTEX
  8
LAYER_1
 10
71.9329
 20
-175.2539
  0
VERTEX
  8
LAYER_1
 10
71.9329
 20
-172.2939
 42
-0.4141646013
  0
VERTEX
  8
LAYER_1
 10
72.1329
 20
-172.0939
  0
VERTEX
  8
LAYER_1
 10
76.0329
 20
-172.0939
  0
SEQEND
  0
POLYLINE
  8
LAYER_1
 40
0.1058
 41
0.1058
 66
1
 10
0
 20
0
 30
0
  0
VERTEX
  8
LAYER_1
 10
75.4809
 20
-172.0939
  0
VERTEX
  8
LAYER_1
 10
75.4809
 20
-175.3139
  0
SEQEND
  0
POLYLINE
  8
LAYER_1
 40
0.1058
 41
0.1058
 66
1
 10
0
 20
0
 30
0
  0
VERTEX
  8
LAYER_1
 10
76.9992
 20
-172.5939
  0
VERTEX
  8
LAYER_1
 10
76.9992
 20
-175.3139
  0
SEQEND
  0
POLYLINE
  8
LAYER_1
 40
0.1058
 41
0.1058
 66
1
 10
0
 20
0
 30
0
  0
VERTEX
  8
LAYER_1
 10
77.3329
 20
-172.0939
  0
VERTEX
  8
LAYER_1
 10
77.3329
 20
-175.3139
  0
SEQEND
  0
POLYLINE
  8
LAYER_1
 40
0.1058
 41
0.1058
 66
1
 10
0
 20
0
 30
0
  0
VERTEX
  8
LAYER_1
 10
77.3329
 20
-172.3939
  0
VERTEX
  8
LAYER_1
 10
76.1929
 20
-172.3939
  0
VERTEX
  8
LAYER_1
 10
76.1929
 20
-171.3939
  0
VERTEX
  8
LAYER_1
 10
78.5829
 20
-171.3939
  0
VERTEX
  8
LAYER_1
 10
78.5829
 20
-172.0939
  0
SEQEND
  0
POLYLINE
  8
LAYER_1
 40
0.1058
 41
0.1058
 66
1
 10
0
 20
0
 30
0
  0
VERTEX
  8
LAYER_1
 10
77.3329
 20
-172.5939
  0
VERTEX
  8
LAYER_1
 10
76.0329
 20
-172.5939
  0
VERTEX
  8
LAYER_1
 10
76.0329
 20
-171.3939
  0
VERTEX
  8
LAYER_1
 10
73.4829
 20
-171.3939
  0
VERTEX
  8
LAYER_1
 10
73.4829
 20
-172.0939
  0
SEQEND
  0
POLYLINE
  8
LAYER_1
 40
0.1058
 41
0.1058
 66
1
 10
0
 20
0
 30
0
  0
VERTEX
  8
LAYER_1
 10
73.2671
 20
-175.3139
  0
VERTEX
  8
LAYER_1
 10
73.2671
 20
-172.0939
  0
SEQEND
  0
POLYLINE
  8
LAYER_1
 40
0.1058
 41
0.1058
 66
1
 10
0
 20
0
 30
0
 70
1
  0
VERTEX
  8
LAYER_1
 10
74.2989
 20
-151.9139
  0
VERTEX
  8
LAYER_1
 10
74.2989
 20
-154.7539
 42
0.3928527672
  0
VERTEX
  8
LAYER_1
 10
74.3589
 20
-154.8139
  0
VERTEX
  8
LAYER_1
 10
80.027
 20
-154.8139
 42
0.3923136174
  0
VERTEX
  8
LAYER_1
 10
80.087
 20
-154.7539
  0
VERTEX
  8
LAYER_1
 10
80.087
 20
-151.9139
 42
0.4141214251
  0
VERTEX
  8
LAYER_1
 10
79.987
 20
-151.8139
  0
VERTEX
  8
LAYER_1
 10
74.3989
 20
-151.8139
 42
0.4142625987
  0
SEQEND
  0
POLYLINE
  8
LAYER_1
 40
0.1058
 41
0.1058
 66
1
 10
0
 20
0
 30
0
  0
VERTEX
  8
LAYER_1
 10
77.1929
 20
-151.9139
  0
VERTEX
  8
LAYER_1
 10
77.1929
 20
-154.7539
  0
SEQEND
  0
POLYLINE
  8
LAYER_1
 40
0.1058
 41
0.1058
 66
1
 10
0
 20
0
 30
0
  0
VERTEX
  8
LAYER_1
 10
75.3929
 20
-155.4339
  0
VERTEX
  8
LAYER_1
 10
75.3929
 20
-154.8939
  0
SEQEND
  0
POLYLINE
  8
LAYER_1
 40
0.1058
 41
0.1058
 66
1
 10
0
 20
0
 30
0
  0
VERTEX
  8
LAYER_1
 10
78.9929
 20
-154.8939
  0
VERTEX
  8
LAYER_1
 10
78.9129
 20
-154.8139
  0
SEQEND
  0
POLYLINE
  8
LAYER_1
 40
0.1058
 41
0.1058
 66
1
 10
0
 20
0
 30
0
 70
1
  0
VERTEX
  8
LAYER_1
 10
74.7929
 20
-158.6339
  0
VERTEX
  8
LAYER_1
 10
79.5929
 20
-158.6339
  0
VERTEX
  8
LAYER_1
 10
79.5929
 20
-155.4339
  0
VERTEX
  8
LAYER_1
 10
74.7929
 20
-155.4339
  0
SEQEND
  0
POLYLINE
  8
LAYER_1
 40
0.1058
 41
0.1058
 66
1
 10
0
 20
0
 30
0
  0
VERTEX
  8
LAYER_1
 10
78.9929
 20
-155.4339
  0
VERTEX
  8
LAYER_1
 10
78.9929
 20
-154.8939
  0
VERTEX
  8
LAYER_1
 10
75.3929
 20
-154.8939
  0
VERTEX
  8
LAYER_1
 10
75.4729
 20
-154.8139
  0
SEQEND
  0
POLYLINE
  8
LAYER_1
 40
0.1058
 41
0.1058
 66
1
 10
0
 20
0
 30
0
  0
VERTEX
  8
LAYER_1
 10
74.9217
 20
-156.3339
  0
VERTEX
  8
LAYER_1
 10
74.9217
 20
-158.4607
  0
SEQEND
  0
POLYLINE
  8
LAYER_1
 40
0.1058
 41
0.1058
 66
1
 10
0
 20
0
 30
0
  0
VERTEX
  8
LAYER_1
 10
79.4641
 20
-156.3339
  0
VERTEX
  8
LAYER_1
 10
79.4641
 20
-158.4607
  0
SEQEND
  0
POLYLINE
  8
LAYER_1
 40
0.1058
 41
0.1058
 66
1
 10
0
 20
0
 30
0
  0
VERTEX
  8
LAYER_1
 10
77.3217
 20
-155.6071
  0
VERTEX
  8
LAYER_1
 10
77.3217
 20
-156.1339
  0
SEQEND
  0
POLYLINE
  8
LAYER_1
 40
0.1058
 41
0.1058
 66
1
 10
0
 20
0
 30
0
  0
VERTEX
  8
LAYER_1
 10
77.3217
 20
-156.3339
  0
VERTEX
  8
LAYER_1
 10
77.3217
 20
-158.4607
  0
SEQEND
  0
POLYLINE
  8
LAYER_1
 40
0.1058
 41
0.1058
 66
1
 10
0
 20
0
 30
0
  0
VERTEX
  8
LAYER_1
 10
77.0641
 20
-155.6071
 42
0.0803224058
  0
VERTEX
  8
LAYER_1
 10
75.9929
 20
-155.4339
 42
0.08032221056
  0
VERTEX
  8
LAYER_1
 10
74.9217
 20
-155.6071
  0
SEQEND
  0
POLYLINE
  8
LAYER_1
 40
0.1058
 41
0.1058
 66
1
 10
0
 20
0
 30
0
  0
VERTEX
  8
LAYER_1
 10
74.7929
 20
-155.6071
  0
VERTEX
  8
LAYER_1
 10
74.9217
 20
-155.6071
  0
VERTEX
  8
LAYER_1
 10
74.9217
 20
-156.1339
  0
SEQEND
  0
POLYLINE
  8
LAYER_1
 40
0.1058
 41
0.1058
 66
1
 10
0
 20
0
 30
0
  0
VERTEX
  8
LAYER_1
 10
79.4641
 20
-155.6071
 42
0.0803224058
  0
VERTEX
  8
LAYER_1
 10
78.3929
 20
-155.4339
 42
0.08032221056
  0
VERTEX
  8
LAYER_1
 10
77.3217
 20
-155.6071
  0
VERTEX
  8
LAYER_1
 10
77.0641
 20
-155.6071
  0
VERTEX
  8
LAYER_1
 10
77.0641
 20
-156.1339
  0
SEQEND
  0
POLYLINE
  8
LAYER_1
 40
0.1058
 41
0.1058
 66
1
 10
0
 20
0
 30
0
  0
VERTEX
  8
LAYER_1
 10
79.5929
 20
-155.6071
  0
VERTEX
  8
LAYER_1
 10
79.4641
 20
-155.6071
  0
VERTEX
  8
LAYER_1
 10
79.4641
 20
-156.1339
  0
SEQEND
  0
POLYLINE
  8
LAYER_1
 40
0.1058
 41
0.1058
 66
1
 10
0
 20
0
 30
0
  0
VERTEX
  8
LAYER_1
 10
77.0641
 20
-158.4607
 42
-0.08032275774
  0
VERTEX
  8
LAYER_1
 10
75.9929
 20
-158.6339
 42
-0.08032256208
  0
VERTEX
  8
LAYER_1
 10
74.9217
 20
-158.4607
  0
VERTEX
  8
LAYER_1
 10
74.7929
 20
-158.4607
  0
SEQEND
  0
POLYLINE
  8
LAYER_1
 40
0.1058
 41
0.1058
 66
1
 10
0
 20
0
 30
0
  0
VERTEX
  8
LAYER_1
 10
77.0641
 20
-156.3339
  0
VERTEX
  8
LAYER_1
 10
77.0641
 20
-158.4607
  0
VERTEX
  8
LAYER_1
 10
77.3217
 20
-158.4607
 42
0.08032256208
  0
VERTEX
  8
LAYER_1
 10
78.3929
 20
-158.6339
 42
0.08032275774
  0
VERTEX
  8
LAYER_1
 10
79.4641
 20
-158.4607
  0
VERTEX
  8
LAYER_1
 10
79.5929
 20
-158.4607
  0
SEQEND
  0
POLYLINE
  8
LAYER_1
 40
0.1058
 41
0.1058
 66
1
 10
0
 20
0
 30
0
  0
VERTEX
  8
LAYER_1
 10
77.5269
 20
-156.2339
  0
VERTEX
  8
LAYER_1
 10
77.3217
 20
-156.1339
  0
VERTEX
  8
LAYER_1
 10
77.0641
 20
-156.1339
  0
VERTEX
  8
LAYER_1
 10
76.859
 20
-156.2339
  0
SEQEND
  0
POLYLINE
  8
LAYER_1
 40
0.1058
 41
0.1058
 66
1
 10
0
 20
0
 30
0
 70
1
  0
VERTEX
  8
LAYER_1
 10
77.0641
 20
-156.3339
  0
VERTEX
  8
LAYER_1
 10
77.3217
 20
-156.3339
  0
VERTEX
  8
LAYER_1
 10
77.5269
 20
-156.2339
  0
VERTEX
  8
LAYER_1
 10
76.859
 20
-156.2339
  0
SEQEND
  0
POLYLINE
  8
LAYER_1
 40
0.1058
 41
0.1058
 66
1
 10
0
 20
0
 30
0
  0
VERTEX
  8
LAYER_1
 10
74.7929
 20
-156.2339
  0
VERTEX
  8
LAYER_1
 10
75.1269
 20
-156.2339
  0
SEQEND
  0
POLYLINE
  8
LAYER_1
 40
0.1058
 41
0.1058
 66
1
 10
0
 20
0
 30
0
  0
VERTEX
  8
LAYER_1
 10
74.7929
 20
-156.3339
  0
VERTEX
  8
LAYER_1
 10
74.9217
 20
-156.3339
  0
VERTEX
  8
LAYER_1
 10
75.1269
 20
-156.2339
  0
VERTEX
  8
LAYER_1
 10
74.9217
 20
-156.1339
  0
VERTEX
  8
LAYER_1
 10
74.7929
 20
-156.1339
  0
SEQEND
  0
POLYLINE
  8
LAYER_1
 40
0.1058
 41
0.1058
 66
1
 10
0
 20
0
 30
0
  0
VERTEX
  8
LAYER_1
 10
79.5929
 20
-156.2339
  0
VERTEX
  8
LAYER_1
 10
79.259
 20
-156.2339
  0
SEQEND
  0
POLYLINE
  8
LAYER_1
 40
0.1058
 41
0.1058
 66
1
 10
0
 20
0
 30
0
  0
VERTEX
  8
LAYER_1
 10
79.5929
 20
-156.3339
  0
VERTEX
  8
LAYER_1
 10
79.4641
 20
-156.3339
  0
VERTEX
  8
LAYER_1
 10
79.259
 20
-156.2339
  0
VERTEX
  8
LAYER_1
 10
79.4641
 20
-156.1339
  0
VERTEX
  8
LAYER_1
 10
79.5929
 20
-156.1339
  0
SEQEND
  0
POLYLINE
  8
LAYER_1
 40
0.1058
 41
0.1058
 66
1
 10
0
 20
0
 30
0
  0
VERTEX
  8
LAYER_1
 10
79.0929
 20
-160.0339
  0
VERTEX
  8
LAYER_1
 10
79.1929
 20
-160.1339
  0
SEQEND
  0
POLYLINE
  8
LAYER_1
 40
0.1058
 41
0.1058
 66
1
 10
0
 20
0
 30
0
  0
VERTEX
  8
LAYER_1
 10
78.1929
 20
-166.8339
 42
0.4142275528
  0
VERTEX
  8
LAYER_1
 10
78.8929
 20
-166.1339
  0
VERTEX
  8
LAYER_1
 10
78.8929
 20
-163.4212
  0
SEQEND
  0
POLYLINE
  8
LAYER_1
 40
0.1058
 41
0.1058
 66
1
 10
0
 20
0
 30
0
  0
VERTEX
  8
LAYER_1
 10
74.0929
 20
-169.8339
 42
-0.4142673184
  0
VERTEX
  8
LAYER_1
 10
74.1929
 20
-169.9339
  0
VERTEX
  8
LAYER_1
 10
74.1929
 20
-171.3339
  0
SEQEND
  0
POLYLINE
  8
LAYER_1
 40
0.1058
 41
0.1058
 66
1
 10
0
 20
0
 30
0
  0
VERTEX
  8
LAYER_1
 10
77.1929
 20
-161.8339
  0
VERTEX
  8
LAYER_1
 10
72.8929
 20
-161.8339
 42
0.4141156473
  0
VERTEX
  8
LAYER_1
 10
72.7929
 20
-161.9339
  0
SEQEND
  0
POLYLINE
  8
LAYER_1
 40
0.1058
 41
0.1058
 66
1
 10
0
 20
0
 30
0
  0
VERTEX
  8
LAYER_1
 10
72.7929
 20
-161.8315
  0
VERTEX
  8
LAYER_1
 10
72.7929
 20
-162.0839
  0
SEQEND
  0
POLYLINE
  8
LAYER_1
 40
0.1058
 41
0.1058
 66
1
 10
0
 20
0
 30
0
  0
VERTEX
  8
LAYER_1
 10
72.7929
 20
-169.8315
  0
VERTEX
  8
LAYER_1
 10
72.7929
 20
-169.5839
  0
VERTEX
  8
LAYER_1
 10
72.7929
 20
-170.034
  0
SEQEND
  0
POLYLINE
  8
LAYER_1
 40
0.1058
 41
0.1058
 66
1
 10
0
 20
0
 30
0
  0
VERTEX
  8
LAYER_1
 10
72.7929
 20
-169.7339
 42
0.4141597857
  0
VERTEX
  8
LAYER_1
 10
72.8929
 20
-169.8339
  0
VERTEX
  8
LAYER_1
 10
76.1929
 20
-169.8339
  0
SEQEND
  0
POLYLINE
  8
LAYER_1
  6
AIGENLINE001
 40
0.1058
 41
0.1058
 66
1
 10
0
 20
0
 30
0
 70
128
  0
VERTEX
  8
LAYER_1
 10
53.0617
 20
-165.8339
  0
VERTEX
  8
LAYER_1
 10
77.5396
 20
-165.8339
  0
SEQEND
  0
POLYLINE
  8
LAYER_1
 40
0.1058
 41
0.1058
 66
1
 10
0
 20
0
 30
0
  0
VERTEX
  8
LAYER_1
 10
52.911
 20
-170.2335
  0
VERTEX
  8
LAYER_1
 10
52.8929
 20
-170.4335
  0
VERTEX
  8
LAYER_1
 10
52.911
 20
-170.6335
  0
SEQEND
  0
POLYLINE
  8
LAYER_1
 40
0.1058
 41
0.1058
 66
1
 10
0
 20
0
 30
0
  0
VERTEX
  8
LAYER_1
 10
67.9748
 20
-170.6335
  0
VERTEX
  8
LAYER_1
 10
67.9929
 20
-170.4335
  0
VERTEX
  8
LAYER_1
 10
67.9748
 20
-170.2335
  0
SEQEND
  0
POLYLINE
  8
LAYER_1
 40
0.1058
 41
0.1058
 66
1
 10
0
 20
0
 30
0
  0
VERTEX
  8
LAYER_1
 10
61.0226
 20
-160.6335
 42
0.1152611289
  0
VERTEX
  8
LAYER_1
 10
57.975
 20
-161.3487
 42
0.05257746778
  0
VERTEX
  8
LAYER_1
 10
56.645
 20
-162.1877
 42
0.04901789763
  0
VERTEX
  8
LAYER_1
 10
55.4862
 20
-163.299
 42
0.04626968223
  0
VERTEX
  8
LAYER_1
 10
54.5301
 20
-164.6459
 42
0.0445815655
  0
VERTEX
  8
LAYER_1
 10
53.8082
 20
-166.1917
 42
0.0438418048
  0
VERTEX
  8
LAYER_1
 10
53.352
 20
-167.9
 42
0.04372542499
  0
VERTEX
  8
LAYER_1
 10
53.1929
 20
-169.7341
  0
VERTEX
  8
LAYER_1
 10
53.193
 20
-169.7735
  0
SEQEND
  0
POLYLINE
  8
LAYER_1
 40
0.1058
 41
0.1058
 66
1
 10
0
 20
0
 30
0
 70
1
  0
VERTEX
  8
LAYER_1
 10
53.1929
 20
-169.7738
  0
VERTEX
  8
LAYER_1
 10
67.6929
 20
-169.7738
 42
-0.4142324599
  0
VERTEX
  8
LAYER_1
 10
67.9929
 20
-170.0738
  0
VERTEX
  8
LAYER_1
 10
67.9929
 20
-170.2338
  0
VERTEX
  8
LAYER_1
 10
52.8929
 20
-170.2335
  0
VERTEX
  8
LAYER_1
 10
52.8929
 20
-170.0738
 42
-0.4141858019
  0
SEQEND
  0
POLYLINE
  8
LAYER_1
 40
0.1058
 41
0.1058
 66
1
 10
0
 20
0
 30
0
  0
VERTEX
  8
LAYER_1
 10
67.6733
 20
-162.1801
  0
VERTEX
  8
LAYER_1
 10
67.6733
 20
-169.3214
  0
SEQEND
  0
POLYLINE
  8
LAYER_1
 40
0.1058
 41
0.1058
 66
1
 10
0
 20
0
 30
0
  0
VERTEX
  8
LAYER_1
 10
67.9929
 20
-170.0339
  0
VERTEX
  8
LAYER_1
 10
68.0929
 20
-170.0339
  0
VERTEX
  8
LAYER_1
 10
68.0929
 20
-170.4339
 42
0.4141597857
  0
VERTEX
  8
LAYER_1
 10
68.1929
 20
-170.5339
 42
0.4143115071
  0
VERTEX
  8
LAYER_1
 10
68.2929
 20
-170.4339
  0
VERTEX
  8
LAYER_1
 10
68.2929
 20
-170.2339
  0
VERTEX
  8
LAYER_1
 10
72.5929
 20
-170.2339
 42
0.4142625311
  0
VERTEX
  8
LAYER_1
 10
72.7929
 20
-170.0339
  0
VERTEX
  8
LAYER_1
 10
72.7929
 20
-169.7339
  0
VERTEX
  8
LAYER_1
 10
72.7929
 20
-165.8339
  0
VERTEX
  8
LAYER_1
 10
72.7929
 20
-161.6338
  0
VERTEX
  8
LAYER_1
 10
68.4024
 20
-161.6339
 42
-0.2680248303
  0
VERTEX
  8
LAYER_1
 10
67.5362
 20
-161.1337
 42
0.2680019641
  0
VERTEX
  8
LAYER_1
 10
66.6701
 20
-160.6335
  0
VERTEX
  8
LAYER_1
 10
61.0954
 20
-160.6335
  0
VERTEX
  8
LAYER_1
 10
61.0226
 20
-160.6335
  0
SEQEND
  0
POLYLINE
  8
LAYER_1
 40
0.1058
 41
0.1058
 66
1
 10
0
 20
0
 30
0
  0
VERTEX
  8
LAYER_1
 10
61.0749
 20
-176.6332
  0
VERTEX
  8
LAYER_1
 10
61.092
 20
-176.5334
  0
VERTEX
  8
LAYER_1
 10
61.0749
 20
-176.4335
  0
SEQEND
  0
POLYLINE
  8
LAYER_1
 40
0.1058
 41
0.1058
 66
1
 10
0
 20
0
 30
0
  0
VERTEX
  8
LAYER_1
 10
53.311
 20
-176.4335
  0
VERTEX
  8
LAYER_1
 10
53.2939
 20
-176.5334
  0
VERTEX
  8
LAYER_1
 10
53.311
 20
-176.6332
  0
SEQEND
  0
POLYLINE
  8
LAYER_1
 40
0.1058
 41
0.1058
 66
1
 10
0
 20
0
 30
0
  0
VERTEX
  8
LAYER_1
 10
53.5933
 20
-177.0329
  0
VERTEX
  8
LAYER_1
 10
60.7926
 20
-177.0329
  0
SEQEND
  0
POLYLINE
  8
LAYER_1
 40
0.1058
 41
0.1058
 66
1
 10
0
 20
0
 30
0
 70
1
  0
VERTEX
  8
LAYER_1
 10
60.7912
 20
-177.0329
 42
0.4125414587
  0
VERTEX
  8
LAYER_1
 10
60.4929
 20
-177.3329
  0
VERTEX
  8
LAYER_1
 10
60.4929
 20
-180.8335
 42
-0.4142307632
  0
VERTEX
  8
LAYER_1
 10
59.8929
 20
-181.4335
  0
VERTEX
  8
LAYER_1
 10
54.4929
 20
-181.4335
 42
-0.41420548
  0
VERTEX
  8
LAYER_1
 10
53.8929
 20
-180.8335
  0
VERTEX
  8
LAYER_1
 10
53.8929
 20
-177.3329
 42
0.4125919676
  0
VERTEX
  8
LAYER_1
 10
53.5946
 20
-177.0329
  0
VERTEX
  8
LAYER_1
 10
53.5931
 20
-177.0329
 42
-0.4142477865
  0
VERTEX
  8
LAYER_1
 10
53.2929
 20
-176.7329
  0
VERTEX
  8
LAYER_1
 10
53.2929
 20
-176.6335
  0
VERTEX
  8
LAYER_1
 10
61.0929
 20
-176.6335
  0
VERTEX
  8
LAYER_1
 10
61.0929
 20
-176.7329
 42
-0.4142268729
  0
VERTEX
  8
LAYER_1
 10
60.7929
 20
-177.0329
  0
SEQEND
  0
POLYLINE
  8
LAYER_1
 40
0.1058
 41
0.1058
 66
1
 10
0
 20
0
 30
0
  0
VERTEX
  8
LAYER_1
 10
53.1934
 20
-171.0935
  0
VERTEX
  8
LAYER_1
 10
53.1934
 20
-176.4335
  0
VERTEX
  8
LAYER_1
 10
63.3811
 20
-176.4335
 42
0.4142123425
  0
VERTEX
  8
LAYER_1
 10
64.3811
 20
-175.4335
  0
VERTEX
  8
LAYER_1
 10
64.3811
 20
-174.2935
 42
-0.4142139436
  0
VERTEX
  8
LAYER_1
 10
67.5811
 20
-171.0935
  0
SEQEND
  0
POLYLINE
  8
LAYER_1
 40
0.1058
 41
0.1058
 66
1
 10
0
 20
0
 30
0
 70
1
  0
VERTEX
  8
LAYER_1
 10
67.6929
 20
-171.0935
  0
VERTEX
  8
LAYER_1
 10
53.1929
 20
-171.0935
 42
-0.4141973965
  0
VERTEX
  8
LAYER_1
 10
52.8929
 20
-170.7935
  0
VERTEX
  8
LAYER_1
 10
52.8929
 20
-170.6335
  0
VERTEX
  8
LAYER_1
 10
67.9929
 20
-170.6335
  0
VERTEX
  8
LAYER_1
 10
67.9929
 20
-170.7935
 42
-0.414247965
  0
SEQEND
  0
POLYLINE
  8
LAYER_1
  6
AIGENLINE001
 40
0.1058
 41
0.1058
 66
1
 10
0
 20
0
 30
0
 70
128
  0
VERTEX
  8
LAYER_1
 10
57.1929
 20
-167.5339
  0
VERTEX
  8
LAYER_1
 10
57.1929
 20
-181.9216
  0
SEQEND
  0
POLYLINE
  8
LAYER_1
 40
0.1058
 41
0.1058
 66
1
 10
0
 20
0
 30
0
  0
VERTEX
  8
LAYER_1
 10
62.5129
 20
-186.4335
  0
VERTEX
  8
LAYER_1
 10
62.5129
 20
-176.4335
  0
SEQEND
  0
POLYLINE
  8
LAYER_1
 40
0.1058
 41
0.1058
 66
1
 10
0
 20
0
 30
0
  0
VERTEX
  8
LAYER_1
 10
61.4729
 20
-186.4335
  0
VERTEX
  8
LAYER_1
 10
61.4729
 20
-176.4335
  0
SEQEND
  0
POLYLINE
  8
LAYER_1
 40
0.1058
 41
0.1058
 66
1
 10
0
 20
0
 30
0
  0
VERTEX
  8
LAYER_1
 10
79.2884
 20
-159.8339
  0
VERTEX
  8
LAYER_1
 10
79.0884
 20
-160.0339
  0
SEQEND
  0
POLYLINE
  8
LAYER_1
 40
0.1058
 41
0.1058
 66
1
 10
0
 20
0
 30
0
  0
VERTEX
  8
LAYER_1
 10
78.7929
 20
-160.0339
  0
VERTEX
  8
LAYER_1
 10
79.0904
 20
-160.0339
  0
VERTEX
  8
LAYER_1
 10
77.1929
 20
-160.0339
  0
VERTEX
  8
LAYER_1
 10
75.2954
 20
-160.0339
  0
VERTEX
  8
LAYER_1
 10
75.5929
 20
-160.0339
  0
SEQEND
  0
POLYLINE
  8
LAYER_1
 40
0.1058
 41
0.1058
 66
1
 10
0
 20
0
 30
0
  0
VERTEX
  8
LAYER_1
 10
79.2884
 20
-159.4364
  0
VERTEX
  8
LAYER_1
 10
79.056
 20
-159.0339
  0
VERTEX
  8
LAYER_1
 10
79.056
 20
-158.6339
  0
SEQEND
  0
POLYLINE
  8
LAYER_1
 40
0.1058
 41
0.1058
 66
1
 10
0
 20
0
 30
0
  0
VERTEX
  8
LAYER_1
 10
75.0974
 20
-159.8339
  0
VERTEX
  8
LAYER_1
 10
75.2974
 20
-160.0339
  0
SEQEND
  0
POLYLINE
  8
LAYER_1
 40
0.1058
 41
0.1058
 66
1
 10
0
 20
0
 30
0
  0
VERTEX
  8
LAYER_1
 10
75.0974
 20
-159.4364
  0
VERTEX
  8
LAYER_1
 10
75.3298
 20
-159.0339
  0
VERTEX
  8
LAYER_1
 10
75.3298
 20
-158.6339
  0
SEQEND
  0
POLYLINE
  8
LAYER_1
 40
0.1058
 41
0.1058
 66
1
 10
0
 20
0
 30
0
  0
VERTEX
  8
LAYER_1
 10
75.0974
 20
-159.0339
  0
VERTEX
  8
LAYER_1
 10
77.1929
 20
-159.0339
  0
VERTEX
  8
LAYER_1
 10
79.2884
 20
-159.0339
  0
SEQEND
  0
POLYLINE
  8
LAYER_1
 40
0.1058
 41
0.1058
 66
1
 10
0
 20
0
 30
0
  0
VERTEX
  8
LAYER_1
 10
75.0929
 20
-169.8339
 42
0.4143115071
  0
VERTEX
  8
LAYER_1
 10
75.1929
 20
-169.7339
  0
VERTEX
  8
LAYER_1
 10
75.1929
 20
-161.9339
 42
0.4142673184
  0
VERTEX
  8
LAYER_1
 10
75.0929
 20
-161.8339
 42
0.4143115069
  0
VERTEX
  8
LAYER_1
 10
75.1929
 20
-161.7339
  0
VERTEX
  8
LAYER_1
 10
75.1929
 20
-160.1339
  0
SEQEND
  0
POLYLINE
  8
LAYER_1
 40
0.1058
 41
0.1058
 66
1
 10
0
 20
0
 30
0
  0
VERTEX
  8
LAYER_1
 10
75.1929
 20
-166.8339
  0
VERTEX
  8
LAYER_1
 10
78.1929
 20
-166.8339
  0
VERTEX
  8
LAYER_1
 10
78.1929
 20
-171.3339
  0
SEQEND
  0
POLYLINE
  8
LAYER_1
 40
0.1058
 41
0.1058
 66
1
 10
0
 20
0
 30
0
  0
VERTEX
  8
LAYER_1
 10
75.1929
 20
-163.4339
  0
VERTEX
  8
LAYER_1
 10
78.7929
 20
-163.4339
 42
0.4142380457
  0
VERTEX
  8
LAYER_1
 10
79.1929
 20
-163.0339
  0
VERTEX
  8
LAYER_1
 10
79.1929
 20
-160.1339
  0
VERTEX
  8
LAYER_1
 10
77.1929
 20
-160.1339
  0
VERTEX
  8
LAYER_1
 10
75.1929
 20
-160.1339
  0
VERTEX
  8
LAYER_1
 10
75.2929
 20
-160.0339
  0
SEQEND
  0
POLYLINE
  8
LAYER_1
 40
0.1058
 41
0.1058
 66
1
 10
0
 20
0
 30
0
 70
1
  0
VERTEX
  8
LAYER_1
 10
79.2884
 20
-159.8339
  0
VERTEX
  8
LAYER_1
 10
77.1929
 20
-159.8339
  0
VERTEX
  8
LAYER_1
 10
75.0974
 20
-159.8339
  0
VERTEX
  8
LAYER_1
 10
75.0974
 20
-158.6339
  0
VERTEX
  8
LAYER_1
 10
77.1929
 20
-158.6339
  0
VERTEX
  8
LAYER_1
 10
79.2884
 20
-158.6339
  0
SEQEND
  0
POLYLINE
  8
LAYER_1
  6
AIGENLINE001
 40
0.1058
 41
0.1058
 66
1
 10
0
 20
0
 30
0
 70
128
  0
VERTEX
  8
LAYER_1
 10
77.1929
 20
-59.0459
  0
VERTEX
  8
LAYER_1
 10
77.1929
 20
-166.4339
  0
SEQEND
  0
POLYLINE
  8
LAYER_1
 40
0.1058
 41
0.1058
 66
1
 10
0
 20
0
 30
0
  0
VERTEX
  8
LAYER_1
 10
61.4729
 20
-186.4335
 42
-0.3999752202
  0
VERTEX
  8
LAYER_1
 10
61.6809
 20
-186.4335
 42
0.190138802
  0
VERTEX
  8
LAYER_1
 10
61.7849
 20
-186.4751
 42
0.1901232497
  0
VERTEX
  8
LAYER_1
 10
61.8889
 20
-186.4335
 42
-0.190138802
  0
VERTEX
  8
LAYER_1
 10
61.9929
 20
-186.3919
 42
-0.1901232497
  0
VERTEX
  8
LAYER_1
 10
62.0969
 20
-186.4335
 42
0.190138802
  0
VERTEX
  8
LAYER_1
 10
62.2009
 20
-186.4751
 42
0.1901232497
  0
VERTEX
  8
LAYER_1
 10
62.3049
 20
-186.4335
 42
-0.190138802
  0
VERTEX
  8
LAYER_1
 10
62.4089
 20
-186.3919
 42
-0.1901232497
  0
VERTEX
  8
LAYER_1
 10
62.5129
 20
-186.4335
  0
SEQEND
  0
POLYLINE
  8
LAYER_1
  6
AIGENLINE001
 40
0.1058
 41
0.1058
 66
1
 10
0
 20
0
 30
0
 70
128
  0
VERTEX
  8
LAYER_1
 10
76.1929
 20
-166.8339
  0
VERTEX
  8
LAYER_1
 10
76.1929
 20
-186.4939
  0
SEQEND
  0
TEXT
  8
LAYER_1
 10
138.2685
 20
-92.6375
 11
138.2685
 21
-92.6375
 40
3.7084
 41
0.5
 50
347.8407756
 72
1
  1
25°
  0
TEXT
  8
LAYER_1
 10
186.7589
 20
-109.7797
 11
186.7589
 21
-109.7797
 40
3.7084
 41
0.5
 72
1
  1
取付穴径22025
  0
TEXT
  8
LAYER_1
 10
197.6733
 20
-196.0203
 11
197.6733
 21
-196.0203
 40
3.3885
 41
0.5
  1
　　　　　　　　　　　　　
  0
TEXT
  8
LAYER_1
 10
184.615
 20
-125.4398
 11
184.615
 21
-125.4398
 40
3.258
 41
0.5
  1
コード全長：360mm
  0
TEXT
  8
LAYER_1
 10
197.3737
 20
-194.4373
 11
197.3737
 21
-194.4373
 40
3.258
 41
0.5
  1
コード全長：500mm
  0
POLYLINE
  8
LAYER_1
 40
0.0882
 41
0.0882
 66
1
 10
0
 20
0
 30
0
  0
VERTEX
  8
LAYER_1
 10
219.3231
 20
-196.0036
  0
VERTEX
  8
LAYER_1
 10
196.7905
 20
-196.0036
  0
VERTEX
  8
LAYER_1
 10
191.2056
 20
-189.9708
  0
SEQEND
  0
POLYLINE
  8
LAYER_1
 40
0.0882
 41
0.0882
 66
1
 10
0
 20
0
 30
0
  0
VERTEX
  8
LAYER_1
 10
113.039
 20
-132.3917
  0
VERTEX
  8
LAYER_1
 10
82.4649
 20
-132.3917
  0
VERTEX
  8
LAYER_1
 10
78.202
 20
-130.7678
  0
SEQEND
  0
POLYLINE
  8
LAYER_1
 40
0.0882
 41
0.0882
 66
1
 10
0
 20
0
 30
0
  0
VERTEX
  8
LAYER_1
 10
206.1353
 20
-127.0193
  0
VERTEX
  8
LAYER_1
 10
183.6026
 20
-127.0193
  0
VERTEX
  8
LAYER_1
 10
177.9764
 20
-120.4736
  0
SEQEND
  0
TEXT
  8
LAYER_1
 10
83.1705
 20
-130.7454
 11
83.1705
 21
-130.7454
 40
3.258
 41
0.5
  1
給水ホース長さ：800mm
  0
INSERT
  8
LAYER_6
  2
AIGNBL06010002
 10
0
 20
0
 30
0
  0
POLYLINE
  8
LAYER_6
 40
0.3528
 41
0.3528
 66
1
 10
0
 20
0
 30
0
  0
VERTEX
  8
LAYER_6
 10
34.7876
 20
-258.3332
  0
VERTEX
  8
LAYER_6
 10
229.7955
 20
-258.3332
  0
VERTEX
  8
LAYER_6
 10
229.7955
 20
21.6583
  0
VERTEX
  8
LAYER_6
 10
34.7876
 20
21.6583
  0
VERTEX
  8
LAYER_6
 10
34.7876
 20
-258.3332
  0
SEQEND
  0
TEXT
  8
LAYER_6
 10
166.4505
 20
-248.7955
 11
166.4505
 21
-248.7955
 40
3.3853
 41
0.5
  1
●TEL 0120-65-1232●FAX 06-6532-1580
  0
TEXT
  8
LAYER_6
 10
166.4505
 20
-252.3102
 11
166.4505
 21
-252.3102
 40
3.3853
 41
0.5
  1
hits@hiratatile.co.jp
  0
TEXT
  8
LAYER_6
 10
218.9756
 20
18.4461
 11
218.9756
 21
18.4461
 40
2.0732
 41
0.5
  1
190703RT
  0
TEXT
  8
LAYER_6
 10
37.8495
 20
-250.3797
 11
37.8495
 21
-250.3797
 40
3.2995
 41
0.5
  1
仕様
  0
POLYLINE
  8
LAYER_6
 40
0.3528
 41
0.3528
 66
1
 10
0
 20
0
 30
0
  0
VERTEX
  8
LAYER_6
 10
229.7955
 20
-241.6001
  0
VERTEX
  8
LAYER_6
 10
34.7874
 20
-241.6001
  0
SEQEND
  0
POLYLINE
  8
LAYER_6
 40
0.3528
 41
0.3528
 66
1
 10
0
 20
0
 30
0
  0
VERTEX
  8
LAYER_6
 10
229.7955
 20
-233.091
  0
VERTEX
  8
LAYER_6
 10
34.7874
 20
-233.091
  0
SEQEND
  0
TEXT
  8
LAYER_6
 10
35.9444
 20
-235.5675
 11
35.9444
 21
-235.5675
 40
2.1997
 41
0.5
  1
品名
  0
TEXT
  8
LAYER_6
 10
48.7874
 20
-238.6599
 11
48.7874
 21
-238.6599
 40
3.6373
 41
0.5
  1
センサー式単水栓（電池式）
  0
TEXT
  8
LAYER_6
 10
48.4217
 20
-250.3883
 11
48.4217
 21
-250.3883
 40
3.1177
 41
0.5
  1
●排水金具別途
  0
TEXT
  8
LAYER_6
 10
137.3906
 20
-235.5677
 11
137.3906
 21
-235.5677
 40
2.1997
 41
0.5
  1
品番
  0
TEXT
  8
LAYER_6
 10
143.4126
 20
-240.0443
 11
143.4126
 21
-240.0443
 40
5.9385
 41
0.5
  1
AQ-E1700DL2(M4)(M5)(S)(BN)
  0
ENDSEC
  0
EOF
