  0
SECTION
  2
HEADER
  9
$ACADVER
  1
AC1009
  9
$LUNITS
 70
2
  9
$LUPREC
 70
4
  9
$LTSCALE
 40
1.0
  9
$EXTMIN
 10
33.7873
 20
-259.334
 30
0
  9
$EXTMAX
 10
237.1869
 20
22.6587
 30
0
  0
ENDSEC
  0
SECTION
  2
TABLES
  0
TABLE
  2
LTYPE
 70
256
  0
LTYPE
  2
AIGENLINE001
 70
64
  3
generate AI->DXF Converter
 72
65
 73
4
 40
440.9722
 49
275.6076
 49
-55.1215
 49
55.1215
 49
-55.1215
  0
ENDTAB
  0
TABLE
  2
LAYER
 70
6
  0
LAYER
  2
LAYER_1
 70
64
 62
7
  6
CONTINUOUS
  0
LAYER
  2
LAYER_2
 70
64
 62
7
  6
CONTINUOUS
  0
LAYER
  2
LAYER_3
 70
64
 62
7
  6
CONTINUOUS
  0
LAYER
  2
LAYER_4
 70
64
 62
7
  6
CONTINUOUS
  0
LAYER
  2
LAYER_5
 70
64
 62
7
  6
CONTINUOUS
  0
LAYER
  2
LAYER_6
 70
64
 62
7
  6
CONTINUOUS
  0
ENDTAB
  0
TABLE
  2
STYLE
 70
6
  0
STYLE
  2
STANDARD
 70
0
 40
0
 50
0
 71
0
 41
0
 42
0
  3
TXT
  4
BIGFONT
  0
ENDTAB
  0
ENDSEC
  0
SECTION
  2
BLOCKS
  0
BLOCK
  8
LAYER_1
  2
AIGNBL01040005
 70
64
 10
0
 20
0
 30
0
  3
AIGNBL01040005
  0
POLYLINE
  8
LAYER_1
 40
0.05
 41
0.05
 66
1
 10
0
 20
0
 30
0
 70
1
  0
VERTEX
  8
LAYER_1
 10
138.3767
 20
-249.1011
  0
VERTEX
  8
LAYER_1
 10
137.891
 20
-250.2793
  0
VERTEX
  8
LAYER_1
 10
137.2664
 20
-250.2793
  0
VERTEX
  8
LAYER_1
 10
138.857
 20
-246.5355
  0
VERTEX
  8
LAYER_1
 10
139.586
 20
-246.5355
  0
VERTEX
  8
LAYER_1
 10
141.1828
 20
-250.2793
  0
VERTEX
  8
LAYER_1
 10
140.5365
 20
-250.2793
  0
VERTEX
  8
LAYER_1
 10
140.0369
 20
-249.1011
  0
SEQEND
  0
POLYLINE
  8
LAYER_1
 40
0.05
 41
0.05
 66
1
 10
0
 20
0
 30
0
 70
1
  0
VERTEX
  8
LAYER_1
 10
139.9115
 20
-248.7245
  0
VERTEX
  8
LAYER_1
 10
139.4533
 20
-247.6459
 42
-0.02267506524
  0
VERTEX
  8
LAYER_1
 10
139.2101
 20
-246.963
  0
VERTEX
  8
LAYER_1
 10
139.1967
 20
-246.963
 42
-0.02084266043
  0
VERTEX
  8
LAYER_1
 10
138.9603
 20
-247.6414
  0
VERTEX
  8
LAYER_1
 10
138.5021
 20
-248.7245
  0
SEQEND
  0
ENDBLK
  0
BLOCK
  8
LAYER_1
  2
AIGNBL01040006
 70
64
 10
0
 20
0
 30
0
  3
AIGNBL01040006
  0
POLYLINE
  8
LAYER_1
 40
0.05
 41
0.05
 66
1
 10
0
 20
0
 30
0
 70
1
  0
VERTEX
  8
LAYER_1
 10
145.5226
 20
-250.8295
 42
-0.01550180985
  0
VERTEX
  8
LAYER_1
 10
143.7311
 20
-250.3954
 42
0.09208348225
  0
VERTEX
  8
LAYER_1
 10
143.4465
 20
-250.3406
 42
-0.09252107557
  0
VERTEX
  8
LAYER_1
 10
142.4981
 20
-250.139
 42
-0.09792797557
  0
VERTEX
  8
LAYER_1
 10
141.8642
 20
-249.7067
 42
-0.1631033753
  0
VERTEX
  8
LAYER_1
 10
141.401
 20
-248.7192
 42
-0.03157985926
  0
VERTEX
  8
LAYER_1
 10
141.3839
 20
-248.4469
 42
-0.1088259969
  0
VERTEX
  8
LAYER_1
 10
141.5673
 20
-247.5875
 42
-0.1618048679
  0
VERTEX
  8
LAYER_1
 10
142.3628
 20
-246.7577
 42
-0.09175073832
  0
VERTEX
  8
LAYER_1
 10
143.1629
 20
-246.5018
 42
-0.03454354202
  0
VERTEX
  8
LAYER_1
 10
143.5644
 20
-246.4745
 42
-0.09527006366
  0
VERTEX
  8
LAYER_1
 10
144.5227
 20
-246.6511
 42
-0.1001818692
  0
VERTEX
  8
LAYER_1
 10
145.1563
 20
-247.0713
 42
-0.1611434138
  0
VERTEX
  8
LAYER_1
 10
145.6402
 20
-248.0664
 42
-0.03591204318
  0
VERTEX
  8
LAYER_1
 10
145.6617
 20
-248.3686
 42
-0.1066586367
  0
VERTEX
  8
LAYER_1
 10
145.4864
 20
-249.2186
 42
-0.2185717489
  0
VERTEX
  8
LAYER_1
 10
144.3825
 20
-250.147
 42
-0.006705231958
  0
VERTEX
  8
LAYER_1
 10
144.3281
 20
-250.1628
  0
VERTEX
  8
LAYER_1
 10
144.3281
 20
-250.1852
 42
0.01501268135
  0
VERTEX
  8
LAYER_1
 10
145.6965
 20
-250.424
  0
SEQEND
  0
POLYLINE
  8
LAYER_1
 40
0.05
 41
0.05
 66
1
 10
0
 20
0
 30
0
 70
1
  0
VERTEX
  8
LAYER_1
 10
145.0233
 20
-248.39
 42
0.1175404168
  0
VERTEX
  8
LAYER_1
 10
144.842
 20
-247.6261
 42
0.1170585149
  0
VERTEX
  8
LAYER_1
 10
144.419
 20
-247.1311
 42
0.1200111465
  0
VERTEX
  8
LAYER_1
 10
143.8094
 20
-246.8884
 42
0.0377207096
  0
VERTEX
  8
LAYER_1
 10
143.5433
 20
-246.8687
 42
0.1152954241
  0
VERTEX
  8
LAYER_1
 10
142.8054
 20
-247.0324
 42
0.1853004926
  0
VERTEX
  8
LAYER_1
 10
142.1509
 20
-247.7624
 42
0.09848637078
  0
VERTEX
  8
LAYER_1
 10
142.0296
 20
-248.4344
 42
0.120860713
  0
VERTEX
  8
LAYER_1
 10
142.2045
 20
-249.1849
 42
0.2836170694
  0
VERTEX
  8
LAYER_1
 10
143.5161
 20
-249.9468
 42
0.1188766714
  0
VERTEX
  8
LAYER_1
 10
144.2605
 20
-249.7757
 42
0.1796046283
  0
VERTEX
  8
LAYER_1
 10
144.8972
 20
-249.063
 42
0.09851098502
  0
SEQEND
  0
ENDBLK
  0
BLOCK
  8
LAYER_1
  2
AIGNBL01040007
 70
64
 10
0
 20
0
 30
0
  3
AIGNBL01040007
  0
POLYLINE
  8
LAYER_1
 40
0.05
 41
0.05
 66
1
 10
0
 20
0
 30
0
 70
1
  0
VERTEX
  8
LAYER_1
 10
146.9815
 20
-246.5355
  0
VERTEX
  8
LAYER_1
 10
146.9815
 20
-248.7517
 42
0.1257910062
  0
VERTEX
  8
LAYER_1
 10
147.1475
 20
-249.4752
 42
0.2217269733
  0
VERTEX
  8
LAYER_1
 10
147.7914
 20
-249.9203
 42
0.04937688774
  0
VERTEX
  8
LAYER_1
 10
148.0716
 20
-249.9468
 42
0.1302851362
  0
VERTEX
  8
LAYER_1
 10
148.7372
 20
-249.787
 42
0.1509632316
  0
VERTEX
  8
LAYER_1
 10
149.0862
 20
-249.3957
 42
0.1174446198
  0
VERTEX
  8
LAYER_1
 10
149.2105
 20
-248.7517
  0
VERTEX
  8
LAYER_1
 10
149.2105
 20
-246.5355
  0
VERTEX
  8
LAYER_1
 10
149.8217
 20
-246.5355
  0
VERTEX
  8
LAYER_1
 10
149.8217
 20
-248.7187
 42
-0.1106784388
  0
VERTEX
  8
LAYER_1
 10
149.6531
 20
-249.5323
 42
-0.1857051526
  0
VERTEX
  8
LAYER_1
 10
148.9481
 20
-250.1807
 42
-0.09650175554
  0
VERTEX
  8
LAYER_1
 10
148.1451
 20
-250.3392
 42
-0.007939811217
  0
VERTEX
  8
LAYER_1
 10
148.0509
 20
-250.3406
 42
-0.102315967
  0
VERTEX
  8
LAYER_1
 10
147.1661
 20
-250.1733
 42
-0.1218859814
  0
VERTEX
  8
LAYER_1
 10
146.6722
 20
-249.7872
 42
-0.1186228201
  0
VERTEX
  8
LAYER_1
 10
146.4122
 20
-249.188
 42
-0.0498693672
  0
VERTEX
  8
LAYER_1
 10
146.3707
 20
-248.7404
  0
VERTEX
  8
LAYER_1
 10
146.3707
 20
-246.5355
  0
SEQEND
  0
ENDBLK
  0
BLOCK
  8
LAYER_1
  2
AIGNBL01040008
 70
64
 10
0
 20
0
 30
0
  3
AIGNBL01040008
  0
POLYLINE
  8
LAYER_1
 40
0.05
 41
0.05
 66
1
 10
0
 20
0
 30
0
 70
1
  0
VERTEX
  8
LAYER_1
 10
151.5573
 20
-249.1011
  0
VERTEX
  8
LAYER_1
 10
151.0709
 20
-250.2793
  0
VERTEX
  8
LAYER_1
 10
150.447
 20
-250.2793
  0
VERTEX
  8
LAYER_1
 10
152.0365
 20
-246.5355
  0
VERTEX
  8
LAYER_1
 10
152.7655
 20
-246.5355
  0
VERTEX
  8
LAYER_1
 10
154.3623
 20
-250.2793
  0
VERTEX
  8
LAYER_1
 10
153.7167
 20
-250.2793
  0
VERTEX
  8
LAYER_1
 10
153.2175
 20
-249.1011
  0
SEQEND
  0
POLYLINE
  8
LAYER_1
 40
0.05
 41
0.05
 66
1
 10
0
 20
0
 30
0
 70
1
  0
VERTEX
  8
LAYER_1
 10
153.0921
 20
-248.7245
  0
VERTEX
  8
LAYER_1
 10
152.6332
 20
-247.6459
 42
-0.02235179902
  0
VERTEX
  8
LAYER_1
 10
152.3897
 20
-246.963
  0
VERTEX
  8
LAYER_1
 10
152.3759
 20
-246.963
 42
-0.02046417189
  0
VERTEX
  8
LAYER_1
 10
152.1402
 20
-247.6414
  0
VERTEX
  8
LAYER_1
 10
151.682
 20
-248.7245
  0
SEQEND
  0
ENDBLK
  0
BLOCK
  8
LAYER_1
  2
AIGNBL01040009
 70
64
 10
0
 20
0
 30
0
  3
AIGNBL01040009
  0
POLYLINE
  8
LAYER_1
 40
0.05
 41
0.05
 66
1
 10
0
 20
0
 30
0
 70
1
  0
VERTEX
  8
LAYER_1
 10
155.3969
 20
-246.58
 42
-0.03349666815
  0
VERTEX
  8
LAYER_1
 10
156.5576
 20
-246.5072
 42
-0.09004353297
  0
VERTEX
  8
LAYER_1
 10
157.6057
 20
-246.6749
 42
-0.05888505928
  0
VERTEX
  8
LAYER_1
 10
157.8691
 20
-246.8184
 42
-0.2472492651
  0
VERTEX
  8
LAYER_1
 10
158.279
 20
-247.6018
 42
-0.1502534052
  0
VERTEX
  8
LAYER_1
 10
158.1063
 20
-248.1984
 42
-0.07033867127
  0
VERTEX
  8
LAYER_1
 10
157.9177
 20
-248.4014
 42
-0.1211283655
  0
VERTEX
  8
LAYER_1
 10
157.2351
 20
-248.728
 42
-0.06222086556
  0
VERTEX
  8
LAYER_1
 10
156.4872
 20
-248.8127
 42
-0.05750856268
  0
VERTEX
  8
LAYER_1
 10
156.0015
 20
-248.7793
  0
VERTEX
  8
LAYER_1
 10
156.0015
 20
-250.2793
  0
VERTEX
  8
LAYER_1
 10
155.3969
 20
-250.2793
  0
SEQEND
  0
POLYLINE
  8
LAYER_1
 40
0.05
 41
0.05
 66
1
 10
0
 20
0
 30
0
 70
1
  0
VERTEX
  8
LAYER_1
 10
156.0015
 20
-248.3852
 42
0.04897120882
  0
VERTEX
  8
LAYER_1
 10
156.501
 20
-248.4245
 42
0.1137012619
  0
VERTEX
  8
LAYER_1
 10
157.2816
 20
-248.2659
 42
0.1652714782
  0
VERTEX
  8
LAYER_1
 10
157.6173
 20
-247.9196
 42
0.1043893073
  0
VERTEX
  8
LAYER_1
 10
157.6751
 20
-247.6242
 42
0.2865639904
  0
VERTEX
  8
LAYER_1
 10
157.3169
 20
-247.0395
 42
0.06445412413
  0
VERTEX
  8
LAYER_1
 10
157.0376
 20
-246.9388
 42
0.05784391407
  0
VERTEX
  8
LAYER_1
 10
156.5713
 20
-246.891
 42
0.05268039105
  0
VERTEX
  8
LAYER_1
 10
156.0015
 20
-246.93
  0
SEQEND
  0
ENDBLK
  0
BLOCK
  8
LAYER_1
  2
AIGNBL0104000A
 70
64
 10
0
 20
0
 30
0
  3
AIGNBL0104000A
  0
POLYLINE
  8
LAYER_1
 40
0.05
 41
0.05
 66
1
 10
0
 20
0
 30
0
 70
1
  0
VERTEX
  8
LAYER_1
 10
159.8218
 20
-246.8352
 42
-0.3039545568
  0
VERTEX
  8
LAYER_1
 10
159.6562
 20
-247.0887
 42
-0.1152466046
  0
VERTEX
  8
LAYER_1
 10
159.4325
 20
-247.1356
 42
-0.2445179838
  0
VERTEX
  8
LAYER_1
 10
159.1045
 20
-246.9759
 42
-0.1392448976
  0
VERTEX
  8
LAYER_1
 10
159.0645
 20
-246.8352
 42
-0.2871964131
  0
VERTEX
  8
LAYER_1
 10
159.2352
 20
-246.5772
 42
-0.118108641
  0
VERTEX
  8
LAYER_1
 10
159.4459
 20
-246.53
 42
-0.2414655549
  0
VERTEX
  8
LAYER_1
 10
159.7788
 20
-246.6849
 42
-0.1427828857
  0
SEQEND
  0
POLYLINE
  8
LAYER_1
 40
0.05
 41
0.05
 66
1
 10
0
 20
0
 30
0
 70
1
  0
VERTEX
  8
LAYER_1
 10
159.1407
 20
-250.2793
  0
VERTEX
  8
LAYER_1
 10
159.1407
 20
-247.5907
  0
VERTEX
  8
LAYER_1
 10
159.7515
 20
-247.5907
  0
VERTEX
  8
LAYER_1
 10
159.7515
 20
-250.2793
  0
SEQEND
  0
ENDBLK
  0
BLOCK
  8
LAYER_1
  2
AIGNBL0104000B
 70
64
 10
0
 20
0
 30
0
  3
AIGNBL0104000B
  0
POLYLINE
  8
LAYER_1
 40
0.05
 41
0.05
 66
1
 10
0
 20
0
 30
0
 70
1
  0
VERTEX
  8
LAYER_1
 10
161.6118
 20
-249.1011
  0
VERTEX
  8
LAYER_1
 10
161.1271
 20
-250.2793
  0
VERTEX
  8
LAYER_1
 10
160.5015
 20
-250.2793
  0
VERTEX
  8
LAYER_1
 10
162.0918
 20
-246.5355
  0
VERTEX
  8
LAYER_1
 10
162.8211
 20
-246.5355
  0
VERTEX
  8
LAYER_1
 10
164.4186
 20
-250.2793
  0
VERTEX
  8
LAYER_1
 10
163.7719
 20
-250.2793
  0
VERTEX
  8
LAYER_1
 10
163.2727
 20
-249.1011
  0
SEQEND
  0
POLYLINE
  8
LAYER_1
 40
0.05
 41
0.05
 66
1
 10
0
 20
0
 30
0
 70
1
  0
VERTEX
  8
LAYER_1
 10
163.1473
 20
-248.7245
  0
VERTEX
  8
LAYER_1
 10
162.6891
 20
-247.6459
 42
-0.02473673698
  0
VERTEX
  8
LAYER_1
 10
162.4466
 20
-246.963
  0
VERTEX
  8
LAYER_1
 10
162.4321
 20
-246.963
 42
-0.01905982629
  0
VERTEX
  8
LAYER_1
 10
162.1961
 20
-247.6414
  0
VERTEX
  8
LAYER_1
 10
161.7379
 20
-248.7245
  0
SEQEND
  0
ENDBLK
  0
BLOCK
  8
LAYER_1
  2
AIGNBL01030004
 70
64
 10
0
 20
0
 30
0
  3
AIGNBL01030004
  0
INSERT
  8
LAYER_1
  2
AIGNBL01040005
 10
0
 20
0
 30
0
  0
INSERT
  8
LAYER_1
  2
AIGNBL01040006
 10
0
 20
0
 30
0
  0
INSERT
  8
LAYER_1
  2
AIGNBL01040007
 10
0
 20
0
 30
0
  0
INSERT
  8
LAYER_1
  2
AIGNBL01040008
 10
0
 20
0
 30
0
  0
INSERT
  8
LAYER_1
  2
AIGNBL01040009
 10
0
 20
0
 30
0
  0
INSERT
  8
LAYER_1
  2
AIGNBL0104000A
 10
0
 20
0
 30
0
  0
INSERT
  8
LAYER_1
  2
AIGNBL0104000B
 10
0
 20
0
 30
0
  0
ENDBLK
  0
BLOCK
  8
LAYER_1
  2
AIGNBL0103000D
 70
64
 10
0
 20
0
 30
0
  3
AIGNBL0103000D
  0
POLYLINE
  8
LAYER_1
 40
0.05
 41
0.05
 66
1
 10
0
 20
0
 30
0
 70
1
  0
VERTEX
  8
LAYER_1
 10
137.3756
 20
-252.1676
  0
VERTEX
  8
LAYER_1
 10
137.9258
 20
-252.1676
  0
VERTEX
  8
LAYER_1
 10
137.9258
 20
-252.2609
  0
VERTEX
  8
LAYER_1
 10
137.2715
 20
-252.2609
  0
VERTEX
  8
LAYER_1
 10
137.2715
 20
-251.2339
  0
VERTEX
  8
LAYER_1
 10
137.9082
 20
-251.2339
  0
VERTEX
  8
LAYER_1
 10
137.9082
 20
-251.3266
  0
VERTEX
  8
LAYER_1
 10
137.3756
 20
-251.3266
  0
VERTEX
  8
LAYER_1
 10
137.3756
 20
-251.6787
  0
VERTEX
  8
LAYER_1
 10
137.8734
 20
-251.6787
  0
VERTEX
  8
LAYER_1
 10
137.8734
 20
-251.7717
  0
VERTEX
  8
LAYER_1
 10
137.3756
 20
-251.7717
  0
SEQEND
  0
ENDBLK
  0
BLOCK
  8
LAYER_1
  2
AIGNBL0103000E
 70
64
 10
0
 20
0
 30
0
  3
AIGNBL0103000E
  0
POLYLINE
  8
LAYER_1
 40
0.05
 41
0.05
 66
1
 10
0
 20
0
 30
0
 70
1
  0
VERTEX
  8
LAYER_1
 10
139.0589
 20
-252.1079
  0
VERTEX
  8
LAYER_1
 10
139.0613
 20
-252.1079
  0
VERTEX
  8
LAYER_1
 10
139.0613
 20
-251.2339
  0
VERTEX
  8
LAYER_1
 10
139.1663
 20
-251.2339
  0
VERTEX
  8
LAYER_1
 10
139.1663
 20
-252.2609
  0
VERTEX
  8
LAYER_1
 10
139.0365
 20
-252.2609
  0
VERTEX
  8
LAYER_1
 10
138.4384
 20
-251.3772
  0
VERTEX
  8
LAYER_1
 10
138.435
 20
-251.3772
  0
VERTEX
  8
LAYER_1
 10
138.435
 20
-252.2609
  0
VERTEX
  8
LAYER_1
 10
138.3306
 20
-252.2609
  0
VERTEX
  8
LAYER_1
 10
138.3306
 20
-251.2339
  0
VERTEX
  8
LAYER_1
 10
138.4611
 20
-251.2339
  0
SEQEND
  0
ENDBLK
  0
BLOCK
  8
LAYER_1
  2
AIGNBL0103000F
 70
64
 10
0
 20
0
 30
0
  3
AIGNBL0103000F
  0
POLYLINE
  8
LAYER_1
 40
0.05
 41
0.05
 66
1
 10
0
 20
0
 30
0
 70
1
  0
VERTEX
  8
LAYER_1
 10
139.637
 20
-252.0501
 42
0.1590284934
  0
VERTEX
  8
LAYER_1
 10
139.691
 20
-252.1527
 42
0.1903970375
  0
VERTEX
  8
LAYER_1
 10
139.8034
 20
-252.1937
  0
VERTEX
  8
LAYER_1
 10
139.8922
 20
-252.1744
  0
VERTEX
  8
LAYER_1
 10
139.948
 20
-252.1214
  0
VERTEX
  8
LAYER_1
 10
139.9763
 20
-252.0453
  0
VERTEX
  8
LAYER_1
 10
139.9853
 20
-251.956
  0
VERTEX
  8
LAYER_1
 10
139.9853
 20
-251.2339
  0
VERTEX
  8
LAYER_1
 10
140.0893
 20
-251.2339
  0
VERTEX
  8
LAYER_1
 10
140.0893
 20
-251.965
  0
VERTEX
  8
LAYER_1
 10
140.0783
 20
-252.0718
 42
-0.08830433873
  0
VERTEX
  8
LAYER_1
 10
140.0369
 20
-252.1765
 42
-0.1153589887
  0
VERTEX
  8
LAYER_1
 10
139.9529
 20
-252.2554
 42
-0.1266166698
  0
VERTEX
  8
LAYER_1
 10
139.8147
 20
-252.2868
 42
-0.1823786802
  0
VERTEX
  8
LAYER_1
 10
139.6311
 20
-252.2268
 42
-0.1773090787
  0
VERTEX
  8
LAYER_1
 10
139.5391
 20
-252.0769
  0
SEQEND
  0
ENDBLK
  0
BLOCK
  8
LAYER_1
  2
AIGNBL01030010
 70
64
 10
0
 20
0
 30
0
  3
AIGNBL01030010
  0
POLYLINE
  8
LAYER_1
 40
0.05
 41
0.05
 66
1
 10
0
 20
0
 30
0
 70
1
  0
VERTEX
  8
LAYER_1
 10
141.5693
 20
-251.7469
 42
-0.1023745756
  0
VERTEX
  8
LAYER_1
 10
141.5279
 20
-251.9629
 42
-0.1012381663
  0
VERTEX
  8
LAYER_1
 10
141.4163
 20
-252.1338
 42
-0.09607034471
  0
VERTEX
  8
LAYER_1
 10
141.2458
 20
-252.2461
 42
-0.09758991962
  0
VERTEX
  8
LAYER_1
 10
141.0332
 20
-252.2868
 42
-0.09910038025
  0
VERTEX
  8
LAYER_1
 10
140.8207
 20
-252.2461
 42
-0.09835332354
  0
VERTEX
  8
LAYER_1
 10
140.6512
 20
-252.1338
 42
-0.09652080474
  0
VERTEX
  8
LAYER_1
 10
140.5389
 20
-251.9629
 42
-0.09814472372
  0
VERTEX
  8
LAYER_1
 10
140.4986
 20
-251.7469
 42
-0.1026891031
  0
VERTEX
  8
LAYER_1
 10
140.5389
 20
-251.5306
 42
-0.09919197624
  0
VERTEX
  8
LAYER_1
 10
140.6512
 20
-251.3604
 42
-0.09851015914
  0
VERTEX
  8
LAYER_1
 10
140.8207
 20
-251.2481
 42
-0.0978389277
  0
VERTEX
  8
LAYER_1
 10
141.0332
 20
-251.2071
 42
-0.1012755921
  0
VERTEX
  8
LAYER_1
 10
141.2458
 20
-251.2481
 42
-0.101055447
  0
VERTEX
  8
LAYER_1
 10
141.4163
 20
-251.3604
 42
-0.100284748
  0
VERTEX
  8
LAYER_1
 10
141.5279
 20
-251.5306
 42
-0.09841189494
  0
SEQEND
  0
POLYLINE
  8
LAYER_1
 40
0.05
 41
0.05
 66
1
 10
0
 20
0
 30
0
 70
1
  0
VERTEX
  8
LAYER_1
 10
141.4584
 20
-251.7476
 42
0.08348185165
  0
VERTEX
  8
LAYER_1
 10
141.4301
 20
-251.5767
 42
0.09888736064
  0
VERTEX
  8
LAYER_1
 10
141.3454
 20
-251.4344
 42
0.1046117232
  0
VERTEX
  8
LAYER_1
 10
141.211
 20
-251.337
 42
0.1084373712
  0
VERTEX
  8
LAYER_1
 10
141.0332
 20
-251.3001
 42
0.1126508353
  0
VERTEX
  8
LAYER_1
 10
140.8558
 20
-251.337
 42
0.1080671084
  0
VERTEX
  8
LAYER_1
 10
140.7225
 20
-251.4344
 42
0.09765540905
  0
VERTEX
  8
LAYER_1
 10
140.6374
 20
-251.5767
 42
0.08446298011
  0
VERTEX
  8
LAYER_1
 10
140.6081
 20
-251.7476
 42
0.08257781466
  0
VERTEX
  8
LAYER_1
 10
140.6374
 20
-251.9188
 42
0.1022479965
  0
VERTEX
  8
LAYER_1
 10
140.7225
 20
-252.0607
 42
0.1007994813
  0
VERTEX
  8
LAYER_1
 10
140.8558
 20
-252.1575
 42
0.1058339915
  0
VERTEX
  8
LAYER_1
 10
141.0332
 20
-252.1937
 42
0.1146720599
  0
VERTEX
  8
LAYER_1
 10
141.211
 20
-252.1575
 42
0.1074750371
  0
VERTEX
  8
LAYER_1
 10
141.3454
 20
-252.0607
 42
0.0957445035
  0
VERTEX
  8
LAYER_1
 10
141.4301
 20
-251.9188
 42
0.08253202369
  0
SEQEND
  0
ENDBLK
  0
BLOCK
  8
LAYER_1
  2
AIGNBL01030011
 70
64
 10
0
 20
0
 30
0
  3
AIGNBL01030011
  0
POLYLINE
  8
LAYER_1
 40
0.05
 41
0.05
 66
1
 10
0
 20
0
 30
0
 70
1
  0
VERTEX
  8
LAYER_1
 10
142.3393
 20
-252.2609
  0
VERTEX
  8
LAYER_1
 10
142.2349
 20
-252.2609
  0
VERTEX
  8
LAYER_1
 10
142.2349
 20
-251.8182
  0
VERTEX
  8
LAYER_1
 10
141.8504
 20
-251.2339
  0
VERTEX
  8
LAYER_1
 10
141.9813
 20
-251.2339
  0
VERTEX
  8
LAYER_1
 10
142.2904
 20
-251.7311
  0
VERTEX
  8
LAYER_1
 10
142.6022
 20
-251.2339
  0
VERTEX
  8
LAYER_1
 10
142.7234
 20
-251.2339
  0
VERTEX
  8
LAYER_1
 10
142.3393
 20
-251.8182
  0
SEQEND
  0
ENDBLK
  0
BLOCK
  8
LAYER_1
  2
AIGNBL01030012
 70
64
 10
0
 20
0
 30
0
  3
AIGNBL01030012
  0
POLYLINE
  8
LAYER_1
 40
0.05
 41
0.05
 66
1
 10
0
 20
0
 30
0
 70
1
  0
VERTEX
  8
LAYER_1
 10
143.6236
 20
-251.2339
  0
VERTEX
  8
LAYER_1
 10
143.9288
 20
-251.2339
  0
VERTEX
  8
LAYER_1
 10
144.047
 20
-251.2457
  0
VERTEX
  8
LAYER_1
 10
144.1528
 20
-251.288
 42
-0.1142786728
  0
VERTEX
  8
LAYER_1
 10
144.2307
 20
-251.3686
 42
-0.1221660448
  0
VERTEX
  8
LAYER_1
 10
144.2603
 20
-251.4961
 42
-0.1789908253
  0
VERTEX
  8
LAYER_1
 10
144.2103
 20
-251.6373
 42
-0.1682964985
  0
VERTEX
  8
LAYER_1
 10
144.078
 20
-251.7166
  0
VERTEX
  8
LAYER_1
 10
144.078
 20
-251.7194
 42
-0.1720252291
  0
VERTEX
  8
LAYER_1
 10
144.2434
 20
-251.7969
 42
-0.2011476059
  0
VERTEX
  8
LAYER_1
 10
144.3099
 20
-251.9764
 42
-0.1263581039
  0
VERTEX
  8
LAYER_1
 10
144.2823
 20
-252.0928
 42
-0.1151202894
  0
VERTEX
  8
LAYER_1
 10
144.2062
 20
-252.1831
 42
-0.08559391469
  0
VERTEX
  8
LAYER_1
 10
144.0866
 20
-252.2402
 42
-0.06581098886
  0
VERTEX
  8
LAYER_1
 10
143.9275
 20
-252.2609
  0
VERTEX
  8
LAYER_1
 10
143.6236
 20
-252.2609
  0
SEQEND
  0
POLYLINE
  8
LAYER_1
 40
0.05
 41
0.05
 66
1
 10
0
 20
0
 30
0
 70
1
  0
VERTEX
  8
LAYER_1
 10
143.7277
 20
-251.6832
  0
VERTEX
  8
LAYER_1
 10
143.9382
 20
-251.6832
  0
VERTEX
  8
LAYER_1
 10
144.0146
 20
-251.6742
  0
VERTEX
  8
LAYER_1
 10
144.0842
 20
-251.6453
  0
VERTEX
  8
LAYER_1
 10
144.1362
 20
-251.5888
 42
0.1124449043
  0
VERTEX
  8
LAYER_1
 10
144.1552
 20
-251.5034
  0
VERTEX
  8
LAYER_1
 10
144.1362
 20
-251.4203
  0
VERTEX
  8
LAYER_1
 10
144.0835
 20
-251.3638
  0
VERTEX
  8
LAYER_1
 10
144.005
 20
-251.3328
  0
VERTEX
  8
LAYER_1
 10
143.9089
 20
-251.3235
  0
VERTEX
  8
LAYER_1
 10
143.7277
 20
-251.3235
  0
SEQEND
  0
POLYLINE
  8
LAYER_1
 40
0.05
 41
0.05
 66
1
 10
0
 20
0
 30
0
 70
1
  0
VERTEX
  8
LAYER_1
 10
143.7277
 20
-252.171
  0
VERTEX
  8
LAYER_1
 10
143.9223
 20
-252.171
  0
VERTEX
  8
LAYER_1
 10
144.0301
 20
-252.1596
  0
VERTEX
  8
LAYER_1
 10
144.1204
 20
-252.1252
  0
VERTEX
  8
LAYER_1
 10
144.181
 20
-252.0625
 42
0.1349508047
  0
VERTEX
  8
LAYER_1
 10
144.2048
 20
-251.9705
 42
0.2483168689
  0
VERTEX
  8
LAYER_1
 10
144.1362
 20
-251.8189
 42
0.1537491355
  0
VERTEX
  8
LAYER_1
 10
143.9413
 20
-251.7686
  0
VERTEX
  8
LAYER_1
 10
143.7277
 20
-251.7686
  0
SEQEND
  0
ENDBLK
  0
BLOCK
  8
LAYER_1
  2
AIGNBL01030013
 70
64
 10
0
 20
0
 30
0
  3
AIGNBL01030013
  0
POLYLINE
  8
LAYER_1
 40
0.05
 41
0.05
 66
1
 10
0
 20
0
 30
0
 70
1
  0
VERTEX
  8
LAYER_1
 10
144.7388
 20
-252.2609
  0
VERTEX
  8
LAYER_1
 10
144.6241
 20
-252.2609
  0
VERTEX
  8
LAYER_1
 10
145.0685
 20
-251.2339
  0
VERTEX
  8
LAYER_1
 10
145.1705
 20
-251.2339
  0
VERTEX
  8
LAYER_1
 10
145.6111
 20
-252.2609
  0
VERTEX
  8
LAYER_1
 10
145.4943
 20
-252.2609
  0
VERTEX
  8
LAYER_1
 10
145.3813
 20
-251.9912
  0
VERTEX
  8
LAYER_1
 10
144.8504
 20
-251.9912
  0
SEQEND
  0
POLYLINE
  8
LAYER_1
 40
0.05
 41
0.05
 66
1
 10
0
 20
0
 30
0
 70
1
  0
VERTEX
  8
LAYER_1
 10
144.8894
 20
-251.8947
  0
VERTEX
  8
LAYER_1
 10
145.3424
 20
-251.8947
  0
VERTEX
  8
LAYER_1
 10
145.1164
 20
-251.3493
  0
SEQEND
  0
ENDBLK
  0
BLOCK
  8
LAYER_1
  2
AIGNBL01030014
 70
64
 10
0
 20
0
 30
0
  3
AIGNBL01030014
  0
POLYLINE
  8
LAYER_1
 40
0.05
 41
0.05
 66
1
 10
0
 20
0
 30
0
 70
1
  0
VERTEX
  8
LAYER_1
 10
146.2915
 20
-252.2609
  0
VERTEX
  8
LAYER_1
 10
146.1871
 20
-252.2609
  0
VERTEX
  8
LAYER_1
 10
146.1871
 20
-251.3266
  0
VERTEX
  8
LAYER_1
 10
145.8426
 20
-251.3266
  0
VERTEX
  8
LAYER_1
 10
145.8426
 20
-251.2339
  0
VERTEX
  8
LAYER_1
 10
146.635
 20
-251.2339
  0
VERTEX
  8
LAYER_1
 10
146.635
 20
-251.3266
  0
VERTEX
  8
LAYER_1
 10
146.2915
 20
-251.3266
  0
SEQEND
  0
ENDBLK
  0
BLOCK
  8
LAYER_1
  2
AIGNBL01030015
 70
64
 10
0
 20
0
 30
0
  3
AIGNBL01030015
  0
POLYLINE
  8
LAYER_1
 40
0.05
 41
0.05
 66
1
 10
0
 20
0
 30
0
 70
1
  0
VERTEX
  8
LAYER_1
 10
146.9888
 20
-251.2339
  0
VERTEX
  8
LAYER_1
 10
147.0932
 20
-251.2339
  0
VERTEX
  8
LAYER_1
 10
147.0932
 20
-251.6787
  0
VERTEX
  8
LAYER_1
 10
147.654
 20
-251.6787
  0
VERTEX
  8
LAYER_1
 10
147.654
 20
-251.2339
  0
VERTEX
  8
LAYER_1
 10
147.7581
 20
-251.2339
  0
VERTEX
  8
LAYER_1
 10
147.7581
 20
-252.2609
  0
VERTEX
  8
LAYER_1
 10
147.654
 20
-252.2609
  0
VERTEX
  8
LAYER_1
 10
147.654
 20
-251.7745
  0
VERTEX
  8
LAYER_1
 10
147.0932
 20
-251.7745
  0
VERTEX
  8
LAYER_1
 10
147.0932
 20
-252.2609
  0
VERTEX
  8
LAYER_1
 10
146.9888
 20
-252.2609
  0
SEQEND
  0
ENDBLK
  0
BLOCK
  8
LAYER_1
  2
AIGNBL01030016
 70
64
 10
0
 20
0
 30
0
  3
AIGNBL01030016
  0
POLYLINE
  8
LAYER_1
 40
0.05
 41
0.05
 66
1
 10
0
 20
0
 30
0
 70
1
  0
VERTEX
  8
LAYER_1
 10
148.3351
 20
-252.2609
  0
VERTEX
  8
LAYER_1
 10
148.2311
 20
-252.2609
  0
VERTEX
  8
LAYER_1
 10
148.2311
 20
-251.2339
  0
VERTEX
  8
LAYER_1
 10
148.5322
 20
-251.2339
  0
VERTEX
  8
LAYER_1
 10
148.6724
 20
-251.2481
 42
-0.1023663758
  0
VERTEX
  8
LAYER_1
 10
148.7844
 20
-251.2953
 42
-0.1332028562
  0
VERTEX
  8
LAYER_1
 10
148.8571
 20
-251.38
 42
-0.109414644
  0
VERTEX
  8
LAYER_1
 10
148.8829
 20
-251.5078
  0
VERTEX
  8
LAYER_1
 10
148.8636
 20
-251.6108
  0
VERTEX
  8
LAYER_1
 10
148.8088
 20
-251.6911
  0
VERTEX
  8
LAYER_1
 10
148.7258
 20
-251.7459
  0
VERTEX
  8
LAYER_1
 10
148.6214
 20
-251.7717
  0
VERTEX
  8
LAYER_1
 10
148.9211
 20
-252.2609
  0
VERTEX
  8
LAYER_1
 10
148.7937
 20
-252.2609
  0
VERTEX
  8
LAYER_1
 10
148.5098
 20
-251.7807
  0
VERTEX
  8
LAYER_1
 10
148.3351
 20
-251.7807
  0
SEQEND
  0
POLYLINE
  8
LAYER_1
 40
0.05
 41
0.05
 66
1
 10
0
 20
0
 30
0
 70
1
  0
VERTEX
  8
LAYER_1
 10
148.3351
 20
-251.6904
  0
VERTEX
  8
LAYER_1
 10
148.517
 20
-251.6904
 42
0.1513063474
  0
VERTEX
  8
LAYER_1
 10
148.711
 20
-251.6453
 42
0.2568804362
  0
VERTEX
  8
LAYER_1
 10
148.7799
 20
-251.5078
  0
VERTEX
  8
LAYER_1
 10
148.7602
 20
-251.4224
 42
0.1232056022
  0
VERTEX
  8
LAYER_1
 10
148.7079
 20
-251.3652
  0
VERTEX
  8
LAYER_1
 10
148.6269
 20
-251.3338
  0
VERTEX
  8
LAYER_1
 10
148.5212
 20
-251.3235
  0
VERTEX
  8
LAYER_1
 10
148.3351
 20
-251.3235
  0
SEQEND
  0
ENDBLK
  0
BLOCK
  8
LAYER_1
  2
AIGNBL01030017
 70
64
 10
0
 20
0
 30
0
  3
AIGNBL01030017
  0
POLYLINE
  8
LAYER_1
 40
0.05
 41
0.05
 66
1
 10
0
 20
0
 30
0
 70
1
  0
VERTEX
  8
LAYER_1
 10
150.3154
 20
-251.7469
 42
-0.09975403421
  0
VERTEX
  8
LAYER_1
 10
150.2747
 20
-251.9629
 42
-0.09935173186
  0
VERTEX
  8
LAYER_1
 10
150.1624
 20
-252.1338
 42
-0.09811740303
  0
VERTEX
  8
LAYER_1
 10
149.9926
 20
-252.2461
 42
-0.09708882113
  0
VERTEX
  8
LAYER_1
 10
149.78
 20
-252.2868
 42
-0.09940093633
  0
VERTEX
  8
LAYER_1
 10
149.5674
 20
-252.2461
 42
-0.1007896559
  0
VERTEX
  8
LAYER_1
 10
149.3979
 20
-252.1338
 42
-0.09768152712
  0
VERTEX
  8
LAYER_1
 10
149.2856
 20
-251.9629
 42
-0.09531839447
  0
VERTEX
  8
LAYER_1
 10
149.2453
 20
-251.7469
 42
-0.09746952437
  0
VERTEX
  8
LAYER_1
 10
149.2856
 20
-251.5306
 42
-0.09925134223
  0
VERTEX
  8
LAYER_1
 10
149.3979
 20
-251.3604
 42
-0.1005970746
  0
VERTEX
  8
LAYER_1
 10
149.5674
 20
-251.2481
 42
-0.09815409965
  0
VERTEX
  8
LAYER_1
 10
149.78
 20
-251.2071
 42
-0.1003559568
  0
VERTEX
  8
LAYER_1
 10
149.9926
 20
-251.2481
 42
-0.1030391221
  0
VERTEX
  8
LAYER_1
 10
150.1624
 20
-251.3604
 42
-0.09760938344
  0
VERTEX
  8
LAYER_1
 10
150.2747
 20
-251.5306
 42
-0.09618621792
  0
SEQEND
  0
POLYLINE
  8
LAYER_1
 40
0.05
 41
0.05
 66
1
 10
0
 20
0
 30
0
 70
1
  0
VERTEX
  8
LAYER_1
 10
150.2051
 20
-251.7476
 42
0.08928566433
  0
VERTEX
  8
LAYER_1
 10
150.1762
 20
-251.5767
 42
0.0967309921
  0
VERTEX
  8
LAYER_1
 10
150.0921
 20
-251.4344
 42
0.1033640041
  0
VERTEX
  8
LAYER_1
 10
149.9581
 20
-251.337
 42
0.1075765453
  0
VERTEX
  8
LAYER_1
 10
149.78
 20
-251.3001
 42
0.1148421003
  0
VERTEX
  8
LAYER_1
 10
149.6026
 20
-251.337
 42
0.106797523
  0
VERTEX
  8
LAYER_1
 10
149.4682
 20
-251.4344
 42
0.09375888087
  0
VERTEX
  8
LAYER_1
 10
149.3842
 20
-251.5767
 42
0.08542444587
  0
VERTEX
  8
LAYER_1
 10
149.3549
 20
-251.7476
 42
0.08738527021
  0
VERTEX
  8
LAYER_1
 10
149.3842
 20
-251.9188
 42
0.09670329037
  0
VERTEX
  8
LAYER_1
 10
149.4682
 20
-252.0607
 42
0.09891153362
  0
VERTEX
  8
LAYER_1
 10
149.6026
 20
-252.1575
 42
0.1067011915
  0
VERTEX
  8
LAYER_1
 10
149.78
 20
-252.1937
 42
0.1133540876
  0
VERTEX
  8
LAYER_1
 10
149.9581
 20
-252.1575
 42
0.1038012544
  0
VERTEX
  8
LAYER_1
 10
150.0921
 20
-252.0607
 42
0.09726416843
  0
VERTEX
  8
LAYER_1
 10
150.1762
 20
-251.9188
 42
0.0854375021
  0
SEQEND
  0
ENDBLK
  0
BLOCK
  8
LAYER_1
  2
AIGNBL01030018
 70
64
 10
0
 20
0
 30
0
  3
AIGNBL01030018
  0
POLYLINE
  8
LAYER_1
 40
0.05
 41
0.05
 66
1
 10
0
 20
0
 30
0
 70
1
  0
VERTEX
  8
LAYER_1
 10
151.7489
 20
-251.7469
 42
-0.09970583877
  0
VERTEX
  8
LAYER_1
 10
151.7086
 20
-251.9629
 42
-0.0976989983
  0
VERTEX
  8
LAYER_1
 10
151.5963
 20
-252.1338
 42
-0.09521451671
  0
VERTEX
  8
LAYER_1
 10
151.4264
 20
-252.2461
 42
-0.09711421911
  0
VERTEX
  8
LAYER_1
 10
151.2139
 20
-252.2868
 42
-0.1003065361
  0
VERTEX
  8
LAYER_1
 10
151.0013
 20
-252.2461
 42
-0.1012502646
  0
VERTEX
  8
LAYER_1
 10
150.8318
 20
-252.1338
 42
-0.09902147312
  0
VERTEX
  8
LAYER_1
 10
150.7188
 20
-251.9629
 42
-0.09657946775
  0
VERTEX
  8
LAYER_1
 10
150.6781
 20
-251.7469
 42
-0.09892706014
  0
VERTEX
  8
LAYER_1
 10
150.7188
 20
-251.5306
 42
-0.1025433378
  0
VERTEX
  8
LAYER_1
 10
150.8318
 20
-251.3604
 42
-0.1009513296
  0
VERTEX
  8
LAYER_1
 10
151.0013
 20
-251.2481
 42
-0.09841178888
  0
VERTEX
  8
LAYER_1
 10
151.2139
 20
-251.2071
 42
-0.1004512574
  0
VERTEX
  8
LAYER_1
 10
151.4264
 20
-251.2481
 42
-0.09871557407
  0
VERTEX
  8
LAYER_1
 10
151.5963
 20
-251.3604
 42
-0.09679690961
  0
VERTEX
  8
LAYER_1
 10
151.7086
 20
-251.5306
 42
-0.09571421233
  0
SEQEND
  0
POLYLINE
  8
LAYER_1
 40
0.05
 41
0.05
 66
1
 10
0
 20
0
 30
0
 70
1
  0
VERTEX
  8
LAYER_1
 10
151.639
 20
-251.7476
 42
0.08698818876
  0
VERTEX
  8
LAYER_1
 10
151.61
 20
-251.5767
 42
0.0956708921
  0
VERTEX
  8
LAYER_1
 10
151.526
 20
-251.4344
 42
0.1033803157
  0
VERTEX
  8
LAYER_1
 10
151.3916
 20
-251.337
 42
0.1075718589
  0
VERTEX
  8
LAYER_1
 10
151.2139
 20
-251.3001
 42
0.1154259577
  0
VERTEX
  8
LAYER_1
 10
151.0361
 20
-251.337
 42
0.1064173637
  0
VERTEX
  8
LAYER_1
 10
150.9017
 20
-251.4344
 42
0.1028942614
  0
VERTEX
  8
LAYER_1
 10
150.818
 20
-251.5767
 42
0.08542444587
  0
VERTEX
  8
LAYER_1
 10
150.7887
 20
-251.7476
 42
0.08738527021
  0
VERTEX
  8
LAYER_1
 10
150.818
 20
-251.9188
 42
0.1032562832
  0
VERTEX
  8
LAYER_1
 10
150.9017
 20
-252.0607
 42
0.1008165521
  0
VERTEX
  8
LAYER_1
 10
151.0361
 20
-252.1575
 42
0.1069398409
  0
VERTEX
  8
LAYER_1
 10
151.2139
 20
-252.1937
 42
0.1127969838
  0
VERTEX
  8
LAYER_1
 10
151.3916
 20
-252.1575
 42
0.1024372123
  0
VERTEX
  8
LAYER_1
 10
151.526
 20
-252.0607
 42
0.09088614582
  0
VERTEX
  8
LAYER_1
 10
151.61
 20
-251.9188
 42
0.08498619229
  0
SEQEND
  0
ENDBLK
  0
BLOCK
  8
LAYER_1
  2
AIGNBL01030019
 70
64
 10
0
 20
0
 30
0
  3
AIGNBL01030019
  0
POLYLINE
  8
LAYER_1
 40
0.05
 41
0.05
 66
1
 10
0
 20
0
 30
0
 70
1
  0
VERTEX
  8
LAYER_1
 10
152.6742
 20
-252.0839
  0
VERTEX
  8
LAYER_1
 10
152.6756
 20
-252.0839
  0
VERTEX
  8
LAYER_1
 10
153.0194
 20
-251.2339
  0
VERTEX
  8
LAYER_1
 10
153.1793
 20
-251.2339
  0
VERTEX
  8
LAYER_1
 10
153.1793
 20
-252.2609
  0
VERTEX
  8
LAYER_1
 10
153.0749
 20
-252.2609
  0
VERTEX
  8
LAYER_1
 10
153.0749
 20
-251.3686
  0
VERTEX
  8
LAYER_1
 10
153.0718
 20
-251.3686
  0
VERTEX
  8
LAYER_1
 10
152.7007
 20
-252.2609
  0
VERTEX
  8
LAYER_1
 10
152.646
 20
-252.2609
  0
VERTEX
  8
LAYER_1
 10
152.2743
 20
-251.3686
  0
VERTEX
  8
LAYER_1
 10
152.2708
 20
-251.3686
  0
VERTEX
  8
LAYER_1
 10
152.2708
 20
-252.2609
  0
VERTEX
  8
LAYER_1
 10
152.1668
 20
-252.2609
  0
VERTEX
  8
LAYER_1
 10
152.1668
 20
-251.2339
  0
VERTEX
  8
LAYER_1
 10
152.327
 20
-251.2339
  0
SEQEND
  0
ENDBLK
  0
BLOCK
  8
LAYER_1
  2
AIGNBL0103001A
 70
64
 10
0
 20
0
 30
0
  3
AIGNBL0103001A
  0
POLYLINE
  8
LAYER_1
 40
0.05
 41
0.05
 66
1
 10
0
 20
0
 30
0
 70
1
  0
VERTEX
  8
LAYER_1
 10
154.3196
 20
-252.1676
  0
VERTEX
  8
LAYER_1
 10
154.8694
 20
-252.1676
  0
VERTEX
  8
LAYER_1
 10
154.8694
 20
-252.2609
  0
VERTEX
  8
LAYER_1
 10
154.2145
 20
-252.2609
  0
VERTEX
  8
LAYER_1
 10
154.2145
 20
-251.2339
  0
VERTEX
  8
LAYER_1
 10
154.8522
 20
-251.2339
  0
VERTEX
  8
LAYER_1
 10
154.8522
 20
-251.3263
  0
VERTEX
  8
LAYER_1
 10
154.3196
 20
-251.3263
  0
VERTEX
  8
LAYER_1
 10
154.3196
 20
-251.6787
  0
VERTEX
  8
LAYER_1
 10
154.8167
 20
-251.6787
  0
VERTEX
  8
LAYER_1
 10
154.8167
 20
-251.7717
  0
VERTEX
  8
LAYER_1
 10
154.3196
 20
-251.7717
  0
SEQEND
  0
ENDBLK
  0
BLOCK
  8
LAYER_1
  2
AIGNBL0103001B
 70
64
 10
0
 20
0
 30
0
  3
AIGNBL0103001B
  0
POLYLINE
  8
LAYER_1
 40
0.05
 41
0.05
 66
1
 10
0
 20
0
 30
0
 70
1
  0
VERTEX
  8
LAYER_1
 10
155.6101
 20
-251.6484
  0
VERTEX
  8
LAYER_1
 10
155.8906
 20
-251.2339
  0
VERTEX
  8
LAYER_1
 10
156.0153
 20
-251.2339
  0
VERTEX
  8
LAYER_1
 10
155.6749
 20
-251.7221
  0
VERTEX
  8
LAYER_1
 10
156.0518
 20
-252.2609
  0
VERTEX
  8
LAYER_1
 10
155.9216
 20
-252.2609
  0
VERTEX
  8
LAYER_1
 10
155.6081
 20
-251.7979
  0
VERTEX
  8
LAYER_1
 10
155.296
 20
-252.2609
  0
VERTEX
  8
LAYER_1
 10
155.165
 20
-252.2609
  0
VERTEX
  8
LAYER_1
 10
155.5426
 20
-251.7211
  0
VERTEX
  8
LAYER_1
 10
155.1988
 20
-251.2339
  0
VERTEX
  8
LAYER_1
 10
155.329
 20
-251.2339
  0
SEQEND
  0
ENDBLK
  0
BLOCK
  8
LAYER_1
  2
AIGNBL0103001C
 70
64
 10
0
 20
0
 30
0
  3
AIGNBL0103001C
  0
POLYLINE
  8
LAYER_1
 40
0.05
 41
0.05
 66
1
 10
0
 20
0
 30
0
 70
1
  0
VERTEX
  8
LAYER_1
 10
156.4159
 20
-251.2339
  0
VERTEX
  8
LAYER_1
 10
156.706
 20
-251.2339
  0
VERTEX
  8
LAYER_1
 10
156.8487
 20
-251.2498
 42
-0.110657953
  0
VERTEX
  8
LAYER_1
 10
156.9575
 20
-251.3015
 42
-0.1163763428
  0
VERTEX
  8
LAYER_1
 10
157.0288
 20
-251.3866
 42
-0.1004779162
  0
VERTEX
  8
LAYER_1
 10
157.053
 20
-251.5078
 42
-0.1135751127
  0
VERTEX
  8
LAYER_1
 10
157.0281
 20
-251.6291
 42
-0.1113908719
  0
VERTEX
  8
LAYER_1
 10
156.9568
 20
-251.7145
 42
-0.08575538996
  0
VERTEX
  8
LAYER_1
 10
156.8459
 20
-251.7659
 42
-0.06072195454
  0
VERTEX
  8
LAYER_1
 10
156.7032
 20
-251.7831
  0
VERTEX
  8
LAYER_1
 10
156.5203
 20
-251.7831
  0
VERTEX
  8
LAYER_1
 10
156.5203
 20
-252.2609
  0
VERTEX
  8
LAYER_1
 10
156.4159
 20
-252.2609
  0
SEQEND
  0
POLYLINE
  8
LAYER_1
 40
0.05
 41
0.05
 66
1
 10
0
 20
0
 30
0
 70
1
  0
VERTEX
  8
LAYER_1
 10
156.5203
 20
-251.6949
  0
VERTEX
  8
LAYER_1
 10
156.6974
 20
-251.6949
 42
0.1668395642
  0
VERTEX
  8
LAYER_1
 10
156.8848
 20
-251.6474
 42
0.2433158568
  0
VERTEX
  8
LAYER_1
 10
156.9489
 20
-251.5078
 42
0.2579107644
  0
VERTEX
  8
LAYER_1
 10
156.8824
 20
-251.3676
 42
0.1431777658
  0
VERTEX
  8
LAYER_1
 10
156.6974
 20
-251.3235
  0
VERTEX
  8
LAYER_1
 10
156.5203
 20
-251.3235
  0
SEQEND
  0
ENDBLK
  0
BLOCK
  8
LAYER_1
  2
AIGNBL0103001D
 70
64
 10
0
 20
0
 30
0
  3
AIGNBL0103001D
  0
POLYLINE
  8
LAYER_1
 40
0.05
 41
0.05
 66
1
 10
0
 20
0
 30
0
 70
1
  0
VERTEX
  8
LAYER_1
 10
157.5621
 20
-252.1676
  0
VERTEX
  8
LAYER_1
 10
158.1116
 20
-252.1676
  0
VERTEX
  8
LAYER_1
 10
158.1116
 20
-252.2609
  0
VERTEX
  8
LAYER_1
 10
157.4577
 20
-252.2609
  0
VERTEX
  8
LAYER_1
 10
157.4577
 20
-251.2339
  0
VERTEX
  8
LAYER_1
 10
158.0947
 20
-251.2339
  0
VERTEX
  8
LAYER_1
 10
158.0947
 20
-251.3263
  0
VERTEX
  8
LAYER_1
 10
157.5621
 20
-251.3263
  0
VERTEX
  8
LAYER_1
 10
157.5621
 20
-251.6787
  0
VERTEX
  8
LAYER_1
 10
158.0599
 20
-251.6787
  0
VERTEX
  8
LAYER_1
 10
158.0599
 20
-251.7717
  0
VERTEX
  8
LAYER_1
 10
157.5621
 20
-251.7717
  0
SEQEND
  0
ENDBLK
  0
BLOCK
  8
LAYER_1
  2
AIGNBL0103001E
 70
64
 10
0
 20
0
 30
0
  3
AIGNBL0103001E
  0
POLYLINE
  8
LAYER_1
 40
0.05
 41
0.05
 66
1
 10
0
 20
0
 30
0
 70
1
  0
VERTEX
  8
LAYER_1
 10
158.6208
 20
-252.2609
  0
VERTEX
  8
LAYER_1
 10
158.5168
 20
-252.2609
  0
VERTEX
  8
LAYER_1
 10
158.5168
 20
-251.2339
  0
VERTEX
  8
LAYER_1
 10
158.8185
 20
-251.2339
  0
VERTEX
  8
LAYER_1
 10
158.9584
 20
-251.2481
 42
-0.1005953548
  0
VERTEX
  8
LAYER_1
 10
159.07
 20
-251.2953
 42
-0.1225647981
  0
VERTEX
  8
LAYER_1
 10
159.1438
 20
-251.38
 42
-0.1056037953
  0
VERTEX
  8
LAYER_1
 10
159.1696
 20
-251.5078
 42
-0.113550017
  0
VERTEX
  8
LAYER_1
 10
159.1493
 20
-251.6105
  0
VERTEX
  8
LAYER_1
 10
159.0945
 20
-251.6915
  0
VERTEX
  8
LAYER_1
 10
159.0111
 20
-251.7459
  0
VERTEX
  8
LAYER_1
 10
158.9067
 20
-251.7717
  0
VERTEX
  8
LAYER_1
 10
159.2075
 20
-252.2609
  0
VERTEX
  8
LAYER_1
 10
159.08
 20
-252.2609
  0
VERTEX
  8
LAYER_1
 10
158.7955
 20
-251.7803
  0
VERTEX
  8
LAYER_1
 10
158.6208
 20
-251.7803
  0
SEQEND
  0
POLYLINE
  8
LAYER_1
 40
0.05
 41
0.05
 66
1
 10
0
 20
0
 30
0
 70
1
  0
VERTEX
  8
LAYER_1
 10
158.6208
 20
-251.69
  0
VERTEX
  8
LAYER_1
 10
158.8027
 20
-251.69
 42
0.1507170359
  0
VERTEX
  8
LAYER_1
 10
158.9974
 20
-251.6453
 42
0.2579683273
  0
VERTEX
  8
LAYER_1
 10
159.0652
 20
-251.5078
  0
VERTEX
  8
LAYER_1
 10
159.047
 20
-251.4224
  0
VERTEX
  8
LAYER_1
 10
158.9943
 20
-251.3652
  0
VERTEX
  8
LAYER_1
 10
158.9123
 20
-251.3338
  0
VERTEX
  8
LAYER_1
 10
158.8065
 20
-251.3235
  0
VERTEX
  8
LAYER_1
 10
158.6208
 20
-251.3235
  0
SEQEND
  0
ENDBLK
  0
BLOCK
  8
LAYER_1
  2
AIGNBL0103001F
 70
64
 10
0
 20
0
 30
0
  3
AIGNBL0103001F
  0
POLYLINE
  8
LAYER_1
 40
0.05
 41
0.05
 66
1
 10
0
 20
0
 30
0
 70
1
  0
VERTEX
  8
LAYER_1
 10
159.6898
 20
-252.2609
  0
VERTEX
  8
LAYER_1
 10
159.5865
 20
-252.2609
  0
VERTEX
  8
LAYER_1
 10
159.5865
 20
-251.2339
  0
VERTEX
  8
LAYER_1
 10
159.6898
 20
-251.2339
  0
SEQEND
  0
ENDBLK
  0
BLOCK
  8
LAYER_1
  2
AIGNBL01030020
 70
64
 10
0
 20
0
 30
0
  3
AIGNBL01030020
  0
POLYLINE
  8
LAYER_1
 40
0.05
 41
0.05
 66
1
 10
0
 20
0
 30
0
 70
1
  0
VERTEX
  8
LAYER_1
 10
160.2676
 20
-252.1676
  0
VERTEX
  8
LAYER_1
 10
160.8174
 20
-252.1676
  0
VERTEX
  8
LAYER_1
 10
160.8174
 20
-252.2609
  0
VERTEX
  8
LAYER_1
 10
160.1639
 20
-252.2609
  0
VERTEX
  8
LAYER_1
 10
160.1639
 20
-251.2339
  0
VERTEX
  8
LAYER_1
 10
160.8005
 20
-251.2339
  0
VERTEX
  8
LAYER_1
 10
160.8005
 20
-251.3263
  0
VERTEX
  8
LAYER_1
 10
160.2676
 20
-251.3263
  0
VERTEX
  8
LAYER_1
 10
160.2676
 20
-251.6787
  0
VERTEX
  8
LAYER_1
 10
160.7654
 20
-251.6787
  0
VERTEX
  8
LAYER_1
 10
160.7654
 20
-251.7717
  0
VERTEX
  8
LAYER_1
 10
160.2676
 20
-251.7717
  0
SEQEND
  0
ENDBLK
  0
BLOCK
  8
LAYER_1
  2
AIGNBL01030021
 70
64
 10
0
 20
0
 30
0
  3
AIGNBL01030021
  0
POLYLINE
  8
LAYER_1
 40
0.05
 41
0.05
 66
1
 10
0
 20
0
 30
0
 70
1
  0
VERTEX
  8
LAYER_1
 10
161.9505
 20
-252.1079
  0
VERTEX
  8
LAYER_1
 10
161.9536
 20
-252.1079
  0
VERTEX
  8
LAYER_1
 10
161.9536
 20
-251.2339
  0
VERTEX
  8
LAYER_1
 10
162.058
 20
-251.2339
  0
VERTEX
  8
LAYER_1
 10
162.058
 20
-252.2609
  0
VERTEX
  8
LAYER_1
 10
161.9277
 20
-252.2609
  0
VERTEX
  8
LAYER_1
 10
161.3297
 20
-251.3772
  0
VERTEX
  8
LAYER_1
 10
161.3266
 20
-251.3772
  0
VERTEX
  8
LAYER_1
 10
161.3266
 20
-252.2609
  0
VERTEX
  8
LAYER_1
 10
161.2222
 20
-252.2609
  0
VERTEX
  8
LAYER_1
 10
161.2222
 20
-251.2339
  0
VERTEX
  8
LAYER_1
 10
161.3535
 20
-251.2339
  0
SEQEND
  0
ENDBLK
  0
BLOCK
  8
LAYER_1
  2
AIGNBL01030022
 70
64
 10
0
 20
0
 30
0
  3
AIGNBL01030022
  0
POLYLINE
  8
LAYER_1
 40
0.05
 41
0.05
 66
1
 10
0
 20
0
 30
0
 70
1
  0
VERTEX
  8
LAYER_1
 10
163.396
 20
-252.0942
  0
VERTEX
  8
LAYER_1
 10
163.3323
 20
-252.1679
  0
VERTEX
  8
LAYER_1
 10
163.2469
 20
-252.2295
  0
VERTEX
  8
LAYER_1
 10
163.1394
 20
-252.2716
  0
VERTEX
  8
LAYER_1
 10
163.0112
 20
-252.2868
 42
-0.09929103144
  0
VERTEX
  8
LAYER_1
 10
162.7966
 20
-252.2461
 42
-0.1031170142
  0
VERTEX
  8
LAYER_1
 10
162.6271
 20
-252.1335
 42
-0.1024256256
  0
VERTEX
  8
LAYER_1
 10
162.5162
 20
-251.9633
 42
-0.09780652729
  0
VERTEX
  8
LAYER_1
 10
162.4759
 20
-251.7469
 42
-0.1005543907
  0
VERTEX
  8
LAYER_1
 10
162.5169
 20
-251.5306
 42
-0.09980539098
  0
VERTEX
  8
LAYER_1
 10
162.6285
 20
-251.3604
 42
-0.09707816065
  0
VERTEX
  8
LAYER_1
 10
162.798
 20
-251.2481
 42
-0.09782536185
  0
VERTEX
  8
LAYER_1
 10
163.0112
 20
-251.2071
  0
VERTEX
  8
LAYER_1
 10
163.1222
 20
-251.2191
  0
VERTEX
  8
LAYER_1
 10
163.2252
 20
-251.2522
  0
VERTEX
  8
LAYER_1
 10
163.3117
 20
-251.3035
  0
VERTEX
  8
LAYER_1
 10
163.3767
 20
-251.3711
  0
VERTEX
  8
LAYER_1
 10
163.2906
 20
-251.4355
  0
VERTEX
  8
LAYER_1
 10
163.2469
 20
-251.3858
  0
VERTEX
  8
LAYER_1
 10
163.1835
 20
-251.3421
  0
VERTEX
  8
LAYER_1
 10
163.1043
 20
-251.3114
  0
VERTEX
  8
LAYER_1
 10
163.0126
 20
-251.3001
 42
0.111032742
  0
VERTEX
  8
LAYER_1
 10
162.8338
 20
-251.3362
 42
0.1048566985
  0
VERTEX
  8
LAYER_1
 10
162.6998
 20
-251.4338
 42
0.09649516609
  0
VERTEX
  8
LAYER_1
 10
162.6147
 20
-251.5764
 42
0.08187604402
  0
VERTEX
  8
LAYER_1
 10
162.5868
 20
-251.7469
 42
0.09351376633
  0
VERTEX
  8
LAYER_1
 10
162.6164
 20
-251.9178
 42
0.09951767869
  0
VERTEX
  8
LAYER_1
 10
162.7012
 20
-252.0601
 42
0.1063497227
  0
VERTEX
  8
LAYER_1
 10
162.8356
 20
-252.1575
 42
0.1081437471
  0
VERTEX
  8
LAYER_1
 10
163.0126
 20
-252.1937
 42
0.1144963135
  0
VERTEX
  8
LAYER_1
 10
163.1804
 20
-252.1575
 42
0.1351211567
  0
VERTEX
  8
LAYER_1
 10
163.3148
 20
-252.0414
  0
SEQEND
  0
ENDBLK
  0
BLOCK
  8
LAYER_1
  2
AIGNBL01030023
 70
64
 10
0
 20
0
 30
0
  3
AIGNBL01030023
  0
POLYLINE
  8
LAYER_1
 40
0.05
 41
0.05
 66
1
 10
0
 20
0
 30
0
 70
1
  0
VERTEX
  8
LAYER_1
 10
163.8801
 20
-252.1676
  0
VERTEX
  8
LAYER_1
 10
164.4299
 20
-252.1676
  0
VERTEX
  8
LAYER_1
 10
164.4299
 20
-252.2609
  0
VERTEX
  8
LAYER_1
 10
163.7764
 20
-252.2609
  0
VERTEX
  8
LAYER_1
 10
163.7764
 20
-251.2339
  0
VERTEX
  8
LAYER_1
 10
164.4127
 20
-251.2339
  0
VERTEX
  8
LAYER_1
 10
164.4127
 20
-251.3263
  0
VERTEX
  8
LAYER_1
 10
163.8801
 20
-251.3263
  0
VERTEX
  8
LAYER_1
 10
163.8801
 20
-251.6787
  0
VERTEX
  8
LAYER_1
 10
164.3782
 20
-251.6787
  0
VERTEX
  8
LAYER_1
 10
164.3782
 20
-251.7717
  0
VERTEX
  8
LAYER_1
 10
163.8801
 20
-251.7717
  0
SEQEND
  0
ENDBLK
  0
BLOCK
  8
LAYER_1
  2
AIGNBL01020003
 70
64
 10
0
 20
0
 30
0
  3
AIGNBL01020003
  0
INSERT
  8
LAYER_1
  2
AIGNBL01030004
 10
0
 20
0
 30
0
  0
ENDBLK
  0
BLOCK
  8
LAYER_1
  2
AIGNBL0102000C
 70
64
 10
0
 20
0
 30
0
  3
AIGNBL0102000C
  0
INSERT
  8
LAYER_1
  2
AIGNBL0103000D
 10
0
 20
0
 30
0
  0
INSERT
  8
LAYER_1
  2
AIGNBL0103000E
 10
0
 20
0
 30
0
  0
INSERT
  8
LAYER_1
  2
AIGNBL0103000F
 10
0
 20
0
 30
0
  0
INSERT
  8
LAYER_1
  2
AIGNBL01030010
 10
0
 20
0
 30
0
  0
INSERT
  8
LAYER_1
  2
AIGNBL01030011
 10
0
 20
0
 30
0
  0
INSERT
  8
LAYER_1
  2
AIGNBL01030012
 10
0
 20
0
 30
0
  0
INSERT
  8
LAYER_1
  2
AIGNBL01030013
 10
0
 20
0
 30
0
  0
INSERT
  8
LAYER_1
  2
AIGNBL01030014
 10
0
 20
0
 30
0
  0
INSERT
  8
LAYER_1
  2
AIGNBL01030015
 10
0
 20
0
 30
0
  0
INSERT
  8
LAYER_1
  2
AIGNBL01030016
 10
0
 20
0
 30
0
  0
INSERT
  8
LAYER_1
  2
AIGNBL01030017
 10
0
 20
0
 30
0
  0
INSERT
  8
LAYER_1
  2
AIGNBL01030018
 10
0
 20
0
 30
0
  0
INSERT
  8
LAYER_1
  2
AIGNBL01030019
 10
0
 20
0
 30
0
  0
INSERT
  8
LAYER_1
  2
AIGNBL0103001A
 10
0
 20
0
 30
0
  0
INSERT
  8
LAYER_1
  2
AIGNBL0103001B
 10
0
 20
0
 30
0
  0
INSERT
  8
LAYER_1
  2
AIGNBL0103001C
 10
0
 20
0
 30
0
  0
INSERT
  8
LAYER_1
  2
AIGNBL0103001D
 10
0
 20
0
 30
0
  0
INSERT
  8
LAYER_1
  2
AIGNBL0103001E
 10
0
 20
0
 30
0
  0
INSERT
  8
LAYER_1
  2
AIGNBL0103001F
 10
0
 20
0
 30
0
  0
INSERT
  8
LAYER_1
  2
AIGNBL01030020
 10
0
 20
0
 30
0
  0
INSERT
  8
LAYER_1
  2
AIGNBL01030021
 10
0
 20
0
 30
0
  0
INSERT
  8
LAYER_1
  2
AIGNBL01030022
 10
0
 20
0
 30
0
  0
INSERT
  8
LAYER_1
  2
AIGNBL01030023
 10
0
 20
0
 30
0
  0
ENDBLK
  0
BLOCK
  8
LAYER_1
  2
AIGNBL01010002
 70
64
 10
0
 20
0
 30
0
  3
AIGNBL01010002
  0
INSERT
  8
LAYER_1
  2
AIGNBL01020003
 10
0
 20
0
 30
0
  0
INSERT
  8
LAYER_1
  2
AIGNBL0102000C
 10
0
 20
0
 30
0
  0
ENDBLK
  0
BLOCK
  8
LAYER_3
  2
AIGNBL03010002
 70
64
 10
0
 20
0
 30
0
  3
AIGNBL03010002
  0
POLYLINE
  8
LAYER_3
 40
0.1058
 41
0.1058
 66
1
 10
0
 20
0
 30
0
  0
VERTEX
  8
LAYER_3
 10
80.86
 20
-77.5533
  0
VERTEX
  8
LAYER_3
 10
79.6426
 20
-77.3517
  0
SEQEND
  0
ENDBLK
  0
BLOCK
  8
LAYER_3
  2
AIGNBL03010003
 70
64
 10
0
 20
0
 30
0
  3
AIGNBL03010003
  0
POLYLINE
  8
LAYER_3
 40
0.1058
 41
0.1058
 66
1
 10
0
 20
0
 30
0
  0
VERTEX
  8
LAYER_3
 10
79.6426
 20
-77.3517
  0
VERTEX
  8
LAYER_3
 10
80.86
 20
-77.1501
  0
SEQEND
  0
ENDBLK
  0
BLOCK
  8
LAYER_3
  2
AIGNBL03010004
 70
64
 10
0
 20
0
 30
0
  3
AIGNBL03010004
  0
POLYLINE
  8
LAYER_3
 40
0.1058
 41
0.1058
 66
1
 10
0
 20
0
 30
0
  0
VERTEX
  8
LAYER_3
 10
79.6426
 20
-77.3517
  0
VERTEX
  8
LAYER_3
 10
80.86
 20
-77.3517
  0
SEQEND
  0
ENDBLK
  0
BLOCK
  8
LAYER_3
  2
AIGNBL03010005
 70
64
 10
0
 20
0
 30
0
  3
AIGNBL03010005
  0
POLYLINE
  8
LAYER_3
 40
0.1058
 41
0.1058
 66
1
 10
0
 20
0
 30
0
  0
VERTEX
  8
LAYER_3
 10
82.5447
 20
-77.1501
  0
VERTEX
  8
LAYER_3
 10
83.7622
 20
-77.3517
  0
SEQEND
  0
ENDBLK
  0
BLOCK
  8
LAYER_3
  2
AIGNBL03010006
 70
64
 10
0
 20
0
 30
0
  3
AIGNBL03010006
  0
POLYLINE
  8
LAYER_3
 40
0.1058
 41
0.1058
 66
1
 10
0
 20
0
 30
0
  0
VERTEX
  8
LAYER_3
 10
83.7622
 20
-77.3517
  0
VERTEX
  8
LAYER_3
 10
82.5447
 20
-77.5533
  0
SEQEND
  0
ENDBLK
  0
BLOCK
  8
LAYER_3
  2
AIGNBL03010007
 70
64
 10
0
 20
0
 30
0
  3
AIGNBL03010007
  0
POLYLINE
  8
LAYER_3
 40
0.1058
 41
0.1058
 66
1
 10
0
 20
0
 30
0
  0
VERTEX
  8
LAYER_3
 10
83.7622
 20
-77.3517
  0
VERTEX
  8
LAYER_3
 10
82.5447
 20
-77.3517
  0
SEQEND
  0
ENDBLK
  0
BLOCK
  8
LAYER_3
  2
AIGNBL03010008
 70
64
 10
0
 20
0
 30
0
  3
AIGNBL03010008
  0
POLYLINE
  8
LAYER_3
 40
0.1058
 41
0.1058
 66
1
 10
0
 20
0
 30
0
  0
VERTEX
  8
LAYER_3
 10
153.2136
 20
-45.6213
  0
VERTEX
  8
LAYER_3
 10
154.4297
 20
-45.8218
  0
SEQEND
  0
ENDBLK
  0
BLOCK
  8
LAYER_3
  2
AIGNBL03010009
 70
64
 10
0
 20
0
 30
0
  3
AIGNBL03010009
  0
POLYLINE
  8
LAYER_3
 40
0.1058
 41
0.1058
 66
1
 10
0
 20
0
 30
0
  0
VERTEX
  8
LAYER_3
 10
154.4297
 20
-45.8218
  0
VERTEX
  8
LAYER_3
 10
153.2136
 20
-46.0273
  0
SEQEND
  0
ENDBLK
  0
BLOCK
  8
LAYER_3
  2
AIGNBL0301000A
 70
64
 10
0
 20
0
 30
0
  3
AIGNBL0301000A
  0
POLYLINE
  8
LAYER_3
 40
0.1058
 41
0.1058
 66
1
 10
0
 20
0
 30
0
  0
VERTEX
  8
LAYER_3
 10
154.4297
 20
-45.8218
  0
VERTEX
  8
LAYER_3
 10
153.2136
 20
-45.8218
  0
SEQEND
  0
ENDBLK
  0
BLOCK
  8
LAYER_3
  2
AIGNBL0301000B
 70
64
 10
0
 20
0
 30
0
  3
AIGNBL0301000B
  0
POLYLINE
  8
LAYER_3
 40
0.1058
 41
0.1058
 66
1
 10
0
 20
0
 30
0
  0
VERTEX
  8
LAYER_3
 10
131.5836
 20
-46.0273
  0
VERTEX
  8
LAYER_3
 10
130.3662
 20
-45.8218
  0
SEQEND
  0
ENDBLK
  0
BLOCK
  8
LAYER_3
  2
AIGNBL0301000C
 70
64
 10
0
 20
0
 30
0
  3
AIGNBL0301000C
  0
POLYLINE
  8
LAYER_3
 40
0.1058
 41
0.1058
 66
1
 10
0
 20
0
 30
0
  0
VERTEX
  8
LAYER_3
 10
130.3662
 20
-45.8218
  0
VERTEX
  8
LAYER_3
 10
131.5836
 20
-45.6213
  0
SEQEND
  0
ENDBLK
  0
BLOCK
  8
LAYER_3
  2
AIGNBL0301000D
 70
64
 10
0
 20
0
 30
0
  3
AIGNBL0301000D
  0
POLYLINE
  8
LAYER_3
 40
0.1058
 41
0.1058
 66
1
 10
0
 20
0
 30
0
  0
VERTEX
  8
LAYER_3
 10
130.3662
 20
-45.8218
  0
VERTEX
  8
LAYER_3
 10
131.5836
 20
-45.8218
  0
SEQEND
  0
ENDBLK
  0
BLOCK
  8
LAYER_3
  2
AIGNBL0301000E
 70
64
 10
0
 20
0
 30
0
  3
AIGNBL0301000E
  0
POLYLINE
  8
LAYER_3
 40
0.1058
 41
0.1058
 66
1
 10
0
 20
0
 30
0
  0
VERTEX
  8
LAYER_3
 10
72.9853
 20
-53.5311
  0
VERTEX
  8
LAYER_3
 10
73.1858
 20
-52.3136
  0
SEQEND
  0
ENDBLK
  0
BLOCK
  8
LAYER_3
  2
AIGNBL0301000F
 70
64
 10
0
 20
0
 30
0
  3
AIGNBL0301000F
  0
POLYLINE
  8
LAYER_3
 40
0.1058
 41
0.1058
 66
1
 10
0
 20
0
 30
0
  0
VERTEX
  8
LAYER_3
 10
73.1858
 20
-52.3136
  0
VERTEX
  8
LAYER_3
 10
73.39
 20
-53.5311
  0
SEQEND
  0
ENDBLK
  0
BLOCK
  8
LAYER_3
  2
AIGNBL03010010
 70
64
 10
0
 20
0
 30
0
  3
AIGNBL03010010
  0
POLYLINE
  8
LAYER_3
 40
0.1058
 41
0.1058
 66
1
 10
0
 20
0
 30
0
  0
VERTEX
  8
LAYER_3
 10
73.1858
 20
-52.3136
  0
VERTEX
  8
LAYER_3
 10
73.1858
 20
-53.5311
  0
SEQEND
  0
ENDBLK
  0
BLOCK
  8
LAYER_3
  2
AIGNBL03010011
 70
64
 10
0
 20
0
 30
0
  3
AIGNBL03010011
  0
POLYLINE
  8
LAYER_3
 40
0.1058
 41
0.1058
 66
1
 10
0
 20
0
 30
0
  0
VERTEX
  8
LAYER_3
 10
73.39
 20
-97.3796
  0
VERTEX
  8
LAYER_3
 10
73.1858
 20
-98.5958
  0
SEQEND
  0
ENDBLK
  0
BLOCK
  8
LAYER_3
  2
AIGNBL03010012
 70
64
 10
0
 20
0
 30
0
  3
AIGNBL03010012
  0
POLYLINE
  8
LAYER_3
 40
0.1058
 41
0.1058
 66
1
 10
0
 20
0
 30
0
  0
VERTEX
  8
LAYER_3
 10
73.1858
 20
-98.5958
  0
VERTEX
  8
LAYER_3
 10
72.9853
 20
-97.3796
  0
SEQEND
  0
ENDBLK
  0
BLOCK
  8
LAYER_3
  2
AIGNBL03010013
 70
64
 10
0
 20
0
 30
0
  3
AIGNBL03010013
  0
POLYLINE
  8
LAYER_3
 40
0.1058
 41
0.1058
 66
1
 10
0
 20
0
 30
0
  0
VERTEX
  8
LAYER_3
 10
73.1858
 20
-98.5958
  0
VERTEX
  8
LAYER_3
 10
73.1858
 20
-97.3796
  0
SEQEND
  0
ENDBLK
  0
BLOCK
  8
LAYER_3
  2
AIGNBL03010014
 70
64
 10
0
 20
0
 30
0
  3
AIGNBL03010014
  0
POLYLINE
  8
LAYER_3
 40
0.1058
 41
0.1058
 66
1
 10
0
 20
0
 30
0
  0
VERTEX
  8
LAYER_3
 10
121.6211
 20
-97.3771
  0
VERTEX
  8
LAYER_3
 10
121.4156
 20
-98.5933
  0
SEQEND
  0
ENDBLK
  0
BLOCK
  8
LAYER_3
  2
AIGNBL03010015
 70
64
 10
0
 20
0
 30
0
  3
AIGNBL03010015
  0
POLYLINE
  8
LAYER_3
 40
0.1058
 41
0.1058
 66
1
 10
0
 20
0
 30
0
  0
VERTEX
  8
LAYER_3
 10
121.4156
 20
-98.5933
  0
VERTEX
  8
LAYER_3
 10
121.214
 20
-97.3771
  0
SEQEND
  0
ENDBLK
  0
BLOCK
  8
LAYER_3
  2
AIGNBL03010016
 70
64
 10
0
 20
0
 30
0
  3
AIGNBL03010016
  0
POLYLINE
  8
LAYER_3
 40
0.1058
 41
0.1058
 66
1
 10
0
 20
0
 30
0
  0
VERTEX
  8
LAYER_3
 10
121.4156
 20
-98.5933
  0
VERTEX
  8
LAYER_3
 10
121.4156
 20
-97.3771
  0
SEQEND
  0
ENDBLK
  0
BLOCK
  8
LAYER_3
  2
AIGNBL03010017
 70
64
 10
0
 20
0
 30
0
  3
AIGNBL03010017
  0
POLYLINE
  8
LAYER_3
 40
0.1058
 41
0.1058
 66
1
 10
0
 20
0
 30
0
  0
VERTEX
  8
LAYER_3
 10
121.214
 20
-68.0379
  0
VERTEX
  8
LAYER_3
 10
121.4156
 20
-66.8205
  0
SEQEND
  0
ENDBLK
  0
BLOCK
  8
LAYER_3
  2
AIGNBL03010018
 70
64
 10
0
 20
0
 30
0
  3
AIGNBL03010018
  0
POLYLINE
  8
LAYER_3
 40
0.1058
 41
0.1058
 66
1
 10
0
 20
0
 30
0
  0
VERTEX
  8
LAYER_3
 10
121.4156
 20
-66.8205
  0
VERTEX
  8
LAYER_3
 10
121.6211
 20
-68.0379
  0
SEQEND
  0
ENDBLK
  0
BLOCK
  8
LAYER_3
  2
AIGNBL03010019
 70
64
 10
0
 20
0
 30
0
  3
AIGNBL03010019
  0
POLYLINE
  8
LAYER_3
 40
0.1058
 41
0.1058
 66
1
 10
0
 20
0
 30
0
  0
VERTEX
  8
LAYER_3
 10
121.4156
 20
-66.8205
  0
VERTEX
  8
LAYER_3
 10
121.4156
 20
-68.0379
  0
SEQEND
  0
ENDBLK
  0
BLOCK
  8
LAYER_3
  2
AIGNBL0301001A
 70
64
 10
0
 20
0
 30
0
  3
AIGNBL0301001A
  0
POLYLINE
  8
LAYER_3
 40
0.1058
 41
0.1058
 66
1
 10
0
 20
0
 30
0
  0
VERTEX
  8
LAYER_3
 10
121.214
 20
-99.8107
  0
VERTEX
  8
LAYER_3
 10
121.4156
 20
-98.5933
  0
SEQEND
  0
ENDBLK
  0
BLOCK
  8
LAYER_3
  2
AIGNBL0301001B
 70
64
 10
0
 20
0
 30
0
  3
AIGNBL0301001B
  0
POLYLINE
  8
LAYER_3
 40
0.1058
 41
0.1058
 66
1
 10
0
 20
0
 30
0
  0
VERTEX
  8
LAYER_3
 10
121.4156
 20
-98.5933
  0
VERTEX
  8
LAYER_3
 10
121.6211
 20
-99.8107
  0
SEQEND
  0
ENDBLK
  0
BLOCK
  8
LAYER_3
  2
AIGNBL0301001C
 70
64
 10
0
 20
0
 30
0
  3
AIGNBL0301001C
  0
POLYLINE
  8
LAYER_3
 40
0.1058
 41
0.1058
 66
1
 10
0
 20
0
 30
0
  0
VERTEX
  8
LAYER_3
 10
121.4156
 20
-98.5933
  0
VERTEX
  8
LAYER_3
 10
121.4156
 20
-99.8107
  0
SEQEND
  0
ENDBLK
  0
BLOCK
  8
LAYER_3
  2
AIGNBL0301001D
 70
64
 10
0
 20
0
 30
0
  3
AIGNBL0301001D
  0
POLYLINE
  8
LAYER_3
 40
0.1058
 41
0.1058
 66
1
 10
0
 20
0
 30
0
  0
VERTEX
  8
LAYER_3
 10
121.6211
 20
-104.7557
  0
VERTEX
  8
LAYER_3
 10
121.4156
 20
-105.9707
  0
SEQEND
  0
ENDBLK
  0
BLOCK
  8
LAYER_3
  2
AIGNBL0301001E
 70
64
 10
0
 20
0
 30
0
  3
AIGNBL0301001E
  0
POLYLINE
  8
LAYER_3
 40
0.1058
 41
0.1058
 66
1
 10
0
 20
0
 30
0
  0
VERTEX
  8
LAYER_3
 10
121.4156
 20
-105.9707
  0
VERTEX
  8
LAYER_3
 10
121.214
 20
-104.7557
  0
SEQEND
  0
ENDBLK
  0
BLOCK
  8
LAYER_3
  2
AIGNBL0301001F
 70
64
 10
0
 20
0
 30
0
  3
AIGNBL0301001F
  0
POLYLINE
  8
LAYER_3
 40
0.1058
 41
0.1058
 66
1
 10
0
 20
0
 30
0
  0
VERTEX
  8
LAYER_3
 10
121.4156
 20
-105.9707
  0
VERTEX
  8
LAYER_3
 10
121.4156
 20
-104.7557
  0
SEQEND
  0
ENDBLK
  0
BLOCK
  8
LAYER_3
  2
AIGNBL03010020
 70
64
 10
0
 20
0
 30
0
  3
AIGNBL03010020
  0
POLYLINE
  8
LAYER_3
 40
0.1058
 41
0.1058
 66
1
 10
0
 20
0
 30
0
  0
VERTEX
  8
LAYER_3
 10
153.2136
 20
-74.05
  0
VERTEX
  8
LAYER_3
 10
154.4297
 20
-74.2504
  0
SEQEND
  0
ENDBLK
  0
BLOCK
  8
LAYER_3
  2
AIGNBL03010021
 70
64
 10
0
 20
0
 30
0
  3
AIGNBL03010021
  0
POLYLINE
  8
LAYER_3
 40
0.1058
 41
0.1058
 66
1
 10
0
 20
0
 30
0
  0
VERTEX
  8
LAYER_3
 10
154.4297
 20
-74.2504
  0
VERTEX
  8
LAYER_3
 10
153.2136
 20
-74.4559
  0
SEQEND
  0
ENDBLK
  0
BLOCK
  8
LAYER_3
  2
AIGNBL03010022
 70
64
 10
0
 20
0
 30
0
  3
AIGNBL03010022
  0
POLYLINE
  8
LAYER_3
 40
0.1058
 41
0.1058
 66
1
 10
0
 20
0
 30
0
  0
VERTEX
  8
LAYER_3
 10
154.4297
 20
-74.2504
  0
VERTEX
  8
LAYER_3
 10
153.2136
 20
-74.2504
  0
SEQEND
  0
ENDBLK
  0
BLOCK
  8
LAYER_3
  2
AIGNBL03010023
 70
64
 10
0
 20
0
 30
0
  3
AIGNBL03010023
  0
POLYLINE
  8
LAYER_3
 40
0.1058
 41
0.1058
 66
1
 10
0
 20
0
 30
0
  0
VERTEX
  8
LAYER_3
 10
133.9847
 20
-74.4559
  0
VERTEX
  8
LAYER_3
 10
132.7686
 20
-74.2504
  0
SEQEND
  0
ENDBLK
  0
BLOCK
  8
LAYER_3
  2
AIGNBL03010024
 70
64
 10
0
 20
0
 30
0
  3
AIGNBL03010024
  0
POLYLINE
  8
LAYER_3
 40
0.1058
 41
0.1058
 66
1
 10
0
 20
0
 30
0
  0
VERTEX
  8
LAYER_3
 10
132.7686
 20
-74.2504
  0
VERTEX
  8
LAYER_3
 10
133.9847
 20
-74.05
  0
SEQEND
  0
ENDBLK
  0
BLOCK
  8
LAYER_3
  2
AIGNBL03010025
 70
64
 10
0
 20
0
 30
0
  3
AIGNBL03010025
  0
POLYLINE
  8
LAYER_3
 40
0.1058
 41
0.1058
 66
1
 10
0
 20
0
 30
0
  0
VERTEX
  8
LAYER_3
 10
132.7686
 20
-74.2504
  0
VERTEX
  8
LAYER_3
 10
133.9847
 20
-74.2504
  0
SEQEND
  0
ENDBLK
  0
BLOCK
  8
LAYER_3
  2
AIGNBL03010026
 70
64
 10
0
 20
0
 30
0
  3
AIGNBL03010026
  0
POLYLINE
  8
LAYER_3
 40
0.1058
 41
0.1058
 66
1
 10
0
 20
0
 30
0
  0
VERTEX
  8
LAYER_3
 10
126.1691
 20
-78.122
  0
VERTEX
  8
LAYER_3
 10
127.1523
 20
-78.8672
  0
SEQEND
  0
ENDBLK
  0
BLOCK
  8
LAYER_3
  2
AIGNBL03010027
 70
64
 10
0
 20
0
 30
0
  3
AIGNBL03010027
  0
POLYLINE
  8
LAYER_3
 40
0.1058
 41
0.1058
 66
1
 10
0
 20
0
 30
0
  0
VERTEX
  8
LAYER_3
 10
127.1523
 20
-78.8672
  0
VERTEX
  8
LAYER_3
 10
125.9798
 20
-78.4802
  0
SEQEND
  0
ENDBLK
  0
BLOCK
  8
LAYER_3
  2
AIGNBL03010028
 70
64
 10
0
 20
0
 30
0
  3
AIGNBL03010028
  0
POLYLINE
  8
LAYER_3
 40
0.1058
 41
0.1058
 66
1
 10
0
 20
0
 30
0
  0
VERTEX
  8
LAYER_3
 10
127.1523
 20
-78.8672
  0
VERTEX
  8
LAYER_3
 10
126.075
 20
-78.3011
  0
SEQEND
  0
ENDBLK
  0
BLOCK
  8
LAYER_3
  2
AIGNBL03010029
 70
64
 10
0
 20
0
 30
0
  3
AIGNBL03010029
  0
POLYLINE
  8
LAYER_3
 40
0.1058
 41
0.1058
 66
1
 10
0
 20
0
 30
0
  0
VERTEX
  8
LAYER_3
 10
133.9936
 20
-80.2588
  0
VERTEX
  8
LAYER_3
 10
132.7686
 20
-80.1123
  0
SEQEND
  0
ENDBLK
  0
BLOCK
  8
LAYER_3
  2
AIGNBL0301002A
 70
64
 10
0
 20
0
 30
0
  3
AIGNBL0301002A
  0
POLYLINE
  8
LAYER_3
 40
0.1058
 41
0.1058
 66
1
 10
0
 20
0
 30
0
  0
VERTEX
  8
LAYER_3
 10
132.7686
 20
-80.1123
  0
VERTEX
  8
LAYER_3
 10
133.9773
 20
-79.8543
  0
SEQEND
  0
ENDBLK
  0
BLOCK
  8
LAYER_3
  2
AIGNBL0301002B
 70
64
 10
0
 20
0
 30
0
  3
AIGNBL0301002B
  0
POLYLINE
  8
LAYER_3
 40
0.1058
 41
0.1058
 66
1
 10
0
 20
0
 30
0
  0
VERTEX
  8
LAYER_3
 10
132.7686
 20
-80.1123
  0
VERTEX
  8
LAYER_3
 10
133.9847
 20
-80.0546
  0
SEQEND
  0
ENDBLK
  0
BLOCK
  8
LAYER_3
  2
AIGNBL0301002C
 70
64
 10
0
 20
0
 30
0
  3
AIGNBL0301002C
  0
POLYLINE
  8
LAYER_3
 40
0.1058
 41
0.1058
 66
1
 10
0
 20
0
 30
0
  0
VERTEX
  8
LAYER_3
 10
141.7417
 20
-99.8107
  0
VERTEX
  8
LAYER_3
 10
141.9433
 20
-98.5933
  0
SEQEND
  0
ENDBLK
  0
BLOCK
  8
LAYER_3
  2
AIGNBL0301002D
 70
64
 10
0
 20
0
 30
0
  3
AIGNBL0301002D
  0
POLYLINE
  8
LAYER_3
 40
0.1058
 41
0.1058
 66
1
 10
0
 20
0
 30
0
  0
VERTEX
  8
LAYER_3
 10
141.9433
 20
-98.5933
  0
VERTEX
  8
LAYER_3
 10
142.145
 20
-99.8107
  0
SEQEND
  0
ENDBLK
  0
BLOCK
  8
LAYER_3
  2
AIGNBL0301002E
 70
64
 10
0
 20
0
 30
0
  3
AIGNBL0301002E
  0
POLYLINE
  8
LAYER_3
 40
0.1058
 41
0.1058
 66
1
 10
0
 20
0
 30
0
  0
VERTEX
  8
LAYER_3
 10
141.9433
 20
-98.5933
  0
VERTEX
  8
LAYER_3
 10
141.9433
 20
-99.8107
  0
SEQEND
  0
ENDBLK
  0
BLOCK
  8
LAYER_3
  2
AIGNBL0301002F
 70
64
 10
0
 20
0
 30
0
  3
AIGNBL0301002F
  0
POLYLINE
  8
LAYER_3
 40
0.1058
 41
0.1058
 66
1
 10
0
 20
0
 30
0
  0
VERTEX
  8
LAYER_3
 10
142.145
 20
-101.6746
  0
VERTEX
  8
LAYER_3
 10
141.9433
 20
-102.8907
  0
SEQEND
  0
ENDBLK
  0
BLOCK
  8
LAYER_3
  2
AIGNBL03010030
 70
64
 10
0
 20
0
 30
0
  3
AIGNBL03010030
  0
POLYLINE
  8
LAYER_3
 40
0.1058
 41
0.1058
 66
1
 10
0
 20
0
 30
0
  0
VERTEX
  8
LAYER_3
 10
141.9433
 20
-102.8907
  0
VERTEX
  8
LAYER_3
 10
141.7417
 20
-101.6746
  0
SEQEND
  0
ENDBLK
  0
BLOCK
  8
LAYER_3
  2
AIGNBL03010031
 70
64
 10
0
 20
0
 30
0
  3
AIGNBL03010031
  0
POLYLINE
  8
LAYER_3
 40
0.1058
 41
0.1058
 66
1
 10
0
 20
0
 30
0
  0
VERTEX
  8
LAYER_3
 10
141.9433
 20
-102.8907
  0
VERTEX
  8
LAYER_3
 10
141.9433
 20
-101.6746
  0
SEQEND
  0
ENDBLK
  0
BLOCK
  8
LAYER_3
  2
AIGNBL03010032
 70
64
 10
0
 20
0
 30
0
  3
AIGNBL03010032
  0
POLYLINE
  8
LAYER_3
 40
0.1058
 41
0.1058
 66
1
 10
0
 20
0
 30
0
  0
VERTEX
  8
LAYER_3
 10
152.7302
 20
-171.1836
  0
VERTEX
  8
LAYER_3
 10
153.9437
 20
-171.3852
  0
SEQEND
  0
ENDBLK
  0
BLOCK
  8
LAYER_3
  2
AIGNBL03010033
 70
64
 10
0
 20
0
 30
0
  3
AIGNBL03010033
  0
POLYLINE
  8
LAYER_3
 40
0.1058
 41
0.1058
 66
1
 10
0
 20
0
 30
0
  0
VERTEX
  8
LAYER_3
 10
153.9437
 20
-171.3852
  0
VERTEX
  8
LAYER_3
 10
152.7302
 20
-171.5894
  0
SEQEND
  0
ENDBLK
  0
BLOCK
  8
LAYER_3
  2
AIGNBL03010034
 70
64
 10
0
 20
0
 30
0
  3
AIGNBL03010034
  0
POLYLINE
  8
LAYER_3
 40
0.1058
 41
0.1058
 66
1
 10
0
 20
0
 30
0
  0
VERTEX
  8
LAYER_3
 10
153.9437
 20
-171.3852
  0
VERTEX
  8
LAYER_3
 10
152.7302
 20
-171.3852
  0
SEQEND
  0
ENDBLK
  0
BLOCK
  8
LAYER_3
  2
AIGNBL03010035
 70
64
 10
0
 20
0
 30
0
  3
AIGNBL03010035
  0
POLYLINE
  8
LAYER_3
 40
0.1058
 41
0.1058
 66
1
 10
0
 20
0
 30
0
  0
VERTEX
  8
LAYER_3
 10
158.1599
 20
-171.5894
  0
VERTEX
  8
LAYER_3
 10
156.9449
 20
-171.3852
  0
SEQEND
  0
ENDBLK
  0
BLOCK
  8
LAYER_3
  2
AIGNBL03010036
 70
64
 10
0
 20
0
 30
0
  3
AIGNBL03010036
  0
POLYLINE
  8
LAYER_3
 40
0.1058
 41
0.1058
 66
1
 10
0
 20
0
 30
0
  0
VERTEX
  8
LAYER_3
 10
156.9449
 20
-171.3852
  0
VERTEX
  8
LAYER_3
 10
158.1599
 20
-171.1836
  0
SEQEND
  0
ENDBLK
  0
BLOCK
  8
LAYER_3
  2
AIGNBL03010037
 70
64
 10
0
 20
0
 30
0
  3
AIGNBL03010037
  0
POLYLINE
  8
LAYER_3
 40
0.1058
 41
0.1058
 66
1
 10
0
 20
0
 30
0
  0
VERTEX
  8
LAYER_3
 10
156.9449
 20
-171.3852
  0
VERTEX
  8
LAYER_3
 10
158.1599
 20
-171.3852
  0
SEQEND
  0
ENDBLK
  0
BLOCK
  8
LAYER_3
  2
AIGNBL03010038
 70
64
 10
0
 20
0
 30
0
  3
AIGNBL03010038
  0
POLYLINE
  8
LAYER_3
 40
0.1058
 41
0.1058
 66
1
 10
0
 20
0
 30
0
  0
VERTEX
  8
LAYER_3
 10
142.145
 20
-160.9254
  0
VERTEX
  8
LAYER_3
 10
141.9433
 20
-162.1416
  0
SEQEND
  0
ENDBLK
  0
BLOCK
  8
LAYER_3
  2
AIGNBL03010039
 70
64
 10
0
 20
0
 30
0
  3
AIGNBL03010039
  0
POLYLINE
  8
LAYER_3
 40
0.1058
 41
0.1058
 66
1
 10
0
 20
0
 30
0
  0
VERTEX
  8
LAYER_3
 10
141.9433
 20
-162.1416
  0
VERTEX
  8
LAYER_3
 10
141.7417
 20
-160.9254
  0
SEQEND
  0
ENDBLK
  0
BLOCK
  8
LAYER_3
  2
AIGNBL0301003A
 70
64
 10
0
 20
0
 30
0
  3
AIGNBL0301003A
  0
POLYLINE
  8
LAYER_3
 40
0.1058
 41
0.1058
 66
1
 10
0
 20
0
 30
0
  0
VERTEX
  8
LAYER_3
 10
141.9433
 20
-162.1416
  0
VERTEX
  8
LAYER_3
 10
141.9433
 20
-160.9254
  0
SEQEND
  0
ENDBLK
  0
BLOCK
  8
LAYER_3
  2
AIGNBL0301003B
 70
64
 10
0
 20
0
 30
0
  3
AIGNBL0301003B
  0
POLYLINE
  8
LAYER_3
 40
0.1058
 41
0.1058
 66
1
 10
0
 20
0
 30
0
  0
VERTEX
  8
LAYER_3
 10
141.7417
 20
-134.8151
  0
VERTEX
  8
LAYER_3
 10
141.9433
 20
-133.6002
  0
SEQEND
  0
ENDBLK
  0
BLOCK
  8
LAYER_3
  2
AIGNBL0301003C
 70
64
 10
0
 20
0
 30
0
  3
AIGNBL0301003C
  0
POLYLINE
  8
LAYER_3
 40
0.1058
 41
0.1058
 66
1
 10
0
 20
0
 30
0
  0
VERTEX
  8
LAYER_3
 10
141.9433
 20
-133.6002
  0
VERTEX
  8
LAYER_3
 10
142.145
 20
-134.8151
  0
SEQEND
  0
ENDBLK
  0
BLOCK
  8
LAYER_3
  2
AIGNBL0301003D
 70
64
 10
0
 20
0
 30
0
  3
AIGNBL0301003D
  0
POLYLINE
  8
LAYER_3
 40
0.1058
 41
0.1058
 66
1
 10
0
 20
0
 30
0
  0
VERTEX
  8
LAYER_3
 10
141.9433
 20
-133.6002
  0
VERTEX
  8
LAYER_3
 10
141.9433
 20
-134.8151
  0
SEQEND
  0
ENDBLK
  0
BLOCK
  8
LAYER_3
  2
AIGNBL0301003E
 70
64
 10
0
 20
0
 30
0
  3
AIGNBL0301003E
  0
POLYLINE
  8
LAYER_3
 40
0.1058
 41
0.1058
 66
1
 10
0
 20
0
 30
0
  0
VERTEX
  8
LAYER_3
 10
79.6739
 20
-171.1836
  0
VERTEX
  8
LAYER_3
 10
80.8901
 20
-171.3852
  0
SEQEND
  0
ENDBLK
  0
BLOCK
  8
LAYER_3
  2
AIGNBL0301003F
 70
64
 10
0
 20
0
 30
0
  3
AIGNBL0301003F
  0
POLYLINE
  8
LAYER_3
 40
0.1058
 41
0.1058
 66
1
 10
0
 20
0
 30
0
  0
VERTEX
  8
LAYER_3
 10
80.8901
 20
-171.3852
  0
VERTEX
  8
LAYER_3
 10
79.6739
 20
-171.5894
  0
SEQEND
  0
ENDBLK
  0
BLOCK
  8
LAYER_3
  2
AIGNBL03010040
 70
64
 10
0
 20
0
 30
0
  3
AIGNBL03010040
  0
POLYLINE
  8
LAYER_3
 40
0.1058
 41
0.1058
 66
1
 10
0
 20
0
 30
0
  0
VERTEX
  8
LAYER_3
 10
80.8901
 20
-171.3852
  0
VERTEX
  8
LAYER_3
 10
79.6739
 20
-171.3852
  0
SEQEND
  0
ENDBLK
  0
BLOCK
  8
LAYER_3
  2
AIGNBL03010041
 70
64
 10
0
 20
0
 30
0
  3
AIGNBL03010041
  0
POLYLINE
  8
LAYER_3
 40
0.1058
 41
0.1058
 66
1
 10
0
 20
0
 30
0
  0
VERTEX
  8
LAYER_3
 10
63.2145
 20
-171.5894
  0
VERTEX
  8
LAYER_3
 10
61.997
 20
-171.3852
  0
SEQEND
  0
ENDBLK
  0
BLOCK
  8
LAYER_3
  2
AIGNBL03010042
 70
64
 10
0
 20
0
 30
0
  3
AIGNBL03010042
  0
POLYLINE
  8
LAYER_3
 40
0.1058
 41
0.1058
 66
1
 10
0
 20
0
 30
0
  0
VERTEX
  8
LAYER_3
 10
61.997
 20
-171.3852
  0
VERTEX
  8
LAYER_3
 10
63.2145
 20
-171.1836
  0
SEQEND
  0
ENDBLK
  0
BLOCK
  8
LAYER_3
  2
AIGNBL03010043
 70
64
 10
0
 20
0
 30
0
  3
AIGNBL03010043
  0
POLYLINE
  8
LAYER_3
 40
0.1058
 41
0.1058
 66
1
 10
0
 20
0
 30
0
  0
VERTEX
  8
LAYER_3
 10
61.997
 20
-171.3852
  0
VERTEX
  8
LAYER_3
 10
63.2145
 20
-171.3852
  0
SEQEND
  0
ENDBLK
  0
BLOCK
  8
LAYER_3
  2
AIGNBL03010044
 70
64
 10
0
 20
0
 30
0
  3
AIGNBL03010044
  0
POLYLINE
  8
LAYER_3
 40
0.1058
 41
0.1058
 66
1
 10
0
 20
0
 30
0
  0
VERTEX
  8
LAYER_3
 10
55.7118
 20
-145.7948
  0
VERTEX
  8
LAYER_3
 10
55.5114
 20
-147.011
  0
SEQEND
  0
ENDBLK
  0
BLOCK
  8
LAYER_3
  2
AIGNBL03010045
 70
64
 10
0
 20
0
 30
0
  3
AIGNBL03010045
  0
POLYLINE
  8
LAYER_3
 40
0.1058
 41
0.1058
 66
1
 10
0
 20
0
 30
0
  0
VERTEX
  8
LAYER_3
 10
55.5114
 20
-147.011
  0
VERTEX
  8
LAYER_3
 10
55.3097
 20
-145.7948
  0
SEQEND
  0
ENDBLK
  0
BLOCK
  8
LAYER_3
  2
AIGNBL03010046
 70
64
 10
0
 20
0
 30
0
  3
AIGNBL03010046
  0
POLYLINE
  8
LAYER_3
 40
0.1058
 41
0.1058
 66
1
 10
0
 20
0
 30
0
  0
VERTEX
  8
LAYER_3
 10
55.5114
 20
-147.011
  0
VERTEX
  8
LAYER_3
 10
55.5114
 20
-145.7948
  0
SEQEND
  0
ENDBLK
  0
BLOCK
  8
LAYER_3
  2
AIGNBL03010047
 70
64
 10
0
 20
0
 30
0
  3
AIGNBL03010047
  0
POLYLINE
  8
LAYER_3
 40
0.1058
 41
0.1058
 66
1
 10
0
 20
0
 30
0
  0
VERTEX
  8
LAYER_3
 10
55.3097
 20
-144.0113
  0
VERTEX
  8
LAYER_3
 10
55.5114
 20
-142.7937
  0
SEQEND
  0
ENDBLK
  0
BLOCK
  8
LAYER_3
  2
AIGNBL03010048
 70
64
 10
0
 20
0
 30
0
  3
AIGNBL03010048
  0
POLYLINE
  8
LAYER_3
 40
0.1058
 41
0.1058
 66
1
 10
0
 20
0
 30
0
  0
VERTEX
  8
LAYER_3
 10
55.5114
 20
-142.7937
  0
VERTEX
  8
LAYER_3
 10
55.7118
 20
-144.0113
  0
SEQEND
  0
ENDBLK
  0
BLOCK
  8
LAYER_3
  2
AIGNBL03010049
 70
64
 10
0
 20
0
 30
0
  3
AIGNBL03010049
  0
POLYLINE
  8
LAYER_3
 40
0.1058
 41
0.1058
 66
1
 10
0
 20
0
 30
0
  0
VERTEX
  8
LAYER_3
 10
55.5114
 20
-142.7937
  0
VERTEX
  8
LAYER_3
 10
55.5114
 20
-144.0113
  0
SEQEND
  0
ENDBLK
  0
BLOCK
  8
LAYER_3
  2
AIGNBL0301004A
 70
64
 10
0
 20
0
 30
0
  3
AIGNBL0301004A
  0
POLYLINE
  8
LAYER_3
 40
0.1058
 41
0.1058
 66
1
 10
0
 20
0
 30
0
  0
VERTEX
  8
LAYER_3
 10
55.3097
 20
-148.2297
  0
VERTEX
  8
LAYER_3
 10
55.5114
 20
-147.011
  0
SEQEND
  0
ENDBLK
  0
BLOCK
  8
LAYER_3
  2
AIGNBL0301004B
 70
64
 10
0
 20
0
 30
0
  3
AIGNBL0301004B
  0
POLYLINE
  8
LAYER_3
 40
0.1058
 41
0.1058
 66
1
 10
0
 20
0
 30
0
  0
VERTEX
  8
LAYER_3
 10
55.5114
 20
-147.011
  0
VERTEX
  8
LAYER_3
 10
55.7118
 20
-148.2297
  0
SEQEND
  0
ENDBLK
  0
BLOCK
  8
LAYER_3
  2
AIGNBL0301004C
 70
64
 10
0
 20
0
 30
0
  3
AIGNBL0301004C
  0
POLYLINE
  8
LAYER_3
 40
0.1058
 41
0.1058
 66
1
 10
0
 20
0
 30
0
  0
VERTEX
  8
LAYER_3
 10
55.5114
 20
-147.011
  0
VERTEX
  8
LAYER_3
 10
55.5114
 20
-148.2297
  0
SEQEND
  0
ENDBLK
  0
BLOCK
  8
LAYER_3
  2
AIGNBL0301004D
 70
64
 10
0
 20
0
 30
0
  3
AIGNBL0301004D
  0
POLYLINE
  8
LAYER_3
 40
0.1058
 41
0.1058
 66
1
 10
0
 20
0
 30
0
  0
VERTEX
  8
LAYER_3
 10
55.7118
 20
-158.4441
  0
VERTEX
  8
LAYER_3
 10
55.5114
 20
-159.6616
  0
SEQEND
  0
ENDBLK
  0
BLOCK
  8
LAYER_3
  2
AIGNBL0301004E
 70
64
 10
0
 20
0
 30
0
  3
AIGNBL0301004E
  0
POLYLINE
  8
LAYER_3
 40
0.1058
 41
0.1058
 66
1
 10
0
 20
0
 30
0
  0
VERTEX
  8
LAYER_3
 10
55.5114
 20
-159.6616
  0
VERTEX
  8
LAYER_3
 10
55.3097
 20
-158.4441
  0
SEQEND
  0
ENDBLK
  0
BLOCK
  8
LAYER_3
  2
AIGNBL0301004F
 70
64
 10
0
 20
0
 30
0
  3
AIGNBL0301004F
  0
POLYLINE
  8
LAYER_3
 40
0.1058
 41
0.1058
 66
1
 10
0
 20
0
 30
0
  0
VERTEX
  8
LAYER_3
 10
55.5114
 20
-159.6616
  0
VERTEX
  8
LAYER_3
 10
55.5114
 20
-158.4441
  0
SEQEND
  0
ENDBLK
  0
BLOCK
  8
LAYER_3
  2
AIGNBL03010050
 70
64
 10
0
 20
0
 30
0
  3
AIGNBL03010050
  0
POLYLINE
  8
LAYER_3
 40
0.1058
 41
0.1058
 66
1
 10
0
 20
0
 30
0
  0
VERTEX
  8
LAYER_3
 10
79.7565
 20
-100.2817
  0
VERTEX
  8
LAYER_3
 10
78.5391
 20
-100.0763
  0
SEQEND
  0
ENDBLK
  0
BLOCK
  8
LAYER_3
  2
AIGNBL03010051
 70
64
 10
0
 20
0
 30
0
  3
AIGNBL03010051
  0
POLYLINE
  8
LAYER_3
 40
0.1058
 41
0.1058
 66
1
 10
0
 20
0
 30
0
  0
VERTEX
  8
LAYER_3
 10
78.5391
 20
-100.0763
  0
VERTEX
  8
LAYER_3
 10
79.7565
 20
-99.8747
  0
SEQEND
  0
ENDBLK
  0
BLOCK
  8
LAYER_3
  2
AIGNBL03010052
 70
64
 10
0
 20
0
 30
0
  3
AIGNBL03010052
  0
POLYLINE
  8
LAYER_3
 40
0.1058
 41
0.1058
 66
1
 10
0
 20
0
 30
0
  0
VERTEX
  8
LAYER_3
 10
78.5391
 20
-100.0763
  0
VERTEX
  8
LAYER_3
 10
79.7565
 20
-100.0763
  0
SEQEND
  0
ENDBLK
  0
BLOCK
  8
LAYER_3
  2
AIGNBL03010053
 70
64
 10
0
 20
0
 30
0
  3
AIGNBL03010053
  0
POLYLINE
  8
LAYER_3
 40
0.1058
 41
0.1058
 66
1
 10
0
 20
0
 30
0
  0
VERTEX
  8
LAYER_3
 10
83.6469
 20
-99.8747
  0
VERTEX
  8
LAYER_3
 10
84.8631
 20
-100.0763
  0
SEQEND
  0
ENDBLK
  0
BLOCK
  8
LAYER_3
  2
AIGNBL03010054
 70
64
 10
0
 20
0
 30
0
  3
AIGNBL03010054
  0
POLYLINE
  8
LAYER_3
 40
0.1058
 41
0.1058
 66
1
 10
0
 20
0
 30
0
  0
VERTEX
  8
LAYER_3
 10
84.8631
 20
-100.0763
  0
VERTEX
  8
LAYER_3
 10
83.6469
 20
-100.2817
  0
SEQEND
  0
ENDBLK
  0
BLOCK
  8
LAYER_3
  2
AIGNBL03010055
 70
64
 10
0
 20
0
 30
0
  3
AIGNBL03010055
  0
POLYLINE
  8
LAYER_3
 40
0.1058
 41
0.1058
 66
1
 10
0
 20
0
 30
0
  0
VERTEX
  8
LAYER_3
 10
84.8631
 20
-100.0763
  0
VERTEX
  8
LAYER_3
 10
83.6469
 20
-100.0763
  0
SEQEND
  0
ENDBLK
  0
BLOCK
  8
LAYER_6
  2
AIGNBL06010002
 70
64
 10
0
 20
0
 30
0
  3
AIGNBL06010002
  0
POLYLINE
  8
LAYER_6
 40
0.7056
 41
0.7056
 66
1
 10
0
 20
0
 30
0
 70
1
  0
VERTEX
  8
LAYER_6
 10
33.7873
 20
22.6587
  0
VERTEX
  8
LAYER_6
 10
230.7955
 20
22.6587
  0
VERTEX
  8
LAYER_6
 10
230.7955
 20
-259.334
  0
VERTEX
  8
LAYER_6
 10
33.7873
 20
-259.334
  0
SEQEND
  0
ENDBLK
  0
ENDSEC
  0
SECTION
  2
ENTITIES
  0
INSERT
  8
LAYER_1
  2
AIGNBL01010002
 10
0
 20
0
 30
0
  0
POLYLINE
  8
LAYER_1
 40
0.0882
 41
0.0882
 66
1
 10
0
 20
0
 30
0
  0
VERTEX
  8
LAYER_1
 10
117.2723
 20
-129.5695
  0
VERTEX
  8
LAYER_1
 10
86.6983
 20
-129.5695
  0
VERTEX
  8
LAYER_1
 10
82.4353
 20
-127.9455
  0
SEQEND
  0
TEXT
  8
LAYER_1
 10
87.4039
 20
-127.9232
 11
87.4039
 21
-127.9232
 40
3.8503
 41
0.5
  1
給水ホース長さ：800mm
  0
TEXT
  8
LAYER_1
 10
194.7983
 20
-172.4125
 11
194.7983
 21
-172.4125
 40
3.3885
 41
0.5
  1
　　　　　　　　　　　　　
  0
TEXT
  8
LAYER_1
 10
196.6095
 20
-117.6787
 11
196.6095
 21
-117.6787
 40
3.258
 41
0.5
  1
コード全長：310mm
  0
TEXT
  8
LAYER_1
 10
194.4987
 20
-170.8295
 11
194.4987
 21
-170.8295
 40
3.258
 41
0.5
  1
コード全長：500mm
  0
POLYLINE
  8
LAYER_1
 40
0.0882
 41
0.0882
 66
1
 10
0
 20
0
 30
0
  0
VERTEX
  8
LAYER_1
 10
216.4481
 20
-172.3958
  0
VERTEX
  8
LAYER_1
 10
193.9155
 20
-172.3958
  0
VERTEX
  8
LAYER_1
 10
188.3306
 20
-166.363
  0
SEQEND
  0
POLYLINE
  8
LAYER_1
 40
0.0882
 41
0.0882
 66
1
 10
0
 20
0
 30
0
  0
VERTEX
  8
LAYER_1
 10
218.1297
 20
-119.2582
  0
VERTEX
  8
LAYER_1
 10
195.5971
 20
-119.2582
  0
VERTEX
  8
LAYER_1
 10
189.9708
 20
-112.7125
  0
SEQEND
  0
POLYLINE
  8
LAYER_3
 40
0.1058
 41
0.1058
 66
1
 10
0
 20
0
 30
0
  0
VERTEX
  8
LAYER_3
 10
79.6426
 20
-78.9412
  0
VERTEX
  8
LAYER_3
 10
79.6426
 20
-75.7297
  0
SEQEND
  0
POLYLINE
  8
LAYER_3
 40
0.1058
 41
0.1058
 66
1
 10
0
 20
0
 30
0
  0
VERTEX
  8
LAYER_3
 10
83.7622
 20
-78.9412
  0
VERTEX
  8
LAYER_3
 10
83.7622
 20
-75.7297
  0
SEQEND
  0
POLYLINE
  8
LAYER_3
 40
0.1058
 41
0.1058
 66
1
 10
0
 20
0
 30
0
  0
VERTEX
  8
LAYER_3
 10
80.86
 20
-77.3517
  0
VERTEX
  8
LAYER_3
 10
82.5447
 20
-77.3517
  0
SEQEND
  0
POLYLINE
  8
LAYER_3
 40
0.1058
 41
0.1058
 66
1
 10
0
 20
0
 30
0
  0
VERTEX
  8
LAYER_3
 10
83.7622
 20
-77.3517
  0
VERTEX
  8
LAYER_3
 10
94.0567
 20
-77.3517
  0
SEQEND
  0
INSERT
  8
LAYER_3
  2
AIGNBL03010002
 10
0
 20
0
 30
0
  0
INSERT
  8
LAYER_3
  2
AIGNBL03010003
 10
0
 20
0
 30
0
  0
INSERT
  8
LAYER_3
  2
AIGNBL03010004
 10
0
 20
0
 30
0
  0
INSERT
  8
LAYER_3
  2
AIGNBL03010005
 10
0
 20
0
 30
0
  0
INSERT
  8
LAYER_3
  2
AIGNBL03010006
 10
0
 20
0
 30
0
  0
INSERT
  8
LAYER_3
  2
AIGNBL03010007
 10
0
 20
0
 30
0
  0
TEXT
  8
LAYER_3
 10
85.3863
 20
-75.4703
 11
85.3863
 21
-75.4703
 40
3.8503
 41
0.5
  1
25.4
  0
POLYLINE
  8
LAYER_3
 40
0.1058
 41
0.1058
 66
1
 10
0
 20
0
 30
0
  0
VERTEX
  8
LAYER_3
 10
154.4297
 20
-64.4895
  0
VERTEX
  8
LAYER_3
 10
154.4297
 20
-44.201
  0
SEQEND
  0
POLYLINE
  8
LAYER_3
 40
0.1058
 41
0.1058
 66
1
 10
0
 20
0
 30
0
  0
VERTEX
  8
LAYER_3
 10
130.3662
 20
-65.5766
  0
VERTEX
  8
LAYER_3
 10
130.3662
 20
-44.201
  0
SEQEND
  0
POLYLINE
  8
LAYER_3
 40
0.1058
 41
0.1058
 66
1
 10
0
 20
0
 30
0
  0
VERTEX
  8
LAYER_3
 10
153.2136
 20
-45.8218
  0
VERTEX
  8
LAYER_3
 10
131.5836
 20
-45.8218
  0
SEQEND
  0
INSERT
  8
LAYER_3
  2
AIGNBL03010008
 10
0
 20
0
 30
0
  0
INSERT
  8
LAYER_3
  2
AIGNBL03010009
 10
0
 20
0
 30
0
  0
INSERT
  8
LAYER_3
  2
AIGNBL0301000A
 10
0
 20
0
 30
0
  0
INSERT
  8
LAYER_3
  2
AIGNBL0301000B
 10
0
 20
0
 30
0
  0
INSERT
  8
LAYER_3
  2
AIGNBL0301000C
 10
0
 20
0
 30
0
  0
INSERT
  8
LAYER_3
  2
AIGNBL0301000D
 10
0
 20
0
 30
0
  0
TEXT
  8
LAYER_3
 10
134.2743
 20
-44.2743
 11
134.2743
 21
-44.2743
 40
3.8503
 41
0.5
  1
（148）
  0
POLYLINE
  8
LAYER_3
 40
0.1058
 41
0.1058
 66
1
 10
0
 20
0
 30
0
  0
VERTEX
  8
LAYER_3
 10
81.7005
 20
-52.3136
  0
VERTEX
  8
LAYER_3
 10
71.5638
 20
-52.3136
  0
SEQEND
  0
POLYLINE
  8
LAYER_3
 40
0.1058
 41
0.1058
 66
1
 10
0
 20
0
 30
0
  0
VERTEX
  8
LAYER_3
 10
78.5879
 20
-98.5958
  0
VERTEX
  8
LAYER_3
 10
71.5638
 20
-98.5958
  0
SEQEND
  0
POLYLINE
  8
LAYER_3
 40
0.1058
 41
0.1058
 66
1
 10
0
 20
0
 30
0
  0
VERTEX
  8
LAYER_3
 10
73.1858
 20
-53.5311
  0
VERTEX
  8
LAYER_3
 10
73.1858
 20
-97.3796
  0
SEQEND
  0
INSERT
  8
LAYER_3
  2
AIGNBL0301000E
 10
0
 20
0
 30
0
  0
INSERT
  8
LAYER_3
  2
AIGNBL0301000F
 10
0
 20
0
 30
0
  0
INSERT
  8
LAYER_3
  2
AIGNBL03010010
 10
0
 20
0
 30
0
  0
INSERT
  8
LAYER_3
  2
AIGNBL03010011
 10
0
 20
0
 30
0
  0
INSERT
  8
LAYER_3
  2
AIGNBL03010012
 10
0
 20
0
 30
0
  0
INSERT
  8
LAYER_3
  2
AIGNBL03010013
 10
0
 20
0
 30
0
  0
TEXT
  8
LAYER_3
 10
70.7771
 20
-81.6553
 11
70.7771
 21
-81.6553
 40
3.8503
 41
0.5
 50
89.99999999
  1
（285）
  0
POLYLINE
  8
LAYER_3
 40
0.1058
 41
0.1058
 66
1
 10
0
 20
0
 30
0
  0
VERTEX
  8
LAYER_3
 10
151.3173
 20
-98.5933
  0
VERTEX
  8
LAYER_3
 10
119.7961
 20
-98.5933
  0
SEQEND
  0
POLYLINE
  8
LAYER_3
 40
0.1058
 41
0.1058
 66
1
 10
0
 20
0
 30
0
  0
VERTEX
  8
LAYER_3
 10
132.7686
 20
-66.8205
  0
VERTEX
  8
LAYER_3
 10
119.7961
 20
-66.8205
  0
SEQEND
  0
POLYLINE
  8
LAYER_3
 40
0.1058
 41
0.1058
 66
1
 10
0
 20
0
 30
0
  0
VERTEX
  8
LAYER_3
 10
121.4156
 20
-97.3771
  0
VERTEX
  8
LAYER_3
 10
121.4156
 20
-68.0379
  0
SEQEND
  0
INSERT
  8
LAYER_3
  2
AIGNBL03010014
 10
0
 20
0
 30
0
  0
INSERT
  8
LAYER_3
  2
AIGNBL03010015
 10
0
 20
0
 30
0
  0
INSERT
  8
LAYER_3
  2
AIGNBL03010016
 10
0
 20
0
 30
0
  0
INSERT
  8
LAYER_3
  2
AIGNBL03010017
 10
0
 20
0
 30
0
  0
INSERT
  8
LAYER_3
  2
AIGNBL03010018
 10
0
 20
0
 30
0
  0
INSERT
  8
LAYER_3
  2
AIGNBL03010019
 10
0
 20
0
 30
0
  0
TEXT
  8
LAYER_3
 10
119.8611
 20
-88.6978
 11
119.8611
 21
-88.6978
 40
3.8503
 41
0.5
 50
89.99999999
  1
（196）
  0
POLYLINE
  8
LAYER_3
 40
0.1058
 41
0.1058
 66
1
 10
0
 20
0
 30
0
  0
VERTEX
  8
LAYER_3
 10
151.3173
 20
-98.5933
  0
VERTEX
  8
LAYER_3
 10
119.7961
 20
-98.5933
  0
SEQEND
  0
POLYLINE
  8
LAYER_3
 40
0.1058
 41
0.1058
 66
1
 10
0
 20
0
 30
0
  0
VERTEX
  8
LAYER_3
 10
152.9744
 20
-105.9707
  0
VERTEX
  8
LAYER_3
 10
119.7961
 20
-105.9707
  0
SEQEND
  0
POLYLINE
  8
LAYER_3
 40
0.1058
 41
0.1058
 66
1
 10
0
 20
0
 30
0
  0
VERTEX
  8
LAYER_3
 10
121.4156
 20
-99.8107
  0
VERTEX
  8
LAYER_3
 10
121.4156
 20
-104.7557
  0
SEQEND
  0
POLYLINE
  8
LAYER_3
 40
0.1058
 41
0.1058
 66
1
 10
0
 20
0
 30
0
  0
VERTEX
  8
LAYER_3
 10
121.4156
 20
-105.9707
  0
VERTEX
  8
LAYER_3
 10
121.4156
 20
-114.3363
  0
SEQEND
  0
INSERT
  8
LAYER_3
  2
AIGNBL0301001A
 10
0
 20
0
 30
0
  0
INSERT
  8
LAYER_3
  2
AIGNBL0301001B
 10
0
 20
0
 30
0
  0
INSERT
  8
LAYER_3
  2
AIGNBL0301001C
 10
0
 20
0
 30
0
  0
INSERT
  8
LAYER_3
  2
AIGNBL0301001D
 10
0
 20
0
 30
0
  0
INSERT
  8
LAYER_3
  2
AIGNBL0301001E
 10
0
 20
0
 30
0
  0
INSERT
  8
LAYER_3
  2
AIGNBL0301001F
 10
0
 20
0
 30
0
  0
TEXT
  8
LAYER_3
 10
119.746
 20
-120.7689
 11
119.746
 21
-120.7689
 40
3.8503
 41
0.5
 50
89.99999999
  1
45.5
  0
POLYLINE
  8
LAYER_3
 40
0.1058
 41
0.1058
 66
1
 10
0
 20
0
 30
0
  0
VERTEX
  8
LAYER_3
 10
154.4297
 20
-78.9686
  0
VERTEX
  8
LAYER_3
 10
154.4297
 20
-72.6297
  0
SEQEND
  0
POLYLINE
  8
LAYER_3
 40
0.1058
 41
0.1058
 66
1
 10
0
 20
0
 30
0
  0
VERTEX
  8
LAYER_3
 10
132.7686
 20
-68.3021
  0
VERTEX
  8
LAYER_3
 10
132.7686
 20
-75.8712
  0
SEQEND
  0
POLYLINE
  8
LAYER_3
 40
0.1058
 41
0.1058
 66
1
 10
0
 20
0
 30
0
  0
VERTEX
  8
LAYER_3
 10
153.2136
 20
-74.2504
  0
VERTEX
  8
LAYER_3
 10
133.9847
 20
-74.2504
  0
SEQEND
  0
INSERT
  8
LAYER_3
  2
AIGNBL03010020
 10
0
 20
0
 30
0
  0
INSERT
  8
LAYER_3
  2
AIGNBL03010021
 10
0
 20
0
 30
0
  0
INSERT
  8
LAYER_3
  2
AIGNBL03010022
 10
0
 20
0
 30
0
  0
INSERT
  8
LAYER_3
  2
AIGNBL03010023
 10
0
 20
0
 30
0
  0
INSERT
  8
LAYER_3
  2
AIGNBL03010024
 10
0
 20
0
 30
0
  0
INSERT
  8
LAYER_3
  2
AIGNBL03010025
 10
0
 20
0
 30
0
  0
TEXT
  8
LAYER_3
 10
137.6137
 20
-73.7705
 11
137.6137
 21
-73.7705
 40
3.8503
 41
0.5
  1
（134）
  0
POLYLINE
  8
LAYER_3
 40
0.1058
 41
0.1058
 66
1
 10
0
 20
0
 30
0
  0
VERTEX
  8
LAYER_3
 10
132.5983
 20
-67.19
  0
VERTEX
  8
LAYER_3
 10
126.4671
 20
-80.3365
  0
SEQEND
  0
POLYLINE
  8
LAYER_3
 40
0.1058
 41
0.1058
 66
1
 10
0
 20
0
 30
0
  0
VERTEX
  8
LAYER_3
 10
132.7686
 20
-68.3021
  0
VERTEX
  8
LAYER_3
 10
132.7686
 20
-81.7317
  0
SEQEND
  0
POLYLINE
  8
LAYER_3
 40
0.1058
 41
0.1058
 66
1
 10
0
 20
0
 30
0
  0
VERTEX
  8
LAYER_3
 10
125.0542
 20
-77.6423
 42
0.02494833155
  0
VERTEX
  8
LAYER_3
 10
126.075
 20
-78.3011
  0
SEQEND
  0
POLYLINE
  8
LAYER_3
 40
0.1058
 41
0.1058
 66
1
 10
0
 20
0
 30
0
  0
VERTEX
  8
LAYER_3
 10
133.9847
 20
-80.0546
 42
0.02436504514
  0
VERTEX
  8
LAYER_3
 10
135.1872
 20
-79.888
  0
SEQEND
  0
POLYLINE
  8
LAYER_3
 40
0.1058
 41
0.1058
 66
1
 10
0
 20
0
 30
0
  0
VERTEX
  8
LAYER_3
 10
127.1523
 20
-78.8672
 42
0.1087758822
  0
VERTEX
  8
LAYER_3
 10
132.7686
 20
-80.1123
  0
SEQEND
  0
INSERT
  8
LAYER_3
  2
AIGNBL03010026
 10
0
 20
0
 30
0
  0
INSERT
  8
LAYER_3
  2
AIGNBL03010027
 10
0
 20
0
 30
0
  0
INSERT
  8
LAYER_3
  2
AIGNBL03010028
 10
0
 20
0
 30
0
  0
INSERT
  8
LAYER_3
  2
AIGNBL03010029
 10
0
 20
0
 30
0
  0
INSERT
  8
LAYER_3
  2
AIGNBL0301002A
 10
0
 20
0
 30
0
  0
INSERT
  8
LAYER_3
  2
AIGNBL0301002B
 10
0
 20
0
 30
0
  0
TEXT
  8
LAYER_3
 10
133.3839
 20
-85.2933
 11
133.3839
 21
-85.2933
 40
3.8503
 41
0.5
 50
347.8407756
  1
25°
  0
POLYLINE
  8
LAYER_3
 40
0.1058
 41
0.1058
 66
1
 10
0
 20
0
 30
0
  0
VERTEX
  8
LAYER_3
 10
154.4297
 20
-102.8907
  0
VERTEX
  8
LAYER_3
 10
140.3238
 20
-102.8907
  0
SEQEND
  0
POLYLINE
  8
LAYER_3
 40
0.1058
 41
0.1058
 66
1
 10
0
 20
0
 30
0
  0
VERTEX
  8
LAYER_3
 10
154.4297
 20
-98.5933
  0
VERTEX
  8
LAYER_3
 10
140.3238
 20
-98.5933
  0
SEQEND
  0
POLYLINE
  8
LAYER_3
 40
0.1058
 41
0.1058
 66
1
 10
0
 20
0
 30
0
  0
VERTEX
  8
LAYER_3
 10
141.9433
 20
-99.8107
  0
VERTEX
  8
LAYER_3
 10
141.9433
 20
-101.6746
  0
SEQEND
  0
POLYLINE
  8
LAYER_3
 40
0.1058
 41
0.1058
 66
1
 10
0
 20
0
 30
0
  0
VERTEX
  8
LAYER_3
 10
141.9433
 20
-102.8907
  0
VERTEX
  8
LAYER_3
 10
141.9433
 20
-126.1189
  0
SEQEND
  0
INSERT
  8
LAYER_3
  2
AIGNBL0301002C
 10
0
 20
0
 30
0
  0
INSERT
  8
LAYER_3
  2
AIGNBL0301002D
 10
0
 20
0
 30
0
  0
INSERT
  8
LAYER_3
  2
AIGNBL0301002E
 10
0
 20
0
 30
0
  0
INSERT
  8
LAYER_3
  2
AIGNBL0301002F
 10
0
 20
0
 30
0
  0
INSERT
  8
LAYER_3
  2
AIGNBL03010030
 10
0
 20
0
 30
0
  0
INSERT
  8
LAYER_3
  2
AIGNBL03010031
 10
0
 20
0
 30
0
  0
TEXT
  8
LAYER_3
 10
133.1219
 20
-126.538
 11
133.1219
 21
-126.538
 40
3.3775
 41
0.5
 50
89.99999999
  1
取付板厚
  0
TEXT
  8
LAYER_3
 10
137.1193
 20
-126.538
 11
137.1193
 21
-126.538
 40
3.8503
 41
0.5
 50
89.99999999
  1
5030
  0
TEXT
  8
LAYER_3
 10
89.0388
 20
-107.0949
 11
89.0388
 21
-107.0949
 40
3.8503
 41
0.5
  1
二面幅24"六角
  0
POLYLINE
  8
LAYER_3
 40
0.1058
 41
0.1058
 66
1
 10
0
 20
0
 30
0
  0
VERTEX
  8
LAYER_3
 10
84.451
 20
-104.653
  0
VERTEX
  8
LAYER_3
 10
83.8436
 20
-103.5822
  0
SEQEND
  0
POLYLINE
  8
LAYER_3
 40
0.1058
 41
0.1058
 66
1
 10
0
 20
0
 30
0
  0
VERTEX
  8
LAYER_3
 10
83.8436
 20
-103.5822
  0
VERTEX
  8
LAYER_3
 10
84.7654
 20
-104.3975
  0
SEQEND
  0
POLYLINE
  8
LAYER_3
 40
0.1058
 41
0.1058
 66
1
 10
0
 20
0
 30
0
  0
VERTEX
  8
LAYER_3
 10
83.8436
 20
-103.5822
  0
VERTEX
  8
LAYER_3
 10
84.6114
 20
-104.5241
  0
SEQEND
  0
POLYLINE
  8
LAYER_3
 40
0.1058
 41
0.1058
 66
1
 10
0
 20
0
 30
0
  0
VERTEX
  8
LAYER_3
 10
84.6114
 20
-104.5241
  0
VERTEX
  8
LAYER_3
 10
87.0938
 20
-107.5752
  0
SEQEND
  0
POLYLINE
  8
LAYER_3
 40
0.1058
 41
0.1058
 66
1
 10
0
 20
0
 30
0
  0
VERTEX
  8
LAYER_3
 10
87.0938
 20
-107.5752
  0
VERTEX
  8
LAYER_3
 10
88.7146
 20
-107.5752
  0
SEQEND
  0
POLYLINE
  8
LAYER_3
 66
1
 10
0
 20
0
 30
0
  0
VERTEX
  8
LAYER_3
 10
88.7146
 20
-107.5752
  0
VERTEX
  8
LAYER_3
 10
107.8144
 20
-107.5752
  0
SEQEND
  0
POLYLINE
  8
LAYER_3
 40
0.1058
 41
0.1058
 66
1
 10
0
 20
0
 30
0
  0
VERTEX
  8
LAYER_3
 10
156.4413
 20
-78.9686
  0
VERTEX
  8
LAYER_3
 10
154.4297
 20
-78.9686
  0
SEQEND
  0
POLYLINE
  8
LAYER_3
 40
0.1058
 41
0.1058
 66
1
 10
0
 20
0
 30
0
  0
VERTEX
  8
LAYER_3
 10
83.712
 20
-78.9712
  0
VERTEX
  8
LAYER_3
 10
81.7005
 20
-78.9712
  0
SEQEND
  0
POLYLINE
  8
LAYER_3
 40
0.1058
 41
0.1058
 66
1
 10
0
 20
0
 30
0
  0
VERTEX
  8
LAYER_3
 10
156.9449
 20
-163.5995
  0
VERTEX
  8
LAYER_3
 10
156.9449
 20
-173.0086
  0
SEQEND
  0
POLYLINE
  8
LAYER_3
 40
0.1058
 41
0.1058
 66
1
 10
0
 20
0
 30
0
  0
VERTEX
  8
LAYER_3
 10
153.9437
 20
-161.1696
  0
VERTEX
  8
LAYER_3
 10
153.9437
 20
-173.0086
  0
SEQEND
  0
POLYLINE
  8
LAYER_3
 40
0.1058
 41
0.1058
 66
1
 10
0
 20
0
 30
0
  0
VERTEX
  8
LAYER_3
 10
152.7302
 20
-171.3852
  0
VERTEX
  8
LAYER_3
 10
151.5139
 20
-171.3852
  0
SEQEND
  0
POLYLINE
  8
LAYER_3
 40
0.1058
 41
0.1058
 66
1
 10
0
 20
0
 30
0
  0
VERTEX
  8
LAYER_3
 10
158.1599
 20
-171.3852
  0
VERTEX
  8
LAYER_3
 10
166.2361
 20
-171.3852
  0
SEQEND
  0
POLYLINE
  8
LAYER_3
 40
0.1058
 41
0.1058
 66
1
 10
0
 20
0
 30
0
  0
VERTEX
  8
LAYER_3
 10
153.9437
 20
-171.3852
  0
VERTEX
  8
LAYER_3
 10
156.9449
 20
-171.3852
  0
SEQEND
  0
INSERT
  8
LAYER_3
  2
AIGNBL03010032
 10
0
 20
0
 30
0
  0
INSERT
  8
LAYER_3
  2
AIGNBL03010033
 10
0
 20
0
 30
0
  0
INSERT
  8
LAYER_3
  2
AIGNBL03010034
 10
0
 20
0
 30
0
  0
INSERT
  8
LAYER_3
  2
AIGNBL03010035
 10
0
 20
0
 30
0
  0
INSERT
  8
LAYER_3
  2
AIGNBL03010036
 10
0
 20
0
 30
0
  0
INSERT
  8
LAYER_3
  2
AIGNBL03010037
 10
0
 20
0
 30
0
  0
TEXT
  8
LAYER_3
 10
160.5642
 20
-178.2703
 11
160.5642
 21
-178.2703
 40
3.8503
 41
0.5
  1
18.5
  0
TEXT
  8
LAYER_3
 10
89.0388
 20
-165.9396
 11
89.0388
 21
-165.9396
 40
3.8503
 41
0.5
  1
二面幅25"六角
  0
POLYLINE
  8
LAYER_3
 40
0.1058
 41
0.1058
 66
1
 10
0
 20
0
 30
0
  0
VERTEX
  8
LAYER_3
 10
83.6444
 20
-163.3214
  0
VERTEX
  8
LAYER_3
 10
82.9167
 20
-162.3245
  0
SEQEND
  0
POLYLINE
  8
LAYER_3
 40
0.1058
 41
0.1058
 66
1
 10
0
 20
0
 30
0
  0
VERTEX
  8
LAYER_3
 10
82.9167
 20
-162.3245
  0
VERTEX
  8
LAYER_3
 10
83.9288
 20
-163.0283
  0
SEQEND
  0
POLYLINE
  8
LAYER_3
 40
0.1058
 41
0.1058
 66
1
 10
0
 20
0
 30
0
  0
VERTEX
  8
LAYER_3
 10
82.9167
 20
-162.3245
  0
VERTEX
  8
LAYER_3
 10
83.7859
 20
-163.1761
  0
SEQEND
  0
POLYLINE
  8
LAYER_3
 40
0.1058
 41
0.1058
 66
1
 10
0
 20
0
 30
0
  0
VERTEX
  8
LAYER_3
 10
83.7859
 20
-163.1761
  0
VERTEX
  8
LAYER_3
 10
87.0938
 20
-166.4227
  0
SEQEND
  0
POLYLINE
  8
LAYER_3
 40
0.1058
 41
0.1058
 66
1
 10
0
 20
0
 30
0
  0
VERTEX
  8
LAYER_3
 10
87.0938
 20
-166.4227
  0
VERTEX
  8
LAYER_3
 10
88.7146
 20
-166.4227
  0
SEQEND
  0
POLYLINE
  8
LAYER_3
 66
1
 10
0
 20
0
 30
0
  0
VERTEX
  8
LAYER_3
 10
88.7146
 20
-166.4227
  0
VERTEX
  8
LAYER_3
 10
107.8144
 20
-166.4227
  0
SEQEND
  0
TEXT
  8
LAYER_3
 10
164.5422
 20
-156.5982
 11
164.5422
 21
-156.5982
 40
3.8503
 41
0.5
  1
G1/2
  0
POLYLINE
  8
LAYER_3
 40
0.1058
 41
0.1058
 66
1
 10
0
 20
0
 30
0
  0
VERTEX
  8
LAYER_3
 10
160.2541
 20
-162.0214
  0
VERTEX
  8
LAYER_3
 10
159.1355
 20
-162.5399
  0
SEQEND
  0
POLYLINE
  8
LAYER_3
 40
0.1058
 41
0.1058
 66
1
 10
0
 20
0
 30
0
  0
VERTEX
  8
LAYER_3
 10
159.1355
 20
-162.5399
  0
VERTEX
  8
LAYER_3
 10
160.026
 20
-161.6869
  0
SEQEND
  0
POLYLINE
  8
LAYER_3
 40
0.1058
 41
0.1058
 66
1
 10
0
 20
0
 30
0
  0
VERTEX
  8
LAYER_3
 10
159.1355
 20
-162.5399
  0
VERTEX
  8
LAYER_3
 10
160.1401
 20
-161.8509
  0
SEQEND
  0
POLYLINE
  8
LAYER_3
 40
0.1058
 41
0.1058
 66
1
 10
0
 20
0
 30
0
  0
VERTEX
  8
LAYER_3
 10
160.1401
 20
-161.8509
  0
VERTEX
  8
LAYER_3
 10
164.1507
 20
-159.1167
  0
SEQEND
  0
POLYLINE
  8
LAYER_3
 40
0.1058
 41
0.1058
 66
1
 10
0
 20
0
 30
0
  0
VERTEX
  8
LAYER_3
 10
164.1507
 20
-159.1167
  0
VERTEX
  8
LAYER_3
 10
165.7701
 20
-159.1167
  0
SEQEND
  0
POLYLINE
  8
LAYER_3
 66
1
 10
0
 20
0
 30
0
  0
VERTEX
  8
LAYER_3
 10
165.7701
 20
-159.1167
  0
VERTEX
  8
LAYER_3
 10
174.608
 20
-159.1167
  0
SEQEND
  0
TEXT
  8
LAYER_3
 10
87.74
 20
-142.8071
 11
87.74
 21
-142.8071
 40
3.8503
 41
0.5
  1
二面幅24"六角
  0
POLYLINE
  8
LAYER_3
 40
0.1058
 41
0.1058
 66
1
 10
0
 20
0
 30
0
  0
VERTEX
  8
LAYER_3
 10
84.3683
 20
-140.8761
  0
VERTEX
  8
LAYER_3
 10
83.6469
 20
-139.8742
  0
SEQEND
  0
POLYLINE
  8
LAYER_3
 40
0.1058
 41
0.1058
 66
1
 10
0
 20
0
 30
0
  0
VERTEX
  8
LAYER_3
 10
83.6469
 20
-139.8742
  0
VERTEX
  8
LAYER_3
 10
84.6527
 20
-140.588
  0
SEQEND
  0
POLYLINE
  8
LAYER_3
 40
0.1058
 41
0.1058
 66
1
 10
0
 20
0
 30
0
  0
VERTEX
  8
LAYER_3
 10
83.6469
 20
-139.8742
  0
VERTEX
  8
LAYER_3
 10
84.5125
 20
-140.7334
  0
SEQEND
  0
POLYLINE
  8
LAYER_3
 40
0.1058
 41
0.1058
 66
1
 10
0
 20
0
 30
0
  0
VERTEX
  8
LAYER_3
 10
84.5125
 20
-140.7334
  0
VERTEX
  8
LAYER_3
 10
87.0938
 20
-143.2923
  0
SEQEND
  0
POLYLINE
  8
LAYER_3
 40
0.1058
 41
0.1058
 66
1
 10
0
 20
0
 30
0
  0
VERTEX
  8
LAYER_3
 10
87.0938
 20
-143.2923
  0
VERTEX
  8
LAYER_3
 10
87.4196
 20
-143.2923
  0
SEQEND
  0
POLYLINE
  8
LAYER_3
 66
1
 10
0
 20
0
 30
0
  0
VERTEX
  8
LAYER_3
 10
87.4196
 20
-143.2923
  0
VERTEX
  8
LAYER_3
 10
106.5194
 20
-143.2923
  0
SEQEND
  0
POLYLINE
  8
LAYER_3
 40
0.1058
 41
0.1058
 66
1
 10
0
 20
0
 30
0
  0
VERTEX
  8
LAYER_3
 10
154.7931
 20
-162.1416
  0
VERTEX
  8
LAYER_3
 10
140.3238
 20
-162.1416
  0
SEQEND
  0
POLYLINE
  8
LAYER_3
 40
0.1058
 41
0.1058
 66
1
 10
0
 20
0
 30
0
  0
VERTEX
  8
LAYER_3
 10
153.9437
 20
-133.6002
  0
VERTEX
  8
LAYER_3
 10
140.3238
 20
-133.6002
  0
SEQEND
  0
POLYLINE
  8
LAYER_3
 40
0.1058
 41
0.1058
 66
1
 10
0
 20
0
 30
0
  0
VERTEX
  8
LAYER_3
 10
141.9433
 20
-160.9254
  0
VERTEX
  8
LAYER_3
 10
141.9433
 20
-134.8151
  0
SEQEND
  0
INSERT
  8
LAYER_3
  2
AIGNBL03010038
 10
0
 20
0
 30
0
  0
INSERT
  8
LAYER_3
  2
AIGNBL03010039
 10
0
 20
0
 30
0
  0
INSERT
  8
LAYER_3
  2
AIGNBL0301003A
 10
0
 20
0
 30
0
  0
INSERT
  8
LAYER_3
  2
AIGNBL0301003B
 10
0
 20
0
 30
0
  0
INSERT
  8
LAYER_3
  2
AIGNBL0301003C
 10
0
 20
0
 30
0
  0
INSERT
  8
LAYER_3
  2
AIGNBL0301003D
 10
0
 20
0
 30
0
  0
TEXT
  8
LAYER_3
 10
140.3911
 20
-153.8593
 11
140.3911
 21
-153.8593
 40
3.8503
 41
0.5
 50
89.99999999
  1
（176）
  0
POLYLINE
  8
LAYER_3
 40
0.1058
 41
0.1058
 66
1
 10
0
 20
0
 30
0
  0
VERTEX
  8
LAYER_3
 10
80.8901
 20
-163.7648
  0
VERTEX
  8
LAYER_3
 10
80.8901
 20
-173.0086
  0
SEQEND
  0
POLYLINE
  8
LAYER_3
 40
0.1058
 41
0.1058
 66
1
 10
0
 20
0
 30
0
  0
VERTEX
  8
LAYER_3
 10
61.997
 20
-150.9026
  0
VERTEX
  8
LAYER_3
 10
61.997
 20
-173.0086
  0
SEQEND
  0
POLYLINE
  8
LAYER_3
 40
0.1058
 41
0.1058
 66
1
 10
0
 20
0
 30
0
  0
VERTEX
  8
LAYER_3
 10
79.6739
 20
-171.3852
  0
VERTEX
  8
LAYER_3
 10
63.2145
 20
-171.3852
  0
SEQEND
  0
INSERT
  8
LAYER_3
  2
AIGNBL0301003E
 10
0
 20
0
 30
0
  0
INSERT
  8
LAYER_3
  2
AIGNBL0301003F
 10
0
 20
0
 30
0
  0
INSERT
  8
LAYER_3
  2
AIGNBL03010040
 10
0
 20
0
 30
0
  0
INSERT
  8
LAYER_3
  2
AIGNBL03010041
 10
0
 20
0
 30
0
  0
INSERT
  8
LAYER_3
  2
AIGNBL03010042
 10
0
 20
0
 30
0
  0
INSERT
  8
LAYER_3
  2
AIGNBL03010043
 10
0
 20
0
 30
0
  0
TEXT
  8
LAYER_3
 10
65.0279
 20
-170.2632
 11
65.0279
 21
-170.2632
 40
3.8503
 41
0.5
  1
（117）
  0
POLYLINE
  8
LAYER_3
 40
0.1058
 41
0.1058
 66
1
 10
0
 20
0
 30
0
  0
VERTEX
  8
LAYER_3
 10
68.6492
 20
-142.7937
  0
VERTEX
  8
LAYER_3
 10
53.8881
 20
-142.7937
  0
SEQEND
  0
POLYLINE
  8
LAYER_3
 40
0.1058
 41
0.1058
 66
1
 10
0
 20
0
 30
0
  0
VERTEX
  8
LAYER_3
 10
62.1335
 20
-147.011
  0
VERTEX
  8
LAYER_3
 10
53.8881
 20
-147.011
  0
SEQEND
  0
POLYLINE
  8
LAYER_3
 40
0.1058
 41
0.1058
 66
1
 10
0
 20
0
 30
0
  0
VERTEX
  8
LAYER_3
 10
55.5114
 20
-145.7948
  0
VERTEX
  8
LAYER_3
 10
55.5114
 20
-144.0113
  0
SEQEND
  0
POLYLINE
  8
LAYER_3
 40
0.1058
 41
0.1058
 66
1
 10
0
 20
0
 30
0
  0
VERTEX
  8
LAYER_3
 10
55.5114
 20
-142.7937
  0
VERTEX
  8
LAYER_3
 10
55.5114
 20
-137.3253
  0
SEQEND
  0
INSERT
  8
LAYER_3
  2
AIGNBL03010044
 10
0
 20
0
 30
0
  0
INSERT
  8
LAYER_3
  2
AIGNBL03010045
 10
0
 20
0
 30
0
  0
INSERT
  8
LAYER_3
  2
AIGNBL03010046
 10
0
 20
0
 30
0
  0
INSERT
  8
LAYER_3
  2
AIGNBL03010047
 10
0
 20
0
 30
0
  0
INSERT
  8
LAYER_3
  2
AIGNBL03010048
 10
0
 20
0
 30
0
  0
INSERT
  8
LAYER_3
  2
AIGNBL03010049
 10
0
 20
0
 30
0
  0
TEXT
  8
LAYER_3
 10
54.4763
 20
-141.3884
 11
54.4763
 21
-141.3884
 40
3.8503
 41
0.5
 50
89.99999999
  1
26
  0
POLYLINE
  8
LAYER_3
 40
0.1058
 41
0.1058
 66
1
 10
0
 20
0
 30
0
  0
VERTEX
  8
LAYER_3
 10
62.1335
 20
-147.011
  0
VERTEX
  8
LAYER_3
 10
53.8881
 20
-147.011
  0
SEQEND
  0
POLYLINE
  8
LAYER_3
 40
0.1058
 41
0.1058
 66
1
 10
0
 20
0
 30
0
  0
VERTEX
  8
LAYER_3
 10
63.2959
 20
-159.6616
  0
VERTEX
  8
LAYER_3
 10
53.8881
 20
-159.6616
  0
SEQEND
  0
POLYLINE
  8
LAYER_3
 40
0.1058
 41
0.1058
 66
1
 10
0
 20
0
 30
0
  0
VERTEX
  8
LAYER_3
 10
55.5114
 20
-148.2297
  0
VERTEX
  8
LAYER_3
 10
55.5114
 20
-158.4441
  0
SEQEND
  0
INSERT
  8
LAYER_3
  2
AIGNBL0301004A
 10
0
 20
0
 30
0
  0
INSERT
  8
LAYER_3
  2
AIGNBL0301004B
 10
0
 20
0
 30
0
  0
INSERT
  8
LAYER_3
  2
AIGNBL0301004C
 10
0
 20
0
 30
0
  0
INSERT
  8
LAYER_3
  2
AIGNBL0301004D
 10
0
 20
0
 30
0
  0
INSERT
  8
LAYER_3
  2
AIGNBL0301004E
 10
0
 20
0
 30
0
  0
INSERT
  8
LAYER_3
  2
AIGNBL0301004F
 10
0
 20
0
 30
0
  0
TEXT
  8
LAYER_3
 10
54.3788
 20
-159.6461
 11
54.3788
 21
-159.6461
 40
3.8503
 41
0.5
 50
89.99999999
  1
（78）
  0
POLYLINE
  8
LAYER_3
 40
0.1058
 41
0.1058
 66
1
 10
0
 20
0
 30
0
  0
VERTEX
  8
LAYER_3
 10
78.5391
 20
-98.547
  0
VERTEX
  8
LAYER_3
 10
78.5391
 20
-101.2938
  0
SEQEND
  0
POLYLINE
  8
LAYER_3
 40
0.1058
 41
0.1058
 66
1
 10
0
 20
0
 30
0
  0
VERTEX
  8
LAYER_3
 10
84.8631
 20
-98.547
  0
VERTEX
  8
LAYER_3
 10
84.8631
 20
-101.2938
  0
SEQEND
  0
POLYLINE
  8
LAYER_3
 40
0.1058
 41
0.1058
 66
1
 10
0
 20
0
 30
0
  0
VERTEX
  8
LAYER_3
 10
79.7565
 20
-100.0763
  0
VERTEX
  8
LAYER_3
 10
83.6469
 20
-100.0763
  0
SEQEND
  0
POLYLINE
  8
LAYER_3
 40
0.1058
 41
0.1058
 66
1
 10
0
 20
0
 30
0
  0
VERTEX
  8
LAYER_3
 10
84.8631
 20
-100.0763
  0
VERTEX
  8
LAYER_3
 10
92.0714
 20
-100.0763
  0
SEQEND
  0
INSERT
  8
LAYER_3
  2
AIGNBL03010050
 10
0
 20
0
 30
0
  0
INSERT
  8
LAYER_3
  2
AIGNBL03010051
 10
0
 20
0
 30
0
  0
INSERT
  8
LAYER_3
  2
AIGNBL03010052
 10
0
 20
0
 30
0
  0
INSERT
  8
LAYER_3
  2
AIGNBL03010053
 10
0
 20
0
 30
0
  0
INSERT
  8
LAYER_3
  2
AIGNBL03010054
 10
0
 20
0
 30
0
  0
INSERT
  8
LAYER_3
  2
AIGNBL03010055
 10
0
 20
0
 30
0
  0
TEXT
  8
LAYER_3
 10
86.7034
 20
-98.8384
 11
86.7034
 21
-98.8384
 40
3.8503
 41
0.5
  1
39
  0
TEXT
  8
LAYER_3
 10
163.1318
 20
-94.3012
 11
163.1318
 21
-94.3012
 40
3.8503
 41
0.5
  1
PJ1/2
  0
POLYLINE
  8
LAYER_3
 40
0.1058
 41
0.1058
 66
1
 10
0
 20
0
 30
0
  0
VERTEX
  8
LAYER_3
 10
157.2831
 20
-99.6191
  0
VERTEX
  8
LAYER_3
 10
156.1294
 20
-100.0512
  0
SEQEND
  0
POLYLINE
  8
LAYER_3
 40
0.1058
 41
0.1058
 66
1
 10
0
 20
0
 30
0
  0
VERTEX
  8
LAYER_3
 10
156.1294
 20
-100.0512
  0
VERTEX
  8
LAYER_3
 10
157.0813
 20
-99.2684
  0
SEQEND
  0
POLYLINE
  8
LAYER_3
 40
0.1058
 41
0.1058
 66
1
 10
0
 20
0
 30
0
  0
VERTEX
  8
LAYER_3
 10
156.1294
 20
-100.0512
  0
VERTEX
  8
LAYER_3
 10
157.1828
 20
-99.4425
  0
SEQEND
  0
POLYLINE
  8
LAYER_3
 40
0.1058
 41
0.1058
 66
1
 10
0
 20
0
 30
0
  0
VERTEX
  8
LAYER_3
 10
157.1828
 20
-99.4425
  0
VERTEX
  8
LAYER_3
 10
161.4502
 20
-96.9776
  0
SEQEND
  0
POLYLINE
  8
LAYER_3
 40
0.1058
 41
0.1058
 66
1
 10
0
 20
0
 30
0
  0
VERTEX
  8
LAYER_3
 10
161.4502
 20
-96.9776
  0
VERTEX
  8
LAYER_3
 10
163.0722
 20
-96.9776
  0
SEQEND
  0
POLYLINE
  8
LAYER_3
 66
1
 10
0
 20
0
 30
0
  0
VERTEX
  8
LAYER_3
 10
163.0722
 20
-96.9776
  0
VERTEX
  8
LAYER_3
 10
174.2047
 20
-96.9776
  0
SEQEND
  0
TEXT
  8
LAYER_3
 10
163.3964
 20
-103.7825
 11
163.3964
 21
-103.7825
 40
3.8503
 41
0.5
  1
取付穴径22025
  0
POLYLINE
  8
LAYER_3
 40
0.1058
 41
0.1058
 66
1
 10
0
 20
0
 30
0
  0
VERTEX
  8
LAYER_3
 10
157.1077
 20
-102.1805
  0
VERTEX
  8
LAYER_3
 10
156.1294
 20
-101.4302
  0
SEQEND
  0
POLYLINE
  8
LAYER_3
 40
0.1058
 41
0.1058
 66
1
 10
0
 20
0
 30
0
  0
VERTEX
  8
LAYER_3
 10
156.1294
 20
-101.4302
  0
VERTEX
  8
LAYER_3
 10
157.3005
 20
-101.821
  0
SEQEND
  0
POLYLINE
  8
LAYER_3
 40
0.1058
 41
0.1058
 66
1
 10
0
 20
0
 30
0
  0
VERTEX
  8
LAYER_3
 10
156.1294
 20
-101.4302
  0
VERTEX
  8
LAYER_3
 10
157.2041
 20
-102.0015
  0
SEQEND
  0
POLYLINE
  8
LAYER_3
 40
0.1058
 41
0.1058
 66
1
 10
0
 20
0
 30
0
  0
VERTEX
  8
LAYER_3
 10
157.2041
 20
-102.0015
  0
VERTEX
  8
LAYER_3
 10
161.4502
 20
-104.2648
  0
SEQEND
  0
POLYLINE
  8
LAYER_3
 40
0.1058
 41
0.1058
 66
1
 10
0
 20
0
 30
0
  0
VERTEX
  8
LAYER_3
 10
161.4502
 20
-104.2648
  0
VERTEX
  8
LAYER_3
 10
163.0722
 20
-104.2648
  0
SEQEND
  0
POLYLINE
  8
LAYER_3
 66
1
 10
0
 20
0
 30
0
  0
VERTEX
  8
LAYER_3
 10
163.0722
 20
-104.2648
  0
VERTEX
  8
LAYER_3
 10
188.0038
 20
-104.2648
  0
SEQEND
  0
POLYLINE
  8
LAYER_3
 40
0.1058
 41
0.1058
 66
1
 10
0
 20
0
 30
0
  0
VERTEX
  8
LAYER_3
 10
156.4902
 20
-64.4895
 42
0.4142136484
  0
VERTEX
  8
LAYER_3
 10
144.3106
 20
-52.3073
 42
0.2915142954
  0
VERTEX
  8
LAYER_3
 10
133.2733
 20
-59.3403
  0
SEQEND
  0
POLYLINE
  8
LAYER_3
 40
0.1058
 41
0.1058
 66
1
 10
0
 20
0
 30
0
  0
VERTEX
  8
LAYER_3
 10
156.4902
 20
-78.9349
  0
VERTEX
  8
LAYER_3
 10
156.4902
 20
-64.4895
  0
SEQEND
  0
POLYLINE
  8
LAYER_3
 40
0.1058
 41
0.1058
 66
1
 10
0
 20
0
 30
0
  0
VERTEX
  8
LAYER_3
 10
152.3719
 20
-64.4895
  0
VERTEX
  8
LAYER_3
 10
152.3719
 20
-78.9349
  0
SEQEND
  0
POLYLINE
  8
LAYER_3
 40
0.1058
 41
0.1058
 66
1
 10
0
 20
0
 30
0
  0
VERTEX
  8
LAYER_3
 10
130.4213
 20
-65.4577
 42
0.3902939271
  0
VERTEX
  8
LAYER_3
 10
130.4828
 20
-65.6293
  0
SEQEND
  0
POLYLINE
  8
LAYER_3
 40
0.1058
 41
0.1058
 66
1
 10
0
 20
0
 30
0
  0
VERTEX
  8
LAYER_3
 10
135.1947
 20
-64.9642
  0
VERTEX
  8
LAYER_3
 10
137.0059
 20
-61.0826
  0
SEQEND
  0
POLYLINE
  8
LAYER_3
 40
0.1058
 41
0.1058
 66
1
 10
0
 20
0
 30
0
  0
VERTEX
  8
LAYER_3
 10
134.1563
 20
-67.1987
  0
VERTEX
  8
LAYER_3
 10
135.1947
 20
-64.9642
  0
SEQEND
  0
POLYLINE
  8
LAYER_3
 40
0.1058
 41
0.1058
 66
1
 10
0
 20
0
 30
0
  0
VERTEX
  8
LAYER_3
 10
133.2733
 20
-59.3403
  0
VERTEX
  8
LAYER_3
 10
130.4213
 20
-65.4577
  0
SEQEND
  0
POLYLINE
  8
LAYER_3
  6
AIGENLINE001
 40
0.1058
 41
0.1058
 66
1
 10
0
 20
0
 30
0
 70
128
  0
VERTEX
  8
LAYER_3
 10
135.1396
 20
-60.2121
  0
VERTEX
  8
LAYER_3
 10
132.0821
 20
-66.7703
  0
SEQEND
  0
POLYLINE
  8
LAYER_3
 40
0.1058
 41
0.1058
 66
1
 10
0
 20
0
 30
0
  0
VERTEX
  8
LAYER_3
 10
133.9823
 20
-67.2626
  0
VERTEX
  8
LAYER_3
 10
132.23
 20
-66.446
  0
SEQEND
  0
POLYLINE
  8
LAYER_3
 40
0.1058
 41
0.1058
 66
1
 10
0
 20
0
 30
0
  0
VERTEX
  8
LAYER_3
 10
132.23
 20
-66.446
  0
VERTEX
  8
LAYER_3
 10
130.4828
 20
-65.6293
  0
SEQEND
  0
POLYLINE
  8
LAYER_3
 40
0.1058
 41
0.1058
 66
1
 10
0
 20
0
 30
0
  0
VERTEX
  8
LAYER_3
 10
133.9823
 20
-67.2626
 42
0.3909726932
  0
VERTEX
  8
LAYER_3
 10
134.1563
 20
-67.1987
  0
SEQEND
  0
POLYLINE
  8
LAYER_3
 40
0.1058
 41
0.1058
 66
1
 10
0
 20
0
 30
0
  0
VERTEX
  8
LAYER_3
 10
152.4195
 20
-78.9686
  0
VERTEX
  8
LAYER_3
 10
152.7302
 20
-78.9686
  0
SEQEND
  0
POLYLINE
  8
LAYER_3
 40
0.1058
 41
0.1058
 66
1
 10
0
 20
0
 30
0
  0
VERTEX
  8
LAYER_3
 10
154.4297
 20
-78.9686
  0
VERTEX
  8
LAYER_3
 10
156.4413
 20
-78.9686
  0
SEQEND
  0
POLYLINE
  8
LAYER_3
 40
0.1058
 41
0.1058
 66
1
 10
0
 20
0
 30
0
  0
VERTEX
  8
LAYER_3
 10
156.1294
 20
-104.9988
  0
VERTEX
  8
LAYER_3
 10
156.1294
 20
-104.107
  0
SEQEND
  0
POLYLINE
  8
LAYER_3
 40
0.1058
 41
0.1058
 66
1
 10
0
 20
0
 30
0
  0
VERTEX
  8
LAYER_3
 10
156.1294
 20
-102.5664
  0
VERTEX
  8
LAYER_3
 10
156.1294
 20
-98.9165
  0
SEQEND
  0
POLYLINE
  8
LAYER_3
 40
0.1058
 41
0.1058
 66
1
 10
0
 20
0
 30
0
  0
VERTEX
  8
LAYER_3
 10
155.9416
 20
-104.9988
  0
VERTEX
  8
LAYER_3
 10
155.9416
 20
-104.107
  0
SEQEND
  0
POLYLINE
  8
LAYER_3
 40
0.1058
 41
0.1058
 66
1
 10
0
 20
0
 30
0
  0
VERTEX
  8
LAYER_3
 10
155.9416
 20
-102.5664
  0
VERTEX
  8
LAYER_3
 10
155.9416
 20
-99.1594
  0
SEQEND
  0
POLYLINE
  8
LAYER_3
 40
0.1058
 41
0.1058
 66
1
 10
0
 20
0
 30
0
  0
VERTEX
  8
LAYER_3
 10
154.4297
 20
-105.9707
  0
VERTEX
  8
LAYER_3
 10
155.8889
 20
-105.9707
  0
SEQEND
  0
POLYLINE
  8
LAYER_3
 40
0.1058
 41
0.1058
 66
1
 10
0
 20
0
 30
0
  0
VERTEX
  8
LAYER_3
 10
155.8915
 20
-105.9657
  0
VERTEX
  8
LAYER_3
 10
155.8889
 20
-105.9707
  0
SEQEND
  0
POLYLINE
  8
LAYER_3
 40
0.1058
 41
0.1058
 66
1
 10
0
 20
0
 30
0
  0
VERTEX
  8
LAYER_3
 10
154.4297
 20
-99.1594
  0
VERTEX
  8
LAYER_3
 10
156.1294
 20
-99.1594
  0
SEQEND
  0
POLYLINE
  8
LAYER_3
 40
0.1058
 41
0.1058
 66
1
 10
0
 20
0
 30
0
  0
VERTEX
  8
LAYER_3
 10
155.9416
 20
-99.1594
  0
VERTEX
  8
LAYER_3
 10
156.1294
 20
-99.1594
  0
SEQEND
  0
POLYLINE
  8
LAYER_3
 40
0.1482
 41
0.1482
 66
1
 10
0
 20
0
 30
0
  0
VERTEX
  8
LAYER_3
 10
157.5936
 20
-98.5444
  0
VERTEX
  8
LAYER_3
 10
157.5936
 20
-97.0715
  0
SEQEND
  0
POLYLINE
  8
LAYER_3
 40
0.1482
 41
0.1482
 66
1
 10
0
 20
0
 30
0
  0
VERTEX
  8
LAYER_3
 10
157.5936
 20
-97.0715
 42
0.2920821364
  0
VERTEX
  8
LAYER_3
 10
157.4973
 20
-96.9249
  0
SEQEND
  0
POLYLINE
  8
LAYER_3
 40
0.1058
 41
0.1058
 66
1
 10
0
 20
0
 30
0
  0
VERTEX
  8
LAYER_3
 10
157.5449
 20
-98.5933
  0
VERTEX
  8
LAYER_3
 10
154.4297
 20
-98.5933
  0
SEQEND
  0
POLYLINE
  8
LAYER_3
 40
0.1058
 41
0.1058
 66
1
 10
0
 20
0
 30
0
  0
VERTEX
  8
LAYER_3
 10
157.5936
 20
-98.5444
  0
VERTEX
  8
LAYER_3
 10
157.5449
 20
-98.5933
  0
SEQEND
  0
POLYLINE
  8
LAYER_3
 40
0.1058
 41
0.1058
 66
1
 10
0
 20
0
 30
0
  0
VERTEX
  8
LAYER_3
 10
155.9416
 20
-99.1594
  0
VERTEX
  8
LAYER_3
 10
156.0807
 20
-98.9165
  0
SEQEND
  0
POLYLINE
  8
LAYER_3
 40
0.1058
 41
0.1058
 66
1
 10
0
 20
0
 30
0
  0
VERTEX
  8
LAYER_3
 10
156.4989
 20
-96.4828
  0
VERTEX
  8
LAYER_3
 10
157.4973
 20
-96.9249
  0
SEQEND
  0
POLYLINE
  8
LAYER_3
 40
0.1058
 41
0.1058
 66
1
 10
0
 20
0
 30
0
  0
VERTEX
  8
LAYER_3
 10
152.7326
 20
-104.9988
  0
VERTEX
  8
LAYER_3
 10
152.7326
 20
-104.107
  0
SEQEND
  0
POLYLINE
  8
LAYER_3
 40
0.1058
 41
0.1058
 66
1
 10
0
 20
0
 30
0
  0
VERTEX
  8
LAYER_3
 10
152.7326
 20
-102.5664
  0
VERTEX
  8
LAYER_3
 10
152.7326
 20
-98.9165
  0
SEQEND
  0
POLYLINE
  8
LAYER_3
 40
0.1058
 41
0.1058
 66
1
 10
0
 20
0
 30
0
  0
VERTEX
  8
LAYER_3
 10
152.9218
 20
-104.9988
  0
VERTEX
  8
LAYER_3
 10
152.9218
 20
-104.107
  0
SEQEND
  0
POLYLINE
  8
LAYER_3
 40
0.1058
 41
0.1058
 66
1
 10
0
 20
0
 30
0
  0
VERTEX
  8
LAYER_3
 10
152.9218
 20
-102.5664
  0
VERTEX
  8
LAYER_3
 10
152.9218
 20
-99.1594
  0
SEQEND
  0
POLYLINE
  8
LAYER_3
 40
0.1058
 41
0.1058
 66
1
 10
0
 20
0
 30
0
  0
VERTEX
  8
LAYER_3
 10
154.4297
 20
-105.9707
  0
VERTEX
  8
LAYER_3
 10
152.9744
 20
-105.9707
  0
SEQEND
  0
POLYLINE
  8
LAYER_3
 40
0.1058
 41
0.1058
 66
1
 10
0
 20
0
 30
0
  0
VERTEX
  8
LAYER_3
 10
152.9706
 20
-105.9657
  0
VERTEX
  8
LAYER_3
 10
152.9744
 20
-105.9707
  0
SEQEND
  0
POLYLINE
  8
LAYER_3
 40
0.1058
 41
0.1058
 66
1
 10
0
 20
0
 30
0
  0
VERTEX
  8
LAYER_3
 10
154.4297
 20
-99.1594
  0
VERTEX
  8
LAYER_3
 10
152.7326
 20
-99.1594
  0
SEQEND
  0
POLYLINE
  8
LAYER_3
 40
0.1058
 41
0.1058
 66
1
 10
0
 20
0
 30
0
  0
VERTEX
  8
LAYER_3
 10
154.4297
 20
-99.1594
  0
VERTEX
  8
LAYER_3
 10
152.7326
 20
-99.1594
  0
SEQEND
  0
POLYLINE
  8
LAYER_3
 40
0.1482
 41
0.1482
 66
1
 10
0
 20
0
 30
0
  0
VERTEX
  8
LAYER_3
 10
151.2697
 20
-98.5444
  0
VERTEX
  8
LAYER_3
 10
151.2697
 20
-97.0715
  0
SEQEND
  0
POLYLINE
  8
LAYER_3
 40
0.1482
 41
0.1482
 66
1
 10
0
 20
0
 30
0
  0
VERTEX
  8
LAYER_3
 10
151.3661
 20
-96.9249
 42
0.2972297116
  0
VERTEX
  8
LAYER_3
 10
151.2697
 20
-97.0715
  0
SEQEND
  0
POLYLINE
  8
LAYER_3
 40
0.1058
 41
0.1058
 66
1
 10
0
 20
0
 30
0
  0
VERTEX
  8
LAYER_3
 10
151.3173
 20
-98.5933
  0
VERTEX
  8
LAYER_3
 10
154.4297
 20
-98.5933
  0
SEQEND
  0
POLYLINE
  8
LAYER_3
 40
0.1058
 41
0.1058
 66
1
 10
0
 20
0
 30
0
  0
VERTEX
  8
LAYER_3
 10
151.2697
 20
-98.5444
  0
VERTEX
  8
LAYER_3
 10
151.3173
 20
-98.5933
  0
SEQEND
  0
POLYLINE
  8
LAYER_3
 40
0.1058
 41
0.1058
 66
1
 10
0
 20
0
 30
0
  0
VERTEX
  8
LAYER_3
 10
152.9218
 20
-99.1594
  0
VERTEX
  8
LAYER_3
 10
152.7802
 20
-98.9165
  0
SEQEND
  0
POLYLINE
  8
LAYER_3
 40
0.1058
 41
0.1058
 66
1
 10
0
 20
0
 30
0
  0
VERTEX
  8
LAYER_3
 10
152.3631
 20
-96.4828
  0
VERTEX
  8
LAYER_3
 10
151.3661
 20
-96.9249
  0
SEQEND
  0
POLYLINE
  8
LAYER_3
 40
0.1058
 41
0.1058
 66
1
 10
0
 20
0
 30
0
  0
VERTEX
  8
LAYER_3
 10
154.4297
 20
-78.9686
  0
VERTEX
  8
LAYER_3
 10
152.4032
 20
-78.9686
  0
SEQEND
  0
POLYLINE
  8
LAYER_3
 40
0.1058
 41
0.1058
 66
1
 10
0
 20
0
 30
0
  0
VERTEX
  8
LAYER_3
 10
154.4297
 20
-78.9686
  0
VERTEX
  8
LAYER_3
 10
156.4602
 20
-78.9686
  0
SEQEND
  0
POLYLINE
  8
LAYER_3
 40
0.1058
 41
0.1058
 66
1
 10
0
 20
0
 30
0
  0
VERTEX
  8
LAYER_3
 10
156.1921
 20
-78.9686
  0
VERTEX
  8
LAYER_3
 10
156.4413
 20
-78.9686
  0
SEQEND
  0
POLYLINE
  8
LAYER_3
 40
0.1058
 41
0.1058
 66
1
 10
0
 20
0
 30
0
  0
VERTEX
  8
LAYER_3
 10
152.67
 20
-78.9686
  0
VERTEX
  8
LAYER_3
 10
152.4195
 20
-78.9686
  0
SEQEND
  0
POLYLINE
  8
LAYER_3
 40
0.1058
 41
0.1058
 66
1
 10
0
 20
0
 30
0
  0
VERTEX
  8
LAYER_3
 10
130.4213
 20
-65.4577
  0
VERTEX
  8
LAYER_3
 10
130.3662
 20
-65.5766
  0
SEQEND
  0
POLYLINE
  8
LAYER_3
 40
0.1058
 41
0.1058
 66
1
 10
0
 20
0
 30
0
  0
VERTEX
  8
LAYER_3
 10
130.3662
 20
-65.5766
  0
VERTEX
  8
LAYER_3
 10
130.4828
 20
-65.6293
  0
SEQEND
  0
POLYLINE
  8
LAYER_3
 40
0.1058
 41
0.1058
 66
1
 10
0
 20
0
 30
0
  0
VERTEX
  8
LAYER_3
 10
155.8915
 20
-105.9657
  0
VERTEX
  8
LAYER_3
 10
155.8915
 20
-104.9988
  0
SEQEND
  0
POLYLINE
  8
LAYER_3
 40
0.1058
 41
0.1058
 66
1
 10
0
 20
0
 30
0
  0
VERTEX
  8
LAYER_3
 10
155.8915
 20
-104.9988
  0
VERTEX
  8
LAYER_3
 10
156.1294
 20
-104.9988
  0
SEQEND
  0
POLYLINE
  8
LAYER_3
 40
0.1058
 41
0.1058
 66
1
 10
0
 20
0
 30
0
  0
VERTEX
  8
LAYER_3
 10
152.7326
 20
-104.9988
  0
VERTEX
  8
LAYER_3
 10
152.9706
 20
-104.9988
  0
SEQEND
  0
POLYLINE
  8
LAYER_3
 40
0.1058
 41
0.1058
 66
1
 10
0
 20
0
 30
0
  0
VERTEX
  8
LAYER_3
 10
152.9706
 20
-104.9988
  0
VERTEX
  8
LAYER_3
 10
152.9706
 20
-105.9657
  0
SEQEND
  0
POLYLINE
  8
LAYER_3
 40
0.1058
 41
0.1058
 66
1
 10
0
 20
0
 30
0
  0
VERTEX
  8
LAYER_3
 10
135.4427
 20
-64.8126
 42
0.3824404223
  0
VERTEX
  8
LAYER_3
 10
135.3688
 20
-64.5984
  0
SEQEND
  0
POLYLINE
  8
LAYER_3
 40
0.1058
 41
0.1058
 66
1
 10
0
 20
0
 30
0
  0
VERTEX
  8
LAYER_3
 10
135.4427
 20
-64.8126
  0
VERTEX
  8
LAYER_3
 10
135.236
 20
-65.2523
  0
SEQEND
  0
POLYLINE
  8
LAYER_3
 40
0.1058
 41
0.1058
 66
1
 10
0
 20
0
 30
0
  0
VERTEX
  8
LAYER_3
 10
135.0256
 20
-65.3311
 42
0.4018194411
  0
VERTEX
  8
LAYER_3
 10
135.236
 20
-65.2523
  0
SEQEND
  0
POLYLINE
  8
LAYER_3
 40
0.1058
 41
0.1058
 66
1
 10
0
 20
0
 30
0
  0
VERTEX
  8
LAYER_3
 10
132.7686
 20
-66.8205
  0
VERTEX
  8
LAYER_3
 10
131.8229
 20
-66.3795
  0
SEQEND
  0
POLYLINE
  8
LAYER_3
 40
0.1058
 41
0.1058
 66
1
 10
0
 20
0
 30
0
  0
VERTEX
  8
LAYER_3
 10
131.7528
 20
-66.2218
 42
0.3673098354
  0
VERTEX
  8
LAYER_3
 10
131.8229
 20
-66.3795
  0
SEQEND
  0
POLYLINE
  8
LAYER_3
 40
0.1058
 41
0.1058
 66
1
 10
0
 20
0
 30
0
  0
VERTEX
  8
LAYER_3
 10
132.7686
 20
-66.8205
  0
VERTEX
  8
LAYER_3
 10
133.718
 20
-67.265
  0
SEQEND
  0
POLYLINE
  8
LAYER_3
 40
0.1058
 41
0.1058
 66
1
 10
0
 20
0
 30
0
  0
VERTEX
  8
LAYER_3
 10
133.718
 20
-67.265
 42
0.3676570676
  0
VERTEX
  8
LAYER_3
 10
133.8796
 20
-67.215
  0
SEQEND
  0
POLYLINE
  8
LAYER_3
 40
0.1058
 41
0.1058
 66
1
 10
0
 20
0
 30
0
  0
VERTEX
  8
LAYER_3
 10
152.3719
 20
-64.4895
 42
0.4142136924
  0
VERTEX
  8
LAYER_3
 10
144.3106
 20
-56.4295
 42
0.2915323881
  0
VERTEX
  8
LAYER_3
 10
137.0059
 20
-61.0826
  0
SEQEND
  0
POLYLINE
  8
LAYER_3
  6
AIGENLINE001
 40
0.1058
 41
0.1058
 66
1
 10
0
 20
0
 30
0
 70
128
  0
VERTEX
  8
LAYER_3
 10
154.4297
 20
-64.4895
 42
0.4142136659
  0
VERTEX
  8
LAYER_3
 10
144.3106
 20
-54.3691
 42
0.2914812703
  0
VERTEX
  8
LAYER_3
 10
135.1396
 20
-60.2121
  0
SEQEND
  0
POLYLINE
  8
LAYER_3
 40
0.1058
 41
0.1058
 66
1
 10
0
 20
0
 30
0
  0
VERTEX
  8
LAYER_3
 10
156.4902
 20
-78.9211
  0
VERTEX
  8
LAYER_3
 10
156.4902
 20
-64.4895
  0
SEQEND
  0
POLYLINE
  8
LAYER_3
 40
0.1058
 41
0.1058
 66
1
 10
0
 20
0
 30
0
  0
VERTEX
  8
LAYER_3
 10
152.3719
 20
-64.4895
  0
VERTEX
  8
LAYER_3
 10
152.3719
 20
-78.9211
  0
SEQEND
  0
POLYLINE
  8
LAYER_3
 40
0.1058
 41
0.1058
 66
1
 10
0
 20
0
 30
0
  0
VERTEX
  8
LAYER_3
 10
155.4831
 20
-106.1335
  0
VERTEX
  8
LAYER_3
 10
155.4831
 20
-108.4056
  0
SEQEND
  0
POLYLINE
  8
LAYER_3
 40
0.1058
 41
0.1058
 66
1
 10
0
 20
0
 30
0
  0
VERTEX
  8
LAYER_3
 10
154.6728
 20
-106.7798
  0
VERTEX
  8
LAYER_3
 10
154.6728
 20
-123.1654
  0
SEQEND
  0
POLYLINE
  8
LAYER_3
 40
0.1058
 41
0.1058
 66
1
 10
0
 20
0
 30
0
  0
VERTEX
  8
LAYER_3
 10
153.2136
 20
-105.9707
  0
VERTEX
  8
LAYER_3
 10
153.2136
 20
-123.1654
  0
SEQEND
  0
POLYLINE
  8
LAYER_3
 40
0.1058
 41
0.1058
 66
1
 10
0
 20
0
 30
0
  0
VERTEX
  8
LAYER_3
 10
156.2949
 20
-109.2148
  0
VERTEX
  8
LAYER_3
 10
160.2202
 20
-109.2148
  0
SEQEND
  0
POLYLINE
  8
LAYER_3
 40
0.1058
 41
0.1058
 66
1
 10
0
 20
0
 30
0
  0
VERTEX
  8
LAYER_3
 10
160.8052
 20
-109.2148
  0
VERTEX
  8
LAYER_3
 10
188.3094
 20
-109.2148
  0
SEQEND
  0
POLYLINE
  8
LAYER_3
 40
0.1058
 41
0.1058
 66
1
 10
0
 20
0
 30
0
  0
VERTEX
  8
LAYER_3
 10
155.4831
 20
-108.4056
 42
0.3932763835
  0
VERTEX
  8
LAYER_3
 10
156.2949
 20
-109.2148
  0
SEQEND
  0
POLYLINE
  8
LAYER_3
 40
0.1058
 41
0.1058
 66
1
 10
0
 20
0
 30
0
  0
VERTEX
  8
LAYER_3
 10
154.6728
 20
-106.7798
  0
VERTEX
  8
LAYER_3
 10
154.6728
 20
-108.3706
  0
SEQEND
  0
POLYLINE
  8
LAYER_3
 40
0.1058
 41
0.1058
 66
1
 10
0
 20
0
 30
0
  0
VERTEX
  8
LAYER_3
 10
154.6728
 20
-108.3706
 42
0.4142118668
  0
VERTEX
  8
LAYER_3
 10
156.3286
 20
-110.0251
  0
SEQEND
  0
POLYLINE
  8
LAYER_3
 40
0.1058
 41
0.1058
 66
1
 10
0
 20
0
 30
0
  0
VERTEX
  8
LAYER_3
 10
156.3286
 20
-110.0251
  0
VERTEX
  8
LAYER_3
 10
160.2202
 20
-110.0251
  0
SEQEND
  0
POLYLINE
  8
LAYER_3
 40
0.1058
 41
0.1058
 66
1
 10
0
 20
0
 30
0
  0
VERTEX
  8
LAYER_3
 10
160.8052
 20
-110.0251
  0
VERTEX
  8
LAYER_3
 10
188.3094
 20
-110.0251
  0
SEQEND
  0
POLYLINE
  8
LAYER_3
 40
0.1058
 41
0.1058
 66
1
 10
0
 20
0
 30
0
  0
VERTEX
  8
LAYER_3
 10
155.8113
 20
-105.9707
  0
VERTEX
  8
LAYER_3
 10
155.8113
 20
-106.1335
  0
SEQEND
  0
POLYLINE
  8
LAYER_3
 40
0.1058
 41
0.1058
 66
1
 10
0
 20
0
 30
0
  0
VERTEX
  8
LAYER_3
 10
155.8113
 20
-106.1335
  0
VERTEX
  8
LAYER_3
 10
154.4297
 20
-106.1335
  0
SEQEND
  0
POLYLINE
  8
LAYER_3
 40
0.1058
 41
0.1058
 66
1
 10
0
 20
0
 30
0
  0
VERTEX
  8
LAYER_3
 10
188.6338
 20
-117.7758
  0
VERTEX
  8
LAYER_3
 10
188.6338
 20
-117.1269
  0
SEQEND
  0
POLYLINE
  8
LAYER_3
 40
0.1058
 41
0.1058
 66
1
 10
0
 20
0
 30
0
  0
VERTEX
  8
LAYER_3
 10
188.6338
 20
-117.1269
  0
VERTEX
  8
LAYER_3
 10
190.4186
 20
-117.1269
  0
SEQEND
  0
POLYLINE
  8
LAYER_3
 40
0.1058
 41
0.1058
 66
1
 10
0
 20
0
 30
0
  0
VERTEX
  8
LAYER_3
 10
190.4186
 20
-117.1269
  0
VERTEX
  8
LAYER_3
 10
190.4186
 20
-117.7758
  0
SEQEND
  0
POLYLINE
  8
LAYER_3
 40
0.1058
 41
0.1058
 66
1
 10
0
 20
0
 30
0
  0
VERTEX
  8
LAYER_3
 10
188.7991
 20
-117.9374
  0
VERTEX
  8
LAYER_3
 10
188.6338
 20
-117.7758
  0
SEQEND
  0
POLYLINE
  8
LAYER_3
 40
0.1058
 41
0.1058
 66
1
 10
0
 20
0
 30
0
  0
VERTEX
  8
LAYER_3
 10
188.7991
 20
-117.9374
  0
VERTEX
  8
LAYER_3
 10
188.7991
 20
-119.2024
  0
SEQEND
  0
POLYLINE
  8
LAYER_3
 40
0.1058
 41
0.1058
 66
1
 10
0
 20
0
 30
0
  0
VERTEX
  8
LAYER_3
 10
190.2546
 20
-117.9374
  0
VERTEX
  8
LAYER_3
 10
190.4186
 20
-117.7758
  0
SEQEND
  0
POLYLINE
  8
LAYER_3
 40
0.1058
 41
0.1058
 66
1
 10
0
 20
0
 30
0
  0
VERTEX
  8
LAYER_3
 10
190.2546
 20
-117.9374
  0
VERTEX
  8
LAYER_3
 10
190.2546
 20
-119.2024
  0
SEQEND
  0
POLYLINE
  8
LAYER_3
 40
0.1058
 41
0.1058
 66
1
 10
0
 20
0
 30
0
  0
VERTEX
  8
LAYER_3
 10
188.7991
 20
-117.9374
  0
VERTEX
  8
LAYER_3
 10
190.2546
 20
-117.9374
  0
SEQEND
  0
POLYLINE
  8
LAYER_3
 40
0.1058
 41
0.1058
 66
1
 10
0
 20
0
 30
0
  0
VERTEX
  8
LAYER_3
 10
188.6338
 20
-117.7758
  0
VERTEX
  8
LAYER_3
 10
190.4186
 20
-117.7758
  0
SEQEND
  0
POLYLINE
  8
LAYER_3
 40
0.1058
 41
0.1058
 66
1
 10
0
 20
0
 30
0
  0
VERTEX
  8
LAYER_3
 10
154.4297
 20
-102.8907
  0
VERTEX
  8
LAYER_3
 10
151.5139
 20
-102.8907
  0
SEQEND
  0
POLYLINE
  8
LAYER_3
 40
0.1058
 41
0.1058
 66
1
 10
0
 20
0
 30
0
  0
VERTEX
  8
LAYER_3
 10
151.5139
 20
-102.8907
  0
VERTEX
  8
LAYER_3
 10
151.5139
 20
-103.0523
  0
SEQEND
  0
POLYLINE
  8
LAYER_3
 40
0.1058
 41
0.1058
 66
1
 10
0
 20
0
 30
0
  0
VERTEX
  8
LAYER_3
 10
151.5139
 20
-103.0523
  0
VERTEX
  8
LAYER_3
 10
154.4297
 20
-103.0523
  0
SEQEND
  0
POLYLINE
  8
LAYER_3
 40
0.1058
 41
0.1058
 66
1
 10
0
 20
0
 30
0
  0
VERTEX
  8
LAYER_3
 10
154.4297
 20
-103.0523
  0
VERTEX
  8
LAYER_3
 10
157.352
 20
-103.0523
  0
SEQEND
  0
POLYLINE
  8
LAYER_3
 40
0.1058
 41
0.1058
 66
1
 10
0
 20
0
 30
0
  0
VERTEX
  8
LAYER_3
 10
157.352
 20
-103.0523
  0
VERTEX
  8
LAYER_3
 10
157.352
 20
-102.8907
  0
SEQEND
  0
POLYLINE
  8
LAYER_3
 40
0.1058
 41
0.1058
 66
1
 10
0
 20
0
 30
0
  0
VERTEX
  8
LAYER_3
 10
157.352
 20
-102.8907
  0
VERTEX
  8
LAYER_3
 10
154.4297
 20
-102.8907
  0
SEQEND
  0
POLYLINE
  8
LAYER_3
 40
0.1058
 41
0.1058
 66
1
 10
0
 20
0
 30
0
  0
VERTEX
  8
LAYER_3
 10
152.4845
 20
-104.107
  0
VERTEX
  8
LAYER_3
 10
154.4297
 20
-104.107
  0
SEQEND
  0
POLYLINE
  8
LAYER_3
 40
0.1058
 41
0.1058
 66
1
 10
0
 20
0
 30
0
  0
VERTEX
  8
LAYER_3
 10
156.3762
 20
-104.107
  0
VERTEX
  8
LAYER_3
 10
154.4297
 20
-104.107
  0
SEQEND
  0
POLYLINE
  8
LAYER_3
 40
0.1058
 41
0.1058
 66
1
 10
0
 20
0
 30
0
  0
VERTEX
  8
LAYER_3
 10
151.6718
 20
-102.8907
  0
VERTEX
  8
LAYER_3
 10
151.6718
 20
-102.5664
  0
SEQEND
  0
POLYLINE
  8
LAYER_3
 40
0.1058
 41
0.1058
 66
1
 10
0
 20
0
 30
0
  0
VERTEX
  8
LAYER_3
 10
151.6718
 20
-102.5664
  0
VERTEX
  8
LAYER_3
 10
154.4297
 20
-102.5664
  0
SEQEND
  0
POLYLINE
  8
LAYER_3
 40
0.1058
 41
0.1058
 66
1
 10
0
 20
0
 30
0
  0
VERTEX
  8
LAYER_3
 10
152.7326
 20
-102.8907
  0
VERTEX
  8
LAYER_3
 10
151.6718
 20
-102.8907
  0
SEQEND
  0
POLYLINE
  8
LAYER_3
 40
0.1058
 41
0.1058
 66
1
 10
0
 20
0
 30
0
  0
VERTEX
  8
LAYER_3
 10
157.1854
 20
-102.5664
  0
VERTEX
  8
LAYER_3
 10
157.1854
 20
-102.8907
  0
SEQEND
  0
POLYLINE
  8
LAYER_3
 40
0.1058
 41
0.1058
 66
1
 10
0
 20
0
 30
0
  0
VERTEX
  8
LAYER_3
 10
157.1854
 20
-102.8907
  0
VERTEX
  8
LAYER_3
 10
156.1294
 20
-102.8907
  0
SEQEND
  0
POLYLINE
  8
LAYER_3
 40
0.1058
 41
0.1058
 66
1
 10
0
 20
0
 30
0
  0
VERTEX
  8
LAYER_3
 10
154.4297
 20
-102.5664
  0
VERTEX
  8
LAYER_3
 10
157.1854
 20
-102.5664
  0
SEQEND
  0
POLYLINE
  8
LAYER_3
 40
0.1058
 41
0.1058
 66
1
 10
0
 20
0
 30
0
  0
VERTEX
  8
LAYER_3
 10
152.4845
 20
-103.0523
  0
VERTEX
  8
LAYER_3
 10
152.7326
 20
-103.0523
  0
SEQEND
  0
POLYLINE
  8
LAYER_3
 40
0.1058
 41
0.1058
 66
1
 10
0
 20
0
 30
0
  0
VERTEX
  8
LAYER_3
 10
156.3762
 20
-103.0523
  0
VERTEX
  8
LAYER_3
 10
156.1294
 20
-103.0523
  0
SEQEND
  0
POLYLINE
  8
LAYER_3
 40
0.1058
 41
0.1058
 66
1
 10
0
 20
0
 30
0
  0
VERTEX
  8
LAYER_3
 10
157.2693
 20
-98.5933
  0
VERTEX
  8
LAYER_3
 10
157.2693
 20
-98.9165
  0
SEQEND
  0
POLYLINE
  8
LAYER_3
 40
0.1058
 41
0.1058
 66
1
 10
0
 20
0
 30
0
  0
VERTEX
  8
LAYER_3
 10
157.2693
 20
-98.9165
  0
VERTEX
  8
LAYER_3
 10
154.4297
 20
-98.9165
  0
SEQEND
  0
POLYLINE
  8
LAYER_3
 40
0.1058
 41
0.1058
 66
1
 10
0
 20
0
 30
0
  0
VERTEX
  8
LAYER_3
 10
151.5916
 20
-98.5933
  0
VERTEX
  8
LAYER_3
 10
151.5916
 20
-98.9165
  0
SEQEND
  0
POLYLINE
  8
LAYER_3
 40
0.1058
 41
0.1058
 66
1
 10
0
 20
0
 30
0
  0
VERTEX
  8
LAYER_3
 10
151.5916
 20
-98.9165
  0
VERTEX
  8
LAYER_3
 10
154.4297
 20
-98.9165
  0
SEQEND
  0
POLYLINE
  8
LAYER_3
  6
AIGENLINE001
 40
0.1058
 41
0.1058
 66
1
 10
0
 20
0
 30
0
 70
128
  0
VERTEX
  8
LAYER_3
 10
154.4297
 20
-106.944
  0
VERTEX
  8
LAYER_3
 10
154.4297
 20
-64.4895
  0
SEQEND
  0
POLYLINE
  8
LAYER_3
 40
0.1058
 41
0.1058
 66
1
 10
0
 20
0
 30
0
  0
VERTEX
  8
LAYER_3
 10
160.8052
 20
-109.2148
 42
-0.3856558
  0
VERTEX
  8
LAYER_3
 10
160.8052
 20
-109.3764
 42
0.1946375024
  0
VERTEX
  8
LAYER_3
 10
160.7738
 20
-109.459
 42
0.2038760819
  0
VERTEX
  8
LAYER_3
 10
160.8052
 20
-109.5391
 42
-0.187148786
  0
VERTEX
  8
LAYER_3
 10
160.8365
 20
-109.618
 42
-0.1739071623
  0
VERTEX
  8
LAYER_3
 10
160.8052
 20
-109.7007
 42
0.1943626978
  0
VERTEX
  8
LAYER_3
 10
160.7738
 20
-109.7809
 42
0.2200074959
  0
VERTEX
  8
LAYER_3
 10
160.8052
 20
-109.8611
 42
-0.1783250071
  0
VERTEX
  8
LAYER_3
 10
160.8365
 20
-109.945
 42
-0.1697574692
  0
VERTEX
  8
LAYER_3
 10
160.8052
 20
-110.0251
  0
SEQEND
  0
POLYLINE
  8
LAYER_3
 40
0.1058
 41
0.1058
 66
1
 10
0
 20
0
 30
0
  0
VERTEX
  8
LAYER_3
 10
160.2202
 20
-109.2148
 42
-0.3864391968
  0
VERTEX
  8
LAYER_3
 10
160.2202
 20
-109.3764
 42
0.1824751589
  0
VERTEX
  8
LAYER_3
 10
160.1889
 20
-109.459
 42
0.1759303546
  0
VERTEX
  8
LAYER_3
 10
160.2202
 20
-109.5391
 42
-0.1942333258
  0
VERTEX
  8
LAYER_3
 10
160.2541
 20
-109.618
 42
-0.1535645841
  0
VERTEX
  8
LAYER_3
 10
160.2202
 20
-109.7007
 42
0.1835647791
  0
VERTEX
  8
LAYER_3
 10
160.1889
 20
-109.7809
 42
0.1919658098
  0
VERTEX
  8
LAYER_3
 10
160.2202
 20
-109.8611
 42
-0.1888358343
  0
VERTEX
  8
LAYER_3
 10
160.2541
 20
-109.945
 42
-0.1489269916
  0
VERTEX
  8
LAYER_3
 10
160.2202
 20
-110.0251
  0
SEQEND
  0
POLYLINE
  8
LAYER_3
 40
0.1058
 41
0.1058
 66
1
 10
0
 20
0
 30
0
  0
VERTEX
  8
LAYER_3
 10
79.6739
 20
-78.9712
  0
VERTEX
  8
LAYER_3
 10
83.7296
 20
-78.9712
  0
SEQEND
  0
POLYLINE
  8
LAYER_3
 40
0.1058
 41
0.1058
 66
1
 10
0
 20
0
 30
0
  0
VERTEX
  8
LAYER_3
 10
83.7622
 20
-78.9412
  0
VERTEX
  8
LAYER_3
 10
83.7622
 20
-54.3715
  0
SEQEND
  0
POLYLINE
  8
LAYER_3
 40
0.1058
 41
0.1058
 66
1
 10
0
 20
0
 30
0
  0
VERTEX
  8
LAYER_3
 10
79.6426
 20
-54.3715
  0
VERTEX
  8
LAYER_3
 10
79.6426
 20
-78.9412
  0
SEQEND
  0
POLYLINE
  8
LAYER_3
 40
0.1058
 41
0.1058
 66
1
 10
0
 20
0
 30
0
  0
VERTEX
  8
LAYER_3
 10
83.7622
 20
-54.3715
 42
0.393647032
  0
VERTEX
  8
LAYER_3
 10
81.7005
 20
-52.3136
 42
0.4142033271
  0
VERTEX
  8
LAYER_3
 10
79.6426
 20
-54.3715
  0
SEQEND
  0
POLYLINE
  8
LAYER_3
 40
0.1058
 41
0.1058
 66
1
 10
0
 20
0
 30
0
  0
VERTEX
  8
LAYER_3
 10
82.5622
 20
-67.2426
 42
0.094223294
  0
VERTEX
  8
LAYER_3
 10
83.4613
 20
-66.9026
 42
0.1624121745
  0
VERTEX
  8
LAYER_3
 10
83.7507
 20
-66.5387
 42
0.2287789139
  0
VERTEX
  8
LAYER_3
 10
83.6751
 20
-66.2013
 42
0.05076023202
  0
VERTEX
  8
LAYER_3
 10
83.573
 20
-66.0877
 42
0.06642480999
  0
VERTEX
  8
LAYER_3
 10
83.2834
 20
-65.8929
 42
0.04566689349
  0
VERTEX
  8
LAYER_3
 10
82.8769
 20
-65.7355
 42
0.06834777448
  0
VERTEX
  8
LAYER_3
 10
81.787
 20
-65.5797
 42
0.05147460085
  0
VERTEX
  8
LAYER_3
 10
80.8412
 20
-65.6581
 42
0.09413683656
  0
VERTEX
  8
LAYER_3
 10
79.9413
 20
-65.9979
 42
0.162915883
  0
VERTEX
  8
LAYER_3
 10
79.652
 20
-66.3622
 42
0.2280966294
  0
VERTEX
  8
LAYER_3
 10
79.7281
 20
-66.701
 42
0.0504161118
  0
VERTEX
  8
LAYER_3
 10
79.8305
 20
-66.8155
 42
0.06624718359
  0
VERTEX
  8
LAYER_3
 10
80.1224
 20
-67.0092
 42
0.06928780025
  0
VERTEX
  8
LAYER_3
 10
80.8412
 20
-67.2426
  0
SEQEND
  0
POLYLINE
  8
LAYER_3
 40
0.1058
 41
0.1058
 66
1
 10
0
 20
0
 30
0
  0
VERTEX
  8
LAYER_3
 10
82.6775
 20
-67.1461
 42
0.1091419352
  0
VERTEX
  8
LAYER_3
 10
83.4316
 20
-66.7957
 42
0.1909094753
  0
VERTEX
  8
LAYER_3
 10
83.6152
 20
-66.4574
 42
0.2191398452
  0
VERTEX
  8
LAYER_3
 10
83.4671
 20
-66.1387
 42
0.04078216738
  0
VERTEX
  8
LAYER_3
 10
83.3463
 20
-66.0376
 42
0.05925045422
  0
VERTEX
  8
LAYER_3
 10
82.9986
 20
-65.8558
 42
0.07959674191
  0
VERTEX
  8
LAYER_3
 10
81.9929
 20
-65.6505
 42
0.06625393124
  0
VERTEX
  8
LAYER_3
 10
80.8539
 20
-65.7257
 42
0.009384413897
  0
VERTEX
  8
LAYER_3
 10
80.7247
 20
-65.7558
 42
0.1099046695
  0
VERTEX
  8
LAYER_3
 10
79.9715
 20
-66.105
 42
0.190925146
  0
VERTEX
  8
LAYER_3
 10
79.7883
 20
-66.4435
 42
0.2191124412
  0
VERTEX
  8
LAYER_3
 10
79.9364
 20
-66.7623
 42
0.04095310215
  0
VERTEX
  8
LAYER_3
 10
80.0571
 20
-66.8631
 42
0.09279894756
  0
VERTEX
  8
LAYER_3
 10
80.7223
 20
-67.1461
  0
SEQEND
  0
POLYLINE
  8
LAYER_3
 40
0.1058
 41
0.1058
 66
1
 10
0
 20
0
 30
0
  0
VERTEX
  8
LAYER_3
 10
80.0271
 20
-66.0602
 42
0.2236762488
  0
VERTEX
  8
LAYER_3
 10
79.836
 20
-66.4264
 42
0.1140346931
  0
VERTEX
  8
LAYER_3
 10
79.886
 20
-66.5882
 42
0.08495298023
  0
VERTEX
  8
LAYER_3
 10
80.0226
 20
-66.75
 42
0.06143726793
  0
VERTEX
  8
LAYER_3
 10
80.2675
 20
-66.9104
 42
0.04611378075
  0
VERTEX
  8
LAYER_3
 10
80.6421
 20
-67.0547
  0
SEQEND
  0
POLYLINE
  8
LAYER_3
 40
0.1058
 41
0.1058
 66
1
 10
0
 20
0
 30
0
  0
VERTEX
  8
LAYER_3
 10
82.7576
 20
-67.0547
 42
0.05894945046
  0
VERTEX
  8
LAYER_3
 10
83.1966
 20
-66.8763
 42
0.07552440207
  0
VERTEX
  8
LAYER_3
 10
83.4356
 20
-66.6955
 42
0.2148733761
  0
VERTEX
  8
LAYER_3
 10
83.5638
 20
-66.3583
 42
0.1950320982
  0
VERTEX
  8
LAYER_3
 10
83.3776
 20
-66.0602
  0
SEQEND
  0
POLYLINE
  8
LAYER_3
 40
0.1058
 41
0.1058
 66
1
 10
0
 20
0
 30
0
  0
VERTEX
  8
LAYER_3
 10
79.6915
 20
-78.9712
  0
VERTEX
  8
LAYER_3
 10
83.712
 20
-78.9712
  0
SEQEND
  0
POLYLINE
  8
LAYER_3
 40
0.1058
 41
0.1058
 66
1
 10
0
 20
0
 30
0
  0
VERTEX
  8
LAYER_3
 10
81.7005
 20
-78.9712
  0
VERTEX
  8
LAYER_3
 10
79.6915
 20
-78.9712
  0
SEQEND
  0
POLYLINE
  8
LAYER_3
 40
0.1058
 41
0.1058
 66
1
 10
0
 20
0
 30
0
  0
VERTEX
  8
LAYER_3
 10
81.7005
 20
-78.9712
  0
VERTEX
  8
LAYER_3
 10
83.712
 20
-78.9712
  0
SEQEND
  0
POLYLINE
  8
LAYER_3
 40
0.1058
 41
0.1058
 66
1
 10
0
 20
0
 30
0
  0
VERTEX
  8
LAYER_3
 10
79.9996
 20
-105.7315
  0
VERTEX
  8
LAYER_3
 10
79.9996
 20
-104.1094
  0
SEQEND
  0
POLYLINE
  8
LAYER_3
 40
0.1058
 41
0.1058
 66
1
 10
0
 20
0
 30
0
  0
VERTEX
  8
LAYER_3
 10
79.9996
 20
-102.5688
  0
VERTEX
  8
LAYER_3
 10
79.9996
 20
-98.9202
  0
SEQEND
  0
POLYLINE
  8
LAYER_3
 40
0.1058
 41
0.1058
 66
1
 10
0
 20
0
 30
0
  0
VERTEX
  8
LAYER_3
 10
80.1899
 20
-105.9206
  0
VERTEX
  8
LAYER_3
 10
80.1899
 20
-104.1094
  0
SEQEND
  0
POLYLINE
  8
LAYER_3
 40
0.1058
 41
0.1058
 66
1
 10
0
 20
0
 30
0
  0
VERTEX
  8
LAYER_3
 10
80.1899
 20
-102.5688
  0
VERTEX
  8
LAYER_3
 10
80.1899
 20
-99.162
  0
SEQEND
  0
POLYLINE
  8
LAYER_3
 40
0.1058
 41
0.1058
 66
1
 10
0
 20
0
 30
0
  0
VERTEX
  8
LAYER_3
 10
81.7005
 20
-99.162
  0
VERTEX
  8
LAYER_3
 10
79.9996
 20
-99.162
  0
SEQEND
  0
POLYLINE
  8
LAYER_3
 40
0.1058
 41
0.1058
 66
1
 10
0
 20
0
 30
0
  0
VERTEX
  8
LAYER_3
 10
79.6915
 20
-78.9712
  0
VERTEX
  8
LAYER_3
 10
79.8605
 20
-78.9712
  0
SEQEND
  0
POLYLINE
  8
LAYER_3
 40
0.1058
 41
0.1058
 66
1
 10
0
 20
0
 30
0
  0
VERTEX
  8
LAYER_3
 10
79.6915
 20
-78.9712
  0
VERTEX
  8
LAYER_3
 10
79.8605
 20
-78.9712
  0
SEQEND
  0
POLYLINE
  8
LAYER_3
 40
0.1058
 41
0.1058
 66
1
 10
0
 20
0
 30
0
  0
VERTEX
  8
LAYER_3
 10
80.1899
 20
-99.162
  0
VERTEX
  8
LAYER_3
 10
79.9996
 20
-99.162
  0
SEQEND
  0
POLYLINE
  8
LAYER_3
 40
0.1482
 41
0.1482
 66
1
 10
0
 20
0
 30
0
  0
VERTEX
  8
LAYER_3
 10
78.5391
 20
-98.547
  0
VERTEX
  8
LAYER_3
 10
78.5391
 20
-97.074
  0
SEQEND
  0
POLYLINE
  8
LAYER_3
 40
0.1482
 41
0.1482
 66
1
 10
0
 20
0
 30
0
  0
VERTEX
  8
LAYER_3
 10
78.6355
 20
-96.9274
 42
0.2921681426
  0
VERTEX
  8
LAYER_3
 10
78.5391
 20
-97.074
  0
SEQEND
  0
POLYLINE
  8
LAYER_3
 40
0.1058
 41
0.1058
 66
1
 10
0
 20
0
 30
0
  0
VERTEX
  8
LAYER_3
 10
78.5879
 20
-98.5958
  0
VERTEX
  8
LAYER_3
 10
81.7005
 20
-98.5958
  0
SEQEND
  0
POLYLINE
  8
LAYER_3
 40
0.1058
 41
0.1058
 66
1
 10
0
 20
0
 30
0
  0
VERTEX
  8
LAYER_3
 10
78.5391
 20
-98.547
  0
VERTEX
  8
LAYER_3
 10
78.5879
 20
-98.5958
  0
SEQEND
  0
POLYLINE
  8
LAYER_3
 40
0.1058
 41
0.1058
 66
1
 10
0
 20
0
 30
0
  0
VERTEX
  8
LAYER_3
 10
80.1899
 20
-99.162
  0
VERTEX
  8
LAYER_3
 10
80.0521
 20
-98.9202
  0
SEQEND
  0
POLYLINE
  8
LAYER_3
 40
0.1058
 41
0.1058
 66
1
 10
0
 20
0
 30
0
  0
VERTEX
  8
LAYER_3
 10
80.245
 20
-105.9757
  0
VERTEX
  8
LAYER_3
 10
81.7005
 20
-105.9757
  0
SEQEND
  0
POLYLINE
  8
LAYER_3
 40
0.1058
 41
0.1058
 66
1
 10
0
 20
0
 30
0
  0
VERTEX
  8
LAYER_3
 10
79.9996
 20
-105.7315
  0
VERTEX
  8
LAYER_3
 10
80.245
 20
-105.9757
  0
SEQEND
  0
POLYLINE
  8
LAYER_3
 40
0.1058
 41
0.1058
 66
1
 10
0
 20
0
 30
0
  0
VERTEX
  8
LAYER_3
 10
79.9996
 20
-105.6927
  0
VERTEX
  8
LAYER_3
 10
80.83
 20
-105.6927
  0
SEQEND
  0
POLYLINE
  8
LAYER_3
 40
0.1058
 41
0.1058
 66
1
 10
0
 20
0
 30
0
  0
VERTEX
  8
LAYER_3
 10
78.5391
 20
-98.547
  0
VERTEX
  8
LAYER_3
 10
81.7005
 20
-98.547
  0
SEQEND
  0
POLYLINE
  8
LAYER_3
 40
0.1058
 41
0.1058
 66
1
 10
0
 20
0
 30
0
  0
VERTEX
  8
LAYER_3
 10
81.7005
 20
-105.0012
  0
VERTEX
  8
LAYER_3
 10
80.83
 20
-105.0012
  0
SEQEND
  0
POLYLINE
  8
LAYER_3
 40
0.1058
 41
0.1058
 66
1
 10
0
 20
0
 30
0
  0
VERTEX
  8
LAYER_3
 10
80.83
 20
-105.0012
  0
VERTEX
  8
LAYER_3
 10
80.83
 20
-105.6927
  0
SEQEND
  0
POLYLINE
  8
LAYER_3
 40
0.1058
 41
0.1058
 66
1
 10
0
 20
0
 30
0
  0
VERTEX
  8
LAYER_3
 10
80.83
 20
-105.6927
 42
0.1313403187
  0
VERTEX
  8
LAYER_3
 10
81.7005
 20
-105.9344
  0
SEQEND
  0
POLYLINE
  8
LAYER_3
 40
0.1058
 41
0.1058
 66
1
 10
0
 20
0
 30
0
  0
VERTEX
  8
LAYER_3
 10
78.6192
 20
-96.97
  0
VERTEX
  8
LAYER_3
 10
81.7005
 20
-96.97
  0
SEQEND
  0
POLYLINE
  8
LAYER_3
 40
0.1058
 41
0.1058
 66
1
 10
0
 20
0
 30
0
  0
VERTEX
  8
LAYER_3
 10
79.6338
 20
-96.4853
  0
VERTEX
  8
LAYER_3
 10
78.6355
 20
-96.9274
  0
SEQEND
  0
POLYLINE
  8
LAYER_3
 40
0.1058
 41
0.1058
 66
1
 10
0
 20
0
 30
0
  0
VERTEX
  8
LAYER_3
 10
83.4002
 20
-105.7315
  0
VERTEX
  8
LAYER_3
 10
83.4002
 20
-104.1094
  0
SEQEND
  0
POLYLINE
  8
LAYER_3
 40
0.1058
 41
0.1058
 66
1
 10
0
 20
0
 30
0
  0
VERTEX
  8
LAYER_3
 10
83.4002
 20
-102.5688
  0
VERTEX
  8
LAYER_3
 10
83.4002
 20
-98.9202
  0
SEQEND
  0
POLYLINE
  8
LAYER_3
 40
0.1058
 41
0.1058
 66
1
 10
0
 20
0
 30
0
  0
VERTEX
  8
LAYER_3
 10
83.2123
 20
-105.9206
  0
VERTEX
  8
LAYER_3
 10
83.2123
 20
-104.1094
  0
SEQEND
  0
POLYLINE
  8
LAYER_3
 40
0.1058
 41
0.1058
 66
1
 10
0
 20
0
 30
0
  0
VERTEX
  8
LAYER_3
 10
83.2123
 20
-102.5688
  0
VERTEX
  8
LAYER_3
 10
83.2123
 20
-99.162
  0
SEQEND
  0
POLYLINE
  8
LAYER_3
 40
0.1058
 41
0.1058
 66
1
 10
0
 20
0
 30
0
  0
VERTEX
  8
LAYER_3
 10
81.7005
 20
-99.162
  0
VERTEX
  8
LAYER_3
 10
83.4002
 20
-99.162
  0
SEQEND
  0
POLYLINE
  8
LAYER_3
 40
0.1058
 41
0.1058
 66
1
 10
0
 20
0
 30
0
  0
VERTEX
  8
LAYER_3
 10
83.712
 20
-78.9712
  0
VERTEX
  8
LAYER_3
 10
83.5404
 20
-78.9712
  0
SEQEND
  0
POLYLINE
  8
LAYER_3
 40
0.1058
 41
0.1058
 66
1
 10
0
 20
0
 30
0
  0
VERTEX
  8
LAYER_3
 10
83.712
 20
-78.9712
  0
VERTEX
  8
LAYER_3
 10
83.5404
 20
-78.9712
  0
SEQEND
  0
POLYLINE
  8
LAYER_3
 40
0.1058
 41
0.1058
 66
1
 10
0
 20
0
 30
0
  0
VERTEX
  8
LAYER_3
 10
83.2123
 20
-99.162
  0
VERTEX
  8
LAYER_3
 10
83.4002
 20
-99.162
  0
SEQEND
  0
POLYLINE
  8
LAYER_3
 40
0.1482
 41
0.1482
 66
1
 10
0
 20
0
 30
0
  0
VERTEX
  8
LAYER_3
 10
84.8631
 20
-98.547
  0
VERTEX
  8
LAYER_3
 10
84.8631
 20
-97.074
  0
SEQEND
  0
POLYLINE
  8
LAYER_3
 40
0.1482
 41
0.1482
 66
1
 10
0
 20
0
 30
0
  0
VERTEX
  8
LAYER_3
 10
84.8631
 20
-97.074
 42
0.2904742787
  0
VERTEX
  8
LAYER_3
 10
84.7654
 20
-96.9274
  0
SEQEND
  0
POLYLINE
  8
LAYER_3
 40
0.1058
 41
0.1058
 66
1
 10
0
 20
0
 30
0
  0
VERTEX
  8
LAYER_3
 10
84.8156
 20
-98.5958
  0
VERTEX
  8
LAYER_3
 10
81.7005
 20
-98.5958
  0
SEQEND
  0
POLYLINE
  8
LAYER_3
 40
0.1058
 41
0.1058
 66
1
 10
0
 20
0
 30
0
  0
VERTEX
  8
LAYER_3
 10
84.8631
 20
-98.547
  0
VERTEX
  8
LAYER_3
 10
84.8156
 20
-98.5958
  0
SEQEND
  0
POLYLINE
  8
LAYER_3
 40
0.1058
 41
0.1058
 66
1
 10
0
 20
0
 30
0
  0
VERTEX
  8
LAYER_3
 10
83.2123
 20
-99.162
  0
VERTEX
  8
LAYER_3
 10
83.3513
 20
-98.9202
  0
SEQEND
  0
POLYLINE
  8
LAYER_3
 40
0.1058
 41
0.1058
 66
1
 10
0
 20
0
 30
0
  0
VERTEX
  8
LAYER_3
 10
83.1584
 20
-105.9757
  0
VERTEX
  8
LAYER_3
 10
81.7005
 20
-105.9757
  0
SEQEND
  0
POLYLINE
  8
LAYER_3
 40
0.1058
 41
0.1058
 66
1
 10
0
 20
0
 30
0
  0
VERTEX
  8
LAYER_3
 10
83.4002
 20
-105.7315
  0
VERTEX
  8
LAYER_3
 10
83.1584
 20
-105.9757
  0
SEQEND
  0
POLYLINE
  8
LAYER_3
 40
0.1058
 41
0.1058
 66
1
 10
0
 20
0
 30
0
  0
VERTEX
  8
LAYER_3
 10
83.4002
 20
-105.6927
  0
VERTEX
  8
LAYER_3
 10
82.5723
 20
-105.6927
  0
SEQEND
  0
POLYLINE
  8
LAYER_3
 40
0.1058
 41
0.1058
 66
1
 10
0
 20
0
 30
0
  0
VERTEX
  8
LAYER_3
 10
84.8631
 20
-98.547
  0
VERTEX
  8
LAYER_3
 10
81.7005
 20
-98.547
  0
SEQEND
  0
POLYLINE
  8
LAYER_3
 40
0.1058
 41
0.1058
 66
1
 10
0
 20
0
 30
0
  0
VERTEX
  8
LAYER_3
 10
81.7005
 20
-105.0012
  0
VERTEX
  8
LAYER_3
 10
82.5723
 20
-105.0012
  0
SEQEND
  0
POLYLINE
  8
LAYER_3
 40
0.1058
 41
0.1058
 66
1
 10
0
 20
0
 30
0
  0
VERTEX
  8
LAYER_3
 10
82.5723
 20
-105.0012
  0
VERTEX
  8
LAYER_3
 10
82.5723
 20
-105.6927
  0
SEQEND
  0
POLYLINE
  8
LAYER_3
 40
0.1058
 41
0.1058
 66
1
 10
0
 20
0
 30
0
  0
VERTEX
  8
LAYER_3
 10
81.7005
 20
-105.9344
 42
0.1338049036
  0
VERTEX
  8
LAYER_3
 10
82.5723
 20
-105.6927
  0
SEQEND
  0
POLYLINE
  8
LAYER_3
 40
0.1058
 41
0.1058
 66
1
 10
0
 20
0
 30
0
  0
VERTEX
  8
LAYER_3
 10
84.7817
 20
-96.97
  0
VERTEX
  8
LAYER_3
 10
81.7005
 20
-96.97
  0
SEQEND
  0
POLYLINE
  8
LAYER_3
 40
0.1058
 41
0.1058
 66
1
 10
0
 20
0
 30
0
  0
VERTEX
  8
LAYER_3
 10
83.7697
 20
-96.4853
  0
VERTEX
  8
LAYER_3
 10
84.7654
 20
-96.9274
  0
SEQEND
  0
POLYLINE
  8
LAYER_3
 40
0.1058
 41
0.1058
 66
1
 10
0
 20
0
 30
0
  0
VERTEX
  8
LAYER_3
 10
80.5269
 20
-66.7215
  0
VERTEX
  8
LAYER_3
 10
80.5294
 20
-66.7403
  0
VERTEX
  8
LAYER_3
 10
80.5431
 20
-66.8492
  0
VERTEX
  8
LAYER_3
 10
80.5807
 20
-66.9532
  0
VERTEX
  8
LAYER_3
 10
80.6396
 20
-67.0497
  0
VERTEX
  8
LAYER_3
 10
80.716
 20
-67.1398
  0
VERTEX
  8
LAYER_3
 10
80.8149
 20
-67.2263
  0
VERTEX
  8
LAYER_3
 10
80.9315
 20
-67.2976
  0
VERTEX
  8
LAYER_3
 10
81.0667
 20
-67.3615
  0
VERTEX
  8
LAYER_3
 10
81.2096
 20
-67.4129
  0
VERTEX
  8
LAYER_3
 10
81.3649
 20
-67.4492
  0
VERTEX
  8
LAYER_3
 10
81.5239
 20
-67.4718
  0
VERTEX
  8
LAYER_3
 10
81.6792
 20
-67.4805
  0
VERTEX
  8
LAYER_3
 10
81.698
 20
-67.4805
  0
SEQEND
  0
POLYLINE
  8
LAYER_3
 40
0.1058
 41
0.1058
 66
1
 10
0
 20
0
 30
0
  0
VERTEX
  8
LAYER_3
 10
81.698
 20
-67.4805
  0
VERTEX
  8
LAYER_3
 10
81.787
 20
-67.4805
  0
VERTEX
  8
LAYER_3
 10
81.9473
 20
-67.4642
  0
VERTEX
  8
LAYER_3
 10
82.1038
 20
-67.4355
  0
VERTEX
  8
LAYER_3
 10
82.2567
 20
-67.3916
  0
VERTEX
  8
LAYER_3
 10
82.3969
 20
-67.3377
  0
VERTEX
  8
LAYER_3
 10
82.5234
 20
-67.2676
  0
VERTEX
  8
LAYER_3
 10
82.6362
 20
-67.1874
  0
VERTEX
  8
LAYER_3
 10
82.7288
 20
-67.0935
  0
VERTEX
  8
LAYER_3
 10
82.8027
 20
-66.9945
  0
VERTEX
  8
LAYER_3
 10
82.8515
 20
-66.8868
  0
VERTEX
  8
LAYER_3
 10
82.8741
 20
-66.779
  0
VERTEX
  8
LAYER_3
 10
82.8767
 20
-66.724
  0
SEQEND
  0
POLYLINE
  8
LAYER_3
 40
0.1058
 41
0.1058
 66
1
 10
0
 20
0
 30
0
  0
VERTEX
  8
LAYER_3
 10
80.5269
 20
-66.3721
  0
VERTEX
  8
LAYER_3
 10
80.5269
 20
-66.7215
  0
SEQEND
  0
POLYLINE
  8
LAYER_3
 40
0.1058
 41
0.1058
 66
1
 10
0
 20
0
 30
0
  0
VERTEX
  8
LAYER_3
 10
82.8767
 20
-66.724
  0
VERTEX
  8
LAYER_3
 10
82.8767
 20
-66.3721
  0
SEQEND
  0
POLYLINE
  8
LAYER_3
 40
0.1058
 41
0.1058
 66
1
 10
0
 20
0
 30
0
  0
VERTEX
  8
LAYER_3
 10
83.3889
 20
-66.3984
  0
VERTEX
  8
LAYER_3
 10
82.9843
 20
-66.3984
  0
SEQEND
  0
POLYLINE
  8
LAYER_3
 40
0.1058
 41
0.1058
 66
1
 10
0
 20
0
 30
0
  0
VERTEX
  8
LAYER_3
 10
82.8328
 20
-66.3357
 42
0.2232726084
  0
VERTEX
  8
LAYER_3
 10
82.9843
 20
-66.3984
  0
SEQEND
  0
POLYLINE
  8
LAYER_3
 40
0.1058
 41
0.1058
 66
1
 10
0
 20
0
 30
0
  0
VERTEX
  8
LAYER_3
 10
80.572
 20
-66.3357
  0
VERTEX
  8
LAYER_3
 10
80.6509
 20
-66.2368
  0
VERTEX
  8
LAYER_3
 10
80.7499
 20
-66.144
  0
VERTEX
  8
LAYER_3
 10
80.8763
 20
-66.0652
  0
VERTEX
  8
LAYER_3
 10
81.0154
 20
-65.9926
  0
VERTEX
  8
LAYER_3
 10
81.1744
 20
-65.9411
  0
VERTEX
  8
LAYER_3
 10
81.3423
 20
-65.8998
  0
VERTEX
  8
LAYER_3
 10
81.5214
 20
-65.8748
  0
VERTEX
  8
LAYER_3
 10
81.703
 20
-65.866
  0
VERTEX
  8
LAYER_3
 10
81.8859
 20
-65.8748
  0
VERTEX
  8
LAYER_3
 10
82.0625
 20
-65.8998
  0
VERTEX
  8
LAYER_3
 10
82.2304
 20
-65.9411
  0
VERTEX
  8
LAYER_3
 10
82.3881
 20
-65.9926
  0
VERTEX
  8
LAYER_3
 10
82.5284
 20
-66.0652
  0
VERTEX
  8
LAYER_3
 10
82.6525
 20
-66.144
  0
VERTEX
  8
LAYER_3
 10
82.7551
 20
-66.2368
  0
VERTEX
  8
LAYER_3
 10
82.8328
 20
-66.3357
  0
SEQEND
  0
POLYLINE
  8
LAYER_3
 40
0.1058
 41
0.1058
 66
1
 10
0
 20
0
 30
0
  0
VERTEX
  8
LAYER_3
 10
80.4217
 20
-66.3984
 42
0.2138861881
  0
VERTEX
  8
LAYER_3
 10
80.572
 20
-66.3357
  0
SEQEND
  0
POLYLINE
  8
LAYER_3
 40
0.1058
 41
0.1058
 66
1
 10
0
 20
0
 30
0
  0
VERTEX
  8
LAYER_3
 10
80.4217
 20
-66.3984
  0
VERTEX
  8
LAYER_3
 10
80.0146
 20
-66.3984
  0
SEQEND
  0
POLYLINE
  8
LAYER_3
 40
0.1058
 41
0.1058
 66
1
 10
0
 20
0
 30
0
  0
VERTEX
  8
LAYER_3
 10
79.8555
 20
-66.3094
 42
0.3296058561
  0
VERTEX
  8
LAYER_3
 10
80.0146
 20
-66.3984
  0
SEQEND
  0
POLYLINE
  8
LAYER_3
 40
0.1058
 41
0.1058
 66
1
 10
0
 20
0
 30
0
  0
VERTEX
  8
LAYER_3
 10
83.3889
 20
-66.3984
 42
0.3220074692
  0
VERTEX
  8
LAYER_3
 10
83.5505
 20
-66.3069
  0
SEQEND
  0
POLYLINE
  8
LAYER_3
 40
0.1058
 41
0.1058
 66
1
 10
0
 20
0
 30
0
  0
VERTEX
  8
LAYER_3
 10
80.6396
 20
-66.9031
  0
VERTEX
  8
LAYER_3
 10
80.6659
 20
-66.9069
  0
SEQEND
  0
POLYLINE
  8
LAYER_3
 40
0.1058
 41
0.1058
 66
1
 10
0
 20
0
 30
0
  0
VERTEX
  8
LAYER_3
 10
80.6659
 20
-66.9069
  0
VERTEX
  8
LAYER_3
 10
80.6997
 20
-67.0021
  0
VERTEX
  8
LAYER_3
 10
80.7599
 20
-67.096
  0
VERTEX
  8
LAYER_3
 10
80.8438
 20
-67.1849
  0
VERTEX
  8
LAYER_3
 10
80.9502
 20
-67.2626
  0
VERTEX
  8
LAYER_3
 10
81.0755
 20
-67.3277
  0
VERTEX
  8
LAYER_3
 10
81.217
 20
-67.384
  0
VERTEX
  8
LAYER_3
 10
81.371
 20
-67.4216
  0
VERTEX
  8
LAYER_3
 10
81.5326
 20
-67.4468
  0
VERTEX
  8
LAYER_3
 10
81.698
 20
-67.4542
  0
VERTEX
  8
LAYER_3
 10
81.8646
 20
-67.4468
  0
VERTEX
  8
LAYER_3
 10
82.0275
 20
-67.4242
  0
VERTEX
  8
LAYER_3
 10
82.1815
 20
-67.384
  0
VERTEX
  8
LAYER_3
 10
82.323
 20
-67.3327
  0
VERTEX
  8
LAYER_3
 10
82.4507
 20
-67.265
  0
VERTEX
  8
LAYER_3
 10
82.556
 20
-67.1874
  0
VERTEX
  8
LAYER_3
 10
82.6412
 20
-67.101
  0
VERTEX
  8
LAYER_3
 10
82.7025
 20
-67.0084
  0
VERTEX
  8
LAYER_3
 10
82.7413
 20
-66.9094
  0
SEQEND
  0
POLYLINE
  8
LAYER_3
 40
0.1058
 41
0.1058
 66
1
 10
0
 20
0
 30
0
  0
VERTEX
  8
LAYER_3
 10
82.7413
 20
-66.9094
  0
VERTEX
  8
LAYER_3
 10
82.7464
 20
-66.9094
  0
VERTEX
  8
LAYER_3
 10
82.7626
 20
-66.9094
  0
SEQEND
  0
POLYLINE
  8
LAYER_3
 40
0.1058
 41
0.1058
 66
1
 10
0
 20
0
 30
0
  0
VERTEX
  8
LAYER_3
 10
82.7626
 20
-66.9094
  0
VERTEX
  8
LAYER_3
 10
82.7651
 20
-66.7403
  0
SEQEND
  0
POLYLINE
  8
LAYER_3
 40
0.1058
 41
0.1058
 66
1
 10
0
 20
0
 30
0
  0
VERTEX
  8
LAYER_3
 10
82.7413
 20
-66.744
  0
VERTEX
  8
LAYER_3
 10
82.7464
 20
-66.744
  0
VERTEX
  8
LAYER_3
 10
82.7651
 20
-66.7403
  0
SEQEND
  0
POLYLINE
  8
LAYER_3
 40
0.1058
 41
0.1058
 66
1
 10
0
 20
0
 30
0
  0
VERTEX
  8
LAYER_3
 10
82.7413
 20
-66.744
  0
VERTEX
  8
LAYER_3
 10
82.7051
 20
-66.6439
  0
VERTEX
  8
LAYER_3
 10
82.6462
 20
-66.5511
  0
VERTEX
  8
LAYER_3
 10
82.5622
 20
-66.4647
  0
VERTEX
  8
LAYER_3
 10
82.4557
 20
-66.3895
  0
VERTEX
  8
LAYER_3
 10
82.328
 20
-66.3207
  0
VERTEX
  8
LAYER_3
 10
82.1889
 20
-66.2668
  0
VERTEX
  8
LAYER_3
 10
82.0349
 20
-66.2268
  0
VERTEX
  8
LAYER_3
 10
81.8733
 20
-66.2042
  0
VERTEX
  8
LAYER_3
 10
81.7068
 20
-66.1955
  0
VERTEX
  8
LAYER_3
 10
81.5402
 20
-66.2016
  0
VERTEX
  8
LAYER_3
 10
81.376
 20
-66.2268
  0
VERTEX
  8
LAYER_3
 10
81.2233
 20
-66.2631
  0
VERTEX
  8
LAYER_3
 10
81.0805
 20
-66.3182
  0
VERTEX
  8
LAYER_3
 10
80.9565
 20
-66.3832
  0
VERTEX
  8
LAYER_3
 10
80.8463
 20
-66.4622
  0
VERTEX
  8
LAYER_3
 10
80.7623
 20
-66.5474
  0
VERTEX
  8
LAYER_3
 10
80.7023
 20
-66.6413
  0
VERTEX
  8
LAYER_3
 10
80.6659
 20
-66.7377
  0
SEQEND
  0
POLYLINE
  8
LAYER_3
 40
0.1058
 41
0.1058
 66
1
 10
0
 20
0
 30
0
  0
VERTEX
  8
LAYER_3
 10
80.6396
 20
-66.7377
  0
VERTEX
  8
LAYER_3
 10
80.6659
 20
-66.7377
  0
SEQEND
  0
POLYLINE
  8
LAYER_3
 40
0.1058
 41
0.1058
 66
1
 10
0
 20
0
 30
0
  0
VERTEX
  8
LAYER_3
 10
80.6396
 20
-66.7377
  0
VERTEX
  8
LAYER_3
 10
80.6396
 20
-66.9031
  0
SEQEND
  0
POLYLINE
  8
LAYER_3
 40
0.1058
 41
0.1058
 66
1
 10
0
 20
0
 30
0
  0
VERTEX
  8
LAYER_3
 10
82.4796
 20
-66.744
  0
VERTEX
  8
LAYER_3
 10
82.7413
 20
-66.744
  0
SEQEND
  0
POLYLINE
  8
LAYER_3
 40
0.1058
 41
0.1058
 66
1
 10
0
 20
0
 30
0
  0
VERTEX
  8
LAYER_3
 10
80.9289
 20
-66.7403
  0
VERTEX
  8
LAYER_3
 10
80.9665
 20
-66.6563
  0
VERTEX
  8
LAYER_3
 10
81.0304
 20
-66.5774
  0
VERTEX
  8
LAYER_3
 10
81.1193
 20
-66.5061
  0
VERTEX
  8
LAYER_3
 10
81.2283
 20
-66.446
  0
VERTEX
  8
LAYER_3
 10
81.3536
 20
-66.4008
  0
VERTEX
  8
LAYER_3
 10
81.4901
 20
-66.3682
  0
VERTEX
  8
LAYER_3
 10
81.6317
 20
-66.3508
  0
VERTEX
  8
LAYER_3
 10
81.7781
 20
-66.3558
  0
VERTEX
  8
LAYER_3
 10
81.9209
 20
-66.3721
  0
VERTEX
  8
LAYER_3
 10
82.0575
 20
-66.4008
  0
VERTEX
  8
LAYER_3
 10
82.1815
 20
-66.4484
  0
VERTEX
  8
LAYER_3
 10
82.288
 20
-66.5086
  0
VERTEX
  8
LAYER_3
 10
82.3756
 20
-66.58
  0
VERTEX
  8
LAYER_3
 10
82.4394
 20
-66.6589
  0
VERTEX
  8
LAYER_3
 10
82.4796
 20
-66.744
  0
SEQEND
  0
POLYLINE
  8
LAYER_3
 40
0.1058
 41
0.1058
 66
1
 10
0
 20
0
 30
0
  0
VERTEX
  8
LAYER_3
 10
80.6659
 20
-66.7377
  0
VERTEX
  8
LAYER_3
 10
80.9289
 20
-66.7403
  0
SEQEND
  0
POLYLINE
  8
LAYER_3
 40
0.1058
 41
0.1058
 66
1
 10
0
 20
0
 30
0
  0
VERTEX
  8
LAYER_3
 10
82.4457
 20
-66.719
  0
VERTEX
  8
LAYER_3
 10
82.4796
 20
-66.744
  0
SEQEND
  0
POLYLINE
  8
LAYER_3
 40
0.1058
 41
0.1058
 66
1
 10
0
 20
0
 30
0
  0
VERTEX
  8
LAYER_3
 10
82.4457
 20
-66.719
 42
0.1456759022
  0
VERTEX
  8
LAYER_3
 10
82.2741
 20
-66.5023
  0
SEQEND
  0
POLYLINE
  8
LAYER_3
 40
0.1058
 41
0.1058
 66
1
 10
0
 20
0
 30
0
  0
VERTEX
  8
LAYER_3
 10
81.1331
 20
-66.4998
 42
0.1456870987
  0
VERTEX
  8
LAYER_3
 10
80.9615
 20
-66.714
  0
SEQEND
  0
POLYLINE
  8
LAYER_3
 40
0.1058
 41
0.1058
 66
1
 10
0
 20
0
 30
0
  0
VERTEX
  8
LAYER_3
 10
80.9289
 20
-66.7403
  0
VERTEX
  8
LAYER_3
 10
80.9615
 20
-66.714
  0
SEQEND
  0
POLYLINE
  8
LAYER_3
 40
0.1058
 41
0.1058
 66
1
 10
0
 20
0
 30
0
  0
VERTEX
  8
LAYER_3
 10
82.4457
 20
-66.7703
  0
VERTEX
  8
LAYER_3
 10
82.4507
 20
-66.7215
  0
SEQEND
  0
POLYLINE
  8
LAYER_3
 40
0.1058
 41
0.1058
 66
1
 10
0
 20
0
 30
0
  0
VERTEX
  8
LAYER_3
 10
82.4457
 20
-66.8831
  0
VERTEX
  8
LAYER_3
 10
82.4457
 20
-66.7703
  0
SEQEND
  0
POLYLINE
  8
LAYER_3
 40
0.1058
 41
0.1058
 66
1
 10
0
 20
0
 30
0
  0
VERTEX
  8
LAYER_3
 10
80.9615
 20
-66.8805
  0
VERTEX
  8
LAYER_3
 10
80.9978
 20
-66.9607
  0
VERTEX
  8
LAYER_3
 10
81.058
 20
-67.0371
  0
VERTEX
  8
LAYER_3
 10
81.1431
 20
-67.101
  0
VERTEX
  8
LAYER_3
 10
81.2459
 20
-67.1586
  0
VERTEX
  8
LAYER_3
 10
81.3649
 20
-67.205
  0
VERTEX
  8
LAYER_3
 10
81.4926
 20
-67.2363
  0
VERTEX
  8
LAYER_3
 10
81.6291
 20
-67.25
  0
VERTEX
  8
LAYER_3
 10
81.7681
 20
-67.25
  0
VERTEX
  8
LAYER_3
 10
81.9059
 20
-67.2363
  0
VERTEX
  8
LAYER_3
 10
82.0349
 20
-67.205
  0
VERTEX
  8
LAYER_3
 10
82.1539
 20
-67.1611
  0
VERTEX
  8
LAYER_3
 10
82.2567
 20
-67.106
  0
VERTEX
  8
LAYER_3
 10
82.343
 20
-67.0397
  0
VERTEX
  8
LAYER_3
 10
82.4044
 20
-66.9632
  0
VERTEX
  8
LAYER_3
 10
82.4457
 20
-66.8831
  0
SEQEND
  0
POLYLINE
  8
LAYER_3
 40
0.1058
 41
0.1058
 66
1
 10
0
 20
0
 30
0
  0
VERTEX
  8
LAYER_3
 10
80.9615
 20
-66.7666
  0
VERTEX
  8
LAYER_3
 10
80.9615
 20
-66.8805
  0
SEQEND
  0
POLYLINE
  8
LAYER_3
 40
0.1058
 41
0.1058
 66
1
 10
0
 20
0
 30
0
  0
VERTEX
  8
LAYER_3
 10
80.9528
 20
-66.7215
  0
VERTEX
  8
LAYER_3
 10
80.9615
 20
-66.7666
  0
SEQEND
  0
POLYLINE
  8
LAYER_3
 40
0.1058
 41
0.1058
 66
1
 10
0
 20
0
 30
0
  0
VERTEX
  8
LAYER_3
 10
81.7005
 20
-66.8894
 42
0.2385294439
  0
VERTEX
  8
LAYER_3
 10
82.3931
 20
-66.6187
  0
SEQEND
  0
POLYLINE
  8
LAYER_3
 40
0.1058
 41
0.1058
 66
1
 10
0
 20
0
 30
0
  0
VERTEX
  8
LAYER_3
 10
81.0117
 20
-66.6187
 42
0.2223685105
  0
VERTEX
  8
LAYER_3
 10
81.7005
 20
-66.8894
  0
SEQEND
  0
POLYLINE
  8
LAYER_3
 40
0.1058
 41
0.1058
 66
1
 10
0
 20
0
 30
0
  0
VERTEX
  8
LAYER_3
 10
80.9615
 20
-66.7666
 42
0.04071117945
  0
VERTEX
  8
LAYER_3
 10
80.6396
 20
-66.9031
  0
SEQEND
  0
POLYLINE
  8
LAYER_3
 40
0.1058
 41
0.1058
 66
1
 10
0
 20
0
 30
0
  0
VERTEX
  8
LAYER_3
 10
82.7626
 20
-66.9094
 42
0.03692816183
  0
VERTEX
  8
LAYER_3
 10
82.4457
 20
-66.7703
  0
SEQEND
  0
POLYLINE
  8
LAYER_3
 40
0.1058
 41
0.1058
 66
1
 10
0
 20
0
 30
0
  0
VERTEX
  8
LAYER_3
 10
80.9265
 20
-66.9069
  0
VERTEX
  8
LAYER_3
 10
80.9615
 20
-66.8805
  0
SEQEND
  0
POLYLINE
  8
LAYER_3
 40
0.1058
 41
0.1058
 66
1
 10
0
 20
0
 30
0
  0
VERTEX
  8
LAYER_3
 10
80.6659
 20
-66.9069
  0
VERTEX
  8
LAYER_3
 10
80.9265
 20
-66.9069
  0
SEQEND
  0
POLYLINE
  8
LAYER_3
 40
0.1058
 41
0.1058
 66
1
 10
0
 20
0
 30
0
  0
VERTEX
  8
LAYER_3
 10
82.477
 20
-66.9094
  0
VERTEX
  8
LAYER_3
 10
82.4357
 20
-66.9945
  0
VERTEX
  8
LAYER_3
 10
82.3706
 20
-67.071
  0
VERTEX
  8
LAYER_3
 10
82.2854
 20
-67.1423
  0
VERTEX
  8
LAYER_3
 10
82.1777
 20
-67.2024
  0
VERTEX
  8
LAYER_3
 10
82.0512
 20
-67.2476
  0
VERTEX
  8
LAYER_3
 10
81.9159
 20
-67.2813
  0
VERTEX
  8
LAYER_3
 10
81.7731
 20
-67.2952
  0
VERTEX
  8
LAYER_3
 10
81.6254
 20
-67.2952
  0
VERTEX
  8
LAYER_3
 10
81.4838
 20
-67.2776
  0
VERTEX
  8
LAYER_3
 10
81.3473
 20
-67.2476
  0
VERTEX
  8
LAYER_3
 10
81.2233
 20
-67.2024
  0
VERTEX
  8
LAYER_3
 10
81.1168
 20
-67.1398
  0
VERTEX
  8
LAYER_3
 10
81.0279
 20
-67.071
  0
VERTEX
  8
LAYER_3
 10
80.9665
 20
-66.9921
  0
VERTEX
  8
LAYER_3
 10
80.9265
 20
-66.9069
  0
SEQEND
  0
POLYLINE
  8
LAYER_3
 40
0.1058
 41
0.1058
 66
1
 10
0
 20
0
 30
0
  0
VERTEX
  8
LAYER_3
 10
82.477
 20
-66.9094
  0
VERTEX
  8
LAYER_3
 10
82.7413
 20
-66.9094
  0
SEQEND
  0
POLYLINE
  8
LAYER_3
 40
0.1058
 41
0.1058
 66
1
 10
0
 20
0
 30
0
  0
VERTEX
  8
LAYER_3
 10
82.4457
 20
-66.8831
  0
VERTEX
  8
LAYER_3
 10
82.477
 20
-66.9094
  0
SEQEND
  0
POLYLINE
  8
LAYER_3
 40
0.1058
 41
0.1058
 66
1
 10
0
 20
0
 30
0
  0
VERTEX
  8
LAYER_3
 10
80.5269
 20
-66.7215
  0
VERTEX
  8
LAYER_3
 10
80.5294
 20
-66.6652
  0
VERTEX
  8
LAYER_3
 10
80.557
 20
-66.5611
  0
VERTEX
  8
LAYER_3
 10
80.6083
 20
-66.4597
  0
VERTEX
  8
LAYER_3
 10
80.686
 20
-66.3632
  0
VERTEX
  8
LAYER_3
 10
80.7875
 20
-66.2781
  0
VERTEX
  8
LAYER_3
 10
80.9039
 20
-66.2016
  0
VERTEX
  8
LAYER_3
 10
81.0442
 20
-66.1366
  0
VERTEX
  8
LAYER_3
 10
81.197
 20
-66.0814
  0
VERTEX
  8
LAYER_3
 10
81.361
 20
-66.0452
  0
VERTEX
  8
LAYER_3
 10
81.5326
 20
-66.02
  0
VERTEX
  8
LAYER_3
 10
81.7068
 20
-66.0139
  0
VERTEX
  8
LAYER_3
 10
81.8821
 20
-66.0226
  0
VERTEX
  8
LAYER_3
 10
82.0512
 20
-66.0452
  0
VERTEX
  8
LAYER_3
 10
82.2165
 20
-66.084
  0
VERTEX
  8
LAYER_3
 10
82.3681
 20
-66.139
  0
VERTEX
  8
LAYER_3
 10
82.5046
 20
-66.2042
  0
VERTEX
  8
LAYER_3
 10
82.6249
 20
-66.2806
  0
VERTEX
  8
LAYER_3
 10
82.7238
 20
-66.3682
  0
VERTEX
  8
LAYER_3
 10
82.7965
 20
-66.4647
  0
VERTEX
  8
LAYER_3
 10
82.8478
 20
-66.565
  0
VERTEX
  8
LAYER_3
 10
82.8741
 20
-66.6714
  0
VERTEX
  8
LAYER_3
 10
82.8767
 20
-66.724
  0
SEQEND
  0
POLYLINE
  8
LAYER_3
 40
0.1058
 41
0.1058
 66
1
 10
0
 20
0
 30
0
  0
VERTEX
  8
LAYER_3
 10
83.7622
 20
-66.4484
 42
0.1251251794
  0
VERTEX
  8
LAYER_3
 10
83.7095
 20
-66.2522
 42
0.08306164761
  0
VERTEX
  8
LAYER_3
 10
83.5698
 20
-66.0812
 42
0.06247667811
  0
VERTEX
  8
LAYER_3
 10
83.3074
 20
-65.9037
 42
0.04406890879
  0
VERTEX
  8
LAYER_3
 10
82.9345
 20
-65.752
 42
0.07195811573
  0
VERTEX
  8
LAYER_3
 10
81.833
 20
-65.581
 42
0.006821078048
  0
VERTEX
  8
LAYER_3
 10
81.7005
 20
-65.5792
 42
0.07277885249
  0
VERTEX
  8
LAYER_3
 10
80.4689
 20
-65.752
 42
0.1044792703
  0
VERTEX
  8
LAYER_3
 10
79.8042
 20
-66.1102
 42
0.1869562798
  0
VERTEX
  8
LAYER_3
 10
79.6426
 20
-66.4484
  0
SEQEND
  0
POLYLINE
  8
LAYER_3
 40
0.1058
 41
0.1058
 66
1
 10
0
 20
0
 30
0
  0
VERTEX
  8
LAYER_3
 10
83.6156
 20
-66.4484
 42
0.1254088065
  0
VERTEX
  8
LAYER_3
 10
83.5665
 20
-66.2662
 42
0.08754802348
  0
VERTEX
  8
LAYER_3
 10
83.4267
 20
-66.0988
 42
0.06106710514
  0
VERTEX
  8
LAYER_3
 10
83.1781
 20
-65.9357
 42
0.0448101219
  0
VERTEX
  8
LAYER_3
 10
82.8089
 20
-65.7914
 42
0.0717389769
  0
VERTEX
  8
LAYER_3
 10
81.7499
 20
-65.6434
 42
0.002702010541
  0
VERTEX
  8
LAYER_3
 10
81.7005
 20
-65.6431
 42
0.07555587197
  0
VERTEX
  8
LAYER_3
 10
80.5199
 20
-65.8145
 42
0.1082533778
  0
VERTEX
  8
LAYER_3
 10
79.9197
 20
-66.1527
 42
0.1814303558
  0
VERTEX
  8
LAYER_3
 10
79.7867
 20
-66.4484
  0
SEQEND
  0
POLYLINE
  8
LAYER_3
 40
0.1058
 41
0.1058
 66
1
 10
0
 20
0
 30
0
  0
VERTEX
  8
LAYER_3
 10
79.7867
 20
-66.4484
 42
0.1287696047
  0
VERTEX
  8
LAYER_3
 10
79.8399
 20
-66.6388
 42
0.08664551085
  0
VERTEX
  8
LAYER_3
 10
79.9867
 20
-66.8098
 42
0.05971766267
  0
VERTEX
  8
LAYER_3
 10
80.2383
 20
-66.9721
 42
0.05478807982
  0
VERTEX
  8
LAYER_3
 10
80.7223
 20
-67.1461
  0
SEQEND
  0
POLYLINE
  8
LAYER_3
 40
0.1058
 41
0.1058
 66
1
 10
0
 20
0
 30
0
  0
VERTEX
  8
LAYER_3
 10
82.6775
 20
-67.1461
 42
0.1096435653
  0
VERTEX
  8
LAYER_3
 10
83.4354
 20
-66.7923
 42
0.196000592
  0
VERTEX
  8
LAYER_3
 10
83.6156
 20
-66.4484
  0
SEQEND
  0
POLYLINE
  8
LAYER_3
 40
0.1058
 41
0.1058
 66
1
 10
0
 20
0
 30
0
  0
VERTEX
  8
LAYER_3
 10
82.4294
 20
-106.1361
  0
VERTEX
  8
LAYER_3
 10
83.0807
 20
-106.1361
  0
SEQEND
  0
POLYLINE
  8
LAYER_3
 40
0.1058
 41
0.1058
 66
1
 10
0
 20
0
 30
0
  0
VERTEX
  8
LAYER_3
 10
83.0807
 20
-106.1361
  0
VERTEX
  8
LAYER_3
 10
83.0807
 20
-105.9757
  0
SEQEND
  0
POLYLINE
  8
LAYER_3
 40
0.1058
 41
0.1058
 66
1
 10
0
 20
0
 30
0
  0
VERTEX
  8
LAYER_3
 10
80.9715
 20
-106.1361
  0
VERTEX
  8
LAYER_3
 10
80.3252
 20
-106.1361
  0
SEQEND
  0
POLYLINE
  8
LAYER_3
 40
0.1058
 41
0.1058
 66
1
 10
0
 20
0
 30
0
  0
VERTEX
  8
LAYER_3
 10
80.3252
 20
-106.1361
  0
VERTEX
  8
LAYER_3
 10
80.3252
 20
-105.9757
  0
SEQEND
  0
POLYLINE
  8
LAYER_3
 40
0.1058
 41
0.1058
 66
1
 10
0
 20
0
 30
0
  0
VERTEX
  8
LAYER_3
 10
82.8052
 20
-106.1361
  0
VERTEX
  8
LAYER_3
 10
82.8052
 20
-106.736
  0
SEQEND
  0
POLYLINE
  8
LAYER_3
 40
0.1058
 41
0.1058
 66
1
 10
0
 20
0
 30
0
  0
VERTEX
  8
LAYER_3
 10
82.7551
 20
-106.7848
 42
0.3885834235
  0
VERTEX
  8
LAYER_3
 10
82.8052
 20
-106.736
  0
SEQEND
  0
POLYLINE
  8
LAYER_3
 40
0.1058
 41
0.1058
 66
1
 10
0
 20
0
 30
0
  0
VERTEX
  8
LAYER_3
 10
82.7551
 20
-106.7848
  0
VERTEX
  8
LAYER_3
 10
82.5622
 20
-106.7848
  0
SEQEND
  0
POLYLINE
  8
LAYER_3
 40
0.1058
 41
0.1058
 66
1
 10
0
 20
0
 30
0
  0
VERTEX
  8
LAYER_3
 10
82.5122
 20
-106.736
 42
0.3952754675
  0
VERTEX
  8
LAYER_3
 10
82.5622
 20
-106.7848
  0
SEQEND
  0
POLYLINE
  8
LAYER_3
 40
0.1058
 41
0.1058
 66
1
 10
0
 20
0
 30
0
  0
VERTEX
  8
LAYER_3
 10
82.5122
 20
-106.736
  0
VERTEX
  8
LAYER_3
 10
82.5122
 20
-106.1361
  0
SEQEND
  0
POLYLINE
  8
LAYER_3
 40
0.1058
 41
0.1058
 66
1
 10
0
 20
0
 30
0
  0
VERTEX
  8
LAYER_3
 10
80.597
 20
-106.1361
  0
VERTEX
  8
LAYER_3
 10
80.597
 20
-106.736
  0
SEQEND
  0
POLYLINE
  8
LAYER_3
 40
0.1058
 41
0.1058
 66
1
 10
0
 20
0
 30
0
  0
VERTEX
  8
LAYER_3
 10
80.6484
 20
-106.7848
  0
VERTEX
  8
LAYER_3
 10
80.8412
 20
-106.7848
  0
SEQEND
  0
POLYLINE
  8
LAYER_3
 40
0.1058
 41
0.1058
 66
1
 10
0
 20
0
 30
0
  0
VERTEX
  8
LAYER_3
 10
80.597
 20
-106.736
 42
0.3814379451
  0
VERTEX
  8
LAYER_3
 10
80.6484
 20
-106.7848
  0
SEQEND
  0
POLYLINE
  8
LAYER_3
 40
0.1058
 41
0.1058
 66
1
 10
0
 20
0
 30
0
  0
VERTEX
  8
LAYER_3
 10
80.8901
 20
-106.736
  0
VERTEX
  8
LAYER_3
 10
80.8901
 20
-106.1361
  0
SEQEND
  0
POLYLINE
  8
LAYER_3
 40
0.1058
 41
0.1058
 66
1
 10
0
 20
0
 30
0
  0
VERTEX
  8
LAYER_3
 10
80.8412
 20
-106.7848
 42
0.3848255996
  0
VERTEX
  8
LAYER_3
 10
80.8901
 20
-106.736
  0
SEQEND
  0
POLYLINE
  8
LAYER_3
 40
0.1058
 41
0.1058
 66
1
 10
0
 20
0
 30
0
  0
VERTEX
  8
LAYER_3
 10
82.4294
 20
-105.9757
  0
VERTEX
  8
LAYER_3
 10
82.4294
 20
-123.1679
  0
SEQEND
  0
POLYLINE
  8
LAYER_3
 40
0.1058
 41
0.1058
 66
1
 10
0
 20
0
 30
0
  0
VERTEX
  8
LAYER_3
 10
80.9715
 20
-105.9757
  0
VERTEX
  8
LAYER_3
 10
80.9715
 20
-123.1679
  0
SEQEND
  0
POLYLINE
  8
LAYER_3
 40
0.1058
 41
0.1058
 66
1
 10
0
 20
0
 30
0
  0
VERTEX
  8
LAYER_3
 10
81.7005
 20
-98.9202
  0
VERTEX
  8
LAYER_3
 10
84.5399
 20
-98.9202
  0
SEQEND
  0
POLYLINE
  8
LAYER_3
 40
0.1058
 41
0.1058
 66
1
 10
0
 20
0
 30
0
  0
VERTEX
  8
LAYER_3
 10
81.7005
 20
-102.8944
  0
VERTEX
  8
LAYER_3
 10
78.7834
 20
-102.8944
  0
SEQEND
  0
POLYLINE
  8
LAYER_3
 40
0.1058
 41
0.1058
 66
1
 10
0
 20
0
 30
0
  0
VERTEX
  8
LAYER_3
 10
78.7834
 20
-102.8944
  0
VERTEX
  8
LAYER_3
 10
78.7834
 20
-103.0548
  0
SEQEND
  0
POLYLINE
  8
LAYER_3
 40
0.1058
 41
0.1058
 66
1
 10
0
 20
0
 30
0
  0
VERTEX
  8
LAYER_3
 10
78.7834
 20
-103.0548
  0
VERTEX
  8
LAYER_3
 10
81.7005
 20
-103.0548
  0
SEQEND
  0
POLYLINE
  8
LAYER_3
 40
0.1058
 41
0.1058
 66
1
 10
0
 20
0
 30
0
  0
VERTEX
  8
LAYER_3
 10
81.7005
 20
-103.0548
  0
VERTEX
  8
LAYER_3
 10
84.6214
 20
-103.0548
  0
SEQEND
  0
POLYLINE
  8
LAYER_3
 40
0.1058
 41
0.1058
 66
1
 10
0
 20
0
 30
0
  0
VERTEX
  8
LAYER_3
 10
84.6214
 20
-103.0548
  0
VERTEX
  8
LAYER_3
 10
84.6214
 20
-102.8944
  0
SEQEND
  0
POLYLINE
  8
LAYER_3
 40
0.1058
 41
0.1058
 66
1
 10
0
 20
0
 30
0
  0
VERTEX
  8
LAYER_3
 10
84.6214
 20
-102.8944
  0
VERTEX
  8
LAYER_3
 10
81.7005
 20
-102.8944
  0
SEQEND
  0
POLYLINE
  8
LAYER_3
 40
0.1058
 41
0.1058
 66
1
 10
0
 20
0
 30
0
  0
VERTEX
  8
LAYER_3
 10
79.5512
 20
-104.1094
  0
VERTEX
  8
LAYER_3
 10
81.7005
 20
-104.1094
  0
SEQEND
  0
POLYLINE
  8
LAYER_3
 40
0.1058
 41
0.1058
 66
1
 10
0
 20
0
 30
0
  0
VERTEX
  8
LAYER_3
 10
79.5599
 20
-104.1094
  0
VERTEX
  8
LAYER_3
 10
79.5599
 20
-103.0548
  0
SEQEND
  0
POLYLINE
  8
LAYER_3
 40
0.1058
 41
0.1058
 66
1
 10
0
 20
0
 30
0
  0
VERTEX
  8
LAYER_3
 10
79.5512
 20
-103.0548
  0
VERTEX
  8
LAYER_3
 10
79.5512
 20
-104.1094
  0
SEQEND
  0
POLYLINE
  8
LAYER_3
 40
0.1058
 41
0.1058
 66
1
 10
0
 20
0
 30
0
  0
VERTEX
  8
LAYER_3
 10
80.7899
 20
-103.0548
  0
VERTEX
  8
LAYER_3
 10
80.7899
 20
-104.1094
  0
SEQEND
  0
POLYLINE
  8
LAYER_3
 40
0.1058
 41
0.1058
 66
1
 10
0
 20
0
 30
0
  0
VERTEX
  8
LAYER_3
 10
80.4718
 20
-103.0548
  0
VERTEX
  8
LAYER_3
 10
80.4718
 20
-104.1094
  0
SEQEND
  0
POLYLINE
  8
LAYER_3
 40
0.1058
 41
0.1058
 66
1
 10
0
 20
0
 30
0
  0
VERTEX
  8
LAYER_3
 10
83.8499
 20
-104.1094
  0
VERTEX
  8
LAYER_3
 10
81.7005
 20
-104.1094
  0
SEQEND
  0
POLYLINE
  8
LAYER_3
 40
0.1058
 41
0.1058
 66
1
 10
0
 20
0
 30
0
  0
VERTEX
  8
LAYER_3
 10
83.8436
 20
-104.1094
  0
VERTEX
  8
LAYER_3
 10
83.8436
 20
-103.0548
  0
SEQEND
  0
POLYLINE
  8
LAYER_3
 40
0.1058
 41
0.1058
 66
1
 10
0
 20
0
 30
0
  0
VERTEX
  8
LAYER_3
 10
83.8499
 20
-103.0548
  0
VERTEX
  8
LAYER_3
 10
83.8499
 20
-104.1094
  0
SEQEND
  0
POLYLINE
  8
LAYER_3
 40
0.1058
 41
0.1058
 66
1
 10
0
 20
0
 30
0
  0
VERTEX
  8
LAYER_3
 10
82.6111
 20
-103.0548
  0
VERTEX
  8
LAYER_3
 10
82.6111
 20
-104.1094
  0
SEQEND
  0
POLYLINE
  8
LAYER_3
 40
0.1058
 41
0.1058
 66
1
 10
0
 20
0
 30
0
  0
VERTEX
  8
LAYER_3
 10
82.9317
 20
-103.0548
  0
VERTEX
  8
LAYER_3
 10
82.9317
 20
-104.1094
  0
SEQEND
  0
POLYLINE
  8
LAYER_3
 40
0.1058
 41
0.1058
 66
1
 10
0
 20
0
 30
0
  0
VERTEX
  8
LAYER_3
 10
84.5399
 20
-98.5958
  0
VERTEX
  8
LAYER_3
 10
84.5399
 20
-98.9202
  0
SEQEND
  0
POLYLINE
  8
LAYER_3
 40
0.1058
 41
0.1058
 66
1
 10
0
 20
0
 30
0
  0
VERTEX
  8
LAYER_3
 10
84.5399
 20
-98.9202
  0
VERTEX
  8
LAYER_3
 10
83.4002
 20
-98.9202
  0
SEQEND
  0
POLYLINE
  8
LAYER_3
 40
0.1058
 41
0.1058
 66
1
 10
0
 20
0
 30
0
  0
VERTEX
  8
LAYER_3
 10
81.7005
 20
-98.9202
  0
VERTEX
  8
LAYER_3
 10
78.8636
 20
-98.9202
  0
SEQEND
  0
POLYLINE
  8
LAYER_3
 40
0.1058
 41
0.1058
 66
1
 10
0
 20
0
 30
0
  0
VERTEX
  8
LAYER_3
 10
78.8636
 20
-98.5958
  0
VERTEX
  8
LAYER_3
 10
78.8636
 20
-98.9202
  0
SEQEND
  0
POLYLINE
  8
LAYER_3
 40
0.1058
 41
0.1058
 66
1
 10
0
 20
0
 30
0
 70
1
  0
VERTEX
  8
LAYER_3
 10
78.9437
 20
-102.5688
  0
VERTEX
  8
LAYER_3
 10
84.4598
 20
-102.5688
  0
VERTEX
  8
LAYER_3
 10
84.4598
 20
-102.8944
  0
VERTEX
  8
LAYER_3
 10
78.9437
 20
-102.8944
  0
SEQEND
  0
POLYLINE
  8
LAYER_3
 40
0.1058
 41
0.1058
 66
1
 10
0
 20
0
 30
0
  0
VERTEX
  8
LAYER_3
 10
79.5512
 20
-103.0548
  0
VERTEX
  8
LAYER_3
 10
81.7005
 20
-103.0548
  0
SEQEND
  0
POLYLINE
  8
LAYER_3
 40
0.1058
 41
0.1058
 66
1
 10
0
 20
0
 30
0
  0
VERTEX
  8
LAYER_3
 10
83.8499
 20
-103.0548
  0
VERTEX
  8
LAYER_3
 10
81.7005
 20
-103.0548
  0
SEQEND
  0
POLYLINE
  8
LAYER_3
 40
0.1058
 41
0.1058
 66
1
 10
0
 20
0
 30
0
  0
VERTEX
  8
LAYER_3
 10
80.9715
 20
-123.1679
 42
-0.3732167553
  0
VERTEX
  8
LAYER_3
 10
81.2621
 20
-123.1679
 42
0.1939471293
  0
VERTEX
  8
LAYER_3
 10
81.4112
 20
-123.2281
 42
0.1951668857
  0
VERTEX
  8
LAYER_3
 10
81.5552
 20
-123.1679
 42
-0.1863359515
  0
VERTEX
  8
LAYER_3
 10
81.7005
 20
-123.1103
 42
-0.1855845052
  0
VERTEX
  8
LAYER_3
 10
81.8483
 20
-123.1679
 42
0.1964296781
  0
VERTEX
  8
LAYER_3
 10
81.9923
 20
-123.2281
 42
0.1902176478
  0
VERTEX
  8
LAYER_3
 10
82.1414
 20
-123.1679
 42
-0.1934369506
  0
VERTEX
  8
LAYER_3
 10
82.2854
 20
-123.1103
 42
-0.1932825736
  0
VERTEX
  8
LAYER_3
 10
82.4294
 20
-123.1679
  0
SEQEND
  0
POLYLINE
  8
LAYER_3
 40
0.1058
 41
0.1058
 66
1
 10
0
 20
0
 30
0
  0
VERTEX
  8
LAYER_3
 10
153.2136
 20
-123.1654
 42
-0.3787103431
  0
VERTEX
  8
LAYER_3
 10
153.5079
 20
-123.1654
 42
0.1875848818
  0
VERTEX
  8
LAYER_3
 10
153.6495
 20
-123.2255
 42
0.1816851601
  0
VERTEX
  8
LAYER_3
 10
153.7986
 20
-123.1654
 42
-0.1852711963
  0
VERTEX
  8
LAYER_3
 10
153.9437
 20
-123.1078
 42
-0.1841157138
  0
VERTEX
  8
LAYER_3
 10
154.0916
 20
-123.1654
 42
0.1865031875
  0
VERTEX
  8
LAYER_3
 10
154.2369
 20
-123.2255
 42
0.1741901729
  0
VERTEX
  8
LAYER_3
 10
154.3847
 20
-123.1654
 42
-0.1914363845
  0
VERTEX
  8
LAYER_3
 10
154.5287
 20
-123.1078
 42
-0.1893557923
  0
VERTEX
  8
LAYER_3
 10
154.6728
 20
-123.1654
  0
SEQEND
  0
POLYLINE
  8
LAYER_3
 40
0.1058
 41
0.1058
 66
1
 10
0
 20
0
 30
0
  0
VERTEX
  8
LAYER_3
 10
189.9339
 20
-110.8356
  0
VERTEX
  8
LAYER_3
 10
189.9339
 20
-117.1269
  0
SEQEND
  0
POLYLINE
  8
LAYER_3
 40
0.1058
 41
0.1058
 66
1
 10
0
 20
0
 30
0
  0
VERTEX
  8
LAYER_3
 10
189.9339
 20
-110.8356
 42
0.3937228651
  0
VERTEX
  8
LAYER_3
 10
188.3094
 20
-109.2148
  0
SEQEND
  0
POLYLINE
  8
LAYER_3
 40
0.1058
 41
0.1058
 66
1
 10
0
 20
0
 30
0
  0
VERTEX
  8
LAYER_3
 10
189.1248
 20
-110.8356
  0
VERTEX
  8
LAYER_3
 10
189.1248
 20
-117.1269
  0
SEQEND
  0
POLYLINE
  8
LAYER_3
 40
0.1058
 41
0.1058
 66
1
 10
0
 20
0
 30
0
  0
VERTEX
  8
LAYER_3
 10
189.1248
 20
-110.8356
 42
0.3942150355
  0
VERTEX
  8
LAYER_3
 10
188.3094
 20
-110.0251
  0
SEQEND
  0
POLYLINE
  8
LAYER_3
 40
0.1058
 41
0.1058
 66
1
 10
0
 20
0
 30
0
  0
VERTEX
  8
LAYER_3
 10
151.2697
 20
-98.5444
  0
VERTEX
  8
LAYER_3
 10
154.4297
 20
-98.5444
  0
SEQEND
  0
POLYLINE
  8
LAYER_3
 40
0.1058
 41
0.1058
 66
1
 10
0
 20
0
 30
0
  0
VERTEX
  8
LAYER_3
 10
154.4297
 20
-98.5444
  0
VERTEX
  8
LAYER_3
 10
157.5936
 20
-98.5444
  0
SEQEND
  0
POLYLINE
  8
LAYER_3
 40
0.1058
 41
0.1058
 66
1
 10
0
 20
0
 30
0
  0
VERTEX
  8
LAYER_3
 10
153.4353
 20
-106.1335
  0
VERTEX
  8
LAYER_3
 10
153.4353
 20
-105.9707
  0
SEQEND
  0
POLYLINE
  8
LAYER_3
 40
0.1058
 41
0.1058
 66
1
 10
0
 20
0
 30
0
  0
VERTEX
  8
LAYER_3
 10
154.4297
 20
-106.1335
  0
VERTEX
  8
LAYER_3
 10
153.4353
 20
-106.1335
  0
SEQEND
  0
POLYLINE
  8
LAYER_3
 40
0.1058
 41
0.1058
 66
1
 10
0
 20
0
 30
0
  0
VERTEX
  8
LAYER_3
 10
153.9437
 20
-106.1335
  0
VERTEX
  8
LAYER_3
 10
153.9437
 20
-106.7335
  0
SEQEND
  0
POLYLINE
  8
LAYER_3
 40
0.1058
 41
0.1058
 66
1
 10
0
 20
0
 30
0
  0
VERTEX
  8
LAYER_3
 10
153.9437
 20
-106.7335
 42
0.4056332989
  0
VERTEX
  8
LAYER_3
 10
153.9926
 20
-106.7798
  0
SEQEND
  0
POLYLINE
  8
LAYER_3
 40
0.1058
 41
0.1058
 66
1
 10
0
 20
0
 30
0
  0
VERTEX
  8
LAYER_3
 10
153.9926
 20
-106.7798
  0
VERTEX
  8
LAYER_3
 10
154.8681
 20
-106.7798
  0
SEQEND
  0
POLYLINE
  8
LAYER_3
 40
0.1058
 41
0.1058
 66
1
 10
0
 20
0
 30
0
  0
VERTEX
  8
LAYER_3
 10
154.9196
 20
-106.7335
  0
VERTEX
  8
LAYER_3
 10
154.9196
 20
-106.1335
  0
SEQEND
  0
POLYLINE
  8
LAYER_3
 40
0.1058
 41
0.1058
 66
1
 10
0
 20
0
 30
0
  0
VERTEX
  8
LAYER_3
 10
154.8681
 20
-106.7798
 42
0.4161166071
  0
VERTEX
  8
LAYER_3
 10
154.9196
 20
-106.7335
  0
SEQEND
  0
POLYLINE
  8
LAYER_3
 40
0.1058
 41
0.1058
 66
1
 10
0
 20
0
 30
0
  0
VERTEX
  8
LAYER_3
 10
132.7686
 20
-66.8205
  0
VERTEX
  8
LAYER_3
 10
132.7686
 20
-68.3021
  0
SEQEND
  0
POLYLINE
  8
LAYER_3
  6
AIGENLINE001
 40
0.1058
 41
0.1058
 66
1
 10
0
 20
0
 30
0
 70
128
  0
VERTEX
  8
LAYER_3
 10
132.5983
 20
-67.19
  0
VERTEX
  8
LAYER_3
 10
132.9414
 20
-66.4547
  0
SEQEND
  0
POLYLINE
  8
LAYER_3
 40
0.1058
 41
0.1058
 66
1
 10
0
 20
0
 30
0
  0
VERTEX
  8
LAYER_3
 10
151.3486
 20
-96.97
  0
VERTEX
  8
LAYER_3
 10
154.4297
 20
-96.97
  0
SEQEND
  0
POLYLINE
  8
LAYER_3
 40
0.1058
 41
0.1058
 66
1
 10
0
 20
0
 30
0
  0
VERTEX
  8
LAYER_3
 10
157.511
 20
-96.97
  0
VERTEX
  8
LAYER_3
 10
154.4297
 20
-96.97
  0
SEQEND
  0
POLYLINE
  8
LAYER_3
 40
0.1058
 41
0.1058
 66
1
 10
0
 20
0
 30
0
  0
VERTEX
  8
LAYER_3
 10
152.3719
 20
-78.9349
 42
0.4133484179
  0
VERTEX
  8
LAYER_3
 10
152.4032
 20
-78.9686
  0
SEQEND
  0
POLYLINE
  8
LAYER_3
 40
0.1058
 41
0.1058
 66
1
 10
0
 20
0
 30
0
  0
VERTEX
  8
LAYER_3
 10
156.4602
 20
-78.9686
 42
0.3865831146
  0
VERTEX
  8
LAYER_3
 10
156.4902
 20
-78.9349
  0
SEQEND
  0
POLYLINE
  8
LAYER_3
 40
0.1058
 41
0.1058
 66
1
 10
0
 20
0
 30
0
  0
VERTEX
  8
LAYER_3
 10
152.3719
 20
-79.0175
  0
VERTEX
  8
LAYER_3
 10
152.3719
 20
-96.4365
  0
SEQEND
  0
POLYLINE
  8
LAYER_3
 40
0.1058
 41
0.1058
 66
1
 10
0
 20
0
 30
0
  0
VERTEX
  8
LAYER_3
 10
152.3719
 20
-96.4365
 42
0.3795628415
  0
VERTEX
  8
LAYER_3
 10
152.4195
 20
-96.4828
  0
SEQEND
  0
POLYLINE
  8
LAYER_3
 40
0.1058
 41
0.1058
 66
1
 10
0
 20
0
 30
0
  0
VERTEX
  8
LAYER_3
 10
152.4195
 20
-78.9686
 42
0.3705896831
  0
VERTEX
  8
LAYER_3
 10
152.3719
 20
-79.0175
  0
SEQEND
  0
POLYLINE
  8
LAYER_3
 40
0.1058
 41
0.1058
 66
1
 10
0
 20
0
 30
0
  0
VERTEX
  8
LAYER_3
 10
152.4195
 20
-96.4828
  0
VERTEX
  8
LAYER_3
 10
152.7302
 20
-96.4828
  0
SEQEND
  0
POLYLINE
  8
LAYER_3
 40
0.1058
 41
0.1058
 66
1
 10
0
 20
0
 30
0
  0
VERTEX
  8
LAYER_3
 10
154.4297
 20
-96.4828
  0
VERTEX
  8
LAYER_3
 10
156.4413
 20
-96.4828
  0
SEQEND
  0
POLYLINE
  8
LAYER_3
 40
0.1058
 41
0.1058
 66
1
 10
0
 20
0
 30
0
  0
VERTEX
  8
LAYER_3
 10
156.4902
 20
-96.4365
  0
VERTEX
  8
LAYER_3
 10
156.4902
 20
-79.0175
  0
SEQEND
  0
POLYLINE
  8
LAYER_3
 40
0.1058
 41
0.1058
 66
1
 10
0
 20
0
 30
0
  0
VERTEX
  8
LAYER_3
 10
156.4413
 20
-96.4828
 42
0.3871493812
  0
VERTEX
  8
LAYER_3
 10
156.4902
 20
-96.4365
  0
SEQEND
  0
POLYLINE
  8
LAYER_3
 40
0.1058
 41
0.1058
 66
1
 10
0
 20
0
 30
0
  0
VERTEX
  8
LAYER_3
 10
156.4902
 20
-79.0175
 42
0.3757968891
  0
VERTEX
  8
LAYER_3
 10
156.4413
 20
-78.9686
  0
SEQEND
  0
POLYLINE
  8
LAYER_3
 40
0.1058
 41
0.1058
 66
1
 10
0
 20
0
 30
0
  0
VERTEX
  8
LAYER_3
 10
156.4989
 20
-96.4828
  0
VERTEX
  8
LAYER_3
 10
156.1345
 20
-96.4828
  0
SEQEND
  0
POLYLINE
  8
LAYER_3
 40
0.1058
 41
0.1058
 66
1
 10
0
 20
0
 30
0
  0
VERTEX
  8
LAYER_3
 10
152.3631
 20
-96.4828
  0
VERTEX
  8
LAYER_3
 10
154.4297
 20
-96.4828
  0
SEQEND
  0
POLYLINE
  8
LAYER_3
 40
0.1058
 41
0.1058
 66
1
 10
0
 20
0
 30
0
  0
VERTEX
  8
LAYER_3
 10
154.4297
 20
-78.9686
  0
VERTEX
  8
LAYER_3
 10
152.4032
 20
-78.9686
  0
SEQEND
  0
POLYLINE
  8
LAYER_3
 40
0.1058
 41
0.1058
 66
1
 10
0
 20
0
 30
0
  0
VERTEX
  8
LAYER_3
 10
79.6426
 20
-78.9412
 42
0.3881310487
  0
VERTEX
  8
LAYER_3
 10
79.6739
 20
-78.9712
  0
SEQEND
  0
POLYLINE
  8
LAYER_3
 40
0.1058
 41
0.1058
 66
1
 10
0
 20
0
 30
0
  0
VERTEX
  8
LAYER_3
 10
83.7296
 20
-78.9712
 42
0.3993445112
  0
VERTEX
  8
LAYER_3
 10
83.7622
 20
-78.9412
  0
SEQEND
  0
POLYLINE
  8
LAYER_3
 40
0.1058
 41
0.1058
 66
1
 10
0
 20
0
 30
0
  0
VERTEX
  8
LAYER_3
 10
79.6915
 20
-78.9712
  0
VERTEX
  8
LAYER_3
 10
79.997
 20
-78.9712
  0
SEQEND
  0
POLYLINE
  8
LAYER_3
 40
0.1058
 41
0.1058
 66
1
 10
0
 20
0
 30
0
  0
VERTEX
  8
LAYER_3
 10
81.7005
 20
-78.9712
  0
VERTEX
  8
LAYER_3
 10
83.712
 20
-78.9712
  0
SEQEND
  0
POLYLINE
  8
LAYER_3
 40
0.1058
 41
0.1058
 66
1
 10
0
 20
0
 30
0
  0
VERTEX
  8
LAYER_3
 10
81.7005
 20
-78.9712
  0
VERTEX
  8
LAYER_3
 10
79.6739
 20
-78.9712
  0
SEQEND
  0
POLYLINE
  8
LAYER_3
 40
0.1058
 41
0.1058
 66
1
 10
0
 20
0
 30
0
  0
VERTEX
  8
LAYER_3
 10
81.7005
 20
-78.9712
  0
VERTEX
  8
LAYER_3
 10
83.7296
 20
-78.9712
  0
SEQEND
  0
POLYLINE
  8
LAYER_3
 40
0.1058
 41
0.1058
 66
1
 10
0
 20
0
 30
0
  0
VERTEX
  8
LAYER_3
 10
83.4628
 20
-78.9712
  0
VERTEX
  8
LAYER_3
 10
83.712
 20
-78.9712
  0
SEQEND
  0
POLYLINE
  8
LAYER_3
 40
0.1058
 41
0.1058
 66
1
 10
0
 20
0
 30
0
  0
VERTEX
  8
LAYER_3
 10
79.9433
 20
-78.9712
  0
VERTEX
  8
LAYER_3
 10
79.6915
 20
-78.9712
  0
SEQEND
  0
POLYLINE
  8
LAYER_3
 40
0.1058
 41
0.1058
 66
1
 10
0
 20
0
 30
0
  0
VERTEX
  8
LAYER_3
 10
79.6426
 20
-78.9412
 42
0.3881310487
  0
VERTEX
  8
LAYER_3
 10
79.6739
 20
-78.9712
  0
SEQEND
  0
POLYLINE
  8
LAYER_3
 40
0.1058
 41
0.1058
 66
1
 10
0
 20
0
 30
0
  0
VERTEX
  8
LAYER_3
 10
83.7296
 20
-78.9712
 42
0.3993445112
  0
VERTEX
  8
LAYER_3
 10
83.7622
 20
-78.9412
  0
SEQEND
  0
POLYLINE
  8
LAYER_3
 40
0.1058
 41
0.1058
 66
1
 10
0
 20
0
 30
0
  0
VERTEX
  8
LAYER_3
 10
79.6426
 20
-79.0214
  0
VERTEX
  8
LAYER_3
 10
79.6426
 20
-96.4389
  0
SEQEND
  0
POLYLINE
  8
LAYER_3
 40
0.1058
 41
0.1058
 66
1
 10
0
 20
0
 30
0
  0
VERTEX
  8
LAYER_3
 10
79.6426
 20
-96.4389
 42
0.4060227091
  0
VERTEX
  8
LAYER_3
 10
79.6915
 20
-96.4853
  0
SEQEND
  0
POLYLINE
  8
LAYER_3
 40
0.1058
 41
0.1058
 66
1
 10
0
 20
0
 30
0
  0
VERTEX
  8
LAYER_3
 10
79.6915
 20
-78.9712
 42
0.3947559407
  0
VERTEX
  8
LAYER_3
 10
79.6426
 20
-79.0214
  0
SEQEND
  0
POLYLINE
  8
LAYER_3
 40
0.1058
 41
0.1058
 66
1
 10
0
 20
0
 30
0
  0
VERTEX
  8
LAYER_3
 10
79.6915
 20
-96.4853
  0
VERTEX
  8
LAYER_3
 10
79.997
 20
-96.4853
  0
SEQEND
  0
POLYLINE
  8
LAYER_3
 40
0.1058
 41
0.1058
 66
1
 10
0
 20
0
 30
0
  0
VERTEX
  8
LAYER_3
 10
81.7005
 20
-96.4853
  0
VERTEX
  8
LAYER_3
 10
83.712
 20
-96.4853
  0
SEQEND
  0
POLYLINE
  8
LAYER_3
 40
0.1058
 41
0.1058
 66
1
 10
0
 20
0
 30
0
  0
VERTEX
  8
LAYER_3
 10
83.7622
 20
-96.4389
  0
VERTEX
  8
LAYER_3
 10
83.7622
 20
-79.0214
  0
SEQEND
  0
POLYLINE
  8
LAYER_3
 40
0.1058
 41
0.1058
 66
1
 10
0
 20
0
 30
0
  0
VERTEX
  8
LAYER_3
 10
83.712
 20
-96.4853
 42
0.4057554721
  0
VERTEX
  8
LAYER_3
 10
83.7622
 20
-96.4389
  0
SEQEND
  0
POLYLINE
  8
LAYER_3
 40
0.1058
 41
0.1058
 66
1
 10
0
 20
0
 30
0
  0
VERTEX
  8
LAYER_3
 10
83.7622
 20
-79.0214
 42
0.3837664206
  0
VERTEX
  8
LAYER_3
 10
83.712
 20
-78.9712
  0
SEQEND
  0
POLYLINE
  8
LAYER_3
 40
0.1058
 41
0.1058
 66
1
 10
0
 20
0
 30
0
  0
VERTEX
  8
LAYER_3
 10
83.7697
 20
-96.4853
  0
VERTEX
  8
LAYER_3
 10
83.4027
 20
-96.4853
  0
SEQEND
  0
POLYLINE
  8
LAYER_3
 40
0.1058
 41
0.1058
 66
1
 10
0
 20
0
 30
0
  0
VERTEX
  8
LAYER_3
 10
79.6338
 20
-96.4853
  0
VERTEX
  8
LAYER_3
 10
81.7005
 20
-96.4853
  0
SEQEND
  0
POLYLINE
  8
LAYER_3
 40
0.1058
 41
0.1058
 66
1
 10
0
 20
0
 30
0
  0
VERTEX
  8
LAYER_3
 10
81.7005
 20
-78.9712
  0
VERTEX
  8
LAYER_3
 10
79.6739
 20
-78.9712
  0
SEQEND
  0
POLYLINE
  8
LAYER_3
 40
0.1058
 41
0.1058
 66
1
 10
0
 20
0
 30
0
  0
VERTEX
  8
LAYER_3
 10
153.9437
 20
-158.7372
  0
VERTEX
  8
LAYER_3
 10
155.8915
 20
-156.7896
  0
SEQEND
  0
POLYLINE
  8
LAYER_3
 40
0.1058
 41
0.1058
 66
1
 10
0
 20
0
 30
0
  0
VERTEX
  8
LAYER_3
 10
151.9974
 20
-156.7896
  0
VERTEX
  8
LAYER_3
 10
153.9437
 20
-158.7372
  0
SEQEND
  0
POLYLINE
  8
LAYER_3
 40
0.1058
 41
0.1058
 66
1
 10
0
 20
0
 30
0
  0
VERTEX
  8
LAYER_3
 10
155.4042
 20
-160.6836
  0
VERTEX
  8
LAYER_3
 10
155.4068
 20
-160.6811
  0
VERTEX
  8
LAYER_3
 10
155.4155
 20
-160.6761
  0
VERTEX
  8
LAYER_3
 10
155.4318
 20
-160.6611
  0
VERTEX
  8
LAYER_3
 10
155.4531
 20
-160.6435
  0
VERTEX
  8
LAYER_3
 10
155.4807
 20
-160.6235
  0
VERTEX
  8
LAYER_3
 10
155.5157
 20
-160.5959
  0
VERTEX
  8
LAYER_3
 10
155.5558
 20
-160.5646
  0
VERTEX
  8
LAYER_3
 10
155.6021
 20
-160.527
  0
VERTEX
  8
LAYER_3
 10
155.6573
 20
-160.487
  0
VERTEX
  8
LAYER_3
 10
155.7199
 20
-160.4419
  0
VERTEX
  8
LAYER_3
 10
155.7837
 20
-160.3969
  0
VERTEX
  8
LAYER_3
 10
155.8702
 20
-160.3391
  0
VERTEX
  8
LAYER_3
 10
155.9579
 20
-160.2803
  0
VERTEX
  8
LAYER_3
 10
156.0581
 20
-160.2202
  0
VERTEX
  8
LAYER_3
 10
156.1633
 20
-160.1575
  0
VERTEX
  8
LAYER_3
 10
156.3424
 20
-160.0686
  0
VERTEX
  8
LAYER_3
 10
156.435
 20
-160.0298
  0
VERTEX
  8
LAYER_3
 10
156.5391
 20
-159.9935
  0
SEQEND
  0
POLYLINE
  8
LAYER_3
 40
0.1058
 41
0.1058
 66
1
 10
0
 20
0
 30
0
  0
VERTEX
  8
LAYER_3
 10
158.4855
 20
-158.7372
  0
VERTEX
  8
LAYER_3
 10
158.483
 20
-158.7823
  0
VERTEX
  8
LAYER_3
 10
158.4742
 20
-158.8249
  0
VERTEX
  8
LAYER_3
 10
158.4491
 20
-158.9138
  0
VERTEX
  8
LAYER_3
 10
158.3978
 20
-159.0015
  0
VERTEX
  8
LAYER_3
 10
158.3326
 20
-159.0891
 42
-0.04180849211
  0
VERTEX
  8
LAYER_3
 10
158.1473
 20
-159.2595
  0
VERTEX
  8
LAYER_3
 10
158.0308
 20
-159.3459
  0
VERTEX
  8
LAYER_3
 10
157.9005
 20
-159.4274
 42
-0.02040590749
  0
VERTEX
  8
LAYER_3
 10
157.6012
 20
-159.584
  0
VERTEX
  8
LAYER_3
 10
157.4346
 20
-159.6616
  0
VERTEX
  8
LAYER_3
 10
157.2605
 20
-159.7317
  0
VERTEX
  8
LAYER_3
 10
157.0839
 20
-159.8019
  0
VERTEX
  8
LAYER_3
 10
156.8997
 20
-159.8707
  0
VERTEX
  8
LAYER_3
 10
156.5391
 20
-159.9935
  0
SEQEND
  0
POLYLINE
  8
LAYER_3
 40
0.1058
 41
0.1058
 66
1
 10
0
 20
0
 30
0
  0
VERTEX
  8
LAYER_3
 10
152.4845
 20
-103.0523
  0
VERTEX
  8
LAYER_3
 10
152.4845
 20
-104.107
  0
SEQEND
  0
POLYLINE
  8
LAYER_3
 40
0.1058
 41
0.1058
 66
1
 10
0
 20
0
 30
0
  0
VERTEX
  8
LAYER_3
 10
156.3762
 20
-103.0523
  0
VERTEX
  8
LAYER_3
 10
156.3762
 20
-104.107
  0
SEQEND
  0
POLYLINE
  8
LAYER_3
 40
0.1058
 41
0.1058
 66
1
 10
0
 20
0
 30
0
  0
VERTEX
  8
LAYER_3
 10
156.1921
 20
-103.0523
  0
VERTEX
  8
LAYER_3
 10
156.1921
 20
-104.107
  0
SEQEND
  0
POLYLINE
  8
LAYER_3
 40
0.1058
 41
0.1058
 66
1
 10
0
 20
0
 30
0
  0
VERTEX
  8
LAYER_3
 10
152.6674
 20
-103.0523
  0
VERTEX
  8
LAYER_3
 10
152.6674
 20
-104.107
  0
SEQEND
  0
POLYLINE
  8
LAYER_3
 40
0.1058
 41
0.1058
 66
1
 10
0
 20
0
 30
0
  0
VERTEX
  8
LAYER_3
 10
154.2481
 20
-103.0523
  0
VERTEX
  8
LAYER_3
 10
154.2481
 20
-104.107
  0
SEQEND
  0
POLYLINE
  8
LAYER_3
 40
0.1058
 41
0.1058
 66
1
 10
0
 20
0
 30
0
  0
VERTEX
  8
LAYER_3
 10
154.6139
 20
-103.0523
  0
VERTEX
  8
LAYER_3
 10
154.6139
 20
-104.107
  0
SEQEND
  0
POLYLINE
  8
LAYER_3
 40
0.1058
 41
0.1058
 66
1
 10
0
 20
0
 30
0
  0
VERTEX
  8
LAYER_3
 10
188.6338
 20
-121.3116
  0
VERTEX
  8
LAYER_3
 10
188.6338
 20
-119.2024
  0
SEQEND
  0
POLYLINE
  8
LAYER_3
 40
0.1058
 41
0.1058
 66
1
 10
0
 20
0
 30
0
  0
VERTEX
  8
LAYER_3
 10
188.6338
 20
-119.2024
  0
VERTEX
  8
LAYER_3
 10
190.4186
 20
-119.2024
  0
SEQEND
  0
POLYLINE
  8
LAYER_3
 40
0.1058
 41
0.1058
 66
1
 10
0
 20
0
 30
0
  0
VERTEX
  8
LAYER_3
 10
190.4186
 20
-119.2024
  0
VERTEX
  8
LAYER_3
 10
190.4186
 20
-121.3116
  0
SEQEND
  0
POLYLINE
  8
LAYER_3
 40
0.1058
 41
0.1058
 66
1
 10
0
 20
0
 30
0
  0
VERTEX
  8
LAYER_3
 10
190.4186
 20
-121.3116
  0
VERTEX
  8
LAYER_3
 10
188.6338
 20
-121.3116
  0
SEQEND
  0
POLYLINE
  8
LAYER_3
 40
0.1058
 41
0.1058
 66
1
 10
0
 20
0
 30
0
  0
VERTEX
  8
LAYER_3
 10
189.0146
 20
-121.3116
  0
VERTEX
  8
LAYER_3
 10
189.0146
 20
-120.2082
  0
SEQEND
  0
POLYLINE
  8
LAYER_3
 40
0.1058
 41
0.1058
 66
1
 10
0
 20
0
 30
0
  0
VERTEX
  8
LAYER_3
 10
189.0146
 20
-120.2082
  0
VERTEX
  8
LAYER_3
 10
189.2588
 20
-120.2082
  0
SEQEND
  0
POLYLINE
  8
LAYER_3
 40
0.1058
 41
0.1058
 66
1
 10
0
 20
0
 30
0
  0
VERTEX
  8
LAYER_3
 10
189.2588
 20
-120.2082
  0
VERTEX
  8
LAYER_3
 10
189.2588
 20
-121.3116
  0
SEQEND
  0
POLYLINE
  8
LAYER_3
 40
0.1058
 41
0.1058
 66
1
 10
0
 20
0
 30
0
  0
VERTEX
  8
LAYER_3
 10
189.7949
 20
-121.3116
  0
VERTEX
  8
LAYER_3
 10
189.7949
 20
-120.2082
  0
SEQEND
  0
POLYLINE
  8
LAYER_3
 40
0.1058
 41
0.1058
 66
1
 10
0
 20
0
 30
0
  0
VERTEX
  8
LAYER_3
 10
189.7949
 20
-120.2082
  0
VERTEX
  8
LAYER_3
 10
190.0378
 20
-120.2082
  0
SEQEND
  0
POLYLINE
  8
LAYER_3
 40
0.1058
 41
0.1058
 66
1
 10
0
 20
0
 30
0
  0
VERTEX
  8
LAYER_3
 10
190.0378
 20
-120.2082
  0
VERTEX
  8
LAYER_3
 10
190.0378
 20
-121.3116
  0
SEQEND
  0
POLYLINE
  8
LAYER_3
 40
0.1058
 41
0.1058
 66
1
 10
0
 20
0
 30
0
  0
VERTEX
  8
LAYER_3
 10
189.2588
 20
-120.7907
  0
VERTEX
  8
LAYER_3
 10
189.7949
 20
-120.7907
  0
SEQEND
  0
POLYLINE
  8
LAYER_3
 40
0.1058
 41
0.1058
 66
1
 10
0
 20
0
 30
0
  0
VERTEX
  8
LAYER_3
 10
189.1248
 20
-124.9189
  0
VERTEX
  8
LAYER_3
 10
189.1248
 20
-123.3445
  0
SEQEND
  0
POLYLINE
  8
LAYER_3
 40
0.1058
 41
0.1058
 66
1
 10
0
 20
0
 30
0
  0
VERTEX
  8
LAYER_3
 10
189.1686
 20
-123.2944
 42
0.3817950887
  0
VERTEX
  8
LAYER_3
 10
189.1248
 20
-123.3445
  0
SEQEND
  0
POLYLINE
  8
LAYER_3
 40
0.1058
 41
0.1058
 66
1
 10
0
 20
0
 30
0
  0
VERTEX
  8
LAYER_3
 10
189.2212
 20
-123.3445
  0
VERTEX
  8
LAYER_3
 10
189.2212
 20
-124.9189
  0
SEQEND
  0
POLYLINE
  8
LAYER_3
 40
0.1058
 41
0.1058
 66
1
 10
0
 20
0
 30
0
  0
VERTEX
  8
LAYER_3
 10
189.2212
 20
-123.3445
 42
0.3735796226
  0
VERTEX
  8
LAYER_3
 10
189.1686
 20
-123.2944
  0
SEQEND
  0
POLYLINE
  8
LAYER_3
 40
0.1058
 41
0.1058
 66
1
 10
0
 20
0
 30
0
  0
VERTEX
  8
LAYER_3
 10
189.9339
 20
-124.9189
  0
VERTEX
  8
LAYER_3
 10
189.9339
 20
-123.3445
  0
SEQEND
  0
POLYLINE
  8
LAYER_3
 40
0.1058
 41
0.1058
 66
1
 10
0
 20
0
 30
0
  0
VERTEX
  8
LAYER_3
 10
189.9339
 20
-123.3445
 42
0.3983357334
  0
VERTEX
  8
LAYER_3
 10
189.8851
 20
-123.2944
  0
SEQEND
  0
POLYLINE
  8
LAYER_3
 40
0.1058
 41
0.1058
 66
1
 10
0
 20
0
 30
0
  0
VERTEX
  8
LAYER_3
 10
189.8338
 20
-123.3445
  0
VERTEX
  8
LAYER_3
 10
189.8338
 20
-124.9189
  0
SEQEND
  0
POLYLINE
  8
LAYER_3
 40
0.1058
 41
0.1058
 66
1
 10
0
 20
0
 30
0
  0
VERTEX
  8
LAYER_3
 10
189.8851
 20
-123.2944
 42
0.3726772332
  0
VERTEX
  8
LAYER_3
 10
189.8338
 20
-123.3445
  0
SEQEND
  0
POLYLINE
  8
LAYER_3
 40
0.1058
 41
0.1058
 66
1
 10
0
 20
0
 30
0
  0
VERTEX
  8
LAYER_3
 10
189.2851
 20
-124.9189
  0
VERTEX
  8
LAYER_3
 10
189.2851
 20
-123.3771
  0
SEQEND
  0
POLYLINE
  8
LAYER_3
 40
0.1058
 41
0.1058
 66
1
 10
0
 20
0
 30
0
  0
VERTEX
  8
LAYER_3
 10
189.2851
 20
-123.3771
  0
VERTEX
  8
LAYER_3
 10
189.7711
 20
-123.3771
  0
SEQEND
  0
POLYLINE
  8
LAYER_3
 40
0.1058
 41
0.1058
 66
1
 10
0
 20
0
 30
0
  0
VERTEX
  8
LAYER_3
 10
189.7711
 20
-123.3771
  0
VERTEX
  8
LAYER_3
 10
189.7711
 20
-124.9189
  0
SEQEND
  0
POLYLINE
  8
LAYER_3
 40
0.1058
 41
0.1058
 66
1
 10
0
 20
0
 30
0
  0
VERTEX
  8
LAYER_3
 10
189.2851
 20
-123.7028
  0
VERTEX
  8
LAYER_3
 10
189.7711
 20
-123.7028
  0
SEQEND
  0
POLYLINE
  8
LAYER_3
 40
0.1058
 41
0.1058
 66
1
 10
0
 20
0
 30
0
  0
VERTEX
  8
LAYER_3
 10
189.2851
 20
-123.5875
  0
VERTEX
  8
LAYER_3
 10
189.7711
 20
-123.5875
  0
SEQEND
  0
POLYLINE
  8
LAYER_3
 40
0.1058
 41
0.1058
 66
1
 10
0
 20
0
 30
0
  0
VERTEX
  8
LAYER_3
 10
190.232
 20
-122.3237
  0
VERTEX
  8
LAYER_3
 10
190.232
 20
-124.2188
  0
SEQEND
  0
POLYLINE
  8
LAYER_3
 40
0.1058
 41
0.1058
 66
1
 10
0
 20
0
 30
0
  0
VERTEX
  8
LAYER_3
 10
190.232
 20
-122.3237
 42
0.3951767613
  0
VERTEX
  8
LAYER_3
 10
190.1531
 20
-122.241
  0
SEQEND
  0
POLYLINE
  8
LAYER_3
 40
0.1058
 41
0.1058
 66
1
 10
0
 20
0
 30
0
  0
VERTEX
  8
LAYER_3
 10
190.232
 20
-124.2188
  0
VERTEX
  8
LAYER_3
 10
190.3109
 20
-124.2188
  0
SEQEND
  0
POLYLINE
  8
LAYER_3
 40
0.1058
 41
0.1058
 66
1
 10
0
 20
0
 30
0
  0
VERTEX
  8
LAYER_3
 10
190.3961
 20
-124.3015
 42
0.3984272744
  0
VERTEX
  8
LAYER_3
 10
190.3109
 20
-124.2188
  0
SEQEND
  0
POLYLINE
  8
LAYER_3
 40
0.1058
 41
0.1058
 66
1
 10
0
 20
0
 30
0
  0
VERTEX
  8
LAYER_3
 10
190.3961
 20
-124.3015
  0
VERTEX
  8
LAYER_3
 10
190.3961
 20
-124.8363
  0
SEQEND
  0
POLYLINE
  8
LAYER_3
 40
0.1058
 41
0.1058
 66
1
 10
0
 20
0
 30
0
  0
VERTEX
  8
LAYER_3
 10
190.3109
 20
-124.9189
 42
0.3920536684
  0
VERTEX
  8
LAYER_3
 10
190.3961
 20
-124.8363
  0
SEQEND
  0
POLYLINE
  8
LAYER_3
 40
0.1058
 41
0.1058
 66
1
 10
0
 20
0
 30
0
  0
VERTEX
  8
LAYER_3
 10
190.3109
 20
-124.9189
  0
VERTEX
  8
LAYER_3
 10
188.7428
 20
-124.9189
  0
SEQEND
  0
POLYLINE
  8
LAYER_3
 40
0.1058
 41
0.1058
 66
1
 10
0
 20
0
 30
0
  0
VERTEX
  8
LAYER_3
 10
188.6601
 20
-124.8363
 42
0.3883695498
  0
VERTEX
  8
LAYER_3
 10
188.7428
 20
-124.9189
  0
SEQEND
  0
POLYLINE
  8
LAYER_3
 40
0.1058
 41
0.1058
 66
1
 10
0
 20
0
 30
0
  0
VERTEX
  8
LAYER_3
 10
188.7428
 20
-124.2188
  0
VERTEX
  8
LAYER_3
 10
188.8204
 20
-124.2188
  0
SEQEND
  0
POLYLINE
  8
LAYER_3
 40
0.1058
 41
0.1058
 66
1
 10
0
 20
0
 30
0
  0
VERTEX
  8
LAYER_3
 10
188.6601
 20
-124.8363
  0
VERTEX
  8
LAYER_3
 10
188.6601
 20
-124.3015
  0
SEQEND
  0
POLYLINE
  8
LAYER_3
 40
0.1058
 41
0.1058
 66
1
 10
0
 20
0
 30
0
  0
VERTEX
  8
LAYER_3
 10
188.7428
 20
-124.2188
 42
0.4142551732
  0
VERTEX
  8
LAYER_3
 10
188.6601
 20
-124.3015
  0
SEQEND
  0
POLYLINE
  8
LAYER_3
 40
0.1058
 41
0.1058
 66
1
 10
0
 20
0
 30
0
  0
VERTEX
  8
LAYER_3
 10
188.9006
 20
-122.241
  0
VERTEX
  8
LAYER_3
 10
190.1531
 20
-122.241
  0
SEQEND
  0
POLYLINE
  8
LAYER_3
 40
0.1058
 41
0.1058
 66
1
 10
0
 20
0
 30
0
  0
VERTEX
  8
LAYER_3
 10
188.8204
 20
-124.2188
  0
VERTEX
  8
LAYER_3
 10
188.8204
 20
-122.3237
  0
SEQEND
  0
POLYLINE
  8
LAYER_3
 40
0.1058
 41
0.1058
 66
1
 10
0
 20
0
 30
0
  0
VERTEX
  8
LAYER_3
 10
188.9006
 20
-122.241
 42
0.3837717951
  0
VERTEX
  8
LAYER_3
 10
188.8204
 20
-122.3237
  0
SEQEND
  0
POLYLINE
  8
LAYER_3
 40
0.1058
 41
0.1058
 66
1
 10
0
 20
0
 30
0
  0
VERTEX
  8
LAYER_3
 10
190.2546
 20
-124.9189
  0
VERTEX
  8
LAYER_3
 10
190.2546
 20
-126.6349
  0
SEQEND
  0
POLYLINE
  8
LAYER_3
 40
0.1058
 41
0.1058
 66
1
 10
0
 20
0
 30
0
  0
VERTEX
  8
LAYER_3
 10
190.0956
 20
-128.8807
  0
VERTEX
  8
LAYER_3
 10
190.0956
 20
-130.4325
  0
SEQEND
  0
POLYLINE
  8
LAYER_3
 40
0.1058
 41
0.1058
 66
1
 10
0
 20
0
 30
0
  0
VERTEX
  8
LAYER_3
 10
188.8304
 20
-127.0896
  0
VERTEX
  8
LAYER_3
 10
189.0596
 20
-128.7167
  0
SEQEND
  0
POLYLINE
  8
LAYER_3
 40
0.1058
 41
0.1058
 66
1
 10
0
 20
0
 30
0
  0
VERTEX
  8
LAYER_3
 10
188.9582
 20
-128.8807
  0
VERTEX
  8
LAYER_3
 10
188.9582
 20
-130.4325
  0
SEQEND
  0
POLYLINE
  8
LAYER_3
 40
0.1058
 41
0.1058
 66
1
 10
0
 20
0
 30
0
  0
VERTEX
  8
LAYER_3
 10
188.7991
 20
-124.9189
  0
VERTEX
  8
LAYER_3
 10
188.7991
 20
-126.6349
  0
SEQEND
  0
POLYLINE
  8
LAYER_3
 40
0.1058
 41
0.1058
 66
1
 10
0
 20
0
 30
0
  0
VERTEX
  8
LAYER_3
 10
188.7991
 20
-126.6349
 42
0.03874852222
  0
VERTEX
  8
LAYER_3
 10
188.8304
 20
-127.0896
  0
SEQEND
  0
POLYLINE
  8
LAYER_3
 40
0.1058
 41
0.1058
 66
1
 10
0
 20
0
 30
0
  0
VERTEX
  8
LAYER_3
 10
189.9941
 20
-128.7167
  0
VERTEX
  8
LAYER_3
 10
190.2246
 20
-127.0896
  0
SEQEND
  0
POLYLINE
  8
LAYER_3
 40
0.1058
 41
0.1058
 66
1
 10
0
 20
0
 30
0
  0
VERTEX
  8
LAYER_3
 10
190.2246
 20
-127.0896
 42
0.03415267632
  0
VERTEX
  8
LAYER_3
 10
190.2546
 20
-126.6349
  0
SEQEND
  0
POLYLINE
  8
LAYER_3
 40
0.1058
 41
0.1058
 66
1
 10
0
 20
0
 30
0
  0
VERTEX
  8
LAYER_3
 10
189.9941
 20
-128.7167
 42
0.3428884954
  0
VERTEX
  8
LAYER_3
 10
190.043
 20
-128.803
  0
SEQEND
  0
POLYLINE
  8
LAYER_3
 40
0.1058
 41
0.1058
 66
1
 10
0
 20
0
 30
0
  0
VERTEX
  8
LAYER_3
 10
190.0956
 20
-128.8807
 42
0.3011340494
  0
VERTEX
  8
LAYER_3
 10
190.043
 20
-128.803
  0
SEQEND
  0
POLYLINE
  8
LAYER_3
 40
0.1058
 41
0.1058
 66
1
 10
0
 20
0
 30
0
  0
VERTEX
  8
LAYER_3
 10
188.9582
 20
-130.4325
  0
VERTEX
  8
LAYER_3
 10
190.0956
 20
-130.4325
  0
SEQEND
  0
POLYLINE
  8
LAYER_3
 40
0.1058
 41
0.1058
 66
1
 10
0
 20
0
 30
0
  0
VERTEX
  8
LAYER_3
 10
189.9815
 20
-128.8093
  0
VERTEX
  8
LAYER_3
 10
189.0722
 20
-128.8093
  0
SEQEND
  0
POLYLINE
  8
LAYER_3
 40
0.1058
 41
0.1058
 66
1
 10
0
 20
0
 30
0
  0
VERTEX
  8
LAYER_3
 10
189.0096
 20
-128.803
 42
0.3488036724
  0
VERTEX
  8
LAYER_3
 10
189.0596
 20
-128.7167
  0
SEQEND
  0
POLYLINE
  8
LAYER_3
 40
0.1058
 41
0.1058
 66
1
 10
0
 20
0
 30
0
  0
VERTEX
  8
LAYER_3
 10
189.0096
 20
-128.803
 42
0.2822326083
  0
VERTEX
  8
LAYER_3
 10
188.9582
 20
-128.8807
  0
SEQEND
  0
POLYLINE
  8
LAYER_3
 40
0.1058
 41
0.1058
 66
1
 10
0
 20
0
 30
0
  0
VERTEX
  8
LAYER_3
 10
188.878
 20
-126.8641
  0
VERTEX
  8
LAYER_3
 10
190.1757
 20
-126.8641
  0
SEQEND
  0
POLYLINE
  8
LAYER_3
 40
0.1058
 41
0.1058
 66
1
 10
0
 20
0
 30
0
  0
VERTEX
  8
LAYER_3
 10
187.5028
 20
-166.1797
 42
0.4147416431
  0
VERTEX
  8
LAYER_3
 10
189.9465
 20
-163.6959
  0
SEQEND
  0
POLYLINE
  8
LAYER_3
 40
0.1058
 41
0.1058
 66
1
 10
0
 20
0
 30
0
  0
VERTEX
  8
LAYER_3
 10
187.4965
 20
-165.3368
 42
0.3935576364
  0
VERTEX
  8
LAYER_3
 10
189.106
 20
-163.7022
  0
SEQEND
  0
POLYLINE
  8
LAYER_3
 40
0.1058
 41
0.1058
 66
1
 10
0
 20
0
 30
0
  0
VERTEX
  8
LAYER_3
 10
178.1514
 20
-165.3368
  0
VERTEX
  8
LAYER_3
 10
187.4991
 20
-165.3368
  0
SEQEND
  0
POLYLINE
  8
LAYER_3
 40
0.1058
 41
0.1058
 66
1
 10
0
 20
0
 30
0
  0
VERTEX
  8
LAYER_3
 10
187.5028
 20
-166.1797
  0
VERTEX
  8
LAYER_3
 10
178.1514
 20
-166.1797
  0
SEQEND
  0
POLYLINE
  8
LAYER_3
 40
0.1058
 41
0.1058
 66
1
 10
0
 20
0
 30
0
  0
VERTEX
  8
LAYER_3
 10
189.106
 20
-130.4325
  0
VERTEX
  8
LAYER_3
 10
189.106
 20
-163.7022
  0
SEQEND
  0
POLYLINE
  8
LAYER_3
 40
0.1058
 41
0.1058
 66
1
 10
0
 20
0
 30
0
  0
VERTEX
  8
LAYER_3
 10
189.9465
 20
-163.7311
  0
VERTEX
  8
LAYER_3
 10
189.9465
 20
-130.4325
  0
SEQEND
  0
POLYLINE
  8
LAYER_3
 40
0.1058
 41
0.1058
 66
1
 10
0
 20
0
 30
0
  0
VERTEX
  8
LAYER_3
 10
178.1514
 20
-165.3368
 42
-0.3880338486
  0
VERTEX
  8
LAYER_3
 10
178.1514
 20
-165.5071
 42
0.2001609205
  0
VERTEX
  8
LAYER_3
 10
178.1189
 20
-165.5911
 42
0.2018764262
  0
VERTEX
  8
LAYER_3
 10
178.1514
 20
-165.675
 42
-0.2069852937
  0
VERTEX
  8
LAYER_3
 10
178.1852
 20
-165.7564
 42
-0.2196510252
  0
VERTEX
  8
LAYER_3
 10
178.1514
 20
-165.8416
 42
0.1857665521
  0
VERTEX
  8
LAYER_3
 10
178.1189
 20
-165.928
 42
0.2212314363
  0
VERTEX
  8
LAYER_3
 10
178.1514
 20
-166.0106
 42
-0.1920626283
  0
VERTEX
  8
LAYER_3
 10
178.1852
 20
-166.0958
 42
-0.2216193776
  0
VERTEX
  8
LAYER_3
 10
178.1514
 20
-166.1797
  0
SEQEND
  0
POLYLINE
  8
LAYER_3
 40
0.1058
 41
0.1058
 66
1
 10
0
 20
0
 30
0
  0
VERTEX
  8
LAYER_3
 10
153.2136
 20
-123.9808
  0
VERTEX
  8
LAYER_3
 10
153.2136
 20
-134.4595
  0
SEQEND
  0
POLYLINE
  8
LAYER_3
 40
0.1058
 41
0.1058
 66
1
 10
0
 20
0
 30
0
  0
VERTEX
  8
LAYER_3
 10
154.6728
 20
-123.9808
  0
VERTEX
  8
LAYER_3
 10
154.6728
 20
-134.4595
  0
SEQEND
  0
POLYLINE
  8
LAYER_3
 40
0.1058
 41
0.1058
 66
1
 10
0
 20
0
 30
0
  0
VERTEX
  8
LAYER_3
 10
154.6728
 20
-134.7362
  0
VERTEX
  8
LAYER_3
 10
154.6728
 20
-134.8151
  0
SEQEND
  0
POLYLINE
  8
LAYER_3
 40
0.1058
 41
0.1058
 66
1
 10
0
 20
0
 30
0
  0
VERTEX
  8
LAYER_3
 10
154.6728
 20
-135.4014
  0
VERTEX
  8
LAYER_3
 10
154.6728
 20
-135.4816
  0
SEQEND
  0
POLYLINE
  8
LAYER_3
 40
0.1058
 41
0.1058
 66
1
 10
0
 20
0
 30
0
  0
VERTEX
  8
LAYER_3
 10
154.6728
 20
-123.9808
 42
0.3889167207
  0
VERTEX
  8
LAYER_3
 10
154.3847
 20
-123.9808
 42
-0.1818374616
  0
VERTEX
  8
LAYER_3
 10
154.2369
 20
-124.0371
 42
-0.1923144758
  0
VERTEX
  8
LAYER_3
 10
154.0916
 20
-123.9808
 42
0.1878685811
  0
VERTEX
  8
LAYER_3
 10
153.9437
 20
-123.9207
 42
0.1871805574
  0
VERTEX
  8
LAYER_3
 10
153.7986
 20
-123.9808
 42
-0.1876606646
  0
VERTEX
  8
LAYER_3
 10
153.6495
 20
-124.0371
 42
-0.1916397358
  0
VERTEX
  8
LAYER_3
 10
153.5079
 20
-123.9808
 42
0.1874386613
  0
VERTEX
  8
LAYER_3
 10
153.3613
 20
-123.9207
 42
0.187814594
  0
VERTEX
  8
LAYER_3
 10
153.2136
 20
-123.9808
  0
SEQEND
  0
POLYLINE
  8
LAYER_3
 40
0.1058
 41
0.1058
 66
1
 10
0
 20
0
 30
0
  0
VERTEX
  8
LAYER_3
 10
153.1158
 20
-134.4595
  0
VERTEX
  8
LAYER_3
 10
153.1158
 20
-135.643
  0
SEQEND
  0
POLYLINE
  8
LAYER_3
 40
0.1058
 41
0.1058
 66
1
 10
0
 20
0
 30
0
  0
VERTEX
  8
LAYER_3
 10
154.7718
 20
-135.643
  0
VERTEX
  8
LAYER_3
 10
154.7718
 20
-135.4816
  0
SEQEND
  0
POLYLINE
  8
LAYER_3
 40
0.1058
 41
0.1058
 66
1
 10
0
 20
0
 30
0
  0
VERTEX
  8
LAYER_3
 10
154.7718
 20
-134.7362
  0
VERTEX
  8
LAYER_3
 10
154.7718
 20
-134.4595
  0
SEQEND
  0
POLYLINE
  8
LAYER_3
 40
0.1058
 41
0.1058
 66
1
 10
0
 20
0
 30
0
  0
VERTEX
  8
LAYER_3
 10
154.6565
 20
-134.4595
  0
VERTEX
  8
LAYER_3
 10
153.1158
 20
-134.4595
  0
SEQEND
  0
POLYLINE
  8
LAYER_3
 40
0.1058
 41
0.1058
 66
1
 10
0
 20
0
 30
0
  0
VERTEX
  8
LAYER_3
 10
155.1587
 20
-134.6223
  0
VERTEX
  8
LAYER_3
 10
155.1587
 20
-135.5943
  0
SEQEND
  0
POLYLINE
  8
LAYER_3
 40
0.1058
 41
0.1058
 66
1
 10
0
 20
0
 30
0
  0
VERTEX
  8
LAYER_3
 10
154.9947
 20
-134.4595
  0
VERTEX
  8
LAYER_3
 10
154.6565
 20
-134.4595
  0
SEQEND
  0
POLYLINE
  8
LAYER_3
 40
0.1058
 41
0.1058
 66
1
 10
0
 20
0
 30
0
  0
VERTEX
  8
LAYER_3
 10
155.1587
 20
-134.6223
 42
0.3870825891
  0
VERTEX
  8
LAYER_3
 10
154.9947
 20
-134.4595
  0
SEQEND
  0
POLYLINE
  8
LAYER_3
 40
0.1058
 41
0.1058
 66
1
 10
0
 20
0
 30
0
  0
VERTEX
  8
LAYER_3
 10
155.1487
 20
-135.643
  0
VERTEX
  8
LAYER_3
 10
155.1587
 20
-135.5943
  0
SEQEND
  0
POLYLINE
  8
LAYER_3
 40
0.1058
 41
0.1058
 66
1
 10
0
 20
0
 30
0
  0
VERTEX
  8
LAYER_3
 10
154.8657
 20
-135.4014
 42
0.4142200002
  0
VERTEX
  8
LAYER_3
 10
155.1587
 20
-135.1083
 42
0.4141848016
  0
VERTEX
  8
LAYER_3
 10
154.8657
 20
-134.8151
  0
SEQEND
  0
POLYLINE
  8
LAYER_3
 40
0.1058
 41
0.1058
 66
1
 10
0
 20
0
 30
0
  0
VERTEX
  8
LAYER_3
 10
154.8657
 20
-134.8151
  0
VERTEX
  8
LAYER_3
 10
154.5713
 20
-134.8151
  0
SEQEND
  0
POLYLINE
  8
LAYER_3
 40
0.1058
 41
0.1058
 66
1
 10
0
 20
0
 30
0
  0
VERTEX
  8
LAYER_3
 10
154.5713
 20
-134.8151
  0
VERTEX
  8
LAYER_3
 10
154.5713
 20
-135.4014
  0
SEQEND
  0
POLYLINE
  8
LAYER_3
 40
0.1058
 41
0.1058
 66
1
 10
0
 20
0
 30
0
  0
VERTEX
  8
LAYER_3
 10
154.5713
 20
-135.4014
  0
VERTEX
  8
LAYER_3
 10
154.8657
 20
-135.4014
  0
SEQEND
  0
POLYLINE
  8
LAYER_3
 40
0.1058
 41
0.1058
 66
1
 10
0
 20
0
 30
0
  0
VERTEX
  8
LAYER_3
 10
154.5713
 20
-134.7362
  0
VERTEX
  8
LAYER_3
 10
154.7879
 20
-134.7362
  0
SEQEND
  0
POLYLINE
  8
LAYER_3
 40
0.1058
 41
0.1058
 66
1
 10
0
 20
0
 30
0
  0
VERTEX
  8
LAYER_3
 10
154.8707
 20
-134.8151
 42
0.3878802886
  0
VERTEX
  8
LAYER_3
 10
154.7879
 20
-134.7362
  0
SEQEND
  0
POLYLINE
  8
LAYER_3
 40
0.1058
 41
0.1058
 66
1
 10
0
 20
0
 30
0
  0
VERTEX
  8
LAYER_3
 10
154.9847
 20
-134.8151
  0
SEQEND
  0
POLYLINE
  8
LAYER_3
 40
0.1058
 41
0.1058
 66
1
 10
0
 20
0
 30
0
  0
VERTEX
  8
LAYER_3
 10
154.7879
 20
-135.4816
  0
VERTEX
  8
LAYER_3
 10
154.5713
 20
-135.4816
  0
SEQEND
  0
POLYLINE
  8
LAYER_3
 40
0.1058
 41
0.1058
 66
1
 10
0
 20
0
 30
0
  0
VERTEX
  8
LAYER_3
 10
154.7879
 20
-135.4816
 42
0.3881882872
  0
VERTEX
  8
LAYER_3
 10
154.8707
 20
-135.4014
  0
SEQEND
  0
POLYLINE
  8
LAYER_3
 40
0.1058
 41
0.1058
 66
1
 10
0
 20
0
 30
0
  0
VERTEX
  8
LAYER_3
 10
154.5713
 20
-134.7362
 42
0.394948459
  0
VERTEX
  8
LAYER_3
 10
154.2018
 20
-135.1083
 42
0.3919202799
  0
VERTEX
  8
LAYER_3
 10
154.5713
 20
-135.4816
  0
SEQEND
  0
POLYLINE
  8
LAYER_3
 40
0.1058
 41
0.1058
 66
1
 10
0
 20
0
 30
0
  0
VERTEX
  8
LAYER_3
 10
153.7571
 20
-135.2674
 42
0.3937007539
  0
VERTEX
  8
LAYER_3
 10
153.8837
 20
-135.0769
 42
0.3031241431
  0
VERTEX
  8
LAYER_3
 10
153.7571
 20
-134.9491
  0
SEQEND
  0
POLYLINE
  8
LAYER_3
 40
0.1058
 41
0.1058
 66
1
 10
0
 20
0
 30
0
  0
VERTEX
  8
LAYER_3
 10
153.4841
 20
-135.3387
  0
VERTEX
  8
LAYER_3
 10
153.7571
 20
-135.2674
  0
SEQEND
  0
POLYLINE
  8
LAYER_3
 40
0.1058
 41
0.1058
 66
1
 10
0
 20
0
 30
0
  0
VERTEX
  8
LAYER_3
 10
153.4841
 20
-134.8766
  0
VERTEX
  8
LAYER_3
 10
153.7571
 20
-134.9491
  0
SEQEND
  0
POLYLINE
  8
LAYER_3
 40
0.1058
 41
0.1058
 66
1
 10
0
 20
0
 30
0
  0
VERTEX
  8
LAYER_3
 10
153.4841
 20
-134.8766
 42
0.2017705425
  0
VERTEX
  8
LAYER_3
 10
153.3539
 20
-134.8978
  0
SEQEND
  0
POLYLINE
  8
LAYER_3
 40
0.1058
 41
0.1058
 66
1
 10
0
 20
0
 30
0
  0
VERTEX
  8
LAYER_3
 10
153.2687
 20
-134.9241
 42
0.1288600147
  0
VERTEX
  8
LAYER_3
 10
153.3539
 20
-134.8978
  0
SEQEND
  0
POLYLINE
  8
LAYER_3
 40
0.1058
 41
0.1058
 66
1
 10
0
 20
0
 30
0
  0
VERTEX
  8
LAYER_3
 10
153.2687
 20
-134.9241
  0
VERTEX
  8
LAYER_3
 10
153.1158
 20
-134.9241
  0
SEQEND
  0
POLYLINE
  8
LAYER_3
 40
0.1058
 41
0.1058
 66
1
 10
0
 20
0
 30
0
  0
VERTEX
  8
LAYER_3
 10
153.1158
 20
-135.2949
  0
VERTEX
  8
LAYER_3
 10
153.2687
 20
-135.2949
  0
SEQEND
  0
POLYLINE
  8
LAYER_3
 40
0.1058
 41
0.1058
 66
1
 10
0
 20
0
 30
0
  0
VERTEX
  8
LAYER_3
 10
153.3539
 20
-135.3187
 42
0.1960673469
  0
VERTEX
  8
LAYER_3
 10
153.4841
 20
-135.3387
  0
SEQEND
  0
POLYLINE
  8
LAYER_3
 40
0.1058
 41
0.1058
 66
1
 10
0
 20
0
 30
0
  0
VERTEX
  8
LAYER_3
 10
153.3539
 20
-135.3187
 42
0.1362398151
  0
VERTEX
  8
LAYER_3
 10
153.2687
 20
-135.2949
  0
SEQEND
  0
POLYLINE
  8
LAYER_3
 40
0.1058
 41
0.1058
 66
1
 10
0
 20
0
 30
0
  0
VERTEX
  8
LAYER_3
 10
154.9847
 20
-135.4014
  0
SEQEND
  0
POLYLINE
  8
LAYER_3
 40
0.1058
 41
0.1058
 66
1
 10
0
 20
0
 30
0
  0
VERTEX
  8
LAYER_3
 10
82.5259
 20
-135.643
  0
VERTEX
  8
LAYER_3
 10
82.5259
 20
-134.4595
  0
SEQEND
  0
POLYLINE
  8
LAYER_3
 40
0.1058
 41
0.1058
 66
1
 10
0
 20
0
 30
0
  0
VERTEX
  8
LAYER_3
 10
82.5259
 20
-134.4595
  0
VERTEX
  8
LAYER_3
 10
81.7005
 20
-134.4595
  0
SEQEND
  0
POLYLINE
  8
LAYER_3
  6
AIGENLINE001
 40
0.1058
 41
0.1058
 66
1
 10
0
 20
0
 30
0
 70
128
  0
VERTEX
  8
LAYER_3
 10
80.6309
 20
-135.1083
  0
VERTEX
  8
LAYER_3
 10
82.7727
 20
-135.1083
  0
SEQEND
  0
POLYLINE
  8
LAYER_3
 40
0.1058
 41
0.1058
 66
1
 10
0
 20
0
 30
0
  0
VERTEX
  8
LAYER_3
 10
82.3393
 20
-135.2674
 42
0.3918521978
  0
VERTEX
  8
LAYER_3
 10
82.467
 20
-135.0769
 42
0.3005344552
  0
VERTEX
  8
LAYER_3
 10
82.3393
 20
-134.9491
  0
SEQEND
  0
POLYLINE
  8
LAYER_3
 40
0.1058
 41
0.1058
 66
1
 10
0
 20
0
 30
0
  0
VERTEX
  8
LAYER_3
 10
82.0675
 20
-135.3387
  0
VERTEX
  8
LAYER_3
 10
82.3393
 20
-135.2674
  0
SEQEND
  0
POLYLINE
  8
LAYER_3
 40
0.1058
 41
0.1058
 66
1
 10
0
 20
0
 30
0
  0
VERTEX
  8
LAYER_3
 10
82.0675
 20
-134.8766
  0
VERTEX
  8
LAYER_3
 10
82.3393
 20
-134.9491
  0
SEQEND
  0
POLYLINE
  8
LAYER_3
 40
0.1058
 41
0.1058
 66
1
 10
0
 20
0
 30
0
  0
VERTEX
  8
LAYER_3
 10
82.0675
 20
-134.8766
 42
0.2061099807
  0
VERTEX
  8
LAYER_3
 10
81.9384
 20
-134.8978
  0
SEQEND
  0
POLYLINE
  8
LAYER_3
 40
0.1058
 41
0.1058
 66
1
 10
0
 20
0
 30
0
  0
VERTEX
  8
LAYER_3
 10
81.8533
 20
-134.9241
 42
0.1275268709
  0
VERTEX
  8
LAYER_3
 10
81.9384
 20
-134.8978
  0
SEQEND
  0
POLYLINE
  8
LAYER_3
 40
0.1058
 41
0.1058
 66
1
 10
0
 20
0
 30
0
  0
VERTEX
  8
LAYER_3
 10
81.8533
 20
-134.9241
  0
VERTEX
  8
LAYER_3
 10
81.7005
 20
-134.9241
  0
SEQEND
  0
POLYLINE
  8
LAYER_3
 40
0.1058
 41
0.1058
 66
1
 10
0
 20
0
 30
0
  0
VERTEX
  8
LAYER_3
 10
81.7005
 20
-135.2949
  0
VERTEX
  8
LAYER_3
 10
81.8533
 20
-135.2949
  0
SEQEND
  0
POLYLINE
  8
LAYER_3
 40
0.1058
 41
0.1058
 66
1
 10
0
 20
0
 30
0
  0
VERTEX
  8
LAYER_3
 10
81.9384
 20
-135.3187
 42
0.1980674312
  0
VERTEX
  8
LAYER_3
 10
82.0675
 20
-135.3387
  0
SEQEND
  0
POLYLINE
  8
LAYER_3
 40
0.1058
 41
0.1058
 66
1
 10
0
 20
0
 30
0
  0
VERTEX
  8
LAYER_3
 10
81.9384
 20
-135.3187
 42
0.1363167403
  0
VERTEX
  8
LAYER_3
 10
81.8533
 20
-135.2949
  0
SEQEND
  0
POLYLINE
  8
LAYER_3
 40
0.1058
 41
0.1058
 66
1
 10
0
 20
0
 30
0
  0
VERTEX
  8
LAYER_3
 10
82.4294
 20
-123.9808
  0
VERTEX
  8
LAYER_3
 10
82.4294
 20
-134.4595
  0
SEQEND
  0
POLYLINE
  8
LAYER_3
 40
0.1058
 41
0.1058
 66
1
 10
0
 20
0
 30
0
  0
VERTEX
  8
LAYER_3
 10
80.9715
 20
-123.9808
  0
VERTEX
  8
LAYER_3
 10
80.9715
 20
-134.4595
  0
SEQEND
  0
POLYLINE
  8
LAYER_3
 40
0.1058
 41
0.1058
 66
1
 10
0
 20
0
 30
0
  0
VERTEX
  8
LAYER_3
 10
80.9715
 20
-123.9808
 42
-0.3833350586
  0
VERTEX
  8
LAYER_3
 10
81.2621
 20
-123.9808
 42
0.1841579505
  0
VERTEX
  8
LAYER_3
 10
81.4112
 20
-124.0371
 42
0.1863268739
  0
VERTEX
  8
LAYER_3
 10
81.5552
 20
-123.9808
 42
-0.190883276
  0
VERTEX
  8
LAYER_3
 10
81.7005
 20
-123.9207
 42
-0.1893238221
  0
VERTEX
  8
LAYER_3
 10
81.8483
 20
-123.9808
 42
0.1866214308
  0
VERTEX
  8
LAYER_3
 10
81.9923
 20
-124.0371
 42
0.1814652426
  0
VERTEX
  8
LAYER_3
 10
82.1414
 20
-123.9808
 42
-0.1980938904
  0
VERTEX
  8
LAYER_3
 10
82.2854
 20
-123.9207
 42
-0.1967680761
  0
VERTEX
  8
LAYER_3
 10
82.4294
 20
-123.9808
  0
SEQEND
  0
POLYLINE
  8
LAYER_3
 40
0.1058
 41
0.1058
 66
1
 10
0
 20
0
 30
0
  0
VERTEX
  8
LAYER_3
 10
80.8726
 20
-135.643
  0
VERTEX
  8
LAYER_3
 10
80.8726
 20
-134.4595
  0
SEQEND
  0
POLYLINE
  8
LAYER_3
 40
0.1058
 41
0.1058
 66
1
 10
0
 20
0
 30
0
  0
VERTEX
  8
LAYER_3
 10
80.8726
 20
-134.4595
  0
VERTEX
  8
LAYER_3
 10
81.7005
 20
-134.4595
  0
SEQEND
  0
POLYLINE
  8
LAYER_3
 40
0.1058
 41
0.1058
 66
1
 10
0
 20
0
 30
0
  0
VERTEX
  8
LAYER_3
 10
81.0643
 20
-134.9491
 42
0.3914843932
  0
VERTEX
  8
LAYER_3
 10
80.9315
 20
-135.1396
 42
0.2926180697
  0
VERTEX
  8
LAYER_3
 10
81.0643
 20
-135.2674
  0
SEQEND
  0
POLYLINE
  8
LAYER_3
 40
0.1058
 41
0.1058
 66
1
 10
0
 20
0
 30
0
  0
VERTEX
  8
LAYER_3
 10
81.3373
 20
-135.3387
  0
VERTEX
  8
LAYER_3
 10
81.0643
 20
-135.2674
  0
SEQEND
  0
POLYLINE
  8
LAYER_3
 40
0.1058
 41
0.1058
 66
1
 10
0
 20
0
 30
0
  0
VERTEX
  8
LAYER_3
 10
81.3373
 20
-134.8766
  0
VERTEX
  8
LAYER_3
 10
81.0643
 20
-134.9491
  0
SEQEND
  0
POLYLINE
  8
LAYER_3
 40
0.1058
 41
0.1058
 66
1
 10
0
 20
0
 30
0
  0
VERTEX
  8
LAYER_3
 10
81.4638
 20
-134.8978
 42
0.2075841728
  0
VERTEX
  8
LAYER_3
 10
81.3373
 20
-134.8766
  0
SEQEND
  0
POLYLINE
  8
LAYER_3
 40
0.1058
 41
0.1058
 66
1
 10
0
 20
0
 30
0
  0
VERTEX
  8
LAYER_3
 10
81.4638
 20
-134.8978
 42
0.1475274641
  0
VERTEX
  8
LAYER_3
 10
81.5502
 20
-134.9241
  0
SEQEND
  0
POLYLINE
  8
LAYER_3
 40
0.1058
 41
0.1058
 66
1
 10
0
 20
0
 30
0
  0
VERTEX
  8
LAYER_3
 10
81.5502
 20
-134.9241
  0
VERTEX
  8
LAYER_3
 10
81.7005
 20
-134.9241
  0
SEQEND
  0
POLYLINE
  8
LAYER_3
 40
0.1058
 41
0.1058
 66
1
 10
0
 20
0
 30
0
  0
VERTEX
  8
LAYER_3
 10
81.7005
 20
-135.2949
  0
VERTEX
  8
LAYER_3
 10
81.5502
 20
-135.2949
  0
SEQEND
  0
POLYLINE
  8
LAYER_3
 40
0.1058
 41
0.1058
 66
1
 10
0
 20
0
 30
0
  0
VERTEX
  8
LAYER_3
 10
81.3373
 20
-135.3387
 42
0.2046605913
  0
VERTEX
  8
LAYER_3
 10
81.4638
 20
-135.3187
  0
SEQEND
  0
POLYLINE
  8
LAYER_3
 40
0.1058
 41
0.1058
 66
1
 10
0
 20
0
 30
0
  0
VERTEX
  8
LAYER_3
 10
81.5502
 20
-135.2949
 42
0.109990714
  0
VERTEX
  8
LAYER_3
 10
81.4638
 20
-135.3187
  0
SEQEND
  0
POLYLINE
  8
LAYER_3
 40
0.1058
 41
0.1058
 66
1
 10
0
 20
0
 30
0
  0
VERTEX
  8
LAYER_3
 10
79.3483
 20
-160.0323
  0
VERTEX
  8
LAYER_3
 10
79.3483
 20
-160.9254
  0
SEQEND
  0
POLYLINE
  8
LAYER_3
 40
0.1058
 41
0.1058
 66
1
 10
0
 20
0
 30
0
  0
VERTEX
  8
LAYER_3
 10
82.4294
 20
-160.9254
  0
VERTEX
  8
LAYER_3
 10
82.4294
 20
-160.0323
  0
SEQEND
  0
POLYLINE
  8
LAYER_3
 40
0.1058
 41
0.1058
 66
1
 10
0
 20
0
 30
0
  0
VERTEX
  8
LAYER_3
 10
82.482
 20
-159.8557
 42
0.1370866872
  0
VERTEX
  8
LAYER_3
 10
82.4294
 20
-160.0323
  0
SEQEND
  0
POLYLINE
  8
LAYER_3
 40
0.1058
 41
0.1058
 66
1
 10
0
 20
0
 30
0
  0
VERTEX
  8
LAYER_3
 10
79.3483
 20
-160.0323
 42
0.1447516812
  0
VERTEX
  8
LAYER_3
 10
79.2981
 20
-159.8557
  0
SEQEND
  0
POLYLINE
  8
LAYER_3
 40
0.1058
 41
0.1058
 66
1
 10
0
 20
0
 30
0
  0
VERTEX
  8
LAYER_3
 10
78.9437
 20
-156.7896
  0
VERTEX
  8
LAYER_3
 10
78.9437
 20
-158.7372
  0
SEQEND
  0
POLYLINE
  8
LAYER_3
 40
0.1058
 41
0.1058
 66
1
 10
0
 20
0
 30
0
  0
VERTEX
  8
LAYER_3
 10
82.8378
 20
-158.7372
  0
VERTEX
  8
LAYER_3
 10
82.8378
 20
-156.7896
  0
SEQEND
  0
POLYLINE
  8
LAYER_3
 40
0.1058
 41
0.1058
 66
1
 10
0
 20
0
 30
0
  0
VERTEX
  8
LAYER_3
 10
79.3483
 20
-160.9254
  0
VERTEX
  8
LAYER_3
 10
80.8901
 20
-160.9254
  0
SEQEND
  0
POLYLINE
  8
LAYER_3
 40
0.1058
 41
0.1058
 66
1
 10
0
 20
0
 30
0
  0
VERTEX
  8
LAYER_3
 10
80.8901
 20
-161.008
  0
VERTEX
  8
LAYER_3
 10
79.4309
 20
-161.008
  0
SEQEND
  0
POLYLINE
  8
LAYER_3
 40
0.1058
 41
0.1058
 66
1
 10
0
 20
0
 30
0
  0
VERTEX
  8
LAYER_3
 10
79.3483
 20
-160.9254
  0
VERTEX
  8
LAYER_3
 10
79.4309
 20
-161.008
  0
SEQEND
  0
POLYLINE
  8
LAYER_3
  6
AIGENLINE001
 40
0.1058
 41
0.1058
 66
1
 10
0
 20
0
 30
0
 70
128
  0
VERTEX
  8
LAYER_3
 10
78.4565
 20
-158.7372
  0
VERTEX
  8
LAYER_3
 10
83.3225
 20
-158.7372
  0
SEQEND
  0
POLYLINE
  8
LAYER_3
 40
0.1058
 41
0.1058
 66
1
 10
0
 20
0
 30
0
 70
1
  0
VERTEX
  8
LAYER_3
 10
82.8378
 20
-158.7372
 42
0.4142090204
  0
VERTEX
  8
LAYER_3
 10
80.8901
 20
-156.7896
 42
0.4142205891
  0
VERTEX
  8
LAYER_3
 10
78.9437
 20
-158.7372
 42
0.414218107
  0
VERTEX
  8
LAYER_3
 10
80.8901
 20
-160.6836
 42
0.4142065333
  0
SEQEND
  0
POLYLINE
  8
LAYER_3
 40
0.1058
 41
0.1058
 66
1
 10
0
 20
0
 30
0
  0
VERTEX
  8
LAYER_3
 10
82.4294
 20
-160.9254
  0
VERTEX
  8
LAYER_3
 10
80.8901
 20
-160.9254
  0
SEQEND
  0
POLYLINE
  8
LAYER_3
 40
0.1058
 41
0.1058
 66
1
 10
0
 20
0
 30
0
  0
VERTEX
  8
LAYER_3
 10
80.8901
 20
-161.008
  0
VERTEX
  8
LAYER_3
 10
82.3505
 20
-161.008
  0
SEQEND
  0
POLYLINE
  8
LAYER_3
 40
0.1058
 41
0.1058
 66
1
 10
0
 20
0
 30
0
  0
VERTEX
  8
LAYER_3
 10
82.4294
 20
-160.9254
  0
VERTEX
  8
LAYER_3
 10
82.3505
 20
-161.008
  0
SEQEND
  0
POLYLINE
  8
LAYER_3
 40
0.1058
 41
0.1058
 66
1
 10
0
 20
0
 30
0
 70
1
  0
VERTEX
  8
LAYER_3
 10
82.6749
 20
-158.7372
 42
0.3928802165
  0
VERTEX
  8
LAYER_3
 10
80.8901
 20
-156.9511
 42
0.3934957449
  0
VERTEX
  8
LAYER_3
 10
79.1078
 20
-158.7372
 42
0.4142185208
  0
VERTEX
  8
LAYER_3
 10
80.8901
 20
-160.5208
 42
0.4142058917
  0
SEQEND
  0
POLYLINE
  8
LAYER_3
 40
0.1058
 41
0.1058
 66
1
 10
0
 20
0
 30
0
  0
VERTEX
  8
LAYER_3
 10
82.8378
 20
-154.8431
  0
VERTEX
  8
LAYER_3
 10
82.8378
 20
-156.7896
  0
SEQEND
  0
POLYLINE
  8
LAYER_3
 40
0.1058
 41
0.1058
 66
1
 10
0
 20
0
 30
0
  0
VERTEX
  8
LAYER_3
 10
78.9437
 20
-154.8431
  0
VERTEX
  8
LAYER_3
 10
78.9437
 20
-156.7896
  0
SEQEND
  0
POLYLINE
  8
LAYER_3
 40
0.1058
 41
0.1058
 66
1
 10
0
 20
0
 30
0
  0
VERTEX
  8
LAYER_3
 10
79.1078
 20
-154.6978
  0
VERTEX
  8
LAYER_3
 10
79.1078
 20
-154.7642
  0
SEQEND
  0
POLYLINE
  8
LAYER_3
 40
0.1058
 41
0.1058
 66
1
 10
0
 20
0
 30
0
  0
VERTEX
  8
LAYER_3
 10
80.8901
 20
-154.7642
  0
VERTEX
  8
LAYER_3
 10
79.025
 20
-154.7642
  0
SEQEND
  0
POLYLINE
  8
LAYER_3
 40
0.1058
 41
0.1058
 66
1
 10
0
 20
0
 30
0
  0
VERTEX
  8
LAYER_3
 10
78.9437
 20
-154.8431
  0
VERTEX
  8
LAYER_3
 10
79.025
 20
-154.7642
  0
SEQEND
  0
POLYLINE
  8
LAYER_3
 40
0.1058
 41
0.1058
 66
1
 10
0
 20
0
 30
0
  0
VERTEX
  8
LAYER_3
 10
82.6749
 20
-154.6978
  0
VERTEX
  8
LAYER_3
 10
82.6749
 20
-154.7642
  0
SEQEND
  0
POLYLINE
  8
LAYER_3
 40
0.1058
 41
0.1058
 66
1
 10
0
 20
0
 30
0
  0
VERTEX
  8
LAYER_3
 10
80.8901
 20
-154.7642
  0
VERTEX
  8
LAYER_3
 10
82.7551
 20
-154.7642
  0
SEQEND
  0
POLYLINE
  8
LAYER_3
 40
0.1058
 41
0.1058
 66
1
 10
0
 20
0
 30
0
  0
VERTEX
  8
LAYER_3
 10
82.7551
 20
-154.7642
  0
VERTEX
  8
LAYER_3
 10
82.8378
 20
-154.8431
  0
SEQEND
  0
POLYLINE
  8
LAYER_3
 40
0.1058
 41
0.1058
 66
1
 10
0
 20
0
 30
0
  0
VERTEX
  8
LAYER_3
 10
78.9437
 20
-154.8431
  0
VERTEX
  8
LAYER_3
 10
82.8378
 20
-154.8431
  0
SEQEND
  0
POLYLINE
  8
LAYER_3
 40
0.1058
 41
0.1058
 66
1
 10
0
 20
0
 30
0
  0
VERTEX
  8
LAYER_3
 10
79.025
 20
-163.2788
  0
VERTEX
  8
LAYER_3
 10
82.7551
 20
-163.2788
  0
SEQEND
  0
POLYLINE
  8
LAYER_3
 40
0.1058
 41
0.1058
 66
1
 10
0
 20
0
 30
0
  0
VERTEX
  8
LAYER_3
 10
78.8636
 20
-163.2325
 42
0.1392359167
  0
VERTEX
  8
LAYER_3
 10
79.025
 20
-163.2788
  0
SEQEND
  0
POLYLINE
  8
LAYER_3
 40
0.1058
 41
0.1058
 66
1
 10
0
 20
0
 30
0
  0
VERTEX
  8
LAYER_3
 10
82.7965
 20
-161.1696
  0
VERTEX
  8
LAYER_3
 10
78.9838
 20
-161.1696
  0
SEQEND
  0
POLYLINE
  8
LAYER_3
 40
0.1058
 41
0.1058
 66
1
 10
0
 20
0
 30
0
  0
VERTEX
  8
LAYER_3
 10
78.9838
 20
-161.1696
  0
VERTEX
  8
LAYER_3
 10
78.8636
 20
-161.4138
  0
SEQEND
  0
POLYLINE
  8
LAYER_3
 40
0.1058
 41
0.1058
 66
1
 10
0
 20
0
 30
0
  0
VERTEX
  8
LAYER_3
 10
82.7551
 20
-163.2788
 42
0.1364893116
  0
VERTEX
  8
LAYER_3
 10
82.9167
 20
-163.2325
  0
SEQEND
  0
POLYLINE
  8
LAYER_3
 40
0.1058
 41
0.1058
 66
1
 10
0
 20
0
 30
0
  0
VERTEX
  8
LAYER_3
 10
82.9167
 20
-161.4138
  0
VERTEX
  8
LAYER_3
 10
82.7965
 20
-161.1696
  0
SEQEND
  0
POLYLINE
  8
LAYER_3
 40
0.1058
 41
0.1058
 66
1
 10
0
 20
0
 30
0
  0
VERTEX
  8
LAYER_3
 10
78.8636
 20
-161.4138
  0
VERTEX
  8
LAYER_3
 10
78.8636
 20
-163.2325
  0
SEQEND
  0
POLYLINE
  8
LAYER_3
 40
0.1058
 41
0.1058
 66
1
 10
0
 20
0
 30
0
  0
VERTEX
  8
LAYER_3
 10
82.9167
 20
-161.4138
  0
VERTEX
  8
LAYER_3
 10
82.9167
 20
-163.2325
  0
SEQEND
  0
POLYLINE
  8
LAYER_3
 40
0.1058
 41
0.1058
 66
1
 10
0
 20
0
 30
0
  0
VERTEX
  8
LAYER_3
 10
80.592
 20
-162.223
 42
0.2380584063
  0
VERTEX
  8
LAYER_3
 10
80.2402
 20
-161.5259
 42
0.1471605666
  0
VERTEX
  8
LAYER_3
 10
79.8755
 20
-161.4138
 42
0.2766851158
  0
VERTEX
  8
LAYER_3
 10
79.2694
 20
-161.795
 42
0.1267617926
  0
VERTEX
  8
LAYER_3
 10
79.1616
 20
-162.223
  0
SEQEND
  0
POLYLINE
  8
LAYER_3
 40
0.1058
 41
0.1058
 66
1
 10
0
 20
0
 30
0
  0
VERTEX
  8
LAYER_3
 10
79.1616
 20
-162.9519
 42
0.1972514879
  0
VERTEX
  8
LAYER_3
 10
79.2143
 20
-163.0586
 42
0.0963821052
  0
VERTEX
  8
LAYER_3
 10
79.3706
 20
-163.1509
 42
0.09531651366
  0
VERTEX
  8
LAYER_3
 10
79.8755
 20
-163.2325
 42
0.06762807706
  0
VERTEX
  8
LAYER_3
 10
80.2909
 20
-163.1812
 42
0.09753210374
  0
VERTEX
  8
LAYER_3
 10
80.5178
 20
-163.0773
 42
0.2246984771
  0
VERTEX
  8
LAYER_3
 10
80.592
 20
-162.9519
  0
SEQEND
  0
POLYLINE
  8
LAYER_3
 40
0.1058
 41
0.1058
 66
1
 10
0
 20
0
 30
0
  0
VERTEX
  8
LAYER_3
 10
79.1616
 20
-162.223
  0
VERTEX
  8
LAYER_3
 10
79.1616
 20
-162.9519
  0
SEQEND
  0
POLYLINE
  8
LAYER_3
 40
0.1058
 41
0.1058
 66
1
 10
0
 20
0
 30
0
  0
VERTEX
  8
LAYER_3
 10
80.592
 20
-162.223
  0
VERTEX
  8
LAYER_3
 10
80.592
 20
-162.9519
  0
SEQEND
  0
POLYLINE
  8
LAYER_3
 40
0.1058
 41
0.1058
 66
1
 10
0
 20
0
 30
0
  0
VERTEX
  8
LAYER_3
 10
81.1883
 20
-162.223
 42
-0.238095802
  0
VERTEX
  8
LAYER_3
 10
81.5398
 20
-161.5259
 42
-0.1471654248
  0
VERTEX
  8
LAYER_3
 10
81.9059
 20
-161.4138
 42
-0.2762737904
  0
VERTEX
  8
LAYER_3
 10
82.5128
 20
-161.795
 42
-0.1270335784
  0
VERTEX
  8
LAYER_3
 10
82.621
 20
-162.223
  0
SEQEND
  0
POLYLINE
  8
LAYER_3
 40
0.1058
 41
0.1058
 66
1
 10
0
 20
0
 30
0
  0
VERTEX
  8
LAYER_3
 10
82.621
 20
-162.9519
 42
-0.1975626091
  0
VERTEX
  8
LAYER_3
 10
82.5681
 20
-163.0586
 42
-0.09617292364
  0
VERTEX
  8
LAYER_3
 10
82.4114
 20
-163.1509
 42
-0.09507774567
  0
VERTEX
  8
LAYER_3
 10
81.9059
 20
-163.2325
 42
-0.06761353656
  0
VERTEX
  8
LAYER_3
 10
81.4891
 20
-163.1812
 42
-0.09787352414
  0
VERTEX
  8
LAYER_3
 10
81.2623
 20
-163.0773
 42
-0.2245486188
  0
VERTEX
  8
LAYER_3
 10
81.1883
 20
-162.9519
  0
SEQEND
  0
POLYLINE
  8
LAYER_3
 40
0.1058
 41
0.1058
 66
1
 10
0
 20
0
 30
0
  0
VERTEX
  8
LAYER_3
 10
82.621
 20
-162.223
  0
VERTEX
  8
LAYER_3
 10
82.621
 20
-162.9519
  0
SEQEND
  0
POLYLINE
  8
LAYER_3
 40
0.1058
 41
0.1058
 66
1
 10
0
 20
0
 30
0
  0
VERTEX
  8
LAYER_3
 10
81.1883
 20
-162.223
  0
VERTEX
  8
LAYER_3
 10
81.1883
 20
-162.9519
  0
SEQEND
  0
POLYLINE
  8
LAYER_3
 40
0.1058
 41
0.1058
 66
1
 10
0
 20
0
 30
0
  0
VERTEX
  8
LAYER_3
 10
79.5775
 20
-161.008
  0
VERTEX
  8
LAYER_3
 10
79.5775
 20
-161.1696
  0
SEQEND
  0
POLYLINE
  8
LAYER_3
 40
0.1058
 41
0.1058
 66
1
 10
0
 20
0
 30
0
  0
VERTEX
  8
LAYER_3
 10
82.2039
 20
-161.008
  0
VERTEX
  8
LAYER_3
 10
82.2039
 20
-161.1696
  0
SEQEND
  0
POLYLINE
  8
LAYER_3
 40
0.1058
 41
0.1058
 66
1
 10
0
 20
0
 30
0
  0
VERTEX
  8
LAYER_3
 10
79.5775
 20
-161.008
  0
VERTEX
  8
LAYER_3
 10
82.2039
 20
-161.008
  0
SEQEND
  0
POLYLINE
  8
LAYER_3
 40
0.1058
 41
0.1058
 66
1
 10
0
 20
0
 30
0
 70
1
  0
VERTEX
  8
LAYER_3
 10
82.5835
 20
-158.7372
 42
0.4142083438
  0
VERTEX
  8
LAYER_3
 10
80.8901
 20
-157.0425
 42
0.4142216379
  0
VERTEX
  8
LAYER_3
 10
79.1967
 20
-158.7372
 42
0.414218791
  0
VERTEX
  8
LAYER_3
 10
80.8901
 20
-160.4293
 42
0.4142054771
  0
SEQEND
  0
POLYLINE
  8
LAYER_3
 40
0.1058
 41
0.1058
 66
1
 10
0
 20
0
 30
0
  0
VERTEX
  8
LAYER_3
 10
79.2017
 20
-158.5919
  0
VERTEX
  8
LAYER_3
 10
82.5785
 20
-158.5919
  0
SEQEND
  0
POLYLINE
  8
LAYER_3
 40
0.1058
 41
0.1058
 66
1
 10
0
 20
0
 30
0
  0
VERTEX
  8
LAYER_3
 10
79.2017
 20
-158.8825
  0
VERTEX
  8
LAYER_3
 10
82.5785
 20
-158.8825
  0
SEQEND
  0
POLYLINE
  8
LAYER_3
 40
0.1058
 41
0.1058
 66
1
 10
0
 20
0
 30
0
  0
VERTEX
  8
LAYER_3
 10
77.4357
 20
-152.2517
  0
VERTEX
  8
LAYER_3
 10
77.4357
 20
-154.6489
  0
SEQEND
  0
POLYLINE
  8
LAYER_3
 40
0.1058
 41
0.1058
 66
1
 10
0
 20
0
 30
0
  0
VERTEX
  8
LAYER_3
 10
77.5997
 20
-152.0888
 42
0.3961683621
  0
VERTEX
  8
LAYER_3
 10
77.4357
 20
-152.2517
  0
SEQEND
  0
POLYLINE
  8
LAYER_3
 40
0.1058
 41
0.1058
 66
1
 10
0
 20
0
 30
0
  0
VERTEX
  8
LAYER_3
 10
77.4846
 20
-154.6978
  0
VERTEX
  8
LAYER_3
 10
83.2273
 20
-154.6978
  0
SEQEND
  0
POLYLINE
  8
LAYER_3
 40
0.1058
 41
0.1058
 66
1
 10
0
 20
0
 30
0
  0
VERTEX
  8
LAYER_3
 10
77.4357
 20
-154.6489
 42
0.3926858644
  0
VERTEX
  8
LAYER_3
 10
77.4846
 20
-154.6978
  0
SEQEND
  0
POLYLINE
  8
LAYER_3
 40
0.1058
 41
0.1058
 66
1
 10
0
 20
0
 30
0
  0
VERTEX
  8
LAYER_3
 10
83.2736
 20
-154.6489
  0
VERTEX
  8
LAYER_3
 10
83.2736
 20
-152.2517
  0
SEQEND
  0
POLYLINE
  8
LAYER_3
 40
0.1058
 41
0.1058
 66
1
 10
0
 20
0
 30
0
  0
VERTEX
  8
LAYER_3
 10
83.2736
 20
-152.2517
 42
0.3929884045
  0
VERTEX
  8
LAYER_3
 10
83.1133
 20
-152.0888
  0
SEQEND
  0
POLYLINE
  8
LAYER_3
 40
0.1058
 41
0.1058
 66
1
 10
0
 20
0
 30
0
  0
VERTEX
  8
LAYER_3
 10
83.2273
 20
-154.6978
 42
0.3990737915
  0
VERTEX
  8
LAYER_3
 10
83.2736
 20
-154.6489
  0
SEQEND
  0
POLYLINE
  8
LAYER_3
 40
0.1058
 41
0.1058
 66
1
 10
0
 20
0
 30
0
  0
VERTEX
  8
LAYER_3
 10
82.8278
 20
-151.5213
  0
VERTEX
  8
LAYER_3
 10
80.8901
 20
-151.5213
  0
SEQEND
  0
POLYLINE
  8
LAYER_3
 40
0.1058
 41
0.1058
 66
1
 10
0
 20
0
 30
0
  0
VERTEX
  8
LAYER_3
 10
80.7623
 20
-151.5213
  0
VERTEX
  8
LAYER_3
 10
78.692
 20
-151.5213
  0
SEQEND
  0
POLYLINE
  8
LAYER_3
 40
0.1058
 41
0.1058
 66
1
 10
0
 20
0
 30
0
  0
VERTEX
  8
LAYER_3
 10
77.5997
 20
-152.0888
  0
VERTEX
  8
LAYER_3
 10
80.7623
 20
-152.0888
  0
SEQEND
  0
POLYLINE
  8
LAYER_3
 40
0.1058
 41
0.1058
 66
1
 10
0
 20
0
 30
0
  0
VERTEX
  8
LAYER_3
 10
80.8901
 20
-152.0888
  0
VERTEX
  8
LAYER_3
 10
83.1133
 20
-152.0888
  0
SEQEND
  0
POLYLINE
  8
LAYER_3
 40
0.1058
 41
0.1058
 66
1
 10
0
 20
0
 30
0
  0
VERTEX
  8
LAYER_3
 10
82.8278
 20
-151.5213
  0
VERTEX
  8
LAYER_3
 10
82.8278
 20
-152.0888
  0
SEQEND
  0
POLYLINE
  8
LAYER_3
 40
0.1058
 41
0.1058
 66
1
 10
0
 20
0
 30
0
  0
VERTEX
  8
LAYER_3
 10
78.692
 20
-151.5213
  0
VERTEX
  8
LAYER_3
 10
78.692
 20
-152.0888
  0
SEQEND
  0
POLYLINE
  8
LAYER_3
 40
0.1058
 41
0.1058
 66
1
 10
0
 20
0
 30
0
  0
VERTEX
  8
LAYER_3
 10
80.3127
 20
-152.0888
  0
VERTEX
  8
LAYER_3
 10
80.3127
 20
-154.6978
  0
SEQEND
  0
POLYLINE
  8
LAYER_3
 40
0.1058
 41
0.1058
 66
1
 10
0
 20
0
 30
0
  0
VERTEX
  8
LAYER_3
 10
81.5439
 20
-152.4946
  0
VERTEX
  8
LAYER_3
 10
81.5439
 20
-154.6978
  0
SEQEND
  0
POLYLINE
  8
LAYER_3
 40
0.1058
 41
0.1058
 66
1
 10
0
 20
0
 30
0
  0
VERTEX
  8
LAYER_3
 10
81.8144
 20
-152.0888
  0
VERTEX
  8
LAYER_3
 10
81.8144
 20
-154.6978
  0
SEQEND
  0
POLYLINE
  8
LAYER_3
 40
0.1058
 41
0.1058
 66
1
 10
0
 20
0
 30
0
  0
VERTEX
  8
LAYER_3
 10
80.8901
 20
-151.5213
  0
VERTEX
  8
LAYER_3
 10
80.8901
 20
-152.3305
  0
SEQEND
  0
POLYLINE
  8
LAYER_3
 40
0.1058
 41
0.1058
 66
1
 10
0
 20
0
 30
0
  0
VERTEX
  8
LAYER_3
 10
80.8901
 20
-152.3305
  0
VERTEX
  8
LAYER_3
 10
81.8144
 20
-152.3305
  0
SEQEND
  0
POLYLINE
  8
LAYER_3
 40
0.1058
 41
0.1058
 66
1
 10
0
 20
0
 30
0
  0
VERTEX
  8
LAYER_3
 10
80.7623
 20
-151.5213
  0
VERTEX
  8
LAYER_3
 10
80.7623
 20
-152.4946
  0
SEQEND
  0
POLYLINE
  8
LAYER_3
 40
0.1058
 41
0.1058
 66
1
 10
0
 20
0
 30
0
  0
VERTEX
  8
LAYER_3
 10
80.7623
 20
-152.4946
  0
VERTEX
  8
LAYER_3
 10
81.8144
 20
-152.4946
  0
SEQEND
  0
POLYLINE
  8
LAYER_3
 40
0.1058
 41
0.1058
 66
1
 10
0
 20
0
 30
0
  0
VERTEX
  8
LAYER_3
 10
78.5191
 20
-154.6978
  0
VERTEX
  8
LAYER_3
 10
78.5191
 20
-152.0888
  0
SEQEND
  0
POLYLINE
  8
LAYER_3
 40
0.1058
 41
0.1058
 66
1
 10
0
 20
0
 30
0
  0
VERTEX
  8
LAYER_3
 10
79.3546
 20
-135.7258
  0
VERTEX
  8
LAYER_3
 10
79.3546
 20
-138.0279
  0
SEQEND
  0
POLYLINE
  8
LAYER_3
 40
0.1058
 41
0.1058
 66
1
 10
0
 20
0
 30
0
  0
VERTEX
  8
LAYER_3
 10
79.4371
 20
-135.643
 42
0.392747075
  0
VERTEX
  8
LAYER_3
 10
79.3546
 20
-135.7258
  0
SEQEND
  0
POLYLINE
  8
LAYER_3
 40
0.1058
 41
0.1058
 66
1
 10
0
 20
0
 30
0
  0
VERTEX
  8
LAYER_3
 10
84.0477
 20
-135.7258
  0
VERTEX
  8
LAYER_3
 10
84.0477
 20
-138.0279
  0
SEQEND
  0
POLYLINE
  8
LAYER_3
 40
0.1058
 41
0.1058
 66
1
 10
0
 20
0
 30
0
  0
VERTEX
  8
LAYER_3
 10
84.0001
 20
-138.0755
 42
0.3938238092
  0
VERTEX
  8
LAYER_3
 10
84.0477
 20
-138.0279
  0
SEQEND
  0
POLYLINE
  8
LAYER_3
 40
0.1058
 41
0.1058
 66
1
 10
0
 20
0
 30
0
  0
VERTEX
  8
LAYER_3
 10
79.4371
 20
-135.643
  0
VERTEX
  8
LAYER_3
 10
83.9688
 20
-135.643
  0
SEQEND
  0
POLYLINE
  8
LAYER_3
 40
0.1058
 41
0.1058
 66
1
 10
0
 20
0
 30
0
  0
VERTEX
  8
LAYER_3
 10
84.0477
 20
-135.7258
 42
0.3850953748
  0
VERTEX
  8
LAYER_3
 10
83.9688
 20
-135.643
  0
SEQEND
  0
POLYLINE
  8
LAYER_3
 40
0.1058
 41
0.1058
 66
1
 10
0
 20
0
 30
0
  0
VERTEX
  8
LAYER_3
 10
84.0001
 20
-138.0755
  0
VERTEX
  8
LAYER_3
 10
79.4034
 20
-138.0755
  0
SEQEND
  0
POLYLINE
  8
LAYER_3
 40
0.1058
 41
0.1058
 66
1
 10
0
 20
0
 30
0
  0
VERTEX
  8
LAYER_3
 10
79.3546
 20
-138.0279
 42
0.403084233
  0
VERTEX
  8
LAYER_3
 10
79.4034
 20
-138.0755
  0
SEQEND
  0
POLYLINE
  8
LAYER_3
 40
0.1058
 41
0.1058
 66
1
 10
0
 20
0
 30
0
  0
VERTEX
  8
LAYER_3
 10
81.7005
 20
-135.7258
  0
VERTEX
  8
LAYER_3
 10
81.7005
 20
-138.0279
  0
SEQEND
  0
POLYLINE
  8
LAYER_3
 40
0.1058
 41
0.1058
 66
1
 10
0
 20
0
 30
0
  0
VERTEX
  8
LAYER_3
 10
80.2413
 20
-138.579
  0
VERTEX
  8
LAYER_3
 10
80.2413
 20
-138.1393
  0
SEQEND
  0
POLYLINE
  8
LAYER_3
 40
0.1058
 41
0.1058
 66
1
 10
0
 20
0
 30
0
  0
VERTEX
  8
LAYER_3
 10
80.3076
 20
-138.0755
  0
VERTEX
  8
LAYER_3
 10
80.2413
 20
-138.1393
  0
SEQEND
  0
POLYLINE
  8
LAYER_3
 40
0.1058
 41
0.1058
 66
1
 10
0
 20
0
 30
0
  0
VERTEX
  8
LAYER_3
 10
83.1609
 20
-138.1393
  0
VERTEX
  8
LAYER_3
 10
83.0959
 20
-138.0755
  0
SEQEND
  0
POLYLINE
  8
LAYER_3
 40
0.1058
 41
0.1058
 66
1
 10
0
 20
0
 30
0
  0
VERTEX
  8
LAYER_3
 10
83.1609
 20
-138.1393
  0
VERTEX
  8
LAYER_3
 10
83.1609
 20
-138.579
  0
SEQEND
  0
POLYLINE
  8
LAYER_3
 40
0.1058
 41
0.1058
 66
1
 10
0
 20
0
 30
0
  0
VERTEX
  8
LAYER_3
 10
79.7565
 20
-138.579
  0
VERTEX
  8
LAYER_3
 10
79.7565
 20
-141.1742
  0
SEQEND
  0
POLYLINE
  8
LAYER_3
 40
0.1058
 41
0.1058
 66
1
 10
0
 20
0
 30
0
  0
VERTEX
  8
LAYER_3
 10
79.7565
 20
-141.1742
  0
VERTEX
  8
LAYER_3
 10
83.6469
 20
-141.1742
  0
SEQEND
  0
POLYLINE
  8
LAYER_3
 40
0.1058
 41
0.1058
 66
1
 10
0
 20
0
 30
0
  0
VERTEX
  8
LAYER_3
 10
83.6469
 20
-141.1742
  0
VERTEX
  8
LAYER_3
 10
83.6469
 20
-138.579
  0
SEQEND
  0
POLYLINE
  8
LAYER_3
 40
0.1058
 41
0.1058
 66
1
 10
0
 20
0
 30
0
  0
VERTEX
  8
LAYER_3
 10
83.6469
 20
-138.579
  0
VERTEX
  8
LAYER_3
 10
79.7565
 20
-138.579
  0
SEQEND
  0
POLYLINE
  8
LAYER_3
 40
0.1058
 41
0.1058
 66
1
 10
0
 20
0
 30
0
  0
VERTEX
  8
LAYER_3
 10
80.2413
 20
-138.1393
  0
VERTEX
  8
LAYER_3
 10
83.1609
 20
-138.1393
  0
SEQEND
  0
POLYLINE
  8
LAYER_3
 40
0.1058
 41
0.1058
 66
1
 10
0
 20
0
 30
0
  0
VERTEX
  8
LAYER_3
 10
79.8605
 20
-138.7193
  0
VERTEX
  8
LAYER_3
 10
79.8605
 20
-139.1464
  0
SEQEND
  0
POLYLINE
  8
LAYER_3
 40
0.1058
 41
0.1058
 66
1
 10
0
 20
0
 30
0
  0
VERTEX
  8
LAYER_3
 10
79.8605
 20
-139.3105
  0
VERTEX
  8
LAYER_3
 10
79.8605
 20
-141.034
  0
SEQEND
  0
POLYLINE
  8
LAYER_3
 40
0.1058
 41
0.1058
 66
1
 10
0
 20
0
 30
0
  0
VERTEX
  8
LAYER_3
 10
81.5965
 20
-138.7193
  0
VERTEX
  8
LAYER_3
 10
81.5965
 20
-139.1464
  0
SEQEND
  0
POLYLINE
  8
LAYER_3
 40
0.1058
 41
0.1058
 66
1
 10
0
 20
0
 30
0
  0
VERTEX
  8
LAYER_3
 10
81.5965
 20
-139.3105
  0
VERTEX
  8
LAYER_3
 10
81.5965
 20
-141.034
  0
SEQEND
  0
POLYLINE
  8
LAYER_3
 40
0.1058
 41
0.1058
 66
1
 10
0
 20
0
 30
0
  0
VERTEX
  8
LAYER_3
 10
83.5404
 20
-138.7193
  0
VERTEX
  8
LAYER_3
 10
83.5404
 20
-139.1464
  0
SEQEND
  0
POLYLINE
  8
LAYER_3
 40
0.1058
 41
0.1058
 66
1
 10
0
 20
0
 30
0
  0
VERTEX
  8
LAYER_3
 10
83.5404
 20
-139.3105
  0
VERTEX
  8
LAYER_3
 10
83.5404
 20
-141.034
  0
SEQEND
  0
POLYLINE
  8
LAYER_3
 40
0.1058
 41
0.1058
 66
1
 10
0
 20
0
 30
0
  0
VERTEX
  8
LAYER_3
 10
81.8057
 20
-138.7193
  0
VERTEX
  8
LAYER_3
 10
81.8057
 20
-139.1464
  0
SEQEND
  0
POLYLINE
  8
LAYER_3
 40
0.1058
 41
0.1058
 66
1
 10
0
 20
0
 30
0
  0
VERTEX
  8
LAYER_3
 10
81.8057
 20
-139.3105
  0
VERTEX
  8
LAYER_3
 10
81.8057
 20
-141.034
  0
SEQEND
  0
POLYLINE
  8
LAYER_3
 40
0.1058
 41
0.1058
 66
1
 10
0
 20
0
 30
0
  0
VERTEX
  8
LAYER_3
 10
81.5965
 20
-138.7193
 42
0.159839108
  0
VERTEX
  8
LAYER_3
 10
79.8605
 20
-138.7193
  0
SEQEND
  0
POLYLINE
  8
LAYER_3
 40
0.1058
 41
0.1058
 66
1
 10
0
 20
0
 30
0
  0
VERTEX
  8
LAYER_3
 10
79.8605
 20
-138.7193
  0
VERTEX
  8
LAYER_3
 10
79.7565
 20
-138.7193
  0
SEQEND
  0
POLYLINE
  8
LAYER_3
 40
0.1058
 41
0.1058
 66
1
 10
0
 20
0
 30
0
  0
VERTEX
  8
LAYER_3
 10
81.5965
 20
-138.7193
  0
VERTEX
  8
LAYER_3
 10
81.8057
 20
-138.7193
  0
SEQEND
  0
POLYLINE
  8
LAYER_3
 40
0.1058
 41
0.1058
 66
1
 10
0
 20
0
 30
0
  0
VERTEX
  8
LAYER_3
 10
81.5965
 20
-141.034
  0
VERTEX
  8
LAYER_3
 10
81.8057
 20
-141.034
  0
SEQEND
  0
POLYLINE
  8
LAYER_3
 40
0.1058
 41
0.1058
 66
1
 10
0
 20
0
 30
0
  0
VERTEX
  8
LAYER_3
 10
79.7565
 20
-141.034
  0
VERTEX
  8
LAYER_3
 10
79.8605
 20
-141.034
  0
SEQEND
  0
POLYLINE
  8
LAYER_3
 40
0.1058
 41
0.1058
 66
1
 10
0
 20
0
 30
0
  0
VERTEX
  8
LAYER_3
 10
83.5404
 20
-138.7193
 42
0.1592415323
  0
VERTEX
  8
LAYER_3
 10
81.8057
 20
-138.7193
  0
SEQEND
  0
POLYLINE
  8
LAYER_3
 40
0.1058
 41
0.1058
 66
1
 10
0
 20
0
 30
0
  0
VERTEX
  8
LAYER_3
 10
83.5404
 20
-138.7193
  0
VERTEX
  8
LAYER_3
 10
83.6469
 20
-138.7193
  0
SEQEND
  0
POLYLINE
  8
LAYER_3
 40
0.1058
 41
0.1058
 66
1
 10
0
 20
0
 30
0
  0
VERTEX
  8
LAYER_3
 10
83.5404
 20
-141.034
  0
VERTEX
  8
LAYER_3
 10
83.6469
 20
-141.034
  0
SEQEND
  0
POLYLINE
  8
LAYER_3
 40
0.1058
 41
0.1058
 66
1
 10
0
 20
0
 30
0
  0
VERTEX
  8
LAYER_3
 10
79.8605
 20
-141.034
 42
0.1608909479
  0
VERTEX
  8
LAYER_3
 10
81.5965
 20
-141.034
  0
SEQEND
  0
POLYLINE
  8
LAYER_3
 40
0.1058
 41
0.1058
 66
1
 10
0
 20
0
 30
0
  0
VERTEX
  8
LAYER_3
 10
81.8057
 20
-141.034
 42
0.1596830902
  0
VERTEX
  8
LAYER_3
 10
83.5404
 20
-141.034
  0
SEQEND
  0
POLYLINE
  8
LAYER_3
 40
0.1058
 41
0.1058
 66
1
 10
0
 20
0
 30
0
  0
VERTEX
  8
LAYER_3
 10
81.5965
 20
-139.1464
  0
VERTEX
  8
LAYER_3
 10
81.4312
 20
-139.2266
  0
SEQEND
  0
POLYLINE
  8
LAYER_3
 40
0.1058
 41
0.1058
 66
1
 10
0
 20
0
 30
0
  0
VERTEX
  8
LAYER_3
 10
81.4312
 20
-139.2266
  0
VERTEX
  8
LAYER_3
 10
81.5965
 20
-139.3105
  0
SEQEND
  0
POLYLINE
  8
LAYER_3
 40
0.1058
 41
0.1058
 66
1
 10
0
 20
0
 30
0
  0
VERTEX
  8
LAYER_3
 10
81.5965
 20
-139.1464
  0
VERTEX
  8
LAYER_3
 10
81.8057
 20
-139.1464
  0
SEQEND
  0
POLYLINE
  8
LAYER_3
 40
0.1058
 41
0.1058
 66
1
 10
0
 20
0
 30
0
  0
VERTEX
  8
LAYER_3
 10
81.8057
 20
-139.1464
  0
VERTEX
  8
LAYER_3
 10
81.9736
 20
-139.2266
  0
SEQEND
  0
POLYLINE
  8
LAYER_3
 40
0.1058
 41
0.1058
 66
1
 10
0
 20
0
 30
0
  0
VERTEX
  8
LAYER_3
 10
81.9736
 20
-139.2266
  0
VERTEX
  8
LAYER_3
 10
81.8057
 20
-139.3105
  0
SEQEND
  0
POLYLINE
  8
LAYER_3
 40
0.1058
 41
0.1058
 66
1
 10
0
 20
0
 30
0
  0
VERTEX
  8
LAYER_3
 10
81.8057
 20
-139.3105
  0
VERTEX
  8
LAYER_3
 10
81.5965
 20
-139.3105
  0
SEQEND
  0
POLYLINE
  8
LAYER_3
 40
0.1058
 41
0.1058
 66
1
 10
0
 20
0
 30
0
  0
VERTEX
  8
LAYER_3
 10
81.4312
 20
-139.2266
  0
VERTEX
  8
LAYER_3
 10
81.9736
 20
-139.2266
  0
SEQEND
  0
POLYLINE
  8
LAYER_3
 40
0.1058
 41
0.1058
 66
1
 10
0
 20
0
 30
0
  0
VERTEX
  8
LAYER_3
 10
79.7565
 20
-139.1464
  0
VERTEX
  8
LAYER_3
 10
79.8605
 20
-139.1464
  0
SEQEND
  0
POLYLINE
  8
LAYER_3
 40
0.1058
 41
0.1058
 66
1
 10
0
 20
0
 30
0
  0
VERTEX
  8
LAYER_3
 10
79.7565
 20
-139.2266
  0
VERTEX
  8
LAYER_3
 10
80.0271
 20
-139.2266
  0
SEQEND
  0
POLYLINE
  8
LAYER_3
 40
0.1058
 41
0.1058
 66
1
 10
0
 20
0
 30
0
  0
VERTEX
  8
LAYER_3
 10
79.7565
 20
-139.3105
  0
VERTEX
  8
LAYER_3
 10
79.8605
 20
-139.3105
  0
SEQEND
  0
POLYLINE
  8
LAYER_3
 40
0.1058
 41
0.1058
 66
1
 10
0
 20
0
 30
0
  0
VERTEX
  8
LAYER_3
 10
79.8605
 20
-139.1464
  0
VERTEX
  8
LAYER_3
 10
80.0271
 20
-139.2266
  0
SEQEND
  0
POLYLINE
  8
LAYER_3
 40
0.1058
 41
0.1058
 66
1
 10
0
 20
0
 30
0
  0
VERTEX
  8
LAYER_3
 10
80.0271
 20
-139.2266
  0
VERTEX
  8
LAYER_3
 10
79.8605
 20
-139.3105
  0
SEQEND
  0
POLYLINE
  8
LAYER_3
 40
0.1058
 41
0.1058
 66
1
 10
0
 20
0
 30
0
  0
VERTEX
  8
LAYER_3
 10
83.6469
 20
-139.1464
  0
VERTEX
  8
LAYER_3
 10
83.5404
 20
-139.1464
  0
SEQEND
  0
POLYLINE
  8
LAYER_3
 40
0.1058
 41
0.1058
 66
1
 10
0
 20
0
 30
0
  0
VERTEX
  8
LAYER_3
 10
83.6469
 20
-139.2266
  0
VERTEX
  8
LAYER_3
 10
83.3776
 20
-139.2266
  0
SEQEND
  0
POLYLINE
  8
LAYER_3
 40
0.1058
 41
0.1058
 66
1
 10
0
 20
0
 30
0
  0
VERTEX
  8
LAYER_3
 10
83.6469
 20
-139.3105
  0
VERTEX
  8
LAYER_3
 10
83.5404
 20
-139.3105
  0
SEQEND
  0
POLYLINE
  8
LAYER_3
 40
0.1058
 41
0.1058
 66
1
 10
0
 20
0
 30
0
  0
VERTEX
  8
LAYER_3
 10
83.5404
 20
-139.1464
  0
VERTEX
  8
LAYER_3
 10
83.3776
 20
-139.2266
  0
SEQEND
  0
POLYLINE
  8
LAYER_3
 40
0.1058
 41
0.1058
 66
1
 10
0
 20
0
 30
0
  0
VERTEX
  8
LAYER_3
 10
83.3776
 20
-139.2266
  0
VERTEX
  8
LAYER_3
 10
83.5404
 20
-139.3105
  0
SEQEND
  0
POLYLINE
  8
LAYER_3
  6
AIGENLINE001
 40
0.1058
 41
0.1058
 66
1
 10
0
 20
0
 30
0
 70
128
  0
VERTEX
  8
LAYER_3
 10
156.9449
 20
-163.5995
  0
VERTEX
  8
LAYER_3
 10
156.9449
 20
-156.5904
  0
SEQEND
  0
POLYLINE
  8
LAYER_3
 40
0.1058
 41
0.1058
 66
1
 10
0
 20
0
 30
0
  0
VERTEX
  8
LAYER_3
 10
158.2588
 20
-161.008
  0
VERTEX
  8
LAYER_3
 10
158.2588
 20
-161.1696
  0
SEQEND
  0
POLYLINE
  8
LAYER_3
 40
0.1058
 41
0.1058
 66
1
 10
0
 20
0
 30
0
  0
VERTEX
  8
LAYER_3
 10
155.6321
 20
-161.008
  0
VERTEX
  8
LAYER_3
 10
155.6321
 20
-161.1696
  0
SEQEND
  0
POLYLINE
  8
LAYER_3
 40
0.1058
 41
0.1058
 66
1
 10
0
 20
0
 30
0
  0
VERTEX
  8
LAYER_3
 10
156.9449
 20
-161.008
  0
VERTEX
  8
LAYER_3
 10
155.6321
 20
-161.008
  0
SEQEND
  0
POLYLINE
  8
LAYER_3
 40
0.1058
 41
0.1058
 66
1
 10
0
 20
0
 30
0
  0
VERTEX
  8
LAYER_3
 10
156.9449
 20
-161.008
  0
VERTEX
  8
LAYER_3
 10
158.2425
 20
-161.008
  0
SEQEND
  0
POLYLINE
  8
LAYER_3
 40
0.1058
 41
0.1058
 66
1
 10
0
 20
0
 30
0
  0
VERTEX
  8
LAYER_3
 10
151.6718
 20
-156.7896
  0
VERTEX
  8
LAYER_3
 10
150.7799
 20
-156.7896
  0
SEQEND
  0
POLYLINE
  8
LAYER_3
 40
0.1058
 41
0.1058
 66
1
 10
0
 20
0
 30
0
  0
VERTEX
  8
LAYER_3
 10
151.6718
 20
-156.7896
 42
0.3944939179
  0
VERTEX
  8
LAYER_3
 10
151.9974
 20
-156.4664
  0
SEQEND
  0
POLYLINE
  8
LAYER_3
 40
0.1058
 41
0.1058
 66
1
 10
0
 20
0
 30
0
  0
VERTEX
  8
LAYER_3
 10
156.5391
 20
-156.7896
  0
VERTEX
  8
LAYER_3
 10
156.2147
 20
-156.7896
  0
SEQEND
  0
POLYLINE
  8
LAYER_3
 40
0.1058
 41
0.1058
 66
1
 10
0
 20
0
 30
0
  0
VERTEX
  8
LAYER_3
 10
158.4855
 20
-158.7372
 42
0.4142086743
  0
VERTEX
  8
LAYER_3
 10
156.5391
 20
-156.7896
  0
SEQEND
  0
POLYLINE
  8
LAYER_3
 40
0.1058
 41
0.1058
 66
1
 10
0
 20
0
 30
0
  0
VERTEX
  8
LAYER_3
 10
155.8915
 20
-156.4664
 42
0.4141917726
  0
VERTEX
  8
LAYER_3
 10
156.2147
 20
-156.7896
  0
SEQEND
  0
POLYLINE
  8
LAYER_3
 40
0.1058
 41
0.1058
 66
1
 10
0
 20
0
 30
0
  0
VERTEX
  8
LAYER_3
 10
150.7799
 20
-160.6836
  0
VERTEX
  8
LAYER_3
 10
155.0886
 20
-160.6836
  0
SEQEND
  0
POLYLINE
  8
LAYER_3
 40
0.1058
 41
0.1058
 66
1
 10
0
 20
0
 30
0
  0
VERTEX
  8
LAYER_3
 10
158.4855
 20
-158.7372
  0
VERTEX
  8
LAYER_3
 10
158.4855
 20
-160.9254
  0
SEQEND
  0
POLYLINE
  8
LAYER_3
 40
0.1058
 41
0.1058
 66
1
 10
0
 20
0
 30
0
  0
VERTEX
  8
LAYER_3
 10
150.7799
 20
-156.7896
  0
VERTEX
  8
LAYER_3
 10
150.701
 20
-156.8709
  0
SEQEND
  0
POLYLINE
  8
LAYER_3
 40
0.1058
 41
0.1058
 66
1
 10
0
 20
0
 30
0
  0
VERTEX
  8
LAYER_3
 10
158.4028
 20
-161.008
  0
VERTEX
  8
LAYER_3
 10
158.1923
 20
-161.008
  0
SEQEND
  0
POLYLINE
  8
LAYER_3
 40
0.1058
 41
0.1058
 66
1
 10
0
 20
0
 30
0
  0
VERTEX
  8
LAYER_3
 10
158.4028
 20
-161.008
  0
VERTEX
  8
LAYER_3
 10
158.4855
 20
-160.9254
  0
SEQEND
  0
POLYLINE
  8
LAYER_3
 40
0.1058
 41
0.1058
 66
1
 10
0
 20
0
 30
0
  0
VERTEX
  8
LAYER_3
 10
150.701
 20
-160.6009
  0
VERTEX
  8
LAYER_3
 10
150.7799
 20
-160.6836
  0
SEQEND
  0
POLYLINE
  8
LAYER_3
 40
0.1058
 41
0.1058
 66
1
 10
0
 20
0
 30
0
  0
VERTEX
  8
LAYER_3
 10
155.6973
 20
-161.008
  0
VERTEX
  8
LAYER_3
 10
155.4831
 20
-161.008
  0
SEQEND
  0
POLYLINE
  8
LAYER_3
 40
0.1058
 41
0.1058
 66
1
 10
0
 20
0
 30
0
  0
VERTEX
  8
LAYER_3
 10
155.4042
 20
-160.9254
  0
VERTEX
  8
LAYER_3
 10
155.4831
 20
-161.008
  0
SEQEND
  0
POLYLINE
  8
LAYER_3
 40
0.1058
 41
0.1058
 66
1
 10
0
 20
0
 30
0
  0
VERTEX
  8
LAYER_3
 10
150.701
 20
-160.6009
  0
VERTEX
  8
LAYER_3
 10
150.701
 20
-158.7372
  0
SEQEND
  0
POLYLINE
  8
LAYER_3
 40
0.1058
 41
0.1058
 66
1
 10
0
 20
0
 30
0
  0
VERTEX
  8
LAYER_3
 10
150.701
 20
-158.7372
  0
VERTEX
  8
LAYER_3
 10
150.701
 20
-156.8709
  0
SEQEND
  0
POLYLINE
  8
LAYER_3
 40
0.1058
 41
0.1058
 66
1
 10
0
 20
0
 30
0
  0
VERTEX
  8
LAYER_3
 10
155.6973
 20
-161.008
  0
VERTEX
  8
LAYER_3
 10
156.0129
 20
-161.008
  0
SEQEND
  0
POLYLINE
  8
LAYER_3
  6
AIGENLINE001
 40
0.1058
 41
0.1058
 66
1
 10
0
 20
0
 30
0
 70
128
  0
VERTEX
  8
LAYER_3
 10
156.9449
 20
-161.2159
  0
VERTEX
  8
LAYER_3
 10
156.9449
 20
-156.5904
  0
SEQEND
  0
POLYLINE
  8
LAYER_3
 40
0.1058
 41
0.1058
 66
1
 10
0
 20
0
 30
0
  0
VERTEX
  8
LAYER_3
 10
151.9974
 20
-154.8431
  0
VERTEX
  8
LAYER_3
 10
151.9974
 20
-156.4664
  0
SEQEND
  0
POLYLINE
  8
LAYER_3
 40
0.1058
 41
0.1058
 66
1
 10
0
 20
0
 30
0
  0
VERTEX
  8
LAYER_3
 10
155.8915
 20
-154.8431
  0
VERTEX
  8
LAYER_3
 10
155.8915
 20
-156.4664
  0
SEQEND
  0
POLYLINE
  8
LAYER_3
 40
0.1058
 41
0.1058
 66
1
 10
0
 20
0
 30
0
  0
VERTEX
  8
LAYER_3
 10
155.7299
 20
-154.6978
  0
VERTEX
  8
LAYER_3
 10
155.7299
 20
-154.7642
  0
SEQEND
  0
POLYLINE
  8
LAYER_3
 40
0.1058
 41
0.1058
 66
1
 10
0
 20
0
 30
0
  0
VERTEX
  8
LAYER_3
 10
153.9437
 20
-154.7642
  0
VERTEX
  8
LAYER_3
 10
155.8113
 20
-154.7642
  0
SEQEND
  0
POLYLINE
  8
LAYER_3
 40
0.1058
 41
0.1058
 66
1
 10
0
 20
0
 30
0
  0
VERTEX
  8
LAYER_3
 10
155.8915
 20
-154.8431
  0
VERTEX
  8
LAYER_3
 10
155.8113
 20
-154.7642
  0
SEQEND
  0
POLYLINE
  8
LAYER_3
 40
0.1058
 41
0.1058
 66
1
 10
0
 20
0
 30
0
  0
VERTEX
  8
LAYER_3
 10
152.1615
 20
-154.6978
  0
VERTEX
  8
LAYER_3
 10
152.1615
 20
-154.7642
  0
SEQEND
  0
POLYLINE
  8
LAYER_3
 40
0.1058
 41
0.1058
 66
1
 10
0
 20
0
 30
0
  0
VERTEX
  8
LAYER_3
 10
153.9437
 20
-154.7642
  0
VERTEX
  8
LAYER_3
 10
152.08
 20
-154.7642
  0
SEQEND
  0
POLYLINE
  8
LAYER_3
 40
0.1058
 41
0.1058
 66
1
 10
0
 20
0
 30
0
  0
VERTEX
  8
LAYER_3
 10
152.08
 20
-154.7642
  0
VERTEX
  8
LAYER_3
 10
151.9974
 20
-154.8431
  0
SEQEND
  0
POLYLINE
  8
LAYER_3
  6
AIGENLINE001
 40
0.1058
 41
0.1058
 66
1
 10
0
 20
0
 30
0
 70
128
  0
VERTEX
  8
LAYER_3
 10
158.8112
 20
-158.7372
  0
VERTEX
  8
LAYER_3
 10
150.0422
 20
-158.7372
  0
SEQEND
  0
POLYLINE
  8
LAYER_3
 40
0.1058
 41
0.1058
 66
1
 10
0
 20
0
 30
0
  0
VERTEX
  8
LAYER_3
 10
150.701
 20
-158.8825
  0
VERTEX
  8
LAYER_3
 10
150.2489
 20
-158.8825
  0
SEQEND
  0
POLYLINE
  8
LAYER_3
 40
0.1058
 41
0.1058
 66
1
 10
0
 20
0
 30
0
  0
VERTEX
  8
LAYER_3
 10
150.2489
 20
-158.8825
 42
0.06251730867
  0
VERTEX
  8
LAYER_3
 10
150.4654
 20
-160.3238
 42
0.005144172222
  0
VERTEX
  8
LAYER_3
 10
150.4968
 20
-160.4293
  0
SEQEND
  0
POLYLINE
  8
LAYER_3
 40
0.1058
 41
0.1058
 66
1
 10
0
 20
0
 30
0
  0
VERTEX
  8
LAYER_3
 10
150.4968
 20
-160.4293
  0
VERTEX
  8
LAYER_3
 10
150.701
 20
-160.4293
  0
SEQEND
  0
POLYLINE
  8
LAYER_3
 40
0.1058
 41
0.1058
 66
1
 10
0
 20
0
 30
0
  0
VERTEX
  8
LAYER_3
 10
150.701
 20
-158.5919
  0
VERTEX
  8
LAYER_3
 10
150.2489
 20
-158.5919
  0
SEQEND
  0
POLYLINE
  8
LAYER_3
 40
0.1058
 41
0.1058
 66
1
 10
0
 20
0
 30
0
  0
VERTEX
  8
LAYER_3
 10
150.4968
 20
-157.0425
 42
0.06798054172
  0
VERTEX
  8
LAYER_3
 10
150.2489
 20
-158.5919
  0
SEQEND
  0
POLYLINE
  8
LAYER_3
 40
0.1058
 41
0.1058
 66
1
 10
0
 20
0
 30
0
  0
VERTEX
  8
LAYER_3
 10
150.4968
 20
-157.0425
  0
VERTEX
  8
LAYER_3
 10
150.701
 20
-157.0425
  0
SEQEND
  0
POLYLINE
  8
LAYER_3
 40
0.1058
 41
0.1058
 66
1
 10
0
 20
0
 30
0
  0
VERTEX
  8
LAYER_3
 10
157.0976
 20
-154.6978
  0
VERTEX
  8
LAYER_3
 10
153.9437
 20
-154.6978
  0
SEQEND
  0
POLYLINE
  8
LAYER_3
 40
0.1058
 41
0.1058
 66
1
 10
0
 20
0
 30
0
  0
VERTEX
  8
LAYER_3
 10
153.9437
 20
-154.6978
  0
VERTEX
  8
LAYER_3
 10
150.7924
 20
-154.6978
  0
SEQEND
  0
POLYLINE
  8
LAYER_3
 40
0.1058
 41
0.1058
 66
1
 10
0
 20
0
 30
0
  0
VERTEX
  8
LAYER_3
 10
150.7398
 20
-154.6489
 42
0.3989665342
  0
VERTEX
  8
LAYER_3
 10
150.7924
 20
-154.6978
  0
SEQEND
  0
POLYLINE
  8
LAYER_3
 40
0.1058
 41
0.1058
 66
1
 10
0
 20
0
 30
0
  0
VERTEX
  8
LAYER_3
 10
150.9039
 20
-152.0888
  0
VERTEX
  8
LAYER_3
 10
153.9437
 20
-152.0888
  0
SEQEND
  0
POLYLINE
  8
LAYER_3
 40
0.1058
 41
0.1058
 66
1
 10
0
 20
0
 30
0
  0
VERTEX
  8
LAYER_3
 10
157.025
 20
-152.0888
  0
SEQEND
  0
POLYLINE
  8
LAYER_3
 40
0.1058
 41
0.1058
 66
1
 10
0
 20
0
 30
0
  0
VERTEX
  8
LAYER_3
 10
156.2534
 20
-151.5213
  0
VERTEX
  8
LAYER_3
 10
153.9437
 20
-151.5213
  0
SEQEND
  0
POLYLINE
  8
LAYER_3
 40
0.1058
 41
0.1058
 66
1
 10
0
 20
0
 30
0
  0
VERTEX
  8
LAYER_3
 10
153.9437
 20
-151.5213
  0
VERTEX
  8
LAYER_3
 10
151.6329
 20
-151.5213
  0
SEQEND
  0
POLYLINE
  8
LAYER_3
 40
0.1058
 41
0.1058
 66
1
 10
0
 20
0
 30
0
  0
VERTEX
  8
LAYER_3
 10
156.2534
 20
-151.5213
  0
VERTEX
  8
LAYER_3
 10
156.2534
 20
-152.0888
  0
SEQEND
  0
POLYLINE
  8
LAYER_3
 40
0.1058
 41
0.1058
 66
1
 10
0
 20
0
 30
0
  0
VERTEX
  8
LAYER_3
 10
151.6329
 20
-151.5213
  0
VERTEX
  8
LAYER_3
 10
151.6329
 20
-152.0888
  0
SEQEND
  0
POLYLINE
  8
LAYER_3
 40
0.1058
 41
0.1058
 66
1
 10
0
 20
0
 30
0
  0
VERTEX
  8
LAYER_3
 10
155.7299
 20
-136.9419
  0
SEQEND
  0
POLYLINE
  8
LAYER_3
 40
0.1058
 41
0.1058
 66
1
 10
0
 20
0
 30
0
  0
VERTEX
  8
LAYER_3
 10
155.2426
 20
-135.643
  0
VERTEX
  8
LAYER_3
 10
151.6279
 20
-135.643
  0
SEQEND
  0
POLYLINE
  8
LAYER_3
 40
0.1058
 41
0.1058
 66
1
 10
0
 20
0
 30
0
  0
VERTEX
  8
LAYER_3
 10
155.5658
 20
-135.97
 42
0.3899704551
  0
VERTEX
  8
LAYER_3
 10
155.2426
 20
-135.643
  0
SEQEND
  0
POLYLINE
  8
LAYER_3
 40
0.1058
 41
0.1058
 66
1
 10
0
 20
0
 30
0
  0
VERTEX
  8
LAYER_3
 10
151.5452
 20
-135.7258
  0
VERTEX
  8
LAYER_3
 10
151.5452
 20
-138.0279
  0
SEQEND
  0
POLYLINE
  8
LAYER_3
 40
0.1058
 41
0.1058
 66
1
 10
0
 20
0
 30
0
  0
VERTEX
  8
LAYER_3
 10
151.6279
 20
-135.643
 42
0.4143724921
  0
VERTEX
  8
LAYER_3
 10
151.5452
 20
-135.7258
  0
SEQEND
  0
POLYLINE
  8
LAYER_3
 40
0.1058
 41
0.1058
 66
1
 10
0
 20
0
 30
0
  0
VERTEX
  8
LAYER_3
 10
151.5953
 20
-138.0755
  0
VERTEX
  8
LAYER_3
 10
155.2426
 20
-138.0755
  0
SEQEND
  0
POLYLINE
  8
LAYER_3
 40
0.1058
 41
0.1058
 66
1
 10
0
 20
0
 30
0
  0
VERTEX
  8
LAYER_3
 10
155.2426
 20
-138.0755
 42
0.3933034739
  0
VERTEX
  8
LAYER_3
 10
155.5658
 20
-137.7511
  0
SEQEND
  0
POLYLINE
  8
LAYER_3
 40
0.1058
 41
0.1058
 66
1
 10
0
 20
0
 30
0
  0
VERTEX
  8
LAYER_3
 10
151.5452
 20
-138.0279
 42
0.3970314361
  0
VERTEX
  8
LAYER_3
 10
151.5953
 20
-138.0755
  0
SEQEND
  0
POLYLINE
  8
LAYER_3
 40
0.1058
 41
0.1058
 66
1
 10
0
 20
0
 30
0
  0
VERTEX
  8
LAYER_3
 10
155.4042
 20
-138.579
  0
VERTEX
  8
LAYER_3
 10
155.4042
 20
-138.1393
  0
SEQEND
  0
POLYLINE
  8
LAYER_3
 40
0.1058
 41
0.1058
 66
1
 10
0
 20
0
 30
0
  0
VERTEX
  8
LAYER_3
 10
155.3404
 20
-138.0755
  0
VERTEX
  8
LAYER_3
 10
155.4042
 20
-138.1393
  0
SEQEND
  0
POLYLINE
  8
LAYER_3
 40
0.1058
 41
0.1058
 66
1
 10
0
 20
0
 30
0
  0
VERTEX
  8
LAYER_3
 10
152.4845
 20
-138.1393
  0
VERTEX
  8
LAYER_3
 10
152.5485
 20
-138.0755
  0
SEQEND
  0
POLYLINE
  8
LAYER_3
 40
0.1058
 41
0.1058
 66
1
 10
0
 20
0
 30
0
  0
VERTEX
  8
LAYER_3
 10
152.4845
 20
-138.1393
  0
VERTEX
  8
LAYER_3
 10
152.4845
 20
-138.579
  0
SEQEND
  0
POLYLINE
  8
LAYER_3
 40
0.1058
 41
0.1058
 66
1
 10
0
 20
0
 30
0
  0
VERTEX
  8
LAYER_3
 10
155.8915
 20
-141.1742
  0
VERTEX
  8
LAYER_3
 10
153.9437
 20
-141.1742
  0
SEQEND
  0
POLYLINE
  8
LAYER_3
 40
0.1058
 41
0.1058
 66
1
 10
0
 20
0
 30
0
  0
VERTEX
  8
LAYER_3
 10
153.9437
 20
-141.1742
  0
VERTEX
  8
LAYER_3
 10
151.9974
 20
-141.1742
  0
SEQEND
  0
POLYLINE
  8
LAYER_3
 40
0.1058
 41
0.1058
 66
1
 10
0
 20
0
 30
0
  0
VERTEX
  8
LAYER_3
 10
151.9974
 20
-138.579
  0
VERTEX
  8
LAYER_3
 10
153.9437
 20
-138.579
  0
SEQEND
  0
POLYLINE
  8
LAYER_3
 40
0.1058
 41
0.1058
 66
1
 10
0
 20
0
 30
0
  0
VERTEX
  8
LAYER_3
 10
153.9437
 20
-138.579
  0
VERTEX
  8
LAYER_3
 10
155.8915
 20
-138.579
  0
SEQEND
  0
POLYLINE
  8
LAYER_3
 40
0.1058
 41
0.1058
 66
1
 10
0
 20
0
 30
0
  0
VERTEX
  8
LAYER_3
 10
156.1345
 20
-138.7193
  0
VERTEX
  8
LAYER_3
 10
156.1345
 20
-141.034
  0
SEQEND
  0
POLYLINE
  8
LAYER_3
 40
0.1058
 41
0.1058
 66
1
 10
0
 20
0
 30
0
  0
VERTEX
  8
LAYER_3
 10
151.7556
 20
-138.7193
  0
VERTEX
  8
LAYER_3
 10
151.7556
 20
-141.034
  0
SEQEND
  0
POLYLINE
  8
LAYER_3
 40
0.1058
 41
0.1058
 66
1
 10
0
 20
0
 30
0
  0
VERTEX
  8
LAYER_3
 10
155.8915
 20
-138.579
  0
VERTEX
  8
LAYER_3
 10
156.1345
 20
-138.7193
  0
SEQEND
  0
POLYLINE
  8
LAYER_3
 40
0.1058
 41
0.1058
 66
1
 10
0
 20
0
 30
0
  0
VERTEX
  8
LAYER_3
 10
158.3013
 20
-162.223
 42
-0.1390770834
  0
VERTEX
  8
LAYER_3
 10
158.4643
 20
-161.6077
 42
-0.2243935109
  0
VERTEX
  8
LAYER_3
 10
158.7159
 20
-161.4477
 42
-0.1542883368
  0
VERTEX
  8
LAYER_3
 10
158.8623
 20
-161.4982
 42
-0.1007899563
  0
VERTEX
  8
LAYER_3
 10
158.9901
 20
-161.6433
 42
-0.1374509528
  0
VERTEX
  8
LAYER_3
 10
159.1304
 20
-162.203
 42
-0.003507543566
  0
VERTEX
  8
LAYER_3
 10
159.1305
 20
-162.223
  0
SEQEND
  0
POLYLINE
  8
LAYER_3
 40
0.1058
 41
0.1058
 66
1
 10
0
 20
0
 30
0
  0
VERTEX
  8
LAYER_3
 10
159.1305
 20
-162.8517
  0
VERTEX
  8
LAYER_3
 10
159.1305
 20
-162.223
  0
SEQEND
  0
POLYLINE
  8
LAYER_3
 40
0.1058
 41
0.1058
 66
1
 10
0
 20
0
 30
0
  0
VERTEX
  8
LAYER_3
 10
151.9974
 20
-138.579
  0
VERTEX
  8
LAYER_3
 10
151.7556
 20
-138.7193
  0
SEQEND
  0
POLYLINE
  8
LAYER_3
 40
0.1058
 41
0.1058
 66
1
 10
0
 20
0
 30
0
  0
VERTEX
  8
LAYER_3
 10
151.9974
 20
-141.1742
  0
VERTEX
  8
LAYER_3
 10
151.7556
 20
-141.034
  0
SEQEND
  0
POLYLINE
  8
LAYER_3
 40
0.1058
 41
0.1058
 66
1
 10
0
 20
0
 30
0
  0
VERTEX
  8
LAYER_3
 10
156.9599
 20
-161.4477
 42
-0.3176494037
  0
VERTEX
  8
LAYER_3
 10
157.7605
 20
-162.0296
 42
-0.06698814125
  0
VERTEX
  8
LAYER_3
 10
157.7865
 20
-162.223
  0
SEQEND
  0
POLYLINE
  8
LAYER_3
 40
0.1058
 41
0.1058
 66
1
 10
0
 20
0
 30
0
  0
VERTEX
  8
LAYER_3
 10
155.8915
 20
-141.1742
  0
VERTEX
  8
LAYER_3
 10
156.1345
 20
-141.034
  0
SEQEND
  0
POLYLINE
  8
LAYER_3
 40
0.1058
 41
0.1058
 66
1
 10
0
 20
0
 30
0
  0
VERTEX
  8
LAYER_3
 10
156.9599
 20
-163.2788
  0
VERTEX
  8
LAYER_3
 10
158.8136
 20
-163.2788
  0
SEQEND
  0
POLYLINE
  8
LAYER_3
 40
0.1058
 41
0.1058
 66
1
 10
0
 20
0
 30
0
  0
VERTEX
  8
LAYER_3
 10
158.8136
 20
-163.2788
 42
0.3957627185
  0
VERTEX
  8
LAYER_3
 10
159.1355
 20
-162.9519
  0
SEQEND
  0
POLYLINE
  8
LAYER_3
 40
0.1058
 41
0.1058
 66
1
 10
0
 20
0
 30
0
  0
VERTEX
  8
LAYER_3
 10
159.1355
 20
-162.223
  0
VERTEX
  8
LAYER_3
 10
159.1355
 20
-162.9519
  0
SEQEND
  0
POLYLINE
  8
LAYER_3
 40
0.1058
 41
0.1058
 66
1
 10
0
 20
0
 30
0
  0
VERTEX
  8
LAYER_3
 10
159.1355
 20
-162.223
 42
0.1311811525
  0
VERTEX
  8
LAYER_3
 10
158.8525
 20
-161.1696
  0
SEQEND
  0
POLYLINE
  8
LAYER_3
 40
0.1058
 41
0.1058
 66
1
 10
0
 20
0
 30
0
  0
VERTEX
  8
LAYER_3
 10
155.6184
 20
-162.223
  0
VERTEX
  8
LAYER_3
 10
155.6184
 20
-162.8517
  0
SEQEND
  0
POLYLINE
  8
LAYER_3
 40
0.1058
 41
0.1058
 66
1
 10
0
 20
0
 30
0
  0
VERTEX
  8
LAYER_3
 10
158.3013
 20
-162.223
  0
VERTEX
  8
LAYER_3
 10
158.3013
 20
-162.8517
  0
SEQEND
  0
POLYLINE
  8
LAYER_3
 40
0.1058
 41
0.1058
 66
1
 10
0
 20
0
 30
0
  0
VERTEX
  8
LAYER_3
 10
155.4568
 20
-163.0171
  0
VERTEX
  8
LAYER_3
 10
154.9521
 20
-163.0171
  0
SEQEND
  0
POLYLINE
  8
LAYER_3
 40
0.1058
 41
0.1058
 66
1
 10
0
 20
0
 30
0
  0
VERTEX
  8
LAYER_3
 10
158.4654
 20
-163.0171
  0
VERTEX
  8
LAYER_3
 10
158.9702
 20
-163.0171
  0
SEQEND
  0
POLYLINE
  8
LAYER_3
 40
0.1058
 41
0.1058
 66
1
 10
0
 20
0
 30
0
  0
VERTEX
  8
LAYER_3
 10
154.7931
 20
-162.8517
  0
VERTEX
  8
LAYER_3
 10
154.7931
 20
-162.223
  0
SEQEND
  0
POLYLINE
  8
LAYER_3
 40
0.1058
 41
0.1058
 66
1
 10
0
 20
0
 30
0
  0
VERTEX
  8
LAYER_3
 10
156.9599
 20
-161.4477
 42
0.317586155
  0
VERTEX
  8
LAYER_3
 10
156.1606
 20
-162.0296
 42
0.06716071575
  0
VERTEX
  8
LAYER_3
 10
156.1345
 20
-162.223
  0
SEQEND
  0
POLYLINE
  8
LAYER_3
 40
0.1058
 41
0.1058
 66
1
 10
0
 20
0
 30
0
  0
VERTEX
  8
LAYER_3
 10
157.7865
 20
-162.223
  0
VERTEX
  8
LAYER_3
 10
157.7865
 20
-162.8517
  0
SEQEND
  0
POLYLINE
  8
LAYER_3
 40
0.1058
 41
0.1058
 66
1
 10
0
 20
0
 30
0
  0
VERTEX
  8
LAYER_3
 10
156.1345
 20
-162.223
  0
VERTEX
  8
LAYER_3
 10
156.1345
 20
-162.8517
  0
SEQEND
  0
POLYLINE
  8
LAYER_3
 40
0.1058
 41
0.1058
 66
1
 10
0
 20
0
 30
0
  0
VERTEX
  8
LAYER_3
 10
157.625
 20
-163.0171
  0
VERTEX
  8
LAYER_3
 10
156.9599
 20
-163.0171
  0
SEQEND
  0
POLYLINE
  8
LAYER_3
 40
0.1058
 41
0.1058
 66
1
 10
0
 20
0
 30
0
  0
VERTEX
  8
LAYER_3
 10
158.9702
 20
-163.0171
 42
0.3924833185
  0
VERTEX
  8
LAYER_3
 10
159.1305
 20
-162.8517
  0
SEQEND
  0
POLYLINE
  8
LAYER_3
 40
0.1058
 41
0.1058
 66
1
 10
0
 20
0
 30
0
  0
VERTEX
  8
LAYER_3
 10
158.3013
 20
-162.8517
 42
0.3917902301
  0
VERTEX
  8
LAYER_3
 10
158.4654
 20
-163.0171
  0
SEQEND
  0
POLYLINE
  8
LAYER_3
 40
0.1058
 41
0.1058
 66
1
 10
0
 20
0
 30
0
  0
VERTEX
  8
LAYER_3
 10
157.625
 20
-163.0171
 42
0.3973901684
  0
VERTEX
  8
LAYER_3
 10
157.7865
 20
-162.8517
  0
SEQEND
  0
POLYLINE
  8
LAYER_3
 40
0.1058
 41
0.1058
 66
1
 10
0
 20
0
 30
0
  0
VERTEX
  8
LAYER_3
 10
155.066
 20
-161.1696
  0
VERTEX
  8
LAYER_3
 10
156.9449
 20
-161.1696
  0
SEQEND
  0
POLYLINE
  8
LAYER_3
 40
0.1058
 41
0.1058
 66
1
 10
0
 20
0
 30
0
  0
VERTEX
  8
LAYER_3
 10
156.9599
 20
-163.2788
  0
VERTEX
  8
LAYER_3
 10
155.1086
 20
-163.2788
  0
SEQEND
  0
POLYLINE
  8
LAYER_3
 40
0.1058
 41
0.1058
 66
1
 10
0
 20
0
 30
0
  0
VERTEX
  8
LAYER_3
 10
154.7855
 20
-162.9519
 42
0.3908049955
  0
VERTEX
  8
LAYER_3
 10
155.1086
 20
-163.2788
  0
SEQEND
  0
POLYLINE
  8
LAYER_3
 40
0.1058
 41
0.1058
 66
1
 10
0
 20
0
 30
0
  0
VERTEX
  8
LAYER_3
 10
154.7855
 20
-162.223
  0
VERTEX
  8
LAYER_3
 10
154.7855
 20
-162.9519
  0
SEQEND
  0
POLYLINE
  8
LAYER_3
 40
0.1058
 41
0.1058
 66
1
 10
0
 20
0
 30
0
  0
VERTEX
  8
LAYER_3
 10
155.066
 20
-161.1696
 42
0.1294769424
  0
VERTEX
  8
LAYER_3
 10
154.7855
 20
-162.223
  0
SEQEND
  0
POLYLINE
  8
LAYER_3
 40
0.1058
 41
0.1058
 66
1
 10
0
 20
0
 30
0
  0
VERTEX
  8
LAYER_3
 10
155.6184
 20
-162.223
 42
0.1382911087
  0
VERTEX
  8
LAYER_3
 10
155.4568
 20
-161.6077
 42
0.2256173821
  0
VERTEX
  8
LAYER_3
 10
155.205
 20
-161.4477
 42
0.1548135609
  0
VERTEX
  8
LAYER_3
 10
155.0575
 20
-161.4982
 42
0.09927830741
  0
VERTEX
  8
LAYER_3
 10
154.9343
 20
-161.6371
 42
0.07244884784
  0
VERTEX
  8
LAYER_3
 10
154.8354
 20
-161.8789
 42
0.06368625323
  0
VERTEX
  8
LAYER_3
 10
154.7931
 20
-162.223
  0
SEQEND
  0
POLYLINE
  8
LAYER_3
 40
0.1058
 41
0.1058
 66
1
 10
0
 20
0
 30
0
  0
VERTEX
  8
LAYER_3
 10
155.4568
 20
-163.0171
 42
0.3904201989
  0
VERTEX
  8
LAYER_3
 10
155.6184
 20
-162.8517
  0
SEQEND
  0
POLYLINE
  8
LAYER_3
 40
0.1058
 41
0.1058
 66
1
 10
0
 20
0
 30
0
  0
VERTEX
  8
LAYER_3
 10
154.7931
 20
-162.8517
 42
0.3869445377
  0
VERTEX
  8
LAYER_3
 10
154.9521
 20
-163.0171
  0
SEQEND
  0
POLYLINE
  8
LAYER_3
 40
0.1058
 41
0.1058
 66
1
 10
0
 20
0
 30
0
  0
VERTEX
  8
LAYER_3
 10
156.2949
 20
-163.0171
  0
VERTEX
  8
LAYER_3
 10
156.9599
 20
-163.0171
  0
SEQEND
  0
POLYLINE
  8
LAYER_3
 40
0.1058
 41
0.1058
 66
1
 10
0
 20
0
 30
0
  0
VERTEX
  8
LAYER_3
 10
156.1345
 20
-162.8517
 42
0.3888523288
  0
VERTEX
  8
LAYER_3
 10
156.2949
 20
-163.0171
  0
SEQEND
  0
POLYLINE
  8
LAYER_3
 40
0.1058
 41
0.1058
 66
1
 10
0
 20
0
 30
0
  0
VERTEX
  8
LAYER_3
 10
158.8525
 20
-161.1696
  0
VERTEX
  8
LAYER_3
 10
156.9449
 20
-161.1696
  0
SEQEND
  0
POLYLINE
  8
LAYER_3
 40
0.1058
 41
0.1058
 66
1
 10
0
 20
0
 30
0
  0
VERTEX
  8
LAYER_3
 10
158.4855
 20
-160.9254
  0
VERTEX
  8
LAYER_3
 10
156.9449
 20
-160.9254
  0
SEQEND
  0
POLYLINE
  8
LAYER_3
 40
0.1058
 41
0.1058
 66
1
 10
0
 20
0
 30
0
  0
VERTEX
  8
LAYER_3
 10
155.4042
 20
-160.9254
  0
VERTEX
  8
LAYER_3
 10
156.9449
 20
-160.9254
  0
SEQEND
  0
POLYLINE
  8
LAYER_3
 40
0.1058
 41
0.1058
 66
1
 10
0
 20
0
 30
0
  0
VERTEX
  8
LAYER_3
 10
155.4042
 20
-160.9254
 42
0.3326623634
  0
VERTEX
  8
LAYER_3
 10
155.0886
 20
-160.6836
  0
SEQEND
  0
POLYLINE
  8
LAYER_3
 40
0.1058
 41
0.1058
 66
1
 10
0
 20
0
 30
0
  0
VERTEX
  8
LAYER_3
 10
150.7799
 20
-156.7896
  0
VERTEX
  8
LAYER_3
 10
150.7799
 20
-158.7372
  0
SEQEND
  0
POLYLINE
  8
LAYER_3
 40
0.1058
 41
0.1058
 66
1
 10
0
 20
0
 30
0
  0
VERTEX
  8
LAYER_3
 10
150.7799
 20
-158.7372
  0
VERTEX
  8
LAYER_3
 10
150.7799
 20
-160.6836
  0
SEQEND
  0
POLYLINE
  8
LAYER_3
 40
0.1058
 41
0.1058
 66
1
 10
0
 20
0
 30
0
  0
VERTEX
  8
LAYER_3
 10
157.1465
 20
-152.2065
  0
VERTEX
  8
LAYER_3
 10
157.1465
 20
-154.6489
  0
SEQEND
  0
POLYLINE
  8
LAYER_3
 40
0.1058
 41
0.1058
 66
1
 10
0
 20
0
 30
0
  0
VERTEX
  8
LAYER_3
 10
157.1465
 20
-152.2065
 42
0.3964204322
  0
VERTEX
  8
LAYER_3
 10
157.025
 20
-152.0888
  0
SEQEND
  0
POLYLINE
  8
LAYER_3
 40
0.1058
 41
0.1058
 66
1
 10
0
 20
0
 30
0
  0
VERTEX
  8
LAYER_3
 10
157.0976
 20
-154.6978
 42
0.4010473042
  0
VERTEX
  8
LAYER_3
 10
157.1465
 20
-154.6489
  0
SEQEND
  0
POLYLINE
  8
LAYER_3
 40
0.1058
 41
0.1058
 66
1
 10
0
 20
0
 30
0
  0
VERTEX
  8
LAYER_3
 10
150.7398
 20
-152.2517
  0
VERTEX
  8
LAYER_3
 10
150.7398
 20
-154.6489
  0
SEQEND
  0
POLYLINE
  8
LAYER_3
 40
0.1058
 41
0.1058
 66
1
 10
0
 20
0
 30
0
  0
VERTEX
  8
LAYER_3
 10
150.9039
 20
-152.0888
 42
0.3938276886
  0
VERTEX
  8
LAYER_3
 10
150.7398
 20
-152.2517
  0
SEQEND
  0
POLYLINE
  8
LAYER_3
 40
0.1058
 41
0.1058
 66
1
 10
0
 20
0
 30
0
  0
VERTEX
  8
LAYER_3
 10
151.9974
 20
-154.8431
  0
VERTEX
  8
LAYER_3
 10
153.9437
 20
-154.8431
  0
SEQEND
  0
POLYLINE
  8
LAYER_3
 40
0.1058
 41
0.1058
 66
1
 10
0
 20
0
 30
0
  0
VERTEX
  8
LAYER_3
 10
153.9437
 20
-154.8431
  0
VERTEX
  8
LAYER_3
 10
155.8915
 20
-154.8431
  0
SEQEND
  0
POLYLINE
  8
LAYER_3
 40
0.1058
 41
0.1058
 66
1
 10
0
 20
0
 30
0
  0
VERTEX
  8
LAYER_3
 10
157.025
 20
-152.0888
  0
VERTEX
  8
LAYER_3
 10
153.9437
 20
-152.0888
  0
SEQEND
  0
POLYLINE
  8
LAYER_3
 40
0.1058
 41
0.1058
 66
1
 10
0
 20
0
 30
0
  0
VERTEX
  8
LAYER_3
 10
152.4845
 20
-138.1393
  0
VERTEX
  8
LAYER_3
 10
153.9437
 20
-138.1393
  0
SEQEND
  0
POLYLINE
  8
LAYER_3
 40
0.1058
 41
0.1058
 66
1
 10
0
 20
0
 30
0
  0
VERTEX
  8
LAYER_3
 10
153.9437
 20
-138.1393
  0
VERTEX
  8
LAYER_3
 10
155.4042
 20
-138.1393
  0
SEQEND
  0
POLYLINE
  8
LAYER_3
 40
0.1058
 41
0.1058
 66
1
 10
0
 20
0
 30
0
  0
VERTEX
  8
LAYER_3
 10
155.7299
 20
-136.6488
  0
VERTEX
  8
LAYER_3
 10
155.7299
 20
-137.2351
  0
SEQEND
  0
POLYLINE
  8
LAYER_3
 40
0.1058
 41
0.1058
 66
1
 10
0
 20
0
 30
0
  0
VERTEX
  8
LAYER_3
 10
155.7299
 20
-136.6488
 42
0.3514906203
  0
VERTEX
  8
LAYER_3
 10
155.5658
 20
-136.4572
  0
SEQEND
  0
POLYLINE
  8
LAYER_3
 40
0.1058
 41
0.1058
 66
1
 10
0
 20
0
 30
0
  0
VERTEX
  8
LAYER_3
 10
155.5658
 20
-137.4242
 42
0.3523738425
  0
VERTEX
  8
LAYER_3
 10
155.7299
 20
-137.2351
  0
SEQEND
  0
POLYLINE
  8
LAYER_3
 40
0.1058
 41
0.1058
 66
1
 10
0
 20
0
 30
0
  0
VERTEX
  8
LAYER_3
 10
156.3449
 20
-137.914
  0
VERTEX
  8
LAYER_3
 10
155.522
 20
-137.914
  0
SEQEND
  0
POLYLINE
  8
LAYER_3
 40
0.1058
 41
0.1058
 66
1
 10
0
 20
0
 30
0
  0
VERTEX
  8
LAYER_3
 10
156.3449
 20
-135.97
  0
VERTEX
  8
LAYER_3
 10
156.3449
 20
-137.914
  0
SEQEND
  0
POLYLINE
  8
LAYER_3
 40
0.1058
 41
0.1058
 66
1
 10
0
 20
0
 30
0
  0
VERTEX
  8
LAYER_3
 10
156.3449
 20
-135.97
  0
VERTEX
  8
LAYER_3
 10
155.5658
 20
-135.97
  0
SEQEND
  0
POLYLINE
  8
LAYER_3
 40
0.1058
 41
0.1058
 66
1
 10
0
 20
0
 30
0
  0
VERTEX
  8
LAYER_3
 10
152.7602
 20
-138.7193
  0
VERTEX
  8
LAYER_3
 10
152.7602
 20
-139.1464
  0
SEQEND
  0
POLYLINE
  8
LAYER_3
 40
0.1058
 41
0.1058
 66
1
 10
0
 20
0
 30
0
  0
VERTEX
  8
LAYER_3
 10
152.7602
 20
-139.3105
  0
VERTEX
  8
LAYER_3
 10
152.7602
 20
-141.034
  0
SEQEND
  0
POLYLINE
  8
LAYER_3
 40
0.1058
 41
0.1058
 66
1
 10
0
 20
0
 30
0
  0
VERTEX
  8
LAYER_3
 10
152.9392
 20
-138.7193
  0
VERTEX
  8
LAYER_3
 10
152.9392
 20
-139.1464
  0
SEQEND
  0
POLYLINE
  8
LAYER_3
 40
0.1058
 41
0.1058
 66
1
 10
0
 20
0
 30
0
  0
VERTEX
  8
LAYER_3
 10
152.9392
 20
-139.3105
  0
VERTEX
  8
LAYER_3
 10
152.9392
 20
-141.034
  0
SEQEND
  0
POLYLINE
  8
LAYER_3
 40
0.1058
 41
0.1058
 66
1
 10
0
 20
0
 30
0
  0
VERTEX
  8
LAYER_3
 10
154.9458
 20
-138.7193
  0
VERTEX
  8
LAYER_3
 10
154.9458
 20
-139.1464
  0
SEQEND
  0
POLYLINE
  8
LAYER_3
 40
0.1058
 41
0.1058
 66
1
 10
0
 20
0
 30
0
  0
VERTEX
  8
LAYER_3
 10
154.9458
 20
-139.3105
  0
VERTEX
  8
LAYER_3
 10
154.9458
 20
-141.034
  0
SEQEND
  0
POLYLINE
  8
LAYER_3
 40
0.1058
 41
0.1058
 66
1
 10
0
 20
0
 30
0
  0
VERTEX
  8
LAYER_3
 10
155.1287
 20
-138.7193
  0
VERTEX
  8
LAYER_3
 10
155.1287
 20
-139.1464
  0
SEQEND
  0
POLYLINE
  8
LAYER_3
 40
0.1058
 41
0.1058
 66
1
 10
0
 20
0
 30
0
  0
VERTEX
  8
LAYER_3
 10
155.1287
 20
-139.3105
  0
VERTEX
  8
LAYER_3
 10
155.1287
 20
-141.034
  0
SEQEND
  0
POLYLINE
  8
LAYER_3
 40
0.1058
 41
0.1058
 66
1
 10
0
 20
0
 30
0
  0
VERTEX
  8
LAYER_3
 10
154.9458
 20
-138.7193
 42
0.1380328803
  0
VERTEX
  8
LAYER_3
 10
152.9392
 20
-138.7193
  0
SEQEND
  0
POLYLINE
  8
LAYER_3
 40
0.1058
 41
0.1058
 66
1
 10
0
 20
0
 30
0
  0
VERTEX
  8
LAYER_3
 10
152.9392
 20
-141.034
 42
0.1383429845
  0
VERTEX
  8
LAYER_3
 10
154.9458
 20
-141.034
  0
SEQEND
  0
POLYLINE
  8
LAYER_3
 40
0.1058
 41
0.1058
 66
1
 10
0
 20
0
 30
0
  0
VERTEX
  8
LAYER_3
 10
154.9458
 20
-138.7193
  0
VERTEX
  8
LAYER_3
 10
155.1287
 20
-138.7193
  0
SEQEND
  0
POLYLINE
  8
LAYER_3
 40
0.1058
 41
0.1058
 66
1
 10
0
 20
0
 30
0
  0
VERTEX
  8
LAYER_3
 10
154.9458
 20
-141.034
  0
VERTEX
  8
LAYER_3
 10
155.1287
 20
-141.034
  0
SEQEND
  0
POLYLINE
  8
LAYER_3
 40
0.1058
 41
0.1058
 66
1
 10
0
 20
0
 30
0
  0
VERTEX
  8
LAYER_3
 10
152.9392
 20
-138.7193
  0
VERTEX
  8
LAYER_3
 10
152.7602
 20
-138.7193
  0
SEQEND
  0
POLYLINE
  8
LAYER_3
 40
0.1058
 41
0.1058
 66
1
 10
0
 20
0
 30
0
  0
VERTEX
  8
LAYER_3
 10
152.9392
 20
-141.034
  0
VERTEX
  8
LAYER_3
 10
152.7602
 20
-141.034
  0
SEQEND
  0
POLYLINE
  8
LAYER_3
 40
0.1058
 41
0.1058
 66
1
 10
0
 20
0
 30
0
  0
VERTEX
  8
LAYER_3
 10
152.7602
 20
-138.7193
 42
0.2704432161
  0
VERTEX
  8
LAYER_3
 10
151.7556
 20
-138.7193
  0
SEQEND
  0
POLYLINE
  8
LAYER_3
 40
0.1058
 41
0.1058
 66
1
 10
0
 20
0
 30
0
  0
VERTEX
  8
LAYER_3
 10
156.1345
 20
-138.7193
 42
0.277562791
  0
VERTEX
  8
LAYER_3
 10
155.1287
 20
-138.7193
  0
SEQEND
  0
POLYLINE
  8
LAYER_3
 40
0.1058
 41
0.1058
 66
1
 10
0
 20
0
 30
0
  0
VERTEX
  8
LAYER_3
 10
151.7556
 20
-141.034
 42
0.2715501739
  0
VERTEX
  8
LAYER_3
 10
152.7602
 20
-141.034
  0
SEQEND
  0
POLYLINE
  8
LAYER_3
 40
0.1058
 41
0.1058
 66
1
 10
0
 20
0
 30
0
  0
VERTEX
  8
LAYER_3
 10
155.1287
 20
-141.034
 42
0.2792131248
  0
VERTEX
  8
LAYER_3
 10
156.1345
 20
-141.034
  0
SEQEND
  0
POLYLINE
  8
LAYER_3
 40
0.1058
 41
0.1058
 66
1
 10
0
 20
0
 30
0
  0
VERTEX
  8
LAYER_3
 10
155.5658
 20
-135.97
  0
VERTEX
  8
LAYER_3
 10
155.5658
 20
-137.7511
  0
SEQEND
  0
POLYLINE
  8
LAYER_3
 40
0.1058
 41
0.1058
 66
1
 10
0
 20
0
 30
0
  0
VERTEX
  8
LAYER_3
 10
153.1647
 20
-135.7733
  0
VERTEX
  8
LAYER_3
 10
153.1647
 20
-137.9477
  0
SEQEND
  0
POLYLINE
  8
LAYER_3
 40
0.1058
 41
0.1058
 66
1
 10
0
 20
0
 30
0
  0
VERTEX
  8
LAYER_3
 10
152.7602
 20
-139.1464
  0
VERTEX
  8
LAYER_3
 10
152.5936
 20
-139.2266
  0
SEQEND
  0
POLYLINE
  8
LAYER_3
 40
0.1058
 41
0.1058
 66
1
 10
0
 20
0
 30
0
  0
VERTEX
  8
LAYER_3
 10
152.5936
 20
-139.2266
  0
VERTEX
  8
LAYER_3
 10
152.7602
 20
-139.3105
  0
SEQEND
  0
POLYLINE
  8
LAYER_3
 40
0.1058
 41
0.1058
 66
1
 10
0
 20
0
 30
0
  0
VERTEX
  8
LAYER_3
 10
152.7602
 20
-139.1464
  0
VERTEX
  8
LAYER_3
 10
152.9392
 20
-139.1464
  0
SEQEND
  0
POLYLINE
  8
LAYER_3
 40
0.1058
 41
0.1058
 66
1
 10
0
 20
0
 30
0
  0
VERTEX
  8
LAYER_3
 10
152.9392
 20
-139.1464
  0
VERTEX
  8
LAYER_3
 10
153.1084
 20
-139.2266
  0
SEQEND
  0
POLYLINE
  8
LAYER_3
 40
0.1058
 41
0.1058
 66
1
 10
0
 20
0
 30
0
  0
VERTEX
  8
LAYER_3
 10
153.1084
 20
-139.2266
  0
VERTEX
  8
LAYER_3
 10
152.9392
 20
-139.3105
  0
SEQEND
  0
POLYLINE
  8
LAYER_3
 40
0.1058
 41
0.1058
 66
1
 10
0
 20
0
 30
0
  0
VERTEX
  8
LAYER_3
 10
152.9392
 20
-139.3105
  0
VERTEX
  8
LAYER_3
 10
152.7602
 20
-139.3105
  0
SEQEND
  0
POLYLINE
  8
LAYER_3
 40
0.1058
 41
0.1058
 66
1
 10
0
 20
0
 30
0
  0
VERTEX
  8
LAYER_3
 10
152.5936
 20
-139.2266
  0
VERTEX
  8
LAYER_3
 10
153.1084
 20
-139.2266
  0
SEQEND
  0
POLYLINE
  8
LAYER_3
 40
0.1058
 41
0.1058
 66
1
 10
0
 20
0
 30
0
  0
VERTEX
  8
LAYER_3
 10
154.9458
 20
-139.1464
  0
VERTEX
  8
LAYER_3
 10
154.7829
 20
-139.2266
  0
SEQEND
  0
POLYLINE
  8
LAYER_3
 40
0.1058
 41
0.1058
 66
1
 10
0
 20
0
 30
0
  0
VERTEX
  8
LAYER_3
 10
154.7829
 20
-139.2266
  0
VERTEX
  8
LAYER_3
 10
154.9458
 20
-139.3105
  0
SEQEND
  0
POLYLINE
  8
LAYER_3
 40
0.1058
 41
0.1058
 66
1
 10
0
 20
0
 30
0
  0
VERTEX
  8
LAYER_3
 10
154.9458
 20
-139.1464
  0
VERTEX
  8
LAYER_3
 10
155.1287
 20
-139.1464
  0
SEQEND
  0
POLYLINE
  8
LAYER_3
 40
0.1058
 41
0.1058
 66
1
 10
0
 20
0
 30
0
  0
VERTEX
  8
LAYER_3
 10
155.1287
 20
-139.1464
  0
VERTEX
  8
LAYER_3
 10
155.2941
 20
-139.2266
  0
SEQEND
  0
POLYLINE
  8
LAYER_3
 40
0.1058
 41
0.1058
 66
1
 10
0
 20
0
 30
0
  0
VERTEX
  8
LAYER_3
 10
155.2941
 20
-139.2266
  0
VERTEX
  8
LAYER_3
 10
155.1287
 20
-139.3105
  0
SEQEND
  0
POLYLINE
  8
LAYER_3
 40
0.1058
 41
0.1058
 66
1
 10
0
 20
0
 30
0
  0
VERTEX
  8
LAYER_3
 10
155.1287
 20
-139.3105
  0
VERTEX
  8
LAYER_3
 10
154.9458
 20
-139.3105
  0
SEQEND
  0
POLYLINE
  8
LAYER_3
 40
0.1058
 41
0.1058
 66
1
 10
0
 20
0
 30
0
  0
VERTEX
  8
LAYER_3
 10
154.7829
 20
-139.2266
  0
VERTEX
  8
LAYER_3
 10
155.2941
 20
-139.2266
  0
SEQEND
  0
POLYLINE
  8
LAYER_3
 40
0.1058
 41
0.1058
 66
1
 10
0
 20
0
 30
0
  0
VERTEX
  8
LAYER_3
 10
156.1345
 20
-139.1464
  0
VERTEX
  8
LAYER_3
 10
155.9679
 20
-139.2266
  0
SEQEND
  0
POLYLINE
  8
LAYER_3
 40
0.1058
 41
0.1058
 66
1
 10
0
 20
0
 30
0
  0
VERTEX
  8
LAYER_3
 10
155.9679
 20
-139.2266
  0
VERTEX
  8
LAYER_3
 10
156.1345
 20
-139.3105
  0
SEQEND
  0
POLYLINE
  8
LAYER_3
 40
0.1058
 41
0.1058
 66
1
 10
0
 20
0
 30
0
  0
VERTEX
  8
LAYER_3
 10
155.9679
 20
-139.2266
  0
VERTEX
  8
LAYER_3
 10
156.1345
 20
-139.2266
  0
SEQEND
  0
POLYLINE
  8
LAYER_3
 40
0.1058
 41
0.1058
 66
1
 10
0
 20
0
 30
0
  0
VERTEX
  8
LAYER_3
 10
151.7556
 20
-139.1464
  0
VERTEX
  8
LAYER_3
 10
151.9223
 20
-139.2266
  0
SEQEND
  0
POLYLINE
  8
LAYER_3
 40
0.1058
 41
0.1058
 66
1
 10
0
 20
0
 30
0
  0
VERTEX
  8
LAYER_3
 10
151.9223
 20
-139.2266
  0
VERTEX
  8
LAYER_3
 10
151.7556
 20
-139.3105
  0
SEQEND
  0
POLYLINE
  8
LAYER_3
 40
0.1058
 41
0.1058
 66
1
 10
0
 20
0
 30
0
  0
VERTEX
  8
LAYER_3
 10
151.9223
 20
-139.2266
  0
VERTEX
  8
LAYER_3
 10
151.7556
 20
-139.2266
  0
SEQEND
  0
POLYLINE
  8
LAYER_3
 40
0.1058
 41
0.1058
 66
1
 10
0
 20
0
 30
0
  0
VERTEX
  8
LAYER_3
 10
151.0242
 20
-143.7682
 42
0.3950492561
  0
VERTEX
  8
LAYER_3
 10
150.701
 20
-144.0926
  0
SEQEND
  0
POLYLINE
  8
LAYER_3
 40
0.1058
 41
0.1058
 66
1
 10
0
 20
0
 30
0
  0
VERTEX
  8
LAYER_3
 10
157.1854
 20
-144.0926
 42
0.3951999141
  0
VERTEX
  8
LAYER_3
 10
156.8621
 20
-143.7682
  0
SEQEND
  0
POLYLINE
  8
LAYER_3
 40
0.1058
 41
0.1058
 66
1
 10
0
 20
0
 30
0
  0
VERTEX
  8
LAYER_3
 10
157.1854
 20
-149.9307
  0
VERTEX
  8
LAYER_3
 10
157.1854
 20
-144.0926
  0
SEQEND
  0
POLYLINE
  8
LAYER_3
 40
0.1058
 41
0.1058
 66
1
 10
0
 20
0
 30
0
  0
VERTEX
  8
LAYER_3
 10
156.8621
 20
-150.255
 42
0.3968329864
  0
VERTEX
  8
LAYER_3
 10
157.1854
 20
-149.9307
  0
SEQEND
  0
POLYLINE
  8
LAYER_3
 40
0.1058
 41
0.1058
 66
1
 10
0
 20
0
 30
0
  0
VERTEX
  8
LAYER_3
 10
150.701
 20
-144.0926
  0
VERTEX
  8
LAYER_3
 10
150.701
 20
-149.9307
  0
SEQEND
  0
POLYLINE
  8
LAYER_3
 40
0.1058
 41
0.1058
 66
1
 10
0
 20
0
 30
0
  0
VERTEX
  8
LAYER_3
 10
150.701
 20
-149.9307
 42
0.3936286018
  0
VERTEX
  8
LAYER_3
 10
151.0242
 20
-150.255
  0
SEQEND
  0
POLYLINE
  8
LAYER_3
 40
0.1058
 41
0.1058
 66
1
 10
0
 20
0
 30
0
  0
VERTEX
  8
LAYER_3
 10
151.0242
 20
-150.255
  0
VERTEX
  8
LAYER_3
 10
152.3205
 20
-150.255
  0
SEQEND
  0
POLYLINE
  8
LAYER_3
 40
0.1058
 41
0.1058
 66
1
 10
0
 20
0
 30
0
  0
VERTEX
  8
LAYER_3
 10
155.5658
 20
-150.255
  0
VERTEX
  8
LAYER_3
 10
156.8621
 20
-150.255
  0
SEQEND
  0
POLYLINE
  8
LAYER_3
 40
0.1058
 41
0.1058
 66
1
 10
0
 20
0
 30
0
  0
VERTEX
  8
LAYER_3
 10
156.8621
 20
-143.7682
  0
VERTEX
  8
LAYER_3
 10
155.5658
 20
-143.7682
  0
SEQEND
  0
POLYLINE
  8
LAYER_3
 40
0.1058
 41
0.1058
 66
1
 10
0
 20
0
 30
0
  0
VERTEX
  8
LAYER_3
 10
152.3205
 20
-143.7682
  0
VERTEX
  8
LAYER_3
 10
151.0242
 20
-143.7682
  0
SEQEND
  0
POLYLINE
  8
LAYER_3
 40
0.1058
 41
0.1058
 66
1
 10
0
 20
0
 30
0
 70
1
  0
VERTEX
  8
LAYER_3
 10
152.2779
 20
-144.7026
 42
0.393502635
  0
VERTEX
  8
LAYER_3
 10
151.6329
 20
-144.0563
 42
0.3950759212
  0
VERTEX
  8
LAYER_3
 10
150.9903
 20
-144.7026
 42
0.3939053284
  0
VERTEX
  8
LAYER_3
 10
151.6329
 20
-145.3439
 42
0.3921291263
  0
SEQEND
  0
POLYLINE
  8
LAYER_3
 40
0.1058
 41
0.1058
 66
1
 10
0
 20
0
 30
0
  0
VERTEX
  8
LAYER_3
 10
151.9598
 20
-144.7026
  0
VERTEX
  8
LAYER_3
 10
151.7982
 20
-144.4195
  0
SEQEND
  0
POLYLINE
  8
LAYER_3
 40
0.1058
 41
0.1058
 66
1
 10
0
 20
0
 30
0
  0
VERTEX
  8
LAYER_3
 10
151.7982
 20
-144.4195
  0
VERTEX
  8
LAYER_3
 10
151.47
 20
-144.4195
  0
SEQEND
  0
POLYLINE
  8
LAYER_3
 40
0.1058
 41
0.1058
 66
1
 10
0
 20
0
 30
0
  0
VERTEX
  8
LAYER_3
 10
151.47
 20
-144.4195
  0
VERTEX
  8
LAYER_3
 10
151.3085
 20
-144.7026
  0
SEQEND
  0
POLYLINE
  8
LAYER_3
 40
0.1058
 41
0.1058
 66
1
 10
0
 20
0
 30
0
  0
VERTEX
  8
LAYER_3
 10
151.3085
 20
-144.7026
  0
VERTEX
  8
LAYER_3
 10
151.47
 20
-144.9832
  0
SEQEND
  0
POLYLINE
  8
LAYER_3
 40
0.1058
 41
0.1058
 66
1
 10
0
 20
0
 30
0
  0
VERTEX
  8
LAYER_3
 10
151.47
 20
-144.9832
  0
VERTEX
  8
LAYER_3
 10
151.7982
 20
-144.9832
  0
SEQEND
  0
POLYLINE
  8
LAYER_3
 40
0.1058
 41
0.1058
 66
1
 10
0
 20
0
 30
0
  0
VERTEX
  8
LAYER_3
 10
151.7982
 20
-144.9832
  0
VERTEX
  8
LAYER_3
 10
151.9598
 20
-144.7026
  0
SEQEND
  0
POLYLINE
  8
LAYER_3
 40
0.1058
 41
0.1058
 66
1
 10
0
 20
0
 30
0
 70
1
  0
VERTEX
  8
LAYER_3
 10
156.8997
 20
-144.7026
 42
0.3937352891
  0
VERTEX
  8
LAYER_3
 10
156.2534
 20
-144.0563
 42
0.3958158844
  0
VERTEX
  8
LAYER_3
 10
155.6134
 20
-144.7026
 42
0.3931830713
  0
VERTEX
  8
LAYER_3
 10
156.2534
 20
-145.3439
 42
0.3915833774
  0
SEQEND
  0
POLYLINE
  8
LAYER_3
 40
0.1058
 41
0.1058
 66
1
 10
0
 20
0
 30
0
  0
VERTEX
  8
LAYER_3
 10
155.9303
 20
-144.7026
  0
VERTEX
  8
LAYER_3
 10
156.0931
 20
-144.4195
  0
SEQEND
  0
POLYLINE
  8
LAYER_3
 40
0.1058
 41
0.1058
 66
1
 10
0
 20
0
 30
0
  0
VERTEX
  8
LAYER_3
 10
156.0931
 20
-144.4195
  0
VERTEX
  8
LAYER_3
 10
156.42
 20
-144.4195
  0
SEQEND
  0
POLYLINE
  8
LAYER_3
 40
0.1058
 41
0.1058
 66
1
 10
0
 20
0
 30
0
  0
VERTEX
  8
LAYER_3
 10
156.42
 20
-144.4195
  0
VERTEX
  8
LAYER_3
 10
156.5816
 20
-144.7026
  0
SEQEND
  0
POLYLINE
  8
LAYER_3
 40
0.1058
 41
0.1058
 66
1
 10
0
 20
0
 30
0
  0
VERTEX
  8
LAYER_3
 10
156.5816
 20
-144.7026
  0
VERTEX
  8
LAYER_3
 10
156.42
 20
-144.9832
  0
SEQEND
  0
POLYLINE
  8
LAYER_3
 40
0.1058
 41
0.1058
 66
1
 10
0
 20
0
 30
0
  0
VERTEX
  8
LAYER_3
 10
156.42
 20
-144.9832
  0
VERTEX
  8
LAYER_3
 10
156.0931
 20
-144.9832
  0
SEQEND
  0
POLYLINE
  8
LAYER_3
 40
0.1058
 41
0.1058
 66
1
 10
0
 20
0
 30
0
  0
VERTEX
  8
LAYER_3
 10
156.0931
 20
-144.9832
  0
VERTEX
  8
LAYER_3
 10
155.9303
 20
-144.7026
  0
SEQEND
  0
POLYLINE
  8
LAYER_3
 40
0.1058
 41
0.1058
 66
1
 10
0
 20
0
 30
0
 70
1
  0
VERTEX
  8
LAYER_3
 10
152.2779
 20
-149.322
 42
0.394656805
  0
VERTEX
  8
LAYER_3
 10
151.6329
 20
-148.6807
 42
0.3935006692
  0
VERTEX
  8
LAYER_3
 10
150.9903
 20
-149.322
 42
0.3931652006
  0
VERTEX
  8
LAYER_3
 10
151.6329
 20
-149.9657
 42
0.3927552115
  0
SEQEND
  0
POLYLINE
  8
LAYER_3
 40
0.1058
 41
0.1058
 66
1
 10
0
 20
0
 30
0
  0
VERTEX
  8
LAYER_3
 10
151.9598
 20
-149.322
  0
VERTEX
  8
LAYER_3
 10
151.7982
 20
-149.605
  0
SEQEND
  0
POLYLINE
  8
LAYER_3
 40
0.1058
 41
0.1058
 66
1
 10
0
 20
0
 30
0
  0
VERTEX
  8
LAYER_3
 10
151.7982
 20
-149.605
  0
VERTEX
  8
LAYER_3
 10
151.47
 20
-149.605
  0
SEQEND
  0
POLYLINE
  8
LAYER_3
 40
0.1058
 41
0.1058
 66
1
 10
0
 20
0
 30
0
  0
VERTEX
  8
LAYER_3
 10
151.47
 20
-149.605
  0
VERTEX
  8
LAYER_3
 10
151.3085
 20
-149.322
  0
SEQEND
  0
POLYLINE
  8
LAYER_3
 40
0.1058
 41
0.1058
 66
1
 10
0
 20
0
 30
0
  0
VERTEX
  8
LAYER_3
 10
151.3085
 20
-149.322
  0
VERTEX
  8
LAYER_3
 10
151.47
 20
-149.0413
  0
SEQEND
  0
POLYLINE
  8
LAYER_3
 40
0.1058
 41
0.1058
 66
1
 10
0
 20
0
 30
0
  0
VERTEX
  8
LAYER_3
 10
151.47
 20
-149.0413
  0
VERTEX
  8
LAYER_3
 10
151.7982
 20
-149.0413
  0
SEQEND
  0
POLYLINE
  8
LAYER_3
 40
0.1058
 41
0.1058
 66
1
 10
0
 20
0
 30
0
  0
VERTEX
  8
LAYER_3
 10
151.7982
 20
-149.0413
  0
VERTEX
  8
LAYER_3
 10
151.9598
 20
-149.322
  0
SEQEND
  0
POLYLINE
  8
LAYER_3
 40
0.1058
 41
0.1058
 66
1
 10
0
 20
0
 30
0
 70
1
  0
VERTEX
  8
LAYER_3
 10
156.8997
 20
-149.322
 42
0.394886386
  0
VERTEX
  8
LAYER_3
 10
156.2534
 20
-148.6807
 42
0.3942438498
  0
VERTEX
  8
LAYER_3
 10
155.6134
 20
-149.322
 42
0.3924411792
  0
VERTEX
  8
LAYER_3
 10
156.2534
 20
-149.9657
 42
0.3922101954
  0
SEQEND
  0
POLYLINE
  8
LAYER_3
 40
0.1058
 41
0.1058
 66
1
 10
0
 20
0
 30
0
  0
VERTEX
  8
LAYER_3
 10
155.9303
 20
-149.322
  0
VERTEX
  8
LAYER_3
 10
156.0931
 20
-149.605
  0
SEQEND
  0
POLYLINE
  8
LAYER_3
 40
0.1058
 41
0.1058
 66
1
 10
0
 20
0
 30
0
  0
VERTEX
  8
LAYER_3
 10
156.0931
 20
-149.605
  0
VERTEX
  8
LAYER_3
 10
156.42
 20
-149.605
  0
SEQEND
  0
POLYLINE
  8
LAYER_3
 40
0.1058
 41
0.1058
 66
1
 10
0
 20
0
 30
0
  0
VERTEX
  8
LAYER_3
 10
156.42
 20
-149.605
  0
VERTEX
  8
LAYER_3
 10
156.5816
 20
-149.322
  0
SEQEND
  0
POLYLINE
  8
LAYER_3
 40
0.1058
 41
0.1058
 66
1
 10
0
 20
0
 30
0
  0
VERTEX
  8
LAYER_3
 10
156.5816
 20
-149.322
  0
VERTEX
  8
LAYER_3
 10
156.42
 20
-149.0413
  0
SEQEND
  0
POLYLINE
  8
LAYER_3
 40
0.1058
 41
0.1058
 66
1
 10
0
 20
0
 30
0
  0
VERTEX
  8
LAYER_3
 10
156.42
 20
-149.0413
  0
VERTEX
  8
LAYER_3
 10
156.0931
 20
-149.0413
  0
SEQEND
  0
POLYLINE
  8
LAYER_3
 40
0.1058
 41
0.1058
 66
1
 10
0
 20
0
 30
0
  0
VERTEX
  8
LAYER_3
 10
156.0931
 20
-149.0413
  0
VERTEX
  8
LAYER_3
 10
155.9303
 20
-149.322
  0
SEQEND
  0
POLYLINE
  8
LAYER_3
 40
0.1058
 41
0.1058
 66
1
 10
0
 20
0
 30
0
  0
VERTEX
  8
LAYER_3
 10
152.6461
 20
-145.0658
  0
VERTEX
  8
LAYER_3
 10
155.2426
 20
-145.0658
  0
SEQEND
  0
POLYLINE
  8
LAYER_3
 40
0.1058
 41
0.1058
 66
1
 10
0
 20
0
 30
0
  0
VERTEX
  8
LAYER_3
 10
155.2426
 20
-145.0658
 42
0.3941024576
  0
VERTEX
  8
LAYER_3
 10
155.5658
 20
-144.7402
  0
SEQEND
  0
POLYLINE
  8
LAYER_3
 40
0.1058
 41
0.1058
 66
1
 10
0
 20
0
 30
0
  0
VERTEX
  8
LAYER_3
 10
152.3205
 20
-144.7402
 42
0.3916946696
  0
VERTEX
  8
LAYER_3
 10
152.6461
 20
-145.0658
  0
SEQEND
  0
POLYLINE
  8
LAYER_3
 40
0.1058
 41
0.1058
 66
1
 10
0
 20
0
 30
0
  0
VERTEX
  8
LAYER_3
 10
152.6461
 20
-147.8215
  0
VERTEX
  8
LAYER_3
 10
155.2426
 20
-147.8215
  0
SEQEND
  0
POLYLINE
  8
LAYER_3
 40
0.1058
 41
0.1058
 66
1
 10
0
 20
0
 30
0
  0
VERTEX
  8
LAYER_3
 10
155.5658
 20
-148.1471
 42
0.3912632659
  0
VERTEX
  8
LAYER_3
 10
155.2426
 20
-147.8215
  0
SEQEND
  0
POLYLINE
  8
LAYER_3
 40
0.1058
 41
0.1058
 66
1
 10
0
 20
0
 30
0
  0
VERTEX
  8
LAYER_3
 10
152.6461
 20
-147.8215
 42
0.4141594076
  0
VERTEX
  8
LAYER_3
 10
152.3205
 20
-148.1471
  0
SEQEND
  0
POLYLINE
  8
LAYER_3
 40
0.1058
 41
0.1058
 66
1
 10
0
 20
0
 30
0
  0
VERTEX
  8
LAYER_3
 10
152.4032
 20
-142.3077
  0
VERTEX
  8
LAYER_3
 10
155.4831
 20
-142.3077
  0
SEQEND
  0
POLYLINE
  8
LAYER_3
 40
0.1058
 41
0.1058
 66
1
 10
0
 20
0
 30
0
  0
VERTEX
  8
LAYER_3
 10
155.5658
 20
-143.6668
  0
VERTEX
  8
LAYER_3
 10
155.5658
 20
-142.3892
  0
SEQEND
  0
POLYLINE
  8
LAYER_3
 40
0.1058
 41
0.1058
 66
1
 10
0
 20
0
 30
0
  0
VERTEX
  8
LAYER_3
 10
155.4831
 20
-142.3077
  0
VERTEX
  8
LAYER_3
 10
155.5658
 20
-142.3892
  0
SEQEND
  0
POLYLINE
  8
LAYER_3
 40
0.1058
 41
0.1058
 66
1
 10
0
 20
0
 30
0
  0
VERTEX
  8
LAYER_3
 10
155.5658
 20
-150.3352
  0
VERTEX
  8
LAYER_3
 10
155.5658
 20
-151.4713
  0
SEQEND
  0
POLYLINE
  8
LAYER_3
 40
0.1058
 41
0.1058
 66
1
 10
0
 20
0
 30
0
  0
VERTEX
  8
LAYER_3
 10
155.5195
 20
-151.5213
  0
VERTEX
  8
LAYER_3
 10
155.5658
 20
-151.4713
  0
SEQEND
  0
POLYLINE
  8
LAYER_3
 40
0.1058
 41
0.1058
 66
1
 10
0
 20
0
 30
0
  0
VERTEX
  8
LAYER_3
 10
152.3205
 20
-150.3979
  0
VERTEX
  8
LAYER_3
 10
152.3205
 20
-151.4713
  0
SEQEND
  0
POLYLINE
  8
LAYER_3
 40
0.1058
 41
0.1058
 66
1
 10
0
 20
0
 30
0
  0
VERTEX
  8
LAYER_3
 10
152.3719
 20
-151.5213
  0
VERTEX
  8
LAYER_3
 10
152.3205
 20
-151.4713
  0
SEQEND
  0
POLYLINE
  8
LAYER_3
 40
0.1058
 41
0.1058
 66
1
 10
0
 20
0
 30
0
  0
VERTEX
  8
LAYER_3
 10
152.3205
 20
-148.1471
  0
VERTEX
  8
LAYER_3
 10
152.3205
 20
-150.3979
  0
SEQEND
  0
POLYLINE
  8
LAYER_3
 40
0.1058
 41
0.1058
 66
1
 10
0
 20
0
 30
0
  0
VERTEX
  8
LAYER_3
 10
155.5658
 20
-150.3979
  0
VERTEX
  8
LAYER_3
 10
155.5658
 20
-148.1471
  0
SEQEND
  0
POLYLINE
  8
LAYER_3
 40
0.1058
 41
0.1058
 66
1
 10
0
 20
0
 30
0
  0
VERTEX
  8
LAYER_3
 10
155.5658
 20
-144.7402
  0
VERTEX
  8
LAYER_3
 10
155.5658
 20
-143.6668
  0
SEQEND
  0
POLYLINE
  8
LAYER_3
 40
0.1058
 41
0.1058
 66
1
 10
0
 20
0
 30
0
  0
VERTEX
  8
LAYER_3
 10
152.3205
 20
-144.7402
  0
VERTEX
  8
LAYER_3
 10
152.3205
 20
-142.3892
  0
SEQEND
  0
POLYLINE
  8
LAYER_3
 40
0.1058
 41
0.1058
 66
1
 10
0
 20
0
 30
0
  0
VERTEX
  8
LAYER_3
 10
152.4032
 20
-142.3077
  0
VERTEX
  8
LAYER_3
 10
152.3205
 20
-142.3892
  0
SEQEND
  0
POLYLINE
  8
LAYER_3
 40
0.1058
 41
0.1058
 66
1
 10
0
 20
0
 30
0
  0
VERTEX
  8
LAYER_3
 10
152.566
 20
-145.0571
  0
VERTEX
  8
LAYER_3
 10
152.566
 20
-147.8215
  0
SEQEND
  0
POLYLINE
  8
LAYER_3
 40
0.1058
 41
0.1058
 66
1
 10
0
 20
0
 30
0
  0
VERTEX
  8
LAYER_3
 10
155.3216
 20
-145.0571
  0
VERTEX
  8
LAYER_3
 10
155.3216
 20
-147.8215
  0
SEQEND
  0
POLYLINE
  8
LAYER_3
 40
0.1058
 41
0.1058
 66
1
 10
0
 20
0
 30
0
  0
VERTEX
  8
LAYER_3
 10
152.3205
 20
-151.4713
  0
VERTEX
  8
LAYER_3
 10
155.5658
 20
-151.4713
  0
SEQEND
  0
POLYLINE
  8
LAYER_3
 40
0.1058
 41
0.1058
 66
1
 10
0
 20
0
 30
0
  0
VERTEX
  8
LAYER_3
 10
152.3205
 20
-142.3892
  0
VERTEX
  8
LAYER_3
 10
155.5658
 20
-142.3892
  0
SEQEND
  0
POLYLINE
  8
LAYER_3
  6
AIGENLINE001
 40
0.1058
 41
0.1058
 66
1
 10
0
 20
0
 30
0
 70
128
  0
VERTEX
  8
LAYER_3
 10
155.1224
 20
-144.7026
  0
VERTEX
  8
LAYER_3
 10
157.3857
 20
-144.7026
  0
SEQEND
  0
POLYLINE
  8
LAYER_3
  6
AIGENLINE001
 40
0.1058
 41
0.1058
 66
1
 10
0
 20
0
 30
0
 70
128
  0
VERTEX
  8
LAYER_3
 10
156.2534
 20
-143.5703
  0
VERTEX
  8
LAYER_3
 10
156.2534
 20
-145.8337
  0
SEQEND
  0
POLYLINE
  8
LAYER_3
  6
AIGENLINE001
 40
0.1058
 41
0.1058
 66
1
 10
0
 20
0
 30
0
 70
128
  0
VERTEX
  8
LAYER_3
 10
155.1224
 20
-149.322
  0
VERTEX
  8
LAYER_3
 10
157.3857
 20
-149.322
  0
SEQEND
  0
POLYLINE
  8
LAYER_3
  6
AIGENLINE001
 40
0.1058
 41
0.1058
 66
1
 10
0
 20
0
 30
0
 70
128
  0
VERTEX
  8
LAYER_3
 10
156.2534
 20
-148.191
  0
VERTEX
  8
LAYER_3
 10
156.2534
 20
-150.4542
  0
SEQEND
  0
POLYLINE
  8
LAYER_3
  6
AIGENLINE001
 40
0.1058
 41
0.1058
 66
1
 10
0
 20
0
 30
0
 70
128
  0
VERTEX
  8
LAYER_3
 10
150.5018
 20
-149.322
  0
VERTEX
  8
LAYER_3
 10
152.7652
 20
-149.322
  0
SEQEND
  0
POLYLINE
  8
LAYER_3
  6
AIGENLINE001
 40
0.1058
 41
0.1058
 66
1
 10
0
 20
0
 30
0
 70
128
  0
VERTEX
  8
LAYER_3
 10
151.6329
 20
-148.191
  0
VERTEX
  8
LAYER_3
 10
151.6329
 20
-150.4542
  0
SEQEND
  0
POLYLINE
  8
LAYER_3
  6
AIGENLINE001
 40
0.1058
 41
0.1058
 66
1
 10
0
 20
0
 30
0
 70
128
  0
VERTEX
  8
LAYER_3
 10
150.5018
 20
-144.7026
  0
VERTEX
  8
LAYER_3
 10
152.7652
 20
-144.7026
  0
SEQEND
  0
POLYLINE
  8
LAYER_3
  6
AIGENLINE001
 40
0.1058
 41
0.1058
 66
1
 10
0
 20
0
 30
0
 70
128
  0
VERTEX
  8
LAYER_3
 10
151.6329
 20
-143.5703
  0
VERTEX
  8
LAYER_3
 10
151.6329
 20
-145.8337
  0
SEQEND
  0
POLYLINE
  8
LAYER_3
 40
0.1058
 41
0.1058
 66
1
 10
0
 20
0
 30
0
  0
VERTEX
  8
LAYER_3
 10
155.5658
 20
-151.2746
  0
VERTEX
  8
LAYER_3
 10
157.9957
 20
-151.2746
  0
SEQEND
  0
POLYLINE
  8
LAYER_3
 40
0.1058
 41
0.1058
 66
1
 10
0
 20
0
 30
0
  0
VERTEX
  8
LAYER_3
 10
149.8906
 20
-151.2746
  0
VERTEX
  8
LAYER_3
 10
152.3205
 20
-151.2746
  0
SEQEND
  0
POLYLINE
  8
LAYER_3
 40
0.1058
 41
0.1058
 66
1
 10
0
 20
0
 30
0
  0
VERTEX
  8
LAYER_3
 10
158.2249
 20
-150.9026
 42
0.09302582632
  0
VERTEX
  8
LAYER_3
 10
158.2249
 20
-150.5795
  0
SEQEND
  0
POLYLINE
  8
LAYER_3
 40
0.1058
 41
0.1058
 66
1
 10
0
 20
0
 30
0
  0
VERTEX
  8
LAYER_3
 10
158.2425
 20
-150.9026
  0
VERTEX
  8
LAYER_3
 10
155.5658
 20
-150.9026
  0
SEQEND
  0
POLYLINE
  8
LAYER_3
 40
0.1058
 41
0.1058
 66
1
 10
0
 20
0
 30
0
  0
VERTEX
  8
LAYER_3
 10
157.9957
 20
-151.2746
 42
0.3896949208
  0
VERTEX
  8
LAYER_3
 10
158.2425
 20
-151.0279
  0
SEQEND
  0
POLYLINE
  8
LAYER_3
 40
0.1058
 41
0.1058
 66
1
 10
0
 20
0
 30
0
  0
VERTEX
  8
LAYER_3
 10
158.2425
 20
-150.9026
  0
VERTEX
  8
LAYER_3
 10
158.2425
 20
-151.0279
  0
SEQEND
  0
POLYLINE
  8
LAYER_3
 40
0.1058
 41
0.1058
 66
1
 10
0
 20
0
 30
0
  0
VERTEX
  8
LAYER_3
 10
158.2012
 20
-150.9026
  0
VERTEX
  8
LAYER_3
 10
158.1223
 20
-150.9026
  0
SEQEND
  0
POLYLINE
  8
LAYER_3
 40
0.1058
 41
0.1058
 66
1
 10
0
 20
0
 30
0
  0
VERTEX
  8
LAYER_3
 10
150.6184
 20
-150.8225
  0
VERTEX
  8
LAYER_3
 10
152.3205
 20
-150.8225
  0
SEQEND
  0
POLYLINE
  8
LAYER_3
 40
0.1058
 41
0.1058
 66
1
 10
0
 20
0
 30
0
  0
VERTEX
  8
LAYER_3
 10
158.0157
 20
-150.2075
  0
VERTEX
  8
LAYER_3
 10
157.352
 20
-150.2075
  0
SEQEND
  0
POLYLINE
  8
LAYER_3
 40
0.1058
 41
0.1058
 66
1
 10
0
 20
0
 30
0
  0
VERTEX
  8
LAYER_3
 10
158.2613
 20
-150.4479
  0
VERTEX
  8
LAYER_3
 10
158.2613
 20
-150.5795
  0
SEQEND
  0
POLYLINE
  8
LAYER_3
 40
0.1058
 41
0.1058
 66
1
 10
0
 20
0
 30
0
  0
VERTEX
  8
LAYER_3
 10
158.2613
 20
-150.4479
 42
0.3955556756
  0
VERTEX
  8
LAYER_3
 10
158.0157
 20
-150.2075
  0
SEQEND
  0
POLYLINE
  8
LAYER_3
 40
0.1058
 41
0.1058
 66
1
 10
0
 20
0
 30
0
  0
VERTEX
  8
LAYER_3
 10
158.2613
 20
-150.5795
  0
VERTEX
  8
LAYER_3
 10
157.352
 20
-150.5795
  0
SEQEND
  0
POLYLINE
  8
LAYER_3
 40
0.1058
 41
0.1058
 66
1
 10
0
 20
0
 30
0
  0
VERTEX
  8
LAYER_3
 10
157.2693
 20
-150.8225
  0
VERTEX
  8
LAYER_3
 10
155.5658
 20
-150.8225
  0
SEQEND
  0
POLYLINE
  8
LAYER_3
 40
0.1058
 41
0.1058
 66
1
 10
0
 20
0
 30
0
  0
VERTEX
  8
LAYER_3
 10
157.2693
 20
-150.8225
 42
0.4052949751
  0
VERTEX
  8
LAYER_3
 10
157.352
 20
-150.741
  0
SEQEND
  0
POLYLINE
  8
LAYER_3
 40
0.1058
 41
0.1058
 66
1
 10
0
 20
0
 30
0
  0
VERTEX
  8
LAYER_3
 10
150.6973
 20
-150.4179
  0
VERTEX
  8
LAYER_3
 10
152.3205
 20
-150.4179
  0
SEQEND
  0
POLYLINE
  8
LAYER_3
 40
0.1058
 41
0.1058
 66
1
 10
0
 20
0
 30
0
  0
VERTEX
  8
LAYER_3
 10
157.352
 20
-150.741
  0
VERTEX
  8
LAYER_3
 10
157.352
 20
-143.9298
  0
SEQEND
  0
POLYLINE
  8
LAYER_3
 40
0.1058
 41
0.1058
 66
1
 10
0
 20
0
 30
0
  0
VERTEX
  8
LAYER_3
 10
157.2693
 20
-150.5795
 42
0.3978811323
  0
VERTEX
  8
LAYER_3
 10
157.352
 20
-150.4994
  0
SEQEND
  0
POLYLINE
  8
LAYER_3
 40
0.1058
 41
0.1058
 66
1
 10
0
 20
0
 30
0
  0
VERTEX
  8
LAYER_3
 10
157.1891
 20
-150.4994
 42
0.4142922334
  0
VERTEX
  8
LAYER_3
 10
157.2693
 20
-150.5795
  0
SEQEND
  0
POLYLINE
  8
LAYER_3
 40
0.1058
 41
0.1058
 66
1
 10
0
 20
0
 30
0
  0
VERTEX
  8
LAYER_3
 10
157.1891
 20
-150.4994
  0
VERTEX
  8
LAYER_3
 10
157.1891
 20
-150.4179
  0
SEQEND
  0
POLYLINE
  8
LAYER_3
 40
0.1058
 41
0.1058
 66
1
 10
0
 20
0
 30
0
  0
VERTEX
  8
LAYER_3
 10
157.1891
 20
-150.4179
  0
VERTEX
  8
LAYER_3
 10
155.5658
 20
-150.4179
  0
SEQEND
  0
POLYLINE
  8
LAYER_3
 40
0.1058
 41
0.1058
 66
1
 10
0
 20
0
 30
0
  0
VERTEX
  8
LAYER_3
 10
157.9957
 20
-150.2075
  0
VERTEX
  8
LAYER_3
 10
157.9957
 20
-144.4171
  0
SEQEND
  0
POLYLINE
  8
LAYER_3
 40
0.1058
 41
0.1058
 66
1
 10
0
 20
0
 30
0
  0
VERTEX
  8
LAYER_3
 10
157.9957
 20
-144.4171
 42
0.392870865
  0
VERTEX
  8
LAYER_3
 10
156.3762
 20
-142.7937
  0
SEQEND
  0
POLYLINE
  8
LAYER_3
 40
0.1058
 41
0.1058
 66
1
 10
0
 20
0
 30
0
  0
VERTEX
  8
LAYER_3
 10
151.5139
 20
-142.7937
 42
0.4142195682
  0
VERTEX
  8
LAYER_3
 10
149.8906
 20
-144.4171
  0
SEQEND
  0
POLYLINE
  8
LAYER_3
 40
0.1058
 41
0.1058
 66
1
 10
0
 20
0
 30
0
  0
VERTEX
  8
LAYER_3
 10
149.8906
 20
-150.2075
  0
VERTEX
  8
LAYER_3
 10
149.8906
 20
-144.4171
  0
SEQEND
  0
POLYLINE
  8
LAYER_3
 40
0.1058
 41
0.1058
 66
1
 10
0
 20
0
 30
0
  0
VERTEX
  8
LAYER_3
 10
157.352
 20
-143.9298
 42
0.3932597344
  0
VERTEX
  8
LAYER_3
 10
157.0275
 20
-143.6066
  0
SEQEND
  0
POLYLINE
  8
LAYER_3
 40
0.1058
 41
0.1058
 66
1
 10
0
 20
0
 30
0
  0
VERTEX
  8
LAYER_3
 10
155.5658
 20
-143.6066
  0
VERTEX
  8
LAYER_3
 10
157.0275
 20
-143.6066
  0
SEQEND
  0
POLYLINE
  8
LAYER_3
 40
0.1058
 41
0.1058
 66
1
 10
0
 20
0
 30
0
  0
VERTEX
  8
LAYER_3
 10
150.6973
 20
-150.4994
  0
VERTEX
  8
LAYER_3
 10
150.6973
 20
-150.4179
  0
SEQEND
  0
POLYLINE
  8
LAYER_3
 40
0.1058
 41
0.1058
 66
1
 10
0
 20
0
 30
0
  0
VERTEX
  8
LAYER_3
 10
150.6184
 20
-150.5795
 42
0.3927065074
  0
VERTEX
  8
LAYER_3
 10
150.6973
 20
-150.4994
  0
SEQEND
  0
POLYLINE
  8
LAYER_3
 40
0.1058
 41
0.1058
 66
1
 10
0
 20
0
 30
0
  0
VERTEX
  8
LAYER_3
 10
150.5357
 20
-150.4994
 42
0.3754771972
  0
VERTEX
  8
LAYER_3
 10
150.6184
 20
-150.5795
  0
SEQEND
  0
POLYLINE
  8
LAYER_3
 40
0.1058
 41
0.1058
 66
1
 10
0
 20
0
 30
0
  0
VERTEX
  8
LAYER_3
 10
150.8626
 20
-143.6066
 42
0.3900573031
  0
VERTEX
  8
LAYER_3
 10
150.5357
 20
-143.9298
  0
SEQEND
  0
POLYLINE
  8
LAYER_3
 40
0.1058
 41
0.1058
 66
1
 10
0
 20
0
 30
0
  0
VERTEX
  8
LAYER_3
 10
152.3205
 20
-143.6066
  0
VERTEX
  8
LAYER_3
 10
150.8626
 20
-143.6066
  0
SEQEND
  0
POLYLINE
  8
LAYER_3
 40
0.1058
 41
0.1058
 66
1
 10
0
 20
0
 30
0
  0
VERTEX
  8
LAYER_3
 10
150.5357
 20
-150.741
  0
VERTEX
  8
LAYER_3
 10
150.5357
 20
-143.9298
  0
SEQEND
  0
POLYLINE
  8
LAYER_3
 40
0.1058
 41
0.1058
 66
1
 10
0
 20
0
 30
0
  0
VERTEX
  8
LAYER_3
 10
150.5357
 20
-150.741
 42
0.3825519139
  0
VERTEX
  8
LAYER_3
 10
150.6184
 20
-150.8225
  0
SEQEND
  0
POLYLINE
  8
LAYER_3
 40
0.1058
 41
0.1058
 66
1
 10
0
 20
0
 30
0
  0
VERTEX
  8
LAYER_3
 10
149.8706
 20
-150.2075
  0
VERTEX
  8
LAYER_3
 10
150.5357
 20
-150.2075
  0
SEQEND
  0
POLYLINE
  8
LAYER_3
 40
0.1058
 41
0.1058
 66
1
 10
0
 20
0
 30
0
  0
VERTEX
  8
LAYER_3
 10
149.6639
 20
-150.5795
 42
0.09256584805
  0
VERTEX
  8
LAYER_3
 10
149.6639
 20
-150.9026
  0
SEQEND
  0
POLYLINE
  8
LAYER_3
 40
0.1058
 41
0.1058
 66
1
 10
0
 20
0
 30
0
  0
VERTEX
  8
LAYER_3
 10
151.4676
 20
-142.7937
  0
VERTEX
  8
LAYER_3
 10
152.3205
 20
-142.7937
  0
SEQEND
  0
POLYLINE
  8
LAYER_3
 40
0.1058
 41
0.1058
 66
1
 10
0
 20
0
 30
0
  0
VERTEX
  8
LAYER_3
 10
156.42
 20
-142.7937
  0
VERTEX
  8
LAYER_3
 10
155.5658
 20
-142.7937
  0
SEQEND
  0
POLYLINE
  8
LAYER_3
 40
0.1058
 41
0.1058
 66
1
 10
0
 20
0
 30
0
  0
VERTEX
  8
LAYER_3
 10
157.2792
 20
-155.6072
 42
0.3746838113
  0
VERTEX
  8
LAYER_3
 10
157.7702
 20
-155.1499
  0
SEQEND
  0
POLYLINE
  8
LAYER_3
 40
0.1058
 41
0.1058
 66
1
 10
0
 20
0
 30
0
  0
VERTEX
  8
LAYER_3
 10
157.2792
 20
-155.6072
  0
VERTEX
  8
LAYER_3
 10
155.8915
 20
-155.6072
  0
SEQEND
  0
POLYLINE
  8
LAYER_3
 40
0.1058
 41
0.1058
 66
1
 10
0
 20
0
 30
0
  0
VERTEX
  8
LAYER_3
 10
151.9974
 20
-155.6072
  0
VERTEX
  8
LAYER_3
 10
150.6058
 20
-155.6072
  0
SEQEND
  0
POLYLINE
  8
LAYER_3
 40
0.1058
 41
0.1058
 66
1
 10
0
 20
0
 30
0
  0
VERTEX
  8
LAYER_3
 10
150.1211
 20
-155.1499
 42
0.3970653474
  0
VERTEX
  8
LAYER_3
 10
150.6058
 20
-155.6072
  0
SEQEND
  0
POLYLINE
  8
LAYER_3
 40
0.1058
 41
0.1058
 66
1
 10
0
 20
0
 30
0
  0
VERTEX
  8
LAYER_3
 10
149.8869
 20
-151.2746
  0
VERTEX
  8
LAYER_3
 10
150.1211
 20
-155.1499
  0
SEQEND
  0
POLYLINE
  8
LAYER_3
 40
0.1058
 41
0.1058
 66
1
 10
0
 20
0
 30
0
  0
VERTEX
  8
LAYER_3
 10
157.9995
 20
-151.2746
  0
VERTEX
  8
LAYER_3
 10
157.7702
 20
-155.1499
  0
SEQEND
  0
POLYLINE
  8
LAYER_3
 40
0.1058
 41
0.1058
 66
1
 10
0
 20
0
 30
0
  0
VERTEX
  8
LAYER_3
 10
156.6205
 20
-156.3261
  0
VERTEX
  8
LAYER_3
 10
156.6205
 20
-156.792
  0
SEQEND
  0
POLYLINE
  8
LAYER_3
 40
0.1058
 41
0.1058
 66
1
 10
0
 20
0
 30
0
  0
VERTEX
  8
LAYER_3
 10
150.7298
 20
-155.6072
 42
0.2160020877
  0
VERTEX
  8
LAYER_3
 10
150.7298
 20
-155.7699
  0
SEQEND
  0
POLYLINE
  8
LAYER_3
 40
0.1058
 41
0.1058
 66
1
 10
0
 20
0
 30
0
  0
VERTEX
  8
LAYER_3
 10
150.7148
 20
-155.8489
  0
VERTEX
  8
LAYER_3
 10
150.7148
 20
-155.7699
  0
SEQEND
  0
POLYLINE
  8
LAYER_3
 40
0.1058
 41
0.1058
 66
1
 10
0
 20
0
 30
0
  0
VERTEX
  8
LAYER_3
 10
150.7148
 20
-155.8489
 42
0.4142147076
  0
VERTEX
  8
LAYER_3
 10
150.959
 20
-156.0931
  0
SEQEND
  0
POLYLINE
  8
LAYER_3
 40
0.1058
 41
0.1058
 66
1
 10
0
 20
0
 30
0
  0
VERTEX
  8
LAYER_3
 10
151.2697
 20
-156.3373
  0
VERTEX
  8
LAYER_3
 10
151.2697
 20
-156.7896
  0
SEQEND
  0
POLYLINE
  8
LAYER_3
 40
0.1058
 41
0.1058
 66
1
 10
0
 20
0
 30
0
  0
VERTEX
  8
LAYER_3
 10
151.2697
 20
-156.3373
 42
0.3962632895
  0
VERTEX
  8
LAYER_3
 10
151.0242
 20
-156.0931
  0
SEQEND
  0
POLYLINE
  8
LAYER_3
 40
0.1058
 41
0.1058
 66
1
 10
0
 20
0
 30
0
  0
VERTEX
  8
LAYER_3
 10
157.1728
 20
-155.8489
  0
VERTEX
  8
LAYER_3
 10
157.1728
 20
-155.7699
  0
SEQEND
  0
POLYLINE
  8
LAYER_3
 40
0.1058
 41
0.1058
 66
1
 10
0
 20
0
 30
0
  0
VERTEX
  8
LAYER_3
 10
156.931
 20
-156.0931
 42
0.3927936267
  0
VERTEX
  8
LAYER_3
 10
157.1728
 20
-155.8489
  0
SEQEND
  0
POLYLINE
  8
LAYER_3
 40
0.1058
 41
0.1058
 66
1
 10
0
 20
0
 30
0
  0
VERTEX
  8
LAYER_3
 10
156.8621
 20
-156.0931
 42
0.3964546442
  0
VERTEX
  8
LAYER_3
 10
156.6205
 20
-156.3373
  0
SEQEND
  0
POLYLINE
  8
LAYER_3
 40
0.1058
 41
0.1058
 66
1
 10
0
 20
0
 30
0
  0
VERTEX
  8
LAYER_3
 10
157.1578
 20
-155.7699
 42
0.2054332513
  0
VERTEX
  8
LAYER_3
 10
157.1578
 20
-155.6072
  0
SEQEND
  0
POLYLINE
  8
LAYER_3
 40
0.1058
 41
0.1058
 66
1
 10
0
 20
0
 30
0
  0
VERTEX
  8
LAYER_3
 10
150.959
 20
-156.0931
  0
VERTEX
  8
LAYER_3
 10
151.9974
 20
-156.0931
  0
SEQEND
  0
POLYLINE
  8
LAYER_3
 40
0.1058
 41
0.1058
 66
1
 10
0
 20
0
 30
0
  0
VERTEX
  8
LAYER_3
 10
155.8915
 20
-156.0931
  0
VERTEX
  8
LAYER_3
 10
156.931
 20
-156.0931
  0
SEQEND
  0
POLYLINE
  8
LAYER_3
 40
0.1058
 41
0.1058
 66
1
 10
0
 20
0
 30
0
  0
VERTEX
  8
LAYER_3
 10
157.1728
 20
-155.7699
  0
VERTEX
  8
LAYER_3
 10
155.8915
 20
-155.7699
  0
SEQEND
  0
POLYLINE
  8
LAYER_3
 40
0.1058
 41
0.1058
 66
1
 10
0
 20
0
 30
0
  0
VERTEX
  8
LAYER_3
 10
151.9974
 20
-155.7699
  0
VERTEX
  8
LAYER_3
 10
150.7148
 20
-155.7699
  0
SEQEND
  0
POLYLINE
  8
LAYER_3
 40
0.1058
 41
0.1058
 66
1
 10
0
 20
0
 30
0
  0
VERTEX
  8
LAYER_3
 10
152.4057
 20
-142.3077
  0
VERTEX
  8
LAYER_3
 10
152.6461
 20
-142.3077
  0
SEQEND
  0
POLYLINE
  8
LAYER_3
 40
0.1058
 41
0.1058
 66
1
 10
0
 20
0
 30
0
  0
VERTEX
  8
LAYER_3
 10
155.4831
 20
-142.3077
  0
VERTEX
  8
LAYER_3
 10
155.2426
 20
-142.3077
  0
SEQEND
  0
POLYLINE
  8
LAYER_3
 40
0.1058
 41
0.1058
 66
1
 10
0
 20
0
 30
0
  0
VERTEX
  8
LAYER_3
 10
155.6434
 20
-142.145
  0
VERTEX
  8
LAYER_3
 10
155.4807
 20
-142.3077
  0
SEQEND
  0
POLYLINE
  8
LAYER_3
 40
0.1058
 41
0.1058
 66
1
 10
0
 20
0
 30
0
  0
VERTEX
  8
LAYER_3
 10
152.4057
 20
-142.3077
  0
VERTEX
  8
LAYER_3
 10
153.9437
 20
-142.3077
  0
SEQEND
  0
POLYLINE
  8
LAYER_3
 40
0.1058
 41
0.1058
 66
1
 10
0
 20
0
 30
0
  0
VERTEX
  8
LAYER_3
 10
155.4831
 20
-142.3077
  0
VERTEX
  8
LAYER_3
 10
153.9437
 20
-142.3077
  0
SEQEND
  0
POLYLINE
  8
LAYER_3
 40
0.1058
 41
0.1058
 66
1
 10
0
 20
0
 30
0
  0
VERTEX
  8
LAYER_3
 10
155.6434
 20
-141.1742
  0
VERTEX
  8
LAYER_3
 10
155.6434
 20
-142.145
  0
SEQEND
  0
POLYLINE
  8
LAYER_3
 40
0.1058
 41
0.1058
 66
1
 10
0
 20
0
 30
0
  0
VERTEX
  8
LAYER_3
 10
155.4568
 20
-141.1742
  0
VERTEX
  8
LAYER_3
 10
155.4568
 20
-141.4974
  0
SEQEND
  0
POLYLINE
  8
LAYER_3
 40
0.1058
 41
0.1058
 66
1
 10
0
 20
0
 30
0
  0
VERTEX
  8
LAYER_3
 10
155.4568
 20
-141.4974
  0
VERTEX
  8
LAYER_3
 10
155.6434
 20
-141.8256
  0
SEQEND
  0
POLYLINE
  8
LAYER_3
 40
0.1058
 41
0.1058
 66
1
 10
0
 20
0
 30
0
  0
VERTEX
  8
LAYER_3
 10
153.9437
 20
-141.4974
  0
VERTEX
  8
LAYER_3
 10
155.6434
 20
-141.4974
  0
SEQEND
  0
POLYLINE
  8
LAYER_3
 40
0.1058
 41
0.1058
 66
1
 10
0
 20
0
 30
0
  0
VERTEX
  8
LAYER_3
 10
152.2429
 20
-142.145
  0
VERTEX
  8
LAYER_3
 10
152.4057
 20
-142.3077
  0
SEQEND
  0
POLYLINE
  8
LAYER_3
 40
0.1058
 41
0.1058
 66
1
 10
0
 20
0
 30
0
  0
VERTEX
  8
LAYER_3
 10
152.2429
 20
-141.1742
  0
VERTEX
  8
LAYER_3
 10
152.2429
 20
-142.145
  0
SEQEND
  0
POLYLINE
  8
LAYER_3
 40
0.1058
 41
0.1058
 66
1
 10
0
 20
0
 30
0
  0
VERTEX
  8
LAYER_3
 10
152.4332
 20
-141.1742
  0
VERTEX
  8
LAYER_3
 10
152.4332
 20
-141.4974
  0
SEQEND
  0
POLYLINE
  8
LAYER_3
 40
0.1058
 41
0.1058
 66
1
 10
0
 20
0
 30
0
  0
VERTEX
  8
LAYER_3
 10
152.4332
 20
-141.4974
  0
VERTEX
  8
LAYER_3
 10
152.2429
 20
-141.8256
  0
SEQEND
  0
POLYLINE
  8
LAYER_3
 40
0.1058
 41
0.1058
 66
1
 10
0
 20
0
 30
0
  0
VERTEX
  8
LAYER_3
 10
153.9437
 20
-141.4974
  0
VERTEX
  8
LAYER_3
 10
152.2429
 20
-141.4974
  0
SEQEND
  0
POLYLINE
  8
LAYER_3
 40
0.1058
 41
0.1058
 66
1
 10
0
 20
0
 30
0
  0
VERTEX
  8
LAYER_3
 10
155.6434
 20
-142.145
  0
VERTEX
  8
LAYER_3
 10
152.2429
 20
-142.145
  0
SEQEND
  0
POLYLINE
  8
LAYER_3
 40
0.1058
 41
0.1058
 66
1
 10
0
 20
0
 30
0
  0
VERTEX
  8
LAYER_3
 10
153.9437
 20
-135.7258
  0
VERTEX
  8
LAYER_3
 10
153.9437
 20
-138.0279
  0
SEQEND
  0
POLYLINE
  8
LAYER_3
 40
0.1058
 41
0.1058
 66
1
 10
0
 20
0
 30
0
  0
VERTEX
  8
LAYER_3
 10
152.2429
 20
-141.1742
  0
VERTEX
  8
LAYER_3
 10
155.6434
 20
-141.1742
  0
SEQEND
  0
POLYLINE
  8
LAYER_3
 40
0.1058
 41
0.1058
 66
1
 10
0
 20
0
 30
0
  0
VERTEX
  8
LAYER_3
 10
149.6464
 20
-151.0279
 42
0.3940200961
  0
VERTEX
  8
LAYER_3
 10
149.8906
 20
-151.2746
  0
SEQEND
  0
POLYLINE
  8
LAYER_3
 40
0.1058
 41
0.1058
 66
1
 10
0
 20
0
 30
0
  0
VERTEX
  8
LAYER_3
 10
149.6464
 20
-150.9026
  0
VERTEX
  8
LAYER_3
 10
149.6464
 20
-151.0279
  0
SEQEND
  0
POLYLINE
  8
LAYER_3
 40
0.1058
 41
0.1058
 66
1
 10
0
 20
0
 30
0
  0
VERTEX
  8
LAYER_3
 10
149.6289
 20
-150.4479
  0
VERTEX
  8
LAYER_3
 10
149.6289
 20
-150.5795
  0
SEQEND
  0
POLYLINE
  8
LAYER_3
 40
0.1058
 41
0.1058
 66
1
 10
0
 20
0
 30
0
  0
VERTEX
  8
LAYER_3
 10
149.8706
 20
-150.2075
 42
0.3929070434
  0
VERTEX
  8
LAYER_3
 10
149.6289
 20
-150.4479
  0
SEQEND
  0
POLYLINE
  8
LAYER_3
 40
0.1058
 41
0.1058
 66
1
 10
0
 20
0
 30
0
  0
VERTEX
  8
LAYER_3
 10
149.6464
 20
-150.9026
  0
VERTEX
  8
LAYER_3
 10
152.3205
 20
-150.9026
  0
SEQEND
  0
POLYLINE
  8
LAYER_3
 40
0.1058
 41
0.1058
 66
1
 10
0
 20
0
 30
0
  0
VERTEX
  8
LAYER_3
 10
149.6289
 20
-150.5795
  0
VERTEX
  8
LAYER_3
 10
150.5357
 20
-150.5795
  0
SEQEND
  0
POLYLINE
  8
LAYER_3
 40
0.1058
 41
0.1058
 66
1
 10
0
 20
0
 30
0
  0
VERTEX
  8
LAYER_3
 10
78.2147
 20
-143.7682
 42
0.3815303598
  0
VERTEX
  8
LAYER_3
 10
78.1333
 20
-143.8484
  0
SEQEND
  0
POLYLINE
  8
LAYER_3
 40
0.1058
 41
0.1058
 66
1
 10
0
 20
0
 30
0
  0
VERTEX
  8
LAYER_3
 10
80.0797
 20
-143.6868
  0
VERTEX
  8
LAYER_3
 10
80.0797
 20
-142.3892
  0
SEQEND
  0
POLYLINE
  8
LAYER_3
 40
0.1058
 41
0.1058
 66
1
 10
0
 20
0
 30
0
  0
VERTEX
  8
LAYER_3
 10
80.1586
 20
-142.3077
  0
VERTEX
  8
LAYER_3
 10
80.0797
 20
-142.3892
  0
SEQEND
  0
POLYLINE
  8
LAYER_3
 40
0.1058
 41
0.1058
 66
1
 10
0
 20
0
 30
0
  0
VERTEX
  8
LAYER_3
 10
83.3225
 20
-142.3892
  0
VERTEX
  8
LAYER_3
 10
83.3225
 20
-144.7402
  0
SEQEND
  0
POLYLINE
  8
LAYER_3
 40
0.1058
 41
0.1058
 66
1
 10
0
 20
0
 30
0
  0
VERTEX
  8
LAYER_3
 10
82.9994
 20
-145.0658
 42
0.3941144097
  0
VERTEX
  8
LAYER_3
 10
83.3225
 20
-144.7402
  0
SEQEND
  0
POLYLINE
  8
LAYER_3
 40
0.1058
 41
0.1058
 66
1
 10
0
 20
0
 30
0
  0
VERTEX
  8
LAYER_3
 10
83.2423
 20
-142.3077
  0
VERTEX
  8
LAYER_3
 10
83.3225
 20
-142.3892
  0
SEQEND
  0
POLYLINE
  8
LAYER_3
 40
0.1058
 41
0.1058
 66
1
 10
0
 20
0
 30
0
  0
VERTEX
  8
LAYER_3
 10
79.2705
 20
-150.3352
  0
VERTEX
  8
LAYER_3
 10
79.2705
 20
-151.4713
  0
SEQEND
  0
POLYLINE
  8
LAYER_3
 40
0.1058
 41
0.1058
 66
1
 10
0
 20
0
 30
0
  0
VERTEX
  8
LAYER_3
 10
82.5122
 20
-151.4713
  0
VERTEX
  8
LAYER_3
 10
82.5122
 20
-147.8215
  0
SEQEND
  0
POLYLINE
  8
LAYER_3
 40
0.1058
 41
0.1058
 66
1
 10
0
 20
0
 30
0
  0
VERTEX
  8
LAYER_3
 10
83.0807
 20
-145.0571
  0
VERTEX
  8
LAYER_3
 10
83.0807
 20
-147.2565
  0
SEQEND
  0
POLYLINE
  8
LAYER_3
 40
0.1058
 41
0.1058
 66
1
 10
0
 20
0
 30
0
  0
VERTEX
  8
LAYER_3
 10
82.5122
 20
-147.8215
 42
0.3921485281
  0
VERTEX
  8
LAYER_3
 10
83.0807
 20
-147.2565
  0
SEQEND
  0
POLYLINE
  8
LAYER_3
 40
0.1058
 41
0.1058
 66
1
 10
0
 20
0
 30
0
  0
VERTEX
  8
LAYER_3
 10
80.8901
 20
-150.255
  0
VERTEX
  8
LAYER_3
 10
78.2147
 20
-150.255
  0
SEQEND
  0
POLYLINE
  8
LAYER_3
 40
0.1058
 41
0.1058
 66
1
 10
0
 20
0
 30
0
  0
VERTEX
  8
LAYER_3
 10
79.997
 20
-150.255
 42
0.3853604011
  0
VERTEX
  8
LAYER_3
 10
80.0797
 20
-150.1762
  0
SEQEND
  0
POLYLINE
  8
LAYER_3
 40
0.1058
 41
0.1058
 66
1
 10
0
 20
0
 30
0
  0
VERTEX
  8
LAYER_3
 10
79.2705
 20
-150.3352
 42
0.385598024
  0
VERTEX
  8
LAYER_3
 10
79.1879
 20
-150.255
  0
SEQEND
  0
POLYLINE
  8
LAYER_3
 40
0.1058
 41
0.1058
 66
1
 10
0
 20
0
 30
0
  0
VERTEX
  8
LAYER_3
 10
78.2147
 20
-143.7682
  0
VERTEX
  8
LAYER_3
 10
81.7005
 20
-143.7682
  0
SEQEND
  0
POLYLINE
  8
LAYER_3
 40
0.1058
 41
0.1058
 66
1
 10
0
 20
0
 30
0
  0
VERTEX
  8
LAYER_3
 10
80.0797
 20
-143.8484
 42
0.384524325
  0
VERTEX
  8
LAYER_3
 10
79.997
 20
-143.7682
  0
SEQEND
  0
POLYLINE
  8
LAYER_3
 40
0.1058
 41
0.1058
 66
1
 10
0
 20
0
 30
0
  0
VERTEX
  8
LAYER_3
 10
79.997
 20
-143.7682
 42
0.3856050705
  0
VERTEX
  8
LAYER_3
 10
80.0797
 20
-143.6868
  0
SEQEND
  0
POLYLINE
  8
LAYER_3
 40
0.1058
 41
0.1058
 66
1
 10
0
 20
0
 30
0
  0
VERTEX
  8
LAYER_3
 10
78.1333
 20
-143.6066
  0
VERTEX
  8
LAYER_3
 10
78.1333
 20
-147.011
  0
SEQEND
  0
POLYLINE
  8
LAYER_3
 40
0.1058
 41
0.1058
 66
1
 10
0
 20
0
 30
0
  0
VERTEX
  8
LAYER_3
 10
78.1333
 20
-150.0521
  0
VERTEX
  8
LAYER_3
 10
78.1333
 20
-150.4179
  0
SEQEND
  0
POLYLINE
  8
LAYER_3
 40
0.1058
 41
0.1058
 66
1
 10
0
 20
0
 30
0
  0
VERTEX
  8
LAYER_3
 10
78.1333
 20
-143.7658
  0
VERTEX
  8
LAYER_3
 10
78.1333
 20
-143.9711
  0
SEQEND
  0
POLYLINE
  8
LAYER_3
 40
0.1058
 41
0.1058
 66
1
 10
0
 20
0
 30
0
  0
VERTEX
  8
LAYER_3
 10
78.1333
 20
-150.0521
  0
VERTEX
  8
LAYER_3
 10
78.1333
 20
-150.2513
  0
SEQEND
  0
POLYLINE
  8
LAYER_3
 40
0.1058
 41
0.1058
 66
1
 10
0
 20
0
 30
0
  0
VERTEX
  8
LAYER_3
 10
80.1612
 20
-142.3077
  0
VERTEX
  8
LAYER_3
 10
80.4041
 20
-142.3077
  0
SEQEND
  0
POLYLINE
  8
LAYER_3
 40
0.1058
 41
0.1058
 66
1
 10
0
 20
0
 30
0
  0
VERTEX
  8
LAYER_3
 10
83.2399
 20
-142.3077
  0
VERTEX
  8
LAYER_3
 10
82.9994
 20
-142.3077
  0
SEQEND
  0
POLYLINE
  8
LAYER_3
 40
0.1058
 41
0.1058
 66
1
 10
0
 20
0
 30
0
  0
VERTEX
  8
LAYER_3
 10
78.1333
 20
-147.011
  0
VERTEX
  8
LAYER_3
 10
78.1333
 20
-150.1762
  0
SEQEND
  0
POLYLINE
  8
LAYER_3
 40
0.1058
 41
0.1058
 66
1
 10
0
 20
0
 30
0
  0
VERTEX
  8
LAYER_3
 10
78.1333
 20
-150.1762
 42
0.385726641
  0
VERTEX
  8
LAYER_3
 10
78.2147
 20
-150.255
  0
SEQEND
  0
POLYLINE
  8
LAYER_3
 40
0.1058
 41
0.1058
 66
1
 10
0
 20
0
 30
0
  0
VERTEX
  8
LAYER_3
 10
78.1333
 20
-150.4179
  0
VERTEX
  8
LAYER_3
 10
78.1333
 20
-150.1762
  0
SEQEND
  0
POLYLINE
  8
LAYER_3
  6
AIGENLINE001
 40
0.1058
 41
0.1058
 66
1
 10
0
 20
0
 30
0
 70
128
  0
VERTEX
  8
LAYER_3
 10
62.1335
 20
-147.011
  0
VERTEX
  8
LAYER_3
 10
81.981
 20
-147.011
  0
SEQEND
  0
POLYLINE
  8
LAYER_3
 40
0.1058
 41
0.1058
 66
1
 10
0
 20
0
 30
0
  0
VERTEX
  8
LAYER_3
 10
62.012
 20
-150.5795
 42
0.09855054193
  0
VERTEX
  8
LAYER_3
 10
62.012
 20
-150.9026
  0
SEQEND
  0
POLYLINE
  8
LAYER_3
 40
0.1058
 41
0.1058
 66
1
 10
0
 20
0
 30
0
  0
VERTEX
  8
LAYER_3
 10
74.2279
 20
-150.9026
 42
0.09256584785
  0
VERTEX
  8
LAYER_3
 10
74.2279
 20
-150.5795
  0
SEQEND
  0
POLYLINE
  8
LAYER_3
 40
0.1058
 41
0.1058
 66
1
 10
0
 20
0
 30
0
  0
VERTEX
  8
LAYER_3
 10
61.997
 20
-150.9026
  0
VERTEX
  8
LAYER_3
 10
74.2429
 20
-150.9026
  0
SEQEND
  0
POLYLINE
  8
LAYER_3
 40
0.1058
 41
0.1058
 66
1
 10
0
 20
0
 30
0
  0
VERTEX
  8
LAYER_3
 10
74.2429
 20
-150.5795
  0
VERTEX
  8
LAYER_3
 10
61.997
 20
-150.5795
  0
SEQEND
  0
POLYLINE
  8
LAYER_3
 40
0.1058
 41
0.1058
 66
1
 10
0
 20
0
 30
0
  0
VERTEX
  8
LAYER_3
 10
62.2399
 20
-150.2075
 42
0.3915241219
  0
VERTEX
  8
LAYER_3
 10
61.997
 20
-150.4479
  0
SEQEND
  0
POLYLINE
  8
LAYER_3
 40
0.1058
 41
0.1058
 66
1
 10
0
 20
0
 30
0
  0
VERTEX
  8
LAYER_3
 10
74.2429
 20
-150.4479
 42
0.3977631629
  0
VERTEX
  8
LAYER_3
 10
73.9961
 20
-150.2075
  0
SEQEND
  0
POLYLINE
  8
LAYER_3
 40
0.1058
 41
0.1058
 66
1
 10
0
 20
0
 30
0
  0
VERTEX
  8
LAYER_3
 10
74.2429
 20
-150.5795
  0
VERTEX
  8
LAYER_3
 10
74.2429
 20
-150.4479
  0
SEQEND
  0
POLYLINE
  8
LAYER_3
 40
0.1058
 41
0.1058
 66
1
 10
0
 20
0
 30
0
  0
VERTEX
  8
LAYER_3
 10
61.997
 20
-150.4479
  0
VERTEX
  8
LAYER_3
 10
61.997
 20
-150.5795
  0
SEQEND
  0
POLYLINE
  8
LAYER_3
 40
0.1058
 41
0.1058
 66
1
 10
0
 20
0
 30
0
  0
VERTEX
  8
LAYER_3
 10
68.589
 20
-142.7937
  0
VERTEX
  8
LAYER_3
 10
68.6492
 20
-142.7937
  0
SEQEND
  0
POLYLINE
  8
LAYER_3
 40
0.1058
 41
0.1058
 66
1
 10
0
 20
0
 30
0
  0
VERTEX
  8
LAYER_3
 10
68.589
 20
-142.7937
 42
0.118793682
  0
VERTEX
  8
LAYER_3
 10
66.047
 20
-143.4094
 42
0.05234600409
  0
VERTEX
  8
LAYER_3
 10
64.9764
 20
-144.1048
 42
0.05480151912
  0
VERTEX
  8
LAYER_3
 10
63.9411
 20
-145.1473
 42
0.05154129769
  0
VERTEX
  8
LAYER_3
 10
63.1199
 20
-146.4246
 42
0.04978187281
  0
VERTEX
  8
LAYER_3
 10
62.549
 20
-147.8945
 42
0.0464805569
  0
VERTEX
  8
LAYER_3
 10
62.2727
 20
-149.4214
 42
0.02178662354
  0
VERTEX
  8
LAYER_3
 10
62.2399
 20
-150.1762
  0
VERTEX
  8
LAYER_3
 10
62.2399
 20
-150.2075
  0
SEQEND
  0
POLYLINE
  8
LAYER_3
 40
0.1058
 41
0.1058
 66
1
 10
0
 20
0
 30
0
  0
VERTEX
  8
LAYER_3
 10
62.2399
 20
-150.2075
  0
VERTEX
  8
LAYER_3
 10
73.9961
 20
-150.2075
  0
SEQEND
  0
POLYLINE
  8
LAYER_3
 40
0.1058
 41
0.1058
 66
1
 10
0
 20
0
 30
0
  0
VERTEX
  8
LAYER_3
 10
73.1671
 20
-142.7937
  0
VERTEX
  8
LAYER_3
 10
68.6492
 20
-142.7937
  0
SEQEND
  0
POLYLINE
  8
LAYER_3
 40
0.1058
 41
0.1058
 66
1
 10
0
 20
0
 30
0
  0
VERTEX
  8
LAYER_3
 10
73.8722
 20
-143.2021
 42
0.2608901227
  0
VERTEX
  8
LAYER_3
 10
73.1671
 20
-142.7937
  0
SEQEND
  0
POLYLINE
  8
LAYER_3
 40
0.1058
 41
0.1058
 66
1
 10
0
 20
0
 30
0
  0
VERTEX
  8
LAYER_3
 10
73.8722
 20
-143.2021
 42
0.259162251
  0
VERTEX
  8
LAYER_3
 10
74.5698
 20
-143.6066
  0
SEQEND
  0
POLYLINE
  8
LAYER_3
 40
0.1058
 41
0.1058
 66
1
 10
0
 20
0
 30
0
  0
VERTEX
  8
LAYER_3
 10
74.5698
 20
-143.6066
  0
VERTEX
  8
LAYER_3
 10
78.1333
 20
-143.6066
  0
SEQEND
  0
POLYLINE
  8
LAYER_3
 40
0.1058
 41
0.1058
 66
1
 10
0
 20
0
 30
0
  0
VERTEX
  8
LAYER_3
 10
74.2429
 20
-150.4179
  0
VERTEX
  8
LAYER_3
 10
74.3244
 20
-150.4179
  0
SEQEND
  0
POLYLINE
  8
LAYER_3
 40
0.1058
 41
0.1058
 66
1
 10
0
 20
0
 30
0
  0
VERTEX
  8
LAYER_3
 10
74.3244
 20
-150.4179
  0
VERTEX
  8
LAYER_3
 10
74.3244
 20
-150.741
  0
SEQEND
  0
POLYLINE
  8
LAYER_3
 40
0.1058
 41
0.1058
 66
1
 10
0
 20
0
 30
0
  0
VERTEX
  8
LAYER_3
 10
74.4032
 20
-150.8225
  0
SEQEND
  0
POLYLINE
  8
LAYER_3
 40
0.1058
 41
0.1058
 66
1
 10
0
 20
0
 30
0
  0
VERTEX
  8
LAYER_3
 10
74.3244
 20
-150.741
 42
0.3985746694
  0
VERTEX
  8
LAYER_3
 10
74.4032
 20
-150.8225
  0
SEQEND
  0
POLYLINE
  8
LAYER_3
 40
0.1058
 41
0.1058
 66
1
 10
0
 20
0
 30
0
  0
VERTEX
  8
LAYER_3
 10
74.4834
 20
-150.741
  0
VERTEX
  8
LAYER_3
 10
74.4834
 20
-150.5795
  0
SEQEND
  0
POLYLINE
  8
LAYER_3
 40
0.1058
 41
0.1058
 66
1
 10
0
 20
0
 30
0
  0
VERTEX
  8
LAYER_3
 10
74.4032
 20
-150.8225
 42
0.3974631253
  0
VERTEX
  8
LAYER_3
 10
74.4834
 20
-150.741
  0
SEQEND
  0
POLYLINE
  8
LAYER_3
 40
0.1058
 41
0.1058
 66
1
 10
0
 20
0
 30
0
  0
VERTEX
  8
LAYER_3
 10
77.9717
 20
-150.5795
  0
VERTEX
  8
LAYER_3
 10
74.4834
 20
-150.5795
  0
SEQEND
  0
POLYLINE
  8
LAYER_3
 40
0.1058
 41
0.1058
 66
1
 10
0
 20
0
 30
0
  0
VERTEX
  8
LAYER_3
 10
73.9837
 20
-144.0476
  0
VERTEX
  8
LAYER_3
 10
73.9837
 20
-149.8392
  0
SEQEND
  0
POLYLINE
  8
LAYER_3
 40
0.1058
 41
0.1058
 66
1
 10
0
 20
0
 30
0
  0
VERTEX
  8
LAYER_3
 10
77.9717
 20
-150.5795
 42
0.4142072018
  0
VERTEX
  8
LAYER_3
 10
78.1333
 20
-150.4179
  0
SEQEND
  0
POLYLINE
  8
LAYER_3
 40
0.1058
 41
0.1058
 66
1
 10
0
 20
0
 30
0
  0
VERTEX
  8
LAYER_3
 10
62.2399
 20
-151.3497
  0
SEQEND
  0
POLYLINE
  8
LAYER_3
 40
0.1058
 41
0.1058
 66
1
 10
0
 20
0
 30
0
  0
VERTEX
  8
LAYER_3
 10
62.2399
 20
-151.3497
  0
SEQEND
  0
POLYLINE
  8
LAYER_3
 40
0.1058
 41
0.1058
 66
1
 10
0
 20
0
 30
0
  0
VERTEX
  8
LAYER_3
 10
70.5003
 20
-155.6072
 42
0.3923401745
  0
VERTEX
  8
LAYER_3
 10
71.3145
 20
-154.7967
  0
SEQEND
  0
POLYLINE
  8
LAYER_3
 40
0.1058
 41
0.1058
 66
1
 10
0
 20
0
 30
0
  0
VERTEX
  8
LAYER_3
 10
70.5003
 20
-155.6072
  0
VERTEX
  8
LAYER_3
 10
62.2399
 20
-155.6072
  0
SEQEND
  0
POLYLINE
  8
LAYER_3
 40
0.1058
 41
0.1058
 66
1
 10
0
 20
0
 30
0
  0
VERTEX
  8
LAYER_3
 10
68.4
 20
-156.0931
 42
0.3964920474
  0
VERTEX
  8
LAYER_3
 10
68.1595
 20
-156.3373
  0
SEQEND
  0
POLYLINE
  8
LAYER_3
 40
0.1058
 41
0.1058
 66
1
 10
0
 20
0
 30
0
  0
VERTEX
  8
LAYER_3
 10
67.6722
 20
-159.6616
 42
0.4142224191
  0
VERTEX
  8
LAYER_3
 10
68.1595
 20
-159.1743
  0
SEQEND
  0
POLYLINE
  8
LAYER_3
 40
0.1058
 41
0.1058
 66
1
 10
0
 20
0
 30
0
  0
VERTEX
  8
LAYER_3
 10
68.1595
 20
-156.3373
  0
VERTEX
  8
LAYER_3
 10
68.1595
 20
-159.1743
  0
SEQEND
  0
POLYLINE
  8
LAYER_3
 40
0.1058
 41
0.1058
 66
1
 10
0
 20
0
 30
0
  0
VERTEX
  8
LAYER_3
 10
68.6454
 20
-155.7699
  0
VERTEX
  8
LAYER_3
 10
68.6454
 20
-155.8489
  0
SEQEND
  0
POLYLINE
  8
LAYER_3
 40
0.1058
 41
0.1058
 66
1
 10
0
 20
0
 30
0
  0
VERTEX
  8
LAYER_3
 10
68.4024
 20
-156.0931
 42
0.3940955284
  0
VERTEX
  8
LAYER_3
 10
68.6454
 20
-155.8489
  0
SEQEND
  0
POLYLINE
  8
LAYER_3
 40
0.1058
 41
0.1058
 66
1
 10
0
 20
0
 30
0
  0
VERTEX
  8
LAYER_3
 10
68.6316
 20
-155.7699
 42
0.1830448032
  0
VERTEX
  8
LAYER_3
 10
68.6316
 20
-155.6072
  0
SEQEND
  0
POLYLINE
  8
LAYER_3
 40
0.1058
 41
0.1058
 66
1
 10
0
 20
0
 30
0
  0
VERTEX
  8
LAYER_3
 10
62.8099
 20
-156.3373
 42
0.4141539415
  0
VERTEX
  8
LAYER_3
 10
62.5656
 20
-156.0931
  0
SEQEND
  0
POLYLINE
  8
LAYER_3
 40
0.1058
 41
0.1058
 66
1
 10
0
 20
0
 30
0
  0
VERTEX
  8
LAYER_3
 10
62.8099
 20
-159.1743
 42
0.3937086185
  0
VERTEX
  8
LAYER_3
 10
63.2959
 20
-159.6616
  0
SEQEND
  0
POLYLINE
  8
LAYER_3
 40
0.1058
 41
0.1058
 66
1
 10
0
 20
0
 30
0
  0
VERTEX
  8
LAYER_3
 10
62.8099
 20
-156.3373
  0
VERTEX
  8
LAYER_3
 10
62.8099
 20
-159.1743
  0
SEQEND
  0
POLYLINE
  8
LAYER_3
 40
0.1058
 41
0.1058
 66
1
 10
0
 20
0
 30
0
  0
VERTEX
  8
LAYER_3
 10
62.3214
 20
-155.7699
  0
VERTEX
  8
LAYER_3
 10
62.3214
 20
-155.8489
  0
SEQEND
  0
POLYLINE
  8
LAYER_3
 40
0.1058
 41
0.1058
 66
1
 10
0
 20
0
 30
0
  0
VERTEX
  8
LAYER_3
 10
62.3214
 20
-155.8489
 42
0.4142615095
  0
VERTEX
  8
LAYER_3
 10
62.5656
 20
-156.0931
  0
SEQEND
  0
POLYLINE
  8
LAYER_3
 40
0.1058
 41
0.1058
 66
1
 10
0
 20
0
 30
0
  0
VERTEX
  8
LAYER_3
 10
62.3377
 20
-155.6072
 42
0.1817876625
  0
VERTEX
  8
LAYER_3
 10
62.3377
 20
-155.7699
  0
SEQEND
  0
POLYLINE
  8
LAYER_3
 40
0.1058
 41
0.1058
 66
1
 10
0
 20
0
 30
0
  0
VERTEX
  8
LAYER_3
 10
62.5656
 20
-156.0931
  0
VERTEX
  8
LAYER_3
 10
68.4024
 20
-156.0931
  0
SEQEND
  0
POLYLINE
  8
LAYER_3
 40
0.1058
 41
0.1058
 66
1
 10
0
 20
0
 30
0
  0
VERTEX
  8
LAYER_3
 10
62.3214
 20
-155.7699
  0
VERTEX
  8
LAYER_3
 10
68.6454
 20
-155.7699
  0
SEQEND
  0
POLYLINE
  8
LAYER_3
 40
0.1058
 41
0.1058
 66
1
 10
0
 20
0
 30
0
  0
VERTEX
  8
LAYER_3
 10
67.6722
 20
-159.6616
  0
VERTEX
  8
LAYER_3
 10
63.2959
 20
-159.6616
  0
SEQEND
  0
POLYLINE
  8
LAYER_3
 40
0.1058
 41
0.1058
 66
1
 10
0
 20
0
 30
0
  0
VERTEX
  8
LAYER_3
 10
74.2429
 20
-150.9026
  0
VERTEX
  8
LAYER_3
 10
74.2429
 20
-151.0341
  0
SEQEND
  0
POLYLINE
  8
LAYER_3
 40
0.1058
 41
0.1058
 66
1
 10
0
 20
0
 30
0
  0
VERTEX
  8
LAYER_3
 10
73.9961
 20
-151.2746
 42
0.3924489137
  0
VERTEX
  8
LAYER_3
 10
74.2429
 20
-151.0341
  0
SEQEND
  0
POLYLINE
  8
LAYER_3
 40
0.1058
 41
0.1058
 66
1
 10
0
 20
0
 30
0
  0
VERTEX
  8
LAYER_3
 10
71.3145
 20
-153.8712
  0
VERTEX
  8
LAYER_3
 10
71.3145
 20
-154.7967
  0
SEQEND
  0
POLYLINE
  8
LAYER_3
 40
0.1058
 41
0.1058
 66
1
 10
0
 20
0
 30
0
  0
VERTEX
  8
LAYER_3
 10
73.906
 20
-151.2746
 42
0.3936166319
  0
VERTEX
  8
LAYER_3
 10
71.3145
 20
-153.8712
  0
SEQEND
  0
POLYLINE
  8
LAYER_3
 40
0.1058
 41
0.1058
 66
1
 10
0
 20
0
 30
0
  0
VERTEX
  8
LAYER_3
 10
62.2399
 20
-155.6072
  0
VERTEX
  8
LAYER_3
 10
62.2399
 20
-151.2746
  0
SEQEND
  0
POLYLINE
  8
LAYER_3
 40
0.1058
 41
0.1058
 66
1
 10
0
 20
0
 30
0
  0
VERTEX
  8
LAYER_3
 10
61.997
 20
-150.9026
  0
VERTEX
  8
LAYER_3
 10
61.997
 20
-151.0341
  0
SEQEND
  0
POLYLINE
  8
LAYER_3
 40
0.1058
 41
0.1058
 66
1
 10
0
 20
0
 30
0
  0
VERTEX
  8
LAYER_3
 10
61.997
 20
-151.0341
 42
0.3955543717
  0
VERTEX
  8
LAYER_3
 10
62.2399
 20
-151.2746
  0
SEQEND
  0
POLYLINE
  8
LAYER_3
 40
0.1058
 41
0.1058
 66
1
 10
0
 20
0
 30
0
  0
VERTEX
  8
LAYER_3
 10
62.2399
 20
-151.2746
  0
VERTEX
  8
LAYER_3
 10
73.9961
 20
-151.2746
  0
SEQEND
  0
POLYLINE
  8
LAYER_3
  6
AIGENLINE001
 40
0.1058
 41
0.1058
 66
1
 10
0
 20
0
 30
0
 70
128
  0
VERTEX
  8
LAYER_3
 10
65.4853
 20
-148.39
  0
VERTEX
  8
LAYER_3
 10
65.4853
 20
-160.0561
  0
SEQEND
  0
POLYLINE
  8
LAYER_3
 40
0.1058
 41
0.1058
 66
1
 10
0
 20
0
 30
0
  0
VERTEX
  8
LAYER_3
 10
69.7964
 20
-163.7159
  0
VERTEX
  8
LAYER_3
 10
69.7964
 20
-155.6072
  0
SEQEND
  0
POLYLINE
  8
LAYER_3
 40
0.1058
 41
0.1058
 66
1
 10
0
 20
0
 30
0
  0
VERTEX
  8
LAYER_3
 10
68.9548
 20
-163.7159
  0
VERTEX
  8
LAYER_3
 10
68.9548
 20
-155.6072
  0
SEQEND
  0
POLYLINE
  8
LAYER_3
 40
0.1058
 41
0.1058
 66
1
 10
0
 20
0
 30
0
  0
VERTEX
  8
LAYER_3
 10
83.4002
 20
-142.145
  0
VERTEX
  8
LAYER_3
 10
83.2373
 20
-142.3077
  0
SEQEND
  0
POLYLINE
  8
LAYER_3
 40
0.1058
 41
0.1058
 66
1
 10
0
 20
0
 30
0
  0
VERTEX
  8
LAYER_3
 10
80.1612
 20
-142.3077
  0
VERTEX
  8
LAYER_3
 10
81.7005
 20
-142.3077
  0
SEQEND
  0
POLYLINE
  8
LAYER_3
 40
0.1058
 41
0.1058
 66
1
 10
0
 20
0
 30
0
  0
VERTEX
  8
LAYER_3
 10
83.2399
 20
-142.3077
  0
VERTEX
  8
LAYER_3
 10
81.7005
 20
-142.3077
  0
SEQEND
  0
POLYLINE
  8
LAYER_3
 40
0.1058
 41
0.1058
 66
1
 10
0
 20
0
 30
0
  0
VERTEX
  8
LAYER_3
 10
83.4002
 20
-141.1742
  0
VERTEX
  8
LAYER_3
 10
83.4002
 20
-142.145
  0
SEQEND
  0
POLYLINE
  8
LAYER_3
 40
0.1058
 41
0.1058
 66
1
 10
0
 20
0
 30
0
  0
VERTEX
  8
LAYER_3
 10
83.2123
 20
-141.1742
  0
VERTEX
  8
LAYER_3
 10
83.2123
 20
-141.4974
  0
SEQEND
  0
POLYLINE
  8
LAYER_3
 40
0.1058
 41
0.1058
 66
1
 10
0
 20
0
 30
0
  0
VERTEX
  8
LAYER_3
 10
83.2123
 20
-141.4974
  0
VERTEX
  8
LAYER_3
 10
83.4002
 20
-141.8256
  0
SEQEND
  0
POLYLINE
  8
LAYER_3
 40
0.1058
 41
0.1058
 66
1
 10
0
 20
0
 30
0
  0
VERTEX
  8
LAYER_3
 10
81.7005
 20
-141.4974
  0
VERTEX
  8
LAYER_3
 10
83.4002
 20
-141.4974
  0
SEQEND
  0
POLYLINE
  8
LAYER_3
 40
0.1058
 41
0.1058
 66
1
 10
0
 20
0
 30
0
  0
VERTEX
  8
LAYER_3
 10
79.9996
 20
-142.145
  0
VERTEX
  8
LAYER_3
 10
80.1649
 20
-142.3077
  0
SEQEND
  0
POLYLINE
  8
LAYER_3
 40
0.1058
 41
0.1058
 66
1
 10
0
 20
0
 30
0
  0
VERTEX
  8
LAYER_3
 10
79.9996
 20
-141.1742
  0
VERTEX
  8
LAYER_3
 10
79.9996
 20
-142.145
  0
SEQEND
  0
POLYLINE
  8
LAYER_3
 40
0.1058
 41
0.1058
 66
1
 10
0
 20
0
 30
0
  0
VERTEX
  8
LAYER_3
 10
80.1899
 20
-141.1742
  0
VERTEX
  8
LAYER_3
 10
80.1899
 20
-141.4974
  0
SEQEND
  0
POLYLINE
  8
LAYER_3
 40
0.1058
 41
0.1058
 66
1
 10
0
 20
0
 30
0
  0
VERTEX
  8
LAYER_3
 10
80.1899
 20
-141.4974
  0
VERTEX
  8
LAYER_3
 10
79.9996
 20
-141.8256
  0
SEQEND
  0
POLYLINE
  8
LAYER_3
 40
0.1058
 41
0.1058
 66
1
 10
0
 20
0
 30
0
  0
VERTEX
  8
LAYER_3
 10
81.7005
 20
-141.4974
  0
VERTEX
  8
LAYER_3
 10
79.9996
 20
-141.4974
  0
SEQEND
  0
POLYLINE
  8
LAYER_3
 40
0.1058
 41
0.1058
 66
1
 10
0
 20
0
 30
0
  0
VERTEX
  8
LAYER_3
 10
83.4002
 20
-142.145
  0
VERTEX
  8
LAYER_3
 10
81.7005
 20
-142.145
  0
SEQEND
  0
POLYLINE
  8
LAYER_3
 40
0.1058
 41
0.1058
 66
1
 10
0
 20
0
 30
0
  0
VERTEX
  8
LAYER_3
 10
81.7005
 20
-142.145
  0
VERTEX
  8
LAYER_3
 10
79.9996
 20
-142.145
  0
SEQEND
  0
POLYLINE
  8
LAYER_3
 40
0.1058
 41
0.1058
 66
1
 10
0
 20
0
 30
0
  0
VERTEX
  8
LAYER_3
 10
83.3225
 20
-142.3892
  0
VERTEX
  8
LAYER_3
 10
81.7005
 20
-142.3892
  0
SEQEND
  0
POLYLINE
  8
LAYER_3
 40
0.1058
 41
0.1058
 66
1
 10
0
 20
0
 30
0
  0
VERTEX
  8
LAYER_3
 10
81.7005
 20
-142.3892
  0
VERTEX
  8
LAYER_3
 10
80.0797
 20
-142.3892
  0
SEQEND
  0
POLYLINE
  8
LAYER_3
 40
0.1058
 41
0.1058
 66
1
 10
0
 20
0
 30
0
  0
VERTEX
  8
LAYER_3
 10
80.0797
 20
-143.8484
  0
VERTEX
  8
LAYER_3
 10
80.0797
 20
-150.1762
  0
SEQEND
  0
POLYLINE
  8
LAYER_3
 40
0.1058
 41
0.1058
 66
1
 10
0
 20
0
 30
0
  0
VERTEX
  8
LAYER_3
 10
82.5122
 20
-147.8215
  0
VERTEX
  8
LAYER_3
 10
80.0797
 20
-147.8215
  0
SEQEND
  0
POLYLINE
  8
LAYER_3
 40
0.1058
 41
0.1058
 66
1
 10
0
 20
0
 30
0
  0
VERTEX
  8
LAYER_3
 10
82.9994
 20
-145.0658
  0
VERTEX
  8
LAYER_3
 10
80.0797
 20
-145.0658
  0
SEQEND
  0
POLYLINE
  8
LAYER_3
  6
AIGENLINE001
 40
0.1058
 41
0.1058
 66
1
 10
0
 20
0
 30
0
 70
128
  0
VERTEX
  8
LAYER_3
 10
153.9437
 20
-105.6475
  0
VERTEX
  8
LAYER_3
 10
153.9437
 20
-161.1696
  0
SEQEND
  0
POLYLINE
  8
LAYER_3
 40
0.1058
 41
0.1058
 66
1
 10
0
 20
0
 30
0
  0
VERTEX
  8
LAYER_3
 10
79.9996
 20
-141.1742
  0
VERTEX
  8
LAYER_3
 10
81.7005
 20
-141.1742
  0
SEQEND
  0
POLYLINE
  8
LAYER_3
 40
0.1058
 41
0.1058
 66
1
 10
0
 20
0
 30
0
  0
VERTEX
  8
LAYER_3
 10
81.7005
 20
-141.1742
  0
VERTEX
  8
LAYER_3
 10
83.4002
 20
-141.1742
  0
SEQEND
  0
POLYLINE
  8
LAYER_3
 40
0.1058
 41
0.1058
 66
1
 10
0
 20
0
 30
0
  0
VERTEX
  8
LAYER_3
 10
153.5229
 20
-160.6836
  0
VERTEX
  8
LAYER_3
 10
153.5229
 20
-163.7159
  0
SEQEND
  0
POLYLINE
  8
LAYER_3
 40
0.1058
 41
0.1058
 66
1
 10
0
 20
0
 30
0
  0
VERTEX
  8
LAYER_3
 10
155.988
 20
-166.1797
  0
VERTEX
  8
LAYER_3
 10
177.6642
 20
-166.1797
  0
SEQEND
  0
POLYLINE
  8
LAYER_3
 40
0.1058
 41
0.1058
 66
1
 10
0
 20
0
 30
0
  0
VERTEX
  8
LAYER_3
 10
153.5229
 20
-163.7159
 42
0.4142243184
  0
VERTEX
  8
LAYER_3
 10
155.988
 20
-166.1797
  0
SEQEND
  0
POLYLINE
  8
LAYER_3
 40
0.1058
 41
0.1058
 66
1
 10
0
 20
0
 30
0
  0
VERTEX
  8
LAYER_3
 10
154.3671
 20
-160.6836
  0
VERTEX
  8
LAYER_3
 10
154.3671
 20
-163.7159
  0
SEQEND
  0
POLYLINE
  8
LAYER_3
 40
0.1058
 41
0.1058
 66
1
 10
0
 20
0
 30
0
  0
VERTEX
  8
LAYER_3
 10
155.988
 20
-165.3368
  0
VERTEX
  8
LAYER_3
 10
177.6642
 20
-165.3368
  0
SEQEND
  0
POLYLINE
  8
LAYER_3
 40
0.1058
 41
0.1058
 66
1
 10
0
 20
0
 30
0
  0
VERTEX
  8
LAYER_3
 10
154.3671
 20
-163.7159
 42
0.414229916
  0
VERTEX
  8
LAYER_3
 10
155.988
 20
-165.3368
  0
SEQEND
  0
POLYLINE
  8
LAYER_3
 40
0.1058
 41
0.1058
 66
1
 10
0
 20
0
 30
0
  0
VERTEX
  8
LAYER_3
 10
177.6642
 20
-165.3368
 42
-0.3699907458
  0
VERTEX
  8
LAYER_3
 10
177.6642
 20
-165.5071
 42
0.1870114594
  0
VERTEX
  8
LAYER_3
 10
177.6316
 20
-165.5911
 42
0.1750594541
  0
VERTEX
  8
LAYER_3
 10
177.6642
 20
-165.675
 42
-0.1935638706
  0
VERTEX
  8
LAYER_3
 10
177.6968
 20
-165.7564
 42
-0.198455124
  0
VERTEX
  8
LAYER_3
 10
177.6642
 20
-165.8416
 42
0.1765373183
  0
VERTEX
  8
LAYER_3
 10
177.6316
 20
-165.928
 42
0.1932448922
  0
VERTEX
  8
LAYER_3
 10
177.6642
 20
-166.0106
 42
-0.1802263694
  0
VERTEX
  8
LAYER_3
 10
177.6968
 20
-166.0958
 42
-0.2003672198
  0
VERTEX
  8
LAYER_3
 10
177.6642
 20
-166.1797
  0
SEQEND
  0
POLYLINE
  8
LAYER_3
 40
0.1058
 41
0.1058
 66
1
 10
0
 20
0
 30
0
  0
VERTEX
  8
LAYER_3
 10
68.9548
 20
-163.7159
 42
-0.3708799751
  0
VERTEX
  8
LAYER_3
 10
69.1226
 20
-163.7159
 42
0.1931934335
  0
VERTEX
  8
LAYER_3
 10
69.2077
 20
-163.7511
 42
0.1762295952
  0
VERTEX
  8
LAYER_3
 10
69.2929
 20
-163.7159
 42
-0.2010734294
  0
VERTEX
  8
LAYER_3
 10
69.3769
 20
-163.6822
 42
-0.187321132
  0
VERTEX
  8
LAYER_3
 10
69.4621
 20
-163.7159
 42
0.2048350268
  0
VERTEX
  8
LAYER_3
 10
69.5422
 20
-163.7511
 42
0.2024707595
  0
VERTEX
  8
LAYER_3
 10
69.6274
 20
-163.7159
 42
-0.1881862343
  0
VERTEX
  8
LAYER_3
 10
69.7138
 20
-163.6822
 42
-0.2174962514
  0
VERTEX
  8
LAYER_3
 10
69.7964
 20
-163.7159
  0
SEQEND
  0
POLYLINE
  8
LAYER_3
  6
AIGENLINE001
 40
0.1058
 41
0.1058
 66
1
 10
0
 20
0
 30
0
 70
128
  0
VERTEX
  8
LAYER_3
 10
80.8901
 20
-147.8215
  0
VERTEX
  8
LAYER_3
 10
80.8901
 20
-163.7648
  0
SEQEND
  0
POLYLINE
  8
LAYER_3
  6
AIGENLINE001
 40
0.1058
 41
0.1058
 66
1
 10
0
 20
0
 30
0
 70
128
  0
VERTEX
  8
LAYER_3
 10
81.7005
 20
-51.8252
  0
VERTEX
  8
LAYER_3
 10
81.7005
 20
-147.4983
  0
SEQEND
  0
INSERT
  8
LAYER_6
  2
AIGNBL06010002
 10
0
 20
0
 30
0
  0
POLYLINE
  8
LAYER_6
 40
0.3528
 41
0.3528
 66
1
 10
0
 20
0
 30
0
  0
VERTEX
  8
LAYER_6
 10
34.7876
 20
-258.3332
  0
VERTEX
  8
LAYER_6
 10
229.7955
 20
-258.3332
  0
VERTEX
  8
LAYER_6
 10
229.7955
 20
21.6583
  0
VERTEX
  8
LAYER_6
 10
34.7876
 20
21.6583
  0
VERTEX
  8
LAYER_6
 10
34.7876
 20
-258.3332
  0
SEQEND
  0
TEXT
  8
LAYER_6
 10
166.4505
 20
-248.7955
 11
166.4505
 21
-248.7955
 40
3.3853
 41
0.5
  1
●TEL 0120-65-1232●FAX 06-6532-1580
  0
TEXT
  8
LAYER_6
 10
166.4505
 20
-252.3102
 11
166.4505
 21
-252.3102
 40
3.3853
 41
0.5
  1
hits@hiratatile.co.jp
  0
TEXT
  8
LAYER_6
 10
218.9756
 20
18.4461
 11
218.9756
 21
18.4461
 40
2.0732
 41
0.5
  1
190703RT
  0
TEXT
  8
LAYER_6
 10
37.8495
 20
-250.3797
 11
37.8495
 21
-250.3797
 40
3.2995
 41
0.5
  1
仕様
  0
POLYLINE
  8
LAYER_6
 40
0.3528
 41
0.3528
 66
1
 10
0
 20
0
 30
0
  0
VERTEX
  8
LAYER_6
 10
229.7955
 20
-241.6001
  0
VERTEX
  8
LAYER_6
 10
34.7874
 20
-241.6001
  0
SEQEND
  0
POLYLINE
  8
LAYER_6
 40
0.3528
 41
0.3528
 66
1
 10
0
 20
0
 30
0
  0
VERTEX
  8
LAYER_6
 10
229.7955
 20
-233.091
  0
VERTEX
  8
LAYER_6
 10
34.7874
 20
-233.091
  0
SEQEND
  0
TEXT
  8
LAYER_6
 10
35.9444
 20
-235.5675
 11
35.9444
 21
-235.5675
 40
2.1997
 41
0.5
  1
品名
  0
TEXT
  8
LAYER_6
 10
48.7874
 20
-238.6599
 11
48.7874
 21
-238.6599
 40
3.6373
 41
0.5
  1
センサー式単水栓（電池式）
  0
TEXT
  8
LAYER_6
 10
48.4217
 20
-250.3883
 11
48.4217
 21
-250.3883
 40
3.1177
 41
0.5
  1
●排水金具別途
  0
TEXT
  8
LAYER_6
 10
136.1566
 20
-235.5677
 11
136.1566
 21
-235.5677
 40
2.1997
 41
0.5
  1
品番
  0
TEXT
  8
LAYER_6
 10
142.1786
 20
-240.0443
 11
142.1786
 21
-240.0443
 40
5.9385
 41
0.5
  1
AQ-E1700DL3(M4)(M5)(S)(BN)
  0
ENDSEC
  0
EOF
