  0
SECTION
  2
HEADER
  9
$ACADVER
  1
AC1009
  9
$LUNITS
 70
2
  9
$LUPREC
 70
4
  9
$LTSCALE
 40
1.0
  9
$EXTMIN
 10
33.7873
 20
-259.334
 30
0
  9
$EXTMAX
 10
497.1273
 20
22.6587
 30
0
  0
ENDSEC
  0
SECTION
  2
TABLES
  0
TABLE
  2
LTYPE
 70
256
  0
LTYPE
  2
AIGENLINE001
 70
64
  3
generate AI->DXF Converter
 72
65
 73
4
 40
2
 49
1.25
 49
-0.25
 49
0.25
 49
-0.25
  0
ENDTAB
  0
TABLE
  2
LAYER
 70
6
  0
LAYER
  2
LAYER_1
 70
64
 62
7
  6
CONTINUOUS
  0
LAYER
  2
LAYER_2
 70
64
 62
7
  6
CONTINUOUS
  0
LAYER
  2
LAYER_3
 70
64
 62
7
  6
CONTINUOUS
  0
LAYER
  2
LAYER_4
 70
64
 62
7
  6
CONTINUOUS
  0
LAYER
  2
LAYER_5
 70
64
 62
7
  6
CONTINUOUS
  0
LAYER
  2
LAYER_6
 70
64
 62
7
  6
CONTINUOUS
  0
ENDTAB
  0
TABLE
  2
STYLE
 70
6
  0
STYLE
  2
STANDARD
 70
0
 40
0
 50
0
 71
0
 41
0
 42
0
  3
TXT
  4
BIGFONT
  0
ENDTAB
  0
ENDSEC
  0
SECTION
  2
BLOCKS
  0
BLOCK
  8
LAYER_1
  2
AIGNBL01040005
 70
64
 10
0
 20
0
 30
0
  3
AIGNBL01040005
  0
POLYLINE
  8
LAYER_1
 40
0.05
 41
0.05
 66
1
 10
0
 20
0
 30
0
 70
1
  0
VERTEX
  8
LAYER_1
 10
138.3767
 20
-249.1011
  0
VERTEX
  8
LAYER_1
 10
137.891
 20
-250.2793
  0
VERTEX
  8
LAYER_1
 10
137.2664
 20
-250.2793
  0
VERTEX
  8
LAYER_1
 10
138.857
 20
-246.5355
  0
VERTEX
  8
LAYER_1
 10
139.586
 20
-246.5355
  0
VERTEX
  8
LAYER_1
 10
141.1828
 20
-250.2793
  0
VERTEX
  8
LAYER_1
 10
140.5365
 20
-250.2793
  0
VERTEX
  8
LAYER_1
 10
140.0369
 20
-249.1011
  0
SEQEND
  0
POLYLINE
  8
LAYER_1
 40
0.05
 41
0.05
 66
1
 10
0
 20
0
 30
0
 70
1
  0
VERTEX
  8
LAYER_1
 10
139.9115
 20
-248.7245
  0
VERTEX
  8
LAYER_1
 10
139.4533
 20
-247.6459
 42
-0.02267506524
  0
VERTEX
  8
LAYER_1
 10
139.2101
 20
-246.963
  0
VERTEX
  8
LAYER_1
 10
139.1967
 20
-246.963
 42
-0.02084266043
  0
VERTEX
  8
LAYER_1
 10
138.9603
 20
-247.6414
  0
VERTEX
  8
LAYER_1
 10
138.5021
 20
-248.7245
  0
SEQEND
  0
ENDBLK
  0
BLOCK
  8
LAYER_1
  2
AIGNBL01040006
 70
64
 10
0
 20
0
 30
0
  3
AIGNBL01040006
  0
POLYLINE
  8
LAYER_1
 40
0.05
 41
0.05
 66
1
 10
0
 20
0
 30
0
 70
1
  0
VERTEX
  8
LAYER_1
 10
145.5226
 20
-250.8295
 42
-0.01550180985
  0
VERTEX
  8
LAYER_1
 10
143.7311
 20
-250.3954
 42
0.09208348225
  0
VERTEX
  8
LAYER_1
 10
143.4465
 20
-250.3406
 42
-0.09252107557
  0
VERTEX
  8
LAYER_1
 10
142.4981
 20
-250.139
 42
-0.09792797557
  0
VERTEX
  8
LAYER_1
 10
141.8642
 20
-249.7067
 42
-0.1631033753
  0
VERTEX
  8
LAYER_1
 10
141.401
 20
-248.7192
 42
-0.03157985926
  0
VERTEX
  8
LAYER_1
 10
141.3839
 20
-248.4469
 42
-0.1088259969
  0
VERTEX
  8
LAYER_1
 10
141.5673
 20
-247.5875
 42
-0.1618048679
  0
VERTEX
  8
LAYER_1
 10
142.3628
 20
-246.7577
 42
-0.09175073832
  0
VERTEX
  8
LAYER_1
 10
143.1629
 20
-246.5018
 42
-0.03454354202
  0
VERTEX
  8
LAYER_1
 10
143.5644
 20
-246.4745
 42
-0.09527006366
  0
VERTEX
  8
LAYER_1
 10
144.5227
 20
-246.6511
 42
-0.1001818692
  0
VERTEX
  8
LAYER_1
 10
145.1563
 20
-247.0713
 42
-0.1611434138
  0
VERTEX
  8
LAYER_1
 10
145.6402
 20
-248.0664
 42
-0.03591204318
  0
VERTEX
  8
LAYER_1
 10
145.6617
 20
-248.3686
 42
-0.1066586367
  0
VERTEX
  8
LAYER_1
 10
145.4864
 20
-249.2186
 42
-0.2185717489
  0
VERTEX
  8
LAYER_1
 10
144.3825
 20
-250.147
 42
-0.006705231958
  0
VERTEX
  8
LAYER_1
 10
144.3281
 20
-250.1628
  0
VERTEX
  8
LAYER_1
 10
144.3281
 20
-250.1852
 42
0.01501268135
  0
VERTEX
  8
LAYER_1
 10
145.6965
 20
-250.424
  0
SEQEND
  0
POLYLINE
  8
LAYER_1
 40
0.05
 41
0.05
 66
1
 10
0
 20
0
 30
0
 70
1
  0
VERTEX
  8
LAYER_1
 10
145.0233
 20
-248.39
 42
0.1175404168
  0
VERTEX
  8
LAYER_1
 10
144.842
 20
-247.6261
 42
0.1170585149
  0
VERTEX
  8
LAYER_1
 10
144.419
 20
-247.1311
 42
0.1200111465
  0
VERTEX
  8
LAYER_1
 10
143.8094
 20
-246.8884
 42
0.0377207096
  0
VERTEX
  8
LAYER_1
 10
143.5433
 20
-246.8687
 42
0.1152954241
  0
VERTEX
  8
LAYER_1
 10
142.8054
 20
-247.0324
 42
0.1853004926
  0
VERTEX
  8
LAYER_1
 10
142.1509
 20
-247.7624
 42
0.09848637078
  0
VERTEX
  8
LAYER_1
 10
142.0296
 20
-248.4344
 42
0.120860713
  0
VERTEX
  8
LAYER_1
 10
142.2045
 20
-249.1849
 42
0.2836170694
  0
VERTEX
  8
LAYER_1
 10
143.5161
 20
-249.9468
 42
0.1188766714
  0
VERTEX
  8
LAYER_1
 10
144.2605
 20
-249.7757
 42
0.1796046283
  0
VERTEX
  8
LAYER_1
 10
144.8972
 20
-249.063
 42
0.09851098502
  0
SEQEND
  0
ENDBLK
  0
BLOCK
  8
LAYER_1
  2
AIGNBL01040007
 70
64
 10
0
 20
0
 30
0
  3
AIGNBL01040007
  0
POLYLINE
  8
LAYER_1
 40
0.05
 41
0.05
 66
1
 10
0
 20
0
 30
0
 70
1
  0
VERTEX
  8
LAYER_1
 10
146.9815
 20
-246.5355
  0
VERTEX
  8
LAYER_1
 10
146.9815
 20
-248.7517
 42
0.1257910062
  0
VERTEX
  8
LAYER_1
 10
147.1475
 20
-249.4752
 42
0.2217269733
  0
VERTEX
  8
LAYER_1
 10
147.7914
 20
-249.9203
 42
0.04937688774
  0
VERTEX
  8
LAYER_1
 10
148.0716
 20
-249.9468
 42
0.1302851362
  0
VERTEX
  8
LAYER_1
 10
148.7372
 20
-249.787
 42
0.1509632316
  0
VERTEX
  8
LAYER_1
 10
149.0862
 20
-249.3957
 42
0.1174446198
  0
VERTEX
  8
LAYER_1
 10
149.2105
 20
-248.7517
  0
VERTEX
  8
LAYER_1
 10
149.2105
 20
-246.5355
  0
VERTEX
  8
LAYER_1
 10
149.8217
 20
-246.5355
  0
VERTEX
  8
LAYER_1
 10
149.8217
 20
-248.7187
 42
-0.1106784388
  0
VERTEX
  8
LAYER_1
 10
149.6531
 20
-249.5323
 42
-0.1857051526
  0
VERTEX
  8
LAYER_1
 10
148.9481
 20
-250.1807
 42
-0.09650175554
  0
VERTEX
  8
LAYER_1
 10
148.1451
 20
-250.3392
 42
-0.007939811217
  0
VERTEX
  8
LAYER_1
 10
148.0509
 20
-250.3406
 42
-0.102315967
  0
VERTEX
  8
LAYER_1
 10
147.1661
 20
-250.1733
 42
-0.1218859814
  0
VERTEX
  8
LAYER_1
 10
146.6722
 20
-249.7872
 42
-0.1186228201
  0
VERTEX
  8
LAYER_1
 10
146.4122
 20
-249.188
 42
-0.0498693672
  0
VERTEX
  8
LAYER_1
 10
146.3707
 20
-248.7404
  0
VERTEX
  8
LAYER_1
 10
146.3707
 20
-246.5355
  0
SEQEND
  0
ENDBLK
  0
BLOCK
  8
LAYER_1
  2
AIGNBL01040008
 70
64
 10
0
 20
0
 30
0
  3
AIGNBL01040008
  0
POLYLINE
  8
LAYER_1
 40
0.05
 41
0.05
 66
1
 10
0
 20
0
 30
0
 70
1
  0
VERTEX
  8
LAYER_1
 10
151.5573
 20
-249.1011
  0
VERTEX
  8
LAYER_1
 10
151.0709
 20
-250.2793
  0
VERTEX
  8
LAYER_1
 10
150.447
 20
-250.2793
  0
VERTEX
  8
LAYER_1
 10
152.0365
 20
-246.5355
  0
VERTEX
  8
LAYER_1
 10
152.7655
 20
-246.5355
  0
VERTEX
  8
LAYER_1
 10
154.3623
 20
-250.2793
  0
VERTEX
  8
LAYER_1
 10
153.7167
 20
-250.2793
  0
VERTEX
  8
LAYER_1
 10
153.2175
 20
-249.1011
  0
SEQEND
  0
POLYLINE
  8
LAYER_1
 40
0.05
 41
0.05
 66
1
 10
0
 20
0
 30
0
 70
1
  0
VERTEX
  8
LAYER_1
 10
153.0921
 20
-248.7245
  0
VERTEX
  8
LAYER_1
 10
152.6332
 20
-247.6459
 42
-0.02235179902
  0
VERTEX
  8
LAYER_1
 10
152.3897
 20
-246.963
  0
VERTEX
  8
LAYER_1
 10
152.3759
 20
-246.963
 42
-0.02046417189
  0
VERTEX
  8
LAYER_1
 10
152.1402
 20
-247.6414
  0
VERTEX
  8
LAYER_1
 10
151.682
 20
-248.7245
  0
SEQEND
  0
ENDBLK
  0
BLOCK
  8
LAYER_1
  2
AIGNBL01040009
 70
64
 10
0
 20
0
 30
0
  3
AIGNBL01040009
  0
POLYLINE
  8
LAYER_1
 40
0.05
 41
0.05
 66
1
 10
0
 20
0
 30
0
 70
1
  0
VERTEX
  8
LAYER_1
 10
155.3969
 20
-246.58
 42
-0.03349666815
  0
VERTEX
  8
LAYER_1
 10
156.5576
 20
-246.5072
 42
-0.09004353297
  0
VERTEX
  8
LAYER_1
 10
157.6057
 20
-246.6749
 42
-0.05888505928
  0
VERTEX
  8
LAYER_1
 10
157.8691
 20
-246.8184
 42
-0.2472492651
  0
VERTEX
  8
LAYER_1
 10
158.279
 20
-247.6018
 42
-0.1502534052
  0
VERTEX
  8
LAYER_1
 10
158.1063
 20
-248.1984
 42
-0.07033867127
  0
VERTEX
  8
LAYER_1
 10
157.9177
 20
-248.4014
 42
-0.1211283655
  0
VERTEX
  8
LAYER_1
 10
157.2351
 20
-248.728
 42
-0.06222086556
  0
VERTEX
  8
LAYER_1
 10
156.4872
 20
-248.8127
 42
-0.05750856268
  0
VERTEX
  8
LAYER_1
 10
156.0015
 20
-248.7793
  0
VERTEX
  8
LAYER_1
 10
156.0015
 20
-250.2793
  0
VERTEX
  8
LAYER_1
 10
155.3969
 20
-250.2793
  0
SEQEND
  0
POLYLINE
  8
LAYER_1
 40
0.05
 41
0.05
 66
1
 10
0
 20
0
 30
0
 70
1
  0
VERTEX
  8
LAYER_1
 10
156.0015
 20
-248.3852
 42
0.04897120882
  0
VERTEX
  8
LAYER_1
 10
156.501
 20
-248.4245
 42
0.1137012619
  0
VERTEX
  8
LAYER_1
 10
157.2816
 20
-248.2659
 42
0.1652714782
  0
VERTEX
  8
LAYER_1
 10
157.6173
 20
-247.9196
 42
0.1043893073
  0
VERTEX
  8
LAYER_1
 10
157.6751
 20
-247.6242
 42
0.2865639904
  0
VERTEX
  8
LAYER_1
 10
157.3169
 20
-247.0395
 42
0.06445412413
  0
VERTEX
  8
LAYER_1
 10
157.0376
 20
-246.9388
 42
0.05784391407
  0
VERTEX
  8
LAYER_1
 10
156.5713
 20
-246.891
 42
0.05268039105
  0
VERTEX
  8
LAYER_1
 10
156.0015
 20
-246.93
  0
SEQEND
  0
ENDBLK
  0
BLOCK
  8
LAYER_1
  2
AIGNBL0104000A
 70
64
 10
0
 20
0
 30
0
  3
AIGNBL0104000A
  0
POLYLINE
  8
LAYER_1
 40
0.05
 41
0.05
 66
1
 10
0
 20
0
 30
0
 70
1
  0
VERTEX
  8
LAYER_1
 10
159.8218
 20
-246.8352
 42
-0.3039545568
  0
VERTEX
  8
LAYER_1
 10
159.6562
 20
-247.0887
 42
-0.1152466046
  0
VERTEX
  8
LAYER_1
 10
159.4325
 20
-247.1356
 42
-0.2445179838
  0
VERTEX
  8
LAYER_1
 10
159.1045
 20
-246.9759
 42
-0.1392448976
  0
VERTEX
  8
LAYER_1
 10
159.0645
 20
-246.8352
 42
-0.2871964131
  0
VERTEX
  8
LAYER_1
 10
159.2352
 20
-246.5772
 42
-0.118108641
  0
VERTEX
  8
LAYER_1
 10
159.4459
 20
-246.53
 42
-0.2414655549
  0
VERTEX
  8
LAYER_1
 10
159.7788
 20
-246.6849
 42
-0.1427828857
  0
SEQEND
  0
POLYLINE
  8
LAYER_1
 40
0.05
 41
0.05
 66
1
 10
0
 20
0
 30
0
 70
1
  0
VERTEX
  8
LAYER_1
 10
159.1407
 20
-250.2793
  0
VERTEX
  8
LAYER_1
 10
159.1407
 20
-247.5907
  0
VERTEX
  8
LAYER_1
 10
159.7515
 20
-247.5907
  0
VERTEX
  8
LAYER_1
 10
159.7515
 20
-250.2793
  0
SEQEND
  0
ENDBLK
  0
BLOCK
  8
LAYER_1
  2
AIGNBL0104000B
 70
64
 10
0
 20
0
 30
0
  3
AIGNBL0104000B
  0
POLYLINE
  8
LAYER_1
 40
0.05
 41
0.05
 66
1
 10
0
 20
0
 30
0
 70
1
  0
VERTEX
  8
LAYER_1
 10
161.6118
 20
-249.1011
  0
VERTEX
  8
LAYER_1
 10
161.1271
 20
-250.2793
  0
VERTEX
  8
LAYER_1
 10
160.5015
 20
-250.2793
  0
VERTEX
  8
LAYER_1
 10
162.0918
 20
-246.5355
  0
VERTEX
  8
LAYER_1
 10
162.8211
 20
-246.5355
  0
VERTEX
  8
LAYER_1
 10
164.4186
 20
-250.2793
  0
VERTEX
  8
LAYER_1
 10
163.7719
 20
-250.2793
  0
VERTEX
  8
LAYER_1
 10
163.2727
 20
-249.1011
  0
SEQEND
  0
POLYLINE
  8
LAYER_1
 40
0.05
 41
0.05
 66
1
 10
0
 20
0
 30
0
 70
1
  0
VERTEX
  8
LAYER_1
 10
163.1473
 20
-248.7245
  0
VERTEX
  8
LAYER_1
 10
162.6891
 20
-247.6459
 42
-0.02473673698
  0
VERTEX
  8
LAYER_1
 10
162.4466
 20
-246.963
  0
VERTEX
  8
LAYER_1
 10
162.4321
 20
-246.963
 42
-0.01905982629
  0
VERTEX
  8
LAYER_1
 10
162.1961
 20
-247.6414
  0
VERTEX
  8
LAYER_1
 10
161.7379
 20
-248.7245
  0
SEQEND
  0
ENDBLK
  0
BLOCK
  8
LAYER_1
  2
AIGNBL01030004
 70
64
 10
0
 20
0
 30
0
  3
AIGNBL01030004
  0
INSERT
  8
LAYER_1
  2
AIGNBL01040005
 10
0
 20
0
 30
0
  0
INSERT
  8
LAYER_1
  2
AIGNBL01040006
 10
0
 20
0
 30
0
  0
INSERT
  8
LAYER_1
  2
AIGNBL01040007
 10
0
 20
0
 30
0
  0
INSERT
  8
LAYER_1
  2
AIGNBL01040008
 10
0
 20
0
 30
0
  0
INSERT
  8
LAYER_1
  2
AIGNBL01040009
 10
0
 20
0
 30
0
  0
INSERT
  8
LAYER_1
  2
AIGNBL0104000A
 10
0
 20
0
 30
0
  0
INSERT
  8
LAYER_1
  2
AIGNBL0104000B
 10
0
 20
0
 30
0
  0
ENDBLK
  0
BLOCK
  8
LAYER_1
  2
AIGNBL0103000D
 70
64
 10
0
 20
0
 30
0
  3
AIGNBL0103000D
  0
POLYLINE
  8
LAYER_1
 40
0.05
 41
0.05
 66
1
 10
0
 20
0
 30
0
 70
1
  0
VERTEX
  8
LAYER_1
 10
137.3756
 20
-252.1676
  0
VERTEX
  8
LAYER_1
 10
137.9258
 20
-252.1676
  0
VERTEX
  8
LAYER_1
 10
137.9258
 20
-252.2609
  0
VERTEX
  8
LAYER_1
 10
137.2715
 20
-252.2609
  0
VERTEX
  8
LAYER_1
 10
137.2715
 20
-251.2339
  0
VERTEX
  8
LAYER_1
 10
137.9082
 20
-251.2339
  0
VERTEX
  8
LAYER_1
 10
137.9082
 20
-251.3266
  0
VERTEX
  8
LAYER_1
 10
137.3756
 20
-251.3266
  0
VERTEX
  8
LAYER_1
 10
137.3756
 20
-251.6787
  0
VERTEX
  8
LAYER_1
 10
137.8734
 20
-251.6787
  0
VERTEX
  8
LAYER_1
 10
137.8734
 20
-251.7717
  0
VERTEX
  8
LAYER_1
 10
137.3756
 20
-251.7717
  0
SEQEND
  0
ENDBLK
  0
BLOCK
  8
LAYER_1
  2
AIGNBL0103000E
 70
64
 10
0
 20
0
 30
0
  3
AIGNBL0103000E
  0
POLYLINE
  8
LAYER_1
 40
0.05
 41
0.05
 66
1
 10
0
 20
0
 30
0
 70
1
  0
VERTEX
  8
LAYER_1
 10
139.0589
 20
-252.1079
  0
VERTEX
  8
LAYER_1
 10
139.0613
 20
-252.1079
  0
VERTEX
  8
LAYER_1
 10
139.0613
 20
-251.2339
  0
VERTEX
  8
LAYER_1
 10
139.1663
 20
-251.2339
  0
VERTEX
  8
LAYER_1
 10
139.1663
 20
-252.2609
  0
VERTEX
  8
LAYER_1
 10
139.0365
 20
-252.2609
  0
VERTEX
  8
LAYER_1
 10
138.4384
 20
-251.3772
  0
VERTEX
  8
LAYER_1
 10
138.435
 20
-251.3772
  0
VERTEX
  8
LAYER_1
 10
138.435
 20
-252.2609
  0
VERTEX
  8
LAYER_1
 10
138.3306
 20
-252.2609
  0
VERTEX
  8
LAYER_1
 10
138.3306
 20
-251.2339
  0
VERTEX
  8
LAYER_1
 10
138.4611
 20
-251.2339
  0
SEQEND
  0
ENDBLK
  0
BLOCK
  8
LAYER_1
  2
AIGNBL0103000F
 70
64
 10
0
 20
0
 30
0
  3
AIGNBL0103000F
  0
POLYLINE
  8
LAYER_1
 40
0.05
 41
0.05
 66
1
 10
0
 20
0
 30
0
 70
1
  0
VERTEX
  8
LAYER_1
 10
139.637
 20
-252.0501
 42
0.1590284934
  0
VERTEX
  8
LAYER_1
 10
139.691
 20
-252.1527
 42
0.1903970375
  0
VERTEX
  8
LAYER_1
 10
139.8034
 20
-252.1937
  0
VERTEX
  8
LAYER_1
 10
139.8922
 20
-252.1744
  0
VERTEX
  8
LAYER_1
 10
139.948
 20
-252.1214
  0
VERTEX
  8
LAYER_1
 10
139.9763
 20
-252.0453
  0
VERTEX
  8
LAYER_1
 10
139.9853
 20
-251.956
  0
VERTEX
  8
LAYER_1
 10
139.9853
 20
-251.2339
  0
VERTEX
  8
LAYER_1
 10
140.0893
 20
-251.2339
  0
VERTEX
  8
LAYER_1
 10
140.0893
 20
-251.965
  0
VERTEX
  8
LAYER_1
 10
140.0783
 20
-252.0718
 42
-0.08830433873
  0
VERTEX
  8
LAYER_1
 10
140.0369
 20
-252.1765
 42
-0.1153589887
  0
VERTEX
  8
LAYER_1
 10
139.9529
 20
-252.2554
 42
-0.1266166698
  0
VERTEX
  8
LAYER_1
 10
139.8147
 20
-252.2868
 42
-0.1823786802
  0
VERTEX
  8
LAYER_1
 10
139.6311
 20
-252.2268
 42
-0.1773090787
  0
VERTEX
  8
LAYER_1
 10
139.5391
 20
-252.0769
  0
SEQEND
  0
ENDBLK
  0
BLOCK
  8
LAYER_1
  2
AIGNBL01030010
 70
64
 10
0
 20
0
 30
0
  3
AIGNBL01030010
  0
POLYLINE
  8
LAYER_1
 40
0.05
 41
0.05
 66
1
 10
0
 20
0
 30
0
 70
1
  0
VERTEX
  8
LAYER_1
 10
141.5693
 20
-251.7469
 42
-0.1023745756
  0
VERTEX
  8
LAYER_1
 10
141.5279
 20
-251.9629
 42
-0.1012381663
  0
VERTEX
  8
LAYER_1
 10
141.4163
 20
-252.1338
 42
-0.09607034471
  0
VERTEX
  8
LAYER_1
 10
141.2458
 20
-252.2461
 42
-0.09758991962
  0
VERTEX
  8
LAYER_1
 10
141.0332
 20
-252.2868
 42
-0.09910038025
  0
VERTEX
  8
LAYER_1
 10
140.8207
 20
-252.2461
 42
-0.09835332354
  0
VERTEX
  8
LAYER_1
 10
140.6512
 20
-252.1338
 42
-0.09652080474
  0
VERTEX
  8
LAYER_1
 10
140.5389
 20
-251.9629
 42
-0.09814472372
  0
VERTEX
  8
LAYER_1
 10
140.4986
 20
-251.7469
 42
-0.1026891031
  0
VERTEX
  8
LAYER_1
 10
140.5389
 20
-251.5306
 42
-0.09919197624
  0
VERTEX
  8
LAYER_1
 10
140.6512
 20
-251.3604
 42
-0.09851015914
  0
VERTEX
  8
LAYER_1
 10
140.8207
 20
-251.2481
 42
-0.0978389277
  0
VERTEX
  8
LAYER_1
 10
141.0332
 20
-251.2071
 42
-0.1012755921
  0
VERTEX
  8
LAYER_1
 10
141.2458
 20
-251.2481
 42
-0.101055447
  0
VERTEX
  8
LAYER_1
 10
141.4163
 20
-251.3604
 42
-0.100284748
  0
VERTEX
  8
LAYER_1
 10
141.5279
 20
-251.5306
 42
-0.09841189494
  0
SEQEND
  0
POLYLINE
  8
LAYER_1
 40
0.05
 41
0.05
 66
1
 10
0
 20
0
 30
0
 70
1
  0
VERTEX
  8
LAYER_1
 10
141.4584
 20
-251.7476
 42
0.08348185165
  0
VERTEX
  8
LAYER_1
 10
141.4301
 20
-251.5767
 42
0.09888736064
  0
VERTEX
  8
LAYER_1
 10
141.3454
 20
-251.4344
 42
0.1046117232
  0
VERTEX
  8
LAYER_1
 10
141.211
 20
-251.337
 42
0.1084373712
  0
VERTEX
  8
LAYER_1
 10
141.0332
 20
-251.3001
 42
0.1126508353
  0
VERTEX
  8
LAYER_1
 10
140.8558
 20
-251.337
 42
0.1080671084
  0
VERTEX
  8
LAYER_1
 10
140.7225
 20
-251.4344
 42
0.09765540905
  0
VERTEX
  8
LAYER_1
 10
140.6374
 20
-251.5767
 42
0.08446298011
  0
VERTEX
  8
LAYER_1
 10
140.6081
 20
-251.7476
 42
0.08257781466
  0
VERTEX
  8
LAYER_1
 10
140.6374
 20
-251.9188
 42
0.1022479965
  0
VERTEX
  8
LAYER_1
 10
140.7225
 20
-252.0607
 42
0.1007994813
  0
VERTEX
  8
LAYER_1
 10
140.8558
 20
-252.1575
 42
0.1058339915
  0
VERTEX
  8
LAYER_1
 10
141.0332
 20
-252.1937
 42
0.1146720599
  0
VERTEX
  8
LAYER_1
 10
141.211
 20
-252.1575
 42
0.1074750371
  0
VERTEX
  8
LAYER_1
 10
141.3454
 20
-252.0607
 42
0.0957445035
  0
VERTEX
  8
LAYER_1
 10
141.4301
 20
-251.9188
 42
0.08253202369
  0
SEQEND
  0
ENDBLK
  0
BLOCK
  8
LAYER_1
  2
AIGNBL01030011
 70
64
 10
0
 20
0
 30
0
  3
AIGNBL01030011
  0
POLYLINE
  8
LAYER_1
 40
0.05
 41
0.05
 66
1
 10
0
 20
0
 30
0
 70
1
  0
VERTEX
  8
LAYER_1
 10
142.3393
 20
-252.2609
  0
VERTEX
  8
LAYER_1
 10
142.2349
 20
-252.2609
  0
VERTEX
  8
LAYER_1
 10
142.2349
 20
-251.8182
  0
VERTEX
  8
LAYER_1
 10
141.8504
 20
-251.2339
  0
VERTEX
  8
LAYER_1
 10
141.9813
 20
-251.2339
  0
VERTEX
  8
LAYER_1
 10
142.2904
 20
-251.7311
  0
VERTEX
  8
LAYER_1
 10
142.6022
 20
-251.2339
  0
VERTEX
  8
LAYER_1
 10
142.7234
 20
-251.2339
  0
VERTEX
  8
LAYER_1
 10
142.3393
 20
-251.8182
  0
SEQEND
  0
ENDBLK
  0
BLOCK
  8
LAYER_1
  2
AIGNBL01030012
 70
64
 10
0
 20
0
 30
0
  3
AIGNBL01030012
  0
POLYLINE
  8
LAYER_1
 40
0.05
 41
0.05
 66
1
 10
0
 20
0
 30
0
 70
1
  0
VERTEX
  8
LAYER_1
 10
143.6236
 20
-251.2339
  0
VERTEX
  8
LAYER_1
 10
143.9288
 20
-251.2339
  0
VERTEX
  8
LAYER_1
 10
144.047
 20
-251.2457
  0
VERTEX
  8
LAYER_1
 10
144.1528
 20
-251.288
 42
-0.1142786728
  0
VERTEX
  8
LAYER_1
 10
144.2307
 20
-251.3686
 42
-0.1221660448
  0
VERTEX
  8
LAYER_1
 10
144.2603
 20
-251.4961
 42
-0.1789908253
  0
VERTEX
  8
LAYER_1
 10
144.2103
 20
-251.6373
 42
-0.1682964985
  0
VERTEX
  8
LAYER_1
 10
144.078
 20
-251.7166
  0
VERTEX
  8
LAYER_1
 10
144.078
 20
-251.7194
 42
-0.1720252291
  0
VERTEX
  8
LAYER_1
 10
144.2434
 20
-251.7969
 42
-0.2011476059
  0
VERTEX
  8
LAYER_1
 10
144.3099
 20
-251.9764
 42
-0.1263581039
  0
VERTEX
  8
LAYER_1
 10
144.2823
 20
-252.0928
 42
-0.1151202894
  0
VERTEX
  8
LAYER_1
 10
144.2062
 20
-252.1831
 42
-0.08559391469
  0
VERTEX
  8
LAYER_1
 10
144.0866
 20
-252.2402
 42
-0.06581098886
  0
VERTEX
  8
LAYER_1
 10
143.9275
 20
-252.2609
  0
VERTEX
  8
LAYER_1
 10
143.6236
 20
-252.2609
  0
SEQEND
  0
POLYLINE
  8
LAYER_1
 40
0.05
 41
0.05
 66
1
 10
0
 20
0
 30
0
 70
1
  0
VERTEX
  8
LAYER_1
 10
143.7277
 20
-251.6832
  0
VERTEX
  8
LAYER_1
 10
143.9382
 20
-251.6832
  0
VERTEX
  8
LAYER_1
 10
144.0146
 20
-251.6742
  0
VERTEX
  8
LAYER_1
 10
144.0842
 20
-251.6453
  0
VERTEX
  8
LAYER_1
 10
144.1362
 20
-251.5888
 42
0.1124449043
  0
VERTEX
  8
LAYER_1
 10
144.1552
 20
-251.5034
  0
VERTEX
  8
LAYER_1
 10
144.1362
 20
-251.4203
  0
VERTEX
  8
LAYER_1
 10
144.0835
 20
-251.3638
  0
VERTEX
  8
LAYER_1
 10
144.005
 20
-251.3328
  0
VERTEX
  8
LAYER_1
 10
143.9089
 20
-251.3235
  0
VERTEX
  8
LAYER_1
 10
143.7277
 20
-251.3235
  0
SEQEND
  0
POLYLINE
  8
LAYER_1
 40
0.05
 41
0.05
 66
1
 10
0
 20
0
 30
0
 70
1
  0
VERTEX
  8
LAYER_1
 10
143.7277
 20
-252.171
  0
VERTEX
  8
LAYER_1
 10
143.9223
 20
-252.171
  0
VERTEX
  8
LAYER_1
 10
144.0301
 20
-252.1596
  0
VERTEX
  8
LAYER_1
 10
144.1204
 20
-252.1252
  0
VERTEX
  8
LAYER_1
 10
144.181
 20
-252.0625
 42
0.1349508047
  0
VERTEX
  8
LAYER_1
 10
144.2048
 20
-251.9705
 42
0.2483168689
  0
VERTEX
  8
LAYER_1
 10
144.1362
 20
-251.8189
 42
0.1537491355
  0
VERTEX
  8
LAYER_1
 10
143.9413
 20
-251.7686
  0
VERTEX
  8
LAYER_1
 10
143.7277
 20
-251.7686
  0
SEQEND
  0
ENDBLK
  0
BLOCK
  8
LAYER_1
  2
AIGNBL01030013
 70
64
 10
0
 20
0
 30
0
  3
AIGNBL01030013
  0
POLYLINE
  8
LAYER_1
 40
0.05
 41
0.05
 66
1
 10
0
 20
0
 30
0
 70
1
  0
VERTEX
  8
LAYER_1
 10
144.7388
 20
-252.2609
  0
VERTEX
  8
LAYER_1
 10
144.6241
 20
-252.2609
  0
VERTEX
  8
LAYER_1
 10
145.0685
 20
-251.2339
  0
VERTEX
  8
LAYER_1
 10
145.1705
 20
-251.2339
  0
VERTEX
  8
LAYER_1
 10
145.6111
 20
-252.2609
  0
VERTEX
  8
LAYER_1
 10
145.4943
 20
-252.2609
  0
VERTEX
  8
LAYER_1
 10
145.3813
 20
-251.9912
  0
VERTEX
  8
LAYER_1
 10
144.8504
 20
-251.9912
  0
SEQEND
  0
POLYLINE
  8
LAYER_1
 40
0.05
 41
0.05
 66
1
 10
0
 20
0
 30
0
 70
1
  0
VERTEX
  8
LAYER_1
 10
144.8894
 20
-251.8947
  0
VERTEX
  8
LAYER_1
 10
145.3424
 20
-251.8947
  0
VERTEX
  8
LAYER_1
 10
145.1164
 20
-251.3493
  0
SEQEND
  0
ENDBLK
  0
BLOCK
  8
LAYER_1
  2
AIGNBL01030014
 70
64
 10
0
 20
0
 30
0
  3
AIGNBL01030014
  0
POLYLINE
  8
LAYER_1
 40
0.05
 41
0.05
 66
1
 10
0
 20
0
 30
0
 70
1
  0
VERTEX
  8
LAYER_1
 10
146.2915
 20
-252.2609
  0
VERTEX
  8
LAYER_1
 10
146.1871
 20
-252.2609
  0
VERTEX
  8
LAYER_1
 10
146.1871
 20
-251.3266
  0
VERTEX
  8
LAYER_1
 10
145.8426
 20
-251.3266
  0
VERTEX
  8
LAYER_1
 10
145.8426
 20
-251.2339
  0
VERTEX
  8
LAYER_1
 10
146.635
 20
-251.2339
  0
VERTEX
  8
LAYER_1
 10
146.635
 20
-251.3266
  0
VERTEX
  8
LAYER_1
 10
146.2915
 20
-251.3266
  0
SEQEND
  0
ENDBLK
  0
BLOCK
  8
LAYER_1
  2
AIGNBL01030015
 70
64
 10
0
 20
0
 30
0
  3
AIGNBL01030015
  0
POLYLINE
  8
LAYER_1
 40
0.05
 41
0.05
 66
1
 10
0
 20
0
 30
0
 70
1
  0
VERTEX
  8
LAYER_1
 10
146.9888
 20
-251.2339
  0
VERTEX
  8
LAYER_1
 10
147.0932
 20
-251.2339
  0
VERTEX
  8
LAYER_1
 10
147.0932
 20
-251.6787
  0
VERTEX
  8
LAYER_1
 10
147.654
 20
-251.6787
  0
VERTEX
  8
LAYER_1
 10
147.654
 20
-251.2339
  0
VERTEX
  8
LAYER_1
 10
147.7581
 20
-251.2339
  0
VERTEX
  8
LAYER_1
 10
147.7581
 20
-252.2609
  0
VERTEX
  8
LAYER_1
 10
147.654
 20
-252.2609
  0
VERTEX
  8
LAYER_1
 10
147.654
 20
-251.7745
  0
VERTEX
  8
LAYER_1
 10
147.0932
 20
-251.7745
  0
VERTEX
  8
LAYER_1
 10
147.0932
 20
-252.2609
  0
VERTEX
  8
LAYER_1
 10
146.9888
 20
-252.2609
  0
SEQEND
  0
ENDBLK
  0
BLOCK
  8
LAYER_1
  2
AIGNBL01030016
 70
64
 10
0
 20
0
 30
0
  3
AIGNBL01030016
  0
POLYLINE
  8
LAYER_1
 40
0.05
 41
0.05
 66
1
 10
0
 20
0
 30
0
 70
1
  0
VERTEX
  8
LAYER_1
 10
148.3351
 20
-252.2609
  0
VERTEX
  8
LAYER_1
 10
148.2311
 20
-252.2609
  0
VERTEX
  8
LAYER_1
 10
148.2311
 20
-251.2339
  0
VERTEX
  8
LAYER_1
 10
148.5322
 20
-251.2339
  0
VERTEX
  8
LAYER_1
 10
148.6724
 20
-251.2481
 42
-0.1023663758
  0
VERTEX
  8
LAYER_1
 10
148.7844
 20
-251.2953
 42
-0.1332028562
  0
VERTEX
  8
LAYER_1
 10
148.8571
 20
-251.38
 42
-0.109414644
  0
VERTEX
  8
LAYER_1
 10
148.8829
 20
-251.5078
  0
VERTEX
  8
LAYER_1
 10
148.8636
 20
-251.6108
  0
VERTEX
  8
LAYER_1
 10
148.8088
 20
-251.6911
  0
VERTEX
  8
LAYER_1
 10
148.7258
 20
-251.7459
  0
VERTEX
  8
LAYER_1
 10
148.6214
 20
-251.7717
  0
VERTEX
  8
LAYER_1
 10
148.9211
 20
-252.2609
  0
VERTEX
  8
LAYER_1
 10
148.7937
 20
-252.2609
  0
VERTEX
  8
LAYER_1
 10
148.5098
 20
-251.7807
  0
VERTEX
  8
LAYER_1
 10
148.3351
 20
-251.7807
  0
SEQEND
  0
POLYLINE
  8
LAYER_1
 40
0.05
 41
0.05
 66
1
 10
0
 20
0
 30
0
 70
1
  0
VERTEX
  8
LAYER_1
 10
148.3351
 20
-251.6904
  0
VERTEX
  8
LAYER_1
 10
148.517
 20
-251.6904
 42
0.1513063474
  0
VERTEX
  8
LAYER_1
 10
148.711
 20
-251.6453
 42
0.2568804362
  0
VERTEX
  8
LAYER_1
 10
148.7799
 20
-251.5078
  0
VERTEX
  8
LAYER_1
 10
148.7602
 20
-251.4224
 42
0.1232056022
  0
VERTEX
  8
LAYER_1
 10
148.7079
 20
-251.3652
  0
VERTEX
  8
LAYER_1
 10
148.6269
 20
-251.3338
  0
VERTEX
  8
LAYER_1
 10
148.5212
 20
-251.3235
  0
VERTEX
  8
LAYER_1
 10
148.3351
 20
-251.3235
  0
SEQEND
  0
ENDBLK
  0
BLOCK
  8
LAYER_1
  2
AIGNBL01030017
 70
64
 10
0
 20
0
 30
0
  3
AIGNBL01030017
  0
POLYLINE
  8
LAYER_1
 40
0.05
 41
0.05
 66
1
 10
0
 20
0
 30
0
 70
1
  0
VERTEX
  8
LAYER_1
 10
150.3154
 20
-251.7469
 42
-0.09975403421
  0
VERTEX
  8
LAYER_1
 10
150.2747
 20
-251.9629
 42
-0.09935173186
  0
VERTEX
  8
LAYER_1
 10
150.1624
 20
-252.1338
 42
-0.09811740303
  0
VERTEX
  8
LAYER_1
 10
149.9926
 20
-252.2461
 42
-0.09708882113
  0
VERTEX
  8
LAYER_1
 10
149.78
 20
-252.2868
 42
-0.09940093633
  0
VERTEX
  8
LAYER_1
 10
149.5674
 20
-252.2461
 42
-0.1007896559
  0
VERTEX
  8
LAYER_1
 10
149.3979
 20
-252.1338
 42
-0.09768152712
  0
VERTEX
  8
LAYER_1
 10
149.2856
 20
-251.9629
 42
-0.09531839447
  0
VERTEX
  8
LAYER_1
 10
149.2453
 20
-251.7469
 42
-0.09746952437
  0
VERTEX
  8
LAYER_1
 10
149.2856
 20
-251.5306
 42
-0.09925134223
  0
VERTEX
  8
LAYER_1
 10
149.3979
 20
-251.3604
 42
-0.1005970746
  0
VERTEX
  8
LAYER_1
 10
149.5674
 20
-251.2481
 42
-0.09815409965
  0
VERTEX
  8
LAYER_1
 10
149.78
 20
-251.2071
 42
-0.1003559568
  0
VERTEX
  8
LAYER_1
 10
149.9926
 20
-251.2481
 42
-0.1030391221
  0
VERTEX
  8
LAYER_1
 10
150.1624
 20
-251.3604
 42
-0.09760938344
  0
VERTEX
  8
LAYER_1
 10
150.2747
 20
-251.5306
 42
-0.09618621792
  0
SEQEND
  0
POLYLINE
  8
LAYER_1
 40
0.05
 41
0.05
 66
1
 10
0
 20
0
 30
0
 70
1
  0
VERTEX
  8
LAYER_1
 10
150.2051
 20
-251.7476
 42
0.08928566433
  0
VERTEX
  8
LAYER_1
 10
150.1762
 20
-251.5767
 42
0.0967309921
  0
VERTEX
  8
LAYER_1
 10
150.0921
 20
-251.4344
 42
0.1033640041
  0
VERTEX
  8
LAYER_1
 10
149.9581
 20
-251.337
 42
0.1075765453
  0
VERTEX
  8
LAYER_1
 10
149.78
 20
-251.3001
 42
0.1148421003
  0
VERTEX
  8
LAYER_1
 10
149.6026
 20
-251.337
 42
0.106797523
  0
VERTEX
  8
LAYER_1
 10
149.4682
 20
-251.4344
 42
0.09375888087
  0
VERTEX
  8
LAYER_1
 10
149.3842
 20
-251.5767
 42
0.08542444587
  0
VERTEX
  8
LAYER_1
 10
149.3549
 20
-251.7476
 42
0.08738527021
  0
VERTEX
  8
LAYER_1
 10
149.3842
 20
-251.9188
 42
0.09670329037
  0
VERTEX
  8
LAYER_1
 10
149.4682
 20
-252.0607
 42
0.09891153362
  0
VERTEX
  8
LAYER_1
 10
149.6026
 20
-252.1575
 42
0.1067011915
  0
VERTEX
  8
LAYER_1
 10
149.78
 20
-252.1937
 42
0.1133540876
  0
VERTEX
  8
LAYER_1
 10
149.9581
 20
-252.1575
 42
0.1038012544
  0
VERTEX
  8
LAYER_1
 10
150.0921
 20
-252.0607
 42
0.09726416843
  0
VERTEX
  8
LAYER_1
 10
150.1762
 20
-251.9188
 42
0.0854375021
  0
SEQEND
  0
ENDBLK
  0
BLOCK
  8
LAYER_1
  2
AIGNBL01030018
 70
64
 10
0
 20
0
 30
0
  3
AIGNBL01030018
  0
POLYLINE
  8
LAYER_1
 40
0.05
 41
0.05
 66
1
 10
0
 20
0
 30
0
 70
1
  0
VERTEX
  8
LAYER_1
 10
151.7489
 20
-251.7469
 42
-0.09970583877
  0
VERTEX
  8
LAYER_1
 10
151.7086
 20
-251.9629
 42
-0.0976989983
  0
VERTEX
  8
LAYER_1
 10
151.5963
 20
-252.1338
 42
-0.09521451671
  0
VERTEX
  8
LAYER_1
 10
151.4264
 20
-252.2461
 42
-0.09711421911
  0
VERTEX
  8
LAYER_1
 10
151.2139
 20
-252.2868
 42
-0.1003065361
  0
VERTEX
  8
LAYER_1
 10
151.0013
 20
-252.2461
 42
-0.1012502646
  0
VERTEX
  8
LAYER_1
 10
150.8318
 20
-252.1338
 42
-0.09902147312
  0
VERTEX
  8
LAYER_1
 10
150.7188
 20
-251.9629
 42
-0.09657946775
  0
VERTEX
  8
LAYER_1
 10
150.6781
 20
-251.7469
 42
-0.09892706014
  0
VERTEX
  8
LAYER_1
 10
150.7188
 20
-251.5306
 42
-0.1025433378
  0
VERTEX
  8
LAYER_1
 10
150.8318
 20
-251.3604
 42
-0.1009513296
  0
VERTEX
  8
LAYER_1
 10
151.0013
 20
-251.2481
 42
-0.09841178888
  0
VERTEX
  8
LAYER_1
 10
151.2139
 20
-251.2071
 42
-0.1004512574
  0
VERTEX
  8
LAYER_1
 10
151.4264
 20
-251.2481
 42
-0.09871557407
  0
VERTEX
  8
LAYER_1
 10
151.5963
 20
-251.3604
 42
-0.09679690961
  0
VERTEX
  8
LAYER_1
 10
151.7086
 20
-251.5306
 42
-0.09571421233
  0
SEQEND
  0
POLYLINE
  8
LAYER_1
 40
0.05
 41
0.05
 66
1
 10
0
 20
0
 30
0
 70
1
  0
VERTEX
  8
LAYER_1
 10
151.639
 20
-251.7476
 42
0.08698818876
  0
VERTEX
  8
LAYER_1
 10
151.61
 20
-251.5767
 42
0.0956708921
  0
VERTEX
  8
LAYER_1
 10
151.526
 20
-251.4344
 42
0.1033803157
  0
VERTEX
  8
LAYER_1
 10
151.3916
 20
-251.337
 42
0.1075718589
  0
VERTEX
  8
LAYER_1
 10
151.2139
 20
-251.3001
 42
0.1154259577
  0
VERTEX
  8
LAYER_1
 10
151.0361
 20
-251.337
 42
0.1064173637
  0
VERTEX
  8
LAYER_1
 10
150.9017
 20
-251.4344
 42
0.1028942614
  0
VERTEX
  8
LAYER_1
 10
150.818
 20
-251.5767
 42
0.08542444587
  0
VERTEX
  8
LAYER_1
 10
150.7887
 20
-251.7476
 42
0.08738527021
  0
VERTEX
  8
LAYER_1
 10
150.818
 20
-251.9188
 42
0.1032562832
  0
VERTEX
  8
LAYER_1
 10
150.9017
 20
-252.0607
 42
0.1008165521
  0
VERTEX
  8
LAYER_1
 10
151.0361
 20
-252.1575
 42
0.1069398409
  0
VERTEX
  8
LAYER_1
 10
151.2139
 20
-252.1937
 42
0.1127969838
  0
VERTEX
  8
LAYER_1
 10
151.3916
 20
-252.1575
 42
0.1024372123
  0
VERTEX
  8
LAYER_1
 10
151.526
 20
-252.0607
 42
0.09088614582
  0
VERTEX
  8
LAYER_1
 10
151.61
 20
-251.9188
 42
0.08498619229
  0
SEQEND
  0
ENDBLK
  0
BLOCK
  8
LAYER_1
  2
AIGNBL01030019
 70
64
 10
0
 20
0
 30
0
  3
AIGNBL01030019
  0
POLYLINE
  8
LAYER_1
 40
0.05
 41
0.05
 66
1
 10
0
 20
0
 30
0
 70
1
  0
VERTEX
  8
LAYER_1
 10
152.6742
 20
-252.0839
  0
VERTEX
  8
LAYER_1
 10
152.6756
 20
-252.0839
  0
VERTEX
  8
LAYER_1
 10
153.0194
 20
-251.2339
  0
VERTEX
  8
LAYER_1
 10
153.1793
 20
-251.2339
  0
VERTEX
  8
LAYER_1
 10
153.1793
 20
-252.2609
  0
VERTEX
  8
LAYER_1
 10
153.0749
 20
-252.2609
  0
VERTEX
  8
LAYER_1
 10
153.0749
 20
-251.3686
  0
VERTEX
  8
LAYER_1
 10
153.0718
 20
-251.3686
  0
VERTEX
  8
LAYER_1
 10
152.7007
 20
-252.2609
  0
VERTEX
  8
LAYER_1
 10
152.646
 20
-252.2609
  0
VERTEX
  8
LAYER_1
 10
152.2743
 20
-251.3686
  0
VERTEX
  8
LAYER_1
 10
152.2708
 20
-251.3686
  0
VERTEX
  8
LAYER_1
 10
152.2708
 20
-252.2609
  0
VERTEX
  8
LAYER_1
 10
152.1668
 20
-252.2609
  0
VERTEX
  8
LAYER_1
 10
152.1668
 20
-251.2339
  0
VERTEX
  8
LAYER_1
 10
152.327
 20
-251.2339
  0
SEQEND
  0
ENDBLK
  0
BLOCK
  8
LAYER_1
  2
AIGNBL0103001A
 70
64
 10
0
 20
0
 30
0
  3
AIGNBL0103001A
  0
POLYLINE
  8
LAYER_1
 40
0.05
 41
0.05
 66
1
 10
0
 20
0
 30
0
 70
1
  0
VERTEX
  8
LAYER_1
 10
154.3196
 20
-252.1676
  0
VERTEX
  8
LAYER_1
 10
154.8694
 20
-252.1676
  0
VERTEX
  8
LAYER_1
 10
154.8694
 20
-252.2609
  0
VERTEX
  8
LAYER_1
 10
154.2145
 20
-252.2609
  0
VERTEX
  8
LAYER_1
 10
154.2145
 20
-251.2339
  0
VERTEX
  8
LAYER_1
 10
154.8522
 20
-251.2339
  0
VERTEX
  8
LAYER_1
 10
154.8522
 20
-251.3263
  0
VERTEX
  8
LAYER_1
 10
154.3196
 20
-251.3263
  0
VERTEX
  8
LAYER_1
 10
154.3196
 20
-251.6787
  0
VERTEX
  8
LAYER_1
 10
154.8167
 20
-251.6787
  0
VERTEX
  8
LAYER_1
 10
154.8167
 20
-251.7717
  0
VERTEX
  8
LAYER_1
 10
154.3196
 20
-251.7717
  0
SEQEND
  0
ENDBLK
  0
BLOCK
  8
LAYER_1
  2
AIGNBL0103001B
 70
64
 10
0
 20
0
 30
0
  3
AIGNBL0103001B
  0
POLYLINE
  8
LAYER_1
 40
0.05
 41
0.05
 66
1
 10
0
 20
0
 30
0
 70
1
  0
VERTEX
  8
LAYER_1
 10
155.6101
 20
-251.6484
  0
VERTEX
  8
LAYER_1
 10
155.8906
 20
-251.2339
  0
VERTEX
  8
LAYER_1
 10
156.0153
 20
-251.2339
  0
VERTEX
  8
LAYER_1
 10
155.6749
 20
-251.7221
  0
VERTEX
  8
LAYER_1
 10
156.0518
 20
-252.2609
  0
VERTEX
  8
LAYER_1
 10
155.9216
 20
-252.2609
  0
VERTEX
  8
LAYER_1
 10
155.6081
 20
-251.7979
  0
VERTEX
  8
LAYER_1
 10
155.296
 20
-252.2609
  0
VERTEX
  8
LAYER_1
 10
155.165
 20
-252.2609
  0
VERTEX
  8
LAYER_1
 10
155.5426
 20
-251.7211
  0
VERTEX
  8
LAYER_1
 10
155.1988
 20
-251.2339
  0
VERTEX
  8
LAYER_1
 10
155.329
 20
-251.2339
  0
SEQEND
  0
ENDBLK
  0
BLOCK
  8
LAYER_1
  2
AIGNBL0103001C
 70
64
 10
0
 20
0
 30
0
  3
AIGNBL0103001C
  0
POLYLINE
  8
LAYER_1
 40
0.05
 41
0.05
 66
1
 10
0
 20
0
 30
0
 70
1
  0
VERTEX
  8
LAYER_1
 10
156.4159
 20
-251.2339
  0
VERTEX
  8
LAYER_1
 10
156.706
 20
-251.2339
  0
VERTEX
  8
LAYER_1
 10
156.8487
 20
-251.2498
 42
-0.110657953
  0
VERTEX
  8
LAYER_1
 10
156.9575
 20
-251.3015
 42
-0.1163763428
  0
VERTEX
  8
LAYER_1
 10
157.0288
 20
-251.3866
 42
-0.1004779162
  0
VERTEX
  8
LAYER_1
 10
157.053
 20
-251.5078
 42
-0.1135751127
  0
VERTEX
  8
LAYER_1
 10
157.0281
 20
-251.6291
 42
-0.1113908719
  0
VERTEX
  8
LAYER_1
 10
156.9568
 20
-251.7145
 42
-0.08575538996
  0
VERTEX
  8
LAYER_1
 10
156.8459
 20
-251.7659
 42
-0.06072195454
  0
VERTEX
  8
LAYER_1
 10
156.7032
 20
-251.7831
  0
VERTEX
  8
LAYER_1
 10
156.5203
 20
-251.7831
  0
VERTEX
  8
LAYER_1
 10
156.5203
 20
-252.2609
  0
VERTEX
  8
LAYER_1
 10
156.4159
 20
-252.2609
  0
SEQEND
  0
POLYLINE
  8
LAYER_1
 40
0.05
 41
0.05
 66
1
 10
0
 20
0
 30
0
 70
1
  0
VERTEX
  8
LAYER_1
 10
156.5203
 20
-251.6949
  0
VERTEX
  8
LAYER_1
 10
156.6974
 20
-251.6949
 42
0.1668395642
  0
VERTEX
  8
LAYER_1
 10
156.8848
 20
-251.6474
 42
0.2433158568
  0
VERTEX
  8
LAYER_1
 10
156.9489
 20
-251.5078
 42
0.2579107644
  0
VERTEX
  8
LAYER_1
 10
156.8824
 20
-251.3676
 42
0.1431777658
  0
VERTEX
  8
LAYER_1
 10
156.6974
 20
-251.3235
  0
VERTEX
  8
LAYER_1
 10
156.5203
 20
-251.3235
  0
SEQEND
  0
ENDBLK
  0
BLOCK
  8
LAYER_1
  2
AIGNBL0103001D
 70
64
 10
0
 20
0
 30
0
  3
AIGNBL0103001D
  0
POLYLINE
  8
LAYER_1
 40
0.05
 41
0.05
 66
1
 10
0
 20
0
 30
0
 70
1
  0
VERTEX
  8
LAYER_1
 10
157.5621
 20
-252.1676
  0
VERTEX
  8
LAYER_1
 10
158.1116
 20
-252.1676
  0
VERTEX
  8
LAYER_1
 10
158.1116
 20
-252.2609
  0
VERTEX
  8
LAYER_1
 10
157.4577
 20
-252.2609
  0
VERTEX
  8
LAYER_1
 10
157.4577
 20
-251.2339
  0
VERTEX
  8
LAYER_1
 10
158.0947
 20
-251.2339
  0
VERTEX
  8
LAYER_1
 10
158.0947
 20
-251.3263
  0
VERTEX
  8
LAYER_1
 10
157.5621
 20
-251.3263
  0
VERTEX
  8
LAYER_1
 10
157.5621
 20
-251.6787
  0
VERTEX
  8
LAYER_1
 10
158.0599
 20
-251.6787
  0
VERTEX
  8
LAYER_1
 10
158.0599
 20
-251.7717
  0
VERTEX
  8
LAYER_1
 10
157.5621
 20
-251.7717
  0
SEQEND
  0
ENDBLK
  0
BLOCK
  8
LAYER_1
  2
AIGNBL0103001E
 70
64
 10
0
 20
0
 30
0
  3
AIGNBL0103001E
  0
POLYLINE
  8
LAYER_1
 40
0.05
 41
0.05
 66
1
 10
0
 20
0
 30
0
 70
1
  0
VERTEX
  8
LAYER_1
 10
158.6208
 20
-252.2609
  0
VERTEX
  8
LAYER_1
 10
158.5168
 20
-252.2609
  0
VERTEX
  8
LAYER_1
 10
158.5168
 20
-251.2339
  0
VERTEX
  8
LAYER_1
 10
158.8185
 20
-251.2339
  0
VERTEX
  8
LAYER_1
 10
158.9584
 20
-251.2481
 42
-0.1005953548
  0
VERTEX
  8
LAYER_1
 10
159.07
 20
-251.2953
 42
-0.1225647981
  0
VERTEX
  8
LAYER_1
 10
159.1438
 20
-251.38
 42
-0.1056037953
  0
VERTEX
  8
LAYER_1
 10
159.1696
 20
-251.5078
 42
-0.113550017
  0
VERTEX
  8
LAYER_1
 10
159.1493
 20
-251.6105
  0
VERTEX
  8
LAYER_1
 10
159.0945
 20
-251.6915
  0
VERTEX
  8
LAYER_1
 10
159.0111
 20
-251.7459
  0
VERTEX
  8
LAYER_1
 10
158.9067
 20
-251.7717
  0
VERTEX
  8
LAYER_1
 10
159.2075
 20
-252.2609
  0
VERTEX
  8
LAYER_1
 10
159.08
 20
-252.2609
  0
VERTEX
  8
LAYER_1
 10
158.7955
 20
-251.7803
  0
VERTEX
  8
LAYER_1
 10
158.6208
 20
-251.7803
  0
SEQEND
  0
POLYLINE
  8
LAYER_1
 40
0.05
 41
0.05
 66
1
 10
0
 20
0
 30
0
 70
1
  0
VERTEX
  8
LAYER_1
 10
158.6208
 20
-251.69
  0
VERTEX
  8
LAYER_1
 10
158.8027
 20
-251.69
 42
0.1507170359
  0
VERTEX
  8
LAYER_1
 10
158.9974
 20
-251.6453
 42
0.2579683273
  0
VERTEX
  8
LAYER_1
 10
159.0652
 20
-251.5078
  0
VERTEX
  8
LAYER_1
 10
159.047
 20
-251.4224
  0
VERTEX
  8
LAYER_1
 10
158.9943
 20
-251.3652
  0
VERTEX
  8
LAYER_1
 10
158.9123
 20
-251.3338
  0
VERTEX
  8
LAYER_1
 10
158.8065
 20
-251.3235
  0
VERTEX
  8
LAYER_1
 10
158.6208
 20
-251.3235
  0
SEQEND
  0
ENDBLK
  0
BLOCK
  8
LAYER_1
  2
AIGNBL0103001F
 70
64
 10
0
 20
0
 30
0
  3
AIGNBL0103001F
  0
POLYLINE
  8
LAYER_1
 40
0.05
 41
0.05
 66
1
 10
0
 20
0
 30
0
 70
1
  0
VERTEX
  8
LAYER_1
 10
159.6898
 20
-252.2609
  0
VERTEX
  8
LAYER_1
 10
159.5865
 20
-252.2609
  0
VERTEX
  8
LAYER_1
 10
159.5865
 20
-251.2339
  0
VERTEX
  8
LAYER_1
 10
159.6898
 20
-251.2339
  0
SEQEND
  0
ENDBLK
  0
BLOCK
  8
LAYER_1
  2
AIGNBL01030020
 70
64
 10
0
 20
0
 30
0
  3
AIGNBL01030020
  0
POLYLINE
  8
LAYER_1
 40
0.05
 41
0.05
 66
1
 10
0
 20
0
 30
0
 70
1
  0
VERTEX
  8
LAYER_1
 10
160.2676
 20
-252.1676
  0
VERTEX
  8
LAYER_1
 10
160.8174
 20
-252.1676
  0
VERTEX
  8
LAYER_1
 10
160.8174
 20
-252.2609
  0
VERTEX
  8
LAYER_1
 10
160.1639
 20
-252.2609
  0
VERTEX
  8
LAYER_1
 10
160.1639
 20
-251.2339
  0
VERTEX
  8
LAYER_1
 10
160.8005
 20
-251.2339
  0
VERTEX
  8
LAYER_1
 10
160.8005
 20
-251.3263
  0
VERTEX
  8
LAYER_1
 10
160.2676
 20
-251.3263
  0
VERTEX
  8
LAYER_1
 10
160.2676
 20
-251.6787
  0
VERTEX
  8
LAYER_1
 10
160.7654
 20
-251.6787
  0
VERTEX
  8
LAYER_1
 10
160.7654
 20
-251.7717
  0
VERTEX
  8
LAYER_1
 10
160.2676
 20
-251.7717
  0
SEQEND
  0
ENDBLK
  0
BLOCK
  8
LAYER_1
  2
AIGNBL01030021
 70
64
 10
0
 20
0
 30
0
  3
AIGNBL01030021
  0
POLYLINE
  8
LAYER_1
 40
0.05
 41
0.05
 66
1
 10
0
 20
0
 30
0
 70
1
  0
VERTEX
  8
LAYER_1
 10
161.9505
 20
-252.1079
  0
VERTEX
  8
LAYER_1
 10
161.9536
 20
-252.1079
  0
VERTEX
  8
LAYER_1
 10
161.9536
 20
-251.2339
  0
VERTEX
  8
LAYER_1
 10
162.058
 20
-251.2339
  0
VERTEX
  8
LAYER_1
 10
162.058
 20
-252.2609
  0
VERTEX
  8
LAYER_1
 10
161.9277
 20
-252.2609
  0
VERTEX
  8
LAYER_1
 10
161.3297
 20
-251.3772
  0
VERTEX
  8
LAYER_1
 10
161.3266
 20
-251.3772
  0
VERTEX
  8
LAYER_1
 10
161.3266
 20
-252.2609
  0
VERTEX
  8
LAYER_1
 10
161.2222
 20
-252.2609
  0
VERTEX
  8
LAYER_1
 10
161.2222
 20
-251.2339
  0
VERTEX
  8
LAYER_1
 10
161.3535
 20
-251.2339
  0
SEQEND
  0
ENDBLK
  0
BLOCK
  8
LAYER_1
  2
AIGNBL01030022
 70
64
 10
0
 20
0
 30
0
  3
AIGNBL01030022
  0
POLYLINE
  8
LAYER_1
 40
0.05
 41
0.05
 66
1
 10
0
 20
0
 30
0
 70
1
  0
VERTEX
  8
LAYER_1
 10
163.396
 20
-252.0942
  0
VERTEX
  8
LAYER_1
 10
163.3323
 20
-252.1679
  0
VERTEX
  8
LAYER_1
 10
163.2469
 20
-252.2295
  0
VERTEX
  8
LAYER_1
 10
163.1394
 20
-252.2716
  0
VERTEX
  8
LAYER_1
 10
163.0112
 20
-252.2868
 42
-0.09929103144
  0
VERTEX
  8
LAYER_1
 10
162.7966
 20
-252.2461
 42
-0.1031170142
  0
VERTEX
  8
LAYER_1
 10
162.6271
 20
-252.1335
 42
-0.1024256256
  0
VERTEX
  8
LAYER_1
 10
162.5162
 20
-251.9633
 42
-0.09780652729
  0
VERTEX
  8
LAYER_1
 10
162.4759
 20
-251.7469
 42
-0.1005543907
  0
VERTEX
  8
LAYER_1
 10
162.5169
 20
-251.5306
 42
-0.09980539098
  0
VERTEX
  8
LAYER_1
 10
162.6285
 20
-251.3604
 42
-0.09707816065
  0
VERTEX
  8
LAYER_1
 10
162.798
 20
-251.2481
 42
-0.09782536185
  0
VERTEX
  8
LAYER_1
 10
163.0112
 20
-251.2071
  0
VERTEX
  8
LAYER_1
 10
163.1222
 20
-251.2191
  0
VERTEX
  8
LAYER_1
 10
163.2252
 20
-251.2522
  0
VERTEX
  8
LAYER_1
 10
163.3117
 20
-251.3035
  0
VERTEX
  8
LAYER_1
 10
163.3767
 20
-251.3711
  0
VERTEX
  8
LAYER_1
 10
163.2906
 20
-251.4355
  0
VERTEX
  8
LAYER_1
 10
163.2469
 20
-251.3858
  0
VERTEX
  8
LAYER_1
 10
163.1835
 20
-251.3421
  0
VERTEX
  8
LAYER_1
 10
163.1043
 20
-251.3114
  0
VERTEX
  8
LAYER_1
 10
163.0126
 20
-251.3001
 42
0.111032742
  0
VERTEX
  8
LAYER_1
 10
162.8338
 20
-251.3362
 42
0.1048566985
  0
VERTEX
  8
LAYER_1
 10
162.6998
 20
-251.4338
 42
0.09649516609
  0
VERTEX
  8
LAYER_1
 10
162.6147
 20
-251.5764
 42
0.08187604402
  0
VERTEX
  8
LAYER_1
 10
162.5868
 20
-251.7469
 42
0.09351376633
  0
VERTEX
  8
LAYER_1
 10
162.6164
 20
-251.9178
 42
0.09951767869
  0
VERTEX
  8
LAYER_1
 10
162.7012
 20
-252.0601
 42
0.1063497227
  0
VERTEX
  8
LAYER_1
 10
162.8356
 20
-252.1575
 42
0.1081437471
  0
VERTEX
  8
LAYER_1
 10
163.0126
 20
-252.1937
 42
0.1144963135
  0
VERTEX
  8
LAYER_1
 10
163.1804
 20
-252.1575
 42
0.1351211567
  0
VERTEX
  8
LAYER_1
 10
163.3148
 20
-252.0414
  0
SEQEND
  0
ENDBLK
  0
BLOCK
  8
LAYER_1
  2
AIGNBL01030023
 70
64
 10
0
 20
0
 30
0
  3
AIGNBL01030023
  0
POLYLINE
  8
LAYER_1
 40
0.05
 41
0.05
 66
1
 10
0
 20
0
 30
0
 70
1
  0
VERTEX
  8
LAYER_1
 10
163.8801
 20
-252.1676
  0
VERTEX
  8
LAYER_1
 10
164.4299
 20
-252.1676
  0
VERTEX
  8
LAYER_1
 10
164.4299
 20
-252.2609
  0
VERTEX
  8
LAYER_1
 10
163.7764
 20
-252.2609
  0
VERTEX
  8
LAYER_1
 10
163.7764
 20
-251.2339
  0
VERTEX
  8
LAYER_1
 10
164.4127
 20
-251.2339
  0
VERTEX
  8
LAYER_1
 10
164.4127
 20
-251.3263
  0
VERTEX
  8
LAYER_1
 10
163.8801
 20
-251.3263
  0
VERTEX
  8
LAYER_1
 10
163.8801
 20
-251.6787
  0
VERTEX
  8
LAYER_1
 10
164.3782
 20
-251.6787
  0
VERTEX
  8
LAYER_1
 10
164.3782
 20
-251.7717
  0
VERTEX
  8
LAYER_1
 10
163.8801
 20
-251.7717
  0
SEQEND
  0
ENDBLK
  0
BLOCK
  8
LAYER_1
  2
AIGNBL01020003
 70
64
 10
0
 20
0
 30
0
  3
AIGNBL01020003
  0
INSERT
  8
LAYER_1
  2
AIGNBL01030004
 10
0
 20
0
 30
0
  0
ENDBLK
  0
BLOCK
  8
LAYER_1
  2
AIGNBL0102000C
 70
64
 10
0
 20
0
 30
0
  3
AIGNBL0102000C
  0
INSERT
  8
LAYER_1
  2
AIGNBL0103000D
 10
0
 20
0
 30
0
  0
INSERT
  8
LAYER_1
  2
AIGNBL0103000E
 10
0
 20
0
 30
0
  0
INSERT
  8
LAYER_1
  2
AIGNBL0103000F
 10
0
 20
0
 30
0
  0
INSERT
  8
LAYER_1
  2
AIGNBL01030010
 10
0
 20
0
 30
0
  0
INSERT
  8
LAYER_1
  2
AIGNBL01030011
 10
0
 20
0
 30
0
  0
INSERT
  8
LAYER_1
  2
AIGNBL01030012
 10
0
 20
0
 30
0
  0
INSERT
  8
LAYER_1
  2
AIGNBL01030013
 10
0
 20
0
 30
0
  0
INSERT
  8
LAYER_1
  2
AIGNBL01030014
 10
0
 20
0
 30
0
  0
INSERT
  8
LAYER_1
  2
AIGNBL01030015
 10
0
 20
0
 30
0
  0
INSERT
  8
LAYER_1
  2
AIGNBL01030016
 10
0
 20
0
 30
0
  0
INSERT
  8
LAYER_1
  2
AIGNBL01030017
 10
0
 20
0
 30
0
  0
INSERT
  8
LAYER_1
  2
AIGNBL01030018
 10
0
 20
0
 30
0
  0
INSERT
  8
LAYER_1
  2
AIGNBL01030019
 10
0
 20
0
 30
0
  0
INSERT
  8
LAYER_1
  2
AIGNBL0103001A
 10
0
 20
0
 30
0
  0
INSERT
  8
LAYER_1
  2
AIGNBL0103001B
 10
0
 20
0
 30
0
  0
INSERT
  8
LAYER_1
  2
AIGNBL0103001C
 10
0
 20
0
 30
0
  0
INSERT
  8
LAYER_1
  2
AIGNBL0103001D
 10
0
 20
0
 30
0
  0
INSERT
  8
LAYER_1
  2
AIGNBL0103001E
 10
0
 20
0
 30
0
  0
INSERT
  8
LAYER_1
  2
AIGNBL0103001F
 10
0
 20
0
 30
0
  0
INSERT
  8
LAYER_1
  2
AIGNBL01030020
 10
0
 20
0
 30
0
  0
INSERT
  8
LAYER_1
  2
AIGNBL01030021
 10
0
 20
0
 30
0
  0
INSERT
  8
LAYER_1
  2
AIGNBL01030022
 10
0
 20
0
 30
0
  0
INSERT
  8
LAYER_1
  2
AIGNBL01030023
 10
0
 20
0
 30
0
  0
ENDBLK
  0
BLOCK
  8
LAYER_6
  2
AIGNBL06020004
 70
64
 10
0
 20
0
 30
0
  3
AIGNBL06020004
  0
POLYLINE
  8
LAYER_6
 40
0.0353
 41
0.0353
 66
1
 10
0
 20
0
 30
0
  0
VERTEX
  8
LAYER_6
 10
82.0649
 20
-113.905
  0
VERTEX
  8
LAYER_6
 10
80.5649
 20
-113.655
  0
SEQEND
  0
POLYLINE
  8
LAYER_6
 40
0.0353
 41
0.0353
 66
1
 10
0
 20
0
 30
0
  0
VERTEX
  8
LAYER_6
 10
82.0649
 20
-113.655
  0
VERTEX
  8
LAYER_6
 10
80.5649
 20
-113.655
  0
VERTEX
  8
LAYER_6
 10
82.0649
 20
-113.405
  0
SEQEND
  0
ENDBLK
  0
BLOCK
  8
LAYER_6
  2
AIGNBL06020005
 70
64
 10
0
 20
0
 30
0
  3
AIGNBL06020005
  0
POLYLINE
  8
LAYER_6
 40
0.0353
 41
0.0353
 66
1
 10
0
 20
0
 30
0
  0
VERTEX
  8
LAYER_6
 10
86.8649
 20
-113.405
  0
VERTEX
  8
LAYER_6
 10
88.3649
 20
-113.655
  0
SEQEND
  0
POLYLINE
  8
LAYER_6
 40
0.0353
 41
0.0353
 66
1
 10
0
 20
0
 30
0
  0
VERTEX
  8
LAYER_6
 10
86.8649
 20
-113.655
  0
VERTEX
  8
LAYER_6
 10
88.3649
 20
-113.655
  0
VERTEX
  8
LAYER_6
 10
86.8649
 20
-113.905
  0
SEQEND
  0
ENDBLK
  0
BLOCK
  8
LAYER_6
  2
AIGNBL06020006
 70
64
 10
0
 20
0
 30
0
  3
AIGNBL06020006
  0
POLYLINE
  8
LAYER_6
 40
0.7056
 41
0.7056
 66
1
 10
0
 20
0
 30
0
  0
VERTEX
  8
LAYER_6
 10
80.5649
 20
-111.7674
  0
SEQEND
  0
ENDBLK
  0
BLOCK
  8
LAYER_6
  2
AIGNBL06020007
 70
64
 10
0
 20
0
 30
0
  3
AIGNBL06020007
  0
POLYLINE
  8
LAYER_6
 40
0.7056
 41
0.7056
 66
1
 10
0
 20
0
 30
0
  0
VERTEX
  8
LAYER_6
 10
88.3649
 20
-111.7674
  0
SEQEND
  0
ENDBLK
  0
BLOCK
  8
LAYER_6
  2
AIGNBL06020008
 70
64
 10
0
 20
0
 30
0
  3
AIGNBL06020008
  0
POLYLINE
  8
LAYER_6
 40
0.7056
 41
0.7056
 66
1
 10
0
 20
0
 30
0
  0
VERTEX
  8
LAYER_6
 10
88.3649
 20
-113.655
  0
SEQEND
  0
ENDBLK
  0
BLOCK
  8
LAYER_6
  2
AIGNBL0602000A
 70
64
 10
0
 20
0
 30
0
  3
AIGNBL0602000A
  0
POLYLINE
  8
LAYER_6
 40
0.0353
 41
0.0353
 66
1
 10
0
 20
0
 30
0
  0
VERTEX
  8
LAYER_6
 10
83.4249
 20
-102.668
  0
VERTEX
  8
LAYER_6
 10
81.9249
 20
-102.418
  0
SEQEND
  0
POLYLINE
  8
LAYER_6
 40
0.0353
 41
0.0353
 66
1
 10
0
 20
0
 30
0
  0
VERTEX
  8
LAYER_6
 10
83.4249
 20
-102.418
  0
VERTEX
  8
LAYER_6
 10
81.9249
 20
-102.418
  0
VERTEX
  8
LAYER_6
 10
83.4249
 20
-102.168
  0
SEQEND
  0
ENDBLK
  0
BLOCK
  8
LAYER_6
  2
AIGNBL0602000B
 70
64
 10
0
 20
0
 30
0
  3
AIGNBL0602000B
  0
POLYLINE
  8
LAYER_6
 40
0.0353
 41
0.0353
 66
1
 10
0
 20
0
 30
0
  0
VERTEX
  8
LAYER_6
 10
85.5049
 20
-102.168
  0
VERTEX
  8
LAYER_6
 10
87.0049
 20
-102.418
  0
SEQEND
  0
POLYLINE
  8
LAYER_6
 40
0.0353
 41
0.0353
 66
1
 10
0
 20
0
 30
0
  0
VERTEX
  8
LAYER_6
 10
85.5049
 20
-102.418
  0
VERTEX
  8
LAYER_6
 10
87.0049
 20
-102.418
  0
VERTEX
  8
LAYER_6
 10
85.5049
 20
-102.668
  0
SEQEND
  0
ENDBLK
  0
BLOCK
  8
LAYER_6
  2
AIGNBL0602000C
 70
64
 10
0
 20
0
 30
0
  3
AIGNBL0602000C
  0
POLYLINE
  8
LAYER_6
 40
0.7056
 41
0.7056
 66
1
 10
0
 20
0
 30
0
  0
VERTEX
  8
LAYER_6
 10
81.9249
 20
-109.1874
  0
SEQEND
  0
ENDBLK
  0
BLOCK
  8
LAYER_6
  2
AIGNBL0602000D
 70
64
 10
0
 20
0
 30
0
  3
AIGNBL0602000D
  0
POLYLINE
  8
LAYER_6
 40
0.7056
 41
0.7056
 66
1
 10
0
 20
0
 30
0
  0
VERTEX
  8
LAYER_6
 10
87.0049
 20
-109.1874
  0
SEQEND
  0
ENDBLK
  0
BLOCK
  8
LAYER_6
  2
AIGNBL0602000E
 70
64
 10
0
 20
0
 30
0
  3
AIGNBL0602000E
  0
POLYLINE
  8
LAYER_6
 40
0.7056
 41
0.7056
 66
1
 10
0
 20
0
 30
0
  0
VERTEX
  8
LAYER_6
 10
87.0049
 20
-102.418
  0
SEQEND
  0
ENDBLK
  0
BLOCK
  8
LAYER_6
  2
AIGNBL06020010
 70
64
 10
0
 20
0
 30
0
  3
AIGNBL06020010
  0
POLYLINE
  8
LAYER_6
 40
0.0353
 41
0.0353
 66
1
 10
0
 20
0
 30
0
  0
VERTEX
  8
LAYER_6
 10
172.6595
 20
-68.095
  0
VERTEX
  8
LAYER_6
 10
174.1595
 20
-68.345
  0
SEQEND
  0
POLYLINE
  8
LAYER_6
 40
0.0353
 41
0.0353
 66
1
 10
0
 20
0
 30
0
  0
VERTEX
  8
LAYER_6
 10
172.6595
 20
-68.345
  0
VERTEX
  8
LAYER_6
 10
174.1595
 20
-68.345
  0
VERTEX
  8
LAYER_6
 10
172.6595
 20
-68.595
  0
SEQEND
  0
ENDBLK
  0
BLOCK
  8
LAYER_6
  2
AIGNBL06020011
 70
64
 10
0
 20
0
 30
0
  3
AIGNBL06020011
  0
POLYLINE
  8
LAYER_6
 40
0.0353
 41
0.0353
 66
1
 10
0
 20
0
 30
0
  0
VERTEX
  8
LAYER_6
 10
145.9815
 20
-68.595
  0
VERTEX
  8
LAYER_6
 10
144.4815
 20
-68.345
  0
SEQEND
  0
POLYLINE
  8
LAYER_6
 40
0.0353
 41
0.0353
 66
1
 10
0
 20
0
 30
0
  0
VERTEX
  8
LAYER_6
 10
145.9815
 20
-68.345
  0
VERTEX
  8
LAYER_6
 10
144.4815
 20
-68.345
  0
VERTEX
  8
LAYER_6
 10
145.9815
 20
-68.095
  0
SEQEND
  0
ENDBLK
  0
BLOCK
  8
LAYER_6
  2
AIGNBL06020012
 70
64
 10
0
 20
0
 30
0
  3
AIGNBL06020012
  0
POLYLINE
  8
LAYER_6
 40
0.7056
 41
0.7056
 66
1
 10
0
 20
0
 30
0
  0
VERTEX
  8
LAYER_6
 10
174.1595
 20
-91.365
  0
SEQEND
  0
ENDBLK
  0
BLOCK
  8
LAYER_6
  2
AIGNBL06020013
 70
64
 10
0
 20
0
 30
0
  3
AIGNBL06020013
  0
POLYLINE
  8
LAYER_6
 40
0.7056
 41
0.7056
 66
1
 10
0
 20
0
 30
0
  0
VERTEX
  8
LAYER_6
 10
144.4815
 20
-92.7058
  0
SEQEND
  0
ENDBLK
  0
BLOCK
  8
LAYER_6
  2
AIGNBL06020014
 70
64
 10
0
 20
0
 30
0
  3
AIGNBL06020014
  0
POLYLINE
  8
LAYER_6
 40
0.7056
 41
0.7056
 66
1
 10
0
 20
0
 30
0
  0
VERTEX
  8
LAYER_6
 10
144.4815
 20
-68.345
  0
SEQEND
  0
ENDBLK
  0
BLOCK
  8
LAYER_6
  2
AIGNBL06020016
 70
64
 10
0
 20
0
 30
0
  3
AIGNBL06020016
  0
POLYLINE
  8
LAYER_6
 40
0.0353
 41
0.0353
 66
1
 10
0
 20
0
 30
0
  0
VERTEX
  8
LAYER_6
 10
73.7149
 20
-77.8495
  0
VERTEX
  8
LAYER_6
 10
73.9649
 20
-76.3495
  0
SEQEND
  0
POLYLINE
  8
LAYER_6
 40
0.0353
 41
0.0353
 66
1
 10
0
 20
0
 30
0
  0
VERTEX
  8
LAYER_6
 10
73.9649
 20
-77.8495
  0
VERTEX
  8
LAYER_6
 10
73.9649
 20
-76.3495
  0
VERTEX
  8
LAYER_6
 10
74.2149
 20
-77.8495
  0
SEQEND
  0
ENDBLK
  0
BLOCK
  8
LAYER_6
  2
AIGNBL06020017
 70
64
 10
0
 20
0
 30
0
  3
AIGNBL06020017
  0
POLYLINE
  8
LAYER_6
 40
0.0353
 41
0.0353
 66
1
 10
0
 20
0
 30
0
  0
VERTEX
  8
LAYER_6
 10
74.2149
 20
-110.3274
  0
VERTEX
  8
LAYER_6
 10
73.9649
 20
-111.8274
  0
SEQEND
  0
POLYLINE
  8
LAYER_6
 40
0.0353
 41
0.0353
 66
1
 10
0
 20
0
 30
0
  0
VERTEX
  8
LAYER_6
 10
73.9649
 20
-110.3274
  0
VERTEX
  8
LAYER_6
 10
73.9649
 20
-111.8274
  0
VERTEX
  8
LAYER_6
 10
73.7149
 20
-110.3274
  0
SEQEND
  0
ENDBLK
  0
BLOCK
  8
LAYER_6
  2
AIGNBL06020018
 70
64
 10
0
 20
0
 30
0
  3
AIGNBL06020018
  0
POLYLINE
  8
LAYER_6
 40
0.7056
 41
0.7056
 66
1
 10
0
 20
0
 30
0
  0
VERTEX
  8
LAYER_6
 10
84.4649
 20
-76.3495
  0
SEQEND
  0
ENDBLK
  0
BLOCK
  8
LAYER_6
  2
AIGNBL06020019
 70
64
 10
0
 20
0
 30
0
  3
AIGNBL06020019
  0
POLYLINE
  8
LAYER_6
 40
0.7056
 41
0.7056
 66
1
 10
0
 20
0
 30
0
  0
VERTEX
  8
LAYER_6
 10
80.6249
 20
-111.8274
  0
SEQEND
  0
ENDBLK
  0
BLOCK
  8
LAYER_6
  2
AIGNBL0602001A
 70
64
 10
0
 20
0
 30
0
  3
AIGNBL0602001A
  0
POLYLINE
  8
LAYER_6
 40
0.7056
 41
0.7056
 66
1
 10
0
 20
0
 30
0
  0
VERTEX
  8
LAYER_6
 10
73.9649
 20
-111.8274
  0
SEQEND
  0
ENDBLK
  0
BLOCK
  8
LAYER_6
  2
AIGNBL0602001C
 70
64
 10
0
 20
0
 30
0
  3
AIGNBL0602001C
  0
POLYLINE
  8
LAYER_6
 40
0.0353
 41
0.0353
 66
1
 10
0
 20
0
 30
0
  0
VERTEX
  8
LAYER_6
 10
133.6949
 20
-110.3229
  0
VERTEX
  8
LAYER_6
 10
133.4449
 20
-111.8229
  0
SEQEND
  0
POLYLINE
  8
LAYER_6
 40
0.0353
 41
0.0353
 66
1
 10
0
 20
0
 30
0
  0
VERTEX
  8
LAYER_6
 10
133.4449
 20
-110.3229
  0
VERTEX
  8
LAYER_6
 10
133.4449
 20
-111.8229
  0
VERTEX
  8
LAYER_6
 10
133.1949
 20
-110.3229
  0
SEQEND
  0
ENDBLK
  0
BLOCK
  8
LAYER_6
  2
AIGNBL0602001D
 70
64
 10
0
 20
0
 30
0
  3
AIGNBL0602001D
  0
POLYLINE
  8
LAYER_6
 40
0.0353
 41
0.0353
 66
1
 10
0
 20
0
 30
0
  0
VERTEX
  8
LAYER_6
 10
133.1949
 20
-95.7421
  0
VERTEX
  8
LAYER_6
 10
133.4449
 20
-94.2421
  0
SEQEND
  0
POLYLINE
  8
LAYER_6
 40
0.0353
 41
0.0353
 66
1
 10
0
 20
0
 30
0
  0
VERTEX
  8
LAYER_6
 10
133.4449
 20
-95.7421
  0
VERTEX
  8
LAYER_6
 10
133.4449
 20
-94.2421
  0
VERTEX
  8
LAYER_6
 10
133.6949
 20
-95.7421
  0
SEQEND
  0
ENDBLK
  0
BLOCK
  8
LAYER_6
  2
AIGNBL0602001E
 70
64
 10
0
 20
0
 30
0
  3
AIGNBL0602001E
  0
POLYLINE
  8
LAYER_6
 40
0.7056
 41
0.7056
 66
1
 10
0
 20
0
 30
0
  0
VERTEX
  8
LAYER_6
 10
170.3195
 20
-111.8229
  0
SEQEND
  0
ENDBLK
  0
BLOCK
  8
LAYER_6
  2
AIGNBL0602001F
 70
64
 10
0
 20
0
 30
0
  3
AIGNBL0602001F
  0
POLYLINE
  8
LAYER_6
 40
0.7056
 41
0.7056
 66
1
 10
0
 20
0
 30
0
  0
VERTEX
  8
LAYER_6
 10
147.4449
 20
-94.2421
  0
SEQEND
  0
ENDBLK
  0
BLOCK
  8
LAYER_6
  2
AIGNBL06020020
 70
64
 10
0
 20
0
 30
0
  3
AIGNBL06020020
  0
POLYLINE
  8
LAYER_6
 40
0.7056
 41
0.7056
 66
1
 10
0
 20
0
 30
0
  0
VERTEX
  8
LAYER_6
 10
133.4449
 20
-94.2421
  0
SEQEND
  0
ENDBLK
  0
BLOCK
  8
LAYER_6
  2
AIGNBL06020022
 70
64
 10
0
 20
0
 30
0
  3
AIGNBL06020022
  0
POLYLINE
  8
LAYER_6
 40
0.0353
 41
0.0353
 66
1
 10
0
 20
0
 30
0
  0
VERTEX
  8
LAYER_6
 10
133.1949
 20
-113.3229
  0
VERTEX
  8
LAYER_6
 10
133.4449
 20
-111.8229
  0
SEQEND
  0
POLYLINE
  8
LAYER_6
 40
0.0353
 41
0.0353
 66
1
 10
0
 20
0
 30
0
  0
VERTEX
  8
LAYER_6
 10
133.4449
 20
-113.3229
  0
VERTEX
  8
LAYER_6
 10
133.4449
 20
-111.8229
  0
VERTEX
  8
LAYER_6
 10
133.6949
 20
-113.3229
  0
SEQEND
  0
ENDBLK
  0
BLOCK
  8
LAYER_6
  2
AIGNBL06020023
 70
64
 10
0
 20
0
 30
0
  3
AIGNBL06020023
  0
POLYLINE
  8
LAYER_6
 40
0.0353
 41
0.0353
 66
1
 10
0
 20
0
 30
0
  0
VERTEX
  8
LAYER_6
 10
133.6949
 20
-119.4229
  0
VERTEX
  8
LAYER_6
 10
133.4449
 20
-120.9229
  0
SEQEND
  0
POLYLINE
  8
LAYER_6
 40
0.0353
 41
0.0353
 66
1
 10
0
 20
0
 30
0
  0
VERTEX
  8
LAYER_6
 10
133.4449
 20
-119.4229
  0
VERTEX
  8
LAYER_6
 10
133.4449
 20
-120.9229
  0
VERTEX
  8
LAYER_6
 10
133.1949
 20
-119.4229
  0
SEQEND
  0
ENDBLK
  0
BLOCK
  8
LAYER_6
  2
AIGNBL06020024
 70
64
 10
0
 20
0
 30
0
  3
AIGNBL06020024
  0
POLYLINE
  8
LAYER_6
 40
0.7056
 41
0.7056
 66
1
 10
0
 20
0
 30
0
  0
VERTEX
  8
LAYER_6
 10
170.3195
 20
-111.8229
  0
SEQEND
  0
ENDBLK
  0
BLOCK
  8
LAYER_6
  2
AIGNBL06020025
 70
64
 10
0
 20
0
 30
0
  3
AIGNBL06020025
  0
POLYLINE
  8
LAYER_6
 40
0.7056
 41
0.7056
 66
1
 10
0
 20
0
 30
0
  0
VERTEX
  8
LAYER_6
 10
172.364
 20
-120.9229
  0
SEQEND
  0
ENDBLK
  0
BLOCK
  8
LAYER_6
  2
AIGNBL06020026
 70
64
 10
0
 20
0
 30
0
  3
AIGNBL06020026
  0
POLYLINE
  8
LAYER_6
 40
0.7056
 41
0.7056
 66
1
 10
0
 20
0
 30
0
  0
VERTEX
  8
LAYER_6
 10
133.4449
 20
-120.9229
  0
SEQEND
  0
ENDBLK
  0
BLOCK
  8
LAYER_6
  2
AIGNBL06020028
 70
64
 10
0
 20
0
 30
0
  3
AIGNBL06020028
  0
POLYLINE
  8
LAYER_6
 40
0.0353
 41
0.0353
 66
1
 10
0
 20
0
 30
0
  0
VERTEX
  8
LAYER_6
 10
172.6595
 20
-99.3336
  0
VERTEX
  8
LAYER_6
 10
174.1595
 20
-99.5836
  0
SEQEND
  0
POLYLINE
  8
LAYER_6
 40
0.0353
 41
0.0353
 66
1
 10
0
 20
0
 30
0
  0
VERTEX
  8
LAYER_6
 10
172.6595
 20
-99.5836
  0
VERTEX
  8
LAYER_6
 10
174.1595
 20
-99.5836
  0
VERTEX
  8
LAYER_6
 10
172.6595
 20
-99.8336
  0
SEQEND
  0
ENDBLK
  0
BLOCK
  8
LAYER_6
  2
AIGNBL06020029
 70
64
 10
0
 20
0
 30
0
  3
AIGNBL06020029
  0
POLYLINE
  8
LAYER_6
 40
0.0353
 41
0.0353
 66
1
 10
0
 20
0
 30
0
  0
VERTEX
  8
LAYER_6
 10
148.9449
 20
-99.8336
  0
VERTEX
  8
LAYER_6
 10
147.4449
 20
-99.5836
  0
SEQEND
  0
POLYLINE
  8
LAYER_6
 40
0.0353
 41
0.0353
 66
1
 10
0
 20
0
 30
0
  0
VERTEX
  8
LAYER_6
 10
148.9449
 20
-99.5836
  0
VERTEX
  8
LAYER_6
 10
147.4449
 20
-99.5836
  0
VERTEX
  8
LAYER_6
 10
148.9449
 20
-99.3336
  0
SEQEND
  0
ENDBLK
  0
BLOCK
  8
LAYER_6
  2
AIGNBL0602002A
 70
64
 10
0
 20
0
 30
0
  3
AIGNBL0602002A
  0
POLYLINE
  8
LAYER_6
 40
0.7056
 41
0.7056
 66
1
 10
0
 20
0
 30
0
  0
VERTEX
  8
LAYER_6
 10
174.1595
 20
-109.2229
  0
SEQEND
  0
ENDBLK
  0
BLOCK
  8
LAYER_6
  2
AIGNBL0602002B
 70
64
 10
0
 20
0
 30
0
  3
AIGNBL0602002B
  0
POLYLINE
  8
LAYER_6
 40
0.7056
 41
0.7056
 66
1
 10
0
 20
0
 30
0
  0
VERTEX
  8
LAYER_6
 10
147.4449
 20
-96.0681
  0
SEQEND
  0
ENDBLK
  0
BLOCK
  8
LAYER_6
  2
AIGNBL0602002C
 70
64
 10
0
 20
0
 30
0
  3
AIGNBL0602002C
  0
POLYLINE
  8
LAYER_6
 40
0.7056
 41
0.7056
 66
1
 10
0
 20
0
 30
0
  0
VERTEX
  8
LAYER_6
 10
147.4449
 20
-99.5836
  0
SEQEND
  0
ENDBLK
  0
BLOCK
  8
LAYER_6
  2
AIGNBL0602002E
 70
64
 10
0
 20
0
 30
0
  3
AIGNBL0602002E
  0
POLYLINE
  8
LAYER_6
 40
0.0353
 41
0.0353
 66
1
 10
0
 20
0
 30
0
  0
VERTEX
  8
LAYER_6
 10
139.6952
 20
-107.3449
  0
VERTEX
  8
LAYER_6
 10
140.9058
 20
-108.2651
  0
SEQEND
  0
POLYLINE
  8
LAYER_6
 40
0.0353
 41
0.0353
 66
1
 10
0
 20
0
 30
0
  0
VERTEX
  8
LAYER_6
 10
139.5787
 20
-107.566
  0
VERTEX
  8
LAYER_6
 10
140.9058
 20
-108.2651
  0
VERTEX
  8
LAYER_6
 10
139.4622
 20
-107.7872
  0
SEQEND
  0
ENDBLK
  0
BLOCK
  8
LAYER_6
  2
AIGNBL0602002F
 70
64
 10
0
 20
0
 30
0
  3
AIGNBL0602002F
  0
POLYLINE
  8
LAYER_6
 40
0.0353
 41
0.0353
 66
1
 10
0
 20
0
 30
0
  0
VERTEX
  8
LAYER_6
 10
148.9552
 20
-109.8918
  0
VERTEX
  8
LAYER_6
 10
147.4449
 20
-109.7148
  0
SEQEND
  0
POLYLINE
  8
LAYER_6
 40
0.0353
 41
0.0353
 66
1
 10
0
 20
0
 30
0
  0
VERTEX
  8
LAYER_6
 10
148.9431
 20
-109.6421
  0
VERTEX
  8
LAYER_6
 10
147.4449
 20
-109.7148
  0
VERTEX
  8
LAYER_6
 10
148.931
 20
-109.3924
  0
SEQEND
  0
ENDBLK
  0
BLOCK
  8
LAYER_6
  2
AIGNBL06020030
 70
64
 10
0
 20
0
 30
0
  3
AIGNBL06020030
  0
POLYLINE
  8
LAYER_6
 40
0.7056
 41
0.7056
 66
1
 10
0
 20
0
 30
0
  0
VERTEX
  8
LAYER_6
 10
143.0073
 20
-109.0648
  0
SEQEND
  0
ENDBLK
  0
BLOCK
  8
LAYER_6
  2
AIGNBL06020031
 70
64
 10
0
 20
0
 30
0
  3
AIGNBL06020031
  0
POLYLINE
  8
LAYER_6
 40
0.7056
 41
0.7056
 66
1
 10
0
 20
0
 30
0
  0
VERTEX
  8
LAYER_6
 10
147.2336
 20
-94.6952
  0
SEQEND
  0
ENDBLK
  0
BLOCK
  8
LAYER_6
  2
AIGNBL06020032
 70
64
 10
0
 20
0
 30
0
  3
AIGNBL06020032
  0
POLYLINE
  8
LAYER_6
 40
0.7056
 41
0.7056
 66
1
 10
0
 20
0
 30
0
  0
VERTEX
  8
LAYER_6
 10
147.4449
 20
-94.2421
  0
SEQEND
  0
ENDBLK
  0
BLOCK
  8
LAYER_6
  2
AIGNBL06020033
 70
64
 10
0
 20
0
 30
0
  3
AIGNBL06020033
  0
POLYLINE
  8
LAYER_6
 40
0.7056
 41
0.7056
 66
1
 10
0
 20
0
 30
0
  0
VERTEX
  8
LAYER_6
 10
147.4449
 20
-96.0681
  0
SEQEND
  0
ENDBLK
  0
BLOCK
  8
LAYER_6
  2
AIGNBL06020034
 70
64
 10
0
 20
0
 30
0
  3
AIGNBL06020034
  0
POLYLINE
  8
LAYER_6
 40
0.7056
 41
0.7056
 66
1
 10
0
 20
0
 30
0
  0
VERTEX
  8
LAYER_6
 10
152.1782
 20
-84.0914
  0
SEQEND
  0
ENDBLK
  0
BLOCK
  8
LAYER_6
  2
AIGNBL06020036
 70
64
 10
0
 20
0
 30
0
  3
AIGNBL06020036
  0
POLYLINE
  8
LAYER_6
 40
0.0353
 41
0.0353
 66
1
 10
0
 20
0
 30
0
  0
VERTEX
  8
LAYER_6
 10
158.5095
 20
-113.3229
  0
VERTEX
  8
LAYER_6
 10
158.7595
 20
-111.8229
  0
SEQEND
  0
POLYLINE
  8
LAYER_6
 40
0.0353
 41
0.0353
 66
1
 10
0
 20
0
 30
0
  0
VERTEX
  8
LAYER_6
 10
158.7595
 20
-113.3229
  0
VERTEX
  8
LAYER_6
 10
158.7595
 20
-111.8229
  0
VERTEX
  8
LAYER_6
 10
159.0095
 20
-113.3229
  0
SEQEND
  0
ENDBLK
  0
BLOCK
  8
LAYER_6
  2
AIGNBL06020037
 70
64
 10
0
 20
0
 30
0
  3
AIGNBL06020037
  0
POLYLINE
  8
LAYER_6
 40
0.0353
 41
0.0353
 66
1
 10
0
 20
0
 30
0
  0
VERTEX
  8
LAYER_6
 10
159.0095
 20
-115.6229
  0
VERTEX
  8
LAYER_6
 10
158.7595
 20
-117.1229
  0
SEQEND
  0
POLYLINE
  8
LAYER_6
 40
0.0353
 41
0.0353
 66
1
 10
0
 20
0
 30
0
  0
VERTEX
  8
LAYER_6
 10
158.7595
 20
-115.6229
  0
VERTEX
  8
LAYER_6
 10
158.7595
 20
-117.1229
  0
VERTEX
  8
LAYER_6
 10
158.5095
 20
-115.6229
  0
SEQEND
  0
ENDBLK
  0
BLOCK
  8
LAYER_6
  2
AIGNBL06020038
 70
64
 10
0
 20
0
 30
0
  3
AIGNBL06020038
  0
POLYLINE
  8
LAYER_6
 40
0.7056
 41
0.7056
 66
1
 10
0
 20
0
 30
0
  0
VERTEX
  8
LAYER_6
 10
174.1595
 20
-117.1229
  0
SEQEND
  0
ENDBLK
  0
BLOCK
  8
LAYER_6
  2
AIGNBL06020039
 70
64
 10
0
 20
0
 30
0
  3
AIGNBL06020039
  0
POLYLINE
  8
LAYER_6
 40
0.7056
 41
0.7056
 66
1
 10
0
 20
0
 30
0
  0
VERTEX
  8
LAYER_6
 10
174.1595
 20
-111.8229
  0
SEQEND
  0
ENDBLK
  0
BLOCK
  8
LAYER_6
  2
AIGNBL0602003A
 70
64
 10
0
 20
0
 30
0
  3
AIGNBL0602003A
  0
POLYLINE
  8
LAYER_6
 40
0.7056
 41
0.7056
 66
1
 10
0
 20
0
 30
0
  0
VERTEX
  8
LAYER_6
 10
158.7595
 20
-111.8229
  0
SEQEND
  0
ENDBLK
  0
BLOCK
  8
LAYER_6
  2
AIGNBL0602003C
 70
64
 10
0
 20
0
 30
0
  3
AIGNBL0602003C
  0
POLYLINE
  8
LAYER_6
 40
0.0353
 41
0.0353
 66
1
 10
0
 20
0
 30
0
  0
VERTEX
  8
LAYER_6
 10
172.0595
 20
-201.3475
  0
VERTEX
  8
LAYER_6
 10
173.5595
 20
-201.5975
  0
SEQEND
  0
POLYLINE
  8
LAYER_6
 40
0.0353
 41
0.0353
 66
1
 10
0
 20
0
 30
0
  0
VERTEX
  8
LAYER_6
 10
172.0595
 20
-201.5975
  0
VERTEX
  8
LAYER_6
 10
173.5595
 20
-201.5975
  0
VERTEX
  8
LAYER_6
 10
172.0595
 20
-201.8475
  0
SEQEND
  0
ENDBLK
  0
BLOCK
  8
LAYER_6
  2
AIGNBL0602003D
 70
64
 10
0
 20
0
 30
0
  3
AIGNBL0602003D
  0
POLYLINE
  8
LAYER_6
 40
0.0353
 41
0.0353
 66
1
 10
0
 20
0
 30
0
  0
VERTEX
  8
LAYER_6
 10
178.7595
 20
-201.8475
  0
VERTEX
  8
LAYER_6
 10
177.2595
 20
-201.5975
  0
SEQEND
  0
POLYLINE
  8
LAYER_6
 40
0.0353
 41
0.0353
 66
1
 10
0
 20
0
 30
0
  0
VERTEX
  8
LAYER_6
 10
178.7595
 20
-201.5975
  0
VERTEX
  8
LAYER_6
 10
177.2595
 20
-201.5975
  0
VERTEX
  8
LAYER_6
 10
178.7595
 20
-201.3475
  0
SEQEND
  0
ENDBLK
  0
BLOCK
  8
LAYER_6
  2
AIGNBL0602003E
 70
64
 10
0
 20
0
 30
0
  3
AIGNBL0602003E
  0
POLYLINE
  8
LAYER_6
 40
0.7056
 41
0.7056
 66
1
 10
0
 20
0
 30
0
  0
VERTEX
  8
LAYER_6
 10
177.2595
 20
-191.9942
  0
SEQEND
  0
ENDBLK
  0
BLOCK
  8
LAYER_6
  2
AIGNBL0602003F
 70
64
 10
0
 20
0
 30
0
  3
AIGNBL0602003F
  0
POLYLINE
  8
LAYER_6
 40
0.7056
 41
0.7056
 66
1
 10
0
 20
0
 30
0
  0
VERTEX
  8
LAYER_6
 10
173.5595
 20
-188.9975
  0
SEQEND
  0
ENDBLK
  0
BLOCK
  8
LAYER_6
  2
AIGNBL06020040
 70
64
 10
0
 20
0
 30
0
  3
AIGNBL06020040
  0
POLYLINE
  8
LAYER_6
 40
0.7056
 41
0.7056
 66
1
 10
0
 20
0
 30
0
  0
VERTEX
  8
LAYER_6
 10
173.5595
 20
-201.5975
  0
SEQEND
  0
ENDBLK
  0
BLOCK
  8
LAYER_6
  2
AIGNBL06020042
 70
64
 10
0
 20
0
 30
0
  3
AIGNBL06020042
  0
POLYLINE
  8
LAYER_6
 40
0.0353
 41
0.0353
 66
1
 10
0
 20
0
 30
0
  0
VERTEX
  8
LAYER_6
 10
159.0095
 20
-188.6975
  0
VERTEX
  8
LAYER_6
 10
158.7595
 20
-190.1975
  0
SEQEND
  0
POLYLINE
  8
LAYER_6
 40
0.0353
 41
0.0353
 66
1
 10
0
 20
0
 30
0
  0
VERTEX
  8
LAYER_6
 10
158.7595
 20
-188.6975
  0
VERTEX
  8
LAYER_6
 10
158.7595
 20
-190.1975
  0
VERTEX
  8
LAYER_6
 10
158.5095
 20
-188.6975
  0
SEQEND
  0
ENDBLK
  0
BLOCK
  8
LAYER_6
  2
AIGNBL06020043
 70
64
 10
0
 20
0
 30
0
  3
AIGNBL06020043
  0
POLYLINE
  8
LAYER_6
 40
0.0353
 41
0.0353
 66
1
 10
0
 20
0
 30
0
  0
VERTEX
  8
LAYER_6
 10
158.5095
 20
-156.4975
  0
VERTEX
  8
LAYER_6
 10
158.7595
 20
-154.9975
  0
SEQEND
  0
POLYLINE
  8
LAYER_6
 40
0.0353
 41
0.0353
 66
1
 10
0
 20
0
 30
0
  0
VERTEX
  8
LAYER_6
 10
158.7595
 20
-156.4975
  0
VERTEX
  8
LAYER_6
 10
158.7595
 20
-154.9975
  0
VERTEX
  8
LAYER_6
 10
159.0095
 20
-156.4975
  0
SEQEND
  0
ENDBLK
  0
BLOCK
  8
LAYER_6
  2
AIGNBL06020044
 70
64
 10
0
 20
0
 30
0
  3
AIGNBL06020044
  0
POLYLINE
  8
LAYER_6
 40
0.7056
 41
0.7056
 66
1
 10
0
 20
0
 30
0
  0
VERTEX
  8
LAYER_6
 10
174.6073
 20
-190.1975
  0
SEQEND
  0
ENDBLK
  0
BLOCK
  8
LAYER_6
  2
AIGNBL06020045
 70
64
 10
0
 20
0
 30
0
  3
AIGNBL06020045
  0
POLYLINE
  8
LAYER_6
 40
0.7056
 41
0.7056
 66
1
 10
0
 20
0
 30
0
  0
VERTEX
  8
LAYER_6
 10
173.5595
 20
-154.9975
  0
SEQEND
  0
ENDBLK
  0
BLOCK
  8
LAYER_6
  2
AIGNBL06020046
 70
64
 10
0
 20
0
 30
0
  3
AIGNBL06020046
  0
POLYLINE
  8
LAYER_6
 40
0.7056
 41
0.7056
 66
1
 10
0
 20
0
 30
0
  0
VERTEX
  8
LAYER_6
 10
158.7595
 20
-154.9975
  0
SEQEND
  0
ENDBLK
  0
BLOCK
  8
LAYER_6
  2
AIGNBL06020048
 70
64
 10
0
 20
0
 30
0
  3
AIGNBL06020048
  0
POLYLINE
  8
LAYER_6
 40
0.0353
 41
0.0353
 66
1
 10
0
 20
0
 30
0
  0
VERTEX
  8
LAYER_6
 10
81.9649
 20
-201.3475
  0
VERTEX
  8
LAYER_6
 10
83.4649
 20
-201.5975
  0
SEQEND
  0
POLYLINE
  8
LAYER_6
 40
0.0353
 41
0.0353
 66
1
 10
0
 20
0
 30
0
  0
VERTEX
  8
LAYER_6
 10
81.9649
 20
-201.5975
  0
VERTEX
  8
LAYER_6
 10
83.4649
 20
-201.5975
  0
VERTEX
  8
LAYER_6
 10
81.9649
 20
-201.8475
  0
SEQEND
  0
ENDBLK
  0
BLOCK
  8
LAYER_6
  2
AIGNBL06020049
 70
64
 10
0
 20
0
 30
0
  3
AIGNBL06020049
  0
POLYLINE
  8
LAYER_6
 40
0.0353
 41
0.0353
 66
1
 10
0
 20
0
 30
0
  0
VERTEX
  8
LAYER_6
 10
61.6649
 20
-201.8475
  0
VERTEX
  8
LAYER_6
 10
60.1649
 20
-201.5975
  0
SEQEND
  0
POLYLINE
  8
LAYER_6
 40
0.0353
 41
0.0353
 66
1
 10
0
 20
0
 30
0
  0
VERTEX
  8
LAYER_6
 10
61.6649
 20
-201.5975
  0
VERTEX
  8
LAYER_6
 10
60.1649
 20
-201.5975
  0
VERTEX
  8
LAYER_6
 10
61.6649
 20
-201.3475
  0
SEQEND
  0
ENDBLK
  0
BLOCK
  8
LAYER_6
  2
AIGNBL0602004A
 70
64
 10
0
 20
0
 30
0
  3
AIGNBL0602004A
  0
POLYLINE
  8
LAYER_6
 40
0.7056
 41
0.7056
 66
1
 10
0
 20
0
 30
0
  0
VERTEX
  8
LAYER_6
 10
83.4649
 20
-192.1975
  0
SEQEND
  0
ENDBLK
  0
BLOCK
  8
LAYER_6
  2
AIGNBL0602004B
 70
64
 10
0
 20
0
 30
0
  3
AIGNBL0602004B
  0
POLYLINE
  8
LAYER_6
 40
0.7056
 41
0.7056
 66
1
 10
0
 20
0
 30
0
  0
VERTEX
  8
LAYER_6
 10
60.1649
 20
-176.3371
  0
SEQEND
  0
ENDBLK
  0
BLOCK
  8
LAYER_6
  2
AIGNBL0602004C
 70
64
 10
0
 20
0
 30
0
  3
AIGNBL0602004C
  0
POLYLINE
  8
LAYER_6
 40
0.7056
 41
0.7056
 66
1
 10
0
 20
0
 30
0
  0
VERTEX
  8
LAYER_6
 10
60.1649
 20
-201.5975
  0
SEQEND
  0
ENDBLK
  0
BLOCK
  8
LAYER_6
  2
AIGNBL0602004E
 70
64
 10
0
 20
0
 30
0
  3
AIGNBL0602004E
  0
POLYLINE
  8
LAYER_6
 40
0.0353
 41
0.0353
 66
1
 10
0
 20
0
 30
0
  0
VERTEX
  8
LAYER_6
 10
52.4149
 20
-170.0375
  0
VERTEX
  8
LAYER_6
 10
52.1649
 20
-171.5375
  0
SEQEND
  0
POLYLINE
  8
LAYER_6
 40
0.0353
 41
0.0353
 66
1
 10
0
 20
0
 30
0
  0
VERTEX
  8
LAYER_6
 10
52.1649
 20
-170.0375
  0
VERTEX
  8
LAYER_6
 10
52.1649
 20
-171.5375
  0
VERTEX
  8
LAYER_6
 10
51.9149
 20
-170.0375
  0
SEQEND
  0
ENDBLK
  0
BLOCK
  8
LAYER_6
  2
AIGNBL0602004F
 70
64
 10
0
 20
0
 30
0
  3
AIGNBL0602004F
  0
POLYLINE
  8
LAYER_6
 40
0.0353
 41
0.0353
 66
1
 10
0
 20
0
 30
0
  0
VERTEX
  8
LAYER_6
 10
51.9149
 20
-167.8371
  0
VERTEX
  8
LAYER_6
 10
52.1649
 20
-166.3371
  0
SEQEND
  0
POLYLINE
  8
LAYER_6
 40
0.0353
 41
0.0353
 66
1
 10
0
 20
0
 30
0
  0
VERTEX
  8
LAYER_6
 10
52.1649
 20
-167.8371
  0
VERTEX
  8
LAYER_6
 10
52.1649
 20
-166.3371
  0
VERTEX
  8
LAYER_6
 10
52.4149
 20
-167.8371
  0
SEQEND
  0
ENDBLK
  0
BLOCK
  8
LAYER_6
  2
AIGNBL06020050
 70
64
 10
0
 20
0
 30
0
  3
AIGNBL06020050
  0
POLYLINE
  8
LAYER_6
 40
0.7056
 41
0.7056
 66
1
 10
0
 20
0
 30
0
  0
VERTEX
  8
LAYER_6
 10
68.3675
 20
-166.3371
  0
SEQEND
  0
ENDBLK
  0
BLOCK
  8
LAYER_6
  2
AIGNBL06020051
 70
64
 10
0
 20
0
 30
0
  3
AIGNBL06020051
  0
POLYLINE
  8
LAYER_6
 40
0.7056
 41
0.7056
 66
1
 10
0
 20
0
 30
0
  0
VERTEX
  8
LAYER_6
 10
60.3337
 20
-171.5375
  0
SEQEND
  0
ENDBLK
  0
BLOCK
  8
LAYER_6
  2
AIGNBL06020052
 70
64
 10
0
 20
0
 30
0
  3
AIGNBL06020052
  0
POLYLINE
  8
LAYER_6
 40
0.7056
 41
0.7056
 66
1
 10
0
 20
0
 30
0
  0
VERTEX
  8
LAYER_6
 10
52.1649
 20
-171.5375
  0
SEQEND
  0
ENDBLK
  0
BLOCK
  8
LAYER_6
  2
AIGNBL06020054
 70
64
 10
0
 20
0
 30
0
  3
AIGNBL06020054
  0
POLYLINE
  8
LAYER_6
 40
0.0353
 41
0.0353
 66
1
 10
0
 20
0
 30
0
  0
VERTEX
  8
LAYER_6
 10
51.9149
 20
-173.0375
  0
VERTEX
  8
LAYER_6
 10
52.1649
 20
-171.5375
  0
SEQEND
  0
POLYLINE
  8
LAYER_6
 40
0.0353
 41
0.0353
 66
1
 10
0
 20
0
 30
0
  0
VERTEX
  8
LAYER_6
 10
52.1649
 20
-173.0375
  0
VERTEX
  8
LAYER_6
 10
52.1649
 20
-171.5375
  0
VERTEX
  8
LAYER_6
 10
52.4149
 20
-173.0375
  0
SEQEND
  0
ENDBLK
  0
BLOCK
  8
LAYER_6
  2
AIGNBL06020055
 70
64
 10
0
 20
0
 30
0
  3
AIGNBL06020055
  0
POLYLINE
  8
LAYER_6
 40
0.0353
 41
0.0353
 66
1
 10
0
 20
0
 30
0
  0
VERTEX
  8
LAYER_6
 10
52.4149
 20
-185.6371
  0
VERTEX
  8
LAYER_6
 10
52.1649
 20
-187.1371
  0
SEQEND
  0
POLYLINE
  8
LAYER_6
 40
0.0353
 41
0.0353
 66
1
 10
0
 20
0
 30
0
  0
VERTEX
  8
LAYER_6
 10
52.1649
 20
-185.6371
  0
VERTEX
  8
LAYER_6
 10
52.1649
 20
-187.1371
  0
VERTEX
  8
LAYER_6
 10
51.9149
 20
-185.6371
  0
SEQEND
  0
ENDBLK
  0
BLOCK
  8
LAYER_6
  2
AIGNBL06020056
 70
64
 10
0
 20
0
 30
0
  3
AIGNBL06020056
  0
POLYLINE
  8
LAYER_6
 40
0.7056
 41
0.7056
 66
1
 10
0
 20
0
 30
0
  0
VERTEX
  8
LAYER_6
 10
60.3337
 20
-171.5375
  0
SEQEND
  0
ENDBLK
  0
BLOCK
  8
LAYER_6
  2
AIGNBL06020057
 70
64
 10
0
 20
0
 30
0
  3
AIGNBL06020057
  0
POLYLINE
  8
LAYER_6
 40
0.7056
 41
0.7056
 66
1
 10
0
 20
0
 30
0
  0
VERTEX
  8
LAYER_6
 10
61.7649
 20
-187.1371
  0
SEQEND
  0
ENDBLK
  0
BLOCK
  8
LAYER_6
  2
AIGNBL06020058
 70
64
 10
0
 20
0
 30
0
  3
AIGNBL06020058
  0
POLYLINE
  8
LAYER_6
 40
0.7056
 41
0.7056
 66
1
 10
0
 20
0
 30
0
  0
VERTEX
  8
LAYER_6
 10
52.1649
 20
-187.1371
  0
SEQEND
  0
ENDBLK
  0
BLOCK
  8
LAYER_1
  2
AIGNBL01010002
 70
64
 10
0
 20
0
 30
0
  3
AIGNBL01010002
  0
INSERT
  8
LAYER_1
  2
AIGNBL01020003
 10
0
 20
0
 30
0
  0
INSERT
  8
LAYER_1
  2
AIGNBL0102000C
 10
0
 20
0
 30
0
  0
ENDBLK
  0
BLOCK
  8
LAYER_6
  2
AIGNBL06010002
 70
64
 10
0
 20
0
 30
0
  3
AIGNBL06010002
  0
POLYLINE
  8
LAYER_6
 40
0.7056
 41
0.7056
 66
1
 10
0
 20
0
 30
0
 70
1
  0
VERTEX
  8
LAYER_6
 10
33.7873
 20
22.6587
  0
VERTEX
  8
LAYER_6
 10
230.7955
 20
22.6587
  0
VERTEX
  8
LAYER_6
 10
230.7955
 20
-259.334
  0
VERTEX
  8
LAYER_6
 10
33.7873
 20
-259.334
  0
SEQEND
  0
ENDBLK
  0
BLOCK
  8
LAYER_6
  2
AIGNBL06010003
 70
64
 10
0
 20
0
 30
0
  3
AIGNBL06010003
  0
POLYLINE
  8
LAYER_6
 40
0.0353
 41
0.0353
 66
1
 10
0
 20
0
 30
0
  0
VERTEX
  8
LAYER_6
 10
80.5649
 20
-111.7674
  0
VERTEX
  8
LAYER_6
 10
80.5649
 20
-115.155
  0
SEQEND
  0
POLYLINE
  8
LAYER_6
 40
0.0353
 41
0.0353
 66
1
 10
0
 20
0
 30
0
  0
VERTEX
  8
LAYER_6
 10
88.3649
 20
-111.7674
  0
VERTEX
  8
LAYER_6
 10
88.3649
 20
-115.155
  0
SEQEND
  0
POLYLINE
  8
LAYER_6
 40
0.0353
 41
0.0353
 66
1
 10
0
 20
0
 30
0
  0
VERTEX
  8
LAYER_6
 10
82.0649
 20
-113.655
  0
VERTEX
  8
LAYER_6
 10
86.8649
 20
-113.655
  0
SEQEND
  0
POLYLINE
  8
LAYER_6
 40
0.0353
 41
0.0353
 66
1
 10
0
 20
0
 30
0
  0
VERTEX
  8
LAYER_6
 10
88.3649
 20
-113.655
  0
VERTEX
  8
LAYER_6
 10
97.2529
 20
-113.655
  0
SEQEND
  0
INSERT
  8
LAYER_6
  2
AIGNBL06020004
 10
0
 20
0
 30
0
  0
INSERT
  8
LAYER_6
  2
AIGNBL06020005
 10
0
 20
0
 30
0
  0
TEXT
  8
LAYER_6
 10
92.9736
 20
-112.3533
 11
92.9736
 21
-112.3533
 40
3
 41
0.5
 72
1
  1
φ39
  0
INSERT
  8
LAYER_6
  2
AIGNBL06020006
 10
0
 20
0
 30
0
  0
INSERT
  8
LAYER_6
  2
AIGNBL06020007
 10
0
 20
0
 30
0
  0
INSERT
  8
LAYER_6
  2
AIGNBL06020008
 10
0
 20
0
 30
0
  0
ENDBLK
  0
BLOCK
  8
LAYER_6
  2
AIGNBL06010009
 70
64
 10
0
 20
0
 30
0
  3
AIGNBL06010009
  0
POLYLINE
  8
LAYER_6
 40
0.0353
 41
0.0353
 66
1
 10
0
 20
0
 30
0
  0
VERTEX
  8
LAYER_6
 10
81.9249
 20
-109.1874
  0
VERTEX
  8
LAYER_6
 10
81.9249
 20
-100.418
  0
SEQEND
  0
POLYLINE
  8
LAYER_6
 40
0.0353
 41
0.0353
 66
1
 10
0
 20
0
 30
0
  0
VERTEX
  8
LAYER_6
 10
87.0049
 20
-109.1874
  0
VERTEX
  8
LAYER_6
 10
87.0049
 20
-100.418
  0
SEQEND
  0
POLYLINE
  8
LAYER_6
 40
0.0353
 41
0.0353
 66
1
 10
0
 20
0
 30
0
  0
VERTEX
  8
LAYER_6
 10
83.4249
 20
-102.418
  0
VERTEX
  8
LAYER_6
 10
85.5049
 20
-102.418
  0
SEQEND
  0
POLYLINE
  8
LAYER_6
 40
0.0353
 41
0.0353
 66
1
 10
0
 20
0
 30
0
  0
VERTEX
  8
LAYER_6
 10
87.0049
 20
-102.418
  0
VERTEX
  8
LAYER_6
 10
99.8902
 20
-102.418
  0
SEQEND
  0
INSERT
  8
LAYER_6
  2
AIGNBL0602000A
 10
0
 20
0
 30
0
  0
INSERT
  8
LAYER_6
  2
AIGNBL0602000B
 10
0
 20
0
 30
0
  0
TEXT
  8
LAYER_6
 10
93.7865
 20
-101.1163
 11
93.7865
 21
-101.1163
 40
3
 41
0.5
 72
1
  1
φ25.4
  0
INSERT
  8
LAYER_6
  2
AIGNBL0602000C
 10
0
 20
0
 30
0
  0
INSERT
  8
LAYER_6
  2
AIGNBL0602000D
 10
0
 20
0
 30
0
  0
INSERT
  8
LAYER_6
  2
AIGNBL0602000E
 10
0
 20
0
 30
0
  0
ENDBLK
  0
BLOCK
  8
LAYER_6
  2
AIGNBL0601000F
 70
64
 10
0
 20
0
 30
0
  3
AIGNBL0601000F
  0
POLYLINE
  8
LAYER_6
 40
0.0353
 41
0.0353
 66
1
 10
0
 20
0
 30
0
  0
VERTEX
  8
LAYER_6
 10
174.1595
 20
-91.365
  0
VERTEX
  8
LAYER_6
 10
174.1595
 20
-66.345
  0
SEQEND
  0
POLYLINE
  8
LAYER_6
 40
0.0353
 41
0.0353
 66
1
 10
0
 20
0
 30
0
  0
VERTEX
  8
LAYER_6
 10
144.4815
 20
-92.7058
  0
VERTEX
  8
LAYER_6
 10
144.4815
 20
-66.345
  0
SEQEND
  0
POLYLINE
  8
LAYER_6
 40
0.0353
 41
0.0353
 66
1
 10
0
 20
0
 30
0
  0
VERTEX
  8
LAYER_6
 10
172.6595
 20
-68.345
  0
VERTEX
  8
LAYER_6
 10
145.9815
 20
-68.345
  0
SEQEND
  0
INSERT
  8
LAYER_6
  2
AIGNBL06020010
 10
0
 20
0
 30
0
  0
INSERT
  8
LAYER_6
  2
AIGNBL06020011
 10
0
 20
0
 30
0
  0
TEXT
  8
LAYER_6
 10
161.2204
 20
-67.0433
 11
161.2204
 21
-67.0433
 40
3
 41
0.5
 72
1
  1
（148）
  0
INSERT
  8
LAYER_6
  2
AIGNBL06020012
 10
0
 20
0
 30
0
  0
INSERT
  8
LAYER_6
  2
AIGNBL06020013
 10
0
 20
0
 30
0
  0
INSERT
  8
LAYER_6
  2
AIGNBL06020014
 10
0
 20
0
 30
0
  0
ENDBLK
  0
BLOCK
  8
LAYER_6
  2
AIGNBL06010015
 70
64
 10
0
 20
0
 30
0
  3
AIGNBL06010015
  0
POLYLINE
  8
LAYER_6
 40
0.0353
 41
0.0353
 66
1
 10
0
 20
0
 30
0
  0
VERTEX
  8
LAYER_6
 10
84.4649
 20
-76.3495
  0
VERTEX
  8
LAYER_6
 10
71.9649
 20
-76.3495
  0
SEQEND
  0
POLYLINE
  8
LAYER_6
 40
0.0353
 41
0.0353
 66
1
 10
0
 20
0
 30
0
  0
VERTEX
  8
LAYER_6
 10
80.6249
 20
-111.8274
  0
VERTEX
  8
LAYER_6
 10
71.9649
 20
-111.8274
  0
SEQEND
  0
POLYLINE
  8
LAYER_6
 40
0.0353
 41
0.0353
 66
1
 10
0
 20
0
 30
0
  0
VERTEX
  8
LAYER_6
 10
73.9649
 20
-77.8495
  0
VERTEX
  8
LAYER_6
 10
73.9649
 20
-110.3274
  0
SEQEND
  0
INSERT
  8
LAYER_6
  2
AIGNBL06020016
 10
0
 20
0
 30
0
  0
INSERT
  8
LAYER_6
  2
AIGNBL06020017
 10
0
 20
0
 30
0
  0
TEXT
  8
LAYER_6
 10
72.6631
 20
-92.1887
 11
72.6631
 21
-92.1887
 40
3
 41
0.5
 50
89.99999999
 72
1
  1
（177）
  0
INSERT
  8
LAYER_6
  2
AIGNBL06020018
 10
0
 20
0
 30
0
  0
INSERT
  8
LAYER_6
  2
AIGNBL06020019
 10
0
 20
0
 30
0
  0
INSERT
  8
LAYER_6
  2
AIGNBL0602001A
 10
0
 20
0
 30
0
  0
ENDBLK
  0
BLOCK
  8
LAYER_6
  2
AIGNBL0601001B
 70
64
 10
0
 20
0
 30
0
  3
AIGNBL0601001B
  0
POLYLINE
  8
LAYER_6
 40
0.0353
 41
0.0353
 66
1
 10
0
 20
0
 30
0
  0
VERTEX
  8
LAYER_6
 10
170.3195
 20
-111.8229
  0
VERTEX
  8
LAYER_6
 10
131.4449
 20
-111.8229
  0
SEQEND
  0
POLYLINE
  8
LAYER_6
 40
0.0353
 41
0.0353
 66
1
 10
0
 20
0
 30
0
  0
VERTEX
  8
LAYER_6
 10
147.4449
 20
-94.2421
  0
VERTEX
  8
LAYER_6
 10
131.4449
 20
-94.2421
  0
SEQEND
  0
POLYLINE
  8
LAYER_6
 40
0.0353
 41
0.0353
 66
1
 10
0
 20
0
 30
0
  0
VERTEX
  8
LAYER_6
 10
133.4449
 20
-110.3229
  0
VERTEX
  8
LAYER_6
 10
133.4449
 20
-95.7421
  0
SEQEND
  0
INSERT
  8
LAYER_6
  2
AIGNBL0602001C
 10
0
 20
0
 30
0
  0
INSERT
  8
LAYER_6
  2
AIGNBL0602001D
 10
0
 20
0
 30
0
  0
TEXT
  8
LAYER_6
 10
132.143
 20
-101.192
 11
132.143
 21
-101.192
 40
3
 41
0.5
 50
89.99999999
 72
1
  1
（88）
  0
INSERT
  8
LAYER_6
  2
AIGNBL0602001E
 10
0
 20
0
 30
0
  0
INSERT
  8
LAYER_6
  2
AIGNBL0602001F
 10
0
 20
0
 30
0
  0
INSERT
  8
LAYER_6
  2
AIGNBL06020020
 10
0
 20
0
 30
0
  0
ENDBLK
  0
BLOCK
  8
LAYER_6
  2
AIGNBL06010021
 70
64
 10
0
 20
0
 30
0
  3
AIGNBL06010021
  0
POLYLINE
  8
LAYER_6
 40
0.0353
 41
0.0353
 66
1
 10
0
 20
0
 30
0
  0
VERTEX
  8
LAYER_6
 10
170.3195
 20
-111.8229
  0
VERTEX
  8
LAYER_6
 10
131.4449
 20
-111.8229
  0
SEQEND
  0
POLYLINE
  8
LAYER_6
 40
0.0353
 41
0.0353
 66
1
 10
0
 20
0
 30
0
  0
VERTEX
  8
LAYER_6
 10
172.364
 20
-120.9229
  0
VERTEX
  8
LAYER_6
 10
131.4449
 20
-120.9229
  0
SEQEND
  0
POLYLINE
  8
LAYER_6
 40
0.0353
 41
0.0353
 66
1
 10
0
 20
0
 30
0
  0
VERTEX
  8
LAYER_6
 10
133.4449
 20
-113.3229
  0
VERTEX
  8
LAYER_6
 10
133.4449
 20
-119.4229
  0
SEQEND
  0
POLYLINE
  8
LAYER_6
 40
0.0353
 41
0.0353
 66
1
 10
0
 20
0
 30
0
  0
VERTEX
  8
LAYER_6
 10
133.4449
 20
-120.9229
  0
VERTEX
  8
LAYER_6
 10
133.4449
 20
-131.2389
  0
SEQEND
  0
INSERT
  8
LAYER_6
  2
AIGNBL06020022
 10
0
 20
0
 30
0
  0
INSERT
  8
LAYER_6
  2
AIGNBL06020023
 10
0
 20
0
 30
0
  0
TEXT
  8
LAYER_6
 10
132.143
 20
-126.6326
 11
132.143
 21
-126.6326
 40
3
 41
0.5
 50
89.99999999
 72
1
  1
45.5
  0
INSERT
  8
LAYER_6
  2
AIGNBL06020024
 10
0
 20
0
 30
0
  0
INSERT
  8
LAYER_6
  2
AIGNBL06020025
 10
0
 20
0
 30
0
  0
INSERT
  8
LAYER_6
  2
AIGNBL06020026
 10
0
 20
0
 30
0
  0
ENDBLK
  0
BLOCK
  8
LAYER_6
  2
AIGNBL06010027
 70
64
 10
0
 20
0
 30
0
  3
AIGNBL06010027
  0
POLYLINE
  8
LAYER_6
 40
0.0353
 41
0.0353
 66
1
 10
0
 20
0
 30
0
  0
VERTEX
  8
LAYER_6
 10
174.1595
 20
-109.2229
  0
VERTEX
  8
LAYER_6
 10
174.1595
 20
-97.5836
  0
SEQEND
  0
POLYLINE
  8
LAYER_6
 40
0.0353
 41
0.0353
 66
1
 10
0
 20
0
 30
0
  0
VERTEX
  8
LAYER_6
 10
147.4449
 20
-96.0681
  0
VERTEX
  8
LAYER_6
 10
147.4449
 20
-101.5836
  0
SEQEND
  0
POLYLINE
  8
LAYER_6
 40
0.0353
 41
0.0353
 66
1
 10
0
 20
0
 30
0
  0
VERTEX
  8
LAYER_6
 10
172.6595
 20
-99.5836
  0
VERTEX
  8
LAYER_6
 10
148.9449
 20
-99.5836
  0
SEQEND
  0
INSERT
  8
LAYER_6
  2
AIGNBL06020028
 10
0
 20
0
 30
0
  0
INSERT
  8
LAYER_6
  2
AIGNBL06020029
 10
0
 20
0
 30
0
  0
TEXT
  8
LAYER_6
 10
161.8936
 20
-98.2818
 11
161.8936
 21
-98.2818
 40
3
 41
0.5
 72
1
  1
（134）
  0
INSERT
  8
LAYER_6
  2
AIGNBL0602002A
 10
0
 20
0
 30
0
  0
INSERT
  8
LAYER_6
  2
AIGNBL0602002B
 10
0
 20
0
 30
0
  0
INSERT
  8
LAYER_6
  2
AIGNBL0602002C
 10
0
 20
0
 30
0
  0
ENDBLK
  0
BLOCK
  8
LAYER_6
  2
AIGNBL0601002D
 70
64
 10
0
 20
0
 30
0
  3
AIGNBL0601002D
  0
POLYLINE
  8
LAYER_6
 40
0.0353
 41
0.0353
 66
1
 10
0
 20
0
 30
0
  0
VERTEX
  8
LAYER_6
 10
147.2336
 20
-94.6952
  0
VERTEX
  8
LAYER_6
 10
140.4832
 20
-109.1714
  0
SEQEND
  0
POLYLINE
  8
LAYER_6
 40
0.0353
 41
0.0353
 66
1
 10
0
 20
0
 30
0
  0
VERTEX
  8
LAYER_6
 10
147.4449
 20
-96.0681
  0
VERTEX
  8
LAYER_6
 10
147.4449
 20
-110.7148
  0
SEQEND
  0
POLYLINE
  8
LAYER_6
 40
0.0353
 41
0.0353
 66
1
 10
0
 20
0
 30
0
  0
VERTEX
  8
LAYER_6
 10
138.3255
 20
-106.7417
 42
0.02465162176
  0
VERTEX
  8
LAYER_6
 10
139.5787
 20
-107.566
  0
SEQEND
  0
POLYLINE
  8
LAYER_6
 40
0.0353
 41
0.0353
 66
1
 10
0
 20
0
 30
0
  0
VERTEX
  8
LAYER_6
 10
148.9431
 20
-109.6421
 42
0.02465027259
  0
VERTEX
  8
LAYER_6
 10
150.4273
 20
-109.4246
  0
SEQEND
  0
POLYLINE
  8
LAYER_6
 40
0.0353
 41
0.0353
 66
1
 10
0
 20
0
 30
0
  0
VERTEX
  8
LAYER_6
 10
140.9058
 20
-108.2651
 42
0.1095187092
  0
VERTEX
  8
LAYER_6
 10
147.4449
 20
-109.7148
  0
SEQEND
  0
INSERT
  8
LAYER_6
  2
AIGNBL0602002E
 10
0
 20
0
 30
0
  0
INSERT
  8
LAYER_6
  2
AIGNBL0602002F
 10
0
 20
0
 30
0
  0
INSERT
  8
LAYER_6
  2
AIGNBL06020030
 10
0
 20
0
 30
0
  0
INSERT
  8
LAYER_6
  2
AIGNBL06020031
 10
0
 20
0
 30
0
  0
INSERT
  8
LAYER_6
  2
AIGNBL06020032
 10
0
 20
0
 30
0
  0
INSERT
  8
LAYER_6
  2
AIGNBL06020033
 10
0
 20
0
 30
0
  0
INSERT
  8
LAYER_6
  2
AIGNBL06020034
 10
0
 20
0
 30
0
  0
ENDBLK
  0
BLOCK
  8
LAYER_6
  2
AIGNBL06010035
 70
64
 10
0
 20
0
 30
0
  3
AIGNBL06010035
  0
POLYLINE
  8
LAYER_6
 40
0.0353
 41
0.0353
 66
1
 10
0
 20
0
 30
0
  0
VERTEX
  8
LAYER_6
 10
174.1595
 20
-117.1229
  0
VERTEX
  8
LAYER_6
 10
156.7595
 20
-117.1229
  0
SEQEND
  0
POLYLINE
  8
LAYER_6
 40
0.0353
 41
0.0353
 66
1
 10
0
 20
0
 30
0
  0
VERTEX
  8
LAYER_6
 10
174.1595
 20
-111.8229
  0
VERTEX
  8
LAYER_6
 10
156.7595
 20
-111.8229
  0
SEQEND
  0
POLYLINE
  8
LAYER_6
 40
0.0353
 41
0.0353
 66
1
 10
0
 20
0
 30
0
  0
VERTEX
  8
LAYER_6
 10
158.7595
 20
-113.3229
  0
VERTEX
  8
LAYER_6
 10
158.7595
 20
-115.6229
  0
SEQEND
  0
POLYLINE
  8
LAYER_6
 40
0.0353
 41
0.0353
 66
1
 10
0
 20
0
 30
0
  0
VERTEX
  8
LAYER_6
 10
158.7595
 20
-117.1229
  0
VERTEX
  8
LAYER_6
 10
158.7595
 20
-145.771
  0
SEQEND
  0
INSERT
  8
LAYER_6
  2
AIGNBL06020036
 10
0
 20
0
 30
0
  0
INSERT
  8
LAYER_6
  2
AIGNBL06020037
 10
0
 20
0
 30
0
  0
TEXT
  8
LAYER_6
 10
157.4576
 20
-130.234
 11
157.4576
 21
-130.234
 40
3
 41
0.5
 50
89.99999999
 72
1
  1
取付板厚５～３０
  0
INSERT
  8
LAYER_6
  2
AIGNBL06020038
 10
0
 20
0
 30
0
  0
INSERT
  8
LAYER_6
  2
AIGNBL06020039
 10
0
 20
0
 30
0
  0
INSERT
  8
LAYER_6
  2
AIGNBL0602003A
 10
0
 20
0
 30
0
  0
ENDBLK
  0
BLOCK
  8
LAYER_6
  2
AIGNBL0601003B
 70
64
 10
0
 20
0
 30
0
  3
AIGNBL0601003B
  0
POLYLINE
  8
LAYER_6
 40
0.0353
 41
0.0353
 66
1
 10
0
 20
0
 30
0
  0
VERTEX
  8
LAYER_6
 10
177.2595
 20
-191.9942
  0
VERTEX
  8
LAYER_6
 10
177.2595
 20
-203.5975
  0
SEQEND
  0
POLYLINE
  8
LAYER_6
 40
0.0353
 41
0.0353
 66
1
 10
0
 20
0
 30
0
  0
VERTEX
  8
LAYER_6
 10
173.5595
 20
-188.9975
  0
VERTEX
  8
LAYER_6
 10
173.5595
 20
-203.5975
  0
SEQEND
  0
POLYLINE
  8
LAYER_6
 40
0.0353
 41
0.0353
 66
1
 10
0
 20
0
 30
0
  0
VERTEX
  8
LAYER_6
 10
172.0595
 20
-201.5975
  0
VERTEX
  8
LAYER_6
 10
170.5595
 20
-201.5975
  0
SEQEND
  0
POLYLINE
  8
LAYER_6
 40
0.0353
 41
0.0353
 66
1
 10
0
 20
0
 30
0
  0
VERTEX
  8
LAYER_6
 10
178.7595
 20
-201.5975
  0
VERTEX
  8
LAYER_6
 10
188.7185
 20
-201.5975
  0
SEQEND
  0
POLYLINE
  8
LAYER_6
 40
0.0353
 41
0.0353
 66
1
 10
0
 20
0
 30
0
  0
VERTEX
  8
LAYER_6
 10
173.5595
 20
-201.5975
  0
VERTEX
  8
LAYER_6
 10
177.2595
 20
-201.5975
  0
SEQEND
  0
INSERT
  8
LAYER_6
  2
AIGNBL0602003C
 10
0
 20
0
 30
0
  0
INSERT
  8
LAYER_6
  2
AIGNBL0602003D
 10
0
 20
0
 30
0
  0
TEXT
  8
LAYER_6
 10
184.6872
 20
-200.2956
 11
184.6872
 21
-200.2956
 40
3
 41
0.5
 72
1
  1
18.5
  0
INSERT
  8
LAYER_6
  2
AIGNBL0602003E
 10
0
 20
0
 30
0
  0
INSERT
  8
LAYER_6
  2
AIGNBL0602003F
 10
0
 20
0
 30
0
  0
INSERT
  8
LAYER_6
  2
AIGNBL06020040
 10
0
 20
0
 30
0
  0
ENDBLK
  0
BLOCK
  8
LAYER_6
  2
AIGNBL06010041
 70
64
 10
0
 20
0
 30
0
  3
AIGNBL06010041
  0
POLYLINE
  8
LAYER_6
 40
0.0353
 41
0.0353
 66
1
 10
0
 20
0
 30
0
  0
VERTEX
  8
LAYER_6
 10
174.6073
 20
-190.1975
  0
VERTEX
  8
LAYER_6
 10
156.7595
 20
-190.1975
  0
SEQEND
  0
POLYLINE
  8
LAYER_6
 40
0.0353
 41
0.0353
 66
1
 10
0
 20
0
 30
0
  0
VERTEX
  8
LAYER_6
 10
173.5595
 20
-154.9975
  0
VERTEX
  8
LAYER_6
 10
156.7595
 20
-154.9975
  0
SEQEND
  0
POLYLINE
  8
LAYER_6
 40
0.0353
 41
0.0353
 66
1
 10
0
 20
0
 30
0
  0
VERTEX
  8
LAYER_6
 10
158.7595
 20
-188.6975
  0
VERTEX
  8
LAYER_6
 10
158.7595
 20
-156.4975
  0
SEQEND
  0
INSERT
  8
LAYER_6
  2
AIGNBL06020042
 10
0
 20
0
 30
0
  0
INSERT
  8
LAYER_6
  2
AIGNBL06020043
 10
0
 20
0
 30
0
  0
TEXT
  8
LAYER_6
 10
157.4576
 20
-170.6976
 11
157.4576
 21
-170.6976
 40
3
 41
0.5
 50
89.99999999
 72
1
  1
（176）
  0
INSERT
  8
LAYER_6
  2
AIGNBL06020044
 10
0
 20
0
 30
0
  0
INSERT
  8
LAYER_6
  2
AIGNBL06020045
 10
0
 20
0
 30
0
  0
INSERT
  8
LAYER_6
  2
AIGNBL06020046
 10
0
 20
0
 30
0
  0
ENDBLK
  0
BLOCK
  8
LAYER_6
  2
AIGNBL06010047
 70
64
 10
0
 20
0
 30
0
  3
AIGNBL06010047
  0
POLYLINE
  8
LAYER_6
 40
0.0353
 41
0.0353
 66
1
 10
0
 20
0
 30
0
  0
VERTEX
  8
LAYER_6
 10
83.4649
 20
-192.1975
  0
VERTEX
  8
LAYER_6
 10
83.4649
 20
-203.5975
  0
SEQEND
  0
POLYLINE
  8
LAYER_6
 40
0.0353
 41
0.0353
 66
1
 10
0
 20
0
 30
0
  0
VERTEX
  8
LAYER_6
 10
60.1649
 20
-176.3371
  0
VERTEX
  8
LAYER_6
 10
60.1649
 20
-203.5975
  0
SEQEND
  0
POLYLINE
  8
LAYER_6
 40
0.0353
 41
0.0353
 66
1
 10
0
 20
0
 30
0
  0
VERTEX
  8
LAYER_6
 10
81.9649
 20
-201.5975
  0
VERTEX
  8
LAYER_6
 10
61.6649
 20
-201.5975
  0
SEQEND
  0
INSERT
  8
LAYER_6
  2
AIGNBL06020048
 10
0
 20
0
 30
0
  0
INSERT
  8
LAYER_6
  2
AIGNBL06020049
 10
0
 20
0
 30
0
  0
TEXT
  8
LAYER_6
 10
73.7147
 20
-200.2956
 11
73.7147
 21
-200.2956
 40
3
 41
0.5
 72
1
  1
（117）
  0
INSERT
  8
LAYER_6
  2
AIGNBL0602004A
 10
0
 20
0
 30
0
  0
INSERT
  8
LAYER_6
  2
AIGNBL0602004B
 10
0
 20
0
 30
0
  0
INSERT
  8
LAYER_6
  2
AIGNBL0602004C
 10
0
 20
0
 30
0
  0
ENDBLK
  0
BLOCK
  8
LAYER_6
  2
AIGNBL0601004D
 70
64
 10
0
 20
0
 30
0
  3
AIGNBL0601004D
  0
POLYLINE
  8
LAYER_6
 40
0.0353
 41
0.0353
 66
1
 10
0
 20
0
 30
0
  0
VERTEX
  8
LAYER_6
 10
68.3675
 20
-166.3371
  0
VERTEX
  8
LAYER_6
 10
50.1649
 20
-166.3371
  0
SEQEND
  0
POLYLINE
  8
LAYER_6
 40
0.0353
 41
0.0353
 66
1
 10
0
 20
0
 30
0
  0
VERTEX
  8
LAYER_6
 10
60.3337
 20
-171.5375
  0
VERTEX
  8
LAYER_6
 10
50.1649
 20
-171.5375
  0
SEQEND
  0
POLYLINE
  8
LAYER_6
 40
0.0353
 41
0.0353
 66
1
 10
0
 20
0
 30
0
  0
VERTEX
  8
LAYER_6
 10
52.1649
 20
-170.0375
  0
VERTEX
  8
LAYER_6
 10
52.1649
 20
-167.8371
  0
SEQEND
  0
POLYLINE
  8
LAYER_6
 40
0.0353
 41
0.0353
 66
1
 10
0
 20
0
 30
0
  0
VERTEX
  8
LAYER_6
 10
52.1649
 20
-166.3371
  0
VERTEX
  8
LAYER_6
 10
52.1649
 20
-159.5911
  0
SEQEND
  0
INSERT
  8
LAYER_6
  2
AIGNBL0602004E
 10
0
 20
0
 30
0
  0
INSERT
  8
LAYER_6
  2
AIGNBL0602004F
 10
0
 20
0
 30
0
  0
TEXT
  8
LAYER_6
 10
50.8632
 20
-162.0953
 11
50.8632
 21
-162.0953
 40
3
 41
0.5
 50
89.99999999
 72
1
  1
26
  0
INSERT
  8
LAYER_6
  2
AIGNBL06020050
 10
0
 20
0
 30
0
  0
INSERT
  8
LAYER_6
  2
AIGNBL06020051
 10
0
 20
0
 30
0
  0
INSERT
  8
LAYER_6
  2
AIGNBL06020052
 10
0
 20
0
 30
0
  0
ENDBLK
  0
BLOCK
  8
LAYER_6
  2
AIGNBL06010053
 70
64
 10
0
 20
0
 30
0
  3
AIGNBL06010053
  0
POLYLINE
  8
LAYER_6
 40
0.0353
 41
0.0353
 66
1
 10
0
 20
0
 30
0
  0
VERTEX
  8
LAYER_6
 10
60.3337
 20
-171.5375
  0
VERTEX
  8
LAYER_6
 10
50.1649
 20
-171.5375
  0
SEQEND
  0
POLYLINE
  8
LAYER_6
 40
0.0353
 41
0.0353
 66
1
 10
0
 20
0
 30
0
  0
VERTEX
  8
LAYER_6
 10
61.7649
 20
-187.1371
  0
VERTEX
  8
LAYER_6
 10
50.1649
 20
-187.1371
  0
SEQEND
  0
POLYLINE
  8
LAYER_6
 40
0.0353
 41
0.0353
 66
1
 10
0
 20
0
 30
0
  0
VERTEX
  8
LAYER_6
 10
52.1649
 20
-173.0375
  0
VERTEX
  8
LAYER_6
 10
52.1649
 20
-185.6371
  0
SEQEND
  0
INSERT
  8
LAYER_6
  2
AIGNBL06020054
 10
0
 20
0
 30
0
  0
INSERT
  8
LAYER_6
  2
AIGNBL06020055
 10
0
 20
0
 30
0
  0
TEXT
  8
LAYER_6
 10
50.8632
 20
-177.4966
 11
50.8632
 21
-177.4966
 40
3
 41
0.5
 50
89.99999999
 72
1
  1
（78）
  0
INSERT
  8
LAYER_6
  2
AIGNBL06020056
 10
0
 20
0
 30
0
  0
INSERT
  8
LAYER_6
  2
AIGNBL06020057
 10
0
 20
0
 30
0
  0
INSERT
  8
LAYER_6
  2
AIGNBL06020058
 10
0
 20
0
 30
0
  0
ENDBLK
  0
ENDSEC
  0
SECTION
  2
ENTITIES
  0
INSERT
  8
LAYER_1
  2
AIGNBL01010002
 10
0
 20
0
 30
0
  0
TEXT
  8
LAYER_1
 10
475.3901
 20
-256.1093
 11
475.3901
 21
-256.1093
 40
2.8236
 41
0.5
  1
　　　　　　　　
  0
TEXT
  8
LAYER_1
 10
145.8417
 20
-107.7216
 11
145.8417
 21
-107.7216
 40
3.7084
 41
0.5
 50
347.8407756
 72
1
  1
25°
  0
TEXT
  8
LAYER_1
 10
196.9778
 20
-111.6353
 11
196.9778
 21
-111.6353
 40
3.7084
 41
0.5
 72
1
  1
取付穴径22025
  0
INSERT
  8
LAYER_6
  2
AIGNBL06010002
 10
0
 20
0
 30
0
  0
POLYLINE
  8
LAYER_6
 40
0.3528
 41
0.3528
 66
1
 10
0
 20
0
 30
0
  0
VERTEX
  8
LAYER_6
 10
34.7876
 20
-258.3332
  0
VERTEX
  8
LAYER_6
 10
229.7955
 20
-258.3332
  0
VERTEX
  8
LAYER_6
 10
229.7955
 20
21.6583
  0
VERTEX
  8
LAYER_6
 10
34.7876
 20
21.6583
  0
VERTEX
  8
LAYER_6
 10
34.7876
 20
-258.3332
  0
SEQEND
  0
TEXT
  8
LAYER_6
 10
166.4505
 20
-248.7955
 11
166.4505
 21
-248.7955
 40
3.3853
 41
0.5
  1
●TEL 0120-65-1232●FAX 06-6532-1580
  0
TEXT
  8
LAYER_6
 10
166.4505
 20
-252.3102
 11
166.4505
 21
-252.3102
 40
3.3853
 41
0.5
  1
hits@hiratatile.co.jp
  0
TEXT
  8
LAYER_6
 10
37.8495
 20
-250.3797
 11
37.8495
 21
-250.3797
 40
3.2995
 41
0.5
  1
仕様
  0
POLYLINE
  8
LAYER_6
 40
0.3528
 41
0.3528
 66
1
 10
0
 20
0
 30
0
  0
VERTEX
  8
LAYER_6
 10
229.7955
 20
-241.6001
  0
VERTEX
  8
LAYER_6
 10
34.7874
 20
-241.6001
  0
SEQEND
  0
POLYLINE
  8
LAYER_6
 40
0.3528
 41
0.3528
 66
1
 10
0
 20
0
 30
0
  0
VERTEX
  8
LAYER_6
 10
229.7955
 20
-233.091
  0
VERTEX
  8
LAYER_6
 10
34.7874
 20
-233.091
  0
SEQEND
  0
TEXT
  8
LAYER_6
 10
35.9444
 20
-235.5675
 11
35.9444
 21
-235.5675
 40
2.1997
 41
0.5
  1
品名
  0
TEXT
  8
LAYER_6
 10
48.7874
 20
-238.6599
 11
48.7874
 21
-238.6599
 40
3.6373
 41
0.5
  1
センサー式単水栓（電池式）
  0
TEXT
  8
LAYER_6
 10
48.4217
 20
-250.3883
 11
48.4217
 21
-250.3883
 40
3.1177
 41
0.5
  1
●排水金具別途
  0
TEXT
  8
LAYER_6
 10
138.8017
 20
-235.5677
 11
138.8017
 21
-235.5677
 40
2.1997
 41
0.5
  1
品番
  0
TEXT
  8
LAYER_6
 10
144.8237
 20
-240.0443
 11
144.8237
 21
-240.0443
 40
5.9385
 41
0.5
  1
AQ-E1700DL(M4)(M5)(S)(BN)
  0
INSERT
  8
LAYER_6
  2
AIGNBL06010003
 10
0
 20
0
 30
0
  0
INSERT
  8
LAYER_6
  2
AIGNBL06010009
 10
0
 20
0
 30
0
  0
INSERT
  8
LAYER_6
  2
AIGNBL0601000F
 10
0
 20
0
 30
0
  0
INSERT
  8
LAYER_6
  2
AIGNBL06010015
 10
0
 20
0
 30
0
  0
INSERT
  8
LAYER_6
  2
AIGNBL0601001B
 10
0
 20
0
 30
0
  0
INSERT
  8
LAYER_6
  2
AIGNBL06010021
 10
0
 20
0
 30
0
  0
INSERT
  8
LAYER_6
  2
AIGNBL06010027
 10
0
 20
0
 30
0
  0
INSERT
  8
LAYER_6
  2
AIGNBL0601002D
 10
0
 20
0
 30
0
  0
INSERT
  8
LAYER_6
  2
AIGNBL06010035
 10
0
 20
0
 30
0
  0
INSERT
  8
LAYER_6
  2
AIGNBL0601003B
 10
0
 20
0
 30
0
  0
INSERT
  8
LAYER_6
  2
AIGNBL06010041
 10
0
 20
0
 30
0
  0
INSERT
  8
LAYER_6
  2
AIGNBL06010047
 10
0
 20
0
 30
0
  0
INSERT
  8
LAYER_6
  2
AIGNBL0601004D
 10
0
 20
0
 30
0
  0
INSERT
  8
LAYER_6
  2
AIGNBL06010053
 10
0
 20
0
 30
0
  0
POLYLINE
  8
LAYER_6
 40
0.0353
 41
0.0353
 66
1
 10
0
 20
0
 30
0
  0
VERTEX
  8
LAYER_6
 10
81.9249
 20
-48.3137
 42
0.1704562474
  0
VERTEX
  8
LAYER_6
 10
82.3087
 20
-49.3864
 42
0.09421186312
  0
VERTEX
  8
LAYER_6
 10
82.9452
 20
-49.9392
 42
0.08491559204
  0
VERTEX
  8
LAYER_6
 10
83.8301
 20
-50.2783
 42
0.05075536939
  0
VERTEX
  8
LAYER_6
 10
84.4649
 20
-50.3422
 42
0.08590772291
  0
VERTEX
  8
LAYER_6
 10
85.5102
 20
-50.163
 42
0.08597865181
  0
VERTEX
  8
LAYER_6
 10
86.3035
 20
-49.7132
 42
0.09800941063
  0
VERTEX
  8
LAYER_6
 10
86.8172
 20
-49.0805
 42
0.1177145188
  0
VERTEX
  8
LAYER_6
 10
87.0049
 20
-48.3137
  0
SEQEND
  0
POLYLINE
  8
LAYER_6
 40
0.2469
 41
0.2469
 66
1
 10
0
 20
0
 30
0
  0
VERTEX
  8
LAYER_6
 10
171.7595
 20
-117.3229
  0
VERTEX
  8
LAYER_6
 10
171.7595
 20
-118.6229
  0
SEQEND
  0
POLYLINE
  8
LAYER_6
 40
0.2469
 41
0.2469
 66
1
 10
0
 20
0
 30
0
  0
VERTEX
  8
LAYER_6
 10
176.5595
 20
-117.3229
  0
VERTEX
  8
LAYER_6
 10
176.5595
 20
-118.6229
  0
SEQEND
  0
POLYLINE
  8
LAYER_6
 40
0.2469
 41
0.2469
 66
1
 10
0
 20
0
 30
0
  0
VERTEX
  8
LAYER_6
 10
176.3325
 20
-117.3229
  0
VERTEX
  8
LAYER_6
 10
176.3325
 20
-118.6229
  0
SEQEND
  0
POLYLINE
  8
LAYER_6
 40
0.2469
 41
0.2469
 66
1
 10
0
 20
0
 30
0
  0
VERTEX
  8
LAYER_6
 10
171.9864
 20
-117.3229
  0
VERTEX
  8
LAYER_6
 10
171.9864
 20
-118.6229
  0
SEQEND
  0
POLYLINE
  8
LAYER_6
 40
0.2469
 41
0.2469
 66
1
 10
0
 20
0
 30
0
  0
VERTEX
  8
LAYER_6
 10
173.9325
 20
-117.3229
  0
VERTEX
  8
LAYER_6
 10
173.9325
 20
-118.6229
  0
SEQEND
  0
POLYLINE
  8
LAYER_6
 40
0.2469
 41
0.2469
 66
1
 10
0
 20
0
 30
0
  0
VERTEX
  8
LAYER_6
 10
174.3864
 20
-117.3229
  0
VERTEX
  8
LAYER_6
 10
174.3864
 20
-118.6229
  0
SEQEND
  0
POLYLINE
  8
LAYER_6
 40
0.0353
 41
0.0353
 66
1
 10
0
 20
0
 30
0
 70
1
  0
VERTEX
  8
LAYER_6
 10
216.3425
 20
-137.2421
  0
VERTEX
  8
LAYER_6
 10
218.5425
 20
-137.2421
  0
VERTEX
  8
LAYER_6
 10
218.5425
 20
-139.8421
  0
VERTEX
  8
LAYER_6
 10
216.3425
 20
-139.8421
  0
SEQEND
  0
POLYLINE
  8
LAYER_6
 40
0.0353
 41
0.0353
 66
1
 10
0
 20
0
 30
0
  0
VERTEX
  8
LAYER_6
 10
217.1125
 20
-139.8421
  0
VERTEX
  8
LAYER_6
 10
217.1125
 20
-138.4821
  0
VERTEX
  8
LAYER_6
 10
216.8125
 20
-138.4821
  0
VERTEX
  8
LAYER_6
 10
216.8125
 20
-139.8421
  0
SEQEND
  0
POLYLINE
  8
LAYER_6
 40
0.0353
 41
0.0353
 66
1
 10
0
 20
0
 30
0
  0
VERTEX
  8
LAYER_6
 10
218.0725
 20
-139.8421
  0
VERTEX
  8
LAYER_6
 10
218.0725
 20
-138.4821
  0
VERTEX
  8
LAYER_6
 10
217.7725
 20
-138.4821
  0
VERTEX
  8
LAYER_6
 10
217.7725
 20
-139.8421
  0
SEQEND
  0
POLYLINE
  8
LAYER_6
 40
0.0353
 41
0.0353
 66
1
 10
0
 20
0
 30
0
  0
VERTEX
  8
LAYER_6
 10
217.1125
 20
-139.2021
  0
VERTEX
  8
LAYER_6
 10
217.7725
 20
-139.2021
  0
SEQEND
  0
POLYLINE
  8
LAYER_6
 40
0.0353
 41
0.0353
 66
1
 10
0
 20
0
 30
0
  0
VERTEX
  8
LAYER_6
 10
217.0625
 20
-144.2892
  0
VERTEX
  8
LAYER_6
 10
217.0625
 20
-142.3492
 42
0.392852767
  0
VERTEX
  8
LAYER_6
 10
217.0025
 20
-142.2892
 42
0.3923136174
  0
VERTEX
  8
LAYER_6
 10
216.9425
 20
-142.3492
  0
VERTEX
  8
LAYER_6
 10
216.9425
 20
-144.2892
  0
SEQEND
  0
POLYLINE
  8
LAYER_6
 40
0.0353
 41
0.0353
 66
1
 10
0
 20
0
 30
0
  0
VERTEX
  8
LAYER_6
 10
217.9425
 20
-144.2892
  0
VERTEX
  8
LAYER_6
 10
217.9425
 20
-142.3492
 42
0.392852767
  0
VERTEX
  8
LAYER_6
 10
217.8825
 20
-142.2892
 42
0.3923136174
  0
VERTEX
  8
LAYER_6
 10
217.8225
 20
-142.3492
  0
VERTEX
  8
LAYER_6
 10
217.8225
 20
-144.2892
  0
SEQEND
  0
POLYLINE
  8
LAYER_6
 40
0.0353
 41
0.0353
 66
1
 10
0
 20
0
 30
0
  0
VERTEX
  8
LAYER_6
 10
217.7425
 20
-144.2892
  0
VERTEX
  8
LAYER_6
 10
217.7425
 20
-142.3892
  0
VERTEX
  8
LAYER_6
 10
217.1425
 20
-142.3892
  0
VERTEX
  8
LAYER_6
 10
217.1425
 20
-144.2892
  0
SEQEND
  0
POLYLINE
  8
LAYER_6
 40
0.0353
 41
0.0353
 66
1
 10
0
 20
0
 30
0
  0
VERTEX
  8
LAYER_6
 10
217.1425
 20
-142.7892
  0
VERTEX
  8
LAYER_6
 10
217.7425
 20
-142.7892
  0
SEQEND
  0
POLYLINE
  8
LAYER_6
 40
0.0353
 41
0.0353
 66
1
 10
0
 20
0
 30
0
  0
VERTEX
  8
LAYER_6
 10
217.1425
 20
-142.6492
  0
VERTEX
  8
LAYER_6
 10
217.7425
 20
-142.6492
  0
SEQEND
  0
POLYLINE
  8
LAYER_6
 40
0.0353
 41
0.0353
 66
1
 10
0
 20
0
 30
0
 70
1
  0
VERTEX
  8
LAYER_6
 10
216.4725
 20
-144.2892
 42
-0.4140451264
  0
VERTEX
  8
LAYER_6
 10
216.3725
 20
-144.1892
  0
VERTEX
  8
LAYER_6
 10
216.3725
 20
-143.5292
 42
-0.4140946389
  0
VERTEX
  8
LAYER_6
 10
216.4725
 20
-143.4292
  0
VERTEX
  8
LAYER_6
 10
216.5725
 20
-143.4292
  0
VERTEX
  8
LAYER_6
 10
216.5725
 20
-141.0892
 42
-0.414094639
  0
VERTEX
  8
LAYER_6
 10
216.6725
 20
-140.9892
  0
VERTEX
  8
LAYER_6
 10
218.2125
 20
-140.9892
 42
-0.4143820668
  0
VERTEX
  8
LAYER_6
 10
218.3125
 20
-141.0892
  0
VERTEX
  8
LAYER_6
 10
218.3125
 20
-143.4292
  0
VERTEX
  8
LAYER_6
 10
218.4125
 20
-143.4292
 42
-0.4143820668
  0
VERTEX
  8
LAYER_6
 10
218.5125
 20
-143.5292
  0
VERTEX
  8
LAYER_6
 10
218.5125
 20
-144.1892
 42
-0.4143324475
  0
VERTEX
  8
LAYER_6
 10
218.4125
 20
-144.2892
  0
SEQEND
  0
POLYLINE
  8
LAYER_6
 40
0.0353
 41
0.0353
 66
1
 10
0
 20
0
 30
0
  0
VERTEX
  8
LAYER_6
 10
176.255
 20
-116.7229
  0
VERTEX
  8
LAYER_6
 10
176.255
 20
-112.2229
  0
SEQEND
  0
POLYLINE
  8
LAYER_6
 40
0.0353
 41
0.0353
 66
1
 10
0
 20
0
 30
0
  0
VERTEX
  8
LAYER_6
 10
176.0226
 20
-119.7229
  0
VERTEX
  8
LAYER_6
 10
176.0226
 20
-118.6229
  0
SEQEND
  0
POLYLINE
  8
LAYER_6
 40
0.0353
 41
0.0353
 66
1
 10
0
 20
0
 30
0
  0
VERTEX
  8
LAYER_6
 10
176.0226
 20
-112.5229
  0
VERTEX
  8
LAYER_6
 10
176.255
 20
-112.5229
  0
VERTEX
  8
LAYER_6
 10
174.1595
 20
-112.5229
  0
SEQEND
  0
POLYLINE
  8
LAYER_6
 40
0.1482
 41
0.1482
 66
1
 10
0
 20
0
 30
0
  0
VERTEX
  8
LAYER_6
 10
177.9402
 20
-109.7659
 42
-0.297145878
  0
VERTEX
  8
LAYER_6
 10
178.0595
 20
-109.9489
  0
VERTEX
  8
LAYER_6
 10
178.0595
 20
-111.7629
  0
SEQEND
  0
POLYLINE
  8
LAYER_6
 40
0.0353
 41
0.0353
 66
1
 10
0
 20
0
 30
0
  0
VERTEX
  8
LAYER_6
 10
176.1958
 20
-112.2229
  0
VERTEX
  8
LAYER_6
 10
176.0226
 20
-112.5229
  0
VERTEX
  8
LAYER_6
 10
176.0226
 20
-116.7229
  0
SEQEND
  0
POLYLINE
  8
LAYER_6
 40
0.0353
 41
0.0353
 66
1
 10
0
 20
0
 30
0
  0
VERTEX
  8
LAYER_6
 10
177.9402
 20
-109.7659
  0
VERTEX
  8
LAYER_6
 10
176.7095
 20
-109.2229
  0
VERTEX
  8
LAYER_6
 10
176.2595
 20
-109.2229
  0
SEQEND
  0
POLYLINE
  8
LAYER_6
 40
0.0353
 41
0.0353
 66
1
 10
0
 20
0
 30
0
  0
VERTEX
  8
LAYER_6
 10
172.064
 20
-116.7229
  0
VERTEX
  8
LAYER_6
 10
172.064
 20
-112.2229
  0
SEQEND
  0
POLYLINE
  8
LAYER_6
 40
0.0353
 41
0.0353
 66
1
 10
0
 20
0
 30
0
  0
VERTEX
  8
LAYER_6
 10
172.2964
 20
-119.7229
  0
VERTEX
  8
LAYER_6
 10
172.2964
 20
-118.6229
  0
SEQEND
  0
POLYLINE
  8
LAYER_6
 40
0.0353
 41
0.0353
 66
1
 10
0
 20
0
 30
0
 70
1
  0
VERTEX
  8
LAYER_6
 10
174.1595
 20
-112.5229
  0
VERTEX
  8
LAYER_6
 10
172.064
 20
-112.5229
  0
SEQEND
  0
POLYLINE
  8
LAYER_6
 40
0.1482
 41
0.1482
 66
1
 10
0
 20
0
 30
0
  0
VERTEX
  8
LAYER_6
 10
170.3787
 20
-109.7659
 42
0.2971320593
  0
VERTEX
  8
LAYER_6
 10
170.2595
 20
-109.9489
  0
VERTEX
  8
LAYER_6
 10
170.2595
 20
-111.7629
  0
SEQEND
  0
POLYLINE
  8
LAYER_6
 40
0.0353
 41
0.0353
 66
1
 10
0
 20
0
 30
0
  0
VERTEX
  8
LAYER_6
 10
172.1232
 20
-112.2229
  0
VERTEX
  8
LAYER_6
 10
172.2964
 20
-112.5229
  0
VERTEX
  8
LAYER_6
 10
172.2964
 20
-116.7229
  0
SEQEND
  0
POLYLINE
  8
LAYER_6
 40
0.0353
 41
0.0353
 66
1
 10
0
 20
0
 30
0
  0
VERTEX
  8
LAYER_6
 10
176.3295
 20
-109.2229
  0
VERTEX
  8
LAYER_6
 10
176.6395
 20
-109.2229
  0
VERTEX
  8
LAYER_6
 10
174.1595
 20
-109.2229
  0
VERTEX
  8
LAYER_6
 10
171.6095
 20
-109.2229
  0
VERTEX
  8
LAYER_6
 10
170.3787
 20
-109.7659
  0
SEQEND
  0
POLYLINE
  8
LAYER_6
 40
0.0353
 41
0.0353
 66
1
 10
0
 20
0
 30
0
  0
VERTEX
  8
LAYER_6
 10
171.9895
 20
-109.2229
  0
VERTEX
  8
LAYER_6
 10
171.6795
 20
-109.2229
  0
VERTEX
  8
LAYER_6
 10
172.0595
 20
-109.2229
  0
SEQEND
  0
POLYLINE
  8
LAYER_6
 40
0.0353
 41
0.0353
 66
1
 10
0
 20
0
 30
0
  0
VERTEX
  8
LAYER_6
 10
144.6265
 20
-92.7734
  0
VERTEX
  8
LAYER_6
 10
144.4815
 20
-92.7058
  0
VERTEX
  8
LAYER_6
 10
144.5491
 20
-92.5608
  0
SEQEND
  0
POLYLINE
  8
LAYER_6
 40
0.0353
 41
0.0353
 66
1
 10
0
 20
0
 30
0
  0
VERTEX
  8
LAYER_6
 10
172.064
 20
-118.6229
  0
VERTEX
  8
LAYER_6
 10
172.064
 20
-119.7229
  0
VERTEX
  8
LAYER_6
 10
172.3595
 20
-119.7229
  0
VERTEX
  8
LAYER_6
 10
172.3595
 20
-120.9184
  0
VERTEX
  8
LAYER_6
 10
172.364
 20
-120.9229
  0
VERTEX
  8
LAYER_6
 10
174.1595
 20
-120.9229
  0
VERTEX
  8
LAYER_6
 10
175.955
 20
-120.9229
  0
VERTEX
  8
LAYER_6
 10
175.9595
 20
-120.9184
  0
VERTEX
  8
LAYER_6
 10
175.9595
 20
-119.7229
  0
VERTEX
  8
LAYER_6
 10
176.255
 20
-119.7229
  0
VERTEX
  8
LAYER_6
 10
176.255
 20
-118.6229
  0
SEQEND
  0
POLYLINE
  8
LAYER_6
 40
0.0353
 41
0.0353
 66
1
 10
0
 20
0
 30
0
  0
VERTEX
  8
LAYER_6
 10
150.2267
 20
-92.4056
  0
VERTEX
  8
LAYER_6
 10
150.3066
 20
-92.4223
 42
0.2914934282
  0
VERTEX
  8
LAYER_6
 10
150.4879
 20
-92.3068
  0
VERTEX
  8
LAYER_6
 10
150.7415
 20
-91.763
  0
VERTEX
  8
LAYER_6
 10
150.7602
 20
-91.6785
 42
0.2847507919
  0
VERTEX
  8
LAYER_6
 10
150.6492
 20
-91.4994
  0
SEQEND
  0
POLYLINE
  8
LAYER_6
 40
0.0353
 41
0.0353
 66
1
 10
0
 20
0
 30
0
  0
VERTEX
  8
LAYER_6
 10
148.8171
 20
-94.7275
 42
-0.250421118
  0
VERTEX
  8
LAYER_6
 10
148.6816
 20
-94.8022
  0
VERTEX
  8
LAYER_6
 10
148.614
 20
-94.7873
  0
VERTEX
  8
LAYER_6
 10
147.4449
 20
-94.2421
  0
VERTEX
  8
LAYER_6
 10
146.2757
 20
-93.6969
 42
-0.2913871257
  0
VERTEX
  8
LAYER_6
 10
146.1834
 20
-93.5519
  0
VERTEX
  8
LAYER_6
 10
146.191
 20
-93.5029
  0
SEQEND
  0
POLYLINE
  8
LAYER_6
 40
0.0353
 41
0.0353
 66
1
 10
0
 20
0
 30
0
  0
VERTEX
  8
LAYER_6
 10
176.6995
 20
-109.1629
  0
VERTEX
  8
LAYER_6
 10
176.6995
 20
-91.365
  0
SEQEND
  0
POLYLINE
  8
LAYER_6
 40
0.0353
 41
0.0353
 66
1
 10
0
 20
0
 30
0
  0
VERTEX
  8
LAYER_6
 10
171.6195
 20
-109.1629
  0
VERTEX
  8
LAYER_6
 10
171.6195
 20
-91.365
 42
0.414211869
  0
VERTEX
  8
LAYER_6
 10
161.6795
 20
-81.425
 42
0.2914744358
  0
VERTEX
  8
LAYER_6
 10
152.6708
 20
-87.1642
  0
VERTEX
  8
LAYER_6
 10
150.4379
 20
-91.9525
  0
VERTEX
  8
LAYER_6
 10
149.1532
 20
-94.7077
 42
-0.2913717956
  0
VERTEX
  8
LAYER_6
 10
149.0082
 20
-94.8
  0
VERTEX
  8
LAYER_6
 10
148.9405
 20
-94.785
  0
VERTEX
  8
LAYER_6
 10
146.7835
 20
-93.7792
  0
VERTEX
  8
LAYER_6
 10
144.6265
 20
-92.7734
 42
-0.2914053056
  0
VERTEX
  8
LAYER_6
 10
144.5341
 20
-92.6284
  0
VERTEX
  8
LAYER_6
 10
144.5491
 20
-92.5608
  0
VERTEX
  8
LAYER_6
 10
148.0667
 20
-85.0173
 42
-0.2914745355
  0
VERTEX
  8
LAYER_6
 10
161.6795
 20
-76.345
 42
-0.4142124417
  0
VERTEX
  8
LAYER_6
 10
176.6995
 20
-91.365
  0
VERTEX
  8
LAYER_6
 10
176.6995
 20
-109.1829
 42
-0.3922481329
  0
VERTEX
  8
LAYER_6
 10
176.6595
 20
-109.2229
  0
VERTEX
  8
LAYER_6
 10
174.1595
 20
-109.2229
  0
VERTEX
  8
LAYER_6
 10
171.6595
 20
-109.2229
 42
-0.3930184735
  0
VERTEX
  8
LAYER_6
 10
171.6195
 20
-109.1829
  0
VERTEX
  8
LAYER_6
 10
171.6195
 20
-91.365
  0
SEQEND
  0
POLYLINE
  8
LAYER_6
 40
0.0353
 41
0.0353
 66
1
 10
0
 20
0
 30
0
  0
VERTEX
  8
LAYER_6
 10
172.6595
 20
-120.9229
  0
VERTEX
  8
LAYER_6
 10
172.6595
 20
-142.128
  0
SEQEND
  0
POLYLINE
  8
LAYER_6
 40
0.0353
 41
0.0353
 66
1
 10
0
 20
0
 30
0
  0
VERTEX
  8
LAYER_6
 10
175.4595
 20
-121.1229
  0
VERTEX
  8
LAYER_6
 10
175.4595
 20
-123.9229
 42
0.4142325627
  0
VERTEX
  8
LAYER_6
 10
176.4595
 20
-124.9229
  0
VERTEX
  8
LAYER_6
 10
181.2995
 20
-124.9229
  0
SEQEND
  0
POLYLINE
  8
LAYER_6
 40
0.0353
 41
0.0353
 66
1
 10
0
 20
0
 30
0
  0
VERTEX
  8
LAYER_6
 10
181.2995
 20
-125.9229
  0
VERTEX
  8
LAYER_6
 10
176.4995
 20
-125.9229
 42
-0.4142228764
  0
VERTEX
  8
LAYER_6
 10
174.4595
 20
-123.8829
  0
VERTEX
  8
LAYER_6
 10
174.4595
 20
-121.9229
  0
VERTEX
  8
LAYER_6
 10
174.4595
 20
-142.128
  0
SEQEND
  0
POLYLINE
  8
LAYER_6
 40
0.0353
 41
0.0353
 66
1
 10
0
 20
0
 30
0
  0
VERTEX
  8
LAYER_6
 10
218.5425
 20
-135.4821
  0
VERTEX
  8
LAYER_6
 10
218.5425
 20
-134.6821
  0
VERTEX
  8
LAYER_6
 10
216.3425
 20
-134.6821
  0
VERTEX
  8
LAYER_6
 10
216.3425
 20
-135.4821
  0
SEQEND
  0
POLYLINE
  8
LAYER_6
 40
0.0353
 41
0.0353
 66
1
 10
0
 20
0
 30
0
  0
VERTEX
  8
LAYER_6
 10
218.3425
 20
-135.6821
  0
VERTEX
  8
LAYER_6
 10
218.3425
 20
-137.2421
  0
SEQEND
  0
POLYLINE
  8
LAYER_6
 40
0.0353
 41
0.0353
 66
1
 10
0
 20
0
 30
0
  0
VERTEX
  8
LAYER_6
 10
216.5425
 20
-137.2421
  0
VERTEX
  8
LAYER_6
 10
216.5425
 20
-135.6821
  0
VERTEX
  8
LAYER_6
 10
218.3425
 20
-135.6821
  0
VERTEX
  8
LAYER_6
 10
218.5425
 20
-135.4821
  0
VERTEX
  8
LAYER_6
 10
216.3425
 20
-135.4821
  0
VERTEX
  8
LAYER_6
 10
216.5425
 20
-135.6821
  0
SEQEND
  0
POLYLINE
  8
LAYER_6
 40
0.2469
 41
0.2469
 66
1
 10
0
 20
0
 30
0
 70
1
  0
VERTEX
  8
LAYER_6
 10
170.5595
 20
-117.1229
  0
VERTEX
  8
LAYER_6
 10
170.5595
 20
-117.3229
  0
VERTEX
  8
LAYER_6
 10
174.1595
 20
-117.3229
  0
VERTEX
  8
LAYER_6
 10
177.7595
 20
-117.3229
  0
VERTEX
  8
LAYER_6
 10
177.7595
 20
-117.1229
  0
VERTEX
  8
LAYER_6
 10
174.1595
 20
-117.1229
  0
SEQEND
  0
POLYLINE
  8
LAYER_6
 40
0.2469
 41
0.2469
 66
1
 10
0
 20
0
 30
0
  0
VERTEX
  8
LAYER_6
 10
176.5595
 20
-118.6229
  0
VERTEX
  8
LAYER_6
 10
174.1595
 20
-118.6229
  0
VERTEX
  8
LAYER_6
 10
171.7595
 20
-118.6229
  0
SEQEND
  0
POLYLINE
  8
LAYER_6
 40
0.0353
 41
0.0353
 66
1
 10
0
 20
0
 30
0
  0
VERTEX
  8
LAYER_6
 10
176.255
 20
-117.1229
  0
VERTEX
  8
LAYER_6
 10
177.5595
 20
-117.1229
  0
VERTEX
  8
LAYER_6
 10
177.5595
 20
-116.7229
  0
VERTEX
  8
LAYER_6
 10
174.1595
 20
-116.7229
  0
VERTEX
  8
LAYER_6
 10
170.7595
 20
-116.7229
  0
VERTEX
  8
LAYER_6
 10
170.7595
 20
-117.1229
  0
VERTEX
  8
LAYER_6
 10
172.064
 20
-117.1229
  0
SEQEND
  0
POLYLINE
  8
LAYER_6
 40
0.2469
 41
0.2469
 66
1
 10
0
 20
0
 30
0
  0
VERTEX
  8
LAYER_6
 10
171.7595
 20
-117.3229
  0
VERTEX
  8
LAYER_6
 10
172.064
 20
-117.3229
  0
SEQEND
  0
POLYLINE
  8
LAYER_6
 40
0.2469
 41
0.2469
 66
1
 10
0
 20
0
 30
0
  0
VERTEX
  8
LAYER_6
 10
176.5595
 20
-117.3229
  0
VERTEX
  8
LAYER_6
 10
176.255
 20
-117.3229
  0
SEQEND
  0
POLYLINE
  8
LAYER_6
 40
0.0353
 41
0.0353
 66
1
 10
0
 20
0
 30
0
  0
VERTEX
  8
LAYER_6
 10
170.6595
 20
-111.8229
  0
VERTEX
  8
LAYER_6
 10
170.6595
 20
-112.2229
  0
VERTEX
  8
LAYER_6
 10
174.1595
 20
-112.2229
  0
VERTEX
  8
LAYER_6
 10
177.6595
 20
-112.2229
  0
VERTEX
  8
LAYER_6
 10
177.6595
 20
-111.8229
  0
SEQEND
  0
POLYLINE
  8
LAYER_6
  6
AIGENLINE001
 40
0.0353
 41
0.0353
 66
1
 10
0
 20
0
 30
0
 70
128
  0
VERTEX
  8
LAYER_6
 10
174.1595
 20
-122.1229
  0
VERTEX
  8
LAYER_6
 10
174.1595
 20
-91.365
 42
0.4142122136
  0
VERTEX
  8
LAYER_6
 10
161.6795
 20
-78.885
 42
0.2914739701
  0
VERTEX
  8
LAYER_6
 10
150.3687
 20
-86.0907
  0
VERTEX
  8
LAYER_6
 10
146.5976
 20
-94.178
  0
SEQEND
  0
POLYLINE
  8
LAYER_6
 40
0.0353
 41
0.0353
 66
1
 10
0
 20
0
 30
0
  0
VERTEX
  8
LAYER_6
 10
182.0195
 20
-124.9229
 42
-0.3998774291
  0
VERTEX
  8
LAYER_6
 10
182.0195
 20
-125.1229
 42
0.1908568913
  0
VERTEX
  8
LAYER_6
 10
181.9795
 20
-125.2229
 42
0.1912051864
  0
VERTEX
  8
LAYER_6
 10
182.0195
 20
-125.3229
 42
-0.1904588845
  0
VERTEX
  8
LAYER_6
 10
182.0595
 20
-125.4229
 42
-0.1903993085
  0
VERTEX
  8
LAYER_6
 10
182.0195
 20
-125.5229
 42
0.1908568913
  0
VERTEX
  8
LAYER_6
 10
181.9795
 20
-125.6229
 42
0.1912051864
  0
VERTEX
  8
LAYER_6
 10
182.0195
 20
-125.7229
 42
-0.1904588845
  0
VERTEX
  8
LAYER_6
 10
182.0595
 20
-125.8229
 42
-0.1903993085
  0
VERTEX
  8
LAYER_6
 10
182.0195
 20
-125.9229
  0
SEQEND
  0
POLYLINE
  8
LAYER_6
 40
0.0353
 41
0.0353
 66
1
 10
0
 20
0
 30
0
  0
VERTEX
  8
LAYER_6
 10
181.2995
 20
-124.9229
 42
-0.3998774291
  0
VERTEX
  8
LAYER_6
 10
181.2995
 20
-125.1229
 42
0.1908568913
  0
VERTEX
  8
LAYER_6
 10
181.2595
 20
-125.2229
 42
0.1912051864
  0
VERTEX
  8
LAYER_6
 10
181.2995
 20
-125.3229
 42
-0.1904588845
  0
VERTEX
  8
LAYER_6
 10
181.3395
 20
-125.4229
 42
-0.1903993085
  0
VERTEX
  8
LAYER_6
 10
181.2995
 20
-125.5229
 42
0.1908568913
  0
VERTEX
  8
LAYER_6
 10
181.2595
 20
-125.6229
 42
0.1912051864
  0
VERTEX
  8
LAYER_6
 10
181.2995
 20
-125.7229
 42
-0.1904588845
  0
VERTEX
  8
LAYER_6
 10
181.3395
 20
-125.8229
 42
-0.1903993085
  0
VERTEX
  8
LAYER_6
 10
181.2995
 20
-125.9229
  0
SEQEND
  0
POLYLINE
  8
LAYER_6
 40
0.0353
 41
0.0353
 66
1
 10
0
 20
0
 30
0
 70
1
  0
VERTEX
  8
LAYER_6
 10
81.9249
 20
-78.8895
 42
-0.4142078703
  0
VERTEX
  8
LAYER_6
 10
84.4649
 20
-76.3495
 42
-0.4142162503
  0
VERTEX
  8
LAYER_6
 10
87.0049
 20
-78.8895
  0
VERTEX
  8
LAYER_6
 10
87.0049
 20
-109.1874
 42
-0.3930184733
  0
VERTEX
  8
LAYER_6
 10
86.9649
 20
-109.2274
  0
VERTEX
  8
LAYER_6
 10
81.9649
 20
-109.2274
 42
-0.3930184735
  0
VERTEX
  8
LAYER_6
 10
81.9249
 20
-109.1874
  0
SEQEND
  0
POLYLINE
  8
LAYER_6
 40
0.0353
 41
0.0353
 66
1
 10
0
 20
0
 30
0
  0
VERTEX
  8
LAYER_6
 10
85.5262
 20
-94.759
 42
0.08247581695
  0
VERTEX
  8
LAYER_6
 10
86.5511
 20
-94.3936
 42
0.1322652343
  0
VERTEX
  8
LAYER_6
 10
86.9589
 20
-93.9851
 42
0.108439064
  0
VERTEX
  8
LAYER_6
 10
87.0049
 20
-93.7837
 42
0.204110029
  0
VERTEX
  8
LAYER_6
 10
86.8172
 20
-93.378
 42
0.06077116326
  0
VERTEX
  8
LAYER_6
 10
86.5711
 20
-93.1836
 42
0.0459202838
  0
VERTEX
  8
LAYER_6
 10
86.1952
 20
-92.9979
 42
0.06923317053
  0
VERTEX
  8
LAYER_6
 10
85.0997
 20
-92.7441
 42
0.02696854777
  0
VERTEX
  8
LAYER_6
 10
84.4649
 20
-92.7103
 42
0.06363544607
  0
VERTEX
  8
LAYER_6
 10
83.0959
 20
-92.8794
 42
0.08307419507
  0
VERTEX
  8
LAYER_6
 10
82.2614
 20
-93.2494
 42
0.147438204
  0
VERTEX
  8
LAYER_6
 10
81.9453
 20
-93.647
 42
0.0737491113
  0
VERTEX
  8
LAYER_6
 10
81.9249
 20
-93.7837
 42
0.2038143992
  0
VERTEX
  8
LAYER_6
 10
82.1126
 20
-94.1858
 42
0.05927239544
  0
VERTEX
  8
LAYER_6
 10
82.3539
 20
-94.3782
 42
0.04485296967
  0
VERTEX
  8
LAYER_6
 10
82.7132
 20
-94.5598
 42
0.04921847084
  0
VERTEX
  8
LAYER_6
 10
83.4047
 20
-94.7592
  0
SEQEND
  0
POLYLINE
  8
LAYER_6
 40
0.0353
 41
0.0353
 66
1
 10
0
 20
0
 30
0
  0
VERTEX
  8
LAYER_6
 10
85.6701
 20
-94.6413
 42
0.0957689343
  0
VERTEX
  8
LAYER_6
 10
86.5418
 20
-94.2557
 42
0.1621669988
  0
VERTEX
  8
LAYER_6
 10
86.8169
 20
-93.8652
 42
0.04636787274
  0
VERTEX
  8
LAYER_6
 10
86.8249
 20
-93.7837
 42
0.2096667124
  0
VERTEX
  8
LAYER_6
 10
86.6394
 20
-93.3955
 42
0.05932138254
  0
VERTEX
  8
LAYER_6
 10
86.4058
 20
-93.2162
 42
0.0450668136
  0
VERTEX
  8
LAYER_6
 10
86.0517
 20
-93.0454
 42
0.07157477525
  0
VERTEX
  8
LAYER_6
 10
84.9693
 20
-92.8091
 42
0.02281211443
  0
VERTEX
  8
LAYER_6
 10
84.4649
 20
-92.7863
 42
0.06817429675
  0
VERTEX
  8
LAYER_6
 10
83.122
 20
-92.9634
 42
0.08997792236
  0
VERTEX
  8
LAYER_6
 10
82.3631
 20
-93.3297
 42
0.162717734
  0
VERTEX
  8
LAYER_6
 10
82.1118
 20
-93.707
 42
0.0432011778
  0
VERTEX
  8
LAYER_6
 10
82.1049
 20
-93.7837
 42
0.2116789969
  0
VERTEX
  8
LAYER_6
 10
82.297
 20
-94.176
 42
0.0603444409
  0
VERTEX
  8
LAYER_6
 10
82.5471
 20
-94.3637
 42
0.07524832337
  0
VERTEX
  8
LAYER_6
 10
83.2573
 20
-94.6406
  0
SEQEND
  0
POLYLINE
  8
LAYER_6
 40
0.0353
 41
0.0353
 66
1
 10
0
 20
0
 30
0
  0
VERTEX
  8
LAYER_6
 10
82.3994
 20
-93.3013
 42
0.1996724985
  0
VERTEX
  8
LAYER_6
 10
82.1645
 20
-93.7153
 42
0.008246368577
  0
VERTEX
  8
LAYER_6
 10
82.1643
 20
-93.7293
 42
0.2134096113
  0
VERTEX
  8
LAYER_6
 10
82.3549
 20
-94.1155
 42
0.06040617487
  0
VERTEX
  8
LAYER_6
 10
82.6023
 20
-94.2992
 42
0.06320723762
  0
VERTEX
  8
LAYER_6
 10
83.1603
 20
-94.53
  0
SEQEND
  0
POLYLINE
  8
LAYER_6
 40
0.0353
 41
0.0353
 66
1
 10
0
 20
0
 30
0
  0
VERTEX
  8
LAYER_6
 10
85.768
 20
-94.5304
 42
0.1042623614
  0
VERTEX
  8
LAYER_6
 10
86.5534
 20
-94.1358
 42
0.1766319396
  0
VERTEX
  8
LAYER_6
 10
86.7645
 20
-93.7591
 42
0.01796359093
  0
VERTEX
  8
LAYER_6
 10
86.7656
 20
-93.7293
 42
0.2164123158
  0
VERTEX
  8
LAYER_6
 10
86.5724
 20
-93.3394
 42
0.01561113279
  0
VERTEX
  8
LAYER_6
 10
86.5305
 20
-93.3013
  0
SEQEND
  0
POLYLINE
  8
LAYER_6
 40
0.0353
 41
0.0353
 66
1
 10
0
 20
0
 30
0
 70
1
  0
VERTEX
  8
LAYER_6
 10
86.9449
 20
-109.2274
  0
VERTEX
  8
LAYER_6
 10
84.4649
 20
-109.2274
  0
VERTEX
  8
LAYER_6
 10
81.9849
 20
-109.2274
  0
SEQEND
  0
POLYLINE
  8
LAYER_6
 40
0.0353
 41
0.0353
 66
1
 10
0
 20
0
 30
0
  0
VERTEX
  8
LAYER_6
 10
82.3694
 20
-116.7274
  0
VERTEX
  8
LAYER_6
 10
82.3694
 20
-112.2274
  0
SEQEND
  0
POLYLINE
  8
LAYER_6
 40
0.0353
 41
0.0353
 66
1
 10
0
 20
0
 30
0
  0
VERTEX
  8
LAYER_6
 10
82.6018
 20
-120.8598
  0
VERTEX
  8
LAYER_6
 10
82.6018
 20
-118.6274
  0
SEQEND
  0
POLYLINE
  8
LAYER_6
 40
0.0353
 41
0.0353
 66
1
 10
0
 20
0
 30
0
 70
1
  0
VERTEX
  8
LAYER_6
 10
82.1949
 20
-109.2274
  0
VERTEX
  8
LAYER_6
 10
81.9849
 20
-109.2274
  0
SEQEND
  0
POLYLINE
  8
LAYER_6
 40
0.0353
 41
0.0353
 66
1
 10
0
 20
0
 30
0
  0
VERTEX
  8
LAYER_6
 10
81.9149
 20
-109.2274
  0
VERTEX
  8
LAYER_6
 10
82.1649
 20
-109.2274
  0
SEQEND
  0
POLYLINE
  8
LAYER_6
 40
0.1482
 41
0.1482
 66
1
 10
0
 20
0
 30
0
  0
VERTEX
  8
LAYER_6
 10
80.6842
 20
-109.7704
 42
0.2971559673
  0
VERTEX
  8
LAYER_6
 10
80.5649
 20
-109.9534
  0
VERTEX
  8
LAYER_6
 10
80.5649
 20
-111.7674
  0
SEQEND
  0
POLYLINE
  8
LAYER_6
 40
0.0353
 41
0.0353
 66
1
 10
0
 20
0
 30
0
  0
VERTEX
  8
LAYER_6
 10
82.4286
 20
-112.2274
  0
VERTEX
  8
LAYER_6
 10
82.6018
 20
-112.5274
  0
VERTEX
  8
LAYER_6
 10
82.6018
 20
-116.7274
  0
SEQEND
  0
POLYLINE
  8
LAYER_6
 40
0.0353
 41
0.0353
 66
1
 10
0
 20
0
 30
0
  0
VERTEX
  8
LAYER_6
 10
82.3694
 20
-120.5819
  0
VERTEX
  8
LAYER_6
 10
83.392
 20
-120.5819
  0
SEQEND
  0
POLYLINE
  8
LAYER_6
 40
0.0353
 41
0.0353
 66
1
 10
0
 20
0
 30
0
  0
VERTEX
  8
LAYER_6
 10
86.328
 20
-120.8598
  0
VERTEX
  8
LAYER_6
 10
86.328
 20
-118.6274
  0
SEQEND
  0
POLYLINE
  8
LAYER_6
 40
0.0353
 41
0.0353
 66
1
 10
0
 20
0
 30
0
 70
1
  0
VERTEX
  8
LAYER_6
 10
86.7349
 20
-109.2274
  0
VERTEX
  8
LAYER_6
 10
86.9449
 20
-109.2274
  0
SEQEND
  0
POLYLINE
  8
LAYER_6
 40
0.0353
 41
0.0353
 66
1
 10
0
 20
0
 30
0
  0
VERTEX
  8
LAYER_6
 10
87.0149
 20
-109.2274
  0
VERTEX
  8
LAYER_6
 10
86.7649
 20
-109.2274
  0
SEQEND
  0
POLYLINE
  8
LAYER_6
 40
0.0353
 41
0.0353
 66
1
 10
0
 20
0
 30
0
  0
VERTEX
  8
LAYER_6
 10
86.328
 20
-112.5274
  0
VERTEX
  8
LAYER_6
 10
86.5604
 20
-112.5274
  0
VERTEX
  8
LAYER_6
 10
84.4649
 20
-112.5274
  0
VERTEX
  8
LAYER_6
 10
82.3694
 20
-112.5274
  0
VERTEX
  8
LAYER_6
 10
82.6018
 20
-112.5274
  0
SEQEND
  0
POLYLINE
  8
LAYER_6
 40
0.1482
 41
0.1482
 66
1
 10
0
 20
0
 30
0
  0
VERTEX
  8
LAYER_6
 10
88.2457
 20
-109.7704
 42
-0.2971219708
  0
VERTEX
  8
LAYER_6
 10
88.3649
 20
-109.9534
  0
VERTEX
  8
LAYER_6
 10
88.3649
 20
-111.7674
  0
SEQEND
  0
POLYLINE
  8
LAYER_6
 40
0.0353
 41
0.0353
 66
1
 10
0
 20
0
 30
0
  0
VERTEX
  8
LAYER_6
 10
86.5012
 20
-112.2274
  0
VERTEX
  8
LAYER_6
 10
86.328
 20
-112.5274
  0
VERTEX
  8
LAYER_6
 10
86.328
 20
-116.7274
  0
SEQEND
  0
POLYLINE
  8
LAYER_6
 40
0.0353
 41
0.0353
 66
1
 10
0
 20
0
 30
0
  0
VERTEX
  8
LAYER_6
 10
86.5604
 20
-118.6274
  0
VERTEX
  8
LAYER_6
 10
86.5604
 20
-120.6274
  0
VERTEX
  8
LAYER_6
 10
86.2604
 20
-120.9274
  0
VERTEX
  8
LAYER_6
 10
84.4649
 20
-120.9274
  0
VERTEX
  8
LAYER_6
 10
82.6694
 20
-120.9274
  0
VERTEX
  8
LAYER_6
 10
82.3694
 20
-120.6274
  0
VERTEX
  8
LAYER_6
 10
82.3694
 20
-118.6274
  0
SEQEND
  0
POLYLINE
  8
LAYER_6
 40
0.0353
 41
0.0353
 66
1
 10
0
 20
0
 30
0
  0
VERTEX
  8
LAYER_6
 10
86.5604
 20
-120.5819
  0
VERTEX
  8
LAYER_6
 10
85.5378
 20
-120.5819
  0
SEQEND
  0
POLYLINE
  8
LAYER_6
 40
0.0353
 41
0.0353
 66
1
 10
0
 20
0
 30
0
 70
1
  0
VERTEX
  8
LAYER_6
 10
84.4649
 20
-111.8274
  0
VERTEX
  8
LAYER_6
 10
88.3049
 20
-111.8274
  0
VERTEX
  8
LAYER_6
 10
88.3649
 20
-111.7674
  0
VERTEX
  8
LAYER_6
 10
84.4649
 20
-111.7674
  0
VERTEX
  8
LAYER_6
 10
80.5649
 20
-111.7674
  0
VERTEX
  8
LAYER_6
 10
80.6249
 20
-111.8274
  0
SEQEND
  0
POLYLINE
  8
LAYER_6
 40
0.0353
 41
0.0353
 66
1
 10
0
 20
0
 30
0
 70
1
  0
VERTEX
  8
LAYER_6
 10
85.5378
 20
-120.5819
 42
-0.1351951608
  0
VERTEX
  8
LAYER_6
 10
84.4649
 20
-120.8774
 42
-0.1351939155
  0
VERTEX
  8
LAYER_6
 10
83.392
 20
-120.5819
  0
VERTEX
  8
LAYER_6
 10
83.392
 20
-119.7274
  0
VERTEX
  8
LAYER_6
 10
84.4649
 20
-119.7274
  0
VERTEX
  8
LAYER_6
 10
85.5378
 20
-119.7274
  0
SEQEND
  0
POLYLINE
  8
LAYER_6
 40
0.0353
 41
0.0353
 66
1
 10
0
 20
0
 30
0
  0
VERTEX
  8
LAYER_6
 10
88.2649
 20
-109.8232
  0
VERTEX
  8
LAYER_6
 10
84.4649
 20
-109.8232
  0
VERTEX
  8
LAYER_6
 10
80.6649
 20
-109.8232
  0
SEQEND
  0
POLYLINE
  8
LAYER_6
 40
0.0353
 41
0.0353
 66
1
 10
0
 20
0
 30
0
  0
VERTEX
  8
LAYER_6
 10
88.2457
 20
-109.7704
  0
VERTEX
  8
LAYER_6
 10
87.0149
 20
-109.2274
  0
VERTEX
  8
LAYER_6
 10
84.4649
 20
-109.2274
  0
VERTEX
  8
LAYER_6
 10
81.9149
 20
-109.2274
  0
VERTEX
  8
LAYER_6
 10
80.6842
 20
-109.7704
  0
SEQEND
  0
POLYLINE
  8
LAYER_6
 40
0.0353
 41
0.0353
 66
1
 10
0
 20
0
 30
0
  0
VERTEX
  8
LAYER_6
 10
83.016
 20
-93.6893
  0
VERTEX
  8
LAYER_6
 10
83.016
 20
-94.1183
  0
SEQEND
  0
POLYLINE
  8
LAYER_6
 40
0.0353
 41
0.0353
 66
1
 10
0
 20
0
 30
0
  0
VERTEX
  8
LAYER_6
 10
86.7467
 20
-93.6073
 42
-0.3002340256
  0
VERTEX
  8
LAYER_6
 10
86.5742
 20
-93.7212
  0
VERTEX
  8
LAYER_6
 10
86.5464
 20
-93.7191
  0
VERTEX
  8
LAYER_6
 10
86.0459
 20
-93.7191
  0
VERTEX
  8
LAYER_6
 10
86.0285
 20
-93.7198
 42
-0.2196483468
  0
VERTEX
  8
LAYER_6
 10
85.8589
 20
-93.6415
 42
0.1522429208
  0
VERTEX
  8
LAYER_6
 10
85.3121
 20
-93.2218
 42
0.1874631059
  0
VERTEX
  8
LAYER_6
 10
83.6198
 20
-93.2218
 42
0.1522416488
  0
VERTEX
  8
LAYER_6
 10
83.073
 20
-93.6415
 42
-0.219654911
  0
VERTEX
  8
LAYER_6
 10
82.9034
 20
-93.7198
  0
VERTEX
  8
LAYER_6
 10
82.8861
 20
-93.7191
  0
VERTEX
  8
LAYER_6
 10
82.3855
 20
-93.7191
  0
VERTEX
  8
LAYER_6
 10
82.3577
 20
-93.7212
 42
-0.2954773473
  0
VERTEX
  8
LAYER_6
 10
82.1865
 20
-93.6103
  0
SEQEND
  0
POLYLINE
  8
LAYER_6
 40
0.0353
 41
0.0353
 66
1
 10
0
 20
0
 30
0
  0
VERTEX
  8
LAYER_6
 10
85.7466
 20
-94.3512
  0
VERTEX
  8
LAYER_6
 10
85.7753
 20
-94.3489
  0
SEQEND
  0
POLYLINE
  8
LAYER_6
 40
0.0353
 41
0.0353
 66
1
 10
0
 20
0
 30
0
  0
VERTEX
  8
LAYER_6
 10
85.1734
 20
-93.8482
 42
-0.1476975451
  0
VERTEX
  8
LAYER_6
 10
85.3809
 20
-94.1139
  0
VERTEX
  8
LAYER_6
 10
85.4216
 20
-94.1459
  0
SEQEND
  0
POLYLINE
  8
LAYER_6
 40
0.0353
 41
0.0353
 66
1
 10
0
 20
0
 30
0
  0
VERTEX
  8
LAYER_6
 10
83.5116
 20
-94.1416
  0
VERTEX
  8
LAYER_6
 10
83.5523
 20
-94.1098
 42
-0.1468575833
  0
VERTEX
  8
LAYER_6
 10
83.7626
 20
-93.8455
  0
SEQEND
  0
POLYLINE
  8
LAYER_6
 40
0.0353
 41
0.0353
 66
1
 10
0
 20
0
 30
0
  0
VERTEX
  8
LAYER_6
 10
83.551
 20
-94.3144
 42
0.2118600734
  0
VERTEX
  8
LAYER_6
 10
83.9024
 20
-94.6594
 42
0.2022035003
  0
VERTEX
  8
LAYER_6
 10
85.024
 20
-94.6619
 42
0.2101839388
  0
VERTEX
  8
LAYER_6
 10
85.3796
 20
-94.3185
  0
SEQEND
  0
POLYLINE
  8
LAYER_6
 40
0.0353
 41
0.0353
 66
1
 10
0
 20
0
 30
0
  0
VERTEX
  8
LAYER_6
 10
83.6154
 20
-93.9926
 42
0.2065245132
  0
VERTEX
  8
LAYER_6
 10
84.3945
 20
-94.3287
  0
VERTEX
  8
LAYER_6
 10
84.4625
 20
-94.3266
  0
VERTEX
  8
LAYER_6
 10
84.562
 20
-94.3315
 42
0.2142039999
  0
VERTEX
  8
LAYER_6
 10
85.3166
 20
-93.9926
  0
SEQEND
  0
POLYLINE
  8
LAYER_6
 40
0.0353
 41
0.0353
 66
1
 10
0
 20
0
 30
0
  0
VERTEX
  8
LAYER_6
 10
83.551
 20
-94.1741
 42
0.04207508895
  0
VERTEX
  8
LAYER_6
 10
83.1553
 20
-94.343
  0
SEQEND
  0
POLYLINE
  8
LAYER_6
 40
0.0353
 41
0.0353
 66
1
 10
0
 20
0
 30
0
  0
VERTEX
  8
LAYER_6
 10
85.3796
 20
-94.1782
 42
-0.04205867266
  0
VERTEX
  8
LAYER_6
 10
85.7753
 20
-94.3489
  0
VERTEX
  8
LAYER_6
 10
85.7766
 20
-94.1443
  0
VERTEX
  8
LAYER_6
 10
85.7478
 20
-94.1466
  0
SEQEND
  0
POLYLINE
  8
LAYER_6
 40
0.0353
 41
0.0353
 66
1
 10
0
 20
0
 30
0
  0
VERTEX
  8
LAYER_6
 10
83.1866
 20
-94.3455
  0
VERTEX
  8
LAYER_6
 10
83.5103
 20
-94.3462
  0
SEQEND
  0
POLYLINE
  8
LAYER_6
 40
0.0353
 41
0.0353
 66
1
 10
0
 20
0
 30
0
  0
VERTEX
  8
LAYER_6
 10
85.4203
 20
-94.3505
 42
-0.1826947296
  0
VERTEX
  8
LAYER_6
 10
85.1838
 20
-94.6387
 42
-0.1595238052
  0
VERTEX
  8
LAYER_6
 10
84.3723
 20
-94.8271
 42
-0.1305466973
  0
VERTEX
  8
LAYER_6
 10
83.7433
 20
-94.6355
 42
-0.1673210013
  0
VERTEX
  8
LAYER_6
 10
83.5103
 20
-94.3462
  0
VERTEX
  8
LAYER_6
 10
83.551
 20
-94.3144
  0
VERTEX
  8
LAYER_6
 10
83.551
 20
-94.1741
  0
VERTEX
  8
LAYER_6
 10
83.5424
 20
-94.1175
  0
SEQEND
  0
POLYLINE
  8
LAYER_6
 40
0.0353
 41
0.0353
 66
1
 10
0
 20
0
 30
0
  0
VERTEX
  8
LAYER_6
 10
85.3895
 20
-94.1206
  0
VERTEX
  8
LAYER_6
 10
85.3796
 20
-94.1782
  0
VERTEX
  8
LAYER_6
 10
85.3796
 20
-94.3185
  0
VERTEX
  8
LAYER_6
 10
85.4203
 20
-94.3505
  0
VERTEX
  8
LAYER_6
 10
85.7441
 20
-94.3512
 42
-0.2011522593
  0
VERTEX
  8
LAYER_6
 10
85.3873
 20
-94.7894
 42
-0.1323747175
  0
VERTEX
  8
LAYER_6
 10
84.4612
 20
-95.0224
 42
-0.1385216086
  0
VERTEX
  8
LAYER_6
 10
83.5379
 20
-94.7853
 42
-0.2026807166
  0
VERTEX
  8
LAYER_6
 10
83.1866
 20
-94.3455
  0
VERTEX
  8
LAYER_6
 10
83.1553
 20
-94.343
  0
VERTEX
  8
LAYER_6
 10
83.1566
 20
-94.1384
  0
VERTEX
  8
LAYER_6
 10
83.1878
 20
-94.1409
  0
VERTEX
  8
LAYER_6
 10
83.5116
 20
-94.1416
 42
-0.1827240398
  0
VERTEX
  8
LAYER_6
 10
83.7482
 20
-93.8534
 42
-0.1595022954
  0
VERTEX
  8
LAYER_6
 10
84.5596
 20
-93.665
 42
-0.1305432189
  0
VERTEX
  8
LAYER_6
 10
85.1886
 20
-93.8566
 42
-0.1673171774
  0
VERTEX
  8
LAYER_6
 10
85.4216
 20
-94.1459
  0
VERTEX
  8
LAYER_6
 10
85.7453
 20
-94.1466
 42
0.2026771066
  0
VERTEX
  8
LAYER_6
 10
85.394
 20
-93.7068
 42
0.1385042939
  0
VERTEX
  8
LAYER_6
 10
84.4708
 20
-93.4697
 42
0.1323854631
  0
VERTEX
  8
LAYER_6
 10
83.5446
 20
-93.7027
 42
0.2011418268
  0
VERTEX
  8
LAYER_6
 10
83.1878
 20
-94.1409
  0
SEQEND
  0
POLYLINE
  8
LAYER_6
 40
0.0353
 41
0.0353
 66
1
 10
0
 20
0
 30
0
  0
VERTEX
  8
LAYER_6
 10
85.916
 20
-93.6893
  0
VERTEX
  8
LAYER_6
 10
85.9159
 20
-94.1229
 42
0.1462859053
  0
VERTEX
  8
LAYER_6
 10
85.8177
 20
-93.8025
 42
0.1501144375
  0
VERTEX
  8
LAYER_6
 10
85.2872
 20
-93.3991
 42
0.1614342287
  0
VERTEX
  8
LAYER_6
 10
83.8417
 20
-93.3307
 42
0.128839059
  0
VERTEX
  8
LAYER_6
 10
83.2129
 20
-93.6792
 42
0.2001216573
  0
VERTEX
  8
LAYER_6
 10
83.016
 20
-94.1186
 42
0.2099297002
  0
VERTEX
  8
LAYER_6
 10
83.2516
 20
-94.6357
 42
0.123093019
  0
VERTEX
  8
LAYER_6
 10
83.859
 20
-94.9706
 42
0.06937369347
  0
VERTEX
  8
LAYER_6
 10
84.4608
 20
-95.0546
 42
0.1360261792
  0
VERTEX
  8
LAYER_6
 10
85.4792
 20
-94.793
 42
0.1741247814
  0
VERTEX
  8
LAYER_6
 10
85.8822
 20
-94.3226
 42
0.08061082778
  0
VERTEX
  8
LAYER_6
 10
85.9159
 20
-94.1229
  0
SEQEND
  0
POLYLINE
  8
LAYER_6
 40
0.0353
 41
0.0353
 66
1
 10
0
 20
0
 30
0
  0
VERTEX
  8
LAYER_6
 10
87.0049
 20
-93.7837
 42
0.204110029
  0
VERTEX
  8
LAYER_6
 10
86.8172
 20
-93.378
 42
0.06077116326
  0
VERTEX
  8
LAYER_6
 10
86.5711
 20
-93.1836
 42
0.0459202838
  0
VERTEX
  8
LAYER_6
 10
86.1952
 20
-92.9979
 42
0.06923317053
  0
VERTEX
  8
LAYER_6
 10
85.0997
 20
-92.7441
 42
0.02696854777
  0
VERTEX
  8
LAYER_6
 10
84.4649
 20
-92.7103
 42
0.06363544607
  0
VERTEX
  8
LAYER_6
 10
83.0959
 20
-92.8794
 42
0.08307419507
  0
VERTEX
  8
LAYER_6
 10
82.2614
 20
-93.2494
 42
0.147438204
  0
VERTEX
  8
LAYER_6
 10
81.9453
 20
-93.647
 42
0.0737491113
  0
VERTEX
  8
LAYER_6
 10
81.9249
 20
-93.7837
  0
SEQEND
  0
POLYLINE
  8
LAYER_6
 40
0.0353
 41
0.0353
 66
1
 10
0
 20
0
 30
0
  0
VERTEX
  8
LAYER_6
 10
86.8249
 20
-93.7837
 42
0.2096667124
  0
VERTEX
  8
LAYER_6
 10
86.6394
 20
-93.3955
 42
0.05932138254
  0
VERTEX
  8
LAYER_6
 10
86.4058
 20
-93.2162
 42
0.0450668136
  0
VERTEX
  8
LAYER_6
 10
86.0517
 20
-93.0454
 42
0.07157477525
  0
VERTEX
  8
LAYER_6
 10
84.9693
 20
-92.8091
 42
0.02281211443
  0
VERTEX
  8
LAYER_6
 10
84.4649
 20
-92.7863
 42
0.06817429675
  0
VERTEX
  8
LAYER_6
 10
83.122
 20
-92.9634
 42
0.08997792236
  0
VERTEX
  8
LAYER_6
 10
82.3631
 20
-93.3297
 42
0.162717734
  0
VERTEX
  8
LAYER_6
 10
82.1118
 20
-93.707
 42
0.0432011778
  0
VERTEX
  8
LAYER_6
 10
82.1049
 20
-93.7837
  0
SEQEND
  0
POLYLINE
  8
LAYER_6
 40
0.0353
 41
0.0353
 66
1
 10
0
 20
0
 30
0
  0
VERTEX
  8
LAYER_6
 10
82.1049
 20
-93.7837
 42
0.2116789969
  0
VERTEX
  8
LAYER_6
 10
82.297
 20
-94.176
 42
0.0603444409
  0
VERTEX
  8
LAYER_6
 10
82.5471
 20
-94.3637
 42
0.07524832337
  0
VERTEX
  8
LAYER_6
 10
83.2573
 20
-94.6406
  0
SEQEND
  0
POLYLINE
  8
LAYER_6
 40
0.0353
 41
0.0353
 66
1
 10
0
 20
0
 30
0
  0
VERTEX
  8
LAYER_6
 10
85.6701
 20
-94.6413
 42
0.0957689343
  0
VERTEX
  8
LAYER_6
 10
86.5418
 20
-94.2557
 42
0.1621669988
  0
VERTEX
  8
LAYER_6
 10
86.8169
 20
-93.8652
 42
0.04636787274
  0
VERTEX
  8
LAYER_6
 10
86.8249
 20
-93.7837
  0
SEQEND
  0
POLYLINE
  8
LAYER_6
 40
0.0353
 41
0.0353
 66
1
 10
0
 20
0
 30
0
  0
VERTEX
  8
LAYER_6
 10
86.1649
 20
-120.9274
  0
VERTEX
  8
LAYER_6
 10
86.1649
 20
-121.1274
  0
VERTEX
  8
LAYER_6
 10
85.3649
 20
-121.1274
  0
SEQEND
  0
POLYLINE
  8
LAYER_6
 40
0.0353
 41
0.0353
 66
1
 10
0
 20
0
 30
0
  0
VERTEX
  8
LAYER_6
 10
82.7649
 20
-120.9274
  0
VERTEX
  8
LAYER_6
 10
82.7649
 20
-121.1274
  0
VERTEX
  8
LAYER_6
 10
83.5649
 20
-121.1274
  0
SEQEND
  0
POLYLINE
  8
LAYER_6
 40
0.0353
 41
0.0353
 66
1
 10
0
 20
0
 30
0
  0
VERTEX
  8
LAYER_6
 10
85.4649
 20
-121.1274
  0
VERTEX
  8
LAYER_6
 10
85.4649
 20
-121.8674
 42
0.3928373508
  0
VERTEX
  8
LAYER_6
 10
85.5249
 20
-121.9274
  0
VERTEX
  8
LAYER_6
 10
85.7649
 20
-121.9274
 42
0.393376027
  0
VERTEX
  8
LAYER_6
 10
85.8249
 20
-121.8674
  0
VERTEX
  8
LAYER_6
 10
85.8249
 20
-121.1274
  0
SEQEND
  0
POLYLINE
  8
LAYER_6
 40
0.0353
 41
0.0353
 66
1
 10
0
 20
0
 30
0
  0
VERTEX
  8
LAYER_6
 10
83.4649
 20
-121.1274
  0
VERTEX
  8
LAYER_6
 10
83.4649
 20
-121.8674
 42
-0.393376027
  0
VERTEX
  8
LAYER_6
 10
83.4049
 20
-121.9274
  0
VERTEX
  8
LAYER_6
 10
83.1649
 20
-121.9274
 42
-0.3928527672
  0
VERTEX
  8
LAYER_6
 10
83.1049
 20
-121.8674
  0
VERTEX
  8
LAYER_6
 10
83.1049
 20
-121.1274
  0
SEQEND
  0
POLYLINE
  8
LAYER_6
 40
0.0353
 41
0.0353
 66
1
 10
0
 20
0
 30
0
  0
VERTEX
  8
LAYER_6
 10
85.3649
 20
-120.9274
  0
VERTEX
  8
LAYER_6
 10
85.3649
 20
-142.1325
  0
SEQEND
  0
POLYLINE
  8
LAYER_6
 40
0.0353
 41
0.0353
 66
1
 10
0
 20
0
 30
0
  0
VERTEX
  8
LAYER_6
 10
83.5649
 20
-120.9274
  0
VERTEX
  8
LAYER_6
 10
83.5649
 20
-142.1325
  0
SEQEND
  0
POLYLINE
  8
LAYER_6
 40
0.2469
 41
0.2469
 66
1
 10
0
 20
0
 30
0
 70
1
  0
VERTEX
  8
LAYER_6
 10
80.8649
 20
-117.1274
  0
VERTEX
  8
LAYER_6
 10
80.8649
 20
-117.3274
  0
VERTEX
  8
LAYER_6
 10
84.4649
 20
-117.3274
  0
VERTEX
  8
LAYER_6
 10
88.0649
 20
-117.3274
  0
VERTEX
  8
LAYER_6
 10
88.0649
 20
-117.1274
  0
VERTEX
  8
LAYER_6
 10
84.4649
 20
-117.1274
  0
SEQEND
  0
POLYLINE
  8
LAYER_6
 40
0.0353
 41
0.0353
 66
1
 10
0
 20
0
 30
0
  0
VERTEX
  8
LAYER_6
 10
81.8247
 20
-118.6274
  0
VERTEX
  8
LAYER_6
 10
81.8247
 20
-117.3274
  0
SEQEND
  0
POLYLINE
  8
LAYER_6
 40
0.0353
 41
0.0353
 66
1
 10
0
 20
0
 30
0
  0
VERTEX
  8
LAYER_6
 10
81.8149
 20
-117.3274
  0
VERTEX
  8
LAYER_6
 10
81.8149
 20
-118.6274
  0
SEQEND
  0
POLYLINE
  8
LAYER_6
 40
0.0353
 41
0.0353
 66
1
 10
0
 20
0
 30
0
  0
VERTEX
  8
LAYER_6
 10
83.3413
 20
-117.3274
  0
VERTEX
  8
LAYER_6
 10
83.3413
 20
-118.6274
  0
SEQEND
  0
POLYLINE
  8
LAYER_6
 40
0.0353
 41
0.0353
 66
1
 10
0
 20
0
 30
0
  0
VERTEX
  8
LAYER_6
 10
82.9483
 20
-117.3274
  0
VERTEX
  8
LAYER_6
 10
82.9483
 20
-118.6274
  0
SEQEND
  0
POLYLINE
  8
LAYER_6
 40
0.2469
 41
0.2469
 66
1
 10
0
 20
0
 30
0
  0
VERTEX
  8
LAYER_6
 10
87.1149
 20
-118.6274
  0
VERTEX
  8
LAYER_6
 10
84.4649
 20
-118.6274
  0
VERTEX
  8
LAYER_6
 10
81.8149
 20
-118.6274
  0
SEQEND
  0
POLYLINE
  8
LAYER_6
 40
0.0353
 41
0.0353
 66
1
 10
0
 20
0
 30
0
  0
VERTEX
  8
LAYER_6
 10
87.1052
 20
-118.6274
  0
VERTEX
  8
LAYER_6
 10
87.1052
 20
-117.3274
  0
SEQEND
  0
POLYLINE
  8
LAYER_6
 40
0.0353
 41
0.0353
 66
1
 10
0
 20
0
 30
0
  0
VERTEX
  8
LAYER_6
 10
87.1149
 20
-117.3274
  0
VERTEX
  8
LAYER_6
 10
87.1149
 20
-118.6274
  0
SEQEND
  0
POLYLINE
  8
LAYER_6
 40
0.0353
 41
0.0353
 66
1
 10
0
 20
0
 30
0
  0
VERTEX
  8
LAYER_6
 10
85.5885
 20
-117.3274
  0
VERTEX
  8
LAYER_6
 10
85.5885
 20
-118.6274
  0
SEQEND
  0
POLYLINE
  8
LAYER_6
 40
0.0353
 41
0.0353
 66
1
 10
0
 20
0
 30
0
  0
VERTEX
  8
LAYER_6
 10
85.9816
 20
-117.3274
  0
VERTEX
  8
LAYER_6
 10
85.9816
 20
-118.6274
  0
SEQEND
  0
POLYLINE
  8
LAYER_6
 40
0.0353
 41
0.0353
 66
1
 10
0
 20
0
 30
0
  0
VERTEX
  8
LAYER_6
 10
87.9649
 20
-111.8274
  0
VERTEX
  8
LAYER_6
 10
87.9649
 20
-112.2274
  0
SEQEND
  0
POLYLINE
  8
LAYER_6
 40
0.0353
 41
0.0353
 66
1
 10
0
 20
0
 30
0
  0
VERTEX
  8
LAYER_6
 10
80.9649
 20
-111.8274
  0
VERTEX
  8
LAYER_6
 10
80.9649
 20
-112.2274
  0
VERTEX
  8
LAYER_6
 10
84.4649
 20
-112.2274
  0
VERTEX
  8
LAYER_6
 10
87.9649
 20
-112.2274
  0
VERTEX
  8
LAYER_6
 10
86.5604
 20
-112.2274
  0
VERTEX
  8
LAYER_6
 10
86.5604
 20
-116.7274
  0
SEQEND
  0
POLYLINE
  8
LAYER_6
 40
0.0353
 41
0.0353
 66
1
 10
0
 20
0
 30
0
 70
1
  0
VERTEX
  8
LAYER_6
 10
81.0649
 20
-116.7274
  0
VERTEX
  8
LAYER_6
 10
87.8649
 20
-116.7274
  0
VERTEX
  8
LAYER_6
 10
87.8649
 20
-117.1274
  0
VERTEX
  8
LAYER_6
 10
81.0649
 20
-117.1274
  0
SEQEND
  0
POLYLINE
  8
LAYER_6
 40
0.2469
 41
0.2469
 66
1
 10
0
 20
0
 30
0
  0
VERTEX
  8
LAYER_6
 10
87.1149
 20
-117.3274
  0
VERTEX
  8
LAYER_6
 10
84.4649
 20
-117.3274
  0
VERTEX
  8
LAYER_6
 10
81.8149
 20
-117.3274
  0
SEQEND
  0
POLYLINE
  8
LAYER_6
 40
0.0353
 41
0.0353
 66
1
 10
0
 20
0
 30
0
  0
VERTEX
  8
LAYER_6
 10
83.5649
 20
-142.1325
 42
-0.4000592214
  0
VERTEX
  8
LAYER_6
 10
83.9249
 20
-142.1325
 42
0.1902091616
  0
VERTEX
  8
LAYER_6
 10
84.1049
 20
-142.2045
 42
0.1901934814
  0
VERTEX
  8
LAYER_6
 10
84.2849
 20
-142.1325
 42
-0.1905462348
  0
VERTEX
  8
LAYER_6
 10
84.4649
 20
-142.0605
 42
-0.1905489245
  0
VERTEX
  8
LAYER_6
 10
84.6449
 20
-142.1325
 42
0.1902091616
  0
VERTEX
  8
LAYER_6
 10
84.8249
 20
-142.2045
 42
0.1901934814
  0
VERTEX
  8
LAYER_6
 10
85.0049
 20
-142.1325
 42
-0.1905462348
  0
VERTEX
  8
LAYER_6
 10
85.1849
 20
-142.0605
 42
-0.1905489245
  0
VERTEX
  8
LAYER_6
 10
85.3649
 20
-142.1325
  0
SEQEND
  0
POLYLINE
  8
LAYER_6
 40
0.0353
 41
0.0353
 66
1
 10
0
 20
0
 30
0
  0
VERTEX
  8
LAYER_6
 10
172.6595
 20
-142.128
 42
-0.4000592186
  0
VERTEX
  8
LAYER_6
 10
173.0195
 20
-142.128
 42
0.190347831
  0
VERTEX
  8
LAYER_6
 10
173.1995
 20
-142.2
 42
0.1901934814
  0
VERTEX
  8
LAYER_6
 10
173.3795
 20
-142.128
 42
-0.1906848617
  0
VERTEX
  8
LAYER_6
 10
173.5595
 20
-142.056
 42
-0.1905489245
  0
VERTEX
  8
LAYER_6
 10
173.7395
 20
-142.128
 42
0.190347831
  0
VERTEX
  8
LAYER_6
 10
173.9195
 20
-142.2
 42
0.1901934814
  0
VERTEX
  8
LAYER_6
 10
174.0995
 20
-142.128
 42
-0.1906848617
  0
VERTEX
  8
LAYER_6
 10
174.2795
 20
-142.056
 42
-0.1905489245
  0
VERTEX
  8
LAYER_6
 10
174.4595
 20
-142.128
  0
SEQEND
  0
POLYLINE
  8
LAYER_6
 40
0.0353
 41
0.0353
 66
1
 10
0
 20
0
 30
0
  0
VERTEX
  8
LAYER_6
 10
217.9425
 20
-134.6821
  0
VERTEX
  8
LAYER_6
 10
217.9425
 20
-126.9229
 42
0.4142177551
  0
VERTEX
  8
LAYER_6
 10
215.9425
 20
-124.9229
  0
VERTEX
  8
LAYER_6
 10
182.0195
 20
-124.9229
  0
SEQEND
  0
POLYLINE
  8
LAYER_6
 40
0.0353
 41
0.0353
 66
1
 10
0
 20
0
 30
0
  0
VERTEX
  8
LAYER_6
 10
216.9425
 20
-134.6821
  0
VERTEX
  8
LAYER_6
 10
216.9425
 20
-126.9229
 42
0.4142219476
  0
VERTEX
  8
LAYER_6
 10
215.9425
 20
-125.9229
  0
VERTEX
  8
LAYER_6
 10
182.0195
 20
-125.9229
  0
SEQEND
  0
POLYLINE
  8
LAYER_6
 40
0.0353
 41
0.0353
 66
1
 10
0
 20
0
 30
0
  0
VERTEX
  8
LAYER_6
 10
87.0049
 20
-48.3137
  0
VERTEX
  8
LAYER_6
 10
87.0049
 20
-18.552
 42
0.4142156347
  0
VERTEX
  8
LAYER_6
 10
84.4649
 20
-16.012
 42
0.4142072547
  0
VERTEX
  8
LAYER_6
 10
81.9249
 20
-18.552
  0
VERTEX
  8
LAYER_6
 10
81.9249
 20
-48.3137
  0
SEQEND
  0
POLYLINE
  8
LAYER_6
  6
AIGENLINE001
 40
0.0353
 41
0.0353
 66
1
 10
0
 20
0
 30
0
 70
128
  0
VERTEX
  8
LAYER_6
 10
84.4649
 20
-14.052
  0
VERTEX
  8
LAYER_6
 10
84.4649
 20
-51.152
  0
SEQEND
  0
POLYLINE
  8
LAYER_6
 40
0.0353
 41
0.0353
 66
1
 10
0
 20
0
 30
0
  0
VERTEX
  8
LAYER_6
 10
87.0049
 20
-21.5115
 42
0.2187783724
  0
VERTEX
  8
LAYER_6
 10
88.3649
 20
-18.552
 42
0.414214912
  0
VERTEX
  8
LAYER_6
 10
84.4649
 20
-14.652
 42
0.4142094543
  0
VERTEX
  8
LAYER_6
 10
80.5649
 20
-18.552
 42
0.2187746685
  0
VERTEX
  8
LAYER_6
 10
81.9249
 20
-21.5115
  0
SEQEND
  0
POLYLINE
  8
LAYER_6
 40
0.0353
 41
0.0353
 66
1
 10
0
 20
0
 30
0
 70
1
  0
VERTEX
  8
LAYER_6
 10
174.1595
 20
-111.8229
  0
VERTEX
  8
LAYER_6
 10
170.3195
 20
-111.8229
  0
VERTEX
  8
LAYER_6
 10
170.2595
 20
-111.7629
  0
VERTEX
  8
LAYER_6
 10
174.1595
 20
-111.7629
  0
VERTEX
  8
LAYER_6
 10
178.0595
 20
-111.7629
  0
VERTEX
  8
LAYER_6
 10
177.9995
 20
-111.8229
  0
SEQEND
  0
POLYLINE
  8
LAYER_6
 40
0.0353
 41
0.0353
 66
1
 10
0
 20
0
 30
0
  0
VERTEX
  8
LAYER_6
 10
172.9315
 20
-120.9229
  0
VERTEX
  8
LAYER_6
 10
172.9315
 20
-121.1229
  0
VERTEX
  8
LAYER_6
 10
174.1595
 20
-121.1229
  0
VERTEX
  8
LAYER_6
 10
175.8595
 20
-121.1229
  0
VERTEX
  8
LAYER_6
 10
175.8595
 20
-120.9229
  0
SEQEND
  0
POLYLINE
  8
LAYER_6
 40
0.0353
 41
0.0353
 66
1
 10
0
 20
0
 30
0
  0
VERTEX
  8
LAYER_6
 10
174.7595
 20
-121.1229
  0
VERTEX
  8
LAYER_6
 10
174.7595
 20
-121.8629
 42
-0.3928373506
  0
VERTEX
  8
LAYER_6
 10
174.6995
 20
-121.9229
  0
VERTEX
  8
LAYER_6
 10
173.6195
 20
-121.9229
 42
-0.3933760272
  0
VERTEX
  8
LAYER_6
 10
173.5595
 20
-121.8629
  0
VERTEX
  8
LAYER_6
 10
173.5595
 20
-121.1229
  0
SEQEND
  0
POLYLINE
  8
LAYER_6
 40
0.0353
 41
0.0353
 66
1
 10
0
 20
0
 30
0
  0
VERTEX
  8
LAYER_6
 10
147.4449
 20
-94.2421
  0
VERTEX
  8
LAYER_6
 10
147.4449
 20
-96.0681
  0
SEQEND
  0
POLYLINE
  8
LAYER_6
  6
AIGENLINE001
 40
0.0353
 41
0.0353
 66
1
 10
0
 20
0
 30
0
 70
128
  0
VERTEX
  8
LAYER_6
 10
147.2336
 20
-94.6952
  0
VERTEX
  8
LAYER_6
 10
147.6562
 20
-93.7889
  0
SEQEND
  0
POLYLINE
  8
LAYER_6
 40
0.0353
 41
0.0353
 66
1
 10
0
 20
0
 30
0
  0
VERTEX
  8
LAYER_6
 10
177.9595
 20
-109.8232
  0
VERTEX
  8
LAYER_6
 10
174.1595
 20
-109.8232
  0
VERTEX
  8
LAYER_6
 10
170.3595
 20
-109.8232
  0
SEQEND
  0
POLYLINE
  8
LAYER_6
 40
0.0353
 41
0.0353
 66
1
 10
0
 20
0
 30
0
  0
VERTEX
  8
LAYER_6
 10
171.1595
 20
-183.5975
  0
VERTEX
  8
LAYER_6
 10
173.5595
 20
-185.9975
  0
VERTEX
  8
LAYER_6
 10
175.9595
 20
-183.5975
  0
SEQEND
  0
POLYLINE
  8
LAYER_6
 40
0.0353
 41
0.0353
 66
1
 10
0
 20
0
 30
0
  0
VERTEX
  8
LAYER_6
 10
179.1595
 20
-185.9975
  0
VERTEX
  8
LAYER_6
 10
179.1595
 20
-185.9978
 42
-0.1756864027
  0
VERTEX
  8
LAYER_6
 10
179.0135
 20
-186.3821
 42
-0.0889676004
  0
VERTEX
  8
LAYER_6
 10
178.6893
 20
-186.6843
 42
-0.0584346962
  0
VERTEX
  8
LAYER_6
 10
177.7956
 20
-187.1657
 42
-0.02355291989
  0
VERTEX
  8
LAYER_6
 10
176.7595
 20
-187.5467
 42
0.05033869744
  0
VERTEX
  8
LAYER_6
 10
176.3621
 20
-187.7143
 42
0.04030293728
  0
VERTEX
  8
LAYER_6
 10
175.3606
 20
-188.3966
  0
SEQEND
  0
POLYLINE
  8
LAYER_6
 40
0.0353
 41
0.0353
 66
1
 10
0
 20
0
 30
0
  0
VERTEX
  8
LAYER_6
 10
218.0025
 20
-149.0892
  0
VERTEX
  8
LAYER_6
 10
216.8825
 20
-149.0892
  0
SEQEND
  0
POLYLINE
  8
LAYER_6
 40
0.0353
 41
0.0353
 66
1
 10
0
 20
0
 30
0
  0
VERTEX
  8
LAYER_6
 10
216.5425
 20
-144.2892
  0
VERTEX
  8
LAYER_6
 10
216.5425
 20
-146.4073
 42
0.03554340178
  0
VERTEX
  8
LAYER_6
 10
216.5821
 20
-146.9683
  0
VERTEX
  8
LAYER_6
 10
216.8664
 20
-148.9752
  0
VERTEX
  8
LAYER_6
 10
216.8674
 20
-148.9892
 42
-0.2939276213
  0
VERTEX
  8
LAYER_6
 10
216.805
 20
-149.0819
 42
0.2940095194
  0
VERTEX
  8
LAYER_6
 10
216.7425
 20
-149.1745
  0
VERTEX
  8
LAYER_6
 10
216.7425
 20
-151.0892
  0
VERTEX
  8
LAYER_6
 10
218.1425
 20
-151.0892
  0
VERTEX
  8
LAYER_6
 10
218.1425
 20
-149.1745
 42
0.2941671918
  0
VERTEX
  8
LAYER_6
 10
218.0801
 20
-149.0819
 42
-0.2939373351
  0
VERTEX
  8
LAYER_6
 10
218.0177
 20
-148.9892
  0
VERTEX
  8
LAYER_6
 10
218.0187
 20
-148.9752
  0
VERTEX
  8
LAYER_6
 10
218.303
 20
-146.9683
 42
0.03558741236
  0
VERTEX
  8
LAYER_6
 10
218.3425
 20
-146.4073
  0
VERTEX
  8
LAYER_6
 10
218.3425
 20
-144.2892
  0
SEQEND
  0
POLYLINE
  8
LAYER_6
 40
0.0353
 41
0.0353
 66
1
 10
0
 20
0
 30
0
  0
VERTEX
  8
LAYER_6
 10
216.6425
 20
-146.6892
  0
VERTEX
  8
LAYER_6
 10
218.2425
 20
-146.6892
  0
SEQEND
  0
POLYLINE
  8
LAYER_6
 40
0.0353
 41
0.0353
 66
1
 10
0
 20
0
 30
0
  0
VERTEX
  8
LAYER_6
 10
172.6595
 20
-143.1325
  0
VERTEX
  8
LAYER_6
 10
172.6595
 20
-156.0575
  0
SEQEND
  0
POLYLINE
  8
LAYER_6
 40
0.0353
 41
0.0353
 66
1
 10
0
 20
0
 30
0
  0
VERTEX
  8
LAYER_6
 10
174.4595
 20
-143.1325
  0
VERTEX
  8
LAYER_6
 10
174.4595
 20
-156.0575
  0
SEQEND
  0
POLYLINE
  8
LAYER_6
 40
0.0353
 41
0.0353
 66
1
 10
0
 20
0
 30
0
  0
VERTEX
  8
LAYER_6
 10
174.4595
 20
-143.1325
 42
0.400059219
  0
VERTEX
  8
LAYER_6
 10
174.0995
 20
-143.1325
 42
-0.1902091616
  0
VERTEX
  8
LAYER_6
 10
173.9195
 20
-143.2045
 42
-0.1903316791
  0
VERTEX
  8
LAYER_6
 10
173.7395
 20
-143.1325
 42
0.1905462348
  0
VERTEX
  8
LAYER_6
 10
173.5595
 20
-143.0605
 42
0.1906870906
  0
VERTEX
  8
LAYER_6
 10
173.3795
 20
-143.1325
 42
-0.1902091616
  0
VERTEX
  8
LAYER_6
 10
173.1995
 20
-143.2045
 42
-0.1903316791
  0
VERTEX
  8
LAYER_6
 10
173.0195
 20
-143.1325
 42
0.1905462348
  0
VERTEX
  8
LAYER_6
 10
172.8395
 20
-143.0605
 42
0.1906870906
  0
VERTEX
  8
LAYER_6
 10
172.6595
 20
-143.1325
  0
SEQEND
  0
POLYLINE
  8
LAYER_6
 40
0.0353
 41
0.0353
 66
1
 10
0
 20
0
 30
0
  0
VERTEX
  8
LAYER_6
 10
174.5795
 20
-157.5175
  0
VERTEX
  8
LAYER_6
 10
174.5795
 20
-157.3175
  0
SEQEND
  0
POLYLINE
  8
LAYER_6
 40
0.0353
 41
0.0353
 66
1
 10
0
 20
0
 30
0
  0
VERTEX
  8
LAYER_6
 10
174.5795
 20
-156.3975
  0
VERTEX
  8
LAYER_6
 10
174.5795
 20
-156.0575
  0
SEQEND
  0
POLYLINE
  8
LAYER_6
 40
0.0353
 41
0.0353
 66
1
 10
0
 20
0
 30
0
  0
VERTEX
  8
LAYER_6
 10
175.0454
 20
-157.5175
  0
VERTEX
  8
LAYER_6
 10
175.0546
 20
-157.4575
  0
VERTEX
  8
LAYER_6
 10
175.0546
 20
-156.2575
 42
0.4141563998
  0
VERTEX
  8
LAYER_6
 10
174.8546
 20
-156.0575
  0
VERTEX
  8
LAYER_6
 10
174.4395
 20
-156.0575
  0
VERTEX
  8
LAYER_6
 10
172.5395
 20
-156.0575
  0
VERTEX
  8
LAYER_6
 10
172.5395
 20
-157.5175
  0
SEQEND
  0
POLYLINE
  8
LAYER_6
 40
0.0353
 41
0.0353
 66
1
 10
0
 20
0
 30
0
 70
1
  0
VERTEX
  8
LAYER_6
 10
174.6946
 20
-157.2175
  0
VERTEX
  8
LAYER_6
 10
174.3347
 20
-157.2175
  0
VERTEX
  8
LAYER_6
 10
174.3347
 20
-156.4975
  0
VERTEX
  8
LAYER_6
 10
174.6946
 20
-156.4975
 42
-0.4141818049
  0
VERTEX
  8
LAYER_6
 10
175.0546
 20
-156.8575
 42
-0.4141855328
  0
SEQEND
  0
POLYLINE
  8
LAYER_6
 40
0.0353
 41
0.0353
 66
1
 10
0
 20
0
 30
0
  0
VERTEX
  8
LAYER_6
 10
174.8422
 20
-156.4975
  0
VERTEX
  8
LAYER_6
 10
174.8422
 20
-156.4976
  0
SEQEND
  0
POLYLINE
  8
LAYER_6
 40
0.0353
 41
0.0353
 66
1
 10
0
 20
0
 30
0
  0
VERTEX
  8
LAYER_6
 10
174.7022
 20
-156.4975
 42
0.4141565148
  0
VERTEX
  8
LAYER_6
 10
174.6022
 20
-156.3975
  0
VERTEX
  8
LAYER_6
 10
174.3347
 20
-156.3975
 42
0.4141809421
  0
VERTEX
  8
LAYER_6
 10
173.8747
 20
-156.8575
 42
0.4141838599
  0
VERTEX
  8
LAYER_6
 10
174.3347
 20
-157.3175
  0
VERTEX
  8
LAYER_6
 10
174.6022
 20
-157.3175
 42
0.4141699333
  0
VERTEX
  8
LAYER_6
 10
174.7022
 20
-157.2175
  0
SEQEND
  0
POLYLINE
  8
LAYER_6
 40
0.0353
 41
0.0353
 66
1
 10
0
 20
0
 30
0
  0
VERTEX
  8
LAYER_6
 10
172.5395
 20
-157.0875
  0
VERTEX
  8
LAYER_6
 10
172.7271
 20
-157.0875
 42
-0.1405145754
  0
VERTEX
  8
LAYER_6
 10
172.8333
 20
-157.118
 42
0.1406236495
  0
VERTEX
  8
LAYER_6
 10
172.9395
 20
-157.1485
  0
VERTEX
  8
LAYER_6
 10
172.99
 20
-157.142
  0
VERTEX
  8
LAYER_6
 10
173.3277
 20
-157.0538
 42
0.3589179775
  0
VERTEX
  8
LAYER_6
 10
173.4895
 20
-156.8575
 42
0.358912749
  0
VERTEX
  8
LAYER_6
 10
173.3277
 20
-156.6612
  0
VERTEX
  8
LAYER_6
 10
172.99
 20
-156.573
  0
VERTEX
  8
LAYER_6
 10
172.9395
 20
-156.5665
 42
0.1410926237
  0
VERTEX
  8
LAYER_6
 10
172.8333
 20
-156.597
 42
-0.1404790904
  0
VERTEX
  8
LAYER_6
 10
172.7271
 20
-156.6275
  0
VERTEX
  8
LAYER_6
 10
172.5395
 20
-156.6275
  0
SEQEND
  0
POLYLINE
  8
LAYER_6
 40
0.0353
 41
0.0353
 66
1
 10
0
 20
0
 30
0
  0
VERTEX
  8
LAYER_6
 10
174.8422
 20
-157.2175
  0
VERTEX
  8
LAYER_6
 10
174.8422
 20
-157.2174
  0
SEQEND
  0
POLYLINE
  8
LAYER_6
 40
0.0353
 41
0.0353
 66
1
 10
0
 20
0
 30
0
  0
VERTEX
  8
LAYER_6
 10
174.4595
 20
-157.2175
  0
VERTEX
  8
LAYER_6
 10
174.4595
 20
-157.3175
  0
SEQEND
  0
POLYLINE
  8
LAYER_6
 40
0.0353
 41
0.0353
 66
1
 10
0
 20
0
 30
0
  0
VERTEX
  8
LAYER_6
 10
174.4595
 20
-156.3975
  0
VERTEX
  8
LAYER_6
 10
174.4595
 20
-156.4975
  0
SEQEND
  0
POLYLINE
  8
LAYER_6
  6
AIGENLINE001
 40
0.0353
 41
0.0353
 66
1
 10
0
 20
0
 30
0
 70
128
  0
VERTEX
  8
LAYER_6
 10
83.1449
 20
-156.8575
  0
VERTEX
  8
LAYER_6
 10
85.7849
 20
-156.8575
  0
SEQEND
  0
POLYLINE
  8
LAYER_6
 40
0.0353
 41
0.0353
 66
1
 10
0
 20
0
 30
0
  0
VERTEX
  8
LAYER_6
 10
85.3649
 20
-143.1325
  0
VERTEX
  8
LAYER_6
 10
85.3649
 20
-156.0575
  0
SEQEND
  0
POLYLINE
  8
LAYER_6
 40
0.0353
 41
0.0353
 66
1
 10
0
 20
0
 30
0
  0
VERTEX
  8
LAYER_6
 10
83.5649
 20
-143.1325
  0
VERTEX
  8
LAYER_6
 10
83.5649
 20
-156.0575
  0
SEQEND
  0
POLYLINE
  8
LAYER_6
 40
0.0353
 41
0.0353
 66
1
 10
0
 20
0
 30
0
  0
VERTEX
  8
LAYER_6
 10
83.5649
 20
-143.1325
 42
-0.4000592214
  0
VERTEX
  8
LAYER_6
 10
83.9249
 20
-143.1325
 42
0.1902091616
  0
VERTEX
  8
LAYER_6
 10
84.1049
 20
-143.2045
 42
0.1901934814
  0
VERTEX
  8
LAYER_6
 10
84.2849
 20
-143.1325
 42
-0.1905462348
  0
VERTEX
  8
LAYER_6
 10
84.4649
 20
-143.0605
 42
-0.1905489245
  0
VERTEX
  8
LAYER_6
 10
84.6449
 20
-143.1325
 42
0.1902091616
  0
VERTEX
  8
LAYER_6
 10
84.8249
 20
-143.2045
 42
0.1901934814
  0
VERTEX
  8
LAYER_6
 10
85.0049
 20
-143.1325
 42
-0.1905462348
  0
VERTEX
  8
LAYER_6
 10
85.1849
 20
-143.0605
 42
-0.1905489245
  0
VERTEX
  8
LAYER_6
 10
85.3649
 20
-143.1325
  0
SEQEND
  0
POLYLINE
  8
LAYER_6
 40
0.0353
 41
0.0353
 66
1
 10
0
 20
0
 30
0
  0
VERTEX
  8
LAYER_6
 10
83.4449
 20
-157.5175
  0
VERTEX
  8
LAYER_6
 10
83.4449
 20
-156.0575
  0
VERTEX
  8
LAYER_6
 10
84.4649
 20
-156.0575
  0
VERTEX
  8
LAYER_6
 10
85.4849
 20
-156.0575
  0
VERTEX
  8
LAYER_6
 10
85.4849
 20
-157.5175
  0
SEQEND
  0
POLYLINE
  8
LAYER_6
 40
0.0353
 41
0.0353
 66
1
 10
0
 20
0
 30
0
 70
1
  0
VERTEX
  8
LAYER_6
 10
84.7588
 20
-156.597
 42
-0.1406612222
  0
VERTEX
  8
LAYER_6
 10
84.8649
 20
-156.5665
  0
VERTEX
  8
LAYER_6
 10
84.9155
 20
-156.573
  0
VERTEX
  8
LAYER_6
 10
85.2532
 20
-156.6612
 42
-0.3588861218
  0
VERTEX
  8
LAYER_6
 10
85.4149
 20
-156.8575
 42
-0.3588913522
  0
VERTEX
  8
LAYER_6
 10
85.2532
 20
-157.0538
  0
VERTEX
  8
LAYER_6
 10
84.9155
 20
-157.142
  0
VERTEX
  8
LAYER_6
 10
84.8649
 20
-157.1485
 42
-0.1409770086
  0
VERTEX
  8
LAYER_6
 10
84.7588
 20
-157.118
 42
0.1404790904
  0
VERTEX
  8
LAYER_6
 10
84.6526
 20
-157.0875
  0
VERTEX
  8
LAYER_6
 10
84.4649
 20
-157.0875
  0
VERTEX
  8
LAYER_6
 10
84.2773
 20
-157.0875
 42
0.1405145754
  0
VERTEX
  8
LAYER_6
 10
84.1711
 20
-157.118
 42
-0.1406236495
  0
VERTEX
  8
LAYER_6
 10
84.0649
 20
-157.1485
  0
VERTEX
  8
LAYER_6
 10
84.0144
 20
-157.142
  0
VERTEX
  8
LAYER_6
 10
83.6767
 20
-157.0538
 42
-0.3589292008
  0
VERTEX
  8
LAYER_6
 10
83.5149
 20
-156.8575
 42
-0.3589239709
  0
VERTEX
  8
LAYER_6
 10
83.6767
 20
-156.6612
  0
VERTEX
  8
LAYER_6
 10
84.0144
 20
-156.573
  0
VERTEX
  8
LAYER_6
 10
84.0649
 20
-156.5665
 42
-0.1410926237
  0
VERTEX
  8
LAYER_6
 10
84.1711
 20
-156.597
 42
0.1404790904
  0
VERTEX
  8
LAYER_6
 10
84.2773
 20
-156.6275
  0
VERTEX
  8
LAYER_6
 10
84.4649
 20
-156.6275
  0
VERTEX
  8
LAYER_6
 10
84.6526
 20
-156.6275
 42
0.1405145754
  0
SEQEND
  0
POLYLINE
  8
LAYER_6
 40
0.0353
 41
0.0353
 66
1
 10
0
 20
0
 30
0
  0
VERTEX
  8
LAYER_6
 10
203.4132
 20
-195.1771
  0
VERTEX
  8
LAYER_6
 10
214.9469
 20
-195.1771
 42
0.4118756361
  0
VERTEX
  8
LAYER_6
 10
217.9626
 20
-192.1372
  0
VERTEX
  8
LAYER_6
 10
217.9625
 20
-192.1129
  0
SEQEND
  0
POLYLINE
  8
LAYER_6
 40
0.0353
 41
0.0353
 66
1
 10
0
 20
0
 30
0
  0
VERTEX
  8
LAYER_6
 10
216.9225
 20
-151.0892
  0
VERTEX
  8
LAYER_6
 10
216.9225
 20
-192.1212
  0
VERTEX
  8
LAYER_6
 10
216.9226
 20
-192.1372
 42
-0.4118743936
  0
VERTEX
  8
LAYER_6
 10
214.9386
 20
-194.1371
  0
SEQEND
  0
POLYLINE
  8
LAYER_6
 40
0.0353
 41
0.0353
 66
1
 10
0
 20
0
 30
0
  0
VERTEX
  8
LAYER_6
 10
217.9625
 20
-192.1569
  0
VERTEX
  8
LAYER_6
 10
217.9625
 20
-151.0892
  0
SEQEND
  0
POLYLINE
  8
LAYER_6
 40
0.0353
 41
0.0353
 66
1
 10
0
 20
0
 30
0
  0
VERTEX
  8
LAYER_6
 10
203.4132
 20
-194.1371
 42
-0.3999843849
  0
VERTEX
  8
LAYER_6
 10
203.4132
 20
-194.3451
 42
0.1903485775
  0
VERTEX
  8
LAYER_6
 10
203.3716
 20
-194.4491
 42
0.1901232497
  0
VERTEX
  8
LAYER_6
 10
203.4132
 20
-194.5531
 42
-0.1903485773
  0
VERTEX
  8
LAYER_6
 10
203.4548
 20
-194.6571
 42
-0.1901232497
  0
VERTEX
  8
LAYER_6
 10
203.4132
 20
-194.7611
 42
0.1903485775
  0
VERTEX
  8
LAYER_6
 10
203.3716
 20
-194.8651
 42
0.1901232497
  0
VERTEX
  8
LAYER_6
 10
203.4132
 20
-194.9691
 42
-0.1903485773
  0
VERTEX
  8
LAYER_6
 10
203.4548
 20
-195.0731
 42
-0.1901232497
  0
VERTEX
  8
LAYER_6
 10
203.4132
 20
-195.1771
  0
SEQEND
  0
POLYLINE
  8
LAYER_6
 40
0.0353
 41
0.0353
 66
1
 10
0
 20
0
 30
0
  0
VERTEX
  8
LAYER_6
 10
203.4132
 20
-194.1371
  0
VERTEX
  8
LAYER_6
 10
214.9423
 20
-194.1371
  0
SEQEND
  0
POLYLINE
  8
LAYER_6
  6
AIGENLINE001
 40
0.0353
 41
0.0353
 66
1
 10
0
 20
0
 30
0
 70
128
  0
VERTEX
  8
LAYER_6
 10
80.4649
 20
-185.9975
  0
VERTEX
  8
LAYER_6
 10
86.4649
 20
-185.9975
  0
SEQEND
  0
CIRCLE
  8
LAYER_6
 10
83.4649
 20
-185.9975
 40
2.4
  0
POLYLINE
  8
LAYER_6
 40
0.0353
 41
0.0353
 66
1
 10
0
 20
0
 30
0
  0
VERTEX
  8
LAYER_6
 10
85.3649
 20
-188.6975
  0
VERTEX
  8
LAYER_6
 10
83.4649
 20
-188.6975
  0
VERTEX
  8
LAYER_6
 10
81.5649
 20
-188.6975
  0
SEQEND
  0
POLYLINE
  8
LAYER_6
 40
0.0353
 41
0.0353
 66
1
 10
0
 20
0
 30
0
  0
VERTEX
  8
LAYER_6
 10
85.4286
 20
-187.3781
 42
0.1446474884
  0
VERTEX
  8
LAYER_6
 10
85.3649
 20
-187.5937
  0
VERTEX
  8
LAYER_6
 10
85.3649
 20
-187.5952
  0
VERTEX
  8
LAYER_6
 10
85.3649
 20
-188.6975
  0
VERTEX
  8
LAYER_6
 10
85.2649
 20
-188.7975
  0
VERTEX
  8
LAYER_6
 10
83.4649
 20
-188.7975
  0
VERTEX
  8
LAYER_6
 10
81.6649
 20
-188.7975
  0
VERTEX
  8
LAYER_6
 10
81.5649
 20
-188.6975
  0
VERTEX
  8
LAYER_6
 10
81.5649
 20
-187.5951
  0
VERTEX
  8
LAYER_6
 10
81.565
 20
-187.5928
 42
0.1457531703
  0
VERTEX
  8
LAYER_6
 10
81.501
 20
-187.3783
  0
SEQEND
  0
CIRCLE
  8
LAYER_6
 10
83.4649
 20
-185.9975
 40
2.2
  0
POLYLINE
  8
LAYER_6
 40
0.0353
 41
0.0353
 66
1
 10
0
 20
0
 30
0
  0
VERTEX
  8
LAYER_6
 10
85.8649
 20
-181.1975
  0
VERTEX
  8
LAYER_6
 10
85.8649
 20
-183.5975
  0
VERTEX
  8
LAYER_6
 10
85.8649
 20
-185.9975
  0
SEQEND
  0
POLYLINE
  8
LAYER_6
 40
0.0353
 41
0.0353
 66
1
 10
0
 20
0
 30
0
  0
VERTEX
  8
LAYER_6
 10
81.0649
 20
-181.1975
  0
VERTEX
  8
LAYER_6
 10
81.0649
 20
-183.5975
  0
VERTEX
  8
LAYER_6
 10
81.0649
 20
-185.9975
  0
SEQEND
  0
POLYLINE
  8
LAYER_6
 40
0.0353
 41
0.0353
 66
1
 10
0
 20
0
 30
0
  0
VERTEX
  8
LAYER_6
 10
81.2649
 20
-181.0175
  0
VERTEX
  8
LAYER_6
 10
81.2649
 20
-181.0975
  0
SEQEND
  0
POLYLINE
  8
LAYER_6
 40
0.0353
 41
0.0353
 66
1
 10
0
 20
0
 30
0
  0
VERTEX
  8
LAYER_6
 10
85.6649
 20
-181.0175
  0
VERTEX
  8
LAYER_6
 10
85.6649
 20
-181.0975
  0
SEQEND
  0
POLYLINE
  8
LAYER_6
 40
0.0353
 41
0.0353
 66
1
 10
0
 20
0
 30
0
 70
1
  0
VERTEX
  8
LAYER_6
 10
83.4649
 20
-181.0975
  0
VERTEX
  8
LAYER_6
 10
85.7649
 20
-181.0975
  0
VERTEX
  8
LAYER_6
 10
85.8649
 20
-181.1975
  0
VERTEX
  8
LAYER_6
 10
81.0649
 20
-181.1975
  0
VERTEX
  8
LAYER_6
 10
81.1649
 20
-181.0975
  0
SEQEND
  0
POLYLINE
  8
LAYER_6
 40
0.0353
 41
0.0353
 66
1
 10
0
 20
0
 30
0
 70
1
  0
VERTEX
  8
LAYER_6
 10
80.9649
 20
-189.2975
  0
VERTEX
  8
LAYER_6
 10
80.9649
 20
-191.5439
 42
0.1319385133
  0
VERTEX
  8
LAYER_6
 10
81.1649
 20
-191.5975
  0
VERTEX
  8
LAYER_6
 10
85.7649
 20
-191.5975
 42
0.1319393522
  0
VERTEX
  8
LAYER_6
 10
85.9649
 20
-191.5439
  0
VERTEX
  8
LAYER_6
 10
85.9649
 20
-189.2975
 42
0.03233777581
  0
VERTEX
  8
LAYER_6
 10
85.8166
 20
-188.9975
  0
VERTEX
  8
LAYER_6
 10
81.1133
 20
-188.9975
 42
0.03245605506
  0
SEQEND
  0
POLYLINE
  8
LAYER_6
 40
0.0353
 41
0.0353
 66
1
 10
0
 20
0
 30
0
  0
VERTEX
  8
LAYER_6
 10
83.0981
 20
-190.2975
 42
0.2116267095
  0
VERTEX
  8
LAYER_6
 10
82.7433
 20
-189.4962
 42
0.1742697182
  0
VERTEX
  8
LAYER_6
 10
82.2149
 20
-189.2975
 42
0.2488896903
  0
VERTEX
  8
LAYER_6
 10
81.5202
 20
-189.6801
 42
0.1534708199
  0
VERTEX
  8
LAYER_6
 10
81.3318
 20
-190.2975
  0
SEQEND
  0
POLYLINE
  8
LAYER_6
 40
0.0353
 41
0.0353
 66
1
 10
0
 20
0
 30
0
  0
VERTEX
  8
LAYER_6
 10
81.3318
 20
-191.1975
 42
0.1854118445
  0
VERTEX
  8
LAYER_6
 10
81.3854
 20
-191.3166
 42
0.09474221346
  0
VERTEX
  8
LAYER_6
 10
81.5403
 20
-191.421
 42
0.06091461454
  0
VERTEX
  8
LAYER_6
 10
81.832
 20
-191.5097
 42
0.04628180893
  0
VERTEX
  8
LAYER_6
 10
82.2149
 20
-191.5439
 42
0.1156873882
  0
VERTEX
  8
LAYER_6
 10
82.9532
 20
-191.3877
 42
0.2343357875
  0
VERTEX
  8
LAYER_6
 10
83.0981
 20
-191.1975
  0
SEQEND
  0
POLYLINE
  8
LAYER_6
 40
0.0353
 41
0.0353
 66
1
 10
0
 20
0
 30
0
  0
VERTEX
  8
LAYER_6
 10
81.3318
 20
-190.2975
  0
VERTEX
  8
LAYER_6
 10
81.3318
 20
-191.1975
  0
SEQEND
  0
POLYLINE
  8
LAYER_6
 40
0.0353
 41
0.0353
 66
1
 10
0
 20
0
 30
0
  0
VERTEX
  8
LAYER_6
 10
83.0981
 20
-190.2975
  0
VERTEX
  8
LAYER_6
 10
83.0981
 20
-191.1975
  0
SEQEND
  0
POLYLINE
  8
LAYER_6
 40
0.0353
 41
0.0353
 66
1
 10
0
 20
0
 30
0
  0
VERTEX
  8
LAYER_6
 10
85.5981
 20
-190.2975
 42
0.2116267095
  0
VERTEX
  8
LAYER_6
 10
85.2433
 20
-189.4962
 42
0.1742697182
  0
VERTEX
  8
LAYER_6
 10
84.7149
 20
-189.2975
 42
0.2488896903
  0
VERTEX
  8
LAYER_6
 10
84.0202
 20
-189.6801
 42
0.1534708199
  0
VERTEX
  8
LAYER_6
 10
83.8318
 20
-190.2975
  0
SEQEND
  0
POLYLINE
  8
LAYER_6
 40
0.0353
 41
0.0353
 66
1
 10
0
 20
0
 30
0
  0
VERTEX
  8
LAYER_6
 10
85.5981
 20
-191.1975
 42
0.1854161931
  0
VERTEX
  8
LAYER_6
 10
85.5445
 20
-191.0784
 42
0.09474489294
  0
VERTEX
  8
LAYER_6
 10
85.3896
 20
-190.974
 42
0.06091385827
  0
VERTEX
  8
LAYER_6
 10
85.0978
 20
-190.8853
 42
0.04627616173
  0
VERTEX
  8
LAYER_6
 10
84.7149
 20
-190.8511
 42
0.1156955705
  0
VERTEX
  8
LAYER_6
 10
83.9767
 20
-191.0073
 42
0.2343295206
  0
VERTEX
  8
LAYER_6
 10
83.8318
 20
-191.1975
  0
SEQEND
  0
POLYLINE
  8
LAYER_6
 40
0.0353
 41
0.0353
 66
1
 10
0
 20
0
 30
0
  0
VERTEX
  8
LAYER_6
 10
85.5981
 20
-190.2975
  0
VERTEX
  8
LAYER_6
 10
85.5981
 20
-191.1975
  0
SEQEND
  0
POLYLINE
  8
LAYER_6
 40
0.0353
 41
0.0353
 66
1
 10
0
 20
0
 30
0
  0
VERTEX
  8
LAYER_6
 10
83.8318
 20
-190.2975
  0
VERTEX
  8
LAYER_6
 10
83.8318
 20
-191.1975
  0
SEQEND
  0
POLYLINE
  8
LAYER_6
 40
0.0353
 41
0.0353
 66
1
 10
0
 20
0
 30
0
  0
VERTEX
  8
LAYER_6
 10
85.0849
 20
-188.9975
  0
VERTEX
  8
LAYER_6
 10
85.0849
 20
-188.7975
  0
VERTEX
  8
LAYER_6
 10
81.8449
 20
-188.7975
  0
VERTEX
  8
LAYER_6
 10
81.8449
 20
-188.9975
  0
SEQEND
  0
CIRCLE
  8
LAYER_6
 10
83.4649
 20
-185.9975
 40
2.09
  0
POLYLINE
  8
LAYER_6
 40
0.0353
 41
0.0353
 66
1
 10
0
 20
0
 30
0
  0
VERTEX
  8
LAYER_6
 10
81.3827
 20
-185.8175
  0
VERTEX
  8
LAYER_6
 10
85.5472
 20
-185.8175
  0
SEQEND
  0
POLYLINE
  8
LAYER_6
 40
0.0353
 41
0.0353
 66
1
 10
0
 20
0
 30
0
  0
VERTEX
  8
LAYER_6
 10
81.3827
 20
-186.1775
  0
VERTEX
  8
LAYER_6
 10
85.5472
 20
-186.1775
  0
SEQEND
  0
POLYLINE
  8
LAYER_6
 40
0.0353
 41
0.0353
 66
1
 10
0
 20
0
 30
0
  0
VERTEX
  8
LAYER_6
 10
83.4649
 20
-177.7975
  0
VERTEX
  8
LAYER_6
 10
86.2049
 20
-177.7975
 42
-0.4142634197
  0
VERTEX
  8
LAYER_6
 10
86.4049
 20
-177.9975
  0
VERTEX
  8
LAYER_6
 10
86.4049
 20
-180.9575
 42
-0.392852767
  0
VERTEX
  8
LAYER_6
 10
86.3449
 20
-181.0175
  0
VERTEX
  8
LAYER_6
 10
79.2649
 20
-181.0175
 42
-0.3923136174
  0
VERTEX
  8
LAYER_6
 10
79.2049
 20
-180.9575
  0
VERTEX
  8
LAYER_6
 10
79.2049
 20
-177.9975
 42
-0.4141569953
  0
VERTEX
  8
LAYER_6
 10
79.4049
 20
-177.7975
  0
VERTEX
  8
LAYER_6
 10
83.3049
 20
-177.7975
  0
SEQEND
  0
POLYLINE
  8
LAYER_6
 40
0.0353
 41
0.0353
 66
1
 10
0
 20
0
 30
0
  0
VERTEX
  8
LAYER_6
 10
82.7529
 20
-177.7975
  0
VERTEX
  8
LAYER_6
 10
82.7529
 20
-181.0175
  0
SEQEND
  0
POLYLINE
  8
LAYER_6
 40
0.0353
 41
0.0353
 66
1
 10
0
 20
0
 30
0
  0
VERTEX
  8
LAYER_6
 10
84.2712
 20
-178.2975
  0
VERTEX
  8
LAYER_6
 10
84.2712
 20
-181.0175
  0
SEQEND
  0
POLYLINE
  8
LAYER_6
 40
0.0353
 41
0.0353
 66
1
 10
0
 20
0
 30
0
  0
VERTEX
  8
LAYER_6
 10
84.6049
 20
-177.7975
  0
VERTEX
  8
LAYER_6
 10
84.6049
 20
-181.0175
  0
SEQEND
  0
POLYLINE
  8
LAYER_6
 40
0.0353
 41
0.0353
 66
1
 10
0
 20
0
 30
0
  0
VERTEX
  8
LAYER_6
 10
84.6049
 20
-178.0975
  0
VERTEX
  8
LAYER_6
 10
83.4649
 20
-178.0975
  0
VERTEX
  8
LAYER_6
 10
83.4649
 20
-177.0975
  0
VERTEX
  8
LAYER_6
 10
85.8549
 20
-177.0975
  0
VERTEX
  8
LAYER_6
 10
85.8549
 20
-177.7975
  0
SEQEND
  0
POLYLINE
  8
LAYER_6
 40
0.0353
 41
0.0353
 66
1
 10
0
 20
0
 30
0
  0
VERTEX
  8
LAYER_6
 10
84.6049
 20
-178.2975
  0
VERTEX
  8
LAYER_6
 10
83.3049
 20
-178.2975
  0
VERTEX
  8
LAYER_6
 10
83.3049
 20
-177.0975
  0
VERTEX
  8
LAYER_6
 10
80.7549
 20
-177.0975
  0
VERTEX
  8
LAYER_6
 10
80.7549
 20
-177.7975
  0
SEQEND
  0
POLYLINE
  8
LAYER_6
 40
0.0353
 41
0.0353
 66
1
 10
0
 20
0
 30
0
  0
VERTEX
  8
LAYER_6
 10
80.5391
 20
-181.0175
  0
VERTEX
  8
LAYER_6
 10
80.5391
 20
-177.7975
  0
SEQEND
  0
POLYLINE
  8
LAYER_6
 40
0.0353
 41
0.0353
 66
1
 10
0
 20
0
 30
0
 70
1
  0
VERTEX
  8
LAYER_6
 10
81.5709
 20
-157.6175
  0
VERTEX
  8
LAYER_6
 10
81.5709
 20
-160.4575
 42
0.3928527672
  0
VERTEX
  8
LAYER_6
 10
81.6309
 20
-160.5175
  0
VERTEX
  8
LAYER_6
 10
87.299
 20
-160.5175
 42
0.3923136174
  0
VERTEX
  8
LAYER_6
 10
87.359
 20
-160.4575
  0
VERTEX
  8
LAYER_6
 10
87.359
 20
-157.6175
 42
0.414167363
  0
VERTEX
  8
LAYER_6
 10
87.259
 20
-157.5175
  0
VERTEX
  8
LAYER_6
 10
81.6709
 20
-157.5175
 42
0.4142473978
  0
SEQEND
  0
POLYLINE
  8
LAYER_6
 40
0.0353
 41
0.0353
 66
1
 10
0
 20
0
 30
0
  0
VERTEX
  8
LAYER_6
 10
84.4649
 20
-157.6175
  0
VERTEX
  8
LAYER_6
 10
84.4649
 20
-160.4575
  0
SEQEND
  0
POLYLINE
  8
LAYER_6
 40
0.0353
 41
0.0353
 66
1
 10
0
 20
0
 30
0
  0
VERTEX
  8
LAYER_6
 10
82.6649
 20
-161.1375
  0
VERTEX
  8
LAYER_6
 10
82.6649
 20
-160.5975
  0
SEQEND
  0
POLYLINE
  8
LAYER_6
 40
0.0353
 41
0.0353
 66
1
 10
0
 20
0
 30
0
  0
VERTEX
  8
LAYER_6
 10
86.2649
 20
-160.5975
  0
VERTEX
  8
LAYER_6
 10
86.1849
 20
-160.5175
  0
SEQEND
  0
POLYLINE
  8
LAYER_6
 40
0.0353
 41
0.0353
 66
1
 10
0
 20
0
 30
0
 70
1
  0
VERTEX
  8
LAYER_6
 10
82.0649
 20
-164.3375
  0
VERTEX
  8
LAYER_6
 10
86.8649
 20
-164.3375
  0
VERTEX
  8
LAYER_6
 10
86.8649
 20
-161.1375
  0
VERTEX
  8
LAYER_6
 10
82.0649
 20
-161.1375
  0
SEQEND
  0
POLYLINE
  8
LAYER_6
 40
0.0353
 41
0.0353
 66
1
 10
0
 20
0
 30
0
  0
VERTEX
  8
LAYER_6
 10
86.2649
 20
-161.1375
  0
VERTEX
  8
LAYER_6
 10
86.2649
 20
-160.5975
  0
VERTEX
  8
LAYER_6
 10
82.6649
 20
-160.5975
  0
VERTEX
  8
LAYER_6
 10
82.7449
 20
-160.5175
  0
SEQEND
  0
POLYLINE
  8
LAYER_6
 40
0.0353
 41
0.0353
 66
1
 10
0
 20
0
 30
0
  0
VERTEX
  8
LAYER_6
 10
82.1937
 20
-162.0375
  0
VERTEX
  8
LAYER_6
 10
82.1937
 20
-164.1643
  0
SEQEND
  0
POLYLINE
  8
LAYER_6
 40
0.0353
 41
0.0353
 66
1
 10
0
 20
0
 30
0
  0
VERTEX
  8
LAYER_6
 10
86.7362
 20
-162.0375
  0
VERTEX
  8
LAYER_6
 10
86.7362
 20
-164.1643
  0
SEQEND
  0
POLYLINE
  8
LAYER_6
 40
0.0353
 41
0.0353
 66
1
 10
0
 20
0
 30
0
  0
VERTEX
  8
LAYER_6
 10
84.5937
 20
-161.3107
  0
VERTEX
  8
LAYER_6
 10
84.5937
 20
-161.8375
  0
SEQEND
  0
POLYLINE
  8
LAYER_6
 40
0.0353
 41
0.0353
 66
1
 10
0
 20
0
 30
0
  0
VERTEX
  8
LAYER_6
 10
84.5937
 20
-162.0375
  0
VERTEX
  8
LAYER_6
 10
84.5937
 20
-164.1643
  0
SEQEND
  0
POLYLINE
  8
LAYER_6
 40
0.0353
 41
0.0353
 66
1
 10
0
 20
0
 30
0
  0
VERTEX
  8
LAYER_6
 10
84.3362
 20
-161.3107
 42
0.08032959263
  0
VERTEX
  8
LAYER_6
 10
83.2649
 20
-161.1375
 42
0.08032229359
  0
VERTEX
  8
LAYER_6
 10
82.1937
 20
-161.3107
  0
SEQEND
  0
POLYLINE
  8
LAYER_6
 40
0.0353
 41
0.0353
 66
1
 10
0
 20
0
 30
0
  0
VERTEX
  8
LAYER_6
 10
82.0649
 20
-161.3107
  0
VERTEX
  8
LAYER_6
 10
82.1937
 20
-161.3107
  0
VERTEX
  8
LAYER_6
 10
82.1937
 20
-161.8375
  0
SEQEND
  0
POLYLINE
  8
LAYER_6
 40
0.0353
 41
0.0353
 66
1
 10
0
 20
0
 30
0
  0
VERTEX
  8
LAYER_6
 10
86.7362
 20
-161.3107
 42
0.08032959263
  0
VERTEX
  8
LAYER_6
 10
85.6649
 20
-161.1375
 42
0.08032229359
  0
VERTEX
  8
LAYER_6
 10
84.5937
 20
-161.3107
  0
VERTEX
  8
LAYER_6
 10
84.3362
 20
-161.3107
  0
VERTEX
  8
LAYER_6
 10
84.3362
 20
-161.8375
  0
SEQEND
  0
POLYLINE
  8
LAYER_6
 40
0.0353
 41
0.0353
 66
1
 10
0
 20
0
 30
0
  0
VERTEX
  8
LAYER_6
 10
86.8649
 20
-161.3107
  0
VERTEX
  8
LAYER_6
 10
86.7362
 20
-161.3107
  0
VERTEX
  8
LAYER_6
 10
86.7362
 20
-161.8375
  0
SEQEND
  0
POLYLINE
  8
LAYER_6
 40
0.0353
 41
0.0353
 66
1
 10
0
 20
0
 30
0
  0
VERTEX
  8
LAYER_6
 10
84.3362
 20
-164.1643
 42
-0.08032969975
  0
VERTEX
  8
LAYER_6
 10
83.2649
 20
-164.3375
 42
-0.08032240029
  0
VERTEX
  8
LAYER_6
 10
82.1937
 20
-164.1643
  0
VERTEX
  8
LAYER_6
 10
82.0649
 20
-164.1643
  0
SEQEND
  0
POLYLINE
  8
LAYER_6
 40
0.0353
 41
0.0353
 66
1
 10
0
 20
0
 30
0
  0
VERTEX
  8
LAYER_6
 10
84.3362
 20
-162.0375
  0
VERTEX
  8
LAYER_6
 10
84.3362
 20
-164.1643
  0
VERTEX
  8
LAYER_6
 10
84.5937
 20
-164.1643
 42
0.08032240029
  0
VERTEX
  8
LAYER_6
 10
85.6649
 20
-164.3375
 42
0.08032969975
  0
VERTEX
  8
LAYER_6
 10
86.7362
 20
-164.1643
  0
VERTEX
  8
LAYER_6
 10
86.8649
 20
-164.1643
  0
SEQEND
  0
POLYLINE
  8
LAYER_6
 40
0.0353
 41
0.0353
 66
1
 10
0
 20
0
 30
0
  0
VERTEX
  8
LAYER_6
 10
84.7989
 20
-161.9375
  0
VERTEX
  8
LAYER_6
 10
84.5937
 20
-161.8375
  0
VERTEX
  8
LAYER_6
 10
84.3362
 20
-161.8375
  0
VERTEX
  8
LAYER_6
 10
84.131
 20
-161.9375
  0
SEQEND
  0
POLYLINE
  8
LAYER_6
 40
0.0353
 41
0.0353
 66
1
 10
0
 20
0
 30
0
 70
1
  0
VERTEX
  8
LAYER_6
 10
84.3362
 20
-162.0375
  0
VERTEX
  8
LAYER_6
 10
84.5937
 20
-162.0375
  0
VERTEX
  8
LAYER_6
 10
84.7989
 20
-161.9375
  0
VERTEX
  8
LAYER_6
 10
84.131
 20
-161.9375
  0
SEQEND
  0
POLYLINE
  8
LAYER_6
 40
0.0353
 41
0.0353
 66
1
 10
0
 20
0
 30
0
  0
VERTEX
  8
LAYER_6
 10
82.0649
 20
-161.9375
  0
VERTEX
  8
LAYER_6
 10
82.3989
 20
-161.9375
  0
SEQEND
  0
POLYLINE
  8
LAYER_6
 40
0.0353
 41
0.0353
 66
1
 10
0
 20
0
 30
0
  0
VERTEX
  8
LAYER_6
 10
82.0649
 20
-162.0375
  0
VERTEX
  8
LAYER_6
 10
82.1937
 20
-162.0375
  0
VERTEX
  8
LAYER_6
 10
82.3989
 20
-161.9375
  0
VERTEX
  8
LAYER_6
 10
82.1937
 20
-161.8375
  0
VERTEX
  8
LAYER_6
 10
82.0649
 20
-161.8375
  0
SEQEND
  0
POLYLINE
  8
LAYER_6
 40
0.0353
 41
0.0353
 66
1
 10
0
 20
0
 30
0
  0
VERTEX
  8
LAYER_6
 10
86.8649
 20
-161.9375
  0
VERTEX
  8
LAYER_6
 10
86.531
 20
-161.9375
  0
SEQEND
  0
POLYLINE
  8
LAYER_6
 40
0.0353
 41
0.0353
 66
1
 10
0
 20
0
 30
0
  0
VERTEX
  8
LAYER_6
 10
86.8649
 20
-162.0375
  0
VERTEX
  8
LAYER_6
 10
86.7362
 20
-162.0375
  0
VERTEX
  8
LAYER_6
 10
86.531
 20
-161.9375
  0
VERTEX
  8
LAYER_6
 10
86.7362
 20
-161.8375
  0
VERTEX
  8
LAYER_6
 10
86.8649
 20
-161.8375
  0
SEQEND
  0
POLYLINE
  8
LAYER_6
 40
0.0353
 41
0.0353
 66
1
 10
0
 20
0
 30
0
  0
VERTEX
  8
LAYER_6
 10
178.8795
 20
-188.7975
  0
VERTEX
  8
LAYER_6
 10
178.8795
 20
-188.9975
  0
SEQEND
  0
POLYLINE
  8
LAYER_6
 40
0.0353
 41
0.0353
 66
1
 10
0
 20
0
 30
0
  0
VERTEX
  8
LAYER_6
 10
178.8595
 20
-188.7975
  0
VERTEX
  8
LAYER_6
 10
177.2595
 20
-188.7975
  0
VERTEX
  8
LAYER_6
 10
175.6395
 20
-188.7975
  0
VERTEX
  8
LAYER_6
 10
175.6395
 20
-188.9975
  0
SEQEND
  0
POLYLINE
  8
LAYER_6
 40
0.0353
 41
0.0353
 66
1
 10
0
 20
0
 30
0
  0
VERTEX
  8
LAYER_6
 10
176.1095
 20
-188.7975
  0
VERTEX
  8
LAYER_6
 10
175.7195
 20
-188.7975
  0
VERTEX
  8
LAYER_6
 10
175.4595
 20
-188.7975
  0
VERTEX
  8
LAYER_6
 10
175.3595
 20
-188.6975
  0
SEQEND
  0
POLYLINE
  8
LAYER_6
  6
AIGENLINE001
 40
0.0353
 41
0.0353
 66
1
 10
0
 20
0
 30
0
 70
128
  0
VERTEX
  8
LAYER_6
 10
177.2595
 20
-189.0533
  0
VERTEX
  8
LAYER_6
 10
177.2595
 20
-183.3505
  0
VERTEX
  8
LAYER_6
 10
177.2595
 20
-191.9942
  0
SEQEND
  0
POLYLINE
  8
LAYER_6
 40
0.0353
 41
0.0353
 66
1
 10
0
 20
0
 30
0
  0
VERTEX
  8
LAYER_6
 10
171.1595
 20
-181.1975
  0
VERTEX
  8
LAYER_6
 10
171.1595
 20
-183.1975
 42
-0.4141826989
  0
VERTEX
  8
LAYER_6
 10
170.7595
 20
-183.5975
  0
VERTEX
  8
LAYER_6
 10
169.6595
 20
-183.5975
  0
SEQEND
  0
POLYLINE
  8
LAYER_6
 40
0.0353
 41
0.0353
 66
1
 10
0
 20
0
 30
0
  0
VERTEX
  8
LAYER_6
 10
175.9595
 20
-181.1975
  0
VERTEX
  8
LAYER_6
 10
175.9595
 20
-183.1975
 42
0.4142477828
  0
VERTEX
  8
LAYER_6
 10
176.3595
 20
-183.5975
  0
VERTEX
  8
LAYER_6
 10
176.7595
 20
-183.5975
 42
-0.4142078591
  0
VERTEX
  8
LAYER_6
 10
179.1595
 20
-185.9975
  0
VERTEX
  8
LAYER_6
 10
179.1595
 20
-188.6982
  0
SEQEND
  0
POLYLINE
  8
LAYER_6
 40
0.0353
 41
0.0353
 66
1
 10
0
 20
0
 30
0
  0
VERTEX
  8
LAYER_6
 10
175.7595
 20
-181.0175
  0
VERTEX
  8
LAYER_6
 10
175.7595
 20
-181.0975
  0
SEQEND
  0
POLYLINE
  8
LAYER_6
 40
0.0353
 41
0.0353
 66
1
 10
0
 20
0
 30
0
  0
VERTEX
  8
LAYER_6
 10
171.3595
 20
-181.0175
  0
VERTEX
  8
LAYER_6
 10
171.3595
 20
-181.0975
  0
SEQEND
  0
POLYLINE
  8
LAYER_6
  6
AIGENLINE001
 40
0.0353
 41
0.0353
 66
1
 10
0
 20
0
 30
0
 70
128
  0
VERTEX
  8
LAYER_6
 10
179.5595
 20
-185.9975
  0
VERTEX
  8
LAYER_6
 10
168.7462
 20
-185.9975
  0
SEQEND
  0
POLYLINE
  8
LAYER_6
 40
0.0353
 41
0.0353
 66
1
 10
0
 20
0
 30
0
  0
VERTEX
  8
LAYER_6
 10
169.5595
 20
-188.0875
  0
VERTEX
  8
LAYER_6
 10
169.3049
 20
-188.0875
 42
-0.0664655815
  0
VERTEX
  8
LAYER_6
 10
169.0017
 20
-186.1775
  0
VERTEX
  8
LAYER_6
 10
169.5595
 20
-186.1775
  0
SEQEND
  0
POLYLINE
  8
LAYER_6
 40
0.0353
 41
0.0353
 66
1
 10
0
 20
0
 30
0
  0
VERTEX
  8
LAYER_6
 10
169.5595
 20
-183.9075
  0
VERTEX
  8
LAYER_6
 10
169.3049
 20
-183.9075
 42
0.06646557477
  0
VERTEX
  8
LAYER_6
 10
169.0017
 20
-185.8175
  0
VERTEX
  8
LAYER_6
 10
169.5595
 20
-185.8175
  0
SEQEND
  0
POLYLINE
  8
LAYER_6
 40
0.0353
 41
0.0353
 66
1
 10
0
 20
0
 30
0
  0
VERTEX
  8
LAYER_6
 10
170.7095
 20
-177.7975
  0
VERTEX
  8
LAYER_6
 10
170.7095
 20
-177.0975
  0
VERTEX
  8
LAYER_6
 10
173.5595
 20
-177.0975
  0
VERTEX
  8
LAYER_6
 10
176.4095
 20
-177.0975
  0
VERTEX
  8
LAYER_6
 10
176.4095
 20
-177.7975
  0
SEQEND
  0
POLYLINE
  8
LAYER_6
 40
0.0353
 41
0.0353
 66
1
 10
0
 20
0
 30
0
  0
VERTEX
  8
LAYER_6
 10
175.3595
 20
-161.1375
  0
VERTEX
  8
LAYER_6
 10
175.3595
 20
-160.5975
  0
SEQEND
  0
POLYLINE
  8
LAYER_6
 40
0.0353
 41
0.0353
 66
1
 10
0
 20
0
 30
0
  0
VERTEX
  8
LAYER_6
 10
171.7595
 20
-160.5975
  0
VERTEX
  8
LAYER_6
 10
171.8395
 20
-160.5175
  0
SEQEND
  0
POLYLINE
  8
LAYER_6
 40
0.1905
 41
0.1905
 66
1
 10
0
 20
0
 30
0
  0
VERTEX
  8
LAYER_6
 10
179.9544
 20
-190.2975
 42
0.1229429319
  0
VERTEX
  8
LAYER_6
 10
179.7873
 20
-189.5892
 42
0.09608640473
  0
VERTEX
  8
LAYER_6
 10
179.6372
 20
-189.4113
 42
0.1637991511
  0
VERTEX
  8
LAYER_6
 10
179.4445
 20
-189.3406
 42
0.1412753722
  0
VERTEX
  8
LAYER_6
 10
179.281
 20
-189.3909
 42
0.09590347644
  0
VERTEX
  8
LAYER_6
 10
179.1394
 20
-189.5307
 42
0.06998884009
  0
VERTEX
  8
LAYER_6
 10
179.0183
 20
-189.7721
 42
0.08527772196
  0
VERTEX
  8
LAYER_6
 10
178.9346
 20
-190.2975
  0
SEQEND
  0
POLYLINE
  8
LAYER_6
 40
0.2399
 41
0.2399
 66
1
 10
0
 20
0
 30
0
  0
VERTEX
  8
LAYER_6
 10
177.2795
 20
-191.2544
 42
0.2838068332
  0
VERTEX
  8
LAYER_6
 10
178.2239
 20
-190.6592
 42
0.1029526626
  0
VERTEX
  8
LAYER_6
 10
178.2993
 20
-190.2975
  0
SEQEND
  0
POLYLINE
  8
LAYER_6
 40
0.2399
 41
0.2399
 66
1
 10
0
 20
0
 30
0
  0
VERTEX
  8
LAYER_6
 10
177.2795
 20
-189.3406
 42
0.2838184253
  0
VERTEX
  8
LAYER_6
 10
176.3351
 20
-189.9358
 42
0.1029393989
  0
VERTEX
  8
LAYER_6
 10
176.2597
 20
-190.2975
  0
SEQEND
  0
POLYLINE
  8
LAYER_6
 40
0.2469
 41
0.2469
 66
1
 10
0
 20
0
 30
0
  0
VERTEX
  8
LAYER_6
 10
178.9346
 20
-190.2975
  0
VERTEX
  8
LAYER_6
 10
178.9346
 20
-191.0748
 42
0.414145298
  0
VERTEX
  8
LAYER_6
 10
179.1346
 20
-191.2748
  0
VERTEX
  8
LAYER_6
 10
179.7544
 20
-191.2748
 42
0.4142009544
  0
VERTEX
  8
LAYER_6
 10
179.9544
 20
-191.0748
  0
VERTEX
  8
LAYER_6
 10
179.9544
 20
-190.2975
  0
SEQEND
  0
POLYLINE
  8
LAYER_6
 40
0.2469
 41
0.2469
 66
1
 10
0
 20
0
 30
0
  0
VERTEX
  8
LAYER_6
 10
174.9453
 20
-188.9975
 42
0.1316529519
  0
VERTEX
  8
LAYER_6
 10
174.597
 20
-190.2975
  0
VERTEX
  8
LAYER_6
 10
174.597
 20
-191.1975
 42
0.4142473046
  0
VERTEX
  8
LAYER_6
 10
174.997
 20
-191.5975
  0
VERTEX
  8
LAYER_6
 10
177.2795
 20
-191.5975
  0
VERTEX
  8
LAYER_6
 10
179.562
 20
-191.5975
 42
0.4141822205
  0
VERTEX
  8
LAYER_6
 10
179.962
 20
-191.1975
  0
VERTEX
  8
LAYER_6
 10
179.962
 20
-190.2975
 42
0.1316534958
  0
VERTEX
  8
LAYER_6
 10
179.6136
 20
-188.9975
  0
SEQEND
  0
POLYLINE
  8
LAYER_6
 40
0.1905
 41
0.1905
 66
1
 10
0
 20
0
 30
0
  0
VERTEX
  8
LAYER_6
 10
175.6243
 20
-190.2975
 42
0.1229429319
  0
VERTEX
  8
LAYER_6
 10
175.4572
 20
-189.5892
 42
0.09608640473
  0
VERTEX
  8
LAYER_6
 10
175.3071
 20
-189.4113
 42
0.1637991511
  0
VERTEX
  8
LAYER_6
 10
175.1144
 20
-189.3406
 42
0.1412753722
  0
VERTEX
  8
LAYER_6
 10
174.9509
 20
-189.3909
 42
0.09590347644
  0
VERTEX
  8
LAYER_6
 10
174.8093
 20
-189.5307
 42
0.06998884009
  0
VERTEX
  8
LAYER_6
 10
174.6882
 20
-189.7721
 42
0.08527772196
  0
VERTEX
  8
LAYER_6
 10
174.6045
 20
-190.2975
  0
SEQEND
  0
POLYLINE
  8
LAYER_6
 40
0.2469
 41
0.2469
 66
1
 10
0
 20
0
 30
0
  0
VERTEX
  8
LAYER_6
 10
174.6045
 20
-190.2975
  0
VERTEX
  8
LAYER_6
 10
174.6045
 20
-191.0748
 42
0.4141846792
  0
VERTEX
  8
LAYER_6
 10
174.8045
 20
-191.2748
  0
VERTEX
  8
LAYER_6
 10
175.4243
 20
-191.2748
 42
0.4141615729
  0
VERTEX
  8
LAYER_6
 10
175.6243
 20
-191.0748
  0
VERTEX
  8
LAYER_6
 10
175.6243
 20
-190.2975
  0
SEQEND
  0
POLYLINE
  8
LAYER_6
 40
0.2469
 41
0.2469
 66
1
 10
0
 20
0
 30
0
  0
VERTEX
  8
LAYER_6
 10
176.2597
 20
-190.2975
  0
VERTEX
  8
LAYER_6
 10
176.2597
 20
-191.0748
 42
0.4142410444
  0
VERTEX
  8
LAYER_6
 10
176.4597
 20
-191.2748
  0
VERTEX
  8
LAYER_6
 10
177.2795
 20
-191.2748
  0
VERTEX
  8
LAYER_6
 10
178.0993
 20
-191.2748
 42
0.4141109201
  0
VERTEX
  8
LAYER_6
 10
178.2993
 20
-191.0748
  0
VERTEX
  8
LAYER_6
 10
178.2993
 20
-190.2975
  0
SEQEND
  0
POLYLINE
  8
LAYER_6
 40
0.0353
 41
0.0353
 66
1
 10
0
 20
0
 30
0
  0
VERTEX
  8
LAYER_6
 10
179.6136
 20
-188.9975
  0
VERTEX
  8
LAYER_6
 10
177.2595
 20
-188.9975
  0
VERTEX
  8
LAYER_6
 10
174.9453
 20
-188.9975
  0
SEQEND
  0
POLYLINE
  8
LAYER_6
 40
0.0353
 41
0.0353
 66
1
 10
0
 20
0
 30
0
  0
VERTEX
  8
LAYER_6
 10
178.7995
 20
-188.7975
  0
VERTEX
  8
LAYER_6
 10
179.0596
 20
-188.7975
  0
VERTEX
  8
LAYER_6
 10
179.1596
 20
-188.6982
  0
VERTEX
  8
LAYER_6
 10
177.2595
 20
-188.6982
  0
VERTEX
  8
LAYER_6
 10
175.3595
 20
-188.6975
 42
0.3419750578
  0
VERTEX
  8
LAYER_6
 10
174.9722
 20
-188.3975
  0
VERTEX
  8
LAYER_6
 10
169.6595
 20
-188.3975
  0
SEQEND
  0
POLYLINE
  8
LAYER_6
 40
0.0353
 41
0.0353
 66
1
 10
0
 20
0
 30
0
 70
1
  0
VERTEX
  8
LAYER_6
 10
169.5595
 20
-183.6975
  0
VERTEX
  8
LAYER_6
 10
169.5595
 20
-185.9975
  0
VERTEX
  8
LAYER_6
 10
169.5595
 20
-188.2975
  0
VERTEX
  8
LAYER_6
 10
169.6595
 20
-188.3975
  0
VERTEX
  8
LAYER_6
 10
169.6595
 20
-185.9975
  0
VERTEX
  8
LAYER_6
 10
169.6595
 20
-183.5975
  0
SEQEND
  0
POLYLINE
  8
LAYER_6
 40
0.0353
 41
0.0353
 66
1
 10
0
 20
0
 30
0
 70
1
  0
VERTEX
  8
LAYER_6
 10
175.9595
 20
-181.1975
  0
VERTEX
  8
LAYER_6
 10
173.5595
 20
-181.1975
  0
VERTEX
  8
LAYER_6
 10
171.1595
 20
-181.1975
  0
VERTEX
  8
LAYER_6
 10
171.2595
 20
-181.0975
  0
VERTEX
  8
LAYER_6
 10
173.5595
 20
-181.0975
  0
VERTEX
  8
LAYER_6
 10
175.8595
 20
-181.0975
  0
SEQEND
  0
POLYLINE
  8
LAYER_6
 40
0.0353
 41
0.0353
 66
1
 10
0
 20
0
 30
0
 70
1
  0
VERTEX
  8
LAYER_6
 10
169.6095
 20
-177.9975
  0
VERTEX
  8
LAYER_6
 10
169.6095
 20
-180.9575
 42
0.3928527672
  0
VERTEX
  8
LAYER_6
 10
169.6695
 20
-181.0175
  0
VERTEX
  8
LAYER_6
 10
173.5595
 20
-181.0175
  0
VERTEX
  8
LAYER_6
 10
177.4495
 20
-181.0175
 42
0.3923136174
  0
VERTEX
  8
LAYER_6
 10
177.5095
 20
-180.9575
  0
VERTEX
  8
LAYER_6
 10
177.5095
 20
-177.9475
 42
0.4141223158
  0
VERTEX
  8
LAYER_6
 10
177.3595
 20
-177.7975
  0
VERTEX
  8
LAYER_6
 10
173.5595
 20
-177.7975
  0
VERTEX
  8
LAYER_6
 10
169.8095
 20
-177.7975
 42
0.4142752895
  0
SEQEND
  0
POLYLINE
  8
LAYER_6
 40
0.0353
 41
0.0353
 66
1
 10
0
 20
0
 30
0
  0
VERTEX
  8
LAYER_6
 10
171.7595
 20
-161.1375
  0
VERTEX
  8
LAYER_6
 10
171.7595
 20
-160.5975
  0
VERTEX
  8
LAYER_6
 10
173.5595
 20
-160.5975
  0
VERTEX
  8
LAYER_6
 10
175.3595
 20
-160.5975
  0
VERTEX
  8
LAYER_6
 10
175.2795
 20
-160.5175
  0
SEQEND
  0
POLYLINE
  8
LAYER_6
 40
0.0353
 41
0.0353
 66
1
 10
0
 20
0
 30
0
  0
VERTEX
  8
LAYER_6
 10
175.5595
 20
-159.7141
 42
0.3659193662
  0
VERTEX
  8
LAYER_6
 10
175.7595
 20
-159.4775
  0
VERTEX
  8
LAYER_6
 10
175.7595
 20
-158.7575
 42
0.3659148574
  0
VERTEX
  8
LAYER_6
 10
175.5595
 20
-158.5209
  0
SEQEND
  0
POLYLINE
  8
LAYER_6
 40
0.0353
 41
0.0353
 66
1
 10
0
 20
0
 30
0
  0
VERTEX
  8
LAYER_6
 10
172.0995
 20
-161.3107
  0
VERTEX
  8
LAYER_6
 10
172.0995
 20
-161.8375
  0
SEQEND
  0
POLYLINE
  8
LAYER_6
 40
0.0353
 41
0.0353
 66
1
 10
0
 20
0
 30
0
  0
VERTEX
  8
LAYER_6
 10
172.0995
 20
-162.0375
  0
VERTEX
  8
LAYER_6
 10
172.0995
 20
-164.1643
  0
SEQEND
  0
POLYLINE
  8
LAYER_6
 40
0.0353
 41
0.0353
 66
1
 10
0
 20
0
 30
0
  0
VERTEX
  8
LAYER_6
 10
175.0195
 20
-161.3107
  0
VERTEX
  8
LAYER_6
 10
175.0195
 20
-161.8375
  0
SEQEND
  0
POLYLINE
  8
LAYER_6
 40
0.0353
 41
0.0353
 66
1
 10
0
 20
0
 30
0
  0
VERTEX
  8
LAYER_6
 10
175.0195
 20
-162.0375
  0
VERTEX
  8
LAYER_6
 10
175.0195
 20
-164.1643
  0
SEQEND
  0
POLYLINE
  8
LAYER_6
 40
0.0353
 41
0.0353
 66
1
 10
0
 20
0
 30
0
  0
VERTEX
  8
LAYER_6
 10
174.7964
 20
-161.3107
 42
0.06967241808
  0
VERTEX
  8
LAYER_6
 10
173.5595
 20
-161.1375
 42
0.06967797274
  0
VERTEX
  8
LAYER_6
 10
172.3225
 20
-161.3107
  0
SEQEND
  0
POLYLINE
  8
LAYER_6
 40
0.0353
 41
0.0353
 66
1
 10
0
 20
0
 30
0
  0
VERTEX
  8
LAYER_6
 10
172.3225
 20
-164.1643
 42
0.06967804276
  0
VERTEX
  8
LAYER_6
 10
173.5595
 20
-164.3375
 42
0.06967248851
  0
VERTEX
  8
LAYER_6
 10
174.7964
 20
-164.1643
  0
SEQEND
  0
POLYLINE
  8
LAYER_6
 40
0.0353
 41
0.0353
 66
1
 10
0
 20
0
 30
0
  0
VERTEX
  8
LAYER_6
 10
170.8595
 20
-161.3107
 42
-0.137057522
  0
VERTEX
  8
LAYER_6
 10
171.4795
 20
-161.1375
 42
-0.1370548779
  0
VERTEX
  8
LAYER_6
 10
172.0995
 20
-161.3107
  0
VERTEX
  8
LAYER_6
 10
172.3225
 20
-161.3107
  0
VERTEX
  8
LAYER_6
 10
172.3225
 20
-161.8375
  0
SEQEND
  0
POLYLINE
  8
LAYER_6
 40
0.0353
 41
0.0353
 66
1
 10
0
 20
0
 30
0
  0
VERTEX
  8
LAYER_6
 10
176.2595
 20
-161.3107
 42
0.1370547819
  0
VERTEX
  8
LAYER_6
 10
175.6395
 20
-161.1375
 42
0.1370576179
  0
VERTEX
  8
LAYER_6
 10
175.0195
 20
-161.3107
  0
VERTEX
  8
LAYER_6
 10
174.7964
 20
-161.3107
  0
VERTEX
  8
LAYER_6
 10
174.7964
 20
-161.8375
  0
SEQEND
  0
POLYLINE
  8
LAYER_6
 40
0.0353
 41
0.0353
 66
1
 10
0
 20
0
 30
0
  0
VERTEX
  8
LAYER_6
 10
170.8595
 20
-164.1643
 42
0.1370580275
  0
VERTEX
  8
LAYER_6
 10
171.4795
 20
-164.3375
 42
0.1370553838
  0
VERTEX
  8
LAYER_6
 10
172.0995
 20
-164.1643
  0
VERTEX
  8
LAYER_6
 10
172.3225
 20
-164.1643
  0
VERTEX
  8
LAYER_6
 10
172.3225
 20
-162.0375
  0
SEQEND
  0
POLYLINE
  8
LAYER_6
 40
0.0353
 41
0.0353
 66
1
 10
0
 20
0
 30
0
  0
VERTEX
  8
LAYER_6
 10
174.7964
 20
-162.0375
  0
VERTEX
  8
LAYER_6
 10
174.7964
 20
-164.1643
  0
VERTEX
  8
LAYER_6
 10
175.0195
 20
-164.1643
 42
0.1370581234
  0
VERTEX
  8
LAYER_6
 10
175.6395
 20
-164.3375
 42
0.1370552878
  0
VERTEX
  8
LAYER_6
 10
176.2595
 20
-164.1643
  0
VERTEX
  8
LAYER_6
 10
175.9595
 20
-164.3375
  0
VERTEX
  8
LAYER_6
 10
173.5595
 20
-164.3375
  0
VERTEX
  8
LAYER_6
 10
171.1595
 20
-164.3375
  0
VERTEX
  8
LAYER_6
 10
170.8595
 20
-164.1643
  0
VERTEX
  8
LAYER_6
 10
170.8595
 20
-161.3107
  0
VERTEX
  8
LAYER_6
 10
171.1595
 20
-161.1375
  0
VERTEX
  8
LAYER_6
 10
173.5595
 20
-161.1375
  0
VERTEX
  8
LAYER_6
 10
175.9595
 20
-161.1375
  0
VERTEX
  8
LAYER_6
 10
176.2595
 20
-161.3107
  0
VERTEX
  8
LAYER_6
 10
176.2595
 20
-164.1643
  0
SEQEND
  0
POLYLINE
  8
LAYER_6
 40
0.0353
 41
0.0353
 66
1
 10
0
 20
0
 30
0
  0
VERTEX
  8
LAYER_6
 10
175.5059
 20
-160.3175
  0
VERTEX
  8
LAYER_6
 10
176.5195
 20
-160.3175
  0
VERTEX
  8
LAYER_6
 10
176.5195
 20
-157.9175
  0
VERTEX
  8
LAYER_6
 10
175.5595
 20
-157.9175
  0
VERTEX
  8
LAYER_6
 10
175.5595
 20
-160.1175
 42
-0.4141826989
  0
VERTEX
  8
LAYER_6
 10
175.1595
 20
-160.5175
  0
VERTEX
  8
LAYER_6
 10
170.6619
 20
-160.5175
 42
-0.3923136174
  0
VERTEX
  8
LAYER_6
 10
170.6019
 20
-160.4575
  0
VERTEX
  8
LAYER_6
 10
170.6019
 20
-157.6175
 42
-0.4141950149
  0
VERTEX
  8
LAYER_6
 10
170.7019
 20
-157.5175
  0
VERTEX
  8
LAYER_6
 10
175.1595
 20
-157.5175
 42
-0.4141793436
  0
VERTEX
  8
LAYER_6
 10
175.5595
 20
-157.9175
  0
SEQEND
  0
POLYLINE
  8
LAYER_6
 40
0.0353
 41
0.0353
 66
1
 10
0
 20
0
 30
0
  0
VERTEX
  8
LAYER_6
 10
172.5995
 20
-157.6775
  0
VERTEX
  8
LAYER_6
 10
172.5995
 20
-160.3575
  0
SEQEND
  0
POLYLINE
  8
LAYER_6
 40
0.0353
 41
0.0353
 66
1
 10
0
 20
0
 30
0
  0
VERTEX
  8
LAYER_6
 10
172.5277
 20
-161.9375
  0
VERTEX
  8
LAYER_6
 10
172.3225
 20
-161.8375
  0
VERTEX
  8
LAYER_6
 10
172.0995
 20
-161.8375
  0
VERTEX
  8
LAYER_6
 10
171.8943
 20
-161.9375
  0
SEQEND
  0
POLYLINE
  8
LAYER_6
 40
0.0353
 41
0.0353
 66
1
 10
0
 20
0
 30
0
 70
1
  0
VERTEX
  8
LAYER_6
 10
172.0995
 20
-162.0375
  0
VERTEX
  8
LAYER_6
 10
172.3225
 20
-162.0375
  0
VERTEX
  8
LAYER_6
 10
172.5277
 20
-161.9375
  0
VERTEX
  8
LAYER_6
 10
171.8943
 20
-161.9375
  0
SEQEND
  0
POLYLINE
  8
LAYER_6
 40
0.0353
 41
0.0353
 66
1
 10
0
 20
0
 30
0
  0
VERTEX
  8
LAYER_6
 10
175.2246
 20
-161.9375
  0
VERTEX
  8
LAYER_6
 10
175.0195
 20
-161.8375
  0
VERTEX
  8
LAYER_6
 10
174.7964
 20
-161.8375
  0
VERTEX
  8
LAYER_6
 10
174.5912
 20
-161.9375
  0
SEQEND
  0
POLYLINE
  8
LAYER_6
 40
0.0353
 41
0.0353
 66
1
 10
0
 20
0
 30
0
 70
1
  0
VERTEX
  8
LAYER_6
 10
174.7964
 20
-162.0375
  0
VERTEX
  8
LAYER_6
 10
175.0195
 20
-162.0375
  0
VERTEX
  8
LAYER_6
 10
175.2246
 20
-161.9375
  0
VERTEX
  8
LAYER_6
 10
174.5912
 20
-161.9375
  0
SEQEND
  0
POLYLINE
  8
LAYER_6
 40
0.0353
 41
0.0353
 66
1
 10
0
 20
0
 30
0
  0
VERTEX
  8
LAYER_6
 10
176.2595
 20
-161.8375
  0
VERTEX
  8
LAYER_6
 10
176.0543
 20
-161.9375
  0
SEQEND
  0
POLYLINE
  8
LAYER_6
 40
0.0353
 41
0.0353
 66
1
 10
0
 20
0
 30
0
  0
VERTEX
  8
LAYER_6
 10
176.2595
 20
-161.9375
  0
VERTEX
  8
LAYER_6
 10
176.0543
 20
-161.9375
  0
VERTEX
  8
LAYER_6
 10
176.2595
 20
-162.0375
  0
SEQEND
  0
POLYLINE
  8
LAYER_6
 40
0.0353
 41
0.0353
 66
1
 10
0
 20
0
 30
0
  0
VERTEX
  8
LAYER_6
 10
170.8595
 20
-161.8375
  0
VERTEX
  8
LAYER_6
 10
171.0646
 20
-161.9375
  0
SEQEND
  0
POLYLINE
  8
LAYER_6
 40
0.0353
 41
0.0353
 66
1
 10
0
 20
0
 30
0
  0
VERTEX
  8
LAYER_6
 10
170.8595
 20
-161.9375
  0
VERTEX
  8
LAYER_6
 10
171.0646
 20
-161.9375
  0
VERTEX
  8
LAYER_6
 10
170.8595
 20
-162.0375
  0
SEQEND
  0
POLYLINE
  8
LAYER_6
 40
0.0353
 41
0.0353
 66
1
 10
0
 20
0
 30
0
  0
VERTEX
  8
LAYER_6
 10
175.5595
 20
-167.5375
  0
VERTEX
  8
LAYER_6
 10
177.1595
 20
-167.5375
 42
-0.4141793436
  0
VERTEX
  8
LAYER_6
 10
177.5595
 20
-167.9375
  0
VERTEX
  8
LAYER_6
 10
177.5595
 20
-175.1375
 42
-0.4141826989
  0
VERTEX
  8
LAYER_6
 10
177.1595
 20
-175.5375
  0
VERTEX
  8
LAYER_6
 10
175.5595
 20
-175.5375
  0
SEQEND
  0
POLYLINE
  8
LAYER_6
 40
0.0353
 41
0.0353
 66
1
 10
0
 20
0
 30
0
  0
VERTEX
  8
LAYER_6
 10
171.5595
 20
-167.5375
  0
VERTEX
  8
LAYER_6
 10
169.9595
 20
-167.5375
 42
0.4142444259
  0
VERTEX
  8
LAYER_6
 10
169.5595
 20
-167.9375
  0
VERTEX
  8
LAYER_6
 10
169.5595
 20
-175.1375
 42
0.4142477828
  0
VERTEX
  8
LAYER_6
 10
169.9595
 20
-175.5375
  0
VERTEX
  8
LAYER_6
 10
171.5595
 20
-175.5375
  0
SEQEND
  0
CIRCLE
  8
LAYER_6
 10
170.7095
 20
-168.6875
 40
0.7945
  0
POLYLINE
  8
LAYER_6
 40
0.0353
 41
0.0353
 66
1
 10
0
 20
0
 30
0
 70
1
  0
VERTEX
  8
LAYER_6
 10
170.9102
 20
-168.3399
  0
VERTEX
  8
LAYER_6
 10
170.5088
 20
-168.3399
  0
VERTEX
  8
LAYER_6
 10
170.3081
 20
-168.6875
  0
VERTEX
  8
LAYER_6
 10
170.5088
 20
-169.0351
  0
VERTEX
  8
LAYER_6
 10
170.9102
 20
-169.0351
  0
VERTEX
  8
LAYER_6
 10
171.1109
 20
-168.6875
  0
SEQEND
  0
CIRCLE
  8
LAYER_6
 10
176.4095
 20
-168.6875
 40
0.7945
  0
POLYLINE
  8
LAYER_6
 40
0.0353
 41
0.0353
 66
1
 10
0
 20
0
 30
0
 70
1
  0
VERTEX
  8
LAYER_6
 10
176.2088
 20
-168.3399
  0
VERTEX
  8
LAYER_6
 10
176.6102
 20
-168.3399
  0
VERTEX
  8
LAYER_6
 10
176.8109
 20
-168.6875
  0
VERTEX
  8
LAYER_6
 10
176.6102
 20
-169.0351
  0
VERTEX
  8
LAYER_6
 10
176.2088
 20
-169.0351
  0
VERTEX
  8
LAYER_6
 10
176.0081
 20
-168.6875
  0
SEQEND
  0
CIRCLE
  8
LAYER_6
 10
170.7095
 20
-174.3875
 40
0.7945
  0
POLYLINE
  8
LAYER_6
 40
0.0353
 41
0.0353
 66
1
 10
0
 20
0
 30
0
 70
1
  0
VERTEX
  8
LAYER_6
 10
170.9102
 20
-174.7351
  0
VERTEX
  8
LAYER_6
 10
170.5088
 20
-174.7351
  0
VERTEX
  8
LAYER_6
 10
170.3081
 20
-174.3875
  0
VERTEX
  8
LAYER_6
 10
170.5088
 20
-174.0399
  0
VERTEX
  8
LAYER_6
 10
170.9102
 20
-174.0399
  0
VERTEX
  8
LAYER_6
 10
171.1109
 20
-174.3875
  0
SEQEND
  0
CIRCLE
  8
LAYER_6
 10
176.4095
 20
-174.3875
 40
0.7945
  0
POLYLINE
  8
LAYER_6
 40
0.0353
 41
0.0353
 66
1
 10
0
 20
0
 30
0
 70
1
  0
VERTEX
  8
LAYER_6
 10
176.2088
 20
-174.7351
  0
VERTEX
  8
LAYER_6
 10
176.6102
 20
-174.7351
  0
VERTEX
  8
LAYER_6
 10
176.8109
 20
-174.3875
  0
VERTEX
  8
LAYER_6
 10
176.6102
 20
-174.0399
  0
VERTEX
  8
LAYER_6
 10
176.2088
 20
-174.0399
  0
VERTEX
  8
LAYER_6
 10
176.0081
 20
-174.3875
  0
SEQEND
  0
POLYLINE
  8
LAYER_6
 40
0.0353
 41
0.0353
 66
1
 10
0
 20
0
 30
0
  0
VERTEX
  8
LAYER_6
 10
175.5595
 20
-175.6374
  0
VERTEX
  8
LAYER_6
 10
175.5595
 20
-177.0375
  0
SEQEND
  0
POLYLINE
  8
LAYER_6
 40
0.0353
 41
0.0353
 66
1
 10
0
 20
0
 30
0
  0
VERTEX
  8
LAYER_6
 10
175.5595
 20
-175.7105
  0
VERTEX
  8
LAYER_6
 10
175.5595
 20
-172.9375
 42
0.4141793436
  0
VERTEX
  8
LAYER_6
 10
175.1595
 20
-172.5375
  0
VERTEX
  8
LAYER_6
 10
171.9595
 20
-172.5375
 42
0.4142444259
  0
VERTEX
  8
LAYER_6
 10
171.5595
 20
-172.9375
  0
VERTEX
  8
LAYER_6
 10
171.5595
 20
-175.7105
  0
VERTEX
  8
LAYER_6
 10
171.5595
 20
-177.0375
  0
SEQEND
  0
POLYLINE
  8
LAYER_6
 40
0.0353
 41
0.0353
 66
1
 10
0
 20
0
 30
0
  0
VERTEX
  8
LAYER_6
 10
171.5595
 20
-165.8375
  0
VERTEX
  8
LAYER_6
 10
171.5595
 20
-168.7375
 42
0.4142477828
  0
VERTEX
  8
LAYER_6
 10
171.9595
 20
-169.1375
  0
VERTEX
  8
LAYER_6
 10
175.1595
 20
-169.1375
 42
0.4141826987
  0
VERTEX
  8
LAYER_6
 10
175.5595
 20
-168.7375
  0
VERTEX
  8
LAYER_6
 10
175.5595
 20
-167.4103
  0
VERTEX
  8
LAYER_6
 10
175.5595
 20
-165.8375
  0
SEQEND
  0
POLYLINE
  8
LAYER_6
 40
0.0353
 41
0.0353
 66
1
 10
0
 20
0
 30
0
  0
VERTEX
  8
LAYER_6
 10
171.8595
 20
-169.1248
  0
VERTEX
  8
LAYER_6
 10
171.8595
 20
-172.5375
  0
SEQEND
  0
POLYLINE
  8
LAYER_6
 40
0.0353
 41
0.0353
 66
1
 10
0
 20
0
 30
0
  0
VERTEX
  8
LAYER_6
 10
175.2595
 20
-169.1248
  0
VERTEX
  8
LAYER_6
 10
175.2595
 20
-172.5375
  0
SEQEND
  0
POLYLINE
  8
LAYER_6
 40
0.0353
 41
0.0353
 66
1
 10
0
 20
0
 30
0
  0
VERTEX
  8
LAYER_6
 10
171.6195
 20
-177.0975
  0
VERTEX
  8
LAYER_6
 10
171.5595
 20
-177.0375
  0
VERTEX
  8
LAYER_6
 10
175.5595
 20
-177.0375
  0
VERTEX
  8
LAYER_6
 10
175.4995
 20
-177.0975
  0
SEQEND
  0
POLYLINE
  8
LAYER_6
 40
0.0353
 41
0.0353
 66
1
 10
0
 20
0
 30
0
 70
1
  0
VERTEX
  8
LAYER_6
 10
175.4595
 20
-165.7375
  0
VERTEX
  8
LAYER_6
 10
175.5595
 20
-165.8375
  0
VERTEX
  8
LAYER_6
 10
171.5595
 20
-165.8375
  0
VERTEX
  8
LAYER_6
 10
171.6595
 20
-165.7375
  0
SEQEND
  0
POLYLINE
  8
LAYER_6
  6
AIGENLINE001
 40
0.0353
 41
0.0353
 66
1
 10
0
 20
0
 30
0
 70
128
  0
VERTEX
  8
LAYER_6
 10
175.015
 20
-168.6875
  0
VERTEX
  8
LAYER_6
 10
177.8039
 20
-168.6875
  0
SEQEND
  0
POLYLINE
  8
LAYER_6
  6
AIGENLINE001
 40
0.0353
 41
0.0353
 66
1
 10
0
 20
0
 30
0
 70
128
  0
VERTEX
  8
LAYER_6
 10
176.4095
 20
-167.293
  0
VERTEX
  8
LAYER_6
 10
176.4095
 20
-170.082
  0
SEQEND
  0
POLYLINE
  8
LAYER_6
  6
AIGENLINE001
 40
0.0353
 41
0.0353
 66
1
 10
0
 20
0
 30
0
 70
128
  0
VERTEX
  8
LAYER_6
 10
175.015
 20
-174.3875
  0
VERTEX
  8
LAYER_6
 10
177.8039
 20
-174.3875
  0
SEQEND
  0
POLYLINE
  8
LAYER_6
  6
AIGENLINE001
 40
0.0353
 41
0.0353
 66
1
 10
0
 20
0
 30
0
 70
128
  0
VERTEX
  8
LAYER_6
 10
176.4095
 20
-172.993
  0
VERTEX
  8
LAYER_6
 10
176.4095
 20
-175.782
  0
SEQEND
  0
POLYLINE
  8
LAYER_6
  6
AIGENLINE001
 40
0.0353
 41
0.0353
 66
1
 10
0
 20
0
 30
0
 70
128
  0
VERTEX
  8
LAYER_6
 10
169.315
 20
-174.3875
  0
VERTEX
  8
LAYER_6
 10
172.1039
 20
-174.3875
  0
SEQEND
  0
POLYLINE
  8
LAYER_6
  6
AIGENLINE001
 40
0.0353
 41
0.0353
 66
1
 10
0
 20
0
 30
0
 70
128
  0
VERTEX
  8
LAYER_6
 10
170.7095
 20
-172.993
  0
VERTEX
  8
LAYER_6
 10
170.7095
 20
-175.782
  0
SEQEND
  0
POLYLINE
  8
LAYER_6
  6
AIGENLINE001
 40
0.0353
 41
0.0353
 66
1
 10
0
 20
0
 30
0
 70
128
  0
VERTEX
  8
LAYER_6
 10
169.315
 20
-168.6875
  0
VERTEX
  8
LAYER_6
 10
172.1039
 20
-168.6875
  0
SEQEND
  0
POLYLINE
  8
LAYER_6
  6
AIGENLINE001
 40
0.0353
 41
0.0353
 66
1
 10
0
 20
0
 30
0
 70
128
  0
VERTEX
  8
LAYER_6
 10
170.7095
 20
-167.293
  0
VERTEX
  8
LAYER_6
 10
170.7095
 20
-170.082
  0
SEQEND
  0
POLYLINE
  8
LAYER_6
 40
0.0353
 41
0.0353
 66
1
 10
0
 20
0
 30
0
  0
VERTEX
  8
LAYER_6
 10
178.8395
 20
-176.3371
  0
VERTEX
  8
LAYER_6
 10
178.8575
 20
-176.1375
  0
VERTEX
  8
LAYER_6
 10
178.8394
 20
-175.9375
  0
SEQEND
  0
POLYLINE
  8
LAYER_6
 40
0.0353
 41
0.0353
 66
1
 10
0
 20
0
 30
0
  0
VERTEX
  8
LAYER_6
 10
175.5595
 20
-176.3371
  0
VERTEX
  8
LAYER_6
 10
178.8595
 20
-176.3371
  0
VERTEX
  8
LAYER_6
 10
178.8595
 20
-176.4911
 42
-0.4089208826
  0
VERTEX
  8
LAYER_6
 10
178.559
 20
-176.7971
  0
VERTEX
  8
LAYER_6
 10
175.5595
 20
-176.7971
  0
SEQEND
  0
POLYLINE
  8
LAYER_6
 40
0.0353
 41
0.0353
 66
1
 10
0
 20
0
 30
0
  0
VERTEX
  8
LAYER_6
 10
178.8095
 20
-176.3371
  0
VERTEX
  8
LAYER_6
 10
178.7103
 20
-176.3371
  0
SEQEND
  0
POLYLINE
  8
LAYER_6
 40
0.0353
 41
0.0353
 66
1
 10
0
 20
0
 30
0
  0
VERTEX
  8
LAYER_6
 10
177.7617
 20
-175.9375
  0
VERTEX
  8
LAYER_6
 10
178.8814
 20
-175.9375
  0
VERTEX
  8
LAYER_6
 10
178.8814
 20
-175.7774
 42
0.414204376
  0
VERTEX
  8
LAYER_6
 10
178.5814
 20
-175.4774
  0
VERTEX
  8
LAYER_6
 10
177.7617
 20
-175.4774
  0
SEQEND
  0
POLYLINE
  8
LAYER_6
 40
0.0353
 41
0.0353
 66
1
 10
0
 20
0
 30
0
  0
VERTEX
  8
LAYER_6
 10
175.5595
 20
-175.7375
  0
VERTEX
  8
LAYER_6
 10
177.5617
 20
-175.7375
  0
VERTEX
  8
LAYER_6
 10
177.5617
 20
-175.8375
 42
0.4141836528
  0
VERTEX
  8
LAYER_6
 10
177.6617
 20
-175.9375
 42
0.4142568967
  0
VERTEX
  8
LAYER_6
 10
177.7617
 20
-175.8375
  0
SEQEND
  0
POLYLINE
  8
LAYER_6
 40
0.0353
 41
0.0353
 66
1
 10
0
 20
0
 30
0
  0
VERTEX
  8
LAYER_6
 10
176.5577
 20
-166.3371
 42
-0.4142158162
  0
VERTEX
  8
LAYER_6
 10
178.5577
 20
-168.3371
  0
VERTEX
  8
LAYER_6
 10
178.5577
 20
-175.4774
  0
SEQEND
  0
POLYLINE
  8
LAYER_6
 40
0.0353
 41
0.0353
 66
1
 10
0
 20
0
 30
0
  0
VERTEX
  8
LAYER_6
 10
168.5612
 20
-175.4774
  0
VERTEX
  8
LAYER_6
 10
168.5612
 20
-168.3371
 42
-0.4142141883
  0
VERTEX
  8
LAYER_6
 10
170.5612
 20
-166.3371
  0
SEQEND
  0
POLYLINE
  8
LAYER_6
 40
0.0353
 41
0.0353
 66
1
 10
0
 20
0
 30
0
  0
VERTEX
  8
LAYER_6
 10
175.5595
 20
-167.3375
  0
VERTEX
  8
LAYER_6
 10
177.3617
 20
-167.3375
 42
-0.4142210393
  0
VERTEX
  8
LAYER_6
 10
177.7617
 20
-167.7375
  0
VERTEX
  8
LAYER_6
 10
177.7617
 20
-176.1375
 42
-0.4142570761
  0
VERTEX
  8
LAYER_6
 10
177.6617
 20
-176.2375
  0
VERTEX
  8
LAYER_6
 10
175.5595
 20
-176.2375
  0
SEQEND
  0
POLYLINE
  8
LAYER_6
 40
0.0353
 41
0.0353
 66
1
 10
0
 20
0
 30
0
  0
VERTEX
  8
LAYER_6
 10
169.3572
 20
-175.8375
 42
0.4142243342
  0
VERTEX
  8
LAYER_6
 10
169.4572
 20
-175.9375
 42
0.4142162146
  0
VERTEX
  8
LAYER_6
 10
169.5572
 20
-175.8375
  0
VERTEX
  8
LAYER_6
 10
169.5572
 20
-175.7375
  0
VERTEX
  8
LAYER_6
 10
171.5595
 20
-175.7375
  0
SEQEND
  0
POLYLINE
  8
LAYER_6
 40
0.0353
 41
0.0353
 66
1
 10
0
 20
0
 30
0
  0
VERTEX
  8
LAYER_6
 10
171.5595
 20
-176.2375
  0
VERTEX
  8
LAYER_6
 10
169.4572
 20
-176.2375
 42
-0.4142243342
  0
VERTEX
  8
LAYER_6
 10
169.3572
 20
-176.1375
  0
VERTEX
  8
LAYER_6
 10
169.3572
 20
-167.7375
 42
-0.4142128994
  0
VERTEX
  8
LAYER_6
 10
169.7572
 20
-167.3375
  0
VERTEX
  8
LAYER_6
 10
171.5595
 20
-167.3375
  0
SEQEND
  0
POLYLINE
  8
LAYER_6
 40
0.0353
 41
0.0353
 66
1
 10
0
 20
0
 30
0
  0
VERTEX
  8
LAYER_6
 10
168.2795
 20
-175.9375
  0
VERTEX
  8
LAYER_6
 10
168.2614
 20
-176.1375
  0
VERTEX
  8
LAYER_6
 10
168.2795
 20
-176.3371
  0
SEQEND
  0
POLYLINE
  8
LAYER_6
 40
0.0353
 41
0.0353
 66
1
 10
0
 20
0
 30
0
  0
VERTEX
  8
LAYER_6
 10
170.5052
 20
-166.3371
  0
VERTEX
  8
LAYER_6
 10
171.5595
 20
-166.3371
  0
SEQEND
  0
POLYLINE
  8
LAYER_6
 40
0.0353
 41
0.0353
 66
1
 10
0
 20
0
 30
0
  0
VERTEX
  8
LAYER_6
 10
176.6137
 20
-166.3371
  0
VERTEX
  8
LAYER_6
 10
175.5595
 20
-166.3371
  0
SEQEND
  0
POLYLINE
  8
LAYER_6
 40
0.0353
 41
0.0353
 66
1
 10
0
 20
0
 30
0
  0
VERTEX
  8
LAYER_6
 10
168.556
 20
-176.7971
  0
VERTEX
  8
LAYER_6
 10
168.8437
 20
-181.5732
 42
0.3966820996
  0
VERTEX
  8
LAYER_6
 10
169.4426
 20
-182.1371
  0
VERTEX
  8
LAYER_6
 10
171.1595
 20
-182.1371
  0
SEQEND
  0
POLYLINE
  8
LAYER_6
 40
0.0353
 41
0.0353
 66
1
 10
0
 20
0
 30
0
  0
VERTEX
  8
LAYER_6
 10
178.5629
 20
-176.7971
  0
VERTEX
  8
LAYER_6
 10
178.2752
 20
-181.5732
 42
-0.3966872296
  0
VERTEX
  8
LAYER_6
 10
177.6763
 20
-182.1371
  0
VERTEX
  8
LAYER_6
 10
175.9595
 20
-182.1371
  0
SEQEND
  0
POLYLINE
  8
LAYER_6
 40
0.0353
 41
0.0353
 66
1
 10
0
 20
0
 30
0
  0
VERTEX
  8
LAYER_6
 10
176.8595
 20
-183.0247
  0
VERTEX
  8
LAYER_6
 10
176.8595
 20
-183.5996
  0
SEQEND
  0
POLYLINE
  8
LAYER_6
 40
0.0353
 41
0.0353
 66
1
 10
0
 20
0
 30
0
  0
VERTEX
  8
LAYER_6
 10
169.594
 20
-182.1371
  0
VERTEX
  8
LAYER_6
 10
169.574
 20
-182.2371
  0
VERTEX
  8
LAYER_6
 10
169.594
 20
-182.3371
  0
SEQEND
  0
POLYLINE
  8
LAYER_6
 40
0.0353
 41
0.0353
 66
1
 10
0
 20
0
 30
0
  0
VERTEX
  8
LAYER_6
 10
169.9595
 20
-182.7365
 42
-0.4141808247
  0
VERTEX
  8
LAYER_6
 10
170.2595
 20
-183.0365
  0
VERTEX
  8
LAYER_6
 10
170.2595
 20
-183.5975
  0
SEQEND
  0
POLYLINE
  8
LAYER_6
 40
0.0353
 41
0.0353
 66
1
 10
0
 20
0
 30
0
  0
VERTEX
  8
LAYER_6
 10
177.1595
 20
-182.7365
 42
0.4142674142
  0
VERTEX
  8
LAYER_6
 10
176.8595
 20
-183.0365
  0
SEQEND
  0
POLYLINE
  8
LAYER_6
 40
0.0353
 41
0.0353
 66
1
 10
0
 20
0
 30
0
  0
VERTEX
  8
LAYER_6
 10
177.5249
 20
-182.3371
 42
0.0987365713
  0
VERTEX
  8
LAYER_6
 10
177.5449
 20
-182.2371
  0
VERTEX
  8
LAYER_6
 10
177.5249
 20
-182.1371
  0
SEQEND
  0
POLYLINE
  8
LAYER_6
 40
0.0353
 41
0.0353
 66
1
 10
0
 20
0
 30
0
  0
VERTEX
  8
LAYER_6
 10
175.9595
 20
-182.3371
  0
VERTEX
  8
LAYER_6
 10
177.5414
 20
-182.3371
  0
VERTEX
  8
LAYER_6
 10
177.5414
 20
-182.4365
 42
-0.4141987679
  0
VERTEX
  8
LAYER_6
 10
177.2414
 20
-182.7365
  0
VERTEX
  8
LAYER_6
 10
175.9595
 20
-182.7365
  0
SEQEND
  0
POLYLINE
  8
LAYER_6
 40
0.0353
 41
0.0353
 66
1
 10
0
 20
0
 30
0
  0
VERTEX
  8
LAYER_6
 10
171.1595
 20
-182.3371
  0
VERTEX
  8
LAYER_6
 10
169.5775
 20
-182.3371
  0
VERTEX
  8
LAYER_6
 10
169.5775
 20
-182.4365
 42
0.4141875245
  0
VERTEX
  8
LAYER_6
 10
169.8775
 20
-182.7365
  0
VERTEX
  8
LAYER_6
 10
171.1595
 20
-182.7365
  0
SEQEND
  0
POLYLINE
  8
LAYER_6
 40
0.0353
 41
0.0353
 66
1
 10
0
 20
0
 30
0
  0
VERTEX
  8
LAYER_6
 10
175.655
 20
-165.5375
  0
VERTEX
  8
LAYER_6
 10
175.455
 20
-165.7375
  0
SEQEND
  0
POLYLINE
  8
LAYER_6
 40
0.0353
 41
0.0353
 66
1
 10
0
 20
0
 30
0
  0
VERTEX
  8
LAYER_6
 10
175.1595
 20
-165.7375
  0
VERTEX
  8
LAYER_6
 10
175.457
 20
-165.7375
  0
VERTEX
  8
LAYER_6
 10
173.5595
 20
-165.7375
  0
VERTEX
  8
LAYER_6
 10
171.6619
 20
-165.7375
  0
VERTEX
  8
LAYER_6
 10
171.9595
 20
-165.7375
  0
SEQEND
  0
POLYLINE
  8
LAYER_6
 40
0.0353
 41
0.0353
 66
1
 10
0
 20
0
 30
0
  0
VERTEX
  8
LAYER_6
 10
175.655
 20
-165.14
  0
VERTEX
  8
LAYER_6
 10
175.4226
 20
-164.7375
  0
VERTEX
  8
LAYER_6
 10
175.4226
 20
-164.3375
  0
SEQEND
  0
POLYLINE
  8
LAYER_6
 40
0.0353
 41
0.0353
 66
1
 10
0
 20
0
 30
0
  0
VERTEX
  8
LAYER_6
 10
171.464
 20
-165.5375
  0
VERTEX
  8
LAYER_6
 10
171.664
 20
-165.7375
  0
SEQEND
  0
POLYLINE
  8
LAYER_6
 40
0.0353
 41
0.0353
 66
1
 10
0
 20
0
 30
0
  0
VERTEX
  8
LAYER_6
 10
171.464
 20
-165.14
  0
VERTEX
  8
LAYER_6
 10
171.6964
 20
-164.7375
  0
VERTEX
  8
LAYER_6
 10
171.6964
 20
-164.3375
  0
SEQEND
  0
POLYLINE
  8
LAYER_6
 40
0.0353
 41
0.0353
 66
1
 10
0
 20
0
 30
0
  0
VERTEX
  8
LAYER_6
 10
171.464
 20
-164.7375
  0
VERTEX
  8
LAYER_6
 10
173.5595
 20
-164.7375
  0
VERTEX
  8
LAYER_6
 10
175.655
 20
-164.7375
  0
SEQEND
  0
POLYLINE
  8
LAYER_6
 40
0.0353
 41
0.0353
 66
1
 10
0
 20
0
 30
0
  0
VERTEX
  8
LAYER_6
 10
173.5595
 20
-157.6175
  0
VERTEX
  8
LAYER_6
 10
173.5595
 20
-160.4575
  0
SEQEND
  0
POLYLINE
  8
LAYER_6
 40
0.0353
 41
0.0353
 66
1
 10
0
 20
0
 30
0
 70
1
  0
VERTEX
  8
LAYER_6
 10
175.655
 20
-165.5375
  0
VERTEX
  8
LAYER_6
 10
171.464
 20
-165.5375
  0
VERTEX
  8
LAYER_6
 10
171.464
 20
-164.3375
  0
VERTEX
  8
LAYER_6
 10
175.655
 20
-164.3375
  0
SEQEND
  0
POLYLINE
  8
LAYER_6
 40
0.0353
 41
0.0353
 66
1
 10
0
 20
0
 30
0
  0
VERTEX
  8
LAYER_6
 10
171.5595
 20
-176.3371
  0
VERTEX
  8
LAYER_6
 10
168.2595
 20
-176.3371
  0
VERTEX
  8
LAYER_6
 10
168.2595
 20
-176.4911
 42
0.4089102862
  0
VERTEX
  8
LAYER_6
 10
168.5599
 20
-176.7971
  0
VERTEX
  8
LAYER_6
 10
171.5595
 20
-176.7971
  0
SEQEND
  0
POLYLINE
  8
LAYER_6
 40
0.0353
 41
0.0353
 66
1
 10
0
 20
0
 30
0
  0
VERTEX
  8
LAYER_6
 10
169.3572
 20
-175.9375
  0
VERTEX
  8
LAYER_6
 10
168.2375
 20
-175.9375
  0
VERTEX
  8
LAYER_6
 10
168.2375
 20
-175.7774
 42
-0.4141935228
  0
VERTEX
  8
LAYER_6
 10
168.5375
 20
-175.4774
  0
VERTEX
  8
LAYER_6
 10
169.3572
 20
-175.4774
  0
SEQEND
  0
POLYLINE
  8
LAYER_6
 40
0.0353
 41
0.0353
 66
1
 10
0
 20
0
 30
0
  0
VERTEX
  8
LAYER_6
 10
86.3649
 20
-165.7375
  0
VERTEX
  8
LAYER_6
 10
86.4649
 20
-165.8375
  0
SEQEND
  0
POLYLINE
  8
LAYER_6
 40
0.0353
 41
0.0353
 66
1
 10
0
 20
0
 30
0
  0
VERTEX
  8
LAYER_6
 10
85.4649
 20
-172.5375
 42
0.4142297255
  0
VERTEX
  8
LAYER_6
 10
86.1649
 20
-171.8375
  0
VERTEX
  8
LAYER_6
 10
86.1649
 20
-169.1248
  0
SEQEND
  0
POLYLINE
  8
LAYER_6
 40
0.0353
 41
0.0353
 66
1
 10
0
 20
0
 30
0
  0
VERTEX
  8
LAYER_6
 10
81.3649
 20
-175.5375
 42
-0.4143132763
  0
VERTEX
  8
LAYER_6
 10
81.4649
 20
-175.6375
  0
VERTEX
  8
LAYER_6
 10
81.4649
 20
-177.0375
  0
SEQEND
  0
POLYLINE
  8
LAYER_6
 40
0.0353
 41
0.0353
 66
1
 10
0
 20
0
 30
0
  0
VERTEX
  8
LAYER_6
 10
84.4649
 20
-167.5375
  0
VERTEX
  8
LAYER_6
 10
80.1649
 20
-167.5375
 42
0.4141004327
  0
VERTEX
  8
LAYER_6
 10
80.0649
 20
-167.6375
  0
SEQEND
  0
POLYLINE
  8
LAYER_6
 40
0.0353
 41
0.0353
 66
1
 10
0
 20
0
 30
0
  0
VERTEX
  8
LAYER_6
 10
80.0649
 20
-167.5351
  0
VERTEX
  8
LAYER_6
 10
80.0649
 20
-167.7875
  0
SEQEND
  0
POLYLINE
  8
LAYER_6
 40
0.0353
 41
0.0353
 66
1
 10
0
 20
0
 30
0
  0
VERTEX
  8
LAYER_6
 10
80.0649
 20
-175.5351
  0
VERTEX
  8
LAYER_6
 10
80.0649
 20
-175.2875
  0
VERTEX
  8
LAYER_6
 10
80.0649
 20
-175.7376
  0
SEQEND
  0
POLYLINE
  8
LAYER_6
 40
0.0353
 41
0.0353
 66
1
 10
0
 20
0
 30
0
  0
VERTEX
  8
LAYER_6
 10
80.0649
 20
-175.4375
 42
0.4141138458
  0
VERTEX
  8
LAYER_6
 10
80.1649
 20
-175.5375
  0
VERTEX
  8
LAYER_6
 10
83.4649
 20
-175.5375
  0
SEQEND
  0
POLYLINE
  8
LAYER_6
  6
AIGENLINE001
 40
0.0353
 41
0.0353
 66
1
 10
0
 20
0
 30
0
 70
128
  0
VERTEX
  8
LAYER_6
 10
60.3337
 20
-171.5375
  0
VERTEX
  8
LAYER_6
 10
84.8116
 20
-171.5375
  0
SEQEND
  0
POLYLINE
  8
LAYER_6
 40
0.0353
 41
0.0353
 66
1
 10
0
 20
0
 30
0
  0
VERTEX
  8
LAYER_6
 10
60.183
 20
-175.9371
  0
VERTEX
  8
LAYER_6
 10
60.1649
 20
-176.1371
  0
VERTEX
  8
LAYER_6
 10
60.183
 20
-176.3371
  0
SEQEND
  0
POLYLINE
  8
LAYER_6
 40
0.0353
 41
0.0353
 66
1
 10
0
 20
0
 30
0
  0
VERTEX
  8
LAYER_6
 10
75.2468
 20
-176.3371
  0
VERTEX
  8
LAYER_6
 10
75.2649
 20
-176.1371
  0
VERTEX
  8
LAYER_6
 10
75.2468
 20
-175.9371
  0
SEQEND
  0
POLYLINE
  8
LAYER_6
 40
0.0353
 41
0.0353
 66
1
 10
0
 20
0
 30
0
  0
VERTEX
  8
LAYER_6
 10
68.2947
 20
-166.3371
 42
0.115258932
  0
VERTEX
  8
LAYER_6
 10
65.247
 20
-167.0523
 42
0.05257715848
  0
VERTEX
  8
LAYER_6
 10
63.917
 20
-167.8913
 42
0.04901790357
  0
VERTEX
  8
LAYER_6
 10
62.7582
 20
-169.0026
 42
0.04626990359
  0
VERTEX
  8
LAYER_6
 10
61.8021
 20
-170.3495
 42
0.04458195481
  0
VERTEX
  8
LAYER_6
 10
61.0802
 20
-171.8953
 42
0.04384236
  0
VERTEX
  8
LAYER_6
 10
60.624
 20
-173.6036
 42
0.04372616597
  0
VERTEX
  8
LAYER_6
 10
60.4649
 20
-175.4376
  0
VERTEX
  8
LAYER_6
 10
60.465
 20
-175.4771
  0
SEQEND
  0
POLYLINE
  8
LAYER_6
 40
0.0353
 41
0.0353
 66
1
 10
0
 20
0
 30
0
 70
1
  0
VERTEX
  8
LAYER_6
 10
60.4649
 20
-175.4774
  0
VERTEX
  8
LAYER_6
 10
74.9649
 20
-175.4774
 42
-0.4142477773
  0
VERTEX
  8
LAYER_6
 10
75.2649
 20
-175.7774
  0
VERTEX
  8
LAYER_6
 10
75.2649
 20
-175.9374
  0
VERTEX
  8
LAYER_6
 10
60.1649
 20
-175.9371
  0
VERTEX
  8
LAYER_6
 10
60.1649
 20
-175.7774
 42
-0.4141807316
  0
SEQEND
  0
POLYLINE
  8
LAYER_6
 40
0.0353
 41
0.0353
 66
1
 10
0
 20
0
 30
0
  0
VERTEX
  8
LAYER_6
 10
74.9453
 20
-167.8836
  0
VERTEX
  8
LAYER_6
 10
74.9453
 20
-175.025
  0
SEQEND
  0
POLYLINE
  8
LAYER_6
 40
0.0353
 41
0.0353
 66
1
 10
0
 20
0
 30
0
  0
VERTEX
  8
LAYER_6
 10
75.2649
 20
-175.7375
  0
VERTEX
  8
LAYER_6
 10
75.3649
 20
-175.7375
  0
VERTEX
  8
LAYER_6
 10
75.3649
 20
-176.1375
 42
0.4141138458
  0
VERTEX
  8
LAYER_6
 10
75.4649
 20
-176.2375
 42
0.414326711
  0
VERTEX
  8
LAYER_6
 10
75.5649
 20
-176.1375
  0
VERTEX
  8
LAYER_6
 10
75.5649
 20
-175.9375
  0
VERTEX
  8
LAYER_6
 10
79.8649
 20
-175.9375
 42
0.4142701344
  0
VERTEX
  8
LAYER_6
 10
80.0649
 20
-175.7375
  0
VERTEX
  8
LAYER_6
 10
80.0649
 20
-175.4375
  0
VERTEX
  8
LAYER_6
 10
80.0649
 20
-171.5375
  0
VERTEX
  8
LAYER_6
 10
80.0649
 20
-167.3374
  0
VERTEX
  8
LAYER_6
 10
75.6744
 20
-167.3375
 42
-0.2680222129
  0
VERTEX
  8
LAYER_6
 10
74.8082
 20
-166.8373
 42
0.2680045812
  0
VERTEX
  8
LAYER_6
 10
73.9421
 20
-166.3371
  0
VERTEX
  8
LAYER_6
 10
68.3675
 20
-166.3371
  0
VERTEX
  8
LAYER_6
 10
68.2947
 20
-166.3371
  0
SEQEND
  0
POLYLINE
  8
LAYER_6
 40
0.0353
 41
0.0353
 66
1
 10
0
 20
0
 30
0
  0
VERTEX
  8
LAYER_6
 10
68.3469
 20
-182.3368
  0
VERTEX
  8
LAYER_6
 10
68.364
 20
-182.2369
  0
VERTEX
  8
LAYER_6
 10
68.3469
 20
-182.1371
  0
SEQEND
  0
POLYLINE
  8
LAYER_6
 40
0.0353
 41
0.0353
 66
1
 10
0
 20
0
 30
0
  0
VERTEX
  8
LAYER_6
 10
60.583
 20
-182.1371
  0
VERTEX
  8
LAYER_6
 10
60.5659
 20
-182.2369
  0
VERTEX
  8
LAYER_6
 10
60.583
 20
-182.3368
  0
SEQEND
  0
POLYLINE
  8
LAYER_6
 40
0.0353
 41
0.0353
 66
1
 10
0
 20
0
 30
0
  0
VERTEX
  8
LAYER_6
 10
60.8653
 20
-182.7365
  0
VERTEX
  8
LAYER_6
 10
68.0646
 20
-182.7365
  0
SEQEND
  0
POLYLINE
  8
LAYER_6
 40
0.0353
 41
0.0353
 66
1
 10
0
 20
0
 30
0
 70
1
  0
VERTEX
  8
LAYER_6
 10
68.0632
 20
-182.7365
 42
0.4125363642
  0
VERTEX
  8
LAYER_6
 10
67.7649
 20
-183.0365
  0
VERTEX
  8
LAYER_6
 10
67.7649
 20
-186.5371
 42
-0.4142332979
  0
VERTEX
  8
LAYER_6
 10
67.1649
 20
-187.1371
  0
VERTEX
  8
LAYER_6
 10
61.7649
 20
-187.1371
 42
-0.414197822
  0
VERTEX
  8
LAYER_6
 10
61.1649
 20
-186.5371
  0
VERTEX
  8
LAYER_6
 10
61.1649
 20
-183.0365
 42
0.4126072392
  0
VERTEX
  8
LAYER_6
 10
60.8666
 20
-182.7365
  0
VERTEX
  8
LAYER_6
 10
60.8649
 20
-182.7365
 42
-0.414160998
  0
VERTEX
  8
LAYER_6
 10
60.5649
 20
-182.4365
  0
VERTEX
  8
LAYER_6
 10
60.5649
 20
-182.3371
  0
VERTEX
  8
LAYER_6
 10
68.3649
 20
-182.3371
  0
VERTEX
  8
LAYER_6
 10
68.3649
 20
-182.4365
 42
-0.4142319406
  0
VERTEX
  8
LAYER_6
 10
68.0649
 20
-182.7365
  0
SEQEND
  0
POLYLINE
  8
LAYER_6
 40
0.0353
 41
0.0353
 66
1
 10
0
 20
0
 30
0
  0
VERTEX
  8
LAYER_6
 10
60.4654
 20
-176.7971
  0
VERTEX
  8
LAYER_6
 10
60.4654
 20
-182.1371
  0
VERTEX
  8
LAYER_6
 10
70.6531
 20
-182.1371
 42
0.4142138635
  0
VERTEX
  8
LAYER_6
 10
71.6531
 20
-181.1371
  0
VERTEX
  8
LAYER_6
 10
71.6531
 20
-179.9971
 42
-0.4142134683
  0
VERTEX
  8
LAYER_6
 10
74.8531
 20
-176.7971
  0
SEQEND
  0
POLYLINE
  8
LAYER_6
 40
0.0353
 41
0.0353
 66
1
 10
0
 20
0
 30
0
 70
1
  0
VERTEX
  8
LAYER_6
 10
74.9649
 20
-176.7971
  0
VERTEX
  8
LAYER_6
 10
60.4649
 20
-176.7971
 42
-0.414182081
  0
VERTEX
  8
LAYER_6
 10
60.1649
 20
-176.4971
  0
VERTEX
  8
LAYER_6
 10
60.1649
 20
-176.3371
  0
VERTEX
  8
LAYER_6
 10
75.2649
 20
-176.3371
  0
VERTEX
  8
LAYER_6
 10
75.2649
 20
-176.4971
 42
-0.4142530343
  0
SEQEND
  0
POLYLINE
  8
LAYER_6
  6
AIGENLINE001
 40
0.0353
 41
0.0353
 66
1
 10
0
 20
0
 30
0
 70
128
  0
VERTEX
  8
LAYER_6
 10
64.4649
 20
-173.2375
  0
VERTEX
  8
LAYER_6
 10
64.4649
 20
-187.6252
  0
SEQEND
  0
POLYLINE
  8
LAYER_6
 40
0.0353
 41
0.0353
 66
1
 10
0
 20
0
 30
0
  0
VERTEX
  8
LAYER_6
 10
69.7849
 20
-192.1371
  0
VERTEX
  8
LAYER_6
 10
69.7849
 20
-182.1371
  0
SEQEND
  0
POLYLINE
  8
LAYER_6
 40
0.0353
 41
0.0353
 66
1
 10
0
 20
0
 30
0
  0
VERTEX
  8
LAYER_6
 10
68.7449
 20
-192.1371
  0
VERTEX
  8
LAYER_6
 10
68.7449
 20
-182.1371
  0
SEQEND
  0
POLYLINE
  8
LAYER_6
 40
0.0353
 41
0.0353
 66
1
 10
0
 20
0
 30
0
  0
VERTEX
  8
LAYER_6
 10
86.5604
 20
-165.5375
  0
VERTEX
  8
LAYER_6
 10
86.3604
 20
-165.7375
  0
SEQEND
  0
POLYLINE
  8
LAYER_6
 40
0.0353
 41
0.0353
 66
1
 10
0
 20
0
 30
0
  0
VERTEX
  8
LAYER_6
 10
86.0649
 20
-165.7375
  0
VERTEX
  8
LAYER_6
 10
86.3625
 20
-165.7375
  0
VERTEX
  8
LAYER_6
 10
84.4649
 20
-165.7375
  0
VERTEX
  8
LAYER_6
 10
82.5674
 20
-165.7375
  0
VERTEX
  8
LAYER_6
 10
82.8649
 20
-165.7375
  0
SEQEND
  0
POLYLINE
  8
LAYER_6
 40
0.0353
 41
0.0353
 66
1
 10
0
 20
0
 30
0
  0
VERTEX
  8
LAYER_6
 10
86.5604
 20
-165.14
  0
VERTEX
  8
LAYER_6
 10
86.328
 20
-164.7375
  0
VERTEX
  8
LAYER_6
 10
86.328
 20
-164.3375
  0
SEQEND
  0
POLYLINE
  8
LAYER_6
 40
0.0353
 41
0.0353
 66
1
 10
0
 20
0
 30
0
  0
VERTEX
  8
LAYER_6
 10
82.3694
 20
-165.5375
  0
VERTEX
  8
LAYER_6
 10
82.5694
 20
-165.7375
  0
SEQEND
  0
POLYLINE
  8
LAYER_6
 40
0.0353
 41
0.0353
 66
1
 10
0
 20
0
 30
0
  0
VERTEX
  8
LAYER_6
 10
82.3694
 20
-165.14
  0
VERTEX
  8
LAYER_6
 10
82.6018
 20
-164.7375
  0
VERTEX
  8
LAYER_6
 10
82.6018
 20
-164.3375
  0
SEQEND
  0
POLYLINE
  8
LAYER_6
 40
0.0353
 41
0.0353
 66
1
 10
0
 20
0
 30
0
  0
VERTEX
  8
LAYER_6
 10
82.3694
 20
-164.7375
  0
VERTEX
  8
LAYER_6
 10
84.4649
 20
-164.7375
  0
VERTEX
  8
LAYER_6
 10
86.5604
 20
-164.7375
  0
SEQEND
  0
POLYLINE
  8
LAYER_6
 40
0.0353
 41
0.0353
 66
1
 10
0
 20
0
 30
0
  0
VERTEX
  8
LAYER_6
 10
82.3649
 20
-175.5375
 42
0.414326711
  0
VERTEX
  8
LAYER_6
 10
82.4649
 20
-175.4375
  0
VERTEX
  8
LAYER_6
 10
82.4649
 20
-167.6375
 42
0.4143132763
  0
VERTEX
  8
LAYER_6
 10
82.3649
 20
-167.5375
 42
0.4143267107
  0
VERTEX
  8
LAYER_6
 10
82.4649
 20
-167.4375
  0
VERTEX
  8
LAYER_6
 10
82.4649
 20
-165.8375
  0
SEQEND
  0
POLYLINE
  8
LAYER_6
 40
0.0353
 41
0.0353
 66
1
 10
0
 20
0
 30
0
  0
VERTEX
  8
LAYER_6
 10
82.4649
 20
-172.5375
  0
VERTEX
  8
LAYER_6
 10
85.4649
 20
-172.5375
  0
VERTEX
  8
LAYER_6
 10
85.4649
 20
-177.0375
  0
SEQEND
  0
POLYLINE
  8
LAYER_6
 40
0.0353
 41
0.0353
 66
1
 10
0
 20
0
 30
0
  0
VERTEX
  8
LAYER_6
 10
82.4649
 20
-169.1375
  0
VERTEX
  8
LAYER_6
 10
86.0649
 20
-169.1375
 42
0.4142418477
  0
VERTEX
  8
LAYER_6
 10
86.4649
 20
-168.7375
  0
VERTEX
  8
LAYER_6
 10
86.4649
 20
-165.8375
  0
VERTEX
  8
LAYER_6
 10
84.4649
 20
-165.8375
  0
VERTEX
  8
LAYER_6
 10
82.4649
 20
-165.8375
  0
VERTEX
  8
LAYER_6
 10
82.5649
 20
-165.7375
  0
SEQEND
  0
POLYLINE
  8
LAYER_6
  6
AIGENLINE001
 40
0.0353
 41
0.0353
 66
1
 10
0
 20
0
 30
0
 70
128
  0
VERTEX
  8
LAYER_6
 10
173.5595
 20
-120.5229
  0
VERTEX
  8
LAYER_6
 10
173.5595
 20
-188.9975
  0
SEQEND
  0
POLYLINE
  8
LAYER_6
 40
0.0353
 41
0.0353
 66
1
 10
0
 20
0
 30
0
 70
1
  0
VERTEX
  8
LAYER_6
 10
86.5604
 20
-165.5375
  0
VERTEX
  8
LAYER_6
 10
84.4649
 20
-165.5375
  0
VERTEX
  8
LAYER_6
 10
82.3694
 20
-165.5375
  0
VERTEX
  8
LAYER_6
 10
82.3694
 20
-164.3375
  0
VERTEX
  8
LAYER_6
 10
84.4649
 20
-164.3375
  0
VERTEX
  8
LAYER_6
 10
86.5604
 20
-164.3375
  0
SEQEND
  0
POLYLINE
  8
LAYER_6
  6
AIGENLINE001
 40
0.0353
 41
0.0353
 66
1
 10
0
 20
0
 30
0
 70
128
  0
VERTEX
  8
LAYER_6
 10
84.4649
 20
-75.7495
  0
VERTEX
  8
LAYER_6
 10
84.4649
 20
-172.1375
  0
SEQEND
  0
POLYLINE
  8
LAYER_6
 40
0.0353
 41
0.0353
 66
1
 10
0
 20
0
 30
0
  0
VERTEX
  8
LAYER_6
 10
202.8132
 20
-194.1371
 42
-0.3999843849
  0
VERTEX
  8
LAYER_6
 10
202.8132
 20
-194.3451
 42
0.1903485775
  0
VERTEX
  8
LAYER_6
 10
202.7716
 20
-194.4491
 42
0.1901232497
  0
VERTEX
  8
LAYER_6
 10
202.8132
 20
-194.5531
 42
-0.1903485773
  0
VERTEX
  8
LAYER_6
 10
202.8548
 20
-194.6571
 42
-0.1901232497
  0
VERTEX
  8
LAYER_6
 10
202.8132
 20
-194.7611
 42
0.1903485775
  0
VERTEX
  8
LAYER_6
 10
202.7716
 20
-194.8651
 42
0.1901232497
  0
VERTEX
  8
LAYER_6
 10
202.8132
 20
-194.9691
 42
-0.1903485773
  0
VERTEX
  8
LAYER_6
 10
202.8548
 20
-195.0731
 42
-0.1901232497
  0
VERTEX
  8
LAYER_6
 10
202.8132
 20
-195.1771
  0
SEQEND
  0
POLYLINE
  8
LAYER_6
 40
0.0353
 41
0.0353
 66
1
 10
0
 20
0
 30
0
  0
VERTEX
  8
LAYER_6
 10
173.0395
 20
-188.3975
  0
VERTEX
  8
LAYER_6
 10
173.0395
 20
-192.1371
 42
0.4142182386
  0
VERTEX
  8
LAYER_6
 10
176.0795
 20
-195.1771
  0
VERTEX
  8
LAYER_6
 10
202.8132
 20
-195.1771
  0
SEQEND
  0
POLYLINE
  8
LAYER_6
 40
0.0353
 41
0.0353
 66
1
 10
0
 20
0
 30
0
  0
VERTEX
  8
LAYER_6
 10
174.0795
 20
-188.3975
  0
VERTEX
  8
LAYER_6
 10
174.0795
 20
-192.1371
 42
0.4142206701
  0
VERTEX
  8
LAYER_6
 10
176.0795
 20
-194.1371
  0
VERTEX
  8
LAYER_6
 10
202.8132
 20
-194.1371
  0
SEQEND
  0
POLYLINE
  8
LAYER_6
 40
0.0353
 41
0.0353
 66
1
 10
0
 20
0
 30
0
  0
VERTEX
  8
LAYER_6
 10
68.7449
 20
-192.1371
 42
-0.3999891302
  0
VERTEX
  8
LAYER_6
 10
68.9529
 20
-192.1371
 42
0.190138802
  0
VERTEX
  8
LAYER_6
 10
69.0569
 20
-192.1787
 42
0.1905568878
  0
VERTEX
  8
LAYER_6
 10
69.1609
 20
-192.1371
 42
-0.190138802
  0
VERTEX
  8
LAYER_6
 10
69.2649
 20
-192.0955
 42
-0.1905568878
  0
VERTEX
  8
LAYER_6
 10
69.3689
 20
-192.1371
 42
0.190138802
  0
VERTEX
  8
LAYER_6
 10
69.4729
 20
-192.1787
 42
0.1905568878
  0
VERTEX
  8
LAYER_6
 10
69.5769
 20
-192.1371
 42
-0.190138802
  0
VERTEX
  8
LAYER_6
 10
69.6809
 20
-192.0955
 42
-0.1905568878
  0
VERTEX
  8
LAYER_6
 10
69.7849
 20
-192.1371
  0
SEQEND
  0
POLYLINE
  8
LAYER_6
  6
AIGENLINE001
 40
0.0353
 41
0.0353
 66
1
 10
0
 20
0
 30
0
 70
128
  0
VERTEX
  8
LAYER_6
 10
83.4649
 20
-172.5375
  0
VERTEX
  8
LAYER_6
 10
83.4649
 20
-192.1975
  0
SEQEND
  0
POLYLINE
  8
LAYER_6
  6
AIGENLINE001
 40
0.0353
 41
0.0353
 66
1
 10
0
 20
0
 30
0
 70
128
  0
VERTEX
  8
LAYER_6
 10
79.9649
 20
-18.552
  0
VERTEX
  8
LAYER_6
 10
88.9649
 20
-18.552
  0
SEQEND
  0
TEXT
  8
LAYER_6
 10
201.8709
 20
-201.4178
 11
201.8709
 21
-201.4178
 40
3.3885
 41
0.5
  1
　　　　　　　　　　　　　
  0
TEXT
  8
LAYER_6
 10
189.924
 20
-130.7138
 11
189.924
 21
-130.7138
 40
3.258
 41
0.5
  1
コード全長：420mm
  0
TEXT
  8
LAYER_6
 10
201.5713
 20
-199.8348
 11
201.5713
 21
-199.8348
 40
3.258
 41
0.5
  1
コード全長：500mm
  0
POLYLINE
  8
LAYER_6
 40
0.0882
 41
0.0882
 66
1
 10
0
 20
0
 30
0
  0
VERTEX
  8
LAYER_6
 10
223.5207
 20
-201.4011
  0
VERTEX
  8
LAYER_6
 10
200.988
 20
-201.4011
  0
VERTEX
  8
LAYER_6
 10
195.4031
 20
-195.3683
  0
SEQEND
  0
POLYLINE
  8
LAYER_6
 40
0.0882
 41
0.0882
 66
1
 10
0
 20
0
 30
0
  0
VERTEX
  8
LAYER_6
 10
120.4473
 20
-138.0362
  0
VERTEX
  8
LAYER_6
 10
89.8733
 20
-138.0362
  0
VERTEX
  8
LAYER_6
 10
85.6103
 20
-136.4122
  0
SEQEND
  0
POLYLINE
  8
LAYER_6
 40
0.0882
 41
0.0882
 66
1
 10
0
 20
0
 30
0
  0
VERTEX
  8
LAYER_6
 10
211.4442
 20
-132.2933
  0
VERTEX
  8
LAYER_6
 10
188.9116
 20
-132.2933
  0
VERTEX
  8
LAYER_6
 10
183.2854
 20
-125.7476
  0
SEQEND
  0
TEXT
  8
LAYER_6
 10
90.5789
 20
-136.3898
 11
90.5789
 21
-136.3898
 40
3.258
 41
0.5
  1
給水ホース長さ：800mm
  0
ENDSEC
  0
EOF
