  0
SECTION
  2
HEADER
  9
$ACADVER
  1
AC1009
  9
$LUNITS
 70
2
  9
$LUPREC
 70
4
  9
$LTSCALE
 40
1.0
  9
$EXTMIN
 10
33.7873
 20
-286.0328
 30
0
  9
$EXTMAX
 10
497.1262
 20
22.6587
 30
0
  0
ENDSEC
  0
SECTION
  2
TABLES
  0
TABLE
  2
LTYPE
 70
256
  0
LTYPE
  2
AIGENLINE001
 70
64
  3
generate AI->DXF Converter
 72
65
 73
4
 40
2
 49
1.25
 49
-0.25
 49
0.25
 49
-0.25
  0
ENDTAB
  0
TABLE
  2
LAYER
 70
6
  0
LAYER
  2
LAYER_1
 70
64
 62
7
  6
CONTINUOUS
  0
LAYER
  2
LAYER_2
 70
64
 62
7
  6
CONTINUOUS
  0
LAYER
  2
LAYER_3
 70
64
 62
7
  6
CONTINUOUS
  0
LAYER
  2
LAYER_4
 70
64
 62
7
  6
CONTINUOUS
  0
LAYER
  2
LAYER_5
 70
64
 62
7
  6
CONTINUOUS
  0
LAYER
  2
LAYER_6
 70
64
 62
7
  6
CONTINUOUS
  0
ENDTAB
  0
TABLE
  2
STYLE
 70
6
  0
STYLE
  2
STANDARD
 70
0
 40
0
 50
0
 71
0
 41
0
 42
0
  3
TXT
  4
BIGFONT
  0
ENDTAB
  0
ENDSEC
  0
SECTION
  2
BLOCKS
  0
BLOCK
  8
LAYER_1
  2
AIGNBL01040005
 70
64
 10
0
 20
0
 30
0
  3
AIGNBL01040005
  0
POLYLINE
  8
LAYER_1
 40
0.05
 41
0.05
 66
1
 10
0
 20
0
 30
0
 70
1
  0
VERTEX
  8
LAYER_1
 10
138.3767
 20
-249.1011
  0
VERTEX
  8
LAYER_1
 10
137.891
 20
-250.2793
  0
VERTEX
  8
LAYER_1
 10
137.2664
 20
-250.2793
  0
VERTEX
  8
LAYER_1
 10
138.857
 20
-246.5355
  0
VERTEX
  8
LAYER_1
 10
139.586
 20
-246.5355
  0
VERTEX
  8
LAYER_1
 10
141.1828
 20
-250.2793
  0
VERTEX
  8
LAYER_1
 10
140.5365
 20
-250.2793
  0
VERTEX
  8
LAYER_1
 10
140.0369
 20
-249.1011
  0
SEQEND
  0
POLYLINE
  8
LAYER_1
 40
0.05
 41
0.05
 66
1
 10
0
 20
0
 30
0
 70
1
  0
VERTEX
  8
LAYER_1
 10
139.9115
 20
-248.7245
  0
VERTEX
  8
LAYER_1
 10
139.4533
 20
-247.6459
  0
VERTEX
  8
LAYER_1
 10
139.2101
 20
-246.963
  0
VERTEX
  8
LAYER_1
 10
139.1967
 20
-246.963
  0
VERTEX
  8
LAYER_1
 10
138.9603
 20
-247.6414
  0
VERTEX
  8
LAYER_1
 10
138.5021
 20
-248.7245
  0
SEQEND
  0
ENDBLK
  0
BLOCK
  8
LAYER_1
  2
AIGNBL01040006
 70
64
 10
0
 20
0
 30
0
  3
AIGNBL01040006
  0
POLYLINE
  8
LAYER_1
 40
0.05
 41
0.05
 66
1
 10
0
 20
0
 30
0
 70
1
  0
VERTEX
  8
LAYER_1
 10
145.5226
 20
-250.8295
 42
-0.01588995579
  0
VERTEX
  8
LAYER_1
 10
143.7311
 20
-250.3954
  0
VERTEX
  8
LAYER_1
 10
143.4465
 20
-250.3406
 42
-0.08603985201
  0
VERTEX
  8
LAYER_1
 10
142.5648
 20
-250.1665
 42
-0.09807603942
  0
VERTEX
  8
LAYER_1
 10
141.9131
 20
-249.7557
 42
-0.2094886647
  0
VERTEX
  8
LAYER_1
 10
141.3839
 20
-248.4469
 42
-0.09686882676
  0
VERTEX
  8
LAYER_1
 10
141.5276
 20
-247.6779
 42
-0.2046492491
  0
VERTEX
  8
LAYER_1
 10
142.5693
 20
-246.6597
 42
-0.09822810302
  0
VERTEX
  8
LAYER_1
 10
143.5644
 20
-246.4745
 42
-0.08551091506
  0
VERTEX
  8
LAYER_1
 10
144.4282
 20
-246.615
 42
-0.1004264881
  0
VERTEX
  8
LAYER_1
 10
145.0896
 20
-247.0069
 42
-0.2141381959
  0
VERTEX
  8
LAYER_1
 10
145.6617
 20
-248.3686
 42
-0.09538251124
  0
VERTEX
  8
LAYER_1
 10
145.5236
 20
-249.1322
 42
-0.2145004706
  0
VERTEX
  8
LAYER_1
 10
144.5063
 20
-250.1049
 42
-0.02339472194
  0
VERTEX
  8
LAYER_1
 10
144.3281
 20
-250.1628
  0
VERTEX
  8
LAYER_1
 10
144.3281
 20
-250.1852
  0
VERTEX
  8
LAYER_1
 10
145.6965
 20
-250.424
  0
SEQEND
  0
POLYLINE
  8
LAYER_1
 40
0.05
 41
0.05
 66
1
 10
0
 20
0
 30
0
 70
1
  0
VERTEX
  8
LAYER_1
 10
145.0233
 20
-248.39
 42
0.1071465477
  0
VERTEX
  8
LAYER_1
 10
144.8729
 20
-247.6894
 42
0.2977221891
  0
VERTEX
  8
LAYER_1
 10
143.5433
 20
-246.8687
 42
0.1072160189
  0
VERTEX
  8
LAYER_1
 10
142.8575
 20
-247.0073
 42
0.2385375056
  0
VERTEX
  8
LAYER_1
 10
142.0749
 20
-248.007
 42
0.05759145292
  0
VERTEX
  8
LAYER_1
 10
142.0296
 20
-248.4344
 42
0.2182236294
  0
VERTEX
  8
LAYER_1
 10
142.5575
 20
-249.6231
 42
0.1771891839
  0
VERTEX
  8
LAYER_1
 10
143.5161
 20
-249.9468
 42
0.1075696895
  0
VERTEX
  8
LAYER_1
 10
144.1932
 20
-249.8086
 42
0.236982977
  0
VERTEX
  8
LAYER_1
 10
144.9758
 20
-248.8146
 42
0.05604944619
  0
SEQEND
  0
ENDBLK
  0
BLOCK
  8
LAYER_1
  2
AIGNBL01040007
 70
64
 10
0
 20
0
 30
0
  3
AIGNBL01040007
  0
POLYLINE
  8
LAYER_1
 40
0.05
 41
0.05
 66
1
 10
0
 20
0
 30
0
 70
1
  0
VERTEX
  8
LAYER_1
 10
146.9815
 20
-246.5355
  0
VERTEX
  8
LAYER_1
 10
146.9815
 20
-248.7517
 42
0.114472655
  0
VERTEX
  8
LAYER_1
 10
147.1146
 20
-249.4136
 42
0.1464766
  0
VERTEX
  8
LAYER_1
 10
147.4628
 20
-249.7966
 42
0.1363197034
  0
VERTEX
  8
LAYER_1
 10
148.0716
 20
-249.9468
 42
0.1219363095
  0
VERTEX
  8
LAYER_1
 10
148.6913
 20
-249.8128
 42
0.1503291203
  0
VERTEX
  8
LAYER_1
 10
149.0609
 20
-249.446
 42
0.1255921242
  0
VERTEX
  8
LAYER_1
 10
149.2105
 20
-248.7517
  0
VERTEX
  8
LAYER_1
 10
149.2105
 20
-246.5355
  0
VERTEX
  8
LAYER_1
 10
149.8217
 20
-246.5355
  0
VERTEX
  8
LAYER_1
 10
149.8217
 20
-248.7187
 42
-0.1000186514
  0
VERTEX
  8
LAYER_1
 10
149.6875
 20
-249.4569
 42
-0.1214826848
  0
VERTEX
  8
LAYER_1
 10
149.3164
 20
-249.9606
 42
-0.1105884685
  0
VERTEX
  8
LAYER_1
 10
148.6945
 20
-250.2654
 42
-0.06129767201
  0
VERTEX
  8
LAYER_1
 10
148.0509
 20
-250.3406
 42
-0.09420892198
  0
VERTEX
  8
LAYER_1
 10
147.2365
 20
-250.2032
 42
-0.2431575096
  0
VERTEX
  8
LAYER_1
 10
146.4378
 20
-249.2978
 42
-0.06319469768
  0
VERTEX
  8
LAYER_1
 10
146.3707
 20
-248.7404
  0
VERTEX
  8
LAYER_1
 10
146.3707
 20
-246.5355
  0
SEQEND
  0
ENDBLK
  0
BLOCK
  8
LAYER_1
  2
AIGNBL01040008
 70
64
 10
0
 20
0
 30
0
  3
AIGNBL01040008
  0
POLYLINE
  8
LAYER_1
 40
0.05
 41
0.05
 66
1
 10
0
 20
0
 30
0
 70
1
  0
VERTEX
  8
LAYER_1
 10
151.5573
 20
-249.1011
  0
VERTEX
  8
LAYER_1
 10
151.0709
 20
-250.2793
  0
VERTEX
  8
LAYER_1
 10
150.447
 20
-250.2793
  0
VERTEX
  8
LAYER_1
 10
152.0365
 20
-246.5355
  0
VERTEX
  8
LAYER_1
 10
152.7655
 20
-246.5355
  0
VERTEX
  8
LAYER_1
 10
154.3623
 20
-250.2793
  0
VERTEX
  8
LAYER_1
 10
153.7167
 20
-250.2793
  0
VERTEX
  8
LAYER_1
 10
153.2175
 20
-249.1011
  0
SEQEND
  0
POLYLINE
  8
LAYER_1
 40
0.05
 41
0.05
 66
1
 10
0
 20
0
 30
0
 70
1
  0
VERTEX
  8
LAYER_1
 10
153.0921
 20
-248.7245
  0
VERTEX
  8
LAYER_1
 10
152.6332
 20
-247.6459
  0
VERTEX
  8
LAYER_1
 10
152.3897
 20
-246.963
  0
VERTEX
  8
LAYER_1
 10
152.3759
 20
-246.963
  0
VERTEX
  8
LAYER_1
 10
152.1402
 20
-247.6414
  0
VERTEX
  8
LAYER_1
 10
151.682
 20
-248.7245
  0
SEQEND
  0
ENDBLK
  0
BLOCK
  8
LAYER_1
  2
AIGNBL01040009
 70
64
 10
0
 20
0
 30
0
  3
AIGNBL01040009
  0
POLYLINE
  8
LAYER_1
 40
0.05
 41
0.05
 66
1
 10
0
 20
0
 30
0
 70
1
  0
VERTEX
  8
LAYER_1
 10
155.3969
 20
-246.58
 42
-0.03256094069
  0
VERTEX
  8
LAYER_1
 10
156.5576
 20
-246.5072
 42
-0.08241612935
  0
VERTEX
  8
LAYER_1
 10
157.5173
 20
-246.6416
 42
-0.07669938049
  0
VERTEX
  8
LAYER_1
 10
157.8691
 20
-246.8184
 42
-0.2484913661
  0
VERTEX
  8
LAYER_1
 10
158.279
 20
-247.6018
 42
-0.2263535337
  0
VERTEX
  8
LAYER_1
 10
157.9177
 20
-248.4014
 42
-0.1098394792
  0
VERTEX
  8
LAYER_1
 10
157.2932
 20
-248.7128
 42
-0.0656406839
  0
VERTEX
  8
LAYER_1
 10
156.4872
 20
-248.8127
 42
-0.06243203296
  0
VERTEX
  8
LAYER_1
 10
156.0015
 20
-248.7793
  0
VERTEX
  8
LAYER_1
 10
156.0015
 20
-250.2793
  0
VERTEX
  8
LAYER_1
 10
155.3969
 20
-250.2793
  0
SEQEND
  0
POLYLINE
  8
LAYER_1
 40
0.05
 41
0.05
 66
1
 10
0
 20
0
 30
0
 70
1
  0
VERTEX
  8
LAYER_1
 10
156.0015
 20
-248.3852
 42
0.04167858666
  0
VERTEX
  8
LAYER_1
 10
156.501
 20
-248.4245
 42
0.1033682296
  0
VERTEX
  8
LAYER_1
 10
157.216
 20
-248.2977
 42
0.300261568
  0
VERTEX
  8
LAYER_1
 10
157.6751
 20
-247.6242
 42
0.1736095203
  0
VERTEX
  8
LAYER_1
 10
157.5412
 20
-247.2193
 42
0.1518049397
  0
VERTEX
  8
LAYER_1
 10
157.1227
 20
-246.9614
 42
0.06878721899
  0
VERTEX
  8
LAYER_1
 10
156.5713
 20
-246.891
 42
0.0640598863
  0
VERTEX
  8
LAYER_1
 10
156.0015
 20
-246.93
  0
SEQEND
  0
ENDBLK
  0
BLOCK
  8
LAYER_1
  2
AIGNBL0104000A
 70
64
 10
0
 20
0
 30
0
  3
AIGNBL0104000A
  0
POLYLINE
  8
LAYER_1
 40
0.05
 41
0.05
 66
1
 10
0
 20
0
 30
0
 70
1
  0
VERTEX
  8
LAYER_1
 10
159.8218
 20
-246.8352
 42
-0.2759870412
  0
VERTEX
  8
LAYER_1
 10
159.6829
 20
-247.0742
 42
-0.1267055018
  0
VERTEX
  8
LAYER_1
 10
159.4325
 20
-247.1356
 42
-0.2239956238
  0
VERTEX
  8
LAYER_1
 10
159.1241
 20
-247.0039
 42
-0.1705452753
  0
VERTEX
  8
LAYER_1
 10
159.0645
 20
-246.8352
 42
-0.2641883957
  0
VERTEX
  8
LAYER_1
 10
159.2127
 20
-246.5896
 42
-0.1291792354
  0
VERTEX
  8
LAYER_1
 10
159.4459
 20
-246.53
 42
-0.2251681707
  0
VERTEX
  8
LAYER_1
 10
159.761
 20
-246.6599
 42
-0.1693099844
  0
SEQEND
  0
POLYLINE
  8
LAYER_1
 40
0.05
 41
0.05
 66
1
 10
0
 20
0
 30
0
 70
1
  0
VERTEX
  8
LAYER_1
 10
159.1407
 20
-250.2793
  0
VERTEX
  8
LAYER_1
 10
159.1407
 20
-247.5907
  0
VERTEX
  8
LAYER_1
 10
159.7515
 20
-247.5907
  0
VERTEX
  8
LAYER_1
 10
159.7515
 20
-250.2793
  0
SEQEND
  0
ENDBLK
  0
BLOCK
  8
LAYER_1
  2
AIGNBL0104000B
 70
64
 10
0
 20
0
 30
0
  3
AIGNBL0104000B
  0
POLYLINE
  8
LAYER_1
 40
0.05
 41
0.05
 66
1
 10
0
 20
0
 30
0
 70
1
  0
VERTEX
  8
LAYER_1
 10
161.6118
 20
-249.1011
  0
VERTEX
  8
LAYER_1
 10
161.1271
 20
-250.2793
  0
VERTEX
  8
LAYER_1
 10
160.5015
 20
-250.2793
  0
VERTEX
  8
LAYER_1
 10
162.0918
 20
-246.5355
  0
VERTEX
  8
LAYER_1
 10
162.8211
 20
-246.5355
  0
VERTEX
  8
LAYER_1
 10
164.4186
 20
-250.2793
  0
VERTEX
  8
LAYER_1
 10
163.7719
 20
-250.2793
  0
VERTEX
  8
LAYER_1
 10
163.2727
 20
-249.1011
  0
SEQEND
  0
POLYLINE
  8
LAYER_1
 40
0.05
 41
0.05
 66
1
 10
0
 20
0
 30
0
 70
1
  0
VERTEX
  8
LAYER_1
 10
163.1473
 20
-248.7245
  0
VERTEX
  8
LAYER_1
 10
162.6891
 20
-247.6459
  0
VERTEX
  8
LAYER_1
 10
162.4466
 20
-246.963
  0
VERTEX
  8
LAYER_1
 10
162.4321
 20
-246.963
  0
VERTEX
  8
LAYER_1
 10
162.1961
 20
-247.6414
  0
VERTEX
  8
LAYER_1
 10
161.7379
 20
-248.7245
  0
SEQEND
  0
ENDBLK
  0
BLOCK
  8
LAYER_1
  2
AIGNBL01030004
 70
64
 10
0
 20
0
 30
0
  3
AIGNBL01030004
  0
INSERT
  8
LAYER_1
  2
AIGNBL01040005
 10
0
 20
0
 30
0
  0
INSERT
  8
LAYER_1
  2
AIGNBL01040006
 10
0
 20
0
 30
0
  0
INSERT
  8
LAYER_1
  2
AIGNBL01040007
 10
0
 20
0
 30
0
  0
INSERT
  8
LAYER_1
  2
AIGNBL01040008
 10
0
 20
0
 30
0
  0
INSERT
  8
LAYER_1
  2
AIGNBL01040009
 10
0
 20
0
 30
0
  0
INSERT
  8
LAYER_1
  2
AIGNBL0104000A
 10
0
 20
0
 30
0
  0
INSERT
  8
LAYER_1
  2
AIGNBL0104000B
 10
0
 20
0
 30
0
  0
ENDBLK
  0
BLOCK
  8
LAYER_1
  2
AIGNBL0103000D
 70
64
 10
0
 20
0
 30
0
  3
AIGNBL0103000D
  0
POLYLINE
  8
LAYER_1
 40
0.05
 41
0.05
 66
1
 10
0
 20
0
 30
0
 70
1
  0
VERTEX
  8
LAYER_1
 10
137.3756
 20
-252.1676
  0
VERTEX
  8
LAYER_1
 10
137.9258
 20
-252.1676
  0
VERTEX
  8
LAYER_1
 10
137.9258
 20
-252.2609
  0
VERTEX
  8
LAYER_1
 10
137.2715
 20
-252.2609
  0
VERTEX
  8
LAYER_1
 10
137.2715
 20
-251.2339
  0
VERTEX
  8
LAYER_1
 10
137.9082
 20
-251.2339
  0
VERTEX
  8
LAYER_1
 10
137.9082
 20
-251.3266
  0
VERTEX
  8
LAYER_1
 10
137.3756
 20
-251.3266
  0
VERTEX
  8
LAYER_1
 10
137.3756
 20
-251.6787
  0
VERTEX
  8
LAYER_1
 10
137.8734
 20
-251.6787
  0
VERTEX
  8
LAYER_1
 10
137.8734
 20
-251.7717
  0
VERTEX
  8
LAYER_1
 10
137.3756
 20
-251.7717
  0
SEQEND
  0
ENDBLK
  0
BLOCK
  8
LAYER_1
  2
AIGNBL0103000E
 70
64
 10
0
 20
0
 30
0
  3
AIGNBL0103000E
  0
POLYLINE
  8
LAYER_1
 40
0.05
 41
0.05
 66
1
 10
0
 20
0
 30
0
 70
1
  0
VERTEX
  8
LAYER_1
 10
139.0589
 20
-252.1079
  0
VERTEX
  8
LAYER_1
 10
139.0613
 20
-252.1079
  0
VERTEX
  8
LAYER_1
 10
139.0613
 20
-251.2339
  0
VERTEX
  8
LAYER_1
 10
139.1663
 20
-251.2339
  0
VERTEX
  8
LAYER_1
 10
139.1663
 20
-252.2609
  0
VERTEX
  8
LAYER_1
 10
139.0365
 20
-252.2609
  0
VERTEX
  8
LAYER_1
 10
138.4384
 20
-251.3772
  0
VERTEX
  8
LAYER_1
 10
138.435
 20
-251.3772
  0
VERTEX
  8
LAYER_1
 10
138.435
 20
-252.2609
  0
VERTEX
  8
LAYER_1
 10
138.3306
 20
-252.2609
  0
VERTEX
  8
LAYER_1
 10
138.3306
 20
-251.2339
  0
VERTEX
  8
LAYER_1
 10
138.4611
 20
-251.2339
  0
SEQEND
  0
ENDBLK
  0
BLOCK
  8
LAYER_1
  2
AIGNBL0103000F
 70
64
 10
0
 20
0
 30
0
  3
AIGNBL0103000F
  0
POLYLINE
  8
LAYER_1
 40
0.05
 41
0.05
 66
1
 10
0
 20
0
 30
0
 70
1
  0
VERTEX
  8
LAYER_1
 10
139.637
 20
-252.0501
  0
VERTEX
  8
LAYER_1
 10
139.691
 20
-252.1527
 42
0.1791739205
  0
VERTEX
  8
LAYER_1
 10
139.8034
 20
-252.1937
  0
VERTEX
  8
LAYER_1
 10
139.8922
 20
-252.1744
  0
VERTEX
  8
LAYER_1
 10
139.948
 20
-252.1214
  0
VERTEX
  8
LAYER_1
 10
139.9763
 20
-252.0453
  0
VERTEX
  8
LAYER_1
 10
139.9853
 20
-251.956
  0
VERTEX
  8
LAYER_1
 10
139.9853
 20
-251.2339
  0
VERTEX
  8
LAYER_1
 10
140.0893
 20
-251.2339
  0
VERTEX
  8
LAYER_1
 10
140.0893
 20
-251.965
  0
VERTEX
  8
LAYER_1
 10
140.0783
 20
-252.0718
  0
VERTEX
  8
LAYER_1
 10
140.0369
 20
-252.1765
  0
VERTEX
  8
LAYER_1
 10
139.9529
 20
-252.2554
  0
VERTEX
  8
LAYER_1
 10
139.8147
 20
-252.2868
 42
-0.18823279
  0
VERTEX
  8
LAYER_1
 10
139.6311
 20
-252.2268
 42
-0.1779708983
  0
VERTEX
  8
LAYER_1
 10
139.5391
 20
-252.0769
  0
SEQEND
  0
ENDBLK
  0
BLOCK
  8
LAYER_1
  2
AIGNBL01030010
 70
64
 10
0
 20
0
 30
0
  3
AIGNBL01030010
  0
POLYLINE
  8
LAYER_1
 40
0.05
 41
0.05
 66
1
 10
0
 20
0
 30
0
 70
1
  0
VERTEX
  8
LAYER_1
 10
141.5693
 20
-251.7469
 42
-0.104348301
  0
VERTEX
  8
LAYER_1
 10
141.5279
 20
-251.9629
 42
-0.1013865216
  0
VERTEX
  8
LAYER_1
 10
141.4163
 20
-252.1338
  0
VERTEX
  8
LAYER_1
 10
141.2458
 20
-252.2461
 42
-0.09497960855
  0
VERTEX
  8
LAYER_1
 10
141.0332
 20
-252.2868
 42
-0.1003676177
  0
VERTEX
  8
LAYER_1
 10
140.8207
 20
-252.2461
  0
VERTEX
  8
LAYER_1
 10
140.6512
 20
-252.1338
 42
-0.09474436642
  0
VERTEX
  8
LAYER_1
 10
140.5389
 20
-251.9629
 42
-0.09317427323
  0
VERTEX
  8
LAYER_1
 10
140.4986
 20
-251.7469
 42
-0.1052531491
  0
VERTEX
  8
LAYER_1
 10
140.5389
 20
-251.5306
 42
-0.1000138279
  0
VERTEX
  8
LAYER_1
 10
140.6512
 20
-251.3604
 42
-0.09581503346
  0
VERTEX
  8
LAYER_1
 10
140.8207
 20
-251.2481
 42
-0.09561956468
  0
VERTEX
  8
LAYER_1
 10
141.0332
 20
-251.2071
 42
-0.1024782491
  0
VERTEX
  8
LAYER_1
 10
141.2458
 20
-251.2481
 42
-0.1014786584
  0
VERTEX
  8
LAYER_1
 10
141.4163
 20
-251.3604
 42
-0.09815577957
  0
VERTEX
  8
LAYER_1
 10
141.5279
 20
-251.5306
 42
-0.09523735002
  0
SEQEND
  0
POLYLINE
  8
LAYER_1
 40
0.05
 41
0.05
 66
1
 10
0
 20
0
 30
0
 70
1
  0
VERTEX
  8
LAYER_1
 10
141.4584
 20
-251.7476
  0
VERTEX
  8
LAYER_1
 10
141.4301
 20
-251.5767
  0
VERTEX
  8
LAYER_1
 10
141.3454
 20
-251.4344
  0
VERTEX
  8
LAYER_1
 10
141.211
 20
-251.337
 42
0.1026237584
  0
VERTEX
  8
LAYER_1
 10
141.0332
 20
-251.3001
 42
0.1147987019
  0
VERTEX
  8
LAYER_1
 10
140.8558
 20
-251.337
  0
VERTEX
  8
LAYER_1
 10
140.7225
 20
-251.4344
  0
VERTEX
  8
LAYER_1
 10
140.6374
 20
-251.5767
  0
VERTEX
  8
LAYER_1
 10
140.6081
 20
-251.7476
  0
VERTEX
  8
LAYER_1
 10
140.6374
 20
-251.9188
  0
VERTEX
  8
LAYER_1
 10
140.7225
 20
-252.0607
  0
VERTEX
  8
LAYER_1
 10
140.8558
 20
-252.1575
  0
VERTEX
  8
LAYER_1
 10
141.0332
 20
-252.1937
 42
0.1185100977
  0
VERTEX
  8
LAYER_1
 10
141.211
 20
-252.1575
  0
VERTEX
  8
LAYER_1
 10
141.3454
 20
-252.0607
  0
VERTEX
  8
LAYER_1
 10
141.4301
 20
-251.9188
  0
SEQEND
  0
ENDBLK
  0
BLOCK
  8
LAYER_1
  2
AIGNBL01030011
 70
64
 10
0
 20
0
 30
0
  3
AIGNBL01030011
  0
POLYLINE
  8
LAYER_1
 40
0.05
 41
0.05
 66
1
 10
0
 20
0
 30
0
 70
1
  0
VERTEX
  8
LAYER_1
 10
142.3393
 20
-252.2609
  0
VERTEX
  8
LAYER_1
 10
142.2349
 20
-252.2609
  0
VERTEX
  8
LAYER_1
 10
142.2349
 20
-251.8182
  0
VERTEX
  8
LAYER_1
 10
141.8504
 20
-251.2339
  0
VERTEX
  8
LAYER_1
 10
141.9813
 20
-251.2339
  0
VERTEX
  8
LAYER_1
 10
142.2904
 20
-251.7311
  0
VERTEX
  8
LAYER_1
 10
142.6022
 20
-251.2339
  0
VERTEX
  8
LAYER_1
 10
142.7234
 20
-251.2339
  0
VERTEX
  8
LAYER_1
 10
142.3393
 20
-251.8182
  0
SEQEND
  0
ENDBLK
  0
BLOCK
  8
LAYER_1
  2
AIGNBL01030012
 70
64
 10
0
 20
0
 30
0
  3
AIGNBL01030012
  0
POLYLINE
  8
LAYER_1
 40
0.05
 41
0.05
 66
1
 10
0
 20
0
 30
0
 70
1
  0
VERTEX
  8
LAYER_1
 10
143.6236
 20
-251.2339
  0
VERTEX
  8
LAYER_1
 10
143.9288
 20
-251.2339
  0
VERTEX
  8
LAYER_1
 10
144.047
 20
-251.2457
  0
VERTEX
  8
LAYER_1
 10
144.1528
 20
-251.288
  0
VERTEX
  8
LAYER_1
 10
144.2307
 20
-251.3686
  0
VERTEX
  8
LAYER_1
 10
144.2603
 20
-251.4961
 42
-0.1778951175
  0
VERTEX
  8
LAYER_1
 10
144.2103
 20
-251.6373
 42
-0.1614829203
  0
VERTEX
  8
LAYER_1
 10
144.078
 20
-251.7166
  0
VERTEX
  8
LAYER_1
 10
144.078
 20
-251.7194
 42
-0.1736511409
  0
VERTEX
  8
LAYER_1
 10
144.2434
 20
-251.7969
 42
-0.1925337955
  0
VERTEX
  8
LAYER_1
 10
144.3099
 20
-251.9764
  0
VERTEX
  8
LAYER_1
 10
144.2823
 20
-252.0928
  0
VERTEX
  8
LAYER_1
 10
144.2062
 20
-252.1831
  0
VERTEX
  8
LAYER_1
 10
144.0866
 20
-252.2402
  0
VERTEX
  8
LAYER_1
 10
143.9275
 20
-252.2609
  0
VERTEX
  8
LAYER_1
 10
143.6236
 20
-252.2609
  0
SEQEND
  0
POLYLINE
  8
LAYER_1
 40
0.05
 41
0.05
 66
1
 10
0
 20
0
 30
0
 70
1
  0
VERTEX
  8
LAYER_1
 10
143.7277
 20
-251.6832
  0
VERTEX
  8
LAYER_1
 10
143.9382
 20
-251.6832
  0
VERTEX
  8
LAYER_1
 10
144.0146
 20
-251.6742
  0
VERTEX
  8
LAYER_1
 10
144.0842
 20
-251.6453
  0
VERTEX
  8
LAYER_1
 10
144.1362
 20
-251.5888
  0
VERTEX
  8
LAYER_1
 10
144.1552
 20
-251.5034
  0
VERTEX
  8
LAYER_1
 10
144.1362
 20
-251.4203
  0
VERTEX
  8
LAYER_1
 10
144.0835
 20
-251.3638
  0
VERTEX
  8
LAYER_1
 10
144.005
 20
-251.3328
  0
VERTEX
  8
LAYER_1
 10
143.9089
 20
-251.3235
  0
VERTEX
  8
LAYER_1
 10
143.7277
 20
-251.3235
  0
SEQEND
  0
POLYLINE
  8
LAYER_1
 40
0.05
 41
0.05
 66
1
 10
0
 20
0
 30
0
 70
1
  0
VERTEX
  8
LAYER_1
 10
143.7277
 20
-252.171
  0
VERTEX
  8
LAYER_1
 10
143.9223
 20
-252.171
  0
VERTEX
  8
LAYER_1
 10
144.0301
 20
-252.1596
  0
VERTEX
  8
LAYER_1
 10
144.1204
 20
-252.1252
  0
VERTEX
  8
LAYER_1
 10
144.181
 20
-252.0625
  0
VERTEX
  8
LAYER_1
 10
144.2048
 20
-251.9705
 42
0.2546661425
  0
VERTEX
  8
LAYER_1
 10
144.1362
 20
-251.8189
 42
0.138509597
  0
VERTEX
  8
LAYER_1
 10
143.9413
 20
-251.7686
  0
VERTEX
  8
LAYER_1
 10
143.7277
 20
-251.7686
  0
SEQEND
  0
ENDBLK
  0
BLOCK
  8
LAYER_1
  2
AIGNBL01030013
 70
64
 10
0
 20
0
 30
0
  3
AIGNBL01030013
  0
POLYLINE
  8
LAYER_1
 40
0.05
 41
0.05
 66
1
 10
0
 20
0
 30
0
 70
1
  0
VERTEX
  8
LAYER_1
 10
144.7388
 20
-252.2609
  0
VERTEX
  8
LAYER_1
 10
144.6241
 20
-252.2609
  0
VERTEX
  8
LAYER_1
 10
145.0685
 20
-251.2339
  0
VERTEX
  8
LAYER_1
 10
145.1705
 20
-251.2339
  0
VERTEX
  8
LAYER_1
 10
145.6111
 20
-252.2609
  0
VERTEX
  8
LAYER_1
 10
145.4943
 20
-252.2609
  0
VERTEX
  8
LAYER_1
 10
145.3813
 20
-251.9912
  0
VERTEX
  8
LAYER_1
 10
144.8504
 20
-251.9912
  0
SEQEND
  0
POLYLINE
  8
LAYER_1
 40
0.05
 41
0.05
 66
1
 10
0
 20
0
 30
0
 70
1
  0
VERTEX
  8
LAYER_1
 10
144.8894
 20
-251.8947
  0
VERTEX
  8
LAYER_1
 10
145.3424
 20
-251.8947
  0
VERTEX
  8
LAYER_1
 10
145.1164
 20
-251.3493
  0
SEQEND
  0
ENDBLK
  0
BLOCK
  8
LAYER_1
  2
AIGNBL01030014
 70
64
 10
0
 20
0
 30
0
  3
AIGNBL01030014
  0
POLYLINE
  8
LAYER_1
 40
0.05
 41
0.05
 66
1
 10
0
 20
0
 30
0
 70
1
  0
VERTEX
  8
LAYER_1
 10
146.2915
 20
-252.2609
  0
VERTEX
  8
LAYER_1
 10
146.1871
 20
-252.2609
  0
VERTEX
  8
LAYER_1
 10
146.1871
 20
-251.3266
  0
VERTEX
  8
LAYER_1
 10
145.8426
 20
-251.3266
  0
VERTEX
  8
LAYER_1
 10
145.8426
 20
-251.2339
  0
VERTEX
  8
LAYER_1
 10
146.635
 20
-251.2339
  0
VERTEX
  8
LAYER_1
 10
146.635
 20
-251.3266
  0
VERTEX
  8
LAYER_1
 10
146.2915
 20
-251.3266
  0
SEQEND
  0
ENDBLK
  0
BLOCK
  8
LAYER_1
  2
AIGNBL01030015
 70
64
 10
0
 20
0
 30
0
  3
AIGNBL01030015
  0
POLYLINE
  8
LAYER_1
 40
0.05
 41
0.05
 66
1
 10
0
 20
0
 30
0
 70
1
  0
VERTEX
  8
LAYER_1
 10
146.9888
 20
-251.2339
  0
VERTEX
  8
LAYER_1
 10
147.0932
 20
-251.2339
  0
VERTEX
  8
LAYER_1
 10
147.0932
 20
-251.6787
  0
VERTEX
  8
LAYER_1
 10
147.654
 20
-251.6787
  0
VERTEX
  8
LAYER_1
 10
147.654
 20
-251.2339
  0
VERTEX
  8
LAYER_1
 10
147.7581
 20
-251.2339
  0
VERTEX
  8
LAYER_1
 10
147.7581
 20
-252.2609
  0
VERTEX
  8
LAYER_1
 10
147.654
 20
-252.2609
  0
VERTEX
  8
LAYER_1
 10
147.654
 20
-251.7745
  0
VERTEX
  8
LAYER_1
 10
147.0932
 20
-251.7745
  0
VERTEX
  8
LAYER_1
 10
147.0932
 20
-252.2609
  0
VERTEX
  8
LAYER_1
 10
146.9888
 20
-252.2609
  0
SEQEND
  0
ENDBLK
  0
BLOCK
  8
LAYER_1
  2
AIGNBL01030016
 70
64
 10
0
 20
0
 30
0
  3
AIGNBL01030016
  0
POLYLINE
  8
LAYER_1
 40
0.05
 41
0.05
 66
1
 10
0
 20
0
 30
0
 70
1
  0
VERTEX
  8
LAYER_1
 10
148.3351
 20
-252.2609
  0
VERTEX
  8
LAYER_1
 10
148.2311
 20
-252.2609
  0
VERTEX
  8
LAYER_1
 10
148.2311
 20
-251.2339
  0
VERTEX
  8
LAYER_1
 10
148.5322
 20
-251.2339
  0
VERTEX
  8
LAYER_1
 10
148.6724
 20
-251.2481
  0
VERTEX
  8
LAYER_1
 10
148.7844
 20
-251.2953
  0
VERTEX
  8
LAYER_1
 10
148.8571
 20
-251.38
  0
VERTEX
  8
LAYER_1
 10
148.8829
 20
-251.5078
  0
VERTEX
  8
LAYER_1
 10
148.8636
 20
-251.6108
  0
VERTEX
  8
LAYER_1
 10
148.8088
 20
-251.6911
  0
VERTEX
  8
LAYER_1
 10
148.7258
 20
-251.7459
  0
VERTEX
  8
LAYER_1
 10
148.6214
 20
-251.7717
  0
VERTEX
  8
LAYER_1
 10
148.9211
 20
-252.2609
  0
VERTEX
  8
LAYER_1
 10
148.7937
 20
-252.2609
  0
VERTEX
  8
LAYER_1
 10
148.5098
 20
-251.7807
  0
VERTEX
  8
LAYER_1
 10
148.3351
 20
-251.7807
  0
SEQEND
  0
POLYLINE
  8
LAYER_1
 40
0.05
 41
0.05
 66
1
 10
0
 20
0
 30
0
 70
1
  0
VERTEX
  8
LAYER_1
 10
148.3351
 20
-251.6904
  0
VERTEX
  8
LAYER_1
 10
148.517
 20
-251.6904
 42
0.1622417858
  0
VERTEX
  8
LAYER_1
 10
148.711
 20
-251.6453
 42
0.2500476248
  0
VERTEX
  8
LAYER_1
 10
148.7799
 20
-251.5078
  0
VERTEX
  8
LAYER_1
 10
148.7602
 20
-251.4224
  0
VERTEX
  8
LAYER_1
 10
148.7079
 20
-251.3652
  0
VERTEX
  8
LAYER_1
 10
148.6269
 20
-251.3338
  0
VERTEX
  8
LAYER_1
 10
148.5212
 20
-251.3235
  0
VERTEX
  8
LAYER_1
 10
148.3351
 20
-251.3235
  0
SEQEND
  0
ENDBLK
  0
BLOCK
  8
LAYER_1
  2
AIGNBL01030017
 70
64
 10
0
 20
0
 30
0
  3
AIGNBL01030017
  0
POLYLINE
  8
LAYER_1
 40
0.05
 41
0.05
 66
1
 10
0
 20
0
 30
0
 70
1
  0
VERTEX
  8
LAYER_1
 10
150.3154
 20
-251.7469
 42
-0.1015060182
  0
VERTEX
  8
LAYER_1
 10
150.2747
 20
-251.9629
 42
-0.09993540575
  0
VERTEX
  8
LAYER_1
 10
150.1624
 20
-252.1338
 42
-0.09525489566
  0
VERTEX
  8
LAYER_1
 10
149.9926
 20
-252.2461
 42
-0.09491251156
  0
VERTEX
  8
LAYER_1
 10
149.78
 20
-252.2868
 42
-0.1002015795
  0
VERTEX
  8
LAYER_1
 10
149.5674
 20
-252.2461
 42
-0.1016690689
  0
VERTEX
  8
LAYER_1
 10
149.3979
 20
-252.1338
 42
-0.09667300425
  0
VERTEX
  8
LAYER_1
 10
149.2856
 20
-251.9629
 42
-0.09262920428
  0
VERTEX
  8
LAYER_1
 10
149.2453
 20
-251.7469
 42
-0.09846568495
  0
VERTEX
  8
LAYER_1
 10
149.2856
 20
-251.5306
 42
-0.09950302227
  0
VERTEX
  8
LAYER_1
 10
149.3979
 20
-251.3604
 42
-0.09832237419
  0
VERTEX
  8
LAYER_1
 10
149.5674
 20
-251.2481
 42
-0.09564774702
  0
VERTEX
  8
LAYER_1
 10
149.78
 20
-251.2071
 42
-0.1014301699
  0
VERTEX
  8
LAYER_1
 10
149.9926
 20
-251.2481
 42
-0.1041253763
  0
VERTEX
  8
LAYER_1
 10
150.1624
 20
-251.3604
 42
-0.09489987116
  0
VERTEX
  8
LAYER_1
 10
150.2747
 20
-251.5306
 42
-0.09342113907
  0
SEQEND
  0
POLYLINE
  8
LAYER_1
 40
0.05
 41
0.05
 66
1
 10
0
 20
0
 30
0
 70
1
  0
VERTEX
  8
LAYER_1
 10
150.2051
 20
-251.7476
  0
VERTEX
  8
LAYER_1
 10
150.1762
 20
-251.5767
  0
VERTEX
  8
LAYER_1
 10
150.0921
 20
-251.4344
  0
VERTEX
  8
LAYER_1
 10
149.9581
 20
-251.337
 42
0.1022827687
  0
VERTEX
  8
LAYER_1
 10
149.78
 20
-251.3001
 42
0.1183846388
  0
VERTEX
  8
LAYER_1
 10
149.6026
 20
-251.337
  0
VERTEX
  8
LAYER_1
 10
149.4682
 20
-251.4344
  0
VERTEX
  8
LAYER_1
 10
149.3842
 20
-251.5767
  0
VERTEX
  8
LAYER_1
 10
149.3549
 20
-251.7476
  0
VERTEX
  8
LAYER_1
 10
149.3842
 20
-251.9188
  0
VERTEX
  8
LAYER_1
 10
149.4682
 20
-252.0607
  0
VERTEX
  8
LAYER_1
 10
149.6026
 20
-252.1575
 42
0.1007973502
  0
VERTEX
  8
LAYER_1
 10
149.78
 20
-252.1937
  0
VERTEX
  8
LAYER_1
 10
149.9581
 20
-252.1575
  0
VERTEX
  8
LAYER_1
 10
150.0921
 20
-252.0607
  0
VERTEX
  8
LAYER_1
 10
150.1762
 20
-251.9188
  0
SEQEND
  0
ENDBLK
  0
BLOCK
  8
LAYER_1
  2
AIGNBL01030018
 70
64
 10
0
 20
0
 30
0
  3
AIGNBL01030018
  0
POLYLINE
  8
LAYER_1
 40
0.05
 41
0.05
 66
1
 10
0
 20
0
 30
0
 70
1
  0
VERTEX
  8
LAYER_1
 10
151.7489
 20
-251.7469
 42
-0.1017020442
  0
VERTEX
  8
LAYER_1
 10
151.7086
 20
-251.9629
  0
VERTEX
  8
LAYER_1
 10
151.5963
 20
-252.1338
  0
VERTEX
  8
LAYER_1
 10
151.4264
 20
-252.2461
 42
-0.09495021158
  0
VERTEX
  8
LAYER_1
 10
151.2139
 20
-252.2868
 42
-0.1019502388
  0
VERTEX
  8
LAYER_1
 10
151.0013
 20
-252.2461
 42
-0.1021914323
  0
VERTEX
  8
LAYER_1
 10
150.8318
 20
-252.1338
 42
-0.09636018285
  0
VERTEX
  8
LAYER_1
 10
150.7188
 20
-251.9629
 42
-0.09364604827
  0
VERTEX
  8
LAYER_1
 10
150.6781
 20
-251.7469
 42
-0.1001287453
  0
VERTEX
  8
LAYER_1
 10
150.7188
 20
-251.5306
 42
-0.1037227634
  0
VERTEX
  8
LAYER_1
 10
150.8318
 20
-251.3604
 42
-0.0985967677
  0
VERTEX
  8
LAYER_1
 10
151.0013
 20
-251.2481
 42
-0.0957287822
  0
VERTEX
  8
LAYER_1
 10
151.2139
 20
-251.2071
 42
-0.1016365741
  0
VERTEX
  8
LAYER_1
 10
151.4264
 20
-251.2481
 42
-0.09861864621
  0
VERTEX
  8
LAYER_1
 10
151.5963
 20
-251.3604
 42
-0.09487953686
  0
VERTEX
  8
LAYER_1
 10
151.7086
 20
-251.5306
 42
-0.09256741039
  0
SEQEND
  0
POLYLINE
  8
LAYER_1
 40
0.05
 41
0.05
 66
1
 10
0
 20
0
 30
0
 70
1
  0
VERTEX
  8
LAYER_1
 10
151.639
 20
-251.7476
  0
VERTEX
  8
LAYER_1
 10
151.61
 20
-251.5767
  0
VERTEX
  8
LAYER_1
 10
151.526
 20
-251.4344
  0
VERTEX
  8
LAYER_1
 10
151.3916
 20
-251.337
 42
0.1025075331
  0
VERTEX
  8
LAYER_1
 10
151.2139
 20
-251.3001
 42
0.118884027
  0
VERTEX
  8
LAYER_1
 10
151.0361
 20
-251.337
  0
VERTEX
  8
LAYER_1
 10
150.9017
 20
-251.4344
  0
VERTEX
  8
LAYER_1
 10
150.818
 20
-251.5767
  0
VERTEX
  8
LAYER_1
 10
150.7887
 20
-251.7476
  0
VERTEX
  8
LAYER_1
 10
150.818
 20
-251.9188
  0
VERTEX
  8
LAYER_1
 10
150.9017
 20
-252.0607
  0
VERTEX
  8
LAYER_1
 10
151.0361
 20
-252.1575
 42
0.100589677
  0
VERTEX
  8
LAYER_1
 10
151.2139
 20
-252.1937
  0
VERTEX
  8
LAYER_1
 10
151.3916
 20
-252.1575
  0
VERTEX
  8
LAYER_1
 10
151.526
 20
-252.0607
  0
VERTEX
  8
LAYER_1
 10
151.61
 20
-251.9188
  0
SEQEND
  0
ENDBLK
  0
BLOCK
  8
LAYER_1
  2
AIGNBL01030019
 70
64
 10
0
 20
0
 30
0
  3
AIGNBL01030019
  0
POLYLINE
  8
LAYER_1
 40
0.05
 41
0.05
 66
1
 10
0
 20
0
 30
0
 70
1
  0
VERTEX
  8
LAYER_1
 10
152.6742
 20
-252.0839
  0
VERTEX
  8
LAYER_1
 10
152.6756
 20
-252.0839
  0
VERTEX
  8
LAYER_1
 10
153.0194
 20
-251.2339
  0
VERTEX
  8
LAYER_1
 10
153.1793
 20
-251.2339
  0
VERTEX
  8
LAYER_1
 10
153.1793
 20
-252.2609
  0
VERTEX
  8
LAYER_1
 10
153.0749
 20
-252.2609
  0
VERTEX
  8
LAYER_1
 10
153.0749
 20
-251.3686
  0
VERTEX
  8
LAYER_1
 10
153.0718
 20
-251.3686
  0
VERTEX
  8
LAYER_1
 10
152.7007
 20
-252.2609
  0
VERTEX
  8
LAYER_1
 10
152.646
 20
-252.2609
  0
VERTEX
  8
LAYER_1
 10
152.2743
 20
-251.3686
  0
VERTEX
  8
LAYER_1
 10
152.2708
 20
-251.3686
  0
VERTEX
  8
LAYER_1
 10
152.2708
 20
-252.2609
  0
VERTEX
  8
LAYER_1
 10
152.1668
 20
-252.2609
  0
VERTEX
  8
LAYER_1
 10
152.1668
 20
-251.2339
  0
VERTEX
  8
LAYER_1
 10
152.327
 20
-251.2339
  0
SEQEND
  0
ENDBLK
  0
BLOCK
  8
LAYER_1
  2
AIGNBL0103001A
 70
64
 10
0
 20
0
 30
0
  3
AIGNBL0103001A
  0
POLYLINE
  8
LAYER_1
 40
0.05
 41
0.05
 66
1
 10
0
 20
0
 30
0
 70
1
  0
VERTEX
  8
LAYER_1
 10
154.3196
 20
-252.1676
  0
VERTEX
  8
LAYER_1
 10
154.8694
 20
-252.1676
  0
VERTEX
  8
LAYER_1
 10
154.8694
 20
-252.2609
  0
VERTEX
  8
LAYER_1
 10
154.2145
 20
-252.2609
  0
VERTEX
  8
LAYER_1
 10
154.2145
 20
-251.2339
  0
VERTEX
  8
LAYER_1
 10
154.8522
 20
-251.2339
  0
VERTEX
  8
LAYER_1
 10
154.8522
 20
-251.3263
  0
VERTEX
  8
LAYER_1
 10
154.3196
 20
-251.3263
  0
VERTEX
  8
LAYER_1
 10
154.3196
 20
-251.6787
  0
VERTEX
  8
LAYER_1
 10
154.8167
 20
-251.6787
  0
VERTEX
  8
LAYER_1
 10
154.8167
 20
-251.7717
  0
VERTEX
  8
LAYER_1
 10
154.3196
 20
-251.7717
  0
SEQEND
  0
ENDBLK
  0
BLOCK
  8
LAYER_1
  2
AIGNBL0103001B
 70
64
 10
0
 20
0
 30
0
  3
AIGNBL0103001B
  0
POLYLINE
  8
LAYER_1
 40
0.05
 41
0.05
 66
1
 10
0
 20
0
 30
0
 70
1
  0
VERTEX
  8
LAYER_1
 10
155.6101
 20
-251.6484
  0
VERTEX
  8
LAYER_1
 10
155.8906
 20
-251.2339
  0
VERTEX
  8
LAYER_1
 10
156.0153
 20
-251.2339
  0
VERTEX
  8
LAYER_1
 10
155.6749
 20
-251.7221
  0
VERTEX
  8
LAYER_1
 10
156.0518
 20
-252.2609
  0
VERTEX
  8
LAYER_1
 10
155.9216
 20
-252.2609
  0
VERTEX
  8
LAYER_1
 10
155.6081
 20
-251.7979
  0
VERTEX
  8
LAYER_1
 10
155.296
 20
-252.2609
  0
VERTEX
  8
LAYER_1
 10
155.165
 20
-252.2609
  0
VERTEX
  8
LAYER_1
 10
155.5426
 20
-251.7211
  0
VERTEX
  8
LAYER_1
 10
155.1988
 20
-251.2339
  0
VERTEX
  8
LAYER_1
 10
155.329
 20
-251.2339
  0
SEQEND
  0
ENDBLK
  0
BLOCK
  8
LAYER_1
  2
AIGNBL0103001C
 70
64
 10
0
 20
0
 30
0
  3
AIGNBL0103001C
  0
POLYLINE
  8
LAYER_1
 40
0.05
 41
0.05
 66
1
 10
0
 20
0
 30
0
 70
1
  0
VERTEX
  8
LAYER_1
 10
156.4159
 20
-251.2339
  0
VERTEX
  8
LAYER_1
 10
156.706
 20
-251.2339
  0
VERTEX
  8
LAYER_1
 10
156.8487
 20
-251.2498
  0
VERTEX
  8
LAYER_1
 10
156.9575
 20
-251.3015
  0
VERTEX
  8
LAYER_1
 10
157.0288
 20
-251.3866
  0
VERTEX
  8
LAYER_1
 10
157.053
 20
-251.5078
  0
VERTEX
  8
LAYER_1
 10
157.0281
 20
-251.6291
  0
VERTEX
  8
LAYER_1
 10
156.9568
 20
-251.7145
  0
VERTEX
  8
LAYER_1
 10
156.8459
 20
-251.7659
  0
VERTEX
  8
LAYER_1
 10
156.7032
 20
-251.7831
  0
VERTEX
  8
LAYER_1
 10
156.5203
 20
-251.7831
  0
VERTEX
  8
LAYER_1
 10
156.5203
 20
-252.2609
  0
VERTEX
  8
LAYER_1
 10
156.4159
 20
-252.2609
  0
SEQEND
  0
POLYLINE
  8
LAYER_1
 40
0.05
 41
0.05
 66
1
 10
0
 20
0
 30
0
 70
1
  0
VERTEX
  8
LAYER_1
 10
156.5203
 20
-251.6949
  0
VERTEX
  8
LAYER_1
 10
156.6974
 20
-251.6949
 42
0.179800284
  0
VERTEX
  8
LAYER_1
 10
156.8848
 20
-251.6474
 42
0.2343125845
  0
VERTEX
  8
LAYER_1
 10
156.9489
 20
-251.5078
 42
0.2635647854
  0
VERTEX
  8
LAYER_1
 10
156.8824
 20
-251.3676
 42
0.1265134521
  0
VERTEX
  8
LAYER_1
 10
156.6974
 20
-251.3235
  0
VERTEX
  8
LAYER_1
 10
156.5203
 20
-251.3235
  0
SEQEND
  0
ENDBLK
  0
BLOCK
  8
LAYER_1
  2
AIGNBL0103001D
 70
64
 10
0
 20
0
 30
0
  3
AIGNBL0103001D
  0
POLYLINE
  8
LAYER_1
 40
0.05
 41
0.05
 66
1
 10
0
 20
0
 30
0
 70
1
  0
VERTEX
  8
LAYER_1
 10
157.5621
 20
-252.1676
  0
VERTEX
  8
LAYER_1
 10
158.1116
 20
-252.1676
  0
VERTEX
  8
LAYER_1
 10
158.1116
 20
-252.2609
  0
VERTEX
  8
LAYER_1
 10
157.4577
 20
-252.2609
  0
VERTEX
  8
LAYER_1
 10
157.4577
 20
-251.2339
  0
VERTEX
  8
LAYER_1
 10
158.0947
 20
-251.2339
  0
VERTEX
  8
LAYER_1
 10
158.0947
 20
-251.3263
  0
VERTEX
  8
LAYER_1
 10
157.5621
 20
-251.3263
  0
VERTEX
  8
LAYER_1
 10
157.5621
 20
-251.6787
  0
VERTEX
  8
LAYER_1
 10
158.0599
 20
-251.6787
  0
VERTEX
  8
LAYER_1
 10
158.0599
 20
-251.7717
  0
VERTEX
  8
LAYER_1
 10
157.5621
 20
-251.7717
  0
SEQEND
  0
ENDBLK
  0
BLOCK
  8
LAYER_1
  2
AIGNBL0103001E
 70
64
 10
0
 20
0
 30
0
  3
AIGNBL0103001E
  0
POLYLINE
  8
LAYER_1
 40
0.05
 41
0.05
 66
1
 10
0
 20
0
 30
0
 70
1
  0
VERTEX
  8
LAYER_1
 10
158.6208
 20
-252.2609
  0
VERTEX
  8
LAYER_1
 10
158.5168
 20
-252.2609
  0
VERTEX
  8
LAYER_1
 10
158.5168
 20
-251.2339
  0
VERTEX
  8
LAYER_1
 10
158.8185
 20
-251.2339
  0
VERTEX
  8
LAYER_1
 10
158.9584
 20
-251.2481
  0
VERTEX
  8
LAYER_1
 10
159.07
 20
-251.2953
  0
VERTEX
  8
LAYER_1
 10
159.1438
 20
-251.38
  0
VERTEX
  8
LAYER_1
 10
159.1696
 20
-251.5078
  0
VERTEX
  8
LAYER_1
 10
159.1493
 20
-251.6105
  0
VERTEX
  8
LAYER_1
 10
159.0945
 20
-251.6915
  0
VERTEX
  8
LAYER_1
 10
159.0111
 20
-251.7459
  0
VERTEX
  8
LAYER_1
 10
158.9067
 20
-251.7717
  0
VERTEX
  8
LAYER_1
 10
159.2075
 20
-252.2609
  0
VERTEX
  8
LAYER_1
 10
159.08
 20
-252.2609
  0
VERTEX
  8
LAYER_1
 10
158.7955
 20
-251.7803
  0
VERTEX
  8
LAYER_1
 10
158.6208
 20
-251.7803
  0
SEQEND
  0
POLYLINE
  8
LAYER_1
 40
0.05
 41
0.05
 66
1
 10
0
 20
0
 30
0
 70
1
  0
VERTEX
  8
LAYER_1
 10
158.6208
 20
-251.69
  0
VERTEX
  8
LAYER_1
 10
158.8027
 20
-251.69
 42
0.1625850216
  0
VERTEX
  8
LAYER_1
 10
158.9974
 20
-251.6453
 42
0.2500143464
  0
VERTEX
  8
LAYER_1
 10
159.0652
 20
-251.5078
  0
VERTEX
  8
LAYER_1
 10
159.047
 20
-251.4224
  0
VERTEX
  8
LAYER_1
 10
158.9943
 20
-251.3652
  0
VERTEX
  8
LAYER_1
 10
158.9123
 20
-251.3338
  0
VERTEX
  8
LAYER_1
 10
158.8065
 20
-251.3235
  0
VERTEX
  8
LAYER_1
 10
158.6208
 20
-251.3235
  0
SEQEND
  0
ENDBLK
  0
BLOCK
  8
LAYER_1
  2
AIGNBL0103001F
 70
64
 10
0
 20
0
 30
0
  3
AIGNBL0103001F
  0
POLYLINE
  8
LAYER_1
 40
0.05
 41
0.05
 66
1
 10
0
 20
0
 30
0
 70
1
  0
VERTEX
  8
LAYER_1
 10
159.6898
 20
-252.2609
  0
VERTEX
  8
LAYER_1
 10
159.5865
 20
-252.2609
  0
VERTEX
  8
LAYER_1
 10
159.5865
 20
-251.2339
  0
VERTEX
  8
LAYER_1
 10
159.6898
 20
-251.2339
  0
SEQEND
  0
ENDBLK
  0
BLOCK
  8
LAYER_1
  2
AIGNBL01030020
 70
64
 10
0
 20
0
 30
0
  3
AIGNBL01030020
  0
POLYLINE
  8
LAYER_1
 40
0.05
 41
0.05
 66
1
 10
0
 20
0
 30
0
 70
1
  0
VERTEX
  8
LAYER_1
 10
160.2676
 20
-252.1676
  0
VERTEX
  8
LAYER_1
 10
160.8174
 20
-252.1676
  0
VERTEX
  8
LAYER_1
 10
160.8174
 20
-252.2609
  0
VERTEX
  8
LAYER_1
 10
160.1639
 20
-252.2609
  0
VERTEX
  8
LAYER_1
 10
160.1639
 20
-251.2339
  0
VERTEX
  8
LAYER_1
 10
160.8005
 20
-251.2339
  0
VERTEX
  8
LAYER_1
 10
160.8005
 20
-251.3263
  0
VERTEX
  8
LAYER_1
 10
160.2676
 20
-251.3263
  0
VERTEX
  8
LAYER_1
 10
160.2676
 20
-251.6787
  0
VERTEX
  8
LAYER_1
 10
160.7654
 20
-251.6787
  0
VERTEX
  8
LAYER_1
 10
160.7654
 20
-251.7717
  0
VERTEX
  8
LAYER_1
 10
160.2676
 20
-251.7717
  0
SEQEND
  0
ENDBLK
  0
BLOCK
  8
LAYER_1
  2
AIGNBL01030021
 70
64
 10
0
 20
0
 30
0
  3
AIGNBL01030021
  0
POLYLINE
  8
LAYER_1
 40
0.05
 41
0.05
 66
1
 10
0
 20
0
 30
0
 70
1
  0
VERTEX
  8
LAYER_1
 10
161.9505
 20
-252.1079
  0
VERTEX
  8
LAYER_1
 10
161.9536
 20
-252.1079
  0
VERTEX
  8
LAYER_1
 10
161.9536
 20
-251.2339
  0
VERTEX
  8
LAYER_1
 10
162.058
 20
-251.2339
  0
VERTEX
  8
LAYER_1
 10
162.058
 20
-252.2609
  0
VERTEX
  8
LAYER_1
 10
161.9277
 20
-252.2609
  0
VERTEX
  8
LAYER_1
 10
161.3297
 20
-251.3772
  0
VERTEX
  8
LAYER_1
 10
161.3266
 20
-251.3772
  0
VERTEX
  8
LAYER_1
 10
161.3266
 20
-252.2609
  0
VERTEX
  8
LAYER_1
 10
161.2222
 20
-252.2609
  0
VERTEX
  8
LAYER_1
 10
161.2222
 20
-251.2339
  0
VERTEX
  8
LAYER_1
 10
161.3535
 20
-251.2339
  0
SEQEND
  0
ENDBLK
  0
BLOCK
  8
LAYER_1
  2
AIGNBL01030022
 70
64
 10
0
 20
0
 30
0
  3
AIGNBL01030022
  0
POLYLINE
  8
LAYER_1
 40
0.05
 41
0.05
 66
1
 10
0
 20
0
 30
0
 70
1
  0
VERTEX
  8
LAYER_1
 10
163.396
 20
-252.0942
  0
VERTEX
  8
LAYER_1
 10
163.3323
 20
-252.1679
  0
VERTEX
  8
LAYER_1
 10
163.2469
 20
-252.2295
  0
VERTEX
  8
LAYER_1
 10
163.1394
 20
-252.2716
  0
VERTEX
  8
LAYER_1
 10
163.0112
 20
-252.2868
 42
-0.1009164681
  0
VERTEX
  8
LAYER_1
 10
162.7966
 20
-252.2461
 42
-0.1027581013
  0
VERTEX
  8
LAYER_1
 10
162.6271
 20
-252.1335
 42
-0.1010578842
  0
VERTEX
  8
LAYER_1
 10
162.5162
 20
-251.9633
 42
-0.09298732079
  0
VERTEX
  8
LAYER_1
 10
162.4759
 20
-251.7469
 42
-0.1023262951
  0
VERTEX
  8
LAYER_1
 10
162.5169
 20
-251.5306
 42
-0.1009138363
  0
VERTEX
  8
LAYER_1
 10
162.6285
 20
-251.3604
  0
VERTEX
  8
LAYER_1
 10
162.798
 20
-251.2481
 42
-0.09535690024
  0
VERTEX
  8
LAYER_1
 10
163.0112
 20
-251.2071
  0
VERTEX
  8
LAYER_1
 10
163.1222
 20
-251.2191
  0
VERTEX
  8
LAYER_1
 10
163.2252
 20
-251.2522
  0
VERTEX
  8
LAYER_1
 10
163.3117
 20
-251.3035
  0
VERTEX
  8
LAYER_1
 10
163.3767
 20
-251.3711
  0
VERTEX
  8
LAYER_1
 10
163.2906
 20
-251.4355
  0
VERTEX
  8
LAYER_1
 10
163.2469
 20
-251.3858
  0
VERTEX
  8
LAYER_1
 10
163.1835
 20
-251.3421
  0
VERTEX
  8
LAYER_1
 10
163.1043
 20
-251.3114
  0
VERTEX
  8
LAYER_1
 10
163.0126
 20
-251.3001
  0
VERTEX
  8
LAYER_1
 10
162.8338
 20
-251.3362
  0
VERTEX
  8
LAYER_1
 10
162.6998
 20
-251.4338
  0
VERTEX
  8
LAYER_1
 10
162.6147
 20
-251.5764
  0
VERTEX
  8
LAYER_1
 10
162.5868
 20
-251.7469
  0
VERTEX
  8
LAYER_1
 10
162.6164
 20
-251.9178
  0
VERTEX
  8
LAYER_1
 10
162.7012
 20
-252.0601
  0
VERTEX
  8
LAYER_1
 10
162.8356
 20
-252.1575
 42
0.1012189446
  0
VERTEX
  8
LAYER_1
 10
163.0126
 20
-252.1937
  0
VERTEX
  8
LAYER_1
 10
163.1804
 20
-252.1575
 42
0.1297589768
  0
VERTEX
  8
LAYER_1
 10
163.3148
 20
-252.0414
  0
SEQEND
  0
ENDBLK
  0
BLOCK
  8
LAYER_1
  2
AIGNBL01030023
 70
64
 10
0
 20
0
 30
0
  3
AIGNBL01030023
  0
POLYLINE
  8
LAYER_1
 40
0.05
 41
0.05
 66
1
 10
0
 20
0
 30
0
 70
1
  0
VERTEX
  8
LAYER_1
 10
163.8801
 20
-252.1676
  0
VERTEX
  8
LAYER_1
 10
164.4299
 20
-252.1676
  0
VERTEX
  8
LAYER_1
 10
164.4299
 20
-252.2609
  0
VERTEX
  8
LAYER_1
 10
163.7764
 20
-252.2609
  0
VERTEX
  8
LAYER_1
 10
163.7764
 20
-251.2339
  0
VERTEX
  8
LAYER_1
 10
164.4127
 20
-251.2339
  0
VERTEX
  8
LAYER_1
 10
164.4127
 20
-251.3263
  0
VERTEX
  8
LAYER_1
 10
163.8801
 20
-251.3263
  0
VERTEX
  8
LAYER_1
 10
163.8801
 20
-251.6787
  0
VERTEX
  8
LAYER_1
 10
164.3782
 20
-251.6787
  0
VERTEX
  8
LAYER_1
 10
164.3782
 20
-251.7717
  0
VERTEX
  8
LAYER_1
 10
163.8801
 20
-251.7717
  0
SEQEND
  0
ENDBLK
  0
BLOCK
  8
LAYER_1
  2
AIGNBL01020003
 70
64
 10
0
 20
0
 30
0
  3
AIGNBL01020003
  0
INSERT
  8
LAYER_1
  2
AIGNBL01030004
 10
0
 20
0
 30
0
  0
ENDBLK
  0
BLOCK
  8
LAYER_1
  2
AIGNBL0102000C
 70
64
 10
0
 20
0
 30
0
  3
AIGNBL0102000C
  0
INSERT
  8
LAYER_1
  2
AIGNBL0103000D
 10
0
 20
0
 30
0
  0
INSERT
  8
LAYER_1
  2
AIGNBL0103000E
 10
0
 20
0
 30
0
  0
INSERT
  8
LAYER_1
  2
AIGNBL0103000F
 10
0
 20
0
 30
0
  0
INSERT
  8
LAYER_1
  2
AIGNBL01030010
 10
0
 20
0
 30
0
  0
INSERT
  8
LAYER_1
  2
AIGNBL01030011
 10
0
 20
0
 30
0
  0
INSERT
  8
LAYER_1
  2
AIGNBL01030012
 10
0
 20
0
 30
0
  0
INSERT
  8
LAYER_1
  2
AIGNBL01030013
 10
0
 20
0
 30
0
  0
INSERT
  8
LAYER_1
  2
AIGNBL01030014
 10
0
 20
0
 30
0
  0
INSERT
  8
LAYER_1
  2
AIGNBL01030015
 10
0
 20
0
 30
0
  0
INSERT
  8
LAYER_1
  2
AIGNBL01030016
 10
0
 20
0
 30
0
  0
INSERT
  8
LAYER_1
  2
AIGNBL01030017
 10
0
 20
0
 30
0
  0
INSERT
  8
LAYER_1
  2
AIGNBL01030018
 10
0
 20
0
 30
0
  0
INSERT
  8
LAYER_1
  2
AIGNBL01030019
 10
0
 20
0
 30
0
  0
INSERT
  8
LAYER_1
  2
AIGNBL0103001A
 10
0
 20
0
 30
0
  0
INSERT
  8
LAYER_1
  2
AIGNBL0103001B
 10
0
 20
0
 30
0
  0
INSERT
  8
LAYER_1
  2
AIGNBL0103001C
 10
0
 20
0
 30
0
  0
INSERT
  8
LAYER_1
  2
AIGNBL0103001D
 10
0
 20
0
 30
0
  0
INSERT
  8
LAYER_1
  2
AIGNBL0103001E
 10
0
 20
0
 30
0
  0
INSERT
  8
LAYER_1
  2
AIGNBL0103001F
 10
0
 20
0
 30
0
  0
INSERT
  8
LAYER_1
  2
AIGNBL01030020
 10
0
 20
0
 30
0
  0
INSERT
  8
LAYER_1
  2
AIGNBL01030021
 10
0
 20
0
 30
0
  0
INSERT
  8
LAYER_1
  2
AIGNBL01030022
 10
0
 20
0
 30
0
  0
INSERT
  8
LAYER_1
  2
AIGNBL01030023
 10
0
 20
0
 30
0
  0
ENDBLK
  0
BLOCK
  8
LAYER_6
  2
AIGNBL06020004
 70
64
 10
0
 20
0
 30
0
  3
AIGNBL06020004
  0
POLYLINE
  8
LAYER_6
 40
0.7056
 41
0.7056
 66
1
 10
0
 20
0
 30
0
  0
VERTEX
  8
LAYER_6
 10
178.117
 20
-106.3648
  0
SEQEND
  0
ENDBLK
  0
BLOCK
  8
LAYER_6
  2
AIGNBL06020006
 70
64
 10
0
 20
0
 30
0
  3
AIGNBL06020006
  0
POLYLINE
  8
LAYER_6
 40
0.0353
 41
0.0353
 66
1
 10
0
 20
0
 30
0
  0
VERTEX
  8
LAYER_6
 10
70.4219
 20
-73.8683
  0
VERTEX
  8
LAYER_6
 10
70.6719
 20
-72.3683
  0
SEQEND
  0
POLYLINE
  8
LAYER_6
 40
0.0353
 41
0.0353
 66
1
 10
0
 20
0
 30
0
  0
VERTEX
  8
LAYER_6
 10
70.6719
 20
-73.8683
  0
VERTEX
  8
LAYER_6
 10
70.6719
 20
-72.3683
  0
VERTEX
  8
LAYER_6
 10
70.9219
 20
-73.8683
  0
SEQEND
  0
ENDBLK
  0
BLOCK
  8
LAYER_6
  2
AIGNBL06020007
 70
64
 10
0
 20
0
 30
0
  3
AIGNBL06020007
  0
POLYLINE
  8
LAYER_6
 40
0.0353
 41
0.0353
 66
1
 10
0
 20
0
 30
0
  0
VERTEX
  8
LAYER_6
 10
70.9219
 20
-91.6153
  0
VERTEX
  8
LAYER_6
 10
70.6719
 20
-93.1153
  0
SEQEND
  0
POLYLINE
  8
LAYER_6
 40
0.0353
 41
0.0353
 66
1
 10
0
 20
0
 30
0
  0
VERTEX
  8
LAYER_6
 10
70.6719
 20
-91.6153
  0
VERTEX
  8
LAYER_6
 10
70.6719
 20
-93.1153
  0
VERTEX
  8
LAYER_6
 10
70.4219
 20
-91.6153
  0
SEQEND
  0
ENDBLK
  0
BLOCK
  8
LAYER_6
  2
AIGNBL06020008
 70
64
 10
0
 20
0
 30
0
  3
AIGNBL06020008
  0
POLYLINE
  8
LAYER_6
 40
0.7056
 41
0.7056
 66
1
 10
0
 20
0
 30
0
  0
VERTEX
  8
LAYER_6
 10
81.1719
 20
-72.3683
  0
SEQEND
  0
ENDBLK
  0
BLOCK
  8
LAYER_6
  2
AIGNBL06020009
 70
64
 10
0
 20
0
 30
0
  3
AIGNBL06020009
  0
POLYLINE
  8
LAYER_6
 40
0.7056
 41
0.7056
 66
1
 10
0
 20
0
 30
0
  0
VERTEX
  8
LAYER_6
 10
77.3319
 20
-93.1153
  0
SEQEND
  0
ENDBLK
  0
BLOCK
  8
LAYER_6
  2
AIGNBL0602000A
 70
64
 10
0
 20
0
 30
0
  3
AIGNBL0602000A
  0
POLYLINE
  8
LAYER_6
 40
0.7056
 41
0.7056
 66
1
 10
0
 20
0
 30
0
  0
VERTEX
  8
LAYER_6
 10
70.6719
 20
-93.1153
  0
SEQEND
  0
ENDBLK
  0
BLOCK
  8
LAYER_6
  2
AIGNBL0602000C
 70
64
 10
0
 20
0
 30
0
  3
AIGNBL0602000C
  0
POLYLINE
  8
LAYER_6
 40
0.0353
 41
0.0353
 66
1
 10
0
 20
0
 30
0
  0
VERTEX
  8
LAYER_6
 10
139.9018
 20
-94.6108
  0
VERTEX
  8
LAYER_6
 10
140.1518
 20
-93.1108
  0
SEQEND
  0
POLYLINE
  8
LAYER_6
 40
0.0353
 41
0.0353
 66
1
 10
0
 20
0
 30
0
  0
VERTEX
  8
LAYER_6
 10
140.1518
 20
-94.6108
  0
VERTEX
  8
LAYER_6
 10
140.1518
 20
-93.1108
  0
VERTEX
  8
LAYER_6
 10
140.4018
 20
-94.6108
  0
SEQEND
  0
ENDBLK
  0
BLOCK
  8
LAYER_6
  2
AIGNBL0602000D
 70
64
 10
0
 20
0
 30
0
  3
AIGNBL0602000D
  0
POLYLINE
  8
LAYER_6
 40
0.0353
 41
0.0353
 66
1
 10
0
 20
0
 30
0
  0
VERTEX
  8
LAYER_6
 10
140.4018
 20
-100.7108
  0
VERTEX
  8
LAYER_6
 10
140.1518
 20
-102.2108
  0
SEQEND
  0
POLYLINE
  8
LAYER_6
 40
0.0353
 41
0.0353
 66
1
 10
0
 20
0
 30
0
  0
VERTEX
  8
LAYER_6
 10
140.1518
 20
-100.7108
  0
VERTEX
  8
LAYER_6
 10
140.1518
 20
-102.2108
  0
VERTEX
  8
LAYER_6
 10
139.9018
 20
-100.7108
  0
SEQEND
  0
ENDBLK
  0
BLOCK
  8
LAYER_6
  2
AIGNBL0602000E
 70
64
 10
0
 20
0
 30
0
  3
AIGNBL0602000E
  0
POLYLINE
  8
LAYER_6
 40
0.7056
 41
0.7056
 66
1
 10
0
 20
0
 30
0
  0
VERTEX
  8
LAYER_6
 10
167.0264
 20
-93.1108
  0
SEQEND
  0
ENDBLK
  0
BLOCK
  8
LAYER_6
  2
AIGNBL0602000F
 70
64
 10
0
 20
0
 30
0
  3
AIGNBL0602000F
  0
POLYLINE
  8
LAYER_6
 40
0.7056
 41
0.7056
 66
1
 10
0
 20
0
 30
0
  0
VERTEX
  8
LAYER_6
 10
169.0709
 20
-102.2108
  0
SEQEND
  0
ENDBLK
  0
BLOCK
  8
LAYER_6
  2
AIGNBL06020010
 70
64
 10
0
 20
0
 30
0
  3
AIGNBL06020010
  0
POLYLINE
  8
LAYER_6
 40
0.7056
 41
0.7056
 66
1
 10
0
 20
0
 30
0
  0
VERTEX
  8
LAYER_6
 10
140.1518
 20
-102.2108
  0
SEQEND
  0
ENDBLK
  0
BLOCK
  8
LAYER_6
  2
AIGNBL06020012
 70
64
 10
0
 20
0
 30
0
  3
AIGNBL06020012
  0
POLYLINE
  8
LAYER_6
 40
0.0353
 41
0.0353
 66
1
 10
0
 20
0
 30
0
  0
VERTEX
  8
LAYER_6
 10
160.6164
 20
-94.6108
  0
VERTEX
  8
LAYER_6
 10
160.8664
 20
-93.1108
  0
SEQEND
  0
POLYLINE
  8
LAYER_6
 40
0.0353
 41
0.0353
 66
1
 10
0
 20
0
 30
0
  0
VERTEX
  8
LAYER_6
 10
160.8664
 20
-94.6108
  0
VERTEX
  8
LAYER_6
 10
160.8664
 20
-93.1108
  0
VERTEX
  8
LAYER_6
 10
161.1164
 20
-94.6108
  0
SEQEND
  0
ENDBLK
  0
BLOCK
  8
LAYER_6
  2
AIGNBL06020013
 70
64
 10
0
 20
0
 30
0
  3
AIGNBL06020013
  0
POLYLINE
  8
LAYER_6
 40
0.0353
 41
0.0353
 66
1
 10
0
 20
0
 30
0
  0
VERTEX
  8
LAYER_6
 10
161.1164
 20
-96.9108
  0
VERTEX
  8
LAYER_6
 10
160.8664
 20
-98.4108
  0
SEQEND
  0
POLYLINE
  8
LAYER_6
 40
0.0353
 41
0.0353
 66
1
 10
0
 20
0
 30
0
  0
VERTEX
  8
LAYER_6
 10
160.8664
 20
-96.9108
  0
VERTEX
  8
LAYER_6
 10
160.8664
 20
-98.4108
  0
VERTEX
  8
LAYER_6
 10
160.6164
 20
-96.9108
  0
SEQEND
  0
ENDBLK
  0
BLOCK
  8
LAYER_6
  2
AIGNBL06020014
 70
64
 10
0
 20
0
 30
0
  3
AIGNBL06020014
  0
POLYLINE
  8
LAYER_6
 40
0.7056
 41
0.7056
 66
1
 10
0
 20
0
 30
0
  0
VERTEX
  8
LAYER_6
 10
170.8664
 20
-98.4108
  0
SEQEND
  0
ENDBLK
  0
BLOCK
  8
LAYER_6
  2
AIGNBL06020015
 70
64
 10
0
 20
0
 30
0
  3
AIGNBL06020015
  0
POLYLINE
  8
LAYER_6
 40
0.7056
 41
0.7056
 66
1
 10
0
 20
0
 30
0
  0
VERTEX
  8
LAYER_6
 10
170.8664
 20
-93.1108
  0
SEQEND
  0
ENDBLK
  0
BLOCK
  8
LAYER_6
  2
AIGNBL06020016
 70
64
 10
0
 20
0
 30
0
  3
AIGNBL06020016
  0
POLYLINE
  8
LAYER_6
 40
0.7056
 41
0.7056
 66
1
 10
0
 20
0
 30
0
  0
VERTEX
  8
LAYER_6
 10
160.8664
 20
-93.1108
  0
SEQEND
  0
ENDBLK
  0
BLOCK
  8
LAYER_6
  2
AIGNBL06020018
 70
64
 10
0
 20
0
 30
0
  3
AIGNBL06020018
  0
POLYLINE
  8
LAYER_6
 40
0.0353
 41
0.0353
 66
1
 10
0
 20
0
 30
0
  0
VERTEX
  8
LAYER_6
 10
143.5874
 20
-94.8449
  0
VERTEX
  8
LAYER_6
 10
144.5738
 20
-96.0022
  0
SEQEND
  0
POLYLINE
  8
LAYER_6
 40
0.0353
 41
0.0353
 66
1
 10
0
 20
0
 30
0
  0
VERTEX
  8
LAYER_6
 10
143.4264
 20
-95.0361
  0
VERTEX
  8
LAYER_6
 10
144.5738
 20
-96.0022
  0
VERTEX
  8
LAYER_6
 10
143.2654
 20
-95.2274
  0
SEQEND
  0
ENDBLK
  0
BLOCK
  8
LAYER_6
  2
AIGNBL06020019
 70
64
 10
0
 20
0
 30
0
  3
AIGNBL06020019
  0
POLYLINE
  8
LAYER_6
 40
0.0353
 41
0.0353
 66
1
 10
0
 20
0
 30
0
  0
VERTEX
  8
LAYER_6
 10
154.4442
 20
-98.9677
  0
VERTEX
  8
LAYER_6
 10
152.9329
 20
-98.7991
  0
SEQEND
  0
POLYLINE
  8
LAYER_6
 40
0.0353
 41
0.0353
 66
1
 10
0
 20
0
 30
0
  0
VERTEX
  8
LAYER_6
 10
154.4307
 20
-98.7181
  0
VERTEX
  8
LAYER_6
 10
152.9329
 20
-98.7991
  0
VERTEX
  8
LAYER_6
 10
154.4172
 20
-98.4685
  0
SEQEND
  0
ENDBLK
  0
BLOCK
  8
LAYER_6
  2
AIGNBL0602001A
 70
64
 10
0
 20
0
 30
0
  3
AIGNBL0602001A
  0
POLYLINE
  8
LAYER_6
 40
0.7056
 41
0.7056
 66
1
 10
0
 20
0
 30
0
  0
VERTEX
  8
LAYER_6
 10
147.1362
 20
-97.5317
  0
SEQEND
  0
ENDBLK
  0
BLOCK
  8
LAYER_6
  2
AIGNBL0602001B
 70
64
 10
0
 20
0
 30
0
  3
AIGNBL0602001B
  0
POLYLINE
  8
LAYER_6
 40
0.7056
 41
0.7056
 66
1
 10
0
 20
0
 30
0
  0
VERTEX
  8
LAYER_6
 10
152.9329
 20
-84.9093
  0
SEQEND
  0
ENDBLK
  0
BLOCK
  8
LAYER_6
  2
AIGNBL0602001C
 70
64
 10
0
 20
0
 30
0
  3
AIGNBL0602001C
  0
POLYLINE
  8
LAYER_6
 40
0.7056
 41
0.7056
 66
1
 10
0
 20
0
 30
0
  0
VERTEX
  8
LAYER_6
 10
152.9329
 20
-84.9093
  0
SEQEND
  0
ENDBLK
  0
BLOCK
  8
LAYER_6
  2
AIGNBL0602001D
 70
64
 10
0
 20
0
 30
0
  3
AIGNBL0602001D
  0
POLYLINE
  8
LAYER_6
 40
0.7056
 41
0.7056
 66
1
 10
0
 20
0
 30
0
  0
VERTEX
  8
LAYER_6
 10
152.9329
 20
-87.0749
  0
SEQEND
  0
ENDBLK
  0
BLOCK
  8
LAYER_6
  2
AIGNBL0602001E
 70
64
 10
0
 20
0
 30
0
  3
AIGNBL0602001E
  0
POLYLINE
  8
LAYER_6
 40
0.7056
 41
0.7056
 66
1
 10
0
 20
0
 30
0
  0
VERTEX
  8
LAYER_6
 10
151.625
 20
-86.645
  0
SEQEND
  0
ENDBLK
  0
BLOCK
  8
LAYER_6
  2
AIGNBL06020020
 70
64
 10
0
 20
0
 30
0
  3
AIGNBL06020020
  0
POLYLINE
  8
LAYER_6
 40
0.0353
 41
0.0353
 66
1
 10
0
 20
0
 30
0
  0
VERTEX
  8
LAYER_6
 10
151.8537
 20
-63.7538
  0
VERTEX
  8
LAYER_6
 10
150.3537
 20
-63.5038
  0
SEQEND
  0
POLYLINE
  8
LAYER_6
 40
0.0353
 41
0.0353
 66
1
 10
0
 20
0
 30
0
  0
VERTEX
  8
LAYER_6
 10
151.8537
 20
-63.5038
  0
VERTEX
  8
LAYER_6
 10
150.3537
 20
-63.5038
  0
VERTEX
  8
LAYER_6
 10
151.8537
 20
-63.2538
  0
SEQEND
  0
ENDBLK
  0
BLOCK
  8
LAYER_6
  2
AIGNBL06020021
 70
64
 10
0
 20
0
 30
0
  3
AIGNBL06020021
  0
POLYLINE
  8
LAYER_6
 40
0.0353
 41
0.0353
 66
1
 10
0
 20
0
 30
0
  0
VERTEX
  8
LAYER_6
 10
169.3664
 20
-63.2538
  0
VERTEX
  8
LAYER_6
 10
170.8664
 20
-63.5038
  0
SEQEND
  0
POLYLINE
  8
LAYER_6
 40
0.0353
 41
0.0353
 66
1
 10
0
 20
0
 30
0
  0
VERTEX
  8
LAYER_6
 10
169.3664
 20
-63.5038
  0
VERTEX
  8
LAYER_6
 10
170.8664
 20
-63.5038
  0
VERTEX
  8
LAYER_6
 10
169.3664
 20
-63.7538
  0
SEQEND
  0
ENDBLK
  0
BLOCK
  8
LAYER_6
  2
AIGNBL06020022
 70
64
 10
0
 20
0
 30
0
  3
AIGNBL06020022
  0
POLYLINE
  8
LAYER_6
 40
0.7056
 41
0.7056
 66
1
 10
0
 20
0
 30
0
  0
VERTEX
  8
LAYER_6
 10
150.3537
 20
-82.7905
  0
SEQEND
  0
ENDBLK
  0
BLOCK
  8
LAYER_6
  2
AIGNBL06020023
 70
64
 10
0
 20
0
 30
0
  3
AIGNBL06020023
  0
POLYLINE
  8
LAYER_6
 40
0.7056
 41
0.7056
 66
1
 10
0
 20
0
 30
0
  0
VERTEX
  8
LAYER_6
 10
170.8664
 20
-82.5038
  0
SEQEND
  0
ENDBLK
  0
BLOCK
  8
LAYER_6
  2
AIGNBL06020024
 70
64
 10
0
 20
0
 30
0
  3
AIGNBL06020024
  0
POLYLINE
  8
LAYER_6
 40
0.7056
 41
0.7056
 66
1
 10
0
 20
0
 30
0
  0
VERTEX
  8
LAYER_6
 10
170.8664
 20
-63.5038
  0
SEQEND
  0
ENDBLK
  0
BLOCK
  8
LAYER_6
  2
AIGNBL06020026
 70
64
 10
0
 20
0
 30
0
  3
AIGNBL06020026
  0
POLYLINE
  8
LAYER_6
 40
0.0353
 41
0.0353
 66
1
 10
0
 20
0
 30
0
  0
VERTEX
  8
LAYER_6
 10
140.4018
 20
-91.6108
  0
VERTEX
  8
LAYER_6
 10
140.1518
 20
-93.1108
  0
SEQEND
  0
POLYLINE
  8
LAYER_6
 40
0.0353
 41
0.0353
 66
1
 10
0
 20
0
 30
0
  0
VERTEX
  8
LAYER_6
 10
140.1518
 20
-91.6108
  0
VERTEX
  8
LAYER_6
 10
140.1518
 20
-93.1108
  0
VERTEX
  8
LAYER_6
 10
139.9018
 20
-91.6108
  0
SEQEND
  0
ENDBLK
  0
BLOCK
  8
LAYER_6
  2
AIGNBL06020027
 70
64
 10
0
 20
0
 30
0
  3
AIGNBL06020027
  0
POLYLINE
  8
LAYER_6
 40
0.0353
 41
0.0353
 66
1
 10
0
 20
0
 30
0
  0
VERTEX
  8
LAYER_6
 10
139.9018
 20
-86.4093
  0
VERTEX
  8
LAYER_6
 10
140.1518
 20
-84.9093
  0
SEQEND
  0
POLYLINE
  8
LAYER_6
 40
0.0353
 41
0.0353
 66
1
 10
0
 20
0
 30
0
  0
VERTEX
  8
LAYER_6
 10
140.1518
 20
-86.4093
  0
VERTEX
  8
LAYER_6
 10
140.1518
 20
-84.9093
  0
VERTEX
  8
LAYER_6
 10
140.4018
 20
-86.4093
  0
SEQEND
  0
ENDBLK
  0
BLOCK
  8
LAYER_6
  2
AIGNBL06020028
 70
64
 10
0
 20
0
 30
0
  3
AIGNBL06020028
  0
POLYLINE
  8
LAYER_6
 40
0.7056
 41
0.7056
 66
1
 10
0
 20
0
 30
0
  0
VERTEX
  8
LAYER_6
 10
170.8664
 20
-93.1108
  0
SEQEND
  0
ENDBLK
  0
BLOCK
  8
LAYER_6
  2
AIGNBL06020029
 70
64
 10
0
 20
0
 30
0
  3
AIGNBL06020029
  0
POLYLINE
  8
LAYER_6
 40
0.7056
 41
0.7056
 66
1
 10
0
 20
0
 30
0
  0
VERTEX
  8
LAYER_6
 10
152.9329
 20
-84.9093
  0
SEQEND
  0
ENDBLK
  0
BLOCK
  8
LAYER_6
  2
AIGNBL0602002A
 70
64
 10
0
 20
0
 30
0
  3
AIGNBL0602002A
  0
POLYLINE
  8
LAYER_6
 40
0.7056
 41
0.7056
 66
1
 10
0
 20
0
 30
0
  0
VERTEX
  8
LAYER_6
 10
140.1518
 20
-84.9093
  0
SEQEND
  0
ENDBLK
  0
BLOCK
  8
LAYER_6
  2
AIGNBL0602002C
 70
64
 10
0
 20
0
 30
0
  3
AIGNBL0602002C
  0
POLYLINE
  8
LAYER_6
 40
0.0353
 41
0.0353
 66
1
 10
0
 20
0
 30
0
  0
VERTEX
  8
LAYER_6
 10
169.3664
 20
-88.5247
  0
VERTEX
  8
LAYER_6
 10
170.8664
 20
-88.7747
  0
SEQEND
  0
POLYLINE
  8
LAYER_6
 40
0.0353
 41
0.0353
 66
1
 10
0
 20
0
 30
0
  0
VERTEX
  8
LAYER_6
 10
169.3664
 20
-88.7747
  0
VERTEX
  8
LAYER_6
 10
170.8664
 20
-88.7747
  0
VERTEX
  8
LAYER_6
 10
169.3664
 20
-89.0247
  0
SEQEND
  0
ENDBLK
  0
BLOCK
  8
LAYER_6
  2
AIGNBL0602002D
 70
64
 10
0
 20
0
 30
0
  3
AIGNBL0602002D
  0
POLYLINE
  8
LAYER_6
 40
0.0353
 41
0.0353
 66
1
 10
0
 20
0
 30
0
  0
VERTEX
  8
LAYER_6
 10
154.4329
 20
-89.0247
  0
VERTEX
  8
LAYER_6
 10
152.9329
 20
-88.7747
  0
SEQEND
  0
POLYLINE
  8
LAYER_6
 40
0.0353
 41
0.0353
 66
1
 10
0
 20
0
 30
0
  0
VERTEX
  8
LAYER_6
 10
154.4329
 20
-88.7747
  0
VERTEX
  8
LAYER_6
 10
152.9329
 20
-88.7747
  0
VERTEX
  8
LAYER_6
 10
154.4329
 20
-88.5247
  0
SEQEND
  0
ENDBLK
  0
BLOCK
  8
LAYER_6
  2
AIGNBL0602002E
 70
64
 10
0
 20
0
 30
0
  3
AIGNBL0602002E
  0
POLYLINE
  8
LAYER_6
 40
0.7056
 41
0.7056
 66
1
 10
0
 20
0
 30
0
  0
VERTEX
  8
LAYER_6
 10
170.8664
 20
-90.5108
  0
SEQEND
  0
ENDBLK
  0
BLOCK
  8
LAYER_6
  2
AIGNBL0602002F
 70
64
 10
0
 20
0
 30
0
  3
AIGNBL0602002F
  0
POLYLINE
  8
LAYER_6
 40
0.7056
 41
0.7056
 66
1
 10
0
 20
0
 30
0
  0
VERTEX
  8
LAYER_6
 10
152.9329
 20
-84.9093
  0
SEQEND
  0
ENDBLK
  0
BLOCK
  8
LAYER_6
  2
AIGNBL06020030
 70
64
 10
0
 20
0
 30
0
  3
AIGNBL06020030
  0
POLYLINE
  8
LAYER_6
 40
0.7056
 41
0.7056
 66
1
 10
0
 20
0
 30
0
  0
VERTEX
  8
LAYER_6
 10
152.9329
 20
-88.7747
  0
SEQEND
  0
ENDBLK
  0
BLOCK
  8
LAYER_6
  2
AIGNBL06020032
 70
64
 10
0
 20
0
 30
0
  3
AIGNBL06020032
  0
POLYLINE
  8
LAYER_6
 40
0.0353
 41
0.0353
 66
1
 10
0
 20
0
 30
0
  0
VERTEX
  8
LAYER_6
 10
80.1319
 20
-87.7365
  0
VERTEX
  8
LAYER_6
 10
78.6319
 20
-87.4865
  0
SEQEND
  0
POLYLINE
  8
LAYER_6
 40
0.0353
 41
0.0353
 66
1
 10
0
 20
0
 30
0
  0
VERTEX
  8
LAYER_6
 10
80.1319
 20
-87.4865
  0
VERTEX
  8
LAYER_6
 10
78.6319
 20
-87.4865
  0
VERTEX
  8
LAYER_6
 10
80.1319
 20
-87.2365
  0
SEQEND
  0
ENDBLK
  0
BLOCK
  8
LAYER_6
  2
AIGNBL06020033
 70
64
 10
0
 20
0
 30
0
  3
AIGNBL06020033
  0
POLYLINE
  8
LAYER_6
 40
0.0353
 41
0.0353
 66
1
 10
0
 20
0
 30
0
  0
VERTEX
  8
LAYER_6
 10
82.2119
 20
-87.2365
  0
VERTEX
  8
LAYER_6
 10
83.7119
 20
-87.4865
  0
SEQEND
  0
POLYLINE
  8
LAYER_6
 40
0.0353
 41
0.0353
 66
1
 10
0
 20
0
 30
0
  0
VERTEX
  8
LAYER_6
 10
82.2119
 20
-87.4865
  0
VERTEX
  8
LAYER_6
 10
83.7119
 20
-87.4865
  0
VERTEX
  8
LAYER_6
 10
82.2119
 20
-87.7365
  0
SEQEND
  0
ENDBLK
  0
BLOCK
  8
LAYER_6
  2
AIGNBL06020034
 70
64
 10
0
 20
0
 30
0
  3
AIGNBL06020034
  0
POLYLINE
  8
LAYER_6
 40
0.7056
 41
0.7056
 66
1
 10
0
 20
0
 30
0
  0
VERTEX
  8
LAYER_6
 10
78.6319
 20
-90.4553
  0
SEQEND
  0
ENDBLK
  0
BLOCK
  8
LAYER_6
  2
AIGNBL06020035
 70
64
 10
0
 20
0
 30
0
  3
AIGNBL06020035
  0
POLYLINE
  8
LAYER_6
 40
0.7056
 41
0.7056
 66
1
 10
0
 20
0
 30
0
  0
VERTEX
  8
LAYER_6
 10
83.7119
 20
-90.4553
  0
SEQEND
  0
ENDBLK
  0
BLOCK
  8
LAYER_6
  2
AIGNBL06020036
 70
64
 10
0
 20
0
 30
0
  3
AIGNBL06020036
  0
POLYLINE
  8
LAYER_6
 40
0.7056
 41
0.7056
 66
1
 10
0
 20
0
 30
0
  0
VERTEX
  8
LAYER_6
 10
83.7119
 20
-87.4865
  0
SEQEND
  0
ENDBLK
  0
BLOCK
  8
LAYER_6
  2
AIGNBL06020038
 70
64
 10
0
 20
0
 30
0
  3
AIGNBL06020038
  0
POLYLINE
  8
LAYER_6
 40
0.0353
 41
0.0353
 66
1
 10
0
 20
0
 30
0
  0
VERTEX
  8
LAYER_6
 10
168.7664
 20
-182.6354
  0
VERTEX
  8
LAYER_6
 10
170.2664
 20
-182.8854
  0
SEQEND
  0
POLYLINE
  8
LAYER_6
 40
0.0353
 41
0.0353
 66
1
 10
0
 20
0
 30
0
  0
VERTEX
  8
LAYER_6
 10
168.7664
 20
-182.8854
  0
VERTEX
  8
LAYER_6
 10
170.2664
 20
-182.8854
  0
VERTEX
  8
LAYER_6
 10
168.7664
 20
-183.1354
  0
SEQEND
  0
ENDBLK
  0
BLOCK
  8
LAYER_6
  2
AIGNBL06020039
 70
64
 10
0
 20
0
 30
0
  3
AIGNBL06020039
  0
POLYLINE
  8
LAYER_6
 40
0.0353
 41
0.0353
 66
1
 10
0
 20
0
 30
0
  0
VERTEX
  8
LAYER_6
 10
175.4664
 20
-183.1354
  0
VERTEX
  8
LAYER_6
 10
173.9664
 20
-182.8854
  0
SEQEND
  0
POLYLINE
  8
LAYER_6
 40
0.0353
 41
0.0353
 66
1
 10
0
 20
0
 30
0
  0
VERTEX
  8
LAYER_6
 10
175.4664
 20
-182.8854
  0
VERTEX
  8
LAYER_6
 10
173.9664
 20
-182.8854
  0
VERTEX
  8
LAYER_6
 10
175.4664
 20
-182.6354
  0
SEQEND
  0
ENDBLK
  0
BLOCK
  8
LAYER_6
  2
AIGNBL0602003A
 70
64
 10
0
 20
0
 30
0
  3
AIGNBL0602003A
  0
POLYLINE
  8
LAYER_6
 40
0.7056
 41
0.7056
 66
1
 10
0
 20
0
 30
0
  0
VERTEX
  8
LAYER_6
 10
173.9664
 20
-173.282
  0
SEQEND
  0
ENDBLK
  0
BLOCK
  8
LAYER_6
  2
AIGNBL0602003B
 70
64
 10
0
 20
0
 30
0
  3
AIGNBL0602003B
  0
POLYLINE
  8
LAYER_6
 40
0.7056
 41
0.7056
 66
1
 10
0
 20
0
 30
0
  0
VERTEX
  8
LAYER_6
 10
170.2664
 20
-170.2854
  0
SEQEND
  0
ENDBLK
  0
BLOCK
  8
LAYER_6
  2
AIGNBL0602003C
 70
64
 10
0
 20
0
 30
0
  3
AIGNBL0602003C
  0
POLYLINE
  8
LAYER_6
 40
0.7056
 41
0.7056
 66
1
 10
0
 20
0
 30
0
  0
VERTEX
  8
LAYER_6
 10
170.2664
 20
-182.8854
  0
SEQEND
  0
ENDBLK
  0
BLOCK
  8
LAYER_6
  2
AIGNBL0602003E
 70
64
 10
0
 20
0
 30
0
  3
AIGNBL0602003E
  0
POLYLINE
  8
LAYER_6
 40
0.0353
 41
0.0353
 66
1
 10
0
 20
0
 30
0
  0
VERTEX
  8
LAYER_6
 10
155.7164
 20
-169.9854
  0
VERTEX
  8
LAYER_6
 10
155.4664
 20
-171.4854
  0
SEQEND
  0
POLYLINE
  8
LAYER_6
 40
0.0353
 41
0.0353
 66
1
 10
0
 20
0
 30
0
  0
VERTEX
  8
LAYER_6
 10
155.4664
 20
-169.9854
  0
VERTEX
  8
LAYER_6
 10
155.4664
 20
-171.4854
  0
VERTEX
  8
LAYER_6
 10
155.2164
 20
-169.9854
  0
SEQEND
  0
ENDBLK
  0
BLOCK
  8
LAYER_6
  2
AIGNBL0602003F
 70
64
 10
0
 20
0
 30
0
  3
AIGNBL0602003F
  0
POLYLINE
  8
LAYER_6
 40
0.0353
 41
0.0353
 66
1
 10
0
 20
0
 30
0
  0
VERTEX
  8
LAYER_6
 10
155.2164
 20
-137.7854
  0
VERTEX
  8
LAYER_6
 10
155.4664
 20
-136.2854
  0
SEQEND
  0
POLYLINE
  8
LAYER_6
 40
0.0353
 41
0.0353
 66
1
 10
0
 20
0
 30
0
  0
VERTEX
  8
LAYER_6
 10
155.4664
 20
-137.7854
  0
VERTEX
  8
LAYER_6
 10
155.4664
 20
-136.2854
  0
VERTEX
  8
LAYER_6
 10
155.7164
 20
-137.7854
  0
SEQEND
  0
ENDBLK
  0
BLOCK
  8
LAYER_6
  2
AIGNBL06020040
 70
64
 10
0
 20
0
 30
0
  3
AIGNBL06020040
  0
POLYLINE
  8
LAYER_6
 40
0.7056
 41
0.7056
 66
1
 10
0
 20
0
 30
0
  0
VERTEX
  8
LAYER_6
 10
173.9664
 20
-171.4854
  0
SEQEND
  0
ENDBLK
  0
BLOCK
  8
LAYER_6
  2
AIGNBL06020041
 70
64
 10
0
 20
0
 30
0
  3
AIGNBL06020041
  0
POLYLINE
  8
LAYER_6
 40
0.7056
 41
0.7056
 66
1
 10
0
 20
0
 30
0
  0
VERTEX
  8
LAYER_6
 10
170.2664
 20
-136.2854
  0
SEQEND
  0
ENDBLK
  0
BLOCK
  8
LAYER_6
  2
AIGNBL06020042
 70
64
 10
0
 20
0
 30
0
  3
AIGNBL06020042
  0
POLYLINE
  8
LAYER_6
 40
0.7056
 41
0.7056
 66
1
 10
0
 20
0
 30
0
  0
VERTEX
  8
LAYER_6
 10
155.4664
 20
-136.2854
  0
SEQEND
  0
ENDBLK
  0
BLOCK
  8
LAYER_6
  2
AIGNBL06020044
 70
64
 10
0
 20
0
 30
0
  3
AIGNBL06020044
  0
POLYLINE
  8
LAYER_6
 40
0.0353
 41
0.0353
 66
1
 10
0
 20
0
 30
0
  0
VERTEX
  8
LAYER_6
 10
78.6719
 20
-182.6354
  0
VERTEX
  8
LAYER_6
 10
80.1719
 20
-182.8854
  0
SEQEND
  0
POLYLINE
  8
LAYER_6
 40
0.0353
 41
0.0353
 66
1
 10
0
 20
0
 30
0
  0
VERTEX
  8
LAYER_6
 10
78.6719
 20
-182.8854
  0
VERTEX
  8
LAYER_6
 10
80.1719
 20
-182.8854
  0
VERTEX
  8
LAYER_6
 10
78.6719
 20
-183.1354
  0
SEQEND
  0
ENDBLK
  0
BLOCK
  8
LAYER_6
  2
AIGNBL06020045
 70
64
 10
0
 20
0
 30
0
  3
AIGNBL06020045
  0
POLYLINE
  8
LAYER_6
 40
0.0353
 41
0.0353
 66
1
 10
0
 20
0
 30
0
  0
VERTEX
  8
LAYER_6
 10
58.3719
 20
-183.1354
  0
VERTEX
  8
LAYER_6
 10
56.8719
 20
-182.8854
  0
SEQEND
  0
POLYLINE
  8
LAYER_6
 40
0.0353
 41
0.0353
 66
1
 10
0
 20
0
 30
0
  0
VERTEX
  8
LAYER_6
 10
58.3719
 20
-182.8854
  0
VERTEX
  8
LAYER_6
 10
56.8719
 20
-182.8854
  0
VERTEX
  8
LAYER_6
 10
58.3719
 20
-182.6354
  0
SEQEND
  0
ENDBLK
  0
BLOCK
  8
LAYER_6
  2
AIGNBL06020046
 70
64
 10
0
 20
0
 30
0
  3
AIGNBL06020046
  0
POLYLINE
  8
LAYER_6
 40
0.7056
 41
0.7056
 66
1
 10
0
 20
0
 30
0
  0
VERTEX
  8
LAYER_6
 10
80.1719
 20
-173.4854
  0
SEQEND
  0
ENDBLK
  0
BLOCK
  8
LAYER_6
  2
AIGNBL06020047
 70
64
 10
0
 20
0
 30
0
  3
AIGNBL06020047
  0
POLYLINE
  8
LAYER_6
 40
0.7056
 41
0.7056
 66
1
 10
0
 20
0
 30
0
  0
VERTEX
  8
LAYER_6
 10
56.8719
 20
-157.625
  0
SEQEND
  0
ENDBLK
  0
BLOCK
  8
LAYER_6
  2
AIGNBL06020048
 70
64
 10
0
 20
0
 30
0
  3
AIGNBL06020048
  0
POLYLINE
  8
LAYER_6
 40
0.7056
 41
0.7056
 66
1
 10
0
 20
0
 30
0
  0
VERTEX
  8
LAYER_6
 10
56.8719
 20
-182.8854
  0
SEQEND
  0
ENDBLK
  0
BLOCK
  8
LAYER_6
  2
AIGNBL0602004A
 70
64
 10
0
 20
0
 30
0
  3
AIGNBL0602004A
  0
POLYLINE
  8
LAYER_6
 40
0.0353
 41
0.0353
 66
1
 10
0
 20
0
 30
0
  0
VERTEX
  8
LAYER_6
 10
49.1219
 20
-151.3254
  0
VERTEX
  8
LAYER_6
 10
48.8719
 20
-152.8254
  0
SEQEND
  0
POLYLINE
  8
LAYER_6
 40
0.0353
 41
0.0353
 66
1
 10
0
 20
0
 30
0
  0
VERTEX
  8
LAYER_6
 10
48.8719
 20
-151.3254
  0
VERTEX
  8
LAYER_6
 10
48.8719
 20
-152.8254
  0
VERTEX
  8
LAYER_6
 10
48.6219
 20
-151.3254
  0
SEQEND
  0
ENDBLK
  0
BLOCK
  8
LAYER_6
  2
AIGNBL0602004B
 70
64
 10
0
 20
0
 30
0
  3
AIGNBL0602004B
  0
POLYLINE
  8
LAYER_6
 40
0.0353
 41
0.0353
 66
1
 10
0
 20
0
 30
0
  0
VERTEX
  8
LAYER_6
 10
48.6219
 20
-149.125
  0
VERTEX
  8
LAYER_6
 10
48.8719
 20
-147.625
  0
SEQEND
  0
POLYLINE
  8
LAYER_6
 40
0.0353
 41
0.0353
 66
1
 10
0
 20
0
 30
0
  0
VERTEX
  8
LAYER_6
 10
48.8719
 20
-149.125
  0
VERTEX
  8
LAYER_6
 10
48.8719
 20
-147.625
  0
VERTEX
  8
LAYER_6
 10
49.1219
 20
-149.125
  0
SEQEND
  0
ENDBLK
  0
BLOCK
  8
LAYER_6
  2
AIGNBL0602004C
 70
64
 10
0
 20
0
 30
0
  3
AIGNBL0602004C
  0
POLYLINE
  8
LAYER_6
 40
0.7056
 41
0.7056
 66
1
 10
0
 20
0
 30
0
  0
VERTEX
  8
LAYER_6
 10
65.0744
 20
-147.625
  0
SEQEND
  0
ENDBLK
  0
BLOCK
  8
LAYER_6
  2
AIGNBL0602004D
 70
64
 10
0
 20
0
 30
0
  3
AIGNBL0602004D
  0
POLYLINE
  8
LAYER_6
 40
0.7056
 41
0.7056
 66
1
 10
0
 20
0
 30
0
  0
VERTEX
  8
LAYER_6
 10
57.0406
 20
-152.8254
  0
SEQEND
  0
ENDBLK
  0
BLOCK
  8
LAYER_6
  2
AIGNBL0602004E
 70
64
 10
0
 20
0
 30
0
  3
AIGNBL0602004E
  0
POLYLINE
  8
LAYER_6
 40
0.7056
 41
0.7056
 66
1
 10
0
 20
0
 30
0
  0
VERTEX
  8
LAYER_6
 10
48.8719
 20
-152.8254
  0
SEQEND
  0
ENDBLK
  0
BLOCK
  8
LAYER_6
  2
AIGNBL06020050
 70
64
 10
0
 20
0
 30
0
  3
AIGNBL06020050
  0
POLYLINE
  8
LAYER_6
 40
0.0353
 41
0.0353
 66
1
 10
0
 20
0
 30
0
  0
VERTEX
  8
LAYER_6
 10
48.6219
 20
-154.3254
  0
VERTEX
  8
LAYER_6
 10
48.8719
 20
-152.8254
  0
SEQEND
  0
POLYLINE
  8
LAYER_6
 40
0.0353
 41
0.0353
 66
1
 10
0
 20
0
 30
0
  0
VERTEX
  8
LAYER_6
 10
48.8719
 20
-154.3254
  0
VERTEX
  8
LAYER_6
 10
48.8719
 20
-152.8254
  0
VERTEX
  8
LAYER_6
 10
49.1219
 20
-154.3254
  0
SEQEND
  0
ENDBLK
  0
BLOCK
  8
LAYER_6
  2
AIGNBL06020051
 70
64
 10
0
 20
0
 30
0
  3
AIGNBL06020051
  0
POLYLINE
  8
LAYER_6
 40
0.0353
 41
0.0353
 66
1
 10
0
 20
0
 30
0
  0
VERTEX
  8
LAYER_6
 10
49.1219
 20
-166.925
  0
VERTEX
  8
LAYER_6
 10
48.8719
 20
-168.425
  0
SEQEND
  0
POLYLINE
  8
LAYER_6
 40
0.0353
 41
0.0353
 66
1
 10
0
 20
0
 30
0
  0
VERTEX
  8
LAYER_6
 10
48.8719
 20
-166.925
  0
VERTEX
  8
LAYER_6
 10
48.8719
 20
-168.425
  0
VERTEX
  8
LAYER_6
 10
48.6219
 20
-166.925
  0
SEQEND
  0
ENDBLK
  0
BLOCK
  8
LAYER_6
  2
AIGNBL06020052
 70
64
 10
0
 20
0
 30
0
  3
AIGNBL06020052
  0
POLYLINE
  8
LAYER_6
 40
0.7056
 41
0.7056
 66
1
 10
0
 20
0
 30
0
  0
VERTEX
  8
LAYER_6
 10
57.0406
 20
-152.8254
  0
SEQEND
  0
ENDBLK
  0
BLOCK
  8
LAYER_6
  2
AIGNBL06020053
 70
64
 10
0
 20
0
 30
0
  3
AIGNBL06020053
  0
POLYLINE
  8
LAYER_6
 40
0.7056
 41
0.7056
 66
1
 10
0
 20
0
 30
0
  0
VERTEX
  8
LAYER_6
 10
58.4719
 20
-168.425
  0
SEQEND
  0
ENDBLK
  0
BLOCK
  8
LAYER_6
  2
AIGNBL06020054
 70
64
 10
0
 20
0
 30
0
  3
AIGNBL06020054
  0
POLYLINE
  8
LAYER_6
 40
0.7056
 41
0.7056
 66
1
 10
0
 20
0
 30
0
  0
VERTEX
  8
LAYER_6
 10
48.8719
 20
-168.425
  0
SEQEND
  0
ENDBLK
  0
BLOCK
  8
LAYER_6
  2
AIGNBL06020056
 70
64
 10
0
 20
0
 30
0
  3
AIGNBL06020056
  0
POLYLINE
  8
LAYER_6
 40
0.0353
 41
0.0353
 66
1
 10
0
 20
0
 30
0
  0
VERTEX
  8
LAYER_6
 10
78.7719
 20
-95.1929
  0
VERTEX
  8
LAYER_6
 10
77.2719
 20
-94.9429
  0
SEQEND
  0
POLYLINE
  8
LAYER_6
 40
0.0353
 41
0.0353
 66
1
 10
0
 20
0
 30
0
  0
VERTEX
  8
LAYER_6
 10
78.7719
 20
-94.9429
  0
VERTEX
  8
LAYER_6
 10
77.2719
 20
-94.9429
  0
VERTEX
  8
LAYER_6
 10
78.7719
 20
-94.6929
  0
SEQEND
  0
ENDBLK
  0
BLOCK
  8
LAYER_6
  2
AIGNBL06020057
 70
64
 10
0
 20
0
 30
0
  3
AIGNBL06020057
  0
POLYLINE
  8
LAYER_6
 40
0.0353
 41
0.0353
 66
1
 10
0
 20
0
 30
0
  0
VERTEX
  8
LAYER_6
 10
83.5719
 20
-94.6929
  0
VERTEX
  8
LAYER_6
 10
85.0719
 20
-94.9429
  0
SEQEND
  0
POLYLINE
  8
LAYER_6
 40
0.0353
 41
0.0353
 66
1
 10
0
 20
0
 30
0
  0
VERTEX
  8
LAYER_6
 10
83.5719
 20
-94.9429
  0
VERTEX
  8
LAYER_6
 10
85.0719
 20
-94.9429
  0
VERTEX
  8
LAYER_6
 10
83.5719
 20
-95.1929
  0
SEQEND
  0
ENDBLK
  0
BLOCK
  8
LAYER_6
  2
AIGNBL06020058
 70
64
 10
0
 20
0
 30
0
  3
AIGNBL06020058
  0
POLYLINE
  8
LAYER_6
 40
0.7056
 41
0.7056
 66
1
 10
0
 20
0
 30
0
  0
VERTEX
  8
LAYER_6
 10
77.2719
 20
-93.0553
  0
SEQEND
  0
ENDBLK
  0
BLOCK
  8
LAYER_6
  2
AIGNBL06020059
 70
64
 10
0
 20
0
 30
0
  3
AIGNBL06020059
  0
POLYLINE
  8
LAYER_6
 40
0.7056
 41
0.7056
 66
1
 10
0
 20
0
 30
0
  0
VERTEX
  8
LAYER_6
 10
85.0719
 20
-93.0553
  0
SEQEND
  0
ENDBLK
  0
BLOCK
  8
LAYER_6
  2
AIGNBL0602005A
 70
64
 10
0
 20
0
 30
0
  3
AIGNBL0602005A
  0
POLYLINE
  8
LAYER_6
 40
0.7056
 41
0.7056
 66
1
 10
0
 20
0
 30
0
  0
VERTEX
  8
LAYER_6
 10
85.0719
 20
-94.9429
  0
SEQEND
  0
ENDBLK
  0
BLOCK
  8
LAYER_1
  2
AIGNBL01010002
 70
64
 10
0
 20
0
 30
0
  3
AIGNBL01010002
  0
INSERT
  8
LAYER_1
  2
AIGNBL01020003
 10
0
 20
0
 30
0
  0
INSERT
  8
LAYER_1
  2
AIGNBL0102000C
 10
0
 20
0
 30
0
  0
ENDBLK
  0
BLOCK
  8
LAYER_6
  2
AIGNBL06010002
 70
64
 10
0
 20
0
 30
0
  3
AIGNBL06010002
  0
POLYLINE
  8
LAYER_6
 40
0.7056
 41
0.7056
 66
1
 10
0
 20
0
 30
0
 70
1
  0
VERTEX
  8
LAYER_6
 10
33.7873
 20
22.6587
  0
VERTEX
  8
LAYER_6
 10
230.7955
 20
22.6587
  0
VERTEX
  8
LAYER_6
 10
230.7955
 20
-259.334
  0
VERTEX
  8
LAYER_6
 10
33.7873
 20
-259.334
  0
SEQEND
  0
ENDBLK
  0
BLOCK
  8
LAYER_6
  2
AIGNBL06010003
 70
64
 10
0
 20
0
 30
0
  3
AIGNBL06010003
  0
INSERT
  8
LAYER_6
  2
AIGNBL06020004
 10
0
 20
0
 30
0
  0
ENDBLK
  0
BLOCK
  8
LAYER_6
  2
AIGNBL06010005
 70
64
 10
0
 20
0
 30
0
  3
AIGNBL06010005
  0
POLYLINE
  8
LAYER_6
 40
0.0353
 41
0.0353
 66
1
 10
0
 20
0
 30
0
  0
VERTEX
  8
LAYER_6
 10
81.1719
 20
-72.3683
  0
VERTEX
  8
LAYER_6
 10
68.6719
 20
-72.3683
  0
SEQEND
  0
POLYLINE
  8
LAYER_6
 40
0.0353
 41
0.0353
 66
1
 10
0
 20
0
 30
0
  0
VERTEX
  8
LAYER_6
 10
77.3319
 20
-93.1153
  0
VERTEX
  8
LAYER_6
 10
68.6719
 20
-93.1153
  0
SEQEND
  0
POLYLINE
  8
LAYER_6
 40
0.0353
 41
0.0353
 66
1
 10
0
 20
0
 30
0
  0
VERTEX
  8
LAYER_6
 10
70.6719
 20
-73.8683
  0
VERTEX
  8
LAYER_6
 10
70.6719
 20
-91.6153
  0
SEQEND
  0
INSERT
  8
LAYER_6
  2
AIGNBL06020006
 10
0
 20
0
 30
0
  0
INSERT
  8
LAYER_6
  2
AIGNBL06020007
 10
0
 20
0
 30
0
  0
TEXT
  8
LAYER_6
 10
69.3701
 20
-80.3692
 11
69.3701
 21
-80.3692
 40
3.7079
 41
0.5
 50
89.99999999
 72
1
  1
（104）
  0
INSERT
  8
LAYER_6
  2
AIGNBL06020008
 10
0
 20
0
 30
0
  0
INSERT
  8
LAYER_6
  2
AIGNBL06020009
 10
0
 20
0
 30
0
  0
INSERT
  8
LAYER_6
  2
AIGNBL0602000A
 10
0
 20
0
 30
0
  0
ENDBLK
  0
BLOCK
  8
LAYER_6
  2
AIGNBL0601000B
 70
64
 10
0
 20
0
 30
0
  3
AIGNBL0601000B
  0
POLYLINE
  8
LAYER_6
 40
0.0353
 41
0.0353
 66
1
 10
0
 20
0
 30
0
  0
VERTEX
  8
LAYER_6
 10
167.0264
 20
-93.1108
  0
VERTEX
  8
LAYER_6
 10
138.1518
 20
-93.1108
  0
SEQEND
  0
POLYLINE
  8
LAYER_6
 40
0.0353
 41
0.0353
 66
1
 10
0
 20
0
 30
0
  0
VERTEX
  8
LAYER_6
 10
169.0709
 20
-102.2108
  0
VERTEX
  8
LAYER_6
 10
138.1518
 20
-102.2108
  0
SEQEND
  0
POLYLINE
  8
LAYER_6
 40
0.0353
 41
0.0353
 66
1
 10
0
 20
0
 30
0
  0
VERTEX
  8
LAYER_6
 10
140.1518
 20
-94.6108
  0
VERTEX
  8
LAYER_6
 10
140.1518
 20
-100.7108
  0
SEQEND
  0
POLYLINE
  8
LAYER_6
 40
0.0353
 41
0.0353
 66
1
 10
0
 20
0
 30
0
  0
VERTEX
  8
LAYER_6
 10
140.1518
 20
-102.2108
  0
VERTEX
  8
LAYER_6
 10
140.1518
 20
-112.5268
  0
SEQEND
  0
INSERT
  8
LAYER_6
  2
AIGNBL0602000C
 10
0
 20
0
 30
0
  0
INSERT
  8
LAYER_6
  2
AIGNBL0602000D
 10
0
 20
0
 30
0
  0
TEXT
  8
LAYER_6
 10
138.9441
 20
-106.242
 11
138.9441
 21
-106.242
 40
3.7079
 41
0.5
 50
89.99999999
 72
1
  1
45.5
  0
INSERT
  8
LAYER_6
  2
AIGNBL0602000E
 10
0
 20
0
 30
0
  0
INSERT
  8
LAYER_6
  2
AIGNBL0602000F
 10
0
 20
0
 30
0
  0
INSERT
  8
LAYER_6
  2
AIGNBL06020010
 10
0
 20
0
 30
0
  0
ENDBLK
  0
BLOCK
  8
LAYER_6
  2
AIGNBL06010011
 70
64
 10
0
 20
0
 30
0
  3
AIGNBL06010011
  0
POLYLINE
  8
LAYER_6
 40
0.0353
 41
0.0353
 66
1
 10
0
 20
0
 30
0
  0
VERTEX
  8
LAYER_6
 10
170.8664
 20
-98.4108
  0
VERTEX
  8
LAYER_6
 10
158.8664
 20
-98.4108
  0
SEQEND
  0
POLYLINE
  8
LAYER_6
 40
0.0353
 41
0.0353
 66
1
 10
0
 20
0
 30
0
  0
VERTEX
  8
LAYER_6
 10
170.8664
 20
-93.1108
  0
VERTEX
  8
LAYER_6
 10
158.8664
 20
-93.1108
  0
SEQEND
  0
POLYLINE
  8
LAYER_6
 40
0.0353
 41
0.0353
 66
1
 10
0
 20
0
 30
0
  0
VERTEX
  8
LAYER_6
 10
160.8664
 20
-94.6108
  0
VERTEX
  8
LAYER_6
 10
160.8664
 20
-96.9108
  0
SEQEND
  0
POLYLINE
  8
LAYER_6
 40
0.0353
 41
0.0353
 66
1
 10
0
 20
0
 30
0
  0
VERTEX
  8
LAYER_6
 10
160.8664
 20
-98.4108
  0
VERTEX
  8
LAYER_6
 10
160.8664
 20
-128.1338
  0
SEQEND
  0
INSERT
  8
LAYER_6
  2
AIGNBL06020012
 10
0
 20
0
 30
0
  0
INSERT
  8
LAYER_6
  2
AIGNBL06020013
 10
0
 20
0
 30
0
  0
TEXT
  8
LAYER_6
 10
159.5647
 20
-112.5973
 11
159.5647
 21
-112.5973
 40
3.2525
 41
0.5
 50
89.99999999
 72
1
  1
取付板厚５～３０
  0
INSERT
  8
LAYER_6
  2
AIGNBL06020014
 10
0
 20
0
 30
0
  0
INSERT
  8
LAYER_6
  2
AIGNBL06020015
 10
0
 20
0
 30
0
  0
INSERT
  8
LAYER_6
  2
AIGNBL06020016
 10
0
 20
0
 30
0
  0
ENDBLK
  0
BLOCK
  8
LAYER_6
  2
AIGNBL06010017
 70
64
 10
0
 20
0
 30
0
  3
AIGNBL06010017
  0
POLYLINE
  8
LAYER_6
 40
0.0353
 41
0.0353
 66
1
 10
0
 20
0
 30
0
  0
VERTEX
  8
LAYER_6
 10
151.625
 20
-86.645
  0
VERTEX
  8
LAYER_6
 10
143.3702
 20
-97.5995
  0
SEQEND
  0
POLYLINE
  8
LAYER_6
 40
0.0353
 41
0.0353
 66
1
 10
0
 20
0
 30
0
  0
VERTEX
  8
LAYER_6
 10
152.9329
 20
-87.0749
  0
VERTEX
  8
LAYER_6
 10
152.9329
 20
-100.7991
  0
SEQEND
  0
POLYLINE
  8
LAYER_6
 40
0.0353
 41
0.0353
 66
1
 10
0
 20
0
 30
0
  0
VERTEX
  8
LAYER_6
 10
142.3898
 20
-93.9519
 42
0.02743873613
  0
VERTEX
  8
LAYER_6
 10
143.4264
 20
-95.0361
  0
SEQEND
  0
POLYLINE
  8
LAYER_6
 40
0.0353
 41
0.0353
 66
1
 10
0
 20
0
 30
0
  0
VERTEX
  8
LAYER_6
 10
154.4307
 20
-98.7181
 42
0.02743938283
  0
VERTEX
  8
LAYER_6
 10
155.9111
 20
-98.4761
  0
SEQEND
  0
POLYLINE
  8
LAYER_6
 40
0.0353
 41
0.0353
 66
1
 10
0
 20
0
 30
0
  0
VERTEX
  8
LAYER_6
 10
144.5738
 20
-96.0022
 42
0.163644313
  0
VERTEX
  8
LAYER_6
 10
152.9329
 20
-98.7991
  0
SEQEND
  0
INSERT
  8
LAYER_6
  2
AIGNBL06020018
 10
0
 20
0
 30
0
  0
INSERT
  8
LAYER_6
  2
AIGNBL06020019
 10
0
 20
0
 30
0
  0
INSERT
  8
LAYER_6
  2
AIGNBL0602001A
 10
0
 20
0
 30
0
  0
INSERT
  8
LAYER_6
  2
AIGNBL0602001B
 10
0
 20
0
 30
0
  0
INSERT
  8
LAYER_6
  2
AIGNBL0602001C
 10
0
 20
0
 30
0
  0
INSERT
  8
LAYER_6
  2
AIGNBL0602001D
 10
0
 20
0
 30
0
  0
INSERT
  8
LAYER_6
  2
AIGNBL0602001E
 10
0
 20
0
 30
0
  0
ENDBLK
  0
BLOCK
  8
LAYER_6
  2
AIGNBL0601001F
 70
64
 10
0
 20
0
 30
0
  3
AIGNBL0601001F
  0
POLYLINE
  8
LAYER_6
 40
0.0353
 41
0.0353
 66
1
 10
0
 20
0
 30
0
  0
VERTEX
  8
LAYER_6
 10
150.3537
 20
-82.7905
  0
VERTEX
  8
LAYER_6
 10
150.3537
 20
-61.5038
  0
SEQEND
  0
POLYLINE
  8
LAYER_6
 40
0.0353
 41
0.0353
 66
1
 10
0
 20
0
 30
0
  0
VERTEX
  8
LAYER_6
 10
170.8664
 20
-82.5038
  0
VERTEX
  8
LAYER_6
 10
170.8664
 20
-61.5038
  0
SEQEND
  0
POLYLINE
  8
LAYER_6
 40
0.0353
 41
0.0353
 66
1
 10
0
 20
0
 30
0
  0
VERTEX
  8
LAYER_6
 10
151.8537
 20
-63.5038
  0
VERTEX
  8
LAYER_6
 10
169.3664
 20
-63.5038
  0
SEQEND
  0
INSERT
  8
LAYER_6
  2
AIGNBL06020020
 10
0
 20
0
 30
0
  0
INSERT
  8
LAYER_6
  2
AIGNBL06020021
 10
0
 20
0
 30
0
  0
TEXT
  8
LAYER_6
 10
162.9829
 20
-62.2021
 11
162.9829
 21
-62.2021
 40
3.7079
 41
0.5
 72
1
  1
（103）
  0
INSERT
  8
LAYER_6
  2
AIGNBL06020022
 10
0
 20
0
 30
0
  0
INSERT
  8
LAYER_6
  2
AIGNBL06020023
 10
0
 20
0
 30
0
  0
INSERT
  8
LAYER_6
  2
AIGNBL06020024
 10
0
 20
0
 30
0
  0
ENDBLK
  0
BLOCK
  8
LAYER_6
  2
AIGNBL06010025
 70
64
 10
0
 20
0
 30
0
  3
AIGNBL06010025
  0
POLYLINE
  8
LAYER_6
 40
0.0353
 41
0.0353
 66
1
 10
0
 20
0
 30
0
  0
VERTEX
  8
LAYER_6
 10
170.8664
 20
-93.1108
  0
VERTEX
  8
LAYER_6
 10
138.1518
 20
-93.1108
  0
SEQEND
  0
POLYLINE
  8
LAYER_6
 40
0.0353
 41
0.0353
 66
1
 10
0
 20
0
 30
0
  0
VERTEX
  8
LAYER_6
 10
152.9329
 20
-84.9093
  0
VERTEX
  8
LAYER_6
 10
138.1518
 20
-84.9093
  0
SEQEND
  0
POLYLINE
  8
LAYER_6
 40
0.0353
 41
0.0353
 66
1
 10
0
 20
0
 30
0
  0
VERTEX
  8
LAYER_6
 10
140.1518
 20
-91.6108
  0
VERTEX
  8
LAYER_6
 10
140.1518
 20
-86.4093
  0
SEQEND
  0
INSERT
  8
LAYER_6
  2
AIGNBL06020026
 10
0
 20
0
 30
0
  0
INSERT
  8
LAYER_6
  2
AIGNBL06020027
 10
0
 20
0
 30
0
  0
TEXT
  8
LAYER_6
 10
138.8501
 20
-86.8543
 11
138.8501
 21
-86.8543
 40
3.7079
 41
0.5
 50
89.99999999
 72
1
  1
（41）
  0
INSERT
  8
LAYER_6
  2
AIGNBL06020028
 10
0
 20
0
 30
0
  0
INSERT
  8
LAYER_6
  2
AIGNBL06020029
 10
0
 20
0
 30
0
  0
INSERT
  8
LAYER_6
  2
AIGNBL0602002A
 10
0
 20
0
 30
0
  0
ENDBLK
  0
BLOCK
  8
LAYER_6
  2
AIGNBL0601002B
 70
64
 10
0
 20
0
 30
0
  3
AIGNBL0601002B
  0
POLYLINE
  8
LAYER_6
 40
0.0353
 41
0.0353
 66
1
 10
0
 20
0
 30
0
  0
VERTEX
  8
LAYER_6
 10
170.8664
 20
-90.5108
  0
VERTEX
  8
LAYER_6
 10
170.8664
 20
-86.7747
  0
SEQEND
  0
POLYLINE
  8
LAYER_6
 40
0.0353
 41
0.0353
 66
1
 10
0
 20
0
 30
0
  0
VERTEX
  8
LAYER_6
 10
152.9329
 20
-84.9093
  0
VERTEX
  8
LAYER_6
 10
152.9329
 20
-90.7747
  0
SEQEND
  0
POLYLINE
  8
LAYER_6
 40
0.0353
 41
0.0353
 66
1
 10
0
 20
0
 30
0
  0
VERTEX
  8
LAYER_6
 10
169.3664
 20
-88.7747
  0
VERTEX
  8
LAYER_6
 10
154.4329
 20
-88.7747
  0
SEQEND
  0
INSERT
  8
LAYER_6
  2
AIGNBL0602002C
 10
0
 20
0
 30
0
  0
INSERT
  8
LAYER_6
  2
AIGNBL0602002D
 10
0
 20
0
 30
0
  0
TEXT
  8
LAYER_6
 10
164.0552
 20
-87.4729
 11
164.0552
 21
-87.4729
 40
3.7079
 41
0.5
 72
1
  1
（90）
  0
INSERT
  8
LAYER_6
  2
AIGNBL0602002E
 10
0
 20
0
 30
0
  0
INSERT
  8
LAYER_6
  2
AIGNBL0602002F
 10
0
 20
0
 30
0
  0
INSERT
  8
LAYER_6
  2
AIGNBL06020030
 10
0
 20
0
 30
0
  0
ENDBLK
  0
BLOCK
  8
LAYER_6
  2
AIGNBL06010031
 70
64
 10
0
 20
0
 30
0
  3
AIGNBL06010031
  0
POLYLINE
  8
LAYER_6
 40
0.0353
 41
0.0353
 66
1
 10
0
 20
0
 30
0
  0
VERTEX
  8
LAYER_6
 10
78.6319
 20
-90.4553
  0
VERTEX
  8
LAYER_6
 10
78.6319
 20
-85.4865
  0
SEQEND
  0
POLYLINE
  8
LAYER_6
 40
0.0353
 41
0.0353
 66
1
 10
0
 20
0
 30
0
  0
VERTEX
  8
LAYER_6
 10
83.7119
 20
-90.4553
  0
VERTEX
  8
LAYER_6
 10
83.7119
 20
-85.4865
  0
SEQEND
  0
POLYLINE
  8
LAYER_6
 40
0.0353
 41
0.0353
 66
1
 10
0
 20
0
 30
0
  0
VERTEX
  8
LAYER_6
 10
80.1319
 20
-87.4865
  0
VERTEX
  8
LAYER_6
 10
82.2119
 20
-87.4865
  0
SEQEND
  0
POLYLINE
  8
LAYER_6
 40
0.0353
 41
0.0353
 66
1
 10
0
 20
0
 30
0
  0
VERTEX
  8
LAYER_6
 10
83.7119
 20
-87.4865
  0
VERTEX
  8
LAYER_6
 10
96.4079
 20
-87.4865
  0
SEQEND
  0
INSERT
  8
LAYER_6
  2
AIGNBL06020032
 10
0
 20
0
 30
0
  0
INSERT
  8
LAYER_6
  2
AIGNBL06020033
 10
0
 20
0
 30
0
  0
TEXT
  8
LAYER_6
 10
91.9821
 20
-86.1848
 11
91.9821
 21
-86.1848
 40
3.7079
 41
0.5
 72
1
  1
%%c25.4
  0
INSERT
  8
LAYER_6
  2
AIGNBL06020034
 10
0
 20
0
 30
0
  0
INSERT
  8
LAYER_6
  2
AIGNBL06020035
 10
0
 20
0
 30
0
  0
INSERT
  8
LAYER_6
  2
AIGNBL06020036
 10
0
 20
0
 30
0
  0
ENDBLK
  0
BLOCK
  8
LAYER_6
  2
AIGNBL06010037
 70
64
 10
0
 20
0
 30
0
  3
AIGNBL06010037
  0
POLYLINE
  8
LAYER_6
 40
0.0353
 41
0.0353
 66
1
 10
0
 20
0
 30
0
  0
VERTEX
  8
LAYER_6
 10
173.9664
 20
-173.282
  0
VERTEX
  8
LAYER_6
 10
173.9664
 20
-184.8854
  0
SEQEND
  0
POLYLINE
  8
LAYER_6
 40
0.0353
 41
0.0353
 66
1
 10
0
 20
0
 30
0
  0
VERTEX
  8
LAYER_6
 10
170.2664
 20
-170.2854
  0
VERTEX
  8
LAYER_6
 10
170.2664
 20
-184.8854
  0
SEQEND
  0
POLYLINE
  8
LAYER_6
 40
0.0353
 41
0.0353
 66
1
 10
0
 20
0
 30
0
  0
VERTEX
  8
LAYER_6
 10
168.7664
 20
-182.8854
  0
VERTEX
  8
LAYER_6
 10
167.2664
 20
-182.8854
  0
SEQEND
  0
POLYLINE
  8
LAYER_6
 40
0.0353
 41
0.0353
 66
1
 10
0
 20
0
 30
0
  0
VERTEX
  8
LAYER_6
 10
175.4664
 20
-182.8854
  0
VERTEX
  8
LAYER_6
 10
185.4254
 20
-182.8854
  0
SEQEND
  0
POLYLINE
  8
LAYER_6
 40
0.0353
 41
0.0353
 66
1
 10
0
 20
0
 30
0
  0
VERTEX
  8
LAYER_6
 10
170.2664
 20
-182.8854
  0
VERTEX
  8
LAYER_6
 10
173.9664
 20
-182.8854
  0
SEQEND
  0
INSERT
  8
LAYER_6
  2
AIGNBL06020038
 10
0
 20
0
 30
0
  0
INSERT
  8
LAYER_6
  2
AIGNBL06020039
 10
0
 20
0
 30
0
  0
TEXT
  8
LAYER_6
 10
183.0725
 20
-181.6777
 11
183.0725
 21
-181.6777
 40
3.7079
 41
0.5
 72
1
  1
18.5
  0
INSERT
  8
LAYER_6
  2
AIGNBL0602003A
 10
0
 20
0
 30
0
  0
INSERT
  8
LAYER_6
  2
AIGNBL0602003B
 10
0
 20
0
 30
0
  0
INSERT
  8
LAYER_6
  2
AIGNBL0602003C
 10
0
 20
0
 30
0
  0
ENDBLK
  0
BLOCK
  8
LAYER_6
  2
AIGNBL0601003D
 70
64
 10
0
 20
0
 30
0
  3
AIGNBL0601003D
  0
POLYLINE
  8
LAYER_6
 40
0.0353
 41
0.0353
 66
1
 10
0
 20
0
 30
0
  0
VERTEX
  8
LAYER_6
 10
173.9664
 20
-171.4854
  0
VERTEX
  8
LAYER_6
 10
153.4664
 20
-171.4854
  0
SEQEND
  0
POLYLINE
  8
LAYER_6
 40
0.0353
 41
0.0353
 66
1
 10
0
 20
0
 30
0
  0
VERTEX
  8
LAYER_6
 10
170.2664
 20
-136.2854
  0
VERTEX
  8
LAYER_6
 10
153.4664
 20
-136.2854
  0
SEQEND
  0
POLYLINE
  8
LAYER_6
 40
0.0353
 41
0.0353
 66
1
 10
0
 20
0
 30
0
  0
VERTEX
  8
LAYER_6
 10
155.4664
 20
-169.9854
  0
VERTEX
  8
LAYER_6
 10
155.4664
 20
-137.7854
  0
SEQEND
  0
INSERT
  8
LAYER_6
  2
AIGNBL0602003E
 10
0
 20
0
 30
0
  0
INSERT
  8
LAYER_6
  2
AIGNBL0602003F
 10
0
 20
0
 30
0
  0
TEXT
  8
LAYER_6
 10
154.1645
 20
-151.5125
 11
154.1645
 21
-151.5125
 40
3.7079
 41
0.5
 50
89.99999999
 72
1
  1
（176）
  0
INSERT
  8
LAYER_6
  2
AIGNBL06020040
 10
0
 20
0
 30
0
  0
INSERT
  8
LAYER_6
  2
AIGNBL06020041
 10
0
 20
0
 30
0
  0
INSERT
  8
LAYER_6
  2
AIGNBL06020042
 10
0
 20
0
 30
0
  0
ENDBLK
  0
BLOCK
  8
LAYER_6
  2
AIGNBL06010043
 70
64
 10
0
 20
0
 30
0
  3
AIGNBL06010043
  0
POLYLINE
  8
LAYER_6
 40
0.0353
 41
0.0353
 66
1
 10
0
 20
0
 30
0
  0
VERTEX
  8
LAYER_6
 10
80.1719
 20
-173.4854
  0
VERTEX
  8
LAYER_6
 10
80.1719
 20
-184.8854
  0
SEQEND
  0
POLYLINE
  8
LAYER_6
 40
0.0353
 41
0.0353
 66
1
 10
0
 20
0
 30
0
  0
VERTEX
  8
LAYER_6
 10
56.8719
 20
-157.625
  0
VERTEX
  8
LAYER_6
 10
56.8719
 20
-184.8854
  0
SEQEND
  0
POLYLINE
  8
LAYER_6
 40
0.0353
 41
0.0353
 66
1
 10
0
 20
0
 30
0
  0
VERTEX
  8
LAYER_6
 10
78.6719
 20
-182.8854
  0
VERTEX
  8
LAYER_6
 10
58.3719
 20
-182.8854
  0
SEQEND
  0
INSERT
  8
LAYER_6
  2
AIGNBL06020044
 10
0
 20
0
 30
0
  0
INSERT
  8
LAYER_6
  2
AIGNBL06020045
 10
0
 20
0
 30
0
  0
TEXT
  8
LAYER_6
 10
70.8946
 20
-181.5836
 11
70.8946
 21
-181.5836
 40
3.7079
 41
0.5
 72
1
  1
（117）
  0
INSERT
  8
LAYER_6
  2
AIGNBL06020046
 10
0
 20
0
 30
0
  0
INSERT
  8
LAYER_6
  2
AIGNBL06020047
 10
0
 20
0
 30
0
  0
INSERT
  8
LAYER_6
  2
AIGNBL06020048
 10
0
 20
0
 30
0
  0
ENDBLK
  0
BLOCK
  8
LAYER_6
  2
AIGNBL06010049
 70
64
 10
0
 20
0
 30
0
  3
AIGNBL06010049
  0
POLYLINE
  8
LAYER_6
 40
0.0353
 41
0.0353
 66
1
 10
0
 20
0
 30
0
  0
VERTEX
  8
LAYER_6
 10
65.0744
 20
-147.625
  0
VERTEX
  8
LAYER_6
 10
46.8719
 20
-147.625
  0
SEQEND
  0
POLYLINE
  8
LAYER_6
 40
0.0353
 41
0.0353
 66
1
 10
0
 20
0
 30
0
  0
VERTEX
  8
LAYER_6
 10
57.0406
 20
-152.8254
  0
VERTEX
  8
LAYER_6
 10
46.8719
 20
-152.8254
  0
SEQEND
  0
POLYLINE
  8
LAYER_6
 40
0.0353
 41
0.0353
 66
1
 10
0
 20
0
 30
0
  0
VERTEX
  8
LAYER_6
 10
48.8719
 20
-151.3254
  0
VERTEX
  8
LAYER_6
 10
48.8719
 20
-149.125
  0
SEQEND
  0
POLYLINE
  8
LAYER_6
 40
0.0353
 41
0.0353
 66
1
 10
0
 20
0
 30
0
  0
VERTEX
  8
LAYER_6
 10
48.8719
 20
-147.625
  0
VERTEX
  8
LAYER_6
 10
48.8719
 20
-140.879
  0
SEQEND
  0
INSERT
  8
LAYER_6
  2
AIGNBL0602004A
 10
0
 20
0
 30
0
  0
INSERT
  8
LAYER_6
  2
AIGNBL0602004B
 10
0
 20
0
 30
0
  0
TEXT
  8
LAYER_6
 10
47.6639
 20
-140.8151
 11
47.6639
 21
-140.8151
 40
3.7079
 41
0.5
 50
89.99999999
 72
1
  1
26
  0
INSERT
  8
LAYER_6
  2
AIGNBL0602004C
 10
0
 20
0
 30
0
  0
INSERT
  8
LAYER_6
  2
AIGNBL0602004D
 10
0
 20
0
 30
0
  0
INSERT
  8
LAYER_6
  2
AIGNBL0602004E
 10
0
 20
0
 30
0
  0
ENDBLK
  0
BLOCK
  8
LAYER_6
  2
AIGNBL0601004F
 70
64
 10
0
 20
0
 30
0
  3
AIGNBL0601004F
  0
POLYLINE
  8
LAYER_6
 40
0.0353
 41
0.0353
 66
1
 10
0
 20
0
 30
0
  0
VERTEX
  8
LAYER_6
 10
57.0406
 20
-152.8254
  0
VERTEX
  8
LAYER_6
 10
46.8719
 20
-152.8254
  0
SEQEND
  0
POLYLINE
  8
LAYER_6
 40
0.0353
 41
0.0353
 66
1
 10
0
 20
0
 30
0
  0
VERTEX
  8
LAYER_6
 10
58.4719
 20
-168.425
  0
VERTEX
  8
LAYER_6
 10
46.8719
 20
-168.425
  0
SEQEND
  0
POLYLINE
  8
LAYER_6
 40
0.0353
 41
0.0353
 66
1
 10
0
 20
0
 30
0
  0
VERTEX
  8
LAYER_6
 10
48.8719
 20
-154.3254
  0
VERTEX
  8
LAYER_6
 10
48.8719
 20
-166.925
  0
SEQEND
  0
INSERT
  8
LAYER_6
  2
AIGNBL06020050
 10
0
 20
0
 30
0
  0
INSERT
  8
LAYER_6
  2
AIGNBL06020051
 10
0
 20
0
 30
0
  0
TEXT
  8
LAYER_6
 10
47.57
 20
-158.4693
 11
47.57
 21
-158.4693
 40
3.7079
 41
0.5
 50
89.99999999
 72
1
  1
（78）
  0
INSERT
  8
LAYER_6
  2
AIGNBL06020052
 10
0
 20
0
 30
0
  0
INSERT
  8
LAYER_6
  2
AIGNBL06020053
 10
0
 20
0
 30
0
  0
INSERT
  8
LAYER_6
  2
AIGNBL06020054
 10
0
 20
0
 30
0
  0
ENDBLK
  0
BLOCK
  8
LAYER_6
  2
AIGNBL06010055
 70
64
 10
0
 20
0
 30
0
  3
AIGNBL06010055
  0
POLYLINE
  8
LAYER_6
 40
0.0353
 41
0.0353
 66
1
 10
0
 20
0
 30
0
  0
VERTEX
  8
LAYER_6
 10
77.2719
 20
-93.0553
  0
VERTEX
  8
LAYER_6
 10
77.2719
 20
-96.4429
  0
SEQEND
  0
POLYLINE
  8
LAYER_6
 40
0.0353
 41
0.0353
 66
1
 10
0
 20
0
 30
0
  0
VERTEX
  8
LAYER_6
 10
85.0719
 20
-93.0553
  0
VERTEX
  8
LAYER_6
 10
85.0719
 20
-96.4429
  0
SEQEND
  0
POLYLINE
  8
LAYER_6
 40
0.0353
 41
0.0353
 66
1
 10
0
 20
0
 30
0
  0
VERTEX
  8
LAYER_6
 10
78.7719
 20
-94.9429
  0
VERTEX
  8
LAYER_6
 10
83.5719
 20
-94.9429
  0
SEQEND
  0
POLYLINE
  8
LAYER_6
 40
0.0353
 41
0.0353
 66
1
 10
0
 20
0
 30
0
  0
VERTEX
  8
LAYER_6
 10
85.0719
 20
-94.9429
  0
VERTEX
  8
LAYER_6
 10
93.9599
 20
-94.9429
  0
SEQEND
  0
INSERT
  8
LAYER_6
  2
AIGNBL06020056
 10
0
 20
0
 30
0
  0
INSERT
  8
LAYER_6
  2
AIGNBL06020057
 10
0
 20
0
 30
0
  0
TEXT
  8
LAYER_6
 10
92.2482
 20
-93.641
 11
92.2482
 21
-93.641
 40
3.7079
 41
0.5
 72
1
  1
%%c39
  0
INSERT
  8
LAYER_6
  2
AIGNBL06020058
 10
0
 20
0
 30
0
  0
INSERT
  8
LAYER_6
  2
AIGNBL06020059
 10
0
 20
0
 30
0
  0
INSERT
  8
LAYER_6
  2
AIGNBL0602005A
 10
0
 20
0
 30
0
  0
ENDBLK
  0
ENDSEC
  0
SECTION
  2
ENTITIES
  0
INSERT
  8
LAYER_1
  2
AIGNBL01010002
 10
0
 20
0
 30
0
  0
TEXT
  8
LAYER_1
 10
475.3901
 20
-256.1093
 11
475.3901
 21
-256.1093
 40
2.8232
 41
0.5
  1
　　　　　　　　
  0
TEXT
  8
LAYER_1
 10
150.1575
 20
-96.5343
 11
150.1575
 21
-96.5343
 40
3.7079
 41
0.5
 50
347.8407756
 72
1
  1
25%%d
  0
TEXT
  8
LAYER_1
 10
190.0859
 20
-97.0084
 11
190.0859
 21
-97.0084
 40
3.7079
 41
0.5
 72
1
  1
取付穴径22025
  0
TEXT
  8
LAYER_1
 10
188.4956
 20
-112.0343
 11
188.4956
 21
-112.0343
 40
3.2575
 41
0.5
  1
コード全長：550mm
  0
TEXT
  8
LAYER_1
 10
201.2543
 20
-181.0317
 11
201.2543
 21
-181.0317
 40
3.2575
 41
0.5
  1
コード全長：500mm
  0
POLYLINE
  8
LAYER_1
 40
0.0882
 41
0.0882
 66
1
 10
0
 20
0
 30
0
  0
VERTEX
  8
LAYER_1
 10
223.2037
 20
-182.5981
  0
VERTEX
  8
LAYER_1
 10
200.671
 20
-182.5981
  0
VERTEX
  8
LAYER_1
 10
195.0861
 20
-176.5653
  0
SEQEND
  0
POLYLINE
  8
LAYER_1
 40
0.0882
 41
0.0882
 66
1
 10
0
 20
0
 30
0
  0
VERTEX
  8
LAYER_1
 10
116.9196
 20
-118.9862
  0
VERTEX
  8
LAYER_1
 10
86.3455
 20
-118.9862
  0
VERTEX
  8
LAYER_1
 10
82.0826
 20
-117.3622
  0
SEQEND
  0
POLYLINE
  8
LAYER_1
 40
0.0882
 41
0.0882
 66
1
 10
0
 20
0
 30
0
  0
VERTEX
  8
LAYER_1
 10
210.0158
 20
-113.6138
  0
VERTEX
  8
LAYER_1
 10
187.4832
 20
-113.6138
  0
VERTEX
  8
LAYER_1
 10
181.8569
 20
-107.0681
  0
SEQEND
  0
TEXT
  8
LAYER_1
 10
87.0511
 20
-117.3398
 11
87.0511
 21
-117.3398
 40
3.2575
 41
0.5
  1
給水ホース長さ：800mm
  0
INSERT
  8
LAYER_6
  2
AIGNBL06010002
 10
0
 20
0
 30
0
  0
POLYLINE
  8
LAYER_6
 40
0.3528
 41
0.3528
 66
1
 10
0
 20
0
 30
0
  0
VERTEX
  8
LAYER_6
 10
34.7876
 20
-258.3332
  0
VERTEX
  8
LAYER_6
 10
229.7955
 20
-258.3332
  0
VERTEX
  8
LAYER_6
 10
229.7955
 20
21.6583
  0
VERTEX
  8
LAYER_6
 10
34.7876
 20
21.6583
  0
VERTEX
  8
LAYER_6
 10
34.7876
 20
-258.3332
  0
SEQEND
  0
TEXT
  8
LAYER_6
 10
166.4505
 20
-248.7955
 11
166.4505
 21
-248.7955
 40
3.3848
 41
0.5
  1
●TEL 0120-65-1232●FAX 06-6532-1580
  0
TEXT
  8
LAYER_6
 10
166.4505
 20
-252.3102
 11
166.4505
 21
-252.3102
 40
3.3848
 41
0.5
  1
hits@hiratatile.co.jp
  0
TEXT
  8
LAYER_6
 10
37.8495
 20
-250.3797
 11
37.8495
 21
-250.3797
 40
3.2991
 41
0.5
  1
仕様
  0
POLYLINE
  8
LAYER_6
 40
0.3528
 41
0.3528
 66
1
 10
0
 20
0
 30
0
  0
VERTEX
  8
LAYER_6
 10
229.7955
 20
-241.6001
  0
VERTEX
  8
LAYER_6
 10
34.7874
 20
-241.6001
  0
SEQEND
  0
POLYLINE
  8
LAYER_6
 40
0.3528
 41
0.3528
 66
1
 10
0
 20
0
 30
0
  0
VERTEX
  8
LAYER_6
 10
229.7955
 20
-233.091
  0
VERTEX
  8
LAYER_6
 10
34.7874
 20
-233.091
  0
SEQEND
  0
TEXT
  8
LAYER_6
 10
35.9444
 20
-235.5675
 11
35.9444
 21
-235.5675
 40
2.1994
 41
0.5
  1
品名
  0
TEXT
  8
LAYER_6
 10
48.7874
 20
-238.6599
 11
48.7874
 21
-238.6599
 40
3.6368
 41
0.5
  1
センサー式単水栓（電池式）
  0
TEXT
  8
LAYER_6
 10
48.4217
 20
-250.3883
 11
48.4217
 21
-250.3883
 40
3.1172
 41
0.5
  1
●排水金具別途
  0
TEXT
  8
LAYER_6
 10
137.0378
 20
-235.5677
 11
137.0378
 21
-235.5677
 40
2.1994
 41
0.5
  1
品番
  0
TEXT
  8
LAYER_6
 10
143.0598
 20
-240.0443
 11
143.0598
 21
-240.0443
 40
5.9385
 41
0.5
  1
AQ-E1700D
  0
INSERT
  8
LAYER_6
  2
AIGNBL06010003
 10
0
 20
0
 30
0
  0
TEXT
  8
LAYER_6
 10
201.5539
 20
-182.6147
 11
201.5539
 21
-182.6147
 40
3.3881
 41
0.5
  1
　　　　　　　　　　　　　
  0
TEXT
  8
LAYER_6
 10
450.5108
 20
-285.2209
 11
450.5108
 21
-285.2209
 40
2.8232
 41
0.5
  1
　　　　　　　　
  0
TEXT
  8
LAYER_6
 10
201.5539
 20
-191.3649
 11
201.5539
 21
-191.3649
 40
3.3881
 41
0.5
  1
　　　　　　　　　　　　　
  0
INSERT
  8
LAYER_6
  2
AIGNBL06010005
 10
0
 20
0
 30
0
  0
INSERT
  8
LAYER_6
  2
AIGNBL0601000B
 10
0
 20
0
 30
0
  0
INSERT
  8
LAYER_6
  2
AIGNBL06010011
 10
0
 20
0
 30
0
  0
INSERT
  8
LAYER_6
  2
AIGNBL06010017
 10
0
 20
0
 30
0
  0
INSERT
  8
LAYER_6
  2
AIGNBL0601001F
 10
0
 20
0
 30
0
  0
INSERT
  8
LAYER_6
  2
AIGNBL06010025
 10
0
 20
0
 30
0
  0
INSERT
  8
LAYER_6
  2
AIGNBL0601002B
 10
0
 20
0
 30
0
  0
INSERT
  8
LAYER_6
  2
AIGNBL06010031
 10
0
 20
0
 30
0
  0
INSERT
  8
LAYER_6
  2
AIGNBL06010037
 10
0
 20
0
 30
0
  0
INSERT
  8
LAYER_6
  2
AIGNBL0601003D
 10
0
 20
0
 30
0
  0
INSERT
  8
LAYER_6
  2
AIGNBL06010043
 10
0
 20
0
 30
0
  0
INSERT
  8
LAYER_6
  2
AIGNBL06010049
 10
0
 20
0
 30
0
  0
INSERT
  8
LAYER_6
  2
AIGNBL0601004F
 10
0
 20
0
 30
0
  0
INSERT
  8
LAYER_6
  2
AIGNBL06010055
 10
0
 20
0
 30
0
  0
POLYLINE
  8
LAYER_6
 40
0.2469
 41
0.2469
 66
1
 10
0
 20
0
 30
0
  0
VERTEX
  8
LAYER_6
 10
168.4664
 20
-98.6108
  0
VERTEX
  8
LAYER_6
 10
168.4664
 20
-99.9108
  0
SEQEND
  0
POLYLINE
  8
LAYER_6
 40
0.2469
 41
0.2469
 66
1
 10
0
 20
0
 30
0
  0
VERTEX
  8
LAYER_6
 10
173.2664
 20
-98.6108
  0
VERTEX
  8
LAYER_6
 10
173.2664
 20
-99.9108
  0
SEQEND
  0
POLYLINE
  8
LAYER_6
 40
0.2469
 41
0.2469
 66
1
 10
0
 20
0
 30
0
  0
VERTEX
  8
LAYER_6
 10
173.0395
 20
-98.6108
  0
VERTEX
  8
LAYER_6
 10
173.0395
 20
-99.9108
  0
SEQEND
  0
POLYLINE
  8
LAYER_6
 40
0.2469
 41
0.2469
 66
1
 10
0
 20
0
 30
0
  0
VERTEX
  8
LAYER_6
 10
168.6933
 20
-98.6108
  0
VERTEX
  8
LAYER_6
 10
168.6933
 20
-99.9108
  0
SEQEND
  0
POLYLINE
  8
LAYER_6
 40
0.2469
 41
0.2469
 66
1
 10
0
 20
0
 30
0
  0
VERTEX
  8
LAYER_6
 10
170.6395
 20
-98.6108
  0
VERTEX
  8
LAYER_6
 10
170.6395
 20
-99.9108
  0
SEQEND
  0
POLYLINE
  8
LAYER_6
 40
0.2469
 41
0.2469
 66
1
 10
0
 20
0
 30
0
  0
VERTEX
  8
LAYER_6
 10
171.0933
 20
-98.6108
  0
VERTEX
  8
LAYER_6
 10
171.0933
 20
-99.9108
  0
SEQEND
  0
POLYLINE
  8
LAYER_6
 40
0.0353
 41
0.0353
 66
1
 10
0
 20
0
 30
0
 70
1
  0
VERTEX
  8
LAYER_6
 10
213.0495
 20
-118.53
  0
VERTEX
  8
LAYER_6
 10
215.2495
 20
-118.53
  0
VERTEX
  8
LAYER_6
 10
215.2495
 20
-121.13
  0
VERTEX
  8
LAYER_6
 10
213.0495
 20
-121.13
  0
SEQEND
  0
POLYLINE
  8
LAYER_6
 40
0.0353
 41
0.0353
 66
1
 10
0
 20
0
 30
0
  0
VERTEX
  8
LAYER_6
 10
213.8195
 20
-121.13
  0
VERTEX
  8
LAYER_6
 10
213.8195
 20
-119.77
  0
VERTEX
  8
LAYER_6
 10
213.5195
 20
-119.77
  0
VERTEX
  8
LAYER_6
 10
213.5195
 20
-121.13
  0
SEQEND
  0
POLYLINE
  8
LAYER_6
 40
0.0353
 41
0.0353
 66
1
 10
0
 20
0
 30
0
  0
VERTEX
  8
LAYER_6
 10
214.7795
 20
-121.13
  0
VERTEX
  8
LAYER_6
 10
214.7795
 20
-119.77
  0
VERTEX
  8
LAYER_6
 10
214.4795
 20
-119.77
  0
VERTEX
  8
LAYER_6
 10
214.4795
 20
-121.13
  0
SEQEND
  0
POLYLINE
  8
LAYER_6
 40
0.0353
 41
0.0353
 66
1
 10
0
 20
0
 30
0
  0
VERTEX
  8
LAYER_6
 10
213.8195
 20
-120.49
  0
VERTEX
  8
LAYER_6
 10
214.4795
 20
-120.49
  0
SEQEND
  0
POLYLINE
  8
LAYER_6
 40
0.0353
 41
0.0353
 66
1
 10
0
 20
0
 30
0
  0
VERTEX
  8
LAYER_6
 10
213.7695
 20
-125.5771
  0
VERTEX
  8
LAYER_6
 10
213.7695
 20
-123.6371
 42
0.3931565729
  0
VERTEX
  8
LAYER_6
 10
213.7095
 20
-123.5771
 42
0.3936044485
  0
VERTEX
  8
LAYER_6
 10
213.6495
 20
-123.6371
  0
VERTEX
  8
LAYER_6
 10
213.6495
 20
-125.5771
  0
SEQEND
  0
POLYLINE
  8
LAYER_6
 40
0.0353
 41
0.0353
 66
1
 10
0
 20
0
 30
0
  0
VERTEX
  8
LAYER_6
 10
214.6495
 20
-125.5771
  0
VERTEX
  8
LAYER_6
 10
214.6495
 20
-123.6371
 42
0.3931565729
  0
VERTEX
  8
LAYER_6
 10
214.5895
 20
-123.5771
 42
0.3936044485
  0
VERTEX
  8
LAYER_6
 10
214.5295
 20
-123.6371
  0
VERTEX
  8
LAYER_6
 10
214.5295
 20
-125.5771
  0
SEQEND
  0
POLYLINE
  8
LAYER_6
 40
0.0353
 41
0.0353
 66
1
 10
0
 20
0
 30
0
  0
VERTEX
  8
LAYER_6
 10
214.4495
 20
-125.5771
  0
VERTEX
  8
LAYER_6
 10
214.4495
 20
-123.6771
  0
VERTEX
  8
LAYER_6
 10
213.8495
 20
-123.6771
  0
VERTEX
  8
LAYER_6
 10
213.8495
 20
-125.5771
  0
SEQEND
  0
POLYLINE
  8
LAYER_6
 40
0.0353
 41
0.0353
 66
1
 10
0
 20
0
 30
0
  0
VERTEX
  8
LAYER_6
 10
213.8495
 20
-124.0771
  0
VERTEX
  8
LAYER_6
 10
214.4495
 20
-124.0771
  0
SEQEND
  0
POLYLINE
  8
LAYER_6
 40
0.0353
 41
0.0353
 66
1
 10
0
 20
0
 30
0
  0
VERTEX
  8
LAYER_6
 10
213.8495
 20
-123.9371
  0
VERTEX
  8
LAYER_6
 10
214.4495
 20
-123.9371
  0
SEQEND
  0
POLYLINE
  8
LAYER_6
 40
0.0353
 41
0.0353
 66
1
 10
0
 20
0
 30
0
 70
1
  0
VERTEX
  8
LAYER_6
 10
213.1795
 20
-125.5771
 42
-0.4142075183
  0
VERTEX
  8
LAYER_6
 10
213.0795
 20
-125.4771
  0
VERTEX
  8
LAYER_6
 10
213.0795
 20
-124.8171
 42
-0.4143122151
  0
VERTEX
  8
LAYER_6
 10
213.1795
 20
-124.7171
  0
VERTEX
  8
LAYER_6
 10
213.2795
 20
-124.7171
  0
VERTEX
  8
LAYER_6
 10
213.2795
 20
-122.3771
 42
-0.4143122152
  0
VERTEX
  8
LAYER_6
 10
213.3795
 20
-122.2771
  0
VERTEX
  8
LAYER_6
 10
214.9195
 20
-122.2771
 42
-0.4142079446
  0
VERTEX
  8
LAYER_6
 10
215.0195
 20
-122.3771
  0
VERTEX
  8
LAYER_6
 10
215.0195
 20
-124.7171
  0
VERTEX
  8
LAYER_6
 10
215.1195
 20
-124.7171
 42
-0.4142079446
  0
VERTEX
  8
LAYER_6
 10
215.2195
 20
-124.8171
  0
VERTEX
  8
LAYER_6
 10
215.2195
 20
-125.4771
 42
-0.4141033298
  0
VERTEX
  8
LAYER_6
 10
215.1195
 20
-125.5771
  0
SEQEND
  0
POLYLINE
  8
LAYER_6
 40
0.0353
 41
0.0353
 66
1
 10
0
 20
0
 30
0
  0
VERTEX
  8
LAYER_6
 10
172.9619
 20
-98.0108
  0
VERTEX
  8
LAYER_6
 10
172.9619
 20
-93.5108
  0
SEQEND
  0
POLYLINE
  8
LAYER_6
 40
0.0353
 41
0.0353
 66
1
 10
0
 20
0
 30
0
  0
VERTEX
  8
LAYER_6
 10
172.7295
 20
-101.0108
  0
VERTEX
  8
LAYER_6
 10
172.7295
 20
-99.9108
  0
SEQEND
  0
POLYLINE
  8
LAYER_6
 40
0.0353
 41
0.0353
 66
1
 10
0
 20
0
 30
0
  0
VERTEX
  8
LAYER_6
 10
172.7295
 20
-93.8108
  0
VERTEX
  8
LAYER_6
 10
172.9619
 20
-93.8108
  0
VERTEX
  8
LAYER_6
 10
170.8664
 20
-93.8108
  0
SEQEND
  0
POLYLINE
  8
LAYER_6
 40
0.1482
 41
0.1482
 66
1
 10
0
 20
0
 30
0
  0
VERTEX
  8
LAYER_6
 10
174.6471
 20
-91.0538
 42
-0.2947130704
  0
VERTEX
  8
LAYER_6
 10
174.7664
 20
-91.2368
  0
VERTEX
  8
LAYER_6
 10
174.7664
 20
-93.0508
  0
SEQEND
  0
POLYLINE
  8
LAYER_6
 40
0.0353
 41
0.0353
 66
1
 10
0
 20
0
 30
0
  0
VERTEX
  8
LAYER_6
 10
172.9027
 20
-93.5108
  0
VERTEX
  8
LAYER_6
 10
172.7295
 20
-93.8108
  0
VERTEX
  8
LAYER_6
 10
172.7295
 20
-98.0108
  0
SEQEND
  0
POLYLINE
  8
LAYER_6
 40
0.0353
 41
0.0353
 66
1
 10
0
 20
0
 30
0
  0
VERTEX
  8
LAYER_6
 10
174.6471
 20
-91.0538
  0
VERTEX
  8
LAYER_6
 10
173.4164
 20
-90.5108
  0
VERTEX
  8
LAYER_6
 10
172.9664
 20
-90.5108
  0
SEQEND
  0
POLYLINE
  8
LAYER_6
 40
0.0353
 41
0.0353
 66
1
 10
0
 20
0
 30
0
  0
VERTEX
  8
LAYER_6
 10
168.7709
 20
-98.0108
  0
VERTEX
  8
LAYER_6
 10
168.7709
 20
-93.5108
  0
SEQEND
  0
POLYLINE
  8
LAYER_6
 40
0.0353
 41
0.0353
 66
1
 10
0
 20
0
 30
0
  0
VERTEX
  8
LAYER_6
 10
169.0033
 20
-101.0108
  0
VERTEX
  8
LAYER_6
 10
169.0033
 20
-99.9108
  0
SEQEND
  0
POLYLINE
  8
LAYER_6
 40
0.0353
 41
0.0353
 66
1
 10
0
 20
0
 30
0
 70
1
  0
VERTEX
  8
LAYER_6
 10
168.7709
 20
-93.8108
  0
VERTEX
  8
LAYER_6
 10
170.8664
 20
-93.8108
  0
SEQEND
  0
POLYLINE
  8
LAYER_6
 40
0.1482
 41
0.1482
 66
1
 10
0
 20
0
 30
0
  0
VERTEX
  8
LAYER_6
 10
167.0857
 20
-91.0538
 42
0.2947407629
  0
VERTEX
  8
LAYER_6
 10
166.9664
 20
-91.2368
  0
VERTEX
  8
LAYER_6
 10
166.9664
 20
-93.0508
  0
SEQEND
  0
POLYLINE
  8
LAYER_6
 40
0.0353
 41
0.0353
 66
1
 10
0
 20
0
 30
0
  0
VERTEX
  8
LAYER_6
 10
168.8301
 20
-93.5108
  0
VERTEX
  8
LAYER_6
 10
169.0033
 20
-93.8108
  0
VERTEX
  8
LAYER_6
 10
169.0033
 20
-98.0108
  0
SEQEND
  0
POLYLINE
  8
LAYER_6
 40
0.0353
 41
0.0353
 66
1
 10
0
 20
0
 30
0
  0
VERTEX
  8
LAYER_6
 10
167.0857
 20
-91.0538
  0
VERTEX
  8
LAYER_6
 10
168.3164
 20
-90.5108
  0
VERTEX
  8
LAYER_6
 10
170.8664
 20
-90.5108
  0
VERTEX
  8
LAYER_6
 10
168.3664
 20
-90.5108
 42
-0.3932194765
  0
VERTEX
  8
LAYER_6
 10
168.3264
 20
-90.4708
  0
SEQEND
  0
POLYLINE
  8
LAYER_6
 40
0.0353
 41
0.0353
 66
1
 10
0
 20
0
 30
0
  0
VERTEX
  8
LAYER_6
 10
168.7709
 20
-99.9108
  0
VERTEX
  8
LAYER_6
 10
168.7709
 20
-101.0108
  0
VERTEX
  8
LAYER_6
 10
169.0664
 20
-101.0108
  0
VERTEX
  8
LAYER_6
 10
169.0664
 20
-102.2063
  0
VERTEX
  8
LAYER_6
 10
169.0709
 20
-102.2108
  0
VERTEX
  8
LAYER_6
 10
170.8664
 20
-102.2108
  0
VERTEX
  8
LAYER_6
 10
172.6619
 20
-102.2108
  0
VERTEX
  8
LAYER_6
 10
172.6664
 20
-102.2063
  0
VERTEX
  8
LAYER_6
 10
172.6664
 20
-101.0108
  0
VERTEX
  8
LAYER_6
 10
172.9619
 20
-101.0108
  0
VERTEX
  8
LAYER_6
 10
172.9619
 20
-99.9108
  0
SEQEND
  0
POLYLINE
  8
LAYER_6
 40
0.0353
 41
0.0353
 66
1
 10
0
 20
0
 30
0
  0
VERTEX
  8
LAYER_6
 10
169.3664
 20
-102.2108
  0
VERTEX
  8
LAYER_6
 10
169.3664
 20
-123.4159
  0
SEQEND
  0
POLYLINE
  8
LAYER_6
 40
0.0353
 41
0.0353
 66
1
 10
0
 20
0
 30
0
  0
VERTEX
  8
LAYER_6
 10
172.1664
 20
-102.4108
  0
VERTEX
  8
LAYER_6
 10
172.1664
 20
-105.2108
 42
0.4142142862
  0
VERTEX
  8
LAYER_6
 10
173.1664
 20
-106.2108
  0
VERTEX
  8
LAYER_6
 10
178.0064
 20
-106.2108
  0
SEQEND
  0
POLYLINE
  8
LAYER_6
 40
0.0353
 41
0.0353
 66
1
 10
0
 20
0
 30
0
  0
VERTEX
  8
LAYER_6
 10
178.0064
 20
-107.2108
  0
VERTEX
  8
LAYER_6
 10
173.2064
 20
-107.2108
 42
-0.4142109543
  0
VERTEX
  8
LAYER_6
 10
171.1664
 20
-105.1708
  0
VERTEX
  8
LAYER_6
 10
171.1664
 20
-103.2108
  0
VERTEX
  8
LAYER_6
 10
171.1664
 20
-123.4159
  0
SEQEND
  0
POLYLINE
  8
LAYER_6
 40
0.0353
 41
0.0353
 66
1
 10
0
 20
0
 30
0
  0
VERTEX
  8
LAYER_6
 10
215.2495
 20
-116.77
  0
VERTEX
  8
LAYER_6
 10
215.2495
 20
-115.97
  0
VERTEX
  8
LAYER_6
 10
213.0495
 20
-115.97
  0
VERTEX
  8
LAYER_6
 10
213.0495
 20
-116.77
  0
SEQEND
  0
POLYLINE
  8
LAYER_6
 40
0.0353
 41
0.0353
 66
1
 10
0
 20
0
 30
0
  0
VERTEX
  8
LAYER_6
 10
215.0495
 20
-116.97
  0
VERTEX
  8
LAYER_6
 10
215.0495
 20
-118.53
  0
SEQEND
  0
POLYLINE
  8
LAYER_6
 40
0.0353
 41
0.0353
 66
1
 10
0
 20
0
 30
0
  0
VERTEX
  8
LAYER_6
 10
213.2495
 20
-118.53
  0
VERTEX
  8
LAYER_6
 10
213.2495
 20
-116.97
  0
VERTEX
  8
LAYER_6
 10
215.0495
 20
-116.97
  0
VERTEX
  8
LAYER_6
 10
215.2495
 20
-116.77
  0
VERTEX
  8
LAYER_6
 10
213.0495
 20
-116.77
  0
VERTEX
  8
LAYER_6
 10
213.2495
 20
-116.97
  0
SEQEND
  0
POLYLINE
  8
LAYER_6
 40
0.2469
 41
0.2469
 66
1
 10
0
 20
0
 30
0
 70
1
  0
VERTEX
  8
LAYER_6
 10
167.2664
 20
-98.4108
  0
VERTEX
  8
LAYER_6
 10
167.2664
 20
-98.6108
  0
VERTEX
  8
LAYER_6
 10
170.8664
 20
-98.6108
  0
VERTEX
  8
LAYER_6
 10
174.4664
 20
-98.6108
  0
VERTEX
  8
LAYER_6
 10
174.4664
 20
-98.4108
  0
VERTEX
  8
LAYER_6
 10
170.8664
 20
-98.4108
  0
SEQEND
  0
POLYLINE
  8
LAYER_6
 40
0.2469
 41
0.2469
 66
1
 10
0
 20
0
 30
0
  0
VERTEX
  8
LAYER_6
 10
173.2664
 20
-99.9108
  0
VERTEX
  8
LAYER_6
 10
170.8664
 20
-99.9108
  0
VERTEX
  8
LAYER_6
 10
168.4664
 20
-99.9108
  0
SEQEND
  0
POLYLINE
  8
LAYER_6
 40
0.0353
 41
0.0353
 66
1
 10
0
 20
0
 30
0
  0
VERTEX
  8
LAYER_6
 10
172.9619
 20
-98.4108
  0
VERTEX
  8
LAYER_6
 10
174.2664
 20
-98.4108
  0
VERTEX
  8
LAYER_6
 10
174.2664
 20
-98.0108
  0
VERTEX
  8
LAYER_6
 10
170.8664
 20
-98.0108
  0
VERTEX
  8
LAYER_6
 10
167.4664
 20
-98.0108
  0
VERTEX
  8
LAYER_6
 10
167.4664
 20
-98.4108
  0
VERTEX
  8
LAYER_6
 10
168.7709
 20
-98.4108
  0
SEQEND
  0
POLYLINE
  8
LAYER_6
 40
0.2469
 41
0.2469
 66
1
 10
0
 20
0
 30
0
  0
VERTEX
  8
LAYER_6
 10
168.4664
 20
-98.6108
  0
VERTEX
  8
LAYER_6
 10
168.7709
 20
-98.6108
  0
SEQEND
  0
POLYLINE
  8
LAYER_6
 40
0.2469
 41
0.2469
 66
1
 10
0
 20
0
 30
0
  0
VERTEX
  8
LAYER_6
 10
173.2664
 20
-98.6108
  0
VERTEX
  8
LAYER_6
 10
172.9619
 20
-98.6108
  0
SEQEND
  0
POLYLINE
  8
LAYER_6
 40
0.0353
 41
0.0353
 66
1
 10
0
 20
0
 30
0
  0
VERTEX
  8
LAYER_6
 10
167.3664
 20
-93.1108
  0
VERTEX
  8
LAYER_6
 10
167.3664
 20
-93.5108
  0
VERTEX
  8
LAYER_6
 10
170.8664
 20
-93.5108
  0
VERTEX
  8
LAYER_6
 10
174.3664
 20
-93.5108
  0
VERTEX
  8
LAYER_6
 10
174.3664
 20
-93.1108
  0
SEQEND
  0
POLYLINE
  8
LAYER_6
 40
0.0353
 41
0.0353
 66
1
 10
0
 20
0
 30
0
  0
VERTEX
  8
LAYER_6
 10
178.7264
 20
-106.2108
 42
-0.3988053861
  0
VERTEX
  8
LAYER_6
 10
178.7264
 20
-106.4108
 42
0.1902810356
  0
VERTEX
  8
LAYER_6
 10
178.6864
 20
-106.5108
 42
0.1901473659
  0
VERTEX
  8
LAYER_6
 10
178.7264
 20
-106.6108
 42
-0.1902810354
  0
VERTEX
  8
LAYER_6
 10
178.7664
 20
-106.7108
 42
-0.1901473659
  0
VERTEX
  8
LAYER_6
 10
178.7264
 20
-106.8108
 42
0.1902810356
  0
VERTEX
  8
LAYER_6
 10
178.6864
 20
-106.9108
 42
0.1901473659
  0
VERTEX
  8
LAYER_6
 10
178.7264
 20
-107.0108
 42
-0.1902810354
  0
VERTEX
  8
LAYER_6
 10
178.7664
 20
-107.1108
 42
-0.1901473659
  0
VERTEX
  8
LAYER_6
 10
178.7264
 20
-107.2108
  0
SEQEND
  0
POLYLINE
  8
LAYER_6
 40
0.0353
 41
0.0353
 66
1
 10
0
 20
0
 30
0
  0
VERTEX
  8
LAYER_6
 10
178.0064
 20
-106.2108
 42
-0.3988053861
  0
VERTEX
  8
LAYER_6
 10
178.0064
 20
-106.4108
 42
0.1902810356
  0
VERTEX
  8
LAYER_6
 10
177.9664
 20
-106.5108
 42
0.1901473659
  0
VERTEX
  8
LAYER_6
 10
178.0064
 20
-106.6108
 42
-0.1902810354
  0
VERTEX
  8
LAYER_6
 10
178.0464
 20
-106.7108
 42
-0.1901473659
  0
VERTEX
  8
LAYER_6
 10
178.0064
 20
-106.8108
 42
0.1902810356
  0
VERTEX
  8
LAYER_6
 10
177.9664
 20
-106.9108
 42
0.1901473659
  0
VERTEX
  8
LAYER_6
 10
178.0064
 20
-107.0108
 42
-0.1902810354
  0
VERTEX
  8
LAYER_6
 10
178.0464
 20
-107.1108
 42
-0.1901473659
  0
VERTEX
  8
LAYER_6
 10
178.0064
 20
-107.2108
  0
SEQEND
  0
POLYLINE
  8
LAYER_6
 40
0.0353
 41
0.0353
 66
1
 10
0
 20
0
 30
0
  0
VERTEX
  8
LAYER_6
 10
79.0764
 20
-98.0153
  0
VERTEX
  8
LAYER_6
 10
79.0764
 20
-93.5153
  0
SEQEND
  0
POLYLINE
  8
LAYER_6
 40
0.0353
 41
0.0353
 66
1
 10
0
 20
0
 30
0
  0
VERTEX
  8
LAYER_6
 10
79.3088
 20
-102.1477
  0
VERTEX
  8
LAYER_6
 10
79.3088
 20
-99.9153
  0
SEQEND
  0
POLYLINE
  8
LAYER_6
 40
0.1482
 41
0.1482
 66
1
 10
0
 20
0
 30
0
  0
VERTEX
  8
LAYER_6
 10
77.3911
 20
-91.0583
 42
0.2946411436
  0
VERTEX
  8
LAYER_6
 10
77.2719
 20
-91.2413
  0
VERTEX
  8
LAYER_6
 10
77.2719
 20
-93.0553
  0
SEQEND
  0
POLYLINE
  8
LAYER_6
 40
0.0353
 41
0.0353
 66
1
 10
0
 20
0
 30
0
  0
VERTEX
  8
LAYER_6
 10
79.1356
 20
-93.5153
  0
VERTEX
  8
LAYER_6
 10
79.3088
 20
-93.8153
  0
VERTEX
  8
LAYER_6
 10
79.3088
 20
-98.0153
  0
SEQEND
  0
POLYLINE
  8
LAYER_6
 40
0.0353
 41
0.0353
 66
1
 10
0
 20
0
 30
0
  0
VERTEX
  8
LAYER_6
 10
79.0764
 20
-101.8698
  0
VERTEX
  8
LAYER_6
 10
80.099
 20
-101.8698
  0
SEQEND
  0
POLYLINE
  8
LAYER_6
 40
0.0353
 41
0.0353
 66
1
 10
0
 20
0
 30
0
  0
VERTEX
  8
LAYER_6
 10
78.6219
 20
-90.5153
  0
VERTEX
  8
LAYER_6
 10
77.3911
 20
-91.0583
  0
SEQEND
  0
POLYLINE
  8
LAYER_6
 40
0.0353
 41
0.0353
 66
1
 10
0
 20
0
 30
0
  0
VERTEX
  8
LAYER_6
 10
83.035
 20
-102.1477
  0
VERTEX
  8
LAYER_6
 10
83.035
 20
-99.9153
  0
SEQEND
  0
POLYLINE
  8
LAYER_6
 40
0.0353
 41
0.0353
 66
1
 10
0
 20
0
 30
0
  0
VERTEX
  8
LAYER_6
 10
83.035
 20
-93.8153
  0
VERTEX
  8
LAYER_6
 10
83.2674
 20
-93.8153
  0
VERTEX
  8
LAYER_6
 10
81.1719
 20
-93.8153
  0
VERTEX
  8
LAYER_6
 10
79.0764
 20
-93.8153
  0
VERTEX
  8
LAYER_6
 10
79.3088
 20
-93.8153
  0
SEQEND
  0
POLYLINE
  8
LAYER_6
 40
0.1482
 41
0.1482
 66
1
 10
0
 20
0
 30
0
  0
VERTEX
  8
LAYER_6
 10
84.9526
 20
-91.0583
 42
-0.2946895046
  0
VERTEX
  8
LAYER_6
 10
85.0719
 20
-91.2413
  0
VERTEX
  8
LAYER_6
 10
85.0719
 20
-93.0553
  0
SEQEND
  0
POLYLINE
  8
LAYER_6
 40
0.0353
 41
0.0353
 66
1
 10
0
 20
0
 30
0
  0
VERTEX
  8
LAYER_6
 10
83.2082
 20
-93.5153
  0
VERTEX
  8
LAYER_6
 10
83.035
 20
-93.8153
  0
VERTEX
  8
LAYER_6
 10
83.035
 20
-98.0153
  0
SEQEND
  0
POLYLINE
  8
LAYER_6
 40
0.0353
 41
0.0353
 66
1
 10
0
 20
0
 30
0
  0
VERTEX
  8
LAYER_6
 10
83.2674
 20
-99.9153
  0
VERTEX
  8
LAYER_6
 10
83.2674
 20
-101.9153
  0
VERTEX
  8
LAYER_6
 10
82.9674
 20
-102.2153
  0
VERTEX
  8
LAYER_6
 10
81.1719
 20
-102.2153
  0
VERTEX
  8
LAYER_6
 10
79.3764
 20
-102.2153
  0
VERTEX
  8
LAYER_6
 10
79.0764
 20
-101.9153
  0
VERTEX
  8
LAYER_6
 10
79.0764
 20
-99.9153
  0
SEQEND
  0
POLYLINE
  8
LAYER_6
 40
0.0353
 41
0.0353
 66
1
 10
0
 20
0
 30
0
  0
VERTEX
  8
LAYER_6
 10
83.2674
 20
-101.8698
  0
VERTEX
  8
LAYER_6
 10
82.2448
 20
-101.8698
  0
SEQEND
  0
POLYLINE
  8
LAYER_6
 40
0.0353
 41
0.0353
 66
1
 10
0
 20
0
 30
0
 70
1
  0
VERTEX
  8
LAYER_6
 10
81.1719
 20
-93.1153
  0
VERTEX
  8
LAYER_6
 10
85.0119
 20
-93.1153
  0
VERTEX
  8
LAYER_6
 10
85.0719
 20
-93.0553
  0
VERTEX
  8
LAYER_6
 10
81.1719
 20
-93.0553
  0
VERTEX
  8
LAYER_6
 10
77.2719
 20
-93.0553
  0
VERTEX
  8
LAYER_6
 10
77.3319
 20
-93.1153
  0
SEQEND
  0
POLYLINE
  8
LAYER_6
 40
0.0353
 41
0.0353
 66
1
 10
0
 20
0
 30
0
 70
1
  0
VERTEX
  8
LAYER_6
 10
82.2448
 20
-101.8698
 42
-0.1362609919
  0
VERTEX
  8
LAYER_6
 10
81.1719
 20
-102.1653
 42
-0.1362620537
  0
VERTEX
  8
LAYER_6
 10
80.099
 20
-101.8698
  0
VERTEX
  8
LAYER_6
 10
80.099
 20
-101.0153
  0
VERTEX
  8
LAYER_6
 10
81.1719
 20
-101.0153
  0
VERTEX
  8
LAYER_6
 10
82.2448
 20
-101.0153
  0
SEQEND
  0
POLYLINE
  8
LAYER_6
 40
0.0353
 41
0.0353
 66
1
 10
0
 20
0
 30
0
  0
VERTEX
  8
LAYER_6
 10
84.9719
 20
-91.1111
  0
VERTEX
  8
LAYER_6
 10
81.1719
 20
-91.1111
  0
VERTEX
  8
LAYER_6
 10
77.3719
 20
-91.1111
  0
SEQEND
  0
POLYLINE
  8
LAYER_6
 40
0.0353
 41
0.0353
 66
1
 10
0
 20
0
 30
0
  0
VERTEX
  8
LAYER_6
 10
83.7219
 20
-90.5153
  0
VERTEX
  8
LAYER_6
 10
84.9526
 20
-91.0583
  0
SEQEND
  0
POLYLINE
  8
LAYER_6
 40
0.0353
 41
0.0353
 66
1
 10
0
 20
0
 30
0
  0
VERTEX
  8
LAYER_6
 10
82.8719
 20
-102.2153
  0
VERTEX
  8
LAYER_6
 10
82.8719
 20
-102.4153
  0
VERTEX
  8
LAYER_6
 10
82.0719
 20
-102.4153
  0
SEQEND
  0
POLYLINE
  8
LAYER_6
 40
0.0353
 41
0.0353
 66
1
 10
0
 20
0
 30
0
  0
VERTEX
  8
LAYER_6
 10
79.4719
 20
-102.2153
  0
VERTEX
  8
LAYER_6
 10
79.4719
 20
-102.4153
  0
VERTEX
  8
LAYER_6
 10
80.2719
 20
-102.4153
  0
SEQEND
  0
POLYLINE
  8
LAYER_6
 40
0.0353
 41
0.0353
 66
1
 10
0
 20
0
 30
0
  0
VERTEX
  8
LAYER_6
 10
82.1719
 20
-102.4153
  0
VERTEX
  8
LAYER_6
 10
82.1719
 20
-103.1553
 42
0.3932479361
  0
VERTEX
  8
LAYER_6
 10
82.2319
 20
-103.2153
  0
VERTEX
  8
LAYER_6
 10
82.4719
 20
-103.2153
 42
0.3927995515
  0
VERTEX
  8
LAYER_6
 10
82.5319
 20
-103.1553
  0
VERTEX
  8
LAYER_6
 10
82.5319
 20
-102.4153
  0
SEQEND
  0
POLYLINE
  8
LAYER_6
 40
0.0353
 41
0.0353
 66
1
 10
0
 20
0
 30
0
  0
VERTEX
  8
LAYER_6
 10
80.1719
 20
-102.4153
  0
VERTEX
  8
LAYER_6
 10
80.1719
 20
-103.1553
 42
-0.3927995515
  0
VERTEX
  8
LAYER_6
 10
80.1119
 20
-103.2153
  0
VERTEX
  8
LAYER_6
 10
79.8719
 20
-103.2153
 42
-0.3931565731
  0
VERTEX
  8
LAYER_6
 10
79.8119
 20
-103.1553
  0
VERTEX
  8
LAYER_6
 10
79.8119
 20
-102.4153
  0
SEQEND
  0
POLYLINE
  8
LAYER_6
 40
0.0353
 41
0.0353
 66
1
 10
0
 20
0
 30
0
  0
VERTEX
  8
LAYER_6
 10
82.0719
 20
-102.2153
  0
VERTEX
  8
LAYER_6
 10
82.0719
 20
-123.4204
  0
SEQEND
  0
POLYLINE
  8
LAYER_6
 40
0.0353
 41
0.0353
 66
1
 10
0
 20
0
 30
0
  0
VERTEX
  8
LAYER_6
 10
80.2719
 20
-102.2153
  0
VERTEX
  8
LAYER_6
 10
80.2719
 20
-123.4204
  0
SEQEND
  0
POLYLINE
  8
LAYER_6
 40
0.2469
 41
0.2469
 66
1
 10
0
 20
0
 30
0
 70
1
  0
VERTEX
  8
LAYER_6
 10
77.5719
 20
-98.4153
  0
VERTEX
  8
LAYER_6
 10
77.5719
 20
-98.6153
  0
VERTEX
  8
LAYER_6
 10
81.1719
 20
-98.6153
  0
VERTEX
  8
LAYER_6
 10
84.7719
 20
-98.6153
  0
VERTEX
  8
LAYER_6
 10
84.7719
 20
-98.4153
  0
VERTEX
  8
LAYER_6
 10
81.1719
 20
-98.4153
  0
SEQEND
  0
POLYLINE
  8
LAYER_6
 40
0.0353
 41
0.0353
 66
1
 10
0
 20
0
 30
0
  0
VERTEX
  8
LAYER_6
 10
78.5316
 20
-99.9153
  0
VERTEX
  8
LAYER_6
 10
78.5316
 20
-98.6153
  0
SEQEND
  0
POLYLINE
  8
LAYER_6
 40
0.0353
 41
0.0353
 66
1
 10
0
 20
0
 30
0
  0
VERTEX
  8
LAYER_6
 10
78.5219
 20
-98.6153
  0
VERTEX
  8
LAYER_6
 10
78.5219
 20
-99.9153
  0
SEQEND
  0
POLYLINE
  8
LAYER_6
 40
0.0353
 41
0.0353
 66
1
 10
0
 20
0
 30
0
  0
VERTEX
  8
LAYER_6
 10
80.0483
 20
-98.6153
  0
VERTEX
  8
LAYER_6
 10
80.0483
 20
-99.9153
  0
SEQEND
  0
POLYLINE
  8
LAYER_6
 40
0.0353
 41
0.0353
 66
1
 10
0
 20
0
 30
0
  0
VERTEX
  8
LAYER_6
 10
79.6552
 20
-98.6153
  0
VERTEX
  8
LAYER_6
 10
79.6552
 20
-99.9153
  0
SEQEND
  0
POLYLINE
  8
LAYER_6
 40
0.2469
 41
0.2469
 66
1
 10
0
 20
0
 30
0
  0
VERTEX
  8
LAYER_6
 10
83.8219
 20
-99.9153
  0
VERTEX
  8
LAYER_6
 10
81.1719
 20
-99.9153
  0
VERTEX
  8
LAYER_6
 10
78.5219
 20
-99.9153
  0
SEQEND
  0
POLYLINE
  8
LAYER_6
 40
0.0353
 41
0.0353
 66
1
 10
0
 20
0
 30
0
  0
VERTEX
  8
LAYER_6
 10
83.8121
 20
-99.9153
  0
VERTEX
  8
LAYER_6
 10
83.8121
 20
-98.6153
  0
SEQEND
  0
POLYLINE
  8
LAYER_6
 40
0.0353
 41
0.0353
 66
1
 10
0
 20
0
 30
0
  0
VERTEX
  8
LAYER_6
 10
83.8219
 20
-98.6153
  0
VERTEX
  8
LAYER_6
 10
83.8219
 20
-99.9153
  0
SEQEND
  0
POLYLINE
  8
LAYER_6
 40
0.0353
 41
0.0353
 66
1
 10
0
 20
0
 30
0
  0
VERTEX
  8
LAYER_6
 10
82.2955
 20
-98.6153
  0
VERTEX
  8
LAYER_6
 10
82.2955
 20
-99.9153
  0
SEQEND
  0
POLYLINE
  8
LAYER_6
 40
0.0353
 41
0.0353
 66
1
 10
0
 20
0
 30
0
  0
VERTEX
  8
LAYER_6
 10
82.6885
 20
-98.6153
  0
VERTEX
  8
LAYER_6
 10
82.6885
 20
-99.9153
  0
SEQEND
  0
POLYLINE
  8
LAYER_6
 40
0.0353
 41
0.0353
 66
1
 10
0
 20
0
 30
0
  0
VERTEX
  8
LAYER_6
 10
84.6719
 20
-93.1153
  0
VERTEX
  8
LAYER_6
 10
84.6719
 20
-93.5153
  0
SEQEND
  0
POLYLINE
  8
LAYER_6
 40
0.0353
 41
0.0353
 66
1
 10
0
 20
0
 30
0
  0
VERTEX
  8
LAYER_6
 10
77.6719
 20
-93.1153
  0
VERTEX
  8
LAYER_6
 10
77.6719
 20
-93.5153
  0
VERTEX
  8
LAYER_6
 10
81.1719
 20
-93.5153
  0
VERTEX
  8
LAYER_6
 10
84.6719
 20
-93.5153
  0
VERTEX
  8
LAYER_6
 10
83.2674
 20
-93.5153
  0
VERTEX
  8
LAYER_6
 10
83.2674
 20
-98.0153
  0
SEQEND
  0
POLYLINE
  8
LAYER_6
 40
0.0353
 41
0.0353
 66
1
 10
0
 20
0
 30
0
 70
1
  0
VERTEX
  8
LAYER_6
 10
77.7719
 20
-98.0153
  0
VERTEX
  8
LAYER_6
 10
84.5719
 20
-98.0153
  0
VERTEX
  8
LAYER_6
 10
84.5719
 20
-98.4153
  0
VERTEX
  8
LAYER_6
 10
77.7719
 20
-98.4153
  0
SEQEND
  0
POLYLINE
  8
LAYER_6
 40
0.2469
 41
0.2469
 66
1
 10
0
 20
0
 30
0
  0
VERTEX
  8
LAYER_6
 10
83.8219
 20
-98.6153
  0
VERTEX
  8
LAYER_6
 10
81.1719
 20
-98.6153
  0
VERTEX
  8
LAYER_6
 10
78.5219
 20
-98.6153
  0
SEQEND
  0
POLYLINE
  8
LAYER_6
 40
0.0353
 41
0.0353
 66
1
 10
0
 20
0
 30
0
  0
VERTEX
  8
LAYER_6
 10
80.2719
 20
-123.4204
 42
-0.3989096544
  0
VERTEX
  8
LAYER_6
 10
80.6319
 20
-123.4204
 42
0.1902859024
  0
VERTEX
  8
LAYER_6
 10
80.8119
 20
-123.4924
 42
0.1900621464
  0
VERTEX
  8
LAYER_6
 10
80.9919
 20
-123.4204
 42
-0.190485421
  0
VERTEX
  8
LAYER_6
 10
81.1719
 20
-123.3484
 42
-0.1905235853
  0
VERTEX
  8
LAYER_6
 10
81.3519
 20
-123.4204
 42
0.1902859024
  0
VERTEX
  8
LAYER_6
 10
81.5319
 20
-123.4924
 42
0.1900621464
  0
VERTEX
  8
LAYER_6
 10
81.7119
 20
-123.4204
 42
-0.190485421
  0
VERTEX
  8
LAYER_6
 10
81.8919
 20
-123.3484
 42
-0.1905235853
  0
VERTEX
  8
LAYER_6
 10
82.0719
 20
-123.4204
  0
SEQEND
  0
POLYLINE
  8
LAYER_6
 40
0.0353
 41
0.0353
 66
1
 10
0
 20
0
 30
0
  0
VERTEX
  8
LAYER_6
 10
169.3664
 20
-123.4159
 42
-0.3989096578
  0
VERTEX
  8
LAYER_6
 10
169.7264
 20
-123.4159
 42
0.1902859024
  0
VERTEX
  8
LAYER_6
 10
169.9064
 20
-123.4879
 42
0.1900621464
  0
VERTEX
  8
LAYER_6
 10
170.0864
 20
-123.4159
 42
-0.190485421
  0
VERTEX
  8
LAYER_6
 10
170.2664
 20
-123.3439
 42
-0.1905235853
  0
VERTEX
  8
LAYER_6
 10
170.4464
 20
-123.4159
 42
0.1902859024
  0
VERTEX
  8
LAYER_6
 10
170.6264
 20
-123.4879
 42
0.1900621464
  0
VERTEX
  8
LAYER_6
 10
170.8064
 20
-123.4159
 42
-0.190485421
  0
VERTEX
  8
LAYER_6
 10
170.9864
 20
-123.3439
 42
-0.1905235853
  0
VERTEX
  8
LAYER_6
 10
171.1664
 20
-123.4159
  0
SEQEND
  0
POLYLINE
  8
LAYER_6
 40
0.0353
 41
0.0353
 66
1
 10
0
 20
0
 30
0
  0
VERTEX
  8
LAYER_6
 10
214.6495
 20
-115.97
  0
VERTEX
  8
LAYER_6
 10
214.6495
 20
-108.2108
 42
0.4142035303
  0
VERTEX
  8
LAYER_6
 10
212.6495
 20
-106.2108
  0
VERTEX
  8
LAYER_6
 10
178.7264
 20
-106.2108
  0
SEQEND
  0
POLYLINE
  8
LAYER_6
 40
0.0353
 41
0.0353
 66
1
 10
0
 20
0
 30
0
  0
VERTEX
  8
LAYER_6
 10
213.6495
 20
-115.97
  0
VERTEX
  8
LAYER_6
 10
213.6495
 20
-108.2108
 42
0.4141993106
  0
VERTEX
  8
LAYER_6
 10
212.6495
 20
-107.2108
  0
VERTEX
  8
LAYER_6
 10
178.7264
 20
-107.2108
  0
SEQEND
  0
POLYLINE
  8
LAYER_6
  6
AIGENLINE001
 40
0.0353
 41
0.0353
 66
1
 10
0
 20
0
 30
0
 70
128
  0
VERTEX
  8
LAYER_6
 10
76.6719
 20
-16.3797
  0
VERTEX
  8
LAYER_6
 10
85.6719
 20
-16.3797
  0
SEQEND
  0
POLYLINE
  8
LAYER_6
 40
0.0353
 41
0.0353
 66
1
 10
0
 20
0
 30
0
  0
VERTEX
  8
LAYER_6
 10
83.7119
 20
-19.3392
 42
0.218405686
  0
VERTEX
  8
LAYER_6
 10
85.0719
 20
-16.3797
 42
0.4142042642
  0
VERTEX
  8
LAYER_6
 10
81.1719
 20
-12.4797
 42
0.4142088472
  0
VERTEX
  8
LAYER_6
 10
77.2719
 20
-16.3797
 42
0.2184087868
  0
VERTEX
  8
LAYER_6
 10
78.6319
 20
-19.3392
  0
SEQEND
  0
POLYLINE
  8
LAYER_6
 40
0.0353
 41
0.0353
 66
1
 10
0
 20
0
 30
0
 70
1
  0
VERTEX
  8
LAYER_6
 10
170.8664
 20
-93.1108
  0
VERTEX
  8
LAYER_6
 10
167.0264
 20
-93.1108
  0
VERTEX
  8
LAYER_6
 10
166.9664
 20
-93.0508
  0
VERTEX
  8
LAYER_6
 10
170.8664
 20
-93.0508
  0
VERTEX
  8
LAYER_6
 10
174.7664
 20
-93.0508
  0
VERTEX
  8
LAYER_6
 10
174.7064
 20
-93.1108
  0
SEQEND
  0
POLYLINE
  8
LAYER_6
 40
0.0353
 41
0.0353
 66
1
 10
0
 20
0
 30
0
  0
VERTEX
  8
LAYER_6
 10
169.6384
 20
-102.2108
  0
VERTEX
  8
LAYER_6
 10
169.6384
 20
-102.4108
  0
VERTEX
  8
LAYER_6
 10
170.8664
 20
-102.4108
  0
VERTEX
  8
LAYER_6
 10
172.5664
 20
-102.4108
  0
VERTEX
  8
LAYER_6
 10
172.5664
 20
-102.2108
  0
SEQEND
  0
POLYLINE
  8
LAYER_6
 40
0.0353
 41
0.0353
 66
1
 10
0
 20
0
 30
0
  0
VERTEX
  8
LAYER_6
 10
171.4664
 20
-102.4108
  0
VERTEX
  8
LAYER_6
 10
171.4664
 20
-103.1508
 42
-0.3927995515
  0
VERTEX
  8
LAYER_6
 10
171.4064
 20
-103.2108
  0
VERTEX
  8
LAYER_6
 10
170.3264
 20
-103.2108
 42
-0.3927995517
  0
VERTEX
  8
LAYER_6
 10
170.2664
 20
-103.1508
  0
VERTEX
  8
LAYER_6
 10
170.2664
 20
-102.4108
  0
SEQEND
  0
POLYLINE
  8
LAYER_6
 40
0.0353
 41
0.0353
 66
1
 10
0
 20
0
 30
0
  0
VERTEX
  8
LAYER_6
 10
174.6664
 20
-91.1111
  0
VERTEX
  8
LAYER_6
 10
170.8664
 20
-91.1111
  0
VERTEX
  8
LAYER_6
 10
167.0664
 20
-91.1111
  0
SEQEND
  0
POLYLINE
  8
LAYER_6
  6
AIGENLINE001
 40
0.0353
 41
0.0353
 66
1
 10
0
 20
0
 30
0
 70
128
  0
VERTEX
  8
LAYER_6
 10
151.625
 20
-85.324
  0
VERTEX
  8
LAYER_6
 10
157.1968
 20
-77.93
 42
-0.2346457429
  0
VERTEX
  8
LAYER_6
 10
163.2664
 20
-74.9038
 42
-0.4142072482
  0
VERTEX
  8
LAYER_6
 10
170.8664
 20
-82.5038
  0
VERTEX
  8
LAYER_6
 10
170.8664
 20
-103.4108
  0
SEQEND
  0
POLYLINE
  8
LAYER_6
 40
0.0353
 41
0.0353
 66
1
 10
0
 20
0
 30
0
  0
VERTEX
  8
LAYER_6
 10
156.0477
 20
-83.6754
  0
VERTEX
  8
LAYER_6
 10
156.1641
 20
-83.7127
 42
0.2346562879
  0
VERTEX
  8
LAYER_6
 10
156.3238
 20
-83.633
  0
VERTEX
  8
LAYER_6
 10
156.6608
 20
-83.1858
 42
0.1615826306
  0
VERTEX
  8
LAYER_6
 10
156.7011
 20
-83.0654
 42
0.2246400346
  0
VERTEX
  8
LAYER_6
 10
156.6254
 20
-82.9088
  0
SEQEND
  0
POLYLINE
  8
LAYER_6
 40
0.0353
 41
0.0353
 66
1
 10
0
 20
0
 30
0
  0
VERTEX
  8
LAYER_6
 10
151.8601
 20
-83.9257
  0
VERTEX
  8
LAYER_6
 10
151.839
 20
-84.0052
 42
0.2310713163
  0
VERTEX
  8
LAYER_6
 10
151.9027
 20
-84.133
  0
VERTEX
  8
LAYER_6
 10
152.9329
 20
-84.9093
  0
VERTEX
  8
LAYER_6
 10
153.9631
 20
-85.6857
  0
VERTEX
  8
LAYER_6
 10
154.0594
 20
-85.7179
 42
0.1995274494
  0
VERTEX
  8
LAYER_6
 10
154.1742
 20
-85.6694
  0
SEQEND
  0
POLYLINE
  8
LAYER_6
 40
0.0353
 41
0.0353
 66
1
 10
0
 20
0
 30
0
  0
VERTEX
  8
LAYER_6
 10
168.6964
 20
-90.5108
  0
VERTEX
  8
LAYER_6
 10
168.3864
 20
-90.5108
 42
-0.3927995517
  0
VERTEX
  8
LAYER_6
 10
168.3264
 20
-90.4508
  0
VERTEX
  8
LAYER_6
 10
168.3264
 20
-82.5038
 42
0.4142069963
  0
VERTEX
  8
LAYER_6
 10
163.2664
 20
-77.4438
 42
0.2346460538
  0
VERTEX
  8
LAYER_6
 10
159.2253
 20
-79.4586
  0
VERTEX
  8
LAYER_6
 10
156.0477
 20
-83.6754
  0
VERTEX
  8
LAYER_6
 10
154.5071
 20
-85.7199
 42
-0.230603089
  0
VERTEX
  8
LAYER_6
 10
154.3793
 20
-85.7836
  0
VERTEX
  8
LAYER_6
 10
154.283
 20
-85.7514
  0
VERTEX
  8
LAYER_6
 10
152.3822
 20
-84.3191
  0
VERTEX
  8
LAYER_6
 10
150.4815
 20
-82.8868
 42
-0.230603089
  0
VERTEX
  8
LAYER_6
 10
150.4178
 20
-82.759
  0
VERTEX
  8
LAYER_6
 10
150.45
 20
-82.6627
  0
VERTEX
  8
LAYER_6
 10
155.1682
 20
-76.4014
 42
-0.2346471516
  0
VERTEX
  8
LAYER_6
 10
163.2664
 20
-72.3638
 42
-0.4142073739
  0
VERTEX
  8
LAYER_6
 10
173.4064
 20
-82.5038
  0
VERTEX
  8
LAYER_6
 10
173.4064
 20
-90.4508
 42
-0.3927995515
  0
VERTEX
  8
LAYER_6
 10
173.3464
 20
-90.5108
  0
VERTEX
  8
LAYER_6
 10
173.0364
 20
-90.5108
  0
SEQEND
  0
POLYLINE
  8
LAYER_6
  6
AIGENLINE001
 40
0.0353
 41
0.0353
 66
1
 10
0
 20
0
 30
0
 70
128
  0
VERTEX
  8
LAYER_6
 10
150.4655
 20
-82.8747
  0
VERTEX
  8
LAYER_6
 10
150.3537
 20
-82.7905
  0
VERTEX
  8
LAYER_6
 10
150.45
 20
-82.6627
  0
SEQEND
  0
POLYLINE
  8
LAYER_6
 40
0.0353
 41
0.0353
 66
1
 10
0
 20
0
 30
0
  0
VERTEX
  8
LAYER_6
 10
168.7664
 20
-90.5108
  0
VERTEX
  8
LAYER_6
 10
168.3864
 20
-90.5108
  0
VERTEX
  8
LAYER_6
 10
170.8664
 20
-90.5108
  0
VERTEX
  8
LAYER_6
 10
173.3464
 20
-90.5108
  0
VERTEX
  8
LAYER_6
 10
170.8664
 20
-90.5108
  0
VERTEX
  8
LAYER_6
 10
173.3664
 20
-90.5108
 42
0.3932194763
  0
VERTEX
  8
LAYER_6
 10
173.4064
 20
-90.4708
  0
SEQEND
  0
POLYLINE
  8
LAYER_6
 40
0.0353
 41
0.0353
 66
1
 10
0
 20
0
 30
0
  0
VERTEX
  8
LAYER_6
 10
152.9329
 20
-87.0749
  0
VERTEX
  8
LAYER_6
 10
152.9329
 20
-84.9093
  0
VERTEX
  8
LAYER_6
 10
151.625
 20
-86.645
  0
SEQEND
  0
POLYLINE
  8
LAYER_6
  6
AIGENLINE001
 40
0.0353
 41
0.0353
 66
1
 10
0
 20
0
 30
0
 70
128
  0
VERTEX
  8
LAYER_6
 10
81.1719
 20
-11.8797
  0
VERTEX
  8
LAYER_6
 10
81.1719
 20
-37.4283
  0
SEQEND
  0
POLYLINE
  8
LAYER_6
 40
0.0353
 41
0.0353
 66
1
 10
0
 20
0
 30
0
  0
VERTEX
  8
LAYER_6
 10
167.8664
 20
-164.8854
  0
VERTEX
  8
LAYER_6
 10
170.2664
 20
-167.2854
  0
VERTEX
  8
LAYER_6
 10
172.6664
 20
-164.8854
  0
SEQEND
  0
POLYLINE
  8
LAYER_6
 40
0.0353
 41
0.0353
 66
1
 10
0
 20
0
 30
0
  0
VERTEX
  8
LAYER_6
 10
175.8664
 20
-167.2854
  0
VERTEX
  8
LAYER_6
 10
175.8664
 20
-167.2857
 42
-0.1762491353
  0
VERTEX
  8
LAYER_6
 10
175.7205
 20
-167.67
 42
-0.08855436571
  0
VERTEX
  8
LAYER_6
 10
175.3963
 20
-167.9722
 42
-0.05927471652
  0
VERTEX
  8
LAYER_6
 10
174.5025
 20
-168.4536
 42
-0.02341356465
  0
VERTEX
  8
LAYER_6
 10
173.4664
 20
-168.8346
 42
0.04967899268
  0
VERTEX
  8
LAYER_6
 10
173.069
 20
-169.0022
 42
0.04091289187
  0
VERTEX
  8
LAYER_6
 10
172.0675
 20
-169.6845
  0
SEQEND
  0
POLYLINE
  8
LAYER_6
  6
AIGENLINE001
 40
0.0353
 41
0.0353
 66
1
 10
0
 20
0
 30
0
 70
128
  0
VERTEX
  8
LAYER_6
 10
81.1719
 20
-71.7683
  0
VERTEX
  8
LAYER_6
 10
81.1719
 20
-153.4254
  0
SEQEND
  0
POLYLINE
  8
LAYER_6
 40
0.0353
 41
0.0353
 66
1
 10
0
 20
0
 30
0
  0
VERTEX
  8
LAYER_6
 10
214.7095
 20
-130.3771
  0
VERTEX
  8
LAYER_6
 10
213.5895
 20
-130.3771
  0
SEQEND
  0
POLYLINE
  8
LAYER_6
 40
0.0353
 41
0.0353
 66
1
 10
0
 20
0
 30
0
  0
VERTEX
  8
LAYER_6
 10
213.2495
 20
-125.5771
  0
VERTEX
  8
LAYER_6
 10
213.2495
 20
-127.6952
 42
0.03515010051
  0
VERTEX
  8
LAYER_6
 10
213.289
 20
-128.2562
  0
VERTEX
  8
LAYER_6
 10
213.5733
 20
-130.2631
  0
VERTEX
  8
LAYER_6
 10
213.5743
 20
-130.2771
 42
-0.2943809548
  0
VERTEX
  8
LAYER_6
 10
213.5119
 20
-130.3698
 42
0.2947832047
  0
VERTEX
  8
LAYER_6
 10
213.4495
 20
-130.4624
  0
VERTEX
  8
LAYER_6
 10
213.4495
 20
-132.3771
  0
VERTEX
  8
LAYER_6
 10
214.8495
 20
-132.3771
  0
VERTEX
  8
LAYER_6
 10
214.8495
 20
-130.4624
 42
0.2951168145
  0
VERTEX
  8
LAYER_6
 10
214.7871
 20
-130.3698
 42
-0.2945153903
  0
VERTEX
  8
LAYER_6
 10
214.7246
 20
-130.2771
  0
VERTEX
  8
LAYER_6
 10
214.7256
 20
-130.2631
  0
VERTEX
  8
LAYER_6
 10
215.0099
 20
-128.2562
 42
0.0352525859
  0
VERTEX
  8
LAYER_6
 10
215.0495
 20
-127.6952
  0
VERTEX
  8
LAYER_6
 10
215.0495
 20
-125.5771
  0
SEQEND
  0
POLYLINE
  8
LAYER_6
 40
0.0353
 41
0.0353
 66
1
 10
0
 20
0
 30
0
  0
VERTEX
  8
LAYER_6
 10
213.3495
 20
-127.9771
  0
VERTEX
  8
LAYER_6
 10
214.9495
 20
-127.9771
  0
SEQEND
  0
POLYLINE
  8
LAYER_6
 40
0.0353
 41
0.0353
 66
1
 10
0
 20
0
 30
0
  0
VERTEX
  8
LAYER_6
 10
200.1201
 20
-176.465
  0
VERTEX
  8
LAYER_6
 10
211.6539
 20
-176.465
 42
0.4116472455
  0
VERTEX
  8
LAYER_6
 10
214.6695
 20
-173.4251
  0
VERTEX
  8
LAYER_6
 10
214.6694
 20
-173.4008
  0
SEQEND
  0
POLYLINE
  8
LAYER_6
 40
0.0353
 41
0.0353
 66
1
 10
0
 20
0
 30
0
  0
VERTEX
  8
LAYER_6
 10
213.6295
 20
-132.3771
  0
VERTEX
  8
LAYER_6
 10
213.6295
 20
-173.4091
  0
VERTEX
  8
LAYER_6
 10
213.6295
 20
-173.4251
 42
-0.4116568052
  0
VERTEX
  8
LAYER_6
 10
211.6455
 20
-175.425
  0
SEQEND
  0
POLYLINE
  8
LAYER_6
 40
0.0353
 41
0.0353
 66
1
 10
0
 20
0
 30
0
  0
VERTEX
  8
LAYER_6
 10
214.6695
 20
-173.4448
  0
VERTEX
  8
LAYER_6
 10
214.6695
 20
-132.3771
  0
SEQEND
  0
POLYLINE
  8
LAYER_6
 40
0.0353
 41
0.0353
 66
1
 10
0
 20
0
 30
0
  0
VERTEX
  8
LAYER_6
 10
200.1201
 20
-175.425
 42
-0.398908343
  0
VERTEX
  8
LAYER_6
 10
200.1201
 20
-175.633
 42
0.1902926427
  0
VERTEX
  8
LAYER_6
 10
200.0785
 20
-175.737
 42
0.1897604448
  0
VERTEX
  8
LAYER_6
 10
200.1201
 20
-175.841
 42
-0.1903530322
  0
VERTEX
  8
LAYER_6
 10
200.1617
 20
-175.945
 42
-0.1906803337
  0
VERTEX
  8
LAYER_6
 10
200.1201
 20
-176.049
 42
0.1902926427
  0
VERTEX
  8
LAYER_6
 10
200.0785
 20
-176.153
 42
0.1897604448
  0
VERTEX
  8
LAYER_6
 10
200.1201
 20
-176.257
 42
-0.1903530322
  0
VERTEX
  8
LAYER_6
 10
200.1617
 20
-176.361
 42
-0.1906803337
  0
VERTEX
  8
LAYER_6
 10
200.1201
 20
-176.465
  0
SEQEND
  0
POLYLINE
  8
LAYER_6
 40
0.0353
 41
0.0353
 66
1
 10
0
 20
0
 30
0
  0
VERTEX
  8
LAYER_6
 10
200.1201
 20
-175.425
  0
VERTEX
  8
LAYER_6
 10
211.6493
 20
-175.425
  0
SEQEND
  0
POLYLINE
  8
LAYER_6
 40
0.0353
 41
0.0353
 66
1
 10
0
 20
0
 30
0
  0
VERTEX
  8
LAYER_6
 10
169.3664
 20
-124.4204
  0
VERTEX
  8
LAYER_6
 10
169.3664
 20
-137.3454
  0
SEQEND
  0
POLYLINE
  8
LAYER_6
 40
0.0353
 41
0.0353
 66
1
 10
0
 20
0
 30
0
  0
VERTEX
  8
LAYER_6
 10
171.1664
 20
-124.4204
  0
VERTEX
  8
LAYER_6
 10
171.1664
 20
-137.3454
  0
SEQEND
  0
POLYLINE
  8
LAYER_6
 40
0.0353
 41
0.0353
 66
1
 10
0
 20
0
 30
0
  0
VERTEX
  8
LAYER_6
 10
171.1664
 20
-137.6854
  0
VERTEX
  8
LAYER_6
 10
171.1664
 20
-137.7854
  0
SEQEND
  0
POLYLINE
  8
LAYER_6
 40
0.0353
 41
0.0353
 66
1
 10
0
 20
0
 30
0
  0
VERTEX
  8
LAYER_6
 10
171.1664
 20
-138.5054
  0
VERTEX
  8
LAYER_6
 10
171.1664
 20
-138.6054
  0
SEQEND
  0
POLYLINE
  8
LAYER_6
 40
0.0353
 41
0.0353
 66
1
 10
0
 20
0
 30
0
  0
VERTEX
  8
LAYER_6
 10
171.1664
 20
-124.4204
 42
0.398909658
  0
VERTEX
  8
LAYER_6
 10
170.8064
 20
-124.4204
 42
-0.1902859024
  0
VERTEX
  8
LAYER_6
 10
170.6264
 20
-124.4924
 42
-0.1900621464
  0
VERTEX
  8
LAYER_6
 10
170.4464
 20
-124.4204
 42
0.190485421
  0
VERTEX
  8
LAYER_6
 10
170.2664
 20
-124.3484
 42
0.1905235853
  0
VERTEX
  8
LAYER_6
 10
170.0864
 20
-124.4204
 42
-0.1902859024
  0
VERTEX
  8
LAYER_6
 10
169.9064
 20
-124.4924
 42
-0.1900621464
  0
VERTEX
  8
LAYER_6
 10
169.7264
 20
-124.4204
 42
0.190485421
  0
VERTEX
  8
LAYER_6
 10
169.5464
 20
-124.3484
 42
0.1905235853
  0
VERTEX
  8
LAYER_6
 10
169.3664
 20
-124.4204
  0
SEQEND
  0
POLYLINE
  8
LAYER_6
 40
0.0353
 41
0.0353
 66
1
 10
0
 20
0
 30
0
  0
VERTEX
  8
LAYER_6
 10
171.2864
 20
-138.8054
  0
VERTEX
  8
LAYER_6
 10
171.2864
 20
-138.6054
  0
SEQEND
  0
POLYLINE
  8
LAYER_6
 40
0.0353
 41
0.0353
 66
1
 10
0
 20
0
 30
0
  0
VERTEX
  8
LAYER_6
 10
171.2864
 20
-137.6854
  0
VERTEX
  8
LAYER_6
 10
171.2864
 20
-137.3454
  0
SEQEND
  0
POLYLINE
  8
LAYER_6
 40
0.0353
 41
0.0353
 66
1
 10
0
 20
0
 30
0
  0
VERTEX
  8
LAYER_6
 10
171.7523
 20
-138.8054
  0
VERTEX
  8
LAYER_6
 10
171.7615
 20
-138.7454
  0
VERTEX
  8
LAYER_6
 10
171.7615
 20
-137.5454
 42
0.4142129028
  0
VERTEX
  8
LAYER_6
 10
171.5615
 20
-137.3454
  0
VERTEX
  8
LAYER_6
 10
171.1464
 20
-137.3454
  0
VERTEX
  8
LAYER_6
 10
169.2464
 20
-137.3454
  0
VERTEX
  8
LAYER_6
 10
169.2464
 20
-138.8054
  0
SEQEND
  0
POLYLINE
  8
LAYER_6
 40
0.0353
 41
0.0353
 66
1
 10
0
 20
0
 30
0
 70
1
  0
VERTEX
  8
LAYER_6
 10
171.4015
 20
-138.5054
  0
VERTEX
  8
LAYER_6
 10
171.0417
 20
-138.5054
  0
VERTEX
  8
LAYER_6
 10
171.0417
 20
-137.7854
  0
VERTEX
  8
LAYER_6
 10
171.4015
 20
-137.7854
 42
-0.4142106129
  0
VERTEX
  8
LAYER_6
 10
171.7615
 20
-138.1454
 42
-0.4141990383
  0
SEQEND
  0
POLYLINE
  8
LAYER_6
 40
0.0353
 41
0.0353
 66
1
 10
0
 20
0
 30
0
  0
VERTEX
  8
LAYER_6
 10
171.5491
 20
-137.7854
  0
VERTEX
  8
LAYER_6
 10
171.5491
 20
-137.7855
  0
SEQEND
  0
POLYLINE
  8
LAYER_6
 40
0.0353
 41
0.0353
 66
1
 10
0
 20
0
 30
0
  0
VERTEX
  8
LAYER_6
 10
171.4091
 20
-137.7854
 42
0.4142753419
  0
VERTEX
  8
LAYER_6
 10
171.3091
 20
-137.6854
  0
VERTEX
  8
LAYER_6
 10
171.0417
 20
-137.6854
 42
0.4142236834
  0
VERTEX
  8
LAYER_6
 10
170.5817
 20
-138.1454
 42
0.4142146246
  0
VERTEX
  8
LAYER_6
 10
171.0417
 20
-138.6054
  0
VERTEX
  8
LAYER_6
 10
171.3091
 20
-138.6054
 42
0.414233659
  0
VERTEX
  8
LAYER_6
 10
171.4091
 20
-138.5054
  0
SEQEND
  0
POLYLINE
  8
LAYER_6
 40
0.0353
 41
0.0353
 66
1
 10
0
 20
0
 30
0
  0
VERTEX
  8
LAYER_6
 10
169.2464
 20
-138.3754
  0
VERTEX
  8
LAYER_6
 10
169.434
 20
-138.3754
  0
VERTEX
  8
LAYER_6
 10
169.5402
 20
-138.4059
  0
VERTEX
  8
LAYER_6
 10
169.6464
 20
-138.4364
  0
VERTEX
  8
LAYER_6
 10
169.6969
 20
-138.4299
  0
VERTEX
  8
LAYER_6
 10
170.0347
 20
-138.3417
 42
0.3559684016
  0
VERTEX
  8
LAYER_6
 10
170.1964
 20
-138.1454
 42
0.3559844012
  0
VERTEX
  8
LAYER_6
 10
170.0347
 20
-137.9491
  0
VERTEX
  8
LAYER_6
 10
169.6969
 20
-137.8609
  0
VERTEX
  8
LAYER_6
 10
169.6464
 20
-137.8544
  0
VERTEX
  8
LAYER_6
 10
169.5402
 20
-137.8849
  0
VERTEX
  8
LAYER_6
 10
169.434
 20
-137.9154
  0
VERTEX
  8
LAYER_6
 10
169.2464
 20
-137.9154
  0
SEQEND
  0
POLYLINE
  8
LAYER_6
 40
0.0353
 41
0.0353
 66
1
 10
0
 20
0
 30
0
  0
VERTEX
  8
LAYER_6
 10
171.5491
 20
-138.5054
  0
VERTEX
  8
LAYER_6
 10
171.5491
 20
-138.5053
  0
SEQEND
  0
POLYLINE
  8
LAYER_6
 40
0.0353
 41
0.0353
 66
1
 10
0
 20
0
 30
0
  0
VERTEX
  8
LAYER_6
 10
175.5864
 20
-170.0854
  0
VERTEX
  8
LAYER_6
 10
175.5864
 20
-170.2854
  0
SEQEND
  0
POLYLINE
  8
LAYER_6
 40
0.0353
 41
0.0353
 66
1
 10
0
 20
0
 30
0
  0
VERTEX
  8
LAYER_6
 10
175.5664
 20
-170.0854
  0
VERTEX
  8
LAYER_6
 10
173.9664
 20
-170.0854
  0
VERTEX
  8
LAYER_6
 10
172.3464
 20
-170.0854
  0
VERTEX
  8
LAYER_6
 10
172.3464
 20
-170.2854
  0
SEQEND
  0
POLYLINE
  8
LAYER_6
 40
0.0353
 41
0.0353
 66
1
 10
0
 20
0
 30
0
  0
VERTEX
  8
LAYER_6
 10
172.8164
 20
-170.0854
  0
VERTEX
  8
LAYER_6
 10
172.4264
 20
-170.0854
  0
VERTEX
  8
LAYER_6
 10
172.1664
 20
-170.0854
  0
VERTEX
  8
LAYER_6
 10
172.0664
 20
-169.9854
  0
SEQEND
  0
POLYLINE
  8
LAYER_6
  6
AIGENLINE001
 40
0.0353
 41
0.0353
 66
1
 10
0
 20
0
 30
0
 70
128
  0
VERTEX
  8
LAYER_6
 10
173.9664
 20
-170.3412
  0
VERTEX
  8
LAYER_6
 10
173.9664
 20
-164.6384
  0
VERTEX
  8
LAYER_6
 10
173.9664
 20
-173.282
  0
SEQEND
  0
POLYLINE
  8
LAYER_6
 40
0.0353
 41
0.0353
 66
1
 10
0
 20
0
 30
0
  0
VERTEX
  8
LAYER_6
 10
167.8664
 20
-162.4854
  0
VERTEX
  8
LAYER_6
 10
167.8664
 20
-164.4854
 42
-0.414194273
  0
VERTEX
  8
LAYER_6
 10
167.4664
 20
-164.8854
  0
VERTEX
  8
LAYER_6
 10
166.3664
 20
-164.8854
  0
SEQEND
  0
POLYLINE
  8
LAYER_6
 40
0.0353
 41
0.0353
 66
1
 10
0
 20
0
 30
0
  0
VERTEX
  8
LAYER_6
 10
172.6664
 20
-162.4854
  0
VERTEX
  8
LAYER_6
 10
172.6664
 20
-164.4854
 42
0.4142108101
  0
VERTEX
  8
LAYER_6
 10
173.0664
 20
-164.8854
  0
VERTEX
  8
LAYER_6
 10
173.4664
 20
-164.8854
 42
-0.41420724
  0
VERTEX
  8
LAYER_6
 10
175.8664
 20
-167.2854
  0
VERTEX
  8
LAYER_6
 10
175.8664
 20
-169.9861
  0
SEQEND
  0
POLYLINE
  8
LAYER_6
 40
0.0353
 41
0.0353
 66
1
 10
0
 20
0
 30
0
  0
VERTEX
  8
LAYER_6
 10
172.4664
 20
-162.3054
  0
VERTEX
  8
LAYER_6
 10
172.4664
 20
-162.3854
  0
SEQEND
  0
POLYLINE
  8
LAYER_6
 40
0.0353
 41
0.0353
 66
1
 10
0
 20
0
 30
0
  0
VERTEX
  8
LAYER_6
 10
168.0664
 20
-162.3054
  0
VERTEX
  8
LAYER_6
 10
168.0664
 20
-162.3854
  0
SEQEND
  0
POLYLINE
  8
LAYER_6
  6
AIGENLINE001
 40
0.0353
 41
0.0353
 66
1
 10
0
 20
0
 30
0
 70
128
  0
VERTEX
  8
LAYER_6
 10
176.2664
 20
-167.2854
  0
VERTEX
  8
LAYER_6
 10
165.4531
 20
-167.2854
  0
SEQEND
  0
POLYLINE
  8
LAYER_6
 40
0.0353
 41
0.0353
 66
1
 10
0
 20
0
 30
0
  0
VERTEX
  8
LAYER_6
 10
166.2664
 20
-169.3754
  0
VERTEX
  8
LAYER_6
 10
166.0118
 20
-169.3754
 42
-0.06738518529
  0
VERTEX
  8
LAYER_6
 10
165.7086
 20
-167.4654
  0
VERTEX
  8
LAYER_6
 10
166.2664
 20
-167.4654
  0
SEQEND
  0
POLYLINE
  8
LAYER_6
 40
0.0353
 41
0.0353
 66
1
 10
0
 20
0
 30
0
  0
VERTEX
  8
LAYER_6
 10
166.2664
 20
-165.1954
  0
VERTEX
  8
LAYER_6
 10
166.0118
 20
-165.1954
 42
0.06738521151
  0
VERTEX
  8
LAYER_6
 10
165.7086
 20
-167.1054
  0
VERTEX
  8
LAYER_6
 10
166.2664
 20
-167.1054
  0
SEQEND
  0
POLYLINE
  8
LAYER_6
 40
0.0353
 41
0.0353
 66
1
 10
0
 20
0
 30
0
  0
VERTEX
  8
LAYER_6
 10
167.4164
 20
-159.0854
  0
VERTEX
  8
LAYER_6
 10
167.4164
 20
-158.3854
  0
VERTEX
  8
LAYER_6
 10
170.2664
 20
-158.3854
  0
VERTEX
  8
LAYER_6
 10
173.1164
 20
-158.3854
  0
VERTEX
  8
LAYER_6
 10
173.1164
 20
-159.0854
  0
SEQEND
  0
POLYLINE
  8
LAYER_6
 40
0.0353
 41
0.0353
 66
1
 10
0
 20
0
 30
0
  0
VERTEX
  8
LAYER_6
 10
172.0664
 20
-142.4254
  0
VERTEX
  8
LAYER_6
 10
172.0664
 20
-141.8854
  0
SEQEND
  0
POLYLINE
  8
LAYER_6
 40
0.0353
 41
0.0353
 66
1
 10
0
 20
0
 30
0
  0
VERTEX
  8
LAYER_6
 10
168.4664
 20
-141.8854
  0
VERTEX
  8
LAYER_6
 10
168.5464
 20
-141.8054
  0
SEQEND
  0
POLYLINE
  8
LAYER_6
 40
0.1905
 41
0.1905
 62
2
 66
1
 10
0
 20
0
 30
0
  0
VERTEX
  8
LAYER_6
 10
176.6614
 20
-171.5854
 42
0.1143988894
  0
VERTEX
  8
LAYER_6
 10
176.5206
 20
-170.9252
 42
0.2637574174
  0
VERTEX
  8
LAYER_6
 10
176.1515
 20
-170.6285
 42
0.2341848505
  0
VERTEX
  8
LAYER_6
 10
175.8613
 20
-170.7984
 42
0.1631801632
  0
VERTEX
  8
LAYER_6
 10
175.6416
 20
-171.5854
  0
SEQEND
  0
POLYLINE
  8
LAYER_6
 40
0.2399
 41
0.2399
 62
2
 66
1
 10
0
 20
0
 30
0
  0
VERTEX
  8
LAYER_6
 10
173.9864
 20
-172.5423
 42
0.2667158619
  0
VERTEX
  8
LAYER_6
 10
174.9002
 20
-172.0107
 42
0.1223346047
  0
VERTEX
  8
LAYER_6
 10
175.0062
 20
-171.5854
  0
SEQEND
  0
POLYLINE
  8
LAYER_6
 40
0.2399
 41
0.2399
 62
2
 66
1
 10
0
 20
0
 30
0
  0
VERTEX
  8
LAYER_6
 10
173.9864
 20
-170.6285
 42
0.2667158619
  0
VERTEX
  8
LAYER_6
 10
173.0726
 20
-171.1601
 42
0.1223346049
  0
VERTEX
  8
LAYER_6
 10
172.9666
 20
-171.5854
  0
SEQEND
  0
POLYLINE
  8
LAYER_6
 40
0.2469
 41
0.2469
 66
1
 10
0
 20
0
 30
0
  0
VERTEX
  8
LAYER_6
 10
175.6416
 20
-171.5854
  0
VERTEX
  8
LAYER_6
 10
175.6416
 20
-172.3627
 42
0.4142235766
  0
VERTEX
  8
LAYER_6
 10
175.8416
 20
-172.5627
  0
VERTEX
  8
LAYER_6
 10
176.4614
 20
-172.5627
 42
0.4140835107
  0
VERTEX
  8
LAYER_6
 10
176.6614
 20
-172.3627
  0
VERTEX
  8
LAYER_6
 10
176.6614
 20
-171.5854
  0
SEQEND
  0
POLYLINE
  8
LAYER_6
 40
0.2469
 41
0.2469
 66
1
 10
0
 20
0
 30
0
  0
VERTEX
  8
LAYER_6
 10
171.6522
 20
-170.2854
 42
0.1327403421
  0
VERTEX
  8
LAYER_6
 10
171.3039
 20
-171.5854
  0
VERTEX
  8
LAYER_6
 10
171.3039
 20
-172.4854
 42
0.414210332
  0
VERTEX
  8
LAYER_6
 10
171.7039
 20
-172.8854
  0
VERTEX
  8
LAYER_6
 10
173.9864
 20
-172.8854
  0
VERTEX
  8
LAYER_6
 10
176.2689
 20
-172.8854
 42
0.4141937945
  0
VERTEX
  8
LAYER_6
 10
176.6689
 20
-172.4854
  0
VERTEX
  8
LAYER_6
 10
176.6689
 20
-171.5854
 42
0.1327392193
  0
VERTEX
  8
LAYER_6
 10
176.3206
 20
-170.2854
  0
SEQEND
  0
POLYLINE
  8
LAYER_6
 40
0.1905
 41
0.1905
 62
2
 66
1
 10
0
 20
0
 30
0
  0
VERTEX
  8
LAYER_6
 10
172.3312
 20
-171.5854
 42
0.1143988894
  0
VERTEX
  8
LAYER_6
 10
172.1904
 20
-170.9252
 42
0.2637574174
  0
VERTEX
  8
LAYER_6
 10
171.8213
 20
-170.6285
 42
0.2341661823
  0
VERTEX
  8
LAYER_6
 10
171.5312
 20
-170.7984
 42
0.1631820392
  0
VERTEX
  8
LAYER_6
 10
171.3114
 20
-171.5854
  0
SEQEND
  0
POLYLINE
  8
LAYER_6
 40
0.2469
 41
0.2469
 66
1
 10
0
 20
0
 30
0
  0
VERTEX
  8
LAYER_6
 10
171.3114
 20
-171.5854
  0
VERTEX
  8
LAYER_6
 10
171.3114
 20
-172.3627
 42
0.4141165713
  0
VERTEX
  8
LAYER_6
 10
171.5114
 20
-172.5627
  0
VERTEX
  8
LAYER_6
 10
172.1312
 20
-172.5627
 42
0.4141905135
  0
VERTEX
  8
LAYER_6
 10
172.3312
 20
-172.3627
  0
VERTEX
  8
LAYER_6
 10
172.3312
 20
-171.5854
  0
SEQEND
  0
POLYLINE
  8
LAYER_6
 40
0.2469
 41
0.2469
 66
1
 10
0
 20
0
 30
0
  0
VERTEX
  8
LAYER_6
 10
172.9666
 20
-171.5854
  0
VERTEX
  8
LAYER_6
 10
172.9666
 20
-172.3627
 42
0.4141729274
  0
VERTEX
  8
LAYER_6
 10
173.1666
 20
-172.5627
  0
VERTEX
  8
LAYER_6
 10
173.9864
 20
-172.5627
  0
VERTEX
  8
LAYER_6
 10
174.8062
 20
-172.5627
 42
0.4141398655
  0
VERTEX
  8
LAYER_6
 10
175.0062
 20
-172.3627
  0
VERTEX
  8
LAYER_6
 10
175.0062
 20
-171.5854
  0
SEQEND
  0
POLYLINE
  8
LAYER_6
 40
0.0353
 41
0.0353
 66
1
 10
0
 20
0
 30
0
  0
VERTEX
  8
LAYER_6
 10
176.3206
 20
-170.2854
  0
VERTEX
  8
LAYER_6
 10
173.9664
 20
-170.2854
  0
VERTEX
  8
LAYER_6
 10
171.6522
 20
-170.2854
  0
SEQEND
  0
POLYLINE
  8
LAYER_6
 40
0.0353
 41
0.0353
 66
1
 10
0
 20
0
 30
0
  0
VERTEX
  8
LAYER_6
 10
175.5064
 20
-170.0854
  0
VERTEX
  8
LAYER_6
 10
175.7665
 20
-170.0854
  0
VERTEX
  8
LAYER_6
 10
175.8665
 20
-169.9861
  0
VERTEX
  8
LAYER_6
 10
173.9664
 20
-169.9861
  0
VERTEX
  8
LAYER_6
 10
172.0664
 20
-169.9854
 42
0.3389986178
  0
VERTEX
  8
LAYER_6
 10
171.6791
 20
-169.6854
  0
VERTEX
  8
LAYER_6
 10
166.3664
 20
-169.6854
  0
SEQEND
  0
POLYLINE
  8
LAYER_6
 40
0.0353
 41
0.0353
 66
1
 10
0
 20
0
 30
0
 70
1
  0
VERTEX
  8
LAYER_6
 10
166.2664
 20
-167.2854
  0
VERTEX
  8
LAYER_6
 10
166.2664
 20
-169.5854
  0
VERTEX
  8
LAYER_6
 10
166.3664
 20
-169.6854
  0
VERTEX
  8
LAYER_6
 10
166.3664
 20
-167.2854
  0
VERTEX
  8
LAYER_6
 10
166.3664
 20
-164.8854
  0
VERTEX
  8
LAYER_6
 10
166.2664
 20
-164.9854
  0
SEQEND
  0
POLYLINE
  8
LAYER_6
 40
0.0353
 41
0.0353
 66
1
 10
0
 20
0
 30
0
 70
1
  0
VERTEX
  8
LAYER_6
 10
172.6664
 20
-162.4854
  0
VERTEX
  8
LAYER_6
 10
170.2664
 20
-162.4854
  0
VERTEX
  8
LAYER_6
 10
167.8664
 20
-162.4854
  0
VERTEX
  8
LAYER_6
 10
167.9664
 20
-162.3854
  0
VERTEX
  8
LAYER_6
 10
170.2664
 20
-162.3854
  0
VERTEX
  8
LAYER_6
 10
172.5664
 20
-162.3854
  0
SEQEND
  0
POLYLINE
  8
LAYER_6
 40
0.0353
 41
0.0353
 66
1
 10
0
 20
0
 30
0
 70
1
  0
VERTEX
  8
LAYER_6
 10
166.3164
 20
-159.2854
  0
VERTEX
  8
LAYER_6
 10
166.3164
 20
-162.2454
 42
0.3927995517
  0
VERTEX
  8
LAYER_6
 10
166.3764
 20
-162.3054
  0
VERTEX
  8
LAYER_6
 10
170.2664
 20
-162.3054
  0
VERTEX
  8
LAYER_6
 10
174.1564
 20
-162.3054
 42
0.3927995515
  0
VERTEX
  8
LAYER_6
 10
174.2164
 20
-162.2454
  0
VERTEX
  8
LAYER_6
 10
174.2164
 20
-159.2354
 42
0.4141995869
  0
VERTEX
  8
LAYER_6
 10
174.0664
 20
-159.0854
  0
VERTEX
  8
LAYER_6
 10
170.2664
 20
-159.0854
  0
VERTEX
  8
LAYER_6
 10
166.5164
 20
-159.0854
 42
0.4142347063
  0
SEQEND
  0
POLYLINE
  8
LAYER_6
 40
0.0353
 41
0.0353
 66
1
 10
0
 20
0
 30
0
  0
VERTEX
  8
LAYER_6
 10
168.4664
 20
-142.4254
  0
VERTEX
  8
LAYER_6
 10
168.4664
 20
-141.8854
  0
VERTEX
  8
LAYER_6
 10
170.2664
 20
-141.8854
  0
VERTEX
  8
LAYER_6
 10
172.0664
 20
-141.8854
  0
VERTEX
  8
LAYER_6
 10
171.9864
 20
-141.8054
  0
SEQEND
  0
POLYLINE
  8
LAYER_6
 40
0.0353
 41
0.0353
 66
1
 10
0
 20
0
 30
0
  0
VERTEX
  8
LAYER_6
 10
172.2664
 20
-141.002
 42
0.3632464048
  0
VERTEX
  8
LAYER_6
 10
172.4664
 20
-140.7654
  0
VERTEX
  8
LAYER_6
 10
172.4664
 20
-140.0454
 42
0.3632803212
  0
VERTEX
  8
LAYER_6
 10
172.2664
 20
-139.8087
  0
SEQEND
  0
POLYLINE
  8
LAYER_6
 40
0.0353
 41
0.0353
 66
1
 10
0
 20
0
 30
0
  0
VERTEX
  8
LAYER_6
 10
168.8064
 20
-142.5986
  0
VERTEX
  8
LAYER_6
 10
168.8064
 20
-143.1254
  0
SEQEND
  0
POLYLINE
  8
LAYER_6
 40
0.0353
 41
0.0353
 66
1
 10
0
 20
0
 30
0
  0
VERTEX
  8
LAYER_6
 10
168.8064
 20
-143.3254
  0
VERTEX
  8
LAYER_6
 10
168.8064
 20
-145.4522
  0
SEQEND
  0
POLYLINE
  8
LAYER_6
 40
0.0353
 41
0.0353
 66
1
 10
0
 20
0
 30
0
  0
VERTEX
  8
LAYER_6
 10
171.7264
 20
-142.5986
  0
VERTEX
  8
LAYER_6
 10
171.7264
 20
-143.1254
  0
SEQEND
  0
POLYLINE
  8
LAYER_6
 40
0.0353
 41
0.0353
 66
1
 10
0
 20
0
 30
0
  0
VERTEX
  8
LAYER_6
 10
171.7264
 20
-143.3254
  0
VERTEX
  8
LAYER_6
 10
171.7264
 20
-145.4522
  0
SEQEND
  0
POLYLINE
  8
LAYER_6
 40
0.0353
 41
0.0353
 66
1
 10
0
 20
0
 30
0
  0
VERTEX
  8
LAYER_6
 10
171.5033
 20
-142.5986
 42
0.07062189513
  0
VERTEX
  8
LAYER_6
 10
170.2664
 20
-142.4254
 42
0.07062194491
  0
VERTEX
  8
LAYER_6
 10
169.0295
 20
-142.5986
  0
SEQEND
  0
POLYLINE
  8
LAYER_6
 40
0.0353
 41
0.0353
 66
1
 10
0
 20
0
 30
0
  0
VERTEX
  8
LAYER_6
 10
169.0295
 20
-145.4522
 42
0.07062172098
  0
VERTEX
  8
LAYER_6
 10
170.2664
 20
-145.6254
 42
0.07062167121
  0
VERTEX
  8
LAYER_6
 10
171.5033
 20
-145.4522
  0
SEQEND
  0
POLYLINE
  8
LAYER_6
 40
0.0353
 41
0.0353
 66
1
 10
0
 20
0
 30
0
  0
VERTEX
  8
LAYER_6
 10
167.5664
 20
-142.5986
 42
-0.1381125087
  0
VERTEX
  8
LAYER_6
 10
168.1864
 20
-142.4254
 42
-0.1381118993
  0
VERTEX
  8
LAYER_6
 10
168.8064
 20
-142.5986
  0
VERTEX
  8
LAYER_6
 10
169.0295
 20
-142.5986
  0
VERTEX
  8
LAYER_6
 10
169.0295
 20
-143.1254
  0
SEQEND
  0
POLYLINE
  8
LAYER_6
 40
0.0353
 41
0.0353
 66
1
 10
0
 20
0
 30
0
  0
VERTEX
  8
LAYER_6
 10
172.9664
 20
-142.5986
 42
0.1381118019
  0
VERTEX
  8
LAYER_6
 10
172.3464
 20
-142.4254
 42
0.1381126061
  0
VERTEX
  8
LAYER_6
 10
171.7264
 20
-142.5986
  0
VERTEX
  8
LAYER_6
 10
171.5033
 20
-142.5986
  0
VERTEX
  8
LAYER_6
 10
171.5033
 20
-143.1254
  0
SEQEND
  0
POLYLINE
  8
LAYER_6
 40
0.0353
 41
0.0353
 66
1
 10
0
 20
0
 30
0
  0
VERTEX
  8
LAYER_6
 10
167.5664
 20
-145.4522
 42
0.1381109151
  0
VERTEX
  8
LAYER_6
 10
168.1864
 20
-145.6254
 42
0.1381103057
  0
VERTEX
  8
LAYER_6
 10
168.8064
 20
-145.4522
  0
VERTEX
  8
LAYER_6
 10
169.0295
 20
-145.4522
  0
VERTEX
  8
LAYER_6
 10
169.0295
 20
-143.3254
  0
SEQEND
  0
POLYLINE
  8
LAYER_6
 40
0.0353
 41
0.0353
 66
1
 10
0
 20
0
 30
0
  0
VERTEX
  8
LAYER_6
 10
171.5033
 20
-143.3254
  0
VERTEX
  8
LAYER_6
 10
171.5033
 20
-145.4522
  0
VERTEX
  8
LAYER_6
 10
171.7264
 20
-145.4522
 42
0.1381110125
  0
VERTEX
  8
LAYER_6
 10
172.3464
 20
-145.6254
 42
0.1381102083
  0
VERTEX
  8
LAYER_6
 10
172.9664
 20
-145.4522
  0
VERTEX
  8
LAYER_6
 10
172.9664
 20
-142.5986
  0
VERTEX
  8
LAYER_6
 10
172.6664
 20
-142.4254
  0
VERTEX
  8
LAYER_6
 10
170.2664
 20
-142.4254
  0
VERTEX
  8
LAYER_6
 10
167.8664
 20
-142.4254
  0
VERTEX
  8
LAYER_6
 10
167.5664
 20
-142.5986
  0
VERTEX
  8
LAYER_6
 10
167.5664
 20
-145.4522
  0
VERTEX
  8
LAYER_6
 10
167.8664
 20
-145.6254
  0
VERTEX
  8
LAYER_6
 10
170.2664
 20
-145.6254
  0
VERTEX
  8
LAYER_6
 10
172.6664
 20
-145.6254
  0
VERTEX
  8
LAYER_6
 10
172.9664
 20
-145.4522
  0
SEQEND
  0
POLYLINE
  8
LAYER_6
 40
0.0353
 41
0.0353
 66
1
 10
0
 20
0
 30
0
  0
VERTEX
  8
LAYER_6
 10
172.2128
 20
-141.6054
  0
VERTEX
  8
LAYER_6
 10
173.2264
 20
-141.6054
  0
VERTEX
  8
LAYER_6
 10
173.2264
 20
-139.2054
  0
VERTEX
  8
LAYER_6
 10
172.2664
 20
-139.2054
  0
VERTEX
  8
LAYER_6
 10
172.2664
 20
-141.4054
 42
-0.414194273
  0
VERTEX
  8
LAYER_6
 10
171.8664
 20
-141.8054
  0
VERTEX
  8
LAYER_6
 10
167.3688
 20
-141.8054
 42
-0.3927995517
  0
VERTEX
  8
LAYER_6
 10
167.3088
 20
-141.7454
  0
VERTEX
  8
LAYER_6
 10
167.3088
 20
-138.9054
 42
-0.4141196476
  0
VERTEX
  8
LAYER_6
 10
167.4088
 20
-138.8054
  0
VERTEX
  8
LAYER_6
 10
171.8664
 20
-138.8054
 42
-0.4142046894
  0
VERTEX
  8
LAYER_6
 10
172.2664
 20
-139.2054
  0
SEQEND
  0
POLYLINE
  8
LAYER_6
 40
0.0353
 41
0.0353
 66
1
 10
0
 20
0
 30
0
  0
VERTEX
  8
LAYER_6
 10
169.3064
 20
-138.9654
  0
VERTEX
  8
LAYER_6
 10
169.3064
 20
-141.6454
  0
SEQEND
  0
POLYLINE
  8
LAYER_6
 40
0.0353
 41
0.0353
 66
1
 10
0
 20
0
 30
0
  0
VERTEX
  8
LAYER_6
 10
169.2346
 20
-143.2254
  0
VERTEX
  8
LAYER_6
 10
169.0295
 20
-143.1254
  0
VERTEX
  8
LAYER_6
 10
168.8064
 20
-143.1254
  0
VERTEX
  8
LAYER_6
 10
168.6012
 20
-143.2254
  0
SEQEND
  0
POLYLINE
  8
LAYER_6
 40
0.0353
 41
0.0353
 66
1
 10
0
 20
0
 30
0
 70
1
  0
VERTEX
  8
LAYER_6
 10
168.8064
 20
-143.3254
  0
VERTEX
  8
LAYER_6
 10
169.0295
 20
-143.3254
  0
VERTEX
  8
LAYER_6
 10
169.2346
 20
-143.2254
  0
VERTEX
  8
LAYER_6
 10
168.6012
 20
-143.2254
  0
SEQEND
  0
POLYLINE
  8
LAYER_6
 40
0.0353
 41
0.0353
 66
1
 10
0
 20
0
 30
0
  0
VERTEX
  8
LAYER_6
 10
171.9316
 20
-143.2254
  0
VERTEX
  8
LAYER_6
 10
171.7264
 20
-143.1254
  0
VERTEX
  8
LAYER_6
 10
171.5033
 20
-143.1254
  0
VERTEX
  8
LAYER_6
 10
171.2981
 20
-143.2254
  0
SEQEND
  0
POLYLINE
  8
LAYER_6
 40
0.0353
 41
0.0353
 66
1
 10
0
 20
0
 30
0
 70
1
  0
VERTEX
  8
LAYER_6
 10
171.5033
 20
-143.3254
  0
VERTEX
  8
LAYER_6
 10
171.7264
 20
-143.3254
  0
VERTEX
  8
LAYER_6
 10
171.9316
 20
-143.2254
  0
VERTEX
  8
LAYER_6
 10
171.2981
 20
-143.2254
  0
SEQEND
  0
POLYLINE
  8
LAYER_6
 40
0.0353
 41
0.0353
 66
1
 10
0
 20
0
 30
0
  0
VERTEX
  8
LAYER_6
 10
172.9664
 20
-143.1254
  0
VERTEX
  8
LAYER_6
 10
172.7612
 20
-143.2254
  0
SEQEND
  0
POLYLINE
  8
LAYER_6
 40
0.0353
 41
0.0353
 66
1
 10
0
 20
0
 30
0
  0
VERTEX
  8
LAYER_6
 10
172.9664
 20
-143.2254
  0
VERTEX
  8
LAYER_6
 10
172.7612
 20
-143.2254
  0
VERTEX
  8
LAYER_6
 10
172.9664
 20
-143.3254
  0
SEQEND
  0
POLYLINE
  8
LAYER_6
 40
0.0353
 41
0.0353
 66
1
 10
0
 20
0
 30
0
  0
VERTEX
  8
LAYER_6
 10
167.5664
 20
-143.1254
  0
VERTEX
  8
LAYER_6
 10
167.7716
 20
-143.2254
  0
SEQEND
  0
POLYLINE
  8
LAYER_6
 40
0.0353
 41
0.0353
 66
1
 10
0
 20
0
 30
0
  0
VERTEX
  8
LAYER_6
 10
167.5664
 20
-143.2254
  0
VERTEX
  8
LAYER_6
 10
167.7716
 20
-143.2254
  0
VERTEX
  8
LAYER_6
 10
167.5664
 20
-143.3254
  0
SEQEND
  0
POLYLINE
  8
LAYER_6
 40
0.0353
 41
0.0353
 66
1
 10
0
 20
0
 30
0
  0
VERTEX
  8
LAYER_6
 10
172.2664
 20
-148.8254
  0
VERTEX
  8
LAYER_6
 10
173.8664
 20
-148.8254
 42
-0.4142046894
  0
VERTEX
  8
LAYER_6
 10
174.2664
 20
-149.2254
  0
VERTEX
  8
LAYER_6
 10
174.2664
 20
-156.4254
 42
-0.414194273
  0
VERTEX
  8
LAYER_6
 10
173.8664
 20
-156.8254
  0
VERTEX
  8
LAYER_6
 10
172.2664
 20
-156.8254
  0
SEQEND
  0
POLYLINE
  8
LAYER_6
 40
0.0353
 41
0.0353
 66
1
 10
0
 20
0
 30
0
  0
VERTEX
  8
LAYER_6
 10
168.2664
 20
-148.8254
  0
VERTEX
  8
LAYER_6
 10
166.6664
 20
-148.8254
 42
0.4142212277
  0
VERTEX
  8
LAYER_6
 10
166.2664
 20
-149.2254
  0
VERTEX
  8
LAYER_6
 10
166.2664
 20
-156.4254
 42
0.4142108101
  0
VERTEX
  8
LAYER_6
 10
166.6664
 20
-156.8254
  0
VERTEX
  8
LAYER_6
 10
168.2664
 20
-156.8254
  0
SEQEND
  0
CIRCLE
  8
LAYER_6
 10
167.4164
 20
-149.9754
 40
0.7945
  0
POLYLINE
  8
LAYER_6
 40
0.0353
 41
0.0353
 66
1
 10
0
 20
0
 30
0
 70
1
  0
VERTEX
  8
LAYER_6
 10
167.6171
 20
-149.6278
  0
VERTEX
  8
LAYER_6
 10
167.2157
 20
-149.6278
  0
VERTEX
  8
LAYER_6
 10
167.015
 20
-149.9754
  0
VERTEX
  8
LAYER_6
 10
167.2157
 20
-150.323
  0
VERTEX
  8
LAYER_6
 10
167.6171
 20
-150.323
  0
VERTEX
  8
LAYER_6
 10
167.8178
 20
-149.9754
  0
SEQEND
  0
CIRCLE
  8
LAYER_6
 10
173.1164
 20
-149.9754
 40
0.7945
  0
POLYLINE
  8
LAYER_6
 40
0.0353
 41
0.0353
 66
1
 10
0
 20
0
 30
0
 70
1
  0
VERTEX
  8
LAYER_6
 10
172.9157
 20
-149.6278
  0
VERTEX
  8
LAYER_6
 10
173.3171
 20
-149.6278
  0
VERTEX
  8
LAYER_6
 10
173.5178
 20
-149.9754
  0
VERTEX
  8
LAYER_6
 10
173.3171
 20
-150.323
  0
VERTEX
  8
LAYER_6
 10
172.9157
 20
-150.323
  0
VERTEX
  8
LAYER_6
 10
172.715
 20
-149.9754
  0
SEQEND
  0
CIRCLE
  8
LAYER_6
 10
167.4164
 20
-155.6754
 40
0.7945
  0
POLYLINE
  8
LAYER_6
 40
0.0353
 41
0.0353
 66
1
 10
0
 20
0
 30
0
 70
1
  0
VERTEX
  8
LAYER_6
 10
167.6171
 20
-156.023
  0
VERTEX
  8
LAYER_6
 10
167.2157
 20
-156.023
  0
VERTEX
  8
LAYER_6
 10
167.015
 20
-155.6754
  0
VERTEX
  8
LAYER_6
 10
167.2157
 20
-155.3278
  0
VERTEX
  8
LAYER_6
 10
167.6171
 20
-155.3278
  0
VERTEX
  8
LAYER_6
 10
167.8178
 20
-155.6754
  0
SEQEND
  0
CIRCLE
  8
LAYER_6
 10
173.1164
 20
-155.6754
 40
0.7945
  0
POLYLINE
  8
LAYER_6
 40
0.0353
 41
0.0353
 66
1
 10
0
 20
0
 30
0
 70
1
  0
VERTEX
  8
LAYER_6
 10
172.9157
 20
-156.023
  0
VERTEX
  8
LAYER_6
 10
173.3171
 20
-156.023
  0
VERTEX
  8
LAYER_6
 10
173.5178
 20
-155.6754
  0
VERTEX
  8
LAYER_6
 10
173.3171
 20
-155.3278
  0
VERTEX
  8
LAYER_6
 10
172.9157
 20
-155.3278
  0
VERTEX
  8
LAYER_6
 10
172.715
 20
-155.6754
  0
SEQEND
  0
POLYLINE
  8
LAYER_6
 40
0.0353
 41
0.0353
 66
1
 10
0
 20
0
 30
0
  0
VERTEX
  8
LAYER_6
 10
172.2664
 20
-156.9253
  0
VERTEX
  8
LAYER_6
 10
172.2664
 20
-158.3254
  0
SEQEND
  0
POLYLINE
  8
LAYER_6
 40
0.0353
 41
0.0353
 66
1
 10
0
 20
0
 30
0
  0
VERTEX
  8
LAYER_6
 10
172.2664
 20
-156.9984
  0
VERTEX
  8
LAYER_6
 10
172.2664
 20
-154.2254
 42
0.4142046893
  0
VERTEX
  8
LAYER_6
 10
171.8664
 20
-153.8254
  0
VERTEX
  8
LAYER_6
 10
168.6664
 20
-153.8254
 42
0.4142212277
  0
VERTEX
  8
LAYER_6
 10
168.2664
 20
-154.2254
  0
VERTEX
  8
LAYER_6
 10
168.2664
 20
-156.9984
  0
VERTEX
  8
LAYER_6
 10
168.2664
 20
-158.3254
  0
SEQEND
  0
POLYLINE
  8
LAYER_6
 40
0.0353
 41
0.0353
 66
1
 10
0
 20
0
 30
0
  0
VERTEX
  8
LAYER_6
 10
168.2664
 20
-147.1254
  0
VERTEX
  8
LAYER_6
 10
168.2664
 20
-150.0254
 42
0.4142108101
  0
VERTEX
  8
LAYER_6
 10
168.6664
 20
-150.4254
  0
VERTEX
  8
LAYER_6
 10
171.8664
 20
-150.4254
 42
0.4141942727
  0
VERTEX
  8
LAYER_6
 10
172.2664
 20
-150.0254
  0
VERTEX
  8
LAYER_6
 10
172.2664
 20
-148.6982
  0
VERTEX
  8
LAYER_6
 10
172.2664
 20
-147.1254
  0
SEQEND
  0
POLYLINE
  8
LAYER_6
 40
0.0353
 41
0.0353
 66
1
 10
0
 20
0
 30
0
  0
VERTEX
  8
LAYER_6
 10
168.5664
 20
-150.4127
  0
VERTEX
  8
LAYER_6
 10
168.5664
 20
-153.8254
  0
SEQEND
  0
POLYLINE
  8
LAYER_6
 40
0.0353
 41
0.0353
 66
1
 10
0
 20
0
 30
0
  0
VERTEX
  8
LAYER_6
 10
171.9664
 20
-150.4127
  0
VERTEX
  8
LAYER_6
 10
171.9664
 20
-153.8254
  0
SEQEND
  0
POLYLINE
  8
LAYER_6
 40
0.0353
 41
0.0353
 66
1
 10
0
 20
0
 30
0
  0
VERTEX
  8
LAYER_6
 10
168.3264
 20
-158.3854
  0
VERTEX
  8
LAYER_6
 10
168.2664
 20
-158.3254
  0
VERTEX
  8
LAYER_6
 10
172.2664
 20
-158.3254
  0
VERTEX
  8
LAYER_6
 10
172.2064
 20
-158.3854
  0
SEQEND
  0
POLYLINE
  8
LAYER_6
 40
0.0353
 41
0.0353
 66
1
 10
0
 20
0
 30
0
 70
1
  0
VERTEX
  8
LAYER_6
 10
172.1664
 20
-147.0254
  0
VERTEX
  8
LAYER_6
 10
172.2664
 20
-147.1254
  0
VERTEX
  8
LAYER_6
 10
168.2664
 20
-147.1254
  0
VERTEX
  8
LAYER_6
 10
168.3664
 20
-147.0254
  0
SEQEND
  0
POLYLINE
  8
LAYER_6
  6
AIGENLINE001
 40
0.0353
 41
0.0353
 66
1
 10
0
 20
0
 30
0
 70
128
  0
VERTEX
  8
LAYER_6
 10
171.7219
 20
-149.9754
  0
VERTEX
  8
LAYER_6
 10
174.5108
 20
-149.9754
  0
SEQEND
  0
POLYLINE
  8
LAYER_6
  6
AIGENLINE001
 40
0.0353
 41
0.0353
 66
1
 10
0
 20
0
 30
0
 70
128
  0
VERTEX
  8
LAYER_6
 10
173.1164
 20
-148.5809
  0
VERTEX
  8
LAYER_6
 10
173.1164
 20
-151.3699
  0
SEQEND
  0
POLYLINE
  8
LAYER_6
  6
AIGENLINE001
 40
0.0353
 41
0.0353
 66
1
 10
0
 20
0
 30
0
 70
128
  0
VERTEX
  8
LAYER_6
 10
171.7219
 20
-155.6754
  0
VERTEX
  8
LAYER_6
 10
174.5108
 20
-155.6754
  0
SEQEND
  0
POLYLINE
  8
LAYER_6
  6
AIGENLINE001
 40
0.0353
 41
0.0353
 66
1
 10
0
 20
0
 30
0
 70
128
  0
VERTEX
  8
LAYER_6
 10
173.1164
 20
-154.2809
  0
VERTEX
  8
LAYER_6
 10
173.1164
 20
-157.0699
  0
SEQEND
  0
POLYLINE
  8
LAYER_6
  6
AIGENLINE001
 40
0.0353
 41
0.0353
 66
1
 10
0
 20
0
 30
0
 70
128
  0
VERTEX
  8
LAYER_6
 10
166.0219
 20
-155.6754
  0
VERTEX
  8
LAYER_6
 10
168.8108
 20
-155.6754
  0
SEQEND
  0
POLYLINE
  8
LAYER_6
  6
AIGENLINE001
 40
0.0353
 41
0.0353
 66
1
 10
0
 20
0
 30
0
 70
128
  0
VERTEX
  8
LAYER_6
 10
167.4164
 20
-154.2809
  0
VERTEX
  8
LAYER_6
 10
167.4164
 20
-157.0699
  0
SEQEND
  0
POLYLINE
  8
LAYER_6
  6
AIGENLINE001
 40
0.0353
 41
0.0353
 66
1
 10
0
 20
0
 30
0
 70
128
  0
VERTEX
  8
LAYER_6
 10
166.0219
 20
-149.9754
  0
VERTEX
  8
LAYER_6
 10
168.8108
 20
-149.9754
  0
SEQEND
  0
POLYLINE
  8
LAYER_6
  6
AIGENLINE001
 40
0.0353
 41
0.0353
 66
1
 10
0
 20
0
 30
0
 70
128
  0
VERTEX
  8
LAYER_6
 10
167.4164
 20
-148.5809
  0
VERTEX
  8
LAYER_6
 10
167.4164
 20
-151.3699
  0
SEQEND
  0
POLYLINE
  8
LAYER_6
 40
0.0353
 41
0.0353
 66
1
 10
0
 20
0
 30
0
  0
VERTEX
  8
LAYER_6
 10
175.5464
 20
-157.625
  0
VERTEX
  8
LAYER_6
 10
175.5644
 20
-157.4254
  0
VERTEX
  8
LAYER_6
 10
175.5463
 20
-157.2254
  0
SEQEND
  0
POLYLINE
  8
LAYER_6
 40
0.0353
 41
0.0353
 66
1
 10
0
 20
0
 30
0
  0
VERTEX
  8
LAYER_6
 10
172.2664
 20
-157.625
  0
VERTEX
  8
LAYER_6
 10
175.5664
 20
-157.625
  0
VERTEX
  8
LAYER_6
 10
175.5664
 20
-157.779
 42
-0.408464656
  0
VERTEX
  8
LAYER_6
 10
175.2659
 20
-158.0849
  0
VERTEX
  8
LAYER_6
 10
172.2664
 20
-158.085
  0
SEQEND
  0
POLYLINE
  8
LAYER_6
 40
0.0353
 41
0.0353
 66
1
 10
0
 20
0
 30
0
  0
VERTEX
  8
LAYER_6
 10
175.5164
 20
-157.625
  0
VERTEX
  8
LAYER_6
 10
175.4172
 20
-157.625
  0
SEQEND
  0
POLYLINE
  8
LAYER_6
 40
0.0353
 41
0.0353
 66
1
 10
0
 20
0
 30
0
  0
VERTEX
  8
LAYER_6
 10
174.4686
 20
-157.2254
  0
VERTEX
  8
LAYER_6
 10
175.5883
 20
-157.2254
  0
VERTEX
  8
LAYER_6
 10
175.5883
 20
-157.0653
 42
0.4142401099
  0
VERTEX
  8
LAYER_6
 10
175.2883
 20
-156.7653
  0
VERTEX
  8
LAYER_6
 10
174.4686
 20
-156.7653
  0
SEQEND
  0
POLYLINE
  8
LAYER_6
 40
0.0353
 41
0.0353
 66
1
 10
0
 20
0
 30
0
  0
VERTEX
  8
LAYER_6
 10
172.2664
 20
-157.0254
  0
VERTEX
  8
LAYER_6
 10
174.2686
 20
-157.0254
  0
VERTEX
  8
LAYER_6
 10
174.2686
 20
-157.1254
 42
0.4140532367
  0
VERTEX
  8
LAYER_6
 10
174.3686
 20
-157.2254
 42
0.4143206084
  0
VERTEX
  8
LAYER_6
 10
174.4686
 20
-157.1254
  0
SEQEND
  0
POLYLINE
  8
LAYER_6
 40
0.0353
 41
0.0353
 66
1
 10
0
 20
0
 30
0
  0
VERTEX
  8
LAYER_6
 10
173.2647
 20
-147.625
 42
-0.4142015912
  0
VERTEX
  8
LAYER_6
 10
175.2647
 20
-149.625
  0
VERTEX
  8
LAYER_6
 10
175.2647
 20
-156.7653
  0
SEQEND
  0
POLYLINE
  8
LAYER_6
 40
0.0353
 41
0.0353
 66
1
 10
0
 20
0
 30
0
  0
VERTEX
  8
LAYER_6
 10
165.2681
 20
-156.7653
  0
VERTEX
  8
LAYER_6
 10
165.2681
 20
-149.625
 42
-0.4142048987
  0
VERTEX
  8
LAYER_6
 10
167.2681
 20
-147.625
  0
SEQEND
  0
POLYLINE
  8
LAYER_6
 40
0.0353
 41
0.0353
 66
1
 10
0
 20
0
 30
0
  0
VERTEX
  8
LAYER_6
 10
172.2664
 20
-148.6254
  0
VERTEX
  8
LAYER_6
 10
174.0686
 20
-148.6254
 42
-0.414246387
  0
VERTEX
  8
LAYER_6
 10
174.4686
 20
-149.0254
  0
VERTEX
  8
LAYER_6
 10
174.4686
 20
-157.4254
 42
-0.4143209147
  0
VERTEX
  8
LAYER_6
 10
174.3686
 20
-157.5254
  0
VERTEX
  8
LAYER_6
 10
172.2664
 20
-157.5254
  0
SEQEND
  0
POLYLINE
  8
LAYER_6
 40
0.0353
 41
0.0353
 66
1
 10
0
 20
0
 30
0
  0
VERTEX
  8
LAYER_6
 10
166.0641
 20
-157.1254
 42
0.4140939059
  0
VERTEX
  8
LAYER_6
 10
166.1641
 20
-157.2254
 42
0.4142799329
  0
VERTEX
  8
LAYER_6
 10
166.2641
 20
-157.1254
  0
VERTEX
  8
LAYER_6
 10
166.2641
 20
-157.0254
  0
VERTEX
  8
LAYER_6
 10
168.2664
 20
-157.0254
  0
SEQEND
  0
POLYLINE
  8
LAYER_6
 40
0.0353
 41
0.0353
 66
1
 10
0
 20
0
 30
0
  0
VERTEX
  8
LAYER_6
 10
168.2664
 20
-157.5254
  0
VERTEX
  8
LAYER_6
 10
166.1641
 20
-157.5254
 42
-0.4140939059
  0
VERTEX
  8
LAYER_6
 10
166.0641
 20
-157.4254
  0
VERTEX
  8
LAYER_6
 10
166.0641
 20
-149.0254
 42
-0.4141897009
  0
VERTEX
  8
LAYER_6
 10
166.4641
 20
-148.6254
  0
VERTEX
  8
LAYER_6
 10
168.2664
 20
-148.6254
  0
SEQEND
  0
POLYLINE
  8
LAYER_6
 40
0.0353
 41
0.0353
 66
1
 10
0
 20
0
 30
0
  0
VERTEX
  8
LAYER_6
 10
164.9865
 20
-157.2254
  0
VERTEX
  8
LAYER_6
 10
164.9684
 20
-157.4254
  0
VERTEX
  8
LAYER_6
 10
164.9864
 20
-157.625
  0
SEQEND
  0
POLYLINE
  8
LAYER_6
 40
0.0353
 41
0.0353
 66
1
 10
0
 20
0
 30
0
  0
VERTEX
  8
LAYER_6
 10
167.2121
 20
-147.625
  0
VERTEX
  8
LAYER_6
 10
168.2664
 20
-147.625
  0
SEQEND
  0
POLYLINE
  8
LAYER_6
 40
0.0353
 41
0.0353
 66
1
 10
0
 20
0
 30
0
  0
VERTEX
  8
LAYER_6
 10
173.3206
 20
-147.625
  0
VERTEX
  8
LAYER_6
 10
172.2664
 20
-147.625
  0
SEQEND
  0
POLYLINE
  8
LAYER_6
 40
0.0353
 41
0.0353
 66
1
 10
0
 20
0
 30
0
  0
VERTEX
  8
LAYER_6
 10
165.263
 20
-158.085
  0
VERTEX
  8
LAYER_6
 10
165.5506
 20
-162.8611
 42
0.3953267719
  0
VERTEX
  8
LAYER_6
 10
166.1496
 20
-163.425
  0
VERTEX
  8
LAYER_6
 10
167.8664
 20
-163.425
  0
SEQEND
  0
POLYLINE
  8
LAYER_6
 40
0.0353
 41
0.0353
 66
1
 10
0
 20
0
 30
0
  0
VERTEX
  8
LAYER_6
 10
175.2698
 20
-158.085
  0
VERTEX
  8
LAYER_6
 10
174.9821
 20
-162.8611
 42
-0.3953136817
  0
VERTEX
  8
LAYER_6
 10
174.3832
 20
-163.425
  0
VERTEX
  8
LAYER_6
 10
172.6664
 20
-163.425
  0
SEQEND
  0
POLYLINE
  8
LAYER_6
 40
0.0353
 41
0.0353
 66
1
 10
0
 20
0
 30
0
  0
VERTEX
  8
LAYER_6
 10
173.5664
 20
-164.3126
  0
VERTEX
  8
LAYER_6
 10
173.5664
 20
-164.8875
  0
SEQEND
  0
POLYLINE
  8
LAYER_6
 40
0.0353
 41
0.0353
 66
1
 10
0
 20
0
 30
0
  0
VERTEX
  8
LAYER_6
 10
166.3009
 20
-163.425
  0
VERTEX
  8
LAYER_6
 10
166.2809
 20
-163.525
  0
VERTEX
  8
LAYER_6
 10
166.3009
 20
-163.625
  0
SEQEND
  0
POLYLINE
  8
LAYER_6
 40
0.0353
 41
0.0353
 66
1
 10
0
 20
0
 30
0
  0
VERTEX
  8
LAYER_6
 10
166.6664
 20
-164.0244
 42
-0.4142165589
  0
VERTEX
  8
LAYER_6
 10
166.9664
 20
-164.3244
  0
VERTEX
  8
LAYER_6
 10
166.9664
 20
-164.8854
  0
SEQEND
  0
POLYLINE
  8
LAYER_6
 40
0.0353
 41
0.0353
 66
1
 10
0
 20
0
 30
0
  0
VERTEX
  8
LAYER_6
 10
173.8664
 20
-164.0244
 42
0.4142384173
  0
VERTEX
  8
LAYER_6
 10
173.5664
 20
-164.3244
  0
SEQEND
  0
POLYLINE
  8
LAYER_6
 40
0.0353
 41
0.0353
 66
1
 10
0
 20
0
 30
0
  0
VERTEX
  8
LAYER_6
 10
174.2318
 20
-163.625
  0
VERTEX
  8
LAYER_6
 10
174.2518
 20
-163.525
  0
VERTEX
  8
LAYER_6
 10
174.2318
 20
-163.425
  0
SEQEND
  0
POLYLINE
  8
LAYER_6
 40
0.0353
 41
0.0353
 66
1
 10
0
 20
0
 30
0
  0
VERTEX
  8
LAYER_6
 10
172.6664
 20
-163.625
  0
VERTEX
  8
LAYER_6
 10
174.2483
 20
-163.625
  0
VERTEX
  8
LAYER_6
 10
174.2483
 20
-163.7244
 42
-0.4142161322
  0
VERTEX
  8
LAYER_6
 10
173.9483
 20
-164.0244
  0
VERTEX
  8
LAYER_6
 10
172.6664
 20
-164.0244
  0
SEQEND
  0
POLYLINE
  8
LAYER_6
 40
0.0353
 41
0.0353
 66
1
 10
0
 20
0
 30
0
  0
VERTEX
  8
LAYER_6
 10
167.8664
 20
-163.625
  0
VERTEX
  8
LAYER_6
 10
166.2844
 20
-163.625
  0
VERTEX
  8
LAYER_6
 10
166.2844
 20
-163.7244
 42
0.4141401752
  0
VERTEX
  8
LAYER_6
 10
166.5844
 20
-164.0244
  0
VERTEX
  8
LAYER_6
 10
167.8664
 20
-164.0244
  0
SEQEND
  0
POLYLINE
  8
LAYER_6
 40
0.0353
 41
0.0353
 66
1
 10
0
 20
0
 30
0
  0
VERTEX
  8
LAYER_6
 10
172.3619
 20
-146.8254
  0
VERTEX
  8
LAYER_6
 10
172.1619
 20
-147.0254
  0
SEQEND
  0
POLYLINE
  8
LAYER_6
 40
0.0353
 41
0.0353
 66
1
 10
0
 20
0
 30
0
  0
VERTEX
  8
LAYER_6
 10
171.8664
 20
-147.0254
  0
VERTEX
  8
LAYER_6
 10
172.1639
 20
-147.0254
  0
VERTEX
  8
LAYER_6
 10
170.2664
 20
-147.0254
  0
VERTEX
  8
LAYER_6
 10
168.3689
 20
-147.0254
  0
VERTEX
  8
LAYER_6
 10
168.6664
 20
-147.0254
  0
SEQEND
  0
POLYLINE
  8
LAYER_6
 40
0.0353
 41
0.0353
 66
1
 10
0
 20
0
 30
0
  0
VERTEX
  8
LAYER_6
 10
172.3619
 20
-146.4279
  0
VERTEX
  8
LAYER_6
 10
172.1295
 20
-146.0254
  0
VERTEX
  8
LAYER_6
 10
172.1295
 20
-145.6254
  0
SEQEND
  0
POLYLINE
  8
LAYER_6
 40
0.0353
 41
0.0353
 66
1
 10
0
 20
0
 30
0
  0
VERTEX
  8
LAYER_6
 10
168.1709
 20
-146.8254
  0
VERTEX
  8
LAYER_6
 10
168.3709
 20
-147.0254
  0
SEQEND
  0
POLYLINE
  8
LAYER_6
 40
0.0353
 41
0.0353
 66
1
 10
0
 20
0
 30
0
  0
VERTEX
  8
LAYER_6
 10
168.1709
 20
-146.4279
  0
VERTEX
  8
LAYER_6
 10
168.4033
 20
-146.0254
  0
VERTEX
  8
LAYER_6
 10
168.4033
 20
-145.6254
  0
SEQEND
  0
POLYLINE
  8
LAYER_6
 40
0.0353
 41
0.0353
 66
1
 10
0
 20
0
 30
0
  0
VERTEX
  8
LAYER_6
 10
168.1709
 20
-146.0254
  0
VERTEX
  8
LAYER_6
 10
170.2664
 20
-146.0254
  0
VERTEX
  8
LAYER_6
 10
172.3619
 20
-146.0254
  0
SEQEND
  0
POLYLINE
  8
LAYER_6
 40
0.0353
 41
0.0353
 66
1
 10
0
 20
0
 30
0
  0
VERTEX
  8
LAYER_6
 10
170.2664
 20
-138.9054
  0
VERTEX
  8
LAYER_6
 10
170.2664
 20
-141.7454
  0
SEQEND
  0
POLYLINE
  8
LAYER_6
 40
0.0353
 41
0.0353
 66
1
 10
0
 20
0
 30
0
 70
1
  0
VERTEX
  8
LAYER_6
 10
172.3619
 20
-146.8254
  0
VERTEX
  8
LAYER_6
 10
168.1709
 20
-146.8254
  0
VERTEX
  8
LAYER_6
 10
168.1709
 20
-145.6254
  0
VERTEX
  8
LAYER_6
 10
172.3619
 20
-145.6254
  0
SEQEND
  0
POLYLINE
  8
LAYER_6
 40
0.0353
 41
0.0353
 66
1
 10
0
 20
0
 30
0
  0
VERTEX
  8
LAYER_6
 10
168.2664
 20
-157.625
  0
VERTEX
  8
LAYER_6
 10
164.9664
 20
-157.625
  0
VERTEX
  8
LAYER_6
 10
164.9664
 20
-157.779
 42
0.4084861509
  0
VERTEX
  8
LAYER_6
 10
165.2669
 20
-158.0849
  0
VERTEX
  8
LAYER_6
 10
168.2664
 20
-158.085
  0
SEQEND
  0
POLYLINE
  8
LAYER_6
 40
0.0353
 41
0.0353
 66
1
 10
0
 20
0
 30
0
  0
VERTEX
  8
LAYER_6
 10
166.0641
 20
-157.2254
  0
VERTEX
  8
LAYER_6
 10
164.9445
 20
-157.2254
  0
VERTEX
  8
LAYER_6
 10
164.9445
 20
-157.0653
 42
-0.4142621624
  0
VERTEX
  8
LAYER_6
 10
165.2445
 20
-156.7653
  0
VERTEX
  8
LAYER_6
 10
166.0641
 20
-156.7653
  0
SEQEND
  0
POLYLINE
  8
LAYER_6
  6
AIGENLINE001
 40
0.0353
 41
0.0353
 66
1
 10
0
 20
0
 30
0
 70
128
  0
VERTEX
  8
LAYER_6
 10
170.2664
 20
-101.8108
  0
VERTEX
  8
LAYER_6
 10
170.2664
 20
-170.2854
  0
SEQEND
  0
POLYLINE
  8
LAYER_6
 40
0.0353
 41
0.0353
 66
1
 10
0
 20
0
 30
0
  0
VERTEX
  8
LAYER_6
 10
169.7464
 20
-169.6854
  0
VERTEX
  8
LAYER_6
 10
169.7464
 20
-173.425
 42
0.4142083263
  0
VERTEX
  8
LAYER_6
 10
172.7864
 20
-176.465
  0
VERTEX
  8
LAYER_6
 10
199.5201
 20
-176.465
  0
SEQEND
  0
POLYLINE
  8
LAYER_6
 40
0.0353
 41
0.0353
 66
1
 10
0
 20
0
 30
0
  0
VERTEX
  8
LAYER_6
 10
170.7864
 20
-169.6854
  0
VERTEX
  8
LAYER_6
 10
170.7864
 20
-173.425
 42
0.4142086259
  0
VERTEX
  8
LAYER_6
 10
172.7864
 20
-175.425
  0
VERTEX
  8
LAYER_6
 10
199.5201
 20
-175.425
  0
SEQEND
  0
POLYLINE
  8
LAYER_6
 40
0.0353
 41
0.0353
 66
1
 10
0
 20
0
 30
0
  0
VERTEX
  8
LAYER_6
 10
199.5201
 20
-175.425
 42
-0.398908343
  0
VERTEX
  8
LAYER_6
 10
199.5201
 20
-175.633
 42
0.1902926427
  0
VERTEX
  8
LAYER_6
 10
199.4785
 20
-175.737
 42
0.1897604448
  0
VERTEX
  8
LAYER_6
 10
199.5201
 20
-175.841
 42
-0.1903530322
  0
VERTEX
  8
LAYER_6
 10
199.5617
 20
-175.945
 42
-0.1906803337
  0
VERTEX
  8
LAYER_6
 10
199.5201
 20
-176.049
 42
0.1902926427
  0
VERTEX
  8
LAYER_6
 10
199.4785
 20
-176.153
 42
0.1897604448
  0
VERTEX
  8
LAYER_6
 10
199.5201
 20
-176.257
 42
-0.1903530322
  0
VERTEX
  8
LAYER_6
 10
199.5617
 20
-176.361
 42
-0.1906803337
  0
VERTEX
  8
LAYER_6
 10
199.5201
 20
-176.465
  0
SEQEND
  0
POLYLINE
  8
LAYER_6
  6
AIGENLINE001
 40
0.0353
 41
0.0353
 66
1
 10
0
 20
0
 30
0
 70
128
  0
VERTEX
  8
LAYER_6
 10
79.8519
 20
-138.1454
  0
VERTEX
  8
LAYER_6
 10
82.4919
 20
-138.1454
  0
SEQEND
  0
POLYLINE
  8
LAYER_6
 40
0.0353
 41
0.0353
 66
1
 10
0
 20
0
 30
0
  0
VERTEX
  8
LAYER_6
 10
82.0719
 20
-124.4204
  0
VERTEX
  8
LAYER_6
 10
82.0719
 20
-137.3454
  0
SEQEND
  0
POLYLINE
  8
LAYER_6
 40
0.0353
 41
0.0353
 66
1
 10
0
 20
0
 30
0
  0
VERTEX
  8
LAYER_6
 10
80.2719
 20
-124.4204
  0
VERTEX
  8
LAYER_6
 10
80.2719
 20
-137.3454
  0
SEQEND
  0
POLYLINE
  8
LAYER_6
 40
0.0353
 41
0.0353
 66
1
 10
0
 20
0
 30
0
  0
VERTEX
  8
LAYER_6
 10
80.2719
 20
-124.4204
 42
-0.3989096544
  0
VERTEX
  8
LAYER_6
 10
80.6319
 20
-124.4204
 42
0.1902859024
  0
VERTEX
  8
LAYER_6
 10
80.8119
 20
-124.4924
 42
0.1900621464
  0
VERTEX
  8
LAYER_6
 10
80.9919
 20
-124.4204
 42
-0.190485421
  0
VERTEX
  8
LAYER_6
 10
81.1719
 20
-124.3484
 42
-0.1905235853
  0
VERTEX
  8
LAYER_6
 10
81.3519
 20
-124.4204
 42
0.1902859024
  0
VERTEX
  8
LAYER_6
 10
81.5319
 20
-124.4924
 42
0.1900621464
  0
VERTEX
  8
LAYER_6
 10
81.7119
 20
-124.4204
 42
-0.190485421
  0
VERTEX
  8
LAYER_6
 10
81.8919
 20
-124.3484
 42
-0.1905235853
  0
VERTEX
  8
LAYER_6
 10
82.0719
 20
-124.4204
  0
SEQEND
  0
POLYLINE
  8
LAYER_6
 40
0.0353
 41
0.0353
 66
1
 10
0
 20
0
 30
0
  0
VERTEX
  8
LAYER_6
 10
80.1519
 20
-138.8054
  0
VERTEX
  8
LAYER_6
 10
80.1519
 20
-137.3454
  0
VERTEX
  8
LAYER_6
 10
81.1719
 20
-137.3454
  0
VERTEX
  8
LAYER_6
 10
82.1919
 20
-137.3454
  0
VERTEX
  8
LAYER_6
 10
82.1919
 20
-138.8054
  0
SEQEND
  0
POLYLINE
  8
LAYER_6
 40
0.0353
 41
0.0353
 66
1
 10
0
 20
0
 30
0
 70
1
  0
VERTEX
  8
LAYER_6
 10
81.4657
 20
-137.8849
  0
VERTEX
  8
LAYER_6
 10
81.5719
 20
-137.8544
  0
VERTEX
  8
LAYER_6
 10
81.6224
 20
-137.8609
  0
VERTEX
  8
LAYER_6
 10
81.9601
 20
-137.9491
 42
-0.3560954118
  0
VERTEX
  8
LAYER_6
 10
82.1219
 20
-138.1454
 42
-0.3560794056
  0
VERTEX
  8
LAYER_6
 10
81.9601
 20
-138.3417
  0
VERTEX
  8
LAYER_6
 10
81.6224
 20
-138.4299
  0
VERTEX
  8
LAYER_6
 10
81.5719
 20
-138.4364
  0
VERTEX
  8
LAYER_6
 10
81.4657
 20
-138.4059
  0
VERTEX
  8
LAYER_6
 10
81.3595
 20
-138.3754
  0
VERTEX
  8
LAYER_6
 10
81.1719
 20
-138.3754
  0
VERTEX
  8
LAYER_6
 10
80.9842
 20
-138.3754
  0
VERTEX
  8
LAYER_6
 10
80.8781
 20
-138.4059
  0
VERTEX
  8
LAYER_6
 10
80.7719
 20
-138.4364
  0
VERTEX
  8
LAYER_6
 10
80.7213
 20
-138.4299
  0
VERTEX
  8
LAYER_6
 10
80.3836
 20
-138.3417
 42
-0.3560254808
  0
VERTEX
  8
LAYER_6
 10
80.2219
 20
-138.1454
 42
-0.356041488
  0
VERTEX
  8
LAYER_6
 10
80.3836
 20
-137.9491
  0
VERTEX
  8
LAYER_6
 10
80.7213
 20
-137.8609
  0
VERTEX
  8
LAYER_6
 10
80.7719
 20
-137.8544
  0
VERTEX
  8
LAYER_6
 10
80.8781
 20
-137.8849
  0
VERTEX
  8
LAYER_6
 10
80.9842
 20
-137.9154
  0
VERTEX
  8
LAYER_6
 10
81.1719
 20
-137.9154
  0
VERTEX
  8
LAYER_6
 10
81.3595
 20
-137.9154
  0
SEQEND
  0
POLYLINE
  8
LAYER_6
  6
AIGENLINE001
 40
0.0353
 41
0.0353
 66
1
 10
0
 20
0
 30
0
 70
128
  0
VERTEX
  8
LAYER_6
 10
77.1719
 20
-167.2854
  0
VERTEX
  8
LAYER_6
 10
83.1719
 20
-167.2854
  0
SEQEND
  0
CIRCLE
  8
LAYER_6
 10
80.1718
 20
-167.2854
 40
2.4
  0
POLYLINE
  8
LAYER_6
 40
0.0353
 41
0.0353
 66
1
 10
0
 20
0
 30
0
  0
VERTEX
  8
LAYER_6
 10
82.0719
 20
-169.9854
  0
VERTEX
  8
LAYER_6
 10
80.1719
 20
-169.9854
  0
VERTEX
  8
LAYER_6
 10
78.2719
 20
-169.9854
  0
SEQEND
  0
POLYLINE
  8
LAYER_6
 40
0.0353
 41
0.0353
 66
1
 10
0
 20
0
 30
0
  0
VERTEX
  8
LAYER_6
 10
82.1355
 20
-168.666
 42
0.1440774178
  0
VERTEX
  8
LAYER_6
 10
82.0719
 20
-168.8816
  0
VERTEX
  8
LAYER_6
 10
82.0719
 20
-168.8831
  0
VERTEX
  8
LAYER_6
 10
82.0719
 20
-169.9854
  0
VERTEX
  8
LAYER_6
 10
81.9719
 20
-170.0854
  0
VERTEX
  8
LAYER_6
 10
80.1719
 20
-170.0854
  0
VERTEX
  8
LAYER_6
 10
78.3719
 20
-170.0854
  0
VERTEX
  8
LAYER_6
 10
78.2719
 20
-169.9854
  0
VERTEX
  8
LAYER_6
 10
78.2719
 20
-168.883
  0
VERTEX
  8
LAYER_6
 10
78.2719
 20
-168.8807
 42
0.1458703812
  0
VERTEX
  8
LAYER_6
 10
78.2079
 20
-168.6662
  0
SEQEND
  0
CIRCLE
  8
LAYER_6
 10
80.1718
 20
-167.2854
 40
2.2
  0
POLYLINE
  8
LAYER_6
 40
0.0353
 41
0.0353
 66
1
 10
0
 20
0
 30
0
  0
VERTEX
  8
LAYER_6
 10
82.5719
 20
-162.4854
  0
VERTEX
  8
LAYER_6
 10
82.5719
 20
-164.8854
  0
VERTEX
  8
LAYER_6
 10
82.5719
 20
-167.2854
  0
SEQEND
  0
POLYLINE
  8
LAYER_6
 40
0.0353
 41
0.0353
 66
1
 10
0
 20
0
 30
0
  0
VERTEX
  8
LAYER_6
 10
77.7719
 20
-162.4854
  0
VERTEX
  8
LAYER_6
 10
77.7719
 20
-164.8854
  0
VERTEX
  8
LAYER_6
 10
77.7719
 20
-167.2854
  0
SEQEND
  0
POLYLINE
  8
LAYER_6
 40
0.0353
 41
0.0353
 66
1
 10
0
 20
0
 30
0
  0
VERTEX
  8
LAYER_6
 10
77.9719
 20
-162.3054
  0
VERTEX
  8
LAYER_6
 10
77.9719
 20
-162.3854
  0
SEQEND
  0
POLYLINE
  8
LAYER_6
 40
0.0353
 41
0.0353
 66
1
 10
0
 20
0
 30
0
  0
VERTEX
  8
LAYER_6
 10
82.3719
 20
-162.3054
  0
VERTEX
  8
LAYER_6
 10
82.3719
 20
-162.3854
  0
SEQEND
  0
POLYLINE
  8
LAYER_6
 40
0.0353
 41
0.0353
 66
1
 10
0
 20
0
 30
0
 70
1
  0
VERTEX
  8
LAYER_6
 10
80.1719
 20
-162.3854
  0
VERTEX
  8
LAYER_6
 10
82.4719
 20
-162.3854
  0
VERTEX
  8
LAYER_6
 10
82.5719
 20
-162.4854
  0
VERTEX
  8
LAYER_6
 10
77.7719
 20
-162.4854
  0
VERTEX
  8
LAYER_6
 10
77.8719
 20
-162.3854
  0
SEQEND
  0
POLYLINE
  8
LAYER_6
 40
0.0353
 41
0.0353
 66
1
 10
0
 20
0
 30
0
 70
1
  0
VERTEX
  8
LAYER_6
 10
77.6719
 20
-170.5854
  0
VERTEX
  8
LAYER_6
 10
77.6719
 20
-172.8318
 42
0.1314609582
  0
VERTEX
  8
LAYER_6
 10
77.8719
 20
-172.8854
  0
VERTEX
  8
LAYER_6
 10
82.4719
 20
-172.8854
 42
0.1314637608
  0
VERTEX
  8
LAYER_6
 10
82.6719
 20
-172.8318
  0
VERTEX
  8
LAYER_6
 10
82.6719
 20
-170.5854
  0
VERTEX
  8
LAYER_6
 10
82.5235
 20
-170.2854
  0
VERTEX
  8
LAYER_6
 10
77.8202
 20
-170.2854
  0
SEQEND
  0
POLYLINE
  8
LAYER_6
 40
0.0353
 41
0.0353
 66
1
 10
0
 20
0
 30
0
  0
VERTEX
  8
LAYER_6
 10
79.805
 20
-171.5854
 42
0.1314924457
  0
VERTEX
  8
LAYER_6
 10
79.6601
 20
-171.0363
 42
0.2567907837
  0
VERTEX
  8
LAYER_6
 10
78.9219
 20
-170.5854
 42
0.154957672
  0
VERTEX
  8
LAYER_6
 10
78.4549
 20
-170.7365
 42
0.2420168703
  0
VERTEX
  8
LAYER_6
 10
78.0387
 20
-171.5854
  0
SEQEND
  0
POLYLINE
  8
LAYER_6
 40
0.0353
 41
0.0353
 66
1
 10
0
 20
0
 30
0
  0
VERTEX
  8
LAYER_6
 10
78.0387
 20
-172.4854
 42
0.2810766913
  0
VERTEX
  8
LAYER_6
 10
78.2271
 20
-172.6993
 42
0.1093582695
  0
VERTEX
  8
LAYER_6
 10
78.9219
 20
-172.8318
 42
0.1093643151
  0
VERTEX
  8
LAYER_6
 10
79.6166
 20
-172.6993
 42
0.2810684374
  0
VERTEX
  8
LAYER_6
 10
79.805
 20
-172.4854
  0
SEQEND
  0
POLYLINE
  8
LAYER_6
 40
0.0353
 41
0.0353
 66
1
 10
0
 20
0
 30
0
  0
VERTEX
  8
LAYER_6
 10
78.0387
 20
-171.5854
  0
VERTEX
  8
LAYER_6
 10
78.0387
 20
-172.4854
  0
SEQEND
  0
POLYLINE
  8
LAYER_6
 40
0.0353
 41
0.0353
 66
1
 10
0
 20
0
 30
0
  0
VERTEX
  8
LAYER_6
 10
79.805
 20
-171.5854
  0
VERTEX
  8
LAYER_6
 10
79.805
 20
-172.4854
  0
SEQEND
  0
POLYLINE
  8
LAYER_6
 40
0.0353
 41
0.0353
 66
1
 10
0
 20
0
 30
0
  0
VERTEX
  8
LAYER_6
 10
82.305
 20
-171.5854
 42
0.1314924457
  0
VERTEX
  8
LAYER_6
 10
82.1601
 20
-171.0363
 42
0.2567907837
  0
VERTEX
  8
LAYER_6
 10
81.4219
 20
-170.5854
 42
0.154957672
  0
VERTEX
  8
LAYER_6
 10
80.9549
 20
-170.7365
 42
0.2420168703
  0
VERTEX
  8
LAYER_6
 10
80.5387
 20
-171.5854
  0
SEQEND
  0
POLYLINE
  8
LAYER_6
 40
0.0353
 41
0.0353
 66
1
 10
0
 20
0
 30
0
  0
VERTEX
  8
LAYER_6
 10
82.305
 20
-172.4854
 42
0.2810684374
  0
VERTEX
  8
LAYER_6
 10
82.1166
 20
-172.2715
 42
0.1093643151
  0
VERTEX
  8
LAYER_6
 10
81.4219
 20
-172.139
 42
0.1093582695
  0
VERTEX
  8
LAYER_6
 10
80.7271
 20
-172.2715
 42
0.2810766913
  0
VERTEX
  8
LAYER_6
 10
80.5387
 20
-172.4854
  0
SEQEND
  0
POLYLINE
  8
LAYER_6
 40
0.0353
 41
0.0353
 66
1
 10
0
 20
0
 30
0
  0
VERTEX
  8
LAYER_6
 10
82.305
 20
-171.5854
  0
VERTEX
  8
LAYER_6
 10
82.305
 20
-172.4854
  0
SEQEND
  0
POLYLINE
  8
LAYER_6
 40
0.0353
 41
0.0353
 66
1
 10
0
 20
0
 30
0
  0
VERTEX
  8
LAYER_6
 10
80.5387
 20
-171.5854
  0
VERTEX
  8
LAYER_6
 10
80.5387
 20
-172.4854
  0
SEQEND
  0
POLYLINE
  8
LAYER_6
 40
0.0353
 41
0.0353
 66
1
 10
0
 20
0
 30
0
  0
VERTEX
  8
LAYER_6
 10
81.7919
 20
-170.2854
  0
VERTEX
  8
LAYER_6
 10
81.7919
 20
-170.0854
  0
VERTEX
  8
LAYER_6
 10
78.5519
 20
-170.0854
  0
VERTEX
  8
LAYER_6
 10
78.5519
 20
-170.2854
  0
SEQEND
  0
CIRCLE
  8
LAYER_6
 10
80.1718
 20
-167.2854
 40
2.09
  0
POLYLINE
  8
LAYER_6
 40
0.0353
 41
0.0353
 66
1
 10
0
 20
0
 30
0
  0
VERTEX
  8
LAYER_6
 10
78.0896
 20
-167.1054
  0
VERTEX
  8
LAYER_6
 10
82.2541
 20
-167.1054
  0
SEQEND
  0
POLYLINE
  8
LAYER_6
 40
0.0353
 41
0.0353
 66
1
 10
0
 20
0
 30
0
  0
VERTEX
  8
LAYER_6
 10
78.0896
 20
-167.4654
  0
VERTEX
  8
LAYER_6
 10
82.2541
 20
-167.4654
  0
SEQEND
  0
POLYLINE
  8
LAYER_6
 40
0.0353
 41
0.0353
 66
1
 10
0
 20
0
 30
0
  0
VERTEX
  8
LAYER_6
 10
80.1719
 20
-159.0854
  0
VERTEX
  8
LAYER_6
 10
82.9119
 20
-159.0854
 42
-0.4141734774
  0
VERTEX
  8
LAYER_6
 10
83.1119
 20
-159.2854
  0
VERTEX
  8
LAYER_6
 10
83.1119
 20
-162.2454
 42
-0.3927995515
  0
VERTEX
  8
LAYER_6
 10
83.0519
 20
-162.3054
  0
VERTEX
  8
LAYER_6
 10
75.9719
 20
-162.3054
 42
-0.3931565731
  0
VERTEX
  8
LAYER_6
 10
75.9119
 20
-162.2454
  0
VERTEX
  8
LAYER_6
 10
75.9119
 20
-159.2854
 42
-0.4142628584
  0
VERTEX
  8
LAYER_6
 10
76.1119
 20
-159.0854
  0
VERTEX
  8
LAYER_6
 10
80.0119
 20
-159.0854
  0
SEQEND
  0
POLYLINE
  8
LAYER_6
 40
0.0353
 41
0.0353
 66
1
 10
0
 20
0
 30
0
  0
VERTEX
  8
LAYER_6
 10
79.4598
 20
-159.0854
  0
VERTEX
  8
LAYER_6
 10
79.4598
 20
-162.3054
  0
SEQEND
  0
POLYLINE
  8
LAYER_6
 40
0.0353
 41
0.0353
 66
1
 10
0
 20
0
 30
0
  0
VERTEX
  8
LAYER_6
 10
80.9781
 20
-159.5854
  0
VERTEX
  8
LAYER_6
 10
80.9781
 20
-162.3054
  0
SEQEND
  0
POLYLINE
  8
LAYER_6
 40
0.0353
 41
0.0353
 66
1
 10
0
 20
0
 30
0
  0
VERTEX
  8
LAYER_6
 10
81.3119
 20
-159.0854
  0
VERTEX
  8
LAYER_6
 10
81.3119
 20
-162.3054
  0
SEQEND
  0
POLYLINE
  8
LAYER_6
 40
0.0353
 41
0.0353
 66
1
 10
0
 20
0
 30
0
  0
VERTEX
  8
LAYER_6
 10
81.3119
 20
-159.3854
  0
VERTEX
  8
LAYER_6
 10
80.1719
 20
-159.3854
  0
VERTEX
  8
LAYER_6
 10
80.1719
 20
-158.3854
  0
VERTEX
  8
LAYER_6
 10
82.5619
 20
-158.3854
  0
VERTEX
  8
LAYER_6
 10
82.5619
 20
-159.0854
  0
SEQEND
  0
POLYLINE
  8
LAYER_6
 40
0.0353
 41
0.0353
 66
1
 10
0
 20
0
 30
0
  0
VERTEX
  8
LAYER_6
 10
81.3119
 20
-159.5854
  0
VERTEX
  8
LAYER_6
 10
80.0119
 20
-159.5854
  0
VERTEX
  8
LAYER_6
 10
80.0119
 20
-158.3854
  0
VERTEX
  8
LAYER_6
 10
77.4619
 20
-158.3854
  0
VERTEX
  8
LAYER_6
 10
77.4619
 20
-159.0854
  0
SEQEND
  0
POLYLINE
  8
LAYER_6
 40
0.0353
 41
0.0353
 66
1
 10
0
 20
0
 30
0
  0
VERTEX
  8
LAYER_6
 10
77.246
 20
-162.3054
  0
VERTEX
  8
LAYER_6
 10
77.246
 20
-159.0854
  0
SEQEND
  0
POLYLINE
  8
LAYER_6
 40
0.0353
 41
0.0353
 66
1
 10
0
 20
0
 30
0
 70
1
  0
VERTEX
  8
LAYER_6
 10
78.2778
 20
-138.9054
  0
VERTEX
  8
LAYER_6
 10
78.2778
 20
-141.7454
 42
0.3927995517
  0
VERTEX
  8
LAYER_6
 10
78.3378
 20
-141.8054
  0
VERTEX
  8
LAYER_6
 10
84.0059
 20
-141.8054
 42
0.3931565729
  0
VERTEX
  8
LAYER_6
 10
84.0659
 20
-141.7454
  0
VERTEX
  8
LAYER_6
 10
84.0659
 20
-138.9054
 42
0.4142861928
  0
VERTEX
  8
LAYER_6
 10
83.9659
 20
-138.8054
  0
VERTEX
  8
LAYER_6
 10
78.3778
 20
-138.8054
 42
0.4141720365
  0
SEQEND
  0
POLYLINE
  8
LAYER_6
 40
0.0353
 41
0.0353
 66
1
 10
0
 20
0
 30
0
  0
VERTEX
  8
LAYER_6
 10
81.1719
 20
-138.9054
  0
VERTEX
  8
LAYER_6
 10
81.1719
 20
-141.7454
  0
SEQEND
  0
POLYLINE
  8
LAYER_6
 40
0.0353
 41
0.0353
 66
1
 10
0
 20
0
 30
0
  0
VERTEX
  8
LAYER_6
 10
79.3719
 20
-142.4254
  0
VERTEX
  8
LAYER_6
 10
79.3719
 20
-141.8854
  0
SEQEND
  0
POLYLINE
  8
LAYER_6
 40
0.0353
 41
0.0353
 66
1
 10
0
 20
0
 30
0
  0
VERTEX
  8
LAYER_6
 10
82.9719
 20
-141.8854
  0
VERTEX
  8
LAYER_6
 10
82.8919
 20
-141.8054
  0
SEQEND
  0
POLYLINE
  8
LAYER_6
 40
0.0353
 41
0.0353
 66
1
 10
0
 20
0
 30
0
 70
1
  0
VERTEX
  8
LAYER_6
 10
78.7719
 20
-145.6254
  0
VERTEX
  8
LAYER_6
 10
83.5719
 20
-145.6254
  0
VERTEX
  8
LAYER_6
 10
83.5719
 20
-142.4254
  0
VERTEX
  8
LAYER_6
 10
78.7719
 20
-142.4254
  0
SEQEND
  0
POLYLINE
  8
LAYER_6
 40
0.0353
 41
0.0353
 66
1
 10
0
 20
0
 30
0
  0
VERTEX
  8
LAYER_6
 10
82.9719
 20
-142.4254
  0
VERTEX
  8
LAYER_6
 10
82.9719
 20
-141.8854
  0
VERTEX
  8
LAYER_6
 10
79.3719
 20
-141.8854
  0
VERTEX
  8
LAYER_6
 10
79.4519
 20
-141.8054
  0
SEQEND
  0
POLYLINE
  8
LAYER_6
 40
0.0353
 41
0.0353
 66
1
 10
0
 20
0
 30
0
  0
VERTEX
  8
LAYER_6
 10
78.9007
 20
-143.3254
  0
VERTEX
  8
LAYER_6
 10
78.9007
 20
-145.4522
  0
SEQEND
  0
POLYLINE
  8
LAYER_6
 40
0.0353
 41
0.0353
 66
1
 10
0
 20
0
 30
0
  0
VERTEX
  8
LAYER_6
 10
83.4431
 20
-143.3254
  0
VERTEX
  8
LAYER_6
 10
83.4431
 20
-145.4522
  0
SEQEND
  0
POLYLINE
  8
LAYER_6
 40
0.0353
 41
0.0353
 66
1
 10
0
 20
0
 30
0
  0
VERTEX
  8
LAYER_6
 10
81.3007
 20
-142.5986
  0
VERTEX
  8
LAYER_6
 10
81.3007
 20
-143.1254
  0
SEQEND
  0
POLYLINE
  8
LAYER_6
 40
0.0353
 41
0.0353
 66
1
 10
0
 20
0
 30
0
  0
VERTEX
  8
LAYER_6
 10
81.3007
 20
-143.3254
  0
VERTEX
  8
LAYER_6
 10
81.3007
 20
-145.4522
  0
SEQEND
  0
POLYLINE
  8
LAYER_6
 40
0.0353
 41
0.0353
 66
1
 10
0
 20
0
 30
0
  0
VERTEX
  8
LAYER_6
 10
81.0431
 20
-142.5986
 42
0.08135841086
  0
VERTEX
  8
LAYER_6
 10
79.9719
 20
-142.4254
 42
0.08135864699
  0
VERTEX
  8
LAYER_6
 10
78.9007
 20
-142.5986
  0
SEQEND
  0
POLYLINE
  8
LAYER_6
 40
0.0353
 41
0.0353
 66
1
 10
0
 20
0
 30
0
  0
VERTEX
  8
LAYER_6
 10
78.7719
 20
-142.5986
  0
VERTEX
  8
LAYER_6
 10
78.9007
 20
-142.5986
  0
VERTEX
  8
LAYER_6
 10
78.9007
 20
-143.1254
  0
SEQEND
  0
POLYLINE
  8
LAYER_6
 40
0.0353
 41
0.0353
 66
1
 10
0
 20
0
 30
0
  0
VERTEX
  8
LAYER_6
 10
83.4431
 20
-142.5986
 42
0.08135841086
  0
VERTEX
  8
LAYER_6
 10
82.3719
 20
-142.4254
 42
0.08135864699
  0
VERTEX
  8
LAYER_6
 10
81.3007
 20
-142.5986
  0
VERTEX
  8
LAYER_6
 10
81.0431
 20
-142.5986
  0
VERTEX
  8
LAYER_6
 10
81.0431
 20
-143.1254
  0
SEQEND
  0
POLYLINE
  8
LAYER_6
 40
0.0353
 41
0.0353
 66
1
 10
0
 20
0
 30
0
  0
VERTEX
  8
LAYER_6
 10
83.5719
 20
-142.5986
  0
VERTEX
  8
LAYER_6
 10
83.4431
 20
-142.5986
  0
VERTEX
  8
LAYER_6
 10
83.4431
 20
-143.1254
  0
SEQEND
  0
POLYLINE
  8
LAYER_6
 40
0.0353
 41
0.0353
 66
1
 10
0
 20
0
 30
0
  0
VERTEX
  8
LAYER_6
 10
81.0431
 20
-145.4522
 42
-0.08135807044
  0
VERTEX
  8
LAYER_6
 10
79.9719
 20
-145.6254
 42
-0.08135830656
  0
VERTEX
  8
LAYER_6
 10
78.9007
 20
-145.4522
  0
VERTEX
  8
LAYER_6
 10
78.7719
 20
-145.4522
  0
SEQEND
  0
POLYLINE
  8
LAYER_6
 40
0.0353
 41
0.0353
 66
1
 10
0
 20
0
 30
0
  0
VERTEX
  8
LAYER_6
 10
81.0431
 20
-143.3254
  0
VERTEX
  8
LAYER_6
 10
81.0431
 20
-145.4522
  0
VERTEX
  8
LAYER_6
 10
81.3007
 20
-145.4522
 42
0.08135830656
  0
VERTEX
  8
LAYER_6
 10
82.3719
 20
-145.6254
 42
0.08135807044
  0
VERTEX
  8
LAYER_6
 10
83.4431
 20
-145.4522
  0
VERTEX
  8
LAYER_6
 10
83.5719
 20
-145.4522
  0
SEQEND
  0
POLYLINE
  8
LAYER_6
 40
0.0353
 41
0.0353
 66
1
 10
0
 20
0
 30
0
  0
VERTEX
  8
LAYER_6
 10
81.5058
 20
-143.2254
  0
VERTEX
  8
LAYER_6
 10
81.3007
 20
-143.1254
  0
VERTEX
  8
LAYER_6
 10
81.0431
 20
-143.1254
  0
VERTEX
  8
LAYER_6
 10
80.8379
 20
-143.2254
  0
SEQEND
  0
POLYLINE
  8
LAYER_6
 40
0.0353
 41
0.0353
 66
1
 10
0
 20
0
 30
0
 70
1
  0
VERTEX
  8
LAYER_6
 10
81.0431
 20
-143.3254
  0
VERTEX
  8
LAYER_6
 10
81.3007
 20
-143.3254
  0
VERTEX
  8
LAYER_6
 10
81.5058
 20
-143.2254
  0
VERTEX
  8
LAYER_6
 10
80.8379
 20
-143.2254
  0
SEQEND
  0
POLYLINE
  8
LAYER_6
 40
0.0353
 41
0.0353
 66
1
 10
0
 20
0
 30
0
  0
VERTEX
  8
LAYER_6
 10
78.7719
 20
-143.2254
  0
VERTEX
  8
LAYER_6
 10
79.1058
 20
-143.2254
  0
SEQEND
  0
POLYLINE
  8
LAYER_6
 40
0.0353
 41
0.0353
 66
1
 10
0
 20
0
 30
0
  0
VERTEX
  8
LAYER_6
 10
78.7719
 20
-143.3254
  0
VERTEX
  8
LAYER_6
 10
78.9007
 20
-143.3254
  0
VERTEX
  8
LAYER_6
 10
79.1058
 20
-143.2254
  0
VERTEX
  8
LAYER_6
 10
78.9007
 20
-143.1254
  0
VERTEX
  8
LAYER_6
 10
78.7719
 20
-143.1254
  0
SEQEND
  0
POLYLINE
  8
LAYER_6
 40
0.0353
 41
0.0353
 66
1
 10
0
 20
0
 30
0
  0
VERTEX
  8
LAYER_6
 10
83.5719
 20
-143.2254
  0
VERTEX
  8
LAYER_6
 10
83.2379
 20
-143.2254
  0
SEQEND
  0
POLYLINE
  8
LAYER_6
 40
0.0353
 41
0.0353
 66
1
 10
0
 20
0
 30
0
  0
VERTEX
  8
LAYER_6
 10
83.5719
 20
-143.3254
  0
VERTEX
  8
LAYER_6
 10
83.4431
 20
-143.3254
  0
VERTEX
  8
LAYER_6
 10
83.2379
 20
-143.2254
  0
VERTEX
  8
LAYER_6
 10
83.4431
 20
-143.1254
  0
VERTEX
  8
LAYER_6
 10
83.5719
 20
-143.1254
  0
SEQEND
  0
POLYLINE
  8
LAYER_6
 40
0.0353
 41
0.0353
 66
1
 10
0
 20
0
 30
0
  0
VERTEX
  8
LAYER_6
 10
83.0719
 20
-147.0254
  0
VERTEX
  8
LAYER_6
 10
83.1719
 20
-147.1254
  0
SEQEND
  0
POLYLINE
  8
LAYER_6
 40
0.0353
 41
0.0353
 66
1
 10
0
 20
0
 30
0
  0
VERTEX
  8
LAYER_6
 10
82.1719
 20
-153.8254
 42
0.4141920064
  0
VERTEX
  8
LAYER_6
 10
82.8719
 20
-153.1254
  0
VERTEX
  8
LAYER_6
 10
82.8719
 20
-150.4127
  0
SEQEND
  0
POLYLINE
  8
LAYER_6
 40
0.0353
 41
0.0353
 66
1
 10
0
 20
0
 30
0
  0
VERTEX
  8
LAYER_6
 10
78.0719
 20
-156.8254
 42
-0.414139199
  0
VERTEX
  8
LAYER_6
 10
78.1719
 20
-156.9254
  0
VERTEX
  8
LAYER_6
 10
78.1719
 20
-158.3254
  0
SEQEND
  0
POLYLINE
  8
LAYER_6
 40
0.0353
 41
0.0353
 66
1
 10
0
 20
0
 30
0
  0
VERTEX
  8
LAYER_6
 10
81.1719
 20
-148.8254
  0
VERTEX
  8
LAYER_6
 10
76.8719
 20
-148.8254
 42
0.4143179747
  0
VERTEX
  8
LAYER_6
 10
76.7719
 20
-148.9254
  0
SEQEND
  0
POLYLINE
  8
LAYER_6
 40
0.0353
 41
0.0353
 66
1
 10
0
 20
0
 30
0
  0
VERTEX
  8
LAYER_6
 10
76.7719
 20
-148.823
  0
VERTEX
  8
LAYER_6
 10
76.7719
 20
-149.0754
  0
SEQEND
  0
POLYLINE
  8
LAYER_6
 40
0.0353
 41
0.0353
 66
1
 10
0
 20
0
 30
0
  0
VERTEX
  8
LAYER_6
 10
76.7719
 20
-156.823
  0
VERTEX
  8
LAYER_6
 10
76.7719
 20
-156.5754
  0
VERTEX
  8
LAYER_6
 10
76.7719
 20
-157.0255
  0
SEQEND
  0
POLYLINE
  8
LAYER_6
 40
0.0353
 41
0.0353
 66
1
 10
0
 20
0
 30
0
  0
VERTEX
  8
LAYER_6
 10
76.7719
 20
-156.7254
 42
0.4142762791
  0
VERTEX
  8
LAYER_6
 10
76.8719
 20
-156.8254
  0
VERTEX
  8
LAYER_6
 10
80.1719
 20
-156.8254
  0
SEQEND
  0
POLYLINE
  8
LAYER_6
  6
AIGENLINE001
 40
0.0353
 41
0.0353
 66
1
 10
0
 20
0
 30
0
 70
128
  0
VERTEX
  8
LAYER_6
 10
57.0406
 20
-152.8254
  0
VERTEX
  8
LAYER_6
 10
81.5185
 20
-152.8254
  0
SEQEND
  0
POLYLINE
  8
LAYER_6
 40
0.0353
 41
0.0353
 66
1
 10
0
 20
0
 30
0
  0
VERTEX
  8
LAYER_6
 10
56.89
 20
-157.225
  0
VERTEX
  8
LAYER_6
 10
56.8719
 20
-157.425
  0
VERTEX
  8
LAYER_6
 10
56.89
 20
-157.625
  0
SEQEND
  0
POLYLINE
  8
LAYER_6
 40
0.0353
 41
0.0353
 66
1
 10
0
 20
0
 30
0
  0
VERTEX
  8
LAYER_6
 10
71.9538
 20
-157.625
  0
VERTEX
  8
LAYER_6
 10
71.9719
 20
-157.425
  0
VERTEX
  8
LAYER_6
 10
71.9538
 20
-157.225
  0
SEQEND
  0
POLYLINE
  8
LAYER_6
 40
0.0353
 41
0.0353
 66
1
 10
0
 20
0
 30
0
  0
VERTEX
  8
LAYER_6
 10
65.0016
 20
-147.625
 42
0.1012046289
  0
VERTEX
  8
LAYER_6
 10
62.3095
 20
-148.1772
 42
0.09491271708
  0
VERTEX
  8
LAYER_6
 10
59.9491
 20
-149.7732
 42
0.09302883614
  0
VERTEX
  8
LAYER_6
 10
58.0722
 20
-152.4848
 42
0.08807948977
  0
VERTEX
  8
LAYER_6
 10
57.2029
 20
-155.91
 42
0.01926268611
  0
VERTEX
  8
LAYER_6
 10
57.1719
 20
-156.7255
  0
VERTEX
  8
LAYER_6
 10
57.1719
 20
-156.765
  0
SEQEND
  0
POLYLINE
  8
LAYER_6
 40
0.0353
 41
0.0353
 66
1
 10
0
 20
0
 30
0
 70
1
  0
VERTEX
  8
LAYER_6
 10
57.1719
 20
-156.7653
  0
VERTEX
  8
LAYER_6
 10
71.6719
 20
-156.7653
 42
-0.4141858783
  0
VERTEX
  8
LAYER_6
 10
71.9719
 20
-157.0653
  0
VERTEX
  8
LAYER_6
 10
71.9719
 20
-157.2253
  0
VERTEX
  8
LAYER_6
 10
56.8719
 20
-157.225
  0
VERTEX
  8
LAYER_6
 10
56.8719
 20
-157.0653
 42
-0.4142521321
  0
SEQEND
  0
POLYLINE
  8
LAYER_6
 40
0.0353
 41
0.0353
 66
1
 10
0
 20
0
 30
0
  0
VERTEX
  8
LAYER_6
 10
71.6522
 20
-149.1715
  0
VERTEX
  8
LAYER_6
 10
71.6522
 20
-156.3129
  0
SEQEND
  0
POLYLINE
  8
LAYER_6
 40
0.0353
 41
0.0353
 66
1
 10
0
 20
0
 30
0
  0
VERTEX
  8
LAYER_6
 10
71.9719
 20
-157.0254
  0
VERTEX
  8
LAYER_6
 10
72.0719
 20
-157.0254
  0
VERTEX
  8
LAYER_6
 10
72.0719
 20
-157.4254
 42
0.4142762791
  0
VERTEX
  8
LAYER_6
 10
72.1719
 20
-157.5254
 42
0.4140975592
  0
VERTEX
  8
LAYER_6
 10
72.2719
 20
-157.4254
  0
VERTEX
  8
LAYER_6
 10
72.2719
 20
-157.2254
  0
VERTEX
  8
LAYER_6
 10
76.5719
 20
-157.2254
 42
0.4141526504
  0
VERTEX
  8
LAYER_6
 10
76.7719
 20
-157.0254
  0
VERTEX
  8
LAYER_6
 10
76.7719
 20
-156.7254
  0
VERTEX
  8
LAYER_6
 10
76.7719
 20
-152.8254
  0
VERTEX
  8
LAYER_6
 10
76.7719
 20
-148.6253
  0
VERTEX
  8
LAYER_6
 10
72.3813
 20
-148.6254
 42
-0.2662575875
  0
VERTEX
  8
LAYER_6
 10
71.5152
 20
-148.1252
 42
0.2662798941
  0
VERTEX
  8
LAYER_6
 10
70.649
 20
-147.625
  0
VERTEX
  8
LAYER_6
 10
65.0744
 20
-147.625
  0
VERTEX
  8
LAYER_6
 10
65.0016
 20
-147.625
  0
SEQEND
  0
POLYLINE
  8
LAYER_6
 40
0.0353
 41
0.0353
 66
1
 10
0
 20
0
 30
0
  0
VERTEX
  8
LAYER_6
 10
65.0538
 20
-163.6247
  0
VERTEX
  8
LAYER_6
 10
65.0709
 20
-163.5248
  0
VERTEX
  8
LAYER_6
 10
65.0538
 20
-163.425
  0
SEQEND
  0
POLYLINE
  8
LAYER_6
 40
0.0353
 41
0.0353
 66
1
 10
0
 20
0
 30
0
  0
VERTEX
  8
LAYER_6
 10
57.2899
 20
-163.425
  0
VERTEX
  8
LAYER_6
 10
57.2728
 20
-163.5248
  0
VERTEX
  8
LAYER_6
 10
57.2899
 20
-163.6247
  0
SEQEND
  0
POLYLINE
  8
LAYER_6
 40
0.0353
 41
0.0353
 66
1
 10
0
 20
0
 30
0
  0
VERTEX
  8
LAYER_6
 10
57.5722
 20
-164.0244
  0
VERTEX
  8
LAYER_6
 10
64.7715
 20
-164.0244
  0
SEQEND
  0
POLYLINE
  8
LAYER_6
 40
0.0353
 41
0.0353
 66
1
 10
0
 20
0
 30
0
 70
1
  0
VERTEX
  8
LAYER_6
 10
64.7702
 20
-164.0244
 42
0.4124509132
  0
VERTEX
  8
LAYER_6
 10
64.4719
 20
-164.3244
  0
VERTEX
  8
LAYER_6
 10
64.4719
 20
-167.825
 42
-0.4141902608
  0
VERTEX
  8
LAYER_6
 10
63.8719
 20
-168.425
  0
VERTEX
  8
LAYER_6
 10
58.4719
 20
-168.425
 42
-0.4142200523
  0
VERTEX
  8
LAYER_6
 10
57.8719
 20
-167.825
  0
VERTEX
  8
LAYER_6
 10
57.8719
 20
-164.3244
 42
0.4123914285
  0
VERTEX
  8
LAYER_6
 10
57.5736
 20
-164.0244
  0
VERTEX
  8
LAYER_6
 10
57.572
 20
-164.0244
 42
-0.4142560097
  0
VERTEX
  8
LAYER_6
 10
57.2719
 20
-163.7244
  0
VERTEX
  8
LAYER_6
 10
57.2719
 20
-163.625
  0
VERTEX
  8
LAYER_6
 10
65.0719
 20
-163.625
  0
VERTEX
  8
LAYER_6
 10
65.0719
 20
-163.7244
 42
-0.41415169
  0
VERTEX
  8
LAYER_6
 10
64.7719
 20
-164.0244
  0
SEQEND
  0
POLYLINE
  8
LAYER_6
 40
0.0353
 41
0.0353
 66
1
 10
0
 20
0
 30
0
  0
VERTEX
  8
LAYER_6
 10
57.1724
 20
-158.085
  0
VERTEX
  8
LAYER_6
 10
57.1724
 20
-163.425
  0
VERTEX
  8
LAYER_6
 10
67.36
 20
-163.425
 42
0.4142150049
  0
VERTEX
  8
LAYER_6
 10
68.36
 20
-162.425
  0
VERTEX
  8
LAYER_6
 10
68.36
 20
-161.285
 42
-0.4142054827
  0
VERTEX
  8
LAYER_6
 10
71.56
 20
-158.085
  0
SEQEND
  0
POLYLINE
  8
LAYER_6
 40
0.0353
 41
0.0353
 66
1
 10
0
 20
0
 30
0
 70
1
  0
VERTEX
  8
LAYER_6
 10
71.6719
 20
-158.085
  0
VERTEX
  8
LAYER_6
 10
57.1719
 20
-158.085
 42
-0.4142323536
  0
VERTEX
  8
LAYER_6
 10
56.8719
 20
-157.785
  0
VERTEX
  8
LAYER_6
 10
56.8719
 20
-157.625
  0
VERTEX
  8
LAYER_6
 10
71.9719
 20
-157.625
  0
VERTEX
  8
LAYER_6
 10
71.9719
 20
-157.785
 42
-0.4141727726
  0
SEQEND
  0
POLYLINE
  8
LAYER_6
  6
AIGENLINE001
 40
0.0353
 41
0.0353
 66
1
 10
0
 20
0
 30
0
 70
128
  0
VERTEX
  8
LAYER_6
 10
61.1719
 20
-154.5254
  0
VERTEX
  8
LAYER_6
 10
61.1719
 20
-168.9131
  0
SEQEND
  0
POLYLINE
  8
LAYER_6
 40
0.0353
 41
0.0353
 66
1
 10
0
 20
0
 30
0
  0
VERTEX
  8
LAYER_6
 10
66.4919
 20
-173.425
  0
VERTEX
  8
LAYER_6
 10
66.4919
 20
-163.425
  0
SEQEND
  0
POLYLINE
  8
LAYER_6
 40
0.0353
 41
0.0353
 66
1
 10
0
 20
0
 30
0
  0
VERTEX
  8
LAYER_6
 10
65.4519
 20
-173.425
  0
VERTEX
  8
LAYER_6
 10
65.4519
 20
-163.425
  0
SEQEND
  0
POLYLINE
  8
LAYER_6
 40
0.0353
 41
0.0353
 66
1
 10
0
 20
0
 30
0
  0
VERTEX
  8
LAYER_6
 10
83.2674
 20
-146.8254
  0
VERTEX
  8
LAYER_6
 10
83.0674
 20
-147.0254
  0
SEQEND
  0
POLYLINE
  8
LAYER_6
 40
0.0353
 41
0.0353
 66
1
 10
0
 20
0
 30
0
  0
VERTEX
  8
LAYER_6
 10
82.7719
 20
-147.0254
  0
VERTEX
  8
LAYER_6
 10
83.0694
 20
-147.0254
  0
VERTEX
  8
LAYER_6
 10
81.1719
 20
-147.0254
  0
VERTEX
  8
LAYER_6
 10
79.2744
 20
-147.0254
  0
VERTEX
  8
LAYER_6
 10
79.5719
 20
-147.0254
  0
SEQEND
  0
POLYLINE
  8
LAYER_6
 40
0.0353
 41
0.0353
 66
1
 10
0
 20
0
 30
0
  0
VERTEX
  8
LAYER_6
 10
83.2674
 20
-146.4279
  0
VERTEX
  8
LAYER_6
 10
83.035
 20
-146.0254
  0
VERTEX
  8
LAYER_6
 10
83.035
 20
-145.6254
  0
SEQEND
  0
POLYLINE
  8
LAYER_6
 40
0.0353
 41
0.0353
 66
1
 10
0
 20
0
 30
0
  0
VERTEX
  8
LAYER_6
 10
79.0764
 20
-146.8254
  0
VERTEX
  8
LAYER_6
 10
79.2764
 20
-147.0254
  0
SEQEND
  0
POLYLINE
  8
LAYER_6
 40
0.0353
 41
0.0353
 66
1
 10
0
 20
0
 30
0
  0
VERTEX
  8
LAYER_6
 10
79.0764
 20
-146.4279
  0
VERTEX
  8
LAYER_6
 10
79.3088
 20
-146.0254
  0
VERTEX
  8
LAYER_6
 10
79.3088
 20
-145.6254
  0
SEQEND
  0
POLYLINE
  8
LAYER_6
 40
0.0353
 41
0.0353
 66
1
 10
0
 20
0
 30
0
  0
VERTEX
  8
LAYER_6
 10
79.0764
 20
-146.0254
  0
VERTEX
  8
LAYER_6
 10
81.1719
 20
-146.0254
  0
VERTEX
  8
LAYER_6
 10
83.2674
 20
-146.0254
  0
SEQEND
  0
POLYLINE
  8
LAYER_6
 40
0.0353
 41
0.0353
 66
1
 10
0
 20
0
 30
0
  0
VERTEX
  8
LAYER_6
 10
79.0719
 20
-156.8254
 42
0.4140975592
  0
VERTEX
  8
LAYER_6
 10
79.1719
 20
-156.7254
  0
VERTEX
  8
LAYER_6
 10
79.1719
 20
-148.9254
 42
0.414139199
  0
VERTEX
  8
LAYER_6
 10
79.0719
 20
-148.8254
 42
0.4140975588
  0
VERTEX
  8
LAYER_6
 10
79.1719
 20
-148.7254
  0
VERTEX
  8
LAYER_6
 10
79.1719
 20
-147.1254
  0
SEQEND
  0
POLYLINE
  8
LAYER_6
 40
0.0353
 41
0.0353
 66
1
 10
0
 20
0
 30
0
  0
VERTEX
  8
LAYER_6
 10
79.1719
 20
-153.8254
  0
VERTEX
  8
LAYER_6
 10
82.1719
 20
-153.8254
  0
VERTEX
  8
LAYER_6
 10
82.1719
 20
-158.3254
  0
SEQEND
  0
POLYLINE
  8
LAYER_6
 40
0.0353
 41
0.0353
 66
1
 10
0
 20
0
 30
0
  0
VERTEX
  8
LAYER_6
 10
79.1719
 20
-150.4254
  0
VERTEX
  8
LAYER_6
 10
82.7719
 20
-150.4254
 42
0.4141801988
  0
VERTEX
  8
LAYER_6
 10
83.1719
 20
-150.0254
  0
VERTEX
  8
LAYER_6
 10
83.1719
 20
-147.1254
  0
VERTEX
  8
LAYER_6
 10
81.1719
 20
-147.1254
  0
VERTEX
  8
LAYER_6
 10
79.1719
 20
-147.1254
  0
VERTEX
  8
LAYER_6
 10
79.2719
 20
-147.0254
  0
SEQEND
  0
POLYLINE
  8
LAYER_6
 40
0.0353
 41
0.0353
 66
1
 10
0
 20
0
 30
0
 70
1
  0
VERTEX
  8
LAYER_6
 10
83.2674
 20
-146.8254
  0
VERTEX
  8
LAYER_6
 10
81.1719
 20
-146.8254
  0
VERTEX
  8
LAYER_6
 10
79.0764
 20
-146.8254
  0
VERTEX
  8
LAYER_6
 10
79.0764
 20
-145.6254
  0
VERTEX
  8
LAYER_6
 10
81.1719
 20
-145.6254
  0
VERTEX
  8
LAYER_6
 10
83.2674
 20
-145.6254
  0
SEQEND
  0
POLYLINE
  8
LAYER_6
 40
0.0353
 41
0.0353
 66
1
 10
0
 20
0
 30
0
  0
VERTEX
  8
LAYER_6
 10
65.4519
 20
-173.425
 42
-0.3988503941
  0
VERTEX
  8
LAYER_6
 10
65.6599
 20
-173.425
 42
0.1902948197
  0
VERTEX
  8
LAYER_6
 10
65.7639
 20
-173.4666
 42
0.1897131661
  0
VERTEX
  8
LAYER_6
 10
65.8679
 20
-173.425
 42
-0.1902948197
  0
VERTEX
  8
LAYER_6
 10
65.9719
 20
-173.3834
 42
-0.1897131661
  0
VERTEX
  8
LAYER_6
 10
66.0759
 20
-173.425
 42
0.1902948197
  0
VERTEX
  8
LAYER_6
 10
66.1799
 20
-173.4666
 42
0.1897131661
  0
VERTEX
  8
LAYER_6
 10
66.2839
 20
-173.425
 42
-0.1902948197
  0
VERTEX
  8
LAYER_6
 10
66.3879
 20
-173.3834
 42
-0.1897131661
  0
VERTEX
  8
LAYER_6
 10
66.4919
 20
-173.425
  0
SEQEND
  0
POLYLINE
  8
LAYER_6
  6
AIGENLINE001
 40
0.0353
 41
0.0353
 66
1
 10
0
 20
0
 30
0
 70
128
  0
VERTEX
  8
LAYER_6
 10
80.1719
 20
-153.8254
  0
VERTEX
  8
LAYER_6
 10
80.1719
 20
-173.4854
  0
SEQEND
  0
POLYLINE
  8
LAYER_6
 40
0.0353
 41
0.0353
 66
1
 10
0
 20
0
 30
0
  0
VERTEX
  8
LAYER_6
 10
83.7119
 20
-74.9087
 42
0.4142081375
  0
VERTEX
  8
LAYER_6
 10
81.1719
 20
-72.3683
 42
0.4142151755
  0
VERTEX
  8
LAYER_6
 10
78.6319
 20
-74.9087
  0
SEQEND
  0
POLYLINE
  8
LAYER_6
 40
0.0353
 41
0.0353
 66
1
 10
0
 20
0
 30
0
  0
VERTEX
  8
LAYER_6
 10
78.6219
 20
-90.5153
  0
VERTEX
  8
LAYER_6
 10
81.1719
 20
-90.5153
  0
VERTEX
  8
LAYER_6
 10
83.7219
 20
-90.5153
  0
SEQEND
  0
POLYLINE
  8
LAYER_6
 40
0.0353
 41
0.0353
 66
1
 10
0
 20
0
 30
0
  0
VERTEX
  8
LAYER_6
 10
79.7229
 20
-84.4212
  0
VERTEX
  8
LAYER_6
 10
79.7229
 20
-84.8502
  0
SEQEND
  0
POLYLINE
  8
LAYER_6
 40
0.0353
 41
0.0353
 66
1
 10
0
 20
0
 30
0
  0
VERTEX
  8
LAYER_6
 10
83.4688
 20
-84.2637
  0
VERTEX
  8
LAYER_6
 10
83.4688
 20
-84.2655
 42
-0.41420679
  0
VERTEX
  8
LAYER_6
 10
83.2811
 20
-84.4531
  0
VERTEX
  8
LAYER_6
 10
83.2533
 20
-84.4511
  0
VERTEX
  8
LAYER_6
 10
82.7528
 20
-84.4511
  0
VERTEX
  8
LAYER_6
 10
82.7355
 20
-84.4517
 42
-0.2193935049
  0
VERTEX
  8
LAYER_6
 10
82.5658
 20
-84.3734
 42
0.153158547
  0
VERTEX
  8
LAYER_6
 10
82.019
 20
-83.9537
 42
0.1878116934
  0
VERTEX
  8
LAYER_6
 10
80.3268
 20
-83.9537
 42
0.1531599895
  0
VERTEX
  8
LAYER_6
 10
79.78
 20
-84.3734
 42
-0.2193861635
  0
VERTEX
  8
LAYER_6
 10
79.6103
 20
-84.4517
  0
VERTEX
  8
LAYER_6
 10
79.593
 20
-84.4511
  0
VERTEX
  8
LAYER_6
 10
79.0925
 20
-84.4511
  0
VERTEX
  8
LAYER_6
 10
79.0647
 20
-84.4531
 42
-0.2931972684
  0
VERTEX
  8
LAYER_6
 10
78.8934
 20
-84.3422
  0
VERTEX
  8
LAYER_6
 10
78.8798
 20
-84.2201
  0
SEQEND
  0
POLYLINE
  8
LAYER_6
 40
0.0353
 41
0.0353
 66
1
 10
0
 20
0
 30
0
  0
VERTEX
  8
LAYER_6
 10
82.4535
 20
-85.0832
  0
VERTEX
  8
LAYER_6
 10
82.4823
 20
-85.0808
  0
SEQEND
  0
POLYLINE
  8
LAYER_6
 40
0.0353
 41
0.0353
 66
1
 10
0
 20
0
 30
0
  0
VERTEX
  8
LAYER_6
 10
81.8803
 20
-84.5801
 42
-0.1486628909
  0
VERTEX
  8
LAYER_6
 10
82.0878
 20
-84.8458
  0
VERTEX
  8
LAYER_6
 10
82.1285
 20
-84.8778
  0
SEQEND
  0
POLYLINE
  8
LAYER_6
 40
0.0353
 41
0.0353
 66
1
 10
0
 20
0
 30
0
  0
VERTEX
  8
LAYER_6
 10
80.2185
 20
-84.8736
  0
VERTEX
  8
LAYER_6
 10
80.2592
 20
-84.8417
 42
-0.1478180747
  0
VERTEX
  8
LAYER_6
 10
80.4695
 20
-84.5774
  0
SEQEND
  0
POLYLINE
  8
LAYER_6
 40
0.0353
 41
0.0353
 66
1
 10
0
 20
0
 30
0
  0
VERTEX
  8
LAYER_6
 10
80.2579
 20
-85.0463
 42
0.2117093906
  0
VERTEX
  8
LAYER_6
 10
80.6094
 20
-85.3913
 42
0.2022335578
  0
VERTEX
  8
LAYER_6
 10
81.7309
 20
-85.3938
 42
0.2100663879
  0
VERTEX
  8
LAYER_6
 10
82.0866
 20
-85.0504
  0
SEQEND
  0
POLYLINE
  8
LAYER_6
 40
0.0353
 41
0.0353
 66
1
 10
0
 20
0
 30
0
  0
VERTEX
  8
LAYER_6
 10
80.3223
 20
-84.7245
 42
0.2064677583
  0
VERTEX
  8
LAYER_6
 10
81.1014
 20
-85.0607
  0
VERTEX
  8
LAYER_6
 10
81.1694
 20
-85.0585
  0
VERTEX
  8
LAYER_6
 10
81.2689
 20
-85.0634
 42
0.2139435657
  0
VERTEX
  8
LAYER_6
 10
82.0235
 20
-84.7246
  0
SEQEND
  0
POLYLINE
  8
LAYER_6
 40
0.0353
 41
0.0353
 66
1
 10
0
 20
0
 30
0
  0
VERTEX
  8
LAYER_6
 10
80.2579
 20
-84.906
  0
VERTEX
  8
LAYER_6
 10
79.8623
 20
-85.075
  0
SEQEND
  0
POLYLINE
  8
LAYER_6
 40
0.0353
 41
0.0353
 66
1
 10
0
 20
0
 30
0
  0
VERTEX
  8
LAYER_6
 10
82.0866
 20
-84.9101
  0
VERTEX
  8
LAYER_6
 10
82.4823
 20
-85.0808
  0
VERTEX
  8
LAYER_6
 10
82.4835
 20
-84.8762
  0
VERTEX
  8
LAYER_6
 10
82.4548
 20
-84.8785
  0
SEQEND
  0
POLYLINE
  8
LAYER_6
 40
0.0353
 41
0.0353
 66
1
 10
0
 20
0
 30
0
  0
VERTEX
  8
LAYER_6
 10
79.8935
 20
-85.0775
  0
VERTEX
  8
LAYER_6
 10
80.2173
 20
-85.0782
  0
SEQEND
  0
POLYLINE
  8
LAYER_6
 40
0.0353
 41
0.0353
 66
1
 10
0
 20
0
 30
0
  0
VERTEX
  8
LAYER_6
 10
82.1272
 20
-85.0825
 42
-0.183144901
  0
VERTEX
  8
LAYER_6
 10
81.8907
 20
-85.3707
 42
-0.16034813
  0
VERTEX
  8
LAYER_6
 10
81.0792
 20
-85.559
 42
-0.1316274058
  0
VERTEX
  8
LAYER_6
 10
80.4503
 20
-85.3674
 42
-0.1680196083
  0
VERTEX
  8
LAYER_6
 10
80.2173
 20
-85.0782
  0
VERTEX
  8
LAYER_6
 10
80.2579
 20
-85.0463
  0
VERTEX
  8
LAYER_6
 10
80.2579
 20
-84.906
  0
VERTEX
  8
LAYER_6
 10
80.2494
 20
-84.8494
  0
SEQEND
  0
POLYLINE
  8
LAYER_6
 40
0.0353
 41
0.0353
 66
1
 10
0
 20
0
 30
0
  0
VERTEX
  8
LAYER_6
 10
82.0965
 20
-84.8526
  0
VERTEX
  8
LAYER_6
 10
82.0866
 20
-84.9101
  0
VERTEX
  8
LAYER_6
 10
82.0866
 20
-85.0504
  0
VERTEX
  8
LAYER_6
 10
82.1272
 20
-85.0825
  0
VERTEX
  8
LAYER_6
 10
82.451
 20
-85.0832
 42
-0.2012145986
  0
VERTEX
  8
LAYER_6
 10
82.0942
 20
-85.5214
 42
-0.1334559786
  0
VERTEX
  8
LAYER_6
 10
81.1681
 20
-85.7543
 42
-0.1395684473
  0
VERTEX
  8
LAYER_6
 10
80.2448
 20
-85.5172
 42
-0.2026756259
  0
VERTEX
  8
LAYER_6
 10
79.8935
 20
-85.0775
  0
VERTEX
  8
LAYER_6
 10
79.8623
 20
-85.075
  0
VERTEX
  8
LAYER_6
 10
79.8635
 20
-84.8704
  0
VERTEX
  8
LAYER_6
 10
79.8948
 20
-84.8728
  0
VERTEX
  8
LAYER_6
 10
80.2185
 20
-84.8736
 42
-0.1831836476
  0
VERTEX
  8
LAYER_6
 10
80.4551
 20
-84.5854
 42
-0.1603374095
  0
VERTEX
  8
LAYER_6
 10
81.2665
 20
-84.397
 42
-0.1316451602
  0
VERTEX
  8
LAYER_6
 10
81.8955
 20
-84.5886
 42
-0.1680122928
  0
VERTEX
  8
LAYER_6
 10
82.1285
 20
-84.8778
  0
VERTEX
  8
LAYER_6
 10
82.4523
 20
-84.8786
 42
0.2027350182
  0
VERTEX
  8
LAYER_6
 10
82.1009
 20
-84.4388
 42
0.1395541048
  0
VERTEX
  8
LAYER_6
 10
81.1777
 20
-84.2017
 42
0.1334672501
  0
VERTEX
  8
LAYER_6
 10
80.2515
 20
-84.4346
 42
0.2011839792
  0
VERTEX
  8
LAYER_6
 10
79.8948
 20
-84.8728
  0
SEQEND
  0
POLYLINE
  8
LAYER_6
 40
0.0353
 41
0.0353
 66
1
 10
0
 20
0
 30
0
  0
VERTEX
  8
LAYER_6
 10
82.6229
 20
-84.4212
  0
VERTEX
  8
LAYER_6
 10
82.6229
 20
-84.8549
 42
0.1473135963
  0
VERTEX
  8
LAYER_6
 10
82.5246
 20
-84.5344
 42
0.1510242212
  0
VERTEX
  8
LAYER_6
 10
81.9942
 20
-84.1311
 42
0.162249231
  0
VERTEX
  8
LAYER_6
 10
80.5486
 20
-84.0626
 42
0.129924983
  0
VERTEX
  8
LAYER_6
 10
79.9199
 20
-84.4111
 42
0.2002265714
  0
VERTEX
  8
LAYER_6
 10
79.7229
 20
-84.8505
 42
0.2098962142
  0
VERTEX
  8
LAYER_6
 10
79.9585
 20
-85.3677
 42
0.1242134418
  0
VERTEX
  8
LAYER_6
 10
80.5659
 20
-85.7026
 42
0.07024699143
  0
VERTEX
  8
LAYER_6
 10
81.1677
 20
-85.7866
 42
0.1370911212
  0
VERTEX
  8
LAYER_6
 10
82.1861
 20
-85.5249
 42
0.1747534251
  0
VERTEX
  8
LAYER_6
 10
82.5892
 20
-85.0545
  0
VERTEX
  8
LAYER_6
 10
82.6229
 20
-84.8549
  0
SEQEND
  0
POLYLINE
  8
LAYER_6
 40
0.0353
 41
0.0353
 66
1
 10
0
 20
0
 30
0
  0
VERTEX
  8
LAYER_6
 10
83.4719
 20
-84.336
 42
0.1416693966
  0
VERTEX
  8
LAYER_6
 10
83.3225
 20
-83.8398
 42
0.1107019208
  0
VERTEX
  8
LAYER_6
 10
82.8368
 20
-83.3724
 42
0.08440092266
  0
VERTEX
  8
LAYER_6
 10
81.989
 20
-83.0301
 42
0.05610645299
  0
VERTEX
  8
LAYER_6
 10
81.1719
 20
-82.9394
 42
0.07275881976
  0
VERTEX
  8
LAYER_6
 10
80.1497
 20
-83.0846
 42
0.08735900611
  0
VERTEX
  8
LAYER_6
 10
79.3796
 20
-83.4606
 42
0.1217586129
  0
VERTEX
  8
LAYER_6
 10
78.9591
 20
-83.9537
 42
0.1111559784
  0
VERTEX
  8
LAYER_6
 10
78.8719
 20
-84.336
  0
SEQEND
  0
POLYLINE
  8
LAYER_6
 40
0.0353
 41
0.0353
 66
1
 10
0
 20
0
 30
0
  0
VERTEX
  8
LAYER_6
 10
78.8719
 20
-84.336
 42
0.1455948251
  0
VERTEX
  8
LAYER_6
 10
79.0263
 20
-84.8262
 42
0.1106219331
  0
VERTEX
  8
LAYER_6
 10
79.5282
 20
-85.2931
 42
0.07901279763
  0
VERTEX
  8
LAYER_6
 10
80.3276
 20
-85.612
  0
SEQEND
  0
POLYLINE
  8
LAYER_6
 40
0.0353
 41
0.0353
 66
1
 10
0
 20
0
 30
0
  0
VERTEX
  8
LAYER_6
 10
82.0314
 20
-85.6084
 42
0.08528491707
  0
VERTEX
  8
LAYER_6
 10
82.8663
 20
-85.261
 42
0.113713142
  0
VERTEX
  8
LAYER_6
 10
83.3413
 20
-84.7878
 42
0.1357091933
  0
VERTEX
  8
LAYER_6
 10
83.4719
 20
-84.336
  0
SEQEND
  0
POLYLINE
  8
LAYER_6
 40
0.0353
 41
0.0353
 66
1
 10
0
 20
0
 30
0
  0
VERTEX
  8
LAYER_6
 10
83.7119
 20
-84.3236
 42
0.1381598562
  0
VERTEX
  8
LAYER_6
 10
83.5578
 20
-83.798
 42
0.1068221491
  0
VERTEX
  8
LAYER_6
 10
83.0724
 20
-83.3095
 42
0.08198936582
  0
VERTEX
  8
LAYER_6
 10
82.2172
 20
-82.93
 42
0.06596203897
  0
VERTEX
  8
LAYER_6
 10
81.1719
 20
-82.795
 42
0.07016149535
  0
VERTEX
  8
LAYER_6
 10
80.0707
 20
-82.9457
 42
0.0834743965
  0
VERTEX
  8
LAYER_6
 10
79.2315
 20
-83.3372
 42
0.109826825
  0
VERTEX
  8
LAYER_6
 10
78.7654
 20
-83.8333
 42
0.129727802
  0
VERTEX
  8
LAYER_6
 10
78.6319
 20
-84.3236
  0
SEQEND
  0
POLYLINE
  8
LAYER_6
 40
0.0353
 41
0.0353
 66
1
 10
0
 20
0
 30
0
  0
VERTEX
  8
LAYER_6
 10
78.6319
 20
-84.3236
 42
0.1381598562
  0
VERTEX
  8
LAYER_6
 10
78.786
 20
-84.8492
 42
0.1068221491
  0
VERTEX
  8
LAYER_6
 10
79.2714
 20
-85.3377
 42
0.08198936582
  0
VERTEX
  8
LAYER_6
 10
80.1266
 20
-85.7172
 42
0.06596203897
  0
VERTEX
  8
LAYER_6
 10
81.1719
 20
-85.8522
 42
0.07016149535
  0
VERTEX
  8
LAYER_6
 10
82.2731
 20
-85.7015
 42
0.0834743965
  0
VERTEX
  8
LAYER_6
 10
83.1123
 20
-85.31
 42
0.109826825
  0
VERTEX
  8
LAYER_6
 10
83.5784
 20
-84.8139
 42
0.129727802
  0
VERTEX
  8
LAYER_6
 10
83.7119
 20
-84.3236
  0
SEQEND
  0
POLYLINE
  8
LAYER_6
 40
0.0353
 41
0.0353
 66
1
 10
0
 20
0
 30
0
  0
VERTEX
  8
LAYER_6
 10
83.7119
 20
-74.9087
  0
VERTEX
  8
LAYER_6
 10
83.7119
 20
-90.4553
 42
-0.3927995515
  0
VERTEX
  8
LAYER_6
 10
83.6519
 20
-90.5153
  0
VERTEX
  8
LAYER_6
 10
78.6919
 20
-90.5153
 42
-0.3931565731
  0
VERTEX
  8
LAYER_6
 10
78.6319
 20
-90.4553
  0
VERTEX
  8
LAYER_6
 10
78.6319
 20
-74.9087
  0
SEQEND
  0
POLYLINE
  8
LAYER_6
 40
0.0353
 41
0.0353
 66
1
 10
0
 20
0
 30
0
  0
VERTEX
  8
LAYER_6
 10
83.7119
 20
-34.7998
  0
VERTEX
  8
LAYER_6
 10
83.7119
 20
-16.3797
 42
0.4142023979
  0
VERTEX
  8
LAYER_6
 10
81.1719
 20
-13.8397
 42
0.4142094348
  0
VERTEX
  8
LAYER_6
 10
78.6319
 20
-16.3797
  0
VERTEX
  8
LAYER_6
 10
78.6319
 20
-34.7998
  0
SEQEND
  0
POLYLINE
  8
LAYER_6
 40
0.0353
 41
0.0353
 66
1
 10
0
 20
0
 30
0
  0
VERTEX
  8
LAYER_6
 10
78.6319
 20
-34.7998
 42
0.1080594631
  0
VERTEX
  8
LAYER_6
 10
78.786
 20
-35.4973
 42
0.09615495201
  0
VERTEX
  8
LAYER_6
 10
79.2315
 20
-36.1088
 42
0.08676123409
  0
VERTEX
  8
LAYER_6
 10
79.9612
 20
-36.5835
 42
0.1026053999
  0
VERTEX
  8
LAYER_6
 10
81.1719
 20
-36.8283
 42
0.1551200336
  0
VERTEX
  8
LAYER_6
 10
82.9022
 20
-36.2849
 42
0.09360622426
  0
VERTEX
  8
LAYER_6
 10
83.4479
 20
-35.7013
 42
0.1393754435
  0
VERTEX
  8
LAYER_6
 10
83.7119
 20
-34.7998
  0
SEQEND
  0
ENDSEC
  0
EOF
