  0
SECTION
  2
HEADER
  9
$ACADVER
  1
AC1009
  9
$LUNITS
 70
2
  9
$LUPREC
 70
4
  9
$LTSCALE
 40
1.0
  9
$EXTMIN
 10
33.7873
 20
-259.334
 30
0
  9
$EXTMAX
 10
497.1273
 20
22.6587
 30
0
  0
ENDSEC
  0
SECTION
  2
TABLES
  0
TABLE
  2
LTYPE
 70
256
  0
LTYPE
  2
AIGENLINE001
 70
64
  3
generate AI->DXF Converter
 72
65
 73
4
 40
2
 49
1.25
 49
-0.25
 49
0.25
 49
-0.25
  0
ENDTAB
  0
TABLE
  2
LAYER
 70
6
  0
LAYER
  2
LAYER_1
 70
64
 62
7
  6
CONTINUOUS
  0
LAYER
  2
LAYER_2
 70
64
 62
7
  6
CONTINUOUS
  0
LAYER
  2
LAYER_3
 70
64
 62
7
  6
CONTINUOUS
  0
LAYER
  2
LAYER_4
 70
64
 62
7
  6
CONTINUOUS
  0
LAYER
  2
LAYER_5
 70
64
 62
7
  6
CONTINUOUS
  0
LAYER
  2
LAYER_6
 70
64
 62
7
  6
CONTINUOUS
  0
ENDTAB
  0
TABLE
  2
STYLE
 70
6
  0
STYLE
  2
STANDARD
 70
0
 40
0
 50
0
 71
0
 41
0
 42
0
  3
TXT
  4
BIGFONT
  0
ENDTAB
  0
ENDSEC
  0
SECTION
  2
BLOCKS
  0
BLOCK
  8
LAYER_1
  2
AIGNBL01040005
 70
64
 10
0
 20
0
 30
0
  3
AIGNBL01040005
  0
POLYLINE
  8
LAYER_1
 40
0.05
 41
0.05
 66
1
 10
0
 20
0
 30
0
 70
1
  0
VERTEX
  8
LAYER_1
 10
138.3767
 20
-249.1011
  0
VERTEX
  8
LAYER_1
 10
137.891
 20
-250.2793
  0
VERTEX
  8
LAYER_1
 10
137.2664
 20
-250.2793
  0
VERTEX
  8
LAYER_1
 10
138.857
 20
-246.5355
  0
VERTEX
  8
LAYER_1
 10
139.586
 20
-246.5355
  0
VERTEX
  8
LAYER_1
 10
141.1828
 20
-250.2793
  0
VERTEX
  8
LAYER_1
 10
140.5365
 20
-250.2793
  0
VERTEX
  8
LAYER_1
 10
140.0369
 20
-249.1011
  0
SEQEND
  0
POLYLINE
  8
LAYER_1
 40
0.05
 41
0.05
 66
1
 10
0
 20
0
 30
0
 70
1
  0
VERTEX
  8
LAYER_1
 10
139.9115
 20
-248.7245
  0
VERTEX
  8
LAYER_1
 10
139.4533
 20
-247.6459
 42
-0.02267506524
  0
VERTEX
  8
LAYER_1
 10
139.2101
 20
-246.963
  0
VERTEX
  8
LAYER_1
 10
139.1967
 20
-246.963
 42
-0.02084266043
  0
VERTEX
  8
LAYER_1
 10
138.9603
 20
-247.6414
  0
VERTEX
  8
LAYER_1
 10
138.5021
 20
-248.7245
  0
SEQEND
  0
ENDBLK
  0
BLOCK
  8
LAYER_1
  2
AIGNBL01040006
 70
64
 10
0
 20
0
 30
0
  3
AIGNBL01040006
  0
POLYLINE
  8
LAYER_1
 40
0.05
 41
0.05
 66
1
 10
0
 20
0
 30
0
 70
1
  0
VERTEX
  8
LAYER_1
 10
145.5226
 20
-250.8295
 42
-0.01550180985
  0
VERTEX
  8
LAYER_1
 10
143.7311
 20
-250.3954
 42
0.09208348225
  0
VERTEX
  8
LAYER_1
 10
143.4465
 20
-250.3406
 42
-0.09252107557
  0
VERTEX
  8
LAYER_1
 10
142.4981
 20
-250.139
 42
-0.09792797557
  0
VERTEX
  8
LAYER_1
 10
141.8642
 20
-249.7067
 42
-0.1631033753
  0
VERTEX
  8
LAYER_1
 10
141.401
 20
-248.7192
 42
-0.03157985926
  0
VERTEX
  8
LAYER_1
 10
141.3839
 20
-248.4469
 42
-0.1088259969
  0
VERTEX
  8
LAYER_1
 10
141.5673
 20
-247.5875
 42
-0.1618048679
  0
VERTEX
  8
LAYER_1
 10
142.3628
 20
-246.7577
 42
-0.09175073832
  0
VERTEX
  8
LAYER_1
 10
143.1629
 20
-246.5018
 42
-0.03454354202
  0
VERTEX
  8
LAYER_1
 10
143.5644
 20
-246.4745
 42
-0.09527006366
  0
VERTEX
  8
LAYER_1
 10
144.5227
 20
-246.6511
 42
-0.1001818692
  0
VERTEX
  8
LAYER_1
 10
145.1563
 20
-247.0713
 42
-0.1611434138
  0
VERTEX
  8
LAYER_1
 10
145.6402
 20
-248.0664
 42
-0.03591204318
  0
VERTEX
  8
LAYER_1
 10
145.6617
 20
-248.3686
 42
-0.1066586367
  0
VERTEX
  8
LAYER_1
 10
145.4864
 20
-249.2186
 42
-0.2185717489
  0
VERTEX
  8
LAYER_1
 10
144.3825
 20
-250.147
 42
-0.006705231958
  0
VERTEX
  8
LAYER_1
 10
144.3281
 20
-250.1628
  0
VERTEX
  8
LAYER_1
 10
144.3281
 20
-250.1852
 42
0.01501268135
  0
VERTEX
  8
LAYER_1
 10
145.6965
 20
-250.424
  0
SEQEND
  0
POLYLINE
  8
LAYER_1
 40
0.05
 41
0.05
 66
1
 10
0
 20
0
 30
0
 70
1
  0
VERTEX
  8
LAYER_1
 10
145.0233
 20
-248.39
 42
0.1175404168
  0
VERTEX
  8
LAYER_1
 10
144.842
 20
-247.6261
 42
0.1170585149
  0
VERTEX
  8
LAYER_1
 10
144.419
 20
-247.1311
 42
0.1200111465
  0
VERTEX
  8
LAYER_1
 10
143.8094
 20
-246.8884
 42
0.0377207096
  0
VERTEX
  8
LAYER_1
 10
143.5433
 20
-246.8687
 42
0.1152954241
  0
VERTEX
  8
LAYER_1
 10
142.8054
 20
-247.0324
 42
0.1853004926
  0
VERTEX
  8
LAYER_1
 10
142.1509
 20
-247.7624
 42
0.09848637078
  0
VERTEX
  8
LAYER_1
 10
142.0296
 20
-248.4344
 42
0.120860713
  0
VERTEX
  8
LAYER_1
 10
142.2045
 20
-249.1849
 42
0.2836170694
  0
VERTEX
  8
LAYER_1
 10
143.5161
 20
-249.9468
 42
0.1188766714
  0
VERTEX
  8
LAYER_1
 10
144.2605
 20
-249.7757
 42
0.1796046283
  0
VERTEX
  8
LAYER_1
 10
144.8972
 20
-249.063
 42
0.09851098502
  0
SEQEND
  0
ENDBLK
  0
BLOCK
  8
LAYER_1
  2
AIGNBL01040007
 70
64
 10
0
 20
0
 30
0
  3
AIGNBL01040007
  0
POLYLINE
  8
LAYER_1
 40
0.05
 41
0.05
 66
1
 10
0
 20
0
 30
0
 70
1
  0
VERTEX
  8
LAYER_1
 10
146.9815
 20
-246.5355
  0
VERTEX
  8
LAYER_1
 10
146.9815
 20
-248.7517
 42
0.1257910062
  0
VERTEX
  8
LAYER_1
 10
147.1475
 20
-249.4752
 42
0.2217269733
  0
VERTEX
  8
LAYER_1
 10
147.7914
 20
-249.9203
 42
0.04937688774
  0
VERTEX
  8
LAYER_1
 10
148.0716
 20
-249.9468
 42
0.1302851362
  0
VERTEX
  8
LAYER_1
 10
148.7372
 20
-249.787
 42
0.1509632316
  0
VERTEX
  8
LAYER_1
 10
149.0862
 20
-249.3957
 42
0.1174446198
  0
VERTEX
  8
LAYER_1
 10
149.2105
 20
-248.7517
  0
VERTEX
  8
LAYER_1
 10
149.2105
 20
-246.5355
  0
VERTEX
  8
LAYER_1
 10
149.8217
 20
-246.5355
  0
VERTEX
  8
LAYER_1
 10
149.8217
 20
-248.7187
 42
-0.1106784388
  0
VERTEX
  8
LAYER_1
 10
149.6531
 20
-249.5323
 42
-0.1857051526
  0
VERTEX
  8
LAYER_1
 10
148.9481
 20
-250.1807
 42
-0.09650175554
  0
VERTEX
  8
LAYER_1
 10
148.1451
 20
-250.3392
 42
-0.007939811217
  0
VERTEX
  8
LAYER_1
 10
148.0509
 20
-250.3406
 42
-0.102315967
  0
VERTEX
  8
LAYER_1
 10
147.1661
 20
-250.1733
 42
-0.1218859814
  0
VERTEX
  8
LAYER_1
 10
146.6722
 20
-249.7872
 42
-0.1186228201
  0
VERTEX
  8
LAYER_1
 10
146.4122
 20
-249.188
 42
-0.0498693672
  0
VERTEX
  8
LAYER_1
 10
146.3707
 20
-248.7404
  0
VERTEX
  8
LAYER_1
 10
146.3707
 20
-246.5355
  0
SEQEND
  0
ENDBLK
  0
BLOCK
  8
LAYER_1
  2
AIGNBL01040008
 70
64
 10
0
 20
0
 30
0
  3
AIGNBL01040008
  0
POLYLINE
  8
LAYER_1
 40
0.05
 41
0.05
 66
1
 10
0
 20
0
 30
0
 70
1
  0
VERTEX
  8
LAYER_1
 10
151.5573
 20
-249.1011
  0
VERTEX
  8
LAYER_1
 10
151.0709
 20
-250.2793
  0
VERTEX
  8
LAYER_1
 10
150.447
 20
-250.2793
  0
VERTEX
  8
LAYER_1
 10
152.0365
 20
-246.5355
  0
VERTEX
  8
LAYER_1
 10
152.7655
 20
-246.5355
  0
VERTEX
  8
LAYER_1
 10
154.3623
 20
-250.2793
  0
VERTEX
  8
LAYER_1
 10
153.7167
 20
-250.2793
  0
VERTEX
  8
LAYER_1
 10
153.2175
 20
-249.1011
  0
SEQEND
  0
POLYLINE
  8
LAYER_1
 40
0.05
 41
0.05
 66
1
 10
0
 20
0
 30
0
 70
1
  0
VERTEX
  8
LAYER_1
 10
153.0921
 20
-248.7245
  0
VERTEX
  8
LAYER_1
 10
152.6332
 20
-247.6459
 42
-0.02235179902
  0
VERTEX
  8
LAYER_1
 10
152.3897
 20
-246.963
  0
VERTEX
  8
LAYER_1
 10
152.3759
 20
-246.963
 42
-0.02046417189
  0
VERTEX
  8
LAYER_1
 10
152.1402
 20
-247.6414
  0
VERTEX
  8
LAYER_1
 10
151.682
 20
-248.7245
  0
SEQEND
  0
ENDBLK
  0
BLOCK
  8
LAYER_1
  2
AIGNBL01040009
 70
64
 10
0
 20
0
 30
0
  3
AIGNBL01040009
  0
POLYLINE
  8
LAYER_1
 40
0.05
 41
0.05
 66
1
 10
0
 20
0
 30
0
 70
1
  0
VERTEX
  8
LAYER_1
 10
155.3969
 20
-246.58
 42
-0.03349666815
  0
VERTEX
  8
LAYER_1
 10
156.5576
 20
-246.5072
 42
-0.09004353297
  0
VERTEX
  8
LAYER_1
 10
157.6057
 20
-246.6749
 42
-0.05888505928
  0
VERTEX
  8
LAYER_1
 10
157.8691
 20
-246.8184
 42
-0.2472492651
  0
VERTEX
  8
LAYER_1
 10
158.279
 20
-247.6018
 42
-0.1502534052
  0
VERTEX
  8
LAYER_1
 10
158.1063
 20
-248.1984
 42
-0.07033867127
  0
VERTEX
  8
LAYER_1
 10
157.9177
 20
-248.4014
 42
-0.1211283655
  0
VERTEX
  8
LAYER_1
 10
157.2351
 20
-248.728
 42
-0.06222086556
  0
VERTEX
  8
LAYER_1
 10
156.4872
 20
-248.8127
 42
-0.05750856268
  0
VERTEX
  8
LAYER_1
 10
156.0015
 20
-248.7793
  0
VERTEX
  8
LAYER_1
 10
156.0015
 20
-250.2793
  0
VERTEX
  8
LAYER_1
 10
155.3969
 20
-250.2793
  0
SEQEND
  0
POLYLINE
  8
LAYER_1
 40
0.05
 41
0.05
 66
1
 10
0
 20
0
 30
0
 70
1
  0
VERTEX
  8
LAYER_1
 10
156.0015
 20
-248.3852
 42
0.04897120882
  0
VERTEX
  8
LAYER_1
 10
156.501
 20
-248.4245
 42
0.1137012619
  0
VERTEX
  8
LAYER_1
 10
157.2816
 20
-248.2659
 42
0.1652714782
  0
VERTEX
  8
LAYER_1
 10
157.6173
 20
-247.9196
 42
0.1043893073
  0
VERTEX
  8
LAYER_1
 10
157.6751
 20
-247.6242
 42
0.2865639904
  0
VERTEX
  8
LAYER_1
 10
157.3169
 20
-247.0395
 42
0.06445412413
  0
VERTEX
  8
LAYER_1
 10
157.0376
 20
-246.9388
 42
0.05784391407
  0
VERTEX
  8
LAYER_1
 10
156.5713
 20
-246.891
 42
0.05268039105
  0
VERTEX
  8
LAYER_1
 10
156.0015
 20
-246.93
  0
SEQEND
  0
ENDBLK
  0
BLOCK
  8
LAYER_1
  2
AIGNBL0104000A
 70
64
 10
0
 20
0
 30
0
  3
AIGNBL0104000A
  0
POLYLINE
  8
LAYER_1
 40
0.05
 41
0.05
 66
1
 10
0
 20
0
 30
0
 70
1
  0
VERTEX
  8
LAYER_1
 10
159.8218
 20
-246.8352
 42
-0.3039545568
  0
VERTEX
  8
LAYER_1
 10
159.6562
 20
-247.0887
 42
-0.1152466046
  0
VERTEX
  8
LAYER_1
 10
159.4325
 20
-247.1356
 42
-0.2445179838
  0
VERTEX
  8
LAYER_1
 10
159.1045
 20
-246.9759
 42
-0.1392448976
  0
VERTEX
  8
LAYER_1
 10
159.0645
 20
-246.8352
 42
-0.2871964131
  0
VERTEX
  8
LAYER_1
 10
159.2352
 20
-246.5772
 42
-0.118108641
  0
VERTEX
  8
LAYER_1
 10
159.4459
 20
-246.53
 42
-0.2414655549
  0
VERTEX
  8
LAYER_1
 10
159.7788
 20
-246.6849
 42
-0.1427828857
  0
SEQEND
  0
POLYLINE
  8
LAYER_1
 40
0.05
 41
0.05
 66
1
 10
0
 20
0
 30
0
 70
1
  0
VERTEX
  8
LAYER_1
 10
159.1407
 20
-250.2793
  0
VERTEX
  8
LAYER_1
 10
159.1407
 20
-247.5907
  0
VERTEX
  8
LAYER_1
 10
159.7515
 20
-247.5907
  0
VERTEX
  8
LAYER_1
 10
159.7515
 20
-250.2793
  0
SEQEND
  0
ENDBLK
  0
BLOCK
  8
LAYER_1
  2
AIGNBL0104000B
 70
64
 10
0
 20
0
 30
0
  3
AIGNBL0104000B
  0
POLYLINE
  8
LAYER_1
 40
0.05
 41
0.05
 66
1
 10
0
 20
0
 30
0
 70
1
  0
VERTEX
  8
LAYER_1
 10
161.6118
 20
-249.1011
  0
VERTEX
  8
LAYER_1
 10
161.1271
 20
-250.2793
  0
VERTEX
  8
LAYER_1
 10
160.5015
 20
-250.2793
  0
VERTEX
  8
LAYER_1
 10
162.0918
 20
-246.5355
  0
VERTEX
  8
LAYER_1
 10
162.8211
 20
-246.5355
  0
VERTEX
  8
LAYER_1
 10
164.4186
 20
-250.2793
  0
VERTEX
  8
LAYER_1
 10
163.7719
 20
-250.2793
  0
VERTEX
  8
LAYER_1
 10
163.2727
 20
-249.1011
  0
SEQEND
  0
POLYLINE
  8
LAYER_1
 40
0.05
 41
0.05
 66
1
 10
0
 20
0
 30
0
 70
1
  0
VERTEX
  8
LAYER_1
 10
163.1473
 20
-248.7245
  0
VERTEX
  8
LAYER_1
 10
162.6891
 20
-247.6459
 42
-0.02473673698
  0
VERTEX
  8
LAYER_1
 10
162.4466
 20
-246.963
  0
VERTEX
  8
LAYER_1
 10
162.4321
 20
-246.963
 42
-0.01905982629
  0
VERTEX
  8
LAYER_1
 10
162.1961
 20
-247.6414
  0
VERTEX
  8
LAYER_1
 10
161.7379
 20
-248.7245
  0
SEQEND
  0
ENDBLK
  0
BLOCK
  8
LAYER_1
  2
AIGNBL01030004
 70
64
 10
0
 20
0
 30
0
  3
AIGNBL01030004
  0
INSERT
  8
LAYER_1
  2
AIGNBL01040005
 10
0
 20
0
 30
0
  0
INSERT
  8
LAYER_1
  2
AIGNBL01040006
 10
0
 20
0
 30
0
  0
INSERT
  8
LAYER_1
  2
AIGNBL01040007
 10
0
 20
0
 30
0
  0
INSERT
  8
LAYER_1
  2
AIGNBL01040008
 10
0
 20
0
 30
0
  0
INSERT
  8
LAYER_1
  2
AIGNBL01040009
 10
0
 20
0
 30
0
  0
INSERT
  8
LAYER_1
  2
AIGNBL0104000A
 10
0
 20
0
 30
0
  0
INSERT
  8
LAYER_1
  2
AIGNBL0104000B
 10
0
 20
0
 30
0
  0
ENDBLK
  0
BLOCK
  8
LAYER_1
  2
AIGNBL0103000D
 70
64
 10
0
 20
0
 30
0
  3
AIGNBL0103000D
  0
POLYLINE
  8
LAYER_1
 40
0.05
 41
0.05
 66
1
 10
0
 20
0
 30
0
 70
1
  0
VERTEX
  8
LAYER_1
 10
137.3756
 20
-252.1676
  0
VERTEX
  8
LAYER_1
 10
137.9258
 20
-252.1676
  0
VERTEX
  8
LAYER_1
 10
137.9258
 20
-252.2609
  0
VERTEX
  8
LAYER_1
 10
137.2715
 20
-252.2609
  0
VERTEX
  8
LAYER_1
 10
137.2715
 20
-251.2339
  0
VERTEX
  8
LAYER_1
 10
137.9082
 20
-251.2339
  0
VERTEX
  8
LAYER_1
 10
137.9082
 20
-251.3266
  0
VERTEX
  8
LAYER_1
 10
137.3756
 20
-251.3266
  0
VERTEX
  8
LAYER_1
 10
137.3756
 20
-251.6787
  0
VERTEX
  8
LAYER_1
 10
137.8734
 20
-251.6787
  0
VERTEX
  8
LAYER_1
 10
137.8734
 20
-251.7717
  0
VERTEX
  8
LAYER_1
 10
137.3756
 20
-251.7717
  0
SEQEND
  0
ENDBLK
  0
BLOCK
  8
LAYER_1
  2
AIGNBL0103000E
 70
64
 10
0
 20
0
 30
0
  3
AIGNBL0103000E
  0
POLYLINE
  8
LAYER_1
 40
0.05
 41
0.05
 66
1
 10
0
 20
0
 30
0
 70
1
  0
VERTEX
  8
LAYER_1
 10
139.0589
 20
-252.1079
  0
VERTEX
  8
LAYER_1
 10
139.0613
 20
-252.1079
  0
VERTEX
  8
LAYER_1
 10
139.0613
 20
-251.2339
  0
VERTEX
  8
LAYER_1
 10
139.1663
 20
-251.2339
  0
VERTEX
  8
LAYER_1
 10
139.1663
 20
-252.2609
  0
VERTEX
  8
LAYER_1
 10
139.0365
 20
-252.2609
  0
VERTEX
  8
LAYER_1
 10
138.4384
 20
-251.3772
  0
VERTEX
  8
LAYER_1
 10
138.435
 20
-251.3772
  0
VERTEX
  8
LAYER_1
 10
138.435
 20
-252.2609
  0
VERTEX
  8
LAYER_1
 10
138.3306
 20
-252.2609
  0
VERTEX
  8
LAYER_1
 10
138.3306
 20
-251.2339
  0
VERTEX
  8
LAYER_1
 10
138.4611
 20
-251.2339
  0
SEQEND
  0
ENDBLK
  0
BLOCK
  8
LAYER_1
  2
AIGNBL0103000F
 70
64
 10
0
 20
0
 30
0
  3
AIGNBL0103000F
  0
POLYLINE
  8
LAYER_1
 40
0.05
 41
0.05
 66
1
 10
0
 20
0
 30
0
 70
1
  0
VERTEX
  8
LAYER_1
 10
139.637
 20
-252.0501
 42
0.1590284934
  0
VERTEX
  8
LAYER_1
 10
139.691
 20
-252.1527
 42
0.1903970375
  0
VERTEX
  8
LAYER_1
 10
139.8034
 20
-252.1937
  0
VERTEX
  8
LAYER_1
 10
139.8922
 20
-252.1744
  0
VERTEX
  8
LAYER_1
 10
139.948
 20
-252.1214
  0
VERTEX
  8
LAYER_1
 10
139.9763
 20
-252.0453
  0
VERTEX
  8
LAYER_1
 10
139.9853
 20
-251.956
  0
VERTEX
  8
LAYER_1
 10
139.9853
 20
-251.2339
  0
VERTEX
  8
LAYER_1
 10
140.0893
 20
-251.2339
  0
VERTEX
  8
LAYER_1
 10
140.0893
 20
-251.965
  0
VERTEX
  8
LAYER_1
 10
140.0783
 20
-252.0718
 42
-0.08830433873
  0
VERTEX
  8
LAYER_1
 10
140.0369
 20
-252.1765
 42
-0.1153589887
  0
VERTEX
  8
LAYER_1
 10
139.9529
 20
-252.2554
 42
-0.1266166698
  0
VERTEX
  8
LAYER_1
 10
139.8147
 20
-252.2868
 42
-0.1823786802
  0
VERTEX
  8
LAYER_1
 10
139.6311
 20
-252.2268
 42
-0.1773090787
  0
VERTEX
  8
LAYER_1
 10
139.5391
 20
-252.0769
  0
SEQEND
  0
ENDBLK
  0
BLOCK
  8
LAYER_1
  2
AIGNBL01030010
 70
64
 10
0
 20
0
 30
0
  3
AIGNBL01030010
  0
POLYLINE
  8
LAYER_1
 40
0.05
 41
0.05
 66
1
 10
0
 20
0
 30
0
 70
1
  0
VERTEX
  8
LAYER_1
 10
141.5693
 20
-251.7469
 42
-0.1023745756
  0
VERTEX
  8
LAYER_1
 10
141.5279
 20
-251.9629
 42
-0.1012381663
  0
VERTEX
  8
LAYER_1
 10
141.4163
 20
-252.1338
 42
-0.09607034471
  0
VERTEX
  8
LAYER_1
 10
141.2458
 20
-252.2461
 42
-0.09758991962
  0
VERTEX
  8
LAYER_1
 10
141.0332
 20
-252.2868
 42
-0.09910038025
  0
VERTEX
  8
LAYER_1
 10
140.8207
 20
-252.2461
 42
-0.09835332354
  0
VERTEX
  8
LAYER_1
 10
140.6512
 20
-252.1338
 42
-0.09652080474
  0
VERTEX
  8
LAYER_1
 10
140.5389
 20
-251.9629
 42
-0.09814472372
  0
VERTEX
  8
LAYER_1
 10
140.4986
 20
-251.7469
 42
-0.1026891031
  0
VERTEX
  8
LAYER_1
 10
140.5389
 20
-251.5306
 42
-0.09919197624
  0
VERTEX
  8
LAYER_1
 10
140.6512
 20
-251.3604
 42
-0.09851015914
  0
VERTEX
  8
LAYER_1
 10
140.8207
 20
-251.2481
 42
-0.0978389277
  0
VERTEX
  8
LAYER_1
 10
141.0332
 20
-251.2071
 42
-0.1012755921
  0
VERTEX
  8
LAYER_1
 10
141.2458
 20
-251.2481
 42
-0.101055447
  0
VERTEX
  8
LAYER_1
 10
141.4163
 20
-251.3604
 42
-0.100284748
  0
VERTEX
  8
LAYER_1
 10
141.5279
 20
-251.5306
 42
-0.09841189494
  0
SEQEND
  0
POLYLINE
  8
LAYER_1
 40
0.05
 41
0.05
 66
1
 10
0
 20
0
 30
0
 70
1
  0
VERTEX
  8
LAYER_1
 10
141.4584
 20
-251.7476
 42
0.08348185165
  0
VERTEX
  8
LAYER_1
 10
141.4301
 20
-251.5767
 42
0.09888736064
  0
VERTEX
  8
LAYER_1
 10
141.3454
 20
-251.4344
 42
0.1046117232
  0
VERTEX
  8
LAYER_1
 10
141.211
 20
-251.337
 42
0.1084373712
  0
VERTEX
  8
LAYER_1
 10
141.0332
 20
-251.3001
 42
0.1126508353
  0
VERTEX
  8
LAYER_1
 10
140.8558
 20
-251.337
 42
0.1080671084
  0
VERTEX
  8
LAYER_1
 10
140.7225
 20
-251.4344
 42
0.09765540905
  0
VERTEX
  8
LAYER_1
 10
140.6374
 20
-251.5767
 42
0.08446298011
  0
VERTEX
  8
LAYER_1
 10
140.6081
 20
-251.7476
 42
0.08257781466
  0
VERTEX
  8
LAYER_1
 10
140.6374
 20
-251.9188
 42
0.1022479965
  0
VERTEX
  8
LAYER_1
 10
140.7225
 20
-252.0607
 42
0.1007994813
  0
VERTEX
  8
LAYER_1
 10
140.8558
 20
-252.1575
 42
0.1058339915
  0
VERTEX
  8
LAYER_1
 10
141.0332
 20
-252.1937
 42
0.1146720599
  0
VERTEX
  8
LAYER_1
 10
141.211
 20
-252.1575
 42
0.1074750371
  0
VERTEX
  8
LAYER_1
 10
141.3454
 20
-252.0607
 42
0.0957445035
  0
VERTEX
  8
LAYER_1
 10
141.4301
 20
-251.9188
 42
0.08253202369
  0
SEQEND
  0
ENDBLK
  0
BLOCK
  8
LAYER_1
  2
AIGNBL01030011
 70
64
 10
0
 20
0
 30
0
  3
AIGNBL01030011
  0
POLYLINE
  8
LAYER_1
 40
0.05
 41
0.05
 66
1
 10
0
 20
0
 30
0
 70
1
  0
VERTEX
  8
LAYER_1
 10
142.3393
 20
-252.2609
  0
VERTEX
  8
LAYER_1
 10
142.2349
 20
-252.2609
  0
VERTEX
  8
LAYER_1
 10
142.2349
 20
-251.8182
  0
VERTEX
  8
LAYER_1
 10
141.8504
 20
-251.2339
  0
VERTEX
  8
LAYER_1
 10
141.9813
 20
-251.2339
  0
VERTEX
  8
LAYER_1
 10
142.2904
 20
-251.7311
  0
VERTEX
  8
LAYER_1
 10
142.6022
 20
-251.2339
  0
VERTEX
  8
LAYER_1
 10
142.7234
 20
-251.2339
  0
VERTEX
  8
LAYER_1
 10
142.3393
 20
-251.8182
  0
SEQEND
  0
ENDBLK
  0
BLOCK
  8
LAYER_1
  2
AIGNBL01030012
 70
64
 10
0
 20
0
 30
0
  3
AIGNBL01030012
  0
POLYLINE
  8
LAYER_1
 40
0.05
 41
0.05
 66
1
 10
0
 20
0
 30
0
 70
1
  0
VERTEX
  8
LAYER_1
 10
143.6236
 20
-251.2339
  0
VERTEX
  8
LAYER_1
 10
143.9288
 20
-251.2339
  0
VERTEX
  8
LAYER_1
 10
144.047
 20
-251.2457
  0
VERTEX
  8
LAYER_1
 10
144.1528
 20
-251.288
 42
-0.1142786728
  0
VERTEX
  8
LAYER_1
 10
144.2307
 20
-251.3686
 42
-0.1221660448
  0
VERTEX
  8
LAYER_1
 10
144.2603
 20
-251.4961
 42
-0.1789908253
  0
VERTEX
  8
LAYER_1
 10
144.2103
 20
-251.6373
 42
-0.1682964985
  0
VERTEX
  8
LAYER_1
 10
144.078
 20
-251.7166
  0
VERTEX
  8
LAYER_1
 10
144.078
 20
-251.7194
 42
-0.1720252291
  0
VERTEX
  8
LAYER_1
 10
144.2434
 20
-251.7969
 42
-0.2011476059
  0
VERTEX
  8
LAYER_1
 10
144.3099
 20
-251.9764
 42
-0.1263581039
  0
VERTEX
  8
LAYER_1
 10
144.2823
 20
-252.0928
 42
-0.1151202894
  0
VERTEX
  8
LAYER_1
 10
144.2062
 20
-252.1831
 42
-0.08559391469
  0
VERTEX
  8
LAYER_1
 10
144.0866
 20
-252.2402
 42
-0.06581098886
  0
VERTEX
  8
LAYER_1
 10
143.9275
 20
-252.2609
  0
VERTEX
  8
LAYER_1
 10
143.6236
 20
-252.2609
  0
SEQEND
  0
POLYLINE
  8
LAYER_1
 40
0.05
 41
0.05
 66
1
 10
0
 20
0
 30
0
 70
1
  0
VERTEX
  8
LAYER_1
 10
143.7277
 20
-251.6832
  0
VERTEX
  8
LAYER_1
 10
143.9382
 20
-251.6832
  0
VERTEX
  8
LAYER_1
 10
144.0146
 20
-251.6742
  0
VERTEX
  8
LAYER_1
 10
144.0842
 20
-251.6453
  0
VERTEX
  8
LAYER_1
 10
144.1362
 20
-251.5888
 42
0.1124449043
  0
VERTEX
  8
LAYER_1
 10
144.1552
 20
-251.5034
  0
VERTEX
  8
LAYER_1
 10
144.1362
 20
-251.4203
  0
VERTEX
  8
LAYER_1
 10
144.0835
 20
-251.3638
  0
VERTEX
  8
LAYER_1
 10
144.005
 20
-251.3328
  0
VERTEX
  8
LAYER_1
 10
143.9089
 20
-251.3235
  0
VERTEX
  8
LAYER_1
 10
143.7277
 20
-251.3235
  0
SEQEND
  0
POLYLINE
  8
LAYER_1
 40
0.05
 41
0.05
 66
1
 10
0
 20
0
 30
0
 70
1
  0
VERTEX
  8
LAYER_1
 10
143.7277
 20
-252.171
  0
VERTEX
  8
LAYER_1
 10
143.9223
 20
-252.171
  0
VERTEX
  8
LAYER_1
 10
144.0301
 20
-252.1596
  0
VERTEX
  8
LAYER_1
 10
144.1204
 20
-252.1252
  0
VERTEX
  8
LAYER_1
 10
144.181
 20
-252.0625
 42
0.1349508047
  0
VERTEX
  8
LAYER_1
 10
144.2048
 20
-251.9705
 42
0.2483168689
  0
VERTEX
  8
LAYER_1
 10
144.1362
 20
-251.8189
 42
0.1537491355
  0
VERTEX
  8
LAYER_1
 10
143.9413
 20
-251.7686
  0
VERTEX
  8
LAYER_1
 10
143.7277
 20
-251.7686
  0
SEQEND
  0
ENDBLK
  0
BLOCK
  8
LAYER_1
  2
AIGNBL01030013
 70
64
 10
0
 20
0
 30
0
  3
AIGNBL01030013
  0
POLYLINE
  8
LAYER_1
 40
0.05
 41
0.05
 66
1
 10
0
 20
0
 30
0
 70
1
  0
VERTEX
  8
LAYER_1
 10
144.7388
 20
-252.2609
  0
VERTEX
  8
LAYER_1
 10
144.6241
 20
-252.2609
  0
VERTEX
  8
LAYER_1
 10
145.0685
 20
-251.2339
  0
VERTEX
  8
LAYER_1
 10
145.1705
 20
-251.2339
  0
VERTEX
  8
LAYER_1
 10
145.6111
 20
-252.2609
  0
VERTEX
  8
LAYER_1
 10
145.4943
 20
-252.2609
  0
VERTEX
  8
LAYER_1
 10
145.3813
 20
-251.9912
  0
VERTEX
  8
LAYER_1
 10
144.8504
 20
-251.9912
  0
SEQEND
  0
POLYLINE
  8
LAYER_1
 40
0.05
 41
0.05
 66
1
 10
0
 20
0
 30
0
 70
1
  0
VERTEX
  8
LAYER_1
 10
144.8894
 20
-251.8947
  0
VERTEX
  8
LAYER_1
 10
145.3424
 20
-251.8947
  0
VERTEX
  8
LAYER_1
 10
145.1164
 20
-251.3493
  0
SEQEND
  0
ENDBLK
  0
BLOCK
  8
LAYER_1
  2
AIGNBL01030014
 70
64
 10
0
 20
0
 30
0
  3
AIGNBL01030014
  0
POLYLINE
  8
LAYER_1
 40
0.05
 41
0.05
 66
1
 10
0
 20
0
 30
0
 70
1
  0
VERTEX
  8
LAYER_1
 10
146.2915
 20
-252.2609
  0
VERTEX
  8
LAYER_1
 10
146.1871
 20
-252.2609
  0
VERTEX
  8
LAYER_1
 10
146.1871
 20
-251.3266
  0
VERTEX
  8
LAYER_1
 10
145.8426
 20
-251.3266
  0
VERTEX
  8
LAYER_1
 10
145.8426
 20
-251.2339
  0
VERTEX
  8
LAYER_1
 10
146.635
 20
-251.2339
  0
VERTEX
  8
LAYER_1
 10
146.635
 20
-251.3266
  0
VERTEX
  8
LAYER_1
 10
146.2915
 20
-251.3266
  0
SEQEND
  0
ENDBLK
  0
BLOCK
  8
LAYER_1
  2
AIGNBL01030015
 70
64
 10
0
 20
0
 30
0
  3
AIGNBL01030015
  0
POLYLINE
  8
LAYER_1
 40
0.05
 41
0.05
 66
1
 10
0
 20
0
 30
0
 70
1
  0
VERTEX
  8
LAYER_1
 10
146.9888
 20
-251.2339
  0
VERTEX
  8
LAYER_1
 10
147.0932
 20
-251.2339
  0
VERTEX
  8
LAYER_1
 10
147.0932
 20
-251.6787
  0
VERTEX
  8
LAYER_1
 10
147.654
 20
-251.6787
  0
VERTEX
  8
LAYER_1
 10
147.654
 20
-251.2339
  0
VERTEX
  8
LAYER_1
 10
147.7581
 20
-251.2339
  0
VERTEX
  8
LAYER_1
 10
147.7581
 20
-252.2609
  0
VERTEX
  8
LAYER_1
 10
147.654
 20
-252.2609
  0
VERTEX
  8
LAYER_1
 10
147.654
 20
-251.7745
  0
VERTEX
  8
LAYER_1
 10
147.0932
 20
-251.7745
  0
VERTEX
  8
LAYER_1
 10
147.0932
 20
-252.2609
  0
VERTEX
  8
LAYER_1
 10
146.9888
 20
-252.2609
  0
SEQEND
  0
ENDBLK
  0
BLOCK
  8
LAYER_1
  2
AIGNBL01030016
 70
64
 10
0
 20
0
 30
0
  3
AIGNBL01030016
  0
POLYLINE
  8
LAYER_1
 40
0.05
 41
0.05
 66
1
 10
0
 20
0
 30
0
 70
1
  0
VERTEX
  8
LAYER_1
 10
148.3351
 20
-252.2609
  0
VERTEX
  8
LAYER_1
 10
148.2311
 20
-252.2609
  0
VERTEX
  8
LAYER_1
 10
148.2311
 20
-251.2339
  0
VERTEX
  8
LAYER_1
 10
148.5322
 20
-251.2339
  0
VERTEX
  8
LAYER_1
 10
148.6724
 20
-251.2481
 42
-0.1023663758
  0
VERTEX
  8
LAYER_1
 10
148.7844
 20
-251.2953
 42
-0.1332028562
  0
VERTEX
  8
LAYER_1
 10
148.8571
 20
-251.38
 42
-0.109414644
  0
VERTEX
  8
LAYER_1
 10
148.8829
 20
-251.5078
  0
VERTEX
  8
LAYER_1
 10
148.8636
 20
-251.6108
  0
VERTEX
  8
LAYER_1
 10
148.8088
 20
-251.6911
  0
VERTEX
  8
LAYER_1
 10
148.7258
 20
-251.7459
  0
VERTEX
  8
LAYER_1
 10
148.6214
 20
-251.7717
  0
VERTEX
  8
LAYER_1
 10
148.9211
 20
-252.2609
  0
VERTEX
  8
LAYER_1
 10
148.7937
 20
-252.2609
  0
VERTEX
  8
LAYER_1
 10
148.5098
 20
-251.7807
  0
VERTEX
  8
LAYER_1
 10
148.3351
 20
-251.7807
  0
SEQEND
  0
POLYLINE
  8
LAYER_1
 40
0.05
 41
0.05
 66
1
 10
0
 20
0
 30
0
 70
1
  0
VERTEX
  8
LAYER_1
 10
148.3351
 20
-251.6904
  0
VERTEX
  8
LAYER_1
 10
148.517
 20
-251.6904
 42
0.1513063474
  0
VERTEX
  8
LAYER_1
 10
148.711
 20
-251.6453
 42
0.2568804362
  0
VERTEX
  8
LAYER_1
 10
148.7799
 20
-251.5078
  0
VERTEX
  8
LAYER_1
 10
148.7602
 20
-251.4224
 42
0.1232056022
  0
VERTEX
  8
LAYER_1
 10
148.7079
 20
-251.3652
  0
VERTEX
  8
LAYER_1
 10
148.6269
 20
-251.3338
  0
VERTEX
  8
LAYER_1
 10
148.5212
 20
-251.3235
  0
VERTEX
  8
LAYER_1
 10
148.3351
 20
-251.3235
  0
SEQEND
  0
ENDBLK
  0
BLOCK
  8
LAYER_1
  2
AIGNBL01030017
 70
64
 10
0
 20
0
 30
0
  3
AIGNBL01030017
  0
POLYLINE
  8
LAYER_1
 40
0.05
 41
0.05
 66
1
 10
0
 20
0
 30
0
 70
1
  0
VERTEX
  8
LAYER_1
 10
150.3154
 20
-251.7469
 42
-0.09975403421
  0
VERTEX
  8
LAYER_1
 10
150.2747
 20
-251.9629
 42
-0.09935173186
  0
VERTEX
  8
LAYER_1
 10
150.1624
 20
-252.1338
 42
-0.09811740303
  0
VERTEX
  8
LAYER_1
 10
149.9926
 20
-252.2461
 42
-0.09708882113
  0
VERTEX
  8
LAYER_1
 10
149.78
 20
-252.2868
 42
-0.09940093633
  0
VERTEX
  8
LAYER_1
 10
149.5674
 20
-252.2461
 42
-0.1007896559
  0
VERTEX
  8
LAYER_1
 10
149.3979
 20
-252.1338
 42
-0.09768152712
  0
VERTEX
  8
LAYER_1
 10
149.2856
 20
-251.9629
 42
-0.09531839447
  0
VERTEX
  8
LAYER_1
 10
149.2453
 20
-251.7469
 42
-0.09746952437
  0
VERTEX
  8
LAYER_1
 10
149.2856
 20
-251.5306
 42
-0.09925134223
  0
VERTEX
  8
LAYER_1
 10
149.3979
 20
-251.3604
 42
-0.1005970746
  0
VERTEX
  8
LAYER_1
 10
149.5674
 20
-251.2481
 42
-0.09815409965
  0
VERTEX
  8
LAYER_1
 10
149.78
 20
-251.2071
 42
-0.1003559568
  0
VERTEX
  8
LAYER_1
 10
149.9926
 20
-251.2481
 42
-0.1030391221
  0
VERTEX
  8
LAYER_1
 10
150.1624
 20
-251.3604
 42
-0.09760938344
  0
VERTEX
  8
LAYER_1
 10
150.2747
 20
-251.5306
 42
-0.09618621792
  0
SEQEND
  0
POLYLINE
  8
LAYER_1
 40
0.05
 41
0.05
 66
1
 10
0
 20
0
 30
0
 70
1
  0
VERTEX
  8
LAYER_1
 10
150.2051
 20
-251.7476
 42
0.08928566433
  0
VERTEX
  8
LAYER_1
 10
150.1762
 20
-251.5767
 42
0.0967309921
  0
VERTEX
  8
LAYER_1
 10
150.0921
 20
-251.4344
 42
0.1033640041
  0
VERTEX
  8
LAYER_1
 10
149.9581
 20
-251.337
 42
0.1075765453
  0
VERTEX
  8
LAYER_1
 10
149.78
 20
-251.3001
 42
0.1148421003
  0
VERTEX
  8
LAYER_1
 10
149.6026
 20
-251.337
 42
0.106797523
  0
VERTEX
  8
LAYER_1
 10
149.4682
 20
-251.4344
 42
0.09375888087
  0
VERTEX
  8
LAYER_1
 10
149.3842
 20
-251.5767
 42
0.08542444587
  0
VERTEX
  8
LAYER_1
 10
149.3549
 20
-251.7476
 42
0.08738527021
  0
VERTEX
  8
LAYER_1
 10
149.3842
 20
-251.9188
 42
0.09670329037
  0
VERTEX
  8
LAYER_1
 10
149.4682
 20
-252.0607
 42
0.09891153362
  0
VERTEX
  8
LAYER_1
 10
149.6026
 20
-252.1575
 42
0.1067011915
  0
VERTEX
  8
LAYER_1
 10
149.78
 20
-252.1937
 42
0.1133540876
  0
VERTEX
  8
LAYER_1
 10
149.9581
 20
-252.1575
 42
0.1038012544
  0
VERTEX
  8
LAYER_1
 10
150.0921
 20
-252.0607
 42
0.09726416843
  0
VERTEX
  8
LAYER_1
 10
150.1762
 20
-251.9188
 42
0.0854375021
  0
SEQEND
  0
ENDBLK
  0
BLOCK
  8
LAYER_1
  2
AIGNBL01030018
 70
64
 10
0
 20
0
 30
0
  3
AIGNBL01030018
  0
POLYLINE
  8
LAYER_1
 40
0.05
 41
0.05
 66
1
 10
0
 20
0
 30
0
 70
1
  0
VERTEX
  8
LAYER_1
 10
151.7489
 20
-251.7469
 42
-0.09970583877
  0
VERTEX
  8
LAYER_1
 10
151.7086
 20
-251.9629
 42
-0.0976989983
  0
VERTEX
  8
LAYER_1
 10
151.5963
 20
-252.1338
 42
-0.09521451671
  0
VERTEX
  8
LAYER_1
 10
151.4264
 20
-252.2461
 42
-0.09711421911
  0
VERTEX
  8
LAYER_1
 10
151.2139
 20
-252.2868
 42
-0.1003065361
  0
VERTEX
  8
LAYER_1
 10
151.0013
 20
-252.2461
 42
-0.1012502646
  0
VERTEX
  8
LAYER_1
 10
150.8318
 20
-252.1338
 42
-0.09902147312
  0
VERTEX
  8
LAYER_1
 10
150.7188
 20
-251.9629
 42
-0.09657946775
  0
VERTEX
  8
LAYER_1
 10
150.6781
 20
-251.7469
 42
-0.09892706014
  0
VERTEX
  8
LAYER_1
 10
150.7188
 20
-251.5306
 42
-0.1025433378
  0
VERTEX
  8
LAYER_1
 10
150.8318
 20
-251.3604
 42
-0.1009513296
  0
VERTEX
  8
LAYER_1
 10
151.0013
 20
-251.2481
 42
-0.09841178888
  0
VERTEX
  8
LAYER_1
 10
151.2139
 20
-251.2071
 42
-0.1004512574
  0
VERTEX
  8
LAYER_1
 10
151.4264
 20
-251.2481
 42
-0.09871557407
  0
VERTEX
  8
LAYER_1
 10
151.5963
 20
-251.3604
 42
-0.09679690961
  0
VERTEX
  8
LAYER_1
 10
151.7086
 20
-251.5306
 42
-0.09571421233
  0
SEQEND
  0
POLYLINE
  8
LAYER_1
 40
0.05
 41
0.05
 66
1
 10
0
 20
0
 30
0
 70
1
  0
VERTEX
  8
LAYER_1
 10
151.639
 20
-251.7476
 42
0.08698818876
  0
VERTEX
  8
LAYER_1
 10
151.61
 20
-251.5767
 42
0.0956708921
  0
VERTEX
  8
LAYER_1
 10
151.526
 20
-251.4344
 42
0.1033803157
  0
VERTEX
  8
LAYER_1
 10
151.3916
 20
-251.337
 42
0.1075718589
  0
VERTEX
  8
LAYER_1
 10
151.2139
 20
-251.3001
 42
0.1154259577
  0
VERTEX
  8
LAYER_1
 10
151.0361
 20
-251.337
 42
0.1064173637
  0
VERTEX
  8
LAYER_1
 10
150.9017
 20
-251.4344
 42
0.1028942614
  0
VERTEX
  8
LAYER_1
 10
150.818
 20
-251.5767
 42
0.08542444587
  0
VERTEX
  8
LAYER_1
 10
150.7887
 20
-251.7476
 42
0.08738527021
  0
VERTEX
  8
LAYER_1
 10
150.818
 20
-251.9188
 42
0.1032562832
  0
VERTEX
  8
LAYER_1
 10
150.9017
 20
-252.0607
 42
0.1008165521
  0
VERTEX
  8
LAYER_1
 10
151.0361
 20
-252.1575
 42
0.1069398409
  0
VERTEX
  8
LAYER_1
 10
151.2139
 20
-252.1937
 42
0.1127969838
  0
VERTEX
  8
LAYER_1
 10
151.3916
 20
-252.1575
 42
0.1024372123
  0
VERTEX
  8
LAYER_1
 10
151.526
 20
-252.0607
 42
0.09088614582
  0
VERTEX
  8
LAYER_1
 10
151.61
 20
-251.9188
 42
0.08498619229
  0
SEQEND
  0
ENDBLK
  0
BLOCK
  8
LAYER_1
  2
AIGNBL01030019
 70
64
 10
0
 20
0
 30
0
  3
AIGNBL01030019
  0
POLYLINE
  8
LAYER_1
 40
0.05
 41
0.05
 66
1
 10
0
 20
0
 30
0
 70
1
  0
VERTEX
  8
LAYER_1
 10
152.6742
 20
-252.0839
  0
VERTEX
  8
LAYER_1
 10
152.6756
 20
-252.0839
  0
VERTEX
  8
LAYER_1
 10
153.0194
 20
-251.2339
  0
VERTEX
  8
LAYER_1
 10
153.1793
 20
-251.2339
  0
VERTEX
  8
LAYER_1
 10
153.1793
 20
-252.2609
  0
VERTEX
  8
LAYER_1
 10
153.0749
 20
-252.2609
  0
VERTEX
  8
LAYER_1
 10
153.0749
 20
-251.3686
  0
VERTEX
  8
LAYER_1
 10
153.0718
 20
-251.3686
  0
VERTEX
  8
LAYER_1
 10
152.7007
 20
-252.2609
  0
VERTEX
  8
LAYER_1
 10
152.646
 20
-252.2609
  0
VERTEX
  8
LAYER_1
 10
152.2743
 20
-251.3686
  0
VERTEX
  8
LAYER_1
 10
152.2708
 20
-251.3686
  0
VERTEX
  8
LAYER_1
 10
152.2708
 20
-252.2609
  0
VERTEX
  8
LAYER_1
 10
152.1668
 20
-252.2609
  0
VERTEX
  8
LAYER_1
 10
152.1668
 20
-251.2339
  0
VERTEX
  8
LAYER_1
 10
152.327
 20
-251.2339
  0
SEQEND
  0
ENDBLK
  0
BLOCK
  8
LAYER_1
  2
AIGNBL0103001A
 70
64
 10
0
 20
0
 30
0
  3
AIGNBL0103001A
  0
POLYLINE
  8
LAYER_1
 40
0.05
 41
0.05
 66
1
 10
0
 20
0
 30
0
 70
1
  0
VERTEX
  8
LAYER_1
 10
154.3196
 20
-252.1676
  0
VERTEX
  8
LAYER_1
 10
154.8694
 20
-252.1676
  0
VERTEX
  8
LAYER_1
 10
154.8694
 20
-252.2609
  0
VERTEX
  8
LAYER_1
 10
154.2145
 20
-252.2609
  0
VERTEX
  8
LAYER_1
 10
154.2145
 20
-251.2339
  0
VERTEX
  8
LAYER_1
 10
154.8522
 20
-251.2339
  0
VERTEX
  8
LAYER_1
 10
154.8522
 20
-251.3263
  0
VERTEX
  8
LAYER_1
 10
154.3196
 20
-251.3263
  0
VERTEX
  8
LAYER_1
 10
154.3196
 20
-251.6787
  0
VERTEX
  8
LAYER_1
 10
154.8167
 20
-251.6787
  0
VERTEX
  8
LAYER_1
 10
154.8167
 20
-251.7717
  0
VERTEX
  8
LAYER_1
 10
154.3196
 20
-251.7717
  0
SEQEND
  0
ENDBLK
  0
BLOCK
  8
LAYER_1
  2
AIGNBL0103001B
 70
64
 10
0
 20
0
 30
0
  3
AIGNBL0103001B
  0
POLYLINE
  8
LAYER_1
 40
0.05
 41
0.05
 66
1
 10
0
 20
0
 30
0
 70
1
  0
VERTEX
  8
LAYER_1
 10
155.6101
 20
-251.6484
  0
VERTEX
  8
LAYER_1
 10
155.8906
 20
-251.2339
  0
VERTEX
  8
LAYER_1
 10
156.0153
 20
-251.2339
  0
VERTEX
  8
LAYER_1
 10
155.6749
 20
-251.7221
  0
VERTEX
  8
LAYER_1
 10
156.0518
 20
-252.2609
  0
VERTEX
  8
LAYER_1
 10
155.9216
 20
-252.2609
  0
VERTEX
  8
LAYER_1
 10
155.6081
 20
-251.7979
  0
VERTEX
  8
LAYER_1
 10
155.296
 20
-252.2609
  0
VERTEX
  8
LAYER_1
 10
155.165
 20
-252.2609
  0
VERTEX
  8
LAYER_1
 10
155.5426
 20
-251.7211
  0
VERTEX
  8
LAYER_1
 10
155.1988
 20
-251.2339
  0
VERTEX
  8
LAYER_1
 10
155.329
 20
-251.2339
  0
SEQEND
  0
ENDBLK
  0
BLOCK
  8
LAYER_1
  2
AIGNBL0103001C
 70
64
 10
0
 20
0
 30
0
  3
AIGNBL0103001C
  0
POLYLINE
  8
LAYER_1
 40
0.05
 41
0.05
 66
1
 10
0
 20
0
 30
0
 70
1
  0
VERTEX
  8
LAYER_1
 10
156.4159
 20
-251.2339
  0
VERTEX
  8
LAYER_1
 10
156.706
 20
-251.2339
  0
VERTEX
  8
LAYER_1
 10
156.8487
 20
-251.2498
 42
-0.110657953
  0
VERTEX
  8
LAYER_1
 10
156.9575
 20
-251.3015
 42
-0.1163763428
  0
VERTEX
  8
LAYER_1
 10
157.0288
 20
-251.3866
 42
-0.1004779162
  0
VERTEX
  8
LAYER_1
 10
157.053
 20
-251.5078
 42
-0.1135751127
  0
VERTEX
  8
LAYER_1
 10
157.0281
 20
-251.6291
 42
-0.1113908719
  0
VERTEX
  8
LAYER_1
 10
156.9568
 20
-251.7145
 42
-0.08575538996
  0
VERTEX
  8
LAYER_1
 10
156.8459
 20
-251.7659
 42
-0.06072195454
  0
VERTEX
  8
LAYER_1
 10
156.7032
 20
-251.7831
  0
VERTEX
  8
LAYER_1
 10
156.5203
 20
-251.7831
  0
VERTEX
  8
LAYER_1
 10
156.5203
 20
-252.2609
  0
VERTEX
  8
LAYER_1
 10
156.4159
 20
-252.2609
  0
SEQEND
  0
POLYLINE
  8
LAYER_1
 40
0.05
 41
0.05
 66
1
 10
0
 20
0
 30
0
 70
1
  0
VERTEX
  8
LAYER_1
 10
156.5203
 20
-251.6949
  0
VERTEX
  8
LAYER_1
 10
156.6974
 20
-251.6949
 42
0.1668395642
  0
VERTEX
  8
LAYER_1
 10
156.8848
 20
-251.6474
 42
0.2433158568
  0
VERTEX
  8
LAYER_1
 10
156.9489
 20
-251.5078
 42
0.2579107644
  0
VERTEX
  8
LAYER_1
 10
156.8824
 20
-251.3676
 42
0.1431777658
  0
VERTEX
  8
LAYER_1
 10
156.6974
 20
-251.3235
  0
VERTEX
  8
LAYER_1
 10
156.5203
 20
-251.3235
  0
SEQEND
  0
ENDBLK
  0
BLOCK
  8
LAYER_1
  2
AIGNBL0103001D
 70
64
 10
0
 20
0
 30
0
  3
AIGNBL0103001D
  0
POLYLINE
  8
LAYER_1
 40
0.05
 41
0.05
 66
1
 10
0
 20
0
 30
0
 70
1
  0
VERTEX
  8
LAYER_1
 10
157.5621
 20
-252.1676
  0
VERTEX
  8
LAYER_1
 10
158.1116
 20
-252.1676
  0
VERTEX
  8
LAYER_1
 10
158.1116
 20
-252.2609
  0
VERTEX
  8
LAYER_1
 10
157.4577
 20
-252.2609
  0
VERTEX
  8
LAYER_1
 10
157.4577
 20
-251.2339
  0
VERTEX
  8
LAYER_1
 10
158.0947
 20
-251.2339
  0
VERTEX
  8
LAYER_1
 10
158.0947
 20
-251.3263
  0
VERTEX
  8
LAYER_1
 10
157.5621
 20
-251.3263
  0
VERTEX
  8
LAYER_1
 10
157.5621
 20
-251.6787
  0
VERTEX
  8
LAYER_1
 10
158.0599
 20
-251.6787
  0
VERTEX
  8
LAYER_1
 10
158.0599
 20
-251.7717
  0
VERTEX
  8
LAYER_1
 10
157.5621
 20
-251.7717
  0
SEQEND
  0
ENDBLK
  0
BLOCK
  8
LAYER_1
  2
AIGNBL0103001E
 70
64
 10
0
 20
0
 30
0
  3
AIGNBL0103001E
  0
POLYLINE
  8
LAYER_1
 40
0.05
 41
0.05
 66
1
 10
0
 20
0
 30
0
 70
1
  0
VERTEX
  8
LAYER_1
 10
158.6208
 20
-252.2609
  0
VERTEX
  8
LAYER_1
 10
158.5168
 20
-252.2609
  0
VERTEX
  8
LAYER_1
 10
158.5168
 20
-251.2339
  0
VERTEX
  8
LAYER_1
 10
158.8185
 20
-251.2339
  0
VERTEX
  8
LAYER_1
 10
158.9584
 20
-251.2481
 42
-0.1005953548
  0
VERTEX
  8
LAYER_1
 10
159.07
 20
-251.2953
 42
-0.1225647981
  0
VERTEX
  8
LAYER_1
 10
159.1438
 20
-251.38
 42
-0.1056037953
  0
VERTEX
  8
LAYER_1
 10
159.1696
 20
-251.5078
 42
-0.113550017
  0
VERTEX
  8
LAYER_1
 10
159.1493
 20
-251.6105
  0
VERTEX
  8
LAYER_1
 10
159.0945
 20
-251.6915
  0
VERTEX
  8
LAYER_1
 10
159.0111
 20
-251.7459
  0
VERTEX
  8
LAYER_1
 10
158.9067
 20
-251.7717
  0
VERTEX
  8
LAYER_1
 10
159.2075
 20
-252.2609
  0
VERTEX
  8
LAYER_1
 10
159.08
 20
-252.2609
  0
VERTEX
  8
LAYER_1
 10
158.7955
 20
-251.7803
  0
VERTEX
  8
LAYER_1
 10
158.6208
 20
-251.7803
  0
SEQEND
  0
POLYLINE
  8
LAYER_1
 40
0.05
 41
0.05
 66
1
 10
0
 20
0
 30
0
 70
1
  0
VERTEX
  8
LAYER_1
 10
158.6208
 20
-251.69
  0
VERTEX
  8
LAYER_1
 10
158.8027
 20
-251.69
 42
0.1507170359
  0
VERTEX
  8
LAYER_1
 10
158.9974
 20
-251.6453
 42
0.2579683273
  0
VERTEX
  8
LAYER_1
 10
159.0652
 20
-251.5078
  0
VERTEX
  8
LAYER_1
 10
159.047
 20
-251.4224
  0
VERTEX
  8
LAYER_1
 10
158.9943
 20
-251.3652
  0
VERTEX
  8
LAYER_1
 10
158.9123
 20
-251.3338
  0
VERTEX
  8
LAYER_1
 10
158.8065
 20
-251.3235
  0
VERTEX
  8
LAYER_1
 10
158.6208
 20
-251.3235
  0
SEQEND
  0
ENDBLK
  0
BLOCK
  8
LAYER_1
  2
AIGNBL0103001F
 70
64
 10
0
 20
0
 30
0
  3
AIGNBL0103001F
  0
POLYLINE
  8
LAYER_1
 40
0.05
 41
0.05
 66
1
 10
0
 20
0
 30
0
 70
1
  0
VERTEX
  8
LAYER_1
 10
159.6898
 20
-252.2609
  0
VERTEX
  8
LAYER_1
 10
159.5865
 20
-252.2609
  0
VERTEX
  8
LAYER_1
 10
159.5865
 20
-251.2339
  0
VERTEX
  8
LAYER_1
 10
159.6898
 20
-251.2339
  0
SEQEND
  0
ENDBLK
  0
BLOCK
  8
LAYER_1
  2
AIGNBL01030020
 70
64
 10
0
 20
0
 30
0
  3
AIGNBL01030020
  0
POLYLINE
  8
LAYER_1
 40
0.05
 41
0.05
 66
1
 10
0
 20
0
 30
0
 70
1
  0
VERTEX
  8
LAYER_1
 10
160.2676
 20
-252.1676
  0
VERTEX
  8
LAYER_1
 10
160.8174
 20
-252.1676
  0
VERTEX
  8
LAYER_1
 10
160.8174
 20
-252.2609
  0
VERTEX
  8
LAYER_1
 10
160.1639
 20
-252.2609
  0
VERTEX
  8
LAYER_1
 10
160.1639
 20
-251.2339
  0
VERTEX
  8
LAYER_1
 10
160.8005
 20
-251.2339
  0
VERTEX
  8
LAYER_1
 10
160.8005
 20
-251.3263
  0
VERTEX
  8
LAYER_1
 10
160.2676
 20
-251.3263
  0
VERTEX
  8
LAYER_1
 10
160.2676
 20
-251.6787
  0
VERTEX
  8
LAYER_1
 10
160.7654
 20
-251.6787
  0
VERTEX
  8
LAYER_1
 10
160.7654
 20
-251.7717
  0
VERTEX
  8
LAYER_1
 10
160.2676
 20
-251.7717
  0
SEQEND
  0
ENDBLK
  0
BLOCK
  8
LAYER_1
  2
AIGNBL01030021
 70
64
 10
0
 20
0
 30
0
  3
AIGNBL01030021
  0
POLYLINE
  8
LAYER_1
 40
0.05
 41
0.05
 66
1
 10
0
 20
0
 30
0
 70
1
  0
VERTEX
  8
LAYER_1
 10
161.9505
 20
-252.1079
  0
VERTEX
  8
LAYER_1
 10
161.9536
 20
-252.1079
  0
VERTEX
  8
LAYER_1
 10
161.9536
 20
-251.2339
  0
VERTEX
  8
LAYER_1
 10
162.058
 20
-251.2339
  0
VERTEX
  8
LAYER_1
 10
162.058
 20
-252.2609
  0
VERTEX
  8
LAYER_1
 10
161.9277
 20
-252.2609
  0
VERTEX
  8
LAYER_1
 10
161.3297
 20
-251.3772
  0
VERTEX
  8
LAYER_1
 10
161.3266
 20
-251.3772
  0
VERTEX
  8
LAYER_1
 10
161.3266
 20
-252.2609
  0
VERTEX
  8
LAYER_1
 10
161.2222
 20
-252.2609
  0
VERTEX
  8
LAYER_1
 10
161.2222
 20
-251.2339
  0
VERTEX
  8
LAYER_1
 10
161.3535
 20
-251.2339
  0
SEQEND
  0
ENDBLK
  0
BLOCK
  8
LAYER_1
  2
AIGNBL01030022
 70
64
 10
0
 20
0
 30
0
  3
AIGNBL01030022
  0
POLYLINE
  8
LAYER_1
 40
0.05
 41
0.05
 66
1
 10
0
 20
0
 30
0
 70
1
  0
VERTEX
  8
LAYER_1
 10
163.396
 20
-252.0942
  0
VERTEX
  8
LAYER_1
 10
163.3323
 20
-252.1679
  0
VERTEX
  8
LAYER_1
 10
163.2469
 20
-252.2295
  0
VERTEX
  8
LAYER_1
 10
163.1394
 20
-252.2716
  0
VERTEX
  8
LAYER_1
 10
163.0112
 20
-252.2868
 42
-0.09929103144
  0
VERTEX
  8
LAYER_1
 10
162.7966
 20
-252.2461
 42
-0.1031170142
  0
VERTEX
  8
LAYER_1
 10
162.6271
 20
-252.1335
 42
-0.1024256256
  0
VERTEX
  8
LAYER_1
 10
162.5162
 20
-251.9633
 42
-0.09780652729
  0
VERTEX
  8
LAYER_1
 10
162.4759
 20
-251.7469
 42
-0.1005543907
  0
VERTEX
  8
LAYER_1
 10
162.5169
 20
-251.5306
 42
-0.09980539098
  0
VERTEX
  8
LAYER_1
 10
162.6285
 20
-251.3604
 42
-0.09707816065
  0
VERTEX
  8
LAYER_1
 10
162.798
 20
-251.2481
 42
-0.09782536185
  0
VERTEX
  8
LAYER_1
 10
163.0112
 20
-251.2071
  0
VERTEX
  8
LAYER_1
 10
163.1222
 20
-251.2191
  0
VERTEX
  8
LAYER_1
 10
163.2252
 20
-251.2522
  0
VERTEX
  8
LAYER_1
 10
163.3117
 20
-251.3035
  0
VERTEX
  8
LAYER_1
 10
163.3767
 20
-251.3711
  0
VERTEX
  8
LAYER_1
 10
163.2906
 20
-251.4355
  0
VERTEX
  8
LAYER_1
 10
163.2469
 20
-251.3858
  0
VERTEX
  8
LAYER_1
 10
163.1835
 20
-251.3421
  0
VERTEX
  8
LAYER_1
 10
163.1043
 20
-251.3114
  0
VERTEX
  8
LAYER_1
 10
163.0126
 20
-251.3001
 42
0.111032742
  0
VERTEX
  8
LAYER_1
 10
162.8338
 20
-251.3362
 42
0.1048566985
  0
VERTEX
  8
LAYER_1
 10
162.6998
 20
-251.4338
 42
0.09649516609
  0
VERTEX
  8
LAYER_1
 10
162.6147
 20
-251.5764
 42
0.08187604402
  0
VERTEX
  8
LAYER_1
 10
162.5868
 20
-251.7469
 42
0.09351376633
  0
VERTEX
  8
LAYER_1
 10
162.6164
 20
-251.9178
 42
0.09951767869
  0
VERTEX
  8
LAYER_1
 10
162.7012
 20
-252.0601
 42
0.1063497227
  0
VERTEX
  8
LAYER_1
 10
162.8356
 20
-252.1575
 42
0.1081437471
  0
VERTEX
  8
LAYER_1
 10
163.0126
 20
-252.1937
 42
0.1144963135
  0
VERTEX
  8
LAYER_1
 10
163.1804
 20
-252.1575
 42
0.1351211567
  0
VERTEX
  8
LAYER_1
 10
163.3148
 20
-252.0414
  0
SEQEND
  0
ENDBLK
  0
BLOCK
  8
LAYER_1
  2
AIGNBL01030023
 70
64
 10
0
 20
0
 30
0
  3
AIGNBL01030023
  0
POLYLINE
  8
LAYER_1
 40
0.05
 41
0.05
 66
1
 10
0
 20
0
 30
0
 70
1
  0
VERTEX
  8
LAYER_1
 10
163.8801
 20
-252.1676
  0
VERTEX
  8
LAYER_1
 10
164.4299
 20
-252.1676
  0
VERTEX
  8
LAYER_1
 10
164.4299
 20
-252.2609
  0
VERTEX
  8
LAYER_1
 10
163.7764
 20
-252.2609
  0
VERTEX
  8
LAYER_1
 10
163.7764
 20
-251.2339
  0
VERTEX
  8
LAYER_1
 10
164.4127
 20
-251.2339
  0
VERTEX
  8
LAYER_1
 10
164.4127
 20
-251.3263
  0
VERTEX
  8
LAYER_1
 10
163.8801
 20
-251.3263
  0
VERTEX
  8
LAYER_1
 10
163.8801
 20
-251.6787
  0
VERTEX
  8
LAYER_1
 10
164.3782
 20
-251.6787
  0
VERTEX
  8
LAYER_1
 10
164.3782
 20
-251.7717
  0
VERTEX
  8
LAYER_1
 10
163.8801
 20
-251.7717
  0
SEQEND
  0
ENDBLK
  0
BLOCK
  8
LAYER_1
  2
AIGNBL01020003
 70
64
 10
0
 20
0
 30
0
  3
AIGNBL01020003
  0
INSERT
  8
LAYER_1
  2
AIGNBL01030004
 10
0
 20
0
 30
0
  0
ENDBLK
  0
BLOCK
  8
LAYER_1
  2
AIGNBL0102000C
 70
64
 10
0
 20
0
 30
0
  3
AIGNBL0102000C
  0
INSERT
  8
LAYER_1
  2
AIGNBL0103000D
 10
0
 20
0
 30
0
  0
INSERT
  8
LAYER_1
  2
AIGNBL0103000E
 10
0
 20
0
 30
0
  0
INSERT
  8
LAYER_1
  2
AIGNBL0103000F
 10
0
 20
0
 30
0
  0
INSERT
  8
LAYER_1
  2
AIGNBL01030010
 10
0
 20
0
 30
0
  0
INSERT
  8
LAYER_1
  2
AIGNBL01030011
 10
0
 20
0
 30
0
  0
INSERT
  8
LAYER_1
  2
AIGNBL01030012
 10
0
 20
0
 30
0
  0
INSERT
  8
LAYER_1
  2
AIGNBL01030013
 10
0
 20
0
 30
0
  0
INSERT
  8
LAYER_1
  2
AIGNBL01030014
 10
0
 20
0
 30
0
  0
INSERT
  8
LAYER_1
  2
AIGNBL01030015
 10
0
 20
0
 30
0
  0
INSERT
  8
LAYER_1
  2
AIGNBL01030016
 10
0
 20
0
 30
0
  0
INSERT
  8
LAYER_1
  2
AIGNBL01030017
 10
0
 20
0
 30
0
  0
INSERT
  8
LAYER_1
  2
AIGNBL01030018
 10
0
 20
0
 30
0
  0
INSERT
  8
LAYER_1
  2
AIGNBL01030019
 10
0
 20
0
 30
0
  0
INSERT
  8
LAYER_1
  2
AIGNBL0103001A
 10
0
 20
0
 30
0
  0
INSERT
  8
LAYER_1
  2
AIGNBL0103001B
 10
0
 20
0
 30
0
  0
INSERT
  8
LAYER_1
  2
AIGNBL0103001C
 10
0
 20
0
 30
0
  0
INSERT
  8
LAYER_1
  2
AIGNBL0103001D
 10
0
 20
0
 30
0
  0
INSERT
  8
LAYER_1
  2
AIGNBL0103001E
 10
0
 20
0
 30
0
  0
INSERT
  8
LAYER_1
  2
AIGNBL0103001F
 10
0
 20
0
 30
0
  0
INSERT
  8
LAYER_1
  2
AIGNBL01030020
 10
0
 20
0
 30
0
  0
INSERT
  8
LAYER_1
  2
AIGNBL01030021
 10
0
 20
0
 30
0
  0
INSERT
  8
LAYER_1
  2
AIGNBL01030022
 10
0
 20
0
 30
0
  0
INSERT
  8
LAYER_1
  2
AIGNBL01030023
 10
0
 20
0
 30
0
  0
ENDBLK
  0
BLOCK
  8
LAYER_6
  2
AIGNBL06020004
 70
64
 10
0
 20
0
 30
0
  3
AIGNBL06020004
  0
POLYLINE
  8
LAYER_6
 40
0.0353
 41
0.0353
 66
1
 10
0
 20
0
 30
0
  0
VERTEX
  8
LAYER_6
 10
79.8534
 20
-159.5492
  0
VERTEX
  8
LAYER_6
 10
78.3534
 20
-159.2992
  0
SEQEND
  0
POLYLINE
  8
LAYER_6
 40
0.0353
 41
0.0353
 66
1
 10
0
 20
0
 30
0
  0
VERTEX
  8
LAYER_6
 10
79.8534
 20
-159.2992
  0
VERTEX
  8
LAYER_6
 10
78.3534
 20
-159.2992
  0
VERTEX
  8
LAYER_6
 10
79.8534
 20
-159.0492
  0
SEQEND
  0
ENDBLK
  0
BLOCK
  8
LAYER_6
  2
AIGNBL06020005
 70
64
 10
0
 20
0
 30
0
  3
AIGNBL06020005
  0
POLYLINE
  8
LAYER_6
 40
0.0353
 41
0.0353
 66
1
 10
0
 20
0
 30
0
  0
VERTEX
  8
LAYER_6
 10
89.8534
 20
-159.0492
  0
VERTEX
  8
LAYER_6
 10
91.3534
 20
-159.2992
  0
SEQEND
  0
POLYLINE
  8
LAYER_6
 40
0.0353
 41
0.0353
 66
1
 10
0
 20
0
 30
0
  0
VERTEX
  8
LAYER_6
 10
89.8534
 20
-159.2992
  0
VERTEX
  8
LAYER_6
 10
91.3534
 20
-159.2992
  0
VERTEX
  8
LAYER_6
 10
89.8534
 20
-159.5492
  0
SEQEND
  0
ENDBLK
  0
BLOCK
  8
LAYER_6
  2
AIGNBL06020006
 70
64
 10
0
 20
0
 30
0
  3
AIGNBL06020006
  0
POLYLINE
  8
LAYER_6
 40
0.7056
 41
0.7056
 66
1
 10
0
 20
0
 30
0
  0
VERTEX
  8
LAYER_6
 10
78.3534
 20
-171.6945
  0
SEQEND
  0
ENDBLK
  0
BLOCK
  8
LAYER_6
  2
AIGNBL06020007
 70
64
 10
0
 20
0
 30
0
  3
AIGNBL06020007
  0
POLYLINE
  8
LAYER_6
 40
0.7056
 41
0.7056
 66
1
 10
0
 20
0
 30
0
  0
VERTEX
  8
LAYER_6
 10
91.3534
 20
-171.6945
  0
SEQEND
  0
ENDBLK
  0
BLOCK
  8
LAYER_6
  2
AIGNBL06020008
 70
64
 10
0
 20
0
 30
0
  3
AIGNBL06020008
  0
POLYLINE
  8
LAYER_6
 40
0.7056
 41
0.7056
 66
1
 10
0
 20
0
 30
0
  0
VERTEX
  8
LAYER_6
 10
91.3534
 20
-159.2992
  0
SEQEND
  0
ENDBLK
  0
BLOCK
  8
LAYER_6
  2
AIGNBL0602000A
 70
64
 10
0
 20
0
 30
0
  3
AIGNBL0602000A
  0
POLYLINE
  8
LAYER_6
 40
0.0353
 41
0.0353
 66
1
 10
0
 20
0
 30
0
  0
VERTEX
  8
LAYER_6
 10
82.4534
 20
-119.7345
  0
VERTEX
  8
LAYER_6
 10
80.9534
 20
-119.4845
  0
SEQEND
  0
POLYLINE
  8
LAYER_6
 40
0.0353
 41
0.0353
 66
1
 10
0
 20
0
 30
0
  0
VERTEX
  8
LAYER_6
 10
82.4534
 20
-119.4845
  0
VERTEX
  8
LAYER_6
 10
80.9534
 20
-119.4845
  0
VERTEX
  8
LAYER_6
 10
82.4534
 20
-119.2345
  0
SEQEND
  0
ENDBLK
  0
BLOCK
  8
LAYER_6
  2
AIGNBL0602000B
 70
64
 10
0
 20
0
 30
0
  3
AIGNBL0602000B
  0
POLYLINE
  8
LAYER_6
 40
0.0353
 41
0.0353
 66
1
 10
0
 20
0
 30
0
  0
VERTEX
  8
LAYER_6
 10
87.2534
 20
-119.2345
  0
VERTEX
  8
LAYER_6
 10
88.7534
 20
-119.4845
  0
SEQEND
  0
POLYLINE
  8
LAYER_6
 40
0.0353
 41
0.0353
 66
1
 10
0
 20
0
 30
0
  0
VERTEX
  8
LAYER_6
 10
87.2534
 20
-119.4845
  0
VERTEX
  8
LAYER_6
 10
88.7534
 20
-119.4845
  0
VERTEX
  8
LAYER_6
 10
87.2534
 20
-119.7345
  0
SEQEND
  0
ENDBLK
  0
BLOCK
  8
LAYER_6
  2
AIGNBL0602000C
 70
64
 10
0
 20
0
 30
0
  3
AIGNBL0602000C
  0
POLYLINE
  8
LAYER_6
 40
0.7056
 41
0.7056
 66
1
 10
0
 20
0
 30
0
  0
VERTEX
  8
LAYER_6
 10
80.9534
 20
-116.7719
  0
SEQEND
  0
ENDBLK
  0
BLOCK
  8
LAYER_6
  2
AIGNBL0602000D
 70
64
 10
0
 20
0
 30
0
  3
AIGNBL0602000D
  0
POLYLINE
  8
LAYER_6
 40
0.7056
 41
0.7056
 66
1
 10
0
 20
0
 30
0
  0
VERTEX
  8
LAYER_6
 10
88.7534
 20
-116.7719
  0
SEQEND
  0
ENDBLK
  0
BLOCK
  8
LAYER_6
  2
AIGNBL0602000E
 70
64
 10
0
 20
0
 30
0
  3
AIGNBL0602000E
  0
POLYLINE
  8
LAYER_6
 40
0.7056
 41
0.7056
 66
1
 10
0
 20
0
 30
0
  0
VERTEX
  8
LAYER_6
 10
88.7534
 20
-119.4845
  0
SEQEND
  0
ENDBLK
  0
BLOCK
  8
LAYER_6
  2
AIGNBL06020010
 70
64
 10
0
 20
0
 30
0
  3
AIGNBL06020010
  0
POLYLINE
  8
LAYER_6
 40
0.0353
 41
0.0353
 66
1
 10
0
 20
0
 30
0
  0
VERTEX
  8
LAYER_6
 10
83.8134
 20
-101.4819
  0
VERTEX
  8
LAYER_6
 10
82.3134
 20
-101.2319
  0
SEQEND
  0
POLYLINE
  8
LAYER_6
 40
0.0353
 41
0.0353
 66
1
 10
0
 20
0
 30
0
  0
VERTEX
  8
LAYER_6
 10
83.8134
 20
-101.2319
  0
VERTEX
  8
LAYER_6
 10
82.3134
 20
-101.2319
  0
VERTEX
  8
LAYER_6
 10
83.8134
 20
-100.9819
  0
SEQEND
  0
ENDBLK
  0
BLOCK
  8
LAYER_6
  2
AIGNBL06020011
 70
64
 10
0
 20
0
 30
0
  3
AIGNBL06020011
  0
POLYLINE
  8
LAYER_6
 40
0.0353
 41
0.0353
 66
1
 10
0
 20
0
 30
0
  0
VERTEX
  8
LAYER_6
 10
85.8934
 20
-100.9819
  0
VERTEX
  8
LAYER_6
 10
87.3934
 20
-101.2319
  0
SEQEND
  0
POLYLINE
  8
LAYER_6
 40
0.0353
 41
0.0353
 66
1
 10
0
 20
0
 30
0
  0
VERTEX
  8
LAYER_6
 10
85.8934
 20
-101.2319
  0
VERTEX
  8
LAYER_6
 10
87.3934
 20
-101.2319
  0
VERTEX
  8
LAYER_6
 10
85.8934
 20
-101.4819
  0
SEQEND
  0
ENDBLK
  0
BLOCK
  8
LAYER_6
  2
AIGNBL06020012
 70
64
 10
0
 20
0
 30
0
  3
AIGNBL06020012
  0
POLYLINE
  8
LAYER_6
 40
0.7056
 41
0.7056
 66
1
 10
0
 20
0
 30
0
  0
VERTEX
  8
LAYER_6
 10
82.3134
 20
-103.2919
  0
SEQEND
  0
ENDBLK
  0
BLOCK
  8
LAYER_6
  2
AIGNBL06020013
 70
64
 10
0
 20
0
 30
0
  3
AIGNBL06020013
  0
POLYLINE
  8
LAYER_6
 40
0.7056
 41
0.7056
 66
1
 10
0
 20
0
 30
0
  0
VERTEX
  8
LAYER_6
 10
87.3934
 20
-103.2919
  0
SEQEND
  0
ENDBLK
  0
BLOCK
  8
LAYER_6
  2
AIGNBL06020014
 70
64
 10
0
 20
0
 30
0
  3
AIGNBL06020014
  0
POLYLINE
  8
LAYER_6
 40
0.7056
 41
0.7056
 66
1
 10
0
 20
0
 30
0
  0
VERTEX
  8
LAYER_6
 10
87.3934
 20
-101.2319
  0
SEQEND
  0
ENDBLK
  0
BLOCK
  8
LAYER_6
  2
AIGNBL06020016
 70
64
 10
0
 20
0
 30
0
  3
AIGNBL06020016
  0
POLYLINE
  8
LAYER_6
 40
0.0353
 41
0.0353
 66
1
 10
0
 20
0
 30
0
  0
VERTEX
  8
LAYER_6
 10
170.6479
 20
-159.5447
  0
VERTEX
  8
LAYER_6
 10
169.1479
 20
-159.2947
  0
SEQEND
  0
POLYLINE
  8
LAYER_6
 40
0.0353
 41
0.0353
 66
1
 10
0
 20
0
 30
0
  0
VERTEX
  8
LAYER_6
 10
170.6479
 20
-159.2947
  0
VERTEX
  8
LAYER_6
 10
169.1479
 20
-159.2947
  0
VERTEX
  8
LAYER_6
 10
170.6479
 20
-159.0447
  0
SEQEND
  0
ENDBLK
  0
BLOCK
  8
LAYER_6
  2
AIGNBL06020017
 70
64
 10
0
 20
0
 30
0
  3
AIGNBL06020017
  0
POLYLINE
  8
LAYER_6
 40
0.0353
 41
0.0353
 66
1
 10
0
 20
0
 30
0
  0
VERTEX
  8
LAYER_6
 10
184.4479
 20
-159.0447
  0
VERTEX
  8
LAYER_6
 10
185.9479
 20
-159.2947
  0
SEQEND
  0
POLYLINE
  8
LAYER_6
 40
0.0353
 41
0.0353
 66
1
 10
0
 20
0
 30
0
  0
VERTEX
  8
LAYER_6
 10
184.4479
 20
-159.2947
  0
VERTEX
  8
LAYER_6
 10
185.9479
 20
-159.2947
  0
VERTEX
  8
LAYER_6
 10
184.4479
 20
-159.5447
  0
SEQEND
  0
ENDBLK
  0
BLOCK
  8
LAYER_6
  2
AIGNBL06020018
 70
64
 10
0
 20
0
 30
0
  3
AIGNBL06020018
  0
POLYLINE
  8
LAYER_6
 40
0.7056
 41
0.7056
 66
1
 10
0
 20
0
 30
0
  0
VERTEX
  8
LAYER_6
 10
169.1479
 20
-171.8323
  0
SEQEND
  0
ENDBLK
  0
BLOCK
  8
LAYER_6
  2
AIGNBL06020019
 70
64
 10
0
 20
0
 30
0
  3
AIGNBL06020019
  0
POLYLINE
  8
LAYER_6
 40
0.7056
 41
0.7056
 66
1
 10
0
 20
0
 30
0
  0
VERTEX
  8
LAYER_6
 10
185.9479
 20
-171.19
  0
SEQEND
  0
ENDBLK
  0
BLOCK
  8
LAYER_6
  2
AIGNBL0602001A
 70
64
 10
0
 20
0
 30
0
  3
AIGNBL0602001A
  0
POLYLINE
  8
LAYER_6
 40
0.7056
 41
0.7056
 66
1
 10
0
 20
0
 30
0
  0
VERTEX
  8
LAYER_6
 10
185.9479
 20
-159.2947
  0
SEQEND
  0
ENDBLK
  0
BLOCK
  8
LAYER_6
  2
AIGNBL0602001C
 70
64
 10
0
 20
0
 30
0
  3
AIGNBL0602001C
  0
POLYLINE
  8
LAYER_6
 40
0.0353
 41
0.0353
 66
1
 10
0
 20
0
 30
0
  0
VERTEX
  8
LAYER_6
 10
175.4479
 20
-165.4401
  0
VERTEX
  8
LAYER_6
 10
173.9479
 20
-165.1901
  0
SEQEND
  0
POLYLINE
  8
LAYER_6
 40
0.0353
 41
0.0353
 66
1
 10
0
 20
0
 30
0
  0
VERTEX
  8
LAYER_6
 10
175.4479
 20
-165.1901
  0
VERTEX
  8
LAYER_6
 10
173.9479
 20
-165.1901
  0
VERTEX
  8
LAYER_6
 10
175.4479
 20
-164.9401
  0
SEQEND
  0
ENDBLK
  0
BLOCK
  8
LAYER_6
  2
AIGNBL0602001D
 70
64
 10
0
 20
0
 30
0
  3
AIGNBL0602001D
  0
POLYLINE
  8
LAYER_6
 40
0.0353
 41
0.0353
 66
1
 10
0
 20
0
 30
0
  0
VERTEX
  8
LAYER_6
 10
184.4403
 20
-164.9401
  0
VERTEX
  8
LAYER_6
 10
185.9403
 20
-165.1901
  0
SEQEND
  0
POLYLINE
  8
LAYER_6
 40
0.0353
 41
0.0353
 66
1
 10
0
 20
0
 30
0
  0
VERTEX
  8
LAYER_6
 10
184.4403
 20
-165.1901
  0
VERTEX
  8
LAYER_6
 10
185.9403
 20
-165.1901
  0
VERTEX
  8
LAYER_6
 10
184.4403
 20
-165.4401
  0
SEQEND
  0
ENDBLK
  0
BLOCK
  8
LAYER_6
  2
AIGNBL0602001E
 70
64
 10
0
 20
0
 30
0
  3
AIGNBL0602001E
  0
POLYLINE
  8
LAYER_6
 40
0.7056
 41
0.7056
 66
1
 10
0
 20
0
 30
0
  0
VERTEX
  8
LAYER_6
 10
173.9479
 20
-171.2947
  0
SEQEND
  0
ENDBLK
  0
BLOCK
  8
LAYER_6
  2
AIGNBL0602001F
 70
64
 10
0
 20
0
 30
0
  3
AIGNBL0602001F
  0
POLYLINE
  8
LAYER_6
 40
0.7056
 41
0.7056
 66
1
 10
0
 20
0
 30
0
  0
VERTEX
  8
LAYER_6
 10
185.9403
 20
-171.1901
  0
SEQEND
  0
ENDBLK
  0
BLOCK
  8
LAYER_6
  2
AIGNBL06020020
 70
64
 10
0
 20
0
 30
0
  3
AIGNBL06020020
  0
POLYLINE
  8
LAYER_6
 40
0.7056
 41
0.7056
 66
1
 10
0
 20
0
 30
0
  0
VERTEX
  8
LAYER_6
 10
185.9403
 20
-165.1901
  0
SEQEND
  0
ENDBLK
  0
BLOCK
  8
LAYER_6
  2
AIGNBL06020022
 70
64
 10
0
 20
0
 30
0
  3
AIGNBL06020022
  0
POLYLINE
  8
LAYER_6
 40
0.0353
 41
0.0353
 66
1
 10
0
 20
0
 30
0
  0
VERTEX
  8
LAYER_6
 10
172.4479
 20
-164.956
  0
VERTEX
  8
LAYER_6
 10
173.9479
 20
-165.206
  0
SEQEND
  0
POLYLINE
  8
LAYER_6
 40
0.0353
 41
0.0353
 66
1
 10
0
 20
0
 30
0
  0
VERTEX
  8
LAYER_6
 10
172.4479
 20
-165.206
  0
VERTEX
  8
LAYER_6
 10
173.9479
 20
-165.206
  0
VERTEX
  8
LAYER_6
 10
172.4479
 20
-165.456
  0
SEQEND
  0
ENDBLK
  0
BLOCK
  8
LAYER_6
  2
AIGNBL06020023
 70
64
 10
0
 20
0
 30
0
  3
AIGNBL06020023
  0
POLYLINE
  8
LAYER_6
 40
0.0353
 41
0.0353
 66
1
 10
0
 20
0
 30
0
  0
VERTEX
  8
LAYER_6
 10
170.6479
 20
-165.456
  0
VERTEX
  8
LAYER_6
 10
169.1479
 20
-165.206
  0
SEQEND
  0
POLYLINE
  8
LAYER_6
 40
0.0353
 41
0.0353
 66
1
 10
0
 20
0
 30
0
  0
VERTEX
  8
LAYER_6
 10
170.6479
 20
-165.206
  0
VERTEX
  8
LAYER_6
 10
169.1479
 20
-165.206
  0
VERTEX
  8
LAYER_6
 10
170.6479
 20
-164.956
  0
SEQEND
  0
ENDBLK
  0
BLOCK
  8
LAYER_6
  2
AIGNBL06020024
 70
64
 10
0
 20
0
 30
0
  3
AIGNBL06020024
  0
POLYLINE
  8
LAYER_6
 40
0.7056
 41
0.7056
 66
1
 10
0
 20
0
 30
0
  0
VERTEX
  8
LAYER_6
 10
169.1479
 20
-171.8323
  0
SEQEND
  0
ENDBLK
  0
BLOCK
  8
LAYER_6
  2
AIGNBL06020025
 70
64
 10
0
 20
0
 30
0
  3
AIGNBL06020025
  0
POLYLINE
  8
LAYER_6
 40
0.7056
 41
0.7056
 66
1
 10
0
 20
0
 30
0
  0
VERTEX
  8
LAYER_6
 10
173.9479
 20
-171.2947
  0
SEQEND
  0
ENDBLK
  0
BLOCK
  8
LAYER_6
  2
AIGNBL06020026
 70
64
 10
0
 20
0
 30
0
  3
AIGNBL06020026
  0
POLYLINE
  8
LAYER_6
 40
0.7056
 41
0.7056
 66
1
 10
0
 20
0
 30
0
  0
VERTEX
  8
LAYER_6
 10
173.9479
 20
-165.206
  0
SEQEND
  0
ENDBLK
  0
BLOCK
  8
LAYER_6
  2
AIGNBL06020028
 70
64
 10
0
 20
0
 30
0
  3
AIGNBL06020028
  0
POLYLINE
  8
LAYER_6
 40
0.0353
 41
0.0353
 66
1
 10
0
 20
0
 30
0
  0
VERTEX
  8
LAYER_6
 10
159.3979
 20
-195.2389
  0
VERTEX
  8
LAYER_6
 10
159.1479
 20
-196.7389
  0
SEQEND
  0
POLYLINE
  8
LAYER_6
 40
0.0353
 41
0.0353
 66
1
 10
0
 20
0
 30
0
  0
VERTEX
  8
LAYER_6
 10
159.1479
 20
-195.2389
  0
VERTEX
  8
LAYER_6
 10
159.1479
 20
-196.7389
  0
VERTEX
  8
LAYER_6
 10
158.8979
 20
-195.2389
  0
SEQEND
  0
ENDBLK
  0
BLOCK
  8
LAYER_6
  2
AIGNBL06020029
 70
64
 10
0
 20
0
 30
0
  3
AIGNBL06020029
  0
POLYLINE
  8
LAYER_6
 40
0.0353
 41
0.0353
 66
1
 10
0
 20
0
 30
0
  0
VERTEX
  8
LAYER_6
 10
158.8979
 20
-170.8389
  0
VERTEX
  8
LAYER_6
 10
159.1479
 20
-169.3389
  0
SEQEND
  0
POLYLINE
  8
LAYER_6
 40
0.0353
 41
0.0353
 66
1
 10
0
 20
0
 30
0
  0
VERTEX
  8
LAYER_6
 10
159.1479
 20
-170.8389
  0
VERTEX
  8
LAYER_6
 10
159.1479
 20
-169.3389
  0
VERTEX
  8
LAYER_6
 10
159.3979
 20
-170.8389
  0
SEQEND
  0
ENDBLK
  0
BLOCK
  8
LAYER_6
  2
AIGNBL0602002A
 70
64
 10
0
 20
0
 30
0
  3
AIGNBL0602002A
  0
POLYLINE
  8
LAYER_6
 40
0.7056
 41
0.7056
 66
1
 10
0
 20
0
 30
0
  0
VERTEX
  8
LAYER_6
 10
174.9732
 20
-196.7389
  0
SEQEND
  0
ENDBLK
  0
BLOCK
  8
LAYER_6
  2
AIGNBL0602002B
 70
64
 10
0
 20
0
 30
0
  3
AIGNBL0602002B
  0
POLYLINE
  8
LAYER_6
 40
0.7056
 41
0.7056
 66
1
 10
0
 20
0
 30
0
  0
VERTEX
  8
LAYER_6
 10
171.7436
 20
-169.3389
  0
SEQEND
  0
ENDBLK
  0
BLOCK
  8
LAYER_6
  2
AIGNBL0602002C
 70
64
 10
0
 20
0
 30
0
  3
AIGNBL0602002C
  0
POLYLINE
  8
LAYER_6
 40
0.7056
 41
0.7056
 66
1
 10
0
 20
0
 30
0
  0
VERTEX
  8
LAYER_6
 10
159.1479
 20
-169.3389
  0
SEQEND
  0
ENDBLK
  0
BLOCK
  8
LAYER_6
  2
AIGNBL0602002E
 70
64
 10
0
 20
0
 30
0
  3
AIGNBL0602002E
  0
POLYLINE
  8
LAYER_6
 40
0.0353
 41
0.0353
 66
1
 10
0
 20
0
 30
0
  0
VERTEX
  8
LAYER_6
 10
173.0479
 20
-62.0995
  0
VERTEX
  8
LAYER_6
 10
174.5479
 20
-62.3495
  0
SEQEND
  0
POLYLINE
  8
LAYER_6
 40
0.0353
 41
0.0353
 66
1
 10
0
 20
0
 30
0
  0
VERTEX
  8
LAYER_6
 10
173.0479
 20
-62.3495
  0
VERTEX
  8
LAYER_6
 10
174.5479
 20
-62.3495
  0
VERTEX
  8
LAYER_6
 10
173.0479
 20
-62.5995
  0
SEQEND
  0
ENDBLK
  0
BLOCK
  8
LAYER_6
  2
AIGNBL0602002F
 70
64
 10
0
 20
0
 30
0
  3
AIGNBL0602002F
  0
POLYLINE
  8
LAYER_6
 40
0.0353
 41
0.0353
 66
1
 10
0
 20
0
 30
0
  0
VERTEX
  8
LAYER_6
 10
146.37
 20
-62.5995
  0
VERTEX
  8
LAYER_6
 10
144.87
 20
-62.3495
  0
SEQEND
  0
POLYLINE
  8
LAYER_6
 40
0.0353
 41
0.0353
 66
1
 10
0
 20
0
 30
0
  0
VERTEX
  8
LAYER_6
 10
146.37
 20
-62.3495
  0
VERTEX
  8
LAYER_6
 10
144.87
 20
-62.3495
  0
VERTEX
  8
LAYER_6
 10
146.37
 20
-62.0995
  0
SEQEND
  0
ENDBLK
  0
BLOCK
  8
LAYER_6
  2
AIGNBL06020030
 70
64
 10
0
 20
0
 30
0
  3
AIGNBL06020030
  0
POLYLINE
  8
LAYER_6
 40
0.7056
 41
0.7056
 66
1
 10
0
 20
0
 30
0
  0
VERTEX
  8
LAYER_6
 10
174.5479
 20
-85.3695
  0
SEQEND
  0
ENDBLK
  0
BLOCK
  8
LAYER_6
  2
AIGNBL06020031
 70
64
 10
0
 20
0
 30
0
  3
AIGNBL06020031
  0
POLYLINE
  8
LAYER_6
 40
0.7056
 41
0.7056
 66
1
 10
0
 20
0
 30
0
  0
VERTEX
  8
LAYER_6
 10
144.87
 20
-86.7103
  0
SEQEND
  0
ENDBLK
  0
BLOCK
  8
LAYER_6
  2
AIGNBL06020032
 70
64
 10
0
 20
0
 30
0
  3
AIGNBL06020032
  0
POLYLINE
  8
LAYER_6
 40
0.7056
 41
0.7056
 66
1
 10
0
 20
0
 30
0
  0
VERTEX
  8
LAYER_6
 10
144.87
 20
-62.3495
  0
SEQEND
  0
ENDBLK
  0
BLOCK
  8
LAYER_6
  2
AIGNBL06020034
 70
64
 10
0
 20
0
 30
0
  3
AIGNBL06020034
  0
POLYLINE
  8
LAYER_6
 40
0.0353
 41
0.0353
 66
1
 10
0
 20
0
 30
0
  0
VERTEX
  8
LAYER_6
 10
74.1034
 20
-172.6945
  0
VERTEX
  8
LAYER_6
 10
74.3534
 20
-171.1945
  0
SEQEND
  0
POLYLINE
  8
LAYER_6
 40
0.0353
 41
0.0353
 66
1
 10
0
 20
0
 30
0
  0
VERTEX
  8
LAYER_6
 10
74.3534
 20
-172.6945
  0
VERTEX
  8
LAYER_6
 10
74.3534
 20
-171.1945
  0
VERTEX
  8
LAYER_6
 10
74.6034
 20
-172.6945
  0
SEQEND
  0
ENDBLK
  0
BLOCK
  8
LAYER_6
  2
AIGNBL06020035
 70
64
 10
0
 20
0
 30
0
  3
AIGNBL06020035
  0
POLYLINE
  8
LAYER_6
 40
0.0353
 41
0.0353
 66
1
 10
0
 20
0
 30
0
  0
VERTEX
  8
LAYER_6
 10
74.6034
 20
-187.9945
  0
VERTEX
  8
LAYER_6
 10
74.3534
 20
-189.4945
  0
SEQEND
  0
POLYLINE
  8
LAYER_6
 40
0.0353
 41
0.0353
 66
1
 10
0
 20
0
 30
0
  0
VERTEX
  8
LAYER_6
 10
74.3534
 20
-187.9945
  0
VERTEX
  8
LAYER_6
 10
74.3534
 20
-189.4945
  0
VERTEX
  8
LAYER_6
 10
74.1034
 20
-187.9945
  0
SEQEND
  0
ENDBLK
  0
BLOCK
  8
LAYER_6
  2
AIGNBL06020036
 70
64
 10
0
 20
0
 30
0
  3
AIGNBL06020036
  0
POLYLINE
  8
LAYER_6
 40
0.7056
 41
0.7056
 66
1
 10
0
 20
0
 30
0
  0
VERTEX
  8
LAYER_6
 10
78.8534
 20
-171.1945
  0
SEQEND
  0
ENDBLK
  0
BLOCK
  8
LAYER_6
  2
AIGNBL06020037
 70
64
 10
0
 20
0
 30
0
  3
AIGNBL06020037
  0
POLYLINE
  8
LAYER_6
 40
0.7056
 41
0.7056
 66
1
 10
0
 20
0
 30
0
  0
VERTEX
  8
LAYER_6
 10
78.8534
 20
-189.4945
  0
SEQEND
  0
ENDBLK
  0
BLOCK
  8
LAYER_6
  2
AIGNBL06020038
 70
64
 10
0
 20
0
 30
0
  3
AIGNBL06020038
  0
POLYLINE
  8
LAYER_6
 40
0.7056
 41
0.7056
 66
1
 10
0
 20
0
 30
0
  0
VERTEX
  8
LAYER_6
 10
74.3534
 20
-189.4945
  0
SEQEND
  0
ENDBLK
  0
BLOCK
  8
LAYER_6
  2
AIGNBL0602003A
 70
64
 10
0
 20
0
 30
0
  3
AIGNBL0602003A
  0
POLYLINE
  8
LAYER_6
 40
0.0353
 41
0.0353
 66
1
 10
0
 20
0
 30
0
  0
VERTEX
  8
LAYER_6
 10
68.1034
 20
-170.7945
  0
VERTEX
  8
LAYER_6
 10
68.3534
 20
-169.2945
  0
SEQEND
  0
POLYLINE
  8
LAYER_6
 40
0.0353
 41
0.0353
 66
1
 10
0
 20
0
 30
0
  0
VERTEX
  8
LAYER_6
 10
68.3534
 20
-170.7945
  0
VERTEX
  8
LAYER_6
 10
68.3534
 20
-169.2945
  0
VERTEX
  8
LAYER_6
 10
68.6034
 20
-170.7945
  0
SEQEND
  0
ENDBLK
  0
BLOCK
  8
LAYER_6
  2
AIGNBL0602003B
 70
64
 10
0
 20
0
 30
0
  3
AIGNBL0602003B
  0
POLYLINE
  8
LAYER_6
 40
0.0353
 41
0.0353
 66
1
 10
0
 20
0
 30
0
  0
VERTEX
  8
LAYER_6
 10
68.6034
 20
-187.9945
  0
VERTEX
  8
LAYER_6
 10
68.3534
 20
-189.4945
  0
SEQEND
  0
POLYLINE
  8
LAYER_6
 40
0.0353
 41
0.0353
 66
1
 10
0
 20
0
 30
0
  0
VERTEX
  8
LAYER_6
 10
68.3534
 20
-187.9945
  0
VERTEX
  8
LAYER_6
 10
68.3534
 20
-189.4945
  0
VERTEX
  8
LAYER_6
 10
68.1034
 20
-187.9945
  0
SEQEND
  0
ENDBLK
  0
BLOCK
  8
LAYER_6
  2
AIGNBL0602003C
 70
64
 10
0
 20
0
 30
0
  3
AIGNBL0602003C
  0
POLYLINE
  8
LAYER_6
 40
0.7056
 41
0.7056
 66
1
 10
0
 20
0
 30
0
  0
VERTEX
  8
LAYER_6
 10
82.6236
 20
-169.2945
  0
SEQEND
  0
ENDBLK
  0
BLOCK
  8
LAYER_6
  2
AIGNBL0602003D
 70
64
 10
0
 20
0
 30
0
  3
AIGNBL0602003D
  0
POLYLINE
  8
LAYER_6
 40
0.7056
 41
0.7056
 66
1
 10
0
 20
0
 30
0
  0
VERTEX
  8
LAYER_6
 10
78.8534
 20
-189.4945
  0
SEQEND
  0
ENDBLK
  0
BLOCK
  8
LAYER_6
  2
AIGNBL0602003E
 70
64
 10
0
 20
0
 30
0
  3
AIGNBL0602003E
  0
POLYLINE
  8
LAYER_6
 40
0.7056
 41
0.7056
 66
1
 10
0
 20
0
 30
0
  0
VERTEX
  8
LAYER_6
 10
68.3534
 20
-189.4945
  0
SEQEND
  0
ENDBLK
  0
BLOCK
  8
LAYER_6
  2
AIGNBL06020040
 70
64
 10
0
 20
0
 30
0
  3
AIGNBL06020040
  0
POLYLINE
  8
LAYER_6
 40
0.0353
 41
0.0353
 66
1
 10
0
 20
0
 30
0
  0
VERTEX
  8
LAYER_6
 10
74.1034
 20
-71.854
  0
VERTEX
  8
LAYER_6
 10
74.3534
 20
-70.354
  0
SEQEND
  0
POLYLINE
  8
LAYER_6
 40
0.0353
 41
0.0353
 66
1
 10
0
 20
0
 30
0
  0
VERTEX
  8
LAYER_6
 10
74.3534
 20
-71.854
  0
VERTEX
  8
LAYER_6
 10
74.3534
 20
-70.354
  0
VERTEX
  8
LAYER_6
 10
74.6034
 20
-71.854
  0
SEQEND
  0
ENDBLK
  0
BLOCK
  8
LAYER_6
  2
AIGNBL06020041
 70
64
 10
0
 20
0
 30
0
  3
AIGNBL06020041
  0
POLYLINE
  8
LAYER_6
 40
0.0353
 41
0.0353
 66
1
 10
0
 20
0
 30
0
  0
VERTEX
  8
LAYER_6
 10
74.6034
 20
-115.3319
  0
VERTEX
  8
LAYER_6
 10
74.3534
 20
-116.8319
  0
SEQEND
  0
POLYLINE
  8
LAYER_6
 40
0.0353
 41
0.0353
 66
1
 10
0
 20
0
 30
0
  0
VERTEX
  8
LAYER_6
 10
74.3534
 20
-115.3319
  0
VERTEX
  8
LAYER_6
 10
74.3534
 20
-116.8319
  0
VERTEX
  8
LAYER_6
 10
74.1034
 20
-115.3319
  0
SEQEND
  0
ENDBLK
  0
BLOCK
  8
LAYER_6
  2
AIGNBL06020042
 70
64
 10
0
 20
0
 30
0
  3
AIGNBL06020042
  0
POLYLINE
  8
LAYER_6
 40
0.7056
 41
0.7056
 66
1
 10
0
 20
0
 30
0
  0
VERTEX
  8
LAYER_6
 10
84.8534
 20
-70.354
  0
SEQEND
  0
ENDBLK
  0
BLOCK
  8
LAYER_6
  2
AIGNBL06020043
 70
64
 10
0
 20
0
 30
0
  3
AIGNBL06020043
  0
POLYLINE
  8
LAYER_6
 40
0.7056
 41
0.7056
 66
1
 10
0
 20
0
 30
0
  0
VERTEX
  8
LAYER_6
 10
81.0134
 20
-116.8319
  0
SEQEND
  0
ENDBLK
  0
BLOCK
  8
LAYER_6
  2
AIGNBL06020044
 70
64
 10
0
 20
0
 30
0
  3
AIGNBL06020044
  0
POLYLINE
  8
LAYER_6
 40
0.7056
 41
0.7056
 66
1
 10
0
 20
0
 30
0
  0
VERTEX
  8
LAYER_6
 10
74.3534
 20
-116.8319
  0
SEQEND
  0
ENDBLK
  0
BLOCK
  8
LAYER_6
  2
AIGNBL06020046
 70
64
 10
0
 20
0
 30
0
  3
AIGNBL06020046
  0
POLYLINE
  8
LAYER_6
 40
0.0353
 41
0.0353
 66
1
 10
0
 20
0
 30
0
  0
VERTEX
  8
LAYER_6
 10
134.0833
 20
-115.3274
  0
VERTEX
  8
LAYER_6
 10
133.8333
 20
-116.8274
  0
SEQEND
  0
POLYLINE
  8
LAYER_6
 40
0.0353
 41
0.0353
 66
1
 10
0
 20
0
 30
0
  0
VERTEX
  8
LAYER_6
 10
133.8333
 20
-115.3274
  0
VERTEX
  8
LAYER_6
 10
133.8333
 20
-116.8274
  0
VERTEX
  8
LAYER_6
 10
133.5833
 20
-115.3274
  0
SEQEND
  0
ENDBLK
  0
BLOCK
  8
LAYER_6
  2
AIGNBL06020047
 70
64
 10
0
 20
0
 30
0
  3
AIGNBL06020047
  0
POLYLINE
  8
LAYER_6
 40
0.0353
 41
0.0353
 66
1
 10
0
 20
0
 30
0
  0
VERTEX
  8
LAYER_6
 10
133.5833
 20
-89.7466
  0
VERTEX
  8
LAYER_6
 10
133.8333
 20
-88.2466
  0
SEQEND
  0
POLYLINE
  8
LAYER_6
 40
0.0353
 41
0.0353
 66
1
 10
0
 20
0
 30
0
  0
VERTEX
  8
LAYER_6
 10
133.8333
 20
-89.7466
  0
VERTEX
  8
LAYER_6
 10
133.8333
 20
-88.2466
  0
VERTEX
  8
LAYER_6
 10
134.0833
 20
-89.7466
  0
SEQEND
  0
ENDBLK
  0
BLOCK
  8
LAYER_6
  2
AIGNBL06020048
 70
64
 10
0
 20
0
 30
0
  3
AIGNBL06020048
  0
POLYLINE
  8
LAYER_6
 40
0.7056
 41
0.7056
 66
1
 10
0
 20
0
 30
0
  0
VERTEX
  8
LAYER_6
 10
170.7079
 20
-116.8274
  0
SEQEND
  0
ENDBLK
  0
BLOCK
  8
LAYER_6
  2
AIGNBL06020049
 70
64
 10
0
 20
0
 30
0
  3
AIGNBL06020049
  0
POLYLINE
  8
LAYER_6
 40
0.7056
 41
0.7056
 66
1
 10
0
 20
0
 30
0
  0
VERTEX
  8
LAYER_6
 10
147.8333
 20
-88.2466
  0
SEQEND
  0
ENDBLK
  0
BLOCK
  8
LAYER_6
  2
AIGNBL0602004A
 70
64
 10
0
 20
0
 30
0
  3
AIGNBL0602004A
  0
POLYLINE
  8
LAYER_6
 40
0.7056
 41
0.7056
 66
1
 10
0
 20
0
 30
0
  0
VERTEX
  8
LAYER_6
 10
133.8333
 20
-88.2466
  0
SEQEND
  0
ENDBLK
  0
BLOCK
  8
LAYER_6
  2
AIGNBL0602004C
 70
64
 10
0
 20
0
 30
0
  3
AIGNBL0602004C
  0
POLYLINE
  8
LAYER_6
 40
0.0353
 41
0.0353
 66
1
 10
0
 20
0
 30
0
  0
VERTEX
  8
LAYER_6
 10
133.5833
 20
-118.3274
  0
VERTEX
  8
LAYER_6
 10
133.8333
 20
-116.8274
  0
SEQEND
  0
POLYLINE
  8
LAYER_6
 40
0.0353
 41
0.0353
 66
1
 10
0
 20
0
 30
0
  0
VERTEX
  8
LAYER_6
 10
133.8333
 20
-118.3274
  0
VERTEX
  8
LAYER_6
 10
133.8333
 20
-116.8274
  0
VERTEX
  8
LAYER_6
 10
134.0833
 20
-118.3274
  0
SEQEND
  0
ENDBLK
  0
BLOCK
  8
LAYER_6
  2
AIGNBL0602004D
 70
64
 10
0
 20
0
 30
0
  3
AIGNBL0602004D
  0
POLYLINE
  8
LAYER_6
 40
0.0353
 41
0.0353
 66
1
 10
0
 20
0
 30
0
  0
VERTEX
  8
LAYER_6
 10
134.0833
 20
-124.4274
  0
VERTEX
  8
LAYER_6
 10
133.8333
 20
-125.9274
  0
SEQEND
  0
POLYLINE
  8
LAYER_6
 40
0.0353
 41
0.0353
 66
1
 10
0
 20
0
 30
0
  0
VERTEX
  8
LAYER_6
 10
133.8333
 20
-124.4274
  0
VERTEX
  8
LAYER_6
 10
133.8333
 20
-125.9274
  0
VERTEX
  8
LAYER_6
 10
133.5833
 20
-124.4274
  0
SEQEND
  0
ENDBLK
  0
BLOCK
  8
LAYER_6
  2
AIGNBL0602004E
 70
64
 10
0
 20
0
 30
0
  3
AIGNBL0602004E
  0
POLYLINE
  8
LAYER_6
 40
0.7056
 41
0.7056
 66
1
 10
0
 20
0
 30
0
  0
VERTEX
  8
LAYER_6
 10
170.7079
 20
-116.8274
  0
SEQEND
  0
ENDBLK
  0
BLOCK
  8
LAYER_6
  2
AIGNBL0602004F
 70
64
 10
0
 20
0
 30
0
  3
AIGNBL0602004F
  0
POLYLINE
  8
LAYER_6
 40
0.7056
 41
0.7056
 66
1
 10
0
 20
0
 30
0
  0
VERTEX
  8
LAYER_6
 10
172.7524
 20
-125.9274
  0
SEQEND
  0
ENDBLK
  0
BLOCK
  8
LAYER_6
  2
AIGNBL06020050
 70
64
 10
0
 20
0
 30
0
  3
AIGNBL06020050
  0
POLYLINE
  8
LAYER_6
 40
0.7056
 41
0.7056
 66
1
 10
0
 20
0
 30
0
  0
VERTEX
  8
LAYER_6
 10
133.8333
 20
-125.9274
  0
SEQEND
  0
ENDBLK
  0
BLOCK
  8
LAYER_6
  2
AIGNBL06020052
 70
64
 10
0
 20
0
 30
0
  3
AIGNBL06020052
  0
POLYLINE
  8
LAYER_6
 40
0.0353
 41
0.0353
 66
1
 10
0
 20
0
 30
0
  0
VERTEX
  8
LAYER_6
 10
173.0479
 20
-99.0799
  0
VERTEX
  8
LAYER_6
 10
174.5479
 20
-99.3299
  0
SEQEND
  0
POLYLINE
  8
LAYER_6
 40
0.0353
 41
0.0353
 66
1
 10
0
 20
0
 30
0
  0
VERTEX
  8
LAYER_6
 10
173.0479
 20
-99.3299
  0
VERTEX
  8
LAYER_6
 10
174.5479
 20
-99.3299
  0
VERTEX
  8
LAYER_6
 10
173.0479
 20
-99.5799
  0
SEQEND
  0
ENDBLK
  0
BLOCK
  8
LAYER_6
  2
AIGNBL06020053
 70
64
 10
0
 20
0
 30
0
  3
AIGNBL06020053
  0
POLYLINE
  8
LAYER_6
 40
0.0353
 41
0.0353
 66
1
 10
0
 20
0
 30
0
  0
VERTEX
  8
LAYER_6
 10
149.3333
 20
-99.5799
  0
VERTEX
  8
LAYER_6
 10
147.8333
 20
-99.3299
  0
SEQEND
  0
POLYLINE
  8
LAYER_6
 40
0.0353
 41
0.0353
 66
1
 10
0
 20
0
 30
0
  0
VERTEX
  8
LAYER_6
 10
149.3333
 20
-99.3299
  0
VERTEX
  8
LAYER_6
 10
147.8333
 20
-99.3299
  0
VERTEX
  8
LAYER_6
 10
149.3333
 20
-99.0799
  0
SEQEND
  0
ENDBLK
  0
BLOCK
  8
LAYER_6
  2
AIGNBL06020054
 70
64
 10
0
 20
0
 30
0
  3
AIGNBL06020054
  0
POLYLINE
  8
LAYER_6
 40
0.7056
 41
0.7056
 66
1
 10
0
 20
0
 30
0
  0
VERTEX
  8
LAYER_6
 10
174.5479
 20
-103.2274
  0
SEQEND
  0
ENDBLK
  0
BLOCK
  8
LAYER_6
  2
AIGNBL06020055
 70
64
 10
0
 20
0
 30
0
  3
AIGNBL06020055
  0
POLYLINE
  8
LAYER_6
 40
0.7056
 41
0.7056
 66
1
 10
0
 20
0
 30
0
  0
VERTEX
  8
LAYER_6
 10
147.8333
 20
-90.0726
  0
SEQEND
  0
ENDBLK
  0
BLOCK
  8
LAYER_6
  2
AIGNBL06020056
 70
64
 10
0
 20
0
 30
0
  3
AIGNBL06020056
  0
POLYLINE
  8
LAYER_6
 40
0.7056
 41
0.7056
 66
1
 10
0
 20
0
 30
0
  0
VERTEX
  8
LAYER_6
 10
147.8333
 20
-99.3299
  0
SEQEND
  0
ENDBLK
  0
BLOCK
  8
LAYER_6
  2
AIGNBL06020058
 70
64
 10
0
 20
0
 30
0
  3
AIGNBL06020058
  0
POLYLINE
  8
LAYER_6
 40
0.0353
 41
0.0353
 66
1
 10
0
 20
0
 30
0
  0
VERTEX
  8
LAYER_6
 10
136.7817
 20
-108.4185
  0
VERTEX
  8
LAYER_6
 10
138.0071
 20
-109.319
  0
SEQEND
  0
POLYLINE
  8
LAYER_6
 40
0.0353
 41
0.0353
 66
1
 10
0
 20
0
 30
0
  0
VERTEX
  8
LAYER_6
 10
136.6688
 20
-108.6416
  0
VERTEX
  8
LAYER_6
 10
138.0071
 20
-109.319
  0
VERTEX
  8
LAYER_6
 10
136.5559
 20
-108.8646
  0
SEQEND
  0
ENDBLK
  0
BLOCK
  8
LAYER_6
  2
AIGNBL06020059
 70
64
 10
0
 20
0
 30
0
  3
AIGNBL06020059
  0
POLYLINE
  8
LAYER_6
 40
0.0353
 41
0.0353
 66
1
 10
0
 20
0
 30
0
  0
VERTEX
  8
LAYER_6
 10
149.3406
 20
-111.6989
  0
VERTEX
  8
LAYER_6
 10
147.8333
 20
-111.4975
  0
SEQEND
  0
POLYLINE
  8
LAYER_6
 40
0.0353
 41
0.0353
 66
1
 10
0
 20
0
 30
0
  0
VERTEX
  8
LAYER_6
 10
149.3326
 20
-111.4491
  0
VERTEX
  8
LAYER_6
 10
147.8333
 20
-111.4975
  0
VERTEX
  8
LAYER_6
 10
149.3245
 20
-111.1992
  0
SEQEND
  0
ENDBLK
  0
BLOCK
  8
LAYER_6
  2
AIGNBL0602005A
 70
64
 10
0
 20
0
 30
0
  3
AIGNBL0602005A
  0
POLYLINE
  8
LAYER_6
 40
0.7056
 41
0.7056
 66
1
 10
0
 20
0
 30
0
  0
VERTEX
  8
LAYER_6
 10
141.1649
 20
-110.5207
  0
SEQEND
  0
ENDBLK
  0
BLOCK
  8
LAYER_6
  2
AIGNBL0602005B
 70
64
 10
0
 20
0
 30
0
  3
AIGNBL0602005B
  0
POLYLINE
  8
LAYER_6
 40
0.7056
 41
0.7056
 66
1
 10
0
 20
0
 30
0
  0
VERTEX
  8
LAYER_6
 10
147.622
 20
-88.6997
  0
SEQEND
  0
ENDBLK
  0
BLOCK
  8
LAYER_6
  2
AIGNBL0602005C
 70
64
 10
0
 20
0
 30
0
  3
AIGNBL0602005C
  0
POLYLINE
  8
LAYER_6
 40
0.7056
 41
0.7056
 66
1
 10
0
 20
0
 30
0
  0
VERTEX
  8
LAYER_6
 10
147.8333
 20
-88.2466
  0
SEQEND
  0
ENDBLK
  0
BLOCK
  8
LAYER_6
  2
AIGNBL0602005D
 70
64
 10
0
 20
0
 30
0
  3
AIGNBL0602005D
  0
POLYLINE
  8
LAYER_6
 40
0.7056
 41
0.7056
 66
1
 10
0
 20
0
 30
0
  0
VERTEX
  8
LAYER_6
 10
147.8333
 20
-90.0726
  0
SEQEND
  0
ENDBLK
  0
BLOCK
  8
LAYER_6
  2
AIGNBL0602005E
 70
64
 10
0
 20
0
 30
0
  3
AIGNBL0602005E
  0
POLYLINE
  8
LAYER_6
 40
0.7056
 41
0.7056
 66
1
 10
0
 20
0
 30
0
  0
VERTEX
  8
LAYER_6
 10
152.5667
 20
-78.0959
  0
SEQEND
  0
ENDBLK
  0
BLOCK
  8
LAYER_6
  2
AIGNBL06020060
 70
64
 10
0
 20
0
 30
0
  3
AIGNBL06020060
  0
POLYLINE
  8
LAYER_6
 40
0.0353
 41
0.0353
 66
1
 10
0
 20
0
 30
0
  0
VERTEX
  8
LAYER_6
 10
158.8979
 20
-118.3274
  0
VERTEX
  8
LAYER_6
 10
159.1479
 20
-116.8274
  0
SEQEND
  0
POLYLINE
  8
LAYER_6
 40
0.0353
 41
0.0353
 66
1
 10
0
 20
0
 30
0
  0
VERTEX
  8
LAYER_6
 10
159.1479
 20
-118.3274
  0
VERTEX
  8
LAYER_6
 10
159.1479
 20
-116.8274
  0
VERTEX
  8
LAYER_6
 10
159.3979
 20
-118.3274
  0
SEQEND
  0
ENDBLK
  0
BLOCK
  8
LAYER_6
  2
AIGNBL06020061
 70
64
 10
0
 20
0
 30
0
  3
AIGNBL06020061
  0
POLYLINE
  8
LAYER_6
 40
0.0353
 41
0.0353
 66
1
 10
0
 20
0
 30
0
  0
VERTEX
  8
LAYER_6
 10
159.3979
 20
-120.6274
  0
VERTEX
  8
LAYER_6
 10
159.1479
 20
-122.1274
  0
SEQEND
  0
POLYLINE
  8
LAYER_6
 40
0.0353
 41
0.0353
 66
1
 10
0
 20
0
 30
0
  0
VERTEX
  8
LAYER_6
 10
159.1479
 20
-120.6274
  0
VERTEX
  8
LAYER_6
 10
159.1479
 20
-122.1274
  0
VERTEX
  8
LAYER_6
 10
158.8979
 20
-120.6274
  0
SEQEND
  0
ENDBLK
  0
BLOCK
  8
LAYER_6
  2
AIGNBL06020062
 70
64
 10
0
 20
0
 30
0
  3
AIGNBL06020062
  0
POLYLINE
  8
LAYER_6
 40
0.7056
 41
0.7056
 66
1
 10
0
 20
0
 30
0
  0
VERTEX
  8
LAYER_6
 10
174.5479
 20
-122.1274
  0
SEQEND
  0
ENDBLK
  0
BLOCK
  8
LAYER_6
  2
AIGNBL06020063
 70
64
 10
0
 20
0
 30
0
  3
AIGNBL06020063
  0
POLYLINE
  8
LAYER_6
 40
0.7056
 41
0.7056
 66
1
 10
0
 20
0
 30
0
  0
VERTEX
  8
LAYER_6
 10
174.5479
 20
-116.8274
  0
SEQEND
  0
ENDBLK
  0
BLOCK
  8
LAYER_6
  2
AIGNBL06020064
 70
64
 10
0
 20
0
 30
0
  3
AIGNBL06020064
  0
POLYLINE
  8
LAYER_6
 40
0.7056
 41
0.7056
 66
1
 10
0
 20
0
 30
0
  0
VERTEX
  8
LAYER_6
 10
159.1479
 20
-116.8274
  0
SEQEND
  0
ENDBLK
  0
BLOCK
  8
LAYER_6
  2
AIGNBL06020066
 70
64
 10
0
 20
0
 30
0
  3
AIGNBL06020066
  0
POLYLINE
  8
LAYER_6
 40
0.0353
 41
0.0353
 66
1
 10
0
 20
0
 30
0
  0
VERTEX
  8
LAYER_6
 10
172.4479
 20
-208.4889
  0
VERTEX
  8
LAYER_6
 10
173.9479
 20
-208.7389
  0
SEQEND
  0
POLYLINE
  8
LAYER_6
 40
0.0353
 41
0.0353
 66
1
 10
0
 20
0
 30
0
  0
VERTEX
  8
LAYER_6
 10
172.4479
 20
-208.7389
  0
VERTEX
  8
LAYER_6
 10
173.9479
 20
-208.7389
  0
VERTEX
  8
LAYER_6
 10
172.4479
 20
-208.9889
  0
SEQEND
  0
ENDBLK
  0
BLOCK
  8
LAYER_6
  2
AIGNBL06020067
 70
64
 10
0
 20
0
 30
0
  3
AIGNBL06020067
  0
POLYLINE
  8
LAYER_6
 40
0.0353
 41
0.0353
 66
1
 10
0
 20
0
 30
0
  0
VERTEX
  8
LAYER_6
 10
179.1479
 20
-208.9889
  0
VERTEX
  8
LAYER_6
 10
177.6479
 20
-208.7389
  0
SEQEND
  0
POLYLINE
  8
LAYER_6
 40
0.0353
 41
0.0353
 66
1
 10
0
 20
0
 30
0
  0
VERTEX
  8
LAYER_6
 10
179.1479
 20
-208.7389
  0
VERTEX
  8
LAYER_6
 10
177.6479
 20
-208.7389
  0
VERTEX
  8
LAYER_6
 10
179.1479
 20
-208.4889
  0
SEQEND
  0
ENDBLK
  0
BLOCK
  8
LAYER_6
  2
AIGNBL06020068
 70
64
 10
0
 20
0
 30
0
  3
AIGNBL06020068
  0
POLYLINE
  8
LAYER_6
 40
0.7056
 41
0.7056
 66
1
 10
0
 20
0
 30
0
  0
VERTEX
  8
LAYER_6
 10
173.9479
 20
-197.87
  0
SEQEND
  0
ENDBLK
  0
BLOCK
  8
LAYER_6
  2
AIGNBL06020069
 70
64
 10
0
 20
0
 30
0
  3
AIGNBL06020069
  0
POLYLINE
  8
LAYER_6
 40
0.7056
 41
0.7056
 66
1
 10
0
 20
0
 30
0
  0
VERTEX
  8
LAYER_6
 10
177.6479
 20
-198.67
  0
SEQEND
  0
ENDBLK
  0
BLOCK
  8
LAYER_6
  2
AIGNBL0602006A
 70
64
 10
0
 20
0
 30
0
  3
AIGNBL0602006A
  0
POLYLINE
  8
LAYER_6
 40
0.7056
 41
0.7056
 66
1
 10
0
 20
0
 30
0
  0
VERTEX
  8
LAYER_6
 10
177.6479
 20
-208.7389
  0
SEQEND
  0
ENDBLK
  0
BLOCK
  8
LAYER_1
  2
AIGNBL01010002
 70
64
 10
0
 20
0
 30
0
  3
AIGNBL01010002
  0
INSERT
  8
LAYER_1
  2
AIGNBL01020003
 10
0
 20
0
 30
0
  0
INSERT
  8
LAYER_1
  2
AIGNBL0102000C
 10
0
 20
0
 30
0
  0
ENDBLK
  0
BLOCK
  8
LAYER_6
  2
AIGNBL06010002
 70
64
 10
0
 20
0
 30
0
  3
AIGNBL06010002
  0
POLYLINE
  8
LAYER_6
 40
0.7056
 41
0.7056
 66
1
 10
0
 20
0
 30
0
 70
1
  0
VERTEX
  8
LAYER_6
 10
33.7873
 20
22.6587
  0
VERTEX
  8
LAYER_6
 10
230.7955
 20
22.6587
  0
VERTEX
  8
LAYER_6
 10
230.7955
 20
-259.334
  0
VERTEX
  8
LAYER_6
 10
33.7873
 20
-259.334
  0
SEQEND
  0
ENDBLK
  0
BLOCK
  8
LAYER_6
  2
AIGNBL06010003
 70
64
 10
0
 20
0
 30
0
  3
AIGNBL06010003
  0
POLYLINE
  8
LAYER_6
 40
0.0353
 41
0.0353
 66
1
 10
0
 20
0
 30
0
  0
VERTEX
  8
LAYER_6
 10
78.3534
 20
-171.6945
  0
VERTEX
  8
LAYER_6
 10
78.3534
 20
-157.2992
  0
SEQEND
  0
POLYLINE
  8
LAYER_6
 40
0.0353
 41
0.0353
 66
1
 10
0
 20
0
 30
0
  0
VERTEX
  8
LAYER_6
 10
91.3534
 20
-171.6945
  0
VERTEX
  8
LAYER_6
 10
91.3534
 20
-157.2992
  0
SEQEND
  0
POLYLINE
  8
LAYER_6
 40
0.0353
 41
0.0353
 66
1
 10
0
 20
0
 30
0
  0
VERTEX
  8
LAYER_6
 10
79.8534
 20
-159.2992
  0
VERTEX
  8
LAYER_6
 10
89.8534
 20
-159.2992
  0
SEQEND
  0
INSERT
  8
LAYER_6
  2
AIGNBL06020004
 10
0
 20
0
 30
0
  0
INSERT
  8
LAYER_6
  2
AIGNBL06020005
 10
0
 20
0
 30
0
  0
TEXT
  8
LAYER_6
 10
91.2308
 20
-158.0915
 11
91.2308
 21
-158.0915
 40
3.7084
 41
0.5
 72
1
  1
65
  0
INSERT
  8
LAYER_6
  2
AIGNBL06020006
 10
0
 20
0
 30
0
  0
INSERT
  8
LAYER_6
  2
AIGNBL06020007
 10
0
 20
0
 30
0
  0
INSERT
  8
LAYER_6
  2
AIGNBL06020008
 10
0
 20
0
 30
0
  0
ENDBLK
  0
BLOCK
  8
LAYER_6
  2
AIGNBL06010009
 70
64
 10
0
 20
0
 30
0
  3
AIGNBL06010009
  0
POLYLINE
  8
LAYER_6
 40
0.0353
 41
0.0353
 66
1
 10
0
 20
0
 30
0
  0
VERTEX
  8
LAYER_6
 10
80.9534
 20
-116.7719
  0
VERTEX
  8
LAYER_6
 10
80.9534
 20
-121.4845
  0
SEQEND
  0
POLYLINE
  8
LAYER_6
 40
0.0353
 41
0.0353
 66
1
 10
0
 20
0
 30
0
  0
VERTEX
  8
LAYER_6
 10
88.7534
 20
-116.7719
  0
VERTEX
  8
LAYER_6
 10
88.7534
 20
-121.4845
  0
SEQEND
  0
POLYLINE
  8
LAYER_6
 40
0.0353
 41
0.0353
 66
1
 10
0
 20
0
 30
0
  0
VERTEX
  8
LAYER_6
 10
82.4534
 20
-119.4845
  0
VERTEX
  8
LAYER_6
 10
87.2534
 20
-119.4845
  0
SEQEND
  0
POLYLINE
  8
LAYER_6
 40
0.0353
 41
0.0353
 66
1
 10
0
 20
0
 30
0
  0
VERTEX
  8
LAYER_6
 10
88.7534
 20
-119.4845
  0
VERTEX
  8
LAYER_6
 10
97.6414
 20
-119.4845
  0
SEQEND
  0
INSERT
  8
LAYER_6
  2
AIGNBL0602000A
 10
0
 20
0
 30
0
  0
INSERT
  8
LAYER_6
  2
AIGNBL0602000B
 10
0
 20
0
 30
0
  0
TEXT
  8
LAYER_6
 10
95.929
 20
-118.1828
 11
95.929
 21
-118.1828
 40
3.7084
 41
0.5
 72
1
  1
φ39
  0
INSERT
  8
LAYER_6
  2
AIGNBL0602000C
 10
0
 20
0
 30
0
  0
INSERT
  8
LAYER_6
  2
AIGNBL0602000D
 10
0
 20
0
 30
0
  0
INSERT
  8
LAYER_6
  2
AIGNBL0602000E
 10
0
 20
0
 30
0
  0
ENDBLK
  0
BLOCK
  8
LAYER_6
  2
AIGNBL0601000F
 70
64
 10
0
 20
0
 30
0
  3
AIGNBL0601000F
  0
POLYLINE
  8
LAYER_6
 40
0.0353
 41
0.0353
 66
1
 10
0
 20
0
 30
0
  0
VERTEX
  8
LAYER_6
 10
82.3134
 20
-103.2919
  0
VERTEX
  8
LAYER_6
 10
82.3134
 20
-99.2319
  0
SEQEND
  0
POLYLINE
  8
LAYER_6
 40
0.0353
 41
0.0353
 66
1
 10
0
 20
0
 30
0
  0
VERTEX
  8
LAYER_6
 10
87.3934
 20
-103.2919
  0
VERTEX
  8
LAYER_6
 10
87.3934
 20
-99.2319
  0
SEQEND
  0
POLYLINE
  8
LAYER_6
 40
0.0353
 41
0.0353
 66
1
 10
0
 20
0
 30
0
  0
VERTEX
  8
LAYER_6
 10
83.8134
 20
-101.2319
  0
VERTEX
  8
LAYER_6
 10
85.8934
 20
-101.2319
  0
SEQEND
  0
POLYLINE
  8
LAYER_6
 40
0.0353
 41
0.0353
 66
1
 10
0
 20
0
 30
0
  0
VERTEX
  8
LAYER_6
 10
87.3934
 20
-101.2319
  0
VERTEX
  8
LAYER_6
 10
100.0894
 20
-101.2319
  0
SEQEND
  0
INSERT
  8
LAYER_6
  2
AIGNBL06020010
 10
0
 20
0
 30
0
  0
INSERT
  8
LAYER_6
  2
AIGNBL06020011
 10
0
 20
0
 30
0
  0
TEXT
  8
LAYER_6
 10
95.663
 20
-99.9302
 11
95.663
 21
-99.9302
 40
3.7084
 41
0.5
 72
1
  1
φ25.4
  0
INSERT
  8
LAYER_6
  2
AIGNBL06020012
 10
0
 20
0
 30
0
  0
INSERT
  8
LAYER_6
  2
AIGNBL06020013
 10
0
 20
0
 30
0
  0
INSERT
  8
LAYER_6
  2
AIGNBL06020014
 10
0
 20
0
 30
0
  0
ENDBLK
  0
BLOCK
  8
LAYER_6
  2
AIGNBL06010015
 70
64
 10
0
 20
0
 30
0
  3
AIGNBL06010015
  0
POLYLINE
  8
LAYER_6
 40
0.0353
 41
0.0353
 66
1
 10
0
 20
0
 30
0
  0
VERTEX
  8
LAYER_6
 10
169.1479
 20
-171.8323
  0
VERTEX
  8
LAYER_6
 10
169.1479
 20
-157.2947
  0
SEQEND
  0
POLYLINE
  8
LAYER_6
 40
0.0353
 41
0.0353
 66
1
 10
0
 20
0
 30
0
  0
VERTEX
  8
LAYER_6
 10
185.9479
 20
-171.19
  0
VERTEX
  8
LAYER_6
 10
185.9479
 20
-157.2947
  0
SEQEND
  0
POLYLINE
  8
LAYER_6
 40
0.0353
 41
0.0353
 66
1
 10
0
 20
0
 30
0
  0
VERTEX
  8
LAYER_6
 10
170.6479
 20
-159.2947
  0
VERTEX
  8
LAYER_6
 10
184.4479
 20
-159.2947
  0
SEQEND
  0
INSERT
  8
LAYER_6
  2
AIGNBL06020016
 10
0
 20
0
 30
0
  0
INSERT
  8
LAYER_6
  2
AIGNBL06020017
 10
0
 20
0
 30
0
  0
TEXT
  8
LAYER_6
 10
180.2334
 20
-158.087
 11
180.2334
 21
-158.087
 40
3.7084
 41
0.5
 72
1
  1
84
  0
INSERT
  8
LAYER_6
  2
AIGNBL06020018
 10
0
 20
0
 30
0
  0
INSERT
  8
LAYER_6
  2
AIGNBL06020019
 10
0
 20
0
 30
0
  0
INSERT
  8
LAYER_6
  2
AIGNBL0602001A
 10
0
 20
0
 30
0
  0
ENDBLK
  0
BLOCK
  8
LAYER_6
  2
AIGNBL0601001B
 70
64
 10
0
 20
0
 30
0
  3
AIGNBL0601001B
  0
POLYLINE
  8
LAYER_6
 40
0.0353
 41
0.0353
 66
1
 10
0
 20
0
 30
0
  0
VERTEX
  8
LAYER_6
 10
173.9479
 20
-171.2947
  0
VERTEX
  8
LAYER_6
 10
173.9479
 20
-163.1901
  0
SEQEND
  0
POLYLINE
  8
LAYER_6
 40
0.0353
 41
0.0353
 66
1
 10
0
 20
0
 30
0
  0
VERTEX
  8
LAYER_6
 10
185.9403
 20
-171.1901
  0
VERTEX
  8
LAYER_6
 10
185.9403
 20
-163.1901
  0
SEQEND
  0
POLYLINE
  8
LAYER_6
 40
0.0353
 41
0.0353
 66
1
 10
0
 20
0
 30
0
  0
VERTEX
  8
LAYER_6
 10
175.4479
 20
-165.1901
  0
VERTEX
  8
LAYER_6
 10
184.4403
 20
-165.1901
  0
SEQEND
  0
POLYLINE
  8
LAYER_6
 40
0.0353
 41
0.0353
 66
1
 10
0
 20
0
 30
0
  0
VERTEX
  8
LAYER_6
 10
185.9403
 20
-165.1901
  0
VERTEX
  8
LAYER_6
 10
196.2325
 20
-165.1901
  0
SEQEND
  0
INSERT
  8
LAYER_6
  2
AIGNBL0602001C
 10
0
 20
0
 30
0
  0
INSERT
  8
LAYER_6
  2
AIGNBL0602001D
 10
0
 20
0
 30
0
  0
TEXT
  8
LAYER_6
 10
193.9919
 20
-163.8882
 11
193.9919
 21
-163.8882
 40
3.7084
 41
0.5
 72
1
  1
（60）
  0
INSERT
  8
LAYER_6
  2
AIGNBL0602001E
 10
0
 20
0
 30
0
  0
INSERT
  8
LAYER_6
  2
AIGNBL0602001F
 10
0
 20
0
 30
0
  0
INSERT
  8
LAYER_6
  2
AIGNBL06020020
 10
0
 20
0
 30
0
  0
ENDBLK
  0
BLOCK
  8
LAYER_6
  2
AIGNBL06010021
 70
64
 10
0
 20
0
 30
0
  3
AIGNBL06010021
  0
POLYLINE
  8
LAYER_6
 40
0.0353
 41
0.0353
 66
1
 10
0
 20
0
 30
0
  0
VERTEX
  8
LAYER_6
 10
169.1479
 20
-171.8323
  0
VERTEX
  8
LAYER_6
 10
169.1479
 20
-163.206
  0
SEQEND
  0
POLYLINE
  8
LAYER_6
 40
0.0353
 41
0.0353
 66
1
 10
0
 20
0
 30
0
  0
VERTEX
  8
LAYER_6
 10
173.9479
 20
-171.2947
  0
VERTEX
  8
LAYER_6
 10
173.9479
 20
-163.206
  0
SEQEND
  0
POLYLINE
  8
LAYER_6
 40
0.0353
 41
0.0353
 66
1
 10
0
 20
0
 30
0
  0
VERTEX
  8
LAYER_6
 10
172.4479
 20
-165.206
  0
VERTEX
  8
LAYER_6
 10
170.6479
 20
-165.206
  0
SEQEND
  0
POLYLINE
  8
LAYER_6
 40
0.0353
 41
0.0353
 66
1
 10
0
 20
0
 30
0
  0
VERTEX
  8
LAYER_6
 10
169.1479
 20
-165.206
  0
VERTEX
  8
LAYER_6
 10
158.8557
 20
-165.206
  0
SEQEND
  0
INSERT
  8
LAYER_6
  2
AIGNBL06020022
 10
0
 20
0
 30
0
  0
INSERT
  8
LAYER_6
  2
AIGNBL06020023
 10
0
 20
0
 30
0
  0
TEXT
  8
LAYER_6
 10
165.4073
 20
-163.9041
 11
165.4073
 21
-163.9041
 40
3.7084
 41
0.5
 72
1
  1
（24）
  0
INSERT
  8
LAYER_6
  2
AIGNBL06020024
 10
0
 20
0
 30
0
  0
INSERT
  8
LAYER_6
  2
AIGNBL06020025
 10
0
 20
0
 30
0
  0
INSERT
  8
LAYER_6
  2
AIGNBL06020026
 10
0
 20
0
 30
0
  0
ENDBLK
  0
BLOCK
  8
LAYER_6
  2
AIGNBL06010027
 70
64
 10
0
 20
0
 30
0
  3
AIGNBL06010027
  0
POLYLINE
  8
LAYER_6
 40
0.0353
 41
0.0353
 66
1
 10
0
 20
0
 30
0
  0
VERTEX
  8
LAYER_6
 10
174.9732
 20
-196.7389
  0
VERTEX
  8
LAYER_6
 10
157.1479
 20
-196.7389
  0
SEQEND
  0
POLYLINE
  8
LAYER_6
 40
0.0353
 41
0.0353
 66
1
 10
0
 20
0
 30
0
  0
VERTEX
  8
LAYER_6
 10
171.7436
 20
-169.3389
  0
VERTEX
  8
LAYER_6
 10
157.1479
 20
-169.3389
  0
SEQEND
  0
POLYLINE
  8
LAYER_6
 40
0.0353
 41
0.0353
 66
1
 10
0
 20
0
 30
0
  0
VERTEX
  8
LAYER_6
 10
159.1479
 20
-195.2389
  0
VERTEX
  8
LAYER_6
 10
159.1479
 20
-170.8389
  0
SEQEND
  0
INSERT
  8
LAYER_6
  2
AIGNBL06020028
 10
0
 20
0
 30
0
  0
INSERT
  8
LAYER_6
  2
AIGNBL06020029
 10
0
 20
0
 30
0
  0
TEXT
  8
LAYER_6
 10
157.8461
 20
-180.6664
 11
157.8461
 21
-180.6664
 40
3.7084
 41
0.5
 50
89.99999999
 72
1
  1
（137）
  0
INSERT
  8
LAYER_6
  2
AIGNBL0602002A
 10
0
 20
0
 30
0
  0
INSERT
  8
LAYER_6
  2
AIGNBL0602002B
 10
0
 20
0
 30
0
  0
INSERT
  8
LAYER_6
  2
AIGNBL0602002C
 10
0
 20
0
 30
0
  0
ENDBLK
  0
BLOCK
  8
LAYER_6
  2
AIGNBL0601002D
 70
64
 10
0
 20
0
 30
0
  3
AIGNBL0601002D
  0
POLYLINE
  8
LAYER_6
 40
0.0353
 41
0.0353
 66
1
 10
0
 20
0
 30
0
  0
VERTEX
  8
LAYER_6
 10
174.5479
 20
-85.3695
  0
VERTEX
  8
LAYER_6
 10
174.5479
 20
-60.3495
  0
SEQEND
  0
POLYLINE
  8
LAYER_6
 40
0.0353
 41
0.0353
 66
1
 10
0
 20
0
 30
0
  0
VERTEX
  8
LAYER_6
 10
144.87
 20
-86.7103
  0
VERTEX
  8
LAYER_6
 10
144.87
 20
-60.3495
  0
SEQEND
  0
POLYLINE
  8
LAYER_6
 40
0.0353
 41
0.0353
 66
1
 10
0
 20
0
 30
0
  0
VERTEX
  8
LAYER_6
 10
173.0479
 20
-62.3495
  0
VERTEX
  8
LAYER_6
 10
146.37
 20
-62.3495
  0
SEQEND
  0
INSERT
  8
LAYER_6
  2
AIGNBL0602002E
 10
0
 20
0
 30
0
  0
INSERT
  8
LAYER_6
  2
AIGNBL0602002F
 10
0
 20
0
 30
0
  0
TEXT
  8
LAYER_6
 10
162.0817
 20
-61.0478
 11
162.0817
 21
-61.0478
 40
3.7084
 41
0.5
 72
1
  1
（148）
  0
INSERT
  8
LAYER_6
  2
AIGNBL06020030
 10
0
 20
0
 30
0
  0
INSERT
  8
LAYER_6
  2
AIGNBL06020031
 10
0
 20
0
 30
0
  0
INSERT
  8
LAYER_6
  2
AIGNBL06020032
 10
0
 20
0
 30
0
  0
ENDBLK
  0
BLOCK
  8
LAYER_6
  2
AIGNBL06010033
 70
64
 10
0
 20
0
 30
0
  3
AIGNBL06010033
  0
POLYLINE
  8
LAYER_6
 40
0.0353
 41
0.0353
 66
1
 10
0
 20
0
 30
0
  0
VERTEX
  8
LAYER_6
 10
78.8534
 20
-171.1945
  0
VERTEX
  8
LAYER_6
 10
72.3534
 20
-171.1945
  0
SEQEND
  0
POLYLINE
  8
LAYER_6
 40
0.0353
 41
0.0353
 66
1
 10
0
 20
0
 30
0
  0
VERTEX
  8
LAYER_6
 10
78.8534
 20
-189.4945
  0
VERTEX
  8
LAYER_6
 10
72.3534
 20
-189.4945
  0
SEQEND
  0
POLYLINE
  8
LAYER_6
 40
0.0353
 41
0.0353
 66
1
 10
0
 20
0
 30
0
  0
VERTEX
  8
LAYER_6
 10
74.3534
 20
-172.6945
  0
VERTEX
  8
LAYER_6
 10
74.3534
 20
-187.9945
  0
SEQEND
  0
INSERT
  8
LAYER_6
  2
AIGNBL06020034
 10
0
 20
0
 30
0
  0
INSERT
  8
LAYER_6
  2
AIGNBL06020035
 10
0
 20
0
 30
0
  0
TEXT
  8
LAYER_6
 10
73.1457
 20
-178.4686
 11
73.1457
 21
-178.4686
 40
3.7084
 41
0.5
 50
89.99999999
 72
1
  1
91.5
  0
INSERT
  8
LAYER_6
  2
AIGNBL06020036
 10
0
 20
0
 30
0
  0
INSERT
  8
LAYER_6
  2
AIGNBL06020037
 10
0
 20
0
 30
0
  0
INSERT
  8
LAYER_6
  2
AIGNBL06020038
 10
0
 20
0
 30
0
  0
ENDBLK
  0
BLOCK
  8
LAYER_6
  2
AIGNBL06010039
 70
64
 10
0
 20
0
 30
0
  3
AIGNBL06010039
  0
POLYLINE
  8
LAYER_6
 40
0.0353
 41
0.0353
 66
1
 10
0
 20
0
 30
0
  0
VERTEX
  8
LAYER_6
 10
82.6236
 20
-169.2945
  0
VERTEX
  8
LAYER_6
 10
66.3534
 20
-169.2945
  0
SEQEND
  0
POLYLINE
  8
LAYER_6
 40
0.0353
 41
0.0353
 66
1
 10
0
 20
0
 30
0
  0
VERTEX
  8
LAYER_6
 10
78.8534
 20
-189.4945
  0
VERTEX
  8
LAYER_6
 10
66.3534
 20
-189.4945
  0
SEQEND
  0
POLYLINE
  8
LAYER_6
 40
0.0353
 41
0.0353
 66
1
 10
0
 20
0
 30
0
  0
VERTEX
  8
LAYER_6
 10
68.3534
 20
-170.7945
  0
VERTEX
  8
LAYER_6
 10
68.3534
 20
-187.9945
  0
SEQEND
  0
INSERT
  8
LAYER_6
  2
AIGNBL0602003A
 10
0
 20
0
 30
0
  0
INSERT
  8
LAYER_6
  2
AIGNBL0602003B
 10
0
 20
0
 30
0
  0
TEXT
  8
LAYER_6
 10
67.1457
 20
-176.3162
 11
67.1457
 21
-176.3162
 40
3.7084
 41
0.5
 50
89.99999999
 72
1
  1
101
  0
INSERT
  8
LAYER_6
  2
AIGNBL0602003C
 10
0
 20
0
 30
0
  0
INSERT
  8
LAYER_6
  2
AIGNBL0602003D
 10
0
 20
0
 30
0
  0
INSERT
  8
LAYER_6
  2
AIGNBL0602003E
 10
0
 20
0
 30
0
  0
ENDBLK
  0
BLOCK
  8
LAYER_6
  2
AIGNBL0601003F
 70
64
 10
0
 20
0
 30
0
  3
AIGNBL0601003F
  0
POLYLINE
  8
LAYER_6
 40
0.0353
 41
0.0353
 66
1
 10
0
 20
0
 30
0
  0
VERTEX
  8
LAYER_6
 10
84.8534
 20
-70.354
  0
VERTEX
  8
LAYER_6
 10
72.3534
 20
-70.354
  0
SEQEND
  0
POLYLINE
  8
LAYER_6
 40
0.0353
 41
0.0353
 66
1
 10
0
 20
0
 30
0
  0
VERTEX
  8
LAYER_6
 10
81.0134
 20
-116.8319
  0
VERTEX
  8
LAYER_6
 10
72.3534
 20
-116.8319
  0
SEQEND
  0
POLYLINE
  8
LAYER_6
 40
0.0353
 41
0.0353
 66
1
 10
0
 20
0
 30
0
  0
VERTEX
  8
LAYER_6
 10
74.3534
 20
-71.854
  0
VERTEX
  8
LAYER_6
 10
74.3534
 20
-115.3319
  0
SEQEND
  0
INSERT
  8
LAYER_6
  2
AIGNBL06020040
 10
0
 20
0
 30
0
  0
INSERT
  8
LAYER_6
  2
AIGNBL06020041
 10
0
 20
0
 30
0
  0
TEXT
  8
LAYER_6
 10
73.0517
 20
-91.2202
 11
73.0517
 21
-91.2202
 40
3.7084
 41
0.5
 50
89.99999999
 72
1
  1
（232）
  0
INSERT
  8
LAYER_6
  2
AIGNBL06020042
 10
0
 20
0
 30
0
  0
INSERT
  8
LAYER_6
  2
AIGNBL06020043
 10
0
 20
0
 30
0
  0
INSERT
  8
LAYER_6
  2
AIGNBL06020044
 10
0
 20
0
 30
0
  0
ENDBLK
  0
BLOCK
  8
LAYER_6
  2
AIGNBL06010045
 70
64
 10
0
 20
0
 30
0
  3
AIGNBL06010045
  0
POLYLINE
  8
LAYER_6
 40
0.0353
 41
0.0353
 66
1
 10
0
 20
0
 30
0
  0
VERTEX
  8
LAYER_6
 10
170.7079
 20
-116.8274
  0
VERTEX
  8
LAYER_6
 10
131.8333
 20
-116.8274
  0
SEQEND
  0
POLYLINE
  8
LAYER_6
 40
0.0353
 41
0.0353
 66
1
 10
0
 20
0
 30
0
  0
VERTEX
  8
LAYER_6
 10
147.8333
 20
-88.2466
  0
VERTEX
  8
LAYER_6
 10
131.8333
 20
-88.2466
  0
SEQEND
  0
POLYLINE
  8
LAYER_6
 40
0.0353
 41
0.0353
 66
1
 10
0
 20
0
 30
0
  0
VERTEX
  8
LAYER_6
 10
133.8333
 20
-115.3274
  0
VERTEX
  8
LAYER_6
 10
133.8333
 20
-89.7466
  0
SEQEND
  0
INSERT
  8
LAYER_6
  2
AIGNBL06020046
 10
0
 20
0
 30
0
  0
INSERT
  8
LAYER_6
  2
AIGNBL06020047
 10
0
 20
0
 30
0
  0
TEXT
  8
LAYER_6
 10
132.5316
 20
-100.1643
 11
132.5316
 21
-100.1643
 40
3.7084
 41
0.5
 50
89.99999999
 72
1
  1
（143）
  0
INSERT
  8
LAYER_6
  2
AIGNBL06020048
 10
0
 20
0
 30
0
  0
INSERT
  8
LAYER_6
  2
AIGNBL06020049
 10
0
 20
0
 30
0
  0
INSERT
  8
LAYER_6
  2
AIGNBL0602004A
 10
0
 20
0
 30
0
  0
ENDBLK
  0
BLOCK
  8
LAYER_6
  2
AIGNBL0601004B
 70
64
 10
0
 20
0
 30
0
  3
AIGNBL0601004B
  0
POLYLINE
  8
LAYER_6
 40
0.0353
 41
0.0353
 66
1
 10
0
 20
0
 30
0
  0
VERTEX
  8
LAYER_6
 10
170.7079
 20
-116.8274
  0
VERTEX
  8
LAYER_6
 10
131.8333
 20
-116.8274
  0
SEQEND
  0
POLYLINE
  8
LAYER_6
 40
0.0353
 41
0.0353
 66
1
 10
0
 20
0
 30
0
  0
VERTEX
  8
LAYER_6
 10
172.7524
 20
-125.9274
  0
VERTEX
  8
LAYER_6
 10
131.8333
 20
-125.9274
  0
SEQEND
  0
POLYLINE
  8
LAYER_6
 40
0.0353
 41
0.0353
 66
1
 10
0
 20
0
 30
0
  0
VERTEX
  8
LAYER_6
 10
133.8333
 20
-118.3274
  0
VERTEX
  8
LAYER_6
 10
133.8333
 20
-124.4274
  0
SEQEND
  0
POLYLINE
  8
LAYER_6
 40
0.0353
 41
0.0353
 66
1
 10
0
 20
0
 30
0
  0
VERTEX
  8
LAYER_6
 10
133.8333
 20
-125.9274
  0
VERTEX
  8
LAYER_6
 10
133.8333
 20
-136.2434
  0
SEQEND
  0
INSERT
  8
LAYER_6
  2
AIGNBL0602004C
 10
0
 20
0
 30
0
  0
INSERT
  8
LAYER_6
  2
AIGNBL0602004D
 10
0
 20
0
 30
0
  0
TEXT
  8
LAYER_6
 10
132.6256
 20
-129.9596
 11
132.6256
 21
-129.9596
 40
3.7084
 41
0.5
 50
89.99999999
 72
1
  1
45.5
  0
INSERT
  8
LAYER_6
  2
AIGNBL0602004E
 10
0
 20
0
 30
0
  0
INSERT
  8
LAYER_6
  2
AIGNBL0602004F
 10
0
 20
0
 30
0
  0
INSERT
  8
LAYER_6
  2
AIGNBL06020050
 10
0
 20
0
 30
0
  0
ENDBLK
  0
BLOCK
  8
LAYER_6
  2
AIGNBL06010051
 70
64
 10
0
 20
0
 30
0
  3
AIGNBL06010051
  0
POLYLINE
  8
LAYER_6
 40
0.0353
 41
0.0353
 66
1
 10
0
 20
0
 30
0
  0
VERTEX
  8
LAYER_6
 10
174.5479
 20
-103.2274
  0
VERTEX
  8
LAYER_6
 10
174.5479
 20
-97.3299
  0
SEQEND
  0
POLYLINE
  8
LAYER_6
 40
0.0353
 41
0.0353
 66
1
 10
0
 20
0
 30
0
  0
VERTEX
  8
LAYER_6
 10
147.8333
 20
-90.0726
  0
VERTEX
  8
LAYER_6
 10
147.8333
 20
-101.3299
  0
SEQEND
  0
POLYLINE
  8
LAYER_6
 40
0.0353
 41
0.0353
 66
1
 10
0
 20
0
 30
0
  0
VERTEX
  8
LAYER_6
 10
173.0479
 20
-99.3299
  0
VERTEX
  8
LAYER_6
 10
149.3333
 20
-99.3299
  0
SEQEND
  0
INSERT
  8
LAYER_6
  2
AIGNBL06020052
 10
0
 20
0
 30
0
  0
INSERT
  8
LAYER_6
  2
AIGNBL06020053
 10
0
 20
0
 30
0
  0
TEXT
  8
LAYER_6
 10
163.5631
 20
-98.0283
 11
163.5631
 21
-98.0283
 40
3.7084
 41
0.5
 72
1
  1
（134）
  0
INSERT
  8
LAYER_6
  2
AIGNBL06020054
 10
0
 20
0
 30
0
  0
INSERT
  8
LAYER_6
  2
AIGNBL06020055
 10
0
 20
0
 30
0
  0
INSERT
  8
LAYER_6
  2
AIGNBL06020056
 10
0
 20
0
 30
0
  0
ENDBLK
  0
BLOCK
  8
LAYER_6
  2
AIGNBL06010057
 70
64
 10
0
 20
0
 30
0
  3
AIGNBL06010057
  0
POLYLINE
  8
LAYER_6
 40
0.0353
 41
0.0353
 66
1
 10
0
 20
0
 30
0
  0
VERTEX
  8
LAYER_6
 10
147.622
 20
-88.6997
  0
VERTEX
  8
LAYER_6
 10
137.1619
 20
-111.1316
  0
SEQEND
  0
POLYLINE
  8
LAYER_6
 40
0.0353
 41
0.0353
 66
1
 10
0
 20
0
 30
0
  0
VERTEX
  8
LAYER_6
 10
147.8333
 20
-90.0726
  0
VERTEX
  8
LAYER_6
 10
147.8333
 20
-113.4975
  0
SEQEND
  0
POLYLINE
  8
LAYER_6
 40
0.0353
 41
0.0353
 66
1
 10
0
 20
0
 30
0
  0
VERTEX
  8
LAYER_6
 10
135.3769
 20
-107.8792
 42
0.01632839589
  0
VERTEX
  8
LAYER_6
 10
136.6688
 20
-108.6416
  0
SEQEND
  0
POLYLINE
  8
LAYER_6
 40
0.0353
 41
0.0353
 66
1
 10
0
 20
0
 30
0
  0
VERTEX
  8
LAYER_6
 10
149.3326
 20
-111.4491
 42
0.01635495254
  0
VERTEX
  8
LAYER_6
 10
150.8255
 20
-111.3041
  0
SEQEND
  0
POLYLINE
  8
LAYER_6
 40
0.0353
 41
0.0353
 66
1
 10
0
 20
0
 30
0
  0
VERTEX
  8
LAYER_6
 10
138.0071
 20
-109.319
 42
0.1095174261
  0
VERTEX
  8
LAYER_6
 10
147.8333
 20
-111.4975
  0
SEQEND
  0
INSERT
  8
LAYER_6
  2
AIGNBL06020058
 10
0
 20
0
 30
0
  0
INSERT
  8
LAYER_6
  2
AIGNBL06020059
 10
0
 20
0
 30
0
  0
INSERT
  8
LAYER_6
  2
AIGNBL0602005A
 10
0
 20
0
 30
0
  0
INSERT
  8
LAYER_6
  2
AIGNBL0602005B
 10
0
 20
0
 30
0
  0
INSERT
  8
LAYER_6
  2
AIGNBL0602005C
 10
0
 20
0
 30
0
  0
INSERT
  8
LAYER_6
  2
AIGNBL0602005D
 10
0
 20
0
 30
0
  0
INSERT
  8
LAYER_6
  2
AIGNBL0602005E
 10
0
 20
0
 30
0
  0
ENDBLK
  0
BLOCK
  8
LAYER_6
  2
AIGNBL0601005F
 70
64
 10
0
 20
0
 30
0
  3
AIGNBL0601005F
  0
POLYLINE
  8
LAYER_6
 40
0.0353
 41
0.0353
 66
1
 10
0
 20
0
 30
0
  0
VERTEX
  8
LAYER_6
 10
174.5479
 20
-122.1274
  0
VERTEX
  8
LAYER_6
 10
157.1479
 20
-122.1274
  0
SEQEND
  0
POLYLINE
  8
LAYER_6
 40
0.0353
 41
0.0353
 66
1
 10
0
 20
0
 30
0
  0
VERTEX
  8
LAYER_6
 10
174.5479
 20
-116.8274
  0
VERTEX
  8
LAYER_6
 10
157.1479
 20
-116.8274
  0
SEQEND
  0
POLYLINE
  8
LAYER_6
 40
0.0353
 41
0.0353
 66
1
 10
0
 20
0
 30
0
  0
VERTEX
  8
LAYER_6
 10
159.1479
 20
-118.3274
  0
VERTEX
  8
LAYER_6
 10
159.1479
 20
-120.6274
  0
SEQEND
  0
POLYLINE
  8
LAYER_6
 40
0.0353
 41
0.0353
 66
1
 10
0
 20
0
 30
0
  0
VERTEX
  8
LAYER_6
 10
159.1479
 20
-122.1274
  0
VERTEX
  8
LAYER_6
 10
159.1479
 20
-150.7755
  0
SEQEND
  0
INSERT
  8
LAYER_6
  2
AIGNBL06020060
 10
0
 20
0
 30
0
  0
INSERT
  8
LAYER_6
  2
AIGNBL06020061
 10
0
 20
0
 30
0
  0
TEXT
  8
LAYER_6
 10
157.8461
 20
-135.2391
 11
157.8461
 21
-135.2391
 40
3.253
 41
0.5
 50
89.99999999
 72
1
  1
取付板厚５～３０
  0
INSERT
  8
LAYER_6
  2
AIGNBL06020062
 10
0
 20
0
 30
0
  0
INSERT
  8
LAYER_6
  2
AIGNBL06020063
 10
0
 20
0
 30
0
  0
INSERT
  8
LAYER_6
  2
AIGNBL06020064
 10
0
 20
0
 30
0
  0
ENDBLK
  0
BLOCK
  8
LAYER_6
  2
AIGNBL06010065
 70
64
 10
0
 20
0
 30
0
  3
AIGNBL06010065
  0
POLYLINE
  8
LAYER_6
 40
0.0353
 41
0.0353
 66
1
 10
0
 20
0
 30
0
  0
VERTEX
  8
LAYER_6
 10
173.9479
 20
-197.87
  0
VERTEX
  8
LAYER_6
 10
173.9479
 20
-210.7389
  0
SEQEND
  0
POLYLINE
  8
LAYER_6
 40
0.0353
 41
0.0353
 66
1
 10
0
 20
0
 30
0
  0
VERTEX
  8
LAYER_6
 10
177.6479
 20
-198.67
  0
VERTEX
  8
LAYER_6
 10
177.6479
 20
-210.7389
  0
SEQEND
  0
POLYLINE
  8
LAYER_6
 40
0.0353
 41
0.0353
 66
1
 10
0
 20
0
 30
0
  0
VERTEX
  8
LAYER_6
 10
172.4479
 20
-208.7389
  0
VERTEX
  8
LAYER_6
 10
170.9479
 20
-208.7389
  0
SEQEND
  0
POLYLINE
  8
LAYER_6
 40
0.0353
 41
0.0353
 66
1
 10
0
 20
0
 30
0
  0
VERTEX
  8
LAYER_6
 10
179.1479
 20
-208.7389
  0
VERTEX
  8
LAYER_6
 10
189.1069
 20
-208.7389
  0
SEQEND
  0
POLYLINE
  8
LAYER_6
 40
0.0353
 41
0.0353
 66
1
 10
0
 20
0
 30
0
  0
VERTEX
  8
LAYER_6
 10
173.9479
 20
-208.7389
  0
VERTEX
  8
LAYER_6
 10
177.6479
 20
-208.7389
  0
SEQEND
  0
INSERT
  8
LAYER_6
  2
AIGNBL06020066
 10
0
 20
0
 30
0
  0
INSERT
  8
LAYER_6
  2
AIGNBL06020067
 10
0
 20
0
 30
0
  0
TEXT
  8
LAYER_6
 10
186.7532
 20
-207.531
 11
186.7532
 21
-207.531
 40
3.7084
 41
0.5
 72
1
  1
18.5
  0
INSERT
  8
LAYER_6
  2
AIGNBL06020068
 10
0
 20
0
 30
0
  0
INSERT
  8
LAYER_6
  2
AIGNBL06020069
 10
0
 20
0
 30
0
  0
INSERT
  8
LAYER_6
  2
AIGNBL0602006A
 10
0
 20
0
 30
0
  0
ENDBLK
  0
ENDSEC
  0
SECTION
  2
ENTITIES
  0
INSERT
  8
LAYER_1
  2
AIGNBL01010002
 10
0
 20
0
 30
0
  0
TEXT
  8
LAYER_1
 10
475.3901
 20
-256.1093
 11
475.3901
 21
-256.1093
 40
2.8236
 41
0.5
  1
　　　　　　　　
  0
TEXT
  8
LAYER_1
 10
144.1136
 20
-109.6632
 11
144.1136
 21
-109.6632
 40
3.7084
 41
0.5
 50
347.8407756
 72
1
  1
25°
  0
TEXT
  8
LAYER_1
 10
199.4829
 20
-116.7517
 11
199.4829
 21
-116.7517
 40
3.7084
 41
0.5
 72
1
  1
取付穴径22025
  0
TEXT
  8
LAYER_1
 10
100.3234
 20
-206.8882
 11
100.3234
 21
-206.8882
 40
3.258
 41
0.5
  1
コード全長：1900mm
  0
TEXT
  8
LAYER_1
 10
195.401
 20
-133.336
 11
195.401
 21
-133.336
 40
3.258
 41
0.5
  1
コード全長：360mm
  0
TEXT
  8
LAYER_1
 10
195.3597
 20
-154.5321
 11
195.3597
 21
-154.5321
 40
3.258
 41
0.5
  1
コード全長：260mm
  0
POLYLINE
  8
LAYER_1
 40
0.0882
 41
0.0882
 66
1
 10
0
 20
0
 30
0
  0
VERTEX
  8
LAYER_1
 10
219.173
 20
-156.0984
  0
VERTEX
  8
LAYER_1
 10
196.6404
 20
-156.0984
  0
VERTEX
  8
LAYER_1
 10
192.3774
 20
-154.4745
  0
SEQEND
  0
POLYLINE
  8
LAYER_1
 40
0.0882
 41
0.0882
 66
1
 10
0
 20
0
 30
0
  0
VERTEX
  8
LAYER_1
 10
120.2972
 20
-138.8769
  0
VERTEX
  8
LAYER_1
 10
89.7231
 20
-138.8769
  0
VERTEX
  8
LAYER_1
 10
85.4602
 20
-137.2529
  0
SEQEND
  0
POLYLINE
  8
LAYER_1
 40
0.0882
 41
0.0882
 66
1
 10
0
 20
0
 30
0
  0
VERTEX
  8
LAYER_1
 10
219.2143
 20
-134.9155
  0
VERTEX
  8
LAYER_1
 10
196.6817
 20
-134.9155
  0
VERTEX
  8
LAYER_1
 10
192.4187
 20
-133.2916
  0
SEQEND
  0
POLYLINE
  8
LAYER_1
 40
0.0882
 41
0.0882
 66
1
 10
0
 20
0
 30
0
  0
VERTEX
  8
LAYER_1
 10
125.6011
 20
-207.7436
  0
VERTEX
  8
LAYER_1
 10
99.719
 20
-207.7436
  0
VERTEX
  8
LAYER_1
 10
93.6291
 20
-200.5372
  0
SEQEND
  0
TEXT
  8
LAYER_1
 10
90.4288
 20
-137.2305
 11
90.4288
 21
-137.2305
 40
3.258
 41
0.5
  1
給水ホース長さ：800mm
  0
INSERT
  8
LAYER_6
  2
AIGNBL06010002
 10
0
 20
0
 30
0
  0
POLYLINE
  8
LAYER_6
 40
0.3528
 41
0.3528
 66
1
 10
0
 20
0
 30
0
  0
VERTEX
  8
LAYER_6
 10
34.7876
 20
-258.3332
  0
VERTEX
  8
LAYER_6
 10
229.7955
 20
-258.3332
  0
VERTEX
  8
LAYER_6
 10
229.7955
 20
21.6583
  0
VERTEX
  8
LAYER_6
 10
34.7876
 20
21.6583
  0
VERTEX
  8
LAYER_6
 10
34.7876
 20
-258.3332
  0
SEQEND
  0
TEXT
  8
LAYER_6
 10
166.4505
 20
-248.7955
 11
166.4505
 21
-248.7955
 40
3.3853
 41
0.5
  1
●TEL 0120-65-1232●FAX 06-6532-1580
  0
TEXT
  8
LAYER_6
 10
166.4505
 20
-252.3102
 11
166.4505
 21
-252.3102
 40
3.3853
 41
0.5
  1
hits@hiratatile.co.jp
  0
TEXT
  8
LAYER_6
 10
218.9756
 20
18.4461
 11
218.9756
 21
18.4461
 40
2.0732
 41
0.5
  1
190703RT
  0
TEXT
  8
LAYER_6
 10
37.8495
 20
-250.3797
 11
37.8495
 21
-250.3797
 40
3.2995
 41
0.5
  1
仕様
  0
POLYLINE
  8
LAYER_6
 40
0.3528
 41
0.3528
 66
1
 10
0
 20
0
 30
0
  0
VERTEX
  8
LAYER_6
 10
229.7955
 20
-241.6001
  0
VERTEX
  8
LAYER_6
 10
34.7874
 20
-241.6001
  0
SEQEND
  0
POLYLINE
  8
LAYER_6
 40
0.3528
 41
0.3528
 66
1
 10
0
 20
0
 30
0
  0
VERTEX
  8
LAYER_6
 10
229.7955
 20
-233.091
  0
VERTEX
  8
LAYER_6
 10
34.7874
 20
-233.091
  0
SEQEND
  0
TEXT
  8
LAYER_6
 10
35.9444
 20
-235.5675
 11
35.9444
 21
-235.5675
 40
2.1997
 41
0.5
  1
品名
  0
TEXT
  8
LAYER_6
 10
48.7874
 20
-238.6599
 11
48.7874
 21
-238.6599
 40
4.1465
 41
0.5
  1
センサー式単水栓（AC100V）
  0
TEXT
  8
LAYER_6
 10
48.4217
 20
-250.3883
 11
48.4217
 21
-250.3883
 40
3.1177
 41
0.5
  1
●排水金具別途
  0
TEXT
  8
LAYER_6
 10
137.3906
 20
-235.5677
 11
137.3906
 21
-235.5677
 40
2.1997
 41
0.5
  1
品番
  0
TEXT
  8
LAYER_6
 10
143.4126
 20
-240.0443
 11
143.4126
 21
-240.0443
 40
5.9385
 41
0.5
  1
AQ-E1700L2(M4)(M5)(S)(BN)
  0
INSERT
  8
LAYER_6
  2
AIGNBL06010003
 10
0
 20
0
 30
0
  0
INSERT
  8
LAYER_6
  2
AIGNBL06010009
 10
0
 20
0
 30
0
  0
INSERT
  8
LAYER_6
  2
AIGNBL0601000F
 10
0
 20
0
 30
0
  0
INSERT
  8
LAYER_6
  2
AIGNBL06010015
 10
0
 20
0
 30
0
  0
INSERT
  8
LAYER_6
  2
AIGNBL0601001B
 10
0
 20
0
 30
0
  0
INSERT
  8
LAYER_6
  2
AIGNBL06010021
 10
0
 20
0
 30
0
  0
INSERT
  8
LAYER_6
  2
AIGNBL06010027
 10
0
 20
0
 30
0
  0
INSERT
  8
LAYER_6
  2
AIGNBL0601002D
 10
0
 20
0
 30
0
  0
INSERT
  8
LAYER_6
  2
AIGNBL06010033
 10
0
 20
0
 30
0
  0
INSERT
  8
LAYER_6
  2
AIGNBL06010039
 10
0
 20
0
 30
0
  0
INSERT
  8
LAYER_6
  2
AIGNBL0601003F
 10
0
 20
0
 30
0
  0
INSERT
  8
LAYER_6
  2
AIGNBL06010045
 10
0
 20
0
 30
0
  0
INSERT
  8
LAYER_6
  2
AIGNBL0601004B
 10
0
 20
0
 30
0
  0
INSERT
  8
LAYER_6
  2
AIGNBL06010051
 10
0
 20
0
 30
0
  0
INSERT
  8
LAYER_6
  2
AIGNBL06010057
 10
0
 20
0
 30
0
  0
INSERT
  8
LAYER_6
  2
AIGNBL0601005F
 10
0
 20
0
 30
0
  0
INSERT
  8
LAYER_6
  2
AIGNBL06010065
 10
0
 20
0
 30
0
  0
POLYLINE
  8
LAYER_6
 40
0.0353
 41
0.0353
 66
1
 10
0
 20
0
 30
0
  0
VERTEX
  8
LAYER_6
 10
82.3134
 20
-35.3274
 42
0.170442221
  0
VERTEX
  8
LAYER_6
 10
82.6972
 20
-36.4001
 42
0.09421345547
  0
VERTEX
  8
LAYER_6
 10
83.3337
 20
-36.953
 42
0.08492263935
  0
VERTEX
  8
LAYER_6
 10
84.2186
 20
-37.2921
 42
0.0507587206
  0
VERTEX
  8
LAYER_6
 10
84.8534
 20
-37.356
 42
0.08591533599
  0
VERTEX
  8
LAYER_6
 10
85.8987
 20
-37.1768
 42
0.08598030259
  0
VERTEX
  8
LAYER_6
 10
86.692
 20
-36.727
 42
0.09800527599
  0
VERTEX
  8
LAYER_6
 10
87.2057
 20
-36.0942
 42
0.1177095975
  0
VERTEX
  8
LAYER_6
 10
87.3934
 20
-35.3274
  0
SEQEND
  0
POLYLINE
  8
LAYER_6
 40
0.2469
 41
0.2469
 66
1
 10
0
 20
0
 30
0
  0
VERTEX
  8
LAYER_6
 10
172.1479
 20
-122.3274
  0
VERTEX
  8
LAYER_6
 10
172.1479
 20
-123.6274
  0
SEQEND
  0
POLYLINE
  8
LAYER_6
 40
0.2469
 41
0.2469
 66
1
 10
0
 20
0
 30
0
  0
VERTEX
  8
LAYER_6
 10
176.9479
 20
-122.3274
  0
VERTEX
  8
LAYER_6
 10
176.9479
 20
-123.6274
  0
SEQEND
  0
POLYLINE
  8
LAYER_6
 40
0.2469
 41
0.2469
 66
1
 10
0
 20
0
 30
0
  0
VERTEX
  8
LAYER_6
 10
176.721
 20
-122.3274
  0
VERTEX
  8
LAYER_6
 10
176.721
 20
-123.6274
  0
SEQEND
  0
POLYLINE
  8
LAYER_6
 40
0.2469
 41
0.2469
 66
1
 10
0
 20
0
 30
0
  0
VERTEX
  8
LAYER_6
 10
172.3748
 20
-122.3274
  0
VERTEX
  8
LAYER_6
 10
172.3748
 20
-123.6274
  0
SEQEND
  0
POLYLINE
  8
LAYER_6
 40
0.2469
 41
0.2469
 66
1
 10
0
 20
0
 30
0
  0
VERTEX
  8
LAYER_6
 10
174.321
 20
-122.3274
  0
VERTEX
  8
LAYER_6
 10
174.321
 20
-123.6274
  0
SEQEND
  0
POLYLINE
  8
LAYER_6
 40
0.2469
 41
0.2469
 66
1
 10
0
 20
0
 30
0
  0
VERTEX
  8
LAYER_6
 10
174.7748
 20
-122.3274
  0
VERTEX
  8
LAYER_6
 10
174.7748
 20
-123.6274
  0
SEQEND
  0
POLYLINE
  8
LAYER_6
 40
0.0353
 41
0.0353
 66
1
 10
0
 20
0
 30
0
  0
VERTEX
  8
LAYER_6
 10
176.6434
 20
-121.7274
  0
VERTEX
  8
LAYER_6
 10
176.6434
 20
-117.2274
  0
SEQEND
  0
POLYLINE
  8
LAYER_6
 40
0.0353
 41
0.0353
 66
1
 10
0
 20
0
 30
0
  0
VERTEX
  8
LAYER_6
 10
176.411
 20
-124.7274
  0
VERTEX
  8
LAYER_6
 10
176.411
 20
-123.6274
  0
SEQEND
  0
POLYLINE
  8
LAYER_6
 40
0.0353
 41
0.0353
 66
1
 10
0
 20
0
 30
0
  0
VERTEX
  8
LAYER_6
 10
176.411
 20
-117.5274
  0
VERTEX
  8
LAYER_6
 10
176.6434
 20
-117.5274
  0
VERTEX
  8
LAYER_6
 10
174.5479
 20
-117.5274
  0
SEQEND
  0
POLYLINE
  8
LAYER_6
 40
0.1482
 41
0.1482
 66
1
 10
0
 20
0
 30
0
  0
VERTEX
  8
LAYER_6
 10
178.3286
 20
-114.7704
 42
-0.2972243741
  0
VERTEX
  8
LAYER_6
 10
178.4479
 20
-114.9534
  0
VERTEX
  8
LAYER_6
 10
178.4479
 20
-116.7674
  0
SEQEND
  0
POLYLINE
  8
LAYER_6
 40
0.0353
 41
0.0353
 66
1
 10
0
 20
0
 30
0
  0
VERTEX
  8
LAYER_6
 10
176.5842
 20
-117.2274
  0
VERTEX
  8
LAYER_6
 10
176.411
 20
-117.5274
  0
VERTEX
  8
LAYER_6
 10
176.411
 20
-121.7274
  0
SEQEND
  0
POLYLINE
  8
LAYER_6
 40
0.0353
 41
0.0353
 66
1
 10
0
 20
0
 30
0
  0
VERTEX
  8
LAYER_6
 10
178.3286
 20
-114.7704
  0
VERTEX
  8
LAYER_6
 10
177.0979
 20
-114.2274
  0
VERTEX
  8
LAYER_6
 10
176.6479
 20
-114.2274
  0
SEQEND
  0
POLYLINE
  8
LAYER_6
 40
0.0353
 41
0.0353
 66
1
 10
0
 20
0
 30
0
  0
VERTEX
  8
LAYER_6
 10
172.4524
 20
-121.7274
  0
VERTEX
  8
LAYER_6
 10
172.4524
 20
-117.2274
  0
SEQEND
  0
POLYLINE
  8
LAYER_6
 40
0.0353
 41
0.0353
 66
1
 10
0
 20
0
 30
0
  0
VERTEX
  8
LAYER_6
 10
172.6848
 20
-124.7274
  0
VERTEX
  8
LAYER_6
 10
172.6848
 20
-123.6274
  0
SEQEND
  0
POLYLINE
  8
LAYER_6
 40
0.0353
 41
0.0353
 66
1
 10
0
 20
0
 30
0
 70
1
  0
VERTEX
  8
LAYER_6
 10
172.4524
 20
-117.5274
  0
VERTEX
  8
LAYER_6
 10
174.5479
 20
-117.5274
  0
SEQEND
  0
POLYLINE
  8
LAYER_6
 40
0.1482
 41
0.1482
 66
1
 10
0
 20
0
 30
0
  0
VERTEX
  8
LAYER_6
 10
170.7672
 20
-114.7704
 42
0.2971940224
  0
VERTEX
  8
LAYER_6
 10
170.6479
 20
-114.9534
  0
VERTEX
  8
LAYER_6
 10
170.6479
 20
-116.7674
  0
SEQEND
  0
POLYLINE
  8
LAYER_6
 40
0.0353
 41
0.0353
 66
1
 10
0
 20
0
 30
0
  0
VERTEX
  8
LAYER_6
 10
172.5116
 20
-117.2274
  0
VERTEX
  8
LAYER_6
 10
172.6848
 20
-117.5274
  0
VERTEX
  8
LAYER_6
 10
172.6848
 20
-121.7274
  0
SEQEND
  0
POLYLINE
  8
LAYER_6
 40
0.0353
 41
0.0353
 66
1
 10
0
 20
0
 30
0
  0
VERTEX
  8
LAYER_6
 10
176.7179
 20
-103.2274
  0
VERTEX
  8
LAYER_6
 10
177.0279
 20
-103.2274
 42
-0.3923136174
  0
VERTEX
  8
LAYER_6
 10
177.0879
 20
-103.2874
  0
VERTEX
  8
LAYER_6
 10
177.0879
 20
-114.1674
 42
-0.3923136174
  0
VERTEX
  8
LAYER_6
 10
177.0279
 20
-114.2274
  0
VERTEX
  8
LAYER_6
 10
174.5479
 20
-114.2274
  0
VERTEX
  8
LAYER_6
 10
171.9979
 20
-114.2274
  0
VERTEX
  8
LAYER_6
 10
170.7672
 20
-114.7704
  0
SEQEND
  0
POLYLINE
  8
LAYER_6
 40
0.0353
 41
0.0353
 66
1
 10
0
 20
0
 30
0
  0
VERTEX
  8
LAYER_6
 10
172.3779
 20
-103.2274
  0
VERTEX
  8
LAYER_6
 10
172.0679
 20
-103.2274
 42
0.3923136174
  0
VERTEX
  8
LAYER_6
 10
172.0079
 20
-103.2874
  0
VERTEX
  8
LAYER_6
 10
172.0079
 20
-114.1674
 42
0.3923136174
  0
VERTEX
  8
LAYER_6
 10
172.0679
 20
-114.2274
  0
VERTEX
  8
LAYER_6
 10
172.4479
 20
-114.2274
  0
SEQEND
  0
POLYLINE
  8
LAYER_6
 40
0.0353
 41
0.0353
 66
1
 10
0
 20
0
 30
0
  0
VERTEX
  8
LAYER_6
 10
145.015
 20
-86.7779
  0
VERTEX
  8
LAYER_6
 10
144.87
 20
-86.7103
  0
VERTEX
  8
LAYER_6
 10
144.9376
 20
-86.5652
  0
SEQEND
  0
POLYLINE
  8
LAYER_6
 40
0.0353
 41
0.0353
 66
1
 10
0
 20
0
 30
0
  0
VERTEX
  8
LAYER_6
 10
172.4524
 20
-123.6274
  0
VERTEX
  8
LAYER_6
 10
172.4524
 20
-124.7274
  0
VERTEX
  8
LAYER_6
 10
172.7479
 20
-124.7274
  0
VERTEX
  8
LAYER_6
 10
172.7479
 20
-125.9229
  0
VERTEX
  8
LAYER_6
 10
172.7524
 20
-125.9274
  0
VERTEX
  8
LAYER_6
 10
174.5479
 20
-125.9274
  0
VERTEX
  8
LAYER_6
 10
176.3434
 20
-125.9274
  0
VERTEX
  8
LAYER_6
 10
176.3479
 20
-125.9229
  0
VERTEX
  8
LAYER_6
 10
176.3479
 20
-124.7274
  0
VERTEX
  8
LAYER_6
 10
176.6434
 20
-124.7274
  0
VERTEX
  8
LAYER_6
 10
176.6434
 20
-123.6274
  0
SEQEND
  0
POLYLINE
  8
LAYER_6
 40
0.0353
 41
0.0353
 66
1
 10
0
 20
0
 30
0
  0
VERTEX
  8
LAYER_6
 10
150.6151
 20
-86.4101
  0
VERTEX
  8
LAYER_6
 10
150.6951
 20
-86.4268
 42
0.291390049
  0
VERTEX
  8
LAYER_6
 10
150.8763
 20
-86.3113
  0
VERTEX
  8
LAYER_6
 10
151.1299
 20
-85.7675
  0
VERTEX
  8
LAYER_6
 10
151.1486
 20
-85.683
 42
0.2847057058
  0
VERTEX
  8
LAYER_6
 10
151.0377
 20
-85.5039
  0
SEQEND
  0
POLYLINE
  8
LAYER_6
 40
0.0353
 41
0.0353
 66
1
 10
0
 20
0
 30
0
  0
VERTEX
  8
LAYER_6
 10
149.2055
 20
-88.732
 42
-0.2507770047
  0
VERTEX
  8
LAYER_6
 10
149.0701
 20
-88.8067
  0
VERTEX
  8
LAYER_6
 10
149.0025
 20
-88.7917
  0
VERTEX
  8
LAYER_6
 10
147.8333
 20
-88.2466
  0
VERTEX
  8
LAYER_6
 10
146.6642
 20
-87.7014
 42
-0.2914441131
  0
VERTEX
  8
LAYER_6
 10
146.5718
 20
-87.5564
  0
VERTEX
  8
LAYER_6
 10
146.5795
 20
-87.5074
  0
SEQEND
  0
POLYLINE
  8
LAYER_6
 40
0.0353
 41
0.0353
 66
1
 10
0
 20
0
 30
0
  0
VERTEX
  8
LAYER_6
 10
177.0879
 20
-103.1674
  0
VERTEX
  8
LAYER_6
 10
177.0879
 20
-85.3695
  0
SEQEND
  0
POLYLINE
  8
LAYER_6
 40
0.0353
 41
0.0353
 66
1
 10
0
 20
0
 30
0
  0
VERTEX
  8
LAYER_6
 10
172.0079
 20
-103.1674
  0
VERTEX
  8
LAYER_6
 10
172.0079
 20
-85.3695
 42
0.4142138279
  0
VERTEX
  8
LAYER_6
 10
162.0679
 20
-75.4295
 42
0.2914737872
  0
VERTEX
  8
LAYER_6
 10
153.0592
 20
-81.1687
  0
VERTEX
  8
LAYER_6
 10
150.8264
 20
-85.957
  0
VERTEX
  8
LAYER_6
 10
149.5416
 20
-88.7121
 42
-0.2915657533
  0
VERTEX
  8
LAYER_6
 10
149.3966
 20
-88.8045
  0
VERTEX
  8
LAYER_6
 10
149.329
 20
-88.7895
  0
VERTEX
  8
LAYER_6
 10
147.172
 20
-87.7837
  0
VERTEX
  8
LAYER_6
 10
145.015
 20
-86.7779
 42
-0.2914622767
  0
VERTEX
  8
LAYER_6
 10
144.9226
 20
-86.6329
  0
VERTEX
  8
LAYER_6
 10
144.9376
 20
-86.5652
  0
VERTEX
  8
LAYER_6
 10
148.4552
 20
-79.0218
 42
-0.2914733431
  0
VERTEX
  8
LAYER_6
 10
162.0679
 20
-70.3495
 42
-0.4142137381
  0
VERTEX
  8
LAYER_6
 10
177.0879
 20
-85.3695
  0
VERTEX
  8
LAYER_6
 10
177.0879
 20
-103.1874
 42
-0.3930184733
  0
VERTEX
  8
LAYER_6
 10
177.0479
 20
-103.2274
  0
VERTEX
  8
LAYER_6
 10
174.5479
 20
-103.2274
  0
VERTEX
  8
LAYER_6
 10
172.0479
 20
-103.2274
 42
-0.3930184735
  0
VERTEX
  8
LAYER_6
 10
172.0079
 20
-103.1874
  0
VERTEX
  8
LAYER_6
 10
172.0079
 20
-85.3695
  0
SEQEND
  0
POLYLINE
  8
LAYER_6
 40
0.0353
 41
0.0353
 66
1
 10
0
 20
0
 30
0
  0
VERTEX
  8
LAYER_6
 10
174.8479
 20
-148.1325
  0
VERTEX
  8
LAYER_6
 10
174.8479
 20
-169.3118
  0
SEQEND
  0
POLYLINE
  8
LAYER_6
 40
0.0353
 41
0.0353
 66
1
 10
0
 20
0
 30
0
  0
VERTEX
  8
LAYER_6
 10
173.0479
 20
-125.9274
  0
VERTEX
  8
LAYER_6
 10
173.0479
 20
-147.1325
  0
SEQEND
  0
POLYLINE
  8
LAYER_6
 40
0.0353
 41
0.0353
 66
1
 10
0
 20
0
 30
0
  0
VERTEX
  8
LAYER_6
 10
173.0479
 20
-148.1325
  0
VERTEX
  8
LAYER_6
 10
173.0479
 20
-169.3275
  0
SEQEND
  0
POLYLINE
  8
LAYER_6
 40
0.0353
 41
0.0353
 66
1
 10
0
 20
0
 30
0
  0
VERTEX
  8
LAYER_6
 10
175.8479
 20
-126.1274
  0
VERTEX
  8
LAYER_6
 10
175.8479
 20
-128.9274
 42
0.4142130898
  0
VERTEX
  8
LAYER_6
 10
176.8479
 20
-129.9274
  0
VERTEX
  8
LAYER_6
 10
181.6879
 20
-129.9274
  0
SEQEND
  0
POLYLINE
  8
LAYER_6
 40
0.0353
 41
0.0353
 66
1
 10
0
 20
0
 30
0
  0
VERTEX
  8
LAYER_6
 10
181.6879
 20
-130.9274
  0
VERTEX
  8
LAYER_6
 10
176.8879
 20
-130.9274
 42
-0.414213331
  0
VERTEX
  8
LAYER_6
 10
174.8479
 20
-128.8874
  0
VERTEX
  8
LAYER_6
 10
174.8479
 20
-126.9274
  0
VERTEX
  8
LAYER_6
 10
174.8479
 20
-147.1325
  0
SEQEND
  0
POLYLINE
  8
LAYER_6
 40
0.0353
 41
0.0353
 66
1
 10
0
 20
0
 30
0
  0
VERTEX
  8
LAYER_6
 10
193.4601
 20
-140.4866
  0
VERTEX
  8
LAYER_6
 10
193.4601
 20
-139.6866
  0
VERTEX
  8
LAYER_6
 10
191.2601
 20
-139.6866
  0
VERTEX
  8
LAYER_6
 10
191.2601
 20
-140.4866
  0
SEQEND
  0
POLYLINE
  8
LAYER_6
 40
0.0353
 41
0.0353
 66
1
 10
0
 20
0
 30
0
 70
1
  0
VERTEX
  8
LAYER_6
 10
191.2601
 20
-142.2466
  0
VERTEX
  8
LAYER_6
 10
193.4601
 20
-142.2466
  0
VERTEX
  8
LAYER_6
 10
193.4601
 20
-144.8466
  0
VERTEX
  8
LAYER_6
 10
191.2601
 20
-144.8466
  0
SEQEND
  0
POLYLINE
  8
LAYER_6
 40
0.0353
 41
0.0353
 66
1
 10
0
 20
0
 30
0
  0
VERTEX
  8
LAYER_6
 10
193.2601
 20
-140.6866
  0
VERTEX
  8
LAYER_6
 10
193.2601
 20
-142.2466
  0
SEQEND
  0
POLYLINE
  8
LAYER_6
 40
0.0353
 41
0.0353
 66
1
 10
0
 20
0
 30
0
  0
VERTEX
  8
LAYER_6
 10
192.0301
 20
-144.8466
  0
VERTEX
  8
LAYER_6
 10
192.0301
 20
-143.4866
  0
VERTEX
  8
LAYER_6
 10
191.7301
 20
-143.4866
  0
VERTEX
  8
LAYER_6
 10
191.7301
 20
-144.8466
  0
SEQEND
  0
POLYLINE
  8
LAYER_6
 40
0.0353
 41
0.0353
 66
1
 10
0
 20
0
 30
0
  0
VERTEX
  8
LAYER_6
 10
192.9901
 20
-144.8466
  0
VERTEX
  8
LAYER_6
 10
192.9901
 20
-143.4866
  0
VERTEX
  8
LAYER_6
 10
192.6901
 20
-143.4866
  0
VERTEX
  8
LAYER_6
 10
192.6901
 20
-144.8466
  0
SEQEND
  0
POLYLINE
  8
LAYER_6
 40
0.0353
 41
0.0353
 66
1
 10
0
 20
0
 30
0
  0
VERTEX
  8
LAYER_6
 10
192.0301
 20
-144.2066
  0
VERTEX
  8
LAYER_6
 10
192.6901
 20
-144.2066
  0
SEQEND
  0
POLYLINE
  8
LAYER_6
 40
0.0353
 41
0.0353
 66
1
 10
0
 20
0
 30
0
  0
VERTEX
  8
LAYER_6
 10
191.4601
 20
-142.2466
  0
VERTEX
  8
LAYER_6
 10
191.4601
 20
-140.6866
  0
VERTEX
  8
LAYER_6
 10
193.2601
 20
-140.6866
  0
VERTEX
  8
LAYER_6
 10
193.4601
 20
-140.4866
  0
VERTEX
  8
LAYER_6
 10
191.2601
 20
-140.4866
  0
VERTEX
  8
LAYER_6
 10
191.4601
 20
-140.6866
  0
SEQEND
  0
POLYLINE
  8
LAYER_6
 40
0.2469
 41
0.2469
 66
1
 10
0
 20
0
 30
0
 70
1
  0
VERTEX
  8
LAYER_6
 10
170.9479
 20
-122.1274
  0
VERTEX
  8
LAYER_6
 10
170.9479
 20
-122.3274
  0
VERTEX
  8
LAYER_6
 10
174.5479
 20
-122.3274
  0
VERTEX
  8
LAYER_6
 10
178.1479
 20
-122.3274
  0
VERTEX
  8
LAYER_6
 10
178.1479
 20
-122.1274
  0
VERTEX
  8
LAYER_6
 10
174.5479
 20
-122.1274
  0
SEQEND
  0
POLYLINE
  8
LAYER_6
 40
0.2469
 41
0.2469
 66
1
 10
0
 20
0
 30
0
  0
VERTEX
  8
LAYER_6
 10
176.9479
 20
-123.6274
  0
VERTEX
  8
LAYER_6
 10
174.5479
 20
-123.6274
  0
VERTEX
  8
LAYER_6
 10
172.1479
 20
-123.6274
  0
SEQEND
  0
POLYLINE
  8
LAYER_6
 40
0.0353
 41
0.0353
 66
1
 10
0
 20
0
 30
0
  0
VERTEX
  8
LAYER_6
 10
176.6434
 20
-122.1274
  0
VERTEX
  8
LAYER_6
 10
177.9479
 20
-122.1274
  0
VERTEX
  8
LAYER_6
 10
177.9479
 20
-121.7274
  0
VERTEX
  8
LAYER_6
 10
174.5479
 20
-121.7274
  0
VERTEX
  8
LAYER_6
 10
171.1479
 20
-121.7274
  0
VERTEX
  8
LAYER_6
 10
171.1479
 20
-122.1274
  0
VERTEX
  8
LAYER_6
 10
172.4524
 20
-122.1274
  0
SEQEND
  0
POLYLINE
  8
LAYER_6
 40
0.2469
 41
0.2469
 66
1
 10
0
 20
0
 30
0
  0
VERTEX
  8
LAYER_6
 10
172.1479
 20
-122.3274
  0
VERTEX
  8
LAYER_6
 10
172.4524
 20
-122.3274
  0
SEQEND
  0
POLYLINE
  8
LAYER_6
 40
0.2469
 41
0.2469
 66
1
 10
0
 20
0
 30
0
  0
VERTEX
  8
LAYER_6
 10
176.9479
 20
-122.3274
  0
VERTEX
  8
LAYER_6
 10
176.6434
 20
-122.3274
  0
SEQEND
  0
POLYLINE
  8
LAYER_6
 40
0.0353
 41
0.0353
 66
1
 10
0
 20
0
 30
0
  0
VERTEX
  8
LAYER_6
 10
171.0479
 20
-116.8274
  0
VERTEX
  8
LAYER_6
 10
171.0479
 20
-117.2274
  0
VERTEX
  8
LAYER_6
 10
174.5479
 20
-117.2274
  0
VERTEX
  8
LAYER_6
 10
178.0479
 20
-117.2274
  0
VERTEX
  8
LAYER_6
 10
178.0479
 20
-116.8274
  0
SEQEND
  0
POLYLINE
  8
LAYER_6
  6
AIGENLINE001
 40
0.0353
 41
0.0353
 66
1
 10
0
 20
0
 30
0
 70
128
  0
VERTEX
  8
LAYER_6
 10
174.5479
 20
-127.1274
  0
VERTEX
  8
LAYER_6
 10
174.5479
 20
-85.3695
 42
0.4142137739
  0
VERTEX
  8
LAYER_6
 10
162.0679
 20
-72.8895
 42
0.2914725351
  0
VERTEX
  8
LAYER_6
 10
150.7572
 20
-80.0952
  0
VERTEX
  8
LAYER_6
 10
146.986
 20
-88.1825
  0
SEQEND
  0
POLYLINE
  8
LAYER_6
 40
0.0353
 41
0.0353
 66
1
 10
0
 20
0
 30
0
  0
VERTEX
  8
LAYER_6
 10
182.4079
 20
-129.9274
 42
-0.4000336224
  0
VERTEX
  8
LAYER_6
 10
182.4079
 20
-130.1274
 42
0.1904588847
  0
VERTEX
  8
LAYER_6
 10
182.3679
 20
-130.2274
 42
0.1903993087
  0
VERTEX
  8
LAYER_6
 10
182.4079
 20
-130.3274
 42
-0.1904588845
  0
VERTEX
  8
LAYER_6
 10
182.4479
 20
-130.4274
 42
-0.1903993085
  0
VERTEX
  8
LAYER_6
 10
182.4079
 20
-130.5274
 42
0.1904588847
  0
VERTEX
  8
LAYER_6
 10
182.3679
 20
-130.6274
 42
0.1903993087
  0
VERTEX
  8
LAYER_6
 10
182.4079
 20
-130.7274
 42
-0.1904588845
  0
VERTEX
  8
LAYER_6
 10
182.4479
 20
-130.8274
 42
-0.1903993085
  0
VERTEX
  8
LAYER_6
 10
182.4079
 20
-130.9274
  0
SEQEND
  0
POLYLINE
  8
LAYER_6
 40
0.0353
 41
0.0353
 66
1
 10
0
 20
0
 30
0
  0
VERTEX
  8
LAYER_6
 10
181.6879
 20
-129.9274
 42
-0.4000336224
  0
VERTEX
  8
LAYER_6
 10
181.6879
 20
-130.1274
 42
0.1904588847
  0
VERTEX
  8
LAYER_6
 10
181.6479
 20
-130.2274
 42
0.1903993087
  0
VERTEX
  8
LAYER_6
 10
181.6879
 20
-130.3274
 42
-0.1904588845
  0
VERTEX
  8
LAYER_6
 10
181.7279
 20
-130.4274
 42
-0.1903993085
  0
VERTEX
  8
LAYER_6
 10
181.6879
 20
-130.5274
 42
0.1904588847
  0
VERTEX
  8
LAYER_6
 10
181.6479
 20
-130.6274
 42
0.1903993087
  0
VERTEX
  8
LAYER_6
 10
181.6879
 20
-130.7274
 42
-0.1904588845
  0
VERTEX
  8
LAYER_6
 10
181.7279
 20
-130.8274
 42
-0.1903993085
  0
VERTEX
  8
LAYER_6
 10
181.6879
 20
-130.9274
  0
SEQEND
  0
POLYLINE
  8
LAYER_6
 40
0.0353
 41
0.0353
 66
1
 10
0
 20
0
 30
0
 70
1
  0
VERTEX
  8
LAYER_6
 10
82.3134
 20
-72.894
 42
-0.4142140075
  0
VERTEX
  8
LAYER_6
 10
84.8534
 20
-70.354
 42
-0.4142123853
  0
VERTEX
  8
LAYER_6
 10
87.3934
 20
-72.894
  0
VERTEX
  8
LAYER_6
 10
87.3934
 20
-103.1919
 42
-0.3930184733
  0
VERTEX
  8
LAYER_6
 10
87.3534
 20
-103.2319
  0
VERTEX
  8
LAYER_6
 10
82.3534
 20
-103.2319
 42
-0.3930184735
  0
VERTEX
  8
LAYER_6
 10
82.3134
 20
-103.1919
  0
SEQEND
  0
POLYLINE
  8
LAYER_6
 40
0.0353
 41
0.0353
 66
1
 10
0
 20
0
 30
0
  0
VERTEX
  8
LAYER_6
 10
85.9146
 20
-88.7635
 42
0.08247449369
  0
VERTEX
  8
LAYER_6
 10
86.9396
 20
-88.3981
 42
0.1322689086
  0
VERTEX
  8
LAYER_6
 10
87.3474
 20
-87.9896
 42
0.1084405433
  0
VERTEX
  8
LAYER_6
 10
87.3934
 20
-87.7882
 42
0.204110029
  0
VERTEX
  8
LAYER_6
 10
87.2057
 20
-87.3825
 42
0.06077116326
  0
VERTEX
  8
LAYER_6
 10
86.9596
 20
-87.1881
 42
0.0459202838
  0
VERTEX
  8
LAYER_6
 10
86.5837
 20
-87.0024
 42
0.06923317053
  0
VERTEX
  8
LAYER_6
 10
85.4882
 20
-86.7486
 42
0.02696854777
  0
VERTEX
  8
LAYER_6
 10
84.8534
 20
-86.7148
 42
0.06363502619
  0
VERTEX
  8
LAYER_6
 10
83.4844
 20
-86.8839
 42
0.08307946696
  0
VERTEX
  8
LAYER_6
 10
82.6499
 20
-87.2539
 42
0.1474402596
  0
VERTEX
  8
LAYER_6
 10
82.3338
 20
-87.6515
 42
0.07374332082
  0
VERTEX
  8
LAYER_6
 10
82.3134
 20
-87.7882
 42
0.2037999948
  0
VERTEX
  8
LAYER_6
 10
82.5011
 20
-88.1903
 42
0.05927906932
  0
VERTEX
  8
LAYER_6
 10
82.7424
 20
-88.3827
 42
0.04485920092
  0
VERTEX
  8
LAYER_6
 10
83.1017
 20
-88.5643
 42
0.04922310619
  0
VERTEX
  8
LAYER_6
 10
83.7932
 20
-88.7637
  0
SEQEND
  0
POLYLINE
  8
LAYER_6
 40
0.0353
 41
0.0353
 66
1
 10
0
 20
0
 30
0
  0
VERTEX
  8
LAYER_6
 10
86.0585
 20
-88.6457
 42
0.09575909247
  0
VERTEX
  8
LAYER_6
 10
86.9303
 20
-88.2601
 42
0.162161316
  0
VERTEX
  8
LAYER_6
 10
87.2054
 20
-87.8697
 42
0.04637570606
  0
VERTEX
  8
LAYER_6
 10
87.2134
 20
-87.7882
 42
0.2096667124
  0
VERTEX
  8
LAYER_6
 10
87.0279
 20
-87.4
 42
0.05932138254
  0
VERTEX
  8
LAYER_6
 10
86.7943
 20
-87.2207
 42
0.0450668136
  0
VERTEX
  8
LAYER_6
 10
86.4402
 20
-87.0499
 42
0.07157477525
  0
VERTEX
  8
LAYER_6
 10
85.3578
 20
-86.8136
 42
0.02281211443
  0
VERTEX
  8
LAYER_6
 10
84.8534
 20
-86.7908
 42
0.06817406246
  0
VERTEX
  8
LAYER_6
 10
83.5105
 20
-86.9679
 42
0.08998407384
  0
VERTEX
  8
LAYER_6
 10
82.7516
 20
-87.3342
 42
0.16271773
  0
VERTEX
  8
LAYER_6
 10
82.5003
 20
-87.7115
 42
0.04319796459
  0
VERTEX
  8
LAYER_6
 10
82.4934
 20
-87.7882
 42
0.2116626728
  0
VERTEX
  8
LAYER_6
 10
82.6854
 20
-88.1805
 42
0.06035459113
  0
VERTEX
  8
LAYER_6
 10
82.9355
 20
-88.3682
 42
0.07526153339
  0
VERTEX
  8
LAYER_6
 10
83.6458
 20
-88.6451
  0
SEQEND
  0
POLYLINE
  8
LAYER_6
 40
0.0353
 41
0.0353
 66
1
 10
0
 20
0
 30
0
  0
VERTEX
  8
LAYER_6
 10
82.7879
 20
-87.3058
 42
0.1998762757
  0
VERTEX
  8
LAYER_6
 10
82.553
 20
-87.7198
 42
0.00823830437
  0
VERTEX
  8
LAYER_6
 10
82.5528
 20
-87.7338
 42
0.2134096113
  0
VERTEX
  8
LAYER_6
 10
82.7434
 20
-88.12
 42
0.06040617487
  0
VERTEX
  8
LAYER_6
 10
82.9908
 20
-88.3037
 42
0.06320723762
  0
VERTEX
  8
LAYER_6
 10
83.5488
 20
-88.5345
  0
SEQEND
  0
POLYLINE
  8
LAYER_6
 40
0.0353
 41
0.0353
 66
1
 10
0
 20
0
 30
0
  0
VERTEX
  8
LAYER_6
 10
86.1564
 20
-88.5349
 42
0.1042623614
  0
VERTEX
  8
LAYER_6
 10
86.9418
 20
-88.1403
 42
0.1766319396
  0
VERTEX
  8
LAYER_6
 10
87.1529
 20
-87.7636
 42
0.01796359093
  0
VERTEX
  8
LAYER_6
 10
87.154
 20
-87.7338
 42
0.2165352761
  0
VERTEX
  8
LAYER_6
 10
86.9608
 20
-87.3439
 42
0.01562649952
  0
VERTEX
  8
LAYER_6
 10
86.9189
 20
-87.3058
  0
SEQEND
  0
POLYLINE
  8
LAYER_6
 40
0.0353
 41
0.0353
 66
1
 10
0
 20
0
 30
0
 70
1
  0
VERTEX
  8
LAYER_6
 10
82.3734
 20
-114.2319
 42
-0.3923136174
  0
VERTEX
  8
LAYER_6
 10
82.3134
 20
-114.1719
  0
VERTEX
  8
LAYER_6
 10
82.3134
 20
-103.2919
 42
-0.3923136174
  0
VERTEX
  8
LAYER_6
 10
82.3734
 20
-103.2319
  0
VERTEX
  8
LAYER_6
 10
84.8534
 20
-103.2319
  0
VERTEX
  8
LAYER_6
 10
87.3334
 20
-103.2319
 42
-0.3923136174
  0
VERTEX
  8
LAYER_6
 10
87.3934
 20
-103.2919
  0
VERTEX
  8
LAYER_6
 10
87.3934
 20
-114.1719
 42
-0.3923136174
  0
VERTEX
  8
LAYER_6
 10
87.3334
 20
-114.2319
  0
SEQEND
  0
POLYLINE
  8
LAYER_6
 40
0.0353
 41
0.0353
 66
1
 10
0
 20
0
 30
0
  0
VERTEX
  8
LAYER_6
 10
82.7579
 20
-121.7319
  0
VERTEX
  8
LAYER_6
 10
82.7579
 20
-117.2319
  0
SEQEND
  0
POLYLINE
  8
LAYER_6
 40
0.0353
 41
0.0353
 66
1
 10
0
 20
0
 30
0
  0
VERTEX
  8
LAYER_6
 10
82.9903
 20
-125.8643
  0
VERTEX
  8
LAYER_6
 10
82.9903
 20
-123.6319
  0
SEQEND
  0
POLYLINE
  8
LAYER_6
 40
0.0353
 41
0.0353
 66
1
 10
0
 20
0
 30
0
 70
1
  0
VERTEX
  8
LAYER_6
 10
82.5834
 20
-114.2319
  0
VERTEX
  8
LAYER_6
 10
82.3734
 20
-114.2319
  0
SEQEND
  0
POLYLINE
  8
LAYER_6
 40
0.0353
 41
0.0353
 66
1
 10
0
 20
0
 30
0
  0
VERTEX
  8
LAYER_6
 10
82.3034
 20
-114.2319
  0
VERTEX
  8
LAYER_6
 10
82.5534
 20
-114.2319
  0
SEQEND
  0
POLYLINE
  8
LAYER_6
 40
0.1482
 41
0.1482
 62
2
 66
1
 10
0
 20
0
 30
0
  0
VERTEX
  8
LAYER_6
 10
81.0727
 20
-114.7749
 42
0.2972179565
  0
VERTEX
  8
LAYER_6
 10
80.9534
 20
-114.9579
  0
VERTEX
  8
LAYER_6
 10
80.9534
 20
-116.7719
  0
SEQEND
  0
POLYLINE
  8
LAYER_6
 40
0.0353
 41
0.0353
 66
1
 10
0
 20
0
 30
0
  0
VERTEX
  8
LAYER_6
 10
82.8171
 20
-117.2319
  0
VERTEX
  8
LAYER_6
 10
82.9903
 20
-117.5319
  0
VERTEX
  8
LAYER_6
 10
82.9903
 20
-121.7319
  0
SEQEND
  0
POLYLINE
  8
LAYER_6
 40
0.0353
 41
0.0353
 66
1
 10
0
 20
0
 30
0
  0
VERTEX
  8
LAYER_6
 10
82.7579
 20
-125.5864
  0
VERTEX
  8
LAYER_6
 10
83.7805
 20
-125.5864
  0
SEQEND
  0
POLYLINE
  8
LAYER_6
 40
0.0353
 41
0.0353
 66
1
 10
0
 20
0
 30
0
  0
VERTEX
  8
LAYER_6
 10
86.7165
 20
-125.8643
  0
VERTEX
  8
LAYER_6
 10
86.7165
 20
-123.6319
  0
SEQEND
  0
POLYLINE
  8
LAYER_6
 40
0.0353
 41
0.0353
 66
1
 10
0
 20
0
 30
0
 70
1
  0
VERTEX
  8
LAYER_6
 10
87.1234
 20
-114.2319
  0
VERTEX
  8
LAYER_6
 10
87.3334
 20
-114.2319
  0
SEQEND
  0
POLYLINE
  8
LAYER_6
 40
0.0353
 41
0.0353
 66
1
 10
0
 20
0
 30
0
  0
VERTEX
  8
LAYER_6
 10
87.4034
 20
-114.2319
  0
VERTEX
  8
LAYER_6
 10
87.1534
 20
-114.2319
  0
SEQEND
  0
POLYLINE
  8
LAYER_6
 40
0.0353
 41
0.0353
 66
1
 10
0
 20
0
 30
0
  0
VERTEX
  8
LAYER_6
 10
86.7165
 20
-117.5319
  0
VERTEX
  8
LAYER_6
 10
86.9489
 20
-117.5319
  0
VERTEX
  8
LAYER_6
 10
84.8534
 20
-117.5319
  0
VERTEX
  8
LAYER_6
 10
82.7579
 20
-117.5319
  0
VERTEX
  8
LAYER_6
 10
82.9903
 20
-117.5319
  0
SEQEND
  0
POLYLINE
  8
LAYER_6
 40
0.1482
 41
0.1482
 62
2
 66
1
 10
0
 20
0
 30
0
  0
VERTEX
  8
LAYER_6
 10
88.6341
 20
-114.7749
 42
-0.2972004393
  0
VERTEX
  8
LAYER_6
 10
88.7534
 20
-114.9579
  0
VERTEX
  8
LAYER_6
 10
88.7534
 20
-116.7719
  0
SEQEND
  0
POLYLINE
  8
LAYER_6
 40
0.0353
 41
0.0353
 66
1
 10
0
 20
0
 30
0
  0
VERTEX
  8
LAYER_6
 10
86.8897
 20
-117.2319
  0
VERTEX
  8
LAYER_6
 10
86.7165
 20
-117.5319
  0
VERTEX
  8
LAYER_6
 10
86.7165
 20
-121.7319
  0
SEQEND
  0
POLYLINE
  8
LAYER_6
 40
0.0353
 41
0.0353
 66
1
 10
0
 20
0
 30
0
  0
VERTEX
  8
LAYER_6
 10
86.9489
 20
-123.6319
  0
VERTEX
  8
LAYER_6
 10
86.9489
 20
-125.6319
  0
VERTEX
  8
LAYER_6
 10
86.6489
 20
-125.9319
  0
VERTEX
  8
LAYER_6
 10
84.8534
 20
-125.9319
  0
VERTEX
  8
LAYER_6
 10
83.0579
 20
-125.9319
  0
VERTEX
  8
LAYER_6
 10
82.7579
 20
-125.6319
  0
VERTEX
  8
LAYER_6
 10
82.7579
 20
-123.6319
  0
SEQEND
  0
POLYLINE
  8
LAYER_6
 40
0.0353
 41
0.0353
 66
1
 10
0
 20
0
 30
0
  0
VERTEX
  8
LAYER_6
 10
86.9489
 20
-125.5864
  0
VERTEX
  8
LAYER_6
 10
85.9263
 20
-125.5864
  0
SEQEND
  0
POLYLINE
  8
LAYER_6
 40
0.0353
 41
0.0353
 66
1
 10
0
 20
0
 30
0
 70
1
  0
VERTEX
  8
LAYER_6
 10
84.8534
 20
-116.8319
  0
VERTEX
  8
LAYER_6
 10
88.6934
 20
-116.8319
  0
VERTEX
  8
LAYER_6
 10
88.7534
 20
-116.7719
  0
VERTEX
  8
LAYER_6
 10
84.8534
 20
-116.7719
  0
VERTEX
  8
LAYER_6
 10
80.9534
 20
-116.7719
  0
VERTEX
  8
LAYER_6
 10
81.0134
 20
-116.8319
  0
SEQEND
  0
POLYLINE
  8
LAYER_6
 40
0.0353
 41
0.0353
 66
1
 10
0
 20
0
 30
0
 70
1
  0
VERTEX
  8
LAYER_6
 10
85.9263
 20
-125.5864
 42
-0.135193805
  0
VERTEX
  8
LAYER_6
 10
84.8534
 20
-125.8819
 42
-0.1351940457
  0
VERTEX
  8
LAYER_6
 10
83.7805
 20
-125.5864
  0
VERTEX
  8
LAYER_6
 10
83.7805
 20
-124.7319
  0
VERTEX
  8
LAYER_6
 10
84.8534
 20
-124.7319
  0
VERTEX
  8
LAYER_6
 10
85.9263
 20
-124.7319
  0
SEQEND
  0
POLYLINE
  8
LAYER_6
 40
0.0353
 41
0.0353
 66
1
 10
0
 20
0
 30
0
  0
VERTEX
  8
LAYER_6
 10
88.6534
 20
-114.8277
  0
VERTEX
  8
LAYER_6
 10
84.8534
 20
-114.8277
  0
VERTEX
  8
LAYER_6
 10
81.0534
 20
-114.8277
  0
SEQEND
  0
POLYLINE
  8
LAYER_6
 40
0.0353
 41
0.0353
 66
1
 10
0
 20
0
 30
0
  0
VERTEX
  8
LAYER_6
 10
88.6341
 20
-114.7749
  0
VERTEX
  8
LAYER_6
 10
87.4034
 20
-114.2319
  0
VERTEX
  8
LAYER_6
 10
84.8534
 20
-114.2319
  0
VERTEX
  8
LAYER_6
 10
82.3034
 20
-114.2319
  0
VERTEX
  8
LAYER_6
 10
81.0727
 20
-114.7749
  0
SEQEND
  0
POLYLINE
  8
LAYER_6
 40
0.0353
 41
0.0353
 66
1
 10
0
 20
0
 30
0
  0
VERTEX
  8
LAYER_6
 10
83.4044
 20
-87.6938
  0
VERTEX
  8
LAYER_6
 10
83.4044
 20
-88.1228
  0
SEQEND
  0
POLYLINE
  8
LAYER_6
 40
0.0353
 41
0.0353
 66
1
 10
0
 20
0
 30
0
  0
VERTEX
  8
LAYER_6
 10
87.1352
 20
-87.6118
 42
-0.3003278719
  0
VERTEX
  8
LAYER_6
 10
86.9626
 20
-87.7257
  0
VERTEX
  8
LAYER_6
 10
86.9348
 20
-87.7236
  0
VERTEX
  8
LAYER_6
 10
86.4343
 20
-87.7236
  0
VERTEX
  8
LAYER_6
 10
86.417
 20
-87.7243
 42
-0.2197337125
  0
VERTEX
  8
LAYER_6
 10
86.2473
 20
-87.646
 42
0.1522277525
  0
VERTEX
  8
LAYER_6
 10
85.7006
 20
-87.2263
 42
0.1874638965
  0
VERTEX
  8
LAYER_6
 10
84.0083
 20
-87.2263
 42
0.1522461479
  0
VERTEX
  8
LAYER_6
 10
83.4615
 20
-87.646
 42
-0.2196281794
  0
VERTEX
  8
LAYER_6
 10
83.2919
 20
-87.7243
  0
VERTEX
  8
LAYER_6
 10
83.2745
 20
-87.7236
  0
VERTEX
  8
LAYER_6
 10
82.774
 20
-87.7236
  0
VERTEX
  8
LAYER_6
 10
82.7462
 20
-87.7257
 42
-0.2955606989
  0
VERTEX
  8
LAYER_6
 10
82.5749
 20
-87.6148
  0
SEQEND
  0
POLYLINE
  8
LAYER_6
 40
0.0353
 41
0.0353
 66
1
 10
0
 20
0
 30
0
  0
VERTEX
  8
LAYER_6
 10
86.135
 20
-88.3557
  0
VERTEX
  8
LAYER_6
 10
86.1638
 20
-88.3534
  0
SEQEND
  0
POLYLINE
  8
LAYER_6
 40
0.0353
 41
0.0353
 66
1
 10
0
 20
0
 30
0
  0
VERTEX
  8
LAYER_6
 10
85.5618
 20
-87.8526
 42
-0.1477514746
  0
VERTEX
  8
LAYER_6
 10
85.7694
 20
-88.1184
  0
VERTEX
  8
LAYER_6
 10
85.81
 20
-88.1504
  0
SEQEND
  0
POLYLINE
  8
LAYER_6
 40
0.0353
 41
0.0353
 66
1
 10
0
 20
0
 30
0
  0
VERTEX
  8
LAYER_6
 10
83.9001
 20
-88.1461
  0
VERTEX
  8
LAYER_6
 10
83.9407
 20
-88.1143
 42
-0.1468837526
  0
VERTEX
  8
LAYER_6
 10
84.1511
 20
-87.85
  0
SEQEND
  0
POLYLINE
  8
LAYER_6
 40
0.0353
 41
0.0353
 66
1
 10
0
 20
0
 30
0
  0
VERTEX
  8
LAYER_6
 10
83.9395
 20
-88.3189
 42
0.2118531222
  0
VERTEX
  8
LAYER_6
 10
84.2909
 20
-88.6638
 42
0.2021925476
  0
VERTEX
  8
LAYER_6
 10
85.4124
 20
-88.6664
 42
0.2102110882
  0
VERTEX
  8
LAYER_6
 10
85.7681
 20
-88.323
  0
SEQEND
  0
POLYLINE
  8
LAYER_6
 40
0.0353
 41
0.0353
 66
1
 10
0
 20
0
 30
0
  0
VERTEX
  8
LAYER_6
 10
84.0038
 20
-87.9971
 42
0.2065184422
  0
VERTEX
  8
LAYER_6
 10
84.7829
 20
-88.3332
  0
VERTEX
  8
LAYER_6
 10
84.851
 20
-88.3311
  0
VERTEX
  8
LAYER_6
 10
84.9504
 20
-88.336
 42
0.2142242186
  0
VERTEX
  8
LAYER_6
 10
85.7051
 20
-87.9971
  0
SEQEND
  0
POLYLINE
  8
LAYER_6
 40
0.0353
 41
0.0353
 66
1
 10
0
 20
0
 30
0
  0
VERTEX
  8
LAYER_6
 10
83.9395
 20
-88.1786
 42
0.04207508895
  0
VERTEX
  8
LAYER_6
 10
83.5438
 20
-88.3475
  0
SEQEND
  0
POLYLINE
  8
LAYER_6
 40
0.0353
 41
0.0353
 66
1
 10
0
 20
0
 30
0
  0
VERTEX
  8
LAYER_6
 10
85.7681
 20
-88.1827
 42
-0.04198636496
  0
VERTEX
  8
LAYER_6
 10
86.1638
 20
-88.3534
  0
VERTEX
  8
LAYER_6
 10
86.165
 20
-88.1488
  0
VERTEX
  8
LAYER_6
 10
86.1363
 20
-88.1511
  0
SEQEND
  0
POLYLINE
  8
LAYER_6
 40
0.0353
 41
0.0353
 66
1
 10
0
 20
0
 30
0
  0
VERTEX
  8
LAYER_6
 10
83.575
 20
-88.35
  0
VERTEX
  8
LAYER_6
 10
83.8988
 20
-88.3507
  0
SEQEND
  0
POLYLINE
  8
LAYER_6
 40
0.0353
 41
0.0353
 66
1
 10
0
 20
0
 30
0
  0
VERTEX
  8
LAYER_6
 10
85.8088
 20
-88.355
 42
-0.1827234199
  0
VERTEX
  8
LAYER_6
 10
85.5722
 20
-88.6432
 42
-0.1595051136
  0
VERTEX
  8
LAYER_6
 10
84.7608
 20
-88.8316
 42
-0.1305470251
  0
VERTEX
  8
LAYER_6
 10
84.1318
 20
-88.64
 42
-0.1673290947
  0
VERTEX
  8
LAYER_6
 10
83.8988
 20
-88.3507
  0
VERTEX
  8
LAYER_6
 10
83.9395
 20
-88.3189
  0
VERTEX
  8
LAYER_6
 10
83.9395
 20
-88.1786
  0
VERTEX
  8
LAYER_6
 10
83.9309
 20
-88.122
  0
SEQEND
  0
POLYLINE
  8
LAYER_6
 40
0.0353
 41
0.0353
 66
1
 10
0
 20
0
 30
0
  0
VERTEX
  8
LAYER_6
 10
85.778
 20
-88.1251
  0
VERTEX
  8
LAYER_6
 10
85.7681
 20
-88.1827
  0
VERTEX
  8
LAYER_6
 10
85.7681
 20
-88.323
  0
VERTEX
  8
LAYER_6
 10
85.8088
 20
-88.355
  0
VERTEX
  8
LAYER_6
 10
86.1325
 20
-88.3557
 42
-0.201131237
  0
VERTEX
  8
LAYER_6
 10
85.7758
 20
-88.7939
 42
-0.1323871248
  0
VERTEX
  8
LAYER_6
 10
84.8496
 20
-89.0269
 42
-0.1385071797
  0
VERTEX
  8
LAYER_6
 10
83.9264
 20
-88.7898
 42
-0.20269824
  0
VERTEX
  8
LAYER_6
 10
83.575
 20
-88.35
  0
VERTEX
  8
LAYER_6
 10
83.5438
 20
-88.3475
  0
VERTEX
  8
LAYER_6
 10
83.5451
 20
-88.1429
  0
VERTEX
  8
LAYER_6
 10
83.5763
 20
-88.1454
  0
VERTEX
  8
LAYER_6
 10
83.9001
 20
-88.1461
 42
-0.1826953477
  0
VERTEX
  8
LAYER_6
 10
84.1366
 20
-87.8579
 42
-0.1595209869
  0
VERTEX
  8
LAYER_6
 10
84.9481
 20
-87.6695
 42
-0.130526021
  0
VERTEX
  8
LAYER_6
 10
85.577
 20
-87.8611
 42
-0.1673319231
  0
VERTEX
  8
LAYER_6
 10
85.81
 20
-88.1504
  0
VERTEX
  8
LAYER_6
 10
86.1338
 20
-88.1511
 42
0.2026693307
  0
VERTEX
  8
LAYER_6
 10
85.7825
 20
-87.7113
 42
0.1385187225
  0
VERTEX
  8
LAYER_6
 10
84.8592
 20
-87.4742
 42
0.1323730559
  0
VERTEX
  8
LAYER_6
 10
83.9331
 20
-87.7072
 42
0.2011527974
  0
VERTEX
  8
LAYER_6
 10
83.5763
 20
-88.1454
  0
SEQEND
  0
POLYLINE
  8
LAYER_6
 40
0.0353
 41
0.0353
 66
1
 10
0
 20
0
 30
0
  0
VERTEX
  8
LAYER_6
 10
86.3044
 20
-87.6938
  0
VERTEX
  8
LAYER_6
 10
86.3044
 20
-88.1274
 42
0.1463004749
  0
VERTEX
  8
LAYER_6
 10
86.2061
 20
-87.807
 42
0.1500988663
  0
VERTEX
  8
LAYER_6
 10
85.6757
 20
-87.4036
 42
0.1614455187
  0
VERTEX
  8
LAYER_6
 10
84.2301
 20
-87.3352
 42
0.1288243872
  0
VERTEX
  8
LAYER_6
 10
83.6014
 20
-87.6837
 42
0.2000951557
  0
VERTEX
  8
LAYER_6
 10
83.4044
 20
-88.123
 42
0.2099501079
  0
VERTEX
  8
LAYER_6
 10
83.64
 20
-88.6402
 42
0.123089923
  0
VERTEX
  8
LAYER_6
 10
84.2474
 20
-88.9751
 42
0.0693845562
  0
VERTEX
  8
LAYER_6
 10
84.8493
 20
-89.0591
 42
0.1360200083
  0
VERTEX
  8
LAYER_6
 10
85.8676
 20
-88.7974
 42
0.1741540991
  0
VERTEX
  8
LAYER_6
 10
86.2707
 20
-88.327
 42
0.07994157696
  0
VERTEX
  8
LAYER_6
 10
86.3044
 20
-88.1274
  0
SEQEND
  0
POLYLINE
  8
LAYER_6
 40
0.0353
 41
0.0353
 66
1
 10
0
 20
0
 30
0
  0
VERTEX
  8
LAYER_6
 10
87.3934
 20
-87.7882
 42
0.204110029
  0
VERTEX
  8
LAYER_6
 10
87.2057
 20
-87.3825
 42
0.06077116326
  0
VERTEX
  8
LAYER_6
 10
86.9596
 20
-87.1881
 42
0.0459202838
  0
VERTEX
  8
LAYER_6
 10
86.5837
 20
-87.0024
 42
0.06923317053
  0
VERTEX
  8
LAYER_6
 10
85.4882
 20
-86.7486
 42
0.02696854777
  0
VERTEX
  8
LAYER_6
 10
84.8534
 20
-86.7148
 42
0.06363502619
  0
VERTEX
  8
LAYER_6
 10
83.4844
 20
-86.8839
 42
0.08307946696
  0
VERTEX
  8
LAYER_6
 10
82.6499
 20
-87.2539
 42
0.1474402596
  0
VERTEX
  8
LAYER_6
 10
82.3338
 20
-87.6515
 42
0.07374332082
  0
VERTEX
  8
LAYER_6
 10
82.3134
 20
-87.7882
  0
SEQEND
  0
POLYLINE
  8
LAYER_6
 40
0.0353
 41
0.0353
 66
1
 10
0
 20
0
 30
0
  0
VERTEX
  8
LAYER_6
 10
87.2134
 20
-87.7882
 42
0.2096667124
  0
VERTEX
  8
LAYER_6
 10
87.0279
 20
-87.4
 42
0.05932138254
  0
VERTEX
  8
LAYER_6
 10
86.7943
 20
-87.2207
 42
0.0450668136
  0
VERTEX
  8
LAYER_6
 10
86.4402
 20
-87.0499
 42
0.07157477525
  0
VERTEX
  8
LAYER_6
 10
85.3578
 20
-86.8136
 42
0.02281211443
  0
VERTEX
  8
LAYER_6
 10
84.8534
 20
-86.7908
 42
0.06817406246
  0
VERTEX
  8
LAYER_6
 10
83.5105
 20
-86.9679
 42
0.08998407384
  0
VERTEX
  8
LAYER_6
 10
82.7516
 20
-87.3342
 42
0.16271773
  0
VERTEX
  8
LAYER_6
 10
82.5003
 20
-87.7115
 42
0.04319796459
  0
VERTEX
  8
LAYER_6
 10
82.4934
 20
-87.7882
  0
SEQEND
  0
POLYLINE
  8
LAYER_6
 40
0.0353
 41
0.0353
 66
1
 10
0
 20
0
 30
0
  0
VERTEX
  8
LAYER_6
 10
82.4934
 20
-87.7882
 42
0.2116626728
  0
VERTEX
  8
LAYER_6
 10
82.6854
 20
-88.1805
 42
0.06035459113
  0
VERTEX
  8
LAYER_6
 10
82.9355
 20
-88.3682
 42
0.07526153339
  0
VERTEX
  8
LAYER_6
 10
83.6458
 20
-88.6451
  0
SEQEND
  0
POLYLINE
  8
LAYER_6
 40
0.0353
 41
0.0353
 66
1
 10
0
 20
0
 30
0
  0
VERTEX
  8
LAYER_6
 10
86.0585
 20
-88.6457
 42
0.09575909247
  0
VERTEX
  8
LAYER_6
 10
86.9303
 20
-88.2601
 42
0.162161316
  0
VERTEX
  8
LAYER_6
 10
87.2054
 20
-87.8697
 42
0.04637570606
  0
VERTEX
  8
LAYER_6
 10
87.2134
 20
-87.7882
  0
SEQEND
  0
POLYLINE
  8
LAYER_6
 40
0.0353
 41
0.0353
 66
1
 10
0
 20
0
 30
0
  0
VERTEX
  8
LAYER_6
 10
86.5534
 20
-125.9319
  0
VERTEX
  8
LAYER_6
 10
86.5534
 20
-126.1319
  0
VERTEX
  8
LAYER_6
 10
85.6797
 20
-126.1319
  0
SEQEND
  0
POLYLINE
  8
LAYER_6
 40
0.0353
 41
0.0353
 66
1
 10
0
 20
0
 30
0
  0
VERTEX
  8
LAYER_6
 10
83.1534
 20
-125.9319
  0
VERTEX
  8
LAYER_6
 10
83.1534
 20
-126.1319
  0
VERTEX
  8
LAYER_6
 10
83.8797
 20
-126.1319
  0
SEQEND
  0
POLYLINE
  8
LAYER_6
 40
0.0353
 41
0.0353
 66
1
 10
0
 20
0
 30
0
  0
VERTEX
  8
LAYER_6
 10
85.8534
 20
-126.1319
  0
VERTEX
  8
LAYER_6
 10
85.8534
 20
-126.8719
 42
0.3923136174
  0
VERTEX
  8
LAYER_6
 10
85.9134
 20
-126.9319
  0
VERTEX
  8
LAYER_6
 10
86.1534
 20
-126.9319
 42
0.3923136174
  0
VERTEX
  8
LAYER_6
 10
86.2134
 20
-126.8719
  0
VERTEX
  8
LAYER_6
 10
86.2134
 20
-126.1319
  0
SEQEND
  0
POLYLINE
  8
LAYER_6
 40
0.0353
 41
0.0353
 66
1
 10
0
 20
0
 30
0
  0
VERTEX
  8
LAYER_6
 10
83.8534
 20
-126.1319
  0
VERTEX
  8
LAYER_6
 10
83.8534
 20
-126.8719
 42
-0.3923136174
  0
VERTEX
  8
LAYER_6
 10
83.7934
 20
-126.9319
  0
VERTEX
  8
LAYER_6
 10
83.5534
 20
-126.9319
 42
-0.3923136174
  0
VERTEX
  8
LAYER_6
 10
83.4934
 20
-126.8719
  0
VERTEX
  8
LAYER_6
 10
83.4934
 20
-126.1319
  0
SEQEND
  0
POLYLINE
  8
LAYER_6
 40
0.0353
 41
0.0353
 66
1
 10
0
 20
0
 30
0
  0
VERTEX
  8
LAYER_6
 10
85.6797
 20
-125.9319
  0
VERTEX
  8
LAYER_6
 10
85.6797
 20
-147.137
  0
SEQEND
  0
POLYLINE
  8
LAYER_6
 40
0.0353
 41
0.0353
 66
1
 10
0
 20
0
 30
0
  0
VERTEX
  8
LAYER_6
 10
85.6797
 20
-148.137
  0
VERTEX
  8
LAYER_6
 10
85.6797
 20
-169.342
  0
SEQEND
  0
POLYLINE
  8
LAYER_6
 40
0.0353
 41
0.0353
 66
1
 10
0
 20
0
 30
0
  0
VERTEX
  8
LAYER_6
 10
83.8797
 20
-125.9319
  0
VERTEX
  8
LAYER_6
 10
83.8797
 20
-147.137
  0
SEQEND
  0
POLYLINE
  8
LAYER_6
 40
0.0353
 41
0.0353
 66
1
 10
0
 20
0
 30
0
  0
VERTEX
  8
LAYER_6
 10
83.8797
 20
-148.137
  0
VERTEX
  8
LAYER_6
 10
83.8797
 20
-169.3414
  0
SEQEND
  0
POLYLINE
  8
LAYER_6
 40
0.2469
 41
0.2469
 66
1
 10
0
 20
0
 30
0
 70
1
  0
VERTEX
  8
LAYER_6
 10
81.2534
 20
-122.1319
  0
VERTEX
  8
LAYER_6
 10
81.2534
 20
-122.3319
  0
VERTEX
  8
LAYER_6
 10
84.8534
 20
-122.3319
  0
VERTEX
  8
LAYER_6
 10
88.4534
 20
-122.3319
  0
VERTEX
  8
LAYER_6
 10
88.4534
 20
-122.1319
  0
VERTEX
  8
LAYER_6
 10
84.8534
 20
-122.1319
  0
SEQEND
  0
POLYLINE
  8
LAYER_6
 40
0.0353
 41
0.0353
 66
1
 10
0
 20
0
 30
0
  0
VERTEX
  8
LAYER_6
 10
82.2131
 20
-123.6319
  0
VERTEX
  8
LAYER_6
 10
82.2131
 20
-122.3319
  0
SEQEND
  0
POLYLINE
  8
LAYER_6
 40
0.0353
 41
0.0353
 66
1
 10
0
 20
0
 30
0
  0
VERTEX
  8
LAYER_6
 10
82.2034
 20
-122.3319
  0
VERTEX
  8
LAYER_6
 10
82.2034
 20
-123.6319
  0
SEQEND
  0
POLYLINE
  8
LAYER_6
 40
0.0353
 41
0.0353
 66
1
 10
0
 20
0
 30
0
  0
VERTEX
  8
LAYER_6
 10
83.7298
 20
-122.3319
  0
VERTEX
  8
LAYER_6
 10
83.7298
 20
-123.6319
  0
SEQEND
  0
POLYLINE
  8
LAYER_6
 40
0.0353
 41
0.0353
 66
1
 10
0
 20
0
 30
0
  0
VERTEX
  8
LAYER_6
 10
83.3367
 20
-122.3319
  0
VERTEX
  8
LAYER_6
 10
83.3367
 20
-123.6319
  0
SEQEND
  0
POLYLINE
  8
LAYER_6
 40
0.2469
 41
0.2469
 66
1
 10
0
 20
0
 30
0
  0
VERTEX
  8
LAYER_6
 10
87.5034
 20
-123.6319
  0
VERTEX
  8
LAYER_6
 10
84.8534
 20
-123.6319
  0
VERTEX
  8
LAYER_6
 10
82.2034
 20
-123.6319
  0
SEQEND
  0
POLYLINE
  8
LAYER_6
 40
0.0353
 41
0.0353
 66
1
 10
0
 20
0
 30
0
  0
VERTEX
  8
LAYER_6
 10
87.4937
 20
-123.6319
  0
VERTEX
  8
LAYER_6
 10
87.4937
 20
-122.3319
  0
SEQEND
  0
POLYLINE
  8
LAYER_6
 40
0.0353
 41
0.0353
 66
1
 10
0
 20
0
 30
0
  0
VERTEX
  8
LAYER_6
 10
87.5034
 20
-122.3319
  0
VERTEX
  8
LAYER_6
 10
87.5034
 20
-123.6319
  0
SEQEND
  0
POLYLINE
  8
LAYER_6
 40
0.0353
 41
0.0353
 66
1
 10
0
 20
0
 30
0
  0
VERTEX
  8
LAYER_6
 10
85.977
 20
-122.3319
  0
VERTEX
  8
LAYER_6
 10
85.977
 20
-123.6319
  0
SEQEND
  0
POLYLINE
  8
LAYER_6
 40
0.0353
 41
0.0353
 66
1
 10
0
 20
0
 30
0
  0
VERTEX
  8
LAYER_6
 10
86.37
 20
-122.3319
  0
VERTEX
  8
LAYER_6
 10
86.37
 20
-123.6319
  0
SEQEND
  0
POLYLINE
  8
LAYER_6
 40
0.0353
 41
0.0353
 66
1
 10
0
 20
0
 30
0
  0
VERTEX
  8
LAYER_6
 10
88.3534
 20
-116.8319
  0
VERTEX
  8
LAYER_6
 10
88.3534
 20
-117.2319
  0
SEQEND
  0
POLYLINE
  8
LAYER_6
 40
0.0353
 41
0.0353
 66
1
 10
0
 20
0
 30
0
  0
VERTEX
  8
LAYER_6
 10
81.3534
 20
-116.8319
  0
VERTEX
  8
LAYER_6
 10
81.3534
 20
-117.2319
  0
VERTEX
  8
LAYER_6
 10
84.8534
 20
-117.2319
  0
VERTEX
  8
LAYER_6
 10
88.3534
 20
-117.2319
  0
VERTEX
  8
LAYER_6
 10
86.9489
 20
-117.2319
  0
VERTEX
  8
LAYER_6
 10
86.9489
 20
-121.7319
  0
SEQEND
  0
POLYLINE
  8
LAYER_6
 40
0.0353
 41
0.0353
 66
1
 10
0
 20
0
 30
0
 70
1
  0
VERTEX
  8
LAYER_6
 10
81.4534
 20
-121.7319
  0
VERTEX
  8
LAYER_6
 10
88.2534
 20
-121.7319
  0
VERTEX
  8
LAYER_6
 10
88.2534
 20
-122.1319
  0
VERTEX
  8
LAYER_6
 10
81.4534
 20
-122.1319
  0
SEQEND
  0
POLYLINE
  8
LAYER_6
 40
0.2469
 41
0.2469
 66
1
 10
0
 20
0
 30
0
  0
VERTEX
  8
LAYER_6
 10
87.5034
 20
-122.3319
  0
VERTEX
  8
LAYER_6
 10
84.8534
 20
-122.3319
  0
VERTEX
  8
LAYER_6
 10
82.2034
 20
-122.3319
  0
SEQEND
  0
POLYLINE
  8
LAYER_6
 40
0.0353
 41
0.0353
 66
1
 10
0
 20
0
 30
0
  0
VERTEX
  8
LAYER_6
 10
78.5014
 20
-171.7324
  0
VERTEX
  8
LAYER_6
 10
78.5105
 20
-171.8383
  0
SEQEND
  0
POLYLINE
  8
LAYER_6
 40
0.0353
 41
0.0353
 66
1
 10
0
 20
0
 30
0
  0
VERTEX
  8
LAYER_6
 10
78.4093
 20
-187.1759
  0
VERTEX
  8
LAYER_6
 10
78.4091
 20
-187.2202
  0
VERTEX
  8
LAYER_6
 10
78.4116
 20
-187.3936
  0
SEQEND
  0
POLYLINE
  8
LAYER_6
 40
0.0353
 41
0.0353
 66
1
 10
0
 20
0
 30
0
 70
1
  0
VERTEX
  8
LAYER_6
 10
88.8334
 20
-187.7599
  0
VERTEX
  8
LAYER_6
 10
88.9988
 20
-187.5945
  0
VERTEX
  8
LAYER_6
 10
89.2534
 20
-187.5945
  0
VERTEX
  8
LAYER_6
 10
89.0338
 20
-187.8141
  0
VERTEX
  8
LAYER_6
 10
89.2534
 20
-188.1945
  0
VERTEX
  8
LAYER_6
 10
89.0455
 20
-188.1945
  0
VERTEX
  8
LAYER_6
 10
88.902
 20
-187.9459
  0
VERTEX
  8
LAYER_6
 10
88.8334
 20
-188.0145
  0
VERTEX
  8
LAYER_6
 10
88.8334
 20
-188.1945
  0
VERTEX
  8
LAYER_6
 10
88.6534
 20
-188.1945
  0
VERTEX
  8
LAYER_6
 10
88.6534
 20
-187.5945
  0
VERTEX
  8
LAYER_6
 10
88.8334
 20
-187.5945
  0
SEQEND
  0
POLYLINE
  8
LAYER_6
 40
0.0353
 41
0.0353
 66
1
 10
0
 20
0
 30
0
 70
1
  0
VERTEX
  8
LAYER_6
 10
88.3534
 20
-187.5945
  0
VERTEX
  8
LAYER_6
 10
88.135
 20
-188.1945
  0
VERTEX
  8
LAYER_6
 10
87.9718
 20
-188.1945
  0
VERTEX
  8
LAYER_6
 10
87.7534
 20
-187.5945
  0
VERTEX
  8
LAYER_6
 10
87.9449
 20
-187.5945
  0
VERTEX
  8
LAYER_6
 10
88.0534
 20
-187.8924
  0
VERTEX
  8
LAYER_6
 10
88.1618
 20
-187.5945
  0
SEQEND
  0
POLYLINE
  8
LAYER_6
 40
0.0353
 41
0.0353
 66
1
 10
0
 20
0
 30
0
 70
1
  0
VERTEX
  8
LAYER_6
 10
86.8534
 20
-187.5945
  0
VERTEX
  8
LAYER_6
 10
87.0334
 20
-187.5945
  0
VERTEX
  8
LAYER_6
 10
87.0334
 20
-187.7599
  0
VERTEX
  8
LAYER_6
 10
87.1988
 20
-187.5945
  0
VERTEX
  8
LAYER_6
 10
87.4534
 20
-187.5945
  0
VERTEX
  8
LAYER_6
 10
87.2338
 20
-187.8141
  0
VERTEX
  8
LAYER_6
 10
87.4534
 20
-188.1945
  0
VERTEX
  8
LAYER_6
 10
87.2455
 20
-188.1945
  0
VERTEX
  8
LAYER_6
 10
87.102
 20
-187.9459
  0
VERTEX
  8
LAYER_6
 10
87.0334
 20
-188.0145
  0
VERTEX
  8
LAYER_6
 10
87.0334
 20
-188.1945
  0
VERTEX
  8
LAYER_6
 10
86.8534
 20
-188.1945
  0
SEQEND
  0
POLYLINE
  8
LAYER_6
 40
0.0353
 41
0.0353
 66
1
 10
0
 20
0
 30
0
  0
VERTEX
  8
LAYER_6
 10
90.7155
 20
-171.3325
  0
VERTEX
  8
LAYER_6
 10
90.8767
 20
-171.3441
 42
-0.2335632368
  0
VERTEX
  8
LAYER_6
 10
91.2055
 20
-171.6802
  0
VERTEX
  8
LAYER_6
 10
91.2154
 20
-171.8324
  0
SEQEND
  0
POLYLINE
  8
LAYER_6
 40
0.0353
 41
0.0353
 66
1
 10
0
 20
0
 30
0
  0
VERTEX
  8
LAYER_6
 10
80.6699
 20
-189.4387
  0
VERTEX
  8
LAYER_6
 10
80.4543
 20
-189.4395
  0
SEQEND
  0
POLYLINE
  8
LAYER_6
 40
0.0353
 41
0.0353
 66
1
 10
0
 20
0
 30
0
  0
VERTEX
  8
LAYER_6
 10
90.3534
 20
-189.4945
  0
VERTEX
  8
LAYER_6
 10
90.8534
 20
-189.4945
  0
SEQEND
  0
POLYLINE
  8
LAYER_6
 40
0.0353
 41
0.0353
 66
1
 10
0
 20
0
 30
0
  0
VERTEX
  8
LAYER_6
 10
89.7534
 20
-189.4893
 42
0.02738439233
  0
VERTEX
  8
LAYER_6
 10
90.3534
 20
-189.4945
  0
SEQEND
  0
POLYLINE
  8
LAYER_6
 40
0.0353
 41
0.0353
 66
1
 10
0
 20
0
 30
0
  0
VERTEX
  8
LAYER_6
 10
89.7534
 20
-189.4526
  0
VERTEX
  8
LAYER_6
 10
89.7534
 20
-189.4893
  0
SEQEND
  0
POLYLINE
  8
LAYER_6
 40
0.0353
 41
0.0353
 66
1
 10
0
 20
0
 30
0
  0
VERTEX
  8
LAYER_6
 10
89.7534
 20
-189.4526
 42
0.02818887736
  0
VERTEX
  8
LAYER_6
 10
89.1534
 20
-189.4474
  0
SEQEND
  0
POLYLINE
  8
LAYER_6
 40
0.0353
 41
0.0353
 66
1
 10
0
 20
0
 30
0
  0
VERTEX
  8
LAYER_6
 10
88.4059
 20
-189.4474
  0
VERTEX
  8
LAYER_6
 10
89.1534
 20
-189.4474
  0
SEQEND
  0
POLYLINE
  8
LAYER_6
 40
0.0353
 41
0.0353
 66
1
 10
0
 20
0
 30
0
  0
VERTEX
  8
LAYER_6
 10
87.8059
 20
-189.4422
 42
0.01945436895
  0
VERTEX
  8
LAYER_6
 10
88.4059
 20
-189.4474
  0
SEQEND
  0
POLYLINE
  8
LAYER_6
 40
0.0353
 41
0.0353
 66
1
 10
0
 20
0
 30
0
  0
VERTEX
  8
LAYER_6
 10
87.7533
 20
-189.3895
  0
VERTEX
  8
LAYER_6
 10
87.8059
 20
-189.4422
  0
SEQEND
  0
POLYLINE
  8
LAYER_6
 40
0.0353
 41
0.0353
 66
1
 10
0
 20
0
 30
0
  0
VERTEX
  8
LAYER_6
 10
87.7533
 20
-189.3895
 42
0.03527032322
  0
VERTEX
  8
LAYER_6
 10
87.4116
 20
-189.3779
 42
0.003243847098
  0
VERTEX
  8
LAYER_6
 10
84.8534
 20
-189.3645
 42
0.03614874788
  0
VERTEX
  8
LAYER_6
 10
81.9535
 20
-189.3895
  0
SEQEND
  0
POLYLINE
  8
LAYER_6
 40
0.0353
 41
0.0353
 66
1
 10
0
 20
0
 30
0
  0
VERTEX
  8
LAYER_6
 10
81.8538
 20
-189.4893
  0
VERTEX
  8
LAYER_6
 10
81.9535
 20
-189.3895
  0
SEQEND
  0
POLYLINE
  8
LAYER_6
 40
0.0353
 41
0.0353
 66
1
 10
0
 20
0
 30
0
  0
VERTEX
  8
LAYER_6
 10
81.2538
 20
-189.4945
  0
VERTEX
  8
LAYER_6
 10
81.8538
 20
-189.4893
  0
SEQEND
  0
POLYLINE
  8
LAYER_6
 40
0.0353
 41
0.0353
 66
1
 10
0
 20
0
 30
0
  0
VERTEX
  8
LAYER_6
 10
78.8534
 20
-189.4945
  0
VERTEX
  8
LAYER_6
 10
81.2538
 20
-189.4945
  0
SEQEND
  0
POLYLINE
  8
LAYER_6
 40
0.0353
 41
0.0353
 66
1
 10
0
 20
0
 30
0
  0
VERTEX
  8
LAYER_6
 10
78.8534
 20
-171.1945
  0
VERTEX
  8
LAYER_6
 10
78.9913
 20
-171.3325
  0
SEQEND
  0
POLYLINE
  8
LAYER_6
 40
0.0353
 41
0.0353
 66
1
 10
0
 20
0
 30
0
  0
VERTEX
  8
LAYER_6
 10
78.9534
 20
-171.1954
 42
0.01064863145
  0
VERTEX
  8
LAYER_6
 10
78.8534
 20
-171.1945
  0
SEQEND
  0
POLYLINE
  8
LAYER_6
 40
0.0353
 41
0.0353
 66
1
 10
0
 20
0
 30
0
  0
VERTEX
  8
LAYER_6
 10
78.9534
 20
-171.2284
  0
VERTEX
  8
LAYER_6
 10
78.9534
 20
-171.1954
  0
SEQEND
  0
POLYLINE
  8
LAYER_6
 40
0.0353
 41
0.0353
 66
1
 10
0
 20
0
 30
0
  0
VERTEX
  8
LAYER_6
 10
78.9534
 20
-171.2283
 42
0.01192473666
  0
VERTEX
  8
LAYER_6
 10
79.0734
 20
-171.2294
  0
VERTEX
  8
LAYER_6
 10
79.1934
 20
-171.2283
  0
SEQEND
  0
POLYLINE
  8
LAYER_6
 40
0.0353
 41
0.0353
 66
1
 10
0
 20
0
 30
0
  0
VERTEX
  8
LAYER_6
 10
79.1934
 20
-171.198
  0
VERTEX
  8
LAYER_6
 10
79.1934
 20
-171.2284
  0
SEQEND
  0
POLYLINE
  8
LAYER_6
 40
0.0353
 41
0.0353
 66
1
 10
0
 20
0
 30
0
  0
VERTEX
  8
LAYER_6
 10
79.5934
 20
-171.1945
  0
VERTEX
  8
LAYER_6
 10
79.1934
 20
-171.198
  0
SEQEND
  0
POLYLINE
  8
LAYER_6
 40
0.0353
 41
0.0353
 66
1
 10
0
 20
0
 30
0
  0
VERTEX
  8
LAYER_6
 10
81.652
 20
-171.1945
  0
VERTEX
  8
LAYER_6
 10
79.5934
 20
-171.1945
  0
SEQEND
  0
POLYLINE
  8
LAYER_6
 40
0.0353
 41
0.0353
 66
1
 10
0
 20
0
 30
0
  0
VERTEX
  8
LAYER_6
 10
82.052
 20
-171.1979
 42
0.0156380408
  0
VERTEX
  8
LAYER_6
 10
81.652
 20
-171.1945
  0
SEQEND
  0
POLYLINE
  8
LAYER_6
 40
0.0353
 41
0.0353
 66
1
 10
0
 20
0
 30
0
  0
VERTEX
  8
LAYER_6
 10
82.1236
 20
-171.2695
  0
VERTEX
  8
LAYER_6
 10
82.052
 20
-171.1979
  0
SEQEND
  0
POLYLINE
  8
LAYER_6
 40
0.0353
 41
0.0353
 66
1
 10
0
 20
0
 30
0
  0
VERTEX
  8
LAYER_6
 10
82.1535
 20
-171.2994
 42
0.03325873259
  0
VERTEX
  8
LAYER_6
 10
82.5191
 20
-171.311
 42
0.002965416796
  0
VERTEX
  8
LAYER_6
 10
84.8534
 20
-171.3228
 42
0.05199609307
  0
VERTEX
  8
LAYER_6
 10
87.5533
 20
-171.2994
  0
SEQEND
  0
POLYLINE
  8
LAYER_6
 40
0.0353
 41
0.0353
 66
1
 10
0
 20
0
 30
0
  0
VERTEX
  8
LAYER_6
 10
87.6548
 20
-171.1979
  0
VERTEX
  8
LAYER_6
 10
87.5832
 20
-171.2695
  0
SEQEND
  0
POLYLINE
  8
LAYER_6
 40
0.0353
 41
0.0353
 66
1
 10
0
 20
0
 30
0
  0
VERTEX
  8
LAYER_6
 10
88.0547
 20
-171.1945
  0
VERTEX
  8
LAYER_6
 10
87.6548
 20
-171.1979
  0
SEQEND
  0
POLYLINE
  8
LAYER_6
 40
0.0353
 41
0.0353
 66
1
 10
0
 20
0
 30
0
  0
VERTEX
  8
LAYER_6
 10
90.1134
 20
-171.1945
  0
VERTEX
  8
LAYER_6
 10
88.0547
 20
-171.1945
  0
SEQEND
  0
POLYLINE
  8
LAYER_6
 40
0.0353
 41
0.0353
 66
1
 10
0
 20
0
 30
0
  0
VERTEX
  8
LAYER_6
 10
90.5134
 20
-171.198
 42
0.0222887512
  0
VERTEX
  8
LAYER_6
 10
90.1134
 20
-171.1945
  0
SEQEND
  0
POLYLINE
  8
LAYER_6
 40
0.0353
 41
0.0353
 66
1
 10
0
 20
0
 30
0
  0
VERTEX
  8
LAYER_6
 10
90.5134
 20
-171.2284
  0
VERTEX
  8
LAYER_6
 10
90.5134
 20
-171.198
  0
SEQEND
  0
POLYLINE
  8
LAYER_6
 40
0.0353
 41
0.0353
 66
1
 10
0
 20
0
 30
0
  0
VERTEX
  8
LAYER_6
 10
90.5134
 20
-171.2283
 42
0.01192473666
  0
VERTEX
  8
LAYER_6
 10
90.6334
 20
-171.2294
  0
VERTEX
  8
LAYER_6
 10
90.7534
 20
-171.2283
  0
SEQEND
  0
POLYLINE
  8
LAYER_6
 40
0.0353
 41
0.0353
 66
1
 10
0
 20
0
 30
0
  0
VERTEX
  8
LAYER_6
 10
90.7534
 20
-171.1954
  0
VERTEX
  8
LAYER_6
 10
90.7534
 20
-171.2284
  0
SEQEND
  0
POLYLINE
  8
LAYER_6
 40
0.0353
 41
0.0353
 66
1
 10
0
 20
0
 30
0
  0
VERTEX
  8
LAYER_6
 10
90.8534
 20
-171.1945
  0
VERTEX
  8
LAYER_6
 10
90.7534
 20
-171.1954
  0
SEQEND
  0
POLYLINE
  8
LAYER_6
 40
0.0353
 41
0.0353
 66
1
 10
0
 20
0
 30
0
  0
VERTEX
  8
LAYER_6
 10
81.0334
 20
-171.2051
  0
VERTEX
  8
LAYER_6
 10
81.0334
 20
-171.2181
  0
SEQEND
  0
POLYLINE
  8
LAYER_6
 40
0.0353
 41
0.0353
 66
1
 10
0
 20
0
 30
0
  0
VERTEX
  8
LAYER_6
 10
81.0334
 20
-171.2051
 42
0.01238737619
  0
VERTEX
  8
LAYER_6
 10
80.8734
 20
-171.2037
  0
SEQEND
  0
POLYLINE
  8
LAYER_6
 40
0.0353
 41
0.0353
 66
1
 10
0
 20
0
 30
0
  0
VERTEX
  8
LAYER_6
 10
80.3934
 20
-171.2037
  0
VERTEX
  8
LAYER_6
 10
80.2334
 20
-171.2051
  0
SEQEND
  0
POLYLINE
  8
LAYER_6
 40
0.0353
 41
0.0353
 66
1
 10
0
 20
0
 30
0
  0
VERTEX
  8
LAYER_6
 10
80.2334
 20
-171.2181
  0
VERTEX
  8
LAYER_6
 10
80.2334
 20
-171.2051
  0
SEQEND
  0
POLYLINE
  8
LAYER_6
 40
0.0353
 41
0.0353
 66
1
 10
0
 20
0
 30
0
  0
VERTEX
  8
LAYER_6
 10
80.2334
 20
-171.2181
 42
0.01206337905
  0
VERTEX
  8
LAYER_6
 10
80.3934
 20
-171.2194
  0
SEQEND
  0
POLYLINE
  8
LAYER_6
 40
0.0353
 41
0.0353
 66
1
 10
0
 20
0
 30
0
  0
VERTEX
  8
LAYER_6
 10
80.8734
 20
-171.2194
  0
VERTEX
  8
LAYER_6
 10
81.0334
 20
-171.2181
  0
SEQEND
  0
POLYLINE
  8
LAYER_6
 40
0.0353
 41
0.0353
 66
1
 10
0
 20
0
 30
0
  0
VERTEX
  8
LAYER_6
 10
88.8334
 20
-171.2037
  0
VERTEX
  8
LAYER_6
 10
88.6734
 20
-171.2051
  0
SEQEND
  0
POLYLINE
  8
LAYER_6
 40
0.0353
 41
0.0353
 66
1
 10
0
 20
0
 30
0
  0
VERTEX
  8
LAYER_6
 10
88.6734
 20
-171.2181
  0
VERTEX
  8
LAYER_6
 10
88.6734
 20
-171.2051
  0
SEQEND
  0
POLYLINE
  8
LAYER_6
 40
0.0353
 41
0.0353
 66
1
 10
0
 20
0
 30
0
  0
VERTEX
  8
LAYER_6
 10
88.6734
 20
-171.2181
 42
0.01206337905
  0
VERTEX
  8
LAYER_6
 10
88.8334
 20
-171.2194
  0
SEQEND
  0
POLYLINE
  8
LAYER_6
 40
0.0353
 41
0.0353
 66
1
 10
0
 20
0
 30
0
  0
VERTEX
  8
LAYER_6
 10
89.3134
 20
-171.2194
  0
VERTEX
  8
LAYER_6
 10
89.4734
 20
-171.2181
  0
SEQEND
  0
POLYLINE
  8
LAYER_6
 40
0.0353
 41
0.0353
 66
1
 10
0
 20
0
 30
0
  0
VERTEX
  8
LAYER_6
 10
89.4734
 20
-171.2051
  0
VERTEX
  8
LAYER_6
 10
89.4734
 20
-171.2181
  0
SEQEND
  0
POLYLINE
  8
LAYER_6
 40
0.0353
 41
0.0353
 66
1
 10
0
 20
0
 30
0
  0
VERTEX
  8
LAYER_6
 10
89.4734
 20
-171.2051
 42
0.01238737619
  0
VERTEX
  8
LAYER_6
 10
89.3134
 20
-171.2037
  0
SEQEND
  0
POLYLINE
  8
LAYER_6
 40
0.0353
 41
0.0353
 66
1
 10
0
 20
0
 30
0
  0
VERTEX
  8
LAYER_6
 10
91.3534
 20
-171.6945
 42
0.198921281
  0
VERTEX
  8
LAYER_6
 10
91.207
 20
-171.3409
 42
0.1989201164
  0
VERTEX
  8
LAYER_6
 10
90.8534
 20
-171.1945
  0
SEQEND
  0
POLYLINE
  8
LAYER_6
 40
0.0353
 41
0.0353
 66
1
 10
0
 20
0
 30
0
  0
VERTEX
  8
LAYER_6
 10
90.8534
 20
-189.4945
 42
0.1989173245
  0
VERTEX
  8
LAYER_6
 10
91.207
 20
-189.3481
 42
0.1989180756
  0
VERTEX
  8
LAYER_6
 10
91.3534
 20
-188.9945
  0
SEQEND
  0
POLYLINE
  8
LAYER_6
 40
0.0353
 41
0.0353
 66
1
 10
0
 20
0
 30
0
  0
VERTEX
  8
LAYER_6
 10
78.8534
 20
-171.1945
 42
0.198922255
  0
VERTEX
  8
LAYER_6
 10
78.4998
 20
-171.3409
 42
0.198926452
  0
VERTEX
  8
LAYER_6
 10
78.3534
 20
-171.6945
  0
SEQEND
  0
POLYLINE
  8
LAYER_6
 40
0.0353
 41
0.0353
 66
1
 10
0
 20
0
 30
0
  0
VERTEX
  8
LAYER_6
 10
78.3534
 20
-188.9945
  0
VERTEX
  8
LAYER_6
 10
78.3534
 20
-171.6945
  0
VERTEX
  8
LAYER_6
 10
78.4914
 20
-171.8324
  0
VERTEX
  8
LAYER_6
 10
78.4914
 20
-187.0133
  0
SEQEND
  0
POLYLINE
  8
LAYER_6
 40
0.0353
 41
0.0353
 66
1
 10
0
 20
0
 30
0
  0
VERTEX
  8
LAYER_6
 10
87.0832
 20
-169.2945
  0
VERTEX
  8
LAYER_6
 10
86.9779
 20
-169.2945
  0
SEQEND
  0
POLYLINE
  8
LAYER_6
 40
0.0353
 41
0.0353
 66
1
 10
0
 20
0
 30
0
  0
VERTEX
  8
LAYER_6
 10
82.7289
 20
-169.2945
  0
VERTEX
  8
LAYER_6
 10
82.6236
 20
-169.2945
  0
SEQEND
  0
POLYLINE
  8
LAYER_6
 40
0.0353
 41
0.0353
 66
1
 10
0
 20
0
 30
0
  0
VERTEX
  8
LAYER_6
 10
83.3289
 20
-169.2997
 42
0.01999259637
  0
VERTEX
  8
LAYER_6
 10
82.7289
 20
-169.2945
  0
SEQEND
  0
POLYLINE
  8
LAYER_6
 40
0.0353
 41
0.0353
 66
1
 10
0
 20
0
 30
0
  0
VERTEX
  8
LAYER_6
 10
83.3535
 20
-169.3243
 42
0.02792158116
  0
VERTEX
  8
LAYER_6
 10
83.7724
 20
-169.3333
 42
0.004534530626
  0
VERTEX
  8
LAYER_6
 10
84.8534
 20
-169.3373
  0
VERTEX
  8
LAYER_6
 10
86.3533
 20
-169.3243
  0
SEQEND
  0
POLYLINE
  8
LAYER_6
 40
0.0353
 41
0.0353
 66
1
 10
0
 20
0
 30
0
  0
VERTEX
  8
LAYER_6
 10
86.3779
 20
-169.2997
  0
VERTEX
  8
LAYER_6
 10
86.3533
 20
-169.3243
  0
SEQEND
  0
POLYLINE
  8
LAYER_6
 40
0.0353
 41
0.0353
 66
1
 10
0
 20
0
 30
0
  0
VERTEX
  8
LAYER_6
 10
86.9779
 20
-169.2945
  0
VERTEX
  8
LAYER_6
 10
86.3779
 20
-169.2997
  0
SEQEND
  0
POLYLINE
  8
LAYER_6
 40
0.0353
 41
0.0353
 66
1
 10
0
 20
0
 30
0
  0
VERTEX
  8
LAYER_6
 10
87.5832
 20
-169.7945
 42
0.1989485384
  0
VERTEX
  8
LAYER_6
 10
87.4367
 20
-169.4409
 42
0.198884372
  0
VERTEX
  8
LAYER_6
 10
87.0832
 20
-169.2945
  0
SEQEND
  0
POLYLINE
  8
LAYER_6
 40
0.0353
 41
0.0353
 66
1
 10
0
 20
0
 30
0
  0
VERTEX
  8
LAYER_6
 10
82.6236
 20
-169.2945
 42
0.1988865134
  0
VERTEX
  8
LAYER_6
 10
82.2701
 20
-169.4409
 42
0.1989537106
  0
VERTEX
  8
LAYER_6
 10
82.1236
 20
-169.7945
  0
SEQEND
  0
POLYLINE
  8
LAYER_6
 40
0.0353
 41
0.0353
 66
1
 10
0
 20
0
 30
0
  0
VERTEX
  8
LAYER_6
 10
82.1236
 20
-169.7945
  0
VERTEX
  8
LAYER_6
 10
82.1236
 20
-171.2695
  0
VERTEX
  8
LAYER_6
 10
82.1535
 20
-171.2994
  0
VERTEX
  8
LAYER_6
 10
82.1535
 20
-169.8243
  0
VERTEX
  8
LAYER_6
 10
82.1651
 20
-169.6631
 42
-0.2335999693
  0
VERTEX
  8
LAYER_6
 10
82.5013
 20
-169.3343
  0
VERTEX
  8
LAYER_6
 10
82.6535
 20
-169.3244
  0
VERTEX
  8
LAYER_6
 10
82.6638
 20
-169.3267
 42
0.007775210752
  0
VERTEX
  8
LAYER_6
 10
87.0429
 20
-169.3268
  0
VERTEX
  8
LAYER_6
 10
87.043
 20
-169.3268
  0
VERTEX
  8
LAYER_6
 10
87.0531
 20
-169.3244
  0
VERTEX
  8
LAYER_6
 10
87.0533
 20
-169.3244
  0
VERTEX
  8
LAYER_6
 10
87.2055
 20
-169.3343
 42
-0.2335956385
  0
VERTEX
  8
LAYER_6
 10
87.5417
 20
-169.6631
  0
VERTEX
  8
LAYER_6
 10
87.5533
 20
-169.8243
  0
VERTEX
  8
LAYER_6
 10
87.5533
 20
-171.2994
  0
VERTEX
  8
LAYER_6
 10
87.5832
 20
-171.2695
  0
VERTEX
  8
LAYER_6
 10
87.5832
 20
-169.7945
  0
SEQEND
  0
POLYLINE
  8
LAYER_6
 40
0.0353
 41
0.0353
 66
1
 10
0
 20
0
 30
0
  0
VERTEX
  8
LAYER_6
 10
78.4084
 20
-187.3936
  0
VERTEX
  8
LAYER_6
 10
78.4084
 20
-188.9395
  0
VERTEX
  8
LAYER_6
 10
78.4183
 20
-189.0917
 42
0.2336111101
  0
VERTEX
  8
LAYER_6
 10
78.7471
 20
-189.4279
  0
VERTEX
  8
LAYER_6
 10
78.9079
 20
-189.4393
  0
VERTEX
  8
LAYER_6
 10
78.9084
 20
-189.4395
  0
VERTEX
  8
LAYER_6
 10
80.4543
 20
-189.4395
  0
VERTEX
  8
LAYER_6
 10
80.4543
 20
-189.4327
  0
SEQEND
  0
POLYLINE
  8
LAYER_6
 40
0.0353
 41
0.0353
 66
1
 10
0
 20
0
 30
0
  0
VERTEX
  8
LAYER_6
 10
78.3534
 20
-188.9945
 42
0.1989232462
  0
VERTEX
  8
LAYER_6
 10
78.4998
 20
-189.3481
 42
0.1989194666
  0
VERTEX
  8
LAYER_6
 10
78.8534
 20
-189.4945
  0
SEQEND
  0
POLYLINE
  8
LAYER_6
 40
0.0353
 41
0.0353
 66
1
 10
0
 20
0
 30
0
  0
VERTEX
  8
LAYER_6
 10
89.4734
 20
-189.4482
  0
VERTEX
  8
LAYER_6
 10
89.4734
 20
-193.3233
  0
SEQEND
  0
POLYLINE
  8
LAYER_6
 40
0.0353
 41
0.0353
 66
1
 10
0
 20
0
 30
0
  0
VERTEX
  8
LAYER_6
 10
88.6334
 20
-189.4474
  0
VERTEX
  8
LAYER_6
 10
88.6334
 20
-193.3233
  0
SEQEND
  0
POLYLINE
  8
LAYER_6
 40
0.0353
 41
0.0353
 66
1
 10
0
 20
0
 30
0
  0
VERTEX
  8
LAYER_6
 10
78.5141
 20
-171.8332
  0
VERTEX
  8
LAYER_6
 10
78.4914
 20
-171.8324
  0
VERTEX
  8
LAYER_6
 10
78.5098
 20
-171.7396
  0
VERTEX
  8
LAYER_6
 10
78.5187
 20
-171.6353
 42
-0.2044095707
  0
VERTEX
  8
LAYER_6
 10
78.8321
 20
-171.3431
  0
VERTEX
  8
LAYER_6
 10
78.9913
 20
-171.3325
  0
VERTEX
  8
LAYER_6
 10
78.987
 20
-171.3368
  0
VERTEX
  8
LAYER_6
 10
78.9912
 20
-171.3412
  0
VERTEX
  8
LAYER_6
 10
78.9957
 20
-171.337
  0
VERTEX
  8
LAYER_6
 10
78.9915
 20
-171.3325
  0
VERTEX
  8
LAYER_6
 10
79
 20
-171.3335
  0
VERTEX
  8
LAYER_6
 10
79.4913
 20
-171.3368
  0
VERTEX
  8
LAYER_6
 10
90.2155
 20
-171.3368
  0
VERTEX
  8
LAYER_6
 10
90.7068
 20
-171.3335
  0
VERTEX
  8
LAYER_6
 10
90.7153
 20
-171.3325
  0
VERTEX
  8
LAYER_6
 10
90.7155
 20
-171.3325
  0
VERTEX
  8
LAYER_6
 10
90.8534
 20
-171.1945
  0
SEQEND
  0
POLYLINE
  8
LAYER_6
 40
0.0353
 41
0.0353
 66
1
 10
0
 20
0
 30
0
  0
VERTEX
  8
LAYER_6
 10
80.6719
 20
-189.4387
  0
VERTEX
  8
LAYER_6
 10
80.7494
 20
-189.4376
  0
VERTEX
  8
LAYER_6
 10
80.7542
 20
-189.4369
  0
VERTEX
  8
LAYER_6
 10
80.7543
 20
-189.4369
  0
VERTEX
  8
LAYER_6
 10
80.8389
 20
-189.3522
  0
VERTEX
  8
LAYER_6
 10
90.2155
 20
-189.3522
  0
VERTEX
  8
LAYER_6
 10
90.7068
 20
-189.3554
  0
VERTEX
  8
LAYER_6
 10
90.7153
 20
-189.3565
  0
VERTEX
  8
LAYER_6
 10
90.7155
 20
-189.3565
  0
VERTEX
  8
LAYER_6
 10
90.8702
 20
-189.3468
 42
0.2045742153
  0
VERTEX
  8
LAYER_6
 10
91.1872
 20
-189.0572
  0
VERTEX
  8
LAYER_6
 10
91.1968
 20
-188.9494
  0
VERTEX
  8
LAYER_6
 10
91.197
 20
-188.9494
  0
VERTEX
  8
LAYER_6
 10
91.2154
 20
-188.8565
  0
VERTEX
  8
LAYER_6
 10
91.2154
 20
-171.8324
  0
VERTEX
  8
LAYER_6
 10
91.3534
 20
-171.6945
  0
VERTEX
  8
LAYER_6
 10
91.3534
 20
-188.9945
  0
SEQEND
  0
POLYLINE
  8
LAYER_6
 40
0.0353
 41
0.0353
 66
1
 10
0
 20
0
 30
0
 70
1
  0
VERTEX
  8
LAYER_6
 10
89.3134
 20
-171.2037
  0
VERTEX
  8
LAYER_6
 10
89.3134
 20
-171.2194
  0
VERTEX
  8
LAYER_6
 10
88.8334
 20
-171.2194
  0
VERTEX
  8
LAYER_6
 10
88.8334
 20
-171.2037
  0
SEQEND
  0
POLYLINE
  8
LAYER_6
 40
0.0353
 41
0.0353
 66
1
 10
0
 20
0
 30
0
 70
1
  0
VERTEX
  8
LAYER_6
 10
80.8734
 20
-171.2037
  0
VERTEX
  8
LAYER_6
 10
80.8734
 20
-171.2194
  0
VERTEX
  8
LAYER_6
 10
80.3934
 20
-171.2194
  0
VERTEX
  8
LAYER_6
 10
80.3934
 20
-171.2037
  0
SEQEND
  0
POLYLINE
  8
LAYER_6
  6
AIGENLINE001
 40
0.0353
 41
0.0353
 66
1
 10
0
 20
0
 30
0
 70
128
  0
VERTEX
  8
LAYER_6
 10
77.7034
 20
-188.3145
  0
VERTEX
  8
LAYER_6
 10
81.2034
 20
-188.3145
  0
SEQEND
  0
POLYLINE
  8
LAYER_6
  6
AIGENLINE001
 40
0.0353
 41
0.0353
 66
1
 10
0
 20
0
 30
0
 70
128
  0
VERTEX
  8
LAYER_6
 10
79.4534
 20
-186.5645
  0
VERTEX
  8
LAYER_6
 10
79.4534
 20
-190.0645
  0
SEQEND
  0
POLYLINE
  8
LAYER_6
 40
0.0353
 41
0.0353
 66
1
 10
0
 20
0
 30
0
  0
VERTEX
  8
LAYER_6
 10
80.8394
 20
-189.3409
  0
VERTEX
  8
LAYER_6
 10
80.8415
 20
-188.8522
  0
VERTEX
  8
LAYER_6
 10
80.8415
 20
-188.6063
  0
VERTEX
  8
LAYER_6
 10
80.8369
 20
-188.4151
 42
0.2911499001
  0
VERTEX
  8
LAYER_6
 10
79.7428
 20
-187.076
  0
VERTEX
  8
LAYER_6
 10
79.4913
 20
-187.0259
  0
VERTEX
  8
LAYER_6
 10
79.1787
 20
-187.0067
  0
VERTEX
  8
LAYER_6
 10
78.5082
 20
-187.0116
  0
VERTEX
  8
LAYER_6
 10
78.4914
 20
-187.0133
  0
VERTEX
  8
LAYER_6
 10
78.411
 20
-187.0936
  0
VERTEX
  8
LAYER_6
 10
78.4103
 20
-187.0984
  0
VERTEX
  8
LAYER_6
 10
78.4092
 20
-187.1758
  0
VERTEX
  8
LAYER_6
 10
78.4084
 20
-187.3936
  0
VERTEX
  8
LAYER_6
 10
78.4152
 20
-187.3936
  0
VERTEX
  8
LAYER_6
 10
78.6084
 20
-187.3936
  0
VERTEX
  8
LAYER_6
 10
79.1543
 20
-187.3936
  0
VERTEX
  8
LAYER_6
 10
79.3862
 20
-187.4041
 42
-0.3259948452
  0
VERTEX
  8
LAYER_6
 10
80.4494
 20
-188.5212
  0
VERTEX
  8
LAYER_6
 10
80.4543
 20
-188.6936
  0
VERTEX
  8
LAYER_6
 10
80.4543
 20
-189.2395
  0
VERTEX
  8
LAYER_6
 10
80.4543
 20
-189.4306
  0
SEQEND
  0
CIRCLE
  8
LAYER_6
 10
79.4534
 20
-188.3145
 40
0.55
  0
POLYLINE
  8
LAYER_6
 40
0.0353
 41
0.0353
 66
1
 10
0
 20
0
 30
0
 70
1
  0
VERTEX
  8
LAYER_6
 10
79.7134
 20
-188.2545
  0
VERTEX
  8
LAYER_6
 10
79.8534
 20
-188.2545
  0
VERTEX
  8
LAYER_6
 10
79.8534
 20
-188.3745
  0
VERTEX
  8
LAYER_6
 10
79.7131
 20
-188.3745
  0
VERTEX
  8
LAYER_6
 10
79.713
 20
-188.3745
  0
VERTEX
  8
LAYER_6
 10
79.7134
 20
-188.3745
 42
0.4142390574
  0
VERTEX
  8
LAYER_6
 10
79.5134
 20
-188.5745
  0
VERTEX
  8
LAYER_6
 10
79.5134
 20
-188.7143
  0
VERTEX
  8
LAYER_6
 10
79.5134
 20
-188.7145
  0
VERTEX
  8
LAYER_6
 10
79.4534
 20
-188.7145
  0
VERTEX
  8
LAYER_6
 10
79.3934
 20
-188.7145
  0
VERTEX
  8
LAYER_6
 10
79.3934
 20
-188.5743
  0
VERTEX
  8
LAYER_6
 10
79.3934
 20
-188.5741
  0
VERTEX
  8
LAYER_6
 10
79.3934
 20
-188.5745
 42
0.4142181863
  0
VERTEX
  8
LAYER_6
 10
79.1934
 20
-188.3745
  0
VERTEX
  8
LAYER_6
 10
79.1937
 20
-188.3745
  0
VERTEX
  8
LAYER_6
 10
79.1936
 20
-188.3745
  0
VERTEX
  8
LAYER_6
 10
79.0534
 20
-188.3745
  0
VERTEX
  8
LAYER_6
 10
79.0534
 20
-188.2545
  0
VERTEX
  8
LAYER_6
 10
79.0554
 20
-188.2545
  0
VERTEX
  8
LAYER_6
 10
79.1937
 20
-188.2545
  0
VERTEX
  8
LAYER_6
 10
79.1934
 20
-188.2545
 42
0.4141881217
  0
VERTEX
  8
LAYER_6
 10
79.3934
 20
-188.0545
  0
VERTEX
  8
LAYER_6
 10
79.3934
 20
-187.9147
  0
VERTEX
  8
LAYER_6
 10
79.3934
 20
-187.9145
  0
VERTEX
  8
LAYER_6
 10
79.4534
 20
-187.9145
  0
VERTEX
  8
LAYER_6
 10
79.5134
 20
-187.9145
  0
VERTEX
  8
LAYER_6
 10
79.5134
 20
-188.0547
  0
VERTEX
  8
LAYER_6
 10
79.5134
 20
-188.0548
  0
VERTEX
  8
LAYER_6
 10
79.5134
 20
-188.0545
 42
0.4142089878
  0
SEQEND
  0
POLYLINE
  8
LAYER_6
 40
0.0353
 41
0.0353
 66
1
 10
0
 20
0
 30
0
  0
VERTEX
  8
LAYER_6
 10
87.2534
 20
-192.4745
  0
VERTEX
  8
LAYER_6
 10
87.2534
 20
-189.3756
  0
SEQEND
  0
POLYLINE
  8
LAYER_6
 40
0.0353
 41
0.0353
 66
1
 10
0
 20
0
 30
0
  0
VERTEX
  8
LAYER_6
 10
82.4534
 20
-189.3756
  0
VERTEX
  8
LAYER_6
 10
82.4534
 20
-192.4745
  0
SEQEND
  0
POLYLINE
  8
LAYER_6
 40
0.0353
 41
0.0353
 66
1
 10
0
 20
0
 30
0
  0
VERTEX
  8
LAYER_6
 10
82.9516
 20
-193.9883
  0
VERTEX
  8
LAYER_6
 10
82.9522
 20
-193.9774
 42
0.1554913204
  0
VERTEX
  8
LAYER_6
 10
82.9315
 20
-193.9132
  0
SEQEND
  0
POLYLINE
  8
LAYER_6
 40
0.0353
 41
0.0353
 66
1
 10
0
 20
0
 30
0
  0
VERTEX
  8
LAYER_6
 10
86.7757
 20
-193.9118
 42
0.1555736615
  0
VERTEX
  8
LAYER_6
 10
86.7543
 20
-193.9784
  0
VERTEX
  8
LAYER_6
 10
86.7548
 20
-193.9889
  0
VERTEX
  8
LAYER_6
 10
86.7534
 20
-195.1745
  0
SEQEND
  0
POLYLINE
  8
LAYER_6
 40
0.0353
 41
0.0353
 66
1
 10
0
 20
0
 30
0
 70
1
  0
VERTEX
  8
LAYER_6
 10
85.2202
 20
-196.7745
  0
VERTEX
  8
LAYER_6
 10
85.2202
 20
-197.6745
  0
VERTEX
  8
LAYER_6
 10
85.2203
 20
-197.6746
 42
0.231299283
  0
VERTEX
  8
LAYER_6
 10
85.2874
 20
-197.831
 42
0.1604430767
  0
VERTEX
  8
LAYER_6
 10
85.6803
 20
-197.9947
 42
0.09501005263
  0
VERTEX
  8
LAYER_6
 10
86.6847
 20
-197.9601
 42
0.1689456376
  0
VERTEX
  8
LAYER_6
 10
86.954
 20
-197.7851
 42
0.1825681948
  0
VERTEX
  8
LAYER_6
 10
86.9864
 20
-197.6737
  0
VERTEX
  8
LAYER_6
 10
86.9866
 20
-197.6745
  0
VERTEX
  8
LAYER_6
 10
86.9866
 20
-196.7745
 42
0.2274443951
  0
VERTEX
  8
LAYER_6
 10
86.5941
 20
-195.9266
 42
0.4128666094
  0
VERTEX
  8
LAYER_6
 10
85.4789
 20
-196.0534
 42
0.178867791
  0
SEQEND
  0
POLYLINE
  8
LAYER_6
 40
0.0353
 41
0.0353
 66
1
 10
0
 20
0
 30
0
 70
1
  0
VERTEX
  8
LAYER_6
 10
82.7202
 20
-196.7745
  0
VERTEX
  8
LAYER_6
 10
82.7202
 20
-197.6745
  0
VERTEX
  8
LAYER_6
 10
82.7203
 20
-197.6746
 42
0.2455991645
  0
VERTEX
  8
LAYER_6
 10
82.7891
 20
-197.8325
 42
0.1541247706
  0
VERTEX
  8
LAYER_6
 10
83.1621
 20
-197.9943
 42
0.03794310337
  0
VERTEX
  8
LAYER_6
 10
83.7241
 20
-198.0223
 42
0.1384506357
  0
VERTEX
  8
LAYER_6
 10
84.358
 20
-197.8798
 42
0.2608932647
  0
VERTEX
  8
LAYER_6
 10
84.486
 20
-197.6866
  0
VERTEX
  8
LAYER_6
 10
84.4866
 20
-197.6745
  0
VERTEX
  8
LAYER_6
 10
84.4866
 20
-196.7745
 42
0.2274442075
  0
VERTEX
  8
LAYER_6
 10
84.0941
 20
-195.9266
 42
0.4128665777
  0
VERTEX
  8
LAYER_6
 10
82.9789
 20
-196.0534
 42
0.1788679882
  0
SEQEND
  0
POLYLINE
  8
LAYER_6
 40
0.0353
 41
0.0353
 66
1
 10
0
 20
0
 30
0
  0
VERTEX
  8
LAYER_6
 10
87.3534
 20
-196.7745
  0
VERTEX
  8
LAYER_6
 10
87.3534
 20
-197.6745
  0
VERTEX
  8
LAYER_6
 10
87.3534
 20
-198.0162
  0
SEQEND
  0
POLYLINE
  8
LAYER_6
 40
0.0353
 41
0.0353
 66
1
 10
0
 20
0
 30
0
  0
VERTEX
  8
LAYER_6
 10
82.3534
 20
-196.7745
  0
VERTEX
  8
LAYER_6
 10
82.3534
 20
-197.6745
  0
VERTEX
  8
LAYER_6
 10
82.3534
 20
-197.6738
  0
VERTEX
  8
LAYER_6
 10
82.3534
 20
-197.6739
  0
VERTEX
  8
LAYER_6
 10
82.3534
 20
-198.0198
  0
SEQEND
  0
POLYLINE
  8
LAYER_6
 40
0.0353
 41
0.0353
 66
1
 10
0
 20
0
 30
0
  0
VERTEX
  8
LAYER_6
 10
82.7712
 20
-192.6545
  0
VERTEX
  8
LAYER_6
 10
86.9356
 20
-192.6545
  0
SEQEND
  0
POLYLINE
  8
LAYER_6
 40
0.0353
 41
0.0353
 66
1
 10
0
 20
0
 30
0
  0
VERTEX
  8
LAYER_6
 10
86.9356
 20
-192.2945
  0
VERTEX
  8
LAYER_6
 10
82.7712
 20
-192.2945
  0
SEQEND
  0
POLYLINE
  8
LAYER_6
 40
0.0353
 41
0.0353
 66
1
 10
0
 20
0
 30
0
 70
1
  0
VERTEX
  8
LAYER_6
 10
86.9356
 20
-192.6545
  0
VERTEX
  8
LAYER_6
 10
86.9434
 20
-192.4745
  0
VERTEX
  8
LAYER_6
 10
86.9356
 20
-192.2945
 42
0.3891769251
  0
VERTEX
  8
LAYER_6
 10
84.8534
 20
-190.3845
 42
0.3891786961
  0
VERTEX
  8
LAYER_6
 10
82.7712
 20
-192.2945
  0
VERTEX
  8
LAYER_6
 10
82.7634
 20
-192.4745
  0
VERTEX
  8
LAYER_6
 10
82.7712
 20
-192.6545
 42
0.389175677
  0
VERTEX
  8
LAYER_6
 10
84.8534
 20
-194.5645
 42
0.3891739066
  0
SEQEND
  0
CIRCLE
  8
LAYER_6
 10
84.8534
 20
-192.4745
 40
2.4
  0
CIRCLE
  8
LAYER_6
 10
84.8534
 20
-192.4745
 40
2.3
  0
CIRCLE
  8
LAYER_6
 10
84.8534
 20
-192.4745
 40
2.2
  0
CIRCLE
  8
LAYER_6
 10
84.8534
 20
-192.4745
 40
2.1
  0
POLYLINE
  8
LAYER_6
 40
0.0353
 41
0.0353
 66
1
 10
0
 20
0
 30
0
  0
VERTEX
  8
LAYER_6
 10
82.9534
 20
-193.99
  0
VERTEX
  8
LAYER_6
 10
82.9534
 20
-195.1745
  0
VERTEX
  8
LAYER_6
 10
84.2408
 20
-195.1745
  0
VERTEX
  8
LAYER_6
 10
85.466
 20
-195.1745
  0
VERTEX
  8
LAYER_6
 10
86.7534
 20
-195.1745
  0
VERTEX
  8
LAYER_6
 10
86.6534
 20
-195.2745
  0
VERTEX
  8
LAYER_6
 10
83.0534
 20
-195.2745
  0
VERTEX
  8
LAYER_6
 10
82.9534
 20
-195.1745
  0
SEQEND
  0
POLYLINE
  8
LAYER_6
 40
0.0353
 41
0.0353
 66
1
 10
0
 20
0
 30
0
  0
VERTEX
  8
LAYER_6
 10
86.4534
 20
-195.2745
  0
VERTEX
  8
LAYER_6
 10
86.4534
 20
-195.4745
  0
SEQEND
  0
POLYLINE
  8
LAYER_6
 40
0.0353
 41
0.0353
 66
1
 10
0
 20
0
 30
0
  0
VERTEX
  8
LAYER_6
 10
83.2534
 20
-195.2745
  0
VERTEX
  8
LAYER_6
 10
83.2534
 20
-195.4745
  0
SEQEND
  0
POLYLINE
  8
LAYER_6
 40
0.0353
 41
0.0353
 66
1
 10
0
 20
0
 30
0
 70
1
  0
VERTEX
  8
LAYER_6
 10
87.2198
 20
-195.4745
  0
VERTEX
  8
LAYER_6
 10
87.3534
 20
-195.7547
  0
VERTEX
  8
LAYER_6
 10
87.3534
 20
-198.0209
 42
-0.1319385133
  0
VERTEX
  8
LAYER_6
 10
87.1534
 20
-198.0745
  0
VERTEX
  8
LAYER_6
 10
83.7034
 20
-198.0745
  0
VERTEX
  8
LAYER_6
 10
82.5534
 20
-198.0745
 42
-0.1319393522
  0
VERTEX
  8
LAYER_6
 10
82.3534
 20
-198.0209
  0
VERTEX
  8
LAYER_6
 10
82.3534
 20
-195.7547
  0
VERTEX
  8
LAYER_6
 10
82.487
 20
-195.4745
  0
VERTEX
  8
LAYER_6
 10
83.6702
 20
-195.4745
  0
SEQEND
  0
POLYLINE
  8
LAYER_6
  6
AIGENLINE001
 40
0.0353
 41
0.0353
 66
1
 10
0
 20
0
 30
0
 70
128
  0
VERTEX
  8
LAYER_6
 10
81.2534
 20
-192.4745
  0
VERTEX
  8
LAYER_6
 10
88.4534
 20
-192.4745
  0
SEQEND
  0
POLYLINE
  8
LAYER_6
 40
0.0353
 41
0.0353
 66
1
 10
0
 20
0
 30
0
  0
VERTEX
  8
LAYER_6
 10
88.6334
 20
-193.3233
 42
-0.4000394547
  0
VERTEX
  8
LAYER_6
 10
88.8014
 20
-193.3233
 42
0.1903999273
  0
VERTEX
  8
LAYER_6
 10
88.8854
 20
-193.3569
 42
0.190284724
  0
VERTEX
  8
LAYER_6
 10
88.9694
 20
-193.3233
 42
-0.1903999273
  0
VERTEX
  8
LAYER_6
 10
89.0534
 20
-193.2897
 42
-0.190284724
  0
VERTEX
  8
LAYER_6
 10
89.1374
 20
-193.3233
 42
0.1903999273
  0
VERTEX
  8
LAYER_6
 10
89.2214
 20
-193.3569
 42
0.190284724
  0
VERTEX
  8
LAYER_6
 10
89.3054
 20
-193.3233
 42
-0.1903999273
  0
VERTEX
  8
LAYER_6
 10
89.3894
 20
-193.2897
 42
-0.190284724
  0
VERTEX
  8
LAYER_6
 10
89.4734
 20
-193.3233
  0
SEQEND
  0
POLYLINE
  8
LAYER_6
 40
0.0353
 41
0.0353
 66
1
 10
0
 20
0
 30
0
  0
VERTEX
  8
LAYER_6
 10
88.6334
 20
-194.1599
 42
-0.3998876879
  0
VERTEX
  8
LAYER_6
 10
88.8014
 20
-194.1599
 42
0.1903999273
  0
VERTEX
  8
LAYER_6
 10
88.8854
 20
-194.1935
 42
0.190284724
  0
VERTEX
  8
LAYER_6
 10
88.9694
 20
-194.1599
 42
-0.1903999273
  0
VERTEX
  8
LAYER_6
 10
89.0534
 20
-194.1263
 42
-0.190284724
  0
VERTEX
  8
LAYER_6
 10
89.1374
 20
-194.1599
 42
0.1903999273
  0
VERTEX
  8
LAYER_6
 10
89.2214
 20
-194.1935
 42
0.190284724
  0
VERTEX
  8
LAYER_6
 10
89.3054
 20
-194.1599
 42
-0.1903999273
  0
VERTEX
  8
LAYER_6
 10
89.3894
 20
-194.1263
 42
-0.190284724
  0
VERTEX
  8
LAYER_6
 10
89.4734
 20
-194.1599
  0
SEQEND
  0
POLYLINE
  8
LAYER_6
 40
0.0353
 41
0.0353
 66
1
 10
0
 20
0
 30
0
  0
VERTEX
  8
LAYER_6
 10
105.954
 20
-200.0432
  0
VERTEX
  8
LAYER_6
 10
105.354
 20
-200.0432
  0
VERTEX
  8
LAYER_6
 10
105.354
 20
-201.4432
  0
VERTEX
  8
LAYER_6
 10
105.954
 20
-201.4432
  0
VERTEX
  8
LAYER_6
 10
105.954
 20
-200.0432
  0
VERTEX
  8
LAYER_6
 10
105.954
 20
-199.4432
  0
VERTEX
  8
LAYER_6
 10
105.954
 20
-198.0432
  0
VERTEX
  8
LAYER_6
 10
105.354
 20
-198.0432
  0
VERTEX
  8
LAYER_6
 10
105.354
 20
-199.4432
  0
VERTEX
  8
LAYER_6
 10
105.954
 20
-199.4432
  0
SEQEND
  0
POLYLINE
  8
LAYER_6
 40
0.0353
 41
0.0353
 66
1
 10
0
 20
0
 30
0
  0
VERTEX
  8
LAYER_6
 10
99.954
 20
-200.0432
  0
VERTEX
  8
LAYER_6
 10
100.254
 20
-200.0432
  0
SEQEND
  0
POLYLINE
  8
LAYER_6
 40
0.0353
 41
0.0353
 66
1
 10
0
 20
0
 30
0
  0
VERTEX
  8
LAYER_6
 10
100.254
 20
-201.2432
  0
VERTEX
  8
LAYER_6
 10
99.954
 20
-201.2432
  0
VERTEX
  8
LAYER_6
 10
99.954
 20
-200.0432
  0
VERTEX
  8
LAYER_6
 10
99.954
 20
-199.4432
  0
SEQEND
  0
POLYLINE
  8
LAYER_6
 40
0.0353
 41
0.0353
 66
1
 10
0
 20
0
 30
0
  0
VERTEX
  8
LAYER_6
 10
100.254
 20
-199.2987
  0
VERTEX
  8
LAYER_6
 10
100.2594
 20
-199.4432
  0
SEQEND
  0
POLYLINE
  8
LAYER_6
 40
0.0353
 41
0.0353
 66
1
 10
0
 20
0
 30
0
  0
VERTEX
  8
LAYER_6
 10
100.2594
 20
-200.0432
  0
VERTEX
  8
LAYER_6
 10
100.254
 20
-200.1876
  0
SEQEND
  0
POLYLINE
  8
LAYER_6
 40
0.0353
 41
0.0353
 66
1
 10
0
 20
0
 30
0
  0
VERTEX
  8
LAYER_6
 10
100.254
 20
-198.2432
  0
VERTEX
  8
LAYER_6
 10
100.6046
 20
-198.2432
 42
0.2450646977
  0
VERTEX
  8
LAYER_6
 10
101.1546
 20
-198.7379
  0
VERTEX
  8
LAYER_6
 10
101.354
 20
-198.7632
  0
VERTEX
  8
LAYER_6
 10
102.554
 20
-198.7632
 42
0.3129542704
  0
VERTEX
  8
LAYER_6
 10
103.3034
 20
-198.2432
  0
VERTEX
  8
LAYER_6
 10
105.354
 20
-198.2432
  0
SEQEND
  0
POLYLINE
  8
LAYER_6
 40
0.0353
 41
0.0353
 66
1
 10
0
 20
0
 30
0
 70
1
  0
VERTEX
  8
LAYER_6
 10
105.354
 20
-200.0432
  0
VERTEX
  8
LAYER_6
 10
101.0627
 20
-200.0432
  0
VERTEX
  8
LAYER_6
 10
100.2594
 20
-200.0432
  0
VERTEX
  8
LAYER_6
 10
100.2594
 20
-199.4432
  0
VERTEX
  8
LAYER_6
 10
101.0627
 20
-199.4432
  0
VERTEX
  8
LAYER_6
 10
105.354
 20
-199.4432
  0
SEQEND
  0
POLYLINE
  8
LAYER_6
 40
0.0353
 41
0.0353
 66
1
 10
0
 20
0
 30
0
  0
VERTEX
  8
LAYER_6
 10
105.954
 20
-200.3732
  0
VERTEX
  8
LAYER_6
 10
108.9306
 20
-200.3732
 42
0.1720549231
  0
VERTEX
  8
LAYER_6
 10
109.154
 20
-199.7432
 42
0.1720597476
  0
VERTEX
  8
LAYER_6
 10
108.9306
 20
-199.1132
  0
VERTEX
  8
LAYER_6
 10
105.954
 20
-199.1132
  0
SEQEND
  0
CIRCLE
  8
LAYER_6
 10
108.154
 20
-199.7432
 40
0.3
  0
POLYLINE
  8
LAYER_6
 40
0.0353
 41
0.0353
 66
1
 10
0
 20
0
 30
0
  0
VERTEX
  8
LAYER_6
 10
95.954
 20
-199.7493
  0
VERTEX
  8
LAYER_6
 10
99.954
 20
-199.8023
  0
SEQEND
  0
POLYLINE
  8
LAYER_6
 40
0.0353
 41
0.0353
 66
1
 10
0
 20
0
 30
0
  0
VERTEX
  8
LAYER_6
 10
99.954
 20
-199.684
  0
VERTEX
  8
LAYER_6
 10
95.954
 20
-199.7371
  0
SEQEND
  0
POLYLINE
  8
LAYER_6
 40
0.0353
 41
0.0353
 66
1
 10
0
 20
0
 30
0
  0
VERTEX
  8
LAYER_6
 10
99.954
 20
-198.7932
  0
VERTEX
  8
LAYER_6
 10
95.954
 20
-199.1432
  0
VERTEX
  8
LAYER_6
 10
95.954
 20
-199.7371
  0
VERTEX
  8
LAYER_6
 10
95.954
 20
-199.7493
  0
VERTEX
  8
LAYER_6
 10
95.954
 20
-200.3432
  0
VERTEX
  8
LAYER_6
 10
99.954
 20
-200.6931
  0
SEQEND
  0
POLYLINE
  8
LAYER_6
 40
0.0353
 41
0.0353
 66
1
 10
0
 20
0
 30
0
  0
VERTEX
  8
LAYER_6
 10
89.4734
 20
-194.1599
  0
VERTEX
  8
LAYER_6
 10
89.4734
 20
-198.3232
 42
0.4142033517
  0
VERTEX
  8
LAYER_6
 10
90.4734
 20
-199.3232
  0
VERTEX
  8
LAYER_6
 10
95.954
 20
-199.3232
  0
SEQEND
  0
POLYLINE
  8
LAYER_6
 40
0.0353
 41
0.0353
 66
1
 10
0
 20
0
 30
0
  0
VERTEX
  8
LAYER_6
 10
95.954
 20
-200.1632
  0
VERTEX
  8
LAYER_6
 10
90.4734
 20
-200.1632
 42
-0.4142080133
  0
VERTEX
  8
LAYER_6
 10
88.6334
 20
-198.3232
  0
VERTEX
  8
LAYER_6
 10
88.6334
 20
-194.1599
  0
SEQEND
  0
POLYLINE
  8
LAYER_6
 40
0.0353
 41
0.0353
 66
1
 10
0
 20
0
 30
0
  0
VERTEX
  8
LAYER_6
 10
83.8797
 20
-163.8364
 42
0.07444985936
  0
VERTEX
  8
LAYER_6
 10
83.3534
 20
-167.3511
  0
VERTEX
  8
LAYER_6
 10
83.3535
 20
-169.3243
  0
VERTEX
  8
LAYER_6
 10
83.3289
 20
-169.2997
  0
SEQEND
  0
POLYLINE
  8
LAYER_6
  6
AIGENLINE001
 40
0.0353
 41
0.0353
 66
1
 10
0
 20
0
 30
0
 70
128
  0
VERTEX
  8
LAYER_6
 10
84.8534
 20
-67.354
  0
VERTEX
  8
LAYER_6
 10
84.8534
 20
-201.0745
  0
SEQEND
  0
POLYLINE
  8
LAYER_6
 40
0.0353
 41
0.0353
 66
1
 10
0
 20
0
 30
0
  0
VERTEX
  8
LAYER_6
 10
83.8797
 20
-147.137
 42
-0.4000743237
  0
VERTEX
  8
LAYER_6
 10
84.2397
 20
-147.137
 42
0.1902091616
  0
VERTEX
  8
LAYER_6
 10
84.4197
 20
-147.209
 42
0.1901934814
  0
VERTEX
  8
LAYER_6
 10
84.5997
 20
-147.137
 42
-0.1905462348
  0
VERTEX
  8
LAYER_6
 10
84.7797
 20
-147.065
 42
-0.1905489245
  0
VERTEX
  8
LAYER_6
 10
84.9597
 20
-147.137
 42
0.1902091616
  0
VERTEX
  8
LAYER_6
 10
85.1397
 20
-147.209
 42
0.1901934814
  0
VERTEX
  8
LAYER_6
 10
85.3197
 20
-147.137
 42
-0.1905462348
  0
VERTEX
  8
LAYER_6
 10
85.4997
 20
-147.065
 42
-0.1905489245
  0
VERTEX
  8
LAYER_6
 10
85.6797
 20
-147.137
  0
SEQEND
  0
POLYLINE
  8
LAYER_6
 40
0.0353
 41
0.0353
 66
1
 10
0
 20
0
 30
0
  0
VERTEX
  8
LAYER_6
 10
83.8797
 20
-148.137
 42
-0.4000743237
  0
VERTEX
  8
LAYER_6
 10
84.2397
 20
-148.137
 42
0.1902091616
  0
VERTEX
  8
LAYER_6
 10
84.4197
 20
-148.209
 42
0.1901934814
  0
VERTEX
  8
LAYER_6
 10
84.5997
 20
-148.137
 42
-0.1905462348
  0
VERTEX
  8
LAYER_6
 10
84.7797
 20
-148.065
 42
-0.1905489245
  0
VERTEX
  8
LAYER_6
 10
84.9597
 20
-148.137
 42
0.1902091616
  0
VERTEX
  8
LAYER_6
 10
85.1397
 20
-148.209
 42
0.1901934814
  0
VERTEX
  8
LAYER_6
 10
85.3197
 20
-148.137
 42
-0.1905462348
  0
VERTEX
  8
LAYER_6
 10
85.4997
 20
-148.065
 42
-0.1905489245
  0
VERTEX
  8
LAYER_6
 10
85.6797
 20
-148.137
  0
SEQEND
  0
POLYLINE
  8
LAYER_6
 40
0.0353
 41
0.0353
 66
1
 10
0
 20
0
 30
0
  0
VERTEX
  8
LAYER_6
 10
171.6543
 20
-169.3477
  0
VERTEX
  8
LAYER_6
 10
171.6065
 20
-169.3747
  0
VERTEX
  8
LAYER_6
 10
171.6154
 20
-169.3826
  0
SEQEND
  0
POLYLINE
  8
LAYER_6
 40
0.0353
 41
0.0353
 66
1
 10
0
 20
0
 30
0
  0
VERTEX
  8
LAYER_6
 10
171.2493
 20
-169.8389
  0
VERTEX
  8
LAYER_6
 10
171.3011
 20
-169.8385
  0
SEQEND
  0
POLYLINE
  8
LAYER_6
 40
0.0353
 41
0.0353
 66
1
 10
0
 20
0
 30
0
  0
VERTEX
  8
LAYER_6
 10
177.3479
 20
-171.265
  0
VERTEX
  8
LAYER_6
 10
177.3479
 20
-169.79
  0
VERTEX
  8
LAYER_6
 10
177.3479
 20
-169.69
  0
VERTEX
  8
LAYER_6
 10
177.3479
 20
-169.29
  0
VERTEX
  8
LAYER_6
 10
176.7531
 20
-169.2952
  0
VERTEX
  8
LAYER_6
 10
173.9479
 20
-169.3197
  0
VERTEX
  8
LAYER_6
 10
172.4479
 20
-169.3328
  0
VERTEX
  8
LAYER_6
 10
171.7436
 20
-169.3389
 42
0.4116960886
  0
VERTEX
  8
LAYER_6
 10
171.2479
 20
-169.8389
  0
VERTEX
  8
LAYER_6
 10
171.2479
 20
-171.3183
  0
SEQEND
  0
POLYLINE
  8
LAYER_6
 40
0.0353
 41
0.0353
 66
1
 10
0
 20
0
 30
0
  0
VERTEX
  8
LAYER_6
 10
185.6073
 20
-171.193
  0
VERTEX
  8
LAYER_6
 10
173.9479
 20
-171.2947
  0
VERTEX
  8
LAYER_6
 10
169.6435
 20
-171.3323
 42
0.4116567607
  0
VERTEX
  8
LAYER_6
 10
169.1479
 20
-171.8323
  0
VERTEX
  8
LAYER_6
 10
169.1479
 20
-188.8477
 42
0.4116442776
  0
VERTEX
  8
LAYER_6
 10
169.6435
 20
-189.3477
  0
VERTEX
  8
LAYER_6
 10
171.0479
 20
-189.36
  0
VERTEX
  8
LAYER_6
 10
171.5479
 20
-189.3643
  0
SEQEND
  0
POLYLINE
  8
LAYER_6
 40
0.0353
 41
0.0353
 66
1
 10
0
 20
0
 30
0
  0
VERTEX
  8
LAYER_6
 10
185.9479
 20
-171.59
  0
VERTEX
  8
LAYER_6
 10
185.9479
 20
-171.19
  0
SEQEND
  0
POLYLINE
  8
LAYER_6
  6
AIGENLINE001
 40
0.0353
 41
0.0353
 66
1
 10
0
 20
0
 30
0
 70
128
  0
VERTEX
  8
LAYER_6
 10
169.3479
 20
-192.47
  0
VERTEX
  8
LAYER_6
 10
180.1479
 20
-192.47
  0
SEQEND
  0
POLYLINE
  8
LAYER_6
  6
AIGENLINE001
 40
0.0353
 41
0.0353
 66
1
 10
0
 20
0
 30
0
 70
128
  0
VERTEX
  8
LAYER_6
 10
177.6479
 20
-189.47
  0
VERTEX
  8
LAYER_6
 10
177.6479
 20
-198.67
  0
SEQEND
  0
POLYLINE
  8
LAYER_6
 40
0.0353
 41
0.0353
 66
1
 10
0
 20
0
 30
0
  0
VERTEX
  8
LAYER_6
 10
176.3479
 20
-189.67
  0
VERTEX
  8
LAYER_6
 10
176.3479
 20
-189.4062
  0
SEQEND
  0
POLYLINE
  8
LAYER_6
 40
0.0353
 41
0.0353
 66
1
 10
0
 20
0
 30
0
  0
VERTEX
  8
LAYER_6
 10
171.1479
 20
-190.07
  0
VERTEX
  8
LAYER_6
 10
170.0479
 20
-190.07
  0
SEQEND
  0
POLYLINE
  8
LAYER_6
 40
0.0353
 41
0.0353
 66
1
 10
0
 20
0
 30
0
  0
VERTEX
  8
LAYER_6
 10
171.1502
 20
-190.07
 42
0.410850187
  0
VERTEX
  8
LAYER_6
 10
171.5479
 20
-189.6723
  0
SEQEND
  0
POLYLINE
  8
LAYER_6
 40
0.0353
 41
0.0353
 66
1
 10
0
 20
0
 30
0
  0
VERTEX
  8
LAYER_6
 10
176.3479
 20
-189.6722
 42
0.4109055311
  0
VERTEX
  8
LAYER_6
 10
176.7456
 20
-190.07
  0
SEQEND
  0
POLYLINE
  8
LAYER_6
 40
0.0353
 41
0.0353
 66
1
 10
0
 20
0
 30
0
  0
VERTEX
  8
LAYER_6
 10
179.5479
 20
-195.17
  0
VERTEX
  8
LAYER_6
 10
179.5479
 20
-192.47
 42
0.4142163921
  0
VERTEX
  8
LAYER_6
 10
177.1479
 20
-190.07
  0
VERTEX
  8
LAYER_6
 10
176.7479
 20
-190.07
  0
SEQEND
  0
POLYLINE
  8
LAYER_6
 40
0.0353
 41
0.0353
 66
1
 10
0
 20
0
 30
0
  0
VERTEX
  8
LAYER_6
 10
175.7479
 20
-195.1708
 42
0.3434219933
  0
VERTEX
  8
LAYER_6
 10
175.3625
 20
-194.8707
  0
VERTEX
  8
LAYER_6
 10
175.3607
 20
-194.8707
  0
VERTEX
  8
LAYER_6
 10
170.0479
 20
-194.87
  0
SEQEND
  0
POLYLINE
  8
LAYER_6
 40
0.0353
 41
0.0353
 66
1
 10
0
 20
0
 30
0
 70
1
  0
VERTEX
  8
LAYER_6
 10
169.9479
 20
-190.17
  0
VERTEX
  8
LAYER_6
 10
169.9479
 20
-194.77
  0
VERTEX
  8
LAYER_6
 10
170.0479
 20
-194.87
  0
VERTEX
  8
LAYER_6
 10
170.0479
 20
-190.07
  0
SEQEND
  0
POLYLINE
  8
LAYER_6
 40
0.0353
 41
0.0353
 66
1
 10
0
 20
0
 30
0
 70
1
  0
VERTEX
  8
LAYER_6
 10
175.8479
 20
-195.27
  0
VERTEX
  8
LAYER_6
 10
177.6479
 20
-195.27
  0
VERTEX
  8
LAYER_6
 10
179.4479
 20
-195.27
  0
VERTEX
  8
LAYER_6
 10
179.5479
 20
-195.17
  0
VERTEX
  8
LAYER_6
 10
175.8494
 20
-195.17
  0
VERTEX
  8
LAYER_6
 10
175.7479
 20
-195.17
  0
SEQEND
  0
POLYLINE
  8
LAYER_6
 40
0.0353
 41
0.0353
 66
1
 10
0
 20
0
 30
0
  0
VERTEX
  8
LAYER_6
 10
171.5479
 20
-190.07
  0
VERTEX
  8
LAYER_6
 10
173.9479
 20
-192.47
  0
VERTEX
  8
LAYER_6
 10
176.3479
 20
-190.07
  0
SEQEND
  0
POLYLINE
  8
LAYER_6
 40
0.0353
 41
0.0353
 66
1
 10
0
 20
0
 30
0
  0
VERTEX
  8
LAYER_6
 10
179.5479
 20
-192.47
  0
VERTEX
  8
LAYER_6
 10
179.5479
 20
-192.4703
 42
-0.1756725741
  0
VERTEX
  8
LAYER_6
 10
179.402
 20
-192.8546
 42
-0.08884639998
  0
VERTEX
  8
LAYER_6
 10
179.0778
 20
-193.1568
 42
-0.058439615
  0
VERTEX
  8
LAYER_6
 10
178.184
 20
-193.6382
 42
-0.02358125235
  0
VERTEX
  8
LAYER_6
 10
177.1479
 20
-194.0192
 42
0.05028497507
  0
VERTEX
  8
LAYER_6
 10
176.7506
 20
-194.1868
 42
0.0403057158
  0
VERTEX
  8
LAYER_6
 10
175.749
 20
-194.8691
  0
SEQEND
  0
POLYLINE
  8
LAYER_6
 40
0.0353
 41
0.0353
 66
1
 10
0
 20
0
 30
0
  0
VERTEX
  8
LAYER_6
 10
169.9479
 20
-194.56
  0
VERTEX
  8
LAYER_6
 10
169.6933
 20
-194.56
 42
-0.06646505377
  0
VERTEX
  8
LAYER_6
 10
169.3901
 20
-192.65
  0
VERTEX
  8
LAYER_6
 10
169.9479
 20
-192.65
  0
SEQEND
  0
POLYLINE
  8
LAYER_6
 40
0.0353
 41
0.0353
 66
1
 10
0
 20
0
 30
0
  0
VERTEX
  8
LAYER_6
 10
169.9479
 20
-190.38
  0
VERTEX
  8
LAYER_6
 10
169.6933
 20
-190.38
 42
0.06646164917
  0
VERTEX
  8
LAYER_6
 10
169.3901
 20
-192.2899
  0
VERTEX
  8
LAYER_6
 10
169.9479
 20
-192.29
  0
SEQEND
  0
POLYLINE
  8
LAYER_6
 40
0.1905
 41
0.1905
 66
1
 10
0
 20
0
 30
0
  0
VERTEX
  8
LAYER_6
 10
180.3229
 20
-196.77
 42
0.1229429319
  0
VERTEX
  8
LAYER_6
 10
180.1558
 20
-196.0617
 42
0.09608640473
  0
VERTEX
  8
LAYER_6
 10
180.0057
 20
-195.8838
 42
0.1637991511
  0
VERTEX
  8
LAYER_6
 10
179.813
 20
-195.8131
 42
0.1412753722
  0
VERTEX
  8
LAYER_6
 10
179.6495
 20
-195.8634
 42
0.09590347644
  0
VERTEX
  8
LAYER_6
 10
179.5079
 20
-196.0032
 42
0.06998884009
  0
VERTEX
  8
LAYER_6
 10
179.3868
 20
-196.2446
 42
0.08527772196
  0
VERTEX
  8
LAYER_6
 10
179.3031
 20
-196.77
  0
SEQEND
  0
POLYLINE
  8
LAYER_6
 40
0.2399
 41
0.2399
 66
1
 10
0
 20
0
 30
0
  0
VERTEX
  8
LAYER_6
 10
177.6479
 20
-197.7269
 42
0.2838068332
  0
VERTEX
  8
LAYER_6
 10
178.5923
 20
-197.1317
 42
0.1029526626
  0
VERTEX
  8
LAYER_6
 10
178.6677
 20
-196.77
  0
SEQEND
  0
POLYLINE
  8
LAYER_6
 40
0.2469
 41
0.2469
 66
1
 10
0
 20
0
 30
0
  0
VERTEX
  8
LAYER_6
 10
179.3031
 20
-196.77
  0
VERTEX
  8
LAYER_6
 10
179.3031
 20
-197.5473
 42
0.4141894011
  0
VERTEX
  8
LAYER_6
 10
179.5031
 20
-197.7473
  0
VERTEX
  8
LAYER_6
 10
180.1229
 20
-197.7473
 42
0.4141180793
  0
VERTEX
  8
LAYER_6
 10
180.3229
 20
-197.5473
  0
VERTEX
  8
LAYER_6
 10
180.3229
 20
-196.77
  0
SEQEND
  0
POLYLINE
  8
LAYER_6
 40
0.0353
 41
0.0353
 66
1
 10
0
 20
0
 30
0
  0
VERTEX
  8
LAYER_6
 10
179.2479
 20
-195.27
  0
VERTEX
  8
LAYER_6
 10
179.2479
 20
-195.47
  0
SEQEND
  0
POLYLINE
  8
LAYER_6
 40
0.0353
 41
0.0353
 66
1
 10
0
 20
0
 30
0
  0
VERTEX
  8
LAYER_6
 10
176.0479
 20
-195.27
  0
VERTEX
  8
LAYER_6
 10
176.0479
 20
-195.47
  0
SEQEND
  0
POLYLINE
  8
LAYER_6
 40
0.0353
 41
0.0353
 66
1
 10
0
 20
0
 30
0
  0
VERTEX
  8
LAYER_6
 10
171.2993
 20
-171.3178
  0
VERTEX
  8
LAYER_6
 10
171.2993
 20
-169.847
  0
VERTEX
  8
LAYER_6
 10
171.2992
 20
-169.8361
 42
-0.3030434891
  0
VERTEX
  8
LAYER_6
 10
171.6073
 20
-169.3743
  0
SEQEND
  0
POLYLINE
  8
LAYER_6
 40
0.2469
 41
0.2469
 66
1
 10
0
 20
0
 30
0
  0
VERTEX
  8
LAYER_6
 10
175.2787
 20
-195.47
  0
VERTEX
  8
LAYER_6
 10
177.6479
 20
-195.47
  0
VERTEX
  8
LAYER_6
 10
180.0171
 20
-195.47
  0
SEQEND
  0
POLYLINE
  8
LAYER_6
 40
0.2469
 41
0.2469
 66
1
 10
0
 20
0
 30
0
  0
VERTEX
  8
LAYER_6
 10
175.3137
 20
-195.47
 42
0.1316503559
  0
VERTEX
  8
LAYER_6
 10
174.9654
 20
-196.77
  0
VERTEX
  8
LAYER_6
 10
174.9654
 20
-197.67
 42
0.4141961451
  0
VERTEX
  8
LAYER_6
 10
175.3654
 20
-198.07
  0
VERTEX
  8
LAYER_6
 10
177.6479
 20
-198.07
  0
VERTEX
  8
LAYER_6
 10
179.9304
 20
-198.07
 42
0.4142139927
  0
VERTEX
  8
LAYER_6
 10
180.3304
 20
-197.67
  0
VERTEX
  8
LAYER_6
 10
180.3304
 20
-196.77
 42
0.131651548
  0
VERTEX
  8
LAYER_6
 10
179.9821
 20
-195.47
  0
SEQEND
  0
POLYLINE
  8
LAYER_6
 40
0.1905
 41
0.1905
 66
1
 10
0
 20
0
 30
0
  0
VERTEX
  8
LAYER_6
 10
175.9928
 20
-196.77
 42
0.1229565928
  0
VERTEX
  8
LAYER_6
 10
175.8257
 20
-196.0617
 42
0.09609975301
  0
VERTEX
  8
LAYER_6
 10
175.6756
 20
-195.8838
 42
0.1637749217
  0
VERTEX
  8
LAYER_6
 10
175.4828
 20
-195.8131
 42
0.1412753722
  0
VERTEX
  8
LAYER_6
 10
175.3193
 20
-195.8634
 42
0.09590347644
  0
VERTEX
  8
LAYER_6
 10
175.1777
 20
-196.0032
 42
0.06998884009
  0
VERTEX
  8
LAYER_6
 10
175.0566
 20
-196.2446
 42
0.08527772196
  0
VERTEX
  8
LAYER_6
 10
174.9729
 20
-196.77
  0
SEQEND
  0
POLYLINE
  8
LAYER_6
 40
0.2399
 41
0.2399
 66
1
 10
0
 20
0
 30
0
  0
VERTEX
  8
LAYER_6
 10
177.6479
 20
-195.8131
 42
0.2838068332
  0
VERTEX
  8
LAYER_6
 10
176.7035
 20
-196.4083
 42
0.1029526628
  0
VERTEX
  8
LAYER_6
 10
176.6281
 20
-196.77
  0
SEQEND
  0
POLYLINE
  8
LAYER_6
 40
0.2469
 41
0.2469
 66
1
 10
0
 20
0
 30
0
  0
VERTEX
  8
LAYER_6
 10
175.9928
 20
-196.77
  0
VERTEX
  8
LAYER_6
 10
175.9928
 20
-197.5473
 42
-0.4140787054
  0
VERTEX
  8
LAYER_6
 10
175.7928
 20
-197.7473
  0
VERTEX
  8
LAYER_6
 10
175.1729
 20
-197.7473
 42
-0.4140824005
  0
VERTEX
  8
LAYER_6
 10
174.9729
 20
-197.5473
  0
VERTEX
  8
LAYER_6
 10
174.9729
 20
-196.77
  0
SEQEND
  0
POLYLINE
  8
LAYER_6
 40
0.2469
 41
0.2469
 66
1
 10
0
 20
0
 30
0
  0
VERTEX
  8
LAYER_6
 10
176.6281
 20
-196.77
  0
VERTEX
  8
LAYER_6
 10
176.6281
 20
-197.5473
 42
0.4141387541
  0
VERTEX
  8
LAYER_6
 10
176.8281
 20
-197.7473
  0
VERTEX
  8
LAYER_6
 10
177.6479
 20
-197.7473
  0
VERTEX
  8
LAYER_6
 10
178.4677
 20
-197.7473
 42
0.4141744344
  0
VERTEX
  8
LAYER_6
 10
178.6677
 20
-197.5473
  0
VERTEX
  8
LAYER_6
 10
178.6677
 20
-196.77
  0
SEQEND
  0
POLYLINE
  8
LAYER_6
 40
0.0353
 41
0.0353
 66
1
 10
0
 20
0
 30
0
  0
VERTEX
  8
LAYER_6
 10
173.0479
 20
-147.1325
 42
-0.4000743303
  0
VERTEX
  8
LAYER_6
 10
173.4079
 20
-147.1325
 42
0.1902091616
  0
VERTEX
  8
LAYER_6
 10
173.5879
 20
-147.2045
 42
0.1901934814
  0
VERTEX
  8
LAYER_6
 10
173.7679
 20
-147.1325
 42
-0.1905462348
  0
VERTEX
  8
LAYER_6
 10
173.9479
 20
-147.0605
 42
-0.1905489245
  0
VERTEX
  8
LAYER_6
 10
174.1279
 20
-147.1325
 42
0.1902091616
  0
VERTEX
  8
LAYER_6
 10
174.3079
 20
-147.2045
 42
0.1901934814
  0
VERTEX
  8
LAYER_6
 10
174.4879
 20
-147.1325
 42
-0.1905462348
  0
VERTEX
  8
LAYER_6
 10
174.6679
 20
-147.0605
 42
-0.1905489245
  0
VERTEX
  8
LAYER_6
 10
174.8479
 20
-147.1325
  0
SEQEND
  0
POLYLINE
  8
LAYER_6
 40
0.0353
 41
0.0353
 66
1
 10
0
 20
0
 30
0
  0
VERTEX
  8
LAYER_6
 10
173.0479
 20
-148.1325
 42
-0.4000743303
  0
VERTEX
  8
LAYER_6
 10
173.4079
 20
-148.1325
 42
0.1902091616
  0
VERTEX
  8
LAYER_6
 10
173.5879
 20
-148.2045
 42
0.1901934814
  0
VERTEX
  8
LAYER_6
 10
173.7679
 20
-148.1325
 42
-0.1905462348
  0
VERTEX
  8
LAYER_6
 10
173.9479
 20
-148.0605
 42
-0.1905489245
  0
VERTEX
  8
LAYER_6
 10
174.1279
 20
-148.1325
 42
0.1902091616
  0
VERTEX
  8
LAYER_6
 10
174.3079
 20
-148.2045
 42
0.1901934814
  0
VERTEX
  8
LAYER_6
 10
174.4879
 20
-148.1325
 42
-0.1905462348
  0
VERTEX
  8
LAYER_6
 10
174.6679
 20
-148.0605
 42
-0.1905489245
  0
VERTEX
  8
LAYER_6
 10
174.8479
 20
-148.1325
  0
SEQEND
  0
POLYLINE
  8
LAYER_6
  6
AIGENLINE001
 40
0.0353
 41
0.0353
 66
1
 10
0
 20
0
 30
0
 70
128
  0
VERTEX
  8
LAYER_6
 10
173.9479
 20
-126.8674
  0
VERTEX
  8
LAYER_6
 10
173.9479
 20
-197.87
  0
SEQEND
  0
POLYLINE
  8
LAYER_6
 40
0.0353
 41
0.0353
 66
1
 10
0
 20
0
 30
0
  0
VERTEX
  8
LAYER_6
 10
181.9479
 20
-148.2489
  0
VERTEX
  8
LAYER_6
 10
181.9479
 20
-171.2249
  0
SEQEND
  0
POLYLINE
  8
LAYER_6
 40
0.0353
 41
0.0353
 66
1
 10
0
 20
0
 30
0
  0
VERTEX
  8
LAYER_6
 10
182.9479
 20
-171.2162
  0
VERTEX
  8
LAYER_6
 10
182.9479
 20
-148.2489
  0
SEQEND
  0
POLYLINE
  8
LAYER_6
 40
0.0353
 41
0.0353
 66
1
 10
0
 20
0
 30
0
  0
VERTEX
  8
LAYER_6
 10
185.5514
 20
-171.1934
  0
VERTEX
  8
LAYER_6
 10
185.9479
 20
-171.19
  0
VERTEX
  8
LAYER_6
 10
185.9479
 20
-171.59
  0
VERTEX
  8
LAYER_6
 10
185.9479
 20
-171.69
  0
VERTEX
  8
LAYER_6
 10
185.9479
 20
-188.99
  0
VERTEX
  8
LAYER_6
 10
185.9479
 20
-189.09
  0
VERTEX
  8
LAYER_6
 10
185.9479
 20
-189.49
  0
VERTEX
  8
LAYER_6
 10
185.3531
 20
-189.4848
  0
VERTEX
  8
LAYER_6
 10
171.5479
 20
-189.3643
  0
VERTEX
  8
LAYER_6
 10
171.5479
 20
-189.67
  0
SEQEND
  0
POLYLINE
  8
LAYER_6
 40
0.0353
 41
0.0353
 66
1
 10
0
 20
0
 30
0
  0
VERTEX
  8
LAYER_6
 10
181.9479
 20
-148.2489
 42
-0.3998943996
  0
VERTEX
  8
LAYER_6
 10
182.1479
 20
-148.2489
 42
0.1908568911
  0
VERTEX
  8
LAYER_6
 10
182.2479
 20
-148.2889
 42
0.1912051862
  0
VERTEX
  8
LAYER_6
 10
182.3479
 20
-148.2489
 42
-0.1904588845
  0
VERTEX
  8
LAYER_6
 10
182.4479
 20
-148.2089
 42
-0.1903993085
  0
VERTEX
  8
LAYER_6
 10
182.5479
 20
-148.2489
 42
0.1908568911
  0
VERTEX
  8
LAYER_6
 10
182.6479
 20
-148.2889
 42
0.1912051862
  0
VERTEX
  8
LAYER_6
 10
182.7479
 20
-148.2489
 42
-0.1904588845
  0
VERTEX
  8
LAYER_6
 10
182.8479
 20
-148.2089
 42
-0.1903993085
  0
VERTEX
  8
LAYER_6
 10
182.9479
 20
-148.2489
  0
SEQEND
  0
POLYLINE
  8
LAYER_6
 40
0.0353
 41
0.0353
 66
1
 10
0
 20
0
 30
0
  0
VERTEX
  8
LAYER_6
 10
181.9479
 20
-147.598
 42
-0.4001322906
  0
VERTEX
  8
LAYER_6
 10
182.1479
 20
-147.598
 42
0.1904588845
  0
VERTEX
  8
LAYER_6
 10
182.2479
 20
-147.638
 42
0.1903993085
  0
VERTEX
  8
LAYER_6
 10
182.3479
 20
-147.598
 42
-0.1908568911
  0
VERTEX
  8
LAYER_6
 10
182.4479
 20
-147.558
 42
-0.1912051862
  0
VERTEX
  8
LAYER_6
 10
182.5479
 20
-147.598
 42
0.1904588845
  0
VERTEX
  8
LAYER_6
 10
182.6479
 20
-147.638
 42
0.1903993085
  0
VERTEX
  8
LAYER_6
 10
182.7479
 20
-147.598
 42
-0.1908568911
  0
VERTEX
  8
LAYER_6
 10
182.8479
 20
-147.558
 42
-0.1912051862
  0
VERTEX
  8
LAYER_6
 10
182.9479
 20
-147.598
  0
SEQEND
  0
POLYLINE
  8
LAYER_6
 40
0.0353
 41
0.0353
 66
1
 10
0
 20
0
 30
0
  0
VERTEX
  8
LAYER_6
 10
191.9801
 20
-149.2937
  0
VERTEX
  8
LAYER_6
 10
191.9801
 20
-147.3537
 42
0.393376027
  0
VERTEX
  8
LAYER_6
 10
191.9201
 20
-147.2937
 42
0.3928527672
  0
VERTEX
  8
LAYER_6
 10
191.8601
 20
-147.3537
  0
VERTEX
  8
LAYER_6
 10
191.8601
 20
-149.2937
  0
SEQEND
  0
POLYLINE
  8
LAYER_6
 40
0.0353
 41
0.0353
 66
1
 10
0
 20
0
 30
0
  0
VERTEX
  8
LAYER_6
 10
192.8601
 20
-149.2937
  0
VERTEX
  8
LAYER_6
 10
192.8601
 20
-147.3537
 42
0.393376027
  0
VERTEX
  8
LAYER_6
 10
192.8001
 20
-147.2937
 42
0.3928527672
  0
VERTEX
  8
LAYER_6
 10
192.7401
 20
-147.3537
  0
VERTEX
  8
LAYER_6
 10
192.7401
 20
-149.2937
  0
SEQEND
  0
POLYLINE
  8
LAYER_6
 40
0.0353
 41
0.0353
 66
1
 10
0
 20
0
 30
0
  0
VERTEX
  8
LAYER_6
 10
192.0601
 20
-147.7937
  0
VERTEX
  8
LAYER_6
 10
192.6601
 20
-147.7937
  0
SEQEND
  0
POLYLINE
  8
LAYER_6
 40
0.0353
 41
0.0353
 66
1
 10
0
 20
0
 30
0
  0
VERTEX
  8
LAYER_6
 10
192.0601
 20
-147.6537
  0
VERTEX
  8
LAYER_6
 10
192.6601
 20
-147.6537
  0
SEQEND
  0
POLYLINE
  8
LAYER_6
 40
0.0353
 41
0.0353
 66
1
 10
0
 20
0
 30
0
 70
1
  0
VERTEX
  8
LAYER_6
 10
191.3901
 20
-149.2937
 42
-0.4141158874
  0
VERTEX
  8
LAYER_6
 10
191.2901
 20
-149.1937
  0
VERTEX
  8
LAYER_6
 10
191.2901
 20
-148.5337
 42
-0.4142231326
  0
VERTEX
  8
LAYER_6
 10
191.3901
 20
-148.4337
  0
VERTEX
  8
LAYER_6
 10
191.4901
 20
-148.4337
  0
VERTEX
  8
LAYER_6
 10
191.4901
 20
-146.0937
 42
-0.4142231326
  0
VERTEX
  8
LAYER_6
 10
191.5901
 20
-145.9937
  0
VERTEX
  8
LAYER_6
 10
193.1301
 20
-145.9937
 42
-0.4143112762
  0
VERTEX
  8
LAYER_6
 10
193.2301
 20
-146.0937
  0
VERTEX
  8
LAYER_6
 10
193.2301
 20
-148.4337
  0
VERTEX
  8
LAYER_6
 10
193.3301
 20
-148.4337
 42
-0.4143112762
  0
VERTEX
  8
LAYER_6
 10
193.4301
 20
-148.5337
  0
VERTEX
  8
LAYER_6
 10
193.4301
 20
-149.1937
 42
-0.4142039603
  0
VERTEX
  8
LAYER_6
 10
193.3301
 20
-149.2937
  0
SEQEND
  0
POLYLINE
  8
LAYER_6
 40
0.0353
 41
0.0353
 66
1
 10
0
 20
0
 30
0
  0
VERTEX
  8
LAYER_6
 10
191.8609
 20
-155.2694
  0
VERTEX
  8
LAYER_6
 10
192.0601
 20
-149.2937
  0
VERTEX
  8
LAYER_6
 10
192.0601
 20
-147.3937
  0
VERTEX
  8
LAYER_6
 10
192.6601
 20
-147.3937
  0
VERTEX
  8
LAYER_6
 10
192.6601
 20
-149.2937
  0
VERTEX
  8
LAYER_6
 10
192.8593
 20
-155.2694
  0
SEQEND
  0
POLYLINE
  8
LAYER_6
 40
0.0353
 41
0.0353
 66
1
 10
0
 20
0
 30
0
  0
VERTEX
  8
LAYER_6
 10
192.8582
 20
-155.2362
  0
VERTEX
  8
LAYER_6
 10
192.8582
 20
-156.0525
  0
SEQEND
  0
POLYLINE
  8
LAYER_6
 40
0.0353
 41
0.0353
 66
1
 10
0
 20
0
 30
0
  0
VERTEX
  8
LAYER_6
 10
191.8609
 20
-154.9491
  0
VERTEX
  8
LAYER_6
 10
191.8609
 20
-155.948
 42
-0.4142342448
  0
VERTEX
  8
LAYER_6
 10
190.8609
 20
-156.948
  0
VERTEX
  8
LAYER_6
 10
189.3408
 20
-156.948
 42
-0.4142289102
  0
VERTEX
  8
LAYER_6
 10
188.3408
 20
-155.948
  0
VERTEX
  8
LAYER_6
 10
188.3408
 20
-147.3479
 42
0.4142186337
  0
VERTEX
  8
LAYER_6
 10
186.3408
 20
-145.3479
  0
VERTEX
  8
LAYER_6
 10
183.9479
 20
-145.3479
 42
0.4142177194
  0
VERTEX
  8
LAYER_6
 10
181.9479
 20
-147.3479
  0
VERTEX
  8
LAYER_6
 10
181.9479
 20
-147.598
  0
SEQEND
  0
POLYLINE
  8
LAYER_6
 40
0.0353
 41
0.0353
 66
1
 10
0
 20
0
 30
0
  0
VERTEX
  8
LAYER_6
 10
192.8609
 20
-155.948
 42
-0.4142239034
  0
VERTEX
  8
LAYER_6
 10
190.8609
 20
-157.948
  0
VERTEX
  8
LAYER_6
 10
189.3393
 20
-157.948
 42
-0.4142249896
  0
VERTEX
  8
LAYER_6
 10
187.3408
 20
-155.948
  0
VERTEX
  8
LAYER_6
 10
187.3408
 20
-147.3479
 42
0.4142237049
  0
VERTEX
  8
LAYER_6
 10
186.3408
 20
-146.3479
  0
VERTEX
  8
LAYER_6
 10
183.9479
 20
-146.3479
 42
0.4142218762
  0
VERTEX
  8
LAYER_6
 10
182.9479
 20
-147.3479
  0
VERTEX
  8
LAYER_6
 10
182.9479
 20
-147.598
  0
SEQEND
  0
POLYLINE
  8
LAYER_6
 40
0.0353
 41
0.0353
 66
1
 10
0
 20
0
 30
0
  0
VERTEX
  8
LAYER_6
 10
192.8601
 20
-139.6866
  0
VERTEX
  8
LAYER_6
 10
192.8601
 20
-131.9274
 42
0.4142142164
  0
VERTEX
  8
LAYER_6
 10
190.8601
 20
-129.9274
  0
VERTEX
  8
LAYER_6
 10
182.4079
 20
-129.9274
  0
SEQEND
  0
POLYLINE
  8
LAYER_6
 40
0.0353
 41
0.0353
 66
1
 10
0
 20
0
 30
0
  0
VERTEX
  8
LAYER_6
 10
191.8601
 20
-139.6866
  0
VERTEX
  8
LAYER_6
 10
191.8601
 20
-131.9274
 42
0.4142148705
  0
VERTEX
  8
LAYER_6
 10
190.8601
 20
-130.9274
  0
VERTEX
  8
LAYER_6
 10
182.4079
 20
-130.9274
  0
SEQEND
  0
POLYLINE
  8
LAYER_6
 40
0.0353
 41
0.0353
 66
1
 10
0
 20
0
 30
0
  0
VERTEX
  8
LAYER_6
 10
87.3934
 20
-35.3274
  0
VERTEX
  8
LAYER_6
 10
87.3934
 20
-5.5657
 42
0.4142079792
  0
VERTEX
  8
LAYER_6
 10
84.8534
 20
-3.0257
 42
0.4142096014
  0
VERTEX
  8
LAYER_6
 10
82.3134
 20
-5.5657
  0
VERTEX
  8
LAYER_6
 10
82.3134
 20
-35.3274
  0
SEQEND
  0
POLYLINE
  8
LAYER_6
  6
AIGENLINE001
 40
0.0353
 41
0.0353
 66
1
 10
0
 20
0
 30
0
 70
128
  0
VERTEX
  8
LAYER_6
 10
79.3134
 20
-5.5657
  0
VERTEX
  8
LAYER_6
 10
90.3934
 20
-5.5657
  0
SEQEND
  0
POLYLINE
  8
LAYER_6
  6
AIGENLINE001
 40
0.0353
 41
0.0353
 66
1
 10
0
 20
0
 30
0
 70
128
  0
VERTEX
  8
LAYER_6
 10
79.3134
 20
-35.1657
  0
VERTEX
  8
LAYER_6
 10
90.3934
 20
-35.1657
  0
SEQEND
  0
POLYLINE
  8
LAYER_6
  6
AIGENLINE001
 40
0.0353
 41
0.0353
 66
1
 10
0
 20
0
 30
0
 70
128
  0
VERTEX
  8
LAYER_6
 10
84.8534
 20
-0.0257
  0
VERTEX
  8
LAYER_6
 10
84.8534
 20
-38.1657
  0
SEQEND
  0
POLYLINE
  8
LAYER_6
 40
0.0353
 41
0.0353
 66
1
 10
0
 20
0
 30
0
  0
VERTEX
  8
LAYER_6
 10
87.3934
 20
-8.5252
 42
0.2187767009
  0
VERTEX
  8
LAYER_6
 10
88.7534
 20
-5.5657
 42
0.4142099261
  0
VERTEX
  8
LAYER_6
 10
84.8534
 20
-1.6657
 42
0.4142109826
  0
VERTEX
  8
LAYER_6
 10
80.9534
 20
-5.5657
 42
0.2187774183
  0
VERTEX
  8
LAYER_6
 10
82.3134
 20
-8.5252
  0
SEQEND
  0
POLYLINE
  8
LAYER_6
 40
0.0353
 41
0.0353
 66
1
 10
0
 20
0
 30
0
 70
1
  0
VERTEX
  8
LAYER_6
 10
174.5479
 20
-116.8274
  0
VERTEX
  8
LAYER_6
 10
170.7079
 20
-116.8274
  0
VERTEX
  8
LAYER_6
 10
170.6479
 20
-116.7674
  0
VERTEX
  8
LAYER_6
 10
174.5479
 20
-116.7674
  0
VERTEX
  8
LAYER_6
 10
178.4479
 20
-116.7674
  0
VERTEX
  8
LAYER_6
 10
178.3879
 20
-116.8274
  0
SEQEND
  0
POLYLINE
  8
LAYER_6
 40
0.0353
 41
0.0353
 66
1
 10
0
 20
0
 30
0
  0
VERTEX
  8
LAYER_6
 10
173.3199
 20
-125.9274
  0
VERTEX
  8
LAYER_6
 10
173.3199
 20
-126.1274
  0
VERTEX
  8
LAYER_6
 10
174.5479
 20
-126.1274
  0
VERTEX
  8
LAYER_6
 10
176.2479
 20
-126.1274
  0
VERTEX
  8
LAYER_6
 10
176.2479
 20
-125.9274
  0
SEQEND
  0
POLYLINE
  8
LAYER_6
 40
0.0353
 41
0.0353
 66
1
 10
0
 20
0
 30
0
  0
VERTEX
  8
LAYER_6
 10
175.1479
 20
-126.1274
  0
VERTEX
  8
LAYER_6
 10
175.1479
 20
-126.8674
 42
-0.3923136174
  0
VERTEX
  8
LAYER_6
 10
175.0879
 20
-126.9274
  0
VERTEX
  8
LAYER_6
 10
174.0079
 20
-126.9274
 42
-0.3923136174
  0
VERTEX
  8
LAYER_6
 10
173.9479
 20
-126.8674
  0
VERTEX
  8
LAYER_6
 10
173.9479
 20
-126.1274
  0
SEQEND
  0
POLYLINE
  8
LAYER_6
 40
0.0353
 41
0.0353
 66
1
 10
0
 20
0
 30
0
  0
VERTEX
  8
LAYER_6
 10
147.8333
 20
-88.2466
  0
VERTEX
  8
LAYER_6
 10
147.8333
 20
-90.0726
  0
SEQEND
  0
POLYLINE
  8
LAYER_6
  6
AIGENLINE001
 40
0.0353
 41
0.0353
 66
1
 10
0
 20
0
 30
0
 70
128
  0
VERTEX
  8
LAYER_6
 10
147.622
 20
-88.6997
  0
VERTEX
  8
LAYER_6
 10
148.0447
 20
-87.7934
  0
SEQEND
  0
POLYLINE
  8
LAYER_6
 40
0.0353
 41
0.0353
 66
1
 10
0
 20
0
 30
0
  0
VERTEX
  8
LAYER_6
 10
178.3479
 20
-114.8277
  0
VERTEX
  8
LAYER_6
 10
174.5479
 20
-114.8277
  0
VERTEX
  8
LAYER_6
 10
170.7479
 20
-114.8277
  0
SEQEND
  0
ENDSEC
  0
EOF
