  0
SECTION
  2
HEADER
  9
$ACADVER
  1
AC1009
  9
$LUNITS
 70
2
  9
$LUPREC
 70
4
  9
$LTSCALE
 40
1.0
  9
$EXTMIN
 10
33.7873
 20
-259.334
 30
0
  9
$EXTMAX
 10
256.8798
 20
22.6587
 30
0
  0
ENDSEC
  0
SECTION
  2
TABLES
  0
TABLE
  2
LTYPE
 70
256
  0
LTYPE
  2
AIGENLINE001
 70
64
  3
generate AI->DXF Converter
 72
65
 73
4
 40
2
 49
1.25
 49
-0.25
 49
0.25
 49
-0.25
  0
ENDTAB
  0
TABLE
  2
LAYER
 70
6
  0
LAYER
  2
LAYER_1
 70
64
 62
7
  6
CONTINUOUS
  0
LAYER
  2
LAYER_2
 70
64
 62
7
  6
CONTINUOUS
  0
LAYER
  2
LAYER_3
 70
64
 62
7
  6
CONTINUOUS
  0
LAYER
  2
LAYER_4
 70
64
 62
7
  6
CONTINUOUS
  0
LAYER
  2
LAYER_5
 70
64
 62
7
  6
CONTINUOUS
  0
LAYER
  2
LAYER_6
 70
64
 62
7
  6
CONTINUOUS
  0
ENDTAB
  0
TABLE
  2
STYLE
 70
6
  0
STYLE
  2
STANDARD
 70
0
 40
0
 50
0
 71
0
 41
0
 42
0
  3
TXT
  4
BIGFONT
  0
ENDTAB
  0
ENDSEC
  0
SECTION
  2
BLOCKS
  0
BLOCK
  8
LAYER_1
  2
AIGNBL01040005
 70
64
 10
0
 20
0
 30
0
  3
AIGNBL01040005
  0
POLYLINE
  8
LAYER_1
 40
0.05
 41
0.05
 66
1
 10
0
 20
0
 30
0
 70
1
  0
VERTEX
  8
LAYER_1
 10
138.3767
 20
-249.1011
  0
VERTEX
  8
LAYER_1
 10
137.891
 20
-250.2793
  0
VERTEX
  8
LAYER_1
 10
137.2664
 20
-250.2793
  0
VERTEX
  8
LAYER_1
 10
138.857
 20
-246.5355
  0
VERTEX
  8
LAYER_1
 10
139.586
 20
-246.5355
  0
VERTEX
  8
LAYER_1
 10
141.1828
 20
-250.2793
  0
VERTEX
  8
LAYER_1
 10
140.5365
 20
-250.2793
  0
VERTEX
  8
LAYER_1
 10
140.0369
 20
-249.1011
  0
SEQEND
  0
POLYLINE
  8
LAYER_1
 40
0.05
 41
0.05
 66
1
 10
0
 20
0
 30
0
 70
1
  0
VERTEX
  8
LAYER_1
 10
139.9115
 20
-248.7245
  0
VERTEX
  8
LAYER_1
 10
139.4533
 20
-247.6459
 42
-0.02267506524
  0
VERTEX
  8
LAYER_1
 10
139.2101
 20
-246.963
  0
VERTEX
  8
LAYER_1
 10
139.1967
 20
-246.963
 42
-0.02084266043
  0
VERTEX
  8
LAYER_1
 10
138.9603
 20
-247.6414
  0
VERTEX
  8
LAYER_1
 10
138.5021
 20
-248.7245
  0
SEQEND
  0
ENDBLK
  0
BLOCK
  8
LAYER_1
  2
AIGNBL01040006
 70
64
 10
0
 20
0
 30
0
  3
AIGNBL01040006
  0
POLYLINE
  8
LAYER_1
 40
0.05
 41
0.05
 66
1
 10
0
 20
0
 30
0
 70
1
  0
VERTEX
  8
LAYER_1
 10
145.5226
 20
-250.8295
 42
-0.01550180985
  0
VERTEX
  8
LAYER_1
 10
143.7311
 20
-250.3954
 42
0.09208348225
  0
VERTEX
  8
LAYER_1
 10
143.4465
 20
-250.3406
 42
-0.09252107557
  0
VERTEX
  8
LAYER_1
 10
142.4981
 20
-250.139
 42
-0.09792797557
  0
VERTEX
  8
LAYER_1
 10
141.8642
 20
-249.7067
 42
-0.1631033753
  0
VERTEX
  8
LAYER_1
 10
141.401
 20
-248.7192
 42
-0.03157985926
  0
VERTEX
  8
LAYER_1
 10
141.3839
 20
-248.4469
 42
-0.1088259969
  0
VERTEX
  8
LAYER_1
 10
141.5673
 20
-247.5875
 42
-0.1618048679
  0
VERTEX
  8
LAYER_1
 10
142.3628
 20
-246.7577
 42
-0.09175073832
  0
VERTEX
  8
LAYER_1
 10
143.1629
 20
-246.5018
 42
-0.03454354202
  0
VERTEX
  8
LAYER_1
 10
143.5644
 20
-246.4745
 42
-0.09527006366
  0
VERTEX
  8
LAYER_1
 10
144.5227
 20
-246.6511
 42
-0.1001818692
  0
VERTEX
  8
LAYER_1
 10
145.1563
 20
-247.0713
 42
-0.1611434138
  0
VERTEX
  8
LAYER_1
 10
145.6402
 20
-248.0664
 42
-0.03591204318
  0
VERTEX
  8
LAYER_1
 10
145.6617
 20
-248.3686
 42
-0.1066586367
  0
VERTEX
  8
LAYER_1
 10
145.4864
 20
-249.2186
 42
-0.2185717489
  0
VERTEX
  8
LAYER_1
 10
144.3825
 20
-250.147
 42
-0.006705231958
  0
VERTEX
  8
LAYER_1
 10
144.3281
 20
-250.1628
  0
VERTEX
  8
LAYER_1
 10
144.3281
 20
-250.1852
 42
0.01501268135
  0
VERTEX
  8
LAYER_1
 10
145.6965
 20
-250.424
  0
SEQEND
  0
POLYLINE
  8
LAYER_1
 40
0.05
 41
0.05
 66
1
 10
0
 20
0
 30
0
 70
1
  0
VERTEX
  8
LAYER_1
 10
145.0233
 20
-248.39
 42
0.1175404168
  0
VERTEX
  8
LAYER_1
 10
144.842
 20
-247.6261
 42
0.1170585149
  0
VERTEX
  8
LAYER_1
 10
144.419
 20
-247.1311
 42
0.1200111465
  0
VERTEX
  8
LAYER_1
 10
143.8094
 20
-246.8884
 42
0.0377207096
  0
VERTEX
  8
LAYER_1
 10
143.5433
 20
-246.8687
 42
0.1152954241
  0
VERTEX
  8
LAYER_1
 10
142.8054
 20
-247.0324
 42
0.1853004926
  0
VERTEX
  8
LAYER_1
 10
142.1509
 20
-247.7624
 42
0.09848637078
  0
VERTEX
  8
LAYER_1
 10
142.0296
 20
-248.4344
 42
0.120860713
  0
VERTEX
  8
LAYER_1
 10
142.2045
 20
-249.1849
 42
0.2836170694
  0
VERTEX
  8
LAYER_1
 10
143.5161
 20
-249.9468
 42
0.1188766714
  0
VERTEX
  8
LAYER_1
 10
144.2605
 20
-249.7757
 42
0.1796046283
  0
VERTEX
  8
LAYER_1
 10
144.8972
 20
-249.063
 42
0.09851098502
  0
SEQEND
  0
ENDBLK
  0
BLOCK
  8
LAYER_1
  2
AIGNBL01040007
 70
64
 10
0
 20
0
 30
0
  3
AIGNBL01040007
  0
POLYLINE
  8
LAYER_1
 40
0.05
 41
0.05
 66
1
 10
0
 20
0
 30
0
 70
1
  0
VERTEX
  8
LAYER_1
 10
146.9815
 20
-246.5355
  0
VERTEX
  8
LAYER_1
 10
146.9815
 20
-248.7517
 42
0.1257910062
  0
VERTEX
  8
LAYER_1
 10
147.1475
 20
-249.4752
 42
0.2217269733
  0
VERTEX
  8
LAYER_1
 10
147.7914
 20
-249.9203
 42
0.04937688774
  0
VERTEX
  8
LAYER_1
 10
148.0716
 20
-249.9468
 42
0.1302851362
  0
VERTEX
  8
LAYER_1
 10
148.7372
 20
-249.787
 42
0.1509632316
  0
VERTEX
  8
LAYER_1
 10
149.0862
 20
-249.3957
 42
0.1174446198
  0
VERTEX
  8
LAYER_1
 10
149.2105
 20
-248.7517
  0
VERTEX
  8
LAYER_1
 10
149.2105
 20
-246.5355
  0
VERTEX
  8
LAYER_1
 10
149.8217
 20
-246.5355
  0
VERTEX
  8
LAYER_1
 10
149.8217
 20
-248.7187
 42
-0.1106784388
  0
VERTEX
  8
LAYER_1
 10
149.6531
 20
-249.5323
 42
-0.1857051526
  0
VERTEX
  8
LAYER_1
 10
148.9481
 20
-250.1807
 42
-0.09650175554
  0
VERTEX
  8
LAYER_1
 10
148.1451
 20
-250.3392
 42
-0.007939811217
  0
VERTEX
  8
LAYER_1
 10
148.0509
 20
-250.3406
 42
-0.102315967
  0
VERTEX
  8
LAYER_1
 10
147.1661
 20
-250.1733
 42
-0.1218859814
  0
VERTEX
  8
LAYER_1
 10
146.6722
 20
-249.7872
 42
-0.1186228201
  0
VERTEX
  8
LAYER_1
 10
146.4122
 20
-249.188
 42
-0.0498693672
  0
VERTEX
  8
LAYER_1
 10
146.3707
 20
-248.7404
  0
VERTEX
  8
LAYER_1
 10
146.3707
 20
-246.5355
  0
SEQEND
  0
ENDBLK
  0
BLOCK
  8
LAYER_1
  2
AIGNBL01040008
 70
64
 10
0
 20
0
 30
0
  3
AIGNBL01040008
  0
POLYLINE
  8
LAYER_1
 40
0.05
 41
0.05
 66
1
 10
0
 20
0
 30
0
 70
1
  0
VERTEX
  8
LAYER_1
 10
151.5573
 20
-249.1011
  0
VERTEX
  8
LAYER_1
 10
151.0709
 20
-250.2793
  0
VERTEX
  8
LAYER_1
 10
150.447
 20
-250.2793
  0
VERTEX
  8
LAYER_1
 10
152.0365
 20
-246.5355
  0
VERTEX
  8
LAYER_1
 10
152.7655
 20
-246.5355
  0
VERTEX
  8
LAYER_1
 10
154.3623
 20
-250.2793
  0
VERTEX
  8
LAYER_1
 10
153.7167
 20
-250.2793
  0
VERTEX
  8
LAYER_1
 10
153.2175
 20
-249.1011
  0
SEQEND
  0
POLYLINE
  8
LAYER_1
 40
0.05
 41
0.05
 66
1
 10
0
 20
0
 30
0
 70
1
  0
VERTEX
  8
LAYER_1
 10
153.0921
 20
-248.7245
  0
VERTEX
  8
LAYER_1
 10
152.6332
 20
-247.6459
 42
-0.02235179902
  0
VERTEX
  8
LAYER_1
 10
152.3897
 20
-246.963
  0
VERTEX
  8
LAYER_1
 10
152.3759
 20
-246.963
 42
-0.02046417189
  0
VERTEX
  8
LAYER_1
 10
152.1402
 20
-247.6414
  0
VERTEX
  8
LAYER_1
 10
151.682
 20
-248.7245
  0
SEQEND
  0
ENDBLK
  0
BLOCK
  8
LAYER_1
  2
AIGNBL01040009
 70
64
 10
0
 20
0
 30
0
  3
AIGNBL01040009
  0
POLYLINE
  8
LAYER_1
 40
0.05
 41
0.05
 66
1
 10
0
 20
0
 30
0
 70
1
  0
VERTEX
  8
LAYER_1
 10
155.3969
 20
-246.58
 42
-0.03349666815
  0
VERTEX
  8
LAYER_1
 10
156.5576
 20
-246.5072
 42
-0.09004353297
  0
VERTEX
  8
LAYER_1
 10
157.6057
 20
-246.6749
 42
-0.05888505928
  0
VERTEX
  8
LAYER_1
 10
157.8691
 20
-246.8184
 42
-0.2472492651
  0
VERTEX
  8
LAYER_1
 10
158.279
 20
-247.6018
 42
-0.1502534052
  0
VERTEX
  8
LAYER_1
 10
158.1063
 20
-248.1984
 42
-0.07033867127
  0
VERTEX
  8
LAYER_1
 10
157.9177
 20
-248.4014
 42
-0.1211283655
  0
VERTEX
  8
LAYER_1
 10
157.2351
 20
-248.728
 42
-0.06222086556
  0
VERTEX
  8
LAYER_1
 10
156.4872
 20
-248.8127
 42
-0.05750856268
  0
VERTEX
  8
LAYER_1
 10
156.0015
 20
-248.7793
  0
VERTEX
  8
LAYER_1
 10
156.0015
 20
-250.2793
  0
VERTEX
  8
LAYER_1
 10
155.3969
 20
-250.2793
  0
SEQEND
  0
POLYLINE
  8
LAYER_1
 40
0.05
 41
0.05
 66
1
 10
0
 20
0
 30
0
 70
1
  0
VERTEX
  8
LAYER_1
 10
156.0015
 20
-248.3852
 42
0.04897120882
  0
VERTEX
  8
LAYER_1
 10
156.501
 20
-248.4245
 42
0.1137012619
  0
VERTEX
  8
LAYER_1
 10
157.2816
 20
-248.2659
 42
0.1652714782
  0
VERTEX
  8
LAYER_1
 10
157.6173
 20
-247.9196
 42
0.1043893073
  0
VERTEX
  8
LAYER_1
 10
157.6751
 20
-247.6242
 42
0.2865639904
  0
VERTEX
  8
LAYER_1
 10
157.3169
 20
-247.0395
 42
0.06445412413
  0
VERTEX
  8
LAYER_1
 10
157.0376
 20
-246.9388
 42
0.05784391407
  0
VERTEX
  8
LAYER_1
 10
156.5713
 20
-246.891
 42
0.05268039105
  0
VERTEX
  8
LAYER_1
 10
156.0015
 20
-246.93
  0
SEQEND
  0
ENDBLK
  0
BLOCK
  8
LAYER_1
  2
AIGNBL0104000A
 70
64
 10
0
 20
0
 30
0
  3
AIGNBL0104000A
  0
POLYLINE
  8
LAYER_1
 40
0.05
 41
0.05
 66
1
 10
0
 20
0
 30
0
 70
1
  0
VERTEX
  8
LAYER_1
 10
159.8218
 20
-246.8352
 42
-0.3039545568
  0
VERTEX
  8
LAYER_1
 10
159.6562
 20
-247.0887
 42
-0.1152466046
  0
VERTEX
  8
LAYER_1
 10
159.4325
 20
-247.1356
 42
-0.2445179838
  0
VERTEX
  8
LAYER_1
 10
159.1045
 20
-246.9759
 42
-0.1392448976
  0
VERTEX
  8
LAYER_1
 10
159.0645
 20
-246.8352
 42
-0.2871964131
  0
VERTEX
  8
LAYER_1
 10
159.2352
 20
-246.5772
 42
-0.118108641
  0
VERTEX
  8
LAYER_1
 10
159.4459
 20
-246.53
 42
-0.2414655549
  0
VERTEX
  8
LAYER_1
 10
159.7788
 20
-246.6849
 42
-0.1427828857
  0
SEQEND
  0
POLYLINE
  8
LAYER_1
 40
0.05
 41
0.05
 66
1
 10
0
 20
0
 30
0
 70
1
  0
VERTEX
  8
LAYER_1
 10
159.1407
 20
-250.2793
  0
VERTEX
  8
LAYER_1
 10
159.1407
 20
-247.5907
  0
VERTEX
  8
LAYER_1
 10
159.7515
 20
-247.5907
  0
VERTEX
  8
LAYER_1
 10
159.7515
 20
-250.2793
  0
SEQEND
  0
ENDBLK
  0
BLOCK
  8
LAYER_1
  2
AIGNBL0104000B
 70
64
 10
0
 20
0
 30
0
  3
AIGNBL0104000B
  0
POLYLINE
  8
LAYER_1
 40
0.05
 41
0.05
 66
1
 10
0
 20
0
 30
0
 70
1
  0
VERTEX
  8
LAYER_1
 10
161.6118
 20
-249.1011
  0
VERTEX
  8
LAYER_1
 10
161.1271
 20
-250.2793
  0
VERTEX
  8
LAYER_1
 10
160.5015
 20
-250.2793
  0
VERTEX
  8
LAYER_1
 10
162.0918
 20
-246.5355
  0
VERTEX
  8
LAYER_1
 10
162.8211
 20
-246.5355
  0
VERTEX
  8
LAYER_1
 10
164.4186
 20
-250.2793
  0
VERTEX
  8
LAYER_1
 10
163.7719
 20
-250.2793
  0
VERTEX
  8
LAYER_1
 10
163.2727
 20
-249.1011
  0
SEQEND
  0
POLYLINE
  8
LAYER_1
 40
0.05
 41
0.05
 66
1
 10
0
 20
0
 30
0
 70
1
  0
VERTEX
  8
LAYER_1
 10
163.1473
 20
-248.7245
  0
VERTEX
  8
LAYER_1
 10
162.6891
 20
-247.6459
 42
-0.02473673698
  0
VERTEX
  8
LAYER_1
 10
162.4466
 20
-246.963
  0
VERTEX
  8
LAYER_1
 10
162.4321
 20
-246.963
 42
-0.01905982629
  0
VERTEX
  8
LAYER_1
 10
162.1961
 20
-247.6414
  0
VERTEX
  8
LAYER_1
 10
161.7379
 20
-248.7245
  0
SEQEND
  0
ENDBLK
  0
BLOCK
  8
LAYER_1
  2
AIGNBL01030004
 70
64
 10
0
 20
0
 30
0
  3
AIGNBL01030004
  0
INSERT
  8
LAYER_1
  2
AIGNBL01040005
 10
0
 20
0
 30
0
  0
INSERT
  8
LAYER_1
  2
AIGNBL01040006
 10
0
 20
0
 30
0
  0
INSERT
  8
LAYER_1
  2
AIGNBL01040007
 10
0
 20
0
 30
0
  0
INSERT
  8
LAYER_1
  2
AIGNBL01040008
 10
0
 20
0
 30
0
  0
INSERT
  8
LAYER_1
  2
AIGNBL01040009
 10
0
 20
0
 30
0
  0
INSERT
  8
LAYER_1
  2
AIGNBL0104000A
 10
0
 20
0
 30
0
  0
INSERT
  8
LAYER_1
  2
AIGNBL0104000B
 10
0
 20
0
 30
0
  0
ENDBLK
  0
BLOCK
  8
LAYER_1
  2
AIGNBL0103000D
 70
64
 10
0
 20
0
 30
0
  3
AIGNBL0103000D
  0
POLYLINE
  8
LAYER_1
 40
0.05
 41
0.05
 66
1
 10
0
 20
0
 30
0
 70
1
  0
VERTEX
  8
LAYER_1
 10
137.3756
 20
-252.1676
  0
VERTEX
  8
LAYER_1
 10
137.9258
 20
-252.1676
  0
VERTEX
  8
LAYER_1
 10
137.9258
 20
-252.2609
  0
VERTEX
  8
LAYER_1
 10
137.2715
 20
-252.2609
  0
VERTEX
  8
LAYER_1
 10
137.2715
 20
-251.2339
  0
VERTEX
  8
LAYER_1
 10
137.9082
 20
-251.2339
  0
VERTEX
  8
LAYER_1
 10
137.9082
 20
-251.3266
  0
VERTEX
  8
LAYER_1
 10
137.3756
 20
-251.3266
  0
VERTEX
  8
LAYER_1
 10
137.3756
 20
-251.6787
  0
VERTEX
  8
LAYER_1
 10
137.8734
 20
-251.6787
  0
VERTEX
  8
LAYER_1
 10
137.8734
 20
-251.7717
  0
VERTEX
  8
LAYER_1
 10
137.3756
 20
-251.7717
  0
SEQEND
  0
ENDBLK
  0
BLOCK
  8
LAYER_1
  2
AIGNBL0103000E
 70
64
 10
0
 20
0
 30
0
  3
AIGNBL0103000E
  0
POLYLINE
  8
LAYER_1
 40
0.05
 41
0.05
 66
1
 10
0
 20
0
 30
0
 70
1
  0
VERTEX
  8
LAYER_1
 10
139.0589
 20
-252.1079
  0
VERTEX
  8
LAYER_1
 10
139.0613
 20
-252.1079
  0
VERTEX
  8
LAYER_1
 10
139.0613
 20
-251.2339
  0
VERTEX
  8
LAYER_1
 10
139.1663
 20
-251.2339
  0
VERTEX
  8
LAYER_1
 10
139.1663
 20
-252.2609
  0
VERTEX
  8
LAYER_1
 10
139.0365
 20
-252.2609
  0
VERTEX
  8
LAYER_1
 10
138.4384
 20
-251.3772
  0
VERTEX
  8
LAYER_1
 10
138.435
 20
-251.3772
  0
VERTEX
  8
LAYER_1
 10
138.435
 20
-252.2609
  0
VERTEX
  8
LAYER_1
 10
138.3306
 20
-252.2609
  0
VERTEX
  8
LAYER_1
 10
138.3306
 20
-251.2339
  0
VERTEX
  8
LAYER_1
 10
138.4611
 20
-251.2339
  0
SEQEND
  0
ENDBLK
  0
BLOCK
  8
LAYER_1
  2
AIGNBL0103000F
 70
64
 10
0
 20
0
 30
0
  3
AIGNBL0103000F
  0
POLYLINE
  8
LAYER_1
 40
0.05
 41
0.05
 66
1
 10
0
 20
0
 30
0
 70
1
  0
VERTEX
  8
LAYER_1
 10
139.637
 20
-252.0501
 42
0.1590284934
  0
VERTEX
  8
LAYER_1
 10
139.691
 20
-252.1527
 42
0.1903970375
  0
VERTEX
  8
LAYER_1
 10
139.8034
 20
-252.1937
  0
VERTEX
  8
LAYER_1
 10
139.8922
 20
-252.1744
  0
VERTEX
  8
LAYER_1
 10
139.948
 20
-252.1214
  0
VERTEX
  8
LAYER_1
 10
139.9763
 20
-252.0453
  0
VERTEX
  8
LAYER_1
 10
139.9853
 20
-251.956
  0
VERTEX
  8
LAYER_1
 10
139.9853
 20
-251.2339
  0
VERTEX
  8
LAYER_1
 10
140.0893
 20
-251.2339
  0
VERTEX
  8
LAYER_1
 10
140.0893
 20
-251.965
  0
VERTEX
  8
LAYER_1
 10
140.0783
 20
-252.0718
 42
-0.08830433873
  0
VERTEX
  8
LAYER_1
 10
140.0369
 20
-252.1765
 42
-0.1153589887
  0
VERTEX
  8
LAYER_1
 10
139.9529
 20
-252.2554
 42
-0.1266166698
  0
VERTEX
  8
LAYER_1
 10
139.8147
 20
-252.2868
 42
-0.1823786802
  0
VERTEX
  8
LAYER_1
 10
139.6311
 20
-252.2268
 42
-0.1773090787
  0
VERTEX
  8
LAYER_1
 10
139.5391
 20
-252.0769
  0
SEQEND
  0
ENDBLK
  0
BLOCK
  8
LAYER_1
  2
AIGNBL01030010
 70
64
 10
0
 20
0
 30
0
  3
AIGNBL01030010
  0
POLYLINE
  8
LAYER_1
 40
0.05
 41
0.05
 66
1
 10
0
 20
0
 30
0
 70
1
  0
VERTEX
  8
LAYER_1
 10
141.5693
 20
-251.7469
 42
-0.1023745756
  0
VERTEX
  8
LAYER_1
 10
141.5279
 20
-251.9629
 42
-0.1012381663
  0
VERTEX
  8
LAYER_1
 10
141.4163
 20
-252.1338
 42
-0.09607034471
  0
VERTEX
  8
LAYER_1
 10
141.2458
 20
-252.2461
 42
-0.09758991962
  0
VERTEX
  8
LAYER_1
 10
141.0332
 20
-252.2868
 42
-0.09910038025
  0
VERTEX
  8
LAYER_1
 10
140.8207
 20
-252.2461
 42
-0.09835332354
  0
VERTEX
  8
LAYER_1
 10
140.6512
 20
-252.1338
 42
-0.09652080474
  0
VERTEX
  8
LAYER_1
 10
140.5389
 20
-251.9629
 42
-0.09814472372
  0
VERTEX
  8
LAYER_1
 10
140.4986
 20
-251.7469
 42
-0.1026891031
  0
VERTEX
  8
LAYER_1
 10
140.5389
 20
-251.5306
 42
-0.09919197624
  0
VERTEX
  8
LAYER_1
 10
140.6512
 20
-251.3604
 42
-0.09851015914
  0
VERTEX
  8
LAYER_1
 10
140.8207
 20
-251.2481
 42
-0.0978389277
  0
VERTEX
  8
LAYER_1
 10
141.0332
 20
-251.2071
 42
-0.1012755921
  0
VERTEX
  8
LAYER_1
 10
141.2458
 20
-251.2481
 42
-0.101055447
  0
VERTEX
  8
LAYER_1
 10
141.4163
 20
-251.3604
 42
-0.100284748
  0
VERTEX
  8
LAYER_1
 10
141.5279
 20
-251.5306
 42
-0.09841189494
  0
SEQEND
  0
POLYLINE
  8
LAYER_1
 40
0.05
 41
0.05
 66
1
 10
0
 20
0
 30
0
 70
1
  0
VERTEX
  8
LAYER_1
 10
141.4584
 20
-251.7476
 42
0.08348185165
  0
VERTEX
  8
LAYER_1
 10
141.4301
 20
-251.5767
 42
0.09888736064
  0
VERTEX
  8
LAYER_1
 10
141.3454
 20
-251.4344
 42
0.1046117232
  0
VERTEX
  8
LAYER_1
 10
141.211
 20
-251.337
 42
0.1084373712
  0
VERTEX
  8
LAYER_1
 10
141.0332
 20
-251.3001
 42
0.1126508353
  0
VERTEX
  8
LAYER_1
 10
140.8558
 20
-251.337
 42
0.1080671084
  0
VERTEX
  8
LAYER_1
 10
140.7225
 20
-251.4344
 42
0.09765540905
  0
VERTEX
  8
LAYER_1
 10
140.6374
 20
-251.5767
 42
0.08446298011
  0
VERTEX
  8
LAYER_1
 10
140.6081
 20
-251.7476
 42
0.08257781466
  0
VERTEX
  8
LAYER_1
 10
140.6374
 20
-251.9188
 42
0.1022479965
  0
VERTEX
  8
LAYER_1
 10
140.7225
 20
-252.0607
 42
0.1007994813
  0
VERTEX
  8
LAYER_1
 10
140.8558
 20
-252.1575
 42
0.1058339915
  0
VERTEX
  8
LAYER_1
 10
141.0332
 20
-252.1937
 42
0.1146720599
  0
VERTEX
  8
LAYER_1
 10
141.211
 20
-252.1575
 42
0.1074750371
  0
VERTEX
  8
LAYER_1
 10
141.3454
 20
-252.0607
 42
0.0957445035
  0
VERTEX
  8
LAYER_1
 10
141.4301
 20
-251.9188
 42
0.08253202369
  0
SEQEND
  0
ENDBLK
  0
BLOCK
  8
LAYER_1
  2
AIGNBL01030011
 70
64
 10
0
 20
0
 30
0
  3
AIGNBL01030011
  0
POLYLINE
  8
LAYER_1
 40
0.05
 41
0.05
 66
1
 10
0
 20
0
 30
0
 70
1
  0
VERTEX
  8
LAYER_1
 10
142.3393
 20
-252.2609
  0
VERTEX
  8
LAYER_1
 10
142.2349
 20
-252.2609
  0
VERTEX
  8
LAYER_1
 10
142.2349
 20
-251.8182
  0
VERTEX
  8
LAYER_1
 10
141.8504
 20
-251.2339
  0
VERTEX
  8
LAYER_1
 10
141.9813
 20
-251.2339
  0
VERTEX
  8
LAYER_1
 10
142.2904
 20
-251.7311
  0
VERTEX
  8
LAYER_1
 10
142.6022
 20
-251.2339
  0
VERTEX
  8
LAYER_1
 10
142.7234
 20
-251.2339
  0
VERTEX
  8
LAYER_1
 10
142.3393
 20
-251.8182
  0
SEQEND
  0
ENDBLK
  0
BLOCK
  8
LAYER_1
  2
AIGNBL01030012
 70
64
 10
0
 20
0
 30
0
  3
AIGNBL01030012
  0
POLYLINE
  8
LAYER_1
 40
0.05
 41
0.05
 66
1
 10
0
 20
0
 30
0
 70
1
  0
VERTEX
  8
LAYER_1
 10
143.6236
 20
-251.2339
  0
VERTEX
  8
LAYER_1
 10
143.9288
 20
-251.2339
  0
VERTEX
  8
LAYER_1
 10
144.047
 20
-251.2457
  0
VERTEX
  8
LAYER_1
 10
144.1528
 20
-251.288
 42
-0.1142786728
  0
VERTEX
  8
LAYER_1
 10
144.2307
 20
-251.3686
 42
-0.1221660448
  0
VERTEX
  8
LAYER_1
 10
144.2603
 20
-251.4961
 42
-0.1789908253
  0
VERTEX
  8
LAYER_1
 10
144.2103
 20
-251.6373
 42
-0.1682964985
  0
VERTEX
  8
LAYER_1
 10
144.078
 20
-251.7166
  0
VERTEX
  8
LAYER_1
 10
144.078
 20
-251.7194
 42
-0.1720252291
  0
VERTEX
  8
LAYER_1
 10
144.2434
 20
-251.7969
 42
-0.2011476059
  0
VERTEX
  8
LAYER_1
 10
144.3099
 20
-251.9764
 42
-0.1263581039
  0
VERTEX
  8
LAYER_1
 10
144.2823
 20
-252.0928
 42
-0.1151202894
  0
VERTEX
  8
LAYER_1
 10
144.2062
 20
-252.1831
 42
-0.08559391469
  0
VERTEX
  8
LAYER_1
 10
144.0866
 20
-252.2402
 42
-0.06581098886
  0
VERTEX
  8
LAYER_1
 10
143.9275
 20
-252.2609
  0
VERTEX
  8
LAYER_1
 10
143.6236
 20
-252.2609
  0
SEQEND
  0
POLYLINE
  8
LAYER_1
 40
0.05
 41
0.05
 66
1
 10
0
 20
0
 30
0
 70
1
  0
VERTEX
  8
LAYER_1
 10
143.7277
 20
-251.6832
  0
VERTEX
  8
LAYER_1
 10
143.9382
 20
-251.6832
  0
VERTEX
  8
LAYER_1
 10
144.0146
 20
-251.6742
  0
VERTEX
  8
LAYER_1
 10
144.0842
 20
-251.6453
  0
VERTEX
  8
LAYER_1
 10
144.1362
 20
-251.5888
 42
0.1124449043
  0
VERTEX
  8
LAYER_1
 10
144.1552
 20
-251.5034
  0
VERTEX
  8
LAYER_1
 10
144.1362
 20
-251.4203
  0
VERTEX
  8
LAYER_1
 10
144.0835
 20
-251.3638
  0
VERTEX
  8
LAYER_1
 10
144.005
 20
-251.3328
  0
VERTEX
  8
LAYER_1
 10
143.9089
 20
-251.3235
  0
VERTEX
  8
LAYER_1
 10
143.7277
 20
-251.3235
  0
SEQEND
  0
POLYLINE
  8
LAYER_1
 40
0.05
 41
0.05
 66
1
 10
0
 20
0
 30
0
 70
1
  0
VERTEX
  8
LAYER_1
 10
143.7277
 20
-252.171
  0
VERTEX
  8
LAYER_1
 10
143.9223
 20
-252.171
  0
VERTEX
  8
LAYER_1
 10
144.0301
 20
-252.1596
  0
VERTEX
  8
LAYER_1
 10
144.1204
 20
-252.1252
  0
VERTEX
  8
LAYER_1
 10
144.181
 20
-252.0625
 42
0.1349508047
  0
VERTEX
  8
LAYER_1
 10
144.2048
 20
-251.9705
 42
0.2483168689
  0
VERTEX
  8
LAYER_1
 10
144.1362
 20
-251.8189
 42
0.1537491355
  0
VERTEX
  8
LAYER_1
 10
143.9413
 20
-251.7686
  0
VERTEX
  8
LAYER_1
 10
143.7277
 20
-251.7686
  0
SEQEND
  0
ENDBLK
  0
BLOCK
  8
LAYER_1
  2
AIGNBL01030013
 70
64
 10
0
 20
0
 30
0
  3
AIGNBL01030013
  0
POLYLINE
  8
LAYER_1
 40
0.05
 41
0.05
 66
1
 10
0
 20
0
 30
0
 70
1
  0
VERTEX
  8
LAYER_1
 10
144.7388
 20
-252.2609
  0
VERTEX
  8
LAYER_1
 10
144.6241
 20
-252.2609
  0
VERTEX
  8
LAYER_1
 10
145.0685
 20
-251.2339
  0
VERTEX
  8
LAYER_1
 10
145.1705
 20
-251.2339
  0
VERTEX
  8
LAYER_1
 10
145.6111
 20
-252.2609
  0
VERTEX
  8
LAYER_1
 10
145.4943
 20
-252.2609
  0
VERTEX
  8
LAYER_1
 10
145.3813
 20
-251.9912
  0
VERTEX
  8
LAYER_1
 10
144.8504
 20
-251.9912
  0
SEQEND
  0
POLYLINE
  8
LAYER_1
 40
0.05
 41
0.05
 66
1
 10
0
 20
0
 30
0
 70
1
  0
VERTEX
  8
LAYER_1
 10
144.8894
 20
-251.8947
  0
VERTEX
  8
LAYER_1
 10
145.3424
 20
-251.8947
  0
VERTEX
  8
LAYER_1
 10
145.1164
 20
-251.3493
  0
SEQEND
  0
ENDBLK
  0
BLOCK
  8
LAYER_1
  2
AIGNBL01030014
 70
64
 10
0
 20
0
 30
0
  3
AIGNBL01030014
  0
POLYLINE
  8
LAYER_1
 40
0.05
 41
0.05
 66
1
 10
0
 20
0
 30
0
 70
1
  0
VERTEX
  8
LAYER_1
 10
146.2915
 20
-252.2609
  0
VERTEX
  8
LAYER_1
 10
146.1871
 20
-252.2609
  0
VERTEX
  8
LAYER_1
 10
146.1871
 20
-251.3266
  0
VERTEX
  8
LAYER_1
 10
145.8426
 20
-251.3266
  0
VERTEX
  8
LAYER_1
 10
145.8426
 20
-251.2339
  0
VERTEX
  8
LAYER_1
 10
146.635
 20
-251.2339
  0
VERTEX
  8
LAYER_1
 10
146.635
 20
-251.3266
  0
VERTEX
  8
LAYER_1
 10
146.2915
 20
-251.3266
  0
SEQEND
  0
ENDBLK
  0
BLOCK
  8
LAYER_1
  2
AIGNBL01030015
 70
64
 10
0
 20
0
 30
0
  3
AIGNBL01030015
  0
POLYLINE
  8
LAYER_1
 40
0.05
 41
0.05
 66
1
 10
0
 20
0
 30
0
 70
1
  0
VERTEX
  8
LAYER_1
 10
146.9888
 20
-251.2339
  0
VERTEX
  8
LAYER_1
 10
147.0932
 20
-251.2339
  0
VERTEX
  8
LAYER_1
 10
147.0932
 20
-251.6787
  0
VERTEX
  8
LAYER_1
 10
147.654
 20
-251.6787
  0
VERTEX
  8
LAYER_1
 10
147.654
 20
-251.2339
  0
VERTEX
  8
LAYER_1
 10
147.7581
 20
-251.2339
  0
VERTEX
  8
LAYER_1
 10
147.7581
 20
-252.2609
  0
VERTEX
  8
LAYER_1
 10
147.654
 20
-252.2609
  0
VERTEX
  8
LAYER_1
 10
147.654
 20
-251.7745
  0
VERTEX
  8
LAYER_1
 10
147.0932
 20
-251.7745
  0
VERTEX
  8
LAYER_1
 10
147.0932
 20
-252.2609
  0
VERTEX
  8
LAYER_1
 10
146.9888
 20
-252.2609
  0
SEQEND
  0
ENDBLK
  0
BLOCK
  8
LAYER_1
  2
AIGNBL01030016
 70
64
 10
0
 20
0
 30
0
  3
AIGNBL01030016
  0
POLYLINE
  8
LAYER_1
 40
0.05
 41
0.05
 66
1
 10
0
 20
0
 30
0
 70
1
  0
VERTEX
  8
LAYER_1
 10
148.3351
 20
-252.2609
  0
VERTEX
  8
LAYER_1
 10
148.2311
 20
-252.2609
  0
VERTEX
  8
LAYER_1
 10
148.2311
 20
-251.2339
  0
VERTEX
  8
LAYER_1
 10
148.5322
 20
-251.2339
  0
VERTEX
  8
LAYER_1
 10
148.6724
 20
-251.2481
 42
-0.1023663758
  0
VERTEX
  8
LAYER_1
 10
148.7844
 20
-251.2953
 42
-0.1332028562
  0
VERTEX
  8
LAYER_1
 10
148.8571
 20
-251.38
 42
-0.109414644
  0
VERTEX
  8
LAYER_1
 10
148.8829
 20
-251.5078
  0
VERTEX
  8
LAYER_1
 10
148.8636
 20
-251.6108
  0
VERTEX
  8
LAYER_1
 10
148.8088
 20
-251.6911
  0
VERTEX
  8
LAYER_1
 10
148.7258
 20
-251.7459
  0
VERTEX
  8
LAYER_1
 10
148.6214
 20
-251.7717
  0
VERTEX
  8
LAYER_1
 10
148.9211
 20
-252.2609
  0
VERTEX
  8
LAYER_1
 10
148.7937
 20
-252.2609
  0
VERTEX
  8
LAYER_1
 10
148.5098
 20
-251.7807
  0
VERTEX
  8
LAYER_1
 10
148.3351
 20
-251.7807
  0
SEQEND
  0
POLYLINE
  8
LAYER_1
 40
0.05
 41
0.05
 66
1
 10
0
 20
0
 30
0
 70
1
  0
VERTEX
  8
LAYER_1
 10
148.3351
 20
-251.6904
  0
VERTEX
  8
LAYER_1
 10
148.517
 20
-251.6904
 42
0.1513063474
  0
VERTEX
  8
LAYER_1
 10
148.711
 20
-251.6453
 42
0.2568804362
  0
VERTEX
  8
LAYER_1
 10
148.7799
 20
-251.5078
  0
VERTEX
  8
LAYER_1
 10
148.7602
 20
-251.4224
 42
0.1232056022
  0
VERTEX
  8
LAYER_1
 10
148.7079
 20
-251.3652
  0
VERTEX
  8
LAYER_1
 10
148.6269
 20
-251.3338
  0
VERTEX
  8
LAYER_1
 10
148.5212
 20
-251.3235
  0
VERTEX
  8
LAYER_1
 10
148.3351
 20
-251.3235
  0
SEQEND
  0
ENDBLK
  0
BLOCK
  8
LAYER_1
  2
AIGNBL01030017
 70
64
 10
0
 20
0
 30
0
  3
AIGNBL01030017
  0
POLYLINE
  8
LAYER_1
 40
0.05
 41
0.05
 66
1
 10
0
 20
0
 30
0
 70
1
  0
VERTEX
  8
LAYER_1
 10
150.3154
 20
-251.7469
 42
-0.09975403421
  0
VERTEX
  8
LAYER_1
 10
150.2747
 20
-251.9629
 42
-0.09935173186
  0
VERTEX
  8
LAYER_1
 10
150.1624
 20
-252.1338
 42
-0.09811740303
  0
VERTEX
  8
LAYER_1
 10
149.9926
 20
-252.2461
 42
-0.09708882113
  0
VERTEX
  8
LAYER_1
 10
149.78
 20
-252.2868
 42
-0.09940093633
  0
VERTEX
  8
LAYER_1
 10
149.5674
 20
-252.2461
 42
-0.1007896559
  0
VERTEX
  8
LAYER_1
 10
149.3979
 20
-252.1338
 42
-0.09768152712
  0
VERTEX
  8
LAYER_1
 10
149.2856
 20
-251.9629
 42
-0.09531839447
  0
VERTEX
  8
LAYER_1
 10
149.2453
 20
-251.7469
 42
-0.09746952437
  0
VERTEX
  8
LAYER_1
 10
149.2856
 20
-251.5306
 42
-0.09925134223
  0
VERTEX
  8
LAYER_1
 10
149.3979
 20
-251.3604
 42
-0.1005970746
  0
VERTEX
  8
LAYER_1
 10
149.5674
 20
-251.2481
 42
-0.09815409965
  0
VERTEX
  8
LAYER_1
 10
149.78
 20
-251.2071
 42
-0.1003559568
  0
VERTEX
  8
LAYER_1
 10
149.9926
 20
-251.2481
 42
-0.1030391221
  0
VERTEX
  8
LAYER_1
 10
150.1624
 20
-251.3604
 42
-0.09760938344
  0
VERTEX
  8
LAYER_1
 10
150.2747
 20
-251.5306
 42
-0.09618621792
  0
SEQEND
  0
POLYLINE
  8
LAYER_1
 40
0.05
 41
0.05
 66
1
 10
0
 20
0
 30
0
 70
1
  0
VERTEX
  8
LAYER_1
 10
150.2051
 20
-251.7476
 42
0.08928566433
  0
VERTEX
  8
LAYER_1
 10
150.1762
 20
-251.5767
 42
0.0967309921
  0
VERTEX
  8
LAYER_1
 10
150.0921
 20
-251.4344
 42
0.1033640041
  0
VERTEX
  8
LAYER_1
 10
149.9581
 20
-251.337
 42
0.1075765453
  0
VERTEX
  8
LAYER_1
 10
149.78
 20
-251.3001
 42
0.1148421003
  0
VERTEX
  8
LAYER_1
 10
149.6026
 20
-251.337
 42
0.106797523
  0
VERTEX
  8
LAYER_1
 10
149.4682
 20
-251.4344
 42
0.09375888087
  0
VERTEX
  8
LAYER_1
 10
149.3842
 20
-251.5767
 42
0.08542444587
  0
VERTEX
  8
LAYER_1
 10
149.3549
 20
-251.7476
 42
0.08738527021
  0
VERTEX
  8
LAYER_1
 10
149.3842
 20
-251.9188
 42
0.09670329037
  0
VERTEX
  8
LAYER_1
 10
149.4682
 20
-252.0607
 42
0.09891153362
  0
VERTEX
  8
LAYER_1
 10
149.6026
 20
-252.1575
 42
0.1067011915
  0
VERTEX
  8
LAYER_1
 10
149.78
 20
-252.1937
 42
0.1133540876
  0
VERTEX
  8
LAYER_1
 10
149.9581
 20
-252.1575
 42
0.1038012544
  0
VERTEX
  8
LAYER_1
 10
150.0921
 20
-252.0607
 42
0.09726416843
  0
VERTEX
  8
LAYER_1
 10
150.1762
 20
-251.9188
 42
0.0854375021
  0
SEQEND
  0
ENDBLK
  0
BLOCK
  8
LAYER_1
  2
AIGNBL01030018
 70
64
 10
0
 20
0
 30
0
  3
AIGNBL01030018
  0
POLYLINE
  8
LAYER_1
 40
0.05
 41
0.05
 66
1
 10
0
 20
0
 30
0
 70
1
  0
VERTEX
  8
LAYER_1
 10
151.7489
 20
-251.7469
 42
-0.09970583877
  0
VERTEX
  8
LAYER_1
 10
151.7086
 20
-251.9629
 42
-0.0976989983
  0
VERTEX
  8
LAYER_1
 10
151.5963
 20
-252.1338
 42
-0.09521451671
  0
VERTEX
  8
LAYER_1
 10
151.4264
 20
-252.2461
 42
-0.09711421911
  0
VERTEX
  8
LAYER_1
 10
151.2139
 20
-252.2868
 42
-0.1003065361
  0
VERTEX
  8
LAYER_1
 10
151.0013
 20
-252.2461
 42
-0.1012502646
  0
VERTEX
  8
LAYER_1
 10
150.8318
 20
-252.1338
 42
-0.09902147312
  0
VERTEX
  8
LAYER_1
 10
150.7188
 20
-251.9629
 42
-0.09657946775
  0
VERTEX
  8
LAYER_1
 10
150.6781
 20
-251.7469
 42
-0.09892706014
  0
VERTEX
  8
LAYER_1
 10
150.7188
 20
-251.5306
 42
-0.1025433378
  0
VERTEX
  8
LAYER_1
 10
150.8318
 20
-251.3604
 42
-0.1009513296
  0
VERTEX
  8
LAYER_1
 10
151.0013
 20
-251.2481
 42
-0.09841178888
  0
VERTEX
  8
LAYER_1
 10
151.2139
 20
-251.2071
 42
-0.1004512574
  0
VERTEX
  8
LAYER_1
 10
151.4264
 20
-251.2481
 42
-0.09871557407
  0
VERTEX
  8
LAYER_1
 10
151.5963
 20
-251.3604
 42
-0.09679690961
  0
VERTEX
  8
LAYER_1
 10
151.7086
 20
-251.5306
 42
-0.09571421233
  0
SEQEND
  0
POLYLINE
  8
LAYER_1
 40
0.05
 41
0.05
 66
1
 10
0
 20
0
 30
0
 70
1
  0
VERTEX
  8
LAYER_1
 10
151.639
 20
-251.7476
 42
0.08698818876
  0
VERTEX
  8
LAYER_1
 10
151.61
 20
-251.5767
 42
0.0956708921
  0
VERTEX
  8
LAYER_1
 10
151.526
 20
-251.4344
 42
0.1033803157
  0
VERTEX
  8
LAYER_1
 10
151.3916
 20
-251.337
 42
0.1075718589
  0
VERTEX
  8
LAYER_1
 10
151.2139
 20
-251.3001
 42
0.1154259577
  0
VERTEX
  8
LAYER_1
 10
151.0361
 20
-251.337
 42
0.1064173637
  0
VERTEX
  8
LAYER_1
 10
150.9017
 20
-251.4344
 42
0.1028942614
  0
VERTEX
  8
LAYER_1
 10
150.818
 20
-251.5767
 42
0.08542444587
  0
VERTEX
  8
LAYER_1
 10
150.7887
 20
-251.7476
 42
0.08738527021
  0
VERTEX
  8
LAYER_1
 10
150.818
 20
-251.9188
 42
0.1032562832
  0
VERTEX
  8
LAYER_1
 10
150.9017
 20
-252.0607
 42
0.1008165521
  0
VERTEX
  8
LAYER_1
 10
151.0361
 20
-252.1575
 42
0.1069398409
  0
VERTEX
  8
LAYER_1
 10
151.2139
 20
-252.1937
 42
0.1127969838
  0
VERTEX
  8
LAYER_1
 10
151.3916
 20
-252.1575
 42
0.1024372123
  0
VERTEX
  8
LAYER_1
 10
151.526
 20
-252.0607
 42
0.09088614582
  0
VERTEX
  8
LAYER_1
 10
151.61
 20
-251.9188
 42
0.08498619229
  0
SEQEND
  0
ENDBLK
  0
BLOCK
  8
LAYER_1
  2
AIGNBL01030019
 70
64
 10
0
 20
0
 30
0
  3
AIGNBL01030019
  0
POLYLINE
  8
LAYER_1
 40
0.05
 41
0.05
 66
1
 10
0
 20
0
 30
0
 70
1
  0
VERTEX
  8
LAYER_1
 10
152.6742
 20
-252.0839
  0
VERTEX
  8
LAYER_1
 10
152.6756
 20
-252.0839
  0
VERTEX
  8
LAYER_1
 10
153.0194
 20
-251.2339
  0
VERTEX
  8
LAYER_1
 10
153.1793
 20
-251.2339
  0
VERTEX
  8
LAYER_1
 10
153.1793
 20
-252.2609
  0
VERTEX
  8
LAYER_1
 10
153.0749
 20
-252.2609
  0
VERTEX
  8
LAYER_1
 10
153.0749
 20
-251.3686
  0
VERTEX
  8
LAYER_1
 10
153.0718
 20
-251.3686
  0
VERTEX
  8
LAYER_1
 10
152.7007
 20
-252.2609
  0
VERTEX
  8
LAYER_1
 10
152.646
 20
-252.2609
  0
VERTEX
  8
LAYER_1
 10
152.2743
 20
-251.3686
  0
VERTEX
  8
LAYER_1
 10
152.2708
 20
-251.3686
  0
VERTEX
  8
LAYER_1
 10
152.2708
 20
-252.2609
  0
VERTEX
  8
LAYER_1
 10
152.1668
 20
-252.2609
  0
VERTEX
  8
LAYER_1
 10
152.1668
 20
-251.2339
  0
VERTEX
  8
LAYER_1
 10
152.327
 20
-251.2339
  0
SEQEND
  0
ENDBLK
  0
BLOCK
  8
LAYER_1
  2
AIGNBL0103001A
 70
64
 10
0
 20
0
 30
0
  3
AIGNBL0103001A
  0
POLYLINE
  8
LAYER_1
 40
0.05
 41
0.05
 66
1
 10
0
 20
0
 30
0
 70
1
  0
VERTEX
  8
LAYER_1
 10
154.3196
 20
-252.1676
  0
VERTEX
  8
LAYER_1
 10
154.8694
 20
-252.1676
  0
VERTEX
  8
LAYER_1
 10
154.8694
 20
-252.2609
  0
VERTEX
  8
LAYER_1
 10
154.2145
 20
-252.2609
  0
VERTEX
  8
LAYER_1
 10
154.2145
 20
-251.2339
  0
VERTEX
  8
LAYER_1
 10
154.8522
 20
-251.2339
  0
VERTEX
  8
LAYER_1
 10
154.8522
 20
-251.3263
  0
VERTEX
  8
LAYER_1
 10
154.3196
 20
-251.3263
  0
VERTEX
  8
LAYER_1
 10
154.3196
 20
-251.6787
  0
VERTEX
  8
LAYER_1
 10
154.8167
 20
-251.6787
  0
VERTEX
  8
LAYER_1
 10
154.8167
 20
-251.7717
  0
VERTEX
  8
LAYER_1
 10
154.3196
 20
-251.7717
  0
SEQEND
  0
ENDBLK
  0
BLOCK
  8
LAYER_1
  2
AIGNBL0103001B
 70
64
 10
0
 20
0
 30
0
  3
AIGNBL0103001B
  0
POLYLINE
  8
LAYER_1
 40
0.05
 41
0.05
 66
1
 10
0
 20
0
 30
0
 70
1
  0
VERTEX
  8
LAYER_1
 10
155.6101
 20
-251.6484
  0
VERTEX
  8
LAYER_1
 10
155.8906
 20
-251.2339
  0
VERTEX
  8
LAYER_1
 10
156.0153
 20
-251.2339
  0
VERTEX
  8
LAYER_1
 10
155.6749
 20
-251.7221
  0
VERTEX
  8
LAYER_1
 10
156.0518
 20
-252.2609
  0
VERTEX
  8
LAYER_1
 10
155.9216
 20
-252.2609
  0
VERTEX
  8
LAYER_1
 10
155.6081
 20
-251.7979
  0
VERTEX
  8
LAYER_1
 10
155.296
 20
-252.2609
  0
VERTEX
  8
LAYER_1
 10
155.165
 20
-252.2609
  0
VERTEX
  8
LAYER_1
 10
155.5426
 20
-251.7211
  0
VERTEX
  8
LAYER_1
 10
155.1988
 20
-251.2339
  0
VERTEX
  8
LAYER_1
 10
155.329
 20
-251.2339
  0
SEQEND
  0
ENDBLK
  0
BLOCK
  8
LAYER_1
  2
AIGNBL0103001C
 70
64
 10
0
 20
0
 30
0
  3
AIGNBL0103001C
  0
POLYLINE
  8
LAYER_1
 40
0.05
 41
0.05
 66
1
 10
0
 20
0
 30
0
 70
1
  0
VERTEX
  8
LAYER_1
 10
156.4159
 20
-251.2339
  0
VERTEX
  8
LAYER_1
 10
156.706
 20
-251.2339
  0
VERTEX
  8
LAYER_1
 10
156.8487
 20
-251.2498
 42
-0.110657953
  0
VERTEX
  8
LAYER_1
 10
156.9575
 20
-251.3015
 42
-0.1163763428
  0
VERTEX
  8
LAYER_1
 10
157.0288
 20
-251.3866
 42
-0.1004779162
  0
VERTEX
  8
LAYER_1
 10
157.053
 20
-251.5078
 42
-0.1135751127
  0
VERTEX
  8
LAYER_1
 10
157.0281
 20
-251.6291
 42
-0.1113908719
  0
VERTEX
  8
LAYER_1
 10
156.9568
 20
-251.7145
 42
-0.08575538996
  0
VERTEX
  8
LAYER_1
 10
156.8459
 20
-251.7659
 42
-0.06072195454
  0
VERTEX
  8
LAYER_1
 10
156.7032
 20
-251.7831
  0
VERTEX
  8
LAYER_1
 10
156.5203
 20
-251.7831
  0
VERTEX
  8
LAYER_1
 10
156.5203
 20
-252.2609
  0
VERTEX
  8
LAYER_1
 10
156.4159
 20
-252.2609
  0
SEQEND
  0
POLYLINE
  8
LAYER_1
 40
0.05
 41
0.05
 66
1
 10
0
 20
0
 30
0
 70
1
  0
VERTEX
  8
LAYER_1
 10
156.5203
 20
-251.6949
  0
VERTEX
  8
LAYER_1
 10
156.6974
 20
-251.6949
 42
0.1668395642
  0
VERTEX
  8
LAYER_1
 10
156.8848
 20
-251.6474
 42
0.2433158568
  0
VERTEX
  8
LAYER_1
 10
156.9489
 20
-251.5078
 42
0.2579107644
  0
VERTEX
  8
LAYER_1
 10
156.8824
 20
-251.3676
 42
0.1431777658
  0
VERTEX
  8
LAYER_1
 10
156.6974
 20
-251.3235
  0
VERTEX
  8
LAYER_1
 10
156.5203
 20
-251.3235
  0
SEQEND
  0
ENDBLK
  0
BLOCK
  8
LAYER_1
  2
AIGNBL0103001D
 70
64
 10
0
 20
0
 30
0
  3
AIGNBL0103001D
  0
POLYLINE
  8
LAYER_1
 40
0.05
 41
0.05
 66
1
 10
0
 20
0
 30
0
 70
1
  0
VERTEX
  8
LAYER_1
 10
157.5621
 20
-252.1676
  0
VERTEX
  8
LAYER_1
 10
158.1116
 20
-252.1676
  0
VERTEX
  8
LAYER_1
 10
158.1116
 20
-252.2609
  0
VERTEX
  8
LAYER_1
 10
157.4577
 20
-252.2609
  0
VERTEX
  8
LAYER_1
 10
157.4577
 20
-251.2339
  0
VERTEX
  8
LAYER_1
 10
158.0947
 20
-251.2339
  0
VERTEX
  8
LAYER_1
 10
158.0947
 20
-251.3263
  0
VERTEX
  8
LAYER_1
 10
157.5621
 20
-251.3263
  0
VERTEX
  8
LAYER_1
 10
157.5621
 20
-251.6787
  0
VERTEX
  8
LAYER_1
 10
158.0599
 20
-251.6787
  0
VERTEX
  8
LAYER_1
 10
158.0599
 20
-251.7717
  0
VERTEX
  8
LAYER_1
 10
157.5621
 20
-251.7717
  0
SEQEND
  0
ENDBLK
  0
BLOCK
  8
LAYER_1
  2
AIGNBL0103001E
 70
64
 10
0
 20
0
 30
0
  3
AIGNBL0103001E
  0
POLYLINE
  8
LAYER_1
 40
0.05
 41
0.05
 66
1
 10
0
 20
0
 30
0
 70
1
  0
VERTEX
  8
LAYER_1
 10
158.6208
 20
-252.2609
  0
VERTEX
  8
LAYER_1
 10
158.5168
 20
-252.2609
  0
VERTEX
  8
LAYER_1
 10
158.5168
 20
-251.2339
  0
VERTEX
  8
LAYER_1
 10
158.8185
 20
-251.2339
  0
VERTEX
  8
LAYER_1
 10
158.9584
 20
-251.2481
 42
-0.1005953548
  0
VERTEX
  8
LAYER_1
 10
159.07
 20
-251.2953
 42
-0.1225647981
  0
VERTEX
  8
LAYER_1
 10
159.1438
 20
-251.38
 42
-0.1056037953
  0
VERTEX
  8
LAYER_1
 10
159.1696
 20
-251.5078
 42
-0.113550017
  0
VERTEX
  8
LAYER_1
 10
159.1493
 20
-251.6105
  0
VERTEX
  8
LAYER_1
 10
159.0945
 20
-251.6915
  0
VERTEX
  8
LAYER_1
 10
159.0111
 20
-251.7459
  0
VERTEX
  8
LAYER_1
 10
158.9067
 20
-251.7717
  0
VERTEX
  8
LAYER_1
 10
159.2075
 20
-252.2609
  0
VERTEX
  8
LAYER_1
 10
159.08
 20
-252.2609
  0
VERTEX
  8
LAYER_1
 10
158.7955
 20
-251.7803
  0
VERTEX
  8
LAYER_1
 10
158.6208
 20
-251.7803
  0
SEQEND
  0
POLYLINE
  8
LAYER_1
 40
0.05
 41
0.05
 66
1
 10
0
 20
0
 30
0
 70
1
  0
VERTEX
  8
LAYER_1
 10
158.6208
 20
-251.69
  0
VERTEX
  8
LAYER_1
 10
158.8027
 20
-251.69
 42
0.1507170359
  0
VERTEX
  8
LAYER_1
 10
158.9974
 20
-251.6453
 42
0.2579683273
  0
VERTEX
  8
LAYER_1
 10
159.0652
 20
-251.5078
  0
VERTEX
  8
LAYER_1
 10
159.047
 20
-251.4224
  0
VERTEX
  8
LAYER_1
 10
158.9943
 20
-251.3652
  0
VERTEX
  8
LAYER_1
 10
158.9123
 20
-251.3338
  0
VERTEX
  8
LAYER_1
 10
158.8065
 20
-251.3235
  0
VERTEX
  8
LAYER_1
 10
158.6208
 20
-251.3235
  0
SEQEND
  0
ENDBLK
  0
BLOCK
  8
LAYER_1
  2
AIGNBL0103001F
 70
64
 10
0
 20
0
 30
0
  3
AIGNBL0103001F
  0
POLYLINE
  8
LAYER_1
 40
0.05
 41
0.05
 66
1
 10
0
 20
0
 30
0
 70
1
  0
VERTEX
  8
LAYER_1
 10
159.6898
 20
-252.2609
  0
VERTEX
  8
LAYER_1
 10
159.5865
 20
-252.2609
  0
VERTEX
  8
LAYER_1
 10
159.5865
 20
-251.2339
  0
VERTEX
  8
LAYER_1
 10
159.6898
 20
-251.2339
  0
SEQEND
  0
ENDBLK
  0
BLOCK
  8
LAYER_1
  2
AIGNBL01030020
 70
64
 10
0
 20
0
 30
0
  3
AIGNBL01030020
  0
POLYLINE
  8
LAYER_1
 40
0.05
 41
0.05
 66
1
 10
0
 20
0
 30
0
 70
1
  0
VERTEX
  8
LAYER_1
 10
160.2676
 20
-252.1676
  0
VERTEX
  8
LAYER_1
 10
160.8174
 20
-252.1676
  0
VERTEX
  8
LAYER_1
 10
160.8174
 20
-252.2609
  0
VERTEX
  8
LAYER_1
 10
160.1639
 20
-252.2609
  0
VERTEX
  8
LAYER_1
 10
160.1639
 20
-251.2339
  0
VERTEX
  8
LAYER_1
 10
160.8005
 20
-251.2339
  0
VERTEX
  8
LAYER_1
 10
160.8005
 20
-251.3263
  0
VERTEX
  8
LAYER_1
 10
160.2676
 20
-251.3263
  0
VERTEX
  8
LAYER_1
 10
160.2676
 20
-251.6787
  0
VERTEX
  8
LAYER_1
 10
160.7654
 20
-251.6787
  0
VERTEX
  8
LAYER_1
 10
160.7654
 20
-251.7717
  0
VERTEX
  8
LAYER_1
 10
160.2676
 20
-251.7717
  0
SEQEND
  0
ENDBLK
  0
BLOCK
  8
LAYER_1
  2
AIGNBL01030021
 70
64
 10
0
 20
0
 30
0
  3
AIGNBL01030021
  0
POLYLINE
  8
LAYER_1
 40
0.05
 41
0.05
 66
1
 10
0
 20
0
 30
0
 70
1
  0
VERTEX
  8
LAYER_1
 10
161.9505
 20
-252.1079
  0
VERTEX
  8
LAYER_1
 10
161.9536
 20
-252.1079
  0
VERTEX
  8
LAYER_1
 10
161.9536
 20
-251.2339
  0
VERTEX
  8
LAYER_1
 10
162.058
 20
-251.2339
  0
VERTEX
  8
LAYER_1
 10
162.058
 20
-252.2609
  0
VERTEX
  8
LAYER_1
 10
161.9277
 20
-252.2609
  0
VERTEX
  8
LAYER_1
 10
161.3297
 20
-251.3772
  0
VERTEX
  8
LAYER_1
 10
161.3266
 20
-251.3772
  0
VERTEX
  8
LAYER_1
 10
161.3266
 20
-252.2609
  0
VERTEX
  8
LAYER_1
 10
161.2222
 20
-252.2609
  0
VERTEX
  8
LAYER_1
 10
161.2222
 20
-251.2339
  0
VERTEX
  8
LAYER_1
 10
161.3535
 20
-251.2339
  0
SEQEND
  0
ENDBLK
  0
BLOCK
  8
LAYER_1
  2
AIGNBL01030022
 70
64
 10
0
 20
0
 30
0
  3
AIGNBL01030022
  0
POLYLINE
  8
LAYER_1
 40
0.05
 41
0.05
 66
1
 10
0
 20
0
 30
0
 70
1
  0
VERTEX
  8
LAYER_1
 10
163.396
 20
-252.0942
  0
VERTEX
  8
LAYER_1
 10
163.3323
 20
-252.1679
  0
VERTEX
  8
LAYER_1
 10
163.2469
 20
-252.2295
  0
VERTEX
  8
LAYER_1
 10
163.1394
 20
-252.2716
  0
VERTEX
  8
LAYER_1
 10
163.0112
 20
-252.2868
 42
-0.09929103144
  0
VERTEX
  8
LAYER_1
 10
162.7966
 20
-252.2461
 42
-0.1031170142
  0
VERTEX
  8
LAYER_1
 10
162.6271
 20
-252.1335
 42
-0.1024256256
  0
VERTEX
  8
LAYER_1
 10
162.5162
 20
-251.9633
 42
-0.09780652729
  0
VERTEX
  8
LAYER_1
 10
162.4759
 20
-251.7469
 42
-0.1005543907
  0
VERTEX
  8
LAYER_1
 10
162.5169
 20
-251.5306
 42
-0.09980539098
  0
VERTEX
  8
LAYER_1
 10
162.6285
 20
-251.3604
 42
-0.09707816065
  0
VERTEX
  8
LAYER_1
 10
162.798
 20
-251.2481
 42
-0.09782536185
  0
VERTEX
  8
LAYER_1
 10
163.0112
 20
-251.2071
  0
VERTEX
  8
LAYER_1
 10
163.1222
 20
-251.2191
  0
VERTEX
  8
LAYER_1
 10
163.2252
 20
-251.2522
  0
VERTEX
  8
LAYER_1
 10
163.3117
 20
-251.3035
  0
VERTEX
  8
LAYER_1
 10
163.3767
 20
-251.3711
  0
VERTEX
  8
LAYER_1
 10
163.2906
 20
-251.4355
  0
VERTEX
  8
LAYER_1
 10
163.2469
 20
-251.3858
  0
VERTEX
  8
LAYER_1
 10
163.1835
 20
-251.3421
  0
VERTEX
  8
LAYER_1
 10
163.1043
 20
-251.3114
  0
VERTEX
  8
LAYER_1
 10
163.0126
 20
-251.3001
 42
0.111032742
  0
VERTEX
  8
LAYER_1
 10
162.8338
 20
-251.3362
 42
0.1048566985
  0
VERTEX
  8
LAYER_1
 10
162.6998
 20
-251.4338
 42
0.09649516609
  0
VERTEX
  8
LAYER_1
 10
162.6147
 20
-251.5764
 42
0.08187604402
  0
VERTEX
  8
LAYER_1
 10
162.5868
 20
-251.7469
 42
0.09351376633
  0
VERTEX
  8
LAYER_1
 10
162.6164
 20
-251.9178
 42
0.09951767869
  0
VERTEX
  8
LAYER_1
 10
162.7012
 20
-252.0601
 42
0.1063497227
  0
VERTEX
  8
LAYER_1
 10
162.8356
 20
-252.1575
 42
0.1081437471
  0
VERTEX
  8
LAYER_1
 10
163.0126
 20
-252.1937
 42
0.1144963135
  0
VERTEX
  8
LAYER_1
 10
163.1804
 20
-252.1575
 42
0.1351211567
  0
VERTEX
  8
LAYER_1
 10
163.3148
 20
-252.0414
  0
SEQEND
  0
ENDBLK
  0
BLOCK
  8
LAYER_1
  2
AIGNBL01030023
 70
64
 10
0
 20
0
 30
0
  3
AIGNBL01030023
  0
POLYLINE
  8
LAYER_1
 40
0.05
 41
0.05
 66
1
 10
0
 20
0
 30
0
 70
1
  0
VERTEX
  8
LAYER_1
 10
163.8801
 20
-252.1676
  0
VERTEX
  8
LAYER_1
 10
164.4299
 20
-252.1676
  0
VERTEX
  8
LAYER_1
 10
164.4299
 20
-252.2609
  0
VERTEX
  8
LAYER_1
 10
163.7764
 20
-252.2609
  0
VERTEX
  8
LAYER_1
 10
163.7764
 20
-251.2339
  0
VERTEX
  8
LAYER_1
 10
164.4127
 20
-251.2339
  0
VERTEX
  8
LAYER_1
 10
164.4127
 20
-251.3263
  0
VERTEX
  8
LAYER_1
 10
163.8801
 20
-251.3263
  0
VERTEX
  8
LAYER_1
 10
163.8801
 20
-251.6787
  0
VERTEX
  8
LAYER_1
 10
164.3782
 20
-251.6787
  0
VERTEX
  8
LAYER_1
 10
164.3782
 20
-251.7717
  0
VERTEX
  8
LAYER_1
 10
163.8801
 20
-251.7717
  0
SEQEND
  0
ENDBLK
  0
BLOCK
  8
LAYER_1
  2
AIGNBL01020003
 70
64
 10
0
 20
0
 30
0
  3
AIGNBL01020003
  0
INSERT
  8
LAYER_1
  2
AIGNBL01030004
 10
0
 20
0
 30
0
  0
ENDBLK
  0
BLOCK
  8
LAYER_1
  2
AIGNBL0102000C
 70
64
 10
0
 20
0
 30
0
  3
AIGNBL0102000C
  0
INSERT
  8
LAYER_1
  2
AIGNBL0103000D
 10
0
 20
0
 30
0
  0
INSERT
  8
LAYER_1
  2
AIGNBL0103000E
 10
0
 20
0
 30
0
  0
INSERT
  8
LAYER_1
  2
AIGNBL0103000F
 10
0
 20
0
 30
0
  0
INSERT
  8
LAYER_1
  2
AIGNBL01030010
 10
0
 20
0
 30
0
  0
INSERT
  8
LAYER_1
  2
AIGNBL01030011
 10
0
 20
0
 30
0
  0
INSERT
  8
LAYER_1
  2
AIGNBL01030012
 10
0
 20
0
 30
0
  0
INSERT
  8
LAYER_1
  2
AIGNBL01030013
 10
0
 20
0
 30
0
  0
INSERT
  8
LAYER_1
  2
AIGNBL01030014
 10
0
 20
0
 30
0
  0
INSERT
  8
LAYER_1
  2
AIGNBL01030015
 10
0
 20
0
 30
0
  0
INSERT
  8
LAYER_1
  2
AIGNBL01030016
 10
0
 20
0
 30
0
  0
INSERT
  8
LAYER_1
  2
AIGNBL01030017
 10
0
 20
0
 30
0
  0
INSERT
  8
LAYER_1
  2
AIGNBL01030018
 10
0
 20
0
 30
0
  0
INSERT
  8
LAYER_1
  2
AIGNBL01030019
 10
0
 20
0
 30
0
  0
INSERT
  8
LAYER_1
  2
AIGNBL0103001A
 10
0
 20
0
 30
0
  0
INSERT
  8
LAYER_1
  2
AIGNBL0103001B
 10
0
 20
0
 30
0
  0
INSERT
  8
LAYER_1
  2
AIGNBL0103001C
 10
0
 20
0
 30
0
  0
INSERT
  8
LAYER_1
  2
AIGNBL0103001D
 10
0
 20
0
 30
0
  0
INSERT
  8
LAYER_1
  2
AIGNBL0103001E
 10
0
 20
0
 30
0
  0
INSERT
  8
LAYER_1
  2
AIGNBL0103001F
 10
0
 20
0
 30
0
  0
INSERT
  8
LAYER_1
  2
AIGNBL01030020
 10
0
 20
0
 30
0
  0
INSERT
  8
LAYER_1
  2
AIGNBL01030021
 10
0
 20
0
 30
0
  0
INSERT
  8
LAYER_1
  2
AIGNBL01030022
 10
0
 20
0
 30
0
  0
INSERT
  8
LAYER_1
  2
AIGNBL01030023
 10
0
 20
0
 30
0
  0
ENDBLK
  0
BLOCK
  8
LAYER_6
  2
AIGNBL06020004
 70
64
 10
0
 20
0
 30
0
  3
AIGNBL06020004
  0
POLYLINE
  8
LAYER_6
 40
0.1764
 41
0.1764
 66
1
 10
0
 20
0
 30
0
  0
VERTEX
  8
LAYER_6
 10
80.301
 20
-162.2936
  0
VERTEX
  8
LAYER_6
 10
78.801
 20
-162.0436
  0
SEQEND
  0
POLYLINE
  8
LAYER_6
 40
0.1764
 41
0.1764
 66
1
 10
0
 20
0
 30
0
  0
VERTEX
  8
LAYER_6
 10
80.301
 20
-162.0436
  0
VERTEX
  8
LAYER_6
 10
78.801
 20
-162.0436
  0
VERTEX
  8
LAYER_6
 10
80.301
 20
-161.7936
  0
SEQEND
  0
ENDBLK
  0
BLOCK
  8
LAYER_6
  2
AIGNBL06020005
 70
64
 10
0
 20
0
 30
0
  3
AIGNBL06020005
  0
POLYLINE
  8
LAYER_6
 40
0.1764
 41
0.1764
 66
1
 10
0
 20
0
 30
0
  0
VERTEX
  8
LAYER_6
 10
90.301
 20
-161.7936
  0
VERTEX
  8
LAYER_6
 10
91.801
 20
-162.0436
  0
SEQEND
  0
POLYLINE
  8
LAYER_6
 40
0.1764
 41
0.1764
 66
1
 10
0
 20
0
 30
0
  0
VERTEX
  8
LAYER_6
 10
90.301
 20
-162.0436
  0
VERTEX
  8
LAYER_6
 10
91.801
 20
-162.0436
  0
VERTEX
  8
LAYER_6
 10
90.301
 20
-162.2936
  0
SEQEND
  0
ENDBLK
  0
BLOCK
  8
LAYER_6
  2
AIGNBL06020006
 70
64
 10
0
 20
0
 30
0
  3
AIGNBL06020006
  0
POLYLINE
  8
LAYER_6
 40
0.7056
 41
0.7056
 66
1
 10
0
 20
0
 30
0
  0
VERTEX
  8
LAYER_6
 10
78.801
 20
-174.4389
  0
SEQEND
  0
ENDBLK
  0
BLOCK
  8
LAYER_6
  2
AIGNBL06020007
 70
64
 10
0
 20
0
 30
0
  3
AIGNBL06020007
  0
POLYLINE
  8
LAYER_6
 40
0.7056
 41
0.7056
 66
1
 10
0
 20
0
 30
0
  0
VERTEX
  8
LAYER_6
 10
91.801
 20
-174.4389
  0
SEQEND
  0
ENDBLK
  0
BLOCK
  8
LAYER_6
  2
AIGNBL06020008
 70
64
 10
0
 20
0
 30
0
  3
AIGNBL06020008
  0
POLYLINE
  8
LAYER_6
 40
0.7056
 41
0.7056
 66
1
 10
0
 20
0
 30
0
  0
VERTEX
  8
LAYER_6
 10
91.801
 20
-162.0436
  0
SEQEND
  0
ENDBLK
  0
BLOCK
  8
LAYER_6
  2
AIGNBL0602000A
 70
64
 10
0
 20
0
 30
0
  3
AIGNBL0602000A
  0
POLYLINE
  8
LAYER_6
 40
0.1764
 41
0.1764
 66
1
 10
0
 20
0
 30
0
  0
VERTEX
  8
LAYER_6
 10
82.901
 20
-122.4789
  0
VERTEX
  8
LAYER_6
 10
81.401
 20
-122.2289
  0
SEQEND
  0
POLYLINE
  8
LAYER_6
 40
0.1764
 41
0.1764
 66
1
 10
0
 20
0
 30
0
  0
VERTEX
  8
LAYER_6
 10
82.901
 20
-122.2289
  0
VERTEX
  8
LAYER_6
 10
81.401
 20
-122.2289
  0
VERTEX
  8
LAYER_6
 10
82.901
 20
-121.9789
  0
SEQEND
  0
ENDBLK
  0
BLOCK
  8
LAYER_6
  2
AIGNBL0602000B
 70
64
 10
0
 20
0
 30
0
  3
AIGNBL0602000B
  0
POLYLINE
  8
LAYER_6
 40
0.1764
 41
0.1764
 66
1
 10
0
 20
0
 30
0
  0
VERTEX
  8
LAYER_6
 10
87.701
 20
-121.9789
  0
VERTEX
  8
LAYER_6
 10
89.201
 20
-122.2289
  0
SEQEND
  0
POLYLINE
  8
LAYER_6
 40
0.1764
 41
0.1764
 66
1
 10
0
 20
0
 30
0
  0
VERTEX
  8
LAYER_6
 10
87.701
 20
-122.2289
  0
VERTEX
  8
LAYER_6
 10
89.201
 20
-122.2289
  0
VERTEX
  8
LAYER_6
 10
87.701
 20
-122.4789
  0
SEQEND
  0
ENDBLK
  0
BLOCK
  8
LAYER_6
  2
AIGNBL0602000C
 70
64
 10
0
 20
0
 30
0
  3
AIGNBL0602000C
  0
POLYLINE
  8
LAYER_6
 40
0.7056
 41
0.7056
 66
1
 10
0
 20
0
 30
0
  0
VERTEX
  8
LAYER_6
 10
81.401
 20
-119.5163
  0
SEQEND
  0
ENDBLK
  0
BLOCK
  8
LAYER_6
  2
AIGNBL0602000D
 70
64
 10
0
 20
0
 30
0
  3
AIGNBL0602000D
  0
POLYLINE
  8
LAYER_6
 40
0.7056
 41
0.7056
 66
1
 10
0
 20
0
 30
0
  0
VERTEX
  8
LAYER_6
 10
89.201
 20
-119.5163
  0
SEQEND
  0
ENDBLK
  0
BLOCK
  8
LAYER_6
  2
AIGNBL0602000E
 70
64
 10
0
 20
0
 30
0
  3
AIGNBL0602000E
  0
POLYLINE
  8
LAYER_6
 40
0.7056
 41
0.7056
 66
1
 10
0
 20
0
 30
0
  0
VERTEX
  8
LAYER_6
 10
89.201
 20
-122.2289
  0
SEQEND
  0
ENDBLK
  0
BLOCK
  8
LAYER_6
  2
AIGNBL06020010
 70
64
 10
0
 20
0
 30
0
  3
AIGNBL06020010
  0
POLYLINE
  8
LAYER_6
 40
0.1764
 41
0.1764
 66
1
 10
0
 20
0
 30
0
  0
VERTEX
  8
LAYER_6
 10
84.261
 20
-93.6263
  0
VERTEX
  8
LAYER_6
 10
82.761
 20
-93.3763
  0
SEQEND
  0
POLYLINE
  8
LAYER_6
 40
0.1764
 41
0.1764
 66
1
 10
0
 20
0
 30
0
  0
VERTEX
  8
LAYER_6
 10
84.261
 20
-93.3763
  0
VERTEX
  8
LAYER_6
 10
82.761
 20
-93.3763
  0
VERTEX
  8
LAYER_6
 10
84.261
 20
-93.1263
  0
SEQEND
  0
ENDBLK
  0
BLOCK
  8
LAYER_6
  2
AIGNBL06020011
 70
64
 10
0
 20
0
 30
0
  3
AIGNBL06020011
  0
POLYLINE
  8
LAYER_6
 40
0.1764
 41
0.1764
 66
1
 10
0
 20
0
 30
0
  0
VERTEX
  8
LAYER_6
 10
86.341
 20
-93.1263
  0
VERTEX
  8
LAYER_6
 10
87.841
 20
-93.3763
  0
SEQEND
  0
POLYLINE
  8
LAYER_6
 40
0.1764
 41
0.1764
 66
1
 10
0
 20
0
 30
0
  0
VERTEX
  8
LAYER_6
 10
86.341
 20
-93.3763
  0
VERTEX
  8
LAYER_6
 10
87.841
 20
-93.3763
  0
VERTEX
  8
LAYER_6
 10
86.341
 20
-93.6263
  0
SEQEND
  0
ENDBLK
  0
BLOCK
  8
LAYER_6
  2
AIGNBL06020012
 70
64
 10
0
 20
0
 30
0
  3
AIGNBL06020012
  0
POLYLINE
  8
LAYER_6
 40
0.7056
 41
0.7056
 66
1
 10
0
 20
0
 30
0
  0
VERTEX
  8
LAYER_6
 10
82.761
 20
-95.4363
  0
SEQEND
  0
ENDBLK
  0
BLOCK
  8
LAYER_6
  2
AIGNBL06020013
 70
64
 10
0
 20
0
 30
0
  3
AIGNBL06020013
  0
POLYLINE
  8
LAYER_6
 40
0.7056
 41
0.7056
 66
1
 10
0
 20
0
 30
0
  0
VERTEX
  8
LAYER_6
 10
87.841
 20
-95.4363
  0
SEQEND
  0
ENDBLK
  0
BLOCK
  8
LAYER_6
  2
AIGNBL06020014
 70
64
 10
0
 20
0
 30
0
  3
AIGNBL06020014
  0
POLYLINE
  8
LAYER_6
 40
0.7056
 41
0.7056
 66
1
 10
0
 20
0
 30
0
  0
VERTEX
  8
LAYER_6
 10
87.841
 20
-93.3763
  0
SEQEND
  0
ENDBLK
  0
BLOCK
  8
LAYER_6
  2
AIGNBL06020016
 70
64
 10
0
 20
0
 30
0
  3
AIGNBL06020016
  0
POLYLINE
  8
LAYER_6
 40
0.1764
 41
0.1764
 66
1
 10
0
 20
0
 30
0
  0
VERTEX
  8
LAYER_6
 10
171.0955
 20
-162.2891
  0
VERTEX
  8
LAYER_6
 10
169.5955
 20
-162.0391
  0
SEQEND
  0
POLYLINE
  8
LAYER_6
 40
0.1764
 41
0.1764
 66
1
 10
0
 20
0
 30
0
  0
VERTEX
  8
LAYER_6
 10
171.0955
 20
-162.0391
  0
VERTEX
  8
LAYER_6
 10
169.5955
 20
-162.0391
  0
VERTEX
  8
LAYER_6
 10
171.0955
 20
-161.7891
  0
SEQEND
  0
ENDBLK
  0
BLOCK
  8
LAYER_6
  2
AIGNBL06020017
 70
64
 10
0
 20
0
 30
0
  3
AIGNBL06020017
  0
POLYLINE
  8
LAYER_6
 40
0.1764
 41
0.1764
 66
1
 10
0
 20
0
 30
0
  0
VERTEX
  8
LAYER_6
 10
184.8955
 20
-161.7891
  0
VERTEX
  8
LAYER_6
 10
186.3955
 20
-162.0391
  0
SEQEND
  0
POLYLINE
  8
LAYER_6
 40
0.1764
 41
0.1764
 66
1
 10
0
 20
0
 30
0
  0
VERTEX
  8
LAYER_6
 10
184.8955
 20
-162.0391
  0
VERTEX
  8
LAYER_6
 10
186.3955
 20
-162.0391
  0
VERTEX
  8
LAYER_6
 10
184.8955
 20
-162.2891
  0
SEQEND
  0
ENDBLK
  0
BLOCK
  8
LAYER_6
  2
AIGNBL06020018
 70
64
 10
0
 20
0
 30
0
  3
AIGNBL06020018
  0
POLYLINE
  8
LAYER_6
 40
0.7056
 41
0.7056
 66
1
 10
0
 20
0
 30
0
  0
VERTEX
  8
LAYER_6
 10
169.5955
 20
-174.5767
  0
SEQEND
  0
ENDBLK
  0
BLOCK
  8
LAYER_6
  2
AIGNBL06020019
 70
64
 10
0
 20
0
 30
0
  3
AIGNBL06020019
  0
POLYLINE
  8
LAYER_6
 40
0.7056
 41
0.7056
 66
1
 10
0
 20
0
 30
0
  0
VERTEX
  8
LAYER_6
 10
186.3955
 20
-173.9344
  0
SEQEND
  0
ENDBLK
  0
BLOCK
  8
LAYER_6
  2
AIGNBL0602001A
 70
64
 10
0
 20
0
 30
0
  3
AIGNBL0602001A
  0
POLYLINE
  8
LAYER_6
 40
0.7056
 41
0.7056
 66
1
 10
0
 20
0
 30
0
  0
VERTEX
  8
LAYER_6
 10
186.3955
 20
-162.0391
  0
SEQEND
  0
ENDBLK
  0
BLOCK
  8
LAYER_6
  2
AIGNBL0602001C
 70
64
 10
0
 20
0
 30
0
  3
AIGNBL0602001C
  0
POLYLINE
  8
LAYER_6
 40
0.1764
 41
0.1764
 66
1
 10
0
 20
0
 30
0
  0
VERTEX
  8
LAYER_6
 10
175.8955
 20
-168.1845
  0
VERTEX
  8
LAYER_6
 10
174.3955
 20
-167.9345
  0
SEQEND
  0
POLYLINE
  8
LAYER_6
 40
0.1764
 41
0.1764
 66
1
 10
0
 20
0
 30
0
  0
VERTEX
  8
LAYER_6
 10
175.8955
 20
-167.9345
  0
VERTEX
  8
LAYER_6
 10
174.3955
 20
-167.9345
  0
VERTEX
  8
LAYER_6
 10
175.8955
 20
-167.6845
  0
SEQEND
  0
ENDBLK
  0
BLOCK
  8
LAYER_6
  2
AIGNBL0602001D
 70
64
 10
0
 20
0
 30
0
  3
AIGNBL0602001D
  0
POLYLINE
  8
LAYER_6
 40
0.1764
 41
0.1764
 66
1
 10
0
 20
0
 30
0
  0
VERTEX
  8
LAYER_6
 10
184.8879
 20
-167.6845
  0
VERTEX
  8
LAYER_6
 10
186.3879
 20
-167.9345
  0
SEQEND
  0
POLYLINE
  8
LAYER_6
 40
0.1764
 41
0.1764
 66
1
 10
0
 20
0
 30
0
  0
VERTEX
  8
LAYER_6
 10
184.8879
 20
-167.9345
  0
VERTEX
  8
LAYER_6
 10
186.3879
 20
-167.9345
  0
VERTEX
  8
LAYER_6
 10
184.8879
 20
-168.1845
  0
SEQEND
  0
ENDBLK
  0
BLOCK
  8
LAYER_6
  2
AIGNBL0602001E
 70
64
 10
0
 20
0
 30
0
  3
AIGNBL0602001E
  0
POLYLINE
  8
LAYER_6
 40
0.7056
 41
0.7056
 66
1
 10
0
 20
0
 30
0
  0
VERTEX
  8
LAYER_6
 10
174.3955
 20
-174.0391
  0
SEQEND
  0
ENDBLK
  0
BLOCK
  8
LAYER_6
  2
AIGNBL0602001F
 70
64
 10
0
 20
0
 30
0
  3
AIGNBL0602001F
  0
POLYLINE
  8
LAYER_6
 40
0.7056
 41
0.7056
 66
1
 10
0
 20
0
 30
0
  0
VERTEX
  8
LAYER_6
 10
186.3879
 20
-173.9345
  0
SEQEND
  0
ENDBLK
  0
BLOCK
  8
LAYER_6
  2
AIGNBL06020020
 70
64
 10
0
 20
0
 30
0
  3
AIGNBL06020020
  0
POLYLINE
  8
LAYER_6
 40
0.7056
 41
0.7056
 66
1
 10
0
 20
0
 30
0
  0
VERTEX
  8
LAYER_6
 10
186.3879
 20
-167.9345
  0
SEQEND
  0
ENDBLK
  0
BLOCK
  8
LAYER_6
  2
AIGNBL06020022
 70
64
 10
0
 20
0
 30
0
  3
AIGNBL06020022
  0
POLYLINE
  8
LAYER_6
 40
0.1764
 41
0.1764
 66
1
 10
0
 20
0
 30
0
  0
VERTEX
  8
LAYER_6
 10
172.8955
 20
-167.7004
  0
VERTEX
  8
LAYER_6
 10
174.3955
 20
-167.9504
  0
SEQEND
  0
POLYLINE
  8
LAYER_6
 40
0.1764
 41
0.1764
 66
1
 10
0
 20
0
 30
0
  0
VERTEX
  8
LAYER_6
 10
172.8955
 20
-167.9504
  0
VERTEX
  8
LAYER_6
 10
174.3955
 20
-167.9504
  0
VERTEX
  8
LAYER_6
 10
172.8955
 20
-168.2004
  0
SEQEND
  0
ENDBLK
  0
BLOCK
  8
LAYER_6
  2
AIGNBL06020023
 70
64
 10
0
 20
0
 30
0
  3
AIGNBL06020023
  0
POLYLINE
  8
LAYER_6
 40
0.1764
 41
0.1764
 66
1
 10
0
 20
0
 30
0
  0
VERTEX
  8
LAYER_6
 10
171.0955
 20
-168.2004
  0
VERTEX
  8
LAYER_6
 10
169.5955
 20
-167.9504
  0
SEQEND
  0
POLYLINE
  8
LAYER_6
 40
0.1764
 41
0.1764
 66
1
 10
0
 20
0
 30
0
  0
VERTEX
  8
LAYER_6
 10
171.0955
 20
-167.9504
  0
VERTEX
  8
LAYER_6
 10
169.5955
 20
-167.9504
  0
VERTEX
  8
LAYER_6
 10
171.0955
 20
-167.7004
  0
SEQEND
  0
ENDBLK
  0
BLOCK
  8
LAYER_6
  2
AIGNBL06020024
 70
64
 10
0
 20
0
 30
0
  3
AIGNBL06020024
  0
POLYLINE
  8
LAYER_6
 40
0.7056
 41
0.7056
 66
1
 10
0
 20
0
 30
0
  0
VERTEX
  8
LAYER_6
 10
169.5955
 20
-174.5767
  0
SEQEND
  0
ENDBLK
  0
BLOCK
  8
LAYER_6
  2
AIGNBL06020025
 70
64
 10
0
 20
0
 30
0
  3
AIGNBL06020025
  0
POLYLINE
  8
LAYER_6
 40
0.7056
 41
0.7056
 66
1
 10
0
 20
0
 30
0
  0
VERTEX
  8
LAYER_6
 10
174.3955
 20
-174.0391
  0
SEQEND
  0
ENDBLK
  0
BLOCK
  8
LAYER_6
  2
AIGNBL06020026
 70
64
 10
0
 20
0
 30
0
  3
AIGNBL06020026
  0
POLYLINE
  8
LAYER_6
 40
0.7056
 41
0.7056
 66
1
 10
0
 20
0
 30
0
  0
VERTEX
  8
LAYER_6
 10
174.3955
 20
-167.9504
  0
SEQEND
  0
ENDBLK
  0
BLOCK
  8
LAYER_6
  2
AIGNBL06020028
 70
64
 10
0
 20
0
 30
0
  3
AIGNBL06020028
  0
POLYLINE
  8
LAYER_6
 40
0.1764
 41
0.1764
 66
1
 10
0
 20
0
 30
0
  0
VERTEX
  8
LAYER_6
 10
159.8455
 20
-197.9833
  0
VERTEX
  8
LAYER_6
 10
159.5955
 20
-199.4833
  0
SEQEND
  0
POLYLINE
  8
LAYER_6
 40
0.1764
 41
0.1764
 66
1
 10
0
 20
0
 30
0
  0
VERTEX
  8
LAYER_6
 10
159.5955
 20
-197.9833
  0
VERTEX
  8
LAYER_6
 10
159.5955
 20
-199.4833
  0
VERTEX
  8
LAYER_6
 10
159.3455
 20
-197.9833
  0
SEQEND
  0
ENDBLK
  0
BLOCK
  8
LAYER_6
  2
AIGNBL06020029
 70
64
 10
0
 20
0
 30
0
  3
AIGNBL06020029
  0
POLYLINE
  8
LAYER_6
 40
0.1764
 41
0.1764
 66
1
 10
0
 20
0
 30
0
  0
VERTEX
  8
LAYER_6
 10
159.3455
 20
-173.5833
  0
VERTEX
  8
LAYER_6
 10
159.5955
 20
-172.0833
  0
SEQEND
  0
POLYLINE
  8
LAYER_6
 40
0.1764
 41
0.1764
 66
1
 10
0
 20
0
 30
0
  0
VERTEX
  8
LAYER_6
 10
159.5955
 20
-173.5833
  0
VERTEX
  8
LAYER_6
 10
159.5955
 20
-172.0833
  0
VERTEX
  8
LAYER_6
 10
159.8455
 20
-173.5833
  0
SEQEND
  0
ENDBLK
  0
BLOCK
  8
LAYER_6
  2
AIGNBL0602002A
 70
64
 10
0
 20
0
 30
0
  3
AIGNBL0602002A
  0
POLYLINE
  8
LAYER_6
 40
0.7056
 41
0.7056
 66
1
 10
0
 20
0
 30
0
  0
VERTEX
  8
LAYER_6
 10
175.4208
 20
-199.4833
  0
SEQEND
  0
ENDBLK
  0
BLOCK
  8
LAYER_6
  2
AIGNBL0602002B
 70
64
 10
0
 20
0
 30
0
  3
AIGNBL0602002B
  0
POLYLINE
  8
LAYER_6
 40
0.7056
 41
0.7056
 66
1
 10
0
 20
0
 30
0
  0
VERTEX
  8
LAYER_6
 10
172.1911
 20
-172.0833
  0
SEQEND
  0
ENDBLK
  0
BLOCK
  8
LAYER_6
  2
AIGNBL0602002C
 70
64
 10
0
 20
0
 30
0
  3
AIGNBL0602002C
  0
POLYLINE
  8
LAYER_6
 40
0.7056
 41
0.7056
 66
1
 10
0
 20
0
 30
0
  0
VERTEX
  8
LAYER_6
 10
159.5955
 20
-172.0833
  0
SEQEND
  0
ENDBLK
  0
BLOCK
  8
LAYER_6
  2
AIGNBL0602002E
 70
64
 10
0
 20
0
 30
0
  3
AIGNBL0602002E
  0
POLYLINE
  8
LAYER_6
 40
0.1764
 41
0.1764
 66
1
 10
0
 20
0
 30
0
  0
VERTEX
  8
LAYER_6
 10
173.4955
 20
-54.2439
  0
VERTEX
  8
LAYER_6
 10
174.9955
 20
-54.4939
  0
SEQEND
  0
POLYLINE
  8
LAYER_6
 40
0.1764
 41
0.1764
 66
1
 10
0
 20
0
 30
0
  0
VERTEX
  8
LAYER_6
 10
173.4955
 20
-54.4939
  0
VERTEX
  8
LAYER_6
 10
174.9955
 20
-54.4939
  0
VERTEX
  8
LAYER_6
 10
173.4955
 20
-54.7439
  0
SEQEND
  0
ENDBLK
  0
BLOCK
  8
LAYER_6
  2
AIGNBL0602002F
 70
64
 10
0
 20
0
 30
0
  3
AIGNBL0602002F
  0
POLYLINE
  8
LAYER_6
 40
0.1764
 41
0.1764
 66
1
 10
0
 20
0
 30
0
  0
VERTEX
  8
LAYER_6
 10
146.8175
 20
-54.7439
  0
VERTEX
  8
LAYER_6
 10
145.3175
 20
-54.4939
  0
SEQEND
  0
POLYLINE
  8
LAYER_6
 40
0.1764
 41
0.1764
 66
1
 10
0
 20
0
 30
0
  0
VERTEX
  8
LAYER_6
 10
146.8175
 20
-54.4939
  0
VERTEX
  8
LAYER_6
 10
145.3175
 20
-54.4939
  0
VERTEX
  8
LAYER_6
 10
146.8175
 20
-54.2439
  0
SEQEND
  0
ENDBLK
  0
BLOCK
  8
LAYER_6
  2
AIGNBL06020030
 70
64
 10
0
 20
0
 30
0
  3
AIGNBL06020030
  0
POLYLINE
  8
LAYER_6
 40
0.7056
 41
0.7056
 66
1
 10
0
 20
0
 30
0
  0
VERTEX
  8
LAYER_6
 10
174.9955
 20
-77.5139
  0
SEQEND
  0
ENDBLK
  0
BLOCK
  8
LAYER_6
  2
AIGNBL06020031
 70
64
 10
0
 20
0
 30
0
  3
AIGNBL06020031
  0
POLYLINE
  8
LAYER_6
 40
0.7056
 41
0.7056
 66
1
 10
0
 20
0
 30
0
  0
VERTEX
  8
LAYER_6
 10
145.3175
 20
-78.8547
  0
SEQEND
  0
ENDBLK
  0
BLOCK
  8
LAYER_6
  2
AIGNBL06020032
 70
64
 10
0
 20
0
 30
0
  3
AIGNBL06020032
  0
POLYLINE
  8
LAYER_6
 40
0.7056
 41
0.7056
 66
1
 10
0
 20
0
 30
0
  0
VERTEX
  8
LAYER_6
 10
145.3175
 20
-54.4939
  0
SEQEND
  0
ENDBLK
  0
BLOCK
  8
LAYER_6
  2
AIGNBL06020034
 70
64
 10
0
 20
0
 30
0
  3
AIGNBL06020034
  0
POLYLINE
  8
LAYER_6
 40
0.1764
 41
0.1764
 66
1
 10
0
 20
0
 30
0
  0
VERTEX
  8
LAYER_6
 10
74.551
 20
-175.4389
  0
VERTEX
  8
LAYER_6
 10
74.801
 20
-173.9389
  0
SEQEND
  0
POLYLINE
  8
LAYER_6
 40
0.1764
 41
0.1764
 66
1
 10
0
 20
0
 30
0
  0
VERTEX
  8
LAYER_6
 10
74.801
 20
-175.4389
  0
VERTEX
  8
LAYER_6
 10
74.801
 20
-173.9389
  0
VERTEX
  8
LAYER_6
 10
75.051
 20
-175.4389
  0
SEQEND
  0
ENDBLK
  0
BLOCK
  8
LAYER_6
  2
AIGNBL06020035
 70
64
 10
0
 20
0
 30
0
  3
AIGNBL06020035
  0
POLYLINE
  8
LAYER_6
 40
0.1764
 41
0.1764
 66
1
 10
0
 20
0
 30
0
  0
VERTEX
  8
LAYER_6
 10
75.051
 20
-190.7389
  0
VERTEX
  8
LAYER_6
 10
74.801
 20
-192.2389
  0
SEQEND
  0
POLYLINE
  8
LAYER_6
 40
0.1764
 41
0.1764
 66
1
 10
0
 20
0
 30
0
  0
VERTEX
  8
LAYER_6
 10
74.801
 20
-190.7389
  0
VERTEX
  8
LAYER_6
 10
74.801
 20
-192.2389
  0
VERTEX
  8
LAYER_6
 10
74.551
 20
-190.7389
  0
SEQEND
  0
ENDBLK
  0
BLOCK
  8
LAYER_6
  2
AIGNBL06020036
 70
64
 10
0
 20
0
 30
0
  3
AIGNBL06020036
  0
POLYLINE
  8
LAYER_6
 40
0.7056
 41
0.7056
 66
1
 10
0
 20
0
 30
0
  0
VERTEX
  8
LAYER_6
 10
79.3009
 20
-173.9389
  0
SEQEND
  0
ENDBLK
  0
BLOCK
  8
LAYER_6
  2
AIGNBL06020037
 70
64
 10
0
 20
0
 30
0
  3
AIGNBL06020037
  0
POLYLINE
  8
LAYER_6
 40
0.7056
 41
0.7056
 66
1
 10
0
 20
0
 30
0
  0
VERTEX
  8
LAYER_6
 10
79.3009
 20
-192.2389
  0
SEQEND
  0
ENDBLK
  0
BLOCK
  8
LAYER_6
  2
AIGNBL06020038
 70
64
 10
0
 20
0
 30
0
  3
AIGNBL06020038
  0
POLYLINE
  8
LAYER_6
 40
0.7056
 41
0.7056
 66
1
 10
0
 20
0
 30
0
  0
VERTEX
  8
LAYER_6
 10
74.801
 20
-192.2389
  0
SEQEND
  0
ENDBLK
  0
BLOCK
  8
LAYER_6
  2
AIGNBL0602003A
 70
64
 10
0
 20
0
 30
0
  3
AIGNBL0602003A
  0
POLYLINE
  8
LAYER_6
 40
0.1764
 41
0.1764
 66
1
 10
0
 20
0
 30
0
  0
VERTEX
  8
LAYER_6
 10
68.551
 20
-173.5389
  0
VERTEX
  8
LAYER_6
 10
68.801
 20
-172.0389
  0
SEQEND
  0
POLYLINE
  8
LAYER_6
 40
0.1764
 41
0.1764
 66
1
 10
0
 20
0
 30
0
  0
VERTEX
  8
LAYER_6
 10
68.801
 20
-173.5389
  0
VERTEX
  8
LAYER_6
 10
68.801
 20
-172.0389
  0
VERTEX
  8
LAYER_6
 10
69.051
 20
-173.5389
  0
SEQEND
  0
ENDBLK
  0
BLOCK
  8
LAYER_6
  2
AIGNBL0602003B
 70
64
 10
0
 20
0
 30
0
  3
AIGNBL0602003B
  0
POLYLINE
  8
LAYER_6
 40
0.1764
 41
0.1764
 66
1
 10
0
 20
0
 30
0
  0
VERTEX
  8
LAYER_6
 10
69.051
 20
-190.7389
  0
VERTEX
  8
LAYER_6
 10
68.801
 20
-192.2389
  0
SEQEND
  0
POLYLINE
  8
LAYER_6
 40
0.1764
 41
0.1764
 66
1
 10
0
 20
0
 30
0
  0
VERTEX
  8
LAYER_6
 10
68.801
 20
-190.7389
  0
VERTEX
  8
LAYER_6
 10
68.801
 20
-192.2389
  0
VERTEX
  8
LAYER_6
 10
68.551
 20
-190.7389
  0
SEQEND
  0
ENDBLK
  0
BLOCK
  8
LAYER_6
  2
AIGNBL0602003C
 70
64
 10
0
 20
0
 30
0
  3
AIGNBL0602003C
  0
POLYLINE
  8
LAYER_6
 40
0.7056
 41
0.7056
 66
1
 10
0
 20
0
 30
0
  0
VERTEX
  8
LAYER_6
 10
83.0712
 20
-172.0389
  0
SEQEND
  0
ENDBLK
  0
BLOCK
  8
LAYER_6
  2
AIGNBL0602003D
 70
64
 10
0
 20
0
 30
0
  3
AIGNBL0602003D
  0
POLYLINE
  8
LAYER_6
 40
0.7056
 41
0.7056
 66
1
 10
0
 20
0
 30
0
  0
VERTEX
  8
LAYER_6
 10
79.3009
 20
-192.2389
  0
SEQEND
  0
ENDBLK
  0
BLOCK
  8
LAYER_6
  2
AIGNBL0602003E
 70
64
 10
0
 20
0
 30
0
  3
AIGNBL0602003E
  0
POLYLINE
  8
LAYER_6
 40
0.7056
 41
0.7056
 66
1
 10
0
 20
0
 30
0
  0
VERTEX
  8
LAYER_6
 10
68.801
 20
-192.2389
  0
SEQEND
  0
ENDBLK
  0
BLOCK
  8
LAYER_6
  2
AIGNBL06020040
 70
64
 10
0
 20
0
 30
0
  3
AIGNBL06020040
  0
POLYLINE
  8
LAYER_6
 40
0.1764
 41
0.1764
 66
1
 10
0
 20
0
 30
0
  0
VERTEX
  8
LAYER_6
 10
74.551
 20
-63.9984
  0
VERTEX
  8
LAYER_6
 10
74.801
 20
-62.4984
  0
SEQEND
  0
POLYLINE
  8
LAYER_6
 40
0.1764
 41
0.1764
 66
1
 10
0
 20
0
 30
0
  0
VERTEX
  8
LAYER_6
 10
74.801
 20
-63.9984
  0
VERTEX
  8
LAYER_6
 10
74.801
 20
-62.4984
  0
VERTEX
  8
LAYER_6
 10
75.051
 20
-63.9984
  0
SEQEND
  0
ENDBLK
  0
BLOCK
  8
LAYER_6
  2
AIGNBL06020041
 70
64
 10
0
 20
0
 30
0
  3
AIGNBL06020041
  0
POLYLINE
  8
LAYER_6
 40
0.1764
 41
0.1764
 66
1
 10
0
 20
0
 30
0
  0
VERTEX
  8
LAYER_6
 10
75.051
 20
-118.0763
  0
VERTEX
  8
LAYER_6
 10
74.801
 20
-119.5763
  0
SEQEND
  0
POLYLINE
  8
LAYER_6
 40
0.1764
 41
0.1764
 66
1
 10
0
 20
0
 30
0
  0
VERTEX
  8
LAYER_6
 10
74.801
 20
-118.0763
  0
VERTEX
  8
LAYER_6
 10
74.801
 20
-119.5763
  0
VERTEX
  8
LAYER_6
 10
74.551
 20
-118.0763
  0
SEQEND
  0
ENDBLK
  0
BLOCK
  8
LAYER_6
  2
AIGNBL06020042
 70
64
 10
0
 20
0
 30
0
  3
AIGNBL06020042
  0
POLYLINE
  8
LAYER_6
 40
0.7056
 41
0.7056
 66
1
 10
0
 20
0
 30
0
  0
VERTEX
  8
LAYER_6
 10
85.301
 20
-62.4984
  0
SEQEND
  0
ENDBLK
  0
BLOCK
  8
LAYER_6
  2
AIGNBL06020043
 70
64
 10
0
 20
0
 30
0
  3
AIGNBL06020043
  0
POLYLINE
  8
LAYER_6
 40
0.7056
 41
0.7056
 66
1
 10
0
 20
0
 30
0
  0
VERTEX
  8
LAYER_6
 10
81.461
 20
-119.5763
  0
SEQEND
  0
ENDBLK
  0
BLOCK
  8
LAYER_6
  2
AIGNBL06020044
 70
64
 10
0
 20
0
 30
0
  3
AIGNBL06020044
  0
POLYLINE
  8
LAYER_6
 40
0.7056
 41
0.7056
 66
1
 10
0
 20
0
 30
0
  0
VERTEX
  8
LAYER_6
 10
74.801
 20
-119.5763
  0
SEQEND
  0
ENDBLK
  0
BLOCK
  8
LAYER_6
  2
AIGNBL06020046
 70
64
 10
0
 20
0
 30
0
  3
AIGNBL06020046
  0
POLYLINE
  8
LAYER_6
 40
0.1764
 41
0.1764
 66
1
 10
0
 20
0
 30
0
  0
VERTEX
  8
LAYER_6
 10
134.5309
 20
-118.0718
  0
VERTEX
  8
LAYER_6
 10
134.2809
 20
-119.5718
  0
SEQEND
  0
POLYLINE
  8
LAYER_6
 40
0.1764
 41
0.1764
 66
1
 10
0
 20
0
 30
0
  0
VERTEX
  8
LAYER_6
 10
134.2809
 20
-118.0718
  0
VERTEX
  8
LAYER_6
 10
134.2809
 20
-119.5718
  0
VERTEX
  8
LAYER_6
 10
134.0309
 20
-118.0718
  0
SEQEND
  0
ENDBLK
  0
BLOCK
  8
LAYER_6
  2
AIGNBL06020047
 70
64
 10
0
 20
0
 30
0
  3
AIGNBL06020047
  0
POLYLINE
  8
LAYER_6
 40
0.1764
 41
0.1764
 66
1
 10
0
 20
0
 30
0
  0
VERTEX
  8
LAYER_6
 10
134.0309
 20
-81.891
  0
VERTEX
  8
LAYER_6
 10
134.2809
 20
-80.391
  0
SEQEND
  0
POLYLINE
  8
LAYER_6
 40
0.1764
 41
0.1764
 66
1
 10
0
 20
0
 30
0
  0
VERTEX
  8
LAYER_6
 10
134.2809
 20
-81.891
  0
VERTEX
  8
LAYER_6
 10
134.2809
 20
-80.391
  0
VERTEX
  8
LAYER_6
 10
134.5309
 20
-81.891
  0
SEQEND
  0
ENDBLK
  0
BLOCK
  8
LAYER_6
  2
AIGNBL06020048
 70
64
 10
0
 20
0
 30
0
  3
AIGNBL06020048
  0
POLYLINE
  8
LAYER_6
 40
0.7056
 41
0.7056
 66
1
 10
0
 20
0
 30
0
  0
VERTEX
  8
LAYER_6
 10
171.1555
 20
-119.5718
  0
SEQEND
  0
ENDBLK
  0
BLOCK
  8
LAYER_6
  2
AIGNBL06020049
 70
64
 10
0
 20
0
 30
0
  3
AIGNBL06020049
  0
POLYLINE
  8
LAYER_6
 40
0.7056
 41
0.7056
 66
1
 10
0
 20
0
 30
0
  0
VERTEX
  8
LAYER_6
 10
148.2809
 20
-80.391
  0
SEQEND
  0
ENDBLK
  0
BLOCK
  8
LAYER_6
  2
AIGNBL0602004A
 70
64
 10
0
 20
0
 30
0
  3
AIGNBL0602004A
  0
POLYLINE
  8
LAYER_6
 40
0.7056
 41
0.7056
 66
1
 10
0
 20
0
 30
0
  0
VERTEX
  8
LAYER_6
 10
134.2809
 20
-80.391
  0
SEQEND
  0
ENDBLK
  0
BLOCK
  8
LAYER_6
  2
AIGNBL0602004C
 70
64
 10
0
 20
0
 30
0
  3
AIGNBL0602004C
  0
POLYLINE
  8
LAYER_6
 40
0.1764
 41
0.1764
 66
1
 10
0
 20
0
 30
0
  0
VERTEX
  8
LAYER_6
 10
134.0309
 20
-121.0718
  0
VERTEX
  8
LAYER_6
 10
134.2809
 20
-119.5718
  0
SEQEND
  0
POLYLINE
  8
LAYER_6
 40
0.1764
 41
0.1764
 66
1
 10
0
 20
0
 30
0
  0
VERTEX
  8
LAYER_6
 10
134.2809
 20
-121.0718
  0
VERTEX
  8
LAYER_6
 10
134.2809
 20
-119.5718
  0
VERTEX
  8
LAYER_6
 10
134.5309
 20
-121.0718
  0
SEQEND
  0
ENDBLK
  0
BLOCK
  8
LAYER_6
  2
AIGNBL0602004D
 70
64
 10
0
 20
0
 30
0
  3
AIGNBL0602004D
  0
POLYLINE
  8
LAYER_6
 40
0.1764
 41
0.1764
 66
1
 10
0
 20
0
 30
0
  0
VERTEX
  8
LAYER_6
 10
134.5309
 20
-127.1718
  0
VERTEX
  8
LAYER_6
 10
134.2809
 20
-128.6718
  0
SEQEND
  0
POLYLINE
  8
LAYER_6
 40
0.1764
 41
0.1764
 66
1
 10
0
 20
0
 30
0
  0
VERTEX
  8
LAYER_6
 10
134.2809
 20
-127.1718
  0
VERTEX
  8
LAYER_6
 10
134.2809
 20
-128.6718
  0
VERTEX
  8
LAYER_6
 10
134.0309
 20
-127.1718
  0
SEQEND
  0
ENDBLK
  0
BLOCK
  8
LAYER_6
  2
AIGNBL0602004E
 70
64
 10
0
 20
0
 30
0
  3
AIGNBL0602004E
  0
POLYLINE
  8
LAYER_6
 40
0.7056
 41
0.7056
 66
1
 10
0
 20
0
 30
0
  0
VERTEX
  8
LAYER_6
 10
171.1555
 20
-119.5718
  0
SEQEND
  0
ENDBLK
  0
BLOCK
  8
LAYER_6
  2
AIGNBL0602004F
 70
64
 10
0
 20
0
 30
0
  3
AIGNBL0602004F
  0
POLYLINE
  8
LAYER_6
 40
0.7056
 41
0.7056
 66
1
 10
0
 20
0
 30
0
  0
VERTEX
  8
LAYER_6
 10
173.2
 20
-128.6718
  0
SEQEND
  0
ENDBLK
  0
BLOCK
  8
LAYER_6
  2
AIGNBL06020050
 70
64
 10
0
 20
0
 30
0
  3
AIGNBL06020050
  0
POLYLINE
  8
LAYER_6
 40
0.7056
 41
0.7056
 66
1
 10
0
 20
0
 30
0
  0
VERTEX
  8
LAYER_6
 10
134.2809
 20
-128.6718
  0
SEQEND
  0
ENDBLK
  0
BLOCK
  8
LAYER_6
  2
AIGNBL06020052
 70
64
 10
0
 20
0
 30
0
  3
AIGNBL06020052
  0
POLYLINE
  8
LAYER_6
 40
0.1764
 41
0.1764
 66
1
 10
0
 20
0
 30
0
  0
VERTEX
  8
LAYER_6
 10
173.4955
 20
-91.2243
  0
VERTEX
  8
LAYER_6
 10
174.9955
 20
-91.4743
  0
SEQEND
  0
POLYLINE
  8
LAYER_6
 40
0.1764
 41
0.1764
 66
1
 10
0
 20
0
 30
0
  0
VERTEX
  8
LAYER_6
 10
173.4955
 20
-91.4743
  0
VERTEX
  8
LAYER_6
 10
174.9955
 20
-91.4743
  0
VERTEX
  8
LAYER_6
 10
173.4955
 20
-91.7243
  0
SEQEND
  0
ENDBLK
  0
BLOCK
  8
LAYER_6
  2
AIGNBL06020053
 70
64
 10
0
 20
0
 30
0
  3
AIGNBL06020053
  0
POLYLINE
  8
LAYER_6
 40
0.1764
 41
0.1764
 66
1
 10
0
 20
0
 30
0
  0
VERTEX
  8
LAYER_6
 10
149.7809
 20
-91.7243
  0
VERTEX
  8
LAYER_6
 10
148.2809
 20
-91.4743
  0
SEQEND
  0
POLYLINE
  8
LAYER_6
 40
0.1764
 41
0.1764
 66
1
 10
0
 20
0
 30
0
  0
VERTEX
  8
LAYER_6
 10
149.7809
 20
-91.4743
  0
VERTEX
  8
LAYER_6
 10
148.2809
 20
-91.4743
  0
VERTEX
  8
LAYER_6
 10
149.7809
 20
-91.2243
  0
SEQEND
  0
ENDBLK
  0
BLOCK
  8
LAYER_6
  2
AIGNBL06020054
 70
64
 10
0
 20
0
 30
0
  3
AIGNBL06020054
  0
POLYLINE
  8
LAYER_6
 40
0.7056
 41
0.7056
 66
1
 10
0
 20
0
 30
0
  0
VERTEX
  8
LAYER_6
 10
174.9955
 20
-95.3718
  0
SEQEND
  0
ENDBLK
  0
BLOCK
  8
LAYER_6
  2
AIGNBL06020055
 70
64
 10
0
 20
0
 30
0
  3
AIGNBL06020055
  0
POLYLINE
  8
LAYER_6
 40
0.7056
 41
0.7056
 66
1
 10
0
 20
0
 30
0
  0
VERTEX
  8
LAYER_6
 10
148.2809
 20
-82.217
  0
SEQEND
  0
ENDBLK
  0
BLOCK
  8
LAYER_6
  2
AIGNBL06020056
 70
64
 10
0
 20
0
 30
0
  3
AIGNBL06020056
  0
POLYLINE
  8
LAYER_6
 40
0.7056
 41
0.7056
 66
1
 10
0
 20
0
 30
0
  0
VERTEX
  8
LAYER_6
 10
148.2809
 20
-91.4743
  0
SEQEND
  0
ENDBLK
  0
BLOCK
  8
LAYER_6
  2
AIGNBL06020058
 70
64
 10
0
 20
0
 30
0
  3
AIGNBL06020058
  0
POLYLINE
  8
LAYER_6
 40
0.1764
 41
0.1764
 66
1
 10
0
 20
0
 30
0
  0
VERTEX
  8
LAYER_6
 10
137.2293
 20
-100.5629
  0
VERTEX
  8
LAYER_6
 10
138.4547
 20
-101.4634
  0
SEQEND
  0
POLYLINE
  8
LAYER_6
 40
0.1764
 41
0.1764
 66
1
 10
0
 20
0
 30
0
  0
VERTEX
  8
LAYER_6
 10
137.1164
 20
-100.786
  0
VERTEX
  8
LAYER_6
 10
138.4547
 20
-101.4634
  0
VERTEX
  8
LAYER_6
 10
137.0034
 20
-101.009
  0
SEQEND
  0
ENDBLK
  0
BLOCK
  8
LAYER_6
  2
AIGNBL06020059
 70
64
 10
0
 20
0
 30
0
  3
AIGNBL06020059
  0
POLYLINE
  8
LAYER_6
 40
0.1764
 41
0.1764
 66
1
 10
0
 20
0
 30
0
  0
VERTEX
  8
LAYER_6
 10
149.7882
 20
-103.8433
  0
VERTEX
  8
LAYER_6
 10
148.2809
 20
-103.6419
  0
SEQEND
  0
POLYLINE
  8
LAYER_6
 40
0.1764
 41
0.1764
 66
1
 10
0
 20
0
 30
0
  0
VERTEX
  8
LAYER_6
 10
149.7801
 20
-103.5935
  0
VERTEX
  8
LAYER_6
 10
148.2809
 20
-103.6419
  0
VERTEX
  8
LAYER_6
 10
149.7721
 20
-103.3436
  0
SEQEND
  0
ENDBLK
  0
BLOCK
  8
LAYER_6
  2
AIGNBL0602005A
 70
64
 10
0
 20
0
 30
0
  3
AIGNBL0602005A
  0
POLYLINE
  8
LAYER_6
 40
0.7056
 41
0.7056
 66
1
 10
0
 20
0
 30
0
  0
VERTEX
  8
LAYER_6
 10
141.6125
 20
-102.6651
  0
SEQEND
  0
ENDBLK
  0
BLOCK
  8
LAYER_6
  2
AIGNBL0602005B
 70
64
 10
0
 20
0
 30
0
  3
AIGNBL0602005B
  0
POLYLINE
  8
LAYER_6
 40
0.7056
 41
0.7056
 66
1
 10
0
 20
0
 30
0
  0
VERTEX
  8
LAYER_6
 10
148.0696
 20
-80.8441
  0
SEQEND
  0
ENDBLK
  0
BLOCK
  8
LAYER_6
  2
AIGNBL0602005C
 70
64
 10
0
 20
0
 30
0
  3
AIGNBL0602005C
  0
POLYLINE
  8
LAYER_6
 40
0.7056
 41
0.7056
 66
1
 10
0
 20
0
 30
0
  0
VERTEX
  8
LAYER_6
 10
148.2809
 20
-80.391
  0
SEQEND
  0
ENDBLK
  0
BLOCK
  8
LAYER_6
  2
AIGNBL0602005D
 70
64
 10
0
 20
0
 30
0
  3
AIGNBL0602005D
  0
POLYLINE
  8
LAYER_6
 40
0.7056
 41
0.7056
 66
1
 10
0
 20
0
 30
0
  0
VERTEX
  8
LAYER_6
 10
148.2809
 20
-82.217
  0
SEQEND
  0
ENDBLK
  0
BLOCK
  8
LAYER_6
  2
AIGNBL0602005E
 70
64
 10
0
 20
0
 30
0
  3
AIGNBL0602005E
  0
POLYLINE
  8
LAYER_6
 40
0.7056
 41
0.7056
 66
1
 10
0
 20
0
 30
0
  0
VERTEX
  8
LAYER_6
 10
153.0142
 20
-70.2403
  0
SEQEND
  0
ENDBLK
  0
BLOCK
  8
LAYER_6
  2
AIGNBL06020060
 70
64
 10
0
 20
0
 30
0
  3
AIGNBL06020060
  0
POLYLINE
  8
LAYER_6
 40
0.1764
 41
0.1764
 66
1
 10
0
 20
0
 30
0
  0
VERTEX
  8
LAYER_6
 10
159.3455
 20
-121.0718
  0
VERTEX
  8
LAYER_6
 10
159.5955
 20
-119.5718
  0
SEQEND
  0
POLYLINE
  8
LAYER_6
 40
0.1764
 41
0.1764
 66
1
 10
0
 20
0
 30
0
  0
VERTEX
  8
LAYER_6
 10
159.5955
 20
-121.0718
  0
VERTEX
  8
LAYER_6
 10
159.5955
 20
-119.5718
  0
VERTEX
  8
LAYER_6
 10
159.8455
 20
-121.0718
  0
SEQEND
  0
ENDBLK
  0
BLOCK
  8
LAYER_6
  2
AIGNBL06020061
 70
64
 10
0
 20
0
 30
0
  3
AIGNBL06020061
  0
POLYLINE
  8
LAYER_6
 40
0.1764
 41
0.1764
 66
1
 10
0
 20
0
 30
0
  0
VERTEX
  8
LAYER_6
 10
159.8455
 20
-123.3718
  0
VERTEX
  8
LAYER_6
 10
159.5955
 20
-124.8718
  0
SEQEND
  0
POLYLINE
  8
LAYER_6
 40
0.1764
 41
0.1764
 66
1
 10
0
 20
0
 30
0
  0
VERTEX
  8
LAYER_6
 10
159.5955
 20
-123.3718
  0
VERTEX
  8
LAYER_6
 10
159.5955
 20
-124.8718
  0
VERTEX
  8
LAYER_6
 10
159.3455
 20
-123.3718
  0
SEQEND
  0
ENDBLK
  0
BLOCK
  8
LAYER_6
  2
AIGNBL06020062
 70
64
 10
0
 20
0
 30
0
  3
AIGNBL06020062
  0
POLYLINE
  8
LAYER_6
 40
0.7056
 41
0.7056
 66
1
 10
0
 20
0
 30
0
  0
VERTEX
  8
LAYER_6
 10
174.9955
 20
-124.8718
  0
SEQEND
  0
ENDBLK
  0
BLOCK
  8
LAYER_6
  2
AIGNBL06020063
 70
64
 10
0
 20
0
 30
0
  3
AIGNBL06020063
  0
POLYLINE
  8
LAYER_6
 40
0.7056
 41
0.7056
 66
1
 10
0
 20
0
 30
0
  0
VERTEX
  8
LAYER_6
 10
174.9955
 20
-119.5718
  0
SEQEND
  0
ENDBLK
  0
BLOCK
  8
LAYER_6
  2
AIGNBL06020064
 70
64
 10
0
 20
0
 30
0
  3
AIGNBL06020064
  0
POLYLINE
  8
LAYER_6
 40
0.7056
 41
0.7056
 66
1
 10
0
 20
0
 30
0
  0
VERTEX
  8
LAYER_6
 10
159.5955
 20
-119.5718
  0
SEQEND
  0
ENDBLK
  0
BLOCK
  8
LAYER_6
  2
AIGNBL06020066
 70
64
 10
0
 20
0
 30
0
  3
AIGNBL06020066
  0
POLYLINE
  8
LAYER_6
 40
0.1764
 41
0.1764
 66
1
 10
0
 20
0
 30
0
  0
VERTEX
  8
LAYER_6
 10
172.8955
 20
-211.2333
  0
VERTEX
  8
LAYER_6
 10
174.3955
 20
-211.4833
  0
SEQEND
  0
POLYLINE
  8
LAYER_6
 40
0.1764
 41
0.1764
 66
1
 10
0
 20
0
 30
0
  0
VERTEX
  8
LAYER_6
 10
172.8955
 20
-211.4833
  0
VERTEX
  8
LAYER_6
 10
174.3955
 20
-211.4833
  0
VERTEX
  8
LAYER_6
 10
172.8955
 20
-211.7333
  0
SEQEND
  0
ENDBLK
  0
BLOCK
  8
LAYER_6
  2
AIGNBL06020067
 70
64
 10
0
 20
0
 30
0
  3
AIGNBL06020067
  0
POLYLINE
  8
LAYER_6
 40
0.1764
 41
0.1764
 66
1
 10
0
 20
0
 30
0
  0
VERTEX
  8
LAYER_6
 10
179.5955
 20
-211.7333
  0
VERTEX
  8
LAYER_6
 10
178.0955
 20
-211.4833
  0
SEQEND
  0
POLYLINE
  8
LAYER_6
 40
0.1764
 41
0.1764
 66
1
 10
0
 20
0
 30
0
  0
VERTEX
  8
LAYER_6
 10
179.5955
 20
-211.4833
  0
VERTEX
  8
LAYER_6
 10
178.0955
 20
-211.4833
  0
VERTEX
  8
LAYER_6
 10
179.5955
 20
-211.2333
  0
SEQEND
  0
ENDBLK
  0
BLOCK
  8
LAYER_6
  2
AIGNBL06020068
 70
64
 10
0
 20
0
 30
0
  3
AIGNBL06020068
  0
POLYLINE
  8
LAYER_6
 40
0.7056
 41
0.7056
 66
1
 10
0
 20
0
 30
0
  0
VERTEX
  8
LAYER_6
 10
174.3955
 20
-200.6144
  0
SEQEND
  0
ENDBLK
  0
BLOCK
  8
LAYER_6
  2
AIGNBL06020069
 70
64
 10
0
 20
0
 30
0
  3
AIGNBL06020069
  0
POLYLINE
  8
LAYER_6
 40
0.7056
 41
0.7056
 66
1
 10
0
 20
0
 30
0
  0
VERTEX
  8
LAYER_6
 10
178.0955
 20
-201.4144
  0
SEQEND
  0
ENDBLK
  0
BLOCK
  8
LAYER_6
  2
AIGNBL0602006A
 70
64
 10
0
 20
0
 30
0
  3
AIGNBL0602006A
  0
POLYLINE
  8
LAYER_6
 40
0.7056
 41
0.7056
 66
1
 10
0
 20
0
 30
0
  0
VERTEX
  8
LAYER_6
 10
178.0955
 20
-211.4833
  0
SEQEND
  0
ENDBLK
  0
BLOCK
  8
LAYER_1
  2
AIGNBL01010002
 70
64
 10
0
 20
0
 30
0
  3
AIGNBL01010002
  0
INSERT
  8
LAYER_1
  2
AIGNBL01020003
 10
0
 20
0
 30
0
  0
INSERT
  8
LAYER_1
  2
AIGNBL0102000C
 10
0
 20
0
 30
0
  0
ENDBLK
  0
BLOCK
  8
LAYER_6
  2
AIGNBL06010002
 70
64
 10
0
 20
0
 30
0
  3
AIGNBL06010002
  0
POLYLINE
  8
LAYER_6
 40
0.7056
 41
0.7056
 66
1
 10
0
 20
0
 30
0
 70
1
  0
VERTEX
  8
LAYER_6
 10
33.7873
 20
22.6587
  0
VERTEX
  8
LAYER_6
 10
230.7955
 20
22.6587
  0
VERTEX
  8
LAYER_6
 10
230.7955
 20
-259.334
  0
VERTEX
  8
LAYER_6
 10
33.7873
 20
-259.334
  0
SEQEND
  0
ENDBLK
  0
BLOCK
  8
LAYER_6
  2
AIGNBL06010003
 70
64
 10
0
 20
0
 30
0
  3
AIGNBL06010003
  0
POLYLINE
  8
LAYER_6
 40
0.1764
 41
0.1764
 66
1
 10
0
 20
0
 30
0
  0
VERTEX
  8
LAYER_6
 10
78.801
 20
-174.4389
  0
VERTEX
  8
LAYER_6
 10
78.801
 20
-160.0436
  0
SEQEND
  0
POLYLINE
  8
LAYER_6
 40
0.1764
 41
0.1764
 66
1
 10
0
 20
0
 30
0
  0
VERTEX
  8
LAYER_6
 10
91.801
 20
-174.4389
  0
VERTEX
  8
LAYER_6
 10
91.801
 20
-160.0436
  0
SEQEND
  0
POLYLINE
  8
LAYER_6
 40
0.1764
 41
0.1764
 66
1
 10
0
 20
0
 30
0
  0
VERTEX
  8
LAYER_6
 10
80.301
 20
-162.0436
  0
VERTEX
  8
LAYER_6
 10
90.301
 20
-162.0436
  0
SEQEND
  0
INSERT
  8
LAYER_6
  2
AIGNBL06020004
 10
0
 20
0
 30
0
  0
INSERT
  8
LAYER_6
  2
AIGNBL06020005
 10
0
 20
0
 30
0
  0
TEXT
  8
LAYER_6
 10
91.6782
 20
-160.8358
 11
91.6782
 21
-160.8358
 40
3.7084
 41
0.5
 72
1
  1
65
  0
INSERT
  8
LAYER_6
  2
AIGNBL06020006
 10
0
 20
0
 30
0
  0
INSERT
  8
LAYER_6
  2
AIGNBL06020007
 10
0
 20
0
 30
0
  0
INSERT
  8
LAYER_6
  2
AIGNBL06020008
 10
0
 20
0
 30
0
  0
ENDBLK
  0
BLOCK
  8
LAYER_6
  2
AIGNBL06010009
 70
64
 10
0
 20
0
 30
0
  3
AIGNBL06010009
  0
POLYLINE
  8
LAYER_6
 40
0.1764
 41
0.1764
 66
1
 10
0
 20
0
 30
0
  0
VERTEX
  8
LAYER_6
 10
81.401
 20
-119.5163
  0
VERTEX
  8
LAYER_6
 10
81.401
 20
-124.2289
  0
SEQEND
  0
POLYLINE
  8
LAYER_6
 40
0.1764
 41
0.1764
 66
1
 10
0
 20
0
 30
0
  0
VERTEX
  8
LAYER_6
 10
89.201
 20
-119.5163
  0
VERTEX
  8
LAYER_6
 10
89.201
 20
-124.2289
  0
SEQEND
  0
POLYLINE
  8
LAYER_6
 40
0.1764
 41
0.1764
 66
1
 10
0
 20
0
 30
0
  0
VERTEX
  8
LAYER_6
 10
82.901
 20
-122.2289
  0
VERTEX
  8
LAYER_6
 10
87.701
 20
-122.2289
  0
SEQEND
  0
POLYLINE
  8
LAYER_6
 40
0.1764
 41
0.1764
 66
1
 10
0
 20
0
 30
0
  0
VERTEX
  8
LAYER_6
 10
89.201
 20
-122.2289
  0
VERTEX
  8
LAYER_6
 10
98.089
 20
-122.2289
  0
SEQEND
  0
INSERT
  8
LAYER_6
  2
AIGNBL0602000A
 10
0
 20
0
 30
0
  0
INSERT
  8
LAYER_6
  2
AIGNBL0602000B
 10
0
 20
0
 30
0
  0
TEXT
  8
LAYER_6
 10
96.3764
 20
-120.9273
 11
96.3764
 21
-120.9273
 40
3.7084
 41
0.5
 72
1
  1
φ39
  0
INSERT
  8
LAYER_6
  2
AIGNBL0602000C
 10
0
 20
0
 30
0
  0
INSERT
  8
LAYER_6
  2
AIGNBL0602000D
 10
0
 20
0
 30
0
  0
INSERT
  8
LAYER_6
  2
AIGNBL0602000E
 10
0
 20
0
 30
0
  0
ENDBLK
  0
BLOCK
  8
LAYER_6
  2
AIGNBL0601000F
 70
64
 10
0
 20
0
 30
0
  3
AIGNBL0601000F
  0
POLYLINE
  8
LAYER_6
 40
0.1764
 41
0.1764
 66
1
 10
0
 20
0
 30
0
  0
VERTEX
  8
LAYER_6
 10
82.761
 20
-95.4363
  0
VERTEX
  8
LAYER_6
 10
82.761
 20
-91.3763
  0
SEQEND
  0
POLYLINE
  8
LAYER_6
 40
0.1764
 41
0.1764
 66
1
 10
0
 20
0
 30
0
  0
VERTEX
  8
LAYER_6
 10
87.841
 20
-95.4363
  0
VERTEX
  8
LAYER_6
 10
87.841
 20
-91.3763
  0
SEQEND
  0
POLYLINE
  8
LAYER_6
 40
0.1764
 41
0.1764
 66
1
 10
0
 20
0
 30
0
  0
VERTEX
  8
LAYER_6
 10
84.261
 20
-93.3763
  0
VERTEX
  8
LAYER_6
 10
86.341
 20
-93.3763
  0
SEQEND
  0
POLYLINE
  8
LAYER_6
 40
0.1764
 41
0.1764
 66
1
 10
0
 20
0
 30
0
  0
VERTEX
  8
LAYER_6
 10
87.841
 20
-93.3763
  0
VERTEX
  8
LAYER_6
 10
100.537
 20
-93.3763
  0
SEQEND
  0
INSERT
  8
LAYER_6
  2
AIGNBL06020010
 10
0
 20
0
 30
0
  0
INSERT
  8
LAYER_6
  2
AIGNBL06020011
 10
0
 20
0
 30
0
  0
TEXT
  8
LAYER_6
 10
96.1104
 20
-92.0746
 11
96.1104
 21
-92.0746
 40
3.7084
 41
0.5
 72
1
  1
φ25.4
  0
INSERT
  8
LAYER_6
  2
AIGNBL06020012
 10
0
 20
0
 30
0
  0
INSERT
  8
LAYER_6
  2
AIGNBL06020013
 10
0
 20
0
 30
0
  0
INSERT
  8
LAYER_6
  2
AIGNBL06020014
 10
0
 20
0
 30
0
  0
ENDBLK
  0
BLOCK
  8
LAYER_6
  2
AIGNBL06010015
 70
64
 10
0
 20
0
 30
0
  3
AIGNBL06010015
  0
POLYLINE
  8
LAYER_6
 40
0.1764
 41
0.1764
 66
1
 10
0
 20
0
 30
0
  0
VERTEX
  8
LAYER_6
 10
169.5955
 20
-174.5767
  0
VERTEX
  8
LAYER_6
 10
169.5955
 20
-160.0391
  0
SEQEND
  0
POLYLINE
  8
LAYER_6
 40
0.1764
 41
0.1764
 66
1
 10
0
 20
0
 30
0
  0
VERTEX
  8
LAYER_6
 10
186.3955
 20
-173.9344
  0
VERTEX
  8
LAYER_6
 10
186.3955
 20
-160.0391
  0
SEQEND
  0
POLYLINE
  8
LAYER_6
 40
0.1764
 41
0.1764
 66
1
 10
0
 20
0
 30
0
  0
VERTEX
  8
LAYER_6
 10
171.0955
 20
-162.0391
  0
VERTEX
  8
LAYER_6
 10
184.8955
 20
-162.0391
  0
SEQEND
  0
INSERT
  8
LAYER_6
  2
AIGNBL06020016
 10
0
 20
0
 30
0
  0
INSERT
  8
LAYER_6
  2
AIGNBL06020017
 10
0
 20
0
 30
0
  0
TEXT
  8
LAYER_6
 10
180.6808
 20
-160.8313
 11
180.6808
 21
-160.8313
 40
3.7084
 41
0.5
 72
1
  1
84
  0
INSERT
  8
LAYER_6
  2
AIGNBL06020018
 10
0
 20
0
 30
0
  0
INSERT
  8
LAYER_6
  2
AIGNBL06020019
 10
0
 20
0
 30
0
  0
INSERT
  8
LAYER_6
  2
AIGNBL0602001A
 10
0
 20
0
 30
0
  0
ENDBLK
  0
BLOCK
  8
LAYER_6
  2
AIGNBL0601001B
 70
64
 10
0
 20
0
 30
0
  3
AIGNBL0601001B
  0
POLYLINE
  8
LAYER_6
 40
0.1764
 41
0.1764
 66
1
 10
0
 20
0
 30
0
  0
VERTEX
  8
LAYER_6
 10
174.3955
 20
-174.0391
  0
VERTEX
  8
LAYER_6
 10
174.3955
 20
-165.9345
  0
SEQEND
  0
POLYLINE
  8
LAYER_6
 40
0.1764
 41
0.1764
 66
1
 10
0
 20
0
 30
0
  0
VERTEX
  8
LAYER_6
 10
186.3879
 20
-173.9345
  0
VERTEX
  8
LAYER_6
 10
186.3879
 20
-165.9345
  0
SEQEND
  0
POLYLINE
  8
LAYER_6
 40
0.1764
 41
0.1764
 66
1
 10
0
 20
0
 30
0
  0
VERTEX
  8
LAYER_6
 10
175.8955
 20
-167.9345
  0
VERTEX
  8
LAYER_6
 10
184.8879
 20
-167.9345
  0
SEQEND
  0
POLYLINE
  8
LAYER_6
 40
0.1764
 41
0.1764
 66
1
 10
0
 20
0
 30
0
  0
VERTEX
  8
LAYER_6
 10
186.3879
 20
-167.9345
  0
VERTEX
  8
LAYER_6
 10
196.6801
 20
-167.9345
  0
SEQEND
  0
INSERT
  8
LAYER_6
  2
AIGNBL0602001C
 10
0
 20
0
 30
0
  0
INSERT
  8
LAYER_6
  2
AIGNBL0602001D
 10
0
 20
0
 30
0
  0
TEXT
  8
LAYER_6
 10
195.1261
 20
-166.7267
 11
195.1261
 21
-166.7267
 40
3.7084
 41
0.5
 72
1
  1
60
  0
INSERT
  8
LAYER_6
  2
AIGNBL0602001E
 10
0
 20
0
 30
0
  0
INSERT
  8
LAYER_6
  2
AIGNBL0602001F
 10
0
 20
0
 30
0
  0
INSERT
  8
LAYER_6
  2
AIGNBL06020020
 10
0
 20
0
 30
0
  0
ENDBLK
  0
BLOCK
  8
LAYER_6
  2
AIGNBL06010021
 70
64
 10
0
 20
0
 30
0
  3
AIGNBL06010021
  0
POLYLINE
  8
LAYER_6
 40
0.1764
 41
0.1764
 66
1
 10
0
 20
0
 30
0
  0
VERTEX
  8
LAYER_6
 10
169.5955
 20
-174.5767
  0
VERTEX
  8
LAYER_6
 10
169.5955
 20
-165.9504
  0
SEQEND
  0
POLYLINE
  8
LAYER_6
 40
0.1764
 41
0.1764
 66
1
 10
0
 20
0
 30
0
  0
VERTEX
  8
LAYER_6
 10
174.3955
 20
-174.0391
  0
VERTEX
  8
LAYER_6
 10
174.3955
 20
-165.9504
  0
SEQEND
  0
POLYLINE
  8
LAYER_6
 40
0.1764
 41
0.1764
 66
1
 10
0
 20
0
 30
0
  0
VERTEX
  8
LAYER_6
 10
172.8955
 20
-167.9504
  0
VERTEX
  8
LAYER_6
 10
171.0955
 20
-167.9504
  0
SEQEND
  0
POLYLINE
  8
LAYER_6
 40
0.1764
 41
0.1764
 66
1
 10
0
 20
0
 30
0
  0
VERTEX
  8
LAYER_6
 10
169.5955
 20
-167.9504
  0
VERTEX
  8
LAYER_6
 10
159.3033
 20
-167.9504
  0
SEQEND
  0
INSERT
  8
LAYER_6
  2
AIGNBL06020022
 10
0
 20
0
 30
0
  0
INSERT
  8
LAYER_6
  2
AIGNBL06020023
 10
0
 20
0
 30
0
  0
TEXT
  8
LAYER_6
 10
166.5415
 20
-166.7426
 11
166.5415
 21
-166.7426
 40
3.7084
 41
0.5
 72
1
  1
24
  0
INSERT
  8
LAYER_6
  2
AIGNBL06020024
 10
0
 20
0
 30
0
  0
INSERT
  8
LAYER_6
  2
AIGNBL06020025
 10
0
 20
0
 30
0
  0
INSERT
  8
LAYER_6
  2
AIGNBL06020026
 10
0
 20
0
 30
0
  0
ENDBLK
  0
BLOCK
  8
LAYER_6
  2
AIGNBL06010027
 70
64
 10
0
 20
0
 30
0
  3
AIGNBL06010027
  0
POLYLINE
  8
LAYER_6
 40
0.1764
 41
0.1764
 66
1
 10
0
 20
0
 30
0
  0
VERTEX
  8
LAYER_6
 10
175.4208
 20
-199.4833
  0
VERTEX
  8
LAYER_6
 10
157.5955
 20
-199.4833
  0
SEQEND
  0
POLYLINE
  8
LAYER_6
 40
0.1764
 41
0.1764
 66
1
 10
0
 20
0
 30
0
  0
VERTEX
  8
LAYER_6
 10
172.1911
 20
-172.0833
  0
VERTEX
  8
LAYER_6
 10
157.5955
 20
-172.0833
  0
SEQEND
  0
POLYLINE
  8
LAYER_6
 40
0.1764
 41
0.1764
 66
1
 10
0
 20
0
 30
0
  0
VERTEX
  8
LAYER_6
 10
159.5955
 20
-197.9833
  0
VERTEX
  8
LAYER_6
 10
159.5955
 20
-173.5833
  0
SEQEND
  0
INSERT
  8
LAYER_6
  2
AIGNBL06020028
 10
0
 20
0
 30
0
  0
INSERT
  8
LAYER_6
  2
AIGNBL06020029
 10
0
 20
0
 30
0
  0
TEXT
  8
LAYER_6
 10
158.3879
 20
-181.5985
 11
158.3879
 21
-181.5985
 40
3.7084
 41
0.5
 50
89.99999999
 72
1
  1
137
  0
INSERT
  8
LAYER_6
  2
AIGNBL0602002A
 10
0
 20
0
 30
0
  0
INSERT
  8
LAYER_6
  2
AIGNBL0602002B
 10
0
 20
0
 30
0
  0
INSERT
  8
LAYER_6
  2
AIGNBL0602002C
 10
0
 20
0
 30
0
  0
ENDBLK
  0
BLOCK
  8
LAYER_6
  2
AIGNBL0601002D
 70
64
 10
0
 20
0
 30
0
  3
AIGNBL0601002D
  0
POLYLINE
  8
LAYER_6
 40
0.1764
 41
0.1764
 66
1
 10
0
 20
0
 30
0
  0
VERTEX
  8
LAYER_6
 10
174.9955
 20
-77.5139
  0
VERTEX
  8
LAYER_6
 10
174.9955
 20
-52.4939
  0
SEQEND
  0
POLYLINE
  8
LAYER_6
 40
0.1764
 41
0.1764
 66
1
 10
0
 20
0
 30
0
  0
VERTEX
  8
LAYER_6
 10
145.3175
 20
-78.8547
  0
VERTEX
  8
LAYER_6
 10
145.3175
 20
-52.4939
  0
SEQEND
  0
POLYLINE
  8
LAYER_6
 40
0.1764
 41
0.1764
 66
1
 10
0
 20
0
 30
0
  0
VERTEX
  8
LAYER_6
 10
173.4955
 20
-54.4939
  0
VERTEX
  8
LAYER_6
 10
146.8175
 20
-54.4939
  0
SEQEND
  0
INSERT
  8
LAYER_6
  2
AIGNBL0602002E
 10
0
 20
0
 30
0
  0
INSERT
  8
LAYER_6
  2
AIGNBL0602002F
 10
0
 20
0
 30
0
  0
TEXT
  8
LAYER_6
 10
164.3413
 20
-53.2861
 11
164.3413
 21
-53.2861
 40
3.7084
 41
0.5
 72
1
  1
148
  0
INSERT
  8
LAYER_6
  2
AIGNBL06020030
 10
0
 20
0
 30
0
  0
INSERT
  8
LAYER_6
  2
AIGNBL06020031
 10
0
 20
0
 30
0
  0
INSERT
  8
LAYER_6
  2
AIGNBL06020032
 10
0
 20
0
 30
0
  0
ENDBLK
  0
BLOCK
  8
LAYER_6
  2
AIGNBL06010033
 70
64
 10
0
 20
0
 30
0
  3
AIGNBL06010033
  0
POLYLINE
  8
LAYER_6
 40
0.1764
 41
0.1764
 66
1
 10
0
 20
0
 30
0
  0
VERTEX
  8
LAYER_6
 10
79.3009
 20
-173.9389
  0
VERTEX
  8
LAYER_6
 10
72.801
 20
-173.9389
  0
SEQEND
  0
POLYLINE
  8
LAYER_6
 40
0.1764
 41
0.1764
 66
1
 10
0
 20
0
 30
0
  0
VERTEX
  8
LAYER_6
 10
79.3009
 20
-192.2389
  0
VERTEX
  8
LAYER_6
 10
72.801
 20
-192.2389
  0
SEQEND
  0
POLYLINE
  8
LAYER_6
 40
0.1764
 41
0.1764
 66
1
 10
0
 20
0
 30
0
  0
VERTEX
  8
LAYER_6
 10
74.801
 20
-175.4389
  0
VERTEX
  8
LAYER_6
 10
74.801
 20
-190.7389
  0
SEQEND
  0
INSERT
  8
LAYER_6
  2
AIGNBL06020034
 10
0
 20
0
 30
0
  0
INSERT
  8
LAYER_6
  2
AIGNBL06020035
 10
0
 20
0
 30
0
  0
TEXT
  8
LAYER_6
 10
73.5934
 20
-181.213
 11
73.5934
 21
-181.213
 40
3.7084
 41
0.5
 50
89.99999999
 72
1
  1
91.5
  0
INSERT
  8
LAYER_6
  2
AIGNBL06020036
 10
0
 20
0
 30
0
  0
INSERT
  8
LAYER_6
  2
AIGNBL06020037
 10
0
 20
0
 30
0
  0
INSERT
  8
LAYER_6
  2
AIGNBL06020038
 10
0
 20
0
 30
0
  0
ENDBLK
  0
BLOCK
  8
LAYER_6
  2
AIGNBL06010039
 70
64
 10
0
 20
0
 30
0
  3
AIGNBL06010039
  0
POLYLINE
  8
LAYER_6
 40
0.1764
 41
0.1764
 66
1
 10
0
 20
0
 30
0
  0
VERTEX
  8
LAYER_6
 10
83.0712
 20
-172.0389
  0
VERTEX
  8
LAYER_6
 10
66.801
 20
-172.0389
  0
SEQEND
  0
POLYLINE
  8
LAYER_6
 40
0.1764
 41
0.1764
 66
1
 10
0
 20
0
 30
0
  0
VERTEX
  8
LAYER_6
 10
79.3009
 20
-192.2389
  0
VERTEX
  8
LAYER_6
 10
66.801
 20
-192.2389
  0
SEQEND
  0
POLYLINE
  8
LAYER_6
 40
0.1764
 41
0.1764
 66
1
 10
0
 20
0
 30
0
  0
VERTEX
  8
LAYER_6
 10
68.801
 20
-173.5389
  0
VERTEX
  8
LAYER_6
 10
68.801
 20
-190.7389
  0
SEQEND
  0
INSERT
  8
LAYER_6
  2
AIGNBL0602003A
 10
0
 20
0
 30
0
  0
INSERT
  8
LAYER_6
  2
AIGNBL0602003B
 10
0
 20
0
 30
0
  0
TEXT
  8
LAYER_6
 10
67.5935
 20
-179.0606
 11
67.5935
 21
-179.0606
 40
3.7084
 41
0.5
 50
89.99999999
 72
1
  1
101
  0
INSERT
  8
LAYER_6
  2
AIGNBL0602003C
 10
0
 20
0
 30
0
  0
INSERT
  8
LAYER_6
  2
AIGNBL0602003D
 10
0
 20
0
 30
0
  0
INSERT
  8
LAYER_6
  2
AIGNBL0602003E
 10
0
 20
0
 30
0
  0
ENDBLK
  0
BLOCK
  8
LAYER_6
  2
AIGNBL0601003F
 70
64
 10
0
 20
0
 30
0
  3
AIGNBL0601003F
  0
POLYLINE
  8
LAYER_6
 40
0.1764
 41
0.1764
 66
1
 10
0
 20
0
 30
0
  0
VERTEX
  8
LAYER_6
 10
85.301
 20
-62.4984
  0
VERTEX
  8
LAYER_6
 10
72.801
 20
-62.4984
  0
SEQEND
  0
POLYLINE
  8
LAYER_6
 40
0.1764
 41
0.1764
 66
1
 10
0
 20
0
 30
0
  0
VERTEX
  8
LAYER_6
 10
81.461
 20
-119.5763
  0
VERTEX
  8
LAYER_6
 10
72.801
 20
-119.5763
  0
SEQEND
  0
POLYLINE
  8
LAYER_6
 40
0.1764
 41
0.1764
 66
1
 10
0
 20
0
 30
0
  0
VERTEX
  8
LAYER_6
 10
74.801
 20
-63.9984
  0
VERTEX
  8
LAYER_6
 10
74.801
 20
-118.0763
  0
SEQEND
  0
INSERT
  8
LAYER_6
  2
AIGNBL06020040
 10
0
 20
0
 30
0
  0
INSERT
  8
LAYER_6
  2
AIGNBL06020041
 10
0
 20
0
 30
0
  0
TEXT
  8
LAYER_6
 10
73.5934
 20
-86.8525
 11
73.5934
 21
-86.8525
 40
3.7084
 41
0.5
 50
89.99999999
 72
1
  1
285
  0
INSERT
  8
LAYER_6
  2
AIGNBL06020042
 10
0
 20
0
 30
0
  0
INSERT
  8
LAYER_6
  2
AIGNBL06020043
 10
0
 20
0
 30
0
  0
INSERT
  8
LAYER_6
  2
AIGNBL06020044
 10
0
 20
0
 30
0
  0
ENDBLK
  0
BLOCK
  8
LAYER_6
  2
AIGNBL06010045
 70
64
 10
0
 20
0
 30
0
  3
AIGNBL06010045
  0
POLYLINE
  8
LAYER_6
 40
0.1764
 41
0.1764
 66
1
 10
0
 20
0
 30
0
  0
VERTEX
  8
LAYER_6
 10
171.1555
 20
-119.5718
  0
VERTEX
  8
LAYER_6
 10
132.2809
 20
-119.5718
  0
SEQEND
  0
POLYLINE
  8
LAYER_6
 40
0.1764
 41
0.1764
 66
1
 10
0
 20
0
 30
0
  0
VERTEX
  8
LAYER_6
 10
148.2809
 20
-80.391
  0
VERTEX
  8
LAYER_6
 10
132.2809
 20
-80.391
  0
SEQEND
  0
POLYLINE
  8
LAYER_6
 40
0.1764
 41
0.1764
 66
1
 10
0
 20
0
 30
0
  0
VERTEX
  8
LAYER_6
 10
134.2809
 20
-118.0718
  0
VERTEX
  8
LAYER_6
 10
134.2809
 20
-81.891
  0
SEQEND
  0
INSERT
  8
LAYER_6
  2
AIGNBL06020046
 10
0
 20
0
 30
0
  0
INSERT
  8
LAYER_6
  2
AIGNBL06020047
 10
0
 20
0
 30
0
  0
TEXT
  8
LAYER_6
 10
133.0734
 20
-95.7965
 11
133.0734
 21
-95.7965
 40
3.7084
 41
0.5
 50
89.99999999
 72
1
  1
196
  0
INSERT
  8
LAYER_6
  2
AIGNBL06020048
 10
0
 20
0
 30
0
  0
INSERT
  8
LAYER_6
  2
AIGNBL06020049
 10
0
 20
0
 30
0
  0
INSERT
  8
LAYER_6
  2
AIGNBL0602004A
 10
0
 20
0
 30
0
  0
ENDBLK
  0
BLOCK
  8
LAYER_6
  2
AIGNBL0601004B
 70
64
 10
0
 20
0
 30
0
  3
AIGNBL0601004B
  0
POLYLINE
  8
LAYER_6
 40
0.1764
 41
0.1764
 66
1
 10
0
 20
0
 30
0
  0
VERTEX
  8
LAYER_6
 10
171.1555
 20
-119.5718
  0
VERTEX
  8
LAYER_6
 10
132.2809
 20
-119.5718
  0
SEQEND
  0
POLYLINE
  8
LAYER_6
 40
0.1764
 41
0.1764
 66
1
 10
0
 20
0
 30
0
  0
VERTEX
  8
LAYER_6
 10
173.2
 20
-128.6718
  0
VERTEX
  8
LAYER_6
 10
132.2809
 20
-128.6718
  0
SEQEND
  0
POLYLINE
  8
LAYER_6
 40
0.1764
 41
0.1764
 66
1
 10
0
 20
0
 30
0
  0
VERTEX
  8
LAYER_6
 10
134.2809
 20
-121.0718
  0
VERTEX
  8
LAYER_6
 10
134.2809
 20
-127.1718
  0
SEQEND
  0
POLYLINE
  8
LAYER_6
 40
0.1764
 41
0.1764
 66
1
 10
0
 20
0
 30
0
  0
VERTEX
  8
LAYER_6
 10
134.2809
 20
-128.6718
  0
VERTEX
  8
LAYER_6
 10
134.2809
 20
-138.9878
  0
SEQEND
  0
INSERT
  8
LAYER_6
  2
AIGNBL0602004C
 10
0
 20
0
 30
0
  0
INSERT
  8
LAYER_6
  2
AIGNBL0602004D
 10
0
 20
0
 30
0
  0
TEXT
  8
LAYER_6
 10
133.0734
 20
-132.7039
 11
133.0734
 21
-132.7039
 40
3.7084
 41
0.5
 50
89.99999999
 72
1
  1
45.5
  0
INSERT
  8
LAYER_6
  2
AIGNBL0602004E
 10
0
 20
0
 30
0
  0
INSERT
  8
LAYER_6
  2
AIGNBL0602004F
 10
0
 20
0
 30
0
  0
INSERT
  8
LAYER_6
  2
AIGNBL06020050
 10
0
 20
0
 30
0
  0
ENDBLK
  0
BLOCK
  8
LAYER_6
  2
AIGNBL06010051
 70
64
 10
0
 20
0
 30
0
  3
AIGNBL06010051
  0
POLYLINE
  8
LAYER_6
 40
0.1764
 41
0.1764
 66
1
 10
0
 20
0
 30
0
  0
VERTEX
  8
LAYER_6
 10
174.9955
 20
-95.3718
  0
VERTEX
  8
LAYER_6
 10
174.9955
 20
-89.4743
  0
SEQEND
  0
POLYLINE
  8
LAYER_6
 40
0.1764
 41
0.1764
 66
1
 10
0
 20
0
 30
0
  0
VERTEX
  8
LAYER_6
 10
148.2809
 20
-82.217
  0
VERTEX
  8
LAYER_6
 10
148.2809
 20
-93.4743
  0
SEQEND
  0
POLYLINE
  8
LAYER_6
 40
0.1764
 41
0.1764
 66
1
 10
0
 20
0
 30
0
  0
VERTEX
  8
LAYER_6
 10
173.4955
 20
-91.4743
  0
VERTEX
  8
LAYER_6
 10
149.7809
 20
-91.4743
  0
SEQEND
  0
INSERT
  8
LAYER_6
  2
AIGNBL06020052
 10
0
 20
0
 30
0
  0
INSERT
  8
LAYER_6
  2
AIGNBL06020053
 10
0
 20
0
 30
0
  0
TEXT
  8
LAYER_6
 10
165.823
 20
-90.2666
 11
165.823
 21
-90.2666
 40
3.7084
 41
0.5
 72
1
  1
134
  0
INSERT
  8
LAYER_6
  2
AIGNBL06020054
 10
0
 20
0
 30
0
  0
INSERT
  8
LAYER_6
  2
AIGNBL06020055
 10
0
 20
0
 30
0
  0
INSERT
  8
LAYER_6
  2
AIGNBL06020056
 10
0
 20
0
 30
0
  0
ENDBLK
  0
BLOCK
  8
LAYER_6
  2
AIGNBL06010057
 70
64
 10
0
 20
0
 30
0
  3
AIGNBL06010057
  0
POLYLINE
  8
LAYER_6
 40
0.1764
 41
0.1764
 66
1
 10
0
 20
0
 30
0
  0
VERTEX
  8
LAYER_6
 10
148.0696
 20
-80.8441
  0
VERTEX
  8
LAYER_6
 10
137.6094
 20
-103.2761
  0
SEQEND
  0
POLYLINE
  8
LAYER_6
 40
0.1764
 41
0.1764
 66
1
 10
0
 20
0
 30
0
  0
VERTEX
  8
LAYER_6
 10
148.2809
 20
-82.217
  0
VERTEX
  8
LAYER_6
 10
148.2809
 20
-105.6419
  0
SEQEND
  0
POLYLINE
  8
LAYER_6
 40
0.1764
 41
0.1764
 66
1
 10
0
 20
0
 30
0
  0
VERTEX
  8
LAYER_6
 10
135.8245
 20
-100.0237
 42
0.01632221383
  0
VERTEX
  8
LAYER_6
 10
137.1164
 20
-100.786
  0
SEQEND
  0
POLYLINE
  8
LAYER_6
 40
0.1764
 41
0.1764
 66
1
 10
0
 20
0
 30
0
  0
VERTEX
  8
LAYER_6
 10
149.7801
 20
-103.5935
 42
0.01635866417
  0
VERTEX
  8
LAYER_6
 10
151.2731
 20
-103.4485
  0
SEQEND
  0
POLYLINE
  8
LAYER_6
 40
0.1764
 41
0.1764
 66
1
 10
0
 20
0
 30
0
  0
VERTEX
  8
LAYER_6
 10
138.4547
 20
-101.4634
 42
0.1095174958
  0
VERTEX
  8
LAYER_6
 10
148.2809
 20
-103.6419
  0
SEQEND
  0
INSERT
  8
LAYER_6
  2
AIGNBL06020058
 10
0
 20
0
 30
0
  0
INSERT
  8
LAYER_6
  2
AIGNBL06020059
 10
0
 20
0
 30
0
  0
INSERT
  8
LAYER_6
  2
AIGNBL0602005A
 10
0
 20
0
 30
0
  0
INSERT
  8
LAYER_6
  2
AIGNBL0602005B
 10
0
 20
0
 30
0
  0
INSERT
  8
LAYER_6
  2
AIGNBL0602005C
 10
0
 20
0
 30
0
  0
INSERT
  8
LAYER_6
  2
AIGNBL0602005D
 10
0
 20
0
 30
0
  0
INSERT
  8
LAYER_6
  2
AIGNBL0602005E
 10
0
 20
0
 30
0
  0
ENDBLK
  0
BLOCK
  8
LAYER_6
  2
AIGNBL0601005F
 70
64
 10
0
 20
0
 30
0
  3
AIGNBL0601005F
  0
POLYLINE
  8
LAYER_6
 40
0.1764
 41
0.1764
 66
1
 10
0
 20
0
 30
0
  0
VERTEX
  8
LAYER_6
 10
174.9955
 20
-124.8718
  0
VERTEX
  8
LAYER_6
 10
157.5955
 20
-124.8718
  0
SEQEND
  0
POLYLINE
  8
LAYER_6
 40
0.1764
 41
0.1764
 66
1
 10
0
 20
0
 30
0
  0
VERTEX
  8
LAYER_6
 10
174.9955
 20
-119.5718
  0
VERTEX
  8
LAYER_6
 10
157.5955
 20
-119.5718
  0
SEQEND
  0
POLYLINE
  8
LAYER_6
 40
0.1764
 41
0.1764
 66
1
 10
0
 20
0
 30
0
  0
VERTEX
  8
LAYER_6
 10
159.5955
 20
-121.0718
  0
VERTEX
  8
LAYER_6
 10
159.5955
 20
-123.3718
  0
SEQEND
  0
POLYLINE
  8
LAYER_6
 40
0.1764
 41
0.1764
 66
1
 10
0
 20
0
 30
0
  0
VERTEX
  8
LAYER_6
 10
159.5955
 20
-124.8718
  0
VERTEX
  8
LAYER_6
 10
159.5955
 20
-153.5199
  0
SEQEND
  0
INSERT
  8
LAYER_6
  2
AIGNBL06020060
 10
0
 20
0
 30
0
  0
INSERT
  8
LAYER_6
  2
AIGNBL06020061
 10
0
 20
0
 30
0
  0
TEXT
  8
LAYER_6
 10
158.2939
 20
-138.1294
 11
158.2939
 21
-138.1294
 40
3.7084
 41
0.5
 50
89.99999999
 72
1
  1
取付板厚5～30
  0
INSERT
  8
LAYER_6
  2
AIGNBL06020062
 10
0
 20
0
 30
0
  0
INSERT
  8
LAYER_6
  2
AIGNBL06020063
 10
0
 20
0
 30
0
  0
INSERT
  8
LAYER_6
  2
AIGNBL06020064
 10
0
 20
0
 30
0
  0
ENDBLK
  0
BLOCK
  8
LAYER_6
  2
AIGNBL06010065
 70
64
 10
0
 20
0
 30
0
  3
AIGNBL06010065
  0
POLYLINE
  8
LAYER_6
 40
0.1764
 41
0.1764
 66
1
 10
0
 20
0
 30
0
  0
VERTEX
  8
LAYER_6
 10
174.3955
 20
-200.6144
  0
VERTEX
  8
LAYER_6
 10
174.3955
 20
-213.4833
  0
SEQEND
  0
POLYLINE
  8
LAYER_6
 40
0.1764
 41
0.1764
 66
1
 10
0
 20
0
 30
0
  0
VERTEX
  8
LAYER_6
 10
178.0955
 20
-201.4144
  0
VERTEX
  8
LAYER_6
 10
178.0955
 20
-213.4833
  0
SEQEND
  0
POLYLINE
  8
LAYER_6
 40
0.1764
 41
0.1764
 66
1
 10
0
 20
0
 30
0
  0
VERTEX
  8
LAYER_6
 10
172.8955
 20
-211.4833
  0
VERTEX
  8
LAYER_6
 10
171.3955
 20
-211.4833
  0
SEQEND
  0
POLYLINE
  8
LAYER_6
 40
0.1764
 41
0.1764
 66
1
 10
0
 20
0
 30
0
  0
VERTEX
  8
LAYER_6
 10
179.5955
 20
-211.4833
  0
VERTEX
  8
LAYER_6
 10
189.5545
 20
-211.4833
  0
SEQEND
  0
POLYLINE
  8
LAYER_6
 40
0.1764
 41
0.1764
 66
1
 10
0
 20
0
 30
0
  0
VERTEX
  8
LAYER_6
 10
174.3955
 20
-211.4833
  0
VERTEX
  8
LAYER_6
 10
178.0955
 20
-211.4833
  0
SEQEND
  0
INSERT
  8
LAYER_6
  2
AIGNBL06020066
 10
0
 20
0
 30
0
  0
INSERT
  8
LAYER_6
  2
AIGNBL06020067
 10
0
 20
0
 30
0
  0
TEXT
  8
LAYER_6
 10
187.2006
 20
-210.2755
 11
187.2006
 21
-210.2755
 40
3.7084
 41
0.5
 72
1
  1
18.5
  0
INSERT
  8
LAYER_6
  2
AIGNBL06020068
 10
0
 20
0
 30
0
  0
INSERT
  8
LAYER_6
  2
AIGNBL06020069
 10
0
 20
0
 30
0
  0
INSERT
  8
LAYER_6
  2
AIGNBL0602006A
 10
0
 20
0
 30
0
  0
ENDBLK
  0
ENDSEC
  0
SECTION
  2
ENTITIES
  0
INSERT
  8
LAYER_1
  2
AIGNBL01010002
 10
0
 20
0
 30
0
  0
POLYLINE
  8
LAYER_1
 40
0.0882
 41
0.0882
 66
1
 10
0
 20
0
 30
0
  0
VERTEX
  8
LAYER_1
 10
121.9435
 20
-144.9917
  0
VERTEX
  8
LAYER_1
 10
91.3694
 20
-144.9917
  0
VERTEX
  8
LAYER_1
 10
87.1065
 20
-143.3677
  0
SEQEND
  0
TEXT
  8
LAYER_1
 10
92.0751
 20
-143.3453
 11
92.0751
 21
-143.3453
 40
3.258
 41
0.5
  1
給水ホース長さ：800mm
  0
TEXT
  8
LAYER_1
 10
195.9551
 20
-123.4545
 11
195.9551
 21
-123.4545
 40
3.7084
 41
0.5
 72
1
  1
取付穴径22025
  0
INSERT
  8
LAYER_6
  2
AIGNBL06010002
 10
0
 20
0
 30
0
  0
POLYLINE
  8
LAYER_6
 40
0.3528
 41
0.3528
 66
1
 10
0
 20
0
 30
0
  0
VERTEX
  8
LAYER_6
 10
34.7876
 20
-258.3332
  0
VERTEX
  8
LAYER_6
 10
229.7955
 20
-258.3332
  0
VERTEX
  8
LAYER_6
 10
229.7955
 20
21.6583
  0
VERTEX
  8
LAYER_6
 10
34.7876
 20
21.6583
  0
VERTEX
  8
LAYER_6
 10
34.7876
 20
-258.3332
  0
SEQEND
  0
TEXT
  8
LAYER_6
 10
166.4505
 20
-248.7955
 11
166.4505
 21
-248.7955
 40
3.3853
 41
0.5
  1
●TEL 0120-65-1232●FAX 06-6532-1580
  0
TEXT
  8
LAYER_6
 10
166.4505
 20
-252.3102
 11
166.4505
 21
-252.3102
 40
3.3853
 41
0.5
  1
hits@hiratatile.co.jp
  0
TEXT
  8
LAYER_6
 10
218.9756
 20
18.4461
 11
218.9756
 21
18.4461
 40
2.0732
 41
0.5
  1
190703RT
  0
TEXT
  8
LAYER_6
 10
37.8495
 20
-250.3797
 11
37.8495
 21
-250.3797
 40
3.2995
 41
0.5
  1
仕様
  0
POLYLINE
  8
LAYER_6
 40
0.3528
 41
0.3528
 66
1
 10
0
 20
0
 30
0
  0
VERTEX
  8
LAYER_6
 10
229.7955
 20
-241.6001
  0
VERTEX
  8
LAYER_6
 10
34.7874
 20
-241.6001
  0
SEQEND
  0
POLYLINE
  8
LAYER_6
 40
0.3528
 41
0.3528
 66
1
 10
0
 20
0
 30
0
  0
VERTEX
  8
LAYER_6
 10
229.7955
 20
-233.091
  0
VERTEX
  8
LAYER_6
 10
34.7874
 20
-233.091
  0
SEQEND
  0
TEXT
  8
LAYER_6
 10
35.9444
 20
-235.5675
 11
35.9444
 21
-235.5675
 40
2.1997
 41
0.5
  1
品名
  0
TEXT
  8
LAYER_6
 10
48.7874
 20
-238.6599
 11
48.7874
 21
-238.6599
 40
4.1465
 41
0.5
  1
センサー式単水栓（AC100V）
  0
TEXT
  8
LAYER_6
 10
48.4217
 20
-250.3883
 11
48.4217
 21
-250.3883
 40
3.1177
 41
0.5
  1
●排水金具別途
  0
TEXT
  8
LAYER_6
 10
136.1566
 20
-235.5677
 11
136.1566
 21
-235.5677
 40
2.1997
 41
0.5
  1
品番
  0
TEXT
  8
LAYER_6
 10
142.1786
 20
-240.0443
 11
142.1786
 21
-240.0443
 40
5.9385
 41
0.5
  1
AQ-E1700L3(M4)(M5)(S)(BN)
  0
TEXT
  8
LAYER_6
 10
235.1426
 20
-195.109
 11
235.1426
 21
-195.109
 40
2.604
 41
0.5
  1
　　　　　　　　
  0
INSERT
  8
LAYER_6
  2
AIGNBL06010003
 10
0
 20
0
 30
0
  0
INSERT
  8
LAYER_6
  2
AIGNBL06010009
 10
0
 20
0
 30
0
  0
INSERT
  8
LAYER_6
  2
AIGNBL0601000F
 10
0
 20
0
 30
0
  0
INSERT
  8
LAYER_6
  2
AIGNBL06010015
 10
0
 20
0
 30
0
  0
INSERT
  8
LAYER_6
  2
AIGNBL0601001B
 10
0
 20
0
 30
0
  0
INSERT
  8
LAYER_6
  2
AIGNBL06010021
 10
0
 20
0
 30
0
  0
INSERT
  8
LAYER_6
  2
AIGNBL06010027
 10
0
 20
0
 30
0
  0
INSERT
  8
LAYER_6
  2
AIGNBL0601002D
 10
0
 20
0
 30
0
  0
INSERT
  8
LAYER_6
  2
AIGNBL06010033
 10
0
 20
0
 30
0
  0
INSERT
  8
LAYER_6
  2
AIGNBL06010039
 10
0
 20
0
 30
0
  0
INSERT
  8
LAYER_6
  2
AIGNBL0601003F
 10
0
 20
0
 30
0
  0
INSERT
  8
LAYER_6
  2
AIGNBL06010045
 10
0
 20
0
 30
0
  0
INSERT
  8
LAYER_6
  2
AIGNBL0601004B
 10
0
 20
0
 30
0
  0
INSERT
  8
LAYER_6
  2
AIGNBL06010051
 10
0
 20
0
 30
0
  0
INSERT
  8
LAYER_6
  2
AIGNBL06010057
 10
0
 20
0
 30
0
  0
INSERT
  8
LAYER_6
  2
AIGNBL0601005F
 10
0
 20
0
 30
0
  0
INSERT
  8
LAYER_6
  2
AIGNBL06010065
 10
0
 20
0
 30
0
  0
POLYLINE
  8
LAYER_6
 40
0.1764
 41
0.1764
 66
1
 10
0
 20
0
 30
0
  0
VERTEX
  8
LAYER_6
 10
177.4755
 20
-95.3718
  0
VERTEX
  8
LAYER_6
 10
174.9955
 20
-95.3718
  0
SEQEND
  0
POLYLINE
  8
LAYER_6
  6
AIGENLINE001
 40
0.1764
 41
0.1764
 66
1
 10
0
 20
0
 30
0
 70
128
  0
VERTEX
  8
LAYER_6
 10
85.301
 20
-59.4984
  0
VERTEX
  8
LAYER_6
 10
85.301
 20
-203.8189
  0
SEQEND
  0
POLYLINE
  8
LAYER_6
  6
AIGENLINE001
 40
0.1764
 41
0.1764
 66
1
 10
0
 20
0
 30
0
 70
128
  0
VERTEX
  8
LAYER_6
 10
174.9955
 20
-132.6718
  0
VERTEX
  8
LAYER_6
 10
174.9955
 20
-77.5139
  0
SEQEND
  0
POLYLINE
  8
LAYER_6
 40
0.2469
 41
0.2469
 66
1
 10
0
 20
0
 30
0
  0
VERTEX
  8
LAYER_6
 10
172.5955
 20
-125.0718
  0
VERTEX
  8
LAYER_6
 10
172.5955
 20
-126.3718
  0
SEQEND
  0
POLYLINE
  8
LAYER_6
 40
0.2469
 41
0.2469
 66
1
 10
0
 20
0
 30
0
  0
VERTEX
  8
LAYER_6
 10
177.3955
 20
-125.0718
  0
VERTEX
  8
LAYER_6
 10
177.3955
 20
-126.3718
  0
SEQEND
  0
POLYLINE
  8
LAYER_6
 40
0.2469
 41
0.2469
 66
1
 10
0
 20
0
 30
0
  0
VERTEX
  8
LAYER_6
 10
177.1686
 20
-125.0718
  0
VERTEX
  8
LAYER_6
 10
177.1686
 20
-126.3718
  0
SEQEND
  0
POLYLINE
  8
LAYER_6
 40
0.2469
 41
0.2469
 66
1
 10
0
 20
0
 30
0
  0
VERTEX
  8
LAYER_6
 10
172.8224
 20
-125.0718
  0
VERTEX
  8
LAYER_6
 10
172.8224
 20
-126.3718
  0
SEQEND
  0
POLYLINE
  8
LAYER_6
 40
0.2469
 41
0.2469
 66
1
 10
0
 20
0
 30
0
  0
VERTEX
  8
LAYER_6
 10
174.7686
 20
-125.0718
  0
VERTEX
  8
LAYER_6
 10
174.7686
 20
-126.3718
  0
SEQEND
  0
POLYLINE
  8
LAYER_6
 40
0.2469
 41
0.2469
 66
1
 10
0
 20
0
 30
0
  0
VERTEX
  8
LAYER_6
 10
175.2224
 20
-125.0718
  0
VERTEX
  8
LAYER_6
 10
175.2224
 20
-126.3718
  0
SEQEND
  0
POLYLINE
  8
LAYER_6
 40
0.1764
 41
0.1764
 66
1
 10
0
 20
0
 30
0
  0
VERTEX
  8
LAYER_6
 10
172.8955
 20
-116.9718
  0
VERTEX
  8
LAYER_6
 10
172.5155
 20
-116.9718
 42
-0.3933760272
  0
VERTEX
  8
LAYER_6
 10
172.4555
 20
-116.9118
  0
VERTEX
  8
LAYER_6
 10
172.4555
 20
-95.4318
 42
-0.3928527672
  0
VERTEX
  8
LAYER_6
 10
172.5155
 20
-95.3718
  0
SEQEND
  0
POLYLINE
  8
LAYER_6
 40
0.1764
 41
0.1764
 66
1
 10
0
 20
0
 30
0
  0
VERTEX
  8
LAYER_6
 10
177.091
 20
-124.4718
  0
VERTEX
  8
LAYER_6
 10
177.091
 20
-119.9718
  0
SEQEND
  0
POLYLINE
  8
LAYER_6
 40
0.1764
 41
0.1764
 66
1
 10
0
 20
0
 30
0
  0
VERTEX
  8
LAYER_6
 10
176.8586
 20
-127.4718
  0
VERTEX
  8
LAYER_6
 10
176.8586
 20
-126.3718
  0
SEQEND
  0
POLYLINE
  8
LAYER_6
 40
0.1764
 41
0.1764
 66
1
 10
0
 20
0
 30
0
  0
VERTEX
  8
LAYER_6
 10
176.8586
 20
-120.2718
  0
VERTEX
  8
LAYER_6
 10
177.091
 20
-120.2718
  0
VERTEX
  8
LAYER_6
 10
174.9955
 20
-120.2718
  0
SEQEND
  0
POLYLINE
  8
LAYER_6
 40
0.1482
 41
0.1482
 66
1
 10
0
 20
0
 30
0
  0
VERTEX
  8
LAYER_6
 10
178.7762
 20
-117.5148
 42
-0.2971755492
  0
VERTEX
  8
LAYER_6
 10
178.8955
 20
-117.6978
  0
VERTEX
  8
LAYER_6
 10
178.8955
 20
-119.5118
  0
SEQEND
  0
POLYLINE
  8
LAYER_6
 40
0.1764
 41
0.1764
 66
1
 10
0
 20
0
 30
0
  0
VERTEX
  8
LAYER_6
 10
177.0318
 20
-119.9718
  0
VERTEX
  8
LAYER_6
 10
176.8586
 20
-120.2718
  0
VERTEX
  8
LAYER_6
 10
176.8586
 20
-124.4718
  0
SEQEND
  0
POLYLINE
  8
LAYER_6
 40
0.1764
 41
0.1764
 66
1
 10
0
 20
0
 30
0
  0
VERTEX
  8
LAYER_6
 10
178.7762
 20
-117.5148
  0
VERTEX
  8
LAYER_6
 10
177.5455
 20
-116.9718
  0
VERTEX
  8
LAYER_6
 10
177.0955
 20
-116.9718
  0
SEQEND
  0
POLYLINE
  8
LAYER_6
 40
0.1764
 41
0.1764
 66
1
 10
0
 20
0
 30
0
  0
VERTEX
  8
LAYER_6
 10
172.9
 20
-124.4718
  0
VERTEX
  8
LAYER_6
 10
172.9
 20
-119.9718
  0
SEQEND
  0
POLYLINE
  8
LAYER_6
 40
0.1764
 41
0.1764
 66
1
 10
0
 20
0
 30
0
  0
VERTEX
  8
LAYER_6
 10
173.1324
 20
-127.4718
  0
VERTEX
  8
LAYER_6
 10
173.1324
 20
-126.3718
  0
SEQEND
  0
POLYLINE
  8
LAYER_6
 40
0.1764
 41
0.1764
 66
1
 10
0
 20
0
 30
0
 70
1
  0
VERTEX
  8
LAYER_6
 10
174.9955
 20
-120.2718
  0
VERTEX
  8
LAYER_6
 10
172.9
 20
-120.2718
  0
SEQEND
  0
POLYLINE
  8
LAYER_6
 40
0.1482
 41
0.1482
 66
1
 10
0
 20
0
 30
0
  0
VERTEX
  8
LAYER_6
 10
171.2147
 20
-117.5148
 42
0.2971061524
  0
VERTEX
  8
LAYER_6
 10
171.0955
 20
-117.6978
  0
VERTEX
  8
LAYER_6
 10
171.0955
 20
-119.5118
  0
SEQEND
  0
POLYLINE
  8
LAYER_6
 40
0.1764
 41
0.1764
 66
1
 10
0
 20
0
 30
0
  0
VERTEX
  8
LAYER_6
 10
172.9592
 20
-119.9718
  0
VERTEX
  8
LAYER_6
 10
173.1324
 20
-120.2718
  0
VERTEX
  8
LAYER_6
 10
173.1324
 20
-124.4718
  0
SEQEND
  0
POLYLINE
  8
LAYER_6
 40
0.1764
 41
0.1764
 66
1
 10
0
 20
0
 30
0
  0
VERTEX
  8
LAYER_6
 10
171.2147
 20
-117.5148
  0
VERTEX
  8
LAYER_6
 10
172.4455
 20
-116.9718
  0
VERTEX
  8
LAYER_6
 10
174.9955
 20
-116.9718
  0
VERTEX
  8
LAYER_6
 10
177.4755
 20
-116.9718
 42
0.392852767
  0
VERTEX
  8
LAYER_6
 10
177.5355
 20
-116.9118
  0
VERTEX
  8
LAYER_6
 10
177.5355
 20
-95.4318
 42
0.3923136174
  0
VERTEX
  8
LAYER_6
 10
177.4755
 20
-95.3718
  0
SEQEND
  0
POLYLINE
  8
LAYER_6
 40
0.1764
 41
0.1764
 66
1
 10
0
 20
0
 30
0
  0
VERTEX
  8
LAYER_6
 10
174.9955
 20
-95.3718
  0
VERTEX
  8
LAYER_6
 10
172.4955
 20
-95.3718
 42
-0.3930184735
  0
VERTEX
  8
LAYER_6
 10
172.4555
 20
-95.3318
  0
VERTEX
  8
LAYER_6
 10
172.4555
 20
-77.5139
  0
SEQEND
  0
POLYLINE
  8
LAYER_6
 40
0.1764
 41
0.1764
 66
1
 10
0
 20
0
 30
0
  0
VERTEX
  8
LAYER_6
 10
145.4625
 20
-78.9223
  0
VERTEX
  8
LAYER_6
 10
145.3175
 20
-78.8547
  0
VERTEX
  8
LAYER_6
 10
145.3852
 20
-78.7097
  0
SEQEND
  0
POLYLINE
  8
LAYER_6
 40
0.1764
 41
0.1764
 66
1
 10
0
 20
0
 30
0
  0
VERTEX
  8
LAYER_6
 10
172.9
 20
-126.3718
  0
VERTEX
  8
LAYER_6
 10
172.9
 20
-127.4718
  0
VERTEX
  8
LAYER_6
 10
173.1955
 20
-127.4718
  0
VERTEX
  8
LAYER_6
 10
173.1955
 20
-128.6673
  0
VERTEX
  8
LAYER_6
 10
173.2
 20
-128.6718
  0
VERTEX
  8
LAYER_6
 10
174.9955
 20
-128.6718
  0
VERTEX
  8
LAYER_6
 10
176.791
 20
-128.6718
  0
VERTEX
  8
LAYER_6
 10
176.7955
 20
-128.6673
  0
VERTEX
  8
LAYER_6
 10
176.7955
 20
-127.4718
  0
VERTEX
  8
LAYER_6
 10
177.091
 20
-127.4718
  0
VERTEX
  8
LAYER_6
 10
177.091
 20
-126.3718
  0
SEQEND
  0
POLYLINE
  8
LAYER_6
 40
0.1764
 41
0.1764
 66
1
 10
0
 20
0
 30
0
  0
VERTEX
  8
LAYER_6
 10
151.0627
 20
-78.5545
  0
VERTEX
  8
LAYER_6
 10
151.1426
 20
-78.5712
 42
0.291508054
  0
VERTEX
  8
LAYER_6
 10
151.3239
 20
-78.4557
  0
VERTEX
  8
LAYER_6
 10
151.5775
 20
-77.9119
  0
VERTEX
  8
LAYER_6
 10
151.5962
 20
-77.8274
 42
0.2847795541
  0
VERTEX
  8
LAYER_6
 10
151.4852
 20
-77.6483
  0
SEQEND
  0
POLYLINE
  8
LAYER_6
 40
0.1764
 41
0.1764
 66
1
 10
0
 20
0
 30
0
  0
VERTEX
  8
LAYER_6
 10
149.6531
 20
-80.8764
 42
-0.2505570855
  0
VERTEX
  8
LAYER_6
 10
149.5177
 20
-80.9511
  0
VERTEX
  8
LAYER_6
 10
149.45
 20
-80.9362
  0
VERTEX
  8
LAYER_6
 10
148.2809
 20
-80.391
  0
VERTEX
  8
LAYER_6
 10
147.1118
 20
-79.8458
 42
-0.2915041929
  0
VERTEX
  8
LAYER_6
 10
147.0194
 20
-79.7008
  0
VERTEX
  8
LAYER_6
 10
147.0271
 20
-79.6518
  0
SEQEND
  0
POLYLINE
  8
LAYER_6
  6
AIGENLINE001
 40
0.1764
 41
0.1764
 66
1
 10
0
 20
0
 30
0
 70
128
  0
VERTEX
  8
LAYER_6
 10
174.9955
 20
-77.5139
 42
0.414212792
  0
VERTEX
  8
LAYER_6
 10
162.5155
 20
-65.0339
 42
0.2914728171
  0
VERTEX
  8
LAYER_6
 10
151.2048
 20
-72.2396
  0
VERTEX
  8
LAYER_6
 10
147.4336
 20
-80.3269
  0
SEQEND
  0
POLYLINE
  8
LAYER_6
 40
0.1764
 41
0.1764
 66
1
 10
0
 20
0
 30
0
  0
VERTEX
  8
LAYER_6
 10
177.5355
 20
-95.3118
  0
VERTEX
  8
LAYER_6
 10
177.5355
 20
-77.5139
  0
SEQEND
  0
POLYLINE
  8
LAYER_6
 40
0.1764
 41
0.1764
 66
1
 10
0
 20
0
 30
0
  0
VERTEX
  8
LAYER_6
 10
172.4555
 20
-95.3118
  0
VERTEX
  8
LAYER_6
 10
172.4555
 20
-77.5139
 42
0.4142125951
  0
VERTEX
  8
LAYER_6
 10
162.5155
 20
-67.5739
 42
0.2914741413
  0
VERTEX
  8
LAYER_6
 10
153.5068
 20
-73.3131
  0
VERTEX
  8
LAYER_6
 10
151.274
 20
-78.1014
  0
VERTEX
  8
LAYER_6
 10
149.9892
 20
-80.8566
 42
-0.2913900912
  0
VERTEX
  8
LAYER_6
 10
149.8442
 20
-80.9489
  0
VERTEX
  8
LAYER_6
 10
149.7766
 20
-80.9339
  0
VERTEX
  8
LAYER_6
 10
147.6196
 20
-79.9281
  0
VERTEX
  8
LAYER_6
 10
145.4625
 20
-78.9223
 42
-0.291368727
  0
VERTEX
  8
LAYER_6
 10
145.3702
 20
-78.7773
  0
VERTEX
  8
LAYER_6
 10
145.3852
 20
-78.7097
  0
VERTEX
  8
LAYER_6
 10
148.9027
 20
-71.1662
 42
-0.2914743407
  0
VERTEX
  8
LAYER_6
 10
162.5155
 20
-62.4939
 42
-0.4142129222
  0
VERTEX
  8
LAYER_6
 10
177.5355
 20
-77.5139
  0
VERTEX
  8
LAYER_6
 10
177.5355
 20
-95.3318
 42
-0.3930184733
  0
VERTEX
  8
LAYER_6
 10
177.4955
 20
-95.3718
  0
SEQEND
  0
POLYLINE
  8
LAYER_6
 40
0.1764
 41
0.1764
 66
1
 10
0
 20
0
 30
0
  0
VERTEX
  8
LAYER_6
 10
175.2955
 20
-150.8769
  0
VERTEX
  8
LAYER_6
 10
175.2955
 20
-172.0562
  0
SEQEND
  0
POLYLINE
  8
LAYER_6
 40
0.1764
 41
0.1764
 66
1
 10
0
 20
0
 30
0
  0
VERTEX
  8
LAYER_6
 10
173.4955
 20
-128.6718
  0
VERTEX
  8
LAYER_6
 10
173.4955
 20
-149.8769
  0
SEQEND
  0
POLYLINE
  8
LAYER_6
 40
0.1764
 41
0.1764
 66
1
 10
0
 20
0
 30
0
  0
VERTEX
  8
LAYER_6
 10
173.4955
 20
-150.8769
  0
VERTEX
  8
LAYER_6
 10
173.4955
 20
-172.0719
  0
SEQEND
  0
POLYLINE
  8
LAYER_6
 40
0.1764
 41
0.1764
 66
1
 10
0
 20
0
 30
0
  0
VERTEX
  8
LAYER_6
 10
176.2955
 20
-128.8718
  0
VERTEX
  8
LAYER_6
 10
176.2955
 20
-131.6718
 42
0.4142253446
  0
VERTEX
  8
LAYER_6
 10
177.2955
 20
-132.6718
  0
VERTEX
  8
LAYER_6
 10
182.1355
 20
-132.6718
  0
SEQEND
  0
POLYLINE
  8
LAYER_6
 40
0.1764
 41
0.1764
 66
1
 10
0
 20
0
 30
0
  0
VERTEX
  8
LAYER_6
 10
182.1355
 20
-133.6718
  0
VERTEX
  8
LAYER_6
 10
177.3355
 20
-133.6718
 42
-0.4142193382
  0
VERTEX
  8
LAYER_6
 10
175.2955
 20
-131.6318
  0
VERTEX
  8
LAYER_6
 10
175.2955
 20
-129.6718
  0
VERTEX
  8
LAYER_6
 10
175.2955
 20
-149.8769
  0
SEQEND
  0
POLYLINE
  8
LAYER_6
 40
0.1764
 41
0.1764
 66
1
 10
0
 20
0
 30
0
  0
VERTEX
  8
LAYER_6
 10
193.9077
 20
-143.231
  0
VERTEX
  8
LAYER_6
 10
193.9077
 20
-142.431
  0
VERTEX
  8
LAYER_6
 10
191.7077
 20
-142.431
  0
VERTEX
  8
LAYER_6
 10
191.7077
 20
-143.231
  0
SEQEND
  0
POLYLINE
  8
LAYER_6
 40
0.1764
 41
0.1764
 66
1
 10
0
 20
0
 30
0
 70
1
  0
VERTEX
  8
LAYER_6
 10
191.7077
 20
-144.991
  0
VERTEX
  8
LAYER_6
 10
193.9077
 20
-144.991
  0
VERTEX
  8
LAYER_6
 10
193.9077
 20
-147.591
  0
VERTEX
  8
LAYER_6
 10
191.7077
 20
-147.591
  0
SEQEND
  0
POLYLINE
  8
LAYER_6
 40
0.1764
 41
0.1764
 66
1
 10
0
 20
0
 30
0
  0
VERTEX
  8
LAYER_6
 10
193.7077
 20
-143.431
  0
VERTEX
  8
LAYER_6
 10
193.7077
 20
-144.991
  0
SEQEND
  0
POLYLINE
  8
LAYER_6
 40
0.1764
 41
0.1764
 66
1
 10
0
 20
0
 30
0
  0
VERTEX
  8
LAYER_6
 10
192.4777
 20
-147.591
  0
VERTEX
  8
LAYER_6
 10
192.4777
 20
-146.231
  0
VERTEX
  8
LAYER_6
 10
192.1777
 20
-146.231
  0
VERTEX
  8
LAYER_6
 10
192.1777
 20
-147.591
  0
SEQEND
  0
POLYLINE
  8
LAYER_6
 40
0.1764
 41
0.1764
 66
1
 10
0
 20
0
 30
0
  0
VERTEX
  8
LAYER_6
 10
193.4377
 20
-147.591
  0
VERTEX
  8
LAYER_6
 10
193.4377
 20
-146.231
  0
VERTEX
  8
LAYER_6
 10
193.1377
 20
-146.231
  0
VERTEX
  8
LAYER_6
 10
193.1377
 20
-147.591
  0
SEQEND
  0
POLYLINE
  8
LAYER_6
 40
0.1764
 41
0.1764
 66
1
 10
0
 20
0
 30
0
  0
VERTEX
  8
LAYER_6
 10
192.4777
 20
-146.951
  0
VERTEX
  8
LAYER_6
 10
193.1377
 20
-146.951
  0
SEQEND
  0
POLYLINE
  8
LAYER_6
 40
0.1764
 41
0.1764
 66
1
 10
0
 20
0
 30
0
  0
VERTEX
  8
LAYER_6
 10
191.9077
 20
-144.991
  0
VERTEX
  8
LAYER_6
 10
191.9077
 20
-143.431
  0
VERTEX
  8
LAYER_6
 10
193.7077
 20
-143.431
  0
VERTEX
  8
LAYER_6
 10
193.9077
 20
-143.231
  0
VERTEX
  8
LAYER_6
 10
191.7077
 20
-143.231
  0
VERTEX
  8
LAYER_6
 10
191.9077
 20
-143.431
  0
SEQEND
  0
POLYLINE
  8
LAYER_6
 40
0.2469
 41
0.2469
 66
1
 10
0
 20
0
 30
0
 70
1
  0
VERTEX
  8
LAYER_6
 10
171.3955
 20
-124.8718
  0
VERTEX
  8
LAYER_6
 10
171.3955
 20
-125.0718
  0
VERTEX
  8
LAYER_6
 10
174.9955
 20
-125.0718
  0
VERTEX
  8
LAYER_6
 10
178.5955
 20
-125.0718
  0
VERTEX
  8
LAYER_6
 10
178.5955
 20
-124.8718
  0
VERTEX
  8
LAYER_6
 10
174.9955
 20
-124.8718
  0
SEQEND
  0
POLYLINE
  8
LAYER_6
 40
0.2469
 41
0.2469
 66
1
 10
0
 20
0
 30
0
  0
VERTEX
  8
LAYER_6
 10
177.3955
 20
-126.3718
  0
VERTEX
  8
LAYER_6
 10
174.9955
 20
-126.3718
  0
VERTEX
  8
LAYER_6
 10
172.5955
 20
-126.3718
  0
SEQEND
  0
POLYLINE
  8
LAYER_6
 40
0.1764
 41
0.1764
 66
1
 10
0
 20
0
 30
0
  0
VERTEX
  8
LAYER_6
 10
177.091
 20
-124.8718
  0
VERTEX
  8
LAYER_6
 10
178.3955
 20
-124.8718
  0
VERTEX
  8
LAYER_6
 10
178.3955
 20
-124.4718
  0
VERTEX
  8
LAYER_6
 10
174.9955
 20
-124.4718
  0
VERTEX
  8
LAYER_6
 10
171.5955
 20
-124.4718
  0
VERTEX
  8
LAYER_6
 10
171.5955
 20
-124.8718
  0
VERTEX
  8
LAYER_6
 10
172.9
 20
-124.8718
  0
SEQEND
  0
POLYLINE
  8
LAYER_6
 40
0.2469
 41
0.2469
 66
1
 10
0
 20
0
 30
0
  0
VERTEX
  8
LAYER_6
 10
172.5955
 20
-125.0718
  0
VERTEX
  8
LAYER_6
 10
172.9
 20
-125.0718
  0
SEQEND
  0
POLYLINE
  8
LAYER_6
 40
0.2469
 41
0.2469
 66
1
 10
0
 20
0
 30
0
  0
VERTEX
  8
LAYER_6
 10
177.3955
 20
-125.0718
  0
VERTEX
  8
LAYER_6
 10
177.091
 20
-125.0718
  0
SEQEND
  0
POLYLINE
  8
LAYER_6
 40
0.1764
 41
0.1764
 66
1
 10
0
 20
0
 30
0
  0
VERTEX
  8
LAYER_6
 10
171.4955
 20
-119.5718
  0
VERTEX
  8
LAYER_6
 10
171.4955
 20
-119.9718
  0
VERTEX
  8
LAYER_6
 10
174.9955
 20
-119.9718
  0
VERTEX
  8
LAYER_6
 10
178.4955
 20
-119.9718
  0
VERTEX
  8
LAYER_6
 10
178.4955
 20
-119.5718
  0
SEQEND
  0
POLYLINE
  8
LAYER_6
 40
0.1764
 41
0.1764
 66
1
 10
0
 20
0
 30
0
  0
VERTEX
  8
LAYER_6
 10
182.8555
 20
-132.6718
 42
-0.3999389921
  0
VERTEX
  8
LAYER_6
 10
182.8555
 20
-132.8718
 42
0.1904588847
  0
VERTEX
  8
LAYER_6
 10
182.8155
 20
-132.9718
 42
0.1903993087
  0
VERTEX
  8
LAYER_6
 10
182.8555
 20
-133.0718
 42
-0.1904588845
  0
VERTEX
  8
LAYER_6
 10
182.8955
 20
-133.1718
 42
-0.1903993085
  0
VERTEX
  8
LAYER_6
 10
182.8555
 20
-133.2718
 42
0.1904588847
  0
VERTEX
  8
LAYER_6
 10
182.8155
 20
-133.3718
 42
0.1903993087
  0
VERTEX
  8
LAYER_6
 10
182.8555
 20
-133.4718
 42
-0.1904588845
  0
VERTEX
  8
LAYER_6
 10
182.8955
 20
-133.5718
 42
-0.1903993085
  0
VERTEX
  8
LAYER_6
 10
182.8555
 20
-133.6718
  0
SEQEND
  0
POLYLINE
  8
LAYER_6
 40
0.1764
 41
0.1764
 66
1
 10
0
 20
0
 30
0
  0
VERTEX
  8
LAYER_6
 10
182.1355
 20
-132.6718
 42
-0.3999389921
  0
VERTEX
  8
LAYER_6
 10
182.1355
 20
-132.8718
 42
0.1904588847
  0
VERTEX
  8
LAYER_6
 10
182.0955
 20
-132.9718
 42
0.1903993087
  0
VERTEX
  8
LAYER_6
 10
182.1355
 20
-133.0718
 42
-0.1904588845
  0
VERTEX
  8
LAYER_6
 10
182.1755
 20
-133.1718
 42
-0.1903993085
  0
VERTEX
  8
LAYER_6
 10
182.1355
 20
-133.2718
 42
0.1904588847
  0
VERTEX
  8
LAYER_6
 10
182.0955
 20
-133.3718
 42
0.1903993087
  0
VERTEX
  8
LAYER_6
 10
182.1355
 20
-133.4718
 42
-0.1904588845
  0
VERTEX
  8
LAYER_6
 10
182.1755
 20
-133.5718
 42
-0.1903993085
  0
VERTEX
  8
LAYER_6
 10
182.1355
 20
-133.6718
  0
SEQEND
  0
POLYLINE
  8
LAYER_6
 40
0.1764
 41
0.1764
 66
1
 10
0
 20
0
 30
0
 70
1
  0
VERTEX
  8
LAYER_6
 10
82.761
 20
-65.0384
 42
-0.4142170944
  0
VERTEX
  8
LAYER_6
 10
85.301
 20
-62.4984
 42
-0.4142075608
  0
VERTEX
  8
LAYER_6
 10
87.841
 20
-65.0384
  0
VERTEX
  8
LAYER_6
 10
87.841
 20
-95.3363
 42
-0.3922481329
  0
VERTEX
  8
LAYER_6
 10
87.801
 20
-95.3763
  0
VERTEX
  8
LAYER_6
 10
82.801
 20
-95.3763
 42
-0.3930184735
  0
VERTEX
  8
LAYER_6
 10
82.761
 20
-95.3363
  0
SEQEND
  0
POLYLINE
  8
LAYER_6
 40
0.1764
 41
0.1764
 66
1
 10
0
 20
0
 30
0
  0
VERTEX
  8
LAYER_6
 10
86.3622
 20
-80.9079
 42
0.08246660241
  0
VERTEX
  8
LAYER_6
 10
87.3871
 20
-80.5425
 42
0.132257489
  0
VERTEX
  8
LAYER_6
 10
87.795
 20
-80.134
 42
0.1084533208
  0
VERTEX
  8
LAYER_6
 10
87.841
 20
-79.9326
 42
0.2041195982
  0
VERTEX
  8
LAYER_6
 10
87.6533
 20
-79.5269
 42
0.06076842086
  0
VERTEX
  8
LAYER_6
 10
87.4072
 20
-79.3325
 42
0.04591721169
  0
VERTEX
  8
LAYER_6
 10
87.0312
 20
-79.1468
 42
0.06922936701
  0
VERTEX
  8
LAYER_6
 10
85.9358
 20
-78.893
 42
0.02696951042
  0
VERTEX
  8
LAYER_6
 10
85.301
 20
-78.8592
 42
0.06363502619
  0
VERTEX
  8
LAYER_6
 10
83.932
 20
-79.0283
 42
0.08307946696
  0
VERTEX
  8
LAYER_6
 10
83.0975
 20
-79.3983
 42
0.1474402596
  0
VERTEX
  8
LAYER_6
 10
82.7814
 20
-79.7959
 42
0.07374332082
  0
VERTEX
  8
LAYER_6
 10
82.761
 20
-79.9326
 42
0.2037955411
  0
VERTEX
  8
LAYER_6
 10
82.9487
 20
-80.3347
 42
0.05927727855
  0
VERTEX
  8
LAYER_6
 10
83.19
 20
-80.5271
 42
0.0448585128
  0
VERTEX
  8
LAYER_6
 10
83.5492
 20
-80.7087
 42
0.04922402268
  0
VERTEX
  8
LAYER_6
 10
84.2407
 20
-80.9081
  0
SEQEND
  0
POLYLINE
  8
LAYER_6
 40
0.1764
 41
0.1764
 66
1
 10
0
 20
0
 30
0
  0
VERTEX
  8
LAYER_6
 10
86.5061
 20
-80.7901
 42
0.09577801333
  0
VERTEX
  8
LAYER_6
 10
87.3779
 20
-80.4046
 42
0.1621751619
  0
VERTEX
  8
LAYER_6
 10
87.653
 20
-80.0141
 42
0.04637604011
  0
VERTEX
  8
LAYER_6
 10
87.661
 20
-79.9326
 42
0.2096770564
  0
VERTEX
  8
LAYER_6
 10
87.4755
 20
-79.5444
 42
0.05931836963
  0
VERTEX
  8
LAYER_6
 10
87.2419
 20
-79.3651
 42
0.04506355066
  0
VERTEX
  8
LAYER_6
 10
86.8878
 20
-79.1943
 42
0.07157070814
  0
VERTEX
  8
LAYER_6
 10
85.8053
 20
-78.958
 42
0.02281318815
  0
VERTEX
  8
LAYER_6
 10
85.301
 20
-78.9352
 42
0.06817406246
  0
VERTEX
  8
LAYER_6
 10
83.9581
 20
-79.1123
 42
0.08998407384
  0
VERTEX
  8
LAYER_6
 10
83.1992
 20
-79.4786
 42
0.16271773
  0
VERTEX
  8
LAYER_6
 10
82.9479
 20
-79.8559
 42
0.04319796459
  0
VERTEX
  8
LAYER_6
 10
82.941
 20
-79.9326
 42
0.2116557148
  0
VERTEX
  8
LAYER_6
 10
83.133
 20
-80.3249
 42
0.06035210253
  0
VERTEX
  8
LAYER_6
 10
83.3831
 20
-80.5126
 42
0.07526090126
  0
VERTEX
  8
LAYER_6
 10
84.0933
 20
-80.7895
  0
SEQEND
  0
POLYLINE
  8
LAYER_6
 40
0.1764
 41
0.1764
 66
1
 10
0
 20
0
 30
0
  0
VERTEX
  8
LAYER_6
 10
83.2354
 20
-79.4502
 42
0.1996724985
  0
VERTEX
  8
LAYER_6
 10
83.0005
 20
-79.8642
 42
0.008246368577
  0
VERTEX
  8
LAYER_6
 10
83.0003
 20
-79.8782
 42
0.2134358784
  0
VERTEX
  8
LAYER_6
 10
83.191
 20
-80.2644
 42
0.06039666436
  0
VERTEX
  8
LAYER_6
 10
83.4384
 20
-80.4481
 42
0.0631948435
  0
VERTEX
  8
LAYER_6
 10
83.9964
 20
-80.6789
  0
SEQEND
  0
POLYLINE
  8
LAYER_6
 40
0.1764
 41
0.1764
 66
1
 10
0
 20
0
 30
0
  0
VERTEX
  8
LAYER_6
 10
86.604
 20
-80.6793
 42
0.1042623614
  0
VERTEX
  8
LAYER_6
 10
87.3894
 20
-80.2847
 42
0.1766319396
  0
VERTEX
  8
LAYER_6
 10
87.6005
 20
-79.908
 42
0.01796359093
  0
VERTEX
  8
LAYER_6
 10
87.6016
 20
-79.8782
 42
0.2164123158
  0
VERTEX
  8
LAYER_6
 10
87.4084
 20
-79.4883
 42
0.0156111328
  0
VERTEX
  8
LAYER_6
 10
87.3665
 20
-79.4502
  0
SEQEND
  0
POLYLINE
  8
LAYER_6
 40
0.1764
 41
0.1764
 66
1
 10
0
 20
0
 30
0
  0
VERTEX
  8
LAYER_6
 10
83.2055
 20
-124.4763
  0
VERTEX
  8
LAYER_6
 10
83.2055
 20
-119.9763
  0
SEQEND
  0
POLYLINE
  8
LAYER_6
 40
0.1764
 41
0.1764
 66
1
 10
0
 20
0
 30
0
  0
VERTEX
  8
LAYER_6
 10
83.4379
 20
-128.6087
  0
VERTEX
  8
LAYER_6
 10
83.4379
 20
-126.3763
  0
SEQEND
  0
POLYLINE
  8
LAYER_6
 40
0.1482
 41
0.1482
 66
1
 10
0
 20
0
 30
0
  0
VERTEX
  8
LAYER_6
 10
81.5202
 20
-117.5193
 42
0.2971300773
  0
VERTEX
  8
LAYER_6
 10
81.401
 20
-117.7023
  0
VERTEX
  8
LAYER_6
 10
81.401
 20
-119.5163
  0
SEQEND
  0
POLYLINE
  8
LAYER_6
 40
0.1764
 41
0.1764
 66
1
 10
0
 20
0
 30
0
  0
VERTEX
  8
LAYER_6
 10
83.2647
 20
-119.9763
  0
VERTEX
  8
LAYER_6
 10
83.4379
 20
-120.2763
  0
VERTEX
  8
LAYER_6
 10
83.4379
 20
-124.4763
  0
SEQEND
  0
POLYLINE
  8
LAYER_6
 40
0.1764
 41
0.1764
 66
1
 10
0
 20
0
 30
0
  0
VERTEX
  8
LAYER_6
 10
83.2055
 20
-128.3308
  0
VERTEX
  8
LAYER_6
 10
84.2281
 20
-128.3308
  0
SEQEND
  0
POLYLINE
  8
LAYER_6
 40
0.1764
 41
0.1764
 66
1
 10
0
 20
0
 30
0
  0
VERTEX
  8
LAYER_6
 10
82.751
 20
-116.9763
  0
VERTEX
  8
LAYER_6
 10
81.5202
 20
-117.5193
  0
SEQEND
  0
POLYLINE
  8
LAYER_6
 40
0.1764
 41
0.1764
 66
1
 10
0
 20
0
 30
0
  0
VERTEX
  8
LAYER_6
 10
87.1641
 20
-128.6087
  0
VERTEX
  8
LAYER_6
 10
87.1641
 20
-126.3763
  0
SEQEND
  0
POLYLINE
  8
LAYER_6
 40
0.1764
 41
0.1764
 66
1
 10
0
 20
0
 30
0
  0
VERTEX
  8
LAYER_6
 10
82.821
 20
-95.3763
 42
0.3928373508
  0
VERTEX
  8
LAYER_6
 10
82.761
 20
-95.4363
  0
VERTEX
  8
LAYER_6
 10
82.761
 20
-116.9163
 42
0.3933760272
  0
VERTEX
  8
LAYER_6
 10
82.821
 20
-116.9763
  0
VERTEX
  8
LAYER_6
 10
83.031
 20
-116.9763
  0
VERTEX
  8
LAYER_6
 10
82.821
 20
-116.9763
  0
VERTEX
  8
LAYER_6
 10
87.781
 20
-116.9763
  0
VERTEX
  8
LAYER_6
 10
87.571
 20
-116.9763
  0
VERTEX
  8
LAYER_6
 10
87.781
 20
-116.9763
 42
0.392852767
  0
VERTEX
  8
LAYER_6
 10
87.841
 20
-116.9163
  0
VERTEX
  8
LAYER_6
 10
87.841
 20
-95.4363
 42
0.3923136174
  0
VERTEX
  8
LAYER_6
 10
87.781
 20
-95.3763
  0
SEQEND
  0
POLYLINE
  8
LAYER_6
 40
0.1764
 41
0.1764
 66
1
 10
0
 20
0
 30
0
  0
VERTEX
  8
LAYER_6
 10
87.1641
 20
-120.2763
  0
VERTEX
  8
LAYER_6
 10
87.3965
 20
-120.2763
  0
VERTEX
  8
LAYER_6
 10
85.301
 20
-120.2763
  0
VERTEX
  8
LAYER_6
 10
83.2055
 20
-120.2763
  0
VERTEX
  8
LAYER_6
 10
83.4379
 20
-120.2763
  0
SEQEND
  0
POLYLINE
  8
LAYER_6
 40
0.1482
 41
0.1482
 66
1
 10
0
 20
0
 30
0
  0
VERTEX
  8
LAYER_6
 10
89.0817
 20
-117.5193
 42
-0.2971516201
  0
VERTEX
  8
LAYER_6
 10
89.201
 20
-117.7023
  0
VERTEX
  8
LAYER_6
 10
89.201
 20
-119.5163
  0
SEQEND
  0
POLYLINE
  8
LAYER_6
 40
0.1764
 41
0.1764
 66
1
 10
0
 20
0
 30
0
  0
VERTEX
  8
LAYER_6
 10
87.851
 20
-116.9763
  0
VERTEX
  8
LAYER_6
 10
85.301
 20
-116.9763
  0
VERTEX
  8
LAYER_6
 10
82.751
 20
-116.9763
  0
VERTEX
  8
LAYER_6
 10
83.001
 20
-116.9763
  0
SEQEND
  0
POLYLINE
  8
LAYER_6
 40
0.1764
 41
0.1764
 66
1
 10
0
 20
0
 30
0
  0
VERTEX
  8
LAYER_6
 10
87.3373
 20
-119.9763
  0
VERTEX
  8
LAYER_6
 10
87.1641
 20
-120.2763
  0
VERTEX
  8
LAYER_6
 10
87.1641
 20
-124.4763
  0
SEQEND
  0
POLYLINE
  8
LAYER_6
 40
0.1764
 41
0.1764
 66
1
 10
0
 20
0
 30
0
  0
VERTEX
  8
LAYER_6
 10
87.3965
 20
-126.3763
  0
VERTEX
  8
LAYER_6
 10
87.3965
 20
-128.3763
  0
VERTEX
  8
LAYER_6
 10
87.0965
 20
-128.6763
  0
VERTEX
  8
LAYER_6
 10
85.301
 20
-128.6763
  0
VERTEX
  8
LAYER_6
 10
83.5055
 20
-128.6763
  0
VERTEX
  8
LAYER_6
 10
83.2055
 20
-128.3763
  0
VERTEX
  8
LAYER_6
 10
83.2055
 20
-126.3763
  0
SEQEND
  0
POLYLINE
  8
LAYER_6
 40
0.1764
 41
0.1764
 66
1
 10
0
 20
0
 30
0
  0
VERTEX
  8
LAYER_6
 10
87.3965
 20
-128.3308
  0
VERTEX
  8
LAYER_6
 10
86.3739
 20
-128.3308
  0
SEQEND
  0
POLYLINE
  8
LAYER_6
 40
0.1764
 41
0.1764
 66
1
 10
0
 20
0
 30
0
 70
1
  0
VERTEX
  8
LAYER_6
 10
85.301
 20
-119.5763
  0
VERTEX
  8
LAYER_6
 10
89.141
 20
-119.5763
  0
VERTEX
  8
LAYER_6
 10
89.201
 20
-119.5163
  0
VERTEX
  8
LAYER_6
 10
85.301
 20
-119.5163
  0
VERTEX
  8
LAYER_6
 10
81.401
 20
-119.5163
  0
VERTEX
  8
LAYER_6
 10
81.461
 20
-119.5763
  0
SEQEND
  0
POLYLINE
  8
LAYER_6
 40
0.1764
 41
0.1764
 66
1
 10
0
 20
0
 30
0
 70
1
  0
VERTEX
  8
LAYER_6
 10
86.3739
 20
-128.3308
 42
-0.1351936859
  0
VERTEX
  8
LAYER_6
 10
85.301
 20
-128.6263
 42
-0.135195102
  0
VERTEX
  8
LAYER_6
 10
84.2281
 20
-128.3308
  0
VERTEX
  8
LAYER_6
 10
84.2281
 20
-127.4763
  0
VERTEX
  8
LAYER_6
 10
85.301
 20
-127.4763
  0
VERTEX
  8
LAYER_6
 10
86.3739
 20
-127.4763
  0
SEQEND
  0
POLYLINE
  8
LAYER_6
 40
0.1764
 41
0.1764
 66
1
 10
0
 20
0
 30
0
  0
VERTEX
  8
LAYER_6
 10
89.101
 20
-117.5721
  0
VERTEX
  8
LAYER_6
 10
85.301
 20
-117.5721
  0
VERTEX
  8
LAYER_6
 10
81.501
 20
-117.5721
  0
SEQEND
  0
POLYLINE
  8
LAYER_6
 40
0.1764
 41
0.1764
 66
1
 10
0
 20
0
 30
0
  0
VERTEX
  8
LAYER_6
 10
89.0817
 20
-117.5193
  0
VERTEX
  8
LAYER_6
 10
87.851
 20
-116.9763
  0
VERTEX
  8
LAYER_6
 10
87.601
 20
-116.9763
  0
SEQEND
  0
POLYLINE
  8
LAYER_6
 40
0.1764
 41
0.1764
 66
1
 10
0
 20
0
 30
0
  0
VERTEX
  8
LAYER_6
 10
83.852
 20
-79.8382
  0
VERTEX
  8
LAYER_6
 10
83.852
 20
-80.2672
  0
SEQEND
  0
POLYLINE
  8
LAYER_6
 40
0.1764
 41
0.1764
 66
1
 10
0
 20
0
 30
0
  0
VERTEX
  8
LAYER_6
 10
87.5828
 20
-79.7562
 42
-0.3003076972
  0
VERTEX
  8
LAYER_6
 10
87.4102
 20
-79.8701
  0
VERTEX
  8
LAYER_6
 10
87.3824
 20
-79.868
  0
VERTEX
  8
LAYER_6
 10
86.8819
 20
-79.868
  0
VERTEX
  8
LAYER_6
 10
86.8645
 20
-79.8687
 42
-0.2196370495
  0
VERTEX
  8
LAYER_6
 10
86.6949
 20
-79.7904
 42
0.1522449495
  0
VERTEX
  8
LAYER_6
 10
86.1481
 20
-79.3707
 42
0.1874632919
  0
VERTEX
  8
LAYER_6
 10
84.4558
 20
-79.3707
 42
0.1522401033
  0
VERTEX
  8
LAYER_6
 10
83.909
 20
-79.7904
 42
-0.219662056
  0
VERTEX
  8
LAYER_6
 10
83.7394
 20
-79.8687
  0
VERTEX
  8
LAYER_6
 10
83.7221
 20
-79.868
  0
VERTEX
  8
LAYER_6
 10
83.2216
 20
-79.868
  0
VERTEX
  8
LAYER_6
 10
83.1937
 20
-79.8701
 42
-0.2954551761
  0
VERTEX
  8
LAYER_6
 10
83.0225
 20
-79.7592
  0
SEQEND
  0
POLYLINE
  8
LAYER_6
 40
0.1764
 41
0.1764
 66
1
 10
0
 20
0
 30
0
  0
VERTEX
  8
LAYER_6
 10
86.5826
 20
-80.5001
  0
VERTEX
  8
LAYER_6
 10
86.6113
 20
-80.4978
  0
SEQEND
  0
POLYLINE
  8
LAYER_6
 40
0.1764
 41
0.1764
 66
1
 10
0
 20
0
 30
0
  0
VERTEX
  8
LAYER_6
 10
86.0094
 20
-79.9971
 42
-0.1477023633
  0
VERTEX
  8
LAYER_6
 10
86.2169
 20
-80.2628
  0
VERTEX
  8
LAYER_6
 10
86.2576
 20
-80.2948
  0
SEQEND
  0
POLYLINE
  8
LAYER_6
 40
0.1764
 41
0.1764
 66
1
 10
0
 20
0
 30
0
  0
VERTEX
  8
LAYER_6
 10
84.3476
 20
-80.2905
  0
VERTEX
  8
LAYER_6
 10
84.3883
 20
-80.2587
 42
-0.1468535772
  0
VERTEX
  8
LAYER_6
 10
84.5986
 20
-79.9944
  0
SEQEND
  0
POLYLINE
  8
LAYER_6
 40
0.1764
 41
0.1764
 66
1
 10
0
 20
0
 30
0
  0
VERTEX
  8
LAYER_6
 10
84.387
 20
-80.4633
 42
0.2118540399
  0
VERTEX
  8
LAYER_6
 10
84.7384
 20
-80.8083
 42
0.2022031686
  0
VERTEX
  8
LAYER_6
 10
85.86
 20
-80.8108
 42
0.2102047872
  0
VERTEX
  8
LAYER_6
 10
86.2157
 20
-80.4674
  0
SEQEND
  0
POLYLINE
  8
LAYER_6
 40
0.1764
 41
0.1764
 66
1
 10
0
 20
0
 30
0
  0
VERTEX
  8
LAYER_6
 10
84.4514
 20
-80.1415
 42
0.2065223972
  0
VERTEX
  8
LAYER_6
 10
85.2305
 20
-80.4776
  0
VERTEX
  8
LAYER_6
 10
85.2985
 20
-80.4755
  0
VERTEX
  8
LAYER_6
 10
85.398
 20
-80.4804
 42
0.2142054911
  0
VERTEX
  8
LAYER_6
 10
86.1526
 20
-80.1415
  0
SEQEND
  0
POLYLINE
  8
LAYER_6
 40
0.1764
 41
0.1764
 66
1
 10
0
 20
0
 30
0
  0
VERTEX
  8
LAYER_6
 10
84.387
 20
-80.323
 42
0.04205867582
  0
VERTEX
  8
LAYER_6
 10
83.9914
 20
-80.4919
  0
SEQEND
  0
POLYLINE
  8
LAYER_6
 40
0.1764
 41
0.1764
 66
1
 10
0
 20
0
 30
0
  0
VERTEX
  8
LAYER_6
 10
86.2157
 20
-80.3271
 42
-0.04200449408
  0
VERTEX
  8
LAYER_6
 10
86.6113
 20
-80.4978
  0
VERTEX
  8
LAYER_6
 10
86.6126
 20
-80.2932
  0
VERTEX
  8
LAYER_6
 10
86.5839
 20
-80.2955
  0
SEQEND
  0
POLYLINE
  8
LAYER_6
 40
0.1764
 41
0.1764
 66
1
 10
0
 20
0
 30
0
  0
VERTEX
  8
LAYER_6
 10
84.0226
 20
-80.4944
  0
VERTEX
  8
LAYER_6
 10
84.3464
 20
-80.4951
  0
SEQEND
  0
POLYLINE
  8
LAYER_6
 40
0.1764
 41
0.1764
 66
1
 10
0
 20
0
 30
0
  0
VERTEX
  8
LAYER_6
 10
86.2563
 20
-80.4994
 42
-0.1827002001
  0
VERTEX
  8
LAYER_6
 10
86.0198
 20
-80.7876
 42
-0.1595241379
  0
VERTEX
  8
LAYER_6
 10
85.2083
 20
-80.976
 42
-0.1305289376
  0
VERTEX
  8
LAYER_6
 10
84.5794
 20
-80.7844
 42
-0.1673383166
  0
VERTEX
  8
LAYER_6
 10
84.3464
 20
-80.4951
  0
VERTEX
  8
LAYER_6
 10
84.387
 20
-80.4633
  0
VERTEX
  8
LAYER_6
 10
84.387
 20
-80.323
  0
VERTEX
  8
LAYER_6
 10
84.3784
 20
-80.2664
  0
SEQEND
  0
POLYLINE
  8
LAYER_6
 40
0.1764
 41
0.1764
 66
1
 10
0
 20
0
 30
0
  0
VERTEX
  8
LAYER_6
 10
86.2255
 20
-80.2695
  0
VERTEX
  8
LAYER_6
 10
86.2157
 20
-80.3271
  0
VERTEX
  8
LAYER_6
 10
86.2157
 20
-80.4674
  0
VERTEX
  8
LAYER_6
 10
86.2563
 20
-80.4994
  0
VERTEX
  8
LAYER_6
 10
86.5801
 20
-80.5001
 42
-0.2011566229
  0
VERTEX
  8
LAYER_6
 10
86.2233
 20
-80.9383
 42
-0.1323749482
  0
VERTEX
  8
LAYER_6
 10
85.2972
 20
-81.1713
 42
-0.1385209925
  0
VERTEX
  8
LAYER_6
 10
84.3739
 20
-80.9342
 42
-0.2026754201
  0
VERTEX
  8
LAYER_6
 10
84.0226
 20
-80.4944
  0
VERTEX
  8
LAYER_6
 10
83.9914
 20
-80.4919
  0
VERTEX
  8
LAYER_6
 10
83.9926
 20
-80.2873
  0
VERTEX
  8
LAYER_6
 10
84.0239
 20
-80.2898
  0
VERTEX
  8
LAYER_6
 10
84.3476
 20
-80.2905
 42
-0.1827185686
  0
VERTEX
  8
LAYER_6
 10
84.5842
 20
-80.0023
 42
-0.159501963
  0
VERTEX
  8
LAYER_6
 10
85.3956
 20
-79.8139
 42
-0.1305441081
  0
VERTEX
  8
LAYER_6
 10
86.0246
 20
-80.0055
 42
-0.1673227022
  0
VERTEX
  8
LAYER_6
 10
86.2576
 20
-80.2948
  0
VERTEX
  8
LAYER_6
 10
86.5814
 20
-80.2955
 42
0.2026921503
  0
VERTEX
  8
LAYER_6
 10
86.23
 20
-79.8557
 42
0.1385049099
  0
VERTEX
  8
LAYER_6
 10
85.3068
 20
-79.6186
 42
0.1323852324
  0
VERTEX
  8
LAYER_6
 10
84.3806
 20
-79.8516
 42
0.2011274114
  0
VERTEX
  8
LAYER_6
 10
84.0239
 20
-80.2898
  0
SEQEND
  0
POLYLINE
  8
LAYER_6
 40
0.1764
 41
0.1764
 66
1
 10
0
 20
0
 30
0
  0
VERTEX
  8
LAYER_6
 10
86.752
 20
-79.8382
  0
VERTEX
  8
LAYER_6
 10
86.752
 20
-80.2718
 42
0.14629172
  0
VERTEX
  8
LAYER_6
 10
86.6537
 20
-79.9514
 42
0.1501164689
  0
VERTEX
  8
LAYER_6
 10
86.1232
 20
-79.548
 42
0.1614344654
  0
VERTEX
  8
LAYER_6
 10
84.6777
 20
-79.4796
 42
0.1288382599
  0
VERTEX
  8
LAYER_6
 10
84.0489
 20
-79.8281
 42
0.200115444
  0
VERTEX
  8
LAYER_6
 10
83.852
 20
-80.2675
 42
0.2099233775
  0
VERTEX
  8
LAYER_6
 10
84.0876
 20
-80.7846
 42
0.1230919165
  0
VERTEX
  8
LAYER_6
 10
84.695
 20
-81.1195
 42
0.069373524
  0
VERTEX
  8
LAYER_6
 10
85.2968
 20
-81.2035
 42
0.1360264081
  0
VERTEX
  8
LAYER_6
 10
86.3152
 20
-80.9419
 42
0.1741539909
  0
VERTEX
  8
LAYER_6
 10
86.7182
 20
-80.4714
 42
0.08023461965
  0
VERTEX
  8
LAYER_6
 10
86.752
 20
-80.2718
  0
SEQEND
  0
POLYLINE
  8
LAYER_6
 40
0.1764
 41
0.1764
 66
1
 10
0
 20
0
 30
0
  0
VERTEX
  8
LAYER_6
 10
87.841
 20
-79.9326
 42
0.2041195982
  0
VERTEX
  8
LAYER_6
 10
87.6533
 20
-79.5269
 42
0.06076842086
  0
VERTEX
  8
LAYER_6
 10
87.4072
 20
-79.3325
 42
0.04591721169
  0
VERTEX
  8
LAYER_6
 10
87.0312
 20
-79.1468
 42
0.06922936701
  0
VERTEX
  8
LAYER_6
 10
85.9358
 20
-78.893
 42
0.02696951042
  0
VERTEX
  8
LAYER_6
 10
85.301
 20
-78.8592
 42
0.06363502619
  0
VERTEX
  8
LAYER_6
 10
83.932
 20
-79.0283
 42
0.08307946696
  0
VERTEX
  8
LAYER_6
 10
83.0975
 20
-79.3983
 42
0.1474402596
  0
VERTEX
  8
LAYER_6
 10
82.7814
 20
-79.7959
 42
0.07374332082
  0
VERTEX
  8
LAYER_6
 10
82.761
 20
-79.9326
  0
SEQEND
  0
POLYLINE
  8
LAYER_6
 40
0.1764
 41
0.1764
 66
1
 10
0
 20
0
 30
0
  0
VERTEX
  8
LAYER_6
 10
87.661
 20
-79.9326
 42
0.2096770564
  0
VERTEX
  8
LAYER_6
 10
87.4755
 20
-79.5444
 42
0.05931836963
  0
VERTEX
  8
LAYER_6
 10
87.2419
 20
-79.3651
 42
0.04506355066
  0
VERTEX
  8
LAYER_6
 10
86.8878
 20
-79.1943
 42
0.07157070814
  0
VERTEX
  8
LAYER_6
 10
85.8053
 20
-78.958
 42
0.02281318815
  0
VERTEX
  8
LAYER_6
 10
85.301
 20
-78.9352
 42
0.06817406246
  0
VERTEX
  8
LAYER_6
 10
83.9581
 20
-79.1123
 42
0.08998407384
  0
VERTEX
  8
LAYER_6
 10
83.1992
 20
-79.4786
 42
0.16271773
  0
VERTEX
  8
LAYER_6
 10
82.9479
 20
-79.8559
 42
0.04319796459
  0
VERTEX
  8
LAYER_6
 10
82.941
 20
-79.9326
  0
SEQEND
  0
POLYLINE
  8
LAYER_6
 40
0.1764
 41
0.1764
 66
1
 10
0
 20
0
 30
0
  0
VERTEX
  8
LAYER_6
 10
82.941
 20
-79.9326
 42
0.2116557148
  0
VERTEX
  8
LAYER_6
 10
83.133
 20
-80.3249
 42
0.06035210253
  0
VERTEX
  8
LAYER_6
 10
83.3831
 20
-80.5126
 42
0.07526090126
  0
VERTEX
  8
LAYER_6
 10
84.0933
 20
-80.7895
  0
SEQEND
  0
POLYLINE
  8
LAYER_6
 40
0.1764
 41
0.1764
 66
1
 10
0
 20
0
 30
0
  0
VERTEX
  8
LAYER_6
 10
86.5061
 20
-80.7901
 42
0.09577801333
  0
VERTEX
  8
LAYER_6
 10
87.3779
 20
-80.4046
 42
0.1621751619
  0
VERTEX
  8
LAYER_6
 10
87.653
 20
-80.0141
 42
0.04637604011
  0
VERTEX
  8
LAYER_6
 10
87.661
 20
-79.9326
  0
SEQEND
  0
POLYLINE
  8
LAYER_6
 40
0.1764
 41
0.1764
 66
1
 10
0
 20
0
 30
0
  0
VERTEX
  8
LAYER_6
 10
87.001
 20
-128.6763
  0
VERTEX
  8
LAYER_6
 10
87.001
 20
-128.8763
  0
VERTEX
  8
LAYER_6
 10
86.1272
 20
-128.8763
  0
SEQEND
  0
POLYLINE
  8
LAYER_6
 40
0.1764
 41
0.1764
 66
1
 10
0
 20
0
 30
0
  0
VERTEX
  8
LAYER_6
 10
83.601
 20
-128.6763
  0
VERTEX
  8
LAYER_6
 10
83.601
 20
-128.8763
  0
VERTEX
  8
LAYER_6
 10
84.3272
 20
-128.8763
  0
SEQEND
  0
POLYLINE
  8
LAYER_6
 40
0.1764
 41
0.1764
 66
1
 10
0
 20
0
 30
0
  0
VERTEX
  8
LAYER_6
 10
86.301
 20
-128.8763
  0
VERTEX
  8
LAYER_6
 10
86.301
 20
-129.6163
 42
0.3933760272
  0
VERTEX
  8
LAYER_6
 10
86.361
 20
-129.6763
  0
VERTEX
  8
LAYER_6
 10
86.601
 20
-129.6763
 42
0.392852767
  0
VERTEX
  8
LAYER_6
 10
86.661
 20
-129.6163
  0
VERTEX
  8
LAYER_6
 10
86.661
 20
-128.8763
  0
SEQEND
  0
POLYLINE
  8
LAYER_6
 40
0.1764
 41
0.1764
 66
1
 10
0
 20
0
 30
0
  0
VERTEX
  8
LAYER_6
 10
84.301
 20
-128.8763
  0
VERTEX
  8
LAYER_6
 10
84.301
 20
-129.6163
 42
-0.3928373506
  0
VERTEX
  8
LAYER_6
 10
84.241
 20
-129.6763
  0
VERTEX
  8
LAYER_6
 10
84.001
 20
-129.6763
 42
-0.3933760272
  0
VERTEX
  8
LAYER_6
 10
83.941
 20
-129.6163
  0
VERTEX
  8
LAYER_6
 10
83.941
 20
-128.8763
  0
SEQEND
  0
POLYLINE
  8
LAYER_6
 40
0.1764
 41
0.1764
 66
1
 10
0
 20
0
 30
0
  0
VERTEX
  8
LAYER_6
 10
86.1272
 20
-128.6763
  0
VERTEX
  8
LAYER_6
 10
86.1272
 20
-149.8814
  0
SEQEND
  0
POLYLINE
  8
LAYER_6
 40
0.1764
 41
0.1764
 66
1
 10
0
 20
0
 30
0
  0
VERTEX
  8
LAYER_6
 10
86.1272
 20
-150.8814
  0
VERTEX
  8
LAYER_6
 10
86.1272
 20
-172.0864
  0
SEQEND
  0
POLYLINE
  8
LAYER_6
 40
0.1764
 41
0.1764
 66
1
 10
0
 20
0
 30
0
  0
VERTEX
  8
LAYER_6
 10
84.3272
 20
-128.6763
  0
VERTEX
  8
LAYER_6
 10
84.3272
 20
-149.8814
  0
SEQEND
  0
POLYLINE
  8
LAYER_6
 40
0.1764
 41
0.1764
 66
1
 10
0
 20
0
 30
0
  0
VERTEX
  8
LAYER_6
 10
84.3272
 20
-150.8814
  0
VERTEX
  8
LAYER_6
 10
84.3272
 20
-172.0858
  0
SEQEND
  0
POLYLINE
  8
LAYER_6
 40
0.2469
 41
0.2469
 66
1
 10
0
 20
0
 30
0
 70
1
  0
VERTEX
  8
LAYER_6
 10
81.701
 20
-124.8763
  0
VERTEX
  8
LAYER_6
 10
81.701
 20
-125.0763
  0
VERTEX
  8
LAYER_6
 10
85.301
 20
-125.0763
  0
VERTEX
  8
LAYER_6
 10
88.901
 20
-125.0763
  0
VERTEX
  8
LAYER_6
 10
88.901
 20
-124.8763
  0
VERTEX
  8
LAYER_6
 10
85.301
 20
-124.8763
  0
SEQEND
  0
POLYLINE
  8
LAYER_6
 40
0.1764
 41
0.1764
 66
1
 10
0
 20
0
 30
0
  0
VERTEX
  8
LAYER_6
 10
82.6607
 20
-126.3763
  0
VERTEX
  8
LAYER_6
 10
82.6607
 20
-125.0763
  0
SEQEND
  0
POLYLINE
  8
LAYER_6
 40
0.1764
 41
0.1764
 66
1
 10
0
 20
0
 30
0
  0
VERTEX
  8
LAYER_6
 10
82.651
 20
-125.0763
  0
VERTEX
  8
LAYER_6
 10
82.651
 20
-126.3763
  0
SEQEND
  0
POLYLINE
  8
LAYER_6
 40
0.1764
 41
0.1764
 66
1
 10
0
 20
0
 30
0
  0
VERTEX
  8
LAYER_6
 10
84.1773
 20
-125.0763
  0
VERTEX
  8
LAYER_6
 10
84.1773
 20
-126.3763
  0
SEQEND
  0
POLYLINE
  8
LAYER_6
 40
0.1764
 41
0.1764
 66
1
 10
0
 20
0
 30
0
  0
VERTEX
  8
LAYER_6
 10
83.7843
 20
-125.0763
  0
VERTEX
  8
LAYER_6
 10
83.7843
 20
-126.3763
  0
SEQEND
  0
POLYLINE
  8
LAYER_6
 40
0.2469
 41
0.2469
 66
1
 10
0
 20
0
 30
0
  0
VERTEX
  8
LAYER_6
 10
87.951
 20
-126.3763
  0
VERTEX
  8
LAYER_6
 10
85.301
 20
-126.3763
  0
VERTEX
  8
LAYER_6
 10
82.651
 20
-126.3763
  0
SEQEND
  0
POLYLINE
  8
LAYER_6
 40
0.1764
 41
0.1764
 66
1
 10
0
 20
0
 30
0
  0
VERTEX
  8
LAYER_6
 10
87.9412
 20
-126.3763
  0
VERTEX
  8
LAYER_6
 10
87.9412
 20
-125.0763
  0
SEQEND
  0
POLYLINE
  8
LAYER_6
 40
0.1764
 41
0.1764
 66
1
 10
0
 20
0
 30
0
  0
VERTEX
  8
LAYER_6
 10
87.951
 20
-125.0763
  0
VERTEX
  8
LAYER_6
 10
87.951
 20
-126.3763
  0
SEQEND
  0
POLYLINE
  8
LAYER_6
 40
0.1764
 41
0.1764
 66
1
 10
0
 20
0
 30
0
  0
VERTEX
  8
LAYER_6
 10
86.4246
 20
-125.0763
  0
VERTEX
  8
LAYER_6
 10
86.4246
 20
-126.3763
  0
SEQEND
  0
POLYLINE
  8
LAYER_6
 40
0.1764
 41
0.1764
 66
1
 10
0
 20
0
 30
0
  0
VERTEX
  8
LAYER_6
 10
86.8176
 20
-125.0763
  0
VERTEX
  8
LAYER_6
 10
86.8176
 20
-126.3763
  0
SEQEND
  0
POLYLINE
  8
LAYER_6
 40
0.1764
 41
0.1764
 66
1
 10
0
 20
0
 30
0
  0
VERTEX
  8
LAYER_6
 10
88.801
 20
-119.5763
  0
VERTEX
  8
LAYER_6
 10
88.801
 20
-119.9763
  0
SEQEND
  0
POLYLINE
  8
LAYER_6
 40
0.1764
 41
0.1764
 66
1
 10
0
 20
0
 30
0
  0
VERTEX
  8
LAYER_6
 10
81.801
 20
-119.5763
  0
VERTEX
  8
LAYER_6
 10
81.801
 20
-119.9763
  0
VERTEX
  8
LAYER_6
 10
85.301
 20
-119.9763
  0
VERTEX
  8
LAYER_6
 10
88.801
 20
-119.9763
  0
VERTEX
  8
LAYER_6
 10
87.3965
 20
-119.9763
  0
VERTEX
  8
LAYER_6
 10
87.3965
 20
-124.4763
  0
SEQEND
  0
POLYLINE
  8
LAYER_6
 40
0.1764
 41
0.1764
 66
1
 10
0
 20
0
 30
0
 70
1
  0
VERTEX
  8
LAYER_6
 10
81.901
 20
-124.4763
  0
VERTEX
  8
LAYER_6
 10
88.701
 20
-124.4763
  0
VERTEX
  8
LAYER_6
 10
88.701
 20
-124.8763
  0
VERTEX
  8
LAYER_6
 10
81.901
 20
-124.8763
  0
SEQEND
  0
POLYLINE
  8
LAYER_6
 40
0.2469
 41
0.2469
 66
1
 10
0
 20
0
 30
0
  0
VERTEX
  8
LAYER_6
 10
87.951
 20
-125.0763
  0
VERTEX
  8
LAYER_6
 10
85.301
 20
-125.0763
  0
VERTEX
  8
LAYER_6
 10
82.651
 20
-125.0763
  0
SEQEND
  0
POLYLINE
  8
LAYER_6
 40
0.1764
 41
0.1764
 66
1
 10
0
 20
0
 30
0
  0
VERTEX
  8
LAYER_6
 10
78.949
 20
-174.4768
  0
VERTEX
  8
LAYER_6
 10
78.9581
 20
-174.5827
  0
SEQEND
  0
POLYLINE
  8
LAYER_6
 40
0.1764
 41
0.1764
 66
1
 10
0
 20
0
 30
0
  0
VERTEX
  8
LAYER_6
 10
78.8568
 20
-189.9203
  0
VERTEX
  8
LAYER_6
 10
78.8567
 20
-189.9646
  0
VERTEX
  8
LAYER_6
 10
78.8592
 20
-190.138
  0
SEQEND
  0
POLYLINE
  8
LAYER_6
 40
0.1764
 41
0.1764
 66
1
 10
0
 20
0
 30
0
 70
1
  0
VERTEX
  8
LAYER_6
 10
89.281
 20
-190.5043
  0
VERTEX
  8
LAYER_6
 10
89.4464
 20
-190.3389
  0
VERTEX
  8
LAYER_6
 10
89.701
 20
-190.3389
  0
VERTEX
  8
LAYER_6
 10
89.4813
 20
-190.5585
  0
VERTEX
  8
LAYER_6
 10
89.701
 20
-190.9389
  0
VERTEX
  8
LAYER_6
 10
89.4931
 20
-190.9389
  0
VERTEX
  8
LAYER_6
 10
89.3496
 20
-190.6903
  0
VERTEX
  8
LAYER_6
 10
89.281
 20
-190.7589
  0
VERTEX
  8
LAYER_6
 10
89.281
 20
-190.9389
  0
VERTEX
  8
LAYER_6
 10
89.101
 20
-190.9389
  0
VERTEX
  8
LAYER_6
 10
89.101
 20
-190.3389
  0
VERTEX
  8
LAYER_6
 10
89.281
 20
-190.3389
  0
SEQEND
  0
POLYLINE
  8
LAYER_6
 40
0.1764
 41
0.1764
 66
1
 10
0
 20
0
 30
0
 70
1
  0
VERTEX
  8
LAYER_6
 10
88.801
 20
-190.3389
  0
VERTEX
  8
LAYER_6
 10
88.5826
 20
-190.9389
  0
VERTEX
  8
LAYER_6
 10
88.4193
 20
-190.9389
  0
VERTEX
  8
LAYER_6
 10
88.201
 20
-190.3389
  0
VERTEX
  8
LAYER_6
 10
88.3925
 20
-190.3389
  0
VERTEX
  8
LAYER_6
 10
88.501
 20
-190.6369
  0
VERTEX
  8
LAYER_6
 10
88.6094
 20
-190.3389
  0
SEQEND
  0
POLYLINE
  8
LAYER_6
 40
0.1764
 41
0.1764
 66
1
 10
0
 20
0
 30
0
 70
1
  0
VERTEX
  8
LAYER_6
 10
87.301
 20
-190.3389
  0
VERTEX
  8
LAYER_6
 10
87.481
 20
-190.3389
  0
VERTEX
  8
LAYER_6
 10
87.481
 20
-190.5043
  0
VERTEX
  8
LAYER_6
 10
87.6464
 20
-190.3389
  0
VERTEX
  8
LAYER_6
 10
87.901
 20
-190.3389
  0
VERTEX
  8
LAYER_6
 10
87.6813
 20
-190.5585
  0
VERTEX
  8
LAYER_6
 10
87.901
 20
-190.9389
  0
VERTEX
  8
LAYER_6
 10
87.6931
 20
-190.9389
  0
VERTEX
  8
LAYER_6
 10
87.5496
 20
-190.6903
  0
VERTEX
  8
LAYER_6
 10
87.481
 20
-190.7589
  0
VERTEX
  8
LAYER_6
 10
87.481
 20
-190.9389
  0
VERTEX
  8
LAYER_6
 10
87.301
 20
-190.9389
  0
SEQEND
  0
POLYLINE
  8
LAYER_6
 40
0.1764
 41
0.1764
 66
1
 10
0
 20
0
 30
0
  0
VERTEX
  8
LAYER_6
 10
91.163
 20
-174.0769
  0
VERTEX
  8
LAYER_6
 10
91.3242
 20
-174.0885
 42
-0.2335970006
  0
VERTEX
  8
LAYER_6
 10
91.6531
 20
-174.4246
  0
VERTEX
  8
LAYER_6
 10
91.663
 20
-174.5768
  0
SEQEND
  0
POLYLINE
  8
LAYER_6
 40
0.1764
 41
0.1764
 66
1
 10
0
 20
0
 30
0
  0
VERTEX
  8
LAYER_6
 10
81.1174
 20
-192.1831
  0
VERTEX
  8
LAYER_6
 10
80.9018
 20
-192.1839
  0
SEQEND
  0
POLYLINE
  8
LAYER_6
 40
0.1764
 41
0.1764
 66
1
 10
0
 20
0
 30
0
  0
VERTEX
  8
LAYER_6
 10
90.801
 20
-192.2389
  0
VERTEX
  8
LAYER_6
 10
91.301
 20
-192.2389
  0
SEQEND
  0
POLYLINE
  8
LAYER_6
 40
0.1764
 41
0.1764
 66
1
 10
0
 20
0
 30
0
  0
VERTEX
  8
LAYER_6
 10
90.201
 20
-192.2337
 42
0.02818887736
  0
VERTEX
  8
LAYER_6
 10
90.801
 20
-192.2389
  0
SEQEND
  0
POLYLINE
  8
LAYER_6
 40
0.1764
 41
0.1764
 66
1
 10
0
 20
0
 30
0
  0
VERTEX
  8
LAYER_6
 10
90.201
 20
-192.197
  0
VERTEX
  8
LAYER_6
 10
90.201
 20
-192.2337
  0
SEQEND
  0
POLYLINE
  8
LAYER_6
 40
0.1764
 41
0.1764
 66
1
 10
0
 20
0
 30
0
  0
VERTEX
  8
LAYER_6
 10
90.201
 20
-192.197
 42
0.02817872385
  0
VERTEX
  8
LAYER_6
 10
89.601
 20
-192.1918
  0
SEQEND
  0
POLYLINE
  8
LAYER_6
 40
0.1764
 41
0.1764
 66
1
 10
0
 20
0
 30
0
  0
VERTEX
  8
LAYER_6
 10
88.8535
 20
-192.1918
  0
VERTEX
  8
LAYER_6
 10
89.601
 20
-192.1918
  0
SEQEND
  0
POLYLINE
  8
LAYER_6
 40
0.1764
 41
0.1764
 66
1
 10
0
 20
0
 30
0
  0
VERTEX
  8
LAYER_6
 10
88.2535
 20
-192.1866
 42
0.02002275683
  0
VERTEX
  8
LAYER_6
 10
88.8535
 20
-192.1918
  0
SEQEND
  0
POLYLINE
  8
LAYER_6
 40
0.1764
 41
0.1764
 66
1
 10
0
 20
0
 30
0
  0
VERTEX
  8
LAYER_6
 10
88.2008
 20
-192.134
  0
VERTEX
  8
LAYER_6
 10
88.2535
 20
-192.1866
  0
SEQEND
  0
POLYLINE
  8
LAYER_6
 40
0.1764
 41
0.1764
 66
1
 10
0
 20
0
 30
0
  0
VERTEX
  8
LAYER_6
 10
88.2008
 20
-192.134
 42
0.03555202334
  0
VERTEX
  8
LAYER_6
 10
87.8592
 20
-192.1223
 42
0.003255577587
  0
VERTEX
  8
LAYER_6
 10
85.301
 20
-192.1089
 42
0.03639839876
  0
VERTEX
  8
LAYER_6
 10
82.4011
 20
-192.134
  0
SEQEND
  0
POLYLINE
  8
LAYER_6
 40
0.1764
 41
0.1764
 66
1
 10
0
 20
0
 30
0
  0
VERTEX
  8
LAYER_6
 10
82.3013
 20
-192.2337
  0
VERTEX
  8
LAYER_6
 10
82.4011
 20
-192.134
  0
SEQEND
  0
POLYLINE
  8
LAYER_6
 40
0.1764
 41
0.1764
 66
1
 10
0
 20
0
 30
0
  0
VERTEX
  8
LAYER_6
 10
81.7013
 20
-192.2389
  0
VERTEX
  8
LAYER_6
 10
82.3013
 20
-192.2337
  0
SEQEND
  0
POLYLINE
  8
LAYER_6
 40
0.1764
 41
0.1764
 66
1
 10
0
 20
0
 30
0
  0
VERTEX
  8
LAYER_6
 10
79.3009
 20
-192.2389
  0
VERTEX
  8
LAYER_6
 10
81.7013
 20
-192.2389
  0
SEQEND
  0
POLYLINE
  8
LAYER_6
 40
0.1764
 41
0.1764
 66
1
 10
0
 20
0
 30
0
  0
VERTEX
  8
LAYER_6
 10
79.3009
 20
-173.9389
  0
VERTEX
  8
LAYER_6
 10
79.4389
 20
-174.0769
  0
SEQEND
  0
POLYLINE
  8
LAYER_6
 40
0.1764
 41
0.1764
 66
1
 10
0
 20
0
 30
0
  0
VERTEX
  8
LAYER_6
 10
79.401
 20
-173.9398
 42
0.01064863145
  0
VERTEX
  8
LAYER_6
 10
79.301
 20
-173.9389
  0
SEQEND
  0
POLYLINE
  8
LAYER_6
 40
0.1764
 41
0.1764
 66
1
 10
0
 20
0
 30
0
  0
VERTEX
  8
LAYER_6
 10
79.401
 20
-173.9728
  0
VERTEX
  8
LAYER_6
 10
79.401
 20
-173.9398
  0
SEQEND
  0
POLYLINE
  8
LAYER_6
 40
0.1764
 41
0.1764
 66
1
 10
0
 20
0
 30
0
  0
VERTEX
  8
LAYER_6
 10
79.401
 20
-173.9728
 42
0.009873808502
  0
VERTEX
  8
LAYER_6
 10
79.521
 20
-173.9738
  0
VERTEX
  8
LAYER_6
 10
79.641
 20
-173.9728
  0
SEQEND
  0
POLYLINE
  8
LAYER_6
 40
0.1764
 41
0.1764
 66
1
 10
0
 20
0
 30
0
  0
VERTEX
  8
LAYER_6
 10
79.641
 20
-173.9424
  0
VERTEX
  8
LAYER_6
 10
79.641
 20
-173.9728
  0
SEQEND
  0
POLYLINE
  8
LAYER_6
 40
0.1764
 41
0.1764
 66
1
 10
0
 20
0
 30
0
  0
VERTEX
  8
LAYER_6
 10
80.041
 20
-173.9389
  0
VERTEX
  8
LAYER_6
 10
79.641
 20
-173.9424
  0
SEQEND
  0
POLYLINE
  8
LAYER_6
 40
0.1764
 41
0.1764
 66
1
 10
0
 20
0
 30
0
  0
VERTEX
  8
LAYER_6
 10
82.0996
 20
-173.9389
  0
VERTEX
  8
LAYER_6
 10
80.041
 20
-173.9389
  0
SEQEND
  0
POLYLINE
  8
LAYER_6
 40
0.1764
 41
0.1764
 66
1
 10
0
 20
0
 30
0
  0
VERTEX
  8
LAYER_6
 10
82.4996
 20
-173.9424
 42
0.01685421099
  0
VERTEX
  8
LAYER_6
 10
82.0996
 20
-173.9389
  0
SEQEND
  0
POLYLINE
  8
LAYER_6
 40
0.1764
 41
0.1764
 66
1
 10
0
 20
0
 30
0
  0
VERTEX
  8
LAYER_6
 10
82.5712
 20
-174.0139
  0
VERTEX
  8
LAYER_6
 10
82.4996
 20
-173.9424
  0
SEQEND
  0
POLYLINE
  8
LAYER_6
 40
0.1764
 41
0.1764
 66
1
 10
0
 20
0
 30
0
  0
VERTEX
  8
LAYER_6
 10
82.6011
 20
-174.0438
 42
0.03594208929
  0
VERTEX
  8
LAYER_6
 10
82.9347
 20
-174.055
 42
0.00313874707
  0
VERTEX
  8
LAYER_6
 10
85.301
 20
-174.0672
 42
0.05232358696
  0
VERTEX
  8
LAYER_6
 10
88.0009
 20
-174.0438
  0
SEQEND
  0
POLYLINE
  8
LAYER_6
 40
0.1764
 41
0.1764
 66
1
 10
0
 20
0
 30
0
  0
VERTEX
  8
LAYER_6
 10
88.1023
 20
-173.9424
  0
VERTEX
  8
LAYER_6
 10
88.0307
 20
-174.0139
  0
SEQEND
  0
POLYLINE
  8
LAYER_6
 40
0.1764
 41
0.1764
 66
1
 10
0
 20
0
 30
0
  0
VERTEX
  8
LAYER_6
 10
88.5023
 20
-173.9389
  0
VERTEX
  8
LAYER_6
 10
88.1023
 20
-173.9424
  0
SEQEND
  0
POLYLINE
  8
LAYER_6
 40
0.1764
 41
0.1764
 66
1
 10
0
 20
0
 30
0
  0
VERTEX
  8
LAYER_6
 10
90.561
 20
-173.9389
  0
VERTEX
  8
LAYER_6
 10
88.5023
 20
-173.9389
  0
SEQEND
  0
POLYLINE
  8
LAYER_6
 40
0.1764
 41
0.1764
 66
1
 10
0
 20
0
 30
0
  0
VERTEX
  8
LAYER_6
 10
90.961
 20
-173.9424
 42
0.0222887512
  0
VERTEX
  8
LAYER_6
 10
90.561
 20
-173.9389
  0
SEQEND
  0
POLYLINE
  8
LAYER_6
 40
0.1764
 41
0.1764
 66
1
 10
0
 20
0
 30
0
  0
VERTEX
  8
LAYER_6
 10
90.961
 20
-173.9728
  0
VERTEX
  8
LAYER_6
 10
90.961
 20
-173.9424
  0
SEQEND
  0
POLYLINE
  8
LAYER_6
 40
0.1764
 41
0.1764
 66
1
 10
0
 20
0
 30
0
  0
VERTEX
  8
LAYER_6
 10
90.961
 20
-173.9728
 42
0.009873808502
  0
VERTEX
  8
LAYER_6
 10
91.081
 20
-173.9738
  0
VERTEX
  8
LAYER_6
 10
91.201
 20
-173.9728
  0
SEQEND
  0
POLYLINE
  8
LAYER_6
 40
0.1764
 41
0.1764
 66
1
 10
0
 20
0
 30
0
  0
VERTEX
  8
LAYER_6
 10
91.201
 20
-173.9398
  0
VERTEX
  8
LAYER_6
 10
91.201
 20
-173.9728
  0
SEQEND
  0
POLYLINE
  8
LAYER_6
 40
0.1764
 41
0.1764
 66
1
 10
0
 20
0
 30
0
  0
VERTEX
  8
LAYER_6
 10
91.301
 20
-173.9389
  0
VERTEX
  8
LAYER_6
 10
91.201
 20
-173.9398
  0
SEQEND
  0
POLYLINE
  8
LAYER_6
 40
0.1764
 41
0.1764
 66
1
 10
0
 20
0
 30
0
  0
VERTEX
  8
LAYER_6
 10
81.481
 20
-173.9495
  0
VERTEX
  8
LAYER_6
 10
81.481
 20
-173.9625
  0
SEQEND
  0
POLYLINE
  8
LAYER_6
 40
0.1764
 41
0.1764
 66
1
 10
0
 20
0
 30
0
  0
VERTEX
  8
LAYER_6
 10
81.481
 20
-173.9495
 42
0.01237192264
  0
VERTEX
  8
LAYER_6
 10
81.321
 20
-173.9481
  0
SEQEND
  0
POLYLINE
  8
LAYER_6
 40
0.1764
 41
0.1764
 66
1
 10
0
 20
0
 30
0
  0
VERTEX
  8
LAYER_6
 10
80.841
 20
-173.9481
  0
VERTEX
  8
LAYER_6
 10
80.681
 20
-173.9495
  0
SEQEND
  0
POLYLINE
  8
LAYER_6
 40
0.1764
 41
0.1764
 66
1
 10
0
 20
0
 30
0
  0
VERTEX
  8
LAYER_6
 10
80.681
 20
-173.9625
  0
VERTEX
  8
LAYER_6
 10
80.681
 20
-173.9495
  0
SEQEND
  0
POLYLINE
  8
LAYER_6
 40
0.1764
 41
0.1764
 66
1
 10
0
 20
0
 30
0
  0
VERTEX
  8
LAYER_6
 10
80.681
 20
-173.9625
 42
0.01238737619
  0
VERTEX
  8
LAYER_6
 10
80.841
 20
-173.9639
  0
SEQEND
  0
POLYLINE
  8
LAYER_6
 40
0.1764
 41
0.1764
 66
1
 10
0
 20
0
 30
0
  0
VERTEX
  8
LAYER_6
 10
81.321
 20
-173.9639
  0
VERTEX
  8
LAYER_6
 10
81.481
 20
-173.9625
  0
SEQEND
  0
POLYLINE
  8
LAYER_6
 40
0.1764
 41
0.1764
 66
1
 10
0
 20
0
 30
0
  0
VERTEX
  8
LAYER_6
 10
89.281
 20
-173.9481
  0
VERTEX
  8
LAYER_6
 10
89.121
 20
-173.9495
  0
SEQEND
  0
POLYLINE
  8
LAYER_6
 40
0.1764
 41
0.1764
 66
1
 10
0
 20
0
 30
0
  0
VERTEX
  8
LAYER_6
 10
89.121
 20
-173.9625
  0
VERTEX
  8
LAYER_6
 10
89.121
 20
-173.9495
  0
SEQEND
  0
POLYLINE
  8
LAYER_6
 40
0.1764
 41
0.1764
 66
1
 10
0
 20
0
 30
0
  0
VERTEX
  8
LAYER_6
 10
89.121
 20
-173.9625
 42
0.01238737619
  0
VERTEX
  8
LAYER_6
 10
89.281
 20
-173.9639
  0
SEQEND
  0
POLYLINE
  8
LAYER_6
 40
0.1764
 41
0.1764
 66
1
 10
0
 20
0
 30
0
  0
VERTEX
  8
LAYER_6
 10
89.761
 20
-173.9639
  0
VERTEX
  8
LAYER_6
 10
89.921
 20
-173.9625
  0
SEQEND
  0
POLYLINE
  8
LAYER_6
 40
0.1764
 41
0.1764
 66
1
 10
0
 20
0
 30
0
  0
VERTEX
  8
LAYER_6
 10
89.921
 20
-173.9495
  0
VERTEX
  8
LAYER_6
 10
89.921
 20
-173.9625
  0
SEQEND
  0
POLYLINE
  8
LAYER_6
 40
0.1764
 41
0.1764
 66
1
 10
0
 20
0
 30
0
  0
VERTEX
  8
LAYER_6
 10
89.921
 20
-173.9495
 42
0.01237192264
  0
VERTEX
  8
LAYER_6
 10
89.761
 20
-173.9481
  0
SEQEND
  0
POLYLINE
  8
LAYER_6
 40
0.1764
 41
0.1764
 66
1
 10
0
 20
0
 30
0
  0
VERTEX
  8
LAYER_6
 10
91.801
 20
-174.4389
 42
0.1989442788
  0
VERTEX
  8
LAYER_6
 10
91.6545
 20
-174.0853
 42
0.1988753711
  0
VERTEX
  8
LAYER_6
 10
91.301
 20
-173.9389
  0
SEQEND
  0
POLYLINE
  8
LAYER_6
 40
0.1764
 41
0.1764
 66
1
 10
0
 20
0
 30
0
  0
VERTEX
  8
LAYER_6
 10
91.301
 20
-192.2389
 42
0.1988781167
  0
VERTEX
  8
LAYER_6
 10
91.6545
 20
-192.0925
 42
0.1989433684
  0
VERTEX
  8
LAYER_6
 10
91.801
 20
-191.7389
  0
SEQEND
  0
POLYLINE
  8
LAYER_6
 40
0.1764
 41
0.1764
 66
1
 10
0
 20
0
 30
0
  0
VERTEX
  8
LAYER_6
 10
79.3009
 20
-173.9389
 42
0.1988727299
  0
VERTEX
  8
LAYER_6
 10
78.9474
 20
-174.0853
 42
0.1989379136
  0
VERTEX
  8
LAYER_6
 10
78.801
 20
-174.4389
  0
SEQEND
  0
POLYLINE
  8
LAYER_6
 40
0.1764
 41
0.1764
 66
1
 10
0
 20
0
 30
0
  0
VERTEX
  8
LAYER_6
 10
78.801
 20
-191.7389
  0
VERTEX
  8
LAYER_6
 10
78.801
 20
-174.4389
  0
VERTEX
  8
LAYER_6
 10
78.9389
 20
-174.5768
  0
VERTEX
  8
LAYER_6
 10
78.9389
 20
-189.7577
  0
SEQEND
  0
POLYLINE
  8
LAYER_6
 40
0.1764
 41
0.1764
 66
1
 10
0
 20
0
 30
0
  0
VERTEX
  8
LAYER_6
 10
87.5308
 20
-172.0389
  0
VERTEX
  8
LAYER_6
 10
87.4255
 20
-172.0389
  0
SEQEND
  0
POLYLINE
  8
LAYER_6
 40
0.1764
 41
0.1764
 66
1
 10
0
 20
0
 30
0
  0
VERTEX
  8
LAYER_6
 10
83.1764
 20
-172.0389
  0
VERTEX
  8
LAYER_6
 10
83.0712
 20
-172.0389
  0
SEQEND
  0
POLYLINE
  8
LAYER_6
 40
0.1764
 41
0.1764
 66
1
 10
0
 20
0
 30
0
  0
VERTEX
  8
LAYER_6
 10
83.7764
 20
-172.0441
 42
0.01999942281
  0
VERTEX
  8
LAYER_6
 10
83.1764
 20
-172.0389
  0
SEQEND
  0
POLYLINE
  8
LAYER_6
 40
0.1764
 41
0.1764
 66
1
 10
0
 20
0
 30
0
  0
VERTEX
  8
LAYER_6
 10
83.801
 20
-172.0687
 42
0.02789449754
  0
VERTEX
  8
LAYER_6
 10
84.22
 20
-172.0777
 42
0.004534300744
  0
VERTEX
  8
LAYER_6
 10
85.301
 20
-172.0817
  0
VERTEX
  8
LAYER_6
 10
86.8009
 20
-172.0687
  0
SEQEND
  0
POLYLINE
  8
LAYER_6
 40
0.1764
 41
0.1764
 66
1
 10
0
 20
0
 30
0
  0
VERTEX
  8
LAYER_6
 10
86.8255
 20
-172.0441
  0
VERTEX
  8
LAYER_6
 10
86.8009
 20
-172.0687
  0
SEQEND
  0
POLYLINE
  8
LAYER_6
 40
0.1764
 41
0.1764
 66
1
 10
0
 20
0
 30
0
  0
VERTEX
  8
LAYER_6
 10
87.4255
 20
-172.0389
  0
VERTEX
  8
LAYER_6
 10
86.8255
 20
-172.0441
  0
SEQEND
  0
POLYLINE
  8
LAYER_6
 40
0.1764
 41
0.1764
 66
1
 10
0
 20
0
 30
0
  0
VERTEX
  8
LAYER_6
 10
88.0307
 20
-172.5389
 42
0.1989347835
  0
VERTEX
  8
LAYER_6
 10
87.8843
 20
-172.1853
 42
0.1988763805
  0
VERTEX
  8
LAYER_6
 10
87.5308
 20
-172.0389
  0
SEQEND
  0
POLYLINE
  8
LAYER_6
 40
0.1764
 41
0.1764
 66
1
 10
0
 20
0
 30
0
  0
VERTEX
  8
LAYER_6
 10
83.0712
 20
-172.0389
 42
0.1989257231
  0
VERTEX
  8
LAYER_6
 10
82.7176
 20
-172.1853
 42
0.1989284165
  0
VERTEX
  8
LAYER_6
 10
82.5712
 20
-172.5389
  0
SEQEND
  0
POLYLINE
  8
LAYER_6
 40
0.1764
 41
0.1764
 66
1
 10
0
 20
0
 30
0
  0
VERTEX
  8
LAYER_6
 10
82.5712
 20
-172.5389
  0
VERTEX
  8
LAYER_6
 10
82.5712
 20
-174.0139
  0
VERTEX
  8
LAYER_6
 10
82.6011
 20
-174.0438
  0
VERTEX
  8
LAYER_6
 10
82.6011
 20
-172.5688
  0
VERTEX
  8
LAYER_6
 10
82.6127
 20
-172.4075
 42
-0.2335609331
  0
VERTEX
  8
LAYER_6
 10
82.9488
 20
-172.0787
  0
VERTEX
  8
LAYER_6
 10
83.101
 20
-172.0688
  0
VERTEX
  8
LAYER_6
 10
83.1113
 20
-172.0711
 42
0.007775060708
  0
VERTEX
  8
LAYER_6
 10
87.4905
 20
-172.0712
  0
VERTEX
  8
LAYER_6
 10
87.5007
 20
-172.0688
  0
VERTEX
  8
LAYER_6
 10
87.5009
 20
-172.0688
  0
VERTEX
  8
LAYER_6
 10
87.6531
 20
-172.0787
 42
-0.2335662645
  0
VERTEX
  8
LAYER_6
 10
87.9892
 20
-172.4075
  0
VERTEX
  8
LAYER_6
 10
88.0009
 20
-172.5688
  0
VERTEX
  8
LAYER_6
 10
88.0009
 20
-174.0438
  0
VERTEX
  8
LAYER_6
 10
88.0307
 20
-174.0139
  0
VERTEX
  8
LAYER_6
 10
88.0307
 20
-172.5389
  0
SEQEND
  0
POLYLINE
  8
LAYER_6
 40
0.1764
 41
0.1764
 66
1
 10
0
 20
0
 30
0
  0
VERTEX
  8
LAYER_6
 10
78.856
 20
-190.138
  0
VERTEX
  8
LAYER_6
 10
78.856
 20
-191.6839
  0
VERTEX
  8
LAYER_6
 10
78.8659
 20
-191.8361
 42
0.233624223
  0
VERTEX
  8
LAYER_6
 10
79.1947
 20
-192.1723
  0
VERTEX
  8
LAYER_6
 10
79.3554
 20
-192.1837
  0
VERTEX
  8
LAYER_6
 10
79.3559
 20
-192.1839
  0
VERTEX
  8
LAYER_6
 10
80.9018
 20
-192.1839
  0
VERTEX
  8
LAYER_6
 10
80.9018
 20
-192.1771
  0
SEQEND
  0
POLYLINE
  8
LAYER_6
 40
0.1764
 41
0.1764
 66
1
 10
0
 20
0
 30
0
  0
VERTEX
  8
LAYER_6
 10
78.801
 20
-191.7389
 42
0.1989370026
  0
VERTEX
  8
LAYER_6
 10
78.9474
 20
-192.0925
 42
0.1988754794
  0
VERTEX
  8
LAYER_6
 10
79.3009
 20
-192.2389
  0
SEQEND
  0
POLYLINE
  8
LAYER_6
 40
0.1764
 41
0.1764
 66
1
 10
0
 20
0
 30
0
  0
VERTEX
  8
LAYER_6
 10
89.921
 20
-192.1926
  0
VERTEX
  8
LAYER_6
 10
89.921
 20
-196.0677
  0
SEQEND
  0
POLYLINE
  8
LAYER_6
 40
0.1764
 41
0.1764
 66
1
 10
0
 20
0
 30
0
  0
VERTEX
  8
LAYER_6
 10
89.081
 20
-192.1918
  0
VERTEX
  8
LAYER_6
 10
89.081
 20
-196.0677
  0
SEQEND
  0
POLYLINE
  8
LAYER_6
 40
0.1764
 41
0.1764
 66
1
 10
0
 20
0
 30
0
  0
VERTEX
  8
LAYER_6
 10
78.9617
 20
-174.5776
  0
VERTEX
  8
LAYER_6
 10
78.9389
 20
-174.5768
  0
VERTEX
  8
LAYER_6
 10
78.9574
 20
-174.484
  0
VERTEX
  8
LAYER_6
 10
78.9663
 20
-174.3797
 42
-0.2044162673
  0
VERTEX
  8
LAYER_6
 10
79.2797
 20
-174.0875
  0
VERTEX
  8
LAYER_6
 10
79.4389
 20
-174.0769
  0
VERTEX
  8
LAYER_6
 10
79.4345
 20
-174.0812
  0
VERTEX
  8
LAYER_6
 10
79.4388
 20
-174.0856
  0
VERTEX
  8
LAYER_6
 10
79.4433
 20
-174.0814
  0
VERTEX
  8
LAYER_6
 10
79.4391
 20
-174.0769
  0
VERTEX
  8
LAYER_6
 10
79.4476
 20
-174.078
  0
VERTEX
  8
LAYER_6
 10
79.9389
 20
-174.0812
  0
VERTEX
  8
LAYER_6
 10
90.663
 20
-174.0812
  0
VERTEX
  8
LAYER_6
 10
91.1543
 20
-174.078
  0
VERTEX
  8
LAYER_6
 10
91.1628
 20
-174.0769
  0
VERTEX
  8
LAYER_6
 10
91.163
 20
-174.0769
  0
VERTEX
  8
LAYER_6
 10
91.301
 20
-173.9389
  0
SEQEND
  0
POLYLINE
  8
LAYER_6
 40
0.1764
 41
0.1764
 66
1
 10
0
 20
0
 30
0
  0
VERTEX
  8
LAYER_6
 10
81.1195
 20
-192.1831
  0
VERTEX
  8
LAYER_6
 10
81.197
 20
-192.182
  0
VERTEX
  8
LAYER_6
 10
81.2017
 20
-192.1813
  0
VERTEX
  8
LAYER_6
 10
81.2018
 20
-192.1813
  0
VERTEX
  8
LAYER_6
 10
81.2865
 20
-192.0966
  0
VERTEX
  8
LAYER_6
 10
90.663
 20
-192.0966
  0
VERTEX
  8
LAYER_6
 10
91.1543
 20
-192.0998
  0
VERTEX
  8
LAYER_6
 10
91.1628
 20
-192.1009
  0
VERTEX
  8
LAYER_6
 10
91.163
 20
-192.1009
  0
VERTEX
  8
LAYER_6
 10
91.3177
 20
-192.0912
 42
0.2045928809
  0
VERTEX
  8
LAYER_6
 10
91.6347
 20
-191.8016
  0
VERTEX
  8
LAYER_6
 10
91.6444
 20
-191.6938
  0
VERTEX
  8
LAYER_6
 10
91.6445
 20
-191.6938
  0
VERTEX
  8
LAYER_6
 10
91.663
 20
-191.601
  0
VERTEX
  8
LAYER_6
 10
91.663
 20
-174.5768
  0
VERTEX
  8
LAYER_6
 10
91.801
 20
-174.4389
  0
VERTEX
  8
LAYER_6
 10
91.801
 20
-191.7389
  0
SEQEND
  0
POLYLINE
  8
LAYER_6
 40
0.1764
 41
0.1764
 66
1
 10
0
 20
0
 30
0
 70
1
  0
VERTEX
  8
LAYER_6
 10
89.761
 20
-173.9481
  0
VERTEX
  8
LAYER_6
 10
89.761
 20
-173.9639
  0
VERTEX
  8
LAYER_6
 10
89.281
 20
-173.9639
  0
VERTEX
  8
LAYER_6
 10
89.281
 20
-173.9481
  0
SEQEND
  0
POLYLINE
  8
LAYER_6
 40
0.1764
 41
0.1764
 66
1
 10
0
 20
0
 30
0
 70
1
  0
VERTEX
  8
LAYER_6
 10
81.321
 20
-173.9481
  0
VERTEX
  8
LAYER_6
 10
81.321
 20
-173.9639
  0
VERTEX
  8
LAYER_6
 10
80.841
 20
-173.9639
  0
VERTEX
  8
LAYER_6
 10
80.841
 20
-173.9481
  0
SEQEND
  0
POLYLINE
  8
LAYER_6
  6
AIGENLINE001
 40
0.1764
 41
0.1764
 66
1
 10
0
 20
0
 30
0
 70
128
  0
VERTEX
  8
LAYER_6
 10
78.151
 20
-191.0589
  0
VERTEX
  8
LAYER_6
 10
81.651
 20
-191.0589
  0
SEQEND
  0
POLYLINE
  8
LAYER_6
  6
AIGENLINE001
 40
0.1764
 41
0.1764
 66
1
 10
0
 20
0
 30
0
 70
128
  0
VERTEX
  8
LAYER_6
 10
79.901
 20
-189.3089
  0
VERTEX
  8
LAYER_6
 10
79.901
 20
-192.8089
  0
SEQEND
  0
POLYLINE
  8
LAYER_6
 40
0.1764
 41
0.1764
 66
1
 10
0
 20
0
 30
0
  0
VERTEX
  8
LAYER_6
 10
81.287
 20
-192.0853
  0
VERTEX
  8
LAYER_6
 10
81.2891
 20
-191.5966
  0
VERTEX
  8
LAYER_6
 10
81.2891
 20
-191.3507
  0
VERTEX
  8
LAYER_6
 10
81.2845
 20
-191.1595
 42
0.2911442367
  0
VERTEX
  8
LAYER_6
 10
80.1904
 20
-189.8204
  0
VERTEX
  8
LAYER_6
 10
79.9389
 20
-189.7704
  0
VERTEX
  8
LAYER_6
 10
79.6263
 20
-189.7511
  0
VERTEX
  8
LAYER_6
 10
78.9558
 20
-189.756
  0
VERTEX
  8
LAYER_6
 10
78.9389
 20
-189.7577
  0
VERTEX
  8
LAYER_6
 10
78.8585
 20
-189.838
  0
VERTEX
  8
LAYER_6
 10
78.8579
 20
-189.8428
  0
VERTEX
  8
LAYER_6
 10
78.8568
 20
-189.9202
  0
VERTEX
  8
LAYER_6
 10
78.856
 20
-190.138
  0
VERTEX
  8
LAYER_6
 10
78.8627
 20
-190.138
  0
VERTEX
  8
LAYER_6
 10
79.0559
 20
-190.138
  0
VERTEX
  8
LAYER_6
 10
79.6019
 20
-190.138
  0
VERTEX
  8
LAYER_6
 10
79.8338
 20
-190.1485
 42
-0.3259873598
  0
VERTEX
  8
LAYER_6
 10
80.897
 20
-191.2656
  0
VERTEX
  8
LAYER_6
 10
80.9018
 20
-191.438
  0
VERTEX
  8
LAYER_6
 10
80.9018
 20
-191.9839
  0
VERTEX
  8
LAYER_6
 10
80.9018
 20
-192.175
  0
SEQEND
  0
CIRCLE
  8
LAYER_6
 10
79.901
 20
-191.0589
 40
0.55
  0
POLYLINE
  8
LAYER_6
 40
0.1764
 41
0.1764
 66
1
 10
0
 20
0
 30
0
 70
1
  0
VERTEX
  8
LAYER_6
 10
80.161
 20
-190.9989
  0
VERTEX
  8
LAYER_6
 10
80.3007
 20
-190.9989
  0
VERTEX
  8
LAYER_6
 10
80.301
 20
-190.9989
  0
VERTEX
  8
LAYER_6
 10
80.301
 20
-191.1189
  0
VERTEX
  8
LAYER_6
 10
80.2694
 20
-191.1189
  0
VERTEX
  8
LAYER_6
 10
80.1606
 20
-191.1189
  0
VERTEX
  8
LAYER_6
 10
80.161
 20
-191.1189
 42
0.4142782626
  0
VERTEX
  8
LAYER_6
 10
79.961
 20
-191.3189
  0
VERTEX
  8
LAYER_6
 10
79.961
 20
-191.4587
  0
VERTEX
  8
LAYER_6
 10
79.961
 20
-191.4589
  0
VERTEX
  8
LAYER_6
 10
79.901
 20
-191.4589
  0
VERTEX
  8
LAYER_6
 10
79.841
 20
-191.4589
  0
VERTEX
  8
LAYER_6
 10
79.841
 20
-191.3187
  0
VERTEX
  8
LAYER_6
 10
79.841
 20
-191.3186
  0
VERTEX
  8
LAYER_6
 10
79.841
 20
-191.3189
 42
0.4141569147
  0
VERTEX
  8
LAYER_6
 10
79.641
 20
-191.1189
  0
VERTEX
  8
LAYER_6
 10
79.6413
 20
-191.1189
  0
VERTEX
  8
LAYER_6
 10
79.5325
 20
-191.1189
  0
VERTEX
  8
LAYER_6
 10
79.501
 20
-191.1189
  0
VERTEX
  8
LAYER_6
 10
79.501
 20
-190.9989
  0
VERTEX
  8
LAYER_6
 10
79.6412
 20
-190.9989
  0
VERTEX
  8
LAYER_6
 10
79.6413
 20
-190.9989
  0
VERTEX
  8
LAYER_6
 10
79.641
 20
-190.9989
 42
0.4141489201
  0
VERTEX
  8
LAYER_6
 10
79.841
 20
-190.7989
  0
VERTEX
  8
LAYER_6
 10
79.841
 20
-190.6591
  0
VERTEX
  8
LAYER_6
 10
79.841
 20
-190.6589
  0
VERTEX
  8
LAYER_6
 10
79.901
 20
-190.6589
  0
VERTEX
  8
LAYER_6
 10
79.961
 20
-190.6589
  0
VERTEX
  8
LAYER_6
 10
79.961
 20
-190.7991
  0
VERTEX
  8
LAYER_6
 10
79.961
 20
-190.7992
  0
VERTEX
  8
LAYER_6
 10
79.961
 20
-190.7989
 42
0.4142702604
  0
SEQEND
  0
POLYLINE
  8
LAYER_6
 40
0.1764
 41
0.1764
 66
1
 10
0
 20
0
 30
0
  0
VERTEX
  8
LAYER_6
 10
87.701
 20
-195.2189
  0
VERTEX
  8
LAYER_6
 10
87.701
 20
-192.12
  0
SEQEND
  0
POLYLINE
  8
LAYER_6
 40
0.1764
 41
0.1764
 66
1
 10
0
 20
0
 30
0
  0
VERTEX
  8
LAYER_6
 10
82.901
 20
-192.12
  0
VERTEX
  8
LAYER_6
 10
82.901
 20
-195.2189
  0
SEQEND
  0
POLYLINE
  8
LAYER_6
 40
0.1764
 41
0.1764
 66
1
 10
0
 20
0
 30
0
  0
VERTEX
  8
LAYER_6
 10
83.3992
 20
-196.7327
  0
VERTEX
  8
LAYER_6
 10
83.3998
 20
-196.7218
 42
0.1565376097
  0
VERTEX
  8
LAYER_6
 10
83.379
 20
-196.6576
  0
SEQEND
  0
POLYLINE
  8
LAYER_6
 40
0.1764
 41
0.1764
 66
1
 10
0
 20
0
 30
0
  0
VERTEX
  8
LAYER_6
 10
87.2233
 20
-196.6562
 42
0.1555736615
  0
VERTEX
  8
LAYER_6
 10
87.2019
 20
-196.7228
  0
VERTEX
  8
LAYER_6
 10
87.2024
 20
-196.7333
  0
VERTEX
  8
LAYER_6
 10
87.201
 20
-197.9189
  0
SEQEND
  0
POLYLINE
  8
LAYER_6
 40
0.1764
 41
0.1764
 66
1
 10
0
 20
0
 30
0
 70
1
  0
VERTEX
  8
LAYER_6
 10
85.6678
 20
-199.5189
  0
VERTEX
  8
LAYER_6
 10
85.6678
 20
-200.4189
  0
VERTEX
  8
LAYER_6
 10
85.6678
 20
-200.4191
 42
0.231208495
  0
VERTEX
  8
LAYER_6
 10
85.735
 20
-200.5754
 42
0.1604507202
  0
VERTEX
  8
LAYER_6
 10
86.1279
 20
-200.7392
 42
0.09500881942
  0
VERTEX
  8
LAYER_6
 10
87.1323
 20
-200.7045
 42
0.1689091205
  0
VERTEX
  8
LAYER_6
 10
87.4015
 20
-200.5295
 42
0.1822310543
  0
VERTEX
  8
LAYER_6
 10
87.434
 20
-200.4181
  0
VERTEX
  8
LAYER_6
 10
87.4341
 20
-200.4189
  0
VERTEX
  8
LAYER_6
 10
87.4341
 20
-199.5189
 42
0.2274562834
  0
VERTEX
  8
LAYER_6
 10
87.0416
 20
-198.671
 42
0.4128358991
  0
VERTEX
  8
LAYER_6
 10
85.9265
 20
-198.7978
 42
0.1788726061
  0
SEQEND
  0
POLYLINE
  8
LAYER_6
 40
0.1764
 41
0.1764
 66
1
 10
0
 20
0
 30
0
 70
1
  0
VERTEX
  8
LAYER_6
 10
83.1678
 20
-199.5189
  0
VERTEX
  8
LAYER_6
 10
83.1678
 20
-200.4189
  0
VERTEX
  8
LAYER_6
 10
83.1678
 20
-200.419
 42
0.2456346313
  0
VERTEX
  8
LAYER_6
 10
83.2367
 20
-200.5769
 42
0.15409176
  0
VERTEX
  8
LAYER_6
 10
83.6096
 20
-200.7387
 42
0.0379393479
  0
VERTEX
  8
LAYER_6
 10
84.1716
 20
-200.7667
 42
0.1384718939
  0
VERTEX
  8
LAYER_6
 10
84.8056
 20
-200.6242
 42
0.2607541519
  0
VERTEX
  8
LAYER_6
 10
84.9336
 20
-200.4311
  0
VERTEX
  8
LAYER_6
 10
84.9341
 20
-200.4189
  0
VERTEX
  8
LAYER_6
 10
84.9341
 20
-199.5189
 42
0.2274560957
  0
VERTEX
  8
LAYER_6
 10
84.5416
 20
-198.671
 42
0.4128358674
  0
VERTEX
  8
LAYER_6
 10
83.4265
 20
-198.7978
 42
0.1788728033
  0
SEQEND
  0
POLYLINE
  8
LAYER_6
 40
0.1764
 41
0.1764
 66
1
 10
0
 20
0
 30
0
  0
VERTEX
  8
LAYER_6
 10
87.801
 20
-199.5189
  0
VERTEX
  8
LAYER_6
 10
87.801
 20
-200.4189
  0
VERTEX
  8
LAYER_6
 10
87.801
 20
-200.7606
  0
SEQEND
  0
POLYLINE
  8
LAYER_6
 40
0.1764
 41
0.1764
 66
1
 10
0
 20
0
 30
0
  0
VERTEX
  8
LAYER_6
 10
82.801
 20
-199.5189
  0
VERTEX
  8
LAYER_6
 10
82.801
 20
-200.4189
  0
VERTEX
  8
LAYER_6
 10
82.801
 20
-200.4182
  0
VERTEX
  8
LAYER_6
 10
82.801
 20
-200.4183
  0
VERTEX
  8
LAYER_6
 10
82.801
 20
-200.7642
  0
SEQEND
  0
POLYLINE
  8
LAYER_6
 40
0.1764
 41
0.1764
 66
1
 10
0
 20
0
 30
0
  0
VERTEX
  8
LAYER_6
 10
83.2187
 20
-195.3989
  0
VERTEX
  8
LAYER_6
 10
87.3832
 20
-195.3989
  0
SEQEND
  0
POLYLINE
  8
LAYER_6
 40
0.1764
 41
0.1764
 66
1
 10
0
 20
0
 30
0
  0
VERTEX
  8
LAYER_6
 10
87.3832
 20
-195.0389
  0
VERTEX
  8
LAYER_6
 10
83.2187
 20
-195.0389
  0
SEQEND
  0
POLYLINE
  8
LAYER_6
 40
0.1764
 41
0.1764
 66
1
 10
0
 20
0
 30
0
 70
1
  0
VERTEX
  8
LAYER_6
 10
87.3832
 20
-195.3989
  0
VERTEX
  8
LAYER_6
 10
87.391
 20
-195.2189
  0
VERTEX
  8
LAYER_6
 10
87.3832
 20
-195.0389
 42
0.3891715732
  0
VERTEX
  8
LAYER_6
 10
85.301
 20
-193.1289
 42
0.3891831663
  0
VERTEX
  8
LAYER_6
 10
83.2187
 20
-195.0389
  0
VERTEX
  8
LAYER_6
 10
83.211
 20
-195.2189
  0
VERTEX
  8
LAYER_6
 10
83.2187
 20
-195.3989
 42
0.3891822152
  0
VERTEX
  8
LAYER_6
 10
85.301
 20
-197.3089
 42
0.3891706226
  0
SEQEND
  0
CIRCLE
  8
LAYER_6
 10
85.301
 20
-195.2189
 40
2.4
  0
CIRCLE
  8
LAYER_6
 10
85.301
 20
-195.2189
 40
2.3
  0
CIRCLE
  8
LAYER_6
 10
85.301
 20
-195.2189
 40
2.2
  0
CIRCLE
  8
LAYER_6
 10
85.301
 20
-195.2189
 40
2.1
  0
POLYLINE
  8
LAYER_6
 40
0.1764
 41
0.1764
 66
1
 10
0
 20
0
 30
0
  0
VERTEX
  8
LAYER_6
 10
83.401
 20
-196.7344
  0
VERTEX
  8
LAYER_6
 10
83.401
 20
-197.9189
  0
VERTEX
  8
LAYER_6
 10
84.6883
 20
-197.9189
  0
VERTEX
  8
LAYER_6
 10
85.9136
 20
-197.9189
  0
VERTEX
  8
LAYER_6
 10
87.201
 20
-197.9189
  0
VERTEX
  8
LAYER_6
 10
87.101
 20
-198.0189
  0
VERTEX
  8
LAYER_6
 10
83.501
 20
-198.0189
  0
VERTEX
  8
LAYER_6
 10
83.401
 20
-197.9189
  0
SEQEND
  0
POLYLINE
  8
LAYER_6
 40
0.1764
 41
0.1764
 66
1
 10
0
 20
0
 30
0
  0
VERTEX
  8
LAYER_6
 10
86.901
 20
-198.0189
  0
VERTEX
  8
LAYER_6
 10
86.901
 20
-198.2189
  0
SEQEND
  0
POLYLINE
  8
LAYER_6
 40
0.1764
 41
0.1764
 66
1
 10
0
 20
0
 30
0
  0
VERTEX
  8
LAYER_6
 10
83.701
 20
-198.0189
  0
VERTEX
  8
LAYER_6
 10
83.701
 20
-198.2189
  0
SEQEND
  0
POLYLINE
  8
LAYER_6
 40
0.1764
 41
0.1764
 66
1
 10
0
 20
0
 30
0
 70
1
  0
VERTEX
  8
LAYER_6
 10
87.6674
 20
-198.2189
  0
VERTEX
  8
LAYER_6
 10
87.801
 20
-198.4991
  0
VERTEX
  8
LAYER_6
 10
87.801
 20
-200.7653
 42
-0.1318820607
  0
VERTEX
  8
LAYER_6
 10
87.601
 20
-200.8189
  0
VERTEX
  8
LAYER_6
 10
84.151
 20
-200.8189
  0
VERTEX
  8
LAYER_6
 10
83.001
 20
-200.8189
 42
-0.1319393522
  0
VERTEX
  8
LAYER_6
 10
82.801
 20
-200.7653
  0
VERTEX
  8
LAYER_6
 10
82.801
 20
-198.4991
  0
VERTEX
  8
LAYER_6
 10
82.9345
 20
-198.2189
  0
VERTEX
  8
LAYER_6
 10
84.1177
 20
-198.2189
  0
SEQEND
  0
POLYLINE
  8
LAYER_6
  6
AIGENLINE001
 40
0.1764
 41
0.1764
 66
1
 10
0
 20
0
 30
0
 70
128
  0
VERTEX
  8
LAYER_6
 10
81.701
 20
-195.2189
  0
VERTEX
  8
LAYER_6
 10
88.901
 20
-195.2189
  0
SEQEND
  0
POLYLINE
  8
LAYER_6
 40
0.1764
 41
0.1764
 66
1
 10
0
 20
0
 30
0
  0
VERTEX
  8
LAYER_6
 10
89.081
 20
-196.0677
 42
-0.4000146747
  0
VERTEX
  8
LAYER_6
 10
89.249
 20
-196.0677
 42
0.1906938872
  0
VERTEX
  8
LAYER_6
 10
89.333
 20
-196.1013
 42
0.190284724
  0
VERTEX
  8
LAYER_6
 10
89.417
 20
-196.0677
 42
-0.1906938872
  0
VERTEX
  8
LAYER_6
 10
89.501
 20
-196.0341
 42
-0.190284724
  0
VERTEX
  8
LAYER_6
 10
89.585
 20
-196.0677
 42
0.1906938872
  0
VERTEX
  8
LAYER_6
 10
89.669
 20
-196.1013
 42
0.190284724
  0
VERTEX
  8
LAYER_6
 10
89.753
 20
-196.0677
 42
-0.1906938872
  0
VERTEX
  8
LAYER_6
 10
89.837
 20
-196.0341
 42
-0.190284724
  0
VERTEX
  8
LAYER_6
 10
89.921
 20
-196.0677
  0
SEQEND
  0
POLYLINE
  8
LAYER_6
 40
0.1764
 41
0.1764
 66
1
 10
0
 20
0
 30
0
  0
VERTEX
  8
LAYER_6
 10
89.081
 20
-196.9043
 42
-0.3998629242
  0
VERTEX
  8
LAYER_6
 10
89.249
 20
-196.9043
 42
0.1906938872
  0
VERTEX
  8
LAYER_6
 10
89.333
 20
-196.9379
 42
0.190284724
  0
VERTEX
  8
LAYER_6
 10
89.417
 20
-196.9043
 42
-0.1906938872
  0
VERTEX
  8
LAYER_6
 10
89.501
 20
-196.8707
 42
-0.190284724
  0
VERTEX
  8
LAYER_6
 10
89.585
 20
-196.9043
 42
0.1906938872
  0
VERTEX
  8
LAYER_6
 10
89.669
 20
-196.9379
 42
0.190284724
  0
VERTEX
  8
LAYER_6
 10
89.753
 20
-196.9043
 42
-0.1906938872
  0
VERTEX
  8
LAYER_6
 10
89.837
 20
-196.8707
 42
-0.190284724
  0
VERTEX
  8
LAYER_6
 10
89.921
 20
-196.9043
  0
SEQEND
  0
POLYLINE
  8
LAYER_6
 40
0.1764
 41
0.1764
 66
1
 10
0
 20
0
 30
0
  0
VERTEX
  8
LAYER_6
 10
106.4016
 20
-202.7876
  0
VERTEX
  8
LAYER_6
 10
105.8016
 20
-202.7876
  0
VERTEX
  8
LAYER_6
 10
105.8016
 20
-204.1876
  0
VERTEX
  8
LAYER_6
 10
106.4016
 20
-204.1876
  0
VERTEX
  8
LAYER_6
 10
106.4016
 20
-202.7876
  0
VERTEX
  8
LAYER_6
 10
106.4016
 20
-202.1876
  0
VERTEX
  8
LAYER_6
 10
106.4016
 20
-200.7876
  0
VERTEX
  8
LAYER_6
 10
105.8016
 20
-200.7876
  0
VERTEX
  8
LAYER_6
 10
105.8016
 20
-202.1876
  0
VERTEX
  8
LAYER_6
 10
106.4016
 20
-202.1876
  0
SEQEND
  0
POLYLINE
  8
LAYER_6
 40
0.1764
 41
0.1764
 66
1
 10
0
 20
0
 30
0
  0
VERTEX
  8
LAYER_6
 10
100.4016
 20
-202.7876
  0
VERTEX
  8
LAYER_6
 10
100.7016
 20
-202.7876
  0
SEQEND
  0
POLYLINE
  8
LAYER_6
 40
0.1764
 41
0.1764
 66
1
 10
0
 20
0
 30
0
  0
VERTEX
  8
LAYER_6
 10
100.7016
 20
-203.9876
  0
VERTEX
  8
LAYER_6
 10
100.4016
 20
-203.9876
  0
VERTEX
  8
LAYER_6
 10
100.4016
 20
-202.7876
  0
VERTEX
  8
LAYER_6
 10
100.4016
 20
-202.1876
  0
SEQEND
  0
POLYLINE
  8
LAYER_6
 40
0.1764
 41
0.1764
 66
1
 10
0
 20
0
 30
0
  0
VERTEX
  8
LAYER_6
 10
100.7016
 20
-202.0431
  0
VERTEX
  8
LAYER_6
 10
100.707
 20
-202.1876
  0
SEQEND
  0
POLYLINE
  8
LAYER_6
 40
0.1764
 41
0.1764
 66
1
 10
0
 20
0
 30
0
  0
VERTEX
  8
LAYER_6
 10
100.707
 20
-202.7876
  0
VERTEX
  8
LAYER_6
 10
100.7016
 20
-202.932
  0
SEQEND
  0
POLYLINE
  8
LAYER_6
 40
0.1764
 41
0.1764
 66
1
 10
0
 20
0
 30
0
  0
VERTEX
  8
LAYER_6
 10
100.7016
 20
-200.9876
  0
VERTEX
  8
LAYER_6
 10
101.0522
 20
-200.9876
 42
0.2450734422
  0
VERTEX
  8
LAYER_6
 10
101.6022
 20
-201.4823
  0
VERTEX
  8
LAYER_6
 10
101.8016
 20
-201.5076
  0
VERTEX
  8
LAYER_6
 10
103.0016
 20
-201.5076
 42
0.3129490421
  0
VERTEX
  8
LAYER_6
 10
103.751
 20
-200.9876
  0
VERTEX
  8
LAYER_6
 10
105.8016
 20
-200.9876
  0
SEQEND
  0
POLYLINE
  8
LAYER_6
 40
0.1764
 41
0.1764
 66
1
 10
0
 20
0
 30
0
 70
1
  0
VERTEX
  8
LAYER_6
 10
105.8016
 20
-202.7876
  0
VERTEX
  8
LAYER_6
 10
101.5103
 20
-202.7876
  0
VERTEX
  8
LAYER_6
 10
100.707
 20
-202.7876
  0
VERTEX
  8
LAYER_6
 10
100.707
 20
-202.1876
  0
VERTEX
  8
LAYER_6
 10
101.5103
 20
-202.1876
  0
VERTEX
  8
LAYER_6
 10
105.8016
 20
-202.1876
  0
SEQEND
  0
POLYLINE
  8
LAYER_6
 40
0.1764
 41
0.1764
 66
1
 10
0
 20
0
 30
0
  0
VERTEX
  8
LAYER_6
 10
100.7016
 20
-202.1876
  0
VERTEX
  8
LAYER_6
 10
100.4016
 20
-202.1876
  0
VERTEX
  8
LAYER_6
 10
100.4016
 20
-200.9876
  0
VERTEX
  8
LAYER_6
 10
100.7016
 20
-200.9876
  0
VERTEX
  8
LAYER_6
 10
100.7016
 20
-202.1876
  0
VERTEX
  8
LAYER_6
 10
100.7016
 20
-202.7876
  0
VERTEX
  8
LAYER_6
 10
100.7016
 20
-203.9876
  0
VERTEX
  8
LAYER_6
 10
101.0522
 20
-203.9876
 42
-0.2450890618
  0
VERTEX
  8
LAYER_6
 10
101.6022
 20
-203.4928
  0
VERTEX
  8
LAYER_6
 10
101.8016
 20
-203.4676
  0
VERTEX
  8
LAYER_6
 10
103.0016
 20
-203.4676
 42
-0.312972433
  0
VERTEX
  8
LAYER_6
 10
103.751
 20
-203.9876
  0
VERTEX
  8
LAYER_6
 10
105.8016
 20
-203.9876
  0
SEQEND
  0
POLYLINE
  8
LAYER_6
 40
0.1764
 41
0.1764
 66
1
 10
0
 20
0
 30
0
  0
VERTEX
  8
LAYER_6
 10
106.4016
 20
-203.1176
  0
VERTEX
  8
LAYER_6
 10
109.3782
 20
-203.1176
 42
0.172049794
  0
VERTEX
  8
LAYER_6
 10
109.6016
 20
-202.4876
 42
0.1720537513
  0
VERTEX
  8
LAYER_6
 10
109.3782
 20
-201.8576
  0
VERTEX
  8
LAYER_6
 10
106.4016
 20
-201.8576
  0
SEQEND
  0
CIRCLE
  8
LAYER_6
 10
108.6016
 20
-202.4876
 40
0.3
  0
POLYLINE
  8
LAYER_6
 40
0.1764
 41
0.1764
 66
1
 10
0
 20
0
 30
0
  0
VERTEX
  8
LAYER_6
 10
96.4016
 20
-202.4937
  0
VERTEX
  8
LAYER_6
 10
100.4016
 20
-202.5467
  0
SEQEND
  0
POLYLINE
  8
LAYER_6
 40
0.1764
 41
0.1764
 66
1
 10
0
 20
0
 30
0
  0
VERTEX
  8
LAYER_6
 10
100.4016
 20
-202.4285
  0
VERTEX
  8
LAYER_6
 10
96.4016
 20
-202.4815
  0
SEQEND
  0
POLYLINE
  8
LAYER_6
 40
0.1764
 41
0.1764
 66
1
 10
0
 20
0
 30
0
  0
VERTEX
  8
LAYER_6
 10
100.4016
 20
-201.5376
  0
VERTEX
  8
LAYER_6
 10
96.4016
 20
-201.8876
  0
VERTEX
  8
LAYER_6
 10
96.4016
 20
-202.4815
  0
VERTEX
  8
LAYER_6
 10
96.4016
 20
-202.4937
  0
VERTEX
  8
LAYER_6
 10
96.4016
 20
-203.0876
  0
VERTEX
  8
LAYER_6
 10
100.4016
 20
-203.4375
  0
SEQEND
  0
POLYLINE
  8
LAYER_6
 40
0.1764
 41
0.1764
 66
1
 10
0
 20
0
 30
0
  0
VERTEX
  8
LAYER_6
 10
89.921
 20
-196.9043
  0
VERTEX
  8
LAYER_6
 10
89.921
 20
-201.0676
 42
0.4142156054
  0
VERTEX
  8
LAYER_6
 10
90.921
 20
-202.0676
  0
VERTEX
  8
LAYER_6
 10
96.4016
 20
-202.0676
  0
SEQEND
  0
POLYLINE
  8
LAYER_6
 40
0.1764
 41
0.1764
 66
1
 10
0
 20
0
 30
0
  0
VERTEX
  8
LAYER_6
 10
96.4016
 20
-202.9076
  0
VERTEX
  8
LAYER_6
 10
90.921
 20
-202.9076
 42
-0.4142146731
  0
VERTEX
  8
LAYER_6
 10
89.081
 20
-201.0676
  0
VERTEX
  8
LAYER_6
 10
89.081
 20
-196.9043
  0
SEQEND
  0
POLYLINE
  8
LAYER_6
 40
0.1764
 41
0.1764
 66
1
 10
0
 20
0
 30
0
  0
VERTEX
  8
LAYER_6
 10
84.3272
 20
-166.5808
 42
0.07444944934
  0
VERTEX
  8
LAYER_6
 10
83.801
 20
-170.0955
  0
VERTEX
  8
LAYER_6
 10
83.801
 20
-172.0687
  0
VERTEX
  8
LAYER_6
 10
83.7764
 20
-172.0441
  0
SEQEND
  0
POLYLINE
  8
LAYER_6
 40
0.1764
 41
0.1764
 66
1
 10
0
 20
0
 30
0
  0
VERTEX
  8
LAYER_6
 10
84.3272
 20
-149.8814
 42
-0.4000627775
  0
VERTEX
  8
LAYER_6
 10
84.6872
 20
-149.8814
 42
0.1902091616
  0
VERTEX
  8
LAYER_6
 10
84.8672
 20
-149.9534
 42
0.1901934814
  0
VERTEX
  8
LAYER_6
 10
85.0472
 20
-149.8814
 42
-0.1905462348
  0
VERTEX
  8
LAYER_6
 10
85.2272
 20
-149.8094
 42
-0.1905489245
  0
VERTEX
  8
LAYER_6
 10
85.4072
 20
-149.8814
 42
0.1902091616
  0
VERTEX
  8
LAYER_6
 10
85.5872
 20
-149.9534
 42
0.1901934814
  0
VERTEX
  8
LAYER_6
 10
85.7672
 20
-149.8814
 42
-0.1905462348
  0
VERTEX
  8
LAYER_6
 10
85.9472
 20
-149.8094
 42
-0.1905489245
  0
VERTEX
  8
LAYER_6
 10
86.1272
 20
-149.8814
  0
SEQEND
  0
POLYLINE
  8
LAYER_6
 40
0.1764
 41
0.1764
 66
1
 10
0
 20
0
 30
0
  0
VERTEX
  8
LAYER_6
 10
84.3272
 20
-150.8814
 42
-0.4000627775
  0
VERTEX
  8
LAYER_6
 10
84.6872
 20
-150.8814
 42
0.1902091616
  0
VERTEX
  8
LAYER_6
 10
84.8672
 20
-150.9534
 42
0.1901934814
  0
VERTEX
  8
LAYER_6
 10
85.0472
 20
-150.8814
 42
-0.1905462348
  0
VERTEX
  8
LAYER_6
 10
85.2272
 20
-150.8094
 42
-0.1905489245
  0
VERTEX
  8
LAYER_6
 10
85.4072
 20
-150.8814
 42
0.1902091616
  0
VERTEX
  8
LAYER_6
 10
85.5872
 20
-150.9534
 42
0.1901934814
  0
VERTEX
  8
LAYER_6
 10
85.7672
 20
-150.8814
 42
-0.1905462348
  0
VERTEX
  8
LAYER_6
 10
85.9472
 20
-150.8094
 42
-0.1905489245
  0
VERTEX
  8
LAYER_6
 10
86.1272
 20
-150.8814
  0
SEQEND
  0
POLYLINE
  8
LAYER_6
 40
0.1764
 41
0.1764
 66
1
 10
0
 20
0
 30
0
  0
VERTEX
  8
LAYER_6
 10
172.1018
 20
-172.0921
  0
VERTEX
  8
LAYER_6
 10
172.054
 20
-172.1191
  0
VERTEX
  8
LAYER_6
 10
172.0629
 20
-172.127
  0
SEQEND
  0
POLYLINE
  8
LAYER_6
 40
0.1764
 41
0.1764
 66
1
 10
0
 20
0
 30
0
  0
VERTEX
  8
LAYER_6
 10
171.6969
 20
-172.5833
  0
VERTEX
  8
LAYER_6
 10
171.7487
 20
-172.5829
  0
SEQEND
  0
POLYLINE
  8
LAYER_6
 40
0.1764
 41
0.1764
 66
1
 10
0
 20
0
 30
0
  0
VERTEX
  8
LAYER_6
 10
177.7955
 20
-174.0094
  0
VERTEX
  8
LAYER_6
 10
177.7955
 20
-172.5344
  0
VERTEX
  8
LAYER_6
 10
177.7955
 20
-172.4344
  0
VERTEX
  8
LAYER_6
 10
177.7955
 20
-172.0344
  0
VERTEX
  8
LAYER_6
 10
177.2007
 20
-172.0396
  0
VERTEX
  8
LAYER_6
 10
174.3955
 20
-172.0641
  0
VERTEX
  8
LAYER_6
 10
172.8955
 20
-172.0772
  0
VERTEX
  8
LAYER_6
 10
172.1911
 20
-172.0833
 42
0.4116533088
  0
VERTEX
  8
LAYER_6
 10
171.6955
 20
-172.5833
  0
VERTEX
  8
LAYER_6
 10
171.6955
 20
-174.0627
  0
SEQEND
  0
POLYLINE
  8
LAYER_6
 40
0.1764
 41
0.1764
 66
1
 10
0
 20
0
 30
0
  0
VERTEX
  8
LAYER_6
 10
186.0548
 20
-173.9374
  0
VERTEX
  8
LAYER_6
 10
174.3955
 20
-174.0391
  0
VERTEX
  8
LAYER_6
 10
170.0911
 20
-174.0767
 42
0.4116724542
  0
VERTEX
  8
LAYER_6
 10
169.5955
 20
-174.5767
  0
VERTEX
  8
LAYER_6
 10
169.5955
 20
-191.5921
 42
0.4116687041
  0
VERTEX
  8
LAYER_6
 10
170.0911
 20
-192.0921
  0
VERTEX
  8
LAYER_6
 10
171.4955
 20
-192.1044
  0
VERTEX
  8
LAYER_6
 10
171.9955
 20
-192.1087
  0
SEQEND
  0
POLYLINE
  8
LAYER_6
 40
0.1764
 41
0.1764
 66
1
 10
0
 20
0
 30
0
  0
VERTEX
  8
LAYER_6
 10
186.3955
 20
-174.3344
  0
VERTEX
  8
LAYER_6
 10
186.3955
 20
-173.9344
  0
SEQEND
  0
POLYLINE
  8
LAYER_6
  6
AIGENLINE001
 40
0.1764
 41
0.1764
 66
1
 10
0
 20
0
 30
0
 70
128
  0
VERTEX
  8
LAYER_6
 10
169.7955
 20
-195.2144
  0
VERTEX
  8
LAYER_6
 10
180.5955
 20
-195.2144
  0
SEQEND
  0
POLYLINE
  8
LAYER_6
  6
AIGENLINE001
 40
0.1764
 41
0.1764
 66
1
 10
0
 20
0
 30
0
 70
128
  0
VERTEX
  8
LAYER_6
 10
178.0955
 20
-192.2144
  0
VERTEX
  8
LAYER_6
 10
178.0955
 20
-201.4144
  0
SEQEND
  0
POLYLINE
  8
LAYER_6
 40
0.1764
 41
0.1764
 66
1
 10
0
 20
0
 30
0
  0
VERTEX
  8
LAYER_6
 10
176.7955
 20
-192.4144
  0
VERTEX
  8
LAYER_6
 10
176.7955
 20
-192.1506
  0
SEQEND
  0
POLYLINE
  8
LAYER_6
 40
0.1764
 41
0.1764
 66
1
 10
0
 20
0
 30
0
  0
VERTEX
  8
LAYER_6
 10
171.5955
 20
-192.8144
  0
VERTEX
  8
LAYER_6
 10
170.4955
 20
-192.8144
  0
SEQEND
  0
POLYLINE
  8
LAYER_6
 40
0.1764
 41
0.1764
 66
1
 10
0
 20
0
 30
0
  0
VERTEX
  8
LAYER_6
 10
171.5977
 20
-192.8144
 42
0.4109037935
  0
VERTEX
  8
LAYER_6
 10
171.9955
 20
-192.4167
  0
SEQEND
  0
POLYLINE
  8
LAYER_6
 40
0.1764
 41
0.1764
 66
1
 10
0
 20
0
 30
0
  0
VERTEX
  8
LAYER_6
 10
176.7955
 20
-192.4167
 42
0.4108628708
  0
VERTEX
  8
LAYER_6
 10
177.1932
 20
-192.8144
  0
SEQEND
  0
POLYLINE
  8
LAYER_6
 40
0.1764
 41
0.1764
 66
1
 10
0
 20
0
 30
0
  0
VERTEX
  8
LAYER_6
 10
179.9955
 20
-197.9144
  0
VERTEX
  8
LAYER_6
 10
179.9955
 20
-195.2144
 42
0.414211286
  0
VERTEX
  8
LAYER_6
 10
177.5955
 20
-192.8144
  0
VERTEX
  8
LAYER_6
 10
177.1955
 20
-192.8144
  0
SEQEND
  0
POLYLINE
  8
LAYER_6
 40
0.1764
 41
0.1764
 66
1
 10
0
 20
0
 30
0
  0
VERTEX
  8
LAYER_6
 10
176.1954
 20
-197.9152
 42
0.3433814167
  0
VERTEX
  8
LAYER_6
 10
175.8101
 20
-197.6151
  0
VERTEX
  8
LAYER_6
 10
175.8083
 20
-197.6152
  0
VERTEX
  8
LAYER_6
 10
170.4955
 20
-197.6144
  0
SEQEND
  0
POLYLINE
  8
LAYER_6
 40
0.1764
 41
0.1764
 66
1
 10
0
 20
0
 30
0
 70
1
  0
VERTEX
  8
LAYER_6
 10
170.3955
 20
-192.9144
  0
VERTEX
  8
LAYER_6
 10
170.3955
 20
-197.5144
  0
VERTEX
  8
LAYER_6
 10
170.4955
 20
-197.6144
  0
VERTEX
  8
LAYER_6
 10
170.4955
 20
-192.8144
  0
SEQEND
  0
POLYLINE
  8
LAYER_6
 40
0.1764
 41
0.1764
 66
1
 10
0
 20
0
 30
0
 70
1
  0
VERTEX
  8
LAYER_6
 10
176.2955
 20
-198.0144
  0
VERTEX
  8
LAYER_6
 10
178.0955
 20
-198.0144
  0
VERTEX
  8
LAYER_6
 10
179.8955
 20
-198.0144
  0
VERTEX
  8
LAYER_6
 10
179.9955
 20
-197.9144
  0
VERTEX
  8
LAYER_6
 10
176.297
 20
-197.9144
  0
VERTEX
  8
LAYER_6
 10
176.1955
 20
-197.9144
  0
SEQEND
  0
POLYLINE
  8
LAYER_6
 40
0.1764
 41
0.1764
 66
1
 10
0
 20
0
 30
0
  0
VERTEX
  8
LAYER_6
 10
171.9955
 20
-192.8144
  0
VERTEX
  8
LAYER_6
 10
174.3955
 20
-195.2144
  0
VERTEX
  8
LAYER_6
 10
176.7955
 20
-192.8144
  0
SEQEND
  0
POLYLINE
  8
LAYER_6
 40
0.1764
 41
0.1764
 66
1
 10
0
 20
0
 30
0
  0
VERTEX
  8
LAYER_6
 10
179.9955
 20
-195.2144
  0
VERTEX
  8
LAYER_6
 10
179.9955
 20
-195.2147
 42
-0.1756640107
  0
VERTEX
  8
LAYER_6
 10
179.8496
 20
-195.599
 42
-0.08883946558
  0
VERTEX
  8
LAYER_6
 10
179.5253
 20
-195.9012
 42
-0.05843477019
  0
VERTEX
  8
LAYER_6
 10
178.6316
 20
-196.3826
 42
-0.02358125235
  0
VERTEX
  8
LAYER_6
 10
177.5955
 20
-196.7636
 42
0.05019231316
  0
VERTEX
  8
LAYER_6
 10
177.1981
 20
-196.9312
 42
0.04030289547
  0
VERTEX
  8
LAYER_6
 10
176.1966
 20
-197.6135
  0
SEQEND
  0
POLYLINE
  8
LAYER_6
 40
0.1764
 41
0.1764
 66
1
 10
0
 20
0
 30
0
  0
VERTEX
  8
LAYER_6
 10
170.3955
 20
-197.3044
  0
VERTEX
  8
LAYER_6
 10
170.1409
 20
-197.3044
 42
-0.06646537272
  0
VERTEX
  8
LAYER_6
 10
169.8377
 20
-195.3944
  0
VERTEX
  8
LAYER_6
 10
170.3955
 20
-195.3944
  0
SEQEND
  0
POLYLINE
  8
LAYER_6
 40
0.1764
 41
0.1764
 66
1
 10
0
 20
0
 30
0
  0
VERTEX
  8
LAYER_6
 10
170.3955
 20
-193.1244
  0
VERTEX
  8
LAYER_6
 10
170.1409
 20
-193.1244
 42
0.06646538239
  0
VERTEX
  8
LAYER_6
 10
169.8377
 20
-195.0344
  0
VERTEX
  8
LAYER_6
 10
170.3955
 20
-195.0344
  0
SEQEND
  0
POLYLINE
  8
LAYER_6
 40
0.1905
 41
0.1905
 66
1
 10
0
 20
0
 30
0
  0
VERTEX
  8
LAYER_6
 10
180.7704
 20
-199.5144
 42
0.1229429319
  0
VERTEX
  8
LAYER_6
 10
180.6033
 20
-198.8061
 42
0.09608640473
  0
VERTEX
  8
LAYER_6
 10
180.4532
 20
-198.6282
 42
0.1637991511
  0
VERTEX
  8
LAYER_6
 10
180.2605
 20
-198.5575
 42
0.1412753722
  0
VERTEX
  8
LAYER_6
 10
180.097
 20
-198.6078
 42
0.09590347644
  0
VERTEX
  8
LAYER_6
 10
179.9554
 20
-198.7476
 42
0.06998884009
  0
VERTEX
  8
LAYER_6
 10
179.8343
 20
-198.989
 42
0.08527772196
  0
VERTEX
  8
LAYER_6
 10
179.7506
 20
-199.5144
  0
SEQEND
  0
POLYLINE
  8
LAYER_6
 40
0.2399
 41
0.2399
 66
1
 10
0
 20
0
 30
0
  0
VERTEX
  8
LAYER_6
 10
178.0955
 20
-200.4713
 42
0.2838068332
  0
VERTEX
  8
LAYER_6
 10
179.0399
 20
-199.8761
 42
0.1029526626
  0
VERTEX
  8
LAYER_6
 10
179.1153
 20
-199.5144
  0
SEQEND
  0
POLYLINE
  8
LAYER_6
 40
0.2469
 41
0.2469
 66
1
 10
0
 20
0
 30
0
  0
VERTEX
  8
LAYER_6
 10
179.7506
 20
-199.5144
  0
VERTEX
  8
LAYER_6
 10
179.7506
 20
-200.2917
 42
0.4141042674
  0
VERTEX
  8
LAYER_6
 10
179.9506
 20
-200.4917
  0
VERTEX
  8
LAYER_6
 10
180.5704
 20
-200.4917
 42
0.4142252829
  0
VERTEX
  8
LAYER_6
 10
180.7704
 20
-200.2917
  0
VERTEX
  8
LAYER_6
 10
180.7704
 20
-199.5144
  0
SEQEND
  0
POLYLINE
  8
LAYER_6
 40
0.1764
 41
0.1764
 66
1
 10
0
 20
0
 30
0
  0
VERTEX
  8
LAYER_6
 10
179.6955
 20
-198.0144
  0
VERTEX
  8
LAYER_6
 10
179.6955
 20
-198.2144
  0
SEQEND
  0
POLYLINE
  8
LAYER_6
 40
0.1764
 41
0.1764
 66
1
 10
0
 20
0
 30
0
  0
VERTEX
  8
LAYER_6
 10
176.4955
 20
-198.0144
  0
VERTEX
  8
LAYER_6
 10
176.4955
 20
-198.2144
  0
SEQEND
  0
POLYLINE
  8
LAYER_6
 40
0.1764
 41
0.1764
 66
1
 10
0
 20
0
 30
0
  0
VERTEX
  8
LAYER_6
 10
171.7469
 20
-174.0622
  0
VERTEX
  8
LAYER_6
 10
171.7469
 20
-172.5914
  0
VERTEX
  8
LAYER_6
 10
171.7467
 20
-172.5805
 42
-0.3030582437
  0
VERTEX
  8
LAYER_6
 10
172.0549
 20
-172.1187
  0
SEQEND
  0
POLYLINE
  8
LAYER_6
 40
0.2469
 41
0.2469
 66
1
 10
0
 20
0
 30
0
  0
VERTEX
  8
LAYER_6
 10
175.7263
 20
-198.2144
  0
VERTEX
  8
LAYER_6
 10
178.0955
 20
-198.2144
  0
VERTEX
  8
LAYER_6
 10
180.4646
 20
-198.2144
  0
SEQEND
  0
POLYLINE
  8
LAYER_6
 40
0.2469
 41
0.2469
 66
1
 10
0
 20
0
 30
0
  0
VERTEX
  8
LAYER_6
 10
175.7613
 20
-198.2144
 42
0.131651935
  0
VERTEX
  8
LAYER_6
 10
175.413
 20
-199.5144
  0
VERTEX
  8
LAYER_6
 10
175.413
 20
-200.4144
 42
0.4142267803
  0
VERTEX
  8
LAYER_6
 10
175.813
 20
-200.8144
  0
VERTEX
  8
LAYER_6
 10
178.0955
 20
-200.8144
  0
VERTEX
  8
LAYER_6
 10
180.378
 20
-200.8144
 42
0.4141943919
  0
VERTEX
  8
LAYER_6
 10
180.778
 20
-200.4144
  0
VERTEX
  8
LAYER_6
 10
180.778
 20
-199.5144
 42
0.1316546625
  0
VERTEX
  8
LAYER_6
 10
180.4296
 20
-198.2144
  0
SEQEND
  0
POLYLINE
  8
LAYER_6
 40
0.1905
 41
0.1905
 66
1
 10
0
 20
0
 30
0
  0
VERTEX
  8
LAYER_6
 10
176.4403
 20
-199.5144
 42
0.1229429319
  0
VERTEX
  8
LAYER_6
 10
176.2732
 20
-198.8061
 42
0.09608640473
  0
VERTEX
  8
LAYER_6
 10
176.1231
 20
-198.6282
 42
0.1637991511
  0
VERTEX
  8
LAYER_6
 10
175.9304
 20
-198.5575
 42
0.1412753722
  0
VERTEX
  8
LAYER_6
 10
175.7669
 20
-198.6078
 42
0.09590347644
  0
VERTEX
  8
LAYER_6
 10
175.6253
 20
-198.7476
 42
0.06998884009
  0
VERTEX
  8
LAYER_6
 10
175.5042
 20
-198.989
 42
0.08527772196
  0
VERTEX
  8
LAYER_6
 10
175.4205
 20
-199.5144
  0
SEQEND
  0
POLYLINE
  8
LAYER_6
 40
0.2399
 41
0.2399
 66
1
 10
0
 20
0
 30
0
  0
VERTEX
  8
LAYER_6
 10
178.0955
 20
-198.5575
 42
0.2838068332
  0
VERTEX
  8
LAYER_6
 10
177.1511
 20
-199.1527
 42
0.1029526628
  0
VERTEX
  8
LAYER_6
 10
177.0757
 20
-199.5144
  0
SEQEND
  0
POLYLINE
  8
LAYER_6
 40
0.2469
 41
0.2469
 66
1
 10
0
 20
0
 30
0
  0
VERTEX
  8
LAYER_6
 10
176.4403
 20
-199.5144
  0
VERTEX
  8
LAYER_6
 10
176.4403
 20
-200.2917
 42
-0.4141859031
  0
VERTEX
  8
LAYER_6
 10
176.2403
 20
-200.4917
  0
VERTEX
  8
LAYER_6
 10
175.6205
 20
-200.4917
 42
-0.4141436454
  0
VERTEX
  8
LAYER_6
 10
175.4205
 20
-200.2917
  0
VERTEX
  8
LAYER_6
 10
175.4205
 20
-199.5144
  0
SEQEND
  0
POLYLINE
  8
LAYER_6
 40
0.2469
 41
0.2469
 66
1
 10
0
 20
0
 30
0
  0
VERTEX
  8
LAYER_6
 10
177.0757
 20
-199.5144
  0
VERTEX
  8
LAYER_6
 10
177.0757
 20
-200.2917
 42
0.4142000056
  0
VERTEX
  8
LAYER_6
 10
177.2757
 20
-200.4917
  0
VERTEX
  8
LAYER_6
 10
178.0955
 20
-200.4917
  0
VERTEX
  8
LAYER_6
 10
178.9153
 20
-200.4917
 42
0.4141352522
  0
VERTEX
  8
LAYER_6
 10
179.1153
 20
-200.2917
  0
VERTEX
  8
LAYER_6
 10
179.1153
 20
-199.5144
  0
SEQEND
  0
POLYLINE
  8
LAYER_6
 40
0.1764
 41
0.1764
 66
1
 10
0
 20
0
 30
0
  0
VERTEX
  8
LAYER_6
 10
173.4955
 20
-149.8769
 42
-0.400062778
  0
VERTEX
  8
LAYER_6
 10
173.8555
 20
-149.8769
 42
0.1902091616
  0
VERTEX
  8
LAYER_6
 10
174.0355
 20
-149.9489
 42
0.1901934814
  0
VERTEX
  8
LAYER_6
 10
174.2155
 20
-149.8769
 42
-0.1905462348
  0
VERTEX
  8
LAYER_6
 10
174.3955
 20
-149.8049
 42
-0.1905489245
  0
VERTEX
  8
LAYER_6
 10
174.5755
 20
-149.8769
 42
0.1902091616
  0
VERTEX
  8
LAYER_6
 10
174.7555
 20
-149.9489
 42
0.1901934814
  0
VERTEX
  8
LAYER_6
 10
174.9355
 20
-149.8769
 42
-0.1905462348
  0
VERTEX
  8
LAYER_6
 10
175.1155
 20
-149.8049
 42
-0.1905489245
  0
VERTEX
  8
LAYER_6
 10
175.2955
 20
-149.8769
  0
SEQEND
  0
POLYLINE
  8
LAYER_6
 40
0.1764
 41
0.1764
 66
1
 10
0
 20
0
 30
0
  0
VERTEX
  8
LAYER_6
 10
173.4955
 20
-150.8769
 42
-0.400062778
  0
VERTEX
  8
LAYER_6
 10
173.8555
 20
-150.8769
 42
0.1902091616
  0
VERTEX
  8
LAYER_6
 10
174.0355
 20
-150.9489
 42
0.1901934814
  0
VERTEX
  8
LAYER_6
 10
174.2155
 20
-150.8769
 42
-0.1905462348
  0
VERTEX
  8
LAYER_6
 10
174.3955
 20
-150.8049
 42
-0.1905489245
  0
VERTEX
  8
LAYER_6
 10
174.5755
 20
-150.8769
 42
0.1902091616
  0
VERTEX
  8
LAYER_6
 10
174.7555
 20
-150.9489
 42
0.1901934814
  0
VERTEX
  8
LAYER_6
 10
174.9355
 20
-150.8769
 42
-0.1905462348
  0
VERTEX
  8
LAYER_6
 10
175.1155
 20
-150.8049
 42
-0.1905489245
  0
VERTEX
  8
LAYER_6
 10
175.2955
 20
-150.8769
  0
SEQEND
  0
POLYLINE
  8
LAYER_6
  6
AIGENLINE001
 40
0.1764
 41
0.1764
 66
1
 10
0
 20
0
 30
0
 70
128
  0
VERTEX
  8
LAYER_6
 10
174.3955
 20
-129.6118
  0
VERTEX
  8
LAYER_6
 10
174.3955
 20
-200.6144
  0
SEQEND
  0
POLYLINE
  8
LAYER_6
 40
0.1764
 41
0.1764
 66
1
 10
0
 20
0
 30
0
  0
VERTEX
  8
LAYER_6
 10
182.3955
 20
-150.9933
  0
VERTEX
  8
LAYER_6
 10
182.3955
 20
-173.9693
  0
SEQEND
  0
POLYLINE
  8
LAYER_6
 40
0.1764
 41
0.1764
 66
1
 10
0
 20
0
 30
0
  0
VERTEX
  8
LAYER_6
 10
183.3955
 20
-173.9606
  0
VERTEX
  8
LAYER_6
 10
183.3955
 20
-150.9933
  0
SEQEND
  0
POLYLINE
  8
LAYER_6
 40
0.1764
 41
0.1764
 66
1
 10
0
 20
0
 30
0
  0
VERTEX
  8
LAYER_6
 10
185.999
 20
-173.9379
  0
VERTEX
  8
LAYER_6
 10
186.3955
 20
-173.9344
  0
VERTEX
  8
LAYER_6
 10
186.3955
 20
-174.3344
  0
VERTEX
  8
LAYER_6
 10
186.3955
 20
-174.4344
  0
VERTEX
  8
LAYER_6
 10
186.3955
 20
-191.7344
  0
VERTEX
  8
LAYER_6
 10
186.3955
 20
-191.8344
  0
VERTEX
  8
LAYER_6
 10
186.3955
 20
-192.2344
  0
VERTEX
  8
LAYER_6
 10
185.8007
 20
-192.2292
  0
VERTEX
  8
LAYER_6
 10
171.9955
 20
-192.1087
  0
VERTEX
  8
LAYER_6
 10
171.9955
 20
-192.4144
  0
SEQEND
  0
POLYLINE
  8
LAYER_6
 40
0.1764
 41
0.1764
 66
1
 10
0
 20
0
 30
0
  0
VERTEX
  8
LAYER_6
 10
182.3955
 20
-150.9933
 42
-0.3998736197
  0
VERTEX
  8
LAYER_6
 10
182.5955
 20
-150.9933
 42
0.1908568911
  0
VERTEX
  8
LAYER_6
 10
182.6955
 20
-151.0333
 42
0.1912051862
  0
VERTEX
  8
LAYER_6
 10
182.7955
 20
-150.9933
 42
-0.1904588845
  0
VERTEX
  8
LAYER_6
 10
182.8955
 20
-150.9533
 42
-0.1903993085
  0
VERTEX
  8
LAYER_6
 10
182.9955
 20
-150.9933
 42
0.1908568911
  0
VERTEX
  8
LAYER_6
 10
183.0955
 20
-151.0333
 42
0.1912051862
  0
VERTEX
  8
LAYER_6
 10
183.1955
 20
-150.9933
 42
-0.1904588845
  0
VERTEX
  8
LAYER_6
 10
183.2955
 20
-150.9533
 42
-0.1903993085
  0
VERTEX
  8
LAYER_6
 10
183.3955
 20
-150.9933
  0
SEQEND
  0
POLYLINE
  8
LAYER_6
 40
0.1764
 41
0.1764
 66
1
 10
0
 20
0
 30
0
  0
VERTEX
  8
LAYER_6
 10
182.3955
 20
-150.3424
 42
-0.4001114895
  0
VERTEX
  8
LAYER_6
 10
182.5955
 20
-150.3424
 42
0.1904588845
  0
VERTEX
  8
LAYER_6
 10
182.6955
 20
-150.3824
 42
0.1903993085
  0
VERTEX
  8
LAYER_6
 10
182.7955
 20
-150.3424
 42
-0.1908568911
  0
VERTEX
  8
LAYER_6
 10
182.8955
 20
-150.3024
 42
-0.1912051862
  0
VERTEX
  8
LAYER_6
 10
182.9955
 20
-150.3424
 42
0.1904588845
  0
VERTEX
  8
LAYER_6
 10
183.0955
 20
-150.3824
 42
0.1903993085
  0
VERTEX
  8
LAYER_6
 10
183.1955
 20
-150.3424
 42
-0.1908568911
  0
VERTEX
  8
LAYER_6
 10
183.2955
 20
-150.3024
 42
-0.1912051862
  0
VERTEX
  8
LAYER_6
 10
183.3955
 20
-150.3424
  0
SEQEND
  0
POLYLINE
  8
LAYER_6
 40
0.1764
 41
0.1764
 66
1
 10
0
 20
0
 30
0
  0
VERTEX
  8
LAYER_6
 10
192.4277
 20
-152.0381
  0
VERTEX
  8
LAYER_6
 10
192.4277
 20
-150.0981
 42
0.3923136174
  0
VERTEX
  8
LAYER_6
 10
192.3677
 20
-150.0381
 42
0.3928373508
  0
VERTEX
  8
LAYER_6
 10
192.3077
 20
-150.0981
  0
VERTEX
  8
LAYER_6
 10
192.3077
 20
-152.0381
  0
SEQEND
  0
POLYLINE
  8
LAYER_6
 40
0.1764
 41
0.1764
 66
1
 10
0
 20
0
 30
0
  0
VERTEX
  8
LAYER_6
 10
193.3077
 20
-152.0381
  0
VERTEX
  8
LAYER_6
 10
193.3077
 20
-150.0981
 42
0.3923136174
  0
VERTEX
  8
LAYER_6
 10
193.2477
 20
-150.0381
 42
0.3928373508
  0
VERTEX
  8
LAYER_6
 10
193.1877
 20
-150.0981
  0
VERTEX
  8
LAYER_6
 10
193.1877
 20
-152.0381
  0
SEQEND
  0
POLYLINE
  8
LAYER_6
 40
0.1764
 41
0.1764
 66
1
 10
0
 20
0
 30
0
  0
VERTEX
  8
LAYER_6
 10
192.5077
 20
-150.5381
  0
VERTEX
  8
LAYER_6
 10
193.1077
 20
-150.5381
  0
SEQEND
  0
POLYLINE
  8
LAYER_6
 40
0.1764
 41
0.1764
 66
1
 10
0
 20
0
 30
0
  0
VERTEX
  8
LAYER_6
 10
192.5077
 20
-150.3981
  0
VERTEX
  8
LAYER_6
 10
193.1077
 20
-150.3981
  0
SEQEND
  0
POLYLINE
  8
LAYER_6
 40
0.1764
 41
0.1764
 66
1
 10
0
 20
0
 30
0
 70
1
  0
VERTEX
  8
LAYER_6
 10
191.8377
 20
-152.0381
 42
-0.4142384001
  0
VERTEX
  8
LAYER_6
 10
191.7377
 20
-151.9381
  0
VERTEX
  8
LAYER_6
 10
191.7377
 20
-151.2781
 42
-0.4143015703
  0
VERTEX
  8
LAYER_6
 10
191.8377
 20
-151.1781
  0
VERTEX
  8
LAYER_6
 10
191.9377
 20
-151.1781
  0
VERTEX
  8
LAYER_6
 10
191.9377
 20
-148.8381
 42
-0.4143015704
  0
VERTEX
  8
LAYER_6
 10
192.0377
 20
-148.7381
  0
VERTEX
  8
LAYER_6
 10
193.5777
 20
-148.7381
 42
-0.4141887006
  0
VERTEX
  8
LAYER_6
 10
193.6777
 20
-148.8381
  0
VERTEX
  8
LAYER_6
 10
193.6777
 20
-151.1781
  0
VERTEX
  8
LAYER_6
 10
193.7777
 20
-151.1781
 42
-0.4141887006
  0
VERTEX
  8
LAYER_6
 10
193.8777
 20
-151.2781
  0
VERTEX
  8
LAYER_6
 10
193.8777
 20
-151.9381
 42
-0.4141255845
  0
VERTEX
  8
LAYER_6
 10
193.7777
 20
-152.0381
  0
SEQEND
  0
POLYLINE
  8
LAYER_6
 40
0.1764
 41
0.1764
 66
1
 10
0
 20
0
 30
0
  0
VERTEX
  8
LAYER_6
 10
192.3085
 20
-158.0138
  0
VERTEX
  8
LAYER_6
 10
192.5077
 20
-152.0381
  0
VERTEX
  8
LAYER_6
 10
192.5077
 20
-150.1381
  0
VERTEX
  8
LAYER_6
 10
193.1077
 20
-150.1381
  0
VERTEX
  8
LAYER_6
 10
193.1077
 20
-152.0381
  0
VERTEX
  8
LAYER_6
 10
193.3069
 20
-158.0138
  0
SEQEND
  0
POLYLINE
  8
LAYER_6
 40
0.1764
 41
0.1764
 66
1
 10
0
 20
0
 30
0
  0
VERTEX
  8
LAYER_6
 10
193.3058
 20
-157.9806
  0
VERTEX
  8
LAYER_6
 10
193.3058
 20
-158.7969
  0
SEQEND
  0
POLYLINE
  8
LAYER_6
 40
0.1764
 41
0.1764
 66
1
 10
0
 20
0
 30
0
  0
VERTEX
  8
LAYER_6
 10
192.3085
 20
-157.6935
  0
VERTEX
  8
LAYER_6
 10
192.3085
 20
-158.6925
 42
-0.4141971144
  0
VERTEX
  8
LAYER_6
 10
191.3085
 20
-159.6925
  0
VERTEX
  8
LAYER_6
 10
189.7884
 20
-159.6925
 42
-0.4142118737
  0
VERTEX
  8
LAYER_6
 10
188.7884
 20
-158.6925
  0
VERTEX
  8
LAYER_6
 10
188.7884
 20
-150.0923
 42
0.4142125063
  0
VERTEX
  8
LAYER_6
 10
186.7884
 20
-148.0923
  0
VERTEX
  8
LAYER_6
 10
184.3955
 20
-148.0923
 42
0.41422164
  0
VERTEX
  8
LAYER_6
 10
182.3955
 20
-150.0923
  0
VERTEX
  8
LAYER_6
 10
182.3955
 20
-150.3424
  0
SEQEND
  0
POLYLINE
  8
LAYER_6
 40
0.1764
 41
0.1764
 66
1
 10
0
 20
0
 30
0
  0
VERTEX
  8
LAYER_6
 10
193.3085
 20
-158.6925
 42
-0.4142053383
  0
VERTEX
  8
LAYER_6
 10
191.3085
 20
-160.6925
  0
VERTEX
  8
LAYER_6
 10
189.7868
 20
-160.6925
 42
-0.4142018168
  0
VERTEX
  8
LAYER_6
 10
187.7884
 20
-158.6925
  0
VERTEX
  8
LAYER_6
 10
187.7884
 20
-150.0923
 42
0.4142114499
  0
VERTEX
  8
LAYER_6
 10
186.7884
 20
-149.0923
  0
VERTEX
  8
LAYER_6
 10
184.3955
 20
-149.0923
 42
0.4142297177
  0
VERTEX
  8
LAYER_6
 10
183.3955
 20
-150.0923
  0
VERTEX
  8
LAYER_6
 10
183.3955
 20
-150.3424
  0
SEQEND
  0
POLYLINE
  8
LAYER_6
 40
0.1764
 41
0.1764
 66
1
 10
0
 20
0
 30
0
  0
VERTEX
  8
LAYER_6
 10
193.3077
 20
-142.431
  0
VERTEX
  8
LAYER_6
 10
193.3077
 20
-134.6718
 42
0.4142080893
  0
VERTEX
  8
LAYER_6
 10
191.3077
 20
-132.6718
  0
VERTEX
  8
LAYER_6
 10
182.8555
 20
-132.6718
  0
SEQEND
  0
POLYLINE
  8
LAYER_6
 40
0.1764
 41
0.1764
 66
1
 10
0
 20
0
 30
0
  0
VERTEX
  8
LAYER_6
 10
192.3077
 20
-142.431
  0
VERTEX
  8
LAYER_6
 10
192.3077
 20
-134.6718
 42
0.4142026165
  0
VERTEX
  8
LAYER_6
 10
191.3077
 20
-133.6718
  0
VERTEX
  8
LAYER_6
 10
182.8555
 20
-133.6718
  0
SEQEND
  0
POLYLINE
  8
LAYER_6
 40
0.1764
 41
0.1764
 66
1
 10
0
 20
0
 30
0
  0
VERTEX
  8
LAYER_6
 10
87.841
 20
-27.4719
  0
VERTEX
  8
LAYER_6
 10
87.841
 20
2.2899
 42
0.4142031548
  0
VERTEX
  8
LAYER_6
 10
85.301
 20
4.8299
 42
0.4142126881
  0
VERTEX
  8
LAYER_6
 10
82.761
 20
2.2899
  0
VERTEX
  8
LAYER_6
 10
82.761
 20
-27.4718
  0
SEQEND
  0
POLYLINE
  8
LAYER_6
  6
AIGENLINE001
 40
0.1764
 41
0.1764
 66
1
 10
0
 20
0
 30
0
 70
128
  0
VERTEX
  8
LAYER_6
 10
79.761
 20
2.2899
  0
VERTEX
  8
LAYER_6
 10
90.841
 20
2.2899
  0
SEQEND
  0
POLYLINE
  8
LAYER_6
  6
AIGENLINE001
 40
0.1764
 41
0.1764
 66
1
 10
0
 20
0
 30
0
 70
128
  0
VERTEX
  8
LAYER_6
 10
79.761
 20
-27.3101
  0
VERTEX
  8
LAYER_6
 10
90.841
 20
-27.3101
  0
SEQEND
  0
POLYLINE
  8
LAYER_6
  6
AIGENLINE001
 40
0.1764
 41
0.1764
 66
1
 10
0
 20
0
 30
0
 70
128
  0
VERTEX
  8
LAYER_6
 10
85.301
 20
7.8299
  0
VERTEX
  8
LAYER_6
 10
85.301
 20
-30.3101
  0
SEQEND
  0
POLYLINE
  8
LAYER_6
 40
0.1764
 41
0.1764
 66
1
 10
0
 20
0
 30
0
  0
VERTEX
  8
LAYER_6
 10
87.841
 20
-0.6696
 42
0.2187751289
  0
VERTEX
  8
LAYER_6
 10
89.201
 20
2.2899
 42
0.4142067841
  0
VERTEX
  8
LAYER_6
 10
85.301
 20
6.1899
 42
0.414212993
  0
VERTEX
  8
LAYER_6
 10
81.401
 20
2.2899
 42
0.2187793434
  0
VERTEX
  8
LAYER_6
 10
82.761
 20
-0.6696
  0
SEQEND
  0
POLYLINE
  8
LAYER_6
 40
0.1764
 41
0.1764
 66
1
 10
0
 20
0
 30
0
  0
VERTEX
  8
LAYER_6
 10
82.761
 20
-27.4718
 42
0.1704396655
  0
VERTEX
  8
LAYER_6
 10
83.1448
 20
-28.5445
 42
0.09421906855
  0
VERTEX
  8
LAYER_6
 10
83.7813
 20
-29.0974
 42
0.08492215981
  0
VERTEX
  8
LAYER_6
 10
84.6662
 20
-29.4365
 42
0.0507543539
  0
VERTEX
  8
LAYER_6
 10
85.301
 20
-29.5004
 42
0.08591061258
  0
VERTEX
  8
LAYER_6
 10
86.3463
 20
-29.3212
 42
0.08597740633
  0
VERTEX
  8
LAYER_6
 10
87.1396
 20
-28.8714
 42
0.09800844584
  0
VERTEX
  8
LAYER_6
 10
87.6533
 20
-28.2386
 42
0.117715235
  0
VERTEX
  8
LAYER_6
 10
87.841
 20
-27.4718
  0
SEQEND
  0
POLYLINE
  8
LAYER_6
 40
0.1764
 41
0.1764
 66
1
 10
0
 20
0
 30
0
 70
1
  0
VERTEX
  8
LAYER_6
 10
174.9955
 20
-119.5718
  0
VERTEX
  8
LAYER_6
 10
171.1555
 20
-119.5718
  0
VERTEX
  8
LAYER_6
 10
171.0955
 20
-119.5118
  0
VERTEX
  8
LAYER_6
 10
174.9955
 20
-119.5118
  0
VERTEX
  8
LAYER_6
 10
178.8955
 20
-119.5118
  0
VERTEX
  8
LAYER_6
 10
178.8355
 20
-119.5718
  0
SEQEND
  0
POLYLINE
  8
LAYER_6
 40
0.1764
 41
0.1764
 66
1
 10
0
 20
0
 30
0
  0
VERTEX
  8
LAYER_6
 10
173.7675
 20
-128.6718
  0
VERTEX
  8
LAYER_6
 10
173.7675
 20
-128.8718
  0
VERTEX
  8
LAYER_6
 10
174.9955
 20
-128.8718
  0
VERTEX
  8
LAYER_6
 10
176.6955
 20
-128.8718
  0
VERTEX
  8
LAYER_6
 10
176.6955
 20
-128.6718
  0
SEQEND
  0
POLYLINE
  8
LAYER_6
 40
0.1764
 41
0.1764
 66
1
 10
0
 20
0
 30
0
  0
VERTEX
  8
LAYER_6
 10
175.5955
 20
-128.8718
  0
VERTEX
  8
LAYER_6
 10
175.5955
 20
-129.6118
 42
-0.3928373506
  0
VERTEX
  8
LAYER_6
 10
175.5355
 20
-129.6718
  0
VERTEX
  8
LAYER_6
 10
174.4555
 20
-129.6718
 42
-0.3933760272
  0
VERTEX
  8
LAYER_6
 10
174.3955
 20
-129.6118
  0
VERTEX
  8
LAYER_6
 10
174.3955
 20
-128.8718
  0
SEQEND
  0
POLYLINE
  8
LAYER_6
 40
0.1764
 41
0.1764
 66
1
 10
0
 20
0
 30
0
  0
VERTEX
  8
LAYER_6
 10
148.2809
 20
-80.391
  0
VERTEX
  8
LAYER_6
 10
148.2809
 20
-82.217
  0
SEQEND
  0
POLYLINE
  8
LAYER_6
  6
AIGENLINE001
 40
0.1764
 41
0.1764
 66
1
 10
0
 20
0
 30
0
 70
128
  0
VERTEX
  8
LAYER_6
 10
148.0696
 20
-80.8441
  0
VERTEX
  8
LAYER_6
 10
148.4922
 20
-79.9378
  0
SEQEND
  0
POLYLINE
  8
LAYER_6
 40
0.1764
 41
0.1764
 66
1
 10
0
 20
0
 30
0
  0
VERTEX
  8
LAYER_6
 10
178.7955
 20
-117.5721
  0
VERTEX
  8
LAYER_6
 10
174.9955
 20
-117.5721
  0
VERTEX
  8
LAYER_6
 10
171.1955
 20
-117.5721
  0
SEQEND
  0
TEXT
  8
LAYER_6
 10
101.6294
 20
-210.2058
 11
101.6294
 21
-210.2058
 40
3.258
 41
0.5
  1
コード全長：1900mm
  0
TEXT
  8
LAYER_6
 10
197.86
 20
-138.7623
 11
197.86
 21
-138.7623
 40
3.258
 41
0.5
  1
コード全長：310mm
  0
TEXT
  8
LAYER_6
 10
197.9348
 20
-158.5654
 11
197.9348
 21
-158.5654
 40
3.258
 41
0.5
  1
コード全長：260mm
  0
POLYLINE
  8
LAYER_6
 40
0.0882
 41
0.0882
 66
1
 10
0
 20
0
 30
0
  0
VERTEX
  8
LAYER_6
 10
221.7481
 20
-160.1317
  0
VERTEX
  8
LAYER_6
 10
199.2154
 20
-160.1317
  0
VERTEX
  8
LAYER_6
 10
194.9525
 20
-158.5078
  0
SEQEND
  0
POLYLINE
  8
LAYER_6
 40
0.0882
 41
0.0882
 66
1
 10
0
 20
0
 30
0
  0
VERTEX
  8
LAYER_6
 10
221.6733
 20
-140.3418
  0
VERTEX
  8
LAYER_6
 10
199.1406
 20
-140.3418
  0
VERTEX
  8
LAYER_6
 10
194.8777
 20
-138.7178
  0
SEQEND
  0
POLYLINE
  8
LAYER_6
 40
0.0882
 41
0.0882
 66
1
 10
0
 20
0
 30
0
  0
VERTEX
  8
LAYER_6
 10
126.9071
 20
-211.0612
  0
VERTEX
  8
LAYER_6
 10
101.025
 20
-211.0612
  0
VERTEX
  8
LAYER_6
 10
94.9351
 20
-203.8549
  0
SEQEND
  0
TEXT
  8
LAYER_6
 10
145.4577
 20
-101.7858
 11
145.4577
 21
-101.7858
 40
3.7084
 41
0.5
 50
347.8407756
 72
1
  1
25°
  0
ENDSEC
  0
EOF
