  0
SECTION
  2
HEADER
  9
$ACADVER
  1
AC1009
  9
$LUNITS
 70
2
  9
$LUPREC
 70
4
  9
$LTSCALE
 40
1.0
  9
$EXTMIN
 10
33.7873
 20
-259.334
 30
0
  9
$EXTMAX
 10
498.515
 20
22.6587
 30
0
  0
ENDSEC
  0
SECTION
  2
TABLES
  0
TABLE
  2
LTYPE
 70
256
  0
LTYPE
  2
AIGENLINE001
 70
64
  3
generate AI->DXF Converter
 72
65
 73
4
 40
2
 49
1.25
 49
-0.25
 49
0.25
 49
-0.25
  0
ENDTAB
  0
TABLE
  2
LAYER
 70
6
  0
LAYER
  2
LAYER_1
 70
64
 62
7
  6
CONTINUOUS
  0
LAYER
  2
LAYER_2
 70
64
 62
7
  6
CONTINUOUS
  0
LAYER
  2
LAYER_3
 70
64
 62
7
  6
CONTINUOUS
  0
LAYER
  2
LAYER_4
 70
64
 62
7
  6
CONTINUOUS
  0
LAYER
  2
LAYER_5
 70
64
 62
7
  6
CONTINUOUS
  0
LAYER
  2
LAYER_6
 70
64
 62
7
  6
CONTINUOUS
  0
ENDTAB
  0
TABLE
  2
STYLE
 70
6
  0
STYLE
  2
STANDARD
 70
0
 40
0
 50
0
 71
0
 41
0
 42
0
  3
TXT
  4
BIGFONT
  0
ENDTAB
  0
ENDSEC
  0
SECTION
  2
BLOCKS
  0
BLOCK
  8
LAYER_1
  2
AIGNBL01040005
 70
64
 10
0
 20
0
 30
0
  3
AIGNBL01040005
  0
POLYLINE
  8
LAYER_1
 40
0.05
 41
0.05
 66
1
 10
0
 20
0
 30
0
 70
1
  0
VERTEX
  8
LAYER_1
 10
138.3767
 20
-249.1011
  0
VERTEX
  8
LAYER_1
 10
137.891
 20
-250.2793
  0
VERTEX
  8
LAYER_1
 10
137.2664
 20
-250.2793
  0
VERTEX
  8
LAYER_1
 10
138.857
 20
-246.5355
  0
VERTEX
  8
LAYER_1
 10
139.586
 20
-246.5355
  0
VERTEX
  8
LAYER_1
 10
141.1828
 20
-250.2793
  0
VERTEX
  8
LAYER_1
 10
140.5365
 20
-250.2793
  0
VERTEX
  8
LAYER_1
 10
140.0369
 20
-249.1011
  0
SEQEND
  0
POLYLINE
  8
LAYER_1
 40
0.05
 41
0.05
 66
1
 10
0
 20
0
 30
0
 70
1
  0
VERTEX
  8
LAYER_1
 10
139.9115
 20
-248.7245
  0
VERTEX
  8
LAYER_1
 10
139.4533
 20
-247.6459
  0
VERTEX
  8
LAYER_1
 10
139.2101
 20
-246.963
  0
VERTEX
  8
LAYER_1
 10
139.1967
 20
-246.963
  0
VERTEX
  8
LAYER_1
 10
138.9603
 20
-247.6414
  0
VERTEX
  8
LAYER_1
 10
138.5021
 20
-248.7245
  0
SEQEND
  0
ENDBLK
  0
BLOCK
  8
LAYER_1
  2
AIGNBL01040006
 70
64
 10
0
 20
0
 30
0
  3
AIGNBL01040006
  0
POLYLINE
  8
LAYER_1
 40
0.05
 41
0.05
 66
1
 10
0
 20
0
 30
0
 70
1
  0
VERTEX
  8
LAYER_1
 10
145.5226
 20
-250.8295
 42
-0.01588995579
  0
VERTEX
  8
LAYER_1
 10
143.7311
 20
-250.3954
  0
VERTEX
  8
LAYER_1
 10
143.4465
 20
-250.3406
 42
-0.08603985201
  0
VERTEX
  8
LAYER_1
 10
142.5648
 20
-250.1665
 42
-0.09807603942
  0
VERTEX
  8
LAYER_1
 10
141.9131
 20
-249.7557
 42
-0.2094886647
  0
VERTEX
  8
LAYER_1
 10
141.3839
 20
-248.4469
 42
-0.09686882676
  0
VERTEX
  8
LAYER_1
 10
141.5276
 20
-247.6779
 42
-0.2046492491
  0
VERTEX
  8
LAYER_1
 10
142.5693
 20
-246.6597
 42
-0.09822810302
  0
VERTEX
  8
LAYER_1
 10
143.5644
 20
-246.4745
 42
-0.08551091506
  0
VERTEX
  8
LAYER_1
 10
144.4282
 20
-246.615
 42
-0.1004264881
  0
VERTEX
  8
LAYER_1
 10
145.0896
 20
-247.0069
 42
-0.2141381959
  0
VERTEX
  8
LAYER_1
 10
145.6617
 20
-248.3686
 42
-0.09538251124
  0
VERTEX
  8
LAYER_1
 10
145.5236
 20
-249.1322
 42
-0.2145004706
  0
VERTEX
  8
LAYER_1
 10
144.5063
 20
-250.1049
 42
-0.02339472194
  0
VERTEX
  8
LAYER_1
 10
144.3281
 20
-250.1628
  0
VERTEX
  8
LAYER_1
 10
144.3281
 20
-250.1852
  0
VERTEX
  8
LAYER_1
 10
145.6965
 20
-250.424
  0
SEQEND
  0
POLYLINE
  8
LAYER_1
 40
0.05
 41
0.05
 66
1
 10
0
 20
0
 30
0
 70
1
  0
VERTEX
  8
LAYER_1
 10
145.0233
 20
-248.39
 42
0.1071465477
  0
VERTEX
  8
LAYER_1
 10
144.8729
 20
-247.6894
 42
0.2977221891
  0
VERTEX
  8
LAYER_1
 10
143.5433
 20
-246.8687
 42
0.1072160189
  0
VERTEX
  8
LAYER_1
 10
142.8575
 20
-247.0073
 42
0.2385375056
  0
VERTEX
  8
LAYER_1
 10
142.0749
 20
-248.007
 42
0.05759145292
  0
VERTEX
  8
LAYER_1
 10
142.0296
 20
-248.4344
 42
0.2182236294
  0
VERTEX
  8
LAYER_1
 10
142.5575
 20
-249.6231
 42
0.1771891839
  0
VERTEX
  8
LAYER_1
 10
143.5161
 20
-249.9468
 42
0.1075696895
  0
VERTEX
  8
LAYER_1
 10
144.1932
 20
-249.8086
 42
0.236982977
  0
VERTEX
  8
LAYER_1
 10
144.9758
 20
-248.8146
 42
0.05604944619
  0
SEQEND
  0
ENDBLK
  0
BLOCK
  8
LAYER_1
  2
AIGNBL01040007
 70
64
 10
0
 20
0
 30
0
  3
AIGNBL01040007
  0
POLYLINE
  8
LAYER_1
 40
0.05
 41
0.05
 66
1
 10
0
 20
0
 30
0
 70
1
  0
VERTEX
  8
LAYER_1
 10
146.9815
 20
-246.5355
  0
VERTEX
  8
LAYER_1
 10
146.9815
 20
-248.7517
 42
0.114472655
  0
VERTEX
  8
LAYER_1
 10
147.1146
 20
-249.4136
 42
0.1464766
  0
VERTEX
  8
LAYER_1
 10
147.4628
 20
-249.7966
 42
0.1363197034
  0
VERTEX
  8
LAYER_1
 10
148.0716
 20
-249.9468
 42
0.1219363095
  0
VERTEX
  8
LAYER_1
 10
148.6913
 20
-249.8128
 42
0.1503291203
  0
VERTEX
  8
LAYER_1
 10
149.0609
 20
-249.446
 42
0.1255921242
  0
VERTEX
  8
LAYER_1
 10
149.2105
 20
-248.7517
  0
VERTEX
  8
LAYER_1
 10
149.2105
 20
-246.5355
  0
VERTEX
  8
LAYER_1
 10
149.8217
 20
-246.5355
  0
VERTEX
  8
LAYER_1
 10
149.8217
 20
-248.7187
 42
-0.1000186514
  0
VERTEX
  8
LAYER_1
 10
149.6875
 20
-249.4569
 42
-0.1214826848
  0
VERTEX
  8
LAYER_1
 10
149.3164
 20
-249.9606
 42
-0.1105884685
  0
VERTEX
  8
LAYER_1
 10
148.6945
 20
-250.2654
 42
-0.06129767201
  0
VERTEX
  8
LAYER_1
 10
148.0509
 20
-250.3406
 42
-0.09420892198
  0
VERTEX
  8
LAYER_1
 10
147.2365
 20
-250.2032
 42
-0.2431575096
  0
VERTEX
  8
LAYER_1
 10
146.4378
 20
-249.2978
 42
-0.06319469768
  0
VERTEX
  8
LAYER_1
 10
146.3707
 20
-248.7404
  0
VERTEX
  8
LAYER_1
 10
146.3707
 20
-246.5355
  0
SEQEND
  0
ENDBLK
  0
BLOCK
  8
LAYER_1
  2
AIGNBL01040008
 70
64
 10
0
 20
0
 30
0
  3
AIGNBL01040008
  0
POLYLINE
  8
LAYER_1
 40
0.05
 41
0.05
 66
1
 10
0
 20
0
 30
0
 70
1
  0
VERTEX
  8
LAYER_1
 10
151.5573
 20
-249.1011
  0
VERTEX
  8
LAYER_1
 10
151.0709
 20
-250.2793
  0
VERTEX
  8
LAYER_1
 10
150.447
 20
-250.2793
  0
VERTEX
  8
LAYER_1
 10
152.0365
 20
-246.5355
  0
VERTEX
  8
LAYER_1
 10
152.7655
 20
-246.5355
  0
VERTEX
  8
LAYER_1
 10
154.3623
 20
-250.2793
  0
VERTEX
  8
LAYER_1
 10
153.7167
 20
-250.2793
  0
VERTEX
  8
LAYER_1
 10
153.2175
 20
-249.1011
  0
SEQEND
  0
POLYLINE
  8
LAYER_1
 40
0.05
 41
0.05
 66
1
 10
0
 20
0
 30
0
 70
1
  0
VERTEX
  8
LAYER_1
 10
153.0921
 20
-248.7245
  0
VERTEX
  8
LAYER_1
 10
152.6332
 20
-247.6459
  0
VERTEX
  8
LAYER_1
 10
152.3897
 20
-246.963
  0
VERTEX
  8
LAYER_1
 10
152.3759
 20
-246.963
  0
VERTEX
  8
LAYER_1
 10
152.1402
 20
-247.6414
  0
VERTEX
  8
LAYER_1
 10
151.682
 20
-248.7245
  0
SEQEND
  0
ENDBLK
  0
BLOCK
  8
LAYER_1
  2
AIGNBL01040009
 70
64
 10
0
 20
0
 30
0
  3
AIGNBL01040009
  0
POLYLINE
  8
LAYER_1
 40
0.05
 41
0.05
 66
1
 10
0
 20
0
 30
0
 70
1
  0
VERTEX
  8
LAYER_1
 10
155.3969
 20
-246.58
 42
-0.03256094069
  0
VERTEX
  8
LAYER_1
 10
156.5576
 20
-246.5072
 42
-0.08241612935
  0
VERTEX
  8
LAYER_1
 10
157.5173
 20
-246.6416
 42
-0.07669938049
  0
VERTEX
  8
LAYER_1
 10
157.8691
 20
-246.8184
 42
-0.2484913661
  0
VERTEX
  8
LAYER_1
 10
158.279
 20
-247.6018
 42
-0.2263535337
  0
VERTEX
  8
LAYER_1
 10
157.9177
 20
-248.4014
 42
-0.1098394792
  0
VERTEX
  8
LAYER_1
 10
157.2932
 20
-248.7128
 42
-0.0656406839
  0
VERTEX
  8
LAYER_1
 10
156.4872
 20
-248.8127
 42
-0.06243203296
  0
VERTEX
  8
LAYER_1
 10
156.0015
 20
-248.7793
  0
VERTEX
  8
LAYER_1
 10
156.0015
 20
-250.2793
  0
VERTEX
  8
LAYER_1
 10
155.3969
 20
-250.2793
  0
SEQEND
  0
POLYLINE
  8
LAYER_1
 40
0.05
 41
0.05
 66
1
 10
0
 20
0
 30
0
 70
1
  0
VERTEX
  8
LAYER_1
 10
156.0015
 20
-248.3852
 42
0.04167858666
  0
VERTEX
  8
LAYER_1
 10
156.501
 20
-248.4245
 42
0.1033682296
  0
VERTEX
  8
LAYER_1
 10
157.216
 20
-248.2977
 42
0.300261568
  0
VERTEX
  8
LAYER_1
 10
157.6751
 20
-247.6242
 42
0.1736095203
  0
VERTEX
  8
LAYER_1
 10
157.5412
 20
-247.2193
 42
0.1518049397
  0
VERTEX
  8
LAYER_1
 10
157.1227
 20
-246.9614
 42
0.06878721899
  0
VERTEX
  8
LAYER_1
 10
156.5713
 20
-246.891
 42
0.0640598863
  0
VERTEX
  8
LAYER_1
 10
156.0015
 20
-246.93
  0
SEQEND
  0
ENDBLK
  0
BLOCK
  8
LAYER_1
  2
AIGNBL0104000A
 70
64
 10
0
 20
0
 30
0
  3
AIGNBL0104000A
  0
POLYLINE
  8
LAYER_1
 40
0.05
 41
0.05
 66
1
 10
0
 20
0
 30
0
 70
1
  0
VERTEX
  8
LAYER_1
 10
159.8218
 20
-246.8352
 42
-0.2759870412
  0
VERTEX
  8
LAYER_1
 10
159.6829
 20
-247.0742
 42
-0.1267055018
  0
VERTEX
  8
LAYER_1
 10
159.4325
 20
-247.1356
 42
-0.2239956238
  0
VERTEX
  8
LAYER_1
 10
159.1241
 20
-247.0039
 42
-0.1705452753
  0
VERTEX
  8
LAYER_1
 10
159.0645
 20
-246.8352
 42
-0.2641883957
  0
VERTEX
  8
LAYER_1
 10
159.2127
 20
-246.5896
 42
-0.1291792354
  0
VERTEX
  8
LAYER_1
 10
159.4459
 20
-246.53
 42
-0.2251681707
  0
VERTEX
  8
LAYER_1
 10
159.761
 20
-246.6599
 42
-0.1693099844
  0
SEQEND
  0
POLYLINE
  8
LAYER_1
 40
0.05
 41
0.05
 66
1
 10
0
 20
0
 30
0
 70
1
  0
VERTEX
  8
LAYER_1
 10
159.1407
 20
-250.2793
  0
VERTEX
  8
LAYER_1
 10
159.1407
 20
-247.5907
  0
VERTEX
  8
LAYER_1
 10
159.7515
 20
-247.5907
  0
VERTEX
  8
LAYER_1
 10
159.7515
 20
-250.2793
  0
SEQEND
  0
ENDBLK
  0
BLOCK
  8
LAYER_1
  2
AIGNBL0104000B
 70
64
 10
0
 20
0
 30
0
  3
AIGNBL0104000B
  0
POLYLINE
  8
LAYER_1
 40
0.05
 41
0.05
 66
1
 10
0
 20
0
 30
0
 70
1
  0
VERTEX
  8
LAYER_1
 10
161.6118
 20
-249.1011
  0
VERTEX
  8
LAYER_1
 10
161.1271
 20
-250.2793
  0
VERTEX
  8
LAYER_1
 10
160.5015
 20
-250.2793
  0
VERTEX
  8
LAYER_1
 10
162.0918
 20
-246.5355
  0
VERTEX
  8
LAYER_1
 10
162.8211
 20
-246.5355
  0
VERTEX
  8
LAYER_1
 10
164.4186
 20
-250.2793
  0
VERTEX
  8
LAYER_1
 10
163.7719
 20
-250.2793
  0
VERTEX
  8
LAYER_1
 10
163.2727
 20
-249.1011
  0
SEQEND
  0
POLYLINE
  8
LAYER_1
 40
0.05
 41
0.05
 66
1
 10
0
 20
0
 30
0
 70
1
  0
VERTEX
  8
LAYER_1
 10
163.1473
 20
-248.7245
  0
VERTEX
  8
LAYER_1
 10
162.6891
 20
-247.6459
  0
VERTEX
  8
LAYER_1
 10
162.4466
 20
-246.963
  0
VERTEX
  8
LAYER_1
 10
162.4321
 20
-246.963
  0
VERTEX
  8
LAYER_1
 10
162.1961
 20
-247.6414
  0
VERTEX
  8
LAYER_1
 10
161.7379
 20
-248.7245
  0
SEQEND
  0
ENDBLK
  0
BLOCK
  8
LAYER_1
  2
AIGNBL01030004
 70
64
 10
0
 20
0
 30
0
  3
AIGNBL01030004
  0
INSERT
  8
LAYER_1
  2
AIGNBL01040005
 10
0
 20
0
 30
0
  0
INSERT
  8
LAYER_1
  2
AIGNBL01040006
 10
0
 20
0
 30
0
  0
INSERT
  8
LAYER_1
  2
AIGNBL01040007
 10
0
 20
0
 30
0
  0
INSERT
  8
LAYER_1
  2
AIGNBL01040008
 10
0
 20
0
 30
0
  0
INSERT
  8
LAYER_1
  2
AIGNBL01040009
 10
0
 20
0
 30
0
  0
INSERT
  8
LAYER_1
  2
AIGNBL0104000A
 10
0
 20
0
 30
0
  0
INSERT
  8
LAYER_1
  2
AIGNBL0104000B
 10
0
 20
0
 30
0
  0
ENDBLK
  0
BLOCK
  8
LAYER_1
  2
AIGNBL0103000D
 70
64
 10
0
 20
0
 30
0
  3
AIGNBL0103000D
  0
POLYLINE
  8
LAYER_1
 40
0.05
 41
0.05
 66
1
 10
0
 20
0
 30
0
 70
1
  0
VERTEX
  8
LAYER_1
 10
137.3756
 20
-252.1676
  0
VERTEX
  8
LAYER_1
 10
137.9258
 20
-252.1676
  0
VERTEX
  8
LAYER_1
 10
137.9258
 20
-252.2609
  0
VERTEX
  8
LAYER_1
 10
137.2715
 20
-252.2609
  0
VERTEX
  8
LAYER_1
 10
137.2715
 20
-251.2339
  0
VERTEX
  8
LAYER_1
 10
137.9082
 20
-251.2339
  0
VERTEX
  8
LAYER_1
 10
137.9082
 20
-251.3266
  0
VERTEX
  8
LAYER_1
 10
137.3756
 20
-251.3266
  0
VERTEX
  8
LAYER_1
 10
137.3756
 20
-251.6787
  0
VERTEX
  8
LAYER_1
 10
137.8734
 20
-251.6787
  0
VERTEX
  8
LAYER_1
 10
137.8734
 20
-251.7717
  0
VERTEX
  8
LAYER_1
 10
137.3756
 20
-251.7717
  0
SEQEND
  0
ENDBLK
  0
BLOCK
  8
LAYER_1
  2
AIGNBL0103000E
 70
64
 10
0
 20
0
 30
0
  3
AIGNBL0103000E
  0
POLYLINE
  8
LAYER_1
 40
0.05
 41
0.05
 66
1
 10
0
 20
0
 30
0
 70
1
  0
VERTEX
  8
LAYER_1
 10
139.0589
 20
-252.1079
  0
VERTEX
  8
LAYER_1
 10
139.0613
 20
-252.1079
  0
VERTEX
  8
LAYER_1
 10
139.0613
 20
-251.2339
  0
VERTEX
  8
LAYER_1
 10
139.1663
 20
-251.2339
  0
VERTEX
  8
LAYER_1
 10
139.1663
 20
-252.2609
  0
VERTEX
  8
LAYER_1
 10
139.0365
 20
-252.2609
  0
VERTEX
  8
LAYER_1
 10
138.4384
 20
-251.3772
  0
VERTEX
  8
LAYER_1
 10
138.435
 20
-251.3772
  0
VERTEX
  8
LAYER_1
 10
138.435
 20
-252.2609
  0
VERTEX
  8
LAYER_1
 10
138.3306
 20
-252.2609
  0
VERTEX
  8
LAYER_1
 10
138.3306
 20
-251.2339
  0
VERTEX
  8
LAYER_1
 10
138.4611
 20
-251.2339
  0
SEQEND
  0
ENDBLK
  0
BLOCK
  8
LAYER_1
  2
AIGNBL0103000F
 70
64
 10
0
 20
0
 30
0
  3
AIGNBL0103000F
  0
POLYLINE
  8
LAYER_1
 40
0.05
 41
0.05
 66
1
 10
0
 20
0
 30
0
 70
1
  0
VERTEX
  8
LAYER_1
 10
139.637
 20
-252.0501
  0
VERTEX
  8
LAYER_1
 10
139.691
 20
-252.1527
 42
0.1791739205
  0
VERTEX
  8
LAYER_1
 10
139.8034
 20
-252.1937
  0
VERTEX
  8
LAYER_1
 10
139.8922
 20
-252.1744
  0
VERTEX
  8
LAYER_1
 10
139.948
 20
-252.1214
  0
VERTEX
  8
LAYER_1
 10
139.9763
 20
-252.0453
  0
VERTEX
  8
LAYER_1
 10
139.9853
 20
-251.956
  0
VERTEX
  8
LAYER_1
 10
139.9853
 20
-251.2339
  0
VERTEX
  8
LAYER_1
 10
140.0893
 20
-251.2339
  0
VERTEX
  8
LAYER_1
 10
140.0893
 20
-251.965
  0
VERTEX
  8
LAYER_1
 10
140.0783
 20
-252.0718
  0
VERTEX
  8
LAYER_1
 10
140.0369
 20
-252.1765
  0
VERTEX
  8
LAYER_1
 10
139.9529
 20
-252.2554
  0
VERTEX
  8
LAYER_1
 10
139.8147
 20
-252.2868
 42
-0.18823279
  0
VERTEX
  8
LAYER_1
 10
139.6311
 20
-252.2268
 42
-0.1779708983
  0
VERTEX
  8
LAYER_1
 10
139.5391
 20
-252.0769
  0
SEQEND
  0
ENDBLK
  0
BLOCK
  8
LAYER_1
  2
AIGNBL01030010
 70
64
 10
0
 20
0
 30
0
  3
AIGNBL01030010
  0
POLYLINE
  8
LAYER_1
 40
0.05
 41
0.05
 66
1
 10
0
 20
0
 30
0
 70
1
  0
VERTEX
  8
LAYER_1
 10
141.5693
 20
-251.7469
 42
-0.104348301
  0
VERTEX
  8
LAYER_1
 10
141.5279
 20
-251.9629
 42
-0.1013865216
  0
VERTEX
  8
LAYER_1
 10
141.4163
 20
-252.1338
  0
VERTEX
  8
LAYER_1
 10
141.2458
 20
-252.2461
 42
-0.09497960855
  0
VERTEX
  8
LAYER_1
 10
141.0332
 20
-252.2868
 42
-0.1003676177
  0
VERTEX
  8
LAYER_1
 10
140.8207
 20
-252.2461
  0
VERTEX
  8
LAYER_1
 10
140.6512
 20
-252.1338
 42
-0.09474436642
  0
VERTEX
  8
LAYER_1
 10
140.5389
 20
-251.9629
 42
-0.09317427323
  0
VERTEX
  8
LAYER_1
 10
140.4986
 20
-251.7469
 42
-0.1052531491
  0
VERTEX
  8
LAYER_1
 10
140.5389
 20
-251.5306
 42
-0.1000138279
  0
VERTEX
  8
LAYER_1
 10
140.6512
 20
-251.3604
 42
-0.09581503346
  0
VERTEX
  8
LAYER_1
 10
140.8207
 20
-251.2481
 42
-0.09561956468
  0
VERTEX
  8
LAYER_1
 10
141.0332
 20
-251.2071
 42
-0.1024782491
  0
VERTEX
  8
LAYER_1
 10
141.2458
 20
-251.2481
 42
-0.1014786584
  0
VERTEX
  8
LAYER_1
 10
141.4163
 20
-251.3604
 42
-0.09815577957
  0
VERTEX
  8
LAYER_1
 10
141.5279
 20
-251.5306
 42
-0.09523735002
  0
SEQEND
  0
POLYLINE
  8
LAYER_1
 40
0.05
 41
0.05
 66
1
 10
0
 20
0
 30
0
 70
1
  0
VERTEX
  8
LAYER_1
 10
141.4584
 20
-251.7476
  0
VERTEX
  8
LAYER_1
 10
141.4301
 20
-251.5767
  0
VERTEX
  8
LAYER_1
 10
141.3454
 20
-251.4344
  0
VERTEX
  8
LAYER_1
 10
141.211
 20
-251.337
 42
0.1026237584
  0
VERTEX
  8
LAYER_1
 10
141.0332
 20
-251.3001
 42
0.1147987019
  0
VERTEX
  8
LAYER_1
 10
140.8558
 20
-251.337
  0
VERTEX
  8
LAYER_1
 10
140.7225
 20
-251.4344
  0
VERTEX
  8
LAYER_1
 10
140.6374
 20
-251.5767
  0
VERTEX
  8
LAYER_1
 10
140.6081
 20
-251.7476
  0
VERTEX
  8
LAYER_1
 10
140.6374
 20
-251.9188
  0
VERTEX
  8
LAYER_1
 10
140.7225
 20
-252.0607
  0
VERTEX
  8
LAYER_1
 10
140.8558
 20
-252.1575
  0
VERTEX
  8
LAYER_1
 10
141.0332
 20
-252.1937
 42
0.1185100977
  0
VERTEX
  8
LAYER_1
 10
141.211
 20
-252.1575
  0
VERTEX
  8
LAYER_1
 10
141.3454
 20
-252.0607
  0
VERTEX
  8
LAYER_1
 10
141.4301
 20
-251.9188
  0
SEQEND
  0
ENDBLK
  0
BLOCK
  8
LAYER_1
  2
AIGNBL01030011
 70
64
 10
0
 20
0
 30
0
  3
AIGNBL01030011
  0
POLYLINE
  8
LAYER_1
 40
0.05
 41
0.05
 66
1
 10
0
 20
0
 30
0
 70
1
  0
VERTEX
  8
LAYER_1
 10
142.3393
 20
-252.2609
  0
VERTEX
  8
LAYER_1
 10
142.2349
 20
-252.2609
  0
VERTEX
  8
LAYER_1
 10
142.2349
 20
-251.8182
  0
VERTEX
  8
LAYER_1
 10
141.8504
 20
-251.2339
  0
VERTEX
  8
LAYER_1
 10
141.9813
 20
-251.2339
  0
VERTEX
  8
LAYER_1
 10
142.2904
 20
-251.7311
  0
VERTEX
  8
LAYER_1
 10
142.6022
 20
-251.2339
  0
VERTEX
  8
LAYER_1
 10
142.7234
 20
-251.2339
  0
VERTEX
  8
LAYER_1
 10
142.3393
 20
-251.8182
  0
SEQEND
  0
ENDBLK
  0
BLOCK
  8
LAYER_1
  2
AIGNBL01030012
 70
64
 10
0
 20
0
 30
0
  3
AIGNBL01030012
  0
POLYLINE
  8
LAYER_1
 40
0.05
 41
0.05
 66
1
 10
0
 20
0
 30
0
 70
1
  0
VERTEX
  8
LAYER_1
 10
143.6236
 20
-251.2339
  0
VERTEX
  8
LAYER_1
 10
143.9288
 20
-251.2339
  0
VERTEX
  8
LAYER_1
 10
144.047
 20
-251.2457
  0
VERTEX
  8
LAYER_1
 10
144.1528
 20
-251.288
  0
VERTEX
  8
LAYER_1
 10
144.2307
 20
-251.3686
  0
VERTEX
  8
LAYER_1
 10
144.2603
 20
-251.4961
 42
-0.1778951175
  0
VERTEX
  8
LAYER_1
 10
144.2103
 20
-251.6373
 42
-0.1614829203
  0
VERTEX
  8
LAYER_1
 10
144.078
 20
-251.7166
  0
VERTEX
  8
LAYER_1
 10
144.078
 20
-251.7194
 42
-0.1736511409
  0
VERTEX
  8
LAYER_1
 10
144.2434
 20
-251.7969
 42
-0.1925337955
  0
VERTEX
  8
LAYER_1
 10
144.3099
 20
-251.9764
  0
VERTEX
  8
LAYER_1
 10
144.2823
 20
-252.0928
  0
VERTEX
  8
LAYER_1
 10
144.2062
 20
-252.1831
  0
VERTEX
  8
LAYER_1
 10
144.0866
 20
-252.2402
  0
VERTEX
  8
LAYER_1
 10
143.9275
 20
-252.2609
  0
VERTEX
  8
LAYER_1
 10
143.6236
 20
-252.2609
  0
SEQEND
  0
POLYLINE
  8
LAYER_1
 40
0.05
 41
0.05
 66
1
 10
0
 20
0
 30
0
 70
1
  0
VERTEX
  8
LAYER_1
 10
143.7277
 20
-251.6832
  0
VERTEX
  8
LAYER_1
 10
143.9382
 20
-251.6832
  0
VERTEX
  8
LAYER_1
 10
144.0146
 20
-251.6742
  0
VERTEX
  8
LAYER_1
 10
144.0842
 20
-251.6453
  0
VERTEX
  8
LAYER_1
 10
144.1362
 20
-251.5888
  0
VERTEX
  8
LAYER_1
 10
144.1552
 20
-251.5034
  0
VERTEX
  8
LAYER_1
 10
144.1362
 20
-251.4203
  0
VERTEX
  8
LAYER_1
 10
144.0835
 20
-251.3638
  0
VERTEX
  8
LAYER_1
 10
144.005
 20
-251.3328
  0
VERTEX
  8
LAYER_1
 10
143.9089
 20
-251.3235
  0
VERTEX
  8
LAYER_1
 10
143.7277
 20
-251.3235
  0
SEQEND
  0
POLYLINE
  8
LAYER_1
 40
0.05
 41
0.05
 66
1
 10
0
 20
0
 30
0
 70
1
  0
VERTEX
  8
LAYER_1
 10
143.7277
 20
-252.171
  0
VERTEX
  8
LAYER_1
 10
143.9223
 20
-252.171
  0
VERTEX
  8
LAYER_1
 10
144.0301
 20
-252.1596
  0
VERTEX
  8
LAYER_1
 10
144.1204
 20
-252.1252
  0
VERTEX
  8
LAYER_1
 10
144.181
 20
-252.0625
  0
VERTEX
  8
LAYER_1
 10
144.2048
 20
-251.9705
 42
0.2546661425
  0
VERTEX
  8
LAYER_1
 10
144.1362
 20
-251.8189
 42
0.138509597
  0
VERTEX
  8
LAYER_1
 10
143.9413
 20
-251.7686
  0
VERTEX
  8
LAYER_1
 10
143.7277
 20
-251.7686
  0
SEQEND
  0
ENDBLK
  0
BLOCK
  8
LAYER_1
  2
AIGNBL01030013
 70
64
 10
0
 20
0
 30
0
  3
AIGNBL01030013
  0
POLYLINE
  8
LAYER_1
 40
0.05
 41
0.05
 66
1
 10
0
 20
0
 30
0
 70
1
  0
VERTEX
  8
LAYER_1
 10
144.7388
 20
-252.2609
  0
VERTEX
  8
LAYER_1
 10
144.6241
 20
-252.2609
  0
VERTEX
  8
LAYER_1
 10
145.0685
 20
-251.2339
  0
VERTEX
  8
LAYER_1
 10
145.1705
 20
-251.2339
  0
VERTEX
  8
LAYER_1
 10
145.6111
 20
-252.2609
  0
VERTEX
  8
LAYER_1
 10
145.4943
 20
-252.2609
  0
VERTEX
  8
LAYER_1
 10
145.3813
 20
-251.9912
  0
VERTEX
  8
LAYER_1
 10
144.8504
 20
-251.9912
  0
SEQEND
  0
POLYLINE
  8
LAYER_1
 40
0.05
 41
0.05
 66
1
 10
0
 20
0
 30
0
 70
1
  0
VERTEX
  8
LAYER_1
 10
144.8894
 20
-251.8947
  0
VERTEX
  8
LAYER_1
 10
145.3424
 20
-251.8947
  0
VERTEX
  8
LAYER_1
 10
145.1164
 20
-251.3493
  0
SEQEND
  0
ENDBLK
  0
BLOCK
  8
LAYER_1
  2
AIGNBL01030014
 70
64
 10
0
 20
0
 30
0
  3
AIGNBL01030014
  0
POLYLINE
  8
LAYER_1
 40
0.05
 41
0.05
 66
1
 10
0
 20
0
 30
0
 70
1
  0
VERTEX
  8
LAYER_1
 10
146.2915
 20
-252.2609
  0
VERTEX
  8
LAYER_1
 10
146.1871
 20
-252.2609
  0
VERTEX
  8
LAYER_1
 10
146.1871
 20
-251.3266
  0
VERTEX
  8
LAYER_1
 10
145.8426
 20
-251.3266
  0
VERTEX
  8
LAYER_1
 10
145.8426
 20
-251.2339
  0
VERTEX
  8
LAYER_1
 10
146.635
 20
-251.2339
  0
VERTEX
  8
LAYER_1
 10
146.635
 20
-251.3266
  0
VERTEX
  8
LAYER_1
 10
146.2915
 20
-251.3266
  0
SEQEND
  0
ENDBLK
  0
BLOCK
  8
LAYER_1
  2
AIGNBL01030015
 70
64
 10
0
 20
0
 30
0
  3
AIGNBL01030015
  0
POLYLINE
  8
LAYER_1
 40
0.05
 41
0.05
 66
1
 10
0
 20
0
 30
0
 70
1
  0
VERTEX
  8
LAYER_1
 10
146.9888
 20
-251.2339
  0
VERTEX
  8
LAYER_1
 10
147.0932
 20
-251.2339
  0
VERTEX
  8
LAYER_1
 10
147.0932
 20
-251.6787
  0
VERTEX
  8
LAYER_1
 10
147.654
 20
-251.6787
  0
VERTEX
  8
LAYER_1
 10
147.654
 20
-251.2339
  0
VERTEX
  8
LAYER_1
 10
147.7581
 20
-251.2339
  0
VERTEX
  8
LAYER_1
 10
147.7581
 20
-252.2609
  0
VERTEX
  8
LAYER_1
 10
147.654
 20
-252.2609
  0
VERTEX
  8
LAYER_1
 10
147.654
 20
-251.7745
  0
VERTEX
  8
LAYER_1
 10
147.0932
 20
-251.7745
  0
VERTEX
  8
LAYER_1
 10
147.0932
 20
-252.2609
  0
VERTEX
  8
LAYER_1
 10
146.9888
 20
-252.2609
  0
SEQEND
  0
ENDBLK
  0
BLOCK
  8
LAYER_1
  2
AIGNBL01030016
 70
64
 10
0
 20
0
 30
0
  3
AIGNBL01030016
  0
POLYLINE
  8
LAYER_1
 40
0.05
 41
0.05
 66
1
 10
0
 20
0
 30
0
 70
1
  0
VERTEX
  8
LAYER_1
 10
148.3351
 20
-252.2609
  0
VERTEX
  8
LAYER_1
 10
148.2311
 20
-252.2609
  0
VERTEX
  8
LAYER_1
 10
148.2311
 20
-251.2339
  0
VERTEX
  8
LAYER_1
 10
148.5322
 20
-251.2339
  0
VERTEX
  8
LAYER_1
 10
148.6724
 20
-251.2481
  0
VERTEX
  8
LAYER_1
 10
148.7844
 20
-251.2953
  0
VERTEX
  8
LAYER_1
 10
148.8571
 20
-251.38
  0
VERTEX
  8
LAYER_1
 10
148.8829
 20
-251.5078
  0
VERTEX
  8
LAYER_1
 10
148.8636
 20
-251.6108
  0
VERTEX
  8
LAYER_1
 10
148.8088
 20
-251.6911
  0
VERTEX
  8
LAYER_1
 10
148.7258
 20
-251.7459
  0
VERTEX
  8
LAYER_1
 10
148.6214
 20
-251.7717
  0
VERTEX
  8
LAYER_1
 10
148.9211
 20
-252.2609
  0
VERTEX
  8
LAYER_1
 10
148.7937
 20
-252.2609
  0
VERTEX
  8
LAYER_1
 10
148.5098
 20
-251.7807
  0
VERTEX
  8
LAYER_1
 10
148.3351
 20
-251.7807
  0
SEQEND
  0
POLYLINE
  8
LAYER_1
 40
0.05
 41
0.05
 66
1
 10
0
 20
0
 30
0
 70
1
  0
VERTEX
  8
LAYER_1
 10
148.3351
 20
-251.6904
  0
VERTEX
  8
LAYER_1
 10
148.517
 20
-251.6904
 42
0.1622417858
  0
VERTEX
  8
LAYER_1
 10
148.711
 20
-251.6453
 42
0.2500476248
  0
VERTEX
  8
LAYER_1
 10
148.7799
 20
-251.5078
  0
VERTEX
  8
LAYER_1
 10
148.7602
 20
-251.4224
  0
VERTEX
  8
LAYER_1
 10
148.7079
 20
-251.3652
  0
VERTEX
  8
LAYER_1
 10
148.6269
 20
-251.3338
  0
VERTEX
  8
LAYER_1
 10
148.5212
 20
-251.3235
  0
VERTEX
  8
LAYER_1
 10
148.3351
 20
-251.3235
  0
SEQEND
  0
ENDBLK
  0
BLOCK
  8
LAYER_1
  2
AIGNBL01030017
 70
64
 10
0
 20
0
 30
0
  3
AIGNBL01030017
  0
POLYLINE
  8
LAYER_1
 40
0.05
 41
0.05
 66
1
 10
0
 20
0
 30
0
 70
1
  0
VERTEX
  8
LAYER_1
 10
150.3154
 20
-251.7469
 42
-0.1015060182
  0
VERTEX
  8
LAYER_1
 10
150.2747
 20
-251.9629
 42
-0.09993540575
  0
VERTEX
  8
LAYER_1
 10
150.1624
 20
-252.1338
 42
-0.09525489566
  0
VERTEX
  8
LAYER_1
 10
149.9926
 20
-252.2461
 42
-0.09491251156
  0
VERTEX
  8
LAYER_1
 10
149.78
 20
-252.2868
 42
-0.1002015795
  0
VERTEX
  8
LAYER_1
 10
149.5674
 20
-252.2461
 42
-0.1016690689
  0
VERTEX
  8
LAYER_1
 10
149.3979
 20
-252.1338
 42
-0.09667300425
  0
VERTEX
  8
LAYER_1
 10
149.2856
 20
-251.9629
 42
-0.09262920428
  0
VERTEX
  8
LAYER_1
 10
149.2453
 20
-251.7469
 42
-0.09846568495
  0
VERTEX
  8
LAYER_1
 10
149.2856
 20
-251.5306
 42
-0.09950302227
  0
VERTEX
  8
LAYER_1
 10
149.3979
 20
-251.3604
 42
-0.09832237419
  0
VERTEX
  8
LAYER_1
 10
149.5674
 20
-251.2481
 42
-0.09564774702
  0
VERTEX
  8
LAYER_1
 10
149.78
 20
-251.2071
 42
-0.1014301699
  0
VERTEX
  8
LAYER_1
 10
149.9926
 20
-251.2481
 42
-0.1041253763
  0
VERTEX
  8
LAYER_1
 10
150.1624
 20
-251.3604
 42
-0.09489987116
  0
VERTEX
  8
LAYER_1
 10
150.2747
 20
-251.5306
 42
-0.09342113907
  0
SEQEND
  0
POLYLINE
  8
LAYER_1
 40
0.05
 41
0.05
 66
1
 10
0
 20
0
 30
0
 70
1
  0
VERTEX
  8
LAYER_1
 10
150.2051
 20
-251.7476
  0
VERTEX
  8
LAYER_1
 10
150.1762
 20
-251.5767
  0
VERTEX
  8
LAYER_1
 10
150.0921
 20
-251.4344
  0
VERTEX
  8
LAYER_1
 10
149.9581
 20
-251.337
 42
0.1022827687
  0
VERTEX
  8
LAYER_1
 10
149.78
 20
-251.3001
 42
0.1183846388
  0
VERTEX
  8
LAYER_1
 10
149.6026
 20
-251.337
  0
VERTEX
  8
LAYER_1
 10
149.4682
 20
-251.4344
  0
VERTEX
  8
LAYER_1
 10
149.3842
 20
-251.5767
  0
VERTEX
  8
LAYER_1
 10
149.3549
 20
-251.7476
  0
VERTEX
  8
LAYER_1
 10
149.3842
 20
-251.9188
  0
VERTEX
  8
LAYER_1
 10
149.4682
 20
-252.0607
  0
VERTEX
  8
LAYER_1
 10
149.6026
 20
-252.1575
 42
0.1007973502
  0
VERTEX
  8
LAYER_1
 10
149.78
 20
-252.1937
  0
VERTEX
  8
LAYER_1
 10
149.9581
 20
-252.1575
  0
VERTEX
  8
LAYER_1
 10
150.0921
 20
-252.0607
  0
VERTEX
  8
LAYER_1
 10
150.1762
 20
-251.9188
  0
SEQEND
  0
ENDBLK
  0
BLOCK
  8
LAYER_1
  2
AIGNBL01030018
 70
64
 10
0
 20
0
 30
0
  3
AIGNBL01030018
  0
POLYLINE
  8
LAYER_1
 40
0.05
 41
0.05
 66
1
 10
0
 20
0
 30
0
 70
1
  0
VERTEX
  8
LAYER_1
 10
151.7489
 20
-251.7469
 42
-0.1017020442
  0
VERTEX
  8
LAYER_1
 10
151.7086
 20
-251.9629
  0
VERTEX
  8
LAYER_1
 10
151.5963
 20
-252.1338
  0
VERTEX
  8
LAYER_1
 10
151.4264
 20
-252.2461
 42
-0.09495021158
  0
VERTEX
  8
LAYER_1
 10
151.2139
 20
-252.2868
 42
-0.1019502388
  0
VERTEX
  8
LAYER_1
 10
151.0013
 20
-252.2461
 42
-0.1021914323
  0
VERTEX
  8
LAYER_1
 10
150.8318
 20
-252.1338
 42
-0.09636018285
  0
VERTEX
  8
LAYER_1
 10
150.7188
 20
-251.9629
 42
-0.09364604827
  0
VERTEX
  8
LAYER_1
 10
150.6781
 20
-251.7469
 42
-0.1001287453
  0
VERTEX
  8
LAYER_1
 10
150.7188
 20
-251.5306
 42
-0.1037227634
  0
VERTEX
  8
LAYER_1
 10
150.8318
 20
-251.3604
 42
-0.0985967677
  0
VERTEX
  8
LAYER_1
 10
151.0013
 20
-251.2481
 42
-0.0957287822
  0
VERTEX
  8
LAYER_1
 10
151.2139
 20
-251.2071
 42
-0.1016365741
  0
VERTEX
  8
LAYER_1
 10
151.4264
 20
-251.2481
 42
-0.09861864621
  0
VERTEX
  8
LAYER_1
 10
151.5963
 20
-251.3604
 42
-0.09487953686
  0
VERTEX
  8
LAYER_1
 10
151.7086
 20
-251.5306
 42
-0.09256741039
  0
SEQEND
  0
POLYLINE
  8
LAYER_1
 40
0.05
 41
0.05
 66
1
 10
0
 20
0
 30
0
 70
1
  0
VERTEX
  8
LAYER_1
 10
151.639
 20
-251.7476
  0
VERTEX
  8
LAYER_1
 10
151.61
 20
-251.5767
  0
VERTEX
  8
LAYER_1
 10
151.526
 20
-251.4344
  0
VERTEX
  8
LAYER_1
 10
151.3916
 20
-251.337
 42
0.1025075331
  0
VERTEX
  8
LAYER_1
 10
151.2139
 20
-251.3001
 42
0.118884027
  0
VERTEX
  8
LAYER_1
 10
151.0361
 20
-251.337
  0
VERTEX
  8
LAYER_1
 10
150.9017
 20
-251.4344
  0
VERTEX
  8
LAYER_1
 10
150.818
 20
-251.5767
  0
VERTEX
  8
LAYER_1
 10
150.7887
 20
-251.7476
  0
VERTEX
  8
LAYER_1
 10
150.818
 20
-251.9188
  0
VERTEX
  8
LAYER_1
 10
150.9017
 20
-252.0607
  0
VERTEX
  8
LAYER_1
 10
151.0361
 20
-252.1575
 42
0.100589677
  0
VERTEX
  8
LAYER_1
 10
151.2139
 20
-252.1937
  0
VERTEX
  8
LAYER_1
 10
151.3916
 20
-252.1575
  0
VERTEX
  8
LAYER_1
 10
151.526
 20
-252.0607
  0
VERTEX
  8
LAYER_1
 10
151.61
 20
-251.9188
  0
SEQEND
  0
ENDBLK
  0
BLOCK
  8
LAYER_1
  2
AIGNBL01030019
 70
64
 10
0
 20
0
 30
0
  3
AIGNBL01030019
  0
POLYLINE
  8
LAYER_1
 40
0.05
 41
0.05
 66
1
 10
0
 20
0
 30
0
 70
1
  0
VERTEX
  8
LAYER_1
 10
152.6742
 20
-252.0839
  0
VERTEX
  8
LAYER_1
 10
152.6756
 20
-252.0839
  0
VERTEX
  8
LAYER_1
 10
153.0194
 20
-251.2339
  0
VERTEX
  8
LAYER_1
 10
153.1793
 20
-251.2339
  0
VERTEX
  8
LAYER_1
 10
153.1793
 20
-252.2609
  0
VERTEX
  8
LAYER_1
 10
153.0749
 20
-252.2609
  0
VERTEX
  8
LAYER_1
 10
153.0749
 20
-251.3686
  0
VERTEX
  8
LAYER_1
 10
153.0718
 20
-251.3686
  0
VERTEX
  8
LAYER_1
 10
152.7007
 20
-252.2609
  0
VERTEX
  8
LAYER_1
 10
152.646
 20
-252.2609
  0
VERTEX
  8
LAYER_1
 10
152.2743
 20
-251.3686
  0
VERTEX
  8
LAYER_1
 10
152.2708
 20
-251.3686
  0
VERTEX
  8
LAYER_1
 10
152.2708
 20
-252.2609
  0
VERTEX
  8
LAYER_1
 10
152.1668
 20
-252.2609
  0
VERTEX
  8
LAYER_1
 10
152.1668
 20
-251.2339
  0
VERTEX
  8
LAYER_1
 10
152.327
 20
-251.2339
  0
SEQEND
  0
ENDBLK
  0
BLOCK
  8
LAYER_1
  2
AIGNBL0103001A
 70
64
 10
0
 20
0
 30
0
  3
AIGNBL0103001A
  0
POLYLINE
  8
LAYER_1
 40
0.05
 41
0.05
 66
1
 10
0
 20
0
 30
0
 70
1
  0
VERTEX
  8
LAYER_1
 10
154.3196
 20
-252.1676
  0
VERTEX
  8
LAYER_1
 10
154.8694
 20
-252.1676
  0
VERTEX
  8
LAYER_1
 10
154.8694
 20
-252.2609
  0
VERTEX
  8
LAYER_1
 10
154.2145
 20
-252.2609
  0
VERTEX
  8
LAYER_1
 10
154.2145
 20
-251.2339
  0
VERTEX
  8
LAYER_1
 10
154.8522
 20
-251.2339
  0
VERTEX
  8
LAYER_1
 10
154.8522
 20
-251.3263
  0
VERTEX
  8
LAYER_1
 10
154.3196
 20
-251.3263
  0
VERTEX
  8
LAYER_1
 10
154.3196
 20
-251.6787
  0
VERTEX
  8
LAYER_1
 10
154.8167
 20
-251.6787
  0
VERTEX
  8
LAYER_1
 10
154.8167
 20
-251.7717
  0
VERTEX
  8
LAYER_1
 10
154.3196
 20
-251.7717
  0
SEQEND
  0
ENDBLK
  0
BLOCK
  8
LAYER_1
  2
AIGNBL0103001B
 70
64
 10
0
 20
0
 30
0
  3
AIGNBL0103001B
  0
POLYLINE
  8
LAYER_1
 40
0.05
 41
0.05
 66
1
 10
0
 20
0
 30
0
 70
1
  0
VERTEX
  8
LAYER_1
 10
155.6101
 20
-251.6484
  0
VERTEX
  8
LAYER_1
 10
155.8906
 20
-251.2339
  0
VERTEX
  8
LAYER_1
 10
156.0153
 20
-251.2339
  0
VERTEX
  8
LAYER_1
 10
155.6749
 20
-251.7221
  0
VERTEX
  8
LAYER_1
 10
156.0518
 20
-252.2609
  0
VERTEX
  8
LAYER_1
 10
155.9216
 20
-252.2609
  0
VERTEX
  8
LAYER_1
 10
155.6081
 20
-251.7979
  0
VERTEX
  8
LAYER_1
 10
155.296
 20
-252.2609
  0
VERTEX
  8
LAYER_1
 10
155.165
 20
-252.2609
  0
VERTEX
  8
LAYER_1
 10
155.5426
 20
-251.7211
  0
VERTEX
  8
LAYER_1
 10
155.1988
 20
-251.2339
  0
VERTEX
  8
LAYER_1
 10
155.329
 20
-251.2339
  0
SEQEND
  0
ENDBLK
  0
BLOCK
  8
LAYER_1
  2
AIGNBL0103001C
 70
64
 10
0
 20
0
 30
0
  3
AIGNBL0103001C
  0
POLYLINE
  8
LAYER_1
 40
0.05
 41
0.05
 66
1
 10
0
 20
0
 30
0
 70
1
  0
VERTEX
  8
LAYER_1
 10
156.4159
 20
-251.2339
  0
VERTEX
  8
LAYER_1
 10
156.706
 20
-251.2339
  0
VERTEX
  8
LAYER_1
 10
156.8487
 20
-251.2498
  0
VERTEX
  8
LAYER_1
 10
156.9575
 20
-251.3015
  0
VERTEX
  8
LAYER_1
 10
157.0288
 20
-251.3866
  0
VERTEX
  8
LAYER_1
 10
157.053
 20
-251.5078
  0
VERTEX
  8
LAYER_1
 10
157.0281
 20
-251.6291
  0
VERTEX
  8
LAYER_1
 10
156.9568
 20
-251.7145
  0
VERTEX
  8
LAYER_1
 10
156.8459
 20
-251.7659
  0
VERTEX
  8
LAYER_1
 10
156.7032
 20
-251.7831
  0
VERTEX
  8
LAYER_1
 10
156.5203
 20
-251.7831
  0
VERTEX
  8
LAYER_1
 10
156.5203
 20
-252.2609
  0
VERTEX
  8
LAYER_1
 10
156.4159
 20
-252.2609
  0
SEQEND
  0
POLYLINE
  8
LAYER_1
 40
0.05
 41
0.05
 66
1
 10
0
 20
0
 30
0
 70
1
  0
VERTEX
  8
LAYER_1
 10
156.5203
 20
-251.6949
  0
VERTEX
  8
LAYER_1
 10
156.6974
 20
-251.6949
 42
0.179800284
  0
VERTEX
  8
LAYER_1
 10
156.8848
 20
-251.6474
 42
0.2343125845
  0
VERTEX
  8
LAYER_1
 10
156.9489
 20
-251.5078
 42
0.2635647854
  0
VERTEX
  8
LAYER_1
 10
156.8824
 20
-251.3676
 42
0.1265134521
  0
VERTEX
  8
LAYER_1
 10
156.6974
 20
-251.3235
  0
VERTEX
  8
LAYER_1
 10
156.5203
 20
-251.3235
  0
SEQEND
  0
ENDBLK
  0
BLOCK
  8
LAYER_1
  2
AIGNBL0103001D
 70
64
 10
0
 20
0
 30
0
  3
AIGNBL0103001D
  0
POLYLINE
  8
LAYER_1
 40
0.05
 41
0.05
 66
1
 10
0
 20
0
 30
0
 70
1
  0
VERTEX
  8
LAYER_1
 10
157.5621
 20
-252.1676
  0
VERTEX
  8
LAYER_1
 10
158.1116
 20
-252.1676
  0
VERTEX
  8
LAYER_1
 10
158.1116
 20
-252.2609
  0
VERTEX
  8
LAYER_1
 10
157.4577
 20
-252.2609
  0
VERTEX
  8
LAYER_1
 10
157.4577
 20
-251.2339
  0
VERTEX
  8
LAYER_1
 10
158.0947
 20
-251.2339
  0
VERTEX
  8
LAYER_1
 10
158.0947
 20
-251.3263
  0
VERTEX
  8
LAYER_1
 10
157.5621
 20
-251.3263
  0
VERTEX
  8
LAYER_1
 10
157.5621
 20
-251.6787
  0
VERTEX
  8
LAYER_1
 10
158.0599
 20
-251.6787
  0
VERTEX
  8
LAYER_1
 10
158.0599
 20
-251.7717
  0
VERTEX
  8
LAYER_1
 10
157.5621
 20
-251.7717
  0
SEQEND
  0
ENDBLK
  0
BLOCK
  8
LAYER_1
  2
AIGNBL0103001E
 70
64
 10
0
 20
0
 30
0
  3
AIGNBL0103001E
  0
POLYLINE
  8
LAYER_1
 40
0.05
 41
0.05
 66
1
 10
0
 20
0
 30
0
 70
1
  0
VERTEX
  8
LAYER_1
 10
158.6208
 20
-252.2609
  0
VERTEX
  8
LAYER_1
 10
158.5168
 20
-252.2609
  0
VERTEX
  8
LAYER_1
 10
158.5168
 20
-251.2339
  0
VERTEX
  8
LAYER_1
 10
158.8185
 20
-251.2339
  0
VERTEX
  8
LAYER_1
 10
158.9584
 20
-251.2481
  0
VERTEX
  8
LAYER_1
 10
159.07
 20
-251.2953
  0
VERTEX
  8
LAYER_1
 10
159.1438
 20
-251.38
  0
VERTEX
  8
LAYER_1
 10
159.1696
 20
-251.5078
  0
VERTEX
  8
LAYER_1
 10
159.1493
 20
-251.6105
  0
VERTEX
  8
LAYER_1
 10
159.0945
 20
-251.6915
  0
VERTEX
  8
LAYER_1
 10
159.0111
 20
-251.7459
  0
VERTEX
  8
LAYER_1
 10
158.9067
 20
-251.7717
  0
VERTEX
  8
LAYER_1
 10
159.2075
 20
-252.2609
  0
VERTEX
  8
LAYER_1
 10
159.08
 20
-252.2609
  0
VERTEX
  8
LAYER_1
 10
158.7955
 20
-251.7803
  0
VERTEX
  8
LAYER_1
 10
158.6208
 20
-251.7803
  0
SEQEND
  0
POLYLINE
  8
LAYER_1
 40
0.05
 41
0.05
 66
1
 10
0
 20
0
 30
0
 70
1
  0
VERTEX
  8
LAYER_1
 10
158.6208
 20
-251.69
  0
VERTEX
  8
LAYER_1
 10
158.8027
 20
-251.69
 42
0.1625850216
  0
VERTEX
  8
LAYER_1
 10
158.9974
 20
-251.6453
 42
0.2500143464
  0
VERTEX
  8
LAYER_1
 10
159.0652
 20
-251.5078
  0
VERTEX
  8
LAYER_1
 10
159.047
 20
-251.4224
  0
VERTEX
  8
LAYER_1
 10
158.9943
 20
-251.3652
  0
VERTEX
  8
LAYER_1
 10
158.9123
 20
-251.3338
  0
VERTEX
  8
LAYER_1
 10
158.8065
 20
-251.3235
  0
VERTEX
  8
LAYER_1
 10
158.6208
 20
-251.3235
  0
SEQEND
  0
ENDBLK
  0
BLOCK
  8
LAYER_1
  2
AIGNBL0103001F
 70
64
 10
0
 20
0
 30
0
  3
AIGNBL0103001F
  0
POLYLINE
  8
LAYER_1
 40
0.05
 41
0.05
 66
1
 10
0
 20
0
 30
0
 70
1
  0
VERTEX
  8
LAYER_1
 10
159.6898
 20
-252.2609
  0
VERTEX
  8
LAYER_1
 10
159.5865
 20
-252.2609
  0
VERTEX
  8
LAYER_1
 10
159.5865
 20
-251.2339
  0
VERTEX
  8
LAYER_1
 10
159.6898
 20
-251.2339
  0
SEQEND
  0
ENDBLK
  0
BLOCK
  8
LAYER_1
  2
AIGNBL01030020
 70
64
 10
0
 20
0
 30
0
  3
AIGNBL01030020
  0
POLYLINE
  8
LAYER_1
 40
0.05
 41
0.05
 66
1
 10
0
 20
0
 30
0
 70
1
  0
VERTEX
  8
LAYER_1
 10
160.2676
 20
-252.1676
  0
VERTEX
  8
LAYER_1
 10
160.8174
 20
-252.1676
  0
VERTEX
  8
LAYER_1
 10
160.8174
 20
-252.2609
  0
VERTEX
  8
LAYER_1
 10
160.1639
 20
-252.2609
  0
VERTEX
  8
LAYER_1
 10
160.1639
 20
-251.2339
  0
VERTEX
  8
LAYER_1
 10
160.8005
 20
-251.2339
  0
VERTEX
  8
LAYER_1
 10
160.8005
 20
-251.3263
  0
VERTEX
  8
LAYER_1
 10
160.2676
 20
-251.3263
  0
VERTEX
  8
LAYER_1
 10
160.2676
 20
-251.6787
  0
VERTEX
  8
LAYER_1
 10
160.7654
 20
-251.6787
  0
VERTEX
  8
LAYER_1
 10
160.7654
 20
-251.7717
  0
VERTEX
  8
LAYER_1
 10
160.2676
 20
-251.7717
  0
SEQEND
  0
ENDBLK
  0
BLOCK
  8
LAYER_1
  2
AIGNBL01030021
 70
64
 10
0
 20
0
 30
0
  3
AIGNBL01030021
  0
POLYLINE
  8
LAYER_1
 40
0.05
 41
0.05
 66
1
 10
0
 20
0
 30
0
 70
1
  0
VERTEX
  8
LAYER_1
 10
161.9505
 20
-252.1079
  0
VERTEX
  8
LAYER_1
 10
161.9536
 20
-252.1079
  0
VERTEX
  8
LAYER_1
 10
161.9536
 20
-251.2339
  0
VERTEX
  8
LAYER_1
 10
162.058
 20
-251.2339
  0
VERTEX
  8
LAYER_1
 10
162.058
 20
-252.2609
  0
VERTEX
  8
LAYER_1
 10
161.9277
 20
-252.2609
  0
VERTEX
  8
LAYER_1
 10
161.3297
 20
-251.3772
  0
VERTEX
  8
LAYER_1
 10
161.3266
 20
-251.3772
  0
VERTEX
  8
LAYER_1
 10
161.3266
 20
-252.2609
  0
VERTEX
  8
LAYER_1
 10
161.2222
 20
-252.2609
  0
VERTEX
  8
LAYER_1
 10
161.2222
 20
-251.2339
  0
VERTEX
  8
LAYER_1
 10
161.3535
 20
-251.2339
  0
SEQEND
  0
ENDBLK
  0
BLOCK
  8
LAYER_1
  2
AIGNBL01030022
 70
64
 10
0
 20
0
 30
0
  3
AIGNBL01030022
  0
POLYLINE
  8
LAYER_1
 40
0.05
 41
0.05
 66
1
 10
0
 20
0
 30
0
 70
1
  0
VERTEX
  8
LAYER_1
 10
163.396
 20
-252.0942
  0
VERTEX
  8
LAYER_1
 10
163.3323
 20
-252.1679
  0
VERTEX
  8
LAYER_1
 10
163.2469
 20
-252.2295
  0
VERTEX
  8
LAYER_1
 10
163.1394
 20
-252.2716
  0
VERTEX
  8
LAYER_1
 10
163.0112
 20
-252.2868
 42
-0.1009164681
  0
VERTEX
  8
LAYER_1
 10
162.7966
 20
-252.2461
 42
-0.1027581013
  0
VERTEX
  8
LAYER_1
 10
162.6271
 20
-252.1335
 42
-0.1010578842
  0
VERTEX
  8
LAYER_1
 10
162.5162
 20
-251.9633
 42
-0.09298732079
  0
VERTEX
  8
LAYER_1
 10
162.4759
 20
-251.7469
 42
-0.1023262951
  0
VERTEX
  8
LAYER_1
 10
162.5169
 20
-251.5306
 42
-0.1009138363
  0
VERTEX
  8
LAYER_1
 10
162.6285
 20
-251.3604
  0
VERTEX
  8
LAYER_1
 10
162.798
 20
-251.2481
 42
-0.09535690024
  0
VERTEX
  8
LAYER_1
 10
163.0112
 20
-251.2071
  0
VERTEX
  8
LAYER_1
 10
163.1222
 20
-251.2191
  0
VERTEX
  8
LAYER_1
 10
163.2252
 20
-251.2522
  0
VERTEX
  8
LAYER_1
 10
163.3117
 20
-251.3035
  0
VERTEX
  8
LAYER_1
 10
163.3767
 20
-251.3711
  0
VERTEX
  8
LAYER_1
 10
163.2906
 20
-251.4355
  0
VERTEX
  8
LAYER_1
 10
163.2469
 20
-251.3858
  0
VERTEX
  8
LAYER_1
 10
163.1835
 20
-251.3421
  0
VERTEX
  8
LAYER_1
 10
163.1043
 20
-251.3114
  0
VERTEX
  8
LAYER_1
 10
163.0126
 20
-251.3001
  0
VERTEX
  8
LAYER_1
 10
162.8338
 20
-251.3362
  0
VERTEX
  8
LAYER_1
 10
162.6998
 20
-251.4338
  0
VERTEX
  8
LAYER_1
 10
162.6147
 20
-251.5764
  0
VERTEX
  8
LAYER_1
 10
162.5868
 20
-251.7469
  0
VERTEX
  8
LAYER_1
 10
162.6164
 20
-251.9178
  0
VERTEX
  8
LAYER_1
 10
162.7012
 20
-252.0601
  0
VERTEX
  8
LAYER_1
 10
162.8356
 20
-252.1575
 42
0.1012189446
  0
VERTEX
  8
LAYER_1
 10
163.0126
 20
-252.1937
  0
VERTEX
  8
LAYER_1
 10
163.1804
 20
-252.1575
 42
0.1297589768
  0
VERTEX
  8
LAYER_1
 10
163.3148
 20
-252.0414
  0
SEQEND
  0
ENDBLK
  0
BLOCK
  8
LAYER_1
  2
AIGNBL01030023
 70
64
 10
0
 20
0
 30
0
  3
AIGNBL01030023
  0
POLYLINE
  8
LAYER_1
 40
0.05
 41
0.05
 66
1
 10
0
 20
0
 30
0
 70
1
  0
VERTEX
  8
LAYER_1
 10
163.8801
 20
-252.1676
  0
VERTEX
  8
LAYER_1
 10
164.4299
 20
-252.1676
  0
VERTEX
  8
LAYER_1
 10
164.4299
 20
-252.2609
  0
VERTEX
  8
LAYER_1
 10
163.7764
 20
-252.2609
  0
VERTEX
  8
LAYER_1
 10
163.7764
 20
-251.2339
  0
VERTEX
  8
LAYER_1
 10
164.4127
 20
-251.2339
  0
VERTEX
  8
LAYER_1
 10
164.4127
 20
-251.3263
  0
VERTEX
  8
LAYER_1
 10
163.8801
 20
-251.3263
  0
VERTEX
  8
LAYER_1
 10
163.8801
 20
-251.6787
  0
VERTEX
  8
LAYER_1
 10
164.3782
 20
-251.6787
  0
VERTEX
  8
LAYER_1
 10
164.3782
 20
-251.7717
  0
VERTEX
  8
LAYER_1
 10
163.8801
 20
-251.7717
  0
SEQEND
  0
ENDBLK
  0
BLOCK
  8
LAYER_1
  2
AIGNBL01020003
 70
64
 10
0
 20
0
 30
0
  3
AIGNBL01020003
  0
INSERT
  8
LAYER_1
  2
AIGNBL01030004
 10
0
 20
0
 30
0
  0
ENDBLK
  0
BLOCK
  8
LAYER_1
  2
AIGNBL0102000C
 70
64
 10
0
 20
0
 30
0
  3
AIGNBL0102000C
  0
INSERT
  8
LAYER_1
  2
AIGNBL0103000D
 10
0
 20
0
 30
0
  0
INSERT
  8
LAYER_1
  2
AIGNBL0103000E
 10
0
 20
0
 30
0
  0
INSERT
  8
LAYER_1
  2
AIGNBL0103000F
 10
0
 20
0
 30
0
  0
INSERT
  8
LAYER_1
  2
AIGNBL01030010
 10
0
 20
0
 30
0
  0
INSERT
  8
LAYER_1
  2
AIGNBL01030011
 10
0
 20
0
 30
0
  0
INSERT
  8
LAYER_1
  2
AIGNBL01030012
 10
0
 20
0
 30
0
  0
INSERT
  8
LAYER_1
  2
AIGNBL01030013
 10
0
 20
0
 30
0
  0
INSERT
  8
LAYER_1
  2
AIGNBL01030014
 10
0
 20
0
 30
0
  0
INSERT
  8
LAYER_1
  2
AIGNBL01030015
 10
0
 20
0
 30
0
  0
INSERT
  8
LAYER_1
  2
AIGNBL01030016
 10
0
 20
0
 30
0
  0
INSERT
  8
LAYER_1
  2
AIGNBL01030017
 10
0
 20
0
 30
0
  0
INSERT
  8
LAYER_1
  2
AIGNBL01030018
 10
0
 20
0
 30
0
  0
INSERT
  8
LAYER_1
  2
AIGNBL01030019
 10
0
 20
0
 30
0
  0
INSERT
  8
LAYER_1
  2
AIGNBL0103001A
 10
0
 20
0
 30
0
  0
INSERT
  8
LAYER_1
  2
AIGNBL0103001B
 10
0
 20
0
 30
0
  0
INSERT
  8
LAYER_1
  2
AIGNBL0103001C
 10
0
 20
0
 30
0
  0
INSERT
  8
LAYER_1
  2
AIGNBL0103001D
 10
0
 20
0
 30
0
  0
INSERT
  8
LAYER_1
  2
AIGNBL0103001E
 10
0
 20
0
 30
0
  0
INSERT
  8
LAYER_1
  2
AIGNBL0103001F
 10
0
 20
0
 30
0
  0
INSERT
  8
LAYER_1
  2
AIGNBL01030020
 10
0
 20
0
 30
0
  0
INSERT
  8
LAYER_1
  2
AIGNBL01030021
 10
0
 20
0
 30
0
  0
INSERT
  8
LAYER_1
  2
AIGNBL01030022
 10
0
 20
0
 30
0
  0
INSERT
  8
LAYER_1
  2
AIGNBL01030023
 10
0
 20
0
 30
0
  0
ENDBLK
  0
BLOCK
  8
LAYER_6
  2
AIGNBL06020004
 70
64
 10
0
 20
0
 30
0
  3
AIGNBL06020004
  0
POLYLINE
  8
LAYER_6
 40
0.0353
 41
0.0353
 66
1
 10
0
 20
0
 30
0
  0
VERTEX
  8
LAYER_6
 10
85.0739
 20
-167.8742
  0
VERTEX
  8
LAYER_6
 10
83.5739
 20
-167.6242
  0
SEQEND
  0
POLYLINE
  8
LAYER_6
 40
0.0353
 41
0.0353
 66
1
 10
0
 20
0
 30
0
  0
VERTEX
  8
LAYER_6
 10
85.0739
 20
-167.6242
  0
VERTEX
  8
LAYER_6
 10
83.5739
 20
-167.6242
  0
VERTEX
  8
LAYER_6
 10
85.0739
 20
-167.3742
  0
SEQEND
  0
ENDBLK
  0
BLOCK
  8
LAYER_6
  2
AIGNBL06020005
 70
64
 10
0
 20
0
 30
0
  3
AIGNBL06020005
  0
POLYLINE
  8
LAYER_6
 40
0.0353
 41
0.0353
 66
1
 10
0
 20
0
 30
0
  0
VERTEX
  8
LAYER_6
 10
95.0739
 20
-167.3742
  0
VERTEX
  8
LAYER_6
 10
96.5739
 20
-167.6242
  0
SEQEND
  0
POLYLINE
  8
LAYER_6
 40
0.0353
 41
0.0353
 66
1
 10
0
 20
0
 30
0
  0
VERTEX
  8
LAYER_6
 10
95.0739
 20
-167.6242
  0
VERTEX
  8
LAYER_6
 10
96.5739
 20
-167.6242
  0
VERTEX
  8
LAYER_6
 10
95.0739
 20
-167.8742
  0
SEQEND
  0
ENDBLK
  0
BLOCK
  8
LAYER_6
  2
AIGNBL06020006
 70
64
 10
0
 20
0
 30
0
  3
AIGNBL06020006
  0
POLYLINE
  8
LAYER_6
 40
0.7056
 41
0.7056
 66
1
 10
0
 20
0
 30
0
  0
VERTEX
  8
LAYER_6
 10
83.5739
 20
-180.0194
  0
SEQEND
  0
ENDBLK
  0
BLOCK
  8
LAYER_6
  2
AIGNBL06020007
 70
64
 10
0
 20
0
 30
0
  3
AIGNBL06020007
  0
POLYLINE
  8
LAYER_6
 40
0.7056
 41
0.7056
 66
1
 10
0
 20
0
 30
0
  0
VERTEX
  8
LAYER_6
 10
96.5739
 20
-180.0194
  0
SEQEND
  0
ENDBLK
  0
BLOCK
  8
LAYER_6
  2
AIGNBL06020008
 70
64
 10
0
 20
0
 30
0
  3
AIGNBL06020008
  0
POLYLINE
  8
LAYER_6
 40
0.7056
 41
0.7056
 66
1
 10
0
 20
0
 30
0
  0
VERTEX
  8
LAYER_6
 10
96.5739
 20
-167.6242
  0
SEQEND
  0
ENDBLK
  0
BLOCK
  8
LAYER_6
  2
AIGNBL0602000A
 70
64
 10
0
 20
0
 30
0
  3
AIGNBL0602000A
  0
POLYLINE
  8
LAYER_6
 40
0.0353
 41
0.0353
 66
1
 10
0
 20
0
 30
0
  0
VERTEX
  8
LAYER_6
 10
87.6739
 20
-128.0595
  0
VERTEX
  8
LAYER_6
 10
86.1739
 20
-127.8095
  0
SEQEND
  0
POLYLINE
  8
LAYER_6
 40
0.0353
 41
0.0353
 66
1
 10
0
 20
0
 30
0
  0
VERTEX
  8
LAYER_6
 10
87.6739
 20
-127.8095
  0
VERTEX
  8
LAYER_6
 10
86.1739
 20
-127.8095
  0
VERTEX
  8
LAYER_6
 10
87.6739
 20
-127.5595
  0
SEQEND
  0
ENDBLK
  0
BLOCK
  8
LAYER_6
  2
AIGNBL0602000B
 70
64
 10
0
 20
0
 30
0
  3
AIGNBL0602000B
  0
POLYLINE
  8
LAYER_6
 40
0.0353
 41
0.0353
 66
1
 10
0
 20
0
 30
0
  0
VERTEX
  8
LAYER_6
 10
92.4739
 20
-127.5595
  0
VERTEX
  8
LAYER_6
 10
93.9739
 20
-127.8095
  0
SEQEND
  0
POLYLINE
  8
LAYER_6
 40
0.0353
 41
0.0353
 66
1
 10
0
 20
0
 30
0
  0
VERTEX
  8
LAYER_6
 10
92.4739
 20
-127.8095
  0
VERTEX
  8
LAYER_6
 10
93.9739
 20
-127.8095
  0
VERTEX
  8
LAYER_6
 10
92.4739
 20
-128.0595
  0
SEQEND
  0
ENDBLK
  0
BLOCK
  8
LAYER_6
  2
AIGNBL0602000C
 70
64
 10
0
 20
0
 30
0
  3
AIGNBL0602000C
  0
POLYLINE
  8
LAYER_6
 40
0.7056
 41
0.7056
 66
1
 10
0
 20
0
 30
0
  0
VERTEX
  8
LAYER_6
 10
86.1739
 20
-125.0969
  0
SEQEND
  0
ENDBLK
  0
BLOCK
  8
LAYER_6
  2
AIGNBL0602000D
 70
64
 10
0
 20
0
 30
0
  3
AIGNBL0602000D
  0
POLYLINE
  8
LAYER_6
 40
0.7056
 41
0.7056
 66
1
 10
0
 20
0
 30
0
  0
VERTEX
  8
LAYER_6
 10
93.9739
 20
-125.0969
  0
SEQEND
  0
ENDBLK
  0
BLOCK
  8
LAYER_6
  2
AIGNBL0602000E
 70
64
 10
0
 20
0
 30
0
  3
AIGNBL0602000E
  0
POLYLINE
  8
LAYER_6
 40
0.7056
 41
0.7056
 66
1
 10
0
 20
0
 30
0
  0
VERTEX
  8
LAYER_6
 10
93.9739
 20
-127.8095
  0
SEQEND
  0
ENDBLK
  0
BLOCK
  8
LAYER_6
  2
AIGNBL06020010
 70
64
 10
0
 20
0
 30
0
  3
AIGNBL06020010
  0
POLYLINE
  8
LAYER_6
 40
0.0353
 41
0.0353
 66
1
 10
0
 20
0
 30
0
  0
VERTEX
  8
LAYER_6
 10
89.0339
 20
-88.2114
  0
VERTEX
  8
LAYER_6
 10
87.5339
 20
-87.9614
  0
SEQEND
  0
POLYLINE
  8
LAYER_6
 40
0.0353
 41
0.0353
 66
1
 10
0
 20
0
 30
0
  0
VERTEX
  8
LAYER_6
 10
89.0339
 20
-87.9614
  0
VERTEX
  8
LAYER_6
 10
87.5339
 20
-87.9614
  0
VERTEX
  8
LAYER_6
 10
89.0339
 20
-87.7114
  0
SEQEND
  0
ENDBLK
  0
BLOCK
  8
LAYER_6
  2
AIGNBL06020011
 70
64
 10
0
 20
0
 30
0
  3
AIGNBL06020011
  0
POLYLINE
  8
LAYER_6
 40
0.0353
 41
0.0353
 66
1
 10
0
 20
0
 30
0
  0
VERTEX
  8
LAYER_6
 10
91.1139
 20
-87.7114
  0
VERTEX
  8
LAYER_6
 10
92.6139
 20
-87.9614
  0
SEQEND
  0
POLYLINE
  8
LAYER_6
 40
0.0353
 41
0.0353
 66
1
 10
0
 20
0
 30
0
  0
VERTEX
  8
LAYER_6
 10
91.1139
 20
-87.9614
  0
VERTEX
  8
LAYER_6
 10
92.6139
 20
-87.9614
  0
VERTEX
  8
LAYER_6
 10
91.1139
 20
-88.2114
  0
SEQEND
  0
ENDBLK
  0
BLOCK
  8
LAYER_6
  2
AIGNBL06020012
 70
64
 10
0
 20
0
 30
0
  3
AIGNBL06020012
  0
POLYLINE
  8
LAYER_6
 40
0.7056
 41
0.7056
 66
1
 10
0
 20
0
 30
0
  0
VERTEX
  8
LAYER_6
 10
87.5339
 20
-90.0214
  0
SEQEND
  0
ENDBLK
  0
BLOCK
  8
LAYER_6
  2
AIGNBL06020013
 70
64
 10
0
 20
0
 30
0
  3
AIGNBL06020013
  0
POLYLINE
  8
LAYER_6
 40
0.7056
 41
0.7056
 66
1
 10
0
 20
0
 30
0
  0
VERTEX
  8
LAYER_6
 10
92.6139
 20
-90.0214
  0
SEQEND
  0
ENDBLK
  0
BLOCK
  8
LAYER_6
  2
AIGNBL06020014
 70
64
 10
0
 20
0
 30
0
  3
AIGNBL06020014
  0
POLYLINE
  8
LAYER_6
 40
0.7056
 41
0.7056
 66
1
 10
0
 20
0
 30
0
  0
VERTEX
  8
LAYER_6
 10
92.6139
 20
-87.9614
  0
SEQEND
  0
ENDBLK
  0
BLOCK
  8
LAYER_6
  2
AIGNBL06020016
 70
64
 10
0
 20
0
 30
0
  3
AIGNBL06020016
  0
POLYLINE
  8
LAYER_6
 40
0.0353
 41
0.0353
 66
1
 10
0
 20
0
 30
0
  0
VERTEX
  8
LAYER_6
 10
175.8685
 20
-167.8697
  0
VERTEX
  8
LAYER_6
 10
174.3685
 20
-167.6197
  0
SEQEND
  0
POLYLINE
  8
LAYER_6
 40
0.0353
 41
0.0353
 66
1
 10
0
 20
0
 30
0
  0
VERTEX
  8
LAYER_6
 10
175.8685
 20
-167.6197
  0
VERTEX
  8
LAYER_6
 10
174.3685
 20
-167.6197
  0
VERTEX
  8
LAYER_6
 10
175.8685
 20
-167.3697
  0
SEQEND
  0
ENDBLK
  0
BLOCK
  8
LAYER_6
  2
AIGNBL06020017
 70
64
 10
0
 20
0
 30
0
  3
AIGNBL06020017
  0
POLYLINE
  8
LAYER_6
 40
0.0353
 41
0.0353
 66
1
 10
0
 20
0
 30
0
  0
VERTEX
  8
LAYER_6
 10
189.6685
 20
-167.3697
  0
VERTEX
  8
LAYER_6
 10
191.1685
 20
-167.6197
  0
SEQEND
  0
POLYLINE
  8
LAYER_6
 40
0.0353
 41
0.0353
 66
1
 10
0
 20
0
 30
0
  0
VERTEX
  8
LAYER_6
 10
189.6685
 20
-167.6197
  0
VERTEX
  8
LAYER_6
 10
191.1685
 20
-167.6197
  0
VERTEX
  8
LAYER_6
 10
189.6685
 20
-167.8697
  0
SEQEND
  0
ENDBLK
  0
BLOCK
  8
LAYER_6
  2
AIGNBL06020018
 70
64
 10
0
 20
0
 30
0
  3
AIGNBL06020018
  0
POLYLINE
  8
LAYER_6
 40
0.7056
 41
0.7056
 66
1
 10
0
 20
0
 30
0
  0
VERTEX
  8
LAYER_6
 10
174.3685
 20
-180.1572
  0
SEQEND
  0
ENDBLK
  0
BLOCK
  8
LAYER_6
  2
AIGNBL06020019
 70
64
 10
0
 20
0
 30
0
  3
AIGNBL06020019
  0
POLYLINE
  8
LAYER_6
 40
0.7056
 41
0.7056
 66
1
 10
0
 20
0
 30
0
  0
VERTEX
  8
LAYER_6
 10
191.1685
 20
-179.5149
  0
SEQEND
  0
ENDBLK
  0
BLOCK
  8
LAYER_6
  2
AIGNBL0602001A
 70
64
 10
0
 20
0
 30
0
  3
AIGNBL0602001A
  0
POLYLINE
  8
LAYER_6
 40
0.7056
 41
0.7056
 66
1
 10
0
 20
0
 30
0
  0
VERTEX
  8
LAYER_6
 10
191.1685
 20
-167.6197
  0
SEQEND
  0
ENDBLK
  0
BLOCK
  8
LAYER_6
  2
AIGNBL0602001C
 70
64
 10
0
 20
0
 30
0
  3
AIGNBL0602001C
  0
POLYLINE
  8
LAYER_6
 40
0.0353
 41
0.0353
 66
1
 10
0
 20
0
 30
0
  0
VERTEX
  8
LAYER_6
 10
180.6685
 20
-173.765
  0
VERTEX
  8
LAYER_6
 10
179.1685
 20
-173.515
  0
SEQEND
  0
POLYLINE
  8
LAYER_6
 40
0.0353
 41
0.0353
 66
1
 10
0
 20
0
 30
0
  0
VERTEX
  8
LAYER_6
 10
180.6685
 20
-173.515
  0
VERTEX
  8
LAYER_6
 10
179.1685
 20
-173.515
  0
VERTEX
  8
LAYER_6
 10
180.6685
 20
-173.265
  0
SEQEND
  0
ENDBLK
  0
BLOCK
  8
LAYER_6
  2
AIGNBL0602001D
 70
64
 10
0
 20
0
 30
0
  3
AIGNBL0602001D
  0
POLYLINE
  8
LAYER_6
 40
0.0353
 41
0.0353
 66
1
 10
0
 20
0
 30
0
  0
VERTEX
  8
LAYER_6
 10
189.6609
 20
-173.265
  0
VERTEX
  8
LAYER_6
 10
191.1609
 20
-173.515
  0
SEQEND
  0
POLYLINE
  8
LAYER_6
 40
0.0353
 41
0.0353
 66
1
 10
0
 20
0
 30
0
  0
VERTEX
  8
LAYER_6
 10
189.6609
 20
-173.515
  0
VERTEX
  8
LAYER_6
 10
191.1609
 20
-173.515
  0
VERTEX
  8
LAYER_6
 10
189.6609
 20
-173.765
  0
SEQEND
  0
ENDBLK
  0
BLOCK
  8
LAYER_6
  2
AIGNBL0602001E
 70
64
 10
0
 20
0
 30
0
  3
AIGNBL0602001E
  0
POLYLINE
  8
LAYER_6
 40
0.7056
 41
0.7056
 66
1
 10
0
 20
0
 30
0
  0
VERTEX
  8
LAYER_6
 10
179.1685
 20
-179.6197
  0
SEQEND
  0
ENDBLK
  0
BLOCK
  8
LAYER_6
  2
AIGNBL0602001F
 70
64
 10
0
 20
0
 30
0
  3
AIGNBL0602001F
  0
POLYLINE
  8
LAYER_6
 40
0.7056
 41
0.7056
 66
1
 10
0
 20
0
 30
0
  0
VERTEX
  8
LAYER_6
 10
191.1609
 20
-179.515
  0
SEQEND
  0
ENDBLK
  0
BLOCK
  8
LAYER_6
  2
AIGNBL06020020
 70
64
 10
0
 20
0
 30
0
  3
AIGNBL06020020
  0
POLYLINE
  8
LAYER_6
 40
0.7056
 41
0.7056
 66
1
 10
0
 20
0
 30
0
  0
VERTEX
  8
LAYER_6
 10
191.1609
 20
-173.515
  0
SEQEND
  0
ENDBLK
  0
BLOCK
  8
LAYER_6
  2
AIGNBL06020022
 70
64
 10
0
 20
0
 30
0
  3
AIGNBL06020022
  0
POLYLINE
  8
LAYER_6
 40
0.0353
 41
0.0353
 66
1
 10
0
 20
0
 30
0
  0
VERTEX
  8
LAYER_6
 10
177.6685
 20
-173.281
  0
VERTEX
  8
LAYER_6
 10
179.1685
 20
-173.531
  0
SEQEND
  0
POLYLINE
  8
LAYER_6
 40
0.0353
 41
0.0353
 66
1
 10
0
 20
0
 30
0
  0
VERTEX
  8
LAYER_6
 10
177.6685
 20
-173.531
  0
VERTEX
  8
LAYER_6
 10
179.1685
 20
-173.531
  0
VERTEX
  8
LAYER_6
 10
177.6685
 20
-173.781
  0
SEQEND
  0
ENDBLK
  0
BLOCK
  8
LAYER_6
  2
AIGNBL06020023
 70
64
 10
0
 20
0
 30
0
  3
AIGNBL06020023
  0
POLYLINE
  8
LAYER_6
 40
0.0353
 41
0.0353
 66
1
 10
0
 20
0
 30
0
  0
VERTEX
  8
LAYER_6
 10
175.8685
 20
-173.781
  0
VERTEX
  8
LAYER_6
 10
174.3685
 20
-173.531
  0
SEQEND
  0
POLYLINE
  8
LAYER_6
 40
0.0353
 41
0.0353
 66
1
 10
0
 20
0
 30
0
  0
VERTEX
  8
LAYER_6
 10
175.8685
 20
-173.531
  0
VERTEX
  8
LAYER_6
 10
174.3685
 20
-173.531
  0
VERTEX
  8
LAYER_6
 10
175.8685
 20
-173.281
  0
SEQEND
  0
ENDBLK
  0
BLOCK
  8
LAYER_6
  2
AIGNBL06020024
 70
64
 10
0
 20
0
 30
0
  3
AIGNBL06020024
  0
POLYLINE
  8
LAYER_6
 40
0.7056
 41
0.7056
 66
1
 10
0
 20
0
 30
0
  0
VERTEX
  8
LAYER_6
 10
174.3685
 20
-180.1572
  0
SEQEND
  0
ENDBLK
  0
BLOCK
  8
LAYER_6
  2
AIGNBL06020025
 70
64
 10
0
 20
0
 30
0
  3
AIGNBL06020025
  0
POLYLINE
  8
LAYER_6
 40
0.7056
 41
0.7056
 66
1
 10
0
 20
0
 30
0
  0
VERTEX
  8
LAYER_6
 10
179.1685
 20
-179.6197
  0
SEQEND
  0
ENDBLK
  0
BLOCK
  8
LAYER_6
  2
AIGNBL06020026
 70
64
 10
0
 20
0
 30
0
  3
AIGNBL06020026
  0
POLYLINE
  8
LAYER_6
 40
0.7056
 41
0.7056
 66
1
 10
0
 20
0
 30
0
  0
VERTEX
  8
LAYER_6
 10
179.1685
 20
-173.531
  0
SEQEND
  0
ENDBLK
  0
BLOCK
  8
LAYER_6
  2
AIGNBL06020028
 70
64
 10
0
 20
0
 30
0
  3
AIGNBL06020028
  0
POLYLINE
  8
LAYER_6
 40
0.0353
 41
0.0353
 66
1
 10
0
 20
0
 30
0
  0
VERTEX
  8
LAYER_6
 10
164.6185
 20
-203.5639
  0
VERTEX
  8
LAYER_6
 10
164.3685
 20
-205.0639
  0
SEQEND
  0
POLYLINE
  8
LAYER_6
 40
0.0353
 41
0.0353
 66
1
 10
0
 20
0
 30
0
  0
VERTEX
  8
LAYER_6
 10
164.3685
 20
-203.5639
  0
VERTEX
  8
LAYER_6
 10
164.3685
 20
-205.0639
  0
VERTEX
  8
LAYER_6
 10
164.1185
 20
-203.5639
  0
SEQEND
  0
ENDBLK
  0
BLOCK
  8
LAYER_6
  2
AIGNBL06020029
 70
64
 10
0
 20
0
 30
0
  3
AIGNBL06020029
  0
POLYLINE
  8
LAYER_6
 40
0.0353
 41
0.0353
 66
1
 10
0
 20
0
 30
0
  0
VERTEX
  8
LAYER_6
 10
164.1185
 20
-179.1639
  0
VERTEX
  8
LAYER_6
 10
164.3685
 20
-177.6639
  0
SEQEND
  0
POLYLINE
  8
LAYER_6
 40
0.0353
 41
0.0353
 66
1
 10
0
 20
0
 30
0
  0
VERTEX
  8
LAYER_6
 10
164.3685
 20
-179.1639
  0
VERTEX
  8
LAYER_6
 10
164.3685
 20
-177.6639
  0
VERTEX
  8
LAYER_6
 10
164.6185
 20
-179.1639
  0
SEQEND
  0
ENDBLK
  0
BLOCK
  8
LAYER_6
  2
AIGNBL0602002A
 70
64
 10
0
 20
0
 30
0
  3
AIGNBL0602002A
  0
POLYLINE
  8
LAYER_6
 40
0.7056
 41
0.7056
 66
1
 10
0
 20
0
 30
0
  0
VERTEX
  8
LAYER_6
 10
180.1938
 20
-205.0639
  0
SEQEND
  0
ENDBLK
  0
BLOCK
  8
LAYER_6
  2
AIGNBL0602002B
 70
64
 10
0
 20
0
 30
0
  3
AIGNBL0602002B
  0
POLYLINE
  8
LAYER_6
 40
0.7056
 41
0.7056
 66
1
 10
0
 20
0
 30
0
  0
VERTEX
  8
LAYER_6
 10
176.9641
 20
-177.6639
  0
SEQEND
  0
ENDBLK
  0
BLOCK
  8
LAYER_6
  2
AIGNBL0602002C
 70
64
 10
0
 20
0
 30
0
  3
AIGNBL0602002C
  0
POLYLINE
  8
LAYER_6
 40
0.7056
 41
0.7056
 66
1
 10
0
 20
0
 30
0
  0
VERTEX
  8
LAYER_6
 10
164.3685
 20
-177.6639
  0
SEQEND
  0
ENDBLK
  0
BLOCK
  8
LAYER_6
  2
AIGNBL0602002E
 70
64
 10
0
 20
0
 30
0
  3
AIGNBL0602002E
  0
POLYLINE
  8
LAYER_6
 40
0.0353
 41
0.0353
 66
1
 10
0
 20
0
 30
0
  0
VERTEX
  8
LAYER_6
 10
79.3239
 20
-181.0194
  0
VERTEX
  8
LAYER_6
 10
79.5739
 20
-179.5194
  0
SEQEND
  0
POLYLINE
  8
LAYER_6
 40
0.0353
 41
0.0353
 66
1
 10
0
 20
0
 30
0
  0
VERTEX
  8
LAYER_6
 10
79.5739
 20
-181.0194
  0
VERTEX
  8
LAYER_6
 10
79.5739
 20
-179.5194
  0
VERTEX
  8
LAYER_6
 10
79.8239
 20
-181.0194
  0
SEQEND
  0
ENDBLK
  0
BLOCK
  8
LAYER_6
  2
AIGNBL0602002F
 70
64
 10
0
 20
0
 30
0
  3
AIGNBL0602002F
  0
POLYLINE
  8
LAYER_6
 40
0.0353
 41
0.0353
 66
1
 10
0
 20
0
 30
0
  0
VERTEX
  8
LAYER_6
 10
79.8239
 20
-196.3194
  0
VERTEX
  8
LAYER_6
 10
79.5739
 20
-197.8194
  0
SEQEND
  0
POLYLINE
  8
LAYER_6
 40
0.0353
 41
0.0353
 66
1
 10
0
 20
0
 30
0
  0
VERTEX
  8
LAYER_6
 10
79.5739
 20
-196.3194
  0
VERTEX
  8
LAYER_6
 10
79.5739
 20
-197.8194
  0
VERTEX
  8
LAYER_6
 10
79.3239
 20
-196.3194
  0
SEQEND
  0
ENDBLK
  0
BLOCK
  8
LAYER_6
  2
AIGNBL06020030
 70
64
 10
0
 20
0
 30
0
  3
AIGNBL06020030
  0
POLYLINE
  8
LAYER_6
 40
0.7056
 41
0.7056
 66
1
 10
0
 20
0
 30
0
  0
VERTEX
  8
LAYER_6
 10
84.0739
 20
-179.5194
  0
SEQEND
  0
ENDBLK
  0
BLOCK
  8
LAYER_6
  2
AIGNBL06020031
 70
64
 10
0
 20
0
 30
0
  3
AIGNBL06020031
  0
POLYLINE
  8
LAYER_6
 40
0.7056
 41
0.7056
 66
1
 10
0
 20
0
 30
0
  0
VERTEX
  8
LAYER_6
 10
84.0739
 20
-197.8194
  0
SEQEND
  0
ENDBLK
  0
BLOCK
  8
LAYER_6
  2
AIGNBL06020032
 70
64
 10
0
 20
0
 30
0
  3
AIGNBL06020032
  0
POLYLINE
  8
LAYER_6
 40
0.7056
 41
0.7056
 66
1
 10
0
 20
0
 30
0
  0
VERTEX
  8
LAYER_6
 10
79.5739
 20
-197.8194
  0
SEQEND
  0
ENDBLK
  0
BLOCK
  8
LAYER_6
  2
AIGNBL06020034
 70
64
 10
0
 20
0
 30
0
  3
AIGNBL06020034
  0
POLYLINE
  8
LAYER_6
 40
0.0353
 41
0.0353
 66
1
 10
0
 20
0
 30
0
  0
VERTEX
  8
LAYER_6
 10
73.3239
 20
-179.1194
  0
VERTEX
  8
LAYER_6
 10
73.5739
 20
-177.6194
  0
SEQEND
  0
POLYLINE
  8
LAYER_6
 40
0.0353
 41
0.0353
 66
1
 10
0
 20
0
 30
0
  0
VERTEX
  8
LAYER_6
 10
73.5739
 20
-179.1194
  0
VERTEX
  8
LAYER_6
 10
73.5739
 20
-177.6194
  0
VERTEX
  8
LAYER_6
 10
73.8239
 20
-179.1194
  0
SEQEND
  0
ENDBLK
  0
BLOCK
  8
LAYER_6
  2
AIGNBL06020035
 70
64
 10
0
 20
0
 30
0
  3
AIGNBL06020035
  0
POLYLINE
  8
LAYER_6
 40
0.0353
 41
0.0353
 66
1
 10
0
 20
0
 30
0
  0
VERTEX
  8
LAYER_6
 10
73.8239
 20
-196.3194
  0
VERTEX
  8
LAYER_6
 10
73.5739
 20
-197.8194
  0
SEQEND
  0
POLYLINE
  8
LAYER_6
 40
0.0353
 41
0.0353
 66
1
 10
0
 20
0
 30
0
  0
VERTEX
  8
LAYER_6
 10
73.5739
 20
-196.3194
  0
VERTEX
  8
LAYER_6
 10
73.5739
 20
-197.8194
  0
VERTEX
  8
LAYER_6
 10
73.3239
 20
-196.3194
  0
SEQEND
  0
ENDBLK
  0
BLOCK
  8
LAYER_6
  2
AIGNBL06020036
 70
64
 10
0
 20
0
 30
0
  3
AIGNBL06020036
  0
POLYLINE
  8
LAYER_6
 40
0.7056
 41
0.7056
 66
1
 10
0
 20
0
 30
0
  0
VERTEX
  8
LAYER_6
 10
87.8441
 20
-177.6194
  0
SEQEND
  0
ENDBLK
  0
BLOCK
  8
LAYER_6
  2
AIGNBL06020037
 70
64
 10
0
 20
0
 30
0
  3
AIGNBL06020037
  0
POLYLINE
  8
LAYER_6
 40
0.7056
 41
0.7056
 66
1
 10
0
 20
0
 30
0
  0
VERTEX
  8
LAYER_6
 10
84.0739
 20
-197.8194
  0
SEQEND
  0
ENDBLK
  0
BLOCK
  8
LAYER_6
  2
AIGNBL06020038
 70
64
 10
0
 20
0
 30
0
  3
AIGNBL06020038
  0
POLYLINE
  8
LAYER_6
 40
0.7056
 41
0.7056
 66
1
 10
0
 20
0
 30
0
  0
VERTEX
  8
LAYER_6
 10
73.5739
 20
-197.8194
  0
SEQEND
  0
ENDBLK
  0
BLOCK
  8
LAYER_6
  2
AIGNBL0602003A
 70
64
 10
0
 20
0
 30
0
  3
AIGNBL0602003A
  0
POLYLINE
  8
LAYER_6
 40
0.0353
 41
0.0353
 66
1
 10
0
 20
0
 30
0
  0
VERTEX
  8
LAYER_6
 10
79.3239
 20
-58.5835
  0
VERTEX
  8
LAYER_6
 10
79.5739
 20
-57.0835
  0
SEQEND
  0
POLYLINE
  8
LAYER_6
 40
0.0353
 41
0.0353
 66
1
 10
0
 20
0
 30
0
  0
VERTEX
  8
LAYER_6
 10
79.5739
 20
-58.5835
  0
VERTEX
  8
LAYER_6
 10
79.5739
 20
-57.0835
  0
VERTEX
  8
LAYER_6
 10
79.8239
 20
-58.5835
  0
SEQEND
  0
ENDBLK
  0
BLOCK
  8
LAYER_6
  2
AIGNBL0602003B
 70
64
 10
0
 20
0
 30
0
  3
AIGNBL0602003B
  0
POLYLINE
  8
LAYER_6
 40
0.0353
 41
0.0353
 66
1
 10
0
 20
0
 30
0
  0
VERTEX
  8
LAYER_6
 10
79.8239
 20
-123.6569
  0
VERTEX
  8
LAYER_6
 10
79.5739
 20
-125.1569
  0
SEQEND
  0
POLYLINE
  8
LAYER_6
 40
0.0353
 41
0.0353
 66
1
 10
0
 20
0
 30
0
  0
VERTEX
  8
LAYER_6
 10
79.5739
 20
-123.6569
  0
VERTEX
  8
LAYER_6
 10
79.5739
 20
-125.1569
  0
VERTEX
  8
LAYER_6
 10
79.3239
 20
-123.6569
  0
SEQEND
  0
ENDBLK
  0
BLOCK
  8
LAYER_6
  2
AIGNBL0602003C
 70
64
 10
0
 20
0
 30
0
  3
AIGNBL0602003C
  0
POLYLINE
  8
LAYER_6
 40
0.7056
 41
0.7056
 66
1
 10
0
 20
0
 30
0
  0
VERTEX
  8
LAYER_6
 10
90.0739
 20
-57.0835
  0
SEQEND
  0
ENDBLK
  0
BLOCK
  8
LAYER_6
  2
AIGNBL0602003D
 70
64
 10
0
 20
0
 30
0
  3
AIGNBL0602003D
  0
POLYLINE
  8
LAYER_6
 40
0.7056
 41
0.7056
 66
1
 10
0
 20
0
 30
0
  0
VERTEX
  8
LAYER_6
 10
86.2339
 20
-125.1569
  0
SEQEND
  0
ENDBLK
  0
BLOCK
  8
LAYER_6
  2
AIGNBL0602003E
 70
64
 10
0
 20
0
 30
0
  3
AIGNBL0602003E
  0
POLYLINE
  8
LAYER_6
 40
0.7056
 41
0.7056
 66
1
 10
0
 20
0
 30
0
  0
VERTEX
  8
LAYER_6
 10
79.5739
 20
-125.1569
  0
SEQEND
  0
ENDBLK
  0
BLOCK
  8
LAYER_6
  2
AIGNBL06020040
 70
64
 10
0
 20
0
 30
0
  3
AIGNBL06020040
  0
POLYLINE
  8
LAYER_6
 40
0.0353
 41
0.0353
 66
1
 10
0
 20
0
 30
0
  0
VERTEX
  8
LAYER_6
 10
139.3039
 20
-123.6524
  0
VERTEX
  8
LAYER_6
 10
139.0539
 20
-125.1524
  0
SEQEND
  0
POLYLINE
  8
LAYER_6
 40
0.0353
 41
0.0353
 66
1
 10
0
 20
0
 30
0
  0
VERTEX
  8
LAYER_6
 10
139.0539
 20
-123.6524
  0
VERTEX
  8
LAYER_6
 10
139.0539
 20
-125.1524
  0
VERTEX
  8
LAYER_6
 10
138.8039
 20
-123.6524
  0
SEQEND
  0
ENDBLK
  0
BLOCK
  8
LAYER_6
  2
AIGNBL06020041
 70
64
 10
0
 20
0
 30
0
  3
AIGNBL06020041
  0
POLYLINE
  8
LAYER_6
 40
0.0353
 41
0.0353
 66
1
 10
0
 20
0
 30
0
  0
VERTEX
  8
LAYER_6
 10
138.8039
 20
-76.476
  0
VERTEX
  8
LAYER_6
 10
139.0539
 20
-74.976
  0
SEQEND
  0
POLYLINE
  8
LAYER_6
 40
0.0353
 41
0.0353
 66
1
 10
0
 20
0
 30
0
  0
VERTEX
  8
LAYER_6
 10
139.0539
 20
-76.476
  0
VERTEX
  8
LAYER_6
 10
139.0539
 20
-74.976
  0
VERTEX
  8
LAYER_6
 10
139.3039
 20
-76.476
  0
SEQEND
  0
ENDBLK
  0
BLOCK
  8
LAYER_6
  2
AIGNBL06020042
 70
64
 10
0
 20
0
 30
0
  3
AIGNBL06020042
  0
POLYLINE
  8
LAYER_6
 40
0.7056
 41
0.7056
 66
1
 10
0
 20
0
 30
0
  0
VERTEX
  8
LAYER_6
 10
175.9285
 20
-125.1524
  0
SEQEND
  0
ENDBLK
  0
BLOCK
  8
LAYER_6
  2
AIGNBL06020043
 70
64
 10
0
 20
0
 30
0
  3
AIGNBL06020043
  0
POLYLINE
  8
LAYER_6
 40
0.7056
 41
0.7056
 66
1
 10
0
 20
0
 30
0
  0
VERTEX
  8
LAYER_6
 10
153.0539
 20
-74.976
  0
SEQEND
  0
ENDBLK
  0
BLOCK
  8
LAYER_6
  2
AIGNBL06020044
 70
64
 10
0
 20
0
 30
0
  3
AIGNBL06020044
  0
POLYLINE
  8
LAYER_6
 40
0.7056
 41
0.7056
 66
1
 10
0
 20
0
 30
0
  0
VERTEX
  8
LAYER_6
 10
139.0539
 20
-74.976
  0
SEQEND
  0
ENDBLK
  0
BLOCK
  8
LAYER_6
  2
AIGNBL06020046
 70
64
 10
0
 20
0
 30
0
  3
AIGNBL06020046
  0
POLYLINE
  8
LAYER_6
 40
0.0353
 41
0.0353
 66
1
 10
0
 20
0
 30
0
  0
VERTEX
  8
LAYER_6
 10
138.8039
 20
-126.6524
  0
VERTEX
  8
LAYER_6
 10
139.0539
 20
-125.1524
  0
SEQEND
  0
POLYLINE
  8
LAYER_6
 40
0.0353
 41
0.0353
 66
1
 10
0
 20
0
 30
0
  0
VERTEX
  8
LAYER_6
 10
139.0539
 20
-126.6524
  0
VERTEX
  8
LAYER_6
 10
139.0539
 20
-125.1524
  0
VERTEX
  8
LAYER_6
 10
139.3039
 20
-126.6524
  0
SEQEND
  0
ENDBLK
  0
BLOCK
  8
LAYER_6
  2
AIGNBL06020047
 70
64
 10
0
 20
0
 30
0
  3
AIGNBL06020047
  0
POLYLINE
  8
LAYER_6
 40
0.0353
 41
0.0353
 66
1
 10
0
 20
0
 30
0
  0
VERTEX
  8
LAYER_6
 10
139.3039
 20
-132.7524
  0
VERTEX
  8
LAYER_6
 10
139.0539
 20
-134.2524
  0
SEQEND
  0
POLYLINE
  8
LAYER_6
 40
0.0353
 41
0.0353
 66
1
 10
0
 20
0
 30
0
  0
VERTEX
  8
LAYER_6
 10
139.0539
 20
-132.7524
  0
VERTEX
  8
LAYER_6
 10
139.0539
 20
-134.2524
  0
VERTEX
  8
LAYER_6
 10
138.8039
 20
-132.7524
  0
SEQEND
  0
ENDBLK
  0
BLOCK
  8
LAYER_6
  2
AIGNBL06020048
 70
64
 10
0
 20
0
 30
0
  3
AIGNBL06020048
  0
POLYLINE
  8
LAYER_6
 40
0.7056
 41
0.7056
 66
1
 10
0
 20
0
 30
0
  0
VERTEX
  8
LAYER_6
 10
175.9285
 20
-125.1524
  0
SEQEND
  0
ENDBLK
  0
BLOCK
  8
LAYER_6
  2
AIGNBL06020049
 70
64
 10
0
 20
0
 30
0
  3
AIGNBL06020049
  0
POLYLINE
  8
LAYER_6
 40
0.7056
 41
0.7056
 66
1
 10
0
 20
0
 30
0
  0
VERTEX
  8
LAYER_6
 10
177.973
 20
-134.2524
  0
SEQEND
  0
ENDBLK
  0
BLOCK
  8
LAYER_6
  2
AIGNBL0602004A
 70
64
 10
0
 20
0
 30
0
  3
AIGNBL0602004A
  0
POLYLINE
  8
LAYER_6
 40
0.7056
 41
0.7056
 66
1
 10
0
 20
0
 30
0
  0
VERTEX
  8
LAYER_6
 10
139.0539
 20
-134.2524
  0
SEQEND
  0
ENDBLK
  0
BLOCK
  8
LAYER_6
  2
AIGNBL0602004C
 70
64
 10
0
 20
0
 30
0
  3
AIGNBL0602004C
  0
POLYLINE
  8
LAYER_6
 40
0.0353
 41
0.0353
 66
1
 10
0
 20
0
 30
0
  0
VERTEX
  8
LAYER_6
 10
178.2685
 20
-85.8094
  0
VERTEX
  8
LAYER_6
 10
179.7685
 20
-86.0594
  0
SEQEND
  0
POLYLINE
  8
LAYER_6
 40
0.0353
 41
0.0353
 66
1
 10
0
 20
0
 30
0
  0
VERTEX
  8
LAYER_6
 10
178.2685
 20
-86.0594
  0
VERTEX
  8
LAYER_6
 10
179.7685
 20
-86.0594
  0
VERTEX
  8
LAYER_6
 10
178.2685
 20
-86.3094
  0
SEQEND
  0
ENDBLK
  0
BLOCK
  8
LAYER_6
  2
AIGNBL0602004D
 70
64
 10
0
 20
0
 30
0
  3
AIGNBL0602004D
  0
POLYLINE
  8
LAYER_6
 40
0.0353
 41
0.0353
 66
1
 10
0
 20
0
 30
0
  0
VERTEX
  8
LAYER_6
 10
154.5539
 20
-86.3094
  0
VERTEX
  8
LAYER_6
 10
153.0539
 20
-86.0594
  0
SEQEND
  0
POLYLINE
  8
LAYER_6
 40
0.0353
 41
0.0353
 66
1
 10
0
 20
0
 30
0
  0
VERTEX
  8
LAYER_6
 10
154.5539
 20
-86.0594
  0
VERTEX
  8
LAYER_6
 10
153.0539
 20
-86.0594
  0
VERTEX
  8
LAYER_6
 10
154.5539
 20
-85.8094
  0
SEQEND
  0
ENDBLK
  0
BLOCK
  8
LAYER_6
  2
AIGNBL0602004E
 70
64
 10
0
 20
0
 30
0
  3
AIGNBL0602004E
  0
POLYLINE
  8
LAYER_6
 40
0.7056
 41
0.7056
 66
1
 10
0
 20
0
 30
0
  0
VERTEX
  8
LAYER_6
 10
179.7685
 20
-89.9569
  0
SEQEND
  0
ENDBLK
  0
BLOCK
  8
LAYER_6
  2
AIGNBL0602004F
 70
64
 10
0
 20
0
 30
0
  3
AIGNBL0602004F
  0
POLYLINE
  8
LAYER_6
 40
0.7056
 41
0.7056
 66
1
 10
0
 20
0
 30
0
  0
VERTEX
  8
LAYER_6
 10
153.0539
 20
-76.802
  0
SEQEND
  0
ENDBLK
  0
BLOCK
  8
LAYER_6
  2
AIGNBL06020050
 70
64
 10
0
 20
0
 30
0
  3
AIGNBL06020050
  0
POLYLINE
  8
LAYER_6
 40
0.7056
 41
0.7056
 66
1
 10
0
 20
0
 30
0
  0
VERTEX
  8
LAYER_6
 10
153.0539
 20
-86.0594
  0
SEQEND
  0
ENDBLK
  0
BLOCK
  8
LAYER_6
  2
AIGNBL06020052
 70
64
 10
0
 20
0
 30
0
  3
AIGNBL06020052
  0
POLYLINE
  8
LAYER_6
 40
0.0353
 41
0.0353
 66
1
 10
0
 20
0
 30
0
  0
VERTEX
  8
LAYER_6
 10
142.0022
 20
-95.148
  0
VERTEX
  8
LAYER_6
 10
143.2276
 20
-96.0485
  0
SEQEND
  0
POLYLINE
  8
LAYER_6
 40
0.0353
 41
0.0353
 66
1
 10
0
 20
0
 30
0
  0
VERTEX
  8
LAYER_6
 10
141.8893
 20
-95.371
  0
VERTEX
  8
LAYER_6
 10
143.2276
 20
-96.0485
  0
VERTEX
  8
LAYER_6
 10
141.7764
 20
-95.5941
  0
SEQEND
  0
ENDBLK
  0
BLOCK
  8
LAYER_6
  2
AIGNBL06020053
 70
64
 10
0
 20
0
 30
0
  3
AIGNBL06020053
  0
POLYLINE
  8
LAYER_6
 40
0.0353
 41
0.0353
 66
1
 10
0
 20
0
 30
0
  0
VERTEX
  8
LAYER_6
 10
154.5612
 20
-98.4284
  0
VERTEX
  8
LAYER_6
 10
153.0539
 20
-98.2269
  0
SEQEND
  0
POLYLINE
  8
LAYER_6
 40
0.0353
 41
0.0353
 66
1
 10
0
 20
0
 30
0
  0
VERTEX
  8
LAYER_6
 10
154.5531
 20
-98.1785
  0
VERTEX
  8
LAYER_6
 10
153.0539
 20
-98.2269
  0
VERTEX
  8
LAYER_6
 10
154.545
 20
-97.9287
  0
SEQEND
  0
ENDBLK
  0
BLOCK
  8
LAYER_6
  2
AIGNBL06020054
 70
64
 10
0
 20
0
 30
0
  3
AIGNBL06020054
  0
POLYLINE
  8
LAYER_6
 40
0.7056
 41
0.7056
 66
1
 10
0
 20
0
 30
0
  0
VERTEX
  8
LAYER_6
 10
146.3855
 20
-97.2501
  0
SEQEND
  0
ENDBLK
  0
BLOCK
  8
LAYER_6
  2
AIGNBL06020055
 70
64
 10
0
 20
0
 30
0
  3
AIGNBL06020055
  0
POLYLINE
  8
LAYER_6
 40
0.7056
 41
0.7056
 66
1
 10
0
 20
0
 30
0
  0
VERTEX
  8
LAYER_6
 10
152.8426
 20
-75.4292
  0
SEQEND
  0
ENDBLK
  0
BLOCK
  8
LAYER_6
  2
AIGNBL06020056
 70
64
 10
0
 20
0
 30
0
  3
AIGNBL06020056
  0
POLYLINE
  8
LAYER_6
 40
0.7056
 41
0.7056
 66
1
 10
0
 20
0
 30
0
  0
VERTEX
  8
LAYER_6
 10
153.0539
 20
-74.976
  0
SEQEND
  0
ENDBLK
  0
BLOCK
  8
LAYER_6
  2
AIGNBL06020057
 70
64
 10
0
 20
0
 30
0
  3
AIGNBL06020057
  0
POLYLINE
  8
LAYER_6
 40
0.7056
 41
0.7056
 66
1
 10
0
 20
0
 30
0
  0
VERTEX
  8
LAYER_6
 10
153.0539
 20
-76.802
  0
SEQEND
  0
ENDBLK
  0
BLOCK
  8
LAYER_6
  2
AIGNBL06020058
 70
64
 10
0
 20
0
 30
0
  3
AIGNBL06020058
  0
POLYLINE
  8
LAYER_6
 40
0.7056
 41
0.7056
 66
1
 10
0
 20
0
 30
0
  0
VERTEX
  8
LAYER_6
 10
157.7872
 20
-64.8254
  0
SEQEND
  0
ENDBLK
  0
BLOCK
  8
LAYER_6
  2
AIGNBL0602005A
 70
64
 10
0
 20
0
 30
0
  3
AIGNBL0602005A
  0
POLYLINE
  8
LAYER_6
 40
0.0353
 41
0.0353
 66
1
 10
0
 20
0
 30
0
  0
VERTEX
  8
LAYER_6
 10
164.1185
 20
-126.6524
  0
VERTEX
  8
LAYER_6
 10
164.3685
 20
-125.1524
  0
SEQEND
  0
POLYLINE
  8
LAYER_6
 40
0.0353
 41
0.0353
 66
1
 10
0
 20
0
 30
0
  0
VERTEX
  8
LAYER_6
 10
164.3685
 20
-126.6524
  0
VERTEX
  8
LAYER_6
 10
164.3685
 20
-125.1524
  0
VERTEX
  8
LAYER_6
 10
164.6185
 20
-126.6524
  0
SEQEND
  0
ENDBLK
  0
BLOCK
  8
LAYER_6
  2
AIGNBL0602005B
 70
64
 10
0
 20
0
 30
0
  3
AIGNBL0602005B
  0
POLYLINE
  8
LAYER_6
 40
0.0353
 41
0.0353
 66
1
 10
0
 20
0
 30
0
  0
VERTEX
  8
LAYER_6
 10
164.6185
 20
-128.9524
  0
VERTEX
  8
LAYER_6
 10
164.3685
 20
-130.4524
  0
SEQEND
  0
POLYLINE
  8
LAYER_6
 40
0.0353
 41
0.0353
 66
1
 10
0
 20
0
 30
0
  0
VERTEX
  8
LAYER_6
 10
164.3685
 20
-128.9524
  0
VERTEX
  8
LAYER_6
 10
164.3685
 20
-130.4524
  0
VERTEX
  8
LAYER_6
 10
164.1185
 20
-128.9524
  0
SEQEND
  0
ENDBLK
  0
BLOCK
  8
LAYER_6
  2
AIGNBL0602005C
 70
64
 10
0
 20
0
 30
0
  3
AIGNBL0602005C
  0
POLYLINE
  8
LAYER_6
 40
0.7056
 41
0.7056
 66
1
 10
0
 20
0
 30
0
  0
VERTEX
  8
LAYER_6
 10
179.7685
 20
-130.4524
  0
SEQEND
  0
ENDBLK
  0
BLOCK
  8
LAYER_6
  2
AIGNBL0602005D
 70
64
 10
0
 20
0
 30
0
  3
AIGNBL0602005D
  0
POLYLINE
  8
LAYER_6
 40
0.7056
 41
0.7056
 66
1
 10
0
 20
0
 30
0
  0
VERTEX
  8
LAYER_6
 10
179.7685
 20
-125.1524
  0
SEQEND
  0
ENDBLK
  0
BLOCK
  8
LAYER_6
  2
AIGNBL0602005E
 70
64
 10
0
 20
0
 30
0
  3
AIGNBL0602005E
  0
POLYLINE
  8
LAYER_6
 40
0.7056
 41
0.7056
 66
1
 10
0
 20
0
 30
0
  0
VERTEX
  8
LAYER_6
 10
164.3685
 20
-125.1524
  0
SEQEND
  0
ENDBLK
  0
BLOCK
  8
LAYER_6
  2
AIGNBL06020060
 70
64
 10
0
 20
0
 30
0
  3
AIGNBL06020060
  0
POLYLINE
  8
LAYER_6
 40
0.0353
 41
0.0353
 66
1
 10
0
 20
0
 30
0
  0
VERTEX
  8
LAYER_6
 10
177.6685
 20
-216.8139
  0
VERTEX
  8
LAYER_6
 10
179.1685
 20
-217.0639
  0
SEQEND
  0
POLYLINE
  8
LAYER_6
 40
0.0353
 41
0.0353
 66
1
 10
0
 20
0
 30
0
  0
VERTEX
  8
LAYER_6
 10
177.6685
 20
-217.0639
  0
VERTEX
  8
LAYER_6
 10
179.1685
 20
-217.0639
  0
VERTEX
  8
LAYER_6
 10
177.6685
 20
-217.3139
  0
SEQEND
  0
ENDBLK
  0
BLOCK
  8
LAYER_6
  2
AIGNBL06020061
 70
64
 10
0
 20
0
 30
0
  3
AIGNBL06020061
  0
POLYLINE
  8
LAYER_6
 40
0.0353
 41
0.0353
 66
1
 10
0
 20
0
 30
0
  0
VERTEX
  8
LAYER_6
 10
184.3685
 20
-217.3139
  0
VERTEX
  8
LAYER_6
 10
182.8685
 20
-217.0639
  0
SEQEND
  0
POLYLINE
  8
LAYER_6
 40
0.0353
 41
0.0353
 66
1
 10
0
 20
0
 30
0
  0
VERTEX
  8
LAYER_6
 10
184.3685
 20
-217.0639
  0
VERTEX
  8
LAYER_6
 10
182.8685
 20
-217.0639
  0
VERTEX
  8
LAYER_6
 10
184.3685
 20
-216.8139
  0
SEQEND
  0
ENDBLK
  0
BLOCK
  8
LAYER_6
  2
AIGNBL06020062
 70
64
 10
0
 20
0
 30
0
  3
AIGNBL06020062
  0
POLYLINE
  8
LAYER_6
 40
0.7056
 41
0.7056
 66
1
 10
0
 20
0
 30
0
  0
VERTEX
  8
LAYER_6
 10
179.1685
 20
-206.1949
  0
SEQEND
  0
ENDBLK
  0
BLOCK
  8
LAYER_6
  2
AIGNBL06020063
 70
64
 10
0
 20
0
 30
0
  3
AIGNBL06020063
  0
POLYLINE
  8
LAYER_6
 40
0.7056
 41
0.7056
 66
1
 10
0
 20
0
 30
0
  0
VERTEX
  8
LAYER_6
 10
182.8685
 20
-206.9949
  0
SEQEND
  0
ENDBLK
  0
BLOCK
  8
LAYER_6
  2
AIGNBL06020064
 70
64
 10
0
 20
0
 30
0
  3
AIGNBL06020064
  0
POLYLINE
  8
LAYER_6
 40
0.7056
 41
0.7056
 66
1
 10
0
 20
0
 30
0
  0
VERTEX
  8
LAYER_6
 10
182.8685
 20
-217.0639
  0
SEQEND
  0
ENDBLK
  0
BLOCK
  8
LAYER_6
  2
AIGNBL06020066
 70
64
 10
0
 20
0
 30
0
  3
AIGNBL06020066
  0
POLYLINE
  8
LAYER_6
 40
0.0353
 41
0.0353
 66
1
 10
0
 20
0
 30
0
  0
VERTEX
  8
LAYER_6
 10
151.5905
 20
-49.329
  0
VERTEX
  8
LAYER_6
 10
150.0905
 20
-49.079
  0
SEQEND
  0
POLYLINE
  8
LAYER_6
 40
0.0353
 41
0.0353
 66
1
 10
0
 20
0
 30
0
  0
VERTEX
  8
LAYER_6
 10
151.5905
 20
-49.079
  0
VERTEX
  8
LAYER_6
 10
150.0905
 20
-49.079
  0
VERTEX
  8
LAYER_6
 10
151.5905
 20
-48.829
  0
SEQEND
  0
ENDBLK
  0
BLOCK
  8
LAYER_6
  2
AIGNBL06020067
 70
64
 10
0
 20
0
 30
0
  3
AIGNBL06020067
  0
POLYLINE
  8
LAYER_6
 40
0.0353
 41
0.0353
 66
1
 10
0
 20
0
 30
0
  0
VERTEX
  8
LAYER_6
 10
178.2685
 20
-48.829
  0
VERTEX
  8
LAYER_6
 10
179.7685
 20
-49.079
  0
SEQEND
  0
POLYLINE
  8
LAYER_6
 40
0.0353
 41
0.0353
 66
1
 10
0
 20
0
 30
0
  0
VERTEX
  8
LAYER_6
 10
178.2685
 20
-49.079
  0
VERTEX
  8
LAYER_6
 10
179.7685
 20
-49.079
  0
VERTEX
  8
LAYER_6
 10
178.2685
 20
-49.329
  0
SEQEND
  0
ENDBLK
  0
BLOCK
  8
LAYER_6
  2
AIGNBL06020068
 70
64
 10
0
 20
0
 30
0
  3
AIGNBL06020068
  0
POLYLINE
  8
LAYER_6
 40
0.7056
 41
0.7056
 66
1
 10
0
 20
0
 30
0
  0
VERTEX
  8
LAYER_6
 10
150.0905
 20
-73.4397
  0
SEQEND
  0
ENDBLK
  0
BLOCK
  8
LAYER_6
  2
AIGNBL06020069
 70
64
 10
0
 20
0
 30
0
  3
AIGNBL06020069
  0
POLYLINE
  8
LAYER_6
 40
0.7056
 41
0.7056
 66
1
 10
0
 20
0
 30
0
  0
VERTEX
  8
LAYER_6
 10
179.7685
 20
-72.099
  0
SEQEND
  0
ENDBLK
  0
BLOCK
  8
LAYER_6
  2
AIGNBL0602006A
 70
64
 10
0
 20
0
 30
0
  3
AIGNBL0602006A
  0
POLYLINE
  8
LAYER_6
 40
0.7056
 41
0.7056
 66
1
 10
0
 20
0
 30
0
  0
VERTEX
  8
LAYER_6
 10
179.7685
 20
-49.079
  0
SEQEND
  0
ENDBLK
  0
BLOCK
  8
LAYER_1
  2
AIGNBL01010002
 70
64
 10
0
 20
0
 30
0
  3
AIGNBL01010002
  0
INSERT
  8
LAYER_1
  2
AIGNBL01020003
 10
0
 20
0
 30
0
  0
INSERT
  8
LAYER_1
  2
AIGNBL0102000C
 10
0
 20
0
 30
0
  0
ENDBLK
  0
BLOCK
  8
LAYER_6
  2
AIGNBL06010002
 70
64
 10
0
 20
0
 30
0
  3
AIGNBL06010002
  0
POLYLINE
  8
LAYER_6
 40
0.7056
 41
0.7056
 66
1
 10
0
 20
0
 30
0
 70
1
  0
VERTEX
  8
LAYER_6
 10
33.7873
 20
22.6587
  0
VERTEX
  8
LAYER_6
 10
230.7955
 20
22.6587
  0
VERTEX
  8
LAYER_6
 10
230.7955
 20
-259.334
  0
VERTEX
  8
LAYER_6
 10
33.7873
 20
-259.334
  0
SEQEND
  0
ENDBLK
  0
BLOCK
  8
LAYER_6
  2
AIGNBL06010003
 70
64
 10
0
 20
0
 30
0
  3
AIGNBL06010003
  0
POLYLINE
  8
LAYER_6
 40
0.0353
 41
0.0353
 66
1
 10
0
 20
0
 30
0
  0
VERTEX
  8
LAYER_6
 10
83.5739
 20
-180.0194
  0
VERTEX
  8
LAYER_6
 10
83.5739
 20
-165.6242
  0
SEQEND
  0
POLYLINE
  8
LAYER_6
 40
0.0353
 41
0.0353
 66
1
 10
0
 20
0
 30
0
  0
VERTEX
  8
LAYER_6
 10
96.5739
 20
-180.0194
  0
VERTEX
  8
LAYER_6
 10
96.5739
 20
-165.6242
  0
SEQEND
  0
POLYLINE
  8
LAYER_6
 40
0.0353
 41
0.0353
 66
1
 10
0
 20
0
 30
0
  0
VERTEX
  8
LAYER_6
 10
85.0739
 20
-167.6242
  0
VERTEX
  8
LAYER_6
 10
95.0739
 20
-167.6242
  0
SEQEND
  0
INSERT
  8
LAYER_6
  2
AIGNBL06020004
 10
0
 20
0
 30
0
  0
INSERT
  8
LAYER_6
  2
AIGNBL06020005
 10
0
 20
0
 30
0
  0
TEXT
  8
LAYER_6
 10
96.4525
 20
-166.4165
 11
96.4525
 21
-166.4165
 40
3.7079
 41
0.5
 72
1
  1
65
  0
INSERT
  8
LAYER_6
  2
AIGNBL06020006
 10
0
 20
0
 30
0
  0
INSERT
  8
LAYER_6
  2
AIGNBL06020007
 10
0
 20
0
 30
0
  0
INSERT
  8
LAYER_6
  2
AIGNBL06020008
 10
0
 20
0
 30
0
  0
ENDBLK
  0
BLOCK
  8
LAYER_6
  2
AIGNBL06010009
 70
64
 10
0
 20
0
 30
0
  3
AIGNBL06010009
  0
POLYLINE
  8
LAYER_6
 40
0.0353
 41
0.0353
 66
1
 10
0
 20
0
 30
0
  0
VERTEX
  8
LAYER_6
 10
86.1739
 20
-125.0969
  0
VERTEX
  8
LAYER_6
 10
86.1739
 20
-129.8095
  0
SEQEND
  0
POLYLINE
  8
LAYER_6
 40
0.0353
 41
0.0353
 66
1
 10
0
 20
0
 30
0
  0
VERTEX
  8
LAYER_6
 10
93.9739
 20
-125.0969
  0
VERTEX
  8
LAYER_6
 10
93.9739
 20
-129.8095
  0
SEQEND
  0
POLYLINE
  8
LAYER_6
 40
0.0353
 41
0.0353
 66
1
 10
0
 20
0
 30
0
  0
VERTEX
  8
LAYER_6
 10
87.6739
 20
-127.8095
  0
VERTEX
  8
LAYER_6
 10
92.4739
 20
-127.8095
  0
SEQEND
  0
POLYLINE
  8
LAYER_6
 40
0.0353
 41
0.0353
 66
1
 10
0
 20
0
 30
0
  0
VERTEX
  8
LAYER_6
 10
93.9739
 20
-127.8095
  0
VERTEX
  8
LAYER_6
 10
102.8619
 20
-127.8095
  0
SEQEND
  0
INSERT
  8
LAYER_6
  2
AIGNBL0602000A
 10
0
 20
0
 30
0
  0
INSERT
  8
LAYER_6
  2
AIGNBL0602000B
 10
0
 20
0
 30
0
  0
TEXT
  8
LAYER_6
 10
101.1504
 20
-126.5078
 11
101.1504
 21
-126.5078
 40
3.7079
 41
0.5
 72
1
  1
%%c39
  0
INSERT
  8
LAYER_6
  2
AIGNBL0602000C
 10
0
 20
0
 30
0
  0
INSERT
  8
LAYER_6
  2
AIGNBL0602000D
 10
0
 20
0
 30
0
  0
INSERT
  8
LAYER_6
  2
AIGNBL0602000E
 10
0
 20
0
 30
0
  0
ENDBLK
  0
BLOCK
  8
LAYER_6
  2
AIGNBL0601000F
 70
64
 10
0
 20
0
 30
0
  3
AIGNBL0601000F
  0
POLYLINE
  8
LAYER_6
 40
0.0353
 41
0.0353
 66
1
 10
0
 20
0
 30
0
  0
VERTEX
  8
LAYER_6
 10
87.5339
 20
-90.0214
  0
VERTEX
  8
LAYER_6
 10
87.5339
 20
-85.9614
  0
SEQEND
  0
POLYLINE
  8
LAYER_6
 40
0.0353
 41
0.0353
 66
1
 10
0
 20
0
 30
0
  0
VERTEX
  8
LAYER_6
 10
92.6139
 20
-90.0214
  0
VERTEX
  8
LAYER_6
 10
92.6139
 20
-85.9614
  0
SEQEND
  0
POLYLINE
  8
LAYER_6
 40
0.0353
 41
0.0353
 66
1
 10
0
 20
0
 30
0
  0
VERTEX
  8
LAYER_6
 10
89.0339
 20
-87.9614
  0
VERTEX
  8
LAYER_6
 10
91.1139
 20
-87.9614
  0
SEQEND
  0
POLYLINE
  8
LAYER_6
 40
0.0353
 41
0.0353
 66
1
 10
0
 20
0
 30
0
  0
VERTEX
  8
LAYER_6
 10
92.6139
 20
-87.9614
  0
VERTEX
  8
LAYER_6
 10
105.3099
 20
-87.9614
  0
SEQEND
  0
INSERT
  8
LAYER_6
  2
AIGNBL06020010
 10
0
 20
0
 30
0
  0
INSERT
  8
LAYER_6
  2
AIGNBL06020011
 10
0
 20
0
 30
0
  0
TEXT
  8
LAYER_6
 10
100.8843
 20
-86.6596
 11
100.8843
 21
-86.6596
 40
3.7079
 41
0.5
 72
1
  1
%%c25.4
  0
INSERT
  8
LAYER_6
  2
AIGNBL06020012
 10
0
 20
0
 30
0
  0
INSERT
  8
LAYER_6
  2
AIGNBL06020013
 10
0
 20
0
 30
0
  0
INSERT
  8
LAYER_6
  2
AIGNBL06020014
 10
0
 20
0
 30
0
  0
ENDBLK
  0
BLOCK
  8
LAYER_6
  2
AIGNBL06010015
 70
64
 10
0
 20
0
 30
0
  3
AIGNBL06010015
  0
POLYLINE
  8
LAYER_6
 40
0.0353
 41
0.0353
 66
1
 10
0
 20
0
 30
0
  0
VERTEX
  8
LAYER_6
 10
174.3685
 20
-180.1572
  0
VERTEX
  8
LAYER_6
 10
174.3685
 20
-165.6197
  0
SEQEND
  0
POLYLINE
  8
LAYER_6
 40
0.0353
 41
0.0353
 66
1
 10
0
 20
0
 30
0
  0
VERTEX
  8
LAYER_6
 10
191.1685
 20
-179.5149
  0
VERTEX
  8
LAYER_6
 10
191.1685
 20
-165.6197
  0
SEQEND
  0
POLYLINE
  8
LAYER_6
 40
0.0353
 41
0.0353
 66
1
 10
0
 20
0
 30
0
  0
VERTEX
  8
LAYER_6
 10
175.8685
 20
-167.6197
  0
VERTEX
  8
LAYER_6
 10
189.6685
 20
-167.6197
  0
SEQEND
  0
INSERT
  8
LAYER_6
  2
AIGNBL06020016
 10
0
 20
0
 30
0
  0
INSERT
  8
LAYER_6
  2
AIGNBL06020017
 10
0
 20
0
 30
0
  0
TEXT
  8
LAYER_6
 10
185.4552
 20
-166.412
 11
185.4552
 21
-166.412
 40
3.7079
 41
0.5
 72
1
  1
84
  0
INSERT
  8
LAYER_6
  2
AIGNBL06020018
 10
0
 20
0
 30
0
  0
INSERT
  8
LAYER_6
  2
AIGNBL06020019
 10
0
 20
0
 30
0
  0
INSERT
  8
LAYER_6
  2
AIGNBL0602001A
 10
0
 20
0
 30
0
  0
ENDBLK
  0
BLOCK
  8
LAYER_6
  2
AIGNBL0601001B
 70
64
 10
0
 20
0
 30
0
  3
AIGNBL0601001B
  0
POLYLINE
  8
LAYER_6
 40
0.0353
 41
0.0353
 66
1
 10
0
 20
0
 30
0
  0
VERTEX
  8
LAYER_6
 10
179.1685
 20
-179.6197
  0
VERTEX
  8
LAYER_6
 10
179.1685
 20
-171.515
  0
SEQEND
  0
POLYLINE
  8
LAYER_6
 40
0.0353
 41
0.0353
 66
1
 10
0
 20
0
 30
0
  0
VERTEX
  8
LAYER_6
 10
191.1609
 20
-179.515
  0
VERTEX
  8
LAYER_6
 10
191.1609
 20
-171.515
  0
SEQEND
  0
POLYLINE
  8
LAYER_6
 40
0.0353
 41
0.0353
 66
1
 10
0
 20
0
 30
0
  0
VERTEX
  8
LAYER_6
 10
180.6685
 20
-173.515
  0
VERTEX
  8
LAYER_6
 10
189.6609
 20
-173.515
  0
SEQEND
  0
POLYLINE
  8
LAYER_6
 40
0.0353
 41
0.0353
 66
1
 10
0
 20
0
 30
0
  0
VERTEX
  8
LAYER_6
 10
191.1609
 20
-173.515
  0
VERTEX
  8
LAYER_6
 10
201.4531
 20
-173.515
  0
SEQEND
  0
INSERT
  8
LAYER_6
  2
AIGNBL0602001C
 10
0
 20
0
 30
0
  0
INSERT
  8
LAYER_6
  2
AIGNBL0602001D
 10
0
 20
0
 30
0
  0
TEXT
  8
LAYER_6
 10
199.2127
 20
-172.2132
 11
199.2127
 21
-172.2132
 40
3.7079
 41
0.5
 72
1
  1
（60）
  0
INSERT
  8
LAYER_6
  2
AIGNBL0602001E
 10
0
 20
0
 30
0
  0
INSERT
  8
LAYER_6
  2
AIGNBL0602001F
 10
0
 20
0
 30
0
  0
INSERT
  8
LAYER_6
  2
AIGNBL06020020
 10
0
 20
0
 30
0
  0
ENDBLK
  0
BLOCK
  8
LAYER_6
  2
AIGNBL06010021
 70
64
 10
0
 20
0
 30
0
  3
AIGNBL06010021
  0
POLYLINE
  8
LAYER_6
 40
0.0353
 41
0.0353
 66
1
 10
0
 20
0
 30
0
  0
VERTEX
  8
LAYER_6
 10
174.3685
 20
-180.1572
  0
VERTEX
  8
LAYER_6
 10
174.3685
 20
-171.531
  0
SEQEND
  0
POLYLINE
  8
LAYER_6
 40
0.0353
 41
0.0353
 66
1
 10
0
 20
0
 30
0
  0
VERTEX
  8
LAYER_6
 10
179.1685
 20
-179.6197
  0
VERTEX
  8
LAYER_6
 10
179.1685
 20
-171.531
  0
SEQEND
  0
POLYLINE
  8
LAYER_6
 40
0.0353
 41
0.0353
 66
1
 10
0
 20
0
 30
0
  0
VERTEX
  8
LAYER_6
 10
177.6685
 20
-173.531
  0
VERTEX
  8
LAYER_6
 10
175.8685
 20
-173.531
  0
SEQEND
  0
POLYLINE
  8
LAYER_6
 40
0.0353
 41
0.0353
 66
1
 10
0
 20
0
 30
0
  0
VERTEX
  8
LAYER_6
 10
174.3685
 20
-173.531
  0
VERTEX
  8
LAYER_6
 10
164.0763
 20
-173.531
  0
SEQEND
  0
INSERT
  8
LAYER_6
  2
AIGNBL06020022
 10
0
 20
0
 30
0
  0
INSERT
  8
LAYER_6
  2
AIGNBL06020023
 10
0
 20
0
 30
0
  0
TEXT
  8
LAYER_6
 10
170.628
 20
-172.2294
 11
170.628
 21
-172.2294
 40
3.7079
 41
0.5
 72
1
  1
（24）
  0
INSERT
  8
LAYER_6
  2
AIGNBL06020024
 10
0
 20
0
 30
0
  0
INSERT
  8
LAYER_6
  2
AIGNBL06020025
 10
0
 20
0
 30
0
  0
INSERT
  8
LAYER_6
  2
AIGNBL06020026
 10
0
 20
0
 30
0
  0
ENDBLK
  0
BLOCK
  8
LAYER_6
  2
AIGNBL06010027
 70
64
 10
0
 20
0
 30
0
  3
AIGNBL06010027
  0
POLYLINE
  8
LAYER_6
 40
0.0353
 41
0.0353
 66
1
 10
0
 20
0
 30
0
  0
VERTEX
  8
LAYER_6
 10
180.1938
 20
-205.0639
  0
VERTEX
  8
LAYER_6
 10
162.3685
 20
-205.0639
  0
SEQEND
  0
POLYLINE
  8
LAYER_6
 40
0.0353
 41
0.0353
 66
1
 10
0
 20
0
 30
0
  0
VERTEX
  8
LAYER_6
 10
176.9641
 20
-177.6639
  0
VERTEX
  8
LAYER_6
 10
162.3685
 20
-177.6639
  0
SEQEND
  0
POLYLINE
  8
LAYER_6
 40
0.0353
 41
0.0353
 66
1
 10
0
 20
0
 30
0
  0
VERTEX
  8
LAYER_6
 10
164.3685
 20
-203.5639
  0
VERTEX
  8
LAYER_6
 10
164.3685
 20
-179.1639
  0
SEQEND
  0
INSERT
  8
LAYER_6
  2
AIGNBL06020028
 10
0
 20
0
 30
0
  0
INSERT
  8
LAYER_6
  2
AIGNBL06020029
 10
0
 20
0
 30
0
  0
TEXT
  8
LAYER_6
 10
163.0665
 20
-188.9912
 11
163.0665
 21
-188.9912
 40
3.7079
 41
0.5
 50
89.99999999
 72
1
  1
（137）
  0
INSERT
  8
LAYER_6
  2
AIGNBL0602002A
 10
0
 20
0
 30
0
  0
INSERT
  8
LAYER_6
  2
AIGNBL0602002B
 10
0
 20
0
 30
0
  0
INSERT
  8
LAYER_6
  2
AIGNBL0602002C
 10
0
 20
0
 30
0
  0
ENDBLK
  0
BLOCK
  8
LAYER_6
  2
AIGNBL0601002D
 70
64
 10
0
 20
0
 30
0
  3
AIGNBL0601002D
  0
POLYLINE
  8
LAYER_6
 40
0.0353
 41
0.0353
 66
1
 10
0
 20
0
 30
0
  0
VERTEX
  8
LAYER_6
 10
84.0739
 20
-179.5194
  0
VERTEX
  8
LAYER_6
 10
77.5739
 20
-179.5194
  0
SEQEND
  0
POLYLINE
  8
LAYER_6
 40
0.0353
 41
0.0353
 66
1
 10
0
 20
0
 30
0
  0
VERTEX
  8
LAYER_6
 10
84.0739
 20
-197.8194
  0
VERTEX
  8
LAYER_6
 10
77.5739
 20
-197.8194
  0
SEQEND
  0
POLYLINE
  8
LAYER_6
 40
0.0353
 41
0.0353
 66
1
 10
0
 20
0
 30
0
  0
VERTEX
  8
LAYER_6
 10
79.5739
 20
-181.0194
  0
VERTEX
  8
LAYER_6
 10
79.5739
 20
-196.3194
  0
SEQEND
  0
INSERT
  8
LAYER_6
  2
AIGNBL0602002E
 10
0
 20
0
 30
0
  0
INSERT
  8
LAYER_6
  2
AIGNBL0602002F
 10
0
 20
0
 30
0
  0
TEXT
  8
LAYER_6
 10
78.3661
 20
-186.7926
 11
78.3661
 21
-186.7926
 40
3.7079
 41
0.5
 50
89.99999999
 72
1
  1
91.5
  0
INSERT
  8
LAYER_6
  2
AIGNBL06020030
 10
0
 20
0
 30
0
  0
INSERT
  8
LAYER_6
  2
AIGNBL06020031
 10
0
 20
0
 30
0
  0
INSERT
  8
LAYER_6
  2
AIGNBL06020032
 10
0
 20
0
 30
0
  0
ENDBLK
  0
BLOCK
  8
LAYER_6
  2
AIGNBL06010033
 70
64
 10
0
 20
0
 30
0
  3
AIGNBL06010033
  0
POLYLINE
  8
LAYER_6
 40
0.0353
 41
0.0353
 66
1
 10
0
 20
0
 30
0
  0
VERTEX
  8
LAYER_6
 10
87.8441
 20
-177.6194
  0
VERTEX
  8
LAYER_6
 10
71.5739
 20
-177.6194
  0
SEQEND
  0
POLYLINE
  8
LAYER_6
 40
0.0353
 41
0.0353
 66
1
 10
0
 20
0
 30
0
  0
VERTEX
  8
LAYER_6
 10
84.0739
 20
-197.8194
  0
VERTEX
  8
LAYER_6
 10
71.5739
 20
-197.8194
  0
SEQEND
  0
POLYLINE
  8
LAYER_6
 40
0.0353
 41
0.0353
 66
1
 10
0
 20
0
 30
0
  0
VERTEX
  8
LAYER_6
 10
73.5739
 20
-179.1194
  0
VERTEX
  8
LAYER_6
 10
73.5739
 20
-196.3194
  0
SEQEND
  0
INSERT
  8
LAYER_6
  2
AIGNBL06020034
 10
0
 20
0
 30
0
  0
INSERT
  8
LAYER_6
  2
AIGNBL06020035
 10
0
 20
0
 30
0
  0
TEXT
  8
LAYER_6
 10
72.3661
 20
-184.6395
 11
72.3661
 21
-184.6395
 40
3.7079
 41
0.5
 50
89.99999999
 72
1
  1
101
  0
INSERT
  8
LAYER_6
  2
AIGNBL06020036
 10
0
 20
0
 30
0
  0
INSERT
  8
LAYER_6
  2
AIGNBL06020037
 10
0
 20
0
 30
0
  0
INSERT
  8
LAYER_6
  2
AIGNBL06020038
 10
0
 20
0
 30
0
  0
ENDBLK
  0
BLOCK
  8
LAYER_6
  2
AIGNBL06010039
 70
64
 10
0
 20
0
 30
0
  3
AIGNBL06010039
  0
POLYLINE
  8
LAYER_6
 40
0.0353
 41
0.0353
 66
1
 10
0
 20
0
 30
0
  0
VERTEX
  8
LAYER_6
 10
90.0739
 20
-57.0835
  0
VERTEX
  8
LAYER_6
 10
77.5739
 20
-57.0835
  0
SEQEND
  0
POLYLINE
  8
LAYER_6
 40
0.0353
 41
0.0353
 66
1
 10
0
 20
0
 30
0
  0
VERTEX
  8
LAYER_6
 10
86.2339
 20
-125.1569
  0
VERTEX
  8
LAYER_6
 10
77.5739
 20
-125.1569
  0
SEQEND
  0
POLYLINE
  8
LAYER_6
 40
0.0353
 41
0.0353
 66
1
 10
0
 20
0
 30
0
  0
VERTEX
  8
LAYER_6
 10
79.5739
 20
-58.5835
  0
VERTEX
  8
LAYER_6
 10
79.5739
 20
-123.6569
  0
SEQEND
  0
INSERT
  8
LAYER_6
  2
AIGNBL0602003A
 10
0
 20
0
 30
0
  0
INSERT
  8
LAYER_6
  2
AIGNBL0602003B
 10
0
 20
0
 30
0
  0
TEXT
  8
LAYER_6
 10
78.2721
 20
-88.7472
 11
78.2721
 21
-88.7472
 40
3.7079
 41
0.5
 50
89.99999999
 72
1
  1
（340）
  0
INSERT
  8
LAYER_6
  2
AIGNBL0602003C
 10
0
 20
0
 30
0
  0
INSERT
  8
LAYER_6
  2
AIGNBL0602003D
 10
0
 20
0
 30
0
  0
INSERT
  8
LAYER_6
  2
AIGNBL0602003E
 10
0
 20
0
 30
0
  0
ENDBLK
  0
BLOCK
  8
LAYER_6
  2
AIGNBL0601003F
 70
64
 10
0
 20
0
 30
0
  3
AIGNBL0601003F
  0
POLYLINE
  8
LAYER_6
 40
0.0353
 41
0.0353
 66
1
 10
0
 20
0
 30
0
  0
VERTEX
  8
LAYER_6
 10
175.9285
 20
-125.1524
  0
VERTEX
  8
LAYER_6
 10
137.0539
 20
-125.1524
  0
SEQEND
  0
POLYLINE
  8
LAYER_6
 40
0.0353
 41
0.0353
 66
1
 10
0
 20
0
 30
0
  0
VERTEX
  8
LAYER_6
 10
153.0539
 20
-74.976
  0
VERTEX
  8
LAYER_6
 10
137.0539
 20
-74.976
  0
SEQEND
  0
POLYLINE
  8
LAYER_6
 40
0.0353
 41
0.0353
 66
1
 10
0
 20
0
 30
0
  0
VERTEX
  8
LAYER_6
 10
139.0539
 20
-123.6524
  0
VERTEX
  8
LAYER_6
 10
139.0539
 20
-76.476
  0
SEQEND
  0
INSERT
  8
LAYER_6
  2
AIGNBL06020040
 10
0
 20
0
 30
0
  0
INSERT
  8
LAYER_6
  2
AIGNBL06020041
 10
0
 20
0
 30
0
  0
TEXT
  8
LAYER_6
 10
137.752
 20
-97.6914
 11
137.752
 21
-97.6914
 40
3.7079
 41
0.5
 50
89.99999999
 72
1
  1
（251）
  0
INSERT
  8
LAYER_6
  2
AIGNBL06020042
 10
0
 20
0
 30
0
  0
INSERT
  8
LAYER_6
  2
AIGNBL06020043
 10
0
 20
0
 30
0
  0
INSERT
  8
LAYER_6
  2
AIGNBL06020044
 10
0
 20
0
 30
0
  0
ENDBLK
  0
BLOCK
  8
LAYER_6
  2
AIGNBL06010045
 70
64
 10
0
 20
0
 30
0
  3
AIGNBL06010045
  0
POLYLINE
  8
LAYER_6
 40
0.0353
 41
0.0353
 66
1
 10
0
 20
0
 30
0
  0
VERTEX
  8
LAYER_6
 10
175.9285
 20
-125.1524
  0
VERTEX
  8
LAYER_6
 10
137.0539
 20
-125.1524
  0
SEQEND
  0
POLYLINE
  8
LAYER_6
 40
0.0353
 41
0.0353
 66
1
 10
0
 20
0
 30
0
  0
VERTEX
  8
LAYER_6
 10
177.973
 20
-134.2524
  0
VERTEX
  8
LAYER_6
 10
137.0539
 20
-134.2524
  0
SEQEND
  0
POLYLINE
  8
LAYER_6
 40
0.0353
 41
0.0353
 66
1
 10
0
 20
0
 30
0
  0
VERTEX
  8
LAYER_6
 10
139.0539
 20
-126.6524
  0
VERTEX
  8
LAYER_6
 10
139.0539
 20
-132.7524
  0
SEQEND
  0
POLYLINE
  8
LAYER_6
 40
0.0353
 41
0.0353
 66
1
 10
0
 20
0
 30
0
  0
VERTEX
  8
LAYER_6
 10
139.0539
 20
-134.2524
  0
VERTEX
  8
LAYER_6
 10
139.0539
 20
-144.5684
  0
SEQEND
  0
INSERT
  8
LAYER_6
  2
AIGNBL06020046
 10
0
 20
0
 30
0
  0
INSERT
  8
LAYER_6
  2
AIGNBL06020047
 10
0
 20
0
 30
0
  0
TEXT
  8
LAYER_6
 10
137.846
 20
-138.2836
 11
137.846
 21
-138.2836
 40
3.7079
 41
0.5
 50
89.99999999
 72
1
  1
45.5
  0
INSERT
  8
LAYER_6
  2
AIGNBL06020048
 10
0
 20
0
 30
0
  0
INSERT
  8
LAYER_6
  2
AIGNBL06020049
 10
0
 20
0
 30
0
  0
INSERT
  8
LAYER_6
  2
AIGNBL0602004A
 10
0
 20
0
 30
0
  0
ENDBLK
  0
BLOCK
  8
LAYER_6
  2
AIGNBL0601004B
 70
64
 10
0
 20
0
 30
0
  3
AIGNBL0601004B
  0
POLYLINE
  8
LAYER_6
 40
0.0353
 41
0.0353
 66
1
 10
0
 20
0
 30
0
  0
VERTEX
  8
LAYER_6
 10
179.7685
 20
-89.9569
  0
VERTEX
  8
LAYER_6
 10
179.7685
 20
-84.0594
  0
SEQEND
  0
POLYLINE
  8
LAYER_6
 40
0.0353
 41
0.0353
 66
1
 10
0
 20
0
 30
0
  0
VERTEX
  8
LAYER_6
 10
153.0539
 20
-76.802
  0
VERTEX
  8
LAYER_6
 10
153.0539
 20
-88.0594
  0
SEQEND
  0
POLYLINE
  8
LAYER_6
 40
0.0353
 41
0.0353
 66
1
 10
0
 20
0
 30
0
  0
VERTEX
  8
LAYER_6
 10
178.2685
 20
-86.0594
  0
VERTEX
  8
LAYER_6
 10
154.5539
 20
-86.0594
  0
SEQEND
  0
INSERT
  8
LAYER_6
  2
AIGNBL0602004C
 10
0
 20
0
 30
0
  0
INSERT
  8
LAYER_6
  2
AIGNBL0602004D
 10
0
 20
0
 30
0
  0
TEXT
  8
LAYER_6
 10
168.7839
 20
-84.7575
 11
168.7839
 21
-84.7575
 40
3.7079
 41
0.5
 72
1
  1
（134）
  0
INSERT
  8
LAYER_6
  2
AIGNBL0602004E
 10
0
 20
0
 30
0
  0
INSERT
  8
LAYER_6
  2
AIGNBL0602004F
 10
0
 20
0
 30
0
  0
INSERT
  8
LAYER_6
  2
AIGNBL06020050
 10
0
 20
0
 30
0
  0
ENDBLK
  0
BLOCK
  8
LAYER_6
  2
AIGNBL06010051
 70
64
 10
0
 20
0
 30
0
  3
AIGNBL06010051
  0
POLYLINE
  8
LAYER_6
 40
0.0353
 41
0.0353
 66
1
 10
0
 20
0
 30
0
  0
VERTEX
  8
LAYER_6
 10
152.8426
 20
-75.4292
  0
VERTEX
  8
LAYER_6
 10
142.3824
 20
-97.8611
  0
SEQEND
  0
POLYLINE
  8
LAYER_6
 40
0.0353
 41
0.0353
 66
1
 10
0
 20
0
 30
0
  0
VERTEX
  8
LAYER_6
 10
153.0539
 20
-76.802
  0
VERTEX
  8
LAYER_6
 10
153.0539
 20
-100.2269
  0
SEQEND
  0
POLYLINE
  8
LAYER_6
 40
0.0353
 41
0.0353
 66
1
 10
0
 20
0
 30
0
  0
VERTEX
  8
LAYER_6
 10
140.5975
 20
-94.6087
 42
0.0162443926
  0
VERTEX
  8
LAYER_6
 10
141.8893
 20
-95.371
  0
SEQEND
  0
POLYLINE
  8
LAYER_6
 40
0.0353
 41
0.0353
 66
1
 10
0
 20
0
 30
0
  0
VERTEX
  8
LAYER_6
 10
154.5531
 20
-98.1785
 42
0.01626339737
  0
VERTEX
  8
LAYER_6
 10
156.0461
 20
-98.0336
  0
SEQEND
  0
POLYLINE
  8
LAYER_6
 40
0.0353
 41
0.0353
 66
1
 10
0
 20
0
 30
0
  0
VERTEX
  8
LAYER_6
 10
143.2276
 20
-96.0485
 42
0.1106646966
  0
VERTEX
  8
LAYER_6
 10
153.0539
 20
-98.2269
  0
SEQEND
  0
INSERT
  8
LAYER_6
  2
AIGNBL06020052
 10
0
 20
0
 30
0
  0
INSERT
  8
LAYER_6
  2
AIGNBL06020053
 10
0
 20
0
 30
0
  0
INSERT
  8
LAYER_6
  2
AIGNBL06020054
 10
0
 20
0
 30
0
  0
INSERT
  8
LAYER_6
  2
AIGNBL06020055
 10
0
 20
0
 30
0
  0
INSERT
  8
LAYER_6
  2
AIGNBL06020056
 10
0
 20
0
 30
0
  0
INSERT
  8
LAYER_6
  2
AIGNBL06020057
 10
0
 20
0
 30
0
  0
INSERT
  8
LAYER_6
  2
AIGNBL06020058
 10
0
 20
0
 30
0
  0
ENDBLK
  0
BLOCK
  8
LAYER_6
  2
AIGNBL06010059
 70
64
 10
0
 20
0
 30
0
  3
AIGNBL06010059
  0
POLYLINE
  8
LAYER_6
 40
0.0353
 41
0.0353
 66
1
 10
0
 20
0
 30
0
  0
VERTEX
  8
LAYER_6
 10
179.7685
 20
-130.4524
  0
VERTEX
  8
LAYER_6
 10
162.3685
 20
-130.4524
  0
SEQEND
  0
POLYLINE
  8
LAYER_6
 40
0.0353
 41
0.0353
 66
1
 10
0
 20
0
 30
0
  0
VERTEX
  8
LAYER_6
 10
179.7685
 20
-125.1524
  0
VERTEX
  8
LAYER_6
 10
162.3685
 20
-125.1524
  0
SEQEND
  0
POLYLINE
  8
LAYER_6
 40
0.0353
 41
0.0353
 66
1
 10
0
 20
0
 30
0
  0
VERTEX
  8
LAYER_6
 10
164.3685
 20
-126.6524
  0
VERTEX
  8
LAYER_6
 10
164.3685
 20
-128.9524
  0
SEQEND
  0
POLYLINE
  8
LAYER_6
 40
0.0353
 41
0.0353
 66
1
 10
0
 20
0
 30
0
  0
VERTEX
  8
LAYER_6
 10
164.3685
 20
-130.4524
  0
VERTEX
  8
LAYER_6
 10
164.3685
 20
-159.1005
  0
SEQEND
  0
INSERT
  8
LAYER_6
  2
AIGNBL0602005A
 10
0
 20
0
 30
0
  0
INSERT
  8
LAYER_6
  2
AIGNBL0602005B
 10
0
 20
0
 30
0
  0
TEXT
  8
LAYER_6
 10
163.0665
 20
-143.5641
 11
163.0665
 21
-143.5641
 40
3.2525
 41
0.5
 50
89.99999999
 72
1
  1
取付板厚５～３０
  0
INSERT
  8
LAYER_6
  2
AIGNBL0602005C
 10
0
 20
0
 30
0
  0
INSERT
  8
LAYER_6
  2
AIGNBL0602005D
 10
0
 20
0
 30
0
  0
INSERT
  8
LAYER_6
  2
AIGNBL0602005E
 10
0
 20
0
 30
0
  0
ENDBLK
  0
BLOCK
  8
LAYER_6
  2
AIGNBL0601005F
 70
64
 10
0
 20
0
 30
0
  3
AIGNBL0601005F
  0
POLYLINE
  8
LAYER_6
 40
0.0353
 41
0.0353
 66
1
 10
0
 20
0
 30
0
  0
VERTEX
  8
LAYER_6
 10
179.1685
 20
-206.1949
  0
VERTEX
  8
LAYER_6
 10
179.1685
 20
-219.0639
  0
SEQEND
  0
POLYLINE
  8
LAYER_6
 40
0.0353
 41
0.0353
 66
1
 10
0
 20
0
 30
0
  0
VERTEX
  8
LAYER_6
 10
182.8685
 20
-206.9949
  0
VERTEX
  8
LAYER_6
 10
182.8685
 20
-219.0639
  0
SEQEND
  0
POLYLINE
  8
LAYER_6
 40
0.0353
 41
0.0353
 66
1
 10
0
 20
0
 30
0
  0
VERTEX
  8
LAYER_6
 10
177.6685
 20
-217.0639
  0
VERTEX
  8
LAYER_6
 10
176.1685
 20
-217.0639
  0
SEQEND
  0
POLYLINE
  8
LAYER_6
 40
0.0353
 41
0.0353
 66
1
 10
0
 20
0
 30
0
  0
VERTEX
  8
LAYER_6
 10
184.3685
 20
-217.0639
  0
VERTEX
  8
LAYER_6
 10
194.3275
 20
-217.0639
  0
SEQEND
  0
POLYLINE
  8
LAYER_6
 40
0.0353
 41
0.0353
 66
1
 10
0
 20
0
 30
0
  0
VERTEX
  8
LAYER_6
 10
179.1685
 20
-217.0639
  0
VERTEX
  8
LAYER_6
 10
182.8685
 20
-217.0639
  0
SEQEND
  0
INSERT
  8
LAYER_6
  2
AIGNBL06020060
 10
0
 20
0
 30
0
  0
INSERT
  8
LAYER_6
  2
AIGNBL06020061
 10
0
 20
0
 30
0
  0
TEXT
  8
LAYER_6
 10
191.9745
 20
-215.856
 11
191.9745
 21
-215.856
 40
3.7079
 41
0.5
 72
1
  1
18.5
  0
INSERT
  8
LAYER_6
  2
AIGNBL06020062
 10
0
 20
0
 30
0
  0
INSERT
  8
LAYER_6
  2
AIGNBL06020063
 10
0
 20
0
 30
0
  0
INSERT
  8
LAYER_6
  2
AIGNBL06020064
 10
0
 20
0
 30
0
  0
ENDBLK
  0
BLOCK
  8
LAYER_6
  2
AIGNBL06010065
 70
64
 10
0
 20
0
 30
0
  3
AIGNBL06010065
  0
POLYLINE
  8
LAYER_6
 40
0.0353
 41
0.0353
 66
1
 10
0
 20
0
 30
0
  0
VERTEX
  8
LAYER_6
 10
150.0905
 20
-73.4397
  0
VERTEX
  8
LAYER_6
 10
150.0905
 20
-47.079
  0
SEQEND
  0
POLYLINE
  8
LAYER_6
 40
0.0353
 41
0.0353
 66
1
 10
0
 20
0
 30
0
  0
VERTEX
  8
LAYER_6
 10
179.7685
 20
-72.099
  0
VERTEX
  8
LAYER_6
 10
179.7685
 20
-47.079
  0
SEQEND
  0
POLYLINE
  8
LAYER_6
 40
0.0353
 41
0.0353
 66
1
 10
0
 20
0
 30
0
  0
VERTEX
  8
LAYER_6
 10
151.5905
 20
-49.079
  0
VERTEX
  8
LAYER_6
 10
178.2685
 20
-49.079
  0
SEQEND
  0
INSERT
  8
LAYER_6
  2
AIGNBL06020066
 10
0
 20
0
 30
0
  0
INSERT
  8
LAYER_6
  2
AIGNBL06020067
 10
0
 20
0
 30
0
  0
TEXT
  8
LAYER_6
 10
169.6611
 20
-47.7772
 11
169.6611
 21
-47.7772
 40
3.7079
 41
0.5
 72
1
  1
（148）
  0
INSERT
  8
LAYER_6
  2
AIGNBL06020068
 10
0
 20
0
 30
0
  0
INSERT
  8
LAYER_6
  2
AIGNBL06020069
 10
0
 20
0
 30
0
  0
INSERT
  8
LAYER_6
  2
AIGNBL0602006A
 10
0
 20
0
 30
0
  0
ENDBLK
  0
ENDSEC
  0
SECTION
  2
ENTITIES
  0
INSERT
  8
LAYER_1
  2
AIGNBL01010002
 10
0
 20
0
 30
0
  0
TEXT
  8
LAYER_1
 10
475.3901
 20
-256.1093
 11
475.3901
 21
-256.1093
 40
2.8232
 41
0.5
  1
　　　　　　　　
  0
TEXT
  8
LAYER_1
 10
150.5733
 20
-95.7886
 11
150.5733
 21
-95.7886
 40
3.7079
 41
0.5
 50
347.8407756
 72
1
  1
25%%d
  0
TEXT
  8
LAYER_1
 10
201.295
 20
-127.5057
 11
201.295
 21
-127.5057
 40
3.7079
 41
0.5
 72
1
  1
取付穴径22025
  0
TEXT
  8
LAYER_1
 10
104.4516
 20
-215.1447
 11
104.4516
 21
-215.1447
 40
3.2575
 41
0.5
  1
コード全長：1900mm
  0
TEXT
  8
LAYER_1
 10
200.6822
 20
-143.7012
 11
200.6822
 21
-143.7012
 40
3.2575
 41
0.5
  1
コード全長：250mm
  0
TEXT
  8
LAYER_1
 10
200.757
 20
-163.5043
 11
200.757
 21
-163.5043
 40
3.2575
 41
0.5
  1
コード全長：260mm
  0
POLYLINE
  8
LAYER_1
 40
0.0882
 41
0.0882
 66
1
 10
0
 20
0
 30
0
  0
VERTEX
  8
LAYER_1
 10
224.5703
 20
-165.0706
  0
VERTEX
  8
LAYER_1
 10
202.0376
 20
-165.0706
  0
VERTEX
  8
LAYER_1
 10
197.7747
 20
-163.4467
  0
SEQEND
  0
POLYLINE
  8
LAYER_1
 40
0.0882
 41
0.0882
 66
1
 10
0
 20
0
 30
0
  0
VERTEX
  8
LAYER_1
 10
125.9267
 20
-149.0098
  0
VERTEX
  8
LAYER_1
 10
95.3526
 20
-149.0098
  0
VERTEX
  8
LAYER_1
 10
91.0897
 20
-147.3859
  0
SEQEND
  0
POLYLINE
  8
LAYER_1
 40
0.0882
 41
0.0882
 66
1
 10
0
 20
0
 30
0
  0
VERTEX
  8
LAYER_1
 10
224.4955
 20
-145.2807
  0
VERTEX
  8
LAYER_1
 10
201.9629
 20
-145.2807
  0
VERTEX
  8
LAYER_1
 10
197.6999
 20
-143.6567
  0
SEQEND
  0
POLYLINE
  8
LAYER_1
 40
0.0882
 41
0.0882
 66
1
 10
0
 20
0
 30
0
  0
VERTEX
  8
LAYER_1
 10
129.7293
 20
-216.0001
  0
VERTEX
  8
LAYER_1
 10
103.8472
 20
-216.0001
  0
VERTEX
  8
LAYER_1
 10
97.7573
 20
-208.7937
  0
SEQEND
  0
TEXT
  8
LAYER_1
 10
96.0582
 20
-147.3635
 11
96.0582
 21
-147.3635
 40
3.2575
 41
0.5
  1
給水ホース長さ：800mm
  0
INSERT
  8
LAYER_6
  2
AIGNBL06010002
 10
0
 20
0
 30
0
  0
POLYLINE
  8
LAYER_6
 40
0.3528
 41
0.3528
 66
1
 10
0
 20
0
 30
0
  0
VERTEX
  8
LAYER_6
 10
34.7876
 20
-258.3332
  0
VERTEX
  8
LAYER_6
 10
229.7955
 20
-258.3332
  0
VERTEX
  8
LAYER_6
 10
229.7955
 20
21.6583
  0
VERTEX
  8
LAYER_6
 10
34.7876
 20
21.6583
  0
VERTEX
  8
LAYER_6
 10
34.7876
 20
-258.3332
  0
SEQEND
  0
TEXT
  8
LAYER_6
 10
166.4505
 20
-248.7955
 11
166.4505
 21
-248.7955
 40
3.3848
 41
0.5
  1
●TEL 0120-65-1232●FAX 06-6532-1580
  0
TEXT
  8
LAYER_6
 10
166.4505
 20
-252.3102
 11
166.4505
 21
-252.3102
 40
3.3848
 41
0.5
  1
hits@hiratatile.co.jp
  0
TEXT
  8
LAYER_6
 10
37.8495
 20
-250.3797
 11
37.8495
 21
-250.3797
 40
3.2991
 41
0.5
  1
仕様
  0
POLYLINE
  8
LAYER_6
 40
0.3528
 41
0.3528
 66
1
 10
0
 20
0
 30
0
  0
VERTEX
  8
LAYER_6
 10
229.7955
 20
-241.6001
  0
VERTEX
  8
LAYER_6
 10
34.7874
 20
-241.6001
  0
SEQEND
  0
POLYLINE
  8
LAYER_6
 40
0.3528
 41
0.3528
 66
1
 10
0
 20
0
 30
0
  0
VERTEX
  8
LAYER_6
 10
229.7955
 20
-233.091
  0
VERTEX
  8
LAYER_6
 10
34.7874
 20
-233.091
  0
SEQEND
  0
TEXT
  8
LAYER_6
 10
35.9444
 20
-235.5675
 11
35.9444
 21
-235.5675
 40
2.1994
 41
0.5
  1
品名
  0
TEXT
  8
LAYER_6
 10
48.7874
 20
-238.6599
 11
48.7874
 21
-238.6599
 40
4.1459
 41
0.5
  1
センサー式単水栓（AC100V）
  0
TEXT
  8
LAYER_6
 10
48.4217
 20
-250.3883
 11
48.4217
 21
-250.3883
 40
3.1172
 41
0.5
  1
●排水金具別途
  0
TEXT
  8
LAYER_6
 10
137.0378
 20
-235.5677
 11
137.0378
 21
-235.5677
 40
2.1994
 41
0.5
  1
品番
  0
TEXT
  8
LAYER_6
 10
143.0598
 20
-240.0443
 11
143.0598
 21
-240.0443
 40
5.9385
 41
0.5
  1
AQ-E1700L4
  0
TEXT
  8
LAYER_6
 10
210.4559
 20
-188.906
 11
210.4559
 21
-188.906
 40
3.3881
 41
0.5
  1
　　　　　　　　　　　　　
  0
TEXT
  8
LAYER_6
 10
476.7777
 20
-245.1411
 11
476.7777
 21
-245.1411
 40
2.604
 41
0.5
  1
　　　　　　　　
  0
TEXT
  8
LAYER_6
 10
210.4559
 20
-197.6562
 11
210.4559
 21
-197.6562
 40
3.3881
 41
0.5
  1
　　　　　　　　　　　　　
  0
INSERT
  8
LAYER_6
  2
AIGNBL06010003
 10
0
 20
0
 30
0
  0
INSERT
  8
LAYER_6
  2
AIGNBL06010009
 10
0
 20
0
 30
0
  0
INSERT
  8
LAYER_6
  2
AIGNBL0601000F
 10
0
 20
0
 30
0
  0
INSERT
  8
LAYER_6
  2
AIGNBL06010015
 10
0
 20
0
 30
0
  0
INSERT
  8
LAYER_6
  2
AIGNBL0601001B
 10
0
 20
0
 30
0
  0
INSERT
  8
LAYER_6
  2
AIGNBL06010021
 10
0
 20
0
 30
0
  0
INSERT
  8
LAYER_6
  2
AIGNBL06010027
 10
0
 20
0
 30
0
  0
INSERT
  8
LAYER_6
  2
AIGNBL0601002D
 10
0
 20
0
 30
0
  0
INSERT
  8
LAYER_6
  2
AIGNBL06010033
 10
0
 20
0
 30
0
  0
INSERT
  8
LAYER_6
  2
AIGNBL06010039
 10
0
 20
0
 30
0
  0
INSERT
  8
LAYER_6
  2
AIGNBL0601003F
 10
0
 20
0
 30
0
  0
INSERT
  8
LAYER_6
  2
AIGNBL06010045
 10
0
 20
0
 30
0
  0
INSERT
  8
LAYER_6
  2
AIGNBL0601004B
 10
0
 20
0
 30
0
  0
INSERT
  8
LAYER_6
  2
AIGNBL06010051
 10
0
 20
0
 30
0
  0
INSERT
  8
LAYER_6
  2
AIGNBL06010059
 10
0
 20
0
 30
0
  0
INSERT
  8
LAYER_6
  2
AIGNBL0601005F
 10
0
 20
0
 30
0
  0
POLYLINE
  8
LAYER_6
 40
0.0353
 41
0.0353
 66
1
 10
0
 20
0
 30
0
  0
VERTEX
  8
LAYER_6
 10
182.2485
 20
-89.9569
  0
VERTEX
  8
LAYER_6
 10
179.7685
 20
-89.9569
  0
SEQEND
  0
POLYLINE
  8
LAYER_6
  6
AIGENLINE001
 40
0.0353
 41
0.0353
 66
1
 10
0
 20
0
 30
0
 70
128
  0
VERTEX
  8
LAYER_6
 10
90.0739
 20
-54.0835
  0
VERTEX
  8
LAYER_6
 10
90.0739
 20
-209.3994
  0
SEQEND
  0
POLYLINE
  8
LAYER_6
  6
AIGENLINE001
 40
0.0353
 41
0.0353
 66
1
 10
0
 20
0
 30
0
 70
128
  0
VERTEX
  8
LAYER_6
 10
179.7685
 20
-72.099
  0
VERTEX
  8
LAYER_6
 10
179.7685
 20
-138.2524
  0
SEQEND
  0
INSERT
  8
LAYER_6
  2
AIGNBL06010065
 10
0
 20
0
 30
0
  0
POLYLINE
  8
LAYER_6
 40
0.0353
 41
0.0353
 66
1
 10
0
 20
0
 30
0
  0
VERTEX
  8
LAYER_6
 10
87.5339
 20
-30.0569
 42
0.1080656983
  0
VERTEX
  8
LAYER_6
 10
87.688
 20
-30.7544
 42
0.09615308048
  0
VERTEX
  8
LAYER_6
 10
88.1335
 20
-31.3659
 42
0.08675628381
  0
VERTEX
  8
LAYER_6
 10
88.8632
 20
-31.8406
 42
0.1026048614
  0
VERTEX
  8
LAYER_6
 10
90.0739
 20
-32.0854
 42
0.1551200336
  0
VERTEX
  8
LAYER_6
 10
91.8042
 20
-31.542
 42
0.09360622426
  0
VERTEX
  8
LAYER_6
 10
92.3499
 20
-30.9584
 42
0.1393754435
  0
VERTEX
  8
LAYER_6
 10
92.6139
 20
-30.0569
  0
SEQEND
  0
POLYLINE
  8
LAYER_6
 40
0.2469
 41
0.2469
 66
1
 10
0
 20
0
 30
0
  0
VERTEX
  8
LAYER_6
 10
177.3685
 20
-130.6524
  0
VERTEX
  8
LAYER_6
 10
177.3685
 20
-131.9524
  0
SEQEND
  0
POLYLINE
  8
LAYER_6
 40
0.2469
 41
0.2469
 66
1
 10
0
 20
0
 30
0
  0
VERTEX
  8
LAYER_6
 10
182.1685
 20
-130.6524
  0
VERTEX
  8
LAYER_6
 10
182.1685
 20
-131.9524
  0
SEQEND
  0
POLYLINE
  8
LAYER_6
 40
0.2469
 41
0.2469
 66
1
 10
0
 20
0
 30
0
  0
VERTEX
  8
LAYER_6
 10
181.9415
 20
-130.6524
  0
VERTEX
  8
LAYER_6
 10
181.9415
 20
-131.9524
  0
SEQEND
  0
POLYLINE
  8
LAYER_6
 40
0.2469
 41
0.2469
 66
1
 10
0
 20
0
 30
0
  0
VERTEX
  8
LAYER_6
 10
177.5954
 20
-130.6524
  0
VERTEX
  8
LAYER_6
 10
177.5954
 20
-131.9524
  0
SEQEND
  0
POLYLINE
  8
LAYER_6
 40
0.2469
 41
0.2469
 66
1
 10
0
 20
0
 30
0
  0
VERTEX
  8
LAYER_6
 10
179.5415
 20
-130.6524
  0
VERTEX
  8
LAYER_6
 10
179.5415
 20
-131.9524
  0
SEQEND
  0
POLYLINE
  8
LAYER_6
 40
0.2469
 41
0.2469
 66
1
 10
0
 20
0
 30
0
  0
VERTEX
  8
LAYER_6
 10
179.9954
 20
-130.6524
  0
VERTEX
  8
LAYER_6
 10
179.9954
 20
-131.9524
  0
SEQEND
  0
POLYLINE
  8
LAYER_6
 40
0.0353
 41
0.0353
 66
1
 10
0
 20
0
 30
0
  0
VERTEX
  8
LAYER_6
 10
177.6685
 20
-122.5524
  0
VERTEX
  8
LAYER_6
 10
177.2885
 20
-122.5524
 42
-0.3931565731
  0
VERTEX
  8
LAYER_6
 10
177.2285
 20
-122.4924
  0
VERTEX
  8
LAYER_6
 10
177.2285
 20
-90.0169
 42
-0.3936044485
  0
VERTEX
  8
LAYER_6
 10
177.2885
 20
-89.9569
  0
SEQEND
  0
POLYLINE
  8
LAYER_6
 40
0.0353
 41
0.0353
 66
1
 10
0
 20
0
 30
0
  0
VERTEX
  8
LAYER_6
 10
181.864
 20
-130.0524
  0
VERTEX
  8
LAYER_6
 10
181.864
 20
-125.5524
  0
SEQEND
  0
POLYLINE
  8
LAYER_6
 40
0.0353
 41
0.0353
 66
1
 10
0
 20
0
 30
0
  0
VERTEX
  8
LAYER_6
 10
181.6316
 20
-133.0524
  0
VERTEX
  8
LAYER_6
 10
181.6316
 20
-131.9524
  0
SEQEND
  0
POLYLINE
  8
LAYER_6
 40
0.0353
 41
0.0353
 66
1
 10
0
 20
0
 30
0
  0
VERTEX
  8
LAYER_6
 10
181.6316
 20
-125.8524
  0
VERTEX
  8
LAYER_6
 10
181.864
 20
-125.8524
  0
VERTEX
  8
LAYER_6
 10
179.7685
 20
-125.8524
  0
SEQEND
  0
POLYLINE
  8
LAYER_6
 40
0.1482
 41
0.1482
 66
1
 10
0
 20
0
 30
0
  0
VERTEX
  8
LAYER_6
 10
183.5492
 20
-123.0953
 42
-0.2946267511
  0
VERTEX
  8
LAYER_6
 10
183.6685
 20
-123.2783
  0
VERTEX
  8
LAYER_6
 10
183.6685
 20
-125.0924
  0
SEQEND
  0
POLYLINE
  8
LAYER_6
 40
0.0353
 41
0.0353
 66
1
 10
0
 20
0
 30
0
  0
VERTEX
  8
LAYER_6
 10
181.8048
 20
-125.5524
  0
VERTEX
  8
LAYER_6
 10
181.6316
 20
-125.8524
  0
VERTEX
  8
LAYER_6
 10
181.6316
 20
-130.0524
  0
SEQEND
  0
POLYLINE
  8
LAYER_6
 40
0.0353
 41
0.0353
 66
1
 10
0
 20
0
 30
0
  0
VERTEX
  8
LAYER_6
 10
183.5492
 20
-123.0953
  0
VERTEX
  8
LAYER_6
 10
182.3185
 20
-122.5524
  0
VERTEX
  8
LAYER_6
 10
181.8685
 20
-122.5524
  0
SEQEND
  0
POLYLINE
  8
LAYER_6
 40
0.0353
 41
0.0353
 66
1
 10
0
 20
0
 30
0
  0
VERTEX
  8
LAYER_6
 10
177.673
 20
-130.0524
  0
VERTEX
  8
LAYER_6
 10
177.673
 20
-125.5524
  0
SEQEND
  0
POLYLINE
  8
LAYER_6
 40
0.0353
 41
0.0353
 66
1
 10
0
 20
0
 30
0
  0
VERTEX
  8
LAYER_6
 10
177.9054
 20
-133.0524
  0
VERTEX
  8
LAYER_6
 10
177.9054
 20
-131.9524
  0
SEQEND
  0
POLYLINE
  8
LAYER_6
 40
0.0353
 41
0.0353
 66
1
 10
0
 20
0
 30
0
 70
1
  0
VERTEX
  8
LAYER_6
 10
177.673
 20
-125.8524
  0
VERTEX
  8
LAYER_6
 10
179.7685
 20
-125.8524
  0
SEQEND
  0
POLYLINE
  8
LAYER_6
 40
0.1482
 41
0.1482
 66
1
 10
0
 20
0
 30
0
  0
VERTEX
  8
LAYER_6
 10
175.9877
 20
-123.0953
 42
0.2946151114
  0
VERTEX
  8
LAYER_6
 10
175.8685
 20
-123.2783
  0
VERTEX
  8
LAYER_6
 10
175.8685
 20
-125.0924
  0
SEQEND
  0
POLYLINE
  8
LAYER_6
 40
0.0353
 41
0.0353
 66
1
 10
0
 20
0
 30
0
  0
VERTEX
  8
LAYER_6
 10
177.7321
 20
-125.5524
  0
VERTEX
  8
LAYER_6
 10
177.9054
 20
-125.8524
  0
VERTEX
  8
LAYER_6
 10
177.9054
 20
-130.0524
  0
SEQEND
  0
POLYLINE
  8
LAYER_6
 40
0.0353
 41
0.0353
 66
1
 10
0
 20
0
 30
0
  0
VERTEX
  8
LAYER_6
 10
175.9877
 20
-123.0953
  0
VERTEX
  8
LAYER_6
 10
177.2185
 20
-122.5524
  0
VERTEX
  8
LAYER_6
 10
179.7685
 20
-122.5524
  0
VERTEX
  8
LAYER_6
 10
182.2485
 20
-122.5524
 42
0.3927995515
  0
VERTEX
  8
LAYER_6
 10
182.3085
 20
-122.4924
  0
VERTEX
  8
LAYER_6
 10
182.3085
 20
-90.0169
 42
0.3931565729
  0
VERTEX
  8
LAYER_6
 10
182.2485
 20
-89.9569
  0
SEQEND
  0
POLYLINE
  8
LAYER_6
 40
0.0353
 41
0.0353
 66
1
 10
0
 20
0
 30
0
  0
VERTEX
  8
LAYER_6
 10
179.7685
 20
-89.9569
  0
VERTEX
  8
LAYER_6
 10
177.2685
 20
-89.9569
 42
-0.3932194765
  0
VERTEX
  8
LAYER_6
 10
177.2285
 20
-89.9169
  0
VERTEX
  8
LAYER_6
 10
177.2285
 20
-72.099
  0
SEQEND
  0
POLYLINE
  8
LAYER_6
 40
0.0353
 41
0.0353
 66
1
 10
0
 20
0
 30
0
  0
VERTEX
  8
LAYER_6
 10
150.2355
 20
-73.5073
  0
VERTEX
  8
LAYER_6
 10
150.0905
 20
-73.4397
  0
VERTEX
  8
LAYER_6
 10
150.1581
 20
-73.2947
  0
SEQEND
  0
POLYLINE
  8
LAYER_6
 40
0.0353
 41
0.0353
 66
1
 10
0
 20
0
 30
0
  0
VERTEX
  8
LAYER_6
 10
177.673
 20
-131.9524
  0
VERTEX
  8
LAYER_6
 10
177.673
 20
-133.0524
  0
VERTEX
  8
LAYER_6
 10
177.9685
 20
-133.0524
  0
VERTEX
  8
LAYER_6
 10
177.9685
 20
-134.2479
  0
VERTEX
  8
LAYER_6
 10
177.973
 20
-134.2524
  0
VERTEX
  8
LAYER_6
 10
179.7685
 20
-134.2524
  0
VERTEX
  8
LAYER_6
 10
181.564
 20
-134.2524
  0
VERTEX
  8
LAYER_6
 10
181.5685
 20
-134.2479
  0
VERTEX
  8
LAYER_6
 10
181.5685
 20
-133.0524
  0
VERTEX
  8
LAYER_6
 10
181.864
 20
-133.0524
  0
VERTEX
  8
LAYER_6
 10
181.864
 20
-131.9524
  0
SEQEND
  0
POLYLINE
  8
LAYER_6
 40
0.0353
 41
0.0353
 66
1
 10
0
 20
0
 30
0
  0
VERTEX
  8
LAYER_6
 10
155.8357
 20
-73.1395
  0
VERTEX
  8
LAYER_6
 10
155.9156
 20
-73.1562
 42
0.2891957501
  0
VERTEX
  8
LAYER_6
 10
156.0969
 20
-73.0407
  0
VERTEX
  8
LAYER_6
 10
156.3505
 20
-72.4969
  0
VERTEX
  8
LAYER_6
 10
156.3692
 20
-72.4124
 42
0.2825265146
  0
VERTEX
  8
LAYER_6
 10
156.2582
 20
-72.2333
  0
SEQEND
  0
POLYLINE
  8
LAYER_6
 40
0.0353
 41
0.0353
 66
1
 10
0
 20
0
 30
0
  0
VERTEX
  8
LAYER_6
 10
154.4261
 20
-75.4614
 42
-0.2510672398
  0
VERTEX
  8
LAYER_6
 10
154.2906
 20
-75.5362
  0
VERTEX
  8
LAYER_6
 10
154.223
 20
-75.5212
  0
VERTEX
  8
LAYER_6
 10
153.0539
 20
-74.976
  0
VERTEX
  8
LAYER_6
 10
151.8847
 20
-74.4309
 42
-0.2891526256
  0
VERTEX
  8
LAYER_6
 10
151.7924
 20
-74.2858
  0
VERTEX
  8
LAYER_6
 10
151.8
 20
-74.2369
  0
SEQEND
  0
POLYLINE
  8
LAYER_6
  6
AIGENLINE001
 40
0.0353
 41
0.0353
 66
1
 10
0
 20
0
 30
0
 70
128
  0
VERTEX
  8
LAYER_6
 10
179.7685
 20
-72.099
 42
0.4142076397
  0
VERTEX
  8
LAYER_6
 10
167.2885
 20
-59.619
 42
0.2891220668
  0
VERTEX
  8
LAYER_6
 10
155.9777
 20
-66.8247
  0
VERTEX
  8
LAYER_6
 10
152.2066
 20
-74.9119
  0
SEQEND
  0
POLYLINE
  8
LAYER_6
 40
0.0353
 41
0.0353
 66
1
 10
0
 20
0
 30
0
  0
VERTEX
  8
LAYER_6
 10
182.3085
 20
-89.8969
  0
VERTEX
  8
LAYER_6
 10
182.3085
 20
-72.099
  0
SEQEND
  0
POLYLINE
  8
LAYER_6
 40
0.0353
 41
0.0353
 66
1
 10
0
 20
0
 30
0
  0
VERTEX
  8
LAYER_6
 10
177.2285
 20
-89.8969
  0
VERTEX
  8
LAYER_6
 10
177.2285
 20
-72.099
 42
0.4142076115
  0
VERTEX
  8
LAYER_6
 10
167.2885
 20
-62.159
 42
0.2891203415
  0
VERTEX
  8
LAYER_6
 10
158.2798
 20
-67.8981
  0
VERTEX
  8
LAYER_6
 10
156.0469
 20
-72.6864
  0
VERTEX
  8
LAYER_6
 10
154.7622
 20
-75.4416
 42
-0.289089231
  0
VERTEX
  8
LAYER_6
 10
154.6172
 20
-75.534
  0
VERTEX
  8
LAYER_6
 10
154.5495
 20
-75.519
  0
VERTEX
  8
LAYER_6
 10
152.3925
 20
-74.5132
  0
VERTEX
  8
LAYER_6
 10
150.2355
 20
-73.5073
 42
-0.289099485
  0
VERTEX
  8
LAYER_6
 10
150.1431
 20
-73.3623
  0
VERTEX
  8
LAYER_6
 10
150.1581
 20
-73.2947
  0
VERTEX
  8
LAYER_6
 10
153.6757
 20
-65.7512
 42
-0.2891208246
  0
VERTEX
  8
LAYER_6
 10
167.2885
 20
-57.079
 42
-0.4142076584
  0
VERTEX
  8
LAYER_6
 10
182.3085
 20
-72.099
  0
VERTEX
  8
LAYER_6
 10
182.3085
 20
-89.9169
 42
-0.3929312493
  0
VERTEX
  8
LAYER_6
 10
182.2685
 20
-89.9569
  0
SEQEND
  0
POLYLINE
  8
LAYER_6
 40
0.0353
 41
0.0353
 66
1
 10
0
 20
0
 30
0
  0
VERTEX
  8
LAYER_6
 10
180.0685
 20
-156.4574
  0
VERTEX
  8
LAYER_6
 10
180.0685
 20
-177.6368
  0
SEQEND
  0
POLYLINE
  8
LAYER_6
 40
0.0353
 41
0.0353
 66
1
 10
0
 20
0
 30
0
  0
VERTEX
  8
LAYER_6
 10
178.2685
 20
-134.2524
  0
VERTEX
  8
LAYER_6
 10
178.2685
 20
-155.4574
  0
SEQEND
  0
POLYLINE
  8
LAYER_6
 40
0.0353
 41
0.0353
 66
1
 10
0
 20
0
 30
0
  0
VERTEX
  8
LAYER_6
 10
178.2685
 20
-156.4574
  0
VERTEX
  8
LAYER_6
 10
178.2685
 20
-177.6525
  0
SEQEND
  0
POLYLINE
  8
LAYER_6
 40
0.0353
 41
0.0353
 66
1
 10
0
 20
0
 30
0
  0
VERTEX
  8
LAYER_6
 10
181.0685
 20
-134.4524
  0
VERTEX
  8
LAYER_6
 10
181.0685
 20
-137.2524
 42
0.4142112938
  0
VERTEX
  8
LAYER_6
 10
182.0685
 20
-138.2524
  0
VERTEX
  8
LAYER_6
 10
186.9085
 20
-138.2524
  0
SEQEND
  0
POLYLINE
  8
LAYER_6
 40
0.0353
 41
0.0353
 66
1
 10
0
 20
0
 30
0
  0
VERTEX
  8
LAYER_6
 10
186.9085
 20
-139.2524
  0
VERTEX
  8
LAYER_6
 10
182.1085
 20
-139.2524
 42
-0.4142094878
  0
VERTEX
  8
LAYER_6
 10
180.0685
 20
-137.2124
  0
VERTEX
  8
LAYER_6
 10
180.0685
 20
-135.2524
  0
VERTEX
  8
LAYER_6
 10
180.0685
 20
-155.4574
  0
SEQEND
  0
POLYLINE
  8
LAYER_6
 40
0.0353
 41
0.0353
 66
1
 10
0
 20
0
 30
0
  0
VERTEX
  8
LAYER_6
 10
198.6807
 20
-148.8115
  0
VERTEX
  8
LAYER_6
 10
198.6807
 20
-148.0115
  0
VERTEX
  8
LAYER_6
 10
196.4807
 20
-148.0115
  0
VERTEX
  8
LAYER_6
 10
196.4807
 20
-148.8115
  0
SEQEND
  0
POLYLINE
  8
LAYER_6
 40
0.0353
 41
0.0353
 66
1
 10
0
 20
0
 30
0
 70
1
  0
VERTEX
  8
LAYER_6
 10
196.4807
 20
-150.5715
  0
VERTEX
  8
LAYER_6
 10
198.6807
 20
-150.5715
  0
VERTEX
  8
LAYER_6
 10
198.6807
 20
-153.1715
  0
VERTEX
  8
LAYER_6
 10
196.4807
 20
-153.1715
  0
SEQEND
  0
POLYLINE
  8
LAYER_6
 40
0.0353
 41
0.0353
 66
1
 10
0
 20
0
 30
0
  0
VERTEX
  8
LAYER_6
 10
198.4807
 20
-149.0115
  0
VERTEX
  8
LAYER_6
 10
198.4807
 20
-150.5715
  0
SEQEND
  0
POLYLINE
  8
LAYER_6
 40
0.0353
 41
0.0353
 66
1
 10
0
 20
0
 30
0
  0
VERTEX
  8
LAYER_6
 10
197.2507
 20
-153.1715
  0
VERTEX
  8
LAYER_6
 10
197.2507
 20
-151.8115
  0
VERTEX
  8
LAYER_6
 10
196.9507
 20
-151.8115
  0
VERTEX
  8
LAYER_6
 10
196.9507
 20
-153.1715
  0
SEQEND
  0
POLYLINE
  8
LAYER_6
 40
0.0353
 41
0.0353
 66
1
 10
0
 20
0
 30
0
  0
VERTEX
  8
LAYER_6
 10
198.2107
 20
-153.1715
  0
VERTEX
  8
LAYER_6
 10
198.2107
 20
-151.8115
  0
VERTEX
  8
LAYER_6
 10
197.9107
 20
-151.8115
  0
VERTEX
  8
LAYER_6
 10
197.9107
 20
-153.1715
  0
SEQEND
  0
POLYLINE
  8
LAYER_6
 40
0.0353
 41
0.0353
 66
1
 10
0
 20
0
 30
0
  0
VERTEX
  8
LAYER_6
 10
197.2507
 20
-152.5315
  0
VERTEX
  8
LAYER_6
 10
197.9107
 20
-152.5315
  0
SEQEND
  0
POLYLINE
  8
LAYER_6
 40
0.0353
 41
0.0353
 66
1
 10
0
 20
0
 30
0
  0
VERTEX
  8
LAYER_6
 10
196.6807
 20
-150.5715
  0
VERTEX
  8
LAYER_6
 10
196.6807
 20
-149.0115
  0
VERTEX
  8
LAYER_6
 10
198.4807
 20
-149.0115
  0
VERTEX
  8
LAYER_6
 10
198.6807
 20
-148.8115
  0
VERTEX
  8
LAYER_6
 10
196.4807
 20
-148.8115
  0
VERTEX
  8
LAYER_6
 10
196.6807
 20
-149.0115
  0
SEQEND
  0
POLYLINE
  8
LAYER_6
 40
0.2469
 41
0.2469
 66
1
 10
0
 20
0
 30
0
 70
1
  0
VERTEX
  8
LAYER_6
 10
176.1685
 20
-130.4524
  0
VERTEX
  8
LAYER_6
 10
176.1685
 20
-130.6524
  0
VERTEX
  8
LAYER_6
 10
179.7685
 20
-130.6524
  0
VERTEX
  8
LAYER_6
 10
183.3685
 20
-130.6524
  0
VERTEX
  8
LAYER_6
 10
183.3685
 20
-130.4524
  0
VERTEX
  8
LAYER_6
 10
179.7685
 20
-130.4524
  0
SEQEND
  0
POLYLINE
  8
LAYER_6
 40
0.2469
 41
0.2469
 66
1
 10
0
 20
0
 30
0
  0
VERTEX
  8
LAYER_6
 10
182.1685
 20
-131.9524
  0
VERTEX
  8
LAYER_6
 10
179.7685
 20
-131.9524
  0
VERTEX
  8
LAYER_6
 10
177.3685
 20
-131.9524
  0
SEQEND
  0
POLYLINE
  8
LAYER_6
 40
0.0353
 41
0.0353
 66
1
 10
0
 20
0
 30
0
  0
VERTEX
  8
LAYER_6
 10
181.864
 20
-130.4524
  0
VERTEX
  8
LAYER_6
 10
183.1685
 20
-130.4524
  0
VERTEX
  8
LAYER_6
 10
183.1685
 20
-130.0524
  0
VERTEX
  8
LAYER_6
 10
179.7685
 20
-130.0524
  0
VERTEX
  8
LAYER_6
 10
176.3685
 20
-130.0524
  0
VERTEX
  8
LAYER_6
 10
176.3685
 20
-130.4524
  0
VERTEX
  8
LAYER_6
 10
177.673
 20
-130.4524
  0
SEQEND
  0
POLYLINE
  8
LAYER_6
 40
0.2469
 41
0.2469
 66
1
 10
0
 20
0
 30
0
  0
VERTEX
  8
LAYER_6
 10
177.3685
 20
-130.6524
  0
VERTEX
  8
LAYER_6
 10
177.673
 20
-130.6524
  0
SEQEND
  0
POLYLINE
  8
LAYER_6
 40
0.2469
 41
0.2469
 66
1
 10
0
 20
0
 30
0
  0
VERTEX
  8
LAYER_6
 10
182.1685
 20
-130.6524
  0
VERTEX
  8
LAYER_6
 10
181.864
 20
-130.6524
  0
SEQEND
  0
POLYLINE
  8
LAYER_6
 40
0.0353
 41
0.0353
 66
1
 10
0
 20
0
 30
0
  0
VERTEX
  8
LAYER_6
 10
176.2685
 20
-125.1524
  0
VERTEX
  8
LAYER_6
 10
176.2685
 20
-125.5524
  0
VERTEX
  8
LAYER_6
 10
179.7685
 20
-125.5524
  0
VERTEX
  8
LAYER_6
 10
183.2685
 20
-125.5524
  0
VERTEX
  8
LAYER_6
 10
183.2685
 20
-125.1524
  0
SEQEND
  0
POLYLINE
  8
LAYER_6
 40
0.0353
 41
0.0353
 66
1
 10
0
 20
0
 30
0
  0
VERTEX
  8
LAYER_6
 10
187.6285
 20
-138.2524
 42
-0.3987114963
  0
VERTEX
  8
LAYER_6
 10
187.6285
 20
-138.4524
 42
0.1903124534
  0
VERTEX
  8
LAYER_6
 10
187.5885
 20
-138.5524
 42
0.1910894868
  0
VERTEX
  8
LAYER_6
 10
187.6285
 20
-138.6524
 42
-0.1902810354
  0
VERTEX
  8
LAYER_6
 10
187.6685
 20
-138.7524
 42
-0.190126102
  0
VERTEX
  8
LAYER_6
 10
187.6285
 20
-138.8524
 42
0.1903124534
  0
VERTEX
  8
LAYER_6
 10
187.5885
 20
-138.9524
 42
0.1910894868
  0
VERTEX
  8
LAYER_6
 10
187.6285
 20
-139.0524
 42
-0.1902810354
  0
VERTEX
  8
LAYER_6
 10
187.6685
 20
-139.1524
 42
-0.190126102
  0
VERTEX
  8
LAYER_6
 10
187.6285
 20
-139.2524
  0
SEQEND
  0
POLYLINE
  8
LAYER_6
 40
0.0353
 41
0.0353
 66
1
 10
0
 20
0
 30
0
  0
VERTEX
  8
LAYER_6
 10
186.9085
 20
-138.2524
 42
-0.3987114963
  0
VERTEX
  8
LAYER_6
 10
186.9085
 20
-138.4524
 42
0.1903124534
  0
VERTEX
  8
LAYER_6
 10
186.8685
 20
-138.5524
 42
0.1910894868
  0
VERTEX
  8
LAYER_6
 10
186.9085
 20
-138.6524
 42
-0.1902810354
  0
VERTEX
  8
LAYER_6
 10
186.9485
 20
-138.7524
 42
-0.190126102
  0
VERTEX
  8
LAYER_6
 10
186.9085
 20
-138.8524
 42
0.1903124534
  0
VERTEX
  8
LAYER_6
 10
186.8685
 20
-138.9524
 42
0.1910894868
  0
VERTEX
  8
LAYER_6
 10
186.9085
 20
-139.0524
 42
-0.1902810354
  0
VERTEX
  8
LAYER_6
 10
186.9485
 20
-139.1524
 42
-0.190126102
  0
VERTEX
  8
LAYER_6
 10
186.9085
 20
-139.2524
  0
SEQEND
  0
POLYLINE
  8
LAYER_6
 40
0.0353
 41
0.0353
 66
1
 10
0
 20
0
 30
0
 70
1
  0
VERTEX
  8
LAYER_6
 10
87.5339
 20
-59.6235
 42
-0.4142083879
  0
VERTEX
  8
LAYER_6
 10
90.0739
 20
-57.0835
 42
-0.4142165226
  0
VERTEX
  8
LAYER_6
 10
92.6139
 20
-59.6235
  0
VERTEX
  8
LAYER_6
 10
92.6139
 20
-89.9214
 42
-0.3932194763
  0
VERTEX
  8
LAYER_6
 10
92.5739
 20
-89.9614
  0
VERTEX
  8
LAYER_6
 10
87.5739
 20
-89.9614
 42
-0.3932194765
  0
VERTEX
  8
LAYER_6
 10
87.5339
 20
-89.9214
  0
SEQEND
  0
POLYLINE
  8
LAYER_6
 40
0.0353
 41
0.0353
 66
1
 10
0
 20
0
 30
0
  0
VERTEX
  8
LAYER_6
 10
91.1352
 20
-75.4929
 42
0.07613479267
  0
VERTEX
  8
LAYER_6
 10
92.0808
 20
-75.1735
 42
0.1274203699
  0
VERTEX
  8
LAYER_6
 10
92.5328
 20
-74.7843
 42
0.1435314029
  0
VERTEX
  8
LAYER_6
 10
92.6139
 20
-74.5177
 42
0.1869614927
  0
VERTEX
  8
LAYER_6
 10
92.4489
 20
-74.1363
 42
0.1097068721
  0
VERTEX
  8
LAYER_6
 10
91.8483
 20
-73.7496
 42
0.06686155882
  0
VERTEX
  8
LAYER_6
 10
90.7693
 20
-73.4849
 42
0.02929031372
  0
VERTEX
  8
LAYER_6
 10
90.0739
 20
-73.4442
 42
0.05885342551
  0
VERTEX
  8
LAYER_6
 10
88.8096
 20
-73.5864
 42
0.08126563853
  0
VERTEX
  8
LAYER_6
 10
87.9508
 20
-73.9282
 42
0.1430229337
  0
VERTEX
  8
LAYER_6
 10
87.5794
 20
-74.3145
 42
0.1097871363
  0
VERTEX
  8
LAYER_6
 10
87.5339
 20
-74.5177
 42
0.1859316266
  0
VERTEX
  8
LAYER_6
 10
87.697
 20
-74.8933
 42
0.1091742596
  0
VERTEX
  8
LAYER_6
 10
88.29
 20
-75.2804
 42
0.04941050631
  0
VERTEX
  8
LAYER_6
 10
89.0137
 20
-75.4931
  0
SEQEND
  0
POLYLINE
  8
LAYER_6
 40
0.0353
 41
0.0353
 66
1
 10
0
 20
0
 30
0
  0
VERTEX
  8
LAYER_6
 10
91.2791
 20
-75.3752
 42
0.08780966338
  0
VERTEX
  8
LAYER_6
 10
92.0848
 20
-75.0382
 42
0.2283392724
  0
VERTEX
  8
LAYER_6
 10
92.4339
 20
-74.5177
 42
0.186962568
  0
VERTEX
  8
LAYER_6
 10
92.2806
 20
-74.1633
 42
0.1097106011
  0
VERTEX
  8
LAYER_6
 10
91.7225
 20
-73.804
 42
0.09876308919
  0
VERTEX
  8
LAYER_6
 10
90.0739
 20
-73.5203
 42
0.06195504026
  0
VERTEX
  8
LAYER_6
 10
88.8502
 20
-73.6647
 42
0.0872781517
  0
VERTEX
  8
LAYER_6
 10
88.0556
 20
-74.0005
 42
0.2298462441
  0
VERTEX
  8
LAYER_6
 10
87.7139
 20
-74.5177
 42
0.1908141339
  0
VERTEX
  8
LAYER_6
 10
87.8772
 20
-74.8803
 42
0.1107884683
  0
VERTEX
  8
LAYER_6
 10
88.4822
 20
-75.2536
 42
0.03802322789
  0
VERTEX
  8
LAYER_6
 10
88.8663
 20
-75.3746
  0
SEQEND
  0
POLYLINE
  8
LAYER_6
 40
0.0353
 41
0.0353
 66
1
 10
0
 20
0
 30
0
  0
VERTEX
  8
LAYER_6
 10
88.0084
 20
-74.0352
 42
0.2161698727
  0
VERTEX
  8
LAYER_6
 10
87.7733
 20
-74.4633
 42
0.1928494277
  0
VERTEX
  8
LAYER_6
 10
87.9374
 20
-74.8226
 42
0.1349004136
  0
VERTEX
  8
LAYER_6
 10
88.7693
 20
-75.2639
  0
SEQEND
  0
POLYLINE
  8
LAYER_6
 40
0.0353
 41
0.0353
 66
1
 10
0
 20
0
 30
0
  0
VERTEX
  8
LAYER_6
 10
91.377
 20
-75.2644
 42
0.09627958208
  0
VERTEX
  8
LAYER_6
 10
92.1089
 20
-74.9156
 42
0.2197603287
  0
VERTEX
  8
LAYER_6
 10
92.3746
 20
-74.4633
 42
0.2269652845
  0
VERTEX
  8
LAYER_6
 10
92.1395
 20
-74.0352
  0
SEQEND
  0
POLYLINE
  8
LAYER_6
 40
0.0353
 41
0.0353
 66
1
 10
0
 20
0
 30
0
  0
VERTEX
  8
LAYER_6
 10
92.5539
 20
-89.9614
 42
-0.3936044483
  0
VERTEX
  8
LAYER_6
 10
92.6139
 20
-90.0214
  0
VERTEX
  8
LAYER_6
 10
92.6139
 20
-122.4969
 42
-0.3932479359
  0
VERTEX
  8
LAYER_6
 10
92.5539
 20
-122.5569
  0
VERTEX
  8
LAYER_6
 10
87.5939
 20
-122.5569
 42
-0.3927995517
  0
VERTEX
  8
LAYER_6
 10
87.5339
 20
-122.4969
  0
VERTEX
  8
LAYER_6
 10
87.5339
 20
-90.0214
 42
-0.3931565731
  0
VERTEX
  8
LAYER_6
 10
87.5939
 20
-89.9614
  0
SEQEND
  0
POLYLINE
  8
LAYER_6
 40
0.0353
 41
0.0353
 66
1
 10
0
 20
0
 30
0
  0
VERTEX
  8
LAYER_6
 10
87.9784
 20
-130.0569
  0
VERTEX
  8
LAYER_6
 10
87.9784
 20
-125.5569
  0
SEQEND
  0
POLYLINE
  8
LAYER_6
 40
0.0353
 41
0.0353
 66
1
 10
0
 20
0
 30
0
  0
VERTEX
  8
LAYER_6
 10
88.2108
 20
-134.1893
  0
VERTEX
  8
LAYER_6
 10
88.2108
 20
-131.9569
  0
SEQEND
  0
POLYLINE
  8
LAYER_6
 40
0.0353
 41
0.0353
 66
1
 10
0
 20
0
 30
0
 70
1
  0
VERTEX
  8
LAYER_6
 10
87.8039
 20
-122.5569
  0
VERTEX
  8
LAYER_6
 10
87.5939
 20
-122.5569
  0
SEQEND
  0
POLYLINE
  8
LAYER_6
 40
0.0353
 41
0.0353
 66
1
 10
0
 20
0
 30
0
  0
VERTEX
  8
LAYER_6
 10
87.5239
 20
-122.5569
  0
VERTEX
  8
LAYER_6
 10
87.7739
 20
-122.5569
  0
SEQEND
  0
POLYLINE
  8
LAYER_6
 40
0.1482
 41
0.1482
 66
1
 10
0
 20
0
 30
0
  0
VERTEX
  8
LAYER_6
 10
86.2932
 20
-123.0998
 42
0.2946392899
  0
VERTEX
  8
LAYER_6
 10
86.1739
 20
-123.2828
  0
VERTEX
  8
LAYER_6
 10
86.1739
 20
-125.0969
  0
SEQEND
  0
POLYLINE
  8
LAYER_6
 40
0.0353
 41
0.0353
 66
1
 10
0
 20
0
 30
0
  0
VERTEX
  8
LAYER_6
 10
88.0376
 20
-125.5569
  0
VERTEX
  8
LAYER_6
 10
88.2108
 20
-125.8569
  0
VERTEX
  8
LAYER_6
 10
88.2108
 20
-130.0569
  0
SEQEND
  0
POLYLINE
  8
LAYER_6
 40
0.0353
 41
0.0353
 66
1
 10
0
 20
0
 30
0
  0
VERTEX
  8
LAYER_6
 10
87.9784
 20
-133.9114
  0
VERTEX
  8
LAYER_6
 10
89.001
 20
-133.9114
  0
SEQEND
  0
POLYLINE
  8
LAYER_6
 40
0.0353
 41
0.0353
 66
1
 10
0
 20
0
 30
0
  0
VERTEX
  8
LAYER_6
 10
91.937
 20
-134.1893
  0
VERTEX
  8
LAYER_6
 10
91.937
 20
-131.9569
  0
SEQEND
  0
POLYLINE
  8
LAYER_6
 40
0.0353
 41
0.0353
 66
1
 10
0
 20
0
 30
0
 70
1
  0
VERTEX
  8
LAYER_6
 10
92.3439
 20
-122.5569
  0
VERTEX
  8
LAYER_6
 10
92.5539
 20
-122.5569
  0
SEQEND
  0
POLYLINE
  8
LAYER_6
 40
0.0353
 41
0.0353
 66
1
 10
0
 20
0
 30
0
  0
VERTEX
  8
LAYER_6
 10
92.6239
 20
-122.5569
  0
VERTEX
  8
LAYER_6
 10
92.3739
 20
-122.5569
  0
SEQEND
  0
POLYLINE
  8
LAYER_6
 40
0.0353
 41
0.0353
 66
1
 10
0
 20
0
 30
0
  0
VERTEX
  8
LAYER_6
 10
91.937
 20
-125.8569
  0
VERTEX
  8
LAYER_6
 10
92.1694
 20
-125.8569
  0
VERTEX
  8
LAYER_6
 10
90.0739
 20
-125.8569
  0
VERTEX
  8
LAYER_6
 10
87.9784
 20
-125.8569
  0
VERTEX
  8
LAYER_6
 10
88.2108
 20
-125.8569
  0
SEQEND
  0
POLYLINE
  8
LAYER_6
 40
0.1482
 41
0.1482
 66
1
 10
0
 20
0
 30
0
  0
VERTEX
  8
LAYER_6
 10
93.8547
 20
-123.0998
 42
-0.2946025739
  0
VERTEX
  8
LAYER_6
 10
93.9739
 20
-123.2828
  0
VERTEX
  8
LAYER_6
 10
93.9739
 20
-125.0969
  0
SEQEND
  0
POLYLINE
  8
LAYER_6
 40
0.0353
 41
0.0353
 66
1
 10
0
 20
0
 30
0
  0
VERTEX
  8
LAYER_6
 10
92.1102
 20
-125.5569
  0
VERTEX
  8
LAYER_6
 10
91.937
 20
-125.8569
  0
VERTEX
  8
LAYER_6
 10
91.937
 20
-130.0569
  0
SEQEND
  0
POLYLINE
  8
LAYER_6
 40
0.0353
 41
0.0353
 66
1
 10
0
 20
0
 30
0
  0
VERTEX
  8
LAYER_6
 10
92.1694
 20
-131.9569
  0
VERTEX
  8
LAYER_6
 10
92.1694
 20
-133.9569
  0
VERTEX
  8
LAYER_6
 10
91.8694
 20
-134.2569
  0
VERTEX
  8
LAYER_6
 10
90.0739
 20
-134.2569
  0
VERTEX
  8
LAYER_6
 10
88.2784
 20
-134.2569
  0
VERTEX
  8
LAYER_6
 10
87.9784
 20
-133.9569
  0
VERTEX
  8
LAYER_6
 10
87.9784
 20
-131.9569
  0
SEQEND
  0
POLYLINE
  8
LAYER_6
 40
0.0353
 41
0.0353
 66
1
 10
0
 20
0
 30
0
  0
VERTEX
  8
LAYER_6
 10
92.1694
 20
-133.9114
  0
VERTEX
  8
LAYER_6
 10
91.1468
 20
-133.9114
  0
SEQEND
  0
POLYLINE
  8
LAYER_6
 40
0.0353
 41
0.0353
 66
1
 10
0
 20
0
 30
0
 70
1
  0
VERTEX
  8
LAYER_6
 10
90.0739
 20
-125.1569
  0
VERTEX
  8
LAYER_6
 10
93.9139
 20
-125.1569
  0
VERTEX
  8
LAYER_6
 10
93.9739
 20
-125.0969
  0
VERTEX
  8
LAYER_6
 10
90.0739
 20
-125.0969
  0
VERTEX
  8
LAYER_6
 10
86.1739
 20
-125.0969
  0
VERTEX
  8
LAYER_6
 10
86.2339
 20
-125.1569
  0
SEQEND
  0
POLYLINE
  8
LAYER_6
 40
0.0353
 41
0.0353
 66
1
 10
0
 20
0
 30
0
 70
1
  0
VERTEX
  8
LAYER_6
 10
91.1468
 20
-133.9114
 42
-0.1362593301
  0
VERTEX
  8
LAYER_6
 10
90.0739
 20
-134.2069
 42
-0.1362581029
  0
VERTEX
  8
LAYER_6
 10
89.001
 20
-133.9114
  0
VERTEX
  8
LAYER_6
 10
89.001
 20
-133.0569
  0
VERTEX
  8
LAYER_6
 10
90.0739
 20
-133.0569
  0
VERTEX
  8
LAYER_6
 10
91.1468
 20
-133.0569
  0
SEQEND
  0
POLYLINE
  8
LAYER_6
 40
0.0353
 41
0.0353
 66
1
 10
0
 20
0
 30
0
  0
VERTEX
  8
LAYER_6
 10
93.8739
 20
-123.1526
  0
VERTEX
  8
LAYER_6
 10
90.0739
 20
-123.1526
  0
VERTEX
  8
LAYER_6
 10
86.2739
 20
-123.1526
  0
SEQEND
  0
POLYLINE
  8
LAYER_6
 40
0.0353
 41
0.0353
 66
1
 10
0
 20
0
 30
0
  0
VERTEX
  8
LAYER_6
 10
93.8547
 20
-123.0998
  0
VERTEX
  8
LAYER_6
 10
92.6239
 20
-122.5569
  0
VERTEX
  8
LAYER_6
 10
90.0739
 20
-122.5569
  0
VERTEX
  8
LAYER_6
 10
87.5239
 20
-122.5569
  0
VERTEX
  8
LAYER_6
 10
86.2932
 20
-123.0998
  0
SEQEND
  0
POLYLINE
  8
LAYER_6
 40
0.0353
 41
0.0353
 66
1
 10
0
 20
0
 30
0
  0
VERTEX
  8
LAYER_6
 10
88.625
 20
-74.4232
  0
VERTEX
  8
LAYER_6
 10
88.625
 20
-74.8522
  0
SEQEND
  0
POLYLINE
  8
LAYER_6
 40
0.0353
 41
0.0353
 66
1
 10
0
 20
0
 30
0
  0
VERTEX
  8
LAYER_6
 10
92.3557
 20
-74.3413
 42
-0.2976148535
  0
VERTEX
  8
LAYER_6
 10
92.1832
 20
-74.4552
  0
VERTEX
  8
LAYER_6
 10
92.1554
 20
-74.4531
  0
VERTEX
  8
LAYER_6
 10
91.6549
 20
-74.4531
  0
VERTEX
  8
LAYER_6
 10
91.6375
 20
-74.4538
 42
-0.2192972279
  0
VERTEX
  8
LAYER_6
 10
91.4679
 20
-74.3754
 42
0.1531549571
  0
VERTEX
  8
LAYER_6
 10
90.9211
 20
-73.9557
 42
0.1878214104
  0
VERTEX
  8
LAYER_6
 10
89.2288
 20
-73.9557
 42
0.1531538427
  0
VERTEX
  8
LAYER_6
 10
88.682
 20
-74.3754
 42
-0.2193028899
  0
VERTEX
  8
LAYER_6
 10
88.5124
 20
-74.4538
  0
VERTEX
  8
LAYER_6
 10
88.4951
 20
-74.4531
  0
VERTEX
  8
LAYER_6
 10
87.9945
 20
-74.4531
  0
VERTEX
  8
LAYER_6
 10
87.9667
 20
-74.4552
 42
-0.293093215
  0
VERTEX
  8
LAYER_6
 10
87.7955
 20
-74.3442
  0
SEQEND
  0
POLYLINE
  8
LAYER_6
 40
0.0353
 41
0.0353
 66
1
 10
0
 20
0
 30
0
  0
VERTEX
  8
LAYER_6
 10
91.3556
 20
-75.0852
  0
VERTEX
  8
LAYER_6
 10
91.3843
 20
-75.0828
  0
SEQEND
  0
POLYLINE
  8
LAYER_6
 40
0.0353
 41
0.0353
 66
1
 10
0
 20
0
 30
0
  0
VERTEX
  8
LAYER_6
 10
90.7824
 20
-74.5821
 42
-0.1486547481
  0
VERTEX
  8
LAYER_6
 10
90.9899
 20
-74.8478
  0
VERTEX
  8
LAYER_6
 10
91.0306
 20
-74.8798
  0
SEQEND
  0
POLYLINE
  8
LAYER_6
 40
0.0353
 41
0.0353
 66
1
 10
0
 20
0
 30
0
  0
VERTEX
  8
LAYER_6
 10
89.1206
 20
-74.8756
  0
VERTEX
  8
LAYER_6
 10
89.1613
 20
-74.8437
 42
-0.1478236284
  0
VERTEX
  8
LAYER_6
 10
89.3716
 20
-74.5794
  0
SEQEND
  0
POLYLINE
  8
LAYER_6
 40
0.0353
 41
0.0353
 66
1
 10
0
 20
0
 30
0
  0
VERTEX
  8
LAYER_6
 10
89.16
 20
-75.0483
 42
0.2116794247
  0
VERTEX
  8
LAYER_6
 10
89.5114
 20
-75.3933
 42
0.2022512561
  0
VERTEX
  8
LAYER_6
 10
90.633
 20
-75.3958
 42
0.2100440637
  0
VERTEX
  8
LAYER_6
 10
90.9886
 20
-75.0524
  0
SEQEND
  0
POLYLINE
  8
LAYER_6
 40
0.0353
 41
0.0353
 66
1
 10
0
 20
0
 30
0
  0
VERTEX
  8
LAYER_6
 10
89.2244
 20
-74.7265
 42
0.2064717444
  0
VERTEX
  8
LAYER_6
 10
90.0035
 20
-75.0627
  0
VERTEX
  8
LAYER_6
 10
90.0715
 20
-75.0605
  0
VERTEX
  8
LAYER_6
 10
90.171
 20
-75.0654
 42
0.2139420986
  0
VERTEX
  8
LAYER_6
 10
90.9256
 20
-74.7266
  0
SEQEND
  0
POLYLINE
  8
LAYER_6
 40
0.0353
 41
0.0353
 66
1
 10
0
 20
0
 30
0
  0
VERTEX
  8
LAYER_6
 10
89.16
 20
-74.908
  0
VERTEX
  8
LAYER_6
 10
88.7643
 20
-75.077
  0
SEQEND
  0
POLYLINE
  8
LAYER_6
 40
0.0353
 41
0.0353
 66
1
 10
0
 20
0
 30
0
  0
VERTEX
  8
LAYER_6
 10
90.9886
 20
-74.9121
  0
VERTEX
  8
LAYER_6
 10
91.3843
 20
-75.0828
  0
VERTEX
  8
LAYER_6
 10
91.3856
 20
-74.8782
  0
VERTEX
  8
LAYER_6
 10
91.3568
 20
-74.8806
  0
SEQEND
  0
POLYLINE
  8
LAYER_6
 40
0.0353
 41
0.0353
 66
1
 10
0
 20
0
 30
0
  0
VERTEX
  8
LAYER_6
 10
88.7956
 20
-75.0795
  0
VERTEX
  8
LAYER_6
 10
89.1193
 20
-75.0802
  0
SEQEND
  0
POLYLINE
  8
LAYER_6
 40
0.0353
 41
0.0353
 66
1
 10
0
 20
0
 30
0
  0
VERTEX
  8
LAYER_6
 10
91.0293
 20
-75.0845
 42
-0.1831800121
  0
VERTEX
  8
LAYER_6
 10
90.7927
 20
-75.3727
 42
-0.160329933
  0
VERTEX
  8
LAYER_6
 10
89.9813
 20
-75.5611
 42
-0.1316468777
  0
VERTEX
  8
LAYER_6
 10
89.3523
 20
-75.3694
 42
-0.1680058975
  0
VERTEX
  8
LAYER_6
 10
89.1193
 20
-75.0802
  0
VERTEX
  8
LAYER_6
 10
89.16
 20
-75.0483
  0
VERTEX
  8
LAYER_6
 10
89.16
 20
-74.908
  0
VERTEX
  8
LAYER_6
 10
89.1514
 20
-74.8514
  0
SEQEND
  0
POLYLINE
  8
LAYER_6
 40
0.0353
 41
0.0353
 66
1
 10
0
 20
0
 30
0
  0
VERTEX
  8
LAYER_6
 10
90.9985
 20
-74.8546
  0
VERTEX
  8
LAYER_6
 10
90.9886
 20
-74.9121
  0
VERTEX
  8
LAYER_6
 10
90.9886
 20
-75.0524
  0
VERTEX
  8
LAYER_6
 10
91.0293
 20
-75.0845
  0
VERTEX
  8
LAYER_6
 10
91.3531
 20
-75.0852
 42
-0.201208641
  0
VERTEX
  8
LAYER_6
 10
90.9963
 20
-75.5234
 42
-0.1334556544
  0
VERTEX
  8
LAYER_6
 10
90.0702
 20
-75.7564
 42
-0.1395619673
  0
VERTEX
  8
LAYER_6
 10
89.1469
 20
-75.5193
 42
-0.2027016444
  0
VERTEX
  8
LAYER_6
 10
88.7956
 20
-75.0795
  0
VERTEX
  8
LAYER_6
 10
88.7643
 20
-75.077
  0
VERTEX
  8
LAYER_6
 10
88.7656
 20
-74.8724
  0
VERTEX
  8
LAYER_6
 10
88.7968
 20
-74.8748
  0
VERTEX
  8
LAYER_6
 10
89.1206
 20
-74.8756
 42
-0.1831911444
  0
VERTEX
  8
LAYER_6
 10
89.3572
 20
-74.5874
 42
-0.1603374304
  0
VERTEX
  8
LAYER_6
 10
90.1686
 20
-74.399
 42
-0.1316433572
  0
VERTEX
  8
LAYER_6
 10
90.7976
 20
-74.5906
 42
-0.1680029744
  0
VERTEX
  8
LAYER_6
 10
91.0306
 20
-74.8798
  0
VERTEX
  8
LAYER_6
 10
91.3543
 20
-74.8806
 42
0.2027164159
  0
VERTEX
  8
LAYER_6
 10
91.003
 20
-74.4408
 42
0.1395528197
  0
VERTEX
  8
LAYER_6
 10
90.0798
 20
-74.2037
 42
0.1334673101
  0
VERTEX
  8
LAYER_6
 10
89.1536
 20
-74.4366
 42
0.2011999889
  0
VERTEX
  8
LAYER_6
 10
88.7968
 20
-74.8748
  0
SEQEND
  0
POLYLINE
  8
LAYER_6
 40
0.0353
 41
0.0353
 66
1
 10
0
 20
0
 30
0
  0
VERTEX
  8
LAYER_6
 10
91.525
 20
-74.4232
  0
VERTEX
  8
LAYER_6
 10
91.5249
 20
-74.8569
 42
0.1473045091
  0
VERTEX
  8
LAYER_6
 10
91.4267
 20
-74.5364
 42
0.1510419104
  0
VERTEX
  8
LAYER_6
 10
90.8962
 20
-74.1331
 42
0.16223811
  0
VERTEX
  8
LAYER_6
 10
89.4507
 20
-74.0646
 42
0.1299389324
  0
VERTEX
  8
LAYER_6
 10
88.8219
 20
-74.4131
 42
0.2002052449
  0
VERTEX
  8
LAYER_6
 10
88.625
 20
-74.8525
 42
0.2099064172
  0
VERTEX
  8
LAYER_6
 10
88.8606
 20
-75.3697
 42
0.124215485
  0
VERTEX
  8
LAYER_6
 10
89.468
 20
-75.7046
 42
0.07024739286
  0
VERTEX
  8
LAYER_6
 10
90.0698
 20
-75.7886
 42
0.1370910515
  0
VERTEX
  8
LAYER_6
 10
91.0882
 20
-75.5269
 42
0.1747394191
  0
VERTEX
  8
LAYER_6
 10
91.4912
 20
-75.0565
  0
VERTEX
  8
LAYER_6
 10
91.5249
 20
-74.8569
  0
SEQEND
  0
POLYLINE
  8
LAYER_6
 40
0.0353
 41
0.0353
 66
1
 10
0
 20
0
 30
0
  0
VERTEX
  8
LAYER_6
 10
92.6139
 20
-74.5177
 42
0.1869614927
  0
VERTEX
  8
LAYER_6
 10
92.4489
 20
-74.1363
 42
0.1097068721
  0
VERTEX
  8
LAYER_6
 10
91.8483
 20
-73.7496
 42
0.06686155882
  0
VERTEX
  8
LAYER_6
 10
90.7693
 20
-73.4849
 42
0.02929031372
  0
VERTEX
  8
LAYER_6
 10
90.0739
 20
-73.4442
 42
0.05885342551
  0
VERTEX
  8
LAYER_6
 10
88.8096
 20
-73.5864
 42
0.08126563853
  0
VERTEX
  8
LAYER_6
 10
87.9508
 20
-73.9282
 42
0.1430229337
  0
VERTEX
  8
LAYER_6
 10
87.5794
 20
-74.3145
 42
0.1097871363
  0
VERTEX
  8
LAYER_6
 10
87.5339
 20
-74.5177
  0
SEQEND
  0
POLYLINE
  8
LAYER_6
 40
0.0353
 41
0.0353
 66
1
 10
0
 20
0
 30
0
  0
VERTEX
  8
LAYER_6
 10
92.4339
 20
-74.5177
 42
0.186962568
  0
VERTEX
  8
LAYER_6
 10
92.2806
 20
-74.1633
 42
0.1097106011
  0
VERTEX
  8
LAYER_6
 10
91.7225
 20
-73.804
 42
0.09876308919
  0
VERTEX
  8
LAYER_6
 10
90.0739
 20
-73.5203
 42
0.06195504026
  0
VERTEX
  8
LAYER_6
 10
88.8502
 20
-73.6647
 42
0.0872781517
  0
VERTEX
  8
LAYER_6
 10
88.0556
 20
-74.0005
 42
0.2298462441
  0
VERTEX
  8
LAYER_6
 10
87.7139
 20
-74.5177
  0
SEQEND
  0
POLYLINE
  8
LAYER_6
 40
0.0353
 41
0.0353
 66
1
 10
0
 20
0
 30
0
  0
VERTEX
  8
LAYER_6
 10
87.7139
 20
-74.5177
 42
0.1908141339
  0
VERTEX
  8
LAYER_6
 10
87.8772
 20
-74.8803
 42
0.1107884683
  0
VERTEX
  8
LAYER_6
 10
88.4822
 20
-75.2536
 42
0.03802322789
  0
VERTEX
  8
LAYER_6
 10
88.8663
 20
-75.3746
  0
SEQEND
  0
POLYLINE
  8
LAYER_6
 40
0.0353
 41
0.0353
 66
1
 10
0
 20
0
 30
0
  0
VERTEX
  8
LAYER_6
 10
91.2791
 20
-75.3752
 42
0.08780966338
  0
VERTEX
  8
LAYER_6
 10
92.0848
 20
-75.0382
 42
0.2283392724
  0
VERTEX
  8
LAYER_6
 10
92.4339
 20
-74.5177
  0
SEQEND
  0
POLYLINE
  8
LAYER_6
 40
0.0353
 41
0.0353
 66
1
 10
0
 20
0
 30
0
  0
VERTEX
  8
LAYER_6
 10
91.7739
 20
-134.2569
  0
VERTEX
  8
LAYER_6
 10
91.7739
 20
-134.4569
  0
VERTEX
  8
LAYER_6
 10
90.9002
 20
-134.4569
  0
SEQEND
  0
POLYLINE
  8
LAYER_6
 40
0.0353
 41
0.0353
 66
1
 10
0
 20
0
 30
0
  0
VERTEX
  8
LAYER_6
 10
88.3739
 20
-134.2569
  0
VERTEX
  8
LAYER_6
 10
88.3739
 20
-134.4569
  0
VERTEX
  8
LAYER_6
 10
89.1002
 20
-134.4569
  0
SEQEND
  0
POLYLINE
  8
LAYER_6
 40
0.0353
 41
0.0353
 66
1
 10
0
 20
0
 30
0
  0
VERTEX
  8
LAYER_6
 10
91.0739
 20
-134.4569
  0
VERTEX
  8
LAYER_6
 10
91.0739
 20
-135.1969
 42
0.3927995517
  0
VERTEX
  8
LAYER_6
 10
91.1339
 20
-135.2569
  0
VERTEX
  8
LAYER_6
 10
91.3739
 20
-135.2569
 42
0.3931565729
  0
VERTEX
  8
LAYER_6
 10
91.4339
 20
-135.1969
  0
VERTEX
  8
LAYER_6
 10
91.4339
 20
-134.4569
  0
SEQEND
  0
POLYLINE
  8
LAYER_6
 40
0.0353
 41
0.0353
 66
1
 10
0
 20
0
 30
0
  0
VERTEX
  8
LAYER_6
 10
89.0739
 20
-134.4569
  0
VERTEX
  8
LAYER_6
 10
89.0739
 20
-135.1969
 42
-0.3932479359
  0
VERTEX
  8
LAYER_6
 10
89.0139
 20
-135.2569
  0
VERTEX
  8
LAYER_6
 10
88.7739
 20
-135.2569
 42
-0.3927995517
  0
VERTEX
  8
LAYER_6
 10
88.7139
 20
-135.1969
  0
VERTEX
  8
LAYER_6
 10
88.7139
 20
-134.4569
  0
SEQEND
  0
POLYLINE
  8
LAYER_6
 40
0.0353
 41
0.0353
 66
1
 10
0
 20
0
 30
0
  0
VERTEX
  8
LAYER_6
 10
90.9002
 20
-134.2569
  0
VERTEX
  8
LAYER_6
 10
90.9002
 20
-155.4619
  0
SEQEND
  0
POLYLINE
  8
LAYER_6
 40
0.0353
 41
0.0353
 66
1
 10
0
 20
0
 30
0
  0
VERTEX
  8
LAYER_6
 10
90.9002
 20
-156.4619
  0
VERTEX
  8
LAYER_6
 10
90.9002
 20
-177.6669
  0
SEQEND
  0
POLYLINE
  8
LAYER_6
 40
0.0353
 41
0.0353
 66
1
 10
0
 20
0
 30
0
  0
VERTEX
  8
LAYER_6
 10
89.1002
 20
-134.2569
  0
VERTEX
  8
LAYER_6
 10
89.1002
 20
-155.4619
  0
SEQEND
  0
POLYLINE
  8
LAYER_6
 40
0.0353
 41
0.0353
 66
1
 10
0
 20
0
 30
0
  0
VERTEX
  8
LAYER_6
 10
89.1002
 20
-156.4619
  0
VERTEX
  8
LAYER_6
 10
89.1002
 20
-177.6664
  0
SEQEND
  0
POLYLINE
  8
LAYER_6
 40
0.2469
 41
0.2469
 66
1
 10
0
 20
0
 30
0
 70
1
  0
VERTEX
  8
LAYER_6
 10
86.4739
 20
-130.4569
  0
VERTEX
  8
LAYER_6
 10
86.4739
 20
-130.6569
  0
VERTEX
  8
LAYER_6
 10
90.0739
 20
-130.6569
  0
VERTEX
  8
LAYER_6
 10
93.6739
 20
-130.6569
  0
VERTEX
  8
LAYER_6
 10
93.6739
 20
-130.4569
  0
VERTEX
  8
LAYER_6
 10
90.0739
 20
-130.4569
  0
SEQEND
  0
POLYLINE
  8
LAYER_6
 40
0.0353
 41
0.0353
 66
1
 10
0
 20
0
 30
0
  0
VERTEX
  8
LAYER_6
 10
87.4337
 20
-131.9569
  0
VERTEX
  8
LAYER_6
 10
87.4337
 20
-130.6569
  0
SEQEND
  0
POLYLINE
  8
LAYER_6
 40
0.0353
 41
0.0353
 66
1
 10
0
 20
0
 30
0
  0
VERTEX
  8
LAYER_6
 10
87.4239
 20
-130.6569
  0
VERTEX
  8
LAYER_6
 10
87.4239
 20
-131.9569
  0
SEQEND
  0
POLYLINE
  8
LAYER_6
 40
0.0353
 41
0.0353
 66
1
 10
0
 20
0
 30
0
  0
VERTEX
  8
LAYER_6
 10
88.9503
 20
-130.6569
  0
VERTEX
  8
LAYER_6
 10
88.9503
 20
-131.9569
  0
SEQEND
  0
POLYLINE
  8
LAYER_6
 40
0.0353
 41
0.0353
 66
1
 10
0
 20
0
 30
0
  0
VERTEX
  8
LAYER_6
 10
88.5573
 20
-130.6569
  0
VERTEX
  8
LAYER_6
 10
88.5573
 20
-131.9569
  0
SEQEND
  0
POLYLINE
  8
LAYER_6
 40
0.2469
 41
0.2469
 66
1
 10
0
 20
0
 30
0
  0
VERTEX
  8
LAYER_6
 10
92.7239
 20
-131.9569
  0
VERTEX
  8
LAYER_6
 10
90.0739
 20
-131.9569
  0
VERTEX
  8
LAYER_6
 10
87.4239
 20
-131.9569
  0
SEQEND
  0
POLYLINE
  8
LAYER_6
 40
0.0353
 41
0.0353
 66
1
 10
0
 20
0
 30
0
  0
VERTEX
  8
LAYER_6
 10
92.7142
 20
-131.9569
  0
VERTEX
  8
LAYER_6
 10
92.7142
 20
-130.6569
  0
SEQEND
  0
POLYLINE
  8
LAYER_6
 40
0.0353
 41
0.0353
 66
1
 10
0
 20
0
 30
0
  0
VERTEX
  8
LAYER_6
 10
92.7239
 20
-130.6569
  0
VERTEX
  8
LAYER_6
 10
92.7239
 20
-131.9569
  0
SEQEND
  0
POLYLINE
  8
LAYER_6
 40
0.0353
 41
0.0353
 66
1
 10
0
 20
0
 30
0
  0
VERTEX
  8
LAYER_6
 10
91.1975
 20
-130.6569
  0
VERTEX
  8
LAYER_6
 10
91.1975
 20
-131.9569
  0
SEQEND
  0
POLYLINE
  8
LAYER_6
 40
0.0353
 41
0.0353
 66
1
 10
0
 20
0
 30
0
  0
VERTEX
  8
LAYER_6
 10
91.5906
 20
-130.6569
  0
VERTEX
  8
LAYER_6
 10
91.5906
 20
-131.9569
  0
SEQEND
  0
POLYLINE
  8
LAYER_6
 40
0.0353
 41
0.0353
 66
1
 10
0
 20
0
 30
0
  0
VERTEX
  8
LAYER_6
 10
93.5739
 20
-125.1569
  0
VERTEX
  8
LAYER_6
 10
93.5739
 20
-125.5569
  0
SEQEND
  0
POLYLINE
  8
LAYER_6
 40
0.0353
 41
0.0353
 66
1
 10
0
 20
0
 30
0
  0
VERTEX
  8
LAYER_6
 10
86.5739
 20
-125.1569
  0
VERTEX
  8
LAYER_6
 10
86.5739
 20
-125.5569
  0
VERTEX
  8
LAYER_6
 10
90.0739
 20
-125.5569
  0
VERTEX
  8
LAYER_6
 10
93.5739
 20
-125.5569
  0
VERTEX
  8
LAYER_6
 10
92.1694
 20
-125.5569
  0
VERTEX
  8
LAYER_6
 10
92.1694
 20
-130.0569
  0
SEQEND
  0
POLYLINE
  8
LAYER_6
 40
0.0353
 41
0.0353
 66
1
 10
0
 20
0
 30
0
 70
1
  0
VERTEX
  8
LAYER_6
 10
86.6739
 20
-130.0569
  0
VERTEX
  8
LAYER_6
 10
93.4739
 20
-130.0569
  0
VERTEX
  8
LAYER_6
 10
93.4739
 20
-130.4569
  0
VERTEX
  8
LAYER_6
 10
86.6739
 20
-130.4569
  0
SEQEND
  0
POLYLINE
  8
LAYER_6
 40
0.2469
 41
0.2469
 66
1
 10
0
 20
0
 30
0
  0
VERTEX
  8
LAYER_6
 10
92.7239
 20
-130.6569
  0
VERTEX
  8
LAYER_6
 10
90.0739
 20
-130.6569
  0
VERTEX
  8
LAYER_6
 10
87.4239
 20
-130.6569
  0
SEQEND
  0
POLYLINE
  8
LAYER_6
 40
0.0353
 41
0.0353
 66
1
 10
0
 20
0
 30
0
  0
VERTEX
  8
LAYER_6
 10
83.722
 20
-180.0574
  0
VERTEX
  8
LAYER_6
 10
83.731
 20
-180.1632
  0
SEQEND
  0
POLYLINE
  8
LAYER_6
 40
0.0353
 41
0.0353
 66
1
 10
0
 20
0
 30
0
  0
VERTEX
  8
LAYER_6
 10
83.6298
 20
-195.5009
  0
VERTEX
  8
LAYER_6
 10
83.6297
 20
-195.5452
  0
VERTEX
  8
LAYER_6
 10
83.6321
 20
-195.7186
  0
SEQEND
  0
POLYLINE
  8
LAYER_6
 40
0.0353
 41
0.0353
 66
1
 10
0
 20
0
 30
0
 70
1
  0
VERTEX
  8
LAYER_6
 10
94.0539
 20
-196.0849
  0
VERTEX
  8
LAYER_6
 10
94.2194
 20
-195.9194
  0
VERTEX
  8
LAYER_6
 10
94.4739
 20
-195.9194
  0
VERTEX
  8
LAYER_6
 10
94.2543
 20
-196.1391
  0
VERTEX
  8
LAYER_6
 10
94.4739
 20
-196.5194
  0
VERTEX
  8
LAYER_6
 10
94.2661
 20
-196.5194
  0
VERTEX
  8
LAYER_6
 10
94.1226
 20
-196.2708
  0
VERTEX
  8
LAYER_6
 10
94.0539
 20
-196.3394
  0
VERTEX
  8
LAYER_6
 10
94.0539
 20
-196.5194
  0
VERTEX
  8
LAYER_6
 10
93.8739
 20
-196.5194
  0
VERTEX
  8
LAYER_6
 10
93.8739
 20
-195.9194
  0
VERTEX
  8
LAYER_6
 10
94.0539
 20
-195.9194
  0
SEQEND
  0
POLYLINE
  8
LAYER_6
 40
0.0353
 41
0.0353
 66
1
 10
0
 20
0
 30
0
 70
1
  0
VERTEX
  8
LAYER_6
 10
93.5739
 20
-195.9194
  0
VERTEX
  8
LAYER_6
 10
93.3556
 20
-196.5194
  0
VERTEX
  8
LAYER_6
 10
93.1923
 20
-196.5194
  0
VERTEX
  8
LAYER_6
 10
92.9739
 20
-195.9194
  0
VERTEX
  8
LAYER_6
 10
93.1655
 20
-195.9194
  0
VERTEX
  8
LAYER_6
 10
93.2739
 20
-196.2174
  0
VERTEX
  8
LAYER_6
 10
93.3824
 20
-195.9194
  0
SEQEND
  0
POLYLINE
  8
LAYER_6
 40
0.0353
 41
0.0353
 66
1
 10
0
 20
0
 30
0
 70
1
  0
VERTEX
  8
LAYER_6
 10
92.0739
 20
-195.9194
  0
VERTEX
  8
LAYER_6
 10
92.2539
 20
-195.9194
  0
VERTEX
  8
LAYER_6
 10
92.2539
 20
-196.0849
  0
VERTEX
  8
LAYER_6
 10
92.4194
 20
-195.9194
  0
VERTEX
  8
LAYER_6
 10
92.6739
 20
-195.9194
  0
VERTEX
  8
LAYER_6
 10
92.4543
 20
-196.1391
  0
VERTEX
  8
LAYER_6
 10
92.6739
 20
-196.5194
  0
VERTEX
  8
LAYER_6
 10
92.4661
 20
-196.5194
  0
VERTEX
  8
LAYER_6
 10
92.3226
 20
-196.2708
  0
VERTEX
  8
LAYER_6
 10
92.2539
 20
-196.3394
  0
VERTEX
  8
LAYER_6
 10
92.2539
 20
-196.5194
  0
VERTEX
  8
LAYER_6
 10
92.0739
 20
-196.5194
  0
SEQEND
  0
POLYLINE
  8
LAYER_6
 40
0.0353
 41
0.0353
 66
1
 10
0
 20
0
 30
0
  0
VERTEX
  8
LAYER_6
 10
95.936
 20
-179.6574
  0
VERTEX
  8
LAYER_6
 10
96.0972
 20
-179.669
 42
-0.2328519051
  0
VERTEX
  8
LAYER_6
 10
96.4261
 20
-180.0052
  0
VERTEX
  8
LAYER_6
 10
96.436
 20
-180.1574
  0
SEQEND
  0
POLYLINE
  8
LAYER_6
 40
0.0353
 41
0.0353
 66
1
 10
0
 20
0
 30
0
  0
VERTEX
  8
LAYER_6
 10
85.8904
 20
-197.7636
  0
VERTEX
  8
LAYER_6
 10
85.6748
 20
-197.7645
  0
SEQEND
  0
POLYLINE
  8
LAYER_6
 40
0.0353
 41
0.0353
 66
1
 10
0
 20
0
 30
0
  0
VERTEX
  8
LAYER_6
 10
95.5739
 20
-197.8194
  0
VERTEX
  8
LAYER_6
 10
96.074
 20
-197.8194
  0
SEQEND
  0
POLYLINE
  8
LAYER_6
 40
0.0353
 41
0.0353
 66
1
 10
0
 20
0
 30
0
  0
VERTEX
  8
LAYER_6
 10
94.9739
 20
-197.8142
  0
VERTEX
  8
LAYER_6
 10
95.5739
 20
-197.8194
  0
SEQEND
  0
POLYLINE
  8
LAYER_6
 40
0.0353
 41
0.0353
 66
1
 10
0
 20
0
 30
0
  0
VERTEX
  8
LAYER_6
 10
94.9739
 20
-197.7776
  0
VERTEX
  8
LAYER_6
 10
94.9739
 20
-197.8142
  0
SEQEND
  0
POLYLINE
  8
LAYER_6
 40
0.0353
 41
0.0353
 66
1
 10
0
 20
0
 30
0
  0
VERTEX
  8
LAYER_6
 10
94.9739
 20
-197.7776
  0
VERTEX
  8
LAYER_6
 10
94.3739
 20
-197.7723
  0
SEQEND
  0
POLYLINE
  8
LAYER_6
 40
0.0353
 41
0.0353
 66
1
 10
0
 20
0
 30
0
  0
VERTEX
  8
LAYER_6
 10
93.6264
 20
-197.7723
  0
VERTEX
  8
LAYER_6
 10
94.3739
 20
-197.7723
  0
SEQEND
  0
POLYLINE
  8
LAYER_6
 40
0.0353
 41
0.0353
 66
1
 10
0
 20
0
 30
0
  0
VERTEX
  8
LAYER_6
 10
93.0265
 20
-197.7671
  0
VERTEX
  8
LAYER_6
 10
93.6264
 20
-197.7723
  0
SEQEND
  0
POLYLINE
  8
LAYER_6
 40
0.0353
 41
0.0353
 66
1
 10
0
 20
0
 30
0
  0
VERTEX
  8
LAYER_6
 10
92.9738
 20
-197.7145
  0
VERTEX
  8
LAYER_6
 10
93.0265
 20
-197.7671
  0
SEQEND
  0
POLYLINE
  8
LAYER_6
 40
0.0353
 41
0.0353
 66
1
 10
0
 20
0
 30
0
  0
VERTEX
  8
LAYER_6
 10
92.9738
 20
-197.7145
 42
0.004445067876
  0
VERTEX
  8
LAYER_6
 10
90.0739
 20
-197.6894
 42
0.1901115651
  0
VERTEX
  8
LAYER_6
 10
87.174
 20
-197.7145
  0
SEQEND
  0
POLYLINE
  8
LAYER_6
 40
0.0353
 41
0.0353
 66
1
 10
0
 20
0
 30
0
  0
VERTEX
  8
LAYER_6
 10
87.0743
 20
-197.8143
  0
VERTEX
  8
LAYER_6
 10
87.174
 20
-197.7145
  0
SEQEND
  0
POLYLINE
  8
LAYER_6
 40
0.0353
 41
0.0353
 66
1
 10
0
 20
0
 30
0
  0
VERTEX
  8
LAYER_6
 10
86.4743
 20
-197.8194
  0
VERTEX
  8
LAYER_6
 10
87.0743
 20
-197.8143
  0
SEQEND
  0
POLYLINE
  8
LAYER_6
 40
0.0353
 41
0.0353
 66
1
 10
0
 20
0
 30
0
  0
VERTEX
  8
LAYER_6
 10
84.0739
 20
-197.8194
  0
VERTEX
  8
LAYER_6
 10
86.4743
 20
-197.8194
  0
SEQEND
  0
POLYLINE
  8
LAYER_6
 40
0.0353
 41
0.0353
 66
1
 10
0
 20
0
 30
0
  0
VERTEX
  8
LAYER_6
 10
84.0739
 20
-179.5194
  0
VERTEX
  8
LAYER_6
 10
84.2119
 20
-179.6574
  0
SEQEND
  0
POLYLINE
  8
LAYER_6
 40
0.0353
 41
0.0353
 66
1
 10
0
 20
0
 30
0
  0
VERTEX
  8
LAYER_6
 10
84.1739
 20
-179.5203
  0
VERTEX
  8
LAYER_6
 10
84.0739
 20
-179.5194
  0
SEQEND
  0
POLYLINE
  8
LAYER_6
 40
0.0353
 41
0.0353
 66
1
 10
0
 20
0
 30
0
  0
VERTEX
  8
LAYER_6
 10
84.1739
 20
-179.5533
  0
VERTEX
  8
LAYER_6
 10
84.1739
 20
-179.5203
  0
SEQEND
  0
POLYLINE
  8
LAYER_6
 40
0.0353
 41
0.0353
 66
1
 10
0
 20
0
 30
0
  0
VERTEX
  8
LAYER_6
 10
84.1739
 20
-179.5533
  0
VERTEX
  8
LAYER_6
 10
84.2939
 20
-179.5544
  0
VERTEX
  8
LAYER_6
 10
84.4139
 20
-179.5533
  0
SEQEND
  0
POLYLINE
  8
LAYER_6
 40
0.0353
 41
0.0353
 66
1
 10
0
 20
0
 30
0
  0
VERTEX
  8
LAYER_6
 10
84.4139
 20
-179.5229
  0
VERTEX
  8
LAYER_6
 10
84.4139
 20
-179.5533
  0
SEQEND
  0
POLYLINE
  8
LAYER_6
 40
0.0353
 41
0.0353
 66
1
 10
0
 20
0
 30
0
  0
VERTEX
  8
LAYER_6
 10
84.8139
 20
-179.5194
  0
VERTEX
  8
LAYER_6
 10
84.4139
 20
-179.5229
  0
SEQEND
  0
POLYLINE
  8
LAYER_6
 40
0.0353
 41
0.0353
 66
1
 10
0
 20
0
 30
0
  0
VERTEX
  8
LAYER_6
 10
86.8726
 20
-179.5194
  0
VERTEX
  8
LAYER_6
 10
84.8139
 20
-179.5194
  0
SEQEND
  0
POLYLINE
  8
LAYER_6
 40
0.0353
 41
0.0353
 66
1
 10
0
 20
0
 30
0
  0
VERTEX
  8
LAYER_6
 10
87.2726
 20
-179.5229
  0
VERTEX
  8
LAYER_6
 10
86.8726
 20
-179.5194
  0
SEQEND
  0
POLYLINE
  8
LAYER_6
 40
0.0353
 41
0.0353
 66
1
 10
0
 20
0
 30
0
  0
VERTEX
  8
LAYER_6
 10
87.3442
 20
-179.5945
  0
VERTEX
  8
LAYER_6
 10
87.2726
 20
-179.5229
  0
SEQEND
  0
POLYLINE
  8
LAYER_6
 40
0.0353
 41
0.0353
 66
1
 10
0
 20
0
 30
0
  0
VERTEX
  8
LAYER_6
 10
87.374
 20
-179.6244
  0
VERTEX
  8
LAYER_6
 10
90.0739
 20
-179.6477
  0
VERTEX
  8
LAYER_6
 10
92.7738
 20
-179.6244
  0
SEQEND
  0
POLYLINE
  8
LAYER_6
 40
0.0353
 41
0.0353
 66
1
 10
0
 20
0
 30
0
  0
VERTEX
  8
LAYER_6
 10
92.8753
 20
-179.5229
  0
VERTEX
  8
LAYER_6
 10
92.8037
 20
-179.5945
  0
SEQEND
  0
POLYLINE
  8
LAYER_6
 40
0.0353
 41
0.0353
 66
1
 10
0
 20
0
 30
0
  0
VERTEX
  8
LAYER_6
 10
93.2753
 20
-179.5194
  0
VERTEX
  8
LAYER_6
 10
92.8753
 20
-179.5229
  0
SEQEND
  0
POLYLINE
  8
LAYER_6
 40
0.0353
 41
0.0353
 66
1
 10
0
 20
0
 30
0
  0
VERTEX
  8
LAYER_6
 10
95.3339
 20
-179.5194
  0
VERTEX
  8
LAYER_6
 10
93.2753
 20
-179.5194
  0
SEQEND
  0
POLYLINE
  8
LAYER_6
 40
0.0353
 41
0.0353
 66
1
 10
0
 20
0
 30
0
  0
VERTEX
  8
LAYER_6
 10
95.7339
 20
-179.5229
  0
VERTEX
  8
LAYER_6
 10
95.3339
 20
-179.5194
  0
SEQEND
  0
POLYLINE
  8
LAYER_6
 40
0.0353
 41
0.0353
 66
1
 10
0
 20
0
 30
0
  0
VERTEX
  8
LAYER_6
 10
95.7339
 20
-179.5533
  0
VERTEX
  8
LAYER_6
 10
95.7339
 20
-179.5229
  0
SEQEND
  0
POLYLINE
  8
LAYER_6
 40
0.0353
 41
0.0353
 66
1
 10
0
 20
0
 30
0
  0
VERTEX
  8
LAYER_6
 10
95.7339
 20
-179.5533
  0
VERTEX
  8
LAYER_6
 10
95.8539
 20
-179.5544
  0
VERTEX
  8
LAYER_6
 10
95.9739
 20
-179.5533
  0
SEQEND
  0
POLYLINE
  8
LAYER_6
 40
0.0353
 41
0.0353
 66
1
 10
0
 20
0
 30
0
  0
VERTEX
  8
LAYER_6
 10
95.9739
 20
-179.5203
  0
VERTEX
  8
LAYER_6
 10
95.9739
 20
-179.5533
  0
SEQEND
  0
POLYLINE
  8
LAYER_6
 40
0.0353
 41
0.0353
 66
1
 10
0
 20
0
 30
0
  0
VERTEX
  8
LAYER_6
 10
96.0739
 20
-179.5194
  0
VERTEX
  8
LAYER_6
 10
95.9739
 20
-179.5203
  0
SEQEND
  0
POLYLINE
  8
LAYER_6
 40
0.0353
 41
0.0353
 66
1
 10
0
 20
0
 30
0
  0
VERTEX
  8
LAYER_6
 10
86.2539
 20
-179.5301
  0
VERTEX
  8
LAYER_6
 10
86.2539
 20
-179.543
  0
SEQEND
  0
POLYLINE
  8
LAYER_6
 40
0.0353
 41
0.0353
 66
1
 10
0
 20
0
 30
0
  0
VERTEX
  8
LAYER_6
 10
86.2539
 20
-179.5301
  0
VERTEX
  8
LAYER_6
 10
86.0939
 20
-179.5287
  0
SEQEND
  0
POLYLINE
  8
LAYER_6
 40
0.0353
 41
0.0353
 66
1
 10
0
 20
0
 30
0
  0
VERTEX
  8
LAYER_6
 10
85.6139
 20
-179.5287
  0
VERTEX
  8
LAYER_6
 10
85.4539
 20
-179.5301
  0
SEQEND
  0
POLYLINE
  8
LAYER_6
 40
0.0353
 41
0.0353
 66
1
 10
0
 20
0
 30
0
  0
VERTEX
  8
LAYER_6
 10
85.4539
 20
-179.543
  0
VERTEX
  8
LAYER_6
 10
85.4539
 20
-179.5301
  0
SEQEND
  0
POLYLINE
  8
LAYER_6
 40
0.0353
 41
0.0353
 66
1
 10
0
 20
0
 30
0
  0
VERTEX
  8
LAYER_6
 10
85.4539
 20
-179.543
  0
VERTEX
  8
LAYER_6
 10
85.6139
 20
-179.5444
  0
SEQEND
  0
POLYLINE
  8
LAYER_6
 40
0.0353
 41
0.0353
 66
1
 10
0
 20
0
 30
0
  0
VERTEX
  8
LAYER_6
 10
86.0939
 20
-179.5444
  0
VERTEX
  8
LAYER_6
 10
86.2539
 20
-179.543
  0
SEQEND
  0
POLYLINE
  8
LAYER_6
 40
0.0353
 41
0.0353
 66
1
 10
0
 20
0
 30
0
  0
VERTEX
  8
LAYER_6
 10
94.0539
 20
-179.5287
  0
VERTEX
  8
LAYER_6
 10
93.8939
 20
-179.5301
  0
SEQEND
  0
POLYLINE
  8
LAYER_6
 40
0.0353
 41
0.0353
 66
1
 10
0
 20
0
 30
0
  0
VERTEX
  8
LAYER_6
 10
93.8939
 20
-179.543
  0
VERTEX
  8
LAYER_6
 10
93.8939
 20
-179.5301
  0
SEQEND
  0
POLYLINE
  8
LAYER_6
 40
0.0353
 41
0.0353
 66
1
 10
0
 20
0
 30
0
  0
VERTEX
  8
LAYER_6
 10
93.8939
 20
-179.543
  0
VERTEX
  8
LAYER_6
 10
94.0539
 20
-179.5444
  0
SEQEND
  0
POLYLINE
  8
LAYER_6
 40
0.0353
 41
0.0353
 66
1
 10
0
 20
0
 30
0
  0
VERTEX
  8
LAYER_6
 10
94.5339
 20
-179.5444
  0
VERTEX
  8
LAYER_6
 10
94.6939
 20
-179.543
  0
SEQEND
  0
POLYLINE
  8
LAYER_6
 40
0.0353
 41
0.0353
 66
1
 10
0
 20
0
 30
0
  0
VERTEX
  8
LAYER_6
 10
94.6939
 20
-179.5301
  0
VERTEX
  8
LAYER_6
 10
94.6939
 20
-179.543
  0
SEQEND
  0
POLYLINE
  8
LAYER_6
 40
0.0353
 41
0.0353
 66
1
 10
0
 20
0
 30
0
  0
VERTEX
  8
LAYER_6
 10
94.6939
 20
-179.5301
  0
VERTEX
  8
LAYER_6
 10
94.5339
 20
-179.5287
  0
SEQEND
  0
POLYLINE
  8
LAYER_6
 40
0.0353
 41
0.0353
 66
1
 10
0
 20
0
 30
0
  0
VERTEX
  8
LAYER_6
 10
96.5739
 20
-180.0194
 42
0.1990094226
  0
VERTEX
  8
LAYER_6
 10
96.4275
 20
-179.6659
 42
0.1990654507
  0
VERTEX
  8
LAYER_6
 10
96.0739
 20
-179.5194
  0
SEQEND
  0
POLYLINE
  8
LAYER_6
 40
0.0353
 41
0.0353
 66
1
 10
0
 20
0
 30
0
  0
VERTEX
  8
LAYER_6
 10
96.074
 20
-197.8194
 42
0.1990102531
  0
VERTEX
  8
LAYER_6
 10
96.4275
 20
-197.673
 42
0.1990080498
  0
VERTEX
  8
LAYER_6
 10
96.5739
 20
-197.3195
  0
SEQEND
  0
POLYLINE
  8
LAYER_6
 40
0.0353
 41
0.0353
 66
1
 10
0
 20
0
 30
0
  0
VERTEX
  8
LAYER_6
 10
84.0739
 20
-179.5194
 42
0.199017932
  0
VERTEX
  8
LAYER_6
 10
83.7204
 20
-179.6659
 42
0.199020252
  0
VERTEX
  8
LAYER_6
 10
83.5739
 20
-180.0194
  0
SEQEND
  0
POLYLINE
  8
LAYER_6
 40
0.0353
 41
0.0353
 66
1
 10
0
 20
0
 30
0
  0
VERTEX
  8
LAYER_6
 10
83.5739
 20
-197.3195
  0
VERTEX
  8
LAYER_6
 10
83.5739
 20
-180.0194
  0
VERTEX
  8
LAYER_6
 10
83.7119
 20
-180.1574
  0
VERTEX
  8
LAYER_6
 10
83.7119
 20
-195.3382
  0
SEQEND
  0
POLYLINE
  8
LAYER_6
 40
0.0353
 41
0.0353
 66
1
 10
0
 20
0
 30
0
  0
VERTEX
  8
LAYER_6
 10
92.3037
 20
-177.6194
  0
VERTEX
  8
LAYER_6
 10
92.1985
 20
-177.6194
  0
SEQEND
  0
POLYLINE
  8
LAYER_6
 40
0.0353
 41
0.0353
 66
1
 10
0
 20
0
 30
0
  0
VERTEX
  8
LAYER_6
 10
87.9494
 20
-177.6194
  0
VERTEX
  8
LAYER_6
 10
87.8441
 20
-177.6194
  0
SEQEND
  0
POLYLINE
  8
LAYER_6
 40
0.0353
 41
0.0353
 66
1
 10
0
 20
0
 30
0
  0
VERTEX
  8
LAYER_6
 10
88.5494
 20
-177.6246
  0
VERTEX
  8
LAYER_6
 10
87.9494
 20
-177.6194
  0
SEQEND
  0
POLYLINE
  8
LAYER_6
 40
0.0353
 41
0.0353
 66
1
 10
0
 20
0
 30
0
  0
VERTEX
  8
LAYER_6
 10
88.574
 20
-177.6492
  0
VERTEX
  8
LAYER_6
 10
90.0739
 20
-177.6622
  0
VERTEX
  8
LAYER_6
 10
91.5739
 20
-177.6492
  0
SEQEND
  0
POLYLINE
  8
LAYER_6
 40
0.0353
 41
0.0353
 66
1
 10
0
 20
0
 30
0
  0
VERTEX
  8
LAYER_6
 10
91.5985
 20
-177.6246
  0
VERTEX
  8
LAYER_6
 10
91.5739
 20
-177.6492
  0
SEQEND
  0
POLYLINE
  8
LAYER_6
 40
0.0353
 41
0.0353
 66
1
 10
0
 20
0
 30
0
  0
VERTEX
  8
LAYER_6
 10
92.1985
 20
-177.6194
  0
VERTEX
  8
LAYER_6
 10
91.5985
 20
-177.6246
  0
SEQEND
  0
POLYLINE
  8
LAYER_6
 40
0.0353
 41
0.0353
 66
1
 10
0
 20
0
 30
0
  0
VERTEX
  8
LAYER_6
 10
92.8037
 20
-178.1194
 42
0.1989999163
  0
VERTEX
  8
LAYER_6
 10
92.6573
 20
-177.7659
 42
0.1990616283
  0
VERTEX
  8
LAYER_6
 10
92.3037
 20
-177.6194
  0
SEQEND
  0
POLYLINE
  8
LAYER_6
 40
0.0353
 41
0.0353
 66
1
 10
0
 20
0
 30
0
  0
VERTEX
  8
LAYER_6
 10
87.8441
 20
-177.6194
 42
0.1990141105
  0
VERTEX
  8
LAYER_6
 10
87.4906
 20
-177.7659
 42
0.1990107543
  0
VERTEX
  8
LAYER_6
 10
87.3442
 20
-178.1194
  0
SEQEND
  0
POLYLINE
  8
LAYER_6
 40
0.0353
 41
0.0353
 66
1
 10
0
 20
0
 30
0
  0
VERTEX
  8
LAYER_6
 10
87.3442
 20
-178.1194
  0
VERTEX
  8
LAYER_6
 10
87.3442
 20
-179.5945
  0
VERTEX
  8
LAYER_6
 10
87.374
 20
-179.6244
  0
VERTEX
  8
LAYER_6
 10
87.374
 20
-178.1493
  0
VERTEX
  8
LAYER_6
 10
87.3857
 20
-177.9881
 42
-0.2328296691
  0
VERTEX
  8
LAYER_6
 10
87.7218
 20
-177.6592
  0
VERTEX
  8
LAYER_6
 10
87.874
 20
-177.6493
  0
VERTEX
  8
LAYER_6
 10
87.8843
 20
-177.6516
 42
0.007735031279
  0
VERTEX
  8
LAYER_6
 10
92.2634
 20
-177.6518
  0
VERTEX
  8
LAYER_6
 10
92.2635
 20
-177.6517
  0
VERTEX
  8
LAYER_6
 10
92.2736
 20
-177.6493
  0
VERTEX
  8
LAYER_6
 10
92.2739
 20
-177.6493
  0
VERTEX
  8
LAYER_6
 10
92.4261
 20
-177.6592
 42
-0.2328206596
  0
VERTEX
  8
LAYER_6
 10
92.7622
 20
-177.9881
  0
VERTEX
  8
LAYER_6
 10
92.7738
 20
-178.1493
  0
VERTEX
  8
LAYER_6
 10
92.7738
 20
-179.6244
  0
VERTEX
  8
LAYER_6
 10
92.8037
 20
-179.5945
  0
VERTEX
  8
LAYER_6
 10
92.8037
 20
-178.1194
  0
SEQEND
  0
POLYLINE
  8
LAYER_6
 40
0.0353
 41
0.0353
 66
1
 10
0
 20
0
 30
0
  0
VERTEX
  8
LAYER_6
 10
83.6289
 20
-195.7186
  0
VERTEX
  8
LAYER_6
 10
83.6289
 20
-197.2645
  0
VERTEX
  8
LAYER_6
 10
83.6388
 20
-197.4167
 42
0.2328441418
  0
VERTEX
  8
LAYER_6
 10
83.9677
 20
-197.7528
  0
VERTEX
  8
LAYER_6
 10
84.1284
 20
-197.7643
  0
VERTEX
  8
LAYER_6
 10
84.1289
 20
-197.7645
  0
VERTEX
  8
LAYER_6
 10
85.6748
 20
-197.7645
  0
VERTEX
  8
LAYER_6
 10
85.6748
 20
-197.7576
  0
SEQEND
  0
POLYLINE
  8
LAYER_6
 40
0.0353
 41
0.0353
 66
1
 10
0
 20
0
 30
0
  0
VERTEX
  8
LAYER_6
 10
83.5739
 20
-197.3195
 42
0.1990188798
  0
VERTEX
  8
LAYER_6
 10
83.7204
 20
-197.673
 42
0.1990147437
  0
VERTEX
  8
LAYER_6
 10
84.0739
 20
-197.8194
  0
SEQEND
  0
POLYLINE
  8
LAYER_6
 40
0.0353
 41
0.0353
 66
1
 10
0
 20
0
 30
0
  0
VERTEX
  8
LAYER_6
 10
94.6939
 20
-197.7731
  0
VERTEX
  8
LAYER_6
 10
94.6939
 20
-201.6482
  0
SEQEND
  0
POLYLINE
  8
LAYER_6
 40
0.0353
 41
0.0353
 66
1
 10
0
 20
0
 30
0
  0
VERTEX
  8
LAYER_6
 10
93.8539
 20
-197.7723
  0
VERTEX
  8
LAYER_6
 10
93.8539
 20
-201.6482
  0
SEQEND
  0
POLYLINE
  8
LAYER_6
 40
0.0353
 41
0.0353
 66
1
 10
0
 20
0
 30
0
  0
VERTEX
  8
LAYER_6
 10
83.7346
 20
-180.1581
  0
VERTEX
  8
LAYER_6
 10
83.7119
 20
-180.1574
  0
VERTEX
  8
LAYER_6
 10
83.7304
 20
-180.0646
  0
VERTEX
  8
LAYER_6
 10
83.7392
 20
-179.9602
 42
-0.2043728304
  0
VERTEX
  8
LAYER_6
 10
84.0526
 20
-179.668
  0
VERTEX
  8
LAYER_6
 10
84.2119
 20
-179.6574
  0
VERTEX
  8
LAYER_6
 10
84.2075
 20
-179.6617
  0
VERTEX
  8
LAYER_6
 10
84.2118
 20
-179.6661
  0
VERTEX
  8
LAYER_6
 10
84.2162
 20
-179.6619
  0
VERTEX
  8
LAYER_6
 10
84.2121
 20
-179.6574
  0
VERTEX
  8
LAYER_6
 10
84.2205
 20
-179.6585
  0
VERTEX
  8
LAYER_6
 10
84.7119
 20
-179.6617
  0
VERTEX
  8
LAYER_6
 10
95.436
 20
-179.6617
  0
VERTEX
  8
LAYER_6
 10
95.9273
 20
-179.6585
  0
VERTEX
  8
LAYER_6
 10
95.9358
 20
-179.6574
  0
VERTEX
  8
LAYER_6
 10
95.936
 20
-179.6574
  0
VERTEX
  8
LAYER_6
 10
96.0739
 20
-179.5194
  0
SEQEND
  0
POLYLINE
  8
LAYER_6
 40
0.0353
 41
0.0353
 66
1
 10
0
 20
0
 30
0
  0
VERTEX
  8
LAYER_6
 10
85.8925
 20
-197.7636
  0
VERTEX
  8
LAYER_6
 10
85.97
 20
-197.7625
  0
VERTEX
  8
LAYER_6
 10
85.9747
 20
-197.7619
  0
VERTEX
  8
LAYER_6
 10
85.9748
 20
-197.7619
  0
VERTEX
  8
LAYER_6
 10
86.0595
 20
-197.6772
  0
VERTEX
  8
LAYER_6
 10
95.436
 20
-197.6772
  0
VERTEX
  8
LAYER_6
 10
95.9273
 20
-197.6804
  0
VERTEX
  8
LAYER_6
 10
95.9358
 20
-197.6815
  0
VERTEX
  8
LAYER_6
 10
95.936
 20
-197.6815
  0
VERTEX
  8
LAYER_6
 10
96.0907
 20
-197.6718
 42
0.2045585105
  0
VERTEX
  8
LAYER_6
 10
96.4077
 20
-197.3822
  0
VERTEX
  8
LAYER_6
 10
96.4174
 20
-197.2743
  0
VERTEX
  8
LAYER_6
 10
96.4175
 20
-197.2743
  0
VERTEX
  8
LAYER_6
 10
96.436
 20
-197.1815
  0
VERTEX
  8
LAYER_6
 10
96.436
 20
-180.1574
  0
VERTEX
  8
LAYER_6
 10
96.5739
 20
-180.0194
  0
VERTEX
  8
LAYER_6
 10
96.5739
 20
-197.3195
  0
SEQEND
  0
POLYLINE
  8
LAYER_6
 40
0.0353
 41
0.0353
 66
1
 10
0
 20
0
 30
0
 70
1
  0
VERTEX
  8
LAYER_6
 10
94.5339
 20
-179.5287
  0
VERTEX
  8
LAYER_6
 10
94.5339
 20
-179.5444
  0
VERTEX
  8
LAYER_6
 10
94.0539
 20
-179.5444
  0
VERTEX
  8
LAYER_6
 10
94.0539
 20
-179.5287
  0
SEQEND
  0
POLYLINE
  8
LAYER_6
 40
0.0353
 41
0.0353
 66
1
 10
0
 20
0
 30
0
 70
1
  0
VERTEX
  8
LAYER_6
 10
86.0939
 20
-179.5287
  0
VERTEX
  8
LAYER_6
 10
86.0939
 20
-179.5444
  0
VERTEX
  8
LAYER_6
 10
85.6139
 20
-179.5444
  0
VERTEX
  8
LAYER_6
 10
85.6139
 20
-179.5287
  0
SEQEND
  0
POLYLINE
  8
LAYER_6
  6
AIGENLINE001
 40
0.0353
 41
0.0353
 66
1
 10
0
 20
0
 30
0
 70
128
  0
VERTEX
  8
LAYER_6
 10
82.9239
 20
-196.6394
  0
VERTEX
  8
LAYER_6
 10
86.4239
 20
-196.6394
  0
SEQEND
  0
POLYLINE
  8
LAYER_6
  6
AIGENLINE001
 40
0.0353
 41
0.0353
 66
1
 10
0
 20
0
 30
0
 70
128
  0
VERTEX
  8
LAYER_6
 10
84.6739
 20
-194.8894
  0
VERTEX
  8
LAYER_6
 10
84.6739
 20
-198.3894
  0
SEQEND
  0
POLYLINE
  8
LAYER_6
 40
0.0353
 41
0.0353
 66
1
 10
0
 20
0
 30
0
  0
VERTEX
  8
LAYER_6
 10
86.0599
 20
-197.6659
  0
VERTEX
  8
LAYER_6
 10
86.0621
 20
-197.1772
  0
VERTEX
  8
LAYER_6
 10
86.0621
 20
-196.9312
  0
VERTEX
  8
LAYER_6
 10
86.0575
 20
-196.7401
 42
0.2888172791
  0
VERTEX
  8
LAYER_6
 10
84.9633
 20
-195.401
  0
VERTEX
  8
LAYER_6
 10
84.7119
 20
-195.3509
  0
VERTEX
  8
LAYER_6
 10
84.3993
 20
-195.3316
  0
VERTEX
  8
LAYER_6
 10
83.7288
 20
-195.3366
  0
VERTEX
  8
LAYER_6
 10
83.7119
 20
-195.3382
  0
VERTEX
  8
LAYER_6
 10
83.6315
 20
-195.4186
  0
VERTEX
  8
LAYER_6
 10
83.6309
 20
-195.4234
  0
VERTEX
  8
LAYER_6
 10
83.6298
 20
-195.5008
  0
VERTEX
  8
LAYER_6
 10
83.6289
 20
-195.7186
  0
VERTEX
  8
LAYER_6
 10
83.6357
 20
-195.7186
  0
VERTEX
  8
LAYER_6
 10
83.8289
 20
-195.7186
  0
VERTEX
  8
LAYER_6
 10
84.3749
 20
-195.7186
  0
VERTEX
  8
LAYER_6
 10
84.6067
 20
-195.7291
 42
-0.323050081
  0
VERTEX
  8
LAYER_6
 10
85.67
 20
-196.8461
  0
VERTEX
  8
LAYER_6
 10
85.6748
 20
-197.0185
  0
VERTEX
  8
LAYER_6
 10
85.6748
 20
-197.5645
  0
VERTEX
  8
LAYER_6
 10
85.6748
 20
-197.7555
  0
SEQEND
  0
CIRCLE
  8
LAYER_6
 10
84.6739
 20
-196.6394
 40
0.55
  0
POLYLINE
  8
LAYER_6
 40
0.0353
 41
0.0353
 66
1
 10
0
 20
0
 30
0
 70
1
  0
VERTEX
  8
LAYER_6
 10
84.9339
 20
-196.5794
  0
VERTEX
  8
LAYER_6
 10
85.0739
 20
-196.5794
  0
VERTEX
  8
LAYER_6
 10
85.0739
 20
-196.6994
  0
VERTEX
  8
LAYER_6
 10
84.9952
 20
-196.6994
  0
VERTEX
  8
LAYER_6
 10
84.9336
 20
-196.6994
  0
VERTEX
  8
LAYER_6
 10
84.9339
 20
-196.6994
 42
0.4140892768
  0
VERTEX
  8
LAYER_6
 10
84.7339
 20
-196.8994
  0
VERTEX
  8
LAYER_6
 10
84.7339
 20
-197.0392
  0
VERTEX
  8
LAYER_6
 10
84.7339
 20
-197.0394
  0
VERTEX
  8
LAYER_6
 10
84.6739
 20
-197.0394
  0
VERTEX
  8
LAYER_6
 10
84.6139
 20
-197.0394
  0
VERTEX
  8
LAYER_6
 10
84.6139
 20
-196.8992
  0
VERTEX
  8
LAYER_6
 10
84.6139
 20
-196.8991
  0
VERTEX
  8
LAYER_6
 10
84.6139
 20
-196.8994
 42
0.4141922659
  0
VERTEX
  8
LAYER_6
 10
84.4139
 20
-196.6994
  0
VERTEX
  8
LAYER_6
 10
84.4143
 20
-196.6994
  0
VERTEX
  8
LAYER_6
 10
84.3527
 20
-196.6994
  0
VERTEX
  8
LAYER_6
 10
84.2739
 20
-196.6994
  0
VERTEX
  8
LAYER_6
 10
84.2739
 20
-196.5794
  0
VERTEX
  8
LAYER_6
 10
84.4142
 20
-196.5794
  0
VERTEX
  8
LAYER_6
 10
84.4143
 20
-196.5794
  0
VERTEX
  8
LAYER_6
 10
84.4139
 20
-196.5794
 42
0.4143263312
  0
VERTEX
  8
LAYER_6
 10
84.6139
 20
-196.3794
  0
VERTEX
  8
LAYER_6
 10
84.6139
 20
-196.2397
  0
VERTEX
  8
LAYER_6
 10
84.6139
 20
-196.2394
  0
VERTEX
  8
LAYER_6
 10
84.6739
 20
-196.2394
  0
VERTEX
  8
LAYER_6
 10
84.7339
 20
-196.2394
  0
VERTEX
  8
LAYER_6
 10
84.7339
 20
-196.3796
  0
VERTEX
  8
LAYER_6
 10
84.7339
 20
-196.3798
  0
VERTEX
  8
LAYER_6
 10
84.7339
 20
-196.3794
 42
0.4142232392
  0
SEQEND
  0
POLYLINE
  8
LAYER_6
 40
0.0353
 41
0.0353
 66
1
 10
0
 20
0
 30
0
  0
VERTEX
  8
LAYER_6
 10
92.4739
 20
-200.7994
  0
VERTEX
  8
LAYER_6
 10
92.4739
 20
-197.7005
  0
SEQEND
  0
POLYLINE
  8
LAYER_6
 40
0.0353
 41
0.0353
 66
1
 10
0
 20
0
 30
0
  0
VERTEX
  8
LAYER_6
 10
87.6739
 20
-197.7005
  0
VERTEX
  8
LAYER_6
 10
87.6739
 20
-200.7994
  0
SEQEND
  0
POLYLINE
  8
LAYER_6
 40
0.0353
 41
0.0353
 66
1
 10
0
 20
0
 30
0
  0
VERTEX
  8
LAYER_6
 10
88.1722
 20
-202.3133
  0
VERTEX
  8
LAYER_6
 10
88.1727
 20
-202.3024
  0
VERTEX
  8
LAYER_6
 10
88.152
 20
-202.2382
  0
SEQEND
  0
POLYLINE
  8
LAYER_6
 40
0.0353
 41
0.0353
 66
1
 10
0
 20
0
 30
0
  0
VERTEX
  8
LAYER_6
 10
91.9963
 20
-202.2368
  0
VERTEX
  8
LAYER_6
 10
91.9749
 20
-202.3033
  0
VERTEX
  8
LAYER_6
 10
91.9754
 20
-202.3139
  0
VERTEX
  8
LAYER_6
 10
91.9739
 20
-203.4994
  0
SEQEND
  0
POLYLINE
  8
LAYER_6
 40
0.0353
 41
0.0353
 66
1
 10
0
 20
0
 30
0
 70
1
  0
VERTEX
  8
LAYER_6
 10
90.4408
 20
-205.0994
  0
VERTEX
  8
LAYER_6
 10
90.4408
 20
-205.9994
  0
VERTEX
  8
LAYER_6
 10
90.4408
 20
-205.9996
 42
0.2357314079
  0
VERTEX
  8
LAYER_6
 10
90.508
 20
-206.1559
 42
0.1612797576
  0
VERTEX
  8
LAYER_6
 10
90.9009
 20
-206.3197
 42
0.09612471275
  0
VERTEX
  8
LAYER_6
 10
91.9053
 20
-206.2851
 42
0.169624799
  0
VERTEX
  8
LAYER_6
 10
92.1745
 20
-206.11
 42
0.1819405531
  0
VERTEX
  8
LAYER_6
 10
92.207
 20
-205.9986
  0
VERTEX
  8
LAYER_6
 10
92.2071
 20
-205.9994
  0
VERTEX
  8
LAYER_6
 10
92.2071
 20
-205.0994
 42
0.2268465454
  0
VERTEX
  8
LAYER_6
 10
91.8146
 20
-204.2515
 42
0.4127019118
  0
VERTEX
  8
LAYER_6
 10
90.6994
 20
-204.3783
 42
0.1793847453
  0
SEQEND
  0
POLYLINE
  8
LAYER_6
 40
0.0353
 41
0.0353
 66
1
 10
0
 20
0
 30
0
 70
1
  0
VERTEX
  8
LAYER_6
 10
87.9408
 20
-205.0994
  0
VERTEX
  8
LAYER_6
 10
87.9408
 20
-205.9994
  0
VERTEX
  8
LAYER_6
 10
87.9408
 20
-205.9996
 42
0.2444168014
  0
VERTEX
  8
LAYER_6
 10
88.0096
 20
-206.1575
 42
0.1550074049
  0
VERTEX
  8
LAYER_6
 10
88.3826
 20
-206.3193
 42
0.03756134112
  0
VERTEX
  8
LAYER_6
 10
88.9446
 20
-206.3473
 42
0.139520594
  0
VERTEX
  8
LAYER_6
 10
89.5786
 20
-206.2047
 42
0.2592111563
  0
VERTEX
  8
LAYER_6
 10
89.7065
 20
-206.0116
  0
VERTEX
  8
LAYER_6
 10
89.7071
 20
-205.9994
  0
VERTEX
  8
LAYER_6
 10
89.7071
 20
-205.0994
 42
0.2268463632
  0
VERTEX
  8
LAYER_6
 10
89.3146
 20
-204.2515
 42
0.4127018785
  0
VERTEX
  8
LAYER_6
 10
88.1994
 20
-204.3783
 42
0.1793849389
  0
SEQEND
  0
POLYLINE
  8
LAYER_6
 40
0.0353
 41
0.0353
 66
1
 10
0
 20
0
 30
0
  0
VERTEX
  8
LAYER_6
 10
92.5739
 20
-205.0994
  0
VERTEX
  8
LAYER_6
 10
92.5739
 20
-205.9994
  0
VERTEX
  8
LAYER_6
 10
92.5739
 20
-206.3411
  0
SEQEND
  0
POLYLINE
  8
LAYER_6
 40
0.0353
 41
0.0353
 66
1
 10
0
 20
0
 30
0
  0
VERTEX
  8
LAYER_6
 10
87.5739
 20
-205.0994
  0
VERTEX
  8
LAYER_6
 10
87.5739
 20
-205.9994
  0
VERTEX
  8
LAYER_6
 10
87.5739
 20
-205.9987
  0
VERTEX
  8
LAYER_6
 10
87.5739
 20
-205.9988
  0
VERTEX
  8
LAYER_6
 10
87.5739
 20
-206.3448
  0
SEQEND
  0
POLYLINE
  8
LAYER_6
 40
0.0353
 41
0.0353
 66
1
 10
0
 20
0
 30
0
  0
VERTEX
  8
LAYER_6
 10
87.9917
 20
-200.9794
  0
VERTEX
  8
LAYER_6
 10
92.1562
 20
-200.9794
  0
SEQEND
  0
POLYLINE
  8
LAYER_6
 40
0.0353
 41
0.0353
 66
1
 10
0
 20
0
 30
0
  0
VERTEX
  8
LAYER_6
 10
92.1562
 20
-200.6194
  0
VERTEX
  8
LAYER_6
 10
87.9917
 20
-200.6194
  0
SEQEND
  0
POLYLINE
  8
LAYER_6
 40
0.0353
 41
0.0353
 66
1
 10
0
 20
0
 30
0
 70
1
  0
VERTEX
  8
LAYER_6
 10
92.1562
 20
-200.9794
  0
VERTEX
  8
LAYER_6
 10
92.1639
 20
-200.7994
  0
VERTEX
  8
LAYER_6
 10
92.1562
 20
-200.6194
 42
0.3873514646
  0
VERTEX
  8
LAYER_6
 10
90.0739
 20
-198.7094
 42
0.3873414335
  0
VERTEX
  8
LAYER_6
 10
87.9917
 20
-200.6194
  0
VERTEX
  8
LAYER_6
 10
87.9839
 20
-200.7994
  0
VERTEX
  8
LAYER_6
 10
87.9917
 20
-200.9794
 42
0.3873536889
  0
VERTEX
  8
LAYER_6
 10
90.0739
 20
-202.8894
 42
0.3873637204
  0
SEQEND
  0
CIRCLE
  8
LAYER_6
 10
90.0739
 20
-200.7995
 40
2.4
  0
CIRCLE
  8
LAYER_6
 10
90.0739
 20
-200.7995
 40
2.3
  0
CIRCLE
  8
LAYER_6
 10
90.0739
 20
-200.7995
 40
2.2
  0
CIRCLE
  8
LAYER_6
 10
90.0739
 20
-200.7995
 40
2.1
  0
POLYLINE
  8
LAYER_6
 40
0.0353
 41
0.0353
 66
1
 10
0
 20
0
 30
0
  0
VERTEX
  8
LAYER_6
 10
88.1739
 20
-202.315
  0
VERTEX
  8
LAYER_6
 10
88.1739
 20
-203.4994
  0
VERTEX
  8
LAYER_6
 10
89.4613
 20
-203.4994
  0
VERTEX
  8
LAYER_6
 10
90.6866
 20
-203.4994
  0
VERTEX
  8
LAYER_6
 10
91.9739
 20
-203.4994
  0
VERTEX
  8
LAYER_6
 10
91.8739
 20
-203.5994
  0
VERTEX
  8
LAYER_6
 10
88.2739
 20
-203.5994
  0
VERTEX
  8
LAYER_6
 10
88.1739
 20
-203.4994
  0
SEQEND
  0
POLYLINE
  8
LAYER_6
 40
0.0353
 41
0.0353
 66
1
 10
0
 20
0
 30
0
  0
VERTEX
  8
LAYER_6
 10
91.6739
 20
-203.5994
  0
VERTEX
  8
LAYER_6
 10
91.6739
 20
-203.7994
  0
SEQEND
  0
POLYLINE
  8
LAYER_6
 40
0.0353
 41
0.0353
 66
1
 10
0
 20
0
 30
0
  0
VERTEX
  8
LAYER_6
 10
88.4739
 20
-203.5994
  0
VERTEX
  8
LAYER_6
 10
88.4739
 20
-203.7994
  0
SEQEND
  0
POLYLINE
  8
LAYER_6
 40
0.0353
 41
0.0353
 66
1
 10
0
 20
0
 30
0
 70
1
  0
VERTEX
  8
LAYER_6
 10
92.4404
 20
-203.7994
  0
VERTEX
  8
LAYER_6
 10
92.5739
 20
-204.0796
  0
VERTEX
  8
LAYER_6
 10
92.5739
 20
-206.3459
 42
-0.131301613
  0
VERTEX
  8
LAYER_6
 10
92.3739
 20
-206.3994
  0
VERTEX
  8
LAYER_6
 10
88.9239
 20
-206.3994
  0
VERTEX
  8
LAYER_6
 10
87.7739
 20
-206.3994
 42
-0.131639398
  0
VERTEX
  8
LAYER_6
 10
87.5739
 20
-206.3459
  0
VERTEX
  8
LAYER_6
 10
87.5739
 20
-204.0796
  0
VERTEX
  8
LAYER_6
 10
87.7075
 20
-203.7994
  0
VERTEX
  8
LAYER_6
 10
88.8907
 20
-203.7994
  0
SEQEND
  0
POLYLINE
  8
LAYER_6
  6
AIGENLINE001
 40
0.0353
 41
0.0353
 66
1
 10
0
 20
0
 30
0
 70
128
  0
VERTEX
  8
LAYER_6
 10
86.4739
 20
-200.7994
  0
VERTEX
  8
LAYER_6
 10
93.6739
 20
-200.7994
  0
SEQEND
  0
POLYLINE
  8
LAYER_6
 40
0.0353
 41
0.0353
 66
1
 10
0
 20
0
 30
0
  0
VERTEX
  8
LAYER_6
 10
93.8539
 20
-201.6482
 42
-0.3986926006
  0
VERTEX
  8
LAYER_6
 10
94.0219
 20
-201.6482
  0
VERTEX
  8
LAYER_6
 10
94.1059
 20
-201.6818
  0
VERTEX
  8
LAYER_6
 10
94.1899
 20
-201.6482
  0
VERTEX
  8
LAYER_6
 10
94.2739
 20
-201.6146
  0
VERTEX
  8
LAYER_6
 10
94.3579
 20
-201.6482
  0
VERTEX
  8
LAYER_6
 10
94.4419
 20
-201.6818
  0
VERTEX
  8
LAYER_6
 10
94.5259
 20
-201.6482
  0
VERTEX
  8
LAYER_6
 10
94.6099
 20
-201.6146
  0
VERTEX
  8
LAYER_6
 10
94.6939
 20
-201.6482
  0
SEQEND
  0
POLYLINE
  8
LAYER_6
 40
0.0353
 41
0.0353
 66
1
 10
0
 20
0
 30
0
  0
VERTEX
  8
LAYER_6
 10
93.8539
 20
-202.4849
 42
-0.3988682894
  0
VERTEX
  8
LAYER_6
 10
94.0219
 20
-202.4849
  0
VERTEX
  8
LAYER_6
 10
94.1059
 20
-202.5185
  0
VERTEX
  8
LAYER_6
 10
94.1899
 20
-202.4849
  0
VERTEX
  8
LAYER_6
 10
94.2739
 20
-202.4513
  0
VERTEX
  8
LAYER_6
 10
94.3579
 20
-202.4849
  0
VERTEX
  8
LAYER_6
 10
94.4419
 20
-202.5185
  0
VERTEX
  8
LAYER_6
 10
94.5259
 20
-202.4849
  0
VERTEX
  8
LAYER_6
 10
94.6099
 20
-202.4513
  0
VERTEX
  8
LAYER_6
 10
94.6939
 20
-202.4849
  0
SEQEND
  0
POLYLINE
  8
LAYER_6
 40
0.0353
 41
0.0353
 66
1
 10
0
 20
0
 30
0
  0
VERTEX
  8
LAYER_6
 10
111.1746
 20
-208.3681
  0
VERTEX
  8
LAYER_6
 10
110.5746
 20
-208.3681
  0
VERTEX
  8
LAYER_6
 10
110.5746
 20
-209.7681
  0
VERTEX
  8
LAYER_6
 10
111.1746
 20
-209.7681
  0
VERTEX
  8
LAYER_6
 10
111.1746
 20
-208.3681
  0
VERTEX
  8
LAYER_6
 10
111.1746
 20
-207.7681
  0
VERTEX
  8
LAYER_6
 10
111.1746
 20
-206.3681
  0
VERTEX
  8
LAYER_6
 10
110.5746
 20
-206.3681
  0
VERTEX
  8
LAYER_6
 10
110.5746
 20
-207.7681
  0
VERTEX
  8
LAYER_6
 10
111.1746
 20
-207.7681
  0
SEQEND
  0
POLYLINE
  8
LAYER_6
 40
0.0353
 41
0.0353
 66
1
 10
0
 20
0
 30
0
  0
VERTEX
  8
LAYER_6
 10
105.1746
 20
-208.3681
  0
VERTEX
  8
LAYER_6
 10
105.4746
 20
-208.3681
  0
SEQEND
  0
POLYLINE
  8
LAYER_6
 40
0.0353
 41
0.0353
 66
1
 10
0
 20
0
 30
0
  0
VERTEX
  8
LAYER_6
 10
105.4746
 20
-209.5681
  0
VERTEX
  8
LAYER_6
 10
105.1746
 20
-209.5681
  0
VERTEX
  8
LAYER_6
 10
105.1746
 20
-208.3681
  0
VERTEX
  8
LAYER_6
 10
105.1746
 20
-207.7681
  0
SEQEND
  0
POLYLINE
  8
LAYER_6
 40
0.0353
 41
0.0353
 66
1
 10
0
 20
0
 30
0
  0
VERTEX
  8
LAYER_6
 10
105.4746
 20
-207.6236
  0
VERTEX
  8
LAYER_6
 10
105.48
 20
-207.7681
  0
SEQEND
  0
POLYLINE
  8
LAYER_6
 40
0.0353
 41
0.0353
 66
1
 10
0
 20
0
 30
0
  0
VERTEX
  8
LAYER_6
 10
105.48
 20
-208.3681
  0
VERTEX
  8
LAYER_6
 10
105.4746
 20
-208.5126
  0
SEQEND
  0
POLYLINE
  8
LAYER_6
 40
0.0353
 41
0.0353
 66
1
 10
0
 20
0
 30
0
  0
VERTEX
  8
LAYER_6
 10
105.4746
 20
-206.5681
  0
VERTEX
  8
LAYER_6
 10
105.8252
 20
-206.5681
 42
0.2439715824
  0
VERTEX
  8
LAYER_6
 10
106.3751
 20
-207.0629
  0
VERTEX
  8
LAYER_6
 10
106.5746
 20
-207.0881
  0
VERTEX
  8
LAYER_6
 10
107.7746
 20
-207.0881
 42
0.3101815554
  0
VERTEX
  8
LAYER_6
 10
108.524
 20
-206.5681
  0
VERTEX
  8
LAYER_6
 10
110.5746
 20
-206.5681
  0
SEQEND
  0
POLYLINE
  8
LAYER_6
 40
0.0353
 41
0.0353
 66
1
 10
0
 20
0
 30
0
 70
1
  0
VERTEX
  8
LAYER_6
 10
110.5746
 20
-208.3681
  0
VERTEX
  8
LAYER_6
 10
106.2833
 20
-208.3681
  0
VERTEX
  8
LAYER_6
 10
105.48
 20
-208.3681
  0
VERTEX
  8
LAYER_6
 10
105.48
 20
-207.7681
  0
VERTEX
  8
LAYER_6
 10
106.2833
 20
-207.7681
  0
VERTEX
  8
LAYER_6
 10
110.5746
 20
-207.7681
  0
SEQEND
  0
POLYLINE
  8
LAYER_6
 40
0.0353
 41
0.0353
 66
1
 10
0
 20
0
 30
0
  0
VERTEX
  8
LAYER_6
 10
105.4746
 20
-207.7681
  0
VERTEX
  8
LAYER_6
 10
105.1746
 20
-207.7681
  0
VERTEX
  8
LAYER_6
 10
105.1746
 20
-206.5681
  0
VERTEX
  8
LAYER_6
 10
105.4746
 20
-206.5681
  0
VERTEX
  8
LAYER_6
 10
105.4746
 20
-207.7681
  0
VERTEX
  8
LAYER_6
 10
105.4746
 20
-208.3681
  0
VERTEX
  8
LAYER_6
 10
105.4746
 20
-209.5681
  0
VERTEX
  8
LAYER_6
 10
105.8252
 20
-209.5681
 42
-0.2439488621
  0
VERTEX
  8
LAYER_6
 10
106.3751
 20
-209.0734
  0
VERTEX
  8
LAYER_6
 10
106.5746
 20
-209.0481
  0
VERTEX
  8
LAYER_6
 10
107.7746
 20
-209.0481
 42
-0.3101683294
  0
VERTEX
  8
LAYER_6
 10
108.524
 20
-209.5681
  0
VERTEX
  8
LAYER_6
 10
110.5746
 20
-209.5681
  0
SEQEND
  0
POLYLINE
  8
LAYER_6
 40
0.0353
 41
0.0353
 66
1
 10
0
 20
0
 30
0
  0
VERTEX
  8
LAYER_6
 10
111.1746
 20
-208.6981
  0
VERTEX
  8
LAYER_6
 10
114.1511
 20
-208.6981
 42
0.1727087537
  0
VERTEX
  8
LAYER_6
 10
114.3746
 20
-208.0681
 42
0.1727071237
  0
VERTEX
  8
LAYER_6
 10
114.1511
 20
-207.4381
  0
VERTEX
  8
LAYER_6
 10
111.1746
 20
-207.4381
  0
SEQEND
  0
CIRCLE
  8
LAYER_6
 10
113.3745
 20
-208.0681
 40
0.3
  0
POLYLINE
  8
LAYER_6
 40
0.0353
 41
0.0353
 66
1
 10
0
 20
0
 30
0
  0
VERTEX
  8
LAYER_6
 10
101.1746
 20
-208.0742
  0
VERTEX
  8
LAYER_6
 10
105.1746
 20
-208.1272
  0
SEQEND
  0
POLYLINE
  8
LAYER_6
 40
0.0353
 41
0.0353
 66
1
 10
0
 20
0
 30
0
  0
VERTEX
  8
LAYER_6
 10
105.1746
 20
-208.009
  0
VERTEX
  8
LAYER_6
 10
101.1746
 20
-208.062
  0
SEQEND
  0
POLYLINE
  8
LAYER_6
 40
0.0353
 41
0.0353
 66
1
 10
0
 20
0
 30
0
  0
VERTEX
  8
LAYER_6
 10
105.1746
 20
-207.1182
  0
VERTEX
  8
LAYER_6
 10
101.1746
 20
-207.4681
  0
VERTEX
  8
LAYER_6
 10
101.1746
 20
-208.062
  0
VERTEX
  8
LAYER_6
 10
101.1746
 20
-208.0742
  0
VERTEX
  8
LAYER_6
 10
101.1746
 20
-208.6681
  0
VERTEX
  8
LAYER_6
 10
105.1746
 20
-209.0181
  0
SEQEND
  0
POLYLINE
  8
LAYER_6
 40
0.0353
 41
0.0353
 66
1
 10
0
 20
0
 30
0
  0
VERTEX
  8
LAYER_6
 10
94.6939
 20
-202.4849
  0
VERTEX
  8
LAYER_6
 10
94.6939
 20
-206.6481
 42
0.414201557
  0
VERTEX
  8
LAYER_6
 10
95.6939
 20
-207.6481
  0
VERTEX
  8
LAYER_6
 10
101.1746
 20
-207.6481
  0
SEQEND
  0
POLYLINE
  8
LAYER_6
 40
0.0353
 41
0.0353
 66
1
 10
0
 20
0
 30
0
  0
VERTEX
  8
LAYER_6
 10
101.1746
 20
-208.4881
  0
VERTEX
  8
LAYER_6
 10
95.6939
 20
-208.4881
 42
-0.4142043775
  0
VERTEX
  8
LAYER_6
 10
93.8539
 20
-206.6481
  0
VERTEX
  8
LAYER_6
 10
93.8539
 20
-202.4849
  0
SEQEND
  0
POLYLINE
  8
LAYER_6
 40
0.0353
 41
0.0353
 66
1
 10
0
 20
0
 30
0
  0
VERTEX
  8
LAYER_6
 10
89.1002
 20
-172.1613
 42
0.07544253674
  0
VERTEX
  8
LAYER_6
 10
88.5739
 20
-175.6761
  0
VERTEX
  8
LAYER_6
 10
88.574
 20
-177.6492
  0
VERTEX
  8
LAYER_6
 10
88.5494
 20
-177.6246
  0
SEQEND
  0
POLYLINE
  8
LAYER_6
 40
0.0353
 41
0.0353
 66
1
 10
0
 20
0
 30
0
  0
VERTEX
  8
LAYER_6
 10
89.1002
 20
-155.4619
 42
-0.3988249029
  0
VERTEX
  8
LAYER_6
 10
89.4602
 20
-155.4619
 42
0.190485421
  0
VERTEX
  8
LAYER_6
 10
89.6402
 20
-155.5339
 42
0.1905235853
  0
VERTEX
  8
LAYER_6
 10
89.8202
 20
-155.4619
 42
-0.190485421
  0
VERTEX
  8
LAYER_6
 10
90.0002
 20
-155.3899
 42
-0.1905235853
  0
VERTEX
  8
LAYER_6
 10
90.1802
 20
-155.4619
 42
0.190485421
  0
VERTEX
  8
LAYER_6
 10
90.3602
 20
-155.5339
 42
0.1905235853
  0
VERTEX
  8
LAYER_6
 10
90.5402
 20
-155.4619
 42
-0.190485421
  0
VERTEX
  8
LAYER_6
 10
90.7202
 20
-155.3899
 42
-0.1905235853
  0
VERTEX
  8
LAYER_6
 10
90.9002
 20
-155.4619
  0
SEQEND
  0
POLYLINE
  8
LAYER_6
 40
0.0353
 41
0.0353
 66
1
 10
0
 20
0
 30
0
  0
VERTEX
  8
LAYER_6
 10
89.1002
 20
-156.4619
 42
-0.3988249029
  0
VERTEX
  8
LAYER_6
 10
89.4602
 20
-156.4619
 42
0.190485421
  0
VERTEX
  8
LAYER_6
 10
89.6402
 20
-156.5339
 42
0.1905235853
  0
VERTEX
  8
LAYER_6
 10
89.8202
 20
-156.4619
 42
-0.190485421
  0
VERTEX
  8
LAYER_6
 10
90.0002
 20
-156.3899
 42
-0.1905235853
  0
VERTEX
  8
LAYER_6
 10
90.1802
 20
-156.4619
 42
0.190485421
  0
VERTEX
  8
LAYER_6
 10
90.3602
 20
-156.5339
 42
0.1905235853
  0
VERTEX
  8
LAYER_6
 10
90.5402
 20
-156.4619
 42
-0.190485421
  0
VERTEX
  8
LAYER_6
 10
90.7202
 20
-156.3899
 42
-0.1905235853
  0
VERTEX
  8
LAYER_6
 10
90.9002
 20
-156.4619
  0
SEQEND
  0
POLYLINE
  8
LAYER_6
 40
0.0353
 41
0.0353
 66
1
 10
0
 20
0
 30
0
  0
VERTEX
  8
LAYER_6
 10
176.8748
 20
-177.6727
  0
VERTEX
  8
LAYER_6
 10
176.827
 20
-177.6996
  0
VERTEX
  8
LAYER_6
 10
176.8359
 20
-177.7075
  0
SEQEND
  0
POLYLINE
  8
LAYER_6
 40
0.0353
 41
0.0353
 66
1
 10
0
 20
0
 30
0
  0
VERTEX
  8
LAYER_6
 10
176.4699
 20
-178.1638
  0
VERTEX
  8
LAYER_6
 10
176.5217
 20
-178.1634
  0
SEQEND
  0
POLYLINE
  8
LAYER_6
 40
0.0353
 41
0.0353
 66
1
 10
0
 20
0
 30
0
  0
VERTEX
  8
LAYER_6
 10
182.5685
 20
-179.59
  0
VERTEX
  8
LAYER_6
 10
182.5685
 20
-178.115
  0
VERTEX
  8
LAYER_6
 10
182.5685
 20
-178.015
  0
VERTEX
  8
LAYER_6
 10
182.5685
 20
-177.6149
  0
VERTEX
  8
LAYER_6
 10
181.9737
 20
-177.6201
  0
VERTEX
  8
LAYER_6
 10
179.1685
 20
-177.6446
  0
VERTEX
  8
LAYER_6
 10
177.6685
 20
-177.6577
  0
VERTEX
  8
LAYER_6
 10
176.9641
 20
-177.6639
 42
0.4113964711
  0
VERTEX
  8
LAYER_6
 10
176.4685
 20
-178.1638
  0
VERTEX
  8
LAYER_6
 10
176.4685
 20
-179.6432
  0
SEQEND
  0
POLYLINE
  8
LAYER_6
 40
0.0353
 41
0.0353
 66
1
 10
0
 20
0
 30
0
  0
VERTEX
  8
LAYER_6
 10
190.8278
 20
-179.5179
  0
VERTEX
  8
LAYER_6
 10
179.1685
 20
-179.6197
  0
VERTEX
  8
LAYER_6
 10
174.8641
 20
-179.6572
 42
0.4114179212
  0
VERTEX
  8
LAYER_6
 10
174.3685
 20
-180.1572
  0
VERTEX
  8
LAYER_6
 10
174.3685
 20
-197.1727
 42
0.411412422
  0
VERTEX
  8
LAYER_6
 10
174.8641
 20
-197.6727
  0
VERTEX
  8
LAYER_6
 10
176.2685
 20
-197.6849
  0
VERTEX
  8
LAYER_6
 10
176.7685
 20
-197.6893
  0
SEQEND
  0
POLYLINE
  8
LAYER_6
 40
0.0353
 41
0.0353
 66
1
 10
0
 20
0
 30
0
  0
VERTEX
  8
LAYER_6
 10
191.1685
 20
-179.915
  0
VERTEX
  8
LAYER_6
 10
191.1685
 20
-179.5149
  0
SEQEND
  0
POLYLINE
  8
LAYER_6
  6
AIGENLINE001
 40
0.0353
 41
0.0353
 66
1
 10
0
 20
0
 30
0
 70
128
  0
VERTEX
  8
LAYER_6
 10
174.5685
 20
-200.7949
  0
VERTEX
  8
LAYER_6
 10
185.3685
 20
-200.7949
  0
SEQEND
  0
POLYLINE
  8
LAYER_6
  6
AIGENLINE001
 40
0.0353
 41
0.0353
 66
1
 10
0
 20
0
 30
0
 70
128
  0
VERTEX
  8
LAYER_6
 10
182.8685
 20
-197.7949
  0
VERTEX
  8
LAYER_6
 10
182.8685
 20
-206.9949
  0
SEQEND
  0
POLYLINE
  8
LAYER_6
 40
0.0353
 41
0.0353
 66
1
 10
0
 20
0
 30
0
  0
VERTEX
  8
LAYER_6
 10
181.5685
 20
-197.9949
  0
VERTEX
  8
LAYER_6
 10
181.5685
 20
-197.7312
  0
SEQEND
  0
POLYLINE
  8
LAYER_6
 40
0.0353
 41
0.0353
 66
1
 10
0
 20
0
 30
0
  0
VERTEX
  8
LAYER_6
 10
176.3685
 20
-198.3949
  0
VERTEX
  8
LAYER_6
 10
175.2685
 20
-198.3949
  0
SEQEND
  0
POLYLINE
  8
LAYER_6
 40
0.0353
 41
0.0353
 66
1
 10
0
 20
0
 30
0
  0
VERTEX
  8
LAYER_6
 10
176.3707
 20
-198.3949
 42
0.4106142013
  0
VERTEX
  8
LAYER_6
 10
176.7684
 20
-197.9972
  0
SEQEND
  0
POLYLINE
  8
LAYER_6
 40
0.0353
 41
0.0353
 66
1
 10
0
 20
0
 30
0
  0
VERTEX
  8
LAYER_6
 10
181.5685
 20
-197.9972
 42
0.4106076804
  0
VERTEX
  8
LAYER_6
 10
181.9662
 20
-198.3949
  0
SEQEND
  0
POLYLINE
  8
LAYER_6
 40
0.0353
 41
0.0353
 66
1
 10
0
 20
0
 30
0
  0
VERTEX
  8
LAYER_6
 10
184.7685
 20
-203.4949
  0
VERTEX
  8
LAYER_6
 10
184.7685
 20
-200.7949
 42
0.4141967025
  0
VERTEX
  8
LAYER_6
 10
182.3685
 20
-198.3949
  0
VERTEX
  8
LAYER_6
 10
181.9685
 20
-198.3949
  0
SEQEND
  0
POLYLINE
  8
LAYER_6
 40
0.0353
 41
0.0353
 66
1
 10
0
 20
0
 30
0
  0
VERTEX
  8
LAYER_6
 10
180.9684
 20
-203.4958
 42
0.3404074567
  0
VERTEX
  8
LAYER_6
 10
180.5831
 20
-203.1957
  0
VERTEX
  8
LAYER_6
 10
180.5813
 20
-203.1957
  0
VERTEX
  8
LAYER_6
 10
175.2685
 20
-203.1949
  0
SEQEND
  0
POLYLINE
  8
LAYER_6
 40
0.0353
 41
0.0353
 66
1
 10
0
 20
0
 30
0
 70
1
  0
VERTEX
  8
LAYER_6
 10
175.1685
 20
-198.4949
  0
VERTEX
  8
LAYER_6
 10
175.1685
 20
-203.0949
  0
VERTEX
  8
LAYER_6
 10
175.2685
 20
-203.1949
  0
VERTEX
  8
LAYER_6
 10
175.2685
 20
-198.3949
  0
SEQEND
  0
POLYLINE
  8
LAYER_6
 40
0.0353
 41
0.0353
 66
1
 10
0
 20
0
 30
0
 70
1
  0
VERTEX
  8
LAYER_6
 10
181.0685
 20
-203.5949
  0
VERTEX
  8
LAYER_6
 10
182.8685
 20
-203.5949
  0
VERTEX
  8
LAYER_6
 10
184.6685
 20
-203.5949
  0
VERTEX
  8
LAYER_6
 10
184.7685
 20
-203.4949
  0
VERTEX
  8
LAYER_6
 10
181.0699
 20
-203.4949
  0
VERTEX
  8
LAYER_6
 10
180.9685
 20
-203.4949
  0
SEQEND
  0
POLYLINE
  8
LAYER_6
 40
0.0353
 41
0.0353
 66
1
 10
0
 20
0
 30
0
  0
VERTEX
  8
LAYER_6
 10
176.7685
 20
-198.3949
  0
VERTEX
  8
LAYER_6
 10
179.1685
 20
-200.7949
  0
VERTEX
  8
LAYER_6
 10
181.5685
 20
-198.3949
  0
SEQEND
  0
POLYLINE
  8
LAYER_6
 40
0.0353
 41
0.0353
 66
1
 10
0
 20
0
 30
0
  0
VERTEX
  8
LAYER_6
 10
184.7685
 20
-200.7949
  0
VERTEX
  8
LAYER_6
 10
184.7685
 20
-200.7953
 42
-0.1762627851
  0
VERTEX
  8
LAYER_6
 10
184.6225
 20
-201.1796
 42
-0.08850264505
  0
VERTEX
  8
LAYER_6
 10
184.2983
 20
-201.4818
 42
-0.05926913403
  0
VERTEX
  8
LAYER_6
 10
183.4046
 20
-201.9632
 42
-0.02334500522
  0
VERTEX
  8
LAYER_6
 10
182.3685
 20
-202.3441
 42
0.05003052674
  0
VERTEX
  8
LAYER_6
 10
181.9711
 20
-202.5118
 42
0.04091321632
  0
VERTEX
  8
LAYER_6
 10
180.9696
 20
-203.1941
  0
SEQEND
  0
POLYLINE
  8
LAYER_6
 40
0.0353
 41
0.0353
 66
1
 10
0
 20
0
 30
0
  0
VERTEX
  8
LAYER_6
 10
175.1685
 20
-202.8849
  0
VERTEX
  8
LAYER_6
 10
174.9139
 20
-202.8849
 42
-0.06738209991
  0
VERTEX
  8
LAYER_6
 10
174.6107
 20
-200.975
  0
VERTEX
  8
LAYER_6
 10
175.1685
 20
-200.9749
  0
SEQEND
  0
POLYLINE
  8
LAYER_6
 40
0.0353
 41
0.0353
 66
1
 10
0
 20
0
 30
0
  0
VERTEX
  8
LAYER_6
 10
175.1685
 20
-198.7049
  0
VERTEX
  8
LAYER_6
 10
174.9139
 20
-198.7049
 42
0.06738545102
  0
VERTEX
  8
LAYER_6
 10
174.6107
 20
-200.6149
  0
VERTEX
  8
LAYER_6
 10
175.1685
 20
-200.6149
  0
SEQEND
  0
POLYLINE
  8
LAYER_6
 40
0.1905
 41
0.1905
 66
1
 10
0
 20
0
 30
0
  0
VERTEX
  8
LAYER_6
 10
185.5434
 20
-205.0949
 42
0.1143913461
  0
VERTEX
  8
LAYER_6
 10
185.4026
 20
-204.4347
 42
0.2637488153
  0
VERTEX
  8
LAYER_6
 10
185.0335
 20
-204.138
 42
0.2341773862
  0
VERTEX
  8
LAYER_6
 10
184.7434
 20
-204.3079
 42
0.1631608705
  0
VERTEX
  8
LAYER_6
 10
184.5236
 20
-205.0949
  0
SEQEND
  0
POLYLINE
  8
LAYER_6
 40
0.2399
 41
0.2399
 66
1
 10
0
 20
0
 30
0
  0
VERTEX
  8
LAYER_6
 10
182.8685
 20
-206.0519
 42
0.2667372517
  0
VERTEX
  8
LAYER_6
 10
183.7823
 20
-205.5202
 42
0.1223249341
  0
VERTEX
  8
LAYER_6
 10
183.8883
 20
-205.0949
  0
SEQEND
  0
POLYLINE
  8
LAYER_6
 40
0.2469
 41
0.2469
 66
1
 10
0
 20
0
 30
0
  0
VERTEX
  8
LAYER_6
 10
184.5236
 20
-205.0949
  0
VERTEX
  8
LAYER_6
 10
184.5236
 20
-205.8722
 42
0.4142036887
  0
VERTEX
  8
LAYER_6
 10
184.7236
 20
-206.0722
  0
VERTEX
  8
LAYER_6
 10
185.3434
 20
-206.0722
 42
0.4142562507
  0
VERTEX
  8
LAYER_6
 10
185.5434
 20
-205.8722
  0
VERTEX
  8
LAYER_6
 10
185.5434
 20
-205.0949
  0
SEQEND
  0
POLYLINE
  8
LAYER_6
 40
0.0353
 41
0.0353
 66
1
 10
0
 20
0
 30
0
  0
VERTEX
  8
LAYER_6
 10
184.4685
 20
-203.5949
  0
VERTEX
  8
LAYER_6
 10
184.4685
 20
-203.7949
  0
SEQEND
  0
POLYLINE
  8
LAYER_6
 40
0.0353
 41
0.0353
 66
1
 10
0
 20
0
 30
0
  0
VERTEX
  8
LAYER_6
 10
181.2685
 20
-203.5949
  0
VERTEX
  8
LAYER_6
 10
181.2685
 20
-203.7949
  0
SEQEND
  0
POLYLINE
  8
LAYER_6
 40
0.0353
 41
0.0353
 66
1
 10
0
 20
0
 30
0
  0
VERTEX
  8
LAYER_6
 10
176.5198
 20
-179.6428
  0
VERTEX
  8
LAYER_6
 10
176.5198
 20
-178.1719
  0
VERTEX
  8
LAYER_6
 10
176.5197
 20
-178.161
 42
-0.300379278
  0
VERTEX
  8
LAYER_6
 10
176.8278
 20
-177.6993
  0
SEQEND
  0
POLYLINE
  8
LAYER_6
 40
0.2469
 41
0.2469
 66
1
 10
0
 20
0
 30
0
  0
VERTEX
  8
LAYER_6
 10
180.4993
 20
-203.7949
  0
VERTEX
  8
LAYER_6
 10
182.8685
 20
-203.7949
  0
VERTEX
  8
LAYER_6
 10
185.2376
 20
-203.7949
  0
SEQEND
  0
POLYLINE
  8
LAYER_6
 40
0.2469
 41
0.2469
 66
1
 10
0
 20
0
 30
0
  0
VERTEX
  8
LAYER_6
 10
180.5343
 20
-203.7949
 42
0.1327413475
  0
VERTEX
  8
LAYER_6
 10
180.186
 20
-205.0949
  0
VERTEX
  8
LAYER_6
 10
180.186
 20
-205.9949
 42
0.4142736062
  0
VERTEX
  8
LAYER_6
 10
180.586
 20
-206.3949
  0
VERTEX
  8
LAYER_6
 10
182.8685
 20
-206.3949
  0
VERTEX
  8
LAYER_6
 10
185.151
 20
-206.3949
 42
0.4142069485
  0
VERTEX
  8
LAYER_6
 10
185.551
 20
-205.9949
  0
VERTEX
  8
LAYER_6
 10
185.551
 20
-205.0949
 42
0.1327417733
  0
VERTEX
  8
LAYER_6
 10
185.2026
 20
-203.7949
  0
SEQEND
  0
POLYLINE
  8
LAYER_6
 40
0.1905
 41
0.1905
 66
1
 10
0
 20
0
 30
0
  0
VERTEX
  8
LAYER_6
 10
181.2133
 20
-205.0949
 42
0.1143913461
  0
VERTEX
  8
LAYER_6
 10
181.0725
 20
-204.4347
 42
0.2637488153
  0
VERTEX
  8
LAYER_6
 10
180.7034
 20
-204.138
 42
0.2341773862
  0
VERTEX
  8
LAYER_6
 10
180.4133
 20
-204.3079
 42
0.1631608705
  0
VERTEX
  8
LAYER_6
 10
180.1935
 20
-205.0949
  0
SEQEND
  0
POLYLINE
  8
LAYER_6
 40
0.2399
 41
0.2399
 66
1
 10
0
 20
0
 30
0
  0
VERTEX
  8
LAYER_6
 10
182.8685
 20
-204.138
 42
0.2667356037
  0
VERTEX
  8
LAYER_6
 10
181.9547
 20
-204.6697
 42
0.1223219868
  0
VERTEX
  8
LAYER_6
 10
181.8487
 20
-205.0949
  0
SEQEND
  0
POLYLINE
  8
LAYER_6
 40
0.2469
 41
0.2469
 66
1
 10
0
 20
0
 30
0
  0
VERTEX
  8
LAYER_6
 10
181.2133
 20
-205.0949
  0
VERTEX
  8
LAYER_6
 10
181.2133
 20
-205.8722
 42
-0.4142168518
  0
VERTEX
  8
LAYER_6
 10
181.0133
 20
-206.0722
  0
VERTEX
  8
LAYER_6
 10
180.3935
 20
-206.0722
 42
-0.4142430878
  0
VERTEX
  8
LAYER_6
 10
180.1935
 20
-205.8722
  0
VERTEX
  8
LAYER_6
 10
180.1935
 20
-205.0949
  0
SEQEND
  0
POLYLINE
  8
LAYER_6
 40
0.2469
 41
0.2469
 66
1
 10
0
 20
0
 30
0
  0
VERTEX
  8
LAYER_6
 10
181.8487
 20
-205.0949
  0
VERTEX
  8
LAYER_6
 10
181.8487
 20
-205.8722
 42
0.4142994781
  0
VERTEX
  8
LAYER_6
 10
182.0487
 20
-206.0722
  0
VERTEX
  8
LAYER_6
 10
182.8685
 20
-206.0722
  0
VERTEX
  8
LAYER_6
 10
183.6883
 20
-206.0722
 42
0.4141661761
  0
VERTEX
  8
LAYER_6
 10
183.8883
 20
-205.8722
  0
VERTEX
  8
LAYER_6
 10
183.8883
 20
-205.0949
  0
SEQEND
  0
POLYLINE
  8
LAYER_6
 40
0.0353
 41
0.0353
 66
1
 10
0
 20
0
 30
0
  0
VERTEX
  8
LAYER_6
 10
178.2685
 20
-155.4574
 42
-0.3988248941
  0
VERTEX
  8
LAYER_6
 10
178.6285
 20
-155.4574
 42
0.1906399784
  0
VERTEX
  8
LAYER_6
 10
178.8085
 20
-155.5294
 42
0.1905235853
  0
VERTEX
  8
LAYER_6
 10
178.9885
 20
-155.4574
 42
-0.1906399784
  0
VERTEX
  8
LAYER_6
 10
179.1685
 20
-155.3854
 42
-0.1905235853
  0
VERTEX
  8
LAYER_6
 10
179.3485
 20
-155.4574
 42
0.1906399784
  0
VERTEX
  8
LAYER_6
 10
179.5285
 20
-155.5294
 42
0.1905235853
  0
VERTEX
  8
LAYER_6
 10
179.7085
 20
-155.4574
 42
-0.1906399784
  0
VERTEX
  8
LAYER_6
 10
179.8885
 20
-155.3854
 42
-0.1905235853
  0
VERTEX
  8
LAYER_6
 10
180.0685
 20
-155.4574
  0
SEQEND
  0
POLYLINE
  8
LAYER_6
 40
0.0353
 41
0.0353
 66
1
 10
0
 20
0
 30
0
  0
VERTEX
  8
LAYER_6
 10
178.2685
 20
-156.4574
 42
-0.3988248941
  0
VERTEX
  8
LAYER_6
 10
178.6285
 20
-156.4574
 42
0.1906399784
  0
VERTEX
  8
LAYER_6
 10
178.8085
 20
-156.5294
 42
0.1905235853
  0
VERTEX
  8
LAYER_6
 10
178.9885
 20
-156.4574
 42
-0.1906399784
  0
VERTEX
  8
LAYER_6
 10
179.1685
 20
-156.3854
 42
-0.1905235853
  0
VERTEX
  8
LAYER_6
 10
179.3485
 20
-156.4574
 42
0.1906399784
  0
VERTEX
  8
LAYER_6
 10
179.5285
 20
-156.5294
 42
0.1905235853
  0
VERTEX
  8
LAYER_6
 10
179.7085
 20
-156.4574
 42
-0.1906399784
  0
VERTEX
  8
LAYER_6
 10
179.8885
 20
-156.3854
 42
-0.1905235853
  0
VERTEX
  8
LAYER_6
 10
180.0685
 20
-156.4574
  0
SEQEND
  0
POLYLINE
  8
LAYER_6
  6
AIGENLINE001
 40
0.0353
 41
0.0353
 66
1
 10
0
 20
0
 30
0
 70
128
  0
VERTEX
  8
LAYER_6
 10
179.1685
 20
-135.1924
  0
VERTEX
  8
LAYER_6
 10
179.1685
 20
-206.1949
  0
SEQEND
  0
POLYLINE
  8
LAYER_6
 40
0.0353
 41
0.0353
 66
1
 10
0
 20
0
 30
0
  0
VERTEX
  8
LAYER_6
 10
187.1685
 20
-156.5739
  0
VERTEX
  8
LAYER_6
 10
187.1685
 20
-179.5499
  0
SEQEND
  0
POLYLINE
  8
LAYER_6
 40
0.0353
 41
0.0353
 66
1
 10
0
 20
0
 30
0
  0
VERTEX
  8
LAYER_6
 10
188.1685
 20
-179.5411
  0
VERTEX
  8
LAYER_6
 10
188.1685
 20
-156.5739
  0
SEQEND
  0
POLYLINE
  8
LAYER_6
 40
0.0353
 41
0.0353
 66
1
 10
0
 20
0
 30
0
  0
VERTEX
  8
LAYER_6
 10
190.7719
 20
-179.5184
  0
VERTEX
  8
LAYER_6
 10
191.1685
 20
-179.5149
  0
VERTEX
  8
LAYER_6
 10
191.1685
 20
-179.915
  0
VERTEX
  8
LAYER_6
 10
191.1685
 20
-180.015
  0
VERTEX
  8
LAYER_6
 10
191.1685
 20
-197.3149
  0
VERTEX
  8
LAYER_6
 10
191.1685
 20
-197.4149
  0
VERTEX
  8
LAYER_6
 10
191.1685
 20
-197.8149
  0
VERTEX
  8
LAYER_6
 10
190.5737
 20
-197.8098
  0
VERTEX
  8
LAYER_6
 10
176.7685
 20
-197.6893
  0
VERTEX
  8
LAYER_6
 10
176.7685
 20
-197.9949
  0
SEQEND
  0
POLYLINE
  8
LAYER_6
 40
0.0353
 41
0.0353
 66
1
 10
0
 20
0
 30
0
  0
VERTEX
  8
LAYER_6
 10
187.1685
 20
-156.5739
 42
-0.3988519723
  0
VERTEX
  8
LAYER_6
 10
187.3685
 20
-156.5739
 42
0.1902810354
  0
VERTEX
  8
LAYER_6
 10
187.4685
 20
-156.6139
 42
0.190126102
  0
VERTEX
  8
LAYER_6
 10
187.5685
 20
-156.5739
 42
-0.1902810354
  0
VERTEX
  8
LAYER_6
 10
187.6685
 20
-156.5339
 42
-0.190126102
  0
VERTEX
  8
LAYER_6
 10
187.7685
 20
-156.5739
 42
0.1902810354
  0
VERTEX
  8
LAYER_6
 10
187.8685
 20
-156.6139
 42
0.190126102
  0
VERTEX
  8
LAYER_6
 10
187.9685
 20
-156.5739
 42
-0.1902810354
  0
VERTEX
  8
LAYER_6
 10
188.0685
 20
-156.5339
 42
-0.190126102
  0
VERTEX
  8
LAYER_6
 10
188.1685
 20
-156.5739
  0
SEQEND
  0
POLYLINE
  8
LAYER_6
 40
0.0353
 41
0.0353
 66
1
 10
0
 20
0
 30
0
  0
VERTEX
  8
LAYER_6
 10
187.1685
 20
-155.9229
 42
-0.3988141786
  0
VERTEX
  8
LAYER_6
 10
187.3685
 20
-155.9229
 42
0.1902810354
  0
VERTEX
  8
LAYER_6
 10
187.4685
 20
-155.9629
 42
0.190126102
  0
VERTEX
  8
LAYER_6
 10
187.5685
 20
-155.9229
 42
-0.1902810354
  0
VERTEX
  8
LAYER_6
 10
187.6685
 20
-155.8829
 42
-0.190126102
  0
VERTEX
  8
LAYER_6
 10
187.7685
 20
-155.9229
 42
0.1902810354
  0
VERTEX
  8
LAYER_6
 10
187.8685
 20
-155.9629
 42
0.190126102
  0
VERTEX
  8
LAYER_6
 10
187.9685
 20
-155.9229
 42
-0.1902810354
  0
VERTEX
  8
LAYER_6
 10
188.0685
 20
-155.8829
 42
-0.190126102
  0
VERTEX
  8
LAYER_6
 10
188.1685
 20
-155.9229
  0
SEQEND
  0
POLYLINE
  8
LAYER_6
 40
0.0353
 41
0.0353
 66
1
 10
0
 20
0
 30
0
  0
VERTEX
  8
LAYER_6
 10
197.2007
 20
-157.6186
  0
VERTEX
  8
LAYER_6
 10
197.2007
 20
-155.6786
 42
0.3927995515
  0
VERTEX
  8
LAYER_6
 10
197.1407
 20
-155.6186
 42
0.3931565731
  0
VERTEX
  8
LAYER_6
 10
197.0807
 20
-155.6786
  0
VERTEX
  8
LAYER_6
 10
197.0807
 20
-157.6186
  0
SEQEND
  0
POLYLINE
  8
LAYER_6
 40
0.0353
 41
0.0353
 66
1
 10
0
 20
0
 30
0
  0
VERTEX
  8
LAYER_6
 10
198.0807
 20
-157.6186
  0
VERTEX
  8
LAYER_6
 10
198.0807
 20
-155.6786
 42
0.3927995515
  0
VERTEX
  8
LAYER_6
 10
198.0207
 20
-155.6186
 42
0.3931565731
  0
VERTEX
  8
LAYER_6
 10
197.9607
 20
-155.6786
  0
VERTEX
  8
LAYER_6
 10
197.9607
 20
-157.6186
  0
SEQEND
  0
POLYLINE
  8
LAYER_6
 40
0.0353
 41
0.0353
 66
1
 10
0
 20
0
 30
0
  0
VERTEX
  8
LAYER_6
 10
197.2807
 20
-156.1186
  0
VERTEX
  8
LAYER_6
 10
197.8807
 20
-156.1186
  0
SEQEND
  0
POLYLINE
  8
LAYER_6
 40
0.0353
 41
0.0353
 66
1
 10
0
 20
0
 30
0
  0
VERTEX
  8
LAYER_6
 10
197.2807
 20
-155.9786
  0
VERTEX
  8
LAYER_6
 10
197.8807
 20
-155.9786
  0
SEQEND
  0
POLYLINE
  8
LAYER_6
 40
0.0353
 41
0.0353
 66
1
 10
0
 20
0
 30
0
 70
1
  0
VERTEX
  8
LAYER_6
 10
196.6107
 20
-157.6186
 42
-0.4144432297
  0
VERTEX
  8
LAYER_6
 10
196.5107
 20
-157.5186
  0
VERTEX
  8
LAYER_6
 10
196.5107
 20
-156.8586
 42
-0.4142221389
  0
VERTEX
  8
LAYER_6
 10
196.6107
 20
-156.7586
  0
VERTEX
  8
LAYER_6
 10
196.7107
 20
-156.7586
  0
VERTEX
  8
LAYER_6
 10
196.7107
 20
-154.4186
 42
-0.414222139
  0
VERTEX
  8
LAYER_6
 10
196.8107
 20
-154.3186
  0
VERTEX
  8
LAYER_6
 10
198.3507
 20
-154.3186
 42
-0.4139724983
  0
VERTEX
  8
LAYER_6
 10
198.4507
 20
-154.4186
  0
VERTEX
  8
LAYER_6
 10
198.4507
 20
-156.7586
  0
VERTEX
  8
LAYER_6
 10
198.5507
 20
-156.7586
 42
-0.4139724983
  0
VERTEX
  8
LAYER_6
 10
198.6507
 20
-156.8586
  0
VERTEX
  8
LAYER_6
 10
198.6507
 20
-157.5186
 42
-0.4141931725
  0
VERTEX
  8
LAYER_6
 10
198.5507
 20
-157.6186
  0
SEQEND
  0
POLYLINE
  8
LAYER_6
 40
0.0353
 41
0.0353
 66
1
 10
0
 20
0
 30
0
  0
VERTEX
  8
LAYER_6
 10
197.0815
 20
-163.5944
  0
VERTEX
  8
LAYER_6
 10
197.2807
 20
-157.6186
  0
VERTEX
  8
LAYER_6
 10
197.2807
 20
-155.7186
  0
VERTEX
  8
LAYER_6
 10
197.8807
 20
-155.7186
  0
VERTEX
  8
LAYER_6
 10
197.8807
 20
-157.6186
  0
VERTEX
  8
LAYER_6
 10
198.0798
 20
-163.5944
  0
SEQEND
  0
POLYLINE
  8
LAYER_6
 40
0.0353
 41
0.0353
 66
1
 10
0
 20
0
 30
0
  0
VERTEX
  8
LAYER_6
 10
198.0787
 20
-163.5611
  0
VERTEX
  8
LAYER_6
 10
198.0787
 20
-164.3774
  0
SEQEND
  0
POLYLINE
  8
LAYER_6
 40
0.0353
 41
0.0353
 66
1
 10
0
 20
0
 30
0
  0
VERTEX
  8
LAYER_6
 10
197.0815
 20
-163.274
  0
VERTEX
  8
LAYER_6
 10
197.0815
 20
-164.273
 42
-0.4141986524
  0
VERTEX
  8
LAYER_6
 10
196.0815
 20
-165.273
  0
VERTEX
  8
LAYER_6
 10
194.5613
 20
-165.273
 42
-0.4141978258
  0
VERTEX
  8
LAYER_6
 10
193.5613
 20
-164.273
  0
VERTEX
  8
LAYER_6
 10
193.5613
 20
-155.6728
 42
0.4142108126
  0
VERTEX
  8
LAYER_6
 10
191.5613
 20
-153.6728
  0
VERTEX
  8
LAYER_6
 10
189.1685
 20
-153.6728
 42
0.4142121514
  0
VERTEX
  8
LAYER_6
 10
187.1685
 20
-155.6728
  0
VERTEX
  8
LAYER_6
 10
187.1685
 20
-155.9229
  0
SEQEND
  0
POLYLINE
  8
LAYER_6
 40
0.0353
 41
0.0353
 66
1
 10
0
 20
0
 30
0
  0
VERTEX
  8
LAYER_6
 10
198.0815
 20
-164.273
 42
-0.4142032011
  0
VERTEX
  8
LAYER_6
 10
196.0815
 20
-166.273
  0
VERTEX
  8
LAYER_6
 10
194.5598
 20
-166.273
 42
-0.4143645187
  0
VERTEX
  8
LAYER_6
 10
192.5613
 20
-164.273
  0
VERTEX
  8
LAYER_6
 10
192.5613
 20
-155.6728
 42
0.4142138751
  0
VERTEX
  8
LAYER_6
 10
191.5613
 20
-154.6728
  0
VERTEX
  8
LAYER_6
 10
189.1685
 20
-154.6728
 42
0.4142165529
  0
VERTEX
  8
LAYER_6
 10
188.1685
 20
-155.6728
  0
VERTEX
  8
LAYER_6
 10
188.1685
 20
-155.9229
  0
SEQEND
  0
POLYLINE
  8
LAYER_6
 40
0.0353
 41
0.0353
 66
1
 10
0
 20
0
 30
0
  0
VERTEX
  8
LAYER_6
 10
198.0807
 20
-148.0115
  0
VERTEX
  8
LAYER_6
 10
198.0807
 20
-140.2524
 42
0.4142063954
  0
VERTEX
  8
LAYER_6
 10
196.0807
 20
-138.2524
  0
VERTEX
  8
LAYER_6
 10
187.6285
 20
-138.2524
  0
SEQEND
  0
POLYLINE
  8
LAYER_6
 40
0.0353
 41
0.0353
 66
1
 10
0
 20
0
 30
0
  0
VERTEX
  8
LAYER_6
 10
197.0807
 20
-148.0115
  0
VERTEX
  8
LAYER_6
 10
197.0807
 20
-140.2524
 42
0.4142050403
  0
VERTEX
  8
LAYER_6
 10
196.0807
 20
-139.2524
  0
VERTEX
  8
LAYER_6
 10
187.6285
 20
-139.2524
  0
SEQEND
  0
POLYLINE
  8
LAYER_6
 40
0.0353
 41
0.0353
 66
1
 10
0
 20
0
 30
0
  0
VERTEX
  8
LAYER_6
 10
92.6139
 20
-30.0569
  0
VERTEX
  8
LAYER_6
 10
92.6139
 20
-0.2952
 42
0.4142121165
  0
VERTEX
  8
LAYER_6
 10
90.0739
 20
2.2448
 42
0.4142039818
  0
VERTEX
  8
LAYER_6
 10
87.5339
 20
-0.2952
  0
VERTEX
  8
LAYER_6
 10
87.5339
 20
-30.0569
  0
SEQEND
  0
POLYLINE
  8
LAYER_6
  6
AIGENLINE001
 40
0.0353
 41
0.0353
 66
1
 10
0
 20
0
 30
0
 70
128
  0
VERTEX
  8
LAYER_6
 10
84.5339
 20
-0.2952
  0
VERTEX
  8
LAYER_6
 10
95.6139
 20
-0.2952
  0
SEQEND
  0
POLYLINE
  8
LAYER_6
  6
AIGENLINE001
 40
0.0353
 41
0.0353
 66
1
 10
0
 20
0
 30
0
 70
128
  0
VERTEX
  8
LAYER_6
 10
84.5339
 20
-29.8952
  0
VERTEX
  8
LAYER_6
 10
95.6139
 20
-29.8952
  0
SEQEND
  0
POLYLINE
  8
LAYER_6
  6
AIGENLINE001
 40
0.0353
 41
0.0353
 66
1
 10
0
 20
0
 30
0
 70
128
  0
VERTEX
  8
LAYER_6
 10
90.0739
 20
5.2448
  0
VERTEX
  8
LAYER_6
 10
90.0739
 20
-32.8952
  0
SEQEND
  0
POLYLINE
  8
LAYER_6
 40
0.0353
 41
0.0353
 66
1
 10
0
 20
0
 30
0
  0
VERTEX
  8
LAYER_6
 10
92.6139
 20
-3.2547
 42
0.2184085966
  0
VERTEX
  8
LAYER_6
 10
93.9739
 20
-0.2952
 42
0.4142105938
  0
VERTEX
  8
LAYER_6
 10
90.0739
 20
3.6048
 42
0.4142052958
  0
VERTEX
  8
LAYER_6
 10
86.1739
 20
-0.2952
 42
0.2184050125
  0
VERTEX
  8
LAYER_6
 10
87.5339
 20
-3.2547
  0
SEQEND
  0
POLYLINE
  8
LAYER_6
 40
0.0353
 41
0.0353
 66
1
 10
0
 20
0
 30
0
 70
1
  0
VERTEX
  8
LAYER_6
 10
179.7685
 20
-125.1524
  0
VERTEX
  8
LAYER_6
 10
175.9285
 20
-125.1524
  0
VERTEX
  8
LAYER_6
 10
175.8685
 20
-125.0924
  0
VERTEX
  8
LAYER_6
 10
179.7685
 20
-125.0924
  0
VERTEX
  8
LAYER_6
 10
183.6685
 20
-125.0924
  0
VERTEX
  8
LAYER_6
 10
183.6085
 20
-125.1524
  0
SEQEND
  0
POLYLINE
  8
LAYER_6
 40
0.0353
 41
0.0353
 66
1
 10
0
 20
0
 30
0
  0
VERTEX
  8
LAYER_6
 10
178.5405
 20
-134.2524
  0
VERTEX
  8
LAYER_6
 10
178.5405
 20
-134.4524
  0
VERTEX
  8
LAYER_6
 10
179.7685
 20
-134.4524
  0
VERTEX
  8
LAYER_6
 10
181.4685
 20
-134.4524
  0
VERTEX
  8
LAYER_6
 10
181.4685
 20
-134.2524
  0
SEQEND
  0
POLYLINE
  8
LAYER_6
 40
0.0353
 41
0.0353
 66
1
 10
0
 20
0
 30
0
  0
VERTEX
  8
LAYER_6
 10
180.3685
 20
-134.4524
  0
VERTEX
  8
LAYER_6
 10
180.3685
 20
-135.1924
 42
-0.3927995515
  0
VERTEX
  8
LAYER_6
 10
180.3085
 20
-135.2524
  0
VERTEX
  8
LAYER_6
 10
179.2285
 20
-135.2524
 42
-0.3931565731
  0
VERTEX
  8
LAYER_6
 10
179.1685
 20
-135.1924
  0
VERTEX
  8
LAYER_6
 10
179.1685
 20
-134.4524
  0
SEQEND
  0
POLYLINE
  8
LAYER_6
 40
0.0353
 41
0.0353
 66
1
 10
0
 20
0
 30
0
  0
VERTEX
  8
LAYER_6
 10
153.0539
 20
-74.976
  0
VERTEX
  8
LAYER_6
 10
153.0539
 20
-76.802
  0
SEQEND
  0
POLYLINE
  8
LAYER_6
  6
AIGENLINE001
 40
0.0353
 41
0.0353
 66
1
 10
0
 20
0
 30
0
 70
128
  0
VERTEX
  8
LAYER_6
 10
152.8426
 20
-75.4292
  0
VERTEX
  8
LAYER_6
 10
153.2652
 20
-74.5229
  0
SEQEND
  0
POLYLINE
  8
LAYER_6
 40
0.0353
 41
0.0353
 66
1
 10
0
 20
0
 30
0
  0
VERTEX
  8
LAYER_6
 10
183.5685
 20
-123.1526
  0
VERTEX
  8
LAYER_6
 10
179.7685
 20
-123.1526
  0
VERTEX
  8
LAYER_6
 10
175.9685
 20
-123.1526
  0
SEQEND
  0
ENDSEC
  0
EOF
