  0
SECTION
  2
HEADER
  9
$ACADVER
  1
AC1009
  9
$LUNITS
 70
2
  9
$LUPREC
 70
4
  9
$LTSCALE
 40
1.0
  9
$EXTMIN
 10
33.7873
 20
-259.334
 30
0
  9
$EXTMAX
 10
497.1273
 20
22.6587
 30
0
  0
ENDSEC
  0
SECTION
  2
TABLES
  0
TABLE
  2
LTYPE
 70
256
  0
LTYPE
  2
AIGENLINE001
 70
64
  3
generate AI->DXF Converter
 72
65
 73
4
 40
2
 49
1.25
 49
-0.25
 49
0.25
 49
-0.25
  0
ENDTAB
  0
TABLE
  2
LAYER
 70
6
  0
LAYER
  2
LAYER_1
 70
64
 62
7
  6
CONTINUOUS
  0
LAYER
  2
LAYER_2
 70
64
 62
7
  6
CONTINUOUS
  0
LAYER
  2
LAYER_3
 70
64
 62
7
  6
CONTINUOUS
  0
LAYER
  2
LAYER_4
 70
64
 62
7
  6
CONTINUOUS
  0
LAYER
  2
LAYER_5
 70
64
 62
7
  6
CONTINUOUS
  0
LAYER
  2
LAYER_6
 70
64
 62
7
  6
CONTINUOUS
  0
ENDTAB
  0
TABLE
  2
STYLE
 70
6
  0
STYLE
  2
STANDARD
 70
0
 40
0
 50
0
 71
0
 41
0
 42
0
  3
TXT
  4
BIGFONT
  0
ENDTAB
  0
ENDSEC
  0
SECTION
  2
BLOCKS
  0
BLOCK
  8
LAYER_1
  2
AIGNBL01040005
 70
64
 10
0
 20
0
 30
0
  3
AIGNBL01040005
  0
POLYLINE
  8
LAYER_1
 40
0.05
 41
0.05
 66
1
 10
0
 20
0
 30
0
 70
1
  0
VERTEX
  8
LAYER_1
 10
138.3767
 20
-249.1011
  0
VERTEX
  8
LAYER_1
 10
137.891
 20
-250.2793
  0
VERTEX
  8
LAYER_1
 10
137.2664
 20
-250.2793
  0
VERTEX
  8
LAYER_1
 10
138.857
 20
-246.5355
  0
VERTEX
  8
LAYER_1
 10
139.586
 20
-246.5355
  0
VERTEX
  8
LAYER_1
 10
141.1828
 20
-250.2793
  0
VERTEX
  8
LAYER_1
 10
140.5365
 20
-250.2793
  0
VERTEX
  8
LAYER_1
 10
140.0369
 20
-249.1011
  0
SEQEND
  0
POLYLINE
  8
LAYER_1
 40
0.05
 41
0.05
 66
1
 10
0
 20
0
 30
0
 70
1
  0
VERTEX
  8
LAYER_1
 10
139.9115
 20
-248.7245
  0
VERTEX
  8
LAYER_1
 10
139.4533
 20
-247.6459
 42
-0.02267506524
  0
VERTEX
  8
LAYER_1
 10
139.2101
 20
-246.963
  0
VERTEX
  8
LAYER_1
 10
139.1967
 20
-246.963
 42
-0.02084266043
  0
VERTEX
  8
LAYER_1
 10
138.9603
 20
-247.6414
  0
VERTEX
  8
LAYER_1
 10
138.5021
 20
-248.7245
  0
SEQEND
  0
ENDBLK
  0
BLOCK
  8
LAYER_1
  2
AIGNBL01040006
 70
64
 10
0
 20
0
 30
0
  3
AIGNBL01040006
  0
POLYLINE
  8
LAYER_1
 40
0.05
 41
0.05
 66
1
 10
0
 20
0
 30
0
 70
1
  0
VERTEX
  8
LAYER_1
 10
145.5226
 20
-250.8295
 42
-0.01550180985
  0
VERTEX
  8
LAYER_1
 10
143.7311
 20
-250.3954
 42
0.09208348225
  0
VERTEX
  8
LAYER_1
 10
143.4465
 20
-250.3406
 42
-0.09252107557
  0
VERTEX
  8
LAYER_1
 10
142.4981
 20
-250.139
 42
-0.09792797557
  0
VERTEX
  8
LAYER_1
 10
141.8642
 20
-249.7067
 42
-0.1631033753
  0
VERTEX
  8
LAYER_1
 10
141.401
 20
-248.7192
 42
-0.03157985926
  0
VERTEX
  8
LAYER_1
 10
141.3839
 20
-248.4469
 42
-0.1088259969
  0
VERTEX
  8
LAYER_1
 10
141.5673
 20
-247.5875
 42
-0.1618048679
  0
VERTEX
  8
LAYER_1
 10
142.3628
 20
-246.7577
 42
-0.09175073832
  0
VERTEX
  8
LAYER_1
 10
143.1629
 20
-246.5018
 42
-0.03454354202
  0
VERTEX
  8
LAYER_1
 10
143.5644
 20
-246.4745
 42
-0.09527006366
  0
VERTEX
  8
LAYER_1
 10
144.5227
 20
-246.6511
 42
-0.1001818692
  0
VERTEX
  8
LAYER_1
 10
145.1563
 20
-247.0713
 42
-0.1611434138
  0
VERTEX
  8
LAYER_1
 10
145.6402
 20
-248.0664
 42
-0.03591204318
  0
VERTEX
  8
LAYER_1
 10
145.6617
 20
-248.3686
 42
-0.1066586367
  0
VERTEX
  8
LAYER_1
 10
145.4864
 20
-249.2186
 42
-0.2185717489
  0
VERTEX
  8
LAYER_1
 10
144.3825
 20
-250.147
 42
-0.006705231958
  0
VERTEX
  8
LAYER_1
 10
144.3281
 20
-250.1628
  0
VERTEX
  8
LAYER_1
 10
144.3281
 20
-250.1852
 42
0.01501268135
  0
VERTEX
  8
LAYER_1
 10
145.6965
 20
-250.424
  0
SEQEND
  0
POLYLINE
  8
LAYER_1
 40
0.05
 41
0.05
 66
1
 10
0
 20
0
 30
0
 70
1
  0
VERTEX
  8
LAYER_1
 10
145.0233
 20
-248.39
 42
0.1175404168
  0
VERTEX
  8
LAYER_1
 10
144.842
 20
-247.6261
 42
0.1170585149
  0
VERTEX
  8
LAYER_1
 10
144.419
 20
-247.1311
 42
0.1200111465
  0
VERTEX
  8
LAYER_1
 10
143.8094
 20
-246.8884
 42
0.0377207096
  0
VERTEX
  8
LAYER_1
 10
143.5433
 20
-246.8687
 42
0.1152954241
  0
VERTEX
  8
LAYER_1
 10
142.8054
 20
-247.0324
 42
0.1853004926
  0
VERTEX
  8
LAYER_1
 10
142.1509
 20
-247.7624
 42
0.09848637078
  0
VERTEX
  8
LAYER_1
 10
142.0296
 20
-248.4344
 42
0.120860713
  0
VERTEX
  8
LAYER_1
 10
142.2045
 20
-249.1849
 42
0.2836170694
  0
VERTEX
  8
LAYER_1
 10
143.5161
 20
-249.9468
 42
0.1188766714
  0
VERTEX
  8
LAYER_1
 10
144.2605
 20
-249.7757
 42
0.1796046283
  0
VERTEX
  8
LAYER_1
 10
144.8972
 20
-249.063
 42
0.09851098502
  0
SEQEND
  0
ENDBLK
  0
BLOCK
  8
LAYER_1
  2
AIGNBL01040007
 70
64
 10
0
 20
0
 30
0
  3
AIGNBL01040007
  0
POLYLINE
  8
LAYER_1
 40
0.05
 41
0.05
 66
1
 10
0
 20
0
 30
0
 70
1
  0
VERTEX
  8
LAYER_1
 10
146.9815
 20
-246.5355
  0
VERTEX
  8
LAYER_1
 10
146.9815
 20
-248.7517
 42
0.1257910062
  0
VERTEX
  8
LAYER_1
 10
147.1475
 20
-249.4752
 42
0.2217269733
  0
VERTEX
  8
LAYER_1
 10
147.7914
 20
-249.9203
 42
0.04937688774
  0
VERTEX
  8
LAYER_1
 10
148.0716
 20
-249.9468
 42
0.1302851362
  0
VERTEX
  8
LAYER_1
 10
148.7372
 20
-249.787
 42
0.1509632316
  0
VERTEX
  8
LAYER_1
 10
149.0862
 20
-249.3957
 42
0.1174446198
  0
VERTEX
  8
LAYER_1
 10
149.2105
 20
-248.7517
  0
VERTEX
  8
LAYER_1
 10
149.2105
 20
-246.5355
  0
VERTEX
  8
LAYER_1
 10
149.8217
 20
-246.5355
  0
VERTEX
  8
LAYER_1
 10
149.8217
 20
-248.7187
 42
-0.1106784388
  0
VERTEX
  8
LAYER_1
 10
149.6531
 20
-249.5323
 42
-0.1857051526
  0
VERTEX
  8
LAYER_1
 10
148.9481
 20
-250.1807
 42
-0.09650175554
  0
VERTEX
  8
LAYER_1
 10
148.1451
 20
-250.3392
 42
-0.007939811217
  0
VERTEX
  8
LAYER_1
 10
148.0509
 20
-250.3406
 42
-0.102315967
  0
VERTEX
  8
LAYER_1
 10
147.1661
 20
-250.1733
 42
-0.1218859814
  0
VERTEX
  8
LAYER_1
 10
146.6722
 20
-249.7872
 42
-0.1186228201
  0
VERTEX
  8
LAYER_1
 10
146.4122
 20
-249.188
 42
-0.0498693672
  0
VERTEX
  8
LAYER_1
 10
146.3707
 20
-248.7404
  0
VERTEX
  8
LAYER_1
 10
146.3707
 20
-246.5355
  0
SEQEND
  0
ENDBLK
  0
BLOCK
  8
LAYER_1
  2
AIGNBL01040008
 70
64
 10
0
 20
0
 30
0
  3
AIGNBL01040008
  0
POLYLINE
  8
LAYER_1
 40
0.05
 41
0.05
 66
1
 10
0
 20
0
 30
0
 70
1
  0
VERTEX
  8
LAYER_1
 10
151.5573
 20
-249.1011
  0
VERTEX
  8
LAYER_1
 10
151.0709
 20
-250.2793
  0
VERTEX
  8
LAYER_1
 10
150.447
 20
-250.2793
  0
VERTEX
  8
LAYER_1
 10
152.0365
 20
-246.5355
  0
VERTEX
  8
LAYER_1
 10
152.7655
 20
-246.5355
  0
VERTEX
  8
LAYER_1
 10
154.3623
 20
-250.2793
  0
VERTEX
  8
LAYER_1
 10
153.7167
 20
-250.2793
  0
VERTEX
  8
LAYER_1
 10
153.2175
 20
-249.1011
  0
SEQEND
  0
POLYLINE
  8
LAYER_1
 40
0.05
 41
0.05
 66
1
 10
0
 20
0
 30
0
 70
1
  0
VERTEX
  8
LAYER_1
 10
153.0921
 20
-248.7245
  0
VERTEX
  8
LAYER_1
 10
152.6332
 20
-247.6459
 42
-0.02235179902
  0
VERTEX
  8
LAYER_1
 10
152.3897
 20
-246.963
  0
VERTEX
  8
LAYER_1
 10
152.3759
 20
-246.963
 42
-0.02046417189
  0
VERTEX
  8
LAYER_1
 10
152.1402
 20
-247.6414
  0
VERTEX
  8
LAYER_1
 10
151.682
 20
-248.7245
  0
SEQEND
  0
ENDBLK
  0
BLOCK
  8
LAYER_1
  2
AIGNBL01040009
 70
64
 10
0
 20
0
 30
0
  3
AIGNBL01040009
  0
POLYLINE
  8
LAYER_1
 40
0.05
 41
0.05
 66
1
 10
0
 20
0
 30
0
 70
1
  0
VERTEX
  8
LAYER_1
 10
155.3969
 20
-246.58
 42
-0.03349666815
  0
VERTEX
  8
LAYER_1
 10
156.5576
 20
-246.5072
 42
-0.09004353297
  0
VERTEX
  8
LAYER_1
 10
157.6057
 20
-246.6749
 42
-0.05888505928
  0
VERTEX
  8
LAYER_1
 10
157.8691
 20
-246.8184
 42
-0.2472492651
  0
VERTEX
  8
LAYER_1
 10
158.279
 20
-247.6018
 42
-0.1502534052
  0
VERTEX
  8
LAYER_1
 10
158.1063
 20
-248.1984
 42
-0.07033867127
  0
VERTEX
  8
LAYER_1
 10
157.9177
 20
-248.4014
 42
-0.1211283655
  0
VERTEX
  8
LAYER_1
 10
157.2351
 20
-248.728
 42
-0.06222086556
  0
VERTEX
  8
LAYER_1
 10
156.4872
 20
-248.8127
 42
-0.05750856268
  0
VERTEX
  8
LAYER_1
 10
156.0015
 20
-248.7793
  0
VERTEX
  8
LAYER_1
 10
156.0015
 20
-250.2793
  0
VERTEX
  8
LAYER_1
 10
155.3969
 20
-250.2793
  0
SEQEND
  0
POLYLINE
  8
LAYER_1
 40
0.05
 41
0.05
 66
1
 10
0
 20
0
 30
0
 70
1
  0
VERTEX
  8
LAYER_1
 10
156.0015
 20
-248.3852
 42
0.04897120882
  0
VERTEX
  8
LAYER_1
 10
156.501
 20
-248.4245
 42
0.1137012619
  0
VERTEX
  8
LAYER_1
 10
157.2816
 20
-248.2659
 42
0.1652714782
  0
VERTEX
  8
LAYER_1
 10
157.6173
 20
-247.9196
 42
0.1043893073
  0
VERTEX
  8
LAYER_1
 10
157.6751
 20
-247.6242
 42
0.2865639904
  0
VERTEX
  8
LAYER_1
 10
157.3169
 20
-247.0395
 42
0.06445412413
  0
VERTEX
  8
LAYER_1
 10
157.0376
 20
-246.9388
 42
0.05784391407
  0
VERTEX
  8
LAYER_1
 10
156.5713
 20
-246.891
 42
0.05268039105
  0
VERTEX
  8
LAYER_1
 10
156.0015
 20
-246.93
  0
SEQEND
  0
ENDBLK
  0
BLOCK
  8
LAYER_1
  2
AIGNBL0104000A
 70
64
 10
0
 20
0
 30
0
  3
AIGNBL0104000A
  0
POLYLINE
  8
LAYER_1
 40
0.05
 41
0.05
 66
1
 10
0
 20
0
 30
0
 70
1
  0
VERTEX
  8
LAYER_1
 10
159.8218
 20
-246.8352
 42
-0.3039545568
  0
VERTEX
  8
LAYER_1
 10
159.6562
 20
-247.0887
 42
-0.1152466046
  0
VERTEX
  8
LAYER_1
 10
159.4325
 20
-247.1356
 42
-0.2445179838
  0
VERTEX
  8
LAYER_1
 10
159.1045
 20
-246.9759
 42
-0.1392448976
  0
VERTEX
  8
LAYER_1
 10
159.0645
 20
-246.8352
 42
-0.2871964131
  0
VERTEX
  8
LAYER_1
 10
159.2352
 20
-246.5772
 42
-0.118108641
  0
VERTEX
  8
LAYER_1
 10
159.4459
 20
-246.53
 42
-0.2414655549
  0
VERTEX
  8
LAYER_1
 10
159.7788
 20
-246.6849
 42
-0.1427828857
  0
SEQEND
  0
POLYLINE
  8
LAYER_1
 40
0.05
 41
0.05
 66
1
 10
0
 20
0
 30
0
 70
1
  0
VERTEX
  8
LAYER_1
 10
159.1407
 20
-250.2793
  0
VERTEX
  8
LAYER_1
 10
159.1407
 20
-247.5907
  0
VERTEX
  8
LAYER_1
 10
159.7515
 20
-247.5907
  0
VERTEX
  8
LAYER_1
 10
159.7515
 20
-250.2793
  0
SEQEND
  0
ENDBLK
  0
BLOCK
  8
LAYER_1
  2
AIGNBL0104000B
 70
64
 10
0
 20
0
 30
0
  3
AIGNBL0104000B
  0
POLYLINE
  8
LAYER_1
 40
0.05
 41
0.05
 66
1
 10
0
 20
0
 30
0
 70
1
  0
VERTEX
  8
LAYER_1
 10
161.6118
 20
-249.1011
  0
VERTEX
  8
LAYER_1
 10
161.1271
 20
-250.2793
  0
VERTEX
  8
LAYER_1
 10
160.5015
 20
-250.2793
  0
VERTEX
  8
LAYER_1
 10
162.0918
 20
-246.5355
  0
VERTEX
  8
LAYER_1
 10
162.8211
 20
-246.5355
  0
VERTEX
  8
LAYER_1
 10
164.4186
 20
-250.2793
  0
VERTEX
  8
LAYER_1
 10
163.7719
 20
-250.2793
  0
VERTEX
  8
LAYER_1
 10
163.2727
 20
-249.1011
  0
SEQEND
  0
POLYLINE
  8
LAYER_1
 40
0.05
 41
0.05
 66
1
 10
0
 20
0
 30
0
 70
1
  0
VERTEX
  8
LAYER_1
 10
163.1473
 20
-248.7245
  0
VERTEX
  8
LAYER_1
 10
162.6891
 20
-247.6459
 42
-0.02473673698
  0
VERTEX
  8
LAYER_1
 10
162.4466
 20
-246.963
  0
VERTEX
  8
LAYER_1
 10
162.4321
 20
-246.963
 42
-0.01905982629
  0
VERTEX
  8
LAYER_1
 10
162.1961
 20
-247.6414
  0
VERTEX
  8
LAYER_1
 10
161.7379
 20
-248.7245
  0
SEQEND
  0
ENDBLK
  0
BLOCK
  8
LAYER_1
  2
AIGNBL01030004
 70
64
 10
0
 20
0
 30
0
  3
AIGNBL01030004
  0
INSERT
  8
LAYER_1
  2
AIGNBL01040005
 10
0
 20
0
 30
0
  0
INSERT
  8
LAYER_1
  2
AIGNBL01040006
 10
0
 20
0
 30
0
  0
INSERT
  8
LAYER_1
  2
AIGNBL01040007
 10
0
 20
0
 30
0
  0
INSERT
  8
LAYER_1
  2
AIGNBL01040008
 10
0
 20
0
 30
0
  0
INSERT
  8
LAYER_1
  2
AIGNBL01040009
 10
0
 20
0
 30
0
  0
INSERT
  8
LAYER_1
  2
AIGNBL0104000A
 10
0
 20
0
 30
0
  0
INSERT
  8
LAYER_1
  2
AIGNBL0104000B
 10
0
 20
0
 30
0
  0
ENDBLK
  0
BLOCK
  8
LAYER_1
  2
AIGNBL0103000D
 70
64
 10
0
 20
0
 30
0
  3
AIGNBL0103000D
  0
POLYLINE
  8
LAYER_1
 40
0.05
 41
0.05
 66
1
 10
0
 20
0
 30
0
 70
1
  0
VERTEX
  8
LAYER_1
 10
137.3756
 20
-252.1676
  0
VERTEX
  8
LAYER_1
 10
137.9258
 20
-252.1676
  0
VERTEX
  8
LAYER_1
 10
137.9258
 20
-252.2609
  0
VERTEX
  8
LAYER_1
 10
137.2715
 20
-252.2609
  0
VERTEX
  8
LAYER_1
 10
137.2715
 20
-251.2339
  0
VERTEX
  8
LAYER_1
 10
137.9082
 20
-251.2339
  0
VERTEX
  8
LAYER_1
 10
137.9082
 20
-251.3266
  0
VERTEX
  8
LAYER_1
 10
137.3756
 20
-251.3266
  0
VERTEX
  8
LAYER_1
 10
137.3756
 20
-251.6787
  0
VERTEX
  8
LAYER_1
 10
137.8734
 20
-251.6787
  0
VERTEX
  8
LAYER_1
 10
137.8734
 20
-251.7717
  0
VERTEX
  8
LAYER_1
 10
137.3756
 20
-251.7717
  0
SEQEND
  0
ENDBLK
  0
BLOCK
  8
LAYER_1
  2
AIGNBL0103000E
 70
64
 10
0
 20
0
 30
0
  3
AIGNBL0103000E
  0
POLYLINE
  8
LAYER_1
 40
0.05
 41
0.05
 66
1
 10
0
 20
0
 30
0
 70
1
  0
VERTEX
  8
LAYER_1
 10
139.0589
 20
-252.1079
  0
VERTEX
  8
LAYER_1
 10
139.0613
 20
-252.1079
  0
VERTEX
  8
LAYER_1
 10
139.0613
 20
-251.2339
  0
VERTEX
  8
LAYER_1
 10
139.1663
 20
-251.2339
  0
VERTEX
  8
LAYER_1
 10
139.1663
 20
-252.2609
  0
VERTEX
  8
LAYER_1
 10
139.0365
 20
-252.2609
  0
VERTEX
  8
LAYER_1
 10
138.4384
 20
-251.3772
  0
VERTEX
  8
LAYER_1
 10
138.435
 20
-251.3772
  0
VERTEX
  8
LAYER_1
 10
138.435
 20
-252.2609
  0
VERTEX
  8
LAYER_1
 10
138.3306
 20
-252.2609
  0
VERTEX
  8
LAYER_1
 10
138.3306
 20
-251.2339
  0
VERTEX
  8
LAYER_1
 10
138.4611
 20
-251.2339
  0
SEQEND
  0
ENDBLK
  0
BLOCK
  8
LAYER_1
  2
AIGNBL0103000F
 70
64
 10
0
 20
0
 30
0
  3
AIGNBL0103000F
  0
POLYLINE
  8
LAYER_1
 40
0.05
 41
0.05
 66
1
 10
0
 20
0
 30
0
 70
1
  0
VERTEX
  8
LAYER_1
 10
139.637
 20
-252.0501
 42
0.1590284934
  0
VERTEX
  8
LAYER_1
 10
139.691
 20
-252.1527
 42
0.1903970375
  0
VERTEX
  8
LAYER_1
 10
139.8034
 20
-252.1937
  0
VERTEX
  8
LAYER_1
 10
139.8922
 20
-252.1744
  0
VERTEX
  8
LAYER_1
 10
139.948
 20
-252.1214
  0
VERTEX
  8
LAYER_1
 10
139.9763
 20
-252.0453
  0
VERTEX
  8
LAYER_1
 10
139.9853
 20
-251.956
  0
VERTEX
  8
LAYER_1
 10
139.9853
 20
-251.2339
  0
VERTEX
  8
LAYER_1
 10
140.0893
 20
-251.2339
  0
VERTEX
  8
LAYER_1
 10
140.0893
 20
-251.965
  0
VERTEX
  8
LAYER_1
 10
140.0783
 20
-252.0718
 42
-0.08830433873
  0
VERTEX
  8
LAYER_1
 10
140.0369
 20
-252.1765
 42
-0.1153589887
  0
VERTEX
  8
LAYER_1
 10
139.9529
 20
-252.2554
 42
-0.1266166698
  0
VERTEX
  8
LAYER_1
 10
139.8147
 20
-252.2868
 42
-0.1823786802
  0
VERTEX
  8
LAYER_1
 10
139.6311
 20
-252.2268
 42
-0.1773090787
  0
VERTEX
  8
LAYER_1
 10
139.5391
 20
-252.0769
  0
SEQEND
  0
ENDBLK
  0
BLOCK
  8
LAYER_1
  2
AIGNBL01030010
 70
64
 10
0
 20
0
 30
0
  3
AIGNBL01030010
  0
POLYLINE
  8
LAYER_1
 40
0.05
 41
0.05
 66
1
 10
0
 20
0
 30
0
 70
1
  0
VERTEX
  8
LAYER_1
 10
141.5693
 20
-251.7469
 42
-0.1023745756
  0
VERTEX
  8
LAYER_1
 10
141.5279
 20
-251.9629
 42
-0.1012381663
  0
VERTEX
  8
LAYER_1
 10
141.4163
 20
-252.1338
 42
-0.09607034471
  0
VERTEX
  8
LAYER_1
 10
141.2458
 20
-252.2461
 42
-0.09758991962
  0
VERTEX
  8
LAYER_1
 10
141.0332
 20
-252.2868
 42
-0.09910038025
  0
VERTEX
  8
LAYER_1
 10
140.8207
 20
-252.2461
 42
-0.09835332354
  0
VERTEX
  8
LAYER_1
 10
140.6512
 20
-252.1338
 42
-0.09652080474
  0
VERTEX
  8
LAYER_1
 10
140.5389
 20
-251.9629
 42
-0.09814472372
  0
VERTEX
  8
LAYER_1
 10
140.4986
 20
-251.7469
 42
-0.1026891031
  0
VERTEX
  8
LAYER_1
 10
140.5389
 20
-251.5306
 42
-0.09919197624
  0
VERTEX
  8
LAYER_1
 10
140.6512
 20
-251.3604
 42
-0.09851015914
  0
VERTEX
  8
LAYER_1
 10
140.8207
 20
-251.2481
 42
-0.0978389277
  0
VERTEX
  8
LAYER_1
 10
141.0332
 20
-251.2071
 42
-0.1012755921
  0
VERTEX
  8
LAYER_1
 10
141.2458
 20
-251.2481
 42
-0.101055447
  0
VERTEX
  8
LAYER_1
 10
141.4163
 20
-251.3604
 42
-0.100284748
  0
VERTEX
  8
LAYER_1
 10
141.5279
 20
-251.5306
 42
-0.09841189494
  0
SEQEND
  0
POLYLINE
  8
LAYER_1
 40
0.05
 41
0.05
 66
1
 10
0
 20
0
 30
0
 70
1
  0
VERTEX
  8
LAYER_1
 10
141.4584
 20
-251.7476
 42
0.08348185165
  0
VERTEX
  8
LAYER_1
 10
141.4301
 20
-251.5767
 42
0.09888736064
  0
VERTEX
  8
LAYER_1
 10
141.3454
 20
-251.4344
 42
0.1046117232
  0
VERTEX
  8
LAYER_1
 10
141.211
 20
-251.337
 42
0.1084373712
  0
VERTEX
  8
LAYER_1
 10
141.0332
 20
-251.3001
 42
0.1126508353
  0
VERTEX
  8
LAYER_1
 10
140.8558
 20
-251.337
 42
0.1080671084
  0
VERTEX
  8
LAYER_1
 10
140.7225
 20
-251.4344
 42
0.09765540905
  0
VERTEX
  8
LAYER_1
 10
140.6374
 20
-251.5767
 42
0.08446298011
  0
VERTEX
  8
LAYER_1
 10
140.6081
 20
-251.7476
 42
0.08257781466
  0
VERTEX
  8
LAYER_1
 10
140.6374
 20
-251.9188
 42
0.1022479965
  0
VERTEX
  8
LAYER_1
 10
140.7225
 20
-252.0607
 42
0.1007994813
  0
VERTEX
  8
LAYER_1
 10
140.8558
 20
-252.1575
 42
0.1058339915
  0
VERTEX
  8
LAYER_1
 10
141.0332
 20
-252.1937
 42
0.1146720599
  0
VERTEX
  8
LAYER_1
 10
141.211
 20
-252.1575
 42
0.1074750371
  0
VERTEX
  8
LAYER_1
 10
141.3454
 20
-252.0607
 42
0.0957445035
  0
VERTEX
  8
LAYER_1
 10
141.4301
 20
-251.9188
 42
0.08253202369
  0
SEQEND
  0
ENDBLK
  0
BLOCK
  8
LAYER_1
  2
AIGNBL01030011
 70
64
 10
0
 20
0
 30
0
  3
AIGNBL01030011
  0
POLYLINE
  8
LAYER_1
 40
0.05
 41
0.05
 66
1
 10
0
 20
0
 30
0
 70
1
  0
VERTEX
  8
LAYER_1
 10
142.3393
 20
-252.2609
  0
VERTEX
  8
LAYER_1
 10
142.2349
 20
-252.2609
  0
VERTEX
  8
LAYER_1
 10
142.2349
 20
-251.8182
  0
VERTEX
  8
LAYER_1
 10
141.8504
 20
-251.2339
  0
VERTEX
  8
LAYER_1
 10
141.9813
 20
-251.2339
  0
VERTEX
  8
LAYER_1
 10
142.2904
 20
-251.7311
  0
VERTEX
  8
LAYER_1
 10
142.6022
 20
-251.2339
  0
VERTEX
  8
LAYER_1
 10
142.7234
 20
-251.2339
  0
VERTEX
  8
LAYER_1
 10
142.3393
 20
-251.8182
  0
SEQEND
  0
ENDBLK
  0
BLOCK
  8
LAYER_1
  2
AIGNBL01030012
 70
64
 10
0
 20
0
 30
0
  3
AIGNBL01030012
  0
POLYLINE
  8
LAYER_1
 40
0.05
 41
0.05
 66
1
 10
0
 20
0
 30
0
 70
1
  0
VERTEX
  8
LAYER_1
 10
143.6236
 20
-251.2339
  0
VERTEX
  8
LAYER_1
 10
143.9288
 20
-251.2339
  0
VERTEX
  8
LAYER_1
 10
144.047
 20
-251.2457
  0
VERTEX
  8
LAYER_1
 10
144.1528
 20
-251.288
 42
-0.1142786728
  0
VERTEX
  8
LAYER_1
 10
144.2307
 20
-251.3686
 42
-0.1221660448
  0
VERTEX
  8
LAYER_1
 10
144.2603
 20
-251.4961
 42
-0.1789908253
  0
VERTEX
  8
LAYER_1
 10
144.2103
 20
-251.6373
 42
-0.1682964985
  0
VERTEX
  8
LAYER_1
 10
144.078
 20
-251.7166
  0
VERTEX
  8
LAYER_1
 10
144.078
 20
-251.7194
 42
-0.1720252291
  0
VERTEX
  8
LAYER_1
 10
144.2434
 20
-251.7969
 42
-0.2011476059
  0
VERTEX
  8
LAYER_1
 10
144.3099
 20
-251.9764
 42
-0.1263581039
  0
VERTEX
  8
LAYER_1
 10
144.2823
 20
-252.0928
 42
-0.1151202894
  0
VERTEX
  8
LAYER_1
 10
144.2062
 20
-252.1831
 42
-0.08559391469
  0
VERTEX
  8
LAYER_1
 10
144.0866
 20
-252.2402
 42
-0.06581098886
  0
VERTEX
  8
LAYER_1
 10
143.9275
 20
-252.2609
  0
VERTEX
  8
LAYER_1
 10
143.6236
 20
-252.2609
  0
SEQEND
  0
POLYLINE
  8
LAYER_1
 40
0.05
 41
0.05
 66
1
 10
0
 20
0
 30
0
 70
1
  0
VERTEX
  8
LAYER_1
 10
143.7277
 20
-251.6832
  0
VERTEX
  8
LAYER_1
 10
143.9382
 20
-251.6832
  0
VERTEX
  8
LAYER_1
 10
144.0146
 20
-251.6742
  0
VERTEX
  8
LAYER_1
 10
144.0842
 20
-251.6453
  0
VERTEX
  8
LAYER_1
 10
144.1362
 20
-251.5888
 42
0.1124449043
  0
VERTEX
  8
LAYER_1
 10
144.1552
 20
-251.5034
  0
VERTEX
  8
LAYER_1
 10
144.1362
 20
-251.4203
  0
VERTEX
  8
LAYER_1
 10
144.0835
 20
-251.3638
  0
VERTEX
  8
LAYER_1
 10
144.005
 20
-251.3328
  0
VERTEX
  8
LAYER_1
 10
143.9089
 20
-251.3235
  0
VERTEX
  8
LAYER_1
 10
143.7277
 20
-251.3235
  0
SEQEND
  0
POLYLINE
  8
LAYER_1
 40
0.05
 41
0.05
 66
1
 10
0
 20
0
 30
0
 70
1
  0
VERTEX
  8
LAYER_1
 10
143.7277
 20
-252.171
  0
VERTEX
  8
LAYER_1
 10
143.9223
 20
-252.171
  0
VERTEX
  8
LAYER_1
 10
144.0301
 20
-252.1596
  0
VERTEX
  8
LAYER_1
 10
144.1204
 20
-252.1252
  0
VERTEX
  8
LAYER_1
 10
144.181
 20
-252.0625
 42
0.1349508047
  0
VERTEX
  8
LAYER_1
 10
144.2048
 20
-251.9705
 42
0.2483168689
  0
VERTEX
  8
LAYER_1
 10
144.1362
 20
-251.8189
 42
0.1537491355
  0
VERTEX
  8
LAYER_1
 10
143.9413
 20
-251.7686
  0
VERTEX
  8
LAYER_1
 10
143.7277
 20
-251.7686
  0
SEQEND
  0
ENDBLK
  0
BLOCK
  8
LAYER_1
  2
AIGNBL01030013
 70
64
 10
0
 20
0
 30
0
  3
AIGNBL01030013
  0
POLYLINE
  8
LAYER_1
 40
0.05
 41
0.05
 66
1
 10
0
 20
0
 30
0
 70
1
  0
VERTEX
  8
LAYER_1
 10
144.7388
 20
-252.2609
  0
VERTEX
  8
LAYER_1
 10
144.6241
 20
-252.2609
  0
VERTEX
  8
LAYER_1
 10
145.0685
 20
-251.2339
  0
VERTEX
  8
LAYER_1
 10
145.1705
 20
-251.2339
  0
VERTEX
  8
LAYER_1
 10
145.6111
 20
-252.2609
  0
VERTEX
  8
LAYER_1
 10
145.4943
 20
-252.2609
  0
VERTEX
  8
LAYER_1
 10
145.3813
 20
-251.9912
  0
VERTEX
  8
LAYER_1
 10
144.8504
 20
-251.9912
  0
SEQEND
  0
POLYLINE
  8
LAYER_1
 40
0.05
 41
0.05
 66
1
 10
0
 20
0
 30
0
 70
1
  0
VERTEX
  8
LAYER_1
 10
144.8894
 20
-251.8947
  0
VERTEX
  8
LAYER_1
 10
145.3424
 20
-251.8947
  0
VERTEX
  8
LAYER_1
 10
145.1164
 20
-251.3493
  0
SEQEND
  0
ENDBLK
  0
BLOCK
  8
LAYER_1
  2
AIGNBL01030014
 70
64
 10
0
 20
0
 30
0
  3
AIGNBL01030014
  0
POLYLINE
  8
LAYER_1
 40
0.05
 41
0.05
 66
1
 10
0
 20
0
 30
0
 70
1
  0
VERTEX
  8
LAYER_1
 10
146.2915
 20
-252.2609
  0
VERTEX
  8
LAYER_1
 10
146.1871
 20
-252.2609
  0
VERTEX
  8
LAYER_1
 10
146.1871
 20
-251.3266
  0
VERTEX
  8
LAYER_1
 10
145.8426
 20
-251.3266
  0
VERTEX
  8
LAYER_1
 10
145.8426
 20
-251.2339
  0
VERTEX
  8
LAYER_1
 10
146.635
 20
-251.2339
  0
VERTEX
  8
LAYER_1
 10
146.635
 20
-251.3266
  0
VERTEX
  8
LAYER_1
 10
146.2915
 20
-251.3266
  0
SEQEND
  0
ENDBLK
  0
BLOCK
  8
LAYER_1
  2
AIGNBL01030015
 70
64
 10
0
 20
0
 30
0
  3
AIGNBL01030015
  0
POLYLINE
  8
LAYER_1
 40
0.05
 41
0.05
 66
1
 10
0
 20
0
 30
0
 70
1
  0
VERTEX
  8
LAYER_1
 10
146.9888
 20
-251.2339
  0
VERTEX
  8
LAYER_1
 10
147.0932
 20
-251.2339
  0
VERTEX
  8
LAYER_1
 10
147.0932
 20
-251.6787
  0
VERTEX
  8
LAYER_1
 10
147.654
 20
-251.6787
  0
VERTEX
  8
LAYER_1
 10
147.654
 20
-251.2339
  0
VERTEX
  8
LAYER_1
 10
147.7581
 20
-251.2339
  0
VERTEX
  8
LAYER_1
 10
147.7581
 20
-252.2609
  0
VERTEX
  8
LAYER_1
 10
147.654
 20
-252.2609
  0
VERTEX
  8
LAYER_1
 10
147.654
 20
-251.7745
  0
VERTEX
  8
LAYER_1
 10
147.0932
 20
-251.7745
  0
VERTEX
  8
LAYER_1
 10
147.0932
 20
-252.2609
  0
VERTEX
  8
LAYER_1
 10
146.9888
 20
-252.2609
  0
SEQEND
  0
ENDBLK
  0
BLOCK
  8
LAYER_1
  2
AIGNBL01030016
 70
64
 10
0
 20
0
 30
0
  3
AIGNBL01030016
  0
POLYLINE
  8
LAYER_1
 40
0.05
 41
0.05
 66
1
 10
0
 20
0
 30
0
 70
1
  0
VERTEX
  8
LAYER_1
 10
148.3351
 20
-252.2609
  0
VERTEX
  8
LAYER_1
 10
148.2311
 20
-252.2609
  0
VERTEX
  8
LAYER_1
 10
148.2311
 20
-251.2339
  0
VERTEX
  8
LAYER_1
 10
148.5322
 20
-251.2339
  0
VERTEX
  8
LAYER_1
 10
148.6724
 20
-251.2481
 42
-0.1023663758
  0
VERTEX
  8
LAYER_1
 10
148.7844
 20
-251.2953
 42
-0.1332028562
  0
VERTEX
  8
LAYER_1
 10
148.8571
 20
-251.38
 42
-0.109414644
  0
VERTEX
  8
LAYER_1
 10
148.8829
 20
-251.5078
  0
VERTEX
  8
LAYER_1
 10
148.8636
 20
-251.6108
  0
VERTEX
  8
LAYER_1
 10
148.8088
 20
-251.6911
  0
VERTEX
  8
LAYER_1
 10
148.7258
 20
-251.7459
  0
VERTEX
  8
LAYER_1
 10
148.6214
 20
-251.7717
  0
VERTEX
  8
LAYER_1
 10
148.9211
 20
-252.2609
  0
VERTEX
  8
LAYER_1
 10
148.7937
 20
-252.2609
  0
VERTEX
  8
LAYER_1
 10
148.5098
 20
-251.7807
  0
VERTEX
  8
LAYER_1
 10
148.3351
 20
-251.7807
  0
SEQEND
  0
POLYLINE
  8
LAYER_1
 40
0.05
 41
0.05
 66
1
 10
0
 20
0
 30
0
 70
1
  0
VERTEX
  8
LAYER_1
 10
148.3351
 20
-251.6904
  0
VERTEX
  8
LAYER_1
 10
148.517
 20
-251.6904
 42
0.1513063474
  0
VERTEX
  8
LAYER_1
 10
148.711
 20
-251.6453
 42
0.2568804362
  0
VERTEX
  8
LAYER_1
 10
148.7799
 20
-251.5078
  0
VERTEX
  8
LAYER_1
 10
148.7602
 20
-251.4224
 42
0.1232056022
  0
VERTEX
  8
LAYER_1
 10
148.7079
 20
-251.3652
  0
VERTEX
  8
LAYER_1
 10
148.6269
 20
-251.3338
  0
VERTEX
  8
LAYER_1
 10
148.5212
 20
-251.3235
  0
VERTEX
  8
LAYER_1
 10
148.3351
 20
-251.3235
  0
SEQEND
  0
ENDBLK
  0
BLOCK
  8
LAYER_1
  2
AIGNBL01030017
 70
64
 10
0
 20
0
 30
0
  3
AIGNBL01030017
  0
POLYLINE
  8
LAYER_1
 40
0.05
 41
0.05
 66
1
 10
0
 20
0
 30
0
 70
1
  0
VERTEX
  8
LAYER_1
 10
150.3154
 20
-251.7469
 42
-0.09975403421
  0
VERTEX
  8
LAYER_1
 10
150.2747
 20
-251.9629
 42
-0.09935173186
  0
VERTEX
  8
LAYER_1
 10
150.1624
 20
-252.1338
 42
-0.09811740303
  0
VERTEX
  8
LAYER_1
 10
149.9926
 20
-252.2461
 42
-0.09708882113
  0
VERTEX
  8
LAYER_1
 10
149.78
 20
-252.2868
 42
-0.09940093633
  0
VERTEX
  8
LAYER_1
 10
149.5674
 20
-252.2461
 42
-0.1007896559
  0
VERTEX
  8
LAYER_1
 10
149.3979
 20
-252.1338
 42
-0.09768152712
  0
VERTEX
  8
LAYER_1
 10
149.2856
 20
-251.9629
 42
-0.09531839447
  0
VERTEX
  8
LAYER_1
 10
149.2453
 20
-251.7469
 42
-0.09746952437
  0
VERTEX
  8
LAYER_1
 10
149.2856
 20
-251.5306
 42
-0.09925134223
  0
VERTEX
  8
LAYER_1
 10
149.3979
 20
-251.3604
 42
-0.1005970746
  0
VERTEX
  8
LAYER_1
 10
149.5674
 20
-251.2481
 42
-0.09815409965
  0
VERTEX
  8
LAYER_1
 10
149.78
 20
-251.2071
 42
-0.1003559568
  0
VERTEX
  8
LAYER_1
 10
149.9926
 20
-251.2481
 42
-0.1030391221
  0
VERTEX
  8
LAYER_1
 10
150.1624
 20
-251.3604
 42
-0.09760938344
  0
VERTEX
  8
LAYER_1
 10
150.2747
 20
-251.5306
 42
-0.09618621792
  0
SEQEND
  0
POLYLINE
  8
LAYER_1
 40
0.05
 41
0.05
 66
1
 10
0
 20
0
 30
0
 70
1
  0
VERTEX
  8
LAYER_1
 10
150.2051
 20
-251.7476
 42
0.08928566433
  0
VERTEX
  8
LAYER_1
 10
150.1762
 20
-251.5767
 42
0.0967309921
  0
VERTEX
  8
LAYER_1
 10
150.0921
 20
-251.4344
 42
0.1033640041
  0
VERTEX
  8
LAYER_1
 10
149.9581
 20
-251.337
 42
0.1075765453
  0
VERTEX
  8
LAYER_1
 10
149.78
 20
-251.3001
 42
0.1148421003
  0
VERTEX
  8
LAYER_1
 10
149.6026
 20
-251.337
 42
0.106797523
  0
VERTEX
  8
LAYER_1
 10
149.4682
 20
-251.4344
 42
0.09375888087
  0
VERTEX
  8
LAYER_1
 10
149.3842
 20
-251.5767
 42
0.08542444587
  0
VERTEX
  8
LAYER_1
 10
149.3549
 20
-251.7476
 42
0.08738527021
  0
VERTEX
  8
LAYER_1
 10
149.3842
 20
-251.9188
 42
0.09670329037
  0
VERTEX
  8
LAYER_1
 10
149.4682
 20
-252.0607
 42
0.09891153362
  0
VERTEX
  8
LAYER_1
 10
149.6026
 20
-252.1575
 42
0.1067011915
  0
VERTEX
  8
LAYER_1
 10
149.78
 20
-252.1937
 42
0.1133540876
  0
VERTEX
  8
LAYER_1
 10
149.9581
 20
-252.1575
 42
0.1038012544
  0
VERTEX
  8
LAYER_1
 10
150.0921
 20
-252.0607
 42
0.09726416843
  0
VERTEX
  8
LAYER_1
 10
150.1762
 20
-251.9188
 42
0.0854375021
  0
SEQEND
  0
ENDBLK
  0
BLOCK
  8
LAYER_1
  2
AIGNBL01030018
 70
64
 10
0
 20
0
 30
0
  3
AIGNBL01030018
  0
POLYLINE
  8
LAYER_1
 40
0.05
 41
0.05
 66
1
 10
0
 20
0
 30
0
 70
1
  0
VERTEX
  8
LAYER_1
 10
151.7489
 20
-251.7469
 42
-0.09970583877
  0
VERTEX
  8
LAYER_1
 10
151.7086
 20
-251.9629
 42
-0.0976989983
  0
VERTEX
  8
LAYER_1
 10
151.5963
 20
-252.1338
 42
-0.09521451671
  0
VERTEX
  8
LAYER_1
 10
151.4264
 20
-252.2461
 42
-0.09711421911
  0
VERTEX
  8
LAYER_1
 10
151.2139
 20
-252.2868
 42
-0.1003065361
  0
VERTEX
  8
LAYER_1
 10
151.0013
 20
-252.2461
 42
-0.1012502646
  0
VERTEX
  8
LAYER_1
 10
150.8318
 20
-252.1338
 42
-0.09902147312
  0
VERTEX
  8
LAYER_1
 10
150.7188
 20
-251.9629
 42
-0.09657946775
  0
VERTEX
  8
LAYER_1
 10
150.6781
 20
-251.7469
 42
-0.09892706014
  0
VERTEX
  8
LAYER_1
 10
150.7188
 20
-251.5306
 42
-0.1025433378
  0
VERTEX
  8
LAYER_1
 10
150.8318
 20
-251.3604
 42
-0.1009513296
  0
VERTEX
  8
LAYER_1
 10
151.0013
 20
-251.2481
 42
-0.09841178888
  0
VERTEX
  8
LAYER_1
 10
151.2139
 20
-251.2071
 42
-0.1004512574
  0
VERTEX
  8
LAYER_1
 10
151.4264
 20
-251.2481
 42
-0.09871557407
  0
VERTEX
  8
LAYER_1
 10
151.5963
 20
-251.3604
 42
-0.09679690961
  0
VERTEX
  8
LAYER_1
 10
151.7086
 20
-251.5306
 42
-0.09571421233
  0
SEQEND
  0
POLYLINE
  8
LAYER_1
 40
0.05
 41
0.05
 66
1
 10
0
 20
0
 30
0
 70
1
  0
VERTEX
  8
LAYER_1
 10
151.639
 20
-251.7476
 42
0.08698818876
  0
VERTEX
  8
LAYER_1
 10
151.61
 20
-251.5767
 42
0.0956708921
  0
VERTEX
  8
LAYER_1
 10
151.526
 20
-251.4344
 42
0.1033803157
  0
VERTEX
  8
LAYER_1
 10
151.3916
 20
-251.337
 42
0.1075718589
  0
VERTEX
  8
LAYER_1
 10
151.2139
 20
-251.3001
 42
0.1154259577
  0
VERTEX
  8
LAYER_1
 10
151.0361
 20
-251.337
 42
0.1064173637
  0
VERTEX
  8
LAYER_1
 10
150.9017
 20
-251.4344
 42
0.1028942614
  0
VERTEX
  8
LAYER_1
 10
150.818
 20
-251.5767
 42
0.08542444587
  0
VERTEX
  8
LAYER_1
 10
150.7887
 20
-251.7476
 42
0.08738527021
  0
VERTEX
  8
LAYER_1
 10
150.818
 20
-251.9188
 42
0.1032562832
  0
VERTEX
  8
LAYER_1
 10
150.9017
 20
-252.0607
 42
0.1008165521
  0
VERTEX
  8
LAYER_1
 10
151.0361
 20
-252.1575
 42
0.1069398409
  0
VERTEX
  8
LAYER_1
 10
151.2139
 20
-252.1937
 42
0.1127969838
  0
VERTEX
  8
LAYER_1
 10
151.3916
 20
-252.1575
 42
0.1024372123
  0
VERTEX
  8
LAYER_1
 10
151.526
 20
-252.0607
 42
0.09088614582
  0
VERTEX
  8
LAYER_1
 10
151.61
 20
-251.9188
 42
0.08498619229
  0
SEQEND
  0
ENDBLK
  0
BLOCK
  8
LAYER_1
  2
AIGNBL01030019
 70
64
 10
0
 20
0
 30
0
  3
AIGNBL01030019
  0
POLYLINE
  8
LAYER_1
 40
0.05
 41
0.05
 66
1
 10
0
 20
0
 30
0
 70
1
  0
VERTEX
  8
LAYER_1
 10
152.6742
 20
-252.0839
  0
VERTEX
  8
LAYER_1
 10
152.6756
 20
-252.0839
  0
VERTEX
  8
LAYER_1
 10
153.0194
 20
-251.2339
  0
VERTEX
  8
LAYER_1
 10
153.1793
 20
-251.2339
  0
VERTEX
  8
LAYER_1
 10
153.1793
 20
-252.2609
  0
VERTEX
  8
LAYER_1
 10
153.0749
 20
-252.2609
  0
VERTEX
  8
LAYER_1
 10
153.0749
 20
-251.3686
  0
VERTEX
  8
LAYER_1
 10
153.0718
 20
-251.3686
  0
VERTEX
  8
LAYER_1
 10
152.7007
 20
-252.2609
  0
VERTEX
  8
LAYER_1
 10
152.646
 20
-252.2609
  0
VERTEX
  8
LAYER_1
 10
152.2743
 20
-251.3686
  0
VERTEX
  8
LAYER_1
 10
152.2708
 20
-251.3686
  0
VERTEX
  8
LAYER_1
 10
152.2708
 20
-252.2609
  0
VERTEX
  8
LAYER_1
 10
152.1668
 20
-252.2609
  0
VERTEX
  8
LAYER_1
 10
152.1668
 20
-251.2339
  0
VERTEX
  8
LAYER_1
 10
152.327
 20
-251.2339
  0
SEQEND
  0
ENDBLK
  0
BLOCK
  8
LAYER_1
  2
AIGNBL0103001A
 70
64
 10
0
 20
0
 30
0
  3
AIGNBL0103001A
  0
POLYLINE
  8
LAYER_1
 40
0.05
 41
0.05
 66
1
 10
0
 20
0
 30
0
 70
1
  0
VERTEX
  8
LAYER_1
 10
154.3196
 20
-252.1676
  0
VERTEX
  8
LAYER_1
 10
154.8694
 20
-252.1676
  0
VERTEX
  8
LAYER_1
 10
154.8694
 20
-252.2609
  0
VERTEX
  8
LAYER_1
 10
154.2145
 20
-252.2609
  0
VERTEX
  8
LAYER_1
 10
154.2145
 20
-251.2339
  0
VERTEX
  8
LAYER_1
 10
154.8522
 20
-251.2339
  0
VERTEX
  8
LAYER_1
 10
154.8522
 20
-251.3263
  0
VERTEX
  8
LAYER_1
 10
154.3196
 20
-251.3263
  0
VERTEX
  8
LAYER_1
 10
154.3196
 20
-251.6787
  0
VERTEX
  8
LAYER_1
 10
154.8167
 20
-251.6787
  0
VERTEX
  8
LAYER_1
 10
154.8167
 20
-251.7717
  0
VERTEX
  8
LAYER_1
 10
154.3196
 20
-251.7717
  0
SEQEND
  0
ENDBLK
  0
BLOCK
  8
LAYER_1
  2
AIGNBL0103001B
 70
64
 10
0
 20
0
 30
0
  3
AIGNBL0103001B
  0
POLYLINE
  8
LAYER_1
 40
0.05
 41
0.05
 66
1
 10
0
 20
0
 30
0
 70
1
  0
VERTEX
  8
LAYER_1
 10
155.6101
 20
-251.6484
  0
VERTEX
  8
LAYER_1
 10
155.8906
 20
-251.2339
  0
VERTEX
  8
LAYER_1
 10
156.0153
 20
-251.2339
  0
VERTEX
  8
LAYER_1
 10
155.6749
 20
-251.7221
  0
VERTEX
  8
LAYER_1
 10
156.0518
 20
-252.2609
  0
VERTEX
  8
LAYER_1
 10
155.9216
 20
-252.2609
  0
VERTEX
  8
LAYER_1
 10
155.6081
 20
-251.7979
  0
VERTEX
  8
LAYER_1
 10
155.296
 20
-252.2609
  0
VERTEX
  8
LAYER_1
 10
155.165
 20
-252.2609
  0
VERTEX
  8
LAYER_1
 10
155.5426
 20
-251.7211
  0
VERTEX
  8
LAYER_1
 10
155.1988
 20
-251.2339
  0
VERTEX
  8
LAYER_1
 10
155.329
 20
-251.2339
  0
SEQEND
  0
ENDBLK
  0
BLOCK
  8
LAYER_1
  2
AIGNBL0103001C
 70
64
 10
0
 20
0
 30
0
  3
AIGNBL0103001C
  0
POLYLINE
  8
LAYER_1
 40
0.05
 41
0.05
 66
1
 10
0
 20
0
 30
0
 70
1
  0
VERTEX
  8
LAYER_1
 10
156.4159
 20
-251.2339
  0
VERTEX
  8
LAYER_1
 10
156.706
 20
-251.2339
  0
VERTEX
  8
LAYER_1
 10
156.8487
 20
-251.2498
 42
-0.110657953
  0
VERTEX
  8
LAYER_1
 10
156.9575
 20
-251.3015
 42
-0.1163763428
  0
VERTEX
  8
LAYER_1
 10
157.0288
 20
-251.3866
 42
-0.1004779162
  0
VERTEX
  8
LAYER_1
 10
157.053
 20
-251.5078
 42
-0.1135751127
  0
VERTEX
  8
LAYER_1
 10
157.0281
 20
-251.6291
 42
-0.1113908719
  0
VERTEX
  8
LAYER_1
 10
156.9568
 20
-251.7145
 42
-0.08575538996
  0
VERTEX
  8
LAYER_1
 10
156.8459
 20
-251.7659
 42
-0.06072195454
  0
VERTEX
  8
LAYER_1
 10
156.7032
 20
-251.7831
  0
VERTEX
  8
LAYER_1
 10
156.5203
 20
-251.7831
  0
VERTEX
  8
LAYER_1
 10
156.5203
 20
-252.2609
  0
VERTEX
  8
LAYER_1
 10
156.4159
 20
-252.2609
  0
SEQEND
  0
POLYLINE
  8
LAYER_1
 40
0.05
 41
0.05
 66
1
 10
0
 20
0
 30
0
 70
1
  0
VERTEX
  8
LAYER_1
 10
156.5203
 20
-251.6949
  0
VERTEX
  8
LAYER_1
 10
156.6974
 20
-251.6949
 42
0.1668395642
  0
VERTEX
  8
LAYER_1
 10
156.8848
 20
-251.6474
 42
0.2433158568
  0
VERTEX
  8
LAYER_1
 10
156.9489
 20
-251.5078
 42
0.2579107644
  0
VERTEX
  8
LAYER_1
 10
156.8824
 20
-251.3676
 42
0.1431777658
  0
VERTEX
  8
LAYER_1
 10
156.6974
 20
-251.3235
  0
VERTEX
  8
LAYER_1
 10
156.5203
 20
-251.3235
  0
SEQEND
  0
ENDBLK
  0
BLOCK
  8
LAYER_1
  2
AIGNBL0103001D
 70
64
 10
0
 20
0
 30
0
  3
AIGNBL0103001D
  0
POLYLINE
  8
LAYER_1
 40
0.05
 41
0.05
 66
1
 10
0
 20
0
 30
0
 70
1
  0
VERTEX
  8
LAYER_1
 10
157.5621
 20
-252.1676
  0
VERTEX
  8
LAYER_1
 10
158.1116
 20
-252.1676
  0
VERTEX
  8
LAYER_1
 10
158.1116
 20
-252.2609
  0
VERTEX
  8
LAYER_1
 10
157.4577
 20
-252.2609
  0
VERTEX
  8
LAYER_1
 10
157.4577
 20
-251.2339
  0
VERTEX
  8
LAYER_1
 10
158.0947
 20
-251.2339
  0
VERTEX
  8
LAYER_1
 10
158.0947
 20
-251.3263
  0
VERTEX
  8
LAYER_1
 10
157.5621
 20
-251.3263
  0
VERTEX
  8
LAYER_1
 10
157.5621
 20
-251.6787
  0
VERTEX
  8
LAYER_1
 10
158.0599
 20
-251.6787
  0
VERTEX
  8
LAYER_1
 10
158.0599
 20
-251.7717
  0
VERTEX
  8
LAYER_1
 10
157.5621
 20
-251.7717
  0
SEQEND
  0
ENDBLK
  0
BLOCK
  8
LAYER_1
  2
AIGNBL0103001E
 70
64
 10
0
 20
0
 30
0
  3
AIGNBL0103001E
  0
POLYLINE
  8
LAYER_1
 40
0.05
 41
0.05
 66
1
 10
0
 20
0
 30
0
 70
1
  0
VERTEX
  8
LAYER_1
 10
158.6208
 20
-252.2609
  0
VERTEX
  8
LAYER_1
 10
158.5168
 20
-252.2609
  0
VERTEX
  8
LAYER_1
 10
158.5168
 20
-251.2339
  0
VERTEX
  8
LAYER_1
 10
158.8185
 20
-251.2339
  0
VERTEX
  8
LAYER_1
 10
158.9584
 20
-251.2481
 42
-0.1005953548
  0
VERTEX
  8
LAYER_1
 10
159.07
 20
-251.2953
 42
-0.1225647981
  0
VERTEX
  8
LAYER_1
 10
159.1438
 20
-251.38
 42
-0.1056037953
  0
VERTEX
  8
LAYER_1
 10
159.1696
 20
-251.5078
 42
-0.113550017
  0
VERTEX
  8
LAYER_1
 10
159.1493
 20
-251.6105
  0
VERTEX
  8
LAYER_1
 10
159.0945
 20
-251.6915
  0
VERTEX
  8
LAYER_1
 10
159.0111
 20
-251.7459
  0
VERTEX
  8
LAYER_1
 10
158.9067
 20
-251.7717
  0
VERTEX
  8
LAYER_1
 10
159.2075
 20
-252.2609
  0
VERTEX
  8
LAYER_1
 10
159.08
 20
-252.2609
  0
VERTEX
  8
LAYER_1
 10
158.7955
 20
-251.7803
  0
VERTEX
  8
LAYER_1
 10
158.6208
 20
-251.7803
  0
SEQEND
  0
POLYLINE
  8
LAYER_1
 40
0.05
 41
0.05
 66
1
 10
0
 20
0
 30
0
 70
1
  0
VERTEX
  8
LAYER_1
 10
158.6208
 20
-251.69
  0
VERTEX
  8
LAYER_1
 10
158.8027
 20
-251.69
 42
0.1507170359
  0
VERTEX
  8
LAYER_1
 10
158.9974
 20
-251.6453
 42
0.2579683273
  0
VERTEX
  8
LAYER_1
 10
159.0652
 20
-251.5078
  0
VERTEX
  8
LAYER_1
 10
159.047
 20
-251.4224
  0
VERTEX
  8
LAYER_1
 10
158.9943
 20
-251.3652
  0
VERTEX
  8
LAYER_1
 10
158.9123
 20
-251.3338
  0
VERTEX
  8
LAYER_1
 10
158.8065
 20
-251.3235
  0
VERTEX
  8
LAYER_1
 10
158.6208
 20
-251.3235
  0
SEQEND
  0
ENDBLK
  0
BLOCK
  8
LAYER_1
  2
AIGNBL0103001F
 70
64
 10
0
 20
0
 30
0
  3
AIGNBL0103001F
  0
POLYLINE
  8
LAYER_1
 40
0.05
 41
0.05
 66
1
 10
0
 20
0
 30
0
 70
1
  0
VERTEX
  8
LAYER_1
 10
159.6898
 20
-252.2609
  0
VERTEX
  8
LAYER_1
 10
159.5865
 20
-252.2609
  0
VERTEX
  8
LAYER_1
 10
159.5865
 20
-251.2339
  0
VERTEX
  8
LAYER_1
 10
159.6898
 20
-251.2339
  0
SEQEND
  0
ENDBLK
  0
BLOCK
  8
LAYER_1
  2
AIGNBL01030020
 70
64
 10
0
 20
0
 30
0
  3
AIGNBL01030020
  0
POLYLINE
  8
LAYER_1
 40
0.05
 41
0.05
 66
1
 10
0
 20
0
 30
0
 70
1
  0
VERTEX
  8
LAYER_1
 10
160.2676
 20
-252.1676
  0
VERTEX
  8
LAYER_1
 10
160.8174
 20
-252.1676
  0
VERTEX
  8
LAYER_1
 10
160.8174
 20
-252.2609
  0
VERTEX
  8
LAYER_1
 10
160.1639
 20
-252.2609
  0
VERTEX
  8
LAYER_1
 10
160.1639
 20
-251.2339
  0
VERTEX
  8
LAYER_1
 10
160.8005
 20
-251.2339
  0
VERTEX
  8
LAYER_1
 10
160.8005
 20
-251.3263
  0
VERTEX
  8
LAYER_1
 10
160.2676
 20
-251.3263
  0
VERTEX
  8
LAYER_1
 10
160.2676
 20
-251.6787
  0
VERTEX
  8
LAYER_1
 10
160.7654
 20
-251.6787
  0
VERTEX
  8
LAYER_1
 10
160.7654
 20
-251.7717
  0
VERTEX
  8
LAYER_1
 10
160.2676
 20
-251.7717
  0
SEQEND
  0
ENDBLK
  0
BLOCK
  8
LAYER_1
  2
AIGNBL01030021
 70
64
 10
0
 20
0
 30
0
  3
AIGNBL01030021
  0
POLYLINE
  8
LAYER_1
 40
0.05
 41
0.05
 66
1
 10
0
 20
0
 30
0
 70
1
  0
VERTEX
  8
LAYER_1
 10
161.9505
 20
-252.1079
  0
VERTEX
  8
LAYER_1
 10
161.9536
 20
-252.1079
  0
VERTEX
  8
LAYER_1
 10
161.9536
 20
-251.2339
  0
VERTEX
  8
LAYER_1
 10
162.058
 20
-251.2339
  0
VERTEX
  8
LAYER_1
 10
162.058
 20
-252.2609
  0
VERTEX
  8
LAYER_1
 10
161.9277
 20
-252.2609
  0
VERTEX
  8
LAYER_1
 10
161.3297
 20
-251.3772
  0
VERTEX
  8
LAYER_1
 10
161.3266
 20
-251.3772
  0
VERTEX
  8
LAYER_1
 10
161.3266
 20
-252.2609
  0
VERTEX
  8
LAYER_1
 10
161.2222
 20
-252.2609
  0
VERTEX
  8
LAYER_1
 10
161.2222
 20
-251.2339
  0
VERTEX
  8
LAYER_1
 10
161.3535
 20
-251.2339
  0
SEQEND
  0
ENDBLK
  0
BLOCK
  8
LAYER_1
  2
AIGNBL01030022
 70
64
 10
0
 20
0
 30
0
  3
AIGNBL01030022
  0
POLYLINE
  8
LAYER_1
 40
0.05
 41
0.05
 66
1
 10
0
 20
0
 30
0
 70
1
  0
VERTEX
  8
LAYER_1
 10
163.396
 20
-252.0942
  0
VERTEX
  8
LAYER_1
 10
163.3323
 20
-252.1679
  0
VERTEX
  8
LAYER_1
 10
163.2469
 20
-252.2295
  0
VERTEX
  8
LAYER_1
 10
163.1394
 20
-252.2716
  0
VERTEX
  8
LAYER_1
 10
163.0112
 20
-252.2868
 42
-0.09929103144
  0
VERTEX
  8
LAYER_1
 10
162.7966
 20
-252.2461
 42
-0.1031170142
  0
VERTEX
  8
LAYER_1
 10
162.6271
 20
-252.1335
 42
-0.1024256256
  0
VERTEX
  8
LAYER_1
 10
162.5162
 20
-251.9633
 42
-0.09780652729
  0
VERTEX
  8
LAYER_1
 10
162.4759
 20
-251.7469
 42
-0.1005543907
  0
VERTEX
  8
LAYER_1
 10
162.5169
 20
-251.5306
 42
-0.09980539098
  0
VERTEX
  8
LAYER_1
 10
162.6285
 20
-251.3604
 42
-0.09707816065
  0
VERTEX
  8
LAYER_1
 10
162.798
 20
-251.2481
 42
-0.09782536185
  0
VERTEX
  8
LAYER_1
 10
163.0112
 20
-251.2071
  0
VERTEX
  8
LAYER_1
 10
163.1222
 20
-251.2191
  0
VERTEX
  8
LAYER_1
 10
163.2252
 20
-251.2522
  0
VERTEX
  8
LAYER_1
 10
163.3117
 20
-251.3035
  0
VERTEX
  8
LAYER_1
 10
163.3767
 20
-251.3711
  0
VERTEX
  8
LAYER_1
 10
163.2906
 20
-251.4355
  0
VERTEX
  8
LAYER_1
 10
163.2469
 20
-251.3858
  0
VERTEX
  8
LAYER_1
 10
163.1835
 20
-251.3421
  0
VERTEX
  8
LAYER_1
 10
163.1043
 20
-251.3114
  0
VERTEX
  8
LAYER_1
 10
163.0126
 20
-251.3001
 42
0.111032742
  0
VERTEX
  8
LAYER_1
 10
162.8338
 20
-251.3362
 42
0.1048566985
  0
VERTEX
  8
LAYER_1
 10
162.6998
 20
-251.4338
 42
0.09649516609
  0
VERTEX
  8
LAYER_1
 10
162.6147
 20
-251.5764
 42
0.08187604402
  0
VERTEX
  8
LAYER_1
 10
162.5868
 20
-251.7469
 42
0.09351376633
  0
VERTEX
  8
LAYER_1
 10
162.6164
 20
-251.9178
 42
0.09951767869
  0
VERTEX
  8
LAYER_1
 10
162.7012
 20
-252.0601
 42
0.1063497227
  0
VERTEX
  8
LAYER_1
 10
162.8356
 20
-252.1575
 42
0.1081437471
  0
VERTEX
  8
LAYER_1
 10
163.0126
 20
-252.1937
 42
0.1144963135
  0
VERTEX
  8
LAYER_1
 10
163.1804
 20
-252.1575
 42
0.1351211567
  0
VERTEX
  8
LAYER_1
 10
163.3148
 20
-252.0414
  0
SEQEND
  0
ENDBLK
  0
BLOCK
  8
LAYER_1
  2
AIGNBL01030023
 70
64
 10
0
 20
0
 30
0
  3
AIGNBL01030023
  0
POLYLINE
  8
LAYER_1
 40
0.05
 41
0.05
 66
1
 10
0
 20
0
 30
0
 70
1
  0
VERTEX
  8
LAYER_1
 10
163.8801
 20
-252.1676
  0
VERTEX
  8
LAYER_1
 10
164.4299
 20
-252.1676
  0
VERTEX
  8
LAYER_1
 10
164.4299
 20
-252.2609
  0
VERTEX
  8
LAYER_1
 10
163.7764
 20
-252.2609
  0
VERTEX
  8
LAYER_1
 10
163.7764
 20
-251.2339
  0
VERTEX
  8
LAYER_1
 10
164.4127
 20
-251.2339
  0
VERTEX
  8
LAYER_1
 10
164.4127
 20
-251.3263
  0
VERTEX
  8
LAYER_1
 10
163.8801
 20
-251.3263
  0
VERTEX
  8
LAYER_1
 10
163.8801
 20
-251.6787
  0
VERTEX
  8
LAYER_1
 10
164.3782
 20
-251.6787
  0
VERTEX
  8
LAYER_1
 10
164.3782
 20
-251.7717
  0
VERTEX
  8
LAYER_1
 10
163.8801
 20
-251.7717
  0
SEQEND
  0
ENDBLK
  0
BLOCK
  8
LAYER_1
  2
AIGNBL01020003
 70
64
 10
0
 20
0
 30
0
  3
AIGNBL01020003
  0
INSERT
  8
LAYER_1
  2
AIGNBL01030004
 10
0
 20
0
 30
0
  0
ENDBLK
  0
BLOCK
  8
LAYER_1
  2
AIGNBL0102000C
 70
64
 10
0
 20
0
 30
0
  3
AIGNBL0102000C
  0
INSERT
  8
LAYER_1
  2
AIGNBL0103000D
 10
0
 20
0
 30
0
  0
INSERT
  8
LAYER_1
  2
AIGNBL0103000E
 10
0
 20
0
 30
0
  0
INSERT
  8
LAYER_1
  2
AIGNBL0103000F
 10
0
 20
0
 30
0
  0
INSERT
  8
LAYER_1
  2
AIGNBL01030010
 10
0
 20
0
 30
0
  0
INSERT
  8
LAYER_1
  2
AIGNBL01030011
 10
0
 20
0
 30
0
  0
INSERT
  8
LAYER_1
  2
AIGNBL01030012
 10
0
 20
0
 30
0
  0
INSERT
  8
LAYER_1
  2
AIGNBL01030013
 10
0
 20
0
 30
0
  0
INSERT
  8
LAYER_1
  2
AIGNBL01030014
 10
0
 20
0
 30
0
  0
INSERT
  8
LAYER_1
  2
AIGNBL01030015
 10
0
 20
0
 30
0
  0
INSERT
  8
LAYER_1
  2
AIGNBL01030016
 10
0
 20
0
 30
0
  0
INSERT
  8
LAYER_1
  2
AIGNBL01030017
 10
0
 20
0
 30
0
  0
INSERT
  8
LAYER_1
  2
AIGNBL01030018
 10
0
 20
0
 30
0
  0
INSERT
  8
LAYER_1
  2
AIGNBL01030019
 10
0
 20
0
 30
0
  0
INSERT
  8
LAYER_1
  2
AIGNBL0103001A
 10
0
 20
0
 30
0
  0
INSERT
  8
LAYER_1
  2
AIGNBL0103001B
 10
0
 20
0
 30
0
  0
INSERT
  8
LAYER_1
  2
AIGNBL0103001C
 10
0
 20
0
 30
0
  0
INSERT
  8
LAYER_1
  2
AIGNBL0103001D
 10
0
 20
0
 30
0
  0
INSERT
  8
LAYER_1
  2
AIGNBL0103001E
 10
0
 20
0
 30
0
  0
INSERT
  8
LAYER_1
  2
AIGNBL0103001F
 10
0
 20
0
 30
0
  0
INSERT
  8
LAYER_1
  2
AIGNBL01030020
 10
0
 20
0
 30
0
  0
INSERT
  8
LAYER_1
  2
AIGNBL01030021
 10
0
 20
0
 30
0
  0
INSERT
  8
LAYER_1
  2
AIGNBL01030022
 10
0
 20
0
 30
0
  0
INSERT
  8
LAYER_1
  2
AIGNBL01030023
 10
0
 20
0
 30
0
  0
ENDBLK
  0
BLOCK
  8
LAYER_1
  2
AIGNBL01020025
 70
64
 10
0
 20
0
 30
0
  3
AIGNBL01020025
  0
POLYLINE
  8
LAYER_1
 40
0.0353
 41
0.0353
 66
1
 10
0
 20
0
 30
0
  0
VERTEX
  8
LAYER_1
 10
85.3188
 20
-101.9406
  0
VERTEX
  8
LAYER_1
 10
83.8188
 20
-101.6906
  0
SEQEND
  0
POLYLINE
  8
LAYER_1
 40
0.0353
 41
0.0353
 66
1
 10
0
 20
0
 30
0
  0
VERTEX
  8
LAYER_1
 10
85.3188
 20
-101.6906
  0
VERTEX
  8
LAYER_1
 10
83.8188
 20
-101.6906
  0
VERTEX
  8
LAYER_1
 10
85.3188
 20
-101.4406
  0
SEQEND
  0
ENDBLK
  0
BLOCK
  8
LAYER_1
  2
AIGNBL01020026
 70
64
 10
0
 20
0
 30
0
  3
AIGNBL01020026
  0
POLYLINE
  8
LAYER_1
 40
0.0353
 41
0.0353
 66
1
 10
0
 20
0
 30
0
  0
VERTEX
  8
LAYER_1
 10
87.3988
 20
-101.4406
  0
VERTEX
  8
LAYER_1
 10
88.8988
 20
-101.6906
  0
SEQEND
  0
POLYLINE
  8
LAYER_1
 40
0.0353
 41
0.0353
 66
1
 10
0
 20
0
 30
0
  0
VERTEX
  8
LAYER_1
 10
87.3988
 20
-101.6906
  0
VERTEX
  8
LAYER_1
 10
88.8988
 20
-101.6906
  0
VERTEX
  8
LAYER_1
 10
87.3988
 20
-101.9406
  0
SEQEND
  0
ENDBLK
  0
BLOCK
  8
LAYER_1
  2
AIGNBL01020027
 70
64
 10
0
 20
0
 30
0
  3
AIGNBL01020027
  0
POLYLINE
  8
LAYER_1
 40
0.7056
 41
0.7056
 66
1
 10
0
 20
0
 30
0
  0
VERTEX
  8
LAYER_1
 10
83.8188
 20
-107.241
  0
SEQEND
  0
ENDBLK
  0
BLOCK
  8
LAYER_1
  2
AIGNBL01020028
 70
64
 10
0
 20
0
 30
0
  3
AIGNBL01020028
  0
POLYLINE
  8
LAYER_1
 40
0.7056
 41
0.7056
 66
1
 10
0
 20
0
 30
0
  0
VERTEX
  8
LAYER_1
 10
88.8988
 20
-107.241
  0
SEQEND
  0
ENDBLK
  0
BLOCK
  8
LAYER_1
  2
AIGNBL01020029
 70
64
 10
0
 20
0
 30
0
  3
AIGNBL01020029
  0
POLYLINE
  8
LAYER_1
 40
0.7056
 41
0.7056
 66
1
 10
0
 20
0
 30
0
  0
VERTEX
  8
LAYER_1
 10
88.8988
 20
-101.6906
  0
SEQEND
  0
ENDBLK
  0
BLOCK
  8
LAYER_1
  2
AIGNBL0102002B
 70
64
 10
0
 20
0
 30
0
  3
AIGNBL0102002B
  0
POLYLINE
  8
LAYER_1
 40
0.0353
 41
0.0353
 66
1
 10
0
 20
0
 30
0
  0
VERTEX
  8
LAYER_1
 10
75.7319
 20
-75.9231
  0
VERTEX
  8
LAYER_1
 10
75.9819
 20
-74.4231
  0
SEQEND
  0
POLYLINE
  8
LAYER_1
 40
0.0353
 41
0.0353
 66
1
 10
0
 20
0
 30
0
  0
VERTEX
  8
LAYER_1
 10
75.9819
 20
-75.9231
  0
VERTEX
  8
LAYER_1
 10
75.9819
 20
-74.4231
  0
VERTEX
  8
LAYER_1
 10
76.2319
 20
-75.9231
  0
SEQEND
  0
ENDBLK
  0
BLOCK
  8
LAYER_1
  2
AIGNBL0102002C
 70
64
 10
0
 20
0
 30
0
  3
AIGNBL0102002C
  0
POLYLINE
  8
LAYER_1
 40
0.0353
 41
0.0353
 66
1
 10
0
 20
0
 30
0
  0
VERTEX
  8
LAYER_1
 10
76.2319
 20
-108.401
  0
VERTEX
  8
LAYER_1
 10
75.9819
 20
-109.901
  0
SEQEND
  0
POLYLINE
  8
LAYER_1
 40
0.0353
 41
0.0353
 66
1
 10
0
 20
0
 30
0
  0
VERTEX
  8
LAYER_1
 10
75.9819
 20
-108.401
  0
VERTEX
  8
LAYER_1
 10
75.9819
 20
-109.901
  0
VERTEX
  8
LAYER_1
 10
75.7319
 20
-108.401
  0
SEQEND
  0
ENDBLK
  0
BLOCK
  8
LAYER_1
  2
AIGNBL0102002D
 70
64
 10
0
 20
0
 30
0
  3
AIGNBL0102002D
  0
POLYLINE
  8
LAYER_1
 40
0.7056
 41
0.7056
 66
1
 10
0
 20
0
 30
0
  0
VERTEX
  8
LAYER_1
 10
86.3588
 20
-74.4231
  0
SEQEND
  0
ENDBLK
  0
BLOCK
  8
LAYER_1
  2
AIGNBL0102002E
 70
64
 10
0
 20
0
 30
0
  3
AIGNBL0102002E
  0
POLYLINE
  8
LAYER_1
 40
0.7056
 41
0.7056
 66
1
 10
0
 20
0
 30
0
  0
VERTEX
  8
LAYER_1
 10
86.3588
 20
-109.901
  0
SEQEND
  0
ENDBLK
  0
BLOCK
  8
LAYER_1
  2
AIGNBL0102002F
 70
64
 10
0
 20
0
 30
0
  3
AIGNBL0102002F
  0
POLYLINE
  8
LAYER_1
 40
0.7056
 41
0.7056
 66
1
 10
0
 20
0
 30
0
  0
VERTEX
  8
LAYER_1
 10
75.9819
 20
-109.901
  0
SEQEND
  0
ENDBLK
  0
BLOCK
  8
LAYER_1
  2
AIGNBL01020031
 70
64
 10
0
 20
0
 30
0
  3
AIGNBL01020031
  0
POLYLINE
  8
LAYER_1
 40
0.0353
 41
0.0353
 66
1
 10
0
 20
0
 30
0
  0
VERTEX
  8
LAYER_1
 10
143.6215
 20
-68.091
  0
VERTEX
  8
LAYER_1
 10
142.1215
 20
-67.841
  0
SEQEND
  0
POLYLINE
  8
LAYER_1
 40
0.0353
 41
0.0353
 66
1
 10
0
 20
0
 30
0
  0
VERTEX
  8
LAYER_1
 10
143.6215
 20
-67.841
  0
VERTEX
  8
LAYER_1
 10
142.1215
 20
-67.841
  0
VERTEX
  8
LAYER_1
 10
143.6215
 20
-67.591
  0
SEQEND
  0
ENDBLK
  0
BLOCK
  8
LAYER_1
  2
AIGNBL01020032
 70
64
 10
0
 20
0
 30
0
  3
AIGNBL01020032
  0
POLYLINE
  8
LAYER_1
 40
0.0353
 41
0.0353
 66
1
 10
0
 20
0
 30
0
  0
VERTEX
  8
LAYER_1
 10
170.2994
 20
-67.591
  0
VERTEX
  8
LAYER_1
 10
171.7994
 20
-67.841
  0
SEQEND
  0
POLYLINE
  8
LAYER_1
 40
0.0353
 41
0.0353
 66
1
 10
0
 20
0
 30
0
  0
VERTEX
  8
LAYER_1
 10
170.2994
 20
-67.841
  0
VERTEX
  8
LAYER_1
 10
171.7994
 20
-67.841
  0
VERTEX
  8
LAYER_1
 10
170.2994
 20
-68.091
  0
SEQEND
  0
ENDBLK
  0
BLOCK
  8
LAYER_1
  2
AIGNBL01020033
 70
64
 10
0
 20
0
 30
0
  3
AIGNBL01020033
  0
POLYLINE
  8
LAYER_1
 40
0.7056
 41
0.7056
 66
1
 10
0
 20
0
 30
0
  0
VERTEX
  8
LAYER_1
 10
142.1215
 20
-90.7839
  0
SEQEND
  0
ENDBLK
  0
BLOCK
  8
LAYER_1
  2
AIGNBL01020034
 70
64
 10
0
 20
0
 30
0
  3
AIGNBL01020034
  0
POLYLINE
  8
LAYER_1
 40
0.7056
 41
0.7056
 66
1
 10
0
 20
0
 30
0
  0
VERTEX
  8
LAYER_1
 10
171.7994
 20
-109.901
  0
SEQEND
  0
ENDBLK
  0
BLOCK
  8
LAYER_1
  2
AIGNBL01020035
 70
64
 10
0
 20
0
 30
0
  3
AIGNBL01020035
  0
POLYLINE
  8
LAYER_1
 40
0.7056
 41
0.7056
 66
1
 10
0
 20
0
 30
0
  0
VERTEX
  8
LAYER_1
 10
171.7994
 20
-67.841
  0
SEQEND
  0
ENDBLK
  0
BLOCK
  8
LAYER_1
  2
AIGNBL01020037
 70
64
 10
0
 20
0
 30
0
  3
AIGNBL01020037
  0
POLYLINE
  8
LAYER_1
 40
0.0353
 41
0.0353
 66
1
 10
0
 20
0
 30
0
  0
VERTEX
  8
LAYER_1
 10
151.0388
 20
-111.401
  0
VERTEX
  8
LAYER_1
 10
151.2888
 20
-109.901
  0
SEQEND
  0
POLYLINE
  8
LAYER_1
 40
0.0353
 41
0.0353
 66
1
 10
0
 20
0
 30
0
  0
VERTEX
  8
LAYER_1
 10
151.2888
 20
-111.401
  0
VERTEX
  8
LAYER_1
 10
151.2888
 20
-109.901
  0
VERTEX
  8
LAYER_1
 10
151.5388
 20
-111.401
  0
SEQEND
  0
ENDBLK
  0
BLOCK
  8
LAYER_1
  2
AIGNBL01020038
 70
64
 10
0
 20
0
 30
0
  3
AIGNBL01020038
  0
POLYLINE
  8
LAYER_1
 40
0.0353
 41
0.0353
 66
1
 10
0
 20
0
 30
0
  0
VERTEX
  8
LAYER_1
 10
151.5388
 20
-113.701
  0
VERTEX
  8
LAYER_1
 10
151.2888
 20
-115.201
  0
SEQEND
  0
POLYLINE
  8
LAYER_1
 40
0.0353
 41
0.0353
 66
1
 10
0
 20
0
 30
0
  0
VERTEX
  8
LAYER_1
 10
151.2888
 20
-113.701
  0
VERTEX
  8
LAYER_1
 10
151.2888
 20
-115.201
  0
VERTEX
  8
LAYER_1
 10
151.0388
 20
-113.701
  0
SEQEND
  0
ENDBLK
  0
BLOCK
  8
LAYER_1
  2
AIGNBL01020039
 70
64
 10
0
 20
0
 30
0
  3
AIGNBL01020039
  0
POLYLINE
  8
LAYER_1
 40
0.7056
 41
0.7056
 66
1
 10
0
 20
0
 30
0
  0
VERTEX
  8
LAYER_1
 10
171.7994
 20
-109.901
  0
SEQEND
  0
ENDBLK
  0
BLOCK
  8
LAYER_1
  2
AIGNBL0102003A
 70
64
 10
0
 20
0
 30
0
  3
AIGNBL0102003A
  0
POLYLINE
  8
LAYER_1
 40
0.7056
 41
0.7056
 66
1
 10
0
 20
0
 30
0
  0
VERTEX
  8
LAYER_1
 10
171.7994
 20
-115.201
  0
SEQEND
  0
ENDBLK
  0
BLOCK
  8
LAYER_1
  2
AIGNBL0102003B
 70
64
 10
0
 20
0
 30
0
  3
AIGNBL0102003B
  0
POLYLINE
  8
LAYER_1
 40
0.7056
 41
0.7056
 66
1
 10
0
 20
0
 30
0
  0
VERTEX
  8
LAYER_1
 10
151.2888
 20
-115.201
  0
SEQEND
  0
ENDBLK
  0
BLOCK
  8
LAYER_1
  2
AIGNBL0102003D
 70
64
 10
0
 20
0
 30
0
  3
AIGNBL0102003D
  0
POLYLINE
  8
LAYER_1
 40
0.0353
 41
0.0353
 66
1
 10
0
 20
0
 30
0
  0
VERTEX
  8
LAYER_1
 10
81.3588
 20
-155.2074
  0
VERTEX
  8
LAYER_1
 10
79.8588
 20
-154.9574
  0
SEQEND
  0
POLYLINE
  8
LAYER_1
 40
0.0353
 41
0.0353
 66
1
 10
0
 20
0
 30
0
  0
VERTEX
  8
LAYER_1
 10
81.3588
 20
-154.9574
  0
VERTEX
  8
LAYER_1
 10
79.8588
 20
-154.9574
  0
VERTEX
  8
LAYER_1
 10
81.3588
 20
-154.7074
  0
SEQEND
  0
ENDBLK
  0
BLOCK
  8
LAYER_1
  2
AIGNBL0102003E
 70
64
 10
0
 20
0
 30
0
  3
AIGNBL0102003E
  0
POLYLINE
  8
LAYER_1
 40
0.0353
 41
0.0353
 66
1
 10
0
 20
0
 30
0
  0
VERTEX
  8
LAYER_1
 10
91.3588
 20
-154.7074
  0
VERTEX
  8
LAYER_1
 10
92.8588
 20
-154.9574
  0
SEQEND
  0
POLYLINE
  8
LAYER_1
 40
0.0353
 41
0.0353
 66
1
 10
0
 20
0
 30
0
  0
VERTEX
  8
LAYER_1
 10
91.3588
 20
-154.9574
  0
VERTEX
  8
LAYER_1
 10
92.8588
 20
-154.9574
  0
VERTEX
  8
LAYER_1
 10
91.3588
 20
-155.2074
  0
SEQEND
  0
ENDBLK
  0
BLOCK
  8
LAYER_1
  2
AIGNBL0102003F
 70
64
 10
0
 20
0
 30
0
  3
AIGNBL0102003F
  0
POLYLINE
  8
LAYER_1
 40
0.7056
 41
0.7056
 66
1
 10
0
 20
0
 30
0
  0
VERTEX
  8
LAYER_1
 10
79.8588
 20
-164.3306
  0
SEQEND
  0
ENDBLK
  0
BLOCK
  8
LAYER_1
  2
AIGNBL01020040
 70
64
 10
0
 20
0
 30
0
  3
AIGNBL01020040
  0
POLYLINE
  8
LAYER_1
 40
0.7056
 41
0.7056
 66
1
 10
0
 20
0
 30
0
  0
VERTEX
  8
LAYER_1
 10
92.8588
 20
-164.3306
  0
SEQEND
  0
ENDBLK
  0
BLOCK
  8
LAYER_1
  2
AIGNBL01020041
 70
64
 10
0
 20
0
 30
0
  3
AIGNBL01020041
  0
POLYLINE
  8
LAYER_1
 40
0.7056
 41
0.7056
 66
1
 10
0
 20
0
 30
0
  0
VERTEX
  8
LAYER_1
 10
92.8588
 20
-154.9574
  0
SEQEND
  0
ENDBLK
  0
BLOCK
  8
LAYER_1
  2
AIGNBL01020043
 70
64
 10
0
 20
0
 30
0
  3
AIGNBL01020043
  0
POLYLINE
  8
LAYER_1
 40
0.0353
 41
0.0353
 66
1
 10
0
 20
0
 30
0
  0
VERTEX
  8
LAYER_1
 10
75.7242
 20
-180.6307
  0
VERTEX
  8
LAYER_1
 10
75.4742
 20
-182.1307
  0
SEQEND
  0
POLYLINE
  8
LAYER_1
 40
0.0353
 41
0.0353
 66
1
 10
0
 20
0
 30
0
  0
VERTEX
  8
LAYER_1
 10
75.4742
 20
-180.6307
  0
VERTEX
  8
LAYER_1
 10
75.4742
 20
-182.1307
  0
VERTEX
  8
LAYER_1
 10
75.2242
 20
-180.6307
  0
SEQEND
  0
ENDBLK
  0
BLOCK
  8
LAYER_1
  2
AIGNBL01020044
 70
64
 10
0
 20
0
 30
0
  3
AIGNBL01020044
  0
POLYLINE
  8
LAYER_1
 40
0.0353
 41
0.0353
 66
1
 10
0
 20
0
 30
0
  0
VERTEX
  8
LAYER_1
 10
75.2242
 20
-165.3307
  0
VERTEX
  8
LAYER_1
 10
75.4742
 20
-163.8307
  0
SEQEND
  0
POLYLINE
  8
LAYER_1
 40
0.0353
 41
0.0353
 66
1
 10
0
 20
0
 30
0
  0
VERTEX
  8
LAYER_1
 10
75.4742
 20
-165.3307
  0
VERTEX
  8
LAYER_1
 10
75.4742
 20
-163.8307
  0
VERTEX
  8
LAYER_1
 10
75.7242
 20
-165.3307
  0
SEQEND
  0
ENDBLK
  0
BLOCK
  8
LAYER_1
  2
AIGNBL01020045
 70
64
 10
0
 20
0
 30
0
  3
AIGNBL01020045
  0
POLYLINE
  8
LAYER_1
 40
0.7056
 41
0.7056
 66
1
 10
0
 20
0
 30
0
  0
VERTEX
  8
LAYER_1
 10
80.3587
 20
-182.1307
  0
SEQEND
  0
ENDBLK
  0
BLOCK
  8
LAYER_1
  2
AIGNBL01020046
 70
64
 10
0
 20
0
 30
0
  3
AIGNBL01020046
  0
POLYLINE
  8
LAYER_1
 40
0.7056
 41
0.7056
 66
1
 10
0
 20
0
 30
0
  0
VERTEX
  8
LAYER_1
 10
80.3587
 20
-163.8307
  0
SEQEND
  0
ENDBLK
  0
BLOCK
  8
LAYER_1
  2
AIGNBL01020047
 70
64
 10
0
 20
0
 30
0
  3
AIGNBL01020047
  0
POLYLINE
  8
LAYER_1
 40
0.7056
 41
0.7056
 66
1
 10
0
 20
0
 30
0
  0
VERTEX
  8
LAYER_1
 10
75.4742
 20
-163.8307
  0
SEQEND
  0
ENDBLK
  0
BLOCK
  8
LAYER_1
  2
AIGNBL01020049
 70
64
 10
0
 20
0
 30
0
  3
AIGNBL01020049
  0
POLYLINE
  8
LAYER_1
 40
0.0353
 41
0.0353
 66
1
 10
0
 20
0
 30
0
  0
VERTEX
  8
LAYER_1
 10
68.7159
 20
-163.4307
  0
VERTEX
  8
LAYER_1
 10
68.9659
 20
-161.9307
  0
SEQEND
  0
POLYLINE
  8
LAYER_1
 40
0.0353
 41
0.0353
 66
1
 10
0
 20
0
 30
0
  0
VERTEX
  8
LAYER_1
 10
68.9659
 20
-163.4307
  0
VERTEX
  8
LAYER_1
 10
68.9659
 20
-161.9307
  0
VERTEX
  8
LAYER_1
 10
69.2159
 20
-163.4307
  0
SEQEND
  0
ENDBLK
  0
BLOCK
  8
LAYER_1
  2
AIGNBL0102004A
 70
64
 10
0
 20
0
 30
0
  3
AIGNBL0102004A
  0
POLYLINE
  8
LAYER_1
 40
0.0353
 41
0.0353
 66
1
 10
0
 20
0
 30
0
  0
VERTEX
  8
LAYER_1
 10
69.2159
 20
-180.6307
  0
VERTEX
  8
LAYER_1
 10
68.9659
 20
-182.1307
  0
SEQEND
  0
POLYLINE
  8
LAYER_1
 40
0.0353
 41
0.0353
 66
1
 10
0
 20
0
 30
0
  0
VERTEX
  8
LAYER_1
 10
68.9659
 20
-180.6307
  0
VERTEX
  8
LAYER_1
 10
68.9659
 20
-182.1307
  0
VERTEX
  8
LAYER_1
 10
68.7159
 20
-180.6307
  0
SEQEND
  0
ENDBLK
  0
BLOCK
  8
LAYER_1
  2
AIGNBL0102004B
 70
64
 10
0
 20
0
 30
0
  3
AIGNBL0102004B
  0
POLYLINE
  8
LAYER_1
 40
0.7056
 41
0.7056
 66
1
 10
0
 20
0
 30
0
  0
VERTEX
  8
LAYER_1
 10
84.129
 20
-161.9307
  0
SEQEND
  0
ENDBLK
  0
BLOCK
  8
LAYER_1
  2
AIGNBL0102004C
 70
64
 10
0
 20
0
 30
0
  3
AIGNBL0102004C
  0
POLYLINE
  8
LAYER_1
 40
0.7056
 41
0.7056
 66
1
 10
0
 20
0
 30
0
  0
VERTEX
  8
LAYER_1
 10
80.3587
 20
-182.1307
  0
SEQEND
  0
ENDBLK
  0
BLOCK
  8
LAYER_1
  2
AIGNBL0102004D
 70
64
 10
0
 20
0
 30
0
  3
AIGNBL0102004D
  0
POLYLINE
  8
LAYER_1
 40
0.7056
 41
0.7056
 66
1
 10
0
 20
0
 30
0
  0
VERTEX
  8
LAYER_1
 10
68.9659
 20
-182.1307
  0
SEQEND
  0
ENDBLK
  0
BLOCK
  8
LAYER_1
  2
AIGNBL0102004F
 70
64
 10
0
 20
0
 30
0
  3
AIGNBL0102004F
  0
POLYLINE
  8
LAYER_1
 40
0.0353
 41
0.0353
 66
1
 10
0
 20
0
 30
0
  0
VERTEX
  8
LAYER_1
 10
169.7694
 20
-158.0591
  0
VERTEX
  8
LAYER_1
 10
171.2694
 20
-158.3091
  0
SEQEND
  0
POLYLINE
  8
LAYER_1
 40
0.0353
 41
0.0353
 66
1
 10
0
 20
0
 30
0
  0
VERTEX
  8
LAYER_1
 10
169.7694
 20
-158.3091
  0
VERTEX
  8
LAYER_1
 10
171.2694
 20
-158.3091
  0
VERTEX
  8
LAYER_1
 10
169.7694
 20
-158.5591
  0
SEQEND
  0
ENDBLK
  0
BLOCK
  8
LAYER_1
  2
AIGNBL01020050
 70
64
 10
0
 20
0
 30
0
  3
AIGNBL01020050
  0
POLYLINE
  8
LAYER_1
 40
0.0353
 41
0.0353
 66
1
 10
0
 20
0
 30
0
  0
VERTEX
  8
LAYER_1
 10
167.9694
 20
-158.5591
  0
VERTEX
  8
LAYER_1
 10
166.4694
 20
-158.3091
  0
SEQEND
  0
POLYLINE
  8
LAYER_1
 40
0.0353
 41
0.0353
 66
1
 10
0
 20
0
 30
0
  0
VERTEX
  8
LAYER_1
 10
167.9694
 20
-158.3091
  0
VERTEX
  8
LAYER_1
 10
166.4694
 20
-158.3091
  0
VERTEX
  8
LAYER_1
 10
167.9694
 20
-158.0591
  0
SEQEND
  0
ENDBLK
  0
BLOCK
  8
LAYER_1
  2
AIGNBL01020051
 70
64
 10
0
 20
0
 30
0
  3
AIGNBL01020051
  0
POLYLINE
  8
LAYER_1
 40
0.7056
 41
0.7056
 66
1
 10
0
 20
0
 30
0
  0
VERTEX
  8
LAYER_1
 10
171.2694
 20
-163.9782
  0
SEQEND
  0
ENDBLK
  0
BLOCK
  8
LAYER_1
  2
AIGNBL01020052
 70
64
 10
0
 20
0
 30
0
  3
AIGNBL01020052
  0
POLYLINE
  8
LAYER_1
 40
0.7056
 41
0.7056
 66
1
 10
0
 20
0
 30
0
  0
VERTEX
  8
LAYER_1
 10
166.4694
 20
-164.5157
  0
SEQEND
  0
ENDBLK
  0
BLOCK
  8
LAYER_1
  2
AIGNBL01020053
 70
64
 10
0
 20
0
 30
0
  3
AIGNBL01020053
  0
POLYLINE
  8
LAYER_1
 40
0.7056
 41
0.7056
 66
1
 10
0
 20
0
 30
0
  0
VERTEX
  8
LAYER_1
 10
166.4694
 20
-158.3091
  0
SEQEND
  0
ENDBLK
  0
BLOCK
  8
LAYER_1
  2
AIGNBL01020055
 70
64
 10
0
 20
0
 30
0
  3
AIGNBL01020055
  0
POLYLINE
  8
LAYER_1
 40
0.0353
 41
0.0353
 66
1
 10
0
 20
0
 30
0
  0
VERTEX
  8
LAYER_1
 10
181.7694
 20
-150.9576
  0
VERTEX
  8
LAYER_1
 10
183.2694
 20
-151.2076
  0
SEQEND
  0
POLYLINE
  8
LAYER_1
 40
0.0353
 41
0.0353
 66
1
 10
0
 20
0
 30
0
  0
VERTEX
  8
LAYER_1
 10
181.7694
 20
-151.2076
  0
VERTEX
  8
LAYER_1
 10
183.2694
 20
-151.2076
  0
VERTEX
  8
LAYER_1
 10
181.7694
 20
-151.4576
  0
SEQEND
  0
ENDBLK
  0
BLOCK
  8
LAYER_1
  2
AIGNBL01020056
 70
64
 10
0
 20
0
 30
0
  3
AIGNBL01020056
  0
POLYLINE
  8
LAYER_1
 40
0.0353
 41
0.0353
 66
1
 10
0
 20
0
 30
0
  0
VERTEX
  8
LAYER_1
 10
167.9694
 20
-151.4576
  0
VERTEX
  8
LAYER_1
 10
166.4694
 20
-151.2076
  0
SEQEND
  0
POLYLINE
  8
LAYER_1
 40
0.0353
 41
0.0353
 66
1
 10
0
 20
0
 30
0
  0
VERTEX
  8
LAYER_1
 10
167.9694
 20
-151.2076
  0
VERTEX
  8
LAYER_1
 10
166.4694
 20
-151.2076
  0
VERTEX
  8
LAYER_1
 10
167.9694
 20
-150.9576
  0
SEQEND
  0
ENDBLK
  0
BLOCK
  8
LAYER_1
  2
AIGNBL01020057
 70
64
 10
0
 20
0
 30
0
  3
AIGNBL01020057
  0
POLYLINE
  8
LAYER_1
 40
0.7056
 41
0.7056
 66
1
 10
0
 20
0
 30
0
  0
VERTEX
  8
LAYER_1
 10
183.2694
 20
-163.8734
  0
SEQEND
  0
ENDBLK
  0
BLOCK
  8
LAYER_1
  2
AIGNBL01020058
 70
64
 10
0
 20
0
 30
0
  3
AIGNBL01020058
  0
POLYLINE
  8
LAYER_1
 40
0.7056
 41
0.7056
 66
1
 10
0
 20
0
 30
0
  0
VERTEX
  8
LAYER_1
 10
166.4694
 20
-164.5157
  0
SEQEND
  0
ENDBLK
  0
BLOCK
  8
LAYER_1
  2
AIGNBL01020059
 70
64
 10
0
 20
0
 30
0
  3
AIGNBL01020059
  0
POLYLINE
  8
LAYER_1
 40
0.7056
 41
0.7056
 66
1
 10
0
 20
0
 30
0
  0
VERTEX
  8
LAYER_1
 10
166.4694
 20
-151.2076
  0
SEQEND
  0
ENDBLK
  0
BLOCK
  8
LAYER_1
  2
AIGNBL0102005B
 70
64
 10
0
 20
0
 30
0
  3
AIGNBL0102005B
  0
POLYLINE
  8
LAYER_1
 40
0.0353
 41
0.0353
 66
1
 10
0
 20
0
 30
0
  0
VERTEX
  8
LAYER_1
 10
172.7694
 20
-158.5591
  0
VERTEX
  8
LAYER_1
 10
171.2694
 20
-158.3091
  0
SEQEND
  0
POLYLINE
  8
LAYER_1
 40
0.0353
 41
0.0353
 66
1
 10
0
 20
0
 30
0
  0
VERTEX
  8
LAYER_1
 10
172.7694
 20
-158.3091
  0
VERTEX
  8
LAYER_1
 10
171.2694
 20
-158.3091
  0
VERTEX
  8
LAYER_1
 10
172.7694
 20
-158.0591
  0
SEQEND
  0
ENDBLK
  0
BLOCK
  8
LAYER_1
  2
AIGNBL0102005C
 70
64
 10
0
 20
0
 30
0
  3
AIGNBL0102005C
  0
POLYLINE
  8
LAYER_1
 40
0.0353
 41
0.0353
 66
1
 10
0
 20
0
 30
0
  0
VERTEX
  8
LAYER_1
 10
181.7694
 20
-158.0591
  0
VERTEX
  8
LAYER_1
 10
183.2694
 20
-158.3091
  0
SEQEND
  0
POLYLINE
  8
LAYER_1
 40
0.0353
 41
0.0353
 66
1
 10
0
 20
0
 30
0
  0
VERTEX
  8
LAYER_1
 10
181.7694
 20
-158.3091
  0
VERTEX
  8
LAYER_1
 10
183.2694
 20
-158.3091
  0
VERTEX
  8
LAYER_1
 10
181.7694
 20
-158.5591
  0
SEQEND
  0
ENDBLK
  0
BLOCK
  8
LAYER_1
  2
AIGNBL0102005D
 70
64
 10
0
 20
0
 30
0
  3
AIGNBL0102005D
  0
POLYLINE
  8
LAYER_1
 40
0.7056
 41
0.7056
 66
1
 10
0
 20
0
 30
0
  0
VERTEX
  8
LAYER_1
 10
183.2694
 20
-163.8734
  0
SEQEND
  0
ENDBLK
  0
BLOCK
  8
LAYER_1
  2
AIGNBL0102005E
 70
64
 10
0
 20
0
 30
0
  3
AIGNBL0102005E
  0
POLYLINE
  8
LAYER_1
 40
0.7056
 41
0.7056
 66
1
 10
0
 20
0
 30
0
  0
VERTEX
  8
LAYER_1
 10
171.2694
 20
-163.9782
  0
SEQEND
  0
ENDBLK
  0
BLOCK
  8
LAYER_1
  2
AIGNBL0102005F
 70
64
 10
0
 20
0
 30
0
  3
AIGNBL0102005F
  0
POLYLINE
  8
LAYER_1
 40
0.7056
 41
0.7056
 66
1
 10
0
 20
0
 30
0
  0
VERTEX
  8
LAYER_1
 10
171.2694
 20
-158.3091
  0
SEQEND
  0
ENDBLK
  0
BLOCK
  8
LAYER_1
  2
AIGNBL01020061
 70
64
 10
0
 20
0
 30
0
  3
AIGNBL01020061
  0
POLYLINE
  8
LAYER_1
 40
0.0353
 41
0.0353
 66
1
 10
0
 20
0
 30
0
  0
VERTEX
  8
LAYER_1
 10
154.5796
 20
-187.8534
  0
VERTEX
  8
LAYER_1
 10
154.3296
 20
-189.3534
  0
SEQEND
  0
POLYLINE
  8
LAYER_1
 40
0.0353
 41
0.0353
 66
1
 10
0
 20
0
 30
0
  0
VERTEX
  8
LAYER_1
 10
154.3296
 20
-187.8534
  0
VERTEX
  8
LAYER_1
 10
154.3296
 20
-189.3534
  0
VERTEX
  8
LAYER_1
 10
154.0796
 20
-187.8534
  0
SEQEND
  0
ENDBLK
  0
BLOCK
  8
LAYER_1
  2
AIGNBL01020062
 70
64
 10
0
 20
0
 30
0
  3
AIGNBL01020062
  0
POLYLINE
  8
LAYER_1
 40
0.0353
 41
0.0353
 66
1
 10
0
 20
0
 30
0
  0
VERTEX
  8
LAYER_1
 10
154.0796
 20
-163.5223
  0
VERTEX
  8
LAYER_1
 10
154.3296
 20
-162.0223
  0
SEQEND
  0
POLYLINE
  8
LAYER_1
 40
0.0353
 41
0.0353
 66
1
 10
0
 20
0
 30
0
  0
VERTEX
  8
LAYER_1
 10
154.3296
 20
-163.5223
  0
VERTEX
  8
LAYER_1
 10
154.3296
 20
-162.0223
  0
VERTEX
  8
LAYER_1
 10
154.5796
 20
-163.5223
  0
SEQEND
  0
ENDBLK
  0
BLOCK
  8
LAYER_1
  2
AIGNBL01020063
 70
64
 10
0
 20
0
 30
0
  3
AIGNBL01020063
  0
POLYLINE
  8
LAYER_1
 40
0.7056
 41
0.7056
 66
1
 10
0
 20
0
 30
0
  0
VERTEX
  8
LAYER_1
 10
172.2972
 20
-189.3534
  0
SEQEND
  0
ENDBLK
  0
BLOCK
  8
LAYER_1
  2
AIGNBL01020064
 70
64
 10
0
 20
0
 30
0
  3
AIGNBL01020064
  0
POLYLINE
  8
LAYER_1
 40
0.7056
 41
0.7056
 66
1
 10
0
 20
0
 30
0
  0
VERTEX
  8
LAYER_1
 10
169.065
 20
-162.0223
  0
SEQEND
  0
ENDBLK
  0
BLOCK
  8
LAYER_1
  2
AIGNBL01020065
 70
64
 10
0
 20
0
 30
0
  3
AIGNBL01020065
  0
POLYLINE
  8
LAYER_1
 40
0.7056
 41
0.7056
 66
1
 10
0
 20
0
 30
0
  0
VERTEX
  8
LAYER_1
 10
154.3296
 20
-162.0223
  0
SEQEND
  0
ENDBLK
  0
BLOCK
  8
LAYER_1
  2
AIGNBL01020067
 70
64
 10
0
 20
0
 30
0
  3
AIGNBL01020067
  0
POLYLINE
  8
LAYER_1
 40
0.0353
 41
0.0353
 66
1
 10
0
 20
0
 30
0
  0
VERTEX
  8
LAYER_1
 10
169.7694
 20
-201.1879
  0
VERTEX
  8
LAYER_1
 10
171.2694
 20
-201.4379
  0
SEQEND
  0
POLYLINE
  8
LAYER_1
 40
0.0353
 41
0.0353
 66
1
 10
0
 20
0
 30
0
  0
VERTEX
  8
LAYER_1
 10
169.7694
 20
-201.4379
  0
VERTEX
  8
LAYER_1
 10
171.2694
 20
-201.4379
  0
VERTEX
  8
LAYER_1
 10
169.7694
 20
-201.6879
  0
SEQEND
  0
ENDBLK
  0
BLOCK
  8
LAYER_1
  2
AIGNBL01020068
 70
64
 10
0
 20
0
 30
0
  3
AIGNBL01020068
  0
POLYLINE
  8
LAYER_1
 40
0.0353
 41
0.0353
 66
1
 10
0
 20
0
 30
0
  0
VERTEX
  8
LAYER_1
 10
176.4694
 20
-201.6879
  0
VERTEX
  8
LAYER_1
 10
174.9694
 20
-201.4379
  0
SEQEND
  0
POLYLINE
  8
LAYER_1
 40
0.0353
 41
0.0353
 66
1
 10
0
 20
0
 30
0
  0
VERTEX
  8
LAYER_1
 10
176.4694
 20
-201.4379
  0
VERTEX
  8
LAYER_1
 10
174.9694
 20
-201.4379
  0
VERTEX
  8
LAYER_1
 10
176.4694
 20
-201.1879
  0
SEQEND
  0
ENDBLK
  0
BLOCK
  8
LAYER_1
  2
AIGNBL01020069
 70
64
 10
0
 20
0
 30
0
  3
AIGNBL01020069
  0
POLYLINE
  8
LAYER_1
 40
0.7056
 41
0.7056
 66
1
 10
0
 20
0
 30
0
  0
VERTEX
  8
LAYER_1
 10
171.2694
 20
-182.0687
  0
SEQEND
  0
ENDBLK
  0
BLOCK
  8
LAYER_1
  2
AIGNBL0102006A
 70
64
 10
0
 20
0
 30
0
  3
AIGNBL0102006A
  0
POLYLINE
  8
LAYER_1
 40
0.7056
 41
0.7056
 66
1
 10
0
 20
0
 30
0
  0
VERTEX
  8
LAYER_1
 10
174.9694
 20
-182.1534
  0
SEQEND
  0
ENDBLK
  0
BLOCK
  8
LAYER_1
  2
AIGNBL0102006B
 70
64
 10
0
 20
0
 30
0
  3
AIGNBL0102006B
  0
POLYLINE
  8
LAYER_1
 40
0.7056
 41
0.7056
 66
1
 10
0
 20
0
 30
0
  0
VERTEX
  8
LAYER_1
 10
174.9694
 20
-201.4379
  0
SEQEND
  0
ENDBLK
  0
BLOCK
  8
LAYER_1
  2
AIGNBL0102006D
 70
64
 10
0
 20
0
 30
0
  3
AIGNBL0102006D
  0
POLYLINE
  8
LAYER_1
 40
0.0353
 41
0.0353
 66
1
 10
0
 20
0
 30
0
  0
VERTEX
  8
LAYER_1
 10
134.1375
 20
-111.401
  0
VERTEX
  8
LAYER_1
 10
134.3875
 20
-109.901
  0
SEQEND
  0
POLYLINE
  8
LAYER_1
 40
0.0353
 41
0.0353
 66
1
 10
0
 20
0
 30
0
  0
VERTEX
  8
LAYER_1
 10
134.3875
 20
-111.401
  0
VERTEX
  8
LAYER_1
 10
134.3875
 20
-109.901
  0
VERTEX
  8
LAYER_1
 10
134.6375
 20
-111.401
  0
SEQEND
  0
ENDBLK
  0
BLOCK
  8
LAYER_1
  2
AIGNBL0102006E
 70
64
 10
0
 20
0
 30
0
  3
AIGNBL0102006E
  0
POLYLINE
  8
LAYER_1
 40
0.0353
 41
0.0353
 66
1
 10
0
 20
0
 30
0
  0
VERTEX
  8
LAYER_1
 10
134.6375
 20
-117.501
  0
VERTEX
  8
LAYER_1
 10
134.3875
 20
-119.001
  0
SEQEND
  0
POLYLINE
  8
LAYER_1
 40
0.0353
 41
0.0353
 66
1
 10
0
 20
0
 30
0
  0
VERTEX
  8
LAYER_1
 10
134.3875
 20
-117.501
  0
VERTEX
  8
LAYER_1
 10
134.3875
 20
-119.001
  0
VERTEX
  8
LAYER_1
 10
134.1375
 20
-117.501
  0
SEQEND
  0
ENDBLK
  0
BLOCK
  8
LAYER_1
  2
AIGNBL0102006F
 70
64
 10
0
 20
0
 30
0
  3
AIGNBL0102006F
  0
POLYLINE
  8
LAYER_1
 40
0.7056
 41
0.7056
 66
1
 10
0
 20
0
 30
0
  0
VERTEX
  8
LAYER_1
 10
170.0039
 20
-119.001
  0
SEQEND
  0
ENDBLK
  0
BLOCK
  8
LAYER_1
  2
AIGNBL01020070
 70
64
 10
0
 20
0
 30
0
  3
AIGNBL01020070
  0
POLYLINE
  8
LAYER_1
 40
0.7056
 41
0.7056
 66
1
 10
0
 20
0
 30
0
  0
VERTEX
  8
LAYER_1
 10
171.7994
 20
-109.901
  0
SEQEND
  0
ENDBLK
  0
BLOCK
  8
LAYER_1
  2
AIGNBL01020071
 70
64
 10
0
 20
0
 30
0
  3
AIGNBL01020071
  0
POLYLINE
  8
LAYER_1
 40
0.7056
 41
0.7056
 66
1
 10
0
 20
0
 30
0
  0
VERTEX
  8
LAYER_1
 10
134.3875
 20
-109.901
  0
SEQEND
  0
ENDBLK
  0
BLOCK
  8
LAYER_1
  2
AIGNBL01020073
 70
64
 10
0
 20
0
 30
0
  3
AIGNBL01020073
  0
POLYLINE
  8
LAYER_1
 40
0.0353
 41
0.0353
 66
1
 10
0
 20
0
 30
0
  0
VERTEX
  8
LAYER_1
 10
83.9588
 20
-111.4228
  0
VERTEX
  8
LAYER_1
 10
82.4588
 20
-111.1728
  0
SEQEND
  0
POLYLINE
  8
LAYER_1
 40
0.0353
 41
0.0353
 66
1
 10
0
 20
0
 30
0
  0
VERTEX
  8
LAYER_1
 10
83.9588
 20
-111.1728
  0
VERTEX
  8
LAYER_1
 10
82.4588
 20
-111.1728
  0
VERTEX
  8
LAYER_1
 10
83.9588
 20
-110.9228
  0
SEQEND
  0
ENDBLK
  0
BLOCK
  8
LAYER_1
  2
AIGNBL01020074
 70
64
 10
0
 20
0
 30
0
  3
AIGNBL01020074
  0
POLYLINE
  8
LAYER_1
 40
0.0353
 41
0.0353
 66
1
 10
0
 20
0
 30
0
  0
VERTEX
  8
LAYER_1
 10
88.7588
 20
-110.9228
  0
VERTEX
  8
LAYER_1
 10
90.2588
 20
-111.1728
  0
SEQEND
  0
POLYLINE
  8
LAYER_1
 40
0.0353
 41
0.0353
 66
1
 10
0
 20
0
 30
0
  0
VERTEX
  8
LAYER_1
 10
88.7588
 20
-111.1728
  0
VERTEX
  8
LAYER_1
 10
90.2588
 20
-111.1728
  0
VERTEX
  8
LAYER_1
 10
88.7588
 20
-111.4228
  0
SEQEND
  0
ENDBLK
  0
BLOCK
  8
LAYER_1
  2
AIGNBL01020075
 70
64
 10
0
 20
0
 30
0
  3
AIGNBL01020075
  0
POLYLINE
  8
LAYER_1
 40
0.7056
 41
0.7056
 66
1
 10
0
 20
0
 30
0
  0
VERTEX
  8
LAYER_1
 10
82.4588
 20
-109.841
  0
SEQEND
  0
ENDBLK
  0
BLOCK
  8
LAYER_1
  2
AIGNBL01020076
 70
64
 10
0
 20
0
 30
0
  3
AIGNBL01020076
  0
POLYLINE
  8
LAYER_1
 40
0.7056
 41
0.7056
 66
1
 10
0
 20
0
 30
0
  0
VERTEX
  8
LAYER_1
 10
90.2588
 20
-109.841
  0
SEQEND
  0
ENDBLK
  0
BLOCK
  8
LAYER_1
  2
AIGNBL01020077
 70
64
 10
0
 20
0
 30
0
  3
AIGNBL01020077
  0
POLYLINE
  8
LAYER_1
 40
0.7056
 41
0.7056
 66
1
 10
0
 20
0
 30
0
  0
VERTEX
  8
LAYER_1
 10
90.2588
 20
-111.1728
  0
SEQEND
  0
ENDBLK
  0
BLOCK
  8
LAYER_1
  2
AIGNBL01020079
 70
64
 10
0
 20
0
 30
0
  3
AIGNBL01020079
  0
POLYLINE
  8
LAYER_1
 40
0.0353
 41
0.0353
 66
1
 10
0
 20
0
 30
0
  0
VERTEX
  8
LAYER_1
 10
141.0715
 20
-97.4648
  0
VERTEX
  8
LAYER_1
 10
142.2223
 20
-98.4588
  0
SEQEND
  0
POLYLINE
  8
LAYER_1
 40
0.0353
 41
0.0353
 66
1
 10
0
 20
0
 30
0
  0
VERTEX
  8
LAYER_1
 10
140.9414
 20
-97.6783
  0
VERTEX
  8
LAYER_1
 10
142.2223
 20
-98.4588
  0
VERTEX
  8
LAYER_1
 10
140.8113
 20
-97.8918
  0
SEQEND
  0
ENDBLK
  0
BLOCK
  8
LAYER_1
  2
AIGNBL0102007A
 70
64
 10
0
 20
0
 30
0
  3
AIGNBL0102007A
  0
POLYLINE
  8
LAYER_1
 40
0.0353
 41
0.0353
 66
1
 10
0
 20
0
 30
0
  0
VERTEX
  8
LAYER_1
 10
146.6033
 20
-99.1758
  0
VERTEX
  8
LAYER_1
 10
145.0848
 20
-99.0934
  0
SEQEND
  0
POLYLINE
  8
LAYER_1
 40
0.0353
 41
0.0353
 66
1
 10
0
 20
0
 30
0
  0
VERTEX
  8
LAYER_1
 10
146.5756
 20
-98.9273
  0
VERTEX
  8
LAYER_1
 10
145.0848
 20
-99.0934
  0
VERTEX
  8
LAYER_1
 10
146.5479
 20
-98.6789
  0
SEQEND
  0
ENDBLK
  0
BLOCK
  8
LAYER_1
  2
AIGNBL0102007B
 70
64
 10
0
 20
0
 30
0
  3
AIGNBL0102007B
  0
POLYLINE
  8
LAYER_1
 40
0.7056
 41
0.7056
 66
1
 10
0
 20
0
 30
0
  0
VERTEX
  8
LAYER_1
 10
143.1422
 20
-98.8089
  0
SEQEND
  0
ENDBLK
  0
BLOCK
  8
LAYER_1
  2
AIGNBL0102007C
 70
64
 10
0
 20
0
 30
0
  3
AIGNBL0102007C
  0
POLYLINE
  8
LAYER_1
 40
0.7056
 41
0.7056
 66
1
 10
0
 20
0
 30
0
  0
VERTEX
  8
LAYER_1
 10
145.0848
 20
-92.3202
  0
SEQEND
  0
ENDBLK
  0
BLOCK
  8
LAYER_1
  2
AIGNBL0102007D
 70
64
 10
0
 20
0
 30
0
  3
AIGNBL0102007D
  0
POLYLINE
  8
LAYER_1
 40
0.7056
 41
0.7056
 66
1
 10
0
 20
0
 30
0
  0
VERTEX
  8
LAYER_1
 10
144.6405
 20
-93.2731
  0
SEQEND
  0
ENDBLK
  0
BLOCK
  8
LAYER_1
  2
AIGNBL0102007E
 70
64
 10
0
 20
0
 30
0
  3
AIGNBL0102007E
  0
POLYLINE
  8
LAYER_1
 40
0.7056
 41
0.7056
 66
1
 10
0
 20
0
 30
0
  0
VERTEX
  8
LAYER_1
 10
145.5131
 20
-91.4018
  0
SEQEND
  0
ENDBLK
  0
BLOCK
  8
LAYER_1
  2
AIGNBL0102007F
 70
64
 10
0
 20
0
 30
0
  3
AIGNBL0102007F
  0
POLYLINE
  8
LAYER_1
 40
0.7056
 41
0.7056
 66
1
 10
0
 20
0
 30
0
  0
VERTEX
  8
LAYER_1
 10
145.0848
 20
-92.3955
  0
SEQEND
  0
ENDBLK
  0
BLOCK
  8
LAYER_1
  2
AIGNBL01020081
 70
64
 10
0
 20
0
 30
0
  3
AIGNBL01020081
  0
POLYLINE
  8
LAYER_1
 40
0.0353
 41
0.0353
 66
1
 10
0
 20
0
 30
0
  0
VERTEX
  8
LAYER_1
 10
146.5848
 20
-102.9804
  0
VERTEX
  8
LAYER_1
 10
145.0848
 20
-102.7304
  0
SEQEND
  0
POLYLINE
  8
LAYER_1
 40
0.0353
 41
0.0353
 66
1
 10
0
 20
0
 30
0
  0
VERTEX
  8
LAYER_1
 10
146.5848
 20
-102.7304
  0
VERTEX
  8
LAYER_1
 10
145.0848
 20
-102.7304
  0
VERTEX
  8
LAYER_1
 10
146.5848
 20
-102.4804
  0
SEQEND
  0
ENDBLK
  0
BLOCK
  8
LAYER_1
  2
AIGNBL01020082
 70
64
 10
0
 20
0
 30
0
  3
AIGNBL01020082
  0
POLYLINE
  8
LAYER_1
 40
0.0353
 41
0.0353
 66
1
 10
0
 20
0
 30
0
  0
VERTEX
  8
LAYER_1
 10
170.2994
 20
-102.4804
  0
VERTEX
  8
LAYER_1
 10
171.7994
 20
-102.7304
  0
SEQEND
  0
POLYLINE
  8
LAYER_1
 40
0.0353
 41
0.0353
 66
1
 10
0
 20
0
 30
0
  0
VERTEX
  8
LAYER_1
 10
170.2994
 20
-102.7304
  0
VERTEX
  8
LAYER_1
 10
171.7994
 20
-102.7304
  0
VERTEX
  8
LAYER_1
 10
170.2994
 20
-102.9804
  0
SEQEND
  0
ENDBLK
  0
BLOCK
  8
LAYER_1
  2
AIGNBL01020083
 70
64
 10
0
 20
0
 30
0
  3
AIGNBL01020083
  0
POLYLINE
  8
LAYER_1
 40
0.7056
 41
0.7056
 66
1
 10
0
 20
0
 30
0
  0
VERTEX
  8
LAYER_1
 10
145.0848
 20
-92.3202
  0
SEQEND
  0
ENDBLK
  0
BLOCK
  8
LAYER_1
  2
AIGNBL01020084
 70
64
 10
0
 20
0
 30
0
  3
AIGNBL01020084
  0
POLYLINE
  8
LAYER_1
 40
0.7056
 41
0.7056
 66
1
 10
0
 20
0
 30
0
  0
VERTEX
  8
LAYER_1
 10
171.7994
 20
-109.901
  0
SEQEND
  0
ENDBLK
  0
BLOCK
  8
LAYER_1
  2
AIGNBL01020085
 70
64
 10
0
 20
0
 30
0
  3
AIGNBL01020085
  0
POLYLINE
  8
LAYER_1
 40
0.7056
 41
0.7056
 66
1
 10
0
 20
0
 30
0
  0
VERTEX
  8
LAYER_1
 10
171.7994
 20
-102.7304
  0
SEQEND
  0
ENDBLK
  0
BLOCK
  8
LAYER_1
  2
AIGNBL01020087
 70
64
 10
0
 20
0
 30
0
  3
AIGNBL01020087
  0
POLYLINE
  8
LAYER_1
 40
0.0353
 41
0.0353
 66
1
 10
0
 20
0
 30
0
  0
VERTEX
  8
LAYER_1
 10
134.6375
 20
-108.401
  0
VERTEX
  8
LAYER_1
 10
134.3875
 20
-109.901
  0
SEQEND
  0
POLYLINE
  8
LAYER_1
 40
0.0353
 41
0.0353
 66
1
 10
0
 20
0
 30
0
  0
VERTEX
  8
LAYER_1
 10
134.3875
 20
-108.401
  0
VERTEX
  8
LAYER_1
 10
134.3875
 20
-109.901
  0
VERTEX
  8
LAYER_1
 10
134.1375
 20
-108.401
  0
SEQEND
  0
ENDBLK
  0
BLOCK
  8
LAYER_1
  2
AIGNBL01020088
 70
64
 10
0
 20
0
 30
0
  3
AIGNBL01020088
  0
POLYLINE
  8
LAYER_1
 40
0.0353
 41
0.0353
 66
1
 10
0
 20
0
 30
0
  0
VERTEX
  8
LAYER_1
 10
134.1375
 20
-93.8202
  0
VERTEX
  8
LAYER_1
 10
134.3875
 20
-92.3202
  0
SEQEND
  0
POLYLINE
  8
LAYER_1
 40
0.0353
 41
0.0353
 66
1
 10
0
 20
0
 30
0
  0
VERTEX
  8
LAYER_1
 10
134.3875
 20
-93.8202
  0
VERTEX
  8
LAYER_1
 10
134.3875
 20
-92.3202
  0
VERTEX
  8
LAYER_1
 10
134.6375
 20
-93.8202
  0
SEQEND
  0
ENDBLK
  0
BLOCK
  8
LAYER_1
  2
AIGNBL01020089
 70
64
 10
0
 20
0
 30
0
  3
AIGNBL01020089
  0
POLYLINE
  8
LAYER_1
 40
0.7056
 41
0.7056
 66
1
 10
0
 20
0
 30
0
  0
VERTEX
  8
LAYER_1
 10
171.7994
 20
-109.901
  0
SEQEND
  0
ENDBLK
  0
BLOCK
  8
LAYER_1
  2
AIGNBL0102008A
 70
64
 10
0
 20
0
 30
0
  3
AIGNBL0102008A
  0
POLYLINE
  8
LAYER_1
 40
0.7056
 41
0.7056
 66
1
 10
0
 20
0
 30
0
  0
VERTEX
  8
LAYER_1
 10
145.0848
 20
-92.3202
  0
SEQEND
  0
ENDBLK
  0
BLOCK
  8
LAYER_1
  2
AIGNBL0102008B
 70
64
 10
0
 20
0
 30
0
  3
AIGNBL0102008B
  0
POLYLINE
  8
LAYER_1
 40
0.7056
 41
0.7056
 66
1
 10
0
 20
0
 30
0
  0
VERTEX
  8
LAYER_1
 10
134.3875
 20
-92.3202
  0
SEQEND
  0
ENDBLK
  0
BLOCK
  8
LAYER_1
  2
AIGNBL01010002
 70
64
 10
0
 20
0
 30
0
  3
AIGNBL01010002
  0
INSERT
  8
LAYER_1
  2
AIGNBL01020003
 10
0
 20
0
 30
0
  0
INSERT
  8
LAYER_1
  2
AIGNBL0102000C
 10
0
 20
0
 30
0
  0
ENDBLK
  0
BLOCK
  8
LAYER_1
  2
AIGNBL01010024
 70
64
 10
0
 20
0
 30
0
  3
AIGNBL01010024
  0
POLYLINE
  8
LAYER_1
 40
0.0353
 41
0.0353
 66
1
 10
0
 20
0
 30
0
  0
VERTEX
  8
LAYER_1
 10
83.8188
 20
-107.241
  0
VERTEX
  8
LAYER_1
 10
83.8188
 20
-99.6906
  0
SEQEND
  0
POLYLINE
  8
LAYER_1
 40
0.0353
 41
0.0353
 66
1
 10
0
 20
0
 30
0
  0
VERTEX
  8
LAYER_1
 10
88.8988
 20
-107.241
  0
VERTEX
  8
LAYER_1
 10
88.8988
 20
-99.6906
  0
SEQEND
  0
POLYLINE
  8
LAYER_1
 40
0.0353
 41
0.0353
 66
1
 10
0
 20
0
 30
0
  0
VERTEX
  8
LAYER_1
 10
85.3188
 20
-101.6906
  0
VERTEX
  8
LAYER_1
 10
87.3988
 20
-101.6906
  0
SEQEND
  0
POLYLINE
  8
LAYER_1
 40
0.0353
 41
0.0353
 66
1
 10
0
 20
0
 30
0
  0
VERTEX
  8
LAYER_1
 10
88.8988
 20
-101.6906
  0
VERTEX
  8
LAYER_1
 10
108.0989
 20
-101.6906
  0
SEQEND
  0
INSERT
  8
LAYER_1
  2
AIGNBL01020025
 10
0
 20
0
 30
0
  0
INSERT
  8
LAYER_1
  2
AIGNBL01020026
 10
0
 20
0
 30
0
  0
TEXT
  8
LAYER_1
 10
103.6724
 20
-100.389
 11
103.6724
 21
-100.389
 40
3.7084
 41
0.5
 72
1
  1
φ25.4
  0
INSERT
  8
LAYER_1
  2
AIGNBL01020027
 10
0
 20
0
 30
0
  0
INSERT
  8
LAYER_1
  2
AIGNBL01020028
 10
0
 20
0
 30
0
  0
INSERT
  8
LAYER_1
  2
AIGNBL01020029
 10
0
 20
0
 30
0
  0
ENDBLK
  0
BLOCK
  8
LAYER_1
  2
AIGNBL0101002A
 70
64
 10
0
 20
0
 30
0
  3
AIGNBL0101002A
  0
POLYLINE
  8
LAYER_1
 40
0.0353
 41
0.0353
 66
1
 10
0
 20
0
 30
0
  0
VERTEX
  8
LAYER_1
 10
86.3588
 20
-74.4231
  0
VERTEX
  8
LAYER_1
 10
73.9819
 20
-74.4231
  0
SEQEND
  0
POLYLINE
  8
LAYER_1
 40
0.0353
 41
0.0353
 66
1
 10
0
 20
0
 30
0
  0
VERTEX
  8
LAYER_1
 10
86.3588
 20
-109.901
  0
VERTEX
  8
LAYER_1
 10
73.9819
 20
-109.901
  0
SEQEND
  0
POLYLINE
  8
LAYER_1
 40
0.0353
 41
0.0353
 66
1
 10
0
 20
0
 30
0
  0
VERTEX
  8
LAYER_1
 10
75.9819
 20
-75.9231
  0
VERTEX
  8
LAYER_1
 10
75.9819
 20
-108.401
  0
SEQEND
  0
INSERT
  8
LAYER_1
  2
AIGNBL0102002B
 10
0
 20
0
 30
0
  0
INSERT
  8
LAYER_1
  2
AIGNBL0102002C
 10
0
 20
0
 30
0
  0
TEXT
  8
LAYER_1
 10
74.6801
 20
-89.7893
 11
74.6801
 21
-89.7893
 40
3.7084
 41
0.5
 50
89.99999999
 72
1
  1
（177）
  0
INSERT
  8
LAYER_1
  2
AIGNBL0102002D
 10
0
 20
0
 30
0
  0
INSERT
  8
LAYER_1
  2
AIGNBL0102002E
 10
0
 20
0
 30
0
  0
INSERT
  8
LAYER_1
  2
AIGNBL0102002F
 10
0
 20
0
 30
0
  0
ENDBLK
  0
BLOCK
  8
LAYER_1
  2
AIGNBL01010030
 70
64
 10
0
 20
0
 30
0
  3
AIGNBL01010030
  0
POLYLINE
  8
LAYER_1
 40
0.0353
 41
0.0353
 66
1
 10
0
 20
0
 30
0
  0
VERTEX
  8
LAYER_1
 10
142.1215
 20
-90.7839
  0
VERTEX
  8
LAYER_1
 10
142.1215
 20
-65.841
  0
SEQEND
  0
POLYLINE
  8
LAYER_1
 40
0.0353
 41
0.0353
 66
1
 10
0
 20
0
 30
0
  0
VERTEX
  8
LAYER_1
 10
171.7994
 20
-109.901
  0
VERTEX
  8
LAYER_1
 10
171.7994
 20
-65.841
  0
SEQEND
  0
POLYLINE
  8
LAYER_1
 40
0.0353
 41
0.0353
 66
1
 10
0
 20
0
 30
0
  0
VERTEX
  8
LAYER_1
 10
143.6215
 20
-67.841
  0
VERTEX
  8
LAYER_1
 10
170.2994
 20
-67.841
  0
SEQEND
  0
INSERT
  8
LAYER_1
  2
AIGNBL01020031
 10
0
 20
0
 30
0
  0
INSERT
  8
LAYER_1
  2
AIGNBL01020032
 10
0
 20
0
 30
0
  0
TEXT
  8
LAYER_1
 10
159.8368
 20
-66.5394
 11
159.8368
 21
-66.5394
 40
3.7084
 41
0.5
 72
1
  1
（148）
  0
INSERT
  8
LAYER_1
  2
AIGNBL01020033
 10
0
 20
0
 30
0
  0
INSERT
  8
LAYER_1
  2
AIGNBL01020034
 10
0
 20
0
 30
0
  0
INSERT
  8
LAYER_1
  2
AIGNBL01020035
 10
0
 20
0
 30
0
  0
ENDBLK
  0
BLOCK
  8
LAYER_1
  2
AIGNBL01010036
 70
64
 10
0
 20
0
 30
0
  3
AIGNBL01010036
  0
POLYLINE
  8
LAYER_1
 40
0.0353
 41
0.0353
 66
1
 10
0
 20
0
 30
0
  0
VERTEX
  8
LAYER_1
 10
171.7994
 20
-109.901
  0
VERTEX
  8
LAYER_1
 10
149.2888
 20
-109.901
  0
SEQEND
  0
POLYLINE
  8
LAYER_1
 40
0.0353
 41
0.0353
 66
1
 10
0
 20
0
 30
0
  0
VERTEX
  8
LAYER_1
 10
171.7994
 20
-115.201
  0
VERTEX
  8
LAYER_1
 10
149.2888
 20
-115.201
  0
SEQEND
  0
POLYLINE
  8
LAYER_1
 40
0.0353
 41
0.0353
 66
1
 10
0
 20
0
 30
0
  0
VERTEX
  8
LAYER_1
 10
151.2888
 20
-111.401
  0
VERTEX
  8
LAYER_1
 10
151.2888
 20
-113.701
  0
SEQEND
  0
POLYLINE
  8
LAYER_1
 40
0.0353
 41
0.0353
 66
1
 10
0
 20
0
 30
0
  0
VERTEX
  8
LAYER_1
 10
151.2888
 20
-115.201
  0
VERTEX
  8
LAYER_1
 10
151.2888
 20
-145.6992
  0
SEQEND
  0
INSERT
  8
LAYER_1
  2
AIGNBL01020037
 10
0
 20
0
 30
0
  0
INSERT
  8
LAYER_1
  2
AIGNBL01020038
 10
0
 20
0
 30
0
  0
TEXT
  8
LAYER_1
 10
149.9871
 20
-130.1627
 11
149.9871
 21
-130.1627
 40
3.253
 41
0.5
 50
89.99999999
 72
1
  1
取付板厚５～３０
  0
INSERT
  8
LAYER_1
  2
AIGNBL01020039
 10
0
 20
0
 30
0
  0
INSERT
  8
LAYER_1
  2
AIGNBL0102003A
 10
0
 20
0
 30
0
  0
INSERT
  8
LAYER_1
  2
AIGNBL0102003B
 10
0
 20
0
 30
0
  0
ENDBLK
  0
BLOCK
  8
LAYER_1
  2
AIGNBL0101003C
 70
64
 10
0
 20
0
 30
0
  3
AIGNBL0101003C
  0
POLYLINE
  8
LAYER_1
 40
0.0353
 41
0.0353
 66
1
 10
0
 20
0
 30
0
  0
VERTEX
  8
LAYER_1
 10
79.8588
 20
-164.3306
  0
VERTEX
  8
LAYER_1
 10
79.8588
 20
-152.9574
  0
SEQEND
  0
POLYLINE
  8
LAYER_1
 40
0.0353
 41
0.0353
 66
1
 10
0
 20
0
 30
0
  0
VERTEX
  8
LAYER_1
 10
92.8588
 20
-164.3306
  0
VERTEX
  8
LAYER_1
 10
92.8588
 20
-152.9574
  0
SEQEND
  0
POLYLINE
  8
LAYER_1
 40
0.0353
 41
0.0353
 66
1
 10
0
 20
0
 30
0
  0
VERTEX
  8
LAYER_1
 10
81.3588
 20
-154.9574
  0
VERTEX
  8
LAYER_1
 10
91.3588
 20
-154.9574
  0
SEQEND
  0
INSERT
  8
LAYER_1
  2
AIGNBL0102003D
 10
0
 20
0
 30
0
  0
INSERT
  8
LAYER_1
  2
AIGNBL0102003E
 10
0
 20
0
 30
0
  0
TEXT
  8
LAYER_1
 10
92.7248
 20
-153.7499
 11
92.7248
 21
-153.7499
 40
3.7084
 41
0.5
 72
1
  1
65
  0
INSERT
  8
LAYER_1
  2
AIGNBL0102003F
 10
0
 20
0
 30
0
  0
INSERT
  8
LAYER_1
  2
AIGNBL01020040
 10
0
 20
0
 30
0
  0
INSERT
  8
LAYER_1
  2
AIGNBL01020041
 10
0
 20
0
 30
0
  0
ENDBLK
  0
BLOCK
  8
LAYER_1
  2
AIGNBL01010042
 70
64
 10
0
 20
0
 30
0
  3
AIGNBL01010042
  0
POLYLINE
  8
LAYER_1
 40
0.0353
 41
0.0353
 66
1
 10
0
 20
0
 30
0
  0
VERTEX
  8
LAYER_1
 10
80.3587
 20
-182.1307
  0
VERTEX
  8
LAYER_1
 10
73.4742
 20
-182.1307
  0
SEQEND
  0
POLYLINE
  8
LAYER_1
 40
0.0353
 41
0.0353
 66
1
 10
0
 20
0
 30
0
  0
VERTEX
  8
LAYER_1
 10
80.3587
 20
-163.8307
  0
VERTEX
  8
LAYER_1
 10
73.4742
 20
-163.8307
  0
SEQEND
  0
POLYLINE
  8
LAYER_1
 40
0.0353
 41
0.0353
 66
1
 10
0
 20
0
 30
0
  0
VERTEX
  8
LAYER_1
 10
75.4742
 20
-180.6307
  0
VERTEX
  8
LAYER_1
 10
75.4742
 20
-165.3307
  0
SEQEND
  0
INSERT
  8
LAYER_1
  2
AIGNBL01020043
 10
0
 20
0
 30
0
  0
INSERT
  8
LAYER_1
  2
AIGNBL01020044
 10
0
 20
0
 30
0
  0
TEXT
  8
LAYER_1
 10
74.2663
 20
-171.1046
 11
74.2663
 21
-171.1046
 40
3.7084
 41
0.5
 50
89.99999999
 72
1
  1
91.5
  0
INSERT
  8
LAYER_1
  2
AIGNBL01020045
 10
0
 20
0
 30
0
  0
INSERT
  8
LAYER_1
  2
AIGNBL01020046
 10
0
 20
0
 30
0
  0
INSERT
  8
LAYER_1
  2
AIGNBL01020047
 10
0
 20
0
 30
0
  0
ENDBLK
  0
BLOCK
  8
LAYER_1
  2
AIGNBL01010048
 70
64
 10
0
 20
0
 30
0
  3
AIGNBL01010048
  0
POLYLINE
  8
LAYER_1
 40
0.0353
 41
0.0353
 66
1
 10
0
 20
0
 30
0
  0
VERTEX
  8
LAYER_1
 10
84.129
 20
-161.9307
  0
VERTEX
  8
LAYER_1
 10
66.9659
 20
-161.9307
  0
SEQEND
  0
POLYLINE
  8
LAYER_1
 40
0.0353
 41
0.0353
 66
1
 10
0
 20
0
 30
0
  0
VERTEX
  8
LAYER_1
 10
80.3587
 20
-182.1307
  0
VERTEX
  8
LAYER_1
 10
66.9659
 20
-182.1307
  0
SEQEND
  0
POLYLINE
  8
LAYER_1
 40
0.0353
 41
0.0353
 66
1
 10
0
 20
0
 30
0
  0
VERTEX
  8
LAYER_1
 10
68.9659
 20
-163.4307
  0
VERTEX
  8
LAYER_1
 10
68.9659
 20
-180.6307
  0
SEQEND
  0
INSERT
  8
LAYER_1
  2
AIGNBL01020049
 10
0
 20
0
 30
0
  0
INSERT
  8
LAYER_1
  2
AIGNBL0102004A
 10
0
 20
0
 30
0
  0
TEXT
  8
LAYER_1
 10
67.7582
 20
-168.0024
 11
67.7582
 21
-168.0024
 40
3.7084
 41
0.5
 50
89.99999999
 72
1
  1
101
  0
INSERT
  8
LAYER_1
  2
AIGNBL0102004B
 10
0
 20
0
 30
0
  0
INSERT
  8
LAYER_1
  2
AIGNBL0102004C
 10
0
 20
0
 30
0
  0
INSERT
  8
LAYER_1
  2
AIGNBL0102004D
 10
0
 20
0
 30
0
  0
ENDBLK
  0
BLOCK
  8
LAYER_1
  2
AIGNBL0101004E
 70
64
 10
0
 20
0
 30
0
  3
AIGNBL0101004E
  0
POLYLINE
  8
LAYER_1
 40
0.0353
 41
0.0353
 66
1
 10
0
 20
0
 30
0
  0
VERTEX
  8
LAYER_1
 10
171.2694
 20
-163.9782
  0
VERTEX
  8
LAYER_1
 10
171.2694
 20
-156.3091
  0
SEQEND
  0
POLYLINE
  8
LAYER_1
 40
0.0353
 41
0.0353
 66
1
 10
0
 20
0
 30
0
  0
VERTEX
  8
LAYER_1
 10
166.4694
 20
-164.5157
  0
VERTEX
  8
LAYER_1
 10
166.4694
 20
-156.3091
  0
SEQEND
  0
POLYLINE
  8
LAYER_1
 40
0.0353
 41
0.0353
 66
1
 10
0
 20
0
 30
0
  0
VERTEX
  8
LAYER_1
 10
169.7694
 20
-158.3091
  0
VERTEX
  8
LAYER_1
 10
167.9694
 20
-158.3091
  0
SEQEND
  0
POLYLINE
  8
LAYER_1
 40
0.0353
 41
0.0353
 66
1
 10
0
 20
0
 30
0
  0
VERTEX
  8
LAYER_1
 10
166.4694
 20
-158.3091
  0
VERTEX
  8
LAYER_1
 10
156.1772
 20
-158.3091
  0
SEQEND
  0
INSERT
  8
LAYER_1
  2
AIGNBL0102004F
 10
0
 20
0
 30
0
  0
INSERT
  8
LAYER_1
  2
AIGNBL01020050
 10
0
 20
0
 30
0
  0
TEXT
  8
LAYER_1
 10
162.729
 20
-157.0072
 11
162.729
 21
-157.0072
 40
3.7084
 41
0.5
 72
1
  1
（24）
  0
INSERT
  8
LAYER_1
  2
AIGNBL01020051
 10
0
 20
0
 30
0
  0
INSERT
  8
LAYER_1
  2
AIGNBL01020052
 10
0
 20
0
 30
0
  0
INSERT
  8
LAYER_1
  2
AIGNBL01020053
 10
0
 20
0
 30
0
  0
ENDBLK
  0
BLOCK
  8
LAYER_1
  2
AIGNBL01010054
 70
64
 10
0
 20
0
 30
0
  3
AIGNBL01010054
  0
POLYLINE
  8
LAYER_1
 40
0.0353
 41
0.0353
 66
1
 10
0
 20
0
 30
0
  0
VERTEX
  8
LAYER_1
 10
183.2694
 20
-163.8734
  0
VERTEX
  8
LAYER_1
 10
183.2694
 20
-149.2076
  0
SEQEND
  0
POLYLINE
  8
LAYER_1
 40
0.0353
 41
0.0353
 66
1
 10
0
 20
0
 30
0
  0
VERTEX
  8
LAYER_1
 10
166.4694
 20
-164.5157
  0
VERTEX
  8
LAYER_1
 10
166.4694
 20
-149.2076
  0
SEQEND
  0
POLYLINE
  8
LAYER_1
 40
0.0353
 41
0.0353
 66
1
 10
0
 20
0
 30
0
  0
VERTEX
  8
LAYER_1
 10
181.7694
 20
-151.2076
  0
VERTEX
  8
LAYER_1
 10
167.9694
 20
-151.2076
  0
SEQEND
  0
INSERT
  8
LAYER_1
  2
AIGNBL01020055
 10
0
 20
0
 30
0
  0
INSERT
  8
LAYER_1
  2
AIGNBL01020056
 10
0
 20
0
 30
0
  0
TEXT
  8
LAYER_1
 10
178.6176
 20
-149.9999
 11
178.6176
 21
-149.9999
 40
3.7084
 41
0.5
 72
1
  1
84
  0
INSERT
  8
LAYER_1
  2
AIGNBL01020057
 10
0
 20
0
 30
0
  0
INSERT
  8
LAYER_1
  2
AIGNBL01020058
 10
0
 20
0
 30
0
  0
INSERT
  8
LAYER_1
  2
AIGNBL01020059
 10
0
 20
0
 30
0
  0
ENDBLK
  0
BLOCK
  8
LAYER_1
  2
AIGNBL0101005A
 70
64
 10
0
 20
0
 30
0
  3
AIGNBL0101005A
  0
POLYLINE
  8
LAYER_1
 40
0.0353
 41
0.0353
 66
1
 10
0
 20
0
 30
0
  0
VERTEX
  8
LAYER_1
 10
183.2694
 20
-163.8734
  0
VERTEX
  8
LAYER_1
 10
183.2694
 20
-156.3091
  0
SEQEND
  0
POLYLINE
  8
LAYER_1
 40
0.0353
 41
0.0353
 66
1
 10
0
 20
0
 30
0
  0
VERTEX
  8
LAYER_1
 10
171.2694
 20
-163.9782
  0
VERTEX
  8
LAYER_1
 10
171.2694
 20
-156.3091
  0
SEQEND
  0
POLYLINE
  8
LAYER_1
 40
0.0353
 41
0.0353
 66
1
 10
0
 20
0
 30
0
  0
VERTEX
  8
LAYER_1
 10
172.7694
 20
-158.3091
  0
VERTEX
  8
LAYER_1
 10
181.7694
 20
-158.3091
  0
SEQEND
  0
POLYLINE
  8
LAYER_1
 40
0.0353
 41
0.0353
 66
1
 10
0
 20
0
 30
0
  0
VERTEX
  8
LAYER_1
 10
183.2694
 20
-158.3091
  0
VERTEX
  8
LAYER_1
 10
193.6538
 20
-158.3091
  0
SEQEND
  0
INSERT
  8
LAYER_1
  2
AIGNBL0102005B
 10
0
 20
0
 30
0
  0
INSERT
  8
LAYER_1
  2
AIGNBL0102005C
 10
0
 20
0
 30
0
  0
TEXT
  8
LAYER_1
 10
191.4132
 20
-157.0072
 11
191.4132
 21
-157.0072
 40
3.7084
 41
0.5
 72
1
  1
（60）
  0
INSERT
  8
LAYER_1
  2
AIGNBL0102005D
 10
0
 20
0
 30
0
  0
INSERT
  8
LAYER_1
  2
AIGNBL0102005E
 10
0
 20
0
 30
0
  0
INSERT
  8
LAYER_1
  2
AIGNBL0102005F
 10
0
 20
0
 30
0
  0
ENDBLK
  0
BLOCK
  8
LAYER_1
  2
AIGNBL01010060
 70
64
 10
0
 20
0
 30
0
  3
AIGNBL01010060
  0
POLYLINE
  8
LAYER_1
 40
0.0353
 41
0.0353
 66
1
 10
0
 20
0
 30
0
  0
VERTEX
  8
LAYER_1
 10
172.2972
 20
-189.3534
  0
VERTEX
  8
LAYER_1
 10
152.3296
 20
-189.3534
  0
SEQEND
  0
POLYLINE
  8
LAYER_1
 40
0.0353
 41
0.0353
 66
1
 10
0
 20
0
 30
0
  0
VERTEX
  8
LAYER_1
 10
169.065
 20
-162.0223
  0
VERTEX
  8
LAYER_1
 10
152.3296
 20
-162.0223
  0
SEQEND
  0
POLYLINE
  8
LAYER_1
 40
0.0353
 41
0.0353
 66
1
 10
0
 20
0
 30
0
  0
VERTEX
  8
LAYER_1
 10
154.3296
 20
-187.8534
  0
VERTEX
  8
LAYER_1
 10
154.3296
 20
-163.5223
  0
SEQEND
  0
INSERT
  8
LAYER_1
  2
AIGNBL01020061
 10
0
 20
0
 30
0
  0
INSERT
  8
LAYER_1
  2
AIGNBL01020062
 10
0
 20
0
 30
0
  0
TEXT
  8
LAYER_1
 10
153.0277
 20
-173.3148
 11
153.0277
 21
-173.3148
 40
3.7084
 41
0.5
 50
89.99999999
 72
1
  1
（137）
  0
INSERT
  8
LAYER_1
  2
AIGNBL01020063
 10
0
 20
0
 30
0
  0
INSERT
  8
LAYER_1
  2
AIGNBL01020064
 10
0
 20
0
 30
0
  0
INSERT
  8
LAYER_1
  2
AIGNBL01020065
 10
0
 20
0
 30
0
  0
ENDBLK
  0
BLOCK
  8
LAYER_1
  2
AIGNBL01010066
 70
64
 10
0
 20
0
 30
0
  3
AIGNBL01010066
  0
POLYLINE
  8
LAYER_1
 40
0.0353
 41
0.0353
 66
1
 10
0
 20
0
 30
0
  0
VERTEX
  8
LAYER_1
 10
171.2694
 20
-182.0687
  0
VERTEX
  8
LAYER_1
 10
171.2694
 20
-203.4379
  0
SEQEND
  0
POLYLINE
  8
LAYER_1
 40
0.0353
 41
0.0353
 66
1
 10
0
 20
0
 30
0
  0
VERTEX
  8
LAYER_1
 10
174.9694
 20
-182.1534
  0
VERTEX
  8
LAYER_1
 10
174.9694
 20
-203.4379
  0
SEQEND
  0
POLYLINE
  8
LAYER_1
 40
0.0353
 41
0.0353
 66
1
 10
0
 20
0
 30
0
  0
VERTEX
  8
LAYER_1
 10
169.7694
 20
-201.4379
  0
VERTEX
  8
LAYER_1
 10
168.2694
 20
-201.4379
  0
SEQEND
  0
POLYLINE
  8
LAYER_1
 40
0.0353
 41
0.0353
 66
1
 10
0
 20
0
 30
0
  0
VERTEX
  8
LAYER_1
 10
176.4694
 20
-201.4379
  0
VERTEX
  8
LAYER_1
 10
186.4284
 20
-201.4379
  0
SEQEND
  0
POLYLINE
  8
LAYER_1
 40
0.0353
 41
0.0353
 66
1
 10
0
 20
0
 30
0
  0
VERTEX
  8
LAYER_1
 10
171.2694
 20
-201.4379
  0
VERTEX
  8
LAYER_1
 10
174.9694
 20
-201.4379
  0
SEQEND
  0
INSERT
  8
LAYER_1
  2
AIGNBL01020067
 10
0
 20
0
 30
0
  0
INSERT
  8
LAYER_1
  2
AIGNBL01020068
 10
0
 20
0
 30
0
  0
TEXT
  8
LAYER_1
 10
184.0746
 20
-200.2301
 11
184.0746
 21
-200.2301
 40
3.7084
 41
0.5
 72
1
  1
18.5
  0
INSERT
  8
LAYER_1
  2
AIGNBL01020069
 10
0
 20
0
 30
0
  0
INSERT
  8
LAYER_1
  2
AIGNBL0102006A
 10
0
 20
0
 30
0
  0
INSERT
  8
LAYER_1
  2
AIGNBL0102006B
 10
0
 20
0
 30
0
  0
ENDBLK
  0
BLOCK
  8
LAYER_1
  2
AIGNBL0101006C
 70
64
 10
0
 20
0
 30
0
  3
AIGNBL0101006C
  0
POLYLINE
  8
LAYER_1
 40
0.0353
 41
0.0353
 66
1
 10
0
 20
0
 30
0
  0
VERTEX
  8
LAYER_1
 10
170.0039
 20
-119.001
  0
VERTEX
  8
LAYER_1
 10
132.3875
 20
-119.001
  0
SEQEND
  0
POLYLINE
  8
LAYER_1
 40
0.0353
 41
0.0353
 66
1
 10
0
 20
0
 30
0
  0
VERTEX
  8
LAYER_1
 10
171.7994
 20
-109.901
  0
VERTEX
  8
LAYER_1
 10
132.3875
 20
-109.901
  0
SEQEND
  0
POLYLINE
  8
LAYER_1
 40
0.0353
 41
0.0353
 66
1
 10
0
 20
0
 30
0
  0
VERTEX
  8
LAYER_1
 10
134.3875
 20
-111.401
  0
VERTEX
  8
LAYER_1
 10
134.3875
 20
-117.501
  0
SEQEND
  0
POLYLINE
  8
LAYER_1
 40
0.0353
 41
0.0353
 66
1
 10
0
 20
0
 30
0
  0
VERTEX
  8
LAYER_1
 10
134.3875
 20
-119.001
  0
VERTEX
  8
LAYER_1
 10
134.3875
 20
-129.9982
  0
SEQEND
  0
INSERT
  8
LAYER_1
  2
AIGNBL0102006D
 10
0
 20
0
 30
0
  0
INSERT
  8
LAYER_1
  2
AIGNBL0102006E
 10
0
 20
0
 30
0
  0
TEXT
  8
LAYER_1
 10
133.1799
 20
-123.7142
 11
133.1799
 21
-123.7142
 40
3.7084
 41
0.5
 50
89.99999999
 72
1
  1
45.5
  0
INSERT
  8
LAYER_1
  2
AIGNBL0102006F
 10
0
 20
0
 30
0
  0
INSERT
  8
LAYER_1
  2
AIGNBL01020070
 10
0
 20
0
 30
0
  0
INSERT
  8
LAYER_1
  2
AIGNBL01020071
 10
0
 20
0
 30
0
  0
ENDBLK
  0
BLOCK
  8
LAYER_1
  2
AIGNBL01010072
 70
64
 10
0
 20
0
 30
0
  3
AIGNBL01010072
  0
POLYLINE
  8
LAYER_1
 40
0.0353
 41
0.0353
 66
1
 10
0
 20
0
 30
0
  0
VERTEX
  8
LAYER_1
 10
82.4588
 20
-109.841
  0
VERTEX
  8
LAYER_1
 10
82.4588
 20
-113.1728
  0
SEQEND
  0
POLYLINE
  8
LAYER_1
 40
0.0353
 41
0.0353
 66
1
 10
0
 20
0
 30
0
  0
VERTEX
  8
LAYER_1
 10
90.2588
 20
-109.841
  0
VERTEX
  8
LAYER_1
 10
90.2588
 20
-113.1728
  0
SEQEND
  0
POLYLINE
  8
LAYER_1
 40
0.0353
 41
0.0353
 66
1
 10
0
 20
0
 30
0
  0
VERTEX
  8
LAYER_1
 10
83.9588
 20
-111.1728
  0
VERTEX
  8
LAYER_1
 10
88.7588
 20
-111.1728
  0
SEQEND
  0
POLYLINE
  8
LAYER_1
 40
0.0353
 41
0.0353
 66
1
 10
0
 20
0
 30
0
  0
VERTEX
  8
LAYER_1
 10
90.2588
 20
-111.1728
  0
VERTEX
  8
LAYER_1
 10
104.0858
 20
-111.1728
  0
SEQEND
  0
INSERT
  8
LAYER_1
  2
AIGNBL01020073
 10
0
 20
0
 30
0
  0
INSERT
  8
LAYER_1
  2
AIGNBL01020074
 10
0
 20
0
 30
0
  0
TEXT
  8
LAYER_1
 10
102.3733
 20
-109.8713
 11
102.3733
 21
-109.8713
 40
3.7084
 41
0.5
 72
1
  1
φ39
  0
INSERT
  8
LAYER_1
  2
AIGNBL01020075
 10
0
 20
0
 30
0
  0
INSERT
  8
LAYER_1
  2
AIGNBL01020076
 10
0
 20
0
 30
0
  0
INSERT
  8
LAYER_1
  2
AIGNBL01020077
 10
0
 20
0
 30
0
  0
ENDBLK
  0
BLOCK
  8
LAYER_1
  2
AIGNBL01010078
 70
64
 10
0
 20
0
 30
0
  3
AIGNBL01010078
  0
POLYLINE
  8
LAYER_1
 40
0.0353
 41
0.0353
 66
1
 10
0
 20
0
 30
0
  0
VERTEX
  8
LAYER_1
 10
144.6405
 20
-93.2731
  0
VERTEX
  8
LAYER_1
 10
141.3771
 20
-100.2715
  0
SEQEND
  0
POLYLINE
  8
LAYER_1
 40
0.0353
 41
0.0353
 66
1
 10
0
 20
0
 30
0
  0
VERTEX
  8
LAYER_1
 10
145.0848
 20
-92.3955
  0
VERTEX
  8
LAYER_1
 10
145.0848
 20
-101.0934
  0
SEQEND
  0
POLYLINE
  8
LAYER_1
 40
0.0353
 41
0.0353
 66
1
 10
0
 20
0
 30
0
  0
VERTEX
  8
LAYER_1
 10
139.8637
 20
-96.6349
 42
0.05553706739
  0
VERTEX
  8
LAYER_1
 10
140.9414
 20
-97.6783
  0
SEQEND
  0
POLYLINE
  8
LAYER_1
 40
0.0353
 41
0.0353
 66
1
 10
0
 20
0
 30
0
  0
VERTEX
  8
LAYER_1
 10
146.5756
 20
-98.9273
 42
0.05553671705
  0
VERTEX
  8
LAYER_1
 10
147.9933
 20
-98.4372
  0
SEQEND
  0
POLYLINE
  8
LAYER_1
 40
0.0353
 41
0.0353
 66
1
 10
0
 20
0
 30
0
  0
VERTEX
  8
LAYER_1
 10
142.2223
 20
-98.4588
 42
0.1095185311
  0
VERTEX
  8
LAYER_1
 10
145.0848
 20
-99.0934
  0
SEQEND
  0
INSERT
  8
LAYER_1
  2
AIGNBL01020079
 10
0
 20
0
 30
0
  0
INSERT
  8
LAYER_1
  2
AIGNBL0102007A
 10
0
 20
0
 30
0
  0
INSERT
  8
LAYER_1
  2
AIGNBL0102007B
 10
0
 20
0
 30
0
  0
INSERT
  8
LAYER_1
  2
AIGNBL0102007C
 10
0
 20
0
 30
0
  0
INSERT
  8
LAYER_1
  2
AIGNBL0102007D
 10
0
 20
0
 30
0
  0
INSERT
  8
LAYER_1
  2
AIGNBL0102007E
 10
0
 20
0
 30
0
  0
INSERT
  8
LAYER_1
  2
AIGNBL0102007F
 10
0
 20
0
 30
0
  0
ENDBLK
  0
BLOCK
  8
LAYER_1
  2
AIGNBL01010080
 70
64
 10
0
 20
0
 30
0
  3
AIGNBL01010080
  0
POLYLINE
  8
LAYER_1
 40
0.0353
 41
0.0353
 66
1
 10
0
 20
0
 30
0
  0
VERTEX
  8
LAYER_1
 10
145.0848
 20
-92.3202
  0
VERTEX
  8
LAYER_1
 10
145.0848
 20
-104.7304
  0
SEQEND
  0
POLYLINE
  8
LAYER_1
 40
0.0353
 41
0.0353
 66
1
 10
0
 20
0
 30
0
  0
VERTEX
  8
LAYER_1
 10
171.7994
 20
-109.901
  0
VERTEX
  8
LAYER_1
 10
171.7994
 20
-100.7304
  0
SEQEND
  0
POLYLINE
  8
LAYER_1
 40
0.0353
 41
0.0353
 66
1
 10
0
 20
0
 30
0
  0
VERTEX
  8
LAYER_1
 10
146.5848
 20
-102.7304
  0
VERTEX
  8
LAYER_1
 10
170.2994
 20
-102.7304
  0
SEQEND
  0
INSERT
  8
LAYER_1
  2
AIGNBL01020081
 10
0
 20
0
 30
0
  0
INSERT
  8
LAYER_1
  2
AIGNBL01020082
 10
0
 20
0
 30
0
  0
TEXT
  8
LAYER_1
 10
160.8148
 20
-101.4287
 11
160.8148
 21
-101.4287
 40
3.7084
 41
0.5
 72
1
  1
（134）
  0
INSERT
  8
LAYER_1
  2
AIGNBL01020083
 10
0
 20
0
 30
0
  0
INSERT
  8
LAYER_1
  2
AIGNBL01020084
 10
0
 20
0
 30
0
  0
INSERT
  8
LAYER_1
  2
AIGNBL01020085
 10
0
 20
0
 30
0
  0
ENDBLK
  0
BLOCK
  8
LAYER_1
  2
AIGNBL01010086
 70
64
 10
0
 20
0
 30
0
  3
AIGNBL01010086
  0
POLYLINE
  8
LAYER_1
 40
0.0353
 41
0.0353
 66
1
 10
0
 20
0
 30
0
  0
VERTEX
  8
LAYER_1
 10
171.7994
 20
-109.901
  0
VERTEX
  8
LAYER_1
 10
132.3875
 20
-109.901
  0
SEQEND
  0
POLYLINE
  8
LAYER_1
 40
0.0353
 41
0.0353
 66
1
 10
0
 20
0
 30
0
  0
VERTEX
  8
LAYER_1
 10
145.0848
 20
-92.3202
  0
VERTEX
  8
LAYER_1
 10
132.3875
 20
-92.3202
  0
SEQEND
  0
POLYLINE
  8
LAYER_1
 40
0.0353
 41
0.0353
 66
1
 10
0
 20
0
 30
0
  0
VERTEX
  8
LAYER_1
 10
134.3875
 20
-108.401
  0
VERTEX
  8
LAYER_1
 10
134.3875
 20
-93.8202
  0
SEQEND
  0
INSERT
  8
LAYER_1
  2
AIGNBL01020087
 10
0
 20
0
 30
0
  0
INSERT
  8
LAYER_1
  2
AIGNBL01020088
 10
0
 20
0
 30
0
  0
TEXT
  8
LAYER_1
 10
133.0858
 20
-98.9551
 11
133.0858
 21
-98.9551
 40
3.7084
 41
0.5
 50
89.99999999
 72
1
  1
（88）
  0
INSERT
  8
LAYER_1
  2
AIGNBL01020089
 10
0
 20
0
 30
0
  0
INSERT
  8
LAYER_1
  2
AIGNBL0102008A
 10
0
 20
0
 30
0
  0
INSERT
  8
LAYER_1
  2
AIGNBL0102008B
 10
0
 20
0
 30
0
  0
ENDBLK
  0
BLOCK
  8
LAYER_6
  2
AIGNBL06010002
 70
64
 10
0
 20
0
 30
0
  3
AIGNBL06010002
  0
POLYLINE
  8
LAYER_6
 40
0.7056
 41
0.7056
 66
1
 10
0
 20
0
 30
0
 70
1
  0
VERTEX
  8
LAYER_6
 10
33.7873
 20
22.6587
  0
VERTEX
  8
LAYER_6
 10
230.7955
 20
22.6587
  0
VERTEX
  8
LAYER_6
 10
230.7955
 20
-259.334
  0
VERTEX
  8
LAYER_6
 10
33.7873
 20
-259.334
  0
SEQEND
  0
ENDBLK
  0
ENDSEC
  0
SECTION
  2
ENTITIES
  0
INSERT
  8
LAYER_1
  2
AIGNBL01010002
 10
0
 20
0
 30
0
  0
TEXT
  8
LAYER_1
 10
475.3901
 20
-256.1093
 11
475.3901
 21
-256.1093
 40
2.8236
 41
0.5
  1
　　　　　　　　
  0
TEXT
  8
LAYER_1
 10
150.0582
 20
-97.7709
 11
150.0582
 21
-97.7709
 40
3.7084
 41
0.5
 50
347.8407756
 72
1
  1
25°
  0
TEXT
  8
LAYER_1
 10
192.3749
 20
-110.1512
 11
192.3749
 21
-110.1512
 40
3.7084
 41
0.5
 72
1
  1
取付穴径22025
  0
INSERT
  8
LAYER_1
  2
AIGNBL01010024
 10
0
 20
0
 30
0
  0
INSERT
  8
LAYER_1
  2
AIGNBL0101002A
 10
0
 20
0
 30
0
  0
INSERT
  8
LAYER_1
  2
AIGNBL01010030
 10
0
 20
0
 30
0
  0
INSERT
  8
LAYER_1
  2
AIGNBL01010036
 10
0
 20
0
 30
0
  0
INSERT
  8
LAYER_1
  2
AIGNBL0101003C
 10
0
 20
0
 30
0
  0
INSERT
  8
LAYER_1
  2
AIGNBL01010042
 10
0
 20
0
 30
0
  0
INSERT
  8
LAYER_1
  2
AIGNBL01010048
 10
0
 20
0
 30
0
  0
INSERT
  8
LAYER_1
  2
AIGNBL0101004E
 10
0
 20
0
 30
0
  0
INSERT
  8
LAYER_1
  2
AIGNBL01010054
 10
0
 20
0
 30
0
  0
INSERT
  8
LAYER_1
  2
AIGNBL0101005A
 10
0
 20
0
 30
0
  0
INSERT
  8
LAYER_1
  2
AIGNBL01010060
 10
0
 20
0
 30
0
  0
INSERT
  8
LAYER_1
  2
AIGNBL01010066
 10
0
 20
0
 30
0
  0
INSERT
  8
LAYER_1
  2
AIGNBL0101006C
 10
0
 20
0
 30
0
  0
INSERT
  8
LAYER_1
  2
AIGNBL01010072
 10
0
 20
0
 30
0
  0
POLYLINE
  8
LAYER_1
 40
0.0353
 41
0.0353
 66
1
 10
0
 20
0
 30
0
  0
VERTEX
  8
LAYER_1
 10
85.4588
 20
-119.001
  0
VERTEX
  8
LAYER_1
 10
85.4588
 20
-137.53
  0
SEQEND
  0
POLYLINE
  8
LAYER_1
 40
0.0353
 41
0.0353
 66
1
 10
0
 20
0
 30
0
  0
VERTEX
  8
LAYER_1
 10
87.2588
 20
-119.001
  0
VERTEX
  8
LAYER_1
 10
87.2588
 20
-137.53
  0
SEQEND
  0
POLYLINE
  8
LAYER_1
 40
0.0353
 41
0.0353
 66
1
 10
0
 20
0
 30
0
  0
VERTEX
  8
LAYER_1
 10
85.4588
 20
-161.9708
  0
VERTEX
  8
LAYER_1
 10
85.4588
 20
-138.6771
  0
SEQEND
  0
POLYLINE
  8
LAYER_1
 40
0.0353
 41
0.0353
 66
1
 10
0
 20
0
 30
0
  0
VERTEX
  8
LAYER_1
 10
87.2588
 20
-138.6771
  0
VERTEX
  8
LAYER_1
 10
87.2588
 20
-161.9708
  0
SEQEND
  0
POLYLINE
  8
LAYER_1
 40
0.0353
 41
0.0353
 66
1
 10
0
 20
0
 30
0
  0
VERTEX
  8
LAYER_1
 10
85.4588
 20
-156.2403
 42
0.07955760427
  0
VERTEX
  8
LAYER_1
 10
84.8588
 20
-159.9873
  0
VERTEX
  8
LAYER_1
 10
84.8588
 20
-161.9605
  0
SEQEND
  0
POLYLINE
  8
LAYER_1
 40
0.0353
 41
0.0353
 66
1
 10
0
 20
0
 30
0
  0
VERTEX
  8
LAYER_1
 10
145.0848
 20
-92.3202
  0
VERTEX
  8
LAYER_1
 10
145.0848
 20
-92.3955
  0
SEQEND
  0
INSERT
  8
LAYER_1
  2
AIGNBL01010078
 10
0
 20
0
 30
0
  0
INSERT
  8
LAYER_1
  2
AIGNBL01010080
 10
0
 20
0
 30
0
  0
INSERT
  8
LAYER_1
  2
AIGNBL01010086
 10
0
 20
0
 30
0
  0
POLYLINE
  8
LAYER_1
  6
AIGENLINE001
 40
0.0353
 41
0.0353
 66
1
 10
0
 20
0
 30
0
 70
128
  0
VERTEX
  8
LAYER_1
 10
86.3588
 20
-73.1294
  0
VERTEX
  8
LAYER_1
 10
86.3588
 20
-191.464
  0
SEQEND
  0
POLYLINE
  8
LAYER_1
 40
0.0353
 41
0.0353
 66
1
 10
0
 20
0
 30
0
  0
VERTEX
  8
LAYER_1
 10
88.8988
 20
-76.9635
 42
0.4142097984
  0
VERTEX
  8
LAYER_1
 10
86.3588
 20
-74.4231
 42
0.4142182959
  0
VERTEX
  8
LAYER_1
 10
83.8188
 20
-76.9635
  0
SEQEND
  0
POLYLINE
  8
LAYER_1
 40
0.0353
 41
0.0353
 66
1
 10
0
 20
0
 30
0
  0
VERTEX
  8
LAYER_1
 10
88.4543
 20
-114.801
  0
VERTEX
  8
LAYER_1
 10
88.4543
 20
-110.301
  0
SEQEND
  0
POLYLINE
  8
LAYER_1
 40
0.0353
 41
0.0353
 66
1
 10
0
 20
0
 30
0
  0
VERTEX
  8
LAYER_1
 10
88.2219
 20
-118.8879
  0
VERTEX
  8
LAYER_1
 10
88.2219
 20
-116.701
  0
SEQEND
  0
POLYLINE
  8
LAYER_1
 40
0.0353
 41
0.0353
 66
1
 10
0
 20
0
 30
0
  0
VERTEX
  8
LAYER_1
 10
88.2219
 20
-114.801
  0
VERTEX
  8
LAYER_1
 10
88.2219
 20
-110.301
  0
SEQEND
  0
POLYLINE
  8
LAYER_1
 40
0.0353
 41
0.0353
 66
1
 10
0
 20
0
 30
0
  0
VERTEX
  8
LAYER_1
 10
84.2633
 20
-114.801
  0
VERTEX
  8
LAYER_1
 10
84.2633
 20
-110.301
  0
SEQEND
  0
POLYLINE
  8
LAYER_1
 40
0.0353
 41
0.0353
 66
1
 10
0
 20
0
 30
0
  0
VERTEX
  8
LAYER_1
 10
84.4957
 20
-118.8879
  0
VERTEX
  8
LAYER_1
 10
84.4957
 20
-116.701
  0
SEQEND
  0
POLYLINE
  8
LAYER_1
 40
0.0353
 41
0.0353
 66
1
 10
0
 20
0
 30
0
  0
VERTEX
  8
LAYER_1
 10
84.4957
 20
-114.801
  0
VERTEX
  8
LAYER_1
 10
84.4957
 20
-110.301
  0
SEQEND
  0
POLYLINE
  8
LAYER_1
 40
0.2469
 41
0.2469
 66
1
 10
0
 20
0
 30
0
 70
1
  0
VERTEX
  8
LAYER_1
 10
82.7588
 20
-115.201
  0
VERTEX
  8
LAYER_1
 10
82.7588
 20
-115.401
  0
VERTEX
  8
LAYER_1
 10
86.3588
 20
-115.401
  0
VERTEX
  8
LAYER_1
 10
89.9588
 20
-115.401
  0
VERTEX
  8
LAYER_1
 10
89.9588
 20
-115.201
  0
VERTEX
  8
LAYER_1
 10
86.3588
 20
-115.201
  0
SEQEND
  0
POLYLINE
  8
LAYER_1
 40
0.0353
 41
0.0353
 66
1
 10
0
 20
0
 30
0
  0
VERTEX
  8
LAYER_1
 10
84.2633
 20
-118.6555
  0
VERTEX
  8
LAYER_1
 10
84.6088
 20
-119.001
  0
VERTEX
  8
LAYER_1
 10
88.1088
 20
-119.001
  0
VERTEX
  8
LAYER_1
 10
88.4543
 20
-118.6555
  0
SEQEND
  0
POLYLINE
  8
LAYER_1
 40
0.0353
 41
0.0353
 66
1
 10
0
 20
0
 30
0
  0
VERTEX
  8
LAYER_1
 10
85.2859
 20
-118.6555
  0
VERTEX
  8
LAYER_1
 10
84.2633
 20
-118.6555
  0
VERTEX
  8
LAYER_1
 10
84.2633
 20
-116.701
  0
SEQEND
  0
POLYLINE
  8
LAYER_1
 40
0.0353
 41
0.0353
 66
1
 10
0
 20
0
 30
0
  0
VERTEX
  8
LAYER_1
 10
87.4317
 20
-118.6555
  0
VERTEX
  8
LAYER_1
 10
88.4543
 20
-118.6555
  0
VERTEX
  8
LAYER_1
 10
88.4543
 20
-116.701
  0
SEQEND
  0
POLYLINE
  8
LAYER_1
 40
0.0353
 41
0.0353
 66
1
 10
0
 20
0
 30
0
  0
VERTEX
  8
LAYER_1
 10
83.7185
 20
-116.701
  0
VERTEX
  8
LAYER_1
 10
83.7185
 20
-115.401
  0
SEQEND
  0
POLYLINE
  8
LAYER_1
 40
0.0353
 41
0.0353
 66
1
 10
0
 20
0
 30
0
  0
VERTEX
  8
LAYER_1
 10
83.7088
 20
-115.401
  0
VERTEX
  8
LAYER_1
 10
83.7088
 20
-116.701
  0
SEQEND
  0
POLYLINE
  8
LAYER_1
 40
0.0353
 41
0.0353
 66
1
 10
0
 20
0
 30
0
  0
VERTEX
  8
LAYER_1
 10
85.2352
 20
-115.401
  0
VERTEX
  8
LAYER_1
 10
85.2352
 20
-116.701
  0
SEQEND
  0
POLYLINE
  8
LAYER_1
 40
0.0353
 41
0.0353
 66
1
 10
0
 20
0
 30
0
  0
VERTEX
  8
LAYER_1
 10
84.8421
 20
-115.401
  0
VERTEX
  8
LAYER_1
 10
84.8421
 20
-116.701
  0
SEQEND
  0
POLYLINE
  8
LAYER_1
 40
0.2469
 41
0.2469
 66
1
 10
0
 20
0
 30
0
  0
VERTEX
  8
LAYER_1
 10
89.0088
 20
-116.701
  0
VERTEX
  8
LAYER_1
 10
86.3588
 20
-116.701
  0
VERTEX
  8
LAYER_1
 10
83.7088
 20
-116.701
  0
SEQEND
  0
POLYLINE
  8
LAYER_1
 40
0.0353
 41
0.0353
 66
1
 10
0
 20
0
 30
0
  0
VERTEX
  8
LAYER_1
 10
88.999
 20
-116.701
  0
VERTEX
  8
LAYER_1
 10
88.999
 20
-115.401
  0
SEQEND
  0
POLYLINE
  8
LAYER_1
 40
0.0353
 41
0.0353
 66
1
 10
0
 20
0
 30
0
  0
VERTEX
  8
LAYER_1
 10
89.0088
 20
-115.401
  0
VERTEX
  8
LAYER_1
 10
89.0088
 20
-116.701
  0
SEQEND
  0
POLYLINE
  8
LAYER_1
 40
0.0353
 41
0.0353
 66
1
 10
0
 20
0
 30
0
  0
VERTEX
  8
LAYER_1
 10
87.4824
 20
-115.401
  0
VERTEX
  8
LAYER_1
 10
87.4824
 20
-116.701
  0
SEQEND
  0
POLYLINE
  8
LAYER_1
 40
0.0353
 41
0.0353
 66
1
 10
0
 20
0
 30
0
  0
VERTEX
  8
LAYER_1
 10
87.8754
 20
-115.401
  0
VERTEX
  8
LAYER_1
 10
87.8754
 20
-116.701
  0
SEQEND
  0
POLYLINE
  8
LAYER_1
 40
0.0353
 41
0.0353
 66
1
 10
0
 20
0
 30
0
 70
1
  0
VERTEX
  8
LAYER_1
 10
87.4317
 20
-118.6555
 42
-0.1351950518
  0
VERTEX
  8
LAYER_1
 10
86.3588
 20
-118.951
 42
-0.1351963141
  0
VERTEX
  8
LAYER_1
 10
85.2859
 20
-118.6555
  0
VERTEX
  8
LAYER_1
 10
85.2859
 20
-117.801
  0
VERTEX
  8
LAYER_1
 10
86.3588
 20
-117.801
  0
VERTEX
  8
LAYER_1
 10
87.4317
 20
-117.801
  0
SEQEND
  0
POLYLINE
  8
LAYER_1
 40
0.1482
 41
0.1482
 66
1
 10
0
 20
0
 30
0
  0
VERTEX
  8
LAYER_1
 10
88.8988
 20
-107.301
  0
VERTEX
  8
LAYER_1
 10
90.1395
 20
-107.8484
 42
-0.2971308615
  0
VERTEX
  8
LAYER_1
 10
90.2588
 20
-108.0314
  0
VERTEX
  8
LAYER_1
 10
90.2588
 20
-109.841
  0
SEQEND
  0
POLYLINE
  8
LAYER_1
 40
0.0353
 41
0.0353
 66
1
 10
0
 20
0
 30
0
  0
VERTEX
  8
LAYER_1
 10
83.8188
 20
-107.301
  0
VERTEX
  8
LAYER_1
 10
86.3588
 20
-107.301
  0
VERTEX
  8
LAYER_1
 10
88.8988
 20
-107.301
  0
SEQEND
  0
POLYLINE
  8
LAYER_1
 40
0.1482
 41
0.1482
 66
1
 10
0
 20
0
 30
0
  0
VERTEX
  8
LAYER_1
 10
83.8188
 20
-107.301
  0
VERTEX
  8
LAYER_1
 10
82.578
 20
-107.8484
 42
0.2970981303
  0
VERTEX
  8
LAYER_1
 10
82.4588
 20
-108.0314
  0
VERTEX
  8
LAYER_1
 10
82.4588
 20
-109.841
  0
SEQEND
  0
POLYLINE
  8
LAYER_1
 40
0.0353
 41
0.0353
 66
1
 10
0
 20
0
 30
0
  0
VERTEX
  8
LAYER_1
 10
82.8588
 20
-109.901
  0
VERTEX
  8
LAYER_1
 10
82.8588
 20
-110.301
  0
VERTEX
  8
LAYER_1
 10
86.3588
 20
-110.301
  0
VERTEX
  8
LAYER_1
 10
89.8588
 20
-110.301
  0
VERTEX
  8
LAYER_1
 10
89.8588
 20
-109.901
  0
SEQEND
  0
POLYLINE
  8
LAYER_1
 40
0.0353
 41
0.0353
 66
1
 10
0
 20
0
 30
0
 70
1
  0
VERTEX
  8
LAYER_1
 10
86.3588
 20
-109.901
  0
VERTEX
  8
LAYER_1
 10
82.5188
 20
-109.901
  0
VERTEX
  8
LAYER_1
 10
82.4588
 20
-109.841
  0
VERTEX
  8
LAYER_1
 10
86.3588
 20
-109.841
  0
VERTEX
  8
LAYER_1
 10
90.2588
 20
-109.841
  0
VERTEX
  8
LAYER_1
 10
90.1988
 20
-109.901
  0
SEQEND
  0
POLYLINE
  8
LAYER_1
 40
0.0353
 41
0.0353
 66
1
 10
0
 20
0
 30
0
  0
VERTEX
  8
LAYER_1
 10
82.578
 20
-107.901
  0
VERTEX
  8
LAYER_1
 10
86.3588
 20
-107.901
  0
VERTEX
  8
LAYER_1
 10
90.1395
 20
-107.901
  0
SEQEND
  0
POLYLINE
  8
LAYER_1
 40
0.0353
 41
0.0353
 66
1
 10
0
 20
0
 30
0
 70
1
  0
VERTEX
  8
LAYER_1
 10
82.9588
 20
-114.801
  0
VERTEX
  8
LAYER_1
 10
89.7588
 20
-114.801
  0
VERTEX
  8
LAYER_1
 10
89.7588
 20
-115.201
  0
VERTEX
  8
LAYER_1
 10
82.9588
 20
-115.201
  0
SEQEND
  0
POLYLINE
  8
LAYER_1
 40
0.2469
 41
0.2469
 66
1
 10
0
 20
0
 30
0
 70
1
  0
VERTEX
  8
LAYER_1
 10
171.7994
 20
-115.401
  0
VERTEX
  8
LAYER_1
 10
175.3994
 20
-115.401
  0
VERTEX
  8
LAYER_1
 10
175.3994
 20
-115.201
  0
VERTEX
  8
LAYER_1
 10
171.7994
 20
-115.201
  0
VERTEX
  8
LAYER_1
 10
168.1994
 20
-115.201
  0
VERTEX
  8
LAYER_1
 10
168.1994
 20
-115.401
  0
SEQEND
  0
POLYLINE
  8
LAYER_1
 40
0.0353
 41
0.0353
 66
1
 10
0
 20
0
 30
0
  0
VERTEX
  8
LAYER_1
 10
168.2994
 20
-109.901
  0
VERTEX
  8
LAYER_1
 10
168.2994
 20
-110.301
  0
VERTEX
  8
LAYER_1
 10
171.7994
 20
-110.301
  0
VERTEX
  8
LAYER_1
 10
175.2994
 20
-110.301
  0
VERTEX
  8
LAYER_1
 10
175.2994
 20
-109.901
  0
SEQEND
  0
POLYLINE
  8
LAYER_1
 40
0.0353
 41
0.0353
 66
1
 10
0
 20
0
 30
0
  0
VERTEX
  8
LAYER_1
 10
172.1694
 20
-119.001
  0
VERTEX
  8
LAYER_1
 10
172.1694
 20
-137.53
  0
SEQEND
  0
POLYLINE
  8
LAYER_1
 40
0.0353
 41
0.0353
 66
1
 10
0
 20
0
 30
0
  0
VERTEX
  8
LAYER_1
 10
170.3694
 20
-119.001
  0
VERTEX
  8
LAYER_1
 10
170.3694
 20
-137.53
  0
SEQEND
  0
POLYLINE
  8
LAYER_1
 40
0.0353
 41
0.0353
 66
1
 10
0
 20
0
 30
0
 70
1
  0
VERTEX
  8
LAYER_1
 10
168.3994
 20
-114.801
  0
VERTEX
  8
LAYER_1
 10
171.7994
 20
-114.801
  0
VERTEX
  8
LAYER_1
 10
175.1994
 20
-114.801
  0
VERTEX
  8
LAYER_1
 10
175.1994
 20
-115.201
  0
VERTEX
  8
LAYER_1
 10
171.7994
 20
-115.201
  0
VERTEX
  8
LAYER_1
 10
168.3994
 20
-115.201
  0
SEQEND
  0
POLYLINE
  8
LAYER_1
 40
0.0353
 41
0.0353
 66
1
 10
0
 20
0
 30
0
  0
VERTEX
  8
LAYER_1
 10
173.8949
 20
-114.801
  0
VERTEX
  8
LAYER_1
 10
173.8949
 20
-110.301
  0
SEQEND
  0
POLYLINE
  8
LAYER_1
 40
0.0353
 41
0.0353
 66
1
 10
0
 20
0
 30
0
  0
VERTEX
  8
LAYER_1
 10
173.6625
 20
-117.801
  0
VERTEX
  8
LAYER_1
 10
173.6625
 20
-116.701
  0
SEQEND
  0
POLYLINE
  8
LAYER_1
 40
0.0353
 41
0.0353
 66
1
 10
0
 20
0
 30
0
  0
VERTEX
  8
LAYER_1
 10
173.664
 20
-110.301
  0
VERTEX
  8
LAYER_1
 10
173.6625
 20
-110.3036
  0
VERTEX
  8
LAYER_1
 10
173.6625
 20
-114.801
  0
SEQEND
  0
POLYLINE
  8
LAYER_1
 40
0.1482
 41
0.1482
 66
1
 10
0
 20
0
 30
0
  0
VERTEX
  8
LAYER_1
 10
175.5801
 20
-107.8484
 42
-0.297169573
  0
VERTEX
  8
LAYER_1
 10
175.6994
 20
-108.0314
  0
VERTEX
  8
LAYER_1
 10
175.6994
 20
-109.841
  0
SEQEND
  0
POLYLINE
  8
LAYER_1
 40
0.0353
 41
0.0353
 66
1
 10
0
 20
0
 30
0
  0
VERTEX
  8
LAYER_1
 10
169.7039
 20
-114.801
  0
VERTEX
  8
LAYER_1
 10
169.7039
 20
-110.301
  0
SEQEND
  0
POLYLINE
  8
LAYER_1
 40
0.0353
 41
0.0353
 66
1
 10
0
 20
0
 30
0
  0
VERTEX
  8
LAYER_1
 10
169.9363
 20
-117.801
  0
VERTEX
  8
LAYER_1
 10
169.9363
 20
-116.701
  0
SEQEND
  0
POLYLINE
  8
LAYER_1
 40
0.0353
 41
0.0353
 66
1
 10
0
 20
0
 30
0
  0
VERTEX
  8
LAYER_1
 10
169.9363
 20
-110.3036
  0
VERTEX
  8
LAYER_1
 10
169.7039
 20
-110.3036
  0
VERTEX
  8
LAYER_1
 10
171.7994
 20
-110.3036
  0
VERTEX
  8
LAYER_1
 10
173.8949
 20
-110.3036
  0
VERTEX
  8
LAYER_1
 10
173.6625
 20
-110.3036
  0
SEQEND
  0
POLYLINE
  8
LAYER_1
 40
0.0353
 41
0.0353
 66
1
 10
0
 20
0
 30
0
  0
VERTEX
  8
LAYER_1
 10
169.9348
 20
-110.301
  0
VERTEX
  8
LAYER_1
 10
169.9363
 20
-110.3036
  0
VERTEX
  8
LAYER_1
 10
169.9363
 20
-114.801
  0
SEQEND
  0
POLYLINE
  8
LAYER_1
 40
0.1482
 41
0.1482
 66
1
 10
0
 20
0
 30
0
  0
VERTEX
  8
LAYER_1
 10
168.0187
 20
-107.8484
 42
0.2971838736
  0
VERTEX
  8
LAYER_1
 10
167.8994
 20
-108.0314
  0
VERTEX
  8
LAYER_1
 10
167.8994
 20
-109.841
  0
SEQEND
  0
POLYLINE
  8
LAYER_1
 40
0.0353
 41
0.0353
 66
1
 10
0
 20
0
 30
0
  0
VERTEX
  8
LAYER_1
 10
168.0187
 20
-107.8484
  0
VERTEX
  8
LAYER_1
 10
169.2594
 20
-107.301
  0
VERTEX
  8
LAYER_1
 10
171.7994
 20
-107.301
  0
VERTEX
  8
LAYER_1
 10
174.3394
 20
-107.301
  0
VERTEX
  8
LAYER_1
 10
175.5801
 20
-107.8484
  0
SEQEND
  0
POLYLINE
  8
LAYER_1
  6
AIGENLINE001
 40
0.0882
 41
0.0882
 62
70
 66
1
 10
0
 20
0
 30
0
 70
128
  0
VERTEX
  8
LAYER_1
 10
171.2694
 20
-118.5468
  0
VERTEX
  8
LAYER_1
 10
171.2694
 20
-137.8366
  0
SEQEND
  0
POLYLINE
  8
LAYER_1
 40
0.0353
 41
0.0353
 66
1
 10
0
 20
0
 30
0
  0
VERTEX
  8
LAYER_1
 10
173.2911
 20
-119.001
 42
0.3141748927
  0
VERTEX
  8
LAYER_1
 10
174.2294
 20
-119.6551
  0
VERTEX
  8
LAYER_1
 10
182.0773
 20
-119.6551
  0
SEQEND
  0
POLYLINE
  8
LAYER_1
 40
0.0353
 41
0.0353
 66
1
 10
0
 20
0
 30
0
  0
VERTEX
  8
LAYER_1
 10
182.0773
 20
-120.6951
  0
VERTEX
  8
LAYER_1
 10
174.2294
 20
-120.6951
 42
-0.3651515413
  0
VERTEX
  8
LAYER_1
 10
172.2189
 20
-119.001
  0
SEQEND
  0
POLYLINE
  8
LAYER_1
 40
0.0353
 41
0.0353
 66
1
 10
0
 20
0
 30
0
  0
VERTEX
  8
LAYER_1
 10
84.9098
 20
-91.9701
  0
VERTEX
  8
LAYER_1
 10
84.9098
 20
-92.399
  0
SEQEND
  0
POLYLINE
  8
LAYER_1
 40
0.0353
 41
0.0353
 66
1
 10
0
 20
0
 30
0
  0
VERTEX
  8
LAYER_1
 10
88.6557
 20
-91.8125
  0
VERTEX
  8
LAYER_1
 10
88.6557
 20
-91.8143
 42
-0.4142304361
  0
VERTEX
  8
LAYER_1
 10
88.468
 20
-92.002
  0
VERTEX
  8
LAYER_1
 10
88.4402
 20
-91.9999
  0
VERTEX
  8
LAYER_1
 10
87.9397
 20
-91.9999
  0
VERTEX
  8
LAYER_1
 10
87.9223
 20
-92.0006
 42
-0.2195980673
  0
VERTEX
  8
LAYER_1
 10
87.7527
 20
-91.9223
 42
0.1522572626
  0
VERTEX
  8
LAYER_1
 10
87.2059
 20
-91.5025
 42
0.1874585983
  0
VERTEX
  8
LAYER_1
 10
85.5136
 20
-91.5025
 42
0.1522389745
  0
VERTEX
  8
LAYER_1
 10
84.9669
 20
-91.9223
 42
-0.219703038
  0
VERTEX
  8
LAYER_1
 10
84.7972
 20
-92.0006
  0
VERTEX
  8
LAYER_1
 10
84.7799
 20
-91.9999
  0
VERTEX
  8
LAYER_1
 10
84.2794
 20
-91.9999
  0
VERTEX
  8
LAYER_1
 10
84.2516
 20
-92.002
 42
-0.2956734953
  0
VERTEX
  8
LAYER_1
 10
84.0803
 20
-91.891
  0
VERTEX
  8
LAYER_1
 10
84.0667
 20
-91.769
  0
SEQEND
  0
POLYLINE
  8
LAYER_1
 40
0.0353
 41
0.0353
 66
1
 10
0
 20
0
 30
0
  0
VERTEX
  8
LAYER_1
 10
87.6404
 20
-92.632
  0
VERTEX
  8
LAYER_1
 10
87.6691
 20
-92.6296
  0
SEQEND
  0
POLYLINE
  8
LAYER_1
 40
0.0353
 41
0.0353
 66
1
 10
0
 20
0
 30
0
  0
VERTEX
  8
LAYER_1
 10
87.0672
 20
-92.1289
 42
-0.1476941374
  0
VERTEX
  8
LAYER_1
 10
87.2747
 20
-92.3946
  0
VERTEX
  8
LAYER_1
 10
87.3154
 20
-92.4267
  0
SEQEND
  0
POLYLINE
  8
LAYER_1
 40
0.0353
 41
0.0353
 66
1
 10
0
 20
0
 30
0
  0
VERTEX
  8
LAYER_1
 10
85.4054
 20
-92.4224
  0
VERTEX
  8
LAYER_1
 10
85.4461
 20
-92.3905
 42
-0.1468435919
  0
VERTEX
  8
LAYER_1
 10
85.6564
 20
-92.1262
  0
SEQEND
  0
POLYLINE
  8
LAYER_1
 40
0.0353
 41
0.0353
 66
1
 10
0
 20
0
 30
0
  0
VERTEX
  8
LAYER_1
 10
85.4448
 20
-92.5951
 42
0.211867507
  0
VERTEX
  8
LAYER_1
 10
85.7962
 20
-92.9401
 42
0.2022113615
  0
VERTEX
  8
LAYER_1
 10
86.9178
 20
-92.9426
 42
0.2102202619
  0
VERTEX
  8
LAYER_1
 10
87.2735
 20
-92.5992
  0
SEQEND
  0
POLYLINE
  8
LAYER_1
 40
0.0353
 41
0.0353
 66
1
 10
0
 20
0
 30
0
  0
VERTEX
  8
LAYER_1
 10
85.5092
 20
-92.2734
 42
0.2065147052
  0
VERTEX
  8
LAYER_1
 10
86.2883
 20
-92.6095
  0
VERTEX
  8
LAYER_1
 10
86.3563
 20
-92.6073
  0
VERTEX
  8
LAYER_1
 10
86.4558
 20
-92.6122
 42
0.2141978483
  0
VERTEX
  8
LAYER_1
 10
87.2104
 20
-92.2734
  0
SEQEND
  0
POLYLINE
  8
LAYER_1
 40
0.0353
 41
0.0353
 66
1
 10
0
 20
0
 30
0
  0
VERTEX
  8
LAYER_1
 10
85.4448
 20
-92.4548
 42
0.04192337837
  0
VERTEX
  8
LAYER_1
 10
85.0492
 20
-92.6238
  0
SEQEND
  0
POLYLINE
  8
LAYER_1
 40
0.0353
 41
0.0353
 66
1
 10
0
 20
0
 30
0
  0
VERTEX
  8
LAYER_1
 10
87.2735
 20
-92.4589
 42
-0.04177053803
  0
VERTEX
  8
LAYER_1
 10
87.6691
 20
-92.6296
  0
VERTEX
  8
LAYER_1
 10
87.6704
 20
-92.425
  0
VERTEX
  8
LAYER_1
 10
87.6417
 20
-92.4274
  0
SEQEND
  0
POLYLINE
  8
LAYER_1
 40
0.0353
 41
0.0353
 66
1
 10
0
 20
0
 30
0
  0
VERTEX
  8
LAYER_1
 10
85.0804
 20
-92.6263
  0
VERTEX
  8
LAYER_1
 10
85.4042
 20
-92.627
  0
SEQEND
  0
POLYLINE
  8
LAYER_1
 40
0.0353
 41
0.0353
 66
1
 10
0
 20
0
 30
0
  0
VERTEX
  8
LAYER_1
 10
87.3141
 20
-92.6313
 42
-0.1826922753
  0
VERTEX
  8
LAYER_1
 10
87.0776
 20
-92.9195
 42
-0.1595194413
  0
VERTEX
  8
LAYER_1
 10
86.2661
 20
-93.1079
 42
-0.1305352245
  0
VERTEX
  8
LAYER_1
 10
85.6372
 20
-92.9162
 42
-0.1673056818
  0
VERTEX
  8
LAYER_1
 10
85.4042
 20
-92.627
  0
VERTEX
  8
LAYER_1
 10
85.4448
 20
-92.5951
  0
VERTEX
  8
LAYER_1
 10
85.4448
 20
-92.4548
  0
VERTEX
  8
LAYER_1
 10
85.4363
 20
-92.3982
  0
SEQEND
  0
POLYLINE
  8
LAYER_1
 40
0.0353
 41
0.0353
 66
1
 10
0
 20
0
 30
0
  0
VERTEX
  8
LAYER_1
 10
87.2833
 20
-92.4014
  0
VERTEX
  8
LAYER_1
 10
87.2735
 20
-92.4589
  0
VERTEX
  8
LAYER_1
 10
87.2735
 20
-92.5992
  0
VERTEX
  8
LAYER_1
 10
87.3141
 20
-92.6313
  0
VERTEX
  8
LAYER_1
 10
87.6379
 20
-92.632
 42
-0.2011503679
  0
VERTEX
  8
LAYER_1
 10
87.2811
 20
-93.0702
 42
-0.1323721235
  0
VERTEX
  8
LAYER_1
 10
86.355
 20
-93.3032
 42
-0.1385177284
  0
VERTEX
  8
LAYER_1
 10
85.4317
 20
-93.0661
 42
-0.2026671728
  0
VERTEX
  8
LAYER_1
 10
85.0804
 20
-92.6263
  0
VERTEX
  8
LAYER_1
 10
85.0492
 20
-92.6238
  0
VERTEX
  8
LAYER_1
 10
85.0504
 20
-92.4192
  0
VERTEX
  8
LAYER_1
 10
85.0817
 20
-92.4217
  0
VERTEX
  8
LAYER_1
 10
85.4054
 20
-92.4224
 42
-0.1827264919
  0
VERTEX
  8
LAYER_1
 10
85.642
 20
-92.1342
 42
-0.1595066591
  0
VERTEX
  8
LAYER_1
 10
86.4534
 20
-91.9458
 42
-0.1305482889
  0
VERTEX
  8
LAYER_1
 10
87.0824
 20
-92.1374
 42
-0.1673313642
  0
VERTEX
  8
LAYER_1
 10
87.3154
 20
-92.4267
  0
VERTEX
  8
LAYER_1
 10
87.6392
 20
-92.4274
 42
0.202700398
  0
VERTEX
  8
LAYER_1
 10
87.2878
 20
-91.9876
 42
0.1385081737
  0
VERTEX
  8
LAYER_1
 10
86.3646
 20
-91.7505
 42
0.1323880573
  0
VERTEX
  8
LAYER_1
 10
85.4384
 20
-91.9835
 42
0.2011336663
  0
VERTEX
  8
LAYER_1
 10
85.0817
 20
-92.4217
  0
SEQEND
  0
POLYLINE
  8
LAYER_1
 40
0.0353
 41
0.0353
 66
1
 10
0
 20
0
 30
0
  0
VERTEX
  8
LAYER_1
 10
87.8098
 20
-91.97
  0
VERTEX
  8
LAYER_1
 10
87.8098
 20
-92.4037
 42
0.1462958348
  0
VERTEX
  8
LAYER_1
 10
87.7115
 20
-92.0833
 42
0.1501211987
  0
VERTEX
  8
LAYER_1
 10
87.181
 20
-91.6799
 42
0.1614343854
  0
VERTEX
  8
LAYER_1
 10
85.7355
 20
-91.6114
 42
0.1288204539
  0
VERTEX
  8
LAYER_1
 10
85.1068
 20
-91.9599
 42
0.2001367653
  0
VERTEX
  8
LAYER_1
 10
84.9098
 20
-92.3993
 42
0.2099539907
  0
VERTEX
  8
LAYER_1
 10
85.1454
 20
-92.9165
 42
0.1230886014
  0
VERTEX
  8
LAYER_1
 10
85.7528
 20
-93.2514
 42
0.0693722083
  0
VERTEX
  8
LAYER_1
 10
86.3546
 20
-93.3354
 42
0.1360301561
  0
VERTEX
  8
LAYER_1
 10
87.373
 20
-93.0737
 42
0.1741455949
  0
VERTEX
  8
LAYER_1
 10
87.7761
 20
-92.6033
 42
0.07994157696
  0
VERTEX
  8
LAYER_1
 10
87.8098
 20
-92.4037
  0
SEQEND
  0
POLYLINE
  8
LAYER_1
 40
0.0353
 41
0.0353
 66
1
 10
0
 20
0
 30
0
  0
VERTEX
  8
LAYER_1
 10
169.7039
 20
-116.701
  0
VERTEX
  8
LAYER_1
 10
169.7039
 20
-117.801
  0
VERTEX
  8
LAYER_1
 10
169.9994
 20
-117.801
  0
VERTEX
  8
LAYER_1
 10
169.9994
 20
-118.9965
  0
VERTEX
  8
LAYER_1
 10
170.0039
 20
-119.001
  0
VERTEX
  8
LAYER_1
 10
171.7994
 20
-119.001
  0
VERTEX
  8
LAYER_1
 10
173.5949
 20
-119.001
  0
VERTEX
  8
LAYER_1
 10
173.5994
 20
-118.9965
  0
VERTEX
  8
LAYER_1
 10
173.5994
 20
-117.801
  0
VERTEX
  8
LAYER_1
 10
173.8949
 20
-117.801
  0
VERTEX
  8
LAYER_1
 10
173.8949
 20
-116.701
  0
SEQEND
  0
POLYLINE
  8
LAYER_1
 40
0.0353
 41
0.0353
 66
1
 10
0
 20
0
 30
0
  0
VERTEX
  8
LAYER_1
 10
170.3694
 20
-137.53
 42
-0.3999606155
  0
VERTEX
  8
LAYER_1
 10
170.7294
 20
-137.53
 42
0.1905462348
  0
VERTEX
  8
LAYER_1
 10
170.9094
 20
-137.602
 42
0.1905489245
  0
VERTEX
  8
LAYER_1
 10
171.0894
 20
-137.53
 42
-0.1905462348
  0
VERTEX
  8
LAYER_1
 10
171.2694
 20
-137.458
 42
-0.1905489245
  0
VERTEX
  8
LAYER_1
 10
171.4494
 20
-137.53
 42
0.1905462348
  0
VERTEX
  8
LAYER_1
 10
171.6294
 20
-137.602
 42
0.1905489245
  0
VERTEX
  8
LAYER_1
 10
171.8094
 20
-137.53
 42
-0.1905462348
  0
VERTEX
  8
LAYER_1
 10
171.9894
 20
-137.458
 42
-0.1905489245
  0
VERTEX
  8
LAYER_1
 10
172.1694
 20
-137.53
  0
SEQEND
  0
POLYLINE
  8
LAYER_1
 40
0.0353
 41
0.0353
 66
1
 10
0
 20
0
 30
0
  0
VERTEX
  8
LAYER_1
 10
182.0773
 20
-119.6551
 42
-0.3998750084
  0
VERTEX
  8
LAYER_1
 10
182.0773
 20
-119.8631
 42
0.1905358799
  0
VERTEX
  8
LAYER_1
 10
182.0357
 20
-119.9671
 42
0.1913198279
  0
VERTEX
  8
LAYER_1
 10
182.0773
 20
-120.0711
 42
-0.190138802
  0
VERTEX
  8
LAYER_1
 10
182.1189
 20
-120.1751
 42
-0.1905568878
  0
VERTEX
  8
LAYER_1
 10
182.0773
 20
-120.2791
 42
0.1905358799
  0
VERTEX
  8
LAYER_1
 10
182.0357
 20
-120.3831
 42
0.1913198279
  0
VERTEX
  8
LAYER_1
 10
182.0773
 20
-120.4871
 42
-0.190138802
  0
VERTEX
  8
LAYER_1
 10
182.1189
 20
-120.5911
 42
-0.1905568878
  0
VERTEX
  8
LAYER_1
 10
182.0773
 20
-120.6951
  0
SEQEND
  0
POLYLINE
  8
LAYER_1
 40
0.0353
 41
0.0353
 66
1
 10
0
 20
0
 30
0
  0
VERTEX
  8
LAYER_1
 10
182.4773
 20
-119.6551
 42
-0.3998750084
  0
VERTEX
  8
LAYER_1
 10
182.4773
 20
-119.8631
 42
0.1905358799
  0
VERTEX
  8
LAYER_1
 10
182.4357
 20
-119.9671
 42
0.1913198279
  0
VERTEX
  8
LAYER_1
 10
182.4773
 20
-120.0711
 42
-0.190138802
  0
VERTEX
  8
LAYER_1
 10
182.5189
 20
-120.1751
 42
-0.1905568878
  0
VERTEX
  8
LAYER_1
 10
182.4773
 20
-120.2791
 42
0.1905358799
  0
VERTEX
  8
LAYER_1
 10
182.4357
 20
-120.3831
 42
0.1913198279
  0
VERTEX
  8
LAYER_1
 10
182.4773
 20
-120.4871
 42
-0.190138802
  0
VERTEX
  8
LAYER_1
 10
182.5189
 20
-120.5911
 42
-0.1905568878
  0
VERTEX
  8
LAYER_1
 10
182.4773
 20
-120.6951
  0
SEQEND
  0
POLYLINE
  8
LAYER_1
 40
0.0353
 41
0.0353
 66
1
 10
0
 20
0
 30
0
  0
VERTEX
  8
LAYER_1
 10
80.0068
 20
-164.3686
  0
VERTEX
  8
LAYER_1
 10
80.0159
 20
-164.4745
  0
SEQEND
  0
POLYLINE
  8
LAYER_1
 40
0.0353
 41
0.0353
 66
1
 10
0
 20
0
 30
0
  0
VERTEX
  8
LAYER_1
 10
79.9146
 20
-179.8121
  0
VERTEX
  8
LAYER_1
 10
79.9145
 20
-179.8564
  0
VERTEX
  8
LAYER_1
 10
79.917
 20
-180.0298
  0
SEQEND
  0
POLYLINE
  8
LAYER_1
 40
0.0353
 41
0.0353
 66
1
 10
0
 20
0
 30
0
 70
1
  0
VERTEX
  8
LAYER_1
 10
90.3388
 20
-180.3961
  0
VERTEX
  8
LAYER_1
 10
90.5042
 20
-180.2307
  0
VERTEX
  8
LAYER_1
 10
90.7588
 20
-180.2307
  0
VERTEX
  8
LAYER_1
 10
90.5391
 20
-180.4503
  0
VERTEX
  8
LAYER_1
 10
90.7588
 20
-180.8307
  0
VERTEX
  8
LAYER_1
 10
90.5509
 20
-180.8307
  0
VERTEX
  8
LAYER_1
 10
90.4074
 20
-180.5821
  0
VERTEX
  8
LAYER_1
 10
90.3388
 20
-180.6507
  0
VERTEX
  8
LAYER_1
 10
90.3388
 20
-180.8307
  0
VERTEX
  8
LAYER_1
 10
90.1588
 20
-180.8307
  0
VERTEX
  8
LAYER_1
 10
90.1588
 20
-180.2307
  0
VERTEX
  8
LAYER_1
 10
90.3388
 20
-180.2307
  0
SEQEND
  0
POLYLINE
  8
LAYER_1
 40
0.0353
 41
0.0353
 66
1
 10
0
 20
0
 30
0
 70
1
  0
VERTEX
  8
LAYER_1
 10
89.8588
 20
-180.2307
  0
VERTEX
  8
LAYER_1
 10
89.6404
 20
-180.8307
  0
VERTEX
  8
LAYER_1
 10
89.4771
 20
-180.8307
  0
VERTEX
  8
LAYER_1
 10
89.2588
 20
-180.2307
  0
VERTEX
  8
LAYER_1
 10
89.4503
 20
-180.2307
  0
VERTEX
  8
LAYER_1
 10
89.5588
 20
-180.5286
  0
VERTEX
  8
LAYER_1
 10
89.6672
 20
-180.2307
  0
SEQEND
  0
POLYLINE
  8
LAYER_1
 40
0.0353
 41
0.0353
 66
1
 10
0
 20
0
 30
0
 70
1
  0
VERTEX
  8
LAYER_1
 10
88.3588
 20
-180.2307
  0
VERTEX
  8
LAYER_1
 10
88.5388
 20
-180.2307
  0
VERTEX
  8
LAYER_1
 10
88.5388
 20
-180.3961
  0
VERTEX
  8
LAYER_1
 10
88.7042
 20
-180.2307
  0
VERTEX
  8
LAYER_1
 10
88.9588
 20
-180.2307
  0
VERTEX
  8
LAYER_1
 10
88.7391
 20
-180.4503
  0
VERTEX
  8
LAYER_1
 10
88.9588
 20
-180.8307
  0
VERTEX
  8
LAYER_1
 10
88.7509
 20
-180.8307
  0
VERTEX
  8
LAYER_1
 10
88.6074
 20
-180.5821
  0
VERTEX
  8
LAYER_1
 10
88.5388
 20
-180.6507
  0
VERTEX
  8
LAYER_1
 10
88.5388
 20
-180.8307
  0
VERTEX
  8
LAYER_1
 10
88.3588
 20
-180.8307
  0
SEQEND
  0
POLYLINE
  8
LAYER_1
 40
0.0353
 41
0.0353
 66
1
 10
0
 20
0
 30
0
  0
VERTEX
  8
LAYER_1
 10
92.2208
 20
-163.9686
  0
VERTEX
  8
LAYER_1
 10
92.382
 20
-163.9803
 42
-0.2336077139
  0
VERTEX
  8
LAYER_1
 10
92.7109
 20
-164.3164
  0
VERTEX
  8
LAYER_1
 10
92.7208
 20
-164.4686
  0
SEQEND
  0
POLYLINE
  8
LAYER_1
 40
0.0353
 41
0.0353
 66
1
 10
0
 20
0
 30
0
  0
VERTEX
  8
LAYER_1
 10
82.1752
 20
-182.0749
  0
VERTEX
  8
LAYER_1
 10
81.9596
 20
-182.0757
  0
SEQEND
  0
POLYLINE
  8
LAYER_1
 40
0.0353
 41
0.0353
 66
1
 10
0
 20
0
 30
0
  0
VERTEX
  8
LAYER_1
 10
91.8588
 20
-182.1307
  0
VERTEX
  8
LAYER_1
 10
92.3588
 20
-182.1307
  0
SEQEND
  0
POLYLINE
  8
LAYER_1
 40
0.0353
 41
0.0353
 66
1
 10
0
 20
0
 30
0
  0
VERTEX
  8
LAYER_1
 10
91.2588
 20
-182.1254
 42
0.02828076172
  0
VERTEX
  8
LAYER_1
 10
91.8588
 20
-182.1307
  0
SEQEND
  0
POLYLINE
  8
LAYER_1
 40
0.0353
 41
0.0353
 66
1
 10
0
 20
0
 30
0
  0
VERTEX
  8
LAYER_1
 10
91.2588
 20
-182.0888
  0
VERTEX
  8
LAYER_1
 10
91.2588
 20
-182.1254
  0
SEQEND
  0
POLYLINE
  8
LAYER_1
 40
0.0353
 41
0.0353
 66
1
 10
0
 20
0
 30
0
  0
VERTEX
  8
LAYER_1
 10
91.2588
 20
-182.0888
 42
0.02827055228
  0
VERTEX
  8
LAYER_1
 10
90.6588
 20
-182.0835
  0
SEQEND
  0
POLYLINE
  8
LAYER_1
 40
0.0353
 41
0.0353
 66
1
 10
0
 20
0
 30
0
  0
VERTEX
  8
LAYER_1
 10
89.9113
 20
-182.0835
  0
VERTEX
  8
LAYER_1
 10
90.6588
 20
-182.0835
  0
SEQEND
  0
POLYLINE
  8
LAYER_1
 40
0.0353
 41
0.0353
 66
1
 10
0
 20
0
 30
0
  0
VERTEX
  8
LAYER_1
 10
89.3113
 20
-182.0784
 42
0.01937728274
  0
VERTEX
  8
LAYER_1
 10
89.9113
 20
-182.0835
  0
SEQEND
  0
POLYLINE
  8
LAYER_1
 40
0.0353
 41
0.0353
 66
1
 10
0
 20
0
 30
0
  0
VERTEX
  8
LAYER_1
 10
89.2587
 20
-182.0257
  0
VERTEX
  8
LAYER_1
 10
89.3113
 20
-182.0784
  0
SEQEND
  0
POLYLINE
  8
LAYER_1
 40
0.0353
 41
0.0353
 66
1
 10
0
 20
0
 30
0
  0
VERTEX
  8
LAYER_1
 10
89.2587
 20
-182.0257
 42
0.03552294289
  0
VERTEX
  8
LAYER_1
 10
88.917
 20
-182.014
 42
0.003255470154
  0
VERTEX
  8
LAYER_1
 10
86.3588
 20
-182.0006
 42
0.03639839876
  0
VERTEX
  8
LAYER_1
 10
83.4589
 20
-182.0257
  0
SEQEND
  0
POLYLINE
  8
LAYER_1
 40
0.0353
 41
0.0353
 66
1
 10
0
 20
0
 30
0
  0
VERTEX
  8
LAYER_1
 10
83.3591
 20
-182.1255
  0
VERTEX
  8
LAYER_1
 10
83.4589
 20
-182.0257
  0
SEQEND
  0
POLYLINE
  8
LAYER_1
 40
0.0353
 41
0.0353
 66
1
 10
0
 20
0
 30
0
  0
VERTEX
  8
LAYER_1
 10
82.7591
 20
-182.1307
  0
VERTEX
  8
LAYER_1
 10
83.3591
 20
-182.1255
  0
SEQEND
  0
POLYLINE
  8
LAYER_1
 40
0.0353
 41
0.0353
 66
1
 10
0
 20
0
 30
0
  0
VERTEX
  8
LAYER_1
 10
80.3587
 20
-182.1307
  0
VERTEX
  8
LAYER_1
 10
82.7591
 20
-182.1307
  0
SEQEND
  0
POLYLINE
  8
LAYER_1
 40
0.0353
 41
0.0353
 66
1
 10
0
 20
0
 30
0
  0
VERTEX
  8
LAYER_1
 10
80.3588
 20
-163.8307
  0
VERTEX
  8
LAYER_1
 10
80.4967
 20
-163.9686
  0
SEQEND
  0
POLYLINE
  8
LAYER_1
 40
0.0353
 41
0.0353
 66
1
 10
0
 20
0
 30
0
  0
VERTEX
  8
LAYER_1
 10
80.4588
 20
-163.8315
 42
0.008439759504
  0
VERTEX
  8
LAYER_1
 10
80.3588
 20
-163.8307
  0
SEQEND
  0
POLYLINE
  8
LAYER_1
 40
0.0353
 41
0.0353
 66
1
 10
0
 20
0
 30
0
  0
VERTEX
  8
LAYER_1
 10
80.4588
 20
-163.8645
  0
VERTEX
  8
LAYER_1
 10
80.4588
 20
-163.8315
  0
SEQEND
  0
POLYLINE
  8
LAYER_1
 40
0.0353
 41
0.0353
 66
1
 10
0
 20
0
 30
0
  0
VERTEX
  8
LAYER_1
 10
80.4588
 20
-163.8645
 42
0.01192473666
  0
VERTEX
  8
LAYER_1
 10
80.5788
 20
-163.8656
  0
VERTEX
  8
LAYER_1
 10
80.6988
 20
-163.8645
  0
SEQEND
  0
POLYLINE
  8
LAYER_1
 40
0.0353
 41
0.0353
 66
1
 10
0
 20
0
 30
0
  0
VERTEX
  8
LAYER_1
 10
80.6988
 20
-163.8342
  0
VERTEX
  8
LAYER_1
 10
80.6988
 20
-163.8645
  0
SEQEND
  0
POLYLINE
  8
LAYER_1
 40
0.0353
 41
0.0353
 66
1
 10
0
 20
0
 30
0
  0
VERTEX
  8
LAYER_1
 10
81.0988
 20
-163.8307
  0
VERTEX
  8
LAYER_1
 10
80.6988
 20
-163.8342
  0
SEQEND
  0
POLYLINE
  8
LAYER_1
 40
0.0353
 41
0.0353
 66
1
 10
0
 20
0
 30
0
  0
VERTEX
  8
LAYER_1
 10
83.1574
 20
-163.8307
  0
VERTEX
  8
LAYER_1
 10
81.0988
 20
-163.8307
  0
SEQEND
  0
POLYLINE
  8
LAYER_1
 40
0.0353
 41
0.0353
 66
1
 10
0
 20
0
 30
0
  0
VERTEX
  8
LAYER_1
 10
83.5574
 20
-163.8341
 42
0.01563021876
  0
VERTEX
  8
LAYER_1
 10
83.1574
 20
-163.8307
  0
SEQEND
  0
POLYLINE
  8
LAYER_1
 40
0.0353
 41
0.0353
 66
1
 10
0
 20
0
 30
0
  0
VERTEX
  8
LAYER_1
 10
83.629
 20
-163.9057
  0
VERTEX
  8
LAYER_1
 10
83.5574
 20
-163.8341
  0
SEQEND
  0
POLYLINE
  8
LAYER_1
 40
0.0353
 41
0.0353
 66
1
 10
0
 20
0
 30
0
  0
VERTEX
  8
LAYER_1
 10
83.6589
 20
-163.9356
 42
0.03325873259
  0
VERTEX
  8
LAYER_1
 10
84.0245
 20
-163.9472
 42
0.002965416796
  0
VERTEX
  8
LAYER_1
 10
86.3588
 20
-163.959
 42
0.05195526061
  0
VERTEX
  8
LAYER_1
 10
89.0587
 20
-163.9356
  0
SEQEND
  0
POLYLINE
  8
LAYER_1
 40
0.0353
 41
0.0353
 66
1
 10
0
 20
0
 30
0
  0
VERTEX
  8
LAYER_1
 10
89.1601
 20
-163.8341
  0
VERTEX
  8
LAYER_1
 10
89.0885
 20
-163.9057
  0
SEQEND
  0
POLYLINE
  8
LAYER_1
 40
0.0353
 41
0.0353
 66
1
 10
0
 20
0
 30
0
  0
VERTEX
  8
LAYER_1
 10
89.5601
 20
-163.8307
  0
VERTEX
  8
LAYER_1
 10
89.1601
 20
-163.8341
  0
SEQEND
  0
POLYLINE
  8
LAYER_1
 40
0.0353
 41
0.0353
 66
1
 10
0
 20
0
 30
0
  0
VERTEX
  8
LAYER_1
 10
91.6188
 20
-163.8307
  0
VERTEX
  8
LAYER_1
 10
89.5601
 20
-163.8307
  0
SEQEND
  0
POLYLINE
  8
LAYER_1
 40
0.0353
 41
0.0353
 66
1
 10
0
 20
0
 30
0
  0
VERTEX
  8
LAYER_1
 10
92.0188
 20
-163.8342
 42
0.023209606
  0
VERTEX
  8
LAYER_1
 10
91.6188
 20
-163.8307
  0
SEQEND
  0
POLYLINE
  8
LAYER_1
 40
0.0353
 41
0.0353
 66
1
 10
0
 20
0
 30
0
  0
VERTEX
  8
LAYER_1
 10
92.0188
 20
-163.8645
  0
VERTEX
  8
LAYER_1
 10
92.0188
 20
-163.8342
  0
SEQEND
  0
POLYLINE
  8
LAYER_1
 40
0.0353
 41
0.0353
 66
1
 10
0
 20
0
 30
0
  0
VERTEX
  8
LAYER_1
 10
92.0188
 20
-163.8645
 42
0.01192473666
  0
VERTEX
  8
LAYER_1
 10
92.1388
 20
-163.8656
  0
VERTEX
  8
LAYER_1
 10
92.2588
 20
-163.8645
  0
SEQEND
  0
POLYLINE
  8
LAYER_1
 40
0.0353
 41
0.0353
 66
1
 10
0
 20
0
 30
0
  0
VERTEX
  8
LAYER_1
 10
92.2588
 20
-163.8315
  0
VERTEX
  8
LAYER_1
 10
92.2588
 20
-163.8645
  0
SEQEND
  0
POLYLINE
  8
LAYER_1
 40
0.0353
 41
0.0353
 66
1
 10
0
 20
0
 30
0
  0
VERTEX
  8
LAYER_1
 10
92.3588
 20
-163.8307
  0
VERTEX
  8
LAYER_1
 10
92.2588
 20
-163.8315
  0
SEQEND
  0
POLYLINE
  8
LAYER_1
 40
0.0353
 41
0.0353
 66
1
 10
0
 20
0
 30
0
  0
VERTEX
  8
LAYER_1
 10
82.5388
 20
-163.8413
  0
VERTEX
  8
LAYER_1
 10
82.5388
 20
-163.8542
  0
SEQEND
  0
POLYLINE
  8
LAYER_1
 40
0.0353
 41
0.0353
 66
1
 10
0
 20
0
 30
0
  0
VERTEX
  8
LAYER_1
 10
82.5388
 20
-163.8413
 42
0.01384188884
  0
VERTEX
  8
LAYER_1
 10
82.3788
 20
-163.8399
  0
SEQEND
  0
POLYLINE
  8
LAYER_1
 40
0.0353
 41
0.0353
 66
1
 10
0
 20
0
 30
0
  0
VERTEX
  8
LAYER_1
 10
81.8988
 20
-163.8399
  0
VERTEX
  8
LAYER_1
 10
81.7388
 20
-163.8413
  0
SEQEND
  0
POLYLINE
  8
LAYER_1
 40
0.0353
 41
0.0353
 66
1
 10
0
 20
0
 30
0
  0
VERTEX
  8
LAYER_1
 10
81.7388
 20
-163.8542
  0
VERTEX
  8
LAYER_1
 10
81.7388
 20
-163.8413
  0
SEQEND
  0
POLYLINE
  8
LAYER_1
 40
0.0353
 41
0.0353
 66
1
 10
0
 20
0
 30
0
  0
VERTEX
  8
LAYER_1
 10
81.7388
 20
-163.8542
 42
0.01385880893
  0
VERTEX
  8
LAYER_1
 10
81.8988
 20
-163.8556
  0
SEQEND
  0
POLYLINE
  8
LAYER_1
 40
0.0353
 41
0.0353
 66
1
 10
0
 20
0
 30
0
  0
VERTEX
  8
LAYER_1
 10
82.3788
 20
-163.8556
  0
VERTEX
  8
LAYER_1
 10
82.5388
 20
-163.8542
  0
SEQEND
  0
POLYLINE
  8
LAYER_1
 40
0.0353
 41
0.0353
 66
1
 10
0
 20
0
 30
0
  0
VERTEX
  8
LAYER_1
 10
90.3388
 20
-163.8399
  0
VERTEX
  8
LAYER_1
 10
90.1788
 20
-163.8413
  0
SEQEND
  0
POLYLINE
  8
LAYER_1
 40
0.0353
 41
0.0353
 66
1
 10
0
 20
0
 30
0
  0
VERTEX
  8
LAYER_1
 10
90.1788
 20
-163.8542
  0
VERTEX
  8
LAYER_1
 10
90.1788
 20
-163.8413
  0
SEQEND
  0
POLYLINE
  8
LAYER_1
 40
0.0353
 41
0.0353
 66
1
 10
0
 20
0
 30
0
  0
VERTEX
  8
LAYER_1
 10
90.1788
 20
-163.8542
 42
0.01385880893
  0
VERTEX
  8
LAYER_1
 10
90.3388
 20
-163.8556
  0
SEQEND
  0
POLYLINE
  8
LAYER_1
 40
0.0353
 41
0.0353
 66
1
 10
0
 20
0
 30
0
  0
VERTEX
  8
LAYER_1
 10
90.8188
 20
-163.8556
  0
VERTEX
  8
LAYER_1
 10
90.9788
 20
-163.8542
  0
SEQEND
  0
POLYLINE
  8
LAYER_1
 40
0.0353
 41
0.0353
 66
1
 10
0
 20
0
 30
0
  0
VERTEX
  8
LAYER_1
 10
90.9788
 20
-163.8413
  0
VERTEX
  8
LAYER_1
 10
90.9788
 20
-163.8542
  0
SEQEND
  0
POLYLINE
  8
LAYER_1
 40
0.0353
 41
0.0353
 66
1
 10
0
 20
0
 30
0
  0
VERTEX
  8
LAYER_1
 10
90.9788
 20
-163.8413
 42
0.01384188884
  0
VERTEX
  8
LAYER_1
 10
90.8188
 20
-163.8399
  0
SEQEND
  0
POLYLINE
  8
LAYER_1
 40
0.0353
 41
0.0353
 66
1
 10
0
 20
0
 30
0
  0
VERTEX
  8
LAYER_1
 10
92.8588
 20
-164.3306
 42
0.1988985525
  0
VERTEX
  8
LAYER_1
 10
92.7123
 20
-163.9771
 42
0.198887159
  0
VERTEX
  8
LAYER_1
 10
92.3588
 20
-163.8307
  0
SEQEND
  0
POLYLINE
  8
LAYER_1
 40
0.0353
 41
0.0353
 66
1
 10
0
 20
0
 30
0
  0
VERTEX
  8
LAYER_1
 10
92.3588
 20
-182.1307
 42
0.1989044488
  0
VERTEX
  8
LAYER_1
 10
92.7123
 20
-181.9842
 42
0.1989036642
  0
VERTEX
  8
LAYER_1
 10
92.8588
 20
-181.6307
  0
SEQEND
  0
POLYLINE
  8
LAYER_1
 40
0.0353
 41
0.0353
 66
1
 10
0
 20
0
 30
0
  0
VERTEX
  8
LAYER_1
 10
80.3588
 20
-163.8307
 42
0.1989351328
  0
VERTEX
  8
LAYER_1
 10
80.0052
 20
-163.9771
 42
0.1988888815
  0
VERTEX
  8
LAYER_1
 10
79.8588
 20
-164.3306
  0
SEQEND
  0
POLYLINE
  8
LAYER_1
 40
0.0353
 41
0.0353
 66
1
 10
0
 20
0
 30
0
  0
VERTEX
  8
LAYER_1
 10
79.8588
 20
-181.6307
  0
VERTEX
  8
LAYER_1
 10
79.8588
 20
-164.3306
  0
VERTEX
  8
LAYER_1
 10
79.9967
 20
-164.4686
  0
VERTEX
  8
LAYER_1
 10
79.9967
 20
-179.6494
  0
SEQEND
  0
POLYLINE
  8
LAYER_1
 40
0.0353
 41
0.0353
 66
1
 10
0
 20
0
 30
0
  0
VERTEX
  8
LAYER_1
 10
88.5886
 20
-161.9307
  0
VERTEX
  8
LAYER_1
 10
88.4833
 20
-161.9307
  0
SEQEND
  0
POLYLINE
  8
LAYER_1
 40
0.0353
 41
0.0353
 66
1
 10
0
 20
0
 30
0
  0
VERTEX
  8
LAYER_1
 10
84.2342
 20
-161.9307
  0
VERTEX
  8
LAYER_1
 10
84.129
 20
-161.9307
  0
SEQEND
  0
POLYLINE
  8
LAYER_1
 40
0.0353
 41
0.0353
 66
1
 10
0
 20
0
 30
0
  0
VERTEX
  8
LAYER_1
 10
84.8342
 20
-161.9359
 42
0.02002275683
  0
VERTEX
  8
LAYER_1
 10
84.2342
 20
-161.9307
  0
SEQEND
  0
POLYLINE
  8
LAYER_1
 40
0.0353
 41
0.0353
 66
1
 10
0
 20
0
 30
0
  0
VERTEX
  8
LAYER_1
 10
84.8588
 20
-161.9605
  0
VERTEX
  8
LAYER_1
 10
84.8342
 20
-161.9359
  0
SEQEND
  0
POLYLINE
  8
LAYER_1
 40
0.0353
 41
0.0353
 66
1
 10
0
 20
0
 30
0
  0
VERTEX
  8
LAYER_1
 10
84.8588
 20
-161.9605
 42
0.02751632929
  0
VERTEX
  8
LAYER_1
 10
85.2778
 20
-161.9694
 42
0.00449025646
  0
VERTEX
  8
LAYER_1
 10
86.3588
 20
-161.9734
  0
VERTEX
  8
LAYER_1
 10
87.8587
 20
-161.9605
  0
SEQEND
  0
POLYLINE
  8
LAYER_1
 40
0.0353
 41
0.0353
 66
1
 10
0
 20
0
 30
0
  0
VERTEX
  8
LAYER_1
 10
87.8833
 20
-161.9359
  0
VERTEX
  8
LAYER_1
 10
87.8587
 20
-161.9605
  0
SEQEND
  0
POLYLINE
  8
LAYER_1
 40
0.0353
 41
0.0353
 66
1
 10
0
 20
0
 30
0
  0
VERTEX
  8
LAYER_1
 10
88.4833
 20
-161.9307
  0
VERTEX
  8
LAYER_1
 10
87.8833
 20
-161.9359
  0
SEQEND
  0
POLYLINE
  8
LAYER_1
 40
0.0353
 41
0.0353
 66
1
 10
0
 20
0
 30
0
  0
VERTEX
  8
LAYER_1
 10
89.0885
 20
-162.4306
 42
0.1988890519
  0
VERTEX
  8
LAYER_1
 10
88.9421
 20
-162.0771
 42
0.1988881683
  0
VERTEX
  8
LAYER_1
 10
88.5886
 20
-161.9307
  0
SEQEND
  0
POLYLINE
  8
LAYER_1
 40
0.0353
 41
0.0353
 66
1
 10
0
 20
0
 30
0
  0
VERTEX
  8
LAYER_1
 10
84.129
 20
-161.9307
 42
0.1989361463
  0
VERTEX
  8
LAYER_1
 10
83.7754
 20
-162.0771
 42
0.1988793866
  0
VERTEX
  8
LAYER_1
 10
83.629
 20
-162.4306
  0
SEQEND
  0
POLYLINE
  8
LAYER_1
 40
0.0353
 41
0.0353
 66
1
 10
0
 20
0
 30
0
  0
VERTEX
  8
LAYER_1
 10
83.629
 20
-162.4306
  0
VERTEX
  8
LAYER_1
 10
83.629
 20
-163.9057
  0
VERTEX
  8
LAYER_1
 10
83.6589
 20
-163.9356
  0
VERTEX
  8
LAYER_1
 10
83.6589
 20
-162.4605
  0
VERTEX
  8
LAYER_1
 10
83.6705
 20
-162.2993
 42
-0.2335690563
  0
VERTEX
  8
LAYER_1
 10
84.0066
 20
-161.9705
  0
VERTEX
  8
LAYER_1
 10
84.1588
 20
-161.9605
  0
VERTEX
  8
LAYER_1
 10
84.1691
 20
-161.9628
 42
0.00777314244
  0
VERTEX
  8
LAYER_1
 10
88.5483
 20
-161.963
  0
VERTEX
  8
LAYER_1
 10
88.5585
 20
-161.9606
  0
VERTEX
  8
LAYER_1
 10
88.5587
 20
-161.9605
  0
VERTEX
  8
LAYER_1
 10
88.7109
 20
-161.9705
 42
-0.2335771521
  0
VERTEX
  8
LAYER_1
 10
89.047
 20
-162.2993
  0
VERTEX
  8
LAYER_1
 10
89.0587
 20
-162.4605
  0
VERTEX
  8
LAYER_1
 10
89.0587
 20
-163.9356
  0
VERTEX
  8
LAYER_1
 10
89.0885
 20
-163.9057
  0
VERTEX
  8
LAYER_1
 10
89.0885
 20
-162.4306
  0
SEQEND
  0
POLYLINE
  8
LAYER_1
 40
0.0353
 41
0.0353
 66
1
 10
0
 20
0
 30
0
  0
VERTEX
  8
LAYER_1
 10
79.9138
 20
-180.0298
  0
VERTEX
  8
LAYER_1
 10
79.9138
 20
-181.5757
  0
VERTEX
  8
LAYER_1
 10
79.9237
 20
-181.7279
 42
0.2335970633
  0
VERTEX
  8
LAYER_1
 10
80.2525
 20
-182.064
  0
VERTEX
  8
LAYER_1
 10
80.4132
 20
-182.0755
  0
VERTEX
  8
LAYER_1
 10
80.4137
 20
-182.0757
  0
VERTEX
  8
LAYER_1
 10
81.9596
 20
-182.0757
  0
VERTEX
  8
LAYER_1
 10
81.9596
 20
-182.0689
  0
SEQEND
  0
POLYLINE
  8
LAYER_1
 40
0.0353
 41
0.0353
 66
1
 10
0
 20
0
 30
0
  0
VERTEX
  8
LAYER_1
 10
79.8588
 20
-181.6307
 42
0.1988939956
  0
VERTEX
  8
LAYER_1
 10
80.0052
 20
-181.9842
 42
0.1989004454
  0
VERTEX
  8
LAYER_1
 10
80.3587
 20
-182.1307
  0
SEQEND
  0
POLYLINE
  8
LAYER_1
 40
0.0353
 41
0.0353
 66
1
 10
0
 20
0
 30
0
  0
VERTEX
  8
LAYER_1
 10
90.9788
 20
-182.0843
  0
VERTEX
  8
LAYER_1
 10
90.9788
 20
-185.9595
  0
SEQEND
  0
POLYLINE
  8
LAYER_1
 40
0.0353
 41
0.0353
 66
1
 10
0
 20
0
 30
0
  0
VERTEX
  8
LAYER_1
 10
90.1388
 20
-182.0835
  0
VERTEX
  8
LAYER_1
 10
90.1388
 20
-185.9595
  0
SEQEND
  0
POLYLINE
  8
LAYER_1
 40
0.0353
 41
0.0353
 66
1
 10
0
 20
0
 30
0
  0
VERTEX
  8
LAYER_1
 10
80.0195
 20
-164.4694
  0
VERTEX
  8
LAYER_1
 10
79.9967
 20
-164.4686
  0
VERTEX
  8
LAYER_1
 10
80.0152
 20
-164.3758
  0
VERTEX
  8
LAYER_1
 10
80.0241
 20
-164.2715
 42
-0.204439626
  0
VERTEX
  8
LAYER_1
 10
80.3375
 20
-163.9792
  0
VERTEX
  8
LAYER_1
 10
80.4967
 20
-163.9686
  0
VERTEX
  8
LAYER_1
 10
80.4923
 20
-163.9729
  0
VERTEX
  8
LAYER_1
 10
80.4966
 20
-163.9773
  0
VERTEX
  8
LAYER_1
 10
80.5011
 20
-163.9731
  0
VERTEX
  8
LAYER_1
 10
80.4969
 20
-163.9686
  0
VERTEX
  8
LAYER_1
 10
80.5054
 20
-163.9697
  0
VERTEX
  8
LAYER_1
 10
80.9967
 20
-163.973
  0
VERTEX
  8
LAYER_1
 10
91.7208
 20
-163.973
  0
VERTEX
  8
LAYER_1
 10
92.2122
 20
-163.9697
  0
VERTEX
  8
LAYER_1
 10
92.2206
 20
-163.9686
  0
VERTEX
  8
LAYER_1
 10
92.2208
 20
-163.9686
  0
VERTEX
  8
LAYER_1
 10
92.3588
 20
-163.8307
  0
SEQEND
  0
POLYLINE
  8
LAYER_1
 40
0.0353
 41
0.0353
 66
1
 10
0
 20
0
 30
0
  0
VERTEX
  8
LAYER_1
 10
82.1773
 20
-182.0748
  0
VERTEX
  8
LAYER_1
 10
82.2548
 20
-182.0738
  0
VERTEX
  8
LAYER_1
 10
82.2595
 20
-182.0731
  0
VERTEX
  8
LAYER_1
 10
82.2596
 20
-182.0731
  0
VERTEX
  8
LAYER_1
 10
82.3443
 20
-181.9884
  0
VERTEX
  8
LAYER_1
 10
91.7208
 20
-181.9884
  0
VERTEX
  8
LAYER_1
 10
92.2122
 20
-181.9916
  0
VERTEX
  8
LAYER_1
 10
92.2206
 20
-181.9927
  0
VERTEX
  8
LAYER_1
 10
92.2208
 20
-181.9927
  0
VERTEX
  8
LAYER_1
 10
92.3755
 20
-181.983
 42
0.2045856637
  0
VERTEX
  8
LAYER_1
 10
92.6925
 20
-181.6934
  0
VERTEX
  8
LAYER_1
 10
92.7022
 20
-181.5856
  0
VERTEX
  8
LAYER_1
 10
92.7023
 20
-181.5856
  0
VERTEX
  8
LAYER_1
 10
92.7208
 20
-181.4927
  0
VERTEX
  8
LAYER_1
 10
92.7208
 20
-164.4686
  0
VERTEX
  8
LAYER_1
 10
92.8588
 20
-164.3306
  0
VERTEX
  8
LAYER_1
 10
92.8588
 20
-181.6307
  0
SEQEND
  0
POLYLINE
  8
LAYER_1
 40
0.0353
 41
0.0353
 66
1
 10
0
 20
0
 30
0
 70
1
  0
VERTEX
  8
LAYER_1
 10
90.8188
 20
-163.8399
  0
VERTEX
  8
LAYER_1
 10
90.8188
 20
-163.8556
  0
VERTEX
  8
LAYER_1
 10
90.3388
 20
-163.8556
  0
VERTEX
  8
LAYER_1
 10
90.3388
 20
-163.8399
  0
SEQEND
  0
POLYLINE
  8
LAYER_1
 40
0.0353
 41
0.0353
 66
1
 10
0
 20
0
 30
0
 70
1
  0
VERTEX
  8
LAYER_1
 10
82.3788
 20
-163.8399
  0
VERTEX
  8
LAYER_1
 10
82.3788
 20
-163.8556
  0
VERTEX
  8
LAYER_1
 10
81.8988
 20
-163.8556
  0
VERTEX
  8
LAYER_1
 10
81.8988
 20
-163.8399
  0
SEQEND
  0
POLYLINE
  8
LAYER_1
  6
AIGENLINE001
 40
0.0353
 41
0.0353
 66
1
 10
0
 20
0
 30
0
 70
128
  0
VERTEX
  8
LAYER_1
 10
79.2088
 20
-180.9507
  0
VERTEX
  8
LAYER_1
 10
82.7088
 20
-180.9507
  0
SEQEND
  0
POLYLINE
  8
LAYER_1
  6
AIGENLINE001
 40
0.0353
 41
0.0353
 66
1
 10
0
 20
0
 30
0
 70
128
  0
VERTEX
  8
LAYER_1
 10
80.9588
 20
-179.2007
  0
VERTEX
  8
LAYER_1
 10
80.9588
 20
-182.7007
  0
SEQEND
  0
POLYLINE
  8
LAYER_1
 40
0.0353
 41
0.0353
 66
1
 10
0
 20
0
 30
0
  0
VERTEX
  8
LAYER_1
 10
82.3448
 20
-181.9771
  0
VERTEX
  8
LAYER_1
 10
82.3469
 20
-181.4884
  0
VERTEX
  8
LAYER_1
 10
82.3469
 20
-181.2425
  0
VERTEX
  8
LAYER_1
 10
82.3423
 20
-181.0513
 42
0.291148321
  0
VERTEX
  8
LAYER_1
 10
81.2482
 20
-179.7122
  0
VERTEX
  8
LAYER_1
 10
80.9967
 20
-179.6621
  0
VERTEX
  8
LAYER_1
 10
80.6841
 20
-179.6429
  0
VERTEX
  8
LAYER_1
 10
80.0136
 20
-179.6478
  0
VERTEX
  8
LAYER_1
 10
79.9967
 20
-179.6494
  0
VERTEX
  8
LAYER_1
 10
79.9164
 20
-179.7298
  0
VERTEX
  8
LAYER_1
 10
79.9157
 20
-179.7346
  0
VERTEX
  8
LAYER_1
 10
79.9146
 20
-179.812
  0
VERTEX
  8
LAYER_1
 10
79.9138
 20
-180.0298
  0
VERTEX
  8
LAYER_1
 10
79.9205
 20
-180.0298
  0
VERTEX
  8
LAYER_1
 10
80.1138
 20
-180.0298
  0
VERTEX
  8
LAYER_1
 10
80.6597
 20
-180.0298
  0
VERTEX
  8
LAYER_1
 10
80.8916
 20
-180.0403
 42
-0.3259724019
  0
VERTEX
  8
LAYER_1
 10
81.9548
 20
-181.1573
  0
VERTEX
  8
LAYER_1
 10
81.9596
 20
-181.3297
  0
VERTEX
  8
LAYER_1
 10
81.9596
 20
-181.8757
  0
VERTEX
  8
LAYER_1
 10
81.9596
 20
-182.0667
  0
SEQEND
  0
CIRCLE
  8
LAYER_1
 10
80.9588
 20
-180.9507
 40
0.55
  0
POLYLINE
  8
LAYER_1
 40
0.0353
 41
0.0353
 66
1
 10
0
 20
0
 30
0
 70
1
  0
VERTEX
  8
LAYER_1
 10
81.2188
 20
-180.8907
  0
VERTEX
  8
LAYER_1
 10
81.3588
 20
-180.8907
  0
VERTEX
  8
LAYER_1
 10
81.3588
 20
-181.0107
  0
VERTEX
  8
LAYER_1
 10
81.2186
 20
-181.0107
  0
VERTEX
  8
LAYER_1
 10
81.2184
 20
-181.0107
  0
VERTEX
  8
LAYER_1
 10
81.2188
 20
-181.0107
 42
0.4143159588
  0
VERTEX
  8
LAYER_1
 10
81.0188
 20
-181.2107
  0
VERTEX
  8
LAYER_1
 10
81.0188
 20
-181.3505
  0
VERTEX
  8
LAYER_1
 10
81.0188
 20
-181.3507
  0
VERTEX
  8
LAYER_1
 10
80.9588
 20
-181.3507
  0
VERTEX
  8
LAYER_1
 10
80.8988
 20
-181.3507
  0
VERTEX
  8
LAYER_1
 10
80.8988
 20
-181.2105
  0
VERTEX
  8
LAYER_1
 10
80.8988
 20
-181.2103
  0
VERTEX
  8
LAYER_1
 10
80.8988
 20
-181.2107
 42
0.4142077239
  0
VERTEX
  8
LAYER_1
 10
80.6988
 20
-181.0107
  0
VERTEX
  8
LAYER_1
 10
80.6991
 20
-181.0107
  0
VERTEX
  8
LAYER_1
 10
80.699
 20
-181.0107
  0
VERTEX
  8
LAYER_1
 10
80.5588
 20
-181.0107
  0
VERTEX
  8
LAYER_1
 10
80.5588
 20
-180.8907
  0
VERTEX
  8
LAYER_1
 10
80.694
 20
-180.8907
  0
VERTEX
  8
LAYER_1
 10
80.6991
 20
-180.8907
  0
VERTEX
  8
LAYER_1
 10
80.6988
 20
-180.8907
 42
0.4141112607
  0
VERTEX
  8
LAYER_1
 10
80.8988
 20
-180.6907
  0
VERTEX
  8
LAYER_1
 10
80.8988
 20
-180.5509
  0
VERTEX
  8
LAYER_1
 10
80.8988
 20
-180.5507
  0
VERTEX
  8
LAYER_1
 10
80.9588
 20
-180.5507
  0
VERTEX
  8
LAYER_1
 10
81.0188
 20
-180.5507
  0
VERTEX
  8
LAYER_1
 10
81.0188
 20
-180.6909
  0
VERTEX
  8
LAYER_1
 10
81.0188
 20
-180.691
  0
VERTEX
  8
LAYER_1
 10
81.0188
 20
-180.6907
 42
0.4142194166
  0
SEQEND
  0
POLYLINE
  8
LAYER_1
 40
0.0353
 41
0.0353
 66
1
 10
0
 20
0
 30
0
  0
VERTEX
  8
LAYER_1
 10
88.7588
 20
-185.1107
  0
VERTEX
  8
LAYER_1
 10
88.7588
 20
-182.0117
  0
SEQEND
  0
POLYLINE
  8
LAYER_1
 40
0.0353
 41
0.0353
 66
1
 10
0
 20
0
 30
0
  0
VERTEX
  8
LAYER_1
 10
83.9588
 20
-182.0117
  0
VERTEX
  8
LAYER_1
 10
83.9588
 20
-185.1107
  0
SEQEND
  0
POLYLINE
  8
LAYER_1
 40
0.0353
 41
0.0353
 66
1
 10
0
 20
0
 30
0
  0
VERTEX
  8
LAYER_1
 10
84.457
 20
-186.6245
  0
VERTEX
  8
LAYER_1
 10
84.4576
 20
-186.6136
 42
0.1565666208
  0
VERTEX
  8
LAYER_1
 10
84.4368
 20
-186.5494
  0
SEQEND
  0
POLYLINE
  8
LAYER_1
 40
0.0353
 41
0.0353
 66
1
 10
0
 20
0
 30
0
  0
VERTEX
  8
LAYER_1
 10
88.2811
 20
-186.548
 42
0.1556223236
  0
VERTEX
  8
LAYER_1
 10
88.2597
 20
-186.6146
  0
VERTEX
  8
LAYER_1
 10
88.2602
 20
-186.6251
  0
VERTEX
  8
LAYER_1
 10
88.2588
 20
-187.8107
  0
SEQEND
  0
POLYLINE
  8
LAYER_1
 40
0.0353
 41
0.0353
 66
1
 10
0
 20
0
 30
0
 70
1
  0
VERTEX
  8
LAYER_1
 10
86.7256
 20
-189.4107
  0
VERTEX
  8
LAYER_1
 10
86.7256
 20
-190.3107
  0
VERTEX
  8
LAYER_1
 10
86.7256
 20
-190.3108
 42
0.2312507756
  0
VERTEX
  8
LAYER_1
 10
86.7928
 20
-190.4672
 42
0.1604408457
  0
VERTEX
  8
LAYER_1
 10
87.1857
 20
-190.6309
 42
0.09500920884
  0
VERTEX
  8
LAYER_1
 10
88.1901
 20
-190.5963
 42
0.1689427825
  0
VERTEX
  8
LAYER_1
 10
88.4593
 20
-190.4212
 42
0.1824152155
  0
VERTEX
  8
LAYER_1
 10
88.4918
 20
-190.3098
  0
VERTEX
  8
LAYER_1
 10
88.4919
 20
-190.3107
  0
VERTEX
  8
LAYER_1
 10
88.4919
 20
-189.4107
 42
0.2274753094
  0
VERTEX
  8
LAYER_1
 10
88.0994
 20
-188.5627
 42
0.4128283815
  0
VERTEX
  8
LAYER_1
 10
86.9843
 20
-188.6896
 42
0.1788735735
  0
SEQEND
  0
POLYLINE
  8
LAYER_1
 40
0.0353
 41
0.0353
 66
1
 10
0
 20
0
 30
0
 70
1
  0
VERTEX
  8
LAYER_1
 10
84.2256
 20
-189.4107
  0
VERTEX
  8
LAYER_1
 10
84.2256
 20
-190.3107
  0
VERTEX
  8
LAYER_1
 10
84.2256
 20
-190.3108
 42
0.2456132481
  0
VERTEX
  8
LAYER_1
 10
84.2945
 20
-190.4687
 42
0.1540850256
  0
VERTEX
  8
LAYER_1
 10
84.6674
 20
-190.6305
 42
0.03793565604
  0
VERTEX
  8
LAYER_1
 10
85.2295
 20
-190.6585
 42
0.1384473158
  0
VERTEX
  8
LAYER_1
 10
85.8634
 20
-190.516
 42
0.2608521522
  0
VERTEX
  8
LAYER_1
 10
85.9914
 20
-190.3228
  0
VERTEX
  8
LAYER_1
 10
85.9919
 20
-190.3107
  0
VERTEX
  8
LAYER_1
 10
85.9919
 20
-189.4107
 42
0.2274751217
  0
VERTEX
  8
LAYER_1
 10
85.5994
 20
-188.5627
 42
0.4128283498
  0
VERTEX
  8
LAYER_1
 10
84.4843
 20
-188.6896
 42
0.1788737707
  0
SEQEND
  0
POLYLINE
  8
LAYER_1
 40
0.0353
 41
0.0353
 66
1
 10
0
 20
0
 30
0
  0
VERTEX
  8
LAYER_1
 10
88.8588
 20
-189.4107
  0
VERTEX
  8
LAYER_1
 10
88.8588
 20
-190.3107
  0
VERTEX
  8
LAYER_1
 10
88.8588
 20
-190.6523
  0
SEQEND
  0
POLYLINE
  8
LAYER_1
 40
0.0353
 41
0.0353
 66
1
 10
0
 20
0
 30
0
  0
VERTEX
  8
LAYER_1
 10
83.8588
 20
-189.4107
  0
VERTEX
  8
LAYER_1
 10
83.8588
 20
-190.3107
  0
VERTEX
  8
LAYER_1
 10
83.8588
 20
-190.3099
  0
VERTEX
  8
LAYER_1
 10
83.8588
 20
-190.3898
  0
VERTEX
  8
LAYER_1
 10
83.8588
 20
-190.656
  0
SEQEND
  0
POLYLINE
  8
LAYER_1
 40
0.0353
 41
0.0353
 66
1
 10
0
 20
0
 30
0
  0
VERTEX
  8
LAYER_1
 10
84.2765
 20
-185.2907
  0
VERTEX
  8
LAYER_1
 10
88.441
 20
-185.2907
  0
SEQEND
  0
POLYLINE
  8
LAYER_1
 40
0.0353
 41
0.0353
 66
1
 10
0
 20
0
 30
0
  0
VERTEX
  8
LAYER_1
 10
88.441
 20
-184.9307
  0
VERTEX
  8
LAYER_1
 10
84.2765
 20
-184.9307
  0
SEQEND
  0
POLYLINE
  8
LAYER_1
 40
0.0353
 41
0.0353
 66
1
 10
0
 20
0
 30
0
 70
1
  0
VERTEX
  8
LAYER_1
 10
88.441
 20
-185.2907
  0
VERTEX
  8
LAYER_1
 10
88.4488
 20
-185.1107
  0
VERTEX
  8
LAYER_1
 10
88.441
 20
-184.9307
 42
0.3891762847
  0
VERTEX
  8
LAYER_1
 10
86.3588
 20
-183.0207
 42
0.3891867478
  0
VERTEX
  8
LAYER_1
 10
84.2765
 20
-184.9307
  0
VERTEX
  8
LAYER_1
 10
84.2688
 20
-185.1107
  0
VERTEX
  8
LAYER_1
 10
84.2765
 20
-185.2907
 42
0.3891775036
  0
VERTEX
  8
LAYER_1
 10
86.3588
 20
-187.2007
 42
0.3891670413
  0
SEQEND
  0
CIRCLE
  8
LAYER_1
 10
86.3588
 20
-185.1107
 40
2.4
  0
CIRCLE
  8
LAYER_1
 10
86.3588
 20
-185.1107
 40
2.3
  0
CIRCLE
  8
LAYER_1
 10
86.3588
 20
-185.1107
 40
2.2
  0
CIRCLE
  8
LAYER_1
 10
86.3588
 20
-185.1107
 40
2.1
  0
POLYLINE
  8
LAYER_1
 40
0.0353
 41
0.0353
 66
1
 10
0
 20
0
 30
0
  0
VERTEX
  8
LAYER_1
 10
84.4588
 20
-186.6262
  0
VERTEX
  8
LAYER_1
 10
84.4588
 20
-187.8107
  0
VERTEX
  8
LAYER_1
 10
85.7461
 20
-187.8107
  0
VERTEX
  8
LAYER_1
 10
86.9714
 20
-187.8107
  0
VERTEX
  8
LAYER_1
 10
88.2588
 20
-187.8107
  0
VERTEX
  8
LAYER_1
 10
88.1588
 20
-187.9107
  0
VERTEX
  8
LAYER_1
 10
84.5588
 20
-187.9107
  0
VERTEX
  8
LAYER_1
 10
84.4588
 20
-187.8107
  0
SEQEND
  0
POLYLINE
  8
LAYER_1
 40
0.0353
 41
0.0353
 66
1
 10
0
 20
0
 30
0
  0
VERTEX
  8
LAYER_1
 10
87.9588
 20
-187.9107
  0
VERTEX
  8
LAYER_1
 10
87.9588
 20
-188.1107
  0
SEQEND
  0
POLYLINE
  8
LAYER_1
 40
0.0353
 41
0.0353
 66
1
 10
0
 20
0
 30
0
  0
VERTEX
  8
LAYER_1
 10
84.7588
 20
-187.9107
  0
VERTEX
  8
LAYER_1
 10
84.7588
 20
-188.1107
  0
SEQEND
  0
POLYLINE
  8
LAYER_1
 40
0.0353
 41
0.0353
 66
1
 10
0
 20
0
 30
0
 70
1
  0
VERTEX
  8
LAYER_1
 10
88.7252
 20
-188.1107
  0
VERTEX
  8
LAYER_1
 10
88.8588
 20
-188.3909
  0
VERTEX
  8
LAYER_1
 10
88.8588
 20
-190.6571
 42
-0.1319385133
  0
VERTEX
  8
LAYER_1
 10
88.6588
 20
-190.7107
  0
VERTEX
  8
LAYER_1
 10
85.2088
 20
-190.7107
  0
VERTEX
  8
LAYER_1
 10
84.0588
 20
-190.7107
 42
-0.1319393522
  0
VERTEX
  8
LAYER_1
 10
83.8588
 20
-190.6571
  0
VERTEX
  8
LAYER_1
 10
83.8588
 20
-188.3909
  0
VERTEX
  8
LAYER_1
 10
83.9923
 20
-188.1107
  0
VERTEX
  8
LAYER_1
 10
85.1755
 20
-188.1107
  0
SEQEND
  0
POLYLINE
  8
LAYER_1
  6
AIGENLINE001
 40
0.0353
 41
0.0353
 66
1
 10
0
 20
0
 30
0
 70
128
  0
VERTEX
  8
LAYER_1
 10
82.7588
 20
-185.1107
  0
VERTEX
  8
LAYER_1
 10
89.9588
 20
-185.1107
  0
SEQEND
  0
POLYLINE
  8
LAYER_1
 40
0.0353
 41
0.0353
 66
1
 10
0
 20
0
 30
0
  0
VERTEX
  8
LAYER_1
 10
90.1388
 20
-185.9595
 42
-0.4001139448
  0
VERTEX
  8
LAYER_1
 10
90.3068
 20
-185.9595
 42
0.1906938872
  0
VERTEX
  8
LAYER_1
 10
90.3908
 20
-185.9931
 42
0.190284724
  0
VERTEX
  8
LAYER_1
 10
90.4748
 20
-185.9595
 42
-0.1906938872
  0
VERTEX
  8
LAYER_1
 10
90.5588
 20
-185.9259
 42
-0.190284724
  0
VERTEX
  8
LAYER_1
 10
90.6428
 20
-185.9595
 42
0.1906938872
  0
VERTEX
  8
LAYER_1
 10
90.7268
 20
-185.9931
 42
0.190284724
  0
VERTEX
  8
LAYER_1
 10
90.8108
 20
-185.9595
 42
-0.1906938872
  0
VERTEX
  8
LAYER_1
 10
90.8948
 20
-185.9259
 42
-0.190284724
  0
VERTEX
  8
LAYER_1
 10
90.9788
 20
-185.9595
  0
SEQEND
  0
POLYLINE
  8
LAYER_1
 40
0.0353
 41
0.0353
 66
1
 10
0
 20
0
 30
0
  0
VERTEX
  8
LAYER_1
 10
90.1388
 20
-186.7961
 42
-0.3999621293
  0
VERTEX
  8
LAYER_1
 10
90.3068
 20
-186.7961
 42
0.1906938872
  0
VERTEX
  8
LAYER_1
 10
90.3908
 20
-186.8297
 42
0.190284724
  0
VERTEX
  8
LAYER_1
 10
90.4748
 20
-186.7961
 42
-0.1906938872
  0
VERTEX
  8
LAYER_1
 10
90.5588
 20
-186.7625
 42
-0.190284724
  0
VERTEX
  8
LAYER_1
 10
90.6428
 20
-186.7961
 42
0.1906938872
  0
VERTEX
  8
LAYER_1
 10
90.7268
 20
-186.8297
 42
0.190284724
  0
VERTEX
  8
LAYER_1
 10
90.8108
 20
-186.7961
 42
-0.1906938872
  0
VERTEX
  8
LAYER_1
 10
90.8948
 20
-186.7625
 42
-0.190284724
  0
VERTEX
  8
LAYER_1
 10
90.9788
 20
-186.7961
  0
SEQEND
  0
POLYLINE
  8
LAYER_1
 40
0.0353
 41
0.0353
 66
1
 10
0
 20
0
 30
0
  0
VERTEX
  8
LAYER_1
 10
107.4594
 20
-192.6793
  0
VERTEX
  8
LAYER_1
 10
106.8594
 20
-192.6793
  0
VERTEX
  8
LAYER_1
 10
106.8594
 20
-194.0793
  0
VERTEX
  8
LAYER_1
 10
107.4594
 20
-194.0793
  0
VERTEX
  8
LAYER_1
 10
107.4594
 20
-192.6793
  0
VERTEX
  8
LAYER_1
 10
107.4594
 20
-192.0793
  0
VERTEX
  8
LAYER_1
 10
107.4594
 20
-190.6793
  0
VERTEX
  8
LAYER_1
 10
106.8594
 20
-190.6793
  0
VERTEX
  8
LAYER_1
 10
106.8594
 20
-192.0793
  0
VERTEX
  8
LAYER_1
 10
107.4594
 20
-192.0793
  0
SEQEND
  0
POLYLINE
  8
LAYER_1
 40
0.0353
 41
0.0353
 66
1
 10
0
 20
0
 30
0
  0
VERTEX
  8
LAYER_1
 10
101.4594
 20
-192.6793
  0
VERTEX
  8
LAYER_1
 10
101.7594
 20
-192.6793
  0
SEQEND
  0
POLYLINE
  8
LAYER_1
 40
0.0353
 41
0.0353
 66
1
 10
0
 20
0
 30
0
  0
VERTEX
  8
LAYER_1
 10
101.7594
 20
-193.8793
  0
VERTEX
  8
LAYER_1
 10
101.4594
 20
-193.8793
  0
VERTEX
  8
LAYER_1
 10
101.4594
 20
-192.6793
  0
VERTEX
  8
LAYER_1
 10
101.4594
 20
-192.0793
  0
SEQEND
  0
POLYLINE
  8
LAYER_1
 40
0.0353
 41
0.0353
 66
1
 10
0
 20
0
 30
0
  0
VERTEX
  8
LAYER_1
 10
101.7594
 20
-191.9349
  0
VERTEX
  8
LAYER_1
 10
101.7648
 20
-192.0793
  0
SEQEND
  0
POLYLINE
  8
LAYER_1
 40
0.0353
 41
0.0353
 66
1
 10
0
 20
0
 30
0
  0
VERTEX
  8
LAYER_1
 10
101.7648
 20
-192.6793
  0
VERTEX
  8
LAYER_1
 10
101.7594
 20
-192.8238
  0
SEQEND
  0
POLYLINE
  8
LAYER_1
 40
0.0353
 41
0.0353
 66
1
 10
0
 20
0
 30
0
  0
VERTEX
  8
LAYER_1
 10
101.7594
 20
-190.8793
  0
VERTEX
  8
LAYER_1
 10
102.11
 20
-190.8793
 42
0.2450966737
  0
VERTEX
  8
LAYER_1
 10
102.66
 20
-191.3741
  0
VERTEX
  8
LAYER_1
 10
102.8594
 20
-191.3993
  0
VERTEX
  8
LAYER_1
 10
104.0594
 20
-191.3993
 42
0.3129724709
  0
VERTEX
  8
LAYER_1
 10
104.8088
 20
-190.8793
  0
VERTEX
  8
LAYER_1
 10
106.8594
 20
-190.8793
  0
SEQEND
  0
POLYLINE
  8
LAYER_1
 40
0.0353
 41
0.0353
 66
1
 10
0
 20
0
 30
0
 70
1
  0
VERTEX
  8
LAYER_1
 10
106.8594
 20
-192.6793
  0
VERTEX
  8
LAYER_1
 10
102.5681
 20
-192.6793
  0
VERTEX
  8
LAYER_1
 10
101.7648
 20
-192.6793
  0
VERTEX
  8
LAYER_1
 10
101.7648
 20
-192.0793
  0
VERTEX
  8
LAYER_1
 10
102.5681
 20
-192.0793
  0
VERTEX
  8
LAYER_1
 10
106.8594
 20
-192.0793
  0
SEQEND
  0
POLYLINE
  8
LAYER_1
 40
0.0353
 41
0.0353
 66
1
 10
0
 20
0
 30
0
  0
VERTEX
  8
LAYER_1
 10
101.7594
 20
-192.0793
  0
VERTEX
  8
LAYER_1
 10
101.4594
 20
-192.0793
  0
VERTEX
  8
LAYER_1
 10
101.4594
 20
-190.8793
  0
VERTEX
  8
LAYER_1
 10
101.7594
 20
-190.8793
  0
VERTEX
  8
LAYER_1
 10
101.7594
 20
-192.0793
  0
VERTEX
  8
LAYER_1
 10
101.7594
 20
-192.6793
  0
VERTEX
  8
LAYER_1
 10
101.7594
 20
-193.8793
  0
VERTEX
  8
LAYER_1
 10
102.11
 20
-193.8793
 42
-0.2450639916
  0
VERTEX
  8
LAYER_1
 10
102.66
 20
-193.3846
  0
VERTEX
  8
LAYER_1
 10
102.8594
 20
-193.3593
  0
VERTEX
  8
LAYER_1
 10
104.0594
 20
-193.3593
 42
-0.3129510066
  0
VERTEX
  8
LAYER_1
 10
104.8088
 20
-193.8793
  0
VERTEX
  8
LAYER_1
 10
106.8594
 20
-193.8793
  0
SEQEND
  0
POLYLINE
  8
LAYER_1
 40
0.0353
 41
0.0353
 66
1
 10
0
 20
0
 30
0
  0
VERTEX
  8
LAYER_1
 10
107.4594
 20
-193.0093
  0
VERTEX
  8
LAYER_1
 10
110.436
 20
-193.0093
 42
0.1720545344
  0
VERTEX
  8
LAYER_1
 10
110.6594
 20
-192.3793
 42
0.1720504667
  0
VERTEX
  8
LAYER_1
 10
110.436
 20
-191.7493
  0
VERTEX
  8
LAYER_1
 10
107.4594
 20
-191.7493
  0
SEQEND
  0
CIRCLE
  8
LAYER_1
 10
109.6594
 20
-192.3793
 40
0.3
  0
POLYLINE
  8
LAYER_1
 40
0.0353
 41
0.0353
 66
1
 10
0
 20
0
 30
0
  0
VERTEX
  8
LAYER_1
 10
97.4594
 20
-192.3854
  0
VERTEX
  8
LAYER_1
 10
101.4594
 20
-192.4385
  0
SEQEND
  0
POLYLINE
  8
LAYER_1
 40
0.0353
 41
0.0353
 66
1
 10
0
 20
0
 30
0
  0
VERTEX
  8
LAYER_1
 10
101.4594
 20
-192.3202
  0
VERTEX
  8
LAYER_1
 10
97.4594
 20
-192.3732
  0
SEQEND
  0
POLYLINE
  8
LAYER_1
 40
0.0353
 41
0.0353
 66
1
 10
0
 20
0
 30
0
  0
VERTEX
  8
LAYER_1
 10
101.4594
 20
-191.4294
  0
VERTEX
  8
LAYER_1
 10
97.4594
 20
-191.7793
  0
VERTEX
  8
LAYER_1
 10
97.4594
 20
-192.3732
  0
VERTEX
  8
LAYER_1
 10
97.4594
 20
-192.3854
  0
VERTEX
  8
LAYER_1
 10
97.4594
 20
-192.9793
  0
VERTEX
  8
LAYER_1
 10
101.4594
 20
-193.3293
  0
SEQEND
  0
POLYLINE
  8
LAYER_1
 40
0.0353
 41
0.0353
 66
1
 10
0
 20
0
 30
0
  0
VERTEX
  8
LAYER_1
 10
90.9788
 20
-186.7961
  0
VERTEX
  8
LAYER_1
 10
90.9788
 20
-190.9593
 42
0.4142347314
  0
VERTEX
  8
LAYER_1
 10
91.9788
 20
-191.9593
  0
VERTEX
  8
LAYER_1
 10
97.4594
 20
-191.9593
  0
SEQEND
  0
POLYLINE
  8
LAYER_1
 40
0.0353
 41
0.0353
 66
1
 10
0
 20
0
 30
0
  0
VERTEX
  8
LAYER_1
 10
97.4594
 20
-192.7993
  0
VERTEX
  8
LAYER_1
 10
91.9788
 20
-192.7993
 42
-0.4142250673
  0
VERTEX
  8
LAYER_1
 10
90.1388
 20
-190.9593
  0
VERTEX
  8
LAYER_1
 10
90.1388
 20
-186.7961
  0
SEQEND
  0
POLYLINE
  8
LAYER_1
 40
0.0353
 41
0.0353
 66
1
 10
0
 20
0
 30
0
  0
VERTEX
  8
LAYER_1
 10
190.2016
 20
-132.37
  0
VERTEX
  8
LAYER_1
 10
190.2016
 20
-121.6951
 42
0.4142088736
  0
VERTEX
  8
LAYER_1
 10
188.1616
 20
-119.6551
  0
VERTEX
  8
LAYER_1
 10
182.4773
 20
-119.6551
  0
SEQEND
  0
POLYLINE
  8
LAYER_1
 40
0.0353
 41
0.0353
 66
1
 10
0
 20
0
 30
0
  0
VERTEX
  8
LAYER_1
 10
189.1616
 20
-132.37
  0
VERTEX
  8
LAYER_1
 10
189.1616
 20
-121.6951
 42
0.4142039975
  0
VERTEX
  8
LAYER_1
 10
188.1616
 20
-120.6951
  0
VERTEX
  8
LAYER_1
 10
182.4773
 20
-120.6951
  0
SEQEND
  0
POLYLINE
  8
LAYER_1
 40
0.0353
 41
0.0353
 66
1
 10
0
 20
0
 30
0
  0
VERTEX
  8
LAYER_1
 10
190.7816
 20
-133.17
  0
VERTEX
  8
LAYER_1
 10
190.7816
 20
-132.37
  0
VERTEX
  8
LAYER_1
 10
188.5816
 20
-132.37
  0
VERTEX
  8
LAYER_1
 10
188.5816
 20
-133.17
  0
SEQEND
  0
POLYLINE
  8
LAYER_1
 40
0.0353
 41
0.0353
 66
1
 10
0
 20
0
 30
0
 70
1
  0
VERTEX
  8
LAYER_1
 10
188.5816
 20
-134.93
  0
VERTEX
  8
LAYER_1
 10
190.7816
 20
-134.93
  0
VERTEX
  8
LAYER_1
 10
190.7816
 20
-137.53
  0
VERTEX
  8
LAYER_1
 10
188.5816
 20
-137.53
  0
SEQEND
  0
POLYLINE
  8
LAYER_1
 40
0.0353
 41
0.0353
 66
1
 10
0
 20
0
 30
0
  0
VERTEX
  8
LAYER_1
 10
190.5816
 20
-133.37
  0
VERTEX
  8
LAYER_1
 10
190.5816
 20
-134.93
  0
SEQEND
  0
POLYLINE
  8
LAYER_1
 40
0.0353
 41
0.0353
 66
1
 10
0
 20
0
 30
0
  0
VERTEX
  8
LAYER_1
 10
189.3516
 20
-137.53
  0
VERTEX
  8
LAYER_1
 10
189.3516
 20
-136.17
  0
VERTEX
  8
LAYER_1
 10
189.0516
 20
-136.17
  0
VERTEX
  8
LAYER_1
 10
189.0516
 20
-137.53
  0
SEQEND
  0
POLYLINE
  8
LAYER_1
 40
0.0353
 41
0.0353
 66
1
 10
0
 20
0
 30
0
  0
VERTEX
  8
LAYER_1
 10
190.3116
 20
-137.53
  0
VERTEX
  8
LAYER_1
 10
190.3116
 20
-136.17
  0
VERTEX
  8
LAYER_1
 10
190.0116
 20
-136.17
  0
VERTEX
  8
LAYER_1
 10
190.0116
 20
-137.53
  0
SEQEND
  0
POLYLINE
  8
LAYER_1
 40
0.0353
 41
0.0353
 66
1
 10
0
 20
0
 30
0
  0
VERTEX
  8
LAYER_1
 10
189.3516
 20
-136.89
  0
VERTEX
  8
LAYER_1
 10
190.0116
 20
-136.89
  0
SEQEND
  0
POLYLINE
  8
LAYER_1
 40
0.0353
 41
0.0353
 66
1
 10
0
 20
0
 30
0
  0
VERTEX
  8
LAYER_1
 10
188.7816
 20
-134.93
  0
VERTEX
  8
LAYER_1
 10
188.7816
 20
-133.37
  0
VERTEX
  8
LAYER_1
 10
190.5816
 20
-133.37
  0
VERTEX
  8
LAYER_1
 10
190.7816
 20
-133.17
  0
VERTEX
  8
LAYER_1
 10
188.5816
 20
-133.17
  0
VERTEX
  8
LAYER_1
 10
188.7816
 20
-133.37
  0
SEQEND
  0
POLYLINE
  8
LAYER_1
 40
0.0353
 41
0.0353
 66
1
 10
0
 20
0
 30
0
  0
VERTEX
  8
LAYER_1
 10
168.9758
 20
-162.0312
  0
VERTEX
  8
LAYER_1
 10
168.9279
 20
-162.0581
  0
VERTEX
  8
LAYER_1
 10
168.9368
 20
-162.066
  0
SEQEND
  0
POLYLINE
  8
LAYER_1
 40
0.0353
 41
0.0353
 66
1
 10
0
 20
0
 30
0
  0
VERTEX
  8
LAYER_1
 10
179.2694
 20
-140.9324
  0
VERTEX
  8
LAYER_1
 10
179.2694
 20
-163.9083
  0
SEQEND
  0
POLYLINE
  8
LAYER_1
 40
0.0353
 41
0.0353
 66
1
 10
0
 20
0
 30
0
  0
VERTEX
  8
LAYER_1
 10
180.2694
 20
-163.8996
  0
VERTEX
  8
LAYER_1
 10
180.2694
 20
-140.9324
  0
SEQEND
  0
POLYLINE
  8
LAYER_1
 40
0.0353
 41
0.0353
 66
1
 10
0
 20
0
 30
0
  0
VERTEX
  8
LAYER_1
 10
168.5708
 20
-162.5223
  0
VERTEX
  8
LAYER_1
 10
168.6226
 20
-162.5219
  0
SEQEND
  0
POLYLINE
  8
LAYER_1
 40
0.0353
 41
0.0353
 66
1
 10
0
 20
0
 30
0
  0
VERTEX
  8
LAYER_1
 10
174.6694
 20
-163.9485
  0
VERTEX
  8
LAYER_1
 10
174.6694
 20
-162.4734
  0
VERTEX
  8
LAYER_1
 10
174.6694
 20
-162.3734
  0
VERTEX
  8
LAYER_1
 10
174.6694
 20
-161.9734
  0
VERTEX
  8
LAYER_1
 10
174.0746
 20
-161.9786
  0
VERTEX
  8
LAYER_1
 10
171.2694
 20
-162.0031
  0
VERTEX
  8
LAYER_1
 10
169.7694
 20
-162.0162
  0
VERTEX
  8
LAYER_1
 10
169.065
 20
-162.0223
 42
0.4116254059
  0
VERTEX
  8
LAYER_1
 10
168.5694
 20
-162.5223
  0
VERTEX
  8
LAYER_1
 10
168.5694
 20
-164.0017
  0
SEQEND
  0
POLYLINE
  8
LAYER_1
 40
0.0353
 41
0.0353
 66
1
 10
0
 20
0
 30
0
  0
VERTEX
  8
LAYER_1
 10
182.9288
 20
-163.8764
  0
VERTEX
  8
LAYER_1
 10
171.2694
 20
-163.9782
  0
VERTEX
  8
LAYER_1
 10
166.965
 20
-164.0157
 42
0.4116445495
  0
VERTEX
  8
LAYER_1
 10
166.4694
 20
-164.5157
  0
VERTEX
  8
LAYER_1
 10
166.4694
 20
-181.5312
 42
0.4116189877
  0
VERTEX
  8
LAYER_1
 10
166.965
 20
-182.0311
  0
VERTEX
  8
LAYER_1
 10
168.3694
 20
-182.0434
  0
VERTEX
  8
LAYER_1
 10
168.8694
 20
-182.0478
  0
SEQEND
  0
POLYLINE
  8
LAYER_1
  6
AIGENLINE001
 40
0.0353
 41
0.0353
 66
1
 10
0
 20
0
 30
0
 70
128
  0
VERTEX
  8
LAYER_1
 10
171.2694
 20
-138.4303
  0
VERTEX
  8
LAYER_1
 10
171.2694
 20
-188.1534
  0
SEQEND
  0
POLYLINE
  8
LAYER_1
 40
0.0353
 41
0.0353
 66
1
 10
0
 20
0
 30
0
  0
VERTEX
  8
LAYER_1
 10
179.2694
 20
-140.9324
 42
-0.4000622161
  0
VERTEX
  8
LAYER_1
 10
179.4694
 20
-140.9324
 42
0.1904588845
  0
VERTEX
  8
LAYER_1
 10
179.5694
 20
-140.9724
 42
0.1903993085
  0
VERTEX
  8
LAYER_1
 10
179.6694
 20
-140.9324
 42
-0.1904588845
  0
VERTEX
  8
LAYER_1
 10
179.7694
 20
-140.8924
 42
-0.1903993085
  0
VERTEX
  8
LAYER_1
 10
179.8694
 20
-140.9324
 42
0.1904588845
  0
VERTEX
  8
LAYER_1
 10
179.9694
 20
-140.9724
 42
0.1903993085
  0
VERTEX
  8
LAYER_1
 10
180.0694
 20
-140.9324
 42
-0.1904588845
  0
VERTEX
  8
LAYER_1
 10
180.1694
 20
-140.8924
 42
-0.1903993085
  0
VERTEX
  8
LAYER_1
 10
180.2694
 20
-140.9324
  0
SEQEND
  0
POLYLINE
  8
LAYER_1
 40
0.0353
 41
0.0353
 66
1
 10
0
 20
0
 30
0
  0
VERTEX
  8
LAYER_1
 10
172.1694
 20
-138.6771
  0
VERTEX
  8
LAYER_1
 10
172.1694
 20
-161.9952
  0
SEQEND
  0
POLYLINE
  8
LAYER_1
 40
0.0353
 41
0.0353
 66
1
 10
0
 20
0
 30
0
  0
VERTEX
  8
LAYER_1
 10
170.3694
 20
-138.6771
  0
VERTEX
  8
LAYER_1
 10
170.3694
 20
-162.011
  0
SEQEND
  0
POLYLINE
  8
LAYER_1
 40
0.0353
 41
0.0353
 66
1
 10
0
 20
0
 30
0
  0
VERTEX
  8
LAYER_1
 10
170.3694
 20
-138.6771
 42
-0.3999680516
  0
VERTEX
  8
LAYER_1
 10
170.7294
 20
-138.6771
 42
0.1905462348
  0
VERTEX
  8
LAYER_1
 10
170.9094
 20
-138.7491
 42
0.1905489245
  0
VERTEX
  8
LAYER_1
 10
171.0894
 20
-138.6771
 42
-0.1905462348
  0
VERTEX
  8
LAYER_1
 10
171.2694
 20
-138.6051
 42
-0.1905489245
  0
VERTEX
  8
LAYER_1
 10
171.4494
 20
-138.6771
 42
0.1905462348
  0
VERTEX
  8
LAYER_1
 10
171.6294
 20
-138.7491
 42
0.1905489245
  0
VERTEX
  8
LAYER_1
 10
171.8094
 20
-138.6771
 42
-0.1905462348
  0
VERTEX
  8
LAYER_1
 10
171.9894
 20
-138.6051
 42
-0.1905489245
  0
VERTEX
  8
LAYER_1
 10
172.1694
 20
-138.6771
  0
SEQEND
  0
POLYLINE
  8
LAYER_1
 40
0.0353
 41
0.0353
 66
1
 10
0
 20
0
 30
0
  0
VERTEX
  8
LAYER_1
 10
179.2694
 20
-140.2814
 42
-0.4000242244
  0
VERTEX
  8
LAYER_1
 10
179.4694
 20
-140.2814
 42
0.1904588845
  0
VERTEX
  8
LAYER_1
 10
179.5694
 20
-140.3214
 42
0.1903993085
  0
VERTEX
  8
LAYER_1
 10
179.6694
 20
-140.2814
 42
-0.1904588845
  0
VERTEX
  8
LAYER_1
 10
179.7694
 20
-140.2414
 42
-0.1903993085
  0
VERTEX
  8
LAYER_1
 10
179.8694
 20
-140.2814
 42
0.1904588845
  0
VERTEX
  8
LAYER_1
 10
179.9694
 20
-140.3214
 42
0.1903993085
  0
VERTEX
  8
LAYER_1
 10
180.0694
 20
-140.2814
 42
-0.1904588845
  0
VERTEX
  8
LAYER_1
 10
180.1694
 20
-140.2414
 42
-0.1903993085
  0
VERTEX
  8
LAYER_1
 10
180.2694
 20
-140.2814
  0
SEQEND
  0
POLYLINE
  8
LAYER_1
 40
0.0353
 41
0.0353
 66
1
 10
0
 20
0
 30
0
  0
VERTEX
  8
LAYER_1
 10
189.3016
 20
-141.9771
  0
VERTEX
  8
LAYER_1
 10
189.3016
 20
-140.0371
 42
0.3923136174
  0
VERTEX
  8
LAYER_1
 10
189.2416
 20
-139.9771
 42
0.3923136174
  0
VERTEX
  8
LAYER_1
 10
189.1816
 20
-140.0371
  0
VERTEX
  8
LAYER_1
 10
189.1816
 20
-141.9771
  0
SEQEND
  0
POLYLINE
  8
LAYER_1
 40
0.0353
 41
0.0353
 66
1
 10
0
 20
0
 30
0
  0
VERTEX
  8
LAYER_1
 10
190.1816
 20
-141.9771
  0
VERTEX
  8
LAYER_1
 10
190.1816
 20
-140.0371
 42
0.3923136174
  0
VERTEX
  8
LAYER_1
 10
190.1216
 20
-139.9771
 42
0.3923136174
  0
VERTEX
  8
LAYER_1
 10
190.0616
 20
-140.0371
  0
VERTEX
  8
LAYER_1
 10
190.0616
 20
-141.9771
  0
SEQEND
  0
POLYLINE
  8
LAYER_1
 40
0.0353
 41
0.0353
 66
1
 10
0
 20
0
 30
0
  0
VERTEX
  8
LAYER_1
 10
189.3816
 20
-140.4771
  0
VERTEX
  8
LAYER_1
 10
189.9816
 20
-140.4771
  0
SEQEND
  0
POLYLINE
  8
LAYER_1
 40
0.0353
 41
0.0353
 66
1
 10
0
 20
0
 30
0
  0
VERTEX
  8
LAYER_1
 10
189.3816
 20
-140.3371
  0
VERTEX
  8
LAYER_1
 10
189.9816
 20
-140.3371
  0
SEQEND
  0
POLYLINE
  8
LAYER_1
 40
0.0353
 41
0.0353
 66
1
 10
0
 20
0
 30
0
 70
1
  0
VERTEX
  8
LAYER_1
 10
188.7116
 20
-141.9771
 42
-0.4142830973
  0
VERTEX
  8
LAYER_1
 10
188.6116
 20
-141.8771
  0
VERTEX
  8
LAYER_1
 10
188.6116
 20
-141.2171
 42
-0.4141609677
  0
VERTEX
  8
LAYER_1
 10
188.7116
 20
-141.1171
  0
VERTEX
  8
LAYER_1
 10
188.8116
 20
-141.1171
  0
VERTEX
  8
LAYER_1
 10
188.8116
 20
-138.7771
 42
-0.4141609678
  0
VERTEX
  8
LAYER_1
 10
188.9116
 20
-138.6771
  0
VERTEX
  8
LAYER_1
 10
190.4516
 20
-138.6771
 42
-0.414144038
  0
VERTEX
  8
LAYER_1
 10
190.5516
 20
-138.7771
  0
VERTEX
  8
LAYER_1
 10
190.5516
 20
-141.1171
  0
VERTEX
  8
LAYER_1
 10
190.6516
 20
-141.1171
 42
-0.414144038
  0
VERTEX
  8
LAYER_1
 10
190.7516
 20
-141.2171
  0
VERTEX
  8
LAYER_1
 10
190.7516
 20
-141.8771
 42
-0.414266152
  0
VERTEX
  8
LAYER_1
 10
190.6516
 20
-141.9771
  0
SEQEND
  0
POLYLINE
  8
LAYER_1
 40
0.0353
 41
0.0353
 66
1
 10
0
 20
0
 30
0
  0
VERTEX
  8
LAYER_1
 10
189.1824
 20
-147.9528
  0
VERTEX
  8
LAYER_1
 10
189.3816
 20
-141.9771
  0
VERTEX
  8
LAYER_1
 10
189.3816
 20
-140.0771
  0
VERTEX
  8
LAYER_1
 10
189.9816
 20
-140.0771
  0
VERTEX
  8
LAYER_1
 10
189.9816
 20
-141.9771
  0
VERTEX
  8
LAYER_1
 10
190.1808
 20
-147.9528
  0
SEQEND
  0
POLYLINE
  8
LAYER_1
 40
0.0353
 41
0.0353
 66
1
 10
0
 20
0
 30
0
  0
VERTEX
  8
LAYER_1
 10
190.1797
 20
-147.9196
  0
VERTEX
  8
LAYER_1
 10
190.1797
 20
-148.7359
  0
SEQEND
  0
POLYLINE
  8
LAYER_1
 40
0.0353
 41
0.0353
 66
1
 10
0
 20
0
 30
0
  0
VERTEX
  8
LAYER_1
 10
189.1824
 20
-147.6325
  0
VERTEX
  8
LAYER_1
 10
189.1824
 20
-148.6315
 42
-0.4142111724
  0
VERTEX
  8
LAYER_1
 10
188.1824
 20
-149.6315
  0
VERTEX
  8
LAYER_1
 10
186.6623
 20
-149.6315
 42
-0.4142163426
  0
VERTEX
  8
LAYER_1
 10
185.6623
 20
-148.6315
  0
VERTEX
  8
LAYER_1
 10
185.6623
 20
-140.0313
 42
0.4142102725
  0
VERTEX
  8
LAYER_1
 10
183.6623
 20
-138.0313
  0
VERTEX
  8
LAYER_1
 10
181.2694
 20
-138.0313
 42
0.4142146106
  0
VERTEX
  8
LAYER_1
 10
179.2694
 20
-140.0313
  0
VERTEX
  8
LAYER_1
 10
179.2694
 20
-140.2814
  0
SEQEND
  0
POLYLINE
  8
LAYER_1
 40
0.0353
 41
0.0353
 66
1
 10
0
 20
0
 30
0
  0
VERTEX
  8
LAYER_1
 10
190.1824
 20
-148.6315
 42
-0.4142123674
  0
VERTEX
  8
LAYER_1
 10
188.1824
 20
-150.6315
  0
VERTEX
  8
LAYER_1
 10
186.6608
 20
-150.6315
 42
-0.4142186989
  0
VERTEX
  8
LAYER_1
 10
184.6623
 20
-148.6315
  0
VERTEX
  8
LAYER_1
 10
184.6623
 20
-140.0313
 42
0.4142069827
  0
VERTEX
  8
LAYER_1
 10
183.6623
 20
-139.0313
  0
VERTEX
  8
LAYER_1
 10
181.2694
 20
-139.0313
 42
0.4142156587
  0
VERTEX
  8
LAYER_1
 10
180.2694
 20
-140.0313
  0
VERTEX
  8
LAYER_1
 10
180.2694
 20
-140.2814
  0
SEQEND
  0
POLYLINE
  8
LAYER_1
 40
0.0353
 41
0.0353
 66
1
 10
0
 20
0
 30
0
  0
VERTEX
  8
LAYER_1
 10
88.6588
 20
-91.8848
 42
0.1570339892
  0
VERTEX
  8
LAYER_1
 10
88.478
 20
-91.3412
 42
0.1149252293
  0
VERTEX
  8
LAYER_1
 10
87.9456
 20
-90.8739
 42
0.08281112502
  0
VERTEX
  8
LAYER_1
 10
87.0965
 20
-90.5616
 42
0.05088086318
  0
VERTEX
  8
LAYER_1
 10
86.3588
 20
-90.4882
 42
0.07798924149
  0
VERTEX
  8
LAYER_1
 10
85.2625
 20
-90.6568
 42
0.08909039897
  0
VERTEX
  8
LAYER_1
 10
84.4993
 20
-91.0627
 42
0.1222781448
  0
VERTEX
  8
LAYER_1
 10
84.1177
 20
-91.5694
 42
0.09097099596
  0
VERTEX
  8
LAYER_1
 10
84.0588
 20
-91.8848
  0
SEQEND
  0
POLYLINE
  8
LAYER_1
 40
0.0353
 41
0.0353
 66
1
 10
0
 20
0
 30
0
  0
VERTEX
  8
LAYER_1
 10
84.0588
 20
-91.8848
 42
0.1616170768
  0
VERTEX
  8
LAYER_1
 10
84.2455
 20
-92.4221
 42
0.1139758557
  0
VERTEX
  8
LAYER_1
 10
84.791
 20
-92.8865
 42
0.07136876193
  0
VERTEX
  8
LAYER_1
 10
85.5145
 20
-93.1608
  0
SEQEND
  0
POLYLINE
  8
LAYER_1
 40
0.0353
 41
0.0353
 66
1
 10
0
 20
0
 30
0
  0
VERTEX
  8
LAYER_1
 10
87.2183
 20
-93.1572
 42
0.09487836448
  0
VERTEX
  8
LAYER_1
 10
88.1361
 20
-92.7525
 42
0.1173748393
  0
VERTEX
  8
LAYER_1
 10
88.5732
 20
-92.252
 42
0.1099443383
  0
VERTEX
  8
LAYER_1
 10
88.6588
 20
-91.8848
  0
SEQEND
  0
POLYLINE
  8
LAYER_1
 40
0.0353
 41
0.0353
 66
1
 10
0
 20
0
 30
0
  0
VERTEX
  8
LAYER_1
 10
88.8988
 20
-91.8724
 42
0.1536728607
  0
VERTEX
  8
LAYER_1
 10
88.7111
 20
-91.2946
 42
0.1103749874
  0
VERTEX
  8
LAYER_1
 10
88.1762
 20
-90.8046
 42
0.08435597002
  0
VERTEX
  8
LAYER_1
 10
87.2612
 20
-90.4431
 42
0.05661059579
  0
VERTEX
  8
LAYER_1
 10
86.3588
 20
-90.3438
 42
0.07535964029
  0
VERTEX
  8
LAYER_1
 10
85.1752
 20
-90.5196
 42
0.082220468
  0
VERTEX
  8
LAYER_1
 10
84.3605
 20
-90.9287
 42
0.1134049523
  0
VERTEX
  8
LAYER_1
 10
83.9152
 20
-91.4539
 42
0.1099039517
  0
VERTEX
  8
LAYER_1
 10
83.8188
 20
-91.8724
  0
SEQEND
  0
POLYLINE
  8
LAYER_1
 40
0.0353
 41
0.0353
 66
1
 10
0
 20
0
 30
0
  0
VERTEX
  8
LAYER_1
 10
83.8188
 20
-91.8724
 42
0.1536643835
  0
VERTEX
  8
LAYER_1
 10
84.0065
 20
-92.4502
 42
0.1103789785
  0
VERTEX
  8
LAYER_1
 10
84.5413
 20
-92.9402
 42
0.08436101387
  0
VERTEX
  8
LAYER_1
 10
85.4564
 20
-93.3017
 42
0.05661006612
  0
VERTEX
  8
LAYER_1
 10
86.3588
 20
-93.401
 42
0.0753606867
  0
VERTEX
  8
LAYER_1
 10
87.5424
 20
-93.2252
 42
0.08221581189
  0
VERTEX
  8
LAYER_1
 10
88.357
 20
-92.8161
 42
0.1134017477
  0
VERTEX
  8
LAYER_1
 10
88.8024
 20
-92.2909
 42
0.1099102263
  0
VERTEX
  8
LAYER_1
 10
88.8988
 20
-91.8724
  0
SEQEND
  0
POLYLINE
  8
LAYER_1
 40
0.0353
 41
0.0353
 66
1
 10
0
 20
0
 30
0
 70
1
  0
VERTEX
  8
LAYER_1
 10
171.7994
 20
-109.901
  0
VERTEX
  8
LAYER_1
 10
167.9594
 20
-109.901
  0
VERTEX
  8
LAYER_1
 10
167.8994
 20
-109.841
  0
VERTEX
  8
LAYER_1
 10
175.6994
 20
-109.841
  0
VERTEX
  8
LAYER_1
 10
175.6394
 20
-109.901
  0
SEQEND
  0
POLYLINE
  8
LAYER_1
 40
0.0353
 41
0.0353
 66
1
 10
0
 20
0
 30
0
  0
VERTEX
  8
LAYER_1
 10
168.0187
 20
-107.901
  0
VERTEX
  8
LAYER_1
 10
171.7994
 20
-107.901
  0
VERTEX
  8
LAYER_1
 10
175.5801
 20
-107.901
  0
SEQEND
  0
POLYLINE
  8
LAYER_1
  6
AIGENLINE001
 40
0.0353
 41
0.0353
 66
1
 10
0
 20
0
 30
0
 70
128
  0
VERTEX
  8
LAYER_1
 10
166.6694
 20
-185.1534
  0
VERTEX
  8
LAYER_1
 10
177.4694
 20
-185.1534
  0
SEQEND
  0
POLYLINE
  8
LAYER_1
  6
AIGENLINE001
 40
0.0353
 41
0.0353
 66
1
 10
0
 20
0
 30
0
 70
128
  0
VERTEX
  8
LAYER_1
 10
174.9694
 20
-182.1534
  0
VERTEX
  8
LAYER_1
 10
174.9694
 20
-191.3534
  0
SEQEND
  0
POLYLINE
  8
LAYER_1
 40
0.0353
 41
0.0353
 66
1
 10
0
 20
0
 30
0
  0
VERTEX
  8
LAYER_1
 10
173.6694
 20
-182.3534
  0
VERTEX
  8
LAYER_1
 10
173.6694
 20
-182.0897
  0
SEQEND
  0
POLYLINE
  8
LAYER_1
 40
0.0353
 41
0.0353
 66
1
 10
0
 20
0
 30
0
  0
VERTEX
  8
LAYER_1
 10
168.8694
 20
-182.3534
  0
VERTEX
  8
LAYER_1
 10
168.8694
 20
-182.0478
  0
VERTEX
  8
LAYER_1
 10
182.6746
 20
-182.1682
  0
VERTEX
  8
LAYER_1
 10
183.2694
 20
-182.1734
  0
VERTEX
  8
LAYER_1
 10
183.2694
 20
-181.7734
  0
VERTEX
  8
LAYER_1
 10
183.2694
 20
-181.6734
  0
VERTEX
  8
LAYER_1
 10
183.2694
 20
-164.3734
  0
VERTEX
  8
LAYER_1
 10
183.2694
 20
-164.2734
  0
VERTEX
  8
LAYER_1
 10
183.2694
 20
-163.8734
  0
VERTEX
  8
LAYER_1
 10
182.8729
 20
-163.8769
  0
SEQEND
  0
POLYLINE
  8
LAYER_1
 40
0.0353
 41
0.0353
 66
1
 10
0
 20
0
 30
0
  0
VERTEX
  8
LAYER_1
 10
168.4694
 20
-182.7534
  0
VERTEX
  8
LAYER_1
 10
167.3694
 20
-182.7534
  0
SEQEND
  0
POLYLINE
  8
LAYER_1
 40
0.0353
 41
0.0353
 66
1
 10
0
 20
0
 30
0
  0
VERTEX
  8
LAYER_1
 10
168.4717
 20
-182.7534
 42
0.4108656051
  0
VERTEX
  8
LAYER_1
 10
168.8694
 20
-182.3557
  0
SEQEND
  0
POLYLINE
  8
LAYER_1
 40
0.0353
 41
0.0353
 66
1
 10
0
 20
0
 30
0
  0
VERTEX
  8
LAYER_1
 10
173.6694
 20
-182.3557
 42
0.4108739508
  0
VERTEX
  8
LAYER_1
 10
174.0671
 20
-182.7534
  0
SEQEND
  0
POLYLINE
  8
LAYER_1
 40
0.0353
 41
0.0353
 66
1
 10
0
 20
0
 30
0
  0
VERTEX
  8
LAYER_1
 10
176.8694
 20
-187.8534
  0
VERTEX
  8
LAYER_1
 10
176.8694
 20
-185.1534
 42
0.4142094244
  0
VERTEX
  8
LAYER_1
 10
174.4694
 20
-182.7534
  0
VERTEX
  8
LAYER_1
 10
174.0694
 20
-182.7534
  0
SEQEND
  0
POLYLINE
  8
LAYER_1
 40
0.0353
 41
0.0353
 66
1
 10
0
 20
0
 30
0
  0
VERTEX
  8
LAYER_1
 10
173.0694
 20
-187.8542
 42
0.3433857836
  0
VERTEX
  8
LAYER_1
 10
172.684
 20
-187.5542
  0
VERTEX
  8
LAYER_1
 10
172.6822
 20
-187.5542
  0
VERTEX
  8
LAYER_1
 10
167.3694
 20
-187.5534
  0
SEQEND
  0
POLYLINE
  8
LAYER_1
 40
0.0353
 41
0.0353
 66
1
 10
0
 20
0
 30
0
 70
1
  0
VERTEX
  8
LAYER_1
 10
167.2694
 20
-182.8534
  0
VERTEX
  8
LAYER_1
 10
167.2694
 20
-187.4534
  0
VERTEX
  8
LAYER_1
 10
167.3694
 20
-187.5534
  0
VERTEX
  8
LAYER_1
 10
167.3694
 20
-182.7534
  0
SEQEND
  0
POLYLINE
  8
LAYER_1
 40
0.0353
 41
0.0353
 66
1
 10
0
 20
0
 30
0
 70
1
  0
VERTEX
  8
LAYER_1
 10
173.1694
 20
-187.9534
  0
VERTEX
  8
LAYER_1
 10
174.9694
 20
-187.9534
  0
VERTEX
  8
LAYER_1
 10
176.7694
 20
-187.9534
  0
VERTEX
  8
LAYER_1
 10
176.8694
 20
-187.8534
  0
VERTEX
  8
LAYER_1
 10
173.1709
 20
-187.8534
  0
VERTEX
  8
LAYER_1
 10
173.0694
 20
-187.8534
  0
SEQEND
  0
POLYLINE
  8
LAYER_1
 40
0.0353
 41
0.0353
 66
1
 10
0
 20
0
 30
0
  0
VERTEX
  8
LAYER_1
 10
168.8694
 20
-182.7534
  0
VERTEX
  8
LAYER_1
 10
171.2694
 20
-185.1534
  0
VERTEX
  8
LAYER_1
 10
173.6694
 20
-182.7534
  0
SEQEND
  0
POLYLINE
  8
LAYER_1
 40
0.0353
 41
0.0353
 66
1
 10
0
 20
0
 30
0
  0
VERTEX
  8
LAYER_1
 10
176.8694
 20
-185.1534
  0
VERTEX
  8
LAYER_1
 10
176.8694
 20
-185.1537
 42
-0.1757041297
  0
VERTEX
  8
LAYER_1
 10
176.7235
 20
-185.5381
 42
-0.08849306719
  0
VERTEX
  8
LAYER_1
 10
176.3993
 20
-185.8403
 42
-0.05843878267
  0
VERTEX
  8
LAYER_1
 10
175.5055
 20
-186.3217
 42
-0.02352102154
  0
VERTEX
  8
LAYER_1
 10
174.4694
 20
-186.7026
 42
0.05045604462
  0
VERTEX
  8
LAYER_1
 10
174.0721
 20
-186.8703
 42
0.04030395144
  0
VERTEX
  8
LAYER_1
 10
173.0705
 20
-187.5525
  0
SEQEND
  0
POLYLINE
  8
LAYER_1
 40
0.0353
 41
0.0353
 66
1
 10
0
 20
0
 30
0
  0
VERTEX
  8
LAYER_1
 10
167.2694
 20
-187.2434
  0
VERTEX
  8
LAYER_1
 10
167.0148
 20
-187.2434
 42
-0.06646183495
  0
VERTEX
  8
LAYER_1
 10
166.7116
 20
-185.3335
  0
VERTEX
  8
LAYER_1
 10
167.2694
 20
-185.3334
  0
SEQEND
  0
POLYLINE
  8
LAYER_1
 40
0.0353
 41
0.0353
 66
1
 10
0
 20
0
 30
0
  0
VERTEX
  8
LAYER_1
 10
167.2694
 20
-183.0634
  0
VERTEX
  8
LAYER_1
 10
167.0148
 20
-183.0634
 42
0.06646519022
  0
VERTEX
  8
LAYER_1
 10
166.7116
 20
-184.9734
  0
VERTEX
  8
LAYER_1
 10
167.2694
 20
-184.9734
  0
SEQEND
  0
POLYLINE
  8
LAYER_1
 40
0.1905
 41
0.1905
 66
1
 10
0
 20
0
 30
0
  0
VERTEX
  8
LAYER_1
 10
177.6444
 20
-189.4534
 42
0.1229429319
  0
VERTEX
  8
LAYER_1
 10
177.4773
 20
-188.7451
 42
0.09608640473
  0
VERTEX
  8
LAYER_1
 10
177.3272
 20
-188.5672
 42
0.1637991511
  0
VERTEX
  8
LAYER_1
 10
177.1345
 20
-188.4965
 42
0.1412753722
  0
VERTEX
  8
LAYER_1
 10
176.971
 20
-188.5468
 42
0.09590347644
  0
VERTEX
  8
LAYER_1
 10
176.8294
 20
-188.6866
 42
0.06998884009
  0
VERTEX
  8
LAYER_1
 10
176.7083
 20
-188.928
 42
0.08527772196
  0
VERTEX
  8
LAYER_1
 10
176.6246
 20
-189.4534
  0
SEQEND
  0
POLYLINE
  8
LAYER_1
 40
0.2399
 41
0.2399
 66
1
 10
0
 20
0
 30
0
  0
VERTEX
  8
LAYER_1
 10
174.9694
 20
-190.4103
 42
0.2838068332
  0
VERTEX
  8
LAYER_1
 10
175.9138
 20
-189.8151
 42
0.1029526626
  0
VERTEX
  8
LAYER_1
 10
175.9892
 20
-189.4534
  0
SEQEND
  0
POLYLINE
  8
LAYER_1
 40
0.2469
 41
0.2469
 66
1
 10
0
 20
0
 30
0
  0
VERTEX
  8
LAYER_1
 10
176.6246
 20
-189.4534
  0
VERTEX
  8
LAYER_1
 10
176.6246
 20
-190.2307
 42
0.4142730282
  0
VERTEX
  8
LAYER_1
 10
176.8246
 20
-190.4307
  0
VERTEX
  8
LAYER_1
 10
177.4444
 20
-190.4307
 42
0.4141491547
  0
VERTEX
  8
LAYER_1
 10
177.6444
 20
-190.2307
  0
VERTEX
  8
LAYER_1
 10
177.6444
 20
-189.4534
  0
SEQEND
  0
POLYLINE
  8
LAYER_1
 40
0.0353
 41
0.0353
 66
1
 10
0
 20
0
 30
0
  0
VERTEX
  8
LAYER_1
 10
176.5694
 20
-187.9534
  0
VERTEX
  8
LAYER_1
 10
176.5694
 20
-188.1534
  0
SEQEND
  0
POLYLINE
  8
LAYER_1
 40
0.0353
 41
0.0353
 66
1
 10
0
 20
0
 30
0
  0
VERTEX
  8
LAYER_1
 10
173.3694
 20
-187.9534
  0
VERTEX
  8
LAYER_1
 10
173.3694
 20
-188.1534
  0
SEQEND
  0
POLYLINE
  8
LAYER_1
  6
AIGENLINE001
 40
0.0353
 41
0.0353
 66
1
 10
0
 20
0
 30
0
 70
128
  0
VERTEX
  8
LAYER_1
 10
86.3588
 20
-49.8628
  0
VERTEX
  8
LAYER_1
 10
86.3588
 20
-14.5875
  0
SEQEND
  0
POLYLINE
  8
LAYER_1
  6
AIGENLINE001
 40
0.0353
 41
0.0353
 66
1
 10
0
 20
0
 30
0
 70
128
  0
VERTEX
  8
LAYER_1
 10
81.8588
 20
-19.2375
  0
VERTEX
  8
LAYER_1
 10
90.8588
 20
-19.2375
  0
SEQEND
  0
POLYLINE
  8
LAYER_1
 40
0.0353
 41
0.0353
 66
1
 10
0
 20
0
 30
0
  0
VERTEX
  8
LAYER_1
 10
88.8988
 20
-46.8343
  0
VERTEX
  8
LAYER_1
 10
88.8988
 20
-19.2375
 42
0.4142100945
  0
VERTEX
  8
LAYER_1
 10
86.3588
 20
-16.6975
 42
0.4142185931
  0
VERTEX
  8
LAYER_1
 10
83.8188
 20
-19.2375
  0
VERTEX
  8
LAYER_1
 10
83.8188
 20
-46.8983
  0
SEQEND
  0
POLYLINE
  8
LAYER_1
  6
AIGENLINE001
 40
0.0353
 41
0.0353
 66
1
 10
0
 20
0
 30
0
 70
128
  0
VERTEX
  8
LAYER_1
 10
89.4988
 20
-46.6726
  0
VERTEX
  8
LAYER_1
 10
83.2188
 20
-46.6726
  0
SEQEND
  0
POLYLINE
  8
LAYER_1
 40
0.0353
 41
0.0353
 66
1
 10
0
 20
0
 30
0
  0
VERTEX
  8
LAYER_1
 10
83.8188
 20
-46.8343
 42
0.1704480471
  0
VERTEX
  8
LAYER_1
 10
84.2026
 20
-47.907
 42
0.09421639601
  0
VERTEX
  8
LAYER_1
 10
84.8391
 20
-48.4598
 42
0.08491953113
  0
VERTEX
  8
LAYER_1
 10
85.724
 20
-48.7989
 42
0.05075387263
  0
VERTEX
  8
LAYER_1
 10
86.3588
 20
-48.8628
 42
0.08590945622
  0
VERTEX
  8
LAYER_1
 10
87.4041
 20
-48.6836
 42
0.08597429249
  0
VERTEX
  8
LAYER_1
 10
88.1974
 20
-48.2338
 42
0.09800609041
  0
VERTEX
  8
LAYER_1
 10
88.7111
 20
-47.6011
 42
0.1177197805
  0
VERTEX
  8
LAYER_1
 10
88.8988
 20
-46.8343
  0
SEQEND
  0
POLYLINE
  8
LAYER_1
 40
0.0353
 41
0.0353
 66
1
 10
0
 20
0
 30
0
  0
VERTEX
  8
LAYER_1
 10
83.8188
 20
-76.9635
  0
VERTEX
  8
LAYER_1
 10
83.8188
 20
-107.241
 42
0.3933760272
  0
VERTEX
  8
LAYER_1
 10
83.8788
 20
-107.301
  0
VERTEX
  8
LAYER_1
 10
88.8388
 20
-107.301
 42
0.392852767
  0
VERTEX
  8
LAYER_1
 10
88.8988
 20
-107.241
  0
VERTEX
  8
LAYER_1
 10
88.8988
 20
-76.9635
  0
SEQEND
  0
POLYLINE
  8
LAYER_1
 40
0.0353
 41
0.0353
 66
1
 10
0
 20
0
 30
0
  0
VERTEX
  8
LAYER_1
 10
88.8988
 20
-22.197
 42
0.2187740531
  0
VERTEX
  8
LAYER_1
 10
90.2588
 20
-19.2375
 42
0.4142113038
  0
VERTEX
  8
LAYER_1
 10
86.3588
 20
-15.3375
 42
0.4142168389
  0
VERTEX
  8
LAYER_1
 10
82.4588
 20
-19.2375
 42
0.2187778098
  0
VERTEX
  8
LAYER_1
 10
83.8188
 20
-22.197
  0
SEQEND
  0
POLYLINE
  8
LAYER_1
 40
0.0353
 41
0.0353
 66
1
 10
0
 20
0
 30
0
  0
VERTEX
  8
LAYER_1
 10
84.2633
 20
-110.3036
  0
VERTEX
  8
LAYER_1
 10
86.3588
 20
-110.3036
  0
VERTEX
  8
LAYER_1
 10
88.4543
 20
-110.3036
  0
SEQEND
  0
POLYLINE
  8
LAYER_1
 40
0.2469
 41
0.2469
 66
1
 10
0
 20
0
 30
0
  0
VERTEX
  8
LAYER_1
 10
89.0088
 20
-115.401
  0
VERTEX
  8
LAYER_1
 10
86.3588
 20
-115.401
  0
VERTEX
  8
LAYER_1
 10
83.7088
 20
-115.401
  0
SEQEND
  0
POLYLINE
  8
LAYER_1
 40
0.2469
 41
0.2469
 66
1
 10
0
 20
0
 30
0
 70
1
  0
VERTEX
  8
LAYER_1
 10
169.3994
 20
-116.701
  0
VERTEX
  8
LAYER_1
 10
171.7994
 20
-116.701
  0
VERTEX
  8
LAYER_1
 10
174.1994
 20
-116.701
  0
VERTEX
  8
LAYER_1
 10
174.1994
 20
-115.401
  0
VERTEX
  8
LAYER_1
 10
169.3994
 20
-115.401
  0
SEQEND
  0
POLYLINE
  8
LAYER_1
 40
0.2469
 41
0.2469
 66
1
 10
0
 20
0
 30
0
  0
VERTEX
  8
LAYER_1
 10
173.9725
 20
-115.401
  0
VERTEX
  8
LAYER_1
 10
173.9725
 20
-116.701
  0
SEQEND
  0
POLYLINE
  8
LAYER_1
 40
0.2469
 41
0.2469
 66
1
 10
0
 20
0
 30
0
  0
VERTEX
  8
LAYER_1
 10
169.6263
 20
-115.401
  0
VERTEX
  8
LAYER_1
 10
169.6263
 20
-116.701
  0
SEQEND
  0
POLYLINE
  8
LAYER_1
 40
0.2469
 41
0.2469
 66
1
 10
0
 20
0
 30
0
  0
VERTEX
  8
LAYER_1
 10
171.5725
 20
-115.401
  0
VERTEX
  8
LAYER_1
 10
171.5725
 20
-116.701
  0
SEQEND
  0
POLYLINE
  8
LAYER_1
 40
0.2469
 41
0.2469
 66
1
 10
0
 20
0
 30
0
  0
VERTEX
  8
LAYER_1
 10
172.0263
 20
-115.401
  0
VERTEX
  8
LAYER_1
 10
172.0263
 20
-116.701
  0
SEQEND
  0
POLYLINE
  8
LAYER_1
 40
0.0353
 41
0.0353
 66
1
 10
0
 20
0
 30
0
  0
VERTEX
  8
LAYER_1
 10
168.6208
 20
-164.0013
  0
VERTEX
  8
LAYER_1
 10
168.6208
 20
-162.5304
  0
VERTEX
  8
LAYER_1
 10
168.6207
 20
-162.5195
 42
-0.3030184042
  0
VERTEX
  8
LAYER_1
 10
168.9288
 20
-162.0578
  0
SEQEND
  0
POLYLINE
  8
LAYER_1
  6
AIGENLINE001
 40
0.0353
 41
0.0353
 66
1
 10
0
 20
0
 30
0
 70
128
  0
VERTEX
  8
LAYER_1
 10
144.2375
 20
-92.2561
  0
VERTEX
  8
LAYER_1
 10
148.0087
 20
-84.1689
 42
-0.2914741733
  0
VERTEX
  8
LAYER_1
 10
159.3194
 20
-76.9631
 42
-0.4142126898
  0
VERTEX
  8
LAYER_1
 10
171.7994
 20
-89.4431
  0
VERTEX
  8
LAYER_1
 10
171.7994
 20
-123.7089
  0
SEQEND
  0
POLYLINE
  8
LAYER_1
 40
0.0353
 41
0.0353
 66
1
 10
0
 20
0
 30
0
  0
VERTEX
  8
LAYER_1
 10
147.875
 20
-90.4656
  0
VERTEX
  8
LAYER_1
 10
147.955
 20
-90.4823
 42
0.2914769054
  0
VERTEX
  8
LAYER_1
 10
148.1363
 20
-90.3668
  0
VERTEX
  8
LAYER_1
 10
148.3729
 20
-89.8592
  0
VERTEX
  8
LAYER_1
 10
148.3917
 20
-89.7747
 42
0.2847008406
  0
VERTEX
  8
LAYER_1
 10
148.2807
 20
-89.5956
  0
SEQEND
  0
POLYLINE
  8
LAYER_1
  6
AIGENLINE001
 40
0.0353
 41
0.0353
 66
1
 10
0
 20
0
 30
0
 70
128
  0
VERTEX
  8
LAYER_1
 10
144.6405
 20
-93.2731
  0
VERTEX
  8
LAYER_1
 10
145.5131
 20
-91.4018
  0
SEQEND
  0
POLYLINE
  8
LAYER_1
 40
0.0353
 41
0.0353
 66
1
 10
0
 20
0
 30
0
  0
VERTEX
  8
LAYER_1
 10
143.831
 20
-91.5811
  0
VERTEX
  8
LAYER_1
 10
143.8233
 20
-91.63
 42
0.2914993191
  0
VERTEX
  8
LAYER_1
 10
143.9157
 20
-91.775
  0
VERTEX
  8
LAYER_1
 10
145.0848
 20
-92.3202
  0
VERTEX
  8
LAYER_1
 10
146.254
 20
-92.8654
  0
VERTEX
  8
LAYER_1
 10
146.3216
 20
-92.8804
 42
0.2511002927
  0
VERTEX
  8
LAYER_1
 10
146.457
 20
-92.8056
  0
SEQEND
  0
POLYLINE
  8
LAYER_1
 40
0.0353
 41
0.0353
 66
1
 10
0
 20
0
 30
0
 70
1
  0
VERTEX
  8
LAYER_1
 10
145.7067
 20
-83.0954
  0
VERTEX
  8
LAYER_1
 10
142.1891
 20
-90.6389
  0
VERTEX
  8
LAYER_1
 10
142.1741
 20
-90.7065
 42
0.2915174968
  0
VERTEX
  8
LAYER_1
 10
142.2665
 20
-90.8515
  0
VERTEX
  8
LAYER_1
 10
146.5805
 20
-92.8632
  0
VERTEX
  8
LAYER_1
 10
146.6481
 20
-92.8782
 42
0.2914379436
  0
VERTEX
  8
LAYER_1
 10
146.7931
 20
-92.7858
  0
VERTEX
  8
LAYER_1
 10
150.3107
 20
-85.2423
 42
-0.291473371
  0
VERTEX
  8
LAYER_1
 10
159.3194
 20
-79.5031
 42
-0.4142124669
  0
VERTEX
  8
LAYER_1
 10
169.2594
 20
-89.4431
  0
VERTEX
  8
LAYER_1
 10
169.2594
 20
-107.241
 42
0.3928373508
  0
VERTEX
  8
LAYER_1
 10
169.3194
 20
-107.301
  0
VERTEX
  8
LAYER_1
 10
174.2794
 20
-107.301
 42
0.392852767
  0
VERTEX
  8
LAYER_1
 10
174.3394
 20
-107.241
  0
VERTEX
  8
LAYER_1
 10
174.3394
 20
-89.4431
 42
0.4142128374
  0
VERTEX
  8
LAYER_1
 10
159.3194
 20
-74.4231
 42
0.2914730676
  0
SEQEND
  0
POLYLINE
  8
LAYER_1
  6
AIGENLINE001
 40
0.0353
 41
0.0353
 66
1
 10
0
 20
0
 30
0
 70
128
  0
VERTEX
  8
LAYER_1
 10
142.2483
 20
-90.8431
  0
VERTEX
  8
LAYER_1
 10
142.1215
 20
-90.7839
  0
VERTEX
  8
LAYER_1
 10
142.1891
 20
-90.6389
  0
SEQEND
  0
POLYLINE
  8
LAYER_1
 40
0.0353
 41
0.0353
 66
1
 10
0
 20
0
 30
0
  0
VERTEX
  8
LAYER_1
 10
169.9994
 20
-118.6555
  0
VERTEX
  8
LAYER_1
 10
173.5994
 20
-118.6555
  0
SEQEND
  0
POLYLINE
  8
LAYER_1
 40
0.2469
 41
0.2469
 66
1
 10
0
 20
0
 30
0
  0
VERTEX
  8
LAYER_1
 10
172.6002
 20
-188.1534
  0
VERTEX
  8
LAYER_1
 10
174.9694
 20
-188.1534
  0
VERTEX
  8
LAYER_1
 10
177.3386
 20
-188.1534
  0
SEQEND
  0
POLYLINE
  8
LAYER_1
 40
0.2469
 41
0.2469
 66
1
 10
0
 20
0
 30
0
  0
VERTEX
  8
LAYER_1
 10
172.6352
 20
-188.1534
 42
0.1316507195
  0
VERTEX
  8
LAYER_1
 10
172.2869
 20
-189.4534
  0
VERTEX
  8
LAYER_1
 10
172.2869
 20
-190.3534
 42
0.4142379514
  0
VERTEX
  8
LAYER_1
 10
172.6869
 20
-190.7534
  0
VERTEX
  8
LAYER_1
 10
174.9694
 20
-190.7534
  0
VERTEX
  8
LAYER_1
 10
177.2519
 20
-190.7534
 42
0.4142295371
  0
VERTEX
  8
LAYER_1
 10
177.6519
 20
-190.3534
  0
VERTEX
  8
LAYER_1
 10
177.6519
 20
-189.4534
 42
0.1316501577
  0
VERTEX
  8
LAYER_1
 10
177.3036
 20
-188.1534
  0
SEQEND
  0
POLYLINE
  8
LAYER_1
 40
0.1905
 41
0.1905
 66
1
 10
0
 20
0
 30
0
  0
VERTEX
  8
LAYER_1
 10
173.3142
 20
-189.4534
 42
0.1229429319
  0
VERTEX
  8
LAYER_1
 10
173.1471
 20
-188.7451
 42
0.09608640473
  0
VERTEX
  8
LAYER_1
 10
172.997
 20
-188.5672
 42
0.1637991511
  0
VERTEX
  8
LAYER_1
 10
172.8043
 20
-188.4965
 42
0.1412753722
  0
VERTEX
  8
LAYER_1
 10
172.6408
 20
-188.5468
 42
0.09590347644
  0
VERTEX
  8
LAYER_1
 10
172.4992
 20
-188.6866
 42
0.06998884009
  0
VERTEX
  8
LAYER_1
 10
172.3781
 20
-188.928
 42
0.08527772196
  0
VERTEX
  8
LAYER_1
 10
172.2944
 20
-189.4534
  0
SEQEND
  0
POLYLINE
  8
LAYER_1
 40
0.2399
 41
0.2399
 66
1
 10
0
 20
0
 30
0
  0
VERTEX
  8
LAYER_1
 10
174.9694
 20
-188.4965
 42
0.2838068332
  0
VERTEX
  8
LAYER_1
 10
174.025
 20
-189.0917
 42
0.1029526628
  0
VERTEX
  8
LAYER_1
 10
173.9496
 20
-189.4534
  0
SEQEND
  0
POLYLINE
  8
LAYER_1
 40
0.2469
 41
0.2469
 66
1
 10
0
 20
0
 30
0
  0
VERTEX
  8
LAYER_1
 10
173.3142
 20
-189.4534
  0
VERTEX
  8
LAYER_1
 10
173.3142
 20
-190.2307
 42
-0.4142562027
  0
VERTEX
  8
LAYER_1
 10
173.1142
 20
-190.4307
  0
VERTEX
  8
LAYER_1
 10
172.4944
 20
-190.4307
 42
-0.4141659794
  0
VERTEX
  8
LAYER_1
 10
172.2944
 20
-190.2307
  0
VERTEX
  8
LAYER_1
 10
172.2944
 20
-189.4534
  0
SEQEND
  0
POLYLINE
  8
LAYER_1
 40
0.2469
 41
0.2469
 66
1
 10
0
 20
0
 30
0
  0
VERTEX
  8
LAYER_1
 10
173.9496
 20
-189.4534
  0
VERTEX
  8
LAYER_1
 10
173.9496
 20
-190.2307
 42
0.4142223583
  0
VERTEX
  8
LAYER_1
 10
174.1496
 20
-190.4307
  0
VERTEX
  8
LAYER_1
 10
174.9694
 20
-190.4307
  0
VERTEX
  8
LAYER_1
 10
175.7892
 20
-190.4307
 42
0.4142055332
  0
VERTEX
  8
LAYER_1
 10
175.9892
 20
-190.2307
  0
VERTEX
  8
LAYER_1
 10
175.9892
 20
-189.4534
  0
SEQEND
  0
POLYLINE
  8
LAYER_1
 40
0.0353
 41
0.0353
 66
1
 10
0
 20
0
 30
0
  0
VERTEX
  8
LAYER_1
 10
85.4588
 20
-138.6771
 42
-0.3999680459
  0
VERTEX
  8
LAYER_1
 10
85.8188
 20
-138.6771
 42
0.1905462348
  0
VERTEX
  8
LAYER_1
 10
85.9988
 20
-138.7491
 42
0.1905489245
  0
VERTEX
  8
LAYER_1
 10
86.1788
 20
-138.6771
 42
-0.1905462348
  0
VERTEX
  8
LAYER_1
 10
86.3588
 20
-138.6051
 42
-0.1905489245
  0
VERTEX
  8
LAYER_1
 10
86.5388
 20
-138.6771
 42
0.1905462348
  0
VERTEX
  8
LAYER_1
 10
86.7188
 20
-138.7491
 42
0.1905489245
  0
VERTEX
  8
LAYER_1
 10
86.8988
 20
-138.6771
 42
-0.1905462348
  0
VERTEX
  8
LAYER_1
 10
87.0788
 20
-138.6051
 42
-0.1905489245
  0
VERTEX
  8
LAYER_1
 10
87.2588
 20
-138.6771
  0
SEQEND
  0
POLYLINE
  8
LAYER_1
 40
0.0353
 41
0.0353
 66
1
 10
0
 20
0
 30
0
  0
VERTEX
  8
LAYER_1
 10
85.4588
 20
-137.53
 42
-0.3999606099
  0
VERTEX
  8
LAYER_1
 10
85.8188
 20
-137.53
 42
0.1905462348
  0
VERTEX
  8
LAYER_1
 10
85.9988
 20
-137.602
 42
0.1905489245
  0
VERTEX
  8
LAYER_1
 10
86.1788
 20
-137.53
 42
-0.1905462348
  0
VERTEX
  8
LAYER_1
 10
86.3588
 20
-137.458
 42
-0.1905489245
  0
VERTEX
  8
LAYER_1
 10
86.5388
 20
-137.53
 42
0.1905462348
  0
VERTEX
  8
LAYER_1
 10
86.7188
 20
-137.602
 42
0.1905489245
  0
VERTEX
  8
LAYER_1
 10
86.8988
 20
-137.53
 42
-0.1905462348
  0
VERTEX
  8
LAYER_1
 10
87.0788
 20
-137.458
 42
-0.1905489245
  0
VERTEX
  8
LAYER_1
 10
87.2588
 20
-137.53
  0
SEQEND
  0
TEXT
  8
LAYER_1
 10
99.6178
 20
-198.7743
 11
99.6178
 21
-198.7743
 40
3.258
 41
0.5
  1
コード全長：1900mm
  0
TEXT
  8
LAYER_1
 10
192.7535
 20
-125.5491
 11
192.7535
 21
-125.5491
 40
3.258
 41
0.5
  1
コード全長：420mm
  0
TEXT
  8
LAYER_1
 10
192.4007
 20
-149.5485
 11
192.4007
 21
-149.5485
 40
3.258
 41
0.5
  1
コード全長：260mm
  0
POLYLINE
  8
LAYER_1
 40
0.0882
 41
0.0882
 66
1
 10
0
 20
0
 30
0
  0
VERTEX
  8
LAYER_1
 10
216.214
 20
-151.1148
  0
VERTEX
  8
LAYER_1
 10
193.6813
 20
-151.1148
  0
VERTEX
  8
LAYER_1
 10
189.4184
 20
-149.4909
  0
SEQEND
  0
POLYLINE
  8
LAYER_1
 40
0.0882
 41
0.0882
 66
1
 10
0
 20
0
 30
0
  0
VERTEX
  8
LAYER_1
 10
122.0611
 20
-130.763
  0
VERTEX
  8
LAYER_1
 10
91.487
 20
-130.763
  0
VERTEX
  8
LAYER_1
 10
87.2241
 20
-129.139
  0
SEQEND
  0
POLYLINE
  8
LAYER_1
 40
0.0882
 41
0.0882
 66
1
 10
0
 20
0
 30
0
  0
VERTEX
  8
LAYER_1
 10
216.5668
 20
-127.1286
  0
VERTEX
  8
LAYER_1
 10
194.0341
 20
-127.1286
  0
VERTEX
  8
LAYER_1
 10
189.7712
 20
-125.5047
  0
SEQEND
  0
POLYLINE
  8
LAYER_1
 40
0.0882
 41
0.0882
 66
1
 10
0
 20
0
 30
0
  0
VERTEX
  8
LAYER_1
 10
124.8955
 20
-199.6297
  0
VERTEX
  8
LAYER_1
 10
99.0134
 20
-199.6297
  0
VERTEX
  8
LAYER_1
 10
92.9235
 20
-192.4234
  0
SEQEND
  0
TEXT
  8
LAYER_1
 10
92.1927
 20
-129.1166
 11
92.1927
 21
-129.1166
 40
3.258
 41
0.5
  1
給水ホース長さ：800mm
  0
INSERT
  8
LAYER_6
  2
AIGNBL06010002
 10
0
 20
0
 30
0
  0
POLYLINE
  8
LAYER_6
 40
0.3528
 41
0.3528
 66
1
 10
0
 20
0
 30
0
  0
VERTEX
  8
LAYER_6
 10
34.7876
 20
-258.3332
  0
VERTEX
  8
LAYER_6
 10
229.7955
 20
-258.3332
  0
VERTEX
  8
LAYER_6
 10
229.7955
 20
21.6583
  0
VERTEX
  8
LAYER_6
 10
34.7876
 20
21.6583
  0
VERTEX
  8
LAYER_6
 10
34.7876
 20
-258.3332
  0
SEQEND
  0
TEXT
  8
LAYER_6
 10
166.4505
 20
-248.7955
 11
166.4505
 21
-248.7955
 40
3.3853
 41
0.5
  1
●TEL 0120-65-1232●FAX 06-6532-1580
  0
TEXT
  8
LAYER_6
 10
166.4505
 20
-252.3102
 11
166.4505
 21
-252.3102
 40
3.3853
 41
0.5
  1
hits@hiratatile.co.jp
  0
TEXT
  8
LAYER_6
 10
37.8495
 20
-250.3797
 11
37.8495
 21
-250.3797
 40
3.2995
 41
0.5
  1
仕様
  0
POLYLINE
  8
LAYER_6
 40
0.3528
 41
0.3528
 66
1
 10
0
 20
0
 30
0
  0
VERTEX
  8
LAYER_6
 10
229.7955
 20
-241.6001
  0
VERTEX
  8
LAYER_6
 10
34.7874
 20
-241.6001
  0
SEQEND
  0
POLYLINE
  8
LAYER_6
 40
0.3528
 41
0.3528
 66
1
 10
0
 20
0
 30
0
  0
VERTEX
  8
LAYER_6
 10
229.7955
 20
-233.091
  0
VERTEX
  8
LAYER_6
 10
34.7874
 20
-233.091
  0
SEQEND
  0
TEXT
  8
LAYER_6
 10
35.9444
 20
-235.5675
 11
35.9444
 21
-235.5675
 40
2.1997
 41
0.5
  1
品名
  0
TEXT
  8
LAYER_6
 10
48.7874
 20
-238.6599
 11
48.7874
 21
-238.6599
 40
4.1465
 41
0.5
  1
センサー式単水栓（AC100V）
  0
TEXT
  8
LAYER_6
 10
48.4217
 20
-250.3883
 11
48.4217
 21
-250.3883
 40
3.1177
 41
0.5
  1
●排水金具別途
  0
TEXT
  8
LAYER_6
 10
138.8017
 20
-235.5677
 11
138.8017
 21
-235.5677
 40
2.1997
 41
0.5
  1
品番
  0
TEXT
  8
LAYER_6
 10
144.8237
 20
-240.0443
 11
144.8237
 21
-240.0443
 40
5.9385
 41
0.5
  1
AQ-E1700L(M4)(M5)(S)(BN)
  0
ENDSEC
  0
EOF
