  0
SECTION
  2
HEADER
  9
$ACADVER
  1
AC1009
  9
$LUNITS
 70
2
  9
$LUPREC
 70
4
  9
$LTSCALE
 40
1.0
  9
$EXTMIN
 10
33.7873
 20
-286.0328
 30
0
  9
$EXTMAX
 10
497.1262
 20
22.6587
 30
0
  0
ENDSEC
  0
SECTION
  2
TABLES
  0
TABLE
  2
LTYPE
 70
256
  0
LTYPE
  2
AIGENLINE001
 70
64
  3
generate AI->DXF Converter
 72
65
 73
4
 40
2
 49
1.25
 49
-0.25
 49
0.25
 49
-0.25
  0
ENDTAB
  0
TABLE
  2
LAYER
 70
6
  0
LAYER
  2
LAYER_1
 70
64
 62
7
  6
CONTINUOUS
  0
LAYER
  2
LAYER_2
 70
64
 62
7
  6
CONTINUOUS
  0
LAYER
  2
LAYER_3
 70
64
 62
7
  6
CONTINUOUS
  0
LAYER
  2
LAYER_4
 70
64
 62
7
  6
CONTINUOUS
  0
LAYER
  2
LAYER_5
 70
64
 62
7
  6
CONTINUOUS
  0
LAYER
  2
LAYER_6
 70
64
 62
7
  6
CONTINUOUS
  0
ENDTAB
  0
TABLE
  2
STYLE
 70
6
  0
STYLE
  2
STANDARD
 70
0
 40
0
 50
0
 71
0
 41
0
 42
0
  3
TXT
  4
BIGFONT
  0
ENDTAB
  0
ENDSEC
  0
SECTION
  2
BLOCKS
  0
BLOCK
  8
LAYER_1
  2
AIGNBL01040005
 70
64
 10
0
 20
0
 30
0
  3
AIGNBL01040005
  0
POLYLINE
  8
LAYER_1
 40
0.05
 41
0.05
 66
1
 10
0
 20
0
 30
0
 70
1
  0
VERTEX
  8
LAYER_1
 10
138.3767
 20
-249.1011
  0
VERTEX
  8
LAYER_1
 10
137.891
 20
-250.2793
  0
VERTEX
  8
LAYER_1
 10
137.2664
 20
-250.2793
  0
VERTEX
  8
LAYER_1
 10
138.857
 20
-246.5355
  0
VERTEX
  8
LAYER_1
 10
139.586
 20
-246.5355
  0
VERTEX
  8
LAYER_1
 10
141.1828
 20
-250.2793
  0
VERTEX
  8
LAYER_1
 10
140.5365
 20
-250.2793
  0
VERTEX
  8
LAYER_1
 10
140.0369
 20
-249.1011
  0
SEQEND
  0
POLYLINE
  8
LAYER_1
 40
0.05
 41
0.05
 66
1
 10
0
 20
0
 30
0
 70
1
  0
VERTEX
  8
LAYER_1
 10
139.9115
 20
-248.7245
  0
VERTEX
  8
LAYER_1
 10
139.4533
 20
-247.6459
  0
VERTEX
  8
LAYER_1
 10
139.2101
 20
-246.963
  0
VERTEX
  8
LAYER_1
 10
139.1967
 20
-246.963
  0
VERTEX
  8
LAYER_1
 10
138.9603
 20
-247.6414
  0
VERTEX
  8
LAYER_1
 10
138.5021
 20
-248.7245
  0
SEQEND
  0
ENDBLK
  0
BLOCK
  8
LAYER_1
  2
AIGNBL01040006
 70
64
 10
0
 20
0
 30
0
  3
AIGNBL01040006
  0
POLYLINE
  8
LAYER_1
 40
0.05
 41
0.05
 66
1
 10
0
 20
0
 30
0
 70
1
  0
VERTEX
  8
LAYER_1
 10
145.5226
 20
-250.8295
 42
-0.01588995579
  0
VERTEX
  8
LAYER_1
 10
143.7311
 20
-250.3954
  0
VERTEX
  8
LAYER_1
 10
143.4465
 20
-250.3406
 42
-0.08603985201
  0
VERTEX
  8
LAYER_1
 10
142.5648
 20
-250.1665
 42
-0.09807603942
  0
VERTEX
  8
LAYER_1
 10
141.9131
 20
-249.7557
 42
-0.2094886647
  0
VERTEX
  8
LAYER_1
 10
141.3839
 20
-248.4469
 42
-0.09686882676
  0
VERTEX
  8
LAYER_1
 10
141.5276
 20
-247.6779
 42
-0.2046492491
  0
VERTEX
  8
LAYER_1
 10
142.5693
 20
-246.6597
 42
-0.09822810302
  0
VERTEX
  8
LAYER_1
 10
143.5644
 20
-246.4745
 42
-0.08551091506
  0
VERTEX
  8
LAYER_1
 10
144.4282
 20
-246.615
 42
-0.1004264881
  0
VERTEX
  8
LAYER_1
 10
145.0896
 20
-247.0069
 42
-0.2141381959
  0
VERTEX
  8
LAYER_1
 10
145.6617
 20
-248.3686
 42
-0.09538251124
  0
VERTEX
  8
LAYER_1
 10
145.5236
 20
-249.1322
 42
-0.2145004706
  0
VERTEX
  8
LAYER_1
 10
144.5063
 20
-250.1049
 42
-0.02339472194
  0
VERTEX
  8
LAYER_1
 10
144.3281
 20
-250.1628
  0
VERTEX
  8
LAYER_1
 10
144.3281
 20
-250.1852
  0
VERTEX
  8
LAYER_1
 10
145.6965
 20
-250.424
  0
SEQEND
  0
POLYLINE
  8
LAYER_1
 40
0.05
 41
0.05
 66
1
 10
0
 20
0
 30
0
 70
1
  0
VERTEX
  8
LAYER_1
 10
145.0233
 20
-248.39
 42
0.1071465477
  0
VERTEX
  8
LAYER_1
 10
144.8729
 20
-247.6894
 42
0.2977221891
  0
VERTEX
  8
LAYER_1
 10
143.5433
 20
-246.8687
 42
0.1072160189
  0
VERTEX
  8
LAYER_1
 10
142.8575
 20
-247.0073
 42
0.2385375056
  0
VERTEX
  8
LAYER_1
 10
142.0749
 20
-248.007
 42
0.05759145292
  0
VERTEX
  8
LAYER_1
 10
142.0296
 20
-248.4344
 42
0.2182236294
  0
VERTEX
  8
LAYER_1
 10
142.5575
 20
-249.6231
 42
0.1771891839
  0
VERTEX
  8
LAYER_1
 10
143.5161
 20
-249.9468
 42
0.1075696895
  0
VERTEX
  8
LAYER_1
 10
144.1932
 20
-249.8086
 42
0.236982977
  0
VERTEX
  8
LAYER_1
 10
144.9758
 20
-248.8146
 42
0.05604944619
  0
SEQEND
  0
ENDBLK
  0
BLOCK
  8
LAYER_1
  2
AIGNBL01040007
 70
64
 10
0
 20
0
 30
0
  3
AIGNBL01040007
  0
POLYLINE
  8
LAYER_1
 40
0.05
 41
0.05
 66
1
 10
0
 20
0
 30
0
 70
1
  0
VERTEX
  8
LAYER_1
 10
146.9815
 20
-246.5355
  0
VERTEX
  8
LAYER_1
 10
146.9815
 20
-248.7517
 42
0.114472655
  0
VERTEX
  8
LAYER_1
 10
147.1146
 20
-249.4136
 42
0.1464766
  0
VERTEX
  8
LAYER_1
 10
147.4628
 20
-249.7966
 42
0.1363197034
  0
VERTEX
  8
LAYER_1
 10
148.0716
 20
-249.9468
 42
0.1219363095
  0
VERTEX
  8
LAYER_1
 10
148.6913
 20
-249.8128
 42
0.1503291203
  0
VERTEX
  8
LAYER_1
 10
149.0609
 20
-249.446
 42
0.1255921242
  0
VERTEX
  8
LAYER_1
 10
149.2105
 20
-248.7517
  0
VERTEX
  8
LAYER_1
 10
149.2105
 20
-246.5355
  0
VERTEX
  8
LAYER_1
 10
149.8217
 20
-246.5355
  0
VERTEX
  8
LAYER_1
 10
149.8217
 20
-248.7187
 42
-0.1000186514
  0
VERTEX
  8
LAYER_1
 10
149.6875
 20
-249.4569
 42
-0.1214826848
  0
VERTEX
  8
LAYER_1
 10
149.3164
 20
-249.9606
 42
-0.1105884685
  0
VERTEX
  8
LAYER_1
 10
148.6945
 20
-250.2654
 42
-0.06129767201
  0
VERTEX
  8
LAYER_1
 10
148.0509
 20
-250.3406
 42
-0.09420892198
  0
VERTEX
  8
LAYER_1
 10
147.2365
 20
-250.2032
 42
-0.2431575096
  0
VERTEX
  8
LAYER_1
 10
146.4378
 20
-249.2978
 42
-0.06319469768
  0
VERTEX
  8
LAYER_1
 10
146.3707
 20
-248.7404
  0
VERTEX
  8
LAYER_1
 10
146.3707
 20
-246.5355
  0
SEQEND
  0
ENDBLK
  0
BLOCK
  8
LAYER_1
  2
AIGNBL01040008
 70
64
 10
0
 20
0
 30
0
  3
AIGNBL01040008
  0
POLYLINE
  8
LAYER_1
 40
0.05
 41
0.05
 66
1
 10
0
 20
0
 30
0
 70
1
  0
VERTEX
  8
LAYER_1
 10
151.5573
 20
-249.1011
  0
VERTEX
  8
LAYER_1
 10
151.0709
 20
-250.2793
  0
VERTEX
  8
LAYER_1
 10
150.447
 20
-250.2793
  0
VERTEX
  8
LAYER_1
 10
152.0365
 20
-246.5355
  0
VERTEX
  8
LAYER_1
 10
152.7655
 20
-246.5355
  0
VERTEX
  8
LAYER_1
 10
154.3623
 20
-250.2793
  0
VERTEX
  8
LAYER_1
 10
153.7167
 20
-250.2793
  0
VERTEX
  8
LAYER_1
 10
153.2175
 20
-249.1011
  0
SEQEND
  0
POLYLINE
  8
LAYER_1
 40
0.05
 41
0.05
 66
1
 10
0
 20
0
 30
0
 70
1
  0
VERTEX
  8
LAYER_1
 10
153.0921
 20
-248.7245
  0
VERTEX
  8
LAYER_1
 10
152.6332
 20
-247.6459
  0
VERTEX
  8
LAYER_1
 10
152.3897
 20
-246.963
  0
VERTEX
  8
LAYER_1
 10
152.3759
 20
-246.963
  0
VERTEX
  8
LAYER_1
 10
152.1402
 20
-247.6414
  0
VERTEX
  8
LAYER_1
 10
151.682
 20
-248.7245
  0
SEQEND
  0
ENDBLK
  0
BLOCK
  8
LAYER_1
  2
AIGNBL01040009
 70
64
 10
0
 20
0
 30
0
  3
AIGNBL01040009
  0
POLYLINE
  8
LAYER_1
 40
0.05
 41
0.05
 66
1
 10
0
 20
0
 30
0
 70
1
  0
VERTEX
  8
LAYER_1
 10
155.3969
 20
-246.58
 42
-0.03256094069
  0
VERTEX
  8
LAYER_1
 10
156.5576
 20
-246.5072
 42
-0.08241612935
  0
VERTEX
  8
LAYER_1
 10
157.5173
 20
-246.6416
 42
-0.07669938049
  0
VERTEX
  8
LAYER_1
 10
157.8691
 20
-246.8184
 42
-0.2484913661
  0
VERTEX
  8
LAYER_1
 10
158.279
 20
-247.6018
 42
-0.2263535337
  0
VERTEX
  8
LAYER_1
 10
157.9177
 20
-248.4014
 42
-0.1098394792
  0
VERTEX
  8
LAYER_1
 10
157.2932
 20
-248.7128
 42
-0.0656406839
  0
VERTEX
  8
LAYER_1
 10
156.4872
 20
-248.8127
 42
-0.06243203296
  0
VERTEX
  8
LAYER_1
 10
156.0015
 20
-248.7793
  0
VERTEX
  8
LAYER_1
 10
156.0015
 20
-250.2793
  0
VERTEX
  8
LAYER_1
 10
155.3969
 20
-250.2793
  0
SEQEND
  0
POLYLINE
  8
LAYER_1
 40
0.05
 41
0.05
 66
1
 10
0
 20
0
 30
0
 70
1
  0
VERTEX
  8
LAYER_1
 10
156.0015
 20
-248.3852
 42
0.04167858666
  0
VERTEX
  8
LAYER_1
 10
156.501
 20
-248.4245
 42
0.1033682296
  0
VERTEX
  8
LAYER_1
 10
157.216
 20
-248.2977
 42
0.300261568
  0
VERTEX
  8
LAYER_1
 10
157.6751
 20
-247.6242
 42
0.1736095203
  0
VERTEX
  8
LAYER_1
 10
157.5412
 20
-247.2193
 42
0.1518049397
  0
VERTEX
  8
LAYER_1
 10
157.1227
 20
-246.9614
 42
0.06878721899
  0
VERTEX
  8
LAYER_1
 10
156.5713
 20
-246.891
 42
0.0640598863
  0
VERTEX
  8
LAYER_1
 10
156.0015
 20
-246.93
  0
SEQEND
  0
ENDBLK
  0
BLOCK
  8
LAYER_1
  2
AIGNBL0104000A
 70
64
 10
0
 20
0
 30
0
  3
AIGNBL0104000A
  0
POLYLINE
  8
LAYER_1
 40
0.05
 41
0.05
 66
1
 10
0
 20
0
 30
0
 70
1
  0
VERTEX
  8
LAYER_1
 10
159.8218
 20
-246.8352
 42
-0.2759870412
  0
VERTEX
  8
LAYER_1
 10
159.6829
 20
-247.0742
 42
-0.1267055018
  0
VERTEX
  8
LAYER_1
 10
159.4325
 20
-247.1356
 42
-0.2239956238
  0
VERTEX
  8
LAYER_1
 10
159.1241
 20
-247.0039
 42
-0.1705452753
  0
VERTEX
  8
LAYER_1
 10
159.0645
 20
-246.8352
 42
-0.2641883957
  0
VERTEX
  8
LAYER_1
 10
159.2127
 20
-246.5896
 42
-0.1291792354
  0
VERTEX
  8
LAYER_1
 10
159.4459
 20
-246.53
 42
-0.2251681707
  0
VERTEX
  8
LAYER_1
 10
159.761
 20
-246.6599
 42
-0.1693099844
  0
SEQEND
  0
POLYLINE
  8
LAYER_1
 40
0.05
 41
0.05
 66
1
 10
0
 20
0
 30
0
 70
1
  0
VERTEX
  8
LAYER_1
 10
159.1407
 20
-250.2793
  0
VERTEX
  8
LAYER_1
 10
159.1407
 20
-247.5907
  0
VERTEX
  8
LAYER_1
 10
159.7515
 20
-247.5907
  0
VERTEX
  8
LAYER_1
 10
159.7515
 20
-250.2793
  0
SEQEND
  0
ENDBLK
  0
BLOCK
  8
LAYER_1
  2
AIGNBL0104000B
 70
64
 10
0
 20
0
 30
0
  3
AIGNBL0104000B
  0
POLYLINE
  8
LAYER_1
 40
0.05
 41
0.05
 66
1
 10
0
 20
0
 30
0
 70
1
  0
VERTEX
  8
LAYER_1
 10
161.6118
 20
-249.1011
  0
VERTEX
  8
LAYER_1
 10
161.1271
 20
-250.2793
  0
VERTEX
  8
LAYER_1
 10
160.5015
 20
-250.2793
  0
VERTEX
  8
LAYER_1
 10
162.0918
 20
-246.5355
  0
VERTEX
  8
LAYER_1
 10
162.8211
 20
-246.5355
  0
VERTEX
  8
LAYER_1
 10
164.4186
 20
-250.2793
  0
VERTEX
  8
LAYER_1
 10
163.7719
 20
-250.2793
  0
VERTEX
  8
LAYER_1
 10
163.2727
 20
-249.1011
  0
SEQEND
  0
POLYLINE
  8
LAYER_1
 40
0.05
 41
0.05
 66
1
 10
0
 20
0
 30
0
 70
1
  0
VERTEX
  8
LAYER_1
 10
163.1473
 20
-248.7245
  0
VERTEX
  8
LAYER_1
 10
162.6891
 20
-247.6459
  0
VERTEX
  8
LAYER_1
 10
162.4466
 20
-246.963
  0
VERTEX
  8
LAYER_1
 10
162.4321
 20
-246.963
  0
VERTEX
  8
LAYER_1
 10
162.1961
 20
-247.6414
  0
VERTEX
  8
LAYER_1
 10
161.7379
 20
-248.7245
  0
SEQEND
  0
ENDBLK
  0
BLOCK
  8
LAYER_1
  2
AIGNBL01030004
 70
64
 10
0
 20
0
 30
0
  3
AIGNBL01030004
  0
INSERT
  8
LAYER_1
  2
AIGNBL01040005
 10
0
 20
0
 30
0
  0
INSERT
  8
LAYER_1
  2
AIGNBL01040006
 10
0
 20
0
 30
0
  0
INSERT
  8
LAYER_1
  2
AIGNBL01040007
 10
0
 20
0
 30
0
  0
INSERT
  8
LAYER_1
  2
AIGNBL01040008
 10
0
 20
0
 30
0
  0
INSERT
  8
LAYER_1
  2
AIGNBL01040009
 10
0
 20
0
 30
0
  0
INSERT
  8
LAYER_1
  2
AIGNBL0104000A
 10
0
 20
0
 30
0
  0
INSERT
  8
LAYER_1
  2
AIGNBL0104000B
 10
0
 20
0
 30
0
  0
ENDBLK
  0
BLOCK
  8
LAYER_1
  2
AIGNBL0103000D
 70
64
 10
0
 20
0
 30
0
  3
AIGNBL0103000D
  0
POLYLINE
  8
LAYER_1
 40
0.05
 41
0.05
 66
1
 10
0
 20
0
 30
0
 70
1
  0
VERTEX
  8
LAYER_1
 10
137.3756
 20
-252.1676
  0
VERTEX
  8
LAYER_1
 10
137.9258
 20
-252.1676
  0
VERTEX
  8
LAYER_1
 10
137.9258
 20
-252.2609
  0
VERTEX
  8
LAYER_1
 10
137.2715
 20
-252.2609
  0
VERTEX
  8
LAYER_1
 10
137.2715
 20
-251.2339
  0
VERTEX
  8
LAYER_1
 10
137.9082
 20
-251.2339
  0
VERTEX
  8
LAYER_1
 10
137.9082
 20
-251.3266
  0
VERTEX
  8
LAYER_1
 10
137.3756
 20
-251.3266
  0
VERTEX
  8
LAYER_1
 10
137.3756
 20
-251.6787
  0
VERTEX
  8
LAYER_1
 10
137.8734
 20
-251.6787
  0
VERTEX
  8
LAYER_1
 10
137.8734
 20
-251.7717
  0
VERTEX
  8
LAYER_1
 10
137.3756
 20
-251.7717
  0
SEQEND
  0
ENDBLK
  0
BLOCK
  8
LAYER_1
  2
AIGNBL0103000E
 70
64
 10
0
 20
0
 30
0
  3
AIGNBL0103000E
  0
POLYLINE
  8
LAYER_1
 40
0.05
 41
0.05
 66
1
 10
0
 20
0
 30
0
 70
1
  0
VERTEX
  8
LAYER_1
 10
139.0589
 20
-252.1079
  0
VERTEX
  8
LAYER_1
 10
139.0613
 20
-252.1079
  0
VERTEX
  8
LAYER_1
 10
139.0613
 20
-251.2339
  0
VERTEX
  8
LAYER_1
 10
139.1663
 20
-251.2339
  0
VERTEX
  8
LAYER_1
 10
139.1663
 20
-252.2609
  0
VERTEX
  8
LAYER_1
 10
139.0365
 20
-252.2609
  0
VERTEX
  8
LAYER_1
 10
138.4384
 20
-251.3772
  0
VERTEX
  8
LAYER_1
 10
138.435
 20
-251.3772
  0
VERTEX
  8
LAYER_1
 10
138.435
 20
-252.2609
  0
VERTEX
  8
LAYER_1
 10
138.3306
 20
-252.2609
  0
VERTEX
  8
LAYER_1
 10
138.3306
 20
-251.2339
  0
VERTEX
  8
LAYER_1
 10
138.4611
 20
-251.2339
  0
SEQEND
  0
ENDBLK
  0
BLOCK
  8
LAYER_1
  2
AIGNBL0103000F
 70
64
 10
0
 20
0
 30
0
  3
AIGNBL0103000F
  0
POLYLINE
  8
LAYER_1
 40
0.05
 41
0.05
 66
1
 10
0
 20
0
 30
0
 70
1
  0
VERTEX
  8
LAYER_1
 10
139.637
 20
-252.0501
  0
VERTEX
  8
LAYER_1
 10
139.691
 20
-252.1527
 42
0.1791739205
  0
VERTEX
  8
LAYER_1
 10
139.8034
 20
-252.1937
  0
VERTEX
  8
LAYER_1
 10
139.8922
 20
-252.1744
  0
VERTEX
  8
LAYER_1
 10
139.948
 20
-252.1214
  0
VERTEX
  8
LAYER_1
 10
139.9763
 20
-252.0453
  0
VERTEX
  8
LAYER_1
 10
139.9853
 20
-251.956
  0
VERTEX
  8
LAYER_1
 10
139.9853
 20
-251.2339
  0
VERTEX
  8
LAYER_1
 10
140.0893
 20
-251.2339
  0
VERTEX
  8
LAYER_1
 10
140.0893
 20
-251.965
  0
VERTEX
  8
LAYER_1
 10
140.0783
 20
-252.0718
  0
VERTEX
  8
LAYER_1
 10
140.0369
 20
-252.1765
  0
VERTEX
  8
LAYER_1
 10
139.9529
 20
-252.2554
  0
VERTEX
  8
LAYER_1
 10
139.8147
 20
-252.2868
 42
-0.18823279
  0
VERTEX
  8
LAYER_1
 10
139.6311
 20
-252.2268
 42
-0.1779708983
  0
VERTEX
  8
LAYER_1
 10
139.5391
 20
-252.0769
  0
SEQEND
  0
ENDBLK
  0
BLOCK
  8
LAYER_1
  2
AIGNBL01030010
 70
64
 10
0
 20
0
 30
0
  3
AIGNBL01030010
  0
POLYLINE
  8
LAYER_1
 40
0.05
 41
0.05
 66
1
 10
0
 20
0
 30
0
 70
1
  0
VERTEX
  8
LAYER_1
 10
141.5693
 20
-251.7469
 42
-0.104348301
  0
VERTEX
  8
LAYER_1
 10
141.5279
 20
-251.9629
 42
-0.1013865216
  0
VERTEX
  8
LAYER_1
 10
141.4163
 20
-252.1338
  0
VERTEX
  8
LAYER_1
 10
141.2458
 20
-252.2461
 42
-0.09497960855
  0
VERTEX
  8
LAYER_1
 10
141.0332
 20
-252.2868
 42
-0.1003676177
  0
VERTEX
  8
LAYER_1
 10
140.8207
 20
-252.2461
  0
VERTEX
  8
LAYER_1
 10
140.6512
 20
-252.1338
 42
-0.09474436642
  0
VERTEX
  8
LAYER_1
 10
140.5389
 20
-251.9629
 42
-0.09317427323
  0
VERTEX
  8
LAYER_1
 10
140.4986
 20
-251.7469
 42
-0.1052531491
  0
VERTEX
  8
LAYER_1
 10
140.5389
 20
-251.5306
 42
-0.1000138279
  0
VERTEX
  8
LAYER_1
 10
140.6512
 20
-251.3604
 42
-0.09581503346
  0
VERTEX
  8
LAYER_1
 10
140.8207
 20
-251.2481
 42
-0.09561956468
  0
VERTEX
  8
LAYER_1
 10
141.0332
 20
-251.2071
 42
-0.1024782491
  0
VERTEX
  8
LAYER_1
 10
141.2458
 20
-251.2481
 42
-0.1014786584
  0
VERTEX
  8
LAYER_1
 10
141.4163
 20
-251.3604
 42
-0.09815577957
  0
VERTEX
  8
LAYER_1
 10
141.5279
 20
-251.5306
 42
-0.09523735002
  0
SEQEND
  0
POLYLINE
  8
LAYER_1
 40
0.05
 41
0.05
 66
1
 10
0
 20
0
 30
0
 70
1
  0
VERTEX
  8
LAYER_1
 10
141.4584
 20
-251.7476
  0
VERTEX
  8
LAYER_1
 10
141.4301
 20
-251.5767
  0
VERTEX
  8
LAYER_1
 10
141.3454
 20
-251.4344
  0
VERTEX
  8
LAYER_1
 10
141.211
 20
-251.337
 42
0.1026237584
  0
VERTEX
  8
LAYER_1
 10
141.0332
 20
-251.3001
 42
0.1147987019
  0
VERTEX
  8
LAYER_1
 10
140.8558
 20
-251.337
  0
VERTEX
  8
LAYER_1
 10
140.7225
 20
-251.4344
  0
VERTEX
  8
LAYER_1
 10
140.6374
 20
-251.5767
  0
VERTEX
  8
LAYER_1
 10
140.6081
 20
-251.7476
  0
VERTEX
  8
LAYER_1
 10
140.6374
 20
-251.9188
  0
VERTEX
  8
LAYER_1
 10
140.7225
 20
-252.0607
  0
VERTEX
  8
LAYER_1
 10
140.8558
 20
-252.1575
  0
VERTEX
  8
LAYER_1
 10
141.0332
 20
-252.1937
 42
0.1185100977
  0
VERTEX
  8
LAYER_1
 10
141.211
 20
-252.1575
  0
VERTEX
  8
LAYER_1
 10
141.3454
 20
-252.0607
  0
VERTEX
  8
LAYER_1
 10
141.4301
 20
-251.9188
  0
SEQEND
  0
ENDBLK
  0
BLOCK
  8
LAYER_1
  2
AIGNBL01030011
 70
64
 10
0
 20
0
 30
0
  3
AIGNBL01030011
  0
POLYLINE
  8
LAYER_1
 40
0.05
 41
0.05
 66
1
 10
0
 20
0
 30
0
 70
1
  0
VERTEX
  8
LAYER_1
 10
142.3393
 20
-252.2609
  0
VERTEX
  8
LAYER_1
 10
142.2349
 20
-252.2609
  0
VERTEX
  8
LAYER_1
 10
142.2349
 20
-251.8182
  0
VERTEX
  8
LAYER_1
 10
141.8504
 20
-251.2339
  0
VERTEX
  8
LAYER_1
 10
141.9813
 20
-251.2339
  0
VERTEX
  8
LAYER_1
 10
142.2904
 20
-251.7311
  0
VERTEX
  8
LAYER_1
 10
142.6022
 20
-251.2339
  0
VERTEX
  8
LAYER_1
 10
142.7234
 20
-251.2339
  0
VERTEX
  8
LAYER_1
 10
142.3393
 20
-251.8182
  0
SEQEND
  0
ENDBLK
  0
BLOCK
  8
LAYER_1
  2
AIGNBL01030012
 70
64
 10
0
 20
0
 30
0
  3
AIGNBL01030012
  0
POLYLINE
  8
LAYER_1
 40
0.05
 41
0.05
 66
1
 10
0
 20
0
 30
0
 70
1
  0
VERTEX
  8
LAYER_1
 10
143.6236
 20
-251.2339
  0
VERTEX
  8
LAYER_1
 10
143.9288
 20
-251.2339
  0
VERTEX
  8
LAYER_1
 10
144.047
 20
-251.2457
  0
VERTEX
  8
LAYER_1
 10
144.1528
 20
-251.288
  0
VERTEX
  8
LAYER_1
 10
144.2307
 20
-251.3686
  0
VERTEX
  8
LAYER_1
 10
144.2603
 20
-251.4961
 42
-0.1778951175
  0
VERTEX
  8
LAYER_1
 10
144.2103
 20
-251.6373
 42
-0.1614829203
  0
VERTEX
  8
LAYER_1
 10
144.078
 20
-251.7166
  0
VERTEX
  8
LAYER_1
 10
144.078
 20
-251.7194
 42
-0.1736511409
  0
VERTEX
  8
LAYER_1
 10
144.2434
 20
-251.7969
 42
-0.1925337955
  0
VERTEX
  8
LAYER_1
 10
144.3099
 20
-251.9764
  0
VERTEX
  8
LAYER_1
 10
144.2823
 20
-252.0928
  0
VERTEX
  8
LAYER_1
 10
144.2062
 20
-252.1831
  0
VERTEX
  8
LAYER_1
 10
144.0866
 20
-252.2402
  0
VERTEX
  8
LAYER_1
 10
143.9275
 20
-252.2609
  0
VERTEX
  8
LAYER_1
 10
143.6236
 20
-252.2609
  0
SEQEND
  0
POLYLINE
  8
LAYER_1
 40
0.05
 41
0.05
 66
1
 10
0
 20
0
 30
0
 70
1
  0
VERTEX
  8
LAYER_1
 10
143.7277
 20
-251.6832
  0
VERTEX
  8
LAYER_1
 10
143.9382
 20
-251.6832
  0
VERTEX
  8
LAYER_1
 10
144.0146
 20
-251.6742
  0
VERTEX
  8
LAYER_1
 10
144.0842
 20
-251.6453
  0
VERTEX
  8
LAYER_1
 10
144.1362
 20
-251.5888
  0
VERTEX
  8
LAYER_1
 10
144.1552
 20
-251.5034
  0
VERTEX
  8
LAYER_1
 10
144.1362
 20
-251.4203
  0
VERTEX
  8
LAYER_1
 10
144.0835
 20
-251.3638
  0
VERTEX
  8
LAYER_1
 10
144.005
 20
-251.3328
  0
VERTEX
  8
LAYER_1
 10
143.9089
 20
-251.3235
  0
VERTEX
  8
LAYER_1
 10
143.7277
 20
-251.3235
  0
SEQEND
  0
POLYLINE
  8
LAYER_1
 40
0.05
 41
0.05
 66
1
 10
0
 20
0
 30
0
 70
1
  0
VERTEX
  8
LAYER_1
 10
143.7277
 20
-252.171
  0
VERTEX
  8
LAYER_1
 10
143.9223
 20
-252.171
  0
VERTEX
  8
LAYER_1
 10
144.0301
 20
-252.1596
  0
VERTEX
  8
LAYER_1
 10
144.1204
 20
-252.1252
  0
VERTEX
  8
LAYER_1
 10
144.181
 20
-252.0625
  0
VERTEX
  8
LAYER_1
 10
144.2048
 20
-251.9705
 42
0.2546661425
  0
VERTEX
  8
LAYER_1
 10
144.1362
 20
-251.8189
 42
0.138509597
  0
VERTEX
  8
LAYER_1
 10
143.9413
 20
-251.7686
  0
VERTEX
  8
LAYER_1
 10
143.7277
 20
-251.7686
  0
SEQEND
  0
ENDBLK
  0
BLOCK
  8
LAYER_1
  2
AIGNBL01030013
 70
64
 10
0
 20
0
 30
0
  3
AIGNBL01030013
  0
POLYLINE
  8
LAYER_1
 40
0.05
 41
0.05
 66
1
 10
0
 20
0
 30
0
 70
1
  0
VERTEX
  8
LAYER_1
 10
144.7388
 20
-252.2609
  0
VERTEX
  8
LAYER_1
 10
144.6241
 20
-252.2609
  0
VERTEX
  8
LAYER_1
 10
145.0685
 20
-251.2339
  0
VERTEX
  8
LAYER_1
 10
145.1705
 20
-251.2339
  0
VERTEX
  8
LAYER_1
 10
145.6111
 20
-252.2609
  0
VERTEX
  8
LAYER_1
 10
145.4943
 20
-252.2609
  0
VERTEX
  8
LAYER_1
 10
145.3813
 20
-251.9912
  0
VERTEX
  8
LAYER_1
 10
144.8504
 20
-251.9912
  0
SEQEND
  0
POLYLINE
  8
LAYER_1
 40
0.05
 41
0.05
 66
1
 10
0
 20
0
 30
0
 70
1
  0
VERTEX
  8
LAYER_1
 10
144.8894
 20
-251.8947
  0
VERTEX
  8
LAYER_1
 10
145.3424
 20
-251.8947
  0
VERTEX
  8
LAYER_1
 10
145.1164
 20
-251.3493
  0
SEQEND
  0
ENDBLK
  0
BLOCK
  8
LAYER_1
  2
AIGNBL01030014
 70
64
 10
0
 20
0
 30
0
  3
AIGNBL01030014
  0
POLYLINE
  8
LAYER_1
 40
0.05
 41
0.05
 66
1
 10
0
 20
0
 30
0
 70
1
  0
VERTEX
  8
LAYER_1
 10
146.2915
 20
-252.2609
  0
VERTEX
  8
LAYER_1
 10
146.1871
 20
-252.2609
  0
VERTEX
  8
LAYER_1
 10
146.1871
 20
-251.3266
  0
VERTEX
  8
LAYER_1
 10
145.8426
 20
-251.3266
  0
VERTEX
  8
LAYER_1
 10
145.8426
 20
-251.2339
  0
VERTEX
  8
LAYER_1
 10
146.635
 20
-251.2339
  0
VERTEX
  8
LAYER_1
 10
146.635
 20
-251.3266
  0
VERTEX
  8
LAYER_1
 10
146.2915
 20
-251.3266
  0
SEQEND
  0
ENDBLK
  0
BLOCK
  8
LAYER_1
  2
AIGNBL01030015
 70
64
 10
0
 20
0
 30
0
  3
AIGNBL01030015
  0
POLYLINE
  8
LAYER_1
 40
0.05
 41
0.05
 66
1
 10
0
 20
0
 30
0
 70
1
  0
VERTEX
  8
LAYER_1
 10
146.9888
 20
-251.2339
  0
VERTEX
  8
LAYER_1
 10
147.0932
 20
-251.2339
  0
VERTEX
  8
LAYER_1
 10
147.0932
 20
-251.6787
  0
VERTEX
  8
LAYER_1
 10
147.654
 20
-251.6787
  0
VERTEX
  8
LAYER_1
 10
147.654
 20
-251.2339
  0
VERTEX
  8
LAYER_1
 10
147.7581
 20
-251.2339
  0
VERTEX
  8
LAYER_1
 10
147.7581
 20
-252.2609
  0
VERTEX
  8
LAYER_1
 10
147.654
 20
-252.2609
  0
VERTEX
  8
LAYER_1
 10
147.654
 20
-251.7745
  0
VERTEX
  8
LAYER_1
 10
147.0932
 20
-251.7745
  0
VERTEX
  8
LAYER_1
 10
147.0932
 20
-252.2609
  0
VERTEX
  8
LAYER_1
 10
146.9888
 20
-252.2609
  0
SEQEND
  0
ENDBLK
  0
BLOCK
  8
LAYER_1
  2
AIGNBL01030016
 70
64
 10
0
 20
0
 30
0
  3
AIGNBL01030016
  0
POLYLINE
  8
LAYER_1
 40
0.05
 41
0.05
 66
1
 10
0
 20
0
 30
0
 70
1
  0
VERTEX
  8
LAYER_1
 10
148.3351
 20
-252.2609
  0
VERTEX
  8
LAYER_1
 10
148.2311
 20
-252.2609
  0
VERTEX
  8
LAYER_1
 10
148.2311
 20
-251.2339
  0
VERTEX
  8
LAYER_1
 10
148.5322
 20
-251.2339
  0
VERTEX
  8
LAYER_1
 10
148.6724
 20
-251.2481
  0
VERTEX
  8
LAYER_1
 10
148.7844
 20
-251.2953
  0
VERTEX
  8
LAYER_1
 10
148.8571
 20
-251.38
  0
VERTEX
  8
LAYER_1
 10
148.8829
 20
-251.5078
  0
VERTEX
  8
LAYER_1
 10
148.8636
 20
-251.6108
  0
VERTEX
  8
LAYER_1
 10
148.8088
 20
-251.6911
  0
VERTEX
  8
LAYER_1
 10
148.7258
 20
-251.7459
  0
VERTEX
  8
LAYER_1
 10
148.6214
 20
-251.7717
  0
VERTEX
  8
LAYER_1
 10
148.9211
 20
-252.2609
  0
VERTEX
  8
LAYER_1
 10
148.7937
 20
-252.2609
  0
VERTEX
  8
LAYER_1
 10
148.5098
 20
-251.7807
  0
VERTEX
  8
LAYER_1
 10
148.3351
 20
-251.7807
  0
SEQEND
  0
POLYLINE
  8
LAYER_1
 40
0.05
 41
0.05
 66
1
 10
0
 20
0
 30
0
 70
1
  0
VERTEX
  8
LAYER_1
 10
148.3351
 20
-251.6904
  0
VERTEX
  8
LAYER_1
 10
148.517
 20
-251.6904
 42
0.1622417858
  0
VERTEX
  8
LAYER_1
 10
148.711
 20
-251.6453
 42
0.2500476248
  0
VERTEX
  8
LAYER_1
 10
148.7799
 20
-251.5078
  0
VERTEX
  8
LAYER_1
 10
148.7602
 20
-251.4224
  0
VERTEX
  8
LAYER_1
 10
148.7079
 20
-251.3652
  0
VERTEX
  8
LAYER_1
 10
148.6269
 20
-251.3338
  0
VERTEX
  8
LAYER_1
 10
148.5212
 20
-251.3235
  0
VERTEX
  8
LAYER_1
 10
148.3351
 20
-251.3235
  0
SEQEND
  0
ENDBLK
  0
BLOCK
  8
LAYER_1
  2
AIGNBL01030017
 70
64
 10
0
 20
0
 30
0
  3
AIGNBL01030017
  0
POLYLINE
  8
LAYER_1
 40
0.05
 41
0.05
 66
1
 10
0
 20
0
 30
0
 70
1
  0
VERTEX
  8
LAYER_1
 10
150.3154
 20
-251.7469
 42
-0.1015060182
  0
VERTEX
  8
LAYER_1
 10
150.2747
 20
-251.9629
 42
-0.09993540575
  0
VERTEX
  8
LAYER_1
 10
150.1624
 20
-252.1338
 42
-0.09525489566
  0
VERTEX
  8
LAYER_1
 10
149.9926
 20
-252.2461
 42
-0.09491251156
  0
VERTEX
  8
LAYER_1
 10
149.78
 20
-252.2868
 42
-0.1002015795
  0
VERTEX
  8
LAYER_1
 10
149.5674
 20
-252.2461
 42
-0.1016690689
  0
VERTEX
  8
LAYER_1
 10
149.3979
 20
-252.1338
 42
-0.09667300425
  0
VERTEX
  8
LAYER_1
 10
149.2856
 20
-251.9629
 42
-0.09262920428
  0
VERTEX
  8
LAYER_1
 10
149.2453
 20
-251.7469
 42
-0.09846568495
  0
VERTEX
  8
LAYER_1
 10
149.2856
 20
-251.5306
 42
-0.09950302227
  0
VERTEX
  8
LAYER_1
 10
149.3979
 20
-251.3604
 42
-0.09832237419
  0
VERTEX
  8
LAYER_1
 10
149.5674
 20
-251.2481
 42
-0.09564774702
  0
VERTEX
  8
LAYER_1
 10
149.78
 20
-251.2071
 42
-0.1014301699
  0
VERTEX
  8
LAYER_1
 10
149.9926
 20
-251.2481
 42
-0.1041253763
  0
VERTEX
  8
LAYER_1
 10
150.1624
 20
-251.3604
 42
-0.09489987116
  0
VERTEX
  8
LAYER_1
 10
150.2747
 20
-251.5306
 42
-0.09342113907
  0
SEQEND
  0
POLYLINE
  8
LAYER_1
 40
0.05
 41
0.05
 66
1
 10
0
 20
0
 30
0
 70
1
  0
VERTEX
  8
LAYER_1
 10
150.2051
 20
-251.7476
  0
VERTEX
  8
LAYER_1
 10
150.1762
 20
-251.5767
  0
VERTEX
  8
LAYER_1
 10
150.0921
 20
-251.4344
  0
VERTEX
  8
LAYER_1
 10
149.9581
 20
-251.337
 42
0.1022827687
  0
VERTEX
  8
LAYER_1
 10
149.78
 20
-251.3001
 42
0.1183846388
  0
VERTEX
  8
LAYER_1
 10
149.6026
 20
-251.337
  0
VERTEX
  8
LAYER_1
 10
149.4682
 20
-251.4344
  0
VERTEX
  8
LAYER_1
 10
149.3842
 20
-251.5767
  0
VERTEX
  8
LAYER_1
 10
149.3549
 20
-251.7476
  0
VERTEX
  8
LAYER_1
 10
149.3842
 20
-251.9188
  0
VERTEX
  8
LAYER_1
 10
149.4682
 20
-252.0607
  0
VERTEX
  8
LAYER_1
 10
149.6026
 20
-252.1575
 42
0.1007973502
  0
VERTEX
  8
LAYER_1
 10
149.78
 20
-252.1937
  0
VERTEX
  8
LAYER_1
 10
149.9581
 20
-252.1575
  0
VERTEX
  8
LAYER_1
 10
150.0921
 20
-252.0607
  0
VERTEX
  8
LAYER_1
 10
150.1762
 20
-251.9188
  0
SEQEND
  0
ENDBLK
  0
BLOCK
  8
LAYER_1
  2
AIGNBL01030018
 70
64
 10
0
 20
0
 30
0
  3
AIGNBL01030018
  0
POLYLINE
  8
LAYER_1
 40
0.05
 41
0.05
 66
1
 10
0
 20
0
 30
0
 70
1
  0
VERTEX
  8
LAYER_1
 10
151.7489
 20
-251.7469
 42
-0.1017020442
  0
VERTEX
  8
LAYER_1
 10
151.7086
 20
-251.9629
  0
VERTEX
  8
LAYER_1
 10
151.5963
 20
-252.1338
  0
VERTEX
  8
LAYER_1
 10
151.4264
 20
-252.2461
 42
-0.09495021158
  0
VERTEX
  8
LAYER_1
 10
151.2139
 20
-252.2868
 42
-0.1019502388
  0
VERTEX
  8
LAYER_1
 10
151.0013
 20
-252.2461
 42
-0.1021914323
  0
VERTEX
  8
LAYER_1
 10
150.8318
 20
-252.1338
 42
-0.09636018285
  0
VERTEX
  8
LAYER_1
 10
150.7188
 20
-251.9629
 42
-0.09364604827
  0
VERTEX
  8
LAYER_1
 10
150.6781
 20
-251.7469
 42
-0.1001287453
  0
VERTEX
  8
LAYER_1
 10
150.7188
 20
-251.5306
 42
-0.1037227634
  0
VERTEX
  8
LAYER_1
 10
150.8318
 20
-251.3604
 42
-0.0985967677
  0
VERTEX
  8
LAYER_1
 10
151.0013
 20
-251.2481
 42
-0.0957287822
  0
VERTEX
  8
LAYER_1
 10
151.2139
 20
-251.2071
 42
-0.1016365741
  0
VERTEX
  8
LAYER_1
 10
151.4264
 20
-251.2481
 42
-0.09861864621
  0
VERTEX
  8
LAYER_1
 10
151.5963
 20
-251.3604
 42
-0.09487953686
  0
VERTEX
  8
LAYER_1
 10
151.7086
 20
-251.5306
 42
-0.09256741039
  0
SEQEND
  0
POLYLINE
  8
LAYER_1
 40
0.05
 41
0.05
 66
1
 10
0
 20
0
 30
0
 70
1
  0
VERTEX
  8
LAYER_1
 10
151.639
 20
-251.7476
  0
VERTEX
  8
LAYER_1
 10
151.61
 20
-251.5767
  0
VERTEX
  8
LAYER_1
 10
151.526
 20
-251.4344
  0
VERTEX
  8
LAYER_1
 10
151.3916
 20
-251.337
 42
0.1025075331
  0
VERTEX
  8
LAYER_1
 10
151.2139
 20
-251.3001
 42
0.118884027
  0
VERTEX
  8
LAYER_1
 10
151.0361
 20
-251.337
  0
VERTEX
  8
LAYER_1
 10
150.9017
 20
-251.4344
  0
VERTEX
  8
LAYER_1
 10
150.818
 20
-251.5767
  0
VERTEX
  8
LAYER_1
 10
150.7887
 20
-251.7476
  0
VERTEX
  8
LAYER_1
 10
150.818
 20
-251.9188
  0
VERTEX
  8
LAYER_1
 10
150.9017
 20
-252.0607
  0
VERTEX
  8
LAYER_1
 10
151.0361
 20
-252.1575
 42
0.100589677
  0
VERTEX
  8
LAYER_1
 10
151.2139
 20
-252.1937
  0
VERTEX
  8
LAYER_1
 10
151.3916
 20
-252.1575
  0
VERTEX
  8
LAYER_1
 10
151.526
 20
-252.0607
  0
VERTEX
  8
LAYER_1
 10
151.61
 20
-251.9188
  0
SEQEND
  0
ENDBLK
  0
BLOCK
  8
LAYER_1
  2
AIGNBL01030019
 70
64
 10
0
 20
0
 30
0
  3
AIGNBL01030019
  0
POLYLINE
  8
LAYER_1
 40
0.05
 41
0.05
 66
1
 10
0
 20
0
 30
0
 70
1
  0
VERTEX
  8
LAYER_1
 10
152.6742
 20
-252.0839
  0
VERTEX
  8
LAYER_1
 10
152.6756
 20
-252.0839
  0
VERTEX
  8
LAYER_1
 10
153.0194
 20
-251.2339
  0
VERTEX
  8
LAYER_1
 10
153.1793
 20
-251.2339
  0
VERTEX
  8
LAYER_1
 10
153.1793
 20
-252.2609
  0
VERTEX
  8
LAYER_1
 10
153.0749
 20
-252.2609
  0
VERTEX
  8
LAYER_1
 10
153.0749
 20
-251.3686
  0
VERTEX
  8
LAYER_1
 10
153.0718
 20
-251.3686
  0
VERTEX
  8
LAYER_1
 10
152.7007
 20
-252.2609
  0
VERTEX
  8
LAYER_1
 10
152.646
 20
-252.2609
  0
VERTEX
  8
LAYER_1
 10
152.2743
 20
-251.3686
  0
VERTEX
  8
LAYER_1
 10
152.2708
 20
-251.3686
  0
VERTEX
  8
LAYER_1
 10
152.2708
 20
-252.2609
  0
VERTEX
  8
LAYER_1
 10
152.1668
 20
-252.2609
  0
VERTEX
  8
LAYER_1
 10
152.1668
 20
-251.2339
  0
VERTEX
  8
LAYER_1
 10
152.327
 20
-251.2339
  0
SEQEND
  0
ENDBLK
  0
BLOCK
  8
LAYER_1
  2
AIGNBL0103001A
 70
64
 10
0
 20
0
 30
0
  3
AIGNBL0103001A
  0
POLYLINE
  8
LAYER_1
 40
0.05
 41
0.05
 66
1
 10
0
 20
0
 30
0
 70
1
  0
VERTEX
  8
LAYER_1
 10
154.3196
 20
-252.1676
  0
VERTEX
  8
LAYER_1
 10
154.8694
 20
-252.1676
  0
VERTEX
  8
LAYER_1
 10
154.8694
 20
-252.2609
  0
VERTEX
  8
LAYER_1
 10
154.2145
 20
-252.2609
  0
VERTEX
  8
LAYER_1
 10
154.2145
 20
-251.2339
  0
VERTEX
  8
LAYER_1
 10
154.8522
 20
-251.2339
  0
VERTEX
  8
LAYER_1
 10
154.8522
 20
-251.3263
  0
VERTEX
  8
LAYER_1
 10
154.3196
 20
-251.3263
  0
VERTEX
  8
LAYER_1
 10
154.3196
 20
-251.6787
  0
VERTEX
  8
LAYER_1
 10
154.8167
 20
-251.6787
  0
VERTEX
  8
LAYER_1
 10
154.8167
 20
-251.7717
  0
VERTEX
  8
LAYER_1
 10
154.3196
 20
-251.7717
  0
SEQEND
  0
ENDBLK
  0
BLOCK
  8
LAYER_1
  2
AIGNBL0103001B
 70
64
 10
0
 20
0
 30
0
  3
AIGNBL0103001B
  0
POLYLINE
  8
LAYER_1
 40
0.05
 41
0.05
 66
1
 10
0
 20
0
 30
0
 70
1
  0
VERTEX
  8
LAYER_1
 10
155.6101
 20
-251.6484
  0
VERTEX
  8
LAYER_1
 10
155.8906
 20
-251.2339
  0
VERTEX
  8
LAYER_1
 10
156.0153
 20
-251.2339
  0
VERTEX
  8
LAYER_1
 10
155.6749
 20
-251.7221
  0
VERTEX
  8
LAYER_1
 10
156.0518
 20
-252.2609
  0
VERTEX
  8
LAYER_1
 10
155.9216
 20
-252.2609
  0
VERTEX
  8
LAYER_1
 10
155.6081
 20
-251.7979
  0
VERTEX
  8
LAYER_1
 10
155.296
 20
-252.2609
  0
VERTEX
  8
LAYER_1
 10
155.165
 20
-252.2609
  0
VERTEX
  8
LAYER_1
 10
155.5426
 20
-251.7211
  0
VERTEX
  8
LAYER_1
 10
155.1988
 20
-251.2339
  0
VERTEX
  8
LAYER_1
 10
155.329
 20
-251.2339
  0
SEQEND
  0
ENDBLK
  0
BLOCK
  8
LAYER_1
  2
AIGNBL0103001C
 70
64
 10
0
 20
0
 30
0
  3
AIGNBL0103001C
  0
POLYLINE
  8
LAYER_1
 40
0.05
 41
0.05
 66
1
 10
0
 20
0
 30
0
 70
1
  0
VERTEX
  8
LAYER_1
 10
156.4159
 20
-251.2339
  0
VERTEX
  8
LAYER_1
 10
156.706
 20
-251.2339
  0
VERTEX
  8
LAYER_1
 10
156.8487
 20
-251.2498
  0
VERTEX
  8
LAYER_1
 10
156.9575
 20
-251.3015
  0
VERTEX
  8
LAYER_1
 10
157.0288
 20
-251.3866
  0
VERTEX
  8
LAYER_1
 10
157.053
 20
-251.5078
  0
VERTEX
  8
LAYER_1
 10
157.0281
 20
-251.6291
  0
VERTEX
  8
LAYER_1
 10
156.9568
 20
-251.7145
  0
VERTEX
  8
LAYER_1
 10
156.8459
 20
-251.7659
  0
VERTEX
  8
LAYER_1
 10
156.7032
 20
-251.7831
  0
VERTEX
  8
LAYER_1
 10
156.5203
 20
-251.7831
  0
VERTEX
  8
LAYER_1
 10
156.5203
 20
-252.2609
  0
VERTEX
  8
LAYER_1
 10
156.4159
 20
-252.2609
  0
SEQEND
  0
POLYLINE
  8
LAYER_1
 40
0.05
 41
0.05
 66
1
 10
0
 20
0
 30
0
 70
1
  0
VERTEX
  8
LAYER_1
 10
156.5203
 20
-251.6949
  0
VERTEX
  8
LAYER_1
 10
156.6974
 20
-251.6949
 42
0.179800284
  0
VERTEX
  8
LAYER_1
 10
156.8848
 20
-251.6474
 42
0.2343125845
  0
VERTEX
  8
LAYER_1
 10
156.9489
 20
-251.5078
 42
0.2635647854
  0
VERTEX
  8
LAYER_1
 10
156.8824
 20
-251.3676
 42
0.1265134521
  0
VERTEX
  8
LAYER_1
 10
156.6974
 20
-251.3235
  0
VERTEX
  8
LAYER_1
 10
156.5203
 20
-251.3235
  0
SEQEND
  0
ENDBLK
  0
BLOCK
  8
LAYER_1
  2
AIGNBL0103001D
 70
64
 10
0
 20
0
 30
0
  3
AIGNBL0103001D
  0
POLYLINE
  8
LAYER_1
 40
0.05
 41
0.05
 66
1
 10
0
 20
0
 30
0
 70
1
  0
VERTEX
  8
LAYER_1
 10
157.5621
 20
-252.1676
  0
VERTEX
  8
LAYER_1
 10
158.1116
 20
-252.1676
  0
VERTEX
  8
LAYER_1
 10
158.1116
 20
-252.2609
  0
VERTEX
  8
LAYER_1
 10
157.4577
 20
-252.2609
  0
VERTEX
  8
LAYER_1
 10
157.4577
 20
-251.2339
  0
VERTEX
  8
LAYER_1
 10
158.0947
 20
-251.2339
  0
VERTEX
  8
LAYER_1
 10
158.0947
 20
-251.3263
  0
VERTEX
  8
LAYER_1
 10
157.5621
 20
-251.3263
  0
VERTEX
  8
LAYER_1
 10
157.5621
 20
-251.6787
  0
VERTEX
  8
LAYER_1
 10
158.0599
 20
-251.6787
  0
VERTEX
  8
LAYER_1
 10
158.0599
 20
-251.7717
  0
VERTEX
  8
LAYER_1
 10
157.5621
 20
-251.7717
  0
SEQEND
  0
ENDBLK
  0
BLOCK
  8
LAYER_1
  2
AIGNBL0103001E
 70
64
 10
0
 20
0
 30
0
  3
AIGNBL0103001E
  0
POLYLINE
  8
LAYER_1
 40
0.05
 41
0.05
 66
1
 10
0
 20
0
 30
0
 70
1
  0
VERTEX
  8
LAYER_1
 10
158.6208
 20
-252.2609
  0
VERTEX
  8
LAYER_1
 10
158.5168
 20
-252.2609
  0
VERTEX
  8
LAYER_1
 10
158.5168
 20
-251.2339
  0
VERTEX
  8
LAYER_1
 10
158.8185
 20
-251.2339
  0
VERTEX
  8
LAYER_1
 10
158.9584
 20
-251.2481
  0
VERTEX
  8
LAYER_1
 10
159.07
 20
-251.2953
  0
VERTEX
  8
LAYER_1
 10
159.1438
 20
-251.38
  0
VERTEX
  8
LAYER_1
 10
159.1696
 20
-251.5078
  0
VERTEX
  8
LAYER_1
 10
159.1493
 20
-251.6105
  0
VERTEX
  8
LAYER_1
 10
159.0945
 20
-251.6915
  0
VERTEX
  8
LAYER_1
 10
159.0111
 20
-251.7459
  0
VERTEX
  8
LAYER_1
 10
158.9067
 20
-251.7717
  0
VERTEX
  8
LAYER_1
 10
159.2075
 20
-252.2609
  0
VERTEX
  8
LAYER_1
 10
159.08
 20
-252.2609
  0
VERTEX
  8
LAYER_1
 10
158.7955
 20
-251.7803
  0
VERTEX
  8
LAYER_1
 10
158.6208
 20
-251.7803
  0
SEQEND
  0
POLYLINE
  8
LAYER_1
 40
0.05
 41
0.05
 66
1
 10
0
 20
0
 30
0
 70
1
  0
VERTEX
  8
LAYER_1
 10
158.6208
 20
-251.69
  0
VERTEX
  8
LAYER_1
 10
158.8027
 20
-251.69
 42
0.1625850216
  0
VERTEX
  8
LAYER_1
 10
158.9974
 20
-251.6453
 42
0.2500143464
  0
VERTEX
  8
LAYER_1
 10
159.0652
 20
-251.5078
  0
VERTEX
  8
LAYER_1
 10
159.047
 20
-251.4224
  0
VERTEX
  8
LAYER_1
 10
158.9943
 20
-251.3652
  0
VERTEX
  8
LAYER_1
 10
158.9123
 20
-251.3338
  0
VERTEX
  8
LAYER_1
 10
158.8065
 20
-251.3235
  0
VERTEX
  8
LAYER_1
 10
158.6208
 20
-251.3235
  0
SEQEND
  0
ENDBLK
  0
BLOCK
  8
LAYER_1
  2
AIGNBL0103001F
 70
64
 10
0
 20
0
 30
0
  3
AIGNBL0103001F
  0
POLYLINE
  8
LAYER_1
 40
0.05
 41
0.05
 66
1
 10
0
 20
0
 30
0
 70
1
  0
VERTEX
  8
LAYER_1
 10
159.6898
 20
-252.2609
  0
VERTEX
  8
LAYER_1
 10
159.5865
 20
-252.2609
  0
VERTEX
  8
LAYER_1
 10
159.5865
 20
-251.2339
  0
VERTEX
  8
LAYER_1
 10
159.6898
 20
-251.2339
  0
SEQEND
  0
ENDBLK
  0
BLOCK
  8
LAYER_1
  2
AIGNBL01030020
 70
64
 10
0
 20
0
 30
0
  3
AIGNBL01030020
  0
POLYLINE
  8
LAYER_1
 40
0.05
 41
0.05
 66
1
 10
0
 20
0
 30
0
 70
1
  0
VERTEX
  8
LAYER_1
 10
160.2676
 20
-252.1676
  0
VERTEX
  8
LAYER_1
 10
160.8174
 20
-252.1676
  0
VERTEX
  8
LAYER_1
 10
160.8174
 20
-252.2609
  0
VERTEX
  8
LAYER_1
 10
160.1639
 20
-252.2609
  0
VERTEX
  8
LAYER_1
 10
160.1639
 20
-251.2339
  0
VERTEX
  8
LAYER_1
 10
160.8005
 20
-251.2339
  0
VERTEX
  8
LAYER_1
 10
160.8005
 20
-251.3263
  0
VERTEX
  8
LAYER_1
 10
160.2676
 20
-251.3263
  0
VERTEX
  8
LAYER_1
 10
160.2676
 20
-251.6787
  0
VERTEX
  8
LAYER_1
 10
160.7654
 20
-251.6787
  0
VERTEX
  8
LAYER_1
 10
160.7654
 20
-251.7717
  0
VERTEX
  8
LAYER_1
 10
160.2676
 20
-251.7717
  0
SEQEND
  0
ENDBLK
  0
BLOCK
  8
LAYER_1
  2
AIGNBL01030021
 70
64
 10
0
 20
0
 30
0
  3
AIGNBL01030021
  0
POLYLINE
  8
LAYER_1
 40
0.05
 41
0.05
 66
1
 10
0
 20
0
 30
0
 70
1
  0
VERTEX
  8
LAYER_1
 10
161.9505
 20
-252.1079
  0
VERTEX
  8
LAYER_1
 10
161.9536
 20
-252.1079
  0
VERTEX
  8
LAYER_1
 10
161.9536
 20
-251.2339
  0
VERTEX
  8
LAYER_1
 10
162.058
 20
-251.2339
  0
VERTEX
  8
LAYER_1
 10
162.058
 20
-252.2609
  0
VERTEX
  8
LAYER_1
 10
161.9277
 20
-252.2609
  0
VERTEX
  8
LAYER_1
 10
161.3297
 20
-251.3772
  0
VERTEX
  8
LAYER_1
 10
161.3266
 20
-251.3772
  0
VERTEX
  8
LAYER_1
 10
161.3266
 20
-252.2609
  0
VERTEX
  8
LAYER_1
 10
161.2222
 20
-252.2609
  0
VERTEX
  8
LAYER_1
 10
161.2222
 20
-251.2339
  0
VERTEX
  8
LAYER_1
 10
161.3535
 20
-251.2339
  0
SEQEND
  0
ENDBLK
  0
BLOCK
  8
LAYER_1
  2
AIGNBL01030022
 70
64
 10
0
 20
0
 30
0
  3
AIGNBL01030022
  0
POLYLINE
  8
LAYER_1
 40
0.05
 41
0.05
 66
1
 10
0
 20
0
 30
0
 70
1
  0
VERTEX
  8
LAYER_1
 10
163.396
 20
-252.0942
  0
VERTEX
  8
LAYER_1
 10
163.3323
 20
-252.1679
  0
VERTEX
  8
LAYER_1
 10
163.2469
 20
-252.2295
  0
VERTEX
  8
LAYER_1
 10
163.1394
 20
-252.2716
  0
VERTEX
  8
LAYER_1
 10
163.0112
 20
-252.2868
 42
-0.1009164681
  0
VERTEX
  8
LAYER_1
 10
162.7966
 20
-252.2461
 42
-0.1027581013
  0
VERTEX
  8
LAYER_1
 10
162.6271
 20
-252.1335
 42
-0.1010578842
  0
VERTEX
  8
LAYER_1
 10
162.5162
 20
-251.9633
 42
-0.09298732079
  0
VERTEX
  8
LAYER_1
 10
162.4759
 20
-251.7469
 42
-0.1023262951
  0
VERTEX
  8
LAYER_1
 10
162.5169
 20
-251.5306
 42
-0.1009138363
  0
VERTEX
  8
LAYER_1
 10
162.6285
 20
-251.3604
  0
VERTEX
  8
LAYER_1
 10
162.798
 20
-251.2481
 42
-0.09535690024
  0
VERTEX
  8
LAYER_1
 10
163.0112
 20
-251.2071
  0
VERTEX
  8
LAYER_1
 10
163.1222
 20
-251.2191
  0
VERTEX
  8
LAYER_1
 10
163.2252
 20
-251.2522
  0
VERTEX
  8
LAYER_1
 10
163.3117
 20
-251.3035
  0
VERTEX
  8
LAYER_1
 10
163.3767
 20
-251.3711
  0
VERTEX
  8
LAYER_1
 10
163.2906
 20
-251.4355
  0
VERTEX
  8
LAYER_1
 10
163.2469
 20
-251.3858
  0
VERTEX
  8
LAYER_1
 10
163.1835
 20
-251.3421
  0
VERTEX
  8
LAYER_1
 10
163.1043
 20
-251.3114
  0
VERTEX
  8
LAYER_1
 10
163.0126
 20
-251.3001
  0
VERTEX
  8
LAYER_1
 10
162.8338
 20
-251.3362
  0
VERTEX
  8
LAYER_1
 10
162.6998
 20
-251.4338
  0
VERTEX
  8
LAYER_1
 10
162.6147
 20
-251.5764
  0
VERTEX
  8
LAYER_1
 10
162.5868
 20
-251.7469
  0
VERTEX
  8
LAYER_1
 10
162.6164
 20
-251.9178
  0
VERTEX
  8
LAYER_1
 10
162.7012
 20
-252.0601
  0
VERTEX
  8
LAYER_1
 10
162.8356
 20
-252.1575
 42
0.1012189446
  0
VERTEX
  8
LAYER_1
 10
163.0126
 20
-252.1937
  0
VERTEX
  8
LAYER_1
 10
163.1804
 20
-252.1575
 42
0.1297589768
  0
VERTEX
  8
LAYER_1
 10
163.3148
 20
-252.0414
  0
SEQEND
  0
ENDBLK
  0
BLOCK
  8
LAYER_1
  2
AIGNBL01030023
 70
64
 10
0
 20
0
 30
0
  3
AIGNBL01030023
  0
POLYLINE
  8
LAYER_1
 40
0.05
 41
0.05
 66
1
 10
0
 20
0
 30
0
 70
1
  0
VERTEX
  8
LAYER_1
 10
163.8801
 20
-252.1676
  0
VERTEX
  8
LAYER_1
 10
164.4299
 20
-252.1676
  0
VERTEX
  8
LAYER_1
 10
164.4299
 20
-252.2609
  0
VERTEX
  8
LAYER_1
 10
163.7764
 20
-252.2609
  0
VERTEX
  8
LAYER_1
 10
163.7764
 20
-251.2339
  0
VERTEX
  8
LAYER_1
 10
164.4127
 20
-251.2339
  0
VERTEX
  8
LAYER_1
 10
164.4127
 20
-251.3263
  0
VERTEX
  8
LAYER_1
 10
163.8801
 20
-251.3263
  0
VERTEX
  8
LAYER_1
 10
163.8801
 20
-251.6787
  0
VERTEX
  8
LAYER_1
 10
164.3782
 20
-251.6787
  0
VERTEX
  8
LAYER_1
 10
164.3782
 20
-251.7717
  0
VERTEX
  8
LAYER_1
 10
163.8801
 20
-251.7717
  0
SEQEND
  0
ENDBLK
  0
BLOCK
  8
LAYER_1
  2
AIGNBL01020003
 70
64
 10
0
 20
0
 30
0
  3
AIGNBL01020003
  0
INSERT
  8
LAYER_1
  2
AIGNBL01030004
 10
0
 20
0
 30
0
  0
ENDBLK
  0
BLOCK
  8
LAYER_1
  2
AIGNBL0102000C
 70
64
 10
0
 20
0
 30
0
  3
AIGNBL0102000C
  0
INSERT
  8
LAYER_1
  2
AIGNBL0103000D
 10
0
 20
0
 30
0
  0
INSERT
  8
LAYER_1
  2
AIGNBL0103000E
 10
0
 20
0
 30
0
  0
INSERT
  8
LAYER_1
  2
AIGNBL0103000F
 10
0
 20
0
 30
0
  0
INSERT
  8
LAYER_1
  2
AIGNBL01030010
 10
0
 20
0
 30
0
  0
INSERT
  8
LAYER_1
  2
AIGNBL01030011
 10
0
 20
0
 30
0
  0
INSERT
  8
LAYER_1
  2
AIGNBL01030012
 10
0
 20
0
 30
0
  0
INSERT
  8
LAYER_1
  2
AIGNBL01030013
 10
0
 20
0
 30
0
  0
INSERT
  8
LAYER_1
  2
AIGNBL01030014
 10
0
 20
0
 30
0
  0
INSERT
  8
LAYER_1
  2
AIGNBL01030015
 10
0
 20
0
 30
0
  0
INSERT
  8
LAYER_1
  2
AIGNBL01030016
 10
0
 20
0
 30
0
  0
INSERT
  8
LAYER_1
  2
AIGNBL01030017
 10
0
 20
0
 30
0
  0
INSERT
  8
LAYER_1
  2
AIGNBL01030018
 10
0
 20
0
 30
0
  0
INSERT
  8
LAYER_1
  2
AIGNBL01030019
 10
0
 20
0
 30
0
  0
INSERT
  8
LAYER_1
  2
AIGNBL0103001A
 10
0
 20
0
 30
0
  0
INSERT
  8
LAYER_1
  2
AIGNBL0103001B
 10
0
 20
0
 30
0
  0
INSERT
  8
LAYER_1
  2
AIGNBL0103001C
 10
0
 20
0
 30
0
  0
INSERT
  8
LAYER_1
  2
AIGNBL0103001D
 10
0
 20
0
 30
0
  0
INSERT
  8
LAYER_1
  2
AIGNBL0103001E
 10
0
 20
0
 30
0
  0
INSERT
  8
LAYER_1
  2
AIGNBL0103001F
 10
0
 20
0
 30
0
  0
INSERT
  8
LAYER_1
  2
AIGNBL01030020
 10
0
 20
0
 30
0
  0
INSERT
  8
LAYER_1
  2
AIGNBL01030021
 10
0
 20
0
 30
0
  0
INSERT
  8
LAYER_1
  2
AIGNBL01030022
 10
0
 20
0
 30
0
  0
INSERT
  8
LAYER_1
  2
AIGNBL01030023
 10
0
 20
0
 30
0
  0
ENDBLK
  0
BLOCK
  8
LAYER_6
  2
AIGNBL06020004
 70
64
 10
0
 20
0
 30
0
  3
AIGNBL06020004
  0
POLYLINE
  8
LAYER_6
 40
0.0353
 41
0.0353
 66
1
 10
0
 20
0
 30
0
  0
VERTEX
  8
LAYER_6
 10
163.0774
 20
-142.876
  0
VERTEX
  8
LAYER_6
 10
161.5774
 20
-142.626
  0
SEQEND
  0
POLYLINE
  8
LAYER_6
 40
0.0353
 41
0.0353
 66
1
 10
0
 20
0
 30
0
  0
VERTEX
  8
LAYER_6
 10
163.0774
 20
-142.626
  0
VERTEX
  8
LAYER_6
 10
161.5774
 20
-142.626
  0
VERTEX
  8
LAYER_6
 10
163.0774
 20
-142.376
  0
SEQEND
  0
ENDBLK
  0
BLOCK
  8
LAYER_6
  2
AIGNBL06020005
 70
64
 10
0
 20
0
 30
0
  3
AIGNBL06020005
  0
POLYLINE
  8
LAYER_6
 40
0.0353
 41
0.0353
 66
1
 10
0
 20
0
 30
0
  0
VERTEX
  8
LAYER_6
 10
176.8774
 20
-142.376
  0
VERTEX
  8
LAYER_6
 10
178.3774
 20
-142.626
  0
SEQEND
  0
POLYLINE
  8
LAYER_6
 40
0.0353
 41
0.0353
 66
1
 10
0
 20
0
 30
0
  0
VERTEX
  8
LAYER_6
 10
176.8774
 20
-142.626
  0
VERTEX
  8
LAYER_6
 10
178.3774
 20
-142.626
  0
VERTEX
  8
LAYER_6
 10
176.8774
 20
-142.876
  0
SEQEND
  0
ENDBLK
  0
BLOCK
  8
LAYER_6
  2
AIGNBL06020006
 70
64
 10
0
 20
0
 30
0
  3
AIGNBL06020006
  0
POLYLINE
  8
LAYER_6
 40
0.7056
 41
0.7056
 66
1
 10
0
 20
0
 30
0
  0
VERTEX
  8
LAYER_6
 10
161.5774
 20
-159.2123
  0
SEQEND
  0
ENDBLK
  0
BLOCK
  8
LAYER_6
  2
AIGNBL06020007
 70
64
 10
0
 20
0
 30
0
  3
AIGNBL06020007
  0
POLYLINE
  8
LAYER_6
 40
0.7056
 41
0.7056
 66
1
 10
0
 20
0
 30
0
  0
VERTEX
  8
LAYER_6
 10
178.3774
 20
-159.07
  0
SEQEND
  0
ENDBLK
  0
BLOCK
  8
LAYER_6
  2
AIGNBL06020008
 70
64
 10
0
 20
0
 30
0
  3
AIGNBL06020008
  0
POLYLINE
  8
LAYER_6
 40
0.7056
 41
0.7056
 66
1
 10
0
 20
0
 30
0
  0
VERTEX
  8
LAYER_6
 10
178.3774
 20
-142.626
  0
SEQEND
  0
ENDBLK
  0
BLOCK
  8
LAYER_6
  2
AIGNBL0602000A
 70
64
 10
0
 20
0
 30
0
  3
AIGNBL0602000A
  0
POLYLINE
  8
LAYER_6
 40
0.0353
 41
0.0353
 66
1
 10
0
 20
0
 30
0
  0
VERTEX
  8
LAYER_6
 10
164.8774
 20
-148.0703
  0
VERTEX
  8
LAYER_6
 10
166.3774
 20
-148.3203
  0
SEQEND
  0
POLYLINE
  8
LAYER_6
 40
0.0353
 41
0.0353
 66
1
 10
0
 20
0
 30
0
  0
VERTEX
  8
LAYER_6
 10
164.8774
 20
-148.3203
  0
VERTEX
  8
LAYER_6
 10
166.3774
 20
-148.3203
  0
VERTEX
  8
LAYER_6
 10
164.8774
 20
-148.5703
  0
SEQEND
  0
ENDBLK
  0
BLOCK
  8
LAYER_6
  2
AIGNBL0602000B
 70
64
 10
0
 20
0
 30
0
  3
AIGNBL0602000B
  0
POLYLINE
  8
LAYER_6
 40
0.0353
 41
0.0353
 66
1
 10
0
 20
0
 30
0
  0
VERTEX
  8
LAYER_6
 10
163.0774
 20
-148.5703
  0
VERTEX
  8
LAYER_6
 10
161.5774
 20
-148.3203
  0
SEQEND
  0
POLYLINE
  8
LAYER_6
 40
0.0353
 41
0.0353
 66
1
 10
0
 20
0
 30
0
  0
VERTEX
  8
LAYER_6
 10
163.0774
 20
-148.3203
  0
VERTEX
  8
LAYER_6
 10
161.5774
 20
-148.3203
  0
VERTEX
  8
LAYER_6
 10
163.0774
 20
-148.0703
  0
SEQEND
  0
ENDBLK
  0
BLOCK
  8
LAYER_6
  2
AIGNBL0602000C
 70
64
 10
0
 20
0
 30
0
  3
AIGNBL0602000C
  0
POLYLINE
  8
LAYER_6
 40
0.7056
 41
0.7056
 66
1
 10
0
 20
0
 30
0
  0
VERTEX
  8
LAYER_6
 10
166.3774
 20
-155.7213
  0
SEQEND
  0
ENDBLK
  0
BLOCK
  8
LAYER_6
  2
AIGNBL0602000D
 70
64
 10
0
 20
0
 30
0
  3
AIGNBL0602000D
  0
POLYLINE
  8
LAYER_6
 40
0.7056
 41
0.7056
 66
1
 10
0
 20
0
 30
0
  0
VERTEX
  8
LAYER_6
 10
161.5774
 20
-159.2123
  0
SEQEND
  0
ENDBLK
  0
BLOCK
  8
LAYER_6
  2
AIGNBL0602000E
 70
64
 10
0
 20
0
 30
0
  3
AIGNBL0602000E
  0
POLYLINE
  8
LAYER_6
 40
0.7056
 41
0.7056
 66
1
 10
0
 20
0
 30
0
  0
VERTEX
  8
LAYER_6
 10
161.5774
 20
-148.3203
  0
SEQEND
  0
ENDBLK
  0
BLOCK
  8
LAYER_6
  2
AIGNBL06020010
 70
64
 10
0
 20
0
 30
0
  3
AIGNBL06020010
  0
POLYLINE
  8
LAYER_6
 40
0.0353
 41
0.0353
 66
1
 10
0
 20
0
 30
0
  0
VERTEX
  8
LAYER_6
 10
167.8774
 20
-148.5703
  0
VERTEX
  8
LAYER_6
 10
166.3774
 20
-148.3203
  0
SEQEND
  0
POLYLINE
  8
LAYER_6
 40
0.0353
 41
0.0353
 66
1
 10
0
 20
0
 30
0
  0
VERTEX
  8
LAYER_6
 10
167.8774
 20
-148.3203
  0
VERTEX
  8
LAYER_6
 10
166.3774
 20
-148.3203
  0
VERTEX
  8
LAYER_6
 10
167.8774
 20
-148.0703
  0
SEQEND
  0
ENDBLK
  0
BLOCK
  8
LAYER_6
  2
AIGNBL06020011
 70
64
 10
0
 20
0
 30
0
  3
AIGNBL06020011
  0
POLYLINE
  8
LAYER_6
 40
0.0353
 41
0.0353
 66
1
 10
0
 20
0
 30
0
  0
VERTEX
  8
LAYER_6
 10
176.8774
 20
-148.0703
  0
VERTEX
  8
LAYER_6
 10
178.3774
 20
-148.3203
  0
SEQEND
  0
POLYLINE
  8
LAYER_6
 40
0.0353
 41
0.0353
 66
1
 10
0
 20
0
 30
0
  0
VERTEX
  8
LAYER_6
 10
176.8774
 20
-148.3203
  0
VERTEX
  8
LAYER_6
 10
178.3774
 20
-148.3203
  0
VERTEX
  8
LAYER_6
 10
176.8774
 20
-148.5703
  0
SEQEND
  0
ENDBLK
  0
BLOCK
  8
LAYER_6
  2
AIGNBL06020012
 70
64
 10
0
 20
0
 30
0
  3
AIGNBL06020012
  0
POLYLINE
  8
LAYER_6
 40
0.7056
 41
0.7056
 66
1
 10
0
 20
0
 30
0
  0
VERTEX
  8
LAYER_6
 10
166.3774
 20
-155.7213
  0
SEQEND
  0
ENDBLK
  0
BLOCK
  8
LAYER_6
  2
AIGNBL06020013
 70
64
 10
0
 20
0
 30
0
  3
AIGNBL06020013
  0
POLYLINE
  8
LAYER_6
 40
0.7056
 41
0.7056
 66
1
 10
0
 20
0
 30
0
  0
VERTEX
  8
LAYER_6
 10
178.3774
 20
-159.07
  0
SEQEND
  0
ENDBLK
  0
BLOCK
  8
LAYER_6
  2
AIGNBL06020014
 70
64
 10
0
 20
0
 30
0
  3
AIGNBL06020014
  0
POLYLINE
  8
LAYER_6
 40
0.7056
 41
0.7056
 66
1
 10
0
 20
0
 30
0
  0
VERTEX
  8
LAYER_6
 10
178.3774
 20
-148.3203
  0
SEQEND
  0
ENDBLK
  0
BLOCK
  8
LAYER_6
  2
AIGNBL06020016
 70
64
 10
0
 20
0
 30
0
  3
AIGNBL06020016
  0
POLYLINE
  8
LAYER_6
 40
0.0353
 41
0.0353
 66
1
 10
0
 20
0
 30
0
  0
VERTEX
  8
LAYER_6
 10
164.8774
 20
-190.8067
  0
VERTEX
  8
LAYER_6
 10
166.3774
 20
-191.0567
  0
SEQEND
  0
POLYLINE
  8
LAYER_6
 40
0.0353
 41
0.0353
 66
1
 10
0
 20
0
 30
0
  0
VERTEX
  8
LAYER_6
 10
164.8774
 20
-191.0567
  0
VERTEX
  8
LAYER_6
 10
166.3774
 20
-191.0567
  0
VERTEX
  8
LAYER_6
 10
164.8774
 20
-191.3067
  0
SEQEND
  0
ENDBLK
  0
BLOCK
  8
LAYER_6
  2
AIGNBL06020017
 70
64
 10
0
 20
0
 30
0
  3
AIGNBL06020017
  0
POLYLINE
  8
LAYER_6
 40
0.0353
 41
0.0353
 66
1
 10
0
 20
0
 30
0
  0
VERTEX
  8
LAYER_6
 10
171.5774
 20
-191.3067
  0
VERTEX
  8
LAYER_6
 10
170.0774
 20
-191.0567
  0
SEQEND
  0
POLYLINE
  8
LAYER_6
 40
0.0353
 41
0.0353
 66
1
 10
0
 20
0
 30
0
  0
VERTEX
  8
LAYER_6
 10
171.5774
 20
-191.0567
  0
VERTEX
  8
LAYER_6
 10
170.0774
 20
-191.0567
  0
VERTEX
  8
LAYER_6
 10
171.5774
 20
-190.8067
  0
SEQEND
  0
ENDBLK
  0
BLOCK
  8
LAYER_6
  2
AIGNBL06020018
 70
64
 10
0
 20
0
 30
0
  3
AIGNBL06020018
  0
POLYLINE
  8
LAYER_6
 40
0.7056
 41
0.7056
 66
1
 10
0
 20
0
 30
0
  0
VERTEX
  8
LAYER_6
 10
166.3774
 20
-182.85
  0
SEQEND
  0
ENDBLK
  0
BLOCK
  8
LAYER_6
  2
AIGNBL06020019
 70
64
 10
0
 20
0
 30
0
  3
AIGNBL06020019
  0
POLYLINE
  8
LAYER_6
 40
0.7056
 41
0.7056
 66
1
 10
0
 20
0
 30
0
  0
VERTEX
  8
LAYER_6
 10
170.0774
 20
-176.85
  0
SEQEND
  0
ENDBLK
  0
BLOCK
  8
LAYER_6
  2
AIGNBL0602001A
 70
64
 10
0
 20
0
 30
0
  3
AIGNBL0602001A
  0
POLYLINE
  8
LAYER_6
 40
0.7056
 41
0.7056
 66
1
 10
0
 20
0
 30
0
  0
VERTEX
  8
LAYER_6
 10
170.0774
 20
-191.0567
  0
SEQEND
  0
ENDBLK
  0
BLOCK
  8
LAYER_6
  2
AIGNBL0602001C
 70
64
 10
0
 20
0
 30
0
  3
AIGNBL0602001C
  0
POLYLINE
  8
LAYER_6
 40
0.0353
 41
0.0353
 66
1
 10
0
 20
0
 30
0
  0
VERTEX
  8
LAYER_6
 10
158.545
 20
-182.6158
  0
VERTEX
  8
LAYER_6
 10
158.295
 20
-184.1158
  0
SEQEND
  0
POLYLINE
  8
LAYER_6
 40
0.0353
 41
0.0353
 66
1
 10
0
 20
0
 30
0
  0
VERTEX
  8
LAYER_6
 10
158.295
 20
-182.6158
  0
VERTEX
  8
LAYER_6
 10
158.295
 20
-184.1158
  0
VERTEX
  8
LAYER_6
 10
158.045
 20
-182.6158
  0
SEQEND
  0
ENDBLK
  0
BLOCK
  8
LAYER_6
  2
AIGNBL0602001D
 70
64
 10
0
 20
0
 30
0
  3
AIGNBL0602001D
  0
POLYLINE
  8
LAYER_6
 40
0.0353
 41
0.0353
 66
1
 10
0
 20
0
 30
0
  0
VERTEX
  8
LAYER_6
 10
158.045
 20
-158.2158
  0
VERTEX
  8
LAYER_6
 10
158.295
 20
-156.7158
  0
SEQEND
  0
POLYLINE
  8
LAYER_6
 40
0.0353
 41
0.0353
 66
1
 10
0
 20
0
 30
0
  0
VERTEX
  8
LAYER_6
 10
158.295
 20
-158.2158
  0
VERTEX
  8
LAYER_6
 10
158.295
 20
-156.7158
  0
VERTEX
  8
LAYER_6
 10
158.545
 20
-158.2158
  0
SEQEND
  0
ENDBLK
  0
BLOCK
  8
LAYER_6
  2
AIGNBL0602001E
 70
64
 10
0
 20
0
 30
0
  3
AIGNBL0602001E
  0
POLYLINE
  8
LAYER_6
 40
0.7056
 41
0.7056
 66
1
 10
0
 20
0
 30
0
  0
VERTEX
  8
LAYER_6
 10
167.9085
 20
-184.1158
  0
SEQEND
  0
ENDBLK
  0
BLOCK
  8
LAYER_6
  2
AIGNBL0602001F
 70
64
 10
0
 20
0
 30
0
  3
AIGNBL0602001F
  0
POLYLINE
  8
LAYER_6
 40
0.7056
 41
0.7056
 66
1
 10
0
 20
0
 30
0
  0
VERTEX
  8
LAYER_6
 10
164.5252
 20
-156.7158
  0
SEQEND
  0
ENDBLK
  0
BLOCK
  8
LAYER_6
  2
AIGNBL06020020
 70
64
 10
0
 20
0
 30
0
  3
AIGNBL06020020
  0
POLYLINE
  8
LAYER_6
 40
0.7056
 41
0.7056
 66
1
 10
0
 20
0
 30
0
  0
VERTEX
  8
LAYER_6
 10
158.295
 20
-156.7158
  0
SEQEND
  0
ENDBLK
  0
BLOCK
  8
LAYER_6
  2
AIGNBL06020022
 70
64
 10
0
 20
0
 30
0
  3
AIGNBL06020022
  0
POLYLINE
  8
LAYER_6
 40
0.0353
 41
0.0353
 66
1
 10
0
 20
0
 30
0
  0
VERTEX
  8
LAYER_6
 10
83.7882
 20
-99.619
  0
VERTEX
  8
LAYER_6
 10
82.2882
 20
-99.369
  0
SEQEND
  0
POLYLINE
  8
LAYER_6
 40
0.0353
 41
0.0353
 66
1
 10
0
 20
0
 30
0
  0
VERTEX
  8
LAYER_6
 10
83.7882
 20
-99.369
  0
VERTEX
  8
LAYER_6
 10
82.2882
 20
-99.369
  0
VERTEX
  8
LAYER_6
 10
83.7882
 20
-99.119
  0
SEQEND
  0
ENDBLK
  0
BLOCK
  8
LAYER_6
  2
AIGNBL06020023
 70
64
 10
0
 20
0
 30
0
  3
AIGNBL06020023
  0
POLYLINE
  8
LAYER_6
 40
0.0353
 41
0.0353
 66
1
 10
0
 20
0
 30
0
  0
VERTEX
  8
LAYER_6
 10
88.5882
 20
-99.119
  0
VERTEX
  8
LAYER_6
 10
90.0882
 20
-99.369
  0
SEQEND
  0
POLYLINE
  8
LAYER_6
 40
0.0353
 41
0.0353
 66
1
 10
0
 20
0
 30
0
  0
VERTEX
  8
LAYER_6
 10
88.5882
 20
-99.369
  0
VERTEX
  8
LAYER_6
 10
90.0882
 20
-99.369
  0
VERTEX
  8
LAYER_6
 10
88.5882
 20
-99.619
  0
SEQEND
  0
ENDBLK
  0
BLOCK
  8
LAYER_6
  2
AIGNBL06020024
 70
64
 10
0
 20
0
 30
0
  3
AIGNBL06020024
  0
POLYLINE
  8
LAYER_6
 40
0.7056
 41
0.7056
 66
1
 10
0
 20
0
 30
0
  0
VERTEX
  8
LAYER_6
 10
82.2882
 20
-100.1123
  0
SEQEND
  0
ENDBLK
  0
BLOCK
  8
LAYER_6
  2
AIGNBL06020025
 70
64
 10
0
 20
0
 30
0
  3
AIGNBL06020025
  0
POLYLINE
  8
LAYER_6
 40
0.7056
 41
0.7056
 66
1
 10
0
 20
0
 30
0
  0
VERTEX
  8
LAYER_6
 10
90.0882
 20
-100.1123
  0
SEQEND
  0
ENDBLK
  0
BLOCK
  8
LAYER_6
  2
AIGNBL06020026
 70
64
 10
0
 20
0
 30
0
  3
AIGNBL06020026
  0
POLYLINE
  8
LAYER_6
 40
0.7056
 41
0.7056
 66
1
 10
0
 20
0
 30
0
  0
VERTEX
  8
LAYER_6
 10
90.0882
 20
-99.369
  0
SEQEND
  0
ENDBLK
  0
BLOCK
  8
LAYER_6
  2
AIGNBL06020028
 70
64
 10
0
 20
0
 30
0
  3
AIGNBL06020028
  0
POLYLINE
  8
LAYER_6
 40
0.0353
 41
0.0353
 66
1
 10
0
 20
0
 30
0
  0
VERTEX
  8
LAYER_6
 10
85.1482
 20
-94.7935
  0
VERTEX
  8
LAYER_6
 10
83.6482
 20
-94.5435
  0
SEQEND
  0
POLYLINE
  8
LAYER_6
 40
0.0353
 41
0.0353
 66
1
 10
0
 20
0
 30
0
  0
VERTEX
  8
LAYER_6
 10
85.1482
 20
-94.5435
  0
VERTEX
  8
LAYER_6
 10
83.6482
 20
-94.5435
  0
VERTEX
  8
LAYER_6
 10
85.1482
 20
-94.2935
  0
SEQEND
  0
ENDBLK
  0
BLOCK
  8
LAYER_6
  2
AIGNBL06020029
 70
64
 10
0
 20
0
 30
0
  3
AIGNBL06020029
  0
POLYLINE
  8
LAYER_6
 40
0.0353
 41
0.0353
 66
1
 10
0
 20
0
 30
0
  0
VERTEX
  8
LAYER_6
 10
87.2282
 20
-94.2935
  0
VERTEX
  8
LAYER_6
 10
88.7282
 20
-94.5435
  0
SEQEND
  0
POLYLINE
  8
LAYER_6
 40
0.0353
 41
0.0353
 66
1
 10
0
 20
0
 30
0
  0
VERTEX
  8
LAYER_6
 10
87.2282
 20
-94.5435
  0
VERTEX
  8
LAYER_6
 10
88.7282
 20
-94.5435
  0
VERTEX
  8
LAYER_6
 10
87.2282
 20
-94.7935
  0
SEQEND
  0
ENDBLK
  0
BLOCK
  8
LAYER_6
  2
AIGNBL0602002A
 70
64
 10
0
 20
0
 30
0
  3
AIGNBL0602002A
  0
POLYLINE
  8
LAYER_6
 40
0.7056
 41
0.7056
 66
1
 10
0
 20
0
 30
0
  0
VERTEX
  8
LAYER_6
 10
83.6482
 20
-97.5123
  0
SEQEND
  0
ENDBLK
  0
BLOCK
  8
LAYER_6
  2
AIGNBL0602002B
 70
64
 10
0
 20
0
 30
0
  3
AIGNBL0602002B
  0
POLYLINE
  8
LAYER_6
 40
0.7056
 41
0.7056
 66
1
 10
0
 20
0
 30
0
  0
VERTEX
  8
LAYER_6
 10
88.7282
 20
-97.5123
  0
SEQEND
  0
ENDBLK
  0
BLOCK
  8
LAYER_6
  2
AIGNBL0602002C
 70
64
 10
0
 20
0
 30
0
  3
AIGNBL0602002C
  0
POLYLINE
  8
LAYER_6
 40
0.7056
 41
0.7056
 66
1
 10
0
 20
0
 30
0
  0
VERTEX
  8
LAYER_6
 10
88.7282
 20
-94.5435
  0
SEQEND
  0
ENDBLK
  0
BLOCK
  8
LAYER_6
  2
AIGNBL0602002E
 70
64
 10
0
 20
0
 30
0
  3
AIGNBL0602002E
  0
POLYLINE
  8
LAYER_6
 40
0.0353
 41
0.0353
 66
1
 10
0
 20
0
 30
0
  0
VERTEX
  8
LAYER_6
 10
77.6659
 20
-80.9253
  0
VERTEX
  8
LAYER_6
 10
77.9159
 20
-79.4253
  0
SEQEND
  0
POLYLINE
  8
LAYER_6
 40
0.0353
 41
0.0353
 66
1
 10
0
 20
0
 30
0
  0
VERTEX
  8
LAYER_6
 10
77.9159
 20
-80.9253
  0
VERTEX
  8
LAYER_6
 10
77.9159
 20
-79.4253
  0
VERTEX
  8
LAYER_6
 10
78.1659
 20
-80.9253
  0
SEQEND
  0
ENDBLK
  0
BLOCK
  8
LAYER_6
  2
AIGNBL0602002F
 70
64
 10
0
 20
0
 30
0
  3
AIGNBL0602002F
  0
POLYLINE
  8
LAYER_6
 40
0.0353
 41
0.0353
 66
1
 10
0
 20
0
 30
0
  0
VERTEX
  8
LAYER_6
 10
78.1659
 20
-98.6723
  0
VERTEX
  8
LAYER_6
 10
77.9159
 20
-100.1723
  0
SEQEND
  0
POLYLINE
  8
LAYER_6
 40
0.0353
 41
0.0353
 66
1
 10
0
 20
0
 30
0
  0
VERTEX
  8
LAYER_6
 10
77.9159
 20
-98.6723
  0
VERTEX
  8
LAYER_6
 10
77.9159
 20
-100.1723
  0
VERTEX
  8
LAYER_6
 10
77.6659
 20
-98.6723
  0
SEQEND
  0
ENDBLK
  0
BLOCK
  8
LAYER_6
  2
AIGNBL06020030
 70
64
 10
0
 20
0
 30
0
  3
AIGNBL06020030
  0
POLYLINE
  8
LAYER_6
 40
0.7056
 41
0.7056
 66
1
 10
0
 20
0
 30
0
  0
VERTEX
  8
LAYER_6
 10
86.1882
 20
-79.4253
  0
SEQEND
  0
ENDBLK
  0
BLOCK
  8
LAYER_6
  2
AIGNBL06020031
 70
64
 10
0
 20
0
 30
0
  3
AIGNBL06020031
  0
POLYLINE
  8
LAYER_6
 40
0.7056
 41
0.7056
 66
1
 10
0
 20
0
 30
0
  0
VERTEX
  8
LAYER_6
 10
86.1882
 20
-100.1723
  0
SEQEND
  0
ENDBLK
  0
BLOCK
  8
LAYER_6
  2
AIGNBL06020032
 70
64
 10
0
 20
0
 30
0
  3
AIGNBL06020032
  0
POLYLINE
  8
LAYER_6
 40
0.7056
 41
0.7056
 66
1
 10
0
 20
0
 30
0
  0
VERTEX
  8
LAYER_6
 10
77.9159
 20
-100.1723
  0
SEQEND
  0
ENDBLK
  0
BLOCK
  8
LAYER_6
  2
AIGNBL06020034
 70
64
 10
0
 20
0
 30
0
  3
AIGNBL06020034
  0
POLYLINE
  8
LAYER_6
 40
0.0353
 41
0.0353
 66
1
 10
0
 20
0
 30
0
  0
VERTEX
  8
LAYER_6
 10
81.1882
 20
-149.6554
  0
VERTEX
  8
LAYER_6
 10
79.6882
 20
-149.4054
  0
SEQEND
  0
POLYLINE
  8
LAYER_6
 40
0.0353
 41
0.0353
 66
1
 10
0
 20
0
 30
0
  0
VERTEX
  8
LAYER_6
 10
81.1882
 20
-149.4054
  0
VERTEX
  8
LAYER_6
 10
79.6882
 20
-149.4054
  0
VERTEX
  8
LAYER_6
 10
81.1882
 20
-149.1554
  0
SEQEND
  0
ENDBLK
  0
BLOCK
  8
LAYER_6
  2
AIGNBL06020035
 70
64
 10
0
 20
0
 30
0
  3
AIGNBL06020035
  0
POLYLINE
  8
LAYER_6
 40
0.0353
 41
0.0353
 66
1
 10
0
 20
0
 30
0
  0
VERTEX
  8
LAYER_6
 10
91.1882
 20
-149.1554
  0
VERTEX
  8
LAYER_6
 10
92.6882
 20
-149.4054
  0
SEQEND
  0
POLYLINE
  8
LAYER_6
 40
0.0353
 41
0.0353
 66
1
 10
0
 20
0
 30
0
  0
VERTEX
  8
LAYER_6
 10
91.1882
 20
-149.4054
  0
VERTEX
  8
LAYER_6
 10
92.6882
 20
-149.4054
  0
VERTEX
  8
LAYER_6
 10
91.1882
 20
-149.6554
  0
SEQEND
  0
ENDBLK
  0
BLOCK
  8
LAYER_6
  2
AIGNBL06020036
 70
64
 10
0
 20
0
 30
0
  3
AIGNBL06020036
  0
POLYLINE
  8
LAYER_6
 40
0.7056
 41
0.7056
 66
1
 10
0
 20
0
 30
0
  0
VERTEX
  8
LAYER_6
 10
79.6882
 20
-159.07
  0
SEQEND
  0
ENDBLK
  0
BLOCK
  8
LAYER_6
  2
AIGNBL06020037
 70
64
 10
0
 20
0
 30
0
  3
AIGNBL06020037
  0
POLYLINE
  8
LAYER_6
 40
0.7056
 41
0.7056
 66
1
 10
0
 20
0
 30
0
  0
VERTEX
  8
LAYER_6
 10
92.6882
 20
-159.07
  0
SEQEND
  0
ENDBLK
  0
BLOCK
  8
LAYER_6
  2
AIGNBL06020038
 70
64
 10
0
 20
0
 30
0
  3
AIGNBL06020038
  0
POLYLINE
  8
LAYER_6
 40
0.7056
 41
0.7056
 66
1
 10
0
 20
0
 30
0
  0
VERTEX
  8
LAYER_6
 10
92.6882
 20
-149.4054
  0
SEQEND
  0
ENDBLK
  0
BLOCK
  8
LAYER_6
  2
AIGNBL0602003A
 70
64
 10
0
 20
0
 30
0
  3
AIGNBL0602003A
  0
POLYLINE
  8
LAYER_6
 40
0.0353
 41
0.0353
 66
1
 10
0
 20
0
 30
0
  0
VERTEX
  8
LAYER_6
 10
74.9272
 20
-160.0709
  0
VERTEX
  8
LAYER_6
 10
75.1772
 20
-158.5709
  0
SEQEND
  0
POLYLINE
  8
LAYER_6
 40
0.0353
 41
0.0353
 66
1
 10
0
 20
0
 30
0
  0
VERTEX
  8
LAYER_6
 10
75.1772
 20
-160.0709
  0
VERTEX
  8
LAYER_6
 10
75.1772
 20
-158.5709
  0
VERTEX
  8
LAYER_6
 10
75.4272
 20
-160.0709
  0
SEQEND
  0
ENDBLK
  0
BLOCK
  8
LAYER_6
  2
AIGNBL0602003B
 70
64
 10
0
 20
0
 30
0
  3
AIGNBL0602003B
  0
POLYLINE
  8
LAYER_6
 40
0.0353
 41
0.0353
 66
1
 10
0
 20
0
 30
0
  0
VERTEX
  8
LAYER_6
 10
75.4272
 20
-175.37
  0
VERTEX
  8
LAYER_6
 10
75.1772
 20
-176.87
  0
SEQEND
  0
POLYLINE
  8
LAYER_6
 40
0.0353
 41
0.0353
 66
1
 10
0
 20
0
 30
0
  0
VERTEX
  8
LAYER_6
 10
75.1772
 20
-175.37
  0
VERTEX
  8
LAYER_6
 10
75.1772
 20
-176.87
  0
VERTEX
  8
LAYER_6
 10
74.9272
 20
-175.37
  0
SEQEND
  0
ENDBLK
  0
BLOCK
  8
LAYER_6
  2
AIGNBL0602003C
 70
64
 10
0
 20
0
 30
0
  3
AIGNBL0602003C
  0
POLYLINE
  8
LAYER_6
 40
0.7056
 41
0.7056
 66
1
 10
0
 20
0
 30
0
  0
VERTEX
  8
LAYER_6
 10
80.1882
 20
-158.5709
  0
SEQEND
  0
ENDBLK
  0
BLOCK
  8
LAYER_6
  2
AIGNBL0602003D
 70
64
 10
0
 20
0
 30
0
  3
AIGNBL0602003D
  0
POLYLINE
  8
LAYER_6
 40
0.7056
 41
0.7056
 66
1
 10
0
 20
0
 30
0
  0
VERTEX
  8
LAYER_6
 10
80.7882
 20
-176.87
  0
SEQEND
  0
ENDBLK
  0
BLOCK
  8
LAYER_6
  2
AIGNBL0602003E
 70
64
 10
0
 20
0
 30
0
  3
AIGNBL0602003E
  0
POLYLINE
  8
LAYER_6
 40
0.7056
 41
0.7056
 66
1
 10
0
 20
0
 30
0
  0
VERTEX
  8
LAYER_6
 10
75.1772
 20
-176.87
  0
SEQEND
  0
ENDBLK
  0
BLOCK
  8
LAYER_6
  2
AIGNBL06020040
 70
64
 10
0
 20
0
 30
0
  3
AIGNBL06020040
  0
POLYLINE
  8
LAYER_6
 40
0.0353
 41
0.0353
 66
1
 10
0
 20
0
 30
0
  0
VERTEX
  8
LAYER_6
 10
68.4273
 20
-175.37
  0
VERTEX
  8
LAYER_6
 10
68.1773
 20
-176.87
  0
SEQEND
  0
POLYLINE
  8
LAYER_6
 40
0.0353
 41
0.0353
 66
1
 10
0
 20
0
 30
0
  0
VERTEX
  8
LAYER_6
 10
68.1773
 20
-175.37
  0
VERTEX
  8
LAYER_6
 10
68.1773
 20
-176.87
  0
VERTEX
  8
LAYER_6
 10
67.9273
 20
-175.37
  0
SEQEND
  0
ENDBLK
  0
BLOCK
  8
LAYER_6
  2
AIGNBL06020041
 70
64
 10
0
 20
0
 30
0
  3
AIGNBL06020041
  0
POLYLINE
  8
LAYER_6
 40
0.0353
 41
0.0353
 66
1
 10
0
 20
0
 30
0
  0
VERTEX
  8
LAYER_6
 10
67.9273
 20
-158.17
  0
VERTEX
  8
LAYER_6
 10
68.1773
 20
-156.67
  0
SEQEND
  0
POLYLINE
  8
LAYER_6
 40
0.0353
 41
0.0353
 66
1
 10
0
 20
0
 30
0
  0
VERTEX
  8
LAYER_6
 10
68.1773
 20
-158.17
  0
VERTEX
  8
LAYER_6
 10
68.1773
 20
-156.67
  0
VERTEX
  8
LAYER_6
 10
68.4273
 20
-158.17
  0
SEQEND
  0
ENDBLK
  0
BLOCK
  8
LAYER_6
  2
AIGNBL06020042
 70
64
 10
0
 20
0
 30
0
  3
AIGNBL06020042
  0
POLYLINE
  8
LAYER_6
 40
0.7056
 41
0.7056
 66
1
 10
0
 20
0
 30
0
  0
VERTEX
  8
LAYER_6
 10
80.7882
 20
-176.87
  0
SEQEND
  0
ENDBLK
  0
BLOCK
  8
LAYER_6
  2
AIGNBL06020043
 70
64
 10
0
 20
0
 30
0
  3
AIGNBL06020043
  0
POLYLINE
  8
LAYER_6
 40
0.7056
 41
0.7056
 66
1
 10
0
 20
0
 30
0
  0
VERTEX
  8
LAYER_6
 10
83.9883
 20
-156.67
  0
SEQEND
  0
ENDBLK
  0
BLOCK
  8
LAYER_6
  2
AIGNBL06020044
 70
64
 10
0
 20
0
 30
0
  3
AIGNBL06020044
  0
POLYLINE
  8
LAYER_6
 40
0.7056
 41
0.7056
 66
1
 10
0
 20
0
 30
0
  0
VERTEX
  8
LAYER_6
 10
68.1773
 20
-156.67
  0
SEQEND
  0
ENDBLK
  0
BLOCK
  8
LAYER_6
  2
AIGNBL06020046
 70
64
 10
0
 20
0
 30
0
  3
AIGNBL06020046
  0
POLYLINE
  8
LAYER_6
 40
0.0353
 41
0.0353
 66
1
 10
0
 20
0
 30
0
  0
VERTEX
  8
LAYER_6
 10
147.8947
 20
-70.3248
  0
VERTEX
  8
LAYER_6
 10
146.3947
 20
-70.0748
  0
SEQEND
  0
POLYLINE
  8
LAYER_6
 40
0.0353
 41
0.0353
 66
1
 10
0
 20
0
 30
0
  0
VERTEX
  8
LAYER_6
 10
147.8947
 20
-70.0748
  0
VERTEX
  8
LAYER_6
 10
146.3947
 20
-70.0748
  0
VERTEX
  8
LAYER_6
 10
147.8947
 20
-69.8248
  0
SEQEND
  0
ENDBLK
  0
BLOCK
  8
LAYER_6
  2
AIGNBL06020047
 70
64
 10
0
 20
0
 30
0
  3
AIGNBL06020047
  0
POLYLINE
  8
LAYER_6
 40
0.0353
 41
0.0353
 66
1
 10
0
 20
0
 30
0
  0
VERTEX
  8
LAYER_6
 10
165.4074
 20
-69.8248
  0
VERTEX
  8
LAYER_6
 10
166.9074
 20
-70.0748
  0
SEQEND
  0
POLYLINE
  8
LAYER_6
 40
0.0353
 41
0.0353
 66
1
 10
0
 20
0
 30
0
  0
VERTEX
  8
LAYER_6
 10
165.4074
 20
-70.0748
  0
VERTEX
  8
LAYER_6
 10
166.9074
 20
-70.0748
  0
VERTEX
  8
LAYER_6
 10
165.4074
 20
-70.3248
  0
SEQEND
  0
ENDBLK
  0
BLOCK
  8
LAYER_6
  2
AIGNBL06020048
 70
64
 10
0
 20
0
 30
0
  3
AIGNBL06020048
  0
POLYLINE
  8
LAYER_6
 40
0.7056
 41
0.7056
 66
1
 10
0
 20
0
 30
0
  0
VERTEX
  8
LAYER_6
 10
146.3947
 20
-89.852
  0
SEQEND
  0
ENDBLK
  0
BLOCK
  8
LAYER_6
  2
AIGNBL06020049
 70
64
 10
0
 20
0
 30
0
  3
AIGNBL06020049
  0
POLYLINE
  8
LAYER_6
 40
0.7056
 41
0.7056
 66
1
 10
0
 20
0
 30
0
  0
VERTEX
  8
LAYER_6
 10
166.9074
 20
-100.1723
  0
SEQEND
  0
ENDBLK
  0
BLOCK
  8
LAYER_6
  2
AIGNBL0602004A
 70
64
 10
0
 20
0
 30
0
  3
AIGNBL0602004A
  0
POLYLINE
  8
LAYER_6
 40
0.7056
 41
0.7056
 66
1
 10
0
 20
0
 30
0
  0
VERTEX
  8
LAYER_6
 10
166.9074
 20
-70.0748
  0
SEQEND
  0
ENDBLK
  0
BLOCK
  8
LAYER_6
  2
AIGNBL0602004C
 70
64
 10
0
 20
0
 30
0
  3
AIGNBL0602004C
  0
POLYLINE
  8
LAYER_6
 40
0.0353
 41
0.0353
 66
1
 10
0
 20
0
 30
0
  0
VERTEX
  8
LAYER_6
 10
155.9788
 20
-101.6723
  0
VERTEX
  8
LAYER_6
 10
156.2288
 20
-100.1723
  0
SEQEND
  0
POLYLINE
  8
LAYER_6
 40
0.0353
 41
0.0353
 66
1
 10
0
 20
0
 30
0
  0
VERTEX
  8
LAYER_6
 10
156.2288
 20
-101.6723
  0
VERTEX
  8
LAYER_6
 10
156.2288
 20
-100.1723
  0
VERTEX
  8
LAYER_6
 10
156.4788
 20
-101.6723
  0
SEQEND
  0
ENDBLK
  0
BLOCK
  8
LAYER_6
  2
AIGNBL0602004D
 70
64
 10
0
 20
0
 30
0
  3
AIGNBL0602004D
  0
POLYLINE
  8
LAYER_6
 40
0.0353
 41
0.0353
 66
1
 10
0
 20
0
 30
0
  0
VERTEX
  8
LAYER_6
 10
156.4788
 20
-103.9723
  0
VERTEX
  8
LAYER_6
 10
156.2288
 20
-105.4723
  0
SEQEND
  0
POLYLINE
  8
LAYER_6
 40
0.0353
 41
0.0353
 66
1
 10
0
 20
0
 30
0
  0
VERTEX
  8
LAYER_6
 10
156.2288
 20
-103.9723
  0
VERTEX
  8
LAYER_6
 10
156.2288
 20
-105.4723
  0
VERTEX
  8
LAYER_6
 10
155.9788
 20
-103.9723
  0
SEQEND
  0
ENDBLK
  0
BLOCK
  8
LAYER_6
  2
AIGNBL0602004E
 70
64
 10
0
 20
0
 30
0
  3
AIGNBL0602004E
  0
POLYLINE
  8
LAYER_6
 40
0.7056
 41
0.7056
 66
1
 10
0
 20
0
 30
0
  0
VERTEX
  8
LAYER_6
 10
166.9074
 20
-100.1723
  0
SEQEND
  0
ENDBLK
  0
BLOCK
  8
LAYER_6
  2
AIGNBL0602004F
 70
64
 10
0
 20
0
 30
0
  3
AIGNBL0602004F
  0
POLYLINE
  8
LAYER_6
 40
0.7056
 41
0.7056
 66
1
 10
0
 20
0
 30
0
  0
VERTEX
  8
LAYER_6
 10
166.9074
 20
-105.4723
  0
SEQEND
  0
ENDBLK
  0
BLOCK
  8
LAYER_6
  2
AIGNBL06020050
 70
64
 10
0
 20
0
 30
0
  3
AIGNBL06020050
  0
POLYLINE
  8
LAYER_6
 40
0.7056
 41
0.7056
 66
1
 10
0
 20
0
 30
0
  0
VERTEX
  8
LAYER_6
 10
156.2288
 20
-105.4723
  0
SEQEND
  0
ENDBLK
  0
BLOCK
  8
LAYER_6
  2
AIGNBL06020052
 70
64
 10
0
 20
0
 30
0
  3
AIGNBL06020052
  0
POLYLINE
  8
LAYER_6
 40
0.0353
 41
0.0353
 66
1
 10
0
 20
0
 30
0
  0
VERTEX
  8
LAYER_6
 10
139.2549
 20
-101.6723
  0
VERTEX
  8
LAYER_6
 10
139.5049
 20
-100.1723
  0
SEQEND
  0
POLYLINE
  8
LAYER_6
 40
0.0353
 41
0.0353
 66
1
 10
0
 20
0
 30
0
  0
VERTEX
  8
LAYER_6
 10
139.5049
 20
-101.6723
  0
VERTEX
  8
LAYER_6
 10
139.5049
 20
-100.1723
  0
VERTEX
  8
LAYER_6
 10
139.7549
 20
-101.6723
  0
SEQEND
  0
ENDBLK
  0
BLOCK
  8
LAYER_6
  2
AIGNBL06020053
 70
64
 10
0
 20
0
 30
0
  3
AIGNBL06020053
  0
POLYLINE
  8
LAYER_6
 40
0.0353
 41
0.0353
 66
1
 10
0
 20
0
 30
0
  0
VERTEX
  8
LAYER_6
 10
139.7549
 20
-107.7723
  0
VERTEX
  8
LAYER_6
 10
139.5049
 20
-109.2723
  0
SEQEND
  0
POLYLINE
  8
LAYER_6
 40
0.0353
 41
0.0353
 66
1
 10
0
 20
0
 30
0
  0
VERTEX
  8
LAYER_6
 10
139.5049
 20
-107.7723
  0
VERTEX
  8
LAYER_6
 10
139.5049
 20
-109.2723
  0
VERTEX
  8
LAYER_6
 10
139.2549
 20
-107.7723
  0
SEQEND
  0
ENDBLK
  0
BLOCK
  8
LAYER_6
  2
AIGNBL06020054
 70
64
 10
0
 20
0
 30
0
  3
AIGNBL06020054
  0
POLYLINE
  8
LAYER_6
 40
0.7056
 41
0.7056
 66
1
 10
0
 20
0
 30
0
  0
VERTEX
  8
LAYER_6
 10
166.9074
 20
-109.2723
  0
SEQEND
  0
ENDBLK
  0
BLOCK
  8
LAYER_6
  2
AIGNBL06020055
 70
64
 10
0
 20
0
 30
0
  3
AIGNBL06020055
  0
POLYLINE
  8
LAYER_6
 40
0.7056
 41
0.7056
 66
1
 10
0
 20
0
 30
0
  0
VERTEX
  8
LAYER_6
 10
166.9074
 20
-100.1723
  0
SEQEND
  0
ENDBLK
  0
BLOCK
  8
LAYER_6
  2
AIGNBL06020056
 70
64
 10
0
 20
0
 30
0
  3
AIGNBL06020056
  0
POLYLINE
  8
LAYER_6
 40
0.7056
 41
0.7056
 66
1
 10
0
 20
0
 30
0
  0
VERTEX
  8
LAYER_6
 10
139.5049
 20
-100.1723
  0
SEQEND
  0
ENDBLK
  0
BLOCK
  8
LAYER_6
  2
AIGNBL06020058
 70
64
 10
0
 20
0
 30
0
  3
AIGNBL06020058
  0
POLYLINE
  8
LAYER_6
 40
0.0353
 41
0.0353
 66
1
 10
0
 20
0
 30
0
  0
VERTEX
  8
LAYER_6
 10
146.9784
 20
-97.1452
  0
VERTEX
  8
LAYER_6
 10
145.7854
 20
-96.2022
  0
SEQEND
  0
POLYLINE
  8
LAYER_6
 40
0.0353
 41
0.0353
 66
1
 10
0
 20
0
 30
0
  0
VERTEX
  8
LAYER_6
 10
147.0991
 20
-96.9262
  0
VERTEX
  8
LAYER_6
 10
145.7854
 20
-96.2022
  0
VERTEX
  8
LAYER_6
 10
147.2198
 20
-96.7073
  0
SEQEND
  0
ENDBLK
  0
BLOCK
  8
LAYER_6
  2
AIGNBL06020059
 70
64
 10
0
 20
0
 30
0
  3
AIGNBL06020059
  0
POLYLINE
  8
LAYER_6
 40
0.0353
 41
0.0353
 66
1
 10
0
 20
0
 30
0
  0
VERTEX
  8
LAYER_6
 10
147.5244
 20
-96.8092
  0
VERTEX
  8
LAYER_6
 10
148.9739
 20
-97.2691
  0
SEQEND
  0
POLYLINE
  8
LAYER_6
 40
0.0353
 41
0.0353
 66
1
 10
0
 20
0
 30
0
  0
VERTEX
  8
LAYER_6
 10
147.489
 20
-97.0567
  0
VERTEX
  8
LAYER_6
 10
148.9739
 20
-97.2691
  0
VERTEX
  8
LAYER_6
 10
147.4536
 20
-97.3042
  0
SEQEND
  0
ENDBLK
  0
BLOCK
  8
LAYER_6
  2
AIGNBL0602005A
 70
64
 10
0
 20
0
 30
0
  3
AIGNBL0602005A
  0
POLYLINE
  8
LAYER_6
 40
0.7056
 41
0.7056
 66
1
 10
0
 20
0
 30
0
  0
VERTEX
  8
LAYER_6
 10
146.7628
 20
-96.7856
  0
SEQEND
  0
ENDBLK
  0
BLOCK
  8
LAYER_6
  2
AIGNBL0602005B
 70
64
 10
0
 20
0
 30
0
  3
AIGNBL0602005B
  0
POLYLINE
  8
LAYER_6
 40
0.7056
 41
0.7056
 66
1
 10
0
 20
0
 30
0
  0
VERTEX
  8
LAYER_6
 10
148.4814
 20
-92.6245
  0
SEQEND
  0
ENDBLK
  0
BLOCK
  8
LAYER_6
  2
AIGNBL0602005C
 70
64
 10
0
 20
0
 30
0
  3
AIGNBL0602005C
  0
POLYLINE
  8
LAYER_6
 40
0.7056
 41
0.7056
 66
1
 10
0
 20
0
 30
0
  0
VERTEX
  8
LAYER_6
 10
148.9739
 20
-91.9709
  0
SEQEND
  0
ENDBLK
  0
BLOCK
  8
LAYER_6
  2
AIGNBL0602005D
 70
64
 10
0
 20
0
 30
0
  3
AIGNBL0602005D
  0
POLYLINE
  8
LAYER_6
 40
0.7056
 41
0.7056
 66
1
 10
0
 20
0
 30
0
  0
VERTEX
  8
LAYER_6
 10
148.9739
 20
-92.1326
  0
SEQEND
  0
ENDBLK
  0
BLOCK
  8
LAYER_6
  2
AIGNBL0602005E
 70
64
 10
0
 20
0
 30
0
  3
AIGNBL0602005E
  0
POLYLINE
  8
LAYER_6
 40
0.7056
 41
0.7056
 66
1
 10
0
 20
0
 30
0
  0
VERTEX
  8
LAYER_6
 10
149.666
 20
-91.0525
  0
SEQEND
  0
ENDBLK
  0
BLOCK
  8
LAYER_6
  2
AIGNBL06020060
 70
64
 10
0
 20
0
 30
0
  3
AIGNBL06020060
  0
POLYLINE
  8
LAYER_6
 40
0.0353
 41
0.0353
 66
1
 10
0
 20
0
 30
0
  0
VERTEX
  8
LAYER_6
 10
150.4739
 20
-97.7035
  0
VERTEX
  8
LAYER_6
 10
148.9739
 20
-97.4535
  0
SEQEND
  0
POLYLINE
  8
LAYER_6
 40
0.0353
 41
0.0353
 66
1
 10
0
 20
0
 30
0
  0
VERTEX
  8
LAYER_6
 10
150.4739
 20
-97.4535
  0
VERTEX
  8
LAYER_6
 10
148.9739
 20
-97.4535
  0
VERTEX
  8
LAYER_6
 10
150.4739
 20
-97.2035
  0
SEQEND
  0
ENDBLK
  0
BLOCK
  8
LAYER_6
  2
AIGNBL06020061
 70
64
 10
0
 20
0
 30
0
  3
AIGNBL06020061
  0
POLYLINE
  8
LAYER_6
 40
0.0353
 41
0.0353
 66
1
 10
0
 20
0
 30
0
  0
VERTEX
  8
LAYER_6
 10
165.4074
 20
-97.2035
  0
VERTEX
  8
LAYER_6
 10
166.9074
 20
-97.4535
  0
SEQEND
  0
POLYLINE
  8
LAYER_6
 40
0.0353
 41
0.0353
 66
1
 10
0
 20
0
 30
0
  0
VERTEX
  8
LAYER_6
 10
165.4074
 20
-97.4535
  0
VERTEX
  8
LAYER_6
 10
166.9074
 20
-97.4535
  0
VERTEX
  8
LAYER_6
 10
165.4074
 20
-97.7035
  0
SEQEND
  0
ENDBLK
  0
BLOCK
  8
LAYER_6
  2
AIGNBL06020062
 70
64
 10
0
 20
0
 30
0
  3
AIGNBL06020062
  0
POLYLINE
  8
LAYER_6
 40
0.7056
 41
0.7056
 66
1
 10
0
 20
0
 30
0
  0
VERTEX
  8
LAYER_6
 10
148.9739
 20
-91.9709
  0
SEQEND
  0
ENDBLK
  0
BLOCK
  8
LAYER_6
  2
AIGNBL06020063
 70
64
 10
0
 20
0
 30
0
  3
AIGNBL06020063
  0
POLYLINE
  8
LAYER_6
 40
0.7056
 41
0.7056
 66
1
 10
0
 20
0
 30
0
  0
VERTEX
  8
LAYER_6
 10
166.9074
 20
-100.1723
  0
SEQEND
  0
ENDBLK
  0
BLOCK
  8
LAYER_6
  2
AIGNBL06020064
 70
64
 10
0
 20
0
 30
0
  3
AIGNBL06020064
  0
POLYLINE
  8
LAYER_6
 40
0.7056
 41
0.7056
 66
1
 10
0
 20
0
 30
0
  0
VERTEX
  8
LAYER_6
 10
166.9074
 20
-97.4535
  0
SEQEND
  0
ENDBLK
  0
BLOCK
  8
LAYER_6
  2
AIGNBL06020066
 70
64
 10
0
 20
0
 30
0
  3
AIGNBL06020066
  0
POLYLINE
  8
LAYER_6
 40
0.0353
 41
0.0353
 66
1
 10
0
 20
0
 30
0
  0
VERTEX
  8
LAYER_6
 10
142.6279
 20
-93.4709
  0
VERTEX
  8
LAYER_6
 10
142.8779
 20
-91.9709
  0
SEQEND
  0
POLYLINE
  8
LAYER_6
 40
0.0353
 41
0.0353
 66
1
 10
0
 20
0
 30
0
  0
VERTEX
  8
LAYER_6
 10
142.8779
 20
-93.4709
  0
VERTEX
  8
LAYER_6
 10
142.8779
 20
-91.9709
  0
VERTEX
  8
LAYER_6
 10
143.1279
 20
-93.4709
  0
SEQEND
  0
ENDBLK
  0
BLOCK
  8
LAYER_6
  2
AIGNBL06020067
 70
64
 10
0
 20
0
 30
0
  3
AIGNBL06020067
  0
POLYLINE
  8
LAYER_6
 40
0.0353
 41
0.0353
 66
1
 10
0
 20
0
 30
0
  0
VERTEX
  8
LAYER_6
 10
143.1279
 20
-98.6723
  0
VERTEX
  8
LAYER_6
 10
142.8779
 20
-100.1723
  0
SEQEND
  0
POLYLINE
  8
LAYER_6
 40
0.0353
 41
0.0353
 66
1
 10
0
 20
0
 30
0
  0
VERTEX
  8
LAYER_6
 10
142.8779
 20
-98.6723
  0
VERTEX
  8
LAYER_6
 10
142.8779
 20
-100.1723
  0
VERTEX
  8
LAYER_6
 10
142.6279
 20
-98.6723
  0
SEQEND
  0
ENDBLK
  0
BLOCK
  8
LAYER_6
  2
AIGNBL06020068
 70
64
 10
0
 20
0
 30
0
  3
AIGNBL06020068
  0
POLYLINE
  8
LAYER_6
 40
0.7056
 41
0.7056
 66
1
 10
0
 20
0
 30
0
  0
VERTEX
  8
LAYER_6
 10
148.9739
 20
-91.9709
  0
SEQEND
  0
ENDBLK
  0
BLOCK
  8
LAYER_6
  2
AIGNBL06020069
 70
64
 10
0
 20
0
 30
0
  3
AIGNBL06020069
  0
POLYLINE
  8
LAYER_6
 40
0.7056
 41
0.7056
 66
1
 10
0
 20
0
 30
0
  0
VERTEX
  8
LAYER_6
 10
166.9074
 20
-100.1723
  0
SEQEND
  0
ENDBLK
  0
BLOCK
  8
LAYER_6
  2
AIGNBL0602006A
 70
64
 10
0
 20
0
 30
0
  3
AIGNBL0602006A
  0
POLYLINE
  8
LAYER_6
 40
0.7056
 41
0.7056
 66
1
 10
0
 20
0
 30
0
  0
VERTEX
  8
LAYER_6
 10
142.8779
 20
-100.1723
  0
SEQEND
  0
ENDBLK
  0
BLOCK
  8
LAYER_1
  2
AIGNBL01010002
 70
64
 10
0
 20
0
 30
0
  3
AIGNBL01010002
  0
INSERT
  8
LAYER_1
  2
AIGNBL01020003
 10
0
 20
0
 30
0
  0
INSERT
  8
LAYER_1
  2
AIGNBL0102000C
 10
0
 20
0
 30
0
  0
ENDBLK
  0
BLOCK
  8
LAYER_6
  2
AIGNBL06010002
 70
64
 10
0
 20
0
 30
0
  3
AIGNBL06010002
  0
POLYLINE
  8
LAYER_6
 40
0.7056
 41
0.7056
 66
1
 10
0
 20
0
 30
0
 70
1
  0
VERTEX
  8
LAYER_6
 10
33.7873
 20
22.6587
  0
VERTEX
  8
LAYER_6
 10
230.7955
 20
22.6587
  0
VERTEX
  8
LAYER_6
 10
230.7955
 20
-259.334
  0
VERTEX
  8
LAYER_6
 10
33.7873
 20
-259.334
  0
SEQEND
  0
ENDBLK
  0
BLOCK
  8
LAYER_6
  2
AIGNBL06010003
 70
64
 10
0
 20
0
 30
0
  3
AIGNBL06010003
  0
POLYLINE
  8
LAYER_6
 40
0.0353
 41
0.0353
 66
1
 10
0
 20
0
 30
0
  0
VERTEX
  8
LAYER_6
 10
161.5774
 20
-159.2123
  0
VERTEX
  8
LAYER_6
 10
161.5774
 20
-140.626
  0
SEQEND
  0
POLYLINE
  8
LAYER_6
 40
0.0353
 41
0.0353
 66
1
 10
0
 20
0
 30
0
  0
VERTEX
  8
LAYER_6
 10
178.3774
 20
-159.07
  0
VERTEX
  8
LAYER_6
 10
178.3774
 20
-140.626
  0
SEQEND
  0
POLYLINE
  8
LAYER_6
 40
0.0353
 41
0.0353
 66
1
 10
0
 20
0
 30
0
  0
VERTEX
  8
LAYER_6
 10
163.0774
 20
-142.626
  0
VERTEX
  8
LAYER_6
 10
176.8774
 20
-142.626
  0
SEQEND
  0
INSERT
  8
LAYER_6
  2
AIGNBL06020004
 10
0
 20
0
 30
0
  0
INSERT
  8
LAYER_6
  2
AIGNBL06020005
 10
0
 20
0
 30
0
  0
TEXT
  8
LAYER_6
 10
174.6142
 20
-141.4185
 11
174.6142
 21
-141.4185
 40
3.7079
 41
0.5
 72
1
  1
84
  0
INSERT
  8
LAYER_6
  2
AIGNBL06020006
 10
0
 20
0
 30
0
  0
INSERT
  8
LAYER_6
  2
AIGNBL06020007
 10
0
 20
0
 30
0
  0
INSERT
  8
LAYER_6
  2
AIGNBL06020008
 10
0
 20
0
 30
0
  0
ENDBLK
  0
BLOCK
  8
LAYER_6
  2
AIGNBL06010009
 70
64
 10
0
 20
0
 30
0
  3
AIGNBL06010009
  0
POLYLINE
  8
LAYER_6
 40
0.0353
 41
0.0353
 66
1
 10
0
 20
0
 30
0
  0
VERTEX
  8
LAYER_6
 10
166.3774
 20
-155.7213
  0
VERTEX
  8
LAYER_6
 10
166.3774
 20
-146.3203
  0
SEQEND
  0
POLYLINE
  8
LAYER_6
 40
0.0353
 41
0.0353
 66
1
 10
0
 20
0
 30
0
  0
VERTEX
  8
LAYER_6
 10
161.5774
 20
-159.2123
  0
VERTEX
  8
LAYER_6
 10
161.5774
 20
-146.3203
  0
SEQEND
  0
POLYLINE
  8
LAYER_6
 40
0.0353
 41
0.0353
 66
1
 10
0
 20
0
 30
0
  0
VERTEX
  8
LAYER_6
 10
164.8774
 20
-148.3203
  0
VERTEX
  8
LAYER_6
 10
163.0774
 20
-148.3203
  0
SEQEND
  0
POLYLINE
  8
LAYER_6
 40
0.0353
 41
0.0353
 66
1
 10
0
 20
0
 30
0
  0
VERTEX
  8
LAYER_6
 10
161.5774
 20
-148.3203
  0
VERTEX
  8
LAYER_6
 10
151.2852
 20
-148.3203
  0
SEQEND
  0
INSERT
  8
LAYER_6
  2
AIGNBL0602000A
 10
0
 20
0
 30
0
  0
INSERT
  8
LAYER_6
  2
AIGNBL0602000B
 10
0
 20
0
 30
0
  0
TEXT
  8
LAYER_6
 10
157.8372
 20
-147.0185
 11
157.8372
 21
-147.0185
 40
3.7079
 41
0.5
 72
1
  1
（24）
  0
INSERT
  8
LAYER_6
  2
AIGNBL0602000C
 10
0
 20
0
 30
0
  0
INSERT
  8
LAYER_6
  2
AIGNBL0602000D
 10
0
 20
0
 30
0
  0
INSERT
  8
LAYER_6
  2
AIGNBL0602000E
 10
0
 20
0
 30
0
  0
ENDBLK
  0
BLOCK
  8
LAYER_6
  2
AIGNBL0601000F
 70
64
 10
0
 20
0
 30
0
  3
AIGNBL0601000F
  0
POLYLINE
  8
LAYER_6
 40
0.0353
 41
0.0353
 66
1
 10
0
 20
0
 30
0
  0
VERTEX
  8
LAYER_6
 10
166.3774
 20
-155.7213
  0
VERTEX
  8
LAYER_6
 10
166.3774
 20
-146.3203
  0
SEQEND
  0
POLYLINE
  8
LAYER_6
 40
0.0353
 41
0.0353
 66
1
 10
0
 20
0
 30
0
  0
VERTEX
  8
LAYER_6
 10
178.3774
 20
-159.07
  0
VERTEX
  8
LAYER_6
 10
178.3774
 20
-146.3203
  0
SEQEND
  0
POLYLINE
  8
LAYER_6
 40
0.0353
 41
0.0353
 66
1
 10
0
 20
0
 30
0
  0
VERTEX
  8
LAYER_6
 10
167.8774
 20
-148.3203
  0
VERTEX
  8
LAYER_6
 10
176.8774
 20
-148.3203
  0
SEQEND
  0
INSERT
  8
LAYER_6
  2
AIGNBL06020010
 10
0
 20
0
 30
0
  0
INSERT
  8
LAYER_6
  2
AIGNBL06020011
 10
0
 20
0
 30
0
  0
TEXT
  8
LAYER_6
 10
174.5538
 20
-147.0185
 11
174.5538
 21
-147.0185
 40
3.7079
 41
0.5
 72
1
  1
（60）
  0
INSERT
  8
LAYER_6
  2
AIGNBL06020012
 10
0
 20
0
 30
0
  0
INSERT
  8
LAYER_6
  2
AIGNBL06020013
 10
0
 20
0
 30
0
  0
INSERT
  8
LAYER_6
  2
AIGNBL06020014
 10
0
 20
0
 30
0
  0
ENDBLK
  0
BLOCK
  8
LAYER_6
  2
AIGNBL06010015
 70
64
 10
0
 20
0
 30
0
  3
AIGNBL06010015
  0
POLYLINE
  8
LAYER_6
 40
0.0353
 41
0.0353
 66
1
 10
0
 20
0
 30
0
  0
VERTEX
  8
LAYER_6
 10
166.3774
 20
-182.85
  0
VERTEX
  8
LAYER_6
 10
166.3774
 20
-193.0567
  0
SEQEND
  0
POLYLINE
  8
LAYER_6
 40
0.0353
 41
0.0353
 66
1
 10
0
 20
0
 30
0
  0
VERTEX
  8
LAYER_6
 10
170.0774
 20
-176.85
  0
VERTEX
  8
LAYER_6
 10
170.0774
 20
-193.0567
  0
SEQEND
  0
POLYLINE
  8
LAYER_6
 40
0.0353
 41
0.0353
 66
1
 10
0
 20
0
 30
0
  0
VERTEX
  8
LAYER_6
 10
164.8774
 20
-191.0567
  0
VERTEX
  8
LAYER_6
 10
163.3774
 20
-191.0567
  0
SEQEND
  0
POLYLINE
  8
LAYER_6
 40
0.0353
 41
0.0353
 66
1
 10
0
 20
0
 30
0
  0
VERTEX
  8
LAYER_6
 10
171.5774
 20
-191.0567
  0
VERTEX
  8
LAYER_6
 10
181.7462
 20
-191.0567
  0
SEQEND
  0
POLYLINE
  8
LAYER_6
 40
0.0353
 41
0.0353
 66
1
 10
0
 20
0
 30
0
  0
VERTEX
  8
LAYER_6
 10
166.3774
 20
-191.0567
  0
VERTEX
  8
LAYER_6
 10
170.0774
 20
-191.0567
  0
SEQEND
  0
INSERT
  8
LAYER_6
  2
AIGNBL06020016
 10
0
 20
0
 30
0
  0
INSERT
  8
LAYER_6
  2
AIGNBL06020017
 10
0
 20
0
 30
0
  0
TEXT
  8
LAYER_6
 10
179.3935
 20
-189.8489
 11
179.3935
 21
-189.8489
 40
3.7079
 41
0.5
 72
1
  1
18.5
  0
INSERT
  8
LAYER_6
  2
AIGNBL06020018
 10
0
 20
0
 30
0
  0
INSERT
  8
LAYER_6
  2
AIGNBL06020019
 10
0
 20
0
 30
0
  0
INSERT
  8
LAYER_6
  2
AIGNBL0602001A
 10
0
 20
0
 30
0
  0
ENDBLK
  0
BLOCK
  8
LAYER_6
  2
AIGNBL0601001B
 70
64
 10
0
 20
0
 30
0
  3
AIGNBL0601001B
  0
POLYLINE
  8
LAYER_6
 40
0.0353
 41
0.0353
 66
1
 10
0
 20
0
 30
0
  0
VERTEX
  8
LAYER_6
 10
167.9085
 20
-184.1158
  0
VERTEX
  8
LAYER_6
 10
156.295
 20
-184.1158
  0
SEQEND
  0
POLYLINE
  8
LAYER_6
 40
0.0353
 41
0.0353
 66
1
 10
0
 20
0
 30
0
  0
VERTEX
  8
LAYER_6
 10
164.5252
 20
-156.7158
  0
VERTEX
  8
LAYER_6
 10
156.295
 20
-156.7158
  0
SEQEND
  0
POLYLINE
  8
LAYER_6
 40
0.0353
 41
0.0353
 66
1
 10
0
 20
0
 30
0
  0
VERTEX
  8
LAYER_6
 10
158.295
 20
-182.6158
  0
VERTEX
  8
LAYER_6
 10
158.295
 20
-158.2158
  0
SEQEND
  0
INSERT
  8
LAYER_6
  2
AIGNBL0602001C
 10
0
 20
0
 30
0
  0
INSERT
  8
LAYER_6
  2
AIGNBL0602001D
 10
0
 20
0
 30
0
  0
TEXT
  8
LAYER_6
 10
156.9933
 20
-166.5405
 11
156.9933
 21
-166.5405
 40
3.7079
 41
0.5
 50
89.99999999
 72
1
  1
（137）
  0
INSERT
  8
LAYER_6
  2
AIGNBL0602001E
 10
0
 20
0
 30
0
  0
INSERT
  8
LAYER_6
  2
AIGNBL0602001F
 10
0
 20
0
 30
0
  0
INSERT
  8
LAYER_6
  2
AIGNBL06020020
 10
0
 20
0
 30
0
  0
ENDBLK
  0
BLOCK
  8
LAYER_6
  2
AIGNBL06010021
 70
64
 10
0
 20
0
 30
0
  3
AIGNBL06010021
  0
POLYLINE
  8
LAYER_6
 40
0.0353
 41
0.0353
 66
1
 10
0
 20
0
 30
0
  0
VERTEX
  8
LAYER_6
 10
82.2882
 20
-100.1123
  0
VERTEX
  8
LAYER_6
 10
82.2882
 20
-97.369
  0
SEQEND
  0
POLYLINE
  8
LAYER_6
 40
0.0353
 41
0.0353
 66
1
 10
0
 20
0
 30
0
  0
VERTEX
  8
LAYER_6
 10
90.0882
 20
-100.1123
  0
VERTEX
  8
LAYER_6
 10
90.0882
 20
-97.369
  0
SEQEND
  0
POLYLINE
  8
LAYER_6
 40
0.0353
 41
0.0353
 66
1
 10
0
 20
0
 30
0
  0
VERTEX
  8
LAYER_6
 10
83.7882
 20
-99.369
  0
VERTEX
  8
LAYER_6
 10
88.5882
 20
-99.369
  0
SEQEND
  0
POLYLINE
  8
LAYER_6
 40
0.0353
 41
0.0353
 66
1
 10
0
 20
0
 30
0
  0
VERTEX
  8
LAYER_6
 10
90.0882
 20
-99.369
  0
VERTEX
  8
LAYER_6
 10
99.1697
 20
-99.369
  0
SEQEND
  0
INSERT
  8
LAYER_6
  2
AIGNBL06020022
 10
0
 20
0
 30
0
  0
INSERT
  8
LAYER_6
  2
AIGNBL06020023
 10
0
 20
0
 30
0
  0
TEXT
  8
LAYER_6
 10
97.4581
 20
-98.0671
 11
97.4581
 21
-98.0671
 40
3.7079
 41
0.5
 72
1
  1
%%c39
  0
INSERT
  8
LAYER_6
  2
AIGNBL06020024
 10
0
 20
0
 30
0
  0
INSERT
  8
LAYER_6
  2
AIGNBL06020025
 10
0
 20
0
 30
0
  0
INSERT
  8
LAYER_6
  2
AIGNBL06020026
 10
0
 20
0
 30
0
  0
ENDBLK
  0
BLOCK
  8
LAYER_6
  2
AIGNBL06010027
 70
64
 10
0
 20
0
 30
0
  3
AIGNBL06010027
  0
POLYLINE
  8
LAYER_6
 40
0.0353
 41
0.0353
 66
1
 10
0
 20
0
 30
0
  0
VERTEX
  8
LAYER_6
 10
83.6482
 20
-97.5123
  0
VERTEX
  8
LAYER_6
 10
83.6482
 20
-92.5435
  0
SEQEND
  0
POLYLINE
  8
LAYER_6
 40
0.0353
 41
0.0353
 66
1
 10
0
 20
0
 30
0
  0
VERTEX
  8
LAYER_6
 10
88.7282
 20
-97.5123
  0
VERTEX
  8
LAYER_6
 10
88.7282
 20
-92.5435
  0
SEQEND
  0
POLYLINE
  8
LAYER_6
 40
0.0353
 41
0.0353
 66
1
 10
0
 20
0
 30
0
  0
VERTEX
  8
LAYER_6
 10
85.1482
 20
-94.5435
  0
VERTEX
  8
LAYER_6
 10
87.2282
 20
-94.5435
  0
SEQEND
  0
POLYLINE
  8
LAYER_6
 40
0.0353
 41
0.0353
 66
1
 10
0
 20
0
 30
0
  0
VERTEX
  8
LAYER_6
 10
88.7282
 20
-94.5435
  0
VERTEX
  8
LAYER_6
 10
101.4242
 20
-94.5435
  0
SEQEND
  0
INSERT
  8
LAYER_6
  2
AIGNBL06020028
 10
0
 20
0
 30
0
  0
INSERT
  8
LAYER_6
  2
AIGNBL06020029
 10
0
 20
0
 30
0
  0
TEXT
  8
LAYER_6
 10
96.9987
 20
-93.2419
 11
96.9987
 21
-93.2419
 40
3.7079
 41
0.5
 72
1
  1
%%c25.4
  0
INSERT
  8
LAYER_6
  2
AIGNBL0602002A
 10
0
 20
0
 30
0
  0
INSERT
  8
LAYER_6
  2
AIGNBL0602002B
 10
0
 20
0
 30
0
  0
INSERT
  8
LAYER_6
  2
AIGNBL0602002C
 10
0
 20
0
 30
0
  0
ENDBLK
  0
BLOCK
  8
LAYER_6
  2
AIGNBL0601002D
 70
64
 10
0
 20
0
 30
0
  3
AIGNBL0601002D
  0
POLYLINE
  8
LAYER_6
 40
0.0353
 41
0.0353
 66
1
 10
0
 20
0
 30
0
  0
VERTEX
  8
LAYER_6
 10
86.1882
 20
-79.4253
  0
VERTEX
  8
LAYER_6
 10
75.9159
 20
-79.4253
  0
SEQEND
  0
POLYLINE
  8
LAYER_6
 40
0.0353
 41
0.0353
 66
1
 10
0
 20
0
 30
0
  0
VERTEX
  8
LAYER_6
 10
86.1882
 20
-100.1723
  0
VERTEX
  8
LAYER_6
 10
75.9159
 20
-100.1723
  0
SEQEND
  0
POLYLINE
  8
LAYER_6
 40
0.0353
 41
0.0353
 66
1
 10
0
 20
0
 30
0
  0
VERTEX
  8
LAYER_6
 10
77.9159
 20
-80.9253
  0
VERTEX
  8
LAYER_6
 10
77.9159
 20
-98.6723
  0
SEQEND
  0
INSERT
  8
LAYER_6
  2
AIGNBL0602002E
 10
0
 20
0
 30
0
  0
INSERT
  8
LAYER_6
  2
AIGNBL0602002F
 10
0
 20
0
 30
0
  0
TEXT
  8
LAYER_6
 10
76.6141
 20
-87.426
 11
76.6141
 21
-87.426
 40
3.7079
 41
0.5
 50
89.99999999
 72
1
  1
（104）
  0
INSERT
  8
LAYER_6
  2
AIGNBL06020030
 10
0
 20
0
 30
0
  0
INSERT
  8
LAYER_6
  2
AIGNBL06020031
 10
0
 20
0
 30
0
  0
INSERT
  8
LAYER_6
  2
AIGNBL06020032
 10
0
 20
0
 30
0
  0
ENDBLK
  0
BLOCK
  8
LAYER_6
  2
AIGNBL06010033
 70
64
 10
0
 20
0
 30
0
  3
AIGNBL06010033
  0
POLYLINE
  8
LAYER_6
 40
0.0353
 41
0.0353
 66
1
 10
0
 20
0
 30
0
  0
VERTEX
  8
LAYER_6
 10
79.6882
 20
-159.07
  0
VERTEX
  8
LAYER_6
 10
79.6882
 20
-147.4054
  0
SEQEND
  0
POLYLINE
  8
LAYER_6
 40
0.0353
 41
0.0353
 66
1
 10
0
 20
0
 30
0
  0
VERTEX
  8
LAYER_6
 10
92.6882
 20
-159.07
  0
VERTEX
  8
LAYER_6
 10
92.6882
 20
-147.4054
  0
SEQEND
  0
POLYLINE
  8
LAYER_6
 40
0.0353
 41
0.0353
 66
1
 10
0
 20
0
 30
0
  0
VERTEX
  8
LAYER_6
 10
81.1882
 20
-149.4054
  0
VERTEX
  8
LAYER_6
 10
91.1882
 20
-149.4054
  0
SEQEND
  0
INSERT
  8
LAYER_6
  2
AIGNBL06020034
 10
0
 20
0
 30
0
  0
INSERT
  8
LAYER_6
  2
AIGNBL06020035
 10
0
 20
0
 30
0
  0
TEXT
  8
LAYER_6
 10
92.6764
 20
-148.1977
 11
92.6764
 21
-148.1977
 40
3.7079
 41
0.5
 72
1
  1
65
  0
INSERT
  8
LAYER_6
  2
AIGNBL06020036
 10
0
 20
0
 30
0
  0
INSERT
  8
LAYER_6
  2
AIGNBL06020037
 10
0
 20
0
 30
0
  0
INSERT
  8
LAYER_6
  2
AIGNBL06020038
 10
0
 20
0
 30
0
  0
ENDBLK
  0
BLOCK
  8
LAYER_6
  2
AIGNBL06010039
 70
64
 10
0
 20
0
 30
0
  3
AIGNBL06010039
  0
POLYLINE
  8
LAYER_6
 40
0.0353
 41
0.0353
 66
1
 10
0
 20
0
 30
0
  0
VERTEX
  8
LAYER_6
 10
80.1882
 20
-158.5709
  0
VERTEX
  8
LAYER_6
 10
73.1772
 20
-158.5709
  0
SEQEND
  0
POLYLINE
  8
LAYER_6
 40
0.0353
 41
0.0353
 66
1
 10
0
 20
0
 30
0
  0
VERTEX
  8
LAYER_6
 10
80.7882
 20
-176.87
  0
VERTEX
  8
LAYER_6
 10
73.1772
 20
-176.87
  0
SEQEND
  0
POLYLINE
  8
LAYER_6
 40
0.0353
 41
0.0353
 66
1
 10
0
 20
0
 30
0
  0
VERTEX
  8
LAYER_6
 10
75.1772
 20
-160.0709
  0
VERTEX
  8
LAYER_6
 10
75.1772
 20
-175.37
  0
SEQEND
  0
INSERT
  8
LAYER_6
  2
AIGNBL0602003A
 10
0
 20
0
 30
0
  0
INSERT
  8
LAYER_6
  2
AIGNBL0602003B
 10
0
 20
0
 30
0
  0
TEXT
  8
LAYER_6
 10
73.9696
 20
-165.8437
 11
73.9696
 21
-165.8437
 40
3.7079
 41
0.5
 50
89.99999999
 72
1
  1
91.5
  0
INSERT
  8
LAYER_6
  2
AIGNBL0602003C
 10
0
 20
0
 30
0
  0
INSERT
  8
LAYER_6
  2
AIGNBL0602003D
 10
0
 20
0
 30
0
  0
INSERT
  8
LAYER_6
  2
AIGNBL0602003E
 10
0
 20
0
 30
0
  0
ENDBLK
  0
BLOCK
  8
LAYER_6
  2
AIGNBL0601003F
 70
64
 10
0
 20
0
 30
0
  3
AIGNBL0601003F
  0
POLYLINE
  8
LAYER_6
 40
0.0353
 41
0.0353
 66
1
 10
0
 20
0
 30
0
  0
VERTEX
  8
LAYER_6
 10
80.7882
 20
-176.87
  0
VERTEX
  8
LAYER_6
 10
66.1773
 20
-176.87
  0
SEQEND
  0
POLYLINE
  8
LAYER_6
 40
0.0353
 41
0.0353
 66
1
 10
0
 20
0
 30
0
  0
VERTEX
  8
LAYER_6
 10
83.9883
 20
-156.67
  0
VERTEX
  8
LAYER_6
 10
66.1773
 20
-156.67
  0
SEQEND
  0
POLYLINE
  8
LAYER_6
 40
0.0353
 41
0.0353
 66
1
 10
0
 20
0
 30
0
  0
VERTEX
  8
LAYER_6
 10
68.1773
 20
-175.37
  0
VERTEX
  8
LAYER_6
 10
68.1773
 20
-158.17
  0
SEQEND
  0
INSERT
  8
LAYER_6
  2
AIGNBL06020040
 10
0
 20
0
 30
0
  0
INSERT
  8
LAYER_6
  2
AIGNBL06020041
 10
0
 20
0
 30
0
  0
TEXT
  8
LAYER_6
 10
66.9695
 20
-162.74
 11
66.9695
 21
-162.74
 40
3.7079
 41
0.5
 50
89.99999999
 72
1
  1
101
  0
INSERT
  8
LAYER_6
  2
AIGNBL06020042
 10
0
 20
0
 30
0
  0
INSERT
  8
LAYER_6
  2
AIGNBL06020043
 10
0
 20
0
 30
0
  0
INSERT
  8
LAYER_6
  2
AIGNBL06020044
 10
0
 20
0
 30
0
  0
ENDBLK
  0
BLOCK
  8
LAYER_6
  2
AIGNBL06010045
 70
64
 10
0
 20
0
 30
0
  3
AIGNBL06010045
  0
POLYLINE
  8
LAYER_6
 40
0.0353
 41
0.0353
 66
1
 10
0
 20
0
 30
0
  0
VERTEX
  8
LAYER_6
 10
146.3947
 20
-89.852
  0
VERTEX
  8
LAYER_6
 10
146.3947
 20
-68.0748
  0
SEQEND
  0
POLYLINE
  8
LAYER_6
 40
0.0353
 41
0.0353
 66
1
 10
0
 20
0
 30
0
  0
VERTEX
  8
LAYER_6
 10
166.9074
 20
-100.1723
  0
VERTEX
  8
LAYER_6
 10
166.9074
 20
-68.0748
  0
SEQEND
  0
POLYLINE
  8
LAYER_6
 40
0.0353
 41
0.0353
 66
1
 10
0
 20
0
 30
0
  0
VERTEX
  8
LAYER_6
 10
147.8947
 20
-70.0748
  0
VERTEX
  8
LAYER_6
 10
165.4074
 20
-70.0748
  0
SEQEND
  0
INSERT
  8
LAYER_6
  2
AIGNBL06020046
 10
0
 20
0
 30
0
  0
INSERT
  8
LAYER_6
  2
AIGNBL06020047
 10
0
 20
0
 30
0
  0
TEXT
  8
LAYER_6
 10
158.1186
 20
-68.0813
 11
158.1186
 21
-68.0813
 40
3.7079
 41
0.5
 72
1
  1
(103)
  0
INSERT
  8
LAYER_6
  2
AIGNBL06020048
 10
0
 20
0
 30
0
  0
INSERT
  8
LAYER_6
  2
AIGNBL06020049
 10
0
 20
0
 30
0
  0
INSERT
  8
LAYER_6
  2
AIGNBL0602004A
 10
0
 20
0
 30
0
  0
ENDBLK
  0
BLOCK
  8
LAYER_6
  2
AIGNBL0601004B
 70
64
 10
0
 20
0
 30
0
  3
AIGNBL0601004B
  0
POLYLINE
  8
LAYER_6
 40
0.0353
 41
0.0353
 66
1
 10
0
 20
0
 30
0
  0
VERTEX
  8
LAYER_6
 10
166.9074
 20
-100.1723
  0
VERTEX
  8
LAYER_6
 10
154.2288
 20
-100.1723
  0
SEQEND
  0
POLYLINE
  8
LAYER_6
 40
0.0353
 41
0.0353
 66
1
 10
0
 20
0
 30
0
  0
VERTEX
  8
LAYER_6
 10
166.9074
 20
-105.4723
  0
VERTEX
  8
LAYER_6
 10
154.2288
 20
-105.4723
  0
SEQEND
  0
POLYLINE
  8
LAYER_6
 40
0.0353
 41
0.0353
 66
1
 10
0
 20
0
 30
0
  0
VERTEX
  8
LAYER_6
 10
156.2288
 20
-101.6723
  0
VERTEX
  8
LAYER_6
 10
156.2288
 20
-103.9723
  0
SEQEND
  0
POLYLINE
  8
LAYER_6
 40
0.0353
 41
0.0353
 66
1
 10
0
 20
0
 30
0
  0
VERTEX
  8
LAYER_6
 10
156.2288
 20
-105.4723
  0
VERTEX
  8
LAYER_6
 10
156.2288
 20
-135.7374
  0
SEQEND
  0
INSERT
  8
LAYER_6
  2
AIGNBL0602004C
 10
0
 20
0
 30
0
  0
INSERT
  8
LAYER_6
  2
AIGNBL0602004D
 10
0
 20
0
 30
0
  0
TEXT
  8
LAYER_6
 10
154.9269
 20
-120.2008
 11
154.9269
 21
-120.2008
 40
3.2525
 41
0.5
 50
89.99999999
 72
1
  1
取付板厚５～３０
  0
INSERT
  8
LAYER_6
  2
AIGNBL0602004E
 10
0
 20
0
 30
0
  0
INSERT
  8
LAYER_6
  2
AIGNBL0602004F
 10
0
 20
0
 30
0
  0
INSERT
  8
LAYER_6
  2
AIGNBL06020050
 10
0
 20
0
 30
0
  0
ENDBLK
  0
BLOCK
  8
LAYER_6
  2
AIGNBL06010051
 70
64
 10
0
 20
0
 30
0
  3
AIGNBL06010051
  0
POLYLINE
  8
LAYER_6
 40
0.0353
 41
0.0353
 66
1
 10
0
 20
0
 30
0
  0
VERTEX
  8
LAYER_6
 10
166.9074
 20
-109.2723
  0
VERTEX
  8
LAYER_6
 10
137.5049
 20
-109.2723
  0
SEQEND
  0
POLYLINE
  8
LAYER_6
 40
0.0353
 41
0.0353
 66
1
 10
0
 20
0
 30
0
  0
VERTEX
  8
LAYER_6
 10
166.9074
 20
-100.1723
  0
VERTEX
  8
LAYER_6
 10
137.5049
 20
-100.1723
  0
SEQEND
  0
POLYLINE
  8
LAYER_6
 40
0.0353
 41
0.0353
 66
1
 10
0
 20
0
 30
0
  0
VERTEX
  8
LAYER_6
 10
139.5049
 20
-101.6723
  0
VERTEX
  8
LAYER_6
 10
139.5049
 20
-107.7723
  0
SEQEND
  0
POLYLINE
  8
LAYER_6
 40
0.0353
 41
0.0353
 66
1
 10
0
 20
0
 30
0
  0
VERTEX
  8
LAYER_6
 10
139.5049
 20
-109.2723
  0
VERTEX
  8
LAYER_6
 10
139.5049
 20
-119.5883
  0
SEQEND
  0
INSERT
  8
LAYER_6
  2
AIGNBL06020052
 10
0
 20
0
 30
0
  0
INSERT
  8
LAYER_6
  2
AIGNBL06020053
 10
0
 20
0
 30
0
  0
TEXT
  8
LAYER_6
 10
138.2971
 20
-113.3035
 11
138.2971
 21
-113.3035
 40
3.7079
 41
0.5
 50
89.99999999
 72
1
  1
45.5
  0
INSERT
  8
LAYER_6
  2
AIGNBL06020054
 10
0
 20
0
 30
0
  0
INSERT
  8
LAYER_6
  2
AIGNBL06020055
 10
0
 20
0
 30
0
  0
INSERT
  8
LAYER_6
  2
AIGNBL06020056
 10
0
 20
0
 30
0
  0
ENDBLK
  0
BLOCK
  8
LAYER_6
  2
AIGNBL06010057
 70
64
 10
0
 20
0
 30
0
  3
AIGNBL06010057
  0
POLYLINE
  8
LAYER_6
 40
0.0353
 41
0.0353
 66
1
 10
0
 20
0
 30
0
  0
VERTEX
  8
LAYER_6
 10
148.4814
 20
-92.6245
  0
VERTEX
  8
LAYER_6
 10
144.5818
 20
-97.7995
  0
SEQEND
  0
POLYLINE
  8
LAYER_6
 40
0.0353
 41
0.0353
 66
1
 10
0
 20
0
 30
0
  0
VERTEX
  8
LAYER_6
 10
148.9739
 20
-92.1326
  0
VERTEX
  8
LAYER_6
 10
148.9739
 20
-99.2691
  0
SEQEND
  0
POLYLINE
  8
LAYER_6
 40
0.0353
 41
0.0353
 66
1
 10
0
 20
0
 30
0
  0
VERTEX
  8
LAYER_6
 10
147.0991
 20
-96.9262
  0
VERTEX
  8
LAYER_6
 10
147.489
 20
-97.0567
  0
SEQEND
  0
INSERT
  8
LAYER_6
  2
AIGNBL06020058
 10
0
 20
0
 30
0
  0
INSERT
  8
LAYER_6
  2
AIGNBL06020059
 10
0
 20
0
 30
0
  0
INSERT
  8
LAYER_6
  2
AIGNBL0602005A
 10
0
 20
0
 30
0
  0
INSERT
  8
LAYER_6
  2
AIGNBL0602005B
 10
0
 20
0
 30
0
  0
INSERT
  8
LAYER_6
  2
AIGNBL0602005C
 10
0
 20
0
 30
0
  0
INSERT
  8
LAYER_6
  2
AIGNBL0602005D
 10
0
 20
0
 30
0
  0
INSERT
  8
LAYER_6
  2
AIGNBL0602005E
 10
0
 20
0
 30
0
  0
ENDBLK
  0
BLOCK
  8
LAYER_6
  2
AIGNBL0601005F
 70
64
 10
0
 20
0
 30
0
  3
AIGNBL0601005F
  0
POLYLINE
  8
LAYER_6
 40
0.0353
 41
0.0353
 66
1
 10
0
 20
0
 30
0
  0
VERTEX
  8
LAYER_6
 10
148.9739
 20
-91.9709
  0
VERTEX
  8
LAYER_6
 10
148.9739
 20
-99.4535
  0
SEQEND
  0
POLYLINE
  8
LAYER_6
 40
0.0353
 41
0.0353
 66
1
 10
0
 20
0
 30
0
  0
VERTEX
  8
LAYER_6
 10
166.9074
 20
-100.1723
  0
VERTEX
  8
LAYER_6
 10
166.9074
 20
-95.4535
  0
SEQEND
  0
POLYLINE
  8
LAYER_6
 40
0.0353
 41
0.0353
 66
1
 10
0
 20
0
 30
0
  0
VERTEX
  8
LAYER_6
 10
150.4739
 20
-97.4535
  0
VERTEX
  8
LAYER_6
 10
165.4074
 20
-97.4535
  0
SEQEND
  0
INSERT
  8
LAYER_6
  2
AIGNBL06020060
 10
0
 20
0
 30
0
  0
INSERT
  8
LAYER_6
  2
AIGNBL06020061
 10
0
 20
0
 30
0
  0
TEXT
  8
LAYER_6
 10
160.0965
 20
-96.1516
 11
160.0965
 21
-96.1516
 40
3.7079
 41
0.5
 72
1
  1
（90）
  0
INSERT
  8
LAYER_6
  2
AIGNBL06020062
 10
0
 20
0
 30
0
  0
INSERT
  8
LAYER_6
  2
AIGNBL06020063
 10
0
 20
0
 30
0
  0
INSERT
  8
LAYER_6
  2
AIGNBL06020064
 10
0
 20
0
 30
0
  0
ENDBLK
  0
BLOCK
  8
LAYER_6
  2
AIGNBL06010065
 70
64
 10
0
 20
0
 30
0
  3
AIGNBL06010065
  0
POLYLINE
  8
LAYER_6
 40
0.0353
 41
0.0353
 66
1
 10
0
 20
0
 30
0
  0
VERTEX
  8
LAYER_6
 10
148.9739
 20
-91.9709
  0
VERTEX
  8
LAYER_6
 10
140.8779
 20
-91.9709
  0
SEQEND
  0
POLYLINE
  8
LAYER_6
 40
0.0353
 41
0.0353
 66
1
 10
0
 20
0
 30
0
  0
VERTEX
  8
LAYER_6
 10
166.9074
 20
-100.1723
  0
VERTEX
  8
LAYER_6
 10
140.8779
 20
-100.1723
  0
SEQEND
  0
POLYLINE
  8
LAYER_6
 40
0.0353
 41
0.0353
 66
1
 10
0
 20
0
 30
0
  0
VERTEX
  8
LAYER_6
 10
142.8779
 20
-93.4709
  0
VERTEX
  8
LAYER_6
 10
142.8779
 20
-98.6723
  0
SEQEND
  0
INSERT
  8
LAYER_6
  2
AIGNBL06020066
 10
0
 20
0
 30
0
  0
INSERT
  8
LAYER_6
  2
AIGNBL06020067
 10
0
 20
0
 30
0
  0
TEXT
  8
LAYER_6
 10
141.5762
 20
-93.9159
 11
141.5762
 21
-93.9159
 40
3.7079
 41
0.5
 50
89.99999999
 72
1
  1
（41）
  0
INSERT
  8
LAYER_6
  2
AIGNBL06020068
 10
0
 20
0
 30
0
  0
INSERT
  8
LAYER_6
  2
AIGNBL06020069
 10
0
 20
0
 30
0
  0
INSERT
  8
LAYER_6
  2
AIGNBL0602006A
 10
0
 20
0
 30
0
  0
ENDBLK
  0
ENDSEC
  0
SECTION
  2
ENTITIES
  0
INSERT
  8
LAYER_1
  2
AIGNBL01010002
 10
0
 20
0
 30
0
  0
TEXT
  8
LAYER_1
 10
475.3901
 20
-256.1093
 11
475.3901
 21
-256.1093
 40
2.8232
 41
0.5
  1
　　　　　　　　
  0
TEXT
  8
LAYER_1
 10
148.0733
 20
-100.9707
 11
148.0733
 21
-100.9707
 40
3.7079
 41
0.5
 50
347.8407756
 72
1
  1
25%%d
  0
TEXT
  8
LAYER_1
 10
193.0286
 20
-104.355
 11
193.0286
 21
-104.355
 40
3.7079
 41
0.5
 72
1
  1
取付穴径22025
  0
TEXT
  8
LAYER_1
 10
100.4077
 20
-193.5962
 11
100.4077
 21
-193.5962
 40
3.2575
 41
0.5
  1
コード全長：1900mm
  0
TEXT
  8
LAYER_1
 10
187.6382
 20
-121.3158
 11
187.6382
 21
-121.3158
 40
3.2575
 41
0.5
  1
コード全長：550mm
  0
TEXT
  8
LAYER_1
 10
187.6382
 20
-153.6055
 11
187.6382
 21
-153.6055
 40
3.2575
 41
0.5
  1
コード全長：260mm
  0
POLYLINE
  8
LAYER_1
 40
0.0882
 41
0.0882
 66
1
 10
0
 20
0
 30
0
  0
VERTEX
  8
LAYER_1
 10
211.4515
 20
-155.1718
  0
VERTEX
  8
LAYER_1
 10
188.9188
 20
-155.1718
  0
VERTEX
  8
LAYER_1
 10
184.6559
 20
-153.5478
  0
SEQEND
  0
POLYLINE
  8
LAYER_1
 40
0.0882
 41
0.0882
 66
1
 10
0
 20
0
 30
0
  0
VERTEX
  8
LAYER_1
 10
121.7083
 20
-124.413
  0
VERTEX
  8
LAYER_1
 10
91.1343
 20
-124.413
  0
VERTEX
  8
LAYER_1
 10
86.8713
 20
-122.789
  0
SEQEND
  0
POLYLINE
  8
LAYER_1
 40
0.0882
 41
0.0882
 66
1
 10
0
 20
0
 30
0
  0
VERTEX
  8
LAYER_1
 10
211.4515
 20
-122.8953
  0
VERTEX
  8
LAYER_1
 10
188.9188
 20
-122.8953
  0
VERTEX
  8
LAYER_1
 10
184.6559
 20
-121.2713
  0
SEQEND
  0
POLYLINE
  8
LAYER_1
 40
0.0882
 41
0.0882
 66
1
 10
0
 20
0
 30
0
  0
VERTEX
  8
LAYER_1
 10
125.6854
 20
-194.4516
  0
VERTEX
  8
LAYER_1
 10
99.8033
 20
-194.4516
  0
VERTEX
  8
LAYER_1
 10
93.7134
 20
-187.2453
  0
SEQEND
  0
TEXT
  8
LAYER_1
 10
91.8399
 20
-122.7666
 11
91.8399
 21
-122.7666
 40
3.2575
 41
0.5
  1
給水ホース長さ：800mm
  0
INSERT
  8
LAYER_6
  2
AIGNBL06010002
 10
0
 20
0
 30
0
  0
POLYLINE
  8
LAYER_6
 40
0.3528
 41
0.3528
 66
1
 10
0
 20
0
 30
0
  0
VERTEX
  8
LAYER_6
 10
34.7876
 20
-258.3332
  0
VERTEX
  8
LAYER_6
 10
229.7955
 20
-258.3332
  0
VERTEX
  8
LAYER_6
 10
229.7955
 20
21.6583
  0
VERTEX
  8
LAYER_6
 10
34.7876
 20
21.6583
  0
VERTEX
  8
LAYER_6
 10
34.7876
 20
-258.3332
  0
SEQEND
  0
TEXT
  8
LAYER_6
 10
166.4505
 20
-248.7955
 11
166.4505
 21
-248.7955
 40
3.3848
 41
0.5
  1
●TEL 0120-65-1232●FAX 06-6532-1580
  0
TEXT
  8
LAYER_6
 10
166.4505
 20
-252.3102
 11
166.4505
 21
-252.3102
 40
3.3848
 41
0.5
  1
hits@hiratatile.co.jp
  0
TEXT
  8
LAYER_6
 10
37.8495
 20
-250.3797
 11
37.8495
 21
-250.3797
 40
3.2991
 41
0.5
  1
仕様
  0
POLYLINE
  8
LAYER_6
 40
0.3528
 41
0.3528
 66
1
 10
0
 20
0
 30
0
  0
VERTEX
  8
LAYER_6
 10
229.7955
 20
-241.6001
  0
VERTEX
  8
LAYER_6
 10
34.7874
 20
-241.6001
  0
SEQEND
  0
POLYLINE
  8
LAYER_6
 40
0.3528
 41
0.3528
 66
1
 10
0
 20
0
 30
0
  0
VERTEX
  8
LAYER_6
 10
229.7955
 20
-233.091
  0
VERTEX
  8
LAYER_6
 10
34.7874
 20
-233.091
  0
SEQEND
  0
TEXT
  8
LAYER_6
 10
35.9444
 20
-235.5675
 11
35.9444
 21
-235.5675
 40
2.1994
 41
0.5
  1
品名
  0
TEXT
  8
LAYER_6
 10
48.7874
 20
-238.6599
 11
48.7874
 21
-238.6599
 40
4.1459
 41
0.5
  1
センサー式単水栓（AC100V）
  0
TEXT
  8
LAYER_6
 10
48.4217
 20
-250.3883
 11
48.4217
 21
-250.3883
 40
3.1172
 41
0.5
  1
●排水金具別途
  0
TEXT
  8
LAYER_6
 10
137.0378
 20
-235.5677
 11
137.0378
 21
-235.5677
 40
2.1994
 41
0.5
  1
品番
  0
TEXT
  8
LAYER_6
 10
143.0598
 20
-240.0443
 11
143.0598
 21
-240.0443
 40
5.9385
 41
0.5
  1
AQ-E1700
  0
TEXT
  8
LAYER_6
 10
450.5108
 20
-285.2209
 11
450.5108
 21
-285.2209
 40
2.8232
 41
0.5
  1
　　　　　　　　
  0
INSERT
  8
LAYER_6
  2
AIGNBL06010003
 10
0
 20
0
 30
0
  0
INSERT
  8
LAYER_6
  2
AIGNBL06010009
 10
0
 20
0
 30
0
  0
INSERT
  8
LAYER_6
  2
AIGNBL0601000F
 10
0
 20
0
 30
0
  0
INSERT
  8
LAYER_6
  2
AIGNBL06010015
 10
0
 20
0
 30
0
  0
INSERT
  8
LAYER_6
  2
AIGNBL0601001B
 10
0
 20
0
 30
0
  0
INSERT
  8
LAYER_6
  2
AIGNBL06010021
 10
0
 20
0
 30
0
  0
INSERT
  8
LAYER_6
  2
AIGNBL06010027
 10
0
 20
0
 30
0
  0
INSERT
  8
LAYER_6
  2
AIGNBL0601002D
 10
0
 20
0
 30
0
  0
INSERT
  8
LAYER_6
  2
AIGNBL06010033
 10
0
 20
0
 30
0
  0
INSERT
  8
LAYER_6
  2
AIGNBL06010039
 10
0
 20
0
 30
0
  0
INSERT
  8
LAYER_6
  2
AIGNBL0601003F
 10
0
 20
0
 30
0
  0
INSERT
  8
LAYER_6
  2
AIGNBL06010045
 10
0
 20
0
 30
0
  0
INSERT
  8
LAYER_6
  2
AIGNBL0601004B
 10
0
 20
0
 30
0
  0
INSERT
  8
LAYER_6
  2
AIGNBL06010051
 10
0
 20
0
 30
0
  0
POLYLINE
  8
LAYER_6
 40
0.0353
 41
0.0353
 66
1
 10
0
 20
0
 30
0
  0
VERTEX
  8
LAYER_6
 10
148.9739
 20
-91.9709
  0
VERTEX
  8
LAYER_6
 10
148.9739
 20
-92.1326
  0
SEQEND
  0
INSERT
  8
LAYER_6
  2
AIGNBL06010057
 10
0
 20
0
 30
0
  0
INSERT
  8
LAYER_6
  2
AIGNBL0601005F
 10
0
 20
0
 30
0
  0
INSERT
  8
LAYER_6
  2
AIGNBL06010065
 10
0
 20
0
 30
0
  0
POLYLINE
  8
LAYER_6
 40
0.0353
 41
0.0353
 66
1
 10
0
 20
0
 30
0
  0
VERTEX
  8
LAYER_6
 10
85.2882
 20
-109.2723
  0
VERTEX
  8
LAYER_6
 10
85.2882
 20
-125.3979
  0
SEQEND
  0
POLYLINE
  8
LAYER_6
 40
0.0353
 41
0.0353
 66
1
 10
0
 20
0
 30
0
  0
VERTEX
  8
LAYER_6
 10
87.0882
 20
-109.2723
  0
VERTEX
  8
LAYER_6
 10
87.0882
 20
-125.3979
  0
SEQEND
  0
POLYLINE
  8
LAYER_6
 40
0.0353
 41
0.0353
 66
1
 10
0
 20
0
 30
0
  0
VERTEX
  8
LAYER_6
 10
85.2882
 20
-156.7101
  0
VERTEX
  8
LAYER_6
 10
85.2882
 20
-126.267
  0
SEQEND
  0
POLYLINE
  8
LAYER_6
 40
0.0353
 41
0.0353
 66
1
 10
0
 20
0
 30
0
  0
VERTEX
  8
LAYER_6
 10
87.0882
 20
-126.267
  0
VERTEX
  8
LAYER_6
 10
87.0882
 20
-156.7101
  0
SEQEND
  0
POLYLINE
  8
LAYER_6
 40
0.0353
 41
0.0353
 66
1
 10
0
 20
0
 30
0
  0
VERTEX
  8
LAYER_6
 10
85.2882
 20
-150.8747
 42
0.08058780126
  0
VERTEX
  8
LAYER_6
 10
84.6882
 20
-154.6217
  0
VERTEX
  8
LAYER_6
 10
84.6882
 20
-156.6998
  0
SEQEND
  0
POLYLINE
  8
LAYER_6
  6
AIGENLINE001
 40
0.0353
 41
0.0353
 66
1
 10
0
 20
0
 30
0
 70
128
  0
VERTEX
  8
LAYER_6
 10
86.1882
 20
-78.6051
  0
VERTEX
  8
LAYER_6
 10
86.1882
 20
-189.0458
  0
SEQEND
  0
POLYLINE
  8
LAYER_6
 40
0.0353
 41
0.0353
 66
1
 10
0
 20
0
 30
0
  0
VERTEX
  8
LAYER_6
 10
88.7282
 20
-81.9657
 42
0.4142061472
  0
VERTEX
  8
LAYER_6
 10
86.1882
 20
-79.4253
 42
0.4142084804
  0
VERTEX
  8
LAYER_6
 10
83.6482
 20
-81.9657
  0
SEQEND
  0
POLYLINE
  8
LAYER_6
 40
0.0353
 41
0.0353
 66
1
 10
0
 20
0
 30
0
  0
VERTEX
  8
LAYER_6
 10
88.2837
 20
-105.0723
  0
VERTEX
  8
LAYER_6
 10
88.2837
 20
-100.5723
  0
SEQEND
  0
POLYLINE
  8
LAYER_6
 40
0.0353
 41
0.0353
 66
1
 10
0
 20
0
 30
0
  0
VERTEX
  8
LAYER_6
 10
88.0513
 20
-109.1592
  0
VERTEX
  8
LAYER_6
 10
88.0513
 20
-106.9723
  0
SEQEND
  0
POLYLINE
  8
LAYER_6
 40
0.0353
 41
0.0353
 66
1
 10
0
 20
0
 30
0
  0
VERTEX
  8
LAYER_6
 10
88.0513
 20
-105.0723
  0
VERTEX
  8
LAYER_6
 10
88.0513
 20
-100.5723
  0
SEQEND
  0
POLYLINE
  8
LAYER_6
 40
0.0353
 41
0.0353
 66
1
 10
0
 20
0
 30
0
  0
VERTEX
  8
LAYER_6
 10
84.0927
 20
-105.0723
  0
VERTEX
  8
LAYER_6
 10
84.0927
 20
-100.5723
  0
SEQEND
  0
POLYLINE
  8
LAYER_6
 40
0.0353
 41
0.0353
 66
1
 10
0
 20
0
 30
0
  0
VERTEX
  8
LAYER_6
 10
84.3251
 20
-109.1592
  0
VERTEX
  8
LAYER_6
 10
84.3251
 20
-106.9723
  0
SEQEND
  0
POLYLINE
  8
LAYER_6
 40
0.0353
 41
0.0353
 66
1
 10
0
 20
0
 30
0
  0
VERTEX
  8
LAYER_6
 10
84.3251
 20
-105.0723
  0
VERTEX
  8
LAYER_6
 10
84.3251
 20
-100.5723
  0
SEQEND
  0
POLYLINE
  8
LAYER_6
 40
0.2469
 41
0.2469
 66
1
 10
0
 20
0
 30
0
 70
1
  0
VERTEX
  8
LAYER_6
 10
82.5882
 20
-105.4723
  0
VERTEX
  8
LAYER_6
 10
82.5882
 20
-105.6723
  0
VERTEX
  8
LAYER_6
 10
86.1882
 20
-105.6723
  0
VERTEX
  8
LAYER_6
 10
89.7882
 20
-105.6723
  0
VERTEX
  8
LAYER_6
 10
89.7882
 20
-105.4723
  0
VERTEX
  8
LAYER_6
 10
86.1882
 20
-105.4723
  0
SEQEND
  0
POLYLINE
  8
LAYER_6
 40
0.0353
 41
0.0353
 66
1
 10
0
 20
0
 30
0
  0
VERTEX
  8
LAYER_6
 10
84.0927
 20
-108.9268
  0
VERTEX
  8
LAYER_6
 10
84.4382
 20
-109.2723
  0
VERTEX
  8
LAYER_6
 10
87.9382
 20
-109.2723
  0
VERTEX
  8
LAYER_6
 10
88.2837
 20
-108.9268
  0
SEQEND
  0
POLYLINE
  8
LAYER_6
 40
0.0353
 41
0.0353
 66
1
 10
0
 20
0
 30
0
  0
VERTEX
  8
LAYER_6
 10
85.1153
 20
-108.9268
  0
VERTEX
  8
LAYER_6
 10
84.0927
 20
-108.9268
  0
VERTEX
  8
LAYER_6
 10
84.0927
 20
-106.9723
  0
SEQEND
  0
POLYLINE
  8
LAYER_6
 40
0.0353
 41
0.0353
 66
1
 10
0
 20
0
 30
0
  0
VERTEX
  8
LAYER_6
 10
87.2611
 20
-108.9268
  0
VERTEX
  8
LAYER_6
 10
88.2837
 20
-108.9268
  0
VERTEX
  8
LAYER_6
 10
88.2837
 20
-106.9723
  0
SEQEND
  0
POLYLINE
  8
LAYER_6
 40
0.0353
 41
0.0353
 66
1
 10
0
 20
0
 30
0
  0
VERTEX
  8
LAYER_6
 10
83.5479
 20
-106.9723
  0
VERTEX
  8
LAYER_6
 10
83.5479
 20
-105.6723
  0
SEQEND
  0
POLYLINE
  8
LAYER_6
 40
0.0353
 41
0.0353
 66
1
 10
0
 20
0
 30
0
  0
VERTEX
  8
LAYER_6
 10
83.5382
 20
-105.6723
  0
VERTEX
  8
LAYER_6
 10
83.5382
 20
-106.9723
  0
SEQEND
  0
POLYLINE
  8
LAYER_6
 40
0.0353
 41
0.0353
 66
1
 10
0
 20
0
 30
0
  0
VERTEX
  8
LAYER_6
 10
85.0646
 20
-105.6723
  0
VERTEX
  8
LAYER_6
 10
85.0646
 20
-106.9723
  0
SEQEND
  0
POLYLINE
  8
LAYER_6
 40
0.0353
 41
0.0353
 66
1
 10
0
 20
0
 30
0
  0
VERTEX
  8
LAYER_6
 10
84.6715
 20
-105.6723
  0
VERTEX
  8
LAYER_6
 10
84.6715
 20
-106.9723
  0
SEQEND
  0
POLYLINE
  8
LAYER_6
 40
0.2469
 41
0.2469
 66
1
 10
0
 20
0
 30
0
  0
VERTEX
  8
LAYER_6
 10
88.8382
 20
-106.9723
  0
VERTEX
  8
LAYER_6
 10
86.1882
 20
-106.9723
  0
VERTEX
  8
LAYER_6
 10
83.5382
 20
-106.9723
  0
SEQEND
  0
POLYLINE
  8
LAYER_6
 40
0.0353
 41
0.0353
 66
1
 10
0
 20
0
 30
0
  0
VERTEX
  8
LAYER_6
 10
88.8285
 20
-106.9723
  0
VERTEX
  8
LAYER_6
 10
88.8285
 20
-105.6723
  0
SEQEND
  0
POLYLINE
  8
LAYER_6
 40
0.0353
 41
0.0353
 66
1
 10
0
 20
0
 30
0
  0
VERTEX
  8
LAYER_6
 10
88.8382
 20
-105.6723
  0
VERTEX
  8
LAYER_6
 10
88.8382
 20
-106.9723
  0
SEQEND
  0
POLYLINE
  8
LAYER_6
 40
0.0353
 41
0.0353
 66
1
 10
0
 20
0
 30
0
  0
VERTEX
  8
LAYER_6
 10
87.3118
 20
-105.6723
  0
VERTEX
  8
LAYER_6
 10
87.3118
 20
-106.9723
  0
SEQEND
  0
POLYLINE
  8
LAYER_6
 40
0.0353
 41
0.0353
 66
1
 10
0
 20
0
 30
0
  0
VERTEX
  8
LAYER_6
 10
87.7048
 20
-105.6723
  0
VERTEX
  8
LAYER_6
 10
87.7048
 20
-106.9723
  0
SEQEND
  0
POLYLINE
  8
LAYER_6
 40
0.0353
 41
0.0353
 66
1
 10
0
 20
0
 30
0
 70
1
  0
VERTEX
  8
LAYER_6
 10
87.2611
 20
-108.9268
 42
-0.1362637262
  0
VERTEX
  8
LAYER_6
 10
86.1882
 20
-109.2223
 42
-0.1362640782
  0
VERTEX
  8
LAYER_6
 10
85.1153
 20
-108.9268
  0
VERTEX
  8
LAYER_6
 10
85.1153
 20
-108.0723
  0
VERTEX
  8
LAYER_6
 10
86.1882
 20
-108.0723
  0
VERTEX
  8
LAYER_6
 10
87.2611
 20
-108.0723
  0
SEQEND
  0
POLYLINE
  8
LAYER_6
 40
0.1482
 41
0.1482
 66
1
 10
0
 20
0
 30
0
  0
VERTEX
  8
LAYER_6
 10
88.7282
 20
-97.5723
  0
VERTEX
  8
LAYER_6
 10
89.9689
 20
-98.1197
 42
-0.2946750244
  0
VERTEX
  8
LAYER_6
 10
90.0882
 20
-98.3027
  0
VERTEX
  8
LAYER_6
 10
90.0882
 20
-100.1123
  0
SEQEND
  0
POLYLINE
  8
LAYER_6
 40
0.0353
 41
0.0353
 66
1
 10
0
 20
0
 30
0
  0
VERTEX
  8
LAYER_6
 10
83.6482
 20
-97.5723
  0
VERTEX
  8
LAYER_6
 10
86.1882
 20
-97.5723
  0
VERTEX
  8
LAYER_6
 10
88.7282
 20
-97.5723
  0
SEQEND
  0
POLYLINE
  8
LAYER_6
 40
0.1482
 41
0.1482
 66
1
 10
0
 20
0
 30
0
  0
VERTEX
  8
LAYER_6
 10
83.6482
 20
-97.5723
  0
VERTEX
  8
LAYER_6
 10
82.4075
 20
-98.1197
 42
0.294699815
  0
VERTEX
  8
LAYER_6
 10
82.2882
 20
-98.3027
  0
VERTEX
  8
LAYER_6
 10
82.2882
 20
-100.1123
  0
SEQEND
  0
POLYLINE
  8
LAYER_6
 40
0.0353
 41
0.0353
 66
1
 10
0
 20
0
 30
0
  0
VERTEX
  8
LAYER_6
 10
82.6882
 20
-100.1723
  0
VERTEX
  8
LAYER_6
 10
82.6882
 20
-100.5723
  0
VERTEX
  8
LAYER_6
 10
86.1882
 20
-100.5723
  0
VERTEX
  8
LAYER_6
 10
89.6882
 20
-100.5723
  0
VERTEX
  8
LAYER_6
 10
89.6882
 20
-100.1723
  0
SEQEND
  0
POLYLINE
  8
LAYER_6
 40
0.0353
 41
0.0353
 66
1
 10
0
 20
0
 30
0
 70
1
  0
VERTEX
  8
LAYER_6
 10
86.1882
 20
-100.1723
  0
VERTEX
  8
LAYER_6
 10
82.3482
 20
-100.1723
  0
VERTEX
  8
LAYER_6
 10
82.2882
 20
-100.1123
  0
VERTEX
  8
LAYER_6
 10
86.1882
 20
-100.1123
  0
VERTEX
  8
LAYER_6
 10
90.0882
 20
-100.1123
  0
VERTEX
  8
LAYER_6
 10
90.0282
 20
-100.1723
  0
SEQEND
  0
POLYLINE
  8
LAYER_6
 40
0.0353
 41
0.0353
 66
1
 10
0
 20
0
 30
0
  0
VERTEX
  8
LAYER_6
 10
82.4075
 20
-98.1723
  0
VERTEX
  8
LAYER_6
 10
86.1882
 20
-98.1723
  0
VERTEX
  8
LAYER_6
 10
89.9689
 20
-98.1723
  0
SEQEND
  0
POLYLINE
  8
LAYER_6
 40
0.0353
 41
0.0353
 66
1
 10
0
 20
0
 30
0
 70
1
  0
VERTEX
  8
LAYER_6
 10
82.7882
 20
-105.0723
  0
VERTEX
  8
LAYER_6
 10
89.5882
 20
-105.0723
  0
VERTEX
  8
LAYER_6
 10
89.5882
 20
-105.4723
  0
VERTEX
  8
LAYER_6
 10
82.7882
 20
-105.4723
  0
SEQEND
  0
POLYLINE
  8
LAYER_6
 40
0.2469
 41
0.2469
 66
1
 10
0
 20
0
 30
0
 70
1
  0
VERTEX
  8
LAYER_6
 10
166.9074
 20
-105.4723
  0
VERTEX
  8
LAYER_6
 10
170.5074
 20
-105.4723
  0
VERTEX
  8
LAYER_6
 10
170.5074
 20
-105.6723
  0
VERTEX
  8
LAYER_6
 10
166.9074
 20
-105.6723
  0
VERTEX
  8
LAYER_6
 10
163.3074
 20
-105.6723
  0
VERTEX
  8
LAYER_6
 10
163.3074
 20
-105.4723
  0
SEQEND
  0
POLYLINE
  8
LAYER_6
 40
0.0353
 41
0.0353
 66
1
 10
0
 20
0
 30
0
  0
VERTEX
  8
LAYER_6
 10
163.4074
 20
-100.1723
  0
VERTEX
  8
LAYER_6
 10
163.4074
 20
-100.5723
  0
VERTEX
  8
LAYER_6
 10
166.9074
 20
-100.5723
  0
VERTEX
  8
LAYER_6
 10
170.4074
 20
-100.5723
  0
VERTEX
  8
LAYER_6
 10
170.4074
 20
-100.1723
  0
SEQEND
  0
POLYLINE
  8
LAYER_6
 40
0.0353
 41
0.0353
 66
1
 10
0
 20
0
 30
0
  0
VERTEX
  8
LAYER_6
 10
167.2774
 20
-109.2723
  0
VERTEX
  8
LAYER_6
 10
167.2774
 20
-125.3979
  0
SEQEND
  0
POLYLINE
  8
LAYER_6
 40
0.0353
 41
0.0353
 66
1
 10
0
 20
0
 30
0
  0
VERTEX
  8
LAYER_6
 10
165.4774
 20
-109.2723
  0
VERTEX
  8
LAYER_6
 10
165.4774
 20
-125.3979
  0
SEQEND
  0
POLYLINE
  8
LAYER_6
 40
0.0353
 41
0.0353
 66
1
 10
0
 20
0
 30
0
 70
1
  0
VERTEX
  8
LAYER_6
 10
163.5074
 20
-105.0723
  0
VERTEX
  8
LAYER_6
 10
166.9074
 20
-105.0723
  0
VERTEX
  8
LAYER_6
 10
170.3074
 20
-105.0723
  0
VERTEX
  8
LAYER_6
 10
170.3074
 20
-105.4723
  0
VERTEX
  8
LAYER_6
 10
166.9074
 20
-105.4723
  0
VERTEX
  8
LAYER_6
 10
163.5074
 20
-105.4723
  0
SEQEND
  0
POLYLINE
  8
LAYER_6
 40
0.0353
 41
0.0353
 66
1
 10
0
 20
0
 30
0
  0
VERTEX
  8
LAYER_6
 10
169.0029
 20
-105.0723
  0
VERTEX
  8
LAYER_6
 10
169.0029
 20
-100.5723
  0
SEQEND
  0
POLYLINE
  8
LAYER_6
 40
0.0353
 41
0.0353
 66
1
 10
0
 20
0
 30
0
  0
VERTEX
  8
LAYER_6
 10
168.7705
 20
-108.0723
  0
VERTEX
  8
LAYER_6
 10
168.7705
 20
-106.9723
  0
SEQEND
  0
POLYLINE
  8
LAYER_6
 40
0.0353
 41
0.0353
 66
1
 10
0
 20
0
 30
0
  0
VERTEX
  8
LAYER_6
 10
168.772
 20
-100.5723
  0
VERTEX
  8
LAYER_6
 10
168.7705
 20
-100.5749
  0
VERTEX
  8
LAYER_6
 10
168.7705
 20
-105.0723
  0
SEQEND
  0
POLYLINE
  8
LAYER_6
 40
0.1482
 41
0.1482
 66
1
 10
0
 20
0
 30
0
  0
VERTEX
  8
LAYER_6
 10
170.6881
 20
-98.1197
 42
-0.2947098748
  0
VERTEX
  8
LAYER_6
 10
170.8074
 20
-98.3027
  0
VERTEX
  8
LAYER_6
 10
170.8074
 20
-100.1123
  0
SEQEND
  0
POLYLINE
  8
LAYER_6
 40
0.0353
 41
0.0353
 66
1
 10
0
 20
0
 30
0
  0
VERTEX
  8
LAYER_6
 10
164.8119
 20
-105.0723
  0
VERTEX
  8
LAYER_6
 10
164.8119
 20
-100.5723
  0
SEQEND
  0
POLYLINE
  8
LAYER_6
 40
0.0353
 41
0.0353
 66
1
 10
0
 20
0
 30
0
  0
VERTEX
  8
LAYER_6
 10
165.0443
 20
-108.0723
  0
VERTEX
  8
LAYER_6
 10
165.0443
 20
-106.9723
  0
SEQEND
  0
POLYLINE
  8
LAYER_6
 40
0.0353
 41
0.0353
 66
1
 10
0
 20
0
 30
0
  0
VERTEX
  8
LAYER_6
 10
165.0443
 20
-100.5749
  0
VERTEX
  8
LAYER_6
 10
164.8119
 20
-100.5749
  0
VERTEX
  8
LAYER_6
 10
166.9074
 20
-100.5749
  0
VERTEX
  8
LAYER_6
 10
169.0029
 20
-100.5749
  0
VERTEX
  8
LAYER_6
 10
168.7705
 20
-100.5749
  0
SEQEND
  0
POLYLINE
  8
LAYER_6
 40
0.0353
 41
0.0353
 66
1
 10
0
 20
0
 30
0
  0
VERTEX
  8
LAYER_6
 10
165.0429
 20
-100.5723
  0
VERTEX
  8
LAYER_6
 10
165.0443
 20
-100.5749
  0
VERTEX
  8
LAYER_6
 10
165.0443
 20
-105.0723
  0
SEQEND
  0
POLYLINE
  8
LAYER_6
 40
0.1482
 41
0.1482
 66
1
 10
0
 20
0
 30
0
  0
VERTEX
  8
LAYER_6
 10
163.1267
 20
-98.1197
 42
0.294664966
  0
VERTEX
  8
LAYER_6
 10
163.0074
 20
-98.3027
  0
VERTEX
  8
LAYER_6
 10
163.0074
 20
-100.1123
  0
SEQEND
  0
POLYLINE
  8
LAYER_6
 40
0.0353
 41
0.0353
 66
1
 10
0
 20
0
 30
0
  0
VERTEX
  8
LAYER_6
 10
163.1267
 20
-98.1197
  0
VERTEX
  8
LAYER_6
 10
164.3674
 20
-97.5723
  0
VERTEX
  8
LAYER_6
 10
166.9074
 20
-97.5723
  0
VERTEX
  8
LAYER_6
 10
169.4474
 20
-97.5723
  0
VERTEX
  8
LAYER_6
 10
170.6881
 20
-98.1197
  0
SEQEND
  0
POLYLINE
  8
LAYER_6
  6
AIGENLINE001
 40
0.0882
 41
0.0882
 62
70
 66
1
 10
0
 20
0
 30
0
 70
128
  0
VERTEX
  8
LAYER_6
 10
166.3774
 20
-108.8182
  0
VERTEX
  8
LAYER_6
 10
166.3774
 20
-182.889
  0
SEQEND
  0
POLYLINE
  8
LAYER_6
 40
0.0353
 41
0.0353
 66
1
 10
0
 20
0
 30
0
  0
VERTEX
  8
LAYER_6
 10
168.3992
 20
-109.2723
 42
0.3113646433
  0
VERTEX
  8
LAYER_6
 10
169.3374
 20
-109.9264
  0
VERTEX
  8
LAYER_6
 10
177.1853
 20
-109.9264
  0
SEQEND
  0
POLYLINE
  8
LAYER_6
 40
0.0353
 41
0.0353
 66
1
 10
0
 20
0
 30
0
  0
VERTEX
  8
LAYER_6
 10
177.1853
 20
-110.9664
  0
VERTEX
  8
LAYER_6
 10
169.3374
 20
-110.9664
 42
-0.3624256165
  0
VERTEX
  8
LAYER_6
 10
167.327
 20
-109.2723
  0
SEQEND
  0
POLYLINE
  8
LAYER_6
  6
AIGENLINE001
 40
0.0353
 41
0.0353
 66
1
 10
0
 20
0
 30
0
 70
128
  0
VERTEX
  8
LAYER_6
 10
147.666
 20
-92.3855
  0
VERTEX
  8
LAYER_6
 10
153.2378
 20
-84.9915
 42
-0.2346442987
  0
VERTEX
  8
LAYER_6
 10
159.3074
 20
-81.9653
 42
-0.4142069379
  0
VERTEX
  8
LAYER_6
 10
166.9074
 20
-89.5653
  0
VERTEX
  8
LAYER_6
 10
166.9074
 20
-113.9802
  0
SEQEND
  0
POLYLINE
  8
LAYER_6
 40
0.0353
 41
0.0353
 66
1
 10
0
 20
0
 30
0
  0
VERTEX
  8
LAYER_6
 10
152.0847
 20
-90.7339
 42
0.1615652286
  0
VERTEX
  8
LAYER_6
 10
152.2051
 20
-90.7742
 42
0.2346062837
  0
VERTEX
  8
LAYER_6
 10
152.3648
 20
-90.6946
  0
VERTEX
  8
LAYER_6
 10
152.7019
 20
-90.2473
 42
0.1613148297
  0
VERTEX
  8
LAYER_6
 10
152.7421
 20
-90.127
 42
0.2346239407
  0
VERTEX
  8
LAYER_6
 10
152.6625
 20
-89.9673
  0
SEQEND
  0
POLYLINE
  8
LAYER_6
 40
0.0353
 41
0.0353
 66
1
 10
0
 20
0
 30
0
  0
VERTEX
  8
LAYER_6
 10
147.9012
 20
-90.9872
  0
VERTEX
  8
LAYER_6
 10
147.88
 20
-91.0668
 42
0.2309304392
  0
VERTEX
  8
LAYER_6
 10
147.9437
 20
-91.1945
  0
VERTEX
  8
LAYER_6
 10
148.9739
 20
-91.9709
  0
VERTEX
  8
LAYER_6
 10
150.0042
 20
-92.7472
  0
VERTEX
  8
LAYER_6
 10
150.1005
 20
-92.7794
 42
0.2008135189
  0
VERTEX
  8
LAYER_6
 10
150.2152
 20
-92.7309
  0
SEQEND
  0
POLYLINE
  8
LAYER_6
  6
AIGENLINE001
 40
0.0353
 41
0.0353
 66
1
 10
0
 20
0
 30
0
 70
128
  0
VERTEX
  8
LAYER_6
 10
148.4814
 20
-92.6245
  0
VERTEX
  8
LAYER_6
 10
149.666
 20
-91.0525
  0
SEQEND
  0
POLYLINE
  8
LAYER_6
 40
0.0353
 41
0.0353
 66
1
 10
0
 20
0
 30
0
 70
1
  0
VERTEX
  8
LAYER_6
 10
151.2093
 20
-83.4629
  0
VERTEX
  8
LAYER_6
 10
146.491
 20
-89.7242
  0
VERTEX
  8
LAYER_6
 10
146.4588
 20
-89.8205
 42
0.2310713163
  0
VERTEX
  8
LAYER_6
 10
146.5225
 20
-89.9483
  0
VERTEX
  8
LAYER_6
 10
148.4233
 20
-91.3806
  0
VERTEX
  8
LAYER_6
 10
150.324
 20
-92.8129
  0
VERTEX
  8
LAYER_6
 10
150.4203
 20
-92.8452
 42
0.2304906636
  0
VERTEX
  8
LAYER_6
 10
150.5481
 20
-92.7815
  0
VERTEX
  8
LAYER_6
 10
155.2663
 20
-86.5202
 42
-0.2346480298
  0
VERTEX
  8
LAYER_6
 10
159.3074
 20
-84.5053
 42
-0.4142065303
  0
VERTEX
  8
LAYER_6
 10
164.3674
 20
-89.5653
  0
VERTEX
  8
LAYER_6
 10
164.3674
 20
-97.5123
 42
0.3931565731
  0
VERTEX
  8
LAYER_6
 10
164.4274
 20
-97.5723
  0
VERTEX
  8
LAYER_6
 10
169.3874
 20
-97.5723
 42
0.3936044483
  0
VERTEX
  8
LAYER_6
 10
169.4474
 20
-97.5123
  0
VERTEX
  8
LAYER_6
 10
169.4474
 20
-89.5653
 42
0.4142071413
  0
VERTEX
  8
LAYER_6
 10
159.3074
 20
-79.4253
 42
0.2346445054
  0
SEQEND
  0
POLYLINE
  8
LAYER_6
 40
0.0353
 41
0.0353
 66
1
 10
0
 20
0
 30
0
  0
VERTEX
  8
LAYER_6
 10
84.7392
 20
-91.4783
  0
VERTEX
  8
LAYER_6
 10
84.7392
 20
-91.9073
  0
SEQEND
  0
POLYLINE
  8
LAYER_6
 40
0.0353
 41
0.0353
 66
1
 10
0
 20
0
 30
0
  0
VERTEX
  8
LAYER_6
 10
88.4851
 20
-91.3207
  0
VERTEX
  8
LAYER_6
 10
88.4851
 20
-91.3225
 42
-0.4142974018
  0
VERTEX
  8
LAYER_6
 10
88.2974
 20
-91.5102
  0
VERTEX
  8
LAYER_6
 10
88.2696
 20
-91.5081
  0
VERTEX
  8
LAYER_6
 10
87.7691
 20
-91.5081
  0
VERTEX
  8
LAYER_6
 10
87.7518
 20
-91.5088
 42
-0.2193294953
  0
VERTEX
  8
LAYER_6
 10
87.5821
 20
-91.4305
 42
0.1531744093
  0
VERTEX
  8
LAYER_6
 10
87.0353
 20
-91.0107
 42
0.1878086598
  0
VERTEX
  8
LAYER_6
 10
85.3431
 20
-91.0107
 42
0.1531725477
  0
VERTEX
  8
LAYER_6
 10
84.7963
 20
-91.4305
 42
-0.2193389618
  0
VERTEX
  8
LAYER_6
 10
84.6266
 20
-91.5088
  0
VERTEX
  8
LAYER_6
 10
84.6093
 20
-91.5081
  0
VERTEX
  8
LAYER_6
 10
84.1088
 20
-91.5081
  0
VERTEX
  8
LAYER_6
 10
84.081
 20
-91.5102
 42
-0.2930989114
  0
VERTEX
  8
LAYER_6
 10
83.9097
 20
-91.3993
  0
VERTEX
  8
LAYER_6
 10
83.8961
 20
-91.2772
  0
SEQEND
  0
POLYLINE
  8
LAYER_6
 40
0.0353
 41
0.0353
 66
1
 10
0
 20
0
 30
0
  0
VERTEX
  8
LAYER_6
 10
87.4698
 20
-92.1402
  0
VERTEX
  8
LAYER_6
 10
87.4986
 20
-92.1379
  0
SEQEND
  0
POLYLINE
  8
LAYER_6
 40
0.0353
 41
0.0353
 66
1
 10
0
 20
0
 30
0
  0
VERTEX
  8
LAYER_6
 10
86.8966
 20
-91.6371
 42
-0.1486769288
  0
VERTEX
  8
LAYER_6
 10
87.1042
 20
-91.9028
  0
VERTEX
  8
LAYER_6
 10
87.1448
 20
-91.9349
  0
SEQEND
  0
POLYLINE
  8
LAYER_6
 40
0.0353
 41
0.0353
 66
1
 10
0
 20
0
 30
0
  0
VERTEX
  8
LAYER_6
 10
85.2349
 20
-91.9306
  0
VERTEX
  8
LAYER_6
 10
85.2755
 20
-91.8987
 42
-0.1478191957
  0
VERTEX
  8
LAYER_6
 10
85.4859
 20
-91.6345
  0
SEQEND
  0
POLYLINE
  8
LAYER_6
 40
0.0353
 41
0.0353
 66
1
 10
0
 20
0
 30
0
  0
VERTEX
  8
LAYER_6
 10
85.2743
 20
-92.1034
 42
0.2116579739
  0
VERTEX
  8
LAYER_6
 10
85.6257
 20
-92.4483
 42
0.2022388301
  0
VERTEX
  8
LAYER_6
 10
86.7472
 20
-92.4508
 42
0.2100411832
  0
VERTEX
  8
LAYER_6
 10
87.1029
 20
-92.1075
  0
SEQEND
  0
POLYLINE
  8
LAYER_6
 40
0.0353
 41
0.0353
 66
1
 10
0
 20
0
 30
0
  0
VERTEX
  8
LAYER_6
 10
85.3386
 20
-91.7816
 42
0.2064551671
  0
VERTEX
  8
LAYER_6
 10
86.1177
 20
-92.1177
  0
VERTEX
  8
LAYER_6
 10
86.1858
 20
-92.1155
  0
VERTEX
  8
LAYER_6
 10
86.2852
 20
-92.1205
 42
0.2139698139
  0
VERTEX
  8
LAYER_6
 10
87.0399
 20
-91.7816
  0
SEQEND
  0
POLYLINE
  8
LAYER_6
 40
0.0353
 41
0.0353
 66
1
 10
0
 20
0
 30
0
  0
VERTEX
  8
LAYER_6
 10
85.2743
 20
-91.9631
  0
VERTEX
  8
LAYER_6
 10
84.8786
 20
-92.132
  0
SEQEND
  0
POLYLINE
  8
LAYER_6
 40
0.0353
 41
0.0353
 66
1
 10
0
 20
0
 30
0
  0
VERTEX
  8
LAYER_6
 10
87.1029
 20
-91.9671
  0
VERTEX
  8
LAYER_6
 10
87.4986
 20
-92.1379
  0
VERTEX
  8
LAYER_6
 10
87.4998
 20
-91.9332
  0
VERTEX
  8
LAYER_6
 10
87.4711
 20
-91.9356
  0
SEQEND
  0
POLYLINE
  8
LAYER_6
 40
0.0353
 41
0.0353
 66
1
 10
0
 20
0
 30
0
  0
VERTEX
  8
LAYER_6
 10
84.9098
 20
-92.1345
  0
VERTEX
  8
LAYER_6
 10
85.2336
 20
-92.1352
  0
SEQEND
  0
POLYLINE
  8
LAYER_6
 40
0.0353
 41
0.0353
 66
1
 10
0
 20
0
 30
0
  0
VERTEX
  8
LAYER_6
 10
87.1436
 20
-92.1395
 42
-0.1831744015
  0
VERTEX
  8
LAYER_6
 10
86.907
 20
-92.4277
 42
-0.1603322034
  0
VERTEX
  8
LAYER_6
 10
86.0956
 20
-92.6161
 42
-0.1316406203
  0
VERTEX
  8
LAYER_6
 10
85.4666
 20
-92.4245
 42
-0.1680459189
  0
VERTEX
  8
LAYER_6
 10
85.2336
 20
-92.1352
  0
VERTEX
  8
LAYER_6
 10
85.2743
 20
-92.1034
  0
VERTEX
  8
LAYER_6
 10
85.2743
 20
-91.9631
  0
VERTEX
  8
LAYER_6
 10
85.2657
 20
-91.9065
  0
SEQEND
  0
POLYLINE
  8
LAYER_6
 40
0.0353
 41
0.0353
 66
1
 10
0
 20
0
 30
0
  0
VERTEX
  8
LAYER_6
 10
87.1128
 20
-91.9096
  0
VERTEX
  8
LAYER_6
 10
87.1029
 20
-91.9671
  0
VERTEX
  8
LAYER_6
 10
87.1029
 20
-92.1075
  0
VERTEX
  8
LAYER_6
 10
87.1436
 20
-92.1395
  0
VERTEX
  8
LAYER_6
 10
87.4673
 20
-92.1402
 42
-0.2011940947
  0
VERTEX
  8
LAYER_6
 10
87.1106
 20
-92.5784
 42
-0.1334709411
  0
VERTEX
  8
LAYER_6
 10
86.1844
 20
-92.8114
 42
-0.1395505584
  0
VERTEX
  8
LAYER_6
 10
85.2612
 20
-92.5743
 42
-0.2027265716
  0
VERTEX
  8
LAYER_6
 10
84.9098
 20
-92.1345
  0
VERTEX
  8
LAYER_6
 10
84.8786
 20
-92.132
  0
VERTEX
  8
LAYER_6
 10
84.8798
 20
-91.9274
  0
VERTEX
  8
LAYER_6
 10
84.9111
 20
-91.9299
  0
VERTEX
  8
LAYER_6
 10
85.2349
 20
-91.9306
 42
-0.1831541499
  0
VERTEX
  8
LAYER_6
 10
85.4714
 20
-91.6424
 42
-0.1603516086
  0
VERTEX
  8
LAYER_6
 10
86.2829
 20
-91.454
 42
-0.1316220333
  0
VERTEX
  8
LAYER_6
 10
86.9118
 20
-91.6456
 42
-0.1680525754
  0
VERTEX
  8
LAYER_6
 10
87.1448
 20
-91.9349
  0
VERTEX
  8
LAYER_6
 10
87.4686
 20
-91.9356
 42
0.2027012352
  0
VERTEX
  8
LAYER_6
 10
87.1173
 20
-91.4958
 42
0.1395642287
  0
VERTEX
  8
LAYER_6
 10
86.194
 20
-91.2587
 42
0.1334588672
  0
VERTEX
  8
LAYER_6
 10
85.2679
 20
-91.4917
 42
0.2012218725
  0
VERTEX
  8
LAYER_6
 10
84.9111
 20
-91.9299
  0
SEQEND
  0
POLYLINE
  8
LAYER_6
 40
0.0353
 41
0.0353
 66
1
 10
0
 20
0
 30
0
  0
VERTEX
  8
LAYER_6
 10
87.6392
 20
-91.4783
  0
VERTEX
  8
LAYER_6
 10
87.6392
 20
-91.9119
 42
0.147279226
  0
VERTEX
  8
LAYER_6
 10
87.5409
 20
-91.5915
 42
0.1510402965
  0
VERTEX
  8
LAYER_6
 10
87.0105
 20
-91.1881
 42
0.162246632
  0
VERTEX
  8
LAYER_6
 10
85.5649
 20
-91.1196
 42
0.1299210263
  0
VERTEX
  8
LAYER_6
 10
84.9362
 20
-91.4681
 42
0.200215678
  0
VERTEX
  8
LAYER_6
 10
84.7392
 20
-91.9075
 42
0.2098953383
  0
VERTEX
  8
LAYER_6
 10
84.9748
 20
-92.4247
 42
0.1242154691
  0
VERTEX
  8
LAYER_6
 10
85.5822
 20
-92.7596
 42
0.0702596671
  0
VERTEX
  8
LAYER_6
 10
86.1841
 20
-92.8436
 42
0.1370810026
  0
VERTEX
  8
LAYER_6
 10
87.2024
 20
-92.5819
 42
0.1747610788
  0
VERTEX
  8
LAYER_6
 10
87.6055
 20
-92.1115
  0
VERTEX
  8
LAYER_6
 10
87.6392
 20
-91.9119
  0
SEQEND
  0
POLYLINE
  8
LAYER_6
 40
0.0353
 41
0.0353
 66
1
 10
0
 20
0
 30
0
  0
VERTEX
  8
LAYER_6
 10
164.8119
 20
-106.9723
  0
VERTEX
  8
LAYER_6
 10
164.8119
 20
-108.0723
  0
VERTEX
  8
LAYER_6
 10
165.1074
 20
-108.0723
  0
VERTEX
  8
LAYER_6
 10
165.1074
 20
-109.2678
  0
VERTEX
  8
LAYER_6
 10
165.1119
 20
-109.2723
  0
VERTEX
  8
LAYER_6
 10
166.9074
 20
-109.2723
  0
VERTEX
  8
LAYER_6
 10
168.7029
 20
-109.2723
  0
VERTEX
  8
LAYER_6
 10
168.7074
 20
-109.2678
  0
VERTEX
  8
LAYER_6
 10
168.7074
 20
-108.0723
  0
VERTEX
  8
LAYER_6
 10
169.0029
 20
-108.0723
  0
VERTEX
  8
LAYER_6
 10
169.0029
 20
-106.9723
  0
SEQEND
  0
POLYLINE
  8
LAYER_6
  6
AIGENLINE001
 40
0.0353
 41
0.0353
 66
1
 10
0
 20
0
 30
0
 70
128
  0
VERTEX
  8
LAYER_6
 10
146.5065
 20
-89.9363
  0
VERTEX
  8
LAYER_6
 10
146.3947
 20
-89.852
  0
VERTEX
  8
LAYER_6
 10
146.491
 20
-89.7242
  0
SEQEND
  0
POLYLINE
  8
LAYER_6
 40
0.0353
 41
0.0353
 66
1
 10
0
 20
0
 30
0
  0
VERTEX
  8
LAYER_6
 10
165.4774
 20
-125.3979
 42
-0.3987666331
  0
VERTEX
  8
LAYER_6
 10
165.8374
 20
-125.3979
 42
0.190485421
  0
VERTEX
  8
LAYER_6
 10
166.0174
 20
-125.4699
 42
0.1905235853
  0
VERTEX
  8
LAYER_6
 10
166.1974
 20
-125.3979
 42
-0.1902859024
  0
VERTEX
  8
LAYER_6
 10
166.3774
 20
-125.3259
 42
-0.1900621464
  0
VERTEX
  8
LAYER_6
 10
166.5574
 20
-125.3979
 42
0.190485421
  0
VERTEX
  8
LAYER_6
 10
166.7374
 20
-125.4699
 42
0.1905235853
  0
VERTEX
  8
LAYER_6
 10
166.9174
 20
-125.3979
 42
-0.1902859024
  0
VERTEX
  8
LAYER_6
 10
167.0974
 20
-125.3259
 42
-0.1900621464
  0
VERTEX
  8
LAYER_6
 10
167.2774
 20
-125.3979
  0
SEQEND
  0
POLYLINE
  8
LAYER_6
 40
0.0353
 41
0.0353
 66
1
 10
0
 20
0
 30
0
  0
VERTEX
  8
LAYER_6
 10
177.1853
 20
-109.9264
 42
-0.3987755014
  0
VERTEX
  8
LAYER_6
 10
177.1853
 20
-110.1344
 42
0.1903088488
  0
VERTEX
  8
LAYER_6
 10
177.1437
 20
-110.2384
 42
0.1914965406
  0
VERTEX
  8
LAYER_6
 10
177.1853
 20
-110.3424
 42
-0.1902495723
  0
VERTEX
  8
LAYER_6
 10
177.2269
 20
-110.4464
 42
-0.1905764271
  0
VERTEX
  8
LAYER_6
 10
177.1853
 20
-110.5504
 42
0.1903088488
  0
VERTEX
  8
LAYER_6
 10
177.1437
 20
-110.6544
 42
0.1914965406
  0
VERTEX
  8
LAYER_6
 10
177.1853
 20
-110.7584
 42
-0.1902495723
  0
VERTEX
  8
LAYER_6
 10
177.2269
 20
-110.8624
 42
-0.1905764271
  0
VERTEX
  8
LAYER_6
 10
177.1853
 20
-110.9664
  0
SEQEND
  0
POLYLINE
  8
LAYER_6
 40
0.0353
 41
0.0353
 66
1
 10
0
 20
0
 30
0
  0
VERTEX
  8
LAYER_6
 10
177.5853
 20
-109.9264
 42
-0.3987755014
  0
VERTEX
  8
LAYER_6
 10
177.5853
 20
-110.1344
 42
0.1903088488
  0
VERTEX
  8
LAYER_6
 10
177.5437
 20
-110.2384
 42
0.1914965406
  0
VERTEX
  8
LAYER_6
 10
177.5853
 20
-110.3424
 42
-0.1902495723
  0
VERTEX
  8
LAYER_6
 10
177.6269
 20
-110.4464
 42
-0.1905764271
  0
VERTEX
  8
LAYER_6
 10
177.5853
 20
-110.5504
 42
0.1903088488
  0
VERTEX
  8
LAYER_6
 10
177.5437
 20
-110.6544
 42
0.1914965406
  0
VERTEX
  8
LAYER_6
 10
177.5853
 20
-110.7584
 42
-0.1902495723
  0
VERTEX
  8
LAYER_6
 10
177.6269
 20
-110.8624
 42
-0.1905764271
  0
VERTEX
  8
LAYER_6
 10
177.5853
 20
-110.9664
  0
SEQEND
  0
POLYLINE
  8
LAYER_6
 40
0.0353
 41
0.0353
 66
1
 10
0
 20
0
 30
0
  0
VERTEX
  8
LAYER_6
 10
79.8362
 20
-159.1079
  0
VERTEX
  8
LAYER_6
 10
79.8453
 20
-159.2138
  0
SEQEND
  0
POLYLINE
  8
LAYER_6
 40
0.0353
 41
0.0353
 66
1
 10
0
 20
0
 30
0
  0
VERTEX
  8
LAYER_6
 10
79.7441
 20
-174.5514
  0
VERTEX
  8
LAYER_6
 10
79.7439
 20
-174.5957
  0
VERTEX
  8
LAYER_6
 10
79.7464
 20
-174.7691
  0
SEQEND
  0
POLYLINE
  8
LAYER_6
 40
0.0353
 41
0.0353
 66
1
 10
0
 20
0
 30
0
 70
1
  0
VERTEX
  8
LAYER_6
 10
90.1682
 20
-175.1354
  0
VERTEX
  8
LAYER_6
 10
90.3336
 20
-174.97
  0
VERTEX
  8
LAYER_6
 10
90.5882
 20
-174.97
  0
VERTEX
  8
LAYER_6
 10
90.3686
 20
-175.1896
  0
VERTEX
  8
LAYER_6
 10
90.5882
 20
-175.57
  0
VERTEX
  8
LAYER_6
 10
90.3803
 20
-175.57
  0
VERTEX
  8
LAYER_6
 10
90.2368
 20
-175.3214
  0
VERTEX
  8
LAYER_6
 10
90.1682
 20
-175.39
  0
VERTEX
  8
LAYER_6
 10
90.1682
 20
-175.57
  0
VERTEX
  8
LAYER_6
 10
89.9882
 20
-175.57
  0
VERTEX
  8
LAYER_6
 10
89.9882
 20
-174.97
  0
VERTEX
  8
LAYER_6
 10
90.1682
 20
-174.97
  0
SEQEND
  0
POLYLINE
  8
LAYER_6
 40
0.0353
 41
0.0353
 66
1
 10
0
 20
0
 30
0
 70
1
  0
VERTEX
  8
LAYER_6
 10
89.6882
 20
-174.97
  0
VERTEX
  8
LAYER_6
 10
89.4698
 20
-175.57
  0
VERTEX
  8
LAYER_6
 10
89.3066
 20
-175.57
  0
VERTEX
  8
LAYER_6
 10
89.0882
 20
-174.97
  0
VERTEX
  8
LAYER_6
 10
89.2797
 20
-174.97
  0
VERTEX
  8
LAYER_6
 10
89.3882
 20
-175.268
  0
VERTEX
  8
LAYER_6
 10
89.4966
 20
-174.97
  0
SEQEND
  0
POLYLINE
  8
LAYER_6
 40
0.0353
 41
0.0353
 66
1
 10
0
 20
0
 30
0
 70
1
  0
VERTEX
  8
LAYER_6
 10
88.1882
 20
-174.97
  0
VERTEX
  8
LAYER_6
 10
88.3682
 20
-174.97
  0
VERTEX
  8
LAYER_6
 10
88.3682
 20
-175.1354
  0
VERTEX
  8
LAYER_6
 10
88.5336
 20
-174.97
  0
VERTEX
  8
LAYER_6
 10
88.7882
 20
-174.97
  0
VERTEX
  8
LAYER_6
 10
88.5686
 20
-175.1896
  0
VERTEX
  8
LAYER_6
 10
88.7882
 20
-175.57
  0
VERTEX
  8
LAYER_6
 10
88.5803
 20
-175.57
  0
VERTEX
  8
LAYER_6
 10
88.4368
 20
-175.3214
  0
VERTEX
  8
LAYER_6
 10
88.3682
 20
-175.39
  0
VERTEX
  8
LAYER_6
 10
88.3682
 20
-175.57
  0
VERTEX
  8
LAYER_6
 10
88.1882
 20
-175.57
  0
SEQEND
  0
POLYLINE
  8
LAYER_6
 40
0.0353
 41
0.0353
 66
1
 10
0
 20
0
 30
0
  0
VERTEX
  8
LAYER_6
 10
92.0502
 20
-158.708
  0
VERTEX
  8
LAYER_6
 10
92.2115
 20
-158.7196
 42
-0.2327890705
  0
VERTEX
  8
LAYER_6
 10
92.5403
 20
-159.0557
  0
VERTEX
  8
LAYER_6
 10
92.5502
 20
-159.2079
  0
SEQEND
  0
POLYLINE
  8
LAYER_6
 40
0.0353
 41
0.0353
 66
1
 10
0
 20
0
 30
0
  0
VERTEX
  8
LAYER_6
 10
82.0047
 20
-176.8142
  0
VERTEX
  8
LAYER_6
 10
81.7891
 20
-176.815
  0
SEQEND
  0
POLYLINE
  8
LAYER_6
 40
0.0353
 41
0.0353
 66
1
 10
0
 20
0
 30
0
  0
VERTEX
  8
LAYER_6
 10
91.6882
 20
-176.87
  0
VERTEX
  8
LAYER_6
 10
92.1882
 20
-176.87
  0
SEQEND
  0
POLYLINE
  8
LAYER_6
 40
0.0353
 41
0.0353
 66
1
 10
0
 20
0
 30
0
  0
VERTEX
  8
LAYER_6
 10
91.0882
 20
-176.8648
  0
VERTEX
  8
LAYER_6
 10
91.6882
 20
-176.87
  0
SEQEND
  0
POLYLINE
  8
LAYER_6
 40
0.0353
 41
0.0353
 66
1
 10
0
 20
0
 30
0
  0
VERTEX
  8
LAYER_6
 10
91.0882
 20
-176.8281
  0
VERTEX
  8
LAYER_6
 10
91.0882
 20
-176.8648
  0
SEQEND
  0
POLYLINE
  8
LAYER_6
 40
0.0353
 41
0.0353
 66
1
 10
0
 20
0
 30
0
  0
VERTEX
  8
LAYER_6
 10
91.0882
 20
-176.8281
  0
VERTEX
  8
LAYER_6
 10
90.4882
 20
-176.8229
  0
SEQEND
  0
POLYLINE
  8
LAYER_6
 40
0.0353
 41
0.0353
 66
1
 10
0
 20
0
 30
0
  0
VERTEX
  8
LAYER_6
 10
89.7407
 20
-176.8229
  0
VERTEX
  8
LAYER_6
 10
90.4882
 20
-176.8229
  0
SEQEND
  0
POLYLINE
  8
LAYER_6
 40
0.0353
 41
0.0353
 66
1
 10
0
 20
0
 30
0
  0
VERTEX
  8
LAYER_6
 10
89.1407
 20
-176.8177
  0
VERTEX
  8
LAYER_6
 10
89.7407
 20
-176.8229
  0
SEQEND
  0
POLYLINE
  8
LAYER_6
 40
0.0353
 41
0.0353
 66
1
 10
0
 20
0
 30
0
  0
VERTEX
  8
LAYER_6
 10
89.0881
 20
-176.7651
  0
VERTEX
  8
LAYER_6
 10
89.1407
 20
-176.8177
  0
SEQEND
  0
POLYLINE
  8
LAYER_6
 40
0.0353
 41
0.0353
 66
1
 10
0
 20
0
 30
0
  0
VERTEX
  8
LAYER_6
 10
89.0881
 20
-176.7651
 42
0.004445046797
  0
VERTEX
  8
LAYER_6
 10
86.1882
 20
-176.74
 42
0.1901115651
  0
VERTEX
  8
LAYER_6
 10
83.2883
 20
-176.7651
  0
SEQEND
  0
POLYLINE
  8
LAYER_6
 40
0.0353
 41
0.0353
 66
1
 10
0
 20
0
 30
0
  0
VERTEX
  8
LAYER_6
 10
83.1885
 20
-176.8648
  0
VERTEX
  8
LAYER_6
 10
83.2883
 20
-176.7651
  0
SEQEND
  0
POLYLINE
  8
LAYER_6
 40
0.0353
 41
0.0353
 66
1
 10
0
 20
0
 30
0
  0
VERTEX
  8
LAYER_6
 10
82.5886
 20
-176.87
  0
VERTEX
  8
LAYER_6
 10
83.1885
 20
-176.8648
  0
SEQEND
  0
POLYLINE
  8
LAYER_6
 40
0.0353
 41
0.0353
 66
1
 10
0
 20
0
 30
0
  0
VERTEX
  8
LAYER_6
 10
80.1882
 20
-176.87
  0
VERTEX
  8
LAYER_6
 10
82.5886
 20
-176.87
  0
SEQEND
  0
POLYLINE
  8
LAYER_6
 40
0.0353
 41
0.0353
 66
1
 10
0
 20
0
 30
0
  0
VERTEX
  8
LAYER_6
 10
80.1882
 20
-158.57
  0
VERTEX
  8
LAYER_6
 10
80.3261
 20
-158.708
  0
SEQEND
  0
POLYLINE
  8
LAYER_6
 40
0.0353
 41
0.0353
 66
1
 10
0
 20
0
 30
0
  0
VERTEX
  8
LAYER_6
 10
80.2882
 20
-158.5709
  0
VERTEX
  8
LAYER_6
 10
80.1882
 20
-158.57
  0
SEQEND
  0
POLYLINE
  8
LAYER_6
 40
0.0353
 41
0.0353
 66
1
 10
0
 20
0
 30
0
  0
VERTEX
  8
LAYER_6
 10
80.2882
 20
-158.6039
  0
VERTEX
  8
LAYER_6
 10
80.2882
 20
-158.5709
  0
SEQEND
  0
POLYLINE
  8
LAYER_6
 40
0.0353
 41
0.0353
 66
1
 10
0
 20
0
 30
0
  0
VERTEX
  8
LAYER_6
 10
80.2882
 20
-158.6039
  0
VERTEX
  8
LAYER_6
 10
80.4082
 20
-158.6049
  0
VERTEX
  8
LAYER_6
 10
80.5282
 20
-158.6039
  0
SEQEND
  0
POLYLINE
  8
LAYER_6
 40
0.0353
 41
0.0353
 66
1
 10
0
 20
0
 30
0
  0
VERTEX
  8
LAYER_6
 10
80.5282
 20
-158.5735
  0
VERTEX
  8
LAYER_6
 10
80.5282
 20
-158.6039
  0
SEQEND
  0
POLYLINE
  8
LAYER_6
 40
0.0353
 41
0.0353
 66
1
 10
0
 20
0
 30
0
  0
VERTEX
  8
LAYER_6
 10
80.9282
 20
-158.57
  0
VERTEX
  8
LAYER_6
 10
80.5282
 20
-158.5735
  0
SEQEND
  0
POLYLINE
  8
LAYER_6
 40
0.0353
 41
0.0353
 66
1
 10
0
 20
0
 30
0
  0
VERTEX
  8
LAYER_6
 10
82.9868
 20
-158.57
  0
VERTEX
  8
LAYER_6
 10
80.9282
 20
-158.57
  0
SEQEND
  0
POLYLINE
  8
LAYER_6
 40
0.0353
 41
0.0353
 66
1
 10
0
 20
0
 30
0
  0
VERTEX
  8
LAYER_6
 10
83.3868
 20
-158.5735
  0
VERTEX
  8
LAYER_6
 10
82.9868
 20
-158.57
  0
SEQEND
  0
POLYLINE
  8
LAYER_6
 40
0.0353
 41
0.0353
 66
1
 10
0
 20
0
 30
0
  0
VERTEX
  8
LAYER_6
 10
83.4584
 20
-158.6451
  0
VERTEX
  8
LAYER_6
 10
83.3868
 20
-158.5735
  0
SEQEND
  0
POLYLINE
  8
LAYER_6
 40
0.0353
 41
0.0353
 66
1
 10
0
 20
0
 30
0
  0
VERTEX
  8
LAYER_6
 10
83.4883
 20
-158.6749
  0
VERTEX
  8
LAYER_6
 10
86.1882
 20
-158.6983
  0
VERTEX
  8
LAYER_6
 10
88.8881
 20
-158.6749
  0
SEQEND
  0
POLYLINE
  8
LAYER_6
 40
0.0353
 41
0.0353
 66
1
 10
0
 20
0
 30
0
  0
VERTEX
  8
LAYER_6
 10
88.9896
 20
-158.5735
  0
VERTEX
  8
LAYER_6
 10
88.918
 20
-158.6451
  0
SEQEND
  0
POLYLINE
  8
LAYER_6
 40
0.0353
 41
0.0353
 66
1
 10
0
 20
0
 30
0
  0
VERTEX
  8
LAYER_6
 10
89.3895
 20
-158.57
  0
VERTEX
  8
LAYER_6
 10
88.9896
 20
-158.5735
  0
SEQEND
  0
POLYLINE
  8
LAYER_6
 40
0.0353
 41
0.0353
 66
1
 10
0
 20
0
 30
0
  0
VERTEX
  8
LAYER_6
 10
91.4482
 20
-158.57
  0
VERTEX
  8
LAYER_6
 10
89.3895
 20
-158.57
  0
SEQEND
  0
POLYLINE
  8
LAYER_6
 40
0.0353
 41
0.0353
 66
1
 10
0
 20
0
 30
0
  0
VERTEX
  8
LAYER_6
 10
91.8482
 20
-158.5735
  0
VERTEX
  8
LAYER_6
 10
91.4482
 20
-158.57
  0
SEQEND
  0
POLYLINE
  8
LAYER_6
 40
0.0353
 41
0.0353
 66
1
 10
0
 20
0
 30
0
  0
VERTEX
  8
LAYER_6
 10
91.8482
 20
-158.6039
  0
VERTEX
  8
LAYER_6
 10
91.8482
 20
-158.5735
  0
SEQEND
  0
POLYLINE
  8
LAYER_6
 40
0.0353
 41
0.0353
 66
1
 10
0
 20
0
 30
0
  0
VERTEX
  8
LAYER_6
 10
91.8482
 20
-158.6039
  0
VERTEX
  8
LAYER_6
 10
91.9682
 20
-158.6049
  0
VERTEX
  8
LAYER_6
 10
92.0882
 20
-158.6039
  0
SEQEND
  0
POLYLINE
  8
LAYER_6
 40
0.0353
 41
0.0353
 66
1
 10
0
 20
0
 30
0
  0
VERTEX
  8
LAYER_6
 10
92.0882
 20
-158.5709
  0
VERTEX
  8
LAYER_6
 10
92.0882
 20
-158.6039
  0
SEQEND
  0
POLYLINE
  8
LAYER_6
 40
0.0353
 41
0.0353
 66
1
 10
0
 20
0
 30
0
  0
VERTEX
  8
LAYER_6
 10
92.1882
 20
-158.57
  0
VERTEX
  8
LAYER_6
 10
92.0882
 20
-158.5709
  0
SEQEND
  0
POLYLINE
  8
LAYER_6
 40
0.0353
 41
0.0353
 66
1
 10
0
 20
0
 30
0
  0
VERTEX
  8
LAYER_6
 10
82.3682
 20
-158.5806
  0
VERTEX
  8
LAYER_6
 10
82.3682
 20
-158.5936
  0
SEQEND
  0
POLYLINE
  8
LAYER_6
 40
0.0353
 41
0.0353
 66
1
 10
0
 20
0
 30
0
  0
VERTEX
  8
LAYER_6
 10
82.3682
 20
-158.5806
  0
VERTEX
  8
LAYER_6
 10
82.2082
 20
-158.5793
  0
SEQEND
  0
POLYLINE
  8
LAYER_6
 40
0.0353
 41
0.0353
 66
1
 10
0
 20
0
 30
0
  0
VERTEX
  8
LAYER_6
 10
81.7282
 20
-158.5793
  0
VERTEX
  8
LAYER_6
 10
81.5682
 20
-158.5806
  0
SEQEND
  0
POLYLINE
  8
LAYER_6
 40
0.0353
 41
0.0353
 66
1
 10
0
 20
0
 30
0
  0
VERTEX
  8
LAYER_6
 10
81.5682
 20
-158.5936
  0
VERTEX
  8
LAYER_6
 10
81.5682
 20
-158.5806
  0
SEQEND
  0
POLYLINE
  8
LAYER_6
 40
0.0353
 41
0.0353
 66
1
 10
0
 20
0
 30
0
  0
VERTEX
  8
LAYER_6
 10
81.5682
 20
-158.5936
  0
VERTEX
  8
LAYER_6
 10
81.7282
 20
-158.595
  0
SEQEND
  0
POLYLINE
  8
LAYER_6
 40
0.0353
 41
0.0353
 66
1
 10
0
 20
0
 30
0
  0
VERTEX
  8
LAYER_6
 10
82.2082
 20
-158.595
  0
VERTEX
  8
LAYER_6
 10
82.3682
 20
-158.5936
  0
SEQEND
  0
POLYLINE
  8
LAYER_6
 40
0.0353
 41
0.0353
 66
1
 10
0
 20
0
 30
0
  0
VERTEX
  8
LAYER_6
 10
90.1682
 20
-158.5793
  0
VERTEX
  8
LAYER_6
 10
90.0082
 20
-158.5806
  0
SEQEND
  0
POLYLINE
  8
LAYER_6
 40
0.0353
 41
0.0353
 66
1
 10
0
 20
0
 30
0
  0
VERTEX
  8
LAYER_6
 10
90.0082
 20
-158.5936
  0
VERTEX
  8
LAYER_6
 10
90.0082
 20
-158.5806
  0
SEQEND
  0
POLYLINE
  8
LAYER_6
 40
0.0353
 41
0.0353
 66
1
 10
0
 20
0
 30
0
  0
VERTEX
  8
LAYER_6
 10
90.0082
 20
-158.5936
  0
VERTEX
  8
LAYER_6
 10
90.1682
 20
-158.595
  0
SEQEND
  0
POLYLINE
  8
LAYER_6
 40
0.0353
 41
0.0353
 66
1
 10
0
 20
0
 30
0
  0
VERTEX
  8
LAYER_6
 10
90.6482
 20
-158.595
  0
VERTEX
  8
LAYER_6
 10
90.8082
 20
-158.5936
  0
SEQEND
  0
POLYLINE
  8
LAYER_6
 40
0.0353
 41
0.0353
 66
1
 10
0
 20
0
 30
0
  0
VERTEX
  8
LAYER_6
 10
90.8082
 20
-158.5806
  0
VERTEX
  8
LAYER_6
 10
90.8082
 20
-158.5936
  0
SEQEND
  0
POLYLINE
  8
LAYER_6
 40
0.0353
 41
0.0353
 66
1
 10
0
 20
0
 30
0
  0
VERTEX
  8
LAYER_6
 10
90.8082
 20
-158.5806
  0
VERTEX
  8
LAYER_6
 10
90.6482
 20
-158.5793
  0
SEQEND
  0
POLYLINE
  8
LAYER_6
 40
0.0353
 41
0.0353
 66
1
 10
0
 20
0
 30
0
  0
VERTEX
  8
LAYER_6
 10
92.6882
 20
-159.07
 42
0.1990363834
  0
VERTEX
  8
LAYER_6
 10
92.5418
 20
-158.7164
 42
0.1990383871
  0
VERTEX
  8
LAYER_6
 10
92.1882
 20
-158.57
  0
SEQEND
  0
POLYLINE
  8
LAYER_6
 40
0.0353
 41
0.0353
 66
1
 10
0
 20
0
 30
0
  0
VERTEX
  8
LAYER_6
 10
92.1882
 20
-176.87
 42
0.1990387103
  0
VERTEX
  8
LAYER_6
 10
92.5418
 20
-176.7236
 42
0.1990364698
  0
VERTEX
  8
LAYER_6
 10
92.6882
 20
-176.37
  0
SEQEND
  0
POLYLINE
  8
LAYER_6
 40
0.0353
 41
0.0353
 66
1
 10
0
 20
0
 30
0
  0
VERTEX
  8
LAYER_6
 10
80.1882
 20
-158.57
 42
0.199041471
  0
VERTEX
  8
LAYER_6
 10
79.8346
 20
-158.7164
 42
0.1990438271
  0
VERTEX
  8
LAYER_6
 10
79.6882
 20
-159.07
  0
SEQEND
  0
POLYLINE
  8
LAYER_6
 40
0.0353
 41
0.0353
 66
1
 10
0
 20
0
 30
0
  0
VERTEX
  8
LAYER_6
 10
79.6882
 20
-176.37
  0
VERTEX
  8
LAYER_6
 10
79.6882
 20
-159.07
  0
VERTEX
  8
LAYER_6
 10
79.8262
 20
-159.2079
  0
VERTEX
  8
LAYER_6
 10
79.8262
 20
-174.3888
  0
SEQEND
  0
POLYLINE
  8
LAYER_6
 40
0.0353
 41
0.0353
 66
1
 10
0
 20
0
 30
0
  0
VERTEX
  8
LAYER_6
 10
88.418
 20
-156.67
  0
VERTEX
  8
LAYER_6
 10
88.3127
 20
-156.67
  0
SEQEND
  0
POLYLINE
  8
LAYER_6
 40
0.0353
 41
0.0353
 66
1
 10
0
 20
0
 30
0
  0
VERTEX
  8
LAYER_6
 10
84.0637
 20
-156.67
  0
VERTEX
  8
LAYER_6
 10
83.9584
 20
-156.67
  0
SEQEND
  0
POLYLINE
  8
LAYER_6
 40
0.0353
 41
0.0353
 66
1
 10
0
 20
0
 30
0
  0
VERTEX
  8
LAYER_6
 10
84.6637
 20
-156.6752
  0
VERTEX
  8
LAYER_6
 10
84.0637
 20
-156.67
  0
SEQEND
  0
POLYLINE
  8
LAYER_6
 40
0.0353
 41
0.0353
 66
1
 10
0
 20
0
 30
0
  0
VERTEX
  8
LAYER_6
 10
84.6882
 20
-156.6998
  0
VERTEX
  8
LAYER_6
 10
84.6637
 20
-156.6752
  0
SEQEND
  0
POLYLINE
  8
LAYER_6
 40
0.0353
 41
0.0353
 66
1
 10
0
 20
0
 30
0
  0
VERTEX
  8
LAYER_6
 10
84.6882
 20
-156.6998
  0
VERTEX
  8
LAYER_6
 10
86.1882
 20
-156.7128
  0
VERTEX
  8
LAYER_6
 10
87.6881
 20
-156.6998
  0
SEQEND
  0
POLYLINE
  8
LAYER_6
 40
0.0353
 41
0.0353
 66
1
 10
0
 20
0
 30
0
  0
VERTEX
  8
LAYER_6
 10
87.7127
 20
-156.6752
  0
VERTEX
  8
LAYER_6
 10
87.6881
 20
-156.6998
  0
SEQEND
  0
POLYLINE
  8
LAYER_6
 40
0.0353
 41
0.0353
 66
1
 10
0
 20
0
 30
0
  0
VERTEX
  8
LAYER_6
 10
88.3127
 20
-156.67
  0
VERTEX
  8
LAYER_6
 10
87.7127
 20
-156.6752
  0
SEQEND
  0
POLYLINE
  8
LAYER_6
 40
0.0353
 41
0.0353
 66
1
 10
0
 20
0
 30
0
  0
VERTEX
  8
LAYER_6
 10
88.918
 20
-157.17
 42
0.1990636599
  0
VERTEX
  8
LAYER_6
 10
88.7715
 20
-156.8164
 42
0.1989977959
  0
VERTEX
  8
LAYER_6
 10
88.418
 20
-156.67
  0
SEQEND
  0
POLYLINE
  8
LAYER_6
 40
0.0353
 41
0.0353
 66
1
 10
0
 20
0
 30
0
  0
VERTEX
  8
LAYER_6
 10
83.9584
 20
-156.67
 42
0.1990008782
  0
VERTEX
  8
LAYER_6
 10
83.6049
 20
-156.8164
 42
0.1990711052
  0
VERTEX
  8
LAYER_6
 10
83.4584
 20
-157.17
  0
SEQEND
  0
POLYLINE
  8
LAYER_6
 40
0.0353
 41
0.0353
 66
1
 10
0
 20
0
 30
0
  0
VERTEX
  8
LAYER_6
 10
83.4584
 20
-157.17
  0
VERTEX
  8
LAYER_6
 10
83.4584
 20
-158.6451
  0
VERTEX
  8
LAYER_6
 10
83.4883
 20
-158.6749
  0
VERTEX
  8
LAYER_6
 10
83.4883
 20
-157.1999
  0
VERTEX
  8
LAYER_6
 10
83.4999
 20
-157.0386
 42
-0.2328274508
  0
VERTEX
  8
LAYER_6
 10
83.8361
 20
-156.7098
  0
VERTEX
  8
LAYER_6
 10
83.9883
 20
-156.6999
  0
VERTEX
  8
LAYER_6
 10
83.9986
 20
-156.7022
 42
0.007754937441
  0
VERTEX
  8
LAYER_6
 10
88.3777
 20
-156.7023
  0
VERTEX
  8
LAYER_6
 10
88.3778
 20
-156.7023
  0
VERTEX
  8
LAYER_6
 10
88.3879
 20
-156.6999
  0
VERTEX
  8
LAYER_6
 10
88.3881
 20
-156.6999
  0
VERTEX
  8
LAYER_6
 10
88.5403
 20
-156.7098
 42
-0.2328048022
  0
VERTEX
  8
LAYER_6
 10
88.8764
 20
-157.0386
  0
VERTEX
  8
LAYER_6
 10
88.8881
 20
-157.1999
  0
VERTEX
  8
LAYER_6
 10
88.8881
 20
-158.6749
  0
VERTEX
  8
LAYER_6
 10
88.918
 20
-158.6451
  0
VERTEX
  8
LAYER_6
 10
88.918
 20
-157.17
  0
SEQEND
  0
POLYLINE
  8
LAYER_6
 40
0.0353
 41
0.0353
 66
1
 10
0
 20
0
 30
0
  0
VERTEX
  8
LAYER_6
 10
79.7432
 20
-174.7691
  0
VERTEX
  8
LAYER_6
 10
79.7432
 20
-176.315
  0
VERTEX
  8
LAYER_6
 10
79.7531
 20
-176.4672
 42
0.2328448523
  0
VERTEX
  8
LAYER_6
 10
80.0819
 20
-176.8034
  0
VERTEX
  8
LAYER_6
 10
80.2427
 20
-176.8148
  0
VERTEX
  8
LAYER_6
 10
80.2432
 20
-176.815
  0
VERTEX
  8
LAYER_6
 10
81.7891
 20
-176.815
  0
VERTEX
  8
LAYER_6
 10
81.7891
 20
-176.8082
  0
SEQEND
  0
POLYLINE
  8
LAYER_6
 40
0.0353
 41
0.0353
 66
1
 10
0
 20
0
 30
0
  0
VERTEX
  8
LAYER_6
 10
79.6882
 20
-176.37
 42
0.1990439133
  0
VERTEX
  8
LAYER_6
 10
79.8346
 20
-176.7236
 42
0.1990417943
  0
VERTEX
  8
LAYER_6
 10
80.1882
 20
-176.87
  0
SEQEND
  0
POLYLINE
  8
LAYER_6
 40
0.0353
 41
0.0353
 66
1
 10
0
 20
0
 30
0
  0
VERTEX
  8
LAYER_6
 10
90.8082
 20
-176.8237
  0
VERTEX
  8
LAYER_6
 10
90.8082
 20
-180.6988
  0
SEQEND
  0
POLYLINE
  8
LAYER_6
 40
0.0353
 41
0.0353
 66
1
 10
0
 20
0
 30
0
  0
VERTEX
  8
LAYER_6
 10
89.9682
 20
-176.8229
  0
VERTEX
  8
LAYER_6
 10
89.9682
 20
-180.6988
  0
SEQEND
  0
POLYLINE
  8
LAYER_6
 40
0.0353
 41
0.0353
 66
1
 10
0
 20
0
 30
0
  0
VERTEX
  8
LAYER_6
 10
79.8489
 20
-159.2087
  0
VERTEX
  8
LAYER_6
 10
79.8262
 20
-159.2079
  0
VERTEX
  8
LAYER_6
 10
79.8446
 20
-159.1151
  0
VERTEX
  8
LAYER_6
 10
79.8535
 20
-159.0108
 42
-0.204396795
  0
VERTEX
  8
LAYER_6
 10
80.1669
 20
-158.7186
  0
VERTEX
  8
LAYER_6
 10
80.3261
 20
-158.708
  0
VERTEX
  8
LAYER_6
 10
80.3218
 20
-158.7123
  0
VERTEX
  8
LAYER_6
 10
80.326
 20
-158.7167
  0
VERTEX
  8
LAYER_6
 10
80.3305
 20
-158.7125
  0
VERTEX
  8
LAYER_6
 10
80.3263
 20
-158.708
  0
VERTEX
  8
LAYER_6
 10
80.3348
 20
-158.7091
  0
VERTEX
  8
LAYER_6
 10
80.8261
 20
-158.7123
  0
VERTEX
  8
LAYER_6
 10
91.5503
 20
-158.7123
  0
VERTEX
  8
LAYER_6
 10
92.0416
 20
-158.7091
  0
VERTEX
  8
LAYER_6
 10
92.0501
 20
-158.708
  0
VERTEX
  8
LAYER_6
 10
92.0502
 20
-158.708
  0
VERTEX
  8
LAYER_6
 10
92.1882
 20
-158.57
  0
SEQEND
  0
POLYLINE
  8
LAYER_6
 40
0.0353
 41
0.0353
 66
1
 10
0
 20
0
 30
0
  0
VERTEX
  8
LAYER_6
 10
82.0067
 20
-176.8142
  0
VERTEX
  8
LAYER_6
 10
82.0842
 20
-176.8131
  0
VERTEX
  8
LAYER_6
 10
82.0889
 20
-176.8124
  0
VERTEX
  8
LAYER_6
 10
82.089
 20
-176.8124
  0
VERTEX
  8
LAYER_6
 10
82.1737
 20
-176.7277
  0
VERTEX
  8
LAYER_6
 10
91.5503
 20
-176.7277
  0
VERTEX
  8
LAYER_6
 10
92.0416
 20
-176.7309
  0
VERTEX
  8
LAYER_6
 10
92.0501
 20
-176.732
  0
VERTEX
  8
LAYER_6
 10
92.0502
 20
-176.732
  0
VERTEX
  8
LAYER_6
 10
92.205
 20
-176.7223
 42
0.2045188286
  0
VERTEX
  8
LAYER_6
 10
92.522
 20
-176.4328
  0
VERTEX
  8
LAYER_6
 10
92.5316
 20
-176.3249
  0
VERTEX
  8
LAYER_6
 10
92.5318
 20
-176.3249
  0
VERTEX
  8
LAYER_6
 10
92.5502
 20
-176.2321
  0
VERTEX
  8
LAYER_6
 10
92.5502
 20
-159.2079
  0
VERTEX
  8
LAYER_6
 10
92.6882
 20
-159.07
  0
VERTEX
  8
LAYER_6
 10
92.6882
 20
-176.37
  0
SEQEND
  0
POLYLINE
  8
LAYER_6
 40
0.0353
 41
0.0353
 66
1
 10
0
 20
0
 30
0
 70
1
  0
VERTEX
  8
LAYER_6
 10
90.6482
 20
-158.5793
  0
VERTEX
  8
LAYER_6
 10
90.6482
 20
-158.595
  0
VERTEX
  8
LAYER_6
 10
90.1682
 20
-158.595
  0
VERTEX
  8
LAYER_6
 10
90.1682
 20
-158.5793
  0
SEQEND
  0
POLYLINE
  8
LAYER_6
 40
0.0353
 41
0.0353
 66
1
 10
0
 20
0
 30
0
 70
1
  0
VERTEX
  8
LAYER_6
 10
82.2082
 20
-158.5793
  0
VERTEX
  8
LAYER_6
 10
82.2082
 20
-158.595
  0
VERTEX
  8
LAYER_6
 10
81.7282
 20
-158.595
  0
VERTEX
  8
LAYER_6
 10
81.7282
 20
-158.5793
  0
SEQEND
  0
POLYLINE
  8
LAYER_6
  6
AIGENLINE001
 40
0.0353
 41
0.0353
 66
1
 10
0
 20
0
 30
0
 70
128
  0
VERTEX
  8
LAYER_6
 10
79.0382
 20
-175.69
  0
VERTEX
  8
LAYER_6
 10
82.5382
 20
-175.69
  0
SEQEND
  0
POLYLINE
  8
LAYER_6
  6
AIGENLINE001
 40
0.0353
 41
0.0353
 66
1
 10
0
 20
0
 30
0
 70
128
  0
VERTEX
  8
LAYER_6
 10
80.7882
 20
-173.94
  0
VERTEX
  8
LAYER_6
 10
80.7882
 20
-177.44
  0
SEQEND
  0
POLYLINE
  8
LAYER_6
 40
0.0353
 41
0.0353
 66
1
 10
0
 20
0
 30
0
  0
VERTEX
  8
LAYER_6
 10
82.1742
 20
-176.7164
  0
VERTEX
  8
LAYER_6
 10
82.1763
 20
-176.2277
  0
VERTEX
  8
LAYER_6
 10
82.1763
 20
-175.9818
  0
VERTEX
  8
LAYER_6
 10
82.1717
 20
-175.7906
 42
0.2888028018
  0
VERTEX
  8
LAYER_6
 10
81.0776
 20
-174.4515
  0
VERTEX
  8
LAYER_6
 10
80.8261
 20
-174.4015
  0
VERTEX
  8
LAYER_6
 10
80.5135
 20
-174.3822
  0
VERTEX
  8
LAYER_6
 10
79.843
 20
-174.3871
  0
VERTEX
  8
LAYER_6
 10
79.8262
 20
-174.3888
  0
VERTEX
  8
LAYER_6
 10
79.7458
 20
-174.4691
  0
VERTEX
  8
LAYER_6
 10
79.7451
 20
-174.474
  0
VERTEX
  8
LAYER_6
 10
79.744
 20
-174.5513
  0
VERTEX
  8
LAYER_6
 10
79.7432
 20
-174.7691
  0
VERTEX
  8
LAYER_6
 10
79.75
 20
-174.7691
  0
VERTEX
  8
LAYER_6
 10
79.9432
 20
-174.7691
  0
VERTEX
  8
LAYER_6
 10
80.4891
 20
-174.7691
  0
VERTEX
  8
LAYER_6
 10
80.721
 20
-174.7796
 42
-0.323050684
  0
VERTEX
  8
LAYER_6
 10
81.7842
 20
-175.8967
  0
VERTEX
  8
LAYER_6
 10
81.7891
 20
-176.0691
  0
VERTEX
  8
LAYER_6
 10
81.7891
 20
-176.615
  0
VERTEX
  8
LAYER_6
 10
81.7891
 20
-176.8061
  0
SEQEND
  0
CIRCLE
  8
LAYER_6
 10
80.7882
 20
-175.69
 40
0.55
  0
POLYLINE
  8
LAYER_6
 40
0.0353
 41
0.0353
 66
1
 10
0
 20
0
 30
0
 70
1
  0
VERTEX
  8
LAYER_6
 10
81.0482
 20
-175.63
  0
VERTEX
  8
LAYER_6
 10
81.188
 20
-175.63
  0
VERTEX
  8
LAYER_6
 10
81.1882
 20
-175.63
  0
VERTEX
  8
LAYER_6
 10
81.1882
 20
-175.75
  0
VERTEX
  8
LAYER_6
 10
81.1292
 20
-175.75
  0
VERTEX
  8
LAYER_6
 10
81.0478
 20
-175.75
  0
VERTEX
  8
LAYER_6
 10
81.0482
 20
-175.75
 42
0.4142219266
  0
VERTEX
  8
LAYER_6
 10
80.8482
 20
-175.95
  0
VERTEX
  8
LAYER_6
 10
80.8482
 20
-176.09
  0
VERTEX
  8
LAYER_6
 10
80.7882
 20
-176.09
  0
VERTEX
  8
LAYER_6
 10
80.7282
 20
-176.09
  0
VERTEX
  8
LAYER_6
 10
80.7282
 20
-175.9498
  0
VERTEX
  8
LAYER_6
 10
80.7282
 20
-175.9497
  0
VERTEX
  8
LAYER_6
 10
80.7282
 20
-175.95
 42
0.4141920369
  0
VERTEX
  8
LAYER_6
 10
80.5282
 20
-175.75
  0
VERTEX
  8
LAYER_6
 10
80.5285
 20
-175.75
  0
VERTEX
  8
LAYER_6
 10
80.4471
 20
-175.75
  0
VERTEX
  8
LAYER_6
 10
80.3882
 20
-175.75
  0
VERTEX
  8
LAYER_6
 10
80.3882
 20
-175.63
  0
VERTEX
  8
LAYER_6
 10
80.5284
 20
-175.63
  0
VERTEX
  8
LAYER_6
 10
80.5285
 20
-175.63
  0
VERTEX
  8
LAYER_6
 10
80.5282
 20
-175.63
 42
0.4141936244
  0
VERTEX
  8
LAYER_6
 10
80.7282
 20
-175.43
  0
VERTEX
  8
LAYER_6
 10
80.7282
 20
-175.29
  0
VERTEX
  8
LAYER_6
 10
80.7882
 20
-175.29
  0
VERTEX
  8
LAYER_6
 10
80.8482
 20
-175.29
  0
VERTEX
  8
LAYER_6
 10
80.8482
 20
-175.4301
  0
VERTEX
  8
LAYER_6
 10
80.8482
 20
-175.4304
  0
VERTEX
  8
LAYER_6
 10
80.8482
 20
-175.43
 42
0.4142235152
  0
SEQEND
  0
POLYLINE
  8
LAYER_6
 40
0.0353
 41
0.0353
 66
1
 10
0
 20
0
 30
0
  0
VERTEX
  8
LAYER_6
 10
88.5882
 20
-179.85
  0
VERTEX
  8
LAYER_6
 10
88.5882
 20
-176.7511
  0
SEQEND
  0
POLYLINE
  8
LAYER_6
 40
0.0353
 41
0.0353
 66
1
 10
0
 20
0
 30
0
  0
VERTEX
  8
LAYER_6
 10
83.7882
 20
-176.7511
  0
VERTEX
  8
LAYER_6
 10
83.7882
 20
-179.85
  0
SEQEND
  0
POLYLINE
  8
LAYER_6
 40
0.0353
 41
0.0353
 66
1
 10
0
 20
0
 30
0
  0
VERTEX
  8
LAYER_6
 10
84.2864
 20
-181.3638
  0
VERTEX
  8
LAYER_6
 10
84.287
 20
-181.353
  0
VERTEX
  8
LAYER_6
 10
84.2663
 20
-181.2887
  0
SEQEND
  0
POLYLINE
  8
LAYER_6
 40
0.0353
 41
0.0353
 66
1
 10
0
 20
0
 30
0
  0
VERTEX
  8
LAYER_6
 10
88.1105
 20
-181.2873
  0
VERTEX
  8
LAYER_6
 10
88.0891
 20
-181.3539
  0
VERTEX
  8
LAYER_6
 10
88.0896
 20
-181.3644
  0
VERTEX
  8
LAYER_6
 10
88.0882
 20
-182.55
  0
SEQEND
  0
POLYLINE
  8
LAYER_6
 40
0.0353
 41
0.0353
 66
1
 10
0
 20
0
 30
0
 70
1
  0
VERTEX
  8
LAYER_6
 10
86.555
 20
-184.15
  0
VERTEX
  8
LAYER_6
 10
86.555
 20
-185.05
  0
VERTEX
  8
LAYER_6
 10
86.5551
 20
-185.0502
 42
0.2356551331
  0
VERTEX
  8
LAYER_6
 10
86.6222
 20
-185.2065
 42
0.1612648118
  0
VERTEX
  8
LAYER_6
 10
87.0151
 20
-185.3703
 42
0.09612527929
  0
VERTEX
  8
LAYER_6
 10
88.0195
 20
-185.3356
 42
0.1696416981
  0
VERTEX
  8
LAYER_6
 10
88.2888
 20
-185.1606
 42
0.1827734369
  0
VERTEX
  8
LAYER_6
 10
88.3212
 20
-185.0492
  0
VERTEX
  8
LAYER_6
 10
88.3214
 20
-185.05
  0
VERTEX
  8
LAYER_6
 10
88.3214
 20
-184.15
 42
0.2268418953
  0
VERTEX
  8
LAYER_6
 10
87.9289
 20
-183.3021
 42
0.4127278737
  0
VERTEX
  8
LAYER_6
 10
86.8137
 20
-183.4289
 42
0.1793939377
  0
SEQEND
  0
POLYLINE
  8
LAYER_6
 40
0.0353
 41
0.0353
 66
1
 10
0
 20
0
 30
0
 70
1
  0
VERTEX
  8
LAYER_6
 10
84.055
 20
-184.15
  0
VERTEX
  8
LAYER_6
 10
84.055
 20
-185.05
  0
VERTEX
  8
LAYER_6
 10
84.0551
 20
-185.0501
 42
0.2444999665
  0
VERTEX
  8
LAYER_6
 10
84.1239
 20
-185.208
 42
0.1549852473
  0
VERTEX
  8
LAYER_6
 10
84.4968
 20
-185.3698
 42
0.03755156588
  0
VERTEX
  8
LAYER_6
 10
85.0589
 20
-185.3978
 42
0.1394965841
  0
VERTEX
  8
LAYER_6
 10
85.6928
 20
-185.2553
 42
0.259242209
  0
VERTEX
  8
LAYER_6
 10
85.8208
 20
-185.0622
  0
VERTEX
  8
LAYER_6
 10
85.8214
 20
-185.05
  0
VERTEX
  8
LAYER_6
 10
85.8214
 20
-184.15
 42
0.226841713
  0
VERTEX
  8
LAYER_6
 10
85.4289
 20
-183.3021
 42
0.4127278405
  0
VERTEX
  8
LAYER_6
 10
84.3137
 20
-183.4289
 42
0.1793941312
  0
SEQEND
  0
POLYLINE
  8
LAYER_6
 40
0.0353
 41
0.0353
 66
1
 10
0
 20
0
 30
0
  0
VERTEX
  8
LAYER_6
 10
88.6882
 20
-184.15
  0
VERTEX
  8
LAYER_6
 10
88.6882
 20
-185.05
  0
VERTEX
  8
LAYER_6
 10
88.6882
 20
-185.3917
  0
SEQEND
  0
POLYLINE
  8
LAYER_6
 40
0.0353
 41
0.0353
 66
1
 10
0
 20
0
 30
0
  0
VERTEX
  8
LAYER_6
 10
83.6882
 20
-184.15
  0
VERTEX
  8
LAYER_6
 10
83.6882
 20
-185.05
  0
VERTEX
  8
LAYER_6
 10
83.6882
 20
-185.0493
  0
VERTEX
  8
LAYER_6
 10
83.6882
 20
-185.0494
  0
VERTEX
  8
LAYER_6
 10
83.6882
 20
-185.3954
  0
SEQEND
  0
POLYLINE
  8
LAYER_6
 40
0.0353
 41
0.0353
 66
1
 10
0
 20
0
 30
0
  0
VERTEX
  8
LAYER_6
 10
84.106
 20
-180.03
  0
VERTEX
  8
LAYER_6
 10
88.2704
 20
-180.03
  0
SEQEND
  0
POLYLINE
  8
LAYER_6
 40
0.0353
 41
0.0353
 66
1
 10
0
 20
0
 30
0
  0
VERTEX
  8
LAYER_6
 10
88.2704
 20
-179.67
  0
VERTEX
  8
LAYER_6
 10
84.106
 20
-179.67
  0
SEQEND
  0
POLYLINE
  8
LAYER_6
 40
0.0353
 41
0.0353
 66
1
 10
0
 20
0
 30
0
 70
1
  0
VERTEX
  8
LAYER_6
 10
88.2704
 20
-180.03
  0
VERTEX
  8
LAYER_6
 10
88.2782
 20
-179.85
  0
VERTEX
  8
LAYER_6
 10
88.2704
 20
-179.67
 42
0.3873507282
  0
VERTEX
  8
LAYER_6
 10
86.1882
 20
-177.76
 42
0.3873532537
  0
VERTEX
  8
LAYER_6
 10
84.106
 20
-179.67
  0
VERTEX
  8
LAYER_6
 10
84.0982
 20
-179.85
  0
VERTEX
  8
LAYER_6
 10
84.106
 20
-180.03
 42
0.3873532015
  0
VERTEX
  8
LAYER_6
 10
86.1882
 20
-181.94
 42
0.387350676
  0
SEQEND
  0
CIRCLE
  8
LAYER_6
 10
86.1882
 20
-179.85
 40
2.4
  0
CIRCLE
  8
LAYER_6
 10
86.1882
 20
-179.85
 40
2.3
  0
CIRCLE
  8
LAYER_6
 10
86.1882
 20
-179.85
 40
2.2
  0
CIRCLE
  8
LAYER_6
 10
86.1882
 20
-179.85
 40
2.1
  0
POLYLINE
  8
LAYER_6
 40
0.0353
 41
0.0353
 66
1
 10
0
 20
0
 30
0
  0
VERTEX
  8
LAYER_6
 10
84.2882
 20
-181.3655
  0
VERTEX
  8
LAYER_6
 10
84.2882
 20
-182.55
  0
VERTEX
  8
LAYER_6
 10
85.5755
 20
-182.55
  0
VERTEX
  8
LAYER_6
 10
86.8008
 20
-182.55
  0
VERTEX
  8
LAYER_6
 10
88.0882
 20
-182.55
  0
VERTEX
  8
LAYER_6
 10
87.9882
 20
-182.65
  0
VERTEX
  8
LAYER_6
 10
84.3882
 20
-182.65
  0
VERTEX
  8
LAYER_6
 10
84.2882
 20
-182.55
  0
SEQEND
  0
POLYLINE
  8
LAYER_6
 40
0.0353
 41
0.0353
 66
1
 10
0
 20
0
 30
0
  0
VERTEX
  8
LAYER_6
 10
87.7882
 20
-182.65
  0
VERTEX
  8
LAYER_6
 10
87.7882
 20
-182.85
  0
SEQEND
  0
POLYLINE
  8
LAYER_6
 40
0.0353
 41
0.0353
 66
1
 10
0
 20
0
 30
0
  0
VERTEX
  8
LAYER_6
 10
84.5882
 20
-182.65
  0
VERTEX
  8
LAYER_6
 10
84.5882
 20
-182.85
  0
SEQEND
  0
POLYLINE
  8
LAYER_6
 40
0.0353
 41
0.0353
 66
1
 10
0
 20
0
 30
0
 70
1
  0
VERTEX
  8
LAYER_6
 10
88.5546
 20
-182.85
  0
VERTEX
  8
LAYER_6
 10
88.6882
 20
-183.1302
  0
VERTEX
  8
LAYER_6
 10
88.6882
 20
-185.3964
 42
-0.1314609582
  0
VERTEX
  8
LAYER_6
 10
88.4882
 20
-185.45
  0
VERTEX
  8
LAYER_6
 10
85.0382
 20
-185.45
  0
VERTEX
  8
LAYER_6
 10
83.8882
 20
-185.45
 42
-0.1314637608
  0
VERTEX
  8
LAYER_6
 10
83.6882
 20
-185.3964
  0
VERTEX
  8
LAYER_6
 10
83.6882
 20
-183.1302
  0
VERTEX
  8
LAYER_6
 10
83.8218
 20
-182.85
  0
VERTEX
  8
LAYER_6
 10
85.005
 20
-182.85
  0
SEQEND
  0
POLYLINE
  8
LAYER_6
  6
AIGENLINE001
 40
0.0353
 41
0.0353
 66
1
 10
0
 20
0
 30
0
 70
128
  0
VERTEX
  8
LAYER_6
 10
82.5882
 20
-179.85
  0
VERTEX
  8
LAYER_6
 10
89.7882
 20
-179.85
  0
SEQEND
  0
POLYLINE
  8
LAYER_6
 40
0.0353
 41
0.0353
 66
1
 10
0
 20
0
 30
0
  0
VERTEX
  8
LAYER_6
 10
89.9682
 20
-180.6988
 42
-0.39884032
  0
VERTEX
  8
LAYER_6
 10
90.1362
 20
-180.6988
  0
VERTEX
  8
LAYER_6
 10
90.2202
 20
-180.7324
  0
VERTEX
  8
LAYER_6
 10
90.3042
 20
-180.6988
  0
VERTEX
  8
LAYER_6
 10
90.3882
 20
-180.6652
  0
VERTEX
  8
LAYER_6
 10
90.4722
 20
-180.6988
  0
VERTEX
  8
LAYER_6
 10
90.5562
 20
-180.7324
  0
VERTEX
  8
LAYER_6
 10
90.6402
 20
-180.6988
  0
VERTEX
  8
LAYER_6
 10
90.7242
 20
-180.6652
  0
VERTEX
  8
LAYER_6
 10
90.8082
 20
-180.6988
  0
SEQEND
  0
POLYLINE
  8
LAYER_6
 40
0.0353
 41
0.0353
 66
1
 10
0
 20
0
 30
0
  0
VERTEX
  8
LAYER_6
 10
89.9682
 20
-181.5354
 42
-0.3986893369
  0
VERTEX
  8
LAYER_6
 10
90.1362
 20
-181.5354
  0
VERTEX
  8
LAYER_6
 10
90.2202
 20
-181.569
  0
VERTEX
  8
LAYER_6
 10
90.3042
 20
-181.5354
  0
VERTEX
  8
LAYER_6
 10
90.3882
 20
-181.5018
  0
VERTEX
  8
LAYER_6
 10
90.4722
 20
-181.5354
  0
VERTEX
  8
LAYER_6
 10
90.5562
 20
-181.569
  0
VERTEX
  8
LAYER_6
 10
90.6402
 20
-181.5354
  0
VERTEX
  8
LAYER_6
 10
90.7242
 20
-181.5018
  0
VERTEX
  8
LAYER_6
 10
90.8082
 20
-181.5354
  0
SEQEND
  0
POLYLINE
  8
LAYER_6
 40
0.0353
 41
0.0353
 66
1
 10
0
 20
0
 30
0
  0
VERTEX
  8
LAYER_6
 10
107.2888
 20
-187.4187
  0
VERTEX
  8
LAYER_6
 10
106.6888
 20
-187.4187
  0
VERTEX
  8
LAYER_6
 10
106.6888
 20
-188.8187
  0
VERTEX
  8
LAYER_6
 10
107.2888
 20
-188.8187
  0
VERTEX
  8
LAYER_6
 10
107.2888
 20
-187.4187
  0
VERTEX
  8
LAYER_6
 10
107.2888
 20
-186.8187
  0
VERTEX
  8
LAYER_6
 10
107.2888
 20
-185.4187
  0
VERTEX
  8
LAYER_6
 10
106.6888
 20
-185.4187
  0
VERTEX
  8
LAYER_6
 10
106.6888
 20
-186.8187
  0
VERTEX
  8
LAYER_6
 10
107.2888
 20
-186.8187
  0
SEQEND
  0
POLYLINE
  8
LAYER_6
 40
0.0353
 41
0.0353
 66
1
 10
0
 20
0
 30
0
  0
VERTEX
  8
LAYER_6
 10
101.2888
 20
-187.4187
  0
VERTEX
  8
LAYER_6
 10
101.5888
 20
-187.4187
  0
SEQEND
  0
POLYLINE
  8
LAYER_6
 40
0.0353
 41
0.0353
 66
1
 10
0
 20
0
 30
0
  0
VERTEX
  8
LAYER_6
 10
101.5888
 20
-188.6187
  0
VERTEX
  8
LAYER_6
 10
101.2888
 20
-188.6187
  0
VERTEX
  8
LAYER_6
 10
101.2888
 20
-187.4187
  0
VERTEX
  8
LAYER_6
 10
101.2888
 20
-186.8187
  0
SEQEND
  0
POLYLINE
  8
LAYER_6
 40
0.0353
 41
0.0353
 66
1
 10
0
 20
0
 30
0
  0
VERTEX
  8
LAYER_6
 10
101.5888
 20
-186.6742
  0
VERTEX
  8
LAYER_6
 10
101.5942
 20
-186.8187
  0
SEQEND
  0
POLYLINE
  8
LAYER_6
 40
0.0353
 41
0.0353
 66
1
 10
0
 20
0
 30
0
  0
VERTEX
  8
LAYER_6
 10
101.5942
 20
-187.4187
  0
VERTEX
  8
LAYER_6
 10
101.5888
 20
-187.5632
  0
SEQEND
  0
POLYLINE
  8
LAYER_6
 40
0.0353
 41
0.0353
 66
1
 10
0
 20
0
 30
0
  0
VERTEX
  8
LAYER_6
 10
101.5888
 20
-185.6187
  0
VERTEX
  8
LAYER_6
 10
101.9394
 20
-185.6187
 42
0.2439739117
  0
VERTEX
  8
LAYER_6
 10
102.4894
 20
-186.1134
  0
VERTEX
  8
LAYER_6
 10
102.6888
 20
-186.1387
  0
VERTEX
  8
LAYER_6
 10
103.8888
 20
-186.1387
 42
0.3101792419
  0
VERTEX
  8
LAYER_6
 10
104.6382
 20
-185.6187
  0
VERTEX
  8
LAYER_6
 10
106.6888
 20
-185.6187
  0
SEQEND
  0
POLYLINE
  8
LAYER_6
 40
0.0353
 41
0.0353
 66
1
 10
0
 20
0
 30
0
 70
1
  0
VERTEX
  8
LAYER_6
 10
106.6888
 20
-187.4187
  0
VERTEX
  8
LAYER_6
 10
102.3975
 20
-187.4187
  0
VERTEX
  8
LAYER_6
 10
101.5942
 20
-187.4187
  0
VERTEX
  8
LAYER_6
 10
101.5942
 20
-186.8187
  0
VERTEX
  8
LAYER_6
 10
102.3975
 20
-186.8187
  0
VERTEX
  8
LAYER_6
 10
106.6888
 20
-186.8187
  0
SEQEND
  0
POLYLINE
  8
LAYER_6
 40
0.0353
 41
0.0353
 66
1
 10
0
 20
0
 30
0
  0
VERTEX
  8
LAYER_6
 10
101.5888
 20
-186.8187
  0
VERTEX
  8
LAYER_6
 10
101.2888
 20
-186.8187
  0
VERTEX
  8
LAYER_6
 10
101.2888
 20
-185.6187
  0
VERTEX
  8
LAYER_6
 10
101.5888
 20
-185.6187
  0
VERTEX
  8
LAYER_6
 10
101.5888
 20
-186.8187
  0
VERTEX
  8
LAYER_6
 10
101.5888
 20
-187.4187
  0
VERTEX
  8
LAYER_6
 10
101.5888
 20
-188.6187
  0
VERTEX
  8
LAYER_6
 10
101.9394
 20
-188.6187
 42
-0.243988187
  0
VERTEX
  8
LAYER_6
 10
102.4894
 20
-188.1239
  0
VERTEX
  8
LAYER_6
 10
102.6888
 20
-188.0987
  0
VERTEX
  8
LAYER_6
 10
103.8888
 20
-188.0987
 42
-0.3101946105
  0
VERTEX
  8
LAYER_6
 10
104.6382
 20
-188.6187
  0
VERTEX
  8
LAYER_6
 10
106.6888
 20
-188.6187
  0
SEQEND
  0
POLYLINE
  8
LAYER_6
 40
0.0353
 41
0.0353
 66
1
 10
0
 20
0
 30
0
  0
VERTEX
  8
LAYER_6
 10
107.2888
 20
-187.7487
  0
VERTEX
  8
LAYER_6
 10
110.2654
 20
-187.7487
 42
0.1726987532
  0
VERTEX
  8
LAYER_6
 10
110.4888
 20
-187.1187
 42
0.1727023608
  0
VERTEX
  8
LAYER_6
 10
110.2654
 20
-186.4887
  0
VERTEX
  8
LAYER_6
 10
107.2888
 20
-186.4887
  0
SEQEND
  0
CIRCLE
  8
LAYER_6
 10
109.4888
 20
-187.1187
 40
0.3
  0
POLYLINE
  8
LAYER_6
 40
0.0353
 41
0.0353
 66
1
 10
0
 20
0
 30
0
  0
VERTEX
  8
LAYER_6
 10
97.2888
 20
-187.1248
  0
VERTEX
  8
LAYER_6
 10
101.2888
 20
-187.1778
  0
SEQEND
  0
POLYLINE
  8
LAYER_6
 40
0.0353
 41
0.0353
 66
1
 10
0
 20
0
 30
0
  0
VERTEX
  8
LAYER_6
 10
101.2888
 20
-187.0596
  0
VERTEX
  8
LAYER_6
 10
97.2888
 20
-187.1126
  0
SEQEND
  0
POLYLINE
  8
LAYER_6
 40
0.0353
 41
0.0353
 66
1
 10
0
 20
0
 30
0
  0
VERTEX
  8
LAYER_6
 10
101.2888
 20
-186.1687
  0
VERTEX
  8
LAYER_6
 10
97.2888
 20
-186.5187
  0
VERTEX
  8
LAYER_6
 10
97.2888
 20
-187.1126
  0
VERTEX
  8
LAYER_6
 10
97.2888
 20
-187.1248
  0
VERTEX
  8
LAYER_6
 10
97.2888
 20
-187.7187
  0
VERTEX
  8
LAYER_6
 10
101.2888
 20
-188.0686
  0
SEQEND
  0
POLYLINE
  8
LAYER_6
 40
0.0353
 41
0.0353
 66
1
 10
0
 20
0
 30
0
  0
VERTEX
  8
LAYER_6
 10
90.8082
 20
-181.5354
  0
VERTEX
  8
LAYER_6
 10
90.8082
 20
-185.6987
 42
0.4142016074
  0
VERTEX
  8
LAYER_6
 10
91.8082
 20
-186.6987
  0
VERTEX
  8
LAYER_6
 10
97.2888
 20
-186.6987
  0
SEQEND
  0
POLYLINE
  8
LAYER_6
 40
0.0353
 41
0.0353
 66
1
 10
0
 20
0
 30
0
  0
VERTEX
  8
LAYER_6
 10
97.2888
 20
-187.5387
  0
VERTEX
  8
LAYER_6
 10
91.8082
 20
-187.5387
 42
-0.414204405
  0
VERTEX
  8
LAYER_6
 10
89.9682
 20
-185.6987
  0
VERTEX
  8
LAYER_6
 10
89.9682
 20
-181.5354
  0
SEQEND
  0
POLYLINE
  8
LAYER_6
 40
0.0353
 41
0.0353
 66
1
 10
0
 20
0
 30
0
  0
VERTEX
  8
LAYER_6
 10
185.3096
 20
-127.2294
  0
VERTEX
  8
LAYER_6
 10
185.3096
 20
-111.9664
 42
0.4142051015
  0
VERTEX
  8
LAYER_6
 10
183.2696
 20
-109.9264
  0
VERTEX
  8
LAYER_6
 10
177.5853
 20
-109.9264
  0
SEQEND
  0
POLYLINE
  8
LAYER_6
 40
0.0353
 41
0.0353
 66
1
 10
0
 20
0
 30
0
  0
VERTEX
  8
LAYER_6
 10
184.2696
 20
-127.2294
  0
VERTEX
  8
LAYER_6
 10
184.2696
 20
-111.9664
 42
0.4142023467
  0
VERTEX
  8
LAYER_6
 10
183.2696
 20
-110.9664
  0
VERTEX
  8
LAYER_6
 10
177.5853
 20
-110.9664
  0
SEQEND
  0
POLYLINE
  8
LAYER_6
 40
0.0353
 41
0.0353
 66
1
 10
0
 20
0
 30
0
  0
VERTEX
  8
LAYER_6
 10
185.8896
 20
-128.0294
  0
VERTEX
  8
LAYER_6
 10
185.8896
 20
-127.2294
  0
VERTEX
  8
LAYER_6
 10
183.6896
 20
-127.2294
  0
VERTEX
  8
LAYER_6
 10
183.6896
 20
-128.0294
  0
SEQEND
  0
POLYLINE
  8
LAYER_6
 40
0.0353
 41
0.0353
 66
1
 10
0
 20
0
 30
0
 70
1
  0
VERTEX
  8
LAYER_6
 10
183.6896
 20
-129.7894
  0
VERTEX
  8
LAYER_6
 10
185.8896
 20
-129.7894
  0
VERTEX
  8
LAYER_6
 10
185.8896
 20
-132.3894
  0
VERTEX
  8
LAYER_6
 10
183.6896
 20
-132.3894
  0
SEQEND
  0
POLYLINE
  8
LAYER_6
 40
0.0353
 41
0.0353
 66
1
 10
0
 20
0
 30
0
  0
VERTEX
  8
LAYER_6
 10
185.6896
 20
-128.2294
  0
VERTEX
  8
LAYER_6
 10
185.6896
 20
-129.7894
  0
SEQEND
  0
POLYLINE
  8
LAYER_6
 40
0.0353
 41
0.0353
 66
1
 10
0
 20
0
 30
0
  0
VERTEX
  8
LAYER_6
 10
184.4596
 20
-132.3894
  0
VERTEX
  8
LAYER_6
 10
184.4596
 20
-131.0294
  0
VERTEX
  8
LAYER_6
 10
184.1596
 20
-131.0294
  0
VERTEX
  8
LAYER_6
 10
184.1596
 20
-132.3894
  0
SEQEND
  0
POLYLINE
  8
LAYER_6
 40
0.0353
 41
0.0353
 66
1
 10
0
 20
0
 30
0
  0
VERTEX
  8
LAYER_6
 10
185.4196
 20
-132.3894
  0
VERTEX
  8
LAYER_6
 10
185.4196
 20
-131.0294
  0
VERTEX
  8
LAYER_6
 10
185.1196
 20
-131.0294
  0
VERTEX
  8
LAYER_6
 10
185.1196
 20
-132.3894
  0
SEQEND
  0
POLYLINE
  8
LAYER_6
 40
0.0353
 41
0.0353
 66
1
 10
0
 20
0
 30
0
  0
VERTEX
  8
LAYER_6
 10
184.4596
 20
-131.7494
  0
VERTEX
  8
LAYER_6
 10
185.1196
 20
-131.7494
  0
SEQEND
  0
POLYLINE
  8
LAYER_6
 40
0.0353
 41
0.0353
 66
1
 10
0
 20
0
 30
0
  0
VERTEX
  8
LAYER_6
 10
183.8896
 20
-129.7894
  0
VERTEX
  8
LAYER_6
 10
183.8896
 20
-128.2294
  0
VERTEX
  8
LAYER_6
 10
185.6896
 20
-128.2294
  0
VERTEX
  8
LAYER_6
 10
185.8896
 20
-128.0294
  0
VERTEX
  8
LAYER_6
 10
183.6896
 20
-128.0294
  0
VERTEX
  8
LAYER_6
 10
183.8896
 20
-128.2294
  0
SEQEND
  0
POLYLINE
  8
LAYER_6
 40
0.0353
 41
0.0353
 66
1
 10
0
 20
0
 30
0
  0
VERTEX
  8
LAYER_6
 10
164.0838
 20
-156.7277
  0
VERTEX
  8
LAYER_6
 10
164.036
 20
-156.7547
  0
VERTEX
  8
LAYER_6
 10
164.0449
 20
-156.7626
  0
SEQEND
  0
POLYLINE
  8
LAYER_6
 40
0.0353
 41
0.0353
 66
1
 10
0
 20
0
 30
0
  0
VERTEX
  8
LAYER_6
 10
174.3774
 20
-155.6419
  0
VERTEX
  8
LAYER_6
 10
174.3774
 20
-158.6049
  0
SEQEND
  0
POLYLINE
  8
LAYER_6
 40
0.0353
 41
0.0353
 66
1
 10
0
 20
0
 30
0
  0
VERTEX
  8
LAYER_6
 10
175.3774
 20
-158.5962
  0
VERTEX
  8
LAYER_6
 10
175.3774
 20
-155.6419
  0
SEQEND
  0
POLYLINE
  8
LAYER_6
 40
0.0353
 41
0.0353
 66
1
 10
0
 20
0
 30
0
  0
VERTEX
  8
LAYER_6
 10
163.6788
 20
-157.2189
  0
VERTEX
  8
LAYER_6
 10
163.7307
 20
-157.2185
  0
SEQEND
  0
POLYLINE
  8
LAYER_6
 40
0.0353
 41
0.0353
 66
1
 10
0
 20
0
 30
0
  0
VERTEX
  8
LAYER_6
 10
169.7774
 20
-158.6451
  0
VERTEX
  8
LAYER_6
 10
169.7774
 20
-157.17
  0
VERTEX
  8
LAYER_6
 10
169.7774
 20
-157.07
  0
VERTEX
  8
LAYER_6
 10
169.7774
 20
-156.67
  0
VERTEX
  8
LAYER_6
 10
169.1827
 20
-156.6752
  0
VERTEX
  8
LAYER_6
 10
166.3774
 20
-156.6997
  0
VERTEX
  8
LAYER_6
 10
164.8774
 20
-156.7128
  0
VERTEX
  8
LAYER_6
 10
164.1731
 20
-156.7189
 42
0.411444229
  0
VERTEX
  8
LAYER_6
 10
163.6774
 20
-157.2189
  0
VERTEX
  8
LAYER_6
 10
163.6774
 20
-158.6983
  0
SEQEND
  0
POLYLINE
  8
LAYER_6
 40
0.0353
 41
0.0353
 66
1
 10
0
 20
0
 30
0
  0
VERTEX
  8
LAYER_6
 10
178.0368
 20
-158.573
  0
VERTEX
  8
LAYER_6
 10
166.3774
 20
-158.6747
  0
VERTEX
  8
LAYER_6
 10
162.0731
 20
-158.7123
 42
0.411465146
  0
VERTEX
  8
LAYER_6
 10
161.5774
 20
-159.2123
  0
VERTEX
  8
LAYER_6
 10
161.5774
 20
-176.2277
 42
0.4114654121
  0
VERTEX
  8
LAYER_6
 10
162.0731
 20
-176.7277
  0
VERTEX
  8
LAYER_6
 10
163.4774
 20
-176.74
  0
VERTEX
  8
LAYER_6
 10
163.9774
 20
-176.7443
  0
SEQEND
  0
POLYLINE
  8
LAYER_6
 40
0.0353
 41
0.0353
 66
1
 10
0
 20
0
 30
0
  0
VERTEX
  8
LAYER_6
 10
174.3774
 20
-155.6419
 42
-0.3989224329
  0
VERTEX
  8
LAYER_6
 10
174.5774
 20
-155.6419
 42
0.1902810354
  0
VERTEX
  8
LAYER_6
 10
174.6774
 20
-155.6819
 42
0.1901473659
  0
VERTEX
  8
LAYER_6
 10
174.7774
 20
-155.6419
 42
-0.1902810354
  0
VERTEX
  8
LAYER_6
 10
174.8774
 20
-155.6019
 42
-0.1901473659
  0
VERTEX
  8
LAYER_6
 10
174.9774
 20
-155.6419
 42
0.1902810354
  0
VERTEX
  8
LAYER_6
 10
175.0774
 20
-155.6819
 42
0.1901473659
  0
VERTEX
  8
LAYER_6
 10
175.1774
 20
-155.6419
 42
-0.1902810354
  0
VERTEX
  8
LAYER_6
 10
175.2774
 20
-155.6019
 42
-0.1901473659
  0
VERTEX
  8
LAYER_6
 10
175.3774
 20
-155.6419
  0
SEQEND
  0
POLYLINE
  8
LAYER_6
 40
0.0353
 41
0.0353
 66
1
 10
0
 20
0
 30
0
  0
VERTEX
  8
LAYER_6
 10
167.2774
 20
-126.267
  0
VERTEX
  8
LAYER_6
 10
167.2774
 20
-156.6918
  0
SEQEND
  0
POLYLINE
  8
LAYER_6
 40
0.0353
 41
0.0353
 66
1
 10
0
 20
0
 30
0
  0
VERTEX
  8
LAYER_6
 10
165.4774
 20
-126.267
  0
VERTEX
  8
LAYER_6
 10
165.4774
 20
-156.7075
  0
SEQEND
  0
POLYLINE
  8
LAYER_6
 40
0.0353
 41
0.0353
 66
1
 10
0
 20
0
 30
0
  0
VERTEX
  8
LAYER_6
 10
165.4774
 20
-126.267
 42
-0.3989017111
  0
VERTEX
  8
LAYER_6
 10
165.8374
 20
-126.267
 42
0.1902859024
  0
VERTEX
  8
LAYER_6
 10
166.0174
 20
-126.339
 42
0.1900621464
  0
VERTEX
  8
LAYER_6
 10
166.1974
 20
-126.267
 42
-0.190485421
  0
VERTEX
  8
LAYER_6
 10
166.3774
 20
-126.195
 42
-0.1905235853
  0
VERTEX
  8
LAYER_6
 10
166.5574
 20
-126.267
 42
0.1902859024
  0
VERTEX
  8
LAYER_6
 10
166.7374
 20
-126.339
 42
0.1900621464
  0
VERTEX
  8
LAYER_6
 10
166.9174
 20
-126.267
 42
-0.190485421
  0
VERTEX
  8
LAYER_6
 10
167.0974
 20
-126.195
 42
-0.1905235853
  0
VERTEX
  8
LAYER_6
 10
167.2774
 20
-126.267
  0
SEQEND
  0
POLYLINE
  8
LAYER_6
 40
0.0353
 41
0.0353
 66
1
 10
0
 20
0
 30
0
  0
VERTEX
  8
LAYER_6
 10
174.3774
 20
-155.2263
 42
-0.3989243734
  0
VERTEX
  8
LAYER_6
 10
174.5774
 20
-155.2263
 42
0.1902810354
  0
VERTEX
  8
LAYER_6
 10
174.6774
 20
-155.2663
 42
0.1901473659
  0
VERTEX
  8
LAYER_6
 10
174.7774
 20
-155.2263
 42
-0.1902810354
  0
VERTEX
  8
LAYER_6
 10
174.8774
 20
-155.1863
 42
-0.1901473659
  0
VERTEX
  8
LAYER_6
 10
174.9774
 20
-155.2263
 42
0.1902810354
  0
VERTEX
  8
LAYER_6
 10
175.0774
 20
-155.2663
 42
0.1901473659
  0
VERTEX
  8
LAYER_6
 10
175.1774
 20
-155.2263
 42
-0.1902810354
  0
VERTEX
  8
LAYER_6
 10
175.2774
 20
-155.1863
 42
-0.1901473659
  0
VERTEX
  8
LAYER_6
 10
175.3774
 20
-155.2263
  0
SEQEND
  0
POLYLINE
  8
LAYER_6
 40
0.0353
 41
0.0353
 66
1
 10
0
 20
0
 30
0
  0
VERTEX
  8
LAYER_6
 10
184.4096
 20
-136.4518
  0
VERTEX
  8
LAYER_6
 10
184.4096
 20
-134.5118
 42
0.3932479359
  0
VERTEX
  8
LAYER_6
 10
184.3496
 20
-134.4518
 42
0.3927995517
  0
VERTEX
  8
LAYER_6
 10
184.2896
 20
-134.5118
  0
VERTEX
  8
LAYER_6
 10
184.2896
 20
-136.4518
  0
SEQEND
  0
POLYLINE
  8
LAYER_6
 40
0.0353
 41
0.0353
 66
1
 10
0
 20
0
 30
0
  0
VERTEX
  8
LAYER_6
 10
185.2896
 20
-136.4518
  0
VERTEX
  8
LAYER_6
 10
185.2896
 20
-134.5118
 42
0.3932479359
  0
VERTEX
  8
LAYER_6
 10
185.2296
 20
-134.4518
 42
0.3927995517
  0
VERTEX
  8
LAYER_6
 10
185.1696
 20
-134.5118
  0
VERTEX
  8
LAYER_6
 10
185.1696
 20
-136.4518
  0
SEQEND
  0
POLYLINE
  8
LAYER_6
 40
0.0353
 41
0.0353
 66
1
 10
0
 20
0
 30
0
  0
VERTEX
  8
LAYER_6
 10
184.4896
 20
-134.9518
  0
VERTEX
  8
LAYER_6
 10
185.0896
 20
-134.9518
  0
SEQEND
  0
POLYLINE
  8
LAYER_6
 40
0.0353
 41
0.0353
 66
1
 10
0
 20
0
 30
0
  0
VERTEX
  8
LAYER_6
 10
184.4896
 20
-134.8118
  0
VERTEX
  8
LAYER_6
 10
185.0896
 20
-134.8118
  0
SEQEND
  0
POLYLINE
  8
LAYER_6
 40
0.0353
 41
0.0353
 66
1
 10
0
 20
0
 30
0
 70
1
  0
VERTEX
  8
LAYER_6
 10
183.8196
 20
-136.4518
 42
-0.4141294987
  0
VERTEX
  8
LAYER_6
 10
183.7196
 20
-136.3518
  0
VERTEX
  8
LAYER_6
 10
183.7196
 20
-135.6918
 42
-0.414161964
  0
VERTEX
  8
LAYER_6
 10
183.8196
 20
-135.5918
  0
VERTEX
  8
LAYER_6
 10
183.9196
 20
-135.5918
  0
VERTEX
  8
LAYER_6
 10
183.9196
 20
-133.2518
 42
-0.4141619641
  0
VERTEX
  8
LAYER_6
 10
184.0196
 20
-133.1518
  0
VERTEX
  8
LAYER_6
 10
185.5596
 20
-133.1518
 42
-0.4142860195
  0
VERTEX
  8
LAYER_6
 10
185.6596
 20
-133.2518
  0
VERTEX
  8
LAYER_6
 10
185.6596
 20
-135.5918
  0
VERTEX
  8
LAYER_6
 10
185.7596
 20
-135.5918
 42
-0.4142860195
  0
VERTEX
  8
LAYER_6
 10
185.8596
 20
-135.6918
  0
VERTEX
  8
LAYER_6
 10
185.8596
 20
-136.3518
 42
-0.4142535237
  0
VERTEX
  8
LAYER_6
 10
185.7596
 20
-136.4518
  0
SEQEND
  0
POLYLINE
  8
LAYER_6
 40
0.0353
 41
0.0353
 66
1
 10
0
 20
0
 30
0
  0
VERTEX
  8
LAYER_6
 10
185.2877
 20
-160.5684
  0
VERTEX
  8
LAYER_6
 10
185.2888
 20
-142.4275
  0
VERTEX
  8
LAYER_6
 10
185.0896
 20
-136.4518
  0
VERTEX
  8
LAYER_6
 10
185.0896
 20
-134.5518
  0
VERTEX
  8
LAYER_6
 10
184.4896
 20
-134.5518
  0
VERTEX
  8
LAYER_6
 10
184.4896
 20
-136.4518
  0
VERTEX
  8
LAYER_6
 10
184.2904
 20
-142.4275
  0
VERTEX
  8
LAYER_6
 10
184.2904
 20
-160.464
 42
-0.4142023833
  0
VERTEX
  8
LAYER_6
 10
183.2904
 20
-161.464
  0
VERTEX
  8
LAYER_6
 10
181.7703
 20
-161.464
 42
-0.4141934573
  0
VERTEX
  8
LAYER_6
 10
180.7703
 20
-160.464
  0
VERTEX
  8
LAYER_6
 10
180.7703
 20
-151.8638
 42
0.414212997
  0
VERTEX
  8
LAYER_6
 10
178.7703
 20
-149.8638
  0
VERTEX
  8
LAYER_6
 10
176.3774
 20
-149.8638
 42
0.4142102857
  0
VERTEX
  8
LAYER_6
 10
174.3774
 20
-151.8638
  0
VERTEX
  8
LAYER_6
 10
174.3774
 20
-155.2263
  0
SEQEND
  0
POLYLINE
  8
LAYER_6
 40
0.0353
 41
0.0353
 66
1
 10
0
 20
0
 30
0
  0
VERTEX
  8
LAYER_6
 10
185.2904
 20
-160.464
 42
-0.4142050667
  0
VERTEX
  8
LAYER_6
 10
183.2904
 20
-162.464
  0
VERTEX
  8
LAYER_6
 10
181.7688
 20
-162.464
 42
-0.414362337
  0
VERTEX
  8
LAYER_6
 10
179.7703
 20
-160.464
  0
VERTEX
  8
LAYER_6
 10
179.7703
 20
-151.8638
 42
0.414218244
  0
VERTEX
  8
LAYER_6
 10
178.7703
 20
-150.8638
  0
VERTEX
  8
LAYER_6
 10
176.3774
 20
-150.8638
 42
0.4142128213
  0
VERTEX
  8
LAYER_6
 10
175.3774
 20
-151.8638
  0
VERTEX
  8
LAYER_6
 10
175.3774
 20
-155.2263
  0
SEQEND
  0
POLYLINE
  8
LAYER_6
 40
0.0353
 41
0.0353
 66
1
 10
0
 20
0
 30
0
  0
VERTEX
  8
LAYER_6
 10
88.4882
 20
-91.393
 42
0.1416758256
  0
VERTEX
  8
LAYER_6
 10
88.3388
 20
-90.8968
 42
0.1107072135
  0
VERTEX
  8
LAYER_6
 10
87.8531
 20
-90.4295
 42
0.08439731601
  0
VERTEX
  8
LAYER_6
 10
87.0053
 20
-90.0872
 42
0.05609884053
  0
VERTEX
  8
LAYER_6
 10
86.1882
 20
-89.9965
 42
0.07275042403
  0
VERTEX
  8
LAYER_6
 10
85.166
 20
-90.1416
 42
0.08735137068
  0
VERTEX
  8
LAYER_6
 10
84.396
 20
-90.5177
 42
0.1217626849
  0
VERTEX
  8
LAYER_6
 10
83.9755
 20
-91.0107
 42
0.1111676871
  0
VERTEX
  8
LAYER_6
 10
83.8882
 20
-91.393
  0
SEQEND
  0
POLYLINE
  8
LAYER_6
 40
0.0353
 41
0.0353
 66
1
 10
0
 20
0
 30
0
  0
VERTEX
  8
LAYER_6
 10
83.8882
 20
-91.393
 42
0.145606929
  0
VERTEX
  8
LAYER_6
 10
84.0427
 20
-91.8833
 42
0.1106219192
  0
VERTEX
  8
LAYER_6
 10
84.5445
 20
-92.3502
 42
0.07899581594
  0
VERTEX
  8
LAYER_6
 10
85.3439
 20
-92.669
  0
SEQEND
  0
POLYLINE
  8
LAYER_6
 40
0.0353
 41
0.0353
 66
1
 10
0
 20
0
 30
0
  0
VERTEX
  8
LAYER_6
 10
87.0477
 20
-92.6654
 42
0.08527519808
  0
VERTEX
  8
LAYER_6
 10
87.8826
 20
-92.318
 42
0.1137260937
  0
VERTEX
  8
LAYER_6
 10
88.3576
 20
-91.8448
 42
0.1357072346
  0
VERTEX
  8
LAYER_6
 10
88.4882
 20
-91.393
  0
SEQEND
  0
POLYLINE
  8
LAYER_6
 40
0.0353
 41
0.0353
 66
1
 10
0
 20
0
 30
0
  0
VERTEX
  8
LAYER_6
 10
88.7282
 20
-91.3806
 42
0.1381598562
  0
VERTEX
  8
LAYER_6
 10
88.5741
 20
-90.855
 42
0.1068221491
  0
VERTEX
  8
LAYER_6
 10
88.0887
 20
-90.3665
 42
0.08198936582
  0
VERTEX
  8
LAYER_6
 10
87.2335
 20
-89.987
 42
0.06596203897
  0
VERTEX
  8
LAYER_6
 10
86.1882
 20
-89.852
 42
0.07016149535
  0
VERTEX
  8
LAYER_6
 10
85.087
 20
-90.0027
 42
0.0834743965
  0
VERTEX
  8
LAYER_6
 10
84.2478
 20
-90.3942
 42
0.109826825
  0
VERTEX
  8
LAYER_6
 10
83.7817
 20
-90.8903
 42
0.129727802
  0
VERTEX
  8
LAYER_6
 10
83.6482
 20
-91.3806
  0
SEQEND
  0
POLYLINE
  8
LAYER_6
 40
0.0353
 41
0.0353
 66
1
 10
0
 20
0
 30
0
  0
VERTEX
  8
LAYER_6
 10
83.6482
 20
-91.3806
 42
0.1381598562
  0
VERTEX
  8
LAYER_6
 10
83.8023
 20
-91.9062
 42
0.1068221491
  0
VERTEX
  8
LAYER_6
 10
84.2877
 20
-92.3947
 42
0.08198936582
  0
VERTEX
  8
LAYER_6
 10
85.1429
 20
-92.7742
 42
0.06596203897
  0
VERTEX
  8
LAYER_6
 10
86.1882
 20
-92.9092
 42
0.07016149535
  0
VERTEX
  8
LAYER_6
 10
87.2894
 20
-92.7585
 42
0.0834743965
  0
VERTEX
  8
LAYER_6
 10
88.1286
 20
-92.367
 42
0.109826825
  0
VERTEX
  8
LAYER_6
 10
88.5947
 20
-91.8709
 42
0.129727802
  0
VERTEX
  8
LAYER_6
 10
88.7282
 20
-91.3806
  0
SEQEND
  0
POLYLINE
  8
LAYER_6
 40
0.0353
 41
0.0353
 66
1
 10
0
 20
0
 30
0
 70
1
  0
VERTEX
  8
LAYER_6
 10
166.9074
 20
-100.1723
  0
VERTEX
  8
LAYER_6
 10
163.0674
 20
-100.1723
  0
VERTEX
  8
LAYER_6
 10
163.0074
 20
-100.1123
  0
VERTEX
  8
LAYER_6
 10
170.8074
 20
-100.1123
  0
VERTEX
  8
LAYER_6
 10
170.7474
 20
-100.1723
  0
SEQEND
  0
POLYLINE
  8
LAYER_6
 40
0.0353
 41
0.0353
 66
1
 10
0
 20
0
 30
0
  0
VERTEX
  8
LAYER_6
 10
163.1267
 20
-98.1723
  0
VERTEX
  8
LAYER_6
 10
166.9074
 20
-98.1723
  0
VERTEX
  8
LAYER_6
 10
170.6881
 20
-98.1723
  0
SEQEND
  0
POLYLINE
  8
LAYER_6
  6
AIGENLINE001
 40
0.0353
 41
0.0353
 66
1
 10
0
 20
0
 30
0
 70
128
  0
VERTEX
  8
LAYER_6
 10
161.7774
 20
-179.85
  0
VERTEX
  8
LAYER_6
 10
172.5774
 20
-179.85
  0
SEQEND
  0
POLYLINE
  8
LAYER_6
  6
AIGENLINE001
 40
0.0353
 41
0.0353
 66
1
 10
0
 20
0
 30
0
 70
128
  0
VERTEX
  8
LAYER_6
 10
170.0774
 20
-176.85
  0
VERTEX
  8
LAYER_6
 10
170.0774
 20
-186.05
  0
SEQEND
  0
POLYLINE
  8
LAYER_6
 40
0.0353
 41
0.0353
 66
1
 10
0
 20
0
 30
0
  0
VERTEX
  8
LAYER_6
 10
168.7774
 20
-177.05
  0
VERTEX
  8
LAYER_6
 10
168.7774
 20
-176.7862
  0
SEQEND
  0
POLYLINE
  8
LAYER_6
 40
0.0353
 41
0.0353
 66
1
 10
0
 20
0
 30
0
  0
VERTEX
  8
LAYER_6
 10
163.9774
 20
-177.05
  0
VERTEX
  8
LAYER_6
 10
163.9774
 20
-176.7443
  0
VERTEX
  8
LAYER_6
 10
177.7827
 20
-176.8648
  0
VERTEX
  8
LAYER_6
 10
178.3774
 20
-176.87
  0
VERTEX
  8
LAYER_6
 10
178.3774
 20
-176.47
  0
VERTEX
  8
LAYER_6
 10
178.3774
 20
-176.37
  0
VERTEX
  8
LAYER_6
 10
178.3774
 20
-159.07
  0
VERTEX
  8
LAYER_6
 10
178.3774
 20
-158.97
  0
VERTEX
  8
LAYER_6
 10
178.3774
 20
-158.57
  0
VERTEX
  8
LAYER_6
 10
177.9809
 20
-158.5735
  0
SEQEND
  0
POLYLINE
  8
LAYER_6
 40
0.0353
 41
0.0353
 66
1
 10
0
 20
0
 30
0
  0
VERTEX
  8
LAYER_6
 10
163.5774
 20
-177.45
  0
VERTEX
  8
LAYER_6
 10
162.4774
 20
-177.45
  0
SEQEND
  0
POLYLINE
  8
LAYER_6
 40
0.0353
 41
0.0353
 66
1
 10
0
 20
0
 30
0
  0
VERTEX
  8
LAYER_6
 10
163.5797
 20
-177.45
 42
0.410555297
  0
VERTEX
  8
LAYER_6
 10
163.9774
 20
-177.0523
  0
SEQEND
  0
POLYLINE
  8
LAYER_6
 40
0.0353
 41
0.0353
 66
1
 10
0
 20
0
 30
0
  0
VERTEX
  8
LAYER_6
 10
168.7774
 20
-177.0523
 42
0.410601711
  0
VERTEX
  8
LAYER_6
 10
169.1752
 20
-177.45
  0
SEQEND
  0
POLYLINE
  8
LAYER_6
 40
0.0353
 41
0.0353
 66
1
 10
0
 20
0
 30
0
  0
VERTEX
  8
LAYER_6
 10
171.9774
 20
-182.55
  0
VERTEX
  8
LAYER_6
 10
171.9774
 20
-179.85
 42
0.414209986
  0
VERTEX
  8
LAYER_6
 10
169.5774
 20
-177.45
  0
VERTEX
  8
LAYER_6
 10
169.1774
 20
-177.45
  0
SEQEND
  0
POLYLINE
  8
LAYER_6
 40
0.0353
 41
0.0353
 66
1
 10
0
 20
0
 30
0
  0
VERTEX
  8
LAYER_6
 10
168.1774
 20
-182.5508
 42
0.3404213576
  0
VERTEX
  8
LAYER_6
 10
167.792
 20
-182.2507
  0
VERTEX
  8
LAYER_6
 10
167.7902
 20
-182.2508
  0
VERTEX
  8
LAYER_6
 10
162.4774
 20
-182.25
  0
SEQEND
  0
POLYLINE
  8
LAYER_6
 40
0.0353
 41
0.0353
 66
1
 10
0
 20
0
 30
0
 70
1
  0
VERTEX
  8
LAYER_6
 10
162.3774
 20
-177.55
  0
VERTEX
  8
LAYER_6
 10
162.3774
 20
-182.15
  0
VERTEX
  8
LAYER_6
 10
162.4774
 20
-182.25
  0
VERTEX
  8
LAYER_6
 10
162.4774
 20
-177.45
  0
SEQEND
  0
POLYLINE
  8
LAYER_6
 40
0.0353
 41
0.0353
 66
1
 10
0
 20
0
 30
0
 70
1
  0
VERTEX
  8
LAYER_6
 10
168.2774
 20
-182.65
  0
VERTEX
  8
LAYER_6
 10
170.0774
 20
-182.65
  0
VERTEX
  8
LAYER_6
 10
171.8774
 20
-182.65
  0
VERTEX
  8
LAYER_6
 10
171.9774
 20
-182.55
  0
VERTEX
  8
LAYER_6
 10
168.2789
 20
-182.55
  0
VERTEX
  8
LAYER_6
 10
168.1774
 20
-182.55
  0
SEQEND
  0
POLYLINE
  8
LAYER_6
 40
0.0353
 41
0.0353
 66
1
 10
0
 20
0
 30
0
  0
VERTEX
  8
LAYER_6
 10
163.9774
 20
-177.45
  0
VERTEX
  8
LAYER_6
 10
166.3774
 20
-179.85
  0
VERTEX
  8
LAYER_6
 10
168.7774
 20
-177.45
  0
SEQEND
  0
POLYLINE
  8
LAYER_6
 40
0.0353
 41
0.0353
 66
1
 10
0
 20
0
 30
0
  0
VERTEX
  8
LAYER_6
 10
171.9774
 20
-179.85
  0
VERTEX
  8
LAYER_6
 10
171.9774
 20
-179.8503
 42
-0.176257993
  0
VERTEX
  8
LAYER_6
 10
171.8315
 20
-180.2346
 42
-0.08876401734
  0
VERTEX
  8
LAYER_6
 10
171.5073
 20
-180.5368
 42
-0.05927499667
  0
VERTEX
  8
LAYER_6
 10
170.6135
 20
-181.0182
 42
-0.02341356465
  0
VERTEX
  8
LAYER_6
 10
169.5774
 20
-181.3992
 42
0.0497934275
  0
VERTEX
  8
LAYER_6
 10
169.1801
 20
-181.5668
 42
0.04091570363
  0
VERTEX
  8
LAYER_6
 10
168.1785
 20
-182.2491
  0
SEQEND
  0
POLYLINE
  8
LAYER_6
 40
0.0353
 41
0.0353
 66
1
 10
0
 20
0
 30
0
  0
VERTEX
  8
LAYER_6
 10
162.3774
 20
-181.94
  0
VERTEX
  8
LAYER_6
 10
162.1228
 20
-181.94
 42
-0.06738492804
  0
VERTEX
  8
LAYER_6
 10
161.8196
 20
-180.03
  0
VERTEX
  8
LAYER_6
 10
162.3774
 20
-180.03
  0
SEQEND
  0
POLYLINE
  8
LAYER_6
 40
0.0353
 41
0.0353
 66
1
 10
0
 20
0
 30
0
  0
VERTEX
  8
LAYER_6
 10
162.3774
 20
-177.76
  0
VERTEX
  8
LAYER_6
 10
162.1228
 20
-177.76
 42
0.06738492763
  0
VERTEX
  8
LAYER_6
 10
161.8196
 20
-179.67
  0
VERTEX
  8
LAYER_6
 10
162.3774
 20
-179.67
  0
SEQEND
  0
POLYLINE
  8
LAYER_6
 40
0.1905
 41
0.1905
 66
1
 10
0
 20
0
 30
0
  0
VERTEX
  8
LAYER_6
 10
172.7524
 20
-184.15
 42
0.1143988894
  0
VERTEX
  8
LAYER_6
 10
172.6116
 20
-183.4898
 42
0.2637574174
  0
VERTEX
  8
LAYER_6
 10
172.2425
 20
-183.1931
 42
0.2341661823
  0
VERTEX
  8
LAYER_6
 10
171.9524
 20
-183.363
 42
0.1631820392
  0
VERTEX
  8
LAYER_6
 10
171.7326
 20
-184.15
  0
SEQEND
  0
POLYLINE
  8
LAYER_6
 40
0.2399
 41
0.2399
 66
1
 10
0
 20
0
 30
0
  0
VERTEX
  8
LAYER_6
 10
170.0774
 20
-185.1069
 42
0.2667158619
  0
VERTEX
  8
LAYER_6
 10
170.9912
 20
-184.5753
 42
0.1223346047
  0
VERTEX
  8
LAYER_6
 10
171.0972
 20
-184.15
  0
SEQEND
  0
POLYLINE
  8
LAYER_6
 40
0.2469
 41
0.2469
 66
1
 10
0
 20
0
 30
0
  0
VERTEX
  8
LAYER_6
 10
171.7326
 20
-184.15
  0
VERTEX
  8
LAYER_6
 10
171.7326
 20
-184.9273
 42
0.4141907209
  0
VERTEX
  8
LAYER_6
 10
171.9326
 20
-185.1273
  0
VERTEX
  8
LAYER_6
 10
172.5524
 20
-185.1273
 42
0.4141373524
  0
VERTEX
  8
LAYER_6
 10
172.7524
 20
-184.9273
  0
VERTEX
  8
LAYER_6
 10
172.7524
 20
-184.15
  0
SEQEND
  0
POLYLINE
  8
LAYER_6
 40
0.0353
 41
0.0353
 66
1
 10
0
 20
0
 30
0
  0
VERTEX
  8
LAYER_6
 10
171.6774
 20
-182.65
  0
VERTEX
  8
LAYER_6
 10
171.6774
 20
-182.85
  0
SEQEND
  0
POLYLINE
  8
LAYER_6
  6
AIGENLINE001
 40
0.0353
 41
0.0353
 66
1
 10
0
 20
0
 30
0
 70
128
  0
VERTEX
  8
LAYER_6
 10
86.1882
 20
-41.9163
  0
VERTEX
  8
LAYER_6
 10
86.1882
 20
-16.0664
  0
SEQEND
  0
POLYLINE
  8
LAYER_6
  6
AIGENLINE001
 40
0.0353
 41
0.0353
 66
1
 10
0
 20
0
 30
0
 70
128
  0
VERTEX
  8
LAYER_6
 10
81.6882
 20
-20.7164
  0
VERTEX
  8
LAYER_6
 10
90.6882
 20
-20.7164
  0
SEQEND
  0
POLYLINE
  8
LAYER_6
 40
0.0353
 41
0.0353
 66
1
 10
0
 20
0
 30
0
  0
VERTEX
  8
LAYER_6
 10
88.7282
 20
-39.1365
  0
VERTEX
  8
LAYER_6
 10
88.7282
 20
-20.7164
 42
0.4142092668
  0
VERTEX
  8
LAYER_6
 10
86.1882
 20
-18.1764
 42
0.4142115992
  0
VERTEX
  8
LAYER_6
 10
83.6482
 20
-20.7164
  0
VERTEX
  8
LAYER_6
 10
83.6482
 20
-39.1365
  0
SEQEND
  0
POLYLINE
  8
LAYER_6
  6
AIGENLINE001
 40
0.0353
 41
0.0353
 66
1
 10
0
 20
0
 30
0
 70
128
  0
VERTEX
  8
LAYER_6
 10
89.3282
 20
-39.2848
  0
VERTEX
  8
LAYER_6
 10
83.0482
 20
-39.2848
  0
SEQEND
  0
POLYLINE
  8
LAYER_6
 40
0.0353
 41
0.0353
 66
1
 10
0
 20
0
 30
0
  0
VERTEX
  8
LAYER_6
 10
83.6482
 20
-39.1365
 42
0.1080594631
  0
VERTEX
  8
LAYER_6
 10
83.8023
 20
-39.834
 42
0.09615495201
  0
VERTEX
  8
LAYER_6
 10
84.2478
 20
-40.4455
 42
0.08676123409
  0
VERTEX
  8
LAYER_6
 10
84.9775
 20
-40.9202
 42
0.1026053999
  0
VERTEX
  8
LAYER_6
 10
86.1882
 20
-41.165
 42
0.1551200336
  0
VERTEX
  8
LAYER_6
 10
87.9185
 20
-40.6216
 42
0.09360622426
  0
VERTEX
  8
LAYER_6
 10
88.4642
 20
-40.038
 42
0.1393754435
  0
VERTEX
  8
LAYER_6
 10
88.7282
 20
-39.1365
  0
SEQEND
  0
POLYLINE
  8
LAYER_6
 40
0.0353
 41
0.0353
 66
1
 10
0
 20
0
 30
0
  0
VERTEX
  8
LAYER_6
 10
83.6482
 20
-81.9657
  0
VERTEX
  8
LAYER_6
 10
83.6482
 20
-97.5123
 42
0.3931565731
  0
VERTEX
  8
LAYER_6
 10
83.7082
 20
-97.5723
  0
VERTEX
  8
LAYER_6
 10
88.6682
 20
-97.5723
 42
0.3932479359
  0
VERTEX
  8
LAYER_6
 10
88.7282
 20
-97.5123
  0
VERTEX
  8
LAYER_6
 10
88.7282
 20
-81.9657
  0
SEQEND
  0
POLYLINE
  8
LAYER_6
 40
0.0353
 41
0.0353
 66
1
 10
0
 20
0
 30
0
  0
VERTEX
  8
LAYER_6
 10
88.7282
 20
-23.6758
 42
0.218401437
  0
VERTEX
  8
LAYER_6
 10
90.0882
 20
-20.7164
 42
0.4142087379
  0
VERTEX
  8
LAYER_6
 10
86.1882
 20
-16.8164
 42
0.4142102568
  0
VERTEX
  8
LAYER_6
 10
82.2882
 20
-20.7164
 42
0.2184024649
  0
VERTEX
  8
LAYER_6
 10
83.6482
 20
-23.6758
  0
SEQEND
  0
POLYLINE
  8
LAYER_6
 40
0.0353
 41
0.0353
 66
1
 10
0
 20
0
 30
0
  0
VERTEX
  8
LAYER_6
 10
84.0927
 20
-100.5749
  0
VERTEX
  8
LAYER_6
 10
86.1882
 20
-100.5749
  0
VERTEX
  8
LAYER_6
 10
88.2837
 20
-100.5749
  0
SEQEND
  0
POLYLINE
  8
LAYER_6
 40
0.2469
 41
0.2469
 66
1
 10
0
 20
0
 30
0
  0
VERTEX
  8
LAYER_6
 10
88.8382
 20
-105.6723
  0
VERTEX
  8
LAYER_6
 10
86.1882
 20
-105.6723
  0
VERTEX
  8
LAYER_6
 10
83.5382
 20
-105.6723
  0
SEQEND
  0
POLYLINE
  8
LAYER_6
 40
0.2469
 41
0.2469
 66
1
 10
0
 20
0
 30
0
 70
1
  0
VERTEX
  8
LAYER_6
 10
164.5074
 20
-106.9723
  0
VERTEX
  8
LAYER_6
 10
166.9074
 20
-106.9723
  0
VERTEX
  8
LAYER_6
 10
169.3074
 20
-106.9723
  0
VERTEX
  8
LAYER_6
 10
169.3074
 20
-105.6723
  0
VERTEX
  8
LAYER_6
 10
164.5074
 20
-105.6723
  0
SEQEND
  0
POLYLINE
  8
LAYER_6
 40
0.2469
 41
0.2469
 66
1
 10
0
 20
0
 30
0
  0
VERTEX
  8
LAYER_6
 10
169.0805
 20
-105.6723
  0
VERTEX
  8
LAYER_6
 10
169.0805
 20
-106.9723
  0
SEQEND
  0
POLYLINE
  8
LAYER_6
 40
0.2469
 41
0.2469
 66
1
 10
0
 20
0
 30
0
  0
VERTEX
  8
LAYER_6
 10
164.7343
 20
-105.6723
  0
VERTEX
  8
LAYER_6
 10
164.7343
 20
-106.9723
  0
SEQEND
  0
POLYLINE
  8
LAYER_6
 40
0.2469
 41
0.2469
 66
1
 10
0
 20
0
 30
0
  0
VERTEX
  8
LAYER_6
 10
166.6805
 20
-105.6723
  0
VERTEX
  8
LAYER_6
 10
166.6805
 20
-106.9723
  0
SEQEND
  0
POLYLINE
  8
LAYER_6
 40
0.2469
 41
0.2469
 66
1
 10
0
 20
0
 30
0
  0
VERTEX
  8
LAYER_6
 10
167.1343
 20
-105.6723
  0
VERTEX
  8
LAYER_6
 10
167.1343
 20
-106.9723
  0
SEQEND
  0
POLYLINE
  8
LAYER_6
 40
0.0353
 41
0.0353
 66
1
 10
0
 20
0
 30
0
  0
VERTEX
  8
LAYER_6
 10
163.7288
 20
-158.6978
  0
VERTEX
  8
LAYER_6
 10
163.7288
 20
-157.227
  0
VERTEX
  8
LAYER_6
 10
163.7287
 20
-157.2161
 42
-0.3004331402
  0
VERTEX
  8
LAYER_6
 10
164.0368
 20
-156.7543
  0
SEQEND
  0
POLYLINE
  8
LAYER_6
 40
0.0353
 41
0.0353
 66
1
 10
0
 20
0
 30
0
  0
VERTEX
  8
LAYER_6
 10
165.1074
 20
-108.9268
  0
VERTEX
  8
LAYER_6
 10
168.7074
 20
-108.9268
  0
SEQEND
  0
POLYLINE
  8
LAYER_6
 40
0.2469
 41
0.2469
 66
1
 10
0
 20
0
 30
0
  0
VERTEX
  8
LAYER_6
 10
167.7083
 20
-182.85
  0
VERTEX
  8
LAYER_6
 10
170.0774
 20
-182.85
  0
VERTEX
  8
LAYER_6
 10
172.4466
 20
-182.85
  0
SEQEND
  0
POLYLINE
  8
LAYER_6
 40
0.2469
 41
0.2469
 66
1
 10
0
 20
0
 30
0
  0
VERTEX
  8
LAYER_6
 10
167.7433
 20
-182.85
 42
0.1327437243
  0
VERTEX
  8
LAYER_6
 10
167.3949
 20
-184.15
  0
VERTEX
  8
LAYER_6
 10
167.3949
 20
-185.05
 42
0.4141938949
  0
VERTEX
  8
LAYER_6
 10
167.7949
 20
-185.45
  0
VERTEX
  8
LAYER_6
 10
170.0774
 20
-185.45
  0
VERTEX
  8
LAYER_6
 10
172.3599
 20
-185.45
 42
0.4142207263
  0
VERTEX
  8
LAYER_6
 10
172.7599
 20
-185.05
  0
VERTEX
  8
LAYER_6
 10
172.7599
 20
-184.15
 42
0.132740596
  0
VERTEX
  8
LAYER_6
 10
172.4116
 20
-182.85
  0
SEQEND
  0
POLYLINE
  8
LAYER_6
 40
0.1905
 41
0.1905
 66
1
 10
0
 20
0
 30
0
  0
VERTEX
  8
LAYER_6
 10
168.4223
 20
-184.15
 42
0.1143988894
  0
VERTEX
  8
LAYER_6
 10
168.2815
 20
-183.4898
 42
0.2637574174
  0
VERTEX
  8
LAYER_6
 10
167.9124
 20
-183.1931
 42
0.2341848505
  0
VERTEX
  8
LAYER_6
 10
167.6222
 20
-183.363
 42
0.1631801632
  0
VERTEX
  8
LAYER_6
 10
167.4025
 20
-184.15
  0
SEQEND
  0
POLYLINE
  8
LAYER_6
 40
0.2399
 41
0.2399
 66
1
 10
0
 20
0
 30
0
  0
VERTEX
  8
LAYER_6
 10
170.0774
 20
-183.1931
 42
0.2667158619
  0
VERTEX
  8
LAYER_6
 10
169.1636
 20
-183.7247
 42
0.1223346049
  0
VERTEX
  8
LAYER_6
 10
169.0576
 20
-184.15
  0
SEQEND
  0
POLYLINE
  8
LAYER_6
 40
0.2469
 41
0.2469
 66
1
 10
0
 20
0
 30
0
  0
VERTEX
  8
LAYER_6
 10
168.4223
 20
-184.15
  0
VERTEX
  8
LAYER_6
 10
168.4223
 20
-184.9273
 42
-0.4140979746
  0
VERTEX
  8
LAYER_6
 10
168.2223
 20
-185.1273
  0
VERTEX
  8
LAYER_6
 10
167.6025
 20
-185.1273
 42
-0.414230102
  0
VERTEX
  8
LAYER_6
 10
167.4025
 20
-184.9273
  0
VERTEX
  8
LAYER_6
 10
167.4025
 20
-184.15
  0
SEQEND
  0
POLYLINE
  8
LAYER_6
 40
0.2469
 41
0.2469
 66
1
 10
0
 20
0
 30
0
  0
VERTEX
  8
LAYER_6
 10
169.0576
 20
-184.15
  0
VERTEX
  8
LAYER_6
 10
169.0576
 20
-184.9273
 42
0.4141400693
  0
VERTEX
  8
LAYER_6
 10
169.2576
 20
-185.1273
  0
VERTEX
  8
LAYER_6
 10
170.0774
 20
-185.1273
  0
VERTEX
  8
LAYER_6
 10
170.8972
 20
-185.1273
 42
0.4141937134
  0
VERTEX
  8
LAYER_6
 10
171.0972
 20
-184.9273
  0
VERTEX
  8
LAYER_6
 10
171.0972
 20
-184.15
  0
SEQEND
  0
POLYLINE
  8
LAYER_6
 40
0.0353
 41
0.0353
 66
1
 10
0
 20
0
 30
0
  0
VERTEX
  8
LAYER_6
 10
168.4774
 20
-182.65
  0
VERTEX
  8
LAYER_6
 10
168.4774
 20
-182.85
  0
SEQEND
  0
POLYLINE
  8
LAYER_6
 40
0.0353
 41
0.0353
 66
1
 10
0
 20
0
 30
0
  0
VERTEX
  8
LAYER_6
 10
85.2882
 20
-125.3979
 42
-0.3987666341
  0
VERTEX
  8
LAYER_6
 10
85.6482
 20
-125.3979
 42
0.190485421
  0
VERTEX
  8
LAYER_6
 10
85.8282
 20
-125.4699
 42
0.1905235853
  0
VERTEX
  8
LAYER_6
 10
86.0082
 20
-125.3979
 42
-0.1902859024
  0
VERTEX
  8
LAYER_6
 10
86.1882
 20
-125.3259
 42
-0.1900621464
  0
VERTEX
  8
LAYER_6
 10
86.3682
 20
-125.3979
 42
0.190485421
  0
VERTEX
  8
LAYER_6
 10
86.5482
 20
-125.4699
 42
0.1905235853
  0
VERTEX
  8
LAYER_6
 10
86.7282
 20
-125.3979
 42
-0.1902859024
  0
VERTEX
  8
LAYER_6
 10
86.9082
 20
-125.3259
 42
-0.1900621464
  0
VERTEX
  8
LAYER_6
 10
87.0882
 20
-125.3979
  0
SEQEND
  0
POLYLINE
  8
LAYER_6
 40
0.0353
 41
0.0353
 66
1
 10
0
 20
0
 30
0
  0
VERTEX
  8
LAYER_6
 10
85.2882
 20
-126.267
 42
-0.3989017121
  0
VERTEX
  8
LAYER_6
 10
85.6482
 20
-126.267
 42
0.1902859024
  0
VERTEX
  8
LAYER_6
 10
85.8282
 20
-126.339
 42
0.1900621464
  0
VERTEX
  8
LAYER_6
 10
86.0082
 20
-126.267
 42
-0.190485421
  0
VERTEX
  8
LAYER_6
 10
86.1882
 20
-126.195
 42
-0.1905235853
  0
VERTEX
  8
LAYER_6
 10
86.3682
 20
-126.267
 42
0.1902859024
  0
VERTEX
  8
LAYER_6
 10
86.5482
 20
-126.339
 42
0.1900621464
  0
VERTEX
  8
LAYER_6
 10
86.7282
 20
-126.267
 42
-0.190485421
  0
VERTEX
  8
LAYER_6
 10
86.9082
 20
-126.195
 42
-0.1905235853
  0
VERTEX
  8
LAYER_6
 10
87.0882
 20
-126.267
  0
SEQEND
  0
ENDSEC
  0
EOF
