  0
SECTION
  2
HEADER
  9
$ACADVER
  1
AC1009
  9
$LUNITS
 70
2
  9
$LUPREC
 70
4
  9
$LTSCALE
 40
1.0
  9
$EXTMIN
 10
33.7873
 20
-259.334
 30
0
  9
$EXTMAX
 10
230.7955
 20
22.6587
 30
0
  0
ENDSEC
  0
SECTION
  2
TABLES
  0
TABLE
  2
LTYPE
 70
256
  0
LTYPE
  2
AIGENLINE001
 70
64
  3
generate AI->DXF Converter
 72
65
 73
6
 40
6.5015
 49
4.9958
 49
-0.4996
 49
0.0035
 49
-0.4996
 49
0.0035
 49
-0.4996
  0
LTYPE
  2
AIGENLINE002
 70
64
  3
generate AI->DXF Converter
 72
65
 73
4
 40
6.9941
 49
5.4953
 49
-0.4996
 49
0.4996
 49
-0.4996
  0
ENDTAB
  0
TABLE
  2
LAYER
 70
6
  0
LAYER
  2
LAYER_1
 70
64
 62
7
  6
CONTINUOUS
  0
LAYER
  2
LAYER_2
 70
64
 62
7
  6
CONTINUOUS
  0
LAYER
  2
LAYER_3
 70
64
 62
7
  6
CONTINUOUS
  0
LAYER
  2
LAYER_4
 70
64
 62
7
  6
CONTINUOUS
  0
LAYER
  2
LAYER_5
 70
64
 62
7
  6
CONTINUOUS
  0
LAYER
  2
LAYER_6
 70
64
 62
7
  6
CONTINUOUS
  0
ENDTAB
  0
TABLE
  2
STYLE
 70
6
  0
STYLE
  2
STANDARD
 70
0
 40
0
 50
0
 71
0
 41
0
 42
0
  3
TXT
  4
BIGFONT
  0
ENDTAB
  0
ENDSEC
  0
SECTION
  2
BLOCKS
  0
BLOCK
  8
LAYER_1
  2
AIGNBL01040005
 70
64
 10
0
 20
0
 30
0
  3
AIGNBL01040005
  0
POLYLINE
  8
LAYER_1
 40
0.05
 41
0.05
 66
1
 10
0
 20
0
 30
0
 70
1
  0
VERTEX
  8
LAYER_1
 10
138.3767
 20
-249.1011
  0
VERTEX
  8
LAYER_1
 10
137.891
 20
-250.2793
  0
VERTEX
  8
LAYER_1
 10
137.2664
 20
-250.2793
  0
VERTEX
  8
LAYER_1
 10
138.857
 20
-246.5355
  0
VERTEX
  8
LAYER_1
 10
139.586
 20
-246.5355
  0
VERTEX
  8
LAYER_1
 10
141.1828
 20
-250.2793
  0
VERTEX
  8
LAYER_1
 10
140.5365
 20
-250.2793
  0
VERTEX
  8
LAYER_1
 10
140.0369
 20
-249.1011
  0
SEQEND
  0
POLYLINE
  8
LAYER_1
 40
0.05
 41
0.05
 66
1
 10
0
 20
0
 30
0
 70
1
  0
VERTEX
  8
LAYER_1
 10
139.9115
 20
-248.7245
  0
VERTEX
  8
LAYER_1
 10
139.4533
 20
-247.6459
 42
-0.02267506524
  0
VERTEX
  8
LAYER_1
 10
139.2101
 20
-246.963
  0
VERTEX
  8
LAYER_1
 10
139.1967
 20
-246.963
 42
-0.02084266043
  0
VERTEX
  8
LAYER_1
 10
138.9603
 20
-247.6414
  0
VERTEX
  8
LAYER_1
 10
138.5021
 20
-248.7245
  0
SEQEND
  0
ENDBLK
  0
BLOCK
  8
LAYER_1
  2
AIGNBL01040006
 70
64
 10
0
 20
0
 30
0
  3
AIGNBL01040006
  0
POLYLINE
  8
LAYER_1
 40
0.05
 41
0.05
 66
1
 10
0
 20
0
 30
0
 70
1
  0
VERTEX
  8
LAYER_1
 10
145.5226
 20
-250.8295
 42
-0.01550180985
  0
VERTEX
  8
LAYER_1
 10
143.7311
 20
-250.3954
 42
0.09208348225
  0
VERTEX
  8
LAYER_1
 10
143.4465
 20
-250.3406
 42
-0.09252107557
  0
VERTEX
  8
LAYER_1
 10
142.4981
 20
-250.139
 42
-0.09792797557
  0
VERTEX
  8
LAYER_1
 10
141.8642
 20
-249.7067
 42
-0.1631033753
  0
VERTEX
  8
LAYER_1
 10
141.401
 20
-248.7192
 42
-0.03157985926
  0
VERTEX
  8
LAYER_1
 10
141.3839
 20
-248.4469
 42
-0.1088259969
  0
VERTEX
  8
LAYER_1
 10
141.5673
 20
-247.5875
 42
-0.1618048679
  0
VERTEX
  8
LAYER_1
 10
142.3628
 20
-246.7577
 42
-0.09175073832
  0
VERTEX
  8
LAYER_1
 10
143.1629
 20
-246.5018
 42
-0.03454354202
  0
VERTEX
  8
LAYER_1
 10
143.5644
 20
-246.4745
 42
-0.09527006366
  0
VERTEX
  8
LAYER_1
 10
144.5227
 20
-246.6511
 42
-0.1001818692
  0
VERTEX
  8
LAYER_1
 10
145.1563
 20
-247.0713
 42
-0.1611434138
  0
VERTEX
  8
LAYER_1
 10
145.6402
 20
-248.0664
 42
-0.03591204318
  0
VERTEX
  8
LAYER_1
 10
145.6617
 20
-248.3686
 42
-0.1066586367
  0
VERTEX
  8
LAYER_1
 10
145.4864
 20
-249.2186
 42
-0.2185717489
  0
VERTEX
  8
LAYER_1
 10
144.3825
 20
-250.147
 42
-0.006705231958
  0
VERTEX
  8
LAYER_1
 10
144.3281
 20
-250.1628
  0
VERTEX
  8
LAYER_1
 10
144.3281
 20
-250.1852
 42
0.01501268135
  0
VERTEX
  8
LAYER_1
 10
145.6965
 20
-250.424
  0
SEQEND
  0
POLYLINE
  8
LAYER_1
 40
0.05
 41
0.05
 66
1
 10
0
 20
0
 30
0
 70
1
  0
VERTEX
  8
LAYER_1
 10
145.0233
 20
-248.39
 42
0.1175404168
  0
VERTEX
  8
LAYER_1
 10
144.842
 20
-247.6261
 42
0.1170585149
  0
VERTEX
  8
LAYER_1
 10
144.419
 20
-247.1311
 42
0.1200111465
  0
VERTEX
  8
LAYER_1
 10
143.8094
 20
-246.8884
 42
0.0377207096
  0
VERTEX
  8
LAYER_1
 10
143.5433
 20
-246.8687
 42
0.1152954241
  0
VERTEX
  8
LAYER_1
 10
142.8054
 20
-247.0324
 42
0.1853004926
  0
VERTEX
  8
LAYER_1
 10
142.1509
 20
-247.7624
 42
0.09848637078
  0
VERTEX
  8
LAYER_1
 10
142.0296
 20
-248.4344
 42
0.120860713
  0
VERTEX
  8
LAYER_1
 10
142.2045
 20
-249.1849
 42
0.2836170694
  0
VERTEX
  8
LAYER_1
 10
143.5161
 20
-249.9468
 42
0.1188766714
  0
VERTEX
  8
LAYER_1
 10
144.2605
 20
-249.7757
 42
0.1796046283
  0
VERTEX
  8
LAYER_1
 10
144.8972
 20
-249.063
 42
0.09851098502
  0
SEQEND
  0
ENDBLK
  0
BLOCK
  8
LAYER_1
  2
AIGNBL01040007
 70
64
 10
0
 20
0
 30
0
  3
AIGNBL01040007
  0
POLYLINE
  8
LAYER_1
 40
0.05
 41
0.05
 66
1
 10
0
 20
0
 30
0
 70
1
  0
VERTEX
  8
LAYER_1
 10
146.9815
 20
-246.5355
  0
VERTEX
  8
LAYER_1
 10
146.9815
 20
-248.7517
 42
0.1257910062
  0
VERTEX
  8
LAYER_1
 10
147.1475
 20
-249.4752
 42
0.2217269733
  0
VERTEX
  8
LAYER_1
 10
147.7914
 20
-249.9203
 42
0.04937688774
  0
VERTEX
  8
LAYER_1
 10
148.0716
 20
-249.9468
 42
0.1302851362
  0
VERTEX
  8
LAYER_1
 10
148.7372
 20
-249.787
 42
0.1509632316
  0
VERTEX
  8
LAYER_1
 10
149.0862
 20
-249.3957
 42
0.1174446198
  0
VERTEX
  8
LAYER_1
 10
149.2105
 20
-248.7517
  0
VERTEX
  8
LAYER_1
 10
149.2105
 20
-246.5355
  0
VERTEX
  8
LAYER_1
 10
149.8217
 20
-246.5355
  0
VERTEX
  8
LAYER_1
 10
149.8217
 20
-248.7187
 42
-0.1106784388
  0
VERTEX
  8
LAYER_1
 10
149.6531
 20
-249.5323
 42
-0.1857051526
  0
VERTEX
  8
LAYER_1
 10
148.9481
 20
-250.1807
 42
-0.09650175554
  0
VERTEX
  8
LAYER_1
 10
148.1451
 20
-250.3392
 42
-0.007939811217
  0
VERTEX
  8
LAYER_1
 10
148.0509
 20
-250.3406
 42
-0.102315967
  0
VERTEX
  8
LAYER_1
 10
147.1661
 20
-250.1733
 42
-0.1218859814
  0
VERTEX
  8
LAYER_1
 10
146.6722
 20
-249.7872
 42
-0.1186228201
  0
VERTEX
  8
LAYER_1
 10
146.4122
 20
-249.188
 42
-0.0498693672
  0
VERTEX
  8
LAYER_1
 10
146.3707
 20
-248.7404
  0
VERTEX
  8
LAYER_1
 10
146.3707
 20
-246.5355
  0
SEQEND
  0
ENDBLK
  0
BLOCK
  8
LAYER_1
  2
AIGNBL01040008
 70
64
 10
0
 20
0
 30
0
  3
AIGNBL01040008
  0
POLYLINE
  8
LAYER_1
 40
0.05
 41
0.05
 66
1
 10
0
 20
0
 30
0
 70
1
  0
VERTEX
  8
LAYER_1
 10
151.5573
 20
-249.1011
  0
VERTEX
  8
LAYER_1
 10
151.0709
 20
-250.2793
  0
VERTEX
  8
LAYER_1
 10
150.447
 20
-250.2793
  0
VERTEX
  8
LAYER_1
 10
152.0365
 20
-246.5355
  0
VERTEX
  8
LAYER_1
 10
152.7655
 20
-246.5355
  0
VERTEX
  8
LAYER_1
 10
154.3623
 20
-250.2793
  0
VERTEX
  8
LAYER_1
 10
153.7167
 20
-250.2793
  0
VERTEX
  8
LAYER_1
 10
153.2175
 20
-249.1011
  0
SEQEND
  0
POLYLINE
  8
LAYER_1
 40
0.05
 41
0.05
 66
1
 10
0
 20
0
 30
0
 70
1
  0
VERTEX
  8
LAYER_1
 10
153.0921
 20
-248.7245
  0
VERTEX
  8
LAYER_1
 10
152.6332
 20
-247.6459
 42
-0.02235179902
  0
VERTEX
  8
LAYER_1
 10
152.3897
 20
-246.963
  0
VERTEX
  8
LAYER_1
 10
152.3759
 20
-246.963
 42
-0.02046417189
  0
VERTEX
  8
LAYER_1
 10
152.1402
 20
-247.6414
  0
VERTEX
  8
LAYER_1
 10
151.682
 20
-248.7245
  0
SEQEND
  0
ENDBLK
  0
BLOCK
  8
LAYER_1
  2
AIGNBL01040009
 70
64
 10
0
 20
0
 30
0
  3
AIGNBL01040009
  0
POLYLINE
  8
LAYER_1
 40
0.05
 41
0.05
 66
1
 10
0
 20
0
 30
0
 70
1
  0
VERTEX
  8
LAYER_1
 10
155.3969
 20
-246.58
 42
-0.03349666815
  0
VERTEX
  8
LAYER_1
 10
156.5576
 20
-246.5072
 42
-0.09004353297
  0
VERTEX
  8
LAYER_1
 10
157.6057
 20
-246.6749
 42
-0.05888505928
  0
VERTEX
  8
LAYER_1
 10
157.8691
 20
-246.8184
 42
-0.2472492651
  0
VERTEX
  8
LAYER_1
 10
158.279
 20
-247.6018
 42
-0.1502534052
  0
VERTEX
  8
LAYER_1
 10
158.1063
 20
-248.1984
 42
-0.07033867127
  0
VERTEX
  8
LAYER_1
 10
157.9177
 20
-248.4014
 42
-0.1211283655
  0
VERTEX
  8
LAYER_1
 10
157.2351
 20
-248.728
 42
-0.06222086556
  0
VERTEX
  8
LAYER_1
 10
156.4872
 20
-248.8127
 42
-0.05750856268
  0
VERTEX
  8
LAYER_1
 10
156.0015
 20
-248.7793
  0
VERTEX
  8
LAYER_1
 10
156.0015
 20
-250.2793
  0
VERTEX
  8
LAYER_1
 10
155.3969
 20
-250.2793
  0
SEQEND
  0
POLYLINE
  8
LAYER_1
 40
0.05
 41
0.05
 66
1
 10
0
 20
0
 30
0
 70
1
  0
VERTEX
  8
LAYER_1
 10
156.0015
 20
-248.3852
 42
0.04897120882
  0
VERTEX
  8
LAYER_1
 10
156.501
 20
-248.4245
 42
0.1137012619
  0
VERTEX
  8
LAYER_1
 10
157.2816
 20
-248.2659
 42
0.1652714782
  0
VERTEX
  8
LAYER_1
 10
157.6173
 20
-247.9196
 42
0.1043893073
  0
VERTEX
  8
LAYER_1
 10
157.6751
 20
-247.6242
 42
0.2865639904
  0
VERTEX
  8
LAYER_1
 10
157.3169
 20
-247.0395
 42
0.06445412413
  0
VERTEX
  8
LAYER_1
 10
157.0376
 20
-246.9388
 42
0.05784391407
  0
VERTEX
  8
LAYER_1
 10
156.5713
 20
-246.891
 42
0.05268039105
  0
VERTEX
  8
LAYER_1
 10
156.0015
 20
-246.93
  0
SEQEND
  0
ENDBLK
  0
BLOCK
  8
LAYER_1
  2
AIGNBL0104000A
 70
64
 10
0
 20
0
 30
0
  3
AIGNBL0104000A
  0
POLYLINE
  8
LAYER_1
 40
0.05
 41
0.05
 66
1
 10
0
 20
0
 30
0
 70
1
  0
VERTEX
  8
LAYER_1
 10
159.8218
 20
-246.8352
 42
-0.3039545568
  0
VERTEX
  8
LAYER_1
 10
159.6562
 20
-247.0887
 42
-0.1152466046
  0
VERTEX
  8
LAYER_1
 10
159.4325
 20
-247.1356
 42
-0.2445179838
  0
VERTEX
  8
LAYER_1
 10
159.1045
 20
-246.9759
 42
-0.1392448976
  0
VERTEX
  8
LAYER_1
 10
159.0645
 20
-246.8352
 42
-0.2871964131
  0
VERTEX
  8
LAYER_1
 10
159.2352
 20
-246.5772
 42
-0.118108641
  0
VERTEX
  8
LAYER_1
 10
159.4459
 20
-246.53
 42
-0.2414655549
  0
VERTEX
  8
LAYER_1
 10
159.7788
 20
-246.6849
 42
-0.1427828857
  0
SEQEND
  0
POLYLINE
  8
LAYER_1
 40
0.05
 41
0.05
 66
1
 10
0
 20
0
 30
0
 70
1
  0
VERTEX
  8
LAYER_1
 10
159.1407
 20
-250.2793
  0
VERTEX
  8
LAYER_1
 10
159.1407
 20
-247.5907
  0
VERTEX
  8
LAYER_1
 10
159.7515
 20
-247.5907
  0
VERTEX
  8
LAYER_1
 10
159.7515
 20
-250.2793
  0
SEQEND
  0
ENDBLK
  0
BLOCK
  8
LAYER_1
  2
AIGNBL0104000B
 70
64
 10
0
 20
0
 30
0
  3
AIGNBL0104000B
  0
POLYLINE
  8
LAYER_1
 40
0.05
 41
0.05
 66
1
 10
0
 20
0
 30
0
 70
1
  0
VERTEX
  8
LAYER_1
 10
161.6118
 20
-249.1011
  0
VERTEX
  8
LAYER_1
 10
161.1271
 20
-250.2793
  0
VERTEX
  8
LAYER_1
 10
160.5015
 20
-250.2793
  0
VERTEX
  8
LAYER_1
 10
162.0918
 20
-246.5355
  0
VERTEX
  8
LAYER_1
 10
162.8211
 20
-246.5355
  0
VERTEX
  8
LAYER_1
 10
164.4186
 20
-250.2793
  0
VERTEX
  8
LAYER_1
 10
163.7719
 20
-250.2793
  0
VERTEX
  8
LAYER_1
 10
163.2727
 20
-249.1011
  0
SEQEND
  0
POLYLINE
  8
LAYER_1
 40
0.05
 41
0.05
 66
1
 10
0
 20
0
 30
0
 70
1
  0
VERTEX
  8
LAYER_1
 10
163.1473
 20
-248.7245
  0
VERTEX
  8
LAYER_1
 10
162.6891
 20
-247.6459
 42
-0.02473673698
  0
VERTEX
  8
LAYER_1
 10
162.4466
 20
-246.963
  0
VERTEX
  8
LAYER_1
 10
162.4321
 20
-246.963
 42
-0.01905982629
  0
VERTEX
  8
LAYER_1
 10
162.1961
 20
-247.6414
  0
VERTEX
  8
LAYER_1
 10
161.7379
 20
-248.7245
  0
SEQEND
  0
ENDBLK
  0
BLOCK
  8
LAYER_1
  2
AIGNBL01030004
 70
64
 10
0
 20
0
 30
0
  3
AIGNBL01030004
  0
INSERT
  8
LAYER_1
  2
AIGNBL01040005
 10
0
 20
0
 30
0
  0
INSERT
  8
LAYER_1
  2
AIGNBL01040006
 10
0
 20
0
 30
0
  0
INSERT
  8
LAYER_1
  2
AIGNBL01040007
 10
0
 20
0
 30
0
  0
INSERT
  8
LAYER_1
  2
AIGNBL01040008
 10
0
 20
0
 30
0
  0
INSERT
  8
LAYER_1
  2
AIGNBL01040009
 10
0
 20
0
 30
0
  0
INSERT
  8
LAYER_1
  2
AIGNBL0104000A
 10
0
 20
0
 30
0
  0
INSERT
  8
LAYER_1
  2
AIGNBL0104000B
 10
0
 20
0
 30
0
  0
ENDBLK
  0
BLOCK
  8
LAYER_1
  2
AIGNBL0103000D
 70
64
 10
0
 20
0
 30
0
  3
AIGNBL0103000D
  0
POLYLINE
  8
LAYER_1
 40
0.05
 41
0.05
 66
1
 10
0
 20
0
 30
0
 70
1
  0
VERTEX
  8
LAYER_1
 10
137.3756
 20
-252.1676
  0
VERTEX
  8
LAYER_1
 10
137.9258
 20
-252.1676
  0
VERTEX
  8
LAYER_1
 10
137.9258
 20
-252.2609
  0
VERTEX
  8
LAYER_1
 10
137.2715
 20
-252.2609
  0
VERTEX
  8
LAYER_1
 10
137.2715
 20
-251.2339
  0
VERTEX
  8
LAYER_1
 10
137.9082
 20
-251.2339
  0
VERTEX
  8
LAYER_1
 10
137.9082
 20
-251.3266
  0
VERTEX
  8
LAYER_1
 10
137.3756
 20
-251.3266
  0
VERTEX
  8
LAYER_1
 10
137.3756
 20
-251.6787
  0
VERTEX
  8
LAYER_1
 10
137.8734
 20
-251.6787
  0
VERTEX
  8
LAYER_1
 10
137.8734
 20
-251.7717
  0
VERTEX
  8
LAYER_1
 10
137.3756
 20
-251.7717
  0
SEQEND
  0
ENDBLK
  0
BLOCK
  8
LAYER_1
  2
AIGNBL0103000E
 70
64
 10
0
 20
0
 30
0
  3
AIGNBL0103000E
  0
POLYLINE
  8
LAYER_1
 40
0.05
 41
0.05
 66
1
 10
0
 20
0
 30
0
 70
1
  0
VERTEX
  8
LAYER_1
 10
139.0589
 20
-252.1079
  0
VERTEX
  8
LAYER_1
 10
139.0613
 20
-252.1079
  0
VERTEX
  8
LAYER_1
 10
139.0613
 20
-251.2339
  0
VERTEX
  8
LAYER_1
 10
139.1663
 20
-251.2339
  0
VERTEX
  8
LAYER_1
 10
139.1663
 20
-252.2609
  0
VERTEX
  8
LAYER_1
 10
139.0365
 20
-252.2609
  0
VERTEX
  8
LAYER_1
 10
138.4384
 20
-251.3772
  0
VERTEX
  8
LAYER_1
 10
138.435
 20
-251.3772
  0
VERTEX
  8
LAYER_1
 10
138.435
 20
-252.2609
  0
VERTEX
  8
LAYER_1
 10
138.3306
 20
-252.2609
  0
VERTEX
  8
LAYER_1
 10
138.3306
 20
-251.2339
  0
VERTEX
  8
LAYER_1
 10
138.4611
 20
-251.2339
  0
SEQEND
  0
ENDBLK
  0
BLOCK
  8
LAYER_1
  2
AIGNBL0103000F
 70
64
 10
0
 20
0
 30
0
  3
AIGNBL0103000F
  0
POLYLINE
  8
LAYER_1
 40
0.05
 41
0.05
 66
1
 10
0
 20
0
 30
0
 70
1
  0
VERTEX
  8
LAYER_1
 10
139.637
 20
-252.0501
 42
0.1590284934
  0
VERTEX
  8
LAYER_1
 10
139.691
 20
-252.1527
 42
0.1903970375
  0
VERTEX
  8
LAYER_1
 10
139.8034
 20
-252.1937
  0
VERTEX
  8
LAYER_1
 10
139.8922
 20
-252.1744
  0
VERTEX
  8
LAYER_1
 10
139.948
 20
-252.1214
  0
VERTEX
  8
LAYER_1
 10
139.9763
 20
-252.0453
  0
VERTEX
  8
LAYER_1
 10
139.9853
 20
-251.956
  0
VERTEX
  8
LAYER_1
 10
139.9853
 20
-251.2339
  0
VERTEX
  8
LAYER_1
 10
140.0893
 20
-251.2339
  0
VERTEX
  8
LAYER_1
 10
140.0893
 20
-251.965
  0
VERTEX
  8
LAYER_1
 10
140.0783
 20
-252.0718
 42
-0.08830433873
  0
VERTEX
  8
LAYER_1
 10
140.0369
 20
-252.1765
 42
-0.1153589887
  0
VERTEX
  8
LAYER_1
 10
139.9529
 20
-252.2554
 42
-0.1266166698
  0
VERTEX
  8
LAYER_1
 10
139.8147
 20
-252.2868
 42
-0.1823786802
  0
VERTEX
  8
LAYER_1
 10
139.6311
 20
-252.2268
 42
-0.1773090787
  0
VERTEX
  8
LAYER_1
 10
139.5391
 20
-252.0769
  0
SEQEND
  0
ENDBLK
  0
BLOCK
  8
LAYER_1
  2
AIGNBL01030010
 70
64
 10
0
 20
0
 30
0
  3
AIGNBL01030010
  0
POLYLINE
  8
LAYER_1
 40
0.05
 41
0.05
 66
1
 10
0
 20
0
 30
0
 70
1
  0
VERTEX
  8
LAYER_1
 10
141.5693
 20
-251.7469
 42
-0.1023745756
  0
VERTEX
  8
LAYER_1
 10
141.5279
 20
-251.9629
 42
-0.1012381663
  0
VERTEX
  8
LAYER_1
 10
141.4163
 20
-252.1338
 42
-0.09607034471
  0
VERTEX
  8
LAYER_1
 10
141.2458
 20
-252.2461
 42
-0.09758991962
  0
VERTEX
  8
LAYER_1
 10
141.0332
 20
-252.2868
 42
-0.09910038025
  0
VERTEX
  8
LAYER_1
 10
140.8207
 20
-252.2461
 42
-0.09835332354
  0
VERTEX
  8
LAYER_1
 10
140.6512
 20
-252.1338
 42
-0.09652080474
  0
VERTEX
  8
LAYER_1
 10
140.5389
 20
-251.9629
 42
-0.09814472372
  0
VERTEX
  8
LAYER_1
 10
140.4986
 20
-251.7469
 42
-0.1026891031
  0
VERTEX
  8
LAYER_1
 10
140.5389
 20
-251.5306
 42
-0.09919197624
  0
VERTEX
  8
LAYER_1
 10
140.6512
 20
-251.3604
 42
-0.09851015914
  0
VERTEX
  8
LAYER_1
 10
140.8207
 20
-251.2481
 42
-0.0978389277
  0
VERTEX
  8
LAYER_1
 10
141.0332
 20
-251.2071
 42
-0.1012755921
  0
VERTEX
  8
LAYER_1
 10
141.2458
 20
-251.2481
 42
-0.101055447
  0
VERTEX
  8
LAYER_1
 10
141.4163
 20
-251.3604
 42
-0.100284748
  0
VERTEX
  8
LAYER_1
 10
141.5279
 20
-251.5306
 42
-0.09841189494
  0
SEQEND
  0
POLYLINE
  8
LAYER_1
 40
0.05
 41
0.05
 66
1
 10
0
 20
0
 30
0
 70
1
  0
VERTEX
  8
LAYER_1
 10
141.4584
 20
-251.7476
 42
0.08348185165
  0
VERTEX
  8
LAYER_1
 10
141.4301
 20
-251.5767
 42
0.09888736064
  0
VERTEX
  8
LAYER_1
 10
141.3454
 20
-251.4344
 42
0.1046117232
  0
VERTEX
  8
LAYER_1
 10
141.211
 20
-251.337
 42
0.1084373712
  0
VERTEX
  8
LAYER_1
 10
141.0332
 20
-251.3001
 42
0.1126508353
  0
VERTEX
  8
LAYER_1
 10
140.8558
 20
-251.337
 42
0.1080671084
  0
VERTEX
  8
LAYER_1
 10
140.7225
 20
-251.4344
 42
0.09765540905
  0
VERTEX
  8
LAYER_1
 10
140.6374
 20
-251.5767
 42
0.08446298011
  0
VERTEX
  8
LAYER_1
 10
140.6081
 20
-251.7476
 42
0.08257781466
  0
VERTEX
  8
LAYER_1
 10
140.6374
 20
-251.9188
 42
0.1022479965
  0
VERTEX
  8
LAYER_1
 10
140.7225
 20
-252.0607
 42
0.1007994813
  0
VERTEX
  8
LAYER_1
 10
140.8558
 20
-252.1575
 42
0.1058339915
  0
VERTEX
  8
LAYER_1
 10
141.0332
 20
-252.1937
 42
0.1146720599
  0
VERTEX
  8
LAYER_1
 10
141.211
 20
-252.1575
 42
0.1074750371
  0
VERTEX
  8
LAYER_1
 10
141.3454
 20
-252.0607
 42
0.0957445035
  0
VERTEX
  8
LAYER_1
 10
141.4301
 20
-251.9188
 42
0.08253202369
  0
SEQEND
  0
ENDBLK
  0
BLOCK
  8
LAYER_1
  2
AIGNBL01030011
 70
64
 10
0
 20
0
 30
0
  3
AIGNBL01030011
  0
POLYLINE
  8
LAYER_1
 40
0.05
 41
0.05
 66
1
 10
0
 20
0
 30
0
 70
1
  0
VERTEX
  8
LAYER_1
 10
142.3393
 20
-252.2609
  0
VERTEX
  8
LAYER_1
 10
142.2349
 20
-252.2609
  0
VERTEX
  8
LAYER_1
 10
142.2349
 20
-251.8182
  0
VERTEX
  8
LAYER_1
 10
141.8504
 20
-251.2339
  0
VERTEX
  8
LAYER_1
 10
141.9813
 20
-251.2339
  0
VERTEX
  8
LAYER_1
 10
142.2904
 20
-251.7311
  0
VERTEX
  8
LAYER_1
 10
142.6022
 20
-251.2339
  0
VERTEX
  8
LAYER_1
 10
142.7234
 20
-251.2339
  0
VERTEX
  8
LAYER_1
 10
142.3393
 20
-251.8182
  0
SEQEND
  0
ENDBLK
  0
BLOCK
  8
LAYER_1
  2
AIGNBL01030012
 70
64
 10
0
 20
0
 30
0
  3
AIGNBL01030012
  0
POLYLINE
  8
LAYER_1
 40
0.05
 41
0.05
 66
1
 10
0
 20
0
 30
0
 70
1
  0
VERTEX
  8
LAYER_1
 10
143.6236
 20
-251.2339
  0
VERTEX
  8
LAYER_1
 10
143.9288
 20
-251.2339
  0
VERTEX
  8
LAYER_1
 10
144.047
 20
-251.2457
  0
VERTEX
  8
LAYER_1
 10
144.1528
 20
-251.288
 42
-0.1142786728
  0
VERTEX
  8
LAYER_1
 10
144.2307
 20
-251.3686
 42
-0.1221660448
  0
VERTEX
  8
LAYER_1
 10
144.2603
 20
-251.4961
 42
-0.1789908253
  0
VERTEX
  8
LAYER_1
 10
144.2103
 20
-251.6373
 42
-0.1682964985
  0
VERTEX
  8
LAYER_1
 10
144.078
 20
-251.7166
  0
VERTEX
  8
LAYER_1
 10
144.078
 20
-251.7194
 42
-0.1720252291
  0
VERTEX
  8
LAYER_1
 10
144.2434
 20
-251.7969
 42
-0.2011476059
  0
VERTEX
  8
LAYER_1
 10
144.3099
 20
-251.9764
 42
-0.1263581039
  0
VERTEX
  8
LAYER_1
 10
144.2823
 20
-252.0928
 42
-0.1151202894
  0
VERTEX
  8
LAYER_1
 10
144.2062
 20
-252.1831
 42
-0.08559391469
  0
VERTEX
  8
LAYER_1
 10
144.0866
 20
-252.2402
 42
-0.06581098886
  0
VERTEX
  8
LAYER_1
 10
143.9275
 20
-252.2609
  0
VERTEX
  8
LAYER_1
 10
143.6236
 20
-252.2609
  0
SEQEND
  0
POLYLINE
  8
LAYER_1
 40
0.05
 41
0.05
 66
1
 10
0
 20
0
 30
0
 70
1
  0
VERTEX
  8
LAYER_1
 10
143.7277
 20
-251.6832
  0
VERTEX
  8
LAYER_1
 10
143.9382
 20
-251.6832
  0
VERTEX
  8
LAYER_1
 10
144.0146
 20
-251.6742
  0
VERTEX
  8
LAYER_1
 10
144.0842
 20
-251.6453
  0
VERTEX
  8
LAYER_1
 10
144.1362
 20
-251.5888
 42
0.1124449043
  0
VERTEX
  8
LAYER_1
 10
144.1552
 20
-251.5034
  0
VERTEX
  8
LAYER_1
 10
144.1362
 20
-251.4203
  0
VERTEX
  8
LAYER_1
 10
144.0835
 20
-251.3638
  0
VERTEX
  8
LAYER_1
 10
144.005
 20
-251.3328
  0
VERTEX
  8
LAYER_1
 10
143.9089
 20
-251.3235
  0
VERTEX
  8
LAYER_1
 10
143.7277
 20
-251.3235
  0
SEQEND
  0
POLYLINE
  8
LAYER_1
 40
0.05
 41
0.05
 66
1
 10
0
 20
0
 30
0
 70
1
  0
VERTEX
  8
LAYER_1
 10
143.7277
 20
-252.171
  0
VERTEX
  8
LAYER_1
 10
143.9223
 20
-252.171
  0
VERTEX
  8
LAYER_1
 10
144.0301
 20
-252.1596
  0
VERTEX
  8
LAYER_1
 10
144.1204
 20
-252.1252
  0
VERTEX
  8
LAYER_1
 10
144.181
 20
-252.0625
 42
0.1349508047
  0
VERTEX
  8
LAYER_1
 10
144.2048
 20
-251.9705
 42
0.2483168689
  0
VERTEX
  8
LAYER_1
 10
144.1362
 20
-251.8189
 42
0.1537491355
  0
VERTEX
  8
LAYER_1
 10
143.9413
 20
-251.7686
  0
VERTEX
  8
LAYER_1
 10
143.7277
 20
-251.7686
  0
SEQEND
  0
ENDBLK
  0
BLOCK
  8
LAYER_1
  2
AIGNBL01030013
 70
64
 10
0
 20
0
 30
0
  3
AIGNBL01030013
  0
POLYLINE
  8
LAYER_1
 40
0.05
 41
0.05
 66
1
 10
0
 20
0
 30
0
 70
1
  0
VERTEX
  8
LAYER_1
 10
144.7388
 20
-252.2609
  0
VERTEX
  8
LAYER_1
 10
144.6241
 20
-252.2609
  0
VERTEX
  8
LAYER_1
 10
145.0685
 20
-251.2339
  0
VERTEX
  8
LAYER_1
 10
145.1705
 20
-251.2339
  0
VERTEX
  8
LAYER_1
 10
145.6111
 20
-252.2609
  0
VERTEX
  8
LAYER_1
 10
145.4943
 20
-252.2609
  0
VERTEX
  8
LAYER_1
 10
145.3813
 20
-251.9912
  0
VERTEX
  8
LAYER_1
 10
144.8504
 20
-251.9912
  0
SEQEND
  0
POLYLINE
  8
LAYER_1
 40
0.05
 41
0.05
 66
1
 10
0
 20
0
 30
0
 70
1
  0
VERTEX
  8
LAYER_1
 10
144.8894
 20
-251.8947
  0
VERTEX
  8
LAYER_1
 10
145.3424
 20
-251.8947
  0
VERTEX
  8
LAYER_1
 10
145.1164
 20
-251.3493
  0
SEQEND
  0
ENDBLK
  0
BLOCK
  8
LAYER_1
  2
AIGNBL01030014
 70
64
 10
0
 20
0
 30
0
  3
AIGNBL01030014
  0
POLYLINE
  8
LAYER_1
 40
0.05
 41
0.05
 66
1
 10
0
 20
0
 30
0
 70
1
  0
VERTEX
  8
LAYER_1
 10
146.2915
 20
-252.2609
  0
VERTEX
  8
LAYER_1
 10
146.1871
 20
-252.2609
  0
VERTEX
  8
LAYER_1
 10
146.1871
 20
-251.3266
  0
VERTEX
  8
LAYER_1
 10
145.8426
 20
-251.3266
  0
VERTEX
  8
LAYER_1
 10
145.8426
 20
-251.2339
  0
VERTEX
  8
LAYER_1
 10
146.635
 20
-251.2339
  0
VERTEX
  8
LAYER_1
 10
146.635
 20
-251.3266
  0
VERTEX
  8
LAYER_1
 10
146.2915
 20
-251.3266
  0
SEQEND
  0
ENDBLK
  0
BLOCK
  8
LAYER_1
  2
AIGNBL01030015
 70
64
 10
0
 20
0
 30
0
  3
AIGNBL01030015
  0
POLYLINE
  8
LAYER_1
 40
0.05
 41
0.05
 66
1
 10
0
 20
0
 30
0
 70
1
  0
VERTEX
  8
LAYER_1
 10
146.9888
 20
-251.2339
  0
VERTEX
  8
LAYER_1
 10
147.0932
 20
-251.2339
  0
VERTEX
  8
LAYER_1
 10
147.0932
 20
-251.6787
  0
VERTEX
  8
LAYER_1
 10
147.654
 20
-251.6787
  0
VERTEX
  8
LAYER_1
 10
147.654
 20
-251.2339
  0
VERTEX
  8
LAYER_1
 10
147.7581
 20
-251.2339
  0
VERTEX
  8
LAYER_1
 10
147.7581
 20
-252.2609
  0
VERTEX
  8
LAYER_1
 10
147.654
 20
-252.2609
  0
VERTEX
  8
LAYER_1
 10
147.654
 20
-251.7745
  0
VERTEX
  8
LAYER_1
 10
147.0932
 20
-251.7745
  0
VERTEX
  8
LAYER_1
 10
147.0932
 20
-252.2609
  0
VERTEX
  8
LAYER_1
 10
146.9888
 20
-252.2609
  0
SEQEND
  0
ENDBLK
  0
BLOCK
  8
LAYER_1
  2
AIGNBL01030016
 70
64
 10
0
 20
0
 30
0
  3
AIGNBL01030016
  0
POLYLINE
  8
LAYER_1
 40
0.05
 41
0.05
 66
1
 10
0
 20
0
 30
0
 70
1
  0
VERTEX
  8
LAYER_1
 10
148.3351
 20
-252.2609
  0
VERTEX
  8
LAYER_1
 10
148.2311
 20
-252.2609
  0
VERTEX
  8
LAYER_1
 10
148.2311
 20
-251.2339
  0
VERTEX
  8
LAYER_1
 10
148.5322
 20
-251.2339
  0
VERTEX
  8
LAYER_1
 10
148.6724
 20
-251.2481
 42
-0.1023663758
  0
VERTEX
  8
LAYER_1
 10
148.7844
 20
-251.2953
 42
-0.1332028562
  0
VERTEX
  8
LAYER_1
 10
148.8571
 20
-251.38
 42
-0.109414644
  0
VERTEX
  8
LAYER_1
 10
148.8829
 20
-251.5078
  0
VERTEX
  8
LAYER_1
 10
148.8636
 20
-251.6108
  0
VERTEX
  8
LAYER_1
 10
148.8088
 20
-251.6911
  0
VERTEX
  8
LAYER_1
 10
148.7258
 20
-251.7459
  0
VERTEX
  8
LAYER_1
 10
148.6214
 20
-251.7717
  0
VERTEX
  8
LAYER_1
 10
148.9211
 20
-252.2609
  0
VERTEX
  8
LAYER_1
 10
148.7937
 20
-252.2609
  0
VERTEX
  8
LAYER_1
 10
148.5098
 20
-251.7807
  0
VERTEX
  8
LAYER_1
 10
148.3351
 20
-251.7807
  0
SEQEND
  0
POLYLINE
  8
LAYER_1
 40
0.05
 41
0.05
 66
1
 10
0
 20
0
 30
0
 70
1
  0
VERTEX
  8
LAYER_1
 10
148.3351
 20
-251.6904
  0
VERTEX
  8
LAYER_1
 10
148.517
 20
-251.6904
 42
0.1513063474
  0
VERTEX
  8
LAYER_1
 10
148.711
 20
-251.6453
 42
0.2568804362
  0
VERTEX
  8
LAYER_1
 10
148.7799
 20
-251.5078
  0
VERTEX
  8
LAYER_1
 10
148.7602
 20
-251.4224
 42
0.1232056022
  0
VERTEX
  8
LAYER_1
 10
148.7079
 20
-251.3652
  0
VERTEX
  8
LAYER_1
 10
148.6269
 20
-251.3338
  0
VERTEX
  8
LAYER_1
 10
148.5212
 20
-251.3235
  0
VERTEX
  8
LAYER_1
 10
148.3351
 20
-251.3235
  0
SEQEND
  0
ENDBLK
  0
BLOCK
  8
LAYER_1
  2
AIGNBL01030017
 70
64
 10
0
 20
0
 30
0
  3
AIGNBL01030017
  0
POLYLINE
  8
LAYER_1
 40
0.05
 41
0.05
 66
1
 10
0
 20
0
 30
0
 70
1
  0
VERTEX
  8
LAYER_1
 10
150.3154
 20
-251.7469
 42
-0.09975403421
  0
VERTEX
  8
LAYER_1
 10
150.2747
 20
-251.9629
 42
-0.09935173186
  0
VERTEX
  8
LAYER_1
 10
150.1624
 20
-252.1338
 42
-0.09811740303
  0
VERTEX
  8
LAYER_1
 10
149.9926
 20
-252.2461
 42
-0.09708882113
  0
VERTEX
  8
LAYER_1
 10
149.78
 20
-252.2868
 42
-0.09940093633
  0
VERTEX
  8
LAYER_1
 10
149.5674
 20
-252.2461
 42
-0.1007896559
  0
VERTEX
  8
LAYER_1
 10
149.3979
 20
-252.1338
 42
-0.09768152712
  0
VERTEX
  8
LAYER_1
 10
149.2856
 20
-251.9629
 42
-0.09531839447
  0
VERTEX
  8
LAYER_1
 10
149.2453
 20
-251.7469
 42
-0.09746952437
  0
VERTEX
  8
LAYER_1
 10
149.2856
 20
-251.5306
 42
-0.09925134223
  0
VERTEX
  8
LAYER_1
 10
149.3979
 20
-251.3604
 42
-0.1005970746
  0
VERTEX
  8
LAYER_1
 10
149.5674
 20
-251.2481
 42
-0.09815409965
  0
VERTEX
  8
LAYER_1
 10
149.78
 20
-251.2071
 42
-0.1003559568
  0
VERTEX
  8
LAYER_1
 10
149.9926
 20
-251.2481
 42
-0.1030391221
  0
VERTEX
  8
LAYER_1
 10
150.1624
 20
-251.3604
 42
-0.09760938344
  0
VERTEX
  8
LAYER_1
 10
150.2747
 20
-251.5306
 42
-0.09618621792
  0
SEQEND
  0
POLYLINE
  8
LAYER_1
 40
0.05
 41
0.05
 66
1
 10
0
 20
0
 30
0
 70
1
  0
VERTEX
  8
LAYER_1
 10
150.2051
 20
-251.7476
 42
0.08928566433
  0
VERTEX
  8
LAYER_1
 10
150.1762
 20
-251.5767
 42
0.0967309921
  0
VERTEX
  8
LAYER_1
 10
150.0921
 20
-251.4344
 42
0.1033640041
  0
VERTEX
  8
LAYER_1
 10
149.9581
 20
-251.337
 42
0.1075765453
  0
VERTEX
  8
LAYER_1
 10
149.78
 20
-251.3001
 42
0.1148421003
  0
VERTEX
  8
LAYER_1
 10
149.6026
 20
-251.337
 42
0.106797523
  0
VERTEX
  8
LAYER_1
 10
149.4682
 20
-251.4344
 42
0.09375888087
  0
VERTEX
  8
LAYER_1
 10
149.3842
 20
-251.5767
 42
0.08542444587
  0
VERTEX
  8
LAYER_1
 10
149.3549
 20
-251.7476
 42
0.08738527021
  0
VERTEX
  8
LAYER_1
 10
149.3842
 20
-251.9188
 42
0.09670329037
  0
VERTEX
  8
LAYER_1
 10
149.4682
 20
-252.0607
 42
0.09891153362
  0
VERTEX
  8
LAYER_1
 10
149.6026
 20
-252.1575
 42
0.1067011915
  0
VERTEX
  8
LAYER_1
 10
149.78
 20
-252.1937
 42
0.1133540876
  0
VERTEX
  8
LAYER_1
 10
149.9581
 20
-252.1575
 42
0.1038012544
  0
VERTEX
  8
LAYER_1
 10
150.0921
 20
-252.0607
 42
0.09726416843
  0
VERTEX
  8
LAYER_1
 10
150.1762
 20
-251.9188
 42
0.0854375021
  0
SEQEND
  0
ENDBLK
  0
BLOCK
  8
LAYER_1
  2
AIGNBL01030018
 70
64
 10
0
 20
0
 30
0
  3
AIGNBL01030018
  0
POLYLINE
  8
LAYER_1
 40
0.05
 41
0.05
 66
1
 10
0
 20
0
 30
0
 70
1
  0
VERTEX
  8
LAYER_1
 10
151.7489
 20
-251.7469
 42
-0.09970583877
  0
VERTEX
  8
LAYER_1
 10
151.7086
 20
-251.9629
 42
-0.0976989983
  0
VERTEX
  8
LAYER_1
 10
151.5963
 20
-252.1338
 42
-0.09521451671
  0
VERTEX
  8
LAYER_1
 10
151.4264
 20
-252.2461
 42
-0.09711421911
  0
VERTEX
  8
LAYER_1
 10
151.2139
 20
-252.2868
 42
-0.1003065361
  0
VERTEX
  8
LAYER_1
 10
151.0013
 20
-252.2461
 42
-0.1012502646
  0
VERTEX
  8
LAYER_1
 10
150.8318
 20
-252.1338
 42
-0.09902147312
  0
VERTEX
  8
LAYER_1
 10
150.7188
 20
-251.9629
 42
-0.09657946775
  0
VERTEX
  8
LAYER_1
 10
150.6781
 20
-251.7469
 42
-0.09892706014
  0
VERTEX
  8
LAYER_1
 10
150.7188
 20
-251.5306
 42
-0.1025433378
  0
VERTEX
  8
LAYER_1
 10
150.8318
 20
-251.3604
 42
-0.1009513296
  0
VERTEX
  8
LAYER_1
 10
151.0013
 20
-251.2481
 42
-0.09841178888
  0
VERTEX
  8
LAYER_1
 10
151.2139
 20
-251.2071
 42
-0.1004512574
  0
VERTEX
  8
LAYER_1
 10
151.4264
 20
-251.2481
 42
-0.09871557407
  0
VERTEX
  8
LAYER_1
 10
151.5963
 20
-251.3604
 42
-0.09679690961
  0
VERTEX
  8
LAYER_1
 10
151.7086
 20
-251.5306
 42
-0.09571421233
  0
SEQEND
  0
POLYLINE
  8
LAYER_1
 40
0.05
 41
0.05
 66
1
 10
0
 20
0
 30
0
 70
1
  0
VERTEX
  8
LAYER_1
 10
151.639
 20
-251.7476
 42
0.08698818876
  0
VERTEX
  8
LAYER_1
 10
151.61
 20
-251.5767
 42
0.0956708921
  0
VERTEX
  8
LAYER_1
 10
151.526
 20
-251.4344
 42
0.1033803157
  0
VERTEX
  8
LAYER_1
 10
151.3916
 20
-251.337
 42
0.1075718589
  0
VERTEX
  8
LAYER_1
 10
151.2139
 20
-251.3001
 42
0.1154259577
  0
VERTEX
  8
LAYER_1
 10
151.0361
 20
-251.337
 42
0.1064173637
  0
VERTEX
  8
LAYER_1
 10
150.9017
 20
-251.4344
 42
0.1028942614
  0
VERTEX
  8
LAYER_1
 10
150.818
 20
-251.5767
 42
0.08542444587
  0
VERTEX
  8
LAYER_1
 10
150.7887
 20
-251.7476
 42
0.08738527021
  0
VERTEX
  8
LAYER_1
 10
150.818
 20
-251.9188
 42
0.1032562832
  0
VERTEX
  8
LAYER_1
 10
150.9017
 20
-252.0607
 42
0.1008165521
  0
VERTEX
  8
LAYER_1
 10
151.0361
 20
-252.1575
 42
0.1069398409
  0
VERTEX
  8
LAYER_1
 10
151.2139
 20
-252.1937
 42
0.1127969838
  0
VERTEX
  8
LAYER_1
 10
151.3916
 20
-252.1575
 42
0.1024372123
  0
VERTEX
  8
LAYER_1
 10
151.526
 20
-252.0607
 42
0.09088614582
  0
VERTEX
  8
LAYER_1
 10
151.61
 20
-251.9188
 42
0.08498619229
  0
SEQEND
  0
ENDBLK
  0
BLOCK
  8
LAYER_1
  2
AIGNBL01030019
 70
64
 10
0
 20
0
 30
0
  3
AIGNBL01030019
  0
POLYLINE
  8
LAYER_1
 40
0.05
 41
0.05
 66
1
 10
0
 20
0
 30
0
 70
1
  0
VERTEX
  8
LAYER_1
 10
152.6742
 20
-252.0839
  0
VERTEX
  8
LAYER_1
 10
152.6756
 20
-252.0839
  0
VERTEX
  8
LAYER_1
 10
153.0194
 20
-251.2339
  0
VERTEX
  8
LAYER_1
 10
153.1793
 20
-251.2339
  0
VERTEX
  8
LAYER_1
 10
153.1793
 20
-252.2609
  0
VERTEX
  8
LAYER_1
 10
153.0749
 20
-252.2609
  0
VERTEX
  8
LAYER_1
 10
153.0749
 20
-251.3686
  0
VERTEX
  8
LAYER_1
 10
153.0718
 20
-251.3686
  0
VERTEX
  8
LAYER_1
 10
152.7007
 20
-252.2609
  0
VERTEX
  8
LAYER_1
 10
152.646
 20
-252.2609
  0
VERTEX
  8
LAYER_1
 10
152.2743
 20
-251.3686
  0
VERTEX
  8
LAYER_1
 10
152.2708
 20
-251.3686
  0
VERTEX
  8
LAYER_1
 10
152.2708
 20
-252.2609
  0
VERTEX
  8
LAYER_1
 10
152.1668
 20
-252.2609
  0
VERTEX
  8
LAYER_1
 10
152.1668
 20
-251.2339
  0
VERTEX
  8
LAYER_1
 10
152.327
 20
-251.2339
  0
SEQEND
  0
ENDBLK
  0
BLOCK
  8
LAYER_1
  2
AIGNBL0103001A
 70
64
 10
0
 20
0
 30
0
  3
AIGNBL0103001A
  0
POLYLINE
  8
LAYER_1
 40
0.05
 41
0.05
 66
1
 10
0
 20
0
 30
0
 70
1
  0
VERTEX
  8
LAYER_1
 10
154.3196
 20
-252.1676
  0
VERTEX
  8
LAYER_1
 10
154.8694
 20
-252.1676
  0
VERTEX
  8
LAYER_1
 10
154.8694
 20
-252.2609
  0
VERTEX
  8
LAYER_1
 10
154.2145
 20
-252.2609
  0
VERTEX
  8
LAYER_1
 10
154.2145
 20
-251.2339
  0
VERTEX
  8
LAYER_1
 10
154.8522
 20
-251.2339
  0
VERTEX
  8
LAYER_1
 10
154.8522
 20
-251.3263
  0
VERTEX
  8
LAYER_1
 10
154.3196
 20
-251.3263
  0
VERTEX
  8
LAYER_1
 10
154.3196
 20
-251.6787
  0
VERTEX
  8
LAYER_1
 10
154.8167
 20
-251.6787
  0
VERTEX
  8
LAYER_1
 10
154.8167
 20
-251.7717
  0
VERTEX
  8
LAYER_1
 10
154.3196
 20
-251.7717
  0
SEQEND
  0
ENDBLK
  0
BLOCK
  8
LAYER_1
  2
AIGNBL0103001B
 70
64
 10
0
 20
0
 30
0
  3
AIGNBL0103001B
  0
POLYLINE
  8
LAYER_1
 40
0.05
 41
0.05
 66
1
 10
0
 20
0
 30
0
 70
1
  0
VERTEX
  8
LAYER_1
 10
155.6101
 20
-251.6484
  0
VERTEX
  8
LAYER_1
 10
155.8906
 20
-251.2339
  0
VERTEX
  8
LAYER_1
 10
156.0153
 20
-251.2339
  0
VERTEX
  8
LAYER_1
 10
155.6749
 20
-251.7221
  0
VERTEX
  8
LAYER_1
 10
156.0518
 20
-252.2609
  0
VERTEX
  8
LAYER_1
 10
155.9216
 20
-252.2609
  0
VERTEX
  8
LAYER_1
 10
155.6081
 20
-251.7979
  0
VERTEX
  8
LAYER_1
 10
155.296
 20
-252.2609
  0
VERTEX
  8
LAYER_1
 10
155.165
 20
-252.2609
  0
VERTEX
  8
LAYER_1
 10
155.5426
 20
-251.7211
  0
VERTEX
  8
LAYER_1
 10
155.1988
 20
-251.2339
  0
VERTEX
  8
LAYER_1
 10
155.329
 20
-251.2339
  0
SEQEND
  0
ENDBLK
  0
BLOCK
  8
LAYER_1
  2
AIGNBL0103001C
 70
64
 10
0
 20
0
 30
0
  3
AIGNBL0103001C
  0
POLYLINE
  8
LAYER_1
 40
0.05
 41
0.05
 66
1
 10
0
 20
0
 30
0
 70
1
  0
VERTEX
  8
LAYER_1
 10
156.4159
 20
-251.2339
  0
VERTEX
  8
LAYER_1
 10
156.706
 20
-251.2339
  0
VERTEX
  8
LAYER_1
 10
156.8487
 20
-251.2498
 42
-0.110657953
  0
VERTEX
  8
LAYER_1
 10
156.9575
 20
-251.3015
 42
-0.1163763428
  0
VERTEX
  8
LAYER_1
 10
157.0288
 20
-251.3866
 42
-0.1004779162
  0
VERTEX
  8
LAYER_1
 10
157.053
 20
-251.5078
 42
-0.1135751127
  0
VERTEX
  8
LAYER_1
 10
157.0281
 20
-251.6291
 42
-0.1113908719
  0
VERTEX
  8
LAYER_1
 10
156.9568
 20
-251.7145
 42
-0.08575538996
  0
VERTEX
  8
LAYER_1
 10
156.8459
 20
-251.7659
 42
-0.06072195454
  0
VERTEX
  8
LAYER_1
 10
156.7032
 20
-251.7831
  0
VERTEX
  8
LAYER_1
 10
156.5203
 20
-251.7831
  0
VERTEX
  8
LAYER_1
 10
156.5203
 20
-252.2609
  0
VERTEX
  8
LAYER_1
 10
156.4159
 20
-252.2609
  0
SEQEND
  0
POLYLINE
  8
LAYER_1
 40
0.05
 41
0.05
 66
1
 10
0
 20
0
 30
0
 70
1
  0
VERTEX
  8
LAYER_1
 10
156.5203
 20
-251.6949
  0
VERTEX
  8
LAYER_1
 10
156.6974
 20
-251.6949
 42
0.1668395642
  0
VERTEX
  8
LAYER_1
 10
156.8848
 20
-251.6474
 42
0.2433158568
  0
VERTEX
  8
LAYER_1
 10
156.9489
 20
-251.5078
 42
0.2579107644
  0
VERTEX
  8
LAYER_1
 10
156.8824
 20
-251.3676
 42
0.1431777658
  0
VERTEX
  8
LAYER_1
 10
156.6974
 20
-251.3235
  0
VERTEX
  8
LAYER_1
 10
156.5203
 20
-251.3235
  0
SEQEND
  0
ENDBLK
  0
BLOCK
  8
LAYER_1
  2
AIGNBL0103001D
 70
64
 10
0
 20
0
 30
0
  3
AIGNBL0103001D
  0
POLYLINE
  8
LAYER_1
 40
0.05
 41
0.05
 66
1
 10
0
 20
0
 30
0
 70
1
  0
VERTEX
  8
LAYER_1
 10
157.5621
 20
-252.1676
  0
VERTEX
  8
LAYER_1
 10
158.1116
 20
-252.1676
  0
VERTEX
  8
LAYER_1
 10
158.1116
 20
-252.2609
  0
VERTEX
  8
LAYER_1
 10
157.4577
 20
-252.2609
  0
VERTEX
  8
LAYER_1
 10
157.4577
 20
-251.2339
  0
VERTEX
  8
LAYER_1
 10
158.0947
 20
-251.2339
  0
VERTEX
  8
LAYER_1
 10
158.0947
 20
-251.3263
  0
VERTEX
  8
LAYER_1
 10
157.5621
 20
-251.3263
  0
VERTEX
  8
LAYER_1
 10
157.5621
 20
-251.6787
  0
VERTEX
  8
LAYER_1
 10
158.0599
 20
-251.6787
  0
VERTEX
  8
LAYER_1
 10
158.0599
 20
-251.7717
  0
VERTEX
  8
LAYER_1
 10
157.5621
 20
-251.7717
  0
SEQEND
  0
ENDBLK
  0
BLOCK
  8
LAYER_1
  2
AIGNBL0103001E
 70
64
 10
0
 20
0
 30
0
  3
AIGNBL0103001E
  0
POLYLINE
  8
LAYER_1
 40
0.05
 41
0.05
 66
1
 10
0
 20
0
 30
0
 70
1
  0
VERTEX
  8
LAYER_1
 10
158.6208
 20
-252.2609
  0
VERTEX
  8
LAYER_1
 10
158.5168
 20
-252.2609
  0
VERTEX
  8
LAYER_1
 10
158.5168
 20
-251.2339
  0
VERTEX
  8
LAYER_1
 10
158.8185
 20
-251.2339
  0
VERTEX
  8
LAYER_1
 10
158.9584
 20
-251.2481
 42
-0.1005953548
  0
VERTEX
  8
LAYER_1
 10
159.07
 20
-251.2953
 42
-0.1225647981
  0
VERTEX
  8
LAYER_1
 10
159.1438
 20
-251.38
 42
-0.1056037953
  0
VERTEX
  8
LAYER_1
 10
159.1696
 20
-251.5078
 42
-0.113550017
  0
VERTEX
  8
LAYER_1
 10
159.1493
 20
-251.6105
  0
VERTEX
  8
LAYER_1
 10
159.0945
 20
-251.6915
  0
VERTEX
  8
LAYER_1
 10
159.0111
 20
-251.7459
  0
VERTEX
  8
LAYER_1
 10
158.9067
 20
-251.7717
  0
VERTEX
  8
LAYER_1
 10
159.2075
 20
-252.2609
  0
VERTEX
  8
LAYER_1
 10
159.08
 20
-252.2609
  0
VERTEX
  8
LAYER_1
 10
158.7955
 20
-251.7803
  0
VERTEX
  8
LAYER_1
 10
158.6208
 20
-251.7803
  0
SEQEND
  0
POLYLINE
  8
LAYER_1
 40
0.05
 41
0.05
 66
1
 10
0
 20
0
 30
0
 70
1
  0
VERTEX
  8
LAYER_1
 10
158.6208
 20
-251.69
  0
VERTEX
  8
LAYER_1
 10
158.8027
 20
-251.69
 42
0.1507170359
  0
VERTEX
  8
LAYER_1
 10
158.9974
 20
-251.6453
 42
0.2579683273
  0
VERTEX
  8
LAYER_1
 10
159.0652
 20
-251.5078
  0
VERTEX
  8
LAYER_1
 10
159.047
 20
-251.4224
  0
VERTEX
  8
LAYER_1
 10
158.9943
 20
-251.3652
  0
VERTEX
  8
LAYER_1
 10
158.9123
 20
-251.3338
  0
VERTEX
  8
LAYER_1
 10
158.8065
 20
-251.3235
  0
VERTEX
  8
LAYER_1
 10
158.6208
 20
-251.3235
  0
SEQEND
  0
ENDBLK
  0
BLOCK
  8
LAYER_1
  2
AIGNBL0103001F
 70
64
 10
0
 20
0
 30
0
  3
AIGNBL0103001F
  0
POLYLINE
  8
LAYER_1
 40
0.05
 41
0.05
 66
1
 10
0
 20
0
 30
0
 70
1
  0
VERTEX
  8
LAYER_1
 10
159.6898
 20
-252.2609
  0
VERTEX
  8
LAYER_1
 10
159.5865
 20
-252.2609
  0
VERTEX
  8
LAYER_1
 10
159.5865
 20
-251.2339
  0
VERTEX
  8
LAYER_1
 10
159.6898
 20
-251.2339
  0
SEQEND
  0
ENDBLK
  0
BLOCK
  8
LAYER_1
  2
AIGNBL01030020
 70
64
 10
0
 20
0
 30
0
  3
AIGNBL01030020
  0
POLYLINE
  8
LAYER_1
 40
0.05
 41
0.05
 66
1
 10
0
 20
0
 30
0
 70
1
  0
VERTEX
  8
LAYER_1
 10
160.2676
 20
-252.1676
  0
VERTEX
  8
LAYER_1
 10
160.8174
 20
-252.1676
  0
VERTEX
  8
LAYER_1
 10
160.8174
 20
-252.2609
  0
VERTEX
  8
LAYER_1
 10
160.1639
 20
-252.2609
  0
VERTEX
  8
LAYER_1
 10
160.1639
 20
-251.2339
  0
VERTEX
  8
LAYER_1
 10
160.8005
 20
-251.2339
  0
VERTEX
  8
LAYER_1
 10
160.8005
 20
-251.3263
  0
VERTEX
  8
LAYER_1
 10
160.2676
 20
-251.3263
  0
VERTEX
  8
LAYER_1
 10
160.2676
 20
-251.6787
  0
VERTEX
  8
LAYER_1
 10
160.7654
 20
-251.6787
  0
VERTEX
  8
LAYER_1
 10
160.7654
 20
-251.7717
  0
VERTEX
  8
LAYER_1
 10
160.2676
 20
-251.7717
  0
SEQEND
  0
ENDBLK
  0
BLOCK
  8
LAYER_1
  2
AIGNBL01030021
 70
64
 10
0
 20
0
 30
0
  3
AIGNBL01030021
  0
POLYLINE
  8
LAYER_1
 40
0.05
 41
0.05
 66
1
 10
0
 20
0
 30
0
 70
1
  0
VERTEX
  8
LAYER_1
 10
161.9505
 20
-252.1079
  0
VERTEX
  8
LAYER_1
 10
161.9536
 20
-252.1079
  0
VERTEX
  8
LAYER_1
 10
161.9536
 20
-251.2339
  0
VERTEX
  8
LAYER_1
 10
162.058
 20
-251.2339
  0
VERTEX
  8
LAYER_1
 10
162.058
 20
-252.2609
  0
VERTEX
  8
LAYER_1
 10
161.9277
 20
-252.2609
  0
VERTEX
  8
LAYER_1
 10
161.3297
 20
-251.3772
  0
VERTEX
  8
LAYER_1
 10
161.3266
 20
-251.3772
  0
VERTEX
  8
LAYER_1
 10
161.3266
 20
-252.2609
  0
VERTEX
  8
LAYER_1
 10
161.2222
 20
-252.2609
  0
VERTEX
  8
LAYER_1
 10
161.2222
 20
-251.2339
  0
VERTEX
  8
LAYER_1
 10
161.3535
 20
-251.2339
  0
SEQEND
  0
ENDBLK
  0
BLOCK
  8
LAYER_1
  2
AIGNBL01030022
 70
64
 10
0
 20
0
 30
0
  3
AIGNBL01030022
  0
POLYLINE
  8
LAYER_1
 40
0.05
 41
0.05
 66
1
 10
0
 20
0
 30
0
 70
1
  0
VERTEX
  8
LAYER_1
 10
163.396
 20
-252.0942
  0
VERTEX
  8
LAYER_1
 10
163.3323
 20
-252.1679
  0
VERTEX
  8
LAYER_1
 10
163.2469
 20
-252.2295
  0
VERTEX
  8
LAYER_1
 10
163.1394
 20
-252.2716
  0
VERTEX
  8
LAYER_1
 10
163.0112
 20
-252.2868
 42
-0.09929103144
  0
VERTEX
  8
LAYER_1
 10
162.7966
 20
-252.2461
 42
-0.1031170142
  0
VERTEX
  8
LAYER_1
 10
162.6271
 20
-252.1335
 42
-0.1024256256
  0
VERTEX
  8
LAYER_1
 10
162.5162
 20
-251.9633
 42
-0.09780652729
  0
VERTEX
  8
LAYER_1
 10
162.4759
 20
-251.7469
 42
-0.1005543907
  0
VERTEX
  8
LAYER_1
 10
162.5169
 20
-251.5306
 42
-0.09980539098
  0
VERTEX
  8
LAYER_1
 10
162.6285
 20
-251.3604
 42
-0.09707816065
  0
VERTEX
  8
LAYER_1
 10
162.798
 20
-251.2481
 42
-0.09782536185
  0
VERTEX
  8
LAYER_1
 10
163.0112
 20
-251.2071
  0
VERTEX
  8
LAYER_1
 10
163.1222
 20
-251.2191
  0
VERTEX
  8
LAYER_1
 10
163.2252
 20
-251.2522
  0
VERTEX
  8
LAYER_1
 10
163.3117
 20
-251.3035
  0
VERTEX
  8
LAYER_1
 10
163.3767
 20
-251.3711
  0
VERTEX
  8
LAYER_1
 10
163.2906
 20
-251.4355
  0
VERTEX
  8
LAYER_1
 10
163.2469
 20
-251.3858
  0
VERTEX
  8
LAYER_1
 10
163.1835
 20
-251.3421
  0
VERTEX
  8
LAYER_1
 10
163.1043
 20
-251.3114
  0
VERTEX
  8
LAYER_1
 10
163.0126
 20
-251.3001
 42
0.111032742
  0
VERTEX
  8
LAYER_1
 10
162.8338
 20
-251.3362
 42
0.1048566985
  0
VERTEX
  8
LAYER_1
 10
162.6998
 20
-251.4338
 42
0.09649516609
  0
VERTEX
  8
LAYER_1
 10
162.6147
 20
-251.5764
 42
0.08187604402
  0
VERTEX
  8
LAYER_1
 10
162.5868
 20
-251.7469
 42
0.09351376633
  0
VERTEX
  8
LAYER_1
 10
162.6164
 20
-251.9178
 42
0.09951767869
  0
VERTEX
  8
LAYER_1
 10
162.7012
 20
-252.0601
 42
0.1063497227
  0
VERTEX
  8
LAYER_1
 10
162.8356
 20
-252.1575
 42
0.1081437471
  0
VERTEX
  8
LAYER_1
 10
163.0126
 20
-252.1937
 42
0.1144963135
  0
VERTEX
  8
LAYER_1
 10
163.1804
 20
-252.1575
 42
0.1351211567
  0
VERTEX
  8
LAYER_1
 10
163.3148
 20
-252.0414
  0
SEQEND
  0
ENDBLK
  0
BLOCK
  8
LAYER_1
  2
AIGNBL01030023
 70
64
 10
0
 20
0
 30
0
  3
AIGNBL01030023
  0
POLYLINE
  8
LAYER_1
 40
0.05
 41
0.05
 66
1
 10
0
 20
0
 30
0
 70
1
  0
VERTEX
  8
LAYER_1
 10
163.8801
 20
-252.1676
  0
VERTEX
  8
LAYER_1
 10
164.4299
 20
-252.1676
  0
VERTEX
  8
LAYER_1
 10
164.4299
 20
-252.2609
  0
VERTEX
  8
LAYER_1
 10
163.7764
 20
-252.2609
  0
VERTEX
  8
LAYER_1
 10
163.7764
 20
-251.2339
  0
VERTEX
  8
LAYER_1
 10
164.4127
 20
-251.2339
  0
VERTEX
  8
LAYER_1
 10
164.4127
 20
-251.3263
  0
VERTEX
  8
LAYER_1
 10
163.8801
 20
-251.3263
  0
VERTEX
  8
LAYER_1
 10
163.8801
 20
-251.6787
  0
VERTEX
  8
LAYER_1
 10
164.3782
 20
-251.6787
  0
VERTEX
  8
LAYER_1
 10
164.3782
 20
-251.7717
  0
VERTEX
  8
LAYER_1
 10
163.8801
 20
-251.7717
  0
SEQEND
  0
ENDBLK
  0
BLOCK
  8
LAYER_1
  2
AIGNBL01020003
 70
64
 10
0
 20
0
 30
0
  3
AIGNBL01020003
  0
INSERT
  8
LAYER_1
  2
AIGNBL01030004
 10
0
 20
0
 30
0
  0
ENDBLK
  0
BLOCK
  8
LAYER_1
  2
AIGNBL0102000C
 70
64
 10
0
 20
0
 30
0
  3
AIGNBL0102000C
  0
INSERT
  8
LAYER_1
  2
AIGNBL0103000D
 10
0
 20
0
 30
0
  0
INSERT
  8
LAYER_1
  2
AIGNBL0103000E
 10
0
 20
0
 30
0
  0
INSERT
  8
LAYER_1
  2
AIGNBL0103000F
 10
0
 20
0
 30
0
  0
INSERT
  8
LAYER_1
  2
AIGNBL01030010
 10
0
 20
0
 30
0
  0
INSERT
  8
LAYER_1
  2
AIGNBL01030011
 10
0
 20
0
 30
0
  0
INSERT
  8
LAYER_1
  2
AIGNBL01030012
 10
0
 20
0
 30
0
  0
INSERT
  8
LAYER_1
  2
AIGNBL01030013
 10
0
 20
0
 30
0
  0
INSERT
  8
LAYER_1
  2
AIGNBL01030014
 10
0
 20
0
 30
0
  0
INSERT
  8
LAYER_1
  2
AIGNBL01030015
 10
0
 20
0
 30
0
  0
INSERT
  8
LAYER_1
  2
AIGNBL01030016
 10
0
 20
0
 30
0
  0
INSERT
  8
LAYER_1
  2
AIGNBL01030017
 10
0
 20
0
 30
0
  0
INSERT
  8
LAYER_1
  2
AIGNBL01030018
 10
0
 20
0
 30
0
  0
INSERT
  8
LAYER_1
  2
AIGNBL01030019
 10
0
 20
0
 30
0
  0
INSERT
  8
LAYER_1
  2
AIGNBL0103001A
 10
0
 20
0
 30
0
  0
INSERT
  8
LAYER_1
  2
AIGNBL0103001B
 10
0
 20
0
 30
0
  0
INSERT
  8
LAYER_1
  2
AIGNBL0103001C
 10
0
 20
0
 30
0
  0
INSERT
  8
LAYER_1
  2
AIGNBL0103001D
 10
0
 20
0
 30
0
  0
INSERT
  8
LAYER_1
  2
AIGNBL0103001E
 10
0
 20
0
 30
0
  0
INSERT
  8
LAYER_1
  2
AIGNBL0103001F
 10
0
 20
0
 30
0
  0
INSERT
  8
LAYER_1
  2
AIGNBL01030020
 10
0
 20
0
 30
0
  0
INSERT
  8
LAYER_1
  2
AIGNBL01030021
 10
0
 20
0
 30
0
  0
INSERT
  8
LAYER_1
  2
AIGNBL01030022
 10
0
 20
0
 30
0
  0
INSERT
  8
LAYER_1
  2
AIGNBL01030023
 10
0
 20
0
 30
0
  0
ENDBLK
  0
BLOCK
  8
LAYER_3
  2
AIGNBL03020003
 70
64
 10
0
 20
0
 30
0
  3
AIGNBL03020003
  0
POLYLINE
  8
LAYER_3
  6
AIGENLINE001
 40
0.1058
 41
0.1058
 66
1
 10
0
 20
0
 30
0
 70
128
  0
VERTEX
  8
LAYER_3
 10
69.4412
 20
-130.2534
  0
VERTEX
  8
LAYER_3
 10
69.4412
 20
-105.0922
  0
SEQEND
  0
ENDBLK
  0
BLOCK
  8
LAYER_3
  2
AIGNBL03020004
 70
64
 10
0
 20
0
 30
0
  3
AIGNBL03020004
  0
POLYLINE
  8
LAYER_3
 40
0.1058
 41
0.1058
 66
1
 10
0
 20
0
 30
0
 70
1
  0
VERTEX
  8
LAYER_3
 10
53.6324
 20
-73.5108
 42
-0.4142138232
  0
VERTEX
  8
LAYER_3
 10
69.4412
 20
-57.7019
 42
-0.4142137854
  0
VERTEX
  8
LAYER_3
 10
85.25
 20
-73.5108
 42
-0.4142133018
  0
VERTEX
  8
LAYER_3
 10
69.4412
 20
-89.3196
 42
-0.4142133394
  0
SEQEND
  0
ENDBLK
  0
BLOCK
  8
LAYER_3
  2
AIGNBL03020005
 70
64
 10
0
 20
0
 30
0
  3
AIGNBL03020005
  0
POLYLINE
  8
LAYER_3
  6
AIGENLINE001
 40
0.1058
 41
0.1058
 66
1
 10
0
 20
0
 30
0
 70
128
  0
VERTEX
  8
LAYER_3
 10
69.4412
 20
-106.1697
  0
VERTEX
  8
LAYER_3
 10
69.4412
 20
-131.2502
  0
SEQEND
  0
ENDBLK
  0
BLOCK
  8
LAYER_3
  2
AIGNBL03020006
 70
64
 10
0
 20
0
 30
0
  3
AIGNBL03020006
  0
POLYLINE
  8
LAYER_3
  6
AIGENLINE001
 40
0.1058
 41
0.1058
 66
1
 10
0
 20
0
 30
0
 70
128
  0
VERTEX
  8
LAYER_3
 10
79.1084
 20
-73.5108
  0
VERTEX
  8
LAYER_3
 10
55.6152
 20
-73.5108
  0
SEQEND
  0
ENDBLK
  0
BLOCK
  8
LAYER_3
  2
AIGNBL03020007
 70
64
 10
0
 20
0
 30
0
  3
AIGNBL03020007
  0
POLYLINE
  8
LAYER_3
  6
AIGENLINE001
 40
0.1058
 41
0.1058
 66
1
 10
0
 20
0
 30
0
 70
128
  0
VERTEX
  8
LAYER_3
 10
83.2672
 20
-73.5108
  0
VERTEX
  8
LAYER_3
 10
79.1084
 20
-73.5108
  0
SEQEND
  0
ENDBLK
  0
BLOCK
  8
LAYER_3
  2
AIGNBL03020008
 70
64
 10
0
 20
0
 30
0
  3
AIGNBL03020008
  0
POLYLINE
  8
LAYER_3
  6
AIGENLINE001
 40
0.1058
 41
0.1058
 66
1
 10
0
 20
0
 30
0
 70
128
  0
VERTEX
  8
LAYER_3
 10
69.4412
 20
-59.6848
  0
VERTEX
  8
LAYER_3
 10
69.4412
 20
-91.0255
  0
SEQEND
  0
ENDBLK
  0
BLOCK
  8
LAYER_3
  2
AIGNBL03020009
 70
64
 10
0
 20
0
 30
0
  3
AIGNBL03020009
  0
POLYLINE
  8
LAYER_3
 40
0.1058
 41
0.1058
 66
1
 10
0
 20
0
 30
0
  0
VERTEX
  8
LAYER_3
 10
71.7128
 20
-115.6793
  0
VERTEX
  8
LAYER_3
 10
71.7128
 20
-121.8948
  0
SEQEND
  0
ENDBLK
  0
BLOCK
  8
LAYER_3
  2
AIGNBL0302000A
 70
64
 10
0
 20
0
 30
0
  3
AIGNBL0302000A
  0
POLYLINE
  8
LAYER_3
 40
0.1058
 41
0.1058
 66
1
 10
0
 20
0
 30
0
  0
VERTEX
  8
LAYER_3
 10
70.2061
 20
-115.6793
  0
VERTEX
  8
LAYER_3
 10
70.2061
 20
-121.8948
  0
SEQEND
  0
ENDBLK
  0
BLOCK
  8
LAYER_3
  2
AIGNBL0302000B
 70
64
 10
0
 20
0
 30
0
  3
AIGNBL0302000B
  0
POLYLINE
  8
LAYER_3
 40
0.1058
 41
0.1058
 66
1
 10
0
 20
0
 30
0
  0
VERTEX
  8
LAYER_3
 10
68.6994
 20
-115.6793
  0
VERTEX
  8
LAYER_3
 10
68.6994
 20
-121.8948
  0
SEQEND
  0
ENDBLK
  0
BLOCK
  8
LAYER_3
  2
AIGNBL0302000C
 70
64
 10
0
 20
0
 30
0
  3
AIGNBL0302000C
  0
POLYLINE
  8
LAYER_3
 40
0.1058
 41
0.1058
 66
1
 10
0
 20
0
 30
0
  0
VERTEX
  8
LAYER_3
 10
67.1927
 20
-115.6793
  0
VERTEX
  8
LAYER_3
 10
67.1927
 20
-121.8948
  0
SEQEND
  0
ENDBLK
  0
BLOCK
  8
LAYER_3
  2
AIGNBL0302000D
 70
64
 10
0
 20
0
 30
0
  3
AIGNBL0302000D
  0
POLYLINE
  8
LAYER_3
 40
0.1058
 41
0.1058
 66
1
 10
0
 20
0
 30
0
 70
1
  0
VERTEX
  8
LAYER_3
 10
59.774
 20
-73.5108
 42
-0.4142139887
  0
VERTEX
  8
LAYER_3
 10
69.4412
 20
-63.8436
 42
-0.4142139271
  0
VERTEX
  8
LAYER_3
 10
79.1084
 20
-73.5108
 42
-0.4142131363
  0
VERTEX
  8
LAYER_3
 10
69.4412
 20
-83.178
 42
-0.4142131977
  0
SEQEND
  0
ENDBLK
  0
BLOCK
  8
LAYER_3
  2
AIGNBL0302000E
 70
64
 10
0
 20
0
 30
0
  3
AIGNBL0302000E
  0
POLYLINE
  8
LAYER_3
 40
0.1058
 41
0.1058
 66
1
 10
0
 20
0
 30
0
  0
VERTEX
  8
LAYER_3
 10
197.0476
 20
-139.5554
  0
VERTEX
  8
LAYER_3
 10
197.0476
 20
-140.5059
  0
SEQEND
  0
ENDBLK
  0
BLOCK
  8
LAYER_3
  2
AIGNBL0302000F
 70
64
 10
0
 20
0
 30
0
  3
AIGNBL0302000F
  0
POLYLINE
  8
LAYER_3
 40
0.1058
 41
0.1058
 66
1
 10
0
 20
0
 30
0
  0
VERTEX
  8
LAYER_3
 10
197.0476
 20
-140.5059
  0
VERTEX
  8
LAYER_3
 10
197.9978
 20
-140.5059
  0
SEQEND
  0
ENDBLK
  0
BLOCK
  8
LAYER_3
  2
AIGNBL03020010
 70
64
 10
0
 20
0
 30
0
  3
AIGNBL03020010
  0
POLYLINE
  8
LAYER_3
 40
0.1058
 41
0.1058
 66
1
 10
0
 20
0
 30
0
  0
VERTEX
  8
LAYER_3
 10
196.5376
 20
-141.0158
  0
VERTEX
  8
LAYER_3
 10
195.5872
 20
-141.0158
  0
SEQEND
  0
ENDBLK
  0
BLOCK
  8
LAYER_3
  2
AIGNBL03020011
 70
64
 10
0
 20
0
 30
0
  3
AIGNBL03020011
  0
POLYLINE
  8
LAYER_3
 40
0.1058
 41
0.1058
 66
1
 10
0
 20
0
 30
0
  0
VERTEX
  8
LAYER_3
 10
197.0476
 20
-141.0158
  0
VERTEX
  8
LAYER_3
 10
197.0476
 20
-141.9661
  0
SEQEND
  0
ENDBLK
  0
BLOCK
  8
LAYER_3
  2
AIGNBL03020012
 70
64
 10
0
 20
0
 30
0
  3
AIGNBL03020012
  0
POLYLINE
  8
LAYER_3
 40
0.1058
 41
0.1058
 66
1
 10
0
 20
0
 30
0
  0
VERTEX
  8
LAYER_3
 10
196.5376
 20
-140.5059
  0
VERTEX
  8
LAYER_3
 10
196.5376
 20
-139.5554
  0
SEQEND
  0
ENDBLK
  0
BLOCK
  8
LAYER_3
  2
AIGNBL03020013
 70
64
 10
0
 20
0
 30
0
  3
AIGNBL03020013
  0
POLYLINE
  8
LAYER_3
 40
0.1058
 41
0.1058
 66
1
 10
0
 20
0
 30
0
  0
VERTEX
  8
LAYER_3
 10
195.5872
 20
-141.0158
  0
VERTEX
  8
LAYER_3
 10
195.5872
 20
-140.5059
  0
SEQEND
  0
ENDBLK
  0
BLOCK
  8
LAYER_3
  2
AIGNBL03020014
 70
64
 10
0
 20
0
 30
0
  3
AIGNBL03020014
  0
POLYLINE
  8
LAYER_3
 40
0.1058
 41
0.1058
 66
1
 10
0
 20
0
 30
0
  0
VERTEX
  8
LAYER_3
 10
195.5872
 20
-140.5059
  0
VERTEX
  8
LAYER_3
 10
196.5376
 20
-140.5059
  0
SEQEND
  0
ENDBLK
  0
BLOCK
  8
LAYER_3
  2
AIGNBL03020015
 70
64
 10
0
 20
0
 30
0
  3
AIGNBL03020015
  0
POLYLINE
  8
LAYER_3
 40
0.1058
 41
0.1058
 66
1
 10
0
 20
0
 30
0
  0
VERTEX
  8
LAYER_3
 10
197.9978
 20
-140.5059
  0
VERTEX
  8
LAYER_3
 10
197.9978
 20
-141.0158
  0
SEQEND
  0
ENDBLK
  0
BLOCK
  8
LAYER_3
  2
AIGNBL03020016
 70
64
 10
0
 20
0
 30
0
  3
AIGNBL03020016
  0
POLYLINE
  8
LAYER_3
 40
0.1058
 41
0.1058
 66
1
 10
0
 20
0
 30
0
  0
VERTEX
  8
LAYER_3
 10
197.9978
 20
-141.0158
  0
VERTEX
  8
LAYER_3
 10
197.0476
 20
-141.0158
  0
SEQEND
  0
ENDBLK
  0
BLOCK
  8
LAYER_3
  2
AIGNBL03020017
 70
64
 10
0
 20
0
 30
0
  3
AIGNBL03020017
  0
POLYLINE
  8
LAYER_3
 40
0.1058
 41
0.1058
 66
1
 10
0
 20
0
 30
0
  0
VERTEX
  8
LAYER_3
 10
196.5376
 20
-141.9661
  0
VERTEX
  8
LAYER_3
 10
196.5376
 20
-141.0158
  0
SEQEND
  0
ENDBLK
  0
BLOCK
  8
LAYER_3
  2
AIGNBL03020018
 70
64
 10
0
 20
0
 30
0
  3
AIGNBL03020018
  0
POLYLINE
  8
LAYER_3
 40
0.1058
 41
0.1058
 66
1
 10
0
 20
0
 30
0
  0
VERTEX
  8
LAYER_3
 10
197.0476
 20
-141.9661
  0
VERTEX
  8
LAYER_3
 10
196.5376
 20
-141.9661
  0
SEQEND
  0
ENDBLK
  0
BLOCK
  8
LAYER_3
  2
AIGNBL03020019
 70
64
 10
0
 20
0
 30
0
  3
AIGNBL03020019
  0
POLYLINE
  8
LAYER_3
 40
0.1058
 41
0.1058
 66
1
 10
0
 20
0
 30
0
  0
VERTEX
  8
LAYER_3
 10
196.5376
 20
-139.5554
  0
VERTEX
  8
LAYER_3
 10
197.0476
 20
-139.5554
  0
SEQEND
  0
ENDBLK
  0
BLOCK
  8
LAYER_3
  2
AIGNBL0302001A
 70
64
 10
0
 20
0
 30
0
  3
AIGNBL0302001A
  0
POLYLINE
  8
LAYER_3
  6
AIGENLINE001
 40
0.1058
 41
0.1058
 66
1
 10
0
 20
0
 30
0
 70
128
  0
VERTEX
  8
LAYER_3
 10
84.3461
 20
-141.9661
  0
VERTEX
  8
LAYER_3
 10
72.5809
 20
-141.9661
  0
SEQEND
  0
ENDBLK
  0
BLOCK
  8
LAYER_3
  2
AIGNBL0302001B
 70
64
 10
0
 20
0
 30
0
  3
AIGNBL0302001B
  0
POLYLINE
  8
LAYER_3
 40
0.1058
 41
0.1058
 66
1
 10
0
 20
0
 30
0
  0
VERTEX
  8
LAYER_3
 10
194.5441
 20
-139.5554
  0
VERTEX
  8
LAYER_3
 10
91.7868
 20
-139.5554
  0
SEQEND
  0
ENDBLK
  0
BLOCK
  8
LAYER_3
  2
AIGNBL0302001C
 70
64
 10
0
 20
0
 30
0
  3
AIGNBL0302001C
  0
POLYLINE
  8
LAYER_3
 40
0.1058
 41
0.1058
 66
1
 10
0
 20
0
 30
0
  0
VERTEX
  8
LAYER_3
 10
194.5441
 20
-141.9661
  0
VERTEX
  8
LAYER_3
 10
91.7868
 20
-141.9661
  0
SEQEND
  0
ENDBLK
  0
BLOCK
  8
LAYER_3
  2
AIGNBL0302001D
 70
64
 10
0
 20
0
 30
0
  3
AIGNBL0302001D
  0
POLYLINE
  8
LAYER_3
 40
0.1058
 41
0.1058
 66
1
 10
0
 20
0
 30
0
  0
VERTEX
  8
LAYER_3
 10
204.4652
 20
-141.9661
  0
VERTEX
  8
LAYER_3
 10
202.5645
 20
-141.9661
  0
SEQEND
  0
ENDBLK
  0
BLOCK
  8
LAYER_3
  2
AIGNBL0302001E
 70
64
 10
0
 20
0
 30
0
  3
AIGNBL0302001E
  0
POLYLINE
  8
LAYER_3
 40
0.1058
 41
0.1058
 66
1
 10
0
 20
0
 30
0
  0
VERTEX
  8
LAYER_3
 10
211.6002
 20
-141.9638
  0
VERTEX
  8
LAYER_3
 10
205.1064
 20
-141.9661
  0
SEQEND
  0
ENDBLK
  0
BLOCK
  8
LAYER_3
  2
AIGNBL0302001F
 70
64
 10
0
 20
0
 30
0
  3
AIGNBL0302001F
  0
POLYLINE
  8
LAYER_3
 40
0.1058
 41
0.1058
 66
1
 10
0
 20
0
 30
0
  0
VERTEX
  8
LAYER_3
 10
204.4652
 20
-139.5554
  0
VERTEX
  8
LAYER_3
 10
202.5645
 20
-139.5554
  0
SEQEND
  0
ENDBLK
  0
BLOCK
  8
LAYER_3
  2
AIGNBL03020020
 70
64
 10
0
 20
0
 30
0
  3
AIGNBL03020020
  0
POLYLINE
  8
LAYER_3
 40
0.1058
 41
0.1058
 66
1
 10
0
 20
0
 30
0
  0
VERTEX
  8
LAYER_3
 10
211.6274
 20
-139.5554
  0
VERTEX
  8
LAYER_3
 10
205.1221
 20
-139.5554
  0
SEQEND
  0
ENDBLK
  0
BLOCK
  8
LAYER_3
  2
AIGNBL03020021
 70
64
 10
0
 20
0
 30
0
  3
AIGNBL03020021
  0
POLYLINE
  8
LAYER_3
  6
AIGENLINE001
 40
0.1058
 41
0.1058
 66
1
 10
0
 20
0
 30
0
 70
128
  0
VERTEX
  8
LAYER_3
 10
198.4383
 20
-140.7608
  0
VERTEX
  8
LAYER_3
 10
58.2618
 20
-140.7608
  0
SEQEND
  0
ENDBLK
  0
BLOCK
  8
LAYER_3
  2
AIGNBL03020022
 70
64
 10
0
 20
0
 30
0
  3
AIGNBL03020022
  0
POLYLINE
  8
LAYER_3
  6
AIGENLINE001
 40
0.1058
 41
0.1058
 66
1
 10
0
 20
0
 30
0
 70
128
  0
VERTEX
  8
LAYER_3
 10
215.4927
 20
-140.7608
  0
VERTEX
  8
LAYER_3
 10
198.4383
 20
-140.7608
  0
SEQEND
  0
ENDBLK
  0
BLOCK
  8
LAYER_3
  2
AIGNBL03020023
 70
64
 10
0
 20
0
 30
0
  3
AIGNBL03020023
  0
POLYLINE
  8
LAYER_3
  6
AIGENLINE001
 40
0.1058
 41
0.1058
 66
1
 10
0
 20
0
 30
0
 70
128
  0
VERTEX
  8
LAYER_3
 10
62.1545
 20
-139.5345
  0
VERTEX
  8
LAYER_3
 10
84.3461
 20
-139.5345
  0
SEQEND
  0
ENDBLK
  0
BLOCK
  8
LAYER_3
  2
AIGNBL03020024
 70
64
 10
0
 20
0
 30
0
  3
AIGNBL03020024
  0
POLYLINE
  8
LAYER_3
 40
0.1058
 41
0.1058
 66
1
 10
0
 20
0
 30
0
 70
1
  0
VERTEX
  8
LAYER_3
 10
195.1469
 20
-140.7608
 42
-0.4142093096
  0
VERTEX
  8
LAYER_3
 10
196.7926
 20
-139.1151
 42
-0.4142015445
  0
VERTEX
  8
LAYER_3
 10
198.4383
 20
-140.7608
 42
-0.4142178147
  0
VERTEX
  8
LAYER_3
 10
196.7926
 20
-142.4065
 42
-0.4142255811
  0
SEQEND
  0
ENDBLK
  0
BLOCK
  8
LAYER_3
  2
AIGNBL03020025
 70
64
 10
0
 20
0
 30
0
  3
AIGNBL03020025
  0
POLYLINE
  8
LAYER_3
 40
0.1058
 41
0.1058
 66
1
 10
0
 20
0
 30
0
  0
VERTEX
  8
LAYER_3
 10
59.7056
 20
-152.8829
  0
VERTEX
  8
LAYER_3
 10
79.2001
 20
-152.8829
  0
SEQEND
  0
ENDBLK
  0
BLOCK
  8
LAYER_3
  2
AIGNBL03020026
 70
64
 10
0
 20
0
 30
0
  3
AIGNBL03020026
  0
POLYLINE
  8
LAYER_3
 40
0.1058
 41
0.1058
 66
1
 10
0
 20
0
 30
0
  0
VERTEX
  8
LAYER_3
 10
59.1956
 20
-152.3728
  0
VERTEX
  8
LAYER_3
 10
59.7056
 20
-152.8829
  0
SEQEND
  0
ENDBLK
  0
BLOCK
  8
LAYER_3
  2
AIGNBL03020027
 70
64
 10
0
 20
0
 30
0
  3
AIGNBL03020027
  0
POLYLINE
  8
LAYER_3
 40
0.1058
 41
0.1058
 66
1
 10
0
 20
0
 30
0
  0
VERTEX
  8
LAYER_3
 10
79.6868
 20
-152.3962
  0
VERTEX
  8
LAYER_3
 10
79.2001
 20
-152.8829
  0
SEQEND
  0
ENDBLK
  0
BLOCK
  8
LAYER_3
  2
AIGNBL03020028
 70
64
 10
0
 20
0
 30
0
  3
AIGNBL03020028
  0
POLYLINE
  8
LAYER_3
 40
0.1058
 41
0.1058
 66
1
 10
0
 20
0
 30
0
  0
VERTEX
  8
LAYER_3
 10
79.6868
 20
-152.3728
  0
VERTEX
  8
LAYER_3
 10
79.6868
 20
-152.3962
  0
SEQEND
  0
ENDBLK
  0
BLOCK
  8
LAYER_3
  2
AIGNBL03020029
 70
64
 10
0
 20
0
 30
0
  3
AIGNBL03020029
  0
POLYLINE
  8
LAYER_3
 40
0.1058
 41
0.1058
 66
1
 10
0
 20
0
 30
0
  0
VERTEX
  8
LAYER_3
 10
59.1956
 20
-152.3728
  0
VERTEX
  8
LAYER_3
 10
79.6868
 20
-152.3728
  0
SEQEND
  0
ENDBLK
  0
BLOCK
  8
LAYER_3
  2
AIGNBL0302002A
 70
64
 10
0
 20
0
 30
0
  3
AIGNBL0302002A
  0
POLYLINE
  8
LAYER_3
  6
AIGENLINE001
 40
0.1058
 41
0.1058
 66
1
 10
0
 20
0
 30
0
 70
128
  0
VERTEX
  8
LAYER_3
 10
69.4412
 20
-117.9108
  0
VERTEX
  8
LAYER_3
 10
69.4412
 20
-153.8448
  0
SEQEND
  0
ENDBLK
  0
BLOCK
  8
LAYER_3
  2
AIGNBL0302002B
 70
64
 10
0
 20
0
 30
0
  3
AIGNBL0302002B
  0
POLYLINE
  8
LAYER_3
 40
0.1058
 41
0.1058
 66
1
 10
0
 20
0
 30
0
  0
VERTEX
  8
LAYER_3
 10
79.6868
 20
-147.6996
  0
VERTEX
  8
LAYER_3
 10
79.2001
 20
-147.6996
  0
SEQEND
  0
ENDBLK
  0
BLOCK
  8
LAYER_3
  2
AIGNBL0302002C
 70
64
 10
0
 20
0
 30
0
  3
AIGNBL0302002C
  0
POLYLINE
  8
LAYER_3
 40
0.1058
 41
0.1058
 66
1
 10
0
 20
0
 30
0
  0
VERTEX
  8
LAYER_3
 10
84.3461
 20
-136.1011
  0
VERTEX
  8
LAYER_3
 10
84.3461
 20
-145.3035
  0
SEQEND
  0
ENDBLK
  0
BLOCK
  8
LAYER_3
  2
AIGNBL0302002D
 70
64
 10
0
 20
0
 30
0
  3
AIGNBL0302002D
  0
POLYLINE
  8
LAYER_3
 40
0.1058
 41
0.1058
 66
1
 10
0
 20
0
 30
0
  0
VERTEX
  8
LAYER_3
 10
84.3461
 20
-136.1011
  0
VERTEX
  8
LAYER_3
 10
85.2292
 20
-136.1011
  0
SEQEND
  0
ENDBLK
  0
BLOCK
  8
LAYER_3
  2
AIGNBL0302002E
 70
64
 10
0
 20
0
 30
0
  3
AIGNBL0302002E
  0
POLYLINE
  8
LAYER_3
 40
0.1058
 41
0.1058
 66
1
 10
0
 20
0
 30
0
  0
VERTEX
  8
LAYER_3
 10
85.4587
 20
-145.3035
  0
VERTEX
  8
LAYER_3
 10
85.2292
 20
-145.3035
  0
SEQEND
  0
ENDBLK
  0
BLOCK
  8
LAYER_3
  2
AIGNBL0302002F
 70
64
 10
0
 20
0
 30
0
  3
AIGNBL0302002F
  0
POLYLINE
  8
LAYER_3
 40
0.1058
 41
0.1058
 66
1
 10
0
 20
0
 30
0
  0
VERTEX
  8
LAYER_3
 10
84.3461
 20
-145.3035
  0
VERTEX
  8
LAYER_3
 10
85.2292
 20
-144.7936
  0
SEQEND
  0
ENDBLK
  0
BLOCK
  8
LAYER_3
  2
AIGNBL03020030
 70
64
 10
0
 20
0
 30
0
  3
AIGNBL03020030
  0
POLYLINE
  8
LAYER_3
 40
0.1058
 41
0.1058
 66
1
 10
0
 20
0
 30
0
  0
VERTEX
  8
LAYER_3
 10
85.2292
 20
-144.7936
  0
VERTEX
  8
LAYER_3
 10
85.4587
 20
-144.7936
  0
SEQEND
  0
ENDBLK
  0
BLOCK
  8
LAYER_3
  2
AIGNBL03020031
 70
64
 10
0
 20
0
 30
0
  3
AIGNBL03020031
  0
POLYLINE
  8
LAYER_3
 40
0.1058
 41
0.1058
 66
1
 10
0
 20
0
 30
0
  0
VERTEX
  8
LAYER_3
 10
84.3461
 20
-145.3035
  0
VERTEX
  8
LAYER_3
 10
81.175
 20
-145.3035
  0
SEQEND
  0
ENDBLK
  0
BLOCK
  8
LAYER_3
  2
AIGNBL03020032
 70
64
 10
0
 20
0
 30
0
  3
AIGNBL03020032
  0
POLYLINE
  8
LAYER_3
 40
0.1058
 41
0.1058
 66
1
 10
0
 20
0
 30
0
  0
VERTEX
  8
LAYER_3
 10
85.2292
 20
-136.6109
  0
VERTEX
  8
LAYER_3
 10
84.3461
 20
-136.1011
  0
SEQEND
  0
ENDBLK
  0
BLOCK
  8
LAYER_3
  2
AIGNBL03020033
 70
64
 10
0
 20
0
 30
0
  3
AIGNBL03020033
  0
POLYLINE
  8
LAYER_3
 40
0.1058
 41
0.1058
 66
1
 10
0
 20
0
 30
0
  0
VERTEX
  8
LAYER_3
 10
85.2292
 20
-136.6109
  0
VERTEX
  8
LAYER_3
 10
85.4587
 20
-136.6109
  0
SEQEND
  0
ENDBLK
  0
BLOCK
  8
LAYER_3
  2
AIGNBL03020034
 70
64
 10
0
 20
0
 30
0
  3
AIGNBL03020034
  0
POLYLINE
  8
LAYER_3
 40
0.1058
 41
0.1058
 66
1
 10
0
 20
0
 30
0
  0
VERTEX
  8
LAYER_3
 10
85.2292
 20
-145.3035
  0
VERTEX
  8
LAYER_3
 10
85.2292
 20
-136.1011
  0
SEQEND
  0
ENDBLK
  0
BLOCK
  8
LAYER_3
  2
AIGNBL03020035
 70
64
 10
0
 20
0
 30
0
  3
AIGNBL03020035
  0
POLYLINE
  8
LAYER_3
 40
0.1058
 41
0.1058
 66
1
 10
0
 20
0
 30
0
  0
VERTEX
  8
LAYER_3
 10
85.2292
 20
-136.1011
  0
VERTEX
  8
LAYER_3
 10
85.4587
 20
-136.1011
  0
SEQEND
  0
ENDBLK
  0
BLOCK
  8
LAYER_3
  2
AIGNBL03020036
 70
64
 10
0
 20
0
 30
0
  3
AIGNBL03020036
  0
POLYLINE
  8
LAYER_3
 40
0.1058
 41
0.1058
 66
1
 10
0
 20
0
 30
0
  0
VERTEX
  8
LAYER_3
 10
85.2292
 20
-145.3035
  0
VERTEX
  8
LAYER_3
 10
84.3461
 20
-145.3035
  0
SEQEND
  0
ENDBLK
  0
BLOCK
  8
LAYER_3
  2
AIGNBL03020037
 70
64
 10
0
 20
0
 30
0
  3
AIGNBL03020037
  0
POLYLINE
  8
LAYER_3
 40
0.1058
 41
0.1058
 66
1
 10
0
 20
0
 30
0
  0
VERTEX
  8
LAYER_3
 10
59.1956
 20
-146.8566
  0
VERTEX
  8
LAYER_3
 10
59.7056
 20
-147.6996
  0
SEQEND
  0
ENDBLK
  0
BLOCK
  8
LAYER_3
  2
AIGNBL03020038
 70
64
 10
0
 20
0
 30
0
  3
AIGNBL03020038
  0
POLYLINE
  8
LAYER_3
 40
0.1058
 41
0.1058
 66
1
 10
0
 20
0
 30
0
  0
VERTEX
  8
LAYER_3
 10
59.7056
 20
-147.6996
  0
VERTEX
  8
LAYER_3
 10
59.1956
 20
-147.6996
  0
SEQEND
  0
ENDBLK
  0
BLOCK
  8
LAYER_3
  2
AIGNBL03020039
 70
64
 10
0
 20
0
 30
0
  3
AIGNBL03020039
  0
POLYLINE
  8
LAYER_3
 40
0.1058
 41
0.1058
 66
1
 10
0
 20
0
 30
0
  0
VERTEX
  8
LAYER_3
 10
79.6868
 20
-146.8566
  0
VERTEX
  8
LAYER_3
 10
79.2001
 20
-147.6996
  0
SEQEND
  0
ENDBLK
  0
BLOCK
  8
LAYER_3
  2
AIGNBL0302003A
 70
64
 10
0
 20
0
 30
0
  3
AIGNBL0302003A
  0
POLYLINE
  8
LAYER_3
 40
0.1058
 41
0.1058
 66
1
 10
0
 20
0
 30
0
  0
VERTEX
  8
LAYER_3
 10
79.2001
 20
-147.6996
  0
VERTEX
  8
LAYER_3
 10
59.7056
 20
-147.6996
  0
SEQEND
  0
ENDBLK
  0
BLOCK
  8
LAYER_3
  2
AIGNBL0302003B
 70
64
 10
0
 20
0
 30
0
  3
AIGNBL0302003B
  0
POLYLINE
  8
LAYER_3
 40
0.1058
 41
0.1058
 66
1
 10
0
 20
0
 30
0
  0
VERTEX
  8
LAYER_3
 10
59.7056
 20
-152.8829
  0
VERTEX
  8
LAYER_3
 10
59.7056
 20
-147.6996
  0
SEQEND
  0
ENDBLK
  0
BLOCK
  8
LAYER_3
  2
AIGNBL0302003C
 70
64
 10
0
 20
0
 30
0
  3
AIGNBL0302003C
  0
POLYLINE
  8
LAYER_3
 40
0.1058
 41
0.1058
 66
1
 10
0
 20
0
 30
0
  0
VERTEX
  8
LAYER_3
 10
59.1956
 20
-146.8566
  0
VERTEX
  8
LAYER_3
 10
59.1956
 20
-152.3728
  0
SEQEND
  0
ENDBLK
  0
BLOCK
  8
LAYER_3
  2
AIGNBL0302003D
 70
64
 10
0
 20
0
 30
0
  3
AIGNBL0302003D
  0
POLYLINE
  8
LAYER_3
 40
0.1058
 41
0.1058
 66
1
 10
0
 20
0
 30
0
  0
VERTEX
  8
LAYER_3
 10
79.2001
 20
-147.6996
  0
VERTEX
  8
LAYER_3
 10
79.2001
 20
-152.8829
  0
SEQEND
  0
ENDBLK
  0
BLOCK
  8
LAYER_3
  2
AIGNBL0302003E
 70
64
 10
0
 20
0
 30
0
  3
AIGNBL0302003E
  0
POLYLINE
  8
LAYER_3
 40
0.1058
 41
0.1058
 66
1
 10
0
 20
0
 30
0
  0
VERTEX
  8
LAYER_3
 10
79.6868
 20
-146.8566
  0
VERTEX
  8
LAYER_3
 10
79.6868
 20
-152.3728
  0
SEQEND
  0
ENDBLK
  0
BLOCK
  8
LAYER_3
  2
AIGNBL0302003F
 70
64
 10
0
 20
0
 30
0
  3
AIGNBL0302003F
  0
POLYLINE
  8
LAYER_3
 40
0.1058
 41
0.1058
 66
1
 10
0
 20
0
 30
0
  0
VERTEX
  8
LAYER_3
 10
54.9652
 20
-124.2096
  0
VERTEX
  8
LAYER_3
 10
83.9173
 20
-124.2096
  0
SEQEND
  0
ENDBLK
  0
BLOCK
  8
LAYER_3
  2
AIGNBL03020040
 70
64
 10
0
 20
0
 30
0
  3
AIGNBL03020040
  0
POLYLINE
  8
LAYER_3
  6
AIGENLINE002
 40
0.1058
 41
0.1058
 66
1
 10
0
 20
0
 30
0
 70
128
  0
VERTEX
  8
LAYER_3
 10
50.6192
 20
-73.5108
  0
VERTEX
  8
LAYER_3
 10
88.2632
 20
-73.5108
  0
SEQEND
  0
ENDBLK
  0
BLOCK
  8
LAYER_3
  2
AIGNBL03020041
 70
64
 10
0
 20
0
 30
0
  3
AIGNBL03020041
  0
POLYLINE
  8
LAYER_3
  6
AIGENLINE002
 40
0.1058
 41
0.1058
 66
1
 10
0
 20
0
 30
0
 70
128
  0
VERTEX
  8
LAYER_3
 10
69.4412
 20
-92.3328
  0
VERTEX
  8
LAYER_3
 10
69.4412
 20
-54.6888
  0
SEQEND
  0
ENDBLK
  0
BLOCK
  8
LAYER_3
  2
AIGNBL03020042
 70
64
 10
0
 20
0
 30
0
  3
AIGNBL03020042
  0
POLYLINE
  8
LAYER_3
  6
AIGENLINE002
 40
0.1058
 41
0.1058
 66
1
 10
0
 20
0
 30
0
 70
128
  0
VERTEX
  8
LAYER_3
 10
215.4927
 20
-140.7608
  0
VERTEX
  8
LAYER_3
 10
81.9439
 20
-140.7608
  0
SEQEND
  0
ENDBLK
  0
BLOCK
  8
LAYER_3
  2
AIGNBL03020043
 70
64
 10
0
 20
0
 30
0
  3
AIGNBL03020043
  0
POLYLINE
  8
LAYER_3
  6
AIGENLINE002
 40
0.1058
 41
0.1058
 66
1
 10
0
 20
0
 30
0
 70
128
  0
VERTEX
  8
LAYER_3
 10
69.4412
 20
-105.0922
  0
VERTEX
  8
LAYER_3
 10
69.4412
 20
-160.6195
  0
SEQEND
  0
ENDBLK
  0
BLOCK
  8
LAYER_3
  2
AIGNBL03020044
 70
64
 10
0
 20
0
 30
0
  3
AIGNBL03020044
  0
POLYLINE
  8
LAYER_3
 40
0.05
 41
0.05
 66
1
 10
0
 20
0
 30
0
 70
1
  0
VERTEX
  8
LAYER_3
 10
81.8453
 20
-151.2804
  0
VERTEX
  8
LAYER_3
 10
79.6868
 20
-148.4674
  0
VERTEX
  8
LAYER_3
 10
81.0437
 20
-151.7432
  0
SEQEND
  0
ENDBLK
  0
BLOCK
  8
LAYER_3
  2
AIGNBL03020045
 70
64
 10
0
 20
0
 30
0
  3
AIGNBL03020045
  0
POLYLINE
  8
LAYER_3
 40
0.1058
 41
0.1058
 66
1
 10
0
 20
0
 30
0
  0
VERTEX
  8
LAYER_3
 10
79.6868
 20
-148.4674
  0
VERTEX
  8
LAYER_3
 10
90.315
 20
-166.8758
  0
SEQEND
  0
POLYLINE
  8
LAYER_3
 40
0.1058
 41
0.1058
 66
1
 10
0
 20
0
 30
0
  0
VERTEX
  8
LAYER_3
 10
90.315
 20
-166.8758
  0
VERTEX
  8
LAYER_3
 10
108.1101
 20
-166.8758
  0
SEQEND
  0
ENDBLK
  0
BLOCK
  8
LAYER_3
  2
AIGNBL03020046
 70
64
 10
0
 20
0
 30
0
  3
AIGNBL03020046
  0
TEXT
  8
LAYER_3
 10
89.795
 20
-165.5668
 11
89.795
 21
-165.5668
 40
5.7983
 41
0.5
  1
G1 1/4
  0
ENDBLK
  0
BLOCK
  8
LAYER_3
  2
AIGNBL03020047
 70
64
 10
0
 20
0
 30
0
  3
AIGNBL03020047
  0
POLYLINE
  8
LAYER_3
 40
0.1058
 41
0.1058
 66
1
 10
0
 20
0
 30
0
  0
VERTEX
  8
LAYER_3
 10
105.3378
 20
-152.8829
  0
VERTEX
  8
LAYER_3
 10
105.3378
 20
-108.3776
  0
SEQEND
  0
ENDBLK
  0
BLOCK
  8
LAYER_3
  2
AIGNBL03020048
 70
64
 10
0
 20
0
 30
0
  3
AIGNBL03020048
  0
POLYLINE
  8
LAYER_3
 40
0.1058
 41
0.1058
 66
1
 10
0
 20
0
 30
0
  0
VERTEX
  8
LAYER_3
 10
85.25
 20
-108.3776
  0
VERTEX
  8
LAYER_3
 10
106.3422
 20
-108.3776
  0
SEQEND
  0
ENDBLK
  0
BLOCK
  8
LAYER_3
  2
AIGNBL03020049
 70
64
 10
0
 20
0
 30
0
  3
AIGNBL03020049
  0
POLYLINE
  8
LAYER_3
 40
0.1058
 41
0.1058
 66
1
 10
0
 20
0
 30
0
  0
VERTEX
  8
LAYER_3
 10
79.2001
 20
-152.8829
  0
VERTEX
  8
LAYER_3
 10
106.3422
 20
-152.8829
  0
SEQEND
  0
ENDBLK
  0
BLOCK
  8
LAYER_3
  2
AIGNBL0302004A
 70
64
 10
0
 20
0
 30
0
  3
AIGNBL0302004A
  0
POLYLINE
  8
LAYER_3
 40
0.05
 41
0.05
 66
1
 10
0
 20
0
 30
0
 70
1
  0
VERTEX
  8
LAYER_3
 10
104.875
 20
-149.3676
  0
VERTEX
  8
LAYER_3
 10
105.3378
 20
-152.8829
  0
VERTEX
  8
LAYER_3
 10
105.8006
 20
-149.3676
  0
SEQEND
  0
ENDBLK
  0
BLOCK
  8
LAYER_3
  2
AIGNBL0302004B
 70
64
 10
0
 20
0
 30
0
  3
AIGNBL0302004B
  0
POLYLINE
  8
LAYER_3
 40
0.05
 41
0.05
 66
1
 10
0
 20
0
 30
0
 70
1
  0
VERTEX
  8
LAYER_3
 10
105.8006
 20
-111.8929
  0
VERTEX
  8
LAYER_3
 10
105.3378
 20
-108.3776
  0
VERTEX
  8
LAYER_3
 10
104.875
 20
-111.8929
  0
SEQEND
  0
ENDBLK
  0
BLOCK
  8
LAYER_3
  2
AIGNBL0302004C
 70
64
 10
0
 20
0
 30
0
  3
AIGNBL0302004C
  0
TEXT
  8
LAYER_3
 10
104.5316
 20
-131.0528
 11
104.5316
 21
-131.0528
 40
5.7983
 41
0.5
 50
89.99999999
  1
89
  0
ENDBLK
  0
BLOCK
  8
LAYER_3
  2
AIGNBL0302004D
 70
64
 10
0
 20
0
 30
0
  3
AIGNBL0302004D
  0
POLYLINE
  8
LAYER_3
 40
0.1058
 41
0.1058
 66
1
 10
0
 20
0
 30
0
  0
VERTEX
  8
LAYER_3
 10
61.5472
 20
-175.4131
  0
VERTEX
  8
LAYER_3
 10
212.2074
 20
-175.4131
  0
SEQEND
  0
ENDBLK
  0
BLOCK
  8
LAYER_3
  2
AIGNBL0302004E
 70
64
 10
0
 20
0
 30
0
  3
AIGNBL0302004E
  0
POLYLINE
  8
LAYER_3
 40
0.1058
 41
0.1058
 66
1
 10
0
 20
0
 30
0
  0
VERTEX
  8
LAYER_3
 10
212.2074
 20
-140.7375
  0
VERTEX
  8
LAYER_3
 10
212.2074
 20
-176.4175
  0
SEQEND
  0
ENDBLK
  0
BLOCK
  8
LAYER_3
  2
AIGNBL0302004F
 70
64
 10
0
 20
0
 30
0
  3
AIGNBL0302004F
  0
POLYLINE
  8
LAYER_3
 40
0.1058
 41
0.1058
 66
1
 10
0
 20
0
 30
0
  0
VERTEX
  8
LAYER_3
 10
61.5472
 20
-140.7608
  0
VERTEX
  8
LAYER_3
 10
61.5472
 20
-176.4175
  0
SEQEND
  0
ENDBLK
  0
BLOCK
  8
LAYER_3
  2
AIGNBL03020050
 70
64
 10
0
 20
0
 30
0
  3
AIGNBL03020050
  0
POLYLINE
  8
LAYER_3
 40
0.05
 41
0.05
 66
1
 10
0
 20
0
 30
0
 70
1
  0
VERTEX
  8
LAYER_3
 10
65.0626
 20
-174.9503
  0
VERTEX
  8
LAYER_3
 10
61.5472
 20
-175.4131
  0
VERTEX
  8
LAYER_3
 10
65.0626
 20
-175.8759
  0
SEQEND
  0
ENDBLK
  0
BLOCK
  8
LAYER_3
  2
AIGNBL03020051
 70
64
 10
0
 20
0
 30
0
  3
AIGNBL03020051
  0
POLYLINE
  8
LAYER_3
 40
0.05
 41
0.05
 66
1
 10
0
 20
0
 30
0
 70
1
  0
VERTEX
  8
LAYER_3
 10
208.692
 20
-175.8759
  0
VERTEX
  8
LAYER_3
 10
212.2074
 20
-175.4131
  0
VERTEX
  8
LAYER_3
 10
208.692
 20
-174.9503
  0
SEQEND
  0
ENDBLK
  0
BLOCK
  8
LAYER_3
  2
AIGNBL03020052
 70
64
 10
0
 20
0
 30
0
  3
AIGNBL03020052
  0
TEXT
  8
LAYER_3
 10
137.3341
 20
-174.6129
 11
137.3341
 21
-174.6129
 40
5.7983
 41
0.5
  1
300
  0
ENDBLK
  0
BLOCK
  8
LAYER_3
  2
AIGNBL03020053
 70
64
 10
0
 20
0
 30
0
  3
AIGNBL03020053
  0
POLYLINE
  8
LAYER_3
 40
0.1058
 41
0.1058
 66
1
 10
0
 20
0
 30
0
  0
VERTEX
  8
LAYER_3
 10
222.2009
 20
-139.5554
  0
VERTEX
  8
LAYER_3
 10
222.2009
 20
-124.496
  0
SEQEND
  0
ENDBLK
  0
BLOCK
  8
LAYER_3
  2
AIGNBL03020054
 70
64
 10
0
 20
0
 30
0
  3
AIGNBL03020054
  0
POLYLINE
  8
LAYER_3
 40
0.1058
 41
0.1058
 66
1
 10
0
 20
0
 30
0
  0
VERTEX
  8
LAYER_3
 10
222.2009
 20
-141.9638
  0
VERTEX
  8
LAYER_3
 10
222.2009
 20
-139.5554
  0
SEQEND
  0
ENDBLK
  0
BLOCK
  8
LAYER_3
  2
AIGNBL03020055
 70
64
 10
0
 20
0
 30
0
  3
AIGNBL03020055
  0
POLYLINE
  8
LAYER_3
 40
0.1058
 41
0.1058
 66
1
 10
0
 20
0
 30
0
  0
VERTEX
  8
LAYER_3
 10
222.2009
 20
-148.9945
  0
VERTEX
  8
LAYER_3
 10
222.2009
 20
-141.9638
  0
SEQEND
  0
ENDBLK
  0
BLOCK
  8
LAYER_3
  2
AIGNBL03020056
 70
64
 10
0
 20
0
 30
0
  3
AIGNBL03020056
  0
POLYLINE
  8
LAYER_3
 40
0.1058
 41
0.1058
 66
1
 10
0
 20
0
 30
0
  0
VERTEX
  8
LAYER_3
 10
211.6274
 20
-139.5554
  0
VERTEX
  8
LAYER_3
 10
223.2053
 20
-139.5554
  0
SEQEND
  0
ENDBLK
  0
BLOCK
  8
LAYER_3
  2
AIGNBL03020057
 70
64
 10
0
 20
0
 30
0
  3
AIGNBL03020057
  0
POLYLINE
  8
LAYER_3
 40
0.1058
 41
0.1058
 66
1
 10
0
 20
0
 30
0
  0
VERTEX
  8
LAYER_3
 10
211.6002
 20
-141.9638
  0
VERTEX
  8
LAYER_3
 10
223.2053
 20
-141.9638
  0
SEQEND
  0
ENDBLK
  0
BLOCK
  8
LAYER_3
  2
AIGNBL03020058
 70
64
 10
0
 20
0
 30
0
  3
AIGNBL03020058
  0
POLYLINE
  8
LAYER_3
 40
0.05
 41
0.05
 66
1
 10
0
 20
0
 30
0
 70
1
  0
VERTEX
  8
LAYER_3
 10
222.6637
 20
-145.4792
  0
VERTEX
  8
LAYER_3
 10
222.2009
 20
-141.9638
  0
VERTEX
  8
LAYER_3
 10
221.7381
 20
-145.4792
  0
SEQEND
  0
ENDBLK
  0
BLOCK
  8
LAYER_3
  2
AIGNBL03020059
 70
64
 10
0
 20
0
 30
0
  3
AIGNBL03020059
  0
POLYLINE
  8
LAYER_3
 40
0.05
 41
0.05
 66
1
 10
0
 20
0
 30
0
 70
1
  0
VERTEX
  8
LAYER_3
 10
221.7381
 20
-136.0401
  0
VERTEX
  8
LAYER_3
 10
222.2009
 20
-139.5554
  0
VERTEX
  8
LAYER_3
 10
222.6637
 20
-136.0401
  0
SEQEND
  0
ENDBLK
  0
BLOCK
  8
LAYER_3
  2
AIGNBL0302005A
 70
64
 10
0
 20
0
 30
0
  3
AIGNBL0302005A
  0
TEXT
  8
LAYER_3
 10
220.4105
 20
-136.0874
 11
220.4105
 21
-136.0874
 40
6.8865
 41
0.5
 50
89.99999999
  1
4,8
  0
ENDBLK
  0
BLOCK
  8
LAYER_3
  2
AIGNBL0302005B
 70
64
 10
0
 20
0
 30
0
  3
AIGNBL0302005B
  0
POLYLINE
  8
LAYER_3
 40
0.1058
 41
0.1058
 66
1
 10
0
 20
0
 30
0
  0
VERTEX
  8
LAYER_3
 10
95.2939
 20
-126.968
  0
VERTEX
  8
LAYER_3
 10
95.2939
 20
-108.3776
  0
SEQEND
  0
ENDBLK
  0
BLOCK
  8
LAYER_3
  2
AIGNBL0302005C
 70
64
 10
0
 20
0
 30
0
  3
AIGNBL0302005C
  0
POLYLINE
  8
LAYER_3
 40
0.1058
 41
0.1058
 66
1
 10
0
 20
0
 30
0
  0
VERTEX
  8
LAYER_3
 10
85.5051
 20
-126.968
  0
VERTEX
  8
LAYER_3
 10
96.2983
 20
-126.968
  0
SEQEND
  0
ENDBLK
  0
BLOCK
  8
LAYER_3
  2
AIGNBL0302005D
 70
64
 10
0
 20
0
 30
0
  3
AIGNBL0302005D
  0
POLYLINE
  8
LAYER_3
 40
0.1058
 41
0.1058
 66
1
 10
0
 20
0
 30
0
  0
VERTEX
  8
LAYER_3
 10
85.25
 20
-108.3776
  0
VERTEX
  8
LAYER_3
 10
96.2983
 20
-108.3776
  0
SEQEND
  0
ENDBLK
  0
BLOCK
  8
LAYER_3
  2
AIGNBL0302005E
 70
64
 10
0
 20
0
 30
0
  3
AIGNBL0302005E
  0
POLYLINE
  8
LAYER_3
 40
0.05
 41
0.05
 66
1
 10
0
 20
0
 30
0
 70
1
  0
VERTEX
  8
LAYER_3
 10
94.8311
 20
-123.4527
  0
VERTEX
  8
LAYER_3
 10
95.2939
 20
-126.968
  0
VERTEX
  8
LAYER_3
 10
95.7567
 20
-123.4527
  0
SEQEND
  0
ENDBLK
  0
BLOCK
  8
LAYER_3
  2
AIGNBL0302005F
 70
64
 10
0
 20
0
 30
0
  3
AIGNBL0302005F
  0
POLYLINE
  8
LAYER_3
 40
0.05
 41
0.05
 66
1
 10
0
 20
0
 30
0
 70
1
  0
VERTEX
  8
LAYER_3
 10
95.7567
 20
-111.8929
  0
VERTEX
  8
LAYER_3
 10
95.2939
 20
-108.3776
  0
VERTEX
  8
LAYER_3
 10
94.8311
 20
-111.8929
  0
SEQEND
  0
ENDBLK
  0
BLOCK
  8
LAYER_3
  2
AIGNBL03020060
 70
64
 10
0
 20
0
 30
0
  3
AIGNBL03020060
  0
TEXT
  8
LAYER_3
 10
94.4871
 20
-121.5836
 11
94.4871
 21
-121.5836
 40
5.7983
 41
0.5
 50
89.99999999
  1
36
  0
ENDBLK
  0
BLOCK
  8
LAYER_3
  2
AIGNBL03020061
 70
64
 10
0
 20
0
 30
0
  3
AIGNBL03020061
  0
POLYLINE
  8
LAYER_3
 40
0.1058
 41
0.1058
 66
1
 10
0
 20
0
 30
0
  0
VERTEX
  8
LAYER_3
 10
61.202
 20
-85.9738
  0
VERTEX
  8
LAYER_3
 10
87.8726
 20
-45.6306
  0
SEQEND
  0
ENDBLK
  0
BLOCK
  8
LAYER_3
  2
AIGNBL03020062
 70
64
 10
0
 20
0
 30
0
  3
AIGNBL03020062
  0
POLYLINE
  8
LAYER_3
 40
0.05
 41
0.05
 66
1
 10
0
 20
0
 30
0
 70
1
  0
VERTEX
  8
LAYER_3
 10
76.325
 20
-62.2588
  0
VERTEX
  8
LAYER_3
 10
74.7725
 20
-65.4465
  0
VERTEX
  8
LAYER_3
 10
77.0972
 20
-62.7692
  0
SEQEND
  0
ENDBLK
  0
BLOCK
  8
LAYER_3
  2
AIGNBL03020063
 70
64
 10
0
 20
0
 30
0
  3
AIGNBL03020063
  0
POLYLINE
  8
LAYER_3
 40
0.05
 41
0.05
 66
1
 10
0
 20
0
 30
0
 70
1
  0
VERTEX
  8
LAYER_3
 10
62.5574
 20
-84.7628
  0
VERTEX
  8
LAYER_3
 10
64.1099
 20
-81.5751
  0
VERTEX
  8
LAYER_3
 10
61.7852
 20
-84.2523
  0
SEQEND
  0
ENDBLK
  0
BLOCK
  8
LAYER_3
  2
AIGNBL03020064
 70
64
 10
0
 20
0
 30
0
  3
AIGNBL03020064
  0
TEXT
  8
LAYER_3
 10
81.3764
 20
-52.2582
 11
81.3764
 21
-52.2582
 40
6.8865
 41
0.5
 50
56.53145365
  1
38,5
  0
ENDBLK
  0
BLOCK
  8
LAYER_3
  2
AIGNBL03020065
 70
64
 10
0
 20
0
 30
0
  3
AIGNBL03020065
  0
POLYLINE
  8
LAYER_3
 40
0.1058
 41
0.1058
 66
1
 10
0
 20
0
 30
0
  0
VERTEX
  8
LAYER_3
 10
51.053
 20
-83.8219
  0
VERTEX
  8
LAYER_3
 10
98.3274
 20
-57.3129
  0
SEQEND
  0
ENDBLK
  0
BLOCK
  8
LAYER_3
  2
AIGNBL03020066
 70
64
 10
0
 20
0
 30
0
  3
AIGNBL03020066
  0
POLYLINE
  8
LAYER_3
 40
0.05
 41
0.05
 66
1
 10
0
 20
0
 30
0
 70
1
  0
VERTEX
  8
LAYER_3
 10
86.0699
 20
-63.6557
  0
VERTEX
  8
LAYER_3
 10
83.2301
 20
-65.7787
  0
VERTEX
  8
LAYER_3
 10
86.5227
 20
-64.463
  0
SEQEND
  0
ENDBLK
  0
BLOCK
  8
LAYER_3
  2
AIGNBL03020067
 70
64
 10
0
 20
0
 30
0
  3
AIGNBL03020067
  0
POLYLINE
  8
LAYER_3
 40
0.05
 41
0.05
 66
1
 10
0
 20
0
 30
0
 70
1
  0
VERTEX
  8
LAYER_3
 10
52.8125
 20
-83.3659
  0
VERTEX
  8
LAYER_3
 10
55.6523
 20
-81.2429
  0
VERTEX
  8
LAYER_3
 10
52.3597
 20
-82.5586
  0
SEQEND
  0
ENDBLK
  0
BLOCK
  8
LAYER_3
  2
AIGNBL03020068
 70
64
 10
0
 20
0
 30
0
  3
AIGNBL03020068
  0
TEXT
  8
LAYER_3
 10
93.6341
 20
-58.5342
 11
93.6341
 21
-58.5342
 40
6.8865
 41
0.5
 50
29.28138267
  1
63
  0
ENDBLK
  0
BLOCK
  8
LAYER_3
  2
AIGNBL03020069
 70
64
 10
0
 20
0
 30
0
  3
AIGNBL03020069
  0
POLYLINE
  8
LAYER_3
 40
0.1058
 41
0.1058
 66
1
 10
0
 20
0
 30
0
  0
VERTEX
  8
LAYER_3
 10
66.9261
 20
-115.6562
 42
0.1433378193
  0
VERTEX
  8
LAYER_3
 10
66.3935
 20
-115.8768
 42
0.09797929719
  0
VERTEX
  8
LAYER_3
 10
66.2669
 20
-116.0799
 42
0.0382882009
  0
VERTEX
  8
LAYER_3
 10
66.1728
 20
-116.4095
  0
SEQEND
  0
ENDBLK
  0
BLOCK
  8
LAYER_3
  2
AIGNBL0302006A
 70
64
 10
0
 20
0
 30
0
  3
AIGNBL0302006A
  0
POLYLINE
  8
LAYER_3
 40
0.1058
 41
0.1058
 66
1
 10
0
 20
0
 30
0
  0
VERTEX
  8
LAYER_3
 10
72.7096
 20
-116.4095
 42
0.1433241919
  0
VERTEX
  8
LAYER_3
 10
72.4889
 20
-115.8768
 42
0.0980978961
  0
VERTEX
  8
LAYER_3
 10
72.2859
 20
-115.7503
 42
0.03836991283
  0
VERTEX
  8
LAYER_3
 10
71.9562
 20
-115.6562
  0
SEQEND
  0
ENDBLK
  0
BLOCK
  8
LAYER_3
  2
AIGNBL0302006B
 70
64
 10
0
 20
0
 30
0
  3
AIGNBL0302006B
  0
POLYLINE
  8
LAYER_3
 40
0.1058
 41
0.1058
 66
1
 10
0
 20
0
 30
0
  0
VERTEX
  8
LAYER_3
 10
59.1383
 20
-112.2481
  0
VERTEX
  8
LAYER_3
 10
59.1142
 20
-112.1553
  0
VERTEX
  8
LAYER_3
 10
59.0883
 20
-112.0632
  0
SEQEND
  0
ENDBLK
  0
BLOCK
  8
LAYER_3
  2
AIGNBL0302006C
 70
64
 10
0
 20
0
 30
0
  3
AIGNBL0302006C
  0
POLYLINE
  8
LAYER_3
 40
0.1058
 41
0.1058
 66
1
 10
0
 20
0
 30
0
  0
VERTEX
  8
LAYER_3
 10
79.794
 20
-112.0632
  0
VERTEX
  8
LAYER_3
 10
79.7681
 20
-112.1553
  0
VERTEX
  8
LAYER_3
 10
79.744
 20
-112.2481
  0
SEQEND
  0
ENDBLK
  0
BLOCK
  8
LAYER_3
  2
AIGNBL0302006D
 70
64
 10
0
 20
0
 30
0
  3
AIGNBL0302006D
  0
POLYLINE
  8
LAYER_3
 40
0.1058
 41
0.1058
 66
1
 10
0
 20
0
 30
0
  0
VERTEX
  8
LAYER_3
 10
72.7096
 20
-121.1646
 42
-0.1433241919
  0
VERTEX
  8
LAYER_3
 10
72.4889
 20
-121.6973
 42
-0.0980978961
  0
VERTEX
  8
LAYER_3
 10
72.2859
 20
-121.8238
 42
-0.03836991283
  0
VERTEX
  8
LAYER_3
 10
71.9562
 20
-121.9179
  0
SEQEND
  0
ENDBLK
  0
BLOCK
  8
LAYER_3
  2
AIGNBL0302006E
 70
64
 10
0
 20
0
 30
0
  3
AIGNBL0302006E
  0
POLYLINE
  8
LAYER_3
 40
0.1058
 41
0.1058
 66
1
 10
0
 20
0
 30
0
  0
VERTEX
  8
LAYER_3
 10
66.9261
 20
-121.9179
 42
-0.1433378193
  0
VERTEX
  8
LAYER_3
 10
66.3935
 20
-121.6973
 42
-0.09797929719
  0
VERTEX
  8
LAYER_3
 10
66.2669
 20
-121.4942
 42
-0.0382882009
  0
VERTEX
  8
LAYER_3
 10
66.1728
 20
-121.1646
  0
SEQEND
  0
ENDBLK
  0
BLOCK
  8
LAYER_3
  2
AIGNBL0302006F
 70
64
 10
0
 20
0
 30
0
  3
AIGNBL0302006F
  0
POLYLINE
  8
LAYER_3
 40
0.1058
 41
0.1058
 66
1
 10
0
 20
0
 30
0
  0
VERTEX
  8
LAYER_3
 10
59.126
 20
-112.2487
  0
VERTEX
  8
LAYER_3
 10
59.126
 20
-113.4077
  0
SEQEND
  0
ENDBLK
  0
BLOCK
  8
LAYER_3
  2
AIGNBL03020070
 70
64
 10
0
 20
0
 30
0
  3
AIGNBL03020070
  0
POLYLINE
  8
LAYER_3
 40
0.1058
 41
0.1058
 66
1
 10
0
 20
0
 30
0
  0
VERTEX
  8
LAYER_3
 10
79.7332
 20
-112.2487
  0
VERTEX
  8
LAYER_3
 10
79.7332
 20
-113.4077
  0
SEQEND
  0
ENDBLK
  0
BLOCK
  8
LAYER_3
  2
AIGNBL03020071
 70
64
 10
0
 20
0
 30
0
  3
AIGNBL03020071
  0
POLYLINE
  8
LAYER_3
 40
0.1058
 41
0.1058
 66
1
 10
0
 20
0
 30
0
  0
VERTEX
  8
LAYER_3
 10
53.6091
 20
-108.3776
  0
VERTEX
  8
LAYER_3
 10
53.6091
 20
-109.0498
  0
SEQEND
  0
ENDBLK
  0
BLOCK
  8
LAYER_3
  2
AIGNBL03020072
 70
64
 10
0
 20
0
 30
0
  3
AIGNBL03020072
  0
POLYLINE
  8
LAYER_3
 40
0.1058
 41
0.1058
 66
1
 10
0
 20
0
 30
0
  0
VERTEX
  8
LAYER_3
 10
85.25
 20
-108.3776
  0
VERTEX
  8
LAYER_3
 10
85.25
 20
-109.0498
  0
SEQEND
  0
ENDBLK
  0
BLOCK
  8
LAYER_3
  2
AIGNBL03020073
 70
64
 10
0
 20
0
 30
0
  3
AIGNBL03020073
  0
POLYLINE
  8
LAYER_3
 40
0.1058
 41
0.1058
 66
1
 10
0
 20
0
 30
0
  0
VERTEX
  8
LAYER_3
 10
59.126
 20
-112.2487
  0
VERTEX
  8
LAYER_3
 10
79.7332
 20
-112.2487
  0
SEQEND
  0
ENDBLK
  0
BLOCK
  8
LAYER_3
  2
AIGNBL03020074
 70
64
 10
0
 20
0
 30
0
  3
AIGNBL03020074
  0
POLYLINE
  8
LAYER_3
 40
0.1058
 41
0.1058
 66
1
 10
0
 20
0
 30
0
  0
VERTEX
  8
LAYER_3
 10
59.126
 20
-113.4077
  0
VERTEX
  8
LAYER_3
 10
79.7332
 20
-113.4077
  0
SEQEND
  0
ENDBLK
  0
BLOCK
  8
LAYER_3
  2
AIGNBL03020075
 70
64
 10
0
 20
0
 30
0
  3
AIGNBL03020075
  0
POLYLINE
  8
LAYER_3
 40
0.1058
 41
0.1058
 66
1
 10
0
 20
0
 30
0
  0
VERTEX
  8
LAYER_3
 10
53.6091
 20
-109.0498
  0
VERTEX
  8
LAYER_3
 10
85.25
 20
-109.0498
  0
SEQEND
  0
ENDBLK
  0
BLOCK
  8
LAYER_3
  2
AIGNBL03020076
 70
64
 10
0
 20
0
 30
0
  3
AIGNBL03020076
  0
POLYLINE
  8
LAYER_3
 40
0.1058
 41
0.1058
 66
1
 10
0
 20
0
 30
0
  0
VERTEX
  8
LAYER_3
 10
66.9145
 20
-115.6793
  0
VERTEX
  8
LAYER_3
 10
71.9446
 20
-115.6793
  0
SEQEND
  0
ENDBLK
  0
BLOCK
  8
LAYER_3
  2
AIGNBL03020077
 70
64
 10
0
 20
0
 30
0
  3
AIGNBL03020077
  0
POLYLINE
  8
LAYER_3
 40
0.1058
 41
0.1058
 66
1
 10
0
 20
0
 30
0
  0
VERTEX
  8
LAYER_3
 10
53.6091
 20
-108.3776
  0
VERTEX
  8
LAYER_3
 10
85.25
 20
-108.3776
  0
SEQEND
  0
ENDBLK
  0
BLOCK
  8
LAYER_3
  2
AIGNBL03020078
 70
64
 10
0
 20
0
 30
0
  3
AIGNBL03020078
  0
POLYLINE
  8
LAYER_3
 40
0.1058
 41
0.1058
 66
1
 10
0
 20
0
 30
0
  0
VERTEX
  8
LAYER_3
 10
72.6864
 20
-116.4211
  0
VERTEX
  8
LAYER_3
 10
72.6864
 20
-121.1962
  0
SEQEND
  0
ENDBLK
  0
BLOCK
  8
LAYER_3
  2
AIGNBL03020079
 70
64
 10
0
 20
0
 30
0
  3
AIGNBL03020079
  0
POLYLINE
  8
LAYER_3
 40
0.1058
 41
0.1058
 66
1
 10
0
 20
0
 30
0
  0
VERTEX
  8
LAYER_3
 10
66.1728
 20
-116.4211
  0
VERTEX
  8
LAYER_3
 10
66.1728
 20
-121.1962
  0
SEQEND
  0
ENDBLK
  0
BLOCK
  8
LAYER_3
  2
AIGNBL0302007A
 70
64
 10
0
 20
0
 30
0
  3
AIGNBL0302007A
  0
POLYLINE
  8
LAYER_3
 40
0.1058
 41
0.1058
 66
1
 10
0
 20
0
 30
0
  0
VERTEX
  8
LAYER_3
 10
59.381
 20
-113.4077
  0
VERTEX
  8
LAYER_3
 10
59.381
 20
-124.2096
  0
SEQEND
  0
ENDBLK
  0
BLOCK
  8
LAYER_3
  2
AIGNBL0302007B
 70
64
 10
0
 20
0
 30
0
  3
AIGNBL0302007B
  0
POLYLINE
  8
LAYER_3
 40
0.1058
 41
0.1058
 66
1
 10
0
 20
0
 30
0
  0
VERTEX
  8
LAYER_3
 10
79.4782
 20
-113.4077
  0
VERTEX
  8
LAYER_3
 10
79.4782
 20
-124.2096
  0
SEQEND
  0
ENDBLK
  0
BLOCK
  8
LAYER_3
  2
AIGNBL0302007C
 70
64
 10
0
 20
0
 30
0
  3
AIGNBL0302007C
  0
POLYLINE
  8
LAYER_3
 40
0.1058
 41
0.1058
 66
1
 10
0
 20
0
 30
0
  0
VERTEX
  8
LAYER_3
 10
71.9446
 20
-121.8948
  0
VERTEX
  8
LAYER_3
 10
66.9145
 20
-121.8948
  0
SEQEND
  0
ENDBLK
  0
BLOCK
  8
LAYER_3
  2
AIGNBL0302007D
 70
64
 10
0
 20
0
 30
0
  3
AIGNBL0302007D
  0
POLYLINE
  8
LAYER_3
 40
0.1058
 41
0.1058
 66
1
 10
0
 20
0
 30
0
  0
VERTEX
  8
LAYER_3
 10
212.2074
 20
-140.7375
 42
0.09014672174
  0
VERTEX
  8
LAYER_3
 10
212.052
 20
-140.0801
 42
0.06426372976
  0
VERTEX
  8
LAYER_3
 10
211.8476
 20
-139.7853
 42
0.01316883696
  0
VERTEX
  8
LAYER_3
 10
211.6274
 20
-139.5554
  0
SEQEND
  0
ENDBLK
  0
BLOCK
  8
LAYER_3
  2
AIGNBL0302007E
 70
64
 10
0
 20
0
 30
0
  3
AIGNBL0302007E
  0
POLYLINE
  8
LAYER_3
  6
AIGENLINE001
 40
0.1058
 41
0.1058
 66
1
 10
0
 20
0
 30
0
 70
128
  0
VERTEX
  8
LAYER_3
 10
62.1545
 20
-139.5345
  0
VERTEX
  8
LAYER_3
 10
62.0446
 20
-139.6253
  0
VERTEX
  8
LAYER_3
 10
61.9445
 20
-139.7251
  0
VERTEX
  8
LAYER_3
 10
61.8547
 20
-139.833
  0
VERTEX
  8
LAYER_3
 10
61.7755
 20
-139.9483
  0
VERTEX
  8
LAYER_3
 10
61.7074
 20
-140.0702
  0
VERTEX
  8
LAYER_3
 10
61.6508
 20
-140.1977
  0
VERTEX
  8
LAYER_3
 10
61.6061
 20
-140.3303
  0
VERTEX
  8
LAYER_3
 10
61.5736
 20
-140.4669
  0
VERTEX
  8
LAYER_3
 10
61.5538
 20
-140.6068
  0
VERTEX
  8
LAYER_3
 10
61.5472
 20
-140.7491
  0
VERTEX
  8
LAYER_3
 10
61.5472
 20
-140.755
  0
VERTEX
  8
LAYER_3
 10
61.5472
 20
-140.7608
  0
SEQEND
  0
ENDBLK
  0
BLOCK
  8
LAYER_3
  2
AIGNBL0302007F
 70
64
 10
0
 20
0
 30
0
  3
AIGNBL0302007F
  0
POLYLINE
  8
LAYER_3
 40
0.1058
 41
0.1058
 66
1
 10
0
 20
0
 30
0
  0
VERTEX
  8
LAYER_3
 10
205.1064
 20
-141.9661
 42
0.05612430883
  0
VERTEX
  8
LAYER_3
 10
205.3467
 20
-141.5073
 42
0.04487803892
  0
VERTEX
  8
LAYER_3
 10
205.4705
 20
-141.0004
  0
SEQEND
  0
ENDBLK
  0
BLOCK
  8
LAYER_3
  2
AIGNBL03020080
 70
64
 10
0
 20
0
 30
0
  3
AIGNBL03020080
  0
POLYLINE
  8
LAYER_3
 40
0.1058
 41
0.1058
 66
1
 10
0
 20
0
 30
0
  0
VERTEX
  8
LAYER_3
 10
205.1221
 20
-139.5554
  0
VERTEX
  8
LAYER_3
 10
204.9429
 20
-139.324
 42
0.01745737482
  0
VERTEX
  8
LAYER_3
 10
204.7321
 20
-139.1176
  0
SEQEND
  0
ENDBLK
  0
BLOCK
  8
LAYER_3
  2
AIGNBL03020081
 70
64
 10
0
 20
0
 30
0
  3
AIGNBL03020081
  0
POLYLINE
  8
LAYER_3
 40
0.1058
 41
0.1058
 66
1
 10
0
 20
0
 30
0
  0
VERTEX
  8
LAYER_3
 10
211.6274
 20
-139.5554
  0
VERTEX
  8
LAYER_3
 10
211.6139
 20
-139.5449
  0
VERTEX
  8
LAYER_3
 10
211.6002
 20
-139.5345
  0
SEQEND
  0
ENDBLK
  0
BLOCK
  8
LAYER_3
  2
AIGNBL03020082
 70
64
 10
0
 20
0
 30
0
  3
AIGNBL03020082
  0
POLYLINE
  8
LAYER_3
 40
0.1058
 41
0.1058
 66
1
 10
0
 20
0
 30
0
  0
VERTEX
  8
LAYER_3
 10
204.7321
 20
-142.3809
  0
VERTEX
  8
LAYER_3
 10
204.9336
 20
-142.1849
  0
VERTEX
  8
LAYER_3
 10
205.1064
 20
-141.9661
  0
SEQEND
  0
ENDBLK
  0
BLOCK
  8
LAYER_3
  2
AIGNBL03020083
 70
64
 10
0
 20
0
 30
0
  3
AIGNBL03020083
  0
POLYLINE
  8
LAYER_3
 40
0.1058
 41
0.1058
 66
1
 10
0
 20
0
 30
0
  0
VERTEX
  8
LAYER_3
 10
205.4705
 20
-140.4983
 42
0.05532502587
  0
VERTEX
  8
LAYER_3
 10
205.3516
 20
-140.0042
 42
0.04287279553
  0
VERTEX
  8
LAYER_3
 10
205.1221
 20
-139.5554
  0
SEQEND
  0
ENDBLK
  0
BLOCK
  8
LAYER_3
  2
AIGNBL03020084
 70
64
 10
0
 20
0
 30
0
  3
AIGNBL03020084
  0
POLYLINE
  8
LAYER_3
 40
0.1058
 41
0.1058
 66
1
 10
0
 20
0
 30
0
  0
VERTEX
  8
LAYER_3
 10
211.6002
 20
-141.9638
  0
VERTEX
  8
LAYER_3
 10
211.71
 20
-141.873
  0
VERTEX
  8
LAYER_3
 10
211.8101
 20
-141.7733
  0
VERTEX
  8
LAYER_3
 10
211.8999
 20
-141.6653
  0
VERTEX
  8
LAYER_3
 10
211.979
 20
-141.55
  0
VERTEX
  8
LAYER_3
 10
212.0471
 20
-141.4282
  0
VERTEX
  8
LAYER_3
 10
212.1037
 20
-141.3006
  0
VERTEX
  8
LAYER_3
 10
212.1485
 20
-141.1681
  0
VERTEX
  8
LAYER_3
 10
212.1809
 20
-141.0315
  0
VERTEX
  8
LAYER_3
 10
212.2007
 20
-140.8916
  0
VERTEX
  8
LAYER_3
 10
212.2074
 20
-140.7491
  0
VERTEX
  8
LAYER_3
 10
212.2074
 20
-140.7433
  0
VERTEX
  8
LAYER_3
 10
212.2074
 20
-140.7375
  0
SEQEND
  0
ENDBLK
  0
BLOCK
  8
LAYER_3
  2
AIGNBL03020085
 70
64
 10
0
 20
0
 30
0
  3
AIGNBL03020085
  0
POLYLINE
  8
LAYER_3
  6
AIGENLINE001
 40
0.1058
 41
0.1058
 66
1
 10
0
 20
0
 30
0
 70
128
  0
VERTEX
  8
LAYER_3
 10
61.5472
 20
-140.7608
 42
0.09183390933
  0
VERTEX
  8
LAYER_3
 10
61.71
 20
-141.4333
 42
0.06474510512
  0
VERTEX
  8
LAYER_3
 10
61.9167
 20
-141.7241
 42
0.01505588957
  0
VERTEX
  8
LAYER_3
 10
62.1545
 20
-141.9638
  0
SEQEND
  0
ENDBLK
  0
BLOCK
  8
LAYER_3
  2
AIGNBL03020086
 70
64
 10
0
 20
0
 30
0
  3
AIGNBL03020086
  0
POLYLINE
  8
LAYER_3
 40
0.1058
 41
0.1058
 66
1
 10
0
 20
0
 30
0
  0
VERTEX
  8
LAYER_3
 10
195.0309
 20
-142.7544
  0
VERTEX
  8
LAYER_3
 10
195.0309
 20
-138.7443
  0
SEQEND
  0
ENDBLK
  0
BLOCK
  8
LAYER_3
  2
AIGNBL03020087
 70
64
 10
0
 20
0
 30
0
  3
AIGNBL03020087
  0
POLYLINE
  8
LAYER_3
 40
0.1058
 41
0.1058
 66
1
 10
0
 20
0
 30
0
  0
VERTEX
  8
LAYER_3
 10
202.0776
 20
-142.7544
  0
VERTEX
  8
LAYER_3
 10
202.0776
 20
-138.7443
  0
SEQEND
  0
ENDBLK
  0
BLOCK
  8
LAYER_3
  2
AIGNBL03020088
 70
64
 10
0
 20
0
 30
0
  3
AIGNBL03020088
  0
POLYLINE
  8
LAYER_3
 40
0.1058
 41
0.1058
 66
1
 10
0
 20
0
 30
0
  0
VERTEX
  8
LAYER_3
 10
195.1699
 20
-142.7544
  0
VERTEX
  8
LAYER_3
 10
198.4383
 20
-142.7544
  0
SEQEND
  0
ENDBLK
  0
BLOCK
  8
LAYER_3
  2
AIGNBL03020089
 70
64
 10
0
 20
0
 30
0
  3
AIGNBL03020089
  0
POLYLINE
  8
LAYER_3
 40
0.1058
 41
0.1058
 66
1
 10
0
 20
0
 30
0
  0
VERTEX
  8
LAYER_3
 10
205.3692
 20
-141.0159
  0
VERTEX
  8
LAYER_3
 10
205.3692
 20
-140.506
  0
SEQEND
  0
ENDBLK
  0
BLOCK
  8
LAYER_3
  2
AIGNBL0302008A
 70
64
 10
0
 20
0
 30
0
  3
AIGNBL0302008A
  0
POLYLINE
  8
LAYER_3
 40
0.1058
 41
0.1058
 66
1
 10
0
 20
0
 30
0
  0
VERTEX
  8
LAYER_3
 10
202.5645
 20
-139.8337
  0
VERTEX
  8
LAYER_3
 10
204.4652
 20
-139.8337
  0
SEQEND
  0
ENDBLK
  0
BLOCK
  8
LAYER_3
  2
AIGNBL0302008B
 70
64
 10
0
 20
0
 30
0
  3
AIGNBL0302008B
  0
POLYLINE
  8
LAYER_3
 40
0.1058
 41
0.1058
 66
1
 10
0
 20
0
 30
0
  0
VERTEX
  8
LAYER_3
 10
202.5645
 20
-141.688
  0
VERTEX
  8
LAYER_3
 10
204.4652
 20
-141.688
  0
SEQEND
  0
ENDBLK
  0
BLOCK
  8
LAYER_3
  2
AIGNBL0302008C
 70
64
 10
0
 20
0
 30
0
  3
AIGNBL0302008C
  0
POLYLINE
  8
LAYER_3
 40
0.1058
 41
0.1058
 66
1
 10
0
 20
0
 30
0
  0
VERTEX
  8
LAYER_3
 10
194.5441
 20
-139.0455
  0
VERTEX
  8
LAYER_3
 10
194.5441
 20
-139.1151
  0
SEQEND
  0
ENDBLK
  0
BLOCK
  8
LAYER_3
  2
AIGNBL0302008D
 70
64
 10
0
 20
0
 30
0
  3
AIGNBL0302008D
  0
POLYLINE
  8
LAYER_3
 40
0.1058
 41
0.1058
 66
1
 10
0
 20
0
 30
0
  0
VERTEX
  8
LAYER_3
 10
204.7203
 20
-139.1151
  0
VERTEX
  8
LAYER_3
 10
204.4652
 20
-139.1151
  0
SEQEND
  0
ENDBLK
  0
BLOCK
  8
LAYER_3
  2
AIGNBL0302008E
 70
64
 10
0
 20
0
 30
0
  3
AIGNBL0302008E
  0
POLYLINE
  8
LAYER_3
 40
0.1058
 41
0.1058
 66
1
 10
0
 20
0
 30
0
  0
VERTEX
  8
LAYER_3
 10
204.7203
 20
-142.3835
  0
VERTEX
  8
LAYER_3
 10
204.4652
 20
-142.3835
  0
SEQEND
  0
ENDBLK
  0
BLOCK
  8
LAYER_3
  2
AIGNBL0302008F
 70
64
 10
0
 20
0
 30
0
  3
AIGNBL0302008F
  0
POLYLINE
  8
LAYER_3
 40
0.1058
 41
0.1058
 66
1
 10
0
 20
0
 30
0
  0
VERTEX
  8
LAYER_3
 10
205.462
 20
-140.506
  0
VERTEX
  8
LAYER_3
 10
205.3692
 20
-140.506
  0
SEQEND
  0
ENDBLK
  0
BLOCK
  8
LAYER_3
  2
AIGNBL03020090
 70
64
 10
0
 20
0
 30
0
  3
AIGNBL03020090
  0
POLYLINE
  8
LAYER_3
 40
0.1058
 41
0.1058
 66
1
 10
0
 20
0
 30
0
  0
VERTEX
  8
LAYER_3
 10
205.462
 20
-141.0159
  0
VERTEX
  8
LAYER_3
 10
205.3692
 20
-141.0159
  0
SEQEND
  0
ENDBLK
  0
BLOCK
  8
LAYER_3
  2
AIGNBL03020091
 70
64
 10
0
 20
0
 30
0
  3
AIGNBL03020091
  0
POLYLINE
  8
LAYER_3
 40
0.1058
 41
0.1058
 66
1
 10
0
 20
0
 30
0
  0
VERTEX
  8
LAYER_3
 10
202.0776
 20
-142.7544
  0
VERTEX
  8
LAYER_3
 10
202.5645
 20
-142.4762
  0
SEQEND
  0
ENDBLK
  0
BLOCK
  8
LAYER_3
  2
AIGNBL03020092
 70
64
 10
0
 20
0
 30
0
  3
AIGNBL03020092
  0
POLYLINE
  8
LAYER_3
 40
0.1058
 41
0.1058
 66
1
 10
0
 20
0
 30
0
  0
VERTEX
  8
LAYER_3
 10
202.0776
 20
-138.7443
  0
VERTEX
  8
LAYER_3
 10
202.5645
 20
-139.0455
  0
SEQEND
  0
ENDBLK
  0
BLOCK
  8
LAYER_3
  2
AIGNBL03020093
 70
64
 10
0
 20
0
 30
0
  3
AIGNBL03020093
  0
POLYLINE
  8
LAYER_3
 40
0.1058
 41
0.1058
 66
1
 10
0
 20
0
 30
0
  0
VERTEX
  8
LAYER_3
 10
204.7203
 20
-142.3835
  0
VERTEX
  8
LAYER_3
 10
204.7203
 20
-139.1151
  0
SEQEND
  0
ENDBLK
  0
BLOCK
  8
LAYER_3
  2
AIGNBL03020094
 70
64
 10
0
 20
0
 30
0
  3
AIGNBL03020094
  0
POLYLINE
  8
LAYER_3
 40
0.1058
 41
0.1058
 66
1
 10
0
 20
0
 30
0
  0
VERTEX
  8
LAYER_3
 10
204.4652
 20
-142.3835
  0
VERTEX
  8
LAYER_3
 10
204.4652
 20
-141.9661
  0
VERTEX
  8
LAYER_3
 10
204.4652
 20
-139.5554
  0
VERTEX
  8
LAYER_3
 10
204.4652
 20
-139.1151
  0
SEQEND
  0
ENDBLK
  0
BLOCK
  8
LAYER_3
  2
AIGNBL03020095
 70
64
 10
0
 20
0
 30
0
  3
AIGNBL03020095
  0
POLYLINE
  8
LAYER_3
 40
0.1058
 41
0.1058
 66
1
 10
0
 20
0
 30
0
  0
VERTEX
  8
LAYER_3
 10
202.5645
 20
-142.4762
  0
VERTEX
  8
LAYER_3
 10
202.5645
 20
-141.9661
  0
VERTEX
  8
LAYER_3
 10
202.5645
 20
-139.5554
  0
VERTEX
  8
LAYER_3
 10
202.5645
 20
-139.0455
  0
SEQEND
  0
ENDBLK
  0
BLOCK
  8
LAYER_3
  2
AIGNBL03020096
 70
64
 10
0
 20
0
 30
0
  3
AIGNBL03020096
  0
POLYLINE
  8
LAYER_3
 40
0.1058
 41
0.1058
 66
1
 10
0
 20
0
 30
0
  0
VERTEX
  8
LAYER_3
 10
195.0309
 20
-142.7544
  0
VERTEX
  8
LAYER_3
 10
194.5441
 20
-142.4762
  0
VERTEX
  8
LAYER_3
 10
194.5441
 20
-141.9661
  0
VERTEX
  8
LAYER_3
 10
194.5441
 20
-139.5554
  0
VERTEX
  8
LAYER_3
 10
194.5441
 20
-139.0455
  0
VERTEX
  8
LAYER_3
 10
195.0309
 20
-138.7443
  0
SEQEND
  0
ENDBLK
  0
BLOCK
  8
LAYER_3
  2
AIGNBL03020097
 70
64
 10
0
 20
0
 30
0
  3
AIGNBL03020097
  0
POLYLINE
  8
LAYER_3
 40
0.1058
 41
0.1058
 66
1
 10
0
 20
0
 30
0
  0
VERTEX
  8
LAYER_3
 10
202.0776
 20
-138.7443
  0
VERTEX
  8
LAYER_3
 10
195.0077
 20
-138.7443
  0
SEQEND
  0
ENDBLK
  0
BLOCK
  8
LAYER_3
  2
AIGNBL03020098
 70
64
 10
0
 20
0
 30
0
  3
AIGNBL03020098
  0
POLYLINE
  8
LAYER_3
 40
0.1058
 41
0.1058
 66
1
 10
0
 20
0
 30
0
  0
VERTEX
  8
LAYER_3
 10
202.0776
 20
-142.7544
  0
VERTEX
  8
LAYER_3
 10
195.0309
 20
-142.7544
  0
SEQEND
  0
ENDBLK
  0
BLOCK
  8
LAYER_3
  2
AIGNBL03020099
 70
64
 10
0
 20
0
 30
0
  3
AIGNBL03020099
  0
ENDBLK
  0
BLOCK
  8
LAYER_3
  2
AIGNBL0302009A
 70
64
 10
0
 20
0
 30
0
  3
AIGNBL0302009A
  0
POLYLINE
  8
LAYER_3
  6
AIGENLINE001
 40
0.1058
 41
0.1058
 66
1
 10
0
 20
0
 30
0
 70
128
  0
VERTEX
  8
LAYER_3
 10
62.1499
 20
-141.9661
  0
VERTEX
  8
LAYER_3
 10
72.5809
 20
-141.9661
  0
SEQEND
  0
ENDBLK
  0
BLOCK
  8
LAYER_3
  2
AIGNBL0302009B
 70
64
 10
0
 20
0
 30
0
  3
AIGNBL0302009B
  0
POLYLINE
  8
LAYER_3
 40
0.1058
 41
0.1058
 66
1
 10
0
 20
0
 30
0
  0
VERTEX
  8
LAYER_3
 10
91.2886
 20
-146.2076
 42
0.153919688
  0
VERTEX
  8
LAYER_3
 10
91.6409
 20
-146.0616
 42
0.1117308035
  0
VERTEX
  8
LAYER_3
 10
91.7403
 20
-145.8846
 42
0.01676208377
  0
VERTEX
  8
LAYER_3
 10
91.7868
 20
-145.7092
  0
SEQEND
  0
ENDBLK
  0
BLOCK
  8
LAYER_3
  2
AIGNBL0302009C
 70
64
 10
0
 20
0
 30
0
  3
AIGNBL0302009C
  0
POLYLINE
  8
LAYER_3
 40
0.1058
 41
0.1058
 66
1
 10
0
 20
0
 30
0
  0
VERTEX
  8
LAYER_3
 10
91.7868
 20
-135.6722
 42
0.1542968135
  0
VERTEX
  8
LAYER_3
 10
91.6409
 20
-135.3198
 42
0.1117952393
  0
VERTEX
  8
LAYER_3
 10
91.4639
 20
-135.2204
 42
0.01664048754
  0
VERTEX
  8
LAYER_3
 10
91.2886
 20
-135.1738
  0
SEQEND
  0
ENDBLK
  0
BLOCK
  8
LAYER_3
  2
AIGNBL0302009D
 70
64
 10
0
 20
0
 30
0
  3
AIGNBL0302009D
  0
POLYLINE
  8
LAYER_3
 40
0.1058
 41
0.1058
 66
1
 10
0
 20
0
 30
0
  0
VERTEX
  8
LAYER_3
 10
80.3822
 20
-135.0927
 42
0.07541355925
  0
VERTEX
  8
LAYER_3
 10
80.5555
 20
-135.6363
 42
0.07645618743
  0
VERTEX
  8
LAYER_3
 10
80.6776
 20
-135.8057
 42
0.08744504786
  0
VERTEX
  8
LAYER_3
 10
80.8998
 20
-135.9538
 42
0.05453696077
  0
VERTEX
  8
LAYER_3
 10
81.3906
 20
-136.1011
  0
SEQEND
  0
ENDBLK
  0
BLOCK
  8
LAYER_3
  2
AIGNBL0302009E
 70
64
 10
0
 20
0
 30
0
  3
AIGNBL0302009E
  0
POLYLINE
  8
LAYER_3
 40
0.1058
 41
0.1058
 66
1
 10
0
 20
0
 30
0
  0
VERTEX
  8
LAYER_3
 10
81.175
 20
-145.3035
 42
0.1246672685
  0
VERTEX
  8
LAYER_3
 10
80.6086
 20
-145.6521
 42
0.08429304344
  0
VERTEX
  8
LAYER_3
 10
80.4775
 20
-145.8982
 42
0.0363901001
  0
VERTEX
  8
LAYER_3
 10
80.3822
 20
-146.2887
  0
SEQEND
  0
ENDBLK
  0
BLOCK
  8
LAYER_3
  2
AIGNBL0302009F
 70
64
 10
0
 20
0
 30
0
  3
AIGNBL0302009F
  0
POLYLINE
  8
LAYER_3
 40
0.1058
 41
0.1058
 66
1
 10
0
 20
0
 30
0
  0
VERTEX
  8
LAYER_3
 10
53.5438
 20
-125.3098
 42
0.104188047
  0
VERTEX
  8
LAYER_3
 10
53.4208
 20
-125.4779
 42
0.06941719884
  0
VERTEX
  8
LAYER_3
 10
53.3773
 20
-125.6816
  0
SEQEND
  0
ENDBLK
  0
BLOCK
  8
LAYER_3
  2
AIGNBL030200A0
 70
64
 10
0
 20
0
 30
0
  3
AIGNBL030200A0
  0
POLYLINE
  8
LAYER_3
 40
0.1058
 41
0.1058
 66
1
 10
0
 20
0
 30
0
  0
VERTEX
  8
LAYER_3
 10
85.5051
 20
-125.6816
 42
0.1039873269
  0
VERTEX
  8
LAYER_3
 10
85.4616
 20
-125.4779
 42
0.06996845209
  0
VERTEX
  8
LAYER_3
 10
85.3385
 20
-125.3098
  0
SEQEND
  0
ENDBLK
  0
BLOCK
  8
LAYER_3
  2
AIGNBL030200A1
 70
64
 10
0
 20
0
 30
0
  3
AIGNBL030200A1
  0
POLYLINE
  8
LAYER_3
 40
0.1058
 41
0.1058
 66
1
 10
0
 20
0
 30
0
  0
VERTEX
  8
LAYER_3
 10
54.9652
 20
-124.2096
  0
VERTEX
  8
LAYER_3
 10
54.7876
 20
-124.2423
 42
0.05571432601
  0
VERTEX
  8
LAYER_3
 10
54.6333
 20
-124.3362
  0
SEQEND
  0
ENDBLK
  0
BLOCK
  8
LAYER_3
  2
AIGNBL030200A2
 70
64
 10
0
 20
0
 30
0
  3
AIGNBL030200A2
  0
POLYLINE
  8
LAYER_3
 40
0.1058
 41
0.1058
 66
1
 10
0
 20
0
 30
0
  0
VERTEX
  8
LAYER_3
 10
84.2491
 20
-124.3362
  0
VERTEX
  8
LAYER_3
 10
84.0949
 20
-124.2423
 42
0.05576332542
  0
VERTEX
  8
LAYER_3
 10
83.9173
 20
-124.2096
  0
SEQEND
  0
ENDBLK
  0
BLOCK
  8
LAYER_3
  2
AIGNBL030200A3
 70
64
 10
0
 20
0
 30
0
  3
AIGNBL030200A3
  0
POLYLINE
  8
LAYER_3
 40
0.1058
 41
0.1058
 66
1
 10
0
 20
0
 30
0
  0
VERTEX
  8
LAYER_3
 10
85.4587
 20
-135.1738
  0
VERTEX
  8
LAYER_3
 10
85.4587
 20
-136.1011
  0
VERTEX
  8
LAYER_3
 10
85.4587
 20
-136.6109
  0
VERTEX
  8
LAYER_3
 10
85.4587
 20
-144.7936
  0
VERTEX
  8
LAYER_3
 10
85.4587
 20
-145.3035
  0
VERTEX
  8
LAYER_3
 10
85.4587
 20
-146.2308
  0
SEQEND
  0
ENDBLK
  0
BLOCK
  8
LAYER_3
  2
AIGNBL030200A4
 70
64
 10
0
 20
0
 30
0
  3
AIGNBL030200A4
  0
POLYLINE
  8
LAYER_3
 40
0.1058
 41
0.1058
 66
1
 10
0
 20
0
 30
0
 70
1
  0
VERTEX
  8
LAYER_3
 10
58.5234
 20
-146.8566
  0
VERTEX
  8
LAYER_3
 10
59.1956
 20
-146.8566
  0
VERTEX
  8
LAYER_3
 10
79.6868
 20
-146.8566
  0
VERTEX
  8
LAYER_3
 10
79.7102
 20
-146.8566
  0
VERTEX
  8
LAYER_3
 10
80.3822
 20
-146.8566
  0
SEQEND
  0
ENDBLK
  0
BLOCK
  8
LAYER_3
  2
AIGNBL030200A5
 70
64
 10
0
 20
0
 30
0
  3
AIGNBL030200A5
  0
POLYLINE
  8
LAYER_3
 40
0.1058
 41
0.1058
 66
1
 10
0
 20
0
 30
0
  0
VERTEX
  8
LAYER_3
 10
54.3509
 20
-112.0632
  0
VERTEX
  8
LAYER_3
 10
54.3509
 20
-109.0498
  0
VERTEX
  8
LAYER_3
 10
84.5083
 20
-109.0498
  0
VERTEX
  8
LAYER_3
 10
84.5083
 20
-112.0632
  0
SEQEND
  0
ENDBLK
  0
BLOCK
  8
LAYER_3
  2
AIGNBL030200A6
 70
64
 10
0
 20
0
 30
0
  3
AIGNBL030200A6
  0
POLYLINE
  8
LAYER_3
 40
0.1058
 41
0.1058
 66
1
 10
0
 20
0
 30
0
  0
VERTEX
  8
LAYER_3
 10
54.3509
 20
-112.0632
  0
VERTEX
  8
LAYER_3
 10
84.5083
 20
-112.0632
  0
SEQEND
  0
ENDBLK
  0
BLOCK
  8
LAYER_3
  2
AIGNBL030200A7
 70
64
 10
0
 20
0
 30
0
  3
AIGNBL030200A7
  0
POLYLINE
  8
LAYER_3
 40
0.1058
 41
0.1058
 66
1
 10
0
 20
0
 30
0
  0
VERTEX
  8
LAYER_3
 10
84.2301
 20
-124.3255
  0
VERTEX
  8
LAYER_3
 10
85.3429
 20
-125.3223
  0
SEQEND
  0
ENDBLK
  0
BLOCK
  8
LAYER_3
  2
AIGNBL030200A8
 70
64
 10
0
 20
0
 30
0
  3
AIGNBL030200A8
  0
POLYLINE
  8
LAYER_3
 40
0.1058
 41
0.1058
 66
1
 10
0
 20
0
 30
0
  0
VERTEX
  8
LAYER_3
 10
54.629
 20
-124.3255
  0
VERTEX
  8
LAYER_3
 10
53.5164
 20
-125.3223
  0
SEQEND
  0
ENDBLK
  0
BLOCK
  8
LAYER_3
  2
AIGNBL030200A9
 70
64
 10
0
 20
0
 30
0
  3
AIGNBL030200A9
  0
POLYLINE
  8
LAYER_3
 40
0.1058
 41
0.1058
 66
1
 10
0
 20
0
 30
0
  0
VERTEX
  8
LAYER_3
 10
85.5051
 20
-125.6932
  0
VERTEX
  8
LAYER_3
 10
85.5051
 20
-126.968
  0
SEQEND
  0
ENDBLK
  0
BLOCK
  8
LAYER_3
  2
AIGNBL030200AA
 70
64
 10
0
 20
0
 30
0
  3
AIGNBL030200AA
  0
POLYLINE
  8
LAYER_3
 40
0.1058
 41
0.1058
 66
1
 10
0
 20
0
 30
0
  0
VERTEX
  8
LAYER_3
 10
53.3541
 20
-125.6932
  0
VERTEX
  8
LAYER_3
 10
53.3541
 20
-126.968
  0
SEQEND
  0
ENDBLK
  0
BLOCK
  8
LAYER_3
  2
AIGNBL030200AB
 70
64
 10
0
 20
0
 30
0
  3
AIGNBL030200AB
  0
POLYLINE
  8
LAYER_3
 40
0.1058
 41
0.1058
 66
1
 10
0
 20
0
 30
0
  0
VERTEX
  8
LAYER_3
 10
54.9536
 20
-112.0632
  0
VERTEX
  8
LAYER_3
 10
83.9056
 20
-112.0632
  0
SEQEND
  0
ENDBLK
  0
BLOCK
  8
LAYER_3
  2
AIGNBL030200AC
 70
64
 10
0
 20
0
 30
0
  3
AIGNBL030200AC
  0
POLYLINE
  8
LAYER_3
 40
0.1058
 41
0.1058
 66
1
 10
0
 20
0
 30
0
  0
VERTEX
  8
LAYER_3
 10
53.3541
 20
-126.968
  0
VERTEX
  8
LAYER_3
 10
85.5051
 20
-126.968
  0
SEQEND
  0
ENDBLK
  0
BLOCK
  8
LAYER_3
  2
AIGNBL030200AD
 70
64
 10
0
 20
0
 30
0
  3
AIGNBL030200AD
  0
POLYLINE
  8
LAYER_3
 40
0.1058
 41
0.1058
 66
1
 10
0
 20
0
 30
0
  0
VERTEX
  8
LAYER_3
 10
54.5131
 20
-126.968
  0
VERTEX
  8
LAYER_3
 10
54.5131
 20
-127.9648
  0
SEQEND
  0
ENDBLK
  0
BLOCK
  8
LAYER_3
  2
AIGNBL030200AE
 70
64
 10
0
 20
0
 30
0
  3
AIGNBL030200AE
  0
POLYLINE
  8
LAYER_3
 40
0.1058
 41
0.1058
 66
1
 10
0
 20
0
 30
0
  0
VERTEX
  8
LAYER_3
 10
84.3925
 20
-126.968
  0
VERTEX
  8
LAYER_3
 10
84.3925
 20
-127.9648
  0
SEQEND
  0
ENDBLK
  0
BLOCK
  8
LAYER_3
  2
AIGNBL030200AF
 70
64
 10
0
 20
0
 30
0
  3
AIGNBL030200AF
  0
POLYLINE
  8
LAYER_3
 40
0.1058
 41
0.1058
 66
1
 10
0
 20
0
 30
0
  0
VERTEX
  8
LAYER_3
 10
58.5234
 20
-127.9648
  0
VERTEX
  8
LAYER_3
 10
58.5234
 20
-146.8566
  0
SEQEND
  0
ENDBLK
  0
BLOCK
  8
LAYER_3
  2
AIGNBL030200B0
 70
64
 10
0
 20
0
 30
0
  3
AIGNBL030200B0
  0
POLYLINE
  8
LAYER_3
 40
0.1058
 41
0.1058
 66
1
 10
0
 20
0
 30
0
  0
VERTEX
  8
LAYER_3
 10
80.3822
 20
-146.3003
  0
VERTEX
  8
LAYER_3
 10
80.3822
 20
-146.8566
  0
SEQEND
  0
ENDBLK
  0
BLOCK
  8
LAYER_3
  2
AIGNBL030200B1
 70
64
 10
0
 20
0
 30
0
  3
AIGNBL030200B1
  0
POLYLINE
  8
LAYER_3
 40
0.1058
 41
0.1058
 66
1
 10
0
 20
0
 30
0
  0
VERTEX
  8
LAYER_3
 10
89.8629
 20
-136.1011
  0
VERTEX
  8
LAYER_3
 10
89.8629
 20
-146.3698
  0
SEQEND
  0
ENDBLK
  0
BLOCK
  8
LAYER_3
  2
AIGNBL030200B2
 70
64
 10
0
 20
0
 30
0
  3
AIGNBL030200B2
  0
POLYLINE
  8
LAYER_3
 40
0.1058
 41
0.1058
 66
1
 10
0
 20
0
 30
0
  0
VERTEX
  8
LAYER_3
 10
87.3594
 20
-135.0348
  0
VERTEX
  8
LAYER_3
 10
87.3594
 20
-146.3698
  0
SEQEND
  0
ENDBLK
  0
BLOCK
  8
LAYER_3
  2
AIGNBL030200B3
 70
64
 10
0
 20
0
 30
0
  3
AIGNBL030200B3
  0
POLYLINE
  8
LAYER_3
 40
0.1058
 41
0.1058
 66
1
 10
0
 20
0
 30
0
  0
VERTEX
  8
LAYER_3
 10
89.8629
 20
-135.0348
  0
VERTEX
  8
LAYER_3
 10
89.8629
 20
-140.7139
  0
SEQEND
  0
ENDBLK
  0
BLOCK
  8
LAYER_3
  2
AIGNBL030200B4
 70
64
 10
0
 20
0
 30
0
  3
AIGNBL030200B4
  0
POLYLINE
  8
LAYER_3
 40
0.1058
 41
0.1058
 66
1
 10
0
 20
0
 30
0
  0
VERTEX
  8
LAYER_3
 10
91.7868
 20
-135.6838
  0
VERTEX
  8
LAYER_3
 10
91.7868
 20
-145.7208
  0
SEQEND
  0
ENDBLK
  0
BLOCK
  8
LAYER_3
  2
AIGNBL030200B5
 70
64
 10
0
 20
0
 30
0
  3
AIGNBL030200B5
  0
POLYLINE
  8
LAYER_3
 40
0.1058
 41
0.1058
 66
1
 10
0
 20
0
 30
0
  0
VERTEX
  8
LAYER_3
 10
80.3822
 20
-127.9648
  0
VERTEX
  8
LAYER_3
 10
80.3822
 20
-135.1043
  0
SEQEND
  0
ENDBLK
  0
BLOCK
  8
LAYER_3
  2
AIGNBL030200B6
 70
64
 10
0
 20
0
 30
0
  3
AIGNBL030200B6
  0
POLYLINE
  8
LAYER_3
 40
0.1058
 41
0.1058
 66
1
 10
0
 20
0
 30
0
  0
VERTEX
  8
LAYER_3
 10
54.5131
 20
-127.9648
  0
VERTEX
  8
LAYER_3
 10
84.3925
 20
-127.9648
  0
SEQEND
  0
ENDBLK
  0
BLOCK
  8
LAYER_3
  2
AIGNBL030200B7
 70
64
 10
0
 20
0
 30
0
  3
AIGNBL030200B7
  0
POLYLINE
  8
LAYER_3
 40
0.1058
 41
0.1058
 66
1
 10
0
 20
0
 30
0
  0
VERTEX
  8
LAYER_3
 10
54.5131
 20
-126.968
  0
VERTEX
  8
LAYER_3
 10
84.3925
 20
-126.968
  0
SEQEND
  0
ENDBLK
  0
BLOCK
  8
LAYER_3
  2
AIGNBL030200B8
 70
64
 10
0
 20
0
 30
0
  3
AIGNBL030200B8
  0
POLYLINE
  8
LAYER_3
 40
0.1058
 41
0.1058
 66
1
 10
0
 20
0
 30
0
  0
VERTEX
  8
LAYER_3
 10
81.3789
 20
-136.1011
  0
VERTEX
  8
LAYER_3
 10
84.3461
 20
-136.1011
  0
SEQEND
  0
ENDBLK
  0
BLOCK
  8
LAYER_3
  2
AIGNBL030200B9
 70
64
 10
0
 20
0
 30
0
  3
AIGNBL030200B9
  0
POLYLINE
  8
LAYER_3
 40
0.1058
 41
0.1058
 66
1
 10
0
 20
0
 30
0
  0
VERTEX
  8
LAYER_3
 10
87.3594
 20
-135.0348
  0
VERTEX
  8
LAYER_3
 10
89.8629
 20
-135.0348
  0
SEQEND
  0
ENDBLK
  0
BLOCK
  8
LAYER_3
  2
AIGNBL030200BA
 70
64
 10
0
 20
0
 30
0
  3
AIGNBL030200BA
  0
POLYLINE
  8
LAYER_3
 40
0.1058
 41
0.1058
 66
1
 10
0
 20
0
 30
0
  0
VERTEX
  8
LAYER_3
 10
87.3594
 20
-135.8228
  0
VERTEX
  8
LAYER_3
 10
89.8629
 20
-135.8228
  0
SEQEND
  0
ENDBLK
  0
BLOCK
  8
LAYER_3
  2
AIGNBL030200BB
 70
64
 10
0
 20
0
 30
0
  3
AIGNBL030200BB
  0
POLYLINE
  8
LAYER_3
 40
0.1058
 41
0.1058
 66
1
 10
0
 20
0
 30
0
  0
VERTEX
  8
LAYER_3
 10
87.3594
 20
-136.8428
  0
VERTEX
  8
LAYER_3
 10
89.8629
 20
-136.8428
  0
SEQEND
  0
ENDBLK
  0
BLOCK
  8
LAYER_3
  2
AIGNBL030200BC
 70
64
 10
0
 20
0
 30
0
  3
AIGNBL030200BC
  0
POLYLINE
  8
LAYER_3
 40
0.1058
 41
0.1058
 66
1
 10
0
 20
0
 30
0
  0
VERTEX
  8
LAYER_3
 10
87.3594
 20
-137.8396
  0
VERTEX
  8
LAYER_3
 10
89.8629
 20
-137.8396
  0
SEQEND
  0
ENDBLK
  0
BLOCK
  8
LAYER_3
  2
AIGNBL030200BD
 70
64
 10
0
 20
0
 30
0
  3
AIGNBL030200BD
  0
POLYLINE
  8
LAYER_3
 40
0.1058
 41
0.1058
 66
1
 10
0
 20
0
 30
0
  0
VERTEX
  8
LAYER_3
 10
87.3594
 20
-138.8362
  0
VERTEX
  8
LAYER_3
 10
89.8629
 20
-138.8362
  0
SEQEND
  0
ENDBLK
  0
BLOCK
  8
LAYER_3
  2
AIGNBL030200BE
 70
64
 10
0
 20
0
 30
0
  3
AIGNBL030200BE
  0
POLYLINE
  8
LAYER_3
 40
0.1058
 41
0.1058
 66
1
 10
0
 20
0
 30
0
  0
VERTEX
  8
LAYER_3
 10
87.3594
 20
-139.8562
  0
VERTEX
  8
LAYER_3
 10
89.8629
 20
-139.8562
  0
SEQEND
  0
ENDBLK
  0
BLOCK
  8
LAYER_3
  2
AIGNBL030200BF
 70
64
 10
0
 20
0
 30
0
  3
AIGNBL030200BF
  0
POLYLINE
  8
LAYER_3
 40
0.1058
 41
0.1058
 66
1
 10
0
 20
0
 30
0
  0
VERTEX
  8
LAYER_3
 10
87.3594
 20
-140.8529
  0
VERTEX
  8
LAYER_3
 10
89.8629
 20
-140.8529
  0
SEQEND
  0
ENDBLK
  0
BLOCK
  8
LAYER_3
  2
AIGNBL030200C0
 70
64
 10
0
 20
0
 30
0
  3
AIGNBL030200C0
  0
POLYLINE
  8
LAYER_3
 40
0.1058
 41
0.1058
 66
1
 10
0
 20
0
 30
0
  0
VERTEX
  8
LAYER_3
 10
87.3594
 20
-141.8497
  0
VERTEX
  8
LAYER_3
 10
89.8629
 20
-141.8497
  0
SEQEND
  0
ENDBLK
  0
BLOCK
  8
LAYER_3
  2
AIGNBL030200C1
 70
64
 10
0
 20
0
 30
0
  3
AIGNBL030200C1
  0
POLYLINE
  8
LAYER_3
 40
0.1058
 41
0.1058
 66
1
 10
0
 20
0
 30
0
  0
VERTEX
  8
LAYER_3
 10
87.3594
 20
-142.8696
  0
VERTEX
  8
LAYER_3
 10
89.8629
 20
-142.8696
  0
SEQEND
  0
ENDBLK
  0
BLOCK
  8
LAYER_3
  2
AIGNBL030200C2
 70
64
 10
0
 20
0
 30
0
  3
AIGNBL030200C2
  0
POLYLINE
  8
LAYER_3
 40
0.1058
 41
0.1058
 66
1
 10
0
 20
0
 30
0
  0
VERTEX
  8
LAYER_3
 10
87.3594
 20
-143.8664
  0
VERTEX
  8
LAYER_3
 10
89.8629
 20
-143.8664
  0
SEQEND
  0
ENDBLK
  0
BLOCK
  8
LAYER_3
  2
AIGNBL030200C3
 70
64
 10
0
 20
0
 30
0
  3
AIGNBL030200C3
  0
POLYLINE
  8
LAYER_3
 40
0.1058
 41
0.1058
 66
1
 10
0
 20
0
 30
0
  0
VERTEX
  8
LAYER_3
 10
87.3594
 20
-144.8631
  0
VERTEX
  8
LAYER_3
 10
89.8629
 20
-144.8631
  0
SEQEND
  0
ENDBLK
  0
BLOCK
  8
LAYER_3
  2
AIGNBL030200C4
 70
64
 10
0
 20
0
 30
0
  3
AIGNBL030200C4
  0
POLYLINE
  8
LAYER_3
 40
0.1058
 41
0.1058
 66
1
 10
0
 20
0
 30
0
  0
VERTEX
  8
LAYER_3
 10
87.3594
 20
-145.883
  0
VERTEX
  8
LAYER_3
 10
89.8629
 20
-145.883
  0
SEQEND
  0
ENDBLK
  0
BLOCK
  8
LAYER_3
  2
AIGNBL030200C5
 70
64
 10
0
 20
0
 30
0
  3
AIGNBL030200C5
  0
POLYLINE
  8
LAYER_3
 40
0.1058
 41
0.1058
 66
1
 10
0
 20
0
 30
0
  0
VERTEX
  8
LAYER_3
 10
87.3594
 20
-146.3698
  0
VERTEX
  8
LAYER_3
 10
89.8629
 20
-146.3698
  0
SEQEND
  0
ENDBLK
  0
BLOCK
  8
LAYER_3
  2
AIGNBL030200C6
 70
64
 10
0
 20
0
 30
0
  3
AIGNBL030200C6
  0
POLYLINE
  8
LAYER_3
 40
0.1058
 41
0.1058
 66
1
 10
0
 20
0
 30
0
  0
VERTEX
  8
LAYER_3
 10
89.8629
 20
-135.1738
  0
VERTEX
  8
LAYER_3
 10
91.2769
 20
-135.1738
  0
SEQEND
  0
ENDBLK
  0
BLOCK
  8
LAYER_3
  2
AIGNBL030200C7
 70
64
 10
0
 20
0
 30
0
  3
AIGNBL030200C7
  0
POLYLINE
  8
LAYER_3
 40
0.1058
 41
0.1058
 66
1
 10
0
 20
0
 30
0
  0
VERTEX
  8
LAYER_3
 10
85.4587
 20
-135.1738
  0
VERTEX
  8
LAYER_3
 10
87.3594
 20
-135.1738
  0
SEQEND
  0
ENDBLK
  0
BLOCK
  8
LAYER_3
  2
AIGNBL030200C8
 70
64
 10
0
 20
0
 30
0
  3
AIGNBL030200C8
  0
POLYLINE
  8
LAYER_3
 40
0.1058
 41
0.1058
 66
1
 10
0
 20
0
 30
0
  0
VERTEX
  8
LAYER_3
 10
89.8629
 20
-146.2308
  0
VERTEX
  8
LAYER_3
 10
91.2769
 20
-146.2308
  0
SEQEND
  0
ENDBLK
  0
BLOCK
  8
LAYER_3
  2
AIGNBL030200C9
 70
64
 10
0
 20
0
 30
0
  3
AIGNBL030200C9
  0
POLYLINE
  8
LAYER_3
 40
0.1058
 41
0.1058
 66
1
 10
0
 20
0
 30
0
  0
VERTEX
  8
LAYER_3
 10
85.4587
 20
-146.2308
  0
VERTEX
  8
LAYER_3
 10
87.3594
 20
-146.2308
  0
SEQEND
  0
ENDBLK
  0
BLOCK
  8
LAYER_3
  2
AIGNBL030200CA
 70
64
 10
0
 20
0
 30
0
  3
AIGNBL030200CA
  0
POLYLINE
  8
LAYER_3
 40
0.1058
 41
0.1058
 66
1
 10
0
 20
0
 30
0
  0
VERTEX
  8
LAYER_3
 10
80.336
 20
-146.8334
  0
VERTEX
  8
LAYER_3
 10
80.3822
 20
-146.8566
  0
SEQEND
  0
ENDBLK
  0
BLOCK
  8
LAYER_3
  2
AIGNBL030200CB
 70
64
 10
0
 20
0
 30
0
  3
AIGNBL030200CB
  0
POLYLINE
  8
LAYER_3
 40
0.1058
 41
0.1058
 66
1
 10
0
 20
0
 30
0
  0
VERTEX
  8
LAYER_3
 10
80.336
 20
-146.8103
  0
VERTEX
  8
LAYER_3
 10
80.3822
 20
-146.8103
  0
SEQEND
  0
ENDBLK
  0
BLOCK
  8
LAYER_1
  2
AIGNBL01010002
 70
64
 10
0
 20
0
 30
0
  3
AIGNBL01010002
  0
INSERT
  8
LAYER_1
  2
AIGNBL01020003
 10
0
 20
0
 30
0
  0
INSERT
  8
LAYER_1
  2
AIGNBL0102000C
 10
0
 20
0
 30
0
  0
ENDBLK
  0
BLOCK
  8
LAYER_3
  2
AIGNBL03010002
 70
64
 10
0
 20
0
 30
0
  3
AIGNBL03010002
  0
INSERT
  8
LAYER_3
  2
AIGNBL03020003
 10
0
 20
0
 30
0
  0
INSERT
  8
LAYER_3
  2
AIGNBL03020004
 10
0
 20
0
 30
0
  0
INSERT
  8
LAYER_3
  2
AIGNBL03020005
 10
0
 20
0
 30
0
  0
INSERT
  8
LAYER_3
  2
AIGNBL03020006
 10
0
 20
0
 30
0
  0
INSERT
  8
LAYER_3
  2
AIGNBL03020007
 10
0
 20
0
 30
0
  0
INSERT
  8
LAYER_3
  2
AIGNBL03020008
 10
0
 20
0
 30
0
  0
INSERT
  8
LAYER_3
  2
AIGNBL03020009
 10
0
 20
0
 30
0
  0
INSERT
  8
LAYER_3
  2
AIGNBL0302000A
 10
0
 20
0
 30
0
  0
INSERT
  8
LAYER_3
  2
AIGNBL0302000B
 10
0
 20
0
 30
0
  0
INSERT
  8
LAYER_3
  2
AIGNBL0302000C
 10
0
 20
0
 30
0
  0
INSERT
  8
LAYER_3
  2
AIGNBL0302000D
 10
0
 20
0
 30
0
  0
INSERT
  8
LAYER_3
  2
AIGNBL0302000E
 10
0
 20
0
 30
0
  0
INSERT
  8
LAYER_3
  2
AIGNBL0302000F
 10
0
 20
0
 30
0
  0
INSERT
  8
LAYER_3
  2
AIGNBL03020010
 10
0
 20
0
 30
0
  0
INSERT
  8
LAYER_3
  2
AIGNBL03020011
 10
0
 20
0
 30
0
  0
INSERT
  8
LAYER_3
  2
AIGNBL03020012
 10
0
 20
0
 30
0
  0
INSERT
  8
LAYER_3
  2
AIGNBL03020013
 10
0
 20
0
 30
0
  0
INSERT
  8
LAYER_3
  2
AIGNBL03020014
 10
0
 20
0
 30
0
  0
INSERT
  8
LAYER_3
  2
AIGNBL03020015
 10
0
 20
0
 30
0
  0
INSERT
  8
LAYER_3
  2
AIGNBL03020016
 10
0
 20
0
 30
0
  0
INSERT
  8
LAYER_3
  2
AIGNBL03020017
 10
0
 20
0
 30
0
  0
INSERT
  8
LAYER_3
  2
AIGNBL03020018
 10
0
 20
0
 30
0
  0
INSERT
  8
LAYER_3
  2
AIGNBL03020019
 10
0
 20
0
 30
0
  0
INSERT
  8
LAYER_3
  2
AIGNBL0302001A
 10
0
 20
0
 30
0
  0
INSERT
  8
LAYER_3
  2
AIGNBL0302001B
 10
0
 20
0
 30
0
  0
INSERT
  8
LAYER_3
  2
AIGNBL0302001C
 10
0
 20
0
 30
0
  0
INSERT
  8
LAYER_3
  2
AIGNBL0302001D
 10
0
 20
0
 30
0
  0
INSERT
  8
LAYER_3
  2
AIGNBL0302001E
 10
0
 20
0
 30
0
  0
INSERT
  8
LAYER_3
  2
AIGNBL0302001F
 10
0
 20
0
 30
0
  0
INSERT
  8
LAYER_3
  2
AIGNBL03020020
 10
0
 20
0
 30
0
  0
INSERT
  8
LAYER_3
  2
AIGNBL03020021
 10
0
 20
0
 30
0
  0
INSERT
  8
LAYER_3
  2
AIGNBL03020022
 10
0
 20
0
 30
0
  0
INSERT
  8
LAYER_3
  2
AIGNBL03020023
 10
0
 20
0
 30
0
  0
INSERT
  8
LAYER_3
  2
AIGNBL03020024
 10
0
 20
0
 30
0
  0
INSERT
  8
LAYER_3
  2
AIGNBL03020025
 10
0
 20
0
 30
0
  0
INSERT
  8
LAYER_3
  2
AIGNBL03020026
 10
0
 20
0
 30
0
  0
INSERT
  8
LAYER_3
  2
AIGNBL03020027
 10
0
 20
0
 30
0
  0
INSERT
  8
LAYER_3
  2
AIGNBL03020028
 10
0
 20
0
 30
0
  0
INSERT
  8
LAYER_3
  2
AIGNBL03020029
 10
0
 20
0
 30
0
  0
INSERT
  8
LAYER_3
  2
AIGNBL0302002A
 10
0
 20
0
 30
0
  0
INSERT
  8
LAYER_3
  2
AIGNBL0302002B
 10
0
 20
0
 30
0
  0
INSERT
  8
LAYER_3
  2
AIGNBL0302002C
 10
0
 20
0
 30
0
  0
INSERT
  8
LAYER_3
  2
AIGNBL0302002D
 10
0
 20
0
 30
0
  0
INSERT
  8
LAYER_3
  2
AIGNBL0302002E
 10
0
 20
0
 30
0
  0
INSERT
  8
LAYER_3
  2
AIGNBL0302002F
 10
0
 20
0
 30
0
  0
INSERT
  8
LAYER_3
  2
AIGNBL03020030
 10
0
 20
0
 30
0
  0
INSERT
  8
LAYER_3
  2
AIGNBL03020031
 10
0
 20
0
 30
0
  0
INSERT
  8
LAYER_3
  2
AIGNBL03020032
 10
0
 20
0
 30
0
  0
INSERT
  8
LAYER_3
  2
AIGNBL03020033
 10
0
 20
0
 30
0
  0
INSERT
  8
LAYER_3
  2
AIGNBL03020034
 10
0
 20
0
 30
0
  0
INSERT
  8
LAYER_3
  2
AIGNBL03020035
 10
0
 20
0
 30
0
  0
INSERT
  8
LAYER_3
  2
AIGNBL03020036
 10
0
 20
0
 30
0
  0
INSERT
  8
LAYER_3
  2
AIGNBL03020037
 10
0
 20
0
 30
0
  0
INSERT
  8
LAYER_3
  2
AIGNBL03020038
 10
0
 20
0
 30
0
  0
INSERT
  8
LAYER_3
  2
AIGNBL03020039
 10
0
 20
0
 30
0
  0
INSERT
  8
LAYER_3
  2
AIGNBL0302003A
 10
0
 20
0
 30
0
  0
INSERT
  8
LAYER_3
  2
AIGNBL0302003B
 10
0
 20
0
 30
0
  0
INSERT
  8
LAYER_3
  2
AIGNBL0302003C
 10
0
 20
0
 30
0
  0
INSERT
  8
LAYER_3
  2
AIGNBL0302003D
 10
0
 20
0
 30
0
  0
INSERT
  8
LAYER_3
  2
AIGNBL0302003E
 10
0
 20
0
 30
0
  0
INSERT
  8
LAYER_3
  2
AIGNBL0302003F
 10
0
 20
0
 30
0
  0
INSERT
  8
LAYER_3
  2
AIGNBL03020040
 10
0
 20
0
 30
0
  0
INSERT
  8
LAYER_3
  2
AIGNBL03020041
 10
0
 20
0
 30
0
  0
INSERT
  8
LAYER_3
  2
AIGNBL03020042
 10
0
 20
0
 30
0
  0
INSERT
  8
LAYER_3
  2
AIGNBL03020043
 10
0
 20
0
 30
0
  0
INSERT
  8
LAYER_3
  2
AIGNBL03020044
 10
0
 20
0
 30
0
  0
INSERT
  8
LAYER_3
  2
AIGNBL03020045
 10
0
 20
0
 30
0
  0
INSERT
  8
LAYER_3
  2
AIGNBL03020046
 10
0
 20
0
 30
0
  0
INSERT
  8
LAYER_3
  2
AIGNBL03020047
 10
0
 20
0
 30
0
  0
INSERT
  8
LAYER_3
  2
AIGNBL03020048
 10
0
 20
0
 30
0
  0
INSERT
  8
LAYER_3
  2
AIGNBL03020049
 10
0
 20
0
 30
0
  0
INSERT
  8
LAYER_3
  2
AIGNBL0302004A
 10
0
 20
0
 30
0
  0
INSERT
  8
LAYER_3
  2
AIGNBL0302004B
 10
0
 20
0
 30
0
  0
INSERT
  8
LAYER_3
  2
AIGNBL0302004C
 10
0
 20
0
 30
0
  0
INSERT
  8
LAYER_3
  2
AIGNBL0302004D
 10
0
 20
0
 30
0
  0
INSERT
  8
LAYER_3
  2
AIGNBL0302004E
 10
0
 20
0
 30
0
  0
INSERT
  8
LAYER_3
  2
AIGNBL0302004F
 10
0
 20
0
 30
0
  0
INSERT
  8
LAYER_3
  2
AIGNBL03020050
 10
0
 20
0
 30
0
  0
INSERT
  8
LAYER_3
  2
AIGNBL03020051
 10
0
 20
0
 30
0
  0
INSERT
  8
LAYER_3
  2
AIGNBL03020052
 10
0
 20
0
 30
0
  0
INSERT
  8
LAYER_3
  2
AIGNBL03020053
 10
0
 20
0
 30
0
  0
INSERT
  8
LAYER_3
  2
AIGNBL03020054
 10
0
 20
0
 30
0
  0
INSERT
  8
LAYER_3
  2
AIGNBL03020055
 10
0
 20
0
 30
0
  0
INSERT
  8
LAYER_3
  2
AIGNBL03020056
 10
0
 20
0
 30
0
  0
INSERT
  8
LAYER_3
  2
AIGNBL03020057
 10
0
 20
0
 30
0
  0
INSERT
  8
LAYER_3
  2
AIGNBL03020058
 10
0
 20
0
 30
0
  0
INSERT
  8
LAYER_3
  2
AIGNBL03020059
 10
0
 20
0
 30
0
  0
INSERT
  8
LAYER_3
  2
AIGNBL0302005A
 10
0
 20
0
 30
0
  0
INSERT
  8
LAYER_3
  2
AIGNBL0302005B
 10
0
 20
0
 30
0
  0
INSERT
  8
LAYER_3
  2
AIGNBL0302005C
 10
0
 20
0
 30
0
  0
INSERT
  8
LAYER_3
  2
AIGNBL0302005D
 10
0
 20
0
 30
0
  0
INSERT
  8
LAYER_3
  2
AIGNBL0302005E
 10
0
 20
0
 30
0
  0
INSERT
  8
LAYER_3
  2
AIGNBL0302005F
 10
0
 20
0
 30
0
  0
INSERT
  8
LAYER_3
  2
AIGNBL03020060
 10
0
 20
0
 30
0
  0
INSERT
  8
LAYER_3
  2
AIGNBL03020061
 10
0
 20
0
 30
0
  0
INSERT
  8
LAYER_3
  2
AIGNBL03020062
 10
0
 20
0
 30
0
  0
INSERT
  8
LAYER_3
  2
AIGNBL03020063
 10
0
 20
0
 30
0
  0
INSERT
  8
LAYER_3
  2
AIGNBL03020064
 10
0
 20
0
 30
0
  0
INSERT
  8
LAYER_3
  2
AIGNBL03020065
 10
0
 20
0
 30
0
  0
INSERT
  8
LAYER_3
  2
AIGNBL03020066
 10
0
 20
0
 30
0
  0
INSERT
  8
LAYER_3
  2
AIGNBL03020067
 10
0
 20
0
 30
0
  0
INSERT
  8
LAYER_3
  2
AIGNBL03020068
 10
0
 20
0
 30
0
  0
INSERT
  8
LAYER_3
  2
AIGNBL03020069
 10
0
 20
0
 30
0
  0
INSERT
  8
LAYER_3
  2
AIGNBL0302006A
 10
0
 20
0
 30
0
  0
INSERT
  8
LAYER_3
  2
AIGNBL0302006B
 10
0
 20
0
 30
0
  0
INSERT
  8
LAYER_3
  2
AIGNBL0302006C
 10
0
 20
0
 30
0
  0
INSERT
  8
LAYER_3
  2
AIGNBL0302006D
 10
0
 20
0
 30
0
  0
INSERT
  8
LAYER_3
  2
AIGNBL0302006E
 10
0
 20
0
 30
0
  0
INSERT
  8
LAYER_3
  2
AIGNBL0302006F
 10
0
 20
0
 30
0
  0
INSERT
  8
LAYER_3
  2
AIGNBL03020070
 10
0
 20
0
 30
0
  0
INSERT
  8
LAYER_3
  2
AIGNBL03020071
 10
0
 20
0
 30
0
  0
INSERT
  8
LAYER_3
  2
AIGNBL03020072
 10
0
 20
0
 30
0
  0
INSERT
  8
LAYER_3
  2
AIGNBL03020073
 10
0
 20
0
 30
0
  0
INSERT
  8
LAYER_3
  2
AIGNBL03020074
 10
0
 20
0
 30
0
  0
INSERT
  8
LAYER_3
  2
AIGNBL03020075
 10
0
 20
0
 30
0
  0
INSERT
  8
LAYER_3
  2
AIGNBL03020076
 10
0
 20
0
 30
0
  0
INSERT
  8
LAYER_3
  2
AIGNBL03020077
 10
0
 20
0
 30
0
  0
INSERT
  8
LAYER_3
  2
AIGNBL03020078
 10
0
 20
0
 30
0
  0
INSERT
  8
LAYER_3
  2
AIGNBL03020079
 10
0
 20
0
 30
0
  0
INSERT
  8
LAYER_3
  2
AIGNBL0302007A
 10
0
 20
0
 30
0
  0
INSERT
  8
LAYER_3
  2
AIGNBL0302007B
 10
0
 20
0
 30
0
  0
INSERT
  8
LAYER_3
  2
AIGNBL0302007C
 10
0
 20
0
 30
0
  0
INSERT
  8
LAYER_3
  2
AIGNBL0302007D
 10
0
 20
0
 30
0
  0
INSERT
  8
LAYER_3
  2
AIGNBL0302007E
 10
0
 20
0
 30
0
  0
INSERT
  8
LAYER_3
  2
AIGNBL0302007F
 10
0
 20
0
 30
0
  0
INSERT
  8
LAYER_3
  2
AIGNBL03020080
 10
0
 20
0
 30
0
  0
INSERT
  8
LAYER_3
  2
AIGNBL03020081
 10
0
 20
0
 30
0
  0
INSERT
  8
LAYER_3
  2
AIGNBL03020082
 10
0
 20
0
 30
0
  0
INSERT
  8
LAYER_3
  2
AIGNBL03020083
 10
0
 20
0
 30
0
  0
INSERT
  8
LAYER_3
  2
AIGNBL03020084
 10
0
 20
0
 30
0
  0
INSERT
  8
LAYER_3
  2
AIGNBL03020085
 10
0
 20
0
 30
0
  0
INSERT
  8
LAYER_3
  2
AIGNBL03020086
 10
0
 20
0
 30
0
  0
INSERT
  8
LAYER_3
  2
AIGNBL03020087
 10
0
 20
0
 30
0
  0
INSERT
  8
LAYER_3
  2
AIGNBL03020088
 10
0
 20
0
 30
0
  0
INSERT
  8
LAYER_3
  2
AIGNBL03020089
 10
0
 20
0
 30
0
  0
INSERT
  8
LAYER_3
  2
AIGNBL0302008A
 10
0
 20
0
 30
0
  0
INSERT
  8
LAYER_3
  2
AIGNBL0302008B
 10
0
 20
0
 30
0
  0
INSERT
  8
LAYER_3
  2
AIGNBL0302008C
 10
0
 20
0
 30
0
  0
INSERT
  8
LAYER_3
  2
AIGNBL0302008D
 10
0
 20
0
 30
0
  0
INSERT
  8
LAYER_3
  2
AIGNBL0302008E
 10
0
 20
0
 30
0
  0
INSERT
  8
LAYER_3
  2
AIGNBL0302008F
 10
0
 20
0
 30
0
  0
INSERT
  8
LAYER_3
  2
AIGNBL03020090
 10
0
 20
0
 30
0
  0
INSERT
  8
LAYER_3
  2
AIGNBL03020091
 10
0
 20
0
 30
0
  0
INSERT
  8
LAYER_3
  2
AIGNBL03020092
 10
0
 20
0
 30
0
  0
INSERT
  8
LAYER_3
  2
AIGNBL03020093
 10
0
 20
0
 30
0
  0
INSERT
  8
LAYER_3
  2
AIGNBL03020094
 10
0
 20
0
 30
0
  0
INSERT
  8
LAYER_3
  2
AIGNBL03020095
 10
0
 20
0
 30
0
  0
INSERT
  8
LAYER_3
  2
AIGNBL03020096
 10
0
 20
0
 30
0
  0
INSERT
  8
LAYER_3
  2
AIGNBL03020097
 10
0
 20
0
 30
0
  0
INSERT
  8
LAYER_3
  2
AIGNBL03020098
 10
0
 20
0
 30
0
  0
INSERT
  8
LAYER_3
  2
AIGNBL03020099
 10
0
 20
0
 30
0
  0
INSERT
  8
LAYER_3
  2
AIGNBL0302009A
 10
0
 20
0
 30
0
  0
INSERT
  8
LAYER_3
  2
AIGNBL0302009B
 10
0
 20
0
 30
0
  0
INSERT
  8
LAYER_3
  2
AIGNBL0302009C
 10
0
 20
0
 30
0
  0
INSERT
  8
LAYER_3
  2
AIGNBL0302009D
 10
0
 20
0
 30
0
  0
INSERT
  8
LAYER_3
  2
AIGNBL0302009E
 10
0
 20
0
 30
0
  0
INSERT
  8
LAYER_3
  2
AIGNBL0302009F
 10
0
 20
0
 30
0
  0
INSERT
  8
LAYER_3
  2
AIGNBL030200A0
 10
0
 20
0
 30
0
  0
INSERT
  8
LAYER_3
  2
AIGNBL030200A1
 10
0
 20
0
 30
0
  0
INSERT
  8
LAYER_3
  2
AIGNBL030200A2
 10
0
 20
0
 30
0
  0
INSERT
  8
LAYER_3
  2
AIGNBL030200A3
 10
0
 20
0
 30
0
  0
INSERT
  8
LAYER_3
  2
AIGNBL030200A4
 10
0
 20
0
 30
0
  0
INSERT
  8
LAYER_3
  2
AIGNBL030200A5
 10
0
 20
0
 30
0
  0
INSERT
  8
LAYER_3
  2
AIGNBL030200A6
 10
0
 20
0
 30
0
  0
INSERT
  8
LAYER_3
  2
AIGNBL030200A7
 10
0
 20
0
 30
0
  0
INSERT
  8
LAYER_3
  2
AIGNBL030200A8
 10
0
 20
0
 30
0
  0
INSERT
  8
LAYER_3
  2
AIGNBL030200A9
 10
0
 20
0
 30
0
  0
INSERT
  8
LAYER_3
  2
AIGNBL030200AA
 10
0
 20
0
 30
0
  0
INSERT
  8
LAYER_3
  2
AIGNBL030200AB
 10
0
 20
0
 30
0
  0
INSERT
  8
LAYER_3
  2
AIGNBL030200AC
 10
0
 20
0
 30
0
  0
INSERT
  8
LAYER_3
  2
AIGNBL030200AD
 10
0
 20
0
 30
0
  0
INSERT
  8
LAYER_3
  2
AIGNBL030200AE
 10
0
 20
0
 30
0
  0
INSERT
  8
LAYER_3
  2
AIGNBL030200AF
 10
0
 20
0
 30
0
  0
INSERT
  8
LAYER_3
  2
AIGNBL030200B0
 10
0
 20
0
 30
0
  0
INSERT
  8
LAYER_3
  2
AIGNBL030200B1
 10
0
 20
0
 30
0
  0
INSERT
  8
LAYER_3
  2
AIGNBL030200B2
 10
0
 20
0
 30
0
  0
INSERT
  8
LAYER_3
  2
AIGNBL030200B3
 10
0
 20
0
 30
0
  0
INSERT
  8
LAYER_3
  2
AIGNBL030200B4
 10
0
 20
0
 30
0
  0
INSERT
  8
LAYER_3
  2
AIGNBL030200B5
 10
0
 20
0
 30
0
  0
INSERT
  8
LAYER_3
  2
AIGNBL030200B6
 10
0
 20
0
 30
0
  0
INSERT
  8
LAYER_3
  2
AIGNBL030200B7
 10
0
 20
0
 30
0
  0
INSERT
  8
LAYER_3
  2
AIGNBL030200B8
 10
0
 20
0
 30
0
  0
INSERT
  8
LAYER_3
  2
AIGNBL030200B9
 10
0
 20
0
 30
0
  0
INSERT
  8
LAYER_3
  2
AIGNBL030200BA
 10
0
 20
0
 30
0
  0
INSERT
  8
LAYER_3
  2
AIGNBL030200BB
 10
0
 20
0
 30
0
  0
INSERT
  8
LAYER_3
  2
AIGNBL030200BC
 10
0
 20
0
 30
0
  0
INSERT
  8
LAYER_3
  2
AIGNBL030200BD
 10
0
 20
0
 30
0
  0
INSERT
  8
LAYER_3
  2
AIGNBL030200BE
 10
0
 20
0
 30
0
  0
INSERT
  8
LAYER_3
  2
AIGNBL030200BF
 10
0
 20
0
 30
0
  0
INSERT
  8
LAYER_3
  2
AIGNBL030200C0
 10
0
 20
0
 30
0
  0
INSERT
  8
LAYER_3
  2
AIGNBL030200C1
 10
0
 20
0
 30
0
  0
INSERT
  8
LAYER_3
  2
AIGNBL030200C2
 10
0
 20
0
 30
0
  0
INSERT
  8
LAYER_3
  2
AIGNBL030200C3
 10
0
 20
0
 30
0
  0
INSERT
  8
LAYER_3
  2
AIGNBL030200C4
 10
0
 20
0
 30
0
  0
INSERT
  8
LAYER_3
  2
AIGNBL030200C5
 10
0
 20
0
 30
0
  0
INSERT
  8
LAYER_3
  2
AIGNBL030200C6
 10
0
 20
0
 30
0
  0
INSERT
  8
LAYER_3
  2
AIGNBL030200C7
 10
0
 20
0
 30
0
  0
INSERT
  8
LAYER_3
  2
AIGNBL030200C8
 10
0
 20
0
 30
0
  0
INSERT
  8
LAYER_3
  2
AIGNBL030200C9
 10
0
 20
0
 30
0
  0
INSERT
  8
LAYER_3
  2
AIGNBL030200CA
 10
0
 20
0
 30
0
  0
INSERT
  8
LAYER_3
  2
AIGNBL030200CB
 10
0
 20
0
 30
0
  0
ENDBLK
  0
BLOCK
  8
LAYER_6
  2
AIGNBL06010002
 70
64
 10
0
 20
0
 30
0
  3
AIGNBL06010002
  0
POLYLINE
  8
LAYER_6
 40
0.7056
 41
0.7056
 66
1
 10
0
 20
0
 30
0
 70
1
  0
VERTEX
  8
LAYER_6
 10
33.7873
 20
22.6587
  0
VERTEX
  8
LAYER_6
 10
230.7955
 20
22.6587
  0
VERTEX
  8
LAYER_6
 10
230.7955
 20
-259.334
  0
VERTEX
  8
LAYER_6
 10
33.7873
 20
-259.334
  0
SEQEND
  0
ENDBLK
  0
ENDSEC
  0
SECTION
  2
ENTITIES
  0
INSERT
  8
LAYER_1
  2
AIGNBL01010002
 10
0
 20
0
 30
0
  0
INSERT
  8
LAYER_3
  2
AIGNBL03010002
 10
0
 20
0
 30
0
  0
INSERT
  8
LAYER_6
  2
AIGNBL06010002
 10
0
 20
0
 30
0
  0
POLYLINE
  8
LAYER_6
 40
0.3528
 41
0.3528
 66
1
 10
0
 20
0
 30
0
  0
VERTEX
  8
LAYER_6
 10
34.7876
 20
-258.3332
  0
VERTEX
  8
LAYER_6
 10
229.7955
 20
-258.3332
  0
VERTEX
  8
LAYER_6
 10
229.7955
 20
21.6583
  0
VERTEX
  8
LAYER_6
 10
34.7876
 20
21.6583
  0
VERTEX
  8
LAYER_6
 10
34.7876
 20
-258.3332
  0
SEQEND
  0
TEXT
  8
LAYER_6
 10
166.4505
 20
-248.7955
 11
166.4505
 21
-248.7955
 40
3.3853
 41
0.5
  1
●TEL 0120-65-1232●FAX 06-6532-1580
  0
TEXT
  8
LAYER_6
 10
166.4505
 20
-252.3102
 11
166.4505
 21
-252.3102
 40
3.3853
 41
0.5
  1
hits@hiratatile.co.jp
  0
TEXT
  8
LAYER_6
 10
218.9756
 20
18.4461
 11
218.9756
 21
18.4461
 40
2.0732
 41
0.5
  1
190703RT
  0
TEXT
  8
LAYER_6
 10
37.8495
 20
-250.3797
 11
37.8495
 21
-250.3797
 40
3.2995
 41
0.5
  1
仕様
  0
POLYLINE
  8
LAYER_6
 40
0.3528
 41
0.3528
 66
1
 10
0
 20
0
 30
0
  0
VERTEX
  8
LAYER_6
 10
229.7955
 20
-241.6001
  0
VERTEX
  8
LAYER_6
 10
34.7874
 20
-241.6001
  0
SEQEND
  0
POLYLINE
  8
LAYER_6
 40
0.3528
 41
0.3528
 66
1
 10
0
 20
0
 30
0
  0
VERTEX
  8
LAYER_6
 10
229.7955
 20
-233.091
  0
VERTEX
  8
LAYER_6
 10
34.7874
 20
-233.091
  0
SEQEND
  0
TEXT
  8
LAYER_6
 10
35.9444
 20
-235.5675
 11
35.9444
 21
-235.5675
 40
2.1997
 41
0.5
  1
品名
  0
TEXT
  8
LAYER_6
 10
48.7874
 20
-238.6599
 11
48.7874
 21
-238.6599
 40
3.6373
 41
0.5
  1
ポップアップ排水金具（オーバーフローあり）
  0
TEXT
  8
LAYER_6
 10
48.4217
 20
-250.3883
 11
48.4217
 21
-250.3883
 40
3.1177
 41
0.5
  1
●オーバーフローあり　●欧州仕様
  0
TEXT
  8
LAYER_6
 10
151.5017
 20
-235.5677
 11
151.5017
 21
-235.5677
 40
2.1997
 41
0.5
  1
品番
  0
TEXT
  8
LAYER_6
 10
157.5237
 20
-240.0443
 11
157.5237
 21
-240.0443
 40
5.9385
 41
0.5
  1
AQ-H7041N
  0
TEXT
  8
LAYER_6
 10
37.5245
 20
-211.2067
 11
37.5245
 21
-211.2067
 40
2.3382
 41
0.5
  1
※洗面器を挟む位置・トラップ接続部にはシリコンコーキング等にて止水処理を行ってください。
  0
TEXT
  8
LAYER_6
 10
37.5245
 20
-215.7067
 11
37.5245
 21
-215.7067
 40
2.3382
 41
0.5
  1
※漏水および洗面器の破損防止のため、パッキン類が弾性を保てる範囲で締め付けてください。
  0
TEXT
  8
LAYER_6
 10
37.5245
 20
-220.2067
 11
37.5245
 21
-220.2067
 40
2.3382
 41
0.5
  1
※欧州仕様の排水金具のため、日米仕様のトラップとは接続できません。
  0
ENDSEC
  0
EOF
